  0
SECTION
  2
HEADER
  9
$EXTMAX
 10
594.0
 20
420.0
 30
0.0
  9
$EXTMIN
 10
0.0
 20
0.0
 30
0.0
  9
$LIMMIN
 10
0.0
 20
0.0
  9
$LIMMAX
 10
594.0
 20
420.0
  9
$VIEWCTR
 10
297.0
 20
210.0
  9
$VIEWSIZE
 40
420.0
  9
$CLAYER
  8
0
  9
$LTSCALE
 40
32.67
  9
$CELTYPE
  6
BYLAYER
  9
$DIMSCALE
 40
1.0
  9
$DIMASZ
 40
3.5
  9
$DIMEXO
 40
1.0
  9
$DIMDLI
 40
22.572
  9
$DIMEXE
 40
2.0
  9
$DIMCEN
 40
5.346
  9
$DIMLFAC
 40
1.0
  9
$DIMBLK
  1
_FILLED
  9
$DIMALT
 70
0
  9
$DIMALTF
 40
0.0393700787
  9
$DIMTXT
 40
3.5
  9
$AUNITS
 70
0
  9
$PDMODE
 70
3
  9
$PDSIZE
 40
0.3125
  9
$TILEMODE
 70
1
  0
ENDSEC
  0
SECTION
  2
TABLES
  0
TABLE
  2
LTYPE
 70
6
  0
LTYPE
  2
BYBLOCK
 70
0
  3

 72
65
 73
0
 40
0.0
  0
LTYPE
  2
BYLAYER
 70
0
  3

 72
65
 73
0
 40
0.0
  0
LTYPE
  2
CONTINUOUS
 70
64
  3
Solid line
 72
65
 73
0
 40
0.0
  0
LTYPE
  2
CENTER
 70
64
  3
____ _ ____ _ ____ _ ____ _ ____ _ ____ _ ____
 72
65
 73
4
 40
0.6
 49
0.375
 49
-0.075
 49
0.075
 49
-0.075
  0
LTYPE
  2
HIDDEN
 70
64
  3
- - - - - - - - - - - - - - - - - - - -
 72
65
 73
2
 40
0.2
 49
0.1
 49
-0.1
  0
LTYPE
  2
PHANTOM
 70
64
  3
_____ _ _ _____ _ _ _____ _ _ _____
 72
65
 73
6
 40
0.8
 49
0.45
 49
-0.05
 49
0.1
 49
-0.05
 49
0.1
 49
-0.05
  0
LTYPE
  2
DOT
 70
64
  3
. . . . . . . . . . . . . . . . . . . .
 72
65
 73
2
 40
0.2
 49
0.1
 49
-0.1
  0
LTYPE
  2
DASHED
 70
64
  3
- - - - - - - - - - - - - - - - - - - -
 72
65
 73
2
 40
0.2
 49
0.1
 49
-0.1
  0
ENDTAB
  0
TABLE
  2
LAYER
 70
36
  0
LAYER
  2
0
 70
0
 62
7
  6
CONTINUOUS
  0
LAYER
  2
DEFAULT_1
 70
0
 62
7
  6
CENTER
  0
LAYER
  2
DEFAULT_2
 70
0
 62
8
  6
HIDDEN
  0
LAYER
  2
DEFAULT_3
 70
0
 62
7
  6
PHANTOM
  0
LAYER
  2
1_CSYS
 70
0
 62
7
  6
CONTINUOUS
  0
LAYER
  2
1_DATUM_PLANE
 70
0
 62
7
  6
CONTINUOUS
  0
LAYER
  2
2_FEATURE
 70
0
 62
7
  6
CONTINUOUS
  0
LAYER
  2
6_DIM
 70
0
 62
7
  6
CONTINUOUS
  0
LAYER
  2
AXES
 70
0
 62
7
  6
CONTINUOUS
  0
LAYER
  2
BLANK_CURVE
 70
0
 62
7
  6
CONTINUOUS
  0
LAYER
  2
CSYS
 70
0
 62
7
  6
CONTINUOUS
  0
LAYER
  2
NOTES
 70
0
 62
7
  6
CONTINUOUS
  0
LAYER
  2
PITCH_DIAMETER
 70
0
 62
7
  6
CONTINUOUS
  0
LAYER
  2
PITCH_LINE
 70
0
 62
7
  6
CONTINUOUS
  0
LAYER
  2
PLANES
 70
0
 62
7
  6
CONTINUOUS
  0
LAYER
  2
QUILTS
 70
0
 62
7
  6
CONTINUOUS
  0
ENDTAB
  0
TABLE
  2
STYLE
 70
1
  0
STYLE
  2
STANDARD
 70
0
 40
0.0
 41
0.8
 50
0.0
 71
0
 42
0.2
  3
txt
  4

  0
STYLE
  2
TEXTSTYLE_1
 70
0
 40
0.0
 41
0.8
 50
0.0
 71
0
 42
0.2
  3
gdt
  4

  0
STYLE
  2
TEXTSTYLE_2
 70
0
 40
0.0
 41
0.6
 50
0.0
 71
0
 42
0.2
  3
txt
  4

  0
STYLE
  2
TEXTSTYLE_3
 70
0
 40
0.0
 41
1.0
 50
0.0
 71
0
 42
0.2
  3
ftb_____.ttf
  4

  0
STYLE
  2
TEXTSTYLE_4
 70
0
 40
0.0
 41
1.0
 50
0.0
 71
0
 42
0.2
  3
fti_____.ttf
  4

  0
STYLE
  2
TEXTSTYLE_5
 70
0
 40
0.0
 41
1.0
 50
0.0
 71
0
 42
0.2
  3
frutiger light.ttf
  4

  0
STYLE
  2
TEXTSTYLE_6
 70
0
 40
0.0
 41
0.7
 50
0.0
 71
0
 42
0.2
  3
txt
  4

  0
STYLE
  2
TEXTSTYLE_7
 70
0
 40
0.0
 41
0.6
 50
0.0
 71
0
 42
0.2
  3
txt
  4

  0
ENDTAB
  0
ENDSEC
  0
SECTION
  2
BLOCKS
  0
BLOCK
  8
0
 62
2
  6
CONTINUOUS
  2
UNI_LOGO2_BL1
 70
64
 10
557.4079930916
 20
35.8092573885
  0
TEXT
  8
0
 62
7
  6
CONTINUOUS
 10
548.4662781001
 20
30.9020137655
  7
TEXTSTYLE_4
 40
1.0655737705
  1
The brand for plastic modular belts and chains
 41
1.0
 72
0
  0
LINE
  8
0
 62
7
  6
CONTINUOUS
 10
533.3860614807
 20
36.3830278803
 11
533.3860614807
 21
34.2518803393
  0
LINE
  8
0
 62
7
  6
CONTINUOUS
 10
533.6751239738
 20
31.2609490436
 11
533.6751239738
 21
31.3577401029
  0
LINE
  8
0
 62
7
  6
CONTINUOUS
 10
533.3860614807
 20
31.3254764164
 11
533.4438739824
 21
31.1318942979
  0
LINE
  8
0
 62
7
  6
CONTINUOUS
 10
534.7795041036
 20
34.1699131262
 11
534.7795041036
 21
36.3830278803
  0
LINE
  8
0
 62
7
  6
CONTINUOUS
 10
535.6985614255
 20
32.3256508311
 11
535.6985614255
 21
30.8092573885
  0
LINE
  8
0
 62
7
  6
CONTINUOUS
 10
535.9876239807
 20
30.8092573885
 11
535.9876239807
 21
31.5513222666
  0
LINE
  8
0
 62
7
  6
CONTINUOUS
 10
535.9876239807
 20
31.6803770123
 11
535.9876239807
 21
32.3256508311
  0
LINE
  8
0
 62
7
  6
CONTINUOUS
 10
533.4438739824
 20
31.5190585802
 11
533.3860614807
 21
31.3254764164
  0
LINE
  8
0
 62
7
  6
CONTINUOUS
 10
533.7907489669
 20
31.0996306115
 11
533.6751239738
 21
31.2609490436
  0
LINE
  8
0
 62
7
  6
CONTINUOUS
 10
534.8891865358
 20
31.6158496394
 11
534.9469989807
 21
31.5190585802
  0
LINE
  8
0
 62
7
  6
CONTINUOUS
 10
535.2360615358
 20
31.5190585802
 11
535.1782489255
 21
31.6481133259
  0
LINE
  8
0
 62
7
  6
CONTINUOUS
 10
536.6647500053
 20
36.3830278803
 11
536.6647500053
 21
34.5797491918
  0
LINE
  8
0
 62
7
  6
CONTINUOUS
 10
536.6647500053
 20
33.2682737819
 11
536.6647500053
 21
32.612536077
  0
LINE
  8
0
 62
7
  6
CONTINUOUS
 10
537.0282489807
 20
31.4545312073
 11
537.0282489807
 21
30.8092573885
  0
LINE
  8
0
 62
7
  6
CONTINUOUS
 10
537.3173113704
 20
30.8092573885
 11
537.3173113704
 21
31.4545312073
  0
LINE
  8
0
 62
7
  6
CONTINUOUS
 10
533.6751239738
 20
31.3577401029
 11
533.7329364807
 21
31.4867948937
  0
LINE
  8
0
 62
7
  6
CONTINUOUS
 10
533.4438739824
 20
31.1318942979
 11
533.5594989807
 21
31.0028395296
  0
LINE
  8
0
 62
7
  6
CONTINUOUS
 10
536.9704363704
 20
31.583585953
 11
537.0282489807
 21
31.4545312073
  0
LINE
  8
0
 62
7
  6
CONTINUOUS
 10
537.7798115909
 20
31.0996306115
 11
537.8376238704
 21
30.9705758432
  0
LINE
  8
0
 62
7
  6
CONTINUOUS
 10
537.3173113704
 20
31.4545312073
 11
537.2594990909
 21
31.6158496394
  0
LINE
  8
0
 62
7
  6
CONTINUOUS
 10
537.7798115909
 20
31.6481133259
 11
537.7798115909
 21
31.583585953
  0
LINE
  8
0
 62
7
  6
CONTINUOUS
 10
537.7798115909
 20
31.1964216708
 11
537.7798115909
 21
31.0996306115
  0
LINE
  8
0
 62
7
  6
CONTINUOUS
 10
538.0581926282
 20
32.612536077
 11
538.0581926282
 21
36.3830278803
  0
LINE
  8
0
 62
7
  6
CONTINUOUS
 10
538.0688739807
 20
31.0673669025
 11
538.0688739807
 21
31.1318942979
  0
LINE
  8
0
 62
7
  6
CONTINUOUS
 10
538.3860614807
 20
36.3830278803
 11
538.3860614807
 21
32.612536077
  0
LINE
  8
0
 62
7
  6
CONTINUOUS
 10
535.1782489255
 20
31.0028395296
 11
535.2360615358
 21
31.1318942979
  0
LINE
  8
0
 62
7
  6
CONTINUOUS
 10
539.5719992012
 20
30.9060484591
 11
539.5141862601
 21
31.0673669025
  0
LINE
  8
0
 62
7
  6
CONTINUOUS
 10
539.2251242012
 20
31.583585953
 11
539.2251242012
 21
31.4867948937
  0
LINE
  8
0
 62
7
  6
CONTINUOUS
 10
539.2251242012
 20
31.3577401029
 11
539.2251242012
 21
31.1641579843
  0
LINE
  8
0
 62
7
  6
CONTINUOUS
 10
539.5141862601
 20
31.0673669025
 11
539.5141862601
 21
31.583585953
  0
LINE
  8
0
 62
7
  6
CONTINUOUS
 10
539.7795041036
 20
32.612536077
 11
539.7795041036
 21
34.4158147655
  0
LINE
  8
0
 62
7
  6
CONTINUOUS
 10
539.7795041036
 20
35.7272901754
 11
539.7795041036
 21
36.3830278803
  0
LINE
  8
0
 62
7
  6
CONTINUOUS
 10
540.0923117012
 20
32.3256508311
 11
540.0923117012
 21
32.164332399
  0
LINE
  8
0
 62
7
  6
CONTINUOUS
 10
540.0923117012
 20
31.8416954444
 11
540.0923117012
 21
30.8092573885
  0
LINE
  8
0
 62
7
  6
CONTINUOUS
 10
540.3813737601
 20
30.8092573885
 11
540.3813737601
 21
31.8416954444
  0
LINE
  8
0
 62
7
  6
CONTINUOUS
 10
540.3813737601
 20
32.164332399
 11
540.3813737601
 21
32.3256508311
  0
LINE
  8
0
 62
7
  6
CONTINUOUS
 10
534.9469989807
 20
31.1318942979
 11
534.8891865358
 21
31.035103216
  0
LINE
  8
0
 62
7
  6
CONTINUOUS
 10
537.2594990909
 20
31.6158496394
 11
537.2016864807
 21
31.6803770123
  0
LINE
  8
0
 62
7
  6
CONTINUOUS
 10
538.1266865909
 20
31.0028395296
 11
538.0688739807
 21
31.0673669025
  0
LINE
  8
0
 62
7
  6
CONTINUOUS
 10
539.2829364807
 20
30.873784767
 11
539.3407487601
 21
30.8092573885
  0
LINE
  8
0
 62
7
  6
CONTINUOUS
 10
539.2251242012
 20
30.9705758432
 11
539.2829364807
 21
30.873784767
  0
LINE
  8
0
 62
7
  6
CONTINUOUS
 10
539.6298114807
 20
30.8092573885
 11
539.5719992012
 21
30.9060484591
  0
LINE
  8
0
 62
7
  6
CONTINUOUS
 10
539.5141862601
 20
31.583585953
 11
539.4563739807
 21
31.6803770123
  0
LINE
  8
0
 62
7
  6
CONTINUOUS
 10
540.8438739807
 20
31.8416954444
 11
540.8438739807
 21
30.8092573885
  0
LINE
  8
0
 62
7
  6
CONTINUOUS
 10
541.1329367012
 20
30.8092573885
 11
541.1329367012
 21
31.5513222666
  0
LINE
  8
0
 62
7
  6
CONTINUOUS
 10
541.1329367012
 20
31.6803770123
 11
541.1329367012
 21
31.8416954444
  0
LINE
  8
0
 62
7
  6
CONTINUOUS
 10
541.6647500053
 20
34.8256508311
 11
541.6647500053
 21
32.612536077
  0
LINE
  8
0
 62
7
  6
CONTINUOUS
 10
533.5594989807
 20
31.6481133259
 11
533.4438739824
 21
31.5190585802
  0
LINE
  8
0
 62
7
  6
CONTINUOUS
 10
533.7329364807
 20
31.4867948937
 11
533.7907489669
 21
31.5513222666
  0
LINE
  8
0
 62
7
  6
CONTINUOUS
 10
533.5594989807
 20
31.0028395296
 11
533.6751239738
 21
30.9383121455
  0
LINE
  8
0
 62
7
  6
CONTINUOUS
 10
533.9641864669
 20
31.0028395296
 11
533.7907489669
 21
31.0996306115
  0
LINE
  8
0
 62
7
  6
CONTINUOUS
 10
539.1673112601
 20
31.6481133259
 11
539.2251242012
 21
31.583585953
  0
LINE
  8
0
 62
7
  6
CONTINUOUS
 10
542.1157487601
 20
31.583585953
 11
542.1735617012
 21
31.4222675209
  0
LINE
  8
0
 62
7
  6
CONTINUOUS
 10
542.4626237601
 20
31.4222675209
 11
542.4048114807
 21
31.583585953
  0
LINE
  8
0
 62
7
  6
CONTINUOUS
 10
542.1735617012
 20
31.4222675209
 11
542.1735617012
 21
30.8092573885
  0
LINE
  8
0
 62
7
  6
CONTINUOUS
 10
542.4626237601
 20
30.8092573885
 11
542.4626237601
 21
31.4222675209
  0
LINE
  8
0
 62
7
  6
CONTINUOUS
 10
542.9251239807
 20
31.6481133259
 11
542.9251239807
 21
31.583585953
  0
LINE
  8
0
 62
7
  6
CONTINUOUS
 10
543.0581926282
 20
32.612536077
 11
543.0581926282
 21
34.743683618
  0
LINE
  8
0
 62
7
  6
CONTINUOUS
 10
543.3860614807
 20
36.3830278803
 11
543.3860614807
 21
32.612536077
  0
LINE
  8
0
 62
7
  6
CONTINUOUS
 10
538.0688739807
 20
31.1318942979
 11
538.1266865909
 21
31.2286853572
  0
LINE
  8
0
 62
7
  6
CONTINUOUS
 10
533.6751239738
 20
30.9383121455
 11
533.8485614944
 21
30.873784767
  0
LINE
  8
0
 62
7
  6
CONTINUOUS
 10
535.1782489255
 20
31.6481133259
 11
535.0048114255
 21
31.7449043851
  0
LINE
  8
0
 62
7
  6
CONTINUOUS
 10
537.8376238704
 20
30.9705758432
 11
538.0110613704
 21
30.873784767
  0
LINE
  8
0
 62
7
  6
CONTINUOUS
 10
536.8548114807
 20
31.6481133259
 11
536.9704363704
 21
31.583585953
  0
LINE
  8
0
 62
7
  6
CONTINUOUS
 10
537.2016864807
 20
31.6803770123
 11
537.0860615909
 21
31.7449043851
  0
LINE
  8
0
 62
7
  6
CONTINUOUS
 10
542.9251239807
 20
31.0673669025
 11
543.0407492012
 21
30.9383121455
  0
LINE
  8
0
 62
7
  6
CONTINUOUS
 10
543.2719989807
 20
31.0028395296
 11
543.2141867012
 21
31.0673669025
  0
LINE
  8
0
 62
7
  6
CONTINUOUS
 10
542.9251239807
 20
31.583585953
 11
543.0407492012
 21
31.4545312073
  0
LINE
  8
0
 62
7
  6
CONTINUOUS
 10
542.4048114807
 20
31.583585953
 11
542.3469992012
 21
31.6803770123
  0
LINE
  8
0
 62
7
  6
CONTINUOUS
 10
544.7751235396
 20
31.0028395296
 11
544.7751235396
 21
31.0673669025
  0
LINE
  8
0
 62
7
  6
CONTINUOUS
 10
544.7795041036
 20
32.612536077
 11
544.7795041036
 21
36.3830278803
  0
LINE
  8
0
 62
7
  6
CONTINUOUS
 10
537.8376238704
 20
31.7126406987
 11
537.7798115909
 21
31.6481133259
  0
LINE
  8
0
 62
7
  6
CONTINUOUS
 10
534.7157489531
 20
31.6803770123
 11
534.8891865358
 21
31.6158496394
  0
LINE
  8
0
 62
7
  6
CONTINUOUS
 10
539.4563739807
 20
31.6803770123
 11
539.3407487601
 21
31.7449043851
  0
LINE
  8
0
 62
7
  6
CONTINUOUS
 10
543.2719989807
 20
31.5190585802
 11
543.2141867012
 21
31.583585953
  0
LINE
  8
0
 62
7
  6
CONTINUOUS
 10
544.4282492012
 20
31.1318942979
 11
544.4860614807
 21
31.0673669025
  0
LINE
  8
0
 62
7
  6
CONTINUOUS
 10
544.7751235396
 20
31.0673669025
 11
544.6594989807
 21
31.1964216708
  0
LINE
  8
0
 62
7
  6
CONTINUOUS
 10
544.4282492012
 20
31.6481133259
 11
544.4860614807
 21
31.583585953
  0
LINE
  8
0
 62
7
  6
CONTINUOUS
 10
544.7751235396
 20
31.583585953
 11
544.6594989807
 21
31.7126406987
  0
LINE
  8
0
 62
7
  6
CONTINUOUS
 10
538.0688739807
 20
31.583585953
 11
538.1266865909
 21
31.6481133259
  0
LINE
  8
0
 62
7
  6
CONTINUOUS
 10
537.8954364807
 20
31.3254764164
 11
537.7798115909
 21
31.1964216708
  0
LINE
  8
0
 62
7
  6
CONTINUOUS
 10
539.2251242012
 20
31.1641579843
 11
539.1673112601
 21
31.0996306115
  0
LINE
  8
0
 62
7
  6
CONTINUOUS
 10
539.1673112601
 20
30.9060484591
 11
539.2251242012
 21
30.9705758432
  0
LINE
  8
0
 62
7
  6
CONTINUOUS
 10
538.0110613704
 20
30.873784767
 11
538.1266865909
 21
30.8415210777
  0
LINE
  8
0
 62
7
  6
CONTINUOUS
 10
535.0048114255
 20
31.7449043851
 11
534.7735614807
 21
31.809431758
  0
LINE
  8
0
 62
7
  6
CONTINUOUS
 10
538.3579363704
 20
30.9383121455
 11
538.1266865909
 21
31.0028395296
  0
LINE
  8
0
 62
7
  6
CONTINUOUS
 10
537.0860615909
 20
31.7449043851
 11
536.9126240909
 21
31.809431758
  0
LINE
  8
0
 62
7
  6
CONTINUOUS
 10
539.3407487601
 20
31.7449043851
 11
539.1673112601
 21
31.809431758
  0
LINE
  8
0
 62
7
  6
CONTINUOUS
 10
542.0001242012
 20
31.6481133259
 11
542.1157487601
 21
31.583585953
  0
LINE
  8
0
 62
7
  6
CONTINUOUS
 10
542.3469992012
 20
31.6803770123
 11
542.2313739807
 21
31.7449043851
  0
LINE
  8
0
 62
7
  6
CONTINUOUS
 10
533.8485614944
 20
30.873784767
 11
534.0219989944
 21
30.8415210777
  0
LINE
  8
0
 62
7
  6
CONTINUOUS
 10
534.3110615082
 20
30.9383121455
 11
533.9641864669
 21
31.0028395296
  0
LINE
  8
0
 62
7
  6
CONTINUOUS
 10
536.7391865909
 20
31.6803770123
 11
536.8548114807
 21
31.6481133259
  0
LINE
  8
0
 62
7
  6
CONTINUOUS
 10
539.0516867012
 20
31.6803770123
 11
539.1673112601
 21
31.6481133259
  0
LINE
  8
0
 62
7
  6
CONTINUOUS
 10
543.3876242012
 20
30.9705758432
 11
543.2719989807
 21
31.0028395296
  0
LINE
  8
0
 62
7
  6
CONTINUOUS
 10
541.8844989807
 20
31.6803770123
 11
542.0001242012
 21
31.6481133259
  0
LINE
  8
0
 62
7
  6
CONTINUOUS
 10
543.0407492012
 20
30.9383121455
 11
543.2141867012
 21
30.873784767
  0
LINE
  8
0
 62
7
  6
CONTINUOUS
 10
542.2313739807
 20
31.7449043851
 11
542.0579364807
 21
31.809431758
  0
LINE
  8
0
 62
7
  6
CONTINUOUS
 10
543.4454364807
 20
31.4545312073
 11
543.2719989807
 21
31.5190585802
  0
LINE
  8
0
 62
7
  6
CONTINUOUS
 10
544.2548117012
 20
31.1964216708
 11
544.4282492012
 21
31.1318942979
  0
LINE
  8
0
 62
7
  6
CONTINUOUS
 10
544.6594989807
 20
31.7126406987
 11
544.4860614807
 21
31.7771680715
  0
LINE
  8
0
 62
7
  6
CONTINUOUS
 10
543.0407492012
 20
31.4545312073
 11
543.2719989807
 21
31.3577401029
  0
LINE
  8
0
 62
7
  6
CONTINUOUS
 10
544.6594989807
 20
31.1964216708
 11
544.4282492012
 21
31.29321273
  0
LINE
  8
0
 62
7
  6
CONTINUOUS
 10
543.2141867012
 20
31.583585953
 11
543.2719989807
 21
31.6481133259
  0
LINE
  8
0
 62
7
  6
CONTINUOUS
 10
533.6751239738
 20
31.7126406987
 11
533.5594989807
 21
31.6481133259
  0
LINE
  8
0
 62
7
  6
CONTINUOUS
 10
533.7907489669
 20
31.5513222666
 11
533.9641864669
 21
31.6481133259
  0
LINE
  8
0
 62
7
  6
CONTINUOUS
 10
536.1032490358
 20
31.7449043851
 11
535.9876239807
 21
31.6803770123
  0
LINE
  8
0
 62
7
  6
CONTINUOUS
 10
535.9876239807
 20
31.5513222666
 11
536.1032490358
 21
31.6158496394
  0
LINE
  8
0
 62
7
  6
CONTINUOUS
 10
535.0048114255
 20
30.9060484591
 11
535.1782489255
 21
31.0028395296
  0
LINE
  8
0
 62
7
  6
CONTINUOUS
 10
534.0219989944
 20
30.8415210777
 11
534.3688739531
 21
30.8092573885
  0
LINE
  8
0
 62
7
  6
CONTINUOUS
 10
538.1266865909
 20
30.8415210777
 11
538.3579363704
 21
30.8092573885
  0
LINE
  8
0
 62
7
  6
CONTINUOUS
 10
536.5079364807
 20
31.7126406987
 11
536.7391865909
 21
31.6803770123
  0
LINE
  8
0
 62
7
  6
CONTINUOUS
 10
538.8204365909
 20
31.7126406987
 11
539.0516867012
 21
31.6803770123
  0
LINE
  8
0
 62
7
  6
CONTINUOUS
 10
543.2719989807
 20
31.3577401029
 11
544.2548117012
 21
31.1964216708
  0
LINE
  8
0
 62
7
  6
CONTINUOUS
 10
544.4282492012
 20
31.29321273
 11
543.4454364807
 21
31.4545312073
  0
LINE
  8
0
 62
7
  6
CONTINUOUS
 10
536.9126240909
 20
31.809431758
 11
536.7391865909
 21
31.8416954444
  0
LINE
  8
0
 62
7
  6
CONTINUOUS
 10
543.2141867012
 20
30.873784767
 11
543.3876242012
 21
30.8415210777
  0
LINE
  8
0
 62
7
  6
CONTINUOUS
 10
542.0579364807
 20
31.809431758
 11
541.8844989807
 21
31.8416954444
  0
LINE
  8
0
 62
7
  6
CONTINUOUS
 10
544.3126239807
 20
31.6803770123
 11
544.4282492012
 21
31.6481133259
  0
LINE
  8
0
 62
7
  6
CONTINUOUS
 10
544.4860614807
 20
31.0673669025
 11
544.4282492012
 21
31.0028395296
  0
LINE
  8
0
 62
7
  6
CONTINUOUS
 10
543.0407492012
 20
31.7449043851
 11
542.9251239807
 21
31.6481133259
  0
LINE
  8
0
 62
7
  6
CONTINUOUS
 10
537.9532490909
 20
31.7771680715
 11
537.8376238704
 21
31.7126406987
  0
LINE
  8
0
 62
7
  6
CONTINUOUS
 10
538.0110613704
 20
31.3900038345
 11
537.8954364807
 21
31.3254764164
  0
LINE
  8
0
 62
7
  6
CONTINUOUS
 10
538.1266865909
 20
31.2286853572
 11
538.2423114807
 21
31.29321273
  0
LINE
  8
0
 62
7
  6
CONTINUOUS
 10
535.6985614255
 20
30.8092573885
 11
535.9876239807
 21
30.8092573885
  0
LINE
  8
0
 62
7
  6
CONTINUOUS
 10
537.0282489807
 20
30.8092573885
 11
537.3173113704
 21
30.8092573885
  0
LINE
  8
0
 62
7
  6
CONTINUOUS
 10
538.3579363704
 20
30.8092573885
 11
538.7048113704
 21
30.8092573885
  0
LINE
  8
0
 62
7
  6
CONTINUOUS
 10
539.3407487601
 20
30.8092573885
 11
539.6298114807
 21
30.8092573885
  0
LINE
  8
0
 62
7
  6
CONTINUOUS
 10
540.0923117012
 20
30.8092573885
 11
540.3813737601
 21
30.8092573885
  0
LINE
  8
0
 62
7
  6
CONTINUOUS
 10
540.8438739807
 20
30.8092573885
 11
541.1329367012
 21
30.8092573885
  0
LINE
  8
0
 62
7
  6
CONTINUOUS
 10
542.1735617012
 20
30.8092573885
 11
542.4626237601
 21
30.8092573885
  0
LINE
  8
0
 62
7
  6
CONTINUOUS
 10
543.7344992012
 20
30.8092573885
 11
544.0813742012
 21
30.8092573885
  0
LINE
  8
0
 62
7
  6
CONTINUOUS
 10
544.0813742012
 20
30.9383121455
 11
543.7344992012
 21
30.9383121455
  0
LINE
  8
0
 62
7
  6
CONTINUOUS
 10
538.7048113704
 20
30.9383121455
 11
538.3579363704
 21
30.9383121455
  0
LINE
  8
0
 62
7
  6
CONTINUOUS
 10
543.2141867012
 20
31.0673669025
 11
542.9251239807
 21
31.0673669025
  0
LINE
  8
0
 62
7
  6
CONTINUOUS
 10
535.2360615358
 20
31.1318942979
 11
534.9469989807
 21
31.1318942979
  0
LINE
  8
0
 62
7
  6
CONTINUOUS
 10
534.3110615082
 20
31.7126406987
 11
534.7157489531
 21
31.6803770123
  0
LINE
  8
0
 62
7
  6
CONTINUOUS
 10
534.7735614807
 20
31.809431758
 11
534.3688739531
 21
31.8416954444
  0
LINE
  8
0
 62
7
  6
CONTINUOUS
 10
543.3876242012
 20
30.8415210777
 11
543.7344992012
 21
30.8092573885
  0
LINE
  8
0
 62
7
  6
CONTINUOUS
 10
543.7344992012
 20
30.9383121455
 11
543.3876242012
 21
30.9705758432
  0
LINE
  8
0
 62
7
  6
CONTINUOUS
 10
539.1673112601
 20
31.809431758
 11
538.8204365909
 21
31.8416954444
  0
LINE
  8
0
 62
7
  6
CONTINUOUS
 10
543.9657489807
 20
31.7126406987
 11
544.3126239807
 21
31.6803770123
  0
LINE
  8
0
 62
7
  6
CONTINUOUS
 10
544.3126239807
 20
31.809431758
 11
543.9657489807
 21
31.8416954444
  0
LINE
  8
0
 62
7
  6
CONTINUOUS
 10
541.6532492012
 20
31.7126406987
 11
541.8844989807
 21
31.6803770123
  0
LINE
  8
0
 62
7
  6
CONTINUOUS
 10
544.4860614807
 20
31.7771680715
 11
544.3126239807
 21
31.809431758
  0
LINE
  8
0
 62
7
  6
CONTINUOUS
 10
544.6594989807
 20
30.9060484591
 11
544.7751235396
 21
31.0028395296
  0
LINE
  8
0
 62
7
  6
CONTINUOUS
 10
539.1673112601
 20
31.0996306115
 11
538.9938737601
 21
31.0028395296
  0
LINE
  8
0
 62
7
  6
CONTINUOUS
 10
541.2485612601
 20
31.7449043851
 11
541.1329367012
 21
31.6803770123
  0
LINE
  8
0
 62
7
  6
CONTINUOUS
 10
541.1329367012
 20
31.5513222666
 11
541.2485612601
 21
31.6158496394
  0
LINE
  8
0
 62
7
  6
CONTINUOUS
 10
533.8485614944
 20
31.7771680715
 11
533.6751239738
 21
31.7126406987
  0
LINE
  8
0
 62
7
  6
CONTINUOUS
 10
536.2766863704
 20
31.809431758
 11
536.1032490358
 21
31.7449043851
  0
LINE
  8
0
 62
7
  6
CONTINUOUS
 10
536.1032490358
 20
31.6158496394
 11
536.2766863704
 21
31.6803770123
  0
LINE
  8
0
 62
7
  6
CONTINUOUS
 10
534.8891865358
 20
31.035103216
 11
534.7157489531
 21
30.9705758432
  0
LINE
  8
0
 62
7
  6
CONTINUOUS
 10
544.3126239807
 20
30.9705758432
 11
544.0813742012
 21
30.9383121455
  0
LINE
  8
0
 62
7
  6
CONTINUOUS
 10
538.7048113704
 20
30.8092573885
 11
538.9938737601
 21
30.8415210777
  0
LINE
  8
0
 62
7
  6
CONTINUOUS
 10
544.0813742012
 20
30.8092573885
 11
544.4282492012
 21
30.8415210777
  0
LINE
  8
0
 62
7
  6
CONTINUOUS
 10
534.3688739531
 20
30.8092573885
 11
534.7735614807
 21
30.8415210777
  0
LINE
  8
0
 62
7
  6
CONTINUOUS
 10
534.7157489531
 20
30.9705758432
 11
534.3110615082
 21
30.9383121455
  0
LINE
  8
0
 62
7
  6
CONTINUOUS
 10
538.5891864807
 20
31.3577401029
 11
539.2251242012
 21
31.3577401029
  0
LINE
  8
0
 62
7
  6
CONTINUOUS
 10
539.2251242012
 20
31.4867948937
 11
538.5891864807
 21
31.4867948937
  0
LINE
  8
0
 62
7
  6
CONTINUOUS
 10
534.9469989807
 20
31.5190585802
 11
535.2360615358
 21
31.5190585802
  0
LINE
  8
0
 62
7
  6
CONTINUOUS
 10
537.7798115909
 20
31.583585953
 11
538.0688739807
 21
31.583585953
  0
LINE
  8
0
 62
7
  6
CONTINUOUS
 10
544.4860614807
 20
31.583585953
 11
544.7751235396
 21
31.583585953
  0
LINE
  8
0
 62
7
  6
CONTINUOUS
 10
538.4735615909
 20
31.7126406987
 11
538.8204365909
 21
31.7126406987
  0
LINE
  8
0
 62
7
  6
CONTINUOUS
 10
543.6188739807
 20
31.7126406987
 11
543.9657489807
 21
31.7126406987
  0
LINE
  8
0
 62
7
  6
CONTINUOUS
 10
543.9657489807
 20
31.8416954444
 11
543.6188739807
 21
31.8416954444
  0
LINE
  8
0
 62
7
  6
CONTINUOUS
 10
541.8844989807
 20
31.8416954444
 11
541.6532492012
 21
31.8416954444
  0
LINE
  8
0
 62
7
  6
CONTINUOUS
 10
541.1329367012
 20
31.8416954444
 11
540.8438739807
 21
31.8416954444
  0
LINE
  8
0
 62
7
  6
CONTINUOUS
 10
540.3813737601
 20
31.8416954444
 11
540.0923117012
 21
31.8416954444
  0
LINE
  8
0
 62
7
  6
CONTINUOUS
 10
538.8204365909
 20
31.8416954444
 11
538.4735615909
 21
31.8416954444
  0
LINE
  8
0
 62
7
  6
CONTINUOUS
 10
536.7391865909
 20
31.8416954444
 11
536.5079364807
 21
31.8416954444
  0
LINE
  8
0
 62
7
  6
CONTINUOUS
 10
540.0923117012
 20
32.164332399
 11
540.3813737601
 21
32.164332399
  0
LINE
  8
0
 62
7
  6
CONTINUOUS
 10
540.3813737601
 20
32.3256508311
 11
540.0923117012
 21
32.3256508311
  0
LINE
  8
0
 62
7
  6
CONTINUOUS
 10
535.9876239807
 20
32.3256508311
 11
535.6985614255
 21
32.3256508311
  0
LINE
  8
0
 62
7
  6
CONTINUOUS
 10
535.025405743
 20
32.612536077
 11
535.4379770916
 21
32.612536077
  0
LINE
  8
0
 62
7
  6
CONTINUOUS
 10
536.6647500053
 20
32.612536077
 11
538.0581926282
 21
32.612536077
  0
LINE
  8
0
 62
7
  6
CONTINUOUS
 10
538.3860614807
 20
32.612536077
 11
539.7795041036
 21
32.612536077
  0
LINE
  8
0
 62
7
  6
CONTINUOUS
 10
541.6647500053
 20
32.612536077
 11
543.0581926282
 21
32.612536077
  0
LINE
  8
0
 62
7
  6
CONTINUOUS
 10
543.3860614807
 20
32.612536077
 11
544.7795041036
 21
32.612536077
  0
LINE
  8
0
 62
7
  6
CONTINUOUS
 10
541.4219987601
 20
31.809431758
 11
541.2485612601
 21
31.7449043851
  0
LINE
  8
0
 62
7
  6
CONTINUOUS
 10
538.9938737601
 20
30.8415210777
 11
539.1673112601
 21
30.9060484591
  0
LINE
  8
0
 62
7
  6
CONTINUOUS
 10
544.4282492012
 20
30.8415210777
 11
544.6594989807
 21
30.9060484591
  0
LINE
  8
0
 62
7
  6
CONTINUOUS
 10
544.4282492012
 20
31.0028395296
 11
544.3126239807
 21
30.9705758432
  0
LINE
  8
0
 62
7
  6
CONTINUOUS
 10
543.3876242012
 20
31.6803770123
 11
543.6188739807
 21
31.7126406987
  0
LINE
  8
0
 62
7
  6
CONTINUOUS
 10
541.4219987601
 20
31.6803770123
 11
541.6532492012
 21
31.7126406987
  0
LINE
  8
0
 62
7
  6
CONTINUOUS
 10
538.3579363704
 20
31.3254764164
 11
538.5891864807
 21
31.3577401029
  0
LINE
  8
0
 62
7
  6
CONTINUOUS
 10
541.6532492012
 20
31.8416954444
 11
541.4219987601
 21
31.809431758
  0
LINE
  8
0
 62
7
  6
CONTINUOUS
 10
538.2423114807
 20
31.6803770123
 11
538.4735615909
 21
31.7126406987
  0
LINE
  8
0
 62
7
  6
CONTINUOUS
 10
543.6188739807
 20
31.8416954444
 11
543.2719989807
 21
31.809431758
  0
LINE
  8
0
 62
7
  6
CONTINUOUS
 10
538.5891864807
 20
31.4867948937
 11
538.2423114807
 21
31.4545312073
  0
LINE
  8
0
 62
7
  6
CONTINUOUS
 10
534.3688739531
 20
31.8416954444
 11
534.0219989944
 21
31.809431758
  0
LINE
  8
0
 62
7
  6
CONTINUOUS
 10
538.4735615909
 20
31.8416954444
 11
538.0688739807
 21
31.809431758
  0
LINE
  8
0
 62
7
  6
CONTINUOUS
 10
535.8450778741
 20
33.7600770606
 11
535.1893401692
 21
33.7600770606
  0
LINE
  8
0
 62
7
  6
CONTINUOUS
 10
541.2485612601
 20
31.6158496394
 11
541.4219987601
 21
31.6803770123
  0
LINE
  8
0
 62
7
  6
CONTINUOUS
 10
543.2719989807
 20
31.6481133259
 11
543.3876242012
 21
31.6803770123
  0
LINE
  8
0
 62
7
  6
CONTINUOUS
 10
543.2719989807
 20
31.809431758
 11
543.0407492012
 21
31.7449043851
  0
LINE
  8
0
 62
7
  6
CONTINUOUS
 10
538.9938737601
 20
31.0028395296
 11
538.7048113704
 21
30.9383121455
  0
LINE
  8
0
 62
7
  6
CONTINUOUS
 10
536.2766863704
 20
31.6803770123
 11
536.5079364807
 21
31.7126406987
  0
LINE
  8
0
 62
7
  6
CONTINUOUS
 10
536.5079364807
 20
31.8416954444
 11
536.2766863704
 21
31.809431758
  0
LINE
  8
0
 62
7
  6
CONTINUOUS
 10
534.0798114807
 20
31.6803770123
 11
534.3110615082
 21
31.7126406987
  0
LINE
  8
0
 62
7
  6
CONTINUOUS
 10
540.5991762348
 20
35.2354868967
 11
541.2549139397
 21
35.2354868967
  0
LINE
  8
0
 62
7
  6
CONTINUOUS
 10
538.2423114807
 20
31.29321273
 11
538.3579363704
 21
31.3254764164
  0
LINE
  8
0
 62
7
  6
CONTINUOUS
 10
538.2423114807
 20
31.4545312073
 11
538.0110613704
 21
31.3900038345
  0
LINE
  8
0
 62
7
  6
CONTINUOUS
 10
538.1266865909
 20
31.6481133259
 11
538.2423114807
 21
31.6803770123
  0
LINE
  8
0
 62
7
  6
CONTINUOUS
 10
534.7735614807
 20
30.8415210777
 11
535.0048114255
 21
30.9060484591
  0
LINE
  8
0
 62
7
  6
CONTINUOUS
 10
538.0688739807
 20
31.809431758
 11
537.9532490909
 21
31.7771680715
  0
LINE
  8
0
 62
7
  6
CONTINUOUS
 10
534.0219989944
 20
31.809431758
 11
533.8485614944
 21
31.7771680715
  0
LINE
  8
0
 62
7
  6
CONTINUOUS
 10
544.7795041036
 20
36.3830278803
 11
543.3860614807
 21
36.3830278803
  0
LINE
  8
0
 62
7
  6
CONTINUOUS
 10
541.4188483659
 20
36.3830278803
 11
541.0062770173
 21
36.3830278803
  0
LINE
  8
0
 62
7
  6
CONTINUOUS
 10
539.7795041036
 20
36.3830278803
 11
538.3860614807
 21
36.3830278803
  0
LINE
  8
0
 62
7
  6
CONTINUOUS
 10
538.0581926282
 20
36.3830278803
 11
536.6647500053
 21
36.3830278803
  0
LINE
  8
0
 62
7
  6
CONTINUOUS
 10
534.7795041036
 20
36.3830278803
 11
533.3860614807
 21
36.3830278803
  0
LINE
  8
0
 62
7
  6
CONTINUOUS
 10
533.9641864669
 20
31.6481133259
 11
534.0798114807
 21
31.6803770123
  0
CIRCLE
  8
0
 62
7
  6
CONTINUOUS
 10
544.0827827921
 20
38.7190934541
 40
2.0901639344
  0
ARC
  8
0
 62
7
  6
CONTINUOUS
 10
535.025405743
 20
34.2518803393
 40
1.6393442623
 50
180.0
 51
270.0
  0
ARC
  8
0
 62
7
  6
CONTINUOUS
 10
541.4188483659
 20
34.743683618
 40
1.6393442623
 50
0.0
 51
90.0
  0
ARC
  8
0
 62
7
  6
CONTINUOUS
 10
535.4379770916
 20
34.0879459131
 40
1.4754098361
 50
270.0
 51
326.2510114041
  0
ARC
  8
0
 62
7
  6
CONTINUOUS
 10
541.0062770173
 20
34.9076180442
 40
1.4754098361
 50
90.0
 51
146.2510114041
  0
ARC
  8
0
 62
7
  6
CONTINUOUS
 10
535.8450778741
 20
34.5797491918
 40
0.8196721311
 50
270.0
 51
360.0
  0
ARC
  8
0
 62
7
  6
CONTINUOUS
 10
540.5991762348
 20
34.4158147655
 40
0.8196721311
 50
90.0
 51
180.0
  0
ARC
  8
0
 62
7
  6
CONTINUOUS
 10
535.1893401692
 20
34.1699131262
 40
0.4098360656
 50
180.0
 51
270.0
  0
ARC
  8
0
 62
7
  6
CONTINUOUS
 10
541.2549139397
 20
34.8256508311
 40
0.4098360656
 50
0.0
 51
90.0
  0
SOLID
  8
0
 62
7
  6
CONTINUOUS
 10
540.0923117012
 20
32.1643327593
 11
540.0923117012
 21
32.3256512429
 12
540.3813737601
 22
32.1643327593
 13
540.3813737601
 23
32.3256512429
  0
SOLID
  8
0
 62
7
  6
CONTINUOUS
 10
534.3688739531
 20
31.841695792
 11
534.7735614807
 21
31.8094316148
 12
534.0219989944
 22
31.8094316148
 13
534.0219989944
 23
31.8094316148
  0
SOLID
  8
0
 62
7
  6
CONTINUOUS
 10
533.8485614944
 20
31.7771687019
 11
534.0219989944
 21
31.8094316148
 12
534.7735614807
 22
31.8094316148
 13
534.7735614807
 23
31.8094316148
  0
SOLID
  8
0
 62
7
  6
CONTINUOUS
 10
534.7735614807
 20
31.8094316148
 11
535.0048114255
 21
31.7449043986
 12
533.8485614944
 22
31.7771687019
 13
533.8485614944
 23
31.7771687019
  0
SOLID
  8
0
 62
7
  6
CONTINUOUS
 10
533.6751239738
 20
31.712640202
 11
533.8485614944
 21
31.7771687019
 12
535.0048114255
 22
31.7449043986
 13
535.0048114255
 23
31.7449043986
  0
SOLID
  8
0
 62
7
  6
CONTINUOUS
 10
533.6751239738
 20
31.712640202
 11
535.0048114255
 21
31.7449043986
 12
534.3110615082
 22
31.712640202
 13
534.3110615082
 23
31.712640202
  0
SOLID
  8
0
 62
7
  6
CONTINUOUS
 10
534.3110615082
 20
31.712640202
 11
535.0048114255
 21
31.7449043986
 12
534.7157489531
 22
31.6803773084
 13
534.7157489531
 23
31.6803773084
  0
SOLID
  8
0
 62
7
  6
CONTINUOUS
 10
535.0048114255
 20
31.7449043986
 11
535.1782489255
 21
31.6481130052
 12
534.7157489531
 22
31.6803773084
 13
534.7157489531
 23
31.6803773084
  0
SOLID
  8
0
 62
7
  6
CONTINUOUS
 10
534.8891865358
 20
31.6158502183
 11
534.7157489531
 21
31.6803773084
 12
535.1782489255
 22
31.6481130052
 13
535.1782489255
 23
31.6481130052
  0
SOLID
  8
0
 62
7
  6
CONTINUOUS
 10
534.8891865358
 20
31.6158502183
 11
535.1782489255
 21
31.6481130052
 12
534.9469989807
 22
31.5190586669
 13
534.9469989807
 23
31.5190586669
  0
SOLID
  8
0
 62
7
  6
CONTINUOUS
 10
535.1782489255
 20
31.6481130052
 11
535.2360615358
 21
31.5190586669
 12
534.9469989807
 22
31.5190586669
 13
534.9469989807
 23
31.5190586669
  0
SOLID
  8
0
 62
7
  6
CONTINUOUS
 10
536.2766863704
 20
31.8094307377
 11
536.5079364807
 21
31.841695041
 12
536.7391865909
 22
31.841695041
 13
536.7391865909
 23
31.841695041
  0
SOLID
  8
0
 62
7
  6
CONTINUOUS
 10
536.7391865909
 20
31.841695041
 11
536.9126240909
 21
31.8094307377
 12
536.2766863704
 22
31.8094307377
 13
536.2766863704
 23
31.8094307377
  0
SOLID
  8
0
 62
7
  6
CONTINUOUS
 10
536.1032490358
 20
31.7449036475
 11
536.2766863704
 21
31.8094307377
 12
536.9126240909
 22
31.8094307377
 13
536.9126240909
 23
31.8094307377
  0
SOLID
  8
0
 62
7
  6
CONTINUOUS
 10
536.9126240909
 20
31.8094307377
 11
537.0860615909
 21
31.7449036475
 12
536.1032490358
 22
31.7449036475
 13
536.1032490358
 23
31.7449036475
  0
SOLID
  8
0
 62
7
  6
CONTINUOUS
 10
537.0860615909
 20
31.7449036475
 11
536.5079364807
 21
31.7126400953
 12
536.1032490358
 22
31.7449036475
 13
536.1032490358
 23
31.7449036475
  0
SOLID
  8
0
 62
7
  6
CONTINUOUS
 10
535.9876239807
 20
31.6803765574
 11
536.1032490358
 21
31.7449036475
 12
536.5079364807
 22
31.7126400953
 13
536.5079364807
 23
31.7126400953
  0
SOLID
  8
0
 62
7
  6
CONTINUOUS
 10
536.5079364807
 20
31.7126400953
 11
536.2766863704
 21
31.6803765574
 12
535.9876239807
 22
31.6803765574
 13
535.9876239807
 23
31.6803765574
  0
SOLID
  8
0
 62
7
  6
CONTINUOUS
 10
536.5079364807
 20
31.7126400953
 11
537.0860615909
 21
31.7449036475
 12
536.7391865909
 22
31.6803765574
 13
536.7391865909
 23
31.6803765574
  0
SOLID
  8
0
 62
7
  6
CONTINUOUS
 10
537.0860615909
 20
31.7449036475
 11
537.2016864807
 21
31.6803765574
 12
536.7391865909
 22
31.6803765574
 13
536.7391865909
 23
31.6803765574
  0
SOLID
  8
0
 62
7
  6
CONTINUOUS
 10
536.8548114807
 20
31.6481130052
 11
536.7391865909
 21
31.6803765574
 12
537.2016864807
 22
31.6803765574
 13
537.2016864807
 23
31.6803765574
  0
SOLID
  8
0
 62
7
  6
CONTINUOUS
 10
537.2016864807
 20
31.6803765574
 11
537.2594990909
 21
31.6158494672
 12
536.8548114807
 22
31.6481130052
 13
536.8548114807
 23
31.6481130052
  0
SOLID
  8
0
 62
7
  6
CONTINUOUS
 10
536.9704363704
 20
31.583585915
 11
536.8548114807
 21
31.6481130052
 12
537.2594990909
 22
31.6158494672
 13
537.2594990909
 23
31.6158494672
  0
SOLID
  8
0
 62
7
  6
CONTINUOUS
 10
536.9704363704
 20
31.583585915
 11
537.2594990909
 21
31.6158494672
 12
537.0282489807
 22
31.4545309836
 13
537.0282489807
 23
31.4545309836
  0
SOLID
  8
0
 62
7
  6
CONTINUOUS
 10
537.2594990909
 20
31.6158494672
 11
537.3173113704
 21
31.4545309836
 12
537.0282489807
 22
31.4545309836
 13
537.0282489807
 23
31.4545309836
  0
SOLID
  8
0
 62
7
  6
CONTINUOUS
 10
536.2766863704
 20
31.6803765574
 11
536.1032490358
 21
31.6158494672
 12
535.9876239807
 22
31.6803765574
 13
535.9876239807
 23
31.6803765574
  0
SOLID
  8
0
 62
7
  6
CONTINUOUS
 10
536.1032490358
 20
31.6158494672
 11
535.9876239807
 21
31.5513216117
 12
535.9876239807
 22
31.6803765574
 13
535.9876239807
 23
31.6803765574
  0
SOLID
  8
0
 62
7
  6
CONTINUOUS
 10
535.9876239807
 20
31.5513216117
 11
535.6985614255
 21
30.8092570492
 12
535.9876239807
 22
31.6803765574
 13
535.9876239807
 23
31.6803765574
  0
SOLID
  8
0
 62
7
  6
CONTINUOUS
 10
535.9876239807
 20
31.6803765574
 11
535.6985614255
 21
30.8092570492
 12
535.9876239807
 22
32.3256504918
 13
535.9876239807
 23
32.3256504918
  0
SOLID
  8
0
 62
7
  6
CONTINUOUS
 10
535.6985614255
 20
30.8092570492
 11
535.6985614255
 21
32.3256504918
 12
535.9876239807
 22
32.3256504918
 13
535.9876239807
 23
32.3256504918
  0
SOLID
  8
0
 62
7
  6
CONTINUOUS
 10
535.9876239807
 20
31.5513216117
 11
535.9876239807
 21
30.8092570492
 12
535.6985614255
 22
30.8092570492
 13
535.6985614255
 23
30.8092570492
  0
SOLID
  8
0
 62
7
  6
CONTINUOUS
 10
537.0282489807
 20
30.8092570492
 11
537.0282489807
 21
31.4545309836
 12
537.3173113704
 22
31.4545309836
 13
537.3173113704
 23
31.4545309836
  0
SOLID
  8
0
 62
7
  6
CONTINUOUS
 10
537.3173113704
 20
31.4545309836
 11
537.3173113704
 21
30.8092570492
 12
537.0282489807
 22
30.8092570492
 13
537.0282489807
 23
30.8092570492
  0
SOLID
  8
0
 62
7
  6
CONTINUOUS
 10
538.0688739807
 20
31.809431823
 11
538.4735615909
 21
31.8416958158
 12
538.8204365909
 22
31.8416958158
 13
538.8204365909
 23
31.8416958158
  0
SOLID
  8
0
 62
7
  6
CONTINUOUS
 10
538.8204365909
 20
31.8416958158
 11
539.1673112601
 21
31.809431823
 12
538.0688739807
 22
31.809431823
 13
538.0688739807
 23
31.809431823
  0
SOLID
  8
0
 62
7
  6
CONTINUOUS
 10
537.9532490909
 20
31.7771687019
 11
538.0688739807
 21
31.809431823
 12
539.1673112601
 22
31.809431823
 13
539.1673112601
 23
31.809431823
  0
SOLID
  8
0
 62
7
  6
CONTINUOUS
 10
539.1673112601
 20
31.809431823
 11
539.3407487601
 21
31.7449043986
 12
537.9532490909
 22
31.7771687019
 13
537.9532490909
 23
31.7771687019
  0
SOLID
  8
0
 62
7
  6
CONTINUOUS
 10
537.8376238704
 20
31.7126398448
 11
537.9532490909
 21
31.7771687019
 12
539.3407487601
 22
31.7449043986
 13
539.3407487601
 23
31.7449043986
  0
SOLID
  8
0
 62
7
  6
CONTINUOUS
 10
537.8376238704
 20
31.7126398448
 11
539.3407487601
 21
31.7449043986
 12
538.4735615909
 22
31.7126398448
 13
538.4735615909
 23
31.7126398448
  0
SOLID
  8
0
 62
7
  6
CONTINUOUS
 10
538.4735615909
 20
31.7126398448
 11
539.3407487601
 21
31.7449043986
 12
538.8204365909
 22
31.7126398448
 13
538.8204365909
 23
31.7126398448
  0
SOLID
  8
0
 62
7
  6
CONTINUOUS
 10
538.8204365909
 20
31.7126398448
 11
539.3407487601
 21
31.7449043986
 12
539.0516867012
 22
31.6803774007
 13
539.0516867012
 23
31.6803774007
  0
SOLID
  8
0
 62
7
  6
CONTINUOUS
 10
539.3407487601
 20
31.7449043986
 11
539.4563739807
 21
31.6803774007
 12
539.0516867012
 22
31.6803774007
 13
539.0516867012
 23
31.6803774007
  0
SOLID
  8
0
 62
7
  6
CONTINUOUS
 10
537.7798115909
 20
31.6481126336
 11
537.8376238704
 21
31.7126398448
 12
538.4735615909
 22
31.7126398448
 13
538.4735615909
 23
31.7126398448
  0
SOLID
  8
0
 62
7
  6
CONTINUOUS
 10
539.1673112601
 20
31.6481126336
 11
539.0516867012
 21
31.6803774007
 12
539.4563739807
 22
31.6803774007
 13
539.4563739807
 23
31.6803774007
  0
SOLID
  8
0
 62
7
  6
CONTINUOUS
 10
539.1673112601
 20
31.6481126336
 11
539.4563739807
 21
31.6803774007
 12
539.2251242012
 22
31.5835861968
 13
539.2251242012
 23
31.5835861968
  0
SOLID
  8
0
 62
7
  6
CONTINUOUS
 10
539.4563739807
 20
31.6803774007
 11
539.5141862601
 21
31.5835861968
 12
539.2251242012
 22
31.5835861968
 13
539.2251242012
 23
31.5835861968
  0
SOLID
  8
0
 62
7
  6
CONTINUOUS
 10
539.2251242012
 20
31.4867945216
 11
539.2251242012
 21
31.5835861968
 12
539.5141862601
 22
31.5835861968
 13
539.5141862601
 23
31.5835861968
  0
SOLID
  8
0
 62
7
  6
CONTINUOUS
 10
539.2251242012
 20
31.4867945216
 11
539.5141862601
 21
31.5835861968
 12
539.2251242012
 22
31.3577403412
 13
539.2251242012
 23
31.3577403412
  0
SOLID
  8
0
 62
7
  6
CONTINUOUS
 10
539.2251242012
 20
31.3577403412
 11
539.5141862601
 21
31.5835861968
 12
539.2251242012
 22
31.1641579843
 13
539.2251242012
 23
31.1641579843
  0
SOLID
  8
0
 62
7
  6
CONTINUOUS
 10
539.5141862601
 20
31.5835861968
 11
539.5141862601
 21
31.0673661609
 12
539.2251242012
 22
31.1641579843
 13
539.2251242012
 23
31.1641579843
  0
SOLID
  8
0
 62
7
  6
CONTINUOUS
 10
541.4219987601
 20
31.8094310465
 11
541.6532492012
 21
31.8416957661
 12
541.8844989807
 22
31.8416957661
 13
541.8844989807
 23
31.8416957661
  0
SOLID
  8
0
 62
7
  6
CONTINUOUS
 10
541.8844989807
 20
31.8416957661
 11
542.0579364807
 21
31.8094310465
 12
541.4219987601
 22
31.8094310465
 13
541.4219987601
 23
31.8094310465
  0
SOLID
  8
0
 62
7
  6
CONTINUOUS
 10
541.2485612601
 20
31.7449047044
 11
541.4219987601
 21
31.8094310465
 12
542.0579364807
 22
31.8094310465
 13
542.0579364807
 23
31.8094310465
  0
SOLID
  8
0
 62
7
  6
CONTINUOUS
 10
542.0579364807
 20
31.8094310465
 11
542.2313739807
 21
31.7449047044
 12
541.2485612601
 22
31.7449047044
 13
541.2485612601
 23
31.7449047044
  0
SOLID
  8
0
 62
7
  6
CONTINUOUS
 10
542.2313739807
 20
31.7449047044
 11
541.6532492012
 21
31.7126400953
 12
541.2485612601
 22
31.7449047044
 13
541.2485612601
 23
31.7449047044
  0
SOLID
  8
0
 62
7
  6
CONTINUOUS
 10
541.1329367012
 20
31.6803773299
 11
541.2485612601
 21
31.7449047044
 12
541.6532492012
 22
31.7126400953
 13
541.6532492012
 23
31.7126400953
  0
SOLID
  8
0
 62
7
  6
CONTINUOUS
 10
541.6532492012
 20
31.7126400953
 11
541.4219987601
 21
31.6803773299
 12
541.1329367012
 22
31.6803773299
 13
541.1329367012
 23
31.6803773299
  0
SOLID
  8
0
 62
7
  6
CONTINUOUS
 10
541.6532492012
 20
31.7126400953
 11
542.2313739807
 21
31.7449047044
 12
541.8844989807
 22
31.6803773299
 13
541.8844989807
 23
31.6803773299
  0
SOLID
  8
0
 62
7
  6
CONTINUOUS
 10
542.2313739807
 20
31.7449047044
 11
542.3469992012
 21
31.6803773299
 12
541.8844989807
 22
31.6803773299
 13
541.8844989807
 23
31.6803773299
  0
SOLID
  8
0
 62
7
  6
CONTINUOUS
 10
542.0001242012
 20
31.6481130052
 11
541.8844989807
 21
31.6803773299
 12
542.3469992012
 22
31.6803773299
 13
542.3469992012
 23
31.6803773299
  0
SOLID
  8
0
 62
7
  6
CONTINUOUS
 10
542.0001242012
 20
31.6481130052
 11
542.3469992012
 21
31.6803773299
 12
542.1157487601
 22
31.5835862682
 13
542.1157487601
 23
31.5835862682
  0
SOLID
  8
0
 62
7
  6
CONTINUOUS
 10
542.3469992012
 20
31.6803773299
 11
542.4048114807
 21
31.5835862682
 12
542.1157487601
 22
31.5835862682
 13
542.1157487601
 23
31.5835862682
  0
SOLID
  8
0
 62
7
  6
CONTINUOUS
 10
542.1735617012
 20
31.422267832
 11
542.1157487601
 21
31.5835862682
 12
542.4048114807
 22
31.5835862682
 13
542.4048114807
 23
31.5835862682
  0
SOLID
  8
0
 62
7
  6
CONTINUOUS
 10
542.4048114807
 20
31.5835862682
 11
542.4626237601
 21
31.422267832
 12
542.1735617012
 22
31.422267832
 13
542.1735617012
 23
31.422267832
  0
SOLID
  8
0
 62
7
  6
CONTINUOUS
 10
541.4219987601
 20
31.6803773299
 11
541.2485612601
 21
31.6158502183
 12
541.1329367012
 22
31.6803773299
 13
541.1329367012
 23
31.6803773299
  0
SOLID
  8
0
 62
7
  6
CONTINUOUS
 10
541.2485612601
 20
31.6158502183
 11
541.1329367012
 21
31.5513216117
 12
541.1329367012
 22
31.6803773299
 13
541.1329367012
 23
31.6803773299
  0
SOLID
  8
0
 62
7
  6
CONTINUOUS
 10
541.1329367012
 20
31.5513216117
 11
540.8438739807
 21
30.8092577743
 12
541.1329367012
 22
31.6803773299
 13
541.1329367012
 23
31.6803773299
  0
SOLID
  8
0
 62
7
  6
CONTINUOUS
 10
541.1329367012
 20
31.6803773299
 11
540.8438739807
 21
30.8092577743
 12
541.1329367012
 22
31.8416957661
 13
541.1329367012
 23
31.8416957661
  0
SOLID
  8
0
 62
7
  6
CONTINUOUS
 10
540.8438739807
 20
30.8092577743
 11
540.8438739807
 21
31.8416957661
 12
541.1329367012
 22
31.8416957661
 13
541.1329367012
 23
31.8416957661
  0
SOLID
  8
0
 62
7
  6
CONTINUOUS
 10
541.1329367012
 20
31.5513216117
 11
541.1329367012
 21
30.8092577743
 12
540.8438739807
 22
30.8092577743
 13
540.8438739807
 23
30.8092577743
  0
SOLID
  8
0
 62
7
  6
CONTINUOUS
 10
542.1735617012
 20
30.8092577743
 11
542.1735617012
 21
31.422267832
 12
542.4626237601
 22
31.422267832
 13
542.4626237601
 23
31.422267832
  0
SOLID
  8
0
 62
7
  6
CONTINUOUS
 10
542.4626237601
 20
31.422267832
 11
542.4626237601
 21
30.8092577743
 12
542.1735617012
 22
30.8092577743
 13
542.1735617012
 23
30.8092577743
  0
SOLID
  8
0
 62
7
  6
CONTINUOUS
 10
543.2719989807
 20
31.8094314924
 11
543.6188739807
 21
31.8416958387
 12
543.9657489807
 22
31.8416958387
 13
543.9657489807
 23
31.8416958387
  0
SOLID
  8
0
 62
7
  6
CONTINUOUS
 10
543.9657489807
 20
31.8416958387
 11
544.3126239807
 21
31.8094314924
 12
543.2719989807
 22
31.8094314924
 13
543.2719989807
 23
31.8094314924
  0
SOLID
  8
0
 62
7
  6
CONTINUOUS
 10
543.0407492012
 20
31.7449043986
 11
543.2719989807
 21
31.8094314924
 12
544.3126239807
 22
31.8094314924
 13
544.3126239807
 23
31.8094314924
  0
SOLID
  8
0
 62
7
  6
CONTINUOUS
 10
543.0407492012
 20
31.7449043986
 11
544.3126239807
 21
31.8094314888
 12
544.4860614807
 22
31.7771687019
 13
544.4860614807
 23
31.7771687019
  0
SOLID
  8
0
 62
7
  6
CONTINUOUS
 10
543.0407492012
 20
31.7449043986
 11
544.4860614807
 21
31.7771687019
 12
543.6188739807
 22
31.7126401399
 13
543.6188739807
 23
31.7126401399
  0
SOLID
  8
0
 62
7
  6
CONTINUOUS
 10
543.6188739807
 20
31.7126401399
 11
544.4860614807
 21
31.7771687019
 12
543.9657489807
 22
31.7126401399
 13
543.9657489807
 23
31.7126401399
  0
SOLID
  8
0
 62
7
  6
CONTINUOUS
 10
544.4860614807
 20
31.7771687019
 11
544.6594989807
 21
31.7126401399
 12
543.9657489807
 22
31.7126401399
 13
543.9657489807
 23
31.7126401399
  0
SOLID
  8
0
 62
7
  6
CONTINUOUS
 10
544.3126239807
 20
31.6803773084
 11
543.9657489807
 21
31.7126401399
 12
544.6594989807
 22
31.7126401399
 13
544.6594989807
 23
31.7126401399
  0
SOLID
  8
0
 62
7
  6
CONTINUOUS
 10
542.9251239807
 20
31.6481128977
 11
543.0407492012
 21
31.7449043986
 12
543.6188739807
 22
31.7126401399
 13
543.6188739807
 23
31.7126401399
  0
SOLID
  8
0
 62
7
  6
CONTINUOUS
 10
544.3126239807
 20
31.6803773084
 11
544.6594989807
 21
31.7126401399
 12
544.4282492012
 22
31.6481128977
 13
544.4282492012
 23
31.6481128977
  0
SOLID
  8
0
 62
7
  6
CONTINUOUS
 10
544.4282492012
 20
31.6481128977
 11
544.6594989807
 21
31.7126401399
 12
544.4860614807
 22
31.5835858812
 13
544.4860614807
 23
31.5835858812
  0
SOLID
  8
0
 62
7
  6
CONTINUOUS
 10
544.6594989807
 20
31.7126401399
 11
544.7751235396
 21
31.5835858812
 12
544.4860614807
 22
31.5835858812
 13
544.4860614807
 23
31.5835858812
  0
SOLID
  8
0
 62
7
  6
CONTINUOUS
 10
534.0798114807
 20
31.6803773084
 11
533.5594989807
 21
31.6481129264
 12
534.3110615082
 22
31.7126401456
 13
534.3110615082
 23
31.7126401456
  0
SOLID
  8
0
 62
7
  6
CONTINUOUS
 10
533.5594989807
 20
31.6481129264
 11
533.6751239738
 21
31.7126401456
 12
534.3110615082
 22
31.7126401456
 13
534.3110615082
 23
31.7126401456
  0
SOLID
  8
0
 62
7
  6
CONTINUOUS
 10
534.0798114807
 20
31.6803773084
 11
533.9641864669
 21
31.6481129264
 12
533.5594989807
 22
31.6481129264
 13
533.5594989807
 23
31.6481129264
  0
SOLID
  8
0
 62
7
  6
CONTINUOUS
 10
533.4438739824
 20
31.5190588248
 11
533.5594989807
 21
31.6481129264
 12
533.9641864669
 22
31.6481129264
 13
533.9641864669
 23
31.6481129264
  0
SOLID
  8
0
 62
7
  6
CONTINUOUS
 10
537.7798115909
 20
31.6481130555
 11
538.4735615909
 21
31.7126400953
 12
538.2423114807
 22
31.6803773084
 13
538.2423114807
 23
31.6803773084
  0
SOLID
  8
0
 62
7
  6
CONTINUOUS
 10
538.2423114807
 20
31.6803773084
 11
538.1266865909
 21
31.6481130555
 12
537.7798115909
 22
31.6481130555
 13
537.7798115909
 23
31.6481130555
  0
SOLID
  8
0
 62
7
  6
CONTINUOUS
 10
537.7798115909
 20
31.5835859653
 11
537.7798115909
 21
31.6481130555
 12
538.1266865909
 22
31.6481130555
 13
538.1266865909
 23
31.6481130555
  0
SOLID
  8
0
 62
7
  6
CONTINUOUS
 10
538.1266865909
 20
31.6481130555
 11
538.0688739807
 21
31.5835859653
 12
537.7798115909
 22
31.5835859653
 13
537.7798115909
 23
31.5835859653
  0
SOLID
  8
0
 62
7
  6
CONTINUOUS
 10
542.9251239807
 20
31.6481130555
 11
543.6188739807
 21
31.7126400953
 12
543.3876242012
 22
31.6803773084
 13
543.3876242012
 23
31.6803773084
  0
SOLID
  8
0
 62
7
  6
CONTINUOUS
 10
543.3876242012
 20
31.6803773084
 11
543.2719989807
 21
31.6481130555
 12
542.9251239807
 22
31.6481130555
 13
542.9251239807
 23
31.6481130555
  0
SOLID
  8
0
 62
7
  6
CONTINUOUS
 10
542.9251239807
 20
31.5835859653
 11
542.9251239807
 21
31.6481130555
 12
543.2719989807
 22
31.6481130555
 13
543.2719989807
 23
31.6481130555
  0
SOLID
  8
0
 62
7
  6
CONTINUOUS
 10
543.2719989807
 20
31.6481130555
 11
543.2141867012
 21
31.5835859653
 12
542.9251239807
 22
31.5835859653
 13
542.9251239807
 23
31.5835859653
  0
SOLID
  8
0
 62
7
  6
CONTINUOUS
 10
543.0407492012
 20
31.4545317347
 11
542.9251239807
 21
31.5835859653
 12
543.2141867012
 22
31.5835859653
 13
543.2141867012
 23
31.5835859653
  0
SOLID
  8
0
 62
7
  6
CONTINUOUS
 10
533.4438739824
 20
31.5190588248
 11
533.9641864669
 21
31.6481130052
 12
533.7907489669
 22
31.5513216117
 13
533.7907489669
 23
31.5513216117
  0
SOLID
  8
0
 62
7
  6
CONTINUOUS
 10
533.7907489669
 20
31.5513216117
 11
533.7329364807
 21
31.4867945216
 12
533.4438739824
 22
31.5190588248
 13
533.4438739824
 23
31.5190588248
  0
SOLID
  8
0
 62
7
  6
CONTINUOUS
 10
533.3860614807
 20
31.325476038
 11
533.4438739824
 21
31.5190588248
 12
533.7329364807
 22
31.4867945216
 13
533.7329364807
 23
31.4867945216
  0
SOLID
  8
0
 62
7
  6
CONTINUOUS
 10
538.2423114807
 20
31.4545317347
 11
538.5891864807
 21
31.4867945557
 12
539.2251242012
 22
31.4867945557
 13
539.2251242012
 23
31.4867945557
  0
SOLID
  8
0
 62
7
  6
CONTINUOUS
 10
538.2423114807
 20
31.4545317347
 11
539.2251242012
 21
31.4867945557
 12
538.0110613704
 22
31.3900038345
 13
538.0110613704
 23
31.3900038345
  0
SOLID
  8
0
 62
7
  6
CONTINUOUS
 10
538.0110613704
 20
31.3900038345
 11
539.2251242012
 21
31.4867945557
 12
538.5891864807
 22
31.3577403754
 13
538.5891864807
 23
31.3577403754
  0
SOLID
  8
0
 62
7
  6
CONTINUOUS
 10
539.2251242012
 20
31.4867945557
 11
539.2251242012
 21
31.3577403754
 12
538.5891864807
 22
31.3577403754
 13
538.5891864807
 23
31.3577403754
  0
SOLID
  8
0
 62
7
  6
CONTINUOUS
 10
543.0407492012
 20
31.4545313481
 11
543.2141867012
 21
31.583585915
 12
543.2719989807
 22
31.5190588248
 13
543.2719989807
 23
31.5190588248
  0
SOLID
  8
0
 62
7
  6
CONTINUOUS
 10
543.2719989807
 20
31.5190588248
 11
543.4454364807
 21
31.4545313481
 12
543.0407492012
 22
31.4545313481
 13
543.0407492012
 23
31.4545313481
  0
SOLID
  8
0
 62
7
  6
CONTINUOUS
 10
543.2719989807
 20
31.3577403412
 11
543.0407492012
 21
31.4545313481
 12
543.4454364807
 22
31.4545313481
 13
543.4454364807
 23
31.4545313481
  0
SOLID
  8
0
 62
7
  6
CONTINUOUS
 10
543.4454364807
 20
31.4545313481
 11
544.4282492012
 21
31.2932132511
 12
543.2719989807
 22
31.3577403412
 13
543.2719989807
 23
31.3577403412
  0
SOLID
  8
0
 62
7
  6
CONTINUOUS
 10
544.2548117012
 20
31.1964222346
 11
543.2719989807
 21
31.3577403412
 12
544.4282492012
 22
31.2932132511
 13
544.4282492012
 23
31.2932132511
  0
SOLID
  8
0
 62
7
  6
CONTINUOUS
 10
544.4282492012
 20
31.2932132511
 11
544.6594989807
 21
31.1964222346
 12
544.2548117012
 22
31.1964222346
 13
544.2548117012
 23
31.1964222346
  0
SOLID
  8
0
 62
7
  6
CONTINUOUS
 10
544.4282492012
 20
31.1318947675
 11
544.2548117012
 21
31.1964222346
 12
544.6594989807
 22
31.1964222346
 13
544.6594989807
 23
31.1964222346
  0
SOLID
  8
0
 62
7
  6
CONTINUOUS
 10
544.4282492012
 20
31.1318947675
 11
544.6594989807
 21
31.1964222346
 12
544.4860614807
 22
31.0673665164
 13
544.4860614807
 23
31.0673665164
  0
SOLID
  8
0
 62
7
  6
CONTINUOUS
 10
544.6594989807
 20
31.1964222346
 11
544.7751235396
 21
31.0673665164
 12
544.4860614807
 22
31.0673665164
 13
544.4860614807
 23
31.0673665164
  0
SOLID
  8
0
 62
7
  6
CONTINUOUS
 10
544.4282492012
 20
31.0028394316
 11
544.4860614807
 21
31.0673665164
 12
544.7751235396
 22
31.0673665164
 13
544.7751235396
 23
31.0673665164
  0
SOLID
  8
0
 62
7
  6
CONTINUOUS
 10
544.7751235396
 20
31.0673665164
 11
544.7751235396
 21
31.0028394316
 12
544.4282492012
 22
31.0028394316
 13
544.4282492012
 23
31.0028394316
  0
SOLID
  8
0
 62
7
  6
CONTINUOUS
 10
544.3126239807
 20
30.9705762839
 11
544.4282492012
 21
31.0028394316
 12
544.7751235396
 22
31.0028394316
 13
544.7751235396
 23
31.0028394316
  0
SOLID
  8
0
 62
7
  6
CONTINUOUS
 10
544.3126239807
 20
30.9705762839
 11
544.7751235396
 21
31.0028394316
 12
544.0813742012
 22
30.9383123468
 13
544.0813742012
 23
30.9383123468
  0
SOLID
  8
0
 62
7
  6
CONTINUOUS
 10
544.7751235396
 20
31.0028394316
 11
544.6594989807
 21
30.9060491937
 12
544.0813742012
 22
30.9383123468
 13
544.0813742012
 23
30.9383123468
  0
SOLID
  8
0
 62
7
  6
CONTINUOUS
 10
544.6594989807
 20
30.9060491937
 11
543.2141867012
 21
30.8737848904
 12
544.0813742012
 22
30.9383123468
 13
544.0813742012
 23
30.9383123468
  0
SOLID
  8
0
 62
7
  6
CONTINUOUS
 10
544.0813742012
 20
30.9383123468
 11
543.2141867012
 21
30.8737848904
 12
543.7344992012
 22
30.9383123468
 13
543.7344992012
 23
30.9383123468
  0
SOLID
  8
0
 62
7
  6
CONTINUOUS
 10
543.2141867012
 20
30.8737848904
 11
543.0407492012
 21
30.9383123468
 12
543.7344992012
 22
30.9383123468
 13
543.7344992012
 23
30.9383123468
  0
SOLID
  8
0
 62
7
  6
CONTINUOUS
 10
543.2141867012
 20
30.8737848904
 11
544.6594989807
 21
30.9060491937
 12
543.3876242012
 22
30.8415205581
 13
543.3876242012
 23
30.8415205581
  0
SOLID
  8
0
 62
7
  6
CONTINUOUS
 10
544.6594989807
 20
30.9060491937
 11
544.4282492012
 21
30.8415205581
 12
543.3876242012
 22
30.8415205581
 13
543.3876242012
 23
30.8415205581
  0
SOLID
  8
0
 62
7
  6
CONTINUOUS
 10
543.7344992012
 20
30.8092581772
 11
543.3876242012
 21
30.8415205581
 12
544.4282492012
 22
30.8415205581
 13
544.4282492012
 23
30.8415205581
  0
SOLID
  8
0
 62
7
  6
CONTINUOUS
 10
544.4282492012
 20
30.8415205581
 11
544.0813742012
 21
30.8092581772
 12
543.7344992012
 22
30.8092581772
 13
543.7344992012
 23
30.8092581772
  0
SOLID
  8
0
 62
7
  6
CONTINUOUS
 10
533.3860614807
 20
31.325476038
 11
533.7329364807
 21
31.4867945216
 12
533.6751239738
 22
31.3577403412
 13
533.6751239738
 23
31.3577403412
  0
SOLID
  8
0
 62
7
  6
CONTINUOUS
 10
533.6751239738
 20
31.3577403412
 11
533.6751239738
 21
31.2609490436
 12
533.3860614807
 22
31.325476038
 13
533.3860614807
 23
31.325476038
  0
SOLID
  8
0
 62
7
  6
CONTINUOUS
 10
533.4438739824
 20
31.1318947675
 11
533.3860614807
 21
31.325476038
 12
533.6751239738
 22
31.2609490436
 13
533.6751239738
 23
31.2609490436
  0
SOLID
  8
0
 62
7
  6
CONTINUOUS
 10
533.6751239738
 20
31.2609490436
 11
533.7907489669
 21
31.0996304642
 12
533.4438739824
 22
31.1318947675
 13
533.4438739824
 23
31.1318947675
  0
SOLID
  8
0
 62
7
  6
CONTINUOUS
 10
533.5594989807
 20
31.0028388804
 11
533.4438739824
 21
31.1318947675
 12
533.7907489669
 22
31.0996304642
 13
533.7907489669
 23
31.0996304642
  0
SOLID
  8
0
 62
7
  6
CONTINUOUS
 10
533.7907489669
 20
31.0996304642
 11
533.9641864669
 21
31.0028388804
 12
533.5594989807
 22
31.0028388804
 13
533.5594989807
 23
31.0028388804
  0
SOLID
  8
0
 62
7
  6
CONTINUOUS
 10
533.6751239738
 20
30.9383122606
 11
533.5594989807
 21
31.0028388804
 12
533.9641864669
 22
31.0028388804
 13
533.9641864669
 23
31.0028388804
  0
SOLID
  8
0
 62
7
  6
CONTINUOUS
 10
533.9641864669
 20
31.0028388804
 11
534.3110615082
 21
30.9383122606
 12
533.6751239738
 22
30.9383122606
 13
533.6751239738
 23
30.9383122606
  0
SOLID
  8
0
 62
7
  6
CONTINUOUS
 10
533.8485614944
 20
30.8737848904
 11
533.6751239738
 21
30.9383122606
 12
534.3110615082
 22
30.9383122606
 13
534.3110615082
 23
30.9383122606
  0
SOLID
  8
0
 62
7
  6
CONTINUOUS
 10
537.8954364807
 20
31.3254759532
 11
538.0110613704
 21
31.3900038345
 12
538.5891864807
 22
31.3577403412
 13
538.5891864807
 23
31.3577403412
  0
SOLID
  8
0
 62
7
  6
CONTINUOUS
 10
538.5891864807
 20
31.3577403412
 11
538.3579363704
 21
31.3254759532
 12
537.8954364807
 22
31.3254759532
 13
537.8954364807
 23
31.3254759532
  0
SOLID
  8
0
 62
7
  6
CONTINUOUS
 10
537.7798115909
 20
31.1964218576
 11
537.8954364807
 21
31.3254759532
 12
538.3579363704
 22
31.3254759532
 13
538.3579363704
 23
31.3254759532
  0
SOLID
  8
0
 62
7
  6
CONTINUOUS
 10
538.1266865909
 20
31.2286853572
 11
537.7798115909
 21
31.1964218576
 12
538.2423114807
 22
31.2932132511
 13
538.2423114807
 23
31.2932132511
  0
SOLID
  8
0
 62
7
  6
CONTINUOUS
 10
537.7798115909
 20
31.1964218576
 11
538.3579363704
 21
31.325476038
 12
538.2423114807
 22
31.2932132511
 13
538.2423114807
 23
31.2932132511
  0
SOLID
  8
0
 62
7
  6
CONTINUOUS
 10
538.1266865909
 20
31.2286853572
 11
538.0688739807
 21
31.1318947675
 12
537.7798115909
 22
31.1964218576
 13
537.7798115909
 23
31.1964218576
  0
SOLID
  8
0
 62
7
  6
CONTINUOUS
 10
537.7798115909
 20
31.0996304642
 11
537.7798115909
 21
31.1964218576
 12
538.0688739807
 22
31.1318947675
 13
538.0688739807
 23
31.1318947675
  0
SOLID
  8
0
 62
7
  6
CONTINUOUS
 10
538.0688739807
 20
31.1318947675
 11
538.0688739807
 21
31.0673661609
 12
537.7798115909
 22
31.0996304642
 13
537.7798115909
 23
31.0996304642
  0
SOLID
  8
0
 62
7
  6
CONTINUOUS
 10
537.8376238704
 20
30.9705762839
 11
537.7798115909
 21
31.0996304642
 12
538.0688739807
 22
31.0673661609
 13
538.0688739807
 23
31.0673661609
  0
SOLID
  8
0
 62
7
  6
CONTINUOUS
 10
539.2251242012
 20
31.1641579843
 11
539.5141862601
 21
31.0673661609
 12
539.1673112601
 22
31.0996304642
 13
539.1673112601
 23
31.0996304642
  0
SOLID
  8
0
 62
7
  6
CONTINUOUS
 10
538.9938737601
 20
31.0028390707
 11
539.1673112601
 21
31.0996304642
 12
539.5141862601
 22
31.0673661609
 13
539.5141862601
 23
31.0673661609
  0
SOLID
  8
0
 62
7
  6
CONTINUOUS
 10
538.9938737601
 20
31.0028390707
 11
539.5141862601
 21
31.0673661609
 12
539.2251242012
 22
30.9705762839
 13
539.2251242012
 23
30.9705762839
  0
SOLID
  8
0
 62
7
  6
CONTINUOUS
 10
539.5141862601
 20
31.0673661609
 11
539.5719992012
 21
30.9060491937
 12
539.2251242012
 22
30.9705762839
 13
539.2251242012
 23
30.9705762839
  0
SOLID
  8
0
 62
7
  6
CONTINUOUS
 10
539.2829364807
 20
30.8737848904
 11
539.2251242012
 21
30.9705762839
 12
539.5719992012
 22
30.9060491937
 13
539.5719992012
 23
30.9060491937
  0
SOLID
  8
0
 62
7
  6
CONTINUOUS
 10
539.2829364807
 20
30.8737848904
 11
539.5719992012
 21
30.9060491937
 12
539.3407487601
 22
30.8092576254
 13
539.3407487601
 23
30.8092576254
  0
SOLID
  8
0
 62
7
  6
CONTINUOUS
 10
539.5719992012
 20
30.9060491937
 11
539.6298114807
 21
30.8092576254
 12
539.3407487601
 22
30.8092576254
 13
539.3407487601
 23
30.8092576254
  0
SOLID
  8
0
 62
7
  6
CONTINUOUS
 10
534.8891865358
 20
31.035103216
 11
534.9469989807
 21
31.1318946289
 12
535.2360615358
 22
31.1318946289
 13
535.2360615358
 23
31.1318946289
  0
SOLID
  8
0
 62
7
  6
CONTINUOUS
 10
535.2360615358
 20
31.1318946289
 11
535.1782489255
 21
31.0028390707
 12
534.8891865358
 22
31.035103216
 13
534.8891865358
 23
31.035103216
  0
SOLID
  8
0
 62
7
  6
CONTINUOUS
 10
534.7157489531
 20
30.9705762839
 11
534.8891865358
 21
31.035103216
 12
535.1782489255
 22
31.0028390707
 13
535.1782489255
 23
31.0028390707
  0
SOLID
  8
0
 62
7
  6
CONTINUOUS
 10
534.7157489531
 20
30.9705762839
 11
535.1782489255
 21
31.0028390707
 12
534.3110615082
 22
30.9383119806
 13
534.3110615082
 23
30.9383119806
  0
SOLID
  8
0
 62
7
  6
CONTINUOUS
 10
535.1782489255
 20
31.0028390707
 11
535.0048114255
 21
30.9060491937
 12
534.3110615082
 22
30.9383119806
 13
534.3110615082
 23
30.9383119806
  0
SOLID
  8
0
 62
7
  6
CONTINUOUS
 10
533.8485614944
 20
30.8737848904
 11
534.3110615082
 21
30.9383119806
 12
535.0048114255
 22
30.9060491937
 13
535.0048114255
 23
30.9060491937
  0
SOLID
  8
0
 62
7
  6
CONTINUOUS
 10
533.8485614944
 20
30.8737848904
 11
535.0048114255
 21
30.9060491937
 12
534.0219989944
 22
30.8415207131
 13
534.0219989944
 23
30.8415207131
  0
SOLID
  8
0
 62
7
  6
CONTINUOUS
 10
535.0048114255
 20
30.9060491937
 11
534.7735614807
 21
30.8415207131
 12
534.0219989944
 22
30.8415207131
 13
534.0219989944
 23
30.8415207131
  0
SOLID
  8
0
 62
7
  6
CONTINUOUS
 10
534.3688739531
 20
30.8092578002
 11
534.0219989944
 21
30.8415207131
 12
534.7735614807
 22
30.8415207131
 13
534.7735614807
 23
30.8415207131
  0
SOLID
  8
0
 62
7
  6
CONTINUOUS
 10
537.8376238704
 20
30.9705762839
 11
538.0688739807
 21
31.0673661609
 12
538.1266865909
 22
31.0028390707
 13
538.1266865909
 23
31.0028390707
  0
SOLID
  8
0
 62
7
  6
CONTINUOUS
 10
538.1266865909
 20
31.0028390707
 11
538.3579363704
 21
30.9383119806
 12
537.8376238704
 22
30.9705762839
 13
537.8376238704
 23
30.9705762839
  0
SOLID
  8
0
 62
7
  6
CONTINUOUS
 10
538.0110613704
 20
30.8737848904
 11
537.8376238704
 21
30.9705762839
 12
538.3579363704
 22
30.9383119806
 13
538.3579363704
 23
30.9383119806
  0
SOLID
  8
0
 62
7
  6
CONTINUOUS
 10
538.7048113704
 20
30.9383119664
 11
538.9938737601
 21
31.0028390707
 12
539.2251242012
 22
30.9705762839
 13
539.2251242012
 23
30.9705762839
  0
SOLID
  8
0
 62
7
  6
CONTINUOUS
 10
539.2251242012
 20
30.9705762839
 11
539.1673112601
 21
30.9060491937
 12
538.7048113704
 22
30.9383119664
 13
538.7048113704
 23
30.9383119664
  0
SOLID
  8
0
 62
7
  6
CONTINUOUS
 10
539.1673112601
 20
30.9060491937
 11
538.0110613704
 21
30.8737848904
 12
538.7048113704
 22
30.9383119664
 13
538.7048113704
 23
30.9383119664
  0
SOLID
  8
0
 62
7
  6
CONTINUOUS
 10
538.0110613704
 20
30.8737848904
 11
538.3579363704
 21
30.9383119664
 12
538.7048113704
 22
30.9383119664
 13
538.7048113704
 23
30.9383119664
  0
SOLID
  8
0
 62
7
  6
CONTINUOUS
 10
538.0110613704
 20
30.8737848904
 11
539.1673112601
 21
30.9060491937
 12
538.1266865909
 22
30.8415205568
 13
538.1266865909
 23
30.8415205568
  0
SOLID
  8
0
 62
7
  6
CONTINUOUS
 10
539.1673112601
 20
30.9060491937
 11
538.9938737601
 21
30.8415205568
 12
538.1266865909
 22
30.8415205568
 13
538.1266865909
 23
30.8415205568
  0
SOLID
  8
0
 62
7
  6
CONTINUOUS
 10
538.3579363704
 20
30.8092577215
 11
538.1266865909
 21
30.8415205568
 12
538.9938737601
 22
30.8415205568
 13
538.9938737601
 23
30.8415205568
  0
SOLID
  8
0
 62
7
  6
CONTINUOUS
 10
538.9938737601
 20
30.8415205568
 11
538.7048113704
 21
30.8092577215
 12
538.3579363704
 22
30.8092577215
 13
538.3579363704
 23
30.8092577215
  0
SOLID
  8
0
 62
7
  6
CONTINUOUS
 10
543.3876242012
 20
30.9705762839
 11
543.0407492012
 21
30.9383119664
 12
543.2719989807
 22
31.0028390707
 13
543.2719989807
 23
31.0028390707
  0
SOLID
  8
0
 62
7
  6
CONTINUOUS
 10
543.2719989807
 20
31.0028390707
 11
543.0407492012
 21
30.9383119664
 12
543.2141867012
 22
31.0673661467
 13
543.2141867012
 23
31.0673661467
  0
SOLID
  8
0
 62
7
  6
CONTINUOUS
 10
543.0407492012
 20
30.9383119664
 11
542.9251239807
 21
31.0673661467
 12
543.2141867012
 22
31.0673661467
 13
543.2141867012
 23
31.0673661467
  0
SOLID
  8
0
 62
7
  6
CONTINUOUS
 10
543.3876242012
 20
30.9705762839
 11
543.7344992012
 21
30.9383119664
 12
543.0407492012
 22
30.9383119664
 13
543.0407492012
 23
30.9383119664
  0
SOLID
  8
0
 62
7
  6
CONTINUOUS
 10
540.0923117012
 20
30.8092578002
 11
540.0923117012
 21
31.841695792
 12
540.3813737601
 22
30.8092578002
 13
540.3813737601
 23
31.841695792
  0
ENDBLK
  8
0
  6
BYBLOCK
 62
0
  0
BLOCK
  8
0
 62
2
  6
CONTINUOUS
  2
AMMEAAL_LOGO_BL0
 70
64
 10
416.1419631151
 20
19.7009994242
  0
TEXT
  8
0
 62
7
  6
CONTINUOUS
 10
402.4066669574
 20
19.0744135318
  7
TEXTSTYLE_3
 40
2.7338706658
  1
Ammeraal Beltech
 41
1.0
 51
15.0
 72
0
  0
TEXT
  8
0
 62
7
  6
CONTINUOUS
 10
413.2074677831
 20
16.800876859
  7
TEXTSTYLE_4
 40
1.0935482663
  1
Innovation & Service in Belting
 41
1.0
 72
0
  0
LINE
  8
0
 62
7
  6
CONTINUOUS
 10
396.382126306
 20
19.8410068404
 11
397.1602782994
 21
23.5019241381
  0
LINE
  8
0
 62
7
  6
CONTINUOUS
 10
407.2554465892
 20
27.1653180497
 11
397.6480960424
 21
24.0437006284
  0
LINE
  8
0
 62
7
  6
CONTINUOUS
 10
396.6074096383
 20
19.1476560374
 11
404.1144848995
 21
12.3882551114
  0
LINE
  8
0
 62
7
  6
CONTINUOUS
 10
396.869944049
 20
20.3827833308
 11
407.6782134142
 21
23.8946029297
  0
LINE
  8
0
 62
7
  6
CONTINUOUS
 10
407.674008277
 20
13.544814366
 11
399.2285486083
 21
21.1491404077
  0
LINE
  8
0
 62
7
  6
CONTINUOUS
 10
408.1938309968
 20
26.320392934
 11
407.2172714596
 21
21.7260415315
  0
LINE
  8
0
 62
7
  6
CONTINUOUS
 10
406.5174695119
 20
18.4337322177
 11
405.8310213004
 21
15.2042472933
  0
LINE
  8
0
 62
7
  6
CONTINUOUS
 10
408.8749270954
 20
13.9350165436
 11
409.831158631
 21
18.4337322177
  0
LINE
  8
0
 62
7
  6
CONTINUOUS
 10
410.5309605787
 20
21.7260415315
 11
410.9752023811
 21
23.8160348909
  0
LINE
  8
0
 62
7
  6
CONTINUOUS
 10
404.8275859748
 20
12.2366807987
 11
408.3871093524
 21
13.3932400533
  0
LINE
  8
0
 62
7
  6
CONTINUOUS
 10
407.9685476645
 20
27.013743737
 11
410.7499190488
 21
24.5093856939
  0
ARC
  8
0
 62
7
  6
CONTINUOUS
 10
397.8733793747
 20
23.3503498254
 40
0.7290321776
 50
108.0
 51
168.0
  0
ARC
  8
0
 62
7
  6
CONTINUOUS
 10
407.4807299215
 20
26.4719672466
 40
0.7290321776
 50
348.0
 51
108.0
  0
ARC
  8
0
 62
7
  6
CONTINUOUS
 10
410.2621013058
 20
23.9676092036
 40
0.7290321776
 50
348.0
 51
48.0
  0
ARC
  8
0
 62
7
  6
CONTINUOUS
 10
404.6023026425
 20
12.9300316018
 40
0.7290321776
 50
228.0
 51
288.0
  0
ARC
  8
0
 62
7
  6
CONTINUOUS
 10
397.0952273813
 20
19.6894325277
 40
0.7290321776
 50
108.0
 51
228.0
  0
ARC
  8
0
 62
7
  6
CONTINUOUS
 10
408.1618260201
 20
14.0865908563
 40
0.7290321776
 50
228.0
 51
348.0
  0
ENDBLK
  8
0
  6
BYBLOCK
 62
0
  0
ENDSEC
  0
SECTION
  2
ENTITIES
  0
TEXT
  8
0
 62
5
  6
CONTINUOUS
 10
480.0
 20
25.636
  7
TEXTSTYLE_2
 40
2.8
  1
Scale :
 41
0.6
 51
0.000019
 72
0
  0
TEXT
  8
0
 62
5
  6
CONTINUOUS
 10
500.0
 20
25.636
  7
TEXTSTYLE_2
 40
2.8
  1
Belt type:
 41
0.6
 51
0.000019
 72
0
  0
INSERT
  8
0
 62
2
  6
CONTINUOUS
  2
AMMEAAL_LOGO_BL0
 10
416.1419631151
 20
19.7009994242
  0
INSERT
  8
0
 62
2
  6
CONTINUOUS
  2
UNI_LOGO2_BL1
 10
557.4079930916
 20
35.8092573885
  0
LINE
  8
0
 62
2
  6
CONTINUOUS
 10
394.0
 20
30.0
 11
584.0
 21
30.0
  0
LINE
  8
0
 62
2
  6
CONTINUOUS
 10
394.0
 20
30.0
 11
394.0
 21
10.0
  0
LINE
  8
0
 62
2
  6
CONTINUOUS
 10
394.0
 20
10.0
 11
584.0
 21
10.0
  0
LINE
  8
0
 62
2
  6
CONTINUOUS
 10
479.0
 20
30.0
 11
479.0
 21
10.0
  0
LINE
  8
0
 62
2
  6
CONTINUOUS
 10
499.0
 20
30.0
 11
499.0
 21
10.0
  0
LINE
  8
0
 62
2
  6
CONTINUOUS
 10
584.0
 20
30.0
 11
584.0
 21
10.0
  0
TEXT
  8
0
 62
5
  6
CONTINUOUS
 10
397.0
 20
23.303
  7
TEXTSTYLE_5
 40
1.52
  1
                                                                     Ammeraal Beltech Modular A/S
 41
1.0
 72
0
  0
TEXT
  8
0
 62
5
  6
CONTINUOUS
 10
397.0
 20
20.595
  7
TEXTSTYLE_5
 40
1.5
  1
                                                                      Hjulmagervej 21, 7100 Vejle,  DK
 41
1.0
 72
0
  0
TEXT
  8
0
 62
5
  6
CONTINUOUS
 10
397.0
 20
17.881
  7
TEXTSTYLE_5
 40
1.495
  1
                                                                      tel: 
 41
1.0
 72
0
  0
TEXT
  8
0
 62
5
  6
CONTINUOUS
 10
441.9869465649
 20
17.881
  7
TEXTSTYLE_5
 40
1.51
  1
+45 75723100     fax: +45 75723348
 41
1.0
 72
0
  0
TEXT
  8
0
 62
5
  6
CONTINUOUS
 10
397.0
 20
15.177
  7
TEXTSTYLE_5
 40
1.5
  1
                                                                      admin@unichains.dk  www.unichains.com
 41
1.0
 72
0
  0
TEXT
  8
0
 62
5
  6
CONTINUOUS
 10
483.75
 20
13.75
  7
TEXTSTYLE_6
 40
5.0
  1
1:1
 41
0.7
 72
1
 11
489.0
 21
13.75
  0
TEXT
  8
0
 62
5
  6
CONTINUOUS
 10
502.0
 20
13.75
  7
TEXTSTYLE_7
 40
7.5
  1
Sprocket Z20 120X120SQ
 41
0.5034090909
 72
0
  0
LINE
  8
0
 62
7
  6
CONTINUOUS
 10
0.0
 20
0.0
 11
0.0
 21
420.0
  0
LINE
  8
0
 62
7
  6
CONTINUOUS
 10
10.0
 20
10.0
 11
10.0
 21
410.0
  0
LINE
  8
0
 62
7
  6
CONTINUOUS
 10
0.0
 20
0.0
 11
594.0
 21
0.0
  0
LINE
  8
0
 62
7
  6
CONTINUOUS
 10
10.0
 20
10.0
 11
584.0
 21
10.0
  0
LINE
  8
0
 62
7
  6
CONTINUOUS
 10
394.0
 20
30.0
 11
584.0
 21
30.0
  0
LINE
  8
0
 62
7
  6
CONTINUOUS
 10
179.0
 20
5.0
 11
179.0
 21
10.0
  0
LINE
  8
0
 62
7
  6
CONTINUOUS
 10
179.0
 20
410.0
 11
179.0
 21
415.0
  0
LINE
  8
0
 62
7
  6
CONTINUOUS
 10
594.0
 20
420.0
 11
584.0
 21
410.0
  0
LINE
  8
0
 62
7
  6
CONTINUOUS
 10
384.0
 20
410.0
 11
384.0
 21
415.0
  0
LINE
  8
0
 62
7
  6
CONTINUOUS
 10
584.0
 20
297.0
 11
589.0
 21
297.0
  0
LINE
  8
0
 62
7
  6
CONTINUOUS
 10
10.0
 20
410.0
 11
584.0
 21
410.0
  0
LINE
  8
0
 62
7
  6
CONTINUOUS
 10
0.0
 20
420.0
 11
594.0
 21
420.0
  0
LINE
  8
0
 62
7
  6
CONTINUOUS
 10
584.0
 20
10.0
 11
584.0
 21
410.0
  0
LINE
  8
0
 62
7
  6
CONTINUOUS
 10
594.0
 20
0.0
 11
594.0
 21
420.0
  0
LINE
  8
0
 62
7
  6
CONTINUOUS
 10
70.9025713923
 20
208.8182459666
 11
70.9025713923
 21
190.3023237634
  0
LINE
  8
0
 62
7
  6
CONTINUOUS
 10
76.061455957
 20
244.8883167946
 11
70.3397213297
 21
227.2786283281
  0
LINE
  8
0
 62
7
  6
CONTINUOUS
 10
92.1141116132
 20
277.5988096964
 11
81.2307256096
 21
262.6191139675
  0
LINE
  8
0
 62
7
  6
CONTINUOUS
 10
117.48919258
 20
303.7477937192
 11
102.5094968511
 21
292.8644077155
  0
LINE
  8
0
 62
7
  6
CONTINUOUS
 10
149.7028091336
 20
320.7756241162
 11
132.0931206671
 21
315.0538894889
  0
LINE
  8
0
 62
7
  6
CONTINUOUS
 10
189.099823634
 20
94.1191493185
 11
207.6157458372
 21
94.1191493185
  0
LINE
  8
0
 62
7
  6
CONTINUOUS
 10
153.029752806
 20
99.2780338832
 11
170.6394412725
 21
93.5562992559
  0
LINE
  8
0
 62
7
  6
CONTINUOUS
 10
120.3192599042
 20
115.3306895395
 11
135.2989556331
 21
104.4473035358
  0
LINE
  8
0
 62
7
  6
CONTINUOUS
 10
94.1702758814
 20
140.7057705062
 11
105.053661885
 21
125.7260747773
  0
LINE
  8
0
 62
7
  6
CONTINUOUS
 10
77.1424454844
 20
172.9193870598
 11
82.8641801117
 21
155.3096985933
  0
LINE
  8
DEFAULT_2
 62
8
  6
HIDDEN
 10
154.139569473
 20
314.8482171562
 11
153.8735294945
 21
314.6527783799
  0
LINE
  8
DEFAULT_2
 62
8
  6
HIDDEN
 10
154.5841143851
 20
313.0921017809
 11
154.3180744066
 21
312.8966630045
  0
LINE
  8
DEFAULT_2
 62
8
  6
HIDDEN
 10
155.9193921075
 20
311.2822260254
 11
156.185432086
 21
311.4776648017
  0
LINE
  8
DEFAULT_2
 62
8
  6
HIDDEN
 10
177.4316962353
 20
319.7801963854
 11
177.8304650699
 21
320.0248727401
  0
LINE
  8
DEFAULT_2
 62
8
  6
HIDDEN
 10
163.4815250493
 20
317.3760689381
 11
163.1986910003
 21
317.2058382529
  0
LINE
  8
DEFAULT_2
 62
8
  6
HIDDEN
 10
153.6142195617
 20
315.1287427784
 11
154.0789499737
 21
315.3868357779
  0
LINE
  8
DEFAULT_2
 62
8
  6
HIDDEN
 10
154.0587644738
 20
313.3726274031
 11
154.5234903382
 21
313.6307189686
  0
LINE
  8
DEFAULT_2
 62
8
  6
HIDDEN
 10
156.444746586
 20
311.001701775
 11
155.9800161768
 21
310.7436087666
  0
LINE
  8
DEFAULT_2
 62
8
  6
HIDDEN
 10
162.984099812
 20
317.7035674683
 11
163.4705261277
 21
317.9179755478
  0
LINE
  8
DEFAULT_2
 62
8
  6
HIDDEN
 10
197.5422522722
 20
319.7571578795
 11
197.9792328303
 21
319.9242779175
  0
LINE
  8
DEFAULT_2
 62
8
  6
HIDDEN
 10
174.0442084022
 20
319.1966262906
 11
173.540172304
 21
319.0277062977
  0
LINE
  8
DEFAULT_2
 62
8
  6
HIDDEN
 10
174.5227920476
 20
315.289658918
 11
175.0268281458
 21
315.458578911
  0
LINE
  8
DEFAULT_2
 62
8
  6
HIDDEN
 10
154.0789499737
 20
315.3868357779
 11
154.4763262931
 21
315.5121427902
  0
LINE
  8
DEFAULT_2
 62
8
  6
HIDDEN
 10
154.7356362259
 20
315.0361783917
 11
154.139569473
 21
314.8482171562
  0
LINE
  8
DEFAULT_2
 62
8
  6
HIDDEN
 10
153.5367772219
 20
313.9888541799
 11
153.0400534119
 21
313.832219339
  0
LINE
  8
DEFAULT_2
 62
8
  6
HIDDEN
 10
154.5234903382
 20
313.6307189686
 11
155.0202141482
 21
313.7873538094
  0
LINE
  8
DEFAULT_2
 62
8
  6
HIDDEN
 10
155.279524081
 20
313.3113894109
 11
154.5841143851
 21
313.0921017809
  0
LINE
  8
DEFAULT_2
 62
8
  6
HIDDEN
 10
155.2239824116
 20
311.0629383953
 11
155.9193921075
 21
311.2822260254
  0
LINE
  8
DEFAULT_2
 62
8
  6
HIDDEN
 10
155.9800161768
 20
310.7436087666
 11
155.4832923668
 21
310.5869739258
  0
LINE
  8
DEFAULT_2
 62
8
  6
HIDDEN
 10
173.3721065823
 20
319.5430097646
 11
173.9795349452
 21
319.7245947845
  0
LINE
  8
DEFAULT_2
 62
8
  6
HIDDEN
 10
175.1948938754
 20
314.9432753793
 11
174.5874655137
 21
314.7616903502
  0
LINE
  8
DEFAULT_2
 62
8
  6
HIDDEN
 10
178.5906539144
 20
319.6576235086
 11
178.079725145
 21
319.5108647102
  0
LINE
  8
DEFAULT_2
 62
8
  6
HIDDEN
 10
153.8735294945
 20
314.6527783799
 11
153.6394829139
 21
314.3558814449
  0
LINE
  8
DEFAULT_2
 62
8
  6
HIDDEN
 10
154.3180744066
 20
312.8966630045
 11
154.084027826
 21
312.5997660696
  0
LINE
  8
DEFAULT_2
 62
8
  6
HIDDEN
 10
156.185432086
 20
311.4776648017
 11
156.4194786666
 21
311.7745617367
  0
LINE
  8
DEFAULT_2
 62
8
  6
HIDDEN
 10
162.6445829916
 20
317.3033199097
 11
162.984099812
 21
317.7035674683
  0
LINE
  8
DEFAULT_2
 62
8
  6
HIDDEN
 10
153.2134759456
 20
314.6677334616
 11
153.6142195617
 21
315.1287427784
  0
LINE
  8
DEFAULT_2
 62
8
  6
HIDDEN
 10
153.6580208577
 20
312.9116180863
 11
154.0587644738
 21
313.3726274031
  0
LINE
  8
DEFAULT_2
 62
8
  6
HIDDEN
 10
156.8454856461
 20
311.4627096844
 11
156.444746586
 21
311.001701775
  0
LINE
  8
DEFAULT_2
 62
8
  6
HIDDEN
 10
173.540172304
 20
319.0277062977
 11
173.2558601597
 21
318.7785232396
  0
LINE
  8
DEFAULT_2
 62
8
  6
HIDDEN
 10
175.0268281458
 20
315.458578911
 11
175.3111402901
 21
315.707761969
  0
LINE
  8
DEFAULT_2
 62
8
  6
HIDDEN
 10
178.079725145
 20
319.5108647102
 11
177.7848075969
 21
319.2743288109
  0
LINE
  8
DEFAULT_2
 62
8
  6
HIDDEN
 10
172.8939398669
 20
319.1629023741
 11
173.3721065823
 21
319.5430097646
  0
LINE
  8
DEFAULT_2
 62
8
  6
HIDDEN
 10
175.6730605874
 20
315.3233827975
 11
175.1948938754
 21
314.9432753793
  0
LINE
  8
DEFAULT_2
 62
8
  6
HIDDEN
 10
192.5427176122
 20
320.0022852016
 11
192.9781232117
 21
320.2953547437
  0
LINE
  8
DEFAULT_2
 62
8
  6
HIDDEN
 10
198.0147370019
 20
319.2785117881
 11
197.6813299306
 21
319.1002835169
  0
LINE
  8
DEFAULT_2
 62
8
  6
HIDDEN
 10
199.4011061741
 20
315.5990527485
 11
199.7345132534
 21
315.7772810938
  0
LINE
  8
DEFAULT_2
 62
8
  6
HIDDEN
 10
192.4125971713
 20
317.8786081724
 11
192.6270481503
 21
317.9720509522
  0
LINE
  8
DEFAULT_2
 62
8
  6
HIDDEN
 10
199.8735909
 20
315.1204066201
 11
199.4366103389
 21
314.9532865544
  0
LINE
  8
DEFAULT_2
 62
8
  6
HIDDEN
 10
213.7241784434
 20
315.3629303657
 11
214.0803927787
 21
315.4895674027
  0
LINE
  8
DEFAULT_2
 62
8
  6
HIDDEN
 10
218.9485950287
 20
311.0131411151
 11
218.5878597661
 21
310.9000230469
  0
LINE
  8
DEFAULT_2
 62
8
  6
HIDDEN
 10
153.4559676751
 20
312.5132629927
 11
153.6580208577
 21
312.9116180863
  0
LINE
  8
DEFAULT_2
 62
8
  6
HIDDEN
 10
154.084027826
 20
312.5997660696
 11
153.9493241884
 21
312.3341955292
  0
LINE
  8
DEFAULT_2
 62
8
  6
HIDDEN
 10
163.1986910003
 20
317.2058382529
 11
163.0402120956
 21
316.9537326824
  0
LINE
  8
DEFAULT_2
 62
8
  6
HIDDEN
 10
172.622562414
 20
318.8081256173
 11
172.8939398669
 21
319.1629023741
  0
LINE
  8
DEFAULT_2
 62
8
  6
HIDDEN
 10
177.0495589582
 20
319.3234051251
 11
177.4316962353
 21
319.7801963854
  0
LINE
  8
DEFAULT_2
 62
8
  6
HIDDEN
 10
193.0430595639
 20
319.6518811957
 11
192.8221025637
 21
319.4522545793
  0
LINE
  8
DEFAULT_2
 62
8
  6
HIDDEN
 10
192.9129391229
 20
317.5282041665
 11
192.6919821228
 21
317.3285775501
  0
LINE
  8
DEFAULT_2
 62
8
  6
HIDDEN
 10
197.0825827326
 20
319.3784851248
 11
197.5422522722
 21
319.7571578795
  0
LINE
  8
DEFAULT_2
 62
8
  6
HIDDEN
 10
213.4687313506
 20
315.2098982787
 11
213.7241784434
 21
315.3629303657
  0
LINE
  8
DEFAULT_2
 62
8
  6
HIDDEN
 10
214.0463770607
 20
314.9486172633
 11
213.790929968
 21
314.7955851763
  0
LINE
  8
DEFAULT_2
 62
8
  6
HIDDEN
 10
153.043416161
 20
314.1679202094
 11
153.2134759456
 21
314.6677334616
  0
LINE
  8
DEFAULT_2
 62
8
  6
HIDDEN
 10
157.0155454195
 20
311.9625229721
 11
156.8454856461
 21
311.4627096844
  0
LINE
  8
DEFAULT_2
 62
8
  6
HIDDEN
 10
162.4294259756
 20
316.821198477
 11
162.6445829916
 21
317.3033199097
  0
LINE
  8
DEFAULT_2
 62
8
  6
HIDDEN
 10
175.9444380358
 20
315.6781595913
 11
175.6730605874
 21
315.3233827975
  0
LINE
  8
DEFAULT_2
 62
8
  6
HIDDEN
 10
192.2047784705
 20
319.5966612946
 11
192.5427176122
 21
320.0022852016
  0
LINE
  8
DEFAULT_2
 62
8
  6
HIDDEN
 10
192.0746580296
 20
317.4729842654
 11
192.4125971713
 21
317.8786081724
  0
LINE
  8
DEFAULT_2
 62
8
  6
HIDDEN
 10
200.3332592582
 20
315.499079539
 11
199.8735909
 21
315.1204066201
  0
LINE
  8
DEFAULT_2
 62
8
  6
HIDDEN
 10
219.3401473238
 20
311.2280808311
 11
218.9485950287
 21
311.0131411151
  0
LINE
  8
DEFAULT_2
 62
8
  6
HIDDEN
 10
153.6394829139
 20
314.3558814449
 11
153.5367772219
 21
313.9888541799
  0
LINE
  8
DEFAULT_2
 62
8
  6
HIDDEN
 10
156.4194786666
 20
311.7745617367
 11
156.5221888838
 21
312.1415905068
  0
LINE
  8
DEFAULT_2
 62
8
  6
HIDDEN
 10
172.4675166502
 20
318.3604207683
 11
172.622562414
 21
318.8081256173
  0
LINE
  8
DEFAULT_2
 62
8
  6
HIDDEN
 10
173.2558601597
 20
318.7785232396
 11
172.9198945525
 21
318.0943000636
  0
LINE
  8
DEFAULT_2
 62
8
  6
HIDDEN
 10
175.3111402901
 20
315.707761969
 11
175.6471059245
 21
316.3919849231
  0
LINE
  8
DEFAULT_2
 62
8
  6
HIDDEN
 10
177.7848075969
 20
319.2743288109
 11
177.6020547372
 21
318.939875728
  0
LINE
  8
DEFAULT_2
 62
8
  6
HIDDEN
 10
199.7345132534
 20
315.7772810938
 11
199.9756913286
 21
316.0723939567
  0
LINE
  8
0
 62
7
  6
CONTINUOUS
 10
180.097622627
 20
289.7898375218
 11
107.8839784983
 21
214.2885293764
  0
LINE
  8
DEFAULT_2
 62
8
  6
HIDDEN
 10
218.7419452016
 20
311.4091312226
 11
219.0337971983
 21
311.654246026
  0
LINE
  8
0
 62
7
  6
CONTINUOUS
 10
108.1282320788
 20
203.3142005532
 11
183.6295402242
 21
131.1005564245
  0
LINE
  8
DEFAULT_2
 62
8
  6
HIDDEN
 10
153.4172442314
 20
311.9433179765
 11
153.4559676751
 21
312.5132629927
  0
LINE
  8
DEFAULT_2
 62
8
  6
HIDDEN
 10
157.0542688408
 20
312.5324680595
 11
157.0155454195
 21
311.9625229721
  0
LINE
  8
DEFAULT_2
 62
8
  6
HIDDEN
 10
176.0994837905
 20
316.1258645142
 11
175.9444380358
 21
315.6781595913
  0
LINE
  8
DEFAULT_2
 62
8
  6
HIDDEN
 10
200.5857830175
 20
315.8999687072
 11
200.3332592582
 21
315.499079539
  0
LINE
  8
DEFAULT_2
 62
8
  6
HIDDEN
 10
217.0162222746
 20
311.8202856577
 11
216.6627360399
 21
311.3715276306
  0
LINE
  8
DEFAULT_2
 62
8
  6
HIDDEN
 10
216.1642341912
 20
311.5224029811
 11
216.3255689041
 21
311.6958711224
  0
LINE
  8
DEFAULT_2
 62
8
  6
HIDDEN
 10
219.5014818441
 20
311.4015490112
 11
219.3401473238
 21
311.2280808311
  0
LINE
  8
DEFAULT_2
 62
8
  6
HIDDEN
 10
153.0400534119
 20
313.832219339
 11
153.043416161
 21
314.1679202094
  0
LINE
  8
DEFAULT_2
 62
8
  6
HIDDEN
 10
153.9493241884
 20
312.3341955292
 11
153.9459614842
 21
311.9984945166
  0
LINE
  8
DEFAULT_2
 62
8
  6
HIDDEN
 10
156.5221888838
 20
312.1415905068
 11
156.5255516328
 21
312.4772913772
  0
LINE
  8
DEFAULT_2
 62
8
  6
HIDDEN
 10
159.2072605825
 20
316.4381423713
 11
159.0391491429
 21
313.4213585019
  0
LINE
  8
DEFAULT_2
 62
8
  6
HIDDEN
 10
159.0477974711
 20
312.9833471657
 11
158.9730827991
 21
311.6425547912
  0
LINE
  8
DEFAULT_2
 62
8
  6
HIDDEN
 10
158.3690601137
 20
311.4819883079
 11
158.6952538721
 21
316.7423466713
  0
LINE
  8
DEFAULT_2
 62
8
  6
HIDDEN
 10
162.3953068752
 20
316.4872190324
 11
162.4294259756
 21
316.821198477
  0
LINE
  8
DEFAULT_2
 62
8
  6
HIDDEN
 10
163.0402120956
 20
316.9537326824
 11
163.0060929952
 21
316.6197532377
  0
LINE
  8
DEFAULT_2
 62
8
  6
HIDDEN
 10
176.9789660331
 20
318.8910344859
 11
177.0495589582
 21
319.3234051251
  0
LINE
  8
0
 62
7
  6
CONTINUOUS
 10
139.2373749447
 20
94.4490436383
 11
138.1533750749
 21
88.8723477548
  0
LINE
  8
DEFAULT_2
 62
8
  6
HIDDEN
 10
172.4029237629
 20
318.0309737695
 11
172.4675166502
 21
318.3604207683
  0
LINE
  8
DEFAULT_2
 62
8
  6
HIDDEN
 10
176.164076714
 20
316.4553112173
 11
176.0994837905
 21
316.1258645142
  0
LINE
  8
DEFAULT_2
 62
8
  6
HIDDEN
 10
199.9756913286
 20
316.0723939567
 11
200.1246415931
 21
316.4843912841
  0
LINE
  8
DEFAULT_2
 62
8
  6
HIDDEN
 10
192.0812903078
 20
319.2844801675
 11
192.2047784705
 21
319.5966612946
  0
LINE
  8
DEFAULT_2
 62
8
  6
HIDDEN
 10
192.8221025637
 20
319.4522545793
 11
192.6986143828
 21
319.1400731547
  0
LINE
  8
DEFAULT_2
 62
8
  6
HIDDEN
 10
191.9511698578
 20
317.1608029895
 11
192.0746580296
 21
317.4729842654
  0
LINE
  8
DEFAULT_2
 62
8
  6
HIDDEN
 10
192.6919821228
 20
317.3285775501
 11
192.568493951
 21
317.0163962742
  0
LINE
  8
DEFAULT_2
 62
8
  6
HIDDEN
 10
197.6813299306
 20
319.1002835169
 11
197.5437253104
 21
318.7940621244
  0
LINE
  8
DEFAULT_2
 62
8
  6
HIDDEN
 10
204.1519282324
 20
318.8189115814
 11
202.7849925723
 21
316.1243367963
  0
LINE
  8
DEFAULT_2
 62
8
  6
HIDDEN
 10
202.6167942352
 20
315.7198154164
 11
202.0092676754
 21
314.5222266112
  0
LINE
  8
DEFAULT_2
 62
8
  6
HIDDEN
 10
201.3916620305
 20
314.6180820616
 11
203.8054536281
 21
319.3033127472
  0
LINE
  8
0
 62
7
  6
CONTINUOUS
 10
105.7096890127
 20
115.0001260519
 11
102.9554500724
 21
110.0313474742
  0
LINE
  8
DEFAULT_2
 62
8
  6
HIDDEN
 10
216.3255689041
 20
311.6958711224
 11
216.5485375092
 21
312.0729826309
  0
LINE
  8
DEFAULT_2
 62
8
  6
HIDDEN
 10
219.7244505527
 20
311.7786605079
 11
219.5014818441
 21
311.4015490112
  0
LINE
  8
DEFAULT_2
 62
8
  6
HIDDEN
 10
213.2870943317
 20
314.9275602749
 11
213.4687313506
 21
315.2098982787
  0
LINE
  8
DEFAULT_2
 62
8
  6
HIDDEN
 10
219.0337971983
 20
311.654246026
 11
219.2259488109
 21
311.929535826
  0
LINE
  8
0
 62
7
  6
CONTINUOUS
 10
80.1735985494
 20
144.9059916333
 11
76.018724636
 21
141.0315090281
  0
LINE
  8
0
 62
7
  6
CONTINUOUS
 10
65.1287540097
 20
181.239245893
 11
59.9799531306
 21
178.8383206128
  0
LINE
  8
0
 62
7
  6
CONTINUOUS
 10
312.6536420736
 20
200.6913107714
 11
318.2923694146
 21
201.383659432
  0
LINE
  8
0
 62
7
  6
CONTINUOUS
 10
303.4690259623
 20
162.4539528709
 11
309.0457218457
 21
161.3699530011
  0
LINE
  8
0
 62
7
  6
CONTINUOUS
 10
282.9179435487
 20
128.9262669389
 11
287.8867221264
 21
126.1720279986
  0
LINE
  8
0
 62
7
  6
CONTINUOUS
 10
253.0120779673
 20
103.3901764756
 11
256.8865605725
 21
99.2353025622
  0
LINE
  8
0
 62
7
  6
CONTINUOUS
 10
216.6788237076
 20
88.3453319359
 11
219.0797489878
 21
83.1965310568
  0
LINE
  8
0
 62
7
  6
CONTINUOUS
 10
177.4747328452
 20
85.264427527
 11
178.1670815058
 21
79.625700186
  0
LINE
  8
DEFAULT_2
 62
8
  6
HIDDEN
 10
172.9198945525
 20
318.0943000636
 11
172.8941104362
 21
317.448072844
  0
LINE
  8
DEFAULT_2
 62
8
  6
HIDDEN
 10
175.6471059245
 20
316.3919849231
 11
175.6728900226
 21
317.0382122906
  0
LINE
  8
DEFAULT_2
 62
8
  6
HIDDEN
 10
172.3642049552
 20
317.4903402487
 11
172.4029237629
 21
318.0309737695
  0
LINE
  8
DEFAULT_2
 62
8
  6
HIDDEN
 10
176.2027955036
 20
316.995944886
 11
176.164076714
 21
316.4553112173
  0
LINE
  8
DEFAULT_2
 62
8
  6
HIDDEN
 10
196.9222891308
 20
318.8607110156
 11
197.0825827326
 21
319.3784851248
  0
LINE
  8
DEFAULT_2
 62
8
  6
HIDDEN
 10
200.7460777727
 20
316.417742393
 11
200.5857830175
 21
315.8999687072
  0
LINE
  8
DEFAULT_2
 62
8
  6
HIDDEN
 10
213.0515447052
 20
314.4394000843
 11
213.2870943317
 21
314.9275602749
  0
LINE
  8
DEFAULT_2
 62
8
  6
HIDDEN
 10
213.790929968
 20
314.7955851763
 11
213.5553797649
 21
314.3074251367
  0
LINE
  8
DEFAULT_2
 62
8
  6
HIDDEN
 10
156.9296579532
 20
313.2740017065
 11
157.0542688408
 21
312.5324680595
  0
LINE
  8
DEFAULT_2
 62
8
  6
HIDDEN
 10
177.2782485489
 20
315.0729588839
 11
177.2366815334
 21
315.6032471537
  0
LINE
  8
DEFAULT_2
 62
8
  6
HIDDEN
 10
176.9955928603
 20
318.6789189106
 11
176.9789660331
 21
318.8910344859
  0
LINE
  8
DEFAULT_2
 62
8
  6
HIDDEN
 10
177.6020547372
 20
318.939875728
 11
177.6186815643
 21
318.7277601527
  0
LINE
  8
DEFAULT_2
 62
8
  6
HIDDEN
 10
181.8491854167
 20
315.4169325392
 11
181.8283938835
 21
316.0548916946
  0
LINE
  8
DEFAULT_2
 62
8
  6
HIDDEN
 10
181.7105751925
 20
319.6699936745
 11
181.6863184066
 21
320.4142792689
  0
LINE
  8
0
 62
2
  6
CONTINUOUS
 10
187.3507458372
 20
212.0523237634
 11
187.3507458372
 21
209.0823237634
  0
LINE
  8
DEFAULT_1
 62
2
  6
CENTER
 10
187.3507458372
 20
203.1423237634
 11
187.3507458372
 21
94.5941493185
  0
LINE
  8
DEFAULT_1
 62
2
  6
CENTER
 10
187.3507458372
 20
217.9923237634
 11
187.3507458372
 21
326.5404982083
  0
LINE
  8
DEFAULT_2
 62
8
  6
HIDDEN
 10
191.9186397521
 20
316.6298838065
 11
191.9511698578
 21
317.1608029895
  0
LINE
  8
DEFAULT_2
 62
8
  6
HIDDEN
 10
192.0552662051
 20
318.8597445236
 11
192.0812903078
 21
319.2844801675
  0
LINE
  8
DEFAULT_2
 62
8
  6
HIDDEN
 10
192.6986143828
 20
319.1400731547
 11
192.6856023405
 21
318.9277054815
  0
LINE
  8
DEFAULT_2
 62
8
  6
HIDDEN
 10
192.568493951
 20
317.0163962742
 11
192.5489758876
 21
316.6978447644
  0
LINE
  8
DEFAULT_2
 62
8
  6
HIDDEN
 10
195.1092303128
 20
315.901479773
 11
195.2068206435
 21
317.494237545
  0
LINE
  8
DEFAULT_2
 62
8
  6
HIDDEN
 10
195.2458567703
 20
318.1313405645
 11
195.3369410844
 21
319.6179145742
  0
LINE
  8
DEFAULT_2
 62
8
  6
HIDDEN
 10
200.1246415931
 20
316.4843912841
 11
200.2948089703
 21
318.071036808
  0
LINE
  8
DEFAULT_2
 62
8
  6
HIDDEN
 10
211.2202505082
 20
312.791009456
 11
212.00255213
 21
316.1041586704
  0
LINE
  8
DEFAULT_2
 62
8
  6
HIDDEN
 10
212.2470214339
 20
317.1395179993
 11
212.3692560516
 21
317.6571975187
  0
LINE
  8
DEFAULT_2
 62
8
  6
HIDDEN
 10
212.8761504481
 20
317.5375094869
 11
212.7539158303
 21
317.0198299675
  0
LINE
  8
DEFAULT_2
 62
8
  6
HIDDEN
 10
212.5094465265
 20
315.9844706386
 11
211.7271449046
 21
312.6713214243
  0
LINE
  8
DEFAULT_2
 62
8
  6
HIDDEN
 10
212.5393693797
 20
312.4840904558
 11
213.0515447052
 21
314.4394000843
  0
LINE
  8
DEFAULT_2
 62
8
  6
HIDDEN
 10
213.5553797649
 20
314.3074251367
 11
213.0432044393
 21
312.3521155083
  0
LINE
  8
DEFAULT_2
 62
8
  6
HIDDEN
 10
214.8570113461
 20
311.8770055157
 11
215.4770130401
 21
314.2439592158
  0
LINE
  8
DEFAULT_2
 62
8
  6
HIDDEN
 10
215.5848394085
 20
314.6556032874
 11
215.719622369
 21
315.1701583769
  0
LINE
  8
DEFAULT_2
 62
8
  6
HIDDEN
 10
216.223457717
 20
315.0381833538
 11
215.3608466941
 21
311.7450304927
  0
LINE
  8
DEFAULT_2
 62
8
  6
HIDDEN
 10
216.5485375092
 20
312.0729826309
 11
217.3497817401
 21
314.7203450338
  0
LINE
  8
DEFAULT_2
 62
8
  6
HIDDEN
 10
217.8482835889
 20
314.5694696833
 11
217.1703077128
 21
312.3293938423
  0
LINE
  8
DEFAULT_2
 62
8
  6
HIDDEN
 10
219.2259488109
 20
311.929535826
 11
219.8422905203
 21
313.9659684217
  0
LINE
  8
0
 62
2
  6
CONTINUOUS
 10
188.8357458372
 20
210.5673237634
 11
185.8657458372
 21
210.5673237634
  0
LINE
  8
DEFAULT_1
 62
2
  6
CENTER
 10
179.9257458372
 20
210.5673237634
 11
71.3775713923
 21
210.5673237634
  0
LINE
  8
DEFAULT_1
 62
2
  6
CENTER
 10
194.7757458372
 20
210.5673237634
 11
303.3239202821
 21
210.5673237634
  0
LINE
  8
DEFAULT_2
 62
8
  6
HIDDEN
 10
153.5772112661
 20
311.4360270413
 11
153.4172442314
 21
311.9433179765
  0
LINE
  8
DEFAULT_2
 62
8
  6
HIDDEN
 10
153.9459614842
 20
311.9984945166
 11
154.0419416781
 21
311.6941200408
  0
LINE
  8
DEFAULT_2
 62
8
  6
HIDDEN
 10
156.5255516328
 20
312.4772913772
 11
156.4295714389
 21
312.781665853
  0
LINE
  8
DEFAULT_2
 62
8
  6
HIDDEN
 10
156.272971701
 20
313.6246590927
 11
156.208984905
 21
313.8275754099
  0
LINE
  8
DEFAULT_2
 62
8
  6
HIDDEN
 10
162.4855429823
 20
316.0713644111
 11
162.3953068752
 21
316.4872190324
  0
LINE
  8
DEFAULT_2
 62
8
  6
HIDDEN
 10
163.0060929952
 20
316.6197532377
 11
163.0737700914
 21
316.307862199
  0
LINE
  8
DEFAULT_2
 62
8
  6
HIDDEN
 10
166.3631581306
 20
313.4292892037
 11
165.8894188367
 21
315.6125247275
  0
LINE
  8
DEFAULT_2
 62
8
  6
HIDDEN
 10
165.7540647707
 20
316.2363062225
 11
165.4156795427
 21
317.7957602513
  0
LINE
  8
DEFAULT_2
 62
8
  6
HIDDEN
 10
172.4806171779
 20
316.5399969596
 11
172.3642049552
 21
317.4903402487
  0
LINE
  8
DEFAULT_2
 62
8
  6
HIDDEN
 10
172.8941104362
 20
317.448072844
 11
172.9846532761
 21
316.7089169526
  0
LINE
  8
DEFAULT_2
 62
8
  6
HIDDEN
 10
175.6728900226
 20
317.0382122906
 11
175.5823471828
 21
317.7773681821
  0
LINE
  8
DEFAULT_2
 62
8
  6
HIDDEN
 10
180.9752113806
 20
315.8962944201
 11
181.0167783961
 21
315.3660061503
  0
LINE
  8
DEFAULT_2
 62
8
  6
HIDDEN
 10
185.8507724261
 20
320.5500017255
 11
185.8680987017
 21
320.0183691581
  0
LINE
  8
DEFAULT_2
 62
8
  6
HIDDEN
 10
185.9859173928
 20
316.4032671782
 11
186.0136394361
 21
315.5526549958
  0
LINE
  8
DEFAULT_2
 62
8
  6
HIDDEN
 10
195.9998073255
 20
320.216794715
 11
195.6940242957
 21
315.2261538004
  0
LINE
  8
DEFAULT_2
 62
8
  6
HIDDEN
 10
200.9162451499
 20
318.0043879169
 11
200.7460777727
 21
316.417742393
  0
LINE
  8
DEFAULT_2
 62
8
  6
HIDDEN
 10
220.3407922621
 20
313.8150931036
 11
219.7244505527
 21
311.7786605079
  0
LINE
  8
DEFAULT_2
 62
8
  6
HIDDEN
 10
156.7057041674
 20
313.9842088168
 11
156.9296579532
 21
313.2740017065
  0
LINE
  8
DEFAULT_2
 62
8
  6
HIDDEN
 10
165.9136706078
 20
318.4481123692
 11
166.9739442506
 21
313.561823409
  0
LINE
  8
DEFAULT_2
 62
8
  6
HIDDEN
 10
176.086383281
 20
317.946288175
 11
176.2027955036
 21
316.995944886
  0
LINE
  8
DEFAULT_2
 62
8
  6
HIDDEN
 10
196.7082144821
 20
315.8878647795
 11
196.6613658276
 21
316.4278546245
  0
LINE
  8
DEFAULT_2
 62
8
  6
HIDDEN
 10
200.8693953339
 20
318.5443781113
 11
200.9162451499
 21
318.0043879169
  0
LINE
  8
0
 62
7
  6
CONTINUOUS
 10
235.4641167297
 20
326.6856038885
 11
236.5481165995
 21
332.262299772
  0
LINE
  8
0
 62
7
  6
CONTINUOUS
 10
268.9918026617
 20
306.1345214749
 11
271.746041602
 21
311.1033000526
  0
LINE
  8
0
 62
7
  6
CONTINUOUS
 10
294.527893125
 20
276.2286558935
 11
298.6827670384
 21
280.1031384987
  0
LINE
  8
0
 62
7
  6
CONTINUOUS
 10
309.5727376647
 20
239.8954016338
 11
314.7215385438
 21
242.296326914
  0
LINE
  8
0
 62
7
  6
CONTINUOUS
 10
62.0478496008
 20
220.4433367554
 11
56.4091222597
 21
219.7509880948
  0
LINE
  8
0
 62
7
  6
CONTINUOUS
 10
71.2324657121
 20
258.6806946559
 11
65.6557698286
 21
259.7646945257
  0
LINE
  8
0
 62
7
  6
CONTINUOUS
 10
91.7835481257
 20
292.2083805879
 11
86.814769548
 21
294.9626195282
  0
LINE
  8
0
 62
7
  6
CONTINUOUS
 10
121.6894137071
 20
317.7444710512
 11
117.8149311019
 21
321.8993449646
  0
LINE
  8
DEFAULT_2
 62
8
  6
HIDDEN
 10
156.208984905
 20
313.8275754099
 11
155.9176770266
 21
314.4049965331
  0
LINE
  8
DEFAULT_2
 62
8
  6
HIDDEN
 10
156.3824074387
 20
314.6630895326
 11
156.7057041674
 21
313.9842088168
  0
LINE
  8
0
 62
7
  6
CONTINUOUS
 10
158.0226679668
 20
332.7893155909
 11
155.6217426866
 21
337.93811647
  0
LINE
  8
DEFAULT_2
 62
8
  6
HIDDEN
 10
177.1326930007
 20
318.262828437
 11
176.9955928603
 21
318.6789189106
  0
LINE
  8
DEFAULT_2
 62
8
  6
HIDDEN
 10
172.6486829177
 20
316.0246933447
 11
172.4806171779
 21
316.5399969596
  0
LINE
  8
DEFAULT_2
 62
8
  6
HIDDEN
 10
175.9183175592
 20
318.461591642
 11
176.086383281
 21
317.946288175
  0
LINE
  8
DEFAULT_2
 62
8
  6
HIDDEN
 10
172.9846532761
 20
316.7089169526
 11
173.1656537073
 21
316.0880196389
  0
LINE
  8
DEFAULT_2
 62
8
  6
HIDDEN
 10
175.5823471828
 20
317.7773681821
 11
175.4013467696
 21
318.3982653479
  0
LINE
  8
0
 62
7
  6
CONTINUOUS
 10
197.2267588292
 20
335.8702199998
 11
196.5344101686
 21
341.5089473408
  0
LINE
  8
DEFAULT_2
 62
8
  6
HIDDEN
 10
153.9358687118
 20
310.9913904003
 11
153.5772112661
 21
311.4360270413
  0
LINE
  8
DEFAULT_2
 62
8
  6
HIDDEN
 10
154.0419416781
 20
311.6941200408
 11
154.2372648149
 21
311.4210719595
  0
LINE
  8
DEFAULT_2
 62
8
  6
HIDDEN
 10
156.4295714389
 20
312.781665853
 11
156.2342482573
 21
313.0547140764
  0
LINE
  8
DEFAULT_2
 62
8
  6
HIDDEN
 10
155.9176770266
 20
314.4049965331
 11
155.7223538002
 21
314.6780448986
  0
LINE
  8
DEFAULT_2
 62
8
  6
HIDDEN
 10
159.5006189887
 20
316.9564357241
 11
162.39587648
 21
312.5524311216
  0
LINE
  8
DEFAULT_2
 62
8
  6
HIDDEN
 10
161.7918537947
 20
312.3918646383
 11
161.0612079584
 21
313.5185691851
  0
LINE
  8
DEFAULT_2
 62
8
  6
HIDDEN
 10
160.851217199
 20
313.9030579518
 11
159.2072605825
 21
316.4381423713
  0
LINE
  8
DEFAULT_2
 62
8
  6
HIDDEN
 10
162.6550161486
 20
315.7815623608
 11
162.4855429823
 21
316.0713644111
  0
LINE
  8
DEFAULT_2
 62
8
  6
HIDDEN
 10
163.0737700914
 20
316.307862199
 11
163.2432432577
 21
316.0180601486
  0
LINE
  8
DEFAULT_2
 62
8
  6
HIDDEN
 10
172.7908839897
 20
315.7205778551
 11
172.6486829177
 21
316.0246933447
  0
LINE
  8
DEFAULT_2
 62
8
  6
HIDDEN
 10
175.7761164511
 20
318.7657074275
 11
175.9183175592
 21
318.461591642
  0
LINE
  8
DEFAULT_2
 62
8
  6
HIDDEN
 10
180.4765468303
 20
319.5920319567
 11
180.6136493476
 21
319.1759416694
  0
LINE
  8
DEFAULT_2
 62
8
  6
HIDDEN
 10
192.0030917834
 20
316.3049618398
 11
191.9186397521
 21
316.6298838065
  0
LINE
  8
DEFAULT_2
 62
8
  6
HIDDEN
 10
192.5489758876
 20
316.6978447644
 11
192.6334279234
 21
316.3729228721
  0
LINE
  8
DEFAULT_2
 62
8
  6
HIDDEN
 10
192.1397182409
 20
318.5348226313
 11
192.0552662051
 21
318.8597445236
  0
LINE
  8
DEFAULT_2
 62
8
  6
HIDDEN
 10
192.6856023405
 20
318.9277054815
 11
192.7700543764
 21
318.6027835892
  0
LINE
  8
DEFAULT_2
 62
8
  6
HIDDEN
 10
197.2828020072
 20
316.3612057334
 11
197.3523396512
 21
316.0327686792
  0
LINE
  8
DEFAULT_2
 62
8
  6
HIDDEN
 10
204.628928214
 20
319.1755054189
 11
205.5090326039
 21
313.979045786
  0
LINE
  8
DEFAULT_2
 62
8
  6
HIDDEN
 10
204.891426959
 20
314.0749012365
 11
204.6754801108
 21
315.4002971872
  0
LINE
  8
DEFAULT_2
 62
8
  6
HIDDEN
 10
204.637809507
 20
315.8367704449
 11
204.1519282324
 21
318.8189115814
  0
LINE
  8
DEFAULT_2
 62
8
  6
HIDDEN
 10
200.2948089703
 20
318.071036808
 11
200.2366146318
 21
318.5052503477
  0
LINE
  8
DEFAULT_2
 62
8
  6
HIDDEN
 10
156.0237499257
 20
315.1077263867
 11
156.3824074387
 21
314.6630895326
  0
LINE
  8
DEFAULT_2
 62
8
  6
HIDDEN
 10
173.0494072938
 20
315.3235330399
 11
172.7908839897
 21
315.7205778551
  0
LINE
  8
DEFAULT_2
 62
8
  6
HIDDEN
 10
175.517593156
 20
319.1627521687
 11
175.7761164511
 21
318.7657074275
  0
LINE
  8
DEFAULT_2
 62
8
  6
HIDDEN
 10
177.6186815643
 20
318.7277601527
 11
177.8596282374
 21
318.3198097619
  0
LINE
  8
DEFAULT_2
 62
8
  6
HIDDEN
 10
200.7076275086
 20
318.9896998843
 11
200.8693953339
 21
318.5443781113
  0
LINE
  8
0
 62
7
  6
CONTINUOUS
 10
194.6038690474
 20
131.344810005
 11
266.8175131761
 21
206.8461181505
  0
LINE
  8
DEFAULT_2
 62
8
  6
HIDDEN
 10
154.3618756914
 20
310.679538348
 11
153.9358687118
 21
310.9913904003
  0
LINE
  8
DEFAULT_2
 62
8
  6
HIDDEN
 10
154.2372648149
 20
311.4210719595
 11
154.5319354648
 21
311.1793516357
  0
LINE
  8
DEFAULT_2
 62
8
  6
HIDDEN
 10
155.7223538002
 20
314.6780448986
 11
155.4276831727
 21
314.9197651513
  0
LINE
  8
DEFAULT_2
 62
8
  6
HIDDEN
 10
163.0506452526
 20
315.4319751334
 11
162.6550161486
 21
315.7815623608
  0
LINE
  8
0
 62
7
  6
CONTINUOUS
 10
266.5732595956
 20
217.8204469736
 11
191.0719514501
 21
290.0340911023
  0
LINE
  8
DEFAULT_2
 62
8
  6
HIDDEN
 10
173.1656537073
 20
316.0880196389
 11
173.6568356567
 21
315.5051180597
  0
LINE
  8
DEFAULT_2
 62
8
  6
HIDDEN
 10
175.4013467696
 20
318.3982653479
 11
174.9101647931
 21
318.9811671489
  0
LINE
  8
DEFAULT_2
 62
8
  6
HIDDEN
 10
177.3653310257
 20
317.9609360579
 11
177.1326930007
 21
318.262828437
  0
LINE
  8
DEFAULT_2
 62
8
  6
HIDDEN
 10
180.0944071763
 20
319.1352405101
 11
179.8617715282
 21
319.4371330755
  0
LINE
  8
DEFAULT_2
 62
8
  6
HIDDEN
 10
192.2889827538
 20
315.8611150169
 11
192.0030917834
 21
316.3049618398
  0
LINE
  8
DEFAULT_2
 62
8
  6
HIDDEN
 10
192.4256092135
 20
318.0909758456
 11
192.1397182409
 21
318.5348226313
  0
LINE
  8
DEFAULT_2
 62
8
  6
HIDDEN
 10
200.2366146318
 20
318.5052503477
 11
200.0635035328
 21
318.8447959315
  0
LINE
  8
DEFAULT_2
 62
8
  6
HIDDEN
 10
217.1703077128
 20
312.3293938423
 11
217.2772570952
 21
311.9635787888
  0
LINE
  8
DEFAULT_2
 62
8
  6
HIDDEN
 10
156.2342482573
 20
313.0547140764
 11
155.9715710278
 21
313.1949761705
  0
LINE
  8
DEFAULT_2
 62
8
  6
HIDDEN
 10
163.2432432577
 20
316.0180601486
 11
163.4919582063
 21
315.8543113891
  0
LINE
  8
DEFAULT_2
 62
8
  6
HIDDEN
 10
155.5977429574
 20
315.4195784035
 11
156.0237499257
 21
315.1077263867
  0
LINE
  8
DEFAULT_2
 62
8
  6
HIDDEN
 10
173.3983928997
 20
315.0447475671
 11
173.0494072938
 21
315.3235330399
  0
LINE
  8
DEFAULT_2
 62
8
  6
HIDDEN
 10
185.3681795618
 20
316.1702557749
 11
181.7105751925
 21
319.6699936745
  0
LINE
  8
DEFAULT_2
 62
8
  6
HIDDEN
 10
192.6334279234
 20
316.3729228721
 11
192.8283608345
 21
316.1478140677
  0
LINE
  8
DEFAULT_2
 62
8
  6
HIDDEN
 10
192.7700543764
 20
318.6027835892
 11
192.964987292
 21
318.3776748592
  0
LINE
  8
DEFAULT_2
 62
8
  6
HIDDEN
 10
197.0771280918
 20
315.4203266301
 11
196.7082144821
 21
315.8878647795
  0
LINE
  8
DEFAULT_2
 62
8
  6
HIDDEN
 10
215.4770130401
 20
314.2439592158
 11
215.3293920274
 21
314.502571276
  0
LINE
  8
DEFAULT_2
 62
8
  6
HIDDEN
 10
215.4372183959
 20
314.9142153476
 11
215.5848394085
 21
314.6556032874
  0
LINE
  8
DEFAULT_2
 62
8
  6
HIDDEN
 10
217.2228719181
 20
311.4242955864
 11
217.0162222746
 21
311.8202856577
  0
LINE
  8
DEFAULT_2
 62
8
  6
HIDDEN
 10
154.5319354648
 20
311.1793516357
 11
154.8939556372
 21
311.0704159362
  0
LINE
  8
DEFAULT_2
 62
8
  6
HIDDEN
 10
163.5255161389
 20
315.2084411969
 11
163.0506452526
 21
315.4319751334
  0
LINE
  8
DEFAULT_2
 62
8
  6
HIDDEN
 10
173.6568356567
 20
315.5051180597
 11
173.9928865666
 21
315.3319263227
  0
LINE
  8
DEFAULT_2
 62
8
  6
HIDDEN
 10
180.1444272342
 20
315.831172826
 11
177.3653310257
 21
317.9609360579
  0
LINE
  8
DEFAULT_2
 62
8
  6
HIDDEN
 10
177.8596282374
 20
318.3198097619
 11
180.9752113806
 21
315.8962944201
  0
LINE
  8
DEFAULT_2
 62
8
  6
HIDDEN
 10
175.1686075546
 20
319.4415376046
 11
175.517593156
 21
319.1627521687
  0
LINE
  8
DEFAULT_2
 62
8
  6
HIDDEN
 10
197.3523396512
 20
316.0327686792
 11
197.6403687515
 21
315.7878914428
  0
LINE
  8
DEFAULT_2
 62
8
  6
HIDDEN
 10
192.6853522248
 20
315.5170815115
 11
192.2889827538
 21
315.8611150169
  0
LINE
  8
DEFAULT_2
 62
8
  6
HIDDEN
 10
180.0278999609
 20
319.9837016229
 11
180.4765468303
 21
319.5920319567
  0
LINE
  8
DEFAULT_2
 62
8
  6
HIDDEN
 10
182.2242008389
 20
319.8996119892
 11
185.9859173928
 21
316.4032671782
  0
LINE
  8
DEFAULT_2
 62
8
  6
HIDDEN
 10
217.2772570952
 20
311.9635787888
 11
217.5147239808
 21
311.6694103504
  0
LINE
  8
DEFAULT_2
 62
8
  6
HIDDEN
 10
200.3387150803
 20
319.4572378695
 11
200.7076275086
 21
318.9896998843
  0
LINE
  8
DEFAULT_2
 62
8
  6
HIDDEN
 10
214.2748675614
 20
314.9987383324
 11
214.0463770607
 21
314.9486172633
  0
LINE
  8
DEFAULT_2
 62
8
  6
HIDDEN
 10
218.281509645
 20
311.3261881918
 11
218.7419452016
 21
311.4091312226
  0
LINE
  8
DEFAULT_2
 62
8
  6
HIDDEN
 10
154.8939556372
 20
311.0704159362
 11
155.2239824116
 21
311.0629383953
  0
LINE
  8
DEFAULT_2
 62
8
  6
HIDDEN
 10
154.9545797037
 20
310.5317986864
 11
154.3618756914
 21
310.679538348
  0
LINE
  8
DEFAULT_2
 62
8
  6
HIDDEN
 10
155.0050435011
 20
315.5673194725
 11
155.5977429574
 21
315.4195784035
  0
LINE
  8
DEFAULT_2
 62
8
  6
HIDDEN
 10
155.9715710278
 20
313.1949761705
 11
155.6095508554
 21
313.30391187
  0
LINE
  8
DEFAULT_2
 62
8
  6
HIDDEN
 10
155.5489313561
 20
313.8425304917
 11
156.272971701
 21
313.6246590927
  0
LINE
  8
DEFAULT_2
 62
8
  6
HIDDEN
 10
155.4276831727
 20
314.9197651513
 11
155.0656630003
 21
315.0287008508
  0
LINE
  8
DEFAULT_2
 62
8
  6
HIDDEN
 10
192.8283608345
 20
316.1478140677
 11
193.1337698706
 21
316.0225187918
  0
LINE
  8
DEFAULT_2
 62
8
  6
HIDDEN
 10
179.5958822724
 20
320.1632561973
 11
180.0278999609
 21
319.9837016229
  0
LINE
  8
DEFAULT_2
 62
8
  6
HIDDEN
 10
173.9541677669
 20
314.7912927371
 11
173.3983928997
 21
315.0447475671
  0
LINE
  8
DEFAULT_2
 62
8
  6
HIDDEN
 10
174.6128326909
 20
319.6949924068
 11
175.1686075546
 21
319.4415376046
  0
LINE
  8
DEFAULT_2
 62
8
  6
HIDDEN
 10
174.9101647931
 20
318.9811671489
 11
174.5741138832
 21
319.1543588859
  0
LINE
  8
DEFAULT_2
 62
8
  6
HIDDEN
 10
179.8617715282
 20
319.4371330755
 11
179.5336003723
 21
319.6248277327
  0
LINE
  8
DEFAULT_2
 62
8
  6
HIDDEN
 10
192.6270481503
 20
317.9720509522
 11
192.4256092135
 21
318.0909758456
  0
LINE
  8
DEFAULT_2
 62
8
  6
HIDDEN
 10
197.4687306839
 20
315.1643412067
 11
197.0771280918
 21
315.4203266301
  0
LINE
  8
DEFAULT_2
 62
8
  6
HIDDEN
 10
199.9471124853
 20
319.7132232651
 11
200.3387150803
 21
319.4572378695
  0
LINE
  8
DEFAULT_2
 62
8
  6
HIDDEN
 10
200.0635035328
 20
318.8447959315
 11
199.7754744245
 21
319.0896730938
  0
LINE
  8
DEFAULT_2
 62
8
  6
HIDDEN
 10
217.3914556286
 20
311.2621237974
 11
217.2228719181
 21
311.4242955864
  0
LINE
  8
DEFAULT_2
 62
8
  6
HIDDEN
 10
215.3293920274
 20
314.502571276
 11
215.0810043488
 21
314.787578235
  0
LINE
  8
DEFAULT_2
 62
8
  6
HIDDEN
 10
215.1888307172
 20
315.1992223066
 11
215.4372183959
 21
314.9142153476
  0
LINE
  8
DEFAULT_2
 62
8
  6
HIDDEN
 10
193.2313602012
 20
317.6152765637
 11
192.9129391229
 21
317.5282041665
  0
LINE
  8
DEFAULT_2
 62
8
  6
HIDDEN
 10
193.3614806422
 20
319.738953593
 11
193.0430595639
 21
319.6518811957
  0
LINE
  8
DEFAULT_2
 62
8
  6
HIDDEN
 10
162.39587648
 20
312.5524311216
 11
161.7918537947
 21
312.3918646383
  0
LINE
  8
DEFAULT_2
 62
8
  6
HIDDEN
 10
158.9730827991
 20
311.6425547912
 11
158.3690601137
 21
311.4819883079
  0
LINE
  8
DEFAULT_2
 62
8
  6
HIDDEN
 10
161.0612079584
 20
313.5185691851
 11
159.0477974711
 21
312.9833471657
  0
LINE
  8
DEFAULT_2
 62
8
  6
HIDDEN
 10
159.0391491429
 20
313.4213585019
 11
160.851217199
 21
313.9030579518
  0
LINE
  8
DEFAULT_2
 62
8
  6
HIDDEN
 10
158.6952538721
 20
316.7423466713
 11
159.5006189887
 21
316.9564357241
  0
LINE
  8
DEFAULT_2
 62
8
  6
HIDDEN
 10
177.8304650699
 20
320.0248727401
 11
178.445240372
 21
320.1797716213
  0
LINE
  8
DEFAULT_2
 62
8
  6
HIDDEN
 10
166.9739442506
 20
313.561823409
 11
166.3631581306
 21
313.4292892037
  0
LINE
  8
DEFAULT_2
 62
8
  6
HIDDEN
 10
165.8894188367
 20
315.6125247275
 11
164.0570604766
 21
315.2149221114
  0
LINE
  8
DEFAULT_2
 62
8
  6
HIDDEN
 10
163.8199102773
 20
315.8166149093
 11
165.7540647707
 21
316.2363062225
  0
LINE
  8
DEFAULT_2
 62
8
  6
HIDDEN
 10
165.4156795427
 20
317.7957602513
 11
163.4815250493
 21
317.3760689381
  0
LINE
  8
DEFAULT_2
 62
8
  6
HIDDEN
 10
163.4705261277
 20
317.9179755478
 11
165.9136706078
 21
318.4481123692
  0
LINE
  8
DEFAULT_2
 62
8
  6
HIDDEN
 10
198.9754701068
 20
315.537709069
 11
199.4011061741
 21
315.5990527485
  0
LINE
  8
DEFAULT_2
 62
8
  6
HIDDEN
 10
198.4403730693
 20
319.3398554677
 11
198.0147370019
 21
319.2785117881
  0
LINE
  8
DEFAULT_2
 62
8
  6
HIDDEN
 10
192.9781232117
 20
320.2953547437
 11
193.5044868682
 21
320.3696862299
  0
LINE
  8
DEFAULT_2
 62
8
  6
HIDDEN
 10
155.4832923668
 20
310.5869739258
 11
154.9545797037
 21
310.5317986864
  0
LINE
  8
DEFAULT_2
 62
8
  6
HIDDEN
 10
155.0202141482
 20
313.7873538094
 11
155.5489313561
 21
313.8425304917
  0
LINE
  8
DEFAULT_2
 62
8
  6
HIDDEN
 10
154.4763262931
 20
315.5121427902
 11
155.0050435011
 21
315.5673194725
  0
LINE
  8
DEFAULT_2
 62
8
  6
HIDDEN
 10
199.4366103389
 20
314.9532865544
 11
198.9074031543
 21
314.9030508446
  0
LINE
  8
DEFAULT_2
 62
8
  6
HIDDEN
 10
197.9792328303
 20
319.9242779175
 11
198.5084400138
 21
319.974513618
  0
LINE
  8
DEFAULT_2
 62
8
  6
HIDDEN
 10
181.0167783961
 20
315.3660061503
 11
177.2782485489
 21
315.0729588839
  0
LINE
  8
DEFAULT_2
 62
8
  6
HIDDEN
 10
177.2366815334
 20
315.6032471537
 11
180.1444272342
 21
315.831172826
  0
LINE
  8
DEFAULT_2
 62
8
  6
HIDDEN
 10
180.6136493476
 20
319.1759416694
 11
180.0944071763
 21
319.1352405101
  0
LINE
  8
DEFAULT_2
 62
8
  6
HIDDEN
 10
179.0060447991
 20
319.6901842125
 11
178.5906539144
 21
319.6576235086
  0
LINE
  8
DEFAULT_2
 62
8
  6
HIDDEN
 10
178.445240372
 20
320.1797716213
 11
178.8606312568
 21
320.2123323252
  0
LINE
  8
DEFAULT_2
 62
8
  6
HIDDEN
 10
214.0803927787
 20
315.4895674027
 11
214.4096505219
 21
315.5132934219
  0
LINE
  8
DEFAULT_2
 62
8
  6
HIDDEN
 10
186.0136394361
 20
315.5526549958
 11
181.8491854167
 21
315.4169325392
  0
LINE
  8
DEFAULT_2
 62
8
  6
HIDDEN
 10
181.8283938835
 20
316.0548916946
 11
185.3681795618
 21
316.1702557749
  0
LINE
  8
DEFAULT_2
 62
8
  6
HIDDEN
 10
185.8680987017
 20
320.0183691581
 11
182.2242008389
 21
319.8996119892
  0
LINE
  8
DEFAULT_2
 62
8
  6
HIDDEN
 10
181.6863184066
 20
320.4142792689
 11
185.8507724261
 21
320.5500017255
  0
LINE
  8
DEFAULT_2
 62
8
  6
HIDDEN
 10
164.0570604766
 20
315.2149221114
 11
163.5255161389
 21
315.2084411969
  0
LINE
  8
DEFAULT_2
 62
8
  6
HIDDEN
 10
214.7048925472
 20
314.9960693016
 11
214.2748675614
 21
314.9987383324
  0
LINE
  8
DEFAULT_2
 62
8
  6
HIDDEN
 10
155.6095508554
 20
313.30391187
 11
155.279524081
 21
313.3113894109
  0
LINE
  8
DEFAULT_2
 62
8
  6
HIDDEN
 10
155.0656630003
 20
315.0287008508
 11
154.7356362259
 21
315.0361783917
  0
LINE
  8
DEFAULT_2
 62
8
  6
HIDDEN
 10
218.5878597661
 20
310.9000230469
 11
218.1582413009
 21
310.9189016655
  0
LINE
  8
DEFAULT_2
 62
8
  6
HIDDEN
 10
174.5874655137
 20
314.7616903502
 11
173.9541677669
 21
314.7912927371
  0
LINE
  8
DEFAULT_2
 62
8
  6
HIDDEN
 10
173.9795349452
 20
319.7245947845
 11
174.6128326909
 21
319.6949924068
  0
LINE
  8
DEFAULT_2
 62
8
  6
HIDDEN
 10
195.6940242957
 20
315.2261538004
 11
193.1987038384
 21
315.3790453153
  0
LINE
  8
DEFAULT_2
 62
8
  6
HIDDEN
 10
193.1337698706
 20
316.0225187918
 11
195.1092303128
 21
315.901479773
  0
LINE
  8
DEFAULT_2
 62
8
  6
HIDDEN
 10
195.2068206435
 20
317.494237545
 11
193.2313602012
 21
317.6152765637
  0
LINE
  8
DEFAULT_2
 62
8
  6
HIDDEN
 10
193.2703963281
 20
318.2523795832
 11
195.2458567703
 21
318.1313405645
  0
LINE
  8
DEFAULT_2
 62
8
  6
HIDDEN
 10
195.3369410844
 20
319.6179145742
 11
193.3614806422
 21
319.738953593
  0
LINE
  8
DEFAULT_2
 62
8
  6
HIDDEN
 10
193.5044868682
 20
320.3696862299
 11
195.9998073255
 21
320.216794715
  0
LINE
  8
DEFAULT_2
 62
8
  6
HIDDEN
 10
178.8606312568
 20
320.2123323252
 11
179.5958822724
 21
320.1632561973
  0
LINE
  8
DEFAULT_2
 62
8
  6
HIDDEN
 10
173.9928865666
 20
315.3319263227
 11
174.5227920476
 21
315.289658918
  0
LINE
  8
DEFAULT_2
 62
8
  6
HIDDEN
 10
174.5741138832
 20
319.1543588859
 11
174.0442084022
 21
319.1966262906
  0
LINE
  8
DEFAULT_2
 62
8
  6
HIDDEN
 10
198.9074031543
 20
314.9030508446
 11
197.9752488849
 21
315.0030241812
  0
LINE
  8
DEFAULT_2
 62
8
  6
HIDDEN
 10
198.0433158374
 20
315.6376824056
 11
198.9754701068
 21
315.537709069
  0
LINE
  8
DEFAULT_2
 62
8
  6
HIDDEN
 10
196.6613658276
 20
316.4278546245
 11
197.2828020072
 21
316.3612057334
  0
LINE
  8
DEFAULT_2
 62
8
  6
HIDDEN
 10
197.5437253104
 20
318.7940621244
 11
196.9222891308
 21
318.8607110156
  0
LINE
  8
DEFAULT_2
 62
8
  6
HIDDEN
 10
199.3725273387
 20
319.239882131
 11
198.4403730693
 21
319.3398554677
  0
LINE
  8
DEFAULT_2
 62
8
  6
HIDDEN
 10
198.5084400138
 20
319.974513618
 11
199.4405942832
 21
319.8745402813
  0
LINE
  8
DEFAULT_2
 62
8
  6
HIDDEN
 10
163.4919582063
 20
315.8543113891
 11
163.8199102773
 21
315.8166149093
  0
LINE
  8
DEFAULT_2
 62
8
  6
HIDDEN
 10
179.5336003723
 20
319.6248277327
 11
179.0060447991
 21
319.6901842125
  0
LINE
  8
DEFAULT_2
 62
8
  6
HIDDEN
 10
205.5090326039
 20
313.979045786
 11
204.891426959
 21
314.0749012365
  0
LINE
  8
DEFAULT_2
 62
8
  6
HIDDEN
 10
202.0092676754
 20
314.5222266112
 11
201.3916620305
 21
314.6180820616
  0
LINE
  8
DEFAULT_2
 62
8
  6
HIDDEN
 10
204.6754801108
 20
315.4002971872
 11
202.6167942352
 21
315.7198154164
  0
LINE
  8
DEFAULT_2
 62
8
  6
HIDDEN
 10
202.7849925723
 20
316.1243367963
 11
204.637809507
 21
315.8367704449
  0
LINE
  8
DEFAULT_2
 62
8
  6
HIDDEN
 10
203.8054536281
 20
319.3033127472
 11
204.628928214
 21
319.1755054189
  0
LINE
  8
DEFAULT_2
 62
8
  6
HIDDEN
 10
211.7271449046
 20
312.6713214243
 11
211.2202505082
 21
312.791009456
  0
LINE
  8
DEFAULT_2
 62
8
  6
HIDDEN
 10
212.00255213
 20
316.1041586704
 11
212.5094465265
 21
315.9844706386
  0
LINE
  8
DEFAULT_2
 62
8
  6
HIDDEN
 10
212.7539158303
 20
317.0198299675
 11
212.2470214339
 21
317.1395179993
  0
LINE
  8
DEFAULT_2
 62
8
  6
HIDDEN
 10
212.3692560516
 20
317.6571975187
 11
212.8761504481
 21
317.5375094869
  0
LINE
  8
DEFAULT_2
 62
8
  6
HIDDEN
 10
215.3608466941
 20
311.7450304927
 11
214.8570113461
 21
311.8770055157
  0
LINE
  8
DEFAULT_2
 62
8
  6
HIDDEN
 10
213.0432044393
 20
312.3521155083
 11
212.5393693797
 21
312.4840904558
  0
LINE
  8
DEFAULT_2
 62
8
  6
HIDDEN
 10
214.4096505219
 20
315.5132934219
 11
214.8127189156
 21
315.4077133732
  0
LINE
  8
DEFAULT_2
 62
8
  6
HIDDEN
 10
215.719622369
 20
315.1701583769
 11
216.223457717
 21
315.0381833538
  0
LINE
  8
DEFAULT_2
 62
8
  6
HIDDEN
 10
193.1987038384
 20
315.3790453153
 11
192.6853522248
 21
315.5170815115
  0
LINE
  8
DEFAULT_2
 62
8
  6
HIDDEN
 10
218.1582413009
 20
310.9189016655
 11
217.7594398505
 21
311.0396019373
  0
LINE
  8
DEFAULT_2
 62
8
  6
HIDDEN
 10
216.6627360399
 20
311.3715276306
 11
216.1642341912
 21
311.5224029811
  0
LINE
  8
DEFAULT_2
 62
8
  6
HIDDEN
 10
217.8827081945
 20
311.4468884635
 11
218.281509645
 21
311.3261881918
  0
LINE
  8
DEFAULT_2
 62
8
  6
HIDDEN
 10
217.3497817401
 20
314.7203450338
 11
217.8482835889
 21
314.5694696833
  0
LINE
  8
DEFAULT_2
 62
8
  6
HIDDEN
 10
219.8422905203
 20
313.9659684217
 11
220.3407922621
 21
313.8150931036
  0
LINE
  8
DEFAULT_2
 62
8
  6
HIDDEN
 10
197.9752488849
 20
315.0030241812
 11
197.4687306839
 21
315.1643412067
  0
LINE
  8
DEFAULT_2
 62
8
  6
HIDDEN
 10
199.4405942832
 20
319.8745402813
 11
199.9471124853
 21
319.7132232651
  0
LINE
  8
DEFAULT_2
 62
8
  6
HIDDEN
 10
197.6403687515
 20
315.7878914428
 11
198.0433158374
 21
315.6376824056
  0
LINE
  8
DEFAULT_2
 62
8
  6
HIDDEN
 10
199.7754744245
 20
319.0896730938
 11
199.3725273387
 21
319.239882131
  0
LINE
  8
DEFAULT_2
 62
8
  6
HIDDEN
 10
192.964987292
 20
318.3776748592
 11
193.2703963281
 21
318.2523795832
  0
LINE
  8
DEFAULT_2
 62
8
  6
HIDDEN
 10
215.0810043488
 20
314.787578235
 11
214.7048925472
 21
314.9960693016
  0
LINE
  8
DEFAULT_2
 62
8
  6
HIDDEN
 10
214.8127189156
 20
315.4077133732
 11
215.1888307172
 21
315.1992223066
  0
LINE
  8
DEFAULT_2
 62
8
  6
HIDDEN
 10
217.7594398505
 20
311.0396019373
 11
217.3914556286
 21
311.2621237974
  0
LINE
  8
DEFAULT_2
 62
8
  6
HIDDEN
 10
217.5147239808
 20
311.6694103504
 11
217.8827081945
 21
311.4468884635
  0
LINE
  8
0
 62
7
  6
CONTINUOUS
 10
303.7989202821
 20
212.3164015602
 11
303.7989202821
 21
230.8323237634
  0
LINE
  8
0
 62
7
  6
CONTINUOUS
 10
298.6400357174
 20
176.2463307322
 11
304.3617703447
 21
193.8560191987
  0
LINE
  8
0
 62
7
  6
CONTINUOUS
 10
282.5873800611
 20
143.5358378304
 11
293.4707660647
 21
158.5155335593
  0
LINE
  8
0
 62
7
  6
CONTINUOUS
 10
257.2122990944
 20
117.3868538076
 11
272.1919948233
 21
128.2702398113
  0
LINE
  8
0
 62
7
  6
CONTINUOUS
 10
224.9986825408
 20
100.3590234106
 11
242.6083710073
 21
106.0807580379
  0
LINE
  8
0
 62
7
  6
CONTINUOUS
 10
185.6016680404
 20
327.0154982083
 11
167.0857458372
 21
327.0154982083
  0
LINE
  8
0
 62
7
  6
CONTINUOUS
 10
221.6717388684
 20
321.8566136436
 11
204.0620504019
 21
327.5783482709
  0
LINE
  8
0
 62
7
  6
CONTINUOUS
 10
254.3822317702
 20
305.8039579873
 11
239.4025360413
 21
316.687343991
  0
LINE
  8
0
 62
7
  6
CONTINUOUS
 10
280.531215793
 20
280.4288770206
 11
269.6478297893
 21
295.4085727495
  0
LINE
  8
0
 62
7
  6
CONTINUOUS
 10
297.55904619
 20
248.215260467
 11
291.8373115627
 21
265.8249489335
  0
LINE
  8
0
 62
7
  6
CONTINUOUS
 10
433.530810592
 20
78.7475695294
 11
439.980810592
 21
78.7475695294
  0
LINE
  8
0
 62
7
  6
CONTINUOUS
 10
450.280810592
 20
78.7475695294
 11
456.730810592
 21
78.7475695294
  0
LINE
  8
DEFAULT_2
 62
8
  6
HIDDEN
 10
433.530810592
 20
78.9466325963
 11
439.980810592
 21
78.9466325963
  0
LINE
  8
DEFAULT_2
 62
8
  6
HIDDEN
 10
450.280810592
 20
78.9466325963
 11
456.730810592
 21
78.9466325963
  0
LINE
  8
0
 62
9
  6
CONTINUOUS
 10
433.530810592
 20
79.625700186
 11
439.980810592
 21
79.625700186
  0
LINE
  8
0
 62
9
  6
CONTINUOUS
 10
450.280810592
 20
79.625700186
 11
456.730810592
 21
79.625700186
  0
LINE
  8
DEFAULT_2
 62
8
  6
HIDDEN
 10
433.530810592
 20
82.6191493185
 11
439.980810592
 21
82.6191493185
  0
LINE
  8
DEFAULT_2
 62
8
  6
HIDDEN
 10
450.280810592
 20
82.6191493185
 11
456.730810592
 21
82.6191493185
  0
LINE
  8
DEFAULT_2
 62
8
  6
HIDDEN
 10
433.530810592
 20
83.042436559
 11
439.980810592
 21
83.042436559
  0
LINE
  8
DEFAULT_2
 62
8
  6
HIDDEN
 10
450.280810592
 20
83.042436559
 11
456.730810592
 21
83.042436559
  0
LINE
  8
DEFAULT_2
 62
8
  6
HIDDEN
 10
433.530810592
 20
83.1965310568
 11
439.980810592
 21
83.1965310568
  0
LINE
  8
DEFAULT_2
 62
8
  6
HIDDEN
 10
450.280810592
 20
83.1965310568
 11
456.730810592
 21
83.1965310568
  0
LINE
  8
0
 62
9
  6
CONTINUOUS
 10
433.530810592
 20
85.264427527
 11
439.980810592
 21
85.264427527
  0
LINE
  8
0
 62
9
  6
CONTINUOUS
 10
450.280810592
 20
85.264427527
 11
456.730810592
 21
85.264427527
  0
LINE
  8
0
 62
7
  6
CONTINUOUS
 10
433.530810592
 20
87.6815387595
 11
439.980810592
 21
87.6815387595
  0
LINE
  8
0
 62
7
  6
CONTINUOUS
 10
450.280810592
 20
87.6815387595
 11
456.730810592
 21
87.6815387595
  0
LINE
  8
DEFAULT_2
 62
8
  6
HIDDEN
 10
433.530810592
 20
87.7347789404
 11
439.980810592
 21
87.7347789404
  0
LINE
  8
DEFAULT_2
 62
8
  6
HIDDEN
 10
450.280810592
 20
87.7347789404
 11
456.730810592
 21
87.7347789404
  0
LINE
  8
DEFAULT_2
 62
8
  6
HIDDEN
 10
433.530810592
 20
88.3453319359
 11
439.980810592
 21
88.3453319359
  0
LINE
  8
DEFAULT_2
 62
8
  6
HIDDEN
 10
450.280810592
 20
88.3453319359
 11
456.730810592
 21
88.3453319359
  0
LINE
  8
0
 62
9
  6
CONTINUOUS
 10
433.530810592
 20
88.8723477548
 11
439.980810592
 21
88.8723477548
  0
LINE
  8
0
 62
9
  6
CONTINUOUS
 10
450.280810592
 20
88.8723477548
 11
456.730810592
 21
88.8723477548
  0
LINE
  8
DEFAULT_2
 62
8
  6
HIDDEN
 10
433.530810592
 20
92.749224361
 11
439.980810592
 21
92.749224361
  0
LINE
  8
DEFAULT_2
 62
8
  6
HIDDEN
 10
450.280810592
 20
92.749224361
 11
456.730810592
 21
92.749224361
  0
LINE
  8
DEFAULT_2
 62
8
  6
HIDDEN
 10
433.530810592
 20
93.5562992559
 11
439.980810592
 21
93.5562992559
  0
LINE
  8
DEFAULT_2
 62
8
  6
HIDDEN
 10
450.280810592
 20
93.5562992559
 11
456.730810592
 21
93.5562992559
  0
LINE
  8
DEFAULT_2
 62
8
  6
HIDDEN
 10
456.730810592
 20
94.1191493185
 11
450.280810592
 21
94.1191493185
  0
LINE
  8
DEFAULT_2
 62
8
  6
HIDDEN
 10
439.980810592
 20
94.1191493185
 11
433.530810592
 21
94.1191493185
  0
LINE
  8
DEFAULT_2
 62
8
  6
HIDDEN
 10
456.730810592
 20
94.3191493185
 11
450.280810592
 21
94.3191493185
  0
LINE
  8
DEFAULT_2
 62
8
  6
HIDDEN
 10
439.980810592
 20
94.3191493185
 11
433.530810592
 21
94.3191493185
  0
LINE
  8
0
 62
9
  6
CONTINUOUS
 10
433.530810592
 20
94.4490436383
 11
439.980810592
 21
94.4490436383
  0
LINE
  8
0
 62
9
  6
CONTINUOUS
 10
450.280810592
 20
94.4490436383
 11
456.730810592
 21
94.4490436383
  0
LINE
  8
DEFAULT_2
 62
8
  6
HIDDEN
 10
433.530810592
 20
95.1191493185
 11
439.980810592
 21
95.1191493185
  0
LINE
  8
DEFAULT_2
 62
8
  6
HIDDEN
 10
450.280810592
 20
95.1191493185
 11
456.730810592
 21
95.1191493185
  0
LINE
  8
0
 62
7
  6
CONTINUOUS
 10
450.280810592
 20
96.5941493185
 11
439.980810592
 21
96.5941493185
  0
LINE
  8
0
 62
7
  6
CONTINUOUS
 10
430.530810592
 20
96.5941493185
 11
433.530810592
 21
96.5941493185
  0
LINE
  8
0
 62
7
  6
CONTINUOUS
 10
456.730810592
 20
96.5941493185
 11
459.730810592
 21
96.5941493185
  0
LINE
  8
DEFAULT_2
 62
8
  6
HIDDEN
 10
433.530810592
 20
97.8307431915
 11
439.980810592
 21
97.8307431915
  0
LINE
  8
DEFAULT_2
 62
8
  6
HIDDEN
 10
450.280810592
 20
97.8307431915
 11
456.730810592
 21
97.8307431915
  0
LINE
  8
DEFAULT_2
 62
8
  6
HIDDEN
 10
433.530810592
 20
98.9173009223
 11
439.980810592
 21
98.9173009223
  0
LINE
  8
DEFAULT_2
 62
8
  6
HIDDEN
 10
450.280810592
 20
98.9173009223
 11
456.730810592
 21
98.9173009223
  0
LINE
  8
DEFAULT_2
 62
8
  6
HIDDEN
 10
433.530810592
 20
99.2005619871
 11
439.980810592
 21
99.2005619871
  0
LINE
  8
DEFAULT_2
 62
8
  6
HIDDEN
 10
450.280810592
 20
99.2005619871
 11
456.730810592
 21
99.2005619871
  0
LINE
  8
DEFAULT_2
 62
8
  6
HIDDEN
 10
433.530810592
 20
99.2353025622
 11
439.980810592
 21
99.2353025622
  0
LINE
  8
DEFAULT_2
 62
8
  6
HIDDEN
 10
450.280810592
 20
99.2353025622
 11
456.730810592
 21
99.2353025622
  0
LINE
  8
DEFAULT_2
 62
8
  6
HIDDEN
 10
456.730810592
 20
99.2780338832
 11
450.280810592
 21
99.2780338832
  0
LINE
  8
DEFAULT_2
 62
8
  6
HIDDEN
 10
439.980810592
 20
99.2780338832
 11
433.530810592
 21
99.2780338832
  0
LINE
  8
DEFAULT_2
 62
8
  6
HIDDEN
 10
456.730810592
 20
99.5918519842
 11
450.280810592
 21
99.5918519842
  0
LINE
  8
DEFAULT_2
 62
8
  6
HIDDEN
 10
439.980810592
 20
99.5918519842
 11
433.530810592
 21
99.5918519842
  0
LINE
  8
DEFAULT_2
 62
8
  6
HIDDEN
 10
433.530810592
 20
99.6212649993
 11
439.980810592
 21
99.6212649993
  0
LINE
  8
DEFAULT_2
 62
8
  6
HIDDEN
 10
450.280810592
 20
99.6212649993
 11
456.730810592
 21
99.6212649993
  0
LINE
  8
DEFAULT_2
 62
8
  6
HIDDEN
 10
456.730810592
 20
100.3345516688
 11
450.280810592
 21
100.3345516688
  0
LINE
  8
DEFAULT_2
 62
8
  6
HIDDEN
 10
439.980810592
 20
100.3345516688
 11
433.530810592
 21
100.3345516688
  0
LINE
  8
DEFAULT_2
 62
8
  6
HIDDEN
 10
456.730810592
 20
100.3590234106
 11
450.280810592
 21
100.3590234106
  0
LINE
  8
DEFAULT_2
 62
8
  6
HIDDEN
 10
439.980810592
 20
100.3590234106
 11
433.530810592
 21
100.3590234106
  0
LINE
  8
DEFAULT_2
 62
8
  6
HIDDEN
 10
456.730810592
 20
100.4256279161
 11
450.280810592
 21
100.4256279161
  0
LINE
  8
DEFAULT_2
 62
8
  6
HIDDEN
 10
439.980810592
 20
100.4256279161
 11
433.530810592
 21
100.4256279161
  0
LINE
  8
DEFAULT_2
 62
8
  6
HIDDEN
 10
433.530810592
 20
100.7899329056
 11
439.980810592
 21
100.7899329056
  0
LINE
  8
DEFAULT_2
 62
8
  6
HIDDEN
 10
450.280810592
 20
100.7899329056
 11
456.730810592
 21
100.7899329056
  0
LINE
  8
DEFAULT_2
 62
8
  6
HIDDEN
 10
433.530810592
 20
100.9450113557
 11
439.980810592
 21
100.9450113557
  0
LINE
  8
DEFAULT_2
 62
8
  6
HIDDEN
 10
450.280810592
 20
100.9450113557
 11
456.730810592
 21
100.9450113557
  0
LINE
  8
DEFAULT_2
 62
8
  6
HIDDEN
 10
433.530810592
 20
103.3901764756
 11
439.980810592
 21
103.3901764756
  0
LINE
  8
DEFAULT_2
 62
8
  6
HIDDEN
 10
450.280810592
 20
103.3901764756
 11
456.730810592
 21
103.3901764756
  0
LINE
  8
0
 62
9
  6
CONTINUOUS
 10
433.530810592
 20
104.4473035358
 11
439.980810592
 21
104.4473035358
  0
LINE
  8
0
 62
9
  6
CONTINUOUS
 10
450.280810592
 20
104.4473035358
 11
456.730810592
 21
104.4473035358
  0
LINE
  8
DEFAULT_2
 62
8
  6
HIDDEN
 10
433.530810592
 20
106.0807580379
 11
439.980810592
 21
106.0807580379
  0
LINE
  8
DEFAULT_2
 62
8
  6
HIDDEN
 10
450.280810592
 20
106.0807580379
 11
456.730810592
 21
106.0807580379
  0
LINE
  8
DEFAULT_2
 62
8
  6
HIDDEN
 10
433.530810592
 20
106.570192875
 11
439.980810592
 21
106.570192875
  0
LINE
  8
DEFAULT_2
 62
8
  6
HIDDEN
 10
450.280810592
 20
106.570192875
 11
456.730810592
 21
106.570192875
  0
LINE
  8
0
 62
7
  6
CONTINUOUS
 10
433.530810592
 20
108.546537854
 11
439.980810592
 21
108.546537854
  0
LINE
  8
0
 62
7
  6
CONTINUOUS
 10
450.280810592
 20
108.546537854
 11
456.730810592
 21
108.546537854
  0
LINE
  8
0
 62
9
  6
CONTINUOUS
 10
433.530810592
 20
110.0313474742
 11
439.980810592
 21
110.0313474742
  0
LINE
  8
0
 62
9
  6
CONTINUOUS
 10
450.280810592
 20
110.0313474742
 11
456.730810592
 21
110.0313474742
  0
LINE
  8
DEFAULT_2
 62
8
  6
HIDDEN
 10
433.530810592
 20
113.9477040102
 11
439.980810592
 21
113.9477040102
  0
LINE
  8
DEFAULT_2
 62
8
  6
HIDDEN
 10
450.280810592
 20
113.9477040102
 11
456.730810592
 21
113.9477040102
  0
LINE
  8
0
 62
9
  6
CONTINUOUS
 10
433.530810592
 20
115.0001260519
 11
439.980810592
 21
115.0001260519
  0
LINE
  8
0
 62
9
  6
CONTINUOUS
 10
450.280810592
 20
115.0001260519
 11
456.730810592
 21
115.0001260519
  0
LINE
  8
DEFAULT_2
 62
8
  6
HIDDEN
 10
456.730810592
 20
115.3306895395
 11
450.280810592
 21
115.3306895395
  0
LINE
  8
DEFAULT_2
 62
8
  6
HIDDEN
 10
439.980810592
 20
115.3306895395
 11
433.530810592
 21
115.3306895395
  0
LINE
  8
DEFAULT_2
 62
8
  6
HIDDEN
 10
456.730810592
 20
115.7276070392
 11
450.280810592
 21
115.7276070392
  0
LINE
  8
DEFAULT_2
 62
8
  6
HIDDEN
 10
439.980810592
 20
115.7276070392
 11
433.530810592
 21
115.7276070392
  0
LINE
  8
DEFAULT_2
 62
8
  6
HIDDEN
 10
433.530810592
 20
116.5532541936
 11
439.980810592
 21
116.5532541936
  0
LINE
  8
DEFAULT_2
 62
8
  6
HIDDEN
 10
450.280810592
 20
116.5532541936
 11
456.730810592
 21
116.5532541936
  0
LINE
  8
DEFAULT_2
 62
8
  6
HIDDEN
 10
456.730810592
 20
117.2913623048
 11
450.280810592
 21
117.2913623048
  0
LINE
  8
DEFAULT_2
 62
8
  6
HIDDEN
 10
439.980810592
 20
117.2913623048
 11
433.530810592
 21
117.2913623048
  0
LINE
  8
DEFAULT_2
 62
8
  6
HIDDEN
 10
456.730810592
 20
117.3135431056
 11
450.280810592
 21
117.3135431056
  0
LINE
  8
DEFAULT_2
 62
8
  6
HIDDEN
 10
439.980810592
 20
117.3135431056
 11
433.530810592
 21
117.3135431056
  0
LINE
  8
DEFAULT_2
 62
8
  6
HIDDEN
 10
456.730810592
 20
117.3868538076
 11
450.280810592
 21
117.3868538076
  0
LINE
  8
DEFAULT_2
 62
8
  6
HIDDEN
 10
439.980810592
 20
117.3868538076
 11
433.530810592
 21
117.3868538076
  0
LINE
  8
DEFAULT_2
 62
8
  6
HIDDEN
 10
433.530810592
 20
117.4022663087
 11
439.980810592
 21
117.4022663087
  0
LINE
  8
DEFAULT_2
 62
8
  6
HIDDEN
 10
450.280810592
 20
117.4022663087
 11
456.730810592
 21
117.4022663087
  0
LINE
  8
DEFAULT_2
 62
8
  6
HIDDEN
 10
433.530810592
 20
117.6972430497
 11
439.980810592
 21
117.6972430497
  0
LINE
  8
DEFAULT_2
 62
8
  6
HIDDEN
 10
450.280810592
 20
117.6972430497
 11
456.730810592
 21
117.6972430497
  0
LINE
  8
DEFAULT_2
 62
8
  6
HIDDEN
 10
428.530810592
 20
124.5632456352
 11
461.730810592
 21
124.5632456352
  0
LINE
  8
0
 62
9
  6
CONTINUOUS
 10
433.530810592
 20
125.7260747773
 11
439.980810592
 21
125.7260747773
  0
LINE
  8
0
 62
9
  6
CONTINUOUS
 10
450.280810592
 20
125.7260747773
 11
456.730810592
 21
125.7260747773
  0
LINE
  8
DEFAULT_2
 62
8
  6
HIDDEN
 10
433.530810592
 20
126.0466477057
 11
439.980810592
 21
126.0466477057
  0
LINE
  8
DEFAULT_2
 62
8
  6
HIDDEN
 10
450.280810592
 20
126.0466477057
 11
456.730810592
 21
126.0466477057
  0
LINE
  8
DEFAULT_2
 62
8
  6
HIDDEN
 10
433.530810592
 20
126.1720279986
 11
439.980810592
 21
126.1720279986
  0
LINE
  8
DEFAULT_2
 62
8
  6
HIDDEN
 10
450.280810592
 20
126.1720279986
 11
456.730810592
 21
126.1720279986
  0
LINE
  8
DEFAULT_2
 62
8
  6
HIDDEN
 10
433.530810592
 20
127.0602666781
 11
439.980810592
 21
127.0602666781
  0
LINE
  8
DEFAULT_2
 62
8
  6
HIDDEN
 10
450.280810592
 20
127.0602666781
 11
456.730810592
 21
127.0602666781
  0
LINE
  8
DEFAULT_2
 62
8
  6
HIDDEN
 10
428.530810592
 20
128.0071950073
 11
461.730810592
 21
128.0071950073
  0
LINE
  8
DEFAULT_2
 62
8
  6
HIDDEN
 10
428.530810592
 20
128.1839840284
 11
461.730810592
 21
128.1839840284
  0
LINE
  8
DEFAULT_2
 62
8
  6
HIDDEN
 10
433.530810592
 20
128.2702398113
 11
439.980810592
 21
128.2702398113
  0
LINE
  8
DEFAULT_2
 62
8
  6
HIDDEN
 10
450.280810592
 20
128.2702398113
 11
456.730810592
 21
128.2702398113
  0
LINE
  8
DEFAULT_2
 62
8
  6
HIDDEN
 10
433.530810592
 20
128.9262669389
 11
439.980810592
 21
128.9262669389
  0
LINE
  8
DEFAULT_2
 62
8
  6
HIDDEN
 10
450.280810592
 20
128.9262669389
 11
456.730810592
 21
128.9262669389
  0
LINE
  8
DEFAULT_2
 62
8
  6
HIDDEN
 10
433.530810592
 20
130.1800698675
 11
439.980810592
 21
130.1800698675
  0
LINE
  8
DEFAULT_2
 62
8
  6
HIDDEN
 10
450.280810592
 20
130.1800698675
 11
456.730810592
 21
130.1800698675
  0
LINE
  8
DEFAULT_2
 62
8
  6
HIDDEN
 10
428.530810592
 20
131.1005564245
 11
461.730810592
 21
131.1005564245
  0
LINE
  8
DEFAULT_2
 62
8
  6
HIDDEN
 10
428.530810592
 20
131.344810005
 11
461.730810592
 21
131.344810005
  0
LINE
  8
0
 62
7
  6
CONTINUOUS
 10
433.530810592
 20
138.7174538153
 11
439.980810592
 21
138.7174538153
  0
LINE
  8
0
 62
7
  6
CONTINUOUS
 10
450.280810592
 20
138.7174538153
 11
456.730810592
 21
138.7174538153
  0
LINE
  8
0
 62
9
  6
CONTINUOUS
 10
433.530810592
 20
139.3449785196
 11
439.980810592
 21
139.3449785196
  0
LINE
  8
0
 62
9
  6
CONTINUOUS
 10
450.280810592
 20
139.3449785196
 11
456.730810592
 21
139.3449785196
  0
LINE
  8
DEFAULT_2
 62
8
  6
HIDDEN
 10
433.530810592
 20
139.5224663989
 11
439.980810592
 21
139.5224663989
  0
LINE
  8
DEFAULT_2
 62
8
  6
HIDDEN
 10
450.280810592
 20
139.5224663989
 11
456.730810592
 21
139.5224663989
  0
LINE
  8
DEFAULT_2
 62
8
  6
HIDDEN
 10
456.730810592
 20
140.7057705062
 11
450.280810592
 21
140.7057705062
  0
LINE
  8
DEFAULT_2
 62
8
  6
HIDDEN
 10
439.980810592
 20
140.7057705062
 11
433.530810592
 21
140.7057705062
  0
LINE
  8
0
 62
9
  6
CONTINUOUS
 10
433.530810592
 20
141.0315090281
 11
439.980810592
 21
141.0315090281
  0
LINE
  8
0
 62
9
  6
CONTINUOUS
 10
450.280810592
 20
141.0315090281
 11
456.730810592
 21
141.0315090281
  0
LINE
  8
DEFAULT_2
 62
8
  6
HIDDEN
 10
456.730810592
 20
141.1469343544
 11
450.280810592
 21
141.1469343544
  0
LINE
  8
DEFAULT_2
 62
8
  6
HIDDEN
 10
439.980810592
 20
141.1469343544
 11
433.530810592
 21
141.1469343544
  0
LINE
  8
DEFAULT_2
 62
8
  6
HIDDEN
 10
433.530810592
 20
143.1086985642
 11
439.980810592
 21
143.1086985642
  0
LINE
  8
DEFAULT_2
 62
8
  6
HIDDEN
 10
450.280810592
 20
143.1086985642
 11
456.730810592
 21
143.1086985642
  0
LINE
  8
DEFAULT_2
 62
8
  6
HIDDEN
 10
456.730810592
 20
143.3297880831
 11
450.280810592
 21
143.3297880831
  0
LINE
  8
DEFAULT_2
 62
8
  6
HIDDEN
 10
439.980810592
 20
143.3297880831
 11
433.530810592
 21
143.3297880831
  0
LINE
  8
DEFAULT_2
 62
8
  6
HIDDEN
 10
456.730810592
 20
143.5358378304
 11
450.280810592
 21
143.5358378304
  0
LINE
  8
DEFAULT_2
 62
8
  6
HIDDEN
 10
439.980810592
 20
143.5358378304
 11
433.530810592
 21
143.5358378304
  0
LINE
  8
DEFAULT_2
 62
8
  6
HIDDEN
 10
433.530810592
 20
143.7360192426
 11
439.980810592
 21
143.7360192426
  0
LINE
  8
DEFAULT_2
 62
8
  6
HIDDEN
 10
450.280810592
 20
143.7360192426
 11
456.730810592
 21
143.7360192426
  0
LINE
  8
0
 62
9
  6
CONTINUOUS
 10
433.530810592
 20
144.9059916333
 11
439.980810592
 21
144.9059916333
  0
LINE
  8
0
 62
9
  6
CONTINUOUS
 10
450.280810592
 20
144.9059916333
 11
456.730810592
 21
144.9059916333
  0
LINE
  8
0
 62
9
  6
CONTINUOUS
 10
433.530810592
 20
155.3096985933
 11
439.980810592
 21
155.3096985933
  0
LINE
  8
0
 62
9
  6
CONTINUOUS
 10
450.280810592
 20
155.3096985933
 11
456.730810592
 21
155.3096985933
  0
LINE
  8
DEFAULT_2
 62
8
  6
HIDDEN
 10
433.530810592
 20
158.5155335593
 11
439.980810592
 21
158.5155335593
  0
LINE
  8
DEFAULT_2
 62
8
  6
HIDDEN
 10
450.280810592
 20
158.5155335593
 11
456.730810592
 21
158.5155335593
  0
LINE
  8
DEFAULT_2
 62
8
  6
HIDDEN
 10
433.530810592
 20
161.3515801845
 11
439.980810592
 21
161.3515801845
  0
LINE
  8
DEFAULT_2
 62
8
  6
HIDDEN
 10
450.280810592
 20
161.3515801845
 11
456.730810592
 21
161.3515801845
  0
LINE
  8
DEFAULT_2
 62
8
  6
HIDDEN
 10
433.530810592
 20
161.3699530011
 11
439.980810592
 21
161.3699530011
  0
LINE
  8
DEFAULT_2
 62
8
  6
HIDDEN
 10
450.280810592
 20
161.3699530011
 11
456.730810592
 21
161.3699530011
  0
LINE
  8
DEFAULT_2
 62
8
  6
HIDDEN
 10
433.530810592
 20
162.4539528709
 11
439.980810592
 21
162.4539528709
  0
LINE
  8
DEFAULT_2
 62
8
  6
HIDDEN
 10
450.280810592
 20
162.4539528709
 11
456.730810592
 21
162.4539528709
  0
LINE
  8
DEFAULT_2
 62
8
  6
HIDDEN
 10
433.530810592
 20
162.6376810364
 11
439.980810592
 21
162.6376810364
  0
LINE
  8
DEFAULT_2
 62
8
  6
HIDDEN
 10
450.280810592
 20
162.6376810364
 11
456.730810592
 21
162.6376810364
  0
LINE
  8
DEFAULT_2
 62
8
  6
HIDDEN
 10
433.530810592
 20
162.6735209323
 11
439.980810592
 21
162.6735209323
  0
LINE
  8
DEFAULT_2
 62
8
  6
HIDDEN
 10
450.280810592
 20
162.6735209323
 11
456.730810592
 21
162.6735209323
  0
LINE
  8
DEFAULT_2
 62
8
  6
HIDDEN
 10
433.530810592
 20
172.051594425
 11
439.980810592
 21
172.051594425
  0
LINE
  8
DEFAULT_2
 62
8
  6
HIDDEN
 10
450.280810592
 20
172.051594425
 11
456.730810592
 21
172.051594425
  0
LINE
  8
0
 62
9
  6
CONTINUOUS
 10
456.730810592
 20
172.9193870598
 11
450.280810592
 21
172.9193870598
  0
LINE
  8
0
 62
9
  6
CONTINUOUS
 10
439.980810592
 20
172.9193870598
 11
433.530810592
 21
172.9193870598
  0
LINE
  8
0
 62
9
  6
CONTINUOUS
 10
456.730810592
 20
173.3616130652
 11
450.280810592
 21
173.3616130652
  0
LINE
  8
0
 62
9
  6
CONTINUOUS
 10
439.980810592
 20
173.3616130652
 11
433.530810592
 21
173.3616130652
  0
LINE
  8
0
 62
7
  6
CONTINUOUS
 10
433.530810592
 20
174.5523237634
 11
439.980810592
 21
174.5523237634
  0
LINE
  8
0
 62
7
  6
CONTINUOUS
 10
450.280810592
 20
174.5523237634
 11
456.730810592
 21
174.5523237634
  0
LINE
  8
DEFAULT_2
 62
8
  6
HIDDEN
 10
456.730810592
 20
175.9277115245
 11
450.280810592
 21
175.9277115245
  0
LINE
  8
DEFAULT_2
 62
8
  6
HIDDEN
 10
439.980810592
 20
175.9277115245
 11
433.530810592
 21
175.9277115245
  0
LINE
  8
DEFAULT_2
 62
8
  6
HIDDEN
 10
456.730810592
 20
176.2463307322
 11
450.280810592
 21
176.2463307322
  0
LINE
  8
DEFAULT_2
 62
8
  6
HIDDEN
 10
439.980810592
 20
176.2463307322
 11
433.530810592
 21
176.2463307322
  0
LINE
  8
DEFAULT_2
 62
8
  6
HIDDEN
 10
433.530810592
 20
176.2674631812
 11
439.980810592
 21
176.2674631812
  0
LINE
  8
DEFAULT_2
 62
8
  6
HIDDEN
 10
450.280810592
 20
176.2674631812
 11
456.730810592
 21
176.2674631812
  0
LINE
  8
DEFAULT_2
 62
8
  6
HIDDEN
 10
433.530810592
 20
176.512483098
 11
439.980810592
 21
176.512483098
  0
LINE
  8
DEFAULT_2
 62
8
  6
HIDDEN
 10
450.280810592
 20
176.512483098
 11
456.730810592
 21
176.512483098
  0
LINE
  8
0
 62
9
  6
CONTINUOUS
 10
433.530810592
 20
177.1150658305
 11
439.980810592
 21
177.1150658305
  0
LINE
  8
0
 62
9
  6
CONTINUOUS
 10
450.280810592
 20
177.1150658305
 11
456.730810592
 21
177.1150658305
  0
LINE
  8
0
 62
9
  6
CONTINUOUS
 10
433.530810592
 20
178.8383206128
 11
439.980810592
 21
178.8383206128
  0
LINE
  8
0
 62
9
  6
CONTINUOUS
 10
450.280810592
 20
178.8383206128
 11
456.730810592
 21
178.8383206128
  0
LINE
  8
0
 62
9
  6
CONTINUOUS
 10
433.530810592
 20
181.239245893
 11
439.980810592
 21
181.239245893
  0
LINE
  8
0
 62
9
  6
CONTINUOUS
 10
450.280810592
 20
181.239245893
 11
456.730810592
 21
181.239245893
  0
LINE
  8
0
 62
7
  6
CONTINUOUS
 10
428.530810592
 20
322.5404982083
 11
428.530810592
 21
98.5941493185
  0
LINE
  8
0
 62
9
  6
CONTINUOUS
 10
433.530810592
 20
190.3023237634
 11
439.980810592
 21
190.3023237634
  0
LINE
  8
0
 62
9
  6
CONTINUOUS
 10
450.280810592
 20
190.3023237634
 11
456.730810592
 21
190.3023237634
  0
LINE
  8
DEFAULT_2
 62
8
  6
HIDDEN
 10
433.530810592
 20
193.8560191987
 11
439.980810592
 21
193.8560191987
  0
LINE
  8
DEFAULT_2
 62
8
  6
HIDDEN
 10
450.280810592
 20
193.8560191987
 11
456.730810592
 21
193.8560191987
  0
LINE
  8
DEFAULT_2
 62
8
  6
HIDDEN
 10
428.730810592
 20
310.5317986864
 11
428.730810592
 21
320.5500017255
  0
LINE
  8
0
 62
9
  6
CONTINUOUS
 10
430.530810592
 20
324.5404982083
 11
430.530810592
 21
96.5941493185
  0
LINE
  8
DEFAULT_2
 62
8
  6
HIDDEN
 10
433.530810592
 20
303.8432848203
 11
433.530810592
 21
303.8503569313
  0
LINE
  8
0
 62
7
  6
CONTINUOUS
 10
433.530810592
 20
78.7475775844
 11
433.530810592
 21
303.8432848203
  0
LINE
  8
0
 62
7
  6
CONTINUOUS
 10
433.530810592
 20
303.8503569313
 11
433.530810592
 21
342.3870699424
  0
LINE
  8
DEFAULT_2
 62
8
  6
HIDDEN
 10
433.530810592
 20
200.6913107714
 11
439.980810592
 21
200.6913107714
  0
LINE
  8
DEFAULT_2
 62
8
  6
HIDDEN
 10
450.280810592
 20
200.6913107714
 11
456.730810592
 21
200.6913107714
  0
LINE
  8
DEFAULT_2
 62
8
  6
HIDDEN
 10
433.530810592
 20
201.383659432
 11
439.980810592
 21
201.383659432
  0
LINE
  8
DEFAULT_2
 62
8
  6
HIDDEN
 10
450.280810592
 20
201.383659432
 11
456.730810592
 21
201.383659432
  0
LINE
  8
DEFAULT_2
 62
8
  6
HIDDEN
 10
433.530810592
 20
202.9749543033
 11
439.980810592
 21
202.9749543033
  0
LINE
  8
DEFAULT_2
 62
8
  6
HIDDEN
 10
450.280810592
 20
202.9749543033
 11
456.730810592
 21
202.9749543033
  0
LINE
  8
DEFAULT_2
 62
8
  6
HIDDEN
 10
439.980810592
 20
303.8432848203
 11
439.980810592
 21
303.8503746759
  0
LINE
  8
0
 62
7
  6
CONTINUOUS
 10
439.980810592
 20
78.7475702194
 11
439.980810592
 21
303.8432848203
  0
LINE
  8
0
 62
7
  6
CONTINUOUS
 10
439.980810592
 20
303.8503746759
 11
439.980810592
 21
342.3870773074
  0
LINE
  8
0
 62
40
  6
CONTINUOUS
 10
445.130810592
 20
210.5673237634
 11
445.130810592
 21
94.3751643224
  0
LINE
  8
PITCH_DIAMETER
 62
40
  6
CONTINUOUS
 10
445.130810592
 20
340.0182971033
 11
445.130810592
 21
81.1031733645
  0
LINE
  8
DEFAULT_2
 62
8
  6
HIDDEN
 10
445.130810592
 20
322.3374374589
 11
445.130810592
 21
324.5435026015
  0
LINE
  8
0
 62
40
  6
CONTINUOUS
 10
445.130810592
 20
324.5435025569
 11
445.130810592
 21
326.9968000669
  0
LINE
  8
0
 62
40
  6
CONTINUOUS
 10
445.130810592
 20
340.8783636575
 11
445.130810592
 21
342.6432655486
  0
LINE
  8
DEFAULT_2
 62
8
  6
HIDDEN
 10
428.530810592
 20
203.3142005532
 11
461.730810592
 21
203.3142005532
  0
LINE
  8
DEFAULT_2
 62
8
  6
HIDDEN
 10
428.530810592
 20
204.760194874
 11
461.730810592
 21
204.760194874
  0
LINE
  8
DEFAULT_2
 62
8
  6
HIDDEN
 10
428.530810592
 20
206.8461181505
 11
461.730810592
 21
206.8461181505
  0
LINE
  8
DEFAULT_2
 62
8
  6
HIDDEN
 10
433.530810592
 20
208.3164015602
 11
439.980810592
 21
208.3164015602
  0
LINE
  8
DEFAULT_2
 62
8
  6
HIDDEN
 10
450.280810592
 20
208.3164015602
 11
456.730810592
 21
208.3164015602
  0
LINE
  8
DEFAULT_2
 62
8
  6
HIDDEN
 10
433.530810592
 20
208.3509103937
 11
439.980810592
 21
208.3509103937
  0
LINE
  8
DEFAULT_2
 62
8
  6
HIDDEN
 10
450.280810592
 20
208.3509103937
 11
456.730810592
 21
208.3509103937
  0
LINE
  8
DEFAULT_2
 62
8
  6
HIDDEN
 10
428.530810592
 20
208.4313107483
 11
461.730810592
 21
208.4313107483
  0
LINE
  8
DEFAULT_2
 62
8
  6
HIDDEN
 10
433.530810592
 20
208.5924722277
 11
439.980810592
 21
208.5924722277
  0
LINE
  8
DEFAULT_2
 62
8
  6
HIDDEN
 10
450.280810592
 20
208.5924722277
 11
456.730810592
 21
208.5924722277
  0
LINE
  8
0
 62
9
  6
CONTINUOUS
 10
456.730810592
 20
208.8182459666
 11
450.280810592
 21
208.8182459666
  0
LINE
  8
0
 62
9
  6
CONTINUOUS
 10
439.980810592
 20
208.8182459666
 11
433.530810592
 21
208.8182459666
  0
LINE
  8
0
 62
9
  6
CONTINUOUS
 10
456.730810592
 20
209.2182459666
 11
450.280810592
 21
209.2182459666
  0
LINE
  8
0
 62
9
  6
CONTINUOUS
 10
439.980810592
 20
209.2182459666
 11
433.530810592
 21
209.2182459666
  0
LINE
  8
DEFAULT_1
 62
2
  6
CENTER
 10
426.530810592
 20
210.5673237634
 11
463.730810592
 21
210.5673237634
  0
LINE
  8
DEFAULT_2
 62
8
  6
HIDDEN
 10
450.280810592
 20
303.8432848203
 11
450.280810592
 21
303.8503746759
  0
LINE
  8
0
 62
7
  6
CONTINUOUS
 10
450.280810592
 20
78.7475702194
 11
450.280810592
 21
303.8432848203
  0
LINE
  8
0
 62
7
  6
CONTINUOUS
 10
450.280810592
 20
303.8503746759
 11
450.280810592
 21
342.3870773074
  0
LINE
  8
DEFAULT_2
 62
8
  6
HIDDEN
 10
456.730810592
 20
211.9164015602
 11
450.280810592
 21
211.9164015602
  0
LINE
  8
DEFAULT_2
 62
8
  6
HIDDEN
 10
439.980810592
 20
211.9164015602
 11
433.530810592
 21
211.9164015602
  0
LINE
  8
DEFAULT_2
 62
8
  6
HIDDEN
 10
456.730810592
 20
212.3164015602
 11
450.280810592
 21
212.3164015602
  0
LINE
  8
DEFAULT_2
 62
8
  6
HIDDEN
 10
439.980810592
 20
212.3164015602
 11
433.530810592
 21
212.3164015602
  0
LINE
  8
0
 62
7
  6
CONTINUOUS
 10
433.530810592
 20
212.5421752991
 11
439.980810592
 21
212.5421752991
  0
LINE
  8
0
 62
7
  6
CONTINUOUS
 10
450.280810592
 20
212.5421752991
 11
456.730810592
 21
212.5421752991
  0
LINE
  8
DEFAULT_2
 62
8
  6
HIDDEN
 10
428.530810592
 20
212.7033367785
 11
461.730810592
 21
212.7033367785
  0
LINE
  8
DEFAULT_2
 62
8
  6
HIDDEN
 10
433.530810592
 20
212.7837371331
 11
439.980810592
 21
212.7837371331
  0
LINE
  8
DEFAULT_2
 62
8
  6
HIDDEN
 10
450.280810592
 20
212.7837371331
 11
456.730810592
 21
212.7837371331
  0
LINE
  8
DEFAULT_2
 62
8
  6
HIDDEN
 10
433.530810592
 20
212.8182459666
 11
439.980810592
 21
212.8182459666
  0
LINE
  8
DEFAULT_2
 62
8
  6
HIDDEN
 10
450.280810592
 20
212.8182459666
 11
456.730810592
 21
212.8182459666
  0
LINE
  8
DEFAULT_2
 62
8
  6
HIDDEN
 10
428.530810592
 20
214.2885293764
 11
461.730810592
 21
214.2885293764
  0
LINE
  8
DEFAULT_2
 62
8
  6
HIDDEN
 10
428.530810592
 20
216.3744526528
 11
461.730810592
 21
216.3744526528
  0
LINE
  8
DEFAULT_2
 62
8
  6
HIDDEN
 10
428.530810592
 20
217.8204469736
 11
461.730810592
 21
217.8204469736
  0
LINE
  8
0
 62
9
  6
CONTINUOUS
 10
433.530810592
 20
218.1596932235
 11
439.980810592
 21
218.1596932235
  0
LINE
  8
0
 62
9
  6
CONTINUOUS
 10
450.280810592
 20
218.1596932235
 11
456.730810592
 21
218.1596932235
  0
LINE
  8
0
 62
9
  6
CONTINUOUS
 10
433.530810592
 20
219.7509880948
 11
439.980810592
 21
219.7509880948
  0
LINE
  8
0
 62
9
  6
CONTINUOUS
 10
450.280810592
 20
219.7509880948
 11
456.730810592
 21
219.7509880948
  0
LINE
  8
0
 62
9
  6
CONTINUOUS
 10
433.530810592
 20
220.4433367554
 11
439.980810592
 21
220.4433367554
  0
LINE
  8
0
 62
9
  6
CONTINUOUS
 10
450.280810592
 20
220.4433367554
 11
456.730810592
 21
220.4433367554
  0
LINE
  8
0
 62
7
  6
CONTINUOUS
 10
456.730810592
 20
342.3870699424
 11
456.730810592
 21
303.8503569313
  0
LINE
  8
0
 62
7
  6
CONTINUOUS
 10
456.730810592
 20
303.8432848203
 11
456.730810592
 21
78.7475775844
  0
LINE
  8
DEFAULT_2
 62
8
  6
HIDDEN
 10
456.730810592
 20
303.8432848203
 11
456.730810592
 21
303.8503569313
  0
LINE
  8
0
 62
9
  6
CONTINUOUS
 10
459.730810592
 20
324.5404982083
 11
459.730810592
 21
96.5941493185
  0
LINE
  8
0
 62
7
  6
CONTINUOUS
 10
461.730810592
 20
322.5404982083
 11
461.730810592
 21
98.5941493185
  0
LINE
  8
0
 62
9
  6
CONTINUOUS
 10
433.530810592
 20
227.2786283281
 11
439.980810592
 21
227.2786283281
  0
LINE
  8
0
 62
9
  6
CONTINUOUS
 10
450.280810592
 20
227.2786283281
 11
456.730810592
 21
227.2786283281
  0
LINE
  8
DEFAULT_2
 62
8
  6
HIDDEN
 10
433.530810592
 20
230.8323237634
 11
439.980810592
 21
230.8323237634
  0
LINE
  8
DEFAULT_2
 62
8
  6
HIDDEN
 10
450.280810592
 20
230.8323237634
 11
456.730810592
 21
230.8323237634
  0
LINE
  8
DEFAULT_2
 62
8
  6
HIDDEN
 10
433.530810592
 20
239.8954016338
 11
439.980810592
 21
239.8954016338
  0
LINE
  8
DEFAULT_2
 62
8
  6
HIDDEN
 10
450.280810592
 20
239.8954016338
 11
456.730810592
 21
239.8954016338
  0
LINE
  8
DEFAULT_2
 62
8
  6
HIDDEN
 10
433.530810592
 20
242.296326914
 11
439.980810592
 21
242.296326914
  0
LINE
  8
DEFAULT_2
 62
8
  6
HIDDEN
 10
450.280810592
 20
242.296326914
 11
456.730810592
 21
242.296326914
  0
LINE
  8
DEFAULT_2
 62
8
  6
HIDDEN
 10
433.530810592
 20
244.0195816963
 11
439.980810592
 21
244.0195816963
  0
LINE
  8
DEFAULT_2
 62
8
  6
HIDDEN
 10
450.280810592
 20
244.0195816963
 11
456.730810592
 21
244.0195816963
  0
LINE
  8
DEFAULT_2
 62
8
  6
HIDDEN
 10
433.530810592
 20
244.6221644288
 11
439.980810592
 21
244.6221644288
  0
LINE
  8
DEFAULT_2
 62
8
  6
HIDDEN
 10
450.280810592
 20
244.6221644288
 11
456.730810592
 21
244.6221644288
  0
LINE
  8
DEFAULT_2
 62
8
  6
HIDDEN
 10
433.530810592
 20
244.8671843456
 11
439.980810592
 21
244.8671843456
  0
LINE
  8
DEFAULT_2
 62
8
  6
HIDDEN
 10
450.280810592
 20
244.8671843456
 11
456.730810592
 21
244.8671843456
  0
LINE
  8
0
 62
9
  6
CONTINUOUS
 10
456.730810592
 20
244.8883167946
 11
450.280810592
 21
244.8883167946
  0
LINE
  8
0
 62
9
  6
CONTINUOUS
 10
439.980810592
 20
244.8883167946
 11
433.530810592
 21
244.8883167946
  0
LINE
  8
0
 62
9
  6
CONTINUOUS
 10
456.730810592
 20
245.2069360023
 11
450.280810592
 21
245.2069360023
  0
LINE
  8
0
 62
9
  6
CONTINUOUS
 10
439.980810592
 20
245.2069360023
 11
433.530810592
 21
245.2069360023
  0
LINE
  8
DEFAULT_2
 62
8
  6
HIDDEN
 10
433.530810592
 20
246.5823237634
 11
439.980810592
 21
246.5823237634
  0
LINE
  8
DEFAULT_2
 62
8
  6
HIDDEN
 10
450.280810592
 20
246.5823237634
 11
456.730810592
 21
246.5823237634
  0
LINE
  8
DEFAULT_2
 62
8
  6
HIDDEN
 10
456.730810592
 20
247.7730344616
 11
450.280810592
 21
247.7730344616
  0
LINE
  8
DEFAULT_2
 62
8
  6
HIDDEN
 10
439.980810592
 20
247.7730344616
 11
433.530810592
 21
247.7730344616
  0
LINE
  8
DEFAULT_2
 62
8
  6
HIDDEN
 10
456.730810592
 20
248.215260467
 11
450.280810592
 21
248.215260467
  0
LINE
  8
DEFAULT_2
 62
8
  6
HIDDEN
 10
439.980810592
 20
248.215260467
 11
433.530810592
 21
248.215260467
  0
LINE
  8
0
 62
9
  6
CONTINUOUS
 10
433.530810592
 20
249.0830531018
 11
439.980810592
 21
249.0830531018
  0
LINE
  8
0
 62
9
  6
CONTINUOUS
 10
450.280810592
 20
249.0830531018
 11
456.730810592
 21
249.0830531018
  0
LINE
  8
0
 62
9
  6
CONTINUOUS
 10
433.530810592
 20
258.4611265945
 11
439.980810592
 21
258.4611265945
  0
LINE
  8
0
 62
9
  6
CONTINUOUS
 10
450.280810592
 20
258.4611265945
 11
456.730810592
 21
258.4611265945
  0
LINE
  8
DEFAULT_2
 62
8
  6
HIDDEN
 10
433.530810592
 20
258.4969664904
 11
439.980810592
 21
258.4969664904
  0
LINE
  8
DEFAULT_2
 62
8
  6
HIDDEN
 10
450.280810592
 20
258.4969664904
 11
456.730810592
 21
258.4969664904
  0
LINE
  8
DEFAULT_2
 62
8
  6
HIDDEN
 10
433.530810592
 20
258.6806946559
 11
439.980810592
 21
258.6806946559
  0
LINE
  8
DEFAULT_2
 62
8
  6
HIDDEN
 10
450.280810592
 20
258.6806946559
 11
456.730810592
 21
258.6806946559
  0
LINE
  8
DEFAULT_2
 62
8
  6
HIDDEN
 10
433.530810592
 20
259.7646945257
 11
439.980810592
 21
259.7646945257
  0
LINE
  8
DEFAULT_2
 62
8
  6
HIDDEN
 10
450.280810592
 20
259.7646945257
 11
456.730810592
 21
259.7646945257
  0
LINE
  8
0
 62
7
  6
CONTINUOUS
 10
433.530810592
 20
259.7830673423
 11
439.980810592
 21
259.7830673423
  0
LINE
  8
0
 62
7
  6
CONTINUOUS
 10
450.280810592
 20
259.7830673423
 11
456.730810592
 21
259.7830673423
  0
LINE
  8
0
 62
9
  6
CONTINUOUS
 10
433.530810592
 20
262.6191139675
 11
439.980810592
 21
262.6191139675
  0
LINE
  8
0
 62
9
  6
CONTINUOUS
 10
450.280810592
 20
262.6191139675
 11
456.730810592
 21
262.6191139675
  0
LINE
  8
DEFAULT_2
 62
8
  6
HIDDEN
 10
433.530810592
 20
265.8249489335
 11
439.980810592
 21
265.8249489335
  0
LINE
  8
DEFAULT_2
 62
8
  6
HIDDEN
 10
450.280810592
 20
265.8249489335
 11
456.730810592
 21
265.8249489335
  0
LINE
  8
DEFAULT_2
 62
8
  6
HIDDEN
 10
433.530810592
 20
276.2286558935
 11
439.980810592
 21
276.2286558935
  0
LINE
  8
DEFAULT_2
 62
8
  6
HIDDEN
 10
450.280810592
 20
276.2286558935
 11
456.730810592
 21
276.2286558935
  0
LINE
  8
DEFAULT_2
 62
8
  6
HIDDEN
 10
433.530810592
 20
277.3986282842
 11
439.980810592
 21
277.3986282842
  0
LINE
  8
DEFAULT_2
 62
8
  6
HIDDEN
 10
450.280810592
 20
277.3986282842
 11
456.730810592
 21
277.3986282842
  0
LINE
  8
0
 62
9
  6
CONTINUOUS
 10
456.730810592
 20
277.5988096964
 11
450.280810592
 21
277.5988096964
  0
LINE
  8
0
 62
9
  6
CONTINUOUS
 10
439.980810592
 20
277.5988096964
 11
433.530810592
 21
277.5988096964
  0
LINE
  8
0
 62
9
  6
CONTINUOUS
 10
456.730810592
 20
277.8048594437
 11
450.280810592
 21
277.8048594437
  0
LINE
  8
0
 62
9
  6
CONTINUOUS
 10
439.980810592
 20
277.8048594437
 11
433.530810592
 21
277.8048594437
  0
LINE
  8
DEFAULT_2
 62
8
  6
HIDDEN
 10
433.530810592
 20
278.0259489626
 11
439.980810592
 21
278.0259489626
  0
LINE
  8
DEFAULT_2
 62
8
  6
HIDDEN
 10
450.280810592
 20
278.0259489626
 11
456.730810592
 21
278.0259489626
  0
LINE
  8
DEFAULT_2
 62
8
  6
HIDDEN
 10
456.730810592
 20
279.9877131724
 11
450.280810592
 21
279.9877131724
  0
LINE
  8
DEFAULT_2
 62
8
  6
HIDDEN
 10
439.980810592
 20
279.9877131724
 11
433.530810592
 21
279.9877131724
  0
LINE
  8
DEFAULT_2
 62
8
  6
HIDDEN
 10
433.530810592
 20
280.1031384987
 11
439.980810592
 21
280.1031384987
  0
LINE
  8
DEFAULT_2
 62
8
  6
HIDDEN
 10
450.280810592
 20
280.1031384987
 11
456.730810592
 21
280.1031384987
  0
LINE
  8
DEFAULT_2
 62
8
  6
HIDDEN
 10
456.730810592
 20
280.4288770206
 11
450.280810592
 21
280.4288770206
  0
LINE
  8
DEFAULT_2
 62
8
  6
HIDDEN
 10
439.980810592
 20
280.4288770206
 11
433.530810592
 21
280.4288770206
  0
LINE
  8
0
 62
9
  6
CONTINUOUS
 10
433.530810592
 20
281.6121811279
 11
439.980810592
 21
281.6121811279
  0
LINE
  8
0
 62
9
  6
CONTINUOUS
 10
450.280810592
 20
281.6121811279
 11
456.730810592
 21
281.6121811279
  0
LINE
  8
DEFAULT_2
 62
8
  6
HIDDEN
 10
433.530810592
 20
281.7896690072
 11
439.980810592
 21
281.7896690072
  0
LINE
  8
DEFAULT_2
 62
8
  6
HIDDEN
 10
450.280810592
 20
281.7896690072
 11
456.730810592
 21
281.7896690072
  0
LINE
  8
DEFAULT_2
 62
8
  6
HIDDEN
 10
433.530810592
 20
282.4171937115
 11
439.980810592
 21
282.4171937115
  0
LINE
  8
DEFAULT_2
 62
8
  6
HIDDEN
 10
450.280810592
 20
282.4171937115
 11
456.730810592
 21
282.4171937115
  0
LINE
  8
DEFAULT_2
 62
8
  6
HIDDEN
 10
428.530810592
 20
289.7898375218
 11
461.730810592
 21
289.7898375218
  0
LINE
  8
DEFAULT_2
 62
8
  6
HIDDEN
 10
428.530810592
 20
290.0340911023
 11
461.730810592
 21
290.0340911023
  0
LINE
  8
DEFAULT_2
 62
8
  6
HIDDEN
 10
433.530810592
 20
290.9545776593
 11
439.980810592
 21
290.9545776593
  0
LINE
  8
DEFAULT_2
 62
8
  6
HIDDEN
 10
450.280810592
 20
290.9545776593
 11
456.730810592
 21
290.9545776593
  0
LINE
  8
DEFAULT_2
 62
8
  6
HIDDEN
 10
433.530810592
 20
292.2083805879
 11
439.980810592
 21
292.2083805879
  0
LINE
  8
DEFAULT_2
 62
8
  6
HIDDEN
 10
450.280810592
 20
292.2083805879
 11
456.730810592
 21
292.2083805879
  0
LINE
  8
DEFAULT_2
 62
8
  6
HIDDEN
 10
433.530810592
 20
292.8644077155
 11
439.980810592
 21
292.8644077155
  0
LINE
  8
DEFAULT_2
 62
8
  6
HIDDEN
 10
450.280810592
 20
292.8644077155
 11
456.730810592
 21
292.8644077155
  0
LINE
  8
DEFAULT_2
 62
8
  6
HIDDEN
 10
428.530810592
 20
292.9506634984
 11
461.730810592
 21
292.9506634984
  0
LINE
  8
DEFAULT_2
 62
8
  6
HIDDEN
 10
428.530810592
 20
293.1274525195
 11
461.730810592
 21
293.1274525195
  0
LINE
  8
0
 62
9
  6
CONTINUOUS
 10
433.530810592
 20
294.0743808487
 11
439.980810592
 21
294.0743808487
  0
LINE
  8
0
 62
9
  6
CONTINUOUS
 10
450.280810592
 20
294.0743808487
 11
456.730810592
 21
294.0743808487
  0
LINE
  8
DEFAULT_2
 62
8
  6
HIDDEN
 10
433.530810592
 20
294.9626195282
 11
439.980810592
 21
294.9626195282
  0
LINE
  8
DEFAULT_2
 62
8
  6
HIDDEN
 10
450.280810592
 20
294.9626195282
 11
456.730810592
 21
294.9626195282
  0
LINE
  8
0
 62
7
  6
CONTINUOUS
 10
433.530810592
 20
295.0879998211
 11
439.980810592
 21
295.0879998211
  0
LINE
  8
0
 62
7
  6
CONTINUOUS
 10
450.280810592
 20
295.0879998211
 11
456.730810592
 21
295.0879998211
  0
LINE
  8
DEFAULT_2
 62
8
  6
HIDDEN
 10
433.530810592
 20
295.4085727495
 11
439.980810592
 21
295.4085727495
  0
LINE
  8
DEFAULT_2
 62
8
  6
HIDDEN
 10
450.280810592
 20
295.4085727495
 11
456.730810592
 21
295.4085727495
  0
LINE
  8
DEFAULT_2
 62
8
  6
HIDDEN
 10
428.530810592
 20
296.5714018916
 11
461.730810592
 21
296.5714018916
  0
LINE
  8
DEFAULT_2
 62
8
  6
HIDDEN
 10
433.530810592
 20
303.4374044771
 11
439.980810592
 21
303.4374044771
  0
LINE
  8
DEFAULT_2
 62
8
  6
HIDDEN
 10
450.280810592
 20
303.4374044771
 11
456.730810592
 21
303.4374044771
  0
LINE
  8
DEFAULT_2
 62
8
  6
HIDDEN
 10
433.530810592
 20
303.7323812181
 11
439.980810592
 21
303.7323812181
  0
LINE
  8
DEFAULT_2
 62
8
  6
HIDDEN
 10
450.280810592
 20
303.7323812181
 11
456.730810592
 21
303.7323812181
  0
LINE
  8
0
 62
9
  6
CONTINUOUS
 10
456.730810592
 20
303.7477937192
 11
450.280810592
 21
303.7477937192
  0
LINE
  8
0
 62
9
  6
CONTINUOUS
 10
439.980810592
 20
303.7477937192
 11
433.530810592
 21
303.7477937192
  0
LINE
  8
DEFAULT_2
 62
8
  6
HIDDEN
 10
456.730810592
 20
303.8211044212
 11
450.280810592
 21
303.8211044212
  0
LINE
  8
DEFAULT_2
 62
8
  6
HIDDEN
 10
439.980810592
 20
303.8211044212
 11
433.530810592
 21
303.8211044212
  0
LINE
  8
0
 62
7
  6
CONTINUOUS
 10
456.730810592
 20
303.843285222
 11
450.280810592
 21
303.843285222
  0
LINE
  8
0
 62
7
  6
CONTINUOUS
 10
439.980810592
 20
303.843285222
 11
433.530810592
 21
303.843285222
  0
LINE
  8
DEFAULT_2
 62
8
  6
HIDDEN
 10
433.530810592
 20
304.5813933332
 11
439.980810592
 21
304.5813933332
  0
LINE
  8
DEFAULT_2
 62
8
  6
HIDDEN
 10
450.280810592
 20
304.5813933332
 11
456.730810592
 21
304.5813933332
  0
LINE
  8
DEFAULT_2
 62
8
  6
HIDDEN
 10
456.730810592
 20
305.4070404876
 11
450.280810592
 21
305.4070404876
  0
LINE
  8
DEFAULT_2
 62
8
  6
HIDDEN
 10
439.980810592
 20
305.4070404876
 11
433.530810592
 21
305.4070404876
  0
LINE
  8
DEFAULT_2
 62
8
  6
HIDDEN
 10
456.730810592
 20
305.8039579873
 11
450.280810592
 21
305.8039579873
  0
LINE
  8
DEFAULT_2
 62
8
  6
HIDDEN
 10
439.980810592
 20
305.8039579873
 11
433.530810592
 21
305.8039579873
  0
LINE
  8
DEFAULT_2
 62
8
  6
HIDDEN
 10
433.530810592
 20
306.1345214749
 11
439.980810592
 21
306.1345214749
  0
LINE
  8
DEFAULT_2
 62
8
  6
HIDDEN
 10
450.280810592
 20
306.1345214749
 11
456.730810592
 21
306.1345214749
  0
LINE
  8
0
 62
9
  6
CONTINUOUS
 10
433.530810592
 20
307.1869435166
 11
439.980810592
 21
307.1869435166
  0
LINE
  8
0
 62
9
  6
CONTINUOUS
 10
450.280810592
 20
307.1869435166
 11
456.730810592
 21
307.1869435166
  0
LINE
  8
DEFAULT_2
 62
8
  6
HIDDEN
 10
428.530810592
 20
310.5317986864
 11
428.730810592
 21
310.5317986864
  0
LINE
  8
DEFAULT_2
 62
8
  6
HIDDEN
 10
428.530810592
 20
310.5869739258
 11
428.730810592
 21
310.5869739258
  0
LINE
  8
DEFAULT_2
 62
8
  6
HIDDEN
 10
428.530810592
 20
310.679538348
 11
428.730810592
 21
310.679538348
  0
LINE
  8
DEFAULT_2
 62
8
  6
HIDDEN
 10
428.530810592
 20
310.7436087666
 11
428.730810592
 21
310.7436087666
  0
LINE
  8
DEFAULT_2
 62
8
  6
HIDDEN
 10
428.530810592
 20
310.9000230469
 11
428.730810592
 21
310.9000230469
  0
LINE
  8
DEFAULT_2
 62
8
  6
HIDDEN
 10
428.530810592
 20
310.9189016655
 11
428.730810592
 21
310.9189016655
  0
LINE
  8
DEFAULT_2
 62
8
  6
HIDDEN
 10
428.530810592
 20
310.9913904003
 11
428.730810592
 21
310.9913904003
  0
LINE
  8
DEFAULT_2
 62
8
  6
HIDDEN
 10
428.530810592
 20
311.001701775
 11
428.730810592
 21
311.001701775
  0
LINE
  8
DEFAULT_2
 62
8
  6
HIDDEN
 10
428.530810592
 20
311.0131411151
 11
428.730810592
 21
311.0131411151
  0
LINE
  8
DEFAULT_2
 62
8
  6
HIDDEN
 10
428.530810592
 20
311.0396019373
 11
428.730810592
 21
311.0396019373
  0
LINE
  8
DEFAULT_2
 62
8
  6
HIDDEN
 10
428.530810592
 20
311.0629383953
 11
428.730810592
 21
311.0629383953
  0
LINE
  8
DEFAULT_2
 62
8
  6
HIDDEN
 10
428.530810592
 20
311.0704159362
 11
428.730810592
 21
311.0704159362
  0
LINE
  8
DEFAULT_2
 62
8
  6
HIDDEN
 10
433.530810592
 20
311.1033000526
 11
439.980810592
 21
311.1033000526
  0
LINE
  8
DEFAULT_2
 62
8
  6
HIDDEN
 10
450.280810592
 20
311.1033000526
 11
456.730810592
 21
311.1033000526
  0
LINE
  8
DEFAULT_2
 62
8
  6
HIDDEN
 10
428.530810592
 20
311.1793516357
 11
428.730810592
 21
311.1793516357
  0
LINE
  8
DEFAULT_2
 62
8
  6
HIDDEN
 10
428.530810592
 20
311.2280808311
 11
428.730810592
 21
311.2280808311
  0
LINE
  8
DEFAULT_2
 62
8
  6
HIDDEN
 10
428.530810592
 20
311.2621237974
 11
428.730810592
 21
311.2621237974
  0
LINE
  8
DEFAULT_2
 62
8
  6
HIDDEN
 10
428.530810592
 20
311.2822260254
 11
428.730810592
 21
311.2822260254
  0
LINE
  8
DEFAULT_2
 62
8
  6
HIDDEN
 10
428.530810592
 20
311.3261881918
 11
428.730810592
 21
311.3261881918
  0
LINE
  8
DEFAULT_2
 62
8
  6
HIDDEN
 10
428.530810592
 20
311.3715276306
 11
428.730810592
 21
311.3715276306
  0
LINE
  8
DEFAULT_2
 62
8
  6
HIDDEN
 10
428.530810592
 20
311.4015490112
 11
428.730810592
 21
311.4015490112
  0
LINE
  8
DEFAULT_2
 62
8
  6
HIDDEN
 10
428.530810592
 20
311.4091312226
 11
428.730810592
 21
311.4091312226
  0
LINE
  8
DEFAULT_2
 62
8
  6
HIDDEN
 10
428.530810592
 20
311.4210719595
 11
428.730810592
 21
311.4210719595
  0
LINE
  8
DEFAULT_2
 62
8
  6
HIDDEN
 10
428.530810592
 20
311.4242955864
 11
428.730810592
 21
311.4242955864
  0
LINE
  8
DEFAULT_2
 62
8
  6
HIDDEN
 10
428.530810592
 20
311.4360270413
 11
428.730810592
 21
311.4360270413
  0
LINE
  8
DEFAULT_2
 62
8
  6
HIDDEN
 10
428.530810592
 20
311.4468884635
 11
428.730810592
 21
311.4468884635
  0
LINE
  8
DEFAULT_2
 62
8
  6
HIDDEN
 10
428.530810592
 20
311.4627096844
 11
428.730810592
 21
311.4627096844
  0
LINE
  8
DEFAULT_2
 62
8
  6
HIDDEN
 10
428.530810592
 20
311.4776648017
 11
428.730810592
 21
311.4776648017
  0
LINE
  8
DEFAULT_2
 62
8
  6
HIDDEN
 10
428.530810592
 20
311.4819883079
 11
428.730810592
 21
311.4819883079
  0
LINE
  8
DEFAULT_2
 62
8
  6
HIDDEN
 10
428.530810592
 20
311.5224029811
 11
428.730810592
 21
311.5224029811
  0
LINE
  8
DEFAULT_2
 62
8
  6
HIDDEN
 10
428.530810592
 20
311.6425547912
 11
428.730810592
 21
311.6425547912
  0
LINE
  8
DEFAULT_2
 62
8
  6
HIDDEN
 10
428.530810592
 20
311.654246026
 11
428.730810592
 21
311.654246026
  0
LINE
  8
DEFAULT_2
 62
8
  6
HIDDEN
 10
428.530810592
 20
311.6694103504
 11
428.730810592
 21
311.6694103504
  0
LINE
  8
DEFAULT_2
 62
8
  6
HIDDEN
 10
428.530810592
 20
311.6941200408
 11
428.730810592
 21
311.6941200408
  0
LINE
  8
DEFAULT_2
 62
8
  6
HIDDEN
 10
428.530810592
 20
311.6958711224
 11
428.730810592
 21
311.6958711224
  0
LINE
  8
DEFAULT_2
 62
8
  6
HIDDEN
 10
428.530810592
 20
311.7450304927
 11
428.730810592
 21
311.7450304927
  0
LINE
  8
DEFAULT_2
 62
8
  6
HIDDEN
 10
428.530810592
 20
311.7745617367
 11
428.730810592
 21
311.7745617367
  0
LINE
  8
DEFAULT_2
 62
8
  6
HIDDEN
 10
428.530810592
 20
311.7786605079
 11
428.730810592
 21
311.7786605079
  0
LINE
  8
DEFAULT_2
 62
8
  6
HIDDEN
 10
428.530810592
 20
311.8202856577
 11
428.730810592
 21
311.8202856577
  0
LINE
  8
DEFAULT_2
 62
8
  6
HIDDEN
 10
428.530810592
 20
311.8770055157
 11
428.730810592
 21
311.8770055157
  0
LINE
  8
DEFAULT_2
 62
8
  6
HIDDEN
 10
428.530810592
 20
311.929535826
 11
428.730810592
 21
311.929535826
  0
LINE
  8
DEFAULT_2
 62
8
  6
HIDDEN
 10
428.530810592
 20
311.9433179765
 11
428.730810592
 21
311.9433179765
  0
LINE
  8
DEFAULT_2
 62
8
  6
HIDDEN
 10
428.530810592
 20
311.9625229721
 11
428.730810592
 21
311.9625229721
  0
LINE
  8
DEFAULT_2
 62
8
  6
HIDDEN
 10
428.530810592
 20
311.9635787888
 11
428.730810592
 21
311.9635787888
  0
LINE
  8
DEFAULT_2
 62
8
  6
HIDDEN
 10
428.530810592
 20
311.9984945166
 11
428.730810592
 21
311.9984945166
  0
LINE
  8
DEFAULT_2
 62
8
  6
HIDDEN
 10
428.530810592
 20
312.0729826309
 11
428.730810592
 21
312.0729826309
  0
LINE
  8
DEFAULT_2
 62
8
  6
HIDDEN
 10
428.530810592
 20
312.1415905068
 11
428.730810592
 21
312.1415905068
  0
LINE
  8
DEFAULT_2
 62
8
  6
HIDDEN
 10
428.530810592
 20
312.3293938423
 11
428.730810592
 21
312.3293938423
  0
LINE
  8
DEFAULT_2
 62
8
  6
HIDDEN
 10
428.530810592
 20
312.3341955292
 11
428.730810592
 21
312.3341955292
  0
LINE
  8
DEFAULT_2
 62
8
  6
HIDDEN
 10
428.530810592
 20
312.3521155083
 11
428.730810592
 21
312.3521155083
  0
LINE
  8
DEFAULT_2
 62
8
  6
HIDDEN
 10
428.530810592
 20
312.3918646383
 11
428.730810592
 21
312.3918646383
  0
LINE
  8
DEFAULT_2
 62
8
  6
HIDDEN
 10
428.530810592
 20
312.4772913772
 11
428.730810592
 21
312.4772913772
  0
LINE
  8
DEFAULT_2
 62
8
  6
HIDDEN
 10
428.530810592
 20
312.4840904558
 11
428.730810592
 21
312.4840904558
  0
LINE
  8
DEFAULT_2
 62
8
  6
HIDDEN
 10
428.530810592
 20
312.5132629927
 11
428.730810592
 21
312.5132629927
  0
LINE
  8
DEFAULT_2
 62
8
  6
HIDDEN
 10
428.530810592
 20
312.5324680595
 11
428.730810592
 21
312.5324680595
  0
LINE
  8
DEFAULT_2
 62
8
  6
HIDDEN
 10
428.530810592
 20
312.5524311216
 11
428.730810592
 21
312.5524311216
  0
LINE
  8
DEFAULT_2
 62
8
  6
HIDDEN
 10
433.530810592
 20
312.5881096728
 11
439.980810592
 21
312.5881096728
  0
LINE
  8
DEFAULT_2
 62
8
  6
HIDDEN
 10
450.280810592
 20
312.5881096728
 11
456.730810592
 21
312.5881096728
  0
LINE
  8
DEFAULT_2
 62
8
  6
HIDDEN
 10
428.530810592
 20
312.5997660696
 11
428.730810592
 21
312.5997660696
  0
LINE
  8
DEFAULT_2
 62
8
  6
HIDDEN
 10
428.530810592
 20
312.6713214243
 11
428.730810592
 21
312.6713214243
  0
LINE
  8
DEFAULT_2
 62
8
  6
HIDDEN
 10
428.530810592
 20
312.781665853
 11
428.730810592
 21
312.781665853
  0
LINE
  8
DEFAULT_2
 62
8
  6
HIDDEN
 10
428.530810592
 20
312.791009456
 11
428.730810592
 21
312.791009456
  0
LINE
  8
DEFAULT_2
 62
8
  6
HIDDEN
 10
428.530810592
 20
312.8966630045
 11
428.730810592
 21
312.8966630045
  0
LINE
  8
DEFAULT_2
 62
8
  6
HIDDEN
 10
428.530810592
 20
312.9116180863
 11
428.730810592
 21
312.9116180863
  0
LINE
  8
DEFAULT_2
 62
8
  6
HIDDEN
 10
428.530810592
 20
312.9833471657
 11
428.730810592
 21
312.9833471657
  0
LINE
  8
DEFAULT_2
 62
8
  6
HIDDEN
 10
428.530810592
 20
313.0547140764
 11
428.730810592
 21
313.0547140764
  0
LINE
  8
DEFAULT_2
 62
8
  6
HIDDEN
 10
428.530810592
 20
313.0921017809
 11
428.730810592
 21
313.0921017809
  0
LINE
  8
DEFAULT_2
 62
8
  6
HIDDEN
 10
428.530810592
 20
313.1949761705
 11
428.730810592
 21
313.1949761705
  0
LINE
  8
DEFAULT_2
 62
8
  6
HIDDEN
 10
428.530810592
 20
313.2740017065
 11
428.730810592
 21
313.2740017065
  0
LINE
  8
DEFAULT_2
 62
8
  6
HIDDEN
 10
428.530810592
 20
313.30391187
 11
428.730810592
 21
313.30391187
  0
LINE
  8
DEFAULT_2
 62
8
  6
HIDDEN
 10
428.530810592
 20
313.3113894109
 11
428.730810592
 21
313.3113894109
  0
LINE
  8
DEFAULT_2
 62
8
  6
HIDDEN
 10
428.530810592
 20
313.3726274031
 11
428.730810592
 21
313.3726274031
  0
LINE
  8
DEFAULT_2
 62
8
  6
HIDDEN
 10
428.530810592
 20
313.4213585019
 11
428.730810592
 21
313.4213585019
  0
LINE
  8
DEFAULT_2
 62
8
  6
HIDDEN
 10
428.530810592
 20
313.4292892037
 11
428.730810592
 21
313.4292892037
  0
LINE
  8
DEFAULT_2
 62
8
  6
HIDDEN
 10
428.530810592
 20
313.5185691851
 11
428.730810592
 21
313.5185691851
  0
LINE
  8
DEFAULT_2
 62
8
  6
HIDDEN
 10
428.530810592
 20
313.561823409
 11
428.730810592
 21
313.561823409
  0
LINE
  8
DEFAULT_2
 62
8
  6
HIDDEN
 10
428.530810592
 20
313.6246590927
 11
428.730810592
 21
313.6246590927
  0
LINE
  8
DEFAULT_2
 62
8
  6
HIDDEN
 10
428.530810592
 20
313.6307189686
 11
428.730810592
 21
313.6307189686
  0
LINE
  8
DEFAULT_2
 62
8
  6
HIDDEN
 10
428.530810592
 20
313.7873538094
 11
428.730810592
 21
313.7873538094
  0
LINE
  8
DEFAULT_2
 62
8
  6
HIDDEN
 10
428.530810592
 20
313.8150931036
 11
428.730810592
 21
313.8150931036
  0
LINE
  8
DEFAULT_2
 62
8
  6
HIDDEN
 10
428.530810592
 20
313.8275754099
 11
428.730810592
 21
313.8275754099
  0
LINE
  8
DEFAULT_2
 62
8
  6
HIDDEN
 10
428.530810592
 20
313.832219339
 11
428.730810592
 21
313.832219339
  0
LINE
  8
DEFAULT_2
 62
8
  6
HIDDEN
 10
428.530810592
 20
313.8425304917
 11
428.730810592
 21
313.8425304917
  0
LINE
  8
DEFAULT_2
 62
8
  6
HIDDEN
 10
428.530810592
 20
313.9030579518
 11
428.730810592
 21
313.9030579518
  0
LINE
  8
DEFAULT_2
 62
8
  6
HIDDEN
 10
428.530810592
 20
313.9659684217
 11
428.730810592
 21
313.9659684217
  0
LINE
  8
DEFAULT_2
 62
8
  6
HIDDEN
 10
428.530810592
 20
313.979045786
 11
428.730810592
 21
313.979045786
  0
LINE
  8
DEFAULT_2
 62
8
  6
HIDDEN
 10
428.530810592
 20
313.9842088168
 11
428.730810592
 21
313.9842088168
  0
LINE
  8
DEFAULT_2
 62
8
  6
HIDDEN
 10
428.530810592
 20
313.9888541799
 11
428.730810592
 21
313.9888541799
  0
LINE
  8
DEFAULT_2
 62
8
  6
HIDDEN
 10
428.530810592
 20
314.0749012365
 11
428.730810592
 21
314.0749012365
  0
LINE
  8
DEFAULT_2
 62
8
  6
HIDDEN
 10
428.530810592
 20
314.1679202094
 11
428.730810592
 21
314.1679202094
  0
LINE
  8
DEFAULT_2
 62
8
  6
HIDDEN
 10
428.530810592
 20
314.2439592158
 11
428.730810592
 21
314.2439592158
  0
LINE
  8
DEFAULT_2
 62
8
  6
HIDDEN
 10
428.530810592
 20
314.3074251367
 11
428.730810592
 21
314.3074251367
  0
LINE
  8
DEFAULT_2
 62
8
  6
HIDDEN
 10
428.530810592
 20
314.3558814449
 11
428.730810592
 21
314.3558814449
  0
LINE
  8
DEFAULT_2
 62
8
  6
HIDDEN
 10
428.530810592
 20
314.4049965331
 11
428.730810592
 21
314.4049965331
  0
LINE
  8
DEFAULT_2
 62
8
  6
HIDDEN
 10
428.530810592
 20
314.4394000843
 11
428.730810592
 21
314.4394000843
  0
LINE
  8
DEFAULT_2
 62
8
  6
HIDDEN
 10
428.530810592
 20
314.502571276
 11
428.730810592
 21
314.502571276
  0
LINE
  8
DEFAULT_2
 62
8
  6
HIDDEN
 10
428.530810592
 20
314.5222266112
 11
428.730810592
 21
314.5222266112
  0
LINE
  8
DEFAULT_2
 62
8
  6
HIDDEN
 10
433.530810592
 20
314.5644546518
 11
439.980810592
 21
314.5644546518
  0
LINE
  8
DEFAULT_2
 62
8
  6
HIDDEN
 10
450.280810592
 20
314.5644546518
 11
456.730810592
 21
314.5644546518
  0
LINE
  8
DEFAULT_2
 62
8
  6
HIDDEN
 10
428.530810592
 20
314.5694696833
 11
428.730810592
 21
314.5694696833
  0
LINE
  8
DEFAULT_2
 62
8
  6
HIDDEN
 10
428.530810592
 20
314.6180820616
 11
428.730810592
 21
314.6180820616
  0
LINE
  8
DEFAULT_2
 62
8
  6
HIDDEN
 10
428.530810592
 20
314.6527783799
 11
428.730810592
 21
314.6527783799
  0
LINE
  8
DEFAULT_2
 62
8
  6
HIDDEN
 10
428.530810592
 20
314.6556032874
 11
428.730810592
 21
314.6556032874
  0
LINE
  8
DEFAULT_2
 62
8
  6
HIDDEN
 10
428.530810592
 20
314.6630895326
 11
428.730810592
 21
314.6630895326
  0
LINE
  8
DEFAULT_2
 62
8
  6
HIDDEN
 10
428.530810592
 20
314.6677334616
 11
428.730810592
 21
314.6677334616
  0
LINE
  8
DEFAULT_2
 62
8
  6
HIDDEN
 10
428.530810592
 20
314.6780448986
 11
428.730810592
 21
314.6780448986
  0
LINE
  8
DEFAULT_2
 62
8
  6
HIDDEN
 10
428.530810592
 20
314.7203450338
 11
428.730810592
 21
314.7203450338
  0
LINE
  8
DEFAULT_2
 62
8
  6
HIDDEN
 10
428.530810592
 20
314.7616903502
 11
428.730810592
 21
314.7616903502
  0
LINE
  8
DEFAULT_2
 62
8
  6
HIDDEN
 10
428.530810592
 20
314.787578235
 11
428.730810592
 21
314.787578235
  0
LINE
  8
DEFAULT_2
 62
8
  6
HIDDEN
 10
428.530810592
 20
314.7912927371
 11
428.730810592
 21
314.7912927371
  0
LINE
  8
DEFAULT_2
 62
8
  6
HIDDEN
 10
428.530810592
 20
314.7955851763
 11
428.730810592
 21
314.7955851763
  0
LINE
  8
DEFAULT_2
 62
8
  6
HIDDEN
 10
428.530810592
 20
314.8482171562
 11
428.730810592
 21
314.8482171562
  0
LINE
  8
DEFAULT_2
 62
8
  6
HIDDEN
 10
428.530810592
 20
314.9030508446
 11
428.730810592
 21
314.9030508446
  0
LINE
  8
DEFAULT_2
 62
8
  6
HIDDEN
 10
428.530810592
 20
314.9142153476
 11
428.730810592
 21
314.9142153476
  0
LINE
  8
DEFAULT_2
 62
8
  6
HIDDEN
 10
428.530810592
 20
314.9197651513
 11
428.730810592
 21
314.9197651513
  0
LINE
  8
DEFAULT_2
 62
8
  6
HIDDEN
 10
428.530810592
 20
314.9275602749
 11
428.730810592
 21
314.9275602749
  0
LINE
  8
DEFAULT_2
 62
8
  6
HIDDEN
 10
428.530810592
 20
314.9432753793
 11
428.730810592
 21
314.9432753793
  0
LINE
  8
DEFAULT_2
 62
8
  6
HIDDEN
 10
428.530810592
 20
314.9486172633
 11
428.730810592
 21
314.9486172633
  0
LINE
  8
DEFAULT_2
 62
8
  6
HIDDEN
 10
428.530810592
 20
314.9532865544
 11
428.730810592
 21
314.9532865544
  0
LINE
  8
DEFAULT_2
 62
8
  6
HIDDEN
 10
428.530810592
 20
314.9960693016
 11
428.730810592
 21
314.9960693016
  0
LINE
  8
DEFAULT_2
 62
8
  6
HIDDEN
 10
428.530810592
 20
314.9987383324
 11
428.730810592
 21
314.9987383324
  0
LINE
  8
DEFAULT_2
 62
8
  6
HIDDEN
 10
428.530810592
 20
315.0030241812
 11
428.730810592
 21
315.0030241812
  0
LINE
  8
DEFAULT_2
 62
8
  6
HIDDEN
 10
428.530810592
 20
315.0287008508
 11
428.730810592
 21
315.0287008508
  0
LINE
  8
DEFAULT_2
 62
8
  6
HIDDEN
 10
428.530810592
 20
315.0361783917
 11
428.730810592
 21
315.0361783917
  0
LINE
  8
DEFAULT_2
 62
8
  6
HIDDEN
 10
428.530810592
 20
315.0381833538
 11
428.730810592
 21
315.0381833538
  0
LINE
  8
DEFAULT_2
 62
8
  6
HIDDEN
 10
428.530810592
 20
315.0447475671
 11
428.730810592
 21
315.0447475671
  0
LINE
  8
DEFAULT_2
 62
8
  6
HIDDEN
 10
433.530810592
 20
315.0538894889
 11
439.980810592
 21
315.0538894889
  0
LINE
  8
DEFAULT_2
 62
8
  6
HIDDEN
 10
450.280810592
 20
315.0538894889
 11
456.730810592
 21
315.0538894889
  0
LINE
  8
DEFAULT_2
 62
8
  6
HIDDEN
 10
428.530810592
 20
315.0729588839
 11
428.730810592
 21
315.0729588839
  0
LINE
  8
DEFAULT_2
 62
8
  6
HIDDEN
 10
428.530810592
 20
315.1077263867
 11
428.730810592
 21
315.1077263867
  0
LINE
  8
DEFAULT_2
 62
8
  6
HIDDEN
 10
428.530810592
 20
315.1204066201
 11
428.730810592
 21
315.1204066201
  0
LINE
  8
DEFAULT_2
 62
8
  6
HIDDEN
 10
428.530810592
 20
315.1287427784
 11
428.730810592
 21
315.1287427784
  0
LINE
  8
DEFAULT_2
 62
8
  6
HIDDEN
 10
428.530810592
 20
315.1643412067
 11
428.730810592
 21
315.1643412067
  0
LINE
  8
DEFAULT_2
 62
8
  6
HIDDEN
 10
428.530810592
 20
315.1701583769
 11
428.730810592
 21
315.1701583769
  0
LINE
  8
DEFAULT_2
 62
8
  6
HIDDEN
 10
428.530810592
 20
315.1992223066
 11
428.730810592
 21
315.1992223066
  0
LINE
  8
DEFAULT_2
 62
8
  6
HIDDEN
 10
428.530810592
 20
315.2084411969
 11
428.730810592
 21
315.2084411969
  0
LINE
  8
DEFAULT_2
 62
8
  6
HIDDEN
 10
428.530810592
 20
315.2098982787
 11
428.730810592
 21
315.2098982787
  0
LINE
  8
DEFAULT_2
 62
8
  6
HIDDEN
 10
428.530810592
 20
315.2149221114
 11
428.730810592
 21
315.2149221114
  0
LINE
  8
DEFAULT_2
 62
8
  6
HIDDEN
 10
428.530810592
 20
315.2261538004
 11
428.730810592
 21
315.2261538004
  0
LINE
  8
DEFAULT_2
 62
8
  6
HIDDEN
 10
428.530810592
 20
315.289658918
 11
428.730810592
 21
315.289658918
  0
LINE
  8
DEFAULT_2
 62
8
  6
HIDDEN
 10
428.530810592
 20
315.3233827975
 11
428.730810592
 21
315.3233827975
  0
LINE
  8
DEFAULT_2
 62
8
  6
HIDDEN
 10
428.530810592
 20
315.3319263227
 11
428.730810592
 21
315.3319263227
  0
LINE
  8
DEFAULT_2
 62
8
  6
HIDDEN
 10
428.530810592
 20
315.3629303657
 11
428.730810592
 21
315.3629303657
  0
LINE
  8
DEFAULT_2
 62
8
  6
HIDDEN
 10
428.530810592
 20
315.3660061503
 11
428.730810592
 21
315.3660061503
  0
LINE
  8
DEFAULT_2
 62
8
  6
HIDDEN
 10
428.530810592
 20
315.3790453153
 11
428.730810592
 21
315.3790453153
  0
LINE
  8
DEFAULT_2
 62
8
  6
HIDDEN
 10
428.530810592
 20
315.3868357779
 11
428.730810592
 21
315.3868357779
  0
LINE
  8
DEFAULT_2
 62
8
  6
HIDDEN
 10
428.530810592
 20
315.4002971872
 11
428.730810592
 21
315.4002971872
  0
LINE
  8
DEFAULT_2
 62
8
  6
HIDDEN
 10
428.530810592
 20
315.4077133732
 11
428.730810592
 21
315.4077133732
  0
LINE
  8
DEFAULT_2
 62
8
  6
HIDDEN
 10
428.530810592
 20
315.4169325392
 11
428.730810592
 21
315.4169325392
  0
LINE
  8
DEFAULT_2
 62
8
  6
HIDDEN
 10
428.530810592
 20
315.4195784035
 11
428.730810592
 21
315.4195784035
  0
LINE
  8
DEFAULT_2
 62
8
  6
HIDDEN
 10
428.530810592
 20
315.4319751334
 11
428.730810592
 21
315.4319751334
  0
LINE
  8
DEFAULT_2
 62
8
  6
HIDDEN
 10
428.530810592
 20
315.458578911
 11
428.730810592
 21
315.458578911
  0
LINE
  8
DEFAULT_2
 62
8
  6
HIDDEN
 10
428.530810592
 20
315.4895674027
 11
428.730810592
 21
315.4895674027
  0
LINE
  8
DEFAULT_2
 62
8
  6
HIDDEN
 10
428.530810592
 20
315.499079539
 11
428.730810592
 21
315.499079539
  0
LINE
  8
DEFAULT_2
 62
8
  6
HIDDEN
 10
428.530810592
 20
315.5051180597
 11
428.730810592
 21
315.5051180597
  0
LINE
  8
DEFAULT_2
 62
8
  6
HIDDEN
 10
428.530810592
 20
315.5121427902
 11
428.730810592
 21
315.5121427902
  0
LINE
  8
DEFAULT_2
 62
8
  6
HIDDEN
 10
428.530810592
 20
315.5132934219
 11
428.730810592
 21
315.5132934219
  0
LINE
  8
DEFAULT_2
 62
8
  6
HIDDEN
 10
428.530810592
 20
315.5170815115
 11
428.730810592
 21
315.5170815115
  0
LINE
  8
DEFAULT_2
 62
8
  6
HIDDEN
 10
428.530810592
 20
315.537709069
 11
428.730810592
 21
315.537709069
  0
LINE
  8
DEFAULT_2
 62
8
  6
HIDDEN
 10
428.530810592
 20
315.5526549958
 11
428.730810592
 21
315.5526549958
  0
LINE
  8
DEFAULT_2
 62
8
  6
HIDDEN
 10
428.530810592
 20
315.5673194725
 11
428.730810592
 21
315.5673194725
  0
LINE
  8
DEFAULT_2
 62
8
  6
HIDDEN
 10
428.530810592
 20
315.5990527485
 11
428.730810592
 21
315.5990527485
  0
LINE
  8
DEFAULT_2
 62
8
  6
HIDDEN
 10
428.530810592
 20
315.6032471537
 11
428.730810592
 21
315.6032471537
  0
LINE
  8
DEFAULT_2
 62
8
  6
HIDDEN
 10
428.530810592
 20
315.6125247275
 11
428.730810592
 21
315.6125247275
  0
LINE
  8
DEFAULT_2
 62
8
  6
HIDDEN
 10
428.530810592
 20
315.6376824056
 11
428.730810592
 21
315.6376824056
  0
LINE
  8
DEFAULT_2
 62
8
  6
HIDDEN
 10
428.530810592
 20
315.6781595913
 11
428.730810592
 21
315.6781595913
  0
LINE
  8
DEFAULT_2
 62
8
  6
HIDDEN
 10
428.530810592
 20
315.707761969
 11
428.730810592
 21
315.707761969
  0
LINE
  8
DEFAULT_2
 62
8
  6
HIDDEN
 10
428.530810592
 20
315.7198154164
 11
428.730810592
 21
315.7198154164
  0
LINE
  8
DEFAULT_2
 62
8
  6
HIDDEN
 10
428.530810592
 20
315.7772810938
 11
428.730810592
 21
315.7772810938
  0
LINE
  8
DEFAULT_2
 62
8
  6
HIDDEN
 10
428.530810592
 20
315.7815623608
 11
428.730810592
 21
315.7815623608
  0
LINE
  8
DEFAULT_2
 62
8
  6
HIDDEN
 10
428.530810592
 20
315.7878914428
 11
428.730810592
 21
315.7878914428
  0
LINE
  8
DEFAULT_2
 62
8
  6
HIDDEN
 10
428.530810592
 20
315.8166149093
 11
428.730810592
 21
315.8166149093
  0
LINE
  8
DEFAULT_2
 62
8
  6
HIDDEN
 10
428.530810592
 20
315.831172826
 11
428.730810592
 21
315.831172826
  0
LINE
  8
DEFAULT_2
 62
8
  6
HIDDEN
 10
428.530810592
 20
315.8367704449
 11
428.730810592
 21
315.8367704449
  0
LINE
  8
DEFAULT_2
 62
8
  6
HIDDEN
 10
428.530810592
 20
315.8543113891
 11
428.730810592
 21
315.8543113891
  0
LINE
  8
DEFAULT_2
 62
8
  6
HIDDEN
 10
428.530810592
 20
315.8611150169
 11
428.730810592
 21
315.8611150169
  0
LINE
  8
DEFAULT_2
 62
8
  6
HIDDEN
 10
428.530810592
 20
315.8878647795
 11
428.730810592
 21
315.8878647795
  0
LINE
  8
DEFAULT_2
 62
8
  6
HIDDEN
 10
428.530810592
 20
315.8962944201
 11
428.730810592
 21
315.8962944201
  0
LINE
  8
DEFAULT_2
 62
8
  6
HIDDEN
 10
428.530810592
 20
315.8999687072
 11
428.730810592
 21
315.8999687072
  0
LINE
  8
DEFAULT_2
 62
8
  6
HIDDEN
 10
428.530810592
 20
315.901479773
 11
428.730810592
 21
315.901479773
  0
LINE
  8
DEFAULT_2
 62
8
  6
HIDDEN
 10
428.530810592
 20
315.9844706386
 11
428.730810592
 21
315.9844706386
  0
LINE
  8
DEFAULT_2
 62
8
  6
HIDDEN
 10
428.530810592
 20
316.0180601486
 11
428.730810592
 21
316.0180601486
  0
LINE
  8
DEFAULT_2
 62
8
  6
HIDDEN
 10
428.530810592
 20
316.0225187918
 11
428.730810592
 21
316.0225187918
  0
LINE
  8
DEFAULT_2
 62
8
  6
HIDDEN
 10
428.530810592
 20
316.0246933447
 11
428.730810592
 21
316.0246933447
  0
LINE
  8
DEFAULT_2
 62
8
  6
HIDDEN
 10
428.530810592
 20
316.0327686792
 11
428.730810592
 21
316.0327686792
  0
LINE
  8
DEFAULT_2
 62
8
  6
HIDDEN
 10
428.530810592
 20
316.0548916946
 11
428.730810592
 21
316.0548916946
  0
LINE
  8
DEFAULT_2
 62
8
  6
HIDDEN
 10
428.530810592
 20
316.0713644111
 11
428.730810592
 21
316.0713644111
  0
LINE
  8
DEFAULT_2
 62
8
  6
HIDDEN
 10
428.530810592
 20
316.0723939567
 11
428.730810592
 21
316.0723939567
  0
LINE
  8
DEFAULT_2
 62
8
  6
HIDDEN
 10
428.530810592
 20
316.0880196389
 11
428.730810592
 21
316.0880196389
  0
LINE
  8
DEFAULT_2
 62
8
  6
HIDDEN
 10
428.530810592
 20
316.1041586704
 11
428.730810592
 21
316.1041586704
  0
LINE
  8
DEFAULT_2
 62
8
  6
HIDDEN
 10
428.530810592
 20
316.1243367963
 11
428.730810592
 21
316.1243367963
  0
LINE
  8
DEFAULT_2
 62
8
  6
HIDDEN
 10
428.530810592
 20
316.1258645142
 11
428.730810592
 21
316.1258645142
  0
LINE
  8
DEFAULT_2
 62
8
  6
HIDDEN
 10
428.530810592
 20
316.1478140677
 11
428.730810592
 21
316.1478140677
  0
LINE
  8
DEFAULT_2
 62
8
  6
HIDDEN
 10
428.530810592
 20
316.1702557749
 11
428.730810592
 21
316.1702557749
  0
LINE
  8
DEFAULT_2
 62
8
  6
HIDDEN
 10
428.530810592
 20
316.2363062225
 11
428.730810592
 21
316.2363062225
  0
LINE
  8
DEFAULT_2
 62
8
  6
HIDDEN
 10
428.530810592
 20
316.3049618398
 11
428.730810592
 21
316.3049618398
  0
LINE
  8
DEFAULT_2
 62
8
  6
HIDDEN
 10
428.530810592
 20
316.307862199
 11
428.730810592
 21
316.307862199
  0
LINE
  8
DEFAULT_2
 62
8
  6
HIDDEN
 10
428.530810592
 20
316.3612057334
 11
428.730810592
 21
316.3612057334
  0
LINE
  8
DEFAULT_2
 62
8
  6
HIDDEN
 10
428.530810592
 20
316.3729228721
 11
428.730810592
 21
316.3729228721
  0
LINE
  8
DEFAULT_2
 62
8
  6
HIDDEN
 10
428.530810592
 20
316.3919849231
 11
428.730810592
 21
316.3919849231
  0
LINE
  8
DEFAULT_2
 62
8
  6
HIDDEN
 10
428.530810592
 20
316.4032671782
 11
428.730810592
 21
316.4032671782
  0
LINE
  8
DEFAULT_2
 62
8
  6
HIDDEN
 10
428.530810592
 20
316.417742393
 11
428.730810592
 21
316.417742393
  0
LINE
  8
DEFAULT_2
 62
8
  6
HIDDEN
 10
428.530810592
 20
316.4278546245
 11
428.730810592
 21
316.4278546245
  0
LINE
  8
DEFAULT_2
 62
8
  6
HIDDEN
 10
428.530810592
 20
316.4381423713
 11
428.730810592
 21
316.4381423713
  0
LINE
  8
DEFAULT_2
 62
8
  6
HIDDEN
 10
428.530810592
 20
316.4553112173
 11
428.730810592
 21
316.4553112173
  0
LINE
  8
DEFAULT_2
 62
8
  6
HIDDEN
 10
428.530810592
 20
316.4843912841
 11
428.730810592
 21
316.4843912841
  0
LINE
  8
DEFAULT_2
 62
8
  6
HIDDEN
 10
428.530810592
 20
316.4872190324
 11
428.730810592
 21
316.4872190324
  0
LINE
  8
DEFAULT_2
 62
8
  6
HIDDEN
 10
428.530810592
 20
316.5399969596
 11
428.730810592
 21
316.5399969596
  0
LINE
  8
DEFAULT_2
 62
8
  6
HIDDEN
 10
428.530810592
 20
316.6197532377
 11
428.730810592
 21
316.6197532377
  0
LINE
  8
DEFAULT_2
 62
8
  6
HIDDEN
 10
428.530810592
 20
316.6298838065
 11
428.730810592
 21
316.6298838065
  0
LINE
  8
DEFAULT_2
 62
8
  6
HIDDEN
 10
433.530810592
 20
316.687343991
 11
439.980810592
 21
316.687343991
  0
LINE
  8
DEFAULT_2
 62
8
  6
HIDDEN
 10
450.280810592
 20
316.687343991
 11
456.730810592
 21
316.687343991
  0
LINE
  8
DEFAULT_2
 62
8
  6
HIDDEN
 10
428.530810592
 20
316.6978447644
 11
428.730810592
 21
316.6978447644
  0
LINE
  8
DEFAULT_2
 62
8
  6
HIDDEN
 10
428.530810592
 20
316.7089169526
 11
428.730810592
 21
316.7089169526
  0
LINE
  8
DEFAULT_2
 62
8
  6
HIDDEN
 10
428.530810592
 20
316.7423466713
 11
428.730810592
 21
316.7423466713
  0
LINE
  8
DEFAULT_2
 62
8
  6
HIDDEN
 10
428.530810592
 20
316.821198477
 11
428.730810592
 21
316.821198477
  0
LINE
  8
DEFAULT_2
 62
8
  6
HIDDEN
 10
428.530810592
 20
316.9537326824
 11
428.730810592
 21
316.9537326824
  0
LINE
  8
DEFAULT_2
 62
8
  6
HIDDEN
 10
428.530810592
 20
316.9564357241
 11
428.730810592
 21
316.9564357241
  0
LINE
  8
DEFAULT_2
 62
8
  6
HIDDEN
 10
428.530810592
 20
316.995944886
 11
428.730810592
 21
316.995944886
  0
LINE
  8
DEFAULT_2
 62
8
  6
HIDDEN
 10
428.530810592
 20
317.0163962742
 11
428.730810592
 21
317.0163962742
  0
LINE
  8
DEFAULT_2
 62
8
  6
HIDDEN
 10
428.530810592
 20
317.0198299675
 11
428.730810592
 21
317.0198299675
  0
LINE
  8
DEFAULT_2
 62
8
  6
HIDDEN
 10
428.530810592
 20
317.0382122906
 11
428.730810592
 21
317.0382122906
  0
LINE
  8
DEFAULT_2
 62
8
  6
HIDDEN
 10
428.530810592
 20
317.1395179993
 11
428.730810592
 21
317.1395179993
  0
LINE
  8
DEFAULT_2
 62
8
  6
HIDDEN
 10
428.530810592
 20
317.1608029895
 11
428.730810592
 21
317.1608029895
  0
LINE
  8
DEFAULT_2
 62
8
  6
HIDDEN
 10
428.530810592
 20
317.2058382529
 11
428.730810592
 21
317.2058382529
  0
LINE
  8
DEFAULT_2
 62
8
  6
HIDDEN
 10
428.530810592
 20
317.3033199097
 11
428.730810592
 21
317.3033199097
  0
LINE
  8
DEFAULT_2
 62
8
  6
HIDDEN
 10
428.530810592
 20
317.3285775501
 11
428.730810592
 21
317.3285775501
  0
LINE
  8
DEFAULT_2
 62
8
  6
HIDDEN
 10
428.530810592
 20
317.3760689381
 11
428.730810592
 21
317.3760689381
  0
LINE
  8
DEFAULT_2
 62
8
  6
HIDDEN
 10
428.530810592
 20
317.448072844
 11
428.730810592
 21
317.448072844
  0
LINE
  8
DEFAULT_2
 62
8
  6
HIDDEN
 10
428.530810592
 20
317.4729842654
 11
428.730810592
 21
317.4729842654
  0
LINE
  8
DEFAULT_2
 62
8
  6
HIDDEN
 10
428.530810592
 20
317.4903402487
 11
428.730810592
 21
317.4903402487
  0
LINE
  8
DEFAULT_2
 62
8
  6
HIDDEN
 10
428.530810592
 20
317.494237545
 11
428.730810592
 21
317.494237545
  0
LINE
  8
DEFAULT_2
 62
8
  6
HIDDEN
 10
428.530810592
 20
317.5282041665
 11
428.730810592
 21
317.5282041665
  0
LINE
  8
DEFAULT_2
 62
8
  6
HIDDEN
 10
428.530810592
 20
317.5375094869
 11
428.730810592
 21
317.5375094869
  0
LINE
  8
DEFAULT_2
 62
8
  6
HIDDEN
 10
428.530810592
 20
317.6152765637
 11
428.730810592
 21
317.6152765637
  0
LINE
  8
DEFAULT_2
 62
8
  6
HIDDEN
 10
428.530810592
 20
317.6571975187
 11
428.730810592
 21
317.6571975187
  0
LINE
  8
DEFAULT_2
 62
8
  6
HIDDEN
 10
428.530810592
 20
317.7035674683
 11
428.730810592
 21
317.7035674683
  0
LINE
  8
DEFAULT_2
 62
8
  6
HIDDEN
 10
433.530810592
 20
317.7444710512
 11
439.980810592
 21
317.7444710512
  0
LINE
  8
DEFAULT_2
 62
8
  6
HIDDEN
 10
450.280810592
 20
317.7444710512
 11
456.730810592
 21
317.7444710512
  0
LINE
  8
DEFAULT_2
 62
8
  6
HIDDEN
 10
428.530810592
 20
317.7773681821
 11
428.730810592
 21
317.7773681821
  0
LINE
  8
DEFAULT_2
 62
8
  6
HIDDEN
 10
428.530810592
 20
317.7957602513
 11
428.730810592
 21
317.7957602513
  0
LINE
  8
DEFAULT_2
 62
8
  6
HIDDEN
 10
428.530810592
 20
317.8786081724
 11
428.730810592
 21
317.8786081724
  0
LINE
  8
DEFAULT_2
 62
8
  6
HIDDEN
 10
428.530810592
 20
317.9179755478
 11
428.730810592
 21
317.9179755478
  0
LINE
  8
DEFAULT_2
 62
8
  6
HIDDEN
 10
428.530810592
 20
317.946288175
 11
428.730810592
 21
317.946288175
  0
LINE
  8
DEFAULT_2
 62
8
  6
HIDDEN
 10
428.530810592
 20
317.9609360579
 11
428.730810592
 21
317.9609360579
  0
LINE
  8
DEFAULT_2
 62
8
  6
HIDDEN
 10
428.530810592
 20
317.9720509522
 11
428.730810592
 21
317.9720509522
  0
LINE
  8
DEFAULT_2
 62
8
  6
HIDDEN
 10
428.530810592
 20
318.0043879169
 11
428.730810592
 21
318.0043879169
  0
LINE
  8
DEFAULT_2
 62
8
  6
HIDDEN
 10
428.530810592
 20
318.0309737695
 11
428.730810592
 21
318.0309737695
  0
LINE
  8
DEFAULT_2
 62
8
  6
HIDDEN
 10
428.530810592
 20
318.071036808
 11
428.730810592
 21
318.071036808
  0
LINE
  8
DEFAULT_2
 62
8
  6
HIDDEN
 10
428.530810592
 20
318.0909758456
 11
428.730810592
 21
318.0909758456
  0
LINE
  8
DEFAULT_2
 62
8
  6
HIDDEN
 10
428.530810592
 20
318.0943000636
 11
428.730810592
 21
318.0943000636
  0
LINE
  8
DEFAULT_2
 62
8
  6
HIDDEN
 10
428.530810592
 20
318.1313405645
 11
428.730810592
 21
318.1313405645
  0
LINE
  8
DEFAULT_2
 62
8
  6
HIDDEN
 10
428.530810592
 20
318.2523795832
 11
428.730810592
 21
318.2523795832
  0
LINE
  8
DEFAULT_2
 62
8
  6
HIDDEN
 10
428.530810592
 20
318.262828437
 11
428.730810592
 21
318.262828437
  0
LINE
  8
DEFAULT_2
 62
8
  6
HIDDEN
 10
428.530810592
 20
318.3198097619
 11
428.730810592
 21
318.3198097619
  0
LINE
  8
DEFAULT_2
 62
8
  6
HIDDEN
 10
428.530810592
 20
318.3604207683
 11
428.730810592
 21
318.3604207683
  0
LINE
  8
DEFAULT_2
 62
8
  6
HIDDEN
 10
428.530810592
 20
318.3776748592
 11
428.730810592
 21
318.3776748592
  0
LINE
  8
DEFAULT_2
 62
8
  6
HIDDEN
 10
428.530810592
 20
318.3982653479
 11
428.730810592
 21
318.3982653479
  0
LINE
  8
DEFAULT_2
 62
8
  6
HIDDEN
 10
428.530810592
 20
318.4481123692
 11
428.730810592
 21
318.4481123692
  0
LINE
  8
DEFAULT_2
 62
8
  6
HIDDEN
 10
428.530810592
 20
318.461591642
 11
428.730810592
 21
318.461591642
  0
LINE
  8
DEFAULT_2
 62
8
  6
HIDDEN
 10
428.530810592
 20
318.5052503477
 11
428.730810592
 21
318.5052503477
  0
LINE
  8
DEFAULT_2
 62
8
  6
HIDDEN
 10
428.530810592
 20
318.5348226313
 11
428.730810592
 21
318.5348226313
  0
LINE
  8
DEFAULT_2
 62
8
  6
HIDDEN
 10
428.530810592
 20
318.5443781113
 11
428.730810592
 21
318.5443781113
  0
LINE
  8
DEFAULT_2
 62
8
  6
HIDDEN
 10
428.530810592
 20
318.6027835892
 11
428.730810592
 21
318.6027835892
  0
LINE
  8
DEFAULT_2
 62
8
  6
HIDDEN
 10
428.530810592
 20
318.6789189106
 11
428.730810592
 21
318.6789189106
  0
LINE
  8
DEFAULT_2
 62
8
  6
HIDDEN
 10
428.530810592
 20
318.7277601527
 11
428.730810592
 21
318.7277601527
  0
LINE
  8
DEFAULT_2
 62
8
  6
HIDDEN
 10
428.530810592
 20
318.7657074275
 11
428.730810592
 21
318.7657074275
  0
LINE
  8
DEFAULT_2
 62
8
  6
HIDDEN
 10
428.530810592
 20
318.7785232396
 11
428.730810592
 21
318.7785232396
  0
LINE
  8
DEFAULT_2
 62
8
  6
HIDDEN
 10
428.530810592
 20
318.7940621244
 11
428.730810592
 21
318.7940621244
  0
LINE
  8
DEFAULT_2
 62
8
  6
HIDDEN
 10
428.530810592
 20
318.8081256173
 11
428.730810592
 21
318.8081256173
  0
LINE
  8
DEFAULT_2
 62
8
  6
HIDDEN
 10
428.530810592
 20
318.8189115814
 11
428.730810592
 21
318.8189115814
  0
LINE
  8
DEFAULT_2
 62
8
  6
HIDDEN
 10
428.530810592
 20
318.8447959315
 11
428.730810592
 21
318.8447959315
  0
LINE
  8
DEFAULT_2
 62
8
  6
HIDDEN
 10
428.530810592
 20
318.8597445236
 11
428.730810592
 21
318.8597445236
  0
LINE
  8
DEFAULT_2
 62
8
  6
HIDDEN
 10
428.530810592
 20
318.8910344859
 11
428.730810592
 21
318.8910344859
  0
LINE
  8
DEFAULT_2
 62
8
  6
HIDDEN
 10
428.530810592
 20
318.9277054815
 11
428.730810592
 21
318.9277054815
  0
LINE
  8
DEFAULT_2
 62
8
  6
HIDDEN
 10
428.530810592
 20
318.939875728
 11
428.730810592
 21
318.939875728
  0
LINE
  8
DEFAULT_2
 62
8
  6
HIDDEN
 10
428.530810592
 20
318.9811671489
 11
428.730810592
 21
318.9811671489
  0
LINE
  8
DEFAULT_2
 62
8
  6
HIDDEN
 10
428.530810592
 20
318.9896998843
 11
428.730810592
 21
318.9896998843
  0
LINE
  8
DEFAULT_2
 62
8
  6
HIDDEN
 10
428.530810592
 20
319.0277062977
 11
428.730810592
 21
319.0277062977
  0
LINE
  8
DEFAULT_2
 62
8
  6
HIDDEN
 10
428.530810592
 20
319.0896730938
 11
428.730810592
 21
319.0896730938
  0
LINE
  8
DEFAULT_2
 62
8
  6
HIDDEN
 10
428.530810592
 20
319.1002835169
 11
428.730810592
 21
319.1002835169
  0
LINE
  8
DEFAULT_2
 62
8
  6
HIDDEN
 10
428.530810592
 20
319.1352405101
 11
428.730810592
 21
319.1352405101
  0
LINE
  8
DEFAULT_2
 62
8
  6
HIDDEN
 10
428.530810592
 20
319.1400731547
 11
428.730810592
 21
319.1400731547
  0
LINE
  8
DEFAULT_2
 62
8
  6
HIDDEN
 10
428.530810592
 20
319.1543588859
 11
428.730810592
 21
319.1543588859
  0
LINE
  8
DEFAULT_2
 62
8
  6
HIDDEN
 10
428.530810592
 20
319.1627521687
 11
428.730810592
 21
319.1627521687
  0
LINE
  8
DEFAULT_2
 62
8
  6
HIDDEN
 10
428.530810592
 20
319.1755054189
 11
428.730810592
 21
319.1755054189
  0
LINE
  8
DEFAULT_2
 62
8
  6
HIDDEN
 10
428.530810592
 20
319.1966262906
 11
428.730810592
 21
319.1966262906
  0
LINE
  8
DEFAULT_2
 62
8
  6
HIDDEN
 10
428.530810592
 20
319.239882131
 11
428.730810592
 21
319.239882131
  0
LINE
  8
DEFAULT_2
 62
8
  6
HIDDEN
 10
428.530810592
 20
319.2743288109
 11
428.730810592
 21
319.2743288109
  0
LINE
  8
DEFAULT_2
 62
8
  6
HIDDEN
 10
428.530810592
 20
319.2785117881
 11
428.730810592
 21
319.2785117881
  0
LINE
  8
DEFAULT_2
 62
8
  6
HIDDEN
 10
428.530810592
 20
319.2844801675
 11
428.730810592
 21
319.2844801675
  0
LINE
  8
DEFAULT_2
 62
8
  6
HIDDEN
 10
428.530810592
 20
319.3033127472
 11
428.730810592
 21
319.3033127472
  0
LINE
  8
DEFAULT_2
 62
8
  6
HIDDEN
 10
428.530810592
 20
319.3234051251
 11
428.730810592
 21
319.3234051251
  0
LINE
  8
DEFAULT_2
 62
8
  6
HIDDEN
 10
428.530810592
 20
319.3398554677
 11
428.730810592
 21
319.3398554677
  0
LINE
  8
DEFAULT_2
 62
8
  6
HIDDEN
 10
428.530810592
 20
319.3784851248
 11
428.730810592
 21
319.3784851248
  0
LINE
  8
DEFAULT_2
 62
8
  6
HIDDEN
 10
428.530810592
 20
319.4371330755
 11
428.730810592
 21
319.4371330755
  0
LINE
  8
DEFAULT_2
 62
8
  6
HIDDEN
 10
428.530810592
 20
319.4415376046
 11
428.730810592
 21
319.4415376046
  0
LINE
  8
DEFAULT_2
 62
8
  6
HIDDEN
 10
428.530810592
 20
319.4522545793
 11
428.730810592
 21
319.4522545793
  0
LINE
  8
DEFAULT_2
 62
8
  6
HIDDEN
 10
428.530810592
 20
319.4572378695
 11
428.730810592
 21
319.4572378695
  0
LINE
  8
DEFAULT_2
 62
8
  6
HIDDEN
 10
428.530810592
 20
319.5108647102
 11
428.730810592
 21
319.5108647102
  0
LINE
  8
DEFAULT_2
 62
8
  6
HIDDEN
 10
428.530810592
 20
319.5430097646
 11
428.730810592
 21
319.5430097646
  0
LINE
  8
DEFAULT_2
 62
8
  6
HIDDEN
 10
428.530810592
 20
319.5920319567
 11
428.730810592
 21
319.5920319567
  0
LINE
  8
DEFAULT_2
 62
8
  6
HIDDEN
 10
428.530810592
 20
319.5966612946
 11
428.730810592
 21
319.5966612946
  0
LINE
  8
DEFAULT_2
 62
8
  6
HIDDEN
 10
428.530810592
 20
319.6179145742
 11
428.730810592
 21
319.6179145742
  0
LINE
  8
DEFAULT_2
 62
8
  6
HIDDEN
 10
428.530810592
 20
319.6248277327
 11
428.730810592
 21
319.6248277327
  0
LINE
  8
DEFAULT_2
 62
8
  6
HIDDEN
 10
428.530810592
 20
319.6518811957
 11
428.730810592
 21
319.6518811957
  0
LINE
  8
DEFAULT_2
 62
8
  6
HIDDEN
 10
428.530810592
 20
319.6576235086
 11
428.730810592
 21
319.6576235086
  0
LINE
  8
DEFAULT_2
 62
8
  6
HIDDEN
 10
428.530810592
 20
319.6699936745
 11
428.730810592
 21
319.6699936745
  0
LINE
  8
DEFAULT_2
 62
8
  6
HIDDEN
 10
428.530810592
 20
319.6901842125
 11
428.730810592
 21
319.6901842125
  0
LINE
  8
DEFAULT_2
 62
8
  6
HIDDEN
 10
428.530810592
 20
319.6949924068
 11
428.730810592
 21
319.6949924068
  0
LINE
  8
DEFAULT_2
 62
8
  6
HIDDEN
 10
428.530810592
 20
319.7132232651
 11
428.730810592
 21
319.7132232651
  0
LINE
  8
DEFAULT_2
 62
8
  6
HIDDEN
 10
428.530810592
 20
319.7245947845
 11
428.730810592
 21
319.7245947845
  0
LINE
  8
DEFAULT_2
 62
8
  6
HIDDEN
 10
428.530810592
 20
319.738953593
 11
428.730810592
 21
319.738953593
  0
LINE
  8
DEFAULT_2
 62
8
  6
HIDDEN
 10
428.530810592
 20
319.7571578795
 11
428.730810592
 21
319.7571578795
  0
LINE
  8
DEFAULT_2
 62
8
  6
HIDDEN
 10
428.530810592
 20
319.7801963854
 11
428.730810592
 21
319.7801963854
  0
LINE
  8
DEFAULT_2
 62
8
  6
HIDDEN
 10
428.530810592
 20
319.8745402813
 11
428.730810592
 21
319.8745402813
  0
LINE
  8
DEFAULT_2
 62
8
  6
HIDDEN
 10
428.530810592
 20
319.8996119892
 11
428.730810592
 21
319.8996119892
  0
LINE
  8
DEFAULT_2
 62
8
  6
HIDDEN
 10
428.530810592
 20
319.9242779175
 11
428.730810592
 21
319.9242779175
  0
LINE
  8
DEFAULT_2
 62
8
  6
HIDDEN
 10
428.530810592
 20
319.974513618
 11
428.730810592
 21
319.974513618
  0
LINE
  8
DEFAULT_2
 62
8
  6
HIDDEN
 10
428.530810592
 20
319.9837016229
 11
428.730810592
 21
319.9837016229
  0
LINE
  8
DEFAULT_2
 62
8
  6
HIDDEN
 10
428.530810592
 20
320.0022852016
 11
428.730810592
 21
320.0022852016
  0
LINE
  8
DEFAULT_2
 62
8
  6
HIDDEN
 10
428.530810592
 20
320.0183691581
 11
428.730810592
 21
320.0183691581
  0
LINE
  8
DEFAULT_2
 62
8
  6
HIDDEN
 10
428.530810592
 20
320.0248727401
 11
428.730810592
 21
320.0248727401
  0
LINE
  8
DEFAULT_2
 62
8
  6
HIDDEN
 10
428.530810592
 20
320.1632561973
 11
428.730810592
 21
320.1632561973
  0
LINE
  8
DEFAULT_2
 62
8
  6
HIDDEN
 10
428.530810592
 20
320.1797716213
 11
428.730810592
 21
320.1797716213
  0
LINE
  8
DEFAULT_2
 62
8
  6
HIDDEN
 10
433.530810592
 20
320.1896361711
 11
439.980810592
 21
320.1896361711
  0
LINE
  8
DEFAULT_2
 62
8
  6
HIDDEN
 10
450.280810592
 20
320.1896361711
 11
456.730810592
 21
320.1896361711
  0
LINE
  8
DEFAULT_2
 62
8
  6
HIDDEN
 10
428.530810592
 20
320.2123323252
 11
428.730810592
 21
320.2123323252
  0
LINE
  8
DEFAULT_2
 62
8
  6
HIDDEN
 10
428.530810592
 20
320.216794715
 11
428.730810592
 21
320.216794715
  0
LINE
  8
DEFAULT_2
 62
8
  6
HIDDEN
 10
428.530810592
 20
320.2953547437
 11
428.730810592
 21
320.2953547437
  0
LINE
  8
DEFAULT_2
 62
8
  6
HIDDEN
 10
433.530810592
 20
320.3447146212
 11
439.980810592
 21
320.3447146212
  0
LINE
  8
DEFAULT_2
 62
8
  6
HIDDEN
 10
450.280810592
 20
320.3447146212
 11
456.730810592
 21
320.3447146212
  0
LINE
  8
DEFAULT_2
 62
8
  6
HIDDEN
 10
428.530810592
 20
320.3696862299
 11
428.730810592
 21
320.3696862299
  0
LINE
  8
DEFAULT_2
 62
8
  6
HIDDEN
 10
428.530810592
 20
320.4142792689
 11
428.730810592
 21
320.4142792689
  0
LINE
  8
DEFAULT_2
 62
8
  6
HIDDEN
 10
428.530810592
 20
320.5500017255
 11
428.730810592
 21
320.5500017255
  0
LINE
  8
DEFAULT_2
 62
8
  6
HIDDEN
 10
456.730810592
 20
320.7090196107
 11
450.280810592
 21
320.7090196107
  0
LINE
  8
DEFAULT_2
 62
8
  6
HIDDEN
 10
439.980810592
 20
320.7090196107
 11
433.530810592
 21
320.7090196107
  0
LINE
  8
DEFAULT_2
 62
8
  6
HIDDEN
 10
456.730810592
 20
320.7756241162
 11
450.280810592
 21
320.7756241162
  0
LINE
  8
DEFAULT_2
 62
8
  6
HIDDEN
 10
439.980810592
 20
320.7756241162
 11
433.530810592
 21
320.7756241162
  0
LINE
  8
DEFAULT_2
 62
8
  6
HIDDEN
 10
456.730810592
 20
320.800095858
 11
450.280810592
 21
320.800095858
  0
LINE
  8
DEFAULT_2
 62
8
  6
HIDDEN
 10
439.980810592
 20
320.800095858
 11
433.530810592
 21
320.800095858
  0
LINE
  8
0
 62
9
  6
CONTINUOUS
 10
433.530810592
 20
321.5133825275
 11
439.980810592
 21
321.5133825275
  0
LINE
  8
0
 62
9
  6
CONTINUOUS
 10
450.280810592
 20
321.5133825275
 11
456.730810592
 21
321.5133825275
  0
LINE
  8
DEFAULT_2
 62
8
  6
HIDDEN
 10
456.730810592
 20
321.5427955426
 11
450.280810592
 21
321.5427955426
  0
LINE
  8
DEFAULT_2
 62
8
  6
HIDDEN
 10
439.980810592
 20
321.5427955426
 11
433.530810592
 21
321.5427955426
  0
LINE
  8
DEFAULT_2
 62
8
  6
HIDDEN
 10
456.730810592
 20
321.8566136436
 11
450.280810592
 21
321.8566136436
  0
LINE
  8
DEFAULT_2
 62
8
  6
HIDDEN
 10
439.980810592
 20
321.8566136436
 11
433.530810592
 21
321.8566136436
  0
LINE
  8
DEFAULT_2
 62
8
  6
HIDDEN
 10
433.530810592
 20
321.8993449646
 11
439.980810592
 21
321.8993449646
  0
LINE
  8
DEFAULT_2
 62
8
  6
HIDDEN
 10
450.280810592
 20
321.8993449646
 11
456.730810592
 21
321.8993449646
  0
LINE
  8
DEFAULT_2
 62
8
  6
HIDDEN
 10
433.530810592
 20
321.9340855397
 11
439.980810592
 21
321.9340855397
  0
LINE
  8
DEFAULT_2
 62
8
  6
HIDDEN
 10
450.280810592
 20
321.9340855397
 11
456.730810592
 21
321.9340855397
  0
LINE
  8
0
 62
7
  6
CONTINUOUS
 10
433.530810592
 20
322.2173466045
 11
439.980810592
 21
322.2173466045
  0
LINE
  8
0
 62
7
  6
CONTINUOUS
 10
450.280810592
 20
322.2173466045
 11
456.730810592
 21
322.2173466045
  0
LINE
  8
0
 62
9
  6
CONTINUOUS
 10
433.530810592
 20
323.3039043353
 11
439.980810592
 21
323.3039043353
  0
LINE
  8
0
 62
9
  6
CONTINUOUS
 10
450.280810592
 20
323.3039043353
 11
456.730810592
 21
323.3039043353
  0
LINE
  8
0
 62
7
  6
CONTINUOUS
 10
450.280810592
 20
324.5404982083
 11
439.980810592
 21
324.5404982083
  0
LINE
  8
0
 62
7
  6
CONTINUOUS
 10
430.530810592
 20
324.5404982083
 11
433.530810592
 21
324.5404982083
  0
LINE
  8
0
 62
7
  6
CONTINUOUS
 10
456.730810592
 20
324.5404982083
 11
459.730810592
 21
324.5404982083
  0
LINE
  8
DEFAULT_2
 62
8
  6
HIDDEN
 10
433.530810592
 20
326.0154982083
 11
439.980810592
 21
326.0154982083
  0
LINE
  8
DEFAULT_2
 62
8
  6
HIDDEN
 10
450.280810592
 20
326.0154982083
 11
456.730810592
 21
326.0154982083
  0
LINE
  8
DEFAULT_2
 62
8
  6
HIDDEN
 10
433.530810592
 20
326.6856038885
 11
439.980810592
 21
326.6856038885
  0
LINE
  8
DEFAULT_2
 62
8
  6
HIDDEN
 10
450.280810592
 20
326.6856038885
 11
456.730810592
 21
326.6856038885
  0
LINE
  8
DEFAULT_2
 62
8
  6
HIDDEN
 10
456.730810592
 20
326.8154982083
 11
450.280810592
 21
326.8154982083
  0
LINE
  8
DEFAULT_2
 62
8
  6
HIDDEN
 10
439.980810592
 20
326.8154982083
 11
433.530810592
 21
326.8154982083
  0
LINE
  8
DEFAULT_2
 62
8
  6
HIDDEN
 10
456.730810592
 20
327.0154982083
 11
450.280810592
 21
327.0154982083
  0
LINE
  8
DEFAULT_2
 62
8
  6
HIDDEN
 10
439.980810592
 20
327.0154982083
 11
433.530810592
 21
327.0154982083
  0
LINE
  8
DEFAULT_2
 62
8
  6
HIDDEN
 10
433.530810592
 20
327.5783482709
 11
439.980810592
 21
327.5783482709
  0
LINE
  8
DEFAULT_2
 62
8
  6
HIDDEN
 10
450.280810592
 20
327.5783482709
 11
456.730810592
 21
327.5783482709
  0
LINE
  8
DEFAULT_2
 62
8
  6
HIDDEN
 10
433.530810592
 20
328.3854231658
 11
439.980810592
 21
328.3854231658
  0
LINE
  8
DEFAULT_2
 62
8
  6
HIDDEN
 10
450.280810592
 20
328.3854231658
 11
456.730810592
 21
328.3854231658
  0
LINE
  8
DEFAULT_2
 62
8
  6
HIDDEN
 10
433.530810592
 20
332.262299772
 11
439.980810592
 21
332.262299772
  0
LINE
  8
DEFAULT_2
 62
8
  6
HIDDEN
 10
450.280810592
 20
332.262299772
 11
456.730810592
 21
332.262299772
  0
LINE
  8
DEFAULT_2
 62
8
  6
HIDDEN
 10
433.530810592
 20
332.7893155909
 11
439.980810592
 21
332.7893155909
  0
LINE
  8
DEFAULT_2
 62
8
  6
HIDDEN
 10
450.280810592
 20
332.7893155909
 11
456.730810592
 21
332.7893155909
  0
LINE
  8
DEFAULT_2
 62
8
  6
HIDDEN
 10
433.530810592
 20
333.3998685864
 11
439.980810592
 21
333.3998685864
  0
LINE
  8
DEFAULT_2
 62
8
  6
HIDDEN
 10
450.280810592
 20
333.3998685864
 11
456.730810592
 21
333.3998685864
  0
LINE
  8
DEFAULT_2
 62
8
  6
HIDDEN
 10
433.530810592
 20
333.4531087673
 11
439.980810592
 21
333.4531087673
  0
LINE
  8
DEFAULT_2
 62
8
  6
HIDDEN
 10
450.280810592
 20
333.4531087673
 11
456.730810592
 21
333.4531087673
  0
LINE
  8
DEFAULT_2
 62
8
  6
HIDDEN
 10
433.530810592
 20
335.8702199998
 11
439.980810592
 21
335.8702199998
  0
LINE
  8
DEFAULT_2
 62
8
  6
HIDDEN
 10
450.280810592
 20
335.8702199998
 11
456.730810592
 21
335.8702199998
  0
LINE
  8
DEFAULT_2
 62
8
  6
HIDDEN
 10
433.530810592
 20
337.93811647
 11
439.980810592
 21
337.93811647
  0
LINE
  8
DEFAULT_2
 62
8
  6
HIDDEN
 10
450.280810592
 20
337.93811647
 11
456.730810592
 21
337.93811647
  0
LINE
  8
0
 62
9
  6
CONTINUOUS
 10
433.530810592
 20
338.0922109678
 11
439.980810592
 21
338.0922109678
  0
LINE
  8
0
 62
9
  6
CONTINUOUS
 10
450.280810592
 20
338.0922109678
 11
456.730810592
 21
338.0922109678
  0
LINE
  8
0
 62
7
  6
CONTINUOUS
 10
433.530810592
 20
338.5154982083
 11
439.980810592
 21
338.5154982083
  0
LINE
  8
0
 62
7
  6
CONTINUOUS
 10
450.280810592
 20
338.5154982083
 11
456.730810592
 21
338.5154982083
  0
LINE
  8
DEFAULT_2
 62
8
  6
HIDDEN
 10
433.530810592
 20
341.5089473408
 11
439.980810592
 21
341.5089473408
  0
LINE
  8
DEFAULT_2
 62
8
  6
HIDDEN
 10
450.280810592
 20
341.5089473408
 11
456.730810592
 21
341.5089473408
  0
LINE
  8
0
 62
9
  6
CONTINUOUS
 10
433.530810592
 20
342.1880149305
 11
439.980810592
 21
342.1880149305
  0
LINE
  8
0
 62
9
  6
CONTINUOUS
 10
450.280810592
 20
342.1880149305
 11
456.730810592
 21
342.1880149305
  0
LINE
  8
0
 62
7
  6
CONTINUOUS
 10
433.530810592
 20
342.3870779974
 11
439.980810592
 21
342.3870779974
  0
LINE
  8
0
 62
7
  6
CONTINUOUS
 10
450.280810592
 20
342.3870779974
 11
456.730810592
 21
342.3870779974
  0
ARC
  8
0
 62
7
  6
CONTINUOUS
 10
103.6530231391
 20
122.5453322014
 40
14.0
 50
270.7803337598
 51
334.6589448352
  0
ARC
  8
0
 62
7
  6
CONTINUOUS
 10
96.9634919413
 20
119.8482222544
 40
10.0
 50
331.0
 51
36.0
  0
ARC
  8
0
 62
7
  6
CONTINUOUS
 10
92.1856883825
 20
141.7360192426
 40
2.0
 50
342.8698976458
 51
136.6589448352
  0
ARC
  8
0
 62
7
  6
CONTINUOUS
 10
118.1134406632
 20
115.6972430497
 40
2.0
 50
0.8698976458
 51
154.6589448352
  0
ARC
  8
0
 62
7
  6
CONTINUOUS
 10
76.7007229961
 20
140.3001553265
 40
1.0
 50
133.0
 51
252.7803337598
  0
ARC
  8
0
 62
7
  6
CONTINUOUS
 10
103.8300697795
 20
109.546537854
 40
1.0
 50
151.0
 51
270.7803337598
  0
ARC
  8
0
 62
7
  6
CONTINUOUS
 10
94.5747843786
 20
140.9996631323
 40
0.5
 50
162.8698976458
 51
216.0
  0
ARC
  8
0
 62
7
  6
CONTINUOUS
 10
120.6131525304
 20
115.7351980366
 40
0.5
 50
180.8698976458
 51
234.0
  0
ARC
  8
0
 62
7
  6
CONTINUOUS
 10
67.8998372664
 20
188.5523237634
 40
14.0
 50
234.7803337598
 51
298.6589448352
  0
ARC
  8
0
 62
7
  6
CONTINUOUS
 10
80.5491899947
 20
152.7174538153
 40
14.0
 50
252.7803337598
 51
316.6589448352
  0
ARC
  8
0
 62
7
  6
CONTINUOUS
 10
60.9025713923
 20
190.3023237634
 40
10.0
 50
295.0
 51
360.0
  0
ARC
  8
0
 62
7
  6
CONTINUOUS
 10
73.3536149488
 20
152.2195286495
 40
10.0
 50
313.0
 51
18.0
  0
ARC
  8
0
 62
7
  6
CONTINUOUS
 10
104.4648844732
 20
199.4840720539
 40
5.3
 50
46.2750109252
 51
84.5593048503
  0
ARC
  8
0
 62
7
  6
CONTINUOUS
 10
105.346667709
 20
208.7421743608
 40
4.0
 50
97.990717
 51
264.5593048505
  0
ARC
  8
0
 62
7
  6
CONTINUOUS
 10
75.5733549794
 20
174.512483098
 40
2.0
 50
324.8698976459
 51
118.6589448352
  0
ARC
  8
0
 62
7
  6
CONTINUOUS
 10
60.4025713923
 20
177.9320128257
 40
1.0
 50
115.0
 51
234.7803337598
  0
ARC
  8
0
 62
7
  6
CONTINUOUS
 10
71.4025713923
 20
208.8182459666
 40
0.5
 50
126.8698976458
 51
180.0
  0
ARC
  8
0
 62
7
  6
CONTINUOUS
 10
77.6179737426
 20
173.073895557
 40
0.5
 50
144.8698976458
 51
198.0
  0
ARC
  8
0
 62
7
  6
CONTINUOUS
 10
134.9497725375
 20
100.9894164069
 40
14.0
 50
288.7803337598
 51
352.6589448352
  0
ARC
  8
0
 62
7
  6
CONTINUOUS
 10
171.3758943015
 20
90.1597496586
 40
14.0
 50
306.7803337598
 51
10.6589448352
  0
ARC
  8
0
 62
7
  6
CONTINUOUS
 10
129.4211031102
 20
96.3571335921
 40
10.0
 50
349.0
 51
54.0
  0
ARC
  8
0
 62
7
  6
CONTINUOUS
 10
167.5492713288
 20
84.045734093
 40
10.0
 50
7.0
 51
72.0
  0
ARC
  8
0
 62
7
  6
CONTINUOUS
 10
179.9661926187
 20
127.2704279253
 40
5.3
 50
7.9907170002
 51
46.2750109252
  0
ARC
  8
0
 62
7
  6
CONTINUOUS
 10
150.818622779
 20
98.9450113557
 40
2.0
 50
18.8698976458
 51
172.6589448352
  0
ARC
  8
0
 62
7
  6
CONTINUOUS
 10
187.099823634
 20
93.1191493185
 40
2.0
 50
36.8698976458
 51
190.6589448352
  0
ARC
  8
0
 62
7
  6
CONTINUOUS
 10
139.1350022583
 20
88.6815387595
 40
1.0
 50
169.0
 51
288.7803337598
  0
ARC
  8
0
 62
7
  6
CONTINUOUS
 10
179.1596276574
 20
79.7475695294
 40
1.0
 50
187.0
 51
306.7803337598
  0
ARC
  8
0
 62
7
  6
CONTINUOUS
 10
153.1842613032
 20
99.7535621414
 40
0.5
 50
198.8698976458
 51
252.0
  0
ARC
  8
0
 62
7
  6
CONTINUOUS
 10
77.7728384807
 20
262.9682970631
 40
14.0
 50
198.7803337598
 51
262.6589448352
  0
ARC
  8
0
 62
7
  6
CONTINUOUS
 10
66.9431717324
 20
226.5421752991
 40
14.0
 50
216.7803337598
 51
280.6589448352
  0
ARC
  8
0
 62
7
  6
CONTINUOUS
 10
73.1405556659
 20
268.4969664904
 40
10.0
 50
259.0
 51
324.0
  0
ARC
  8
0
 62
7
  6
CONTINUOUS
 10
60.8291561667
 20
230.3687982718
 40
10.0
 50
277.0
 51
342.0
  0
ARC
  8
0
 62
7
  6
CONTINUOUS
 10
104.0538499991
 20
217.9518769819
 40
5.3
 50
277.9907170002
 51
316.2750109252
  0
ARC
  8
0
 62
7
  6
CONTINUOUS
 10
75.7284334295
 20
247.0994468216
 40
2.0
 50
288.8698976458
 51
82.6589448352
  0
ARC
  8
0
 62
7
  6
CONTINUOUS
 10
69.9025713923
 20
210.8182459666
 40
2.0
 50
306.8698976458
 51
100.6589448352
  0
ARC
  8
0
 62
7
  6
CONTINUOUS
 10
65.4649608333
 20
258.7830673423
 40
1.0
 50
79.0
 51
198.7803337598
  0
ARC
  8
0
 62
7
  6
CONTINUOUS
 10
56.5309916032
 20
218.7584419432
 40
1.0
 50
97.0
 51
216.7803337598
  0
ARC
  8
0
 62
7
  6
CONTINUOUS
 10
76.5369842151
 20
244.7338082974
 40
0.5
 50
108.8698976458
 51
162.0
  0
ARC
  8
0
 62
7
  6
CONTINUOUS
 10
99.3287542752
 20
294.2650464615
 40
14.0
 50
180.7803337598
 51
244.6589448352
  0
ARC
  8
0
 62
7
  6
CONTINUOUS
 10
96.6316443282
 20
300.9545776593
 40
10.0
 50
241.0
 51
306.0
  0
ARC
  8
0
 62
7
  6
CONTINUOUS
 10
118.5194413164
 20
305.7323812181
 40
2.0
 50
252.8698976458
 51
46.6589448352
  0
ARC
  8
0
 62
7
  6
CONTINUOUS
 10
92.4806651235
 20
279.8046289374
 40
2.0
 50
270.8698976458
 51
64.6589448352
  0
ARC
  8
0
 62
7
  6
CONTINUOUS
 10
86.3299599277
 20
294.0879998211
 40
1.0
 50
61.0
 51
180.7803337598
  0
ARC
  8
0
 62
7
  6
CONTINUOUS
 10
117.0835774003
 20
321.2173466045
 40
1.0
 50
43.0
 51
162.7803337598
  0
ARC
  8
0
 62
7
  6
CONTINUOUS
 10
92.5186201104
 20
277.3049170702
 40
0.5
 50
90.8698976458
 51
144.0
  0
ARC
  8
0
 62
7
  6
CONTINUOUS
 10
117.7830852061
 20
303.343285222
 40
0.5
 50
72.8698976458
 51
126.0
  0
ARC
  8
0
 62
7
  6
CONTINUOUS
 10
165.3357458372
 20
330.0182323342
 40
14.0
 50
144.7803337598
 51
208.6589448352
  0
ARC
  8
0
 62
7
  6
CONTINUOUS
 10
129.5008758891
 20
317.3688796058
 40
14.0
 50
162.7803337598
 51
226.6589448352
  0
ARC
  8
0
 62
7
  6
CONTINUOUS
 10
167.0857458372
 20
337.0154982083
 40
10.0
 50
205.0
 51
270.0
  0
ARC
  8
0
 62
7
  6
CONTINUOUS
 10
129.0029507233
 20
324.5644546518
 40
10.0
 50
223.0
 51
288.0
  0
ARC
  8
0
 62
7
  6
CONTINUOUS
 10
176.2674941277
 20
293.4531851274
 40
5.3
 50
316.2750109252
 51
354.5593048502
  0
ARC
  8
0
 62
7
  6
CONTINUOUS
 10
185.5255964346
 20
292.5714018916
 40
4.0
 50
7.990717
 51
174.5593048505
  0
ARC
  8
0
 62
7
  6
CONTINUOUS
 10
151.2959051718
 20
322.3447146212
 40
2.0
 50
234.8698976458
 51
28.6589448352
  0
ARC
  8
0
 62
7
  6
CONTINUOUS
 10
154.7154348995
 20
337.5154982083
 40
1.0
 50
25.0
 51
144.7803337598
  0
ARC
  8
0
 62
7
  6
CONTINUOUS
 10
185.6016680404
 20
326.5154982083
 40
0.5
 50
36.8698976459
 51
90.0
  0
ARC
  8
0
 62
7
  6
CONTINUOUS
 10
149.8573176308
 20
320.300095858
 40
0.5
 50
54.8698976458
 51
108.0
  0
ARC
  8
0
 62
7
  6
CONTINUOUS
 10
209.3657458372
 20
91.1164151926
 40
14.0
 50
324.7803337598
 51
28.6589448352
  0
ARC
  8
0
 62
7
  6
CONTINUOUS
 10
245.2006157853
 20
103.765767921
 40
14.0
 50
342.7803337598
 51
46.6589448352
  0
ARC
  8
0
 62
7
  6
CONTINUOUS
 10
207.6157458372
 20
84.1191493185
 40
10.0
 50
25.0
 51
90.0
  0
ARC
  8
0
 62
7
  6
CONTINUOUS
 10
245.6985409511
 20
96.570192875
 40
10.0
 50
43.0
 51
108.0
  0
ARC
  8
0
 62
7
  6
CONTINUOUS
 10
198.4339975467
 20
127.6814623994
 40
5.3
 50
136.2750109252
 51
174.5593048502
  0
ARC
  8
0
 62
7
  6
CONTINUOUS
 10
189.1758952398
 20
128.5632456352
 40
4.0
 50
187.990717
 51
354.5593048505
  0
ARC
  8
0
 62
7
  6
CONTINUOUS
 10
223.4055865026
 20
98.7899329056
 40
2.0
 50
54.8698976458
 51
208.6589448352
  0
ARC
  8
0
 62
7
  6
CONTINUOUS
 10
219.9860567749
 20
83.6191493185
 40
1.0
 50
205.0
 51
324.7803337598
  0
ARC
  8
0
 62
7
  6
CONTINUOUS
 10
189.099823634
 20
94.6191493185
 40
0.5
 50
216.8698976458
 51
270.0
  0
ARC
  8
0
 62
7
  6
CONTINUOUS
 10
224.8441740436
 20
100.8345516688
 40
0.5
 50
234.8698976459
 51
288.0
  0
ARC
  8
0
 62
7
  6
CONTINUOUS
 10
275.3727373992
 20
126.8696010653
 40
14.0
 50
0.7803337598
 51
64.6589448352
  0
ARC
  8
0
 62
7
  6
CONTINUOUS
 10
278.0698473462
 20
120.1800698675
 40
10.0
 50
61.0
 51
126.0
  0
ARC
  8
0
 62
7
  6
CONTINUOUS
 10
256.1820503579
 20
115.4022663087
 40
2.0
 50
72.8698976458
 51
226.6589448352
  0
ARC
  8
0
 62
7
  6
CONTINUOUS
 10
282.2208265509
 20
141.3300185894
 40
2.0
 50
90.8698976458
 51
244.6589448352
  0
ARC
  8
0
 62
7
  6
CONTINUOUS
 10
257.6179142741
 20
99.9173009223
 40
1.0
 50
223.0
 51
342.7803337598
  0
ARC
  8
0
 62
7
  6
CONTINUOUS
 10
288.3715317466
 20
127.0466477057
 40
1.0
 50
241.0
 51
0.7803337598
  0
ARC
  8
0
 62
7
  6
CONTINUOUS
 10
256.9184064683
 20
117.7913623048
 40
0.5
 50
252.8698976458
 51
306.0
  0
ARC
  8
0
 62
7
  6
CONTINUOUS
 10
282.1828715639
 20
143.8297304566
 40
0.5
 50
270.8698976458
 51
324.0
  0
ARC
  8
0
 62
7
  6
CONTINUOUS
 10
296.9286531937
 20
158.1663504637
 40
14.0
 50
18.7803337598
 51
82.6589448352
  0
ARC
  8
0
 62
7
  6
CONTINUOUS
 10
307.758319942
 20
194.5924722277
 40
14.0
 50
36.7803337598
 51
100.6589448352
  0
ARC
  8
0
 62
7
  6
CONTINUOUS
 10
301.5609360085
 20
152.6376810364
 40
10.0
 50
79.0
 51
144.0
  0
ARC
  8
0
 62
7
  6
CONTINUOUS
 10
313.8723355076
 20
190.765849255
 40
10.0
 50
97.0
 51
162.0
  0
ARC
  8
0
 62
7
  6
CONTINUOUS
 10
270.6476416753
 20
203.1827705449
 40
5.3
 50
97.9907170002
 51
136.2750109252
  0
ARC
  8
0
 62
7
  6
CONTINUOUS
 10
298.9730582449
 20
174.0352007052
 40
2.0
 50
108.8698976458
 51
262.6589448352
  0
ARC
  8
0
 62
7
  6
CONTINUOUS
 10
304.7989202821
 20
210.3164015602
 40
2.0
 50
126.8698976458
 51
280.6589448352
  0
ARC
  8
0
 62
7
  6
CONTINUOUS
 10
309.2365308411
 20
162.3515801845
 40
1.0
 50
259.0
 51
18.7803337598
  0
ARC
  8
0
 62
7
  6
CONTINUOUS
 10
318.1705000712
 20
202.3762055836
 40
1.0
 50
277.0
 51
36.7803337598
  0
ARC
  8
0
 62
7
  6
CONTINUOUS
 10
298.1645074592
 20
176.4008392294
 40
0.5
 50
288.8698976458
 51
342.0
  0
ARC
  8
DEFAULT_2
 62
8
  6
HIDDEN
 10
187.3507458372
 20
210.5673237634
 40
132.0759417852
 50
86.4155455287
 51
86.425054205
  0
ARC
  8
0
 62
40
  6
CONTINUOUS
 10
187.3507458372
 20
210.5673237634
 40
132.0759417852
 50
80.6228500531
 51
86.4155455287
  0
ARC
  8
0
 62
40
  6
CONTINUOUS
 10
187.3507458372
 20
210.5673237634
 40
132.0759417852
 50
86.425054205
 51
90.0
  0
ARC
  8
PITCH_DIAMETER
 62
8
  6
HIDDEN
 10
187.3507458372
 20
210.5673237634
 40
129.5430645337
 50
193.8381598223
 51
195.6586490931
  0
ARC
  8
PITCH_DIAMETER
 62
8
  6
HIDDEN
 10
187.3507458372
 20
210.5673237634
 40
129.5430645337
 50
211.8381332266
 51
213.6493732149
  0
ARC
  8
PITCH_DIAMETER
 62
8
  6
HIDDEN
 10
187.3507458372
 20
210.5673237634
 40
129.5430645337
 50
229.8381598223
 51
231.6586490931
  0
ARC
  8
PITCH_DIAMETER
 62
8
  6
HIDDEN
 10
187.3507458372
 20
210.5673237634
 40
129.5430645337
 50
247.8381332266
 51
249.6493732149
  0
ARC
  8
PITCH_DIAMETER
 62
8
  6
HIDDEN
 10
187.3507458372
 20
210.5673237634
 40
129.5430645337
 50
265.8381598223
 51
267.6586490931
  0
ARC
  8
PITCH_DIAMETER
 62
8
  6
HIDDEN
 10
187.3507458372
 20
210.5673237634
 40
129.5430645337
 50
283.8381332266
 51
285.6493732149
  0
ARC
  8
PITCH_DIAMETER
 62
8
  6
HIDDEN
 10
187.3507458372
 20
210.5673237634
 40
129.5430645337
 50
301.8381598223
 51
303.6586490931
  0
ARC
  8
PITCH_DIAMETER
 62
8
  6
HIDDEN
 10
187.3507458372
 20
210.5673237634
 40
129.5430645337
 50
319.8381332266
 51
321.6493732149
  0
ARC
  8
PITCH_DIAMETER
 62
8
  6
HIDDEN
 10
187.3507458372
 20
210.5673237634
 40
129.5430645337
 50
337.8381598223
 51
339.6586490931
  0
ARC
  8
PITCH_DIAMETER
 62
8
  6
HIDDEN
 10
187.3507458372
 20
210.5673237634
 40
129.5430645337
 50
355.8381332266
 51
357.6493732149
  0
ARC
  8
PITCH_DIAMETER
 62
8
  6
HIDDEN
 10
187.3507458372
 20
210.5673237634
 40
129.5430645337
 50
13.8381598223
 51
15.6586490931
  0
ARC
  8
PITCH_DIAMETER
 62
8
  6
HIDDEN
 10
187.3507458372
 20
210.5673237634
 40
129.5430645337
 50
31.8381332266
 51
33.6493732149
  0
ARC
  8
PITCH_DIAMETER
 62
8
  6
HIDDEN
 10
187.3507458372
 20
210.5673237634
 40
129.5430645337
 50
49.8381598223
 51
51.6586490931
  0
ARC
  8
PITCH_DIAMETER
 62
8
  6
HIDDEN
 10
187.3507458372
 20
210.5673237634
 40
129.5430645337
 50
67.8381332266
 51
69.6493732149
  0
ARC
  8
PITCH_DIAMETER
 62
8
  6
HIDDEN
 10
187.3507458372
 20
210.5673237634
 40
129.5430645337
 50
85.8381598223
 51
87.6586490931
  0
ARC
  8
PITCH_DIAMETER
 62
8
  6
HIDDEN
 10
187.3507458372
 20
210.5673237634
 40
129.5430645337
 50
103.8381332266
 51
105.6493732149
  0
ARC
  8
PITCH_DIAMETER
 62
8
  6
HIDDEN
 10
187.3507458372
 20
210.5673237634
 40
129.5430645337
 50
121.8381598223
 51
123.6586490931
  0
ARC
  8
PITCH_DIAMETER
 62
8
  6
HIDDEN
 10
187.3507458372
 20
210.5673237634
 40
129.5430645337
 50
139.8381332266
 51
141.6493732149
  0
ARC
  8
PITCH_DIAMETER
 62
8
  6
HIDDEN
 10
187.3507458372
 20
210.5673237634
 40
129.5430645337
 50
157.8381598223
 51
159.6586490931
  0
ARC
  8
PITCH_DIAMETER
 62
8
  6
HIDDEN
 10
187.3507458372
 20
210.5673237634
 40
129.5430645337
 50
175.8381332266
 51
177.6493732149
  0
ARC
  8
PITCH_DIAMETER
 62
40
  6
CONTINUOUS
 10
187.3507458372
 20
210.5673237634
 40
129.5430645337
 50
195.6586490931
 51
211.8381332266
  0
ARC
  8
PITCH_DIAMETER
 62
40
  6
CONTINUOUS
 10
187.3507458372
 20
210.5673237634
 40
129.5430645337
 50
213.6493732149
 51
229.8381598223
  0
ARC
  8
PITCH_DIAMETER
 62
40
  6
CONTINUOUS
 10
187.3507458372
 20
210.5673237634
 40
129.5430645337
 50
231.6586490931
 51
247.8381332266
  0
ARC
  8
PITCH_DIAMETER
 62
40
  6
CONTINUOUS
 10
187.3507458372
 20
210.5673237634
 40
129.5430645337
 50
249.6493732149
 51
265.8381598223
  0
ARC
  8
PITCH_DIAMETER
 62
40
  6
CONTINUOUS
 10
187.3507458372
 20
210.5673237634
 40
129.5430645337
 50
267.6586490931
 51
283.8381332266
  0
ARC
  8
PITCH_DIAMETER
 62
40
  6
CONTINUOUS
 10
187.3507458372
 20
210.5673237634
 40
129.5430645337
 50
285.6493732149
 51
301.8381598223
  0
ARC
  8
PITCH_DIAMETER
 62
40
  6
CONTINUOUS
 10
187.3507458372
 20
210.5673237634
 40
129.5430645337
 50
303.6586490931
 51
319.8381332266
  0
ARC
  8
PITCH_DIAMETER
 62
40
  6
CONTINUOUS
 10
187.3507458372
 20
210.5673237634
 40
129.5430645337
 50
321.6493732149
 51
337.8381598223
  0
ARC
  8
PITCH_DIAMETER
 62
40
  6
CONTINUOUS
 10
187.3507458372
 20
210.5673237634
 40
129.5430645337
 50
339.6586490931
 51
355.8381332266
  0
ARC
  8
PITCH_DIAMETER
 62
40
  6
CONTINUOUS
 10
187.3507458372
 20
210.5673237634
 40
129.5430645337
 50
357.6493732149
 51
13.8381598223
  0
ARC
  8
PITCH_DIAMETER
 62
40
  6
CONTINUOUS
 10
187.3507458372
 20
210.5673237634
 40
129.5430645337
 50
15.6586490931
 51
31.8381332266
  0
ARC
  8
PITCH_DIAMETER
 62
40
  6
CONTINUOUS
 10
187.3507458372
 20
210.5673237634
 40
129.5430645337
 50
33.6493732149
 51
49.8381598223
  0
ARC
  8
PITCH_DIAMETER
 62
40
  6
CONTINUOUS
 10
187.3507458372
 20
210.5673237634
 40
129.5430645337
 50
51.6586490931
 51
67.8381332266
  0
ARC
  8
PITCH_DIAMETER
 62
40
  6
CONTINUOUS
 10
187.3507458372
 20
210.5673237634
 40
129.5430645337
 50
69.6493732149
 51
85.8381598223
  0
ARC
  8
PITCH_DIAMETER
 62
40
  6
CONTINUOUS
 10
187.3507458372
 20
210.5673237634
 40
129.5430645337
 50
87.6586490931
 51
103.8381332266
  0
ARC
  8
PITCH_DIAMETER
 62
40
  6
CONTINUOUS
 10
187.3507458372
 20
210.5673237634
 40
129.5430645337
 50
105.6493732149
 51
121.8381598223
  0
ARC
  8
PITCH_DIAMETER
 62
40
  6
CONTINUOUS
 10
187.3507458372
 20
210.5673237634
 40
129.5430645337
 50
123.6586490931
 51
139.8381332266
  0
ARC
  8
PITCH_DIAMETER
 62
40
  6
CONTINUOUS
 10
187.3507458372
 20
210.5673237634
 40
129.5430645337
 50
141.6493732149
 51
157.8381598223
  0
ARC
  8
PITCH_DIAMETER
 62
40
  6
CONTINUOUS
 10
187.3507458372
 20
210.5673237634
 40
129.5430645337
 50
159.6586490931
 51
175.8381332266
  0
ARC
  8
PITCH_DIAMETER
 62
40
  6
CONTINUOUS
 10
187.3507458372
 20
210.5673237634
 40
129.5430645337
 50
177.6493732149
 51
193.8381598223
  0
ARC
  8
DEFAULT_2
 62
8
  6
HIDDEN
 10
187.3507458372
 20
210.5673237634
 40
116.4481744449
 50
180.7767707352
 51
197.0379118092
  0
ARC
  8
DEFAULT_2
 62
8
  6
HIDDEN
 10
187.3507458372
 20
210.5673237634
 40
116.4481744449
 50
198.7840016344
 51
215.0424538812
  0
ARC
  8
DEFAULT_2
 62
8
  6
HIDDEN
 10
187.3507458372
 20
210.5673237634
 40
116.4481744449
 50
216.7767707352
 51
233.0379118092
  0
ARC
  8
DEFAULT_2
 62
8
  6
HIDDEN
 10
187.3507458372
 20
210.5673237634
 40
116.4481744449
 50
234.7840016344
 51
251.0424538812
  0
ARC
  8
DEFAULT_2
 62
8
  6
HIDDEN
 10
187.3507458372
 20
210.5673237634
 40
116.4481744449
 50
252.7767707352
 51
269.0379118092
  0
ARC
  8
DEFAULT_2
 62
8
  6
HIDDEN
 10
187.3507458372
 20
210.5673237634
 40
116.4481744449
 50
270.7840016344
 51
287.0424538812
  0
ARC
  8
DEFAULT_2
 62
8
  6
HIDDEN
 10
187.3507458372
 20
210.5673237634
 40
116.4481744449
 50
288.7767707352
 51
305.0379118092
  0
ARC
  8
DEFAULT_2
 62
8
  6
HIDDEN
 10
187.3507458372
 20
210.5673237634
 40
116.4481744449
 50
306.7840016344
 51
323.0424538812
  0
ARC
  8
DEFAULT_2
 62
8
  6
HIDDEN
 10
187.3507458372
 20
210.5673237634
 40
116.4481744449
 50
324.7767707352
 51
341.0379118092
  0
ARC
  8
DEFAULT_2
 62
8
  6
HIDDEN
 10
187.3507458372
 20
210.5673237634
 40
116.4481744449
 50
342.7840016344
 51
359.0424538812
  0
ARC
  8
DEFAULT_2
 62
8
  6
HIDDEN
 10
187.3507458372
 20
210.5673237634
 40
116.4481744449
 50
73.7044527255
 51
89.0360053794
  0
ARC
  8
DEFAULT_2
 62
8
  6
HIDDEN
 10
187.3507458372
 20
210.5673237634
 40
116.4481744449
 50
90.8173918451
 51
94.4645725384
  0
ARC
  8
0
 62
40
  6
CONTINUOUS
 10
187.3507458372
 20
210.5673237634
 40
116.4481744449
 50
180.0
 51
180.7767707352
  0
ARC
  8
0
 62
40
  6
CONTINUOUS
 10
187.3507458372
 20
210.5673237634
 40
116.4481744449
 50
197.0379118092
 51
198.7840016344
  0
ARC
  8
0
 62
40
  6
CONTINUOUS
 10
187.3507458372
 20
210.5673237634
 40
116.4481744449
 50
215.0424538812
 51
216.7767707352
  0
ARC
  8
0
 62
40
  6
CONTINUOUS
 10
187.3507458372
 20
210.5673237634
 40
116.4481744449
 50
233.0379118092
 51
234.7840016344
  0
ARC
  8
0
 62
40
  6
CONTINUOUS
 10
187.3507458372
 20
210.5673237634
 40
116.4481744449
 50
251.0424538812
 51
252.7767707352
  0
ARC
  8
0
 62
40
  6
CONTINUOUS
 10
187.3507458372
 20
210.5673237634
 40
116.4481744449
 50
269.0379118092
 51
270.7840016344
  0
ARC
  8
0
 62
40
  6
CONTINUOUS
 10
187.3507458372
 20
210.5673237634
 40
116.4481744449
 50
287.0424538812
 51
288.7767707352
  0
ARC
  8
0
 62
40
  6
CONTINUOUS
 10
187.3507458372
 20
210.5673237634
 40
116.4481744449
 50
305.0379118092
 51
306.7840016344
  0
ARC
  8
0
 62
40
  6
CONTINUOUS
 10
187.3507458372
 20
210.5673237634
 40
116.4481744449
 50
323.0424538812
 51
324.7767707352
  0
ARC
  8
0
 62
40
  6
CONTINUOUS
 10
187.3507458372
 20
210.5673237634
 40
116.4481744449
 50
341.0379118092
 51
342.7840016344
  0
ARC
  8
0
 62
40
  6
CONTINUOUS
 10
187.3507458372
 20
210.5673237634
 40
116.4481744449
 50
359.0424538812
 51
360.0
  0
ARC
  8
0
 62
40
  6
CONTINUOUS
 10
187.3507458372
 20
210.5673237634
 40
116.4481744449
 50
89.0360053794
 51
90.8173918451
  0
CIRCLE
  8
0
 62
7
  6
CONTINUOUS
 10
187.3507458372
 20
210.5673237634
 40
113.9731744449
  0
CIRCLE
  8
0
 62
9
  6
CONTINUOUS
 10
187.3507458372
 20
210.5673237634
 40
111.9731744449
  0
ARC
  8
0
 62
7
  6
CONTINUOUS
 10
239.7517191369
 20
320.1452311199
 40
14.0
 50
108.7803337598
 51
172.6589448352
  0
ARC
  8
0
 62
7
  6
CONTINUOUS
 10
203.3255973728
 20
330.9748978682
 40
14.0
 50
126.7803337598
 51
190.6589448352
  0
ARC
  8
0
 62
7
  6
CONTINUOUS
 10
245.2803885642
 20
324.7775139347
 40
10.0
 50
169.0
 51
234.0
  0
ARC
  8
0
 62
7
  6
CONTINUOUS
 10
207.1522203456
 20
337.0889134338
 40
10.0
 50
187.0
 51
252.0
  0
ARC
  8
0
 62
7
  6
CONTINUOUS
 10
194.7352990557
 20
293.8642196015
 40
5.3
 50
187.9907170002
 51
226.2750109252
  0
ARC
  8
0
 62
7
  6
CONTINUOUS
 10
223.8828688954
 20
322.1896361711
 40
2.0
 50
198.8698976458
 51
352.6589448352
  0
ARC
  8
0
 62
7
  6
CONTINUOUS
 10
187.6016680404
 20
328.0154982083
 40
2.0
 50
216.8698976458
 51
10.6589448352
  0
ARC
  8
0
 62
7
  6
CONTINUOUS
 10
235.5664894161
 20
332.4531087673
 40
1.0
 50
349.0
 51
108.7803337598
  0
ARC
  8
0
 62
7
  6
CONTINUOUS
 10
195.5418640169
 20
341.3870779974
 40
1.0
 50
7.0
 51
126.7803337598
  0
ARC
  8
0
 62
7
  6
CONTINUOUS
 10
221.5172303712
 20
321.3810853854
 40
0.5
 50
18.8698976459
 51
72.0
  0
ARC
  8
0
 62
7
  6
CONTINUOUS
 10
306.801654408
 20
232.5823237634
 40
14.0
 50
54.7803337598
 51
118.6589448352
  0
ARC
  8
0
 62
7
  6
CONTINUOUS
 10
294.1523016796
 20
268.4171937115
 40
14.0
 50
72.7803337598
 51
136.6589448352
  0
ARC
  8
0
 62
7
  6
CONTINUOUS
 10
313.7989202821
 20
230.8323237634
 40
10.0
 50
115.0
 51
180.0
  0
ARC
  8
0
 62
7
  6
CONTINUOUS
 10
301.3478767256
 20
268.9151188773
 40
10.0
 50
133.0
 51
198.0
  0
ARC
  8
0
 62
7
  6
CONTINUOUS
 10
270.2366072012
 20
221.6505754729
 40
5.3
 50
226.2750109252
 51
264.5593048503
  0
ARC
  8
0
 62
7
  6
CONTINUOUS
 10
269.3548239654
 20
212.392473166
 40
4.0
 50
277.990717
 51
84.5593048505
  0
ARC
  8
0
 62
7
  6
CONTINUOUS
 10
299.128136695
 20
246.6221644288
 40
2.0
 50
144.8698976458
 51
298.6589448352
  0
ARC
  8
0
 62
7
  6
CONTINUOUS
 10
314.2989202821
 20
243.2026347011
 40
1.0
 50
295.0
 51
54.7803337598
  0
ARC
  8
0
 62
7
  6
CONTINUOUS
 10
303.2989202821
 20
212.3164015602
 40
0.5
 50
306.8698976458
 51
360.0
  0
ARC
  8
0
 62
7
  6
CONTINUOUS
 10
297.0835179318
 20
248.0607519698
 40
0.5
 50
324.8698976458
 51
18.0
  0
ARC
  8
0
 62
7
  6
CONTINUOUS
 10
271.0484685352
 20
298.5893153254
 40
14.0
 50
90.7803337598
 51
154.6589448352
  0
ARC
  8
0
 62
7
  6
CONTINUOUS
 10
277.7379997331
 20
301.2864252724
 40
10.0
 50
151.0
 51
216.0
  0
ARC
  8
0
 62
7
  6
CONTINUOUS
 10
282.5158032919
 20
279.3986282842
 40
2.0
 50
162.8698976458
 51
316.6589448352
  0
ARC
  8
0
 62
7
  6
CONTINUOUS
 10
256.5880510112
 20
305.4374044771
 40
2.0
 50
180.8698976458
 51
334.6589448352
  0
ARC
  8
0
 62
7
  6
CONTINUOUS
 10
298.0007686783
 20
280.8344922003
 40
1.0
 50
313.0
 51
72.7803337598
  0
ARC
  8
0
 62
7
  6
CONTINUOUS
 10
270.8714218948
 20
311.5881096728
 40
1.0
 50
331.0
 51
90.7803337598
  0
ARC
  8
0
 62
7
  6
CONTINUOUS
 10
280.1267072958
 20
280.1349843945
 40
0.5
 50
342.8698976458
 51
36.0
  0
ARC
  8
0
 62
7
  6
CONTINUOUS
 10
254.088339144
 20
305.3994494902
 40
0.5
 50
0.8698976458
 51
54.0
  0
ARC
  8
0
 62
7
  6
CONTINUOUS
 10
430.530810592
 20
322.5404982083
 40
2.0
 50
90.0
 51
180.0
  0
ARC
  8
0
 62
7
  6
CONTINUOUS
 10
430.530810592
 20
98.5941493185
 40
2.0
 50
180.0
 51
270.0
  0
ARC
  8
0
 62
7
  6
CONTINUOUS
 10
459.730810592
 20
322.5404982083
 40
2.0
 50
0.0
 51
90.0
  0
ARC
  8
0
 62
7
  6
CONTINUOUS
 10
459.730810592
 20
98.5941493185
 40
2.0
 50
270.0
 51
360.0
  0
ENDSEC
  0
EOF
