  0
SECTION
  2
HEADER
  9
$EXTMAX
 10
420.0
 20
297.0
 30
0.0
  9
$EXTMIN
 10
0.0
 20
0.0
 30
0.0
  9
$LIMMIN
 10
0.0
 20
0.0
  9
$LIMMAX
 10
420.0
 20
297.0
  9
$VIEWCTR
 10
210.0
 20
148.5
  9
$VIEWSIZE
 40
297.0
  9
$CLAYER
  8
0
  9
$LTSCALE
 40
23.1
  9
$CELTYPE
  6
BYLAYER
  9
$DIMSCALE
 40
1.0
  9
$DIMASZ
 40
3.5
  9
$DIMEXO
 40
0.0
  9
$DIMDLI
 40
15.96
  9
$DIMEXE
 40
2.0
  9
$DIMCEN
 40
3.78
  9
$DIMLFAC
 40
1.0
  9
$DIMBLK
  1
_FILLED
  9
$DIMALT
 70
0
  9
$DIMALTF
 40
0.0393700787
  9
$DIMTXT
 40
3.5
  9
$AUNITS
 70
0
  9
$PDMODE
 70
3
  9
$PDSIZE
 40
0.3125
  9
$TILEMODE
 70
1
  0
ENDSEC
  0
SECTION
  2
TABLES
  0
TABLE
  2
LTYPE
 70
6
  0
LTYPE
  2
BYBLOCK
 70
0
  3

 72
65
 73
0
 40
0.0
  0
LTYPE
  2
BYLAYER
 70
0
  3

 72
65
 73
0
 40
0.0
  0
LTYPE
  2
CONTINUOUS
 70
64
  3
Solid line
 72
65
 73
0
 40
0.0
  0
LTYPE
  2
CENTER
 70
64
  3
____ _ ____ _ ____ _ ____ _ ____ _ ____ _ ____
 72
65
 73
4
 40
0.6
 49
0.375
 49
-0.075
 49
0.075
 49
-0.075
  0
LTYPE
  2
HIDDEN
 70
64
  3
- - - - - - - - - - - - - - - - - - - -
 72
65
 73
2
 40
0.2
 49
0.1
 49
-0.1
  0
LTYPE
  2
PHANTOM
 70
64
  3
_____ _ _ _____ _ _ _____ _ _ _____
 72
65
 73
6
 40
0.8
 49
0.45
 49
-0.05
 49
0.1
 49
-0.05
 49
0.1
 49
-0.05
  0
LTYPE
  2
DOT
 70
64
  3
. . . . . . . . . . . . . . . . . . . .
 72
65
 73
2
 40
0.2
 49
0.1
 49
-0.1
  0
LTYPE
  2
DASHED
 70
64
  3
- - - - - - - - - - - - - - - - - - - -
 72
65
 73
2
 40
0.2
 49
0.1
 49
-0.1
  0
ENDTAB
  0
TABLE
  2
LAYER
 70
36
  0
LAYER
  2
0
 70
0
 62
7
  6
CONTINUOUS
  0
LAYER
  2
DEFAULT_1
 70
0
 62
7
  6
CENTER
  0
LAYER
  2
DEFAULT_2
 70
0
 62
8
  6
HIDDEN
  0
LAYER
  2
DEFAULT_3
 70
0
 62
7
  6
PHANTOM
  0
LAYER
  2
1_CSYS
 70
0
 62
7
  6
CONTINUOUS
  0
LAYER
  2
1_DATUM_PLANE
 70
0
 62
7
  6
CONTINUOUS
  0
LAYER
  2
2_FEATURE
 70
0
 62
7
  6
CONTINUOUS
  0
LAYER
  2
6_DIM
 70
0
 62
7
  6
CONTINUOUS
  0
LAYER
  2
AXES
 70
0
 62
7
  6
CONTINUOUS
  0
LAYER
  2
BLANK_BELT
 70
0
 62
7
  6
CONTINUOUS
  0
LAYER
  2
BLANK_CURVE_BORE
 70
0
 62
7
  6
CONTINUOUS
  0
LAYER
  2
BLANK_PLAN
 70
0
 62
7
  6
CONTINUOUS
  0
LAYER
  2
BLANK_SQ
 70
0
 62
7
  6
CONTINUOUS
  0
LAYER
  2
CSYS
 70
0
 62
7
  6
CONTINUOUS
  0
LAYER
  2
DTM_AXES
 70
0
 62
7
  6
CONTINUOUS
  0
LAYER
  2
DTM_CRV
 70
0
 62
7
  6
CONTINUOUS
  0
LAYER
  2
NOTES
 70
0
 62
7
  6
CONTINUOUS
  0
LAYER
  2
OUTERLINE
 70
0
 62
7
  6
CONTINUOUS
  0
LAYER
  2
PITCH_LINE
 70
0
 62
7
  6
CONTINUOUS
  0
LAYER
  2
PLANES
 70
0
 62
7
  6
CONTINUOUS
  0
LAYER
  2
QUILTS
 70
0
 62
7
  6
CONTINUOUS
  0
ENDTAB
  0
TABLE
  2
STYLE
 70
1
  0
STYLE
  2
STANDARD
 70
0
 40
0.0
 41
0.8
 50
0.0
 71
0
 42
0.2
  3
txt
  4

  0
STYLE
  2
TEXTSTYLE_1
 70
0
 40
0.0
 41
0.8
 50
0.0
 71
0
 42
0.2
  3
gdt
  4

  0
STYLE
  2
TEXTSTYLE_2
 70
0
 40
0.0
 41
0.6
 50
0.0
 71
0
 42
0.2
  3
txt
  4

  0
STYLE
  2
TEXTSTYLE_3
 70
0
 40
0.0
 41
1.0
 50
0.0
 71
0
 42
0.2
  3
ftb_____.ttf
  4

  0
STYLE
  2
TEXTSTYLE_4
 70
0
 40
0.0
 41
1.0
 50
0.0
 71
0
 42
0.2
  3
fti_____.ttf
  4

  0
STYLE
  2
TEXTSTYLE_5
 70
0
 40
0.0
 41
1.0
 50
0.0
 71
0
 42
0.2
  3
frutiger light.ttf
  4

  0
STYLE
  2
TEXTSTYLE_6
 70
0
 40
0.0
 41
0.7
 50
0.0
 71
0
 42
0.2
  3
txt
  4

  0
STYLE
  2
TEXTSTYLE_7
 70
0
 40
0.0
 41
0.8
 50
0.0
 71
0
 42
0.2
  3
txt
  4

  0
ENDTAB
  0
ENDSEC
  0
SECTION
  2
BLOCKS
  0
BLOCK
  8
0
 62
2
  6
CONTINUOUS
  2
UNI_LOGO2_BL1
 70
64
 10
382.7840918555
 20
35.5067593403
  0
TEXT
  8
0
 62
7
  6
CONTINUOUS
 10
373.842376864
 20
30.5995157174
  7
TEXTSTYLE_4
 40
1.0655737705
  1
The brand for plastic modular belts and chains
 41
1.0
 72
0
  0
LINE
  8
0
 62
7
  6
CONTINUOUS
 10
358.7621602445
 20
36.0805298321
 11
358.7621602445
 21
33.9493822911
  0
LINE
  8
0
 62
7
  6
CONTINUOUS
 10
359.0512227376
 20
30.9584509954
 11
359.0512227376
 21
31.0552420547
  0
LINE
  8
0
 62
7
  6
CONTINUOUS
 10
358.7621602445
 20
31.0229783683
 11
358.8199727462
 21
30.8293962497
  0
LINE
  8
0
 62
7
  6
CONTINUOUS
 10
360.1556028675
 20
33.867415078
 11
360.1556028675
 21
36.0805298321
  0
LINE
  8
0
 62
7
  6
CONTINUOUS
 10
361.0746601894
 20
32.0231527829
 11
361.0746601894
 21
30.5067593403
  0
LINE
  8
0
 62
7
  6
CONTINUOUS
 10
361.3637227445
 20
30.5067593403
 11
361.3637227445
 21
31.2488242184
  0
LINE
  8
0
 62
7
  6
CONTINUOUS
 10
361.3637227445
 20
31.3778789641
 11
361.3637227445
 21
32.0231527829
  0
LINE
  8
0
 62
7
  6
CONTINUOUS
 10
358.8199727462
 20
31.216560532
 11
358.7621602445
 21
31.0229783683
  0
LINE
  8
0
 62
7
  6
CONTINUOUS
 10
359.1668477307
 20
30.7971325633
 11
359.0512227376
 21
30.9584509954
  0
LINE
  8
0
 62
7
  6
CONTINUOUS
 10
360.2652852997
 20
31.3133515913
 11
360.3230977445
 21
31.216560532
  0
LINE
  8
0
 62
7
  6
CONTINUOUS
 10
360.6121602997
 20
31.216560532
 11
360.5543476894
 21
31.3456152777
  0
LINE
  8
0
 62
7
  6
CONTINUOUS
 10
362.0408487691
 20
36.0805298321
 11
362.0408487691
 21
34.2772511436
  0
LINE
  8
0
 62
7
  6
CONTINUOUS
 10
362.0408487691
 20
32.9657757338
 11
362.0408487691
 21
32.3100380288
  0
LINE
  8
0
 62
7
  6
CONTINUOUS
 10
362.4043477445
 20
31.1520331591
 11
362.4043477445
 21
30.5067593403
  0
LINE
  8
0
 62
7
  6
CONTINUOUS
 10
362.6934101343
 20
30.5067593403
 11
362.6934101343
 21
31.1520331591
  0
LINE
  8
0
 62
7
  6
CONTINUOUS
 10
359.0512227376
 20
31.0552420547
 11
359.1090352445
 21
31.1842968456
  0
LINE
  8
0
 62
7
  6
CONTINUOUS
 10
358.8199727462
 20
30.8293962497
 11
358.9355977445
 21
30.7003414814
  0
LINE
  8
0
 62
7
  6
CONTINUOUS
 10
362.3465351343
 20
31.2810879048
 11
362.4043477445
 21
31.1520331591
  0
LINE
  8
0
 62
7
  6
CONTINUOUS
 10
363.1559103548
 20
30.7971325633
 11
363.2137226343
 21
30.668077795
  0
LINE
  8
0
 62
7
  6
CONTINUOUS
 10
362.6934101343
 20
31.1520331591
 11
362.6355978548
 21
31.3133515913
  0
LINE
  8
0
 62
7
  6
CONTINUOUS
 10
363.1559103548
 20
31.3456152777
 11
363.1559103548
 21
31.2810879048
  0
LINE
  8
0
 62
7
  6
CONTINUOUS
 10
363.1559103548
 20
30.8939236226
 11
363.1559103548
 21
30.7971325633
  0
LINE
  8
0
 62
7
  6
CONTINUOUS
 10
363.4342913921
 20
32.3100380288
 11
363.4342913921
 21
36.0805298321
  0
LINE
  8
0
 62
7
  6
CONTINUOUS
 10
363.4449727445
 20
30.7648688543
 11
363.4449727445
 21
30.8293962497
  0
LINE
  8
0
 62
7
  6
CONTINUOUS
 10
363.7621602445
 20
36.0805298321
 11
363.7621602445
 21
32.3100380288
  0
LINE
  8
0
 62
7
  6
CONTINUOUS
 10
360.5543476894
 20
30.7003414814
 11
360.6121602997
 21
30.8293962497
  0
LINE
  8
0
 62
7
  6
CONTINUOUS
 10
364.9480979651
 20
30.6035504109
 11
364.890285024
 21
30.7648688543
  0
LINE
  8
0
 62
7
  6
CONTINUOUS
 10
364.6012229651
 20
31.2810879048
 11
364.6012229651
 21
31.1842968456
  0
LINE
  8
0
 62
7
  6
CONTINUOUS
 10
364.6012229651
 20
31.0552420547
 11
364.6012229651
 21
30.8616599362
  0
LINE
  8
0
 62
7
  6
CONTINUOUS
 10
364.890285024
 20
30.7648688543
 11
364.890285024
 21
31.2810879048
  0
LINE
  8
0
 62
7
  6
CONTINUOUS
 10
365.1556028675
 20
32.3100380288
 11
365.1556028675
 21
34.1133167174
  0
LINE
  8
0
 62
7
  6
CONTINUOUS
 10
365.1556028675
 20
35.4247921272
 11
365.1556028675
 21
36.0805298321
  0
LINE
  8
0
 62
7
  6
CONTINUOUS
 10
365.4684104651
 20
32.0231527829
 11
365.4684104651
 21
31.8618343508
  0
LINE
  8
0
 62
7
  6
CONTINUOUS
 10
365.4684104651
 20
31.5391973962
 11
365.4684104651
 21
30.5067593403
  0
LINE
  8
0
 62
7
  6
CONTINUOUS
 10
365.757472524
 20
30.5067593403
 11
365.757472524
 21
31.5391973962
  0
LINE
  8
0
 62
7
  6
CONTINUOUS
 10
365.757472524
 20
31.8618343508
 11
365.757472524
 21
32.0231527829
  0
LINE
  8
0
 62
7
  6
CONTINUOUS
 10
360.3230977445
 20
30.8293962497
 11
360.2652852997
 21
30.7326051679
  0
LINE
  8
0
 62
7
  6
CONTINUOUS
 10
362.6355978548
 20
31.3133515913
 11
362.5777852445
 21
31.3778789641
  0
LINE
  8
0
 62
7
  6
CONTINUOUS
 10
363.5027853548
 20
30.7003414814
 11
363.4449727445
 21
30.7648688543
  0
LINE
  8
0
 62
7
  6
CONTINUOUS
 10
364.6590352445
 20
30.5712867188
 11
364.716847524
 21
30.5067593403
  0
LINE
  8
0
 62
7
  6
CONTINUOUS
 10
364.6012229651
 20
30.668077795
 11
364.6590352445
 21
30.5712867188
  0
LINE
  8
0
 62
7
  6
CONTINUOUS
 10
365.0059102445
 20
30.5067593403
 11
364.9480979651
 21
30.6035504109
  0
LINE
  8
0
 62
7
  6
CONTINUOUS
 10
364.890285024
 20
31.2810879048
 11
364.8324727445
 21
31.3778789641
  0
LINE
  8
0
 62
7
  6
CONTINUOUS
 10
366.2199727445
 20
31.5391973962
 11
366.2199727445
 21
30.5067593403
  0
LINE
  8
0
 62
7
  6
CONTINUOUS
 10
366.5090354651
 20
30.5067593403
 11
366.5090354651
 21
31.2488242184
  0
LINE
  8
0
 62
7
  6
CONTINUOUS
 10
366.5090354651
 20
31.3778789641
 11
366.5090354651
 21
31.5391973962
  0
LINE
  8
0
 62
7
  6
CONTINUOUS
 10
367.0408487691
 20
34.5231527829
 11
367.0408487691
 21
32.3100380288
  0
LINE
  8
0
 62
7
  6
CONTINUOUS
 10
358.9355977445
 20
31.3456152777
 11
358.8199727462
 21
31.216560532
  0
LINE
  8
0
 62
7
  6
CONTINUOUS
 10
359.1090352445
 20
31.1842968456
 11
359.1668477307
 21
31.2488242184
  0
LINE
  8
0
 62
7
  6
CONTINUOUS
 10
358.9355977445
 20
30.7003414814
 11
359.0512227376
 21
30.6358140973
  0
LINE
  8
0
 62
7
  6
CONTINUOUS
 10
359.3402852307
 20
30.7003414814
 11
359.1668477307
 21
30.7971325633
  0
LINE
  8
0
 62
7
  6
CONTINUOUS
 10
364.543410024
 20
31.3456152777
 11
364.6012229651
 21
31.2810879048
  0
LINE
  8
0
 62
7
  6
CONTINUOUS
 10
367.491847524
 20
31.2810879048
 11
367.5496604651
 21
31.1197694727
  0
LINE
  8
0
 62
7
  6
CONTINUOUS
 10
367.838722524
 20
31.1197694727
 11
367.7809102445
 21
31.2810879048
  0
LINE
  8
0
 62
7
  6
CONTINUOUS
 10
367.5496604651
 20
31.1197694727
 11
367.5496604651
 21
30.5067593403
  0
LINE
  8
0
 62
7
  6
CONTINUOUS
 10
367.838722524
 20
30.5067593403
 11
367.838722524
 21
31.1197694727
  0
LINE
  8
0
 62
7
  6
CONTINUOUS
 10
368.3012227445
 20
31.3456152777
 11
368.3012227445
 21
31.2810879048
  0
LINE
  8
0
 62
7
  6
CONTINUOUS
 10
368.4342913921
 20
32.3100380288
 11
368.4342913921
 21
34.4411855698
  0
LINE
  8
0
 62
7
  6
CONTINUOUS
 10
368.7621602445
 20
36.0805298321
 11
368.7621602445
 21
32.3100380288
  0
LINE
  8
0
 62
7
  6
CONTINUOUS
 10
363.4449727445
 20
30.8293962497
 11
363.5027853548
 21
30.926187309
  0
LINE
  8
0
 62
7
  6
CONTINUOUS
 10
359.0512227376
 20
30.6358140973
 11
359.2246602583
 21
30.5712867188
  0
LINE
  8
0
 62
7
  6
CONTINUOUS
 10
360.5543476894
 20
31.3456152777
 11
360.3809101894
 21
31.4424063369
  0
LINE
  8
0
 62
7
  6
CONTINUOUS
 10
363.2137226343
 20
30.668077795
 11
363.3871601343
 21
30.5712867188
  0
LINE
  8
0
 62
7
  6
CONTINUOUS
 10
362.2309102445
 20
31.3456152777
 11
362.3465351343
 21
31.2810879048
  0
LINE
  8
0
 62
7
  6
CONTINUOUS
 10
362.5777852445
 20
31.3778789641
 11
362.4621603548
 21
31.4424063369
  0
LINE
  8
0
 62
7
  6
CONTINUOUS
 10
368.3012227445
 20
30.7648688543
 11
368.4168479651
 21
30.6358140973
  0
LINE
  8
0
 62
7
  6
CONTINUOUS
 10
368.6480977445
 20
30.7003414814
 11
368.5902854651
 21
30.7648688543
  0
LINE
  8
0
 62
7
  6
CONTINUOUS
 10
368.3012227445
 20
31.2810879048
 11
368.4168479651
 21
31.1520331591
  0
LINE
  8
0
 62
7
  6
CONTINUOUS
 10
367.7809102445
 20
31.2810879048
 11
367.7230979651
 21
31.3778789641
  0
LINE
  8
0
 62
7
  6
CONTINUOUS
 10
370.1512223035
 20
30.7003414814
 11
370.1512223035
 21
30.7648688543
  0
LINE
  8
0
 62
7
  6
CONTINUOUS
 10
370.1556028675
 20
32.3100380288
 11
370.1556028675
 21
36.0805298321
  0
LINE
  8
0
 62
7
  6
CONTINUOUS
 10
363.2137226343
 20
31.4101426505
 11
363.1559103548
 21
31.3456152777
  0
LINE
  8
0
 62
7
  6
CONTINUOUS
 10
360.091847717
 20
31.3778789641
 11
360.2652852997
 21
31.3133515913
  0
LINE
  8
0
 62
7
  6
CONTINUOUS
 10
364.8324727445
 20
31.3778789641
 11
364.716847524
 21
31.4424063369
  0
LINE
  8
0
 62
7
  6
CONTINUOUS
 10
368.6480977445
 20
31.216560532
 11
368.5902854651
 21
31.2810879048
  0
LINE
  8
0
 62
7
  6
CONTINUOUS
 10
369.8043479651
 20
30.8293962497
 11
369.8621602445
 21
30.7648688543
  0
LINE
  8
0
 62
7
  6
CONTINUOUS
 10
370.1512223035
 20
30.7648688543
 11
370.0355977445
 21
30.8939236226
  0
LINE
  8
0
 62
7
  6
CONTINUOUS
 10
369.8043479651
 20
31.3456152777
 11
369.8621602445
 21
31.2810879048
  0
LINE
  8
0
 62
7
  6
CONTINUOUS
 10
370.1512223035
 20
31.2810879048
 11
370.0355977445
 21
31.4101426505
  0
LINE
  8
0
 62
7
  6
CONTINUOUS
 10
363.4449727445
 20
31.2810879048
 11
363.5027853548
 21
31.3456152777
  0
LINE
  8
0
 62
7
  6
CONTINUOUS
 10
363.2715352445
 20
31.0229783683
 11
363.1559103548
 21
30.8939236226
  0
LINE
  8
0
 62
7
  6
CONTINUOUS
 10
364.6012229651
 20
30.8616599362
 11
364.543410024
 21
30.7971325633
  0
LINE
  8
0
 62
7
  6
CONTINUOUS
 10
364.543410024
 20
30.6035504109
 11
364.6012229651
 21
30.668077795
  0
LINE
  8
0
 62
7
  6
CONTINUOUS
 10
363.3871601343
 20
30.5712867188
 11
363.5027853548
 21
30.5390230296
  0
LINE
  8
0
 62
7
  6
CONTINUOUS
 10
360.3809101894
 20
31.4424063369
 11
360.1496602445
 21
31.5069337098
  0
LINE
  8
0
 62
7
  6
CONTINUOUS
 10
363.7340351343
 20
30.6358140973
 11
363.5027853548
 21
30.7003414814
  0
LINE
  8
0
 62
7
  6
CONTINUOUS
 10
362.4621603548
 20
31.4424063369
 11
362.2887228548
 21
31.5069337098
  0
LINE
  8
0
 62
7
  6
CONTINUOUS
 10
364.716847524
 20
31.4424063369
 11
364.543410024
 21
31.5069337098
  0
LINE
  8
0
 62
7
  6
CONTINUOUS
 10
367.3762229651
 20
31.3456152777
 11
367.491847524
 21
31.2810879048
  0
LINE
  8
0
 62
7
  6
CONTINUOUS
 10
367.7230979651
 20
31.3778789641
 11
367.6074727445
 21
31.4424063369
  0
LINE
  8
0
 62
7
  6
CONTINUOUS
 10
359.2246602583
 20
30.5712867188
 11
359.3980977583
 21
30.5390230296
  0
LINE
  8
0
 62
7
  6
CONTINUOUS
 10
359.6871602721
 20
30.6358140973
 11
359.3402852307
 21
30.7003414814
  0
LINE
  8
0
 62
7
  6
CONTINUOUS
 10
362.1152853548
 20
31.3778789641
 11
362.2309102445
 21
31.3456152777
  0
LINE
  8
0
 62
7
  6
CONTINUOUS
 10
364.4277854651
 20
31.3778789641
 11
364.543410024
 21
31.3456152777
  0
LINE
  8
0
 62
7
  6
CONTINUOUS
 10
368.7637229651
 20
30.668077795
 11
368.6480977445
 21
30.7003414814
  0
LINE
  8
0
 62
7
  6
CONTINUOUS
 10
367.2605977445
 20
31.3778789641
 11
367.3762229651
 21
31.3456152777
  0
LINE
  8
0
 62
7
  6
CONTINUOUS
 10
368.4168479651
 20
30.6358140973
 11
368.5902854651
 21
30.5712867188
  0
LINE
  8
0
 62
7
  6
CONTINUOUS
 10
367.6074727445
 20
31.4424063369
 11
367.4340352445
 21
31.5069337098
  0
LINE
  8
0
 62
7
  6
CONTINUOUS
 10
368.8215352445
 20
31.1520331591
 11
368.6480977445
 21
31.216560532
  0
LINE
  8
0
 62
7
  6
CONTINUOUS
 10
369.6309104651
 20
30.8939236226
 11
369.8043479651
 21
30.8293962497
  0
LINE
  8
0
 62
7
  6
CONTINUOUS
 10
370.0355977445
 20
31.4101426505
 11
369.8621602445
 21
31.4746700234
  0
LINE
  8
0
 62
7
  6
CONTINUOUS
 10
368.4168479651
 20
31.1520331591
 11
368.6480977445
 21
31.0552420547
  0
LINE
  8
0
 62
7
  6
CONTINUOUS
 10
370.0355977445
 20
30.8939236226
 11
369.8043479651
 21
30.9907146818
  0
LINE
  8
0
 62
7
  6
CONTINUOUS
 10
368.5902854651
 20
31.2810879048
 11
368.6480977445
 21
31.3456152777
  0
LINE
  8
0
 62
7
  6
CONTINUOUS
 10
359.0512227376
 20
31.4101426505
 11
358.9355977445
 21
31.3456152777
  0
LINE
  8
0
 62
7
  6
CONTINUOUS
 10
359.1668477307
 20
31.2488242184
 11
359.3402852307
 21
31.3456152777
  0
LINE
  8
0
 62
7
  6
CONTINUOUS
 10
361.4793477997
 20
31.4424063369
 11
361.3637227445
 21
31.3778789641
  0
LINE
  8
0
 62
7
  6
CONTINUOUS
 10
361.3637227445
 20
31.2488242184
 11
361.4793477997
 21
31.3133515913
  0
LINE
  8
0
 62
7
  6
CONTINUOUS
 10
360.3809101894
 20
30.6035504109
 11
360.5543476894
 21
30.7003414814
  0
LINE
  8
0
 62
7
  6
CONTINUOUS
 10
359.3980977583
 20
30.5390230296
 11
359.744972717
 21
30.5067593403
  0
LINE
  8
0
 62
7
  6
CONTINUOUS
 10
363.5027853548
 20
30.5390230296
 11
363.7340351343
 21
30.5067593403
  0
LINE
  8
0
 62
7
  6
CONTINUOUS
 10
361.8840352445
 20
31.4101426505
 11
362.1152853548
 21
31.3778789641
  0
LINE
  8
0
 62
7
  6
CONTINUOUS
 10
364.1965353548
 20
31.4101426505
 11
364.4277854651
 21
31.3778789641
  0
LINE
  8
0
 62
7
  6
CONTINUOUS
 10
368.6480977445
 20
31.0552420547
 11
369.6309104651
 21
30.8939236226
  0
LINE
  8
0
 62
7
  6
CONTINUOUS
 10
369.8043479651
 20
30.9907146818
 11
368.8215352445
 21
31.1520331591
  0
LINE
  8
0
 62
7
  6
CONTINUOUS
 10
362.2887228548
 20
31.5069337098
 11
362.1152853548
 21
31.5391973962
  0
LINE
  8
0
 62
7
  6
CONTINUOUS
 10
368.5902854651
 20
30.5712867188
 11
368.7637229651
 21
30.5390230296
  0
LINE
  8
0
 62
7
  6
CONTINUOUS
 10
367.4340352445
 20
31.5069337098
 11
367.2605977445
 21
31.5391973962
  0
LINE
  8
0
 62
7
  6
CONTINUOUS
 10
369.6887227445
 20
31.3778789641
 11
369.8043479651
 21
31.3456152777
  0
LINE
  8
0
 62
7
  6
CONTINUOUS
 10
369.8621602445
 20
30.7648688543
 11
369.8043479651
 21
30.7003414814
  0
LINE
  8
0
 62
7
  6
CONTINUOUS
 10
368.4168479651
 20
31.4424063369
 11
368.3012227445
 21
31.3456152777
  0
LINE
  8
0
 62
7
  6
CONTINUOUS
 10
363.3293478548
 20
31.4746700234
 11
363.2137226343
 21
31.4101426505
  0
LINE
  8
0
 62
7
  6
CONTINUOUS
 10
363.3871601343
 20
31.0875057863
 11
363.2715352445
 21
31.0229783683
  0
LINE
  8
0
 62
7
  6
CONTINUOUS
 10
363.5027853548
 20
30.926187309
 11
363.6184102445
 21
30.9907146818
  0
LINE
  8
0
 62
7
  6
CONTINUOUS
 10
361.0746601894
 20
30.5067593403
 11
361.3637227445
 21
30.5067593403
  0
LINE
  8
0
 62
7
  6
CONTINUOUS
 10
362.4043477445
 20
30.5067593403
 11
362.6934101343
 21
30.5067593403
  0
LINE
  8
0
 62
7
  6
CONTINUOUS
 10
363.7340351343
 20
30.5067593403
 11
364.0809101343
 21
30.5067593403
  0
LINE
  8
0
 62
7
  6
CONTINUOUS
 10
364.716847524
 20
30.5067593403
 11
365.0059102445
 21
30.5067593403
  0
LINE
  8
0
 62
7
  6
CONTINUOUS
 10
365.4684104651
 20
30.5067593403
 11
365.757472524
 21
30.5067593403
  0
LINE
  8
0
 62
7
  6
CONTINUOUS
 10
366.2199727445
 20
30.5067593403
 11
366.5090354651
 21
30.5067593403
  0
LINE
  8
0
 62
7
  6
CONTINUOUS
 10
367.5496604651
 20
30.5067593403
 11
367.838722524
 21
30.5067593403
  0
LINE
  8
0
 62
7
  6
CONTINUOUS
 10
369.1105979651
 20
30.5067593403
 11
369.4574729651
 21
30.5067593403
  0
LINE
  8
0
 62
7
  6
CONTINUOUS
 10
369.4574729651
 20
30.6358140973
 11
369.1105979651
 21
30.6358140973
  0
LINE
  8
0
 62
7
  6
CONTINUOUS
 10
364.0809101343
 20
30.6358140973
 11
363.7340351343
 21
30.6358140973
  0
LINE
  8
0
 62
7
  6
CONTINUOUS
 10
368.5902854651
 20
30.7648688543
 11
368.3012227445
 21
30.7648688543
  0
LINE
  8
0
 62
7
  6
CONTINUOUS
 10
360.6121602997
 20
30.8293962497
 11
360.3230977445
 21
30.8293962497
  0
LINE
  8
0
 62
7
  6
CONTINUOUS
 10
359.6871602721
 20
31.4101426505
 11
360.091847717
 21
31.3778789641
  0
LINE
  8
0
 62
7
  6
CONTINUOUS
 10
360.1496602445
 20
31.5069337098
 11
359.744972717
 21
31.5391973962
  0
LINE
  8
0
 62
7
  6
CONTINUOUS
 10
368.7637229651
 20
30.5390230296
 11
369.1105979651
 21
30.5067593403
  0
LINE
  8
0
 62
7
  6
CONTINUOUS
 10
369.1105979651
 20
30.6358140973
 11
368.7637229651
 21
30.668077795
  0
LINE
  8
0
 62
7
  6
CONTINUOUS
 10
364.543410024
 20
31.5069337098
 11
364.1965353548
 21
31.5391973962
  0
LINE
  8
0
 62
7
  6
CONTINUOUS
 10
369.3418477445
 20
31.4101426505
 11
369.6887227445
 21
31.3778789641
  0
LINE
  8
0
 62
7
  6
CONTINUOUS
 10
369.6887227445
 20
31.5069337098
 11
369.3418477445
 21
31.5391973962
  0
LINE
  8
0
 62
7
  6
CONTINUOUS
 10
367.0293479651
 20
31.4101426505
 11
367.2605977445
 21
31.3778789641
  0
LINE
  8
0
 62
7
  6
CONTINUOUS
 10
369.8621602445
 20
31.4746700234
 11
369.6887227445
 21
31.5069337098
  0
LINE
  8
0
 62
7
  6
CONTINUOUS
 10
370.0355977445
 20
30.6035504109
 11
370.1512223035
 21
30.7003414814
  0
LINE
  8
0
 62
7
  6
CONTINUOUS
 10
364.543410024
 20
30.7971325633
 11
364.369972524
 21
30.7003414814
  0
LINE
  8
0
 62
7
  6
CONTINUOUS
 10
366.624660024
 20
31.4424063369
 11
366.5090354651
 21
31.3778789641
  0
LINE
  8
0
 62
7
  6
CONTINUOUS
 10
366.5090354651
 20
31.2488242184
 11
366.624660024
 21
31.3133515913
  0
LINE
  8
0
 62
7
  6
CONTINUOUS
 10
359.2246602583
 20
31.4746700234
 11
359.0512227376
 21
31.4101426505
  0
LINE
  8
0
 62
7
  6
CONTINUOUS
 10
361.6527851343
 20
31.5069337098
 11
361.4793477997
 21
31.4424063369
  0
LINE
  8
0
 62
7
  6
CONTINUOUS
 10
361.4793477997
 20
31.3133515913
 11
361.6527851343
 21
31.3778789641
  0
LINE
  8
0
 62
7
  6
CONTINUOUS
 10
360.2652852997
 20
30.7326051679
 11
360.091847717
 21
30.668077795
  0
LINE
  8
0
 62
7
  6
CONTINUOUS
 10
369.6887227445
 20
30.668077795
 11
369.4574729651
 21
30.6358140973
  0
LINE
  8
0
 62
7
  6
CONTINUOUS
 10
364.0809101343
 20
30.5067593403
 11
364.369972524
 21
30.5390230296
  0
LINE
  8
0
 62
7
  6
CONTINUOUS
 10
369.4574729651
 20
30.5067593403
 11
369.8043479651
 21
30.5390230296
  0
LINE
  8
0
 62
7
  6
CONTINUOUS
 10
359.744972717
 20
30.5067593403
 11
360.1496602445
 21
30.5390230296
  0
LINE
  8
0
 62
7
  6
CONTINUOUS
 10
360.091847717
 20
30.668077795
 11
359.6871602721
 21
30.6358140973
  0
LINE
  8
0
 62
7
  6
CONTINUOUS
 10
363.9652852445
 20
31.0552420547
 11
364.6012229651
 21
31.0552420547
  0
LINE
  8
0
 62
7
  6
CONTINUOUS
 10
364.6012229651
 20
31.1842968456
 11
363.9652852445
 21
31.1842968456
  0
LINE
  8
0
 62
7
  6
CONTINUOUS
 10
360.3230977445
 20
31.216560532
 11
360.6121602997
 21
31.216560532
  0
LINE
  8
0
 62
7
  6
CONTINUOUS
 10
363.1559103548
 20
31.2810879048
 11
363.4449727445
 21
31.2810879048
  0
LINE
  8
0
 62
7
  6
CONTINUOUS
 10
369.8621602445
 20
31.2810879048
 11
370.1512223035
 21
31.2810879048
  0
LINE
  8
0
 62
7
  6
CONTINUOUS
 10
363.8496603548
 20
31.4101426505
 11
364.1965353548
 21
31.4101426505
  0
LINE
  8
0
 62
7
  6
CONTINUOUS
 10
368.9949727445
 20
31.4101426505
 11
369.3418477445
 21
31.4101426505
  0
LINE
  8
0
 62
7
  6
CONTINUOUS
 10
369.3418477445
 20
31.5391973962
 11
368.9949727445
 21
31.5391973962
  0
LINE
  8
0
 62
7
  6
CONTINUOUS
 10
367.2605977445
 20
31.5391973962
 11
367.0293479651
 21
31.5391973962
  0
LINE
  8
0
 62
7
  6
CONTINUOUS
 10
366.5090354651
 20
31.5391973962
 11
366.2199727445
 21
31.5391973962
  0
LINE
  8
0
 62
7
  6
CONTINUOUS
 10
365.757472524
 20
31.5391973962
 11
365.4684104651
 21
31.5391973962
  0
LINE
  8
0
 62
7
  6
CONTINUOUS
 10
364.1965353548
 20
31.5391973962
 11
363.8496603548
 21
31.5391973962
  0
LINE
  8
0
 62
7
  6
CONTINUOUS
 10
362.1152853548
 20
31.5391973962
 11
361.8840352445
 21
31.5391973962
  0
LINE
  8
0
 62
7
  6
CONTINUOUS
 10
365.4684104651
 20
31.8618343508
 11
365.757472524
 21
31.8618343508
  0
LINE
  8
0
 62
7
  6
CONTINUOUS
 10
365.757472524
 20
32.0231527829
 11
365.4684104651
 21
32.0231527829
  0
LINE
  8
0
 62
7
  6
CONTINUOUS
 10
361.3637227445
 20
32.0231527829
 11
361.0746601894
 21
32.0231527829
  0
LINE
  8
0
 62
7
  6
CONTINUOUS
 10
360.4015045068
 20
32.3100380288
 11
360.8140758554
 21
32.3100380288
  0
LINE
  8
0
 62
7
  6
CONTINUOUS
 10
362.0408487691
 20
32.3100380288
 11
363.4342913921
 21
32.3100380288
  0
LINE
  8
0
 62
7
  6
CONTINUOUS
 10
363.7621602445
 20
32.3100380288
 11
365.1556028675
 21
32.3100380288
  0
LINE
  8
0
 62
7
  6
CONTINUOUS
 10
367.0408487691
 20
32.3100380288
 11
368.4342913921
 21
32.3100380288
  0
LINE
  8
0
 62
7
  6
CONTINUOUS
 10
368.7621602445
 20
32.3100380288
 11
370.1556028675
 21
32.3100380288
  0
LINE
  8
0
 62
7
  6
CONTINUOUS
 10
366.798097524
 20
31.5069337098
 11
366.624660024
 21
31.4424063369
  0
LINE
  8
0
 62
7
  6
CONTINUOUS
 10
364.369972524
 20
30.5390230296
 11
364.543410024
 21
30.6035504109
  0
LINE
  8
0
 62
7
  6
CONTINUOUS
 10
369.8043479651
 20
30.5390230296
 11
370.0355977445
 21
30.6035504109
  0
LINE
  8
0
 62
7
  6
CONTINUOUS
 10
369.8043479651
 20
30.7003414814
 11
369.6887227445
 21
30.668077795
  0
LINE
  8
0
 62
7
  6
CONTINUOUS
 10
368.7637229651
 20
31.3778789641
 11
368.9949727445
 21
31.4101426505
  0
LINE
  8
0
 62
7
  6
CONTINUOUS
 10
366.798097524
 20
31.3778789641
 11
367.0293479651
 21
31.4101426505
  0
LINE
  8
0
 62
7
  6
CONTINUOUS
 10
363.7340351343
 20
31.0229783683
 11
363.9652852445
 21
31.0552420547
  0
LINE
  8
0
 62
7
  6
CONTINUOUS
 10
367.0293479651
 20
31.5391973962
 11
366.798097524
 21
31.5069337098
  0
LINE
  8
0
 62
7
  6
CONTINUOUS
 10
363.6184102445
 20
31.3778789641
 11
363.8496603548
 21
31.4101426505
  0
LINE
  8
0
 62
7
  6
CONTINUOUS
 10
368.9949727445
 20
31.5391973962
 11
368.6480977445
 21
31.5069337098
  0
LINE
  8
0
 62
7
  6
CONTINUOUS
 10
363.9652852445
 20
31.1842968456
 11
363.6184102445
 21
31.1520331591
  0
LINE
  8
0
 62
7
  6
CONTINUOUS
 10
359.744972717
 20
31.5391973962
 11
359.3980977583
 21
31.5069337098
  0
LINE
  8
0
 62
7
  6
CONTINUOUS
 10
363.8496603548
 20
31.5391973962
 11
363.4449727445
 21
31.5069337098
  0
LINE
  8
0
 62
7
  6
CONTINUOUS
 10
361.221176638
 20
33.4575790124
 11
360.565438933
 21
33.4575790124
  0
LINE
  8
0
 62
7
  6
CONTINUOUS
 10
366.624660024
 20
31.3133515913
 11
366.798097524
 21
31.3778789641
  0
LINE
  8
0
 62
7
  6
CONTINUOUS
 10
368.6480977445
 20
31.3456152777
 11
368.7637229651
 21
31.3778789641
  0
LINE
  8
0
 62
7
  6
CONTINUOUS
 10
368.6480977445
 20
31.5069337098
 11
368.4168479651
 21
31.4424063369
  0
LINE
  8
0
 62
7
  6
CONTINUOUS
 10
364.369972524
 20
30.7003414814
 11
364.0809101343
 21
30.6358140973
  0
LINE
  8
0
 62
7
  6
CONTINUOUS
 10
361.6527851343
 20
31.3778789641
 11
361.8840352445
 21
31.4101426505
  0
LINE
  8
0
 62
7
  6
CONTINUOUS
 10
361.8840352445
 20
31.5391973962
 11
361.6527851343
 21
31.5069337098
  0
LINE
  8
0
 62
7
  6
CONTINUOUS
 10
359.4559102445
 20
31.3778789641
 11
359.6871602721
 21
31.4101426505
  0
LINE
  8
0
 62
7
  6
CONTINUOUS
 10
365.9752749986
 20
34.9329888485
 11
366.6310127035
 21
34.9329888485
  0
LINE
  8
0
 62
7
  6
CONTINUOUS
 10
363.6184102445
 20
30.9907146818
 11
363.7340351343
 21
31.0229783683
  0
LINE
  8
0
 62
7
  6
CONTINUOUS
 10
363.6184102445
 20
31.1520331591
 11
363.3871601343
 21
31.0875057863
  0
LINE
  8
0
 62
7
  6
CONTINUOUS
 10
363.5027853548
 20
31.3456152777
 11
363.6184102445
 21
31.3778789641
  0
LINE
  8
0
 62
7
  6
CONTINUOUS
 10
360.1496602445
 20
30.5390230296
 11
360.3809101894
 21
30.6035504109
  0
LINE
  8
0
 62
7
  6
CONTINUOUS
 10
363.4449727445
 20
31.5069337098
 11
363.3293478548
 21
31.4746700234
  0
LINE
  8
0
 62
7
  6
CONTINUOUS
 10
359.3980977583
 20
31.5069337098
 11
359.2246602583
 21
31.4746700234
  0
LINE
  8
0
 62
7
  6
CONTINUOUS
 10
370.1556028675
 20
36.0805298321
 11
368.7621602445
 21
36.0805298321
  0
LINE
  8
0
 62
7
  6
CONTINUOUS
 10
366.7949471298
 20
36.0805298321
 11
366.3823757812
 21
36.0805298321
  0
LINE
  8
0
 62
7
  6
CONTINUOUS
 10
365.1556028675
 20
36.0805298321
 11
363.7621602445
 21
36.0805298321
  0
LINE
  8
0
 62
7
  6
CONTINUOUS
 10
363.4342913921
 20
36.0805298321
 11
362.0408487691
 21
36.0805298321
  0
LINE
  8
0
 62
7
  6
CONTINUOUS
 10
360.1556028675
 20
36.0805298321
 11
358.7621602445
 21
36.0805298321
  0
LINE
  8
0
 62
7
  6
CONTINUOUS
 10
359.3402852307
 20
31.3456152777
 11
359.4559102445
 21
31.3778789641
  0
CIRCLE
  8
0
 62
7
  6
CONTINUOUS
 10
369.458881556
 20
38.4165954059
 40
2.0901639344
  0
ARC
  8
0
 62
7
  6
CONTINUOUS
 10
360.4015045068
 20
33.9493822911
 40
1.6393442623
 50
180.0
 51
270.0
  0
ARC
  8
0
 62
7
  6
CONTINUOUS
 10
366.7949471298
 20
34.4411855698
 40
1.6393442623
 50
0.0
 51
90.0
  0
ARC
  8
0
 62
7
  6
CONTINUOUS
 10
360.8140758554
 20
33.7854478649
 40
1.4754098361
 50
270.0
 51
326.2510114041
  0
ARC
  8
0
 62
7
  6
CONTINUOUS
 10
366.3823757812
 20
34.6051199961
 40
1.4754098361
 50
90.0
 51
146.2510114041
  0
ARC
  8
0
 62
7
  6
CONTINUOUS
 10
361.221176638
 20
34.2772511436
 40
0.8196721311
 50
270.0
 51
360.0
  0
ARC
  8
0
 62
7
  6
CONTINUOUS
 10
365.9752749986
 20
34.1133167174
 40
0.8196721311
 50
90.0
 51
180.0
  0
ARC
  8
0
 62
7
  6
CONTINUOUS
 10
360.565438933
 20
33.867415078
 40
0.4098360656
 50
180.0
 51
270.0
  0
ARC
  8
0
 62
7
  6
CONTINUOUS
 10
366.6310127035
 20
34.5231527829
 40
0.4098360656
 50
0.0
 51
90.0
  0
SOLID
  8
0
 62
7
  6
CONTINUOUS
 10
365.4684104651
 20
31.8618347111
 11
365.4684104651
 21
32.0231531947
 12
365.757472524
 22
31.8618347111
 13
365.757472524
 23
32.0231531947
  0
SOLID
  8
0
 62
7
  6
CONTINUOUS
 10
359.744972717
 20
31.5391977439
 11
360.1496602445
 21
31.5069333244
 12
359.3980977583
 22
31.5069333244
 13
359.3980977583
 23
31.5069333244
  0
SOLID
  8
0
 62
7
  6
CONTINUOUS
 10
359.2246602583
 20
31.4746706537
 11
359.3980977583
 21
31.5069333244
 12
360.1496602445
 22
31.5069333244
 13
360.1496602445
 23
31.5069333244
  0
SOLID
  8
0
 62
7
  6
CONTINUOUS
 10
360.1496602445
 20
31.5069333244
 11
360.3809101894
 21
31.4424063504
 12
359.2246602583
 22
31.4746706537
 13
359.2246602583
 23
31.4746706537
  0
SOLID
  8
0
 62
7
  6
CONTINUOUS
 10
359.0512227376
 20
31.4101419116
 11
359.2246602583
 21
31.4746706537
 12
360.3809101894
 22
31.4424063504
 13
360.3809101894
 23
31.4424063504
  0
SOLID
  8
0
 62
7
  6
CONTINUOUS
 10
359.0512227376
 20
31.4101419116
 11
360.3809101894
 21
31.4424063504
 12
359.6871602721
 22
31.4101419116
 13
359.6871602721
 23
31.4101419116
  0
SOLID
  8
0
 62
7
  6
CONTINUOUS
 10
359.6871602721
 20
31.4101419116
 11
360.3809101894
 21
31.4424063504
 12
360.091847717
 22
31.3778792603
 13
360.091847717
 23
31.3778792603
  0
SOLID
  8
0
 62
7
  6
CONTINUOUS
 10
360.3809101894
 20
31.4424063504
 11
360.5543476894
 21
31.345614957
 12
360.091847717
 22
31.3778792603
 13
360.091847717
 23
31.3778792603
  0
SOLID
  8
0
 62
7
  6
CONTINUOUS
 10
360.2652852997
 20
31.3133521701
 11
360.091847717
 21
31.3778792603
 12
360.5543476894
 22
31.345614957
 13
360.5543476894
 23
31.345614957
  0
SOLID
  8
0
 62
7
  6
CONTINUOUS
 10
360.2652852997
 20
31.3133521701
 11
360.5543476894
 21
31.345614957
 12
360.3230977445
 22
31.2165606992
 13
360.3230977445
 23
31.2165606992
  0
SOLID
  8
0
 62
7
  6
CONTINUOUS
 10
360.5543476894
 20
31.345614957
 11
360.6121602997
 21
31.2165606992
 12
360.3230977445
 22
31.2165606992
 13
360.3230977445
 23
31.2165606992
  0
SOLID
  8
0
 62
7
  6
CONTINUOUS
 10
361.6527851343
 20
31.5069329918
 11
361.8840352445
 21
31.5391972951
 12
362.1152853548
 22
31.5391972951
 13
362.1152853548
 23
31.5391972951
  0
SOLID
  8
0
 62
7
  6
CONTINUOUS
 10
362.1152853548
 20
31.5391972951
 11
362.2887228548
 21
31.5069329918
 12
361.6527851343
 22
31.5069329918
 13
361.6527851343
 23
31.5069329918
  0
SOLID
  8
0
 62
7
  6
CONTINUOUS
 10
361.4793477997
 20
31.4424059016
 11
361.6527851343
 21
31.5069329918
 12
362.2887228548
 22
31.5069329918
 13
362.2887228548
 23
31.5069329918
  0
SOLID
  8
0
 62
7
  6
CONTINUOUS
 10
362.2887228548
 20
31.5069329918
 11
362.4621603548
 21
31.4424059016
 12
361.4793477997
 22
31.4424059016
 13
361.4793477997
 23
31.4424059016
  0
SOLID
  8
0
 62
7
  6
CONTINUOUS
 10
362.4621603548
 20
31.4424059016
 11
361.8840352445
 21
31.4101420472
 12
361.4793477997
 22
31.4424059016
 13
361.4793477997
 23
31.4424059016
  0
SOLID
  8
0
 62
7
  6
CONTINUOUS
 10
361.3637227445
 20
31.3778788115
 11
361.4793477997
 21
31.4424059016
 12
361.8840352445
 22
31.4101420472
 13
361.8840352445
 23
31.4101420472
  0
SOLID
  8
0
 62
7
  6
CONTINUOUS
 10
361.8840352445
 20
31.4101420472
 11
361.6527851343
 21
31.3778788115
 12
361.3637227445
 22
31.3778788115
 13
361.3637227445
 23
31.3778788115
  0
SOLID
  8
0
 62
7
  6
CONTINUOUS
 10
361.8840352445
 20
31.4101420472
 11
362.4621603548
 21
31.4424059016
 12
362.1152853548
 22
31.3778788115
 13
362.1152853548
 23
31.3778788115
  0
SOLID
  8
0
 62
7
  6
CONTINUOUS
 10
362.4621603548
 20
31.4424059016
 11
362.5777852445
 21
31.3778788115
 12
362.1152853548
 22
31.3778788115
 13
362.1152853548
 23
31.3778788115
  0
SOLID
  8
0
 62
7
  6
CONTINUOUS
 10
362.2309102445
 20
31.345614957
 11
362.1152853548
 21
31.3778788115
 12
362.5777852445
 22
31.3778788115
 13
362.5777852445
 23
31.3778788115
  0
SOLID
  8
0
 62
7
  6
CONTINUOUS
 10
362.5777852445
 20
31.3778788115
 11
362.6355978548
 21
31.3133517213
 12
362.2309102445
 22
31.345614957
 13
362.2309102445
 23
31.345614957
  0
SOLID
  8
0
 62
7
  6
CONTINUOUS
 10
362.3465351343
 20
31.2810878668
 11
362.2309102445
 21
31.345614957
 12
362.6355978548
 22
31.3133517213
 13
362.6355978548
 23
31.3133517213
  0
SOLID
  8
0
 62
7
  6
CONTINUOUS
 10
362.3465351343
 20
31.2810878668
 11
362.6355978548
 21
31.3133517213
 12
362.4043477445
 22
31.1520332377
 13
362.4043477445
 23
31.1520332377
  0
SOLID
  8
0
 62
7
  6
CONTINUOUS
 10
362.6355978548
 20
31.3133517213
 11
362.6934101343
 21
31.1520332377
 12
362.4043477445
 22
31.1520332377
 13
362.4043477445
 23
31.1520332377
  0
SOLID
  8
0
 62
7
  6
CONTINUOUS
 10
361.6527851343
 20
31.3778788115
 11
361.4793477997
 21
31.3133517213
 12
361.3637227445
 22
31.3778788115
 13
361.3637227445
 23
31.3778788115
  0
SOLID
  8
0
 62
7
  6
CONTINUOUS
 10
361.4793477997
 20
31.3133517213
 11
361.3637227445
 21
31.2488235635
 12
361.3637227445
 22
31.3778788115
 13
361.3637227445
 23
31.3778788115
  0
SOLID
  8
0
 62
7
  6
CONTINUOUS
 10
361.3637227445
 20
31.2488235635
 11
361.0746601894
 21
30.5067593033
 12
361.3637227445
 22
31.3778788115
 13
361.3637227445
 23
31.3778788115
  0
SOLID
  8
0
 62
7
  6
CONTINUOUS
 10
361.3637227445
 20
31.3778788115
 11
361.0746601894
 21
30.5067593033
 12
361.3637227445
 22
32.0231527459
 13
361.3637227445
 23
32.0231527459
  0
SOLID
  8
0
 62
7
  6
CONTINUOUS
 10
361.0746601894
 20
30.5067593033
 11
361.0746601894
 21
32.0231527459
 12
361.3637227445
 22
32.0231527459
 13
361.3637227445
 23
32.0231527459
  0
SOLID
  8
0
 62
7
  6
CONTINUOUS
 10
361.3637227445
 20
31.2488235635
 11
361.3637227445
 21
30.5067593033
 12
361.0746601894
 22
30.5067593033
 13
361.0746601894
 23
30.5067593033
  0
SOLID
  8
0
 62
7
  6
CONTINUOUS
 10
362.4043477445
 20
30.5067593033
 11
362.4043477445
 21
31.1520332377
 12
362.6934101343
 22
31.1520332377
 13
362.6934101343
 23
31.1520332377
  0
SOLID
  8
0
 62
7
  6
CONTINUOUS
 10
362.6934101343
 20
31.1520332377
 11
362.6934101343
 21
30.5067593033
 12
362.4043477445
 22
30.5067593033
 13
362.4043477445
 23
30.5067593033
  0
SOLID
  8
0
 62
7
  6
CONTINUOUS
 10
363.4449727445
 20
31.506933758
 11
363.8496603548
 21
31.5391977507
 12
364.1965353548
 22
31.5391977507
 13
364.1965353548
 23
31.5391977507
  0
SOLID
  8
0
 62
7
  6
CONTINUOUS
 10
364.1965353548
 20
31.5391977507
 11
364.543410024
 21
31.506933758
 12
363.4449727445
 22
31.506933758
 13
363.4449727445
 23
31.506933758
  0
SOLID
  8
0
 62
7
  6
CONTINUOUS
 10
363.3293478548
 20
31.4746706537
 11
363.4449727445
 21
31.506933758
 12
364.543410024
 22
31.506933758
 13
364.543410024
 23
31.506933758
  0
SOLID
  8
0
 62
7
  6
CONTINUOUS
 10
364.543410024
 20
31.506933758
 11
364.716847524
 21
31.4424063504
 12
363.3293478548
 22
31.4746706537
 13
363.3293478548
 23
31.4746706537
  0
SOLID
  8
0
 62
7
  6
CONTINUOUS
 10
363.2137226343
 20
31.4101417797
 11
363.3293478548
 21
31.4746706537
 12
364.716847524
 22
31.4424063504
 13
364.716847524
 23
31.4424063504
  0
SOLID
  8
0
 62
7
  6
CONTINUOUS
 10
363.2137226343
 20
31.4101417797
 11
364.716847524
 21
31.4424063504
 12
363.8496603548
 22
31.4101417797
 13
363.8496603548
 23
31.4101417797
  0
SOLID
  8
0
 62
7
  6
CONTINUOUS
 10
363.8496603548
 20
31.4101417797
 11
364.716847524
 21
31.4424063504
 12
364.1965353548
 22
31.4101417797
 13
364.1965353548
 23
31.4101417797
  0
SOLID
  8
0
 62
7
  6
CONTINUOUS
 10
364.1965353548
 20
31.4101417797
 11
364.716847524
 21
31.4424063504
 12
364.4277854651
 22
31.3778793357
 13
364.4277854651
 23
31.3778793357
  0
SOLID
  8
0
 62
7
  6
CONTINUOUS
 10
364.716847524
 20
31.4424063504
 11
364.8324727445
 21
31.3778793357
 12
364.4277854651
 22
31.3778793357
 13
364.4277854651
 23
31.3778793357
  0
SOLID
  8
0
 62
7
  6
CONTINUOUS
 10
363.1559103548
 20
31.3456153429
 11
363.2137226343
 21
31.4101417797
 12
363.8496603548
 22
31.4101417797
 13
363.8496603548
 23
31.4101417797
  0
SOLID
  8
0
 62
7
  6
CONTINUOUS
 10
364.543410024
 20
31.3456153429
 11
364.4277854651
 21
31.3778793357
 12
364.8324727445
 22
31.3778793357
 13
364.8324727445
 23
31.3778793357
  0
SOLID
  8
0
 62
7
  6
CONTINUOUS
 10
364.543410024
 20
31.3456153429
 11
364.8324727445
 21
31.3778793357
 12
364.6012229651
 22
31.2810881318
 13
364.6012229651
 23
31.2810881318
  0
SOLID
  8
0
 62
7
  6
CONTINUOUS
 10
364.8324727445
 20
31.3778793357
 11
364.890285024
 21
31.2810881318
 12
364.6012229651
 22
31.2810881318
 13
364.6012229651
 23
31.2810881318
  0
SOLID
  8
0
 62
7
  6
CONTINUOUS
 10
364.6012229651
 20
31.1842964734
 11
364.6012229651
 21
31.2810881318
 12
364.890285024
 22
31.2810881318
 13
364.890285024
 23
31.2810881318
  0
SOLID
  8
0
 62
7
  6
CONTINUOUS
 10
364.6012229651
 20
31.1842964734
 11
364.890285024
 21
31.2810881318
 12
364.6012229651
 22
31.0552422931
 13
364.6012229651
 23
31.0552422931
  0
SOLID
  8
0
 62
7
  6
CONTINUOUS
 10
364.6012229651
 20
31.0552422931
 11
364.890285024
 21
31.2810881318
 12
364.6012229651
 22
30.8616599362
 13
364.6012229651
 23
30.8616599362
  0
SOLID
  8
0
 62
7
  6
CONTINUOUS
 10
364.890285024
 20
31.2810881318
 11
364.890285024
 21
30.7648681127
 12
364.6012229651
 22
30.8616599362
 13
364.6012229651
 23
30.8616599362
  0
SOLID
  8
0
 62
7
  6
CONTINUOUS
 10
366.798097524
 20
31.5069339419
 11
367.0293479651
 21
31.5391976292
 12
367.2605977445
 22
31.5391976292
 13
367.2605977445
 23
31.5391976292
  0
SOLID
  8
0
 62
7
  6
CONTINUOUS
 10
367.2605977445
 20
31.5391976292
 11
367.4340352445
 21
31.5069339419
 12
366.798097524
 22
31.5069339419
 13
366.798097524
 23
31.5069339419
  0
SOLID
  8
0
 62
7
  6
CONTINUOUS
 10
366.624660024
 20
31.4424065674
 11
366.798097524
 21
31.5069339419
 12
367.4340352445
 22
31.5069339419
 13
367.4340352445
 23
31.5069339419
  0
SOLID
  8
0
 62
7
  6
CONTINUOUS
 10
367.4340352445
 20
31.5069339419
 11
367.6074727445
 21
31.4424065674
 12
366.624660024
 22
31.4424065674
 13
366.624660024
 23
31.4424065674
  0
SOLID
  8
0
 62
7
  6
CONTINUOUS
 10
367.6074727445
 20
31.4424065674
 11
367.0293479651
 21
31.4101420472
 12
366.624660024
 22
31.4424065674
 13
366.624660024
 23
31.4424065674
  0
SOLID
  8
0
 62
7
  6
CONTINUOUS
 10
366.5090354651
 20
31.377879193
 11
366.624660024
 21
31.4424065674
 12
367.0293479651
 22
31.4101420472
 13
367.0293479651
 23
31.4101420472
  0
SOLID
  8
0
 62
7
  6
CONTINUOUS
 10
367.0293479651
 20
31.4101420472
 11
366.798097524
 21
31.377879193
 12
366.5090354651
 22
31.377879193
 13
366.5090354651
 23
31.377879193
  0
SOLID
  8
0
 62
7
  6
CONTINUOUS
 10
367.0293479651
 20
31.4101420472
 11
367.6074727445
 21
31.4424065674
 12
367.2605977445
 22
31.377879193
 13
367.2605977445
 23
31.377879193
  0
SOLID
  8
0
 62
7
  6
CONTINUOUS
 10
367.6074727445
 20
31.4424065674
 11
367.7230979651
 21
31.377879193
 12
367.2605977445
 22
31.377879193
 13
367.2605977445
 23
31.377879193
  0
SOLID
  8
0
 62
7
  6
CONTINUOUS
 10
367.3762229651
 20
31.345614957
 11
367.2605977445
 21
31.377879193
 12
367.7230979651
 22
31.377879193
 13
367.7230979651
 23
31.377879193
  0
SOLID
  8
0
 62
7
  6
CONTINUOUS
 10
367.3762229651
 20
31.345614957
 11
367.7230979651
 21
31.377879193
 12
367.491847524
 22
31.2810881312
 13
367.491847524
 23
31.2810881312
  0
SOLID
  8
0
 62
7
  6
CONTINUOUS
 10
367.7230979651
 20
31.377879193
 11
367.7809102445
 21
31.2810881312
 12
367.491847524
 22
31.2810881312
 13
367.491847524
 23
31.2810881312
  0
SOLID
  8
0
 62
7
  6
CONTINUOUS
 10
367.5496604651
 20
31.119769695
 11
367.491847524
 21
31.2810881312
 12
367.7809102445
 22
31.2810881312
 13
367.7809102445
 23
31.2810881312
  0
SOLID
  8
0
 62
7
  6
CONTINUOUS
 10
367.7809102445
 20
31.2810881312
 11
367.838722524
 21
31.119769695
 12
367.5496604651
 22
31.119769695
 13
367.5496604651
 23
31.119769695
  0
SOLID
  8
0
 62
7
  6
CONTINUOUS
 10
366.798097524
 20
31.377879193
 11
366.624660024
 21
31.3133521701
 12
366.5090354651
 22
31.377879193
 13
366.5090354651
 23
31.377879193
  0
SOLID
  8
0
 62
7
  6
CONTINUOUS
 10
366.624660024
 20
31.3133521701
 11
366.5090354651
 21
31.2488235635
 12
366.5090354651
 22
31.377879193
 13
366.5090354651
 23
31.377879193
  0
SOLID
  8
0
 62
7
  6
CONTINUOUS
 10
366.5090354651
 20
31.2488235635
 11
366.2199727445
 21
30.5067596374
 12
366.5090354651
 22
31.377879193
 13
366.5090354651
 23
31.377879193
  0
SOLID
  8
0
 62
7
  6
CONTINUOUS
 10
366.5090354651
 20
31.377879193
 11
366.2199727445
 21
30.5067596374
 12
366.5090354651
 22
31.5391976292
 13
366.5090354651
 23
31.5391976292
  0
SOLID
  8
0
 62
7
  6
CONTINUOUS
 10
366.2199727445
 20
30.5067596374
 11
366.2199727445
 21
31.5391976292
 12
366.5090354651
 22
31.5391976292
 13
366.5090354651
 23
31.5391976292
  0
SOLID
  8
0
 62
7
  6
CONTINUOUS
 10
366.5090354651
 20
31.2488235635
 11
366.5090354651
 21
30.5067596374
 12
366.2199727445
 22
30.5067596374
 13
366.2199727445
 23
30.5067596374
  0
SOLID
  8
0
 62
7
  6
CONTINUOUS
 10
367.5496604651
 20
30.5067596374
 11
367.5496604651
 21
31.119769695
 12
367.838722524
 22
31.119769695
 13
367.838722524
 23
31.119769695
  0
SOLID
  8
0
 62
7
  6
CONTINUOUS
 10
367.838722524
 20
31.119769695
 11
367.838722524
 21
30.5067596374
 12
367.5496604651
 22
30.5067596374
 13
367.5496604651
 23
30.5067596374
  0
SOLID
  8
0
 62
7
  6
CONTINUOUS
 10
368.6480977445
 20
31.5069334157
 11
368.9949727445
 21
31.539197762
 12
369.3418477445
 22
31.539197762
 13
369.3418477445
 23
31.539197762
  0
SOLID
  8
0
 62
7
  6
CONTINUOUS
 10
369.3418477445
 20
31.539197762
 11
369.6887227445
 21
31.5069334157
 12
368.6480977445
 22
31.5069334157
 13
368.6480977445
 23
31.5069334157
  0
SOLID
  8
0
 62
7
  6
CONTINUOUS
 10
368.4168479651
 20
31.4424063504
 11
368.6480977445
 21
31.5069334157
 12
369.6887227445
 22
31.5069334157
 13
369.6887227445
 23
31.5069334157
  0
SOLID
  8
0
 62
7
  6
CONTINUOUS
 10
368.4168479651
 20
31.4424063504
 11
369.6887227445
 21
31.5069334406
 12
369.8621602445
 22
31.4746706537
 13
369.8621602445
 23
31.4746706537
  0
SOLID
  8
0
 62
7
  6
CONTINUOUS
 10
368.4168479651
 20
31.4424063504
 11
369.8621602445
 21
31.4746706537
 12
368.9949727445
 22
31.4101421267
 13
368.9949727445
 23
31.4101421267
  0
SOLID
  8
0
 62
7
  6
CONTINUOUS
 10
368.9949727445
 20
31.4101421267
 11
369.8621602445
 21
31.4746706537
 12
369.3418477445
 22
31.4101421267
 13
369.3418477445
 23
31.4101421267
  0
SOLID
  8
0
 62
7
  6
CONTINUOUS
 10
369.8621602445
 20
31.4746706537
 11
370.0355977445
 21
31.4101421267
 12
369.3418477445
 22
31.4101421267
 13
369.3418477445
 23
31.4101421267
  0
SOLID
  8
0
 62
7
  6
CONTINUOUS
 10
369.6887227445
 20
31.3778792603
 11
369.3418477445
 21
31.4101421267
 12
370.0355977445
 22
31.4101421267
 13
370.0355977445
 23
31.4101421267
  0
SOLID
  8
0
 62
7
  6
CONTINUOUS
 10
368.3012227445
 20
31.3456148845
 11
368.4168479651
 21
31.4424063504
 12
368.9949727445
 22
31.4101421267
 13
368.9949727445
 23
31.4101421267
  0
SOLID
  8
0
 62
7
  6
CONTINUOUS
 10
369.6887227445
 20
31.3778792603
 11
370.0355977445
 21
31.4101421267
 12
369.8043479651
 22
31.3456148845
 13
369.8043479651
 23
31.3456148845
  0
SOLID
  8
0
 62
7
  6
CONTINUOUS
 10
369.8043479651
 20
31.3456148845
 11
370.0355977445
 21
31.4101421267
 12
369.8621602445
 22
31.281087868
 13
369.8621602445
 23
31.281087868
  0
SOLID
  8
0
 62
7
  6
CONTINUOUS
 10
370.0355977445
 20
31.4101421267
 11
370.1512223035
 21
31.281087868
 12
369.8621602445
 22
31.281087868
 13
369.8621602445
 23
31.281087868
  0
SOLID
  8
0
 62
7
  6
CONTINUOUS
 10
359.4559102445
 20
31.3778792603
 11
358.9355977445
 21
31.3456148963
 12
359.6871602721
 22
31.4101421155
 13
359.6871602721
 23
31.4101421155
  0
SOLID
  8
0
 62
7
  6
CONTINUOUS
 10
358.9355977445
 20
31.3456148963
 11
359.0512227376
 21
31.4101421155
 12
359.6871602721
 22
31.4101421155
 13
359.6871602721
 23
31.4101421155
  0
SOLID
  8
0
 62
7
  6
CONTINUOUS
 10
359.4559102445
 20
31.3778792603
 11
359.3402852307
 21
31.3456148963
 12
358.9355977445
 22
31.3456148963
 13
358.9355977445
 23
31.3456148963
  0
SOLID
  8
0
 62
7
  6
CONTINUOUS
 10
358.8199727462
 20
31.2165607767
 11
358.9355977445
 21
31.3456148963
 12
359.3402852307
 22
31.3456148963
 13
359.3402852307
 23
31.3456148963
  0
SOLID
  8
0
 62
7
  6
CONTINUOUS
 10
363.1559103548
 20
31.3456149608
 11
363.8496603548
 21
31.4101420472
 12
363.6184102445
 22
31.3778792603
 13
363.6184102445
 23
31.3778792603
  0
SOLID
  8
0
 62
7
  6
CONTINUOUS
 10
363.6184102445
 20
31.3778792603
 11
363.5027853548
 21
31.3456149608
 12
363.1559103548
 22
31.3456149608
 13
363.1559103548
 23
31.3456149608
  0
SOLID
  8
0
 62
7
  6
CONTINUOUS
 10
363.1559103548
 20
31.2810878707
 11
363.1559103548
 21
31.3456149608
 12
363.5027853548
 22
31.3456149608
 13
363.5027853548
 23
31.3456149608
  0
SOLID
  8
0
 62
7
  6
CONTINUOUS
 10
363.5027853548
 20
31.3456149608
 11
363.4449727445
 21
31.2810878707
 12
363.1559103548
 22
31.2810878707
 13
363.1559103548
 23
31.2810878707
  0
SOLID
  8
0
 62
7
  6
CONTINUOUS
 10
368.3012227445
 20
31.3456149608
 11
368.9949727445
 21
31.4101420472
 12
368.7637229651
 22
31.3778792603
 13
368.7637229651
 23
31.3778792603
  0
SOLID
  8
0
 62
7
  6
CONTINUOUS
 10
368.7637229651
 20
31.3778792603
 11
368.6480977445
 21
31.3456149608
 12
368.3012227445
 22
31.3456149608
 13
368.3012227445
 23
31.3456149608
  0
SOLID
  8
0
 62
7
  6
CONTINUOUS
 10
368.3012227445
 20
31.2810878707
 11
368.3012227445
 21
31.3456149608
 12
368.6480977445
 22
31.3456149608
 13
368.6480977445
 23
31.3456149608
  0
SOLID
  8
0
 62
7
  6
CONTINUOUS
 10
368.6480977445
 20
31.3456149608
 11
368.5902854651
 21
31.2810878707
 12
368.3012227445
 22
31.2810878707
 13
368.3012227445
 23
31.2810878707
  0
SOLID
  8
0
 62
7
  6
CONTINUOUS
 10
368.4168479651
 20
31.1520336865
 11
368.3012227445
 21
31.2810878707
 12
368.5902854651
 22
31.2810878707
 13
368.5902854651
 23
31.2810878707
  0
SOLID
  8
0
 62
7
  6
CONTINUOUS
 10
358.8199727462
 20
31.2165607767
 11
359.3402852307
 21
31.345614957
 12
359.1668477307
 22
31.2488235635
 13
359.1668477307
 23
31.2488235635
  0
SOLID
  8
0
 62
7
  6
CONTINUOUS
 10
359.1668477307
 20
31.2488235635
 11
359.1090352445
 21
31.1842964734
 12
358.8199727462
 22
31.2165607767
 13
358.8199727462
 23
31.2165607767
  0
SOLID
  8
0
 62
7
  6
CONTINUOUS
 10
358.7621602445
 20
31.0229779898
 11
358.8199727462
 21
31.2165607767
 12
359.1090352445
 22
31.1842964734
 13
359.1090352445
 23
31.1842964734
  0
SOLID
  8
0
 62
7
  6
CONTINUOUS
 10
363.6184102445
 20
31.1520336865
 11
363.9652852445
 21
31.1842964611
 12
364.6012229651
 22
31.1842964611
 13
364.6012229651
 23
31.1842964611
  0
SOLID
  8
0
 62
7
  6
CONTINUOUS
 10
363.6184102445
 20
31.1520336865
 11
364.6012229651
 21
31.1842964611
 12
363.3871601343
 22
31.0875057863
 13
363.3871601343
 23
31.0875057863
  0
SOLID
  8
0
 62
7
  6
CONTINUOUS
 10
363.3871601343
 20
31.0875057863
 11
364.6012229651
 21
31.1842964611
 12
363.9652852445
 22
31.0552422808
 13
363.9652852445
 23
31.0552422808
  0
SOLID
  8
0
 62
7
  6
CONTINUOUS
 10
364.6012229651
 20
31.1842964611
 11
364.6012229651
 21
31.0552422808
 12
363.9652852445
 22
31.0552422808
 13
363.9652852445
 23
31.0552422808
  0
SOLID
  8
0
 62
7
  6
CONTINUOUS
 10
368.4168479651
 20
31.1520338754
 11
368.5902854651
 21
31.2810878668
 12
368.6480977445
 22
31.2165607767
 13
368.6480977445
 23
31.2165607767
  0
SOLID
  8
0
 62
7
  6
CONTINUOUS
 10
368.6480977445
 20
31.2165607767
 11
368.8215352445
 21
31.1520338754
 12
368.4168479651
 22
31.1520338754
 13
368.4168479651
 23
31.1520338754
  0
SOLID
  8
0
 62
7
  6
CONTINUOUS
 10
368.6480977445
 20
31.0552422931
 11
368.4168479651
 21
31.1520338754
 12
368.8215352445
 22
31.1520338754
 13
368.8215352445
 23
31.1520338754
  0
SOLID
  8
0
 62
7
  6
CONTINUOUS
 10
368.8215352445
 20
31.1520338754
 11
369.8043479651
 21
30.9907152029
 12
368.6480977445
 22
31.0552422931
 13
368.6480977445
 23
31.0552422931
  0
SOLID
  8
0
 62
7
  6
CONTINUOUS
 10
369.6309104651
 20
30.8939239876
 11
368.6480977445
 21
31.0552422931
 12
369.8043479651
 22
30.9907152029
 13
369.8043479651
 23
30.9907152029
  0
SOLID
  8
0
 62
7
  6
CONTINUOUS
 10
369.8043479651
 20
30.9907152029
 11
370.0355977445
 21
30.8939239876
 12
369.6309104651
 22
30.8939239876
 13
369.6309104651
 23
30.8939239876
  0
SOLID
  8
0
 62
7
  6
CONTINUOUS
 10
369.8043479651
 20
30.8293967193
 11
369.6309104651
 21
30.8939239876
 12
370.0355977445
 22
30.8939239876
 13
370.0355977445
 23
30.8939239876
  0
SOLID
  8
0
 62
7
  6
CONTINUOUS
 10
369.8043479651
 20
30.8293967193
 11
370.0355977445
 21
30.8939239876
 12
369.8621602445
 22
30.7648682694
 13
369.8621602445
 23
30.7648682694
  0
SOLID
  8
0
 62
7
  6
CONTINUOUS
 10
370.0355977445
 20
30.8939239876
 11
370.1512223035
 21
30.7648682694
 12
369.8621602445
 22
30.7648682694
 13
369.8621602445
 23
30.7648682694
  0
SOLID
  8
0
 62
7
  6
CONTINUOUS
 10
369.8043479651
 20
30.7003411846
 11
369.8621602445
 21
30.7648682694
 12
370.1512223035
 22
30.7648682694
 13
370.1512223035
 23
30.7648682694
  0
SOLID
  8
0
 62
7
  6
CONTINUOUS
 10
370.1512223035
 20
30.7648682694
 11
370.1512223035
 21
30.7003411846
 12
369.8043479651
 22
30.7003411846
 13
369.8043479651
 23
30.7003411846
  0
SOLID
  8
0
 62
7
  6
CONTINUOUS
 10
369.6887227445
 20
30.6680782357
 11
369.8043479651
 21
30.7003411846
 12
370.1512223035
 22
30.7003411846
 13
370.1512223035
 23
30.7003411846
  0
SOLID
  8
0
 62
7
  6
CONTINUOUS
 10
369.6887227445
 20
30.6680782357
 11
370.1512223035
 21
30.7003411846
 12
369.4574729651
 22
30.6358140998
 13
369.4574729651
 23
30.6358140998
  0
SOLID
  8
0
 62
7
  6
CONTINUOUS
 10
370.1512223035
 20
30.7003411846
 11
370.0355977445
 21
30.6035511455
 12
369.4574729651
 22
30.6358140998
 13
369.4574729651
 23
30.6358140998
  0
SOLID
  8
0
 62
7
  6
CONTINUOUS
 10
370.0355977445
 20
30.6035511455
 11
368.5902854651
 21
30.5712868422
 12
369.4574729651
 22
30.6358140998
 13
369.4574729651
 23
30.6358140998
  0
SOLID
  8
0
 62
7
  6
CONTINUOUS
 10
369.4574729651
 20
30.6358140998
 11
368.5902854651
 21
30.5712868422
 12
369.1105979651
 22
30.6358140998
 13
369.1105979651
 23
30.6358140998
  0
SOLID
  8
0
 62
7
  6
CONTINUOUS
 10
368.5902854651
 20
30.5712868422
 11
368.4168479651
 21
30.6358140998
 12
369.1105979651
 22
30.6358140998
 13
369.1105979651
 23
30.6358140998
  0
SOLID
  8
0
 62
7
  6
CONTINUOUS
 10
368.5902854651
 20
30.5712868422
 11
370.0355977445
 21
30.6035511455
 12
368.7637229651
 22
30.5390223111
 13
368.7637229651
 23
30.5390223111
  0
SOLID
  8
0
 62
7
  6
CONTINUOUS
 10
370.0355977445
 20
30.6035511455
 11
369.8043479651
 21
30.5390223111
 12
368.7637229651
 22
30.5390223111
 13
368.7637229651
 23
30.5390223111
  0
SOLID
  8
0
 62
7
  6
CONTINUOUS
 10
369.1105979651
 20
30.5067599302
 11
368.7637229651
 21
30.5390223111
 12
369.8043479651
 22
30.5390223111
 13
369.8043479651
 23
30.5390223111
  0
SOLID
  8
0
 62
7
  6
CONTINUOUS
 10
369.8043479651
 20
30.5390223111
 11
369.4574729651
 21
30.5067599302
 12
369.1105979651
 22
30.5067599302
 13
369.1105979651
 23
30.5067599302
  0
SOLID
  8
0
 62
7
  6
CONTINUOUS
 10
358.7621602445
 20
31.0229779898
 11
359.1090352445
 21
31.1842964734
 12
359.0512227376
 22
31.0552422931
 13
359.0512227376
 23
31.0552422931
  0
SOLID
  8
0
 62
7
  6
CONTINUOUS
 10
359.0512227376
 20
31.0552422931
 11
359.0512227376
 21
30.9584509954
 12
358.7621602445
 22
31.0229779898
 13
358.7621602445
 23
31.0229779898
  0
SOLID
  8
0
 62
7
  6
CONTINUOUS
 10
358.8199727462
 20
30.8293967193
 11
358.7621602445
 21
31.0229779898
 12
359.0512227376
 22
30.9584509954
 13
359.0512227376
 23
30.9584509954
  0
SOLID
  8
0
 62
7
  6
CONTINUOUS
 10
359.0512227376
 20
30.9584509954
 11
359.1668477307
 21
30.797132416
 12
358.8199727462
 22
30.8293967193
 13
358.8199727462
 23
30.8293967193
  0
SOLID
  8
0
 62
7
  6
CONTINUOUS
 10
358.9355977445
 20
30.7003413087
 11
358.8199727462
 21
30.8293967193
 12
359.1668477307
 22
30.797132416
 13
359.1668477307
 23
30.797132416
  0
SOLID
  8
0
 62
7
  6
CONTINUOUS
 10
359.1668477307
 20
30.797132416
 11
359.3402852307
 21
30.7003413087
 12
358.9355977445
 22
30.7003413087
 13
358.9355977445
 23
30.7003413087
  0
SOLID
  8
0
 62
7
  6
CONTINUOUS
 10
359.0512227376
 20
30.6358140759
 11
358.9355977445
 21
30.7003413087
 12
359.3402852307
 22
30.7003413087
 13
359.3402852307
 23
30.7003413087
  0
SOLID
  8
0
 62
7
  6
CONTINUOUS
 10
359.3402852307
 20
30.7003413087
 11
359.6871602721
 21
30.6358140759
 12
359.0512227376
 22
30.6358140759
 13
359.0512227376
 23
30.6358140759
  0
SOLID
  8
0
 62
7
  6
CONTINUOUS
 10
359.2246602583
 20
30.5712868422
 11
359.0512227376
 21
30.6358140759
 12
359.6871602721
 22
30.6358140759
 13
359.6871602721
 23
30.6358140759
  0
SOLID
  8
0
 62
7
  6
CONTINUOUS
 10
363.2715352445
 20
31.0229779808
 11
363.3871601343
 21
31.0875057863
 12
363.9652852445
 22
31.0552422931
 13
363.9652852445
 23
31.0552422931
  0
SOLID
  8
0
 62
7
  6
CONTINUOUS
 10
363.9652852445
 20
31.0552422931
 11
363.7340351343
 21
31.0229779808
 12
363.2715352445
 22
31.0229779808
 13
363.2715352445
 23
31.0229779808
  0
SOLID
  8
0
 62
7
  6
CONTINUOUS
 10
363.1559103548
 20
30.8939238094
 11
363.2715352445
 21
31.0229779808
 12
363.7340351343
 22
31.0229779808
 13
363.7340351343
 23
31.0229779808
  0
SOLID
  8
0
 62
7
  6
CONTINUOUS
 10
363.5027853548
 20
30.926187309
 11
363.1559103548
 21
30.8939238094
 12
363.6184102445
 22
30.9907152029
 13
363.6184102445
 23
30.9907152029
  0
SOLID
  8
0
 62
7
  6
CONTINUOUS
 10
363.1559103548
 20
30.8939238094
 11
363.7340351343
 21
31.0229779898
 12
363.6184102445
 22
30.9907152029
 13
363.6184102445
 23
30.9907152029
  0
SOLID
  8
0
 62
7
  6
CONTINUOUS
 10
363.5027853548
 20
30.926187309
 11
363.4449727445
 21
30.8293967193
 12
363.1559103548
 22
30.8939238094
 13
363.1559103548
 23
30.8939238094
  0
SOLID
  8
0
 62
7
  6
CONTINUOUS
 10
363.1559103548
 20
30.797132416
 11
363.1559103548
 21
30.8939238094
 12
363.4449727445
 22
30.8293967193
 13
363.4449727445
 23
30.8293967193
  0
SOLID
  8
0
 62
7
  6
CONTINUOUS
 10
363.4449727445
 20
30.8293967193
 11
363.4449727445
 21
30.7648681127
 12
363.1559103548
 22
30.797132416
 13
363.1559103548
 23
30.797132416
  0
SOLID
  8
0
 62
7
  6
CONTINUOUS
 10
363.2137226343
 20
30.6680782357
 11
363.1559103548
 21
30.797132416
 12
363.4449727445
 22
30.7648681127
 13
363.4449727445
 23
30.7648681127
  0
SOLID
  8
0
 62
7
  6
CONTINUOUS
 10
364.6012229651
 20
30.8616599362
 11
364.890285024
 21
30.7648681127
 12
364.543410024
 22
30.797132416
 13
364.543410024
 23
30.797132416
  0
SOLID
  8
0
 62
7
  6
CONTINUOUS
 10
364.369972524
 20
30.7003410226
 11
364.543410024
 21
30.797132416
 12
364.890285024
 22
30.7648681127
 13
364.890285024
 23
30.7648681127
  0
SOLID
  8
0
 62
7
  6
CONTINUOUS
 10
364.369972524
 20
30.7003410226
 11
364.890285024
 21
30.7648681127
 12
364.6012229651
 22
30.6680782357
 13
364.6012229651
 23
30.6680782357
  0
SOLID
  8
0
 62
7
  6
CONTINUOUS
 10
364.890285024
 20
30.7648681127
 11
364.9480979651
 21
30.6035511455
 12
364.6012229651
 22
30.6680782357
 13
364.6012229651
 23
30.6680782357
  0
SOLID
  8
0
 62
7
  6
CONTINUOUS
 10
364.6590352445
 20
30.5712868422
 11
364.6012229651
 21
30.6680782357
 12
364.9480979651
 22
30.6035511455
 13
364.9480979651
 23
30.6035511455
  0
SOLID
  8
0
 62
7
  6
CONTINUOUS
 10
364.6590352445
 20
30.5712868422
 11
364.9480979651
 21
30.6035511455
 12
364.716847524
 22
30.5067598731
 13
364.716847524
 23
30.5067598731
  0
SOLID
  8
0
 62
7
  6
CONTINUOUS
 10
364.9480979651
 20
30.6035511455
 11
365.0059102445
 21
30.5067598731
 12
364.716847524
 22
30.5067598731
 13
364.716847524
 23
30.5067598731
  0
SOLID
  8
0
 62
7
  6
CONTINUOUS
 10
360.2652852997
 20
30.7326051679
 11
360.3230977445
 21
30.8293966612
 12
360.6121602997
 22
30.8293966612
 13
360.6121602997
 23
30.8293966612
  0
SOLID
  8
0
 62
7
  6
CONTINUOUS
 10
360.6121602997
 20
30.8293966612
 11
360.5543476894
 21
30.7003410226
 12
360.2652852997
 22
30.7326051679
 13
360.2652852997
 23
30.7326051679
  0
SOLID
  8
0
 62
7
  6
CONTINUOUS
 10
360.091847717
 20
30.6680782357
 11
360.2652852997
 21
30.7326051679
 12
360.5543476894
 22
30.7003410226
 13
360.5543476894
 23
30.7003410226
  0
SOLID
  8
0
 62
7
  6
CONTINUOUS
 10
360.091847717
 20
30.6680782357
 11
360.5543476894
 21
30.7003410226
 12
359.6871602721
 22
30.6358139324
 13
359.6871602721
 23
30.6358139324
  0
SOLID
  8
0
 62
7
  6
CONTINUOUS
 10
360.5543476894
 20
30.7003410226
 11
360.3809101894
 21
30.6035511455
 12
359.6871602721
 22
30.6358139324
 13
359.6871602721
 23
30.6358139324
  0
SOLID
  8
0
 62
7
  6
CONTINUOUS
 10
359.2246602583
 20
30.5712868422
 11
359.6871602721
 21
30.6358139324
 12
360.3809101894
 22
30.6035511455
 13
360.3809101894
 23
30.6035511455
  0
SOLID
  8
0
 62
7
  6
CONTINUOUS
 10
359.2246602583
 20
30.5712868422
 11
360.3809101894
 21
30.6035511455
 12
359.3980977583
 22
30.5390224228
 13
359.3980977583
 23
30.5390224228
  0
SOLID
  8
0
 62
7
  6
CONTINUOUS
 10
360.3809101894
 20
30.6035511455
 11
360.1496602445
 21
30.5390224228
 12
359.3980977583
 22
30.5390224228
 13
359.3980977583
 23
30.5390224228
  0
SOLID
  8
0
 62
7
  6
CONTINUOUS
 10
359.744972717
 20
30.5067597521
 11
359.3980977583
 21
30.5390224228
 12
360.1496602445
 22
30.5390224228
 13
360.1496602445
 23
30.5390224228
  0
SOLID
  8
0
 62
7
  6
CONTINUOUS
 10
363.2137226343
 20
30.6680782357
 11
363.4449727445
 21
30.7648681127
 12
363.5027853548
 22
30.7003410226
 13
363.5027853548
 23
30.7003410226
  0
SOLID
  8
0
 62
7
  6
CONTINUOUS
 10
363.5027853548
 20
30.7003410226
 11
363.7340351343
 21
30.6358139324
 12
363.2137226343
 22
30.6680782357
 13
363.2137226343
 23
30.6680782357
  0
SOLID
  8
0
 62
7
  6
CONTINUOUS
 10
363.3871601343
 20
30.5712868422
 11
363.2137226343
 21
30.6680782357
 12
363.7340351343
 22
30.6358139324
 13
363.7340351343
 23
30.6358139324
  0
SOLID
  8
0
 62
7
  6
CONTINUOUS
 10
364.0809101343
 20
30.6358139363
 11
364.369972524
 21
30.7003410226
 12
364.6012229651
 22
30.6680782357
 13
364.6012229651
 23
30.6680782357
  0
SOLID
  8
0
 62
7
  6
CONTINUOUS
 10
364.6012229651
 20
30.6680782357
 11
364.543410024
 21
30.6035511455
 12
364.0809101343
 22
30.6358139363
 13
364.0809101343
 23
30.6358139363
  0
SOLID
  8
0
 62
7
  6
CONTINUOUS
 10
364.543410024
 20
30.6035511455
 11
363.3871601343
 21
30.5712868422
 12
364.0809101343
 22
30.6358139363
 13
364.0809101343
 23
30.6358139363
  0
SOLID
  8
0
 62
7
  6
CONTINUOUS
 10
363.3871601343
 20
30.5712868422
 11
363.7340351343
 21
30.6358139363
 12
364.0809101343
 22
30.6358139363
 13
364.0809101343
 23
30.6358139363
  0
SOLID
  8
0
 62
7
  6
CONTINUOUS
 10
363.3871601343
 20
30.5712868422
 11
364.543410024
 21
30.6035511455
 12
363.5027853548
 22
30.5390225267
 13
363.5027853548
 23
30.5390225267
  0
SOLID
  8
0
 62
7
  6
CONTINUOUS
 10
364.543410024
 20
30.6035511455
 11
364.369972524
 21
30.5390225267
 12
363.5027853548
 22
30.5390225267
 13
363.5027853548
 23
30.5390225267
  0
SOLID
  8
0
 62
7
  6
CONTINUOUS
 10
363.7340351343
 20
30.5067596914
 11
363.5027853548
 21
30.5390225267
 12
364.369972524
 22
30.5390225267
 13
364.369972524
 23
30.5390225267
  0
SOLID
  8
0
 62
7
  6
CONTINUOUS
 10
364.369972524
 20
30.5390225267
 11
364.0809101343
 21
30.5067596914
 12
363.7340351343
 22
30.5067596914
 13
363.7340351343
 23
30.5067596914
  0
SOLID
  8
0
 62
7
  6
CONTINUOUS
 10
368.7637229651
 20
30.6680782357
 11
368.4168479651
 21
30.6358138717
 12
368.6480977445
 22
30.7003410226
 13
368.6480977445
 23
30.7003410226
  0
SOLID
  8
0
 62
7
  6
CONTINUOUS
 10
368.6480977445
 20
30.7003410226
 11
368.4168479651
 21
30.6358138717
 12
368.5902854651
 22
30.7648680521
 13
368.5902854651
 23
30.7648680521
  0
SOLID
  8
0
 62
7
  6
CONTINUOUS
 10
368.4168479651
 20
30.6358138717
 11
368.3012227445
 21
30.7648680521
 12
368.5902854651
 22
30.7648680521
 13
368.5902854651
 23
30.7648680521
  0
SOLID
  8
0
 62
7
  6
CONTINUOUS
 10
368.7637229651
 20
30.6680782357
 11
369.1105979651
 21
30.6358138717
 12
368.4168479651
 22
30.6358138717
 13
368.4168479651
 23
30.6358138717
  0
SOLID
  8
0
 62
7
  6
CONTINUOUS
 10
365.4684104651
 20
30.5067597521
 11
365.4684104651
 21
31.5391977439
 12
365.757472524
 22
30.5067597521
 13
365.757472524
 23
31.5391977439
  0
ENDBLK
  8
0
  6
BYBLOCK
 62
0
  0
BLOCK
  8
0
 62
2
  6
CONTINUOUS
  2
AMMEAAL_LOGO_BL0
 70
64
 10
240.8592468615
 20
19.762288695
  0
TEXT
  8
0
 62
7
  6
CONTINUOUS
 10
227.1239507038
 20
19.1357028027
  7
TEXTSTYLE_3
 40
2.7338706658
  1
Ammeraal Beltech
 41
1.0
 51
15.0
 72
0
  0
TEXT
  8
0
 62
7
  6
CONTINUOUS
 10
237.9247515296
 20
16.8621661299
  7
TEXTSTYLE_4
 40
1.0935482663
  1
Innovation & Service in Belting
 41
1.0
 72
0
  0
LINE
  8
0
 62
7
  6
CONTINUOUS
 10
221.0994100525
 20
19.9022961113
 11
221.8775620458
 21
23.5632134089
  0
LINE
  8
0
 62
7
  6
CONTINUOUS
 10
231.9727303357
 20
27.2266073205
 11
222.3653797889
 21
24.1049898993
  0
LINE
  8
0
 62
7
  6
CONTINUOUS
 10
221.3246933848
 20
19.2089453082
 11
228.8317686459
 21
12.4495443822
  0
LINE
  8
0
 62
7
  6
CONTINUOUS
 10
221.5872277955
 20
20.4440726016
 11
232.3954971607
 21
23.9558922005
  0
LINE
  8
0
 62
7
  6
CONTINUOUS
 10
232.3912920235
 20
13.6061036368
 11
223.9458323548
 21
21.2104296785
  0
LINE
  8
0
 62
7
  6
CONTINUOUS
 10
232.9111147433
 20
26.3816822048
 11
231.9345552061
 21
21.7873308023
  0
LINE
  8
0
 62
7
  6
CONTINUOUS
 10
231.2347532584
 20
18.4950214885
 11
230.5483050469
 21
15.2655365641
  0
LINE
  8
0
 62
7
  6
CONTINUOUS
 10
233.5922108419
 20
13.9963058145
 11
234.5484423775
 21
18.4950214885
  0
LINE
  8
0
 62
7
  6
CONTINUOUS
 10
235.2482443252
 20
21.7873308023
 11
235.6924861276
 21
23.8773241617
  0
LINE
  8
0
 62
7
  6
CONTINUOUS
 10
229.5448697213
 20
12.2979700695
 11
233.1043930989
 21
13.4545293241
  0
LINE
  8
0
 62
7
  6
CONTINUOUS
 10
232.685831411
 20
27.0750330078
 11
235.4672027953
 21
24.5706749648
  0
ARC
  8
0
 62
7
  6
CONTINUOUS
 10
222.5906631212
 20
23.4116390962
 40
0.7290321776
 50
108.0
 51
168.0
  0
ARC
  8
0
 62
7
  6
CONTINUOUS
 10
232.198013668
 20
26.5332565175
 40
0.7290321776
 50
348.0
 51
108.0
  0
ARC
  8
0
 62
7
  6
CONTINUOUS
 10
234.9793850522
 20
24.0288984744
 40
0.7290321776
 50
348.0
 51
48.0
  0
ARC
  8
0
 62
7
  6
CONTINUOUS
 10
229.319586389
 20
12.9913208726
 40
0.7290321776
 50
228.0
 51
288.0
  0
ARC
  8
0
 62
7
  6
CONTINUOUS
 10
221.8125111278
 20
19.7507217986
 40
0.7290321776
 50
108.0
 51
228.0
  0
ARC
  8
0
 62
7
  6
CONTINUOUS
 10
232.8791097665
 20
14.1478801272
 40
0.7290321776
 50
228.0
 51
348.0
  0
ENDBLK
  8
0
  6
BYBLOCK
 62
0
  0
BLOCK
  8
0
  2
_FILLED
 70
64
 10
0.0
 20
0.0
  0
SOLID
  8
0
  6
BYBLOCK
 62
0
 10
0.0
 20
0.0
 11
-1.0
 21
0.2142857143
 12
-1.0
 22
-0.2142857143
 13
-1.0
 23
-0.2142857143
  0
ENDBLK
  8
0
  6
BYBLOCK
 62
0
  0
ENDSEC
  0
SECTION
  2
ENTITIES
  0
TEXT
  8
0
 62
5
  6
CONTINUOUS
 10
304.937007874
 20
25.636
  7
TEXTSTYLE_2
 40
2.8
  1
Scale :
 41
0.6
 51
0.000019
 72
0
  0
TEXT
  8
0
 62
5
  6
CONTINUOUS
 10
324.937007874
 20
25.636
  7
TEXTSTYLE_2
 40
2.8
  1
Belt type:
 41
0.6
 51
0.000019
 72
0
  0
INSERT
  8
0
 62
2
  6
CONTINUOUS
  2
AMMEAAL_LOGO_BL0
 10
240.8592468615
 20
19.762288695
  0
INSERT
  8
0
 62
2
  6
CONTINUOUS
  2
UNI_LOGO2_BL1
 10
382.7840918555
 20
35.5067593403
  0
LINE
  8
0
 62
2
  6
CONTINUOUS
 10
218.937007874
 20
30.0
 11
408.937007874
 21
30.0
  0
LINE
  8
0
 62
2
  6
CONTINUOUS
 10
218.937007874
 20
30.0
 11
218.937007874
 21
10.0
  0
LINE
  8
0
 62
2
  6
CONTINUOUS
 10
218.937007874
 20
10.0
 11
408.937007874
 21
10.0
  0
LINE
  8
0
 62
2
  6
CONTINUOUS
 10
303.937007874
 20
30.0
 11
303.937007874
 21
10.0
  0
LINE
  8
0
 62
2
  6
CONTINUOUS
 10
323.937007874
 20
30.0
 11
323.937007874
 21
10.0
  0
LINE
  8
0
 62
2
  6
CONTINUOUS
 10
408.937007874
 20
30.0
 11
408.937007874
 21
10.0
  0
TEXT
  8
0
 62
5
  6
CONTINUOUS
 10
221.937007874
 20
23.303
  7
TEXTSTYLE_5
 40
1.52
  1
                                                                     Ammeraal Beltech Modular A/S
 41
1.0
 72
0
  0
TEXT
  8
0
 62
5
  6
CONTINUOUS
 10
221.937007874
 20
20.595
  7
TEXTSTYLE_5
 40
1.5
  1
                                                                      Hjulmagervej 21, 7100 Vejle,  DK
 41
1.0
 72
0
  0
TEXT
  8
0
 62
5
  6
CONTINUOUS
 10
221.937007874
 20
17.881
  7
TEXTSTYLE_5
 40
1.495
  1
                                                                      tel: 
 41
1.0
 72
0
  0
TEXT
  8
0
 62
5
  6
CONTINUOUS
 10
266.9239544389
 20
17.881
  7
TEXTSTYLE_5
 40
1.51
  1
+45 75723100     fax: +45 75723348
 41
1.0
 72
0
  0
TEXT
  8
0
 62
5
  6
CONTINUOUS
 10
221.937007874
 20
15.177
  7
TEXTSTYLE_5
 40
1.5
  1
                                                                      admin@unichains.dk  www.unichains.com
 41
1.0
 72
0
  0
TEXT
  8
0
 62
5
  6
CONTINUOUS
 10
308.687007874
 20
13.75
  7
TEXTSTYLE_6
 40
5.0
  1
1:1
 41
0.7
 72
1
 11
313.937007874
 21
13.75
  0
TEXT
  8
0
 62
5
  6
CONTINUOUS
 10
326.937007874
 20
13.75
  7
TEXTSTYLE_7
 40
7.5
  1
Z10 Bore 90SQ
 41
0.6897435897
 72
0
  0
LINE
  8
0
 62
7
  6
CONTINUOUS
 10
0.0
 20
0.0
 11
0.0
 21
297.0
  0
LINE
  8
0
 62
7
  6
CONTINUOUS
 10
8.937007874
 20
10.0
 11
8.937007874
 21
287.0
  0
LINE
  8
0
 62
7
  6
CONTINUOUS
 10
0.0
 20
0.0
 11
420.0
 21
0.0
  0
LINE
  8
0
 62
7
  6
CONTINUOUS
 10
408.937007874
 20
10.0
 11
8.937007874
 21
10.0
  0
LINE
  8
0
 62
7
  6
CONTINUOUS
 10
218.937007874
 20
30.0
 11
408.937007874
 21
30.0
  0
LINE
  8
0
 62
7
  6
CONTINUOUS
 10
210.0
 20
297.0
 11
210.0
 21
292.0
  0
LINE
  8
0
 62
7
  6
CONTINUOUS
 10
210.0
 20
0.0
 11
210.0
 21
5.0
  0
LINE
  8
0
 62
7
  6
CONTINUOUS
 10
8.937007874
 20
287.0
 11
408.937007874
 21
287.0
  0
LINE
  8
0
 62
7
  6
CONTINUOUS
 10
0.0
 20
297.0
 11
420.0
 21
297.0
  0
LINE
  8
0
 62
7
  6
CONTINUOUS
 10
408.937007874
 20
287.0
 11
408.937007874
 21
10.0
  0
LINE
  8
0
 62
7
  6
CONTINUOUS
 10
420.0
 20
0.0
 11
420.0
 21
297.0
  0
LINE
  8
0
 62
7
  6
CONTINUOUS
 10
45.9259504885
 20
192.3120536359
 11
37.8904058587
 21
167.5811902165
  0
LINE
  8
0
 62
7
  6
CONTINUOUS
 10
72.6196786551
 20
233.780646174
 11
51.5823496961
 21
218.4961320097
  0
LINE
  8
0
 62
7
  6
CONTINUOUS
 10
127.5828481957
 20
92.2985895608
 11
153.586416854
 21
92.2985895608
  0
LINE
  8
0
 62
7
  6
CONTINUOUS
 10
79.895057394
 20
104.8713338507
 11
100.932386353
 21
89.5868196864
  0
LINE
  8
0
 62
7
  6
CONTINUOUS
 10
48.7048978858
 20
143.0730777948
 11
56.7404425156
 21
118.3422143754
  0
LINE
  8
0
 62
7
  6
CONTINUOUS
 10
140.103629761
 20
230.9634706934
 11
139.6746161058
 21
230.8159575213
  0
LINE
  8
0
 62
7
  6
CONTINUOUS
 10
95.2525369313
 20
210.5383487316
 11
84.5169941653
 21
199.8028059656
  0
LINE
  8
0
 62
7
  6
CONTINUOUS
 10
116.8319829683
 20
229.3541024641
 11
101.2756337822
 21
213.797753278
  0
LINE
  8
0
 62
7
  6
CONTINUOUS
 10
81.2575896189
 20
193.7797091147
 11
65.7012404328
 21
178.2233599286
  0
LINE
  8
0
 62
7
  6
CONTINUOUS
 10
139.8148962917
 20
230.3806481508
 11
140.2775395647
 21
230.6513117553
  0
LINE
  8
0
 62
7
  6
CONTINUOUS
 10
143.9814981282
 20
232.6819756146
 11
143.6598667754
 21
232.5262798062
  0
LINE
  8
0
 62
7
  6
CONTINUOUS
 10
143.4871264888
 20
232.0457465582
 11
143.8087578417
 21
232.2014423665
  0
LINE
  8
0
 62
7
  6
CONTINUOUS
 10
84.5169941653
 20
144.1350461203
 11
95.2525369313
 21
133.3995033543
  0
LINE
  8
0
 62
7
  6
CONTINUOUS
 10
65.7012404328
 20
165.7144921573
 11
81.2575896189
 21
150.1581429712
  0
LINE
  8
0
 62
7
  6
CONTINUOUS
 10
101.2756337822
 20
130.1400988079
 11
116.8319829683
 21
114.5837496218
  0
LINE
  8
0
 62
7
  6
CONTINUOUS
 10
140.4456884516
 20
231.2670634445
 11
140.103629761
 21
230.9634706934
  0
LINE
  8
0
 62
7
  6
CONTINUOUS
 10
155.2424858117
 20
225.6235978564
 11
158.0216651944
 21
227.9521761208
  0
LINE
  8
0
 62
7
  6
CONTINUOUS
 10
153.6309142371
 20
224.2216406019
 11
154.8661046377
 21
225.2565644768
  0
LINE
  8
0
 62
7
  6
CONTINUOUS
 10
157.8678173021
 20
228.6500885496
 11
152.9946383866
 21
224.6186960667
  0
LINE
  8
0
 62
7
  6
CONTINUOUS
 10
165.6137021774
 20
223.1274602805
 11
160.8287057719
 21
220.0668583851
  0
LINE
  8
0
 62
7
  6
CONTINUOUS
 10
160.8280218838
 20
219.2560410957
 11
165.1206410851
 21
221.8916560622
  0
LINE
  8
0
 62
7
  6
CONTINUOUS
 10
127.1766693045
 20
264.227387811
 11
126.7945956947
 21
261.7666917774
  0
LINE
  8
0
 62
7
  6
CONTINUOUS
 10
180.6236638242
 20
244.2033994196
 11
178.8681989418
 21
242.4372317435
  0
LINE
  8
0
 62
7
  6
CONTINUOUS
 10
169.2424046375
 20
217.3540365325
 11
168.8861226354
 21
217.1659931178
  0
LINE
  8
0
 62
7
  6
CONTINUOUS
 10
169.3358845455
 20
216.5523880434
 11
169.6921665475
 21
216.740431458
  0
LINE
  8
0
 62
7
  6
CONTINUOUS
 10
167.3767884744
 20
215.4288253742
 11
167.0205064724
 21
215.2407819596
  0
LINE
  8
0
 62
7
  6
CONTINUOUS
 10
167.4702683202
 20
214.6271768209
 11
167.8265503845
 21
214.8152202998
  0
LINE
  8
DEFAULT_1
 62
2
  6
CENTER
 10
123.086416854
 20
171.9689260429
 11
123.086416854
 21
66.0302086533
  0
LINE
  8
DEFAULT_1
 62
2
  6
CENTER
 10
123.086416854
 20
171.9689260429
 11
123.086416854
 21
277.9076434326
  0
LINE
  8
0
 62
7
  6
CONTINUOUS
 10
126.7945956947
 20
261.7666917774
 11
126.1404906605
 21
252.4125539854
  0
LINE
  8
0
 62
7
  6
CONTINUOUS
 10
138.7994686056
 20
271.1303557052
 11
139.402134474
 21
273.9656756956
  0
LINE
  8
0
 62
7
  6
CONTINUOUS
 10
138.1709260308
 20
234.7995995466
 11
137.4983305302
 21
232.3365929626
  0
LINE
  8
0
 62
7
  6
CONTINUOUS
 10
138.1012540322
 20
232.1719471849
 11
138.7738495328
 21
234.6349537688
  0
LINE
  8
0
 62
7
  6
CONTINUOUS
 10
141.1855434976
 20
233.9763706696
 11
140.4456884516
 21
231.2670634445
  0
LINE
  8
0
 62
7
  6
CONTINUOUS
 10
143.2876392778
 20
233.338373345
 11
141.9057168647
 21
229.494107024
  0
LINE
  8
0
 62
7
  6
CONTINUOUS
 10
142.4938697204
 20
229.2826800452
 11
143.4871264888
 21
232.0457465582
  0
LINE
  8
0
 62
7
  6
CONTINUOUS
 10
143.6598667754
 20
232.5262798062
 11
143.8757921335
 21
233.1269463663
  0
LINE
  8
0
 62
7
  6
CONTINUOUS
 10
148.4314864608
 20
233.4504281619
 11
148.1854450222
 21
232.8614564417
  0
LINE
  8
0
 62
7
  6
CONTINUOUS
 10
147.6933620071
 20
231.6835126713
 11
146.1186966621
 21
227.9140933321
  0
LINE
  8
0
 62
7
  6
CONTINUOUS
 10
146.6953979868
 20
227.67317782
 11
148.2700633319
 21
231.4425971592
  0
LINE
  8
0
 62
7
  6
CONTINUOUS
 10
148.762146347
 20
232.6205409295
 11
149.0081877856
 21
233.2095126497
  0
LINE
  8
0
 62
7
  6
CONTINUOUS
 10
161.7785062803
 20
226.1369259279
 11
158.0745474735
 21
221.4166834386
  0
LINE
  8
0
 62
7
  6
CONTINUOUS
 10
158.6645777847
 20
220.9536885877
 11
161.5804603435
 21
224.6696242841
  0
LINE
  8
0
 62
7
  6
CONTINUOUS
 10
178.8681989418
 20
242.4372317435
 11
172.840792611
 21
235.2540485947
  0
LINE
  8
0
 62
7
  6
CONTINUOUS
 10
167.7033796421
 20
221.3341393353
 11
163.5279527722
 21
217.0253331834
  0
LINE
  8
0
 62
7
  6
CONTINUOUS
 10
164.5995867573
 20
217.0534651832
 11
165.9321698287
 21
218.4286161114
  0
LINE
  8
0
 62
7
  6
CONTINUOUS
 10
166.4652029826
 20
218.9786764056
 11
167.7089472572
 21
220.2621506823
  0
LINE
  8
0
 62
7
  6
CONTINUOUS
 10
194.0841687063
 20
242.9563077381
 11
196.2382949116
 21
244.8958916853
  0
LINE
  8
0
 62
7
  6
CONTINUOUS
 10
180.0176353125
 20
206.4266736074
 11
179.459537986
 21
206.1169132953
  0
LINE
  8
0
 62
7
  6
CONTINUOUS
 10
175.6644756191
 20
204.0105428696
 11
174.7715198186
 21
203.5149263269
  0
LINE
  8
0
 62
7
  6
CONTINUOUS
 10
184.0369305974
 20
196.254618867
 11
183.0839331851
 21
195.887464541
  0
LINE
  8
0
 62
7
  6
CONTINUOUS
 10
184.1874348584
 20
195.5088672794
 11
179.5415734332
 21
193.7189903098
  0
LINE
  8
0
 62
7
  6
CONTINUOUS
 10
179.8112023291
 20
193.0191329968
 11
185.4100608328
 21
195.1761641638
  0
LINE
  8
0
 62
7
  6
CONTINUOUS
 10
183.5998970355
 20
193.1519066531
 11
182.5028286466
 21
192.8105930751
  0
LINE
  8
0
 62
7
  6
CONTINUOUS
 10
182.8103934045
 20
192.2517319043
 11
183.6636688181
 21
192.5171980205
  0
LINE
  8
0
 62
7
  6
CONTINUOUS
 10
36.5377763235
 20
147.7465780242
 11
45.6362195965
 21
150.0150747145
  0
LINE
  8
0
 62
7
  6
CONTINUOUS
 10
23.9226929838
 20
156.2703593501
 11
21.0399094358
 21
155.9673665899
  0
LINE
  8
DEFAULT_1
 62
2
  6
CENTER
 10
123.086416854
 20
171.9689260429
 11
17.1476994643
 21
171.9689260429
  0
LINE
  8
DEFAULT_1
 62
2
  6
CENTER
 10
123.086416854
 20
171.9689260429
 11
229.0251342436
 21
171.9689260429
  0
LINE
  8
0
 62
7
  6
CONTINUOUS
 10
38.8295568835
 20
203.2446493619
 11
47.5237410131
 21
199.7319709613
  0
LINE
  8
0
 62
7
  6
CONTINUOUS
 10
33.6338930333
 20
217.5554932544
 11
31.1235774759
 21
219.0048246172
  0
LINE
  8
0
 62
7
  6
CONTINUOUS
 10
73.3045941668
 20
246.7964574145
 11
78.27363632
 21
238.8443276805
  0
LINE
  8
0
 62
7
  6
CONTINUOUS
 10
77.5129168029
 20
261.4281079144
 11
76.3339244564
 21
264.0761680806
  0
LINE
  8
0
 62
7
  6
CONTINUOUS
 10
119.3782380132
 20
82.1711603085
 11
120.0323430474
 21
91.5252981004
  0
LINE
  8
0
 62
7
  6
CONTINUOUS
 10
107.3733651023
 20
72.8074963807
 11
106.7706992339
 21
69.9721763903
  0
LINE
  8
0
 62
7
  6
CONTINUOUS
 10
140.9140929687
 20
230.6098162628
 11
141.7884671289
 21
233.8117248565
  0
LINE
  8
0
 62
7
  6
CONTINUOUS
 10
145.431736079
 20
230.8040763319
 11
144.6112195971
 21
228.521543067
  0
LINE
  8
0
 62
7
  6
CONTINUOUS
 10
145.1993721162
 20
228.3101162093
 11
146.0198885982
 21
230.5926494741
  0
LINE
  8
0
 62
7
  6
CONTINUOUS
 10
165.1206410851
 20
221.8916560622
 11
162.2047585263
 21
218.1757203657
  0
LINE
  8
0
 62
7
  6
CONTINUOUS
 10
162.7947888374
 20
217.7127255149
 11
166.4987476442
 21
222.4329680042
  0
LINE
  8
0
 62
7
  6
CONTINUOUS
 10
67.3046347661
 20
101.5006203424
 11
73.3320410969
 21
108.6838034912
  0
LINE
  8
0
 62
7
  6
CONTINUOUS
 10
169.4200823555
 20
217.5373899639
 11
169.2424046375
 21
217.3540365325
  0
LINE
  8
0
 62
7
  6
CONTINUOUS
 10
167.6433050514
 20
215.7038555213
 11
167.3767884744
 21
215.4288253742
  0
LINE
  8
0
 62
7
  6
CONTINUOUS
 10
167.8265503845
 20
214.8152202998
 11
168.2707446794
 21
215.2736038783
  0
LINE
  8
0
 62
7
  6
CONTINUOUS
 10
169.6921665475
 20
216.740431458
 11
170.0475222323
 21
217.1071385777
  0
LINE
  8
0
 62
7
  6
CONTINUOUS
 10
52.0886650016
 20
100.9815443478
 11
49.9345387963
 21
99.0419604006
  0
LINE
  8
0
 62
7
  6
CONTINUOUS
 10
177.1979763485
 20
199.1431625815
 11
177.8676932184
 21
199.5148749994
  0
LINE
  8
0
 62
7
  6
CONTINUOUS
 10
181.6627555853
 20
201.6212454251
 11
182.4440918423
 21
202.054909862
  0
LINE
  8
0
 62
7
  6
CONTINUOUS
 10
182.5028286466
 20
192.8105930751
 11
181.9304797128
 21
192.5016173189
  0
LINE
  8
0
 62
7
  6
CONTINUOUS
 10
182.1161480362
 20
191.9048322464
 11
182.8103934045
 21
192.2517319043
  0
LINE
  8
0
 62
7
  6
CONTINUOUS
 10
184.6291439508
 20
189.4139161218
 11
183.7758685372
 21
189.1484500056
  0
LINE
  8
0
 62
7
  6
CONTINUOUS
 10
183.8396402667
 20
188.5137415437
 11
184.9367086556
 21
188.8550551217
  0
LINE
  8
0
 62
7
  6
CONTINUOUS
 10
209.6350573844
 20
196.1912740617
 11
200.5366141114
 21
193.9227773714
  0
LINE
  8
0
 62
7
  6
CONTINUOUS
 10
212.0933856203
 20
196.5882973578
 11
209.6350573844
 21
196.1912740617
  0
LINE
  8
0
 62
7
  6
CONTINUOUS
 10
183.7758685372
 20
189.1484500056
 11
183.0073557121
 21
189.0402647865
  0
LINE
  8
0
 62
7
  6
CONTINUOUS
 10
183.1930241417
 20
188.4434793725
 11
183.8396402667
 21
188.5137415437
  0
LINE
  8
0
 62
7
  6
CONTINUOUS
 10
222.2501407241
 20
187.6674927358
 11
225.1329242721
 21
187.970485496
  0
LINE
  8
0
 62
7
  6
CONTINUOUS
 10
207.3432768244
 20
140.693202724
 11
198.6490926948
 21
144.2058811246
  0
LINE
  8
0
 62
7
  6
CONTINUOUS
 10
212.5389406746
 20
126.3823588315
 11
215.049256232
 21
124.9330274686
  0
LINE
  8
0
 62
7
  6
CONTINUOUS
 10
172.8682395411
 20
97.1413946714
 11
167.8991973879
 21
105.0935244054
  0
LINE
  8
0
 62
7
  6
CONTINUOUS
 10
168.6599169051
 20
82.5097441715
 11
169.8389092515
 21
79.8616840053
  0
LINE
  8
0
 62
7
  6
CONTINUOUS
 10
138.1209494318
 20
231.7695670629
 11
138.1012540322
 21
232.1719471849
  0
LINE
  8
0
 62
7
  6
CONTINUOUS
 10
137.4983305302
 20
232.3365929626
 11
137.4843961228
 21
231.8110624367
  0
LINE
  8
0
 62
7
  6
CONTINUOUS
 10
140.9001584486
 20
230.0842857909
 11
140.9140929687
 21
230.6098162628
  0
LINE
  8
0
 62
7
  6
CONTINUOUS
 10
145.5300306641
 20
231.4470283603
 11
145.431736079
 21
230.8040763319
  0
LINE
  8
0
 62
7
  6
CONTINUOUS
 10
146.0198885982
 20
230.5926494741
 11
146.1181838564
 21
231.2356012606
  0
LINE
  8
0
 62
7
  6
CONTINUOUS
 10
156.9870245437
 20
223.9330460082
 11
156.6002011345
 21
222.3687153517
  0
LINE
  8
0
 62
7
  6
CONTINUOUS
 10
158.0216651944
 20
227.9521761208
 11
157.1513133629
 21
224.4324314619
  0
LINE
  8
0
 62
7
  6
CONTINUOUS
 10
161.5804603435
 20
224.6696242841
 11
160.0413155525
 21
219.8733669747
  0
LINE
  8
0
 62
7
  6
CONTINUOUS
 10
160.8287057719
 20
220.0668583851
 11
162.6635506216
 21
225.4424345347
  0
LINE
  8
0
 62
7
  6
CONTINUOUS
 10
181.9304797128
 20
192.5016173189
 11
181.6019239252
 21
192.2684890776
  0
LINE
  8
0
 62
7
  6
CONTINUOUS
 10
184.9367086556
 20
188.8550551217
 11
185.5090575779
 21
189.1640303126
  0
LINE
  8
0
 62
7
  6
CONTINUOUS
 10
185.3233891483
 20
189.7608157265
 11
184.6291439508
 21
189.4139161218
  0
LINE
  8
0
 62
7
  6
CONTINUOUS
 10
183.6636688181
 20
192.5171980205
 11
184.4321814724
 21
192.6253831865
  0
LINE
  8
0
 62
7
  6
CONTINUOUS
 10
184.2465131491
 20
193.2221682589
 11
183.5998970355
 21
193.1519066531
  0
LINE
  8
0
 62
7
  6
CONTINUOUS
 10
182.7902009503
 20
188.4490653992
 11
183.1930241417
 21
188.4434793725
  0
LINE
  8
0
 62
7
  6
CONTINUOUS
 10
140.2775395647
 20
230.6513117553
 11
140.3505601993
 21
229.9697017221
  0
LINE
  8
0
 62
7
  6
CONTINUOUS
 10
146.1181838564
 20
231.2356012606
 11
146.1301082982
 21
231.638286665
  0
LINE
  8
0
 62
7
  6
CONTINUOUS
 10
157.2364769849
 20
221.9716598868
 11
158.7161855072
 21
228.1206810107
  0
LINE
  8
0
 62
7
  6
CONTINUOUS
 10
167.8200563277
 20
216.0658725293
 11
167.6433050514
 21
215.7038555213
  0
LINE
  8
0
 62
7
  6
CONTINUOUS
 10
168.2707446794
 20
215.2736038783
 11
168.4474959556
 21
215.6356208863
  0
LINE
  8
0
 62
7
  6
CONTINUOUS
 10
169.5968337562
 20
217.8994071003
 11
169.4200823555
 21
217.5373899639
  0
LINE
  8
0
 62
7
  6
CONTINUOUS
 10
170.0475222323
 20
217.1071385777
 11
170.2242733841
 21
217.4691554573
  0
LINE
  8
0
 62
7
  6
CONTINUOUS
 10
181.6019239252
 20
192.2684890776
 11
181.1886051866
 21
191.8780802009
  0
LINE
  8
0
 62
7
  6
CONTINUOUS
 10
185.5090575779
 20
189.1640303126
 11
185.837613654
 21
189.3971588308
  0
LINE
  8
0
 62
7
  6
CONTINUOUS
 10
184.6493366288
 20
193.2165825092
 11
184.2465131491
 21
193.2221682589
  0
LINE
  8
0
 62
7
  6
CONTINUOUS
 10
182.22834767
 20
188.5360842049
 11
182.7902009503
 21
188.4490653992
  0
LINE
  8
0
 62
7
  6
CONTINUOUS
 10
185.2111898769
 20
193.1295635062
 11
184.6493366288
 21
193.2165825092
  0
LINE
  8
0
 62
7
  6
CONTINUOUS
 10
137.4843961228
 20
231.8110624367
 11
137.5377212843
 21
231.5318326383
  0
LINE
  8
0
 62
7
  6
CONTINUOUS
 10
140.9534838307
 20
229.805055909
 11
140.9001584486
 21
230.0842857909
  0
LINE
  8
0
 62
7
  6
CONTINUOUS
 10
168.4474959556
 20
215.6356208863
 11
168.5335510071
 21
216.2632919285
  0
LINE
  8
0
 62
7
  6
CONTINUOUS
 10
181.5333036198
 20
191.1998619815
 11
182.1161480362
 21
191.9048322464
  0
LINE
  8
0
 62
7
  6
CONTINUOUS
 10
185.9062338208
 20
190.4657860712
 11
185.3233891483
 21
189.7608157265
  0
LINE
  8
0
 62
7
  6
CONTINUOUS
 10
185.837613654
 20
189.3971588308
 11
186.2509323603
 21
189.7875675102
  0
LINE
  8
0
 62
7
  6
CONTINUOUS
 10
166.8456124687
 20
214.5214341053
 11
167.4702683202
 21
214.6271768209
  0
LINE
  8
0
 62
7
  6
CONTINUOUS
 10
168.711228725
 20
216.4466453599
 11
169.3358845455
 21
216.5523880434
  0
LINE
  8
0
 62
7
  6
CONTINUOUS
 10
183.0073557121
 20
189.0402647865
 11
182.1274421058
 21
189.2901502277
  0
LINE
  8
0
 62
7
  6
CONTINUOUS
 10
184.4321814724
 20
192.6253831865
 11
185.3120953348
 21
192.375497825
  0
LINE
  8
0
 62
7
  6
CONTINUOUS
 10
138.2612295255
 20
231.3342576944
 11
138.1209494318
 21
231.7695670629
  0
LINE
  8
0
 62
7
  6
CONTINUOUS
 10
167.8181990862
 20
216.4232034077
 11
167.8200563277
 21
216.0658725293
  0
LINE
  8
0
 62
7
  6
CONTINUOUS
 10
169.5949765147
 20
218.2567379786
 11
169.5968337562
 21
217.8994071003
  0
LINE
  8
0
 62
7
  6
CONTINUOUS
 10
170.2242733841
 20
217.4691554573
 11
170.3103284356
 21
218.0968264995
  0
LINE
  8
0
 62
7
  6
CONTINUOUS
 10
181.1886051866
 20
191.8780802009
 11
180.9343166537
 21
191.4062380198
  0
LINE
  8
0
 62
7
  6
CONTINUOUS
 10
186.2509323603
 20
189.7875675102
 11
186.5052208505
 21
190.2594096781
  0
LINE
  8
0
 62
7
  6
CONTINUOUS
 10
129.3408507396
 20
114.5837496218
 11
144.8971999257
 21
130.1400988079
  0
LINE
  8
0
 62
7
  6
CONTINUOUS
 10
164.915244089
 20
150.1581429712
 11
180.4715932751
 21
165.7144921573
  0
LINE
  8
0
 62
7
  6
CONTINUOUS
 10
150.9202967766
 20
133.3995033543
 11
161.6558395426
 21
144.1350461203
  0
LINE
  8
0
 62
7
  6
CONTINUOUS
 10
167.0205064724
 20
215.2407819596
 11
166.6632937328
 21
215.2314059108
  0
LINE
  8
0
 62
7
  6
CONTINUOUS
 10
168.8861226354
 20
217.1659931178
 11
168.5289099581
 21
217.1566171333
  0
LINE
  8
0
 62
7
  6
CONTINUOUS
 10
166.2200280042
 20
214.594356837
 11
166.8456124687
 21
214.5214341053
  0
LINE
  8
0
 62
7
  6
CONTINUOUS
 10
175.8052037101
 20
203.2308768096
 11
181.6627555853
 21
201.6212454251
  0
LINE
  8
0
 62
7
  6
CONTINUOUS
 10
181.5826865819
 20
202.2916215816
 11
175.6644756191
 21
204.0105428696
  0
LINE
  8
0
 62
7
  6
CONTINUOUS
 10
183.0839331851
 20
195.887464541
 11
184.1874348584
 21
195.5088672794
  0
LINE
  8
0
 62
7
  6
CONTINUOUS
 10
185.1404319369
 20
195.8760214768
 11
184.0369305974
 21
196.254618867
  0
LINE
  8
0
 62
7
  6
CONTINUOUS
 10
181.7512571915
 20
188.7803839742
 11
182.22834767
 21
188.5360842049
  0
LINE
  8
0
 62
7
  6
CONTINUOUS
 10
185.6882803127
 20
192.8852637237
 11
185.2111898769
 21
193.1295635062
  0
LINE
  8
0
 62
7
  6
CONTINUOUS
 10
182.1274421058
 20
189.2901502277
 11
181.7722481578
 21
189.5723737411
  0
LINE
  8
0
 62
7
  6
CONTINUOUS
 10
180.4715932751
 20
178.2233599286
 11
164.915244089
 21
193.7797091147
  0
LINE
  8
0
 62
7
  6
CONTINUOUS
 10
144.8971999257
 20
213.797753278
 11
129.3408507396
 21
229.3541024641
  0
LINE
  8
0
 62
7
  6
CONTINUOUS
 10
161.6558395426
 20
199.8028059656
 11
150.9202967766
 21
210.5383487316
  0
LINE
  8
0
 62
7
  6
CONTINUOUS
 10
137.7985860428
 20
231.0635941703
 11
138.0930806415
 21
230.718506016
  0
LINE
  8
0
 62
7
  6
CONTINUOUS
 10
137.5377212843
 20
231.5318326383
 11
137.7985860428
 21
231.0635941703
  0
LINE
  8
0
 62
7
  6
CONTINUOUS
 10
145.3811399343
 20
231.771865679
 11
145.5300306641
 21
231.4470283603
  0
LINE
  8
0
 62
7
  6
CONTINUOUS
 10
146.1301082982
 20
231.638286665
 11
145.9812175684
 21
231.9631239837
  0
LINE
  8
0
 62
7
  6
CONTINUOUS
 10
180.9343166537
 20
191.4062380198
 11
180.7542954821
 21
190.6956817447
  0
LINE
  8
0
 62
7
  6
CONTINUOUS
 10
186.5052208505
 20
190.2594096781
 11
186.6852419901
 21
190.9699659432
  0
LINE
  8
0
 62
7
  6
CONTINUOUS
 10
181.4009116173
 20
190.7659435445
 11
181.5333036198
 21
191.1998619815
  0
LINE
  8
0
 62
7
  6
CONTINUOUS
 10
186.0386258234
 20
190.8997045081
 11
185.9062338208
 21
190.4657860712
  0
LINE
  8
0
 62
7
  6
CONTINUOUS
 10
143.8087578417
 20
232.2014423665
 11
144.2480192945
 21
232.3148529485
  0
LINE
  8
0
 62
7
  6
CONTINUOUS
 10
144.4207595811
 20
232.7953861966
 11
143.9814981282
 21
232.6819756146
  0
LINE
  8
0
 62
7
  6
CONTINUOUS
 10
139.5400969945
 20
230.3233561635
 11
139.8148962917
 21
230.3806481508
  0
LINE
  8
0
 62
7
  6
CONTINUOUS
 10
139.0241285208
 20
230.3319224261
 11
139.5400969945
 21
230.3233561635
  0
LINE
  8
0
 62
7
  6
CONTINUOUS
 10
139.6746161058
 20
230.8159575213
 11
139.1586476233
 21
230.8245237516
  0
LINE
  8
0
 62
7
  6
CONTINUOUS
 10
168.4428549067
 20
216.5289460911
 11
168.711228725
 21
216.4466453599
  0
LINE
  8
0
 62
7
  6
CONTINUOUS
 10
166.6632937328
 20
215.2314059108
 11
166.3051544894
 21
215.4006933745
  0
LINE
  8
0
 62
7
  6
CONTINUOUS
 10
168.5289099581
 20
217.1566171333
 11
168.1707707146
 21
217.325904597
  0
LINE
  8
0
 62
7
  6
CONTINUOUS
 10
138.0930806415
 20
230.718506016
 11
138.5417896502
 21
230.4636390672
  0
LINE
  8
0
 62
7
  6
CONTINUOUS
 10
165.6823558482
 20
214.9376197485
 11
166.2200280042
 21
214.594356837
  0
LINE
  8
0
 62
7
  6
CONTINUOUS
 10
185.3120953348
 20
192.375497825
 11
185.6672892829
 21
192.0932743116
  0
LINE
  8
0
 62
7
  6
CONTINUOUS
 10
181.1998993732
 20
189.263397844
 11
181.7512571915
 21
188.7803839742
  0
LINE
  8
0
 62
7
  6
CONTINUOUS
 10
186.239638099
 20
192.4022498439
 11
185.6882803127
 21
192.8852637237
  0
LINE
  8
0
 62
7
  6
CONTINUOUS
 10
138.6763087527
 20
230.9562403926
 11
138.2612295255
 21
231.3342576944
  0
LINE
  8
0
 62
7
  6
CONTINUOUS
 10
145.1890641329
 20
231.9765696858
 11
145.3811399343
 21
231.771865679
  0
LINE
  8
0
 62
7
  6
CONTINUOUS
 10
145.9812175684
 20
231.9631239837
 11
145.7146960655
 21
232.3302467708
  0
LINE
  8
0
 62
7
  6
CONTINUOUS
 10
181.7722481578
 20
189.5723737411
 11
181.464683453
 21
190.1312347411
  0
LINE
  8
0
 62
7
  6
CONTINUOUS
 10
180.8552009293
 20
189.9416160601
 11
181.1998993732
 21
189.263397844
  0
LINE
  8
0
 62
7
  6
CONTINUOUS
 10
168.5335510071
 20
216.2632919285
 11
168.4428549067
 21
216.5289460911
  0
LINE
  8
0
 62
7
  6
CONTINUOUS
 10
170.3103284356
 20
218.0968264995
 11
170.2177771483
 21
218.7198095494
  0
LINE
  8
0
 62
7
  6
CONTINUOUS
 10
180.7542954821
 20
190.6956817447
 11
180.8552009293
 21
189.9416160601
  0
LINE
  8
0
 62
7
  6
CONTINUOUS
 10
181.464683453
 20
190.1312347411
 11
181.4009116173
 21
190.7659435445
  0
LINE
  8
0
 62
7
  6
CONTINUOUS
 10
185.9748540939
 20
191.53441297
 11
186.0386258234
 21
190.8997045081
  0
LINE
  8
0
 62
7
  6
CONTINUOUS
 10
144.2480192945
 20
232.3148529485
 11
144.7617267854
 21
232.2658446291
  0
LINE
  8
0
 62
7
  6
CONTINUOUS
 10
144.9344670719
 20
232.7463778772
 11
144.4207595811
 21
232.7953861966
  0
LINE
  8
0
 62
7
  6
CONTINUOUS
 10
138.5417896502
 20
230.4636390672
 11
139.0241285208
 21
230.3319224261
  0
LINE
  8
0
 62
7
  6
CONTINUOUS
 10
140.3505601993
 20
229.9697017221
 11
140.9534838307
 21
229.805055909
  0
LINE
  8
0
 62
7
  6
CONTINUOUS
 10
139.1586476233
 20
230.8245237516
 11
138.6763087527
 21
230.9562403926
  0
LINE
  8
0
 62
7
  6
CONTINUOUS
 10
141.7884671289
 20
233.8117248565
 11
141.1855434976
 21
233.9763706696
  0
LINE
  8
0
 62
7
  6
CONTINUOUS
 10
138.7738495328
 20
234.6349537688
 11
138.1709260308
 21
234.7995995466
  0
LINE
  8
0
 62
7
  6
CONTINUOUS
 10
141.9057168647
 20
229.494107024
 11
142.4938697204
 21
229.2826800452
  0
LINE
  8
0
 62
7
  6
CONTINUOUS
 10
144.6112195971
 20
228.521543067
 11
145.1993721162
 21
228.3101162093
  0
LINE
  8
0
 62
7
  6
CONTINUOUS
 10
145.4049894911
 20
232.5772362458
 11
144.9344670719
 21
232.7463778772
  0
LINE
  8
0
 62
7
  6
CONTINUOUS
 10
143.8757921335
 20
233.1269463663
 11
143.2876392778
 21
233.338373345
  0
LINE
  8
0
 62
7
  6
CONTINUOUS
 10
146.1186966621
 20
227.9140933321
 11
146.6953979868
 21
227.67317782
  0
LINE
  8
0
 62
7
  6
CONTINUOUS
 10
148.2700633319
 20
231.4425971592
 11
147.6933620071
 21
231.6835126713
  0
LINE
  8
0
 62
7
  6
CONTINUOUS
 10
148.1854450222
 20
232.8614564417
 11
148.762146347
 21
232.6205409295
  0
LINE
  8
0
 62
7
  6
CONTINUOUS
 10
149.0081877856
 20
233.2095126497
 11
148.4314864608
 21
233.4504281619
  0
LINE
  8
0
 62
7
  6
CONTINUOUS
 10
152.9946383866
 20
224.6186960667
 11
153.6309142371
 21
224.2216406019
  0
LINE
  8
0
 62
7
  6
CONTINUOUS
 10
156.6002011345
 20
222.3687153517
 11
157.2364769849
 21
221.9716598868
  0
LINE
  8
0
 62
7
  6
CONTINUOUS
 10
154.8661046377
 20
225.2565644768
 11
156.9870245437
 21
223.9330460082
  0
LINE
  8
0
 62
7
  6
CONTINUOUS
 10
157.1513133629
 20
224.4324314619
 11
155.2424858117
 21
225.6235978564
  0
LINE
  8
0
 62
7
  6
CONTINUOUS
 10
158.7161855072
 20
228.1206810107
 11
157.8678173021
 21
228.6500885496
  0
LINE
  8
0
 62
7
  6
CONTINUOUS
 10
144.7617267854
 20
232.2658446291
 11
145.1890641329
 21
231.9765696858
  0
LINE
  8
0
 62
7
  6
CONTINUOUS
 10
158.0745474735
 20
221.4166834386
 11
158.6645777847
 21
220.9536885877
  0
LINE
  8
0
 62
7
  6
CONTINUOUS
 10
160.0413155525
 20
219.8733669747
 11
160.8280218838
 21
219.2560410957
  0
LINE
  8
0
 62
7
  6
CONTINUOUS
 10
162.2047585263
 20
218.1757203657
 11
162.7947888374
 21
217.7127255149
  0
LINE
  8
0
 62
7
  6
CONTINUOUS
 10
166.4987476442
 20
222.4329680042
 11
165.6137021774
 21
223.1274602805
  0
LINE
  8
0
 62
7
  6
CONTINUOUS
 10
162.6635506216
 20
225.4424345347
 11
161.7785062803
 21
226.1369259279
  0
LINE
  8
0
 62
7
  6
CONTINUOUS
 10
145.7146960655
 20
232.3302467708
 11
145.4049894911
 21
232.5772362458
  0
LINE
  8
0
 62
7
  6
CONTINUOUS
 10
163.5279527722
 20
217.0253331834
 11
165.6823558482
 21
214.9376197485
  0
LINE
  8
0
 62
7
  6
CONTINUOUS
 10
166.3051544894
 20
215.4006933745
 11
164.5995867573
 21
217.0534651832
  0
LINE
  8
0
 62
7
  6
CONTINUOUS
 10
165.9321698287
 20
218.4286161114
 11
167.6377375607
 21
216.7758443027
  0
LINE
  8
0
 62
7
  6
CONTINUOUS
 10
168.1707707146
 20
217.325904597
 11
166.4652029826
 21
218.9786764056
  0
LINE
  8
0
 62
7
  6
CONTINUOUS
 10
167.7089472572
 20
220.2621506823
 11
169.4145149892
 21
218.6093788737
  0
LINE
  8
0
 62
7
  6
CONTINUOUS
 10
169.857782718
 20
219.2464259004
 11
167.7033796421
 21
221.3341393353
  0
LINE
  8
0
 62
7
  6
CONTINUOUS
 10
170.2177771483
 20
218.7198095494
 11
169.857782718
 21
219.2464259004
  0
LINE
  8
0
 62
7
  6
CONTINUOUS
 10
174.7715198186
 20
203.5149263269
 11
177.1979763485
 21
199.1431625815
  0
LINE
  8
0
 62
7
  6
CONTINUOUS
 10
177.8676932184
 20
199.5148749994
 11
175.8052037101
 21
203.2308768096
  0
LINE
  8
0
 62
7
  6
CONTINUOUS
 10
179.459537986
 20
206.1169132953
 11
181.5826865819
 21
202.2916215816
  0
LINE
  8
0
 62
7
  6
CONTINUOUS
 10
182.4440918423
 20
202.054909862
 11
180.0176353125
 21
206.4266736074
  0
LINE
  8
0
 62
7
  6
CONTINUOUS
 10
185.6672892829
 20
192.0932743116
 11
185.9748540939
 21
191.53441297
  0
LINE
  8
0
 62
7
  6
CONTINUOUS
 10
167.6377375607
 20
216.7758443027
 11
167.8181990862
 21
216.4232034077
  0
LINE
  8
0
 62
7
  6
CONTINUOUS
 10
169.4145149892
 20
218.6093788737
 11
169.5949765147
 21
218.2567379786
  0
LINE
  8
0
 62
7
  6
CONTINUOUS
 10
186.5843365322
 20
191.7240316244
 11
186.239638099
 21
192.4022498439
  0
LINE
  8
0
 62
7
  6
CONTINUOUS
 10
179.5415734332
 20
193.7189903098
 11
179.8112023291
 21
193.0191329968
  0
LINE
  8
0
 62
7
  6
CONTINUOUS
 10
185.4100608328
 20
195.1761641638
 11
185.1404319369
 21
195.8760214768
  0
LINE
  8
0
 62
7
  6
CONTINUOUS
 10
186.6852419901
 20
190.9699659432
 11
186.5843365322
 21
191.7240316244
  0
LINE
  8
0
 62
7
  6
CONTINUOUS
 10
118.5899855122
 20
251.6392625251
 11
92.586416854
 21
251.6392625251
  0
LINE
  8
0
 62
7
  6
CONTINUOUS
 10
166.2777763139
 20
239.0665182352
 11
145.2404473549
 21
254.3510323995
  0
LINE
  8
0
 62
7
  6
CONTINUOUS
 10
200.2468832194
 20
151.62579845
 11
208.2824278492
 21
176.3566618694
  0
LINE
  8
0
 62
7
  6
CONTINUOUS
 10
173.5531550528
 20
110.1572059119
 11
194.5904840118
 21
125.4417200762
  0
LINE
  8
0
 62
7
  6
CONTINUOUS
 10
197.4679358221
 20
200.8647742911
 11
189.4323911923
 21
225.5956377105
  0
LINE
  8
0
 62
7
  6
CONTINUOUS
 10
281.7677672068
 20
68.7642646994
 11
289.808184197
 21
68.7642646994
  0
LINE
  8
0
 62
7
  6
CONTINUOUS
 10
307.080445321
 20
68.7642646994
 11
315.1208623112
 21
68.7642646994
  0
LINE
  8
DEFAULT_2
 62
8
  6
HIDDEN
 10
315.1234387469
 20
68.7904030023
 11
307.0778688853
 21
68.7904030023
  0
LINE
  8
DEFAULT_2
 62
8
  6
HIDDEN
 10
289.8107606327
 20
68.7904030023
 11
281.7651907712
 21
68.7904030023
  0
LINE
  8
0
 62
9
  6
CONTINUOUS
 10
315.1664729808
 20
69.9721763903
 11
307.0348346515
 21
69.9721763903
  0
LINE
  8
0
 62
9
  6
CONTINUOUS
 10
289.8537948666
 20
69.9721763903
 11
281.7221565373
 21
69.9721763903
  0
LINE
  8
0
 62
9
  6
CONTINUOUS
 10
315.2928632186
 20
72.8074963807
 11
306.9084444137
 21
72.8074963807
  0
LINE
  8
0
 62
9
  6
CONTINUOUS
 10
289.9801851044
 20
72.8074963807
 11
281.5957662995
 21
72.8074963807
  0
LINE
  8
DEFAULT_2
 62
8
  6
HIDDEN
 10
281.763369554
 20
79.2684206483
 11
289.8125818499
 21
79.2684206483
  0
LINE
  8
DEFAULT_2
 62
8
  6
HIDDEN
 10
307.0760476682
 20
79.2684206483
 11
315.125259964
 21
79.2684206483
  0
LINE
  8
DEFAULT_2
 62
8
  6
HIDDEN
 10
315.1234387469
 20
79.6140605822
 11
307.0778688853
 21
79.6140605822
  0
LINE
  8
DEFAULT_2
 62
8
  6
HIDDEN
 10
289.8107606327
 20
79.6140605822
 11
281.7651907712
 21
79.6140605822
  0
LINE
  8
DEFAULT_2
 62
8
  6
HIDDEN
 10
315.1664729808
 20
79.8616840053
 11
307.0348346515
 21
79.8616840053
  0
LINE
  8
DEFAULT_2
 62
8
  6
HIDDEN
 10
289.8537948666
 20
79.8616840053
 11
281.7221565373
 21
79.8616840053
  0
LINE
  8
DEFAULT_2
 62
8
  6
HIDDEN
 10
315.644314759
 20
82.1711603085
 11
306.644314759
 21
82.1711603085
  0
LINE
  8
DEFAULT_2
 62
8
  6
HIDDEN
 10
290.244314759
 20
82.1711603085
 11
281.244314759
 21
82.1711603085
  0
LINE
  8
DEFAULT_2
 62
8
  6
HIDDEN
 10
315.2928632186
 20
82.5097441715
 11
306.9084444137
 21
82.5097441715
  0
LINE
  8
DEFAULT_2
 62
8
  6
HIDDEN
 10
289.9801851044
 20
82.5097441715
 11
281.5957662995
 21
82.5097441715
  0
POLYLINE
  8
0
 62
7
  6
CONTINUOUS
 66
1
 70
0
  0
VERTEX
  8
0
 62
7
  6
CONTINUOUS
 10
315.2573639191
 20
96.2138769657
  0
VERTEX
  8
0
 62
7
  6
CONTINUOUS
 10
315.2636152724
 20
96.2154300152
  0
VERTEX
  8
0
 62
7
  6
CONTINUOUS
 10
315.3274809818
 20
96.3854056426
  0
VERTEX
  8
0
 62
7
  6
CONTINUOUS
 10
315.3985757388
 20
96.8332548477
  0
VERTEX
  8
0
 62
7
  6
CONTINUOUS
 10
315.4758761268
 20
97.5505395116
  0
VERTEX
  8
0
 62
7
  6
CONTINUOUS
 10
315.558223777
 20
98.5237388773
  0
VERTEX
  8
0
 62
7
  6
CONTINUOUS
 10
315.644314759
 20
99.7344526663
  0
SEQEND
  0
LINE
  8
0
 62
9
  6
CONTINUOUS
 10
315.644314759
 20
89.5868196864
 11
306.644314759
 21
89.5868196864
  0
LINE
  8
0
 62
9
  6
CONTINUOUS
 10
290.244314759
 20
89.5868196864
 11
281.244314759
 21
89.5868196864
  0
LINE
  8
DEFAULT_2
 62
8
  6
HIDDEN
 10
281.244314759
 20
91.5252981004
 11
290.244314759
 21
91.5252981004
  0
LINE
  8
DEFAULT_2
 62
8
  6
HIDDEN
 10
306.644314759
 20
91.5252981004
 11
315.644314759
 21
91.5252981004
  0
LINE
  8
DEFAULT_2
 62
8
  6
HIDDEN
 10
315.644314759
 20
92.2985895608
 11
306.644314759
 21
92.2985895608
  0
LINE
  8
DEFAULT_2
 62
8
  6
HIDDEN
 10
290.244314759
 20
92.2985895608
 11
281.244314759
 21
92.2985895608
  0
LINE
  8
DEFAULT_2
 62
8
  6
HIDDEN
 10
281.244314759
 20
93.1557324179
 11
290.244314759
 21
93.1557324179
  0
LINE
  8
DEFAULT_2
 62
8
  6
HIDDEN
 10
306.644314759
 20
93.1557324179
 11
315.644314759
 21
93.1557324179
  0
LINE
  8
DEFAULT_2
 62
8
  6
HIDDEN
 10
281.244314759
 20
94.5485895608
 11
290.244314759
 21
94.5485895608
  0
LINE
  8
DEFAULT_2
 62
8
  6
HIDDEN
 10
306.644314759
 20
94.5485895608
 11
315.644314759
 21
94.5485895608
  0
POLYLINE
  8
0
 62
7
  6
CONTINUOUS
 66
1
 70
0
  0
VERTEX
  8
0
 62
7
  6
CONTINUOUS
 10
281.631265599
 20
96.2138769657
  0
VERTEX
  8
0
 62
7
  6
CONTINUOUS
 10
281.6250142457
 20
96.2154300152
  0
VERTEX
  8
0
 62
7
  6
CONTINUOUS
 10
281.5611485363
 20
96.3854056426
  0
VERTEX
  8
0
 62
7
  6
CONTINUOUS
 10
281.4900537793
 20
96.8332548477
  0
VERTEX
  8
0
 62
7
  6
CONTINUOUS
 10
281.4127533912
 20
97.5505395116
  0
VERTEX
  8
0
 62
7
  6
CONTINUOUS
 10
281.330405741
 20
98.5237388773
  0
VERTEX
  8
0
 62
7
  6
CONTINUOUS
 10
281.244314759
 20
99.7344526663
  0
SEQEND
  0
LINE
  8
0
 62
7
  6
CONTINUOUS
 10
281.6312672866
 20
96.2138769657
 11
289.9446841173
 21
96.2138769657
  0
LINE
  8
0
 62
7
  6
CONTINUOUS
 10
306.9439454008
 20
96.2138769657
 11
315.2573622315
 21
96.2138769657
  0
LINE
  8
DEFAULT_2
 62
8
  6
HIDDEN
 10
315.644314759
 20
97.1413946714
 11
306.644314759
 21
97.1413946714
  0
LINE
  8
DEFAULT_2
 62
8
  6
HIDDEN
 10
290.244314759
 20
97.1413946714
 11
281.244314759
 21
97.1413946714
  0
LINE
  8
0
 62
9
  6
CONTINUOUS
 10
315.1234387469
 20
97.3774343149
 11
307.0778688853
 21
97.3774343149
  0
LINE
  8
0
 62
9
  6
CONTINUOUS
 10
289.8107606327
 20
97.3774343149
 11
281.7651907712
 21
97.3774343149
  0
LINE
  8
0
 62
7
  6
CONTINUOUS
 10
306.644314759
 20
97.4689260429
 11
290.244314759
 21
97.4689260429
  0
LINE
  8
0
 62
7
  6
CONTINUOUS
 10
275.444314759
 20
97.4689260429
 11
281.244314759
 21
97.4689260429
  0
LINE
  8
0
 62
7
  6
CONTINUOUS
 10
315.644314759
 20
97.4689260429
 11
321.444314759
 21
97.4689260429
  0
LINE
  8
0
 62
9
  6
CONTINUOUS
 10
315.1664729808
 20
99.0419604006
 11
307.0348346515
 21
99.0419604006
  0
LINE
  8
0
 62
9
  6
CONTINUOUS
 10
289.8537948666
 20
99.0419604006
 11
281.7221565373
 21
99.0419604006
  0
LINE
  8
0
 62
9
  6
CONTINUOUS
 10
315.2928632186
 20
100.9815443478
 11
306.9084444137
 21
100.9815443478
  0
LINE
  8
0
 62
9
  6
CONTINUOUS
 10
289.9801851044
 20
100.9815443478
 11
281.5957662995
 21
100.9815443478
  0
LINE
  8
DEFAULT_2
 62
8
  6
HIDDEN
 10
315.644314759
 20
101.5006203424
 11
306.644314759
 21
101.5006203424
  0
LINE
  8
DEFAULT_2
 62
8
  6
HIDDEN
 10
290.244314759
 20
101.5006203424
 11
281.244314759
 21
101.5006203424
  0
LINE
  8
DEFAULT_2
 62
8
  6
HIDDEN
 10
281.244314759
 20
104.8713338507
 11
290.244314759
 21
104.8713338507
  0
LINE
  8
DEFAULT_2
 62
8
  6
HIDDEN
 10
306.644314759
 20
104.8713338507
 11
315.644314759
 21
104.8713338507
  0
LINE
  8
DEFAULT_2
 62
8
  6
HIDDEN
 10
281.244314759
 20
105.0935244054
 11
290.244314759
 21
105.0935244054
  0
LINE
  8
DEFAULT_2
 62
8
  6
HIDDEN
 10
306.644314759
 20
105.0935244054
 11
315.644314759
 21
105.0935244054
  0
LINE
  8
DEFAULT_2
 62
8
  6
HIDDEN
 10
281.244314759
 20
106.5295110471
 11
290.244314759
 21
106.5295110471
  0
LINE
  8
DEFAULT_2
 62
8
  6
HIDDEN
 10
306.644314759
 20
106.5295110471
 11
315.644314759
 21
106.5295110471
  0
LINE
  8
DEFAULT_2
 62
8
  6
HIDDEN
 10
273.444314759
 20
107.3616831463
 11
323.444314759
 21
107.3616831463
  0
LINE
  8
DEFAULT_2
 62
8
  6
HIDDEN
 10
281.244314759
 20
108.6838034912
 11
290.244314759
 21
108.6838034912
  0
LINE
  8
DEFAULT_2
 62
8
  6
HIDDEN
 10
306.644314759
 20
108.6838034912
 11
315.644314759
 21
108.6838034912
  0
LINE
  8
DEFAULT_2
 62
8
  6
HIDDEN
 10
281.244314759
 20
109.7752399007
 11
290.244314759
 21
109.7752399007
  0
LINE
  8
DEFAULT_2
 62
8
  6
HIDDEN
 10
306.644314759
 20
109.7752399007
 11
315.644314759
 21
109.7752399007
  0
LINE
  8
DEFAULT_2
 62
8
  6
HIDDEN
 10
281.244314759
 20
109.8447437597
 11
290.244314759
 21
109.8447437597
  0
LINE
  8
DEFAULT_2
 62
8
  6
HIDDEN
 10
306.644314759
 20
109.8447437597
 11
315.644314759
 21
109.8447437597
  0
LINE
  8
DEFAULT_2
 62
8
  6
HIDDEN
 10
281.244314759
 20
109.8859149915
 11
290.244314759
 21
109.8859149915
  0
LINE
  8
DEFAULT_2
 62
8
  6
HIDDEN
 10
306.644314759
 20
109.8859149915
 11
315.644314759
 21
109.8859149915
  0
LINE
  8
DEFAULT_2
 62
8
  6
HIDDEN
 10
281.244314759
 20
110.0657620142
 11
290.244314759
 21
110.0657620142
  0
LINE
  8
DEFAULT_2
 62
8
  6
HIDDEN
 10
306.644314759
 20
110.0657620142
 11
315.644314759
 21
110.0657620142
  0
LINE
  8
DEFAULT_2
 62
8
  6
HIDDEN
 10
281.244314759
 20
110.1572059119
 11
290.244314759
 21
110.1572059119
  0
LINE
  8
DEFAULT_2
 62
8
  6
HIDDEN
 10
306.644314759
 20
110.1572059119
 11
315.644314759
 21
110.1572059119
  0
LINE
  8
DEFAULT_2
 62
8
  6
HIDDEN
 10
323.444314759
 20
113.8406164914
 11
273.444314759
 21
113.8406164914
  0
LINE
  8
DEFAULT_2
 62
8
  6
HIDDEN
 10
323.444314759
 20
114.5837496218
 11
273.444314759
 21
114.5837496218
  0
LINE
  8
0
 62
9
  6
CONTINUOUS
 10
315.644314759
 20
118.3422143754
 11
306.644314759
 21
118.3422143754
  0
LINE
  8
0
 62
9
  6
CONTINUOUS
 10
290.244314759
 20
118.3422143754
 11
281.244314759
 21
118.3422143754
  0
LINE
  8
DEFAULT_2
 62
8
  6
HIDDEN
 10
281.7442584382
 20
124.7990528724
 11
289.8316929657
 21
124.7990528724
  0
LINE
  8
DEFAULT_2
 62
8
  6
HIDDEN
 10
307.0569365524
 20
124.7990528724
 11
315.1443710799
 21
124.7990528724
  0
LINE
  8
DEFAULT_2
 62
8
  6
HIDDEN
 10
315.1664729808
 20
124.9330274686
 11
307.0348346515
 21
124.9330274686
  0
LINE
  8
DEFAULT_2
 62
8
  6
HIDDEN
 10
289.8537948666
 20
124.9330274686
 11
281.7221565373
 21
124.9330274686
  0
LINE
  8
DEFAULT_2
 62
8
  6
HIDDEN
 10
315.644314759
 20
125.4417200762
 11
306.644314759
 21
125.4417200762
  0
LINE
  8
DEFAULT_2
 62
8
  6
HIDDEN
 10
290.244314759
 20
125.4417200762
 11
281.244314759
 21
125.4417200762
  0
LINE
  8
DEFAULT_2
 62
8
  6
HIDDEN
 10
315.1234387469
 20
125.7141377417
 11
307.0778688853
 21
125.7141377417
  0
LINE
  8
DEFAULT_2
 62
8
  6
HIDDEN
 10
289.8107606327
 20
125.7141377417
 11
281.7651907712
 21
125.7141377417
  0
LINE
  8
DEFAULT_2
 62
8
  6
HIDDEN
 10
315.2928632186
 20
126.3823588315
 11
306.9084444137
 21
126.3823588315
  0
LINE
  8
DEFAULT_2
 62
8
  6
HIDDEN
 10
289.9801851044
 20
126.3823588315
 11
281.5957662995
 21
126.3823588315
  0
LINE
  8
DEFAULT_2
 62
8
  6
HIDDEN
 10
281.244314759
 20
128.592939669
 11
290.244314759
 21
128.592939669
  0
LINE
  8
DEFAULT_2
 62
8
  6
HIDDEN
 10
306.644314759
 20
128.592939669
 11
315.644314759
 21
128.592939669
  0
LINE
  8
DEFAULT_2
 62
8
  6
HIDDEN
 10
323.444314759
 20
130.1400988079
 11
273.444314759
 21
130.1400988079
  0
LINE
  8
DEFAULT_2
 62
8
  6
HIDDEN
 10
323.444314759
 20
131.7698010811
 11
273.444314759
 21
131.7698010811
  0
LINE
  8
DEFAULT_2
 62
8
  6
HIDDEN
 10
323.444314759
 20
133.3995033543
 11
273.444314759
 21
133.3995033543
  0
POLYLINE
  8
0
 62
7
  6
CONTINUOUS
 66
1
 70
0
  0
VERTEX
  8
0
 62
7
  6
CONTINUOUS
 10
289.8316919741
 20
219.1387992135
  0
VERTEX
  8
0
 62
7
  6
CONTINUOUS
 10
289.8262537607
 20
219.1281970263
  0
VERTEX
  8
0
 62
7
  6
CONTINUOUS
 10
289.8177133861
 20
219.0543707134
  0
VERTEX
  8
0
 62
7
  6
CONTINUOUS
 10
289.8143101552
 20
218.9924191178
  0
VERTEX
  8
0
 62
7
  6
CONTINUOUS
 10
289.8095332982
 20
218.8240046567
  0
VERTEX
  8
0
 62
7
  6
CONTINUOUS
 10
289.8077175819
 20
218.606705466
  0
VERTEX
  8
0
 62
7
  6
CONTINUOUS
 10
289.8089876754
 20
218.3560440594
  0
VERTEX
  8
0
 62
7
  6
CONTINUOUS
 10
289.8107606327
 20
218.2237143442
  0
SEQEND
  0
LINE
  8
DEFAULT_2
 62
8
  6
HIDDEN
 10
281.2920435736
 20
196.6308973128
 11
281.244314759
 21
196.5882973578
  0
LINE
  8
DEFAULT_2
 62
8
  6
HIDDEN
 10
315.644314759
 20
140.693202724
 11
306.644314759
 21
140.693202724
  0
LINE
  8
DEFAULT_2
 62
8
  6
HIDDEN
 10
290.244314759
 20
140.693202724
 11
281.244314759
 21
140.693202724
  0
LINE
  8
0
 62
9
  6
CONTINUOUS
 10
281.244314759
 20
143.0730777948
 11
290.244314759
 21
143.0730777948
  0
LINE
  8
0
 62
9
  6
CONTINUOUS
 10
306.644314759
 20
143.0730777948
 11
315.644314759
 21
143.0730777948
  0
LINE
  8
DEFAULT_2
 62
8
  6
HIDDEN
 10
323.444314759
 20
144.1350461203
 11
273.444314759
 21
144.1350461203
  0
LINE
  8
DEFAULT_2
 62
8
  6
HIDDEN
 10
281.244314759
 20
144.2058811246
 11
290.244314759
 21
144.2058811246
  0
LINE
  8
DEFAULT_2
 62
8
  6
HIDDEN
 10
306.644314759
 20
144.2058811246
 11
315.644314759
 21
144.2058811246
  0
LINE
  8
0
 62
9
  6
CONTINUOUS
 10
281.244314759
 20
144.8989220009
 11
290.244314759
 21
144.8989220009
  0
LINE
  8
0
 62
9
  6
CONTINUOUS
 10
306.644314759
 20
144.8989220009
 11
315.644314759
 21
144.8989220009
  0
LINE
  8
0
 62
7
  6
CONTINUOUS
 10
281.2920435736
 20
147.3069547731
 11
281.244314759
 21
147.3495547281
  0
POLYLINE
  8
DEFAULT_2
 62
8
  6
HIDDEN
 66
1
 70
0
  0
VERTEX
  8
DEFAULT_2
 62
8
  6
HIDDEN
 10
289.8316919741
 20
124.7990528724
  0
VERTEX
  8
DEFAULT_2
 62
8
  6
HIDDEN
 10
289.8262537607
 20
124.8096550595
  0
VERTEX
  8
DEFAULT_2
 62
8
  6
HIDDEN
 10
289.8177133861
 20
124.8834813724
  0
VERTEX
  8
DEFAULT_2
 62
8
  6
HIDDEN
 10
289.8143101552
 20
124.9454329681
  0
VERTEX
  8
DEFAULT_2
 62
8
  6
HIDDEN
 10
289.8095332982
 20
125.1138474292
  0
VERTEX
  8
DEFAULT_2
 62
8
  6
HIDDEN
 10
289.8077175819
 20
125.3311466199
  0
VERTEX
  8
DEFAULT_2
 62
8
  6
HIDDEN
 10
289.8089876754
 20
125.5818080265
  0
VERTEX
  8
DEFAULT_2
 62
8
  6
HIDDEN
 10
289.8107606327
 20
125.7141377417
  0
SEQEND
  0
POLYLINE
  8
DEFAULT_2
 62
8
  6
HIDDEN
 66
1
 70
0
  0
VERTEX
  8
DEFAULT_2
 62
8
  6
HIDDEN
 10
281.7221565373
 20
124.9330274686
  0
VERTEX
  8
DEFAULT_2
 62
8
  6
HIDDEN
 10
281.7279765214
 20
124.8742135905
  0
VERTEX
  8
DEFAULT_2
 62
8
  6
HIDDEN
 10
281.7393657105
 20
124.8065232211
  0
VERTEX
  8
DEFAULT_2
 62
8
  6
HIDDEN
 10
281.7442594376
 20
124.7990528724
  0
SEQEND
  0
LINE
  8
0
 62
7
  6
CONTINUOUS
 10
281.7677672123
 20
68.7642646994
 11
281.7651907712
 21
68.7904030023
  0
POLYLINE
  8
DEFAULT_2
 62
8
  6
HIDDEN
 66
1
 70
0
  0
VERTEX
  8
DEFAULT_2
 62
8
  6
HIDDEN
 10
281.5957662995
 20
126.3823588315
  0
VERTEX
  8
DEFAULT_2
 62
8
  6
HIDDEN
 10
281.5050635883
 20
127.3058040373
  0
VERTEX
  8
DEFAULT_2
 62
8
  6
HIDDEN
 10
281.4152241716
 20
127.9880573353
  0
VERTEX
  8
DEFAULT_2
 62
8
  6
HIDDEN
 10
281.3277782495
 20
128.418301063
  0
VERTEX
  8
DEFAULT_2
 62
8
  6
HIDDEN
 10
281.244314759
 20
128.5897549745
  0
SEQEND
  0
LINE
  8
DEFAULT_2
 62
8
  6
HIDDEN
 10
281.5957662995
 20
126.3823588315
 11
281.7221565373
 21
124.9330274686
  0
POLYLINE
  8
0
 62
7
  6
CONTINUOUS
 66
1
 70
0
  0
VERTEX
  8
0
 62
7
  6
CONTINUOUS
 10
281.7651907712
 20
68.7904030023
  0
VERTEX
  8
0
 62
7
  6
CONTINUOUS
 10
281.7277063203
 20
69.3892295275
  0
VERTEX
  8
0
 62
7
  6
CONTINUOUS
 10
281.6807798852
 20
70.2503147814
  0
VERTEX
  8
0
 62
7
  6
CONTINUOUS
 10
281.6250142457
 20
71.3573828794
  0
VERTEX
  8
0
 62
7
  6
CONTINUOUS
 10
281.5611485363
 20
72.68947304
  0
VERTEX
  8
0
 62
7
  6
CONTINUOUS
 10
281.4900537793
 20
74.2214844676
  0
VERTEX
  8
0
 62
7
  6
CONTINUOUS
 10
281.4127533912
 20
75.9242654942
  0
SEQEND
  0
POLYLINE
  8
0
 62
7
  6
CONTINUOUS
 66
1
 70
0
  0
VERTEX
  8
0
 62
7
  6
CONTINUOUS
 10
281.5957662995
 20
100.9815443478
  0
VERTEX
  8
0
 62
7
  6
CONTINUOUS
 10
281.5050635883
 20
102.4661421878
  0
VERTEX
  8
0
 62
7
  6
CONTINUOUS
 10
281.4152241716
 20
104.1215777076
  0
VERTEX
  8
0
 62
7
  6
CONTINUOUS
 10
281.3277782495
 20
105.921524533
  0
VERTEX
  8
0
 62
7
  6
CONTINUOUS
 10
281.244314759
 20
107.8373357655
  0
SEQEND
  0
POLYLINE
  8
0
 62
7
  6
CONTINUOUS
 66
1
 70
0
  0
VERTEX
  8
0
 62
7
  6
CONTINUOUS
 10
281.5957662995
 20
100.9815443478
  0
VERTEX
  8
0
 62
7
  6
CONTINUOUS
 10
281.7279765214
 20
98.9463487027
  0
VERTEX
  8
0
 62
7
  6
CONTINUOUS
 10
281.7393657105
 20
98.7215564733
  0
VERTEX
  8
0
 62
7
  6
CONTINUOUS
 10
281.7497019769
 20
98.4663137109
  0
VERTEX
  8
0
 62
7
  6
CONTINUOUS
 10
281.7582407164
 20
98.1991734797
  0
VERTEX
  8
0
 62
7
  6
CONTINUOUS
 10
281.761643208
 20
98.0671138253
  0
VERTEX
  8
0
 62
7
  6
CONTINUOUS
 10
281.7664188629
 20
97.81780048
  0
VERTEX
  8
0
 62
7
  6
CONTINUOUS
 10
281.7682338595
 20
97.6028574138
  0
VERTEX
  8
0
 62
7
  6
CONTINUOUS
 10
281.7669636013
 20
97.4375991714
  0
VERTEX
  8
0
 62
7
  6
CONTINUOUS
 10
281.7651907712
 20
97.3774343149
  0
SEQEND
  0
POLYLINE
  8
DEFAULT_2
 62
8
  6
HIDDEN
 66
1
 70
0
  0
VERTEX
  8
DEFAULT_2
 62
8
  6
HIDDEN
 10
281.7279765214
 20
79.7437788481
  0
VERTEX
  8
DEFAULT_2
 62
8
  6
HIDDEN
 10
281.7393657105
 20
79.5371592405
  0
VERTEX
  8
DEFAULT_2
 62
8
  6
HIDDEN
 10
281.7497019769
 20
79.3825600556
  0
VERTEX
  8
DEFAULT_2
 62
8
  6
HIDDEN
 10
281.7582407164
 20
79.2913061134
  0
VERTEX
  8
DEFAULT_2
 62
8
  6
HIDDEN
 10
281.761643208
 20
79.271645576
  0
VERTEX
  8
DEFAULT_2
 62
8
  6
HIDDEN
 10
281.7633696629
 20
79.2684206483
  0
SEQEND
  0
POLYLINE
  8
DEFAULT_2
 62
8
  6
HIDDEN
 66
1
 70
0
  0
VERTEX
  8
DEFAULT_2
 62
8
  6
HIDDEN
 10
281.5050635883
 20
84.3507213021
  0
VERTEX
  8
DEFAULT_2
 62
8
  6
HIDDEN
 10
281.4152241716
 20
86.0560900175
  0
VERTEX
  8
DEFAULT_2
 62
8
  6
HIDDEN
 10
281.3277782495
 20
87.5987620613
  0
VERTEX
  8
DEFAULT_2
 62
8
  6
HIDDEN
 10
281.244314759
 20
88.9542524304
  0
SEQEND
  0
LINE
  8
DEFAULT_2
 62
8
  6
HIDDEN
 10
281.5050635883
 20
84.3507213021
 11
281.7279765214
 21
79.7437788481
  0
LINE
  8
0
 62
7
  6
CONTINUOUS
 10
281.4127533912
 20
75.9242654942
 11
281.244314759
 21
79.7104642749
  0
POLYLINE
  8
0
 62
7
  6
CONTINUOUS
 66
1
 70
0
  0
VERTEX
  8
0
 62
7
  6
CONTINUOUS
 10
281.7221565373
 20
69.9721763903
  0
VERTEX
  8
0
 62
7
  6
CONTINUOUS
 10
281.5050635883
 20
74.8628147446
  0
VERTEX
  8
0
 62
7
  6
CONTINUOUS
 10
281.4152241716
 20
76.9399059915
  0
VERTEX
  8
0
 62
7
  6
CONTINUOUS
 10
281.3277782495
 20
79.0057580641
  0
VERTEX
  8
0
 62
7
  6
CONTINUOUS
 10
281.244314759
 20
81.0275336414
  0
SEQEND
  0
LINE
  8
0
 62
7
  6
CONTINUOUS
 10
281.7221565373
 20
69.9721763903
 11
281.7497019769
 21
69.3202922848
  0
POLYLINE
  8
0
 62
7
  6
CONTINUOUS
 66
1
 70
0
  0
VERTEX
  8
0
 62
7
  6
CONTINUOUS
 10
281.7497019769
 20
69.3202922848
  0
VERTEX
  8
0
 62
7
  6
CONTINUOUS
 10
281.761643208
 20
69.005024269
  0
VERTEX
  8
0
 62
7
  6
CONTINUOUS
 10
281.7664188629
 20
68.8597967454
  0
VERTEX
  8
0
 62
7
  6
CONTINUOUS
 10
281.7682338595
 20
68.779144514
  0
VERTEX
  8
0
 62
7
  6
CONTINUOUS
 10
281.7677672123
 20
68.7642646994
  0
SEQEND
  0
LINE
  8
0
 62
7
  6
CONTINUOUS
 10
273.444314759
 20
244.4689260429
 11
273.444314759
 21
99.4689260429
  0
LINE
  8
0
 62
9
  6
CONTINUOUS
 10
275.444314759
 20
246.4689260429
 11
275.444314759
 21
97.4689260429
  0
LINE
  8
DEFAULT_2
 62
8
  6
HIDDEN
 10
281.7393657105
 20
274.3642635476
 11
281.7582407164
 21
274.8390595816
  0
POLYLINE
  8
DEFAULT_2
 62
8
  6
HIDDEN
 66
1
 70
0
  0
VERTEX
  8
DEFAULT_2
 62
8
  6
HIDDEN
 10
281.5050635883
 20
269.0750373412
  0
VERTEX
  8
DEFAULT_2
 62
8
  6
HIDDEN
 10
281.4152241716
 20
266.9979460943
  0
VERTEX
  8
DEFAULT_2
 62
8
  6
HIDDEN
 10
281.3277782495
 20
264.9320940218
  0
VERTEX
  8
DEFAULT_2
 62
8
  6
HIDDEN
 10
281.244314759
 20
262.9103184445
  0
SEQEND
  0
LINE
  8
DEFAULT_2
 62
8
  6
HIDDEN
 10
281.7221565373
 20
273.9656756956
 11
281.7393657105
 21
274.3642635476
  0
LINE
  8
DEFAULT_2
 62
8
  6
HIDDEN
 10
281.5050635883
 20
269.0750373412
 11
281.7221565373
 21
273.9656756956
  0
POLYLINE
  8
0
 62
7
  6
CONTINUOUS
 66
1
 70
0
  0
VERTEX
  8
0
 62
7
  6
CONTINUOUS
 10
281.5957662995
 20
261.4281079144
  0
VERTEX
  8
0
 62
7
  6
CONTINUOUS
 10
281.5050635883
 20
259.5871307838
  0
VERTEX
  8
0
 62
7
  6
CONTINUOUS
 10
281.4152241716
 20
257.8817620684
  0
VERTEX
  8
0
 62
7
  6
CONTINUOUS
 10
281.3277782495
 20
256.3390900246
  0
VERTEX
  8
0
 62
7
  6
CONTINUOUS
 10
281.244314759
 20
254.9835996554
  0
SEQEND
  0
POLYLINE
  8
0
 62
7
  6
CONTINUOUS
 66
1
 70
0
  0
VERTEX
  8
0
 62
7
  6
CONTINUOUS
 10
281.5957662995
 20
261.4281079144
  0
VERTEX
  8
0
 62
7
  6
CONTINUOUS
 10
281.7279765214
 20
264.1940732378
  0
VERTEX
  8
0
 62
7
  6
CONTINUOUS
 10
281.7393657105
 20
264.4006928454
  0
VERTEX
  8
0
 62
7
  6
CONTINUOUS
 10
281.7497019769
 20
264.5552920303
  0
VERTEX
  8
0
 62
7
  6
CONTINUOUS
 10
281.7582407164
 20
264.6465459725
  0
VERTEX
  8
0
 62
7
  6
CONTINUOUS
 10
281.761643208
 20
264.6662065098
  0
VERTEX
  8
0
 62
7
  6
CONTINUOUS
 10
281.7633696629
 20
264.6694314375
  0
SEQEND
  0
POLYLINE
  8
DEFAULT_2
 62
8
  6
HIDDEN
 66
1
 70
0
  0
VERTEX
  8
DEFAULT_2
 62
8
  6
HIDDEN
 10
281.5050635883
 20
241.4717098981
  0
VERTEX
  8
DEFAULT_2
 62
8
  6
HIDDEN
 10
281.4152241716
 20
239.8162743782
  0
VERTEX
  8
DEFAULT_2
 62
8
  6
HIDDEN
 10
281.3277782495
 20
238.0163275529
  0
VERTEX
  8
DEFAULT_2
 62
8
  6
HIDDEN
 10
281.244314759
 20
236.1005163204
  0
SEQEND
  0
POLYLINE
  8
0
 62
7
  6
CONTINUOUS
 66
1
 70
0
  0
VERTEX
  8
0
 62
7
  6
CONTINUOUS
 10
281.7651907712
 20
275.1474490836
  0
VERTEX
  8
0
 62
7
  6
CONTINUOUS
 10
281.7277063203
 20
274.5486225584
  0
VERTEX
  8
0
 62
7
  6
CONTINUOUS
 10
281.6807798852
 20
273.6875373045
  0
VERTEX
  8
0
 62
7
  6
CONTINUOUS
 10
281.6250142457
 20
272.5804692065
  0
VERTEX
  8
0
 62
7
  6
CONTINUOUS
 10
281.5611485363
 20
271.2483790459
  0
VERTEX
  8
0
 62
7
  6
CONTINUOUS
 10
281.4900537793
 20
269.7163676183
  0
VERTEX
  8
0
 62
7
  6
CONTINUOUS
 10
281.4127533912
 20
268.0135865917
  0
VERTEX
  8
0
 62
7
  6
CONTINUOUS
 10
281.244314759
 20
264.227387811
  0
SEQEND
  0
LINE
  8
DEFAULT_2
 62
8
  6
HIDDEN
 10
281.5050635883
 20
241.4717098981
 11
281.7279765214
 21
244.9915033832
  0
LINE
  8
0
 62
7
  6
CONTINUOUS
 10
281.5957662995
 20
217.5554932544
 11
281.7221565373
 21
219.0048246172
  0
POLYLINE
  8
0
 62
7
  6
CONTINUOUS
 66
1
 70
0
  0
VERTEX
  8
0
 62
7
  6
CONTINUOUS
 10
281.5957662995
 20
217.5554932544
  0
VERTEX
  8
0
 62
7
  6
CONTINUOUS
 10
281.5050635883
 20
216.6320480486
  0
VERTEX
  8
0
 62
7
  6
CONTINUOUS
 10
281.4152241716
 20
215.9497947506
  0
VERTEX
  8
0
 62
7
  6
CONTINUOUS
 10
281.3277782495
 20
215.5195510229
  0
VERTEX
  8
0
 62
7
  6
CONTINUOUS
 10
281.244314759
 20
215.3480971114
  0
SEQEND
  0
LINE
  8
0
 62
7
  6
CONTINUOUS
 10
281.7677672123
 20
275.1735873864
 11
281.7651907712
 21
275.1474490836
  0
POLYLINE
  8
0
 62
7
  6
CONTINUOUS
 66
1
 70
0
  0
VERTEX
  8
0
 62
7
  6
CONTINUOUS
 10
281.7221565373
 20
219.0048246172
  0
VERTEX
  8
0
 62
7
  6
CONTINUOUS
 10
281.7279765214
 20
219.0636384954
  0
VERTEX
  8
0
 62
7
  6
CONTINUOUS
 10
281.7393657105
 20
219.1313288648
  0
VERTEX
  8
0
 62
7
  6
CONTINUOUS
 10
281.7442594376
 20
219.1387992135
  0
SEQEND
  0
POLYLINE
  8
0
 62
7
  6
CONTINUOUS
 66
1
 70
0
  0
VERTEX
  8
0
 62
7
  6
CONTINUOUS
 10
289.8125817387
 20
264.6694314375
  0
VERTEX
  8
0
 62
7
  6
CONTINUOUS
 10
289.8095332982
 20
264.6518875847
  0
VERTEX
  8
0
 62
7
  6
CONTINUOUS
 10
289.8077175819
 20
264.567447284
  0
VERTEX
  8
0
 62
7
  6
CONTINUOUS
 10
289.8089876754
 20
264.4189334711
  0
VERTEX
  8
0
 62
7
  6
CONTINUOUS
 10
289.8481566226
 20
262.69727074
  0
SEQEND
  0
POLYLINE
  8
DEFAULT_2
 62
8
  6
HIDDEN
 66
1
 70
0
  0
VERTEX
  8
DEFAULT_2
 62
8
  6
HIDDEN
 10
306.9439437433
 20
247.7239751201
  0
VERTEX
  8
DEFAULT_2
 62
8
  6
HIDDEN
 10
306.8743904054
 20
247.5550206611
  0
VERTEX
  8
DEFAULT_2
 62
8
  6
HIDDEN
 10
306.8035092114
 20
247.1106926441
  0
VERTEX
  8
DEFAULT_2
 62
8
  6
HIDDEN
 10
306.7264331599
 20
246.3979092286
  0
VERTEX
  8
DEFAULT_2
 62
8
  6
HIDDEN
 10
306.644314759
 20
245.4300596071
  0
SEQEND
  0
LINE
  8
DEFAULT_2
 62
8
  6
HIDDEN
 10
281.5957662995
 20
187.6674927358
 11
281.7221565373
 21
187.970485496
  0
LINE
  8
DEFAULT_2
 62
8
  6
HIDDEN
 10
323.444314759
 20
147.1465945457
 11
273.444314759
 21
147.1465945457
  0
LINE
  8
0
 62
7
  6
CONTINUOUS
 10
281.2920457549
 20
147.3069547731
 11
290.244314759
 21
147.3069547731
  0
LINE
  8
0
 62
7
  6
CONTINUOUS
 10
306.644314759
 20
147.3069547731
 11
315.5965837632
 21
147.3069547731
  0
LINE
  8
DEFAULT_2
 62
8
  6
HIDDEN
 10
315.644314759
 20
147.7465780242
 11
306.644314759
 21
147.7465780242
  0
LINE
  8
DEFAULT_2
 62
8
  6
HIDDEN
 10
290.244314759
 20
147.7465780242
 11
281.244314759
 21
147.7465780242
  0
LINE
  8
DEFAULT_2
 62
8
  6
HIDDEN
 10
281.244314759
 20
150.0150747145
 11
290.244314759
 21
150.0150747145
  0
LINE
  8
DEFAULT_2
 62
8
  6
HIDDEN
 10
306.644314759
 20
150.0150747145
 11
315.644314759
 21
150.0150747145
  0
LINE
  8
DEFAULT_2
 62
8
  6
HIDDEN
 10
281.244314759
 20
150.1116136041
 11
290.244314759
 21
150.1116136041
  0
LINE
  8
DEFAULT_2
 62
8
  6
HIDDEN
 10
306.644314759
 20
150.1116136041
 11
315.644314759
 21
150.1116136041
  0
LINE
  8
DEFAULT_2
 62
8
  6
HIDDEN
 10
323.444314759
 20
150.1581429712
 11
273.444314759
 21
150.1581429712
  0
LINE
  8
DEFAULT_2
 62
8
  6
HIDDEN
 10
281.244314759
 20
150.3296976628
 11
290.244314759
 21
150.3296976628
  0
LINE
  8
DEFAULT_2
 62
8
  6
HIDDEN
 10
306.644314759
 20
150.3296976628
 11
315.644314759
 21
150.3296976628
  0
LINE
  8
DEFAULT_2
 62
8
  6
HIDDEN
 10
281.244314759
 20
151.62579845
 11
290.244314759
 21
151.62579845
  0
LINE
  8
DEFAULT_2
 62
8
  6
HIDDEN
 10
306.644314759
 20
151.62579845
 11
315.644314759
 21
151.62579845
  0
LINE
  8
0
 62
7
  6
CONTINUOUS
 10
281.5957662995
 20
156.2703593501
 11
281.7221565373
 21
155.9673665899
  0
POLYLINE
  8
0
 62
7
  6
CONTINUOUS
 66
1
 70
0
  0
VERTEX
  8
0
 62
7
  6
CONTINUOUS
 10
306.9439437433
 20
96.2138769657
  0
VERTEX
  8
0
 62
7
  6
CONTINUOUS
 10
306.8743904054
 20
96.3828314248
  0
VERTEX
  8
0
 62
7
  6
CONTINUOUS
 10
306.8035092114
 20
96.8271594418
  0
VERTEX
  8
0
 62
7
  6
CONTINUOUS
 10
306.7264331599
 20
97.5399428573
  0
VERTEX
  8
0
 62
7
  6
CONTINUOUS
 10
306.644314759
 20
98.5077924788
  0
SEQEND
  0
POLYLINE
  8
0
 62
7
  6
CONTINUOUS
 66
1
 70
0
  0
VERTEX
  8
0
 62
7
  6
CONTINUOUS
 10
281.5957662995
 20
156.2703593501
  0
VERTEX
  8
0
 62
7
  6
CONTINUOUS
 10
281.5050635883
 20
156.6171707509
  0
VERTEX
  8
0
 62
7
  6
CONTINUOUS
 10
281.4152241716
 20
157.2186304413
  0
VERTEX
  8
0
 62
7
  6
CONTINUOUS
 10
281.3277782495
 20
158.0651535101
  0
VERTEX
  8
0
 62
7
  6
CONTINUOUS
 10
281.244314759
 20
159.143225623
  0
SEQEND
  0
POLYLINE
  8
DEFAULT_2
 62
8
  6
HIDDEN
 66
1
 70
0
  0
VERTEX
  8
DEFAULT_2
 62
8
  6
HIDDEN
 10
289.8125817387
 20
79.2684206483
  0
VERTEX
  8
DEFAULT_2
 62
8
  6
HIDDEN
 10
289.8095332982
 20
79.2859645012
  0
VERTEX
  8
DEFAULT_2
 62
8
  6
HIDDEN
 10
289.8077175819
 20
79.3704048018
  0
VERTEX
  8
DEFAULT_2
 62
8
  6
HIDDEN
 10
289.8089876754
 20
79.5189186148
  0
SEQEND
  0
POLYLINE
  8
DEFAULT_2
 62
8
  6
HIDDEN
 66
1
 70
0
  0
VERTEX
  8
DEFAULT_2
 62
8
  6
HIDDEN
 10
281.7277063203
 20
81.244162555
  0
VERTEX
  8
DEFAULT_2
 62
8
  6
HIDDEN
 10
281.6807798852
 20
83.0272444945
  0
VERTEX
  8
DEFAULT_2
 62
8
  6
HIDDEN
 10
281.6250142457
 20
84.9295255715
  0
VERTEX
  8
DEFAULT_2
 62
8
  6
HIDDEN
 10
281.5611485363
 20
86.9149171
  0
VERTEX
  8
DEFAULT_2
 62
8
  6
HIDDEN
 10
281.4900537793
 20
88.945914456
  0
VERTEX
  8
DEFAULT_2
 62
8
  6
HIDDEN
 10
281.4127533912
 20
90.9837873685
  0
VERTEX
  8
DEFAULT_2
 62
8
  6
HIDDEN
 10
281.330405741
 20
92.9898851734
  0
VERTEX
  8
DEFAULT_2
 62
8
  6
HIDDEN
 10
281.244314759
 20
94.9260725291
  0
SEQEND
  0
POLYLINE
  8
DEFAULT_2
 62
8
  6
HIDDEN
 66
1
 70
0
  0
VERTEX
  8
DEFAULT_2
 62
8
  6
HIDDEN
 10
281.7651907712
 20
189.4819718898
  0
VERTEX
  8
DEFAULT_2
 62
8
  6
HIDDEN
 10
281.7277063203
 20
191.1506106158
  0
VERTEX
  8
DEFAULT_2
 62
8
  6
HIDDEN
 10
281.6807798852
 20
192.6424325906
  0
VERTEX
  8
DEFAULT_2
 62
8
  6
HIDDEN
 10
281.6250142457
 20
193.9291142189
  0
VERTEX
  8
DEFAULT_2
 62
8
  6
HIDDEN
 10
281.5611485363
 20
194.9861780371
  0
VERTEX
  8
DEFAULT_2
 62
8
  6
HIDDEN
 10
281.4900537793
 20
195.7935542291
  0
VERTEX
  8
DEFAULT_2
 62
8
  6
HIDDEN
 10
281.4127533912
 20
196.3357442898
  0
VERTEX
  8
DEFAULT_2
 62
8
  6
HIDDEN
 10
281.330405741
 20
196.6023815524
  0
VERTEX
  8
DEFAULT_2
 62
8
  6
HIDDEN
 10
281.2920435736
 20
196.6308973128
  0
SEQEND
  0
POLYLINE
  8
DEFAULT_2
 62
8
  6
HIDDEN
 66
1
 70
0
  0
VERTEX
  8
DEFAULT_2
 62
8
  6
HIDDEN
 10
281.7651907712
 20
125.7141377417
  0
VERTEX
  8
DEFAULT_2
 62
8
  6
HIDDEN
 10
281.7277063203
 20
127.7528716137
  0
VERTEX
  8
DEFAULT_2
 62
8
  6
HIDDEN
 10
281.6807798852
 20
129.7768735425
  0
VERTEX
  8
DEFAULT_2
 62
8
  6
HIDDEN
 10
281.6250142457
 20
131.7477608832
  0
VERTEX
  8
DEFAULT_2
 62
8
  6
HIDDEN
 10
281.5611485363
 20
133.6281016967
  0
VERTEX
  8
DEFAULT_2
 62
8
  6
HIDDEN
 10
281.4900537793
 20
135.3823130222
  0
VERTEX
  8
DEFAULT_2
 62
8
  6
HIDDEN
 10
281.4127533912
 20
136.9768796328
  0
VERTEX
  8
DEFAULT_2
 62
8
  6
HIDDEN
 10
281.330405741
 20
138.3815071519
  0
VERTEX
  8
DEFAULT_2
 62
8
  6
HIDDEN
 10
281.244314759
 20
139.5694322354
  0
SEQEND
  0
LINE
  8
0
 62
7
  6
CONTINUOUS
 10
281.244314759
 20
79.7104642749
 11
281.244314759
 21
264.227387811
  0
POLYLINE
  8
0
 62
7
  6
CONTINUOUS
 66
1
 70
0
  0
VERTEX
  8
0
 62
7
  6
CONTINUOUS
 10
281.7651907712
 20
218.2237143442
  0
VERTEX
  8
0
 62
7
  6
CONTINUOUS
 10
281.7277063203
 20
216.1849804722
  0
VERTEX
  8
0
 62
7
  6
CONTINUOUS
 10
281.6807798852
 20
214.1609785433
  0
VERTEX
  8
0
 62
7
  6
CONTINUOUS
 10
281.6250142457
 20
212.1900912027
  0
VERTEX
  8
0
 62
7
  6
CONTINUOUS
 10
281.5611485363
 20
210.3097503891
  0
VERTEX
  8
0
 62
7
  6
CONTINUOUS
 10
281.4900537793
 20
208.5555390637
  0
VERTEX
  8
0
 62
7
  6
CONTINUOUS
 10
281.4127533912
 20
206.9609724531
  0
VERTEX
  8
0
 62
7
  6
CONTINUOUS
 10
281.330405741
 20
205.556344934
  0
VERTEX
  8
0
 62
7
  6
CONTINUOUS
 10
281.244314759
 20
204.3684198505
  0
SEQEND
  0
POLYLINE
  8
DEFAULT_2
 62
8
  6
HIDDEN
 66
1
 70
0
  0
VERTEX
  8
DEFAULT_2
 62
8
  6
HIDDEN
 10
281.7664188629
 20
275.0780553405
  0
VERTEX
  8
DEFAULT_2
 62
8
  6
HIDDEN
 10
281.7682338595
 20
275.1587075719
  0
VERTEX
  8
DEFAULT_2
 62
8
  6
HIDDEN
 10
281.7677672123
 20
275.1735873864
  0
SEQEND
  0
POLYLINE
  8
0
 62
7
  6
CONTINUOUS
 66
1
 70
0
  0
VERTEX
  8
0
 62
7
  6
CONTINUOUS
 10
281.7651907712
 20
154.455880196
  0
VERTEX
  8
0
 62
7
  6
CONTINUOUS
 10
281.7277063203
 20
152.78724147
  0
VERTEX
  8
0
 62
7
  6
CONTINUOUS
 10
281.6807798852
 20
151.2954194953
  0
VERTEX
  8
0
 62
7
  6
CONTINUOUS
 10
281.6250142457
 20
150.008737867
  0
VERTEX
  8
0
 62
7
  6
CONTINUOUS
 10
281.5611485363
 20
148.9516740488
  0
VERTEX
  8
0
 62
7
  6
CONTINUOUS
 10
281.4900537793
 20
148.1442978568
  0
VERTEX
  8
0
 62
7
  6
CONTINUOUS
 10
281.4127533912
 20
147.6021077961
  0
VERTEX
  8
0
 62
7
  6
CONTINUOUS
 10
281.330405741
 20
147.3354705335
  0
VERTEX
  8
0
 62
7
  6
CONTINUOUS
 10
281.2920435736
 20
147.3069547731
  0
SEQEND
  0
POLYLINE
  8
0
 62
7
  6
CONTINUOUS
 66
1
 70
0
  0
VERTEX
  8
0
 62
7
  6
CONTINUOUS
 10
281.7669636013
 20
264.4189254169
  0
VERTEX
  8
0
 62
7
  6
CONTINUOUS
 10
281.7277063203
 20
262.6936895309
  0
VERTEX
  8
0
 62
7
  6
CONTINUOUS
 10
281.6807798852
 20
260.9106075914
  0
VERTEX
  8
0
 62
7
  6
CONTINUOUS
 10
281.6250142457
 20
259.0083265144
  0
VERTEX
  8
0
 62
7
  6
CONTINUOUS
 10
281.5611485363
 20
257.0229349859
  0
VERTEX
  8
0
 62
7
  6
CONTINUOUS
 10
281.4900537793
 20
254.9919376299
  0
VERTEX
  8
0
 62
7
  6
CONTINUOUS
 10
281.4127533912
 20
252.9540647174
  0
VERTEX
  8
0
 62
7
  6
CONTINUOUS
 10
281.330405741
 20
250.9479669125
  0
VERTEX
  8
0
 62
7
  6
CONTINUOUS
 10
281.244314759
 20
249.0117795567
  0
SEQEND
  0
LINE
  8
DEFAULT_2
 62
8
  6
HIDDEN
 10
281.7582407164
 20
274.8390595816
 11
281.7664188629
 21
275.0780553405
  0
POLYLINE
  8
DEFAULT_2
 62
8
  6
HIDDEN
 66
1
 70
0
  0
VERTEX
  8
DEFAULT_2
 62
8
  6
HIDDEN
 10
281.7279765214
 20
244.9915033832
  0
VERTEX
  8
DEFAULT_2
 62
8
  6
HIDDEN
 10
281.7393657105
 20
245.2162956126
  0
VERTEX
  8
DEFAULT_2
 62
8
  6
HIDDEN
 10
281.7497019769
 20
245.471538375
  0
VERTEX
  8
DEFAULT_2
 62
8
  6
HIDDEN
 10
281.7582407164
 20
245.7386786062
  0
VERTEX
  8
DEFAULT_2
 62
8
  6
HIDDEN
 10
281.761643208
 20
245.8707382606
  0
VERTEX
  8
DEFAULT_2
 62
8
  6
HIDDEN
 10
281.7664188629
 20
246.1200516059
  0
VERTEX
  8
DEFAULT_2
 62
8
  6
HIDDEN
 10
281.7682338595
 20
246.334994672
  0
VERTEX
  8
DEFAULT_2
 62
8
  6
HIDDEN
 10
281.7669636013
 20
246.5002529144
  0
VERTEX
  8
DEFAULT_2
 62
8
  6
HIDDEN
 10
281.7651907712
 20
246.560417771
  0
SEQEND
  0
POLYLINE
  8
DEFAULT_2
 62
8
  6
HIDDEN
 66
1
 70
0
  0
VERTEX
  8
DEFAULT_2
 62
8
  6
HIDDEN
 10
281.7221565373
 20
187.970485496
  0
VERTEX
  8
DEFAULT_2
 62
8
  6
HIDDEN
 10
281.7279765214
 20
187.9932277993
  0
VERTEX
  8
DEFAULT_2
 62
8
  6
HIDDEN
 10
281.7393657105
 20
188.0903220885
  0
VERTEX
  8
DEFAULT_2
 62
8
  6
HIDDEN
 10
281.7497019769
 20
188.2500173
  0
VERTEX
  8
DEFAULT_2
 62
8
  6
HIDDEN
 10
281.7582407164
 20
188.4607594933
  0
VERTEX
  8
DEFAULT_2
 62
8
  6
HIDDEN
 10
281.761643208
 20
188.5806682674
  0
VERTEX
  8
DEFAULT_2
 62
8
  6
HIDDEN
 10
281.7664188629
 20
188.8388382102
  0
VERTEX
  8
DEFAULT_2
 62
8
  6
HIDDEN
 10
281.7682338595
 20
189.1059711656
  0
VERTEX
  8
DEFAULT_2
 62
8
  6
HIDDEN
 10
281.7669636013
 20
189.3630110414
  0
VERTEX
  8
DEFAULT_2
 62
8
  6
HIDDEN
 10
281.7651907712
 20
189.4819718898
  0
SEQEND
  0
POLYLINE
  8
DEFAULT_2
 62
8
  6
HIDDEN
 66
1
 70
0
  0
VERTEX
  8
DEFAULT_2
 62
8
  6
HIDDEN
 10
281.5957662995
 20
187.6674927358
  0
VERTEX
  8
DEFAULT_2
 62
8
  6
HIDDEN
 10
281.5050635883
 20
187.320681335
  0
VERTEX
  8
DEFAULT_2
 62
8
  6
HIDDEN
 10
281.4152241716
 20
186.7192216446
  0
VERTEX
  8
DEFAULT_2
 62
8
  6
HIDDEN
 10
281.3277782495
 20
185.8726985758
  0
VERTEX
  8
DEFAULT_2
 62
8
  6
HIDDEN
 10
281.244314759
 20
184.7946264629
  0
SEQEND
  0
LINE
  8
0
 62
9
  6
CONTINUOUS
 10
315.1234387469
 20
154.455880196
 11
307.0778688853
 21
154.455880196
  0
LINE
  8
0
 62
9
  6
CONTINUOUS
 10
289.8107606327
 20
154.455880196
 11
281.7651907712
 21
154.455880196
  0
LINE
  8
0
 62
9
  6
CONTINUOUS
 10
315.1664729808
 20
155.9673665899
 11
307.0348346515
 21
155.9673665899
  0
LINE
  8
0
 62
9
  6
CONTINUOUS
 10
289.8537948666
 20
155.9673665899
 11
281.7221565373
 21
155.9673665899
  0
LINE
  8
0
 62
9
  6
CONTINUOUS
 10
315.2928632186
 20
156.2703593501
 11
306.9084444137
 21
156.2703593501
  0
LINE
  8
0
 62
9
  6
CONTINUOUS
 10
289.9801851044
 20
156.2703593501
 11
281.5957662995
 21
156.2703593501
  0
POLYLINE
  8
0
 62
7
  6
CONTINUOUS
 66
1
 70
0
  0
VERTEX
  8
0
 62
7
  6
CONTINUOUS
 10
281.7221565373
 20
155.9673665899
  0
VERTEX
  8
0
 62
7
  6
CONTINUOUS
 10
281.7279765214
 20
155.9446242866
  0
VERTEX
  8
0
 62
7
  6
CONTINUOUS
 10
281.7393657105
 20
155.8475299974
  0
VERTEX
  8
0
 62
7
  6
CONTINUOUS
 10
281.7497019769
 20
155.6878347859
  0
VERTEX
  8
0
 62
7
  6
CONTINUOUS
 10
281.7582407164
 20
155.4770925925
  0
VERTEX
  8
0
 62
7
  6
CONTINUOUS
 10
281.761643208
 20
155.3571838185
  0
VERTEX
  8
0
 62
7
  6
CONTINUOUS
 10
281.7664188629
 20
155.0990138756
  0
VERTEX
  8
0
 62
7
  6
CONTINUOUS
 10
281.7682338595
 20
154.8318809203
  0
VERTEX
  8
0
 62
7
  6
CONTINUOUS
 10
281.7669636013
 20
154.5748410444
  0
VERTEX
  8
0
 62
7
  6
CONTINUOUS
 10
281.7651907712
 20
154.455880196
  0
SEQEND
  0
POLYLINE
  8
0
 62
7
  6
CONTINUOUS
 66
1
 70
0
  0
VERTEX
  8
0
 62
7
  6
CONTINUOUS
 10
289.8107606327
 20
97.3774343149
  0
VERTEX
  8
0
 62
7
  6
CONTINUOUS
 10
289.8481566226
 20
96.7173574655
  0
VERTEX
  8
0
 62
7
  6
CONTINUOUS
 10
289.8949555877
 20
96.3274943024
  0
VERTEX
  8
0
 62
7
  6
CONTINUOUS
 10
289.9446857748
 20
96.2138769657
  0
SEQEND
  0
POLYLINE
  8
DEFAULT_2
 62
8
  6
HIDDEN
 66
1
 70
0
  0
VERTEX
  8
DEFAULT_2
 62
8
  6
HIDDEN
 10
281.7651907712
 20
246.560417771
  0
VERTEX
  8
DEFAULT_2
 62
8
  6
HIDDEN
 10
281.7277063203
 20
247.2215980727
  0
VERTEX
  8
DEFAULT_2
 62
8
  6
HIDDEN
 10
281.6807798852
 20
247.6114148041
  0
VERTEX
  8
DEFAULT_2
 62
8
  6
HIDDEN
 10
281.631265599
 20
247.7239751201
  0
SEQEND
  0
POLYLINE
  8
0
 62
7
  6
CONTINUOUS
 66
1
 70
0
  0
VERTEX
  8
0
 62
7
  6
CONTINUOUS
 10
289.8481566226
 20
262.69727074
  0
VERTEX
  8
0
 62
7
  6
CONTINUOUS
 10
289.8949555877
 20
260.9183662693
  0
VERTEX
  8
0
 62
7
  6
CONTINUOUS
 10
289.950560761
 20
259.0205731703
  0
VERTEX
  8
0
 62
7
  6
CONTINUOUS
 10
290.0142391127
 20
257.0397321492
  0
VERTEX
  8
0
 62
7
  6
CONTINUOUS
 10
290.0851203067
 20
255.0132755112
  0
VERTEX
  8
0
 62
7
  6
CONTINUOUS
 10
290.1621963582
 20
252.9794650534
  0
VERTEX
  8
0
 62
7
  6
CONTINUOUS
 10
290.244314759
 20
250.9768060551
  0
SEQEND
  0
POLYLINE
  8
0
 62
7
  6
CONTINUOUS
 66
1
 70
0
  0
VERTEX
  8
0
 62
7
  6
CONTINUOUS
 10
289.8107606327
 20
154.455880196
  0
VERTEX
  8
0
 62
7
  6
CONTINUOUS
 10
289.8481566226
 20
152.7905582312
  0
VERTEX
  8
0
 62
7
  6
CONTINUOUS
 10
289.8949555877
 20
151.3012716426
  0
VERTEX
  8
0
 62
7
  6
CONTINUOUS
 10
289.950560761
 20
150.0161265558
  0
VERTEX
  8
0
 62
7
  6
CONTINUOUS
 10
290.0142391127
 20
148.9594810488
  0
VERTEX
  8
0
 62
7
  6
CONTINUOUS
 10
290.0851203067
 20
148.1513899868
  0
VERTEX
  8
0
 62
7
  6
CONTINUOUS
 10
290.1621963582
 20
147.6072094126
  0
VERTEX
  8
0
 62
7
  6
CONTINUOUS
 10
290.244314759
 20
147.3373477053
  0
SEQEND
  0
POLYLINE
  8
0
 62
7
  6
CONTINUOUS
 66
1
 70
0
  0
VERTEX
  8
0
 62
7
  6
CONTINUOUS
 10
289.8107606327
 20
218.2237143442
  0
VERTEX
  8
0
 62
7
  6
CONTINUOUS
 10
289.8481566226
 20
216.1892436523
  0
VERTEX
  8
0
 62
7
  6
CONTINUOUS
 10
289.8949555877
 20
214.169390496
  0
VERTEX
  8
0
 62
7
  6
CONTINUOUS
 10
289.950560761
 20
212.2022265131
  0
VERTEX
  8
0
 62
7
  6
CONTINUOUS
 10
290.0142391127
 20
210.3249565983
  0
VERTEX
  8
0
 62
7
  6
CONTINUOUS
 10
290.0851203067
 20
208.573109777
  0
VERTEX
  8
0
 62
7
  6
CONTINUOUS
 10
290.1621963582
 20
206.9798236965
  0
VERTEX
  8
0
 62
7
  6
CONTINUOUS
 10
290.244314759
 20
205.5753286603
  0
SEQEND
  0
LINE
  8
0
 62
7
  6
CONTINUOUS
 10
290.244314759
 20
77.7378934216
 11
290.244314759
 21
266.1999586643
  0
POLYLINE
  8
DEFAULT_2
 62
8
  6
HIDDEN
 66
1
 70
0
  0
VERTEX
  8
DEFAULT_2
 62
8
  6
HIDDEN
 10
289.8107606327
 20
125.7141377417
  0
VERTEX
  8
DEFAULT_2
 62
8
  6
HIDDEN
 10
289.8481566226
 20
127.7486084336
  0
VERTEX
  8
DEFAULT_2
 62
8
  6
HIDDEN
 10
289.8949555877
 20
129.7684615899
  0
VERTEX
  8
DEFAULT_2
 62
8
  6
HIDDEN
 10
289.950560761
 20
131.7356255728
  0
VERTEX
  8
DEFAULT_2
 62
8
  6
HIDDEN
 10
290.0142391127
 20
133.6128954876
  0
VERTEX
  8
DEFAULT_2
 62
8
  6
HIDDEN
 10
290.0851203067
 20
135.3647423089
  0
VERTEX
  8
DEFAULT_2
 62
8
  6
HIDDEN
 10
290.1621963582
 20
136.9580283894
  0
VERTEX
  8
DEFAULT_2
 62
8
  6
HIDDEN
 10
290.244314759
 20
138.3625234256
  0
SEQEND
  0
POLYLINE
  8
DEFAULT_2
 62
8
  6
HIDDEN
 66
1
 70
0
  0
VERTEX
  8
DEFAULT_2
 62
8
  6
HIDDEN
 10
289.8107606327
 20
189.4819718898
  0
VERTEX
  8
DEFAULT_2
 62
8
  6
HIDDEN
 10
289.8481566226
 20
191.1472938547
  0
VERTEX
  8
DEFAULT_2
 62
8
  6
HIDDEN
 10
289.8949555877
 20
192.6365804433
  0
VERTEX
  8
DEFAULT_2
 62
8
  6
HIDDEN
 10
289.950560761
 20
193.92172553
  0
VERTEX
  8
DEFAULT_2
 62
8
  6
HIDDEN
 10
290.0142391127
 20
194.9783710371
  0
VERTEX
  8
DEFAULT_2
 62
8
  6
HIDDEN
 10
290.0851203067
 20
195.7864620991
  0
VERTEX
  8
DEFAULT_2
 62
8
  6
HIDDEN
 10
290.1621963582
 20
196.3306426732
  0
VERTEX
  8
DEFAULT_2
 62
8
  6
HIDDEN
 10
290.244314759
 20
196.6005043805
  0
SEQEND
  0
POLYLINE
  8
0
 62
7
  6
CONTINUOUS
 66
1
 70
0
  0
VERTEX
  8
0
 62
7
  6
CONTINUOUS
 10
289.8095332982
 20
68.8598227041
  0
VERTEX
  8
0
 62
7
  6
CONTINUOUS
 10
289.8077175819
 20
68.7791507899
  0
VERTEX
  8
0
 62
7
  6
CONTINUOUS
 10
289.8081841918
 20
68.7642646994
  0
SEQEND
  0
POLYLINE
  8
DEFAULT_2
 62
8
  6
HIDDEN
 66
1
 70
0
  0
VERTEX
  8
DEFAULT_2
 62
8
  6
HIDDEN
 10
289.8089876754
 20
79.5189186148
  0
VERTEX
  8
DEFAULT_2
 62
8
  6
HIDDEN
 10
289.8481566226
 20
81.2405813459
  0
VERTEX
  8
DEFAULT_2
 62
8
  6
HIDDEN
 10
289.8949555877
 20
83.0194858166
  0
VERTEX
  8
DEFAULT_2
 62
8
  6
HIDDEN
 10
289.950560761
 20
84.9172789155
  0
VERTEX
  8
DEFAULT_2
 62
8
  6
HIDDEN
 10
290.0142391127
 20
86.8981199367
  0
VERTEX
  8
DEFAULT_2
 62
8
  6
HIDDEN
 10
290.0851203067
 20
88.9245765747
  0
VERTEX
  8
DEFAULT_2
 62
8
  6
HIDDEN
 10
290.1621963582
 20
90.9583870325
  0
VERTEX
  8
DEFAULT_2
 62
8
  6
HIDDEN
 10
290.244314759
 20
92.9610460308
  0
SEQEND
  0
POLYLINE
  8
DEFAULT_2
 62
8
  6
HIDDEN
 66
1
 70
0
  0
VERTEX
  8
DEFAULT_2
 62
8
  6
HIDDEN
 10
289.8107606327
 20
246.560417771
  0
VERTEX
  8
DEFAULT_2
 62
8
  6
HIDDEN
 10
289.8481566226
 20
247.2204946204
  0
VERTEX
  8
DEFAULT_2
 62
8
  6
HIDDEN
 10
289.8949555877
 20
247.6103577835
  0
VERTEX
  8
DEFAULT_2
 62
8
  6
HIDDEN
 10
289.9446857748
 20
247.7239751201
  0
SEQEND
  0
POLYLINE
  8
0
 62
7
  6
CONTINUOUS
 66
1
 70
0
  0
VERTEX
  8
0
 62
7
  6
CONTINUOUS
 10
281.7651907712
 20
97.3774343149
  0
VERTEX
  8
0
 62
7
  6
CONTINUOUS
 10
281.7277063203
 20
96.7162540132
  0
VERTEX
  8
0
 62
7
  6
CONTINUOUS
 10
281.6807798852
 20
96.3264372818
  0
VERTEX
  8
0
 62
7
  6
CONTINUOUS
 10
281.631265599
 20
96.2138769657
  0
SEQEND
  0
POLYLINE
  8
0
 62
7
  6
CONTINUOUS
 66
1
 70
0
  0
VERTEX
  8
0
 62
7
  6
CONTINUOUS
 10
315.1443700882
 20
219.1387992135
  0
VERTEX
  8
0
 62
7
  6
CONTINUOUS
 10
315.1389318749
 20
219.1281970263
  0
VERTEX
  8
0
 62
7
  6
CONTINUOUS
 10
315.1303915003
 20
219.0543707134
  0
VERTEX
  8
0
 62
7
  6
CONTINUOUS
 10
315.1269882694
 20
218.9924191178
  0
VERTEX
  8
0
 62
7
  6
CONTINUOUS
 10
315.1222114124
 20
218.8240046567
  0
VERTEX
  8
0
 62
7
  6
CONTINUOUS
 10
315.1203956961
 20
218.606705466
  0
VERTEX
  8
0
 62
7
  6
CONTINUOUS
 10
315.1216657896
 20
218.3560440594
  0
VERTEX
  8
0
 62
7
  6
CONTINUOUS
 10
315.1234387469
 20
218.2237143442
  0
SEQEND
  0
LINE
  8
DEFAULT_2
 62
8
  6
HIDDEN
 10
323.444314759
 20
165.7144921573
 11
273.444314759
 21
165.7144921573
  0
LINE
  8
DEFAULT_2
 62
8
  6
HIDDEN
 10
273.444314759
 20
165.9689260429
 11
323.444314759
 21
165.9689260429
  0
LINE
  8
DEFAULT_2
 62
8
  6
HIDDEN
 10
323.444314759
 20
165.9880713506
 11
273.444314759
 21
165.9880713506
  0
LINE
  8
DEFAULT_2
 62
8
  6
HIDDEN
 10
273.444314759
 20
165.9910846492
 11
323.444314759
 21
165.9910846492
  0
POLYLINE
  8
DEFAULT_2
 62
8
  6
HIDDEN
 66
1
 70
0
  0
VERTEX
  8
DEFAULT_2
 62
8
  6
HIDDEN
 10
315.1443700882
 20
124.7990528724
  0
VERTEX
  8
DEFAULT_2
 62
8
  6
HIDDEN
 10
315.1389318749
 20
124.8096550595
  0
VERTEX
  8
DEFAULT_2
 62
8
  6
HIDDEN
 10
315.1303915003
 20
124.8834813724
  0
VERTEX
  8
DEFAULT_2
 62
8
  6
HIDDEN
 10
315.1269882694
 20
124.9454329681
  0
VERTEX
  8
DEFAULT_2
 62
8
  6
HIDDEN
 10
315.1222114124
 20
125.1138474292
  0
VERTEX
  8
DEFAULT_2
 62
8
  6
HIDDEN
 10
315.1203956961
 20
125.3311466199
  0
VERTEX
  8
DEFAULT_2
 62
8
  6
HIDDEN
 10
315.1216657896
 20
125.5818080265
  0
VERTEX
  8
DEFAULT_2
 62
8
  6
HIDDEN
 10
315.1234387469
 20
125.7141377417
  0
SEQEND
  0
POLYLINE
  8
0
 62
7
  6
CONTINUOUS
 66
1
 70
0
  0
VERTEX
  8
0
 62
7
  6
CONTINUOUS
 10
289.8537948666
 20
219.0048246172
  0
VERTEX
  8
0
 62
7
  6
CONTINUOUS
 10
289.8479775588
 20
219.0636150986
  0
VERTEX
  8
0
 62
7
  6
CONTINUOUS
 10
289.8365916586
 20
219.1313111106
  0
VERTEX
  8
0
 62
7
  6
CONTINUOUS
 10
289.8316919741
 20
219.1387992135
  0
SEQEND
  0
LINE
  8
0
 62
7
  6
CONTINUOUS
 10
307.0804453265
 20
68.7642646994
 11
307.0778688853
 21
68.7904030023
  0
POLYLINE
  8
0
 62
7
  6
CONTINUOUS
 66
1
 70
0
  0
VERTEX
  8
0
 62
7
  6
CONTINUOUS
 10
289.9801851044
 20
217.5554932544
  0
VERTEX
  8
0
 62
7
  6
CONTINUOUS
 10
290.0695312546
 20
216.6441380032
  0
VERTEX
  8
0
 62
7
  6
CONTINUOUS
 10
290.1580615546
 20
215.9666240237
  0
VERTEX
  8
0
 62
7
  6
CONTINUOUS
 10
290.244314759
 20
215.5333754412
  0
SEQEND
  0
LINE
  8
0
 62
7
  6
CONTINUOUS
 10
289.8537948666
 20
219.0048246172
 11
289.9801851044
 21
217.5554932544
  0
POLYLINE
  8
0
 62
7
  6
CONTINUOUS
 66
1
 70
0
  0
VERTEX
  8
0
 62
7
  6
CONTINUOUS
 10
289.8107606327
 20
275.1474490836
  0
VERTEX
  8
0
 62
7
  6
CONTINUOUS
 10
289.8481566226
 20
274.5501538963
  0
VERTEX
  8
0
 62
7
  6
CONTINUOUS
 10
289.8949555877
 20
273.6916791565
  0
VERTEX
  8
0
 62
7
  6
CONTINUOUS
 10
289.950560761
 20
272.5881494016
  0
VERTEX
  8
0
 62
7
  6
CONTINUOUS
 10
290.0142391127
 20
271.2603512178
  0
VERTEX
  8
0
 62
7
  6
CONTINUOUS
 10
290.0851203067
 20
269.7333223221
  0
VERTEX
  8
0
 62
7
  6
CONTINUOUS
 10
290.1621963582
 20
268.0358339552
  0
VERTEX
  8
0
 62
7
  6
CONTINUOUS
 10
290.244314759
 20
266.1999586643
  0
SEQEND
  0
POLYLINE
  8
DEFAULT_2
 62
8
  6
HIDDEN
 66
1
 70
0
  0
VERTEX
  8
DEFAULT_2
 62
8
  6
HIDDEN
 10
289.9801851044
 20
242.9563077381
  0
VERTEX
  8
DEFAULT_2
 62
8
  6
HIDDEN
 10
290.0695312546
 20
241.4952803149
  0
VERTEX
  8
DEFAULT_2
 62
8
  6
HIDDEN
 10
290.1580615546
 20
239.8681293175
  0
VERTEX
  8
DEFAULT_2
 62
8
  6
HIDDEN
 10
290.244314759
 20
238.0999686647
  0
SEQEND
  0
POLYLINE
  8
DEFAULT_2
 62
8
  6
HIDDEN
 66
1
 70
0
  0
VERTEX
  8
DEFAULT_2
 62
8
  6
HIDDEN
 10
289.9801851044
 20
242.9563077381
  0
VERTEX
  8
DEFAULT_2
 62
8
  6
HIDDEN
 10
289.8479775588
 20
244.9914565131
  0
VERTEX
  8
DEFAULT_2
 62
8
  6
HIDDEN
 10
289.8365916586
 20
245.2161638154
  0
VERTEX
  8
DEFAULT_2
 62
8
  6
HIDDEN
 10
289.8262537607
 20
245.4714184141
  0
VERTEX
  8
DEFAULT_2
 62
8
  6
HIDDEN
 10
289.8177133861
 20
245.7385817091
  0
VERTEX
  8
DEFAULT_2
 62
8
  6
HIDDEN
 10
289.8143101552
 20
245.8706553686
  0
VERTEX
  8
DEFAULT_2
 62
8
  6
HIDDEN
 10
289.8095332982
 20
246.119998253
  0
VERTEX
  8
DEFAULT_2
 62
8
  6
HIDDEN
 10
289.8077175819
 20
246.3349684527
  0
VERTEX
  8
DEFAULT_2
 62
8
  6
HIDDEN
 10
289.8089876754
 20
246.500246731
  0
VERTEX
  8
DEFAULT_2
 62
8
  6
HIDDEN
 10
289.8107606327
 20
246.560417771
  0
SEQEND
  0
POLYLINE
  8
0
 62
7
  6
CONTINUOUS
 66
1
 70
0
  0
VERTEX
  8
0
 62
7
  6
CONTINUOUS
 10
289.8479775588
 20
264.1940208737
  0
VERTEX
  8
0
 62
7
  6
CONTINUOUS
 10
289.8365916586
 20
264.400593636
  0
VERTEX
  8
0
 62
7
  6
CONTINUOUS
 10
289.8262537607
 20
264.5552355695
  0
VERTEX
  8
0
 62
7
  6
CONTINUOUS
 10
289.8177133861
 20
264.6465252535
  0
VERTEX
  8
0
 62
7
  6
CONTINUOUS
 10
289.8143101552
 20
264.6661996684
  0
VERTEX
  8
0
 62
7
  6
CONTINUOUS
 10
289.8125817387
 20
264.6694314375
  0
SEQEND
  0
POLYLINE
  8
0
 62
7
  6
CONTINUOUS
 66
1
 70
0
  0
VERTEX
  8
0
 62
7
  6
CONTINUOUS
 10
289.9801851044
 20
261.4281079144
  0
VERTEX
  8
0
 62
7
  6
CONTINUOUS
 10
290.0695312546
 20
259.6137880572
  0
VERTEX
  8
0
 62
7
  6
CONTINUOUS
 10
290.1580615546
 20
257.9306394564
  0
VERTEX
  8
0
 62
7
  6
CONTINUOUS
 10
290.244314759
 20
256.4046074929
  0
SEQEND
  0
LINE
  8
0
 62
7
  6
CONTINUOUS
 10
289.8479775588
 20
264.1940208737
 11
289.9801851044
 21
261.4281079144
  0
POLYLINE
  8
DEFAULT_2
 62
8
  6
HIDDEN
 66
1
 70
0
  0
VERTEX
  8
DEFAULT_2
 62
8
  6
HIDDEN
 10
290.0695312546
 20
269.106079761
  0
VERTEX
  8
DEFAULT_2
 62
8
  6
HIDDEN
 10
290.1580615546
 20
267.0602020964
  0
VERTEX
  8
DEFAULT_2
 62
8
  6
HIDDEN
 10
290.244314759
 20
265.0242790939
  0
SEQEND
  0
LINE
  8
DEFAULT_2
 62
8
  6
HIDDEN
 10
290.0695312546
 20
269.106079761
 11
289.8262537607
 21
274.6174507665
  0
POLYLINE
  8
DEFAULT_2
 62
8
  6
HIDDEN
 66
1
 70
0
  0
VERTEX
  8
DEFAULT_2
 62
8
  6
HIDDEN
 10
289.8262537607
 20
274.6174507665
  0
VERTEX
  8
DEFAULT_2
 62
8
  6
HIDDEN
 10
289.8143101552
 20
274.9327723586
  0
VERTEX
  8
DEFAULT_2
 62
8
  6
HIDDEN
 10
289.8095332982
 20
275.0780293818
  0
VERTEX
  8
DEFAULT_2
 62
8
  6
HIDDEN
 10
289.8077175819
 20
275.1587012959
  0
VERTEX
  8
DEFAULT_2
 62
8
  6
HIDDEN
 10
289.8081841918
 20
275.1735873864
  0
SEQEND
  0
LINE
  8
0
 62
7
  6
CONTINUOUS
 10
289.8177133861
 20
69.098865195
 11
289.8095332982
 21
68.8598227041
  0
LINE
  8
0
 62
7
  6
CONTINUOUS
 10
289.8365916586
 20
69.5737313082
 11
289.8177133861
 21
69.098865195
  0
POLYLINE
  8
0
 62
7
  6
CONTINUOUS
 66
1
 70
0
  0
VERTEX
  8
0
 62
7
  6
CONTINUOUS
 10
290.0695312546
 20
74.8317723249
  0
VERTEX
  8
0
 62
7
  6
CONTINUOUS
 10
290.1580615546
 20
76.8776499895
  0
VERTEX
  8
0
 62
7
  6
CONTINUOUS
 10
290.244314759
 20
78.9135729919
  0
SEQEND
  0
LINE
  8
0
 62
7
  6
CONTINUOUS
 10
289.8365916586
 20
69.5737313082
 11
290.0695312546
 21
74.8317723249
  0
POLYLINE
  8
DEFAULT_2
 62
8
  6
HIDDEN
 66
1
 70
0
  0
VERTEX
  8
DEFAULT_2
 62
8
  6
HIDDEN
 10
289.9801851044
 20
82.5097441715
  0
VERTEX
  8
DEFAULT_2
 62
8
  6
HIDDEN
 10
290.0695312546
 20
84.3240640287
  0
VERTEX
  8
DEFAULT_2
 62
8
  6
HIDDEN
 10
290.1580615546
 20
86.0072126295
  0
VERTEX
  8
DEFAULT_2
 62
8
  6
HIDDEN
 10
290.244314759
 20
87.533244593
  0
SEQEND
  0
POLYLINE
  8
DEFAULT_2
 62
8
  6
HIDDEN
 66
1
 70
0
  0
VERTEX
  8
DEFAULT_2
 62
8
  6
HIDDEN
 10
289.9801851044
 20
82.5097441715
  0
VERTEX
  8
DEFAULT_2
 62
8
  6
HIDDEN
 10
289.8479775588
 20
79.7438312122
  0
VERTEX
  8
DEFAULT_2
 62
8
  6
HIDDEN
 10
289.8365916586
 20
79.5372584499
  0
VERTEX
  8
DEFAULT_2
 62
8
  6
HIDDEN
 10
289.8262537607
 20
79.3826165163
  0
VERTEX
  8
DEFAULT_2
 62
8
  6
HIDDEN
 10
289.8177133861
 20
79.2913268324
  0
VERTEX
  8
DEFAULT_2
 62
8
  6
HIDDEN
 10
289.8143101552
 20
79.2716524174
  0
VERTEX
  8
DEFAULT_2
 62
8
  6
HIDDEN
 10
289.8125817387
 20
79.2684206483
  0
SEQEND
  0
POLYLINE
  8
0
 62
7
  6
CONTINUOUS
 66
1
 70
0
  0
VERTEX
  8
0
 62
7
  6
CONTINUOUS
 10
289.8479775588
 20
98.9463955728
  0
VERTEX
  8
0
 62
7
  6
CONTINUOUS
 10
289.8365916586
 20
98.7216882705
  0
VERTEX
  8
0
 62
7
  6
CONTINUOUS
 10
289.8262537607
 20
98.4664336718
  0
VERTEX
  8
0
 62
7
  6
CONTINUOUS
 10
289.8177133861
 20
98.1992703768
  0
VERTEX
  8
0
 62
7
  6
CONTINUOUS
 10
289.8143101552
 20
98.0671967173
  0
VERTEX
  8
0
 62
7
  6
CONTINUOUS
 10
289.8095332982
 20
97.8178538329
  0
VERTEX
  8
0
 62
7
  6
CONTINUOUS
 10
289.8077175819
 20
97.6028836332
  0
VERTEX
  8
0
 62
7
  6
CONTINUOUS
 10
289.8089876754
 20
97.4376053549
  0
VERTEX
  8
0
 62
7
  6
CONTINUOUS
 10
289.8107606327
 20
97.3774343149
  0
SEQEND
  0
POLYLINE
  8
0
 62
7
  6
CONTINUOUS
 66
1
 70
0
  0
VERTEX
  8
0
 62
7
  6
CONTINUOUS
 10
289.9801851044
 20
100.9815443478
  0
VERTEX
  8
0
 62
7
  6
CONTINUOUS
 10
290.0695312546
 20
102.442571771
  0
VERTEX
  8
0
 62
7
  6
CONTINUOUS
 10
290.1580615546
 20
104.0697227684
  0
VERTEX
  8
0
 62
7
  6
CONTINUOUS
 10
290.244314759
 20
105.8378834212
  0
SEQEND
  0
POLYLINE
  8
0
 62
7
  6
CONTINUOUS
 66
1
 70
0
  0
VERTEX
  8
0
 62
7
  6
CONTINUOUS
 10
289.8107606327
 20
68.7904030023
  0
VERTEX
  8
0
 62
7
  6
CONTINUOUS
 10
289.8481566226
 20
69.3876981895
  0
VERTEX
  8
0
 62
7
  6
CONTINUOUS
 10
289.8949555877
 20
70.2461729294
  0
VERTEX
  8
0
 62
7
  6
CONTINUOUS
 10
289.950560761
 20
71.3497026843
  0
VERTEX
  8
0
 62
7
  6
CONTINUOUS
 10
290.0142391127
 20
72.6775008681
  0
VERTEX
  8
0
 62
7
  6
CONTINUOUS
 10
290.0851203067
 20
74.2045297637
  0
VERTEX
  8
0
 62
7
  6
CONTINUOUS
 10
290.1621963582
 20
75.9020181307
  0
VERTEX
  8
0
 62
7
  6
CONTINUOUS
 10
290.244314759
 20
77.7378934216
  0
SEQEND
  0
LINE
  8
0
 62
7
  6
CONTINUOUS
 10
289.8479775588
 20
98.9463955728
 11
289.9801851044
 21
100.9815443478
  0
LINE
  8
DEFAULT_2
 62
8
  6
HIDDEN
 10
289.8537948666
 20
124.9330274686
 11
289.9801851044
 21
126.3823588315
  0
POLYLINE
  8
DEFAULT_2
 62
8
  6
HIDDEN
 66
1
 70
0
  0
VERTEX
  8
DEFAULT_2
 62
8
  6
HIDDEN
 10
289.9801851044
 20
126.3823588315
  0
VERTEX
  8
DEFAULT_2
 62
8
  6
HIDDEN
 10
290.0695312546
 20
127.2937140826
  0
VERTEX
  8
DEFAULT_2
 62
8
  6
HIDDEN
 10
290.1580615546
 20
127.9712280622
  0
VERTEX
  8
DEFAULT_2
 62
8
  6
HIDDEN
 10
290.244314759
 20
128.4044766447
  0
SEQEND
  0
LINE
  8
0
 62
7
  6
CONTINUOUS
 10
307.0804453265
 20
275.1735873864
 11
307.0778688853
 21
275.1474490836
  0
POLYLINE
  8
DEFAULT_2
 62
8
  6
HIDDEN
 66
1
 70
0
  0
VERTEX
  8
DEFAULT_2
 62
8
  6
HIDDEN
 10
289.8537948666
 20
124.9330274686
  0
VERTEX
  8
DEFAULT_2
 62
8
  6
HIDDEN
 10
289.8479775588
 20
124.8742369872
  0
VERTEX
  8
DEFAULT_2
 62
8
  6
HIDDEN
 10
289.8365916586
 20
124.8065409753
  0
VERTEX
  8
DEFAULT_2
 62
8
  6
HIDDEN
 10
289.8316919741
 20
124.7990528724
  0
SEQEND
  0
POLYLINE
  8
DEFAULT_2
 62
8
  6
HIDDEN
 66
1
 70
0
  0
VERTEX
  8
DEFAULT_2
 62
8
  6
HIDDEN
 10
281.7633696629
 20
79.2684206483
  0
VERTEX
  8
DEFAULT_2
 62
8
  6
HIDDEN
 10
281.7664188629
 20
79.285975852
  0
VERTEX
  8
DEFAULT_2
 62
8
  6
HIDDEN
 10
281.7682338595
 20
79.3704208666
  0
VERTEX
  8
DEFAULT_2
 62
8
  6
HIDDEN
 10
281.7669636013
 20
79.518926669
  0
VERTEX
  8
DEFAULT_2
 62
8
  6
HIDDEN
 10
281.7277063203
 20
81.244162555
  0
SEQEND
  0
POLYLINE
  8
0
 62
7
  6
CONTINUOUS
 66
1
 70
0
  0
VERTEX
  8
0
 62
7
  6
CONTINUOUS
 10
315.1252598529
 20
264.6694314375
  0
VERTEX
  8
0
 62
7
  6
CONTINUOUS
 10
315.1222114124
 20
264.6518875847
  0
VERTEX
  8
0
 62
7
  6
CONTINUOUS
 10
315.1203956961
 20
264.567447284
  0
VERTEX
  8
0
 62
7
  6
CONTINUOUS
 10
315.1216657896
 20
264.4189334711
  0
VERTEX
  8
0
 62
7
  6
CONTINUOUS
 10
315.1609231977
 20
262.6936895309
  0
SEQEND
  0
POLYLINE
  8
0
 62
7
  6
CONTINUOUS
 66
1
 70
0
  0
VERTEX
  8
0
 62
7
  6
CONTINUOUS
 10
289.8537948666
 20
155.9673665899
  0
VERTEX
  8
0
 62
7
  6
CONTINUOUS
 10
289.8479775588
 20
155.9446387939
  0
VERTEX
  8
0
 62
7
  6
CONTINUOUS
 10
289.8365916586
 20
155.8476004798
  0
VERTEX
  8
0
 62
7
  6
CONTINUOUS
 10
289.8262537607
 20
155.6879198522
  0
VERTEX
  8
0
 62
7
  6
CONTINUOUS
 10
289.8177133861
 20
155.4771766847
  0
VERTEX
  8
0
 62
7
  6
CONTINUOUS
 10
289.8143101552
 20
155.3572624823
  0
VERTEX
  8
0
 62
7
  6
CONTINUOUS
 10
289.8095332982
 20
155.0990742437
  0
VERTEX
  8
0
 62
7
  6
CONTINUOUS
 10
289.8077175819
 20
154.8319170682
  0
VERTEX
  8
0
 62
7
  6
CONTINUOUS
 10
289.8089876754
 20
154.5748522057
  0
VERTEX
  8
0
 62
7
  6
CONTINUOUS
 10
289.8107606327
 20
154.455880196
  0
SEQEND
  0
POLYLINE
  8
0
 62
7
  6
CONTINUOUS
 66
1
 70
0
  0
VERTEX
  8
0
 62
7
  6
CONTINUOUS
 10
289.9801851044
 20
156.2703593501
  0
VERTEX
  8
0
 62
7
  6
CONTINUOUS
 10
290.0695312546
 20
156.6100754351
  0
VERTEX
  8
0
 62
7
  6
CONTINUOUS
 10
290.1580615546
 20
157.1969833891
  0
VERTEX
  8
0
 62
7
  6
CONTINUOUS
 10
290.244314759
 20
158.0220044205
  0
SEQEND
  0
LINE
  8
0
 62
7
  6
CONTINUOUS
 10
289.8537948666
 20
155.9673665899
 11
289.9801851044
 21
156.2703593501
  0
LINE
  8
0
 62
9
  6
CONTINUOUS
 10
315.644314759
 20
167.5811902165
 11
306.644314759
 21
167.5811902165
  0
LINE
  8
0
 62
9
  6
CONTINUOUS
 10
290.244314759
 20
167.5811902165
 11
281.244314759
 21
167.5811902165
  0
LINE
  8
DEFAULT_1
 62
2
  6
CENTER
 10
268.444314759
 20
171.9689260429
 11
328.444314759
 21
171.9689260429
  0
LINE
  8
DEFAULT_2
 62
8
  6
HIDDEN
 10
289.8537948666
 20
187.970485496
 11
289.9801851044
 21
187.6674927358
  0
POLYLINE
  8
DEFAULT_2
 62
8
  6
HIDDEN
 66
1
 70
0
  0
VERTEX
  8
DEFAULT_2
 62
8
  6
HIDDEN
 10
289.9801851044
 20
187.6674927358
  0
VERTEX
  8
DEFAULT_2
 62
8
  6
HIDDEN
 10
290.0695312546
 20
187.3277766508
  0
VERTEX
  8
DEFAULT_2
 62
8
  6
HIDDEN
 10
290.1580615546
 20
186.7408686968
  0
VERTEX
  8
DEFAULT_2
 62
8
  6
HIDDEN
 10
290.244314759
 20
185.9158476654
  0
SEQEND
  0
POLYLINE
  8
DEFAULT_2
 62
8
  6
HIDDEN
 66
1
 70
0
  0
VERTEX
  8
DEFAULT_2
 62
8
  6
HIDDEN
 10
289.8537948666
 20
187.970485496
  0
VERTEX
  8
DEFAULT_2
 62
8
  6
HIDDEN
 10
289.8479775588
 20
187.993213292
  0
VERTEX
  8
DEFAULT_2
 62
8
  6
HIDDEN
 10
289.8365916586
 20
188.090251606
  0
VERTEX
  8
DEFAULT_2
 62
8
  6
HIDDEN
 10
289.8262537607
 20
188.2499322337
  0
VERTEX
  8
DEFAULT_2
 62
8
  6
HIDDEN
 10
289.8177133861
 20
188.4606754012
  0
VERTEX
  8
DEFAULT_2
 62
8
  6
HIDDEN
 10
289.8143101552
 20
188.5805896036
  0
VERTEX
  8
DEFAULT_2
 62
8
  6
HIDDEN
 10
289.8095332982
 20
188.8387778421
  0
VERTEX
  8
DEFAULT_2
 62
8
  6
HIDDEN
 10
289.8077175819
 20
189.1059350177
  0
VERTEX
  8
DEFAULT_2
 62
8
  6
HIDDEN
 10
289.8089876754
 20
189.3629998802
  0
VERTEX
  8
DEFAULT_2
 62
8
  6
HIDDEN
 10
289.8107606327
 20
189.4819718898
  0
SEQEND
  0
POLYLINE
  8
DEFAULT_2
 62
8
  6
HIDDEN
 66
1
 70
0
  0
VERTEX
  8
DEFAULT_2
 62
8
  6
HIDDEN
 10
315.1252598529
 20
79.2684206483
  0
VERTEX
  8
DEFAULT_2
 62
8
  6
HIDDEN
 10
315.1222114124
 20
79.2859645012
  0
VERTEX
  8
DEFAULT_2
 62
8
  6
HIDDEN
 10
315.1203956961
 20
79.3704048018
  0
VERTEX
  8
DEFAULT_2
 62
8
  6
HIDDEN
 10
315.1216657896
 20
79.5189186148
  0
SEQEND
  0
POLYLINE
  8
0
 62
7
  6
CONTINUOUS
 66
1
 70
0
  0
VERTEX
  8
0
 62
7
  6
CONTINUOUS
 10
281.7633696629
 20
264.6694314375
  0
VERTEX
  8
0
 62
7
  6
CONTINUOUS
 10
281.7664188629
 20
264.6518762339
  0
VERTEX
  8
0
 62
7
  6
CONTINUOUS
 10
281.7682338595
 20
264.5674312193
  0
VERTEX
  8
0
 62
7
  6
CONTINUOUS
 10
281.7669636013
 20
264.4189254169
  0
SEQEND
  0
POLYLINE
  8
DEFAULT_2
 62
8
  6
HIDDEN
 66
1
 70
0
  0
VERTEX
  8
DEFAULT_2
 62
8
  6
HIDDEN
 10
307.0348346515
 20
124.9330274686
  0
VERTEX
  8
DEFAULT_2
 62
8
  6
HIDDEN
 10
307.0406546356
 20
124.8742135905
  0
VERTEX
  8
DEFAULT_2
 62
8
  6
HIDDEN
 10
307.0520438247
 20
124.8065232211
  0
VERTEX
  8
DEFAULT_2
 62
8
  6
HIDDEN
 10
307.0569375518
 20
124.7990528724
  0
SEQEND
  0
LINE
  8
0
 62
7
  6
CONTINUOUS
 10
289.8081841918
 20
275.1735873864
 11
289.8107606327
 21
275.1474490836
  0
POLYLINE
  8
DEFAULT_2
 62
8
  6
HIDDEN
 66
1
 70
0
  0
VERTEX
  8
DEFAULT_2
 62
8
  6
HIDDEN
 10
306.9084444137
 20
126.3823588315
  0
VERTEX
  8
DEFAULT_2
 62
8
  6
HIDDEN
 10
306.8190982635
 20
127.2937140826
  0
VERTEX
  8
DEFAULT_2
 62
8
  6
HIDDEN
 10
306.7305679635
 20
127.9712280622
  0
VERTEX
  8
DEFAULT_2
 62
8
  6
HIDDEN
 10
306.644314759
 20
128.4044766447
  0
SEQEND
  0
LINE
  8
DEFAULT_2
 62
8
  6
HIDDEN
 10
307.0348346515
 20
124.9330274686
 11
306.9084444137
 21
126.3823588315
  0
POLYLINE
  8
0
 62
7
  6
CONTINUOUS
 66
1
 70
0
  0
VERTEX
  8
0
 62
7
  6
CONTINUOUS
 10
307.0778688853
 20
68.7904030023
  0
VERTEX
  8
0
 62
7
  6
CONTINUOUS
 10
307.0404728955
 20
69.3876981895
  0
VERTEX
  8
0
 62
7
  6
CONTINUOUS
 10
306.9936739304
 20
70.2461729294
  0
VERTEX
  8
0
 62
7
  6
CONTINUOUS
 10
306.938068757
 20
71.3497026843
  0
VERTEX
  8
0
 62
7
  6
CONTINUOUS
 10
306.8743904054
 20
72.6775008681
  0
VERTEX
  8
0
 62
7
  6
CONTINUOUS
 10
306.8035092114
 20
74.2045297637
  0
VERTEX
  8
0
 62
7
  6
CONTINUOUS
 10
306.7264331599
 20
75.9020181307
  0
VERTEX
  8
0
 62
7
  6
CONTINUOUS
 10
306.644314759
 20
77.7378934216
  0
SEQEND
  0
POLYLINE
  8
0
 62
7
  6
CONTINUOUS
 66
1
 70
0
  0
VERTEX
  8
0
 62
7
  6
CONTINUOUS
 10
306.9084444137
 20
100.9815443478
  0
VERTEX
  8
0
 62
7
  6
CONTINUOUS
 10
306.8190982635
 20
102.442571771
  0
VERTEX
  8
0
 62
7
  6
CONTINUOUS
 10
306.7305679635
 20
104.0697227684
  0
VERTEX
  8
0
 62
7
  6
CONTINUOUS
 10
306.644314759
 20
105.8378834212
  0
SEQEND
  0
POLYLINE
  8
0
 62
7
  6
CONTINUOUS
 66
1
 70
0
  0
VERTEX
  8
0
 62
7
  6
CONTINUOUS
 10
306.9084444137
 20
100.9815443478
  0
VERTEX
  8
0
 62
7
  6
CONTINUOUS
 10
307.0406546356
 20
98.9463487027
  0
VERTEX
  8
0
 62
7
  6
CONTINUOUS
 10
307.0520438247
 20
98.7215564733
  0
VERTEX
  8
0
 62
7
  6
CONTINUOUS
 10
307.0623800911
 20
98.4663137109
  0
VERTEX
  8
0
 62
7
  6
CONTINUOUS
 10
307.0709188306
 20
98.1991734797
  0
VERTEX
  8
0
 62
7
  6
CONTINUOUS
 10
307.0743213222
 20
98.0671138253
  0
VERTEX
  8
0
 62
7
  6
CONTINUOUS
 10
307.0790969771
 20
97.81780048
  0
VERTEX
  8
0
 62
7
  6
CONTINUOUS
 10
307.0809119737
 20
97.6028574138
  0
VERTEX
  8
0
 62
7
  6
CONTINUOUS
 10
307.0796417154
 20
97.4375991714
  0
VERTEX
  8
0
 62
7
  6
CONTINUOUS
 10
307.0778688853
 20
97.3774343149
  0
SEQEND
  0
POLYLINE
  8
DEFAULT_2
 62
8
  6
HIDDEN
 66
1
 70
0
  0
VERTEX
  8
DEFAULT_2
 62
8
  6
HIDDEN
 10
307.0406546356
 20
79.7437788481
  0
VERTEX
  8
DEFAULT_2
 62
8
  6
HIDDEN
 10
307.0520438247
 20
79.5371592405
  0
VERTEX
  8
DEFAULT_2
 62
8
  6
HIDDEN
 10
307.0623800911
 20
79.3825600556
  0
VERTEX
  8
DEFAULT_2
 62
8
  6
HIDDEN
 10
307.0709188306
 20
79.2913061134
  0
VERTEX
  8
DEFAULT_2
 62
8
  6
HIDDEN
 10
307.0743213222
 20
79.271645576
  0
VERTEX
  8
DEFAULT_2
 62
8
  6
HIDDEN
 10
307.0760477771
 20
79.2684206483
  0
SEQEND
  0
POLYLINE
  8
DEFAULT_2
 62
8
  6
HIDDEN
 66
1
 70
0
  0
VERTEX
  8
DEFAULT_2
 62
8
  6
HIDDEN
 10
306.9084444137
 20
82.5097441715
  0
VERTEX
  8
DEFAULT_2
 62
8
  6
HIDDEN
 10
306.8190982635
 20
84.3240640287
  0
VERTEX
  8
DEFAULT_2
 62
8
  6
HIDDEN
 10
306.7305679635
 20
86.0072126295
  0
VERTEX
  8
DEFAULT_2
 62
8
  6
HIDDEN
 10
306.644314759
 20
87.533244593
  0
SEQEND
  0
LINE
  8
DEFAULT_2
 62
8
  6
HIDDEN
 10
307.0406546356
 20
79.7437788481
 11
306.9084444137
 21
82.5097441715
  0
POLYLINE
  8
0
 62
7
  6
CONTINUOUS
 66
1
 70
0
  0
VERTEX
  8
0
 62
7
  6
CONTINUOUS
 10
307.0348346515
 20
69.9721763903
  0
VERTEX
  8
0
 62
7
  6
CONTINUOUS
 10
306.8190982635
 20
74.8317723249
  0
VERTEX
  8
0
 62
7
  6
CONTINUOUS
 10
306.7305679635
 20
76.8776499895
  0
VERTEX
  8
0
 62
7
  6
CONTINUOUS
 10
306.644314759
 20
78.9135729919
  0
SEQEND
  0
LINE
  8
0
 62
7
  6
CONTINUOUS
 10
307.0348346515
 20
69.9721763903
 11
307.0623800911
 21
69.3202922848
  0
POLYLINE
  8
0
 62
7
  6
CONTINUOUS
 66
1
 70
0
  0
VERTEX
  8
0
 62
7
  6
CONTINUOUS
 10
307.0623800911
 20
69.3202922848
  0
VERTEX
  8
0
 62
7
  6
CONTINUOUS
 10
307.0743213222
 20
69.005024269
  0
VERTEX
  8
0
 62
7
  6
CONTINUOUS
 10
307.0790969771
 20
68.8597967454
  0
VERTEX
  8
0
 62
7
  6
CONTINUOUS
 10
307.0809119737
 20
68.779144514
  0
VERTEX
  8
0
 62
7
  6
CONTINUOUS
 10
307.0804453265
 20
68.7642646994
  0
SEQEND
  0
POLYLINE
  8
DEFAULT_2
 62
8
  6
HIDDEN
 66
1
 70
0
  0
VERTEX
  8
DEFAULT_2
 62
8
  6
HIDDEN
 10
307.0404728955
 20
81.2405813459
  0
VERTEX
  8
DEFAULT_2
 62
8
  6
HIDDEN
 10
306.9936739304
 20
83.0194858166
  0
VERTEX
  8
DEFAULT_2
 62
8
  6
HIDDEN
 10
306.938068757
 20
84.9172789155
  0
VERTEX
  8
DEFAULT_2
 62
8
  6
HIDDEN
 10
306.8743904054
 20
86.8981199367
  0
VERTEX
  8
DEFAULT_2
 62
8
  6
HIDDEN
 10
306.8035092114
 20
88.9245765747
  0
VERTEX
  8
DEFAULT_2
 62
8
  6
HIDDEN
 10
306.7264331599
 20
90.9583870325
  0
VERTEX
  8
DEFAULT_2
 62
8
  6
HIDDEN
 10
306.644314759
 20
92.9610460308
  0
SEQEND
  0
POLYLINE
  8
DEFAULT_2
 62
8
  6
HIDDEN
 66
1
 70
0
  0
VERTEX
  8
DEFAULT_2
 62
8
  6
HIDDEN
 10
307.0778688853
 20
125.7141377417
  0
VERTEX
  8
DEFAULT_2
 62
8
  6
HIDDEN
 10
307.0404728955
 20
127.7486084336
  0
VERTEX
  8
DEFAULT_2
 62
8
  6
HIDDEN
 10
306.9936739304
 20
129.7684615899
  0
VERTEX
  8
DEFAULT_2
 62
8
  6
HIDDEN
 10
306.938068757
 20
131.7356255728
  0
VERTEX
  8
DEFAULT_2
 62
8
  6
HIDDEN
 10
306.8743904054
 20
133.6128954876
  0
VERTEX
  8
DEFAULT_2
 62
8
  6
HIDDEN
 10
306.8035092114
 20
135.3647423089
  0
VERTEX
  8
DEFAULT_2
 62
8
  6
HIDDEN
 10
306.7264331599
 20
136.9580283894
  0
VERTEX
  8
DEFAULT_2
 62
8
  6
HIDDEN
 10
306.644314759
 20
138.3625234256
  0
SEQEND
  0
POLYLINE
  8
0
 62
7
  6
CONTINUOUS
 66
1
 70
0
  0
VERTEX
  8
0
 62
7
  6
CONTINUOUS
 10
307.0778688853
 20
218.2237143442
  0
VERTEX
  8
0
 62
7
  6
CONTINUOUS
 10
307.0404728955
 20
216.1892436523
  0
VERTEX
  8
0
 62
7
  6
CONTINUOUS
 10
306.9936739304
 20
214.169390496
  0
VERTEX
  8
0
 62
7
  6
CONTINUOUS
 10
306.938068757
 20
212.2022265131
  0
VERTEX
  8
0
 62
7
  6
CONTINUOUS
 10
306.8743904054
 20
210.3249565983
  0
VERTEX
  8
0
 62
7
  6
CONTINUOUS
 10
306.8035092114
 20
208.573109777
  0
VERTEX
  8
0
 62
7
  6
CONTINUOUS
 10
306.7264331599
 20
206.9798236965
  0
VERTEX
  8
0
 62
7
  6
CONTINUOUS
 10
306.644314759
 20
205.5753286603
  0
SEQEND
  0
POLYLINE
  8
DEFAULT_2
 62
8
  6
HIDDEN
 66
1
 70
0
  0
VERTEX
  8
DEFAULT_2
 62
8
  6
HIDDEN
 10
307.0790969771
 20
275.0780553405
  0
VERTEX
  8
DEFAULT_2
 62
8
  6
HIDDEN
 10
307.0809119737
 20
275.1587075719
  0
VERTEX
  8
DEFAULT_2
 62
8
  6
HIDDEN
 10
307.0804453265
 20
275.1735873864
  0
SEQEND
  0
POLYLINE
  8
0
 62
7
  6
CONTINUOUS
 66
1
 70
0
  0
VERTEX
  8
0
 62
7
  6
CONTINUOUS
 10
307.0796417154
 20
264.4189254169
  0
VERTEX
  8
0
 62
7
  6
CONTINUOUS
 10
307.0404728955
 20
262.69727074
  0
VERTEX
  8
0
 62
7
  6
CONTINUOUS
 10
306.9936739304
 20
260.9183662693
  0
VERTEX
  8
0
 62
7
  6
CONTINUOUS
 10
306.938068757
 20
259.0205731703
  0
VERTEX
  8
0
 62
7
  6
CONTINUOUS
 10
306.8743904054
 20
257.0397321492
  0
VERTEX
  8
0
 62
7
  6
CONTINUOUS
 10
306.8035092114
 20
255.0132755112
  0
VERTEX
  8
0
 62
7
  6
CONTINUOUS
 10
306.7264331599
 20
252.9794650534
  0
VERTEX
  8
0
 62
7
  6
CONTINUOUS
 10
306.644314759
 20
250.9768060551
  0
SEQEND
  0
LINE
  8
DEFAULT_2
 62
8
  6
HIDDEN
 10
307.0709188306
 20
274.8390595816
 11
307.0790969771
 21
275.0780553405
  0
LINE
  8
DEFAULT_2
 62
8
  6
HIDDEN
 10
307.0520438247
 20
274.3642635476
 11
307.0709188306
 21
274.8390595816
  0
POLYLINE
  8
DEFAULT_2
 62
8
  6
HIDDEN
 66
1
 70
0
  0
VERTEX
  8
DEFAULT_2
 62
8
  6
HIDDEN
 10
306.8190982635
 20
269.106079761
  0
VERTEX
  8
DEFAULT_2
 62
8
  6
HIDDEN
 10
306.7305679635
 20
267.0602020964
  0
VERTEX
  8
DEFAULT_2
 62
8
  6
HIDDEN
 10
306.644314759
 20
265.0242790939
  0
SEQEND
  0
LINE
  8
DEFAULT_2
 62
8
  6
HIDDEN
 10
307.0520438247
 20
274.3642635476
 11
306.8190982635
 21
269.106079761
  0
POLYLINE
  8
0
 62
7
  6
CONTINUOUS
 66
1
 70
0
  0
VERTEX
  8
0
 62
7
  6
CONTINUOUS
 10
306.9084444137
 20
261.4281079144
  0
VERTEX
  8
0
 62
7
  6
CONTINUOUS
 10
306.8190982635
 20
259.6137880572
  0
VERTEX
  8
0
 62
7
  6
CONTINUOUS
 10
306.7305679635
 20
257.9306394564
  0
VERTEX
  8
0
 62
7
  6
CONTINUOUS
 10
306.644314759
 20
256.4046074929
  0
SEQEND
  0
POLYLINE
  8
0
 62
7
  6
CONTINUOUS
 66
1
 70
0
  0
VERTEX
  8
0
 62
7
  6
CONTINUOUS
 10
306.9084444137
 20
261.4281079144
  0
VERTEX
  8
0
 62
7
  6
CONTINUOUS
 10
307.0406546356
 20
264.1940732378
  0
VERTEX
  8
0
 62
7
  6
CONTINUOUS
 10
307.0520438247
 20
264.4006928454
  0
VERTEX
  8
0
 62
7
  6
CONTINUOUS
 10
307.0623800911
 20
264.5552920303
  0
VERTEX
  8
0
 62
7
  6
CONTINUOUS
 10
307.0709188306
 20
264.6465459725
  0
VERTEX
  8
0
 62
7
  6
CONTINUOUS
 10
307.0743213222
 20
264.6662065098
  0
VERTEX
  8
0
 62
7
  6
CONTINUOUS
 10
307.0760477771
 20
264.6694314375
  0
SEQEND
  0
POLYLINE
  8
DEFAULT_2
 62
8
  6
HIDDEN
 66
1
 70
0
  0
VERTEX
  8
DEFAULT_2
 62
8
  6
HIDDEN
 10
307.0406546356
 20
244.9915033832
  0
VERTEX
  8
DEFAULT_2
 62
8
  6
HIDDEN
 10
307.0520438247
 20
245.2162956126
  0
VERTEX
  8
DEFAULT_2
 62
8
  6
HIDDEN
 10
307.0623800911
 20
245.471538375
  0
VERTEX
  8
DEFAULT_2
 62
8
  6
HIDDEN
 10
307.0709188306
 20
245.7386786062
  0
VERTEX
  8
DEFAULT_2
 62
8
  6
HIDDEN
 10
307.0743213222
 20
245.8707382606
  0
VERTEX
  8
DEFAULT_2
 62
8
  6
HIDDEN
 10
307.0790969771
 20
246.1200516059
  0
VERTEX
  8
DEFAULT_2
 62
8
  6
HIDDEN
 10
307.0809119737
 20
246.334994672
  0
VERTEX
  8
DEFAULT_2
 62
8
  6
HIDDEN
 10
307.0796417154
 20
246.5002529144
  0
VERTEX
  8
DEFAULT_2
 62
8
  6
HIDDEN
 10
307.0778688853
 20
246.560417771
  0
SEQEND
  0
POLYLINE
  8
DEFAULT_2
 62
8
  6
HIDDEN
 66
1
 70
0
  0
VERTEX
  8
DEFAULT_2
 62
8
  6
HIDDEN
 10
306.9084444137
 20
242.9563077381
  0
VERTEX
  8
DEFAULT_2
 62
8
  6
HIDDEN
 10
306.8190982635
 20
241.4952803149
  0
VERTEX
  8
DEFAULT_2
 62
8
  6
HIDDEN
 10
306.7305679635
 20
239.8681293175
  0
VERTEX
  8
DEFAULT_2
 62
8
  6
HIDDEN
 10
306.644314759
 20
238.0999686647
  0
SEQEND
  0
POLYLINE
  8
0
 62
7
  6
CONTINUOUS
 66
1
 70
0
  0
VERTEX
  8
0
 62
7
  6
CONTINUOUS
 10
307.0778688853
 20
275.1474490836
  0
VERTEX
  8
0
 62
7
  6
CONTINUOUS
 10
307.0404728955
 20
274.5501538963
  0
VERTEX
  8
0
 62
7
  6
CONTINUOUS
 10
306.9936739304
 20
273.6916791565
  0
VERTEX
  8
0
 62
7
  6
CONTINUOUS
 10
306.938068757
 20
272.5881494016
  0
VERTEX
  8
0
 62
7
  6
CONTINUOUS
 10
306.8743904054
 20
271.2603512178
  0
VERTEX
  8
0
 62
7
  6
CONTINUOUS
 10
306.8035092114
 20
269.7333223221
  0
VERTEX
  8
0
 62
7
  6
CONTINUOUS
 10
306.7264331599
 20
268.0358339552
  0
VERTEX
  8
0
 62
7
  6
CONTINUOUS
 10
306.644314759
 20
266.1999586643
  0
SEQEND
  0
LINE
  8
DEFAULT_2
 62
8
  6
HIDDEN
 10
307.0406546356
 20
244.9915033832
 11
306.9084444137
 21
242.9563077381
  0
LINE
  8
0
 62
7
  6
CONTINUOUS
 10
307.0348346515
 20
219.0048246172
 11
306.9084444137
 21
217.5554932544
  0
POLYLINE
  8
0
 62
7
  6
CONTINUOUS
 66
1
 70
0
  0
VERTEX
  8
0
 62
7
  6
CONTINUOUS
 10
306.9084444137
 20
217.5554932544
  0
VERTEX
  8
0
 62
7
  6
CONTINUOUS
 10
306.8190982635
 20
216.6441380032
  0
VERTEX
  8
0
 62
7
  6
CONTINUOUS
 10
306.7305679635
 20
215.9666240237
  0
VERTEX
  8
0
 62
7
  6
CONTINUOUS
 10
306.644314759
 20
215.5333754412
  0
SEQEND
  0
LINE
  8
0
 62
7
  6
CONTINUOUS
 10
289.8081841918
 20
68.7642646994
 11
289.8107606327
 21
68.7904030023
  0
POLYLINE
  8
0
 62
7
  6
CONTINUOUS
 66
1
 70
0
  0
VERTEX
  8
0
 62
7
  6
CONTINUOUS
 10
307.0348346515
 20
219.0048246172
  0
VERTEX
  8
0
 62
7
  6
CONTINUOUS
 10
307.0406546356
 20
219.0636384954
  0
VERTEX
  8
0
 62
7
  6
CONTINUOUS
 10
307.0520438247
 20
219.1313288648
  0
VERTEX
  8
0
 62
7
  6
CONTINUOUS
 10
307.0569375518
 20
219.1387992135
  0
SEQEND
  0
POLYLINE
  8
DEFAULT_2
 62
8
  6
HIDDEN
 66
1
 70
0
  0
VERTEX
  8
DEFAULT_2
 62
8
  6
HIDDEN
 10
307.0348346515
 20
187.970485496
  0
VERTEX
  8
DEFAULT_2
 62
8
  6
HIDDEN
 10
307.0406546356
 20
187.9932277993
  0
VERTEX
  8
DEFAULT_2
 62
8
  6
HIDDEN
 10
307.0520438247
 20
188.0903220885
  0
VERTEX
  8
DEFAULT_2
 62
8
  6
HIDDEN
 10
307.0623800911
 20
188.2500173
  0
VERTEX
  8
DEFAULT_2
 62
8
  6
HIDDEN
 10
307.0709188306
 20
188.4607594933
  0
VERTEX
  8
DEFAULT_2
 62
8
  6
HIDDEN
 10
307.0743213222
 20
188.5806682674
  0
VERTEX
  8
DEFAULT_2
 62
8
  6
HIDDEN
 10
307.0790969771
 20
188.8388382102
  0
VERTEX
  8
DEFAULT_2
 62
8
  6
HIDDEN
 10
307.0809119737
 20
189.1059711656
  0
VERTEX
  8
DEFAULT_2
 62
8
  6
HIDDEN
 10
307.0796417154
 20
189.3630110414
  0
VERTEX
  8
DEFAULT_2
 62
8
  6
HIDDEN
 10
307.0778688853
 20
189.4819718898
  0
SEQEND
  0
POLYLINE
  8
DEFAULT_2
 62
8
  6
HIDDEN
 66
1
 70
0
  0
VERTEX
  8
DEFAULT_2
 62
8
  6
HIDDEN
 10
306.9084444137
 20
187.6674927358
  0
VERTEX
  8
DEFAULT_2
 62
8
  6
HIDDEN
 10
306.8190982635
 20
187.3277766508
  0
VERTEX
  8
DEFAULT_2
 62
8
  6
HIDDEN
 10
306.7305679635
 20
186.7408686968
  0
VERTEX
  8
DEFAULT_2
 62
8
  6
HIDDEN
 10
306.644314759
 20
185.9158476654
  0
SEQEND
  0
LINE
  8
DEFAULT_2
 62
8
  6
HIDDEN
 10
307.0348346515
 20
187.970485496
 11
306.9084444137
 21
187.6674927358
  0
POLYLINE
  8
DEFAULT_2
 62
8
  6
HIDDEN
 66
1
 70
0
  0
VERTEX
  8
DEFAULT_2
 62
8
  6
HIDDEN
 10
281.7442594376
 20
124.7990528724
  0
VERTEX
  8
DEFAULT_2
 62
8
  6
HIDDEN
 10
281.7497019769
 20
124.8096727387
  0
VERTEX
  8
DEFAULT_2
 62
8
  6
HIDDEN
 10
281.7582407164
 20
124.8835205392
  0
VERTEX
  8
DEFAULT_2
 62
8
  6
HIDDEN
 10
281.761643208
 20
124.9454773568
  0
VERTEX
  8
DEFAULT_2
 62
8
  6
HIDDEN
 10
281.7664188629
 20
125.1138917539
  0
VERTEX
  8
DEFAULT_2
 62
8
  6
HIDDEN
 10
281.7682338595
 20
125.331178889
  0
VERTEX
  8
DEFAULT_2
 62
8
  6
HIDDEN
 10
281.7669636013
 20
125.5818199022
  0
VERTEX
  8
DEFAULT_2
 62
8
  6
HIDDEN
 10
281.7651907712
 20
125.7141377417
  0
SEQEND
  0
LINE
  8
DEFAULT_2
 62
8
  6
HIDDEN
 10
315.644314759
 20
176.3566618694
 11
306.644314759
 21
176.3566618694
  0
LINE
  8
DEFAULT_2
 62
8
  6
HIDDEN
 10
290.244314759
 20
176.3566618694
 11
281.244314759
 21
176.3566618694
  0
LINE
  8
DEFAULT_2
 62
8
  6
HIDDEN
 10
273.444314759
 20
177.9467674367
 11
323.444314759
 21
177.9467674367
  0
LINE
  8
DEFAULT_2
 62
8
  6
HIDDEN
 10
323.444314759
 20
177.9497807353
 11
273.444314759
 21
177.9497807353
  0
LINE
  8
DEFAULT_2
 62
8
  6
HIDDEN
 10
273.444314759
 20
177.9689260429
 11
323.444314759
 21
177.9689260429
  0
LINE
  8
DEFAULT_2
 62
8
  6
HIDDEN
 10
323.444314759
 20
178.2233599286
 11
273.444314759
 21
178.2233599286
  0
POLYLINE
  8
0
 62
7
  6
CONTINUOUS
 66
1
 70
0
  0
VERTEX
  8
0
 62
7
  6
CONTINUOUS
 10
281.7442594376
 20
219.1387992135
  0
VERTEX
  8
0
 62
7
  6
CONTINUOUS
 10
281.7497019769
 20
219.1281793472
  0
VERTEX
  8
0
 62
7
  6
CONTINUOUS
 10
281.7582407164
 20
219.0543315467
  0
VERTEX
  8
0
 62
7
  6
CONTINUOUS
 10
281.761643208
 20
218.9923747291
  0
VERTEX
  8
0
 62
7
  6
CONTINUOUS
 10
281.7664188629
 20
218.8239603319
  0
VERTEX
  8
0
 62
7
  6
CONTINUOUS
 10
281.7682338595
 20
218.6066731968
  0
VERTEX
  8
0
 62
7
  6
CONTINUOUS
 10
281.7669636013
 20
218.3560321837
  0
VERTEX
  8
0
 62
7
  6
CONTINUOUS
 10
281.7651907712
 20
218.2237143442
  0
SEQEND
  0
LINE
  8
0
 62
7
  6
CONTINUOUS
 10
307.0348346515
 20
155.9673665899
 11
306.9084444137
 21
156.2703593501
  0
POLYLINE
  8
0
 62
7
  6
CONTINUOUS
 66
1
 70
0
  0
VERTEX
  8
0
 62
7
  6
CONTINUOUS
 10
306.9084444137
 20
156.2703593501
  0
VERTEX
  8
0
 62
7
  6
CONTINUOUS
 10
306.8190982635
 20
156.6100754351
  0
VERTEX
  8
0
 62
7
  6
CONTINUOUS
 10
306.7305679635
 20
157.1969833891
  0
VERTEX
  8
0
 62
7
  6
CONTINUOUS
 10
306.644314759
 20
158.0220044205
  0
SEQEND
  0
POLYLINE
  8
0
 62
7
  6
CONTINUOUS
 66
1
 70
0
  0
VERTEX
  8
0
 62
7
  6
CONTINUOUS
 10
307.0348346515
 20
155.9673665899
  0
VERTEX
  8
0
 62
7
  6
CONTINUOUS
 10
307.0406546356
 20
155.9446242866
  0
VERTEX
  8
0
 62
7
  6
CONTINUOUS
 10
307.0520438247
 20
155.8475299974
  0
VERTEX
  8
0
 62
7
  6
CONTINUOUS
 10
307.0623800911
 20
155.6878347859
  0
VERTEX
  8
0
 62
7
  6
CONTINUOUS
 10
307.0709188306
 20
155.4770925925
  0
VERTEX
  8
0
 62
7
  6
CONTINUOUS
 10
307.0743213222
 20
155.3571838185
  0
VERTEX
  8
0
 62
7
  6
CONTINUOUS
 10
307.0790969771
 20
155.0990138756
  0
VERTEX
  8
0
 62
7
  6
CONTINUOUS
 10
307.0809119737
 20
154.8318809203
  0
VERTEX
  8
0
 62
7
  6
CONTINUOUS
 10
307.0796417154
 20
154.5748410444
  0
VERTEX
  8
0
 62
7
  6
CONTINUOUS
 10
307.0778688853
 20
154.455880196
  0
SEQEND
  0
POLYLINE
  8
0
 62
7
  6
CONTINUOUS
 66
1
 70
0
  0
VERTEX
  8
0
 62
7
  6
CONTINUOUS
 10
315.1234387469
 20
97.3774343149
  0
VERTEX
  8
0
 62
7
  6
CONTINUOUS
 10
315.1609231977
 20
96.7162540132
  0
VERTEX
  8
0
 62
7
  6
CONTINUOUS
 10
315.2078496329
 20
96.3264372818
  0
VERTEX
  8
0
 62
7
  6
CONTINUOUS
 10
315.2573639191
 20
96.2138769657
  0
SEQEND
  0
POLYLINE
  8
DEFAULT_2
 62
8
  6
HIDDEN
 66
1
 70
0
  0
VERTEX
  8
DEFAULT_2
 62
8
  6
HIDDEN
 10
307.0778688853
 20
246.560417771
  0
VERTEX
  8
DEFAULT_2
 62
8
  6
HIDDEN
 10
307.0404728955
 20
247.2204946204
  0
VERTEX
  8
DEFAULT_2
 62
8
  6
HIDDEN
 10
306.9936739304
 20
247.6103577835
  0
VERTEX
  8
DEFAULT_2
 62
8
  6
HIDDEN
 10
306.9439437433
 20
247.7239751201
  0
SEQEND
  0
POLYLINE
  8
DEFAULT_2
 62
8
  6
HIDDEN
 66
1
 70
0
  0
VERTEX
  8
DEFAULT_2
 62
8
  6
HIDDEN
 10
307.0778688853
 20
189.4819718898
  0
VERTEX
  8
DEFAULT_2
 62
8
  6
HIDDEN
 10
307.0404728955
 20
191.1472938547
  0
VERTEX
  8
DEFAULT_2
 62
8
  6
HIDDEN
 10
306.9936739304
 20
192.6365804433
  0
VERTEX
  8
DEFAULT_2
 62
8
  6
HIDDEN
 10
306.938068757
 20
193.92172553
  0
VERTEX
  8
DEFAULT_2
 62
8
  6
HIDDEN
 10
306.8743904054
 20
194.9783710371
  0
VERTEX
  8
DEFAULT_2
 62
8
  6
HIDDEN
 10
306.8035092114
 20
195.7864620991
  0
VERTEX
  8
DEFAULT_2
 62
8
  6
HIDDEN
 10
306.7264331599
 20
196.3306426732
  0
VERTEX
  8
DEFAULT_2
 62
8
  6
HIDDEN
 10
306.644314759
 20
196.6005043805
  0
SEQEND
  0
LINE
  8
0
 62
7
  6
CONTINUOUS
 10
306.644314759
 20
77.7378934216
 11
306.644314759
 21
266.1999586643
  0
POLYLINE
  8
0
 62
7
  6
CONTINUOUS
 66
1
 70
0
  0
VERTEX
  8
0
 62
7
  6
CONTINUOUS
 10
307.0778688853
 20
154.455880196
  0
VERTEX
  8
0
 62
7
  6
CONTINUOUS
 10
307.0404728955
 20
152.7905582312
  0
VERTEX
  8
0
 62
7
  6
CONTINUOUS
 10
306.9936739304
 20
151.3012716426
  0
VERTEX
  8
0
 62
7
  6
CONTINUOUS
 10
306.938068757
 20
150.0161265558
  0
VERTEX
  8
0
 62
7
  6
CONTINUOUS
 10
306.8743904054
 20
148.9594810488
  0
VERTEX
  8
0
 62
7
  6
CONTINUOUS
 10
306.8035092114
 20
148.1513899868
  0
VERTEX
  8
0
 62
7
  6
CONTINUOUS
 10
306.7264331599
 20
147.6072094126
  0
VERTEX
  8
0
 62
7
  6
CONTINUOUS
 10
306.644314759
 20
147.3373477053
  0
SEQEND
  0
POLYLINE
  8
0
 62
7
  6
CONTINUOUS
 66
1
 70
0
  0
VERTEX
  8
0
 62
7
  6
CONTINUOUS
 10
307.0778688853
 20
97.3774343149
  0
VERTEX
  8
0
 62
7
  6
CONTINUOUS
 10
307.0404728955
 20
96.7173574655
  0
VERTEX
  8
0
 62
7
  6
CONTINUOUS
 10
306.9936739304
 20
96.3274943024
  0
VERTEX
  8
0
 62
7
  6
CONTINUOUS
 10
306.9439437433
 20
96.2138769657
  0
SEQEND
  0
POLYLINE
  8
DEFAULT_2
 62
8
  6
HIDDEN
 66
1
 70
0
  0
VERTEX
  8
DEFAULT_2
 62
8
  6
HIDDEN
 10
315.1234387469
 20
246.560417771
  0
VERTEX
  8
DEFAULT_2
 62
8
  6
HIDDEN
 10
315.1609231977
 20
247.2215980727
  0
VERTEX
  8
DEFAULT_2
 62
8
  6
HIDDEN
 10
315.2078496329
 20
247.6114148041
  0
VERTEX
  8
DEFAULT_2
 62
8
  6
HIDDEN
 10
315.2573639191
 20
247.7239751201
  0
SEQEND
  0
LINE
  8
DEFAULT_2
 62
8
  6
HIDDEN
 10
315.2928632186
 20
187.6674927358
 11
306.9084444137
 21
187.6674927358
  0
LINE
  8
DEFAULT_2
 62
8
  6
HIDDEN
 10
289.9801851044
 20
187.6674927358
 11
281.5957662995
 21
187.6674927358
  0
POLYLINE
  8
0
 62
7
  6
CONTINUOUS
 66
1
 70
0
  0
VERTEX
  8
0
 62
7
  6
CONTINUOUS
 10
315.1664729808
 20
219.0048246172
  0
VERTEX
  8
0
 62
7
  6
CONTINUOUS
 10
315.160655673
 20
219.0636150986
  0
VERTEX
  8
0
 62
7
  6
CONTINUOUS
 10
315.1492697728
 20
219.1313111106
  0
VERTEX
  8
0
 62
7
  6
CONTINUOUS
 10
315.1443700882
 20
219.1387992135
  0
SEQEND
  0
POLYLINE
  8
0
 62
7
  6
CONTINUOUS
 66
1
 70
0
  0
VERTEX
  8
0
 62
7
  6
CONTINUOUS
 10
315.2928632186
 20
217.5554932544
  0
VERTEX
  8
0
 62
7
  6
CONTINUOUS
 10
315.3835659298
 20
216.6320480486
  0
VERTEX
  8
0
 62
7
  6
CONTINUOUS
 10
315.4734053465
 20
215.9497947506
  0
VERTEX
  8
0
 62
7
  6
CONTINUOUS
 10
315.5608512686
 20
215.5195510229
  0
VERTEX
  8
0
 62
7
  6
CONTINUOUS
 10
315.644314759
 20
215.3480971114
  0
SEQEND
  0
LINE
  8
0
 62
7
  6
CONTINUOUS
 10
315.2928632186
 20
217.5554932544
 11
315.1664729808
 21
219.0048246172
  0
POLYLINE
  8
DEFAULT_2
 62
8
  6
HIDDEN
 66
1
 70
0
  0
VERTEX
  8
DEFAULT_2
 62
8
  6
HIDDEN
 10
315.2928632186
 20
242.9563077381
  0
VERTEX
  8
DEFAULT_2
 62
8
  6
HIDDEN
 10
315.3835659298
 20
241.4717098981
  0
VERTEX
  8
DEFAULT_2
 62
8
  6
HIDDEN
 10
315.4734053465
 20
239.8162743782
  0
VERTEX
  8
DEFAULT_2
 62
8
  6
HIDDEN
 10
315.5608512686
 20
238.0163275529
  0
VERTEX
  8
DEFAULT_2
 62
8
  6
HIDDEN
 10
315.644314759
 20
236.1005163204
  0
SEQEND
  0
POLYLINE
  8
DEFAULT_2
 62
8
  6
HIDDEN
 66
1
 70
0
  0
VERTEX
  8
DEFAULT_2
 62
8
  6
HIDDEN
 10
315.2928632186
 20
242.9563077381
  0
VERTEX
  8
DEFAULT_2
 62
8
  6
HIDDEN
 10
315.160655673
 20
244.9914565131
  0
VERTEX
  8
DEFAULT_2
 62
8
  6
HIDDEN
 10
315.1492697728
 20
245.2161638154
  0
VERTEX
  8
DEFAULT_2
 62
8
  6
HIDDEN
 10
315.1389318749
 20
245.4714184141
  0
VERTEX
  8
DEFAULT_2
 62
8
  6
HIDDEN
 10
315.1303915003
 20
245.7385817091
  0
VERTEX
  8
DEFAULT_2
 62
8
  6
HIDDEN
 10
315.1269882694
 20
245.8706553686
  0
VERTEX
  8
DEFAULT_2
 62
8
  6
HIDDEN
 10
315.1222114124
 20
246.119998253
  0
VERTEX
  8
DEFAULT_2
 62
8
  6
HIDDEN
 10
315.1203956961
 20
246.3349684527
  0
VERTEX
  8
DEFAULT_2
 62
8
  6
HIDDEN
 10
315.1216657896
 20
246.500246731
  0
VERTEX
  8
DEFAULT_2
 62
8
  6
HIDDEN
 10
315.1234387469
 20
246.560417771
  0
SEQEND
  0
POLYLINE
  8
0
 62
7
  6
CONTINUOUS
 66
1
 70
0
  0
VERTEX
  8
0
 62
7
  6
CONTINUOUS
 10
315.160655673
 20
264.1940208737
  0
VERTEX
  8
0
 62
7
  6
CONTINUOUS
 10
315.1492697728
 20
264.400593636
  0
VERTEX
  8
0
 62
7
  6
CONTINUOUS
 10
315.1389318749
 20
264.5552355695
  0
VERTEX
  8
0
 62
7
  6
CONTINUOUS
 10
315.1303915003
 20
264.6465252535
  0
VERTEX
  8
0
 62
7
  6
CONTINUOUS
 10
315.1269882694
 20
264.6661996684
  0
VERTEX
  8
0
 62
7
  6
CONTINUOUS
 10
315.1252598529
 20
264.6694314375
  0
SEQEND
  0
POLYLINE
  8
0
 62
7
  6
CONTINUOUS
 66
1
 70
0
  0
VERTEX
  8
0
 62
7
  6
CONTINUOUS
 10
315.2928632186
 20
261.4281079144
  0
VERTEX
  8
0
 62
7
  6
CONTINUOUS
 10
315.3835659298
 20
259.5871307838
  0
VERTEX
  8
0
 62
7
  6
CONTINUOUS
 10
315.4734053465
 20
257.8817620684
  0
VERTEX
  8
0
 62
7
  6
CONTINUOUS
 10
315.5608512686
 20
256.3390900246
  0
VERTEX
  8
0
 62
7
  6
CONTINUOUS
 10
315.644314759
 20
254.9835996554
  0
SEQEND
  0
LINE
  8
0
 62
7
  6
CONTINUOUS
 10
315.2928632186
 20
261.4281079144
 11
315.160655673
 21
264.1940208737
  0
LINE
  8
0
 62
7
  6
CONTINUOUS
 10
315.4758761268
 20
268.0135865917
 11
315.644314759
 21
264.227387811
  0
POLYLINE
  8
DEFAULT_2
 62
8
  6
HIDDEN
 66
1
 70
0
  0
VERTEX
  8
DEFAULT_2
 62
8
  6
HIDDEN
 10
315.3835659298
 20
269.0750373412
  0
VERTEX
  8
DEFAULT_2
 62
8
  6
HIDDEN
 10
315.4734053465
 20
266.9979460943
  0
VERTEX
  8
DEFAULT_2
 62
8
  6
HIDDEN
 10
315.5608512686
 20
264.9320940218
  0
VERTEX
  8
DEFAULT_2
 62
8
  6
HIDDEN
 10
315.644314759
 20
262.9103184445
  0
SEQEND
  0
LINE
  8
DEFAULT_2
 62
8
  6
HIDDEN
 10
315.3835659298
 20
269.0750373412
 11
315.1389318749
 21
274.6174507665
  0
POLYLINE
  8
DEFAULT_2
 62
8
  6
HIDDEN
 66
1
 70
0
  0
VERTEX
  8
DEFAULT_2
 62
8
  6
HIDDEN
 10
315.1389318749
 20
274.6174507665
  0
VERTEX
  8
DEFAULT_2
 62
8
  6
HIDDEN
 10
315.1269882694
 20
274.9327723586
  0
VERTEX
  8
DEFAULT_2
 62
8
  6
HIDDEN
 10
315.1222114124
 20
275.0780293818
  0
VERTEX
  8
DEFAULT_2
 62
8
  6
HIDDEN
 10
315.1203956961
 20
275.1587012959
  0
VERTEX
  8
DEFAULT_2
 62
8
  6
HIDDEN
 10
315.120862306
 20
275.1735873864
  0
SEQEND
  0
POLYLINE
  8
0
 62
7
  6
CONTINUOUS
 66
1
 70
0
  0
VERTEX
  8
0
 62
7
  6
CONTINUOUS
 10
315.1609231977
 20
262.6936895309
  0
VERTEX
  8
0
 62
7
  6
CONTINUOUS
 10
315.2078496329
 20
260.9106075914
  0
VERTEX
  8
0
 62
7
  6
CONTINUOUS
 10
315.2636152724
 20
259.0083265144
  0
VERTEX
  8
0
 62
7
  6
CONTINUOUS
 10
315.3274809818
 20
257.0229349859
  0
VERTEX
  8
0
 62
7
  6
CONTINUOUS
 10
315.3985757388
 20
254.9919376299
  0
VERTEX
  8
0
 62
7
  6
CONTINUOUS
 10
315.4758761268
 20
252.9540647174
  0
VERTEX
  8
0
 62
7
  6
CONTINUOUS
 10
315.558223777
 20
250.9479669125
  0
VERTEX
  8
0
 62
7
  6
CONTINUOUS
 10
315.644314759
 20
249.0117795567
  0
SEQEND
  0
POLYLINE
  8
0
 62
7
  6
CONTINUOUS
 66
1
 70
0
  0
VERTEX
  8
0
 62
7
  6
CONTINUOUS
 10
315.1234387469
 20
154.455880196
  0
VERTEX
  8
0
 62
7
  6
CONTINUOUS
 10
315.1609231977
 20
152.78724147
  0
VERTEX
  8
0
 62
7
  6
CONTINUOUS
 10
315.2078496329
 20
151.2954194953
  0
VERTEX
  8
0
 62
7
  6
CONTINUOUS
 10
315.2636152724
 20
150.008737867
  0
VERTEX
  8
0
 62
7
  6
CONTINUOUS
 10
315.3274809818
 20
148.9516740488
  0
VERTEX
  8
0
 62
7
  6
CONTINUOUS
 10
315.3985757388
 20
148.1442978568
  0
VERTEX
  8
0
 62
7
  6
CONTINUOUS
 10
315.4758761268
 20
147.6021077961
  0
VERTEX
  8
0
 62
7
  6
CONTINUOUS
 10
315.558223777
 20
147.3354705335
  0
VERTEX
  8
0
 62
7
  6
CONTINUOUS
 10
315.5965859445
 20
147.3069547731
  0
SEQEND
  0
POLYLINE
  8
0
 62
7
  6
CONTINUOUS
 66
1
 70
0
  0
VERTEX
  8
0
 62
7
  6
CONTINUOUS
 10
315.1234387469
 20
218.2237143442
  0
VERTEX
  8
0
 62
7
  6
CONTINUOUS
 10
315.1609231977
 20
216.1849804722
  0
VERTEX
  8
0
 62
7
  6
CONTINUOUS
 10
315.2078496329
 20
214.1609785433
  0
VERTEX
  8
0
 62
7
  6
CONTINUOUS
 10
315.2636152724
 20
212.1900912027
  0
VERTEX
  8
0
 62
7
  6
CONTINUOUS
 10
315.3274809818
 20
210.3097503891
  0
VERTEX
  8
0
 62
7
  6
CONTINUOUS
 10
315.3985757388
 20
208.5555390637
  0
VERTEX
  8
0
 62
7
  6
CONTINUOUS
 10
315.4758761268
 20
206.9609724531
  0
VERTEX
  8
0
 62
7
  6
CONTINUOUS
 10
315.558223777
 20
205.556344934
  0
VERTEX
  8
0
 62
7
  6
CONTINUOUS
 10
315.644314759
 20
204.3684198505
  0
SEQEND
  0
LINE
  8
0
 62
7
  6
CONTINUOUS
 10
315.644314759
 20
79.7104642749
 11
315.644314759
 21
264.227387811
  0
POLYLINE
  8
DEFAULT_2
 62
8
  6
HIDDEN
 66
1
 70
0
  0
VERTEX
  8
DEFAULT_2
 62
8
  6
HIDDEN
 10
315.1234387469
 20
125.7141377417
  0
VERTEX
  8
DEFAULT_2
 62
8
  6
HIDDEN
 10
315.1609231977
 20
127.7528716137
  0
VERTEX
  8
DEFAULT_2
 62
8
  6
HIDDEN
 10
315.2078496329
 20
129.7768735425
  0
VERTEX
  8
DEFAULT_2
 62
8
  6
HIDDEN
 10
315.2636152724
 20
131.7477608832
  0
VERTEX
  8
DEFAULT_2
 62
8
  6
HIDDEN
 10
315.3274809818
 20
133.6281016967
  0
VERTEX
  8
DEFAULT_2
 62
8
  6
HIDDEN
 10
315.3985757388
 20
135.3823130222
  0
VERTEX
  8
DEFAULT_2
 62
8
  6
HIDDEN
 10
315.4758761268
 20
136.9768796328
  0
VERTEX
  8
DEFAULT_2
 62
8
  6
HIDDEN
 10
315.558223777
 20
138.3815071519
  0
VERTEX
  8
DEFAULT_2
 62
8
  6
HIDDEN
 10
315.644314759
 20
139.5694322354
  0
SEQEND
  0
POLYLINE
  8
DEFAULT_2
 62
8
  6
HIDDEN
 66
1
 70
0
  0
VERTEX
  8
DEFAULT_2
 62
8
  6
HIDDEN
 10
315.1234387469
 20
189.4819718898
  0
VERTEX
  8
DEFAULT_2
 62
8
  6
HIDDEN
 10
315.1609231977
 20
191.1506106158
  0
VERTEX
  8
DEFAULT_2
 62
8
  6
HIDDEN
 10
315.2078496329
 20
192.6424325906
  0
VERTEX
  8
DEFAULT_2
 62
8
  6
HIDDEN
 10
315.2636152724
 20
193.9291142189
  0
VERTEX
  8
DEFAULT_2
 62
8
  6
HIDDEN
 10
315.3274809818
 20
194.9861780371
  0
VERTEX
  8
DEFAULT_2
 62
8
  6
HIDDEN
 10
315.3985757388
 20
195.7935542291
  0
VERTEX
  8
DEFAULT_2
 62
8
  6
HIDDEN
 10
315.4758761268
 20
196.3357442898
  0
VERTEX
  8
DEFAULT_2
 62
8
  6
HIDDEN
 10
315.558223777
 20
196.6023815524
  0
VERTEX
  8
DEFAULT_2
 62
8
  6
HIDDEN
 10
315.5965859445
 20
196.6308973128
  0
SEQEND
  0
POLYLINE
  8
0
 62
7
  6
CONTINUOUS
 66
1
 70
0
  0
VERTEX
  8
0
 62
7
  6
CONTINUOUS
 10
315.1222114124
 20
68.8598227041
  0
VERTEX
  8
0
 62
7
  6
CONTINUOUS
 10
315.1203956961
 20
68.7791507899
  0
VERTEX
  8
0
 62
7
  6
CONTINUOUS
 10
315.120862306
 20
68.7642646994
  0
SEQEND
  0
POLYLINE
  8
DEFAULT_2
 62
8
  6
HIDDEN
 66
1
 70
0
  0
VERTEX
  8
DEFAULT_2
 62
8
  6
HIDDEN
 10
315.1216657896
 20
79.5189186148
  0
VERTEX
  8
DEFAULT_2
 62
8
  6
HIDDEN
 10
315.1609231977
 20
81.244162555
  0
VERTEX
  8
DEFAULT_2
 62
8
  6
HIDDEN
 10
315.2078496329
 20
83.0272444945
  0
VERTEX
  8
DEFAULT_2
 62
8
  6
HIDDEN
 10
315.2636152724
 20
84.9295255715
  0
VERTEX
  8
DEFAULT_2
 62
8
  6
HIDDEN
 10
315.3274809818
 20
86.9149171
  0
VERTEX
  8
DEFAULT_2
 62
8
  6
HIDDEN
 10
315.3985757388
 20
88.945914456
  0
VERTEX
  8
DEFAULT_2
 62
8
  6
HIDDEN
 10
315.4758761268
 20
90.9837873685
  0
VERTEX
  8
DEFAULT_2
 62
8
  6
HIDDEN
 10
315.558223777
 20
92.9898851734
  0
VERTEX
  8
DEFAULT_2
 62
8
  6
HIDDEN
 10
315.644314759
 20
94.9260725291
  0
SEQEND
  0
LINE
  8
0
 62
7
  6
CONTINUOUS
 10
315.1303915003
 20
69.098865195
 11
315.1222114124
 21
68.8598227041
  0
LINE
  8
0
 62
7
  6
CONTINUOUS
 10
315.1492697728
 20
69.5737313082
 11
315.1303915003
 21
69.098865195
  0
POLYLINE
  8
0
 62
7
  6
CONTINUOUS
 66
1
 70
0
  0
VERTEX
  8
0
 62
7
  6
CONTINUOUS
 10
315.3835659298
 20
74.8628147446
  0
VERTEX
  8
0
 62
7
  6
CONTINUOUS
 10
315.4734053465
 20
76.9399059915
  0
VERTEX
  8
0
 62
7
  6
CONTINUOUS
 10
315.5608512686
 20
79.0057580641
  0
VERTEX
  8
0
 62
7
  6
CONTINUOUS
 10
315.644314759
 20
81.0275336414
  0
SEQEND
  0
LINE
  8
0
 62
7
  6
CONTINUOUS
 10
315.3835659298
 20
74.8628147446
 11
315.1492697728
 21
69.5737313082
  0
POLYLINE
  8
DEFAULT_2
 62
8
  6
HIDDEN
 66
1
 70
0
  0
VERTEX
  8
DEFAULT_2
 62
8
  6
HIDDEN
 10
315.2928632186
 20
82.5097441715
  0
VERTEX
  8
DEFAULT_2
 62
8
  6
HIDDEN
 10
315.3835659298
 20
84.3507213021
  0
VERTEX
  8
DEFAULT_2
 62
8
  6
HIDDEN
 10
315.4734053465
 20
86.0560900175
  0
VERTEX
  8
DEFAULT_2
 62
8
  6
HIDDEN
 10
315.5608512686
 20
87.5987620613
  0
VERTEX
  8
DEFAULT_2
 62
8
  6
HIDDEN
 10
315.644314759
 20
88.9542524304
  0
SEQEND
  0
POLYLINE
  8
DEFAULT_2
 62
8
  6
HIDDEN
 66
1
 70
0
  0
VERTEX
  8
DEFAULT_2
 62
8
  6
HIDDEN
 10
315.2928632186
 20
82.5097441715
  0
VERTEX
  8
DEFAULT_2
 62
8
  6
HIDDEN
 10
315.160655673
 20
79.7438312122
  0
VERTEX
  8
DEFAULT_2
 62
8
  6
HIDDEN
 10
315.1492697728
 20
79.5372584499
  0
VERTEX
  8
DEFAULT_2
 62
8
  6
HIDDEN
 10
315.1389318749
 20
79.3826165163
  0
VERTEX
  8
DEFAULT_2
 62
8
  6
HIDDEN
 10
315.1303915003
 20
79.2913268324
  0
VERTEX
  8
DEFAULT_2
 62
8
  6
HIDDEN
 10
315.1269882694
 20
79.2716524174
  0
VERTEX
  8
DEFAULT_2
 62
8
  6
HIDDEN
 10
315.1252598529
 20
79.2684206483
  0
SEQEND
  0
POLYLINE
  8
0
 62
7
  6
CONTINUOUS
 66
1
 70
0
  0
VERTEX
  8
0
 62
7
  6
CONTINUOUS
 10
315.160655673
 20
98.9463955728
  0
VERTEX
  8
0
 62
7
  6
CONTINUOUS
 10
315.1492697728
 20
98.7216882705
  0
VERTEX
  8
0
 62
7
  6
CONTINUOUS
 10
315.1389318749
 20
98.4664336718
  0
VERTEX
  8
0
 62
7
  6
CONTINUOUS
 10
315.1303915003
 20
98.1992703768
  0
VERTEX
  8
0
 62
7
  6
CONTINUOUS
 10
315.1269882694
 20
98.0671967173
  0
VERTEX
  8
0
 62
7
  6
CONTINUOUS
 10
315.1222114124
 20
97.8178538329
  0
VERTEX
  8
0
 62
7
  6
CONTINUOUS
 10
315.1203956961
 20
97.6028836332
  0
VERTEX
  8
0
 62
7
  6
CONTINUOUS
 10
315.1216657896
 20
97.4376053549
  0
VERTEX
  8
0
 62
7
  6
CONTINUOUS
 10
315.1234387469
 20
97.3774343149
  0
SEQEND
  0
POLYLINE
  8
0
 62
7
  6
CONTINUOUS
 66
1
 70
0
  0
VERTEX
  8
0
 62
7
  6
CONTINUOUS
 10
315.3835659298
 20
102.4661421878
  0
VERTEX
  8
0
 62
7
  6
CONTINUOUS
 10
315.4734053465
 20
104.1215777076
  0
VERTEX
  8
0
 62
7
  6
CONTINUOUS
 10
315.5608512686
 20
105.921524533
  0
VERTEX
  8
0
 62
7
  6
CONTINUOUS
 10
315.644314759
 20
107.8373357655
  0
SEQEND
  0
LINE
  8
0
 62
7
  6
CONTINUOUS
 10
315.3835659298
 20
102.4661421878
 11
315.160655673
 21
98.9463955728
  0
LINE
  8
DEFAULT_2
 62
8
  6
HIDDEN
 10
315.2928632186
 20
126.3823588315
 11
315.1664729808
 21
124.9330274686
  0
POLYLINE
  8
DEFAULT_2
 62
8
  6
HIDDEN
 66
1
 70
0
  0
VERTEX
  8
DEFAULT_2
 62
8
  6
HIDDEN
 10
315.2928632186
 20
126.3823588315
  0
VERTEX
  8
DEFAULT_2
 62
8
  6
HIDDEN
 10
315.3835659298
 20
127.3058040373
  0
VERTEX
  8
DEFAULT_2
 62
8
  6
HIDDEN
 10
315.4734053465
 20
127.9880573353
  0
VERTEX
  8
DEFAULT_2
 62
8
  6
HIDDEN
 10
315.5608512686
 20
128.418301063
  0
VERTEX
  8
DEFAULT_2
 62
8
  6
HIDDEN
 10
315.644314759
 20
128.5897549745
  0
SEQEND
  0
POLYLINE
  8
DEFAULT_2
 62
8
  6
HIDDEN
 66
1
 70
0
  0
VERTEX
  8
DEFAULT_2
 62
8
  6
HIDDEN
 10
315.1664729808
 20
124.9330274686
  0
VERTEX
  8
DEFAULT_2
 62
8
  6
HIDDEN
 10
315.160655673
 20
124.8742369872
  0
VERTEX
  8
DEFAULT_2
 62
8
  6
HIDDEN
 10
315.1492697728
 20
124.8065409753
  0
VERTEX
  8
DEFAULT_2
 62
8
  6
HIDDEN
 10
315.1443700882
 20
124.7990528724
  0
SEQEND
  0
POLYLINE
  8
0
 62
7
  6
CONTINUOUS
 66
1
 70
0
  0
VERTEX
  8
0
 62
7
  6
CONTINUOUS
 10
315.1664729808
 20
155.9673665899
  0
VERTEX
  8
0
 62
7
  6
CONTINUOUS
 10
315.160655673
 20
155.9446387939
  0
VERTEX
  8
0
 62
7
  6
CONTINUOUS
 10
315.1492697728
 20
155.8476004798
  0
VERTEX
  8
0
 62
7
  6
CONTINUOUS
 10
315.1389318749
 20
155.6879198522
  0
VERTEX
  8
0
 62
7
  6
CONTINUOUS
 10
315.1303915003
 20
155.4771766847
  0
VERTEX
  8
0
 62
7
  6
CONTINUOUS
 10
315.1269882694
 20
155.3572624823
  0
VERTEX
  8
0
 62
7
  6
CONTINUOUS
 10
315.1222114124
 20
155.0990742437
  0
VERTEX
  8
0
 62
7
  6
CONTINUOUS
 10
315.1203956961
 20
154.8319170682
  0
VERTEX
  8
0
 62
7
  6
CONTINUOUS
 10
315.1216657896
 20
154.5748522057
  0
VERTEX
  8
0
 62
7
  6
CONTINUOUS
 10
315.1234387469
 20
154.455880196
  0
SEQEND
  0
POLYLINE
  8
0
 62
7
  6
CONTINUOUS
 66
1
 70
0
  0
VERTEX
  8
0
 62
7
  6
CONTINUOUS
 10
315.2928632186
 20
156.2703593501
  0
VERTEX
  8
0
 62
7
  6
CONTINUOUS
 10
315.3835659298
 20
156.6171707509
  0
VERTEX
  8
0
 62
7
  6
CONTINUOUS
 10
315.4734053465
 20
157.2186304413
  0
VERTEX
  8
0
 62
7
  6
CONTINUOUS
 10
315.5608512686
 20
158.0651535101
  0
VERTEX
  8
0
 62
7
  6
CONTINUOUS
 10
315.644314759
 20
159.143225623
  0
SEQEND
  0
POLYLINE
  8
0
 62
7
  6
CONTINUOUS
 66
1
 70
0
  0
VERTEX
  8
0
 62
7
  6
CONTINUOUS
 10
289.9446857748
 20
96.2138769657
  0
VERTEX
  8
0
 62
7
  6
CONTINUOUS
 10
290.0142391127
 20
96.3828314248
  0
VERTEX
  8
0
 62
7
  6
CONTINUOUS
 10
290.0851203067
 20
96.8271594418
  0
VERTEX
  8
0
 62
7
  6
CONTINUOUS
 10
290.1621963582
 20
97.5399428573
  0
VERTEX
  8
0
 62
7
  6
CONTINUOUS
 10
290.244314759
 20
98.5077924788
  0
SEQEND
  0
LINE
  8
0
 62
7
  6
CONTINUOUS
 10
315.2928632186
 20
156.2703593501
 11
315.1664729808
 21
155.9673665899
  0
LINE
  8
DEFAULT_2
 62
8
  6
HIDDEN
 10
315.1664729808
 20
187.970485496
 11
307.0348346515
 21
187.970485496
  0
LINE
  8
DEFAULT_2
 62
8
  6
HIDDEN
 10
289.8537948666
 20
187.970485496
 11
281.7221565373
 21
187.970485496
  0
LINE
  8
DEFAULT_2
 62
8
  6
HIDDEN
 10
323.444314759
 20
188.4434793725
 11
323.244314759
 21
188.4434793725
  0
LINE
  8
DEFAULT_2
 62
8
  6
HIDDEN
 10
323.444314759
 20
188.4490653992
 11
323.244314759
 21
188.4490653992
  0
LINE
  8
DEFAULT_2
 62
8
  6
HIDDEN
 10
323.444314759
 20
188.5137415437
 11
323.244314759
 21
188.5137415437
  0
LINE
  8
DEFAULT_2
 62
8
  6
HIDDEN
 10
323.444314759
 20
188.5360842049
 11
323.244314759
 21
188.5360842049
  0
LINE
  8
DEFAULT_2
 62
8
  6
HIDDEN
 10
323.444314759
 20
188.7803839742
 11
323.244314759
 21
188.7803839742
  0
LINE
  8
DEFAULT_2
 62
8
  6
HIDDEN
 10
323.444314759
 20
188.8550551217
 11
323.244314759
 21
188.8550551217
  0
LINE
  8
DEFAULT_2
 62
8
  6
HIDDEN
 10
323.444314759
 20
189.0402647865
 11
323.244314759
 21
189.0402647865
  0
LINE
  8
DEFAULT_2
 62
8
  6
HIDDEN
 10
323.444314759
 20
189.1484500056
 11
323.244314759
 21
189.1484500056
  0
LINE
  8
DEFAULT_2
 62
8
  6
HIDDEN
 10
323.444314759
 20
189.1640303126
 11
323.244314759
 21
189.1640303126
  0
LINE
  8
DEFAULT_2
 62
8
  6
HIDDEN
 10
323.444314759
 20
189.263397844
 11
323.244314759
 21
189.263397844
  0
LINE
  8
DEFAULT_2
 62
8
  6
HIDDEN
 10
323.444314759
 20
189.2901502277
 11
323.244314759
 21
189.2901502277
  0
LINE
  8
DEFAULT_2
 62
8
  6
HIDDEN
 10
323.444314759
 20
189.3971588308
 11
323.244314759
 21
189.3971588308
  0
LINE
  8
DEFAULT_2
 62
8
  6
HIDDEN
 10
323.444314759
 20
189.4139161218
 11
323.244314759
 21
189.4139161218
  0
LINE
  8
DEFAULT_2
 62
8
  6
HIDDEN
 10
315.1234387469
 20
189.4819718898
 11
307.0778688853
 21
189.4819718898
  0
LINE
  8
DEFAULT_2
 62
8
  6
HIDDEN
 10
289.8107606327
 20
189.4819718898
 11
281.7651907712
 21
189.4819718898
  0
LINE
  8
DEFAULT_2
 62
8
  6
HIDDEN
 10
323.444314759
 20
189.5723737411
 11
323.244314759
 21
189.5723737411
  0
LINE
  8
DEFAULT_2
 62
8
  6
HIDDEN
 10
323.444314759
 20
189.7608157265
 11
323.244314759
 21
189.7608157265
  0
LINE
  8
DEFAULT_2
 62
8
  6
HIDDEN
 10
323.444314759
 20
189.7875675102
 11
323.244314759
 21
189.7875675102
  0
LINE
  8
DEFAULT_2
 62
8
  6
HIDDEN
 10
323.444314759
 20
189.9416160601
 11
323.244314759
 21
189.9416160601
  0
LINE
  8
DEFAULT_2
 62
8
  6
HIDDEN
 10
323.444314759
 20
190.1312347411
 11
323.244314759
 21
190.1312347411
  0
LINE
  8
DEFAULT_2
 62
8
  6
HIDDEN
 10
323.444314759
 20
190.2594096781
 11
323.244314759
 21
190.2594096781
  0
LINE
  8
DEFAULT_2
 62
8
  6
HIDDEN
 10
323.444314759
 20
190.4657860712
 11
323.244314759
 21
190.4657860712
  0
LINE
  8
DEFAULT_2
 62
8
  6
HIDDEN
 10
323.444314759
 20
190.6956817447
 11
323.244314759
 21
190.6956817447
  0
LINE
  8
DEFAULT_2
 62
8
  6
HIDDEN
 10
323.444314759
 20
190.7659435445
 11
323.244314759
 21
190.7659435445
  0
LINE
  8
DEFAULT_2
 62
8
  6
HIDDEN
 10
323.444314759
 20
190.8997045081
 11
323.244314759
 21
190.8997045081
  0
LINE
  8
DEFAULT_2
 62
8
  6
HIDDEN
 10
323.444314759
 20
190.9699659432
 11
323.244314759
 21
190.9699659432
  0
LINE
  8
DEFAULT_2
 62
8
  6
HIDDEN
 10
323.444314759
 20
191.1998619815
 11
323.244314759
 21
191.1998619815
  0
LINE
  8
DEFAULT_2
 62
8
  6
HIDDEN
 10
323.444314759
 20
191.4062380198
 11
323.244314759
 21
191.4062380198
  0
LINE
  8
DEFAULT_2
 62
8
  6
HIDDEN
 10
323.444314759
 20
191.53441297
 11
323.244314759
 21
191.53441297
  0
LINE
  8
DEFAULT_2
 62
8
  6
HIDDEN
 10
323.444314759
 20
191.7240316244
 11
323.244314759
 21
191.7240316244
  0
LINE
  8
DEFAULT_2
 62
8
  6
HIDDEN
 10
323.444314759
 20
191.8780802009
 11
323.244314759
 21
191.8780802009
  0
LINE
  8
DEFAULT_2
 62
8
  6
HIDDEN
 10
323.444314759
 20
191.9048322464
 11
323.244314759
 21
191.9048322464
  0
LINE
  8
DEFAULT_2
 62
8
  6
HIDDEN
 10
323.444314759
 20
192.0932743116
 11
323.244314759
 21
192.0932743116
  0
LINE
  8
DEFAULT_2
 62
8
  6
HIDDEN
 10
323.444314759
 20
192.2517319043
 11
323.244314759
 21
192.2517319043
  0
LINE
  8
DEFAULT_2
 62
8
  6
HIDDEN
 10
323.444314759
 20
192.2684890776
 11
323.244314759
 21
192.2684890776
  0
LINE
  8
0
 62
9
  6
CONTINUOUS
 10
281.244314759
 20
192.3120536359
 11
290.244314759
 21
192.3120536359
  0
LINE
  8
0
 62
9
  6
CONTINUOUS
 10
306.644314759
 20
192.3120536359
 11
315.644314759
 21
192.3120536359
  0
LINE
  8
DEFAULT_2
 62
8
  6
HIDDEN
 10
323.444314759
 20
192.375497825
 11
323.244314759
 21
192.375497825
  0
LINE
  8
DEFAULT_2
 62
8
  6
HIDDEN
 10
323.444314759
 20
192.4022498439
 11
323.244314759
 21
192.4022498439
  0
LINE
  8
DEFAULT_2
 62
8
  6
HIDDEN
 10
323.444314759
 20
192.5016173189
 11
323.244314759
 21
192.5016173189
  0
LINE
  8
DEFAULT_2
 62
8
  6
HIDDEN
 10
323.444314759
 20
192.5171980205
 11
323.244314759
 21
192.5171980205
  0
LINE
  8
DEFAULT_2
 62
8
  6
HIDDEN
 10
323.444314759
 20
192.6253831865
 11
323.244314759
 21
192.6253831865
  0
LINE
  8
DEFAULT_2
 62
8
  6
HIDDEN
 10
323.444314759
 20
192.8105930751
 11
323.244314759
 21
192.8105930751
  0
LINE
  8
DEFAULT_2
 62
8
  6
HIDDEN
 10
323.444314759
 20
192.8852637237
 11
323.244314759
 21
192.8852637237
  0
LINE
  8
DEFAULT_2
 62
8
  6
HIDDEN
 10
323.444314759
 20
193.0191329968
 11
323.244314759
 21
193.0191329968
  0
LINE
  8
DEFAULT_2
 62
8
  6
HIDDEN
 10
323.444314759
 20
193.1295635062
 11
323.244314759
 21
193.1295635062
  0
LINE
  8
DEFAULT_2
 62
8
  6
HIDDEN
 10
323.444314759
 20
193.1519066531
 11
323.244314759
 21
193.1519066531
  0
LINE
  8
DEFAULT_2
 62
8
  6
HIDDEN
 10
323.444314759
 20
193.2165825092
 11
323.244314759
 21
193.2165825092
  0
LINE
  8
DEFAULT_2
 62
8
  6
HIDDEN
 10
323.444314759
 20
193.2221682589
 11
323.244314759
 21
193.2221682589
  0
LINE
  8
0
 62
9
  6
CONTINUOUS
 10
281.244314759
 20
193.6081544231
 11
290.244314759
 21
193.6081544231
  0
LINE
  8
0
 62
9
  6
CONTINUOUS
 10
306.644314759
 20
193.6081544231
 11
315.644314759
 21
193.6081544231
  0
LINE
  8
DEFAULT_2
 62
8
  6
HIDDEN
 10
323.444314759
 20
193.7189903098
 11
323.244314759
 21
193.7189903098
  0
LINE
  8
DEFAULT_2
 62
8
  6
HIDDEN
 10
323.444314759
 20
193.7797091147
 11
273.444314759
 21
193.7797091147
  0
LINE
  8
DEFAULT_2
 62
8
  6
HIDDEN
 10
281.244314759
 20
193.8262384818
 11
290.244314759
 21
193.8262384818
  0
LINE
  8
DEFAULT_2
 62
8
  6
HIDDEN
 10
306.644314759
 20
193.8262384818
 11
315.644314759
 21
193.8262384818
  0
LINE
  8
DEFAULT_2
 62
8
  6
HIDDEN
 10
281.244314759
 20
193.9227773714
 11
290.244314759
 21
193.9227773714
  0
LINE
  8
DEFAULT_2
 62
8
  6
HIDDEN
 10
306.644314759
 20
193.9227773714
 11
315.644314759
 21
193.9227773714
  0
LINE
  8
DEFAULT_2
 62
8
  6
HIDDEN
 10
315.2928632186
 20
187.6674927358
 11
315.1664729808
 21
187.970485496
  0
POLYLINE
  8
DEFAULT_2
 62
8
  6
HIDDEN
 66
1
 70
0
  0
VERTEX
  8
DEFAULT_2
 62
8
  6
HIDDEN
 10
289.9446857748
 20
247.7239751201
  0
VERTEX
  8
DEFAULT_2
 62
8
  6
HIDDEN
 10
290.0142391127
 20
247.5550206611
  0
VERTEX
  8
DEFAULT_2
 62
8
  6
HIDDEN
 10
290.0851203067
 20
247.1106926441
  0
VERTEX
  8
DEFAULT_2
 62
8
  6
HIDDEN
 10
290.1621963582
 20
246.3979092286
  0
VERTEX
  8
DEFAULT_2
 62
8
  6
HIDDEN
 10
290.244314759
 20
245.4300596071
  0
SEQEND
  0
POLYLINE
  8
DEFAULT_2
 62
8
  6
HIDDEN
 66
1
 70
0
  0
VERTEX
  8
DEFAULT_2
 62
8
  6
HIDDEN
 10
315.2928632186
 20
187.6674927358
  0
VERTEX
  8
DEFAULT_2
 62
8
  6
HIDDEN
 10
315.3835659298
 20
187.320681335
  0
VERTEX
  8
DEFAULT_2
 62
8
  6
HIDDEN
 10
315.4734053465
 20
186.7192216446
  0
VERTEX
  8
DEFAULT_2
 62
8
  6
HIDDEN
 10
315.5608512686
 20
185.8726985758
  0
VERTEX
  8
DEFAULT_2
 62
8
  6
HIDDEN
 10
315.644314759
 20
184.7946264629
  0
SEQEND
  0
POLYLINE
  8
DEFAULT_2
 62
8
  6
HIDDEN
 66
1
 70
0
  0
VERTEX
  8
DEFAULT_2
 62
8
  6
HIDDEN
 10
315.1664729808
 20
187.970485496
  0
VERTEX
  8
DEFAULT_2
 62
8
  6
HIDDEN
 10
315.160655673
 20
187.993213292
  0
VERTEX
  8
DEFAULT_2
 62
8
  6
HIDDEN
 10
315.1492697728
 20
188.090251606
  0
VERTEX
  8
DEFAULT_2
 62
8
  6
HIDDEN
 10
315.1389318749
 20
188.2499322337
  0
VERTEX
  8
DEFAULT_2
 62
8
  6
HIDDEN
 10
315.1303915003
 20
188.4606754012
  0
VERTEX
  8
DEFAULT_2
 62
8
  6
HIDDEN
 10
315.1269882694
 20
188.5805896036
  0
VERTEX
  8
DEFAULT_2
 62
8
  6
HIDDEN
 10
315.1222114124
 20
188.8387778421
  0
VERTEX
  8
DEFAULT_2
 62
8
  6
HIDDEN
 10
315.1203956961
 20
189.1059350177
  0
VERTEX
  8
DEFAULT_2
 62
8
  6
HIDDEN
 10
315.1216657896
 20
189.3629998802
  0
VERTEX
  8
DEFAULT_2
 62
8
  6
HIDDEN
 10
315.1234387469
 20
189.4819718898
  0
SEQEND
  0
LINE
  8
0
 62
7
  6
CONTINUOUS
 10
315.120862306
 20
275.1735873864
 11
315.1234387469
 21
275.1474490836
  0
POLYLINE
  8
0
 62
7
  6
CONTINUOUS
 66
1
 70
0
  0
VERTEX
  8
0
 62
7
  6
CONTINUOUS
 10
315.1234387469
 20
275.1474490836
  0
VERTEX
  8
0
 62
7
  6
CONTINUOUS
 10
315.1609231977
 20
274.5486225584
  0
VERTEX
  8
0
 62
7
  6
CONTINUOUS
 10
315.2078496329
 20
273.6875373045
  0
VERTEX
  8
0
 62
7
  6
CONTINUOUS
 10
315.2636152724
 20
272.5804692065
  0
VERTEX
  8
0
 62
7
  6
CONTINUOUS
 10
315.3274809818
 20
271.2483790459
  0
VERTEX
  8
0
 62
7
  6
CONTINUOUS
 10
315.3985757388
 20
269.7163676183
  0
VERTEX
  8
0
 62
7
  6
CONTINUOUS
 10
315.4758761268
 20
268.0135865917
  0
SEQEND
  0
LINE
  8
0
 62
9
  6
CONTINUOUS
 10
321.444314759
 20
246.4689260429
 11
321.444314759
 21
97.4689260429
  0
LINE
  8
DEFAULT_2
 62
8
  6
HIDDEN
 10
322.944314759
 20
243.9689172205
 11
322.944314759
 21
236.3371976137
  0
LINE
  8
DEFAULT_2
 62
8
  6
HIDDEN
 10
323.244314759
 20
234.7995995466
 11
323.244314759
 21
214.5214341053
  0
LINE
  8
DEFAULT_2
 62
8
  6
HIDDEN
 10
323.244314759
 20
206.4266736074
 11
323.244314759
 21
199.1431625815
  0
LINE
  8
DEFAULT_2
 62
8
  6
HIDDEN
 10
323.244314759
 20
196.254618867
 11
323.244314759
 21
188.4434793725
  0
LINE
  8
0
 62
7
  6
CONTINUOUS
 10
323.444314759
 20
244.4689260429
 11
323.444314759
 21
99.4689260429
  0
POLYLINE
  8
0
 62
7
  6
CONTINUOUS
 66
1
 70
0
  0
VERTEX
  8
0
 62
7
  6
CONTINUOUS
 10
315.1234387469
 20
68.7904030023
  0
VERTEX
  8
0
 62
7
  6
CONTINUOUS
 10
315.1609231977
 20
69.3892295275
  0
VERTEX
  8
0
 62
7
  6
CONTINUOUS
 10
315.2078496329
 20
70.2503147814
  0
VERTEX
  8
0
 62
7
  6
CONTINUOUS
 10
315.2636152724
 20
71.3573828794
  0
VERTEX
  8
0
 62
7
  6
CONTINUOUS
 10
315.3274809818
 20
72.68947304
  0
VERTEX
  8
0
 62
7
  6
CONTINUOUS
 10
315.3985757388
 20
74.2214844676
  0
VERTEX
  8
0
 62
7
  6
CONTINUOUS
 10
315.4758761268
 20
75.9242654942
  0
VERTEX
  8
0
 62
7
  6
CONTINUOUS
 10
315.644314759
 20
79.7104642749
  0
SEQEND
  0
LINE
  8
0
 62
7
  6
CONTINUOUS
 10
315.120862306
 20
68.7642646994
 11
315.1234387469
 21
68.7904030023
  0
POLYLINE
  8
DEFAULT_2
 62
8
  6
HIDDEN
 66
1
 70
0
  0
VERTEX
  8
DEFAULT_2
 62
8
  6
HIDDEN
 10
307.0760477771
 20
79.2684206483
  0
VERTEX
  8
DEFAULT_2
 62
8
  6
HIDDEN
 10
307.0790969771
 20
79.285975852
  0
VERTEX
  8
DEFAULT_2
 62
8
  6
HIDDEN
 10
307.0809119737
 20
79.3704208666
  0
VERTEX
  8
DEFAULT_2
 62
8
  6
HIDDEN
 10
307.0796417154
 20
79.518926669
  0
VERTEX
  8
DEFAULT_2
 62
8
  6
HIDDEN
 10
307.0404728955
 20
81.2405813459
  0
SEQEND
  0
LINE
  8
DEFAULT_2
 62
8
  6
HIDDEN
 10
323.444314759
 20
195.1761641638
 11
323.244314759
 21
195.1761641638
  0
LINE
  8
DEFAULT_2
 62
8
  6
HIDDEN
 10
323.444314759
 20
195.5088672794
 11
323.244314759
 21
195.5088672794
  0
LINE
  8
DEFAULT_2
 62
8
  6
HIDDEN
 10
323.444314759
 20
195.8760214768
 11
323.244314759
 21
195.8760214768
  0
LINE
  8
DEFAULT_2
 62
8
  6
HIDDEN
 10
323.444314759
 20
195.887464541
 11
323.244314759
 21
195.887464541
  0
LINE
  8
DEFAULT_2
 62
8
  6
HIDDEN
 10
315.644314759
 20
196.1912740617
 11
306.644314759
 21
196.1912740617
  0
LINE
  8
DEFAULT_2
 62
8
  6
HIDDEN
 10
290.244314759
 20
196.1912740617
 11
281.244314759
 21
196.1912740617
  0
LINE
  8
DEFAULT_2
 62
8
  6
HIDDEN
 10
323.444314759
 20
196.254618867
 11
323.244314759
 21
196.254618867
  0
LINE
  8
DEFAULT_2
 62
8
  6
HIDDEN
 10
281.2920457549
 20
196.6308973128
 11
290.244314759
 21
196.6308973128
  0
LINE
  8
DEFAULT_2
 62
8
  6
HIDDEN
 10
306.644314759
 20
196.6308973128
 11
315.5965837632
 21
196.6308973128
  0
LINE
  8
DEFAULT_2
 62
8
  6
HIDDEN
 10
323.444314759
 20
196.7912575401
 11
273.444314759
 21
196.7912575401
  0
LINE
  8
DEFAULT_2
 62
8
  6
HIDDEN
 10
281.244314759
 20
199.038930085
 11
290.244314759
 21
199.038930085
  0
LINE
  8
DEFAULT_2
 62
8
  6
HIDDEN
 10
306.644314759
 20
199.038930085
 11
315.644314759
 21
199.038930085
  0
LINE
  8
DEFAULT_2
 62
8
  6
HIDDEN
 10
323.444314759
 20
199.1431625815
 11
323.244314759
 21
199.1431625815
  0
LINE
  8
DEFAULT_2
 62
8
  6
HIDDEN
 10
323.444314759
 20
199.5148749994
 11
323.244314759
 21
199.5148749994
  0
LINE
  8
0
 62
9
  6
CONTINUOUS
 10
281.244314759
 20
199.7319709613
 11
290.244314759
 21
199.7319709613
  0
LINE
  8
0
 62
9
  6
CONTINUOUS
 10
306.644314759
 20
199.7319709613
 11
315.644314759
 21
199.7319709613
  0
LINE
  8
DEFAULT_2
 62
8
  6
HIDDEN
 10
323.444314759
 20
199.8028059656
 11
273.444314759
 21
199.8028059656
  0
LINE
  8
DEFAULT_2
 62
8
  6
HIDDEN
 10
281.244314759
 20
200.8647742911
 11
290.244314759
 21
200.8647742911
  0
LINE
  8
DEFAULT_2
 62
8
  6
HIDDEN
 10
306.644314759
 20
200.8647742911
 11
315.644314759
 21
200.8647742911
  0
LINE
  8
DEFAULT_2
 62
8
  6
HIDDEN
 10
323.444314759
 20
201.6212454251
 11
323.244314759
 21
201.6212454251
  0
LINE
  8
DEFAULT_2
 62
8
  6
HIDDEN
 10
315.5965859445
 20
196.6308973128
 11
315.644314759
 21
196.5882973578
  0
POLYLINE
  8
0
 62
7
  6
CONTINUOUS
 66
1
 70
0
  0
VERTEX
  8
0
 62
7
  6
CONTINUOUS
 10
307.0569375518
 20
219.1387992135
  0
VERTEX
  8
0
 62
7
  6
CONTINUOUS
 10
307.0623800911
 20
219.1281793472
  0
VERTEX
  8
0
 62
7
  6
CONTINUOUS
 10
307.0709188306
 20
219.0543315467
  0
VERTEX
  8
0
 62
7
  6
CONTINUOUS
 10
307.0743213222
 20
218.9923747291
  0
VERTEX
  8
0
 62
7
  6
CONTINUOUS
 10
307.0790969771
 20
218.8239603319
  0
VERTEX
  8
0
 62
7
  6
CONTINUOUS
 10
307.0809119737
 20
218.6066731968
  0
VERTEX
  8
0
 62
7
  6
CONTINUOUS
 10
307.0796417154
 20
218.3560321837
  0
VERTEX
  8
0
 62
7
  6
CONTINUOUS
 10
307.0778688853
 20
218.2237143442
  0
SEQEND
  0
POLYLINE
  8
0
 62
7
  6
CONTINUOUS
 66
1
 70
0
  0
VERTEX
  8
0
 62
7
  6
CONTINUOUS
 10
307.0760477771
 20
264.6694314375
  0
VERTEX
  8
0
 62
7
  6
CONTINUOUS
 10
307.0790969771
 20
264.6518762339
  0
VERTEX
  8
0
 62
7
  6
CONTINUOUS
 10
307.0809119737
 20
264.5674312193
  0
VERTEX
  8
0
 62
7
  6
CONTINUOUS
 10
307.0796417154
 20
264.4189254169
  0
SEQEND
  0
POLYLINE
  8
DEFAULT_2
 62
8
  6
HIDDEN
 66
1
 70
0
  0
VERTEX
  8
DEFAULT_2
 62
8
  6
HIDDEN
 10
307.0569375518
 20
124.7990528724
  0
VERTEX
  8
DEFAULT_2
 62
8
  6
HIDDEN
 10
307.0623800911
 20
124.8096727387
  0
VERTEX
  8
DEFAULT_2
 62
8
  6
HIDDEN
 10
307.0709188306
 20
124.8835205392
  0
VERTEX
  8
DEFAULT_2
 62
8
  6
HIDDEN
 10
307.0743213222
 20
124.9454773568
  0
VERTEX
  8
DEFAULT_2
 62
8
  6
HIDDEN
 10
307.0790969771
 20
125.1138917539
  0
VERTEX
  8
DEFAULT_2
 62
8
  6
HIDDEN
 10
307.0809119737
 20
125.331178889
  0
VERTEX
  8
DEFAULT_2
 62
8
  6
HIDDEN
 10
307.0796417154
 20
125.5818199022
  0
VERTEX
  8
DEFAULT_2
 62
8
  6
HIDDEN
 10
307.0778688853
 20
125.7141377417
  0
SEQEND
  0
LINE
  8
0
 62
7
  6
CONTINUOUS
 10
315.5965859445
 20
147.3069547731
 11
315.644314759
 21
147.3495547281
  0
LINE
  8
DEFAULT_2
 62
8
  6
HIDDEN
 10
323.444314759
 20
202.054909862
 11
323.244314759
 21
202.054909862
  0
LINE
  8
DEFAULT_2
 62
8
  6
HIDDEN
 10
323.444314759
 20
202.2916215816
 11
323.244314759
 21
202.2916215816
  0
LINE
  8
DEFAULT_2
 62
8
  6
HIDDEN
 10
323.444314759
 20
203.2308768096
 11
323.244314759
 21
203.2308768096
  0
LINE
  8
0
 62
9
  6
CONTINUOUS
 10
315.644314759
 20
203.2446493619
 11
306.644314759
 21
203.2446493619
  0
LINE
  8
0
 62
9
  6
CONTINUOUS
 10
290.244314759
 20
203.2446493619
 11
281.244314759
 21
203.2446493619
  0
LINE
  8
DEFAULT_2
 62
8
  6
HIDDEN
 10
323.444314759
 20
203.5149263269
 11
323.244314759
 21
203.5149263269
  0
LINE
  8
DEFAULT_2
 62
8
  6
HIDDEN
 10
323.444314759
 20
204.0105428696
 11
323.244314759
 21
204.0105428696
  0
LINE
  8
DEFAULT_2
 62
8
  6
HIDDEN
 10
323.444314759
 20
206.1169132953
 11
323.244314759
 21
206.1169132953
  0
LINE
  8
DEFAULT_2
 62
8
  6
HIDDEN
 10
323.444314759
 20
206.4266736074
 11
323.244314759
 21
206.4266736074
  0
LINE
  8
DEFAULT_2
 62
8
  6
HIDDEN
 10
323.444314759
 20
210.5383487316
 11
273.444314759
 21
210.5383487316
  0
LINE
  8
DEFAULT_2
 62
8
  6
HIDDEN
 10
323.444314759
 20
212.1680510048
 11
273.444314759
 21
212.1680510048
  0
LINE
  8
DEFAULT_2
 62
8
  6
HIDDEN
 10
323.444314759
 20
213.797753278
 11
273.444314759
 21
213.797753278
  0
LINE
  8
DEFAULT_2
 62
8
  6
HIDDEN
 10
323.444314759
 20
214.5214341053
 11
323.244314759
 21
214.5214341053
  0
LINE
  8
DEFAULT_2
 62
8
  6
HIDDEN
 10
323.444314759
 20
214.594356837
 11
323.244314759
 21
214.594356837
  0
LINE
  8
DEFAULT_2
 62
8
  6
HIDDEN
 10
323.444314759
 20
214.6271768209
 11
323.244314759
 21
214.6271768209
  0
LINE
  8
DEFAULT_2
 62
8
  6
HIDDEN
 10
323.444314759
 20
214.8152202998
 11
323.244314759
 21
214.8152202998
  0
LINE
  8
DEFAULT_2
 62
8
  6
HIDDEN
 10
323.444314759
 20
214.9376197485
 11
323.244314759
 21
214.9376197485
  0
LINE
  8
DEFAULT_2
 62
8
  6
HIDDEN
 10
323.444314759
 20
215.2314059108
 11
323.244314759
 21
215.2314059108
  0
LINE
  8
DEFAULT_2
 62
8
  6
HIDDEN
 10
323.444314759
 20
215.2407819596
 11
323.244314759
 21
215.2407819596
  0
LINE
  8
DEFAULT_2
 62
8
  6
HIDDEN
 10
323.444314759
 20
215.2736038783
 11
323.244314759
 21
215.2736038783
  0
LINE
  8
DEFAULT_2
 62
8
  6
HIDDEN
 10
281.244314759
 20
215.3449124169
 11
290.244314759
 21
215.3449124169
  0
LINE
  8
DEFAULT_2
 62
8
  6
HIDDEN
 10
306.644314759
 20
215.3449124169
 11
315.644314759
 21
215.3449124169
  0
LINE
  8
DEFAULT_2
 62
8
  6
HIDDEN
 10
323.444314759
 20
215.4006933745
 11
323.244314759
 21
215.4006933745
  0
LINE
  8
DEFAULT_2
 62
8
  6
HIDDEN
 10
323.444314759
 20
215.4288253742
 11
323.244314759
 21
215.4288253742
  0
LINE
  8
DEFAULT_2
 62
8
  6
HIDDEN
 10
323.444314759
 20
215.6356208863
 11
323.244314759
 21
215.6356208863
  0
LINE
  8
DEFAULT_2
 62
8
  6
HIDDEN
 10
323.444314759
 20
215.7038555213
 11
323.244314759
 21
215.7038555213
  0
LINE
  8
DEFAULT_2
 62
8
  6
HIDDEN
 10
323.444314759
 20
216.0658725293
 11
323.244314759
 21
216.0658725293
  0
LINE
  8
DEFAULT_2
 62
8
  6
HIDDEN
 10
323.444314759
 20
216.2632919285
 11
323.244314759
 21
216.2632919285
  0
LINE
  8
DEFAULT_2
 62
8
  6
HIDDEN
 10
323.444314759
 20
216.4232034077
 11
323.244314759
 21
216.4232034077
  0
LINE
  8
DEFAULT_2
 62
8
  6
HIDDEN
 10
323.444314759
 20
216.4466453599
 11
323.244314759
 21
216.4466453599
  0
LINE
  8
DEFAULT_2
 62
8
  6
HIDDEN
 10
323.444314759
 20
216.5289460911
 11
323.244314759
 21
216.5289460911
  0
LINE
  8
DEFAULT_2
 62
8
  6
HIDDEN
 10
323.444314759
 20
216.5523880434
 11
323.244314759
 21
216.5523880434
  0
LINE
  8
DEFAULT_2
 62
8
  6
HIDDEN
 10
323.444314759
 20
216.740431458
 11
323.244314759
 21
216.740431458
  0
LINE
  8
DEFAULT_2
 62
8
  6
HIDDEN
 10
323.444314759
 20
216.7758443027
 11
323.244314759
 21
216.7758443027
  0
LINE
  8
DEFAULT_2
 62
8
  6
HIDDEN
 10
323.444314759
 20
217.0253331834
 11
323.244314759
 21
217.0253331834
  0
LINE
  8
DEFAULT_2
 62
8
  6
HIDDEN
 10
323.444314759
 20
217.0534651832
 11
323.244314759
 21
217.0534651832
  0
LINE
  8
DEFAULT_2
 62
8
  6
HIDDEN
 10
323.444314759
 20
217.1071385777
 11
323.244314759
 21
217.1071385777
  0
LINE
  8
DEFAULT_2
 62
8
  6
HIDDEN
 10
323.444314759
 20
217.1566171333
 11
323.244314759
 21
217.1566171333
  0
LINE
  8
DEFAULT_2
 62
8
  6
HIDDEN
 10
323.444314759
 20
217.1659931178
 11
323.244314759
 21
217.1659931178
  0
LINE
  8
DEFAULT_2
 62
8
  6
HIDDEN
 10
323.444314759
 20
217.325904597
 11
323.244314759
 21
217.325904597
  0
LINE
  8
DEFAULT_2
 62
8
  6
HIDDEN
 10
323.444314759
 20
217.3540365325
 11
323.244314759
 21
217.3540365325
  0
LINE
  8
DEFAULT_2
 62
8
  6
HIDDEN
 10
323.444314759
 20
217.4691554573
 11
323.244314759
 21
217.4691554573
  0
LINE
  8
DEFAULT_2
 62
8
  6
HIDDEN
 10
323.444314759
 20
217.5373899639
 11
323.244314759
 21
217.5373899639
  0
LINE
  8
DEFAULT_2
 62
8
  6
HIDDEN
 10
315.2928632186
 20
217.5554932544
 11
306.9084444137
 21
217.5554932544
  0
LINE
  8
DEFAULT_2
 62
8
  6
HIDDEN
 10
289.9801851044
 20
217.5554932544
 11
281.5957662995
 21
217.5554932544
  0
LINE
  8
DEFAULT_2
 62
8
  6
HIDDEN
 10
323.444314759
 20
217.7127255149
 11
323.244314759
 21
217.7127255149
  0
LINE
  8
DEFAULT_2
 62
8
  6
HIDDEN
 10
323.444314759
 20
217.8994071003
 11
323.244314759
 21
217.8994071003
  0
LINE
  8
DEFAULT_2
 62
8
  6
HIDDEN
 10
323.444314759
 20
218.0968264995
 11
323.244314759
 21
218.0968264995
  0
LINE
  8
DEFAULT_2
 62
8
  6
HIDDEN
 10
323.444314759
 20
218.1757203657
 11
323.244314759
 21
218.1757203657
  0
LINE
  8
0
 62
9
  6
CONTINUOUS
 10
315.1234387469
 20
218.2237143442
 11
307.0778688853
 21
218.2237143442
  0
LINE
  8
0
 62
9
  6
CONTINUOUS
 10
289.8107606327
 20
218.2237143442
 11
281.7651907712
 21
218.2237143442
  0
LINE
  8
DEFAULT_2
 62
8
  6
HIDDEN
 10
323.444314759
 20
218.2567379786
 11
323.244314759
 21
218.2567379786
  0
LINE
  8
DEFAULT_2
 62
8
  6
HIDDEN
 10
323.444314759
 20
218.4286161114
 11
323.244314759
 21
218.4286161114
  0
LINE
  8
0
 62
9
  6
CONTINUOUS
 10
315.644314759
 20
218.4961320097
 11
315.2108350372
 21
218.4961320097
  0
LINE
  8
DEFAULT_2
 62
8
  6
HIDDEN
 10
315.2108350372
 20
218.4961320097
 11
306.9904725951
 21
218.4961320097
  0
LINE
  8
0
 62
9
  6
CONTINUOUS
 10
306.9904725951
 20
218.4961320097
 11
306.644314759
 21
218.4961320097
  0
LINE
  8
0
 62
9
  6
CONTINUOUS
 10
290.244314759
 20
218.4961320097
 11
289.898156923
 21
218.4961320097
  0
LINE
  8
DEFAULT_2
 62
8
  6
HIDDEN
 10
289.898156923
 20
218.4961320097
 11
281.6777944809
 21
218.4961320097
  0
LINE
  8
0
 62
9
  6
CONTINUOUS
 10
281.6777944809
 20
218.4961320097
 11
281.244314759
 21
218.4961320097
  0
LINE
  8
DEFAULT_2
 62
8
  6
HIDDEN
 10
323.444314759
 20
218.6093788737
 11
323.244314759
 21
218.6093788737
  0
LINE
  8
DEFAULT_2
 62
8
  6
HIDDEN
 10
323.444314759
 20
218.7198095494
 11
323.244314759
 21
218.7198095494
  0
LINE
  8
DEFAULT_2
 62
8
  6
HIDDEN
 10
323.444314759
 20
218.9786764056
 11
323.244314759
 21
218.9786764056
  0
LINE
  8
DEFAULT_2
 62
8
  6
HIDDEN
 10
315.1664729808
 20
219.0048246172
 11
307.0348346515
 21
219.0048246172
  0
LINE
  8
DEFAULT_2
 62
8
  6
HIDDEN
 10
289.8537948666
 20
219.0048246172
 11
281.7221565373
 21
219.0048246172
  0
LINE
  8
0
 62
7
  6
CONTINUOUS
 10
281.7442584382
 20
219.1387992135
 11
289.8316929657
 21
219.1387992135
  0
LINE
  8
0
 62
7
  6
CONTINUOUS
 10
307.0569365524
 20
219.1387992135
 11
315.1443710799
 21
219.1387992135
  0
LINE
  8
DEFAULT_2
 62
8
  6
HIDDEN
 10
323.444314759
 20
219.2464259004
 11
323.244314759
 21
219.2464259004
  0
LINE
  8
DEFAULT_2
 62
8
  6
HIDDEN
 10
323.444314759
 20
219.2560410957
 11
323.244314759
 21
219.2560410957
  0
LINE
  8
DEFAULT_2
 62
8
  6
HIDDEN
 10
323.444314759
 20
219.8733669747
 11
323.244314759
 21
219.8733669747
  0
LINE
  8
DEFAULT_2
 62
8
  6
HIDDEN
 10
323.444314759
 20
220.0668583851
 11
323.244314759
 21
220.0668583851
  0
LINE
  8
DEFAULT_2
 62
8
  6
HIDDEN
 10
323.444314759
 20
220.2621506823
 11
323.244314759
 21
220.2621506823
  0
LINE
  8
DEFAULT_2
 62
8
  6
HIDDEN
 10
323.444314759
 20
220.9536885877
 11
323.244314759
 21
220.9536885877
  0
LINE
  8
DEFAULT_2
 62
8
  6
HIDDEN
 10
323.444314759
 20
221.3341393353
 11
323.244314759
 21
221.3341393353
  0
LINE
  8
DEFAULT_2
 62
8
  6
HIDDEN
 10
323.444314759
 20
221.4166834386
 11
323.244314759
 21
221.4166834386
  0
LINE
  8
DEFAULT_2
 62
8
  6
HIDDEN
 10
323.444314759
 20
221.8916560622
 11
323.244314759
 21
221.8916560622
  0
LINE
  8
DEFAULT_2
 62
8
  6
HIDDEN
 10
323.444314759
 20
221.9716598868
 11
323.244314759
 21
221.9716598868
  0
LINE
  8
DEFAULT_2
 62
8
  6
HIDDEN
 10
323.444314759
 20
222.3687153517
 11
323.244314759
 21
222.3687153517
  0
LINE
  8
DEFAULT_2
 62
8
  6
HIDDEN
 10
323.444314759
 20
222.4329680042
 11
323.244314759
 21
222.4329680042
  0
LINE
  8
DEFAULT_2
 62
8
  6
HIDDEN
 10
323.444314759
 20
223.1274602805
 11
323.244314759
 21
223.1274602805
  0
LINE
  8
DEFAULT_2
 62
8
  6
HIDDEN
 10
323.444314759
 20
223.9330460082
 11
323.244314759
 21
223.9330460082
  0
LINE
  8
DEFAULT_2
 62
8
  6
HIDDEN
 10
323.444314759
 20
224.2216406019
 11
323.244314759
 21
224.2216406019
  0
LINE
  8
DEFAULT_2
 62
8
  6
HIDDEN
 10
323.444314759
 20
224.4324314619
 11
323.244314759
 21
224.4324314619
  0
LINE
  8
DEFAULT_2
 62
8
  6
HIDDEN
 10
323.444314759
 20
224.6186960667
 11
323.244314759
 21
224.6186960667
  0
LINE
  8
DEFAULT_2
 62
8
  6
HIDDEN
 10
323.444314759
 20
224.6696242841
 11
323.244314759
 21
224.6696242841
  0
LINE
  8
DEFAULT_2
 62
8
  6
HIDDEN
 10
323.444314759
 20
225.2565644768
 11
323.244314759
 21
225.2565644768
  0
LINE
  8
DEFAULT_2
 62
8
  6
HIDDEN
 10
323.444314759
 20
225.4424345347
 11
323.244314759
 21
225.4424345347
  0
LINE
  8
DEFAULT_2
 62
8
  6
HIDDEN
 10
315.644314759
 20
225.5956377105
 11
306.644314759
 21
225.5956377105
  0
LINE
  8
DEFAULT_2
 62
8
  6
HIDDEN
 10
290.244314759
 20
225.5956377105
 11
281.244314759
 21
225.5956377105
  0
LINE
  8
DEFAULT_2
 62
8
  6
HIDDEN
 10
323.444314759
 20
225.6235978564
 11
323.244314759
 21
225.6235978564
  0
LINE
  8
DEFAULT_2
 62
8
  6
HIDDEN
 10
323.444314759
 20
226.1369259279
 11
323.244314759
 21
226.1369259279
  0
LINE
  8
DEFAULT_2
 62
8
  6
HIDDEN
 10
323.444314759
 20
227.67317782
 11
323.244314759
 21
227.67317782
  0
LINE
  8
DEFAULT_2
 62
8
  6
HIDDEN
 10
323.444314759
 20
227.9140933321
 11
323.244314759
 21
227.9140933321
  0
LINE
  8
DEFAULT_2
 62
8
  6
HIDDEN
 10
323.444314759
 20
227.9521761208
 11
323.244314759
 21
227.9521761208
  0
LINE
  8
DEFAULT_2
 62
8
  6
HIDDEN
 10
323.444314759
 20
228.1206810107
 11
323.244314759
 21
228.1206810107
  0
LINE
  8
DEFAULT_2
 62
8
  6
HIDDEN
 10
323.444314759
 20
228.3101162093
 11
323.244314759
 21
228.3101162093
  0
LINE
  8
DEFAULT_2
 62
8
  6
HIDDEN
 10
323.444314759
 20
228.521543067
 11
323.244314759
 21
228.521543067
  0
LINE
  8
DEFAULT_2
 62
8
  6
HIDDEN
 10
323.444314759
 20
228.6500885496
 11
323.244314759
 21
228.6500885496
  0
LINE
  8
DEFAULT_2
 62
8
  6
HIDDEN
 10
323.444314759
 20
229.2826800452
 11
323.244314759
 21
229.2826800452
  0
LINE
  8
DEFAULT_2
 62
8
  6
HIDDEN
 10
323.444314759
 20
229.3541024641
 11
273.444314759
 21
229.3541024641
  0
LINE
  8
DEFAULT_2
 62
8
  6
HIDDEN
 10
323.444314759
 20
229.494107024
 11
323.244314759
 21
229.494107024
  0
LINE
  8
DEFAULT_2
 62
8
  6
HIDDEN
 10
323.444314759
 20
229.805055909
 11
323.244314759
 21
229.805055909
  0
LINE
  8
DEFAULT_2
 62
8
  6
HIDDEN
 10
323.444314759
 20
229.9697017221
 11
323.244314759
 21
229.9697017221
  0
LINE
  8
DEFAULT_2
 62
8
  6
HIDDEN
 10
323.444314759
 20
230.0842857909
 11
323.244314759
 21
230.0842857909
  0
LINE
  8
DEFAULT_2
 62
8
  6
HIDDEN
 10
323.444314759
 20
230.0972355945
 11
273.444314759
 21
230.0972355945
  0
LINE
  8
DEFAULT_2
 62
8
  6
HIDDEN
 10
323.444314759
 20
230.3233561635
 11
323.244314759
 21
230.3233561635
  0
LINE
  8
DEFAULT_2
 62
8
  6
HIDDEN
 10
323.444314759
 20
230.3319224261
 11
323.244314759
 21
230.3319224261
  0
LINE
  8
DEFAULT_2
 62
8
  6
HIDDEN
 10
323.444314759
 20
230.3806481508
 11
323.244314759
 21
230.3806481508
  0
LINE
  8
DEFAULT_2
 62
8
  6
HIDDEN
 10
323.444314759
 20
230.4636390672
 11
323.244314759
 21
230.4636390672
  0
LINE
  8
DEFAULT_2
 62
8
  6
HIDDEN
 10
323.444314759
 20
230.5926494741
 11
323.244314759
 21
230.5926494741
  0
LINE
  8
DEFAULT_2
 62
8
  6
HIDDEN
 10
323.444314759
 20
230.6098162628
 11
323.244314759
 21
230.6098162628
  0
LINE
  8
DEFAULT_2
 62
8
  6
HIDDEN
 10
323.444314759
 20
230.6513117553
 11
323.244314759
 21
230.6513117553
  0
LINE
  8
DEFAULT_2
 62
8
  6
HIDDEN
 10
323.444314759
 20
230.718506016
 11
323.244314759
 21
230.718506016
  0
LINE
  8
DEFAULT_2
 62
8
  6
HIDDEN
 10
323.444314759
 20
230.8040763319
 11
323.244314759
 21
230.8040763319
  0
LINE
  8
DEFAULT_2
 62
8
  6
HIDDEN
 10
323.444314759
 20
230.8159575213
 11
323.244314759
 21
230.8159575213
  0
LINE
  8
DEFAULT_2
 62
8
  6
HIDDEN
 10
323.444314759
 20
230.8245237516
 11
323.244314759
 21
230.8245237516
  0
LINE
  8
DEFAULT_2
 62
8
  6
HIDDEN
 10
323.444314759
 20
230.9562403926
 11
323.244314759
 21
230.9562403926
  0
LINE
  8
DEFAULT_2
 62
8
  6
HIDDEN
 10
323.444314759
 20
230.9634706934
 11
323.244314759
 21
230.9634706934
  0
LINE
  8
DEFAULT_2
 62
8
  6
HIDDEN
 10
323.444314759
 20
231.0635941703
 11
323.244314759
 21
231.0635941703
  0
LINE
  8
DEFAULT_2
 62
8
  6
HIDDEN
 10
323.444314759
 20
231.2356012606
 11
323.244314759
 21
231.2356012606
  0
LINE
  8
DEFAULT_2
 62
8
  6
HIDDEN
 10
323.444314759
 20
231.2670634445
 11
323.244314759
 21
231.2670634445
  0
LINE
  8
DEFAULT_2
 62
8
  6
HIDDEN
 10
323.444314759
 20
231.3342576944
 11
323.244314759
 21
231.3342576944
  0
LINE
  8
DEFAULT_2
 62
8
  6
HIDDEN
 10
323.444314759
 20
231.4425971592
 11
323.244314759
 21
231.4425971592
  0
LINE
  8
DEFAULT_2
 62
8
  6
HIDDEN
 10
323.444314759
 20
231.4470283603
 11
323.244314759
 21
231.4470283603
  0
LINE
  8
DEFAULT_2
 62
8
  6
HIDDEN
 10
323.444314759
 20
231.5318326383
 11
323.244314759
 21
231.5318326383
  0
LINE
  8
DEFAULT_2
 62
8
  6
HIDDEN
 10
323.444314759
 20
231.638286665
 11
323.244314759
 21
231.638286665
  0
LINE
  8
DEFAULT_2
 62
8
  6
HIDDEN
 10
323.444314759
 20
231.6835126713
 11
323.244314759
 21
231.6835126713
  0
LINE
  8
DEFAULT_2
 62
8
  6
HIDDEN
 10
323.444314759
 20
231.7695670629
 11
323.244314759
 21
231.7695670629
  0
LINE
  8
DEFAULT_2
 62
8
  6
HIDDEN
 10
323.444314759
 20
231.771865679
 11
323.244314759
 21
231.771865679
  0
LINE
  8
DEFAULT_2
 62
8
  6
HIDDEN
 10
323.444314759
 20
231.8110624367
 11
323.244314759
 21
231.8110624367
  0
LINE
  8
DEFAULT_2
 62
8
  6
HIDDEN
 10
323.444314759
 20
231.9631239837
 11
323.244314759
 21
231.9631239837
  0
LINE
  8
DEFAULT_2
 62
8
  6
HIDDEN
 10
323.444314759
 20
231.9765696858
 11
323.244314759
 21
231.9765696858
  0
LINE
  8
DEFAULT_2
 62
8
  6
HIDDEN
 10
323.444314759
 20
232.0457465582
 11
323.244314759
 21
232.0457465582
  0
LINE
  8
DEFAULT_2
 62
8
  6
HIDDEN
 10
323.444314759
 20
232.1719471849
 11
323.244314759
 21
232.1719471849
  0
LINE
  8
DEFAULT_2
 62
8
  6
HIDDEN
 10
323.444314759
 20
232.2014423665
 11
323.244314759
 21
232.2014423665
  0
LINE
  8
DEFAULT_2
 62
8
  6
HIDDEN
 10
323.444314759
 20
232.2658446291
 11
323.244314759
 21
232.2658446291
  0
LINE
  8
DEFAULT_2
 62
8
  6
HIDDEN
 10
323.444314759
 20
232.3148529485
 11
323.244314759
 21
232.3148529485
  0
LINE
  8
DEFAULT_2
 62
8
  6
HIDDEN
 10
323.444314759
 20
232.3302467708
 11
323.244314759
 21
232.3302467708
  0
LINE
  8
DEFAULT_2
 62
8
  6
HIDDEN
 10
323.444314759
 20
232.3365929626
 11
323.244314759
 21
232.3365929626
  0
LINE
  8
DEFAULT_2
 62
8
  6
HIDDEN
 10
323.444314759
 20
232.5262798062
 11
323.244314759
 21
232.5262798062
  0
LINE
  8
DEFAULT_2
 62
8
  6
HIDDEN
 10
323.444314759
 20
232.5772362458
 11
323.244314759
 21
232.5772362458
  0
LINE
  8
DEFAULT_2
 62
8
  6
HIDDEN
 10
323.444314759
 20
232.6205409295
 11
323.244314759
 21
232.6205409295
  0
LINE
  8
DEFAULT_2
 62
8
  6
HIDDEN
 10
323.444314759
 20
232.6819756146
 11
323.244314759
 21
232.6819756146
  0
LINE
  8
DEFAULT_2
 62
8
  6
HIDDEN
 10
323.444314759
 20
232.7463778772
 11
323.244314759
 21
232.7463778772
  0
LINE
  8
DEFAULT_2
 62
8
  6
HIDDEN
 10
323.444314759
 20
232.7953861966
 11
323.244314759
 21
232.7953861966
  0
LINE
  8
DEFAULT_2
 62
8
  6
HIDDEN
 10
323.444314759
 20
232.8614564417
 11
323.244314759
 21
232.8614564417
  0
LINE
  8
DEFAULT_2
 62
8
  6
HIDDEN
 10
323.444314759
 20
233.1269463663
 11
323.244314759
 21
233.1269463663
  0
LINE
  8
DEFAULT_2
 62
8
  6
HIDDEN
 10
323.444314759
 20
233.2095126497
 11
323.244314759
 21
233.2095126497
  0
LINE
  8
DEFAULT_2
 62
8
  6
HIDDEN
 10
323.444314759
 20
233.338373345
 11
323.244314759
 21
233.338373345
  0
LINE
  8
DEFAULT_2
 62
8
  6
HIDDEN
 10
323.444314759
 20
233.4504281619
 11
323.244314759
 21
233.4504281619
  0
LINE
  8
0
 62
9
  6
CONTINUOUS
 10
281.244314759
 20
233.780646174
 11
290.244314759
 21
233.780646174
  0
LINE
  8
0
 62
9
  6
CONTINUOUS
 10
306.644314759
 20
233.780646174
 11
315.644314759
 21
233.780646174
  0
LINE
  8
DEFAULT_2
 62
8
  6
HIDDEN
 10
323.444314759
 20
233.8117248565
 11
323.244314759
 21
233.8117248565
  0
LINE
  8
DEFAULT_2
 62
8
  6
HIDDEN
 10
281.244314759
 20
233.8720900717
 11
290.244314759
 21
233.8720900717
  0
LINE
  8
DEFAULT_2
 62
8
  6
HIDDEN
 10
306.644314759
 20
233.8720900717
 11
315.644314759
 21
233.8720900717
  0
LINE
  8
DEFAULT_2
 62
8
  6
HIDDEN
 10
323.444314759
 20
233.9763706696
 11
323.244314759
 21
233.9763706696
  0
LINE
  8
DEFAULT_2
 62
8
  6
HIDDEN
 10
281.244314759
 20
234.0519370944
 11
290.244314759
 21
234.0519370944
  0
LINE
  8
DEFAULT_2
 62
8
  6
HIDDEN
 10
306.644314759
 20
234.0519370944
 11
315.644314759
 21
234.0519370944
  0
LINE
  8
DEFAULT_2
 62
8
  6
HIDDEN
 10
281.244314759
 20
234.0931083262
 11
290.244314759
 21
234.0931083262
  0
LINE
  8
DEFAULT_2
 62
8
  6
HIDDEN
 10
306.644314759
 20
234.0931083262
 11
315.644314759
 21
234.0931083262
  0
LINE
  8
0
 62
7
  6
CONTINUOUS
 10
281.244314759
 20
234.1626121852
 11
290.244314759
 21
234.1626121852
  0
LINE
  8
0
 62
7
  6
CONTINUOUS
 10
306.644314759
 20
234.1626121852
 11
315.644314759
 21
234.1626121852
  0
LINE
  8
DEFAULT_2
 62
8
  6
HIDDEN
 10
323.444314759
 20
234.6349537688
 11
323.244314759
 21
234.6349537688
  0
LINE
  8
DEFAULT_2
 62
8
  6
HIDDEN
 10
323.444314759
 20
234.7995995466
 11
323.244314759
 21
234.7995995466
  0
LINE
  8
DEFAULT_2
 62
8
  6
HIDDEN
 10
281.244314759
 20
235.2540485947
 11
290.244314759
 21
235.2540485947
  0
LINE
  8
DEFAULT_2
 62
8
  6
HIDDEN
 10
306.644314759
 20
235.2540485947
 11
315.644314759
 21
235.2540485947
  0
LINE
  8
DEFAULT_2
 62
8
  6
HIDDEN
 10
322.944314759
 20
236.3371976137
 11
323.444314759
 21
236.3371976137
  0
LINE
  8
DEFAULT_2
 62
8
  6
HIDDEN
 10
273.444314759
 20
236.5761689396
 11
322.944314759
 21
236.5761689396
  0
LINE
  8
DEFAULT_2
 62
8
  6
HIDDEN
 10
281.244314759
 20
237.4083410387
 11
290.244314759
 21
237.4083410387
  0
LINE
  8
DEFAULT_2
 62
8
  6
HIDDEN
 10
306.644314759
 20
237.4083410387
 11
315.644314759
 21
237.4083410387
  0
LINE
  8
0
 62
9
  6
CONTINUOUS
 10
281.244314759
 20
238.8443276805
 11
290.244314759
 21
238.8443276805
  0
LINE
  8
0
 62
9
  6
CONTINUOUS
 10
306.644314759
 20
238.8443276805
 11
315.644314759
 21
238.8443276805
  0
LINE
  8
DEFAULT_2
 62
8
  6
HIDDEN
 10
281.244314759
 20
239.0665182352
 11
290.244314759
 21
239.0665182352
  0
LINE
  8
DEFAULT_2
 62
8
  6
HIDDEN
 10
306.644314759
 20
239.0665182352
 11
315.644314759
 21
239.0665182352
  0
LINE
  8
DEFAULT_1
 62
2
  6
CENTER
 10
328.444314759
 20
239.9689260429
 11
317.944314759
 21
239.9689260429
  0
LINE
  8
DEFAULT_2
 62
8
  6
HIDDEN
 10
315.644314759
 20
242.4372317435
 11
306.644314759
 21
242.4372317435
  0
LINE
  8
DEFAULT_2
 62
8
  6
HIDDEN
 10
290.244314759
 20
242.4372317435
 11
281.244314759
 21
242.4372317435
  0
LINE
  8
DEFAULT_2
 62
8
  6
HIDDEN
 10
315.2928632186
 20
242.9563077381
 11
306.9084444137
 21
242.9563077381
  0
LINE
  8
DEFAULT_2
 62
8
  6
HIDDEN
 10
289.9801851044
 20
242.9563077381
 11
281.5957662995
 21
242.9563077381
  0
LINE
  8
DEFAULT_2
 62
8
  6
HIDDEN
 10
322.944314759
 20
243.9689260429
 11
323.444314759
 21
243.9689260429
  0
POLYLINE
  8
DEFAULT_2
 62
8
  6
HIDDEN
 66
1
 70
0
  0
VERTEX
  8
DEFAULT_2
 62
8
  6
HIDDEN
 10
281.631265599
 20
247.7239751201
  0
VERTEX
  8
DEFAULT_2
 62
8
  6
HIDDEN
 10
281.6250142457
 20
247.7224220707
  0
VERTEX
  8
DEFAULT_2
 62
8
  6
HIDDEN
 10
281.5611485363
 20
247.5524464433
  0
VERTEX
  8
DEFAULT_2
 62
8
  6
HIDDEN
 10
281.4900537793
 20
247.1045972382
  0
VERTEX
  8
DEFAULT_2
 62
8
  6
HIDDEN
 10
281.4127533912
 20
246.3873125743
  0
VERTEX
  8
DEFAULT_2
 62
8
  6
HIDDEN
 10
281.330405741
 20
245.4141132086
  0
VERTEX
  8
DEFAULT_2
 62
8
  6
HIDDEN
 10
281.244314759
 20
244.2033994196
  0
SEQEND
  0
LINE
  8
DEFAULT_2
 62
8
  6
HIDDEN
 10
315.1664729808
 20
244.8958916853
 11
307.0348346515
 21
244.8958916853
  0
LINE
  8
DEFAULT_2
 62
8
  6
HIDDEN
 10
289.8537948666
 20
244.8958916853
 11
281.7221565373
 21
244.8958916853
  0
LINE
  8
0
 62
7
  6
CONTINUOUS
 10
306.644314759
 20
246.4689260429
 11
290.244314759
 21
246.4689260429
  0
LINE
  8
0
 62
7
  6
CONTINUOUS
 10
275.444314759
 20
246.4689260429
 11
281.244314759
 21
246.4689260429
  0
LINE
  8
0
 62
7
  6
CONTINUOUS
 10
315.644314759
 20
246.4689260429
 11
321.444314759
 21
246.4689260429
  0
LINE
  8
DEFAULT_2
 62
8
  6
HIDDEN
 10
315.1234387469
 20
246.560417771
 11
307.0778688853
 21
246.560417771
  0
LINE
  8
DEFAULT_2
 62
8
  6
HIDDEN
 10
289.8107606327
 20
246.560417771
 11
281.7651907712
 21
246.560417771
  0
LINE
  8
0
 62
9
  6
CONTINUOUS
 10
315.644314759
 20
246.7964574145
 11
306.644314759
 21
246.7964574145
  0
LINE
  8
0
 62
9
  6
CONTINUOUS
 10
290.244314759
 20
246.7964574145
 11
281.244314759
 21
246.7964574145
  0
LINE
  8
DEFAULT_2
 62
8
  6
HIDDEN
 10
281.6312672866
 20
247.7239751201
 11
289.9446841173
 21
247.7239751201
  0
LINE
  8
DEFAULT_2
 62
8
  6
HIDDEN
 10
306.9439454008
 20
247.7239751201
 11
315.2573622315
 21
247.7239751201
  0
LINE
  8
DEFAULT_2
 62
8
  6
HIDDEN
 10
281.244314759
 20
249.3892625251
 11
290.244314759
 21
249.3892625251
  0
LINE
  8
DEFAULT_2
 62
8
  6
HIDDEN
 10
306.644314759
 20
249.3892625251
 11
315.644314759
 21
249.3892625251
  0
LINE
  8
DEFAULT_2
 62
8
  6
HIDDEN
 10
281.244314759
 20
250.782119668
 11
290.244314759
 21
250.782119668
  0
LINE
  8
DEFAULT_2
 62
8
  6
HIDDEN
 10
306.644314759
 20
250.782119668
 11
315.644314759
 21
250.782119668
  0
LINE
  8
DEFAULT_2
 62
8
  6
HIDDEN
 10
315.644314759
 20
251.6392625251
 11
306.644314759
 21
251.6392625251
  0
LINE
  8
DEFAULT_2
 62
8
  6
HIDDEN
 10
290.244314759
 20
251.6392625251
 11
281.244314759
 21
251.6392625251
  0
POLYLINE
  8
DEFAULT_2
 62
8
  6
HIDDEN
 66
1
 70
0
  0
VERTEX
  8
DEFAULT_2
 62
8
  6
HIDDEN
 10
315.2573639191
 20
247.7239751201
  0
VERTEX
  8
DEFAULT_2
 62
8
  6
HIDDEN
 10
315.2636152724
 20
247.7224220707
  0
VERTEX
  8
DEFAULT_2
 62
8
  6
HIDDEN
 10
315.3274809818
 20
247.5524464433
  0
VERTEX
  8
DEFAULT_2
 62
8
  6
HIDDEN
 10
315.3985757388
 20
247.1045972382
  0
VERTEX
  8
DEFAULT_2
 62
8
  6
HIDDEN
 10
315.4758761268
 20
246.3873125743
  0
VERTEX
  8
DEFAULT_2
 62
8
  6
HIDDEN
 10
315.558223777
 20
245.4141132086
  0
VERTEX
  8
DEFAULT_2
 62
8
  6
HIDDEN
 10
315.644314759
 20
244.2033994196
  0
SEQEND
  0
LINE
  8
DEFAULT_2
 62
8
  6
HIDDEN
 10
281.244314759
 20
252.4125539854
 11
290.244314759
 21
252.4125539854
  0
LINE
  8
DEFAULT_2
 62
8
  6
HIDDEN
 10
306.644314759
 20
252.4125539854
 11
315.644314759
 21
252.4125539854
  0
LINE
  8
DEFAULT_2
 62
8
  6
HIDDEN
 10
315.644314759
 20
254.3510323995
 11
306.644314759
 21
254.3510323995
  0
LINE
  8
DEFAULT_2
 62
8
  6
HIDDEN
 10
290.244314759
 20
254.3510323995
 11
281.244314759
 21
254.3510323995
  0
LINE
  8
DEFAULT_2
 62
8
  6
HIDDEN
 10
315.2928632186
 20
261.4281079144
 11
306.9084444137
 21
261.4281079144
  0
LINE
  8
DEFAULT_2
 62
8
  6
HIDDEN
 10
289.9801851044
 20
261.4281079144
 11
281.5957662995
 21
261.4281079144
  0
LINE
  8
0
 62
9
  6
CONTINUOUS
 10
315.644314759
 20
261.7666917774
 11
315.2767032363
 21
261.7666917774
  0
LINE
  8
DEFAULT_2
 62
8
  6
HIDDEN
 10
315.2767032363
 20
261.7666917774
 11
306.924604396
 21
261.7666917774
  0
LINE
  8
0
 62
9
  6
CONTINUOUS
 10
306.924604396
 20
261.7666917774
 11
306.644314759
 21
261.7666917774
  0
LINE
  8
0
 62
9
  6
CONTINUOUS
 10
290.244314759
 20
261.7666917774
 11
289.9640251221
 21
261.7666917774
  0
LINE
  8
DEFAULT_2
 62
8
  6
HIDDEN
 10
289.9640251221
 20
261.7666917774
 11
281.6119262818
 21
261.7666917774
  0
LINE
  8
0
 62
9
  6
CONTINUOUS
 10
281.6119262818
 20
261.7666917774
 11
281.244314759
 21
261.7666917774
  0
LINE
  8
DEFAULT_2
 62
8
  6
HIDDEN
 10
315.1664729808
 20
264.0761680806
 11
307.0348346515
 21
264.0761680806
  0
LINE
  8
DEFAULT_2
 62
8
  6
HIDDEN
 10
289.8537948666
 20
264.0761680806
 11
281.7221565373
 21
264.0761680806
  0
LINE
  8
0
 62
9
  6
CONTINUOUS
 10
315.1234387469
 20
264.3237915037
 11
307.0778688853
 21
264.3237915037
  0
LINE
  8
0
 62
9
  6
CONTINUOUS
 10
289.8107606327
 20
264.3237915037
 11
281.7651907712
 21
264.3237915037
  0
LINE
  8
0
 62
7
  6
CONTINUOUS
 10
281.763369554
 20
264.6694314375
 11
289.8125818499
 21
264.6694314375
  0
LINE
  8
0
 62
7
  6
CONTINUOUS
 10
307.0760476682
 20
264.6694314375
 11
315.125259964
 21
264.6694314375
  0
LINE
  8
DEFAULT_2
 62
8
  6
HIDDEN
 10
315.2928632186
 20
271.1303557052
 11
306.9084444137
 21
271.1303557052
  0
LINE
  8
DEFAULT_2
 62
8
  6
HIDDEN
 10
289.9801851044
 20
271.1303557052
 11
281.5957662995
 21
271.1303557052
  0
LINE
  8
DEFAULT_2
 62
8
  6
HIDDEN
 10
315.1664729808
 20
273.9656756956
 11
307.0348346515
 21
273.9656756956
  0
LINE
  8
DEFAULT_2
 62
8
  6
HIDDEN
 10
289.8537948666
 20
273.9656756956
 11
281.7221565373
 21
273.9656756956
  0
LINE
  8
0
 62
9
  6
CONTINUOUS
 10
315.1234387469
 20
275.1474490836
 11
307.0778688853
 21
275.1474490836
  0
LINE
  8
0
 62
9
  6
CONTINUOUS
 10
289.8107606327
 20
275.1474490836
 11
281.7651907712
 21
275.1474490836
  0
LINE
  8
0
 62
7
  6
CONTINUOUS
 10
281.7677672068
 20
275.1735873864
 11
289.808184197
 21
275.1735873864
  0
LINE
  8
0
 62
7
  6
CONTINUOUS
 10
307.080445321
 20
275.1735873864
 11
315.1208623112
 21
275.1735873864
  0
ARC
  8
0
 62
7
  6
CONTINUOUS
 10
91.2339296902
 20
76.2380392792
 40
16.5
 50
348.0
 51
54.0
  0
ARC
  8
0
 62
7
  6
CONTINUOUS
 10
41.0480099967
 20
113.2434339682
 40
16.5
 50
312.0
 51
18.0
  0
ARC
  8
0
 62
7
  6
CONTINUOUS
 10
104.6142900693
 20
83.2035561199
 40
14.8
 50
283.1288554262
 51
356.0
  0
ARC
  8
0
 62
7
  6
CONTINUOUS
 10
55.9671770079
 20
111.0138769657
 40
14.8
 50
247.1288554262
 51
320.0
  0
ARC
  8
0
 62
7
  6
CONTINUOUS
 10
32.9573322686
 20
162.1069547731
 40
14.8
 50
211.1288554262
 51
284.0
  0
ARC
  8
0
 62
7
  6
CONTINUOUS
 10
97.0329930951
 20
125.8974581208
 40
6.0
 50
45.0
 51
78.1598440864
  0
ARC
  8
0
 62
7
  6
CONTINUOUS
 10
99.4951776185
 20
137.6421440414
 40
6.0
 50
225.0
 51
258.1598440864
  0
ARC
  8
0
 62
7
  6
CONTINUOUS
 10
88.7596348524
 20
148.3776868074
 40
6.0
 50
191.8401559136
 51
225.0
  0
ARC
  8
0
 62
7
  6
CONTINUOUS
 10
77.0149489318
 20
145.915502284
 40
6.0
 50
11.8401559136
 51
45.0
  0
ARC
  8
0
 62
7
  6
CONTINUOUS
 10
75.821685537
 20
106.5947437597
 40
3.25
 50
358.8499045791
 51
140.0
  0
ARC
  8
0
 62
7
  6
CONTINUOUS
 10
46.4224657572
 20
146.8616136041
 40
3.25
 50
322.8499045791
 51
104.0
  0
ARC
  8
0
 62
7
  6
CONTINUOUS
 10
81.0706278986
 20
106.4893678394
 40
2.0
 50
178.8499045789
 51
234.0
  0
ARC
  8
0
 62
7
  6
CONTINUOUS
 10
50.6070109184
 20
143.6911117835
 40
2.0
 50
142.8499045789
 51
198.0
  0
ARC
  8
0
 62
7
  6
CONTINUOUS
 10
107.7488468346
 20
69.7642646994
 40
1.0
 50
168.0
 51
283.1288554262
  0
ARC
  8
0
 62
7
  6
CONTINUOUS
 10
50.6036694026
 20
98.2988155751
 40
1.0
 50
132.0
 51
247.1288554262
  0
ARC
  8
0
 62
7
  6
CONTINUOUS
 10
21.1444378991
 20
154.9728446945
 40
1.0
 50
96.0
 51
211.1288554262
  0
ARC
  8
0
 62
7
  6
CONTINUOUS
 10
116.164229623
 20
113.9159962766
 40
0.9443458372
 50
355.4216527464
 51
45.0
  0
ARC
  8
0
 62
7
  6
CONTINUOUS
 10
65.0334870876
 20
165.046738812
 40
0.9443458372
 50
45.0
 51
94.5783472535
  0
ARC
  8
0
 62
7
  6
CONTINUOUS
 10
92.586416854
 20
268.1392625251
 40
16.5
 50
204.0
 51
270.0
  0
ARC
  8
0
 62
7
  6
CONTINUOUS
 10
41.8838930333
 20
231.8449124169
 40
16.5
 50
240.0
 51
306.0
  0
ARC
  8
0
 62
7
  6
CONTINUOUS
 10
22.1979733399
 20
172.6799706237
 40
16.5
 50
276.0
 51
342.0
  0
ARC
  8
0
 62
7
  6
CONTINUOUS
 10
85.85570599
 20
254.6392625251
 40
14.8
 50
139.1288554262
 51
212.0
  0
ARC
  8
0
 62
7
  6
CONTINUOUS
 10
44.373734466
 20
216.9669704095
 40
14.8
 50
175.1288554262
 51
248.0
  0
ARC
  8
0
 62
7
  6
CONTINUOUS
 10
64.4791739573
 20
171.9689260429
 40
6.0
 50
85.4216527464
 51
274.5783472535
  0
ARC
  8
0
 62
7
  6
CONTINUOUS
 10
77.0149489318
 20
198.0223498018
 40
6.0
 50
315.0
 51
348.1598440864
  0
ARC
  8
0
 62
7
  6
CONTINUOUS
 10
88.7596348524
 20
195.5601652784
 40
6.0
 50
135.0
 51
168.1598440864
  0
ARC
  8
0
 62
7
  6
CONTINUOUS
 10
99.4951776185
 20
206.2957080445
 40
6.0
 50
101.8401559136
 51
135.0
  0
ARC
  8
0
 62
7
  6
CONTINUOUS
 10
97.0329930951
 20
218.0403939651
 40
6.0
 50
281.8401559136
 51
315.0
  0
ARC
  8
0
 62
7
  6
CONTINUOUS
 10
46.3062695845
 20
196.718623434
 40
3.25
 50
286.8499045791
 51
68.0
  0
ARC
  8
0
 62
7
  6
CONTINUOUS
 10
75.5174800075
 20
237.1220900717
 40
3.25
 50
250.849904579
 51
32.0
  0
ARC
  8
0
 62
7
  6
CONTINUOUS
 10
122.8984074971
 20
252.6392625251
 40
3.25
 50
214.849904579
 51
356.0
  0
ARC
  8
0
 62
7
  6
CONTINUOUS
 10
47.8280635211
 20
191.6940196471
 40
2.0
 50
106.849904579
 51
162.0
  0
ARC
  8
0
 62
7
  6
CONTINUOUS
 10
73.7952491596
 20
232.1626121852
 40
2.0
 50
70.8499045791
 51
126.0
  0
ARC
  8
0
 62
7
  6
CONTINUOUS
 10
118.5899855122
 20
249.6392625251
 40
2.0
 50
34.8499045791
 51
90.0
  0
ARC
  8
0
 62
7
  6
CONTINUOUS
 10
75.4203789988
 20
263.6694314375
 40
1.0
 50
24.0
 51
139.1288554262
  0
ARC
  8
0
 62
7
  6
CONTINUOUS
 10
30.6235774759
 20
218.1387992135
 40
1.0
 50
60.0
 51
175.1288554262
  0
ARC
  8
0
 62
7
  6
CONTINUOUS
 10
65.0334870876
 20
178.8911132739
 40
0.9443458372
 50
265.4216527464
 51
315.0
  0
ARC
  8
0
 62
7
  6
CONTINUOUS
 10
116.164229623
 20
230.0218558093
 40
0.9443458372
 50
315.0
 51
4.5783472536
  0
ARC
  8
0
 62
7
  6
CONTINUOUS
 10
223.9748603681
 20
171.2578814622
 40
16.5
 50
96.0
 51
162.0
  0
ARC
  8
0
 62
7
  6
CONTINUOUS
 10
204.2889406746
 20
112.092939669
 40
16.5
 50
60.0
 51
126.0
  0
ARC
  8
0
 62
7
  6
CONTINUOUS
 10
153.586416854
 20
75.7985895608
 40
16.5
 50
24.0
 51
90.0
  0
ARC
  8
0
 62
7
  6
CONTINUOUS
 10
201.7990992419
 20
126.9708816764
 40
14.8
 50
355.1288554262
 51
68.0
  0
ARC
  8
0
 62
7
  6
CONTINUOUS
 10
160.317127718
 20
89.2985895608
 40
14.8
 50
319.1288554262
 51
32.0
  0
ARC
  8
0
 62
7
  6
CONTINUOUS
 10
169.1578847761
 20
145.915502284
 40
6.0
 50
135.0
 51
168.1598440864
  0
ARC
  8
0
 62
7
  6
CONTINUOUS
 10
157.4131988555
 20
148.3776868074
 40
6.0
 50
315.0
 51
348.1598440864
  0
ARC
  8
0
 62
7
  6
CONTINUOUS
 10
146.6776560894
 20
137.6421440414
 40
6.0
 50
281.8401559136
 51
315.0
  0
ARC
  8
0
 62
7
  6
CONTINUOUS
 10
149.1398406128
 20
125.8974581208
 40
6.0
 50
101.8401559136
 51
135.0
  0
ARC
  8
0
 62
7
  6
CONTINUOUS
 10
123.086416854
 20
113.3616831463
 40
6.0
 50
175.4216527464
 51
4.5783472536
  0
ARC
  8
0
 62
7
  6
CONTINUOUS
 10
199.8665641234
 20
147.2192286519
 40
3.25
 50
106.8499045791
 51
248.0
  0
ARC
  8
0
 62
7
  6
CONTINUOUS
 10
170.6553537004
 20
106.8157620142
 40
3.25
 50
70.849904579
 51
212.0
  0
ARC
  8
0
 62
7
  6
CONTINUOUS
 10
123.2744262108
 20
91.2985895608
 40
3.25
 50
34.849904579
 51
176.0
  0
ARC
  8
0
 62
7
  6
CONTINUOUS
 10
198.3447701868
 20
152.2438324388
 40
2.0
 50
286.849904579
 51
342.0
  0
ARC
  8
0
 62
7
  6
CONTINUOUS
 10
172.3775845483
 20
111.7752399007
 40
2.0
 50
250.8499045791
 51
306.0
  0
ARC
  8
0
 62
7
  6
CONTINUOUS
 10
127.5828481957
 20
94.2985895608
 40
2.0
 50
214.849904579
 51
270.0
  0
ARC
  8
0
 62
7
  6
CONTINUOUS
 10
215.549256232
 20
125.7990528724
 40
1.0
 50
240.0
 51
355.1288554262
  0
ARC
  8
0
 62
7
  6
CONTINUOUS
 10
170.7524547091
 20
80.2684206483
 40
1.0
 50
204.0
 51
319.1288554262
  0
ARC
  8
0
 62
7
  6
CONTINUOUS
 10
181.1393466203
 20
165.046738812
 40
0.9443458372
 50
85.4216527464
 51
135.0
  0
ARC
  8
0
 62
7
  6
CONTINUOUS
 10
130.0086040849
 20
113.9159962766
 40
0.9443458372
 50
135.0
 51
184.5783472536
  0
ARC
  8
0
 62
7
  6
CONTINUOUS
 10
123.086416854
 20
171.9689260429
 40
92.3490873421
 50
151.9832042349
 51
159.4614703885
  0
ARC
  8
0
 62
7
  6
CONTINUOUS
 10
123.086416854
 20
171.9689260429
 40
92.3490873421
 50
43.9832042349
 51
51.4614703885
  0
ARC
  8
0
 62
7
  6
CONTINUOUS
 10
123.086416854
 20
171.9689260429
 40
92.3490873421
 50
259.9832042349
 51
267.4614703885
  0
ARC
  8
0
 62
7
  6
CONTINUOUS
 10
123.086416854
 20
171.9689260429
 40
92.3490873421
 50
7.9832042349
 51
15.4614703885
  0
ARC
  8
0
 62
7
  6
CONTINUOUS
 10
123.086416854
 20
171.9689260429
 40
92.3490873421
 50
115.9832042349
 51
123.4614703885
  0
ARC
  8
0
 62
7
  6
CONTINUOUS
 10
123.086416854
 20
171.9689260429
 40
92.3490873421
 50
187.9832042349
 51
195.4614703885
  0
ARC
  8
0
 62
7
  6
CONTINUOUS
 10
123.086416854
 20
171.9689260429
 40
92.3490873421
 50
295.9832042349
 51
303.4614703885
  0
ARC
  8
0
 62
7
  6
CONTINUOUS
 10
123.086416854
 20
171.9689260429
 40
92.3490873421
 50
331.9832042349
 51
339.4614703885
  0
ARC
  8
0
 62
7
  6
CONTINUOUS
 10
123.086416854
 20
171.9689260429
 40
92.3490873421
 50
79.9832042349
 51
87.4614703885
  0
ARC
  8
0
 62
7
  6
CONTINUOUS
 10
123.086416854
 20
171.9689260429
 40
92.3490873421
 50
223.9832042349
 51
231.4614703885
  0
CIRCLE
  8
0
 62
7
  6
CONTINUOUS
 10
123.086416854
 20
171.9689260429
 40
74.5
  0
CIRCLE
  8
0
 62
9
  6
CONTINUOUS
 10
123.086416854
 20
171.9689260429
 40
72.5
  0
ARC
  8
0
 62
7
  6
CONTINUOUS
 10
149.1398406128
 20
218.0403939651
 40
6.0
 50
225.0
 51
258.1598440864
  0
ARC
  8
0
 62
7
  6
CONTINUOUS
 10
146.6776560894
 20
206.2957080445
 40
6.0
 50
45.0
 51
78.1598440864
  0
ARC
  8
0
 62
7
  6
CONTINUOUS
 10
157.4131988555
 20
195.5601652784
 40
6.0
 50
11.8401559136
 51
45.0
  0
ARC
  8
0
 62
7
  6
CONTINUOUS
 10
169.1578847761
 20
198.0223498018
 40
6.0
 50
191.8401559136
 51
225.0
  0
ARC
  8
0
 62
7
  6
CONTINUOUS
 10
154.9389040177
 20
267.6998128067
 40
16.5
 50
168.0
 51
234.0
  0
ARC
  8
0
 62
7
  6
CONTINUOUS
 10
141.5585436386
 20
260.7342959659
 40
14.8
 50
103.1288554262
 51
166.3482606516
  0
ARC
  8
0
 62
7
  6
CONTINUOUS
 10
123.086416854
 20
230.5761689396
 40
6.0
 50
355.4216527464
 51
184.5783472536
  0
ARC
  8
0
 62
7
  6
CONTINUOUS
 10
123.086416854
 20
239.9689260429
 40
4.0
 50
294.7788697832
 51
245.2211302168
  0
ARC
  8
0
 62
7
  6
CONTINUOUS
 10
170.3511481709
 20
237.3431083262
 40
3.25
 50
178.8499045791
 51
320.0
  0
ARC
  8
0
 62
7
  6
CONTINUOUS
 10
165.1022058093
 20
237.4484842465
 40
2.0
 50
358.8499045789
 51
54.0
  0
ARC
  8
0
 62
7
  6
CONTINUOUS
 10
138.4239868733
 20
274.1735873864
 40
1.0
 50
348.0
 51
103.1288554262
  0
ARC
  8
0
 62
7
  6
CONTINUOUS
 10
130.0086040849
 20
230.0218558093
 40
0.9443458372
 50
175.4216527464
 51
225.0
  0
ARC
  8
0
 62
7
  6
CONTINUOUS
 10
213.2155014393
 20
181.8308973128
 40
14.8
 50
31.1288554262
 51
94.3482606516
  0
ARC
  8
0
 62
7
  6
CONTINUOUS
 10
181.6936597506
 20
171.9689260429
 40
6.0
 50
265.4216527464
 51
94.5783472536
  0
ARC
  8
0
 62
7
  6
CONTINUOUS
 10
199.7503679507
 20
197.0762384818
 40
3.25
 50
142.849904579
 51
284.0
  0
ARC
  8
0
 62
7
  6
CONTINUOUS
 10
195.5658227895
 20
200.2467403024
 40
2.0
 50
322.849904579
 51
18.0
  0
ARC
  8
0
 62
7
  6
CONTINUOUS
 10
225.0283958088
 20
188.9650073914
 40
1.0
 50
276.0
 51
31.1288554262
  0
ARC
  8
0
 62
7
  6
CONTINUOUS
 10
181.1393466203
 20
178.8911132739
 40
0.9443458372
 50
225.0
 51
274.5783472536
  0
ARC
  8
0
 62
7
  6
CONTINUOUS
 10
205.1248237112
 20
230.6944181177
 40
16.5
 50
132.0
 51
198.0
  0
ARC
  8
0
 62
7
  6
CONTINUOUS
 10
190.2056567
 20
232.9239751201
 40
14.8
 50
67.1288554262
 51
130.3482606516
  0
ARC
  8
0
 62
7
  6
CONTINUOUS
 10
195.5691643053
 20
245.6390365108
 40
1.0
 50
312.0
 51
67.1288554262
  0
ARC
  8
0
 62
7
  6
CONTINUOUS
 10
275.444314759
 20
99.4689260429
 40
2.0
 50
180.0
 51
270.0
  0
ARC
  8
0
 62
7
  6
CONTINUOUS
 10
275.444314759
 20
244.4689260429
 40
2.0
 50
90.0
 51
180.0
  0
ARC
  8
0
 62
7
  6
CONTINUOUS
 10
321.444314759
 20
99.4689260429
 40
2.0
 50
270.0
 51
360.0
  0
ARC
  8
0
 62
7
  6
CONTINUOUS
 10
321.444314759
 20
244.4689260429
 40
2.0
 50
0.0
 51
90.0
  0
ENDSEC
  0
EOF
