  0
SECTION
  2
HEADER
  9
$EXTMAX
 10
594.0
 20
420.0
 30
0.0
  9
$EXTMIN
 10
0.0
 20
0.0
 30
0.0
  9
$LIMMIN
 10
0.0
 20
0.0
  9
$LIMMAX
 10
594.0
 20
420.0
  9
$VIEWCTR
 10
297.0
 20
210.0
  9
$VIEWSIZE
 40
420.0
  9
$CLAYER
  8
0
  9
$LTSCALE
 40
32.67
  9
$CELTYPE
  6
BYLAYER
  9
$DIMSCALE
 40
1.0
  9
$DIMASZ
 40
3.5
  9
$DIMEXO
 40
0.0
  9
$DIMDLI
 40
22.572
  9
$DIMEXE
 40
2.0
  9
$DIMCEN
 40
5.346
  9
$DIMLFAC
 40
1.0
  9
$DIMBLK
  1
_FILLED
  9
$DIMALT
 70
0
  9
$DIMALTF
 40
0.0393700787
  9
$DIMTXT
 40
3.5
  9
$AUNITS
 70
0
  9
$PDMODE
 70
3
  9
$PDSIZE
 40
0.3125
  9
$TILEMODE
 70
1
  0
ENDSEC
  0
SECTION
  2
TABLES
  0
TABLE
  2
LTYPE
 70
6
  0
LTYPE
  2
BYBLOCK
 70
0
  3

 72
65
 73
0
 40
0.0
  0
LTYPE
  2
BYLAYER
 70
0
  3

 72
65
 73
0
 40
0.0
  0
LTYPE
  2
CONTINUOUS
 70
64
  3
Solid line
 72
65
 73
0
 40
0.0
  0
LTYPE
  2
CENTER
 70
64
  3
____ _ ____ _ ____ _ ____ _ ____ _ ____ _ ____
 72
65
 73
4
 40
0.6
 49
0.375
 49
-0.075
 49
0.075
 49
-0.075
  0
LTYPE
  2
HIDDEN
 70
64
  3
- - - - - - - - - - - - - - - - - - - -
 72
65
 73
2
 40
0.2
 49
0.1
 49
-0.1
  0
LTYPE
  2
PHANTOM
 70
64
  3
_____ _ _ _____ _ _ _____ _ _ _____
 72
65
 73
6
 40
0.8
 49
0.45
 49
-0.05
 49
0.1
 49
-0.05
 49
0.1
 49
-0.05
  0
LTYPE
  2
DOT
 70
64
  3
. . . . . . . . . . . . . . . . . . . .
 72
65
 73
2
 40
0.2
 49
0.1
 49
-0.1
  0
LTYPE
  2
DASHED
 70
64
  3
- - - - - - - - - - - - - - - - - - - -
 72
65
 73
2
 40
0.2
 49
0.1
 49
-0.1
  0
ENDTAB
  0
TABLE
  2
LAYER
 70
36
  0
LAYER
  2
0
 70
0
 62
7
  6
CONTINUOUS
  0
LAYER
  2
DEFAULT_1
 70
0
 62
7
  6
CENTER
  0
LAYER
  2
DEFAULT_2
 70
0
 62
8
  6
HIDDEN
  0
LAYER
  2
DEFAULT_3
 70
0
 62
7
  6
PHANTOM
  0
LAYER
  2
1_CSYS
 70
0
 62
7
  6
CONTINUOUS
  0
LAYER
  2
1_DATUM_PLANE
 70
0
 62
7
  6
CONTINUOUS
  0
LAYER
  2
2_FEATURE
 70
0
 62
7
  6
CONTINUOUS
  0
LAYER
  2
6_DIM
 70
0
 62
7
  6
CONTINUOUS
  0
LAYER
  2
AXES
 70
0
 62
7
  6
CONTINUOUS
  0
LAYER
  2
BLANK_BELT
 70
0
 62
7
  6
CONTINUOUS
  0
LAYER
  2
BLANK_CURVE_BORE
 70
0
 62
7
  6
CONTINUOUS
  0
LAYER
  2
BLANK_PLAN
 70
0
 62
7
  6
CONTINUOUS
  0
LAYER
  2
BLANK_SQ
 70
0
 62
7
  6
CONTINUOUS
  0
LAYER
  2
CSYS
 70
0
 62
7
  6
CONTINUOUS
  0
LAYER
  2
DTM_AXES
 70
0
 62
7
  6
CONTINUOUS
  0
LAYER
  2
DTM_CRV
 70
0
 62
7
  6
CONTINUOUS
  0
LAYER
  2
NOTES
 70
0
 62
7
  6
CONTINUOUS
  0
LAYER
  2
OUTERLINE
 70
0
 62
7
  6
CONTINUOUS
  0
LAYER
  2
PITCH_LINE
 70
0
 62
7
  6
CONTINUOUS
  0
LAYER
  2
PLANES
 70
0
 62
7
  6
CONTINUOUS
  0
LAYER
  2
QUILTS
 70
0
 62
7
  6
CONTINUOUS
  0
ENDTAB
  0
TABLE
  2
STYLE
 70
1
  0
STYLE
  2
STANDARD
 70
0
 40
0.0
 41
0.8
 50
0.0
 71
0
 42
0.2
  3
txt
  4

  0
STYLE
  2
TEXTSTYLE_1
 70
0
 40
0.0
 41
0.8
 50
0.0
 71
0
 42
0.2
  3
gdt
  4

  0
STYLE
  2
TEXTSTYLE_2
 70
0
 40
0.0
 41
0.6
 50
0.0
 71
0
 42
0.2
  3
txt
  4

  0
STYLE
  2
TEXTSTYLE_3
 70
0
 40
0.0
 41
1.0
 50
0.0
 71
0
 42
0.2
  3
ftb_____.ttf
  4

  0
STYLE
  2
TEXTSTYLE_4
 70
0
 40
0.0
 41
1.0
 50
0.0
 71
0
 42
0.2
  3
fti_____.ttf
  4

  0
STYLE
  2
TEXTSTYLE_5
 70
0
 40
0.0
 41
1.0
 50
0.0
 71
0
 42
0.2
  3
frutiger light.ttf
  4

  0
STYLE
  2
TEXTSTYLE_6
 70
0
 40
0.0
 41
0.7
 50
0.0
 71
0
 42
0.2
  3
txt
  4

  0
STYLE
  2
TEXTSTYLE_7
 70
0
 40
0.0
 41
0.8
 50
0.0
 71
0
 42
0.2
  3
txt
  4

  0
ENDTAB
  0
ENDSEC
  0
SECTION
  2
BLOCKS
  0
BLOCK
  8
0
 62
2
  6
CONTINUOUS
  2
UNI_LOGO2_BL1
 70
64
 10
557.4079930916
 20
35.8092573885
  0
TEXT
  8
0
 62
7
  6
CONTINUOUS
 10
548.4662781001
 20
30.9020137655
  7
TEXTSTYLE_4
 40
1.0655737705
  1
The brand for plastic modular belts and chains
 41
1.0
 72
0
  0
LINE
  8
0
 62
7
  6
CONTINUOUS
 10
533.3860614807
 20
36.3830278803
 11
533.3860614807
 21
34.2518803393
  0
LINE
  8
0
 62
7
  6
CONTINUOUS
 10
533.6751239738
 20
31.2609490436
 11
533.6751239738
 21
31.3577401029
  0
LINE
  8
0
 62
7
  6
CONTINUOUS
 10
533.3860614807
 20
31.3254764164
 11
533.4438739824
 21
31.1318942979
  0
LINE
  8
0
 62
7
  6
CONTINUOUS
 10
534.7795041036
 20
34.1699131262
 11
534.7795041036
 21
36.3830278803
  0
LINE
  8
0
 62
7
  6
CONTINUOUS
 10
535.6985614255
 20
32.3256508311
 11
535.6985614255
 21
30.8092573885
  0
LINE
  8
0
 62
7
  6
CONTINUOUS
 10
535.9876239807
 20
30.8092573885
 11
535.9876239807
 21
31.5513222666
  0
LINE
  8
0
 62
7
  6
CONTINUOUS
 10
535.9876239807
 20
31.6803770123
 11
535.9876239807
 21
32.3256508311
  0
LINE
  8
0
 62
7
  6
CONTINUOUS
 10
533.4438739824
 20
31.5190585802
 11
533.3860614807
 21
31.3254764164
  0
LINE
  8
0
 62
7
  6
CONTINUOUS
 10
533.7907489669
 20
31.0996306115
 11
533.6751239738
 21
31.2609490436
  0
LINE
  8
0
 62
7
  6
CONTINUOUS
 10
534.8891865358
 20
31.6158496394
 11
534.9469989807
 21
31.5190585802
  0
LINE
  8
0
 62
7
  6
CONTINUOUS
 10
535.2360615358
 20
31.5190585802
 11
535.1782489255
 21
31.6481133259
  0
LINE
  8
0
 62
7
  6
CONTINUOUS
 10
536.6647500053
 20
36.3830278803
 11
536.6647500053
 21
34.5797491918
  0
LINE
  8
0
 62
7
  6
CONTINUOUS
 10
536.6647500053
 20
33.2682737819
 11
536.6647500053
 21
32.612536077
  0
LINE
  8
0
 62
7
  6
CONTINUOUS
 10
537.0282489807
 20
31.4545312073
 11
537.0282489807
 21
30.8092573885
  0
LINE
  8
0
 62
7
  6
CONTINUOUS
 10
537.3173113704
 20
30.8092573885
 11
537.3173113704
 21
31.4545312073
  0
LINE
  8
0
 62
7
  6
CONTINUOUS
 10
533.6751239738
 20
31.3577401029
 11
533.7329364807
 21
31.4867948937
  0
LINE
  8
0
 62
7
  6
CONTINUOUS
 10
533.4438739824
 20
31.1318942979
 11
533.5594989807
 21
31.0028395296
  0
LINE
  8
0
 62
7
  6
CONTINUOUS
 10
536.9704363704
 20
31.583585953
 11
537.0282489807
 21
31.4545312073
  0
LINE
  8
0
 62
7
  6
CONTINUOUS
 10
537.7798115909
 20
31.0996306115
 11
537.8376238704
 21
30.9705758432
  0
LINE
  8
0
 62
7
  6
CONTINUOUS
 10
537.3173113704
 20
31.4545312073
 11
537.2594990909
 21
31.6158496394
  0
LINE
  8
0
 62
7
  6
CONTINUOUS
 10
537.7798115909
 20
31.6481133259
 11
537.7798115909
 21
31.583585953
  0
LINE
  8
0
 62
7
  6
CONTINUOUS
 10
537.7798115909
 20
31.1964216708
 11
537.7798115909
 21
31.0996306115
  0
LINE
  8
0
 62
7
  6
CONTINUOUS
 10
538.0581926282
 20
32.612536077
 11
538.0581926282
 21
36.3830278803
  0
LINE
  8
0
 62
7
  6
CONTINUOUS
 10
538.0688739807
 20
31.0673669025
 11
538.0688739807
 21
31.1318942979
  0
LINE
  8
0
 62
7
  6
CONTINUOUS
 10
538.3860614807
 20
36.3830278803
 11
538.3860614807
 21
32.612536077
  0
LINE
  8
0
 62
7
  6
CONTINUOUS
 10
535.1782489255
 20
31.0028395296
 11
535.2360615358
 21
31.1318942979
  0
LINE
  8
0
 62
7
  6
CONTINUOUS
 10
539.5719992012
 20
30.9060484591
 11
539.5141862601
 21
31.0673669025
  0
LINE
  8
0
 62
7
  6
CONTINUOUS
 10
539.2251242012
 20
31.583585953
 11
539.2251242012
 21
31.4867948937
  0
LINE
  8
0
 62
7
  6
CONTINUOUS
 10
539.2251242012
 20
31.3577401029
 11
539.2251242012
 21
31.1641579843
  0
LINE
  8
0
 62
7
  6
CONTINUOUS
 10
539.5141862601
 20
31.0673669025
 11
539.5141862601
 21
31.583585953
  0
LINE
  8
0
 62
7
  6
CONTINUOUS
 10
539.7795041036
 20
32.612536077
 11
539.7795041036
 21
34.4158147655
  0
LINE
  8
0
 62
7
  6
CONTINUOUS
 10
539.7795041036
 20
35.7272901754
 11
539.7795041036
 21
36.3830278803
  0
LINE
  8
0
 62
7
  6
CONTINUOUS
 10
540.0923117012
 20
32.3256508311
 11
540.0923117012
 21
32.164332399
  0
LINE
  8
0
 62
7
  6
CONTINUOUS
 10
540.0923117012
 20
31.8416954444
 11
540.0923117012
 21
30.8092573885
  0
LINE
  8
0
 62
7
  6
CONTINUOUS
 10
540.3813737601
 20
30.8092573885
 11
540.3813737601
 21
31.8416954444
  0
LINE
  8
0
 62
7
  6
CONTINUOUS
 10
540.3813737601
 20
32.164332399
 11
540.3813737601
 21
32.3256508311
  0
LINE
  8
0
 62
7
  6
CONTINUOUS
 10
534.9469989807
 20
31.1318942979
 11
534.8891865358
 21
31.035103216
  0
LINE
  8
0
 62
7
  6
CONTINUOUS
 10
537.2594990909
 20
31.6158496394
 11
537.2016864807
 21
31.6803770123
  0
LINE
  8
0
 62
7
  6
CONTINUOUS
 10
538.1266865909
 20
31.0028395296
 11
538.0688739807
 21
31.0673669025
  0
LINE
  8
0
 62
7
  6
CONTINUOUS
 10
539.2829364807
 20
30.873784767
 11
539.3407487601
 21
30.8092573885
  0
LINE
  8
0
 62
7
  6
CONTINUOUS
 10
539.2251242012
 20
30.9705758432
 11
539.2829364807
 21
30.873784767
  0
LINE
  8
0
 62
7
  6
CONTINUOUS
 10
539.6298114807
 20
30.8092573885
 11
539.5719992012
 21
30.9060484591
  0
LINE
  8
0
 62
7
  6
CONTINUOUS
 10
539.5141862601
 20
31.583585953
 11
539.4563739807
 21
31.6803770123
  0
LINE
  8
0
 62
7
  6
CONTINUOUS
 10
540.8438739807
 20
31.8416954444
 11
540.8438739807
 21
30.8092573885
  0
LINE
  8
0
 62
7
  6
CONTINUOUS
 10
541.1329367012
 20
30.8092573885
 11
541.1329367012
 21
31.5513222666
  0
LINE
  8
0
 62
7
  6
CONTINUOUS
 10
541.1329367012
 20
31.6803770123
 11
541.1329367012
 21
31.8416954444
  0
LINE
  8
0
 62
7
  6
CONTINUOUS
 10
541.6647500053
 20
34.8256508311
 11
541.6647500053
 21
32.612536077
  0
LINE
  8
0
 62
7
  6
CONTINUOUS
 10
533.5594989807
 20
31.6481133259
 11
533.4438739824
 21
31.5190585802
  0
LINE
  8
0
 62
7
  6
CONTINUOUS
 10
533.7329364807
 20
31.4867948937
 11
533.7907489669
 21
31.5513222666
  0
LINE
  8
0
 62
7
  6
CONTINUOUS
 10
533.5594989807
 20
31.0028395296
 11
533.6751239738
 21
30.9383121455
  0
LINE
  8
0
 62
7
  6
CONTINUOUS
 10
533.9641864669
 20
31.0028395296
 11
533.7907489669
 21
31.0996306115
  0
LINE
  8
0
 62
7
  6
CONTINUOUS
 10
539.1673112601
 20
31.6481133259
 11
539.2251242012
 21
31.583585953
  0
LINE
  8
0
 62
7
  6
CONTINUOUS
 10
542.1157487601
 20
31.583585953
 11
542.1735617012
 21
31.4222675209
  0
LINE
  8
0
 62
7
  6
CONTINUOUS
 10
542.4626237601
 20
31.4222675209
 11
542.4048114807
 21
31.583585953
  0
LINE
  8
0
 62
7
  6
CONTINUOUS
 10
542.1735617012
 20
31.4222675209
 11
542.1735617012
 21
30.8092573885
  0
LINE
  8
0
 62
7
  6
CONTINUOUS
 10
542.4626237601
 20
30.8092573885
 11
542.4626237601
 21
31.4222675209
  0
LINE
  8
0
 62
7
  6
CONTINUOUS
 10
542.9251239807
 20
31.6481133259
 11
542.9251239807
 21
31.583585953
  0
LINE
  8
0
 62
7
  6
CONTINUOUS
 10
543.0581926282
 20
32.612536077
 11
543.0581926282
 21
34.743683618
  0
LINE
  8
0
 62
7
  6
CONTINUOUS
 10
543.3860614807
 20
36.3830278803
 11
543.3860614807
 21
32.612536077
  0
LINE
  8
0
 62
7
  6
CONTINUOUS
 10
538.0688739807
 20
31.1318942979
 11
538.1266865909
 21
31.2286853572
  0
LINE
  8
0
 62
7
  6
CONTINUOUS
 10
533.6751239738
 20
30.9383121455
 11
533.8485614944
 21
30.873784767
  0
LINE
  8
0
 62
7
  6
CONTINUOUS
 10
535.1782489255
 20
31.6481133259
 11
535.0048114255
 21
31.7449043851
  0
LINE
  8
0
 62
7
  6
CONTINUOUS
 10
537.8376238704
 20
30.9705758432
 11
538.0110613704
 21
30.873784767
  0
LINE
  8
0
 62
7
  6
CONTINUOUS
 10
536.8548114807
 20
31.6481133259
 11
536.9704363704
 21
31.583585953
  0
LINE
  8
0
 62
7
  6
CONTINUOUS
 10
537.2016864807
 20
31.6803770123
 11
537.0860615909
 21
31.7449043851
  0
LINE
  8
0
 62
7
  6
CONTINUOUS
 10
542.9251239807
 20
31.0673669025
 11
543.0407492012
 21
30.9383121455
  0
LINE
  8
0
 62
7
  6
CONTINUOUS
 10
543.2719989807
 20
31.0028395296
 11
543.2141867012
 21
31.0673669025
  0
LINE
  8
0
 62
7
  6
CONTINUOUS
 10
542.9251239807
 20
31.583585953
 11
543.0407492012
 21
31.4545312073
  0
LINE
  8
0
 62
7
  6
CONTINUOUS
 10
542.4048114807
 20
31.583585953
 11
542.3469992012
 21
31.6803770123
  0
LINE
  8
0
 62
7
  6
CONTINUOUS
 10
544.7751235396
 20
31.0028395296
 11
544.7751235396
 21
31.0673669025
  0
LINE
  8
0
 62
7
  6
CONTINUOUS
 10
544.7795041036
 20
32.612536077
 11
544.7795041036
 21
36.3830278803
  0
LINE
  8
0
 62
7
  6
CONTINUOUS
 10
537.8376238704
 20
31.7126406987
 11
537.7798115909
 21
31.6481133259
  0
LINE
  8
0
 62
7
  6
CONTINUOUS
 10
534.7157489531
 20
31.6803770123
 11
534.8891865358
 21
31.6158496394
  0
LINE
  8
0
 62
7
  6
CONTINUOUS
 10
539.4563739807
 20
31.6803770123
 11
539.3407487601
 21
31.7449043851
  0
LINE
  8
0
 62
7
  6
CONTINUOUS
 10
543.2719989807
 20
31.5190585802
 11
543.2141867012
 21
31.583585953
  0
LINE
  8
0
 62
7
  6
CONTINUOUS
 10
544.4282492012
 20
31.1318942979
 11
544.4860614807
 21
31.0673669025
  0
LINE
  8
0
 62
7
  6
CONTINUOUS
 10
544.7751235396
 20
31.0673669025
 11
544.6594989807
 21
31.1964216708
  0
LINE
  8
0
 62
7
  6
CONTINUOUS
 10
544.4282492012
 20
31.6481133259
 11
544.4860614807
 21
31.583585953
  0
LINE
  8
0
 62
7
  6
CONTINUOUS
 10
544.7751235396
 20
31.583585953
 11
544.6594989807
 21
31.7126406987
  0
LINE
  8
0
 62
7
  6
CONTINUOUS
 10
538.0688739807
 20
31.583585953
 11
538.1266865909
 21
31.6481133259
  0
LINE
  8
0
 62
7
  6
CONTINUOUS
 10
537.8954364807
 20
31.3254764164
 11
537.7798115909
 21
31.1964216708
  0
LINE
  8
0
 62
7
  6
CONTINUOUS
 10
539.2251242012
 20
31.1641579843
 11
539.1673112601
 21
31.0996306115
  0
LINE
  8
0
 62
7
  6
CONTINUOUS
 10
539.1673112601
 20
30.9060484591
 11
539.2251242012
 21
30.9705758432
  0
LINE
  8
0
 62
7
  6
CONTINUOUS
 10
538.0110613704
 20
30.873784767
 11
538.1266865909
 21
30.8415210777
  0
LINE
  8
0
 62
7
  6
CONTINUOUS
 10
535.0048114255
 20
31.7449043851
 11
534.7735614807
 21
31.809431758
  0
LINE
  8
0
 62
7
  6
CONTINUOUS
 10
538.3579363704
 20
30.9383121455
 11
538.1266865909
 21
31.0028395296
  0
LINE
  8
0
 62
7
  6
CONTINUOUS
 10
537.0860615909
 20
31.7449043851
 11
536.9126240909
 21
31.809431758
  0
LINE
  8
0
 62
7
  6
CONTINUOUS
 10
539.3407487601
 20
31.7449043851
 11
539.1673112601
 21
31.809431758
  0
LINE
  8
0
 62
7
  6
CONTINUOUS
 10
542.0001242012
 20
31.6481133259
 11
542.1157487601
 21
31.583585953
  0
LINE
  8
0
 62
7
  6
CONTINUOUS
 10
542.3469992012
 20
31.6803770123
 11
542.2313739807
 21
31.7449043851
  0
LINE
  8
0
 62
7
  6
CONTINUOUS
 10
533.8485614944
 20
30.873784767
 11
534.0219989944
 21
30.8415210777
  0
LINE
  8
0
 62
7
  6
CONTINUOUS
 10
534.3110615082
 20
30.9383121455
 11
533.9641864669
 21
31.0028395296
  0
LINE
  8
0
 62
7
  6
CONTINUOUS
 10
536.7391865909
 20
31.6803770123
 11
536.8548114807
 21
31.6481133259
  0
LINE
  8
0
 62
7
  6
CONTINUOUS
 10
539.0516867012
 20
31.6803770123
 11
539.1673112601
 21
31.6481133259
  0
LINE
  8
0
 62
7
  6
CONTINUOUS
 10
543.3876242012
 20
30.9705758432
 11
543.2719989807
 21
31.0028395296
  0
LINE
  8
0
 62
7
  6
CONTINUOUS
 10
541.8844989807
 20
31.6803770123
 11
542.0001242012
 21
31.6481133259
  0
LINE
  8
0
 62
7
  6
CONTINUOUS
 10
543.0407492012
 20
30.9383121455
 11
543.2141867012
 21
30.873784767
  0
LINE
  8
0
 62
7
  6
CONTINUOUS
 10
542.2313739807
 20
31.7449043851
 11
542.0579364807
 21
31.809431758
  0
LINE
  8
0
 62
7
  6
CONTINUOUS
 10
543.4454364807
 20
31.4545312073
 11
543.2719989807
 21
31.5190585802
  0
LINE
  8
0
 62
7
  6
CONTINUOUS
 10
544.2548117012
 20
31.1964216708
 11
544.4282492012
 21
31.1318942979
  0
LINE
  8
0
 62
7
  6
CONTINUOUS
 10
544.6594989807
 20
31.7126406987
 11
544.4860614807
 21
31.7771680715
  0
LINE
  8
0
 62
7
  6
CONTINUOUS
 10
543.0407492012
 20
31.4545312073
 11
543.2719989807
 21
31.3577401029
  0
LINE
  8
0
 62
7
  6
CONTINUOUS
 10
544.6594989807
 20
31.1964216708
 11
544.4282492012
 21
31.29321273
  0
LINE
  8
0
 62
7
  6
CONTINUOUS
 10
543.2141867012
 20
31.583585953
 11
543.2719989807
 21
31.6481133259
  0
LINE
  8
0
 62
7
  6
CONTINUOUS
 10
533.6751239738
 20
31.7126406987
 11
533.5594989807
 21
31.6481133259
  0
LINE
  8
0
 62
7
  6
CONTINUOUS
 10
533.7907489669
 20
31.5513222666
 11
533.9641864669
 21
31.6481133259
  0
LINE
  8
0
 62
7
  6
CONTINUOUS
 10
536.1032490358
 20
31.7449043851
 11
535.9876239807
 21
31.6803770123
  0
LINE
  8
0
 62
7
  6
CONTINUOUS
 10
535.9876239807
 20
31.5513222666
 11
536.1032490358
 21
31.6158496394
  0
LINE
  8
0
 62
7
  6
CONTINUOUS
 10
535.0048114255
 20
30.9060484591
 11
535.1782489255
 21
31.0028395296
  0
LINE
  8
0
 62
7
  6
CONTINUOUS
 10
534.0219989944
 20
30.8415210777
 11
534.3688739531
 21
30.8092573885
  0
LINE
  8
0
 62
7
  6
CONTINUOUS
 10
538.1266865909
 20
30.8415210777
 11
538.3579363704
 21
30.8092573885
  0
LINE
  8
0
 62
7
  6
CONTINUOUS
 10
536.5079364807
 20
31.7126406987
 11
536.7391865909
 21
31.6803770123
  0
LINE
  8
0
 62
7
  6
CONTINUOUS
 10
538.8204365909
 20
31.7126406987
 11
539.0516867012
 21
31.6803770123
  0
LINE
  8
0
 62
7
  6
CONTINUOUS
 10
543.2719989807
 20
31.3577401029
 11
544.2548117012
 21
31.1964216708
  0
LINE
  8
0
 62
7
  6
CONTINUOUS
 10
544.4282492012
 20
31.29321273
 11
543.4454364807
 21
31.4545312073
  0
LINE
  8
0
 62
7
  6
CONTINUOUS
 10
536.9126240909
 20
31.809431758
 11
536.7391865909
 21
31.8416954444
  0
LINE
  8
0
 62
7
  6
CONTINUOUS
 10
543.2141867012
 20
30.873784767
 11
543.3876242012
 21
30.8415210777
  0
LINE
  8
0
 62
7
  6
CONTINUOUS
 10
542.0579364807
 20
31.809431758
 11
541.8844989807
 21
31.8416954444
  0
LINE
  8
0
 62
7
  6
CONTINUOUS
 10
544.3126239807
 20
31.6803770123
 11
544.4282492012
 21
31.6481133259
  0
LINE
  8
0
 62
7
  6
CONTINUOUS
 10
544.4860614807
 20
31.0673669025
 11
544.4282492012
 21
31.0028395296
  0
LINE
  8
0
 62
7
  6
CONTINUOUS
 10
543.0407492012
 20
31.7449043851
 11
542.9251239807
 21
31.6481133259
  0
LINE
  8
0
 62
7
  6
CONTINUOUS
 10
537.9532490909
 20
31.7771680715
 11
537.8376238704
 21
31.7126406987
  0
LINE
  8
0
 62
7
  6
CONTINUOUS
 10
538.0110613704
 20
31.3900038345
 11
537.8954364807
 21
31.3254764164
  0
LINE
  8
0
 62
7
  6
CONTINUOUS
 10
538.1266865909
 20
31.2286853572
 11
538.2423114807
 21
31.29321273
  0
LINE
  8
0
 62
7
  6
CONTINUOUS
 10
535.6985614255
 20
30.8092573885
 11
535.9876239807
 21
30.8092573885
  0
LINE
  8
0
 62
7
  6
CONTINUOUS
 10
537.0282489807
 20
30.8092573885
 11
537.3173113704
 21
30.8092573885
  0
LINE
  8
0
 62
7
  6
CONTINUOUS
 10
538.3579363704
 20
30.8092573885
 11
538.7048113704
 21
30.8092573885
  0
LINE
  8
0
 62
7
  6
CONTINUOUS
 10
539.3407487601
 20
30.8092573885
 11
539.6298114807
 21
30.8092573885
  0
LINE
  8
0
 62
7
  6
CONTINUOUS
 10
540.0923117012
 20
30.8092573885
 11
540.3813737601
 21
30.8092573885
  0
LINE
  8
0
 62
7
  6
CONTINUOUS
 10
540.8438739807
 20
30.8092573885
 11
541.1329367012
 21
30.8092573885
  0
LINE
  8
0
 62
7
  6
CONTINUOUS
 10
542.1735617012
 20
30.8092573885
 11
542.4626237601
 21
30.8092573885
  0
LINE
  8
0
 62
7
  6
CONTINUOUS
 10
543.7344992012
 20
30.8092573885
 11
544.0813742012
 21
30.8092573885
  0
LINE
  8
0
 62
7
  6
CONTINUOUS
 10
544.0813742012
 20
30.9383121455
 11
543.7344992012
 21
30.9383121455
  0
LINE
  8
0
 62
7
  6
CONTINUOUS
 10
538.7048113704
 20
30.9383121455
 11
538.3579363704
 21
30.9383121455
  0
LINE
  8
0
 62
7
  6
CONTINUOUS
 10
543.2141867012
 20
31.0673669025
 11
542.9251239807
 21
31.0673669025
  0
LINE
  8
0
 62
7
  6
CONTINUOUS
 10
535.2360615358
 20
31.1318942979
 11
534.9469989807
 21
31.1318942979
  0
LINE
  8
0
 62
7
  6
CONTINUOUS
 10
534.3110615082
 20
31.7126406987
 11
534.7157489531
 21
31.6803770123
  0
LINE
  8
0
 62
7
  6
CONTINUOUS
 10
534.7735614807
 20
31.809431758
 11
534.3688739531
 21
31.8416954444
  0
LINE
  8
0
 62
7
  6
CONTINUOUS
 10
543.3876242012
 20
30.8415210777
 11
543.7344992012
 21
30.8092573885
  0
LINE
  8
0
 62
7
  6
CONTINUOUS
 10
543.7344992012
 20
30.9383121455
 11
543.3876242012
 21
30.9705758432
  0
LINE
  8
0
 62
7
  6
CONTINUOUS
 10
539.1673112601
 20
31.809431758
 11
538.8204365909
 21
31.8416954444
  0
LINE
  8
0
 62
7
  6
CONTINUOUS
 10
543.9657489807
 20
31.7126406987
 11
544.3126239807
 21
31.6803770123
  0
LINE
  8
0
 62
7
  6
CONTINUOUS
 10
544.3126239807
 20
31.809431758
 11
543.9657489807
 21
31.8416954444
  0
LINE
  8
0
 62
7
  6
CONTINUOUS
 10
541.6532492012
 20
31.7126406987
 11
541.8844989807
 21
31.6803770123
  0
LINE
  8
0
 62
7
  6
CONTINUOUS
 10
544.4860614807
 20
31.7771680715
 11
544.3126239807
 21
31.809431758
  0
LINE
  8
0
 62
7
  6
CONTINUOUS
 10
544.6594989807
 20
30.9060484591
 11
544.7751235396
 21
31.0028395296
  0
LINE
  8
0
 62
7
  6
CONTINUOUS
 10
539.1673112601
 20
31.0996306115
 11
538.9938737601
 21
31.0028395296
  0
LINE
  8
0
 62
7
  6
CONTINUOUS
 10
541.2485612601
 20
31.7449043851
 11
541.1329367012
 21
31.6803770123
  0
LINE
  8
0
 62
7
  6
CONTINUOUS
 10
541.1329367012
 20
31.5513222666
 11
541.2485612601
 21
31.6158496394
  0
LINE
  8
0
 62
7
  6
CONTINUOUS
 10
533.8485614944
 20
31.7771680715
 11
533.6751239738
 21
31.7126406987
  0
LINE
  8
0
 62
7
  6
CONTINUOUS
 10
536.2766863704
 20
31.809431758
 11
536.1032490358
 21
31.7449043851
  0
LINE
  8
0
 62
7
  6
CONTINUOUS
 10
536.1032490358
 20
31.6158496394
 11
536.2766863704
 21
31.6803770123
  0
LINE
  8
0
 62
7
  6
CONTINUOUS
 10
534.8891865358
 20
31.035103216
 11
534.7157489531
 21
30.9705758432
  0
LINE
  8
0
 62
7
  6
CONTINUOUS
 10
544.3126239807
 20
30.9705758432
 11
544.0813742012
 21
30.9383121455
  0
LINE
  8
0
 62
7
  6
CONTINUOUS
 10
538.7048113704
 20
30.8092573885
 11
538.9938737601
 21
30.8415210777
  0
LINE
  8
0
 62
7
  6
CONTINUOUS
 10
544.0813742012
 20
30.8092573885
 11
544.4282492012
 21
30.8415210777
  0
LINE
  8
0
 62
7
  6
CONTINUOUS
 10
534.3688739531
 20
30.8092573885
 11
534.7735614807
 21
30.8415210777
  0
LINE
  8
0
 62
7
  6
CONTINUOUS
 10
534.7157489531
 20
30.9705758432
 11
534.3110615082
 21
30.9383121455
  0
LINE
  8
0
 62
7
  6
CONTINUOUS
 10
538.5891864807
 20
31.3577401029
 11
539.2251242012
 21
31.3577401029
  0
LINE
  8
0
 62
7
  6
CONTINUOUS
 10
539.2251242012
 20
31.4867948937
 11
538.5891864807
 21
31.4867948937
  0
LINE
  8
0
 62
7
  6
CONTINUOUS
 10
534.9469989807
 20
31.5190585802
 11
535.2360615358
 21
31.5190585802
  0
LINE
  8
0
 62
7
  6
CONTINUOUS
 10
537.7798115909
 20
31.583585953
 11
538.0688739807
 21
31.583585953
  0
LINE
  8
0
 62
7
  6
CONTINUOUS
 10
544.4860614807
 20
31.583585953
 11
544.7751235396
 21
31.583585953
  0
LINE
  8
0
 62
7
  6
CONTINUOUS
 10
538.4735615909
 20
31.7126406987
 11
538.8204365909
 21
31.7126406987
  0
LINE
  8
0
 62
7
  6
CONTINUOUS
 10
543.6188739807
 20
31.7126406987
 11
543.9657489807
 21
31.7126406987
  0
LINE
  8
0
 62
7
  6
CONTINUOUS
 10
543.9657489807
 20
31.8416954444
 11
543.6188739807
 21
31.8416954444
  0
LINE
  8
0
 62
7
  6
CONTINUOUS
 10
541.8844989807
 20
31.8416954444
 11
541.6532492012
 21
31.8416954444
  0
LINE
  8
0
 62
7
  6
CONTINUOUS
 10
541.1329367012
 20
31.8416954444
 11
540.8438739807
 21
31.8416954444
  0
LINE
  8
0
 62
7
  6
CONTINUOUS
 10
540.3813737601
 20
31.8416954444
 11
540.0923117012
 21
31.8416954444
  0
LINE
  8
0
 62
7
  6
CONTINUOUS
 10
538.8204365909
 20
31.8416954444
 11
538.4735615909
 21
31.8416954444
  0
LINE
  8
0
 62
7
  6
CONTINUOUS
 10
536.7391865909
 20
31.8416954444
 11
536.5079364807
 21
31.8416954444
  0
LINE
  8
0
 62
7
  6
CONTINUOUS
 10
540.0923117012
 20
32.164332399
 11
540.3813737601
 21
32.164332399
  0
LINE
  8
0
 62
7
  6
CONTINUOUS
 10
540.3813737601
 20
32.3256508311
 11
540.0923117012
 21
32.3256508311
  0
LINE
  8
0
 62
7
  6
CONTINUOUS
 10
535.9876239807
 20
32.3256508311
 11
535.6985614255
 21
32.3256508311
  0
LINE
  8
0
 62
7
  6
CONTINUOUS
 10
535.025405743
 20
32.612536077
 11
535.4379770916
 21
32.612536077
  0
LINE
  8
0
 62
7
  6
CONTINUOUS
 10
536.6647500053
 20
32.612536077
 11
538.0581926282
 21
32.612536077
  0
LINE
  8
0
 62
7
  6
CONTINUOUS
 10
538.3860614807
 20
32.612536077
 11
539.7795041036
 21
32.612536077
  0
LINE
  8
0
 62
7
  6
CONTINUOUS
 10
541.6647500053
 20
32.612536077
 11
543.0581926282
 21
32.612536077
  0
LINE
  8
0
 62
7
  6
CONTINUOUS
 10
543.3860614807
 20
32.612536077
 11
544.7795041036
 21
32.612536077
  0
LINE
  8
0
 62
7
  6
CONTINUOUS
 10
541.4219987601
 20
31.809431758
 11
541.2485612601
 21
31.7449043851
  0
LINE
  8
0
 62
7
  6
CONTINUOUS
 10
538.9938737601
 20
30.8415210777
 11
539.1673112601
 21
30.9060484591
  0
LINE
  8
0
 62
7
  6
CONTINUOUS
 10
544.4282492012
 20
30.8415210777
 11
544.6594989807
 21
30.9060484591
  0
LINE
  8
0
 62
7
  6
CONTINUOUS
 10
544.4282492012
 20
31.0028395296
 11
544.3126239807
 21
30.9705758432
  0
LINE
  8
0
 62
7
  6
CONTINUOUS
 10
543.3876242012
 20
31.6803770123
 11
543.6188739807
 21
31.7126406987
  0
LINE
  8
0
 62
7
  6
CONTINUOUS
 10
541.4219987601
 20
31.6803770123
 11
541.6532492012
 21
31.7126406987
  0
LINE
  8
0
 62
7
  6
CONTINUOUS
 10
538.3579363704
 20
31.3254764164
 11
538.5891864807
 21
31.3577401029
  0
LINE
  8
0
 62
7
  6
CONTINUOUS
 10
541.6532492012
 20
31.8416954444
 11
541.4219987601
 21
31.809431758
  0
LINE
  8
0
 62
7
  6
CONTINUOUS
 10
538.2423114807
 20
31.6803770123
 11
538.4735615909
 21
31.7126406987
  0
LINE
  8
0
 62
7
  6
CONTINUOUS
 10
543.6188739807
 20
31.8416954444
 11
543.2719989807
 21
31.809431758
  0
LINE
  8
0
 62
7
  6
CONTINUOUS
 10
538.5891864807
 20
31.4867948937
 11
538.2423114807
 21
31.4545312073
  0
LINE
  8
0
 62
7
  6
CONTINUOUS
 10
534.3688739531
 20
31.8416954444
 11
534.0219989944
 21
31.809431758
  0
LINE
  8
0
 62
7
  6
CONTINUOUS
 10
538.4735615909
 20
31.8416954444
 11
538.0688739807
 21
31.809431758
  0
LINE
  8
0
 62
7
  6
CONTINUOUS
 10
535.8450778741
 20
33.7600770606
 11
535.1893401692
 21
33.7600770606
  0
LINE
  8
0
 62
7
  6
CONTINUOUS
 10
541.2485612601
 20
31.6158496394
 11
541.4219987601
 21
31.6803770123
  0
LINE
  8
0
 62
7
  6
CONTINUOUS
 10
543.2719989807
 20
31.6481133259
 11
543.3876242012
 21
31.6803770123
  0
LINE
  8
0
 62
7
  6
CONTINUOUS
 10
543.2719989807
 20
31.809431758
 11
543.0407492012
 21
31.7449043851
  0
LINE
  8
0
 62
7
  6
CONTINUOUS
 10
538.9938737601
 20
31.0028395296
 11
538.7048113704
 21
30.9383121455
  0
LINE
  8
0
 62
7
  6
CONTINUOUS
 10
536.2766863704
 20
31.6803770123
 11
536.5079364807
 21
31.7126406987
  0
LINE
  8
0
 62
7
  6
CONTINUOUS
 10
536.5079364807
 20
31.8416954444
 11
536.2766863704
 21
31.809431758
  0
LINE
  8
0
 62
7
  6
CONTINUOUS
 10
534.0798114807
 20
31.6803770123
 11
534.3110615082
 21
31.7126406987
  0
LINE
  8
0
 62
7
  6
CONTINUOUS
 10
540.5991762348
 20
35.2354868967
 11
541.2549139397
 21
35.2354868967
  0
LINE
  8
0
 62
7
  6
CONTINUOUS
 10
538.2423114807
 20
31.29321273
 11
538.3579363704
 21
31.3254764164
  0
LINE
  8
0
 62
7
  6
CONTINUOUS
 10
538.2423114807
 20
31.4545312073
 11
538.0110613704
 21
31.3900038345
  0
LINE
  8
0
 62
7
  6
CONTINUOUS
 10
538.1266865909
 20
31.6481133259
 11
538.2423114807
 21
31.6803770123
  0
LINE
  8
0
 62
7
  6
CONTINUOUS
 10
534.7735614807
 20
30.8415210777
 11
535.0048114255
 21
30.9060484591
  0
LINE
  8
0
 62
7
  6
CONTINUOUS
 10
538.0688739807
 20
31.809431758
 11
537.9532490909
 21
31.7771680715
  0
LINE
  8
0
 62
7
  6
CONTINUOUS
 10
534.0219989944
 20
31.809431758
 11
533.8485614944
 21
31.7771680715
  0
LINE
  8
0
 62
7
  6
CONTINUOUS
 10
544.7795041036
 20
36.3830278803
 11
543.3860614807
 21
36.3830278803
  0
LINE
  8
0
 62
7
  6
CONTINUOUS
 10
541.4188483659
 20
36.3830278803
 11
541.0062770173
 21
36.3830278803
  0
LINE
  8
0
 62
7
  6
CONTINUOUS
 10
539.7795041036
 20
36.3830278803
 11
538.3860614807
 21
36.3830278803
  0
LINE
  8
0
 62
7
  6
CONTINUOUS
 10
538.0581926282
 20
36.3830278803
 11
536.6647500053
 21
36.3830278803
  0
LINE
  8
0
 62
7
  6
CONTINUOUS
 10
534.7795041036
 20
36.3830278803
 11
533.3860614807
 21
36.3830278803
  0
LINE
  8
0
 62
7
  6
CONTINUOUS
 10
533.9641864669
 20
31.6481133259
 11
534.0798114807
 21
31.6803770123
  0
CIRCLE
  8
0
 62
7
  6
CONTINUOUS
 10
544.0827827921
 20
38.7190934541
 40
2.0901639344
  0
ARC
  8
0
 62
7
  6
CONTINUOUS
 10
535.025405743
 20
34.2518803393
 40
1.6393442623
 50
180.0
 51
270.0
  0
ARC
  8
0
 62
7
  6
CONTINUOUS
 10
541.4188483659
 20
34.743683618
 40
1.6393442623
 50
0.0
 51
90.0
  0
ARC
  8
0
 62
7
  6
CONTINUOUS
 10
535.4379770916
 20
34.0879459131
 40
1.4754098361
 50
270.0
 51
326.2510114041
  0
ARC
  8
0
 62
7
  6
CONTINUOUS
 10
541.0062770173
 20
34.9076180442
 40
1.4754098361
 50
90.0
 51
146.2510114041
  0
ARC
  8
0
 62
7
  6
CONTINUOUS
 10
535.8450778741
 20
34.5797491918
 40
0.8196721311
 50
270.0
 51
360.0
  0
ARC
  8
0
 62
7
  6
CONTINUOUS
 10
540.5991762348
 20
34.4158147655
 40
0.8196721311
 50
90.0
 51
180.0
  0
ARC
  8
0
 62
7
  6
CONTINUOUS
 10
535.1893401692
 20
34.1699131262
 40
0.4098360656
 50
180.0
 51
270.0
  0
ARC
  8
0
 62
7
  6
CONTINUOUS
 10
541.2549139397
 20
34.8256508311
 40
0.4098360656
 50
0.0
 51
90.0
  0
SOLID
  8
0
 62
7
  6
CONTINUOUS
 10
540.0923117012
 20
32.1643327593
 11
540.0923117012
 21
32.3256512429
 12
540.3813737601
 22
32.1643327593
 13
540.3813737601
 23
32.3256512429
  0
SOLID
  8
0
 62
7
  6
CONTINUOUS
 10
534.3688739531
 20
31.841695792
 11
534.7735614807
 21
31.8094316148
 12
534.0219989944
 22
31.8094316148
 13
534.0219989944
 23
31.8094316148
  0
SOLID
  8
0
 62
7
  6
CONTINUOUS
 10
533.8485614944
 20
31.7771687019
 11
534.0219989944
 21
31.8094316148
 12
534.7735614807
 22
31.8094316148
 13
534.7735614807
 23
31.8094316148
  0
SOLID
  8
0
 62
7
  6
CONTINUOUS
 10
534.7735614807
 20
31.8094316148
 11
535.0048114255
 21
31.7449043986
 12
533.8485614944
 22
31.7771687019
 13
533.8485614944
 23
31.7771687019
  0
SOLID
  8
0
 62
7
  6
CONTINUOUS
 10
533.6751239738
 20
31.712640202
 11
533.8485614944
 21
31.7771687019
 12
535.0048114255
 22
31.7449043986
 13
535.0048114255
 23
31.7449043986
  0
SOLID
  8
0
 62
7
  6
CONTINUOUS
 10
533.6751239738
 20
31.712640202
 11
535.0048114255
 21
31.7449043986
 12
534.3110615082
 22
31.712640202
 13
534.3110615082
 23
31.712640202
  0
SOLID
  8
0
 62
7
  6
CONTINUOUS
 10
534.3110615082
 20
31.712640202
 11
535.0048114255
 21
31.7449043986
 12
534.7157489531
 22
31.6803773084
 13
534.7157489531
 23
31.6803773084
  0
SOLID
  8
0
 62
7
  6
CONTINUOUS
 10
535.0048114255
 20
31.7449043986
 11
535.1782489255
 21
31.6481130052
 12
534.7157489531
 22
31.6803773084
 13
534.7157489531
 23
31.6803773084
  0
SOLID
  8
0
 62
7
  6
CONTINUOUS
 10
534.8891865358
 20
31.6158502183
 11
534.7157489531
 21
31.6803773084
 12
535.1782489255
 22
31.6481130052
 13
535.1782489255
 23
31.6481130052
  0
SOLID
  8
0
 62
7
  6
CONTINUOUS
 10
534.8891865358
 20
31.6158502183
 11
535.1782489255
 21
31.6481130052
 12
534.9469989807
 22
31.5190586669
 13
534.9469989807
 23
31.5190586669
  0
SOLID
  8
0
 62
7
  6
CONTINUOUS
 10
535.1782489255
 20
31.6481130052
 11
535.2360615358
 21
31.5190586669
 12
534.9469989807
 22
31.5190586669
 13
534.9469989807
 23
31.5190586669
  0
SOLID
  8
0
 62
7
  6
CONTINUOUS
 10
536.2766863704
 20
31.8094307377
 11
536.5079364807
 21
31.841695041
 12
536.7391865909
 22
31.841695041
 13
536.7391865909
 23
31.841695041
  0
SOLID
  8
0
 62
7
  6
CONTINUOUS
 10
536.7391865909
 20
31.841695041
 11
536.9126240909
 21
31.8094307377
 12
536.2766863704
 22
31.8094307377
 13
536.2766863704
 23
31.8094307377
  0
SOLID
  8
0
 62
7
  6
CONTINUOUS
 10
536.1032490358
 20
31.7449036475
 11
536.2766863704
 21
31.8094307377
 12
536.9126240909
 22
31.8094307377
 13
536.9126240909
 23
31.8094307377
  0
SOLID
  8
0
 62
7
  6
CONTINUOUS
 10
536.9126240909
 20
31.8094307377
 11
537.0860615909
 21
31.7449036475
 12
536.1032490358
 22
31.7449036475
 13
536.1032490358
 23
31.7449036475
  0
SOLID
  8
0
 62
7
  6
CONTINUOUS
 10
537.0860615909
 20
31.7449036475
 11
536.5079364807
 21
31.7126400953
 12
536.1032490358
 22
31.7449036475
 13
536.1032490358
 23
31.7449036475
  0
SOLID
  8
0
 62
7
  6
CONTINUOUS
 10
535.9876239807
 20
31.6803765574
 11
536.1032490358
 21
31.7449036475
 12
536.5079364807
 22
31.7126400953
 13
536.5079364807
 23
31.7126400953
  0
SOLID
  8
0
 62
7
  6
CONTINUOUS
 10
536.5079364807
 20
31.7126400953
 11
536.2766863704
 21
31.6803765574
 12
535.9876239807
 22
31.6803765574
 13
535.9876239807
 23
31.6803765574
  0
SOLID
  8
0
 62
7
  6
CONTINUOUS
 10
536.5079364807
 20
31.7126400953
 11
537.0860615909
 21
31.7449036475
 12
536.7391865909
 22
31.6803765574
 13
536.7391865909
 23
31.6803765574
  0
SOLID
  8
0
 62
7
  6
CONTINUOUS
 10
537.0860615909
 20
31.7449036475
 11
537.2016864807
 21
31.6803765574
 12
536.7391865909
 22
31.6803765574
 13
536.7391865909
 23
31.6803765574
  0
SOLID
  8
0
 62
7
  6
CONTINUOUS
 10
536.8548114807
 20
31.6481130052
 11
536.7391865909
 21
31.6803765574
 12
537.2016864807
 22
31.6803765574
 13
537.2016864807
 23
31.6803765574
  0
SOLID
  8
0
 62
7
  6
CONTINUOUS
 10
537.2016864807
 20
31.6803765574
 11
537.2594990909
 21
31.6158494672
 12
536.8548114807
 22
31.6481130052
 13
536.8548114807
 23
31.6481130052
  0
SOLID
  8
0
 62
7
  6
CONTINUOUS
 10
536.9704363704
 20
31.583585915
 11
536.8548114807
 21
31.6481130052
 12
537.2594990909
 22
31.6158494672
 13
537.2594990909
 23
31.6158494672
  0
SOLID
  8
0
 62
7
  6
CONTINUOUS
 10
536.9704363704
 20
31.583585915
 11
537.2594990909
 21
31.6158494672
 12
537.0282489807
 22
31.4545309836
 13
537.0282489807
 23
31.4545309836
  0
SOLID
  8
0
 62
7
  6
CONTINUOUS
 10
537.2594990909
 20
31.6158494672
 11
537.3173113704
 21
31.4545309836
 12
537.0282489807
 22
31.4545309836
 13
537.0282489807
 23
31.4545309836
  0
SOLID
  8
0
 62
7
  6
CONTINUOUS
 10
536.2766863704
 20
31.6803765574
 11
536.1032490358
 21
31.6158494672
 12
535.9876239807
 22
31.6803765574
 13
535.9876239807
 23
31.6803765574
  0
SOLID
  8
0
 62
7
  6
CONTINUOUS
 10
536.1032490358
 20
31.6158494672
 11
535.9876239807
 21
31.5513216117
 12
535.9876239807
 22
31.6803765574
 13
535.9876239807
 23
31.6803765574
  0
SOLID
  8
0
 62
7
  6
CONTINUOUS
 10
535.9876239807
 20
31.5513216117
 11
535.6985614255
 21
30.8092570492
 12
535.9876239807
 22
31.6803765574
 13
535.9876239807
 23
31.6803765574
  0
SOLID
  8
0
 62
7
  6
CONTINUOUS
 10
535.9876239807
 20
31.6803765574
 11
535.6985614255
 21
30.8092570492
 12
535.9876239807
 22
32.3256504918
 13
535.9876239807
 23
32.3256504918
  0
SOLID
  8
0
 62
7
  6
CONTINUOUS
 10
535.6985614255
 20
30.8092570492
 11
535.6985614255
 21
32.3256504918
 12
535.9876239807
 22
32.3256504918
 13
535.9876239807
 23
32.3256504918
  0
SOLID
  8
0
 62
7
  6
CONTINUOUS
 10
535.9876239807
 20
31.5513216117
 11
535.9876239807
 21
30.8092570492
 12
535.6985614255
 22
30.8092570492
 13
535.6985614255
 23
30.8092570492
  0
SOLID
  8
0
 62
7
  6
CONTINUOUS
 10
537.0282489807
 20
30.8092570492
 11
537.0282489807
 21
31.4545309836
 12
537.3173113704
 22
31.4545309836
 13
537.3173113704
 23
31.4545309836
  0
SOLID
  8
0
 62
7
  6
CONTINUOUS
 10
537.3173113704
 20
31.4545309836
 11
537.3173113704
 21
30.8092570492
 12
537.0282489807
 22
30.8092570492
 13
537.0282489807
 23
30.8092570492
  0
SOLID
  8
0
 62
7
  6
CONTINUOUS
 10
538.0688739807
 20
31.809431823
 11
538.4735615909
 21
31.8416958158
 12
538.8204365909
 22
31.8416958158
 13
538.8204365909
 23
31.8416958158
  0
SOLID
  8
0
 62
7
  6
CONTINUOUS
 10
538.8204365909
 20
31.8416958158
 11
539.1673112601
 21
31.809431823
 12
538.0688739807
 22
31.809431823
 13
538.0688739807
 23
31.809431823
  0
SOLID
  8
0
 62
7
  6
CONTINUOUS
 10
537.9532490909
 20
31.7771687019
 11
538.0688739807
 21
31.809431823
 12
539.1673112601
 22
31.809431823
 13
539.1673112601
 23
31.809431823
  0
SOLID
  8
0
 62
7
  6
CONTINUOUS
 10
539.1673112601
 20
31.809431823
 11
539.3407487601
 21
31.7449043986
 12
537.9532490909
 22
31.7771687019
 13
537.9532490909
 23
31.7771687019
  0
SOLID
  8
0
 62
7
  6
CONTINUOUS
 10
537.8376238704
 20
31.7126398448
 11
537.9532490909
 21
31.7771687019
 12
539.3407487601
 22
31.7449043986
 13
539.3407487601
 23
31.7449043986
  0
SOLID
  8
0
 62
7
  6
CONTINUOUS
 10
537.8376238704
 20
31.7126398448
 11
539.3407487601
 21
31.7449043986
 12
538.4735615909
 22
31.7126398448
 13
538.4735615909
 23
31.7126398448
  0
SOLID
  8
0
 62
7
  6
CONTINUOUS
 10
538.4735615909
 20
31.7126398448
 11
539.3407487601
 21
31.7449043986
 12
538.8204365909
 22
31.7126398448
 13
538.8204365909
 23
31.7126398448
  0
SOLID
  8
0
 62
7
  6
CONTINUOUS
 10
538.8204365909
 20
31.7126398448
 11
539.3407487601
 21
31.7449043986
 12
539.0516867012
 22
31.6803774007
 13
539.0516867012
 23
31.6803774007
  0
SOLID
  8
0
 62
7
  6
CONTINUOUS
 10
539.3407487601
 20
31.7449043986
 11
539.4563739807
 21
31.6803774007
 12
539.0516867012
 22
31.6803774007
 13
539.0516867012
 23
31.6803774007
  0
SOLID
  8
0
 62
7
  6
CONTINUOUS
 10
537.7798115909
 20
31.6481126336
 11
537.8376238704
 21
31.7126398448
 12
538.4735615909
 22
31.7126398448
 13
538.4735615909
 23
31.7126398448
  0
SOLID
  8
0
 62
7
  6
CONTINUOUS
 10
539.1673112601
 20
31.6481126336
 11
539.0516867012
 21
31.6803774007
 12
539.4563739807
 22
31.6803774007
 13
539.4563739807
 23
31.6803774007
  0
SOLID
  8
0
 62
7
  6
CONTINUOUS
 10
539.1673112601
 20
31.6481126336
 11
539.4563739807
 21
31.6803774007
 12
539.2251242012
 22
31.5835861968
 13
539.2251242012
 23
31.5835861968
  0
SOLID
  8
0
 62
7
  6
CONTINUOUS
 10
539.4563739807
 20
31.6803774007
 11
539.5141862601
 21
31.5835861968
 12
539.2251242012
 22
31.5835861968
 13
539.2251242012
 23
31.5835861968
  0
SOLID
  8
0
 62
7
  6
CONTINUOUS
 10
539.2251242012
 20
31.4867945216
 11
539.2251242012
 21
31.5835861968
 12
539.5141862601
 22
31.5835861968
 13
539.5141862601
 23
31.5835861968
  0
SOLID
  8
0
 62
7
  6
CONTINUOUS
 10
539.2251242012
 20
31.4867945216
 11
539.5141862601
 21
31.5835861968
 12
539.2251242012
 22
31.3577403412
 13
539.2251242012
 23
31.3577403412
  0
SOLID
  8
0
 62
7
  6
CONTINUOUS
 10
539.2251242012
 20
31.3577403412
 11
539.5141862601
 21
31.5835861968
 12
539.2251242012
 22
31.1641579843
 13
539.2251242012
 23
31.1641579843
  0
SOLID
  8
0
 62
7
  6
CONTINUOUS
 10
539.5141862601
 20
31.5835861968
 11
539.5141862601
 21
31.0673661609
 12
539.2251242012
 22
31.1641579843
 13
539.2251242012
 23
31.1641579843
  0
SOLID
  8
0
 62
7
  6
CONTINUOUS
 10
541.4219987601
 20
31.8094310465
 11
541.6532492012
 21
31.8416957661
 12
541.8844989807
 22
31.8416957661
 13
541.8844989807
 23
31.8416957661
  0
SOLID
  8
0
 62
7
  6
CONTINUOUS
 10
541.8844989807
 20
31.8416957661
 11
542.0579364807
 21
31.8094310465
 12
541.4219987601
 22
31.8094310465
 13
541.4219987601
 23
31.8094310465
  0
SOLID
  8
0
 62
7
  6
CONTINUOUS
 10
541.2485612601
 20
31.7449047044
 11
541.4219987601
 21
31.8094310465
 12
542.0579364807
 22
31.8094310465
 13
542.0579364807
 23
31.8094310465
  0
SOLID
  8
0
 62
7
  6
CONTINUOUS
 10
542.0579364807
 20
31.8094310465
 11
542.2313739807
 21
31.7449047044
 12
541.2485612601
 22
31.7449047044
 13
541.2485612601
 23
31.7449047044
  0
SOLID
  8
0
 62
7
  6
CONTINUOUS
 10
542.2313739807
 20
31.7449047044
 11
541.6532492012
 21
31.7126400953
 12
541.2485612601
 22
31.7449047044
 13
541.2485612601
 23
31.7449047044
  0
SOLID
  8
0
 62
7
  6
CONTINUOUS
 10
541.1329367012
 20
31.6803773299
 11
541.2485612601
 21
31.7449047044
 12
541.6532492012
 22
31.7126400953
 13
541.6532492012
 23
31.7126400953
  0
SOLID
  8
0
 62
7
  6
CONTINUOUS
 10
541.6532492012
 20
31.7126400953
 11
541.4219987601
 21
31.6803773299
 12
541.1329367012
 22
31.6803773299
 13
541.1329367012
 23
31.6803773299
  0
SOLID
  8
0
 62
7
  6
CONTINUOUS
 10
541.6532492012
 20
31.7126400953
 11
542.2313739807
 21
31.7449047044
 12
541.8844989807
 22
31.6803773299
 13
541.8844989807
 23
31.6803773299
  0
SOLID
  8
0
 62
7
  6
CONTINUOUS
 10
542.2313739807
 20
31.7449047044
 11
542.3469992012
 21
31.6803773299
 12
541.8844989807
 22
31.6803773299
 13
541.8844989807
 23
31.6803773299
  0
SOLID
  8
0
 62
7
  6
CONTINUOUS
 10
542.0001242012
 20
31.6481130052
 11
541.8844989807
 21
31.6803773299
 12
542.3469992012
 22
31.6803773299
 13
542.3469992012
 23
31.6803773299
  0
SOLID
  8
0
 62
7
  6
CONTINUOUS
 10
542.0001242012
 20
31.6481130052
 11
542.3469992012
 21
31.6803773299
 12
542.1157487601
 22
31.5835862682
 13
542.1157487601
 23
31.5835862682
  0
SOLID
  8
0
 62
7
  6
CONTINUOUS
 10
542.3469992012
 20
31.6803773299
 11
542.4048114807
 21
31.5835862682
 12
542.1157487601
 22
31.5835862682
 13
542.1157487601
 23
31.5835862682
  0
SOLID
  8
0
 62
7
  6
CONTINUOUS
 10
542.1735617012
 20
31.422267832
 11
542.1157487601
 21
31.5835862682
 12
542.4048114807
 22
31.5835862682
 13
542.4048114807
 23
31.5835862682
  0
SOLID
  8
0
 62
7
  6
CONTINUOUS
 10
542.4048114807
 20
31.5835862682
 11
542.4626237601
 21
31.422267832
 12
542.1735617012
 22
31.422267832
 13
542.1735617012
 23
31.422267832
  0
SOLID
  8
0
 62
7
  6
CONTINUOUS
 10
541.4219987601
 20
31.6803773299
 11
541.2485612601
 21
31.6158502183
 12
541.1329367012
 22
31.6803773299
 13
541.1329367012
 23
31.6803773299
  0
SOLID
  8
0
 62
7
  6
CONTINUOUS
 10
541.2485612601
 20
31.6158502183
 11
541.1329367012
 21
31.5513216117
 12
541.1329367012
 22
31.6803773299
 13
541.1329367012
 23
31.6803773299
  0
SOLID
  8
0
 62
7
  6
CONTINUOUS
 10
541.1329367012
 20
31.5513216117
 11
540.8438739807
 21
30.8092577743
 12
541.1329367012
 22
31.6803773299
 13
541.1329367012
 23
31.6803773299
  0
SOLID
  8
0
 62
7
  6
CONTINUOUS
 10
541.1329367012
 20
31.6803773299
 11
540.8438739807
 21
30.8092577743
 12
541.1329367012
 22
31.8416957661
 13
541.1329367012
 23
31.8416957661
  0
SOLID
  8
0
 62
7
  6
CONTINUOUS
 10
540.8438739807
 20
30.8092577743
 11
540.8438739807
 21
31.8416957661
 12
541.1329367012
 22
31.8416957661
 13
541.1329367012
 23
31.8416957661
  0
SOLID
  8
0
 62
7
  6
CONTINUOUS
 10
541.1329367012
 20
31.5513216117
 11
541.1329367012
 21
30.8092577743
 12
540.8438739807
 22
30.8092577743
 13
540.8438739807
 23
30.8092577743
  0
SOLID
  8
0
 62
7
  6
CONTINUOUS
 10
542.1735617012
 20
30.8092577743
 11
542.1735617012
 21
31.422267832
 12
542.4626237601
 22
31.422267832
 13
542.4626237601
 23
31.422267832
  0
SOLID
  8
0
 62
7
  6
CONTINUOUS
 10
542.4626237601
 20
31.422267832
 11
542.4626237601
 21
30.8092577743
 12
542.1735617012
 22
30.8092577743
 13
542.1735617012
 23
30.8092577743
  0
SOLID
  8
0
 62
7
  6
CONTINUOUS
 10
543.2719989807
 20
31.8094314924
 11
543.6188739807
 21
31.8416958387
 12
543.9657489807
 22
31.8416958387
 13
543.9657489807
 23
31.8416958387
  0
SOLID
  8
0
 62
7
  6
CONTINUOUS
 10
543.9657489807
 20
31.8416958387
 11
544.3126239807
 21
31.8094314924
 12
543.2719989807
 22
31.8094314924
 13
543.2719989807
 23
31.8094314924
  0
SOLID
  8
0
 62
7
  6
CONTINUOUS
 10
543.0407492012
 20
31.7449043986
 11
543.2719989807
 21
31.8094314924
 12
544.3126239807
 22
31.8094314924
 13
544.3126239807
 23
31.8094314924
  0
SOLID
  8
0
 62
7
  6
CONTINUOUS
 10
543.0407492012
 20
31.7449043986
 11
544.3126239807
 21
31.8094314888
 12
544.4860614807
 22
31.7771687019
 13
544.4860614807
 23
31.7771687019
  0
SOLID
  8
0
 62
7
  6
CONTINUOUS
 10
543.0407492012
 20
31.7449043986
 11
544.4860614807
 21
31.7771687019
 12
543.6188739807
 22
31.7126401399
 13
543.6188739807
 23
31.7126401399
  0
SOLID
  8
0
 62
7
  6
CONTINUOUS
 10
543.6188739807
 20
31.7126401399
 11
544.4860614807
 21
31.7771687019
 12
543.9657489807
 22
31.7126401399
 13
543.9657489807
 23
31.7126401399
  0
SOLID
  8
0
 62
7
  6
CONTINUOUS
 10
544.4860614807
 20
31.7771687019
 11
544.6594989807
 21
31.7126401399
 12
543.9657489807
 22
31.7126401399
 13
543.9657489807
 23
31.7126401399
  0
SOLID
  8
0
 62
7
  6
CONTINUOUS
 10
544.3126239807
 20
31.6803773084
 11
543.9657489807
 21
31.7126401399
 12
544.6594989807
 22
31.7126401399
 13
544.6594989807
 23
31.7126401399
  0
SOLID
  8
0
 62
7
  6
CONTINUOUS
 10
542.9251239807
 20
31.6481128977
 11
543.0407492012
 21
31.7449043986
 12
543.6188739807
 22
31.7126401399
 13
543.6188739807
 23
31.7126401399
  0
SOLID
  8
0
 62
7
  6
CONTINUOUS
 10
544.3126239807
 20
31.6803773084
 11
544.6594989807
 21
31.7126401399
 12
544.4282492012
 22
31.6481128977
 13
544.4282492012
 23
31.6481128977
  0
SOLID
  8
0
 62
7
  6
CONTINUOUS
 10
544.4282492012
 20
31.6481128977
 11
544.6594989807
 21
31.7126401399
 12
544.4860614807
 22
31.5835858812
 13
544.4860614807
 23
31.5835858812
  0
SOLID
  8
0
 62
7
  6
CONTINUOUS
 10
544.6594989807
 20
31.7126401399
 11
544.7751235396
 21
31.5835858812
 12
544.4860614807
 22
31.5835858812
 13
544.4860614807
 23
31.5835858812
  0
SOLID
  8
0
 62
7
  6
CONTINUOUS
 10
534.0798114807
 20
31.6803773084
 11
533.5594989807
 21
31.6481129264
 12
534.3110615082
 22
31.7126401456
 13
534.3110615082
 23
31.7126401456
  0
SOLID
  8
0
 62
7
  6
CONTINUOUS
 10
533.5594989807
 20
31.6481129264
 11
533.6751239738
 21
31.7126401456
 12
534.3110615082
 22
31.7126401456
 13
534.3110615082
 23
31.7126401456
  0
SOLID
  8
0
 62
7
  6
CONTINUOUS
 10
534.0798114807
 20
31.6803773084
 11
533.9641864669
 21
31.6481129264
 12
533.5594989807
 22
31.6481129264
 13
533.5594989807
 23
31.6481129264
  0
SOLID
  8
0
 62
7
  6
CONTINUOUS
 10
533.4438739824
 20
31.5190588248
 11
533.5594989807
 21
31.6481129264
 12
533.9641864669
 22
31.6481129264
 13
533.9641864669
 23
31.6481129264
  0
SOLID
  8
0
 62
7
  6
CONTINUOUS
 10
537.7798115909
 20
31.6481130555
 11
538.4735615909
 21
31.7126400953
 12
538.2423114807
 22
31.6803773084
 13
538.2423114807
 23
31.6803773084
  0
SOLID
  8
0
 62
7
  6
CONTINUOUS
 10
538.2423114807
 20
31.6803773084
 11
538.1266865909
 21
31.6481130555
 12
537.7798115909
 22
31.6481130555
 13
537.7798115909
 23
31.6481130555
  0
SOLID
  8
0
 62
7
  6
CONTINUOUS
 10
537.7798115909
 20
31.5835859653
 11
537.7798115909
 21
31.6481130555
 12
538.1266865909
 22
31.6481130555
 13
538.1266865909
 23
31.6481130555
  0
SOLID
  8
0
 62
7
  6
CONTINUOUS
 10
538.1266865909
 20
31.6481130555
 11
538.0688739807
 21
31.5835859653
 12
537.7798115909
 22
31.5835859653
 13
537.7798115909
 23
31.5835859653
  0
SOLID
  8
0
 62
7
  6
CONTINUOUS
 10
542.9251239807
 20
31.6481130555
 11
543.6188739807
 21
31.7126400953
 12
543.3876242012
 22
31.6803773084
 13
543.3876242012
 23
31.6803773084
  0
SOLID
  8
0
 62
7
  6
CONTINUOUS
 10
543.3876242012
 20
31.6803773084
 11
543.2719989807
 21
31.6481130555
 12
542.9251239807
 22
31.6481130555
 13
542.9251239807
 23
31.6481130555
  0
SOLID
  8
0
 62
7
  6
CONTINUOUS
 10
542.9251239807
 20
31.5835859653
 11
542.9251239807
 21
31.6481130555
 12
543.2719989807
 22
31.6481130555
 13
543.2719989807
 23
31.6481130555
  0
SOLID
  8
0
 62
7
  6
CONTINUOUS
 10
543.2719989807
 20
31.6481130555
 11
543.2141867012
 21
31.5835859653
 12
542.9251239807
 22
31.5835859653
 13
542.9251239807
 23
31.5835859653
  0
SOLID
  8
0
 62
7
  6
CONTINUOUS
 10
543.0407492012
 20
31.4545317347
 11
542.9251239807
 21
31.5835859653
 12
543.2141867012
 22
31.5835859653
 13
543.2141867012
 23
31.5835859653
  0
SOLID
  8
0
 62
7
  6
CONTINUOUS
 10
533.4438739824
 20
31.5190588248
 11
533.9641864669
 21
31.6481130052
 12
533.7907489669
 22
31.5513216117
 13
533.7907489669
 23
31.5513216117
  0
SOLID
  8
0
 62
7
  6
CONTINUOUS
 10
533.7907489669
 20
31.5513216117
 11
533.7329364807
 21
31.4867945216
 12
533.4438739824
 22
31.5190588248
 13
533.4438739824
 23
31.5190588248
  0
SOLID
  8
0
 62
7
  6
CONTINUOUS
 10
533.3860614807
 20
31.325476038
 11
533.4438739824
 21
31.5190588248
 12
533.7329364807
 22
31.4867945216
 13
533.7329364807
 23
31.4867945216
  0
SOLID
  8
0
 62
7
  6
CONTINUOUS
 10
538.2423114807
 20
31.4545317347
 11
538.5891864807
 21
31.4867945557
 12
539.2251242012
 22
31.4867945557
 13
539.2251242012
 23
31.4867945557
  0
SOLID
  8
0
 62
7
  6
CONTINUOUS
 10
538.2423114807
 20
31.4545317347
 11
539.2251242012
 21
31.4867945557
 12
538.0110613704
 22
31.3900038345
 13
538.0110613704
 23
31.3900038345
  0
SOLID
  8
0
 62
7
  6
CONTINUOUS
 10
538.0110613704
 20
31.3900038345
 11
539.2251242012
 21
31.4867945557
 12
538.5891864807
 22
31.3577403754
 13
538.5891864807
 23
31.3577403754
  0
SOLID
  8
0
 62
7
  6
CONTINUOUS
 10
539.2251242012
 20
31.4867945557
 11
539.2251242012
 21
31.3577403754
 12
538.5891864807
 22
31.3577403754
 13
538.5891864807
 23
31.3577403754
  0
SOLID
  8
0
 62
7
  6
CONTINUOUS
 10
543.0407492012
 20
31.4545313481
 11
543.2141867012
 21
31.583585915
 12
543.2719989807
 22
31.5190588248
 13
543.2719989807
 23
31.5190588248
  0
SOLID
  8
0
 62
7
  6
CONTINUOUS
 10
543.2719989807
 20
31.5190588248
 11
543.4454364807
 21
31.4545313481
 12
543.0407492012
 22
31.4545313481
 13
543.0407492012
 23
31.4545313481
  0
SOLID
  8
0
 62
7
  6
CONTINUOUS
 10
543.2719989807
 20
31.3577403412
 11
543.0407492012
 21
31.4545313481
 12
543.4454364807
 22
31.4545313481
 13
543.4454364807
 23
31.4545313481
  0
SOLID
  8
0
 62
7
  6
CONTINUOUS
 10
543.4454364807
 20
31.4545313481
 11
544.4282492012
 21
31.2932132511
 12
543.2719989807
 22
31.3577403412
 13
543.2719989807
 23
31.3577403412
  0
SOLID
  8
0
 62
7
  6
CONTINUOUS
 10
544.2548117012
 20
31.1964222346
 11
543.2719989807
 21
31.3577403412
 12
544.4282492012
 22
31.2932132511
 13
544.4282492012
 23
31.2932132511
  0
SOLID
  8
0
 62
7
  6
CONTINUOUS
 10
544.4282492012
 20
31.2932132511
 11
544.6594989807
 21
31.1964222346
 12
544.2548117012
 22
31.1964222346
 13
544.2548117012
 23
31.1964222346
  0
SOLID
  8
0
 62
7
  6
CONTINUOUS
 10
544.4282492012
 20
31.1318947675
 11
544.2548117012
 21
31.1964222346
 12
544.6594989807
 22
31.1964222346
 13
544.6594989807
 23
31.1964222346
  0
SOLID
  8
0
 62
7
  6
CONTINUOUS
 10
544.4282492012
 20
31.1318947675
 11
544.6594989807
 21
31.1964222346
 12
544.4860614807
 22
31.0673665164
 13
544.4860614807
 23
31.0673665164
  0
SOLID
  8
0
 62
7
  6
CONTINUOUS
 10
544.6594989807
 20
31.1964222346
 11
544.7751235396
 21
31.0673665164
 12
544.4860614807
 22
31.0673665164
 13
544.4860614807
 23
31.0673665164
  0
SOLID
  8
0
 62
7
  6
CONTINUOUS
 10
544.4282492012
 20
31.0028394316
 11
544.4860614807
 21
31.0673665164
 12
544.7751235396
 22
31.0673665164
 13
544.7751235396
 23
31.0673665164
  0
SOLID
  8
0
 62
7
  6
CONTINUOUS
 10
544.7751235396
 20
31.0673665164
 11
544.7751235396
 21
31.0028394316
 12
544.4282492012
 22
31.0028394316
 13
544.4282492012
 23
31.0028394316
  0
SOLID
  8
0
 62
7
  6
CONTINUOUS
 10
544.3126239807
 20
30.9705762839
 11
544.4282492012
 21
31.0028394316
 12
544.7751235396
 22
31.0028394316
 13
544.7751235396
 23
31.0028394316
  0
SOLID
  8
0
 62
7
  6
CONTINUOUS
 10
544.3126239807
 20
30.9705762839
 11
544.7751235396
 21
31.0028394316
 12
544.0813742012
 22
30.9383123468
 13
544.0813742012
 23
30.9383123468
  0
SOLID
  8
0
 62
7
  6
CONTINUOUS
 10
544.7751235396
 20
31.0028394316
 11
544.6594989807
 21
30.9060491937
 12
544.0813742012
 22
30.9383123468
 13
544.0813742012
 23
30.9383123468
  0
SOLID
  8
0
 62
7
  6
CONTINUOUS
 10
544.6594989807
 20
30.9060491937
 11
543.2141867012
 21
30.8737848904
 12
544.0813742012
 22
30.9383123468
 13
544.0813742012
 23
30.9383123468
  0
SOLID
  8
0
 62
7
  6
CONTINUOUS
 10
544.0813742012
 20
30.9383123468
 11
543.2141867012
 21
30.8737848904
 12
543.7344992012
 22
30.9383123468
 13
543.7344992012
 23
30.9383123468
  0
SOLID
  8
0
 62
7
  6
CONTINUOUS
 10
543.2141867012
 20
30.8737848904
 11
543.0407492012
 21
30.9383123468
 12
543.7344992012
 22
30.9383123468
 13
543.7344992012
 23
30.9383123468
  0
SOLID
  8
0
 62
7
  6
CONTINUOUS
 10
543.2141867012
 20
30.8737848904
 11
544.6594989807
 21
30.9060491937
 12
543.3876242012
 22
30.8415205581
 13
543.3876242012
 23
30.8415205581
  0
SOLID
  8
0
 62
7
  6
CONTINUOUS
 10
544.6594989807
 20
30.9060491937
 11
544.4282492012
 21
30.8415205581
 12
543.3876242012
 22
30.8415205581
 13
543.3876242012
 23
30.8415205581
  0
SOLID
  8
0
 62
7
  6
CONTINUOUS
 10
543.7344992012
 20
30.8092581772
 11
543.3876242012
 21
30.8415205581
 12
544.4282492012
 22
30.8415205581
 13
544.4282492012
 23
30.8415205581
  0
SOLID
  8
0
 62
7
  6
CONTINUOUS
 10
544.4282492012
 20
30.8415205581
 11
544.0813742012
 21
30.8092581772
 12
543.7344992012
 22
30.8092581772
 13
543.7344992012
 23
30.8092581772
  0
SOLID
  8
0
 62
7
  6
CONTINUOUS
 10
533.3860614807
 20
31.325476038
 11
533.7329364807
 21
31.4867945216
 12
533.6751239738
 22
31.3577403412
 13
533.6751239738
 23
31.3577403412
  0
SOLID
  8
0
 62
7
  6
CONTINUOUS
 10
533.6751239738
 20
31.3577403412
 11
533.6751239738
 21
31.2609490436
 12
533.3860614807
 22
31.325476038
 13
533.3860614807
 23
31.325476038
  0
SOLID
  8
0
 62
7
  6
CONTINUOUS
 10
533.4438739824
 20
31.1318947675
 11
533.3860614807
 21
31.325476038
 12
533.6751239738
 22
31.2609490436
 13
533.6751239738
 23
31.2609490436
  0
SOLID
  8
0
 62
7
  6
CONTINUOUS
 10
533.6751239738
 20
31.2609490436
 11
533.7907489669
 21
31.0996304642
 12
533.4438739824
 22
31.1318947675
 13
533.4438739824
 23
31.1318947675
  0
SOLID
  8
0
 62
7
  6
CONTINUOUS
 10
533.5594989807
 20
31.0028388804
 11
533.4438739824
 21
31.1318947675
 12
533.7907489669
 22
31.0996304642
 13
533.7907489669
 23
31.0996304642
  0
SOLID
  8
0
 62
7
  6
CONTINUOUS
 10
533.7907489669
 20
31.0996304642
 11
533.9641864669
 21
31.0028388804
 12
533.5594989807
 22
31.0028388804
 13
533.5594989807
 23
31.0028388804
  0
SOLID
  8
0
 62
7
  6
CONTINUOUS
 10
533.6751239738
 20
30.9383122606
 11
533.5594989807
 21
31.0028388804
 12
533.9641864669
 22
31.0028388804
 13
533.9641864669
 23
31.0028388804
  0
SOLID
  8
0
 62
7
  6
CONTINUOUS
 10
533.9641864669
 20
31.0028388804
 11
534.3110615082
 21
30.9383122606
 12
533.6751239738
 22
30.9383122606
 13
533.6751239738
 23
30.9383122606
  0
SOLID
  8
0
 62
7
  6
CONTINUOUS
 10
533.8485614944
 20
30.8737848904
 11
533.6751239738
 21
30.9383122606
 12
534.3110615082
 22
30.9383122606
 13
534.3110615082
 23
30.9383122606
  0
SOLID
  8
0
 62
7
  6
CONTINUOUS
 10
537.8954364807
 20
31.3254759532
 11
538.0110613704
 21
31.3900038345
 12
538.5891864807
 22
31.3577403412
 13
538.5891864807
 23
31.3577403412
  0
SOLID
  8
0
 62
7
  6
CONTINUOUS
 10
538.5891864807
 20
31.3577403412
 11
538.3579363704
 21
31.3254759532
 12
537.8954364807
 22
31.3254759532
 13
537.8954364807
 23
31.3254759532
  0
SOLID
  8
0
 62
7
  6
CONTINUOUS
 10
537.7798115909
 20
31.1964218576
 11
537.8954364807
 21
31.3254759532
 12
538.3579363704
 22
31.3254759532
 13
538.3579363704
 23
31.3254759532
  0
SOLID
  8
0
 62
7
  6
CONTINUOUS
 10
538.1266865909
 20
31.2286853572
 11
537.7798115909
 21
31.1964218576
 12
538.2423114807
 22
31.2932132511
 13
538.2423114807
 23
31.2932132511
  0
SOLID
  8
0
 62
7
  6
CONTINUOUS
 10
537.7798115909
 20
31.1964218576
 11
538.3579363704
 21
31.325476038
 12
538.2423114807
 22
31.2932132511
 13
538.2423114807
 23
31.2932132511
  0
SOLID
  8
0
 62
7
  6
CONTINUOUS
 10
538.1266865909
 20
31.2286853572
 11
538.0688739807
 21
31.1318947675
 12
537.7798115909
 22
31.1964218576
 13
537.7798115909
 23
31.1964218576
  0
SOLID
  8
0
 62
7
  6
CONTINUOUS
 10
537.7798115909
 20
31.0996304642
 11
537.7798115909
 21
31.1964218576
 12
538.0688739807
 22
31.1318947675
 13
538.0688739807
 23
31.1318947675
  0
SOLID
  8
0
 62
7
  6
CONTINUOUS
 10
538.0688739807
 20
31.1318947675
 11
538.0688739807
 21
31.0673661609
 12
537.7798115909
 22
31.0996304642
 13
537.7798115909
 23
31.0996304642
  0
SOLID
  8
0
 62
7
  6
CONTINUOUS
 10
537.8376238704
 20
30.9705762839
 11
537.7798115909
 21
31.0996304642
 12
538.0688739807
 22
31.0673661609
 13
538.0688739807
 23
31.0673661609
  0
SOLID
  8
0
 62
7
  6
CONTINUOUS
 10
539.2251242012
 20
31.1641579843
 11
539.5141862601
 21
31.0673661609
 12
539.1673112601
 22
31.0996304642
 13
539.1673112601
 23
31.0996304642
  0
SOLID
  8
0
 62
7
  6
CONTINUOUS
 10
538.9938737601
 20
31.0028390707
 11
539.1673112601
 21
31.0996304642
 12
539.5141862601
 22
31.0673661609
 13
539.5141862601
 23
31.0673661609
  0
SOLID
  8
0
 62
7
  6
CONTINUOUS
 10
538.9938737601
 20
31.0028390707
 11
539.5141862601
 21
31.0673661609
 12
539.2251242012
 22
30.9705762839
 13
539.2251242012
 23
30.9705762839
  0
SOLID
  8
0
 62
7
  6
CONTINUOUS
 10
539.5141862601
 20
31.0673661609
 11
539.5719992012
 21
30.9060491937
 12
539.2251242012
 22
30.9705762839
 13
539.2251242012
 23
30.9705762839
  0
SOLID
  8
0
 62
7
  6
CONTINUOUS
 10
539.2829364807
 20
30.8737848904
 11
539.2251242012
 21
30.9705762839
 12
539.5719992012
 22
30.9060491937
 13
539.5719992012
 23
30.9060491937
  0
SOLID
  8
0
 62
7
  6
CONTINUOUS
 10
539.2829364807
 20
30.8737848904
 11
539.5719992012
 21
30.9060491937
 12
539.3407487601
 22
30.8092576254
 13
539.3407487601
 23
30.8092576254
  0
SOLID
  8
0
 62
7
  6
CONTINUOUS
 10
539.5719992012
 20
30.9060491937
 11
539.6298114807
 21
30.8092576254
 12
539.3407487601
 22
30.8092576254
 13
539.3407487601
 23
30.8092576254
  0
SOLID
  8
0
 62
7
  6
CONTINUOUS
 10
534.8891865358
 20
31.035103216
 11
534.9469989807
 21
31.1318946289
 12
535.2360615358
 22
31.1318946289
 13
535.2360615358
 23
31.1318946289
  0
SOLID
  8
0
 62
7
  6
CONTINUOUS
 10
535.2360615358
 20
31.1318946289
 11
535.1782489255
 21
31.0028390707
 12
534.8891865358
 22
31.035103216
 13
534.8891865358
 23
31.035103216
  0
SOLID
  8
0
 62
7
  6
CONTINUOUS
 10
534.7157489531
 20
30.9705762839
 11
534.8891865358
 21
31.035103216
 12
535.1782489255
 22
31.0028390707
 13
535.1782489255
 23
31.0028390707
  0
SOLID
  8
0
 62
7
  6
CONTINUOUS
 10
534.7157489531
 20
30.9705762839
 11
535.1782489255
 21
31.0028390707
 12
534.3110615082
 22
30.9383119806
 13
534.3110615082
 23
30.9383119806
  0
SOLID
  8
0
 62
7
  6
CONTINUOUS
 10
535.1782489255
 20
31.0028390707
 11
535.0048114255
 21
30.9060491937
 12
534.3110615082
 22
30.9383119806
 13
534.3110615082
 23
30.9383119806
  0
SOLID
  8
0
 62
7
  6
CONTINUOUS
 10
533.8485614944
 20
30.8737848904
 11
534.3110615082
 21
30.9383119806
 12
535.0048114255
 22
30.9060491937
 13
535.0048114255
 23
30.9060491937
  0
SOLID
  8
0
 62
7
  6
CONTINUOUS
 10
533.8485614944
 20
30.8737848904
 11
535.0048114255
 21
30.9060491937
 12
534.0219989944
 22
30.8415207131
 13
534.0219989944
 23
30.8415207131
  0
SOLID
  8
0
 62
7
  6
CONTINUOUS
 10
535.0048114255
 20
30.9060491937
 11
534.7735614807
 21
30.8415207131
 12
534.0219989944
 22
30.8415207131
 13
534.0219989944
 23
30.8415207131
  0
SOLID
  8
0
 62
7
  6
CONTINUOUS
 10
534.3688739531
 20
30.8092578002
 11
534.0219989944
 21
30.8415207131
 12
534.7735614807
 22
30.8415207131
 13
534.7735614807
 23
30.8415207131
  0
SOLID
  8
0
 62
7
  6
CONTINUOUS
 10
537.8376238704
 20
30.9705762839
 11
538.0688739807
 21
31.0673661609
 12
538.1266865909
 22
31.0028390707
 13
538.1266865909
 23
31.0028390707
  0
SOLID
  8
0
 62
7
  6
CONTINUOUS
 10
538.1266865909
 20
31.0028390707
 11
538.3579363704
 21
30.9383119806
 12
537.8376238704
 22
30.9705762839
 13
537.8376238704
 23
30.9705762839
  0
SOLID
  8
0
 62
7
  6
CONTINUOUS
 10
538.0110613704
 20
30.8737848904
 11
537.8376238704
 21
30.9705762839
 12
538.3579363704
 22
30.9383119806
 13
538.3579363704
 23
30.9383119806
  0
SOLID
  8
0
 62
7
  6
CONTINUOUS
 10
538.7048113704
 20
30.9383119664
 11
538.9938737601
 21
31.0028390707
 12
539.2251242012
 22
30.9705762839
 13
539.2251242012
 23
30.9705762839
  0
SOLID
  8
0
 62
7
  6
CONTINUOUS
 10
539.2251242012
 20
30.9705762839
 11
539.1673112601
 21
30.9060491937
 12
538.7048113704
 22
30.9383119664
 13
538.7048113704
 23
30.9383119664
  0
SOLID
  8
0
 62
7
  6
CONTINUOUS
 10
539.1673112601
 20
30.9060491937
 11
538.0110613704
 21
30.8737848904
 12
538.7048113704
 22
30.9383119664
 13
538.7048113704
 23
30.9383119664
  0
SOLID
  8
0
 62
7
  6
CONTINUOUS
 10
538.0110613704
 20
30.8737848904
 11
538.3579363704
 21
30.9383119664
 12
538.7048113704
 22
30.9383119664
 13
538.7048113704
 23
30.9383119664
  0
SOLID
  8
0
 62
7
  6
CONTINUOUS
 10
538.0110613704
 20
30.8737848904
 11
539.1673112601
 21
30.9060491937
 12
538.1266865909
 22
30.8415205568
 13
538.1266865909
 23
30.8415205568
  0
SOLID
  8
0
 62
7
  6
CONTINUOUS
 10
539.1673112601
 20
30.9060491937
 11
538.9938737601
 21
30.8415205568
 12
538.1266865909
 22
30.8415205568
 13
538.1266865909
 23
30.8415205568
  0
SOLID
  8
0
 62
7
  6
CONTINUOUS
 10
538.3579363704
 20
30.8092577215
 11
538.1266865909
 21
30.8415205568
 12
538.9938737601
 22
30.8415205568
 13
538.9938737601
 23
30.8415205568
  0
SOLID
  8
0
 62
7
  6
CONTINUOUS
 10
538.9938737601
 20
30.8415205568
 11
538.7048113704
 21
30.8092577215
 12
538.3579363704
 22
30.8092577215
 13
538.3579363704
 23
30.8092577215
  0
SOLID
  8
0
 62
7
  6
CONTINUOUS
 10
543.3876242012
 20
30.9705762839
 11
543.0407492012
 21
30.9383119664
 12
543.2719989807
 22
31.0028390707
 13
543.2719989807
 23
31.0028390707
  0
SOLID
  8
0
 62
7
  6
CONTINUOUS
 10
543.2719989807
 20
31.0028390707
 11
543.0407492012
 21
30.9383119664
 12
543.2141867012
 22
31.0673661467
 13
543.2141867012
 23
31.0673661467
  0
SOLID
  8
0
 62
7
  6
CONTINUOUS
 10
543.0407492012
 20
30.9383119664
 11
542.9251239807
 21
31.0673661467
 12
543.2141867012
 22
31.0673661467
 13
543.2141867012
 23
31.0673661467
  0
SOLID
  8
0
 62
7
  6
CONTINUOUS
 10
543.3876242012
 20
30.9705762839
 11
543.7344992012
 21
30.9383119664
 12
543.0407492012
 22
30.9383119664
 13
543.0407492012
 23
30.9383119664
  0
SOLID
  8
0
 62
7
  6
CONTINUOUS
 10
540.0923117012
 20
30.8092578002
 11
540.0923117012
 21
31.841695792
 12
540.3813737601
 22
30.8092578002
 13
540.3813737601
 23
31.841695792
  0
ENDBLK
  8
0
  6
BYBLOCK
 62
0
  0
BLOCK
  8
0
 62
2
  6
CONTINUOUS
  2
AMMEAAL_LOGO_BL0
 70
64
 10
416.1419631151
 20
19.7009994242
  0
TEXT
  8
0
 62
7
  6
CONTINUOUS
 10
402.4066669574
 20
19.0744135318
  7
TEXTSTYLE_3
 40
2.7338706658
  1
Ammeraal Beltech
 41
1.0
 51
15.0
 72
0
  0
TEXT
  8
0
 62
7
  6
CONTINUOUS
 10
413.2074677831
 20
16.800876859
  7
TEXTSTYLE_4
 40
1.0935482663
  1
Innovation & Service in Belting
 41
1.0
 72
0
  0
LINE
  8
0
 62
7
  6
CONTINUOUS
 10
396.382126306
 20
19.8410068404
 11
397.1602782994
 21
23.5019241381
  0
LINE
  8
0
 62
7
  6
CONTINUOUS
 10
407.2554465892
 20
27.1653180497
 11
397.6480960424
 21
24.0437006284
  0
LINE
  8
0
 62
7
  6
CONTINUOUS
 10
396.6074096383
 20
19.1476560374
 11
404.1144848995
 21
12.3882551114
  0
LINE
  8
0
 62
7
  6
CONTINUOUS
 10
396.869944049
 20
20.3827833308
 11
407.6782134142
 21
23.8946029297
  0
LINE
  8
0
 62
7
  6
CONTINUOUS
 10
407.674008277
 20
13.544814366
 11
399.2285486083
 21
21.1491404077
  0
LINE
  8
0
 62
7
  6
CONTINUOUS
 10
408.1938309968
 20
26.320392934
 11
407.2172714596
 21
21.7260415315
  0
LINE
  8
0
 62
7
  6
CONTINUOUS
 10
406.5174695119
 20
18.4337322177
 11
405.8310213004
 21
15.2042472933
  0
LINE
  8
0
 62
7
  6
CONTINUOUS
 10
408.8749270954
 20
13.9350165436
 11
409.831158631
 21
18.4337322177
  0
LINE
  8
0
 62
7
  6
CONTINUOUS
 10
410.5309605787
 20
21.7260415315
 11
410.9752023811
 21
23.8160348909
  0
LINE
  8
0
 62
7
  6
CONTINUOUS
 10
404.8275859748
 20
12.2366807987
 11
408.3871093524
 21
13.3932400533
  0
LINE
  8
0
 62
7
  6
CONTINUOUS
 10
407.9685476645
 20
27.013743737
 11
410.7499190488
 21
24.5093856939
  0
ARC
  8
0
 62
7
  6
CONTINUOUS
 10
397.8733793747
 20
23.3503498254
 40
0.7290321776
 50
108.0
 51
168.0
  0
ARC
  8
0
 62
7
  6
CONTINUOUS
 10
407.4807299215
 20
26.4719672466
 40
0.7290321776
 50
348.0
 51
108.0
  0
ARC
  8
0
 62
7
  6
CONTINUOUS
 10
410.2621013058
 20
23.9676092036
 40
0.7290321776
 50
348.0
 51
48.0
  0
ARC
  8
0
 62
7
  6
CONTINUOUS
 10
404.6023026425
 20
12.9300316018
 40
0.7290321776
 50
228.0
 51
288.0
  0
ARC
  8
0
 62
7
  6
CONTINUOUS
 10
397.0952273813
 20
19.6894325277
 40
0.7290321776
 50
108.0
 51
228.0
  0
ARC
  8
0
 62
7
  6
CONTINUOUS
 10
408.1618260201
 20
14.0865908563
 40
0.7290321776
 50
228.0
 51
348.0
  0
ENDBLK
  8
0
  6
BYBLOCK
 62
0
  0
BLOCK
  8
0
  2
_FILLED
 70
64
 10
0.0
 20
0.0
  0
SOLID
  8
0
  6
BYBLOCK
 62
0
 10
0.0
 20
0.0
 11
-1.0
 21
0.2142857143
 12
-1.0
 22
-0.2142857143
 13
-1.0
 23
-0.2142857143
  0
ENDBLK
  8
0
  6
BYBLOCK
 62
0
  0
ENDSEC
  0
SECTION
  2
ENTITIES
  0
TEXT
  8
0
 62
5
  6
CONTINUOUS
 10
480.0
 20
25.636
  7
TEXTSTYLE_2
 40
2.8
  1
Scale :
 41
0.6
 51
0.000019
 72
0
  0
TEXT
  8
0
 62
5
  6
CONTINUOUS
 10
500.0
 20
25.636
  7
TEXTSTYLE_2
 40
2.8
  1
Belt type:
 41
0.6
 51
0.000019
 72
0
  0
INSERT
  8
0
 62
2
  6
CONTINUOUS
  2
AMMEAAL_LOGO_BL0
 10
416.1419631151
 20
19.7009994242
  0
INSERT
  8
0
 62
2
  6
CONTINUOUS
  2
UNI_LOGO2_BL1
 10
557.4079930916
 20
35.8092573885
  0
LINE
  8
0
 62
2
  6
CONTINUOUS
 10
394.0
 20
30.0
 11
584.0
 21
30.0
  0
LINE
  8
0
 62
2
  6
CONTINUOUS
 10
394.0
 20
30.0
 11
394.0
 21
10.0
  0
LINE
  8
0
 62
2
  6
CONTINUOUS
 10
394.0
 20
10.0
 11
584.0
 21
10.0
  0
LINE
  8
0
 62
2
  6
CONTINUOUS
 10
479.0
 20
30.0
 11
479.0
 21
10.0
  0
LINE
  8
0
 62
2
  6
CONTINUOUS
 10
499.0
 20
30.0
 11
499.0
 21
10.0
  0
LINE
  8
0
 62
2
  6
CONTINUOUS
 10
584.0
 20
30.0
 11
584.0
 21
10.0
  0
TEXT
  8
0
 62
5
  6
CONTINUOUS
 10
397.0
 20
23.303
  7
TEXTSTYLE_5
 40
1.52
  1
                                                                     Ammeraal Beltech Modular A/S
 41
1.0
 72
0
  0
TEXT
  8
0
 62
5
  6
CONTINUOUS
 10
397.0
 20
20.595
  7
TEXTSTYLE_5
 40
1.5
  1
                                                                      Hjulmagervej 21, 7100 Vejle,  DK
 41
1.0
 72
0
  0
TEXT
  8
0
 62
5
  6
CONTINUOUS
 10
397.0
 20
17.881
  7
TEXTSTYLE_5
 40
1.495
  1
                                                                      tel: 
 41
1.0
 72
0
  0
TEXT
  8
0
 62
5
  6
CONTINUOUS
 10
441.9869465649
 20
17.881
  7
TEXTSTYLE_5
 40
1.51
  1
+45 75723100     fax: +45 75723348
 41
1.0
 72
0
  0
TEXT
  8
0
 62
5
  6
CONTINUOUS
 10
397.0
 20
15.177
  7
TEXTSTYLE_5
 40
1.5
  1
                                                                      admin@unichains.dk  www.unichains.com
 41
1.0
 72
0
  0
TEXT
  8
0
 62
5
  6
CONTINUOUS
 10
483.75
 20
13.75
  7
TEXTSTYLE_6
 40
5.0
  1
1:1
 41
0.7
 72
1
 11
489.0
 21
13.75
  0
TEXT
  8
0
 62
5
  6
CONTINUOUS
 10
502.0
 20
13.75
  7
TEXTSTYLE_7
 40
7.5
  1
Z13 Bore 90SQ
 41
0.6897435897
 72
0
  0
LINE
  8
0
 62
7
  6
CONTINUOUS
 10
0.0
 20
0.0
 11
0.0
 21
420.0
  0
LINE
  8
0
 62
7
  6
CONTINUOUS
 10
10.0
 20
10.0
 11
10.0
 21
410.0
  0
LINE
  8
0
 62
7
  6
CONTINUOUS
 10
0.0
 20
0.0
 11
594.0
 21
0.0
  0
LINE
  8
0
 62
7
  6
CONTINUOUS
 10
10.0
 20
10.0
 11
584.0
 21
10.0
  0
LINE
  8
0
 62
7
  6
CONTINUOUS
 10
394.0
 20
30.0
 11
584.0
 21
30.0
  0
LINE
  8
0
 62
7
  6
CONTINUOUS
 10
179.0
 20
5.0
 11
179.0
 21
10.0
  0
LINE
  8
0
 62
7
  6
CONTINUOUS
 10
179.0
 20
410.0
 11
179.0
 21
415.0
  0
LINE
  8
0
 62
7
  6
CONTINUOUS
 10
594.0
 20
420.0
 11
584.0
 21
410.0
  0
LINE
  8
0
 62
7
  6
CONTINUOUS
 10
384.0
 20
410.0
 11
384.0
 21
415.0
  0
LINE
  8
0
 62
7
  6
CONTINUOUS
 10
584.0
 20
297.0
 11
589.0
 21
297.0
  0
LINE
  8
0
 62
7
  6
CONTINUOUS
 10
10.0
 20
410.0
 11
584.0
 21
410.0
  0
LINE
  8
0
 62
7
  6
CONTINUOUS
 10
0.0
 20
420.0
 11
594.0
 21
420.0
  0
LINE
  8
0
 62
7
  6
CONTINUOUS
 10
584.0
 20
10.0
 11
584.0
 21
410.0
  0
LINE
  8
0
 62
7
  6
CONTINUOUS
 10
594.0
 20
0.0
 11
594.0
 21
420.0
  0
LINE
  8
0
 62
7
  6
CONTINUOUS
 10
59.5657693427
 20
261.904029565
 11
56.4313855018
 21
236.0900561997
  0
LINE
  8
0
 62
7
  6
CONTINUOUS
 10
76.3620203471
 20
312.2612047332
 11
61.5903097031
 21
290.8606872718
  0
LINE
  8
0
 62
7
  6
CONTINUOUS
 10
114.6365081867
 20
349.0446618756
 11
91.6114916298
 21
336.9602009642
  0
LINE
  8
0
 62
7
  6
CONTINUOUS
 10
201.0036182197
 20
146.4886375514
 11
226.2515704324
 21
152.7116988587
  0
LINE
  8
0
 62
7
  6
CONTINUOUS
 10
147.9628088115
 20
144.3365046444
 11
173.2107610241
 21
138.1134433371
  0
LINE
  8
0
 62
7
  6
CONTINUOUS
 10
99.9973584843
 20
167.0801787899
 11
119.4613091158
 21
149.8366232175
  0
LINE
  8
0
 62
7
  6
CONTINUOUS
 10
68.0955738617
 20
209.5093583321
 11
77.3165663885
 21
185.1955992689
  0
LINE
  8
0
 62
7
  6
CONTINUOUS
 10
178.5563846359
 20
347.0297867876
 11
178.1621246011
 21
346.8053499875
  0
LINE
  8
0
 62
7
  6
CONTINUOUS
 10
182.3570017107
 20
349.6971916365
 11
181.9518537204
 21
349.4930649848
  0
LINE
  8
0
 62
7
  6
CONTINUOUS
 10
181.8851259522
 20
348.9868053537
 11
182.2902739426
 21
349.1909320054
  0
LINE
  8
0
 62
7
  6
CONTINUOUS
 10
178.121190925
 20
346.2963549746
 11
178.3806199288
 21
346.403563265
  0
LINE
  8
0
 62
7
  6
CONTINUOUS
 10
178.3806199288
 20
346.403563265
 11
178.7851132082
 21
346.75524888
  0
LINE
  8
0
 62
7
  6
CONTINUOUS
 10
181.9518537204
 20
349.4930649848
 11
181.6706334108
 21
349.2726039919
  0
LINE
  8
0
 62
7
  6
CONTINUOUS
 10
181.6039056427
 20
348.7663443608
 11
181.8851259522
 21
348.9868053537
  0
LINE
  8
0
 62
7
  6
CONTINUOUS
 10
209.8579693408
 20
341.8686456379
 11
209.5274850037
 21
341.7327452741
  0
LINE
  8
0
 62
7
  6
CONTINUOUS
 10
208.7997357014
 20
339.4054965892
 11
208.4692513289
 21
339.2695961433
  0
LINE
  8
0
 62
7
  6
CONTINUOUS
 10
178.8362803026
 20
347.3914926377
 11
178.5563846359
 21
347.0297867876
  0
LINE
  8
0
 62
7
  6
CONTINUOUS
 10
209.9505566201
 20
341.1341548807
 11
210.4966725718
 21
341.4552993597
  0
LINE
  8
0
 62
7
  6
CONTINUOUS
 10
208.8923229278
 20
338.6710057088
 11
209.4384388971
 21
338.9921502288
  0
LINE
  8
0
 62
7
  6
CONTINUOUS
 10
231.6157016085
 20
329.4495293085
 11
232.0526715606
 21
329.5845471196
  0
LINE
  8
0
 62
7
  6
CONTINUOUS
 10
233.3826581725
 20
326.4897286216
 11
233.8196281247
 21
326.6247464328
  0
LINE
  8
0
 62
7
  6
CONTINUOUS
 10
231.6850824112
 20
324.2488374938
 11
232.1220529138
 21
324.3838548481
  0
LINE
  8
0
 62
7
  6
CONTINUOUS
 10
142.2835603741
 20
291.5795052948
 11
131.5480176081
 21
280.8439625288
  0
LINE
  8
0
 62
7
  6
CONTINUOUS
 10
163.8630064111
 20
310.3952590273
 11
148.306657225
 21
294.8389098412
  0
LINE
  8
0
 62
7
  6
CONTINUOUS
 10
128.2886130618
 20
274.8208656779
 11
112.7322638756
 21
259.2645164918
  0
LINE
  8
0
 62
7
  6
CONTINUOUS
 10
233.7610324746
 20
327.3370091633
 11
233.242528042
 21
327.1037615626
  0
LINE
  8
0
 62
7
  6
CONTINUOUS
 10
231.9819228404
 20
324.9978878578
 11
231.7226703489
 21
324.8812642858
  0
LINE
  8
0
 62
7
  6
CONTINUOUS
 10
131.5480176081
 20
225.1762026835
 11
142.2835603742
 21
214.4406599175
  0
LINE
  8
0
 62
7
  6
CONTINUOUS
 10
112.7322638756
 20
246.7556487205
 11
128.2886130618
 21
231.1992995344
  0
LINE
  8
0
 62
7
  6
CONTINUOUS
 10
148.306657225
 20
211.1812553711
 11
163.8630064111
 21
195.624906185
  0
LINE
  8
0
 62
7
  6
CONTINUOUS
 10
194.4019557093
 20
345.4217019826
 11
196.4017929801
 21
348.4460640087
  0
LINE
  8
0
 62
7
  6
CONTINUOUS
 10
193.257038888
 20
343.6184237023
 11
194.1458549773
 21
344.962584672
  0
LINE
  8
0
 62
7
  6
CONTINUOUS
 10
196.0553300004
 20
349.0711354734
 11
192.5339613306
 21
343.8175689911
  0
LINE
  8
0
 62
7
  6
CONTINUOUS
 10
204.9057505009
 20
346.2492326208
 11
201.3576986224
 21
341.8136038683
  0
LINE
  8
0
 62
7
  6
CONTINUOUS
 10
201.6175424318
 20
341.0455502639
 11
204.8358548611
 21
344.9205355499
  0
LINE
  8
0
 62
7
  6
CONTINUOUS
 10
210.1239930301
 20
342.1711825571
 11
209.8579693408
 21
341.8686456379
  0
LINE
  8
0
 62
7
  6
CONTINUOUS
 10
210.4966725718
 20
341.4552993597
 11
210.7626962611
 21
341.7578362789
  0
LINE
  8
0
 62
7
  6
CONTINUOUS
 10
209.0657593907
 20
339.7080335084
 11
208.7997357014
 21
339.4054965892
  0
LINE
  8
0
 62
7
  6
CONTINUOUS
 10
209.4384388971
 20
338.9921502288
 11
209.7044626217
 21
339.2946872302
  0
LINE
  8
0
 62
7
  6
CONTINUOUS
 10
231.557106096
 20
330.1617919248
 11
231.1347847812
 21
329.8487086595
  0
LINE
  8
0
 62
7
  6
CONTINUOUS
 10
232.1220529138
 20
324.3838548481
 11
232.4628393924
 21
324.5987087352
  0
LINE
  8
0
 62
7
  6
CONTINUOUS
 10
233.8196281247
 20
326.6247464328
 11
234.2419495771
 21
326.9378295839
  0
LINE
  8
DEFAULT_1
 62
2
  6
CENTER
 10
170.1174402968
 20
253.0100826062
 11
170.1174402968
 21
147.0713652165
  0
LINE
  8
DEFAULT_1
 62
2
  6
CENTER
 10
170.1174402968
 20
253.0100826062
 11
170.1174402968
 21
358.9487999958
  0
LINE
  8
0
 62
7
  6
CONTINUOUS
 10
173.8298712591
 20
374.0159916722
 11
173.1715141033
 21
364.6010457098
  0
LINE
  8
0
 62
7
  6
CONTINUOUS
 10
175.9464722875
 20
350.4414705097
 11
175.741803924
 21
347.896495657
  0
LINE
  8
0
 62
7
  6
CONTINUOUS
 10
176.3647925756
 20
347.8463945459
 11
176.5694609391
 21
350.3913693987
  0
LINE
  8
0
 62
7
  6
CONTINUOUS
 10
179.061415501
 20
350.190964958
 11
178.8362803026
 21
347.3914926377
  0
LINE
  8
0
 62
7
  6
CONTINUOUS
 10
179.4183354109
 20
346.8323964919
 11
179.6844042863
 21
350.1408638361
  0
LINE
  8
0
 62
7
  6
CONTINUOUS
 10
181.1344022347
 20
349.9871005639
 11
180.6005800427
 21
345.9370231609
  0
LINE
  8
0
 62
7
  6
CONTINUOUS
 10
181.2202209291
 20
345.8553511276
 11
181.6039056427
 21
348.7663443608
  0
LINE
  8
0
 62
7
  6
CONTINUOUS
 10
181.6706334108
 20
349.2726039919
 11
181.754043121
 21
349.9054285307
  0
LINE
  8
0
 62
7
  6
CONTINUOUS
 10
183.7678846398
 20
347.9660654663
 11
183.4509276944
 21
345.5613318642
  0
LINE
  8
0
 62
7
  6
CONTINUOUS
 10
184.0705682261
 20
345.4796598777
 11
184.3875251716
 21
347.8843934798
  0
LINE
  8
0
 62
7
  6
CONTINUOUS
 10
186.0348360981
 20
351.2291447432
 11
185.9307472882
 21
350.5993911435
  0
LINE
  8
0
 62
7
  6
CONTINUOUS
 10
185.72256961
 20
349.3398835912
 11
185.0564011682
 21
345.3094602002
  0
LINE
  8
0
 62
7
  6
CONTINUOUS
 10
185.6730347396
 20
345.2075399339
 11
186.3392031814
 21
349.2379633249
  0
LINE
  8
0
 62
7
  6
CONTINUOUS
 10
186.5473808595
 20
350.4974708772
 11
186.6514696694
 21
351.1272244769
  0
LINE
  8
0
 62
7
  6
CONTINUOUS
 10
124.252780741
 20
132.5139878086
 11
122.6512698926
 21
127.4465082051
  0
LINE
  8
0
 62
7
  6
CONTINUOUS
 10
200.3070160041
 20
347.8670249684
 11
198.3158863766
 21
342.2070423884
  0
LINE
  8
0
 62
7
  6
CONTINUOUS
 10
199.0233841991
 20
341.9581511849
 11
200.5908692755
 21
346.4138822958
  0
LINE
  8
0
 62
7
  6
CONTINUOUS
 10
204.8358548611
 20
344.9205355499
 11
203.2683697847
 21
340.464804439
  0
LINE
  8
0
 62
7
  6
CONTINUOUS
 10
207.2691582232
 20
345.3428910057
 11
204.9007304296
 21
339.8301285597
  0
LINE
  8
0
 62
7
  6
CONTINUOUS
 10
205.8921782189
 20
340.2378319917
 11
206.6480594454
 21
341.9972242985
  0
LINE
  8
0
 62
7
  6
CONTINUOUS
 10
206.9504118936
 20
342.7009811226
 11
207.6559010807
 21
344.3430807074
  0
LINE
  8
0
 62
7
  6
CONTINUOUS
 10
210.2247771795
 20
342.4057681652
 11
210.1239930301
 21
342.1711825571
  0
LINE
  8
0
 62
7
  6
CONTINUOUS
 10
209.2169356148
 20
340.0599119205
 11
209.0657593907
 21
339.7080335084
  0
LINE
  8
0
 62
7
  6
CONTINUOUS
 10
209.7044626217
 20
339.2946872302
 11
209.9564229952
 21
339.8811512503
  0
LINE
  8
0
 62
7
  6
CONTINUOUS
 10
210.7626962611
 20
341.7578362789
 11
210.9642647011
 21
342.2270078236
  0
LINE
  8
0
 62
7
  6
CONTINUOUS
 10
229.6388845594
 20
358.4302412356
 11
224.6805946965
 21
350.3996744277
  0
LINE
  8
0
 62
7
  6
CONTINUOUS
 10
223.9258062884
 20
336.7427509721
 11
223.5673528254
 21
336.2146078177
  0
LINE
  8
0
 62
7
  6
CONTINUOUS
 10
221.1298689255
 20
332.6232338499
 11
220.5563433344
 21
331.7782047289
  0
LINE
  8
0
 62
7
  6
CONTINUOUS
 10
229.196387632
 20
331.9623420223
 11
228.5783168724
 21
331.149326092
  0
LINE
  8
0
 62
7
  6
CONTINUOUS
 10
229.71618725
 20
331.4068194573
 11
226.7030929191
 21
327.4433676157
  0
LINE
  8
0
 62
7
  6
CONTINUOUS
 10
227.300151355
 20
326.9894720064
 11
230.9313162291
 21
331.7659394936
  0
LINE
  8
0
 62
7
  6
CONTINUOUS
 10
231.7621899548
 20
327.6688726638
 11
231.436052033
 21
327.2759535055
  0
LINE
  8
0
 62
7
  6
CONTINUOUS
 10
233.924101664
 20
327.5334690177
 11
233.7610324746
 21
327.3370091633
  0
LINE
  8
0
 62
7
  6
CONTINUOUS
 10
232.3080607622
 20
325.3908070162
 11
231.9819228404
 21
324.9978878578
  0
LINE
  8
0
 62
7
  6
CONTINUOUS
 10
234.2419495771
 20
326.9378295839
 11
234.4050187664
 21
327.1342894383
  0
LINE
  8
0
 62
7
  6
CONTINUOUS
 10
73.5089737354
 20
167.6304594734
 11
69.7359311089
 21
163.8876883252
  0
LINE
  8
0
 62
7
  6
CONTINUOUS
 10
271.8122522903
 20
318.6940029075
 11
263.689914174
 21
313.8875213311
  0
LINE
  8
0
 62
7
  6
CONTINUOUS
 10
44.8970021607
 20
222.306373862
 11
39.8167863518
 21
220.7457349338
  0
LINE
  8
0
 62
7
  6
CONTINUOUS
 10
299.0470785337
 20
252.854385041
 11
304.3531578459
 21
253.1538994173
  0
LINE
  8
DEFAULT_1
 62
2
  6
CENTER
 10
170.1174402968
 20
253.0100826062
 11
64.1787229071
 21
253.0100826062
  0
LINE
  8
DEFAULT_1
 62
2
  6
CENTER
 10
170.1174402968
 20
253.0100826062
 11
276.0561576864
 21
253.0100826062
  0
LINE
  8
0
 62
7
  6
CONTINUOUS
 10
50.4412846524
 20
271.281096337
 11
59.7082288725
 21
269.492693015
  0
LINE
  8
0
 62
7
  6
CONTINUOUS
 10
284.2066090926
 20
192.955628807
 11
289.0441002632
 21
190.7549776072
  0
LINE
  8
0
 62
7
  6
CONTINUOUS
 10
72.6404306119
 20
324.804544478
 11
80.0147897464
 21
318.9144282671
  0
LINE
  8
0
 62
7
  6
CONTINUOUS
 10
243.2296860039
 20
146.8146242038
 11
246.4903781038
 21
142.617950097
  0
LINE
  8
0
 62
7
  6
CONTINUOUS
 10
117.1703847649
 20
361.8807466212
 11
120.9627820066
 21
353.2382721617
  0
LINE
  8
0
 62
7
  6
CONTINUOUS
 10
185.5036285218
 20
125.0017193265
 11
186.4405362865
 21
119.7704297752
  0
LINE
  8
0
 62
7
  6
CONTINUOUS
 10
185.8127532309
 20
380.9809113505
 11
186.1549998371
 21
386.2844058391
  0
LINE
  8
0
 62
7
  6
CONTINUOUS
 10
137.5542763203
 20
136.4088282201
 11
140.4466468609
 21
145.3926377838
  0
LINE
  8
0
 62
7
  6
CONTINUOUS
 10
203.9758676072
 20
340.2159132356
 11
205.9669972347
 21
345.8758958157
  0
LINE
  8
0
 62
7
  6
CONTINUOUS
 10
243.485959172
 20
359.0286484127
 11
246.2536602733
 21
363.5656096362
  0
LINE
  8
0
 62
7
  6
CONTINUOUS
 10
224.6934659929
 20
328.9703183983
 11
225.1236101987
 21
329.6040902576
  0
LINE
  8
0
 62
7
  6
CONTINUOUS
 10
227.5610940987
 20
333.1954642254
 11
228.0629289469
 21
333.9348646416
  0
LINE
  8
0
 62
7
  6
CONTINUOUS
 10
232.4628393924
 20
324.5987087352
 11
232.7889773143
 21
324.9916278936
  0
LINE
  8
0
 62
7
  6
CONTINUOUS
 10
87.0968857369
 20
164.8976561662
 11
93.8329371379
 21
171.5082728654
  0
LINE
  8
0
 62
7
  6
CONTINUOUS
 10
284.3513216253
 20
312.7888097108
 11
288.9104302538
 21
315.5198745292
  0
LINE
  8
0
 62
7
  6
CONTINUOUS
 10
55.658503697
 20
213.5719791399
 11
64.6950877608
 21
216.2949903553
  0
LINE
  8
0
 62
7
  6
CONTINUOUS
 10
290.6885641489
 20
263.9103700155
 11
281.2629075568
 21
263.4290806753
  0
LINE
  8
0
 62
7
  6
CONTINUOUS
 10
44.9715238932
 20
284.016137904
 11
39.7479511204
 21
284.9951547665
  0
LINE
  8
0
 62
7
  6
CONTINUOUS
 10
281.9434845724
 20
206.6296126407
 11
273.3738138384
 21
210.5837731244
  0
LINE
  8
0
 62
7
  6
CONTINUOUS
 10
73.7154669019
 20
338.6227883408
 11
69.5451947367
 21
341.9171800293
  0
LINE
  8
0
 62
7
  6
CONTINUOUS
 10
247.5804059024
 20
159.9740619897
 11
241.8299293158
 21
167.4578217833
  0
LINE
  8
0
 62
7
  6
CONTINUOUS
 10
124.5439402457
 20
373.6165996387
 11
122.3823277838
 21
378.471660719
  0
LINE
  8
0
 62
7
  6
CONTINUOUS
 10
195.471495342
 20
134.6319424564
 11
193.8575777881
 21
143.9308623802
  0
LINE
  8
0
 62
7
  6
CONTINUOUS
 10
183.72736596
 20
348.6152244398
 11
183.7678846398
 21
347.9660654663
  0
LINE
  8
0
 62
7
  6
CONTINUOUS
 10
184.3875251716
 20
347.8843934798
 11
184.3470072009
 21
348.5335523598
  0
LINE
  8
0
 62
7
  6
CONTINUOUS
 10
229.0002390341
 20
327.4727993999
 11
228.8518189286
 21
327.0982740693
  0
LINE
  8
0
 62
7
  6
CONTINUOUS
 10
232.7889773143
 20
324.9916278936
 11
233.0189323701
 21
325.46438274
  0
LINE
  8
0
 62
7
  6
CONTINUOUS
 10
234.4050187664
 20
327.1342894383
 11
234.6349731577
 21
327.6070446039
  0
LINE
  8
0
 62
7
  6
CONTINUOUS
 10
176.4586900714
 20
347.4546281211
 11
176.3647925756
 21
347.8463945459
  0
LINE
  8
0
 62
7
  6
CONTINUOUS
 10
175.741803924
 20
347.896495657
 11
175.825467984
 21
347.3774804102
  0
LINE
  8
0
 62
7
  6
CONTINUOUS
 10
179.5019993502
 20
346.3133812772
 11
179.4183354109
 21
346.8323964919
  0
LINE
  8
0
 62
7
  6
CONTINUOUS
 10
197.3544779201
 20
342.4899338595
 11
197.01943387
 21
348.8056082951
  0
LINE
  8
0
 62
7
  6
CONTINUOUS
 10
196.5561139616
 20
344.2987669162
 11
196.6314003627
 21
342.6890791482
  0
LINE
  8
0
 62
7
  6
CONTINUOUS
 10
196.4017929801
 20
348.4460640087
 11
196.5711883814
 21
344.8242661164
  0
LINE
  8
0
 62
7
  6
CONTINUOUS
 10
200.5908692755
 20
346.4138822958
 11
200.6742129014
 21
341.3774048853
  0
LINE
  8
0
 62
7
  6
CONTINUOUS
 10
201.3576986224
 20
341.8136038683
 11
201.3682613884
 21
347.493688638
  0
LINE
  8
0
 62
7
  6
CONTINUOUS
 10
209.2532644443
 20
340.4611319896
 11
209.2169356148
 21
340.0599119205
  0
LINE
  8
0
 62
7
  6
CONTINUOUS
 10
209.9564229952
 20
339.8811512503
 11
209.9927518248
 21
340.2823713195
  0
LINE
  8
0
 62
7
  6
CONTINUOUS
 10
210.2611060796
 20
342.8069883986
 11
210.2247771795
 21
342.4057681652
  0
LINE
  8
0
 62
7
  6
CONTINUOUS
 10
210.9642647011
 20
342.2270078236
 11
211.0005934601
 21
342.6282277284
  0
LINE
  8
0
 62
7
  6
CONTINUOUS
 10
229.4142702934
 20
326.7973245767
 11
229.4811557238
 21
327.0736201631
  0
LINE
  8
0
 62
7
  6
CONTINUOUS
 10
175.825467984
 20
347.3774804102
 11
175.9295988861
 21
347.11296272
  0
LINE
  8
0
 62
7
  6
CONTINUOUS
 10
178.7851132082
 20
346.75524888
 11
178.9831416991
 21
346.0989646678
  0
LINE
  8
0
 62
7
  6
CONTINUOUS
 10
184.3470072009
 20
348.5335523598
 11
184.273124637
 21
348.9295815178
  0
LINE
  8
0
 62
7
  6
CONTINUOUS
 10
228.8518189286
 20
327.0982740693
 11
228.7995821355
 21
326.6439130286
  0
LINE
  8
0
 62
7
  6
CONTINUOUS
 10
232.4418322875
 20
325.9433978698
 11
232.3080607622
 21
325.3908070162
  0
LINE
  8
0
 62
7
  6
CONTINUOUS
 10
176.3718741824
 20
195.624906185
 11
191.9282233685
 21
211.1812553711
  0
LINE
  8
0
 62
7
  6
CONTINUOUS
 10
211.9462675318
 20
231.1992995344
 11
227.5026167179
 21
246.7556487205
  0
LINE
  8
0
 62
7
  6
CONTINUOUS
 10
197.9513202194
 20
214.4406599175
 11
208.6868629855
 21
225.1762026835
  0
LINE
  8
0
 62
7
  6
CONTINUOUS
 10
227.5026167179
 20
259.2645164918
 11
211.9462675318
 21
274.8208656779
  0
LINE
  8
0
 62
7
  6
CONTINUOUS
 10
191.9282233685
 20
294.8389098412
 11
176.3718741824
 21
310.3952590273
  0
LINE
  8
0
 62
7
  6
CONTINUOUS
 10
208.6868629855
 20
280.8439625288
 11
197.9513202194
 21
291.5795052948
  0
LINE
  8
0
 62
7
  6
CONTINUOUS
 10
176.6771853082
 20
347.0528413835
 11
176.4586900714
 21
347.4546281211
  0
LINE
  8
0
 62
7
  6
CONTINUOUS
 10
179.6061304844
 20
346.0488635459
 11
179.5019993502
 21
346.3133812772
  0
LINE
  8
0
 62
7
  6
CONTINUOUS
 10
229.4435677861
 20
326.4411933711
 11
229.4142702934
 21
326.7973245767
  0
LINE
  8
0
 62
7
  6
CONTINUOUS
 10
233.0189323701
 20
325.46438274
 11
233.0711687504
 21
325.9187441232
  0
LINE
  8
0
 62
7
  6
CONTINUOUS
 10
233.9763385946
 20
327.9878299441
 11
233.924101664
 21
327.5334690177
  0
LINE
  8
0
 62
7
  6
CONTINUOUS
 10
228.5783168724
 20
331.149326092
 11
229.71618725
 21
331.4068194573
  0
LINE
  8
0
 62
7
  6
CONTINUOUS
 10
230.3342577932
 20
332.2198351029
 11
229.196387632
 21
331.9623420223
  0
LINE
  8
0
 62
7
  6
CONTINUOUS
 10
231.7226703489
 20
324.8812642858
 11
231.3672348201
 21
324.8444761955
  0
LINE
  8
0
 62
7
  6
CONTINUOUS
 10
175.9295988861
 20
347.11296272
 11
176.2726918078
 21
346.7011558087
  0
LINE
  8
0
 62
7
  6
CONTINUOUS
 10
209.9927518248
 20
340.2823713195
 11
209.8497724707
 21
340.8995692726
  0
LINE
  8
0
 62
7
  6
CONTINUOUS
 10
211.0005934601
 20
342.6282277284
 11
210.857614106
 21
343.2454256816
  0
LINE
  8
0
 62
7
  6
CONTINUOUS
 10
234.6349731577
 20
327.6070446039
 11
234.5763775076
 21
328.3193073344
  0
LINE
  8
0
 62
7
  6
CONTINUOUS
 10
208.2817489437
 20
338.5164966251
 11
208.8923229278
 21
338.6710057088
  0
LINE
  8
0
 62
7
  6
CONTINUOUS
 10
221.6070534534
 20
331.9907953256
 11
227.5610940987
 21
333.1954642254
  0
LINE
  8
0
 62
7
  6
CONTINUOUS
 10
227.187333672
 20
333.7577082827
 11
221.1298689255
 21
332.6232338499
  0
LINE
  8
0
 62
7
  6
CONTINUOUS
 10
233.242528042
 20
327.1037615626
 11
232.8870922951
 21
327.0669737695
  0
LINE
  8
0
 62
7
  6
CONTINUOUS
 10
232.2679774522
 20
330.2353676253
 11
231.557106096
 21
330.1617919248
  0
LINE
  8
0
 62
7
  6
CONTINUOUS
 10
232.7533211592
 20
326.514382825
 11
233.3826581725
 21
326.4897286216
  0
LINE
  8
0
 62
7
  6
CONTINUOUS
 10
231.2334633804
 20
324.2918854451
 11
231.6850824112
 21
324.2488374938
  0
LINE
  8
0
 62
7
  6
CONTINUOUS
 10
176.2726918078
 20
346.7011558087
 11
176.6260182146
 21
346.4165976369
  0
LINE
  8
0
 62
7
  6
CONTINUOUS
 10
183.5128737732
 20
348.9010230312
 11
183.72736596
 21
348.6152244398
  0
LINE
  8
0
 62
7
  6
CONTINUOUS
 10
184.273124637
 20
348.9295815178
 11
184.0586324502
 21
349.2153801093
  0
LINE
  8
0
 62
7
  6
CONTINUOUS
 10
209.124348406
 20
340.794402842
 11
209.2532644443
 21
340.4611319896
  0
LINE
  8
0
 62
7
  6
CONTINUOUS
 10
210.1321900413
 20
343.1402592509
 11
210.2611060796
 21
342.8069883986
  0
LINE
  8
0
 62
7
  6
CONTINUOUS
 10
228.7995821355
 20
326.6439130286
 11
228.925063325
 21
326.2079457359
  0
LINE
  8
0
 62
7
  6
CONTINUOUS
 10
177.6125666923
 20
346.20918711
 11
178.121190925
 21
346.2963549746
  0
LINE
  8
0
 62
7
  6
CONTINUOUS
 10
209.6704643577
 20
341.115547321
 11
209.9505566201
 21
341.1341548807
  0
LINE
  8
0
 62
7
  6
CONTINUOUS
 10
208.4692513289
 20
339.2695961433
 11
208.0743116014
 21
339.3003300764
  0
LINE
  8
0
 62
7
  6
CONTINUOUS
 10
232.0526715606
 20
329.5845471196
 11
232.5042905629
 21
329.5414991339
  0
LINE
  8
0
 62
7
  6
CONTINUOUS
 10
230.6856611014
 20
324.4147691838
 11
231.2334633804
 21
324.2918854451
  0
LINE
  8
0
 62
7
  6
CONTINUOUS
 10
231.3672348201
 20
324.8444761955
 11
231.0933335537
 21
324.905918192
  0
LINE
  8
0
 62
7
  6
CONTINUOUS
 10
232.8157797098
 20
330.1124838607
 11
232.2679774522
 21
330.2353676253
  0
LINE
  8
0
 62
7
  6
CONTINUOUS
 10
176.6260182146
 20
346.4165976369
 11
177.1141756997
 21
346.2492680046
  0
LINE
  8
0
 62
7
  6
CONTINUOUS
 10
230.2193933171
 20
324.6358827294
 11
230.6856611014
 21
324.4147691838
  0
LINE
  8
0
 62
7
  6
CONTINUOUS
 10
177.1551093731
 20
346.758262984
 11
176.6771853082
 21
347.0528413835
  0
LINE
  8
0
 62
7
  6
CONTINUOUS
 10
183.2816996444
 20
349.0602567149
 11
183.5128737732
 21
348.9010230312
  0
LINE
  8
0
 62
7
  6
CONTINUOUS
 10
184.0586324502
 20
349.2153801093
 11
183.7202118734
 21
349.5175131354
  0
LINE
  8
0
 62
7
  6
CONTINUOUS
 10
208.8301928278
 20
341.0597223831
 11
209.124348406
 21
340.794402842
  0
LINE
  8
0
 62
7
  6
CONTINUOUS
 10
209.8497724707
 20
340.8995692726
 11
209.6704643577
 21
341.115547321
  0
LINE
  8
0
 62
7
  6
CONTINUOUS
 10
229.1467276394
 20
325.6921427872
 11
229.4499264485
 21
325.2745696453
  0
LINE
  8
0
 62
7
  6
CONTINUOUS
 10
210.857614106
 20
343.2454256816
 11
210.5493925834
 21
343.7946734529
  0
LINE
  8
0
 62
7
  6
CONTINUOUS
 10
233.0711687504
 20
325.9187441232
 11
232.7533211592
 21
326.514382825
  0
LINE
  8
0
 62
7
  6
CONTINUOUS
 10
228.925063325
 20
326.2079457359
 11
229.1467276394
 21
325.6921427872
  0
LINE
  8
0
 62
7
  6
CONTINUOUS
 10
229.5544000916
 20
326.1832917954
 11
229.4435677861
 21
326.4411933711
  0
LINE
  8
0
 62
7
  6
CONTINUOUS
 10
234.5763775076
 20
328.3193073344
 11
234.3547131719
 21
328.8351102573
  0
LINE
  8
0
 62
7
  6
CONTINUOUS
 10
232.3163509319
 20
326.3793652423
 11
232.4418322875
 21
325.9433978698
  0
LINE
  8
0
 62
7
  6
CONTINUOUS
 10
233.8508575142
 20
328.4237970882
 11
233.9763385946
 21
327.9878299441
  0
LINE
  8
0
 62
7
  6
CONTINUOUS
 10
178.1621246011
 20
346.8053499875
 11
177.6535003657
 21
346.7181820894
  0
LINE
  8
0
 62
7
  6
CONTINUOUS
 10
182.2902739426
 20
349.1909320054
 11
182.8026687355
 21
349.2521592679
  0
LINE
  8
0
 62
7
  6
CONTINUOUS
 10
182.8693965037
 20
349.758418899
 11
182.3570017107
 21
349.6971916365
  0
LINE
  8
0
 62
7
  6
CONTINUOUS
 10
209.5274850037
 20
341.7327452741
 11
209.1325452761
 21
341.7634792072
  0
LINE
  8
0
 62
7
  6
CONTINUOUS
 10
177.1141756997
 20
346.2492680046
 11
177.6125666923
 21
346.20918711
  0
LINE
  8
0
 62
7
  6
CONTINUOUS
 10
178.9831416991
 20
346.0989646678
 11
179.6061304844
 21
346.0488635459
  0
LINE
  8
0
 62
7
  6
CONTINUOUS
 10
177.6535003657
 20
346.7181820894
 11
177.1551093731
 21
346.758262984
  0
LINE
  8
0
 62
7
  6
CONTINUOUS
 10
179.6844042863
 20
350.1408638361
 11
179.061415501
 21
350.190964958
  0
LINE
  8
0
 62
7
  6
CONTINUOUS
 10
176.5694609391
 20
350.3913693987
 11
175.9464722875
 21
350.4414705097
  0
LINE
  8
0
 62
7
  6
CONTINUOUS
 10
180.6005800427
 20
345.9370231609
 11
181.2202209291
 21
345.8553511276
  0
LINE
  8
0
 62
7
  6
CONTINUOUS
 10
183.4509276944
 20
345.5613318642
 11
184.0705682261
 21
345.4796598777
  0
LINE
  8
0
 62
7
  6
CONTINUOUS
 10
183.3651093546
 20
349.6930812537
 11
182.8693965037
 21
349.758418899
  0
LINE
  8
0
 62
7
  6
CONTINUOUS
 10
181.754043121
 20
349.9054285307
 11
181.1344022347
 21
349.9871005639
  0
LINE
  8
0
 62
7
  6
CONTINUOUS
 10
185.0564011682
 20
345.3094602002
 11
185.6730347396
 21
345.2075399339
  0
LINE
  8
0
 62
7
  6
CONTINUOUS
 10
186.3392031814
 20
349.2379633249
 11
185.72256961
 21
349.3398835912
  0
LINE
  8
0
 62
7
  6
CONTINUOUS
 10
185.9307472882
 20
350.5993911435
 11
186.5473808595
 21
350.4974708772
  0
LINE
  8
0
 62
7
  6
CONTINUOUS
 10
186.6514696694
 20
351.1272244769
 11
186.0348360981
 21
351.2291447432
  0
LINE
  8
0
 62
7
  6
CONTINUOUS
 10
207.6571116527
 20
338.6459146629
 11
208.2817489437
 21
338.5164966251
  0
LINE
  8
0
 62
7
  6
CONTINUOUS
 10
192.5339613306
 20
343.8175689911
 11
193.257038888
 21
343.6184237023
  0
LINE
  8
0
 62
7
  6
CONTINUOUS
 10
196.6314003627
 20
342.6890791482
 11
197.3544779201
 21
342.4899338595
  0
LINE
  8
0
 62
7
  6
CONTINUOUS
 10
194.1458549773
 20
344.962584672
 11
196.5561139616
 21
344.2987669162
  0
LINE
  8
0
 62
7
  6
CONTINUOUS
 10
196.5711883814
 20
344.8242661164
 11
194.4019557093
 21
345.4217019826
  0
LINE
  8
0
 62
7
  6
CONTINUOUS
 10
197.01943387
 20
348.8056082951
 11
196.0553300004
 21
349.0711354734
  0
LINE
  8
0
 62
7
  6
CONTINUOUS
 10
198.3158863766
 20
342.2070423884
 11
199.0233841991
 21
341.9581511849
  0
LINE
  8
0
 62
7
  6
CONTINUOUS
 10
200.6742129014
 20
341.3774048853
 11
201.6175424318
 21
341.0455502639
  0
LINE
  8
0
 62
7
  6
CONTINUOUS
 10
203.2683697847
 20
340.464804439
 11
203.9758676072
 21
340.2159132356
  0
LINE
  8
0
 62
7
  6
CONTINUOUS
 10
205.9669972347
 20
345.8758958157
 11
204.9057505009
 21
346.2492326208
  0
LINE
  8
0
 62
7
  6
CONTINUOUS
 10
201.3682613884
 20
347.493688638
 11
200.3070160041
 21
347.8670249684
  0
LINE
  8
0
 62
7
  6
CONTINUOUS
 10
232.8870922951
 20
327.0669737695
 11
232.1469232515
 21
327.3495293201
  0
LINE
  8
0
 62
7
  6
CONTINUOUS
 10
182.8026687355
 20
349.2521592679
 11
183.2816996444
 21
349.0602567149
  0
LINE
  8
0
 62
7
  6
CONTINUOUS
 10
204.9007304296
 20
339.8301285597
 11
207.6571116527
 21
338.6459146629
  0
LINE
  8
0
 62
7
  6
CONTINUOUS
 10
208.0743116014
 20
339.3003300764
 11
205.8921782189
 21
340.2378319917
  0
LINE
  8
0
 62
7
  6
CONTINUOUS
 10
206.6480594454
 20
341.9972242985
 11
208.8301928278
 21
341.0597223831
  0
LINE
  8
0
 62
7
  6
CONTINUOUS
 10
209.1325452761
 20
341.7634792072
 11
206.9504118936
 21
342.7009811226
  0
LINE
  8
0
 62
7
  6
CONTINUOUS
 10
207.6559010807
 20
344.3430807074
 11
209.8380344631
 21
343.4055787921
  0
LINE
  8
0
 62
7
  6
CONTINUOUS
 10
210.0255394462
 20
344.158677109
 11
207.2691582232
 21
345.3428910057
  0
LINE
  8
0
 62
7
  6
CONTINUOUS
 10
183.7202118734
 20
349.5175131354
 11
183.3651093546
 21
349.6930812537
  0
LINE
  8
0
 62
7
  6
CONTINUOUS
 10
231.0933335537
 20
324.905918192
 11
230.5308825211
 21
325.206867525
  0
LINE
  8
0
 62
7
  6
CONTINUOUS
 10
232.5042905629
 20
329.5414991339
 11
233.0667418706
 21
329.2405495725
  0
LINE
  8
0
 62
7
  6
CONTINUOUS
 10
233.5705975283
 20
329.6518627417
 11
232.8157797098
 21
330.1124838607
  0
LINE
  8
0
 62
7
  6
CONTINUOUS
 10
220.5563433344
 20
331.7782047289
 11
224.6934659929
 21
328.9703183983
  0
LINE
  8
0
 62
7
  6
CONTINUOUS
 10
225.1236101987
 20
329.6040902576
 11
221.6070534534
 21
331.9907953256
  0
LINE
  8
0
 62
7
  6
CONTINUOUS
 10
223.5673528254
 20
336.2146078177
 11
227.187333672
 21
333.7577082827
  0
LINE
  8
0
 62
7
  6
CONTINUOUS
 10
228.0629289469
 20
333.9348646416
 11
223.9258062884
 21
336.7427509721
  0
LINE
  8
0
 62
7
  6
CONTINUOUS
 10
210.5493925834
 20
343.7946734529
 11
210.0255394462
 21
344.158677109
  0
LINE
  8
0
 62
7
  6
CONTINUOUS
 10
226.7030929191
 20
327.4433676157
 11
227.300151355
 21
326.9894720064
  0
LINE
  8
0
 62
7
  6
CONTINUOUS
 10
230.9313162291
 20
331.7659394936
 11
230.3342577932
 21
332.2198351029
  0
LINE
  8
0
 62
7
  6
CONTINUOUS
 10
229.4499264485
 20
325.2745696453
 11
230.2193933171
 21
324.6358827294
  0
LINE
  8
0
 62
7
  6
CONTINUOUS
 10
230.5308825211
 20
325.206867525
 11
229.9537824384
 21
325.6858826548
  0
LINE
  8
0
 62
7
  6
CONTINUOUS
 10
229.4811557238
 20
327.0736201631
 11
229.0002390341
 21
327.4727993999
  0
LINE
  8
0
 62
7
  6
CONTINUOUS
 10
231.436052033
 20
327.2759535055
 11
231.8207853297
 21
326.9566101617
  0
LINE
  8
0
 62
7
  6
CONTINUOUS
 10
232.1469232515
 20
327.3495293201
 11
231.7621899548
 21
327.6688726638
  0
LINE
  8
0
 62
7
  6
CONTINUOUS
 10
231.1347847812
 20
329.8487086595
 11
231.6157016085
 21
329.4495293085
  0
LINE
  8
0
 62
7
  6
CONTINUOUS
 10
233.0667418706
 20
329.2405495725
 11
233.4514751674
 21
328.9212062288
  0
LINE
  8
0
 62
7
  6
CONTINUOUS
 10
233.7629643143
 20
329.4921909556
 11
233.5705975283
 21
329.6518627417
  0
LINE
  8
0
 62
7
  6
CONTINUOUS
 10
209.8380344631
 20
343.4055787921
 11
210.1321900413
 21
343.1402592509
  0
LINE
  8
0
 62
7
  6
CONTINUOUS
 10
234.3547131719
 20
328.8351102573
 11
233.7629643143
 21
329.4921909556
  0
LINE
  8
0
 62
7
  6
CONTINUOUS
 10
231.8207853297
 20
326.9566101617
 11
232.3163509319
 21
326.3793652423
  0
LINE
  8
0
 62
7
  6
CONTINUOUS
 10
229.9537824384
 20
325.6858826548
 11
229.5544000916
 21
326.1832917954
  0
LINE
  8
0
 62
7
  6
CONTINUOUS
 10
233.4514751674
 20
328.9212062288
 11
233.8508575142
 21
328.4237970882
  0
LINE
  8
0
 62
7
  6
CONTINUOUS
 10
275.3282197878
 20
217.9178310094
 11
284.5492123146
 21
242.2315900727
  0
LINE
  8
0
 62
7
  6
CONTINUOUS
 10
246.9687764846
 20
173.0435497978
 11
266.4327271161
 21
190.2871053702
  0
LINE
  8
0
 62
7
  6
CONTINUOUS
 10
165.621008955
 20
363.8277542494
 11
139.6174402968
 21
363.8277542494
  0
LINE
  8
0
 62
7
  6
CONTINUOUS
 10
217.6355879559
 20
353.2238535476
 11
194.6105713989
 21
365.3083144589
  0
LINE
  8
0
 62
7
  6
CONTINUOUS
 10
258.7643319838
 20
319.6621856299
 11
243.9926213398
 21
341.0627030913
  0
LINE
  8
0
 62
7
  6
CONTINUOUS
 10
279.585141437
 20
270.8313241544
 11
276.4507575962
 21
296.6452975196
  0
LINE
  8
0
 62
7
  6
CONTINUOUS
 10
463.1452560241
 20
118.9467216526
 11
472.1452560241
 21
118.9467216526
  0
LINE
  8
0
 62
7
  6
CONTINUOUS
 10
488.5452560241
 20
118.9467216526
 11
497.5452560241
 21
118.9467216526
  0
LINE
  8
0
 62
9
  6
CONTINUOUS
 10
497.5452560241
 20
119.7704297752
 11
488.5452560241
 21
119.7704297752
  0
LINE
  8
0
 62
9
  6
CONTINUOUS
 10
472.1452560241
 20
119.7704297752
 11
463.1452560241
 21
119.7704297752
  0
LINE
  8
0
 62
9
  6
CONTINUOUS
 10
497.5452560241
 20
125.0017193265
 11
488.5452560241
 21
125.0017193265
  0
LINE
  8
0
 62
9
  6
CONTINUOUS
 10
472.1452560241
 20
125.0017193265
 11
463.1452560241
 21
125.0017193265
  0
LINE
  8
0
 62
7
  6
CONTINUOUS
 10
463.1452560241
 20
126.1451622618
 11
472.1452560241
 21
126.1451622618
  0
LINE
  8
0
 62
7
  6
CONTINUOUS
 10
488.5452560241
 20
126.1451622618
 11
497.5452560241
 21
126.1451622618
  0
LINE
  8
0
 62
9
  6
CONTINUOUS
 10
497.5452560241
 20
127.4465082051
 11
488.5452560241
 21
127.4465082051
  0
LINE
  8
0
 62
9
  6
CONTINUOUS
 10
472.1452560241
 20
127.4465082051
 11
463.1452560241
 21
127.4465082051
  0
LINE
  8
0
 62
9
  6
CONTINUOUS
 10
497.5452560241
 20
132.5139878086
 11
488.5452560241
 21
132.5139878086
  0
LINE
  8
0
 62
9
  6
CONTINUOUS
 10
472.1452560241
 20
132.5139878086
 11
463.1452560241
 21
132.5139878086
  0
LINE
  8
0
 62
7
  6
CONTINUOUS
 10
488.5452560241
 20
145.5100826062
 11
472.1452560241
 21
145.5100826062
  0
LINE
  8
0
 62
7
  6
CONTINUOUS
 10
457.3452560241
 20
145.5100826062
 11
463.1452560241
 21
145.5100826062
  0
LINE
  8
0
 62
7
  6
CONTINUOUS
 10
497.5452560241
 20
145.5100826062
 11
503.3452560241
 21
145.5100826062
  0
LINE
  8
0
 62
9
  6
CONTINUOUS
 10
497.5452560241
 20
149.8366232175
 11
488.5452560241
 21
149.8366232175
  0
LINE
  8
0
 62
9
  6
CONTINUOUS
 10
472.1452560241
 20
149.8366232175
 11
463.1452560241
 21
149.8366232175
  0
LINE
  8
0
 62
7
  6
CONTINUOUS
 10
463.1452560241
 20
160.6607239341
 11
472.1452560241
 21
160.6607239341
  0
LINE
  8
0
 62
7
  6
CONTINUOUS
 10
488.5452560241
 20
160.6607239341
 11
497.5452560241
 21
160.6607239341
  0
LINE
  8
0
 62
9
  6
CONTINUOUS
 10
497.5452560241
 20
162.2876679339
 11
488.5452560241
 21
162.2876679339
  0
LINE
  8
0
 62
9
  6
CONTINUOUS
 10
472.1452560241
 20
162.2876679339
 11
463.1452560241
 21
162.2876679339
  0
LINE
  8
0
 62
9
  6
CONTINUOUS
 10
497.5452560241
 20
163.8876883252
 11
488.5452560241
 21
163.8876883252
  0
LINE
  8
0
 62
9
  6
CONTINUOUS
 10
472.1452560241
 20
163.8876883252
 11
463.1452560241
 21
163.8876883252
  0
LINE
  8
0
 62
9
  6
CONTINUOUS
 10
497.5452560241
 20
167.6304594734
 11
488.5452560241
 21
167.6304594734
  0
LINE
  8
0
 62
9
  6
CONTINUOUS
 10
472.1452560241
 20
167.6304594734
 11
463.1452560241
 21
167.6304594734
  0
LINE
  8
0
 62
9
  6
CONTINUOUS
 10
497.5452560241
 20
185.1955992689
 11
488.5452560241
 21
185.1955992689
  0
LINE
  8
0
 62
9
  6
CONTINUOUS
 10
472.1452560241
 20
185.1955992689
 11
463.1452560241
 21
185.1955992689
  0
LINE
  8
0
 62
9
  6
CONTINUOUS
 10
463.1452560241
 20
209.5093583321
 11
472.1452560241
 21
209.5093583321
  0
LINE
  8
0
 62
9
  6
CONTINUOUS
 10
488.5452560241
 20
209.5093583321
 11
497.5452560241
 21
209.5093583321
  0
LINE
  8
0
 62
9
  6
CONTINUOUS
 10
463.1452560241
 20
211.3479509158
 11
472.1452560241
 21
211.3479509158
  0
LINE
  8
0
 62
9
  6
CONTINUOUS
 10
488.5452560241
 20
211.3479509158
 11
497.5452560241
 21
211.3479509158
  0
LINE
  8
0
 62
7
  6
CONTINUOUS
 10
463.1452560241
 20
212.9426028736
 11
472.1452560241
 21
212.9426028736
  0
LINE
  8
0
 62
7
  6
CONTINUOUS
 10
488.5452560241
 20
212.9426028736
 11
497.5452560241
 21
212.9426028736
  0
LINE
  8
0
 62
9
  6
CONTINUOUS
 10
497.5452560241
 20
219.2135352108
 11
488.5452560241
 21
219.2135352108
  0
LINE
  8
0
 62
9
  6
CONTINUOUS
 10
472.1452560241
 20
219.2135352108
 11
463.1452560241
 21
219.2135352108
  0
LINE
  8
0
 62
9
  6
CONTINUOUS
 10
497.5452560241
 20
220.7457349338
 11
488.5452560241
 21
220.7457349338
  0
LINE
  8
0
 62
9
  6
CONTINUOUS
 10
472.1452560241
 20
220.7457349338
 11
463.1452560241
 21
220.7457349338
  0
LINE
  8
0
 62
9
  6
CONTINUOUS
 10
497.5452560241
 20
222.306373862
 11
488.5452560241
 21
222.306373862
  0
LINE
  8
0
 62
9
  6
CONTINUOUS
 10
472.1452560241
 20
222.306373862
 11
463.1452560241
 21
222.306373862
  0
LINE
  8
0
 62
7
  6
CONTINUOUS
 10
455.3452560241
 20
358.5100826062
 11
455.3452560241
 21
147.5100826062
  0
LINE
  8
0
 62
9
  6
CONTINUOUS
 10
457.3452560241
 20
360.5100826062
 11
457.3452560241
 21
145.5100826062
  0
LINE
  8
0
 62
7
  6
CONTINUOUS
 10
463.1452560241
 20
118.9467312081
 11
463.1452560241
 21
387.3487840993
  0
LINE
  8
0
 62
9
  6
CONTINUOUS
 10
497.5452560241
 20
236.0900561997
 11
488.5452560241
 21
236.0900561997
  0
LINE
  8
0
 62
9
  6
CONTINUOUS
 10
472.1452560241
 20
236.0900561997
 11
463.1452560241
 21
236.0900561997
  0
LINE
  8
0
 62
7
  6
CONTINUOUS
 10
472.1452560241
 20
118.9467221407
 11
472.1452560241
 21
387.3488041704
  0
LINE
  8
DEFAULT_1
 62
2
  6
CENTER
 10
450.3452560241
 20
253.0100826062
 11
510.3452560241
 21
253.0100826062
  0
LINE
  8
0
 62
7
  6
CONTINUOUS
 10
488.5452560241
 20
118.9467221407
 11
488.5452560241
 21
387.3488041704
  0
LINE
  8
0
 62
9
  6
CONTINUOUS
 10
463.1452560241
 20
261.904029565
 11
472.1452560241
 21
261.904029565
  0
LINE
  8
0
 62
9
  6
CONTINUOUS
 10
488.5452560241
 20
261.904029565
 11
497.5452560241
 21
261.904029565
  0
LINE
  8
0
 62
9
  6
CONTINUOUS
 10
463.1452560241
 20
263.4300490725
 11
472.1452560241
 21
263.4300490725
  0
LINE
  8
0
 62
9
  6
CONTINUOUS
 10
488.5452560241
 20
263.4300490725
 11
497.5452560241
 21
263.4300490725
  0
LINE
  8
0
 62
7
  6
CONTINUOUS
 10
497.5452560241
 20
118.9467312081
 11
497.5452560241
 21
387.3487840993
  0
LINE
  8
0
 62
9
  6
CONTINUOUS
 10
463.1452560241
 20
269.492693015
 11
472.1452560241
 21
269.492693015
  0
LINE
  8
0
 62
9
  6
CONTINUOUS
 10
488.5452560241
 20
269.492693015
 11
497.5452560241
 21
269.492693015
  0
LINE
  8
0
 62
9
  6
CONTINUOUS
 10
497.5452560241
 20
271.281096337
 11
488.5452560241
 21
271.281096337
  0
LINE
  8
0
 62
9
  6
CONTINUOUS
 10
472.1452560241
 20
271.281096337
 11
463.1452560241
 21
271.281096337
  0
LINE
  8
0
 62
9
  6
CONTINUOUS
 10
503.3452560241
 20
360.5100826062
 11
503.3452560241
 21
145.5100826062
  0
LINE
  8
0
 62
7
  6
CONTINUOUS
 10
505.3452560241
 20
358.5100826062
 11
505.3452560241
 21
147.5100826062
  0
LINE
  8
0
 62
9
  6
CONTINUOUS
 10
497.5452560241
 20
283.8817842034
 11
488.5452560241
 21
283.8817842034
  0
LINE
  8
0
 62
9
  6
CONTINUOUS
 10
472.1452560241
 20
283.8817842034
 11
463.1452560241
 21
283.8817842034
  0
LINE
  8
0
 62
7
  6
CONTINUOUS
 10
463.1452560241
 20
285.012268846
 11
472.1452560241
 21
285.012268846
  0
LINE
  8
0
 62
7
  6
CONTINUOUS
 10
488.5452560241
 20
285.012268846
 11
497.5452560241
 21
285.012268846
  0
LINE
  8
0
 62
9
  6
CONTINUOUS
 10
497.5452560241
 20
290.8606872718
 11
488.5452560241
 21
290.8606872718
  0
LINE
  8
0
 62
9
  6
CONTINUOUS
 10
472.1452560241
 20
290.8606872718
 11
463.1452560241
 21
290.8606872718
  0
LINE
  8
0
 62
9
  6
CONTINUOUS
 10
463.1452560241
 20
312.2612047332
 11
472.1452560241
 21
312.2612047332
  0
LINE
  8
0
 62
9
  6
CONTINUOUS
 10
488.5452560241
 20
312.2612047332
 11
497.5452560241
 21
312.2612047332
  0
LINE
  8
0
 62
9
  6
CONTINUOUS
 10
463.1452560241
 20
313.1250584859
 11
472.1452560241
 21
313.1250584859
  0
LINE
  8
0
 62
9
  6
CONTINUOUS
 10
488.5452560241
 20
313.1250584859
 11
497.5452560241
 21
313.1250584859
  0
LINE
  8
0
 62
9
  6
CONTINUOUS
 10
463.1452560241
 20
318.9144282671
 11
472.1452560241
 21
318.9144282671
  0
LINE
  8
0
 62
9
  6
CONTINUOUS
 10
488.5452560241
 20
318.9144282671
 11
497.5452560241
 21
318.9144282671
  0
LINE
  8
0
 62
9
  6
CONTINUOUS
 10
497.5452560241
 20
324.804544478
 11
488.5452560241
 21
324.804544478
  0
LINE
  8
0
 62
9
  6
CONTINUOUS
 10
472.1452560241
 20
324.804544478
 11
463.1452560241
 21
324.804544478
  0
LINE
  8
0
 62
9
  6
CONTINUOUS
 10
497.5452560241
 20
341.4776984044
 11
488.5452560241
 21
341.4776984044
  0
LINE
  8
0
 62
9
  6
CONTINUOUS
 10
472.1452560241
 20
341.4776984044
 11
463.1452560241
 21
341.4776984044
  0
LINE
  8
0
 62
7
  6
CONTINUOUS
 10
463.1452560241
 20
342.1324868749
 11
472.1452560241
 21
342.1324868749
  0
LINE
  8
0
 62
7
  6
CONTINUOUS
 10
488.5452560241
 20
342.1324868749
 11
497.5452560241
 21
342.1324868749
  0
LINE
  8
0
 62
9
  6
CONTINUOUS
 10
463.1452560241
 20
349.0446618756
 11
472.1452560241
 21
349.0446618756
  0
LINE
  8
0
 62
9
  6
CONTINUOUS
 10
488.5452560241
 20
349.0446618756
 11
497.5452560241
 21
349.0446618756
  0
LINE
  8
0
 62
7
  6
CONTINUOUS
 10
463.1452560241
 20
349.2737498243
 11
472.1452560241
 21
349.2737498243
  0
LINE
  8
0
 62
7
  6
CONTINUOUS
 10
488.5452560241
 20
349.2737498243
 11
497.5452560241
 21
349.2737498243
  0
LINE
  8
0
 62
9
  6
CONTINUOUS
 10
463.1452560241
 20
353.2382721617
 11
472.1452560241
 21
353.2382721617
  0
LINE
  8
0
 62
9
  6
CONTINUOUS
 10
488.5452560241
 20
353.2382721617
 11
497.5452560241
 21
353.2382721617
  0
LINE
  8
0
 62
7
  6
CONTINUOUS
 10
488.5452560241
 20
360.5100826062
 11
472.1452560241
 21
360.5100826062
  0
LINE
  8
0
 62
7
  6
CONTINUOUS
 10
457.3452560241
 20
360.5100826062
 11
463.1452560241
 21
360.5100826062
  0
LINE
  8
0
 62
7
  6
CONTINUOUS
 10
497.5452560241
 20
360.5100826062
 11
503.3452560241
 21
360.5100826062
  0
LINE
  8
0
 62
9
  6
CONTINUOUS
 10
497.5452560241
 20
361.8807466212
 11
488.5452560241
 21
361.8807466212
  0
LINE
  8
0
 62
9
  6
CONTINUOUS
 10
472.1452560241
 20
361.8807466212
 11
463.1452560241
 21
361.8807466212
  0
LINE
  8
0
 62
9
  6
CONTINUOUS
 10
497.5452560241
 20
378.8067479764
 11
488.5452560241
 21
378.8067479764
  0
LINE
  8
0
 62
9
  6
CONTINUOUS
 10
472.1452560241
 20
378.8067479764
 11
463.1452560241
 21
378.8067479764
  0
LINE
  8
0
 62
7
  6
CONTINUOUS
 10
463.1452560241
 20
379.064924076
 11
472.1452560241
 21
379.064924076
  0
LINE
  8
0
 62
7
  6
CONTINUOUS
 10
488.5452560241
 20
379.064924076
 11
497.5452560241
 21
379.064924076
  0
LINE
  8
0
 62
9
  6
CONTINUOUS
 10
497.5452560241
 20
387.3172975263
 11
488.5452560241
 21
387.3172975263
  0
LINE
  8
0
 62
9
  6
CONTINUOUS
 10
472.1452560241
 20
387.3172975263
 11
463.1452560241
 21
387.3172975263
  0
LINE
  8
0
 62
7
  6
CONTINUOUS
 10
463.1452560241
 20
387.3488041705
 11
472.1452560241
 21
387.3488041705
  0
LINE
  8
0
 62
7
  6
CONTINUOUS
 10
488.5452560241
 20
387.3488041705
 11
497.5452560241
 21
387.3488041705
  0
CIRCLE
  8
0
 62
7
  6
CONTINUOUS
 10
170.1174402968
 20
253.0100826062
 40
107.5
  0
CIRCLE
  8
0
 62
9
  6
CONTINUOUS
 10
170.1174402968
 20
253.0100826062
 40
105.5
  0
ARC
  8
0
 62
7
  6
CONTINUOUS
 10
169.2620525634
 20
122.0929033496
 40
16.5
 50
10.1538461538
 51
76.1538461538
  0
ARC
  8
0
 62
7
  6
CONTINUOUS
 10
108.5197852549
 20
137.4861958727
 40
16.5
 50
342.4615384615
 51
48.4615384615
  0
ARC
  8
0
 62
7
  6
CONTINUOUS
 10
61.8887983842
 20
179.3446186327
 40
16.5
 50
314.7692307692
 51
20.7692307692
  0
ARC
  8
0
 62
7
  6
CONTINUOUS
 10
40.0516890792
 20
238.0789114239
 40
16.5
 50
287.0769230769
 51
353.0769230769
  0
ARC
  8
0
 62
7
  6
CONTINUOUS
 10
123.4664103607
 20
140.9444684952
 40
14.8
 50
270.574521923
 51
342.1538461538
  0
ARC
  8
0
 62
7
  6
CONTINUOUS
 10
76.7305170703
 20
175.4607239341
 40
14.8
 50
242.8822142307
 51
314.4615384615
  0
ARC
  8
0
 62
7
  6
CONTINUOUS
 10
51.3884424566
 20
227.7426028736
 40
14.8
 50
215.1899065384
 51
286.7692307692
  0
ARC
  8
0
 62
7
  6
CONTINUOUS
 10
170.1174402968
 20
194.4028397095
 40
6.0
 50
175.4216527464
 51
4.5783472536
  0
ARC
  8
0
 62
7
  6
CONTINUOUS
 10
144.0640165379
 20
206.938614684
 40
6.0
 50
45.0
 51
78.1598440864
  0
ARC
  8
0
 62
7
  6
CONTINUOUS
 10
146.5262010613
 20
218.6833006046
 40
6.0
 50
225.0
 51
258.1598440864
  0
ARC
  8
0
 62
7
  6
CONTINUOUS
 10
135.7906582952
 20
229.4188433707
 40
6.0
 50
191.8401559136
 51
225.0
  0
ARC
  8
0
 62
7
  6
CONTINUOUS
 10
124.0459723746
 20
226.9566588473
 40
6.0
 50
11.8401559136
 51
45.0
  0
ARC
  8
0
 62
7
  6
CONTINUOUS
 10
111.5101974001
 20
253.0100826062
 40
6.0
 50
85.4216527464
 51
274.5783472535
  0
ARC
  8
0
 62
7
  6
CONTINUOUS
 10
143.540266075
 20
144.3966356963
 40
3.25
 50
21.0037507329
 51
162.1538461538
  0
ARC
  8
0
 62
7
  6
CONTINUOUS
 10
96.1093356627
 20
169.1886802812
 40
3.25
 50
353.3114430405
 51
134.4615384615
  0
ARC
  8
0
 62
7
  6
CONTINUOUS
 10
65.6327701278
 20
213.1831979813
 40
3.25
 50
325.6191353483
 51
106.7692307692
  0
ARC
  8
0
 62
7
  6
CONTINUOUS
 10
148.4414401401
 20
146.2783882793
 40
2.0
 50
201.0037507329
 51
256.1538461538
  0
ARC
  8
0
 62
7
  6
CONTINUOUS
 10
101.3236038008
 20
168.5772002863
 40
2.0
 50
173.3114430407
 51
228.4615384615
  0
ARC
  8
0
 62
7
  6
CONTINUOUS
 10
69.9656063471
 20
210.2185681062
 40
2.0
 50
145.6191353482
 51
200.7692307692
  0
ARC
  8
0
 62
7
  6
CONTINUOUS
 10
123.6047847705
 20
127.1451622618
 40
1.0
 50
162.4615384615
 51
270.574521923
  0
ARC
  8
0
 62
7
  6
CONTINUOUS
 10
70.4401841605
 20
163.1777392852
 40
1.0
 50
134.7692307692
 51
242.8822142307
  0
ARC
  8
0
 62
7
  6
CONTINUOUS
 10
40.1104416901
 20
219.7898235664
 40
1.0
 50
107.0769230769
 51
215.1899065384
  0
ARC
  8
0
 62
7
  6
CONTINUOUS
 10
163.1952530658
 20
194.9571528398
 40
0.9443458372
 50
355.4216527464
 51
45.0
  0
ARC
  8
0
 62
7
  6
CONTINUOUS
 10
112.0645105304
 20
246.0878953752
 40
0.9443458372
 50
45.0
 51
94.5783472535
  0
ARC
  8
0
 62
7
  6
CONTINUOUS
 10
139.6174402968
 20
380.3277542494
 40
16.5
 50
204.0
 51
270.0
  0
ARC
  8
0
 62
7
  6
CONTINUOUS
 10
48.0110759159
 20
300.2337555928
 40
16.5
 50
259.3846153846
 51
325.3846153846
  0
ARC
  8
0
 62
7
  6
CONTINUOUS
 10
83.943559291
 20
351.5702253875
 40
16.5
 50
231.6923076923
 51
297.6923076923
  0
ARC
  8
0
 62
7
  6
CONTINUOUS
 10
130.7229896905
 20
367.8277542494
 40
14.8
 50
132.1129834615
 51
203.6923076923
  0
ARC
  8
0
 62
7
  6
CONTINUOUS
 10
53.2457504086
 20
285.8129569138
 40
14.8
 50
187.4975988461
 51
259.0769230769
  0
ARC
  8
0
 62
7
  6
CONTINUOUS
 10
81.8769540574
 20
336.3685677675
 40
14.8
 50
159.8052911538
 51
231.3846153846
  0
ARC
  8
0
 62
7
  6
CONTINUOUS
 10
124.0459723746
 20
279.063506365
 40
6.0
 50
315.0
 51
348.1598440864
  0
ARC
  8
0
 62
7
  6
CONTINUOUS
 10
135.7906582952
 20
276.6013218416
 40
6.0
 50
135.0
 51
168.1598440864
  0
ARC
  8
0
 62
7
  6
CONTINUOUS
 10
146.5262010613
 20
287.3368646077
 40
6.0
 50
101.8401559136
 51
135.0
  0
ARC
  8
0
 62
7
  6
CONTINUOUS
 10
144.0640165379
 20
299.0815505283
 40
6.0
 50
281.8401559136
 51
315.0
  0
ARC
  8
0
 62
7
  6
CONTINUOUS
 10
170.1174402968
 20
311.6173255028
 40
6.0
 50
355.4216527464
 51
184.5783472536
  0
CIRCLE
  8
0
 62
7
  6
CONTINUOUS
 10
170.1174402968
 20
354.0100826062
 40
4.0
  0
ARC
  8
0
 62
7
  6
CONTINUOUS
 10
117.9867032223
 20
351.9323414325
 40
3.25
 50
242.5422122714
 51
23.6923076923
  0
ARC
  8
0
 62
7
  6
CONTINUOUS
 10
169.9294309399
 20
364.8277542494
 40
3.25
 50
214.849904579
 51
356.0
  0
ARC
  8
0
 62
7
  6
CONTINUOUS
 10
59.0923833518
 20
266.301574983
 40
3.25
 50
297.9268276559
 51
79.0769230769
  0
ARC
  8
0
 62
7
  6
CONTINUOUS
 10
77.9864991249
 20
316.375031261
 40
3.25
 50
270.2345199637
 51
51.3846153846
  0
ARC
  8
0
 62
7
  6
CONTINUOUS
 10
115.5659545308
 20
347.2737498243
 40
2.0
 50
62.5422122714
 51
117.6923076923
  0
ARC
  8
0
 62
7
  6
CONTINUOUS
 10
165.621008955
 20
361.8277542494
 40
2.0
 50
34.849904579
 51
90.0
  0
ARC
  8
0
 62
7
  6
CONTINUOUS
 10
61.5511870909
 20
261.6629562044
 40
2.0
 50
117.926827656
 51
173.0769230769
  0
ARC
  8
0
 62
7
  6
CONTINUOUS
 10
78.0079880789
 20
311.1250752397
 40
2.0
 50
90.2345199636
 51
145.3846153846
  0
ARC
  8
0
 62
7
  6
CONTINUOUS
 10
121.4687823261
 20
378.064924076
 40
1.0
 50
24.0
 51
132.1129834615
  0
ARC
  8
0
 62
7
  6
CONTINUOUS
 10
39.5637358463
 20
284.012268846
 40
1.0
 50
79.3846153846
 51
187.4975988461
  0
ARC
  8
0
 62
7
  6
CONTINUOUS
 10
68.9253103494
 20
341.1324868749
 40
1.0
 50
51.6923076923
 51
159.8052911538
  0
ARC
  8
0
 62
7
  6
CONTINUOUS
 10
112.0645105304
 20
259.9322698371
 40
0.9443458372
 50
265.4216527464
 51
315.0
  0
ARC
  8
0
 62
7
  6
CONTINUOUS
 10
163.1952530658
 20
311.0630123725
 40
0.9443458372
 50
315.0
 51
4.5783472536
  0
ARC
  8
0
 62
7
  6
CONTINUOUS
 10
299.9769803189
 20
236.3806094365
 40
16.5
 50
93.2307692308
 51
159.2307692308
  0
ARC
  8
0
 62
7
  6
CONTINUOUS
 10
277.3742509771
 20
177.9366780254
 40
16.5
 50
65.5384615385
 51
131.5384615385
  0
ARC
  8
0
 62
7
  6
CONTINUOUS
 10
230.2002788931
 20
136.6911588711
 40
16.5
 50
37.8461538462
 51
103.8461538462
  0
ARC
  8
0
 62
7
  6
CONTINUOUS
 10
291.4432929379
 20
249.1296263111
 40
14.8
 50
21.3437526922
 51
92.9230769231
  0
ARC
  8
0
 62
7
  6
CONTINUOUS
 10
275.742809627
 20
193.1911741071
 40
14.8
 50
353.6514449999
 51
65.2307692308
  0
ARC
  8
0
 62
7
  6
CONTINUOUS
 10
235.8448271262
 20
150.9565129443
 40
14.8
 50
325.9591373076
 51
37.5384615385
  0
ARC
  8
0
 62
7
  6
CONTINUOUS
 10
180.8894924036
 20
132.1010947121
 40
14.8
 50
298.2668296153
 51
9.8461538462
  0
ARC
  8
0
 62
7
  6
CONTINUOUS
 10
228.7246831934
 20
253.0100826062
 40
6.0
 50
265.4216527464
 51
94.5783472536
  0
ARC
  8
0
 62
7
  6
CONTINUOUS
 10
216.1889082189
 20
226.9566588473
 40
6.0
 50
135.0
 51
168.1598440864
  0
ARC
  8
0
 62
7
  6
CONTINUOUS
 10
204.4442222983
 20
229.4188433707
 40
6.0
 50
315.0
 51
348.1598440864
  0
ARC
  8
0
 62
7
  6
CONTINUOUS
 10
193.7086795323
 20
218.6833006046
 40
6.0
 50
281.8401559136
 51
315.0
  0
ARC
  8
0
 62
7
  6
CONTINUOUS
 10
196.1708640557
 20
206.938614684
 40
6.0
 50
101.8401559136
 51
135.0
  0
ARC
  8
0
 62
7
  6
CONTINUOUS
 10
274.7354485392
 20
213.5347815861
 40
3.25
 50
104.0806738098
 51
245.2307692308
  0
ARC
  8
0
 62
7
  6
CONTINUOUS
 10
244.4069989795
 20
169.4380268101
 40
3.25
 50
76.3883661175
 51
217.5384615385
  0
ARC
  8
0
 62
7
  6
CONTINUOUS
 10
197.0597068118
 20
144.4866228646
 40
3.25
 50
48.6960584252
 51
189.8461538462
  0
ARC
  8
0
 62
7
  6
CONTINUOUS
 10
273.4581873025
 20
218.6270407835
 40
2.0
 50
284.0806738098
 51
339.2307692308
  0
ARC
  8
0
 62
7
  6
CONTINUOUS
 10
245.6425311681
 20
174.5405712941
 40
2.0
 50
256.3883661175
 51
311.5384615385
  0
ARC
  8
0
 62
7
  6
CONTINUOUS
 10
200.5249868912
 20
148.4305211862
 40
2.0
 50
228.6960584252
 51
283.8461538462
  0
ARC
  8
0
 62
7
  6
CONTINUOUS
 10
289.4581825732
 20
191.6652170485
 40
1.0
 50
245.5384615385
 51
353.6514449999
  0
ARC
  8
0
 62
7
  6
CONTINUOUS
 10
247.2800391408
 20
143.2314934505
 40
1.0
 50
217.8461538461
 51
325.9591373076
  0
ARC
  8
0
 62
7
  6
CONTINUOUS
 10
187.4248742234
 20
119.9467216526
 40
1.0
 50
190.1538461538
 51
298.2668296153
  0
ARC
  8
0
 62
7
  6
CONTINUOUS
 10
228.1703700631
 20
246.0878953752
 40
0.9443458372
 50
85.4216527464
 51
135.0
  0
ARC
  8
0
 62
7
  6
CONTINUOUS
 10
177.0396275277
 20
194.9571528398
 40
0.9443458372
 50
135.0
 51
184.5783472536
  0
ARC
  8
0
 62
7
  6
CONTINUOUS
 10
202.2785037376
 20
379.9183388822
 40
16.5
 50
176.3076923077
 51
242.3076923077
  0
ARC
  8
0
 62
7
  6
CONTINUOUS
 10
257.571855127
 20
350.4357714124
 40
16.5
 50
148.6153846154
 51
214.6153846154
  0
ARC
  8
0
 62
7
  6
CONTINUOUS
 10
292.8304540188
 20
298.6341527439
 40
16.5
 50
120.9230769231
 51
186.9230769231
  0
ARC
  8
0
 62
7
  6
CONTINUOUS
 10
188.5938192029
 20
372.9835958608
 40
14.8
 50
104.4206757692
 51
176.0
  0
ARC
  8
0
 62
7
  6
CONTINUOUS
 10
242.2319329724
 20
350.6549514231
 40
14.8
 50
76.7283680768
 51
148.3076923077
  0
ARC
  8
0
 62
7
  6
CONTINUOUS
 10
279.3494855438
 20
305.9570442877
 40
14.8
 50
49.0360603845
 51
120.6153846154
  0
ARC
  8
0
 62
7
  6
CONTINUOUS
 10
196.1708640557
 20
299.0815505283
 40
6.0
 50
225.0
 51
258.1598440864
  0
ARC
  8
0
 62
7
  6
CONTINUOUS
 10
193.7086795323
 20
287.3368646077
 40
6.0
 50
45.0
 51
78.1598440864
  0
ARC
  8
0
 62
7
  6
CONTINUOUS
 10
204.4442222983
 20
276.6013218416
 40
6.0
 50
11.8401559136
 51
45.0
  0
ARC
  8
0
 62
7
  6
CONTINUOUS
 10
216.1889082189
 20
279.063506365
 40
6.0
 50
191.8401559136
 51
225.0
  0
ARC
  8
0
 62
7
  6
CONTINUOUS
 10
221.9152293355
 20
352.1070860419
 40
3.25
 50
187.1575968867
 51
328.3076923077
  0
ARC
  8
0
 62
7
  6
CONTINUOUS
 10
262.0347784933
 20
316.6844885956
 40
3.25
 50
159.4652891944
 51
300.6153846154
  0
ARC
  8
0
 62
7
  6
CONTINUOUS
 10
281.0971731943
 20
266.6748520968
 40
3.25
 50
131.7729815021
 51
272.9230769231
  0
ARC
  8
0
 62
7
  6
CONTINUOUS
 10
216.7061416118
 20
351.4529414963
 40
2.0
 50
7.1575968868
 51
62.3076923077
  0
ARC
  8
0
 62
7
  6
CONTINUOUS
 10
257.118364252
 20
318.5260561364
 40
2.0
 50
339.4652891944
 51
34.6153846154
  0
ARC
  8
0
 62
7
  6
CONTINUOUS
 10
277.5997236888
 20
270.5902507938
 40
2.0
 50
311.7729815022
 51
6.9230769231
  0
ARC
  8
0
 62
7
  6
CONTINUOUS
 10
185.157075564
 20
386.3488041705
 40
1.0
 50
356.3076923077
 51
104.4206757692
  0
ARC
  8
0
 62
7
  6
CONTINUOUS
 10
245.3999696094
 20
364.0863900604
 40
1.0
 50
328.6153846154
 51
76.7283680768
  0
ARC
  8
0
 62
7
  6
CONTINUOUS
 10
288.3965434421
 20
316.3777325272
 40
1.0
 50
300.9230769231
 51
49.0360603845
  0
ARC
  8
0
 62
7
  6
CONTINUOUS
 10
304.2968001619
 20
254.15231006
 40
1.0
 50
273.2307692308
 51
21.3437526922
  0
ARC
  8
0
 62
7
  6
CONTINUOUS
 10
177.0396275277
 20
311.0630123725
 40
0.9443458372
 50
175.4216527464
 51
225.0
  0
ARC
  8
0
 62
7
  6
CONTINUOUS
 10
228.1703700631
 20
259.9322698371
 40
0.9443458372
 50
225.0
 51
274.5783472536
  0
ARC
  8
0
 62
7
  6
CONTINUOUS
 10
457.3452560241
 20
147.5100826062
 40
2.0
 50
180.0
 51
270.0
  0
ARC
  8
0
 62
7
  6
CONTINUOUS
 10
457.3452560241
 20
358.5100826062
 40
2.0
 50
90.0
 51
180.0
  0
ARC
  8
0
 62
7
  6
CONTINUOUS
 10
503.3452560241
 20
147.5100826062
 40
2.0
 50
270.0
 51
360.0
  0
ARC
  8
0
 62
7
  6
CONTINUOUS
 10
503.3452560241
 20
358.5100826062
 40
2.0
 50
0.0
 51
90.0
  0
ENDSEC
  0
EOF
