  0
SECTION
  2
HEADER
  9
$EXTMAX
 10
420.0
 20
297.0
 30
0.0
  9
$EXTMIN
 10
0.0
 20
0.0
 30
0.0
  9
$LIMMIN
 10
0.0
 20
0.0
  9
$LIMMAX
 10
420.0
 20
297.0
  9
$VIEWCTR
 10
210.0
 20
148.5
  9
$VIEWSIZE
 40
297.0
  9
$CLAYER
  8
0
  9
$LTSCALE
 40
23.1
  9
$CELTYPE
  6
BYLAYER
  9
$DIMSCALE
 40
1.0
  9
$DIMASZ
 40
3.5
  9
$DIMEXO
 40
1.0
  9
$DIMDLI
 40
15.96
  9
$DIMEXE
 40
2.0
  9
$DIMCEN
 40
3.78
  9
$DIMLFAC
 40
1.0
  9
$DIMBLK
  1
_FILLED
  9
$DIMTXT
 40
3.5
  9
$PDMODE
 70
3
  9
$PDSIZE
 40
0.3125
  9
$TILEMODE
 70
1
  0
ENDSEC
  0
SECTION
  2
TABLES
  0
TABLE
  2
LTYPE
 70
6
  0
LTYPE
  2
BYBLOCK
 70
0
  3

 72
65
 73
0
 40
0.0
  0
LTYPE
  2
BYLAYER
 70
0
  3

 72
65
 73
0
 40
0.0
  0
LTYPE
  2
CONTINUOUS
 70
64
  3
Solid line
 72
65
 73
0
 40
0.0
  0
LTYPE
  2
CENTER
 70
64
  3
____ _ ____ _ ____ _ ____ _ ____ _ ____ _ ____
 72
65
 73
4
 40
0.6
 49
0.375
 49
-0.075
 49
0.075
 49
-0.075
  0
LTYPE
  2
HIDDEN
 70
64
  3
- - - - - - - - - - - - - - - - - - - -
 72
65
 73
2
 40
0.2
 49
0.1
 49
-0.1
  0
LTYPE
  2
PHANTOM
 70
64
  3
_____ _ _ _____ _ _ _____ _ _ _____
 72
65
 73
6
 40
0.8
 49
0.45
 49
-0.05
 49
0.1
 49
-0.05
 49
0.1
 49
-0.05
  0
LTYPE
  2
DOT
 70
64
  3
. . . . . . . . . . . . . . . . . . . .
 72
65
 73
2
 40
0.2
 49
0.1
 49
-0.1
  0
LTYPE
  2
DASHED
 70
64
  3
- - - - - - - - - - - - - - - - - - - -
 72
65
 73
2
 40
0.2
 49
0.1
 49
-0.1
  0
ENDTAB
  0
TABLE
  2
LAYER
 70
36
  0
LAYER
  2
0
 70
0
 62
7
  6
CONTINUOUS
  0
LAYER
  2
DEFAULT_1
 70
0
 62
7
  6
CENTER
  0
LAYER
  2
DEFAULT_2
 70
0
 62
8
  6
HIDDEN
  0
LAYER
  2
DEFAULT_3
 70
0
 62
7
  6
PHANTOM
  0
LAYER
  2
AXES
 70
0
 62
7
  6
CONTINUOUS
  0
LAYER
  2
CSYS
 70
0
 62
7
  6
CONTINUOUS
  0
LAYER
  2
CURVE
 70
0
 62
7
  6
CONTINUOUS
  0
LAYER
  2
CURVES
 70
0
 62
7
  6
CONTINUOUS
  0
LAYER
  2
PLANES
 70
0
 62
7
  6
CONTINUOUS
  0
LAYER
  2
QUILT
 70
0
 62
7
  6
CONTINUOUS
  0
LAYER
  2
SURFACE
 70
0
 62
7
  6
CONTINUOUS
  0
ENDTAB
  0
TABLE
  2
STYLE
 70
1
  0
STYLE
  2
STANDARD
 70
0
 40
0.0
 41
0.8
 50
0.0
 71
0
 42
0.2
  3
txt
  4

  0
STYLE
  2
TEXTSTYLE_1
 70
0
 40
0.0
 41
0.8
 50
0.0
 71
0
 42
0.2
  3
gdt
  4

  0
STYLE
  2
TEXTSTYLE_2
 70
0
 40
0.0
 41
0.6
 50
0.0
 71
0
 42
0.2
  3
txt
  4

  0
STYLE
  2
TEXTSTYLE_3
 70
0
 40
0.0
 41
1.0
 50
0.0
 71
0
 42
0.2
  3
ftb_____.ttf
  4

  0
STYLE
  2
TEXTSTYLE_4
 70
0
 40
0.0
 41
1.0
 50
0.0
 71
0
 42
0.2
  3
fti_____.ttf
  4

  0
STYLE
  2
TEXTSTYLE_5
 70
0
 40
0.0
 41
1.0
 50
0.0
 71
0
 42
0.2
  3
frutiger light.ttf
  4

  0
STYLE
  2
TEXTSTYLE_6
 70
0
 40
0.0
 41
0.7
 50
0.0
 71
0
 42
0.2
  3
txt
  4

  0
STYLE
  2
TEXTSTYLE_7
 70
0
 40
0.0
 41
0.34
 50
0.0
 71
0
 42
0.2
  3
txt
  4

  0
ENDTAB
  0
ENDSEC
  0
SECTION
  2
BLOCKS
  0
BLOCK
  8
0
 62
2
  6
CONTINUOUS
  2
SYMBOL_5_BL1
 70
64
 10
382.7840918555
 20
35.5067593403
  0
TEXT
  8
0
 62
7
  6
CONTINUOUS
 10
373.842376864
 20
30.5995157174
  7
TEXTSTYLE_4
 40
1.0655737705
  1
The brand for plastic modular belts and chains
 41
1.0
 72
0
  0
LINE
  8
0
 62
7
  6
CONTINUOUS
 10
358.7621602445
 20
36.0805298321
 11
358.7621602445
 21
33.9493822911
  0
LINE
  8
0
 62
7
  6
CONTINUOUS
 10
359.0512227376
 20
30.9584509954
 11
359.0512227376
 21
31.0552420547
  0
LINE
  8
0
 62
7
  6
CONTINUOUS
 10
358.7621602445
 20
31.0229783683
 11
358.8199727462
 21
30.8293962497
  0
LINE
  8
0
 62
7
  6
CONTINUOUS
 10
360.1556028675
 20
33.867415078
 11
360.1556028675
 21
36.0805298321
  0
LINE
  8
0
 62
7
  6
CONTINUOUS
 10
361.0746601894
 20
32.0231527829
 11
361.0746601894
 21
30.5067593403
  0
LINE
  8
0
 62
7
  6
CONTINUOUS
 10
361.3637227445
 20
30.5067593403
 11
361.3637227445
 21
31.2488242184
  0
LINE
  8
0
 62
7
  6
CONTINUOUS
 10
361.3637227445
 20
31.3778789641
 11
361.3637227445
 21
32.0231527829
  0
LINE
  8
0
 62
7
  6
CONTINUOUS
 10
358.8199727462
 20
31.216560532
 11
358.7621602445
 21
31.0229783683
  0
LINE
  8
0
 62
7
  6
CONTINUOUS
 10
359.1668477307
 20
30.7971325633
 11
359.0512227376
 21
30.9584509954
  0
LINE
  8
0
 62
7
  6
CONTINUOUS
 10
360.2652852997
 20
31.3133515913
 11
360.3230977445
 21
31.216560532
  0
LINE
  8
0
 62
7
  6
CONTINUOUS
 10
360.6121602997
 20
31.216560532
 11
360.5543476894
 21
31.3456152777
  0
LINE
  8
0
 62
7
  6
CONTINUOUS
 10
362.0408487691
 20
36.0805298321
 11
362.0408487691
 21
34.2772511436
  0
LINE
  8
0
 62
7
  6
CONTINUOUS
 10
362.0408487691
 20
32.9657757338
 11
362.0408487691
 21
32.3100380288
  0
LINE
  8
0
 62
7
  6
CONTINUOUS
 10
362.4043477445
 20
31.1520331591
 11
362.4043477445
 21
30.5067593403
  0
LINE
  8
0
 62
7
  6
CONTINUOUS
 10
362.6934101343
 20
30.5067593403
 11
362.6934101343
 21
31.1520331591
  0
LINE
  8
0
 62
7
  6
CONTINUOUS
 10
359.0512227376
 20
31.0552420547
 11
359.1090352445
 21
31.1842968456
  0
LINE
  8
0
 62
7
  6
CONTINUOUS
 10
358.8199727462
 20
30.8293962497
 11
358.9355977445
 21
30.7003414814
  0
LINE
  8
0
 62
7
  6
CONTINUOUS
 10
362.3465351343
 20
31.2810879048
 11
362.4043477445
 21
31.1520331591
  0
LINE
  8
0
 62
7
  6
CONTINUOUS
 10
363.1559103548
 20
30.7971325633
 11
363.2137226343
 21
30.668077795
  0
LINE
  8
0
 62
7
  6
CONTINUOUS
 10
362.6934101343
 20
31.1520331591
 11
362.6355978548
 21
31.3133515913
  0
LINE
  8
0
 62
7
  6
CONTINUOUS
 10
363.1559103548
 20
31.3456152777
 11
363.1559103548
 21
31.2810879048
  0
LINE
  8
0
 62
7
  6
CONTINUOUS
 10
363.1559103548
 20
30.8939236226
 11
363.1559103548
 21
30.7971325633
  0
LINE
  8
0
 62
7
  6
CONTINUOUS
 10
363.4342913921
 20
32.3100380288
 11
363.4342913921
 21
36.0805298321
  0
LINE
  8
0
 62
7
  6
CONTINUOUS
 10
363.4449727445
 20
30.7648688543
 11
363.4449727445
 21
30.8293962497
  0
LINE
  8
0
 62
7
  6
CONTINUOUS
 10
363.7621602445
 20
36.0805298321
 11
363.7621602445
 21
32.3100380288
  0
LINE
  8
0
 62
7
  6
CONTINUOUS
 10
360.5543476894
 20
30.7003414814
 11
360.6121602997
 21
30.8293962497
  0
LINE
  8
0
 62
7
  6
CONTINUOUS
 10
364.9480979651
 20
30.6035504109
 11
364.890285024
 21
30.7648688543
  0
LINE
  8
0
 62
7
  6
CONTINUOUS
 10
364.6012229651
 20
31.2810879048
 11
364.6012229651
 21
31.1842968456
  0
LINE
  8
0
 62
7
  6
CONTINUOUS
 10
364.6012229651
 20
31.0552420547
 11
364.6012229651
 21
30.8616599362
  0
LINE
  8
0
 62
7
  6
CONTINUOUS
 10
364.890285024
 20
30.7648688543
 11
364.890285024
 21
31.2810879048
  0
LINE
  8
0
 62
7
  6
CONTINUOUS
 10
365.1556028675
 20
32.3100380288
 11
365.1556028675
 21
34.1133167174
  0
LINE
  8
0
 62
7
  6
CONTINUOUS
 10
365.1556028675
 20
35.4247921272
 11
365.1556028675
 21
36.0805298321
  0
LINE
  8
0
 62
7
  6
CONTINUOUS
 10
365.4684104651
 20
32.0231527829
 11
365.4684104651
 21
31.8618343508
  0
LINE
  8
0
 62
7
  6
CONTINUOUS
 10
365.4684104651
 20
31.5391973962
 11
365.4684104651
 21
30.5067593403
  0
LINE
  8
0
 62
7
  6
CONTINUOUS
 10
365.757472524
 20
30.5067593403
 11
365.757472524
 21
31.5391973962
  0
LINE
  8
0
 62
7
  6
CONTINUOUS
 10
365.757472524
 20
31.8618343508
 11
365.757472524
 21
32.0231527829
  0
LINE
  8
0
 62
7
  6
CONTINUOUS
 10
360.3230977445
 20
30.8293962497
 11
360.2652852997
 21
30.7326051679
  0
LINE
  8
0
 62
7
  6
CONTINUOUS
 10
362.6355978548
 20
31.3133515913
 11
362.5777852445
 21
31.3778789641
  0
LINE
  8
0
 62
7
  6
CONTINUOUS
 10
363.5027853548
 20
30.7003414814
 11
363.4449727445
 21
30.7648688543
  0
LINE
  8
0
 62
7
  6
CONTINUOUS
 10
364.6590352445
 20
30.5712867188
 11
364.716847524
 21
30.5067593403
  0
LINE
  8
0
 62
7
  6
CONTINUOUS
 10
364.6012229651
 20
30.668077795
 11
364.6590352445
 21
30.5712867188
  0
LINE
  8
0
 62
7
  6
CONTINUOUS
 10
365.0059102445
 20
30.5067593403
 11
364.9480979651
 21
30.6035504109
  0
LINE
  8
0
 62
7
  6
CONTINUOUS
 10
364.890285024
 20
31.2810879048
 11
364.8324727445
 21
31.3778789641
  0
LINE
  8
0
 62
7
  6
CONTINUOUS
 10
366.2199727445
 20
31.5391973962
 11
366.2199727445
 21
30.5067593403
  0
LINE
  8
0
 62
7
  6
CONTINUOUS
 10
366.5090354651
 20
30.5067593403
 11
366.5090354651
 21
31.2488242184
  0
LINE
  8
0
 62
7
  6
CONTINUOUS
 10
366.5090354651
 20
31.3778789641
 11
366.5090354651
 21
31.5391973962
  0
LINE
  8
0
 62
7
  6
CONTINUOUS
 10
367.0408487691
 20
34.5231527829
 11
367.0408487691
 21
32.3100380288
  0
LINE
  8
0
 62
7
  6
CONTINUOUS
 10
358.9355977445
 20
31.3456152777
 11
358.8199727462
 21
31.216560532
  0
LINE
  8
0
 62
7
  6
CONTINUOUS
 10
359.1090352445
 20
31.1842968456
 11
359.1668477307
 21
31.2488242184
  0
LINE
  8
0
 62
7
  6
CONTINUOUS
 10
358.9355977445
 20
30.7003414814
 11
359.0512227376
 21
30.6358140973
  0
LINE
  8
0
 62
7
  6
CONTINUOUS
 10
359.3402852307
 20
30.7003414814
 11
359.1668477307
 21
30.7971325633
  0
LINE
  8
0
 62
7
  6
CONTINUOUS
 10
364.543410024
 20
31.3456152777
 11
364.6012229651
 21
31.2810879048
  0
LINE
  8
0
 62
7
  6
CONTINUOUS
 10
367.491847524
 20
31.2810879048
 11
367.5496604651
 21
31.1197694727
  0
LINE
  8
0
 62
7
  6
CONTINUOUS
 10
367.838722524
 20
31.1197694727
 11
367.7809102445
 21
31.2810879048
  0
LINE
  8
0
 62
7
  6
CONTINUOUS
 10
367.5496604651
 20
31.1197694727
 11
367.5496604651
 21
30.5067593403
  0
LINE
  8
0
 62
7
  6
CONTINUOUS
 10
367.838722524
 20
30.5067593403
 11
367.838722524
 21
31.1197694727
  0
LINE
  8
0
 62
7
  6
CONTINUOUS
 10
368.3012227445
 20
31.3456152777
 11
368.3012227445
 21
31.2810879048
  0
LINE
  8
0
 62
7
  6
CONTINUOUS
 10
368.4342913921
 20
32.3100380288
 11
368.4342913921
 21
34.4411855698
  0
LINE
  8
0
 62
7
  6
CONTINUOUS
 10
368.7621602445
 20
36.0805298321
 11
368.7621602445
 21
32.3100380288
  0
LINE
  8
0
 62
7
  6
CONTINUOUS
 10
363.4449727445
 20
30.8293962497
 11
363.5027853548
 21
30.926187309
  0
LINE
  8
0
 62
7
  6
CONTINUOUS
 10
359.0512227376
 20
30.6358140973
 11
359.2246602583
 21
30.5712867188
  0
LINE
  8
0
 62
7
  6
CONTINUOUS
 10
360.5543476894
 20
31.3456152777
 11
360.3809101894
 21
31.4424063369
  0
LINE
  8
0
 62
7
  6
CONTINUOUS
 10
363.2137226343
 20
30.668077795
 11
363.3871601343
 21
30.5712867188
  0
LINE
  8
0
 62
7
  6
CONTINUOUS
 10
362.2309102445
 20
31.3456152777
 11
362.3465351343
 21
31.2810879048
  0
LINE
  8
0
 62
7
  6
CONTINUOUS
 10
362.5777852445
 20
31.3778789641
 11
362.4621603548
 21
31.4424063369
  0
LINE
  8
0
 62
7
  6
CONTINUOUS
 10
368.3012227445
 20
30.7648688543
 11
368.4168479651
 21
30.6358140973
  0
LINE
  8
0
 62
7
  6
CONTINUOUS
 10
368.6480977445
 20
30.7003414814
 11
368.5902854651
 21
30.7648688543
  0
LINE
  8
0
 62
7
  6
CONTINUOUS
 10
368.3012227445
 20
31.2810879048
 11
368.4168479651
 21
31.1520331591
  0
LINE
  8
0
 62
7
  6
CONTINUOUS
 10
367.7809102445
 20
31.2810879048
 11
367.7230979651
 21
31.3778789641
  0
LINE
  8
0
 62
7
  6
CONTINUOUS
 10
370.1512223035
 20
30.7003414814
 11
370.1512223035
 21
30.7648688543
  0
LINE
  8
0
 62
7
  6
CONTINUOUS
 10
370.1556028675
 20
32.3100380288
 11
370.1556028675
 21
36.0805298321
  0
LINE
  8
0
 62
7
  6
CONTINUOUS
 10
363.2137226343
 20
31.4101426505
 11
363.1559103548
 21
31.3456152777
  0
LINE
  8
0
 62
7
  6
CONTINUOUS
 10
360.091847717
 20
31.3778789641
 11
360.2652852997
 21
31.3133515913
  0
LINE
  8
0
 62
7
  6
CONTINUOUS
 10
364.8324727445
 20
31.3778789641
 11
364.716847524
 21
31.4424063369
  0
LINE
  8
0
 62
7
  6
CONTINUOUS
 10
368.6480977445
 20
31.216560532
 11
368.5902854651
 21
31.2810879048
  0
LINE
  8
0
 62
7
  6
CONTINUOUS
 10
369.8043479651
 20
30.8293962497
 11
369.8621602445
 21
30.7648688543
  0
LINE
  8
0
 62
7
  6
CONTINUOUS
 10
370.1512223035
 20
30.7648688543
 11
370.0355977445
 21
30.8939236226
  0
LINE
  8
0
 62
7
  6
CONTINUOUS
 10
369.8043479651
 20
31.3456152777
 11
369.8621602445
 21
31.2810879048
  0
LINE
  8
0
 62
7
  6
CONTINUOUS
 10
370.1512223035
 20
31.2810879048
 11
370.0355977445
 21
31.4101426505
  0
LINE
  8
0
 62
7
  6
CONTINUOUS
 10
363.4449727445
 20
31.2810879048
 11
363.5027853548
 21
31.3456152777
  0
LINE
  8
0
 62
7
  6
CONTINUOUS
 10
363.2715352445
 20
31.0229783683
 11
363.1559103548
 21
30.8939236226
  0
LINE
  8
0
 62
7
  6
CONTINUOUS
 10
364.6012229651
 20
30.8616599362
 11
364.543410024
 21
30.7971325633
  0
LINE
  8
0
 62
7
  6
CONTINUOUS
 10
364.543410024
 20
30.6035504109
 11
364.6012229651
 21
30.668077795
  0
LINE
  8
0
 62
7
  6
CONTINUOUS
 10
363.3871601343
 20
30.5712867188
 11
363.5027853548
 21
30.5390230296
  0
LINE
  8
0
 62
7
  6
CONTINUOUS
 10
360.3809101894
 20
31.4424063369
 11
360.1496602445
 21
31.5069337098
  0
LINE
  8
0
 62
7
  6
CONTINUOUS
 10
363.7340351343
 20
30.6358140973
 11
363.5027853548
 21
30.7003414814
  0
LINE
  8
0
 62
7
  6
CONTINUOUS
 10
362.4621603548
 20
31.4424063369
 11
362.2887228548
 21
31.5069337098
  0
LINE
  8
0
 62
7
  6
CONTINUOUS
 10
364.716847524
 20
31.4424063369
 11
364.543410024
 21
31.5069337098
  0
LINE
  8
0
 62
7
  6
CONTINUOUS
 10
367.3762229651
 20
31.3456152777
 11
367.491847524
 21
31.2810879048
  0
LINE
  8
0
 62
7
  6
CONTINUOUS
 10
367.7230979651
 20
31.3778789641
 11
367.6074727445
 21
31.4424063369
  0
LINE
  8
0
 62
7
  6
CONTINUOUS
 10
359.2246602583
 20
30.5712867188
 11
359.3980977583
 21
30.5390230296
  0
LINE
  8
0
 62
7
  6
CONTINUOUS
 10
359.6871602721
 20
30.6358140973
 11
359.3402852307
 21
30.7003414814
  0
LINE
  8
0
 62
7
  6
CONTINUOUS
 10
362.1152853548
 20
31.3778789641
 11
362.2309102445
 21
31.3456152777
  0
LINE
  8
0
 62
7
  6
CONTINUOUS
 10
364.4277854651
 20
31.3778789641
 11
364.543410024
 21
31.3456152777
  0
LINE
  8
0
 62
7
  6
CONTINUOUS
 10
368.7637229651
 20
30.668077795
 11
368.6480977445
 21
30.7003414814
  0
LINE
  8
0
 62
7
  6
CONTINUOUS
 10
367.2605977445
 20
31.3778789641
 11
367.3762229651
 21
31.3456152777
  0
LINE
  8
0
 62
7
  6
CONTINUOUS
 10
368.4168479651
 20
30.6358140973
 11
368.5902854651
 21
30.5712867188
  0
LINE
  8
0
 62
7
  6
CONTINUOUS
 10
367.6074727445
 20
31.4424063369
 11
367.4340352445
 21
31.5069337098
  0
LINE
  8
0
 62
7
  6
CONTINUOUS
 10
368.8215352445
 20
31.1520331591
 11
368.6480977445
 21
31.216560532
  0
LINE
  8
0
 62
7
  6
CONTINUOUS
 10
369.6309104651
 20
30.8939236226
 11
369.8043479651
 21
30.8293962497
  0
LINE
  8
0
 62
7
  6
CONTINUOUS
 10
370.0355977445
 20
31.4101426505
 11
369.8621602445
 21
31.4746700234
  0
LINE
  8
0
 62
7
  6
CONTINUOUS
 10
368.4168479651
 20
31.1520331591
 11
368.6480977445
 21
31.0552420547
  0
LINE
  8
0
 62
7
  6
CONTINUOUS
 10
370.0355977445
 20
30.8939236226
 11
369.8043479651
 21
30.9907146818
  0
LINE
  8
0
 62
7
  6
CONTINUOUS
 10
368.5902854651
 20
31.2810879048
 11
368.6480977445
 21
31.3456152777
  0
LINE
  8
0
 62
7
  6
CONTINUOUS
 10
359.0512227376
 20
31.4101426505
 11
358.9355977445
 21
31.3456152777
  0
LINE
  8
0
 62
7
  6
CONTINUOUS
 10
359.1668477307
 20
31.2488242184
 11
359.3402852307
 21
31.3456152777
  0
LINE
  8
0
 62
7
  6
CONTINUOUS
 10
361.4793477997
 20
31.4424063369
 11
361.3637227445
 21
31.3778789641
  0
LINE
  8
0
 62
7
  6
CONTINUOUS
 10
361.3637227445
 20
31.2488242184
 11
361.4793477997
 21
31.3133515913
  0
LINE
  8
0
 62
7
  6
CONTINUOUS
 10
360.3809101894
 20
30.6035504109
 11
360.5543476894
 21
30.7003414814
  0
LINE
  8
0
 62
7
  6
CONTINUOUS
 10
359.3980977583
 20
30.5390230296
 11
359.744972717
 21
30.5067593403
  0
LINE
  8
0
 62
7
  6
CONTINUOUS
 10
363.5027853548
 20
30.5390230296
 11
363.7340351343
 21
30.5067593403
  0
LINE
  8
0
 62
7
  6
CONTINUOUS
 10
361.8840352445
 20
31.4101426505
 11
362.1152853548
 21
31.3778789641
  0
LINE
  8
0
 62
7
  6
CONTINUOUS
 10
364.1965353548
 20
31.4101426505
 11
364.4277854651
 21
31.3778789641
  0
LINE
  8
0
 62
7
  6
CONTINUOUS
 10
368.6480977445
 20
31.0552420547
 11
369.6309104651
 21
30.8939236226
  0
LINE
  8
0
 62
7
  6
CONTINUOUS
 10
369.8043479651
 20
30.9907146818
 11
368.8215352445
 21
31.1520331591
  0
LINE
  8
0
 62
7
  6
CONTINUOUS
 10
362.2887228548
 20
31.5069337098
 11
362.1152853548
 21
31.5391973962
  0
LINE
  8
0
 62
7
  6
CONTINUOUS
 10
368.5902854651
 20
30.5712867188
 11
368.7637229651
 21
30.5390230296
  0
LINE
  8
0
 62
7
  6
CONTINUOUS
 10
367.4340352445
 20
31.5069337098
 11
367.2605977445
 21
31.5391973962
  0
LINE
  8
0
 62
7
  6
CONTINUOUS
 10
369.6887227445
 20
31.3778789641
 11
369.8043479651
 21
31.3456152777
  0
LINE
  8
0
 62
7
  6
CONTINUOUS
 10
369.8621602445
 20
30.7648688543
 11
369.8043479651
 21
30.7003414814
  0
LINE
  8
0
 62
7
  6
CONTINUOUS
 10
368.4168479651
 20
31.4424063369
 11
368.3012227445
 21
31.3456152777
  0
LINE
  8
0
 62
7
  6
CONTINUOUS
 10
363.3293478548
 20
31.4746700234
 11
363.2137226343
 21
31.4101426505
  0
LINE
  8
0
 62
7
  6
CONTINUOUS
 10
363.3871601343
 20
31.0875057863
 11
363.2715352445
 21
31.0229783683
  0
LINE
  8
0
 62
7
  6
CONTINUOUS
 10
363.5027853548
 20
30.926187309
 11
363.6184102445
 21
30.9907146818
  0
LINE
  8
0
 62
7
  6
CONTINUOUS
 10
361.0746601894
 20
30.5067593403
 11
361.3637227445
 21
30.5067593403
  0
LINE
  8
0
 62
7
  6
CONTINUOUS
 10
362.4043477445
 20
30.5067593403
 11
362.6934101343
 21
30.5067593403
  0
LINE
  8
0
 62
7
  6
CONTINUOUS
 10
363.7340351343
 20
30.5067593403
 11
364.0809101343
 21
30.5067593403
  0
LINE
  8
0
 62
7
  6
CONTINUOUS
 10
364.716847524
 20
30.5067593403
 11
365.0059102445
 21
30.5067593403
  0
LINE
  8
0
 62
7
  6
CONTINUOUS
 10
365.4684104651
 20
30.5067593403
 11
365.757472524
 21
30.5067593403
  0
LINE
  8
0
 62
7
  6
CONTINUOUS
 10
366.2199727445
 20
30.5067593403
 11
366.5090354651
 21
30.5067593403
  0
LINE
  8
0
 62
7
  6
CONTINUOUS
 10
367.5496604651
 20
30.5067593403
 11
367.838722524
 21
30.5067593403
  0
LINE
  8
0
 62
7
  6
CONTINUOUS
 10
369.1105979651
 20
30.5067593403
 11
369.4574729651
 21
30.5067593403
  0
LINE
  8
0
 62
7
  6
CONTINUOUS
 10
369.4574729651
 20
30.6358140973
 11
369.1105979651
 21
30.6358140973
  0
LINE
  8
0
 62
7
  6
CONTINUOUS
 10
364.0809101343
 20
30.6358140973
 11
363.7340351343
 21
30.6358140973
  0
LINE
  8
0
 62
7
  6
CONTINUOUS
 10
368.5902854651
 20
30.7648688543
 11
368.3012227445
 21
30.7648688543
  0
LINE
  8
0
 62
7
  6
CONTINUOUS
 10
360.6121602997
 20
30.8293962497
 11
360.3230977445
 21
30.8293962497
  0
LINE
  8
0
 62
7
  6
CONTINUOUS
 10
359.6871602721
 20
31.4101426505
 11
360.091847717
 21
31.3778789641
  0
LINE
  8
0
 62
7
  6
CONTINUOUS
 10
360.1496602445
 20
31.5069337098
 11
359.744972717
 21
31.5391973962
  0
LINE
  8
0
 62
7
  6
CONTINUOUS
 10
368.7637229651
 20
30.5390230296
 11
369.1105979651
 21
30.5067593403
  0
LINE
  8
0
 62
7
  6
CONTINUOUS
 10
369.1105979651
 20
30.6358140973
 11
368.7637229651
 21
30.668077795
  0
LINE
  8
0
 62
7
  6
CONTINUOUS
 10
364.543410024
 20
31.5069337098
 11
364.1965353548
 21
31.5391973962
  0
LINE
  8
0
 62
7
  6
CONTINUOUS
 10
369.3418477445
 20
31.4101426505
 11
369.6887227445
 21
31.3778789641
  0
LINE
  8
0
 62
7
  6
CONTINUOUS
 10
369.6887227445
 20
31.5069337098
 11
369.3418477445
 21
31.5391973962
  0
LINE
  8
0
 62
7
  6
CONTINUOUS
 10
367.0293479651
 20
31.4101426505
 11
367.2605977445
 21
31.3778789641
  0
LINE
  8
0
 62
7
  6
CONTINUOUS
 10
369.8621602445
 20
31.4746700234
 11
369.6887227445
 21
31.5069337098
  0
LINE
  8
0
 62
7
  6
CONTINUOUS
 10
370.0355977445
 20
30.6035504109
 11
370.1512223035
 21
30.7003414814
  0
LINE
  8
0
 62
7
  6
CONTINUOUS
 10
364.543410024
 20
30.7971325633
 11
364.369972524
 21
30.7003414814
  0
LINE
  8
0
 62
7
  6
CONTINUOUS
 10
366.624660024
 20
31.4424063369
 11
366.5090354651
 21
31.3778789641
  0
LINE
  8
0
 62
7
  6
CONTINUOUS
 10
366.5090354651
 20
31.2488242184
 11
366.624660024
 21
31.3133515913
  0
LINE
  8
0
 62
7
  6
CONTINUOUS
 10
359.2246602583
 20
31.4746700234
 11
359.0512227376
 21
31.4101426505
  0
LINE
  8
0
 62
7
  6
CONTINUOUS
 10
361.6527851343
 20
31.5069337098
 11
361.4793477997
 21
31.4424063369
  0
LINE
  8
0
 62
7
  6
CONTINUOUS
 10
361.4793477997
 20
31.3133515913
 11
361.6527851343
 21
31.3778789641
  0
LINE
  8
0
 62
7
  6
CONTINUOUS
 10
360.2652852997
 20
30.7326051679
 11
360.091847717
 21
30.668077795
  0
LINE
  8
0
 62
7
  6
CONTINUOUS
 10
369.6887227445
 20
30.668077795
 11
369.4574729651
 21
30.6358140973
  0
LINE
  8
0
 62
7
  6
CONTINUOUS
 10
364.0809101343
 20
30.5067593403
 11
364.369972524
 21
30.5390230296
  0
LINE
  8
0
 62
7
  6
CONTINUOUS
 10
369.4574729651
 20
30.5067593403
 11
369.8043479651
 21
30.5390230296
  0
LINE
  8
0
 62
7
  6
CONTINUOUS
 10
359.744972717
 20
30.5067593403
 11
360.1496602445
 21
30.5390230296
  0
LINE
  8
0
 62
7
  6
CONTINUOUS
 10
360.091847717
 20
30.668077795
 11
359.6871602721
 21
30.6358140973
  0
LINE
  8
0
 62
7
  6
CONTINUOUS
 10
363.9652852445
 20
31.0552420547
 11
364.6012229651
 21
31.0552420547
  0
LINE
  8
0
 62
7
  6
CONTINUOUS
 10
364.6012229651
 20
31.1842968456
 11
363.9652852445
 21
31.1842968456
  0
LINE
  8
0
 62
7
  6
CONTINUOUS
 10
360.3230977445
 20
31.216560532
 11
360.6121602997
 21
31.216560532
  0
LINE
  8
0
 62
7
  6
CONTINUOUS
 10
363.1559103548
 20
31.2810879048
 11
363.4449727445
 21
31.2810879048
  0
LINE
  8
0
 62
7
  6
CONTINUOUS
 10
369.8621602445
 20
31.2810879048
 11
370.1512223035
 21
31.2810879048
  0
LINE
  8
0
 62
7
  6
CONTINUOUS
 10
363.8496603548
 20
31.4101426505
 11
364.1965353548
 21
31.4101426505
  0
LINE
  8
0
 62
7
  6
CONTINUOUS
 10
368.9949727445
 20
31.4101426505
 11
369.3418477445
 21
31.4101426505
  0
LINE
  8
0
 62
7
  6
CONTINUOUS
 10
369.3418477445
 20
31.5391973962
 11
368.9949727445
 21
31.5391973962
  0
LINE
  8
0
 62
7
  6
CONTINUOUS
 10
367.2605977445
 20
31.5391973962
 11
367.0293479651
 21
31.5391973962
  0
LINE
  8
0
 62
7
  6
CONTINUOUS
 10
366.5090354651
 20
31.5391973962
 11
366.2199727445
 21
31.5391973962
  0
LINE
  8
0
 62
7
  6
CONTINUOUS
 10
365.757472524
 20
31.5391973962
 11
365.4684104651
 21
31.5391973962
  0
LINE
  8
0
 62
7
  6
CONTINUOUS
 10
364.1965353548
 20
31.5391973962
 11
363.8496603548
 21
31.5391973962
  0
LINE
  8
0
 62
7
  6
CONTINUOUS
 10
362.1152853548
 20
31.5391973962
 11
361.8840352445
 21
31.5391973962
  0
LINE
  8
0
 62
7
  6
CONTINUOUS
 10
365.4684104651
 20
31.8618343508
 11
365.757472524
 21
31.8618343508
  0
LINE
  8
0
 62
7
  6
CONTINUOUS
 10
365.757472524
 20
32.0231527829
 11
365.4684104651
 21
32.0231527829
  0
LINE
  8
0
 62
7
  6
CONTINUOUS
 10
361.3637227445
 20
32.0231527829
 11
361.0746601894
 21
32.0231527829
  0
LINE
  8
0
 62
7
  6
CONTINUOUS
 10
360.4015045068
 20
32.3100380288
 11
360.8140758554
 21
32.3100380288
  0
LINE
  8
0
 62
7
  6
CONTINUOUS
 10
362.0408487691
 20
32.3100380288
 11
363.4342913921
 21
32.3100380288
  0
LINE
  8
0
 62
7
  6
CONTINUOUS
 10
363.7621602445
 20
32.3100380288
 11
365.1556028675
 21
32.3100380288
  0
LINE
  8
0
 62
7
  6
CONTINUOUS
 10
367.0408487691
 20
32.3100380288
 11
368.4342913921
 21
32.3100380288
  0
LINE
  8
0
 62
7
  6
CONTINUOUS
 10
368.7621602445
 20
32.3100380288
 11
370.1556028675
 21
32.3100380288
  0
LINE
  8
0
 62
7
  6
CONTINUOUS
 10
366.798097524
 20
31.5069337098
 11
366.624660024
 21
31.4424063369
  0
LINE
  8
0
 62
7
  6
CONTINUOUS
 10
364.369972524
 20
30.5390230296
 11
364.543410024
 21
30.6035504109
  0
LINE
  8
0
 62
7
  6
CONTINUOUS
 10
369.8043479651
 20
30.5390230296
 11
370.0355977445
 21
30.6035504109
  0
LINE
  8
0
 62
7
  6
CONTINUOUS
 10
369.8043479651
 20
30.7003414814
 11
369.6887227445
 21
30.668077795
  0
LINE
  8
0
 62
7
  6
CONTINUOUS
 10
368.7637229651
 20
31.3778789641
 11
368.9949727445
 21
31.4101426505
  0
LINE
  8
0
 62
7
  6
CONTINUOUS
 10
366.798097524
 20
31.3778789641
 11
367.0293479651
 21
31.4101426505
  0
LINE
  8
0
 62
7
  6
CONTINUOUS
 10
363.7340351343
 20
31.0229783683
 11
363.9652852445
 21
31.0552420547
  0
LINE
  8
0
 62
7
  6
CONTINUOUS
 10
367.0293479651
 20
31.5391973962
 11
366.798097524
 21
31.5069337098
  0
LINE
  8
0
 62
7
  6
CONTINUOUS
 10
363.6184102445
 20
31.3778789641
 11
363.8496603548
 21
31.4101426505
  0
LINE
  8
0
 62
7
  6
CONTINUOUS
 10
368.9949727445
 20
31.5391973962
 11
368.6480977445
 21
31.5069337098
  0
LINE
  8
0
 62
7
  6
CONTINUOUS
 10
363.9652852445
 20
31.1842968456
 11
363.6184102445
 21
31.1520331591
  0
LINE
  8
0
 62
7
  6
CONTINUOUS
 10
359.744972717
 20
31.5391973962
 11
359.3980977583
 21
31.5069337098
  0
LINE
  8
0
 62
7
  6
CONTINUOUS
 10
363.8496603548
 20
31.5391973962
 11
363.4449727445
 21
31.5069337098
  0
LINE
  8
0
 62
7
  6
CONTINUOUS
 10
361.221176638
 20
33.4575790124
 11
360.565438933
 21
33.4575790124
  0
LINE
  8
0
 62
7
  6
CONTINUOUS
 10
366.624660024
 20
31.3133515913
 11
366.798097524
 21
31.3778789641
  0
LINE
  8
0
 62
7
  6
CONTINUOUS
 10
368.6480977445
 20
31.3456152777
 11
368.7637229651
 21
31.3778789641
  0
LINE
  8
0
 62
7
  6
CONTINUOUS
 10
368.6480977445
 20
31.5069337098
 11
368.4168479651
 21
31.4424063369
  0
LINE
  8
0
 62
7
  6
CONTINUOUS
 10
364.369972524
 20
30.7003414814
 11
364.0809101343
 21
30.6358140973
  0
LINE
  8
0
 62
7
  6
CONTINUOUS
 10
361.6527851343
 20
31.3778789641
 11
361.8840352445
 21
31.4101426505
  0
LINE
  8
0
 62
7
  6
CONTINUOUS
 10
361.8840352445
 20
31.5391973962
 11
361.6527851343
 21
31.5069337098
  0
LINE
  8
0
 62
7
  6
CONTINUOUS
 10
359.4559102445
 20
31.3778789641
 11
359.6871602721
 21
31.4101426505
  0
LINE
  8
0
 62
7
  6
CONTINUOUS
 10
365.9752749986
 20
34.9329888485
 11
366.6310127035
 21
34.9329888485
  0
LINE
  8
0
 62
7
  6
CONTINUOUS
 10
363.6184102445
 20
30.9907146818
 11
363.7340351343
 21
31.0229783683
  0
LINE
  8
0
 62
7
  6
CONTINUOUS
 10
363.6184102445
 20
31.1520331591
 11
363.3871601343
 21
31.0875057863
  0
LINE
  8
0
 62
7
  6
CONTINUOUS
 10
363.5027853548
 20
31.3456152777
 11
363.6184102445
 21
31.3778789641
  0
LINE
  8
0
 62
7
  6
CONTINUOUS
 10
360.1496602445
 20
30.5390230296
 11
360.3809101894
 21
30.6035504109
  0
LINE
  8
0
 62
7
  6
CONTINUOUS
 10
363.4449727445
 20
31.5069337098
 11
363.3293478548
 21
31.4746700234
  0
LINE
  8
0
 62
7
  6
CONTINUOUS
 10
359.3980977583
 20
31.5069337098
 11
359.2246602583
 21
31.4746700234
  0
LINE
  8
0
 62
7
  6
CONTINUOUS
 10
370.1556028675
 20
36.0805298321
 11
368.7621602445
 21
36.0805298321
  0
LINE
  8
0
 62
7
  6
CONTINUOUS
 10
366.7949471298
 20
36.0805298321
 11
366.3823757812
 21
36.0805298321
  0
LINE
  8
0
 62
7
  6
CONTINUOUS
 10
365.1556028675
 20
36.0805298321
 11
363.7621602445
 21
36.0805298321
  0
LINE
  8
0
 62
7
  6
CONTINUOUS
 10
363.4342913921
 20
36.0805298321
 11
362.0408487691
 21
36.0805298321
  0
LINE
  8
0
 62
7
  6
CONTINUOUS
 10
360.1556028675
 20
36.0805298321
 11
358.7621602445
 21
36.0805298321
  0
LINE
  8
0
 62
7
  6
CONTINUOUS
 10
359.3402852307
 20
31.3456152777
 11
359.4559102445
 21
31.3778789641
  0
CIRCLE
  8
0
 62
7
  6
CONTINUOUS
 10
369.458881556
 20
38.4165954059
 40
2.0901639344
  0
ARC
  8
0
 62
7
  6
CONTINUOUS
 10
360.4015045068
 20
33.9493822911
 40
1.6393442623
 50
180.0
 51
270.0
  0
ARC
  8
0
 62
7
  6
CONTINUOUS
 10
366.7949471298
 20
34.4411855698
 40
1.6393442623
 50
0.0
 51
90.0
  0
ARC
  8
0
 62
7
  6
CONTINUOUS
 10
360.8140758554
 20
33.7854478649
 40
1.4754098361
 50
270.0
 51
326.2510114041
  0
ARC
  8
0
 62
7
  6
CONTINUOUS
 10
366.3823757812
 20
34.6051199961
 40
1.4754098361
 50
90.0
 51
146.2510114041
  0
ARC
  8
0
 62
7
  6
CONTINUOUS
 10
361.221176638
 20
34.2772511436
 40
0.8196721311
 50
270.0
 51
360.0
  0
ARC
  8
0
 62
7
  6
CONTINUOUS
 10
365.9752749986
 20
34.1133167174
 40
0.8196721311
 50
90.0
 51
180.0
  0
ARC
  8
0
 62
7
  6
CONTINUOUS
 10
360.565438933
 20
33.867415078
 40
0.4098360656
 50
180.0
 51
270.0
  0
ARC
  8
0
 62
7
  6
CONTINUOUS
 10
366.6310127035
 20
34.5231527829
 40
0.4098360656
 50
0.0
 51
90.0
  0
SOLID
  8
0
 62
7
  6
CONTINUOUS
 10
365.4684104651
 20
31.8618347111
 11
365.4684104651
 21
32.0231531947
 12
365.757472524
 22
31.8618347111
 13
365.757472524
 23
32.0231531947
  0
SOLID
  8
0
 62
7
  6
CONTINUOUS
 10
359.744972717
 20
31.5391977439
 11
360.1496602445
 21
31.5069333244
 12
359.3980977583
 22
31.5069333244
 13
359.3980977583
 23
31.5069333244
  0
SOLID
  8
0
 62
7
  6
CONTINUOUS
 10
359.2246602583
 20
31.4746706537
 11
359.3980977583
 21
31.5069333244
 12
360.1496602445
 22
31.5069333244
 13
360.1496602445
 23
31.5069333244
  0
SOLID
  8
0
 62
7
  6
CONTINUOUS
 10
360.1496602445
 20
31.5069333244
 11
360.3809101894
 21
31.4424063504
 12
359.2246602583
 22
31.4746706537
 13
359.2246602583
 23
31.4746706537
  0
SOLID
  8
0
 62
7
  6
CONTINUOUS
 10
359.0512227376
 20
31.4101419116
 11
359.2246602583
 21
31.4746706537
 12
360.3809101894
 22
31.4424063504
 13
360.3809101894
 23
31.4424063504
  0
SOLID
  8
0
 62
7
  6
CONTINUOUS
 10
359.0512227376
 20
31.4101419116
 11
360.3809101894
 21
31.4424063504
 12
359.6871602721
 22
31.4101419116
 13
359.6871602721
 23
31.4101419116
  0
SOLID
  8
0
 62
7
  6
CONTINUOUS
 10
359.6871602721
 20
31.4101419116
 11
360.3809101894
 21
31.4424063504
 12
360.091847717
 22
31.3778792603
 13
360.091847717
 23
31.3778792603
  0
SOLID
  8
0
 62
7
  6
CONTINUOUS
 10
360.3809101894
 20
31.4424063504
 11
360.5543476894
 21
31.345614957
 12
360.091847717
 22
31.3778792603
 13
360.091847717
 23
31.3778792603
  0
SOLID
  8
0
 62
7
  6
CONTINUOUS
 10
360.2652852997
 20
31.3133521701
 11
360.091847717
 21
31.3778792603
 12
360.5543476894
 22
31.345614957
 13
360.5543476894
 23
31.345614957
  0
SOLID
  8
0
 62
7
  6
CONTINUOUS
 10
360.2652852997
 20
31.3133521701
 11
360.5543476894
 21
31.345614957
 12
360.3230977445
 22
31.2165606992
 13
360.3230977445
 23
31.2165606992
  0
SOLID
  8
0
 62
7
  6
CONTINUOUS
 10
360.5543476894
 20
31.345614957
 11
360.6121602997
 21
31.2165606992
 12
360.3230977445
 22
31.2165606992
 13
360.3230977445
 23
31.2165606992
  0
SOLID
  8
0
 62
7
  6
CONTINUOUS
 10
361.6527851343
 20
31.5069329918
 11
361.8840352445
 21
31.5391972951
 12
362.1152853548
 22
31.5391972951
 13
362.1152853548
 23
31.5391972951
  0
SOLID
  8
0
 62
7
  6
CONTINUOUS
 10
362.1152853548
 20
31.5391972951
 11
362.2887228548
 21
31.5069329918
 12
361.6527851343
 22
31.5069329918
 13
361.6527851343
 23
31.5069329918
  0
SOLID
  8
0
 62
7
  6
CONTINUOUS
 10
361.4793477997
 20
31.4424059016
 11
361.6527851343
 21
31.5069329918
 12
362.2887228548
 22
31.5069329918
 13
362.2887228548
 23
31.5069329918
  0
SOLID
  8
0
 62
7
  6
CONTINUOUS
 10
362.2887228548
 20
31.5069329918
 11
362.4621603548
 21
31.4424059016
 12
361.4793477997
 22
31.4424059016
 13
361.4793477997
 23
31.4424059016
  0
SOLID
  8
0
 62
7
  6
CONTINUOUS
 10
362.4621603548
 20
31.4424059016
 11
361.8840352445
 21
31.4101420472
 12
361.4793477997
 22
31.4424059016
 13
361.4793477997
 23
31.4424059016
  0
SOLID
  8
0
 62
7
  6
CONTINUOUS
 10
361.3637227445
 20
31.3778788115
 11
361.4793477997
 21
31.4424059016
 12
361.8840352445
 22
31.4101420472
 13
361.8840352445
 23
31.4101420472
  0
SOLID
  8
0
 62
7
  6
CONTINUOUS
 10
361.8840352445
 20
31.4101420472
 11
361.6527851343
 21
31.3778788115
 12
361.3637227445
 22
31.3778788115
 13
361.3637227445
 23
31.3778788115
  0
SOLID
  8
0
 62
7
  6
CONTINUOUS
 10
361.8840352445
 20
31.4101420472
 11
362.4621603548
 21
31.4424059016
 12
362.1152853548
 22
31.3778788115
 13
362.1152853548
 23
31.3778788115
  0
SOLID
  8
0
 62
7
  6
CONTINUOUS
 10
362.4621603548
 20
31.4424059016
 11
362.5777852445
 21
31.3778788115
 12
362.1152853548
 22
31.3778788115
 13
362.1152853548
 23
31.3778788115
  0
SOLID
  8
0
 62
7
  6
CONTINUOUS
 10
362.2309102445
 20
31.345614957
 11
362.1152853548
 21
31.3778788115
 12
362.5777852445
 22
31.3778788115
 13
362.5777852445
 23
31.3778788115
  0
SOLID
  8
0
 62
7
  6
CONTINUOUS
 10
362.5777852445
 20
31.3778788115
 11
362.6355978548
 21
31.3133517213
 12
362.2309102445
 22
31.345614957
 13
362.2309102445
 23
31.345614957
  0
SOLID
  8
0
 62
7
  6
CONTINUOUS
 10
362.3465351343
 20
31.2810878668
 11
362.2309102445
 21
31.345614957
 12
362.6355978548
 22
31.3133517213
 13
362.6355978548
 23
31.3133517213
  0
SOLID
  8
0
 62
7
  6
CONTINUOUS
 10
362.3465351343
 20
31.2810878668
 11
362.6355978548
 21
31.3133517213
 12
362.4043477445
 22
31.1520332377
 13
362.4043477445
 23
31.1520332377
  0
SOLID
  8
0
 62
7
  6
CONTINUOUS
 10
362.6355978548
 20
31.3133517213
 11
362.6934101343
 21
31.1520332377
 12
362.4043477445
 22
31.1520332377
 13
362.4043477445
 23
31.1520332377
  0
SOLID
  8
0
 62
7
  6
CONTINUOUS
 10
361.6527851343
 20
31.3778788115
 11
361.4793477997
 21
31.3133517213
 12
361.3637227445
 22
31.3778788115
 13
361.3637227445
 23
31.3778788115
  0
SOLID
  8
0
 62
7
  6
CONTINUOUS
 10
361.4793477997
 20
31.3133517213
 11
361.3637227445
 21
31.2488235635
 12
361.3637227445
 22
31.3778788115
 13
361.3637227445
 23
31.3778788115
  0
SOLID
  8
0
 62
7
  6
CONTINUOUS
 10
361.3637227445
 20
31.2488235635
 11
361.0746601894
 21
30.5067593033
 12
361.3637227445
 22
31.3778788115
 13
361.3637227445
 23
31.3778788115
  0
SOLID
  8
0
 62
7
  6
CONTINUOUS
 10
361.3637227445
 20
31.3778788115
 11
361.0746601894
 21
30.5067593033
 12
361.3637227445
 22
32.0231527459
 13
361.3637227445
 23
32.0231527459
  0
SOLID
  8
0
 62
7
  6
CONTINUOUS
 10
361.0746601894
 20
30.5067593033
 11
361.0746601894
 21
32.0231527459
 12
361.3637227445
 22
32.0231527459
 13
361.3637227445
 23
32.0231527459
  0
SOLID
  8
0
 62
7
  6
CONTINUOUS
 10
361.3637227445
 20
31.2488235635
 11
361.3637227445
 21
30.5067593033
 12
361.0746601894
 22
30.5067593033
 13
361.0746601894
 23
30.5067593033
  0
SOLID
  8
0
 62
7
  6
CONTINUOUS
 10
362.4043477445
 20
30.5067593033
 11
362.4043477445
 21
31.1520332377
 12
362.6934101343
 22
31.1520332377
 13
362.6934101343
 23
31.1520332377
  0
SOLID
  8
0
 62
7
  6
CONTINUOUS
 10
362.6934101343
 20
31.1520332377
 11
362.6934101343
 21
30.5067593033
 12
362.4043477445
 22
30.5067593033
 13
362.4043477445
 23
30.5067593033
  0
SOLID
  8
0
 62
7
  6
CONTINUOUS
 10
363.4449727445
 20
31.506933758
 11
363.8496603548
 21
31.5391977507
 12
364.1965353548
 22
31.5391977507
 13
364.1965353548
 23
31.5391977507
  0
SOLID
  8
0
 62
7
  6
CONTINUOUS
 10
364.1965353548
 20
31.5391977507
 11
364.543410024
 21
31.506933758
 12
363.4449727445
 22
31.506933758
 13
363.4449727445
 23
31.506933758
  0
SOLID
  8
0
 62
7
  6
CONTINUOUS
 10
363.3293478548
 20
31.4746706537
 11
363.4449727445
 21
31.506933758
 12
364.543410024
 22
31.506933758
 13
364.543410024
 23
31.506933758
  0
SOLID
  8
0
 62
7
  6
CONTINUOUS
 10
364.543410024
 20
31.506933758
 11
364.716847524
 21
31.4424063504
 12
363.3293478548
 22
31.4746706537
 13
363.3293478548
 23
31.4746706537
  0
SOLID
  8
0
 62
7
  6
CONTINUOUS
 10
363.2137226343
 20
31.4101417797
 11
363.3293478548
 21
31.4746706537
 12
364.716847524
 22
31.4424063504
 13
364.716847524
 23
31.4424063504
  0
SOLID
  8
0
 62
7
  6
CONTINUOUS
 10
363.2137226343
 20
31.4101417797
 11
364.716847524
 21
31.4424063504
 12
363.8496603548
 22
31.4101417797
 13
363.8496603548
 23
31.4101417797
  0
SOLID
  8
0
 62
7
  6
CONTINUOUS
 10
363.8496603548
 20
31.4101417797
 11
364.716847524
 21
31.4424063504
 12
364.1965353548
 22
31.4101417797
 13
364.1965353548
 23
31.4101417797
  0
SOLID
  8
0
 62
7
  6
CONTINUOUS
 10
364.1965353548
 20
31.4101417797
 11
364.716847524
 21
31.4424063504
 12
364.4277854651
 22
31.3778793357
 13
364.4277854651
 23
31.3778793357
  0
SOLID
  8
0
 62
7
  6
CONTINUOUS
 10
364.716847524
 20
31.4424063504
 11
364.8324727445
 21
31.3778793357
 12
364.4277854651
 22
31.3778793357
 13
364.4277854651
 23
31.3778793357
  0
SOLID
  8
0
 62
7
  6
CONTINUOUS
 10
363.1559103548
 20
31.3456153429
 11
363.2137226343
 21
31.4101417797
 12
363.8496603548
 22
31.4101417797
 13
363.8496603548
 23
31.4101417797
  0
SOLID
  8
0
 62
7
  6
CONTINUOUS
 10
364.543410024
 20
31.3456153429
 11
364.4277854651
 21
31.3778793357
 12
364.8324727445
 22
31.3778793357
 13
364.8324727445
 23
31.3778793357
  0
SOLID
  8
0
 62
7
  6
CONTINUOUS
 10
364.543410024
 20
31.3456153429
 11
364.8324727445
 21
31.3778793357
 12
364.6012229651
 22
31.2810881318
 13
364.6012229651
 23
31.2810881318
  0
SOLID
  8
0
 62
7
  6
CONTINUOUS
 10
364.8324727445
 20
31.3778793357
 11
364.890285024
 21
31.2810881318
 12
364.6012229651
 22
31.2810881318
 13
364.6012229651
 23
31.2810881318
  0
SOLID
  8
0
 62
7
  6
CONTINUOUS
 10
364.6012229651
 20
31.1842964734
 11
364.6012229651
 21
31.2810881318
 12
364.890285024
 22
31.2810881318
 13
364.890285024
 23
31.2810881318
  0
SOLID
  8
0
 62
7
  6
CONTINUOUS
 10
364.6012229651
 20
31.1842964734
 11
364.890285024
 21
31.2810881318
 12
364.6012229651
 22
31.0552422931
 13
364.6012229651
 23
31.0552422931
  0
SOLID
  8
0
 62
7
  6
CONTINUOUS
 10
364.6012229651
 20
31.0552422931
 11
364.890285024
 21
31.2810881318
 12
364.6012229651
 22
30.8616599362
 13
364.6012229651
 23
30.8616599362
  0
SOLID
  8
0
 62
7
  6
CONTINUOUS
 10
364.890285024
 20
31.2810881318
 11
364.890285024
 21
30.7648681127
 12
364.6012229651
 22
30.8616599362
 13
364.6012229651
 23
30.8616599362
  0
SOLID
  8
0
 62
7
  6
CONTINUOUS
 10
366.798097524
 20
31.5069339419
 11
367.0293479651
 21
31.5391976292
 12
367.2605977445
 22
31.5391976292
 13
367.2605977445
 23
31.5391976292
  0
SOLID
  8
0
 62
7
  6
CONTINUOUS
 10
367.2605977445
 20
31.5391976292
 11
367.4340352445
 21
31.5069339419
 12
366.798097524
 22
31.5069339419
 13
366.798097524
 23
31.5069339419
  0
SOLID
  8
0
 62
7
  6
CONTINUOUS
 10
366.624660024
 20
31.4424065674
 11
366.798097524
 21
31.5069339419
 12
367.4340352445
 22
31.5069339419
 13
367.4340352445
 23
31.5069339419
  0
SOLID
  8
0
 62
7
  6
CONTINUOUS
 10
367.4340352445
 20
31.5069339419
 11
367.6074727445
 21
31.4424065674
 12
366.624660024
 22
31.4424065674
 13
366.624660024
 23
31.4424065674
  0
SOLID
  8
0
 62
7
  6
CONTINUOUS
 10
367.6074727445
 20
31.4424065674
 11
367.0293479651
 21
31.4101420472
 12
366.624660024
 22
31.4424065674
 13
366.624660024
 23
31.4424065674
  0
SOLID
  8
0
 62
7
  6
CONTINUOUS
 10
366.5090354651
 20
31.377879193
 11
366.624660024
 21
31.4424065674
 12
367.0293479651
 22
31.4101420472
 13
367.0293479651
 23
31.4101420472
  0
SOLID
  8
0
 62
7
  6
CONTINUOUS
 10
367.0293479651
 20
31.4101420472
 11
366.798097524
 21
31.377879193
 12
366.5090354651
 22
31.377879193
 13
366.5090354651
 23
31.377879193
  0
SOLID
  8
0
 62
7
  6
CONTINUOUS
 10
367.0293479651
 20
31.4101420472
 11
367.6074727445
 21
31.4424065674
 12
367.2605977445
 22
31.377879193
 13
367.2605977445
 23
31.377879193
  0
SOLID
  8
0
 62
7
  6
CONTINUOUS
 10
367.6074727445
 20
31.4424065674
 11
367.7230979651
 21
31.377879193
 12
367.2605977445
 22
31.377879193
 13
367.2605977445
 23
31.377879193
  0
SOLID
  8
0
 62
7
  6
CONTINUOUS
 10
367.3762229651
 20
31.345614957
 11
367.2605977445
 21
31.377879193
 12
367.7230979651
 22
31.377879193
 13
367.7230979651
 23
31.377879193
  0
SOLID
  8
0
 62
7
  6
CONTINUOUS
 10
367.3762229651
 20
31.345614957
 11
367.7230979651
 21
31.377879193
 12
367.491847524
 22
31.2810881312
 13
367.491847524
 23
31.2810881312
  0
SOLID
  8
0
 62
7
  6
CONTINUOUS
 10
367.7230979651
 20
31.377879193
 11
367.7809102445
 21
31.2810881312
 12
367.491847524
 22
31.2810881312
 13
367.491847524
 23
31.2810881312
  0
SOLID
  8
0
 62
7
  6
CONTINUOUS
 10
367.5496604651
 20
31.119769695
 11
367.491847524
 21
31.2810881312
 12
367.7809102445
 22
31.2810881312
 13
367.7809102445
 23
31.2810881312
  0
SOLID
  8
0
 62
7
  6
CONTINUOUS
 10
367.7809102445
 20
31.2810881312
 11
367.838722524
 21
31.119769695
 12
367.5496604651
 22
31.119769695
 13
367.5496604651
 23
31.119769695
  0
SOLID
  8
0
 62
7
  6
CONTINUOUS
 10
366.798097524
 20
31.377879193
 11
366.624660024
 21
31.3133521701
 12
366.5090354651
 22
31.377879193
 13
366.5090354651
 23
31.377879193
  0
SOLID
  8
0
 62
7
  6
CONTINUOUS
 10
366.624660024
 20
31.3133521701
 11
366.5090354651
 21
31.2488235635
 12
366.5090354651
 22
31.377879193
 13
366.5090354651
 23
31.377879193
  0
SOLID
  8
0
 62
7
  6
CONTINUOUS
 10
366.5090354651
 20
31.2488235635
 11
366.2199727445
 21
30.5067596374
 12
366.5090354651
 22
31.377879193
 13
366.5090354651
 23
31.377879193
  0
SOLID
  8
0
 62
7
  6
CONTINUOUS
 10
366.5090354651
 20
31.377879193
 11
366.2199727445
 21
30.5067596374
 12
366.5090354651
 22
31.5391976292
 13
366.5090354651
 23
31.5391976292
  0
SOLID
  8
0
 62
7
  6
CONTINUOUS
 10
366.2199727445
 20
30.5067596374
 11
366.2199727445
 21
31.5391976292
 12
366.5090354651
 22
31.5391976292
 13
366.5090354651
 23
31.5391976292
  0
SOLID
  8
0
 62
7
  6
CONTINUOUS
 10
366.5090354651
 20
31.2488235635
 11
366.5090354651
 21
30.5067596374
 12
366.2199727445
 22
30.5067596374
 13
366.2199727445
 23
30.5067596374
  0
SOLID
  8
0
 62
7
  6
CONTINUOUS
 10
367.5496604651
 20
30.5067596374
 11
367.5496604651
 21
31.119769695
 12
367.838722524
 22
31.119769695
 13
367.838722524
 23
31.119769695
  0
SOLID
  8
0
 62
7
  6
CONTINUOUS
 10
367.838722524
 20
31.119769695
 11
367.838722524
 21
30.5067596374
 12
367.5496604651
 22
30.5067596374
 13
367.5496604651
 23
30.5067596374
  0
SOLID
  8
0
 62
7
  6
CONTINUOUS
 10
368.6480977445
 20
31.5069334157
 11
368.9949727445
 21
31.539197762
 12
369.3418477445
 22
31.539197762
 13
369.3418477445
 23
31.539197762
  0
SOLID
  8
0
 62
7
  6
CONTINUOUS
 10
369.3418477445
 20
31.539197762
 11
369.6887227445
 21
31.5069334157
 12
368.6480977445
 22
31.5069334157
 13
368.6480977445
 23
31.5069334157
  0
SOLID
  8
0
 62
7
  6
CONTINUOUS
 10
368.4168479651
 20
31.4424063504
 11
368.6480977445
 21
31.5069334157
 12
369.6887227445
 22
31.5069334157
 13
369.6887227445
 23
31.5069334157
  0
SOLID
  8
0
 62
7
  6
CONTINUOUS
 10
368.4168479651
 20
31.4424063504
 11
369.6887227445
 21
31.5069334406
 12
369.8621602445
 22
31.4746706537
 13
369.8621602445
 23
31.4746706537
  0
SOLID
  8
0
 62
7
  6
CONTINUOUS
 10
368.4168479651
 20
31.4424063504
 11
369.8621602445
 21
31.4746706537
 12
368.9949727445
 22
31.4101421267
 13
368.9949727445
 23
31.4101421267
  0
SOLID
  8
0
 62
7
  6
CONTINUOUS
 10
368.9949727445
 20
31.4101421267
 11
369.8621602445
 21
31.4746706537
 12
369.3418477445
 22
31.4101421267
 13
369.3418477445
 23
31.4101421267
  0
SOLID
  8
0
 62
7
  6
CONTINUOUS
 10
369.8621602445
 20
31.4746706537
 11
370.0355977445
 21
31.4101421267
 12
369.3418477445
 22
31.4101421267
 13
369.3418477445
 23
31.4101421267
  0
SOLID
  8
0
 62
7
  6
CONTINUOUS
 10
369.6887227445
 20
31.3778792603
 11
369.3418477445
 21
31.4101421267
 12
370.0355977445
 22
31.4101421267
 13
370.0355977445
 23
31.4101421267
  0
SOLID
  8
0
 62
7
  6
CONTINUOUS
 10
368.3012227445
 20
31.3456148845
 11
368.4168479651
 21
31.4424063504
 12
368.9949727445
 22
31.4101421267
 13
368.9949727445
 23
31.4101421267
  0
SOLID
  8
0
 62
7
  6
CONTINUOUS
 10
369.6887227445
 20
31.3778792603
 11
370.0355977445
 21
31.4101421267
 12
369.8043479651
 22
31.3456148845
 13
369.8043479651
 23
31.3456148845
  0
SOLID
  8
0
 62
7
  6
CONTINUOUS
 10
369.8043479651
 20
31.3456148845
 11
370.0355977445
 21
31.4101421267
 12
369.8621602445
 22
31.281087868
 13
369.8621602445
 23
31.281087868
  0
SOLID
  8
0
 62
7
  6
CONTINUOUS
 10
370.0355977445
 20
31.4101421267
 11
370.1512223035
 21
31.281087868
 12
369.8621602445
 22
31.281087868
 13
369.8621602445
 23
31.281087868
  0
SOLID
  8
0
 62
7
  6
CONTINUOUS
 10
359.4559102445
 20
31.3778792603
 11
358.9355977445
 21
31.3456148963
 12
359.6871602721
 22
31.4101421155
 13
359.6871602721
 23
31.4101421155
  0
SOLID
  8
0
 62
7
  6
CONTINUOUS
 10
358.9355977445
 20
31.3456148963
 11
359.0512227376
 21
31.4101421155
 12
359.6871602721
 22
31.4101421155
 13
359.6871602721
 23
31.4101421155
  0
SOLID
  8
0
 62
7
  6
CONTINUOUS
 10
359.4559102445
 20
31.3778792603
 11
359.3402852307
 21
31.3456148963
 12
358.9355977445
 22
31.3456148963
 13
358.9355977445
 23
31.3456148963
  0
SOLID
  8
0
 62
7
  6
CONTINUOUS
 10
358.8199727462
 20
31.2165607767
 11
358.9355977445
 21
31.3456148963
 12
359.3402852307
 22
31.3456148963
 13
359.3402852307
 23
31.3456148963
  0
SOLID
  8
0
 62
7
  6
CONTINUOUS
 10
363.1559103548
 20
31.3456149608
 11
363.8496603548
 21
31.4101420472
 12
363.6184102445
 22
31.3778792603
 13
363.6184102445
 23
31.3778792603
  0
SOLID
  8
0
 62
7
  6
CONTINUOUS
 10
363.6184102445
 20
31.3778792603
 11
363.5027853548
 21
31.3456149608
 12
363.1559103548
 22
31.3456149608
 13
363.1559103548
 23
31.3456149608
  0
SOLID
  8
0
 62
7
  6
CONTINUOUS
 10
363.1559103548
 20
31.2810878707
 11
363.1559103548
 21
31.3456149608
 12
363.5027853548
 22
31.3456149608
 13
363.5027853548
 23
31.3456149608
  0
SOLID
  8
0
 62
7
  6
CONTINUOUS
 10
363.5027853548
 20
31.3456149608
 11
363.4449727445
 21
31.2810878707
 12
363.1559103548
 22
31.2810878707
 13
363.1559103548
 23
31.2810878707
  0
SOLID
  8
0
 62
7
  6
CONTINUOUS
 10
368.3012227445
 20
31.3456149608
 11
368.9949727445
 21
31.4101420472
 12
368.7637229651
 22
31.3778792603
 13
368.7637229651
 23
31.3778792603
  0
SOLID
  8
0
 62
7
  6
CONTINUOUS
 10
368.7637229651
 20
31.3778792603
 11
368.6480977445
 21
31.3456149608
 12
368.3012227445
 22
31.3456149608
 13
368.3012227445
 23
31.3456149608
  0
SOLID
  8
0
 62
7
  6
CONTINUOUS
 10
368.3012227445
 20
31.2810878707
 11
368.3012227445
 21
31.3456149608
 12
368.6480977445
 22
31.3456149608
 13
368.6480977445
 23
31.3456149608
  0
SOLID
  8
0
 62
7
  6
CONTINUOUS
 10
368.6480977445
 20
31.3456149608
 11
368.5902854651
 21
31.2810878707
 12
368.3012227445
 22
31.2810878707
 13
368.3012227445
 23
31.2810878707
  0
SOLID
  8
0
 62
7
  6
CONTINUOUS
 10
368.4168479651
 20
31.1520336865
 11
368.3012227445
 21
31.2810878707
 12
368.5902854651
 22
31.2810878707
 13
368.5902854651
 23
31.2810878707
  0
SOLID
  8
0
 62
7
  6
CONTINUOUS
 10
358.8199727462
 20
31.2165607767
 11
359.3402852307
 21
31.345614957
 12
359.1668477307
 22
31.2488235635
 13
359.1668477307
 23
31.2488235635
  0
SOLID
  8
0
 62
7
  6
CONTINUOUS
 10
359.1668477307
 20
31.2488235635
 11
359.1090352445
 21
31.1842964734
 12
358.8199727462
 22
31.2165607767
 13
358.8199727462
 23
31.2165607767
  0
SOLID
  8
0
 62
7
  6
CONTINUOUS
 10
358.7621602445
 20
31.0229779898
 11
358.8199727462
 21
31.2165607767
 12
359.1090352445
 22
31.1842964734
 13
359.1090352445
 23
31.1842964734
  0
SOLID
  8
0
 62
7
  6
CONTINUOUS
 10
363.6184102445
 20
31.1520336865
 11
363.9652852445
 21
31.1842964611
 12
364.6012229651
 22
31.1842964611
 13
364.6012229651
 23
31.1842964611
  0
SOLID
  8
0
 62
7
  6
CONTINUOUS
 10
363.6184102445
 20
31.1520336865
 11
364.6012229651
 21
31.1842964611
 12
363.3871601343
 22
31.0875057863
 13
363.3871601343
 23
31.0875057863
  0
SOLID
  8
0
 62
7
  6
CONTINUOUS
 10
363.3871601343
 20
31.0875057863
 11
364.6012229651
 21
31.1842964611
 12
363.9652852445
 22
31.0552422808
 13
363.9652852445
 23
31.0552422808
  0
SOLID
  8
0
 62
7
  6
CONTINUOUS
 10
364.6012229651
 20
31.1842964611
 11
364.6012229651
 21
31.0552422808
 12
363.9652852445
 22
31.0552422808
 13
363.9652852445
 23
31.0552422808
  0
SOLID
  8
0
 62
7
  6
CONTINUOUS
 10
368.4168479651
 20
31.1520338754
 11
368.5902854651
 21
31.2810878668
 12
368.6480977445
 22
31.2165607767
 13
368.6480977445
 23
31.2165607767
  0
SOLID
  8
0
 62
7
  6
CONTINUOUS
 10
368.6480977445
 20
31.2165607767
 11
368.8215352445
 21
31.1520338754
 12
368.4168479651
 22
31.1520338754
 13
368.4168479651
 23
31.1520338754
  0
SOLID
  8
0
 62
7
  6
CONTINUOUS
 10
368.6480977445
 20
31.0552422931
 11
368.4168479651
 21
31.1520338754
 12
368.8215352445
 22
31.1520338754
 13
368.8215352445
 23
31.1520338754
  0
SOLID
  8
0
 62
7
  6
CONTINUOUS
 10
368.8215352445
 20
31.1520338754
 11
369.8043479651
 21
30.9907152029
 12
368.6480977445
 22
31.0552422931
 13
368.6480977445
 23
31.0552422931
  0
SOLID
  8
0
 62
7
  6
CONTINUOUS
 10
369.6309104651
 20
30.8939239876
 11
368.6480977445
 21
31.0552422931
 12
369.8043479651
 22
30.9907152029
 13
369.8043479651
 23
30.9907152029
  0
SOLID
  8
0
 62
7
  6
CONTINUOUS
 10
369.8043479651
 20
30.9907152029
 11
370.0355977445
 21
30.8939239876
 12
369.6309104651
 22
30.8939239876
 13
369.6309104651
 23
30.8939239876
  0
SOLID
  8
0
 62
7
  6
CONTINUOUS
 10
369.8043479651
 20
30.8293967193
 11
369.6309104651
 21
30.8939239876
 12
370.0355977445
 22
30.8939239876
 13
370.0355977445
 23
30.8939239876
  0
SOLID
  8
0
 62
7
  6
CONTINUOUS
 10
369.8043479651
 20
30.8293967193
 11
370.0355977445
 21
30.8939239876
 12
369.8621602445
 22
30.7648682694
 13
369.8621602445
 23
30.7648682694
  0
SOLID
  8
0
 62
7
  6
CONTINUOUS
 10
370.0355977445
 20
30.8939239876
 11
370.1512223035
 21
30.7648682694
 12
369.8621602445
 22
30.7648682694
 13
369.8621602445
 23
30.7648682694
  0
SOLID
  8
0
 62
7
  6
CONTINUOUS
 10
369.8043479651
 20
30.7003411846
 11
369.8621602445
 21
30.7648682694
 12
370.1512223035
 22
30.7648682694
 13
370.1512223035
 23
30.7648682694
  0
SOLID
  8
0
 62
7
  6
CONTINUOUS
 10
370.1512223035
 20
30.7648682694
 11
370.1512223035
 21
30.7003411846
 12
369.8043479651
 22
30.7003411846
 13
369.8043479651
 23
30.7003411846
  0
SOLID
  8
0
 62
7
  6
CONTINUOUS
 10
369.6887227445
 20
30.6680782357
 11
369.8043479651
 21
30.7003411846
 12
370.1512223035
 22
30.7003411846
 13
370.1512223035
 23
30.7003411846
  0
SOLID
  8
0
 62
7
  6
CONTINUOUS
 10
369.6887227445
 20
30.6680782357
 11
370.1512223035
 21
30.7003411846
 12
369.4574729651
 22
30.6358140998
 13
369.4574729651
 23
30.6358140998
  0
SOLID
  8
0
 62
7
  6
CONTINUOUS
 10
370.1512223035
 20
30.7003411846
 11
370.0355977445
 21
30.6035511455
 12
369.4574729651
 22
30.6358140998
 13
369.4574729651
 23
30.6358140998
  0
SOLID
  8
0
 62
7
  6
CONTINUOUS
 10
370.0355977445
 20
30.6035511455
 11
368.5902854651
 21
30.5712868422
 12
369.4574729651
 22
30.6358140998
 13
369.4574729651
 23
30.6358140998
  0
SOLID
  8
0
 62
7
  6
CONTINUOUS
 10
369.4574729651
 20
30.6358140998
 11
368.5902854651
 21
30.5712868422
 12
369.1105979651
 22
30.6358140998
 13
369.1105979651
 23
30.6358140998
  0
SOLID
  8
0
 62
7
  6
CONTINUOUS
 10
368.5902854651
 20
30.5712868422
 11
368.4168479651
 21
30.6358140998
 12
369.1105979651
 22
30.6358140998
 13
369.1105979651
 23
30.6358140998
  0
SOLID
  8
0
 62
7
  6
CONTINUOUS
 10
368.5902854651
 20
30.5712868422
 11
370.0355977445
 21
30.6035511455
 12
368.7637229651
 22
30.5390223111
 13
368.7637229651
 23
30.5390223111
  0
SOLID
  8
0
 62
7
  6
CONTINUOUS
 10
370.0355977445
 20
30.6035511455
 11
369.8043479651
 21
30.5390223111
 12
368.7637229651
 22
30.5390223111
 13
368.7637229651
 23
30.5390223111
  0
SOLID
  8
0
 62
7
  6
CONTINUOUS
 10
369.1105979651
 20
30.5067599302
 11
368.7637229651
 21
30.5390223111
 12
369.8043479651
 22
30.5390223111
 13
369.8043479651
 23
30.5390223111
  0
SOLID
  8
0
 62
7
  6
CONTINUOUS
 10
369.8043479651
 20
30.5390223111
 11
369.4574729651
 21
30.5067599302
 12
369.1105979651
 22
30.5067599302
 13
369.1105979651
 23
30.5067599302
  0
SOLID
  8
0
 62
7
  6
CONTINUOUS
 10
358.7621602445
 20
31.0229779898
 11
359.1090352445
 21
31.1842964734
 12
359.0512227376
 22
31.0552422931
 13
359.0512227376
 23
31.0552422931
  0
SOLID
  8
0
 62
7
  6
CONTINUOUS
 10
359.0512227376
 20
31.0552422931
 11
359.0512227376
 21
30.9584509954
 12
358.7621602445
 22
31.0229779898
 13
358.7621602445
 23
31.0229779898
  0
SOLID
  8
0
 62
7
  6
CONTINUOUS
 10
358.8199727462
 20
30.8293967193
 11
358.7621602445
 21
31.0229779898
 12
359.0512227376
 22
30.9584509954
 13
359.0512227376
 23
30.9584509954
  0
SOLID
  8
0
 62
7
  6
CONTINUOUS
 10
359.0512227376
 20
30.9584509954
 11
359.1668477307
 21
30.797132416
 12
358.8199727462
 22
30.8293967193
 13
358.8199727462
 23
30.8293967193
  0
SOLID
  8
0
 62
7
  6
CONTINUOUS
 10
358.9355977445
 20
30.7003413087
 11
358.8199727462
 21
30.8293967193
 12
359.1668477307
 22
30.797132416
 13
359.1668477307
 23
30.797132416
  0
SOLID
  8
0
 62
7
  6
CONTINUOUS
 10
359.1668477307
 20
30.797132416
 11
359.3402852307
 21
30.7003413087
 12
358.9355977445
 22
30.7003413087
 13
358.9355977445
 23
30.7003413087
  0
SOLID
  8
0
 62
7
  6
CONTINUOUS
 10
359.0512227376
 20
30.6358140759
 11
358.9355977445
 21
30.7003413087
 12
359.3402852307
 22
30.7003413087
 13
359.3402852307
 23
30.7003413087
  0
SOLID
  8
0
 62
7
  6
CONTINUOUS
 10
359.3402852307
 20
30.7003413087
 11
359.6871602721
 21
30.6358140759
 12
359.0512227376
 22
30.6358140759
 13
359.0512227376
 23
30.6358140759
  0
SOLID
  8
0
 62
7
  6
CONTINUOUS
 10
359.2246602583
 20
30.5712868422
 11
359.0512227376
 21
30.6358140759
 12
359.6871602721
 22
30.6358140759
 13
359.6871602721
 23
30.6358140759
  0
SOLID
  8
0
 62
7
  6
CONTINUOUS
 10
363.2715352445
 20
31.0229779808
 11
363.3871601343
 21
31.0875057863
 12
363.9652852445
 22
31.0552422931
 13
363.9652852445
 23
31.0552422931
  0
SOLID
  8
0
 62
7
  6
CONTINUOUS
 10
363.9652852445
 20
31.0552422931
 11
363.7340351343
 21
31.0229779808
 12
363.2715352445
 22
31.0229779808
 13
363.2715352445
 23
31.0229779808
  0
SOLID
  8
0
 62
7
  6
CONTINUOUS
 10
363.1559103548
 20
30.8939238094
 11
363.2715352445
 21
31.0229779808
 12
363.7340351343
 22
31.0229779808
 13
363.7340351343
 23
31.0229779808
  0
SOLID
  8
0
 62
7
  6
CONTINUOUS
 10
363.5027853548
 20
30.926187309
 11
363.1559103548
 21
30.8939238094
 12
363.6184102445
 22
30.9907152029
 13
363.6184102445
 23
30.9907152029
  0
SOLID
  8
0
 62
7
  6
CONTINUOUS
 10
363.1559103548
 20
30.8939238094
 11
363.7340351343
 21
31.0229779898
 12
363.6184102445
 22
30.9907152029
 13
363.6184102445
 23
30.9907152029
  0
SOLID
  8
0
 62
7
  6
CONTINUOUS
 10
363.5027853548
 20
30.926187309
 11
363.4449727445
 21
30.8293967193
 12
363.1559103548
 22
30.8939238094
 13
363.1559103548
 23
30.8939238094
  0
SOLID
  8
0
 62
7
  6
CONTINUOUS
 10
363.1559103548
 20
30.797132416
 11
363.1559103548
 21
30.8939238094
 12
363.4449727445
 22
30.8293967193
 13
363.4449727445
 23
30.8293967193
  0
SOLID
  8
0
 62
7
  6
CONTINUOUS
 10
363.4449727445
 20
30.8293967193
 11
363.4449727445
 21
30.7648681127
 12
363.1559103548
 22
30.797132416
 13
363.1559103548
 23
30.797132416
  0
SOLID
  8
0
 62
7
  6
CONTINUOUS
 10
363.2137226343
 20
30.6680782357
 11
363.1559103548
 21
30.797132416
 12
363.4449727445
 22
30.7648681127
 13
363.4449727445
 23
30.7648681127
  0
SOLID
  8
0
 62
7
  6
CONTINUOUS
 10
364.6012229651
 20
30.8616599362
 11
364.890285024
 21
30.7648681127
 12
364.543410024
 22
30.797132416
 13
364.543410024
 23
30.797132416
  0
SOLID
  8
0
 62
7
  6
CONTINUOUS
 10
364.369972524
 20
30.7003410226
 11
364.543410024
 21
30.797132416
 12
364.890285024
 22
30.7648681127
 13
364.890285024
 23
30.7648681127
  0
SOLID
  8
0
 62
7
  6
CONTINUOUS
 10
364.369972524
 20
30.7003410226
 11
364.890285024
 21
30.7648681127
 12
364.6012229651
 22
30.6680782357
 13
364.6012229651
 23
30.6680782357
  0
SOLID
  8
0
 62
7
  6
CONTINUOUS
 10
364.890285024
 20
30.7648681127
 11
364.9480979651
 21
30.6035511455
 12
364.6012229651
 22
30.6680782357
 13
364.6012229651
 23
30.6680782357
  0
SOLID
  8
0
 62
7
  6
CONTINUOUS
 10
364.6590352445
 20
30.5712868422
 11
364.6012229651
 21
30.6680782357
 12
364.9480979651
 22
30.6035511455
 13
364.9480979651
 23
30.6035511455
  0
SOLID
  8
0
 62
7
  6
CONTINUOUS
 10
364.6590352445
 20
30.5712868422
 11
364.9480979651
 21
30.6035511455
 12
364.716847524
 22
30.5067598731
 13
364.716847524
 23
30.5067598731
  0
SOLID
  8
0
 62
7
  6
CONTINUOUS
 10
364.9480979651
 20
30.6035511455
 11
365.0059102445
 21
30.5067598731
 12
364.716847524
 22
30.5067598731
 13
364.716847524
 23
30.5067598731
  0
SOLID
  8
0
 62
7
  6
CONTINUOUS
 10
360.2652852997
 20
30.7326051679
 11
360.3230977445
 21
30.8293966612
 12
360.6121602997
 22
30.8293966612
 13
360.6121602997
 23
30.8293966612
  0
SOLID
  8
0
 62
7
  6
CONTINUOUS
 10
360.6121602997
 20
30.8293966612
 11
360.5543476894
 21
30.7003410226
 12
360.2652852997
 22
30.7326051679
 13
360.2652852997
 23
30.7326051679
  0
SOLID
  8
0
 62
7
  6
CONTINUOUS
 10
360.091847717
 20
30.6680782357
 11
360.2652852997
 21
30.7326051679
 12
360.5543476894
 22
30.7003410226
 13
360.5543476894
 23
30.7003410226
  0
SOLID
  8
0
 62
7
  6
CONTINUOUS
 10
360.091847717
 20
30.6680782357
 11
360.5543476894
 21
30.7003410226
 12
359.6871602721
 22
30.6358139324
 13
359.6871602721
 23
30.6358139324
  0
SOLID
  8
0
 62
7
  6
CONTINUOUS
 10
360.5543476894
 20
30.7003410226
 11
360.3809101894
 21
30.6035511455
 12
359.6871602721
 22
30.6358139324
 13
359.6871602721
 23
30.6358139324
  0
SOLID
  8
0
 62
7
  6
CONTINUOUS
 10
359.2246602583
 20
30.5712868422
 11
359.6871602721
 21
30.6358139324
 12
360.3809101894
 22
30.6035511455
 13
360.3809101894
 23
30.6035511455
  0
SOLID
  8
0
 62
7
  6
CONTINUOUS
 10
359.2246602583
 20
30.5712868422
 11
360.3809101894
 21
30.6035511455
 12
359.3980977583
 22
30.5390224228
 13
359.3980977583
 23
30.5390224228
  0
SOLID
  8
0
 62
7
  6
CONTINUOUS
 10
360.3809101894
 20
30.6035511455
 11
360.1496602445
 21
30.5390224228
 12
359.3980977583
 22
30.5390224228
 13
359.3980977583
 23
30.5390224228
  0
SOLID
  8
0
 62
7
  6
CONTINUOUS
 10
359.744972717
 20
30.5067597521
 11
359.3980977583
 21
30.5390224228
 12
360.1496602445
 22
30.5390224228
 13
360.1496602445
 23
30.5390224228
  0
SOLID
  8
0
 62
7
  6
CONTINUOUS
 10
363.2137226343
 20
30.6680782357
 11
363.4449727445
 21
30.7648681127
 12
363.5027853548
 22
30.7003410226
 13
363.5027853548
 23
30.7003410226
  0
SOLID
  8
0
 62
7
  6
CONTINUOUS
 10
363.5027853548
 20
30.7003410226
 11
363.7340351343
 21
30.6358139324
 12
363.2137226343
 22
30.6680782357
 13
363.2137226343
 23
30.6680782357
  0
SOLID
  8
0
 62
7
  6
CONTINUOUS
 10
363.3871601343
 20
30.5712868422
 11
363.2137226343
 21
30.6680782357
 12
363.7340351343
 22
30.6358139324
 13
363.7340351343
 23
30.6358139324
  0
SOLID
  8
0
 62
7
  6
CONTINUOUS
 10
364.0809101343
 20
30.6358139363
 11
364.369972524
 21
30.7003410226
 12
364.6012229651
 22
30.6680782357
 13
364.6012229651
 23
30.6680782357
  0
SOLID
  8
0
 62
7
  6
CONTINUOUS
 10
364.6012229651
 20
30.6680782357
 11
364.543410024
 21
30.6035511455
 12
364.0809101343
 22
30.6358139363
 13
364.0809101343
 23
30.6358139363
  0
SOLID
  8
0
 62
7
  6
CONTINUOUS
 10
364.543410024
 20
30.6035511455
 11
363.3871601343
 21
30.5712868422
 12
364.0809101343
 22
30.6358139363
 13
364.0809101343
 23
30.6358139363
  0
SOLID
  8
0
 62
7
  6
CONTINUOUS
 10
363.3871601343
 20
30.5712868422
 11
363.7340351343
 21
30.6358139363
 12
364.0809101343
 22
30.6358139363
 13
364.0809101343
 23
30.6358139363
  0
SOLID
  8
0
 62
7
  6
CONTINUOUS
 10
363.3871601343
 20
30.5712868422
 11
364.543410024
 21
30.6035511455
 12
363.5027853548
 22
30.5390225267
 13
363.5027853548
 23
30.5390225267
  0
SOLID
  8
0
 62
7
  6
CONTINUOUS
 10
364.543410024
 20
30.6035511455
 11
364.369972524
 21
30.5390225267
 12
363.5027853548
 22
30.5390225267
 13
363.5027853548
 23
30.5390225267
  0
SOLID
  8
0
 62
7
  6
CONTINUOUS
 10
363.7340351343
 20
30.5067596914
 11
363.5027853548
 21
30.5390225267
 12
364.369972524
 22
30.5390225267
 13
364.369972524
 23
30.5390225267
  0
SOLID
  8
0
 62
7
  6
CONTINUOUS
 10
364.369972524
 20
30.5390225267
 11
364.0809101343
 21
30.5067596914
 12
363.7340351343
 22
30.5067596914
 13
363.7340351343
 23
30.5067596914
  0
SOLID
  8
0
 62
7
  6
CONTINUOUS
 10
368.7637229651
 20
30.6680782357
 11
368.4168479651
 21
30.6358138717
 12
368.6480977445
 22
30.7003410226
 13
368.6480977445
 23
30.7003410226
  0
SOLID
  8
0
 62
7
  6
CONTINUOUS
 10
368.6480977445
 20
30.7003410226
 11
368.4168479651
 21
30.6358138717
 12
368.5902854651
 22
30.7648680521
 13
368.5902854651
 23
30.7648680521
  0
SOLID
  8
0
 62
7
  6
CONTINUOUS
 10
368.4168479651
 20
30.6358138717
 11
368.3012227445
 21
30.7648680521
 12
368.5902854651
 22
30.7648680521
 13
368.5902854651
 23
30.7648680521
  0
SOLID
  8
0
 62
7
  6
CONTINUOUS
 10
368.7637229651
 20
30.6680782357
 11
369.1105979651
 21
30.6358138717
 12
368.4168479651
 22
30.6358138717
 13
368.4168479651
 23
30.6358138717
  0
SOLID
  8
0
 62
7
  6
CONTINUOUS
 10
365.4684104651
 20
30.5067597521
 11
365.4684104651
 21
31.5391977439
 12
365.757472524
 22
30.5067597521
 13
365.757472524
 23
31.5391977439
  0
ENDBLK
  8
0
  6
BYBLOCK
 62
0
  0
BLOCK
  8
0
 62
2
  6
CONTINUOUS
  2
SYMBOL_0_BL0
 70
64
 10
240.8592468615
 20
19.762288695
  0
TEXT
  8
0
 62
7
  6
CONTINUOUS
 10
227.1239507038
 20
19.1357028027
  7
TEXTSTYLE_3
 40
2.7338706658
  1
Ammeraal Beltech
 41
1.0
 51
15.0
 72
0
  0
TEXT
  8
0
 62
7
  6
CONTINUOUS
 10
237.9247515296
 20
16.8621661299
  7
TEXTSTYLE_4
 40
1.0935482663
  1
Innovation & Service in Belting
 41
1.0
 72
0
  0
LINE
  8
0
 62
7
  6
CONTINUOUS
 10
221.0994100525
 20
19.9022961113
 11
221.8775620458
 21
23.5632134089
  0
LINE
  8
0
 62
7
  6
CONTINUOUS
 10
231.9727303357
 20
27.2266073205
 11
222.3653797889
 21
24.1049898993
  0
LINE
  8
0
 62
7
  6
CONTINUOUS
 10
221.3246933848
 20
19.2089453082
 11
228.8317686459
 21
12.4495443822
  0
LINE
  8
0
 62
7
  6
CONTINUOUS
 10
221.5872277955
 20
20.4440726016
 11
232.3954971607
 21
23.9558922005
  0
LINE
  8
0
 62
7
  6
CONTINUOUS
 10
232.3912920235
 20
13.6061036368
 11
223.9458323548
 21
21.2104296785
  0
LINE
  8
0
 62
7
  6
CONTINUOUS
 10
232.9111147433
 20
26.3816822048
 11
231.9345552061
 21
21.7873308023
  0
LINE
  8
0
 62
7
  6
CONTINUOUS
 10
231.2347532584
 20
18.4950214885
 11
230.5483050469
 21
15.2655365641
  0
LINE
  8
0
 62
7
  6
CONTINUOUS
 10
233.5922108419
 20
13.9963058145
 11
234.5484423775
 21
18.4950214885
  0
LINE
  8
0
 62
7
  6
CONTINUOUS
 10
235.2482443252
 20
21.7873308023
 11
235.6924861276
 21
23.8773241617
  0
LINE
  8
0
 62
7
  6
CONTINUOUS
 10
229.5448697213
 20
12.2979700695
 11
233.1043930989
 21
13.4545293241
  0
LINE
  8
0
 62
7
  6
CONTINUOUS
 10
232.685831411
 20
27.0750330078
 11
235.4672027953
 21
24.5706749648
  0
ARC
  8
0
 62
7
  6
CONTINUOUS
 10
222.5906631212
 20
23.4116390962
 40
0.7290321776
 50
108.0
 51
168.0
  0
ARC
  8
0
 62
7
  6
CONTINUOUS
 10
232.198013668
 20
26.5332565175
 40
0.7290321776
 50
348.0
 51
108.0
  0
ARC
  8
0
 62
7
  6
CONTINUOUS
 10
234.9793850522
 20
24.0288984744
 40
0.7290321776
 50
348.0
 51
48.0
  0
ARC
  8
0
 62
7
  6
CONTINUOUS
 10
229.319586389
 20
12.9913208726
 40
0.7290321776
 50
228.0
 51
288.0
  0
ARC
  8
0
 62
7
  6
CONTINUOUS
 10
221.8125111278
 20
19.7507217986
 40
0.7290321776
 50
108.0
 51
228.0
  0
ARC
  8
0
 62
7
  6
CONTINUOUS
 10
232.8791097665
 20
14.1478801272
 40
0.7290321776
 50
228.0
 51
348.0
  0
ENDBLK
  8
0
  6
BYBLOCK
 62
0
  0
ENDSEC
  0
SECTION
  2
ENTITIES
  0
TEXT
  8
0
 62
5
  6
CONTINUOUS
 10
304.937007874
 20
25.636
  7
TEXTSTYLE_2
 40
2.8
  1
Scale :
 41
0.6
 51
0.000019
 72
0
  0
TEXT
  8
0
 62
5
  6
CONTINUOUS
 10
324.937007874
 20
25.636
  7
TEXTSTYLE_2
 40
2.8
  1
Belt type:
 41
0.6
 51
0.000019
 72
0
  0
INSERT
  8
0
 62
2
  6
CONTINUOUS
  2
SYMBOL_0_BL0
 10
240.8592468615
 20
19.762288695
  0
INSERT
  8
0
 62
2
  6
CONTINUOUS
  2
SYMBOL_5_BL1
 10
382.7840918555
 20
35.5067593403
  0
LINE
  8
0
 62
2
  6
CONTINUOUS
 10
218.937007874
 20
30.0
 11
408.937007874
 21
30.0
  0
LINE
  8
0
 62
2
  6
CONTINUOUS
 10
218.937007874
 20
30.0
 11
218.937007874
 21
10.0
  0
LINE
  8
0
 62
2
  6
CONTINUOUS
 10
218.937007874
 20
10.0
 11
408.937007874
 21
10.0
  0
LINE
  8
0
 62
2
  6
CONTINUOUS
 10
303.937007874
 20
30.0
 11
303.937007874
 21
10.0
  0
LINE
  8
0
 62
2
  6
CONTINUOUS
 10
323.937007874
 20
30.0
 11
323.937007874
 21
10.0
  0
LINE
  8
0
 62
2
  6
CONTINUOUS
 10
408.937007874
 20
30.0
 11
408.937007874
 21
10.0
  0
TEXT
  8
0
 62
5
  6
CONTINUOUS
 10
221.937007874
 20
23.303
  7
TEXTSTYLE_5
 40
1.52
  1
                                                                     Ammeraal Beltech Modular A/S
 41
1.0
 72
0
  0
TEXT
  8
0
 62
5
  6
CONTINUOUS
 10
221.937007874
 20
20.595
  7
TEXTSTYLE_5
 40
1.5
  1
                                                                      Hjulmagervej 21, 7100 Vejle,  DK
 41
1.0
 72
0
  0
TEXT
  8
0
 62
5
  6
CONTINUOUS
 10
221.937007874
 20
17.881
  7
TEXTSTYLE_5
 40
1.495
  1
                                                                      tel: 
 41
1.0
 72
0
  0
TEXT
  8
0
 62
5
  6
CONTINUOUS
 10
266.9239544389
 20
17.881
  7
TEXTSTYLE_5
 40
1.51
  1
+45 75723100     fax: +45 75723348
 41
1.0
 72
0
  0
TEXT
  8
0
 62
5
  6
CONTINUOUS
 10
221.937007874
 20
15.177
  7
TEXTSTYLE_5
 40
1.5
  1
                                                                      admin@unichains.dk  www.unichains.com
 41
1.0
 72
0
  0
TEXT
  8
0
 62
5
  6
CONTINUOUS
 10
308.687007874
 20
13.75
  7
TEXTSTYLE_6
 40
5.0
  1
1:1
 41
0.7
 72
1
 11
313.937007874
 21
13.75
  0
TEXT
  8
0
 62
5
  6
CONTINUOUS
 10
326.937007874
 20
13.75
  7
TEXTSTYLE_7
 40
7.5
  1
un Flex ASB R2,2/43% Top K1200 Center 
 41
0.2885526316
 72
0
  0
LINE
  8
0
 62
7
  6
CONTINUOUS
 10
0.0
 20
0.0
 11
0.0
 21
297.0
  0
LINE
  8
0
 62
7
  6
CONTINUOUS
 10
8.937007874
 20
10.0
 11
8.937007874
 21
287.0
  0
LINE
  8
0
 62
7
  6
CONTINUOUS
 10
0.0
 20
0.0
 11
420.0
 21
0.0
  0
LINE
  8
0
 62
7
  6
CONTINUOUS
 10
408.937007874
 20
10.0
 11
8.937007874
 21
10.0
  0
LINE
  8
0
 62
7
  6
CONTINUOUS
 10
218.937007874
 20
30.0
 11
408.937007874
 21
30.0
  0
LINE
  8
0
 62
7
  6
CONTINUOUS
 10
210.0
 20
297.0
 11
210.0
 21
292.0
  0
LINE
  8
0
 62
7
  6
CONTINUOUS
 10
210.0
 20
0.0
 11
210.0
 21
5.0
  0
LINE
  8
0
 62
7
  6
CONTINUOUS
 10
8.937007874
 20
287.0
 11
408.937007874
 21
287.0
  0
LINE
  8
0
 62
7
  6
CONTINUOUS
 10
0.0
 20
297.0
 11
420.0
 21
297.0
  0
LINE
  8
0
 62
7
  6
CONTINUOUS
 10
408.937007874
 20
287.0
 11
408.937007874
 21
10.0
  0
LINE
  8
0
 62
7
  6
CONTINUOUS
 10
420.0
 20
0.0
 11
420.0
 21
297.0
  0
LINE
  8
0
 62
7
  6
CONTINUOUS
 10
24.9672305968
 20
148.7486153351
 11
24.9672305968
 21
144.4970778099
  0
LINE
  8
0
 62
7
  6
CONTINUOUS
 10
25.7212305968
 20
141.436337043
 11
25.7212305968
 21
131.8245899819
  0
LINE
  8
0
 62
7
  6
CONTINUOUS
 10
30.2132305968
 20
137.2526153351
 11
30.2132305968
 21
141.436337043
  0
LINE
  8
0
 62
7
  6
CONTINUOUS
 10
30.9672305968
 20
144.4970778099
 11
30.9672305968
 21
148.7486153351
  0
LINE
  8
0
 62
7
  6
CONTINUOUS
 10
31.3172305968
 20
120.4230174691
 11
31.3172305968
 21
116.9491255924
  0
LINE
  8
0
 62
7
  6
CONTINUOUS
 10
32.0672305968
 20
129.6646153351
 11
32.0672305968
 21
123.46795039
  0
LINE
  8
0
 62
7
  6
CONTINUOUS
 10
30.2285079219
 20
141.5589907359
 11
30.9626473993
 21
144.460281702
  0
LINE
  8
0
 62
7
  6
CONTINUOUS
 10
24.9718137943
 20
144.460281702
 11
25.7059532718
 21
141.5589907359
  0
LINE
  8
0
 62
7
  6
CONTINUOUS
 10
36.5672305968
 20
129.6646153351
 11
36.5672305968
 21
123.46795039
  0
LINE
  8
0
 62
7
  6
CONTINUOUS
 10
37.3172305968
 20
120.4230174691
 11
37.3172305968
 21
116.9491255924
  0
LINE
  8
0
 62
7
  6
CONTINUOUS
 10
37.6672305968
 20
144.4970778099
 11
37.6672305968
 21
148.7486153351
  0
LINE
  8
0
 62
7
  6
CONTINUOUS
 10
38.4212305968
 20
137.2526153351
 11
38.4212305968
 21
141.436337043
  0
LINE
  8
0
 62
7
  6
CONTINUOUS
 10
42.9132305968
 20
137.2526153351
 11
42.9132305968
 21
141.436337043
  0
LINE
  8
0
 62
7
  6
CONTINUOUS
 10
43.6672305968
 20
144.4970778099
 11
43.6672305968
 21
148.7486153351
  0
LINE
  8
0
 62
7
  6
CONTINUOUS
 10
44.0172305968
 20
120.4230174691
 11
44.0172305968
 21
116.9491255924
  0
LINE
  8
0
 62
7
  6
CONTINUOUS
 10
44.7672305968
 20
129.6646153351
 11
44.7672305968
 21
123.46795039
  0
LINE
  8
0
 62
7
  6
CONTINUOUS
 10
32.0519532718
 20
123.345296697
 11
31.3218137943
 21
120.459813577
  0
LINE
  8
0
 62
7
  6
CONTINUOUS
 10
42.9285079219
 20
141.5589907359
 11
43.6626473993
 21
144.460281702
  0
LINE
  8
0
 62
7
  6
CONTINUOUS
 10
36.5825079219
 20
123.345296697
 11
37.3126473993
 21
120.459813577
  0
LINE
  8
0
 62
7
  6
CONTINUOUS
 10
38.4059532718
 20
141.5589907359
 11
37.6718137943
 21
144.460281702
  0
LINE
  8
0
 62
7
  6
CONTINUOUS
 10
49.2672305968
 20
129.6646153351
 11
49.2672305968
 21
123.46795039
  0
LINE
  8
0
 62
7
  6
CONTINUOUS
 10
50.0172305968
 20
120.4230174691
 11
50.0172305968
 21
116.9491255924
  0
LINE
  8
0
 62
7
  6
CONTINUOUS
 10
50.3672305968
 20
144.4970778099
 11
50.3672305968
 21
148.7486153351
  0
LINE
  8
0
 62
7
  6
CONTINUOUS
 10
51.1212305968
 20
137.2526153351
 11
51.1212305968
 21
141.436337043
  0
LINE
  8
0
 62
7
  6
CONTINUOUS
 10
44.7519532718
 20
123.345296697
 11
44.0218137943
 21
120.459813577
  0
LINE
  8
0
 62
7
  6
CONTINUOUS
 10
49.2825079219
 20
123.345296697
 11
50.0126473993
 21
120.459813577
  0
LINE
  8
0
 62
7
  6
CONTINUOUS
 10
55.6132305968
 20
137.2526153351
 11
55.6132305968
 21
141.436337043
  0
LINE
  8
0
 62
7
  6
CONTINUOUS
 10
56.3672305968
 20
144.4970778099
 11
56.3672305968
 21
148.7486153351
  0
LINE
  8
0
 62
7
  6
CONTINUOUS
 10
56.7172305968
 20
120.4230174691
 11
56.7172305968
 21
116.9491255924
  0
LINE
  8
0
 62
7
  6
CONTINUOUS
 10
57.4672305968
 20
129.6646153351
 11
57.4672305968
 21
123.46795039
  0
LINE
  8
0
 62
7
  6
CONTINUOUS
 10
61.9672305968
 20
129.6646153351
 11
61.9672305968
 21
123.46795039
  0
LINE
  8
0
 62
7
  6
CONTINUOUS
 10
62.7172305968
 20
120.4230174691
 11
62.7172305968
 21
116.9491255924
  0
LINE
  8
0
 62
7
  6
CONTINUOUS
 10
63.0672305968
 20
144.4970778099
 11
63.0672305968
 21
148.7486153351
  0
LINE
  8
0
 62
7
  6
CONTINUOUS
 10
63.8212305968
 20
137.2526153351
 11
63.8212305968
 21
141.436337043
  0
LINE
  8
0
 62
7
  6
CONTINUOUS
 10
55.6285079219
 20
141.5589907359
 11
56.3626473993
 21
144.460281702
  0
LINE
  8
0
 62
7
  6
CONTINUOUS
 10
57.4519532718
 20
123.345296697
 11
56.7218137943
 21
120.459813577
  0
LINE
  8
0
 62
7
  6
CONTINUOUS
 10
51.1059532718
 20
141.5589907359
 11
50.3718137943
 21
144.460281702
  0
LINE
  8
0
 62
7
  6
CONTINUOUS
 10
61.9825079219
 20
123.345296697
 11
62.7126473993
 21
120.459813577
  0
LINE
  8
0
 62
7
  6
CONTINUOUS
 10
68.3132305968
 20
137.2526153351
 11
68.3132305968
 21
141.436337043
  0
LINE
  8
0
 62
7
  6
CONTINUOUS
 10
69.0672305968
 20
144.4970778099
 11
69.0672305968
 21
148.7486153351
  0
LINE
  8
0
 62
7
  6
CONTINUOUS
 10
69.4172305968
 20
120.4230174691
 11
69.4172305968
 21
116.9491255924
  0
LINE
  8
0
 62
7
  6
CONTINUOUS
 10
70.1672305968
 20
129.6646153351
 11
70.1672305968
 21
123.46795039
  0
LINE
  8
0
 62
7
  6
CONTINUOUS
 10
74.6672305968
 20
129.6646153351
 11
74.6672305968
 21
123.46795039
  0
LINE
  8
0
 62
7
  6
CONTINUOUS
 10
75.4172305968
 20
120.4230174691
 11
75.4172305968
 21
116.9491255924
  0
LINE
  8
0
 62
7
  6
CONTINUOUS
 10
68.3285079219
 20
141.5589907359
 11
69.0626473993
 21
144.460281702
  0
LINE
  8
0
 62
7
  6
CONTINUOUS
 10
70.1519532718
 20
123.345296697
 11
69.4218137943
 21
120.459813577
  0
LINE
  8
0
 62
7
  6
CONTINUOUS
 10
63.8059532718
 20
141.5589907359
 11
63.0718137943
 21
144.460281702
  0
LINE
  8
0
 62
7
  6
CONTINUOUS
 10
74.6825079219
 20
123.345296697
 11
75.4126473993
 21
120.459813577
  0
LINE
  8
0
 62
7
  6
CONTINUOUS
 10
75.7672305968
 20
144.4970778099
 11
75.7672305968
 21
148.7486153351
  0
LINE
  8
0
 62
7
  6
CONTINUOUS
 10
76.5212305968
 20
137.2526153351
 11
76.5212305968
 21
141.436337043
  0
LINE
  8
0
 62
7
  6
CONTINUOUS
 10
81.0132305968
 20
137.2526153351
 11
81.0132305968
 21
141.436337043
  0
LINE
  8
0
 62
7
  6
CONTINUOUS
 10
81.7672305968
 20
144.4970778099
 11
81.7672305968
 21
148.7486153351
  0
LINE
  8
0
 62
7
  6
CONTINUOUS
 10
82.1172305968
 20
120.4230174691
 11
82.1172305968
 21
116.9491255924
  0
LINE
  8
0
 62
7
  6
CONTINUOUS
 10
82.8672305968
 20
129.6646153351
 11
82.8672305968
 21
123.46795039
  0
LINE
  8
0
 62
7
  6
CONTINUOUS
 10
81.0285079219
 20
141.5589907359
 11
81.7626473993
 21
144.460281702
  0
LINE
  8
0
 62
7
  6
CONTINUOUS
 10
76.5059532718
 20
141.5589907359
 11
75.7718137943
 21
144.460281702
  0
LINE
  8
0
 62
7
  6
CONTINUOUS
 10
87.3672305968
 20
129.6646153351
 11
87.3672305968
 21
123.46795039
  0
LINE
  8
0
 62
7
  6
CONTINUOUS
 10
88.1172305968
 20
120.4230174691
 11
88.1172305968
 21
116.9491255924
  0
LINE
  8
0
 62
7
  6
CONTINUOUS
 10
88.4672305968
 20
144.4970778099
 11
88.4672305968
 21
148.7486153351
  0
LINE
  8
0
 62
7
  6
CONTINUOUS
 10
89.2212305968
 20
137.2526153351
 11
89.2212305968
 21
141.436337043
  0
LINE
  8
0
 62
7
  6
CONTINUOUS
 10
93.7132305968
 20
137.2526153351
 11
93.7132305968
 21
141.436337043
  0
LINE
  8
0
 62
7
  6
CONTINUOUS
 10
94.4672305968
 20
144.4970778099
 11
94.4672305968
 21
148.7486153351
  0
LINE
  8
0
 62
7
  6
CONTINUOUS
 10
94.8172305968
 20
120.4230174691
 11
94.8172305968
 21
116.9491255924
  0
LINE
  8
0
 62
7
  6
CONTINUOUS
 10
95.5672305968
 20
129.6646153351
 11
95.5672305968
 21
123.46795039
  0
LINE
  8
0
 62
7
  6
CONTINUOUS
 10
82.8519532718
 20
123.345296697
 11
82.1218137943
 21
120.459813577
  0
LINE
  8
0
 62
7
  6
CONTINUOUS
 10
93.7285079219
 20
141.5589907359
 11
94.4626473993
 21
144.460281702
  0
LINE
  8
0
 62
7
  6
CONTINUOUS
 10
87.3825079219
 20
123.345296697
 11
88.1126473993
 21
120.459813577
  0
LINE
  8
0
 62
7
  6
CONTINUOUS
 10
89.2059532718
 20
141.5589907359
 11
88.4718137943
 21
144.460281702
  0
LINE
  8
0
 62
7
  6
CONTINUOUS
 10
100.0672305968
 20
129.6646153351
 11
100.0672305968
 21
123.46795039
  0
LINE
  8
0
 62
7
  6
CONTINUOUS
 10
100.8172305968
 20
120.4230174691
 11
100.8172305968
 21
116.9491255924
  0
LINE
  8
0
 62
7
  6
CONTINUOUS
 10
101.1672305968
 20
144.4970778099
 11
101.1672305968
 21
148.7486153351
  0
LINE
  8
0
 62
7
  6
CONTINUOUS
 10
101.9212305968
 20
137.2526153351
 11
101.9212305968
 21
141.436337043
  0
LINE
  8
0
 62
7
  6
CONTINUOUS
 10
106.4132305968
 20
137.2526153351
 11
106.4132305968
 21
141.436337043
  0
LINE
  8
0
 62
7
  6
CONTINUOUS
 10
95.5519532718
 20
123.345296697
 11
94.8218137943
 21
120.459813577
  0
LINE
  8
0
 62
7
  6
CONTINUOUS
 10
106.4285079219
 20
141.5589907359
 11
107.1626473993
 21
144.460281702
  0
LINE
  8
0
 62
7
  6
CONTINUOUS
 10
100.0825079219
 20
123.345296697
 11
100.8126473993
 21
120.459813577
  0
LINE
  8
0
 62
7
  6
CONTINUOUS
 10
101.9059532718
 20
141.5589907359
 11
101.1718137943
 21
144.460281702
  0
LINE
  8
0
 62
7
  6
CONTINUOUS
 10
107.1672305968
 20
144.4970778099
 11
107.1672305968
 21
148.7486153351
  0
LINE
  8
0
 62
7
  6
CONTINUOUS
 10
107.5172305968
 20
120.4230174691
 11
107.5172305968
 21
116.9491255924
  0
LINE
  8
0
 62
7
  6
CONTINUOUS
 10
108.2672305968
 20
129.6646153351
 11
108.2672305968
 21
123.46795039
  0
LINE
  8
0
 62
7
  6
CONTINUOUS
 10
112.7672305968
 20
129.6646153351
 11
112.7672305968
 21
123.46795039
  0
LINE
  8
0
 62
7
  6
CONTINUOUS
 10
113.5172305968
 20
120.4230174691
 11
113.5172305968
 21
116.9491255924
  0
LINE
  8
0
 62
7
  6
CONTINUOUS
 10
113.8672305968
 20
144.4970778099
 11
113.8672305968
 21
148.7486153351
  0
LINE
  8
0
 62
7
  6
CONTINUOUS
 10
114.6212305968
 20
137.2526153351
 11
114.6212305968
 21
141.436337043
  0
LINE
  8
0
 62
7
  6
CONTINUOUS
 10
108.2519532718
 20
123.345296697
 11
107.5218137943
 21
120.459813577
  0
LINE
  8
0
 62
7
  6
CONTINUOUS
 10
112.7825079219
 20
123.345296697
 11
113.5126473993
 21
120.459813577
  0
LINE
  8
0
 62
7
  6
CONTINUOUS
 10
119.1132305968
 20
137.2526153351
 11
119.1132305968
 21
141.436337043
  0
LINE
  8
0
 62
7
  6
CONTINUOUS
 10
119.8672305968
 20
144.4970778099
 11
119.8672305968
 21
148.7486153351
  0
LINE
  8
0
 62
7
  6
CONTINUOUS
 10
120.2172305968
 20
120.4230174691
 11
120.2172305968
 21
116.9491255924
  0
LINE
  8
0
 62
7
  6
CONTINUOUS
 10
120.9672305968
 20
129.6646153351
 11
120.9672305968
 21
123.46795039
  0
LINE
  8
0
 62
7
  6
CONTINUOUS
 10
125.4672305968
 20
129.6646153351
 11
125.4672305968
 21
123.46795039
  0
LINE
  8
0
 62
7
  6
CONTINUOUS
 10
126.2172305968
 20
120.4230174691
 11
126.2172305968
 21
116.9491255924
  0
LINE
  8
0
 62
7
  6
CONTINUOUS
 10
126.5672305968
 20
144.4970778099
 11
126.5672305968
 21
148.7486153351
  0
LINE
  8
0
 62
7
  6
CONTINUOUS
 10
119.1285079219
 20
141.5589907359
 11
119.8626473993
 21
144.460281702
  0
LINE
  8
0
 62
7
  6
CONTINUOUS
 10
120.9519532718
 20
123.345296697
 11
120.2218137943
 21
120.459813577
  0
LINE
  8
0
 62
7
  6
CONTINUOUS
 10
114.6059532718
 20
141.5589907359
 11
113.8718137943
 21
144.460281702
  0
LINE
  8
0
 62
7
  6
CONTINUOUS
 10
125.4825079219
 20
123.345296697
 11
126.2126473993
 21
120.459813577
  0
LINE
  8
0
 62
7
  6
CONTINUOUS
 10
127.3212305968
 20
137.2526153351
 11
127.3212305968
 21
141.436337043
  0
LINE
  8
0
 62
7
  6
CONTINUOUS
 10
131.8132305968
 20
137.2526153351
 11
131.8132305968
 21
141.436337043
  0
LINE
  8
0
 62
7
  6
CONTINUOUS
 10
132.5672305968
 20
144.4970778099
 11
132.5672305968
 21
148.7486153351
  0
LINE
  8
0
 62
7
  6
CONTINUOUS
 10
132.9172305968
 20
120.4230174691
 11
132.9172305968
 21
116.9491255924
  0
LINE
  8
0
 62
7
  6
CONTINUOUS
 10
133.6672305968
 20
129.6646153351
 11
133.6672305968
 21
123.46795039
  0
LINE
  8
0
 62
7
  6
CONTINUOUS
 10
131.8285079219
 20
141.5589907359
 11
132.5626473993
 21
144.460281702
  0
LINE
  8
0
 62
7
  6
CONTINUOUS
 10
133.6519532718
 20
123.345296697
 11
132.9218137943
 21
120.459813577
  0
LINE
  8
0
 62
7
  6
CONTINUOUS
 10
127.3059532718
 20
141.5589907359
 11
126.5718137943
 21
144.460281702
  0
LINE
  8
0
 62
7
  6
CONTINUOUS
 10
138.1825079219
 20
123.345296697
 11
138.9126473993
 21
120.459813577
  0
LINE
  8
0
 62
7
  6
CONTINUOUS
 10
138.1672305968
 20
129.6646153351
 11
138.1672305968
 21
123.46795039
  0
LINE
  8
0
 62
7
  6
CONTINUOUS
 10
138.9172305968
 20
120.4230174691
 11
138.9172305968
 21
116.9491255924
  0
LINE
  8
0
 62
7
  6
CONTINUOUS
 10
139.2672305968
 20
144.4970778099
 11
139.2672305968
 21
148.7486153351
  0
LINE
  8
0
 62
7
  6
CONTINUOUS
 10
140.0212305968
 20
137.2526153351
 11
140.0212305968
 21
141.436337043
  0
LINE
  8
0
 62
7
  6
CONTINUOUS
 10
144.5132305968
 20
137.2526153351
 11
144.5132305968
 21
141.436337043
  0
LINE
  8
0
 62
7
  6
CONTINUOUS
 10
145.2672305968
 20
144.4970778099
 11
145.2672305968
 21
148.7486153351
  0
LINE
  8
0
 62
7
  6
CONTINUOUS
 10
145.6172305968
 20
120.4230174691
 11
145.6172305968
 21
116.9491255924
  0
LINE
  8
0
 62
7
  6
CONTINUOUS
 10
146.3672305968
 20
129.6646153351
 11
146.3672305968
 21
123.46795039
  0
LINE
  8
0
 62
7
  6
CONTINUOUS
 10
144.5285079219
 20
141.5589907359
 11
145.2626473993
 21
144.460281702
  0
LINE
  8
0
 62
7
  6
CONTINUOUS
 10
140.0059532718
 20
141.5589907359
 11
139.2718137943
 21
144.460281702
  0
LINE
  8
0
 62
7
  6
CONTINUOUS
 10
150.8672305968
 20
129.6646153351
 11
150.8672305968
 21
123.46795039
  0
LINE
  8
0
 62
7
  6
CONTINUOUS
 10
151.6172305968
 20
120.4230174691
 11
151.6172305968
 21
116.9491255924
  0
LINE
  8
0
 62
7
  6
CONTINUOUS
 10
151.9672305968
 20
144.4970778099
 11
151.9672305968
 21
148.7486153351
  0
LINE
  8
0
 62
7
  6
CONTINUOUS
 10
152.7212305968
 20
137.2526153351
 11
152.7212305968
 21
141.436337043
  0
LINE
  8
0
 62
7
  6
CONTINUOUS
 10
157.2132305968
 20
137.2526153351
 11
157.2132305968
 21
141.436337043
  0
LINE
  8
0
 62
7
  6
CONTINUOUS
 10
157.9672305968
 20
144.4970778099
 11
157.9672305968
 21
148.7486153351
  0
LINE
  8
0
 62
7
  6
CONTINUOUS
 10
146.3519532718
 20
123.345296697
 11
145.6218137943
 21
120.459813577
  0
LINE
  8
0
 62
7
  6
CONTINUOUS
 10
157.2285079219
 20
141.5589907359
 11
157.9626473993
 21
144.460281702
  0
LINE
  8
0
 62
7
  6
CONTINUOUS
 10
150.8825079219
 20
123.345296697
 11
151.6126473993
 21
120.459813577
  0
LINE
  8
0
 62
7
  6
CONTINUOUS
 10
152.7059532718
 20
141.5589907359
 11
151.9718137943
 21
144.460281702
  0
LINE
  8
0
 62
7
  6
CONTINUOUS
 10
158.3172305968
 20
120.4230174691
 11
158.3172305968
 21
116.9491255924
  0
LINE
  8
0
 62
7
  6
CONTINUOUS
 10
159.0672305968
 20
129.6646153351
 11
159.0672305968
 21
123.46795039
  0
LINE
  8
0
 62
7
  6
CONTINUOUS
 10
163.5672305968
 20
129.6646153351
 11
163.5672305968
 21
123.46795039
  0
LINE
  8
0
 62
7
  6
CONTINUOUS
 10
164.3172305968
 20
120.4230174691
 11
164.3172305968
 21
116.9491255924
  0
LINE
  8
0
 62
7
  6
CONTINUOUS
 10
164.6672305968
 20
144.4970778099
 11
164.6672305968
 21
148.7486153351
  0
LINE
  8
0
 62
7
  6
CONTINUOUS
 10
165.4212305968
 20
137.2526153351
 11
165.4212305968
 21
141.436337043
  0
LINE
  8
0
 62
7
  6
CONTINUOUS
 10
159.0519532718
 20
123.345296697
 11
158.3218137943
 21
120.459813577
  0
LINE
  8
0
 62
7
  6
CONTINUOUS
 10
169.9285079219
 20
141.5589907359
 11
170.6626473993
 21
144.460281702
  0
LINE
  8
DEFAULT_1
 62
2
  6
CENTER
 10
29.3172305968
 20
119.7486153351
 11
331.4172305968
 21
119.7486153351
  0
LINE
  8
0
 62
7
  6
CONTINUOUS
 10
163.5825079219
 20
123.345296697
 11
164.3126473993
 21
120.459813577
  0
LINE
  8
0
 62
7
  6
CONTINUOUS
 10
165.4059532718
 20
141.5589907359
 11
164.6718137943
 21
144.460281702
  0
LINE
  8
0
 62
7
  6
CONTINUOUS
 10
169.9132305968
 20
137.2526153351
 11
169.9132305968
 21
141.436337043
  0
LINE
  8
0
 62
7
  6
CONTINUOUS
 10
170.6672305968
 20
144.4970778099
 11
170.6672305968
 21
148.7486153351
  0
LINE
  8
0
 62
7
  6
CONTINUOUS
 10
171.0172305968
 20
120.4230174691
 11
171.0172305968
 21
116.9491255924
  0
LINE
  8
0
 62
7
  6
CONTINUOUS
 10
171.7672305968
 20
129.6646153351
 11
171.7672305968
 21
123.46795039
  0
LINE
  8
0
 62
7
  6
CONTINUOUS
 10
176.2672305968
 20
129.6646153351
 11
176.2672305968
 21
123.46795039
  0
LINE
  8
0
 62
7
  6
CONTINUOUS
 10
177.0172305968
 20
120.4230174691
 11
177.0172305968
 21
116.9491255924
  0
LINE
  8
DEFAULT_1
 62
2
  6
CENTER
 10
177.1922305968
 20
137.3486153351
 11
177.1922305968
 21
134.0987153351
  0
LINE
  8
0
 62
2
  6
CONTINUOUS
 10
177.1922305968
 20
133.1486153351
 11
177.1922305968
 21
131.0486153351
  0
LINE
  8
DEFAULT_1
 62
2
  6
CENTER
 10
177.1922305968
 20
126.8486153351
 11
177.1922305968
 21
130.0985153351
  0
LINE
  8
0
 62
7
  6
CONTINUOUS
 10
177.3672305968
 20
144.4970778099
 11
177.3672305968
 21
148.7486153351
  0
LINE
  8
0
 62
7
  6
CONTINUOUS
 10
178.1212305968
 20
137.2526153351
 11
178.1212305968
 21
141.436337043
  0
LINE
  8
0
 62
7
  6
CONTINUOUS
 10
171.7519532718
 20
123.345296697
 11
171.0218137943
 21
120.459813577
  0
LINE
  8
0
 62
7
  6
CONTINUOUS
 10
25.8812052436
 20
131.6646153351
 11
30.0672305968
 21
131.6646153351
  0
LINE
  8
0
 62
7
  6
CONTINUOUS
 10
38.5672305968
 20
131.6646153351
 11
42.7672305968
 21
131.6646153351
  0
LINE
  8
0
 62
7
  6
CONTINUOUS
 10
51.2672305968
 20
131.6646153351
 11
55.4672305968
 21
131.6646153351
  0
LINE
  8
0
 62
7
  6
CONTINUOUS
 10
63.9672305968
 20
131.6646153351
 11
68.1672305968
 21
131.6646153351
  0
LINE
  8
0
 62
7
  6
CONTINUOUS
 10
76.6672305968
 20
131.6646153351
 11
80.8672305968
 21
131.6646153351
  0
LINE
  8
0
 62
7
  6
CONTINUOUS
 10
89.3672305968
 20
131.6646153351
 11
93.5672305968
 21
131.6646153351
  0
LINE
  8
0
 62
7
  6
CONTINUOUS
 10
102.0672305968
 20
131.6646153351
 11
106.2672305968
 21
131.6646153351
  0
LINE
  8
0
 62
7
  6
CONTINUOUS
 10
114.7672305968
 20
131.6646153351
 11
118.9672305968
 21
131.6646153351
  0
LINE
  8
0
 62
7
  6
CONTINUOUS
 10
127.4672305968
 20
131.6646153351
 11
131.6672305968
 21
131.6646153351
  0
LINE
  8
0
 62
7
  6
CONTINUOUS
 10
140.1672305968
 20
131.6646153351
 11
144.3672305968
 21
131.6646153351
  0
LINE
  8
0
 62
7
  6
CONTINUOUS
 10
152.8672305968
 20
131.6646153351
 11
157.0672305968
 21
131.6646153351
  0
LINE
  8
0
 62
7
  6
CONTINUOUS
 10
165.5672305968
 20
131.6646153351
 11
169.7672305968
 21
131.6646153351
  0
LINE
  8
0
 62
7
  6
CONTINUOUS
 10
178.2672305968
 20
131.6646153351
 11
182.4672305968
 21
131.6646153351
  0
LINE
  8
0
 62
7
  6
CONTINUOUS
 10
190.9672305968
 20
131.6646153351
 11
195.1672305968
 21
131.6646153351
  0
LINE
  8
0
 62
7
  6
CONTINUOUS
 10
203.6672305968
 20
131.6646153351
 11
207.8672305968
 21
131.6646153351
  0
LINE
  8
0
 62
7
  6
CONTINUOUS
 10
216.3672305968
 20
131.6646153351
 11
220.5672305968
 21
131.6646153351
  0
LINE
  8
0
 62
7
  6
CONTINUOUS
 10
229.0672305968
 20
131.6646153351
 11
233.2672305968
 21
131.6646153351
  0
LINE
  8
0
 62
7
  6
CONTINUOUS
 10
241.7672305968
 20
131.6646153351
 11
245.9672305968
 21
131.6646153351
  0
LINE
  8
0
 62
7
  6
CONTINUOUS
 10
254.4672305968
 20
131.6646153351
 11
258.6672305968
 21
131.6646153351
  0
LINE
  8
0
 62
7
  6
CONTINUOUS
 10
267.1672305968
 20
131.6646153351
 11
271.3672305968
 21
131.6646153351
  0
LINE
  8
0
 62
7
  6
CONTINUOUS
 10
279.8672305968
 20
131.6646153351
 11
284.0672305968
 21
131.6646153351
  0
LINE
  8
0
 62
7
  6
CONTINUOUS
 10
292.5672305968
 20
131.6646153351
 11
296.7672305968
 21
131.6646153351
  0
LINE
  8
0
 62
7
  6
CONTINUOUS
 10
305.2672305968
 20
131.6646153351
 11
309.4672305968
 21
131.6646153351
  0
LINE
  8
0
 62
7
  6
CONTINUOUS
 10
317.9672305968
 20
131.6646153351
 11
322.1672305968
 21
131.6646153351
  0
LINE
  8
DEFAULT_1
 62
2
  6
CENTER
 10
333.6268969903
 20
132.0986153351
 11
179.1923305968
 21
132.0986153351
  0
LINE
  8
0
 62
2
  6
CONTINUOUS
 10
178.2422305968
 20
132.0986153351
 11
176.1422305968
 21
132.0986153351
  0
LINE
  8
DEFAULT_1
 62
2
  6
CENTER
 10
17.594110105
 20
132.0986153351
 11
175.1921305968
 21
132.0986153351
  0
LINE
  8
0
 62
7
  6
CONTINUOUS
 10
176.2825079219
 20
123.345296697
 11
177.0126473993
 21
120.459813577
  0
LINE
  8
0
 62
7
  6
CONTINUOUS
 10
182.6132305968
 20
137.2526153351
 11
182.6132305968
 21
141.436337043
  0
LINE
  8
0
 62
7
  6
CONTINUOUS
 10
183.3672305968
 20
144.4970778099
 11
183.3672305968
 21
148.7486153351
  0
LINE
  8
0
 62
7
  6
CONTINUOUS
 10
183.7172305968
 20
120.4230174691
 11
183.7172305968
 21
116.9491255924
  0
LINE
  8
0
 62
7
  6
CONTINUOUS
 10
184.4672305968
 20
129.6646153351
 11
184.4672305968
 21
123.46795039
  0
LINE
  8
0
 62
7
  6
CONTINUOUS
 10
182.6285079219
 20
141.5589907359
 11
183.3626473993
 21
144.460281702
  0
LINE
  8
0
 62
7
  6
CONTINUOUS
 10
184.4519532718
 20
123.345296697
 11
183.7218137943
 21
120.459813577
  0
LINE
  8
0
 62
7
  6
CONTINUOUS
 10
178.1059532718
 20
141.5589907359
 11
177.3718137943
 21
144.460281702
  0
LINE
  8
0
 62
7
  6
CONTINUOUS
 10
188.9825079219
 20
123.345296697
 11
189.7126473993
 21
120.459813577
  0
LINE
  8
0
 62
7
  6
CONTINUOUS
 10
188.9672305968
 20
129.6646153351
 11
188.9672305968
 21
123.46795039
  0
LINE
  8
0
 62
7
  6
CONTINUOUS
 10
189.7172305968
 20
120.4230174691
 11
189.7172305968
 21
116.9491255924
  0
LINE
  8
0
 62
7
  6
CONTINUOUS
 10
190.0672305968
 20
144.4970778099
 11
190.0672305968
 21
148.7486153351
  0
LINE
  8
0
 62
7
  6
CONTINUOUS
 10
190.8212305968
 20
137.2526153351
 11
190.8212305968
 21
141.436337043
  0
LINE
  8
0
 62
7
  6
CONTINUOUS
 10
195.3132305968
 20
137.2526153351
 11
195.3132305968
 21
141.436337043
  0
LINE
  8
0
 62
7
  6
CONTINUOUS
 10
196.0672305968
 20
144.4970778099
 11
196.0672305968
 21
148.7486153351
  0
LINE
  8
0
 62
7
  6
CONTINUOUS
 10
196.4172305968
 20
120.4230174691
 11
196.4172305968
 21
116.9491255924
  0
LINE
  8
0
 62
7
  6
CONTINUOUS
 10
197.1672305968
 20
129.6646153351
 11
197.1672305968
 21
123.46795039
  0
LINE
  8
0
 62
7
  6
CONTINUOUS
 10
195.3285079219
 20
141.5589907359
 11
196.0626473993
 21
144.460281702
  0
LINE
  8
0
 62
7
  6
CONTINUOUS
 10
197.1519532718
 20
123.345296697
 11
196.4218137943
 21
120.459813577
  0
LINE
  8
AXES
 62
2
  6
CENTER
 10
22.9672305968
 20
145.1486153351
 11
325.0672305968
 21
145.1486153351
  0
LINE
  8
0
 62
7
  6
CONTINUOUS
 10
322.3172305968
 20
149.4986153351
 11
317.8172305968
 21
149.4986153351
  0
LINE
  8
0
 62
7
  6
CONTINUOUS
 10
309.6172305968
 20
149.4986153351
 11
305.1172305968
 21
149.4986153351
  0
LINE
  8
0
 62
7
  6
CONTINUOUS
 10
296.9172305968
 20
149.4986153351
 11
292.4172305968
 21
149.4986153351
  0
LINE
  8
0
 62
7
  6
CONTINUOUS
 10
284.2172305968
 20
149.4986153351
 11
279.7172305968
 21
149.4986153351
  0
LINE
  8
0
 62
7
  6
CONTINUOUS
 10
271.5172305968
 20
149.4986153351
 11
267.0172305968
 21
149.4986153351
  0
LINE
  8
0
 62
7
  6
CONTINUOUS
 10
258.8172305968
 20
149.4986153351
 11
254.3172305968
 21
149.4986153351
  0
LINE
  8
0
 62
7
  6
CONTINUOUS
 10
246.1172305968
 20
149.4986153351
 11
241.6172305968
 21
149.4986153351
  0
LINE
  8
0
 62
7
  6
CONTINUOUS
 10
233.4172305968
 20
149.4986153351
 11
228.9172305968
 21
149.4986153351
  0
LINE
  8
0
 62
7
  6
CONTINUOUS
 10
220.7172305968
 20
149.4986153351
 11
216.2172305968
 21
149.4986153351
  0
LINE
  8
0
 62
7
  6
CONTINUOUS
 10
208.0172305968
 20
149.4986153351
 11
203.5172305968
 21
149.4986153351
  0
LINE
  8
0
 62
7
  6
CONTINUOUS
 10
195.3172305968
 20
149.4986153351
 11
190.8172305968
 21
149.4986153351
  0
LINE
  8
0
 62
7
  6
CONTINUOUS
 10
182.6172305968
 20
149.4986153351
 11
178.1172305968
 21
149.4986153351
  0
LINE
  8
0
 62
7
  6
CONTINUOUS
 10
169.9172305968
 20
149.4986153351
 11
165.4172305968
 21
149.4986153351
  0
LINE
  8
0
 62
7
  6
CONTINUOUS
 10
157.2172305968
 20
149.4986153351
 11
152.7172305968
 21
149.4986153351
  0
LINE
  8
0
 62
7
  6
CONTINUOUS
 10
144.5172305968
 20
149.4986153351
 11
140.0172305968
 21
149.4986153351
  0
LINE
  8
0
 62
7
  6
CONTINUOUS
 10
131.8172305968
 20
149.4986153351
 11
127.3172305968
 21
149.4986153351
  0
LINE
  8
0
 62
7
  6
CONTINUOUS
 10
119.1172305968
 20
149.4986153351
 11
114.6172305968
 21
149.4986153351
  0
LINE
  8
0
 62
7
  6
CONTINUOUS
 10
106.4172305968
 20
149.4986153351
 11
101.9172305968
 21
149.4986153351
  0
LINE
  8
0
 62
7
  6
CONTINUOUS
 10
93.7172305968
 20
149.4986153351
 11
89.2172305968
 21
149.4986153351
  0
LINE
  8
0
 62
7
  6
CONTINUOUS
 10
81.0172305968
 20
149.4986153351
 11
76.5172305968
 21
149.4986153351
  0
LINE
  8
0
 62
7
  6
CONTINUOUS
 10
68.3172305968
 20
149.4986153351
 11
63.8172305968
 21
149.4986153351
  0
LINE
  8
0
 62
7
  6
CONTINUOUS
 10
55.6172305968
 20
149.4986153351
 11
51.1172305968
 21
149.4986153351
  0
LINE
  8
0
 62
7
  6
CONTINUOUS
 10
42.9172305968
 20
149.4986153351
 11
38.4172305968
 21
149.4986153351
  0
LINE
  8
0
 62
7
  6
CONTINUOUS
 10
30.2172305968
 20
149.4986153351
 11
25.7172305968
 21
149.4986153351
  0
LINE
  8
0
 62
7
  6
CONTINUOUS
 10
190.8059532718
 20
141.5589907359
 11
190.0718137943
 21
144.460281702
  0
LINE
  8
0
 62
7
  6
CONTINUOUS
 10
201.6825079219
 20
123.345296697
 11
202.4126473993
 21
120.459813577
  0
LINE
  8
0
 62
7
  6
CONTINUOUS
 10
201.6672305968
 20
129.6646153351
 11
201.6672305968
 21
123.46795039
  0
LINE
  8
0
 62
7
  6
CONTINUOUS
 10
202.4172305968
 20
120.4230174691
 11
202.4172305968
 21
116.9491255924
  0
LINE
  8
0
 62
7
  6
CONTINUOUS
 10
202.7672305968
 20
144.4970778099
 11
202.7672305968
 21
148.7486153351
  0
LINE
  8
0
 62
7
  6
CONTINUOUS
 10
203.5212305968
 20
137.2526153351
 11
203.5212305968
 21
141.436337043
  0
LINE
  8
0
 62
7
  6
CONTINUOUS
 10
208.0132305968
 20
137.2526153351
 11
208.0132305968
 21
141.436337043
  0
LINE
  8
0
 62
7
  6
CONTINUOUS
 10
208.7672305968
 20
144.4970778099
 11
208.7672305968
 21
148.7486153351
  0
LINE
  8
0
 62
7
  6
CONTINUOUS
 10
209.1172305968
 20
120.4230174691
 11
209.1172305968
 21
116.9491255924
  0
LINE
  8
0
 62
7
  6
CONTINUOUS
 10
208.0285079219
 20
141.5589907359
 11
208.7626473993
 21
144.460281702
  0
LINE
  8
0
 62
7
  6
CONTINUOUS
 10
203.5059532718
 20
141.5589907359
 11
202.7718137943
 21
144.460281702
  0
LINE
  8
0
 62
7
  6
CONTINUOUS
 10
209.8672305968
 20
129.6646153351
 11
209.8672305968
 21
123.46795039
  0
LINE
  8
0
 62
7
  6
CONTINUOUS
 10
214.3672305968
 20
129.6646153351
 11
214.3672305968
 21
123.46795039
  0
LINE
  8
0
 62
7
  6
CONTINUOUS
 10
215.1172305968
 20
120.4230174691
 11
215.1172305968
 21
116.9491255924
  0
LINE
  8
0
 62
7
  6
CONTINUOUS
 10
215.4672305968
 20
144.4970778099
 11
215.4672305968
 21
148.7486153351
  0
LINE
  8
0
 62
7
  6
CONTINUOUS
 10
216.2212305968
 20
137.2526153351
 11
216.2212305968
 21
141.436337043
  0
LINE
  8
0
 62
7
  6
CONTINUOUS
 10
209.8519532718
 20
123.345296697
 11
209.1218137943
 21
120.459813577
  0
LINE
  8
0
 62
7
  6
CONTINUOUS
 10
220.7285079219
 20
141.5589907359
 11
221.4626473993
 21
144.460281702
  0
LINE
  8
0
 62
7
  6
CONTINUOUS
 10
214.3825079219
 20
123.345296697
 11
215.1126473993
 21
120.459813577
  0
LINE
  8
0
 62
7
  6
CONTINUOUS
 10
216.2059532718
 20
141.5589907359
 11
215.4718137943
 21
144.460281702
  0
LINE
  8
0
 62
7
  6
CONTINUOUS
 10
220.7132305968
 20
137.2526153351
 11
220.7132305968
 21
141.436337043
  0
LINE
  8
0
 62
7
  6
CONTINUOUS
 10
221.4672305968
 20
144.4970778099
 11
221.4672305968
 21
148.7486153351
  0
LINE
  8
0
 62
7
  6
CONTINUOUS
 10
221.8172305968
 20
120.4230174691
 11
221.8172305968
 21
116.9491255924
  0
LINE
  8
0
 62
7
  6
CONTINUOUS
 10
222.5672305968
 20
129.6646153351
 11
222.5672305968
 21
123.46795039
  0
LINE
  8
0
 62
7
  6
CONTINUOUS
 10
227.0672305968
 20
129.6646153351
 11
227.0672305968
 21
123.46795039
  0
LINE
  8
0
 62
7
  6
CONTINUOUS
 10
227.8172305968
 20
120.4230174691
 11
227.8172305968
 21
116.9491255924
  0
LINE
  8
0
 62
7
  6
CONTINUOUS
 10
228.1672305968
 20
144.4970778099
 11
228.1672305968
 21
148.7486153351
  0
LINE
  8
0
 62
7
  6
CONTINUOUS
 10
228.9212305968
 20
137.2526153351
 11
228.9212305968
 21
141.436337043
  0
LINE
  8
0
 62
7
  6
CONTINUOUS
 10
222.5519532718
 20
123.345296697
 11
221.8218137943
 21
120.459813577
  0
LINE
  8
0
 62
7
  6
CONTINUOUS
 10
233.4285079219
 20
141.5589907359
 11
234.1626473993
 21
144.460281702
  0
LINE
  8
0
 62
7
  6
CONTINUOUS
 10
227.0825079219
 20
123.345296697
 11
227.8126473993
 21
120.459813577
  0
LINE
  8
0
 62
7
  6
CONTINUOUS
 10
228.9059532718
 20
141.5589907359
 11
228.1718137943
 21
144.460281702
  0
LINE
  8
0
 62
7
  6
CONTINUOUS
 10
233.4132305968
 20
137.2526153351
 11
233.4132305968
 21
141.436337043
  0
LINE
  8
0
 62
7
  6
CONTINUOUS
 10
234.1672305968
 20
144.4970778099
 11
234.1672305968
 21
148.7486153351
  0
LINE
  8
0
 62
7
  6
CONTINUOUS
 10
234.5172305968
 20
120.4230174691
 11
234.5172305968
 21
116.9491255924
  0
LINE
  8
0
 62
7
  6
CONTINUOUS
 10
235.2672305968
 20
129.6646153351
 11
235.2672305968
 21
123.46795039
  0
LINE
  8
0
 62
7
  6
CONTINUOUS
 10
239.7672305968
 20
129.6646153351
 11
239.7672305968
 21
123.46795039
  0
LINE
  8
0
 62
7
  6
CONTINUOUS
 10
235.2519532718
 20
123.345296697
 11
234.5218137943
 21
120.459813577
  0
LINE
  8
0
 62
7
  6
CONTINUOUS
 10
239.7825079219
 20
123.345296697
 11
240.5126473993
 21
120.459813577
  0
LINE
  8
0
 62
7
  6
CONTINUOUS
 10
240.5172305968
 20
120.4230174691
 11
240.5172305968
 21
116.9491255924
  0
LINE
  8
0
 62
7
  6
CONTINUOUS
 10
240.8672305968
 20
144.4970778099
 11
240.8672305968
 21
148.7486153351
  0
LINE
  8
0
 62
7
  6
CONTINUOUS
 10
241.6212305968
 20
137.2526153351
 11
241.6212305968
 21
141.436337043
  0
LINE
  8
0
 62
7
  6
CONTINUOUS
 10
246.1132305968
 20
137.2526153351
 11
246.1132305968
 21
141.436337043
  0
LINE
  8
0
 62
7
  6
CONTINUOUS
 10
246.8672305968
 20
144.4970778099
 11
246.8672305968
 21
148.7486153351
  0
LINE
  8
0
 62
7
  6
CONTINUOUS
 10
247.2172305968
 20
120.4230174691
 11
247.2172305968
 21
116.9491255924
  0
LINE
  8
0
 62
7
  6
CONTINUOUS
 10
247.9672305968
 20
129.6646153351
 11
247.9672305968
 21
123.46795039
  0
LINE
  8
0
 62
7
  6
CONTINUOUS
 10
246.1285079219
 20
141.5589907359
 11
246.8626473993
 21
144.460281702
  0
LINE
  8
0
 62
7
  6
CONTINUOUS
 10
247.9519532718
 20
123.345296697
 11
247.2218137943
 21
120.459813577
  0
LINE
  8
0
 62
7
  6
CONTINUOUS
 10
241.6059532718
 20
141.5589907359
 11
240.8718137943
 21
144.460281702
  0
LINE
  8
0
 62
7
  6
CONTINUOUS
 10
252.4825079219
 20
123.345296697
 11
253.2126473993
 21
120.459813577
  0
LINE
  8
0
 62
7
  6
CONTINUOUS
 10
252.4672305968
 20
129.6646153351
 11
252.4672305968
 21
123.46795039
  0
LINE
  8
0
 62
7
  6
CONTINUOUS
 10
253.2172305968
 20
120.4230174691
 11
253.2172305968
 21
116.9491255924
  0
LINE
  8
0
 62
7
  6
CONTINUOUS
 10
253.5672305968
 20
144.4970778099
 11
253.5672305968
 21
148.7486153351
  0
LINE
  8
0
 62
7
  6
CONTINUOUS
 10
254.3212305968
 20
137.2526153351
 11
254.3212305968
 21
141.436337043
  0
LINE
  8
0
 62
7
  6
CONTINUOUS
 10
258.8132305968
 20
137.2526153351
 11
258.8132305968
 21
141.436337043
  0
LINE
  8
0
 62
7
  6
CONTINUOUS
 10
259.5672305968
 20
144.4970778099
 11
259.5672305968
 21
148.7486153351
  0
LINE
  8
0
 62
7
  6
CONTINUOUS
 10
259.9172305968
 20
120.4230174691
 11
259.9172305968
 21
116.9491255924
  0
LINE
  8
0
 62
7
  6
CONTINUOUS
 10
260.6672305968
 20
129.6646153351
 11
260.6672305968
 21
123.46795039
  0
LINE
  8
0
 62
7
  6
CONTINUOUS
 10
258.8285079219
 20
141.5589907359
 11
259.5626473993
 21
144.460281702
  0
LINE
  8
0
 62
7
  6
CONTINUOUS
 10
260.6519532718
 20
123.345296697
 11
259.9218137943
 21
120.459813577
  0
LINE
  8
0
 62
7
  6
CONTINUOUS
 10
254.3059532718
 20
141.5589907359
 11
253.5718137943
 21
144.460281702
  0
LINE
  8
0
 62
7
  6
CONTINUOUS
 10
265.1825079219
 20
123.345296697
 11
265.9126473993
 21
120.459813577
  0
LINE
  8
0
 62
7
  6
CONTINUOUS
 10
265.1672305968
 20
129.6646153351
 11
265.1672305968
 21
123.46795039
  0
LINE
  8
0
 62
7
  6
CONTINUOUS
 10
265.9172305968
 20
120.4230174691
 11
265.9172305968
 21
116.9491255924
  0
LINE
  8
0
 62
7
  6
CONTINUOUS
 10
266.2672305968
 20
144.4970778099
 11
266.2672305968
 21
148.7486153351
  0
LINE
  8
0
 62
7
  6
CONTINUOUS
 10
267.0212305968
 20
137.2526153351
 11
267.0212305968
 21
141.436337043
  0
LINE
  8
0
 62
7
  6
CONTINUOUS
 10
271.5285079219
 20
141.5589907359
 11
272.2626473993
 21
144.460281702
  0
LINE
  8
0
 62
7
  6
CONTINUOUS
 10
267.0059532718
 20
141.5589907359
 11
266.2718137943
 21
144.460281702
  0
LINE
  8
0
 62
7
  6
CONTINUOUS
 10
271.5132305968
 20
137.2526153351
 11
271.5132305968
 21
141.436337043
  0
LINE
  8
0
 62
7
  6
CONTINUOUS
 10
272.2672305968
 20
144.4970778099
 11
272.2672305968
 21
148.7486153351
  0
LINE
  8
0
 62
7
  6
CONTINUOUS
 10
272.6172305968
 20
120.4230174691
 11
272.6172305968
 21
116.9491255924
  0
LINE
  8
0
 62
7
  6
CONTINUOUS
 10
273.3672305968
 20
129.6646153351
 11
273.3672305968
 21
123.46795039
  0
LINE
  8
0
 62
7
  6
CONTINUOUS
 10
277.8672305968
 20
129.6646153351
 11
277.8672305968
 21
123.46795039
  0
LINE
  8
0
 62
7
  6
CONTINUOUS
 10
278.6172305968
 20
120.4230174691
 11
278.6172305968
 21
116.9491255924
  0
LINE
  8
0
 62
7
  6
CONTINUOUS
 10
278.9672305968
 20
144.4970778099
 11
278.9672305968
 21
148.7486153351
  0
LINE
  8
0
 62
7
  6
CONTINUOUS
 10
279.7212305968
 20
137.2526153351
 11
279.7212305968
 21
141.436337043
  0
LINE
  8
0
 62
7
  6
CONTINUOUS
 10
273.3519532718
 20
123.345296697
 11
272.6218137943
 21
120.459813577
  0
LINE
  8
0
 62
7
  6
CONTINUOUS
 10
284.2285079219
 20
141.5589907359
 11
284.9626473993
 21
144.460281702
  0
LINE
  8
0
 62
7
  6
CONTINUOUS
 10
277.8825079219
 20
123.345296697
 11
278.6126473993
 21
120.459813577
  0
LINE
  8
0
 62
7
  6
CONTINUOUS
 10
279.7059532718
 20
141.5589907359
 11
278.9718137943
 21
144.460281702
  0
LINE
  8
0
 62
7
  6
CONTINUOUS
 10
284.2132305968
 20
137.2526153351
 11
284.2132305968
 21
141.436337043
  0
LINE
  8
0
 62
7
  6
CONTINUOUS
 10
284.9672305968
 20
144.4970778099
 11
284.9672305968
 21
148.7486153351
  0
LINE
  8
0
 62
7
  6
CONTINUOUS
 10
285.3172305968
 20
120.4230174691
 11
285.3172305968
 21
116.9491255924
  0
LINE
  8
0
 62
7
  6
CONTINUOUS
 10
286.0672305968
 20
129.6646153351
 11
286.0672305968
 21
123.46795039
  0
LINE
  8
0
 62
7
  6
CONTINUOUS
 10
290.5672305968
 20
129.6646153351
 11
290.5672305968
 21
123.46795039
  0
LINE
  8
0
 62
7
  6
CONTINUOUS
 10
291.3172305968
 20
120.4230174691
 11
291.3172305968
 21
116.9491255924
  0
LINE
  8
0
 62
7
  6
CONTINUOUS
 10
291.6672305968
 20
144.4970778099
 11
291.6672305968
 21
148.7486153351
  0
LINE
  8
0
 62
7
  6
CONTINUOUS
 10
286.0519532718
 20
123.345296697
 11
285.3218137943
 21
120.459813577
  0
LINE
  8
0
 62
7
  6
CONTINUOUS
 10
296.9285079219
 20
141.5589907359
 11
297.6626473993
 21
144.460281702
  0
LINE
  8
0
 62
7
  6
CONTINUOUS
 10
290.5825079219
 20
123.345296697
 11
291.3126473993
 21
120.459813577
  0
LINE
  8
0
 62
7
  6
CONTINUOUS
 10
292.4059532718
 20
141.5589907359
 11
291.6718137943
 21
144.460281702
  0
LINE
  8
0
 62
7
  6
CONTINUOUS
 10
292.4212305968
 20
137.2526153351
 11
292.4212305968
 21
141.436337043
  0
LINE
  8
0
 62
7
  6
CONTINUOUS
 10
296.9132305968
 20
137.2526153351
 11
296.9132305968
 21
141.436337043
  0
LINE
  8
0
 62
7
  6
CONTINUOUS
 10
297.6672305968
 20
144.4970778099
 11
297.6672305968
 21
148.7486153351
  0
LINE
  8
0
 62
7
  6
CONTINUOUS
 10
298.0172305968
 20
120.4230174691
 11
298.0172305968
 21
116.9491255924
  0
LINE
  8
0
 62
7
  6
CONTINUOUS
 10
298.7672305968
 20
129.6646153351
 11
298.7672305968
 21
123.46795039
  0
LINE
  8
0
 62
7
  6
CONTINUOUS
 10
298.7519532718
 20
123.345296697
 11
298.0218137943
 21
120.459813577
  0
LINE
  8
0
 62
7
  6
CONTINUOUS
 10
303.2825079219
 20
123.345296697
 11
304.0126473993
 21
120.459813577
  0
LINE
  8
0
 62
7
  6
CONTINUOUS
 10
303.2672305968
 20
129.6646153351
 11
303.2672305968
 21
123.46795039
  0
LINE
  8
0
 62
7
  6
CONTINUOUS
 10
304.0172305968
 20
120.4230174691
 11
304.0172305968
 21
116.9491255924
  0
LINE
  8
0
 62
7
  6
CONTINUOUS
 10
304.3672305968
 20
144.4970778099
 11
304.3672305968
 21
148.7486153351
  0
LINE
  8
0
 62
7
  6
CONTINUOUS
 10
305.1212305968
 20
137.2526153351
 11
305.1212305968
 21
141.436337043
  0
LINE
  8
0
 62
7
  6
CONTINUOUS
 10
309.6132305968
 20
137.2526153351
 11
309.6132305968
 21
141.436337043
  0
LINE
  8
0
 62
7
  6
CONTINUOUS
 10
310.3672305968
 20
144.4970778099
 11
310.3672305968
 21
148.7486153351
  0
LINE
  8
0
 62
7
  6
CONTINUOUS
 10
310.7172305968
 20
120.4230174691
 11
310.7172305968
 21
116.9491255924
  0
LINE
  8
0
 62
7
  6
CONTINUOUS
 10
311.4672305968
 20
129.6646153351
 11
311.4672305968
 21
123.46795039
  0
LINE
  8
0
 62
7
  6
CONTINUOUS
 10
309.6285079219
 20
141.5589907359
 11
310.3626473993
 21
144.460281702
  0
LINE
  8
0
 62
7
  6
CONTINUOUS
 10
311.4519532718
 20
123.345296697
 11
310.7218137943
 21
120.459813577
  0
LINE
  8
0
 62
7
  6
CONTINUOUS
 10
305.1059532718
 20
141.5589907359
 11
304.3718137943
 21
144.460281702
  0
LINE
  8
0
 62
7
  6
CONTINUOUS
 10
315.9825079219
 20
123.345296697
 11
316.7126473993
 21
120.459813577
  0
LINE
  8
0
 62
7
  6
CONTINUOUS
 10
315.9672305968
 20
129.6646153351
 11
315.9672305968
 21
123.46795039
  0
LINE
  8
0
 62
7
  6
CONTINUOUS
 10
316.7172305968
 20
120.4230174691
 11
316.7172305968
 21
116.9491255924
  0
LINE
  8
0
 62
7
  6
CONTINUOUS
 10
317.0672305968
 20
144.4970778099
 11
317.0672305968
 21
148.7486153351
  0
LINE
  8
0
 62
7
  6
CONTINUOUS
 10
317.8212305968
 20
137.2526153351
 11
317.8212305968
 21
141.436337043
  0
LINE
  8
0
 62
7
  6
CONTINUOUS
 10
322.3132305968
 20
137.2526153351
 11
322.3132305968
 21
141.436337043
  0
LINE
  8
0
 62
7
  6
CONTINUOUS
 10
323.0672305968
 20
144.4970778099
 11
323.0672305968
 21
148.7486153351
  0
LINE
  8
0
 62
7
  6
CONTINUOUS
 10
323.4172305968
 20
120.4230174691
 11
323.4172305968
 21
116.9491255924
  0
LINE
  8
0
 62
7
  6
CONTINUOUS
 10
324.1672305968
 20
129.6646153351
 11
324.1672305968
 21
123.46795039
  0
LINE
  8
0
 62
7
  6
CONTINUOUS
 10
328.6672305968
 20
133.5359507014
 11
328.6672305968
 21
123.46795039
  0
LINE
  8
0
 62
7
  6
CONTINUOUS
 10
329.4172305968
 20
120.4230174691
 11
329.4172305968
 21
116.9491255924
  0
LINE
  8
0
 62
7
  6
CONTINUOUS
 10
322.3285079219
 20
141.5589907359
 11
323.0626473993
 21
144.460281702
  0
LINE
  8
0
 62
7
  6
CONTINUOUS
 10
324.1519532718
 20
123.345296697
 11
323.4218137943
 21
120.459813577
  0
LINE
  8
0
 62
7
  6
CONTINUOUS
 10
317.8059532718
 20
141.5589907359
 11
317.0718137943
 21
144.460281702
  0
LINE
  8
0
 62
7
  6
CONTINUOUS
 10
328.6825079219
 20
123.345296697
 11
329.4126473993
 21
120.459813577
  0
LINE
  8
0
 62
7
  6
CONTINUOUS
 10
376.4940667709
 20
116.130071123
 11
362.5435924681
 21
115.3989577448
  0
LINE
  8
0
 62
7
  6
CONTINUOUS
 10
362.5305136358
 20
115.3986153883
 11
362.5435972242
 21
115.3989579941
  0
LINE
  8
0
 62
7
  6
CONTINUOUS
 10
362.5311667889
 20
115.3986153351
 11
360.5370589022
 21
115.3986153351
  0
LINE
  8
DEFAULT_1
 62
2
  6
CENTER
 10
367.7870589022
 20
119.7486153351
 11
364.5371589022
 21
119.7486153351
  0
LINE
  8
0
 62
2
  6
CONTINUOUS
 10
363.5870589022
 20
119.7486153351
 11
361.4870589022
 21
119.7486153351
  0
LINE
  8
DEFAULT_1
 62
2
  6
CENTER
 10
357.2870589022
 20
119.7486153351
 11
360.5369589022
 21
119.7486153351
  0
LINE
  8
0
 62
7
  6
CONTINUOUS
 10
356.5370589022
 20
119.3986153351
 11
356.5370589022
 21
145.4986153351
  0
LINE
  8
AXES
 62
7
  6
CONTINUOUS
 10
360.4370589022
 20
119.7486153351
 11
360.4370589022
 21
127.7986153351
  0
LINE
  8
AXES
 62
7
  6
CONTINUOUS
 10
364.5334303238
 20
144.4970778099
 11
364.5210439851
 21
144.460281702
  0
LINE
  8
0
 62
7
  6
CONTINUOUS
 10
356.6734363438
 20
132.7079988586
 11
356.6870589022
 21
132.7184766964
  0
POLYLINE
  8
0
 62
7
  6
CONTINUOUS
 66
1
 70
0
  0
VERTEX
  8
0
 62
7
  6
CONTINUOUS
 10
356.625759493
 20
132.5716498118
  0
VERTEX
  8
0
 62
7
  6
CONTINUOUS
 10
356.6205823836
 20
132.5767095166
  0
VERTEX
  8
0
 62
7
  6
CONTINUOUS
 10
356.6176393085
 20
132.5845053943
  0
VERTEX
  8
0
 62
7
  6
CONTINUOUS
 10
356.6175146398
 20
132.5967939275
  0
VERTEX
  8
0
 62
7
  6
CONTINUOUS
 10
356.6217972584
 20
132.6168161353
  0
VERTEX
  8
0
 62
7
  6
CONTINUOUS
 10
356.6319615586
 20
132.6444760369
  0
VERTEX
  8
0
 62
7
  6
CONTINUOUS
 10
356.6451277165
 20
132.6710994752
  0
VERTEX
  8
0
 62
7
  6
CONTINUOUS
 10
356.6586753099
 20
132.6922018953
  0
VERTEX
  8
0
 62
7
  6
CONTINUOUS
 10
356.6734363438
 20
132.7079988586
  0
SEQEND
  0
LINE
  8
AXES
 62
2
  6
CENTER
 10
362.5370589022
 20
150.3986153351
 11
362.5370589022
 21
149.2486153351
  0
LINE
  8
AXES
 62
2
  6
CONTINUOUS
 10
362.5370589022
 20
146.1986153351
 11
362.5370589022
 21
144.0986153351
  0
LINE
  8
DEFAULT_1
 62
2
  6
CENTER
 10
362.5370589022
 20
124.9986153351
 11
362.5370589022
 21
121.7487153351
  0
LINE
  8
0
 62
2
  6
CONTINUOUS
 10
362.5370589022
 20
120.7986153351
 11
362.5370589022
 21
118.6986153351
  0
LINE
  8
DEFAULT_1
 62
2
  6
CENTER
 10
362.5370589022
 20
114.4986153351
 11
362.5370589022
 21
117.7485153351
  0
LINE
  8
AXES
 62
2
  6
CENTER
 10
362.5370589022
 20
139.8986153351
 11
362.5370589022
 21
141.0486153351
  0
LINE
  8
0
 62
7
  6
CONTINUOUS
 10
356.6331065287
 20
132.5680376447
 11
356.625759493
 21
132.5716498118
  0
LINE
  8
AXES
 62
7
  6
CONTINUOUS
 10
364.6370589022
 20
119.7486153351
 11
364.6370589022
 21
127.7986153351
  0
LINE
  8
AXES
 62
7
  6
CONTINUOUS
 10
360.5530738192
 20
144.460281702
 11
360.5406874805
 21
144.4970778099
  0
LINE
  8
0
 62
7
  6
CONTINUOUS
 10
379.0915092567
 20
131.843627175
 11
369.0370589022
 21
131.6646153351
  0
LINE
  8
0
 62
7
  6
CONTINUOUS
 10
369.0370589022
 20
131.6646153351
 11
362.5370589022
 21
131.6646153351
  0
LINE
  8
DEFAULT_1
 62
2
  6
CENTER
 10
354.0452556332
 20
132.0986153351
 11
381.3370589022
 21
132.0986153351
  0
LINE
  8
0
 62
7
  6
CONTINUOUS
 10
369.0370591164
 20
115.7623419093
 11
369.0370604209
 21
148.9871247366
  0
LINE
  8
0
 62
7
  6
CONTINUOUS
 10
379.3370589022
 20
145.771270943
 11
379.3370589022
 21
119.1259597272
  0
LINE
  8
AXES
 62
2
  6
CENTER
 10
367.7870589022
 20
145.1486153351
 11
366.6370589022
 21
145.1486153351
  0
LINE
  8
AXES
 62
2
  6
CONTINUOUS
 10
363.5870589022
 20
145.1486153351
 11
361.4870589022
 21
145.1486153351
  0
LINE
  8
AXES
 62
2
  6
CENTER
 10
357.2870589022
 20
145.1486153351
 11
358.4370589022
 21
145.1486153351
  0
LINE
  8
0
 62
7
  6
CONTINUOUS
 10
362.5435964108
 20
149.4982727188
 11
376.4940667709
 21
148.7671595473
  0
LINE
  8
0
 62
7
  6
CONTINUOUS
 10
360.5370589022
 20
149.4986153351
 11
362.5305124218
 21
149.4986153351
  0
LINE
  8
AXES
 62
7
  6
CONTINUOUS
 10
24.9672305968
 20
210.5173571367
 11
24.9672305968
 21
213.7709943453
  0
LINE
  8
AXES
 62
7
  6
CONTINUOUS
 10
24.9672305968
 20
213.7833806839
 11
24.9672305968
 21
217.7513508499
  0
LINE
  8
AXES
 62
7
  6
CONTINUOUS
 10
24.9672305968
 20
217.7637371886
 11
24.9672305968
 21
222.2673657669
  0
LINE
  8
0
 62
7
  6
CONTINUOUS
 10
24.9672305968
 20
217.7637371886
 11
24.9672305968
 21
222.2673657669
  0
LINE
  8
0
 62
7
  6
CONTINUOUS
 10
25.7212305968
 20
222.2673657669
 11
25.7212305968
 21
209.9173657669
  0
LINE
  8
0
 62
7
  6
CONTINUOUS
 10
31.3172305968
 20
210.5173657669
 11
31.3172305968
 21
222.2673657669
  0
LINE
  8
0
 62
7
  6
CONTINUOUS
 10
24.9672305968
 20
222.2673657669
 11
25.1462424367
 21
232.3218161214
  0
LINE
  8
0
 62
7
  6
CONTINUOUS
 10
25.9002424367
 20
232.3218161226
 11
25.7212305976
 21
222.2673658085
  0
LINE
  8
0
 62
7
  6
CONTINUOUS
 10
31.3172305968
 20
222.2673657669
 11
31.4962424367
 21
232.3218161214
  0
POLYLINE
  8
AXES
 62
7
  6
CONTINUOUS
 66
1
 70
0
  0
VERTEX
  8
AXES
 62
7
  6
CONTINUOUS
 10
25.3290203003
 20
215.7673657669
  0
VERTEX
  8
AXES
 62
7
  6
CONTINUOUS
 10
25.3209774168
 20
215.4033775777
  0
VERTEX
  8
AXES
 62
7
  6
CONTINUOUS
 10
25.2970183155
 20
215.0496041372
  0
VERTEX
  8
AXES
 62
7
  6
CONTINUOUS
 10
25.2576674367
 20
214.7162630159
  0
VERTEX
  8
AXES
 62
7
  6
CONTINUOUS
 10
25.2038470673
 20
214.4135020156
  0
VERTEX
  8
AXES
 62
7
  6
CONTINUOUS
 10
25.1369322922
 20
214.1511811641
  0
VERTEX
  8
AXES
 62
7
  6
CONTINUOUS
 10
25.0587953434
 20
213.9384841278
  0
VERTEX
  8
AXES
 62
7
  6
CONTINUOUS
 10
24.9718137943
 20
213.7833806839
  0
SEQEND
  0
LINE
  8
AXES
 62
7
  6
CONTINUOUS
 10
24.9672305968
 20
217.7637371886
 11
24.9718137943
 21
217.7513508499
  0
LINE
  8
0
 62
7
  6
CONTINUOUS
 10
37.1382187569
 20
232.3218161214
 11
37.3172305968
 21
222.2673657669
  0
LINE
  8
0
 62
7
  6
CONTINUOUS
 10
37.3172305968
 20
222.2673657669
 11
37.3172305968
 21
210.5173657669
  0
LINE
  8
SURFACE
 62
7
  6
CONTINUOUS
 10
44.0172305968
 20
210.5173657669
 11
44.0172305968
 21
222.2673657669
  0
LINE
  8
0
 62
7
  6
CONTINUOUS
 10
44.0172305968
 20
211.6312393291
 11
44.0172305968
 21
222.2673657669
  0
LINE
  8
0
 62
7
  6
CONTINUOUS
 10
44.0172305968
 20
222.2673657669
 11
44.1962424367
 21
232.3218161214
  0
LINE
  8
AXES
 62
7
  6
CONTINUOUS
 10
24.9718137943
 20
213.7833806839
 11
24.9672305968
 21
213.7709943453
  0
POLYLINE
  8
AXES
 62
7
  6
CONTINUOUS
 66
1
 70
0
  0
VERTEX
  8
AXES
 62
7
  6
CONTINUOUS
 10
24.9718137943
 20
217.7513508499
  0
VERTEX
  8
AXES
 62
7
  6
CONTINUOUS
 10
25.0587953475
 20
217.5962473969
  0
VERTEX
  8
AXES
 62
7
  6
CONTINUOUS
 10
25.1369323639
 20
217.3835501346
  0
VERTEX
  8
AXES
 62
7
  6
CONTINUOUS
 10
25.2038472094
 20
217.1212288523
  0
VERTEX
  8
AXES
 62
7
  6
CONTINUOUS
 10
25.2576676034
 20
216.8184673783
  0
VERTEX
  8
AXES
 62
7
  6
CONTINUOUS
 10
25.2970184419
 20
216.4851260236
  0
VERTEX
  8
AXES
 62
7
  6
CONTINUOUS
 10
25.320977464
 20
216.1313528954
  0
VERTEX
  8
AXES
 62
7
  6
CONTINUOUS
 10
25.3290203003
 20
215.7673657669
  0
SEQEND
  0
LINE
  8
0
 62
7
  6
CONTINUOUS
 10
50.0172305968
 20
222.2673657669
 11
49.8382187569
 21
232.3218161214
  0
LINE
  8
SURFACE
 62
7
  6
CONTINUOUS
 10
50.0172305968
 20
222.2673657669
 11
50.0172305968
 21
210.5173657669
  0
LINE
  8
0
 62
7
  6
CONTINUOUS
 10
50.0172305968
 20
211.6312377697
 11
50.0172305968
 21
222.2673657669
  0
LINE
  8
0
 62
7
  6
CONTINUOUS
 10
62.7172305968
 20
222.2673657669
 11
62.5382187569
 21
232.3218161214
  0
LINE
  8
SURFACE
 62
7
  6
CONTINUOUS
 10
56.7172305968
 20
210.5173657669
 11
56.7172305968
 21
222.2673657669
  0
LINE
  8
0
 62
7
  6
CONTINUOUS
 10
56.7172305968
 20
211.6312393291
 11
56.7172305968
 21
222.2673657669
  0
LINE
  8
SURFACE
 62
7
  6
CONTINUOUS
 10
62.7172305968
 20
222.2673657669
 11
62.7172305968
 21
210.5173657669
  0
LINE
  8
0
 62
7
  6
CONTINUOUS
 10
62.7172305968
 20
211.6312377697
 11
62.7172305968
 21
222.2673657669
  0
LINE
  8
0
 62
7
  6
CONTINUOUS
 10
56.7172305968
 20
222.2673657669
 11
56.8962424367
 21
232.3218161214
  0
LINE
  8
0
 62
7
  6
CONTINUOUS
 10
75.4172305968
 20
222.2673657669
 11
75.2382187569
 21
232.3218161214
  0
LINE
  8
SURFACE
 62
7
  6
CONTINUOUS
 10
69.4172305968
 20
210.5173657669
 11
69.4172305968
 21
222.2673657669
  0
LINE
  8
0
 62
7
  6
CONTINUOUS
 10
69.4172305968
 20
211.6312393291
 11
69.4172305968
 21
222.2673657669
  0
LINE
  8
SURFACE
 62
7
  6
CONTINUOUS
 10
75.4172305968
 20
222.2673657669
 11
75.4172305968
 21
210.5173657669
  0
LINE
  8
0
 62
7
  6
CONTINUOUS
 10
75.4172305968
 20
211.6312377697
 11
75.4172305968
 21
222.2673657669
  0
LINE
  8
0
 62
7
  6
CONTINUOUS
 10
69.4172305968
 20
222.2673657669
 11
69.5962424367
 21
232.3218161214
  0
LINE
  8
SURFACE
 62
7
  6
CONTINUOUS
 10
82.1172305968
 20
210.5173657669
 11
82.1172305968
 21
222.2673657669
  0
LINE
  8
0
 62
7
  6
CONTINUOUS
 10
82.1172305968
 20
211.6312393291
 11
82.1172305968
 21
222.2673657669
  0
LINE
  8
0
 62
7
  6
CONTINUOUS
 10
82.1172305968
 20
222.2673657669
 11
82.2962424367
 21
232.3218161214
  0
LINE
  8
0
 62
7
  6
CONTINUOUS
 10
25.8812305968
 20
209.8725953587
 11
25.8712305968
 21
209.8634133935
  0
LINE
  8
0
 62
7
  6
CONTINUOUS
 10
87.9382187569
 20
232.3218161214
 11
88.1172305968
 21
222.2673657669
  0
LINE
  8
SURFACE
 62
7
  6
CONTINUOUS
 10
88.1172305968
 20
222.2673657669
 11
88.1172305968
 21
210.5173657669
  0
LINE
  8
0
 62
7
  6
CONTINUOUS
 10
88.1172305968
 20
211.6312377697
 11
88.1172305968
 21
222.2673657669
  0
LINE
  8
SURFACE
 62
7
  6
CONTINUOUS
 10
94.8172305968
 20
210.5173657669
 11
94.8172305968
 21
222.2673657669
  0
LINE
  8
0
 62
7
  6
CONTINUOUS
 10
94.8172305968
 20
211.6312393291
 11
94.8172305968
 21
222.2673657669
  0
LINE
  8
0
 62
7
  6
CONTINUOUS
 10
94.8172305968
 20
222.2673657669
 11
94.9962424367
 21
232.3218161214
  0
LINE
  8
0
 62
7
  6
CONTINUOUS
 10
100.8172305968
 20
222.2673657669
 11
100.6382187569
 21
232.3218161214
  0
LINE
  8
SURFACE
 62
7
  6
CONTINUOUS
 10
100.8172305968
 20
222.2673657669
 11
100.8172305968
 21
210.5173657669
  0
LINE
  8
0
 62
7
  6
CONTINUOUS
 10
100.8172305968
 20
211.6312377697
 11
100.8172305968
 21
222.2673657669
  0
LINE
  8
0
 62
7
  6
CONTINUOUS
 10
113.5172305968
 20
222.2673657669
 11
113.3382187569
 21
232.3218161214
  0
LINE
  8
SURFACE
 62
7
  6
CONTINUOUS
 10
107.5172305968
 20
210.5173657669
 11
107.5172305968
 21
222.2673657669
  0
LINE
  8
0
 62
7
  6
CONTINUOUS
 10
107.5172305968
 20
211.6312393291
 11
107.5172305968
 21
222.2673657669
  0
LINE
  8
SURFACE
 62
7
  6
CONTINUOUS
 10
113.5172305968
 20
211.6312377697
 11
113.5172305968
 21
210.5173657669
  0
LINE
  8
0
 62
7
  6
CONTINUOUS
 10
113.5172305968
 20
211.6312377697
 11
113.5172305968
 21
222.2673657669
  0
LINE
  8
0
 62
7
  6
CONTINUOUS
 10
107.5172305968
 20
222.2673657669
 11
107.6962424367
 21
232.3218161214
  0
POLYLINE
  8
0
 62
7
  6
CONTINUOUS
 66
1
 70
0
  0
VERTEX
  8
0
 62
7
  6
CONTINUOUS
 10
25.8712305968
 20
209.8634133935
  0
VERTEX
  8
0
 62
7
  6
CONTINUOUS
 10
25.858929382
 20
209.8560663578
  0
VERTEX
  8
0
 62
7
  6
CONTINUOUS
 10
25.842179243
 20
209.8508892484
  0
VERTEX
  8
0
 62
7
  6
CONTINUOUS
 10
25.8219326833
 20
209.8479461732
  0
VERTEX
  8
0
 62
7
  6
CONTINUOUS
 10
25.7984497004
 20
209.8478215046
  0
VERTEX
  8
0
 62
7
  6
CONTINUOUS
 10
25.7715981282
 20
209.8521041231
  0
VERTEX
  8
0
 62
7
  6
CONTINUOUS
 10
25.7470165322
 20
209.8622684233
  0
VERTEX
  8
0
 62
7
  6
CONTINUOUS
 10
25.7320177699
 20
209.8754345813
  0
VERTEX
  8
0
 62
7
  6
CONTINUOUS
 10
25.7247900709
 20
209.8889821747
  0
VERTEX
  8
0
 62
7
  6
CONTINUOUS
 10
25.7218504579
 20
209.9037432086
  0
SEQEND
  0
LINE
  8
0
 62
7
  6
CONTINUOUS
 10
126.2172305968
 20
222.2673657669
 11
126.0382187569
 21
232.3218161214
  0
LINE
  8
0
 62
7
  6
CONTINUOUS
 10
120.2172305968
 20
211.6312393291
 11
120.2172305968
 21
222.2673657669
  0
LINE
  8
SURFACE
 62
7
  6
CONTINUOUS
 10
120.2172305968
 20
210.5173657669
 11
120.2172305968
 21
222.2673657669
  0
LINE
  8
SURFACE
 62
7
  6
CONTINUOUS
 10
126.2172305968
 20
222.2673657669
 11
126.2172305968
 21
210.5173657669
  0
LINE
  8
0
 62
7
  6
CONTINUOUS
 10
126.2172305968
 20
211.6312377697
 11
126.2172305968
 21
222.2673657669
  0
LINE
  8
0
 62
7
  6
CONTINUOUS
 10
120.2172305968
 20
222.2673657669
 11
120.3962424367
 21
232.3218161214
  0
LINE
  8
0
 62
7
  6
CONTINUOUS
 10
132.9172305968
 20
211.6312393291
 11
132.9172305968
 21
222.2673657669
  0
LINE
  8
SURFACE
 62
7
  6
CONTINUOUS
 10
132.9172305968
 20
210.5173657669
 11
132.9172305968
 21
222.2673657669
  0
LINE
  8
0
 62
7
  6
CONTINUOUS
 10
132.9172305968
 20
222.2673657669
 11
133.0962424367
 21
232.3218161214
  0
LINE
  8
0
 62
7
  6
CONTINUOUS
 10
138.9172305968
 20
222.2673657669
 11
138.7382187569
 21
232.3218161214
  0
LINE
  8
SURFACE
 62
7
  6
CONTINUOUS
 10
138.9172305968
 20
222.2673657669
 11
138.9172305968
 21
210.5173657669
  0
LINE
  8
0
 62
7
  6
CONTINUOUS
 10
138.9172305968
 20
211.6312377697
 11
138.9172305968
 21
222.2673657669
  0
LINE
  8
0
 62
7
  6
CONTINUOUS
 10
145.6172305968
 20
211.6312393291
 11
145.6172305968
 21
222.2673657669
  0
LINE
  8
SURFACE
 62
7
  6
CONTINUOUS
 10
145.6172305968
 20
210.5173657669
 11
145.6172305968
 21
222.2673657669
  0
LINE
  8
0
 62
7
  6
CONTINUOUS
 10
145.6172305968
 20
222.2673657669
 11
145.7962424367
 21
232.3218161214
  0
LINE
  8
0
 62
7
  6
CONTINUOUS
 10
151.6172305968
 20
222.2673657669
 11
151.4382187569
 21
232.3218161214
  0
LINE
  8
SURFACE
 62
7
  6
CONTINUOUS
 10
151.6172305968
 20
222.2673657669
 11
151.6172305968
 21
210.5173657669
  0
LINE
  8
0
 62
7
  6
CONTINUOUS
 10
151.6172305968
 20
211.6312377697
 11
151.6172305968
 21
222.2673657669
  0
LINE
  8
0
 62
7
  6
CONTINUOUS
 10
164.3172305968
 20
222.2673657669
 11
164.1382187569
 21
232.3218161214
  0
LINE
  8
0
 62
7
  6
CONTINUOUS
 10
158.3172305968
 20
211.6312393291
 11
158.3172305968
 21
222.2673657669
  0
LINE
  8
SURFACE
 62
7
  6
CONTINUOUS
 10
158.3172305968
 20
210.5173657669
 11
158.3172305968
 21
222.2673657669
  0
LINE
  8
SURFACE
 62
7
  6
CONTINUOUS
 10
164.3172305968
 20
222.2673657669
 11
164.3172305968
 21
210.5173657669
  0
LINE
  8
0
 62
7
  6
CONTINUOUS
 10
164.3172305968
 20
211.6312377697
 11
164.3172305968
 21
222.2673657669
  0
LINE
  8
0
 62
7
  6
CONTINUOUS
 10
158.3172305968
 20
222.2673657669
 11
158.4962424367
 21
232.3218161214
  0
LINE
  8
0
 62
7
  6
CONTINUOUS
 10
309.4672305968
 20
209.7673657669
 11
305.2672305968
 21
209.7673657669
  0
LINE
  8
0
 62
7
  6
CONTINUOUS
 10
296.7672305968
 20
209.7673657669
 11
292.5672305968
 21
209.7673657669
  0
LINE
  8
0
 62
7
  6
CONTINUOUS
 10
284.0672305968
 20
209.7673657669
 11
279.8672305968
 21
209.7673657669
  0
LINE
  8
0
 62
7
  6
CONTINUOUS
 10
271.3672305968
 20
209.7673657669
 11
267.1672305968
 21
209.7673657669
  0
LINE
  8
0
 62
7
  6
CONTINUOUS
 10
258.6672305968
 20
209.7673657669
 11
254.4672305968
 21
209.7673657669
  0
LINE
  8
0
 62
7
  6
CONTINUOUS
 10
245.9672305968
 20
209.7673657669
 11
241.7672305968
 21
209.7673657669
  0
LINE
  8
0
 62
7
  6
CONTINUOUS
 10
233.2672305968
 20
209.7673657669
 11
229.0672305968
 21
209.7673657669
  0
LINE
  8
0
 62
7
  6
CONTINUOUS
 10
220.5672305968
 20
209.7673657669
 11
216.3672305968
 21
209.7673657669
  0
LINE
  8
0
 62
7
  6
CONTINUOUS
 10
207.8672305968
 20
209.7673657669
 11
203.6672305968
 21
209.7673657669
  0
LINE
  8
0
 62
7
  6
CONTINUOUS
 10
195.1672305968
 20
209.7673657669
 11
190.9672305968
 21
209.7673657669
  0
LINE
  8
0
 62
7
  6
CONTINUOUS
 10
182.4672305968
 20
209.7673657669
 11
178.2672305968
 21
209.7673657669
  0
LINE
  8
0
 62
7
  6
CONTINUOUS
 10
169.7672305968
 20
209.7673657669
 11
165.5672305968
 21
209.7673657669
  0
LINE
  8
0
 62
7
  6
CONTINUOUS
 10
157.0672305968
 20
209.7673657669
 11
152.8672305968
 21
209.7673657669
  0
LINE
  8
0
 62
7
  6
CONTINUOUS
 10
144.3672305968
 20
209.7673657669
 11
140.1672305968
 21
209.7673657669
  0
LINE
  8
0
 62
7
  6
CONTINUOUS
 10
131.6672305968
 20
209.7673657669
 11
127.4672305968
 21
209.7673657669
  0
LINE
  8
0
 62
7
  6
CONTINUOUS
 10
118.9672305968
 20
209.7673657669
 11
114.7672305968
 21
209.7673657669
  0
LINE
  8
0
 62
7
  6
CONTINUOUS
 10
106.2672305968
 20
209.7673657669
 11
102.0672305968
 21
209.7673657669
  0
LINE
  8
0
 62
7
  6
CONTINUOUS
 10
93.5672305968
 20
209.7673657669
 11
89.3672305968
 21
209.7673657669
  0
LINE
  8
0
 62
7
  6
CONTINUOUS
 10
80.8672305968
 20
209.7673657669
 11
76.6672305968
 21
209.7673657669
  0
LINE
  8
0
 62
7
  6
CONTINUOUS
 10
68.1672305968
 20
209.7673657669
 11
63.9672305968
 21
209.7673657669
  0
LINE
  8
0
 62
7
  6
CONTINUOUS
 10
55.4672305968
 20
209.7673657669
 11
51.2672305968
 21
209.7673657669
  0
LINE
  8
SURFACE
 62
7
  6
CONTINUOUS
 10
328.6672305968
 20
209.7673657669
 11
42.7672305968
 21
209.7673657669
  0
LINE
  8
0
 62
7
  6
CONTINUOUS
 10
42.7672305968
 20
209.7673657669
 11
25.717220504
 21
209.7673657669
  0
LINE
  8
0
 62
7
  6
CONTINUOUS
 10
317.9672305968
 20
209.7673657669
 11
324.1672261888
 21
209.7673657669
  0
LINE
  8
0
 62
7
  6
CONTINUOUS
 10
177.0172305968
 20
222.2673657669
 11
176.8382187569
 21
232.3218161214
  0
LINE
  8
0
 62
7
  6
CONTINUOUS
 10
171.0172305968
 20
211.6312393291
 11
171.0172305968
 21
222.2673657669
  0
LINE
  8
SURFACE
 62
7
  6
CONTINUOUS
 10
171.0172305968
 20
210.5173657669
 11
171.0172305968
 21
222.2673657669
  0
LINE
  8
SURFACE
 62
7
  6
CONTINUOUS
 10
177.0172305968
 20
222.2673657669
 11
177.0172305968
 21
210.5173657669
  0
LINE
  8
0
 62
7
  6
CONTINUOUS
 10
177.0172305968
 20
211.6312377697
 11
177.0172305968
 21
222.2673657669
  0
LINE
  8
DEFAULT_1
 62
2
  6
CENTER
 10
177.1922305968
 20
207.275562498
 11
177.1922305968
 21
234.5673657669
  0
LINE
  8
0
 62
7
  6
CONTINUOUS
 10
171.0172305968
 20
222.2673657669
 11
171.1962424367
 21
232.3218161214
  0
LINE
  8
AXES
 62
2
  6
CENTER
 10
16.8195199411
 20
215.7673657669
 11
342.1473887935
 21
215.7673657669
  0
LINE
  8
0
 62
7
  6
CONTINUOUS
 10
329.4172305968
 20
222.2673657669
 11
328.0838185065
 21
222.2673652314
  0
LINE
  8
0
 62
7
  6
CONTINUOUS
 10
61.383818807
 20
222.2673676369
 11
70.7506426576
 21
222.2673654652
  0
LINE
  8
0
 62
7
  6
CONTINUOUS
 10
175.6838188064
 20
222.2673676319
 11
185.0506423578
 21
222.2673678869
  0
LINE
  8
0
 62
7
  6
CONTINUOUS
 10
289.983818567
 20
222.2673657156
 11
299.3506423359
 21
222.2673680638
  0
LINE
  8
0
 62
7
  6
CONTINUOUS
 10
96.1506426576
 20
222.2673654652
 11
86.783818567
 21
222.2673657156
  0
LINE
  8
0
 62
7
  6
CONTINUOUS
 10
83.4506426576
 20
222.2673654652
 11
74.083818567
 21
222.2673657156
  0
LINE
  8
0
 62
7
  6
CONTINUOUS
 10
172.3506423578
 20
222.2673678869
 11
162.9838188064
 21
222.2673676319
  0
LINE
  8
0
 62
7
  6
CONTINUOUS
 10
197.7506423578
 20
222.2673678869
 11
188.3838188064
 21
222.2673676319
  0
LINE
  8
0
 62
7
  6
CONTINUOUS
 10
146.9506425294
 20
222.2673665001
 11
137.5838188574
 21
222.2673680398
  0
LINE
  8
0
 62
7
  6
CONTINUOUS
 10
273.9506426576
 20
222.2673654652
 11
264.583818567
 21
222.2673657156
  0
LINE
  8
0
 62
7
  6
CONTINUOUS
 10
32.6506425937
 20
222.2673659812
 11
24.9672305968
 21
222.2673657669
  0
LINE
  8
0
 62
7
  6
CONTINUOUS
 10
134.2506425294
 20
222.2673665001
 11
124.8838188138
 21
222.2673676909
  0
LINE
  8
0
 62
7
  6
CONTINUOUS
 10
286.6506426576
 20
222.2673654652
 11
277.283818567
 21
222.2673657156
  0
LINE
  8
0
 62
7
  6
CONTINUOUS
 10
159.6506423578
 20
222.2673678869
 11
150.2838188574
 21
222.2673680398
  0
LINE
  8
0
 62
7
  6
CONTINUOUS
 10
210.4506425294
 20
222.2673665001
 11
201.0838188064
 21
222.2673676319
  0
LINE
  8
0
 62
7
  6
CONTINUOUS
 10
223.1506425294
 20
222.2673665001
 11
213.7838188574
 21
222.2673680398
  0
LINE
  8
0
 62
7
  6
CONTINUOUS
 10
235.8506423639
 20
222.2673678374
 11
226.4838188574
 21
222.2673680398
  0
LINE
  8
0
 62
7
  6
CONTINUOUS
 10
121.5506423639
 20
222.2673678374
 11
112.1838188138
 21
222.2673676909
  0
LINE
  8
0
 62
7
  6
CONTINUOUS
 10
248.5506423639
 20
222.2673678374
 11
239.1838188138
 21
222.2673676909
  0
LINE
  8
0
 62
7
  6
CONTINUOUS
 10
108.8506423639
 20
222.2673678374
 11
99.483818567
 21
222.2673657156
  0
LINE
  8
0
 62
7
  6
CONTINUOUS
 10
261.2506426576
 20
222.2673654652
 11
251.8838188138
 21
222.2673676909
  0
LINE
  8
0
 62
7
  6
CONTINUOUS
 10
312.0506423359
 20
222.2673680638
 11
302.683818807
 21
222.2673676369
  0
LINE
  8
0
 62
7
  6
CONTINUOUS
 10
324.7506425937
 20
222.2673659812
 11
315.383818807
 21
222.2673676369
  0
LINE
  8
0
 62
7
  6
CONTINUOUS
 10
58.0506423359
 20
222.2673680638
 11
48.683818807
 21
222.2673676369
  0
LINE
  8
0
 62
7
  6
CONTINUOUS
 10
45.3506423359
 20
222.2673680638
 11
35.9838185065
 21
222.2673652314
  0
LINE
  8
0
 62
7
  6
CONTINUOUS
 10
183.7172305968
 20
211.6312393291
 11
183.7172305968
 21
222.2673657669
  0
LINE
  8
SURFACE
 62
7
  6
CONTINUOUS
 10
183.7172305968
 20
210.5173657669
 11
183.7172305968
 21
222.2673657669
  0
LINE
  8
0
 62
7
  6
CONTINUOUS
 10
183.7172305968
 20
222.2673657669
 11
183.8962424367
 21
232.3218161214
  0
LINE
  8
0
 62
7
  6
CONTINUOUS
 10
25.3962028222
 20
232.5673657669
 11
328.9882583714
 21
232.5673657669
  0
LINE
  8
0
 62
7
  6
CONTINUOUS
 10
189.7172305968
 20
222.2673657669
 11
189.5382187569
 21
232.3218161214
  0
LINE
  8
SURFACE
 62
7
  6
CONTINUOUS
 10
189.7172305968
 20
222.2673657669
 11
189.7172305968
 21
210.5173657669
  0
LINE
  8
0
 62
7
  6
CONTINUOUS
 10
189.7172305968
 20
211.6312377697
 11
189.7172305968
 21
222.2673657669
  0
LINE
  8
0
 62
7
  6
CONTINUOUS
 10
196.4172305968
 20
211.6312393291
 11
196.4172305968
 21
222.2673657669
  0
LINE
  8
SURFACE
 62
7
  6
CONTINUOUS
 10
196.4172305968
 20
210.5173657669
 11
196.4172305968
 21
222.2673657669
  0
LINE
  8
0
 62
7
  6
CONTINUOUS
 10
196.4172305968
 20
222.2673657669
 11
196.5962424367
 21
232.3218161214
  0
LINE
  8
0
 62
7
  6
CONTINUOUS
 10
202.4172305968
 20
222.2673657669
 11
202.2382187569
 21
232.3218161214
  0
LINE
  8
SURFACE
 62
7
  6
CONTINUOUS
 10
202.4172305968
 20
222.2673657669
 11
202.4172305968
 21
210.5173657669
  0
LINE
  8
0
 62
7
  6
CONTINUOUS
 10
202.4172305968
 20
211.6312377697
 11
202.4172305968
 21
222.2673657669
  0
LINE
  8
0
 62
7
  6
CONTINUOUS
 10
209.1172305968
 20
211.6312393291
 11
209.1172305968
 21
222.2673657669
  0
LINE
  8
SURFACE
 62
7
  6
CONTINUOUS
 10
209.1172305968
 20
210.5173657669
 11
209.1172305968
 21
222.2673657669
  0
LINE
  8
0
 62
7
  6
CONTINUOUS
 10
209.1172305968
 20
222.2673657669
 11
209.2962424367
 21
232.3218161214
  0
LINE
  8
0
 62
7
  6
CONTINUOUS
 10
215.1172305968
 20
222.2673657669
 11
214.9382187569
 21
232.3218161214
  0
LINE
  8
SURFACE
 62
7
  6
CONTINUOUS
 10
215.1172305968
 20
222.2673657669
 11
215.1172305968
 21
210.5173657669
  0
LINE
  8
0
 62
7
  6
CONTINUOUS
 10
215.1172305968
 20
211.6312377697
 11
215.1172305968
 21
222.2673657669
  0
LINE
  8
0
 62
7
  6
CONTINUOUS
 10
227.6382187569
 20
232.3218161214
 11
227.8172305968
 21
222.2673657669
  0
LINE
  8
0
 62
7
  6
CONTINUOUS
 10
221.8172305968
 20
211.6312393291
 11
221.8172305968
 21
222.2673657669
  0
LINE
  8
SURFACE
 62
7
  6
CONTINUOUS
 10
221.8172305968
 20
210.5173657669
 11
221.8172305968
 21
222.2673657669
  0
LINE
  8
SURFACE
 62
7
  6
CONTINUOUS
 10
227.8172305968
 20
222.2673657669
 11
227.8172305968
 21
210.5173657669
  0
LINE
  8
0
 62
7
  6
CONTINUOUS
 10
227.8172305968
 20
211.6312377697
 11
227.8172305968
 21
222.2673657669
  0
LINE
  8
0
 62
7
  6
CONTINUOUS
 10
221.8172305968
 20
222.2673657669
 11
221.9962424367
 21
232.3218161214
  0
LINE
  8
0
 62
7
  6
CONTINUOUS
 10
234.5172305968
 20
211.6312393291
 11
234.5172305968
 21
222.2673657669
  0
LINE
  8
SURFACE
 62
7
  6
CONTINUOUS
 10
234.5172305968
 20
210.5173657669
 11
234.5172305968
 21
222.2673657669
  0
LINE
  8
0
 62
7
  6
CONTINUOUS
 10
234.5172305968
 20
222.2673657669
 11
234.6962424367
 21
232.3218161214
  0
LINE
  8
0
 62
7
  6
CONTINUOUS
 10
240.5172305968
 20
222.2673657669
 11
240.3382187569
 21
232.3218161214
  0
LINE
  8
SURFACE
 62
7
  6
CONTINUOUS
 10
240.5172305968
 20
211.6312377697
 11
240.5172305968
 21
210.5173657669
  0
LINE
  8
0
 62
7
  6
CONTINUOUS
 10
240.5172305968
 20
211.6312377697
 11
240.5172305968
 21
222.2673657669
  0
LINE
  8
0
 62
7
  6
CONTINUOUS
 10
247.2172305968
 20
211.6312393291
 11
247.2172305968
 21
222.2673657669
  0
LINE
  8
SURFACE
 62
7
  6
CONTINUOUS
 10
247.2172305968
 20
210.5173657669
 11
247.2172305968
 21
222.2673657669
  0
LINE
  8
0
 62
7
  6
CONTINUOUS
 10
247.2172305968
 20
222.2673657669
 11
247.3962424367
 21
232.3218161214
  0
LINE
  8
0
 62
7
  6
CONTINUOUS
 10
253.2172305968
 20
222.2673657669
 11
253.0382187569
 21
232.3218161214
  0
LINE
  8
SURFACE
 62
7
  6
CONTINUOUS
 10
253.2172305968
 20
211.6312377697
 11
253.2172305968
 21
210.5173657669
  0
LINE
  8
0
 62
7
  6
CONTINUOUS
 10
253.2172305968
 20
211.6312377697
 11
253.2172305968
 21
222.2673657669
  0
LINE
  8
0
 62
7
  6
CONTINUOUS
 10
259.9172305968
 20
211.6312393291
 11
259.9172305968
 21
222.2673657669
  0
LINE
  8
SURFACE
 62
7
  6
CONTINUOUS
 10
259.9172305968
 20
210.5173657669
 11
259.9172305968
 21
222.2673657669
  0
LINE
  8
0
 62
7
  6
CONTINUOUS
 10
259.9172305968
 20
222.2673657669
 11
260.0962424367
 21
232.3218161214
  0
LINE
  8
0
 62
7
  6
CONTINUOUS
 10
265.9172305968
 20
222.2673657669
 11
265.7382187569
 21
232.3218161214
  0
LINE
  8
SURFACE
 62
7
  6
CONTINUOUS
 10
265.9172305968
 20
222.2673657669
 11
265.9172305968
 21
210.5173657669
  0
LINE
  8
0
 62
7
  6
CONTINUOUS
 10
265.9172305968
 20
211.6312377697
 11
265.9172305968
 21
222.2673657669
  0
LINE
  8
0
 62
7
  6
CONTINUOUS
 10
278.6172305968
 20
222.2673657669
 11
278.4382187569
 21
232.3218161214
  0
LINE
  8
0
 62
7
  6
CONTINUOUS
 10
272.6172305968
 20
211.6312393291
 11
272.6172305968
 21
222.2673657669
  0
LINE
  8
SURFACE
 62
7
  6
CONTINUOUS
 10
272.6172305968
 20
210.5173657669
 11
272.6172305968
 21
222.2673657669
  0
LINE
  8
SURFACE
 62
7
  6
CONTINUOUS
 10
278.6172305968
 20
222.2673657669
 11
278.6172305968
 21
210.5173657669
  0
LINE
  8
0
 62
7
  6
CONTINUOUS
 10
278.6172305968
 20
211.6312377697
 11
278.6172305968
 21
222.2673657669
  0
LINE
  8
0
 62
7
  6
CONTINUOUS
 10
272.6172305968
 20
222.2673657669
 11
272.7962424367
 21
232.3218161214
  0
LINE
  8
0
 62
7
  6
CONTINUOUS
 10
291.3172305968
 20
222.2673657669
 11
291.1382187569
 21
232.3218161214
  0
LINE
  8
0
 62
7
  6
CONTINUOUS
 10
285.3172305968
 20
211.6312393291
 11
285.3172305968
 21
222.2673657669
  0
LINE
  8
SURFACE
 62
7
  6
CONTINUOUS
 10
285.3172305968
 20
210.5173657669
 11
285.3172305968
 21
222.2673657669
  0
LINE
  8
SURFACE
 62
7
  6
CONTINUOUS
 10
291.3172305968
 20
222.2673657669
 11
291.3172305968
 21
210.5173657669
  0
LINE
  8
0
 62
7
  6
CONTINUOUS
 10
291.3172305968
 20
211.6312377697
 11
291.3172305968
 21
222.2673657669
  0
LINE
  8
0
 62
7
  6
CONTINUOUS
 10
285.3172305968
 20
222.2673657669
 11
285.4962424367
 21
232.3218161214
  0
LINE
  8
0
 62
7
  6
CONTINUOUS
 10
298.0172305968
 20
211.6312393291
 11
298.0172305968
 21
222.2673657669
  0
LINE
  8
SURFACE
 62
7
  6
CONTINUOUS
 10
298.0172305968
 20
210.5173657669
 11
298.0172305968
 21
222.2673657669
  0
LINE
  8
0
 62
7
  6
CONTINUOUS
 10
298.0172305968
 20
222.2673657669
 11
298.1962424367
 21
232.3218161214
  0
LINE
  8
0
 62
7
  6
CONTINUOUS
 10
304.0172305968
 20
222.2673657669
 11
303.8382187569
 21
232.3218161214
  0
LINE
  8
SURFACE
 62
7
  6
CONTINUOUS
 10
304.0172305968
 20
222.2673657669
 11
304.0172305968
 21
210.5173657669
  0
LINE
  8
0
 62
7
  6
CONTINUOUS
 10
304.0172305968
 20
211.6312377697
 11
304.0172305968
 21
222.2673657669
  0
LINE
  8
0
 62
7
  6
CONTINUOUS
 10
310.7172305968
 20
211.6312393291
 11
310.7172305968
 21
222.2673657669
  0
LINE
  8
SURFACE
 62
7
  6
CONTINUOUS
 10
310.7172305968
 20
210.5173657669
 11
310.7172305968
 21
222.2673657669
  0
LINE
  8
0
 62
7
  6
CONTINUOUS
 10
310.7172305968
 20
222.2673657669
 11
310.8962424367
 21
232.3218161214
  0
LINE
  8
0
 62
7
  6
CONTINUOUS
 10
316.7172305968
 20
222.2673657669
 11
316.5382187569
 21
232.3218161214
  0
LINE
  8
0
 62
7
  6
CONTINUOUS
 10
329.4172305968
 20
222.2673657669
 11
329.2382187569
 21
232.3218161214
  0
LINE
  8
SURFACE
 62
7
  6
CONTINUOUS
 10
316.7172305968
 20
222.2673657669
 11
316.7172305968
 21
210.5173657669
  0
LINE
  8
0
 62
7
  6
CONTINUOUS
 10
316.7172305968
 20
211.6312377697
 11
316.7172305968
 21
222.2673657669
  0
LINE
  8
0
 62
7
  6
CONTINUOUS
 10
323.4172305968
 20
211.6312393291
 11
323.4172305968
 21
222.2673657669
  0
LINE
  8
SURFACE
 62
7
  6
CONTINUOUS
 10
323.4172305968
 20
210.5173657669
 11
323.4172305968
 21
222.2673657669
  0
LINE
  8
SURFACE
 62
7
  6
CONTINUOUS
 10
329.4172305968
 20
222.2673657669
 11
329.4172305968
 21
210.5173657669
  0
LINE
  8
0
 62
7
  6
CONTINUOUS
 10
329.4172305968
 20
211.6312377697
 11
329.4172305968
 21
222.2673657669
  0
LINE
  8
0
 62
7
  6
CONTINUOUS
 10
323.4172305968
 20
222.2673657669
 11
323.5962424367
 21
232.3218161214
  0
ARC
  8
0
 62
7
  6
CONTINUOUS
 10
34.3172305968
 20
119.3986153351
 40
4.0
 50
224.4153085972
 51
315.5846914028
  0
ARC
  8
0
 62
7
  6
CONTINUOUS
 10
47.0172305968
 20
119.3986153351
 40
4.0
 50
224.4153085972
 51
315.5846914028
  0
ARC
  8
SURFACE
 62
7
  6
CONTINUOUS
 10
47.0172305968
 20
119.3986153351
 40
4.0
 50
270.0
 51
283.7894961442
  0
ARC
  8
SURFACE
 62
7
  6
CONTINUOUS
 10
47.0172305968
 20
119.3986153351
 40
4.0
 50
256.0143711213
 51
256.1825080399
  0
ARC
  8
0
 62
7
  6
CONTINUOUS
 10
59.7172305968
 20
119.3986153351
 40
4.0
 50
224.4153085972
 51
315.5846914028
  0
ARC
  8
SURFACE
 62
7
  6
CONTINUOUS
 10
59.7172305968
 20
119.3986153351
 40
4.0
 50
270.0
 51
283.7894961442
  0
ARC
  8
SURFACE
 62
7
  6
CONTINUOUS
 10
59.7172305968
 20
119.3986153351
 40
4.0
 50
256.0143711213
 51
256.1825080399
  0
ARC
  8
0
 62
7
  6
CONTINUOUS
 10
57.2172305968
 20
116.9491255924
 40
0.5
 50
180.0
 51
224.4153085972
  0
ARC
  8
0
 62
7
  6
CONTINUOUS
 10
62.2172305968
 20
116.9491255924
 40
0.5
 50
315.5846914028
 51
360.0
  0
ARC
  8
0
 62
7
  6
CONTINUOUS
 10
44.5172305968
 20
116.9491255924
 40
0.5
 50
180.0
 51
224.4153085972
  0
ARC
  8
0
 62
7
  6
CONTINUOUS
 10
49.5172305968
 20
116.9491255924
 40
0.5
 50
315.5846914028
 51
360.0
  0
ARC
  8
0
 62
7
  6
CONTINUOUS
 10
31.8172305968
 20
116.9491255924
 40
0.5
 50
180.0
 51
224.4153085972
  0
ARC
  8
0
 62
7
  6
CONTINUOUS
 10
36.8172305968
 20
116.9491255924
 40
0.5
 50
315.5846914028
 51
360.0
  0
ARC
  8
0
 62
7
  6
CONTINUOUS
 10
56.9672305968
 20
123.46795039
 40
0.5
 50
345.8
 51
360.0
  0
ARC
  8
0
 62
7
  6
CONTINUOUS
 10
62.4672305968
 20
123.46795039
 40
0.5
 50
180.0
 51
194.2
  0
ARC
  8
0
 62
7
  6
CONTINUOUS
 10
44.2672305968
 20
123.46795039
 40
0.5
 50
345.8
 51
360.0
  0
ARC
  8
0
 62
7
  6
CONTINUOUS
 10
49.7672305968
 20
123.46795039
 40
0.5
 50
180.0
 51
194.2
  0
ARC
  8
0
 62
7
  6
CONTINUOUS
 10
31.5672305968
 20
123.46795039
 40
0.5
 50
345.8
 51
360.0
  0
ARC
  8
0
 62
7
  6
CONTINUOUS
 10
37.0672305968
 20
123.46795039
 40
0.5
 50
180.0
 51
194.2
  0
ARC
  8
0
 62
7
  6
CONTINUOUS
 10
56.8672305968
 20
120.4230174691
 40
0.15
 50
165.8
 51
180.0
  0
ARC
  8
0
 62
7
  6
CONTINUOUS
 10
62.5672305968
 20
120.4230174691
 40
0.15
 50
0.0
 51
14.2
  0
ARC
  8
0
 62
7
  6
CONTINUOUS
 10
44.1672305968
 20
120.4230174691
 40
0.15
 50
165.8
 51
180.0
  0
ARC
  8
0
 62
7
  6
CONTINUOUS
 10
49.8672305968
 20
120.4230174691
 40
0.15
 50
0.0
 51
14.2
  0
ARC
  8
0
 62
7
  6
CONTINUOUS
 10
31.4672305968
 20
120.4230174691
 40
0.15
 50
165.8
 51
180.0
  0
ARC
  8
0
 62
7
  6
CONTINUOUS
 10
37.1672305968
 20
120.4230174691
 40
0.15
 50
0.0
 51
14.2
  0
ARC
  8
0
 62
7
  6
CONTINUOUS
 10
72.4172305968
 20
119.3986153351
 40
4.0
 50
224.4153085972
 51
315.5846914028
  0
ARC
  8
SURFACE
 62
7
  6
CONTINUOUS
 10
72.4172305968
 20
119.3986153351
 40
4.0
 50
270.0
 51
283.7894961441
  0
ARC
  8
SURFACE
 62
7
  6
CONTINUOUS
 10
72.4172305968
 20
119.3986153351
 40
4.0
 50
256.0143711201
 51
256.1825080402
  0
ARC
  8
0
 62
7
  6
CONTINUOUS
 10
85.1172305968
 20
119.3986153351
 40
4.0
 50
224.4153085972
 51
315.5846914028
  0
ARC
  8
SURFACE
 62
7
  6
CONTINUOUS
 10
85.1172305968
 20
119.3986153351
 40
4.0
 50
270.0
 51
283.7894961441
  0
ARC
  8
SURFACE
 62
7
  6
CONTINUOUS
 10
85.1172305968
 20
119.3986153351
 40
4.0
 50
256.0143711201
 51
256.1825080402
  0
ARC
  8
0
 62
7
  6
CONTINUOUS
 10
97.8172305968
 20
119.3986153351
 40
4.0
 50
224.4153085972
 51
315.5846914028
  0
ARC
  8
SURFACE
 62
7
  6
CONTINUOUS
 10
97.8172305968
 20
119.3986153351
 40
4.0
 50
270.0
 51
283.7894961441
  0
ARC
  8
SURFACE
 62
7
  6
CONTINUOUS
 10
97.8172305968
 20
119.3986153351
 40
4.0
 50
256.0143711201
 51
256.1825080402
  0
ARC
  8
0
 62
7
  6
CONTINUOUS
 10
95.3172305968
 20
116.9491255924
 40
0.5
 50
180.0
 51
224.4153085972
  0
ARC
  8
0
 62
7
  6
CONTINUOUS
 10
100.3172305968
 20
116.9491255924
 40
0.5
 50
315.5846914028
 51
360.0
  0
ARC
  8
0
 62
7
  6
CONTINUOUS
 10
82.6172305968
 20
116.9491255924
 40
0.5
 50
180.0
 51
224.4153085972
  0
ARC
  8
0
 62
7
  6
CONTINUOUS
 10
87.6172305968
 20
116.9491255924
 40
0.5
 50
315.5846914028
 51
360.0
  0
ARC
  8
0
 62
7
  6
CONTINUOUS
 10
69.9172305968
 20
116.9491255924
 40
0.5
 50
180.0
 51
224.4153085972
  0
ARC
  8
0
 62
7
  6
CONTINUOUS
 10
74.9172305968
 20
116.9491255924
 40
0.5
 50
315.5846914028
 51
360.0
  0
ARC
  8
0
 62
7
  6
CONTINUOUS
 10
95.0672305968
 20
123.46795039
 40
0.5
 50
345.8
 51
360.0
  0
ARC
  8
0
 62
7
  6
CONTINUOUS
 10
100.5672305968
 20
123.46795039
 40
0.5
 50
180.0
 51
194.2
  0
ARC
  8
0
 62
7
  6
CONTINUOUS
 10
82.3672305968
 20
123.46795039
 40
0.5
 50
345.8
 51
360.0
  0
ARC
  8
0
 62
7
  6
CONTINUOUS
 10
87.8672305968
 20
123.46795039
 40
0.5
 50
180.0
 51
194.2
  0
ARC
  8
0
 62
7
  6
CONTINUOUS
 10
69.6672305968
 20
123.46795039
 40
0.5
 50
345.8
 51
360.0
  0
ARC
  8
0
 62
7
  6
CONTINUOUS
 10
75.1672305968
 20
123.46795039
 40
0.5
 50
180.0
 51
194.2
  0
ARC
  8
0
 62
7
  6
CONTINUOUS
 10
94.9672305968
 20
120.4230174691
 40
0.15
 50
165.8
 51
180.0
  0
ARC
  8
0
 62
7
  6
CONTINUOUS
 10
100.6672305968
 20
120.4230174691
 40
0.15
 50
0.0
 51
14.2
  0
ARC
  8
0
 62
7
  6
CONTINUOUS
 10
82.2672305968
 20
120.4230174691
 40
0.15
 50
165.8
 51
180.0
  0
ARC
  8
0
 62
7
  6
CONTINUOUS
 10
87.9672305968
 20
120.4230174691
 40
0.15
 50
0.0
 51
14.2
  0
ARC
  8
0
 62
7
  6
CONTINUOUS
 10
69.5672305968
 20
120.4230174691
 40
0.15
 50
165.8
 51
180.0
  0
ARC
  8
0
 62
7
  6
CONTINUOUS
 10
75.2672305968
 20
120.4230174691
 40
0.15
 50
0.0
 51
14.2
  0
ARC
  8
0
 62
7
  6
CONTINUOUS
 10
93.5672305968
 20
129.6646153351
 40
2.0
 50
0.0
 51
90.0
  0
ARC
  8
0
 62
7
  6
CONTINUOUS
 10
89.3672305968
 20
129.6646153351
 40
2.0
 50
90.0
 51
180.0
  0
ARC
  8
0
 62
7
  6
CONTINUOUS
 10
80.8672305968
 20
129.6646153351
 40
2.0
 50
0.0
 51
90.0
  0
ARC
  8
0
 62
7
  6
CONTINUOUS
 10
76.6672305968
 20
129.6646153351
 40
2.0
 50
90.0
 51
180.0
  0
ARC
  8
0
 62
7
  6
CONTINUOUS
 10
68.1672305968
 20
129.6646153351
 40
2.0
 50
0.0
 51
90.0
  0
ARC
  8
0
 62
7
  6
CONTINUOUS
 10
63.9672305968
 20
129.6646153351
 40
2.0
 50
90.0
 51
180.0
  0
ARC
  8
0
 62
7
  6
CONTINUOUS
 10
55.4672305968
 20
129.6646153351
 40
2.0
 50
0.0
 51
90.0
  0
ARC
  8
0
 62
7
  6
CONTINUOUS
 10
51.2672305968
 20
129.6646153351
 40
2.0
 50
90.0
 51
180.0
  0
ARC
  8
0
 62
7
  6
CONTINUOUS
 10
42.7672305968
 20
129.6646153351
 40
2.0
 50
0.0
 51
90.0
  0
ARC
  8
0
 62
7
  6
CONTINUOUS
 10
38.5672305968
 20
129.6646153351
 40
2.0
 50
90.0
 51
180.0
  0
ARC
  8
0
 62
7
  6
CONTINUOUS
 10
30.0672305968
 20
129.6646153351
 40
2.0
 50
0.0
 51
90.0
  0
ARC
  8
0
 62
7
  6
CONTINUOUS
 10
25.8812305968
 20
131.8246153351
 40
0.16
 50
180.0000000001
 51
270.0
  0
ARC
  8
0
 62
7
  6
CONTINUOUS
 10
110.5172305968
 20
119.3986153351
 40
4.0
 50
224.4153085972
 51
315.5846914028
  0
ARC
  8
SURFACE
 62
7
  6
CONTINUOUS
 10
110.5172305968
 20
119.3986153351
 40
4.0
 50
270.0
 51
283.7894961442
  0
ARC
  8
SURFACE
 62
7
  6
CONTINUOUS
 10
110.5172305968
 20
119.3986153351
 40
4.0
 50
256.0143711212
 51
256.1825080399
  0
ARC
  8
0
 62
7
  6
CONTINUOUS
 10
123.2172305968
 20
119.3986153351
 40
4.0
 50
224.4153085972
 51
315.5846914028
  0
ARC
  8
SURFACE
 62
7
  6
CONTINUOUS
 10
123.2172305968
 20
119.3986153351
 40
4.0
 50
270.0
 51
283.7894961442
  0
ARC
  8
SURFACE
 62
7
  6
CONTINUOUS
 10
123.2172305968
 20
119.3986153351
 40
4.0
 50
256.0143711212
 51
256.1825080399
  0
ARC
  8
0
 62
7
  6
CONTINUOUS
 10
135.9172305968
 20
119.3986153351
 40
4.0
 50
224.4153085972
 51
315.5846914028
  0
ARC
  8
SURFACE
 62
7
  6
CONTINUOUS
 10
135.9172305968
 20
119.3986153351
 40
4.0
 50
270.0
 51
283.7894961442
  0
ARC
  8
SURFACE
 62
7
  6
CONTINUOUS
 10
135.9172305968
 20
119.3986153351
 40
4.0
 50
256.0143711205
 51
256.1825080401
  0
ARC
  8
0
 62
7
  6
CONTINUOUS
 10
133.4172305968
 20
116.9491255924
 40
0.5
 50
180.0
 51
224.4153085972
  0
ARC
  8
0
 62
7
  6
CONTINUOUS
 10
138.4172305968
 20
116.9491255924
 40
0.5
 50
315.5846914028
 51
360.0
  0
ARC
  8
0
 62
7
  6
CONTINUOUS
 10
120.7172305968
 20
116.9491255924
 40
0.5
 50
180.0
 51
224.4153085972
  0
ARC
  8
0
 62
7
  6
CONTINUOUS
 10
125.7172305968
 20
116.9491255924
 40
0.5
 50
315.5846914028
 51
360.0
  0
ARC
  8
0
 62
7
  6
CONTINUOUS
 10
108.0172305968
 20
116.9491255924
 40
0.5
 50
180.0
 51
224.4153085972
  0
ARC
  8
0
 62
7
  6
CONTINUOUS
 10
113.0172305968
 20
116.9491255924
 40
0.5
 50
315.5846914028
 51
360.0
  0
ARC
  8
0
 62
7
  6
CONTINUOUS
 10
133.1672305968
 20
123.46795039
 40
0.5
 50
345.8
 51
360.0
  0
ARC
  8
0
 62
7
  6
CONTINUOUS
 10
138.6672305968
 20
123.46795039
 40
0.5
 50
180.0
 51
194.2
  0
ARC
  8
0
 62
7
  6
CONTINUOUS
 10
120.4672305968
 20
123.46795039
 40
0.5
 50
345.8
 51
360.0
  0
ARC
  8
0
 62
7
  6
CONTINUOUS
 10
125.9672305968
 20
123.46795039
 40
0.5
 50
180.0
 51
194.2
  0
ARC
  8
0
 62
7
  6
CONTINUOUS
 10
107.7672305968
 20
123.46795039
 40
0.5
 50
345.8
 51
360.0
  0
ARC
  8
0
 62
7
  6
CONTINUOUS
 10
113.2672305968
 20
123.46795039
 40
0.5
 50
180.0
 51
194.2
  0
ARC
  8
0
 62
7
  6
CONTINUOUS
 10
133.0672305968
 20
120.4230174691
 40
0.15
 50
165.8
 51
180.0
  0
ARC
  8
0
 62
7
  6
CONTINUOUS
 10
138.7672305968
 20
120.4230174691
 40
0.15
 50
0.0
 51
14.2
  0
ARC
  8
0
 62
7
  6
CONTINUOUS
 10
120.3672305968
 20
120.4230174691
 40
0.15
 50
165.8
 51
180.0
  0
ARC
  8
0
 62
7
  6
CONTINUOUS
 10
126.0672305968
 20
120.4230174691
 40
0.15
 50
0.0
 51
14.2
  0
ARC
  8
0
 62
7
  6
CONTINUOUS
 10
107.6672305968
 20
120.4230174691
 40
0.15
 50
165.8
 51
180.0
  0
ARC
  8
0
 62
7
  6
CONTINUOUS
 10
113.3672305968
 20
120.4230174691
 40
0.15
 50
0.0
 51
14.2
  0
ARC
  8
0
 62
7
  6
CONTINUOUS
 10
148.6172305968
 20
119.3986153351
 40
4.0
 50
224.4153085972
 51
315.5846914028
  0
ARC
  8
SURFACE
 62
7
  6
CONTINUOUS
 10
148.6172305968
 20
119.3986153351
 40
4.0
 50
270.0
 51
283.7894961442
  0
ARC
  8
SURFACE
 62
7
  6
CONTINUOUS
 10
148.6172305968
 20
119.3986153351
 40
4.0
 50
256.0143711205
 51
256.1825080401
  0
ARC
  8
0
 62
7
  6
CONTINUOUS
 10
161.3172305968
 20
119.3986153351
 40
4.0
 50
224.4153085972
 51
315.5846914028
  0
ARC
  8
SURFACE
 62
7
  6
CONTINUOUS
 10
161.3172305968
 20
119.3986153351
 40
4.0
 50
270.0
 51
283.7894961442
  0
ARC
  8
SURFACE
 62
7
  6
CONTINUOUS
 10
161.3172305968
 20
119.3986153351
 40
4.0
 50
256.0143711213
 51
256.1825080399
  0
ARC
  8
0
 62
7
  6
CONTINUOUS
 10
174.0172305968
 20
119.3986153351
 40
4.0
 50
224.4153085972
 51
315.5846914028
  0
ARC
  8
SURFACE
 62
7
  6
CONTINUOUS
 10
174.0172305968
 20
119.3986153351
 40
4.0
 50
270.0
 51
283.7894961442
  0
ARC
  8
SURFACE
 62
7
  6
CONTINUOUS
 10
174.0172305968
 20
119.3986153351
 40
4.0
 50
256.0143711212
 51
256.1825080399
  0
ARC
  8
0
 62
7
  6
CONTINUOUS
 10
171.5172305968
 20
116.9491255924
 40
0.5
 50
180.0
 51
224.4153085972
  0
ARC
  8
0
 62
7
  6
CONTINUOUS
 10
176.5172305968
 20
116.9491255924
 40
0.5
 50
315.5846914028
 51
360.0
  0
ARC
  8
0
 62
7
  6
CONTINUOUS
 10
158.8172305968
 20
116.9491255924
 40
0.5
 50
180.0
 51
224.4153085972
  0
ARC
  8
0
 62
7
  6
CONTINUOUS
 10
163.8172305968
 20
116.9491255924
 40
0.5
 50
315.5846914028
 51
360.0
  0
ARC
  8
0
 62
7
  6
CONTINUOUS
 10
146.1172305968
 20
116.9491255924
 40
0.5
 50
180.0
 51
224.4153085972
  0
ARC
  8
0
 62
7
  6
CONTINUOUS
 10
151.1172305968
 20
116.9491255924
 40
0.5
 50
315.5846914028
 51
360.0
  0
ARC
  8
0
 62
7
  6
CONTINUOUS
 10
171.2672305968
 20
123.46795039
 40
0.5
 50
345.8
 51
360.0
  0
ARC
  8
0
 62
7
  6
CONTINUOUS
 10
176.7672305968
 20
123.46795039
 40
0.5
 50
180.0
 51
194.2
  0
ARC
  8
0
 62
7
  6
CONTINUOUS
 10
158.5672305968
 20
123.46795039
 40
0.5
 50
345.8
 51
360.0
  0
ARC
  8
0
 62
7
  6
CONTINUOUS
 10
164.0672305968
 20
123.46795039
 40
0.5
 50
180.0
 51
194.2
  0
ARC
  8
0
 62
7
  6
CONTINUOUS
 10
145.8672305968
 20
123.46795039
 40
0.5
 50
345.8
 51
360.0
  0
ARC
  8
0
 62
7
  6
CONTINUOUS
 10
151.3672305968
 20
123.46795039
 40
0.5
 50
180.0
 51
194.2
  0
ARC
  8
0
 62
7
  6
CONTINUOUS
 10
171.1672305968
 20
120.4230174691
 40
0.15
 50
165.8
 51
180.0
  0
ARC
  8
0
 62
7
  6
CONTINUOUS
 10
176.8672305968
 20
120.4230174691
 40
0.15
 50
0.0
 51
14.2
  0
ARC
  8
0
 62
7
  6
CONTINUOUS
 10
158.4672305968
 20
120.4230174691
 40
0.15
 50
165.8
 51
180.0
  0
ARC
  8
0
 62
7
  6
CONTINUOUS
 10
164.1672305968
 20
120.4230174691
 40
0.15
 50
0.0
 51
14.2
  0
ARC
  8
0
 62
7
  6
CONTINUOUS
 10
145.7672305968
 20
120.4230174691
 40
0.15
 50
165.8
 51
180.0
  0
ARC
  8
0
 62
7
  6
CONTINUOUS
 10
151.4672305968
 20
120.4230174691
 40
0.15
 50
0.0
 51
14.2
  0
ARC
  8
0
 62
7
  6
CONTINUOUS
 10
169.7672305968
 20
129.6646153351
 40
2.0
 50
0.0
 51
90.0
  0
ARC
  8
0
 62
7
  6
CONTINUOUS
 10
165.5672305968
 20
129.6646153351
 40
2.0
 50
90.0
 51
180.0
  0
ARC
  8
0
 62
7
  6
CONTINUOUS
 10
157.0672305968
 20
129.6646153351
 40
2.0
 50
0.0
 51
90.0
  0
ARC
  8
0
 62
7
  6
CONTINUOUS
 10
152.8672305968
 20
129.6646153351
 40
2.0
 50
90.0
 51
180.0
  0
ARC
  8
0
 62
7
  6
CONTINUOUS
 10
144.3672305968
 20
129.6646153351
 40
2.0
 50
0.0
 51
90.0
  0
ARC
  8
0
 62
7
  6
CONTINUOUS
 10
140.1672305968
 20
129.6646153351
 40
2.0
 50
90.0
 51
180.0
  0
ARC
  8
0
 62
7
  6
CONTINUOUS
 10
131.6672305968
 20
129.6646153351
 40
2.0
 50
0.0
 51
90.0
  0
ARC
  8
0
 62
7
  6
CONTINUOUS
 10
127.4672305968
 20
129.6646153351
 40
2.0
 50
90.0
 51
180.0
  0
ARC
  8
0
 62
7
  6
CONTINUOUS
 10
118.9672305968
 20
129.6646153351
 40
2.0
 50
0.0
 51
90.0
  0
ARC
  8
0
 62
7
  6
CONTINUOUS
 10
114.7672305968
 20
129.6646153351
 40
2.0
 50
90.0
 51
180.0
  0
ARC
  8
0
 62
7
  6
CONTINUOUS
 10
106.2672305968
 20
129.6646153351
 40
2.0
 50
0.0
 51
90.0
  0
ARC
  8
0
 62
7
  6
CONTINUOUS
 10
102.0672305968
 20
129.6646153351
 40
2.0
 50
90.0
 51
180.0
  0
ARC
  8
0
 62
7
  6
CONTINUOUS
 10
97.8172305968
 20
137.2526153351
 40
4.104
 50
180.0
 51
360.0
  0
ARC
  8
0
 62
7
  6
CONTINUOUS
 10
85.1172305968
 20
137.2526153351
 40
4.104
 50
180.0
 51
360.0
  0
ARC
  8
0
 62
7
  6
CONTINUOUS
 10
72.4172305968
 20
137.2526153351
 40
4.104
 50
180.0
 51
360.0
  0
ARC
  8
0
 62
7
  6
CONTINUOUS
 10
59.7172305968
 20
137.2526153351
 40
4.104
 50
180.0
 51
360.0
  0
ARC
  8
0
 62
7
  6
CONTINUOUS
 10
47.0172305968
 20
137.2526153351
 40
4.104
 50
180.0
 51
360.0
  0
ARC
  8
0
 62
7
  6
CONTINUOUS
 10
34.3172305968
 20
137.2526153351
 40
4.104
 50
180.0
 51
360.0
  0
ARC
  8
0
 62
7
  6
CONTINUOUS
 10
25.2212305968
 20
141.436337043
 40
0.5
 50
0.0
 51
14.2
  0
ARC
  8
0
 62
7
  6
CONTINUOUS
 10
94.2132305968
 20
141.436337043
 40
0.5
 50
165.8
 51
180.0
  0
ARC
  8
0
 62
7
  6
CONTINUOUS
 10
81.5132305968
 20
141.436337043
 40
0.5
 50
165.8
 51
180.0
  0
ARC
  8
0
 62
7
  6
CONTINUOUS
 10
88.7212305968
 20
141.436337043
 40
0.5
 50
0.0
 51
14.2
  0
ARC
  8
0
 62
7
  6
CONTINUOUS
 10
68.8132305968
 20
141.436337043
 40
0.5
 50
165.8
 51
180.0
  0
ARC
  8
0
 62
7
  6
CONTINUOUS
 10
76.0212305968
 20
141.436337043
 40
0.5
 50
0.0
 51
14.2
  0
ARC
  8
0
 62
7
  6
CONTINUOUS
 10
56.1132305968
 20
141.436337043
 40
0.5
 50
165.8
 51
180.0
  0
ARC
  8
0
 62
7
  6
CONTINUOUS
 10
63.3212305968
 20
141.436337043
 40
0.5
 50
0.0
 51
14.2
  0
ARC
  8
0
 62
7
  6
CONTINUOUS
 10
43.4132305968
 20
141.436337043
 40
0.5
 50
165.8
 51
180.0
  0
ARC
  8
0
 62
7
  6
CONTINUOUS
 10
50.6212305968
 20
141.436337043
 40
0.5
 50
0.0
 51
14.2
  0
ARC
  8
0
 62
7
  6
CONTINUOUS
 10
30.7132305968
 20
141.436337043
 40
0.5
 50
165.8
 51
180.0
  0
ARC
  8
0
 62
7
  6
CONTINUOUS
 10
37.9212305968
 20
141.436337043
 40
0.5
 50
0.0
 51
14.2
  0
ARC
  8
0
 62
7
  6
CONTINUOUS
 10
25.1172305968
 20
144.4970778099
 40
0.15
 50
180.0
 51
194.2
  0
ARC
  8
0
 62
7
  6
CONTINUOUS
 10
56.2172305968
 20
144.4970778099
 40
0.15
 50
345.8
 51
360.0
  0
ARC
  8
0
 62
7
  6
CONTINUOUS
 10
50.5172305968
 20
144.4970778099
 40
0.15
 50
180.0
 51
194.2
  0
ARC
  8
0
 62
7
  6
CONTINUOUS
 10
43.5172305968
 20
144.4970778099
 40
0.15
 50
345.8
 51
360.0
  0
ARC
  8
0
 62
7
  6
CONTINUOUS
 10
37.8172305968
 20
144.4970778099
 40
0.15
 50
180.0
 51
194.2
  0
ARC
  8
0
 62
7
  6
CONTINUOUS
 10
30.8172305968
 20
144.4970778099
 40
0.15
 50
345.8
 51
360.0
  0
ARC
  8
SURFACE
 62
7
  6
CONTINUOUS
 10
51.1172305968
 20
148.7486153351
 40
0.75
 50
90.0
 51
153.5686351565
  0
ARC
  8
0
 62
7
  6
CONTINUOUS
 10
25.7172305968
 20
148.7486153351
 40
0.75
 50
90.0
 51
180.0
  0
ARC
  8
0
 62
7
  6
CONTINUOUS
 10
51.1172305968
 20
148.7486153351
 40
0.75
 50
90.0
 51
180.0
  0
ARC
  8
0
 62
7
  6
CONTINUOUS
 10
38.4172305968
 20
148.7486153351
 40
0.75
 50
90.0
 51
180.0
  0
ARC
  8
0
 62
7
  6
CONTINUOUS
 10
30.2172305968
 20
148.7486153351
 40
0.75
 50
0.0
 51
90.0
  0
ARC
  8
0
 62
7
  6
CONTINUOUS
 10
42.9172305968
 20
148.7486153351
 40
0.75
 50
0.0
 51
90.0
  0
ARC
  8
SURFACE
 62
7
  6
CONTINUOUS
 10
42.9172305968
 20
148.7486153351
 40
0.75
 50
23.0531652819
 51
67.5285082442
  0
ARC
  8
0
 62
7
  6
CONTINUOUS
 10
55.6172305968
 20
148.7486153351
 40
0.75
 50
0.0
 51
90.0
  0
ARC
  8
SURFACE
 62
7
  6
CONTINUOUS
 10
55.6172305968
 20
148.7486153351
 40
0.75
 50
23.0531652819
 51
67.5285082442
  0
ARC
  8
0
 62
7
  6
CONTINUOUS
 10
94.3172305968
 20
144.4970778099
 40
0.15
 50
345.8
 51
360.0
  0
ARC
  8
0
 62
7
  6
CONTINUOUS
 10
88.6172305968
 20
144.4970778099
 40
0.15
 50
180.0
 51
194.2
  0
ARC
  8
0
 62
7
  6
CONTINUOUS
 10
81.6172305968
 20
144.4970778099
 40
0.15
 50
345.8
 51
360.0
  0
ARC
  8
0
 62
7
  6
CONTINUOUS
 10
75.9172305968
 20
144.4970778099
 40
0.15
 50
180.0
 51
194.2
  0
ARC
  8
0
 62
7
  6
CONTINUOUS
 10
68.9172305968
 20
144.4970778099
 40
0.15
 50
345.8
 51
360.0
  0
ARC
  8
0
 62
7
  6
CONTINUOUS
 10
63.2172305968
 20
144.4970778099
 40
0.15
 50
180.0
 51
194.2
  0
ARC
  8
SURFACE
 62
7
  6
CONTINUOUS
 10
89.2172305968
 20
148.7486153351
 40
0.75
 50
90.0
 51
153.5686351566
  0
ARC
  8
SURFACE
 62
7
  6
CONTINUOUS
 10
76.5172305968
 20
148.7486153351
 40
0.75
 50
90.0
 51
153.5686351564
  0
ARC
  8
SURFACE
 62
7
  6
CONTINUOUS
 10
63.8172305968
 20
148.7486153351
 40
0.75
 50
90.0
 51
153.5686351564
  0
ARC
  8
0
 62
7
  6
CONTINUOUS
 10
89.2172305968
 20
148.7486153351
 40
0.75
 50
90.0
 51
180.0
  0
ARC
  8
0
 62
7
  6
CONTINUOUS
 10
76.5172305968
 20
148.7486153351
 40
0.75
 50
90.0
 51
180.0
  0
ARC
  8
0
 62
7
  6
CONTINUOUS
 10
63.8172305968
 20
148.7486153351
 40
0.75
 50
90.0
 51
180.0
  0
ARC
  8
0
 62
7
  6
CONTINUOUS
 10
68.3172305968
 20
148.7486153351
 40
0.75
 50
0.0
 51
90.0
  0
ARC
  8
SURFACE
 62
7
  6
CONTINUOUS
 10
68.3172305968
 20
148.7486153351
 40
0.75
 50
23.0531653113
 51
67.5285082442
  0
ARC
  8
0
 62
7
  6
CONTINUOUS
 10
81.0172305968
 20
148.7486153351
 40
0.75
 50
0.0
 51
90.0
  0
ARC
  8
SURFACE
 62
7
  6
CONTINUOUS
 10
81.0172305968
 20
148.7486153351
 40
0.75
 50
23.0531653113
 51
67.5285082442
  0
ARC
  8
0
 62
7
  6
CONTINUOUS
 10
93.7172305968
 20
148.7486153351
 40
0.75
 50
0.0
 51
90.0
  0
ARC
  8
SURFACE
 62
7
  6
CONTINUOUS
 10
93.7172305968
 20
148.7486153351
 40
0.75
 50
23.0531656265
 51
67.5285082442
  0
ARC
  8
0
 62
7
  6
CONTINUOUS
 10
174.0172305968
 20
137.2526153351
 40
4.104
 50
180.0
 51
360.0
  0
ARC
  8
0
 62
7
  6
CONTINUOUS
 10
161.3172305968
 20
137.2526153351
 40
4.104
 50
180.0
 51
360.0
  0
ARC
  8
0
 62
7
  6
CONTINUOUS
 10
148.6172305968
 20
137.2526153351
 40
4.104
 50
180.0
 51
360.0
  0
ARC
  8
0
 62
7
  6
CONTINUOUS
 10
135.9172305968
 20
137.2526153351
 40
4.104
 50
180.0
 51
360.0
  0
ARC
  8
0
 62
7
  6
CONTINUOUS
 10
123.2172305968
 20
137.2526153351
 40
4.104
 50
180.0
 51
360.0
  0
ARC
  8
0
 62
7
  6
CONTINUOUS
 10
110.5172305968
 20
137.2526153351
 40
4.104
 50
180.0
 51
360.0
  0
ARC
  8
0
 62
7
  6
CONTINUOUS
 10
170.4132305968
 20
141.436337043
 40
0.5
 50
165.8
 51
180.0
  0
ARC
  8
0
 62
7
  6
CONTINUOUS
 10
157.7132305968
 20
141.436337043
 40
0.5
 50
165.8
 51
180.0
  0
ARC
  8
0
 62
7
  6
CONTINUOUS
 10
164.9212305968
 20
141.436337043
 40
0.5
 50
0.0
 51
14.2
  0
ARC
  8
0
 62
7
  6
CONTINUOUS
 10
145.0132305968
 20
141.436337043
 40
0.5
 50
165.8
 51
180.0
  0
ARC
  8
0
 62
7
  6
CONTINUOUS
 10
152.2212305968
 20
141.436337043
 40
0.5
 50
0.0
 51
14.2
  0
ARC
  8
0
 62
7
  6
CONTINUOUS
 10
132.3132305968
 20
141.436337043
 40
0.5
 50
165.8
 51
180.0
  0
ARC
  8
0
 62
7
  6
CONTINUOUS
 10
139.5212305968
 20
141.436337043
 40
0.5
 50
0.0
 51
14.2
  0
ARC
  8
0
 62
7
  6
CONTINUOUS
 10
119.6132305968
 20
141.436337043
 40
0.5
 50
165.8
 51
180.0
  0
ARC
  8
0
 62
7
  6
CONTINUOUS
 10
126.8212305968
 20
141.436337043
 40
0.5
 50
0.0
 51
14.2
  0
ARC
  8
0
 62
7
  6
CONTINUOUS
 10
106.9132305968
 20
141.436337043
 40
0.5
 50
165.8
 51
180.0
  0
ARC
  8
0
 62
7
  6
CONTINUOUS
 10
114.1212305968
 20
141.436337043
 40
0.5
 50
0.0
 51
14.2
  0
ARC
  8
0
 62
7
  6
CONTINUOUS
 10
101.4212305968
 20
141.436337043
 40
0.5
 50
0.0
 51
14.2
  0
ARC
  8
0
 62
7
  6
CONTINUOUS
 10
132.4172305968
 20
144.4970778099
 40
0.15
 50
345.8
 51
360.0
  0
ARC
  8
0
 62
7
  6
CONTINUOUS
 10
126.7172305968
 20
144.4970778099
 40
0.15
 50
180.0
 51
194.2
  0
ARC
  8
0
 62
7
  6
CONTINUOUS
 10
119.7172305968
 20
144.4970778099
 40
0.15
 50
345.8
 51
360.0
  0
ARC
  8
0
 62
7
  6
CONTINUOUS
 10
114.0172305968
 20
144.4970778099
 40
0.15
 50
180.0
 51
194.2
  0
ARC
  8
0
 62
7
  6
CONTINUOUS
 10
107.0172305968
 20
144.4970778099
 40
0.15
 50
345.8
 51
360.0
  0
ARC
  8
0
 62
7
  6
CONTINUOUS
 10
101.3172305968
 20
144.4970778099
 40
0.15
 50
180.0
 51
194.2
  0
ARC
  8
SURFACE
 62
7
  6
CONTINUOUS
 10
127.3172305968
 20
148.7486153351
 40
0.75
 50
90.0
 51
153.5686351565
  0
ARC
  8
SURFACE
 62
7
  6
CONTINUOUS
 10
114.6172305968
 20
148.7486153351
 40
0.75
 50
90.0
 51
153.5686351565
  0
ARC
  8
SURFACE
 62
7
  6
CONTINUOUS
 10
101.9172305968
 20
148.7486153351
 40
0.75
 50
90.0
 51
153.5686351566
  0
ARC
  8
0
 62
7
  6
CONTINUOUS
 10
127.3172305968
 20
148.7486153351
 40
0.75
 50
90.0
 51
180.0
  0
ARC
  8
0
 62
7
  6
CONTINUOUS
 10
114.6172305968
 20
148.7486153351
 40
0.75
 50
90.0
 51
180.0
  0
ARC
  8
0
 62
7
  6
CONTINUOUS
 10
101.9172305968
 20
148.7486153351
 40
0.75
 50
90.0
 51
180.0
  0
ARC
  8
0
 62
7
  6
CONTINUOUS
 10
106.4172305968
 20
148.7486153351
 40
0.75
 50
0.0
 51
90.0
  0
ARC
  8
SURFACE
 62
7
  6
CONTINUOUS
 10
106.4172305968
 20
148.7486153351
 40
0.75
 50
23.0531652611
 51
67.5285082442
  0
ARC
  8
0
 62
7
  6
CONTINUOUS
 10
119.1172305968
 20
148.7486153351
 40
0.75
 50
0.0
 51
90.0
  0
ARC
  8
SURFACE
 62
7
  6
CONTINUOUS
 10
119.1172305968
 20
148.7486153351
 40
0.75
 50
23.0531652611
 51
67.5285082442
  0
ARC
  8
0
 62
7
  6
CONTINUOUS
 10
131.8172305968
 20
148.7486153351
 40
0.75
 50
0.0
 51
90.0
  0
ARC
  8
SURFACE
 62
7
  6
CONTINUOUS
 10
131.8172305968
 20
148.7486153351
 40
0.75
 50
23.0531652979
 51
67.5285082442
  0
ARC
  8
0
 62
7
  6
CONTINUOUS
 10
170.5172305968
 20
144.4970778099
 40
0.15
 50
345.8
 51
360.0
  0
ARC
  8
0
 62
7
  6
CONTINUOUS
 10
164.8172305968
 20
144.4970778099
 40
0.15
 50
180.0
 51
194.2
  0
ARC
  8
0
 62
7
  6
CONTINUOUS
 10
157.8172305968
 20
144.4970778099
 40
0.15
 50
345.8
 51
360.0
  0
ARC
  8
0
 62
7
  6
CONTINUOUS
 10
152.1172305968
 20
144.4970778099
 40
0.15
 50
180.0
 51
194.2
  0
ARC
  8
0
 62
7
  6
CONTINUOUS
 10
145.1172305968
 20
144.4970778099
 40
0.15
 50
345.8
 51
360.0
  0
ARC
  8
0
 62
7
  6
CONTINUOUS
 10
139.4172305968
 20
144.4970778099
 40
0.15
 50
180.0
 51
194.2
  0
ARC
  8
SURFACE
 62
7
  6
CONTINUOUS
 10
165.4172305968
 20
148.7486153351
 40
0.75
 50
90.0
 51
153.5686351569
  0
ARC
  8
SURFACE
 62
7
  6
CONTINUOUS
 10
152.7172305968
 20
148.7486153351
 40
0.75
 50
90.0
 51
153.5686351569
  0
ARC
  8
SURFACE
 62
7
  6
CONTINUOUS
 10
140.0172305968
 20
148.7486153351
 40
0.75
 50
90.0
 51
153.5686351563
  0
ARC
  8
0
 62
7
  6
CONTINUOUS
 10
165.4172305968
 20
148.7486153351
 40
0.75
 50
90.0
 51
180.0
  0
ARC
  8
0
 62
7
  6
CONTINUOUS
 10
152.7172305968
 20
148.7486153351
 40
0.75
 50
90.0
 51
180.0
  0
ARC
  8
0
 62
7
  6
CONTINUOUS
 10
140.0172305968
 20
148.7486153351
 40
0.75
 50
90.0
 51
180.0
  0
ARC
  8
0
 62
7
  6
CONTINUOUS
 10
144.5172305968
 20
148.7486153351
 40
0.75
 50
0.0
 51
90.0
  0
ARC
  8
SURFACE
 62
7
  6
CONTINUOUS
 10
144.5172305968
 20
148.7486153351
 40
0.75
 50
23.0531652979
 51
67.5285082442
  0
ARC
  8
0
 62
7
  6
CONTINUOUS
 10
157.2172305968
 20
148.7486153351
 40
0.75
 50
0.0
 51
90.0
  0
ARC
  8
SURFACE
 62
7
  6
CONTINUOUS
 10
157.2172305968
 20
148.7486153351
 40
0.75
 50
23.0531657567
 51
67.5285082442
  0
ARC
  8
0
 62
7
  6
CONTINUOUS
 10
169.9172305968
 20
148.7486153351
 40
0.75
 50
0.0
 51
90.0
  0
ARC
  8
SURFACE
 62
7
  6
CONTINUOUS
 10
169.9172305968
 20
148.7486153351
 40
0.75
 50
23.0531656904
 51
67.5285082442
  0
ARC
  8
0
 62
7
  6
CONTINUOUS
 10
209.6172305968
 20
116.9491255924
 40
0.5
 50
180.0
 51
224.4153085972
  0
ARC
  8
0
 62
7
  6
CONTINUOUS
 10
214.6172305968
 20
116.9491255924
 40
0.5
 50
315.5846914028
 51
360.0
  0
ARC
  8
0
 62
7
  6
CONTINUOUS
 10
196.9172305968
 20
116.9491255924
 40
0.5
 50
180.0
 51
224.4153085972
  0
ARC
  8
0
 62
7
  6
CONTINUOUS
 10
201.9172305968
 20
116.9491255924
 40
0.5
 50
315.5846914028
 51
360.0
  0
ARC
  8
0
 62
7
  6
CONTINUOUS
 10
184.2172305968
 20
116.9491255924
 40
0.5
 50
180.0
 51
224.4153085972
  0
ARC
  8
0
 62
7
  6
CONTINUOUS
 10
189.2172305968
 20
116.9491255924
 40
0.5
 50
315.5846914028
 51
360.0
  0
ARC
  8
0
 62
7
  6
CONTINUOUS
 10
186.7172305968
 20
119.3986153351
 40
4.0
 50
224.4153085972
 51
315.5846914028
  0
ARC
  8
SURFACE
 62
7
  6
CONTINUOUS
 10
186.7172305968
 20
119.3986153351
 40
4.0
 50
270.0
 51
283.7894961442
  0
ARC
  8
SURFACE
 62
7
  6
CONTINUOUS
 10
186.7172305968
 20
119.3986153351
 40
4.0
 50
256.0143711212
 51
256.1825080399
  0
ARC
  8
0
 62
7
  6
CONTINUOUS
 10
199.4172305968
 20
119.3986153351
 40
4.0
 50
224.4153085972
 51
315.5846914028
  0
ARC
  8
SURFACE
 62
7
  6
CONTINUOUS
 10
199.4172305968
 20
119.3986153351
 40
4.0
 50
270.0
 51
283.7894961442
  0
ARC
  8
SURFACE
 62
7
  6
CONTINUOUS
 10
199.4172305968
 20
119.3986153351
 40
4.0
 50
256.0143711213
 51
256.1825080399
  0
ARC
  8
0
 62
7
  6
CONTINUOUS
 10
212.1172305968
 20
119.3986153351
 40
4.0
 50
224.4153085972
 51
315.5846914028
  0
ARC
  8
SURFACE
 62
7
  6
CONTINUOUS
 10
212.1172305968
 20
119.3986153351
 40
4.0
 50
270.0
 51
283.7894961442
  0
ARC
  8
SURFACE
 62
7
  6
CONTINUOUS
 10
212.1172305968
 20
119.3986153351
 40
4.0
 50
256.0143711205
 51
256.1825080401
  0
ARC
  8
0
 62
7
  6
CONTINUOUS
 10
209.2672305968
 20
120.4230174691
 40
0.15
 50
165.8
 51
180.0
  0
ARC
  8
0
 62
7
  6
CONTINUOUS
 10
214.9672305968
 20
120.4230174691
 40
0.15
 50
0.0
 51
14.2
  0
ARC
  8
0
 62
7
  6
CONTINUOUS
 10
196.5672305968
 20
120.4230174691
 40
0.15
 50
165.8
 51
180.0
  0
ARC
  8
0
 62
7
  6
CONTINUOUS
 10
202.2672305968
 20
120.4230174691
 40
0.15
 50
0.0
 51
14.2
  0
ARC
  8
0
 62
7
  6
CONTINUOUS
 10
183.8672305968
 20
120.4230174691
 40
0.15
 50
165.8
 51
180.0
  0
ARC
  8
0
 62
7
  6
CONTINUOUS
 10
189.5672305968
 20
120.4230174691
 40
0.15
 50
0.0
 51
14.2
  0
ARC
  8
0
 62
7
  6
CONTINUOUS
 10
247.7172305968
 20
116.9491255924
 40
0.5
 50
180.0
 51
224.4153085972
  0
ARC
  8
0
 62
7
  6
CONTINUOUS
 10
252.7172305968
 20
116.9491255924
 40
0.5
 50
315.5846914028
 51
360.0
  0
ARC
  8
0
 62
7
  6
CONTINUOUS
 10
235.0172305968
 20
116.9491255924
 40
0.5
 50
180.0
 51
224.4153085972
  0
ARC
  8
0
 62
7
  6
CONTINUOUS
 10
240.0172305968
 20
116.9491255924
 40
0.5
 50
315.5846914028
 51
360.0
  0
ARC
  8
0
 62
7
  6
CONTINUOUS
 10
222.3172305968
 20
116.9491255924
 40
0.5
 50
180.0
 51
224.4153085972
  0
ARC
  8
0
 62
7
  6
CONTINUOUS
 10
227.3172305968
 20
116.9491255924
 40
0.5
 50
315.5846914028
 51
360.0
  0
ARC
  8
0
 62
7
  6
CONTINUOUS
 10
224.8172305968
 20
119.3986153351
 40
4.0
 50
224.4153085972
 51
315.5846914028
  0
ARC
  8
SURFACE
 62
7
  6
CONTINUOUS
 10
224.8172305968
 20
119.3986153351
 40
4.0
 50
270.0
 51
283.7894961442
  0
ARC
  8
SURFACE
 62
7
  6
CONTINUOUS
 10
224.8172305968
 20
119.3986153351
 40
4.0
 50
256.0143711205
 51
256.1825080401
  0
ARC
  8
0
 62
7
  6
CONTINUOUS
 10
237.5172305968
 20
119.3986153351
 40
4.0
 50
224.4153085972
 51
315.5846914028
  0
ARC
  8
SURFACE
 62
7
  6
CONTINUOUS
 10
237.5172305968
 20
119.3986153351
 40
4.0
 50
270.0
 51
283.7894961442
  0
ARC
  8
SURFACE
 62
7
  6
CONTINUOUS
 10
237.5172305968
 20
119.3986153351
 40
4.0
 50
256.0143711212
 51
256.1825080399
  0
ARC
  8
0
 62
7
  6
CONTINUOUS
 10
250.2172305968
 20
119.3986153351
 40
4.0
 50
224.4153085972
 51
315.5846914028
  0
ARC
  8
SURFACE
 62
7
  6
CONTINUOUS
 10
250.2172305968
 20
119.3986153351
 40
4.0
 50
270.0
 51
283.7894961442
  0
ARC
  8
SURFACE
 62
7
  6
CONTINUOUS
 10
250.2172305968
 20
119.3986153351
 40
4.0
 50
256.0143711212
 51
256.1825080399
  0
ARC
  8
0
 62
7
  6
CONTINUOUS
 10
247.3672305968
 20
120.4230174691
 40
0.15
 50
165.8
 51
180.0
  0
ARC
  8
0
 62
7
  6
CONTINUOUS
 10
253.0672305968
 20
120.4230174691
 40
0.15
 50
0.0
 51
14.2
  0
ARC
  8
0
 62
7
  6
CONTINUOUS
 10
234.6672305968
 20
120.4230174691
 40
0.15
 50
165.8
 51
180.0
  0
ARC
  8
0
 62
7
  6
CONTINUOUS
 10
240.3672305968
 20
120.4230174691
 40
0.15
 50
0.0
 51
14.2
  0
ARC
  8
0
 62
7
  6
CONTINUOUS
 10
221.9672305968
 20
120.4230174691
 40
0.15
 50
165.8
 51
180.0
  0
ARC
  8
0
 62
7
  6
CONTINUOUS
 10
227.6672305968
 20
120.4230174691
 40
0.15
 50
0.0
 51
14.2
  0
ARC
  8
0
 62
7
  6
CONTINUOUS
 10
245.9672305968
 20
129.6646153351
 40
2.0
 50
0.0
 51
90.0
  0
ARC
  8
0
 62
7
  6
CONTINUOUS
 10
241.7672305968
 20
129.6646153351
 40
2.0
 50
90.0
 51
180.0
  0
ARC
  8
0
 62
7
  6
CONTINUOUS
 10
233.2672305968
 20
129.6646153351
 40
2.0
 50
0.0
 51
90.0
  0
ARC
  8
0
 62
7
  6
CONTINUOUS
 10
229.0672305968
 20
129.6646153351
 40
2.0
 50
90.0
 51
180.0
  0
ARC
  8
0
 62
7
  6
CONTINUOUS
 10
220.5672305968
 20
129.6646153351
 40
2.0
 50
0.0
 51
90.0
  0
ARC
  8
0
 62
7
  6
CONTINUOUS
 10
216.3672305968
 20
129.6646153351
 40
2.0
 50
90.0
 51
180.0
  0
ARC
  8
0
 62
7
  6
CONTINUOUS
 10
207.8672305968
 20
129.6646153351
 40
2.0
 50
0.0
 51
90.0
  0
ARC
  8
0
 62
7
  6
CONTINUOUS
 10
203.6672305968
 20
129.6646153351
 40
2.0
 50
90.0
 51
180.0
  0
ARC
  8
0
 62
7
  6
CONTINUOUS
 10
195.1672305968
 20
129.6646153351
 40
2.0
 50
0.0
 51
90.0
  0
ARC
  8
0
 62
7
  6
CONTINUOUS
 10
190.9672305968
 20
129.6646153351
 40
2.0
 50
90.0
 51
180.0
  0
ARC
  8
0
 62
7
  6
CONTINUOUS
 10
182.4672305968
 20
129.6646153351
 40
2.0
 50
0.0
 51
90.0
  0
ARC
  8
0
 62
7
  6
CONTINUOUS
 10
178.2672305968
 20
129.6646153351
 40
2.0
 50
90.0
 51
180.0
  0
ARC
  8
0
 62
7
  6
CONTINUOUS
 10
247.4672305968
 20
123.46795039
 40
0.5
 50
345.8
 51
360.0
  0
ARC
  8
0
 62
7
  6
CONTINUOUS
 10
252.9672305968
 20
123.46795039
 40
0.5
 50
180.0
 51
194.2
  0
ARC
  8
0
 62
7
  6
CONTINUOUS
 10
234.7672305968
 20
123.46795039
 40
0.5
 50
345.8
 51
360.0
  0
ARC
  8
0
 62
7
  6
CONTINUOUS
 10
240.2672305968
 20
123.46795039
 40
0.5
 50
180.0
 51
194.2
  0
ARC
  8
0
 62
7
  6
CONTINUOUS
 10
222.0672305968
 20
123.46795039
 40
0.5
 50
345.8
 51
360.0
  0
ARC
  8
0
 62
7
  6
CONTINUOUS
 10
227.5672305968
 20
123.46795039
 40
0.5
 50
180.0
 51
194.2
  0
ARC
  8
0
 62
7
  6
CONTINUOUS
 10
209.3672305968
 20
123.46795039
 40
0.5
 50
345.8
 51
360.0
  0
ARC
  8
0
 62
7
  6
CONTINUOUS
 10
214.8672305968
 20
123.46795039
 40
0.5
 50
180.0
 51
194.2
  0
ARC
  8
0
 62
7
  6
CONTINUOUS
 10
196.6672305968
 20
123.46795039
 40
0.5
 50
345.8
 51
360.0
  0
ARC
  8
0
 62
7
  6
CONTINUOUS
 10
202.1672305968
 20
123.46795039
 40
0.5
 50
180.0
 51
194.2
  0
ARC
  8
0
 62
7
  6
CONTINUOUS
 10
183.9672305968
 20
123.46795039
 40
0.5
 50
345.8
 51
360.0
  0
ARC
  8
0
 62
7
  6
CONTINUOUS
 10
189.4672305968
 20
123.46795039
 40
0.5
 50
180.0
 51
194.2
  0
ARC
  8
0
 62
7
  6
CONTINUOUS
 10
285.8172305968
 20
116.9491255924
 40
0.5
 50
180.0
 51
224.4153085972
  0
ARC
  8
0
 62
7
  6
CONTINUOUS
 10
290.8172305968
 20
116.9491255924
 40
0.5
 50
315.5846914028
 51
360.0
  0
ARC
  8
0
 62
7
  6
CONTINUOUS
 10
273.1172305968
 20
116.9491255924
 40
0.5
 50
180.0
 51
224.4153085972
  0
ARC
  8
0
 62
7
  6
CONTINUOUS
 10
278.1172305968
 20
116.9491255924
 40
0.5
 50
315.5846914028
 51
360.0
  0
ARC
  8
0
 62
7
  6
CONTINUOUS
 10
260.4172305968
 20
116.9491255924
 40
0.5
 50
180.0
 51
224.4153085972
  0
ARC
  8
0
 62
7
  6
CONTINUOUS
 10
265.4172305968
 20
116.9491255924
 40
0.5
 50
315.5846914028
 51
360.0
  0
ARC
  8
0
 62
7
  6
CONTINUOUS
 10
262.9172305968
 20
119.3986153351
 40
4.0
 50
224.4153085972
 51
315.5846914028
  0
ARC
  8
SURFACE
 62
7
  6
CONTINUOUS
 10
262.9172305968
 20
119.3986153351
 40
4.0
 50
270.0
 51
283.7894961441
  0
ARC
  8
SURFACE
 62
7
  6
CONTINUOUS
 10
262.9172305968
 20
119.3986153351
 40
4.0
 50
256.0143711201
 51
256.1825080402
  0
ARC
  8
0
 62
7
  6
CONTINUOUS
 10
275.6172305968
 20
119.3986153351
 40
4.0
 50
224.4153085972
 51
315.5846914028
  0
ARC
  8
SURFACE
 62
7
  6
CONTINUOUS
 10
275.6172305968
 20
119.3986153351
 40
4.0
 50
270.0
 51
283.7894961441
  0
ARC
  8
SURFACE
 62
7
  6
CONTINUOUS
 10
275.6172305968
 20
119.3986153351
 40
4.0
 50
256.0143711201
 51
256.1825080402
  0
ARC
  8
SURFACE
 62
7
  6
CONTINUOUS
 10
288.3172305968
 20
119.3986153351
 40
4.0
 50
256.0143711201
 51
256.1825080402
  0
ARC
  8
SURFACE
 62
7
  6
CONTINUOUS
 10
288.3172305968
 20
119.3986153351
 40
4.0
 50
270.0
 51
283.7894961441
  0
ARC
  8
0
 62
7
  6
CONTINUOUS
 10
288.3172305968
 20
119.3986153351
 40
4.0
 50
224.4153085972
 51
315.5846914028
  0
ARC
  8
0
 62
7
  6
CONTINUOUS
 10
285.4672305968
 20
120.4230174691
 40
0.15
 50
165.8
 51
180.0
  0
ARC
  8
0
 62
7
  6
CONTINUOUS
 10
291.1672305968
 20
120.4230174691
 40
0.15
 50
0.0
 51
14.2
  0
ARC
  8
0
 62
7
  6
CONTINUOUS
 10
272.7672305968
 20
120.4230174691
 40
0.15
 50
165.8
 51
180.0
  0
ARC
  8
0
 62
7
  6
CONTINUOUS
 10
278.4672305968
 20
120.4230174691
 40
0.15
 50
0.0
 51
14.2
  0
ARC
  8
0
 62
7
  6
CONTINUOUS
 10
260.0672305968
 20
120.4230174691
 40
0.15
 50
165.8
 51
180.0
  0
ARC
  8
0
 62
7
  6
CONTINUOUS
 10
265.7672305968
 20
120.4230174691
 40
0.15
 50
0.0
 51
14.2
  0
ARC
  8
0
 62
7
  6
CONTINUOUS
 10
323.9172305968
 20
116.9491255924
 40
0.5
 50
180.0
 51
224.4153085972
  0
ARC
  8
0
 62
7
  6
CONTINUOUS
 10
328.9172305968
 20
116.9491255924
 40
0.5
 50
315.5846914028
 51
360.0
  0
ARC
  8
0
 62
7
  6
CONTINUOUS
 10
311.2172305968
 20
116.9491255924
 40
0.5
 50
180.0
 51
224.4153085972
  0
ARC
  8
0
 62
7
  6
CONTINUOUS
 10
316.2172305968
 20
116.9491255924
 40
0.5
 50
315.5846914028
 51
360.0
  0
ARC
  8
0
 62
7
  6
CONTINUOUS
 10
298.5172305968
 20
116.9491255924
 40
0.5
 50
180.0
 51
224.4153085972
  0
ARC
  8
0
 62
7
  6
CONTINUOUS
 10
303.5172305968
 20
116.9491255924
 40
0.5
 50
315.5846914028
 51
360.0
  0
ARC
  8
SURFACE
 62
7
  6
CONTINUOUS
 10
326.4172305968
 20
119.3986153351
 40
4.0
 50
256.0143711204
 51
256.1825080401
  0
ARC
  8
SURFACE
 62
7
  6
CONTINUOUS
 10
326.4172305968
 20
119.3986153351
 40
4.0
 50
270.0
 51
283.789496144
  0
ARC
  8
0
 62
7
  6
CONTINUOUS
 10
326.4172305968
 20
119.3986153351
 40
4.0
 50
224.4153085972
 51
315.5846914028
  0
ARC
  8
SURFACE
 62
7
  6
CONTINUOUS
 10
313.7172305968
 20
119.3986153351
 40
4.0
 50
256.0143711214
 51
256.1825080399
  0
ARC
  8
SURFACE
 62
7
  6
CONTINUOUS
 10
313.7172305968
 20
119.3986153351
 40
4.0
 50
270.0
 51
283.7894961442
  0
ARC
  8
0
 62
7
  6
CONTINUOUS
 10
313.7172305968
 20
119.3986153351
 40
4.0
 50
224.4153085972
 51
315.5846914028
  0
ARC
  8
SURFACE
 62
7
  6
CONTINUOUS
 10
301.0172305968
 20
119.3986153351
 40
4.0
 50
256.0143711213
 51
256.1825080399
  0
ARC
  8
SURFACE
 62
7
  6
CONTINUOUS
 10
301.0172305968
 20
119.3986153351
 40
4.0
 50
270.0
 51
283.7894961442
  0
ARC
  8
0
 62
7
  6
CONTINUOUS
 10
301.0172305968
 20
119.3986153351
 40
4.0
 50
224.4153085972
 51
315.5846914028
  0
ARC
  8
0
 62
7
  6
CONTINUOUS
 10
323.5672305968
 20
120.4230174691
 40
0.15
 50
165.8
 51
180.0
  0
ARC
  8
0
 62
7
  6
CONTINUOUS
 10
329.2672305968
 20
120.4230174691
 40
0.15
 50
0.0
 51
14.2
  0
ARC
  8
0
 62
7
  6
CONTINUOUS
 10
310.8672305968
 20
120.4230174691
 40
0.15
 50
165.8
 51
180.0
  0
ARC
  8
0
 62
7
  6
CONTINUOUS
 10
316.5672305968
 20
120.4230174691
 40
0.15
 50
0.0
 51
14.2
  0
ARC
  8
0
 62
7
  6
CONTINUOUS
 10
298.1672305968
 20
120.4230174691
 40
0.15
 50
165.8
 51
180.0
  0
ARC
  8
0
 62
7
  6
CONTINUOUS
 10
303.8672305968
 20
120.4230174691
 40
0.15
 50
0.0
 51
14.2
  0
ARC
  8
0
 62
7
  6
CONTINUOUS
 10
322.1672305968
 20
129.6646153351
 40
2.0
 50
0.0
 51
90.0
  0
ARC
  8
0
 62
7
  6
CONTINUOUS
 10
317.9672305968
 20
129.6646153351
 40
2.0
 50
90.0
 51
180.0
  0
ARC
  8
0
 62
7
  6
CONTINUOUS
 10
309.4672305968
 20
129.6646153351
 40
2.0
 50
0.0
 51
90.0
  0
ARC
  8
0
 62
7
  6
CONTINUOUS
 10
305.2672305968
 20
129.6646153351
 40
2.0
 50
90.0
 51
180.0
  0
ARC
  8
0
 62
7
  6
CONTINUOUS
 10
296.7672305968
 20
129.6646153351
 40
2.0
 50
0.0
 51
90.0
  0
ARC
  8
0
 62
7
  6
CONTINUOUS
 10
292.5672305968
 20
129.6646153351
 40
2.0
 50
90.0
 51
180.0
  0
ARC
  8
0
 62
7
  6
CONTINUOUS
 10
284.0672305968
 20
129.6646153351
 40
2.0
 50
0.0
 51
90.0
  0
ARC
  8
0
 62
7
  6
CONTINUOUS
 10
279.8672305968
 20
129.6646153351
 40
2.0
 50
90.0
 51
180.0
  0
ARC
  8
0
 62
7
  6
CONTINUOUS
 10
271.3672305968
 20
129.6646153351
 40
2.0
 50
0.0
 51
90.0
  0
ARC
  8
0
 62
7
  6
CONTINUOUS
 10
267.1672305968
 20
129.6646153351
 40
2.0
 50
90.0
 51
180.0
  0
ARC
  8
0
 62
7
  6
CONTINUOUS
 10
258.6672305968
 20
129.6646153351
 40
2.0
 50
0.0
 51
90.0
  0
ARC
  8
0
 62
7
  6
CONTINUOUS
 10
254.4672305968
 20
129.6646153351
 40
2.0
 50
90.0
 51
180.0
  0
ARC
  8
0
 62
7
  6
CONTINUOUS
 10
323.6672305968
 20
123.46795039
 40
0.5
 50
345.8
 51
360.0
  0
ARC
  8
0
 62
7
  6
CONTINUOUS
 10
329.1672305968
 20
123.46795039
 40
0.5
 50
180.0
 51
194.2
  0
ARC
  8
0
 62
7
  6
CONTINUOUS
 10
310.9672305968
 20
123.46795039
 40
0.5
 50
345.8
 51
360.0
  0
ARC
  8
0
 62
7
  6
CONTINUOUS
 10
316.4672305968
 20
123.46795039
 40
0.5
 50
180.0
 51
194.2
  0
ARC
  8
0
 62
7
  6
CONTINUOUS
 10
298.2672305968
 20
123.46795039
 40
0.5
 50
345.8
 51
360.0
  0
ARC
  8
0
 62
7
  6
CONTINUOUS
 10
303.7672305968
 20
123.46795039
 40
0.5
 50
180.0
 51
194.2
  0
ARC
  8
0
 62
7
  6
CONTINUOUS
 10
285.5672305968
 20
123.46795039
 40
0.5
 50
345.8
 51
360.0
  0
ARC
  8
0
 62
7
  6
CONTINUOUS
 10
291.0672305968
 20
123.46795039
 40
0.5
 50
180.0
 51
194.2
  0
ARC
  8
0
 62
7
  6
CONTINUOUS
 10
272.8672305968
 20
123.46795039
 40
0.5
 50
345.8
 51
360.0
  0
ARC
  8
0
 62
7
  6
CONTINUOUS
 10
278.3672305968
 20
123.46795039
 40
0.5
 50
180.0
 51
194.2
  0
ARC
  8
0
 62
7
  6
CONTINUOUS
 10
260.1672305968
 20
123.46795039
 40
0.5
 50
345.8
 51
360.0
  0
ARC
  8
0
 62
7
  6
CONTINUOUS
 10
265.6672305968
 20
123.46795039
 40
0.5
 50
180.0
 51
194.2
  0
ARC
  8
0
 62
7
  6
CONTINUOUS
 10
250.2172305968
 20
137.2526153351
 40
4.104
 50
180.0
 51
360.0
  0
ARC
  8
0
 62
7
  6
CONTINUOUS
 10
237.5172305968
 20
137.2526153351
 40
4.104
 50
180.0
 51
360.0
  0
ARC
  8
0
 62
7
  6
CONTINUOUS
 10
224.8172305968
 20
137.2526153351
 40
4.104
 50
180.0
 51
360.0
  0
ARC
  8
0
 62
7
  6
CONTINUOUS
 10
212.1172305968
 20
137.2526153351
 40
4.104
 50
180.0
 51
360.0
  0
ARC
  8
0
 62
7
  6
CONTINUOUS
 10
199.4172305968
 20
137.2526153351
 40
4.104
 50
180.0
 51
360.0
  0
ARC
  8
0
 62
7
  6
CONTINUOUS
 10
186.7172305968
 20
137.2526153351
 40
4.104
 50
180.0
 51
360.0
  0
ARC
  8
0
 62
7
  6
CONTINUOUS
 10
208.5132305968
 20
141.436337043
 40
0.5
 50
165.8
 51
180.0
  0
ARC
  8
0
 62
7
  6
CONTINUOUS
 10
195.8132305968
 20
141.436337043
 40
0.5
 50
165.8
 51
180.0
  0
ARC
  8
0
 62
7
  6
CONTINUOUS
 10
203.0212305968
 20
141.436337043
 40
0.5
 50
0.0
 51
14.2
  0
ARC
  8
0
 62
7
  6
CONTINUOUS
 10
183.1132305968
 20
141.436337043
 40
0.5
 50
165.8
 51
180.0
  0
ARC
  8
0
 62
7
  6
CONTINUOUS
 10
190.3212305968
 20
141.436337043
 40
0.5
 50
0.0
 51
14.2
  0
ARC
  8
0
 62
7
  6
CONTINUOUS
 10
177.6212305968
 20
141.436337043
 40
0.5
 50
0.0
 51
14.2
  0
ARC
  8
0
 62
7
  6
CONTINUOUS
 10
208.6172305968
 20
144.4970778099
 40
0.15
 50
345.8
 51
360.0
  0
ARC
  8
0
 62
7
  6
CONTINUOUS
 10
202.9172305968
 20
144.4970778099
 40
0.15
 50
180.0
 51
194.2
  0
ARC
  8
0
 62
7
  6
CONTINUOUS
 10
195.9172305968
 20
144.4970778099
 40
0.15
 50
345.8
 51
360.0
  0
ARC
  8
0
 62
7
  6
CONTINUOUS
 10
190.2172305968
 20
144.4970778099
 40
0.15
 50
180.0
 51
194.2
  0
ARC
  8
0
 62
7
  6
CONTINUOUS
 10
183.2172305968
 20
144.4970778099
 40
0.15
 50
345.8
 51
360.0
  0
ARC
  8
0
 62
7
  6
CONTINUOUS
 10
177.5172305968
 20
144.4970778099
 40
0.15
 50
180.0
 51
194.2
  0
ARC
  8
SURFACE
 62
7
  6
CONTINUOUS
 10
203.5172305968
 20
148.7486153351
 40
0.75
 50
90.0
 51
153.5686351569
  0
ARC
  8
SURFACE
 62
7
  6
CONTINUOUS
 10
190.8172305968
 20
148.7486153351
 40
0.75
 50
90.0
 51
153.5686351569
  0
ARC
  8
SURFACE
 62
7
  6
CONTINUOUS
 10
178.1172305968
 20
148.7486153351
 40
0.75
 50
90.0
 51
153.5686351581
  0
ARC
  8
0
 62
7
  6
CONTINUOUS
 10
203.5172305968
 20
148.7486153351
 40
0.75
 50
90.0
 51
180.0
  0
ARC
  8
0
 62
7
  6
CONTINUOUS
 10
190.8172305968
 20
148.7486153351
 40
0.75
 50
90.0
 51
180.0
  0
ARC
  8
0
 62
7
  6
CONTINUOUS
 10
178.1172305968
 20
148.7486153351
 40
0.75
 50
90.0
 51
180.0
  0
ARC
  8
0
 62
7
  6
CONTINUOUS
 10
182.6172305968
 20
148.7486153351
 40
0.75
 50
0.0
 51
90.0
  0
ARC
  8
SURFACE
 62
7
  6
CONTINUOUS
 10
182.6172305968
 20
148.7486153351
 40
0.75
 50
23.0531656904
 51
67.5285082442
  0
ARC
  8
0
 62
7
  6
CONTINUOUS
 10
195.3172305968
 20
148.7486153351
 40
0.75
 50
0.0
 51
90.0
  0
ARC
  8
SURFACE
 62
7
  6
CONTINUOUS
 10
195.3172305968
 20
148.7486153351
 40
0.75
 50
23.0531657567
 51
67.5285082442
  0
ARC
  8
0
 62
7
  6
CONTINUOUS
 10
208.0172305968
 20
148.7486153351
 40
0.75
 50
0.0
 51
90.0
  0
ARC
  8
SURFACE
 62
7
  6
CONTINUOUS
 10
208.0172305968
 20
148.7486153351
 40
0.75
 50
23.0531652979
 51
67.5285082442
  0
ARC
  8
0
 62
7
  6
CONTINUOUS
 10
246.6132305968
 20
141.436337043
 40
0.5
 50
165.8
 51
180.0
  0
ARC
  8
0
 62
7
  6
CONTINUOUS
 10
233.9132305968
 20
141.436337043
 40
0.5
 50
165.8
 51
180.0
  0
ARC
  8
0
 62
7
  6
CONTINUOUS
 10
241.1212305968
 20
141.436337043
 40
0.5
 50
0.0
 51
14.2
  0
ARC
  8
0
 62
7
  6
CONTINUOUS
 10
221.2132305968
 20
141.436337043
 40
0.5
 50
165.8
 51
180.0
  0
ARC
  8
0
 62
7
  6
CONTINUOUS
 10
228.4212305968
 20
141.436337043
 40
0.5
 50
0.0
 51
14.2
  0
ARC
  8
0
 62
7
  6
CONTINUOUS
 10
215.7212305968
 20
141.436337043
 40
0.5
 50
0.0
 51
14.2
  0
ARC
  8
0
 62
7
  6
CONTINUOUS
 10
246.7172305968
 20
144.4970778099
 40
0.15
 50
345.8
 51
360.0
  0
ARC
  8
0
 62
7
  6
CONTINUOUS
 10
241.0172305968
 20
144.4970778099
 40
0.15
 50
180.0
 51
194.2
  0
ARC
  8
0
 62
7
  6
CONTINUOUS
 10
234.0172305968
 20
144.4970778099
 40
0.15
 50
345.8
 51
360.0
  0
ARC
  8
0
 62
7
  6
CONTINUOUS
 10
228.3172305968
 20
144.4970778099
 40
0.15
 50
180.0
 51
194.2
  0
ARC
  8
0
 62
7
  6
CONTINUOUS
 10
221.3172305968
 20
144.4970778099
 40
0.15
 50
345.8
 51
360.0
  0
ARC
  8
0
 62
7
  6
CONTINUOUS
 10
215.6172305968
 20
144.4970778099
 40
0.15
 50
180.0
 51
194.2
  0
ARC
  8
SURFACE
 62
7
  6
CONTINUOUS
 10
241.6172305968
 20
148.7486153351
 40
0.75
 50
90.0
 51
153.5686351565
  0
ARC
  8
SURFACE
 62
7
  6
CONTINUOUS
 10
228.9172305968
 20
148.7486153351
 40
0.75
 50
90.0
 51
153.5686351565
  0
ARC
  8
SURFACE
 62
7
  6
CONTINUOUS
 10
216.2172305968
 20
148.7486153351
 40
0.75
 50
90.0
 51
153.5686351564
  0
ARC
  8
0
 62
7
  6
CONTINUOUS
 10
241.6172305968
 20
148.7486153351
 40
0.75
 50
90.0
 51
180.0
  0
ARC
  8
0
 62
7
  6
CONTINUOUS
 10
228.9172305968
 20
148.7486153351
 40
0.75
 50
90.0
 51
180.0
  0
ARC
  8
0
 62
7
  6
CONTINUOUS
 10
216.2172305968
 20
148.7486153351
 40
0.75
 50
90.0
 51
180.0
  0
ARC
  8
0
 62
7
  6
CONTINUOUS
 10
220.7172305968
 20
148.7486153351
 40
0.75
 50
0.0
 51
90.0
  0
ARC
  8
SURFACE
 62
7
  6
CONTINUOUS
 10
220.7172305968
 20
148.7486153351
 40
0.75
 50
23.0531652979
 51
67.5285082442
  0
ARC
  8
0
 62
7
  6
CONTINUOUS
 10
233.4172305968
 20
148.7486153351
 40
0.75
 50
0.0
 51
90.0
  0
ARC
  8
SURFACE
 62
7
  6
CONTINUOUS
 10
233.4172305968
 20
148.7486153351
 40
0.75
 50
23.0531652611
 51
67.5285082442
  0
ARC
  8
0
 62
7
  6
CONTINUOUS
 10
246.1172305968
 20
148.7486153351
 40
0.75
 50
0.0
 51
90.0
  0
ARC
  8
SURFACE
 62
7
  6
CONTINUOUS
 10
246.1172305968
 20
148.7486153351
 40
0.75
 50
23.0531656265
 51
67.5285082442
  0
ARC
  8
0
 62
7
  6
CONTINUOUS
 10
326.4172305968
 20
137.2526153351
 40
4.104
 50
180.0
 51
299.3504472819
  0
ARC
  8
0
 62
7
  6
CONTINUOUS
 10
313.7172305968
 20
137.2526153351
 40
4.104
 50
180.0
 51
360.0
  0
ARC
  8
0
 62
7
  6
CONTINUOUS
 10
301.0172305968
 20
137.2526153351
 40
4.104
 50
180.0
 51
360.0
  0
ARC
  8
0
 62
7
  6
CONTINUOUS
 10
288.3172305968
 20
137.2526153351
 40
4.104
 50
180.0
 51
360.0
  0
ARC
  8
0
 62
7
  6
CONTINUOUS
 10
275.6172305968
 20
137.2526153351
 40
4.104
 50
180.0
 51
360.0
  0
ARC
  8
0
 62
7
  6
CONTINUOUS
 10
262.9172305968
 20
137.2526153351
 40
4.104
 50
180.0
 51
360.0
  0
ARC
  8
0
 62
7
  6
CONTINUOUS
 10
328.5072305968
 20
133.5359507014
 40
0.16
 50
0.0
 51
119.3504472819
  0
ARC
  8
0
 62
7
  6
CONTINUOUS
 10
284.7132305968
 20
141.436337043
 40
0.5
 50
165.8
 51
180.0
  0
ARC
  8
0
 62
7
  6
CONTINUOUS
 10
272.0132305968
 20
141.436337043
 40
0.5
 50
165.8
 51
180.0
  0
ARC
  8
0
 62
7
  6
CONTINUOUS
 10
279.2212305968
 20
141.436337043
 40
0.5
 50
0.0
 51
14.2
  0
ARC
  8
0
 62
7
  6
CONTINUOUS
 10
259.3132305968
 20
141.436337043
 40
0.5
 50
165.8
 51
180.0
  0
ARC
  8
0
 62
7
  6
CONTINUOUS
 10
266.5212305968
 20
141.436337043
 40
0.5
 50
0.0
 51
14.2
  0
ARC
  8
0
 62
7
  6
CONTINUOUS
 10
253.8212305968
 20
141.436337043
 40
0.5
 50
0.0
 51
14.2
  0
ARC
  8
0
 62
7
  6
CONTINUOUS
 10
284.8172305968
 20
144.4970778099
 40
0.15
 50
345.8
 51
360.0
  0
ARC
  8
0
 62
7
  6
CONTINUOUS
 10
279.1172305968
 20
144.4970778099
 40
0.15
 50
180.0
 51
194.2
  0
ARC
  8
0
 62
7
  6
CONTINUOUS
 10
272.1172305968
 20
144.4970778099
 40
0.15
 50
345.8
 51
360.0
  0
ARC
  8
0
 62
7
  6
CONTINUOUS
 10
266.4172305968
 20
144.4970778099
 40
0.15
 50
180.0
 51
194.2
  0
ARC
  8
0
 62
7
  6
CONTINUOUS
 10
259.4172305968
 20
144.4970778099
 40
0.15
 50
345.8
 51
360.0
  0
ARC
  8
0
 62
7
  6
CONTINUOUS
 10
253.7172305968
 20
144.4970778099
 40
0.15
 50
180.0
 51
194.2
  0
ARC
  8
SURFACE
 62
7
  6
CONTINUOUS
 10
279.7172305968
 20
148.7486153351
 40
0.75
 50
90.0
 51
153.5686351563
  0
ARC
  8
SURFACE
 62
7
  6
CONTINUOUS
 10
267.0172305968
 20
148.7486153351
 40
0.75
 50
90.0
 51
153.5686351566
  0
ARC
  8
SURFACE
 62
7
  6
CONTINUOUS
 10
254.3172305968
 20
148.7486153351
 40
0.75
 50
90.0
 51
153.5686351566
  0
ARC
  8
0
 62
7
  6
CONTINUOUS
 10
279.7172305968
 20
148.7486153351
 40
0.75
 50
90.0
 51
180.0
  0
ARC
  8
0
 62
7
  6
CONTINUOUS
 10
267.0172305968
 20
148.7486153351
 40
0.75
 50
90.0
 51
180.0
  0
ARC
  8
0
 62
7
  6
CONTINUOUS
 10
254.3172305968
 20
148.7486153351
 40
0.75
 50
90.0
 51
180.0
  0
ARC
  8
0
 62
7
  6
CONTINUOUS
 10
258.8172305968
 20
148.7486153351
 40
0.75
 50
0.0
 51
90.0
  0
ARC
  8
SURFACE
 62
7
  6
CONTINUOUS
 10
258.8172305968
 20
148.7486153351
 40
0.75
 50
23.0531656265
 51
67.5285082442
  0
ARC
  8
SURFACE
 62
7
  6
CONTINUOUS
 10
284.2172305968
 20
148.7486153351
 40
0.75
 50
23.0531653113
 51
67.5285082442
  0
ARC
  8
0
 62
7
  6
CONTINUOUS
 10
284.2172305968
 20
148.7486153351
 40
0.75
 50
0.0
 51
90.0
  0
ARC
  8
SURFACE
 62
7
  6
CONTINUOUS
 10
271.5172305968
 20
148.7486153351
 40
0.75
 50
23.0531653113
 51
67.5285082442
  0
ARC
  8
0
 62
7
  6
CONTINUOUS
 10
271.5172305968
 20
148.7486153351
 40
0.75
 50
0.0
 51
90.0
  0
ARC
  8
0
 62
7
  6
CONTINUOUS
 10
322.8132305968
 20
141.436337043
 40
0.5
 50
165.8
 51
180.0
  0
ARC
  8
0
 62
7
  6
CONTINUOUS
 10
310.1132305968
 20
141.436337043
 40
0.5
 50
165.8
 51
180.0
  0
ARC
  8
0
 62
7
  6
CONTINUOUS
 10
317.3212305968
 20
141.436337043
 40
0.5
 50
0.0
 51
14.2
  0
ARC
  8
0
 62
7
  6
CONTINUOUS
 10
297.4132305968
 20
141.436337043
 40
0.5
 50
165.8
 51
180.0
  0
ARC
  8
0
 62
7
  6
CONTINUOUS
 10
304.6212305968
 20
141.436337043
 40
0.5
 50
0.0
 51
14.2
  0
ARC
  8
0
 62
7
  6
CONTINUOUS
 10
291.9212305968
 20
141.436337043
 40
0.5
 50
0.0
 51
14.2
  0
ARC
  8
0
 62
7
  6
CONTINUOUS
 10
322.9172305968
 20
144.4970778099
 40
0.15
 50
345.8
 51
360.0
  0
ARC
  8
0
 62
7
  6
CONTINUOUS
 10
317.2172305968
 20
144.4970778099
 40
0.15
 50
180.0
 51
194.2
  0
ARC
  8
0
 62
7
  6
CONTINUOUS
 10
310.2172305968
 20
144.4970778099
 40
0.15
 50
345.8
 51
360.0
  0
ARC
  8
0
 62
7
  6
CONTINUOUS
 10
304.5172305968
 20
144.4970778099
 40
0.15
 50
180.0
 51
194.2
  0
ARC
  8
0
 62
7
  6
CONTINUOUS
 10
297.5172305968
 20
144.4970778099
 40
0.15
 50
345.8
 51
360.0
  0
ARC
  8
0
 62
7
  6
CONTINUOUS
 10
291.8172305968
 20
144.4970778099
 40
0.15
 50
180.0
 51
194.2
  0
ARC
  8
SURFACE
 62
7
  6
CONTINUOUS
 10
317.8172305968
 20
148.7486153351
 40
0.75
 50
90.0
 51
153.5686351565
  0
ARC
  8
SURFACE
 62
7
  6
CONTINUOUS
 10
305.1172305968
 20
148.7486153351
 40
0.75
 50
90.0
 51
153.5686351565
  0
ARC
  8
SURFACE
 62
7
  6
CONTINUOUS
 10
292.4172305968
 20
148.7486153351
 40
0.75
 50
90.0
 51
153.5686351564
  0
ARC
  8
0
 62
7
  6
CONTINUOUS
 10
317.8172305968
 20
148.7486153351
 40
0.75
 50
90.0
 51
180.0
  0
ARC
  8
0
 62
7
  6
CONTINUOUS
 10
305.1172305968
 20
148.7486153351
 40
0.75
 50
90.0
 51
180.0
  0
ARC
  8
0
 62
7
  6
CONTINUOUS
 10
292.4172305968
 20
148.7486153351
 40
0.75
 50
90.0
 51
180.0
  0
ARC
  8
SURFACE
 62
7
  6
CONTINUOUS
 10
322.3172305968
 20
148.7486153351
 40
0.75
 50
23.0531652464
 51
67.5285082442
  0
ARC
  8
0
 62
7
  6
CONTINUOUS
 10
322.3172305968
 20
148.7486153351
 40
0.75
 50
0.0
 51
90.0
  0
ARC
  8
SURFACE
 62
7
  6
CONTINUOUS
 10
309.6172305968
 20
148.7486153351
 40
0.75
 50
23.0531652819
 51
67.5285082442
  0
ARC
  8
0
 62
7
  6
CONTINUOUS
 10
309.6172305968
 20
148.7486153351
 40
0.75
 50
0.0
 51
90.0
  0
ARC
  8
SURFACE
 62
7
  6
CONTINUOUS
 10
296.9172305968
 20
148.7486153351
 40
0.75
 50
23.0531652819
 51
67.5285082442
  0
ARC
  8
0
 62
7
  6
CONTINUOUS
 10
296.9172305968
 20
148.7486153351
 40
0.75
 50
0.0
 51
90.0
  0
ARC
  8
0
 62
7
  6
CONTINUOUS
 10
356.6870589022
 20
132.7079982262
 40
0.1499999583
 50
179.999758444
 51
252.6343058201
  0
ARC
  8
SURFACE
 62
7
  6
CONTINUOUS
 10
356.6870589022
 20
132.7079982262
 40
0.1499999583
 50
179.999758444
 51
249.0087984502
  0
ARC
  8
0
 62
7
  6
CONTINUOUS
 10
360.5370589022
 20
119.3986153351
 40
4.0
 50
180.0
 51
269.9994242712
  0
ARC
  8
SURFACE
 62
7
  6
CONTINUOUS
 10
360.5370589022
 20
119.3986153351
 40
4.0
 50
180.0
 51
242.7302790043
  0
ARC
  8
AXES
 62
7
  6
CONTINUOUS
 10
362.5370589022
 20
119.7486153351
 40
2.1
 50
180.0
 51
360.0
  0
ARC
  8
AXES
 62
7
  6
CONTINUOUS
 10
362.5370589022
 20
127.7986153351
 40
2.1
 50
0.0
 51
180.0
  0
ARC
  8
SURFACE
 62
7
  6
CONTINUOUS
 10
360.5370589022
 20
145.4986153351
 40
4.0
 50
119.0063985401
 51
121.4937994376
  0
ARC
  8
SURFACE
 62
7
  6
CONTINUOUS
 10
360.5370589022
 20
145.4986153351
 40
4.0
 50
103.5061235839
 51
105.9935521361
  0
ARC
  8
0
 62
7
  6
CONTINUOUS
 10
360.5370589022
 20
145.4986153351
 40
4.0
 50
90.0
 51
180.0
  0
ARC
  8
SURFACE
 62
7
  6
CONTINUOUS
 10
360.5370589022
 20
145.4986153351
 40
4.0
 50
121.5061173499
 51
180.0
  0
ARC
  8
AXES
 62
7
  6
CONTINUOUS
 10
362.5370589022
 20
145.1486153351
 40
2.1
 50
199.1339596844
 51
340.8660403156
  0
ARC
  8
AXES
 62
7
  6
CONTINUOUS
 10
362.5370589022
 20
145.1486153351
 40
2.1
 50
341.9253432337
 51
198.0746567663
  0
ARC
  8
0
 62
7
  6
CONTINUOUS
 10
362.5370589022
 20
151.4146153351
 40
19.75
 50
252.6343058201
 51
270.0
  0
ARC
  8
0
 62
7
  6
CONTINUOUS
 10
362.5305124805
 20
149.2486153321
 40
0.25
 50
87.0000134776
 51
90.0000134592
  0
ARC
  8
0
 62
7
  6
CONTINUOUS
 10
376.3370589022
 20
119.1259597272
 40
3.0
 50
273.0
 51
360.0
  0
ARC
  8
0
 62
7
  6
CONTINUOUS
 10
379.0870589022
 20
132.0935875606
 40
0.25
 50
271.02
 51
360.0
  0
ARC
  8
0
 62
7
  6
CONTINUOUS
 10
376.3370589022
 20
145.771270943
 40
3.0
 50
0.0
 51
87.0
  0
ARC
  8
0
 62
7
  6
CONTINUOUS
 10
38.5712305968
 20
209.9173657669
 40
0.15
 50
180.0
 51
268.507179677
  0
ARC
  8
0
 62
7
  6
CONTINUOUS
 10
30.0632305968
 20
209.9173657669
 40
0.15
 50
271.4928203217
 51
360.0
  0
ARC
  8
SURFACE
 62
7
  6
CONTINUOUS
 10
51.2712305968
 20
209.9173657669
 40
0.15
 50
180.0
 51
268.507179677
  0
ARC
  8
SURFACE
 62
7
  6
CONTINUOUS
 10
42.7632305968
 20
209.9173657669
 40
0.15
 50
271.4928203217
 51
360.0
  0
ARC
  8
SURFACE
 62
7
  6
CONTINUOUS
 10
63.9712305968
 20
209.9173657669
 40
0.15
 50
180.0
 51
268.507179677
  0
ARC
  8
SURFACE
 62
7
  6
CONTINUOUS
 10
55.4632305968
 20
209.9173657669
 40
0.15
 50
271.4928203217
 51
360.0
  0
ARC
  8
SURFACE
 62
7
  6
CONTINUOUS
 10
76.6712305968
 20
209.9173657669
 40
0.15
 50
180.0
 51
268.507179677
  0
ARC
  8
SURFACE
 62
7
  6
CONTINUOUS
 10
68.1632305968
 20
209.9173657669
 40
0.15
 50
271.4928203217
 51
360.0
  0
ARC
  8
SURFACE
 62
7
  6
CONTINUOUS
 10
89.3712305968
 20
209.9173657669
 40
0.15
 50
180.0
 51
268.507179677
  0
ARC
  8
SURFACE
 62
7
  6
CONTINUOUS
 10
80.8632305968
 20
209.9173657669
 40
0.15
 50
271.4928203217
 51
360.0
  0
ARC
  8
SURFACE
 62
7
  6
CONTINUOUS
 10
93.5632305968
 20
209.9173657669
 40
0.15
 50
271.4928203217
 51
360.0
  0
ARC
  8
0
 62
7
  6
CONTINUOUS
 10
25.8712305968
 20
209.9173657669
 40
0.15
 50
180.0000000002
 51
270.0
  0
ARC
  8
0
 62
7
  6
CONTINUOUS
 10
36.5672305968
 20
210.5173657669
 40
0.75
 50
270.0
 51
360.0
  0
ARC
  8
0
 62
7
  6
CONTINUOUS
 10
32.0672305968
 20
210.5173657669
 40
0.75
 50
180.0
 51
270.0
  0
ARC
  8
SURFACE
 62
7
  6
CONTINUOUS
 10
49.2672305968
 20
210.5173657669
 40
0.75
 50
270.0
 51
360.0
  0
ARC
  8
SURFACE
 62
7
  6
CONTINUOUS
 10
44.7672305968
 20
210.5173657669
 40
0.75
 50
180.0
 51
270.0
  0
ARC
  8
SURFACE
 62
7
  6
CONTINUOUS
 10
61.9672305968
 20
210.5173657669
 40
0.75
 50
270.0
 51
360.0
  0
ARC
  8
SURFACE
 62
7
  6
CONTINUOUS
 10
57.4672305968
 20
210.5173657669
 40
0.75
 50
180.0
 51
270.0
  0
ARC
  8
SURFACE
 62
7
  6
CONTINUOUS
 10
74.6672305968
 20
210.5173657669
 40
0.75
 50
270.0
 51
360.0
  0
ARC
  8
SURFACE
 62
7
  6
CONTINUOUS
 10
70.1672305968
 20
210.5173657669
 40
0.75
 50
180.0
 51
270.0
  0
ARC
  8
SURFACE
 62
7
  6
CONTINUOUS
 10
87.3672305968
 20
210.5173657669
 40
0.75
 50
270.0
 51
360.0
  0
ARC
  8
SURFACE
 62
7
  6
CONTINUOUS
 10
82.8672305968
 20
210.5173657669
 40
0.75
 50
180.0
 51
270.0
  0
ARC
  8
SURFACE
 62
7
  6
CONTINUOUS
 10
100.0672305968
 20
210.5173657669
 40
0.75
 50
270.0
 51
360.0
  0
ARC
  8
SURFACE
 62
7
  6
CONTINUOUS
 10
95.5672305968
 20
210.5173657669
 40
0.75
 50
180.0
 51
270.0
  0
ARC
  8
0
 62
7
  6
CONTINUOUS
 10
25.7172305968
 20
210.5173657669
 40
0.75
 50
180.0
 51
269.9992289663
  0
ARC
  8
SURFACE
 62
7
  6
CONTINUOUS
 10
102.0712305968
 20
209.9173657669
 40
0.15
 50
180.0
 51
268.507179677
  0
ARC
  8
SURFACE
 62
7
  6
CONTINUOUS
 10
114.7712305968
 20
209.9173657669
 40
0.15
 50
180.0
 51
268.507179677
  0
ARC
  8
SURFACE
 62
7
  6
CONTINUOUS
 10
106.2632305968
 20
209.9173657669
 40
0.15
 50
271.4928203217
 51
360.0
  0
ARC
  8
SURFACE
 62
7
  6
CONTINUOUS
 10
127.4712305968
 20
209.9173657669
 40
0.15
 50
180.0
 51
268.507179677
  0
ARC
  8
SURFACE
 62
7
  6
CONTINUOUS
 10
118.9632305968
 20
209.9173657669
 40
0.15
 50
271.4928203217
 51
360.0
  0
ARC
  8
SURFACE
 62
7
  6
CONTINUOUS
 10
140.1712305968
 20
209.9173657669
 40
0.15
 50
180.0
 51
268.507179677
  0
ARC
  8
SURFACE
 62
7
  6
CONTINUOUS
 10
131.6632305968
 20
209.9173657669
 40
0.15
 50
271.4928203217
 51
360.0
  0
ARC
  8
SURFACE
 62
7
  6
CONTINUOUS
 10
152.8712305968
 20
209.9173657669
 40
0.15
 50
180.0
 51
268.507179677
  0
ARC
  8
SURFACE
 62
7
  6
CONTINUOUS
 10
144.3632305968
 20
209.9173657669
 40
0.15
 50
271.4928203217
 51
360.0
  0
ARC
  8
SURFACE
 62
7
  6
CONTINUOUS
 10
165.5712305968
 20
209.9173657669
 40
0.15
 50
180.0
 51
268.507179677
  0
ARC
  8
SURFACE
 62
7
  6
CONTINUOUS
 10
157.0632305968
 20
209.9173657669
 40
0.15
 50
271.4928203217
 51
360.0
  0
ARC
  8
SURFACE
 62
7
  6
CONTINUOUS
 10
169.7632305968
 20
209.9173657669
 40
0.15
 50
271.4928203217
 51
360.0
  0
ARC
  8
SURFACE
 62
7
  6
CONTINUOUS
 10
112.7672305968
 20
210.5173657669
 40
0.75
 50
270.0
 51
360.0
  0
ARC
  8
SURFACE
 62
7
  6
CONTINUOUS
 10
108.2672305968
 20
210.5173657669
 40
0.75
 50
180.0
 51
270.0
  0
ARC
  8
SURFACE
 62
7
  6
CONTINUOUS
 10
125.4672305968
 20
210.5173657669
 40
0.75
 50
270.0
 51
360.0
  0
ARC
  8
SURFACE
 62
7
  6
CONTINUOUS
 10
120.9672305968
 20
210.5173657669
 40
0.75
 50
180.0
 51
270.0
  0
ARC
  8
SURFACE
 62
7
  6
CONTINUOUS
 10
138.1672305968
 20
210.5173657669
 40
0.75
 50
270.0
 51
360.0
  0
ARC
  8
SURFACE
 62
7
  6
CONTINUOUS
 10
133.6672305968
 20
210.5173657669
 40
0.75
 50
180.0
 51
270.0
  0
ARC
  8
SURFACE
 62
7
  6
CONTINUOUS
 10
150.8672305968
 20
210.5173657669
 40
0.75
 50
270.0
 51
360.0
  0
ARC
  8
SURFACE
 62
7
  6
CONTINUOUS
 10
146.3672305968
 20
210.5173657669
 40
0.75
 50
180.0
 51
270.0
  0
ARC
  8
SURFACE
 62
7
  6
CONTINUOUS
 10
163.5672305968
 20
210.5173657669
 40
0.75
 50
270.0
 51
360.0
  0
ARC
  8
SURFACE
 62
7
  6
CONTINUOUS
 10
159.0672305968
 20
210.5173657669
 40
0.75
 50
180.0
 51
270.0
  0
ARC
  8
SURFACE
 62
7
  6
CONTINUOUS
 10
176.2672305968
 20
210.5173657669
 40
0.75
 50
270.0
 51
360.0
  0
ARC
  8
SURFACE
 62
7
  6
CONTINUOUS
 10
171.7672305968
 20
210.5173657669
 40
0.75
 50
180.0
 51
270.0
  0
ARC
  8
0
 62
7
  6
CONTINUOUS
 10
176.5882583714
 20
232.3173657669
 40
0.25
 50
1.0199999999
 51
90.0
  0
ARC
  8
0
 62
7
  6
CONTINUOUS
 10
171.4462028187
 20
232.3173655657
 40
0.25
 50
89.9999991789
 51
178.9799538763
  0
ARC
  8
0
 62
7
  6
CONTINUOUS
 10
163.8882583714
 20
232.3173657669
 40
0.25
 50
1.0199999999
 51
90.0
  0
ARC
  8
0
 62
7
  6
CONTINUOUS
 10
158.7462028187
 20
232.3173655657
 40
0.25
 50
89.9999991789
 51
178.9799538763
  0
ARC
  8
0
 62
7
  6
CONTINUOUS
 10
151.1882583714
 20
232.3173657669
 40
0.25
 50
1.0199999999
 51
90.0
  0
ARC
  8
0
 62
7
  6
CONTINUOUS
 10
146.0462028187
 20
232.3173655657
 40
0.25
 50
89.9999991789
 51
178.9799538763
  0
ARC
  8
0
 62
7
  6
CONTINUOUS
 10
138.4882583714
 20
232.3173657669
 40
0.25
 50
1.0199999999
 51
90.0
  0
ARC
  8
0
 62
7
  6
CONTINUOUS
 10
133.3462028187
 20
232.3173655657
 40
0.25
 50
89.9999991789
 51
178.9799538763
  0
ARC
  8
0
 62
7
  6
CONTINUOUS
 10
125.7882583714
 20
232.3173657669
 40
0.25
 50
1.0199999999
 51
90.0
  0
ARC
  8
0
 62
7
  6
CONTINUOUS
 10
120.6462028187
 20
232.3173655657
 40
0.25
 50
89.9999991789
 51
178.9799538763
  0
ARC
  8
0
 62
7
  6
CONTINUOUS
 10
113.0882583714
 20
232.3173657669
 40
0.25
 50
1.0199999999
 51
90.0
  0
ARC
  8
0
 62
7
  6
CONTINUOUS
 10
107.9462028187
 20
232.3173655657
 40
0.25
 50
89.9999991789
 51
178.9799538763
  0
ARC
  8
0
 62
7
  6
CONTINUOUS
 10
100.3882583714
 20
232.3173657669
 40
0.25
 50
1.0199999999
 51
90.0
  0
ARC
  8
0
 62
7
  6
CONTINUOUS
 10
95.2462028187
 20
232.3173655657
 40
0.25
 50
89.9999991789
 51
178.9799538763
  0
ARC
  8
0
 62
7
  6
CONTINUOUS
 10
87.6882583714
 20
232.3173657669
 40
0.25
 50
1.0199999999
 51
90.0
  0
ARC
  8
0
 62
7
  6
CONTINUOUS
 10
82.5462028187
 20
232.3173655657
 40
0.25
 50
89.9999991789
 51
178.9799538763
  0
ARC
  8
0
 62
7
  6
CONTINUOUS
 10
74.9882583714
 20
232.3173657669
 40
0.25
 50
1.0199999999
 51
90.0
  0
ARC
  8
0
 62
7
  6
CONTINUOUS
 10
69.8462028187
 20
232.3173655657
 40
0.25
 50
89.9999991789
 51
178.9799538763
  0
ARC
  8
0
 62
7
  6
CONTINUOUS
 10
62.2882583714
 20
232.3173657669
 40
0.25
 50
1.0199999999
 51
90.0
  0
ARC
  8
0
 62
7
  6
CONTINUOUS
 10
57.1462028187
 20
232.3173655657
 40
0.25
 50
89.9999991789
 51
178.9799538763
  0
ARC
  8
0
 62
7
  6
CONTINUOUS
 10
49.5882583714
 20
232.3173657669
 40
0.25
 50
1.0199999999
 51
90.0
  0
ARC
  8
0
 62
7
  6
CONTINUOUS
 10
44.4462028187
 20
232.3173655657
 40
0.25
 50
89.9999991789
 51
178.9799538763
  0
ARC
  8
0
 62
7
  6
CONTINUOUS
 10
36.8882583714
 20
232.3173657669
 40
0.25
 50
1.0199999999
 51
90.0
  0
ARC
  8
0
 62
7
  6
CONTINUOUS
 10
31.7462028187
 20
232.3173655657
 40
0.25
 50
89.9999991789
 51
178.9799538763
  0
ARC
  8
0
 62
7
  6
CONTINUOUS
 10
26.1502028222
 20
232.3173657669
 40
0.25
 50
90.0
 51
178.98
  0
ARC
  8
0
 62
7
  6
CONTINUOUS
 10
25.3962028222
 20
232.3173657669
 40
0.25
 50
90.0
 51
178.9800000001
  0
ARC
  8
SURFACE
 62
7
  6
CONTINUOUS
 10
178.2712305968
 20
209.9173657669
 40
0.15
 50
180.0
 51
268.507179677
  0
ARC
  8
SURFACE
 62
7
  6
CONTINUOUS
 10
190.9712305968
 20
209.9173657669
 40
0.15
 50
180.0
 51
268.507179677
  0
ARC
  8
SURFACE
 62
7
  6
CONTINUOUS
 10
182.4632305968
 20
209.9173657669
 40
0.15
 50
271.4928203217
 51
360.0
  0
ARC
  8
SURFACE
 62
7
  6
CONTINUOUS
 10
203.6712305968
 20
209.9173657669
 40
0.15
 50
180.0
 51
268.507179677
  0
ARC
  8
SURFACE
 62
7
  6
CONTINUOUS
 10
195.1632305968
 20
209.9173657669
 40
0.15
 50
271.4928203217
 51
360.0
  0
ARC
  8
SURFACE
 62
7
  6
CONTINUOUS
 10
216.3712305968
 20
209.9173657669
 40
0.15
 50
180.0
 51
268.507179677
  0
ARC
  8
SURFACE
 62
7
  6
CONTINUOUS
 10
207.8632305968
 20
209.9173657669
 40
0.15
 50
271.4928203217
 51
360.0
  0
ARC
  8
SURFACE
 62
7
  6
CONTINUOUS
 10
229.0712305968
 20
209.9173657669
 40
0.15
 50
180.0
 51
268.507179677
  0
ARC
  8
SURFACE
 62
7
  6
CONTINUOUS
 10
220.5632305968
 20
209.9173657669
 40
0.15
 50
271.4928203217
 51
360.0
  0
ARC
  8
SURFACE
 62
7
  6
CONTINUOUS
 10
241.7712305968
 20
209.9173657669
 40
0.15
 50
180.0
 51
268.507179677
  0
ARC
  8
SURFACE
 62
7
  6
CONTINUOUS
 10
233.2632305968
 20
209.9173657669
 40
0.15
 50
271.4928203217
 51
360.0
  0
ARC
  8
SURFACE
 62
7
  6
CONTINUOUS
 10
245.9632305968
 20
209.9173657669
 40
0.15
 50
271.4928203217
 51
360.0
  0
ARC
  8
SURFACE
 62
7
  6
CONTINUOUS
 10
188.9672305968
 20
210.5173657669
 40
0.75
 50
270.0
 51
360.0
  0
ARC
  8
SURFACE
 62
7
  6
CONTINUOUS
 10
184.4672305968
 20
210.5173657669
 40
0.75
 50
180.0
 51
270.0
  0
ARC
  8
SURFACE
 62
7
  6
CONTINUOUS
 10
201.6672305968
 20
210.5173657669
 40
0.75
 50
270.0
 51
360.0
  0
ARC
  8
SURFACE
 62
7
  6
CONTINUOUS
 10
197.1672305968
 20
210.5173657669
 40
0.75
 50
180.0
 51
270.0
  0
ARC
  8
SURFACE
 62
7
  6
CONTINUOUS
 10
214.3672305968
 20
210.5173657669
 40
0.75
 50
270.0
 51
360.0
  0
ARC
  8
SURFACE
 62
7
  6
CONTINUOUS
 10
209.8672305968
 20
210.5173657669
 40
0.75
 50
180.0
 51
270.0
  0
ARC
  8
SURFACE
 62
7
  6
CONTINUOUS
 10
227.0672305968
 20
210.5173657669
 40
0.75
 50
270.0
 51
360.0
  0
ARC
  8
SURFACE
 62
7
  6
CONTINUOUS
 10
222.5672305968
 20
210.5173657669
 40
0.75
 50
180.0
 51
270.0
  0
ARC
  8
SURFACE
 62
7
  6
CONTINUOUS
 10
239.7672305968
 20
210.5173657669
 40
0.75
 50
270.0
 51
360.0
  0
ARC
  8
SURFACE
 62
7
  6
CONTINUOUS
 10
235.2672305968
 20
210.5173657669
 40
0.75
 50
180.0
 51
270.0
  0
ARC
  8
SURFACE
 62
7
  6
CONTINUOUS
 10
252.4672305968
 20
210.5173657669
 40
0.75
 50
270.0
 51
360.0
  0
ARC
  8
SURFACE
 62
7
  6
CONTINUOUS
 10
247.9672305968
 20
210.5173657669
 40
0.75
 50
180.0
 51
270.0
  0
ARC
  8
SURFACE
 62
7
  6
CONTINUOUS
 10
322.1632305968
 20
209.9173657669
 40
0.15
 50
271.4928203217
 51
360.0
  0
ARC
  8
SURFACE
 62
7
  6
CONTINUOUS
 10
309.4632305968
 20
209.9173657669
 40
0.15
 50
271.4928203217
 51
360.0
  0
ARC
  8
SURFACE
 62
7
  6
CONTINUOUS
 10
317.9712305968
 20
209.9173657669
 40
0.15
 50
180.0
 51
268.5071796769
  0
ARC
  8
SURFACE
 62
7
  6
CONTINUOUS
 10
254.4712305968
 20
209.9173657669
 40
0.15
 50
180.0
 51
268.507179677
  0
ARC
  8
SURFACE
 62
7
  6
CONTINUOUS
 10
296.7632305968
 20
209.9173657669
 40
0.15
 50
271.4928203217
 51
360.0
  0
ARC
  8
SURFACE
 62
7
  6
CONTINUOUS
 10
305.2712305968
 20
209.9173657669
 40
0.15
 50
180.0
 51
268.507179677
  0
ARC
  8
SURFACE
 62
7
  6
CONTINUOUS
 10
267.1712305968
 20
209.9173657669
 40
0.15
 50
180.0
 51
268.507179677
  0
ARC
  8
SURFACE
 62
7
  6
CONTINUOUS
 10
258.6632305968
 20
209.9173657669
 40
0.15
 50
271.4928203217
 51
360.0
  0
ARC
  8
SURFACE
 62
7
  6
CONTINUOUS
 10
284.0632305968
 20
209.9173657669
 40
0.15
 50
271.4928203217
 51
360.0
  0
ARC
  8
SURFACE
 62
7
  6
CONTINUOUS
 10
292.5712305968
 20
209.9173657669
 40
0.15
 50
180.0
 51
268.507179677
  0
ARC
  8
SURFACE
 62
7
  6
CONTINUOUS
 10
279.8712305968
 20
209.9173657669
 40
0.15
 50
180.0
 51
268.507179677
  0
ARC
  8
SURFACE
 62
7
  6
CONTINUOUS
 10
271.3632305968
 20
209.9173657669
 40
0.15
 50
271.4928203217
 51
360.0
  0
ARC
  8
SURFACE
 62
7
  6
CONTINUOUS
 10
324.1672305968
 20
210.5173657669
 40
0.75
 50
180.0
 51
270.0
  0
ARC
  8
SURFACE
 62
7
  6
CONTINUOUS
 10
328.6672305968
 20
210.5173657669
 40
0.75
 50
270.0
 51
360.0
  0
ARC
  8
SURFACE
 62
7
  6
CONTINUOUS
 10
311.4672305968
 20
210.5173657669
 40
0.75
 50
180.0
 51
270.0
  0
ARC
  8
SURFACE
 62
7
  6
CONTINUOUS
 10
315.9672305968
 20
210.5173657669
 40
0.75
 50
270.0
 51
360.0
  0
ARC
  8
SURFACE
 62
7
  6
CONTINUOUS
 10
265.1672305968
 20
210.5173657669
 40
0.75
 50
270.0
 51
360.0
  0
ARC
  8
SURFACE
 62
7
  6
CONTINUOUS
 10
298.7672305968
 20
210.5173657669
 40
0.75
 50
180.0
 51
270.0
  0
ARC
  8
SURFACE
 62
7
  6
CONTINUOUS
 10
260.6672305968
 20
210.5173657669
 40
0.75
 50
180.0
 51
270.0
  0
ARC
  8
SURFACE
 62
7
  6
CONTINUOUS
 10
303.2672305968
 20
210.5173657669
 40
0.75
 50
270.0
 51
360.0
  0
ARC
  8
SURFACE
 62
7
  6
CONTINUOUS
 10
277.8672305968
 20
210.5173657669
 40
0.75
 50
270.0
 51
360.0
  0
ARC
  8
SURFACE
 62
7
  6
CONTINUOUS
 10
273.3672305968
 20
210.5173657669
 40
0.75
 50
180.0
 51
270.0
  0
ARC
  8
SURFACE
 62
7
  6
CONTINUOUS
 10
286.0672305968
 20
210.5173657669
 40
0.75
 50
180.0
 51
270.0
  0
ARC
  8
SURFACE
 62
7
  6
CONTINUOUS
 10
290.5672305968
 20
210.5173657669
 40
0.75
 50
270.0
 51
360.0
  0
ARC
  8
0
 62
7
  6
CONTINUOUS
 10
328.9882583714
 20
232.3173657669
 40
0.25
 50
1.0199999999
 51
90.0
  0
ARC
  8
0
 62
7
  6
CONTINUOUS
 10
323.8462028187
 20
232.3173655657
 40
0.25
 50
89.9999991789
 51
178.9799538763
  0
ARC
  8
0
 62
7
  6
CONTINUOUS
 10
316.2882583714
 20
232.3173657669
 40
0.25
 50
1.0199999999
 51
90.0
  0
ARC
  8
0
 62
7
  6
CONTINUOUS
 10
311.1462028187
 20
232.3173655657
 40
0.25
 50
89.9999991789
 51
178.9799538763
  0
ARC
  8
0
 62
7
  6
CONTINUOUS
 10
303.5882583714
 20
232.3173657669
 40
0.25
 50
1.0199999999
 51
90.0
  0
ARC
  8
0
 62
7
  6
CONTINUOUS
 10
298.4462028187
 20
232.3173655657
 40
0.25
 50
89.9999991789
 51
178.9799538763
  0
ARC
  8
0
 62
7
  6
CONTINUOUS
 10
290.8882583714
 20
232.3173657669
 40
0.25
 50
1.0199999999
 51
90.0
  0
ARC
  8
0
 62
7
  6
CONTINUOUS
 10
285.7462028187
 20
232.3173655657
 40
0.25
 50
89.9999991789
 51
178.9799538763
  0
ARC
  8
0
 62
7
  6
CONTINUOUS
 10
278.1882583714
 20
232.3173657669
 40
0.25
 50
1.0199999999
 51
90.0
  0
ARC
  8
0
 62
7
  6
CONTINUOUS
 10
273.0462028187
 20
232.3173655657
 40
0.25
 50
89.9999991789
 51
178.9799538763
  0
ARC
  8
0
 62
7
  6
CONTINUOUS
 10
265.4882583714
 20
232.3173657669
 40
0.25
 50
1.0199999999
 51
90.0
  0
ARC
  8
0
 62
7
  6
CONTINUOUS
 10
260.3462028187
 20
232.3173655657
 40
0.25
 50
89.9999991789
 51
178.9799538763
  0
ARC
  8
0
 62
7
  6
CONTINUOUS
 10
252.7882583714
 20
232.3173657669
 40
0.25
 50
1.0199999999
 51
90.0
  0
ARC
  8
0
 62
7
  6
CONTINUOUS
 10
247.6462028187
 20
232.3173655657
 40
0.25
 50
89.9999991789
 51
178.9799538763
  0
ARC
  8
0
 62
7
  6
CONTINUOUS
 10
240.0882583714
 20
232.3173657669
 40
0.25
 50
1.0199999999
 51
90.0
  0
ARC
  8
0
 62
7
  6
CONTINUOUS
 10
234.9462028187
 20
232.3173655657
 40
0.25
 50
89.9999991789
 51
178.9799538763
  0
ARC
  8
0
 62
7
  6
CONTINUOUS
 10
227.3882583714
 20
232.3173657669
 40
0.25
 50
1.0199999999
 51
90.0
  0
ARC
  8
0
 62
7
  6
CONTINUOUS
 10
222.2462028187
 20
232.3173655657
 40
0.25
 50
89.9999991789
 51
178.9799538763
  0
ARC
  8
0
 62
7
  6
CONTINUOUS
 10
214.6882583714
 20
232.3173657669
 40
0.25
 50
1.0199999999
 51
90.0
  0
ARC
  8
0
 62
7
  6
CONTINUOUS
 10
209.5462028187
 20
232.3173655657
 40
0.25
 50
89.9999991789
 51
178.9799538763
  0
ARC
  8
0
 62
7
  6
CONTINUOUS
 10
201.9882583714
 20
232.3173657669
 40
0.25
 50
1.0199999999
 51
90.0
  0
ARC
  8
0
 62
7
  6
CONTINUOUS
 10
196.8462028187
 20
232.3173655657
 40
0.25
 50
89.9999991789
 51
178.9799538763
  0
ARC
  8
0
 62
7
  6
CONTINUOUS
 10
189.2882583714
 20
232.3173657669
 40
0.25
 50
1.0199999999
 51
90.0
  0
ARC
  8
0
 62
7
  6
CONTINUOUS
 10
184.1462028187
 20
232.3173655657
 40
0.25
 50
89.9999991789
 51
178.9799538763
  0
ENDSEC
  0
EOF
