  0
SECTION
  2
HEADER
  9
$EXTMAX
 10
420.0
 20
297.0
 30
0.0
  9
$EXTMIN
 10
0.0
 20
0.0
 30
0.0
  9
$LIMMIN
 10
0.0
 20
0.0
  9
$LIMMAX
 10
420.0
 20
297.0
  9
$VIEWCTR
 10
210.0
 20
148.5
  9
$VIEWSIZE
 40
297.0
  9
$CLAYER
  8
0
  9
$LTSCALE
 40
23.1
  9
$CELTYPE
  6
BYLAYER
  9
$DIMSCALE
 40
1.0
  9
$DIMASZ
 40
3.5
  9
$DIMEXO
 40
2.625
  9
$DIMDLI
 40
15.96
  9
$DIMEXE
 40
7.56
  9
$DIMCEN
 40
3.78
  9
$DIMLFAC
 40
1.0
  9
$DIMBLK
  1
_FILLED
  9
$DIMTXT
 40
3.5
  9
$PDMODE
 70
3
  9
$PDSIZE
 40
0.3125
  9
$TILEMODE
 70
1
  0
ENDSEC
  0
SECTION
  2
TABLES
  0
TABLE
  2
LTYPE
 70
6
  0
LTYPE
  2
BYBLOCK
 70
0
  3

 72
65
 73
0
 40
0.0
  0
LTYPE
  2
BYLAYER
 70
0
  3

 72
65
 73
0
 40
0.0
  0
LTYPE
  2
CONTINUOUS
 70
64
  3
Solid line
 72
65
 73
0
 40
0.0
  0
LTYPE
  2
CENTER
 70
64
  3
____ _ ____ _ ____ _ ____ _ ____ _ ____ _ ____
 72
65
 73
4
 40
0.6
 49
0.375
 49
-0.075
 49
0.075
 49
-0.075
  0
LTYPE
  2
HIDDEN
 70
64
  3
- - - - - - - - - - - - - - - - - - - -
 72
65
 73
2
 40
0.2
 49
0.1
 49
-0.1
  0
LTYPE
  2
PHANTOM
 70
64
  3
_____ _ _ _____ _ _ _____ _ _ _____
 72
65
 73
6
 40
0.8
 49
0.45
 49
-0.05
 49
0.1
 49
-0.05
 49
0.1
 49
-0.05
  0
LTYPE
  2
DOT
 70
64
  3
. . . . . . . . . . . . . . . . . . . .
 72
65
 73
2
 40
0.2
 49
0.1
 49
-0.1
  0
LTYPE
  2
DASHED
 70
64
  3
- - - - - - - - - - - - - - - - - - - -
 72
65
 73
2
 40
0.2
 49
0.1
 49
-0.1
  0
ENDTAB
  0
TABLE
  2
LAYER
 70
36
  0
LAYER
  2
0
 70
0
 62
7
  6
CONTINUOUS
  0
LAYER
  2
DEFAULT_1
 70
0
 62
7
  6
CENTER
  0
LAYER
  2
DEFAULT_2
 70
0
 62
8
  6
HIDDEN
  0
LAYER
  2
DEFAULT_3
 70
0
 62
7
  6
PHANTOM
  0
LAYER
  2
AXES
 70
0
 62
7
  6
CONTINUOUS
  0
LAYER
  2
CSYS
 70
0
 62
7
  6
CONTINUOUS
  0
LAYER
  2
CURVE
 70
0
 62
7
  6
CONTINUOUS
  0
LAYER
  2
CURVES
 70
0
 62
7
  6
CONTINUOUS
  0
LAYER
  2
PLANES
 70
0
 62
7
  6
CONTINUOUS
  0
LAYER
  2
QUILT
 70
0
 62
7
  6
CONTINUOUS
  0
LAYER
  2
SURF-A
 70
0
 62
7
  6
CONTINUOUS
  0
LAYER
  2
SURFACE
 70
0
 62
7
  6
CONTINUOUS
  0
ENDTAB
  0
TABLE
  2
STYLE
 70
1
  0
STYLE
  2
STANDARD
 70
0
 40
0.0
 41
0.8
 50
0.0
 71
0
 42
0.2
  3
txt
  4

  0
STYLE
  2
TEXTSTYLE_1
 70
0
 40
0.0
 41
0.8
 50
0.0
 71
0
 42
0.2
  3
gdt
  4

  0
STYLE
  2
TEXTSTYLE_2
 70
0
 40
0.0
 41
0.6
 50
0.0
 71
0
 42
0.2
  3
txt
  4

  0
STYLE
  2
TEXTSTYLE_3
 70
0
 40
0.0
 41
1.0
 50
0.0
 71
0
 42
0.2
  3
ftb_____.ttf
  4

  0
STYLE
  2
TEXTSTYLE_4
 70
0
 40
0.0
 41
1.0
 50
0.0
 71
0
 42
0.2
  3
fti_____.ttf
  4

  0
STYLE
  2
TEXTSTYLE_5
 70
0
 40
0.0
 41
1.0
 50
0.0
 71
0
 42
0.2
  3
frutiger light.ttf
  4

  0
STYLE
  2
TEXTSTYLE_6
 70
0
 40
0.0
 41
0.7
 50
0.0
 71
0
 42
0.2
  3
txt
  4

  0
STYLE
  2
TEXTSTYLE_7
 70
0
 40
0.0
 41
0.45
 50
0.0
 71
0
 42
0.2
  3
txt
  4

  0
ENDTAB
  0
ENDSEC
  0
SECTION
  2
BLOCKS
  0
BLOCK
  8
0
 62
2
  6
CONTINUOUS
  2
SYMBOL_5_BL1
 70
64
 10
382.7840918555
 20
35.5067593403
  0
TEXT
  8
0
 62
7
  6
CONTINUOUS
 10
373.842376864
 20
30.5995157174
  7
TEXTSTYLE_4
 40
1.0655737705
  1
The brand for plastic modular belts and chains
 41
1.0
 72
0
  0
LINE
  8
0
 62
7
  6
CONTINUOUS
 10
358.7621602445
 20
36.0805298321
 11
358.7621602445
 21
33.9493822911
  0
LINE
  8
0
 62
7
  6
CONTINUOUS
 10
359.0512227376
 20
30.9584509954
 11
359.0512227376
 21
31.0552420547
  0
LINE
  8
0
 62
7
  6
CONTINUOUS
 10
358.7621602445
 20
31.0229783683
 11
358.8199727462
 21
30.8293962497
  0
LINE
  8
0
 62
7
  6
CONTINUOUS
 10
360.1556028675
 20
33.867415078
 11
360.1556028675
 21
36.0805298321
  0
LINE
  8
0
 62
7
  6
CONTINUOUS
 10
361.0746601894
 20
32.0231527829
 11
361.0746601894
 21
30.5067593403
  0
LINE
  8
0
 62
7
  6
CONTINUOUS
 10
361.3637227445
 20
30.5067593403
 11
361.3637227445
 21
31.2488242184
  0
LINE
  8
0
 62
7
  6
CONTINUOUS
 10
361.3637227445
 20
31.3778789641
 11
361.3637227445
 21
32.0231527829
  0
LINE
  8
0
 62
7
  6
CONTINUOUS
 10
358.8199727462
 20
31.216560532
 11
358.7621602445
 21
31.0229783683
  0
LINE
  8
0
 62
7
  6
CONTINUOUS
 10
359.1668477307
 20
30.7971325633
 11
359.0512227376
 21
30.9584509954
  0
LINE
  8
0
 62
7
  6
CONTINUOUS
 10
360.2652852997
 20
31.3133515913
 11
360.3230977445
 21
31.216560532
  0
LINE
  8
0
 62
7
  6
CONTINUOUS
 10
360.6121602997
 20
31.216560532
 11
360.5543476894
 21
31.3456152777
  0
LINE
  8
0
 62
7
  6
CONTINUOUS
 10
362.0408487691
 20
36.0805298321
 11
362.0408487691
 21
34.2772511436
  0
LINE
  8
0
 62
7
  6
CONTINUOUS
 10
362.0408487691
 20
32.9657757338
 11
362.0408487691
 21
32.3100380288
  0
LINE
  8
0
 62
7
  6
CONTINUOUS
 10
362.4043477445
 20
31.1520331591
 11
362.4043477445
 21
30.5067593403
  0
LINE
  8
0
 62
7
  6
CONTINUOUS
 10
362.6934101343
 20
30.5067593403
 11
362.6934101343
 21
31.1520331591
  0
LINE
  8
0
 62
7
  6
CONTINUOUS
 10
359.0512227376
 20
31.0552420547
 11
359.1090352445
 21
31.1842968456
  0
LINE
  8
0
 62
7
  6
CONTINUOUS
 10
358.8199727462
 20
30.8293962497
 11
358.9355977445
 21
30.7003414814
  0
LINE
  8
0
 62
7
  6
CONTINUOUS
 10
362.3465351343
 20
31.2810879048
 11
362.4043477445
 21
31.1520331591
  0
LINE
  8
0
 62
7
  6
CONTINUOUS
 10
363.1559103548
 20
30.7971325633
 11
363.2137226343
 21
30.668077795
  0
LINE
  8
0
 62
7
  6
CONTINUOUS
 10
362.6934101343
 20
31.1520331591
 11
362.6355978548
 21
31.3133515913
  0
LINE
  8
0
 62
7
  6
CONTINUOUS
 10
363.1559103548
 20
31.3456152777
 11
363.1559103548
 21
31.2810879048
  0
LINE
  8
0
 62
7
  6
CONTINUOUS
 10
363.1559103548
 20
30.8939236226
 11
363.1559103548
 21
30.7971325633
  0
LINE
  8
0
 62
7
  6
CONTINUOUS
 10
363.4342913921
 20
32.3100380288
 11
363.4342913921
 21
36.0805298321
  0
LINE
  8
0
 62
7
  6
CONTINUOUS
 10
363.4449727445
 20
30.7648688543
 11
363.4449727445
 21
30.8293962497
  0
LINE
  8
0
 62
7
  6
CONTINUOUS
 10
363.7621602445
 20
36.0805298321
 11
363.7621602445
 21
32.3100380288
  0
LINE
  8
0
 62
7
  6
CONTINUOUS
 10
360.5543476894
 20
30.7003414814
 11
360.6121602997
 21
30.8293962497
  0
LINE
  8
0
 62
7
  6
CONTINUOUS
 10
364.9480979651
 20
30.6035504109
 11
364.890285024
 21
30.7648688543
  0
LINE
  8
0
 62
7
  6
CONTINUOUS
 10
364.6012229651
 20
31.2810879048
 11
364.6012229651
 21
31.1842968456
  0
LINE
  8
0
 62
7
  6
CONTINUOUS
 10
364.6012229651
 20
31.0552420547
 11
364.6012229651
 21
30.8616599362
  0
LINE
  8
0
 62
7
  6
CONTINUOUS
 10
364.890285024
 20
30.7648688543
 11
364.890285024
 21
31.2810879048
  0
LINE
  8
0
 62
7
  6
CONTINUOUS
 10
365.1556028675
 20
32.3100380288
 11
365.1556028675
 21
34.1133167174
  0
LINE
  8
0
 62
7
  6
CONTINUOUS
 10
365.1556028675
 20
35.4247921272
 11
365.1556028675
 21
36.0805298321
  0
LINE
  8
0
 62
7
  6
CONTINUOUS
 10
365.4684104651
 20
32.0231527829
 11
365.4684104651
 21
31.8618343508
  0
LINE
  8
0
 62
7
  6
CONTINUOUS
 10
365.4684104651
 20
31.5391973962
 11
365.4684104651
 21
30.5067593403
  0
LINE
  8
0
 62
7
  6
CONTINUOUS
 10
365.757472524
 20
30.5067593403
 11
365.757472524
 21
31.5391973962
  0
LINE
  8
0
 62
7
  6
CONTINUOUS
 10
365.757472524
 20
31.8618343508
 11
365.757472524
 21
32.0231527829
  0
LINE
  8
0
 62
7
  6
CONTINUOUS
 10
360.3230977445
 20
30.8293962497
 11
360.2652852997
 21
30.7326051679
  0
LINE
  8
0
 62
7
  6
CONTINUOUS
 10
362.6355978548
 20
31.3133515913
 11
362.5777852445
 21
31.3778789641
  0
LINE
  8
0
 62
7
  6
CONTINUOUS
 10
363.5027853548
 20
30.7003414814
 11
363.4449727445
 21
30.7648688543
  0
LINE
  8
0
 62
7
  6
CONTINUOUS
 10
364.6590352445
 20
30.5712867188
 11
364.716847524
 21
30.5067593403
  0
LINE
  8
0
 62
7
  6
CONTINUOUS
 10
364.6012229651
 20
30.668077795
 11
364.6590352445
 21
30.5712867188
  0
LINE
  8
0
 62
7
  6
CONTINUOUS
 10
365.0059102445
 20
30.5067593403
 11
364.9480979651
 21
30.6035504109
  0
LINE
  8
0
 62
7
  6
CONTINUOUS
 10
364.890285024
 20
31.2810879048
 11
364.8324727445
 21
31.3778789641
  0
LINE
  8
0
 62
7
  6
CONTINUOUS
 10
366.2199727445
 20
31.5391973962
 11
366.2199727445
 21
30.5067593403
  0
LINE
  8
0
 62
7
  6
CONTINUOUS
 10
366.5090354651
 20
30.5067593403
 11
366.5090354651
 21
31.2488242184
  0
LINE
  8
0
 62
7
  6
CONTINUOUS
 10
366.5090354651
 20
31.3778789641
 11
366.5090354651
 21
31.5391973962
  0
LINE
  8
0
 62
7
  6
CONTINUOUS
 10
367.0408487691
 20
34.5231527829
 11
367.0408487691
 21
32.3100380288
  0
LINE
  8
0
 62
7
  6
CONTINUOUS
 10
358.9355977445
 20
31.3456152777
 11
358.8199727462
 21
31.216560532
  0
LINE
  8
0
 62
7
  6
CONTINUOUS
 10
359.1090352445
 20
31.1842968456
 11
359.1668477307
 21
31.2488242184
  0
LINE
  8
0
 62
7
  6
CONTINUOUS
 10
358.9355977445
 20
30.7003414814
 11
359.0512227376
 21
30.6358140973
  0
LINE
  8
0
 62
7
  6
CONTINUOUS
 10
359.3402852307
 20
30.7003414814
 11
359.1668477307
 21
30.7971325633
  0
LINE
  8
0
 62
7
  6
CONTINUOUS
 10
364.543410024
 20
31.3456152777
 11
364.6012229651
 21
31.2810879048
  0
LINE
  8
0
 62
7
  6
CONTINUOUS
 10
367.491847524
 20
31.2810879048
 11
367.5496604651
 21
31.1197694727
  0
LINE
  8
0
 62
7
  6
CONTINUOUS
 10
367.838722524
 20
31.1197694727
 11
367.7809102445
 21
31.2810879048
  0
LINE
  8
0
 62
7
  6
CONTINUOUS
 10
367.5496604651
 20
31.1197694727
 11
367.5496604651
 21
30.5067593403
  0
LINE
  8
0
 62
7
  6
CONTINUOUS
 10
367.838722524
 20
30.5067593403
 11
367.838722524
 21
31.1197694727
  0
LINE
  8
0
 62
7
  6
CONTINUOUS
 10
368.3012227445
 20
31.3456152777
 11
368.3012227445
 21
31.2810879048
  0
LINE
  8
0
 62
7
  6
CONTINUOUS
 10
368.4342913921
 20
32.3100380288
 11
368.4342913921
 21
34.4411855698
  0
LINE
  8
0
 62
7
  6
CONTINUOUS
 10
368.7621602445
 20
36.0805298321
 11
368.7621602445
 21
32.3100380288
  0
LINE
  8
0
 62
7
  6
CONTINUOUS
 10
363.4449727445
 20
30.8293962497
 11
363.5027853548
 21
30.926187309
  0
LINE
  8
0
 62
7
  6
CONTINUOUS
 10
359.0512227376
 20
30.6358140973
 11
359.2246602583
 21
30.5712867188
  0
LINE
  8
0
 62
7
  6
CONTINUOUS
 10
360.5543476894
 20
31.3456152777
 11
360.3809101894
 21
31.4424063369
  0
LINE
  8
0
 62
7
  6
CONTINUOUS
 10
363.2137226343
 20
30.668077795
 11
363.3871601343
 21
30.5712867188
  0
LINE
  8
0
 62
7
  6
CONTINUOUS
 10
362.2309102445
 20
31.3456152777
 11
362.3465351343
 21
31.2810879048
  0
LINE
  8
0
 62
7
  6
CONTINUOUS
 10
362.5777852445
 20
31.3778789641
 11
362.4621603548
 21
31.4424063369
  0
LINE
  8
0
 62
7
  6
CONTINUOUS
 10
368.3012227445
 20
30.7648688543
 11
368.4168479651
 21
30.6358140973
  0
LINE
  8
0
 62
7
  6
CONTINUOUS
 10
368.6480977445
 20
30.7003414814
 11
368.5902854651
 21
30.7648688543
  0
LINE
  8
0
 62
7
  6
CONTINUOUS
 10
368.3012227445
 20
31.2810879048
 11
368.4168479651
 21
31.1520331591
  0
LINE
  8
0
 62
7
  6
CONTINUOUS
 10
367.7809102445
 20
31.2810879048
 11
367.7230979651
 21
31.3778789641
  0
LINE
  8
0
 62
7
  6
CONTINUOUS
 10
370.1512223035
 20
30.7003414814
 11
370.1512223035
 21
30.7648688543
  0
LINE
  8
0
 62
7
  6
CONTINUOUS
 10
370.1556028675
 20
32.3100380288
 11
370.1556028675
 21
36.0805298321
  0
LINE
  8
0
 62
7
  6
CONTINUOUS
 10
363.2137226343
 20
31.4101426505
 11
363.1559103548
 21
31.3456152777
  0
LINE
  8
0
 62
7
  6
CONTINUOUS
 10
360.091847717
 20
31.3778789641
 11
360.2652852997
 21
31.3133515913
  0
LINE
  8
0
 62
7
  6
CONTINUOUS
 10
364.8324727445
 20
31.3778789641
 11
364.716847524
 21
31.4424063369
  0
LINE
  8
0
 62
7
  6
CONTINUOUS
 10
368.6480977445
 20
31.216560532
 11
368.5902854651
 21
31.2810879048
  0
LINE
  8
0
 62
7
  6
CONTINUOUS
 10
369.8043479651
 20
30.8293962497
 11
369.8621602445
 21
30.7648688543
  0
LINE
  8
0
 62
7
  6
CONTINUOUS
 10
370.1512223035
 20
30.7648688543
 11
370.0355977445
 21
30.8939236226
  0
LINE
  8
0
 62
7
  6
CONTINUOUS
 10
369.8043479651
 20
31.3456152777
 11
369.8621602445
 21
31.2810879048
  0
LINE
  8
0
 62
7
  6
CONTINUOUS
 10
370.1512223035
 20
31.2810879048
 11
370.0355977445
 21
31.4101426505
  0
LINE
  8
0
 62
7
  6
CONTINUOUS
 10
363.4449727445
 20
31.2810879048
 11
363.5027853548
 21
31.3456152777
  0
LINE
  8
0
 62
7
  6
CONTINUOUS
 10
363.2715352445
 20
31.0229783683
 11
363.1559103548
 21
30.8939236226
  0
LINE
  8
0
 62
7
  6
CONTINUOUS
 10
364.6012229651
 20
30.8616599362
 11
364.543410024
 21
30.7971325633
  0
LINE
  8
0
 62
7
  6
CONTINUOUS
 10
364.543410024
 20
30.6035504109
 11
364.6012229651
 21
30.668077795
  0
LINE
  8
0
 62
7
  6
CONTINUOUS
 10
363.3871601343
 20
30.5712867188
 11
363.5027853548
 21
30.5390230296
  0
LINE
  8
0
 62
7
  6
CONTINUOUS
 10
360.3809101894
 20
31.4424063369
 11
360.1496602445
 21
31.5069337098
  0
LINE
  8
0
 62
7
  6
CONTINUOUS
 10
363.7340351343
 20
30.6358140973
 11
363.5027853548
 21
30.7003414814
  0
LINE
  8
0
 62
7
  6
CONTINUOUS
 10
362.4621603548
 20
31.4424063369
 11
362.2887228548
 21
31.5069337098
  0
LINE
  8
0
 62
7
  6
CONTINUOUS
 10
364.716847524
 20
31.4424063369
 11
364.543410024
 21
31.5069337098
  0
LINE
  8
0
 62
7
  6
CONTINUOUS
 10
367.3762229651
 20
31.3456152777
 11
367.491847524
 21
31.2810879048
  0
LINE
  8
0
 62
7
  6
CONTINUOUS
 10
367.7230979651
 20
31.3778789641
 11
367.6074727445
 21
31.4424063369
  0
LINE
  8
0
 62
7
  6
CONTINUOUS
 10
359.2246602583
 20
30.5712867188
 11
359.3980977583
 21
30.5390230296
  0
LINE
  8
0
 62
7
  6
CONTINUOUS
 10
359.6871602721
 20
30.6358140973
 11
359.3402852307
 21
30.7003414814
  0
LINE
  8
0
 62
7
  6
CONTINUOUS
 10
362.1152853548
 20
31.3778789641
 11
362.2309102445
 21
31.3456152777
  0
LINE
  8
0
 62
7
  6
CONTINUOUS
 10
364.4277854651
 20
31.3778789641
 11
364.543410024
 21
31.3456152777
  0
LINE
  8
0
 62
7
  6
CONTINUOUS
 10
368.7637229651
 20
30.668077795
 11
368.6480977445
 21
30.7003414814
  0
LINE
  8
0
 62
7
  6
CONTINUOUS
 10
367.2605977445
 20
31.3778789641
 11
367.3762229651
 21
31.3456152777
  0
LINE
  8
0
 62
7
  6
CONTINUOUS
 10
368.4168479651
 20
30.6358140973
 11
368.5902854651
 21
30.5712867188
  0
LINE
  8
0
 62
7
  6
CONTINUOUS
 10
367.6074727445
 20
31.4424063369
 11
367.4340352445
 21
31.5069337098
  0
LINE
  8
0
 62
7
  6
CONTINUOUS
 10
368.8215352445
 20
31.1520331591
 11
368.6480977445
 21
31.216560532
  0
LINE
  8
0
 62
7
  6
CONTINUOUS
 10
369.6309104651
 20
30.8939236226
 11
369.8043479651
 21
30.8293962497
  0
LINE
  8
0
 62
7
  6
CONTINUOUS
 10
370.0355977445
 20
31.4101426505
 11
369.8621602445
 21
31.4746700234
  0
LINE
  8
0
 62
7
  6
CONTINUOUS
 10
368.4168479651
 20
31.1520331591
 11
368.6480977445
 21
31.0552420547
  0
LINE
  8
0
 62
7
  6
CONTINUOUS
 10
370.0355977445
 20
30.8939236226
 11
369.8043479651
 21
30.9907146818
  0
LINE
  8
0
 62
7
  6
CONTINUOUS
 10
368.5902854651
 20
31.2810879048
 11
368.6480977445
 21
31.3456152777
  0
LINE
  8
0
 62
7
  6
CONTINUOUS
 10
359.0512227376
 20
31.4101426505
 11
358.9355977445
 21
31.3456152777
  0
LINE
  8
0
 62
7
  6
CONTINUOUS
 10
359.1668477307
 20
31.2488242184
 11
359.3402852307
 21
31.3456152777
  0
LINE
  8
0
 62
7
  6
CONTINUOUS
 10
361.4793477997
 20
31.4424063369
 11
361.3637227445
 21
31.3778789641
  0
LINE
  8
0
 62
7
  6
CONTINUOUS
 10
361.3637227445
 20
31.2488242184
 11
361.4793477997
 21
31.3133515913
  0
LINE
  8
0
 62
7
  6
CONTINUOUS
 10
360.3809101894
 20
30.6035504109
 11
360.5543476894
 21
30.7003414814
  0
LINE
  8
0
 62
7
  6
CONTINUOUS
 10
359.3980977583
 20
30.5390230296
 11
359.744972717
 21
30.5067593403
  0
LINE
  8
0
 62
7
  6
CONTINUOUS
 10
363.5027853548
 20
30.5390230296
 11
363.7340351343
 21
30.5067593403
  0
LINE
  8
0
 62
7
  6
CONTINUOUS
 10
361.8840352445
 20
31.4101426505
 11
362.1152853548
 21
31.3778789641
  0
LINE
  8
0
 62
7
  6
CONTINUOUS
 10
364.1965353548
 20
31.4101426505
 11
364.4277854651
 21
31.3778789641
  0
LINE
  8
0
 62
7
  6
CONTINUOUS
 10
368.6480977445
 20
31.0552420547
 11
369.6309104651
 21
30.8939236226
  0
LINE
  8
0
 62
7
  6
CONTINUOUS
 10
369.8043479651
 20
30.9907146818
 11
368.8215352445
 21
31.1520331591
  0
LINE
  8
0
 62
7
  6
CONTINUOUS
 10
362.2887228548
 20
31.5069337098
 11
362.1152853548
 21
31.5391973962
  0
LINE
  8
0
 62
7
  6
CONTINUOUS
 10
368.5902854651
 20
30.5712867188
 11
368.7637229651
 21
30.5390230296
  0
LINE
  8
0
 62
7
  6
CONTINUOUS
 10
367.4340352445
 20
31.5069337098
 11
367.2605977445
 21
31.5391973962
  0
LINE
  8
0
 62
7
  6
CONTINUOUS
 10
369.6887227445
 20
31.3778789641
 11
369.8043479651
 21
31.3456152777
  0
LINE
  8
0
 62
7
  6
CONTINUOUS
 10
369.8621602445
 20
30.7648688543
 11
369.8043479651
 21
30.7003414814
  0
LINE
  8
0
 62
7
  6
CONTINUOUS
 10
368.4168479651
 20
31.4424063369
 11
368.3012227445
 21
31.3456152777
  0
LINE
  8
0
 62
7
  6
CONTINUOUS
 10
363.3293478548
 20
31.4746700234
 11
363.2137226343
 21
31.4101426505
  0
LINE
  8
0
 62
7
  6
CONTINUOUS
 10
363.3871601343
 20
31.0875057863
 11
363.2715352445
 21
31.0229783683
  0
LINE
  8
0
 62
7
  6
CONTINUOUS
 10
363.5027853548
 20
30.926187309
 11
363.6184102445
 21
30.9907146818
  0
LINE
  8
0
 62
7
  6
CONTINUOUS
 10
361.0746601894
 20
30.5067593403
 11
361.3637227445
 21
30.5067593403
  0
LINE
  8
0
 62
7
  6
CONTINUOUS
 10
362.4043477445
 20
30.5067593403
 11
362.6934101343
 21
30.5067593403
  0
LINE
  8
0
 62
7
  6
CONTINUOUS
 10
363.7340351343
 20
30.5067593403
 11
364.0809101343
 21
30.5067593403
  0
LINE
  8
0
 62
7
  6
CONTINUOUS
 10
364.716847524
 20
30.5067593403
 11
365.0059102445
 21
30.5067593403
  0
LINE
  8
0
 62
7
  6
CONTINUOUS
 10
365.4684104651
 20
30.5067593403
 11
365.757472524
 21
30.5067593403
  0
LINE
  8
0
 62
7
  6
CONTINUOUS
 10
366.2199727445
 20
30.5067593403
 11
366.5090354651
 21
30.5067593403
  0
LINE
  8
0
 62
7
  6
CONTINUOUS
 10
367.5496604651
 20
30.5067593403
 11
367.838722524
 21
30.5067593403
  0
LINE
  8
0
 62
7
  6
CONTINUOUS
 10
369.1105979651
 20
30.5067593403
 11
369.4574729651
 21
30.5067593403
  0
LINE
  8
0
 62
7
  6
CONTINUOUS
 10
369.4574729651
 20
30.6358140973
 11
369.1105979651
 21
30.6358140973
  0
LINE
  8
0
 62
7
  6
CONTINUOUS
 10
364.0809101343
 20
30.6358140973
 11
363.7340351343
 21
30.6358140973
  0
LINE
  8
0
 62
7
  6
CONTINUOUS
 10
368.5902854651
 20
30.7648688543
 11
368.3012227445
 21
30.7648688543
  0
LINE
  8
0
 62
7
  6
CONTINUOUS
 10
360.6121602997
 20
30.8293962497
 11
360.3230977445
 21
30.8293962497
  0
LINE
  8
0
 62
7
  6
CONTINUOUS
 10
359.6871602721
 20
31.4101426505
 11
360.091847717
 21
31.3778789641
  0
LINE
  8
0
 62
7
  6
CONTINUOUS
 10
360.1496602445
 20
31.5069337098
 11
359.744972717
 21
31.5391973962
  0
LINE
  8
0
 62
7
  6
CONTINUOUS
 10
368.7637229651
 20
30.5390230296
 11
369.1105979651
 21
30.5067593403
  0
LINE
  8
0
 62
7
  6
CONTINUOUS
 10
369.1105979651
 20
30.6358140973
 11
368.7637229651
 21
30.668077795
  0
LINE
  8
0
 62
7
  6
CONTINUOUS
 10
364.543410024
 20
31.5069337098
 11
364.1965353548
 21
31.5391973962
  0
LINE
  8
0
 62
7
  6
CONTINUOUS
 10
369.3418477445
 20
31.4101426505
 11
369.6887227445
 21
31.3778789641
  0
LINE
  8
0
 62
7
  6
CONTINUOUS
 10
369.6887227445
 20
31.5069337098
 11
369.3418477445
 21
31.5391973962
  0
LINE
  8
0
 62
7
  6
CONTINUOUS
 10
367.0293479651
 20
31.4101426505
 11
367.2605977445
 21
31.3778789641
  0
LINE
  8
0
 62
7
  6
CONTINUOUS
 10
369.8621602445
 20
31.4746700234
 11
369.6887227445
 21
31.5069337098
  0
LINE
  8
0
 62
7
  6
CONTINUOUS
 10
370.0355977445
 20
30.6035504109
 11
370.1512223035
 21
30.7003414814
  0
LINE
  8
0
 62
7
  6
CONTINUOUS
 10
364.543410024
 20
30.7971325633
 11
364.369972524
 21
30.7003414814
  0
LINE
  8
0
 62
7
  6
CONTINUOUS
 10
366.624660024
 20
31.4424063369
 11
366.5090354651
 21
31.3778789641
  0
LINE
  8
0
 62
7
  6
CONTINUOUS
 10
366.5090354651
 20
31.2488242184
 11
366.624660024
 21
31.3133515913
  0
LINE
  8
0
 62
7
  6
CONTINUOUS
 10
359.2246602583
 20
31.4746700234
 11
359.0512227376
 21
31.4101426505
  0
LINE
  8
0
 62
7
  6
CONTINUOUS
 10
361.6527851343
 20
31.5069337098
 11
361.4793477997
 21
31.4424063369
  0
LINE
  8
0
 62
7
  6
CONTINUOUS
 10
361.4793477997
 20
31.3133515913
 11
361.6527851343
 21
31.3778789641
  0
LINE
  8
0
 62
7
  6
CONTINUOUS
 10
360.2652852997
 20
30.7326051679
 11
360.091847717
 21
30.668077795
  0
LINE
  8
0
 62
7
  6
CONTINUOUS
 10
369.6887227445
 20
30.668077795
 11
369.4574729651
 21
30.6358140973
  0
LINE
  8
0
 62
7
  6
CONTINUOUS
 10
364.0809101343
 20
30.5067593403
 11
364.369972524
 21
30.5390230296
  0
LINE
  8
0
 62
7
  6
CONTINUOUS
 10
369.4574729651
 20
30.5067593403
 11
369.8043479651
 21
30.5390230296
  0
LINE
  8
0
 62
7
  6
CONTINUOUS
 10
359.744972717
 20
30.5067593403
 11
360.1496602445
 21
30.5390230296
  0
LINE
  8
0
 62
7
  6
CONTINUOUS
 10
360.091847717
 20
30.668077795
 11
359.6871602721
 21
30.6358140973
  0
LINE
  8
0
 62
7
  6
CONTINUOUS
 10
363.9652852445
 20
31.0552420547
 11
364.6012229651
 21
31.0552420547
  0
LINE
  8
0
 62
7
  6
CONTINUOUS
 10
364.6012229651
 20
31.1842968456
 11
363.9652852445
 21
31.1842968456
  0
LINE
  8
0
 62
7
  6
CONTINUOUS
 10
360.3230977445
 20
31.216560532
 11
360.6121602997
 21
31.216560532
  0
LINE
  8
0
 62
7
  6
CONTINUOUS
 10
363.1559103548
 20
31.2810879048
 11
363.4449727445
 21
31.2810879048
  0
LINE
  8
0
 62
7
  6
CONTINUOUS
 10
369.8621602445
 20
31.2810879048
 11
370.1512223035
 21
31.2810879048
  0
LINE
  8
0
 62
7
  6
CONTINUOUS
 10
363.8496603548
 20
31.4101426505
 11
364.1965353548
 21
31.4101426505
  0
LINE
  8
0
 62
7
  6
CONTINUOUS
 10
368.9949727445
 20
31.4101426505
 11
369.3418477445
 21
31.4101426505
  0
LINE
  8
0
 62
7
  6
CONTINUOUS
 10
369.3418477445
 20
31.5391973962
 11
368.9949727445
 21
31.5391973962
  0
LINE
  8
0
 62
7
  6
CONTINUOUS
 10
367.2605977445
 20
31.5391973962
 11
367.0293479651
 21
31.5391973962
  0
LINE
  8
0
 62
7
  6
CONTINUOUS
 10
366.5090354651
 20
31.5391973962
 11
366.2199727445
 21
31.5391973962
  0
LINE
  8
0
 62
7
  6
CONTINUOUS
 10
365.757472524
 20
31.5391973962
 11
365.4684104651
 21
31.5391973962
  0
LINE
  8
0
 62
7
  6
CONTINUOUS
 10
364.1965353548
 20
31.5391973962
 11
363.8496603548
 21
31.5391973962
  0
LINE
  8
0
 62
7
  6
CONTINUOUS
 10
362.1152853548
 20
31.5391973962
 11
361.8840352445
 21
31.5391973962
  0
LINE
  8
0
 62
7
  6
CONTINUOUS
 10
365.4684104651
 20
31.8618343508
 11
365.757472524
 21
31.8618343508
  0
LINE
  8
0
 62
7
  6
CONTINUOUS
 10
365.757472524
 20
32.0231527829
 11
365.4684104651
 21
32.0231527829
  0
LINE
  8
0
 62
7
  6
CONTINUOUS
 10
361.3637227445
 20
32.0231527829
 11
361.0746601894
 21
32.0231527829
  0
LINE
  8
0
 62
7
  6
CONTINUOUS
 10
360.4015045068
 20
32.3100380288
 11
360.8140758554
 21
32.3100380288
  0
LINE
  8
0
 62
7
  6
CONTINUOUS
 10
362.0408487691
 20
32.3100380288
 11
363.4342913921
 21
32.3100380288
  0
LINE
  8
0
 62
7
  6
CONTINUOUS
 10
363.7621602445
 20
32.3100380288
 11
365.1556028675
 21
32.3100380288
  0
LINE
  8
0
 62
7
  6
CONTINUOUS
 10
367.0408487691
 20
32.3100380288
 11
368.4342913921
 21
32.3100380288
  0
LINE
  8
0
 62
7
  6
CONTINUOUS
 10
368.7621602445
 20
32.3100380288
 11
370.1556028675
 21
32.3100380288
  0
LINE
  8
0
 62
7
  6
CONTINUOUS
 10
366.798097524
 20
31.5069337098
 11
366.624660024
 21
31.4424063369
  0
LINE
  8
0
 62
7
  6
CONTINUOUS
 10
364.369972524
 20
30.5390230296
 11
364.543410024
 21
30.6035504109
  0
LINE
  8
0
 62
7
  6
CONTINUOUS
 10
369.8043479651
 20
30.5390230296
 11
370.0355977445
 21
30.6035504109
  0
LINE
  8
0
 62
7
  6
CONTINUOUS
 10
369.8043479651
 20
30.7003414814
 11
369.6887227445
 21
30.668077795
  0
LINE
  8
0
 62
7
  6
CONTINUOUS
 10
368.7637229651
 20
31.3778789641
 11
368.9949727445
 21
31.4101426505
  0
LINE
  8
0
 62
7
  6
CONTINUOUS
 10
366.798097524
 20
31.3778789641
 11
367.0293479651
 21
31.4101426505
  0
LINE
  8
0
 62
7
  6
CONTINUOUS
 10
363.7340351343
 20
31.0229783683
 11
363.9652852445
 21
31.0552420547
  0
LINE
  8
0
 62
7
  6
CONTINUOUS
 10
367.0293479651
 20
31.5391973962
 11
366.798097524
 21
31.5069337098
  0
LINE
  8
0
 62
7
  6
CONTINUOUS
 10
363.6184102445
 20
31.3778789641
 11
363.8496603548
 21
31.4101426505
  0
LINE
  8
0
 62
7
  6
CONTINUOUS
 10
368.9949727445
 20
31.5391973962
 11
368.6480977445
 21
31.5069337098
  0
LINE
  8
0
 62
7
  6
CONTINUOUS
 10
363.9652852445
 20
31.1842968456
 11
363.6184102445
 21
31.1520331591
  0
LINE
  8
0
 62
7
  6
CONTINUOUS
 10
359.744972717
 20
31.5391973962
 11
359.3980977583
 21
31.5069337098
  0
LINE
  8
0
 62
7
  6
CONTINUOUS
 10
363.8496603548
 20
31.5391973962
 11
363.4449727445
 21
31.5069337098
  0
LINE
  8
0
 62
7
  6
CONTINUOUS
 10
361.221176638
 20
33.4575790124
 11
360.565438933
 21
33.4575790124
  0
LINE
  8
0
 62
7
  6
CONTINUOUS
 10
366.624660024
 20
31.3133515913
 11
366.798097524
 21
31.3778789641
  0
LINE
  8
0
 62
7
  6
CONTINUOUS
 10
368.6480977445
 20
31.3456152777
 11
368.7637229651
 21
31.3778789641
  0
LINE
  8
0
 62
7
  6
CONTINUOUS
 10
368.6480977445
 20
31.5069337098
 11
368.4168479651
 21
31.4424063369
  0
LINE
  8
0
 62
7
  6
CONTINUOUS
 10
364.369972524
 20
30.7003414814
 11
364.0809101343
 21
30.6358140973
  0
LINE
  8
0
 62
7
  6
CONTINUOUS
 10
361.6527851343
 20
31.3778789641
 11
361.8840352445
 21
31.4101426505
  0
LINE
  8
0
 62
7
  6
CONTINUOUS
 10
361.8840352445
 20
31.5391973962
 11
361.6527851343
 21
31.5069337098
  0
LINE
  8
0
 62
7
  6
CONTINUOUS
 10
359.4559102445
 20
31.3778789641
 11
359.6871602721
 21
31.4101426505
  0
LINE
  8
0
 62
7
  6
CONTINUOUS
 10
365.9752749986
 20
34.9329888485
 11
366.6310127035
 21
34.9329888485
  0
LINE
  8
0
 62
7
  6
CONTINUOUS
 10
363.6184102445
 20
30.9907146818
 11
363.7340351343
 21
31.0229783683
  0
LINE
  8
0
 62
7
  6
CONTINUOUS
 10
363.6184102445
 20
31.1520331591
 11
363.3871601343
 21
31.0875057863
  0
LINE
  8
0
 62
7
  6
CONTINUOUS
 10
363.5027853548
 20
31.3456152777
 11
363.6184102445
 21
31.3778789641
  0
LINE
  8
0
 62
7
  6
CONTINUOUS
 10
360.1496602445
 20
30.5390230296
 11
360.3809101894
 21
30.6035504109
  0
LINE
  8
0
 62
7
  6
CONTINUOUS
 10
363.4449727445
 20
31.5069337098
 11
363.3293478548
 21
31.4746700234
  0
LINE
  8
0
 62
7
  6
CONTINUOUS
 10
359.3980977583
 20
31.5069337098
 11
359.2246602583
 21
31.4746700234
  0
LINE
  8
0
 62
7
  6
CONTINUOUS
 10
370.1556028675
 20
36.0805298321
 11
368.7621602445
 21
36.0805298321
  0
LINE
  8
0
 62
7
  6
CONTINUOUS
 10
366.7949471298
 20
36.0805298321
 11
366.3823757812
 21
36.0805298321
  0
LINE
  8
0
 62
7
  6
CONTINUOUS
 10
365.1556028675
 20
36.0805298321
 11
363.7621602445
 21
36.0805298321
  0
LINE
  8
0
 62
7
  6
CONTINUOUS
 10
363.4342913921
 20
36.0805298321
 11
362.0408487691
 21
36.0805298321
  0
LINE
  8
0
 62
7
  6
CONTINUOUS
 10
360.1556028675
 20
36.0805298321
 11
358.7621602445
 21
36.0805298321
  0
LINE
  8
0
 62
7
  6
CONTINUOUS
 10
359.3402852307
 20
31.3456152777
 11
359.4559102445
 21
31.3778789641
  0
CIRCLE
  8
0
 62
7
  6
CONTINUOUS
 10
369.458881556
 20
38.4165954059
 40
2.0901639344
  0
ARC
  8
0
 62
7
  6
CONTINUOUS
 10
360.4015045068
 20
33.9493822911
 40
1.6393442623
 50
180.0
 51
270.0
  0
ARC
  8
0
 62
7
  6
CONTINUOUS
 10
366.7949471298
 20
34.4411855698
 40
1.6393442623
 50
0.0
 51
90.0
  0
ARC
  8
0
 62
7
  6
CONTINUOUS
 10
360.8140758554
 20
33.7854478649
 40
1.4754098361
 50
270.0
 51
326.2510114041
  0
ARC
  8
0
 62
7
  6
CONTINUOUS
 10
366.3823757812
 20
34.6051199961
 40
1.4754098361
 50
90.0
 51
146.2510114041
  0
ARC
  8
0
 62
7
  6
CONTINUOUS
 10
361.221176638
 20
34.2772511436
 40
0.8196721311
 50
270.0
 51
360.0
  0
ARC
  8
0
 62
7
  6
CONTINUOUS
 10
365.9752749986
 20
34.1133167174
 40
0.8196721311
 50
90.0
 51
180.0
  0
ARC
  8
0
 62
7
  6
CONTINUOUS
 10
360.565438933
 20
33.867415078
 40
0.4098360656
 50
180.0
 51
270.0
  0
ARC
  8
0
 62
7
  6
CONTINUOUS
 10
366.6310127035
 20
34.5231527829
 40
0.4098360656
 50
0.0
 51
90.0
  0
SOLID
  8
0
 62
7
  6
CONTINUOUS
 10
365.4684104651
 20
31.8618347111
 11
365.4684104651
 21
32.0231531947
 12
365.757472524
 22
31.8618347111
 13
365.757472524
 23
32.0231531947
  0
SOLID
  8
0
 62
7
  6
CONTINUOUS
 10
359.744972717
 20
31.5391977439
 11
360.1496602445
 21
31.5069333244
 12
359.3980977583
 22
31.5069333244
 13
359.3980977583
 23
31.5069333244
  0
SOLID
  8
0
 62
7
  6
CONTINUOUS
 10
359.2246602583
 20
31.4746706537
 11
359.3980977583
 21
31.5069333244
 12
360.1496602445
 22
31.5069333244
 13
360.1496602445
 23
31.5069333244
  0
SOLID
  8
0
 62
7
  6
CONTINUOUS
 10
360.1496602445
 20
31.5069333244
 11
360.3809101894
 21
31.4424063504
 12
359.2246602583
 22
31.4746706537
 13
359.2246602583
 23
31.4746706537
  0
SOLID
  8
0
 62
7
  6
CONTINUOUS
 10
359.0512227376
 20
31.4101419116
 11
359.2246602583
 21
31.4746706537
 12
360.3809101894
 22
31.4424063504
 13
360.3809101894
 23
31.4424063504
  0
SOLID
  8
0
 62
7
  6
CONTINUOUS
 10
359.0512227376
 20
31.4101419116
 11
360.3809101894
 21
31.4424063504
 12
359.6871602721
 22
31.4101419116
 13
359.6871602721
 23
31.4101419116
  0
SOLID
  8
0
 62
7
  6
CONTINUOUS
 10
359.6871602721
 20
31.4101419116
 11
360.3809101894
 21
31.4424063504
 12
360.091847717
 22
31.3778792603
 13
360.091847717
 23
31.3778792603
  0
SOLID
  8
0
 62
7
  6
CONTINUOUS
 10
360.3809101894
 20
31.4424063504
 11
360.5543476894
 21
31.345614957
 12
360.091847717
 22
31.3778792603
 13
360.091847717
 23
31.3778792603
  0
SOLID
  8
0
 62
7
  6
CONTINUOUS
 10
360.2652852997
 20
31.3133521701
 11
360.091847717
 21
31.3778792603
 12
360.5543476894
 22
31.345614957
 13
360.5543476894
 23
31.345614957
  0
SOLID
  8
0
 62
7
  6
CONTINUOUS
 10
360.2652852997
 20
31.3133521701
 11
360.5543476894
 21
31.345614957
 12
360.3230977445
 22
31.2165606992
 13
360.3230977445
 23
31.2165606992
  0
SOLID
  8
0
 62
7
  6
CONTINUOUS
 10
360.5543476894
 20
31.345614957
 11
360.6121602997
 21
31.2165606992
 12
360.3230977445
 22
31.2165606992
 13
360.3230977445
 23
31.2165606992
  0
SOLID
  8
0
 62
7
  6
CONTINUOUS
 10
361.6527851343
 20
31.5069329918
 11
361.8840352445
 21
31.5391972951
 12
362.1152853548
 22
31.5391972951
 13
362.1152853548
 23
31.5391972951
  0
SOLID
  8
0
 62
7
  6
CONTINUOUS
 10
362.1152853548
 20
31.5391972951
 11
362.2887228548
 21
31.5069329918
 12
361.6527851343
 22
31.5069329918
 13
361.6527851343
 23
31.5069329918
  0
SOLID
  8
0
 62
7
  6
CONTINUOUS
 10
361.4793477997
 20
31.4424059016
 11
361.6527851343
 21
31.5069329918
 12
362.2887228548
 22
31.5069329918
 13
362.2887228548
 23
31.5069329918
  0
SOLID
  8
0
 62
7
  6
CONTINUOUS
 10
362.2887228548
 20
31.5069329918
 11
362.4621603548
 21
31.4424059016
 12
361.4793477997
 22
31.4424059016
 13
361.4793477997
 23
31.4424059016
  0
SOLID
  8
0
 62
7
  6
CONTINUOUS
 10
362.4621603548
 20
31.4424059016
 11
361.8840352445
 21
31.4101420472
 12
361.4793477997
 22
31.4424059016
 13
361.4793477997
 23
31.4424059016
  0
SOLID
  8
0
 62
7
  6
CONTINUOUS
 10
361.3637227445
 20
31.3778788115
 11
361.4793477997
 21
31.4424059016
 12
361.8840352445
 22
31.4101420472
 13
361.8840352445
 23
31.4101420472
  0
SOLID
  8
0
 62
7
  6
CONTINUOUS
 10
361.8840352445
 20
31.4101420472
 11
361.6527851343
 21
31.3778788115
 12
361.3637227445
 22
31.3778788115
 13
361.3637227445
 23
31.3778788115
  0
SOLID
  8
0
 62
7
  6
CONTINUOUS
 10
361.8840352445
 20
31.4101420472
 11
362.4621603548
 21
31.4424059016
 12
362.1152853548
 22
31.3778788115
 13
362.1152853548
 23
31.3778788115
  0
SOLID
  8
0
 62
7
  6
CONTINUOUS
 10
362.4621603548
 20
31.4424059016
 11
362.5777852445
 21
31.3778788115
 12
362.1152853548
 22
31.3778788115
 13
362.1152853548
 23
31.3778788115
  0
SOLID
  8
0
 62
7
  6
CONTINUOUS
 10
362.2309102445
 20
31.345614957
 11
362.1152853548
 21
31.3778788115
 12
362.5777852445
 22
31.3778788115
 13
362.5777852445
 23
31.3778788115
  0
SOLID
  8
0
 62
7
  6
CONTINUOUS
 10
362.5777852445
 20
31.3778788115
 11
362.6355978548
 21
31.3133517213
 12
362.2309102445
 22
31.345614957
 13
362.2309102445
 23
31.345614957
  0
SOLID
  8
0
 62
7
  6
CONTINUOUS
 10
362.3465351343
 20
31.2810878668
 11
362.2309102445
 21
31.345614957
 12
362.6355978548
 22
31.3133517213
 13
362.6355978548
 23
31.3133517213
  0
SOLID
  8
0
 62
7
  6
CONTINUOUS
 10
362.3465351343
 20
31.2810878668
 11
362.6355978548
 21
31.3133517213
 12
362.4043477445
 22
31.1520332377
 13
362.4043477445
 23
31.1520332377
  0
SOLID
  8
0
 62
7
  6
CONTINUOUS
 10
362.6355978548
 20
31.3133517213
 11
362.6934101343
 21
31.1520332377
 12
362.4043477445
 22
31.1520332377
 13
362.4043477445
 23
31.1520332377
  0
SOLID
  8
0
 62
7
  6
CONTINUOUS
 10
361.6527851343
 20
31.3778788115
 11
361.4793477997
 21
31.3133517213
 12
361.3637227445
 22
31.3778788115
 13
361.3637227445
 23
31.3778788115
  0
SOLID
  8
0
 62
7
  6
CONTINUOUS
 10
361.4793477997
 20
31.3133517213
 11
361.3637227445
 21
31.2488235635
 12
361.3637227445
 22
31.3778788115
 13
361.3637227445
 23
31.3778788115
  0
SOLID
  8
0
 62
7
  6
CONTINUOUS
 10
361.3637227445
 20
31.2488235635
 11
361.0746601894
 21
30.5067593033
 12
361.3637227445
 22
31.3778788115
 13
361.3637227445
 23
31.3778788115
  0
SOLID
  8
0
 62
7
  6
CONTINUOUS
 10
361.3637227445
 20
31.3778788115
 11
361.0746601894
 21
30.5067593033
 12
361.3637227445
 22
32.0231527459
 13
361.3637227445
 23
32.0231527459
  0
SOLID
  8
0
 62
7
  6
CONTINUOUS
 10
361.0746601894
 20
30.5067593033
 11
361.0746601894
 21
32.0231527459
 12
361.3637227445
 22
32.0231527459
 13
361.3637227445
 23
32.0231527459
  0
SOLID
  8
0
 62
7
  6
CONTINUOUS
 10
361.3637227445
 20
31.2488235635
 11
361.3637227445
 21
30.5067593033
 12
361.0746601894
 22
30.5067593033
 13
361.0746601894
 23
30.5067593033
  0
SOLID
  8
0
 62
7
  6
CONTINUOUS
 10
362.4043477445
 20
30.5067593033
 11
362.4043477445
 21
31.1520332377
 12
362.6934101343
 22
31.1520332377
 13
362.6934101343
 23
31.1520332377
  0
SOLID
  8
0
 62
7
  6
CONTINUOUS
 10
362.6934101343
 20
31.1520332377
 11
362.6934101343
 21
30.5067593033
 12
362.4043477445
 22
30.5067593033
 13
362.4043477445
 23
30.5067593033
  0
SOLID
  8
0
 62
7
  6
CONTINUOUS
 10
363.4449727445
 20
31.506933758
 11
363.8496603548
 21
31.5391977507
 12
364.1965353548
 22
31.5391977507
 13
364.1965353548
 23
31.5391977507
  0
SOLID
  8
0
 62
7
  6
CONTINUOUS
 10
364.1965353548
 20
31.5391977507
 11
364.543410024
 21
31.506933758
 12
363.4449727445
 22
31.506933758
 13
363.4449727445
 23
31.506933758
  0
SOLID
  8
0
 62
7
  6
CONTINUOUS
 10
363.3293478548
 20
31.4746706537
 11
363.4449727445
 21
31.506933758
 12
364.543410024
 22
31.506933758
 13
364.543410024
 23
31.506933758
  0
SOLID
  8
0
 62
7
  6
CONTINUOUS
 10
364.543410024
 20
31.506933758
 11
364.716847524
 21
31.4424063504
 12
363.3293478548
 22
31.4746706537
 13
363.3293478548
 23
31.4746706537
  0
SOLID
  8
0
 62
7
  6
CONTINUOUS
 10
363.2137226343
 20
31.4101417797
 11
363.3293478548
 21
31.4746706537
 12
364.716847524
 22
31.4424063504
 13
364.716847524
 23
31.4424063504
  0
SOLID
  8
0
 62
7
  6
CONTINUOUS
 10
363.2137226343
 20
31.4101417797
 11
364.716847524
 21
31.4424063504
 12
363.8496603548
 22
31.4101417797
 13
363.8496603548
 23
31.4101417797
  0
SOLID
  8
0
 62
7
  6
CONTINUOUS
 10
363.8496603548
 20
31.4101417797
 11
364.716847524
 21
31.4424063504
 12
364.1965353548
 22
31.4101417797
 13
364.1965353548
 23
31.4101417797
  0
SOLID
  8
0
 62
7
  6
CONTINUOUS
 10
364.1965353548
 20
31.4101417797
 11
364.716847524
 21
31.4424063504
 12
364.4277854651
 22
31.3778793357
 13
364.4277854651
 23
31.3778793357
  0
SOLID
  8
0
 62
7
  6
CONTINUOUS
 10
364.716847524
 20
31.4424063504
 11
364.8324727445
 21
31.3778793357
 12
364.4277854651
 22
31.3778793357
 13
364.4277854651
 23
31.3778793357
  0
SOLID
  8
0
 62
7
  6
CONTINUOUS
 10
363.1559103548
 20
31.3456153429
 11
363.2137226343
 21
31.4101417797
 12
363.8496603548
 22
31.4101417797
 13
363.8496603548
 23
31.4101417797
  0
SOLID
  8
0
 62
7
  6
CONTINUOUS
 10
364.543410024
 20
31.3456153429
 11
364.4277854651
 21
31.3778793357
 12
364.8324727445
 22
31.3778793357
 13
364.8324727445
 23
31.3778793357
  0
SOLID
  8
0
 62
7
  6
CONTINUOUS
 10
364.543410024
 20
31.3456153429
 11
364.8324727445
 21
31.3778793357
 12
364.6012229651
 22
31.2810881318
 13
364.6012229651
 23
31.2810881318
  0
SOLID
  8
0
 62
7
  6
CONTINUOUS
 10
364.8324727445
 20
31.3778793357
 11
364.890285024
 21
31.2810881318
 12
364.6012229651
 22
31.2810881318
 13
364.6012229651
 23
31.2810881318
  0
SOLID
  8
0
 62
7
  6
CONTINUOUS
 10
364.6012229651
 20
31.1842964734
 11
364.6012229651
 21
31.2810881318
 12
364.890285024
 22
31.2810881318
 13
364.890285024
 23
31.2810881318
  0
SOLID
  8
0
 62
7
  6
CONTINUOUS
 10
364.6012229651
 20
31.1842964734
 11
364.890285024
 21
31.2810881318
 12
364.6012229651
 22
31.0552422931
 13
364.6012229651
 23
31.0552422931
  0
SOLID
  8
0
 62
7
  6
CONTINUOUS
 10
364.6012229651
 20
31.0552422931
 11
364.890285024
 21
31.2810881318
 12
364.6012229651
 22
30.8616599362
 13
364.6012229651
 23
30.8616599362
  0
SOLID
  8
0
 62
7
  6
CONTINUOUS
 10
364.890285024
 20
31.2810881318
 11
364.890285024
 21
30.7648681127
 12
364.6012229651
 22
30.8616599362
 13
364.6012229651
 23
30.8616599362
  0
SOLID
  8
0
 62
7
  6
CONTINUOUS
 10
366.798097524
 20
31.5069339419
 11
367.0293479651
 21
31.5391976292
 12
367.2605977445
 22
31.5391976292
 13
367.2605977445
 23
31.5391976292
  0
SOLID
  8
0
 62
7
  6
CONTINUOUS
 10
367.2605977445
 20
31.5391976292
 11
367.4340352445
 21
31.5069339419
 12
366.798097524
 22
31.5069339419
 13
366.798097524
 23
31.5069339419
  0
SOLID
  8
0
 62
7
  6
CONTINUOUS
 10
366.624660024
 20
31.4424065674
 11
366.798097524
 21
31.5069339419
 12
367.4340352445
 22
31.5069339419
 13
367.4340352445
 23
31.5069339419
  0
SOLID
  8
0
 62
7
  6
CONTINUOUS
 10
367.4340352445
 20
31.5069339419
 11
367.6074727445
 21
31.4424065674
 12
366.624660024
 22
31.4424065674
 13
366.624660024
 23
31.4424065674
  0
SOLID
  8
0
 62
7
  6
CONTINUOUS
 10
367.6074727445
 20
31.4424065674
 11
367.0293479651
 21
31.4101420472
 12
366.624660024
 22
31.4424065674
 13
366.624660024
 23
31.4424065674
  0
SOLID
  8
0
 62
7
  6
CONTINUOUS
 10
366.5090354651
 20
31.377879193
 11
366.624660024
 21
31.4424065674
 12
367.0293479651
 22
31.4101420472
 13
367.0293479651
 23
31.4101420472
  0
SOLID
  8
0
 62
7
  6
CONTINUOUS
 10
367.0293479651
 20
31.4101420472
 11
366.798097524
 21
31.377879193
 12
366.5090354651
 22
31.377879193
 13
366.5090354651
 23
31.377879193
  0
SOLID
  8
0
 62
7
  6
CONTINUOUS
 10
367.0293479651
 20
31.4101420472
 11
367.6074727445
 21
31.4424065674
 12
367.2605977445
 22
31.377879193
 13
367.2605977445
 23
31.377879193
  0
SOLID
  8
0
 62
7
  6
CONTINUOUS
 10
367.6074727445
 20
31.4424065674
 11
367.7230979651
 21
31.377879193
 12
367.2605977445
 22
31.377879193
 13
367.2605977445
 23
31.377879193
  0
SOLID
  8
0
 62
7
  6
CONTINUOUS
 10
367.3762229651
 20
31.345614957
 11
367.2605977445
 21
31.377879193
 12
367.7230979651
 22
31.377879193
 13
367.7230979651
 23
31.377879193
  0
SOLID
  8
0
 62
7
  6
CONTINUOUS
 10
367.3762229651
 20
31.345614957
 11
367.7230979651
 21
31.377879193
 12
367.491847524
 22
31.2810881312
 13
367.491847524
 23
31.2810881312
  0
SOLID
  8
0
 62
7
  6
CONTINUOUS
 10
367.7230979651
 20
31.377879193
 11
367.7809102445
 21
31.2810881312
 12
367.491847524
 22
31.2810881312
 13
367.491847524
 23
31.2810881312
  0
SOLID
  8
0
 62
7
  6
CONTINUOUS
 10
367.5496604651
 20
31.119769695
 11
367.491847524
 21
31.2810881312
 12
367.7809102445
 22
31.2810881312
 13
367.7809102445
 23
31.2810881312
  0
SOLID
  8
0
 62
7
  6
CONTINUOUS
 10
367.7809102445
 20
31.2810881312
 11
367.838722524
 21
31.119769695
 12
367.5496604651
 22
31.119769695
 13
367.5496604651
 23
31.119769695
  0
SOLID
  8
0
 62
7
  6
CONTINUOUS
 10
366.798097524
 20
31.377879193
 11
366.624660024
 21
31.3133521701
 12
366.5090354651
 22
31.377879193
 13
366.5090354651
 23
31.377879193
  0
SOLID
  8
0
 62
7
  6
CONTINUOUS
 10
366.624660024
 20
31.3133521701
 11
366.5090354651
 21
31.2488235635
 12
366.5090354651
 22
31.377879193
 13
366.5090354651
 23
31.377879193
  0
SOLID
  8
0
 62
7
  6
CONTINUOUS
 10
366.5090354651
 20
31.2488235635
 11
366.2199727445
 21
30.5067596374
 12
366.5090354651
 22
31.377879193
 13
366.5090354651
 23
31.377879193
  0
SOLID
  8
0
 62
7
  6
CONTINUOUS
 10
366.5090354651
 20
31.377879193
 11
366.2199727445
 21
30.5067596374
 12
366.5090354651
 22
31.5391976292
 13
366.5090354651
 23
31.5391976292
  0
SOLID
  8
0
 62
7
  6
CONTINUOUS
 10
366.2199727445
 20
30.5067596374
 11
366.2199727445
 21
31.5391976292
 12
366.5090354651
 22
31.5391976292
 13
366.5090354651
 23
31.5391976292
  0
SOLID
  8
0
 62
7
  6
CONTINUOUS
 10
366.5090354651
 20
31.2488235635
 11
366.5090354651
 21
30.5067596374
 12
366.2199727445
 22
30.5067596374
 13
366.2199727445
 23
30.5067596374
  0
SOLID
  8
0
 62
7
  6
CONTINUOUS
 10
367.5496604651
 20
30.5067596374
 11
367.5496604651
 21
31.119769695
 12
367.838722524
 22
31.119769695
 13
367.838722524
 23
31.119769695
  0
SOLID
  8
0
 62
7
  6
CONTINUOUS
 10
367.838722524
 20
31.119769695
 11
367.838722524
 21
30.5067596374
 12
367.5496604651
 22
30.5067596374
 13
367.5496604651
 23
30.5067596374
  0
SOLID
  8
0
 62
7
  6
CONTINUOUS
 10
368.6480977445
 20
31.5069334157
 11
368.9949727445
 21
31.539197762
 12
369.3418477445
 22
31.539197762
 13
369.3418477445
 23
31.539197762
  0
SOLID
  8
0
 62
7
  6
CONTINUOUS
 10
369.3418477445
 20
31.539197762
 11
369.6887227445
 21
31.5069334157
 12
368.6480977445
 22
31.5069334157
 13
368.6480977445
 23
31.5069334157
  0
SOLID
  8
0
 62
7
  6
CONTINUOUS
 10
368.4168479651
 20
31.4424063504
 11
368.6480977445
 21
31.5069334157
 12
369.6887227445
 22
31.5069334157
 13
369.6887227445
 23
31.5069334157
  0
SOLID
  8
0
 62
7
  6
CONTINUOUS
 10
368.4168479651
 20
31.4424063504
 11
369.6887227445
 21
31.5069334406
 12
369.8621602445
 22
31.4746706537
 13
369.8621602445
 23
31.4746706537
  0
SOLID
  8
0
 62
7
  6
CONTINUOUS
 10
368.4168479651
 20
31.4424063504
 11
369.8621602445
 21
31.4746706537
 12
368.9949727445
 22
31.4101421267
 13
368.9949727445
 23
31.4101421267
  0
SOLID
  8
0
 62
7
  6
CONTINUOUS
 10
368.9949727445
 20
31.4101421267
 11
369.8621602445
 21
31.4746706537
 12
369.3418477445
 22
31.4101421267
 13
369.3418477445
 23
31.4101421267
  0
SOLID
  8
0
 62
7
  6
CONTINUOUS
 10
369.8621602445
 20
31.4746706537
 11
370.0355977445
 21
31.4101421267
 12
369.3418477445
 22
31.4101421267
 13
369.3418477445
 23
31.4101421267
  0
SOLID
  8
0
 62
7
  6
CONTINUOUS
 10
369.6887227445
 20
31.3778792603
 11
369.3418477445
 21
31.4101421267
 12
370.0355977445
 22
31.4101421267
 13
370.0355977445
 23
31.4101421267
  0
SOLID
  8
0
 62
7
  6
CONTINUOUS
 10
368.3012227445
 20
31.3456148845
 11
368.4168479651
 21
31.4424063504
 12
368.9949727445
 22
31.4101421267
 13
368.9949727445
 23
31.4101421267
  0
SOLID
  8
0
 62
7
  6
CONTINUOUS
 10
369.6887227445
 20
31.3778792603
 11
370.0355977445
 21
31.4101421267
 12
369.8043479651
 22
31.3456148845
 13
369.8043479651
 23
31.3456148845
  0
SOLID
  8
0
 62
7
  6
CONTINUOUS
 10
369.8043479651
 20
31.3456148845
 11
370.0355977445
 21
31.4101421267
 12
369.8621602445
 22
31.281087868
 13
369.8621602445
 23
31.281087868
  0
SOLID
  8
0
 62
7
  6
CONTINUOUS
 10
370.0355977445
 20
31.4101421267
 11
370.1512223035
 21
31.281087868
 12
369.8621602445
 22
31.281087868
 13
369.8621602445
 23
31.281087868
  0
SOLID
  8
0
 62
7
  6
CONTINUOUS
 10
359.4559102445
 20
31.3778792603
 11
358.9355977445
 21
31.3456148963
 12
359.6871602721
 22
31.4101421155
 13
359.6871602721
 23
31.4101421155
  0
SOLID
  8
0
 62
7
  6
CONTINUOUS
 10
358.9355977445
 20
31.3456148963
 11
359.0512227376
 21
31.4101421155
 12
359.6871602721
 22
31.4101421155
 13
359.6871602721
 23
31.4101421155
  0
SOLID
  8
0
 62
7
  6
CONTINUOUS
 10
359.4559102445
 20
31.3778792603
 11
359.3402852307
 21
31.3456148963
 12
358.9355977445
 22
31.3456148963
 13
358.9355977445
 23
31.3456148963
  0
SOLID
  8
0
 62
7
  6
CONTINUOUS
 10
358.8199727462
 20
31.2165607767
 11
358.9355977445
 21
31.3456148963
 12
359.3402852307
 22
31.3456148963
 13
359.3402852307
 23
31.3456148963
  0
SOLID
  8
0
 62
7
  6
CONTINUOUS
 10
363.1559103548
 20
31.3456149608
 11
363.8496603548
 21
31.4101420472
 12
363.6184102445
 22
31.3778792603
 13
363.6184102445
 23
31.3778792603
  0
SOLID
  8
0
 62
7
  6
CONTINUOUS
 10
363.6184102445
 20
31.3778792603
 11
363.5027853548
 21
31.3456149608
 12
363.1559103548
 22
31.3456149608
 13
363.1559103548
 23
31.3456149608
  0
SOLID
  8
0
 62
7
  6
CONTINUOUS
 10
363.1559103548
 20
31.2810878707
 11
363.1559103548
 21
31.3456149608
 12
363.5027853548
 22
31.3456149608
 13
363.5027853548
 23
31.3456149608
  0
SOLID
  8
0
 62
7
  6
CONTINUOUS
 10
363.5027853548
 20
31.3456149608
 11
363.4449727445
 21
31.2810878707
 12
363.1559103548
 22
31.2810878707
 13
363.1559103548
 23
31.2810878707
  0
SOLID
  8
0
 62
7
  6
CONTINUOUS
 10
368.3012227445
 20
31.3456149608
 11
368.9949727445
 21
31.4101420472
 12
368.7637229651
 22
31.3778792603
 13
368.7637229651
 23
31.3778792603
  0
SOLID
  8
0
 62
7
  6
CONTINUOUS
 10
368.7637229651
 20
31.3778792603
 11
368.6480977445
 21
31.3456149608
 12
368.3012227445
 22
31.3456149608
 13
368.3012227445
 23
31.3456149608
  0
SOLID
  8
0
 62
7
  6
CONTINUOUS
 10
368.3012227445
 20
31.2810878707
 11
368.3012227445
 21
31.3456149608
 12
368.6480977445
 22
31.3456149608
 13
368.6480977445
 23
31.3456149608
  0
SOLID
  8
0
 62
7
  6
CONTINUOUS
 10
368.6480977445
 20
31.3456149608
 11
368.5902854651
 21
31.2810878707
 12
368.3012227445
 22
31.2810878707
 13
368.3012227445
 23
31.2810878707
  0
SOLID
  8
0
 62
7
  6
CONTINUOUS
 10
368.4168479651
 20
31.1520336865
 11
368.3012227445
 21
31.2810878707
 12
368.5902854651
 22
31.2810878707
 13
368.5902854651
 23
31.2810878707
  0
SOLID
  8
0
 62
7
  6
CONTINUOUS
 10
358.8199727462
 20
31.2165607767
 11
359.3402852307
 21
31.345614957
 12
359.1668477307
 22
31.2488235635
 13
359.1668477307
 23
31.2488235635
  0
SOLID
  8
0
 62
7
  6
CONTINUOUS
 10
359.1668477307
 20
31.2488235635
 11
359.1090352445
 21
31.1842964734
 12
358.8199727462
 22
31.2165607767
 13
358.8199727462
 23
31.2165607767
  0
SOLID
  8
0
 62
7
  6
CONTINUOUS
 10
358.7621602445
 20
31.0229779898
 11
358.8199727462
 21
31.2165607767
 12
359.1090352445
 22
31.1842964734
 13
359.1090352445
 23
31.1842964734
  0
SOLID
  8
0
 62
7
  6
CONTINUOUS
 10
363.6184102445
 20
31.1520336865
 11
363.9652852445
 21
31.1842964611
 12
364.6012229651
 22
31.1842964611
 13
364.6012229651
 23
31.1842964611
  0
SOLID
  8
0
 62
7
  6
CONTINUOUS
 10
363.6184102445
 20
31.1520336865
 11
364.6012229651
 21
31.1842964611
 12
363.3871601343
 22
31.0875057863
 13
363.3871601343
 23
31.0875057863
  0
SOLID
  8
0
 62
7
  6
CONTINUOUS
 10
363.3871601343
 20
31.0875057863
 11
364.6012229651
 21
31.1842964611
 12
363.9652852445
 22
31.0552422808
 13
363.9652852445
 23
31.0552422808
  0
SOLID
  8
0
 62
7
  6
CONTINUOUS
 10
364.6012229651
 20
31.1842964611
 11
364.6012229651
 21
31.0552422808
 12
363.9652852445
 22
31.0552422808
 13
363.9652852445
 23
31.0552422808
  0
SOLID
  8
0
 62
7
  6
CONTINUOUS
 10
368.4168479651
 20
31.1520338754
 11
368.5902854651
 21
31.2810878668
 12
368.6480977445
 22
31.2165607767
 13
368.6480977445
 23
31.2165607767
  0
SOLID
  8
0
 62
7
  6
CONTINUOUS
 10
368.6480977445
 20
31.2165607767
 11
368.8215352445
 21
31.1520338754
 12
368.4168479651
 22
31.1520338754
 13
368.4168479651
 23
31.1520338754
  0
SOLID
  8
0
 62
7
  6
CONTINUOUS
 10
368.6480977445
 20
31.0552422931
 11
368.4168479651
 21
31.1520338754
 12
368.8215352445
 22
31.1520338754
 13
368.8215352445
 23
31.1520338754
  0
SOLID
  8
0
 62
7
  6
CONTINUOUS
 10
368.8215352445
 20
31.1520338754
 11
369.8043479651
 21
30.9907152029
 12
368.6480977445
 22
31.0552422931
 13
368.6480977445
 23
31.0552422931
  0
SOLID
  8
0
 62
7
  6
CONTINUOUS
 10
369.6309104651
 20
30.8939239876
 11
368.6480977445
 21
31.0552422931
 12
369.8043479651
 22
30.9907152029
 13
369.8043479651
 23
30.9907152029
  0
SOLID
  8
0
 62
7
  6
CONTINUOUS
 10
369.8043479651
 20
30.9907152029
 11
370.0355977445
 21
30.8939239876
 12
369.6309104651
 22
30.8939239876
 13
369.6309104651
 23
30.8939239876
  0
SOLID
  8
0
 62
7
  6
CONTINUOUS
 10
369.8043479651
 20
30.8293967193
 11
369.6309104651
 21
30.8939239876
 12
370.0355977445
 22
30.8939239876
 13
370.0355977445
 23
30.8939239876
  0
SOLID
  8
0
 62
7
  6
CONTINUOUS
 10
369.8043479651
 20
30.8293967193
 11
370.0355977445
 21
30.8939239876
 12
369.8621602445
 22
30.7648682694
 13
369.8621602445
 23
30.7648682694
  0
SOLID
  8
0
 62
7
  6
CONTINUOUS
 10
370.0355977445
 20
30.8939239876
 11
370.1512223035
 21
30.7648682694
 12
369.8621602445
 22
30.7648682694
 13
369.8621602445
 23
30.7648682694
  0
SOLID
  8
0
 62
7
  6
CONTINUOUS
 10
369.8043479651
 20
30.7003411846
 11
369.8621602445
 21
30.7648682694
 12
370.1512223035
 22
30.7648682694
 13
370.1512223035
 23
30.7648682694
  0
SOLID
  8
0
 62
7
  6
CONTINUOUS
 10
370.1512223035
 20
30.7648682694
 11
370.1512223035
 21
30.7003411846
 12
369.8043479651
 22
30.7003411846
 13
369.8043479651
 23
30.7003411846
  0
SOLID
  8
0
 62
7
  6
CONTINUOUS
 10
369.6887227445
 20
30.6680782357
 11
369.8043479651
 21
30.7003411846
 12
370.1512223035
 22
30.7003411846
 13
370.1512223035
 23
30.7003411846
  0
SOLID
  8
0
 62
7
  6
CONTINUOUS
 10
369.6887227445
 20
30.6680782357
 11
370.1512223035
 21
30.7003411846
 12
369.4574729651
 22
30.6358140998
 13
369.4574729651
 23
30.6358140998
  0
SOLID
  8
0
 62
7
  6
CONTINUOUS
 10
370.1512223035
 20
30.7003411846
 11
370.0355977445
 21
30.6035511455
 12
369.4574729651
 22
30.6358140998
 13
369.4574729651
 23
30.6358140998
  0
SOLID
  8
0
 62
7
  6
CONTINUOUS
 10
370.0355977445
 20
30.6035511455
 11
368.5902854651
 21
30.5712868422
 12
369.4574729651
 22
30.6358140998
 13
369.4574729651
 23
30.6358140998
  0
SOLID
  8
0
 62
7
  6
CONTINUOUS
 10
369.4574729651
 20
30.6358140998
 11
368.5902854651
 21
30.5712868422
 12
369.1105979651
 22
30.6358140998
 13
369.1105979651
 23
30.6358140998
  0
SOLID
  8
0
 62
7
  6
CONTINUOUS
 10
368.5902854651
 20
30.5712868422
 11
368.4168479651
 21
30.6358140998
 12
369.1105979651
 22
30.6358140998
 13
369.1105979651
 23
30.6358140998
  0
SOLID
  8
0
 62
7
  6
CONTINUOUS
 10
368.5902854651
 20
30.5712868422
 11
370.0355977445
 21
30.6035511455
 12
368.7637229651
 22
30.5390223111
 13
368.7637229651
 23
30.5390223111
  0
SOLID
  8
0
 62
7
  6
CONTINUOUS
 10
370.0355977445
 20
30.6035511455
 11
369.8043479651
 21
30.5390223111
 12
368.7637229651
 22
30.5390223111
 13
368.7637229651
 23
30.5390223111
  0
SOLID
  8
0
 62
7
  6
CONTINUOUS
 10
369.1105979651
 20
30.5067599302
 11
368.7637229651
 21
30.5390223111
 12
369.8043479651
 22
30.5390223111
 13
369.8043479651
 23
30.5390223111
  0
SOLID
  8
0
 62
7
  6
CONTINUOUS
 10
369.8043479651
 20
30.5390223111
 11
369.4574729651
 21
30.5067599302
 12
369.1105979651
 22
30.5067599302
 13
369.1105979651
 23
30.5067599302
  0
SOLID
  8
0
 62
7
  6
CONTINUOUS
 10
358.7621602445
 20
31.0229779898
 11
359.1090352445
 21
31.1842964734
 12
359.0512227376
 22
31.0552422931
 13
359.0512227376
 23
31.0552422931
  0
SOLID
  8
0
 62
7
  6
CONTINUOUS
 10
359.0512227376
 20
31.0552422931
 11
359.0512227376
 21
30.9584509954
 12
358.7621602445
 22
31.0229779898
 13
358.7621602445
 23
31.0229779898
  0
SOLID
  8
0
 62
7
  6
CONTINUOUS
 10
358.8199727462
 20
30.8293967193
 11
358.7621602445
 21
31.0229779898
 12
359.0512227376
 22
30.9584509954
 13
359.0512227376
 23
30.9584509954
  0
SOLID
  8
0
 62
7
  6
CONTINUOUS
 10
359.0512227376
 20
30.9584509954
 11
359.1668477307
 21
30.797132416
 12
358.8199727462
 22
30.8293967193
 13
358.8199727462
 23
30.8293967193
  0
SOLID
  8
0
 62
7
  6
CONTINUOUS
 10
358.9355977445
 20
30.7003413087
 11
358.8199727462
 21
30.8293967193
 12
359.1668477307
 22
30.797132416
 13
359.1668477307
 23
30.797132416
  0
SOLID
  8
0
 62
7
  6
CONTINUOUS
 10
359.1668477307
 20
30.797132416
 11
359.3402852307
 21
30.7003413087
 12
358.9355977445
 22
30.7003413087
 13
358.9355977445
 23
30.7003413087
  0
SOLID
  8
0
 62
7
  6
CONTINUOUS
 10
359.0512227376
 20
30.6358140759
 11
358.9355977445
 21
30.7003413087
 12
359.3402852307
 22
30.7003413087
 13
359.3402852307
 23
30.7003413087
  0
SOLID
  8
0
 62
7
  6
CONTINUOUS
 10
359.3402852307
 20
30.7003413087
 11
359.6871602721
 21
30.6358140759
 12
359.0512227376
 22
30.6358140759
 13
359.0512227376
 23
30.6358140759
  0
SOLID
  8
0
 62
7
  6
CONTINUOUS
 10
359.2246602583
 20
30.5712868422
 11
359.0512227376
 21
30.6358140759
 12
359.6871602721
 22
30.6358140759
 13
359.6871602721
 23
30.6358140759
  0
SOLID
  8
0
 62
7
  6
CONTINUOUS
 10
363.2715352445
 20
31.0229779808
 11
363.3871601343
 21
31.0875057863
 12
363.9652852445
 22
31.0552422931
 13
363.9652852445
 23
31.0552422931
  0
SOLID
  8
0
 62
7
  6
CONTINUOUS
 10
363.9652852445
 20
31.0552422931
 11
363.7340351343
 21
31.0229779808
 12
363.2715352445
 22
31.0229779808
 13
363.2715352445
 23
31.0229779808
  0
SOLID
  8
0
 62
7
  6
CONTINUOUS
 10
363.1559103548
 20
30.8939238094
 11
363.2715352445
 21
31.0229779808
 12
363.7340351343
 22
31.0229779808
 13
363.7340351343
 23
31.0229779808
  0
SOLID
  8
0
 62
7
  6
CONTINUOUS
 10
363.5027853548
 20
30.926187309
 11
363.1559103548
 21
30.8939238094
 12
363.6184102445
 22
30.9907152029
 13
363.6184102445
 23
30.9907152029
  0
SOLID
  8
0
 62
7
  6
CONTINUOUS
 10
363.1559103548
 20
30.8939238094
 11
363.7340351343
 21
31.0229779898
 12
363.6184102445
 22
30.9907152029
 13
363.6184102445
 23
30.9907152029
  0
SOLID
  8
0
 62
7
  6
CONTINUOUS
 10
363.5027853548
 20
30.926187309
 11
363.4449727445
 21
30.8293967193
 12
363.1559103548
 22
30.8939238094
 13
363.1559103548
 23
30.8939238094
  0
SOLID
  8
0
 62
7
  6
CONTINUOUS
 10
363.1559103548
 20
30.797132416
 11
363.1559103548
 21
30.8939238094
 12
363.4449727445
 22
30.8293967193
 13
363.4449727445
 23
30.8293967193
  0
SOLID
  8
0
 62
7
  6
CONTINUOUS
 10
363.4449727445
 20
30.8293967193
 11
363.4449727445
 21
30.7648681127
 12
363.1559103548
 22
30.797132416
 13
363.1559103548
 23
30.797132416
  0
SOLID
  8
0
 62
7
  6
CONTINUOUS
 10
363.2137226343
 20
30.6680782357
 11
363.1559103548
 21
30.797132416
 12
363.4449727445
 22
30.7648681127
 13
363.4449727445
 23
30.7648681127
  0
SOLID
  8
0
 62
7
  6
CONTINUOUS
 10
364.6012229651
 20
30.8616599362
 11
364.890285024
 21
30.7648681127
 12
364.543410024
 22
30.797132416
 13
364.543410024
 23
30.797132416
  0
SOLID
  8
0
 62
7
  6
CONTINUOUS
 10
364.369972524
 20
30.7003410226
 11
364.543410024
 21
30.797132416
 12
364.890285024
 22
30.7648681127
 13
364.890285024
 23
30.7648681127
  0
SOLID
  8
0
 62
7
  6
CONTINUOUS
 10
364.369972524
 20
30.7003410226
 11
364.890285024
 21
30.7648681127
 12
364.6012229651
 22
30.6680782357
 13
364.6012229651
 23
30.6680782357
  0
SOLID
  8
0
 62
7
  6
CONTINUOUS
 10
364.890285024
 20
30.7648681127
 11
364.9480979651
 21
30.6035511455
 12
364.6012229651
 22
30.6680782357
 13
364.6012229651
 23
30.6680782357
  0
SOLID
  8
0
 62
7
  6
CONTINUOUS
 10
364.6590352445
 20
30.5712868422
 11
364.6012229651
 21
30.6680782357
 12
364.9480979651
 22
30.6035511455
 13
364.9480979651
 23
30.6035511455
  0
SOLID
  8
0
 62
7
  6
CONTINUOUS
 10
364.6590352445
 20
30.5712868422
 11
364.9480979651
 21
30.6035511455
 12
364.716847524
 22
30.5067598731
 13
364.716847524
 23
30.5067598731
  0
SOLID
  8
0
 62
7
  6
CONTINUOUS
 10
364.9480979651
 20
30.6035511455
 11
365.0059102445
 21
30.5067598731
 12
364.716847524
 22
30.5067598731
 13
364.716847524
 23
30.5067598731
  0
SOLID
  8
0
 62
7
  6
CONTINUOUS
 10
360.2652852997
 20
30.7326051679
 11
360.3230977445
 21
30.8293966612
 12
360.6121602997
 22
30.8293966612
 13
360.6121602997
 23
30.8293966612
  0
SOLID
  8
0
 62
7
  6
CONTINUOUS
 10
360.6121602997
 20
30.8293966612
 11
360.5543476894
 21
30.7003410226
 12
360.2652852997
 22
30.7326051679
 13
360.2652852997
 23
30.7326051679
  0
SOLID
  8
0
 62
7
  6
CONTINUOUS
 10
360.091847717
 20
30.6680782357
 11
360.2652852997
 21
30.7326051679
 12
360.5543476894
 22
30.7003410226
 13
360.5543476894
 23
30.7003410226
  0
SOLID
  8
0
 62
7
  6
CONTINUOUS
 10
360.091847717
 20
30.6680782357
 11
360.5543476894
 21
30.7003410226
 12
359.6871602721
 22
30.6358139324
 13
359.6871602721
 23
30.6358139324
  0
SOLID
  8
0
 62
7
  6
CONTINUOUS
 10
360.5543476894
 20
30.7003410226
 11
360.3809101894
 21
30.6035511455
 12
359.6871602721
 22
30.6358139324
 13
359.6871602721
 23
30.6358139324
  0
SOLID
  8
0
 62
7
  6
CONTINUOUS
 10
359.2246602583
 20
30.5712868422
 11
359.6871602721
 21
30.6358139324
 12
360.3809101894
 22
30.6035511455
 13
360.3809101894
 23
30.6035511455
  0
SOLID
  8
0
 62
7
  6
CONTINUOUS
 10
359.2246602583
 20
30.5712868422
 11
360.3809101894
 21
30.6035511455
 12
359.3980977583
 22
30.5390224228
 13
359.3980977583
 23
30.5390224228
  0
SOLID
  8
0
 62
7
  6
CONTINUOUS
 10
360.3809101894
 20
30.6035511455
 11
360.1496602445
 21
30.5390224228
 12
359.3980977583
 22
30.5390224228
 13
359.3980977583
 23
30.5390224228
  0
SOLID
  8
0
 62
7
  6
CONTINUOUS
 10
359.744972717
 20
30.5067597521
 11
359.3980977583
 21
30.5390224228
 12
360.1496602445
 22
30.5390224228
 13
360.1496602445
 23
30.5390224228
  0
SOLID
  8
0
 62
7
  6
CONTINUOUS
 10
363.2137226343
 20
30.6680782357
 11
363.4449727445
 21
30.7648681127
 12
363.5027853548
 22
30.7003410226
 13
363.5027853548
 23
30.7003410226
  0
SOLID
  8
0
 62
7
  6
CONTINUOUS
 10
363.5027853548
 20
30.7003410226
 11
363.7340351343
 21
30.6358139324
 12
363.2137226343
 22
30.6680782357
 13
363.2137226343
 23
30.6680782357
  0
SOLID
  8
0
 62
7
  6
CONTINUOUS
 10
363.3871601343
 20
30.5712868422
 11
363.2137226343
 21
30.6680782357
 12
363.7340351343
 22
30.6358139324
 13
363.7340351343
 23
30.6358139324
  0
SOLID
  8
0
 62
7
  6
CONTINUOUS
 10
364.0809101343
 20
30.6358139363
 11
364.369972524
 21
30.7003410226
 12
364.6012229651
 22
30.6680782357
 13
364.6012229651
 23
30.6680782357
  0
SOLID
  8
0
 62
7
  6
CONTINUOUS
 10
364.6012229651
 20
30.6680782357
 11
364.543410024
 21
30.6035511455
 12
364.0809101343
 22
30.6358139363
 13
364.0809101343
 23
30.6358139363
  0
SOLID
  8
0
 62
7
  6
CONTINUOUS
 10
364.543410024
 20
30.6035511455
 11
363.3871601343
 21
30.5712868422
 12
364.0809101343
 22
30.6358139363
 13
364.0809101343
 23
30.6358139363
  0
SOLID
  8
0
 62
7
  6
CONTINUOUS
 10
363.3871601343
 20
30.5712868422
 11
363.7340351343
 21
30.6358139363
 12
364.0809101343
 22
30.6358139363
 13
364.0809101343
 23
30.6358139363
  0
SOLID
  8
0
 62
7
  6
CONTINUOUS
 10
363.3871601343
 20
30.5712868422
 11
364.543410024
 21
30.6035511455
 12
363.5027853548
 22
30.5390225267
 13
363.5027853548
 23
30.5390225267
  0
SOLID
  8
0
 62
7
  6
CONTINUOUS
 10
364.543410024
 20
30.6035511455
 11
364.369972524
 21
30.5390225267
 12
363.5027853548
 22
30.5390225267
 13
363.5027853548
 23
30.5390225267
  0
SOLID
  8
0
 62
7
  6
CONTINUOUS
 10
363.7340351343
 20
30.5067596914
 11
363.5027853548
 21
30.5390225267
 12
364.369972524
 22
30.5390225267
 13
364.369972524
 23
30.5390225267
  0
SOLID
  8
0
 62
7
  6
CONTINUOUS
 10
364.369972524
 20
30.5390225267
 11
364.0809101343
 21
30.5067596914
 12
363.7340351343
 22
30.5067596914
 13
363.7340351343
 23
30.5067596914
  0
SOLID
  8
0
 62
7
  6
CONTINUOUS
 10
368.7637229651
 20
30.6680782357
 11
368.4168479651
 21
30.6358138717
 12
368.6480977445
 22
30.7003410226
 13
368.6480977445
 23
30.7003410226
  0
SOLID
  8
0
 62
7
  6
CONTINUOUS
 10
368.6480977445
 20
30.7003410226
 11
368.4168479651
 21
30.6358138717
 12
368.5902854651
 22
30.7648680521
 13
368.5902854651
 23
30.7648680521
  0
SOLID
  8
0
 62
7
  6
CONTINUOUS
 10
368.4168479651
 20
30.6358138717
 11
368.3012227445
 21
30.7648680521
 12
368.5902854651
 22
30.7648680521
 13
368.5902854651
 23
30.7648680521
  0
SOLID
  8
0
 62
7
  6
CONTINUOUS
 10
368.7637229651
 20
30.6680782357
 11
369.1105979651
 21
30.6358138717
 12
368.4168479651
 22
30.6358138717
 13
368.4168479651
 23
30.6358138717
  0
SOLID
  8
0
 62
7
  6
CONTINUOUS
 10
365.4684104651
 20
30.5067597521
 11
365.4684104651
 21
31.5391977439
 12
365.757472524
 22
30.5067597521
 13
365.757472524
 23
31.5391977439
  0
ENDBLK
  8
0
  6
BYBLOCK
 62
0
  0
BLOCK
  8
0
 62
2
  6
CONTINUOUS
  2
SYMBOL_0_BL0
 70
64
 10
240.8592468615
 20
19.762288695
  0
TEXT
  8
0
 62
7
  6
CONTINUOUS
 10
227.1239507038
 20
19.1357028027
  7
TEXTSTYLE_3
 40
2.7338706658
  1
Ammeraal Beltech
 41
1.0
 51
15.0
 72
0
  0
TEXT
  8
0
 62
7
  6
CONTINUOUS
 10
237.9247515296
 20
16.8621661299
  7
TEXTSTYLE_4
 40
1.0935482663
  1
Innovation & Service in Belting
 41
1.0
 72
0
  0
LINE
  8
0
 62
7
  6
CONTINUOUS
 10
221.0994100525
 20
19.9022961113
 11
221.8775620458
 21
23.5632134089
  0
LINE
  8
0
 62
7
  6
CONTINUOUS
 10
231.9727303357
 20
27.2266073205
 11
222.3653797889
 21
24.1049898993
  0
LINE
  8
0
 62
7
  6
CONTINUOUS
 10
221.3246933848
 20
19.2089453082
 11
228.8317686459
 21
12.4495443822
  0
LINE
  8
0
 62
7
  6
CONTINUOUS
 10
221.5872277955
 20
20.4440726016
 11
232.3954971607
 21
23.9558922005
  0
LINE
  8
0
 62
7
  6
CONTINUOUS
 10
232.3912920235
 20
13.6061036368
 11
223.9458323548
 21
21.2104296785
  0
LINE
  8
0
 62
7
  6
CONTINUOUS
 10
232.9111147433
 20
26.3816822048
 11
231.9345552061
 21
21.7873308023
  0
LINE
  8
0
 62
7
  6
CONTINUOUS
 10
231.2347532584
 20
18.4950214885
 11
230.5483050469
 21
15.2655365641
  0
LINE
  8
0
 62
7
  6
CONTINUOUS
 10
233.5922108419
 20
13.9963058145
 11
234.5484423775
 21
18.4950214885
  0
LINE
  8
0
 62
7
  6
CONTINUOUS
 10
235.2482443252
 20
21.7873308023
 11
235.6924861276
 21
23.8773241617
  0
LINE
  8
0
 62
7
  6
CONTINUOUS
 10
229.5448697213
 20
12.2979700695
 11
233.1043930989
 21
13.4545293241
  0
LINE
  8
0
 62
7
  6
CONTINUOUS
 10
232.685831411
 20
27.0750330078
 11
235.4672027953
 21
24.5706749648
  0
ARC
  8
0
 62
7
  6
CONTINUOUS
 10
222.5906631212
 20
23.4116390962
 40
0.7290321776
 50
108.0
 51
168.0
  0
ARC
  8
0
 62
7
  6
CONTINUOUS
 10
232.198013668
 20
26.5332565175
 40
0.7290321776
 50
348.0
 51
108.0
  0
ARC
  8
0
 62
7
  6
CONTINUOUS
 10
234.9793850522
 20
24.0288984744
 40
0.7290321776
 50
348.0
 51
48.0
  0
ARC
  8
0
 62
7
  6
CONTINUOUS
 10
229.319586389
 20
12.9913208726
 40
0.7290321776
 50
228.0
 51
288.0
  0
ARC
  8
0
 62
7
  6
CONTINUOUS
 10
221.8125111278
 20
19.7507217986
 40
0.7290321776
 50
108.0
 51
228.0
  0
ARC
  8
0
 62
7
  6
CONTINUOUS
 10
232.8791097665
 20
14.1478801272
 40
0.7290321776
 50
228.0
 51
348.0
  0
ENDBLK
  8
0
  6
BYBLOCK
 62
0
  0
ENDSEC
  0
SECTION
  2
ENTITIES
  0
TEXT
  8
0
 62
5
  6
CONTINUOUS
 10
304.937007874
 20
25.636
  7
TEXTSTYLE_2
 40
2.8
  1
Scale :
 41
0.6
 51
0.000019
 72
0
  0
TEXT
  8
0
 62
5
  6
CONTINUOUS
 10
324.937007874
 20
25.636
  7
TEXTSTYLE_2
 40
2.8
  1
Belt type:
 41
0.6
 51
0.000019
 72
0
  0
INSERT
  8
0
 62
2
  6
CONTINUOUS
  2
SYMBOL_0_BL0
 10
240.8592468615
 20
19.762288695
  0
INSERT
  8
0
 62
2
  6
CONTINUOUS
  2
SYMBOL_5_BL1
 10
382.7840918555
 20
35.5067593403
  0
LINE
  8
0
 62
2
  6
CONTINUOUS
 10
218.937007874
 20
30.0
 11
408.937007874
 21
30.0
  0
LINE
  8
0
 62
2
  6
CONTINUOUS
 10
218.937007874
 20
30.0
 11
218.937007874
 21
10.0
  0
LINE
  8
0
 62
2
  6
CONTINUOUS
 10
218.937007874
 20
10.0
 11
408.937007874
 21
10.0
  0
LINE
  8
0
 62
2
  6
CONTINUOUS
 10
303.937007874
 20
30.0
 11
303.937007874
 21
10.0
  0
LINE
  8
0
 62
2
  6
CONTINUOUS
 10
323.937007874
 20
30.0
 11
323.937007874
 21
10.0
  0
LINE
  8
0
 62
2
  6
CONTINUOUS
 10
408.937007874
 20
30.0
 11
408.937007874
 21
10.0
  0
TEXT
  8
0
 62
5
  6
CONTINUOUS
 10
221.937007874
 20
23.303
  7
TEXTSTYLE_5
 40
1.52
  1
                                                                     Ammeraal Beltech Modular A/S
 41
1.0
 72
0
  0
TEXT
  8
0
 62
5
  6
CONTINUOUS
 10
221.937007874
 20
20.595
  7
TEXTSTYLE_5
 40
1.5
  1
                                                                      Hjulmagervej 21, 7100 Vejle,  DK
 41
1.0
 72
0
  0
TEXT
  8
0
 62
5
  6
CONTINUOUS
 10
221.937007874
 20
17.881
  7
TEXTSTYLE_5
 40
1.495
  1
                                                                      tel: 
 41
1.0
 72
0
  0
TEXT
  8
0
 62
5
  6
CONTINUOUS
 10
266.9239544389
 20
17.881
  7
TEXTSTYLE_5
 40
1.51
  1
+45 75723100     fax: +45 75723348
 41
1.0
 72
0
  0
TEXT
  8
0
 62
5
  6
CONTINUOUS
 10
221.937007874
 20
15.177
  7
TEXTSTYLE_5
 40
1.5
  1
                                                                      admin@unichains.dk  www.unichains.com
 41
1.0
 72
0
  0
TEXT
  8
0
 62
5
  6
CONTINUOUS
 10
308.687007874
 20
13.75
  7
TEXTSTYLE_6
 40
5.0
  1
1:1
 41
0.7
 72
1
 11
313.937007874
 21
13.75
  0
TEXT
  8
0
 62
5
  6
CONTINUOUS
 10
326.937007874
 20
13.75
  7
TEXTSTYLE_7
 40
7.5
  1
uni Flex ASB-43 CS Tab K300
 41
0.3861111111
 72
0
  0
LINE
  8
0
 62
7
  6
CONTINUOUS
 10
0.0
 20
0.0
 11
0.0
 21
297.0
  0
LINE
  8
0
 62
7
  6
CONTINUOUS
 10
8.937007874
 20
10.0
 11
8.937007874
 21
287.0
  0
LINE
  8
0
 62
7
  6
CONTINUOUS
 10
0.0
 20
0.0
 11
420.0
 21
0.0
  0
LINE
  8
0
 62
7
  6
CONTINUOUS
 10
408.937007874
 20
10.0
 11
8.937007874
 21
10.0
  0
LINE
  8
0
 62
7
  6
CONTINUOUS
 10
218.937007874
 20
30.0
 11
408.937007874
 21
30.0
  0
LINE
  8
0
 62
7
  6
CONTINUOUS
 10
210.0
 20
297.0
 11
210.0
 21
292.0
  0
LINE
  8
0
 62
7
  6
CONTINUOUS
 10
210.0
 20
0.0
 11
210.0
 21
5.0
  0
LINE
  8
0
 62
7
  6
CONTINUOUS
 10
8.937007874
 20
287.0
 11
408.937007874
 21
287.0
  0
LINE
  8
0
 62
7
  6
CONTINUOUS
 10
0.0
 20
297.0
 11
420.0
 21
297.0
  0
LINE
  8
0
 62
7
  6
CONTINUOUS
 10
408.937007874
 20
287.0
 11
408.937007874
 21
10.0
  0
LINE
  8
0
 62
7
  6
CONTINUOUS
 10
420.0
 20
0.0
 11
420.0
 21
297.0
  0
POLYLINE
  8
AXES
 62
7
  6
CONTINUOUS
 66
1
 70
0
  0
VERTEX
  8
AXES
 62
7
  6
CONTINUOUS
 10
145.3323535196
 20
228.5425018102
  0
VERTEX
  8
AXES
 62
7
  6
CONTINUOUS
 10
145.2016600084
 20
228.5086456233
  0
VERTEX
  8
AXES
 62
7
  6
CONTINUOUS
 10
145.0695259368
 20
228.4638429203
  0
VERTEX
  8
AXES
 62
7
  6
CONTINUOUS
 10
144.9377345676
 20
228.4094247969
  0
VERTEX
  8
AXES
 62
7
  6
CONTINUOUS
 10
144.808194763
 20
228.3473543162
  0
VERTEX
  8
AXES
 62
7
  6
CONTINUOUS
 10
144.6840988639
 20
228.2807192411
  0
VERTEX
  8
AXES
 62
7
  6
CONTINUOUS
 10
144.5688445179
 20
228.2131814843
  0
VERTEX
  8
AXES
 62
7
  6
CONTINUOUS
 10
144.4654301864
 20
228.14838128
  0
VERTEX
  8
AXES
 62
7
  6
CONTINUOUS
 10
144.3764953811
 20
228.0897126313
  0
VERTEX
  8
AXES
 62
7
  6
CONTINUOUS
 10
144.3034000676
 20
228.0395372961
  0
VERTEX
  8
AXES
 62
7
  6
CONTINUOUS
 10
144.2455203135
 20
227.9985228851
  0
VERTEX
  8
AXES
 62
7
  6
CONTINUOUS
 10
144.2021256105
 20
227.9669064918
  0
VERTEX
  8
AXES
 62
7
  6
CONTINUOUS
 10
144.172172149
 20
227.9444246858
  0
VERTEX
  8
AXES
 62
7
  6
CONTINUOUS
 10
144.1550834678
 20
227.9309480539
  0
VERTEX
  8
AXES
 62
7
  6
CONTINUOUS
 10
144.1505222821
 20
227.9265721348
  0
SEQEND
  0
POLYLINE
  8
0
 62
7
  6
CONTINUOUS
 66
1
 70
0
  0
VERTEX
  8
0
 62
7
  6
CONTINUOUS
 10
144.6632203049
 20
224.0738468666
  0
VERTEX
  8
0
 62
7
  6
CONTINUOUS
 10
144.762071129
 20
224.0905746362
  0
VERTEX
  8
0
 62
7
  6
CONTINUOUS
 10
144.8700317649
 20
224.1076196992
  0
VERTEX
  8
0
 62
7
  6
CONTINUOUS
 10
144.9856341104
 20
224.1239941511
  0
VERTEX
  8
0
 62
7
  6
CONTINUOUS
 10
145.1072719733
 20
224.1387821529
  0
VERTEX
  8
0
 62
7
  6
CONTINUOUS
 10
145.233349612
 20
224.1512092697
  0
VERTEX
  8
0
 62
7
  6
CONTINUOUS
 10
145.3626488926
 20
224.1606979003
  0
VERTEX
  8
0
 62
7
  6
CONTINUOUS
 10
145.4944088085
 20
224.1668436449
  0
VERTEX
  8
0
 62
7
  6
CONTINUOUS
 10
145.6278256808
 20
224.1693618228
  0
SEQEND
  0
LINE
  8
0
 62
7
  6
CONTINUOUS
 10
162.2965222804
 20
210.0264818118
 11
171.0150344938
 21
210.0264818118
  0
POLYLINE
  8
0
 62
7
  6
CONTINUOUS
 66
1
 70
0
  0
VERTEX
  8
0
 62
7
  6
CONTINUOUS
 10
144.3414768266
 20
224.0264818118
  0
VERTEX
  8
0
 62
7
  6
CONTINUOUS
 10
144.3808391577
 20
224.0287173541
  0
VERTEX
  8
0
 62
7
  6
CONTINUOUS
 10
144.4329958401
 20
224.0351419919
  0
VERTEX
  8
0
 62
7
  6
CONTINUOUS
 10
144.4978042177
 20
224.0452650902
  0
VERTEX
  8
0
 62
7
  6
CONTINUOUS
 10
144.6632203049
 20
224.0738468666
  0
SEQEND
  0
LINE
  8
0
 62
7
  6
CONTINUOUS
 10
168.8965222804
 20
214.7193591097
 11
168.8638497147
 21
214.7193361797
  0
LINE
  8
0
 62
7
  6
CONTINUOUS
 10
168.8965222804
 20
214.6857720712
 11
163.2965222804
 21
214.6857720712
  0
LINE
  8
0
 62
7
  6
CONTINUOUS
 10
168.7465228338
 20
214.9786322631
 11
161.2965222804
 21
214.9786322631
  0
LINE
  8
0
 62
7
  6
CONTINUOUS
 10
98.500510575
 20
224.0264818118
 11
174.3005222804
 21
224.0264818118
  0
POLYLINE
  8
0
 62
7
  6
CONTINUOUS
 66
1
 70
0
  0
VERTEX
  8
0
 62
7
  6
CONTINUOUS
 10
98.6545222804
 20
238.2649634263
  0
VERTEX
  8
0
 62
7
  6
CONTINUOUS
 10
98.6598565018
 20
238.265337216
  0
VERTEX
  8
0
 62
7
  6
CONTINUOUS
 10
98.6758136625
 20
238.2654993619
  0
SEQEND
  0
POLYLINE
  8
0
 62
7
  6
CONTINUOUS
 66
1
 70
0
  0
VERTEX
  8
0
 62
7
  6
CONTINUOUS
 10
98.6585628096
 20
238.2653451553
  0
VERTEX
  8
0
 62
7
  6
CONTINUOUS
 10
98.6563005992
 20
238.2652957192
  0
VERTEX
  8
0
 62
7
  6
CONTINUOUS
 10
98.6540511716
 20
238.2652336987
  0
VERTEX
  8
0
 62
7
  6
CONTINUOUS
 10
98.651717371
 20
238.2651522164
  0
VERTEX
  8
0
 62
7
  6
CONTINUOUS
 10
98.6491497048
 20
238.2650376028
  0
VERTEX
  8
0
 62
7
  6
CONTINUOUS
 10
98.6461339299
 20
238.2648629196
  0
VERTEX
  8
0
 62
7
  6
CONTINUOUS
 10
98.6424496974
 20
238.264581898
  0
VERTEX
  8
0
 62
7
  6
CONTINUOUS
 10
98.6378339131
 20
238.2641141075
  0
VERTEX
  8
0
 62
7
  6
CONTINUOUS
 10
98.6317846385
 20
238.263293274
  0
VERTEX
  8
0
 62
7
  6
CONTINUOUS
 10
98.6238253431
 20
238.2618371812
  0
VERTEX
  8
0
 62
7
  6
CONTINUOUS
 10
98.6142858339
 20
238.2595036144
  0
VERTEX
  8
0
 62
7
  6
CONTINUOUS
 10
98.603786551
 20
238.2561522952
  0
VERTEX
  8
0
 62
7
  6
CONTINUOUS
 10
98.5930387297
 20
238.2518079628
  0
VERTEX
  8
0
 62
7
  6
CONTINUOUS
 10
98.5823802632
 20
238.2464961561
  0
VERTEX
  8
0
 62
7
  6
CONTINUOUS
 10
98.5719047295
 20
238.2401777265
  0
VERTEX
  8
0
 62
7
  6
CONTINUOUS
 10
98.5617173363
 20
238.2328220828
  0
VERTEX
  8
0
 62
7
  6
CONTINUOUS
 10
98.5519322372
 20
238.2244073897
  0
VERTEX
  8
0
 62
7
  6
CONTINUOUS
 10
98.542675781
 20
238.2149256323
  0
VERTEX
  8
0
 62
7
  6
CONTINUOUS
 10
98.5340826108
 20
238.2043828823
  0
VERTEX
  8
0
 62
7
  6
CONTINUOUS
 10
98.5262808977
 20
238.1927788895
  0
VERTEX
  8
0
 62
7
  6
CONTINUOUS
 10
98.5194120297
 20
238.1801242376
  0
VERTEX
  8
0
 62
7
  6
CONTINUOUS
 10
98.5136330372
 20
238.1664474921
  0
VERTEX
  8
0
 62
7
  6
CONTINUOUS
 10
98.5091150086
 20
238.1517989249
  0
VERTEX
  8
0
 62
7
  6
CONTINUOUS
 10
98.5060413356
 20
238.1362553294
  0
VERTEX
  8
0
 62
7
  6
CONTINUOUS
 10
98.504604984
 20
238.1199252415
  0
VERTEX
  8
0
 62
7
  6
CONTINUOUS
 10
98.5045229654
 20
238.1149650559
  0
SEQEND
  0
LINE
  8
0
 62
7
  6
CONTINUOUS
 10
98.6633656107
 20
238.2654189966
 11
98.6585628096
 21
238.2653451553
  0
LINE
  8
0
 62
7
  6
CONTINUOUS
 10
98.6784430002
 20
238.2655050807
 11
98.6687812637
 21
238.2654684669
  0
LINE
  8
0
 62
7
  6
CONTINUOUS
 10
169.3954481497
 20
238.2644977243
 11
170.0300870084
 21
238.2655076248
  0
LINE
  8
AXES
 62
2
  6
CENTER
 10
95.7505222804
 20
230.0264818118
 11
174.4505222804
 21
230.0264818118
  0
LINE
  8
0
 62
7
  6
CONTINUOUS
 10
129.0005222804
 20
238.2644576588
 11
125.1465222804
 21
238.2644576588
  0
LINE
  8
0
 62
7
  6
CONTINUOUS
 10
138.9005222804
 20
238.2644576588
 11
143.5005222804
 21
238.2644576588
  0
LINE
  8
0
 62
7
  6
CONTINUOUS
 10
138.9005222804
 20
238.2655078339
 11
129.0005222804
 21
238.2655078339
  0
LINE
  8
0
 62
7
  6
CONTINUOUS
 10
143.5005222804
 20
238.2655078339
 11
170.2554906142
 21
238.2654137544
  0
LINE
  8
0
 62
7
  6
CONTINUOUS
 10
98.6758136625
 20
238.2654993619
 11
125.1465222804
 21
238.2655078339
  0
LINE
  8
0
 62
7
  6
CONTINUOUS
 10
99.2238547991
 20
238.2614962953
 11
99.5045222804
 21
238.2608173676
  0
POLYLINE
  8
0
 62
7
  6
CONTINUOUS
 66
1
 70
0
  0
VERTEX
  8
0
 62
7
  6
CONTINUOUS
 10
171.7009707259
 20
238.2612326401
  0
VERTEX
  8
0
 62
7
  6
CONTINUOUS
 10
170.9631414647
 20
238.2641424798
  0
VERTEX
  8
0
 62
7
  6
CONTINUOUS
 10
170.2556025775
 20
238.2654140397
  0
SEQEND
  0
LINE
  8
0
 62
7
  6
CONTINUOUS
 10
98.7021953711
 20
238.2654590451
 11
99.2238547991
 21
238.2614962953
  0
LINE
  8
0
 62
7
  6
CONTINUOUS
 10
172.6726530371
 20
238.2545994202
 11
171.7009707259
 21
238.2612326401
  0
POLYLINE
  8
0
 62
7
  6
CONTINUOUS
 66
1
 70
0
  0
VERTEX
  8
0
 62
7
  6
CONTINUOUS
 10
152.5595677341
 20
224.0264818118
  0
VERTEX
  8
0
 62
7
  6
CONTINUOUS
 10
152.5202901784
 20
224.0287092046
  0
VERTEX
  8
0
 62
7
  6
CONTINUOUS
 10
152.4681424484
 20
224.035128595
  0
VERTEX
  8
0
 62
7
  6
CONTINUOUS
 10
152.403337796
 20
224.0452489366
  0
SEQEND
  0
LINE
  8
0
 62
7
  6
CONTINUOUS
 10
172.9381905236
 20
238.2511292685
 11
172.6726530371
 21
238.2545994202
  0
LINE
  8
0
 62
7
  6
CONTINUOUS
 10
173.1772763532
 20
238.2466031793
 11
172.9381905236
 21
238.2511292685
  0
POLYLINE
  8
0
 62
7
  6
CONTINUOUS
 66
1
 70
0
  0
VERTEX
  8
0
 62
7
  6
CONTINUOUS
 10
152.403337796
 20
224.0452489366
  0
VERTEX
  8
0
 62
7
  6
CONTINUOUS
 10
152.2379180691
 20
224.0738306335
  0
VERTEX
  8
0
 62
7
  6
CONTINUOUS
 10
152.1390596758
 20
224.0905604386
  0
VERTEX
  8
0
 62
7
  6
CONTINUOUS
 10
152.0310905028
 20
224.1076079913
  0
VERTEX
  8
0
 62
7
  6
CONTINUOUS
 10
151.9154800813
 20
224.1239849349
  0
VERTEX
  8
0
 62
7
  6
CONTINUOUS
 10
151.7938239224
 20
224.138776473
  0
VERTEX
  8
0
 62
7
  6
CONTINUOUS
 10
151.6677200013
 20
224.15120711
  0
VERTEX
  8
0
 62
7
  6
CONTINUOUS
 10
151.5384089991
 20
224.1606971117
  0
VERTEX
  8
0
 62
7
  6
CONTINUOUS
 10
151.4066513935
 20
224.1668431568
  0
VERTEX
  8
0
 62
7
  6
CONTINUOUS
 10
151.2732173277
 20
224.1693619548
  0
SEQEND
  0
POLYLINE
  8
0
 62
7
  6
CONTINUOUS
 66
1
 70
0
  0
VERTEX
  8
0
 62
7
  6
CONTINUOUS
 10
98.3993988205
 20
237.1231959173
  0
VERTEX
  8
0
 62
7
  6
CONTINUOUS
 10
98.3806093569
 20
237.1057147698
  0
VERTEX
  8
0
 62
7
  6
CONTINUOUS
 10
98.355291198
 20
237.0811072586
  0
VERTEX
  8
0
 62
7
  6
CONTINUOUS
 10
98.3311565239
 20
237.0565139363
  0
SEQEND
  0
POLYLINE
  8
0
 62
7
  6
CONTINUOUS
 66
1
 70
0
  0
VERTEX
  8
0
 62
7
  6
CONTINUOUS
 10
98.4931671097
 20
237.2071061394
  0
VERTEX
  8
0
 62
7
  6
CONTINUOUS
 10
98.4423077894
 20
237.1620104287
  0
VERTEX
  8
0
 62
7
  6
CONTINUOUS
 10
98.3993954648
 20
237.1231920437
  0
SEQEND
  0
LINE
  8
0
 62
7
  6
CONTINUOUS
 10
98.5045222804
 20
237.2169700439
 11
98.4931671097
 21
237.2071061394
  0
LINE
  8
0
 62
7
  6
CONTINUOUS
 10
104.8828769386
 20
237.2466108855
 11
104.8412336221
 21
237.2104815374
  0
POLYLINE
  8
AXES
 62
7
  6
CONTINUOUS
 66
1
 70
0
  0
VERTEX
  8
AXES
 62
7
  6
CONTINUOUS
 10
151.5686910412
 20
228.5425018102
  0
VERTEX
  8
AXES
 62
7
  6
CONTINUOUS
 10
151.5468446143
 20
228.5490533441
  0
VERTEX
  8
AXES
 62
7
  6
CONTINUOUS
 10
151.5259223739
 20
228.5591518207
  0
VERTEX
  8
AXES
 62
7
  6
CONTINUOUS
 10
151.5066699937
 20
228.5727047797
  0
VERTEX
  8
AXES
 62
7
  6
CONTINUOUS
 10
151.4891332178
 20
228.5901513585
  0
VERTEX
  8
AXES
 62
7
  6
CONTINUOUS
 10
151.4737775925
 20
228.6120390466
  0
VERTEX
  8
AXES
 62
7
  6
CONTINUOUS
 10
151.461581348
 20
228.6384737286
  0
VERTEX
  8
AXES
 62
7
  6
CONTINUOUS
 10
151.4534934388
 20
228.6694894589
  0
VERTEX
  8
AXES
 62
7
  6
CONTINUOUS
 10
151.4505079172
 20
228.7054625995
  0
SEQEND
  0
POLYLINE
  8
0
 62
7
  6
CONTINUOUS
 66
1
 70
0
  0
VERTEX
  8
0
 62
7
  6
CONTINUOUS
 10
98.3311565239
 20
237.0565139363
  0
VERTEX
  8
0
 62
7
  6
CONTINUOUS
 10
98.3080522648
 20
237.0319164869
  0
VERTEX
  8
0
 62
7
  6
CONTINUOUS
 10
98.2858455453
 20
237.0072845517
  0
VERTEX
  8
0
 62
7
  6
CONTINUOUS
 10
98.2644111193
 20
236.9825718218
  0
VERTEX
  8
0
 62
7
  6
CONTINUOUS
 10
98.2436208367
 20
236.9577043514
  0
VERTEX
  8
0
 62
7
  6
CONTINUOUS
 10
98.2233555915
 20
236.9325932077
  0
VERTEX
  8
0
 62
7
  6
CONTINUOUS
 10
98.203509671
 20
236.9071464691
  0
VERTEX
  8
0
 62
7
  6
CONTINUOUS
 10
98.1840343849
 20
236.8813305967
  0
VERTEX
  8
0
 62
7
  6
CONTINUOUS
 10
98.1649179664
 20
236.8551512218
  0
VERTEX
  8
0
 62
7
  6
CONTINUOUS
 10
98.1461555024
 20
236.8286214304
  0
VERTEX
  8
0
 62
7
  6
CONTINUOUS
 10
98.1277379006
 20
236.801747262
  0
VERTEX
  8
0
 62
7
  6
CONTINUOUS
 10
98.1096563873
 20
236.7745296403
  0
VERTEX
  8
0
 62
7
  6
CONTINUOUS
 10
98.0919081615
 20
236.7469770854
  0
VERTEX
  8
0
 62
7
  6
CONTINUOUS
 10
98.0744846967
 20
236.7190876745
  0
VERTEX
  8
0
 62
7
  6
CONTINUOUS
 10
98.0573809891
 20
236.6908592626
  0
VERTEX
  8
0
 62
7
  6
CONTINUOUS
 10
98.0405951133
 20
236.6622945284
  0
VERTEX
  8
0
 62
7
  6
CONTINUOUS
 10
98.0241189675
 20
236.6333815938
  0
VERTEX
  8
0
 62
7
  6
CONTINUOUS
 10
98.0079538776
 20
236.6041203888
  0
VERTEX
  8
0
 62
7
  6
CONTINUOUS
 10
97.9920989068
 20
236.5745067575
  0
VERTEX
  8
0
 62
7
  6
CONTINUOUS
 10
97.9765537183
 20
236.5445303893
  0
VERTEX
  8
0
 62
7
  6
CONTINUOUS
 10
97.9613221201
 20
236.514188572
  0
VERTEX
  8
0
 62
7
  6
CONTINUOUS
 10
97.946402283
 20
236.4834606215
  0
VERTEX
  8
0
 62
7
  6
CONTINUOUS
 10
97.9318007955
 20
236.4523390487
  0
VERTEX
  8
0
 62
7
  6
CONTINUOUS
 10
97.9175169057
 20
236.4207947346
  0
VERTEX
  8
0
 62
7
  6
CONTINUOUS
 10
97.9035593109
 20
236.3888110655
  0
VERTEX
  8
0
 62
7
  6
CONTINUOUS
 10
97.889929565
 20
236.3563475945
  0
VERTEX
  8
0
 62
7
  6
CONTINUOUS
 10
97.876639509
 20
236.3233756734
  0
VERTEX
  8
0
 62
7
  6
CONTINUOUS
 10
97.8636945718
 20
236.2898379831
  0
VERTEX
  8
0
 62
7
  6
CONTINUOUS
 10
97.8511222273
 20
236.2557184941
  0
VERTEX
  8
0
 62
7
  6
CONTINUOUS
 10
97.8389573941
 20
236.2210052196
  0
VERTEX
  8
0
 62
7
  6
CONTINUOUS
 10
97.8272436478
 20
236.1857008838
  0
VERTEX
  8
0
 62
7
  6
CONTINUOUS
 10
97.8160268792
 20
236.1497894124
  0
VERTEX
  8
0
 62
7
  6
CONTINUOUS
 10
97.8053547189
 20
236.1132371077
  0
VERTEX
  8
0
 62
7
  6
CONTINUOUS
 10
97.7952880159
 20
236.0760168095
  0
VERTEX
  8
0
 62
7
  6
CONTINUOUS
 10
97.785901174
 20
236.0380932615
  0
VERTEX
  8
0
 62
7
  6
CONTINUOUS
 10
97.7773066404
 20
235.9995335156
  0
VERTEX
  8
0
 62
7
  6
CONTINUOUS
 10
97.7696372522
 20
235.9604621687
  0
VERTEX
  8
0
 62
7
  6
CONTINUOUS
 10
97.7630399786
 20
235.9210403581
  0
VERTEX
  8
0
 62
7
  6
CONTINUOUS
 10
97.757676466
 20
235.8815069608
  0
VERTEX
  8
0
 62
7
  6
CONTINUOUS
 10
97.7537092513
 20
235.8421633989
  0
VERTEX
  8
0
 62
7
  6
CONTINUOUS
 10
97.7512917679
 20
235.8034978002
  0
SEQEND
  0
POLYLINE
  8
0
 62
7
  6
CONTINUOUS
 66
1
 70
0
  0
VERTEX
  8
0
 62
7
  6
CONTINUOUS
 10
117.8455511436
 20
237.1285962705
  0
VERTEX
  8
0
 62
7
  6
CONTINUOUS
 10
117.8257834804
 20
237.1102321605
  0
VERTEX
  8
0
 62
7
  6
CONTINUOUS
 10
117.7995757426
 20
237.0847498874
  0
VERTEX
  8
0
 62
7
  6
CONTINUOUS
 10
117.7746359422
 20
237.0592853487
  0
VERTEX
  8
0
 62
7
  6
CONTINUOUS
 10
117.7508028766
 20
237.0338268485
  0
VERTEX
  8
0
 62
7
  6
CONTINUOUS
 10
117.7279361331
 20
237.0083475551
  0
VERTEX
  8
0
 62
7
  6
CONTINUOUS
 10
117.7059047895
 20
236.9828044862
  0
VERTEX
  8
0
 62
7
  6
CONTINUOUS
 10
117.6845751131
 20
236.9571253364
  0
VERTEX
  8
0
 62
7
  6
CONTINUOUS
 10
117.6638222549
 20
236.931220458
  0
VERTEX
  8
0
 62
7
  6
CONTINUOUS
 10
117.6435452271
 20
236.9050094205
  0
VERTEX
  8
0
 62
7
  6
CONTINUOUS
 10
117.6237049076
 20
236.8784778152
  0
VERTEX
  8
0
 62
7
  6
CONTINUOUS
 10
117.6042808945
 20
236.8516265429
  0
VERTEX
  8
0
 62
7
  6
CONTINUOUS
 10
117.585259705
 20
236.8244627047
  0
VERTEX
  8
0
 62
7
  6
CONTINUOUS
 10
117.5666232674
 20
236.7969841302
  0
VERTEX
  8
0
 62
7
  6
CONTINUOUS
 10
117.5483547403
 20
236.7691829926
  0
VERTEX
  8
0
 62
7
  6
CONTINUOUS
 10
117.5304433231
 20
236.7410580036
  0
VERTEX
  8
0
 62
7
  6
CONTINUOUS
 10
117.5128719979
 20
236.7125946624
  0
VERTEX
  8
0
 62
7
  6
CONTINUOUS
 10
117.4956286247
 20
236.6837786473
  0
VERTEX
  8
0
 62
7
  6
CONTINUOUS
 10
117.4787035039
 20
236.6545980794
  0
VERTEX
  8
0
 62
7
  6
CONTINUOUS
 10
117.4620849816
 20
236.6250312946
  0
VERTEX
  8
0
 62
7
  6
CONTINUOUS
 10
117.4457778075
 20
236.5950808884
  0
VERTEX
  8
0
 62
7
  6
CONTINUOUS
 10
117.4297820574
 20
236.5647405858
  0
VERTEX
  8
0
 62
7
  6
CONTINUOUS
 10
117.4141010194
 20
236.5340023872
  0
VERTEX
  8
0
 62
7
  6
CONTINUOUS
 10
117.3987397324
 20
236.5028619746
  0
VERTEX
  8
0
 62
7
  6
CONTINUOUS
 10
117.3836995593
 20
236.4712988594
  0
VERTEX
  8
0
 62
7
  6
CONTINUOUS
 10
117.3689890707
 20
236.4393049371
  0
VERTEX
  8
0
 62
7
  6
CONTINUOUS
 10
117.3546104586
 20
236.4068489018
  0
VERTEX
  8
0
 62
7
  6
CONTINUOUS
 10
117.3405750881
 20
236.3739136383
  0
VERTEX
  8
0
 62
7
  6
CONTINUOUS
 10
117.3268878657
 20
236.3404541477
  0
VERTEX
  8
0
 62
7
  6
CONTINUOUS
 10
117.3135636265
 20
236.306439194
  0
VERTEX
  8
0
 62
7
  6
CONTINUOUS
 10
117.300618184
 20
236.2718200234
  0
VERTEX
  8
0
 62
7
  6
CONTINUOUS
 10
117.2880906226
 20
236.2365997151
  0
VERTEX
  8
0
 62
7
  6
CONTINUOUS
 10
117.2760236889
 20
236.2007698824
  0
VERTEX
  8
0
 62
7
  6
CONTINUOUS
 10
117.2644605336
 20
236.1643092282
  0
VERTEX
  8
0
 62
7
  6
CONTINUOUS
 10
117.2534559608
 20
236.1272027017
  0
VERTEX
  8
0
 62
7
  6
CONTINUOUS
 10
117.2430675466
 20
236.0894022387
  0
VERTEX
  8
0
 62
7
  6
CONTINUOUS
 10
117.2333662919
 20
236.0508570068
  0
VERTEX
  8
0
 62
7
  6
CONTINUOUS
 10
117.2244688764
 20
236.0116359956
  0
VERTEX
  8
0
 62
7
  6
CONTINUOUS
 10
117.2165154498
 20
235.9718637652
  0
VERTEX
  8
0
 62
7
  6
CONTINUOUS
 10
117.2096587848
 20
235.9316976363
  0
VERTEX
  8
0
 62
7
  6
CONTINUOUS
 10
117.2040680516
 20
235.8913770612
  0
VERTEX
  8
0
 62
7
  6
CONTINUOUS
 10
117.199917131
 20
235.851233078
  0
VERTEX
  8
0
 62
7
  6
CONTINUOUS
 10
117.1973701553
 20
235.8117648328
  0
VERTEX
  8
0
 62
7
  6
CONTINUOUS
 10
117.1965366464
 20
235.7743936519
  0
SEQEND
  0
POLYLINE
  8
0
 62
7
  6
CONTINUOUS
 66
1
 70
0
  0
VERTEX
  8
0
 62
7
  6
CONTINUOUS
 10
104.7495363725
 20
237.1285959728
  0
VERTEX
  8
0
 62
7
  6
CONTINUOUS
 10
104.7314172566
 20
237.1117912198
  0
VERTEX
  8
0
 62
7
  6
CONTINUOUS
 10
104.7060589801
 20
237.0872343101
  0
VERTEX
  8
0
 62
7
  6
CONTINUOUS
 10
104.6818883868
 20
237.0626889616
  0
VERTEX
  8
0
 62
7
  6
CONTINUOUS
 10
104.6587523821
 20
237.0381381694
  0
VERTEX
  8
0
 62
7
  6
CONTINUOUS
 10
104.636517894
 20
237.0135524139
  0
VERTEX
  8
0
 62
7
  6
CONTINUOUS
 10
104.6150598614
 20
236.988886548
  0
VERTEX
  8
0
 62
7
  6
CONTINUOUS
 10
104.5942504471
 20
236.9640680762
  0
VERTEX
  8
0
 62
7
  6
CONTINUOUS
 10
104.5739703763
 20
236.9390088697
  0
VERTEX
  8
0
 62
7
  6
CONTINUOUS
 10
104.5541142499
 20
236.9136182963
  0
VERTEX
  8
0
 62
7
  6
CONTINUOUS
 10
104.5346337143
 20
236.8878640842
  0
VERTEX
  8
0
 62
7
  6
CONTINUOUS
 10
104.5155159977
 20
236.8617512354
  0
VERTEX
  8
0
 62
7
  6
CONTINUOUS
 10
104.4967554432
 20
236.8352922912
  0
VERTEX
  8
0
 62
7
  6
CONTINUOUS
 10
104.4783424714
 20
236.8084931136
  0
VERTEX
  8
0
 62
7
  6
CONTINUOUS
 10
104.4602673205
 20
236.7813536505
  0
VERTEX
  8
0
 62
7
  6
CONTINUOUS
 10
104.4425265164
 20
236.7538816248
  0
VERTEX
  8
0
 62
7
  6
CONTINUOUS
 10
104.425111078
 20
236.7260747406
  0
VERTEX
  8
0
 62
7
  6
CONTINUOUS
 10
104.4080150136
 20
236.6979294602
  0
VERTEX
  8
0
 62
7
  6
CONTINUOUS
 10
104.3912359156
 20
236.6694476449
  0
VERTEX
  8
0
 62
7
  6
CONTINUOUS
 10
104.3747651113
 20
236.640616627
  0
VERTEX
  8
0
 62
7
  6
CONTINUOUS
 10
104.3586036819
 20
236.6114357551
  0
VERTEX
  8
0
 62
7
  6
CONTINUOUS
 10
104.3427512019
 20
236.5819018202
  0
VERTEX
  8
0
 62
7
  6
CONTINUOUS
 10
104.3272070507
 20
236.5520040963
  0
VERTEX
  8
0
 62
7
  6
CONTINUOUS
 10
104.3119754466
 20
236.5217405729
  0
VERTEX
  8
0
 62
7
  6
CONTINUOUS
 10
104.2970544987
 20
236.4910908216
  0
VERTEX
  8
0
 62
7
  6
CONTINUOUS
 10
104.2824509671
 20
236.4600476483
  0
VERTEX
  8
0
 62
7
  6
CONTINUOUS
 10
104.2681642063
 20
236.4285827632
  0
VERTEX
  8
0
 62
7
  6
CONTINUOUS
 10
104.254202911
 20
236.3966796413
  0
VERTEX
  8
0
 62
7
  6
CONTINUOUS
 10
104.2405687822
 20
236.3642990912
  0
VERTEX
  8
0
 62
7
  6
CONTINUOUS
 10
104.2272736018
 20
236.3314126578
  0
VERTEX
  8
0
 62
7
  6
CONTINUOUS
 10
104.2143227892
 20
236.2979644826
  0
VERTEX
  8
0
 62
7
  6
CONTINUOUS
 10
104.2017437027
 20
236.2639389036
  0
VERTEX
  8
0
 62
7
  6
CONTINUOUS
 10
104.1895705152
 20
236.2293238463
  0
VERTEX
  8
0
 62
7
  6
CONTINUOUS
 10
104.1778468899
 20
236.1941237094
  0
VERTEX
  8
0
 62
7
  6
CONTINUOUS
 10
104.1666175714
 20
236.1583212763
  0
VERTEX
  8
0
 62
7
  6
CONTINUOUS
 10
104.1559296512
 20
236.1218848217
  0
VERTEX
  8
0
 62
7
  6
CONTINUOUS
 10
104.1458433889
 20
236.0847887102
  0
VERTEX
  8
0
 62
7
  6
CONTINUOUS
 10
104.1364314252
 20
236.0469970103
  0
VERTEX
  8
0
 62
7
  6
CONTINUOUS
 10
104.1278042117
 20
236.0085766181
  0
VERTEX
  8
0
 62
7
  6
CONTINUOUS
 10
104.1200929853
 20
235.9696546636
  0
VERTEX
  8
0
 62
7
  6
CONTINUOUS
 10
104.11344159
 20
235.9303879092
  0
VERTEX
  8
0
 62
7
  6
CONTINUOUS
 10
104.1080079648
 20
235.8910078992
  0
VERTEX
  8
0
 62
7
  6
CONTINUOUS
 10
104.1039511877
 20
235.8518064795
  0
VERTEX
  8
0
 62
7
  6
CONTINUOUS
 10
104.1014224755
 20
235.8132520434
  0
VERTEX
  8
0
 62
7
  6
CONTINUOUS
 10
104.100522734
 20
235.7743936519
  0
SEQEND
  0
POLYLINE
  8
0
 62
7
  6
CONTINUOUS
 66
1
 70
0
  0
VERTEX
  8
0
 62
7
  6
CONTINUOUS
 10
117.9365842411
 20
237.2099003398
  0
VERTEX
  8
0
 62
7
  6
CONTINUOUS
 10
117.8870932532
 20
237.1660910116
  0
VERTEX
  8
0
 62
7
  6
CONTINUOUS
 10
117.8455473404
 20
237.1285920372
  0
SEQEND
  0
POLYLINE
  8
0
 62
7
  6
CONTINUOUS
 66
1
 70
0
  0
VERTEX
  8
0
 62
7
  6
CONTINUOUS
 10
104.8412336221
 20
237.2104815374
  0
VERTEX
  8
0
 62
7
  6
CONTINUOUS
 10
104.7917367053
 20
237.1666794367
  0
VERTEX
  8
0
 62
7
  6
CONTINUOUS
 10
104.7495329758
 20
237.1285920328
  0
SEQEND
  0
LINE
  8
0
 62
7
  6
CONTINUOUS
 10
117.978876574
 20
237.2465982245
 11
117.9365842411
 21
237.2099003398
  0
POLYLINE
  8
AXES
 62
7
  6
CONTINUOUS
 66
1
 70
0
  0
VERTEX
  8
AXES
 62
7
  6
CONTINUOUS
 10
97.7551054779
 20
228.0424967288
  0
VERTEX
  8
AXES
 62
7
  6
CONTINUOUS
 10
97.751670994
 20
228.0362527017
  0
VERTEX
  8
AXES
 62
7
  6
CONTINUOUS
 10
97.7505222804
 20
228.0301103901
  0
SEQEND
  0
POLYLINE
  8
0
 62
7
  6
CONTINUOUS
 66
1
 70
0
  0
VERTEX
  8
0
 62
7
  6
CONTINUOUS
 10
131.5995511436
 20
237.1285962705
  0
VERTEX
  8
0
 62
7
  6
CONTINUOUS
 10
131.5797834804
 20
237.1102321605
  0
VERTEX
  8
0
 62
7
  6
CONTINUOUS
 10
131.5535757426
 20
237.0847498874
  0
VERTEX
  8
0
 62
7
  6
CONTINUOUS
 10
131.5286359422
 20
237.0592853487
  0
VERTEX
  8
0
 62
7
  6
CONTINUOUS
 10
131.5048028766
 20
237.0338268485
  0
VERTEX
  8
0
 62
7
  6
CONTINUOUS
 10
131.4819361331
 20
237.0083475551
  0
VERTEX
  8
0
 62
7
  6
CONTINUOUS
 10
131.4599047895
 20
236.9828044862
  0
VERTEX
  8
0
 62
7
  6
CONTINUOUS
 10
131.4385751131
 20
236.9571253364
  0
VERTEX
  8
0
 62
7
  6
CONTINUOUS
 10
131.4178222549
 20
236.931220458
  0
VERTEX
  8
0
 62
7
  6
CONTINUOUS
 10
131.3975452271
 20
236.9050094205
  0
VERTEX
  8
0
 62
7
  6
CONTINUOUS
 10
131.3777049076
 20
236.8784778152
  0
VERTEX
  8
0
 62
7
  6
CONTINUOUS
 10
131.3582808945
 20
236.8516265429
  0
VERTEX
  8
0
 62
7
  6
CONTINUOUS
 10
131.339259705
 20
236.8244627047
  0
VERTEX
  8
0
 62
7
  6
CONTINUOUS
 10
131.3206232674
 20
236.7969841302
  0
VERTEX
  8
0
 62
7
  6
CONTINUOUS
 10
131.3023547403
 20
236.7691829926
  0
VERTEX
  8
0
 62
7
  6
CONTINUOUS
 10
131.2844433231
 20
236.7410580036
  0
VERTEX
  8
0
 62
7
  6
CONTINUOUS
 10
131.2668719979
 20
236.7125946624
  0
VERTEX
  8
0
 62
7
  6
CONTINUOUS
 10
131.2496286247
 20
236.6837786473
  0
VERTEX
  8
0
 62
7
  6
CONTINUOUS
 10
131.2327035039
 20
236.6545980794
  0
VERTEX
  8
0
 62
7
  6
CONTINUOUS
 10
131.2160849816
 20
236.6250312946
  0
VERTEX
  8
0
 62
7
  6
CONTINUOUS
 10
131.1997778075
 20
236.5950808884
  0
VERTEX
  8
0
 62
7
  6
CONTINUOUS
 10
131.1837820574
 20
236.5647405858
  0
VERTEX
  8
0
 62
7
  6
CONTINUOUS
 10
131.1681010194
 20
236.5340023872
  0
VERTEX
  8
0
 62
7
  6
CONTINUOUS
 10
131.1527397324
 20
236.5028619746
  0
VERTEX
  8
0
 62
7
  6
CONTINUOUS
 10
131.1376995593
 20
236.4712988594
  0
VERTEX
  8
0
 62
7
  6
CONTINUOUS
 10
131.1229890707
 20
236.4393049371
  0
VERTEX
  8
0
 62
7
  6
CONTINUOUS
 10
131.1086104586
 20
236.4068489018
  0
VERTEX
  8
0
 62
7
  6
CONTINUOUS
 10
131.0945750881
 20
236.3739136383
  0
VERTEX
  8
0
 62
7
  6
CONTINUOUS
 10
131.0808878657
 20
236.3404541477
  0
VERTEX
  8
0
 62
7
  6
CONTINUOUS
 10
131.0675636265
 20
236.306439194
  0
VERTEX
  8
0
 62
7
  6
CONTINUOUS
 10
131.054618184
 20
236.2718200234
  0
VERTEX
  8
0
 62
7
  6
CONTINUOUS
 10
131.0420906226
 20
236.2365997151
  0
VERTEX
  8
0
 62
7
  6
CONTINUOUS
 10
131.0300236889
 20
236.2007698824
  0
VERTEX
  8
0
 62
7
  6
CONTINUOUS
 10
131.0184605336
 20
236.1643092282
  0
VERTEX
  8
0
 62
7
  6
CONTINUOUS
 10
131.0074559608
 20
236.1272027017
  0
VERTEX
  8
0
 62
7
  6
CONTINUOUS
 10
130.9970675466
 20
236.0894022387
  0
VERTEX
  8
0
 62
7
  6
CONTINUOUS
 10
130.9873662919
 20
236.0508570068
  0
VERTEX
  8
0
 62
7
  6
CONTINUOUS
 10
130.9784688764
 20
236.0116359956
  0
VERTEX
  8
0
 62
7
  6
CONTINUOUS
 10
130.9705154498
 20
235.9718637652
  0
VERTEX
  8
0
 62
7
  6
CONTINUOUS
 10
130.9636587848
 20
235.9316976363
  0
VERTEX
  8
0
 62
7
  6
CONTINUOUS
 10
130.9580680516
 20
235.8913770612
  0
VERTEX
  8
0
 62
7
  6
CONTINUOUS
 10
130.953917131
 20
235.851233078
  0
VERTEX
  8
0
 62
7
  6
CONTINUOUS
 10
130.9513701553
 20
235.8117648328
  0
VERTEX
  8
0
 62
7
  6
CONTINUOUS
 10
130.9505366464
 20
235.7743936519
  0
SEQEND
  0
POLYLINE
  8
0
 62
7
  6
CONTINUOUS
 66
1
 70
0
  0
VERTEX
  8
0
 62
7
  6
CONTINUOUS
 10
131.6905842411
 20
237.2099003398
  0
VERTEX
  8
0
 62
7
  6
CONTINUOUS
 10
131.6410932532
 20
237.1660910116
  0
VERTEX
  8
0
 62
7
  6
CONTINUOUS
 10
131.5995473404
 20
237.1285920372
  0
SEQEND
  0
LINE
  8
0
 62
7
  6
CONTINUOUS
 10
131.732876574
 20
237.2465982245
 11
131.6905842411
 21
237.2099003398
  0
LINE
  8
0
 62
7
  6
CONTINUOUS
 10
146.2328765706
 20
237.2465982202
 11
146.1912381067
 21
237.210472887
  0
POLYLINE
  8
0
 62
7
  6
CONTINUOUS
 66
1
 70
0
  0
VERTEX
  8
0
 62
7
  6
CONTINUOUS
 10
109.4093078774
 20
237.1666794179
  0
VERTEX
  8
0
 62
7
  6
CONTINUOUS
 10
109.35981096
 20
237.210481519
  0
VERTEX
  8
0
 62
7
  6
CONTINUOUS
 10
109.3181676221
 20
237.2466108854
  0
SEQEND
  0
LINE
  8
0
 62
7
  6
CONTINUOUS
 10
109.4515115871
 20
237.1285920321
 11
109.4093078774
 21
237.1666794179
  0
POLYLINE
  8
AXES
 62
7
  6
CONTINUOUS
 66
1
 70
0
  0
VERTEX
  8
AXES
 62
7
  6
CONTINUOUS
 10
97.7551054779
 20
232.0104668948
  0
VERTEX
  8
AXES
 62
7
  6
CONTINUOUS
 10
97.8028783213
 20
231.9345286762
  0
VERTEX
  8
AXES
 62
7
  6
CONTINUOUS
 10
97.848444073
 20
231.8409567618
  0
VERTEX
  8
AXES
 62
7
  6
CONTINUOUS
 10
97.8913794828
 20
231.7308167186
  0
VERTEX
  8
AXES
 62
7
  6
CONTINUOUS
 10
97.9313007453
 20
231.6053240631
  0
VERTEX
  8
AXES
 62
7
  6
CONTINUOUS
 10
97.9678663576
 20
231.4658151898
  0
VERTEX
  8
AXES
 62
7
  6
CONTINUOUS
 10
98.0007780267
 20
231.3137199588
  0
VERTEX
  8
AXES
 62
7
  6
CONTINUOUS
 10
98.0297802088
 20
231.1505370449
  0
VERTEX
  8
AXES
 62
7
  6
CONTINUOUS
 10
98.0546589055
 20
230.9778109989
  0
VERTEX
  8
AXES
 62
7
  6
CONTINUOUS
 10
98.0752393027
 20
230.7971153669
  0
VERTEX
  8
AXES
 62
7
  6
CONTINUOUS
 10
98.0913832463
 20
230.6100392669
  0
VERTEX
  8
AXES
 62
7
  6
CONTINUOUS
 10
98.1029866731
 20
230.4181775726
  0
VERTEX
  8
AXES
 62
7
  6
CONTINUOUS
 10
98.109977132
 20
230.2231268903
  0
VERTEX
  8
AXES
 62
7
  6
CONTINUOUS
 10
98.1123119839
 20
230.0264818118
  0
SEQEND
  0
LINE
  8
AXES
 62
7
  6
CONTINUOUS
 10
97.7505222804
 20
224.7764675448
 11
97.7505222804
 21
228.0301103901
  0
LINE
  8
AXES
 62
7
  6
CONTINUOUS
 10
97.7505222804
 20
228.0424967288
 11
97.7505222804
 21
232.0104668948
  0
LINE
  8
AXES
 62
7
  6
CONTINUOUS
 10
97.7505222804
 20
232.0228532334
 11
97.7505222804
 21
235.7676240278
  0
LINE
  8
0
 62
7
  6
CONTINUOUS
 10
98.5045222804
 20
224.1764818118
 11
98.5045222804
 21
238.1149649951
  0
LINE
  8
0
 62
7
  6
CONTINUOUS
 10
104.1005222804
 20
224.7764818118
 11
104.1005222804
 21
235.7743936393
  0
LINE
  8
0
 62
7
  6
CONTINUOUS
 10
104.8505222804
 20
238.0252878362
 11
104.8505222804
 21
237.2185402896
  0
POLYLINE
  8
AXES
 62
7
  6
CONTINUOUS
 66
1
 70
0
  0
VERTEX
  8
AXES
 62
7
  6
CONTINUOUS
 10
98.1123119839
 20
230.0264818118
  0
VERTEX
  8
AXES
 62
7
  6
CONTINUOUS
 10
98.1099771137
 20
229.8298359646
  0
VERTEX
  8
AXES
 62
7
  6
CONTINUOUS
 10
98.1029866118
 20
229.6347847766
  0
VERTEX
  8
AXES
 62
7
  6
CONTINUOUS
 10
98.0913831342
 20
229.442922825
  0
VERTEX
  8
AXES
 62
7
  6
CONTINUOUS
 10
98.0752391461
 20
229.2558466876
  0
VERTEX
  8
AXES
 62
7
  6
CONTINUOUS
 10
98.0546587209
 20
229.0751511893
  0
VERTEX
  8
AXES
 62
7
  6
CONTINUOUS
 10
98.0297800172
 20
228.9024253841
  0
VERTEX
  8
AXES
 62
7
  6
CONTINUOUS
 10
98.0007778508
 20
228.7392427687
  0
VERTEX
  8
AXES
 62
7
  6
CONTINUOUS
 10
97.9678662161
 20
228.5871478397
  0
VERTEX
  8
AXES
 62
7
  6
CONTINUOUS
 10
97.9313006491
 20
228.4476392273
  0
VERTEX
  8
AXES
 62
7
  6
CONTINUOUS
 10
97.8913794331
 20
228.3221467637
  0
VERTEX
  8
AXES
 62
7
  6
CONTINUOUS
 10
97.8484440631
 20
228.2120068389
  0
VERTEX
  8
AXES
 62
7
  6
CONTINUOUS
 10
97.8028783363
 20
228.1184349746
  0
VERTEX
  8
AXES
 62
7
  6
CONTINUOUS
 10
97.7551054779
 20
228.0424967288
  0
SEQEND
  0
LINE
  8
0
 62
7
  6
CONTINUOUS
 10
97.7512917679
 20
235.8034978002
 11
97.7505227355
 21
235.7676240395
  0
POLYLINE
  8
0
 62
7
  6
CONTINUOUS
 66
1
 70
0
  0
VERTEX
  8
0
 62
7
  6
CONTINUOUS
 10
161.7245511436
 20
237.1285962705
  0
VERTEX
  8
0
 62
7
  6
CONTINUOUS
 10
161.7047834804
 20
237.1102321605
  0
VERTEX
  8
0
 62
7
  6
CONTINUOUS
 10
161.6785757426
 20
237.0847498874
  0
VERTEX
  8
0
 62
7
  6
CONTINUOUS
 10
161.6536359422
 20
237.0592853487
  0
VERTEX
  8
0
 62
7
  6
CONTINUOUS
 10
161.6298028766
 20
237.0338268485
  0
VERTEX
  8
0
 62
7
  6
CONTINUOUS
 10
161.6069361331
 20
237.0083475551
  0
VERTEX
  8
0
 62
7
  6
CONTINUOUS
 10
161.5849047895
 20
236.9828044862
  0
VERTEX
  8
0
 62
7
  6
CONTINUOUS
 10
161.5635751131
 20
236.9571253364
  0
VERTEX
  8
0
 62
7
  6
CONTINUOUS
 10
161.5428222549
 20
236.931220458
  0
VERTEX
  8
0
 62
7
  6
CONTINUOUS
 10
161.5225452271
 20
236.9050094205
  0
VERTEX
  8
0
 62
7
  6
CONTINUOUS
 10
161.5027049076
 20
236.8784778152
  0
VERTEX
  8
0
 62
7
  6
CONTINUOUS
 10
161.4832808945
 20
236.8516265429
  0
VERTEX
  8
0
 62
7
  6
CONTINUOUS
 10
161.464259705
 20
236.8244627047
  0
VERTEX
  8
0
 62
7
  6
CONTINUOUS
 10
161.4456232674
 20
236.7969841302
  0
VERTEX
  8
0
 62
7
  6
CONTINUOUS
 10
161.4273547403
 20
236.7691829926
  0
VERTEX
  8
0
 62
7
  6
CONTINUOUS
 10
161.4094433231
 20
236.7410580036
  0
VERTEX
  8
0
 62
7
  6
CONTINUOUS
 10
161.3918719979
 20
236.7125946624
  0
VERTEX
  8
0
 62
7
  6
CONTINUOUS
 10
161.3746286247
 20
236.6837786473
  0
VERTEX
  8
0
 62
7
  6
CONTINUOUS
 10
161.3577035039
 20
236.6545980794
  0
VERTEX
  8
0
 62
7
  6
CONTINUOUS
 10
161.3410849816
 20
236.6250312946
  0
VERTEX
  8
0
 62
7
  6
CONTINUOUS
 10
161.3247778075
 20
236.5950808884
  0
VERTEX
  8
0
 62
7
  6
CONTINUOUS
 10
161.3087820574
 20
236.5647405858
  0
VERTEX
  8
0
 62
7
  6
CONTINUOUS
 10
161.2931010194
 20
236.5340023872
  0
VERTEX
  8
0
 62
7
  6
CONTINUOUS
 10
161.2777397324
 20
236.5028619746
  0
VERTEX
  8
0
 62
7
  6
CONTINUOUS
 10
161.2626995593
 20
236.4712988594
  0
VERTEX
  8
0
 62
7
  6
CONTINUOUS
 10
161.2479890707
 20
236.4393049371
  0
VERTEX
  8
0
 62
7
  6
CONTINUOUS
 10
161.2336104586
 20
236.4068489018
  0
VERTEX
  8
0
 62
7
  6
CONTINUOUS
 10
161.2195750881
 20
236.3739136383
  0
VERTEX
  8
0
 62
7
  6
CONTINUOUS
 10
161.2058878657
 20
236.3404541477
  0
VERTEX
  8
0
 62
7
  6
CONTINUOUS
 10
161.1925636265
 20
236.306439194
  0
VERTEX
  8
0
 62
7
  6
CONTINUOUS
 10
161.179618184
 20
236.2718200234
  0
VERTEX
  8
0
 62
7
  6
CONTINUOUS
 10
161.1670906226
 20
236.2365997151
  0
VERTEX
  8
0
 62
7
  6
CONTINUOUS
 10
161.1550236889
 20
236.2007698824
  0
VERTEX
  8
0
 62
7
  6
CONTINUOUS
 10
161.1434605336
 20
236.1643092282
  0
VERTEX
  8
0
 62
7
  6
CONTINUOUS
 10
161.1324559608
 20
236.1272027017
  0
VERTEX
  8
0
 62
7
  6
CONTINUOUS
 10
161.1220675466
 20
236.0894022387
  0
VERTEX
  8
0
 62
7
  6
CONTINUOUS
 10
161.1123662919
 20
236.0508570068
  0
VERTEX
  8
0
 62
7
  6
CONTINUOUS
 10
161.1034688764
 20
236.0116359956
  0
VERTEX
  8
0
 62
7
  6
CONTINUOUS
 10
161.0955154498
 20
235.9718637652
  0
VERTEX
  8
0
 62
7
  6
CONTINUOUS
 10
161.0886587848
 20
235.9316976363
  0
VERTEX
  8
0
 62
7
  6
CONTINUOUS
 10
161.0830680516
 20
235.8913770612
  0
VERTEX
  8
0
 62
7
  6
CONTINUOUS
 10
161.078917131
 20
235.851233078
  0
VERTEX
  8
0
 62
7
  6
CONTINUOUS
 10
161.0763701553
 20
235.8117648328
  0
VERTEX
  8
0
 62
7
  6
CONTINUOUS
 10
161.0755366464
 20
235.7743936519
  0
SEQEND
  0
POLYLINE
  8
0
 62
7
  6
CONTINUOUS
 66
1
 70
0
  0
VERTEX
  8
0
 62
7
  6
CONTINUOUS
 10
146.0995507356
 20
237.1285959728
  0
VERTEX
  8
0
 62
7
  6
CONTINUOUS
 10
146.0814316198
 20
237.1117912198
  0
VERTEX
  8
0
 62
7
  6
CONTINUOUS
 10
146.0560733433
 20
237.0872343101
  0
VERTEX
  8
0
 62
7
  6
CONTINUOUS
 10
146.0319027499
 20
237.0626889616
  0
VERTEX
  8
0
 62
7
  6
CONTINUOUS
 10
146.0087667453
 20
237.0381381694
  0
VERTEX
  8
0
 62
7
  6
CONTINUOUS
 10
145.9865322572
 20
237.0135524139
  0
VERTEX
  8
0
 62
7
  6
CONTINUOUS
 10
145.9650742246
 20
236.988886548
  0
VERTEX
  8
0
 62
7
  6
CONTINUOUS
 10
145.9442648102
 20
236.9640680762
  0
VERTEX
  8
0
 62
7
  6
CONTINUOUS
 10
145.9239847395
 20
236.9390088697
  0
VERTEX
  8
0
 62
7
  6
CONTINUOUS
 10
145.9041286131
 20
236.9136182963
  0
VERTEX
  8
0
 62
7
  6
CONTINUOUS
 10
145.8846480775
 20
236.8878640842
  0
VERTEX
  8
0
 62
7
  6
CONTINUOUS
 10
145.8655303608
 20
236.8617512355
  0
VERTEX
  8
0
 62
7
  6
CONTINUOUS
 10
145.8467698063
 20
236.8352922912
  0
VERTEX
  8
0
 62
7
  6
CONTINUOUS
 10
145.8283568346
 20
236.8084931136
  0
VERTEX
  8
0
 62
7
  6
CONTINUOUS
 10
145.8102816837
 20
236.7813536506
  0
VERTEX
  8
0
 62
7
  6
CONTINUOUS
 10
145.7925408796
 20
236.7538816248
  0
VERTEX
  8
0
 62
7
  6
CONTINUOUS
 10
145.7751254412
 20
236.7260747406
  0
VERTEX
  8
0
 62
7
  6
CONTINUOUS
 10
145.7580293768
 20
236.6979294602
  0
VERTEX
  8
0
 62
7
  6
CONTINUOUS
 10
145.7412502788
 20
236.6694476449
  0
VERTEX
  8
0
 62
7
  6
CONTINUOUS
 10
145.7247794744
 20
236.640616627
  0
VERTEX
  8
0
 62
7
  6
CONTINUOUS
 10
145.7086180451
 20
236.6114357551
  0
VERTEX
  8
0
 62
7
  6
CONTINUOUS
 10
145.6927655651
 20
236.5819018202
  0
VERTEX
  8
0
 62
7
  6
CONTINUOUS
 10
145.6772214139
 20
236.5520040964
  0
VERTEX
  8
0
 62
7
  6
CONTINUOUS
 10
145.6619898098
 20
236.521740573
  0
VERTEX
  8
0
 62
7
  6
CONTINUOUS
 10
145.6470688618
 20
236.4910908216
  0
VERTEX
  8
0
 62
7
  6
CONTINUOUS
 10
145.6324653303
 20
236.4600476483
  0
VERTEX
  8
0
 62
7
  6
CONTINUOUS
 10
145.6181785695
 20
236.4285827632
  0
VERTEX
  8
0
 62
7
  6
CONTINUOUS
 10
145.6042172741
 20
236.3966796413
  0
VERTEX
  8
0
 62
7
  6
CONTINUOUS
 10
145.5905831454
 20
236.3642990912
  0
VERTEX
  8
0
 62
7
  6
CONTINUOUS
 10
145.577287965
 20
236.3314126579
  0
VERTEX
  8
0
 62
7
  6
CONTINUOUS
 10
145.5643371524
 20
236.2979644826
  0
VERTEX
  8
0
 62
7
  6
CONTINUOUS
 10
145.5517580658
 20
236.2639389036
  0
VERTEX
  8
0
 62
7
  6
CONTINUOUS
 10
145.5395848784
 20
236.2293238463
  0
VERTEX
  8
0
 62
7
  6
CONTINUOUS
 10
145.5278612531
 20
236.1941237095
  0
VERTEX
  8
0
 62
7
  6
CONTINUOUS
 10
145.5166319346
 20
236.1583212763
  0
VERTEX
  8
0
 62
7
  6
CONTINUOUS
 10
145.5059440143
 20
236.1218848217
  0
VERTEX
  8
0
 62
7
  6
CONTINUOUS
 10
145.4958577521
 20
236.0847887102
  0
VERTEX
  8
0
 62
7
  6
CONTINUOUS
 10
145.4864457884
 20
236.0469970104
  0
VERTEX
  8
0
 62
7
  6
CONTINUOUS
 10
145.4778185749
 20
236.0085766181
  0
VERTEX
  8
0
 62
7
  6
CONTINUOUS
 10
145.4701073485
 20
235.9696546636
  0
VERTEX
  8
0
 62
7
  6
CONTINUOUS
 10
145.4634559532
 20
235.9303879092
  0
VERTEX
  8
0
 62
7
  6
CONTINUOUS
 10
145.458022328
 20
235.8910078992
  0
VERTEX
  8
0
 62
7
  6
CONTINUOUS
 10
145.4539655509
 20
235.8518064795
  0
VERTEX
  8
0
 62
7
  6
CONTINUOUS
 10
145.4514368386
 20
235.8132520435
  0
VERTEX
  8
0
 62
7
  6
CONTINUOUS
 10
145.4505370971
 20
235.7743936519
  0
SEQEND
  0
POLYLINE
  8
0
 62
7
  6
CONTINUOUS
 66
1
 70
0
  0
VERTEX
  8
0
 62
7
  6
CONTINUOUS
 10
161.8155842411
 20
237.2099003398
  0
VERTEX
  8
0
 62
7
  6
CONTINUOUS
 10
161.7660932532
 20
237.1660910116
  0
VERTEX
  8
0
 62
7
  6
CONTINUOUS
 10
161.7245473404
 20
237.1285920372
  0
SEQEND
  0
POLYLINE
  8
0
 62
7
  6
CONTINUOUS
 66
1
 70
0
  0
VERTEX
  8
0
 62
7
  6
CONTINUOUS
 10
146.1912381067
 20
237.210472887
  0
VERTEX
  8
0
 62
7
  6
CONTINUOUS
 10
146.1417461023
 20
237.1666749948
  0
VERTEX
  8
0
 62
7
  6
CONTINUOUS
 10
146.0995473408
 20
237.1285920358
  0
SEQEND
  0
LINE
  8
0
 62
7
  6
CONTINUOUS
 10
161.857876574
 20
237.2465982245
 11
161.8155842411
 21
237.2099003398
  0
POLYLINE
  8
0
 62
7
  6
CONTINUOUS
 66
1
 70
0
  0
VERTEX
  8
0
 62
7
  6
CONTINUOUS
 10
122.5052984128
 20
237.1666750367
  0
VERTEX
  8
0
 62
7
  6
CONTINUOUS
 10
122.4558064062
 20
237.2104729308
  0
VERTEX
  8
0
 62
7
  6
CONTINUOUS
 10
122.4141679878
 20
237.2465982233
  0
SEQEND
  0
POLYLINE
  8
0
 62
7
  6
CONTINUOUS
 66
1
 70
0
  0
VERTEX
  8
0
 62
7
  6
CONTINUOUS
 10
136.2599513006
 20
237.166091017
  0
VERTEX
  8
0
 62
7
  6
CONTINUOUS
 10
136.2104603129
 20
237.2099003452
  0
VERTEX
  8
0
 62
7
  6
CONTINUOUS
 10
136.1681679873
 20
237.246598224
  0
SEQEND
  0
LINE
  8
0
 62
7
  6
CONTINUOUS
 10
122.547497224
 20
237.1285920321
 11
122.5052984128
 21
237.1666750367
  0
POLYLINE
  8
AXES
 62
7
  6
CONTINUOUS
 66
1
 70
0
  0
VERTEX
  8
AXES
 62
7
  6
CONTINUOUS
 10
97.7505222804
 20
232.0228532334
  0
VERTEX
  8
AXES
 62
7
  6
CONTINUOUS
 10
97.751670994
 20
232.0167109219
  0
VERTEX
  8
AXES
 62
7
  6
CONTINUOUS
 10
97.7551054779
 20
232.0104668948
  0
SEQEND
  0
POLYLINE
  8
0
 62
7
  6
CONTINUOUS
 66
1
 70
0
  0
VERTEX
  8
0
 62
7
  6
CONTINUOUS
 10
110.1005214192
 20
235.7743936494
  0
VERTEX
  8
0
 62
7
  6
CONTINUOUS
 10
110.0996276623
 20
235.8131321637
  0
VERTEX
  8
0
 62
7
  6
CONTINUOUS
 10
110.0970796351
 20
235.8519709463
  0
VERTEX
  8
0
 62
7
  6
CONTINUOUS
 10
110.0929964554
 20
235.8913386506
  0
VERTEX
  8
0
 62
7
  6
CONTINUOUS
 10
110.0875759457
 20
235.93056119
  0
VERTEX
  8
0
 62
7
  6
CONTINUOUS
 10
110.0810304942
 20
235.9692243668
  0
VERTEX
  8
0
 62
7
  6
CONTINUOUS
 10
110.0735292844
 20
236.00721028
  0
VERTEX
  8
0
 62
7
  6
CONTINUOUS
 10
110.0651956102
 20
236.0445334298
  0
VERTEX
  8
0
 62
7
  6
CONTINUOUS
 10
110.0561262767
 20
236.0812250317
  0
VERTEX
  8
0
 62
7
  6
CONTINUOUS
 10
110.0464018155
 20
236.1173133138
  0
VERTEX
  8
0
 62
7
  6
CONTINUOUS
 10
110.0360965236
 20
236.1527964115
  0
VERTEX
  8
0
 62
7
  6
CONTINUOUS
 10
110.0252547586
 20
236.1877298512
  0
VERTEX
  8
0
 62
7
  6
CONTINUOUS
 10
110.0138911678
 20
236.2222277568
  0
VERTEX
  8
0
 62
7
  6
CONTINUOUS
 10
110.0020189224
 20
236.2563639591
  0
VERTEX
  8
0
 62
7
  6
CONTINUOUS
 10
109.9896388971
 20
236.2902166585
  0
VERTEX
  8
0
 62
7
  6
CONTINUOUS
 10
109.9767546225
 20
236.3238378406
  0
VERTEX
  8
0
 62
7
  6
CONTINUOUS
 10
109.963361485
 20
236.3572761032
  0
VERTEX
  8
0
 62
7
  6
CONTINUOUS
 10
109.9494503167
 20
236.3905824754
  0
VERTEX
  8
0
 62
7
  6
CONTINUOUS
 10
109.935011899
 20
236.4237883261
  0
VERTEX
  8
0
 62
7
  6
CONTINUOUS
 10
109.9200320305
 20
236.4569307435
  0
VERTEX
  8
0
 62
7
  6
CONTINUOUS
 10
109.9044995632
 20
236.4900254104
  0
VERTEX
  8
0
 62
7
  6
CONTINUOUS
 10
109.8883985321
 20
236.5230943048
  0
VERTEX
  8
0
 62
7
  6
CONTINUOUS
 10
109.8717318493
 20
236.5561107364
  0
VERTEX
  8
0
 62
7
  6
CONTINUOUS
 10
109.8545094401
 20
236.5890368429
  0
VERTEX
  8
0
 62
7
  6
CONTINUOUS
 10
109.8367449979
 20
236.6218240487
  0
VERTEX
  8
0
 62
7
  6
CONTINUOUS
 10
109.8184498441
 20
236.6544329456
  0
VERTEX
  8
0
 62
7
  6
CONTINUOUS
 10
109.7996346169
 20
236.6868214765
  0
VERTEX
  8
0
 62
7
  6
CONTINUOUS
 10
109.7803061112
 20
236.7189576372
  0
VERTEX
  8
0
 62
7
  6
CONTINUOUS
 10
109.7604608291
 20
236.7508217334
  0
VERTEX
  8
0
 62
7
  6
CONTINUOUS
 10
109.7401023874
 20
236.7823819174
  0
VERTEX
  8
0
 62
7
  6
CONTINUOUS
 10
109.7192248247
 20
236.8136187504
  0
VERTEX
  8
0
 62
7
  6
CONTINUOUS
 10
109.6978289745
 20
236.8444981622
  0
VERTEX
  8
0
 62
7
  6
CONTINUOUS
 10
109.6759110337
 20
236.8749932423
  0
VERTEX
  8
0
 62
7
  6
CONTINUOUS
 10
109.6534642597
 20
236.9050747162
  0
VERTEX
  8
0
 62
7
  6
CONTINUOUS
 10
109.6304877452
 20
236.9347044189
  0
VERTEX
  8
0
 62
7
  6
CONTINUOUS
 10
109.6069299084
 20
236.9639032781
  0
VERTEX
  8
0
 62
7
  6
CONTINUOUS
 10
109.5826290789
 20
236.9928054563
  0
VERTEX
  8
0
 62
7
  6
CONTINUOUS
 10
109.5573978699
 20
237.021541743
  0
VERTEX
  8
0
 62
7
  6
CONTINUOUS
 10
109.531028732
 20
237.0502209035
  0
VERTEX
  8
0
 62
7
  6
CONTINUOUS
 10
109.5033153863
 20
237.0789014377
  0
VERTEX
  8
0
 62
7
  6
CONTINUOUS
 10
109.4740344234
 20
237.1076103071
  0
VERTEX
  8
0
 62
7
  6
CONTINUOUS
 10
109.4515089551
 20
237.1285956669
  0
SEQEND
  0
LINE
  8
0
 62
7
  6
CONTINUOUS
 10
109.3505222804
 20
238.0252878419
 11
109.3505222804
 21
237.2185402896
  0
LINE
  8
0
 62
7
  6
CONTINUOUS
 10
110.1005222804
 20
235.7743936304
 11
110.1005222804
 21
224.7764818118
  0
LINE
  8
0
 62
7
  6
CONTINUOUS
 10
117.1965366435
 20
224.7764818118
 11
117.1965366435
 21
235.7743793414
  0
LINE
  8
0
 62
7
  6
CONTINUOUS
 10
117.9465222804
 20
237.2185237709
 11
117.9465222804
 21
238.0252878626
  0
POLYLINE
  8
0
 62
7
  6
CONTINUOUS
 66
1
 70
0
  0
VERTEX
  8
0
 62
7
  6
CONTINUOUS
 10
150.7592984128
 20
237.1666750367
  0
VERTEX
  8
0
 62
7
  6
CONTINUOUS
 10
150.7098064062
 20
237.2104729308
  0
VERTEX
  8
0
 62
7
  6
CONTINUOUS
 10
150.6681679878
 20
237.2465982233
  0
SEQEND
  0
LINE
  8
0
 62
7
  6
CONTINUOUS
 10
136.3014972203
 20
237.1285920363
 11
136.2599513006
 21
237.166091017
  0
LINE
  8
0
 62
7
  6
CONTINUOUS
 10
150.801497224
 20
237.1285920321
 11
150.7592984128
 21
237.1666750367
  0
POLYLINE
  8
AXES
 62
7
  6
CONTINUOUS
 66
1
 70
0
  0
VERTEX
  8
AXES
 62
7
  6
CONTINUOUS
 10
152.7505222787
 20
227.9265720816
  0
VERTEX
  8
AXES
 62
7
  6
CONTINUOUS
 10
152.7459643347
 20
227.9309453447
  0
VERTEX
  8
AXES
 62
7
  6
CONTINUOUS
 10
152.7288854699
 20
227.9444146835
  0
VERTEX
  8
AXES
 62
7
  6
CONTINUOUS
 10
152.698945409
 20
227.9668869304
  0
VERTEX
  8
AXES
 62
7
  6
CONTINUOUS
 10
152.6555536804
 20
227.9985017169
  0
VERTEX
  8
AXES
 62
7
  6
CONTINUOUS
 10
152.5976753257
 20
228.0395157582
  0
VERTEX
  8
AXES
 62
7
  6
CONTINUOUS
 10
152.5245846542
 20
228.0896887061
  0
VERTEX
  8
AXES
 62
7
  6
CONTINUOUS
 10
152.435670853
 20
228.1483448659
  0
VERTEX
  8
AXES
 62
7
  6
CONTINUOUS
 10
152.3322779296
 20
228.2131341276
  0
VERTEX
  8
AXES
 62
7
  6
CONTINUOUS
 10
152.2170399702
 20
228.2806661414
  0
VERTEX
  8
AXES
 62
7
  6
CONTINUOUS
 10
152.0929521658
 20
228.3473021338
  0
VERTEX
  8
AXES
 62
7
  6
CONTINUOUS
 10
151.963413973
 20
228.409378266
  0
VERTEX
  8
AXES
 62
7
  6
CONTINUOUS
 10
151.8316061216
 20
228.4638099156
  0
VERTEX
  8
AXES
 62
7
  6
CONTINUOUS
 10
151.6994233657
 20
228.5086339844
  0
VERTEX
  8
AXES
 62
7
  6
CONTINUOUS
 10
151.5686910412
 20
228.5425018102
  0
SEQEND
  0
POLYLINE
  8
0
 62
7
  6
CONTINUOUS
 66
1
 70
0
  0
VERTEX
  8
0
 62
7
  6
CONTINUOUS
 10
123.1965070653
 20
235.7743936495
  0
VERTEX
  8
0
 62
7
  6
CONTINUOUS
 10
123.1956132856
 20
235.8131323568
  0
VERTEX
  8
0
 62
7
  6
CONTINUOUS
 10
123.1930652499
 20
235.8519710654
  0
VERTEX
  8
0
 62
7
  6
CONTINUOUS
 10
123.1889820738
 20
235.8913387836
  0
VERTEX
  8
0
 62
7
  6
CONTINUOUS
 10
123.1835615697
 20
235.9305613818
  0
VERTEX
  8
0
 62
7
  6
CONTINUOUS
 10
123.177016132
 20
235.969224405
  0
VERTEX
  8
0
 62
7
  6
CONTINUOUS
 10
123.1695148846
 20
236.0072103413
  0
VERTEX
  8
0
 62
7
  6
CONTINUOUS
 10
123.1611811829
 20
236.0445336616
  0
VERTEX
  8
0
 62
7
  6
CONTINUOUS
 10
123.1521118888
 20
236.0812252027
  0
VERTEX
  8
0
 62
7
  6
CONTINUOUS
 10
123.1423874836
 20
236.1173131395
  0
VERTEX
  8
0
 62
7
  6
CONTINUOUS
 10
123.1320820953
 20
236.1527966187
  0
VERTEX
  8
0
 62
7
  6
CONTINUOUS
 10
123.1212403926
 20
236.1877299188
  0
VERTEX
  8
0
 62
7
  6
CONTINUOUS
 10
123.1098767755
 20
236.2222278117
  0
VERTEX
  8
0
 62
7
  6
CONTINUOUS
 10
123.0980045251
 20
236.256364087
  0
VERTEX
  8
0
 62
7
  6
CONTINUOUS
 10
123.0856245352
 20
236.2902166504
  0
VERTEX
  8
0
 62
7
  6
CONTINUOUS
 10
123.0727402228
 20
236.3238379364
  0
VERTEX
  8
0
 62
7
  6
CONTINUOUS
 10
123.0593471116
 20
236.3572761321
  0
VERTEX
  8
0
 62
7
  6
CONTINUOUS
 10
123.045435917
 20
236.3905825548
  0
VERTEX
  8
0
 62
7
  6
CONTINUOUS
 10
123.0309975245
 20
236.423788359
  0
VERTEX
  8
0
 62
7
  6
CONTINUOUS
 10
123.0160176278
 20
236.4569308293
  0
VERTEX
  8
0
 62
7
  6
CONTINUOUS
 10
123.0004851786
 20
236.4900254599
  0
VERTEX
  8
0
 62
7
  6
CONTINUOUS
 10
122.9843841294
 20
236.5230943854
  0
VERTEX
  8
0
 62
7
  6
CONTINUOUS
 10
122.96771746
 20
236.5561107891
  0
VERTEX
  8
0
 62
7
  6
CONTINUOUS
 10
122.9504950398
 20
236.5890369147
  0
VERTEX
  8
0
 62
7
  6
CONTINUOUS
 10
122.932730605
 20
236.6218241027
  0
VERTEX
  8
0
 62
7
  6
CONTINUOUS
 10
122.9144354466
 20
236.6544330069
  0
VERTEX
  8
0
 62
7
  6
CONTINUOUS
 10
122.8956202211
 20
236.6868215315
  0
VERTEX
  8
0
 62
7
  6
CONTINUOUS
 10
122.8762917162
 20
236.7189576898
  0
VERTEX
  8
0
 62
7
  6
CONTINUOUS
 10
122.8564464343
 20
236.7508217835
  0
VERTEX
  8
0
 62
7
  6
CONTINUOUS
 10
122.8360879945
 20
236.7823819627
  0
VERTEX
  8
0
 62
7
  6
CONTINUOUS
 10
122.8152104334
 20
236.8136187921
  0
VERTEX
  8
0
 62
7
  6
CONTINUOUS
 10
122.7938145826
 20
236.844498203
  0
VERTEX
  8
0
 62
7
  6
CONTINUOUS
 10
122.7718966462
 20
236.8749932754
  0
VERTEX
  8
0
 62
7
  6
CONTINUOUS
 10
122.7494498734
 20
236.9050747473
  0
VERTEX
  8
0
 62
7
  6
CONTINUOUS
 10
122.72647336
 20
236.9347044463
  0
VERTEX
  8
0
 62
7
  6
CONTINUOUS
 10
122.7029155285
 20
236.9639032984
  0
VERTEX
  8
0
 62
7
  6
CONTINUOUS
 10
122.6786146986
 20
236.9928054768
  0
VERTEX
  8
0
 62
7
  6
CONTINUOUS
 10
122.6533834928
 20
237.0215417577
  0
VERTEX
  8
0
 62
7
  6
CONTINUOUS
 10
122.6270143603
 20
237.0502209127
  0
VERTEX
  8
0
 62
7
  6
CONTINUOUS
 10
122.5993010128
 20
237.0789014485
  0
VERTEX
  8
0
 62
7
  6
CONTINUOUS
 10
122.5700200557
 20
237.1076103101
  0
VERTEX
  8
0
 62
7
  6
CONTINUOUS
 10
122.5474945932
 20
237.1285956647
  0
SEQEND
  0
LINE
  8
0
 62
7
  6
CONTINUOUS
 10
122.4465222804
 20
237.9999730636
 11
122.4465222804
 21
237.2185277939
  0
LINE
  8
0
 62
7
  6
CONTINUOUS
 10
123.1965079172
 20
235.7743936306
 11
123.1965079172
 21
224.7764818118
  0
LINE
  8
0
 62
7
  6
CONTINUOUS
 10
130.9505366435
 20
224.7764818118
 11
130.9505366435
 21
235.7743793414
  0
LINE
  8
0
 62
7
  6
CONTINUOUS
 10
131.7005222804
 20
237.2185237709
 11
131.7005222804
 21
237.9999731048
  0
POLYLINE
  8
0
 62
7
  6
CONTINUOUS
 66
1
 70
0
  0
VERTEX
  8
0
 62
7
  6
CONTINUOUS
 10
166.3849513006
 20
237.166091017
  0
VERTEX
  8
0
 62
7
  6
CONTINUOUS
 10
166.3354603129
 20
237.2099003452
  0
VERTEX
  8
0
 62
7
  6
CONTINUOUS
 10
166.2931679873
 20
237.246598224
  0
SEQEND
  0
LINE
  8
0
 62
7
  6
CONTINUOUS
 10
166.4264972203
 20
237.1285920363
 11
166.3849513006
 21
237.166091017
  0
POLYLINE
  8
0
 62
7
  6
CONTINUOUS
 66
1
 70
0
  0
VERTEX
  8
0
 62
7
  6
CONTINUOUS
 10
161.2965222804
 20
214.9285838297
  0
VERTEX
  8
0
 62
7
  6
CONTINUOUS
 10
161.3061073432
 20
214.9137764253
  0
VERTEX
  8
0
 62
7
  6
CONTINUOUS
 10
161.3349930057
 20
214.8971137406
  0
VERTEX
  8
0
 62
7
  6
CONTINUOUS
 10
161.3829331093
 20
214.8789065672
  0
VERTEX
  8
0
 62
7
  6
CONTINUOUS
 10
161.4491551168
 20
214.8595509092
  0
VERTEX
  8
0
 62
7
  6
CONTINUOUS
 10
161.5331974648
 20
214.8393363384
  0
VERTEX
  8
0
 62
7
  6
CONTINUOUS
 10
161.6346259211
 20
214.8186061799
  0
VERTEX
  8
0
 62
7
  6
CONTINUOUS
 10
161.7519794939
 20
214.7979191721
  0
VERTEX
  8
0
 62
7
  6
CONTINUOUS
 10
161.8837365277
 20
214.7777922035
  0
VERTEX
  8
0
 62
7
  6
CONTINUOUS
 10
162.0294492715
 20
214.7585729821
  0
VERTEX
  8
0
 62
7
  6
CONTINUOUS
 10
162.1879554563
 20
214.7407277355
  0
VERTEX
  8
0
 62
7
  6
CONTINUOUS
 10
162.3570035516
 20
214.7247972308
  0
VERTEX
  8
0
 62
7
  6
CONTINUOUS
 10
162.5340014352
 20
214.7112467675
  0
VERTEX
  8
0
 62
7
  6
CONTINUOUS
 10
162.7180417028
 20
214.7003330644
  0
VERTEX
  8
0
 62
7
  6
CONTINUOUS
 10
162.9082805378
 20
214.6922989457
  0
VERTEX
  8
0
 62
7
  6
CONTINUOUS
 10
163.1020623524
 20
214.6874047824
  0
VERTEX
  8
0
 62
7
  6
CONTINUOUS
 10
163.2965222804
 20
214.6857720712
  0
SEQEND
  0
POLYLINE
  8
0
 62
7
  6
CONTINUOUS
 66
1
 70
0
  0
VERTEX
  8
0
 62
7
  6
CONTINUOUS
 10
136.9505073624
 20
235.7743936515
  0
VERTEX
  8
0
 62
7
  6
CONTINUOUS
 10
136.9498101192
 20
235.8085176514
  0
VERTEX
  8
0
 62
7
  6
CONTINUOUS
 10
136.9475102691
 20
235.8465843184
  0
VERTEX
  8
0
 62
7
  6
CONTINUOUS
 10
136.9437067498
 20
235.8852426321
  0
VERTEX
  8
0
 62
7
  6
CONTINUOUS
 10
136.9385841533
 20
235.9238154893
  0
VERTEX
  8
0
 62
7
  6
CONTINUOUS
 10
136.9323461539
 20
235.961882297
  0
VERTEX
  8
0
 62
7
  6
CONTINUOUS
 10
136.9251629217
 20
235.9992898766
  0
VERTEX
  8
0
 62
7
  6
CONTINUOUS
 10
136.9171568725
 20
236.0360474417
  0
VERTEX
  8
0
 62
7
  6
CONTINUOUS
 10
136.9084239792
 20
236.0721863353
  0
VERTEX
  8
0
 62
7
  6
CONTINUOUS
 10
136.8990441018
 20
236.1077352483
  0
VERTEX
  8
0
 62
7
  6
CONTINUOUS
 10
136.8890906735
 20
236.1426911462
  0
VERTEX
  8
0
 62
7
  6
CONTINUOUS
 10
136.8786135643
 20
236.1770918038
  0
VERTEX
  8
0
 62
7
  6
CONTINUOUS
 10
136.86763114
 20
236.2110446441
  0
VERTEX
  8
0
 62
7
  6
CONTINUOUS
 10
136.8561570836
 20
236.2446246634
  0
VERTEX
  8
0
 62
7
  6
CONTINUOUS
 10
136.8441926054
 20
236.2779145918
  0
VERTEX
  8
0
 62
7
  6
CONTINUOUS
 10
136.8317434028
 20
236.3109628176
  0
VERTEX
  8
0
 62
7
  6
CONTINUOUS
 10
136.8188048643
 20
236.3438222217
  0
VERTEX
  8
0
 62
7
  6
CONTINUOUS
 10
136.8053729854
 20
236.3765347684
  0
VERTEX
  8
0
 62
7
  6
CONTINUOUS
 10
136.7914384369
 20
236.4091363542
  0
VERTEX
  8
0
 62
7
  6
CONTINUOUS
 10
136.7769922051
 20
236.4416572322
  0
VERTEX
  8
0
 62
7
  6
CONTINUOUS
 10
136.7620232008
 20
236.4741175168
  0
VERTEX
  8
0
 62
7
  6
CONTINUOUS
 10
136.7465198358
 20
236.5065356832
  0
VERTEX
  8
0
 62
7
  6
CONTINUOUS
 10
136.7304734925
 20
236.5389124174
  0
VERTEX
  8
0
 62
7
  6
CONTINUOUS
 10
136.7138892304
 20
236.5712216709
  0
VERTEX
  8
0
 62
7
  6
CONTINUOUS
 10
136.6967710788
 20
236.6034338904
  0
VERTEX
  8
0
 62
7
  6
CONTINUOUS
 10
136.6791272742
 20
236.6355145109
  0
VERTEX
  8
0
 62
7
  6
CONTINUOUS
 10
136.6609594958
 20
236.6674370649
  0
VERTEX
  8
0
 62
7
  6
CONTINUOUS
 10
136.6422781775
 20
236.6991606674
  0
VERTEX
  8
0
 62
7
  6
CONTINUOUS
 10
136.6230889416
 20
236.7306518725
  0
VERTEX
  8
0
 62
7
  6
CONTINUOUS
 10
136.6034058431
 20
236.7618623371
  0
VERTEX
  8
0
 62
7
  6
CONTINUOUS
 10
136.5832364737
 20
236.792756705
  0
VERTEX
  8
0
 62
7
  6
CONTINUOUS
 10
136.5625902846
 20
236.8232931815
  0
VERTEX
  8
0
 62
7
  6
CONTINUOUS
 10
136.5414791708
 20
236.853429367
  0
VERTEX
  8
0
 62
7
  6
CONTINUOUS
 10
136.5199067642
 20
236.8831324617
  0
VERTEX
  8
0
 62
7
  6
CONTINUOUS
 10
136.497884637
 20
236.9123575863
  0
VERTEX
  8
0
 62
7
  6
CONTINUOUS
 10
136.4754170465
 20
236.9410713184
  0
VERTEX
  8
0
 62
7
  6
CONTINUOUS
 10
136.4524362641
 20
236.9693224778
  0
VERTEX
  8
0
 62
7
  6
CONTINUOUS
 10
136.428780264
 20
236.9972552261
  0
VERTEX
  8
0
 62
7
  6
CONTINUOUS
 10
136.4042633417
 20
237.0250070834
  0
VERTEX
  8
0
 62
7
  6
CONTINUOUS
 10
136.3786947123
 20
237.0526782269
  0
VERTEX
  8
0
 62
7
  6
CONTINUOUS
 10
136.3518810124
 20
237.0803313472
  0
VERTEX
  8
0
 62
7
  6
CONTINUOUS
 10
136.3236013812
 20
237.1080093222
  0
VERTEX
  8
0
 62
7
  6
CONTINUOUS
 10
136.3014934937
 20
237.128596312
  0
SEQEND
  0
LINE
  8
0
 62
7
  6
CONTINUOUS
 10
136.2005222804
 20
237.2185237705
 11
136.2005222804
 21
237.9999730486
  0
LINE
  8
0
 62
7
  6
CONTINUOUS
 10
136.9505079172
 20
235.7743936377
 11
136.9505079172
 21
224.7764818118
  0
LINE
  8
0
 62
7
  6
CONTINUOUS
 10
144.1505222804
 20
227.9271338039
 11
144.1505222804
 21
224.1764818118
  0
LINE
  8
0
 62
7
  6
CONTINUOUS
 10
145.4505366435
 20
225.0402204435
 11
145.4505366435
 21
235.7743936393
  0
LINE
  8
0
 62
7
  6
CONTINUOUS
 10
146.2005222804
 20
237.9999729295
 11
146.2005222804
 21
237.2185277919
  0
POLYLINE
  8
AXES
 62
7
  6
CONTINUOUS
 66
1
 70
0
  0
VERTEX
  8
AXES
 62
7
  6
CONTINUOUS
 10
145.4505366435
 20
228.7054625995
  0
VERTEX
  8
AXES
 62
7
  6
CONTINUOUS
 10
145.447551122
 20
228.6694894589
  0
VERTEX
  8
AXES
 62
7
  6
CONTINUOUS
 10
145.4394632128
 20
228.6384737286
  0
VERTEX
  8
AXES
 62
7
  6
CONTINUOUS
 10
145.4272669683
 20
228.6120390466
  0
VERTEX
  8
AXES
 62
7
  6
CONTINUOUS
 10
145.411911343
 20
228.5901513585
  0
VERTEX
  8
AXES
 62
7
  6
CONTINUOUS
 10
145.3943745671
 20
228.5727047797
  0
VERTEX
  8
AXES
 62
7
  6
CONTINUOUS
 10
145.3751221869
 20
228.5591518207
  0
VERTEX
  8
AXES
 62
7
  6
CONTINUOUS
 10
145.3541999464
 20
228.5490533441
  0
VERTEX
  8
AXES
 62
7
  6
CONTINUOUS
 10
145.3323535196
 20
228.5425018102
  0
SEQEND
  0
POLYLINE
  8
0
 62
7
  6
CONTINUOUS
 66
1
 70
0
  0
VERTEX
  8
0
 62
7
  6
CONTINUOUS
 10
151.4505070653
 20
235.7743936495
  0
VERTEX
  8
0
 62
7
  6
CONTINUOUS
 10
151.4496132856
 20
235.8131323568
  0
VERTEX
  8
0
 62
7
  6
CONTINUOUS
 10
151.4470652499
 20
235.8519710654
  0
VERTEX
  8
0
 62
7
  6
CONTINUOUS
 10
151.4429820738
 20
235.8913387836
  0
VERTEX
  8
0
 62
7
  6
CONTINUOUS
 10
151.4375615697
 20
235.9305613818
  0
VERTEX
  8
0
 62
7
  6
CONTINUOUS
 10
151.431016132
 20
235.969224405
  0
VERTEX
  8
0
 62
7
  6
CONTINUOUS
 10
151.4235148846
 20
236.0072103413
  0
VERTEX
  8
0
 62
7
  6
CONTINUOUS
 10
151.4151811829
 20
236.0445336616
  0
VERTEX
  8
0
 62
7
  6
CONTINUOUS
 10
151.4061118888
 20
236.0812252027
  0
VERTEX
  8
0
 62
7
  6
CONTINUOUS
 10
151.3963874836
 20
236.1173131395
  0
VERTEX
  8
0
 62
7
  6
CONTINUOUS
 10
151.3860820953
 20
236.1527966187
  0
VERTEX
  8
0
 62
7
  6
CONTINUOUS
 10
151.3752403926
 20
236.1877299188
  0
VERTEX
  8
0
 62
7
  6
CONTINUOUS
 10
151.3638767755
 20
236.2222278117
  0
VERTEX
  8
0
 62
7
  6
CONTINUOUS
 10
151.3520045251
 20
236.256364087
  0
VERTEX
  8
0
 62
7
  6
CONTINUOUS
 10
151.3396245352
 20
236.2902166504
  0
VERTEX
  8
0
 62
7
  6
CONTINUOUS
 10
151.3267402228
 20
236.3238379364
  0
VERTEX
  8
0
 62
7
  6
CONTINUOUS
 10
151.3133471116
 20
236.3572761321
  0
VERTEX
  8
0
 62
7
  6
CONTINUOUS
 10
151.299435917
 20
236.3905825548
  0
VERTEX
  8
0
 62
7
  6
CONTINUOUS
 10
151.2849975245
 20
236.423788359
  0
VERTEX
  8
0
 62
7
  6
CONTINUOUS
 10
151.2700176278
 20
236.4569308293
  0
VERTEX
  8
0
 62
7
  6
CONTINUOUS
 10
151.2544851786
 20
236.4900254599
  0
VERTEX
  8
0
 62
7
  6
CONTINUOUS
 10
151.2383841294
 20
236.5230943854
  0
VERTEX
  8
0
 62
7
  6
CONTINUOUS
 10
151.22171746
 20
236.5561107891
  0
VERTEX
  8
0
 62
7
  6
CONTINUOUS
 10
151.2044950398
 20
236.5890369147
  0
VERTEX
  8
0
 62
7
  6
CONTINUOUS
 10
151.186730605
 20
236.6218241027
  0
VERTEX
  8
0
 62
7
  6
CONTINUOUS
 10
151.1684354466
 20
236.6544330069
  0
VERTEX
  8
0
 62
7
  6
CONTINUOUS
 10
151.1496202211
 20
236.6868215315
  0
VERTEX
  8
0
 62
7
  6
CONTINUOUS
 10
151.1302917162
 20
236.7189576898
  0
VERTEX
  8
0
 62
7
  6
CONTINUOUS
 10
151.1104464343
 20
236.7508217835
  0
VERTEX
  8
0
 62
7
  6
CONTINUOUS
 10
151.0900879945
 20
236.7823819627
  0
VERTEX
  8
0
 62
7
  6
CONTINUOUS
 10
151.0692104334
 20
236.8136187921
  0
VERTEX
  8
0
 62
7
  6
CONTINUOUS
 10
151.0478145826
 20
236.844498203
  0
VERTEX
  8
0
 62
7
  6
CONTINUOUS
 10
151.0258966462
 20
236.8749932754
  0
VERTEX
  8
0
 62
7
  6
CONTINUOUS
 10
151.0034498734
 20
236.9050747473
  0
VERTEX
  8
0
 62
7
  6
CONTINUOUS
 10
150.98047336
 20
236.9347044463
  0
VERTEX
  8
0
 62
7
  6
CONTINUOUS
 10
150.9569155285
 20
236.9639032984
  0
VERTEX
  8
0
 62
7
  6
CONTINUOUS
 10
150.9326146986
 20
236.9928054768
  0
VERTEX
  8
0
 62
7
  6
CONTINUOUS
 10
150.9073834928
 20
237.0215417577
  0
VERTEX
  8
0
 62
7
  6
CONTINUOUS
 10
150.8810143603
 20
237.0502209127
  0
VERTEX
  8
0
 62
7
  6
CONTINUOUS
 10
150.8533010128
 20
237.0789014485
  0
VERTEX
  8
0
 62
7
  6
CONTINUOUS
 10
150.8240200557
 20
237.1076103101
  0
VERTEX
  8
0
 62
7
  6
CONTINUOUS
 10
150.8014945932
 20
237.1285956647
  0
SEQEND
  0
LINE
  8
0
 62
7
  6
CONTINUOUS
 10
150.7005222804
 20
237.98869133
 11
150.7005222804
 21
237.2185277939
  0
LINE
  8
0
 62
7
  6
CONTINUOUS
 10
151.4505079172
 20
235.7743936306
 11
151.4505079172
 21
225.0402198263
  0
LINE
  8
0
 62
7
  6
CONTINUOUS
 10
152.7505222804
 20
227.9271336063
 11
152.7505222804
 21
224.1764818118
  0
LINE
  8
0
 62
7
  6
CONTINUOUS
 10
161.0755366435
 20
224.7764818118
 11
161.0755366435
 21
235.7743936519
  0
LINE
  8
0
 62
7
  6
CONTINUOUS
 10
161.2965222804
 20
211.0264818118
 11
161.2965222804
 21
214.9786275019
  0
LINE
  8
0
 62
7
  6
CONTINUOUS
 10
161.8255222804
 20
237.2185237709
 11
161.8255222804
 21
237.8999676294
  0
POLYLINE
  8
0
 62
7
  6
CONTINUOUS
 66
1
 70
0
  0
VERTEX
  8
0
 62
7
  6
CONTINUOUS
 10
166.1755222804
 20
237.8845362869
  0
VERTEX
  8
0
 62
7
  6
CONTINUOUS
 10
166.1934358425
 20
237.9448690014
  0
VERTEX
  8
0
 62
7
  6
CONTINUOUS
 10
166.2473667518
 20
237.9998588003
  0
VERTEX
  8
0
 62
7
  6
CONTINUOUS
 10
166.3371830435
 20
238.0491609685
  0
VERTEX
  8
0
 62
7
  6
CONTINUOUS
 10
166.4622250217
 20
238.0926101604
  0
VERTEX
  8
0
 62
7
  6
CONTINUOUS
 10
166.6214459766
 20
238.1302313887
  0
VERTEX
  8
0
 62
7
  6
CONTINUOUS
 10
166.8139771338
 20
238.1622678376
  0
VERTEX
  8
0
 62
7
  6
CONTINUOUS
 10
167.038997167
 20
238.1890361075
  0
VERTEX
  8
0
 62
7
  6
CONTINUOUS
 10
167.2952773513
 20
238.210875313
  0
VERTEX
  8
0
 62
7
  6
CONTINUOUS
 10
167.5814218313
 20
238.2281968417
  0
VERTEX
  8
0
 62
7
  6
CONTINUOUS
 10
167.8958307377
 20
238.2414672033
  0
VERTEX
  8
0
 62
7
  6
CONTINUOUS
 10
168.236199242
 20
238.251183209
  0
VERTEX
  8
0
 62
7
  6
CONTINUOUS
 10
168.6008789557
 20
238.2578979866
  0
VERTEX
  8
0
 62
7
  6
CONTINUOUS
 10
168.9882337804
 20
238.262160292
  0
VERTEX
  8
0
 62
7
  6
CONTINUOUS
 10
169.3954481497
 20
238.2644977243
  0
SEQEND
  0
POLYLINE
  8
AXES
 62
7
  6
CONTINUOUS
 66
1
 70
0
  0
VERTEX
  8
AXES
 62
7
  6
CONTINUOUS
 10
167.0755079172
 20
231.0105916431
  0
VERTEX
  8
AXES
 62
7
  6
CONTINUOUS
 10
167.0901106223
 20
230.9630448775
  0
VERTEX
  8
AXES
 62
7
  6
CONTINUOUS
 10
167.1362835946
 20
230.778891764
  0
VERTEX
  8
AXES
 62
7
  6
CONTINUOUS
 10
167.1726959144
 20
230.5918628699
  0
VERTEX
  8
AXES
 62
7
  6
CONTINUOUS
 10
167.1987974248
 20
230.4039392873
  0
VERTEX
  8
AXES
 62
7
  6
CONTINUOUS
 10
167.214521524
 20
230.2150750178
  0
VERTEX
  8
AXES
 62
7
  6
CONTINUOUS
 10
167.2197492178
 20
230.0263091809
  0
VERTEX
  8
AXES
 62
7
  6
CONTINUOUS
 10
167.2145015227
 20
229.8375282308
  0
VERTEX
  8
AXES
 62
7
  6
CONTINUOUS
 10
167.1987580101
 20
229.6486697231
  0
VERTEX
  8
AXES
 62
7
  6
CONTINUOUS
 10
167.1726383837
 20
229.4607558707
  0
VERTEX
  8
AXES
 62
7
  6
CONTINUOUS
 10
167.136206394
 20
229.2737253571
  0
VERTEX
  8
AXES
 62
7
  6
CONTINUOUS
 10
167.0900193278
 20
229.0895915306
  0
VERTEX
  8
AXES
 62
7
  6
CONTINUOUS
 10
167.0755079172
 20
229.0423577484
  0
SEQEND
  0
POLYLINE
  8
0
 62
7
  6
CONTINUOUS
 66
1
 70
0
  0
VERTEX
  8
0
 62
7
  6
CONTINUOUS
 10
174.4505218827
 20
237.9692400571
  0
VERTEX
  8
0
 62
7
  6
CONTINUOUS
 10
174.4468568413
 20
238.0042970824
  0
VERTEX
  8
0
 62
7
  6
CONTINUOUS
 10
174.4356510859
 20
238.0387432869
  0
VERTEX
  8
0
 62
7
  6
CONTINUOUS
 10
174.4186491018
 20
238.068573706
  0
VERTEX
  8
0
 62
7
  6
CONTINUOUS
 10
174.3983711578
 20
238.0926522165
  0
VERTEX
  8
0
 62
7
  6
CONTINUOUS
 10
174.3768397857
 20
238.1114082303
  0
VERTEX
  8
0
 62
7
  6
CONTINUOUS
 10
174.355019002
 20
238.1260371766
  0
VERTEX
  8
0
 62
7
  6
CONTINUOUS
 10
174.3329040312
 20
238.1378187931
  0
VERTEX
  8
0
 62
7
  6
CONTINUOUS
 10
174.3100435066
 20
238.1477177699
  0
VERTEX
  8
0
 62
7
  6
CONTINUOUS
 10
174.2858858422
 20
238.1563658193
  0
VERTEX
  8
0
 62
7
  6
CONTINUOUS
 10
174.2599126325
 20
238.1641568058
  0
VERTEX
  8
0
 62
7
  6
CONTINUOUS
 10
174.2316689589
 20
238.1713326342
  0
VERTEX
  8
0
 62
7
  6
CONTINUOUS
 10
174.2006991766
 20
238.1780553005
  0
VERTEX
  8
0
 62
7
  6
CONTINUOUS
 10
174.1665526888
 20
238.1844308382
  0
VERTEX
  8
0
 62
7
  6
CONTINUOUS
 10
174.1288288029
 20
238.1905184907
  0
VERTEX
  8
0
 62
7
  6
CONTINUOUS
 10
174.0871729283
 20
238.1963495855
  0
VERTEX
  8
0
 62
7
  6
CONTINUOUS
 10
174.0412548012
 20
238.2019388954
  0
VERTEX
  8
0
 62
7
  6
CONTINUOUS
 10
173.9907674684
 20
238.2072904524
  0
VERTEX
  8
0
 62
7
  6
CONTINUOUS
 10
173.9354049243
 20
238.2124042357
  0
VERTEX
  8
0
 62
7
  6
CONTINUOUS
 10
173.8748792045
 20
238.2172747658
  0
VERTEX
  8
0
 62
7
  6
CONTINUOUS
 10
173.8089228194
 20
238.2218948216
  0
VERTEX
  8
0
 62
7
  6
CONTINUOUS
 10
173.7372818403
 20
238.2262558241
  0
VERTEX
  8
0
 62
7
  6
CONTINUOUS
 10
173.6597312434
 20
238.2303493306
  0
VERTEX
  8
0
 62
7
  6
CONTINUOUS
 10
173.5760691985
 20
238.234167579
  0
VERTEX
  8
0
 62
7
  6
CONTINUOUS
 10
173.4861229583
 20
238.2377046243
  0
VERTEX
  8
0
 62
7
  6
CONTINUOUS
 10
173.3897453059
 20
238.2409566492
  0
VERTEX
  8
0
 62
7
  6
CONTINUOUS
 10
173.1772763532
 20
238.2466031793
  0
SEQEND
  0
POLYLINE
  8
0
 62
7
  6
CONTINUOUS
 66
1
 70
0
  0
VERTEX
  8
0
 62
7
  6
CONTINUOUS
 10
167.0755073624
 20
235.7743936515
  0
VERTEX
  8
0
 62
7
  6
CONTINUOUS
 10
167.0748101192
 20
235.8085176514
  0
VERTEX
  8
0
 62
7
  6
CONTINUOUS
 10
167.0725102691
 20
235.8465843184
  0
VERTEX
  8
0
 62
7
  6
CONTINUOUS
 10
167.0687067498
 20
235.8852426321
  0
VERTEX
  8
0
 62
7
  6
CONTINUOUS
 10
167.0635841533
 20
235.9238154893
  0
VERTEX
  8
0
 62
7
  6
CONTINUOUS
 10
167.0573461539
 20
235.961882297
  0
VERTEX
  8
0
 62
7
  6
CONTINUOUS
 10
167.0501629217
 20
235.9992898766
  0
VERTEX
  8
0
 62
7
  6
CONTINUOUS
 10
167.0421568725
 20
236.0360474417
  0
VERTEX
  8
0
 62
7
  6
CONTINUOUS
 10
167.0334239792
 20
236.0721863353
  0
VERTEX
  8
0
 62
7
  6
CONTINUOUS
 10
167.0240441018
 20
236.1077352483
  0
VERTEX
  8
0
 62
7
  6
CONTINUOUS
 10
167.0140906735
 20
236.1426911462
  0
VERTEX
  8
0
 62
7
  6
CONTINUOUS
 10
167.0036135643
 20
236.1770918038
  0
VERTEX
  8
0
 62
7
  6
CONTINUOUS
 10
166.99263114
 20
236.2110446441
  0
VERTEX
  8
0
 62
7
  6
CONTINUOUS
 10
166.9811570836
 20
236.2446246634
  0
VERTEX
  8
0
 62
7
  6
CONTINUOUS
 10
166.9691926054
 20
236.2779145918
  0
VERTEX
  8
0
 62
7
  6
CONTINUOUS
 10
166.9567434028
 20
236.3109628176
  0
VERTEX
  8
0
 62
7
  6
CONTINUOUS
 10
166.9438048643
 20
236.3438222217
  0
VERTEX
  8
0
 62
7
  6
CONTINUOUS
 10
166.9303729854
 20
236.3765347684
  0
VERTEX
  8
0
 62
7
  6
CONTINUOUS
 10
166.9164384369
 20
236.4091363542
  0
VERTEX
  8
0
 62
7
  6
CONTINUOUS
 10
166.9019922051
 20
236.4416572322
  0
VERTEX
  8
0
 62
7
  6
CONTINUOUS
 10
166.8870232008
 20
236.4741175168
  0
VERTEX
  8
0
 62
7
  6
CONTINUOUS
 10
166.8715198358
 20
236.5065356832
  0
VERTEX
  8
0
 62
7
  6
CONTINUOUS
 10
166.8554734925
 20
236.5389124174
  0
VERTEX
  8
0
 62
7
  6
CONTINUOUS
 10
166.8388892304
 20
236.5712216709
  0
VERTEX
  8
0
 62
7
  6
CONTINUOUS
 10
166.8217710788
 20
236.6034338904
  0
VERTEX
  8
0
 62
7
  6
CONTINUOUS
 10
166.8041272742
 20
236.6355145109
  0
VERTEX
  8
0
 62
7
  6
CONTINUOUS
 10
166.7859594958
 20
236.6674370649
  0
VERTEX
  8
0
 62
7
  6
CONTINUOUS
 10
166.7672781775
 20
236.6991606674
  0
VERTEX
  8
0
 62
7
  6
CONTINUOUS
 10
166.7480889416
 20
236.7306518725
  0
VERTEX
  8
0
 62
7
  6
CONTINUOUS
 10
166.7284058431
 20
236.7618623371
  0
VERTEX
  8
0
 62
7
  6
CONTINUOUS
 10
166.7082364737
 20
236.792756705
  0
VERTEX
  8
0
 62
7
  6
CONTINUOUS
 10
166.6875902846
 20
236.8232931815
  0
VERTEX
  8
0
 62
7
  6
CONTINUOUS
 10
166.6664791708
 20
236.853429367
  0
VERTEX
  8
0
 62
7
  6
CONTINUOUS
 10
166.6449067642
 20
236.8831324617
  0
VERTEX
  8
0
 62
7
  6
CONTINUOUS
 10
166.622884637
 20
236.9123575863
  0
VERTEX
  8
0
 62
7
  6
CONTINUOUS
 10
166.6004170465
 20
236.9410713184
  0
VERTEX
  8
0
 62
7
  6
CONTINUOUS
 10
166.5774362641
 20
236.9693224778
  0
VERTEX
  8
0
 62
7
  6
CONTINUOUS
 10
166.553780264
 20
236.9972552261
  0
VERTEX
  8
0
 62
7
  6
CONTINUOUS
 10
166.5292633417
 20
237.0250070834
  0
VERTEX
  8
0
 62
7
  6
CONTINUOUS
 10
166.5036947123
 20
237.0526782269
  0
VERTEX
  8
0
 62
7
  6
CONTINUOUS
 10
166.4768810124
 20
237.0803313472
  0
VERTEX
  8
0
 62
7
  6
CONTINUOUS
 10
166.4486013812
 20
237.1080093222
  0
VERTEX
  8
0
 62
7
  6
CONTINUOUS
 10
166.4264934937
 20
237.128596312
  0
SEQEND
  0
LINE
  8
0
 62
7
  6
CONTINUOUS
 10
166.3255222804
 20
237.2185237705
 11
166.3255222804
 21
237.7358580078
  0
LINE
  8
0
 62
7
  6
CONTINUOUS
 10
167.0755079172
 20
235.7743936377
 11
167.0755079172
 21
224.7764818118
  0
LINE
  8
0
 62
7
  6
CONTINUOUS
 10
169.0465222804
 20
215.2786317835
 11
169.0465222804
 21
224.0264818118
  0
LINE
  8
0
 62
7
  6
CONTINUOUS
 10
169.1611639647
 20
224.0264818118
 11
169.161163966
 21
215.0197784137
  0
LINE
  8
0
 62
7
  6
CONTINUOUS
 10
169.1965222804
 20
214.9892594971
 11
169.1965222804
 21
224.0264818118
  0
LINE
  8
0
 62
7
  6
CONTINUOUS
 10
174.4505222804
 20
224.1764818118
 11
174.4505222804
 21
237.9692484056
  0
LINE
  8
0
 62
7
  6
CONTINUOUS
 10
173.7298274699
 20
223.6509012276
 11
173.0113797434
 21
211.9043847327
  0
POLYLINE
  8
0
 62
7
  6
CONTINUOUS
 66
1
 70
0
  0
VERTEX
  8
0
 62
7
  6
CONTINUOUS
 10
169.161163966
 20
215.0197784137
  0
VERTEX
  8
0
 62
7
  6
CONTINUOUS
 10
169.1579797597
 20
214.9757088703
  0
VERTEX
  8
0
 62
7
  6
CONTINUOUS
 10
169.1484476022
 20
214.9324921474
  0
VERTEX
  8
0
 62
7
  6
CONTINUOUS
 10
169.1329188344
 20
214.8915274843
  0
VERTEX
  8
0
 62
7
  6
CONTINUOUS
 10
169.1117074446
 20
214.8533869637
  0
VERTEX
  8
0
 62
7
  6
CONTINUOUS
 10
169.0850377576
 20
214.8185772203
  0
VERTEX
  8
0
 62
7
  6
CONTINUOUS
 10
169.0535401519
 20
214.7880583893
  0
VERTEX
  8
0
 62
7
  6
CONTINUOUS
 10
169.0182246296
 20
214.7627284653
  0
VERTEX
  8
0
 62
7
  6
CONTINUOUS
 10
168.9798785771
 20
214.7429779396
  0
VERTEX
  8
0
 62
7
  6
CONTINUOUS
 10
168.9389622282
 20
214.7289951968
  0
VERTEX
  8
0
 62
7
  6
CONTINUOUS
 10
168.8945433286
 20
214.7195054279
  0
SEQEND
  0
POLYLINE
  8
0
 62
7
  6
CONTINUOUS
 66
1
 70
0
  0
VERTEX
  8
0
 62
7
  6
CONTINUOUS
 10
169.1965222804
 20
214.9892594971
  0
VERTEX
  8
0
 62
7
  6
CONTINUOUS
 10
169.1928131796
 20
214.9416910924
  0
VERTEX
  8
0
 62
7
  6
CONTINUOUS
 10
169.1816984602
 20
214.8950509816
  0
VERTEX
  8
0
 62
7
  6
CONTINUOUS
 10
169.1636151943
 20
214.8510781021
  0
VERTEX
  8
0
 62
7
  6
CONTINUOUS
 10
169.1389414332
 20
214.8104895723
  0
VERTEX
  8
0
 62
7
  6
CONTINUOUS
 10
169.1080181601
 20
214.7740309303
  0
VERTEX
  8
0
 62
7
  6
CONTINUOUS
 10
169.0718796759
 20
214.7430253311
  0
VERTEX
  8
0
 62
7
  6
CONTINUOUS
 10
169.0318488555
 20
214.7184084558
  0
VERTEX
  8
0
 62
7
  6
CONTINUOUS
 10
168.9886262029
 20
214.7004313841
  0
VERTEX
  8
0
 62
7
  6
CONTINUOUS
 10
168.9429540658
 20
214.6894297008
  0
VERTEX
  8
0
 62
7
  6
CONTINUOUS
 10
168.8965222804
 20
214.6857720712
  0
SEQEND
  0
POLYLINE
  8
0
 62
7
  6
CONTINUOUS
 66
1
 70
0
  0
VERTEX
  8
0
 62
7
  6
CONTINUOUS
 10
169.1927735183
 20
214.9753355357
  0
VERTEX
  8
0
 62
7
  6
CONTINUOUS
 10
169.1816296705
 20
214.9286746684
  0
VERTEX
  8
0
 62
7
  6
CONTINUOUS
 10
169.1634000724
 20
214.8844327763
  0
VERTEX
  8
0
 62
7
  6
CONTINUOUS
 10
169.1385743755
 20
214.8437078571
  0
VERTEX
  8
0
 62
7
  6
CONTINUOUS
 10
169.1078217895
 20
214.8075130851
  0
VERTEX
  8
0
 62
7
  6
CONTINUOUS
 10
169.0719471494
 20
214.7767137929
  0
VERTEX
  8
0
 62
7
  6
CONTINUOUS
 10
169.0318638897
 20
214.7520231173
  0
VERTEX
  8
0
 62
7
  6
CONTINUOUS
 10
168.9885624647
 20
214.7339939337
  0
VERTEX
  8
0
 62
7
  6
CONTINUOUS
 10
168.9430888157
 20
214.7230200372
  0
VERTEX
  8
0
 62
7
  6
CONTINUOUS
 10
168.8945433286
 20
214.7195054279
  0
SEQEND
  0
LINE
  8
0
 62
7
  6
CONTINUOUS
 10
119.6965222804
 20
112.584441167
 11
120.6965222804
 21
112.584441167
  0
LINE
  8
0
 62
7
  6
CONTINUOUS
 10
133.4505222804
 20
112.584441167
 11
134.4505222804
 21
112.584441167
  0
LINE
  8
0
 62
7
  6
CONTINUOUS
 10
147.9505222804
 20
112.584441167
 11
148.9505222804
 21
112.584441167
  0
LINE
  8
0
 62
7
  6
CONTINUOUS
 10
163.5755222804
 20
112.584441167
 11
164.5755222804
 21
112.584441167
  0
LINE
  8
DEFAULT_1
 62
2
  6
CENTER
 10
102.1005222804
 20
116.934441167
 11
169.0755079172
 21
116.934441167
  0
POLYLINE
  8
0
 62
7
  6
CONTINUOUS
 66
1
 70
0
  0
VERTEX
  8
0
 62
7
  6
CONTINUOUS
 10
163.2965222804
 20
139.6232714795
  0
VERTEX
  8
0
 62
7
  6
CONTINUOUS
 10
163.1005968952
 20
139.6137912164
  0
VERTEX
  8
0
 62
7
  6
CONTINUOUS
 10
162.9056126499
 20
139.585252148
  0
VERTEX
  8
0
 62
7
  6
CONTINUOUS
 10
162.7144731675
 20
139.5379324703
  0
VERTEX
  8
0
 62
7
  6
CONTINUOUS
 10
162.5298444745
 20
139.4726178773
  0
VERTEX
  8
0
 62
7
  6
CONTINUOUS
 10
162.3525055912
 20
139.3896845403
  0
VERTEX
  8
0
 62
7
  6
CONTINUOUS
 10
162.1834742573
 20
139.2894075005
  0
VERTEX
  8
0
 62
7
  6
CONTINUOUS
 10
162.0253387138
 20
139.1731399957
  0
VERTEX
  8
0
 62
7
  6
CONTINUOUS
 10
161.8803098239
 20
139.0426800253
  0
VERTEX
  8
0
 62
7
  6
CONTINUOUS
 10
161.7493873858
 20
138.8992534717
  0
VERTEX
  8
0
 62
7
  6
CONTINUOUS
 10
161.6328046498
 20
138.7430897661
  0
VERTEX
  8
0
 62
7
  6
CONTINUOUS
 10
161.5320486042
 20
138.5758907832
  0
VERTEX
  8
0
 62
7
  6
CONTINUOUS
 10
161.4485343221
 20
138.4000758239
  0
VERTEX
  8
0
 62
7
  6
CONTINUOUS
 10
161.3826647261
 20
138.2166698639
  0
VERTEX
  8
0
 62
7
  6
CONTINUOUS
 10
161.3349181852
 20
138.0265444824
  0
VERTEX
  8
0
 62
7
  6
CONTINUOUS
 10
161.3061017335
 20
137.832270496
  0
VERTEX
  8
0
 62
7
  6
CONTINUOUS
 10
161.2965222804
 20
137.6366788628
  0
SEQEND
  0
POLYLINE
  8
0
 62
7
  6
CONTINUOUS
 66
1
 70
0
  0
VERTEX
  8
0
 62
7
  6
CONTINUOUS
 10
168.8965222804
 20
139.6232714795
  0
VERTEX
  8
0
 62
7
  6
CONTINUOUS
 10
168.9432498185
 20
139.6238449727
  0
VERTEX
  8
0
 62
7
  6
CONTINUOUS
 10
168.9891428726
 20
139.6255669884
  0
VERTEX
  8
0
 62
7
  6
CONTINUOUS
 10
169.0324945341
 20
139.6283750483
  0
VERTEX
  8
0
 62
7
  6
CONTINUOUS
 10
169.0725637515
 20
139.6322121599
  0
VERTEX
  8
0
 62
7
  6
CONTINUOUS
 10
169.1086494573
 20
139.6370334852
  0
VERTEX
  8
0
 62
7
  6
CONTINUOUS
 10
169.1394385273
 20
139.6426866221
  0
VERTEX
  8
0
 62
7
  6
CONTINUOUS
 10
169.1639442415
 20
139.6489648532
  0
VERTEX
  8
0
 62
7
  6
CONTINUOUS
 10
169.1818659342
 20
139.6557529542
  0
VERTEX
  8
0
 62
7
  6
CONTINUOUS
 10
169.1928595056
 20
139.6629402159
  0
VERTEX
  8
0
 62
7
  6
CONTINUOUS
 10
169.1965222804
 20
139.6702604548
  0
SEQEND
  0
LINE
  8
0
 62
7
  6
CONTINUOUS
 10
115.9465222804
 20
128.850441167
 11
111.3505222804
 21
128.850441167
  0
LINE
  8
0
 62
7
  6
CONTINUOUS
 10
99.5045222804
 20
128.850441167
 11
102.8505222804
 21
128.850441167
  0
LINE
  8
0
 62
7
  6
CONTINUOUS
 10
129.0005222804
 20
129.184441167
 11
125.1465222804
 21
129.184441167
  0
LINE
  8
0
 62
7
  6
CONTINUOUS
 10
138.9005409771
 20
129.184441167
 11
143.5005048406
 21
129.184441167
  0
LINE
  8
0
 62
7
  6
CONTINUOUS
 10
157.8255053949
 20
129.334441167
 11
153.7005380003
 21
129.334441167
  0
LINE
  8
0
 62
7
  6
CONTINUOUS
 10
164.4505006113
 20
129.884441167
 11
162.7005402143
 21
129.884441167
  0
LINE
  8
0
 62
7
  6
CONTINUOUS
 10
149.2005020575
 20
129.984441167
 11
147.7005402174
 21
129.984441167
  0
LINE
  8
0
 62
7
  6
CONTINUOUS
 10
134.8505222804
 20
130.134441167
 11
133.0505222804
 21
130.134441167
  0
LINE
  8
0
 62
7
  6
CONTINUOUS
 10
120.8465222804
 20
130.134441167
 11
119.5465222804
 21
130.134441167
  0
LINE
  8
0
 62
7
  6
CONTINUOUS
 10
168.8638497147
 20
133.003112953
 11
169.1965222804
 21
133.003112953
  0
LINE
  8
0
 62
7
  6
CONTINUOUS
 10
168.8965222804
 20
139.6232714795
 11
163.2965222804
 21
139.6232714795
  0
LINE
  8
0
 62
7
  6
CONTINUOUS
 10
168.9886262029
 20
132.8028570737
 11
163.2965222804
 21
132.803112953
  0
LINE
  8
0
 62
7
  6
CONTINUOUS
 10
168.8638497067
 20
139.4232714795
 11
169.1965222804
 21
139.4232714795
  0
LINE
  8
AXES
 62
2
  6
CENTER
 10
95.7505222804
 20
142.334441167
 11
174.4505222804
 21
142.334441167
  0
LINE
  8
0
 62
7
  6
CONTINUOUS
 10
98.5005222804
 20
146.684441167
 11
103.0005222804
 21
146.684441167
  0
LINE
  8
0
 62
7
  6
CONTINUOUS
 10
111.2005222804
 20
146.684441167
 11
115.7005222804
 21
146.684441167
  0
LINE
  8
0
 62
7
  6
CONTINUOUS
 10
124.6925222804
 20
146.684441167
 11
129.2045222804
 21
146.684441167
  0
LINE
  8
0
 62
7
  6
CONTINUOUS
 10
138.6965222804
 20
146.684441167
 11
143.2045222804
 21
146.684441167
  0
LINE
  8
0
 62
7
  6
CONTINUOUS
 10
153.6965222804
 20
146.684441167
 11
158.2045222804
 21
146.684441167
  0
POLYLINE
  8
0
 62
7
  6
CONTINUOUS
 66
1
 70
0
  0
VERTEX
  8
0
 62
7
  6
CONTINUOUS
 10
169.1965222804
 20
132.7978155603
  0
VERTEX
  8
0
 62
7
  6
CONTINUOUS
 10
169.1928131796
 20
132.7986458699
  0
VERTEX
  8
0
 62
7
  6
CONTINUOUS
 10
169.1816984602
 20
132.799459976
  0
VERTEX
  8
0
 62
7
  6
CONTINUOUS
 10
169.1636151943
 20
132.8002275255
  0
VERTEX
  8
0
 62
7
  6
CONTINUOUS
 10
169.1389414332
 20
132.8009360009
  0
VERTEX
  8
0
 62
7
  6
CONTINUOUS
 10
169.1080181601
 20
132.8015723889
  0
VERTEX
  8
0
 62
7
  6
CONTINUOUS
 10
169.0718796759
 20
132.8021135936
  0
VERTEX
  8
0
 62
7
  6
CONTINUOUS
 10
168.9886262029
 20
132.8028570737
  0
SEQEND
  0
LINE
  8
0
 62
7
  6
CONTINUOUS
 10
171.1090459933
 20
146.9830673315
 11
169.2960337032
 21
146.3350112422
  0
LINE
  8
0
 62
7
  6
CONTINUOUS
 10
172.4602938249
 20
130.3530396631
 11
170.3059791914
 21
129.5829860213
  0
LINE
  8
0
 62
7
  6
CONTINUOUS
 10
97.7505222804
 20
141.6829036417
 11
97.7505222804
 21
145.934441167
  0
LINE
  8
0
 62
7
  6
CONTINUOUS
 10
98.5045222804
 20
138.6221628421
 11
98.5045222804
 21
129.8504538228
  0
LINE
  8
0
 62
7
  6
CONTINUOUS
 10
97.7551054779
 20
141.6461075338
 11
98.489245005
 21
138.7448163713
  0
LINE
  8
0
 62
7
  6
CONTINUOUS
 10
102.9965222804
 20
134.438441167
 11
102.9965222804
 21
138.6221628748
  0
LINE
  8
0
 62
7
  6
CONTINUOUS
 10
103.7505222804
 20
141.6829036417
 11
103.7505222804
 21
145.934441167
  0
LINE
  8
0
 62
7
  6
CONTINUOUS
 10
104.1005222804
 20
114.1349514242
 11
104.1005222804
 21
117.608843301
  0
LINE
  8
0
 62
7
  6
CONTINUOUS
 10
104.8505222804
 20
126.8504249655
 11
104.8505222804
 21
120.6537762545
  0
LINE
  8
0
 62
7
  6
CONTINUOUS
 10
109.3505222804
 20
126.8504250297
 11
109.3505222804
 21
120.6537754544
  0
LINE
  8
0
 62
7
  6
CONTINUOUS
 10
110.1005222804
 20
117.608843301
 11
110.1005222804
 21
114.1349514242
  0
LINE
  8
0
 62
7
  6
CONTINUOUS
 10
110.4505222804
 20
141.6829036417
 11
110.4505222804
 21
145.934441167
  0
LINE
  8
0
 62
7
  6
CONTINUOUS
 10
111.2045222804
 20
138.6221628421
 11
111.2045222804
 21
134.4384611339
  0
LINE
  8
0
 62
7
  6
CONTINUOUS
 10
103.0117996054
 20
138.7448165677
 11
103.7459390829
 21
141.6461075338
  0
LINE
  8
AXES
 62
7
  6
CONTINUOUS
 10
104.8352449553
 20
120.5311225289
 11
104.7051054779
 21
120.0168163217
  0
LINE
  8
0
 62
7
  6
CONTINUOUS
 10
104.8352450051
 20
120.5311227255
 11
104.1051054779
 21
117.6456394089
  0
LINE
  8
0
 62
7
  6
CONTINUOUS
 10
115.7117996054
 20
138.7448165677
 11
116.4459390829
 21
141.6461075338
  0
LINE
  8
AXES
 62
7
  6
CONTINUOUS
 10
109.3657996054
 20
120.5311225289
 11
109.4959390829
 21
120.0168163217
  0
LINE
  8
0
 62
7
  6
CONTINUOUS
 10
109.3657995034
 20
120.5311229322
 11
110.0959390829
 21
117.6456394089
  0
LINE
  8
0
 62
7
  6
CONTINUOUS
 10
110.4551054779
 20
141.6461075338
 11
111.189245005
 21
138.7448163713
  0
LINE
  8
0
 62
7
  6
CONTINUOUS
 10
115.6965222804
 20
133.9844593228
 11
115.6965222804
 21
138.6221630464
  0
LINE
  8
0
 62
7
  6
CONTINUOUS
 10
116.4505222804
 20
141.6829036417
 11
116.4505222804
 21
145.934441167
  0
LINE
  8
0
 62
7
  6
CONTINUOUS
 10
117.1965366435
 20
113.6142193147
 11
117.1965366435
 21
117.608843301
  0
LINE
  8
0
 62
7
  6
CONTINUOUS
 10
117.9465222804
 20
120.6537194592
 11
117.9465222804
 21
126.850441167
  0
LINE
  8
0
 62
7
  6
CONTINUOUS
 10
122.4465222804
 20
126.4844240087
 11
122.4465222804
 21
120.6537186918
  0
LINE
  8
0
 62
7
  6
CONTINUOUS
 10
123.1965079172
 20
117.608843301
 11
123.1965079172
 21
113.6142193147
  0
LINE
  8
0
 62
7
  6
CONTINUOUS
 10
123.9425222804
 20
141.6829036417
 11
123.9425222804
 21
145.934441167
  0
LINE
  8
0
 62
7
  6
CONTINUOUS
 10
124.6965222804
 20
138.6221628421
 11
124.6965222804
 21
133.9844575237
  0
LINE
  8
AXES
 62
7
  6
CONTINUOUS
 10
117.8011198411
 20
120.0168163217
 11
117.9312449553
 21
120.5310657662
  0
LINE
  8
0
 62
7
  6
CONTINUOUS
 10
117.2011198411
 20
117.6456394089
 11
117.931245149
 21
120.5310665314
  0
LINE
  8
0
 62
7
  6
CONTINUOUS
 10
129.2157996054
 20
138.7448165677
 11
129.9499390829
 21
141.6461075338
  0
LINE
  8
AXES
 62
7
  6
CONTINUOUS
 10
122.4617996054
 20
120.5310657662
 11
122.5919247197
 21
120.0168163217
  0
LINE
  8
0
 62
7
  6
CONTINUOUS
 10
122.4617995034
 20
120.5310661696
 11
123.1919247197
 21
117.6456394089
  0
LINE
  8
0
 62
7
  6
CONTINUOUS
 10
123.9471054779
 20
141.6461075338
 11
124.681245005
 21
138.7448163713
  0
LINE
  8
0
 62
7
  6
CONTINUOUS
 10
129.2005222804
 20
133.9844593228
 11
129.2005222804
 21
138.6221630464
  0
LINE
  8
0
 62
7
  6
CONTINUOUS
 10
129.9545222804
 20
141.6829036417
 11
129.9545222804
 21
145.934441167
  0
LINE
  8
0
 62
7
  6
CONTINUOUS
 10
130.9505366435
 20
113.6203312593
 11
130.9505366435
 21
117.608843301
  0
LINE
  8
0
 62
7
  6
CONTINUOUS
 10
131.7005222804
 20
120.6537190797
 11
131.7005222804
 21
126.4844244354
  0
LINE
  8
0
 62
7
  6
CONTINUOUS
 10
136.2005222804
 20
120.6537194918
 11
136.2005222804
 21
126.4844238527
  0
LINE
  8
0
 62
7
  6
CONTINUOUS
 10
136.9505079172
 20
117.608843301
 11
136.9505079172
 21
113.6203312593
  0
LINE
  8
0
 62
7
  6
CONTINUOUS
 10
137.9465222804
 20
141.6829036417
 11
137.9465222804
 21
145.934441167
  0
LINE
  8
0
 62
7
  6
CONTINUOUS
 10
138.7005222804
 20
138.6221628421
 11
138.7005222804
 21
133.9844575237
  0
LINE
  8
AXES
 62
7
  6
CONTINUOUS
 10
131.5551198411
 20
120.0168163217
 11
131.6852449553
 21
120.5310657662
  0
LINE
  8
0
 62
7
  6
CONTINUOUS
 10
130.9551198411
 20
117.6456394089
 11
131.685245149
 21
120.5310665314
  0
LINE
  8
0
 62
7
  6
CONTINUOUS
 10
143.2157996054
 20
138.7448165677
 11
143.9499390829
 21
141.6461075338
  0
LINE
  8
AXES
 62
7
  6
CONTINUOUS
 10
136.2157996054
 20
120.5310657662
 11
136.3459247197
 21
120.0168163217
  0
LINE
  8
0
 62
7
  6
CONTINUOUS
 10
136.9459247197
 20
117.6456394089
 11
136.2157995557
 21
120.5310659626
  0
LINE
  8
0
 62
7
  6
CONTINUOUS
 10
137.9511054779
 20
141.6461075338
 11
138.685245005
 21
138.7448163713
  0
LINE
  8
AXES
 62
7
  6
CONTINUOUS
 10
150.7157996054
 20
120.5310657662
 11
150.8459247197
 21
120.0168163217
  0
LINE
  8
0
 62
7
  6
CONTINUOUS
 10
150.7157995034
 20
120.5310661696
 11
151.4459247197
 21
117.6456394089
  0
LINE
  8
0
 62
7
  6
CONTINUOUS
 10
143.2005222804
 20
134.4844614324
 11
143.2005222804
 21
138.6221630464
  0
LINE
  8
0
 62
7
  6
CONTINUOUS
 10
143.9545222804
 20
141.6829036417
 11
143.9545222804
 21
145.934441167
  0
LINE
  8
0
 62
7
  6
CONTINUOUS
 10
145.4505366435
 20
113.6203312593
 11
145.4505366435
 21
117.608843301
  0
LINE
  8
0
 62
7
  6
CONTINUOUS
 10
146.2005222804
 20
126.4844226183
 11
146.2005222804
 21
120.6537192876
  0
LINE
  8
0
 62
7
  6
CONTINUOUS
 10
150.7005222804
 20
126.3344251046
 11
150.7005222804
 21
120.6537186918
  0
LINE
  8
0
 62
7
  6
CONTINUOUS
 10
151.4505079172
 20
117.608843301
 11
151.4505079172
 21
113.6203312593
  0
LINE
  8
0
 62
7
  6
CONTINUOUS
 10
152.9465222804
 20
141.6829036417
 11
152.9465222804
 21
145.934441167
  0
LINE
  8
0
 62
7
  6
CONTINUOUS
 10
153.7005222804
 20
138.6221628421
 11
153.7005222804
 21
134.4844591844
  0
LINE
  8
0
 62
7
  6
CONTINUOUS
 10
146.1852449454
 20
120.5310657271
 11
145.4551198411
 21
117.6456394089
  0
LINE
  8
AXES
 62
7
  6
CONTINUOUS
 10
146.0551198411
 20
120.0168163217
 11
146.1852449553
 21
120.5310657662
  0
LINE
  8
0
 62
7
  6
CONTINUOUS
 10
158.2157974422
 20
138.7448124962
 11
158.9499397318
 21
141.6463297682
  0
LINE
  8
0
 62
7
  6
CONTINUOUS
 10
152.9511054779
 20
141.6461075338
 11
153.685245005
 21
138.7448163713
  0
POLYLINE
  8
0
 62
7
  6
CONTINUOUS
 66
1
 70
0
  0
VERTEX
  8
0
 62
7
  6
CONTINUOUS
 10
161.2965222804
 20
134.7991793141
  0
VERTEX
  8
0
 62
7
  6
CONTINUOUS
 10
161.3061073432
 20
134.6038360623
  0
VERTEX
  8
0
 62
7
  6
CONTINUOUS
 10
161.3349930057
 20
134.4092810133
  0
VERTEX
  8
0
 62
7
  6
CONTINUOUS
 10
161.3829331093
 20
134.2184284154
  0
VERTEX
  8
0
 62
7
  6
CONTINUOUS
 10
161.4491551168
 20
134.033955243
  0
VERTEX
  8
0
 62
7
  6
CONTINUOUS
 10
161.5331974648
 20
133.8568319657
  0
VERTEX
  8
0
 62
7
  6
CONTINUOUS
 10
161.6346259211
 20
133.6882298448
  0
VERTEX
  8
0
 62
7
  6
CONTINUOUS
 10
161.7519794939
 20
133.5306810016
  0
VERTEX
  8
0
 62
7
  6
CONTINUOUS
 10
161.8837365277
 20
133.385955818
  0
VERTEX
  8
0
 62
7
  6
CONTINUOUS
 10
162.0294492715
 20
133.2544855473
  0
VERTEX
  8
0
 62
7
  6
CONTINUOUS
 10
162.1879554563
 20
133.1375487811
  0
VERTEX
  8
0
 62
7
  6
CONTINUOUS
 10
162.3570035516
 20
133.0368784619
  0
VERTEX
  8
0
 62
7
  6
CONTINUOUS
 10
162.5340014352
 20
132.9537559432
  0
VERTEX
  8
0
 62
7
  6
CONTINUOUS
 10
162.7180417028
 20
132.8883587613
  0
VERTEX
  8
0
 62
7
  6
CONTINUOUS
 10
162.9082805378
 20
132.8410495849
  0
VERTEX
  8
0
 62
7
  6
CONTINUOUS
 10
163.1020623524
 20
132.8125620125
  0
VERTEX
  8
0
 62
7
  6
CONTINUOUS
 10
163.2965222804
 20
132.803112953
  0
SEQEND
  0
LINE
  8
0
 62
7
  6
CONTINUOUS
 10
158.2005222804
 20
134.384441167
 11
158.2005222804
 21
138.6221673526
  0
LINE
  8
0
 62
7
  6
CONTINUOUS
 10
158.9545222804
 20
141.6831233113
 11
158.9545222804
 21
145.934441167
  0
LINE
  8
0
 62
7
  6
CONTINUOUS
 10
161.0755366435
 20
113.6203312593
 11
161.0755366435
 21
117.608843301
  0
LINE
  8
0
 62
7
  6
CONTINUOUS
 10
161.2965222804
 20
134.7991793141
 11
161.2965222804
 21
137.6366788628
  0
LINE
  8
0
 62
7
  6
CONTINUOUS
 10
161.8255222804
 20
120.6537194592
 11
161.8255222804
 21
125.334441167
  0
LINE
  8
0
 62
7
  6
CONTINUOUS
 10
166.3255222804
 20
120.6537194918
 11
166.3255222804
 21
123.9330614236
  0
LINE
  8
0
 62
7
  6
CONTINUOUS
 10
167.0755079172
 20
117.608843301
 11
167.0755079172
 21
113.6203312593
  0
LINE
  8
0
 62
7
  6
CONTINUOUS
 10
169.1965222804
 20
132.6459591057
 11
169.1965222804
 21
146.1937635747
  0
LINE
  8
AXES
 62
7
  6
CONTINUOUS
 10
161.6801198411
 20
120.0168163217
 11
161.8102449553
 21
120.5310657662
  0
LINE
  8
0
 62
7
  6
CONTINUOUS
 10
161.0801198411
 20
117.6456394089
 11
161.810245149
 21
120.5310665314
  0
LINE
  8
AXES
 62
7
  6
CONTINUOUS
 10
166.3407996054
 20
120.5310657662
 11
166.4709247197
 21
120.0168163217
  0
LINE
  8
0
 62
7
  6
CONTINUOUS
 10
167.0709247197
 20
117.6456394089
 11
166.3407995557
 21
120.5310659626
  0
LINE
  8
0
 62
7
  6
CONTINUOUS
 10
174.4505222804
 20
133.1780107348
 11
174.4505222804
 21
144.6289165324
  0
LINE
  8
SURFACE
 62
7
  6
CONTINUOUS
 10
272.3355534461
 20
112.584441167
 11
268.3355534461
 21
112.584441167
  0
LINE
  8
DEFAULT_1
 62
2
  6
CENTER
 10
275.5855534461
 20
116.934441167
 11
272.3356534461
 21
116.934441167
  0
LINE
  8
0
 62
2
  6
CONTINUOUS
 10
271.3855534461
 20
116.934441167
 11
269.2855534461
 21
116.934441167
  0
LINE
  8
DEFAULT_1
 62
2
  6
CENTER
 10
265.0855534461
 20
116.934441167
 11
268.3354534461
 21
116.934441167
  0
LINE
  8
0
 62
7
  6
CONTINUOUS
 10
250.3355534461
 20
138.0305182015
 11
250.3355534461
 21
133.8671384301
  0
LINE
  8
0
 62
7
  6
CONTINUOUS
 10
270.3355534461
 20
128.850441167
 11
278.4199053072
 21
128.850441167
  0
LINE
  8
0
 62
7
  6
CONTINUOUS
 10
264.3355534461
 20
133.003112953
 11
255.0285770622
 21
133.003112953
  0
LINE
  8
0
 62
7
  6
CONTINUOUS
 10
251.3181010397
 20
132.8672907349
 11
263.9425344087
 21
132.6469304308
  0
LINE
  8
0
 62
7
  6
CONTINUOUS
 10
264.3355534461
 20
116.584441167
 11
264.3355534461
 21
142.684441167
  0
POLYLINE
  8
0
 62
7
  6
CONTINUOUS
 66
1
 70
0
  0
VERTEX
  8
0
 62
7
  6
CONTINUOUS
 10
264.7542519374
 20
144.6845213471
  0
VERTEX
  8
0
 62
7
  6
CONTINUOUS
 10
264.6348813829
 20
144.3571690293
  0
VERTEX
  8
0
 62
7
  6
CONTINUOUS
 10
264.5266360794
 20
143.990727771
  0
VERTEX
  8
0
 62
7
  6
CONTINUOUS
 10
264.4421540447
 20
143.6168079609
  0
VERTEX
  8
0
 62
7
  6
CONTINUOUS
 10
264.4326830658
 20
143.5571016373
  0
SEQEND
  0
POLYLINE
  8
0
 62
7
  6
CONTINUOUS
 66
1
 70
0
  0
VERTEX
  8
0
 62
7
  6
CONTINUOUS
 10
264.3355534461
 20
141.2099110979
  0
VERTEX
  8
0
 62
7
  6
CONTINUOUS
 10
264.2887038388
 20
141.1662508028
  0
VERTEX
  8
0
 62
7
  6
CONTINUOUS
 10
264.2352087115
 20
141.1274044916
  0
VERTEX
  8
0
 62
7
  6
CONTINUOUS
 10
264.1786339651
 20
141.0966644096
  0
VERTEX
  8
0
 62
7
  6
CONTINUOUS
 10
264.1202366524
 20
141.0744998831
  0
VERTEX
  8
0
 62
7
  6
CONTINUOUS
 10
264.0614127356
 20
141.0609702829
  0
SEQEND
  0
LINE
  8
AXES
 62
7
  6
CONTINUOUS
 10
268.2355534461
 20
116.934441167
 11
268.2355534461
 21
124.984441167
  0
LINE
  8
0
 62
7
  6
CONTINUOUS
 10
251.1789388224
 20
139.0181779909
 11
264.0614127356
 21
141.0609702829
  0
LINE
  8
0
 62
7
  6
CONTINUOUS
 10
255.0285770641
 20
139.4232714795
 11
264.3355534461
 21
139.4232714795
  0
LINE
  8
AXES
 62
2
  6
CENTER
 10
275.5855534461
 20
142.334441167
 11
274.4355534461
 21
142.334441167
  0
LINE
  8
AXES
 62
2
  6
CONTINUOUS
 10
271.3855534461
 20
142.334441167
 11
269.2855534461
 21
142.334441167
  0
LINE
  8
AXES
 62
2
  6
CENTER
 10
265.0855534461
 20
142.334441167
 11
266.2355534461
 21
142.334441167
  0
LINE
  8
AXES
 62
2
  6
CENTER
 10
270.3355534461
 20
147.584441167
 11
270.3355534461
 21
146.434441167
  0
LINE
  8
AXES
 62
2
  6
CONTINUOUS
 10
270.3355534461
 20
143.384441167
 11
270.3355534461
 21
141.284441167
  0
LINE
  8
DEFAULT_1
 62
2
  6
CENTER
 10
270.3355534461
 20
122.184441167
 11
270.3355534461
 21
118.934541167
  0
LINE
  8
0
 62
2
  6
CONTINUOUS
 10
270.3355534461
 20
117.984441167
 11
270.3355534461
 21
115.884441167
  0
LINE
  8
DEFAULT_1
 62
2
  6
CENTER
 10
270.3355534461
 20
111.684441167
 11
270.3355534461
 21
114.934341167
  0
LINE
  8
AXES
 62
2
  6
CENTER
 10
270.3355534461
 20
137.084441167
 11
270.3355534461
 21
138.234441167
  0
LINE
  8
AXES
 62
7
  6
CONTINUOUS
 10
272.4355534461
 20
116.934441167
 11
272.4355534461
 21
124.984441167
  0
POLYLINE
  8
0
 62
7
  6
CONTINUOUS
 66
1
 70
0
  0
VERTEX
  8
0
 62
7
  6
CONTINUOUS
 10
268.4556041176
 20
147.128940508
  0
VERTEX
  8
0
 62
7
  6
CONTINUOUS
 10
268.2190566287
 20
147.123233957
  0
VERTEX
  8
0
 62
7
  6
CONTINUOUS
 10
267.8915146116
 20
147.0956816263
  0
VERTEX
  8
0
 62
7
  6
CONTINUOUS
 10
267.5825493648
 20
147.0473274953
  0
VERTEX
  8
0
 62
7
  6
CONTINUOUS
 10
267.2915408805
 20
146.9801672665
  0
VERTEX
  8
0
 62
7
  6
CONTINUOUS
 10
267.0170913592
 20
146.8956877296
  0
VERTEX
  8
0
 62
7
  6
CONTINUOUS
 10
266.7578829495
 20
146.7949446908
  0
VERTEX
  8
0
 62
7
  6
CONTINUOUS
 10
266.513476231
 20
146.6789912695
  0
VERTEX
  8
0
 62
7
  6
CONTINUOUS
 10
266.2842260174
 20
146.5491988959
  0
VERTEX
  8
0
 62
7
  6
CONTINUOUS
 10
266.0704754637
 20
146.407085514
  0
VERTEX
  8
0
 62
7
  6
CONTINUOUS
 10
265.8724904823
 20
146.2543199176
  0
VERTEX
  8
0
 62
7
  6
CONTINUOUS
 10
265.6903780629
 20
146.0926771946
  0
VERTEX
  8
0
 62
7
  6
CONTINUOUS
 10
265.5241000124
 20
145.9240420635
  0
VERTEX
  8
0
 62
7
  6
CONTINUOUS
 10
265.3733738586
 20
145.7502819706
  0
VERTEX
  8
0
 62
7
  6
CONTINUOUS
 10
265.2373355756
 20
145.5726909459
  0
VERTEX
  8
0
 62
7
  6
CONTINUOUS
 10
265.1149886328
 20
145.3922724258
  0
VERTEX
  8
0
 62
7
  6
CONTINUOUS
 10
265.0053577173
 20
145.2098804505
  0
VERTEX
  8
0
 62
7
  6
CONTINUOUS
 10
264.9074940926
 20
145.0262220081
  0
VERTEX
  8
0
 62
7
  6
CONTINUOUS
 10
264.8204711804
 20
144.8418267161
  0
VERTEX
  8
0
 62
7
  6
CONTINUOUS
 10
264.7542521349
 20
144.6845212683
  0
SEQEND
  0
LINE
  8
0
 62
7
  6
CONTINUOUS
 10
272.3355534461
 20
146.684441167
 11
268.3355534461
 21
146.684441167
  0
LINE
  8
0
 62
7
  6
CONTINUOUS
 10
268.4544542118
 20
147.1289395029
 11
272.2964292923
 21
147.1289395252
  0
POLYLINE
  8
0
 62
7
  6
CONTINUOUS
 66
1
 70
0
  0
VERTEX
  8
0
 62
7
  6
CONTINUOUS
 10
275.8492666317
 20
144.6896962681
  0
VERTEX
  8
0
 62
7
  6
CONTINUOUS
 10
275.7728240428
 20
144.854942286
  0
VERTEX
  8
0
 62
7
  6
CONTINUOUS
 10
275.6739342789
 20
145.0493295535
  0
VERTEX
  8
0
 62
7
  6
CONTINUOUS
 10
275.5645690807
 20
145.2428594229
  0
VERTEX
  8
0
 62
7
  6
CONTINUOUS
 10
275.4438406803
 20
145.4346424487
  0
VERTEX
  8
0
 62
7
  6
CONTINUOUS
 10
275.3108761754
 20
145.6236371489
  0
VERTEX
  8
0
 62
7
  6
CONTINUOUS
 10
275.1648007798
 20
145.80869323
  0
VERTEX
  8
0
 62
7
  6
CONTINUOUS
 10
275.0047473325
 20
145.9885393781
  0
VERTEX
  8
0
 62
7
  6
CONTINUOUS
 10
274.8298829232
 20
146.1617619654
  0
VERTEX
  8
0
 62
7
  6
CONTINUOUS
 10
274.6394204554
 20
146.3268097034
  0
VERTEX
  8
0
 62
7
  6
CONTINUOUS
 10
274.4326804499
 20
146.4819630626
  0
VERTEX
  8
0
 62
7
  6
CONTINUOUS
 10
274.2094599914
 20
146.6251545688
  0
VERTEX
  8
0
 62
7
  6
CONTINUOUS
 10
273.9698037374
 20
146.7542926613
  0
VERTEX
  8
0
 62
7
  6
CONTINUOUS
 10
273.7138467442
 20
146.8673891935
  0
VERTEX
  8
0
 62
7
  6
CONTINUOUS
 10
273.4416159611
 20
146.9626033757
  0
VERTEX
  8
0
 62
7
  6
CONTINUOUS
 10
273.1529271155
 20
147.0381634472
  0
VERTEX
  8
0
 62
7
  6
CONTINUOUS
 10
272.8476190898
 20
147.0922006097
  0
VERTEX
  8
0
 62
7
  6
CONTINUOUS
 10
272.5265738836
 20
147.1226617766
  0
VERTEX
  8
0
 62
7
  6
CONTINUOUS
 10
272.2956726392
 20
147.1289400109
  0
SEQEND
  0
POLYLINE
  8
0
 62
7
  6
CONTINUOUS
 66
1
 70
0
  0
VERTEX
  8
0
 62
7
  6
CONTINUOUS
 10
276.0069611207
 20
144.2970739176
  0
VERTEX
  8
0
 62
7
  6
CONTINUOUS
 10
275.9618700944
 20
144.4177791644
  0
VERTEX
  8
0
 62
7
  6
CONTINUOUS
 10
275.9015063858
 20
144.5681942977
  0
VERTEX
  8
0
 62
7
  6
CONTINUOUS
 10
275.8492668811
 20
144.6896963787
  0
SEQEND
  0
LINE
  8
0
 62
7
  6
CONTINUOUS
 10
276.007233131
 20
144.2963210725
 11
276.00696111
 21
144.2970738426
  0
LINE
  8
0
 62
7
  6
CONTINUOUS
 10
277.6454443042
 20
138.5406790093
 11
277.6442826616
 21
138.5461841086
  0
LINE
  8
0
 62
7
  6
CONTINUOUS
 10
277.9764426919
 20
136.7941503923
 11
277.9758497513
 21
136.7976734886
  0
LINE
  8
0
 62
7
  6
CONTINUOUS
 10
278.1926488714
 20
135.3628562639
 11
278.1923715615
 21
135.3649262654
  0
ARC
  8
0
 62
7
  6
CONTINUOUS
 10
104.8505222804
 20
224.7764818118
 40
0.75
 50
180.0
 51
270.0
  0
ARC
  8
0
 62
7
  6
CONTINUOUS
 10
109.3505222804
 20
224.7764818118
 40
0.75
 50
270.0
 51
360.0
  0
ARC
  8
0
 62
7
  6
CONTINUOUS
 10
117.9465366435
 20
224.7764818118
 40
0.75
 50
180.0
 51
270.0
  0
ARC
  8
0
 62
7
  6
CONTINUOUS
 10
122.4465079172
 20
224.7764818118
 40
0.75
 50
270.0
 51
360.0
  0
ARC
  8
0
 62
7
  6
CONTINUOUS
 10
131.7005366435
 20
224.7764818118
 40
0.75
 50
180.0
 51
270.0
  0
ARC
  8
0
 62
7
  6
CONTINUOUS
 10
136.2005079172
 20
224.7764818118
 40
0.75
 50
270.0
 51
360.0
  0
ARC
  8
0
 62
7
  6
CONTINUOUS
 10
98.5005222804
 20
224.7764818118
 40
0.75
 50
180.0010899163
 51
269.9991057712
  0
ARC
  8
0
 62
7
  6
CONTINUOUS
 10
111.3545222804
 20
224.1764818118
 40
0.15
 50
258.75
 51
268.4770244418
  0
ARC
  8
0
 62
7
  6
CONTINUOUS
 10
102.8465222804
 20
224.1764818118
 40
0.15
 50
271.522975558
 51
281.2499999879
  0
ARC
  8
0
 62
7
  6
CONTINUOUS
 10
98.6545222804
 20
224.1764818118
 40
0.15
 50
180.0
 51
270.0
  0
ARC
  8
0
 62
7
  6
CONTINUOUS
 10
171.0151101466
 20
212.0264818118
 40
2.0
 50
269.9971858617
 51
356.5
  0
ARC
  8
0
 62
7
  6
CONTINUOUS
 10
162.2965224927
 20
211.0264818118
 40
1.0
 50
180.0
 51
269.9999878379
  0
ARC
  8
0
 62
7
  6
CONTINUOUS
 10
168.7465228338
 20
215.2786317835
 40
0.2999999929
 50
270.0
 51
360.0
  0
ARC
  8
0
 62
7
  6
CONTINUOUS
 10
161.8255366435
 20
224.7764818118
 40
0.75
 50
180.0
 51
270.0
  0
ARC
  8
0
 62
7
  6
CONTINUOUS
 10
166.3255079172
 20
224.7764818118
 40
0.75
 50
270.0
 51
360.0
  0
ARC
  8
0
 62
7
  6
CONTINUOUS
 10
174.1290809876
 20
223.6264818118
 40
0.3999999332
 50
89.99994246
 51
176.4999964873
  0
ARC
  8
0
 62
7
  6
CONTINUOUS
 10
152.6005222804
 20
224.1764818118
 40
0.15
 50
270.0
 51
360.0
  0
ARC
  8
0
 62
7
  6
CONTINUOUS
 10
144.3005222804
 20
224.1764818118
 40
0.15
 50
180.0
 51
270.0
  0
ARC
  8
0
 62
7
  6
CONTINUOUS
 10
174.3005222804
 20
224.1764818118
 40
0.15
 50
270.0
 51
360.0
  0
ARC
  8
0
 62
7
  6
CONTINUOUS
 10
107.1005222804
 20
116.584441167
 40
4.0
 50
224.4153085972
 51
315.5846914028
  0
ARC
  8
0
 62
7
  6
CONTINUOUS
 10
104.6005224827
 20
114.1349511327
 40
0.5000000085
 50
179.9999665939
 51
224.4152685099
  0
ARC
  8
0
 62
7
  6
CONTINUOUS
 10
109.6005222804
 20
114.1349514242
 40
0.5
 50
315.5846914028
 51
360.0
  0
ARC
  8
AXES
 62
7
  6
CONTINUOUS
 10
109.8505222804
 20
120.6537762218
 40
0.5
 50
189.9390834346
 51
194.2
  0
ARC
  8
AXES
 62
7
  6
CONTINUOUS
 10
109.8505222804
 20
120.6537762218
 40
0.5
 50
185.048130284
 51
189.1496625574
  0
ARC
  8
AXES
 62
7
  6
CONTINUOUS
 10
109.8505222804
 20
120.6537762218
 40
0.5
 50
180.0
 51
184.2617680015
  0
ARC
  8
0
 62
7
  6
CONTINUOUS
 10
109.8505222804
 20
120.6537762218
 40
0.5
 50
180.0000879381
 51
194.1999523252
  0
ARC
  8
AXES
 62
7
  6
CONTINUOUS
 10
104.3505222804
 20
120.6537762218
 40
0.5
 50
345.8
 51
350.0603159783
  0
ARC
  8
AXES
 62
7
  6
CONTINUOUS
 10
104.3505222804
 20
120.6537762218
 40
0.5
 50
350.8517291977
 51
354.9513625882
  0
ARC
  8
AXES
 62
7
  6
CONTINUOUS
 10
104.3505222804
 20
120.6537762218
 40
0.5
 50
355.7373127473
 51
360.0
  0
ARC
  8
0
 62
7
  6
CONTINUOUS
 10
104.3505222804
 20
120.6537762218
 40
0.5
 50
345.8000232447
 51
0.0000037398
  0
ARC
  8
0
 62
7
  6
CONTINUOUS
 10
109.9505222804
 20
117.608843301
 40
0.15
 50
0.0
 51
14.2
  0
ARC
  8
AXES
 62
7
  6
CONTINUOUS
 10
109.9505222804
 20
117.608843301
 40
0.15
 50
0.0
 51
14.2
  0
ARC
  8
0
 62
7
  6
CONTINUOUS
 10
104.2505222804
 20
117.608843301
 40
0.15
 50
165.8
 51
180.0
  0
ARC
  8
AXES
 62
7
  6
CONTINUOUS
 10
104.2505222804
 20
117.608843301
 40
0.15
 50
165.8
 51
180.0
  0
ARC
  8
0
 62
7
  6
CONTINUOUS
 10
119.6965222804
 20
117.124441167
 40
4.54
 50
240.3272196412
 51
270.0
  0
ARC
  8
0
 62
7
  6
CONTINUOUS
 10
120.6965222804
 20
117.124441167
 40
4.54
 50
270.0
 51
299.6727803588
  0
ARC
  8
0
 62
7
  6
CONTINUOUS
 10
117.6965363688
 20
113.6142194306
 40
0.5000000044
 50
180.0000132834
 51
240.3272535677
  0
ARC
  8
0
 62
7
  6
CONTINUOUS
 10
122.6965079172
 20
113.6142193147
 40
0.5
 50
299.6727803588
 51
360.0
  0
ARC
  8
AXES
 62
7
  6
CONTINUOUS
 10
117.4465222804
 20
120.6537194592
 40
0.5
 50
355.7360267072
 51
360.0
  0
ARC
  8
AXES
 62
7
  6
CONTINUOUS
 10
117.4465222804
 20
120.6537194592
 40
0.5
 50
350.850990899
 51
354.9518891788
  0
ARC
  8
AXES
 62
7
  6
CONTINUOUS
 10
117.4465222804
 20
120.6537194592
 40
0.5
 50
345.8
 51
350.0605334323
  0
ARC
  8
0
 62
7
  6
CONTINUOUS
 10
117.4465222804
 20
120.6537194592
 40
0.5
 50
345.8000904452
 51
359.9999565166
  0
ARC
  8
AXES
 62
7
  6
CONTINUOUS
 10
122.9465222804
 20
120.6537194592
 40
0.5
 50
189.9390834438
 51
194.2
  0
ARC
  8
AXES
 62
7
  6
CONTINUOUS
 10
122.9465222804
 20
120.6537194592
 40
0.5
 50
185.0481302597
 51
189.1496625329
  0
ARC
  8
AXES
 62
7
  6
CONTINUOUS
 10
122.9465222804
 20
120.6537194592
 40
0.5
 50
180.0
 51
184.2617680114
  0
ARC
  8
0
 62
7
  6
CONTINUOUS
 10
122.9465222804
 20
120.6537194592
 40
0.5
 50
180.000087938
 51
194.1999523251
  0
ARC
  8
0
 62
7
  6
CONTINUOUS
 10
117.3465367139
 20
117.6088435789
 40
0.15
 50
165.8001095305
 51
180.0001061659
  0
ARC
  8
AXES
 62
7
  6
CONTINUOUS
 10
117.3465366435
 20
117.608843301
 40
0.15
 50
165.8
 51
180.0
  0
ARC
  8
0
 62
7
  6
CONTINUOUS
 10
123.0465079172
 20
117.608843301
 40
0.15
 50
0.0
 51
14.2
  0
ARC
  8
AXES
 62
7
  6
CONTINUOUS
 10
123.0465079172
 20
117.608843301
 40
0.15
 50
0.0
 51
14.2
  0
ARC
  8
0
 62
7
  6
CONTINUOUS
 10
125.1465222804
 20
126.484441167
 40
2.7
 50
89.9996390188
 51
180.0003641097
  0
ARC
  8
0
 62
7
  6
CONTINUOUS
 10
111.3505222804
 20
126.850441167
 40
2.0
 50
89.9995342879
 51
180.0004622983
  0
ARC
  8
0
 62
7
  6
CONTINUOUS
 10
115.9465222804
 20
126.850441167
 40
2.0
 50
359.9995443416
 51
90.0004725774
  0
ARC
  8
0
 62
7
  6
CONTINUOUS
 10
102.8505222804
 20
126.850441167
 40
2.0
 50
359.9995358628
 51
90.000476611
  0
ARC
  8
0
 62
7
  6
CONTINUOUS
 10
99.5045222804
 20
129.850441167
 40
1.0
 50
180.0
 51
270.0
  0
ARC
  8
0
 62
7
  6
CONTINUOUS
 10
133.4505222804
 20
117.084441167
 40
4.5
 50
240.0002375645
 51
270.0
  0
ARC
  8
0
 62
7
  6
CONTINUOUS
 10
134.4505222804
 20
117.084441167
 40
4.5
 50
270.0
 51
299.9997624355
  0
ARC
  8
0
 62
7
  6
CONTINUOUS
 10
131.4505363769
 20
113.620331372
 40
0.5000000045
 50
180.0000129172
 51
240.0002704858
  0
ARC
  8
0
 62
7
  6
CONTINUOUS
 10
136.4505079172
 20
113.6203312593
 40
0.5
 50
299.9997624355
 51
360.0
  0
ARC
  8
AXES
 62
7
  6
CONTINUOUS
 10
131.2005222804
 20
120.6537194592
 40
0.5
 50
355.7360267073
 51
360.0
  0
ARC
  8
AXES
 62
7
  6
CONTINUOUS
 10
131.2005222804
 20
120.6537194592
 40
0.5
 50
350.850990899
 51
354.9518891788
  0
ARC
  8
AXES
 62
7
  6
CONTINUOUS
 10
131.2005222804
 20
120.6537194592
 40
0.5
 50
345.8
 51
350.0605334322
  0
ARC
  8
0
 62
7
  6
CONTINUOUS
 10
131.2005222804
 20
120.6537194592
 40
0.5
 50
345.8000904452
 51
359.9999565165
  0
ARC
  8
AXES
 62
7
  6
CONTINUOUS
 10
136.7005222804
 20
120.6537194592
 40
0.5
 50
189.9396841642
 51
194.2
  0
ARC
  8
AXES
 62
7
  6
CONTINUOUS
 10
136.7005222804
 20
120.6537194592
 40
0.5
 50
185.0486370375
 51
189.1482704277
  0
ARC
  8
AXES
 62
7
  6
CONTINUOUS
 10
136.7005222804
 20
120.6537194592
 40
0.5
 50
180.0
 51
184.2626873985
  0
ARC
  8
0
 62
7
  6
CONTINUOUS
 10
136.7005222804
 20
120.6537194592
 40
0.5
 50
179.999996257
 51
194.199976786
  0
ARC
  8
AXES
 62
7
  6
CONTINUOUS
 10
136.8005079172
 20
117.608843301
 40
0.15
 50
0.0
 51
14.2
  0
ARC
  8
0
 62
7
  6
CONTINUOUS
 10
136.8005076099
 20
117.6088445156
 40
0.15
 50
359.9995360327
 51
14.1995214072
  0
ARC
  8
0
 62
7
  6
CONTINUOUS
 10
131.1005367139
 20
117.6088435789
 40
0.15
 50
165.8001095305
 51
180.0001061659
  0
ARC
  8
AXES
 62
7
  6
CONTINUOUS
 10
131.1005366435
 20
117.608843301
 40
0.15
 50
165.8
 51
180.0
  0
ARC
  8
0
 62
7
  6
CONTINUOUS
 10
147.9505222804
 20
117.084441167
 40
4.5
 50
240.0002375645
 51
270.0
  0
ARC
  8
0
 62
7
  6
CONTINUOUS
 10
148.9505222804
 20
117.084441167
 40
4.5
 50
270.0
 51
299.9997624355
  0
ARC
  8
AXES
 62
7
  6
CONTINUOUS
 10
145.6505222804
 20
116.914441167
 40
1.5
 50
94.1260708806
 51
257.7538206432
  0
ARC
  8
AXES
 62
7
  6
CONTINUOUS
 10
151.2505222804
 20
116.914441167
 40
1.5
 50
282.2461793568
 51
85.8739291194
  0
ARC
  8
0
 62
7
  6
CONTINUOUS
 10
145.9505363769
 20
113.620331372
 40
0.5000000045
 50
180.0000129172
 51
240.0002704858
  0
ARC
  8
0
 62
7
  6
CONTINUOUS
 10
150.9505079172
 20
113.6203312593
 40
0.5
 50
299.9997624355
 51
360.0
  0
ARC
  8
AXES
 62
7
  6
CONTINUOUS
 10
151.6005079172
 20
115.3019864997
 40
0.15
 50
102.2461793568
 51
180.0
  0
ARC
  8
AXES
 62
7
  6
CONTINUOUS
 10
145.3005366435
 20
115.3019864997
 40
0.15
 50
0.0
 51
77.7538206432
  0
ARC
  8
AXES
 62
7
  6
CONTINUOUS
 10
145.7005222804
 20
120.6537194592
 40
0.5
 50
355.7351544564
 51
360.0
  0
ARC
  8
AXES
 62
7
  6
CONTINUOUS
 10
145.7005222804
 20
120.6537194592
 40
0.5
 50
350.8496588582
 51
354.9516469415
  0
ARC
  8
AXES
 62
7
  6
CONTINUOUS
 10
145.7005222804
 20
120.6537194592
 40
0.5
 50
345.8
 51
350.0611589844
  0
ARC
  8
0
 62
7
  6
CONTINUOUS
 10
145.7005222804
 20
120.6537194592
 40
0.5
 50
345.7999953774
 51
359.9999803365
  0
ARC
  8
AXES
 62
7
  6
CONTINUOUS
 10
151.2005222804
 20
120.6537194592
 40
0.5
 50
189.9390834437
 51
194.2
  0
ARC
  8
AXES
 62
7
  6
CONTINUOUS
 10
151.2005222804
 20
120.6537194592
 40
0.5
 50
185.0481302597
 51
189.1496625329
  0
ARC
  8
AXES
 62
7
  6
CONTINUOUS
 10
151.2005222804
 20
120.6537194592
 40
0.5
 50
180.0
 51
184.2617680115
  0
ARC
  8
0
 62
7
  6
CONTINUOUS
 10
151.2005222804
 20
120.6537194592
 40
0.5
 50
180.000087938
 51
194.1999523251
  0
ARC
  8
0
 62
7
  6
CONTINUOUS
 10
151.3005079172
 20
117.608843301
 40
0.15
 50
0.0
 51
14.2
  0
ARC
  8
AXES
 62
7
  6
CONTINUOUS
 10
151.3692419173
 20
118.5601646091
 40
0.15
 50
194.2
 51
265.8739291194
  0
ARC
  8
AXES
 62
7
  6
CONTINUOUS
 10
145.5318026434
 20
118.5601646091
 40
0.15
 50
274.1260708806
 51
345.8
  0
ARC
  8
0
 62
7
  6
CONTINUOUS
 10
145.6005366435
 20
117.608843301
 40
0.15
 50
165.8
 51
180.0
  0
ARC
  8
0
 62
7
  6
CONTINUOUS
 10
153.7005222804
 20
126.334441167
 40
3.0
 50
89.999699772
 51
180.0003067688
  0
ARC
  8
0
 62
7
  6
CONTINUOUS
 10
138.9005222804
 20
126.484441167
 40
2.7
 50
89.9996032443
 51
180.0003674198
  0
ARC
  8
0
 62
7
  6
CONTINUOUS
 10
129.0005222804
 20
126.484441167
 40
2.7
 50
359.9996449448
 51
90.0003701983
  0
ARC
  8
0
 62
7
  6
CONTINUOUS
 10
143.5005222804
 20
126.484441167
 40
2.7
 50
359.9996063837
 51
90.0003700843
  0
ARC
  8
0
 62
7
  6
CONTINUOUS
 10
149.2005222804
 20
134.484441167
 40
4.5
 50
269.9997425141
 51
0.0002294049
  0
ARC
  8
0
 62
7
  6
CONTINUOUS
 10
147.7005222804
 20
134.484441167
 40
4.5
 50
179.9997419725
 51
270.0002283809
  0
ARC
  8
0
 62
7
  6
CONTINUOUS
 10
107.1005222804
 20
134.438441167
 40
4.104
 50
179.999750344
 51
0.0002787581
  0
ARC
  8
0
 62
7
  6
CONTINUOUS
 10
120.8465222804
 20
133.984441167
 40
3.85
 50
269.9997306261
 51
0.0002434208
  0
ARC
  8
0
 62
7
  6
CONTINUOUS
 10
119.5465222804
 20
133.984441167
 40
3.85
 50
179.9997298041
 51
270.000242252
  0
ARC
  8
0
 62
7
  6
CONTINUOUS
 10
134.8505222804
 20
133.984441167
 40
3.85
 50
269.9997306261
 51
0.0002434208
  0
ARC
  8
0
 62
7
  6
CONTINUOUS
 10
133.0505222804
 20
133.984441167
 40
3.85
 50
179.9997298041
 51
270.000242252
  0
ARC
  8
0
 62
7
  6
CONTINUOUS
 10
124.6925222804
 20
145.934441167
 40
0.75
 50
90.0
 51
180.0
  0
ARC
  8
0
 62
7
  6
CONTINUOUS
 10
129.2045222804
 20
145.934441167
 40
0.75
 50
0.0
 51
90.0
  0
ARC
  8
0
 62
7
  6
CONTINUOUS
 10
138.6965222804
 20
145.934441167
 40
0.75
 50
90.0
 51
180.0
  0
ARC
  8
0
 62
7
  6
CONTINUOUS
 10
143.2045222804
 20
145.934441167
 40
0.75
 50
0.0
 51
90.0
  0
ARC
  8
0
 62
7
  6
CONTINUOUS
 10
98.5005222804
 20
145.934441167
 40
0.75
 50
90.0
 51
180.0
  0
ARC
  8
0
 62
7
  6
CONTINUOUS
 10
103.0005222804
 20
145.934441167
 40
0.75
 50
0.0
 51
90.0
  0
ARC
  8
0
 62
7
  6
CONTINUOUS
 10
111.2005222804
 20
145.934441167
 40
0.75
 50
90.0
 51
180.0
  0
ARC
  8
0
 62
7
  6
CONTINUOUS
 10
115.7005222804
 20
145.934441167
 40
0.75
 50
0.0
 51
90.0
  0
ARC
  8
0
 62
7
  6
CONTINUOUS
 10
153.6965222804
 20
145.934441167
 40
0.75
 50
90.0
 51
180.0
  0
ARC
  8
0
 62
7
  6
CONTINUOUS
 10
110.7045222804
 20
138.6221628748
 40
0.5
 50
359.9999962555
 51
14.1999767791
  0
ARC
  8
0
 62
7
  6
CONTINUOUS
 10
124.1965222804
 20
138.6221628748
 40
0.5
 50
359.9999962556
 51
14.1999767791
  0
ARC
  8
0
 62
7
  6
CONTINUOUS
 10
116.1965222804
 20
138.6221628748
 40
0.5
 50
165.7999953749
 51
179.9999803326
  0
ARC
  8
0
 62
7
  6
CONTINUOUS
 10
138.2005222804
 20
138.6221628748
 40
0.5
 50
359.9999962556
 51
14.1999767791
  0
ARC
  8
0
 62
7
  6
CONTINUOUS
 10
129.7005222804
 20
138.6221628748
 40
0.5
 50
165.7999953749
 51
179.9999803326
  0
ARC
  8
0
 62
7
  6
CONTINUOUS
 10
153.2005222804
 20
138.6221628748
 40
0.5
 50
359.9999962556
 51
14.1999767792
  0
ARC
  8
0
 62
7
  6
CONTINUOUS
 10
143.7005222804
 20
138.6221628748
 40
0.5
 50
165.7999953749
 51
179.9999803326
  0
ARC
  8
0
 62
7
  6
CONTINUOUS
 10
98.0045222804
 20
138.6221628748
 40
0.5
 50
359.9999962556
 51
14.1999767792
  0
ARC
  8
0
 62
7
  6
CONTINUOUS
 10
103.4965222804
 20
138.6221628748
 40
0.5
 50
165.8000232515
 51
180.0000037413
  0
ARC
  8
0
 62
7
  6
CONTINUOUS
 10
103.6005222804
 20
141.6829036417
 40
0.15
 50
345.8
 51
360.0
  0
ARC
  8
0
 62
7
  6
CONTINUOUS
 10
110.6005225277
 20
141.6829026643
 40
0.15
 50
179.9996266605
 51
194.1996148925
  0
ARC
  8
0
 62
7
  6
CONTINUOUS
 10
116.3005222804
 20
141.6829036417
 40
0.15
 50
345.8
 51
360.0
  0
ARC
  8
0
 62
7
  6
CONTINUOUS
 10
124.0925225277
 20
141.6829026643
 40
0.15
 50
179.9996266605
 51
194.1996148925
  0
ARC
  8
0
 62
7
  6
CONTINUOUS
 10
129.8045222804
 20
141.6829036417
 40
0.15
 50
345.8
 51
360.0
  0
ARC
  8
0
 62
7
  6
CONTINUOUS
 10
138.0965225277
 20
141.6829026643
 40
0.15
 50
179.9996266605
 51
194.1996148925
  0
ARC
  8
0
 62
7
  6
CONTINUOUS
 10
143.8045222804
 20
141.6829036417
 40
0.15
 50
345.8
 51
360.0
  0
ARC
  8
0
 62
7
  6
CONTINUOUS
 10
153.0965225277
 20
141.6829026643
 40
0.15
 50
179.9996266605
 51
194.1996148925
  0
ARC
  8
0
 62
7
  6
CONTINUOUS
 10
97.9005225277
 20
141.6829026643
 40
0.15
 50
179.9996266605
 51
194.1996148925
  0
ARC
  8
AXES
 62
7
  6
CONTINUOUS
 10
172.3255222804
 20
123.933079322
 40
6.0
 50
174.8452426403
 51
176.0406804051
  0
ARC
  8
AXES
 62
7
  6
CONTINUOUS
 10
172.3255222804
 20
123.933079322
 40
6.0
 50
169.9081331317
 51
171.9672755463
  0
ARC
  8
0
 62
7
  6
CONTINUOUS
 10
172.3255222804
 20
123.933079322
 40
6.0
 50
109.6690910198
 51
180.0001709168
  0
ARC
  8
0
 62
7
  6
CONTINUOUS
 10
163.5755222804
 20
117.084441167
 40
4.5
 50
240.0002375645
 51
270.0
  0
ARC
  8
0
 62
7
  6
CONTINUOUS
 10
164.5755222804
 20
117.084441167
 40
4.5
 50
270.0
 51
299.9997624355
  0
ARC
  8
0
 62
7
  6
CONTINUOUS
 10
157.8255222804
 20
125.334441167
 40
4.0
 50
359.9997649285
 51
90.0002418664
  0
ARC
  8
0
 62
7
  6
CONTINUOUS
 10
161.5755363769
 20
113.620331372
 40
0.5000000045
 50
180.0000129172
 51
240.0002704858
  0
ARC
  8
0
 62
7
  6
CONTINUOUS
 10
166.5755079172
 20
113.6203312593
 40
0.5
 50
299.9997624355
 51
360.0
  0
ARC
  8
AXES
 62
7
  6
CONTINUOUS
 10
161.3255222804
 20
120.6537194592
 40
0.5
 50
355.7360267073
 51
360.0
  0
ARC
  8
AXES
 62
7
  6
CONTINUOUS
 10
161.3255222804
 20
120.6537194592
 40
0.5
 50
350.850990899
 51
354.9518891787
  0
ARC
  8
AXES
 62
7
  6
CONTINUOUS
 10
161.3255222804
 20
120.6537194592
 40
0.5
 50
345.8
 51
350.0605334322
  0
ARC
  8
0
 62
7
  6
CONTINUOUS
 10
161.3255222804
 20
120.6537194592
 40
0.5
 50
345.8000904452
 51
359.9999565165
  0
ARC
  8
AXES
 62
7
  6
CONTINUOUS
 10
166.8255222804
 20
120.6537194592
 40
0.5
 50
189.9396841641
 51
194.2
  0
ARC
  8
AXES
 62
7
  6
CONTINUOUS
 10
166.8255222804
 20
120.6537194592
 40
0.5
 50
185.0486370375
 51
189.1482704278
  0
ARC
  8
AXES
 62
7
  6
CONTINUOUS
 10
166.8255222804
 20
120.6537194592
 40
0.5
 50
180.0
 51
184.2626873985
  0
ARC
  8
0
 62
7
  6
CONTINUOUS
 10
166.8255222804
 20
120.6537194592
 40
0.5
 50
179.999996257
 51
194.199976786
  0
ARC
  8
AXES
 62
7
  6
CONTINUOUS
 10
161.2255366435
 20
117.608843301
 40
0.15
 50
165.8
 51
180.0
  0
ARC
  8
0
 62
7
  6
CONTINUOUS
 10
161.2255367139
 20
117.6088435789
 40
0.15
 50
165.8001095305
 51
180.0001061659
  0
ARC
  8
AXES
 62
7
  6
CONTINUOUS
 10
166.9255079172
 20
117.608843301
 40
0.15
 50
0.0
 51
14.2
  0
ARC
  8
0
 62
7
  6
CONTINUOUS
 10
166.9255076099
 20
117.6088445156
 40
0.15
 50
359.9995360327
 51
14.1995214071
  0
ARC
  8
0
 62
7
  6
CONTINUOUS
 10
214.0465222804
 20
136.2131922163
 40
45.0
 50
175.9093257589
 51
184.0906742411
  0
ARC
  8
0
 62
7
  6
CONTINUOUS
 10
164.4505222804
 20
135.384441167
 40
5.5
 50
269.9997742646
 51
329.2118097615
  0
ARC
  8
0
 62
7
  6
CONTINUOUS
 10
162.7005222804
 20
134.384441167
 40
4.5
 50
179.9997414976
 51
270.0002283413
  0
ARC
  8
0
 62
7
  6
CONTINUOUS
 10
171.4505222804
 20
133.1779930128
 40
3.0
 50
289.6692853863
 51
360.0
  0
ARC
  8
0
 62
7
  6
CONTINUOUS
 10
171.9505222804
 20
144.6289395401
 40
2.5
 50
359.9994727016
 51
109.6692853863
  0
ARC
  8
0
 62
7
  6
CONTINUOUS
 10
158.2045222804
 20
145.934441167
 40
0.75
 50
0.0
 51
90.0
  0
ARC
  8
0
 62
7
  6
CONTINUOUS
 10
158.7005222804
 20
138.6221673526
 40
0.5
 50
165.8010059352
 51
179.9999803496
  0
ARC
  8
0
 62
7
  6
CONTINUOUS
 10
169.0465222804
 20
132.6459591057
 40
0.15
 50
329.2109930998
 51
0.0009496843
  0
ARC
  8
0
 62
7
  6
CONTINUOUS
 10
158.8045222804
 20
141.6831233113
 40
0.15
 50
345.8010105549
 51
360.0
  0
ARC
  8
0
 62
7
  6
CONTINUOUS
 10
169.3465222804
 20
146.1937635747
 40
0.15
 50
109.6692853863
 51
180.0
  0
ARC
  8
0
 62
7
  6
CONTINUOUS
 10
235.4245794682
 20
129.634441167
 40
43.15
 50
340.5287793655
 51
19.8639975354
  0
ARC
  8
0
 62
7
  6
CONTINUOUS
 10
235.2877038974
 20
136.2131922163
 40
20.0
 50
350.1828781766
 51
9.8171218234
  0
ARC
  8
0
 62
7
  6
CONTINUOUS
 10
251.3355534461
 20
138.0305180054
 40
1.0
 50
99.0104493944
 51
179.9999887652
  0
ARC
  8
0
 62
7
  6
CONTINUOUS
 10
251.3355534461
 20
133.8671384377
 40
1.0
 50
180.0000004341
 51
269.0000000076
  0
ARC
  8
0
 62
7
  6
CONTINUOUS
 10
268.3355534461
 20
116.584441167
 40
4.0
 50
180.0
 51
270.0
  0
ARC
  8
AXES
 62
7
  6
CONTINUOUS
 10
270.3355534461
 20
116.934441167
 40
2.1
 50
180.0
 51
360.0
  0
ARC
  8
AXES
 62
7
  6
CONTINUOUS
 10
270.3355534461
 20
124.984441167
 40
2.1
 50
0.0
 51
180.0
  0
ARC
  8
0
 62
7
  6
CONTINUOUS
 10
263.9355534461
 20
132.2469913527
 40
0.4
 50
8.0895593807
 51
89.0
  0
ARC
  8
0
 62
7
  6
CONTINUOUS
 10
264.4855534461
 20
129.734441167
 40
0.15
 50
146.25
 51
180.0
  0
ARC
  8
0
 62
7
  6
CONTINUOUS
 10
264.4855534461
 20
129.8938241904
 40
0.1499999671
 50
179.9998090059
 51
252.634248814
  0
ARC
  8
0
 62
7
  6
CONTINUOUS
 10
272.3355534461
 20
116.584441167
 40
4.0
 50
270.0
 51
340.5287793655
  0
ARC
  8
0
 62
7
  6
CONTINUOUS
 10
278.4199053362
 20
129.0004405113
 40
0.1499999543
 50
269.9999889304
 51
359.1554400036
  0
ARC
  8
0
 62
7
  6
CONTINUOUS
 10
263.9355534461
 20
141.4460103532
 40
0.4
 50
285.1332004745
 51
360.0
  0
ARC
  8
0
 62
7
  6
CONTINUOUS
 10
268.3355534461
 20
142.684441167
 40
4.0
 50
90.0
 51
180.0
  0
CIRCLE
  8
AXES
 62
7
  6
CONTINUOUS
 10
270.3355534461
 20
142.334441167
 40
2.1
  0
ARC
  8
0
 62
7
  6
CONTINUOUS
 10
272.3355534461
 20
142.684441167
 40
4.0
 50
19.4712206345
 51
90.0
  0
ARC
  8
0
 62
7
  6
CONTINUOUS
 10
270.3355534461
 20
148.600441167
 40
19.75
 50
252.6343058201
 51
270.0
  0
ENDSEC
  0
EOF
