  0
SECTION
  2
HEADER
  9
$EXTMAX
 10
420.0
 20
297.0
 30
0.0
  9
$EXTMIN
 10
0.0
 20
0.0
 30
0.0
  9
$LIMMIN
 10
0.0
 20
0.0
  9
$LIMMAX
 10
420.0
 20
297.0
  9
$VIEWCTR
 10
210.0
 20
148.5
  9
$VIEWSIZE
 40
297.0
  9
$CLAYER
  8
0
  9
$LTSCALE
 40
23.1
  9
$CELTYPE
  6
BYLAYER
  9
$DIMSCALE
 40
1.0
  9
$DIMASZ
 40
3.5
  9
$DIMEXO
 40
2.625
  9
$DIMDLI
 40
15.96
  9
$DIMEXE
 40
7.56
  9
$DIMCEN
 40
3.78
  9
$DIMLFAC
 40
1.0
  9
$DIMBLK
  1
_FILLED
  9
$DIMTXT
 40
3.5
  9
$PDMODE
 70
3
  9
$PDSIZE
 40
0.3125
  9
$TILEMODE
 70
1
  0
ENDSEC
  0
SECTION
  2
TABLES
  0
TABLE
  2
LTYPE
 70
6
  0
LTYPE
  2
BYBLOCK
 70
0
  3

 72
65
 73
0
 40
0.0
  0
LTYPE
  2
BYLAYER
 70
0
  3

 72
65
 73
0
 40
0.0
  0
LTYPE
  2
CONTINUOUS
 70
64
  3
Solid line
 72
65
 73
0
 40
0.0
  0
LTYPE
  2
CENTER
 70
64
  3
____ _ ____ _ ____ _ ____ _ ____ _ ____ _ ____
 72
65
 73
4
 40
0.6
 49
0.375
 49
-0.075
 49
0.075
 49
-0.075
  0
LTYPE
  2
HIDDEN
 70
64
  3
- - - - - - - - - - - - - - - - - - - -
 72
65
 73
2
 40
0.2
 49
0.1
 49
-0.1
  0
LTYPE
  2
PHANTOM
 70
64
  3
_____ _ _ _____ _ _ _____ _ _ _____
 72
65
 73
6
 40
0.8
 49
0.45
 49
-0.05
 49
0.1
 49
-0.05
 49
0.1
 49
-0.05
  0
LTYPE
  2
DOT
 70
64
  3
. . . . . . . . . . . . . . . . . . . .
 72
65
 73
2
 40
0.2
 49
0.1
 49
-0.1
  0
LTYPE
  2
DASHED
 70
64
  3
- - - - - - - - - - - - - - - - - - - -
 72
65
 73
2
 40
0.2
 49
0.1
 49
-0.1
  0
ENDTAB
  0
TABLE
  2
LAYER
 70
36
  0
LAYER
  2
0
 70
0
 62
7
  6
CONTINUOUS
  0
LAYER
  2
DEFAULT_1
 70
0
 62
7
  6
CENTER
  0
LAYER
  2
DEFAULT_2
 70
0
 62
8
  6
HIDDEN
  0
LAYER
  2
DEFAULT_3
 70
0
 62
7
  6
PHANTOM
  0
LAYER
  2
AXES
 70
0
 62
7
  6
CONTINUOUS
  0
LAYER
  2
CSYS
 70
0
 62
7
  6
CONTINUOUS
  0
LAYER
  2
CURVE
 70
0
 62
7
  6
CONTINUOUS
  0
LAYER
  2
CURVES
 70
0
 62
7
  6
CONTINUOUS
  0
LAYER
  2
PLANES
 70
0
 62
7
  6
CONTINUOUS
  0
LAYER
  2
QUILT
 70
0
 62
7
  6
CONTINUOUS
  0
LAYER
  2
SURF-A
 70
0
 62
7
  6
CONTINUOUS
  0
LAYER
  2
SURFACE
 70
0
 62
7
  6
CONTINUOUS
  0
ENDTAB
  0
TABLE
  2
STYLE
 70
1
  0
STYLE
  2
STANDARD
 70
0
 40
0.0
 41
0.8
 50
0.0
 71
0
 42
0.2
  3
txt
  4

  0
STYLE
  2
TEXTSTYLE_1
 70
0
 40
0.0
 41
0.8
 50
0.0
 71
0
 42
0.2
  3
gdt
  4

  0
STYLE
  2
TEXTSTYLE_2
 70
0
 40
0.0
 41
0.6
 50
0.0
 71
0
 42
0.2
  3
txt
  4

  0
STYLE
  2
TEXTSTYLE_3
 70
0
 40
0.0
 41
1.0
 50
0.0
 71
0
 42
0.2
  3
ftb_____.ttf
  4

  0
STYLE
  2
TEXTSTYLE_4
 70
0
 40
0.0
 41
1.0
 50
0.0
 71
0
 42
0.2
  3
fti_____.ttf
  4

  0
STYLE
  2
TEXTSTYLE_5
 70
0
 40
0.0
 41
1.0
 50
0.0
 71
0
 42
0.2
  3
frutiger light.ttf
  4

  0
STYLE
  2
TEXTSTYLE_6
 70
0
 40
0.0
 41
0.7
 50
0.0
 71
0
 42
0.2
  3
txt
  4

  0
STYLE
  2
TEXTSTYLE_7
 70
0
 40
0.0
 41
0.6
 50
0.0
 71
0
 42
0.2
  3
txt
  4

  0
ENDTAB
  0
ENDSEC
  0
SECTION
  2
BLOCKS
  0
BLOCK
  8
0
 62
2
  6
CONTINUOUS
  2
SYMBOL_5_BL1
 70
64
 10
382.7840918555
 20
35.5067593403
  0
TEXT
  8
0
 62
7
  6
CONTINUOUS
 10
373.842376864
 20
30.5995157174
  7
TEXTSTYLE_4
 40
1.0655737705
  1
The brand for plastic modular belts and chains
 41
1.0
 72
0
  0
LINE
  8
0
 62
7
  6
CONTINUOUS
 10
358.7621602445
 20
36.0805298321
 11
358.7621602445
 21
33.9493822911
  0
LINE
  8
0
 62
7
  6
CONTINUOUS
 10
359.0512227376
 20
30.9584509954
 11
359.0512227376
 21
31.0552420547
  0
LINE
  8
0
 62
7
  6
CONTINUOUS
 10
358.7621602445
 20
31.0229783683
 11
358.8199727462
 21
30.8293962497
  0
LINE
  8
0
 62
7
  6
CONTINUOUS
 10
360.1556028675
 20
33.867415078
 11
360.1556028675
 21
36.0805298321
  0
LINE
  8
0
 62
7
  6
CONTINUOUS
 10
361.0746601894
 20
32.0231527829
 11
361.0746601894
 21
30.5067593403
  0
LINE
  8
0
 62
7
  6
CONTINUOUS
 10
361.3637227445
 20
30.5067593403
 11
361.3637227445
 21
31.2488242184
  0
LINE
  8
0
 62
7
  6
CONTINUOUS
 10
361.3637227445
 20
31.3778789641
 11
361.3637227445
 21
32.0231527829
  0
LINE
  8
0
 62
7
  6
CONTINUOUS
 10
358.8199727462
 20
31.216560532
 11
358.7621602445
 21
31.0229783683
  0
LINE
  8
0
 62
7
  6
CONTINUOUS
 10
359.1668477307
 20
30.7971325633
 11
359.0512227376
 21
30.9584509954
  0
LINE
  8
0
 62
7
  6
CONTINUOUS
 10
360.2652852997
 20
31.3133515913
 11
360.3230977445
 21
31.216560532
  0
LINE
  8
0
 62
7
  6
CONTINUOUS
 10
360.6121602997
 20
31.216560532
 11
360.5543476894
 21
31.3456152777
  0
LINE
  8
0
 62
7
  6
CONTINUOUS
 10
362.0408487691
 20
36.0805298321
 11
362.0408487691
 21
34.2772511436
  0
LINE
  8
0
 62
7
  6
CONTINUOUS
 10
362.0408487691
 20
32.9657757338
 11
362.0408487691
 21
32.3100380288
  0
LINE
  8
0
 62
7
  6
CONTINUOUS
 10
362.4043477445
 20
31.1520331591
 11
362.4043477445
 21
30.5067593403
  0
LINE
  8
0
 62
7
  6
CONTINUOUS
 10
362.6934101343
 20
30.5067593403
 11
362.6934101343
 21
31.1520331591
  0
LINE
  8
0
 62
7
  6
CONTINUOUS
 10
359.0512227376
 20
31.0552420547
 11
359.1090352445
 21
31.1842968456
  0
LINE
  8
0
 62
7
  6
CONTINUOUS
 10
358.8199727462
 20
30.8293962497
 11
358.9355977445
 21
30.7003414814
  0
LINE
  8
0
 62
7
  6
CONTINUOUS
 10
362.3465351343
 20
31.2810879048
 11
362.4043477445
 21
31.1520331591
  0
LINE
  8
0
 62
7
  6
CONTINUOUS
 10
363.1559103548
 20
30.7971325633
 11
363.2137226343
 21
30.668077795
  0
LINE
  8
0
 62
7
  6
CONTINUOUS
 10
362.6934101343
 20
31.1520331591
 11
362.6355978548
 21
31.3133515913
  0
LINE
  8
0
 62
7
  6
CONTINUOUS
 10
363.1559103548
 20
31.3456152777
 11
363.1559103548
 21
31.2810879048
  0
LINE
  8
0
 62
7
  6
CONTINUOUS
 10
363.1559103548
 20
30.8939236226
 11
363.1559103548
 21
30.7971325633
  0
LINE
  8
0
 62
7
  6
CONTINUOUS
 10
363.4342913921
 20
32.3100380288
 11
363.4342913921
 21
36.0805298321
  0
LINE
  8
0
 62
7
  6
CONTINUOUS
 10
363.4449727445
 20
30.7648688543
 11
363.4449727445
 21
30.8293962497
  0
LINE
  8
0
 62
7
  6
CONTINUOUS
 10
363.7621602445
 20
36.0805298321
 11
363.7621602445
 21
32.3100380288
  0
LINE
  8
0
 62
7
  6
CONTINUOUS
 10
360.5543476894
 20
30.7003414814
 11
360.6121602997
 21
30.8293962497
  0
LINE
  8
0
 62
7
  6
CONTINUOUS
 10
364.9480979651
 20
30.6035504109
 11
364.890285024
 21
30.7648688543
  0
LINE
  8
0
 62
7
  6
CONTINUOUS
 10
364.6012229651
 20
31.2810879048
 11
364.6012229651
 21
31.1842968456
  0
LINE
  8
0
 62
7
  6
CONTINUOUS
 10
364.6012229651
 20
31.0552420547
 11
364.6012229651
 21
30.8616599362
  0
LINE
  8
0
 62
7
  6
CONTINUOUS
 10
364.890285024
 20
30.7648688543
 11
364.890285024
 21
31.2810879048
  0
LINE
  8
0
 62
7
  6
CONTINUOUS
 10
365.1556028675
 20
32.3100380288
 11
365.1556028675
 21
34.1133167174
  0
LINE
  8
0
 62
7
  6
CONTINUOUS
 10
365.1556028675
 20
35.4247921272
 11
365.1556028675
 21
36.0805298321
  0
LINE
  8
0
 62
7
  6
CONTINUOUS
 10
365.4684104651
 20
32.0231527829
 11
365.4684104651
 21
31.8618343508
  0
LINE
  8
0
 62
7
  6
CONTINUOUS
 10
365.4684104651
 20
31.5391973962
 11
365.4684104651
 21
30.5067593403
  0
LINE
  8
0
 62
7
  6
CONTINUOUS
 10
365.757472524
 20
30.5067593403
 11
365.757472524
 21
31.5391973962
  0
LINE
  8
0
 62
7
  6
CONTINUOUS
 10
365.757472524
 20
31.8618343508
 11
365.757472524
 21
32.0231527829
  0
LINE
  8
0
 62
7
  6
CONTINUOUS
 10
360.3230977445
 20
30.8293962497
 11
360.2652852997
 21
30.7326051679
  0
LINE
  8
0
 62
7
  6
CONTINUOUS
 10
362.6355978548
 20
31.3133515913
 11
362.5777852445
 21
31.3778789641
  0
LINE
  8
0
 62
7
  6
CONTINUOUS
 10
363.5027853548
 20
30.7003414814
 11
363.4449727445
 21
30.7648688543
  0
LINE
  8
0
 62
7
  6
CONTINUOUS
 10
364.6590352445
 20
30.5712867188
 11
364.716847524
 21
30.5067593403
  0
LINE
  8
0
 62
7
  6
CONTINUOUS
 10
364.6012229651
 20
30.668077795
 11
364.6590352445
 21
30.5712867188
  0
LINE
  8
0
 62
7
  6
CONTINUOUS
 10
365.0059102445
 20
30.5067593403
 11
364.9480979651
 21
30.6035504109
  0
LINE
  8
0
 62
7
  6
CONTINUOUS
 10
364.890285024
 20
31.2810879048
 11
364.8324727445
 21
31.3778789641
  0
LINE
  8
0
 62
7
  6
CONTINUOUS
 10
366.2199727445
 20
31.5391973962
 11
366.2199727445
 21
30.5067593403
  0
LINE
  8
0
 62
7
  6
CONTINUOUS
 10
366.5090354651
 20
30.5067593403
 11
366.5090354651
 21
31.2488242184
  0
LINE
  8
0
 62
7
  6
CONTINUOUS
 10
366.5090354651
 20
31.3778789641
 11
366.5090354651
 21
31.5391973962
  0
LINE
  8
0
 62
7
  6
CONTINUOUS
 10
367.0408487691
 20
34.5231527829
 11
367.0408487691
 21
32.3100380288
  0
LINE
  8
0
 62
7
  6
CONTINUOUS
 10
358.9355977445
 20
31.3456152777
 11
358.8199727462
 21
31.216560532
  0
LINE
  8
0
 62
7
  6
CONTINUOUS
 10
359.1090352445
 20
31.1842968456
 11
359.1668477307
 21
31.2488242184
  0
LINE
  8
0
 62
7
  6
CONTINUOUS
 10
358.9355977445
 20
30.7003414814
 11
359.0512227376
 21
30.6358140973
  0
LINE
  8
0
 62
7
  6
CONTINUOUS
 10
359.3402852307
 20
30.7003414814
 11
359.1668477307
 21
30.7971325633
  0
LINE
  8
0
 62
7
  6
CONTINUOUS
 10
364.543410024
 20
31.3456152777
 11
364.6012229651
 21
31.2810879048
  0
LINE
  8
0
 62
7
  6
CONTINUOUS
 10
367.491847524
 20
31.2810879048
 11
367.5496604651
 21
31.1197694727
  0
LINE
  8
0
 62
7
  6
CONTINUOUS
 10
367.838722524
 20
31.1197694727
 11
367.7809102445
 21
31.2810879048
  0
LINE
  8
0
 62
7
  6
CONTINUOUS
 10
367.5496604651
 20
31.1197694727
 11
367.5496604651
 21
30.5067593403
  0
LINE
  8
0
 62
7
  6
CONTINUOUS
 10
367.838722524
 20
30.5067593403
 11
367.838722524
 21
31.1197694727
  0
LINE
  8
0
 62
7
  6
CONTINUOUS
 10
368.3012227445
 20
31.3456152777
 11
368.3012227445
 21
31.2810879048
  0
LINE
  8
0
 62
7
  6
CONTINUOUS
 10
368.4342913921
 20
32.3100380288
 11
368.4342913921
 21
34.4411855698
  0
LINE
  8
0
 62
7
  6
CONTINUOUS
 10
368.7621602445
 20
36.0805298321
 11
368.7621602445
 21
32.3100380288
  0
LINE
  8
0
 62
7
  6
CONTINUOUS
 10
363.4449727445
 20
30.8293962497
 11
363.5027853548
 21
30.926187309
  0
LINE
  8
0
 62
7
  6
CONTINUOUS
 10
359.0512227376
 20
30.6358140973
 11
359.2246602583
 21
30.5712867188
  0
LINE
  8
0
 62
7
  6
CONTINUOUS
 10
360.5543476894
 20
31.3456152777
 11
360.3809101894
 21
31.4424063369
  0
LINE
  8
0
 62
7
  6
CONTINUOUS
 10
363.2137226343
 20
30.668077795
 11
363.3871601343
 21
30.5712867188
  0
LINE
  8
0
 62
7
  6
CONTINUOUS
 10
362.2309102445
 20
31.3456152777
 11
362.3465351343
 21
31.2810879048
  0
LINE
  8
0
 62
7
  6
CONTINUOUS
 10
362.5777852445
 20
31.3778789641
 11
362.4621603548
 21
31.4424063369
  0
LINE
  8
0
 62
7
  6
CONTINUOUS
 10
368.3012227445
 20
30.7648688543
 11
368.4168479651
 21
30.6358140973
  0
LINE
  8
0
 62
7
  6
CONTINUOUS
 10
368.6480977445
 20
30.7003414814
 11
368.5902854651
 21
30.7648688543
  0
LINE
  8
0
 62
7
  6
CONTINUOUS
 10
368.3012227445
 20
31.2810879048
 11
368.4168479651
 21
31.1520331591
  0
LINE
  8
0
 62
7
  6
CONTINUOUS
 10
367.7809102445
 20
31.2810879048
 11
367.7230979651
 21
31.3778789641
  0
LINE
  8
0
 62
7
  6
CONTINUOUS
 10
370.1512223035
 20
30.7003414814
 11
370.1512223035
 21
30.7648688543
  0
LINE
  8
0
 62
7
  6
CONTINUOUS
 10
370.1556028675
 20
32.3100380288
 11
370.1556028675
 21
36.0805298321
  0
LINE
  8
0
 62
7
  6
CONTINUOUS
 10
363.2137226343
 20
31.4101426505
 11
363.1559103548
 21
31.3456152777
  0
LINE
  8
0
 62
7
  6
CONTINUOUS
 10
360.091847717
 20
31.3778789641
 11
360.2652852997
 21
31.3133515913
  0
LINE
  8
0
 62
7
  6
CONTINUOUS
 10
364.8324727445
 20
31.3778789641
 11
364.716847524
 21
31.4424063369
  0
LINE
  8
0
 62
7
  6
CONTINUOUS
 10
368.6480977445
 20
31.216560532
 11
368.5902854651
 21
31.2810879048
  0
LINE
  8
0
 62
7
  6
CONTINUOUS
 10
369.8043479651
 20
30.8293962497
 11
369.8621602445
 21
30.7648688543
  0
LINE
  8
0
 62
7
  6
CONTINUOUS
 10
370.1512223035
 20
30.7648688543
 11
370.0355977445
 21
30.8939236226
  0
LINE
  8
0
 62
7
  6
CONTINUOUS
 10
369.8043479651
 20
31.3456152777
 11
369.8621602445
 21
31.2810879048
  0
LINE
  8
0
 62
7
  6
CONTINUOUS
 10
370.1512223035
 20
31.2810879048
 11
370.0355977445
 21
31.4101426505
  0
LINE
  8
0
 62
7
  6
CONTINUOUS
 10
363.4449727445
 20
31.2810879048
 11
363.5027853548
 21
31.3456152777
  0
LINE
  8
0
 62
7
  6
CONTINUOUS
 10
363.2715352445
 20
31.0229783683
 11
363.1559103548
 21
30.8939236226
  0
LINE
  8
0
 62
7
  6
CONTINUOUS
 10
364.6012229651
 20
30.8616599362
 11
364.543410024
 21
30.7971325633
  0
LINE
  8
0
 62
7
  6
CONTINUOUS
 10
364.543410024
 20
30.6035504109
 11
364.6012229651
 21
30.668077795
  0
LINE
  8
0
 62
7
  6
CONTINUOUS
 10
363.3871601343
 20
30.5712867188
 11
363.5027853548
 21
30.5390230296
  0
LINE
  8
0
 62
7
  6
CONTINUOUS
 10
360.3809101894
 20
31.4424063369
 11
360.1496602445
 21
31.5069337098
  0
LINE
  8
0
 62
7
  6
CONTINUOUS
 10
363.7340351343
 20
30.6358140973
 11
363.5027853548
 21
30.7003414814
  0
LINE
  8
0
 62
7
  6
CONTINUOUS
 10
362.4621603548
 20
31.4424063369
 11
362.2887228548
 21
31.5069337098
  0
LINE
  8
0
 62
7
  6
CONTINUOUS
 10
364.716847524
 20
31.4424063369
 11
364.543410024
 21
31.5069337098
  0
LINE
  8
0
 62
7
  6
CONTINUOUS
 10
367.3762229651
 20
31.3456152777
 11
367.491847524
 21
31.2810879048
  0
LINE
  8
0
 62
7
  6
CONTINUOUS
 10
367.7230979651
 20
31.3778789641
 11
367.6074727445
 21
31.4424063369
  0
LINE
  8
0
 62
7
  6
CONTINUOUS
 10
359.2246602583
 20
30.5712867188
 11
359.3980977583
 21
30.5390230296
  0
LINE
  8
0
 62
7
  6
CONTINUOUS
 10
359.6871602721
 20
30.6358140973
 11
359.3402852307
 21
30.7003414814
  0
LINE
  8
0
 62
7
  6
CONTINUOUS
 10
362.1152853548
 20
31.3778789641
 11
362.2309102445
 21
31.3456152777
  0
LINE
  8
0
 62
7
  6
CONTINUOUS
 10
364.4277854651
 20
31.3778789641
 11
364.543410024
 21
31.3456152777
  0
LINE
  8
0
 62
7
  6
CONTINUOUS
 10
368.7637229651
 20
30.668077795
 11
368.6480977445
 21
30.7003414814
  0
LINE
  8
0
 62
7
  6
CONTINUOUS
 10
367.2605977445
 20
31.3778789641
 11
367.3762229651
 21
31.3456152777
  0
LINE
  8
0
 62
7
  6
CONTINUOUS
 10
368.4168479651
 20
30.6358140973
 11
368.5902854651
 21
30.5712867188
  0
LINE
  8
0
 62
7
  6
CONTINUOUS
 10
367.6074727445
 20
31.4424063369
 11
367.4340352445
 21
31.5069337098
  0
LINE
  8
0
 62
7
  6
CONTINUOUS
 10
368.8215352445
 20
31.1520331591
 11
368.6480977445
 21
31.216560532
  0
LINE
  8
0
 62
7
  6
CONTINUOUS
 10
369.6309104651
 20
30.8939236226
 11
369.8043479651
 21
30.8293962497
  0
LINE
  8
0
 62
7
  6
CONTINUOUS
 10
370.0355977445
 20
31.4101426505
 11
369.8621602445
 21
31.4746700234
  0
LINE
  8
0
 62
7
  6
CONTINUOUS
 10
368.4168479651
 20
31.1520331591
 11
368.6480977445
 21
31.0552420547
  0
LINE
  8
0
 62
7
  6
CONTINUOUS
 10
370.0355977445
 20
30.8939236226
 11
369.8043479651
 21
30.9907146818
  0
LINE
  8
0
 62
7
  6
CONTINUOUS
 10
368.5902854651
 20
31.2810879048
 11
368.6480977445
 21
31.3456152777
  0
LINE
  8
0
 62
7
  6
CONTINUOUS
 10
359.0512227376
 20
31.4101426505
 11
358.9355977445
 21
31.3456152777
  0
LINE
  8
0
 62
7
  6
CONTINUOUS
 10
359.1668477307
 20
31.2488242184
 11
359.3402852307
 21
31.3456152777
  0
LINE
  8
0
 62
7
  6
CONTINUOUS
 10
361.4793477997
 20
31.4424063369
 11
361.3637227445
 21
31.3778789641
  0
LINE
  8
0
 62
7
  6
CONTINUOUS
 10
361.3637227445
 20
31.2488242184
 11
361.4793477997
 21
31.3133515913
  0
LINE
  8
0
 62
7
  6
CONTINUOUS
 10
360.3809101894
 20
30.6035504109
 11
360.5543476894
 21
30.7003414814
  0
LINE
  8
0
 62
7
  6
CONTINUOUS
 10
359.3980977583
 20
30.5390230296
 11
359.744972717
 21
30.5067593403
  0
LINE
  8
0
 62
7
  6
CONTINUOUS
 10
363.5027853548
 20
30.5390230296
 11
363.7340351343
 21
30.5067593403
  0
LINE
  8
0
 62
7
  6
CONTINUOUS
 10
361.8840352445
 20
31.4101426505
 11
362.1152853548
 21
31.3778789641
  0
LINE
  8
0
 62
7
  6
CONTINUOUS
 10
364.1965353548
 20
31.4101426505
 11
364.4277854651
 21
31.3778789641
  0
LINE
  8
0
 62
7
  6
CONTINUOUS
 10
368.6480977445
 20
31.0552420547
 11
369.6309104651
 21
30.8939236226
  0
LINE
  8
0
 62
7
  6
CONTINUOUS
 10
369.8043479651
 20
30.9907146818
 11
368.8215352445
 21
31.1520331591
  0
LINE
  8
0
 62
7
  6
CONTINUOUS
 10
362.2887228548
 20
31.5069337098
 11
362.1152853548
 21
31.5391973962
  0
LINE
  8
0
 62
7
  6
CONTINUOUS
 10
368.5902854651
 20
30.5712867188
 11
368.7637229651
 21
30.5390230296
  0
LINE
  8
0
 62
7
  6
CONTINUOUS
 10
367.4340352445
 20
31.5069337098
 11
367.2605977445
 21
31.5391973962
  0
LINE
  8
0
 62
7
  6
CONTINUOUS
 10
369.6887227445
 20
31.3778789641
 11
369.8043479651
 21
31.3456152777
  0
LINE
  8
0
 62
7
  6
CONTINUOUS
 10
369.8621602445
 20
30.7648688543
 11
369.8043479651
 21
30.7003414814
  0
LINE
  8
0
 62
7
  6
CONTINUOUS
 10
368.4168479651
 20
31.4424063369
 11
368.3012227445
 21
31.3456152777
  0
LINE
  8
0
 62
7
  6
CONTINUOUS
 10
363.3293478548
 20
31.4746700234
 11
363.2137226343
 21
31.4101426505
  0
LINE
  8
0
 62
7
  6
CONTINUOUS
 10
363.3871601343
 20
31.0875057863
 11
363.2715352445
 21
31.0229783683
  0
LINE
  8
0
 62
7
  6
CONTINUOUS
 10
363.5027853548
 20
30.926187309
 11
363.6184102445
 21
30.9907146818
  0
LINE
  8
0
 62
7
  6
CONTINUOUS
 10
361.0746601894
 20
30.5067593403
 11
361.3637227445
 21
30.5067593403
  0
LINE
  8
0
 62
7
  6
CONTINUOUS
 10
362.4043477445
 20
30.5067593403
 11
362.6934101343
 21
30.5067593403
  0
LINE
  8
0
 62
7
  6
CONTINUOUS
 10
363.7340351343
 20
30.5067593403
 11
364.0809101343
 21
30.5067593403
  0
LINE
  8
0
 62
7
  6
CONTINUOUS
 10
364.716847524
 20
30.5067593403
 11
365.0059102445
 21
30.5067593403
  0
LINE
  8
0
 62
7
  6
CONTINUOUS
 10
365.4684104651
 20
30.5067593403
 11
365.757472524
 21
30.5067593403
  0
LINE
  8
0
 62
7
  6
CONTINUOUS
 10
366.2199727445
 20
30.5067593403
 11
366.5090354651
 21
30.5067593403
  0
LINE
  8
0
 62
7
  6
CONTINUOUS
 10
367.5496604651
 20
30.5067593403
 11
367.838722524
 21
30.5067593403
  0
LINE
  8
0
 62
7
  6
CONTINUOUS
 10
369.1105979651
 20
30.5067593403
 11
369.4574729651
 21
30.5067593403
  0
LINE
  8
0
 62
7
  6
CONTINUOUS
 10
369.4574729651
 20
30.6358140973
 11
369.1105979651
 21
30.6358140973
  0
LINE
  8
0
 62
7
  6
CONTINUOUS
 10
364.0809101343
 20
30.6358140973
 11
363.7340351343
 21
30.6358140973
  0
LINE
  8
0
 62
7
  6
CONTINUOUS
 10
368.5902854651
 20
30.7648688543
 11
368.3012227445
 21
30.7648688543
  0
LINE
  8
0
 62
7
  6
CONTINUOUS
 10
360.6121602997
 20
30.8293962497
 11
360.3230977445
 21
30.8293962497
  0
LINE
  8
0
 62
7
  6
CONTINUOUS
 10
359.6871602721
 20
31.4101426505
 11
360.091847717
 21
31.3778789641
  0
LINE
  8
0
 62
7
  6
CONTINUOUS
 10
360.1496602445
 20
31.5069337098
 11
359.744972717
 21
31.5391973962
  0
LINE
  8
0
 62
7
  6
CONTINUOUS
 10
368.7637229651
 20
30.5390230296
 11
369.1105979651
 21
30.5067593403
  0
LINE
  8
0
 62
7
  6
CONTINUOUS
 10
369.1105979651
 20
30.6358140973
 11
368.7637229651
 21
30.668077795
  0
LINE
  8
0
 62
7
  6
CONTINUOUS
 10
364.543410024
 20
31.5069337098
 11
364.1965353548
 21
31.5391973962
  0
LINE
  8
0
 62
7
  6
CONTINUOUS
 10
369.3418477445
 20
31.4101426505
 11
369.6887227445
 21
31.3778789641
  0
LINE
  8
0
 62
7
  6
CONTINUOUS
 10
369.6887227445
 20
31.5069337098
 11
369.3418477445
 21
31.5391973962
  0
LINE
  8
0
 62
7
  6
CONTINUOUS
 10
367.0293479651
 20
31.4101426505
 11
367.2605977445
 21
31.3778789641
  0
LINE
  8
0
 62
7
  6
CONTINUOUS
 10
369.8621602445
 20
31.4746700234
 11
369.6887227445
 21
31.5069337098
  0
LINE
  8
0
 62
7
  6
CONTINUOUS
 10
370.0355977445
 20
30.6035504109
 11
370.1512223035
 21
30.7003414814
  0
LINE
  8
0
 62
7
  6
CONTINUOUS
 10
364.543410024
 20
30.7971325633
 11
364.369972524
 21
30.7003414814
  0
LINE
  8
0
 62
7
  6
CONTINUOUS
 10
366.624660024
 20
31.4424063369
 11
366.5090354651
 21
31.3778789641
  0
LINE
  8
0
 62
7
  6
CONTINUOUS
 10
366.5090354651
 20
31.2488242184
 11
366.624660024
 21
31.3133515913
  0
LINE
  8
0
 62
7
  6
CONTINUOUS
 10
359.2246602583
 20
31.4746700234
 11
359.0512227376
 21
31.4101426505
  0
LINE
  8
0
 62
7
  6
CONTINUOUS
 10
361.6527851343
 20
31.5069337098
 11
361.4793477997
 21
31.4424063369
  0
LINE
  8
0
 62
7
  6
CONTINUOUS
 10
361.4793477997
 20
31.3133515913
 11
361.6527851343
 21
31.3778789641
  0
LINE
  8
0
 62
7
  6
CONTINUOUS
 10
360.2652852997
 20
30.7326051679
 11
360.091847717
 21
30.668077795
  0
LINE
  8
0
 62
7
  6
CONTINUOUS
 10
369.6887227445
 20
30.668077795
 11
369.4574729651
 21
30.6358140973
  0
LINE
  8
0
 62
7
  6
CONTINUOUS
 10
364.0809101343
 20
30.5067593403
 11
364.369972524
 21
30.5390230296
  0
LINE
  8
0
 62
7
  6
CONTINUOUS
 10
369.4574729651
 20
30.5067593403
 11
369.8043479651
 21
30.5390230296
  0
LINE
  8
0
 62
7
  6
CONTINUOUS
 10
359.744972717
 20
30.5067593403
 11
360.1496602445
 21
30.5390230296
  0
LINE
  8
0
 62
7
  6
CONTINUOUS
 10
360.091847717
 20
30.668077795
 11
359.6871602721
 21
30.6358140973
  0
LINE
  8
0
 62
7
  6
CONTINUOUS
 10
363.9652852445
 20
31.0552420547
 11
364.6012229651
 21
31.0552420547
  0
LINE
  8
0
 62
7
  6
CONTINUOUS
 10
364.6012229651
 20
31.1842968456
 11
363.9652852445
 21
31.1842968456
  0
LINE
  8
0
 62
7
  6
CONTINUOUS
 10
360.3230977445
 20
31.216560532
 11
360.6121602997
 21
31.216560532
  0
LINE
  8
0
 62
7
  6
CONTINUOUS
 10
363.1559103548
 20
31.2810879048
 11
363.4449727445
 21
31.2810879048
  0
LINE
  8
0
 62
7
  6
CONTINUOUS
 10
369.8621602445
 20
31.2810879048
 11
370.1512223035
 21
31.2810879048
  0
LINE
  8
0
 62
7
  6
CONTINUOUS
 10
363.8496603548
 20
31.4101426505
 11
364.1965353548
 21
31.4101426505
  0
LINE
  8
0
 62
7
  6
CONTINUOUS
 10
368.9949727445
 20
31.4101426505
 11
369.3418477445
 21
31.4101426505
  0
LINE
  8
0
 62
7
  6
CONTINUOUS
 10
369.3418477445
 20
31.5391973962
 11
368.9949727445
 21
31.5391973962
  0
LINE
  8
0
 62
7
  6
CONTINUOUS
 10
367.2605977445
 20
31.5391973962
 11
367.0293479651
 21
31.5391973962
  0
LINE
  8
0
 62
7
  6
CONTINUOUS
 10
366.5090354651
 20
31.5391973962
 11
366.2199727445
 21
31.5391973962
  0
LINE
  8
0
 62
7
  6
CONTINUOUS
 10
365.757472524
 20
31.5391973962
 11
365.4684104651
 21
31.5391973962
  0
LINE
  8
0
 62
7
  6
CONTINUOUS
 10
364.1965353548
 20
31.5391973962
 11
363.8496603548
 21
31.5391973962
  0
LINE
  8
0
 62
7
  6
CONTINUOUS
 10
362.1152853548
 20
31.5391973962
 11
361.8840352445
 21
31.5391973962
  0
LINE
  8
0
 62
7
  6
CONTINUOUS
 10
365.4684104651
 20
31.8618343508
 11
365.757472524
 21
31.8618343508
  0
LINE
  8
0
 62
7
  6
CONTINUOUS
 10
365.757472524
 20
32.0231527829
 11
365.4684104651
 21
32.0231527829
  0
LINE
  8
0
 62
7
  6
CONTINUOUS
 10
361.3637227445
 20
32.0231527829
 11
361.0746601894
 21
32.0231527829
  0
LINE
  8
0
 62
7
  6
CONTINUOUS
 10
360.4015045068
 20
32.3100380288
 11
360.8140758554
 21
32.3100380288
  0
LINE
  8
0
 62
7
  6
CONTINUOUS
 10
362.0408487691
 20
32.3100380288
 11
363.4342913921
 21
32.3100380288
  0
LINE
  8
0
 62
7
  6
CONTINUOUS
 10
363.7621602445
 20
32.3100380288
 11
365.1556028675
 21
32.3100380288
  0
LINE
  8
0
 62
7
  6
CONTINUOUS
 10
367.0408487691
 20
32.3100380288
 11
368.4342913921
 21
32.3100380288
  0
LINE
  8
0
 62
7
  6
CONTINUOUS
 10
368.7621602445
 20
32.3100380288
 11
370.1556028675
 21
32.3100380288
  0
LINE
  8
0
 62
7
  6
CONTINUOUS
 10
366.798097524
 20
31.5069337098
 11
366.624660024
 21
31.4424063369
  0
LINE
  8
0
 62
7
  6
CONTINUOUS
 10
364.369972524
 20
30.5390230296
 11
364.543410024
 21
30.6035504109
  0
LINE
  8
0
 62
7
  6
CONTINUOUS
 10
369.8043479651
 20
30.5390230296
 11
370.0355977445
 21
30.6035504109
  0
LINE
  8
0
 62
7
  6
CONTINUOUS
 10
369.8043479651
 20
30.7003414814
 11
369.6887227445
 21
30.668077795
  0
LINE
  8
0
 62
7
  6
CONTINUOUS
 10
368.7637229651
 20
31.3778789641
 11
368.9949727445
 21
31.4101426505
  0
LINE
  8
0
 62
7
  6
CONTINUOUS
 10
366.798097524
 20
31.3778789641
 11
367.0293479651
 21
31.4101426505
  0
LINE
  8
0
 62
7
  6
CONTINUOUS
 10
363.7340351343
 20
31.0229783683
 11
363.9652852445
 21
31.0552420547
  0
LINE
  8
0
 62
7
  6
CONTINUOUS
 10
367.0293479651
 20
31.5391973962
 11
366.798097524
 21
31.5069337098
  0
LINE
  8
0
 62
7
  6
CONTINUOUS
 10
363.6184102445
 20
31.3778789641
 11
363.8496603548
 21
31.4101426505
  0
LINE
  8
0
 62
7
  6
CONTINUOUS
 10
368.9949727445
 20
31.5391973962
 11
368.6480977445
 21
31.5069337098
  0
LINE
  8
0
 62
7
  6
CONTINUOUS
 10
363.9652852445
 20
31.1842968456
 11
363.6184102445
 21
31.1520331591
  0
LINE
  8
0
 62
7
  6
CONTINUOUS
 10
359.744972717
 20
31.5391973962
 11
359.3980977583
 21
31.5069337098
  0
LINE
  8
0
 62
7
  6
CONTINUOUS
 10
363.8496603548
 20
31.5391973962
 11
363.4449727445
 21
31.5069337098
  0
LINE
  8
0
 62
7
  6
CONTINUOUS
 10
361.221176638
 20
33.4575790124
 11
360.565438933
 21
33.4575790124
  0
LINE
  8
0
 62
7
  6
CONTINUOUS
 10
366.624660024
 20
31.3133515913
 11
366.798097524
 21
31.3778789641
  0
LINE
  8
0
 62
7
  6
CONTINUOUS
 10
368.6480977445
 20
31.3456152777
 11
368.7637229651
 21
31.3778789641
  0
LINE
  8
0
 62
7
  6
CONTINUOUS
 10
368.6480977445
 20
31.5069337098
 11
368.4168479651
 21
31.4424063369
  0
LINE
  8
0
 62
7
  6
CONTINUOUS
 10
364.369972524
 20
30.7003414814
 11
364.0809101343
 21
30.6358140973
  0
LINE
  8
0
 62
7
  6
CONTINUOUS
 10
361.6527851343
 20
31.3778789641
 11
361.8840352445
 21
31.4101426505
  0
LINE
  8
0
 62
7
  6
CONTINUOUS
 10
361.8840352445
 20
31.5391973962
 11
361.6527851343
 21
31.5069337098
  0
LINE
  8
0
 62
7
  6
CONTINUOUS
 10
359.4559102445
 20
31.3778789641
 11
359.6871602721
 21
31.4101426505
  0
LINE
  8
0
 62
7
  6
CONTINUOUS
 10
365.9752749986
 20
34.9329888485
 11
366.6310127035
 21
34.9329888485
  0
LINE
  8
0
 62
7
  6
CONTINUOUS
 10
363.6184102445
 20
30.9907146818
 11
363.7340351343
 21
31.0229783683
  0
LINE
  8
0
 62
7
  6
CONTINUOUS
 10
363.6184102445
 20
31.1520331591
 11
363.3871601343
 21
31.0875057863
  0
LINE
  8
0
 62
7
  6
CONTINUOUS
 10
363.5027853548
 20
31.3456152777
 11
363.6184102445
 21
31.3778789641
  0
LINE
  8
0
 62
7
  6
CONTINUOUS
 10
360.1496602445
 20
30.5390230296
 11
360.3809101894
 21
30.6035504109
  0
LINE
  8
0
 62
7
  6
CONTINUOUS
 10
363.4449727445
 20
31.5069337098
 11
363.3293478548
 21
31.4746700234
  0
LINE
  8
0
 62
7
  6
CONTINUOUS
 10
359.3980977583
 20
31.5069337098
 11
359.2246602583
 21
31.4746700234
  0
LINE
  8
0
 62
7
  6
CONTINUOUS
 10
370.1556028675
 20
36.0805298321
 11
368.7621602445
 21
36.0805298321
  0
LINE
  8
0
 62
7
  6
CONTINUOUS
 10
366.7949471298
 20
36.0805298321
 11
366.3823757812
 21
36.0805298321
  0
LINE
  8
0
 62
7
  6
CONTINUOUS
 10
365.1556028675
 20
36.0805298321
 11
363.7621602445
 21
36.0805298321
  0
LINE
  8
0
 62
7
  6
CONTINUOUS
 10
363.4342913921
 20
36.0805298321
 11
362.0408487691
 21
36.0805298321
  0
LINE
  8
0
 62
7
  6
CONTINUOUS
 10
360.1556028675
 20
36.0805298321
 11
358.7621602445
 21
36.0805298321
  0
LINE
  8
0
 62
7
  6
CONTINUOUS
 10
359.3402852307
 20
31.3456152777
 11
359.4559102445
 21
31.3778789641
  0
CIRCLE
  8
0
 62
7
  6
CONTINUOUS
 10
369.458881556
 20
38.4165954059
 40
2.0901639344
  0
ARC
  8
0
 62
7
  6
CONTINUOUS
 10
360.4015045068
 20
33.9493822911
 40
1.6393442623
 50
180.0
 51
270.0
  0
ARC
  8
0
 62
7
  6
CONTINUOUS
 10
366.7949471298
 20
34.4411855698
 40
1.6393442623
 50
0.0
 51
90.0
  0
ARC
  8
0
 62
7
  6
CONTINUOUS
 10
360.8140758554
 20
33.7854478649
 40
1.4754098361
 50
270.0
 51
326.2510114041
  0
ARC
  8
0
 62
7
  6
CONTINUOUS
 10
366.3823757812
 20
34.6051199961
 40
1.4754098361
 50
90.0
 51
146.2510114041
  0
ARC
  8
0
 62
7
  6
CONTINUOUS
 10
361.221176638
 20
34.2772511436
 40
0.8196721311
 50
270.0
 51
360.0
  0
ARC
  8
0
 62
7
  6
CONTINUOUS
 10
365.9752749986
 20
34.1133167174
 40
0.8196721311
 50
90.0
 51
180.0
  0
ARC
  8
0
 62
7
  6
CONTINUOUS
 10
360.565438933
 20
33.867415078
 40
0.4098360656
 50
180.0
 51
270.0
  0
ARC
  8
0
 62
7
  6
CONTINUOUS
 10
366.6310127035
 20
34.5231527829
 40
0.4098360656
 50
0.0
 51
90.0
  0
SOLID
  8
0
 62
7
  6
CONTINUOUS
 10
365.4684104651
 20
31.8618347111
 11
365.4684104651
 21
32.0231531947
 12
365.757472524
 22
31.8618347111
 13
365.757472524
 23
32.0231531947
  0
SOLID
  8
0
 62
7
  6
CONTINUOUS
 10
359.744972717
 20
31.5391977439
 11
360.1496602445
 21
31.5069333244
 12
359.3980977583
 22
31.5069333244
 13
359.3980977583
 23
31.5069333244
  0
SOLID
  8
0
 62
7
  6
CONTINUOUS
 10
359.2246602583
 20
31.4746706537
 11
359.3980977583
 21
31.5069333244
 12
360.1496602445
 22
31.5069333244
 13
360.1496602445
 23
31.5069333244
  0
SOLID
  8
0
 62
7
  6
CONTINUOUS
 10
360.1496602445
 20
31.5069333244
 11
360.3809101894
 21
31.4424063504
 12
359.2246602583
 22
31.4746706537
 13
359.2246602583
 23
31.4746706537
  0
SOLID
  8
0
 62
7
  6
CONTINUOUS
 10
359.0512227376
 20
31.4101419116
 11
359.2246602583
 21
31.4746706537
 12
360.3809101894
 22
31.4424063504
 13
360.3809101894
 23
31.4424063504
  0
SOLID
  8
0
 62
7
  6
CONTINUOUS
 10
359.0512227376
 20
31.4101419116
 11
360.3809101894
 21
31.4424063504
 12
359.6871602721
 22
31.4101419116
 13
359.6871602721
 23
31.4101419116
  0
SOLID
  8
0
 62
7
  6
CONTINUOUS
 10
359.6871602721
 20
31.4101419116
 11
360.3809101894
 21
31.4424063504
 12
360.091847717
 22
31.3778792603
 13
360.091847717
 23
31.3778792603
  0
SOLID
  8
0
 62
7
  6
CONTINUOUS
 10
360.3809101894
 20
31.4424063504
 11
360.5543476894
 21
31.345614957
 12
360.091847717
 22
31.3778792603
 13
360.091847717
 23
31.3778792603
  0
SOLID
  8
0
 62
7
  6
CONTINUOUS
 10
360.2652852997
 20
31.3133521701
 11
360.091847717
 21
31.3778792603
 12
360.5543476894
 22
31.345614957
 13
360.5543476894
 23
31.345614957
  0
SOLID
  8
0
 62
7
  6
CONTINUOUS
 10
360.2652852997
 20
31.3133521701
 11
360.5543476894
 21
31.345614957
 12
360.3230977445
 22
31.2165606992
 13
360.3230977445
 23
31.2165606992
  0
SOLID
  8
0
 62
7
  6
CONTINUOUS
 10
360.5543476894
 20
31.345614957
 11
360.6121602997
 21
31.2165606992
 12
360.3230977445
 22
31.2165606992
 13
360.3230977445
 23
31.2165606992
  0
SOLID
  8
0
 62
7
  6
CONTINUOUS
 10
361.6527851343
 20
31.5069329918
 11
361.8840352445
 21
31.5391972951
 12
362.1152853548
 22
31.5391972951
 13
362.1152853548
 23
31.5391972951
  0
SOLID
  8
0
 62
7
  6
CONTINUOUS
 10
362.1152853548
 20
31.5391972951
 11
362.2887228548
 21
31.5069329918
 12
361.6527851343
 22
31.5069329918
 13
361.6527851343
 23
31.5069329918
  0
SOLID
  8
0
 62
7
  6
CONTINUOUS
 10
361.4793477997
 20
31.4424059016
 11
361.6527851343
 21
31.5069329918
 12
362.2887228548
 22
31.5069329918
 13
362.2887228548
 23
31.5069329918
  0
SOLID
  8
0
 62
7
  6
CONTINUOUS
 10
362.2887228548
 20
31.5069329918
 11
362.4621603548
 21
31.4424059016
 12
361.4793477997
 22
31.4424059016
 13
361.4793477997
 23
31.4424059016
  0
SOLID
  8
0
 62
7
  6
CONTINUOUS
 10
362.4621603548
 20
31.4424059016
 11
361.8840352445
 21
31.4101420472
 12
361.4793477997
 22
31.4424059016
 13
361.4793477997
 23
31.4424059016
  0
SOLID
  8
0
 62
7
  6
CONTINUOUS
 10
361.3637227445
 20
31.3778788115
 11
361.4793477997
 21
31.4424059016
 12
361.8840352445
 22
31.4101420472
 13
361.8840352445
 23
31.4101420472
  0
SOLID
  8
0
 62
7
  6
CONTINUOUS
 10
361.8840352445
 20
31.4101420472
 11
361.6527851343
 21
31.3778788115
 12
361.3637227445
 22
31.3778788115
 13
361.3637227445
 23
31.3778788115
  0
SOLID
  8
0
 62
7
  6
CONTINUOUS
 10
361.8840352445
 20
31.4101420472
 11
362.4621603548
 21
31.4424059016
 12
362.1152853548
 22
31.3778788115
 13
362.1152853548
 23
31.3778788115
  0
SOLID
  8
0
 62
7
  6
CONTINUOUS
 10
362.4621603548
 20
31.4424059016
 11
362.5777852445
 21
31.3778788115
 12
362.1152853548
 22
31.3778788115
 13
362.1152853548
 23
31.3778788115
  0
SOLID
  8
0
 62
7
  6
CONTINUOUS
 10
362.2309102445
 20
31.345614957
 11
362.1152853548
 21
31.3778788115
 12
362.5777852445
 22
31.3778788115
 13
362.5777852445
 23
31.3778788115
  0
SOLID
  8
0
 62
7
  6
CONTINUOUS
 10
362.5777852445
 20
31.3778788115
 11
362.6355978548
 21
31.3133517213
 12
362.2309102445
 22
31.345614957
 13
362.2309102445
 23
31.345614957
  0
SOLID
  8
0
 62
7
  6
CONTINUOUS
 10
362.3465351343
 20
31.2810878668
 11
362.2309102445
 21
31.345614957
 12
362.6355978548
 22
31.3133517213
 13
362.6355978548
 23
31.3133517213
  0
SOLID
  8
0
 62
7
  6
CONTINUOUS
 10
362.3465351343
 20
31.2810878668
 11
362.6355978548
 21
31.3133517213
 12
362.4043477445
 22
31.1520332377
 13
362.4043477445
 23
31.1520332377
  0
SOLID
  8
0
 62
7
  6
CONTINUOUS
 10
362.6355978548
 20
31.3133517213
 11
362.6934101343
 21
31.1520332377
 12
362.4043477445
 22
31.1520332377
 13
362.4043477445
 23
31.1520332377
  0
SOLID
  8
0
 62
7
  6
CONTINUOUS
 10
361.6527851343
 20
31.3778788115
 11
361.4793477997
 21
31.3133517213
 12
361.3637227445
 22
31.3778788115
 13
361.3637227445
 23
31.3778788115
  0
SOLID
  8
0
 62
7
  6
CONTINUOUS
 10
361.4793477997
 20
31.3133517213
 11
361.3637227445
 21
31.2488235635
 12
361.3637227445
 22
31.3778788115
 13
361.3637227445
 23
31.3778788115
  0
SOLID
  8
0
 62
7
  6
CONTINUOUS
 10
361.3637227445
 20
31.2488235635
 11
361.0746601894
 21
30.5067593033
 12
361.3637227445
 22
31.3778788115
 13
361.3637227445
 23
31.3778788115
  0
SOLID
  8
0
 62
7
  6
CONTINUOUS
 10
361.3637227445
 20
31.3778788115
 11
361.0746601894
 21
30.5067593033
 12
361.3637227445
 22
32.0231527459
 13
361.3637227445
 23
32.0231527459
  0
SOLID
  8
0
 62
7
  6
CONTINUOUS
 10
361.0746601894
 20
30.5067593033
 11
361.0746601894
 21
32.0231527459
 12
361.3637227445
 22
32.0231527459
 13
361.3637227445
 23
32.0231527459
  0
SOLID
  8
0
 62
7
  6
CONTINUOUS
 10
361.3637227445
 20
31.2488235635
 11
361.3637227445
 21
30.5067593033
 12
361.0746601894
 22
30.5067593033
 13
361.0746601894
 23
30.5067593033
  0
SOLID
  8
0
 62
7
  6
CONTINUOUS
 10
362.4043477445
 20
30.5067593033
 11
362.4043477445
 21
31.1520332377
 12
362.6934101343
 22
31.1520332377
 13
362.6934101343
 23
31.1520332377
  0
SOLID
  8
0
 62
7
  6
CONTINUOUS
 10
362.6934101343
 20
31.1520332377
 11
362.6934101343
 21
30.5067593033
 12
362.4043477445
 22
30.5067593033
 13
362.4043477445
 23
30.5067593033
  0
SOLID
  8
0
 62
7
  6
CONTINUOUS
 10
363.4449727445
 20
31.506933758
 11
363.8496603548
 21
31.5391977507
 12
364.1965353548
 22
31.5391977507
 13
364.1965353548
 23
31.5391977507
  0
SOLID
  8
0
 62
7
  6
CONTINUOUS
 10
364.1965353548
 20
31.5391977507
 11
364.543410024
 21
31.506933758
 12
363.4449727445
 22
31.506933758
 13
363.4449727445
 23
31.506933758
  0
SOLID
  8
0
 62
7
  6
CONTINUOUS
 10
363.3293478548
 20
31.4746706537
 11
363.4449727445
 21
31.506933758
 12
364.543410024
 22
31.506933758
 13
364.543410024
 23
31.506933758
  0
SOLID
  8
0
 62
7
  6
CONTINUOUS
 10
364.543410024
 20
31.506933758
 11
364.716847524
 21
31.4424063504
 12
363.3293478548
 22
31.4746706537
 13
363.3293478548
 23
31.4746706537
  0
SOLID
  8
0
 62
7
  6
CONTINUOUS
 10
363.2137226343
 20
31.4101417797
 11
363.3293478548
 21
31.4746706537
 12
364.716847524
 22
31.4424063504
 13
364.716847524
 23
31.4424063504
  0
SOLID
  8
0
 62
7
  6
CONTINUOUS
 10
363.2137226343
 20
31.4101417797
 11
364.716847524
 21
31.4424063504
 12
363.8496603548
 22
31.4101417797
 13
363.8496603548
 23
31.4101417797
  0
SOLID
  8
0
 62
7
  6
CONTINUOUS
 10
363.8496603548
 20
31.4101417797
 11
364.716847524
 21
31.4424063504
 12
364.1965353548
 22
31.4101417797
 13
364.1965353548
 23
31.4101417797
  0
SOLID
  8
0
 62
7
  6
CONTINUOUS
 10
364.1965353548
 20
31.4101417797
 11
364.716847524
 21
31.4424063504
 12
364.4277854651
 22
31.3778793357
 13
364.4277854651
 23
31.3778793357
  0
SOLID
  8
0
 62
7
  6
CONTINUOUS
 10
364.716847524
 20
31.4424063504
 11
364.8324727445
 21
31.3778793357
 12
364.4277854651
 22
31.3778793357
 13
364.4277854651
 23
31.3778793357
  0
SOLID
  8
0
 62
7
  6
CONTINUOUS
 10
363.1559103548
 20
31.3456153429
 11
363.2137226343
 21
31.4101417797
 12
363.8496603548
 22
31.4101417797
 13
363.8496603548
 23
31.4101417797
  0
SOLID
  8
0
 62
7
  6
CONTINUOUS
 10
364.543410024
 20
31.3456153429
 11
364.4277854651
 21
31.3778793357
 12
364.8324727445
 22
31.3778793357
 13
364.8324727445
 23
31.3778793357
  0
SOLID
  8
0
 62
7
  6
CONTINUOUS
 10
364.543410024
 20
31.3456153429
 11
364.8324727445
 21
31.3778793357
 12
364.6012229651
 22
31.2810881318
 13
364.6012229651
 23
31.2810881318
  0
SOLID
  8
0
 62
7
  6
CONTINUOUS
 10
364.8324727445
 20
31.3778793357
 11
364.890285024
 21
31.2810881318
 12
364.6012229651
 22
31.2810881318
 13
364.6012229651
 23
31.2810881318
  0
SOLID
  8
0
 62
7
  6
CONTINUOUS
 10
364.6012229651
 20
31.1842964734
 11
364.6012229651
 21
31.2810881318
 12
364.890285024
 22
31.2810881318
 13
364.890285024
 23
31.2810881318
  0
SOLID
  8
0
 62
7
  6
CONTINUOUS
 10
364.6012229651
 20
31.1842964734
 11
364.890285024
 21
31.2810881318
 12
364.6012229651
 22
31.0552422931
 13
364.6012229651
 23
31.0552422931
  0
SOLID
  8
0
 62
7
  6
CONTINUOUS
 10
364.6012229651
 20
31.0552422931
 11
364.890285024
 21
31.2810881318
 12
364.6012229651
 22
30.8616599362
 13
364.6012229651
 23
30.8616599362
  0
SOLID
  8
0
 62
7
  6
CONTINUOUS
 10
364.890285024
 20
31.2810881318
 11
364.890285024
 21
30.7648681127
 12
364.6012229651
 22
30.8616599362
 13
364.6012229651
 23
30.8616599362
  0
SOLID
  8
0
 62
7
  6
CONTINUOUS
 10
366.798097524
 20
31.5069339419
 11
367.0293479651
 21
31.5391976292
 12
367.2605977445
 22
31.5391976292
 13
367.2605977445
 23
31.5391976292
  0
SOLID
  8
0
 62
7
  6
CONTINUOUS
 10
367.2605977445
 20
31.5391976292
 11
367.4340352445
 21
31.5069339419
 12
366.798097524
 22
31.5069339419
 13
366.798097524
 23
31.5069339419
  0
SOLID
  8
0
 62
7
  6
CONTINUOUS
 10
366.624660024
 20
31.4424065674
 11
366.798097524
 21
31.5069339419
 12
367.4340352445
 22
31.5069339419
 13
367.4340352445
 23
31.5069339419
  0
SOLID
  8
0
 62
7
  6
CONTINUOUS
 10
367.4340352445
 20
31.5069339419
 11
367.6074727445
 21
31.4424065674
 12
366.624660024
 22
31.4424065674
 13
366.624660024
 23
31.4424065674
  0
SOLID
  8
0
 62
7
  6
CONTINUOUS
 10
367.6074727445
 20
31.4424065674
 11
367.0293479651
 21
31.4101420472
 12
366.624660024
 22
31.4424065674
 13
366.624660024
 23
31.4424065674
  0
SOLID
  8
0
 62
7
  6
CONTINUOUS
 10
366.5090354651
 20
31.377879193
 11
366.624660024
 21
31.4424065674
 12
367.0293479651
 22
31.4101420472
 13
367.0293479651
 23
31.4101420472
  0
SOLID
  8
0
 62
7
  6
CONTINUOUS
 10
367.0293479651
 20
31.4101420472
 11
366.798097524
 21
31.377879193
 12
366.5090354651
 22
31.377879193
 13
366.5090354651
 23
31.377879193
  0
SOLID
  8
0
 62
7
  6
CONTINUOUS
 10
367.0293479651
 20
31.4101420472
 11
367.6074727445
 21
31.4424065674
 12
367.2605977445
 22
31.377879193
 13
367.2605977445
 23
31.377879193
  0
SOLID
  8
0
 62
7
  6
CONTINUOUS
 10
367.6074727445
 20
31.4424065674
 11
367.7230979651
 21
31.377879193
 12
367.2605977445
 22
31.377879193
 13
367.2605977445
 23
31.377879193
  0
SOLID
  8
0
 62
7
  6
CONTINUOUS
 10
367.3762229651
 20
31.345614957
 11
367.2605977445
 21
31.377879193
 12
367.7230979651
 22
31.377879193
 13
367.7230979651
 23
31.377879193
  0
SOLID
  8
0
 62
7
  6
CONTINUOUS
 10
367.3762229651
 20
31.345614957
 11
367.7230979651
 21
31.377879193
 12
367.491847524
 22
31.2810881312
 13
367.491847524
 23
31.2810881312
  0
SOLID
  8
0
 62
7
  6
CONTINUOUS
 10
367.7230979651
 20
31.377879193
 11
367.7809102445
 21
31.2810881312
 12
367.491847524
 22
31.2810881312
 13
367.491847524
 23
31.2810881312
  0
SOLID
  8
0
 62
7
  6
CONTINUOUS
 10
367.5496604651
 20
31.119769695
 11
367.491847524
 21
31.2810881312
 12
367.7809102445
 22
31.2810881312
 13
367.7809102445
 23
31.2810881312
  0
SOLID
  8
0
 62
7
  6
CONTINUOUS
 10
367.7809102445
 20
31.2810881312
 11
367.838722524
 21
31.119769695
 12
367.5496604651
 22
31.119769695
 13
367.5496604651
 23
31.119769695
  0
SOLID
  8
0
 62
7
  6
CONTINUOUS
 10
366.798097524
 20
31.377879193
 11
366.624660024
 21
31.3133521701
 12
366.5090354651
 22
31.377879193
 13
366.5090354651
 23
31.377879193
  0
SOLID
  8
0
 62
7
  6
CONTINUOUS
 10
366.624660024
 20
31.3133521701
 11
366.5090354651
 21
31.2488235635
 12
366.5090354651
 22
31.377879193
 13
366.5090354651
 23
31.377879193
  0
SOLID
  8
0
 62
7
  6
CONTINUOUS
 10
366.5090354651
 20
31.2488235635
 11
366.2199727445
 21
30.5067596374
 12
366.5090354651
 22
31.377879193
 13
366.5090354651
 23
31.377879193
  0
SOLID
  8
0
 62
7
  6
CONTINUOUS
 10
366.5090354651
 20
31.377879193
 11
366.2199727445
 21
30.5067596374
 12
366.5090354651
 22
31.5391976292
 13
366.5090354651
 23
31.5391976292
  0
SOLID
  8
0
 62
7
  6
CONTINUOUS
 10
366.2199727445
 20
30.5067596374
 11
366.2199727445
 21
31.5391976292
 12
366.5090354651
 22
31.5391976292
 13
366.5090354651
 23
31.5391976292
  0
SOLID
  8
0
 62
7
  6
CONTINUOUS
 10
366.5090354651
 20
31.2488235635
 11
366.5090354651
 21
30.5067596374
 12
366.2199727445
 22
30.5067596374
 13
366.2199727445
 23
30.5067596374
  0
SOLID
  8
0
 62
7
  6
CONTINUOUS
 10
367.5496604651
 20
30.5067596374
 11
367.5496604651
 21
31.119769695
 12
367.838722524
 22
31.119769695
 13
367.838722524
 23
31.119769695
  0
SOLID
  8
0
 62
7
  6
CONTINUOUS
 10
367.838722524
 20
31.119769695
 11
367.838722524
 21
30.5067596374
 12
367.5496604651
 22
30.5067596374
 13
367.5496604651
 23
30.5067596374
  0
SOLID
  8
0
 62
7
  6
CONTINUOUS
 10
368.6480977445
 20
31.5069334157
 11
368.9949727445
 21
31.539197762
 12
369.3418477445
 22
31.539197762
 13
369.3418477445
 23
31.539197762
  0
SOLID
  8
0
 62
7
  6
CONTINUOUS
 10
369.3418477445
 20
31.539197762
 11
369.6887227445
 21
31.5069334157
 12
368.6480977445
 22
31.5069334157
 13
368.6480977445
 23
31.5069334157
  0
SOLID
  8
0
 62
7
  6
CONTINUOUS
 10
368.4168479651
 20
31.4424063504
 11
368.6480977445
 21
31.5069334157
 12
369.6887227445
 22
31.5069334157
 13
369.6887227445
 23
31.5069334157
  0
SOLID
  8
0
 62
7
  6
CONTINUOUS
 10
368.4168479651
 20
31.4424063504
 11
369.6887227445
 21
31.5069334406
 12
369.8621602445
 22
31.4746706537
 13
369.8621602445
 23
31.4746706537
  0
SOLID
  8
0
 62
7
  6
CONTINUOUS
 10
368.4168479651
 20
31.4424063504
 11
369.8621602445
 21
31.4746706537
 12
368.9949727445
 22
31.4101421267
 13
368.9949727445
 23
31.4101421267
  0
SOLID
  8
0
 62
7
  6
CONTINUOUS
 10
368.9949727445
 20
31.4101421267
 11
369.8621602445
 21
31.4746706537
 12
369.3418477445
 22
31.4101421267
 13
369.3418477445
 23
31.4101421267
  0
SOLID
  8
0
 62
7
  6
CONTINUOUS
 10
369.8621602445
 20
31.4746706537
 11
370.0355977445
 21
31.4101421267
 12
369.3418477445
 22
31.4101421267
 13
369.3418477445
 23
31.4101421267
  0
SOLID
  8
0
 62
7
  6
CONTINUOUS
 10
369.6887227445
 20
31.3778792603
 11
369.3418477445
 21
31.4101421267
 12
370.0355977445
 22
31.4101421267
 13
370.0355977445
 23
31.4101421267
  0
SOLID
  8
0
 62
7
  6
CONTINUOUS
 10
368.3012227445
 20
31.3456148845
 11
368.4168479651
 21
31.4424063504
 12
368.9949727445
 22
31.4101421267
 13
368.9949727445
 23
31.4101421267
  0
SOLID
  8
0
 62
7
  6
CONTINUOUS
 10
369.6887227445
 20
31.3778792603
 11
370.0355977445
 21
31.4101421267
 12
369.8043479651
 22
31.3456148845
 13
369.8043479651
 23
31.3456148845
  0
SOLID
  8
0
 62
7
  6
CONTINUOUS
 10
369.8043479651
 20
31.3456148845
 11
370.0355977445
 21
31.4101421267
 12
369.8621602445
 22
31.281087868
 13
369.8621602445
 23
31.281087868
  0
SOLID
  8
0
 62
7
  6
CONTINUOUS
 10
370.0355977445
 20
31.4101421267
 11
370.1512223035
 21
31.281087868
 12
369.8621602445
 22
31.281087868
 13
369.8621602445
 23
31.281087868
  0
SOLID
  8
0
 62
7
  6
CONTINUOUS
 10
359.4559102445
 20
31.3778792603
 11
358.9355977445
 21
31.3456148963
 12
359.6871602721
 22
31.4101421155
 13
359.6871602721
 23
31.4101421155
  0
SOLID
  8
0
 62
7
  6
CONTINUOUS
 10
358.9355977445
 20
31.3456148963
 11
359.0512227376
 21
31.4101421155
 12
359.6871602721
 22
31.4101421155
 13
359.6871602721
 23
31.4101421155
  0
SOLID
  8
0
 62
7
  6
CONTINUOUS
 10
359.4559102445
 20
31.3778792603
 11
359.3402852307
 21
31.3456148963
 12
358.9355977445
 22
31.3456148963
 13
358.9355977445
 23
31.3456148963
  0
SOLID
  8
0
 62
7
  6
CONTINUOUS
 10
358.8199727462
 20
31.2165607767
 11
358.9355977445
 21
31.3456148963
 12
359.3402852307
 22
31.3456148963
 13
359.3402852307
 23
31.3456148963
  0
SOLID
  8
0
 62
7
  6
CONTINUOUS
 10
363.1559103548
 20
31.3456149608
 11
363.8496603548
 21
31.4101420472
 12
363.6184102445
 22
31.3778792603
 13
363.6184102445
 23
31.3778792603
  0
SOLID
  8
0
 62
7
  6
CONTINUOUS
 10
363.6184102445
 20
31.3778792603
 11
363.5027853548
 21
31.3456149608
 12
363.1559103548
 22
31.3456149608
 13
363.1559103548
 23
31.3456149608
  0
SOLID
  8
0
 62
7
  6
CONTINUOUS
 10
363.1559103548
 20
31.2810878707
 11
363.1559103548
 21
31.3456149608
 12
363.5027853548
 22
31.3456149608
 13
363.5027853548
 23
31.3456149608
  0
SOLID
  8
0
 62
7
  6
CONTINUOUS
 10
363.5027853548
 20
31.3456149608
 11
363.4449727445
 21
31.2810878707
 12
363.1559103548
 22
31.2810878707
 13
363.1559103548
 23
31.2810878707
  0
SOLID
  8
0
 62
7
  6
CONTINUOUS
 10
368.3012227445
 20
31.3456149608
 11
368.9949727445
 21
31.4101420472
 12
368.7637229651
 22
31.3778792603
 13
368.7637229651
 23
31.3778792603
  0
SOLID
  8
0
 62
7
  6
CONTINUOUS
 10
368.7637229651
 20
31.3778792603
 11
368.6480977445
 21
31.3456149608
 12
368.3012227445
 22
31.3456149608
 13
368.3012227445
 23
31.3456149608
  0
SOLID
  8
0
 62
7
  6
CONTINUOUS
 10
368.3012227445
 20
31.2810878707
 11
368.3012227445
 21
31.3456149608
 12
368.6480977445
 22
31.3456149608
 13
368.6480977445
 23
31.3456149608
  0
SOLID
  8
0
 62
7
  6
CONTINUOUS
 10
368.6480977445
 20
31.3456149608
 11
368.5902854651
 21
31.2810878707
 12
368.3012227445
 22
31.2810878707
 13
368.3012227445
 23
31.2810878707
  0
SOLID
  8
0
 62
7
  6
CONTINUOUS
 10
368.4168479651
 20
31.1520336865
 11
368.3012227445
 21
31.2810878707
 12
368.5902854651
 22
31.2810878707
 13
368.5902854651
 23
31.2810878707
  0
SOLID
  8
0
 62
7
  6
CONTINUOUS
 10
358.8199727462
 20
31.2165607767
 11
359.3402852307
 21
31.345614957
 12
359.1668477307
 22
31.2488235635
 13
359.1668477307
 23
31.2488235635
  0
SOLID
  8
0
 62
7
  6
CONTINUOUS
 10
359.1668477307
 20
31.2488235635
 11
359.1090352445
 21
31.1842964734
 12
358.8199727462
 22
31.2165607767
 13
358.8199727462
 23
31.2165607767
  0
SOLID
  8
0
 62
7
  6
CONTINUOUS
 10
358.7621602445
 20
31.0229779898
 11
358.8199727462
 21
31.2165607767
 12
359.1090352445
 22
31.1842964734
 13
359.1090352445
 23
31.1842964734
  0
SOLID
  8
0
 62
7
  6
CONTINUOUS
 10
363.6184102445
 20
31.1520336865
 11
363.9652852445
 21
31.1842964611
 12
364.6012229651
 22
31.1842964611
 13
364.6012229651
 23
31.1842964611
  0
SOLID
  8
0
 62
7
  6
CONTINUOUS
 10
363.6184102445
 20
31.1520336865
 11
364.6012229651
 21
31.1842964611
 12
363.3871601343
 22
31.0875057863
 13
363.3871601343
 23
31.0875057863
  0
SOLID
  8
0
 62
7
  6
CONTINUOUS
 10
363.3871601343
 20
31.0875057863
 11
364.6012229651
 21
31.1842964611
 12
363.9652852445
 22
31.0552422808
 13
363.9652852445
 23
31.0552422808
  0
SOLID
  8
0
 62
7
  6
CONTINUOUS
 10
364.6012229651
 20
31.1842964611
 11
364.6012229651
 21
31.0552422808
 12
363.9652852445
 22
31.0552422808
 13
363.9652852445
 23
31.0552422808
  0
SOLID
  8
0
 62
7
  6
CONTINUOUS
 10
368.4168479651
 20
31.1520338754
 11
368.5902854651
 21
31.2810878668
 12
368.6480977445
 22
31.2165607767
 13
368.6480977445
 23
31.2165607767
  0
SOLID
  8
0
 62
7
  6
CONTINUOUS
 10
368.6480977445
 20
31.2165607767
 11
368.8215352445
 21
31.1520338754
 12
368.4168479651
 22
31.1520338754
 13
368.4168479651
 23
31.1520338754
  0
SOLID
  8
0
 62
7
  6
CONTINUOUS
 10
368.6480977445
 20
31.0552422931
 11
368.4168479651
 21
31.1520338754
 12
368.8215352445
 22
31.1520338754
 13
368.8215352445
 23
31.1520338754
  0
SOLID
  8
0
 62
7
  6
CONTINUOUS
 10
368.8215352445
 20
31.1520338754
 11
369.8043479651
 21
30.9907152029
 12
368.6480977445
 22
31.0552422931
 13
368.6480977445
 23
31.0552422931
  0
SOLID
  8
0
 62
7
  6
CONTINUOUS
 10
369.6309104651
 20
30.8939239876
 11
368.6480977445
 21
31.0552422931
 12
369.8043479651
 22
30.9907152029
 13
369.8043479651
 23
30.9907152029
  0
SOLID
  8
0
 62
7
  6
CONTINUOUS
 10
369.8043479651
 20
30.9907152029
 11
370.0355977445
 21
30.8939239876
 12
369.6309104651
 22
30.8939239876
 13
369.6309104651
 23
30.8939239876
  0
SOLID
  8
0
 62
7
  6
CONTINUOUS
 10
369.8043479651
 20
30.8293967193
 11
369.6309104651
 21
30.8939239876
 12
370.0355977445
 22
30.8939239876
 13
370.0355977445
 23
30.8939239876
  0
SOLID
  8
0
 62
7
  6
CONTINUOUS
 10
369.8043479651
 20
30.8293967193
 11
370.0355977445
 21
30.8939239876
 12
369.8621602445
 22
30.7648682694
 13
369.8621602445
 23
30.7648682694
  0
SOLID
  8
0
 62
7
  6
CONTINUOUS
 10
370.0355977445
 20
30.8939239876
 11
370.1512223035
 21
30.7648682694
 12
369.8621602445
 22
30.7648682694
 13
369.8621602445
 23
30.7648682694
  0
SOLID
  8
0
 62
7
  6
CONTINUOUS
 10
369.8043479651
 20
30.7003411846
 11
369.8621602445
 21
30.7648682694
 12
370.1512223035
 22
30.7648682694
 13
370.1512223035
 23
30.7648682694
  0
SOLID
  8
0
 62
7
  6
CONTINUOUS
 10
370.1512223035
 20
30.7648682694
 11
370.1512223035
 21
30.7003411846
 12
369.8043479651
 22
30.7003411846
 13
369.8043479651
 23
30.7003411846
  0
SOLID
  8
0
 62
7
  6
CONTINUOUS
 10
369.6887227445
 20
30.6680782357
 11
369.8043479651
 21
30.7003411846
 12
370.1512223035
 22
30.7003411846
 13
370.1512223035
 23
30.7003411846
  0
SOLID
  8
0
 62
7
  6
CONTINUOUS
 10
369.6887227445
 20
30.6680782357
 11
370.1512223035
 21
30.7003411846
 12
369.4574729651
 22
30.6358140998
 13
369.4574729651
 23
30.6358140998
  0
SOLID
  8
0
 62
7
  6
CONTINUOUS
 10
370.1512223035
 20
30.7003411846
 11
370.0355977445
 21
30.6035511455
 12
369.4574729651
 22
30.6358140998
 13
369.4574729651
 23
30.6358140998
  0
SOLID
  8
0
 62
7
  6
CONTINUOUS
 10
370.0355977445
 20
30.6035511455
 11
368.5902854651
 21
30.5712868422
 12
369.4574729651
 22
30.6358140998
 13
369.4574729651
 23
30.6358140998
  0
SOLID
  8
0
 62
7
  6
CONTINUOUS
 10
369.4574729651
 20
30.6358140998
 11
368.5902854651
 21
30.5712868422
 12
369.1105979651
 22
30.6358140998
 13
369.1105979651
 23
30.6358140998
  0
SOLID
  8
0
 62
7
  6
CONTINUOUS
 10
368.5902854651
 20
30.5712868422
 11
368.4168479651
 21
30.6358140998
 12
369.1105979651
 22
30.6358140998
 13
369.1105979651
 23
30.6358140998
  0
SOLID
  8
0
 62
7
  6
CONTINUOUS
 10
368.5902854651
 20
30.5712868422
 11
370.0355977445
 21
30.6035511455
 12
368.7637229651
 22
30.5390223111
 13
368.7637229651
 23
30.5390223111
  0
SOLID
  8
0
 62
7
  6
CONTINUOUS
 10
370.0355977445
 20
30.6035511455
 11
369.8043479651
 21
30.5390223111
 12
368.7637229651
 22
30.5390223111
 13
368.7637229651
 23
30.5390223111
  0
SOLID
  8
0
 62
7
  6
CONTINUOUS
 10
369.1105979651
 20
30.5067599302
 11
368.7637229651
 21
30.5390223111
 12
369.8043479651
 22
30.5390223111
 13
369.8043479651
 23
30.5390223111
  0
SOLID
  8
0
 62
7
  6
CONTINUOUS
 10
369.8043479651
 20
30.5390223111
 11
369.4574729651
 21
30.5067599302
 12
369.1105979651
 22
30.5067599302
 13
369.1105979651
 23
30.5067599302
  0
SOLID
  8
0
 62
7
  6
CONTINUOUS
 10
358.7621602445
 20
31.0229779898
 11
359.1090352445
 21
31.1842964734
 12
359.0512227376
 22
31.0552422931
 13
359.0512227376
 23
31.0552422931
  0
SOLID
  8
0
 62
7
  6
CONTINUOUS
 10
359.0512227376
 20
31.0552422931
 11
359.0512227376
 21
30.9584509954
 12
358.7621602445
 22
31.0229779898
 13
358.7621602445
 23
31.0229779898
  0
SOLID
  8
0
 62
7
  6
CONTINUOUS
 10
358.8199727462
 20
30.8293967193
 11
358.7621602445
 21
31.0229779898
 12
359.0512227376
 22
30.9584509954
 13
359.0512227376
 23
30.9584509954
  0
SOLID
  8
0
 62
7
  6
CONTINUOUS
 10
359.0512227376
 20
30.9584509954
 11
359.1668477307
 21
30.797132416
 12
358.8199727462
 22
30.8293967193
 13
358.8199727462
 23
30.8293967193
  0
SOLID
  8
0
 62
7
  6
CONTINUOUS
 10
358.9355977445
 20
30.7003413087
 11
358.8199727462
 21
30.8293967193
 12
359.1668477307
 22
30.797132416
 13
359.1668477307
 23
30.797132416
  0
SOLID
  8
0
 62
7
  6
CONTINUOUS
 10
359.1668477307
 20
30.797132416
 11
359.3402852307
 21
30.7003413087
 12
358.9355977445
 22
30.7003413087
 13
358.9355977445
 23
30.7003413087
  0
SOLID
  8
0
 62
7
  6
CONTINUOUS
 10
359.0512227376
 20
30.6358140759
 11
358.9355977445
 21
30.7003413087
 12
359.3402852307
 22
30.7003413087
 13
359.3402852307
 23
30.7003413087
  0
SOLID
  8
0
 62
7
  6
CONTINUOUS
 10
359.3402852307
 20
30.7003413087
 11
359.6871602721
 21
30.6358140759
 12
359.0512227376
 22
30.6358140759
 13
359.0512227376
 23
30.6358140759
  0
SOLID
  8
0
 62
7
  6
CONTINUOUS
 10
359.2246602583
 20
30.5712868422
 11
359.0512227376
 21
30.6358140759
 12
359.6871602721
 22
30.6358140759
 13
359.6871602721
 23
30.6358140759
  0
SOLID
  8
0
 62
7
  6
CONTINUOUS
 10
363.2715352445
 20
31.0229779808
 11
363.3871601343
 21
31.0875057863
 12
363.9652852445
 22
31.0552422931
 13
363.9652852445
 23
31.0552422931
  0
SOLID
  8
0
 62
7
  6
CONTINUOUS
 10
363.9652852445
 20
31.0552422931
 11
363.7340351343
 21
31.0229779808
 12
363.2715352445
 22
31.0229779808
 13
363.2715352445
 23
31.0229779808
  0
SOLID
  8
0
 62
7
  6
CONTINUOUS
 10
363.1559103548
 20
30.8939238094
 11
363.2715352445
 21
31.0229779808
 12
363.7340351343
 22
31.0229779808
 13
363.7340351343
 23
31.0229779808
  0
SOLID
  8
0
 62
7
  6
CONTINUOUS
 10
363.5027853548
 20
30.926187309
 11
363.1559103548
 21
30.8939238094
 12
363.6184102445
 22
30.9907152029
 13
363.6184102445
 23
30.9907152029
  0
SOLID
  8
0
 62
7
  6
CONTINUOUS
 10
363.1559103548
 20
30.8939238094
 11
363.7340351343
 21
31.0229779898
 12
363.6184102445
 22
30.9907152029
 13
363.6184102445
 23
30.9907152029
  0
SOLID
  8
0
 62
7
  6
CONTINUOUS
 10
363.5027853548
 20
30.926187309
 11
363.4449727445
 21
30.8293967193
 12
363.1559103548
 22
30.8939238094
 13
363.1559103548
 23
30.8939238094
  0
SOLID
  8
0
 62
7
  6
CONTINUOUS
 10
363.1559103548
 20
30.797132416
 11
363.1559103548
 21
30.8939238094
 12
363.4449727445
 22
30.8293967193
 13
363.4449727445
 23
30.8293967193
  0
SOLID
  8
0
 62
7
  6
CONTINUOUS
 10
363.4449727445
 20
30.8293967193
 11
363.4449727445
 21
30.7648681127
 12
363.1559103548
 22
30.797132416
 13
363.1559103548
 23
30.797132416
  0
SOLID
  8
0
 62
7
  6
CONTINUOUS
 10
363.2137226343
 20
30.6680782357
 11
363.1559103548
 21
30.797132416
 12
363.4449727445
 22
30.7648681127
 13
363.4449727445
 23
30.7648681127
  0
SOLID
  8
0
 62
7
  6
CONTINUOUS
 10
364.6012229651
 20
30.8616599362
 11
364.890285024
 21
30.7648681127
 12
364.543410024
 22
30.797132416
 13
364.543410024
 23
30.797132416
  0
SOLID
  8
0
 62
7
  6
CONTINUOUS
 10
364.369972524
 20
30.7003410226
 11
364.543410024
 21
30.797132416
 12
364.890285024
 22
30.7648681127
 13
364.890285024
 23
30.7648681127
  0
SOLID
  8
0
 62
7
  6
CONTINUOUS
 10
364.369972524
 20
30.7003410226
 11
364.890285024
 21
30.7648681127
 12
364.6012229651
 22
30.6680782357
 13
364.6012229651
 23
30.6680782357
  0
SOLID
  8
0
 62
7
  6
CONTINUOUS
 10
364.890285024
 20
30.7648681127
 11
364.9480979651
 21
30.6035511455
 12
364.6012229651
 22
30.6680782357
 13
364.6012229651
 23
30.6680782357
  0
SOLID
  8
0
 62
7
  6
CONTINUOUS
 10
364.6590352445
 20
30.5712868422
 11
364.6012229651
 21
30.6680782357
 12
364.9480979651
 22
30.6035511455
 13
364.9480979651
 23
30.6035511455
  0
SOLID
  8
0
 62
7
  6
CONTINUOUS
 10
364.6590352445
 20
30.5712868422
 11
364.9480979651
 21
30.6035511455
 12
364.716847524
 22
30.5067598731
 13
364.716847524
 23
30.5067598731
  0
SOLID
  8
0
 62
7
  6
CONTINUOUS
 10
364.9480979651
 20
30.6035511455
 11
365.0059102445
 21
30.5067598731
 12
364.716847524
 22
30.5067598731
 13
364.716847524
 23
30.5067598731
  0
SOLID
  8
0
 62
7
  6
CONTINUOUS
 10
360.2652852997
 20
30.7326051679
 11
360.3230977445
 21
30.8293966612
 12
360.6121602997
 22
30.8293966612
 13
360.6121602997
 23
30.8293966612
  0
SOLID
  8
0
 62
7
  6
CONTINUOUS
 10
360.6121602997
 20
30.8293966612
 11
360.5543476894
 21
30.7003410226
 12
360.2652852997
 22
30.7326051679
 13
360.2652852997
 23
30.7326051679
  0
SOLID
  8
0
 62
7
  6
CONTINUOUS
 10
360.091847717
 20
30.6680782357
 11
360.2652852997
 21
30.7326051679
 12
360.5543476894
 22
30.7003410226
 13
360.5543476894
 23
30.7003410226
  0
SOLID
  8
0
 62
7
  6
CONTINUOUS
 10
360.091847717
 20
30.6680782357
 11
360.5543476894
 21
30.7003410226
 12
359.6871602721
 22
30.6358139324
 13
359.6871602721
 23
30.6358139324
  0
SOLID
  8
0
 62
7
  6
CONTINUOUS
 10
360.5543476894
 20
30.7003410226
 11
360.3809101894
 21
30.6035511455
 12
359.6871602721
 22
30.6358139324
 13
359.6871602721
 23
30.6358139324
  0
SOLID
  8
0
 62
7
  6
CONTINUOUS
 10
359.2246602583
 20
30.5712868422
 11
359.6871602721
 21
30.6358139324
 12
360.3809101894
 22
30.6035511455
 13
360.3809101894
 23
30.6035511455
  0
SOLID
  8
0
 62
7
  6
CONTINUOUS
 10
359.2246602583
 20
30.5712868422
 11
360.3809101894
 21
30.6035511455
 12
359.3980977583
 22
30.5390224228
 13
359.3980977583
 23
30.5390224228
  0
SOLID
  8
0
 62
7
  6
CONTINUOUS
 10
360.3809101894
 20
30.6035511455
 11
360.1496602445
 21
30.5390224228
 12
359.3980977583
 22
30.5390224228
 13
359.3980977583
 23
30.5390224228
  0
SOLID
  8
0
 62
7
  6
CONTINUOUS
 10
359.744972717
 20
30.5067597521
 11
359.3980977583
 21
30.5390224228
 12
360.1496602445
 22
30.5390224228
 13
360.1496602445
 23
30.5390224228
  0
SOLID
  8
0
 62
7
  6
CONTINUOUS
 10
363.2137226343
 20
30.6680782357
 11
363.4449727445
 21
30.7648681127
 12
363.5027853548
 22
30.7003410226
 13
363.5027853548
 23
30.7003410226
  0
SOLID
  8
0
 62
7
  6
CONTINUOUS
 10
363.5027853548
 20
30.7003410226
 11
363.7340351343
 21
30.6358139324
 12
363.2137226343
 22
30.6680782357
 13
363.2137226343
 23
30.6680782357
  0
SOLID
  8
0
 62
7
  6
CONTINUOUS
 10
363.3871601343
 20
30.5712868422
 11
363.2137226343
 21
30.6680782357
 12
363.7340351343
 22
30.6358139324
 13
363.7340351343
 23
30.6358139324
  0
SOLID
  8
0
 62
7
  6
CONTINUOUS
 10
364.0809101343
 20
30.6358139363
 11
364.369972524
 21
30.7003410226
 12
364.6012229651
 22
30.6680782357
 13
364.6012229651
 23
30.6680782357
  0
SOLID
  8
0
 62
7
  6
CONTINUOUS
 10
364.6012229651
 20
30.6680782357
 11
364.543410024
 21
30.6035511455
 12
364.0809101343
 22
30.6358139363
 13
364.0809101343
 23
30.6358139363
  0
SOLID
  8
0
 62
7
  6
CONTINUOUS
 10
364.543410024
 20
30.6035511455
 11
363.3871601343
 21
30.5712868422
 12
364.0809101343
 22
30.6358139363
 13
364.0809101343
 23
30.6358139363
  0
SOLID
  8
0
 62
7
  6
CONTINUOUS
 10
363.3871601343
 20
30.5712868422
 11
363.7340351343
 21
30.6358139363
 12
364.0809101343
 22
30.6358139363
 13
364.0809101343
 23
30.6358139363
  0
SOLID
  8
0
 62
7
  6
CONTINUOUS
 10
363.3871601343
 20
30.5712868422
 11
364.543410024
 21
30.6035511455
 12
363.5027853548
 22
30.5390225267
 13
363.5027853548
 23
30.5390225267
  0
SOLID
  8
0
 62
7
  6
CONTINUOUS
 10
364.543410024
 20
30.6035511455
 11
364.369972524
 21
30.5390225267
 12
363.5027853548
 22
30.5390225267
 13
363.5027853548
 23
30.5390225267
  0
SOLID
  8
0
 62
7
  6
CONTINUOUS
 10
363.7340351343
 20
30.5067596914
 11
363.5027853548
 21
30.5390225267
 12
364.369972524
 22
30.5390225267
 13
364.369972524
 23
30.5390225267
  0
SOLID
  8
0
 62
7
  6
CONTINUOUS
 10
364.369972524
 20
30.5390225267
 11
364.0809101343
 21
30.5067596914
 12
363.7340351343
 22
30.5067596914
 13
363.7340351343
 23
30.5067596914
  0
SOLID
  8
0
 62
7
  6
CONTINUOUS
 10
368.7637229651
 20
30.6680782357
 11
368.4168479651
 21
30.6358138717
 12
368.6480977445
 22
30.7003410226
 13
368.6480977445
 23
30.7003410226
  0
SOLID
  8
0
 62
7
  6
CONTINUOUS
 10
368.6480977445
 20
30.7003410226
 11
368.4168479651
 21
30.6358138717
 12
368.5902854651
 22
30.7648680521
 13
368.5902854651
 23
30.7648680521
  0
SOLID
  8
0
 62
7
  6
CONTINUOUS
 10
368.4168479651
 20
30.6358138717
 11
368.3012227445
 21
30.7648680521
 12
368.5902854651
 22
30.7648680521
 13
368.5902854651
 23
30.7648680521
  0
SOLID
  8
0
 62
7
  6
CONTINUOUS
 10
368.7637229651
 20
30.6680782357
 11
369.1105979651
 21
30.6358138717
 12
368.4168479651
 22
30.6358138717
 13
368.4168479651
 23
30.6358138717
  0
SOLID
  8
0
 62
7
  6
CONTINUOUS
 10
365.4684104651
 20
30.5067597521
 11
365.4684104651
 21
31.5391977439
 12
365.757472524
 22
30.5067597521
 13
365.757472524
 23
31.5391977439
  0
ENDBLK
  8
0
  6
BYBLOCK
 62
0
  0
BLOCK
  8
0
 62
2
  6
CONTINUOUS
  2
SYMBOL_0_BL0
 70
64
 10
240.8592468615
 20
19.762288695
  0
TEXT
  8
0
 62
7
  6
CONTINUOUS
 10
227.1239507038
 20
19.1357028027
  7
TEXTSTYLE_3
 40
2.7338706658
  1
Ammeraal Beltech
 41
1.0
 51
15.0
 72
0
  0
TEXT
  8
0
 62
7
  6
CONTINUOUS
 10
237.9247515296
 20
16.8621661299
  7
TEXTSTYLE_4
 40
1.0935482663
  1
Innovation & Service in Belting
 41
1.0
 72
0
  0
LINE
  8
0
 62
7
  6
CONTINUOUS
 10
221.0994100525
 20
19.9022961113
 11
221.8775620458
 21
23.5632134089
  0
LINE
  8
0
 62
7
  6
CONTINUOUS
 10
231.9727303357
 20
27.2266073205
 11
222.3653797889
 21
24.1049898993
  0
LINE
  8
0
 62
7
  6
CONTINUOUS
 10
221.3246933848
 20
19.2089453082
 11
228.8317686459
 21
12.4495443822
  0
LINE
  8
0
 62
7
  6
CONTINUOUS
 10
221.5872277955
 20
20.4440726016
 11
232.3954971607
 21
23.9558922005
  0
LINE
  8
0
 62
7
  6
CONTINUOUS
 10
232.3912920235
 20
13.6061036368
 11
223.9458323548
 21
21.2104296785
  0
LINE
  8
0
 62
7
  6
CONTINUOUS
 10
232.9111147433
 20
26.3816822048
 11
231.9345552061
 21
21.7873308023
  0
LINE
  8
0
 62
7
  6
CONTINUOUS
 10
231.2347532584
 20
18.4950214885
 11
230.5483050469
 21
15.2655365641
  0
LINE
  8
0
 62
7
  6
CONTINUOUS
 10
233.5922108419
 20
13.9963058145
 11
234.5484423775
 21
18.4950214885
  0
LINE
  8
0
 62
7
  6
CONTINUOUS
 10
235.2482443252
 20
21.7873308023
 11
235.6924861276
 21
23.8773241617
  0
LINE
  8
0
 62
7
  6
CONTINUOUS
 10
229.5448697213
 20
12.2979700695
 11
233.1043930989
 21
13.4545293241
  0
LINE
  8
0
 62
7
  6
CONTINUOUS
 10
232.685831411
 20
27.0750330078
 11
235.4672027953
 21
24.5706749648
  0
ARC
  8
0
 62
7
  6
CONTINUOUS
 10
222.5906631212
 20
23.4116390962
 40
0.7290321776
 50
108.0
 51
168.0
  0
ARC
  8
0
 62
7
  6
CONTINUOUS
 10
232.198013668
 20
26.5332565175
 40
0.7290321776
 50
348.0
 51
108.0
  0
ARC
  8
0
 62
7
  6
CONTINUOUS
 10
234.9793850522
 20
24.0288984744
 40
0.7290321776
 50
348.0
 51
48.0
  0
ARC
  8
0
 62
7
  6
CONTINUOUS
 10
229.319586389
 20
12.9913208726
 40
0.7290321776
 50
228.0
 51
288.0
  0
ARC
  8
0
 62
7
  6
CONTINUOUS
 10
221.8125111278
 20
19.7507217986
 40
0.7290321776
 50
108.0
 51
228.0
  0
ARC
  8
0
 62
7
  6
CONTINUOUS
 10
232.8791097665
 20
14.1478801272
 40
0.7290321776
 50
228.0
 51
348.0
  0
ENDBLK
  8
0
  6
BYBLOCK
 62
0
  0
ENDSEC
  0
SECTION
  2
ENTITIES
  0
TEXT
  8
0
 62
5
  6
CONTINUOUS
 10
304.937007874
 20
25.636
  7
TEXTSTYLE_2
 40
2.8
  1
Scale :
 41
0.6
 51
0.000019
 72
0
  0
TEXT
  8
0
 62
5
  6
CONTINUOUS
 10
324.937007874
 20
25.636
  7
TEXTSTYLE_2
 40
2.8
  1
Belt type:
 41
0.6
 51
0.000019
 72
0
  0
INSERT
  8
0
 62
2
  6
CONTINUOUS
  2
SYMBOL_0_BL0
 10
240.8592468615
 20
19.762288695
  0
INSERT
  8
0
 62
2
  6
CONTINUOUS
  2
SYMBOL_5_BL1
 10
382.7840918555
 20
35.5067593403
  0
LINE
  8
0
 62
2
  6
CONTINUOUS
 10
218.937007874
 20
30.0
 11
408.937007874
 21
30.0
  0
LINE
  8
0
 62
2
  6
CONTINUOUS
 10
218.937007874
 20
30.0
 11
218.937007874
 21
10.0
  0
LINE
  8
0
 62
2
  6
CONTINUOUS
 10
218.937007874
 20
10.0
 11
408.937007874
 21
10.0
  0
LINE
  8
0
 62
2
  6
CONTINUOUS
 10
303.937007874
 20
30.0
 11
303.937007874
 21
10.0
  0
LINE
  8
0
 62
2
  6
CONTINUOUS
 10
323.937007874
 20
30.0
 11
323.937007874
 21
10.0
  0
LINE
  8
0
 62
2
  6
CONTINUOUS
 10
408.937007874
 20
30.0
 11
408.937007874
 21
10.0
  0
TEXT
  8
0
 62
5
  6
CONTINUOUS
 10
221.937007874
 20
23.303
  7
TEXTSTYLE_5
 40
1.52
  1
                                                                     Ammeraal Beltech Modular A/S
 41
1.0
 72
0
  0
TEXT
  8
0
 62
5
  6
CONTINUOUS
 10
221.937007874
 20
20.595
  7
TEXTSTYLE_5
 40
1.5
  1
                                                                      Hjulmagervej 21, 7100 Vejle,  DK
 41
1.0
 72
0
  0
TEXT
  8
0
 62
5
  6
CONTINUOUS
 10
221.937007874
 20
17.881
  7
TEXTSTYLE_5
 40
1.495
  1
                                                                      tel: 
 41
1.0
 72
0
  0
TEXT
  8
0
 62
5
  6
CONTINUOUS
 10
266.9239544389
 20
17.881
  7
TEXTSTYLE_5
 40
1.51
  1
+45 75723100     fax: +45 75723348
 41
1.0
 72
0
  0
TEXT
  8
0
 62
5
  6
CONTINUOUS
 10
221.937007874
 20
15.177
  7
TEXTSTYLE_5
 40
1.5
  1
                                                                      admin@unichains.dk  www.unichains.com
 41
1.0
 72
0
  0
TEXT
  8
0
 62
5
  6
CONTINUOUS
 10
308.687007874
 20
13.75
  7
TEXTSTYLE_6
 40
5.0
  1
1:1
 41
0.7
 72
1
 11
313.937007874
 21
13.75
  0
TEXT
  8
0
 62
5
  6
CONTINUOUS
 10
326.937007874
 20
13.75
  7
TEXTSTYLE_7
 40
7.5
  1
uni Flex ASB-43 K580
 41
0.49875
 72
0
  0
LINE
  8
0
 62
7
  6
CONTINUOUS
 10
0.0
 20
0.0
 11
0.0
 21
297.0
  0
LINE
  8
0
 62
7
  6
CONTINUOUS
 10
8.937007874
 20
10.0
 11
8.937007874
 21
287.0
  0
LINE
  8
0
 62
7
  6
CONTINUOUS
 10
0.0
 20
0.0
 11
420.0
 21
0.0
  0
LINE
  8
0
 62
7
  6
CONTINUOUS
 10
408.937007874
 20
10.0
 11
8.937007874
 21
10.0
  0
LINE
  8
0
 62
7
  6
CONTINUOUS
 10
218.937007874
 20
30.0
 11
408.937007874
 21
30.0
  0
LINE
  8
0
 62
7
  6
CONTINUOUS
 10
210.0
 20
297.0
 11
210.0
 21
292.0
  0
LINE
  8
0
 62
7
  6
CONTINUOUS
 10
210.0
 20
0.0
 11
210.0
 21
5.0
  0
LINE
  8
0
 62
7
  6
CONTINUOUS
 10
8.937007874
 20
287.0
 11
408.937007874
 21
287.0
  0
LINE
  8
0
 62
7
  6
CONTINUOUS
 10
0.0
 20
297.0
 11
420.0
 21
297.0
  0
LINE
  8
0
 62
7
  6
CONTINUOUS
 10
408.937007874
 20
287.0
 11
408.937007874
 21
10.0
  0
LINE
  8
0
 62
7
  6
CONTINUOUS
 10
420.0
 20
0.0
 11
420.0
 21
297.0
  0
LINE
  8
0
 62
7
  6
CONTINUOUS
 10
79.9081568573
 20
243.3085145868
 11
79.9081568573
 21
232.5776337035
  0
LINE
  8
0
 62
7
  6
CONTINUOUS
 10
87.2831712204
 20
233.1776337035
 11
87.2831712204
 21
243.6776337035
  0
LINE
  8
0
 62
7
  6
CONTINUOUS
 10
93.2831424941
 20
233.1776337035
 11
93.2831424941
 21
243.6776337035
  0
POLYLINE
  8
AXES
 62
7
  6
CONTINUOUS
 66
1
 70
0
  0
VERTEX
  8
AXES
 62
7
  6
CONTINUOUS
 10
87.2831712204
 20
237.4446443936
  0
VERTEX
  8
AXES
 62
7
  6
CONTINUOUS
 10
87.2511243855
 20
237.5559298234
  0
VERTEX
  8
AXES
 62
7
  6
CONTINUOUS
 10
87.2071006175
 20
237.7474093511
  0
VERTEX
  8
AXES
 62
7
  6
CONTINUOUS
 10
87.173774804
 20
237.9409821058
  0
VERTEX
  8
AXES
 62
7
  6
CONTINUOUS
 10
87.1514852639
 20
238.1353977881
  0
VERTEX
  8
AXES
 62
7
  6
CONTINUOUS
 10
87.1403175582
 20
238.3304628997
  0
VERTEX
  8
AXES
 62
7
  6
CONTINUOUS
 10
87.140327533
 20
238.5251531126
  0
VERTEX
  8
AXES
 62
7
  6
CONTINUOUS
 10
87.1515159986
 20
238.7202269389
  0
VERTEX
  8
AXES
 62
7
  6
CONTINUOUS
 10
87.1738239824
 20
238.9146281502
  0
VERTEX
  8
AXES
 62
7
  6
CONTINUOUS
 10
87.207170005
 20
239.1082031048
  0
VERTEX
  8
AXES
 62
7
  6
CONTINUOUS
 10
87.2512101794
 20
239.299668782
  0
VERTEX
  8
AXES
 62
7
  6
CONTINUOUS
 10
87.2831712204
 20
239.4106174654
  0
SEQEND
  0
LINE
  8
0
 62
7
  6
CONTINUOUS
 10
101.6081568573
 20
236.3282780255
 11
101.6081568573
 21
232.5776337035
  0
LINE
  8
0
 62
7
  6
CONTINUOUS
 10
102.9081712204
 20
233.4413734284
 11
102.9081712204
 21
243.6776337035
  0
POLYLINE
  8
AXES
 62
7
  6
CONTINUOUS
 66
1
 70
0
  0
VERTEX
  8
AXES
 62
7
  6
CONTINUOUS
 10
102.9081712204
 20
237.1066144912
  0
VERTEX
  8
AXES
 62
7
  6
CONTINUOUS
 10
102.9043898442
 20
237.0662954011
  0
VERTEX
  8
AXES
 62
7
  6
CONTINUOUS
 10
102.8942917726
 20
237.0323320413
  0
VERTEX
  8
AXES
 62
7
  6
CONTINUOUS
 10
102.8791433552
 20
237.003980785
  0
VERTEX
  8
AXES
 62
7
  6
CONTINUOUS
 10
102.8602764737
 20
236.9813353619
  0
VERTEX
  8
AXES
 62
7
  6
CONTINUOUS
 10
102.8388808657
 20
236.9641083445
  0
VERTEX
  8
AXES
 62
7
  6
CONTINUOUS
 10
102.8150814917
 20
236.9515069031
  0
VERTEX
  8
AXES
 62
7
  6
CONTINUOUS
 10
102.7899880965
 20
236.9436537019
  0
SEQEND
  0
LINE
  8
0
 62
7
  6
CONTINUOUS
 10
108.9081424941
 20
233.4413735389
 11
108.9081424941
 21
243.6776337035
  0
LINE
  8
0
 62
7
  6
CONTINUOUS
 10
110.2081568573
 20
236.3282779794
 11
110.2081568573
 21
232.5776337035
  0
LINE
  8
0
 62
7
  6
CONTINUOUS
 10
117.4081712204
 20
233.1776337035
 11
117.4081712204
 21
243.6776337035
  0
LINE
  8
0
 62
7
  6
CONTINUOUS
 10
123.4081424941
 20
233.1776337035
 11
123.4081424941
 21
243.6776337035
  0
LINE
  8
0
 62
7
  6
CONTINUOUS
 10
131.1621712204
 20
233.1776337035
 11
131.1621712204
 21
243.6776337035
  0
LINE
  8
0
 62
7
  6
CONTINUOUS
 10
137.1621424941
 20
233.1776337035
 11
137.1621424941
 21
243.6776337035
  0
LINE
  8
0
 62
7
  6
CONTINUOUS
 10
144.2581568573
 20
233.1776337035
 11
144.2581568573
 21
243.6776337035
  0
POLYLINE
  8
AXES
 62
7
  6
CONTINUOUS
 66
1
 70
0
  0
VERTEX
  8
AXES
 62
7
  6
CONTINUOUS
 10
110.2081568515
 20
236.3277162279
  0
VERTEX
  8
AXES
 62
7
  6
CONTINUOUS
 10
110.2037214191
 20
236.3319947434
  0
VERTEX
  8
AXES
 62
7
  6
CONTINUOUS
 10
110.1868954432
 20
236.3452789186
  0
VERTEX
  8
AXES
 62
7
  6
CONTINUOUS
 10
110.157130912
 20
236.3676314195
  0
VERTEX
  8
AXES
 62
7
  6
CONTINUOUS
 10
110.1140917337
 20
236.399003665
  0
VERTEX
  8
AXES
 62
7
  6
CONTINUOUS
 10
110.0567877567
 20
236.4396349268
  0
VERTEX
  8
AXES
 62
7
  6
CONTINUOUS
 10
109.9843951993
 20
236.4893722633
  0
VERTEX
  8
AXES
 62
7
  6
CONTINUOUS
 10
109.8963993619
 20
236.5475003116
  0
VERTEX
  8
AXES
 62
7
  6
CONTINUOUS
 10
109.7937252345
 20
236.6119650691
  0
VERTEX
  8
AXES
 62
7
  6
CONTINUOUS
 10
109.6786779963
 20
236.6795597351
  0
VERTEX
  8
AXES
 62
7
  6
CONTINUOUS
 10
109.5545089819
 20
236.7464510678
  0
VERTEX
  8
AXES
 62
7
  6
CONTINUOUS
 10
109.4249486128
 20
236.8087809311
  0
VERTEX
  8
AXES
 62
7
  6
CONTINUOUS
 10
109.2922557801
 20
236.8638218834
  0
VERTEX
  8
AXES
 62
7
  6
CONTINUOUS
 10
109.1587125391
 20
236.9092888595
  0
VERTEX
  8
AXES
 62
7
  6
CONTINUOUS
 10
109.026325618
 20
236.9436537019
  0
SEQEND
  0
LINE
  8
0
 62
7
  6
CONTINUOUS
 10
150.2581568573
 20
233.1776337035
 11
150.2581568573
 21
243.6776337035
  0
LINE
  8
0
 62
7
  6
CONTINUOUS
 10
156.9581568573
 20
233.1776337035
 11
156.9581568573
 21
243.6776337035
  0
LINE
  8
0
 62
7
  6
CONTINUOUS
 10
162.9581568573
 20
233.1776337035
 11
162.9581568573
 21
243.6776337035
  0
LINE
  8
0
 62
7
  6
CONTINUOUS
 10
169.6581568573
 20
233.1776337035
 11
169.6581568573
 21
243.6776337035
  0
LINE
  8
0
 62
7
  6
CONTINUOUS
 10
175.6581568573
 20
233.1776337035
 11
175.6581568573
 21
243.6776337035
  0
LINE
  8
0
 62
7
  6
CONTINUOUS
 10
182.3581568573
 20
233.1776337035
 11
182.3581568573
 21
243.6776337035
  0
LINE
  8
0
 62
7
  6
CONTINUOUS
 10
188.3581568573
 20
233.1776337035
 11
188.3581568573
 21
243.6776337035
  0
LINE
  8
0
 62
7
  6
CONTINUOUS
 10
195.0581568573
 20
233.1776337035
 11
195.0581568573
 21
243.6776337035
  0
LINE
  8
0
 62
7
  6
CONTINUOUS
 10
201.0581568573
 20
233.1776337035
 11
201.0581568573
 21
243.6776337035
  0
POLYLINE
  8
AXES
 62
7
  6
CONTINUOUS
 66
1
 70
0
  0
VERTEX
  8
AXES
 62
7
  6
CONTINUOUS
 10
109.026325618
 20
236.9436537019
  0
VERTEX
  8
AXES
 62
7
  6
CONTINUOUS
 10
109.0012322228
 20
236.9515069031
  0
VERTEX
  8
AXES
 62
7
  6
CONTINUOUS
 10
108.9774328488
 20
236.9641083445
  0
VERTEX
  8
AXES
 62
7
  6
CONTINUOUS
 10
108.9560372408
 20
236.9813353619
  0
VERTEX
  8
AXES
 62
7
  6
CONTINUOUS
 10
108.9371703593
 20
237.003980785
  0
VERTEX
  8
AXES
 62
7
  6
CONTINUOUS
 10
108.922021942
 20
237.0323320413
  0
VERTEX
  8
AXES
 62
7
  6
CONTINUOUS
 10
108.9119238703
 20
237.0662954011
  0
VERTEX
  8
AXES
 62
7
  6
CONTINUOUS
 10
108.9081424941
 20
237.1066144912
  0
SEQEND
  0
LINE
  8
0
 62
7
  6
CONTINUOUS
 10
207.7581568573
 20
233.1776337035
 11
207.7581568573
 21
243.6776337035
  0
LINE
  8
0
 62
7
  6
CONTINUOUS
 10
213.7581568573
 20
233.1776337035
 11
213.7581568573
 21
243.6776337035
  0
POLYLINE
  8
0
 62
7
  6
CONTINUOUS
 66
1
 70
0
  0
VERTEX
  8
0
 62
7
  6
CONTINUOUS
 10
109.8408914365
 20
232.4497664167
  0
VERTEX
  8
0
 62
7
  6
CONTINUOUS
 10
109.9131831818
 20
232.4381214876
  0
VERTEX
  8
0
 62
7
  6
CONTINUOUS
 10
109.9723369247
 20
232.4304191976
  0
VERTEX
  8
0
 62
7
  6
CONTINUOUS
 10
110.0172042143
 20
232.4276337035
  0
SEQEND
  0
LINE
  8
0
 62
7
  6
CONTINUOUS
 10
220.4581568573
 20
233.1776337035
 11
220.4581568573
 21
243.6776337035
  0
LINE
  8
0
 62
7
  6
CONTINUOUS
 10
226.4581568573
 20
233.1776337035
 11
226.4581568573
 21
243.6776337035
  0
POLYLINE
  8
0
 62
7
  6
CONTINUOUS
 66
1
 70
0
  0
VERTEX
  8
0
 62
7
  6
CONTINUOUS
 10
101.7991097296
 20
232.4276337035
  0
VERTEX
  8
0
 62
7
  6
CONTINUOUS
 10
101.8390899565
 20
232.4299287898
  0
VERTEX
  8
0
 62
7
  6
CONTINUOUS
 10
101.8913230782
 20
232.4363930386
  0
VERTEX
  8
0
 62
7
  6
CONTINUOUS
 10
101.9561860925
 20
232.4465409082
  0
VERTEX
  8
0
 62
7
  6
CONTINUOUS
 10
102.1216455887
 20
232.4751355211
  0
SEQEND
  0
LINE
  8
0
 62
7
  6
CONTINUOUS
 10
80.0581568573
 20
232.4276337035
 11
225.7081568573
 21
232.4276337035
  0
LINE
  8
AXES
 62
2
  6
CENTER
 10
79.9081568573
 20
238.4276337035
 11
222.1081568573
 21
238.4276337035
  0
POLYLINE
  8
0
 62
7
  6
CONTINUOUS
 66
1
 70
0
  0
VERTEX
  8
0
 62
7
  6
CONTINUOUS
 10
108.7309925247
 20
232.5705114181
  0
VERTEX
  8
0
 62
7
  6
CONTINUOUS
 10
108.8745576116
 20
232.567645927
  0
VERTEX
  8
0
 62
7
  6
CONTINUOUS
 10
109.0169983913
 20
232.5605411276
  0
VERTEX
  8
0
 62
7
  6
CONTINUOUS
 10
109.1571343346
 20
232.5495159425
  0
VERTEX
  8
0
 62
7
  6
CONTINUOUS
 10
109.2931864605
 20
232.5351540294
  0
VERTEX
  8
0
 62
7
  6
CONTINUOUS
 10
109.4229293228
 20
232.5183412902
  0
VERTEX
  8
0
 62
7
  6
CONTINUOUS
 10
109.5442937965
 20
232.5001747433
  0
VERTEX
  8
0
 62
7
  6
CONTINUOUS
 10
109.6553935888
 20
232.4818779124
  0
VERTEX
  8
0
 62
7
  6
CONTINUOUS
 10
109.8408914365
 20
232.4497664167
  0
SEQEND
  0
POLYLINE
  8
0
 62
7
  6
CONTINUOUS
 66
1
 70
0
  0
VERTEX
  8
0
 62
7
  6
CONTINUOUS
 10
102.1216455887
 20
232.4751355211
  0
VERTEX
  8
0
 62
7
  6
CONTINUOUS
 10
102.2204694295
 20
232.4918521668
  0
VERTEX
  8
0
 62
7
  6
CONTINUOUS
 10
102.328373424
 20
232.5088780221
  0
VERTEX
  8
0
 62
7
  6
CONTINUOUS
 10
102.4438933996
 20
232.5252286285
  0
VERTEX
  8
0
 62
7
  6
CONTINUOUS
 10
102.5654283386
 20
232.5399917075
  0
VERTEX
  8
0
 62
7
  6
CONTINUOUS
 10
102.6913873348
 20
232.5523959533
  0
VERTEX
  8
0
 62
7
  6
CONTINUOUS
 10
102.8205568701
 20
232.5618662696
  0
VERTEX
  8
0
 62
7
  6
CONTINUOUS
 10
102.9521814918
 20
232.5680000912
  0
VERTEX
  8
0
 62
7
  6
CONTINUOUS
 10
103.0854606243
 20
232.5705137869
  0
SEQEND
  0
LINE
  8
0
 62
7
  6
CONTINUOUS
 10
84.2253690589
 20
244.4276337035
 11
225.7081568573
 21
244.4276337035
  0
POLYLINE
  8
AXES
 62
7
  6
CONTINUOUS
 66
1
 70
0
  0
VERTEX
  8
AXES
 62
7
  6
CONTINUOUS
 10
102.7899880965
 20
236.9436537019
  0
VERTEX
  8
AXES
 62
7
  6
CONTINUOUS
 10
102.6576114786
 20
236.9092919596
  0
VERTEX
  8
AXES
 62
7
  6
CONTINUOUS
 10
102.5240924294
 20
236.8638349538
  0
VERTEX
  8
AXES
 62
7
  6
CONTINUOUS
 10
102.3914389126
 20
236.8088141076
  0
VERTEX
  8
AXES
 62
7
  6
CONTINUOUS
 10
102.261897498
 20
236.7464985206
  0
VERTEX
  8
AXES
 62
7
  6
CONTINUOUS
 10
102.1377446497
 20
236.6796212685
  0
VERTEX
  8
AXES
 62
7
  6
CONTINUOUS
 10
102.0227032342
 20
236.6120350025
  0
VERTEX
  8
AXES
 62
7
  6
CONTINUOUS
 10
101.9200150419
 20
236.5475653355
  0
VERTEX
  8
AXES
 62
7
  6
CONTINUOUS
 10
101.8319875646
 20
236.4894188814
  0
VERTEX
  8
AXES
 62
7
  6
CONTINUOUS
 10
101.7595679336
 20
236.4396642696
  0
VERTEX
  8
AXES
 62
7
  6
CONTINUOUS
 10
101.7022473233
 20
236.3990219002
  0
VERTEX
  8
AXES
 62
7
  6
CONTINUOUS
 10
101.6591951106
 20
236.3676405231
  0
VERTEX
  8
AXES
 62
7
  6
CONTINUOUS
 10
101.6294213018
 20
236.3452812417
  0
VERTEX
  8
AXES
 62
7
  6
CONTINUOUS
 10
101.6125930413
 20
236.3319953681
  0
VERTEX
  8
AXES
 62
7
  6
CONTINUOUS
 10
101.608156863
 20
236.3277162397
  0
SEQEND
  0
LINE
  8
0
 62
7
  6
CONTINUOUS
 10
80.0241798331
 20
243.4546157909
 11
84.1913920347
 21
244.4237349075
  0
LINE
  8
0
 62
7
  6
CONTINUOUS
 10
79.9081568573
 20
161.3847788686
 11
79.9081568573
 21
149.9338811404
  0
LINE
  8
0
 62
7
  6
CONTINUOUS
 10
85.1621568573
 20
149.401823233
 11
85.1621568573
 21
162.949627702
  0
LINE
  8
0
 62
7
  6
CONTINUOUS
 10
87.2831712204
 20
130.3761953866
 11
87.2831712204
 21
134.3647074283
  0
LINE
  8
0
 62
7
  6
CONTINUOUS
 10
88.0331568573
 20
137.4095835865
 11
88.0331568573
 21
140.6889434493
  0
LINE
  8
0
 62
7
  6
CONTINUOUS
 10
92.5331568573
 20
137.4095835865
 11
92.5331568573
 21
142.0903052943
  0
LINE
  8
0
 62
7
  6
CONTINUOUS
 10
93.2831424941
 20
130.3761953866
 11
93.2831424941
 21
134.3647074283
  0
LINE
  8
0
 62
7
  6
CONTINUOUS
 10
95.4041568573
 20
162.6903052943
 11
95.4041568573
 21
158.4389874386
  0
LINE
  8
0
 62
7
  6
CONTINUOUS
 10
96.1581568573
 20
151.1403052943
 11
96.1581568573
 21
155.3780314799
  0
LINE
  8
0
 62
7
  6
CONTINUOUS
 10
100.6581568573
 20
151.2403052943
 11
100.6581568573
 21
155.3780270021
  0
LINE
  8
0
 62
7
  6
CONTINUOUS
 10
101.4121568573
 20
158.438767769
 11
101.4121568573
 21
162.6903052943
  0
LINE
  8
0
 62
7
  6
CONTINUOUS
 10
102.9081712204
 20
130.3761953866
 11
102.9081712204
 21
134.3647074283
  0
LINE
  8
0
 62
7
  6
CONTINUOUS
 10
103.6581568573
 20
143.0903052943
 11
103.6581568573
 21
137.4095835865
  0
LINE
  8
0
 62
7
  6
CONTINUOUS
 10
87.2877544179
 20
134.4015035362
 11
88.0178795322
 21
137.2869298935
  0
LINE
  8
0
 62
7
  6
CONTINUOUS
 10
100.6734341823
 20
155.500680695
 11
101.4075736597
 21
158.4019716611
  0
LINE
  8
AXES
 62
7
  6
CONTINUOUS
 10
93.2785592966
 20
134.4015035362
 11
92.6785592966
 21
136.772680449
  0
LINE
  8
0
 62
7
  6
CONTINUOUS
 10
93.2785592966
 20
134.4015035362
 11
92.5484341823
 21
137.2869298935
  0
LINE
  8
0
 62
7
  6
CONTINUOUS
 10
96.1428816954
 20
155.5006766235
 11
95.4087394058
 21
158.4021938955
  0
LINE
  8
0
 62
7
  6
CONTINUOUS
 10
108.1581568573
 20
143.2403052943
 11
108.1581568573
 21
137.4095835865
  0
LINE
  8
0
 62
7
  6
CONTINUOUS
 10
108.9081424941
 20
130.3761953866
 11
108.9081424941
 21
134.3647074283
  0
LINE
  8
0
 62
7
  6
CONTINUOUS
 10
110.4041568573
 20
162.6903052943
 11
110.4041568573
 21
158.438767769
  0
LINE
  8
0
 62
7
  6
CONTINUOUS
 10
111.1581568573
 20
155.3780270021
 11
111.1581568573
 21
151.2403052943
  0
LINE
  8
0
 62
7
  6
CONTINUOUS
 10
115.6581568573
 20
150.7403052943
 11
115.6581568573
 21
155.3780270021
  0
LINE
  8
0
 62
7
  6
CONTINUOUS
 10
116.4121568573
 20
158.438767769
 11
116.4121568573
 21
162.6903052943
  0
LINE
  8
0
 62
7
  6
CONTINUOUS
 10
117.4081712204
 20
130.3761953866
 11
117.4081712204
 21
134.3647074283
  0
LINE
  8
0
 62
7
  6
CONTINUOUS
 10
118.1581568573
 20
137.4095835865
 11
118.1581568573
 21
143.2403052943
  0
LINE
  8
0
 62
7
  6
CONTINUOUS
 10
103.6428795322
 20
137.2869298935
 11
102.9127544179
 21
134.4015035362
  0
LINE
  8
0
 62
7
  6
CONTINUOUS
 10
115.6734341823
 20
155.500680695
 11
116.4075736597
 21
158.4019716611
  0
LINE
  8
0
 62
7
  6
CONTINUOUS
 10
108.1734341823
 20
137.2869298935
 11
108.9035592966
 21
134.4015035362
  0
LINE
  8
0
 62
7
  6
CONTINUOUS
 10
110.4087400548
 20
158.4019716611
 11
111.1428795322
 21
155.500680695
  0
LINE
  8
0
 62
7
  6
CONTINUOUS
 10
122.6581568573
 20
143.2403052943
 11
122.6581568573
 21
137.4095835865
  0
LINE
  8
0
 62
7
  6
CONTINUOUS
 10
123.4081424941
 20
130.3761953866
 11
123.4081424941
 21
134.3647074283
  0
LINE
  8
0
 62
7
  6
CONTINUOUS
 10
124.4041568573
 20
162.6903052943
 11
124.4041568573
 21
158.438767769
  0
LINE
  8
0
 62
7
  6
CONTINUOUS
 10
125.1581568573
 20
155.3780270021
 11
125.1581568573
 21
150.7403052943
  0
LINE
  8
0
 62
7
  6
CONTINUOUS
 10
129.6621568573
 20
150.7403052943
 11
129.6621568573
 21
155.3780270021
  0
LINE
  8
0
 62
7
  6
CONTINUOUS
 10
130.4161568573
 20
158.438767769
 11
130.4161568573
 21
162.6903052943
  0
LINE
  8
0
 62
7
  6
CONTINUOUS
 10
131.1621712204
 20
130.370083442
 11
131.1621712204
 21
134.3647074283
  0
LINE
  8
0
 62
7
  6
CONTINUOUS
 10
131.9121568573
 20
137.4095835865
 11
131.9121568573
 21
143.2403052943
  0
LINE
  8
0
 62
7
  6
CONTINUOUS
 10
117.4127544179
 20
134.4015035362
 11
118.1428795322
 21
137.2869298935
  0
LINE
  8
0
 62
7
  6
CONTINUOUS
 10
129.6774341823
 20
155.500680695
 11
130.4115736597
 21
158.4019716611
  0
LINE
  8
0
 62
7
  6
CONTINUOUS
 10
122.6734341823
 20
137.2869298935
 11
123.4035592966
 21
134.4015035362
  0
LINE
  8
0
 62
7
  6
CONTINUOUS
 10
124.4087400548
 20
158.4019716611
 11
125.1428795322
 21
155.500680695
  0
LINE
  8
0
 62
7
  6
CONTINUOUS
 10
136.4121568573
 20
143.6063052943
 11
136.4121568573
 21
137.4095835865
  0
LINE
  8
0
 62
7
  6
CONTINUOUS
 10
137.1621424941
 20
130.370083442
 11
137.1621424941
 21
134.3647074283
  0
LINE
  8
0
 62
7
  6
CONTINUOUS
 10
137.9081568573
 20
162.6903052943
 11
137.9081568573
 21
158.438767769
  0
LINE
  8
0
 62
7
  6
CONTINUOUS
 10
138.6621568573
 20
155.3780270021
 11
138.6621568573
 21
150.7403052943
  0
LINE
  8
0
 62
7
  6
CONTINUOUS
 10
143.1541568573
 20
155.3780270021
 11
143.1541568573
 21
151.1943052943
  0
LINE
  8
0
 62
7
  6
CONTINUOUS
 10
143.9081568573
 20
158.438767769
 11
143.9081568573
 21
162.6903052943
  0
LINE
  8
0
 62
7
  6
CONTINUOUS
 10
144.2581568573
 20
130.8908155515
 11
144.2581568573
 21
134.3647074283
  0
LINE
  8
0
 62
7
  6
CONTINUOUS
 10
145.0081568573
 20
137.4096403491
 11
145.0081568573
 21
143.6063052943
  0
LINE
  8
0
 62
7
  6
CONTINUOUS
 10
131.1667544179
 20
134.4015035362
 11
131.8968795322
 21
137.2869298935
  0
LINE
  8
0
 62
7
  6
CONTINUOUS
 10
143.9035736597
 20
158.4019716611
 11
143.1694341823
 21
155.500680695
  0
LINE
  8
0
 62
7
  6
CONTINUOUS
 10
136.4274341823
 20
137.2869298935
 11
137.1575592966
 21
134.4015035362
  0
LINE
  8
0
 62
7
  6
CONTINUOUS
 10
137.9127400548
 20
158.4019716611
 11
138.6468795322
 21
155.500680695
  0
LINE
  8
0
 62
7
  6
CONTINUOUS
 10
149.5081568573
 20
143.6063052943
 11
149.5081568573
 21
137.4096403491
  0
LINE
  8
0
 62
7
  6
CONTINUOUS
 10
150.2581568573
 20
130.8908155515
 11
150.2581568573
 21
134.3647074283
  0
LINE
  8
0
 62
7
  6
CONTINUOUS
 10
150.6081568573
 20
162.6903052943
 11
150.6081568573
 21
158.438767769
  0
LINE
  8
0
 62
7
  6
CONTINUOUS
 10
151.3621568573
 20
151.1943052943
 11
151.3621568573
 21
155.3780270021
  0
LINE
  8
0
 62
7
  6
CONTINUOUS
 10
155.8541568573
 20
155.3780270021
 11
155.8541568573
 21
151.1943052943
  0
LINE
  8
0
 62
7
  6
CONTINUOUS
 10
156.6081568573
 20
158.438767769
 11
156.6081568573
 21
162.6903052943
  0
LINE
  8
0
 62
7
  6
CONTINUOUS
 10
156.9581568573
 20
130.8908155515
 11
156.9581568573
 21
134.3647074283
  0
LINE
  8
0
 62
7
  6
CONTINUOUS
 10
157.7081568573
 20
137.4096403491
 11
157.7081568573
 21
143.6063052943
  0
LINE
  8
0
 62
7
  6
CONTINUOUS
 10
144.2627400548
 20
134.4015035362
 11
144.9928795322
 21
137.2869866562
  0
LINE
  8
0
 62
7
  6
CONTINUOUS
 10
156.6035736597
 20
158.4019716611
 11
155.8694341823
 21
155.500680695
  0
LINE
  8
0
 62
7
  6
CONTINUOUS
 10
149.5234341823
 20
137.2869866562
 11
150.2535736597
 21
134.4015035362
  0
LINE
  8
0
 62
7
  6
CONTINUOUS
 10
151.3468795322
 20
155.500680695
 11
150.6127400548
 21
158.4019716611
  0
LINE
  8
0
 62
7
  6
CONTINUOUS
 10
162.2081568573
 20
143.6063052943
 11
162.2081568573
 21
137.4096403491
  0
LINE
  8
0
 62
7
  6
CONTINUOUS
 10
162.9581568573
 20
130.8908155515
 11
162.9581568573
 21
134.3647074283
  0
LINE
  8
0
 62
7
  6
CONTINUOUS
 10
163.3081568573
 20
162.6903052943
 11
163.3081568573
 21
158.438767769
  0
LINE
  8
0
 62
7
  6
CONTINUOUS
 10
164.0621568573
 20
151.1943052943
 11
164.0621568573
 21
155.3780270021
  0
LINE
  8
0
 62
7
  6
CONTINUOUS
 10
168.5541568573
 20
155.3780270021
 11
168.5541568573
 21
151.1943052943
  0
LINE
  8
0
 62
7
  6
CONTINUOUS
 10
169.3081568573
 20
158.438767769
 11
169.3081568573
 21
162.6903052943
  0
LINE
  8
0
 62
7
  6
CONTINUOUS
 10
169.6581568573
 20
130.8908155515
 11
169.6581568573
 21
134.3647074283
  0
LINE
  8
0
 62
7
  6
CONTINUOUS
 10
170.4081568573
 20
137.4096403491
 11
170.4081568573
 21
143.6063052943
  0
LINE
  8
0
 62
7
  6
CONTINUOUS
 10
174.9081568573
 20
143.6063052943
 11
174.9081568573
 21
137.4096403491
  0
LINE
  8
0
 62
7
  6
CONTINUOUS
 10
156.9627400548
 20
134.4015035362
 11
157.6928795322
 21
137.2869866562
  0
LINE
  8
0
 62
7
  6
CONTINUOUS
 10
169.3035736597
 20
158.4019716611
 11
168.5694341823
 21
155.500680695
  0
LINE
  8
0
 62
7
  6
CONTINUOUS
 10
169.6627400548
 20
134.4015035362
 11
170.3928795322
 21
137.2869866562
  0
LINE
  8
0
 62
7
  6
CONTINUOUS
 10
162.2234341823
 20
137.2869866562
 11
162.9535736597
 21
134.4015035362
  0
LINE
  8
0
 62
7
  6
CONTINUOUS
 10
164.0468795322
 20
155.500680695
 11
163.3127400548
 21
158.4019716611
  0
LINE
  8
0
 62
7
  6
CONTINUOUS
 10
174.9234341823
 20
137.2869866562
 11
175.6535736597
 21
134.4015035362
  0
LINE
  8
0
 62
7
  6
CONTINUOUS
 10
175.6581568573
 20
130.8908155515
 11
175.6581568573
 21
134.3647074283
  0
LINE
  8
0
 62
7
  6
CONTINUOUS
 10
176.0081568573
 20
162.6903052943
 11
176.0081568573
 21
158.438767769
  0
LINE
  8
0
 62
7
  6
CONTINUOUS
 10
176.7621568573
 20
151.1943052943
 11
176.7621568573
 21
155.3780270021
  0
LINE
  8
0
 62
7
  6
CONTINUOUS
 10
181.2541568573
 20
155.3780270021
 11
181.2541568573
 21
151.1943052943
  0
LINE
  8
0
 62
7
  6
CONTINUOUS
 10
182.0081568573
 20
158.438767769
 11
182.0081568573
 21
162.6903052943
  0
LINE
  8
0
 62
7
  6
CONTINUOUS
 10
182.3581568573
 20
130.8908155515
 11
182.3581568573
 21
134.3647074283
  0
LINE
  8
0
 62
7
  6
CONTINUOUS
 10
183.1081568573
 20
137.4096403491
 11
183.1081568573
 21
143.6063052943
  0
LINE
  8
0
 62
7
  6
CONTINUOUS
 10
187.6081568573
 20
143.6063052943
 11
187.6081568573
 21
137.4096403491
  0
LINE
  8
0
 62
7
  6
CONTINUOUS
 10
188.3581568573
 20
130.8908155515
 11
188.3581568573
 21
134.3647074283
  0
LINE
  8
0
 62
7
  6
CONTINUOUS
 10
188.7081568573
 20
162.6903052943
 11
188.7081568573
 21
158.438767769
  0
LINE
  8
0
 62
7
  6
CONTINUOUS
 10
189.4621568573
 20
151.1943052943
 11
189.4621568573
 21
155.3780270021
  0
LINE
  8
0
 62
7
  6
CONTINUOUS
 10
182.0035736597
 20
158.4019716611
 11
181.2694341823
 21
155.500680695
  0
LINE
  8
0
 62
7
  6
CONTINUOUS
 10
182.3627400548
 20
134.4015035362
 11
183.0928795322
 21
137.2869866562
  0
LINE
  8
0
 62
7
  6
CONTINUOUS
 10
81.8984031877
 20
147.1088974011
 11
84.0526999714
 21
146.3388501396
  0
LINE
  8
0
 62
7
  6
CONTINUOUS
 10
176.7468795322
 20
155.500680695
 11
176.0127400548
 21
158.4019716611
  0
LINE
  8
0
 62
7
  6
CONTINUOUS
 10
187.6234341823
 20
137.2869866562
 11
188.3535736597
 21
134.4015035362
  0
LINE
  8
0
 62
7
  6
CONTINUOUS
 10
193.9541568573
 20
155.3780270021
 11
193.9541568573
 21
151.1943052943
  0
LINE
  8
0
 62
7
  6
CONTINUOUS
 10
194.7081568573
 20
158.438767769
 11
194.7081568573
 21
162.6903052943
  0
LINE
  8
0
 62
7
  6
CONTINUOUS
 10
195.0581568573
 20
130.8908155515
 11
195.0581568573
 21
134.3647074283
  0
LINE
  8
0
 62
7
  6
CONTINUOUS
 10
195.8081568573
 20
137.4096403491
 11
195.8081568573
 21
143.6063052943
  0
LINE
  8
0
 62
7
  6
CONTINUOUS
 10
200.3081568573
 20
143.6063052943
 11
200.3081568573
 21
137.4096403491
  0
LINE
  8
0
 62
7
  6
CONTINUOUS
 10
201.0581568573
 20
130.8908155515
 11
201.0581568573
 21
134.3647074283
  0
LINE
  8
0
 62
7
  6
CONTINUOUS
 10
201.4081568573
 20
162.6903052943
 11
201.4081568573
 21
158.438767769
  0
LINE
  8
0
 62
7
  6
CONTINUOUS
 10
202.1621568573
 20
151.1943052943
 11
202.1621568573
 21
155.3780270021
  0
LINE
  8
0
 62
7
  6
CONTINUOUS
 10
194.7035736597
 20
158.4019716611
 11
193.9694341823
 21
155.500680695
  0
LINE
  8
0
 62
7
  6
CONTINUOUS
 10
195.0627400548
 20
134.4015035362
 11
195.7928795322
 21
137.2869866562
  0
LINE
  8
0
 62
7
  6
CONTINUOUS
 10
85.0626454345
 20
163.0908753695
 11
83.2496331443
 21
163.7389314588
  0
LINE
  8
0
 62
7
  6
CONTINUOUS
 10
189.4468795322
 20
155.500680695
 11
188.7127400548
 21
158.4019716611
  0
LINE
  8
0
 62
7
  6
CONTINUOUS
 10
200.3234341823
 20
137.2869866562
 11
201.0535736597
 21
134.4015035362
  0
LINE
  8
0
 62
7
  6
CONTINUOUS
 10
206.6541568573
 20
155.3780270021
 11
206.6541568573
 21
151.1943052943
  0
LINE
  8
0
 62
7
  6
CONTINUOUS
 10
207.4081568573
 20
158.438767769
 11
207.4081568573
 21
162.6903052943
  0
LINE
  8
0
 62
7
  6
CONTINUOUS
 10
207.7581568573
 20
130.8908155515
 11
207.7581568573
 21
134.3647074283
  0
LINE
  8
0
 62
7
  6
CONTINUOUS
 10
208.5081568573
 20
137.4096403491
 11
208.5081568573
 21
143.6063052943
  0
LINE
  8
0
 62
7
  6
CONTINUOUS
 10
213.0081568573
 20
143.6063052943
 11
213.0081568573
 21
137.4096403491
  0
LINE
  8
0
 62
7
  6
CONTINUOUS
 10
213.7581568573
 20
130.8908155515
 11
213.7581568573
 21
134.3647074283
  0
LINE
  8
0
 62
7
  6
CONTINUOUS
 10
214.1081568573
 20
162.6903052943
 11
214.1081568573
 21
158.438767769
  0
LINE
  8
0
 62
7
  6
CONTINUOUS
 10
214.8621568573
 20
151.1943052943
 11
214.8621568573
 21
155.3780270021
  0
LINE
  8
0
 62
7
  6
CONTINUOUS
 10
207.4035736597
 20
158.4019716611
 11
206.6694341823
 21
155.500680695
  0
LINE
  8
0
 62
7
  6
CONTINUOUS
 10
207.7627400548
 20
134.4015035362
 11
208.4928795322
 21
137.2869866562
  0
LINE
  8
0
 62
7
  6
CONTINUOUS
 10
219.3694341823
 20
155.500680695
 11
220.1035736597
 21
158.4019716611
  0
LINE
  8
0
 62
7
  6
CONTINUOUS
 10
89.7831568573
 20
129.3403052943
 11
90.7831568573
 21
129.3403052943
  0
LINE
  8
0
 62
7
  6
CONTINUOUS
 10
105.4081568573
 20
129.3403052943
 11
106.4081568573
 21
129.3403052943
  0
LINE
  8
0
 62
7
  6
CONTINUOUS
 10
119.9081568573
 20
129.3403052943
 11
120.9081568573
 21
129.3403052943
  0
LINE
  8
0
 62
7
  6
CONTINUOUS
 10
133.6621568573
 20
129.3403052943
 11
134.6621568573
 21
129.3403052943
  0
LINE
  8
DEFAULT_1
 62
2
  6
CENTER
 10
85.2831712204
 20
133.6903052943
 11
228.4581568573
 21
133.6903052943
  0
LINE
  8
0
 62
7
  6
CONTINUOUS
 10
202.1468795322
 20
155.500680695
 11
201.4127400548
 21
158.4019716611
  0
LINE
  8
0
 62
7
  6
CONTINUOUS
 10
213.0234341823
 20
137.2869866562
 11
213.7535736597
 21
134.4015035362
  0
LINE
  8
0
 62
7
  6
CONTINUOUS
 10
214.8468795322
 20
155.500680695
 11
214.1127400548
 21
158.4019716611
  0
LINE
  8
0
 62
7
  6
CONTINUOUS
 10
219.3541568573
 20
151.1943052943
 11
219.3541568573
 21
155.3780270021
  0
LINE
  8
0
 62
7
  6
CONTINUOUS
 10
220.1081568573
 20
158.438767769
 11
220.1081568573
 21
162.6903052943
  0
LINE
  8
0
 62
7
  6
CONTINUOUS
 10
220.4581568573
 20
130.8908155515
 11
220.4581568573
 21
134.3647074283
  0
LINE
  8
0
 62
7
  6
CONTINUOUS
 10
221.2081568573
 20
137.4096403491
 11
221.2081568573
 21
143.6063052943
  0
LINE
  8
0
 62
7
  6
CONTINUOUS
 10
225.7081568573
 20
137.4096403491
 11
225.7081568573
 21
146.0903052943
  0
LINE
  8
0
 62
7
  6
CONTINUOUS
 10
226.4581568573
 20
130.8908155515
 11
226.4581568573
 21
134.3647074283
  0
LINE
  8
0
 62
7
  6
CONTINUOUS
 10
220.4627400548
 20
134.4015035362
 11
221.1928795322
 21
137.2869866562
  0
LINE
  8
0
 62
7
  6
CONTINUOUS
 10
219.2081568573
 20
145.6063052943
 11
215.0081568573
 21
145.6063052943
  0
LINE
  8
0
 62
7
  6
CONTINUOUS
 10
206.5081568573
 20
145.6063052943
 11
202.3081568573
 21
145.6063052943
  0
LINE
  8
0
 62
7
  6
CONTINUOUS
 10
193.8081568573
 20
145.6063052943
 11
189.6081568573
 21
145.6063052943
  0
LINE
  8
0
 62
7
  6
CONTINUOUS
 10
181.1081568573
 20
145.6063052943
 11
176.9081568573
 21
145.6063052943
  0
LINE
  8
0
 62
7
  6
CONTINUOUS
 10
168.4081568573
 20
145.6063052943
 11
164.2081568573
 21
145.6063052943
  0
LINE
  8
0
 62
7
  6
CONTINUOUS
 10
155.7081568573
 20
145.6063052943
 11
151.5081568573
 21
145.6063052943
  0
LINE
  8
0
 62
7
  6
CONTINUOUS
 10
143.0081568573
 20
145.6063052943
 11
138.4121568573
 21
145.6063052943
  0
LINE
  8
0
 62
7
  6
CONTINUOUS
 10
129.2121568573
 20
145.9403052943
 11
125.3581568573
 21
145.9403052943
  0
LINE
  8
0
 62
7
  6
CONTINUOUS
 10
115.4581568573
 20
145.9403052943
 11
110.8581568573
 21
145.9403052943
  0
LINE
  8
0
 62
7
  6
CONTINUOUS
 10
96.5331568573
 20
146.0903052943
 11
100.6581568573
 21
146.0903052943
  0
LINE
  8
0
 62
7
  6
CONTINUOUS
 10
89.9081568573
 20
146.6403052943
 11
91.6581568573
 21
146.6403052943
  0
LINE
  8
0
 62
7
  6
CONTINUOUS
 10
106.6581568573
 20
146.7403052943
 11
105.1581568573
 21
146.7403052943
  0
LINE
  8
0
 62
7
  6
CONTINUOUS
 10
134.8121568573
 20
146.8903052943
 11
133.5121568573
 21
146.8903052943
  0
LINE
  8
0
 62
7
  6
CONTINUOUS
 10
121.3081568573
 20
146.8903052943
 11
119.5081568573
 21
146.8903052943
  0
LINE
  8
0
 62
7
  6
CONTINUOUS
 10
224.7081568573
 20
147.0903052943
 11
223.4581568573
 21
147.0903052943
  0
LINE
  8
0
 62
7
  6
CONTINUOUS
 10
226.4535736597
 20
134.4015035362
 11
225.7234341823
 21
137.2869866562
  0
LINE
  8
AXES
 62
2
  6
CENTER
 10
79.9081568573
 20
159.0903052943
 11
222.1081568573
 21
159.0903052943
  0
LINE
  8
0
 62
7
  6
CONTINUOUS
 10
96.1541568573
 20
163.4403052943
 11
100.6621568573
 21
163.4403052943
  0
LINE
  8
0
 62
7
  6
CONTINUOUS
 10
111.1541568573
 20
163.4403052943
 11
115.6621568573
 21
163.4403052943
  0
LINE
  8
0
 62
7
  6
CONTINUOUS
 10
125.1541568573
 20
163.4403052943
 11
129.6661568573
 21
163.4403052943
  0
LINE
  8
0
 62
7
  6
CONTINUOUS
 10
138.6581568573
 20
163.4403052943
 11
143.1581568573
 21
163.4403052943
  0
LINE
  8
0
 62
7
  6
CONTINUOUS
 10
151.3581568573
 20
163.4403052943
 11
155.8581568573
 21
163.4403052943
  0
LINE
  8
0
 62
7
  6
CONTINUOUS
 10
164.0581568573
 20
163.4403052943
 11
168.5581568573
 21
163.4403052943
  0
LINE
  8
0
 62
7
  6
CONTINUOUS
 10
176.7581568573
 20
163.4403052943
 11
181.2581568573
 21
163.4403052943
  0
LINE
  8
0
 62
7
  6
CONTINUOUS
 10
189.4581568573
 20
163.4403052943
 11
193.9581568573
 21
163.4403052943
  0
LINE
  8
0
 62
7
  6
CONTINUOUS
 10
202.1581568573
 20
163.4403052943
 11
206.6581568573
 21
163.4403052943
  0
LINE
  8
0
 62
7
  6
CONTINUOUS
 10
214.8581568573
 20
163.4403052943
 11
219.3581568573
 21
163.4403052943
  0
LINE
  8
0
 62
7
  6
CONTINUOUS
 10
288.9223395376
 20
129.3403052943
 11
292.9223395376
 21
129.3403052943
  0
POLYLINE
  8
0
 62
7
  6
CONTINUOUS
 66
1
 70
0
  0
VERTEX
  8
0
 62
7
  6
CONTINUOUS
 10
285.3410380376
 20
161.4403854709
  0
VERTEX
  8
0
 62
7
  6
CONTINUOUS
 10
285.2216666676
 20
161.1130307439
  0
VERTEX
  8
0
 62
7
  6
CONTINUOUS
 10
285.1134211462
 20
160.7465879608
  0
VERTEX
  8
0
 62
7
  6
CONTINUOUS
 10
285.0289392512
 20
160.3726674788
  0
VERTEX
  8
0
 62
7
  6
CONTINUOUS
 10
284.9686842334
 20
159.9928099105
  0
VERTEX
  8
0
 62
7
  6
CONTINUOUS
 10
284.9330630893
 20
159.608581592
  0
VERTEX
  8
0
 62
7
  6
CONTINUOUS
 10
284.9223396628
 20
159.2513040572
  0
SEQEND
  0
LINE
  8
DEFAULT_1
 62
2
  6
CENTER
 10
296.1723395376
 20
133.6903052943
 11
292.9224395376
 21
133.6903052943
  0
LINE
  8
0
 62
2
  6
CONTINUOUS
 10
291.9723395376
 20
133.6903052943
 11
289.8723395376
 21
133.6903052943
  0
LINE
  8
DEFAULT_1
 62
2
  6
CENTER
 10
285.6723395376
 20
133.6903052943
 11
288.9222395376
 21
133.6903052943
  0
LINE
  8
0
 62
7
  6
CONTINUOUS
 10
284.9223395376
 20
133.3403052943
 11
284.9223395376
 21
159.4403052943
  0
LINE
  8
AXES
 62
7
  6
CONTINUOUS
 10
288.8223395376
 20
133.6903052943
 11
288.8223395376
 21
141.7403052943
  0
LINE
  8
AXES
 62
2
  6
CENTER
 10
290.9223395376
 20
164.3403052943
 11
290.9223395376
 21
163.1903052943
  0
LINE
  8
AXES
 62
2
  6
CONTINUOUS
 10
290.9223395376
 20
160.1403052943
 11
290.9223395376
 21
158.0403052943
  0
LINE
  8
DEFAULT_1
 62
2
  6
CENTER
 10
290.9223395376
 20
138.9403052943
 11
290.9223395376
 21
135.6904052943
  0
LINE
  8
0
 62
2
  6
CONTINUOUS
 10
290.9223395376
 20
134.7403052943
 11
290.9223395376
 21
132.6403052943
  0
LINE
  8
DEFAULT_1
 62
2
  6
CENTER
 10
290.9223395376
 20
128.4403052943
 11
290.9223395376
 21
131.6902052943
  0
LINE
  8
AXES
 62
2
  6
CENTER
 10
290.9223395376
 20
153.8403052943
 11
290.9223395376
 21
154.9903052943
  0
LINE
  8
AXES
 62
7
  6
CONTINUOUS
 10
293.0223395376
 20
133.6903052943
 11
293.0223395376
 21
141.7403052943
  0
POLYLINE
  8
0
 62
7
  6
CONTINUOUS
 66
1
 70
0
  0
VERTEX
  8
0
 62
7
  6
CONTINUOUS
 10
296.9223393111
 20
157.7617459017
  0
VERTEX
  8
0
 62
7
  6
CONTINUOUS
 10
296.9214736397
 20
157.8645984739
  0
VERTEX
  8
0
 62
7
  6
CONTINUOUS
 10
296.9175572475
 20
158.0075897071
  0
VERTEX
  8
0
 62
7
  6
CONTINUOUS
 10
296.9103045733
 20
158.1583003413
  0
VERTEX
  8
0
 62
7
  6
CONTINUOUS
 10
296.8997143545
 20
158.3144298672
  0
VERTEX
  8
0
 62
7
  6
CONTINUOUS
 10
296.8859350035
 20
158.4739939483
  0
VERTEX
  8
0
 62
7
  6
CONTINUOUS
 10
296.8691485257
 20
158.6359140687
  0
VERTEX
  8
0
 62
7
  6
CONTINUOUS
 10
296.8495159112
 20
158.7997258731
  0
VERTEX
  8
0
 62
7
  6
CONTINUOUS
 10
296.82718749
 20
158.9651119959
  0
VERTEX
  8
0
 62
7
  6
CONTINUOUS
 10
296.8023009153
 20
159.131852372
  0
VERTEX
  8
0
 62
7
  6
CONTINUOUS
 10
296.7749545941
 20
159.2999609029
  0
VERTEX
  8
0
 62
7
  6
CONTINUOUS
 10
296.7451529125
 20
159.4698802289
  0
VERTEX
  8
0
 62
7
  6
CONTINUOUS
 10
296.712860009
 20
159.6420916476
  0
VERTEX
  8
0
 62
7
  6
CONTINUOUS
 10
296.6780583386
 20
159.8168649044
  0
VERTEX
  8
0
 62
7
  6
CONTINUOUS
 10
296.6408212322
 20
159.9939407654
  0
VERTEX
  8
0
 62
7
  6
CONTINUOUS
 10
296.6012426345
 20
160.1730149956
  0
VERTEX
  8
0
 62
7
  6
CONTINUOUS
 10
296.5594185696
 20
160.3538067236
  0
VERTEX
  8
0
 62
7
  6
CONTINUOUS
 10
296.5154127102
 20
160.5361803612
  0
VERTEX
  8
0
 62
7
  6
CONTINUOUS
 10
296.4690630583
 20
160.7209060649
  0
VERTEX
  8
0
 62
7
  6
CONTINUOUS
 10
296.4200778667
 20
160.909094187
  0
VERTEX
  8
0
 62
7
  6
CONTINUOUS
 10
296.3681499586
 20
161.10178127
  0
VERTEX
  8
0
 62
7
  6
CONTINUOUS
 10
296.3129906753
 20
161.2997755962
  0
VERTEX
  8
0
 62
7
  6
CONTINUOUS
 10
296.2544482832
 20
161.5033407006
  0
VERTEX
  8
0
 62
7
  6
CONTINUOUS
 10
296.1924002076
 20
161.7125883524
  0
VERTEX
  8
0
 62
7
  6
CONTINUOUS
 10
296.1267234685
 20
161.9276376979
  0
VERTEX
  8
0
 62
7
  6
CONTINUOUS
 10
296.0572928127
 20
162.1485819579
  0
SEQEND
  0
LINE
  8
0
 62
7
  6
CONTINUOUS
 10
296.9223395376
 20
133.3403052943
 11
296.9223395376
 21
159.4403052943
  0
LINE
  8
0
 62
7
  6
CONTINUOUS
 10
296.0572928127
 20
162.1485819579
 11
295.9899952306
 21
162.3571337897
  0
LINE
  8
AXES
 62
2
  6
CENTER
 10
296.1723395376
 20
159.0903052943
 11
295.0223395376
 21
159.0903052943
  0
LINE
  8
AXES
 62
2
  6
CONTINUOUS
 10
291.9723395376
 20
159.0903052943
 11
289.8723395376
 21
159.0903052943
  0
LINE
  8
AXES
 62
2
  6
CENTER
 10
285.6723395376
 20
159.0903052943
 11
286.8223395376
 21
159.0903052943
  0
POLYLINE
  8
0
 62
7
  6
CONTINUOUS
 66
1
 70
0
  0
VERTEX
  8
0
 62
7
  6
CONTINUOUS
 10
295.9670134621
 20
162.4010770545
  0
VERTEX
  8
0
 62
7
  6
CONTINUOUS
 10
295.9796136655
 20
162.3814192553
  0
VERTEX
  8
0
 62
7
  6
CONTINUOUS
 10
295.989039102
 20
162.3599623152
  0
VERTEX
  8
0
 62
7
  6
CONTINUOUS
 10
295.9900046651
 20
162.3571027186
  0
SEQEND
  0
POLYLINE
  8
0
 62
7
  6
CONTINUOUS
 66
1
 70
0
  0
VERTEX
  8
0
 62
7
  6
CONTINUOUS
 10
295.9670129842
 20
162.4010762374
  0
VERTEX
  8
0
 62
7
  6
CONTINUOUS
 10
295.8356309521
 20
162.5649306594
  0
VERTEX
  8
0
 62
7
  6
CONTINUOUS
 10
295.6729151787
 20
162.7442219264
  0
VERTEX
  8
0
 62
7
  6
CONTINUOUS
 10
295.495264769
 20
162.9153253367
  0
VERTEX
  8
0
 62
7
  6
CONTINUOUS
 10
295.3021032591
 20
163.0771517718
  0
VERTEX
  8
0
 62
7
  6
CONTINUOUS
 10
295.0928548525
 20
163.2285312119
  0
VERTEX
  8
0
 62
7
  6
CONTINUOUS
 10
294.8669498568
 20
163.3681971641
  0
VERTEX
  8
0
 62
7
  6
CONTINUOUS
 10
294.6238105581
 20
163.4947818616
  0
VERTEX
  8
0
 62
7
  6
CONTINUOUS
 10
294.362721294
 20
163.6068472452
  0
VERTEX
  8
0
 62
7
  6
CONTINUOUS
 10
294.0826417742
 20
163.7028652519
  0
VERTEX
  8
0
 62
7
  6
CONTINUOUS
 10
293.7824471763
 20
163.7810162826
  0
VERTEX
  8
0
 62
7
  6
CONTINUOUS
 10
293.4604764229
 20
163.8392014894
  0
VERTEX
  8
0
 62
7
  6
CONTINUOUS
 10
293.114489863
 20
163.8748056499
  0
VERTEX
  8
0
 62
7
  6
CONTINUOUS
 10
292.8023588186
 20
163.8848049527
  0
SEQEND
  0
POLYLINE
  8
0
 62
7
  6
CONTINUOUS
 66
1
 70
0
  0
VERTEX
  8
0
 62
7
  6
CONTINUOUS
 10
289.0423899987
 20
163.8848046354
  0
VERTEX
  8
0
 62
7
  6
CONTINUOUS
 10
288.8058372544
 20
163.8790978176
  0
VERTEX
  8
0
 62
7
  6
CONTINUOUS
 10
288.4782949954
 20
163.8515450676
  0
VERTEX
  8
0
 62
7
  6
CONTINUOUS
 10
288.1693294516
 20
163.8031904573
  0
VERTEX
  8
0
 62
7
  6
CONTINUOUS
 10
287.8783208345
 20
163.7360297347
  0
VERTEX
  8
0
 62
7
  6
CONTINUOUS
 10
287.6038709649
 20
163.6515496038
  0
VERTEX
  8
0
 62
7
  6
CONTINUOUS
 10
287.3446623024
 20
163.5508059178
  0
VERTEX
  8
0
 62
7
  6
CONTINUOUS
 10
287.1002556062
 20
163.4348519042
  0
VERTEX
  8
0
 62
7
  6
CONTINUOUS
 10
286.871005254
 20
163.3050588087
  0
VERTEX
  8
0
 62
7
  6
CONTINUOUS
 10
286.6572546209
 20
163.1629446633
  0
VERTEX
  8
0
 62
7
  6
CONTINUOUS
 10
286.4592698164
 20
163.0101784508
  0
VERTEX
  8
0
 62
7
  6
CONTINUOUS
 10
286.2771576092
 20
162.8485350987
  0
VERTEX
  8
0
 62
7
  6
CONTINUOUS
 10
286.1108797096
 20
162.6798992658
  0
VERTEX
  8
0
 62
7
  6
CONTINUOUS
 10
285.9601537193
 20
162.5061384512
  0
VERTEX
  8
0
 62
7
  6
CONTINUOUS
 10
285.8241156259
 20
162.3285466872
  0
VERTEX
  8
0
 62
7
  6
CONTINUOUS
 10
285.7017691887
 20
162.148127901
  0
VERTEX
  8
0
 62
7
  6
CONTINUOUS
 10
285.5921391333
 20
161.9657363131
  0
VERTEX
  8
0
 62
7
  6
CONTINUOUS
 10
285.4942766772
 20
161.7820791017
  0
VERTEX
  8
0
 62
7
  6
CONTINUOUS
 10
285.4072552723
 20
161.5976863375
  0
VERTEX
  8
0
 62
7
  6
CONTINUOUS
 10
285.3410382058
 20
161.4403854038
  0
SEQEND
  0
LINE
  8
0
 62
7
  6
CONTINUOUS
 10
289.0412151264
 20
163.8848036268
 11
292.8035290358
 21
163.8848036172
  0
ARC
  8
0
 62
7
  6
CONTINUOUS
 10
131.9121712204
 20
233.1776337035
 40
0.75
 50
180.0
 51
270.0
  0
ARC
  8
0
 62
7
  6
CONTINUOUS
 10
136.4121424941
 20
233.1776337035
 40
0.75
 50
270.0
 51
360.0
  0
ARC
  8
0
 62
7
  6
CONTINUOUS
 10
145.0081568573
 20
233.1776337035
 40
0.75
 50
180.0
 51
270.0
  0
ARC
  8
0
 62
7
  6
CONTINUOUS
 10
149.5081568573
 20
233.1776337035
 40
0.75
 50
270.0
 51
360.0
  0
ARC
  8
0
 62
7
  6
CONTINUOUS
 10
122.6581424941
 20
233.1776337035
 40
0.75
 50
270.0
 51
360.0
  0
ARC
  8
0
 62
7
  6
CONTINUOUS
 10
118.1581712204
 20
233.1776337035
 40
0.75
 50
180.0
 51
270.0
  0
ARC
  8
0
 62
7
  6
CONTINUOUS
 10
92.5331424941
 20
233.1776337035
 40
0.75
 50
270.0
 51
360.0
  0
ARC
  8
0
 62
7
  6
CONTINUOUS
 10
88.0331712204
 20
233.1776337035
 40
0.75
 50
180.0
 51
270.0
  0
ARC
  8
0
 62
7
  6
CONTINUOUS
 10
110.0581568573
 20
232.5776337035
 40
0.15
 50
270.0
 51
360.0
  0
ARC
  8
0
 62
7
  6
CONTINUOUS
 10
101.7581568573
 20
232.5776337035
 40
0.15
 50
180.0
 51
270.0
  0
ARC
  8
0
 62
7
  6
CONTINUOUS
 10
143.0041568573
 20
232.5776337035
 40
0.15
 50
271.5229755582
 51
281.25
  0
ARC
  8
0
 62
7
  6
CONTINUOUS
 10
151.5121568573
 20
232.5776337035
 40
0.15
 50
258.7500000141
 51
268.477024442
  0
ARC
  8
0
 62
7
  6
CONTINUOUS
 10
80.0581568573
 20
232.5776337035
 40
0.15
 50
180.0
 51
270.0
  0
ARC
  8
0
 62
7
  6
CONTINUOUS
 10
88.0331712204
 20
243.6776337035
 40
0.75
 50
90.0
 51
180.0
  0
ARC
  8
0
 62
7
  6
CONTINUOUS
 10
92.5331424941
 20
243.6776337035
 40
0.75
 50
0.0
 51
90.0
  0
ARC
  8
0
 62
7
  6
CONTINUOUS
 10
103.6581712204
 20
243.6776337035
 40
0.75
 50
90.0
 51
180.0
  0
ARC
  8
0
 62
7
  6
CONTINUOUS
 10
108.1581424941
 20
243.6776337035
 40
0.75
 50
0.0
 51
90.0
  0
ARC
  8
0
 62
7
  6
CONTINUOUS
 10
80.0581568573
 20
243.3085145868
 40
0.15
 50
103.0918930644
 51
180.0
  0
ARC
  8
0
 62
7
  6
CONTINUOUS
 10
84.2253690589
 20
244.2776337035
 40
0.15
 50
90.0
 51
103.0918930643
  0
ARC
  8
0
 62
7
  6
CONTINUOUS
 10
118.1581712204
 20
243.6776337035
 40
0.75
 50
90.0
 51
180.0
  0
ARC
  8
0
 62
7
  6
CONTINUOUS
 10
122.6581424941
 20
243.6776337035
 40
0.75
 50
0.0
 51
90.0
  0
ARC
  8
0
 62
7
  6
CONTINUOUS
 10
131.9121712204
 20
243.6776337035
 40
0.75
 50
90.0
 51
180.0
  0
ARC
  8
0
 62
7
  6
CONTINUOUS
 10
136.4121424941
 20
243.6776337035
 40
0.75
 50
0.0
 51
90.0
  0
ARC
  8
0
 62
7
  6
CONTINUOUS
 10
145.0081568573
 20
243.6776337035
 40
0.75
 50
90.0
 51
180.0
  0
ARC
  8
0
 62
7
  6
CONTINUOUS
 10
149.5081568573
 20
243.6776337035
 40
0.75
 50
0.0
 51
90.0
  0
ARC
  8
0
 62
7
  6
CONTINUOUS
 10
181.1041568573
 20
232.5776337035
 40
0.15
 50
271.5229755582
 51
281.25
  0
ARC
  8
0
 62
7
  6
CONTINUOUS
 10
189.6121568573
 20
232.5776337035
 40
0.15
 50
258.7500000141
 51
268.477024442
  0
ARC
  8
0
 62
7
  6
CONTINUOUS
 10
168.4041568573
 20
232.5776337035
 40
0.15
 50
271.5229755582
 51
281.25
  0
ARC
  8
0
 62
7
  6
CONTINUOUS
 10
176.9121568573
 20
232.5776337035
 40
0.15
 50
258.7500000141
 51
268.477024442
  0
ARC
  8
0
 62
7
  6
CONTINUOUS
 10
155.7041568573
 20
232.5776337035
 40
0.15
 50
271.5229755582
 51
281.25
  0
ARC
  8
0
 62
7
  6
CONTINUOUS
 10
164.2121568573
 20
232.5776337035
 40
0.15
 50
258.7500000141
 51
268.477024442
  0
ARC
  8
0
 62
7
  6
CONTINUOUS
 10
157.7081568573
 20
233.1776337035
 40
0.75
 50
180.0
 51
270.0
  0
ARC
  8
0
 62
7
  6
CONTINUOUS
 10
162.2081568573
 20
233.1776337035
 40
0.75
 50
270.0
 51
360.0
  0
ARC
  8
0
 62
7
  6
CONTINUOUS
 10
170.4081568573
 20
233.1776337035
 40
0.75
 50
180.0
 51
270.0
  0
ARC
  8
0
 62
7
  6
CONTINUOUS
 10
174.9081568573
 20
233.1776337035
 40
0.75
 50
270.0
 51
360.0
  0
ARC
  8
0
 62
7
  6
CONTINUOUS
 10
183.1081568573
 20
233.1776337035
 40
0.75
 50
180.0
 51
270.0
  0
ARC
  8
0
 62
7
  6
CONTINUOUS
 10
187.6081568573
 20
233.1776337035
 40
0.75
 50
270.0
 51
360.0
  0
ARC
  8
0
 62
7
  6
CONTINUOUS
 10
206.5041568573
 20
232.5776337035
 40
0.15
 50
271.5229755582
 51
281.25
  0
ARC
  8
0
 62
7
  6
CONTINUOUS
 10
215.0121568573
 20
232.5776337035
 40
0.15
 50
258.7500000141
 51
268.477024442
  0
ARC
  8
0
 62
7
  6
CONTINUOUS
 10
193.8041568573
 20
232.5776337035
 40
0.15
 50
271.5229755582
 51
281.25
  0
ARC
  8
0
 62
7
  6
CONTINUOUS
 10
202.3121568573
 20
232.5776337035
 40
0.15
 50
258.7500000141
 51
268.477024442
  0
ARC
  8
0
 62
7
  6
CONTINUOUS
 10
219.2041568573
 20
232.5776337035
 40
0.15
 50
271.5229755578
 51
281.2499999718
  0
ARC
  8
0
 62
7
  6
CONTINUOUS
 10
195.8081568573
 20
233.1776337035
 40
0.75
 50
180.0
 51
270.0
  0
ARC
  8
0
 62
7
  6
CONTINUOUS
 10
200.3081568573
 20
233.1776337035
 40
0.75
 50
270.0
 51
360.0
  0
ARC
  8
0
 62
7
  6
CONTINUOUS
 10
208.5081568573
 20
233.1776337035
 40
0.75
 50
180.0
 51
270.0
  0
ARC
  8
0
 62
7
  6
CONTINUOUS
 10
225.7081568573
 20
233.1776337035
 40
0.75
 50
270.0
 51
360.0
  0
ARC
  8
0
 62
7
  6
CONTINUOUS
 10
221.2081568573
 20
233.1776337035
 40
0.75
 50
180.0
 51
270.0
  0
ARC
  8
0
 62
7
  6
CONTINUOUS
 10
213.0081568573
 20
233.1776337035
 40
0.75
 50
270.0
 51
360.0
  0
ARC
  8
0
 62
7
  6
CONTINUOUS
 10
225.7081568573
 20
243.6776337035
 40
0.75
 50
0.0
 51
90.0
  0
ARC
  8
0
 62
7
  6
CONTINUOUS
 10
221.2081568573
 20
243.6776337035
 40
0.75
 50
90.0
 51
180.0
  0
ARC
  8
0
 62
7
  6
CONTINUOUS
 10
213.0081568573
 20
243.6776337035
 40
0.75
 50
0.0
 51
90.0
  0
ARC
  8
0
 62
7
  6
CONTINUOUS
 10
208.5081568573
 20
243.6776337035
 40
0.75
 50
90.0
 51
180.0
  0
ARC
  8
0
 62
7
  6
CONTINUOUS
 10
200.3081568573
 20
243.6776337035
 40
0.75
 50
0.0
 51
90.0
  0
ARC
  8
0
 62
7
  6
CONTINUOUS
 10
195.8081568573
 20
243.6776337035
 40
0.75
 50
90.0
 51
180.0
  0
ARC
  8
0
 62
7
  6
CONTINUOUS
 10
187.6081568573
 20
243.6776337035
 40
0.75
 50
0.0
 51
90.0
  0
ARC
  8
0
 62
7
  6
CONTINUOUS
 10
183.1081568573
 20
243.6776337035
 40
0.75
 50
90.0
 51
180.0
  0
ARC
  8
0
 62
7
  6
CONTINUOUS
 10
174.9081568573
 20
243.6776337035
 40
0.75
 50
0.0
 51
90.0
  0
ARC
  8
0
 62
7
  6
CONTINUOUS
 10
170.4081568573
 20
243.6776337035
 40
0.75
 50
90.0
 51
180.0
  0
ARC
  8
0
 62
7
  6
CONTINUOUS
 10
162.2081568573
 20
243.6776337035
 40
0.75
 50
0.0
 51
90.0
  0
ARC
  8
0
 62
7
  6
CONTINUOUS
 10
157.7081568573
 20
243.6776337035
 40
0.75
 50
90.0
 51
180.0
  0
ARC
  8
0
 62
7
  6
CONTINUOUS
 10
106.4081568573
 20
133.8403052943
 40
4.5
 50
270.0
 51
299.9997624355
  0
ARC
  8
0
 62
7
  6
CONTINUOUS
 10
105.4081568573
 20
133.8403052943
 40
4.5
 50
240.0002375645
 51
270.0
  0
ARC
  8
0
 62
7
  6
CONTINUOUS
 10
89.7831568573
 20
133.8403052943
 40
4.5
 50
240.0002375645
 51
270.0
  0
ARC
  8
0
 62
7
  6
CONTINUOUS
 10
90.7831568573
 20
133.8403052943
 40
4.5
 50
270.0
 51
299.9997624355
  0
ARC
  8
AXES
 62
7
  6
CONTINUOUS
 10
103.1081568573
 20
133.6703052943
 40
1.5
 50
94.1260708806
 51
257.7538206432
  0
ARC
  8
AXES
 62
7
  6
CONTINUOUS
 10
108.7081568573
 20
133.6703052943
 40
1.5
 50
282.2461793568
 51
85.8739291194
  0
ARC
  8
0
 62
7
  6
CONTINUOUS
 10
103.408170909
 20
130.3761955172
 40
0.5000000053
 50
180.0000149619
 51
240.000275953
  0
ARC
  8
0
 62
7
  6
CONTINUOUS
 10
87.783170909
 20
130.3761955172
 40
0.5000000053
 50
180.0000149619
 51
240.000275953
  0
ARC
  8
0
 62
7
  6
CONTINUOUS
 10
108.4081424941
 20
130.3761953866
 40
0.5
 50
299.9997624355
 51
360.0
  0
ARC
  8
0
 62
7
  6
CONTINUOUS
 10
92.7831424941
 20
130.3761953866
 40
0.5
 50
299.9997624355
 51
360.0
  0
ARC
  8
0
 62
7
  6
CONTINUOUS
 10
108.7581424941
 20
134.3647074283
 40
0.15
 50
0.0
 51
14.2
  0
ARC
  8
AXES
 62
7
  6
CONTINUOUS
 10
108.8268764942
 20
135.3160287364
 40
0.15
 50
194.2
 51
265.8739291194
  0
ARC
  8
AXES
 62
7
  6
CONTINUOUS
 10
109.0581424941
 20
132.057850627
 40
0.15
 50
102.2461793568
 51
180.0
  0
ARC
  8
AXES
 62
7
  6
CONTINUOUS
 10
102.9894372203
 20
135.3160287364
 40
0.15
 50
274.1260708806
 51
345.8
  0
ARC
  8
AXES
 62
7
  6
CONTINUOUS
 10
102.7581712204
 20
132.057850627
 40
0.15
 50
0.0
 51
77.7538206431
  0
ARC
  8
AXES
 62
7
  6
CONTINUOUS
 10
93.1331424941
 20
134.3647074283
 40
0.15
 50
0.0
 51
14.2
  0
ARC
  8
0
 62
7
  6
CONTINUOUS
 10
93.1331422683
 20
134.3647083206
 40
0.15
 50
359.9996591503
 51
14.1996484045
  0
ARC
  8
0
 62
7
  6
CONTINUOUS
 10
103.0581712204
 20
134.3647074283
 40
0.15
 50
165.8
 51
180.0
  0
ARC
  8
0
 62
7
  6
CONTINUOUS
 10
87.4331713966
 20
134.3647081247
 40
0.15
 50
165.8002743954
 51
180.0002660079
  0
ARC
  8
AXES
 62
7
  6
CONTINUOUS
 10
87.4331712204
 20
134.3647074283
 40
0.15
 50
165.8
 51
180.0
  0
ARC
  8
AXES
 62
7
  6
CONTINUOUS
 10
82.0331568573
 20
140.6889434493
 40
6.0
 50
4.1303086462
 51
5.3177256585
  0
ARC
  8
0
 62
7
  6
CONTINUOUS
 10
82.0331568573
 20
140.6889434493
 40
6.0
 50
0.0
 51
70.3307143578
  0
ARC
  8
0
 62
7
  6
CONTINUOUS
 10
96.5331568573
 20
142.0903052943
 40
4.0
 50
90.0
 51
180.0
  0
ARC
  8
0
 62
7
  6
CONTINUOUS
 10
100.6581568573
 20
143.0903052943
 40
3.0
 50
0.0
 51
90.0
  0
ARC
  8
0
 62
7
  6
CONTINUOUS
 10
115.4581568573
 20
143.2403052943
 40
2.7
 50
0.0
 51
90.0
  0
ARC
  8
0
 62
7
  6
CONTINUOUS
 10
110.8581568573
 20
143.2403052943
 40
2.7
 50
90.0
 51
180.0
  0
ARC
  8
0
 62
7
  6
CONTINUOUS
 10
108.6581568573
 20
137.4095835865
 40
0.5
 50
180.0
 51
194.2
  0
ARC
  8
0
 62
7
  6
CONTINUOUS
 10
103.1581568573
 20
137.4095835865
 40
0.5
 50
345.8
 51
360.0
  0
ARC
  8
0
 62
7
  6
CONTINUOUS
 10
87.5331568573
 20
137.4095835865
 40
0.5
 50
345.8
 51
360.0
  0
ARC
  8
AXES
 62
7
  6
CONTINUOUS
 10
93.0331568573
 20
137.4095835865
 40
0.5
 50
180.0
 51
194.2
  0
ARC
  8
0
 62
7
  6
CONTINUOUS
 10
93.0331568573
 20
137.4095835865
 40
0.5
 50
180.0
 51
194.2
  0
ARC
  8
0
 62
7
  6
CONTINUOUS
 10
131.6621708998
 20
130.3700835763
 40
0.5000000052
 50
180.0000153883
 51
240.3272591796
  0
ARC
  8
0
 62
7
  6
CONTINUOUS
 10
117.908170909
 20
130.3761955172
 40
0.5000000053
 50
180.0000149619
 51
240.000275953
  0
ARC
  8
0
 62
7
  6
CONTINUOUS
 10
122.9081424941
 20
130.3761953866
 40
0.5
 50
299.9997624355
 51
360.0
  0
ARC
  8
0
 62
7
  6
CONTINUOUS
 10
133.6621568573
 20
133.8803052943
 40
4.54
 50
240.3272196412
 51
270.0
  0
ARC
  8
0
 62
7
  6
CONTINUOUS
 10
120.9081568573
 20
133.8403052943
 40
4.5
 50
270.0
 51
299.9997624355
  0
ARC
  8
0
 62
7
  6
CONTINUOUS
 10
119.9081568573
 20
133.8403052943
 40
4.5
 50
240.0002375645
 51
270.0
  0
ARC
  8
AXES
 62
7
  6
CONTINUOUS
 10
117.5581712204
 20
134.3647074283
 40
0.15
 50
165.8
 51
180.0
  0
ARC
  8
0
 62
7
  6
CONTINUOUS
 10
117.5581713966
 20
134.3647081247
 40
0.15
 50
165.8002743954
 51
180.0002660079
  0
ARC
  8
0
 62
7
  6
CONTINUOUS
 10
131.3121713966
 20
134.3647081247
 40
0.15
 50
165.8002743954
 51
180.0002660079
  0
ARC
  8
AXES
 62
7
  6
CONTINUOUS
 10
131.3121712204
 20
134.3647074283
 40
0.15
 50
165.8
 51
180.0
  0
ARC
  8
AXES
 62
7
  6
CONTINUOUS
 10
123.2581424941
 20
134.3647074283
 40
0.15
 50
0.0
 51
14.2
  0
ARC
  8
0
 62
7
  6
CONTINUOUS
 10
123.2581424941
 20
134.3647074283
 40
0.15
 50
0.0
 51
14.2
  0
ARC
  8
0
 62
7
  6
CONTINUOUS
 10
144.7581570643
 20
130.8908152538
 40
0.5000000086
 50
179.9999658822
 51
224.4152676244
  0
ARC
  8
0
 62
7
  6
CONTINUOUS
 10
149.7581568573
 20
130.8908155515
 40
0.5
 50
315.5846914028
 51
360.0
  0
ARC
  8
0
 62
7
  6
CONTINUOUS
 10
136.6621424941
 20
130.370083442
 40
0.5
 50
299.6727803588
 51
360.0
  0
ARC
  8
0
 62
7
  6
CONTINUOUS
 10
134.6621568573
 20
133.8803052943
 40
4.54
 50
270.0
 51
299.6727803588
  0
ARC
  8
0
 62
7
  6
CONTINUOUS
 10
147.2581568573
 20
133.3403052943
 40
4.0
 50
224.4153085972
 51
315.5846914028
  0
ARC
  8
0
 62
7
  6
CONTINUOUS
 10
144.4081570335
 20
134.3647081247
 40
0.15
 50
165.8002743954
 51
180.0002660079
  0
ARC
  8
AXES
 62
7
  6
CONTINUOUS
 10
144.4081568573
 20
134.3647074283
 40
0.15
 50
165.8
 51
180.0
  0
ARC
  8
AXES
 62
7
  6
CONTINUOUS
 10
137.0121424941
 20
134.3647074283
 40
0.15
 50
0.0
 51
14.2
  0
ARC
  8
0
 62
7
  6
CONTINUOUS
 10
137.0121424941
 20
134.3647074283
 40
0.15
 50
0.0
 51
14.2
  0
ARC
  8
AXES
 62
7
  6
CONTINUOUS
 10
150.1081568573
 20
134.3647074283
 40
0.15
 50
0.0
 51
14.2
  0
ARC
  8
0
 62
7
  6
CONTINUOUS
 10
150.1081568573
 20
134.3647074283
 40
0.15
 50
0.0
 51
14.2
  0
ARC
  8
0
 62
7
  6
CONTINUOUS
 10
129.2121568573
 20
143.2403052943
 40
2.7
 50
0.0
 51
90.0
  0
ARC
  8
0
 62
7
  6
CONTINUOUS
 10
125.3581568573
 20
143.2403052943
 40
2.7
 50
90.0
 51
180.0
  0
ARC
  8
0
 62
7
  6
CONTINUOUS
 10
143.0081568573
 20
143.6063052943
 40
2.0
 50
0.0
 51
90.0
  0
ARC
  8
0
 62
7
  6
CONTINUOUS
 10
151.5081568573
 20
143.6063052943
 40
2.0
 50
90.0
 51
180.0
  0
ARC
  8
0
 62
7
  6
CONTINUOUS
 10
138.4121568573
 20
143.6063052943
 40
2.0
 50
90.0
 51
180.0
  0
ARC
  8
0
 62
7
  6
CONTINUOUS
 10
144.5081568573
 20
137.4096403491
 40
0.5
 50
345.8
 51
360.0
  0
ARC
  8
0
 62
7
  6
CONTINUOUS
 10
150.0081568573
 20
137.4096403491
 40
0.5
 50
180.0
 51
194.2
  0
ARC
  8
AXES
 62
7
  6
CONTINUOUS
 10
150.0081568573
 20
137.4096403491
 40
0.5
 50
180.0
 51
194.2
  0
ARC
  8
0
 62
7
  6
CONTINUOUS
 10
131.4121568573
 20
137.4095835865
 40
0.5
 50
345.8
 51
360.0
  0
ARC
  8
0
 62
7
  6
CONTINUOUS
 10
136.9121568573
 20
137.4095835865
 40
0.5
 50
180.0
 51
194.2
  0
ARC
  8
0
 62
7
  6
CONTINUOUS
 10
123.1581568573
 20
137.4095835865
 40
0.5
 50
180.0
 51
194.2
  0
ARC
  8
0
 62
7
  6
CONTINUOUS
 10
117.6581568573
 20
137.4095835865
 40
0.5
 50
345.8
 51
360.0
  0
ARC
  8
0
 62
7
  6
CONTINUOUS
 10
89.9081568573
 20
152.1403052943
 40
5.5
 50
210.7881902385
 51
270.0
  0
ARC
  8
0
 62
7
  6
CONTINUOUS
 10
105.1581568573
 20
151.2403052943
 40
4.5
 50
180.0
 51
270.0
  0
ARC
  8
0
 62
7
  6
CONTINUOUS
 10
106.6581568573
 20
151.2403052943
 40
4.5
 50
270.0
 51
360.0
  0
ARC
  8
0
 62
7
  6
CONTINUOUS
 10
91.6581568573
 20
151.1403052943
 40
4.5
 50
270.0
 51
360.0
  0
ARC
  8
0
 62
7
  6
CONTINUOUS
 10
82.9081568573
 20
149.9338571401
 40
3.0
 50
179.9995416281
 51
250.3310771527
  0
ARC
  8
0
 62
7
  6
CONTINUOUS
 10
116.1581568573
 20
155.3780270021
 40
0.5
 50
165.8
 51
180.0
  0
ARC
  8
0
 62
7
  6
CONTINUOUS
 10
110.6581568573
 20
155.3780270021
 40
0.5
 50
0.0
 51
14.2
  0
ARC
  8
0
 62
7
  6
CONTINUOUS
 10
101.1581568573
 20
155.3780270021
 40
0.5
 50
165.8
 51
180.0
  0
ARC
  8
0
 62
7
  6
CONTINUOUS
 10
95.6581568573
 20
155.3780314799
 40
0.5
 50
0.0
 51
14.1989894451
  0
ARC
  8
0
 62
7
  6
CONTINUOUS
 10
85.3121568573
 20
149.401823233
 40
0.15
 50
180.0
 51
210.7881902385
  0
ARC
  8
0
 62
7
  6
CONTINUOUS
 10
82.4081568573
 20
161.3848036674
 40
2.5
 50
70.3307146137
 51
180.0005683457
  0
ARC
  8
0
 62
7
  6
CONTINUOUS
 10
96.1541568573
 20
162.6903052943
 40
0.75
 50
90.0
 51
180.0
  0
ARC
  8
0
 62
7
  6
CONTINUOUS
 10
100.6621568573
 20
162.6903052943
 40
0.75
 50
0.0
 51
90.0
  0
ARC
  8
0
 62
7
  6
CONTINUOUS
 10
111.1541568573
 20
162.6903052943
 40
0.75
 50
90.0
 51
180.0
  0
ARC
  8
0
 62
7
  6
CONTINUOUS
 10
115.6621568573
 20
162.6903052943
 40
0.75
 50
0.0
 51
90.0
  0
ARC
  8
0
 62
7
  6
CONTINUOUS
 10
85.0121568573
 20
162.9496275136
 40
0.15
 50
0.0000719716
 51
70.3307388386
  0
ARC
  8
0
 62
7
  6
CONTINUOUS
 10
95.5541568573
 20
158.4389874386
 40
0.15
 50
180.0
 51
194.1989894452
  0
ARC
  8
0
 62
7
  6
CONTINUOUS
 10
116.2621568573
 20
158.438767769
 40
0.15
 50
345.8
 51
360.0
  0
ARC
  8
0
 62
7
  6
CONTINUOUS
 10
110.5541570831
 20
158.4387668767
 40
0.15
 50
179.9996591504
 51
194.1996484044
  0
ARC
  8
0
 62
7
  6
CONTINUOUS
 10
101.2621568573
 20
158.438767769
 40
0.15
 50
345.8
 51
360.0
  0
ARC
  8
0
 62
7
  6
CONTINUOUS
 10
147.2581568573
 20
151.1943052943
 40
4.104
 50
180.0
 51
360.0
  0
ARC
  8
0
 62
7
  6
CONTINUOUS
 10
133.5121568573
 20
150.7403052943
 40
3.85
 50
180.0
 51
270.0
  0
ARC
  8
0
 62
7
  6
CONTINUOUS
 10
134.8121568573
 20
150.7403052943
 40
3.85
 50
270.0
 51
360.0
  0
ARC
  8
0
 62
7
  6
CONTINUOUS
 10
119.5081568573
 20
150.7403052943
 40
3.85
 50
180.0
 51
270.0
  0
ARC
  8
0
 62
7
  6
CONTINUOUS
 10
121.3081568573
 20
150.7403052943
 40
3.85
 50
270.0
 51
360.0
  0
ARC
  8
0
 62
7
  6
CONTINUOUS
 10
143.6541568573
 20
155.3780270021
 40
0.5
 50
165.8
 51
180.0
  0
ARC
  8
0
 62
7
  6
CONTINUOUS
 10
150.8621568573
 20
155.3780270021
 40
0.5
 50
0.0
 51
14.2
  0
ARC
  8
0
 62
7
  6
CONTINUOUS
 10
130.1621568573
 20
155.3780270021
 40
0.5
 50
165.8
 51
180.0
  0
ARC
  8
0
 62
7
  6
CONTINUOUS
 10
138.1621568573
 20
155.3780270021
 40
0.5
 50
0.0
 51
14.2
  0
ARC
  8
0
 62
7
  6
CONTINUOUS
 10
124.6581568573
 20
155.3780270021
 40
0.5
 50
0.0
 51
14.2
  0
ARC
  8
0
 62
7
  6
CONTINUOUS
 10
125.1541568573
 20
162.6903052943
 40
0.75
 50
90.0
 51
180.0
  0
ARC
  8
0
 62
7
  6
CONTINUOUS
 10
129.6661568573
 20
162.6903052943
 40
0.75
 50
0.0
 51
90.0
  0
ARC
  8
0
 62
7
  6
CONTINUOUS
 10
138.6581568573
 20
162.6903052943
 40
0.75
 50
90.0
 51
180.0
  0
ARC
  8
0
 62
7
  6
CONTINUOUS
 10
143.1581568573
 20
162.6903052943
 40
0.75
 50
0.0
 51
90.0
  0
ARC
  8
0
 62
7
  6
CONTINUOUS
 10
151.3581568573
 20
162.6903052943
 40
0.75
 50
90.0
 51
180.0
  0
ARC
  8
0
 62
7
  6
CONTINUOUS
 10
143.7581566959
 20
158.4387671312
 40
0.15
 50
345.8002513166
 51
0.0002436328
  0
ARC
  8
0
 62
7
  6
CONTINUOUS
 10
150.7581568573
 20
158.438767769
 40
0.15
 50
180.0
 51
194.2
  0
ARC
  8
0
 62
7
  6
CONTINUOUS
 10
138.0581570831
 20
158.4387668767
 40
0.15
 50
179.9996591504
 51
194.1996484045
  0
ARC
  8
0
 62
7
  6
CONTINUOUS
 10
130.2661568573
 20
158.438767769
 40
0.15
 50
345.8
 51
360.0
  0
ARC
  8
0
 62
7
  6
CONTINUOUS
 10
124.5541570831
 20
158.4387668767
 40
0.15
 50
179.9996591503
 51
194.1996484045
  0
ARC
  8
0
 62
7
  6
CONTINUOUS
 10
159.9581568573
 20
133.3403052943
 40
4.0
 50
224.4153085972
 51
315.5846914028
  0
ARC
  8
0
 62
7
  6
CONTINUOUS
 10
170.1581570643
 20
130.8908152538
 40
0.5000000086
 50
179.9999658822
 51
224.4152676244
  0
ARC
  8
0
 62
7
  6
CONTINUOUS
 10
157.4581570643
 20
130.8908152538
 40
0.5000000086
 50
179.9999658822
 51
224.4152676244
  0
ARC
  8
0
 62
7
  6
CONTINUOUS
 10
162.4581568573
 20
130.8908155515
 40
0.5
 50
315.5846914028
 51
360.0
  0
ARC
  8
0
 62
7
  6
CONTINUOUS
 10
169.9081568573
 20
137.4096403491
 40
0.5
 50
345.8
 51
360.0
  0
ARC
  8
0
 62
7
  6
CONTINUOUS
 10
157.2081568573
 20
137.4096403491
 40
0.5
 50
345.8
 51
360.0
  0
ARC
  8
0
 62
7
  6
CONTINUOUS
 10
162.7081568573
 20
137.4096403491
 40
0.5
 50
180.0
 51
194.2
  0
ARC
  8
AXES
 62
7
  6
CONTINUOUS
 10
162.7081568573
 20
137.4096403491
 40
0.5
 50
180.0
 51
194.2
  0
ARC
  8
0
 62
7
  6
CONTINUOUS
 10
157.1081570335
 20
134.3647081247
 40
0.15
 50
165.8002743954
 51
180.0002660079
  0
ARC
  8
AXES
 62
7
  6
CONTINUOUS
 10
157.1081568573
 20
134.3647074283
 40
0.15
 50
165.8
 51
180.0
  0
ARC
  8
0
 62
7
  6
CONTINUOUS
 10
169.8081570335
 20
134.3647081247
 40
0.15
 50
165.8002743954
 51
180.0002660079
  0
ARC
  8
AXES
 62
7
  6
CONTINUOUS
 10
169.8081568573
 20
134.3647074283
 40
0.15
 50
165.8
 51
180.0
  0
ARC
  8
AXES
 62
7
  6
CONTINUOUS
 10
162.8081568573
 20
134.3647074283
 40
0.15
 50
0.0
 51
14.2
  0
ARC
  8
0
 62
7
  6
CONTINUOUS
 10
162.8081568573
 20
134.3647074283
 40
0.15
 50
0.0
 51
14.2
  0
ARC
  8
0
 62
7
  6
CONTINUOUS
 10
185.3581568573
 20
133.3403052943
 40
4.0
 50
224.4153085972
 51
315.5846914028
  0
ARC
  8
0
 62
7
  6
CONTINUOUS
 10
172.6581568573
 20
133.3403052943
 40
4.0
 50
224.4153085972
 51
315.5846914028
  0
ARC
  8
0
 62
7
  6
CONTINUOUS
 10
182.8581570643
 20
130.8908152538
 40
0.5000000086
 50
179.9999658822
 51
224.4152676244
  0
ARC
  8
0
 62
7
  6
CONTINUOUS
 10
187.8581568573
 20
130.8908155515
 40
0.5
 50
315.5846914028
 51
360.0
  0
ARC
  8
0
 62
7
  6
CONTINUOUS
 10
175.1581568573
 20
130.8908155515
 40
0.5
 50
315.5846914028
 51
360.0
  0
ARC
  8
0
 62
7
  6
CONTINUOUS
 10
182.6081568573
 20
137.4096403491
 40
0.5
 50
345.8
 51
360.0
  0
ARC
  8
0
 62
7
  6
CONTINUOUS
 10
188.1081568573
 20
137.4096403491
 40
0.5
 50
180.0
 51
194.2
  0
ARC
  8
AXES
 62
7
  6
CONTINUOUS
 10
188.1081568573
 20
137.4096403491
 40
0.5
 50
180.0
 51
194.2
  0
ARC
  8
0
 62
7
  6
CONTINUOUS
 10
175.4081568573
 20
137.4096403491
 40
0.5
 50
180.0
 51
194.2
  0
ARC
  8
AXES
 62
7
  6
CONTINUOUS
 10
175.4081568573
 20
137.4096403491
 40
0.5
 50
180.0
 51
194.2
  0
ARC
  8
0
 62
7
  6
CONTINUOUS
 10
182.5081570335
 20
134.3647081247
 40
0.15
 50
165.8002743954
 51
180.0002660079
  0
ARC
  8
AXES
 62
7
  6
CONTINUOUS
 10
182.5081568573
 20
134.3647074283
 40
0.15
 50
165.8
 51
180.0
  0
ARC
  8
AXES
 62
7
  6
CONTINUOUS
 10
175.5081568573
 20
134.3647074283
 40
0.15
 50
0.0
 51
14.2
  0
ARC
  8
0
 62
7
  6
CONTINUOUS
 10
175.5081568573
 20
134.3647074283
 40
0.15
 50
0.0
 51
14.2
  0
ARC
  8
AXES
 62
7
  6
CONTINUOUS
 10
188.2081568573
 20
134.3647074283
 40
0.15
 50
0.0
 51
14.2
  0
ARC
  8
0
 62
7
  6
CONTINUOUS
 10
188.2081568573
 20
134.3647074283
 40
0.15
 50
0.0
 51
14.2
  0
ARC
  8
0
 62
7
  6
CONTINUOUS
 10
181.1081568573
 20
143.6063052943
 40
2.0
 50
0.0
 51
90.0
  0
ARC
  8
0
 62
7
  6
CONTINUOUS
 10
189.6081568573
 20
143.6063052943
 40
2.0
 50
90.0
 51
180.0
  0
ARC
  8
0
 62
7
  6
CONTINUOUS
 10
168.4081568573
 20
143.6063052943
 40
2.0
 50
0.0
 51
90.0
  0
ARC
  8
0
 62
7
  6
CONTINUOUS
 10
176.9081568573
 20
143.6063052943
 40
2.0
 50
90.0
 51
180.0
  0
ARC
  8
0
 62
7
  6
CONTINUOUS
 10
155.7081568573
 20
143.6063052943
 40
2.0
 50
0.0
 51
90.0
  0
ARC
  8
0
 62
7
  6
CONTINUOUS
 10
164.2081568573
 20
143.6063052943
 40
2.0
 50
90.0
 51
180.0
  0
ARC
  8
0
 62
7
  6
CONTINUOUS
 10
198.0581568573
 20
133.3403052943
 40
4.0
 50
224.4153085972
 51
315.5846914028
  0
ARC
  8
0
 62
7
  6
CONTINUOUS
 10
208.2581570643
 20
130.8908152538
 40
0.5000000086
 50
179.9999658822
 51
224.4152676244
  0
ARC
  8
0
 62
7
  6
CONTINUOUS
 10
195.5581570643
 20
130.8908152538
 40
0.5000000086
 50
179.9999658822
 51
224.4152676244
  0
ARC
  8
0
 62
7
  6
CONTINUOUS
 10
200.5581568573
 20
130.8908155515
 40
0.5
 50
315.5846914028
 51
360.0
  0
ARC
  8
0
 62
7
  6
CONTINUOUS
 10
208.0081568573
 20
137.4096403491
 40
0.5
 50
345.8
 51
360.0
  0
ARC
  8
0
 62
7
  6
CONTINUOUS
 10
195.3081568573
 20
137.4096403491
 40
0.5
 50
345.8
 51
360.0
  0
ARC
  8
0
 62
7
  6
CONTINUOUS
 10
200.8081568573
 20
137.4096403491
 40
0.5
 50
180.0
 51
194.2
  0
ARC
  8
AXES
 62
7
  6
CONTINUOUS
 10
200.8081568573
 20
137.4096403491
 40
0.5
 50
180.0
 51
194.2
  0
ARC
  8
0
 62
7
  6
CONTINUOUS
 10
195.2081570335
 20
134.3647081247
 40
0.15
 50
165.8002743954
 51
180.0002660079
  0
ARC
  8
AXES
 62
7
  6
CONTINUOUS
 10
195.2081568573
 20
134.3647074283
 40
0.15
 50
165.8
 51
180.0
  0
ARC
  8
0
 62
7
  6
CONTINUOUS
 10
207.9081570335
 20
134.3647081247
 40
0.15
 50
165.8002743954
 51
180.0002660079
  0
ARC
  8
AXES
 62
7
  6
CONTINUOUS
 10
207.9081568573
 20
134.3647074283
 40
0.15
 50
165.8
 51
180.0
  0
ARC
  8
AXES
 62
7
  6
CONTINUOUS
 10
200.9081568573
 20
134.3647074283
 40
0.15
 50
0.0
 51
14.2
  0
ARC
  8
0
 62
7
  6
CONTINUOUS
 10
200.9081568573
 20
134.3647074283
 40
0.15
 50
0.0
 51
14.2
  0
ARC
  8
0
 62
7
  6
CONTINUOUS
 10
223.4581568573
 20
133.3403052943
 40
4.0
 50
224.4153085972
 51
315.5846914028
  0
ARC
  8
0
 62
7
  6
CONTINUOUS
 10
210.7581568573
 20
133.3403052943
 40
4.0
 50
224.4153085972
 51
315.5846914028
  0
ARC
  8
0
 62
7
  6
CONTINUOUS
 10
220.9581570643
 20
130.8908152538
 40
0.5000000086
 50
179.9999658822
 51
224.4152676244
  0
ARC
  8
0
 62
7
  6
CONTINUOUS
 10
225.9581568573
 20
130.8908155515
 40
0.5
 50
315.5846914028
 51
360.0
  0
ARC
  8
0
 62
7
  6
CONTINUOUS
 10
213.2581568573
 20
130.8908155515
 40
0.5
 50
315.5846914028
 51
360.0
  0
ARC
  8
0
 62
7
  6
CONTINUOUS
 10
220.7081568573
 20
137.4096403491
 40
0.5
 50
345.8
 51
360.0
  0
ARC
  8
0
 62
7
  6
CONTINUOUS
 10
226.2081568573
 20
137.4096403491
 40
0.5
 50
180.0
 51
194.2
  0
ARC
  8
AXES
 62
7
  6
CONTINUOUS
 10
226.2081568573
 20
137.4096403491
 40
0.5
 50
186.311610126
 51
187.888389874
  0
ARC
  8
0
 62
7
  6
CONTINUOUS
 10
213.5081568573
 20
137.4096403491
 40
0.5
 50
180.0
 51
194.2
  0
ARC
  8
AXES
 62
7
  6
CONTINUOUS
 10
213.5081568573
 20
137.4096403491
 40
0.5
 50
180.0
 51
194.2
  0
ARC
  8
0
 62
7
  6
CONTINUOUS
 10
226.3081566315
 20
134.3647083206
 40
0.15
 50
359.9996591504
 51
14.1996484044
  0
ARC
  8
AXES
 62
7
  6
CONTINUOUS
 10
226.3081568573
 20
134.3647074283
 40
0.15
 50
0.0
 51
14.2
  0
ARC
  8
0
 62
7
  6
CONTINUOUS
 10
220.6081570335
 20
134.3647081247
 40
0.15
 50
165.8002743954
 51
180.0002660079
  0
ARC
  8
AXES
 62
7
  6
CONTINUOUS
 10
220.6081568573
 20
134.3647074283
 40
0.15
 50
165.8
 51
180.0
  0
ARC
  8
AXES
 62
7
  6
CONTINUOUS
 10
213.6081568573
 20
134.3647074283
 40
0.15
 50
0.0
 51
14.2
  0
ARC
  8
0
 62
7
  6
CONTINUOUS
 10
213.6081568573
 20
134.3647074283
 40
0.15
 50
0.0
 51
14.2
  0
ARC
  8
0
 62
7
  6
CONTINUOUS
 10
219.2081568573
 20
143.6063052943
 40
2.0
 50
0.0
 51
90.0
  0
ARC
  8
0
 62
7
  6
CONTINUOUS
 10
206.5081568573
 20
143.6063052943
 40
2.0
 50
0.0
 51
90.0
  0
ARC
  8
0
 62
7
  6
CONTINUOUS
 10
215.0081568573
 20
143.6063052943
 40
2.0
 50
90.0
 51
180.0
  0
ARC
  8
0
 62
7
  6
CONTINUOUS
 10
193.8081568573
 20
143.6063052943
 40
2.0
 50
0.0
 51
90.0
  0
ARC
  8
0
 62
7
  6
CONTINUOUS
 10
202.3081568573
 20
143.6063052943
 40
2.0
 50
90.0
 51
180.0
  0
ARC
  8
0
 62
7
  6
CONTINUOUS
 10
224.7081568573
 20
146.0903052943
 40
1.0
 50
0.0
 51
90.0
  0
ARC
  8
0
 62
7
  6
CONTINUOUS
 10
185.3581568573
 20
151.1943052943
 40
4.104
 50
180.0
 51
360.0
  0
ARC
  8
0
 62
7
  6
CONTINUOUS
 10
172.6581568573
 20
151.1943052943
 40
4.104
 50
180.0
 51
360.0
  0
ARC
  8
0
 62
7
  6
CONTINUOUS
 10
159.9581568573
 20
151.1943052943
 40
4.104
 50
180.0
 51
360.0
  0
ARC
  8
0
 62
7
  6
CONTINUOUS
 10
181.7541568573
 20
155.3780270021
 40
0.5
 50
165.8
 51
180.0
  0
ARC
  8
0
 62
7
  6
CONTINUOUS
 10
188.9621568573
 20
155.3780270021
 40
0.5
 50
0.0
 51
14.2
  0
ARC
  8
0
 62
7
  6
CONTINUOUS
 10
169.0541568573
 20
155.3780270021
 40
0.5
 50
165.8
 51
180.0
  0
ARC
  8
0
 62
7
  6
CONTINUOUS
 10
176.2621568573
 20
155.3780270021
 40
0.5
 50
0.0
 51
14.2
  0
ARC
  8
0
 62
7
  6
CONTINUOUS
 10
156.3541568573
 20
155.3780270021
 40
0.5
 50
165.8
 51
180.0
  0
ARC
  8
0
 62
7
  6
CONTINUOUS
 10
163.5621568573
 20
155.3780270021
 40
0.5
 50
0.0
 51
14.2
  0
ARC
  8
0
 62
7
  6
CONTINUOUS
 10
155.8581568573
 20
162.6903052943
 40
0.75
 50
0.0
 51
90.0
  0
ARC
  8
0
 62
7
  6
CONTINUOUS
 10
164.0581568573
 20
162.6903052943
 40
0.75
 50
90.0
 51
180.0
  0
ARC
  8
0
 62
7
  6
CONTINUOUS
 10
168.5581568573
 20
162.6903052943
 40
0.75
 50
0.0
 51
90.0
  0
ARC
  8
0
 62
7
  6
CONTINUOUS
 10
176.7581568573
 20
162.6903052943
 40
0.75
 50
90.0
 51
180.0
  0
ARC
  8
0
 62
7
  6
CONTINUOUS
 10
181.2581568573
 20
162.6903052943
 40
0.75
 50
0.0
 51
90.0
  0
ARC
  8
0
 62
7
  6
CONTINUOUS
 10
189.4581568573
 20
162.6903052943
 40
0.75
 50
90.0
 51
180.0
  0
ARC
  8
0
 62
7
  6
CONTINUOUS
 10
181.8581566959
 20
158.4387671312
 40
0.15
 50
345.8002513166
 51
0.0002436328
  0
ARC
  8
0
 62
7
  6
CONTINUOUS
 10
188.8581568573
 20
158.438767769
 40
0.15
 50
180.0
 51
194.2
  0
ARC
  8
0
 62
7
  6
CONTINUOUS
 10
169.1581566959
 20
158.4387671312
 40
0.15
 50
345.8002513166
 51
0.0002436328
  0
ARC
  8
0
 62
7
  6
CONTINUOUS
 10
176.1581568573
 20
158.438767769
 40
0.15
 50
180.0
 51
194.2
  0
ARC
  8
0
 62
7
  6
CONTINUOUS
 10
156.4581566959
 20
158.4387671312
 40
0.15
 50
345.8002513166
 51
0.0002436328
  0
ARC
  8
0
 62
7
  6
CONTINUOUS
 10
163.4581568573
 20
158.438767769
 40
0.15
 50
180.0
 51
194.2
  0
ARC
  8
0
 62
7
  6
CONTINUOUS
 10
223.4581568573
 20
151.1943052943
 40
4.104
 50
180.0
 51
270.0
  0
ARC
  8
0
 62
7
  6
CONTINUOUS
 10
210.7581568573
 20
151.1943052943
 40
4.104
 50
180.0
 51
360.0
  0
ARC
  8
0
 62
7
  6
CONTINUOUS
 10
198.0581568573
 20
151.1943052943
 40
4.104
 50
180.0
 51
360.0
  0
ARC
  8
0
 62
7
  6
CONTINUOUS
 10
219.8541568573
 20
155.3780270021
 40
0.5
 50
165.8
 51
180.0
  0
ARC
  8
0
 62
7
  6
CONTINUOUS
 10
207.1541568573
 20
155.3780270021
 40
0.5
 50
165.8
 51
180.0
  0
ARC
  8
0
 62
7
  6
CONTINUOUS
 10
214.3621568573
 20
155.3780270021
 40
0.5
 50
0.0
 51
14.2
  0
ARC
  8
0
 62
7
  6
CONTINUOUS
 10
194.4541568573
 20
155.3780270021
 40
0.5
 50
165.8
 51
180.0
  0
ARC
  8
0
 62
7
  6
CONTINUOUS
 10
201.6621568573
 20
155.3780270021
 40
0.5
 50
0.0
 51
14.2
  0
ARC
  8
0
 62
7
  6
CONTINUOUS
 10
193.9581568573
 20
162.6903052943
 40
0.75
 50
0.0
 51
90.0
  0
ARC
  8
0
 62
7
  6
CONTINUOUS
 10
202.1581568573
 20
162.6903052943
 40
0.75
 50
90.0
 51
180.0
  0
ARC
  8
0
 62
7
  6
CONTINUOUS
 10
206.6581568573
 20
162.6903052943
 40
0.75
 50
0.0
 51
90.0
  0
ARC
  8
0
 62
7
  6
CONTINUOUS
 10
214.8581568573
 20
162.6903052943
 40
0.75
 50
90.0
 51
180.0
  0
ARC
  8
0
 62
7
  6
CONTINUOUS
 10
219.3581568573
 20
162.6903052943
 40
0.75
 50
0.0
 51
90.0
  0
ARC
  8
0
 62
7
  6
CONTINUOUS
 10
207.2581566959
 20
158.4387671312
 40
0.15
 50
345.8002513166
 51
0.0002436328
  0
ARC
  8
0
 62
7
  6
CONTINUOUS
 10
214.2581568573
 20
158.438767769
 40
0.15
 50
180.0
 51
194.2
  0
ARC
  8
0
 62
7
  6
CONTINUOUS
 10
194.5581566959
 20
158.4387671312
 40
0.15
 50
345.8002513166
 51
0.0002436328
  0
ARC
  8
0
 62
7
  6
CONTINUOUS
 10
201.5581568573
 20
158.438767769
 40
0.15
 50
180.0
 51
194.2
  0
ARC
  8
0
 62
7
  6
CONTINUOUS
 10
219.9581568573
 20
158.438767769
 40
0.15
 50
345.8
 51
360.0
  0
ARC
  8
0
 62
7
  6
CONTINUOUS
 10
288.9223395376
 20
133.3403052943
 40
4.0
 50
180.0
 51
270.0
  0
ARC
  8
0
 62
7
  6
CONTINUOUS
 10
288.9223395376
 20
159.4403052943
 40
4.0
 50
168.1117443856
 51
180.0
  0
ARC
  8
AXES
 62
7
  6
CONTINUOUS
 10
290.9223395376
 20
133.6903052943
 40
2.1
 50
180.0
 51
360.0
  0
ARC
  8
AXES
 62
7
  6
CONTINUOUS
 10
290.9223395376
 20
141.7403052943
 40
2.1
 50
0.0
 51
180.0
  0
ARC
  8
0
 62
7
  6
CONTINUOUS
 10
292.9223395376
 20
133.3403052943
 40
4.0
 50
270.0
 51
360.0
  0
CIRCLE
  8
0
 62
7
  6
CONTINUOUS
 10
290.9223395376
 20
159.0903052943
 40
2.75
  0
CIRCLE
  8
0
 62
7
  6
CONTINUOUS
 10
290.9223395376
 20
159.0903052943
 40
2.1
  0
ARC
  8
0
 62
7
  6
CONTINUOUS
 10
292.9223395376
 20
159.4403052943
 40
4.0
 50
0.0
 51
35.5189702252
  0
ENDSEC
  0
EOF
