  0
SECTION
  2
HEADER
  9
$EXTMAX
 10
420.0
 20
297.0
 30
0.0
  9
$EXTMIN
 10
0.0
 20
0.0
 30
0.0
  9
$LIMMIN
 10
0.0
 20
0.0
  9
$LIMMAX
 10
420.0
 20
297.0
  9
$VIEWCTR
 10
210.0
 20
148.5
  9
$VIEWSIZE
 40
297.0
  9
$CLAYER
  8
0
  9
$LTSCALE
 40
23.1
  9
$CELTYPE
  6
BYLAYER
  9
$DIMSCALE
 40
1.0
  9
$DIMASZ
 40
3.5
  9
$DIMEXO
 40
1.0
  9
$DIMDLI
 40
15.96
  9
$DIMEXE
 40
2.0
  9
$DIMCEN
 40
3.78
  9
$DIMLFAC
 40
1.0
  9
$DIMBLK
  1
_FILLED
  9
$DIMTXT
 40
3.5
  9
$PDMODE
 70
3
  9
$PDSIZE
 40
0.3125
  9
$TILEMODE
 70
1
  0
ENDSEC
  0
SECTION
  2
TABLES
  0
TABLE
  2
LTYPE
 70
6
  0
LTYPE
  2
BYBLOCK
 70
0
  3

 72
65
 73
0
 40
0.0
  0
LTYPE
  2
BYLAYER
 70
0
  3

 72
65
 73
0
 40
0.0
  0
LTYPE
  2
CONTINUOUS
 70
64
  3
Solid line
 72
65
 73
0
 40
0.0
  0
LTYPE
  2
CENTER
 70
64
  3
____ _ ____ _ ____ _ ____ _ ____ _ ____ _ ____
 72
65
 73
4
 40
0.6
 49
0.375
 49
-0.075
 49
0.075
 49
-0.075
  0
LTYPE
  2
HIDDEN
 70
64
  3
- - - - - - - - - - - - - - - - - - - -
 72
65
 73
2
 40
0.2
 49
0.1
 49
-0.1
  0
LTYPE
  2
PHANTOM
 70
64
  3
_____ _ _ _____ _ _ _____ _ _ _____
 72
65
 73
6
 40
0.8
 49
0.45
 49
-0.05
 49
0.1
 49
-0.05
 49
0.1
 49
-0.05
  0
LTYPE
  2
DOT
 70
64
  3
. . . . . . . . . . . . . . . . . . . .
 72
65
 73
2
 40
0.2
 49
0.1
 49
-0.1
  0
LTYPE
  2
DASHED
 70
64
  3
- - - - - - - - - - - - - - - - - - - -
 72
65
 73
2
 40
0.2
 49
0.1
 49
-0.1
  0
ENDTAB
  0
TABLE
  2
LAYER
 70
36
  0
LAYER
  2
0
 70
0
 62
7
  6
CONTINUOUS
  0
LAYER
  2
DEFAULT_1
 70
0
 62
7
  6
CENTER
  0
LAYER
  2
DEFAULT_2
 70
0
 62
8
  6
HIDDEN
  0
LAYER
  2
DEFAULT_3
 70
0
 62
7
  6
PHANTOM
  0
LAYER
  2
AXES
 70
0
 62
7
  6
CONTINUOUS
  0
LAYER
  2
CSYS
 70
0
 62
7
  6
CONTINUOUS
  0
LAYER
  2
CURVE
 70
0
 62
7
  6
CONTINUOUS
  0
LAYER
  2
CURVES
 70
0
 62
7
  6
CONTINUOUS
  0
LAYER
  2
PLANES
 70
0
 62
7
  6
CONTINUOUS
  0
LAYER
  2
QUILT
 70
0
 62
7
  6
CONTINUOUS
  0
LAYER
  2
SURF-A
 70
0
 62
7
  6
CONTINUOUS
  0
LAYER
  2
SURFACE
 70
0
 62
7
  6
CONTINUOUS
  0
ENDTAB
  0
TABLE
  2
STYLE
 70
1
  0
STYLE
  2
STANDARD
 70
0
 40
0.0
 41
0.8
 50
0.0
 71
0
 42
0.2
  3
txt
  4

  0
STYLE
  2
TEXTSTYLE_1
 70
0
 40
0.0
 41
0.8
 50
0.0
 71
0
 42
0.2
  3
gdt
  4

  0
STYLE
  2
TEXTSTYLE_2
 70
0
 40
0.0
 41
0.6
 50
0.0
 71
0
 42
0.2
  3
txt
  4

  0
STYLE
  2
TEXTSTYLE_3
 70
0
 40
0.0
 41
1.0
 50
0.0
 71
0
 42
0.2
  3
ftb_____.ttf
  4

  0
STYLE
  2
TEXTSTYLE_4
 70
0
 40
0.0
 41
1.0
 50
0.0
 71
0
 42
0.2
  3
fti_____.ttf
  4

  0
STYLE
  2
TEXTSTYLE_5
 70
0
 40
0.0
 41
1.0
 50
0.0
 71
0
 42
0.2
  3
frutiger light.ttf
  4

  0
STYLE
  2
TEXTSTYLE_6
 70
0
 40
0.0
 41
0.7
 50
0.0
 71
0
 42
0.2
  3
txt
  4

  0
STYLE
  2
TEXTSTYLE_7
 70
0
 40
0.0
 41
0.32
 50
0.0
 71
0
 42
0.2
  3
txt
  4

  0
ENDTAB
  0
ENDSEC
  0
SECTION
  2
BLOCKS
  0
BLOCK
  8
0
 62
2
  6
CONTINUOUS
  2
SYMBOL_5_BL1
 70
64
 10
382.7840918555
 20
35.5067593403
  0
TEXT
  8
0
 62
7
  6
CONTINUOUS
 10
373.842376864
 20
30.5995157174
  7
TEXTSTYLE_4
 40
1.0655737705
  1
The brand for plastic modular belts and chains
 41
1.0
 72
0
  0
LINE
  8
0
 62
7
  6
CONTINUOUS
 10
358.7621602445
 20
36.0805298321
 11
358.7621602445
 21
33.9493822911
  0
LINE
  8
0
 62
7
  6
CONTINUOUS
 10
359.0512227376
 20
30.9584509954
 11
359.0512227376
 21
31.0552420547
  0
LINE
  8
0
 62
7
  6
CONTINUOUS
 10
358.7621602445
 20
31.0229783683
 11
358.8199727462
 21
30.8293962497
  0
LINE
  8
0
 62
7
  6
CONTINUOUS
 10
360.1556028675
 20
33.867415078
 11
360.1556028675
 21
36.0805298321
  0
LINE
  8
0
 62
7
  6
CONTINUOUS
 10
361.0746601894
 20
32.0231527829
 11
361.0746601894
 21
30.5067593403
  0
LINE
  8
0
 62
7
  6
CONTINUOUS
 10
361.3637227445
 20
30.5067593403
 11
361.3637227445
 21
31.2488242184
  0
LINE
  8
0
 62
7
  6
CONTINUOUS
 10
361.3637227445
 20
31.3778789641
 11
361.3637227445
 21
32.0231527829
  0
LINE
  8
0
 62
7
  6
CONTINUOUS
 10
358.8199727462
 20
31.216560532
 11
358.7621602445
 21
31.0229783683
  0
LINE
  8
0
 62
7
  6
CONTINUOUS
 10
359.1668477307
 20
30.7971325633
 11
359.0512227376
 21
30.9584509954
  0
LINE
  8
0
 62
7
  6
CONTINUOUS
 10
360.2652852997
 20
31.3133515913
 11
360.3230977445
 21
31.216560532
  0
LINE
  8
0
 62
7
  6
CONTINUOUS
 10
360.6121602997
 20
31.216560532
 11
360.5543476894
 21
31.3456152777
  0
LINE
  8
0
 62
7
  6
CONTINUOUS
 10
362.0408487691
 20
36.0805298321
 11
362.0408487691
 21
34.2772511436
  0
LINE
  8
0
 62
7
  6
CONTINUOUS
 10
362.0408487691
 20
32.9657757338
 11
362.0408487691
 21
32.3100380288
  0
LINE
  8
0
 62
7
  6
CONTINUOUS
 10
362.4043477445
 20
31.1520331591
 11
362.4043477445
 21
30.5067593403
  0
LINE
  8
0
 62
7
  6
CONTINUOUS
 10
362.6934101343
 20
30.5067593403
 11
362.6934101343
 21
31.1520331591
  0
LINE
  8
0
 62
7
  6
CONTINUOUS
 10
359.0512227376
 20
31.0552420547
 11
359.1090352445
 21
31.1842968456
  0
LINE
  8
0
 62
7
  6
CONTINUOUS
 10
358.8199727462
 20
30.8293962497
 11
358.9355977445
 21
30.7003414814
  0
LINE
  8
0
 62
7
  6
CONTINUOUS
 10
362.3465351343
 20
31.2810879048
 11
362.4043477445
 21
31.1520331591
  0
LINE
  8
0
 62
7
  6
CONTINUOUS
 10
363.1559103548
 20
30.7971325633
 11
363.2137226343
 21
30.668077795
  0
LINE
  8
0
 62
7
  6
CONTINUOUS
 10
362.6934101343
 20
31.1520331591
 11
362.6355978548
 21
31.3133515913
  0
LINE
  8
0
 62
7
  6
CONTINUOUS
 10
363.1559103548
 20
31.3456152777
 11
363.1559103548
 21
31.2810879048
  0
LINE
  8
0
 62
7
  6
CONTINUOUS
 10
363.1559103548
 20
30.8939236226
 11
363.1559103548
 21
30.7971325633
  0
LINE
  8
0
 62
7
  6
CONTINUOUS
 10
363.4342913921
 20
32.3100380288
 11
363.4342913921
 21
36.0805298321
  0
LINE
  8
0
 62
7
  6
CONTINUOUS
 10
363.4449727445
 20
30.7648688543
 11
363.4449727445
 21
30.8293962497
  0
LINE
  8
0
 62
7
  6
CONTINUOUS
 10
363.7621602445
 20
36.0805298321
 11
363.7621602445
 21
32.3100380288
  0
LINE
  8
0
 62
7
  6
CONTINUOUS
 10
360.5543476894
 20
30.7003414814
 11
360.6121602997
 21
30.8293962497
  0
LINE
  8
0
 62
7
  6
CONTINUOUS
 10
364.9480979651
 20
30.6035504109
 11
364.890285024
 21
30.7648688543
  0
LINE
  8
0
 62
7
  6
CONTINUOUS
 10
364.6012229651
 20
31.2810879048
 11
364.6012229651
 21
31.1842968456
  0
LINE
  8
0
 62
7
  6
CONTINUOUS
 10
364.6012229651
 20
31.0552420547
 11
364.6012229651
 21
30.8616599362
  0
LINE
  8
0
 62
7
  6
CONTINUOUS
 10
364.890285024
 20
30.7648688543
 11
364.890285024
 21
31.2810879048
  0
LINE
  8
0
 62
7
  6
CONTINUOUS
 10
365.1556028675
 20
32.3100380288
 11
365.1556028675
 21
34.1133167174
  0
LINE
  8
0
 62
7
  6
CONTINUOUS
 10
365.1556028675
 20
35.4247921272
 11
365.1556028675
 21
36.0805298321
  0
LINE
  8
0
 62
7
  6
CONTINUOUS
 10
365.4684104651
 20
32.0231527829
 11
365.4684104651
 21
31.8618343508
  0
LINE
  8
0
 62
7
  6
CONTINUOUS
 10
365.4684104651
 20
31.5391973962
 11
365.4684104651
 21
30.5067593403
  0
LINE
  8
0
 62
7
  6
CONTINUOUS
 10
365.757472524
 20
30.5067593403
 11
365.757472524
 21
31.5391973962
  0
LINE
  8
0
 62
7
  6
CONTINUOUS
 10
365.757472524
 20
31.8618343508
 11
365.757472524
 21
32.0231527829
  0
LINE
  8
0
 62
7
  6
CONTINUOUS
 10
360.3230977445
 20
30.8293962497
 11
360.2652852997
 21
30.7326051679
  0
LINE
  8
0
 62
7
  6
CONTINUOUS
 10
362.6355978548
 20
31.3133515913
 11
362.5777852445
 21
31.3778789641
  0
LINE
  8
0
 62
7
  6
CONTINUOUS
 10
363.5027853548
 20
30.7003414814
 11
363.4449727445
 21
30.7648688543
  0
LINE
  8
0
 62
7
  6
CONTINUOUS
 10
364.6590352445
 20
30.5712867188
 11
364.716847524
 21
30.5067593403
  0
LINE
  8
0
 62
7
  6
CONTINUOUS
 10
364.6012229651
 20
30.668077795
 11
364.6590352445
 21
30.5712867188
  0
LINE
  8
0
 62
7
  6
CONTINUOUS
 10
365.0059102445
 20
30.5067593403
 11
364.9480979651
 21
30.6035504109
  0
LINE
  8
0
 62
7
  6
CONTINUOUS
 10
364.890285024
 20
31.2810879048
 11
364.8324727445
 21
31.3778789641
  0
LINE
  8
0
 62
7
  6
CONTINUOUS
 10
366.2199727445
 20
31.5391973962
 11
366.2199727445
 21
30.5067593403
  0
LINE
  8
0
 62
7
  6
CONTINUOUS
 10
366.5090354651
 20
30.5067593403
 11
366.5090354651
 21
31.2488242184
  0
LINE
  8
0
 62
7
  6
CONTINUOUS
 10
366.5090354651
 20
31.3778789641
 11
366.5090354651
 21
31.5391973962
  0
LINE
  8
0
 62
7
  6
CONTINUOUS
 10
367.0408487691
 20
34.5231527829
 11
367.0408487691
 21
32.3100380288
  0
LINE
  8
0
 62
7
  6
CONTINUOUS
 10
358.9355977445
 20
31.3456152777
 11
358.8199727462
 21
31.216560532
  0
LINE
  8
0
 62
7
  6
CONTINUOUS
 10
359.1090352445
 20
31.1842968456
 11
359.1668477307
 21
31.2488242184
  0
LINE
  8
0
 62
7
  6
CONTINUOUS
 10
358.9355977445
 20
30.7003414814
 11
359.0512227376
 21
30.6358140973
  0
LINE
  8
0
 62
7
  6
CONTINUOUS
 10
359.3402852307
 20
30.7003414814
 11
359.1668477307
 21
30.7971325633
  0
LINE
  8
0
 62
7
  6
CONTINUOUS
 10
364.543410024
 20
31.3456152777
 11
364.6012229651
 21
31.2810879048
  0
LINE
  8
0
 62
7
  6
CONTINUOUS
 10
367.491847524
 20
31.2810879048
 11
367.5496604651
 21
31.1197694727
  0
LINE
  8
0
 62
7
  6
CONTINUOUS
 10
367.838722524
 20
31.1197694727
 11
367.7809102445
 21
31.2810879048
  0
LINE
  8
0
 62
7
  6
CONTINUOUS
 10
367.5496604651
 20
31.1197694727
 11
367.5496604651
 21
30.5067593403
  0
LINE
  8
0
 62
7
  6
CONTINUOUS
 10
367.838722524
 20
30.5067593403
 11
367.838722524
 21
31.1197694727
  0
LINE
  8
0
 62
7
  6
CONTINUOUS
 10
368.3012227445
 20
31.3456152777
 11
368.3012227445
 21
31.2810879048
  0
LINE
  8
0
 62
7
  6
CONTINUOUS
 10
368.4342913921
 20
32.3100380288
 11
368.4342913921
 21
34.4411855698
  0
LINE
  8
0
 62
7
  6
CONTINUOUS
 10
368.7621602445
 20
36.0805298321
 11
368.7621602445
 21
32.3100380288
  0
LINE
  8
0
 62
7
  6
CONTINUOUS
 10
363.4449727445
 20
30.8293962497
 11
363.5027853548
 21
30.926187309
  0
LINE
  8
0
 62
7
  6
CONTINUOUS
 10
359.0512227376
 20
30.6358140973
 11
359.2246602583
 21
30.5712867188
  0
LINE
  8
0
 62
7
  6
CONTINUOUS
 10
360.5543476894
 20
31.3456152777
 11
360.3809101894
 21
31.4424063369
  0
LINE
  8
0
 62
7
  6
CONTINUOUS
 10
363.2137226343
 20
30.668077795
 11
363.3871601343
 21
30.5712867188
  0
LINE
  8
0
 62
7
  6
CONTINUOUS
 10
362.2309102445
 20
31.3456152777
 11
362.3465351343
 21
31.2810879048
  0
LINE
  8
0
 62
7
  6
CONTINUOUS
 10
362.5777852445
 20
31.3778789641
 11
362.4621603548
 21
31.4424063369
  0
LINE
  8
0
 62
7
  6
CONTINUOUS
 10
368.3012227445
 20
30.7648688543
 11
368.4168479651
 21
30.6358140973
  0
LINE
  8
0
 62
7
  6
CONTINUOUS
 10
368.6480977445
 20
30.7003414814
 11
368.5902854651
 21
30.7648688543
  0
LINE
  8
0
 62
7
  6
CONTINUOUS
 10
368.3012227445
 20
31.2810879048
 11
368.4168479651
 21
31.1520331591
  0
LINE
  8
0
 62
7
  6
CONTINUOUS
 10
367.7809102445
 20
31.2810879048
 11
367.7230979651
 21
31.3778789641
  0
LINE
  8
0
 62
7
  6
CONTINUOUS
 10
370.1512223035
 20
30.7003414814
 11
370.1512223035
 21
30.7648688543
  0
LINE
  8
0
 62
7
  6
CONTINUOUS
 10
370.1556028675
 20
32.3100380288
 11
370.1556028675
 21
36.0805298321
  0
LINE
  8
0
 62
7
  6
CONTINUOUS
 10
363.2137226343
 20
31.4101426505
 11
363.1559103548
 21
31.3456152777
  0
LINE
  8
0
 62
7
  6
CONTINUOUS
 10
360.091847717
 20
31.3778789641
 11
360.2652852997
 21
31.3133515913
  0
LINE
  8
0
 62
7
  6
CONTINUOUS
 10
364.8324727445
 20
31.3778789641
 11
364.716847524
 21
31.4424063369
  0
LINE
  8
0
 62
7
  6
CONTINUOUS
 10
368.6480977445
 20
31.216560532
 11
368.5902854651
 21
31.2810879048
  0
LINE
  8
0
 62
7
  6
CONTINUOUS
 10
369.8043479651
 20
30.8293962497
 11
369.8621602445
 21
30.7648688543
  0
LINE
  8
0
 62
7
  6
CONTINUOUS
 10
370.1512223035
 20
30.7648688543
 11
370.0355977445
 21
30.8939236226
  0
LINE
  8
0
 62
7
  6
CONTINUOUS
 10
369.8043479651
 20
31.3456152777
 11
369.8621602445
 21
31.2810879048
  0
LINE
  8
0
 62
7
  6
CONTINUOUS
 10
370.1512223035
 20
31.2810879048
 11
370.0355977445
 21
31.4101426505
  0
LINE
  8
0
 62
7
  6
CONTINUOUS
 10
363.4449727445
 20
31.2810879048
 11
363.5027853548
 21
31.3456152777
  0
LINE
  8
0
 62
7
  6
CONTINUOUS
 10
363.2715352445
 20
31.0229783683
 11
363.1559103548
 21
30.8939236226
  0
LINE
  8
0
 62
7
  6
CONTINUOUS
 10
364.6012229651
 20
30.8616599362
 11
364.543410024
 21
30.7971325633
  0
LINE
  8
0
 62
7
  6
CONTINUOUS
 10
364.543410024
 20
30.6035504109
 11
364.6012229651
 21
30.668077795
  0
LINE
  8
0
 62
7
  6
CONTINUOUS
 10
363.3871601343
 20
30.5712867188
 11
363.5027853548
 21
30.5390230296
  0
LINE
  8
0
 62
7
  6
CONTINUOUS
 10
360.3809101894
 20
31.4424063369
 11
360.1496602445
 21
31.5069337098
  0
LINE
  8
0
 62
7
  6
CONTINUOUS
 10
363.7340351343
 20
30.6358140973
 11
363.5027853548
 21
30.7003414814
  0
LINE
  8
0
 62
7
  6
CONTINUOUS
 10
362.4621603548
 20
31.4424063369
 11
362.2887228548
 21
31.5069337098
  0
LINE
  8
0
 62
7
  6
CONTINUOUS
 10
364.716847524
 20
31.4424063369
 11
364.543410024
 21
31.5069337098
  0
LINE
  8
0
 62
7
  6
CONTINUOUS
 10
367.3762229651
 20
31.3456152777
 11
367.491847524
 21
31.2810879048
  0
LINE
  8
0
 62
7
  6
CONTINUOUS
 10
367.7230979651
 20
31.3778789641
 11
367.6074727445
 21
31.4424063369
  0
LINE
  8
0
 62
7
  6
CONTINUOUS
 10
359.2246602583
 20
30.5712867188
 11
359.3980977583
 21
30.5390230296
  0
LINE
  8
0
 62
7
  6
CONTINUOUS
 10
359.6871602721
 20
30.6358140973
 11
359.3402852307
 21
30.7003414814
  0
LINE
  8
0
 62
7
  6
CONTINUOUS
 10
362.1152853548
 20
31.3778789641
 11
362.2309102445
 21
31.3456152777
  0
LINE
  8
0
 62
7
  6
CONTINUOUS
 10
364.4277854651
 20
31.3778789641
 11
364.543410024
 21
31.3456152777
  0
LINE
  8
0
 62
7
  6
CONTINUOUS
 10
368.7637229651
 20
30.668077795
 11
368.6480977445
 21
30.7003414814
  0
LINE
  8
0
 62
7
  6
CONTINUOUS
 10
367.2605977445
 20
31.3778789641
 11
367.3762229651
 21
31.3456152777
  0
LINE
  8
0
 62
7
  6
CONTINUOUS
 10
368.4168479651
 20
30.6358140973
 11
368.5902854651
 21
30.5712867188
  0
LINE
  8
0
 62
7
  6
CONTINUOUS
 10
367.6074727445
 20
31.4424063369
 11
367.4340352445
 21
31.5069337098
  0
LINE
  8
0
 62
7
  6
CONTINUOUS
 10
368.8215352445
 20
31.1520331591
 11
368.6480977445
 21
31.216560532
  0
LINE
  8
0
 62
7
  6
CONTINUOUS
 10
369.6309104651
 20
30.8939236226
 11
369.8043479651
 21
30.8293962497
  0
LINE
  8
0
 62
7
  6
CONTINUOUS
 10
370.0355977445
 20
31.4101426505
 11
369.8621602445
 21
31.4746700234
  0
LINE
  8
0
 62
7
  6
CONTINUOUS
 10
368.4168479651
 20
31.1520331591
 11
368.6480977445
 21
31.0552420547
  0
LINE
  8
0
 62
7
  6
CONTINUOUS
 10
370.0355977445
 20
30.8939236226
 11
369.8043479651
 21
30.9907146818
  0
LINE
  8
0
 62
7
  6
CONTINUOUS
 10
368.5902854651
 20
31.2810879048
 11
368.6480977445
 21
31.3456152777
  0
LINE
  8
0
 62
7
  6
CONTINUOUS
 10
359.0512227376
 20
31.4101426505
 11
358.9355977445
 21
31.3456152777
  0
LINE
  8
0
 62
7
  6
CONTINUOUS
 10
359.1668477307
 20
31.2488242184
 11
359.3402852307
 21
31.3456152777
  0
LINE
  8
0
 62
7
  6
CONTINUOUS
 10
361.4793477997
 20
31.4424063369
 11
361.3637227445
 21
31.3778789641
  0
LINE
  8
0
 62
7
  6
CONTINUOUS
 10
361.3637227445
 20
31.2488242184
 11
361.4793477997
 21
31.3133515913
  0
LINE
  8
0
 62
7
  6
CONTINUOUS
 10
360.3809101894
 20
30.6035504109
 11
360.5543476894
 21
30.7003414814
  0
LINE
  8
0
 62
7
  6
CONTINUOUS
 10
359.3980977583
 20
30.5390230296
 11
359.744972717
 21
30.5067593403
  0
LINE
  8
0
 62
7
  6
CONTINUOUS
 10
363.5027853548
 20
30.5390230296
 11
363.7340351343
 21
30.5067593403
  0
LINE
  8
0
 62
7
  6
CONTINUOUS
 10
361.8840352445
 20
31.4101426505
 11
362.1152853548
 21
31.3778789641
  0
LINE
  8
0
 62
7
  6
CONTINUOUS
 10
364.1965353548
 20
31.4101426505
 11
364.4277854651
 21
31.3778789641
  0
LINE
  8
0
 62
7
  6
CONTINUOUS
 10
368.6480977445
 20
31.0552420547
 11
369.6309104651
 21
30.8939236226
  0
LINE
  8
0
 62
7
  6
CONTINUOUS
 10
369.8043479651
 20
30.9907146818
 11
368.8215352445
 21
31.1520331591
  0
LINE
  8
0
 62
7
  6
CONTINUOUS
 10
362.2887228548
 20
31.5069337098
 11
362.1152853548
 21
31.5391973962
  0
LINE
  8
0
 62
7
  6
CONTINUOUS
 10
368.5902854651
 20
30.5712867188
 11
368.7637229651
 21
30.5390230296
  0
LINE
  8
0
 62
7
  6
CONTINUOUS
 10
367.4340352445
 20
31.5069337098
 11
367.2605977445
 21
31.5391973962
  0
LINE
  8
0
 62
7
  6
CONTINUOUS
 10
369.6887227445
 20
31.3778789641
 11
369.8043479651
 21
31.3456152777
  0
LINE
  8
0
 62
7
  6
CONTINUOUS
 10
369.8621602445
 20
30.7648688543
 11
369.8043479651
 21
30.7003414814
  0
LINE
  8
0
 62
7
  6
CONTINUOUS
 10
368.4168479651
 20
31.4424063369
 11
368.3012227445
 21
31.3456152777
  0
LINE
  8
0
 62
7
  6
CONTINUOUS
 10
363.3293478548
 20
31.4746700234
 11
363.2137226343
 21
31.4101426505
  0
LINE
  8
0
 62
7
  6
CONTINUOUS
 10
363.3871601343
 20
31.0875057863
 11
363.2715352445
 21
31.0229783683
  0
LINE
  8
0
 62
7
  6
CONTINUOUS
 10
363.5027853548
 20
30.926187309
 11
363.6184102445
 21
30.9907146818
  0
LINE
  8
0
 62
7
  6
CONTINUOUS
 10
361.0746601894
 20
30.5067593403
 11
361.3637227445
 21
30.5067593403
  0
LINE
  8
0
 62
7
  6
CONTINUOUS
 10
362.4043477445
 20
30.5067593403
 11
362.6934101343
 21
30.5067593403
  0
LINE
  8
0
 62
7
  6
CONTINUOUS
 10
363.7340351343
 20
30.5067593403
 11
364.0809101343
 21
30.5067593403
  0
LINE
  8
0
 62
7
  6
CONTINUOUS
 10
364.716847524
 20
30.5067593403
 11
365.0059102445
 21
30.5067593403
  0
LINE
  8
0
 62
7
  6
CONTINUOUS
 10
365.4684104651
 20
30.5067593403
 11
365.757472524
 21
30.5067593403
  0
LINE
  8
0
 62
7
  6
CONTINUOUS
 10
366.2199727445
 20
30.5067593403
 11
366.5090354651
 21
30.5067593403
  0
LINE
  8
0
 62
7
  6
CONTINUOUS
 10
367.5496604651
 20
30.5067593403
 11
367.838722524
 21
30.5067593403
  0
LINE
  8
0
 62
7
  6
CONTINUOUS
 10
369.1105979651
 20
30.5067593403
 11
369.4574729651
 21
30.5067593403
  0
LINE
  8
0
 62
7
  6
CONTINUOUS
 10
369.4574729651
 20
30.6358140973
 11
369.1105979651
 21
30.6358140973
  0
LINE
  8
0
 62
7
  6
CONTINUOUS
 10
364.0809101343
 20
30.6358140973
 11
363.7340351343
 21
30.6358140973
  0
LINE
  8
0
 62
7
  6
CONTINUOUS
 10
368.5902854651
 20
30.7648688543
 11
368.3012227445
 21
30.7648688543
  0
LINE
  8
0
 62
7
  6
CONTINUOUS
 10
360.6121602997
 20
30.8293962497
 11
360.3230977445
 21
30.8293962497
  0
LINE
  8
0
 62
7
  6
CONTINUOUS
 10
359.6871602721
 20
31.4101426505
 11
360.091847717
 21
31.3778789641
  0
LINE
  8
0
 62
7
  6
CONTINUOUS
 10
360.1496602445
 20
31.5069337098
 11
359.744972717
 21
31.5391973962
  0
LINE
  8
0
 62
7
  6
CONTINUOUS
 10
368.7637229651
 20
30.5390230296
 11
369.1105979651
 21
30.5067593403
  0
LINE
  8
0
 62
7
  6
CONTINUOUS
 10
369.1105979651
 20
30.6358140973
 11
368.7637229651
 21
30.668077795
  0
LINE
  8
0
 62
7
  6
CONTINUOUS
 10
364.543410024
 20
31.5069337098
 11
364.1965353548
 21
31.5391973962
  0
LINE
  8
0
 62
7
  6
CONTINUOUS
 10
369.3418477445
 20
31.4101426505
 11
369.6887227445
 21
31.3778789641
  0
LINE
  8
0
 62
7
  6
CONTINUOUS
 10
369.6887227445
 20
31.5069337098
 11
369.3418477445
 21
31.5391973962
  0
LINE
  8
0
 62
7
  6
CONTINUOUS
 10
367.0293479651
 20
31.4101426505
 11
367.2605977445
 21
31.3778789641
  0
LINE
  8
0
 62
7
  6
CONTINUOUS
 10
369.8621602445
 20
31.4746700234
 11
369.6887227445
 21
31.5069337098
  0
LINE
  8
0
 62
7
  6
CONTINUOUS
 10
370.0355977445
 20
30.6035504109
 11
370.1512223035
 21
30.7003414814
  0
LINE
  8
0
 62
7
  6
CONTINUOUS
 10
364.543410024
 20
30.7971325633
 11
364.369972524
 21
30.7003414814
  0
LINE
  8
0
 62
7
  6
CONTINUOUS
 10
366.624660024
 20
31.4424063369
 11
366.5090354651
 21
31.3778789641
  0
LINE
  8
0
 62
7
  6
CONTINUOUS
 10
366.5090354651
 20
31.2488242184
 11
366.624660024
 21
31.3133515913
  0
LINE
  8
0
 62
7
  6
CONTINUOUS
 10
359.2246602583
 20
31.4746700234
 11
359.0512227376
 21
31.4101426505
  0
LINE
  8
0
 62
7
  6
CONTINUOUS
 10
361.6527851343
 20
31.5069337098
 11
361.4793477997
 21
31.4424063369
  0
LINE
  8
0
 62
7
  6
CONTINUOUS
 10
361.4793477997
 20
31.3133515913
 11
361.6527851343
 21
31.3778789641
  0
LINE
  8
0
 62
7
  6
CONTINUOUS
 10
360.2652852997
 20
30.7326051679
 11
360.091847717
 21
30.668077795
  0
LINE
  8
0
 62
7
  6
CONTINUOUS
 10
369.6887227445
 20
30.668077795
 11
369.4574729651
 21
30.6358140973
  0
LINE
  8
0
 62
7
  6
CONTINUOUS
 10
364.0809101343
 20
30.5067593403
 11
364.369972524
 21
30.5390230296
  0
LINE
  8
0
 62
7
  6
CONTINUOUS
 10
369.4574729651
 20
30.5067593403
 11
369.8043479651
 21
30.5390230296
  0
LINE
  8
0
 62
7
  6
CONTINUOUS
 10
359.744972717
 20
30.5067593403
 11
360.1496602445
 21
30.5390230296
  0
LINE
  8
0
 62
7
  6
CONTINUOUS
 10
360.091847717
 20
30.668077795
 11
359.6871602721
 21
30.6358140973
  0
LINE
  8
0
 62
7
  6
CONTINUOUS
 10
363.9652852445
 20
31.0552420547
 11
364.6012229651
 21
31.0552420547
  0
LINE
  8
0
 62
7
  6
CONTINUOUS
 10
364.6012229651
 20
31.1842968456
 11
363.9652852445
 21
31.1842968456
  0
LINE
  8
0
 62
7
  6
CONTINUOUS
 10
360.3230977445
 20
31.216560532
 11
360.6121602997
 21
31.216560532
  0
LINE
  8
0
 62
7
  6
CONTINUOUS
 10
363.1559103548
 20
31.2810879048
 11
363.4449727445
 21
31.2810879048
  0
LINE
  8
0
 62
7
  6
CONTINUOUS
 10
369.8621602445
 20
31.2810879048
 11
370.1512223035
 21
31.2810879048
  0
LINE
  8
0
 62
7
  6
CONTINUOUS
 10
363.8496603548
 20
31.4101426505
 11
364.1965353548
 21
31.4101426505
  0
LINE
  8
0
 62
7
  6
CONTINUOUS
 10
368.9949727445
 20
31.4101426505
 11
369.3418477445
 21
31.4101426505
  0
LINE
  8
0
 62
7
  6
CONTINUOUS
 10
369.3418477445
 20
31.5391973962
 11
368.9949727445
 21
31.5391973962
  0
LINE
  8
0
 62
7
  6
CONTINUOUS
 10
367.2605977445
 20
31.5391973962
 11
367.0293479651
 21
31.5391973962
  0
LINE
  8
0
 62
7
  6
CONTINUOUS
 10
366.5090354651
 20
31.5391973962
 11
366.2199727445
 21
31.5391973962
  0
LINE
  8
0
 62
7
  6
CONTINUOUS
 10
365.757472524
 20
31.5391973962
 11
365.4684104651
 21
31.5391973962
  0
LINE
  8
0
 62
7
  6
CONTINUOUS
 10
364.1965353548
 20
31.5391973962
 11
363.8496603548
 21
31.5391973962
  0
LINE
  8
0
 62
7
  6
CONTINUOUS
 10
362.1152853548
 20
31.5391973962
 11
361.8840352445
 21
31.5391973962
  0
LINE
  8
0
 62
7
  6
CONTINUOUS
 10
365.4684104651
 20
31.8618343508
 11
365.757472524
 21
31.8618343508
  0
LINE
  8
0
 62
7
  6
CONTINUOUS
 10
365.757472524
 20
32.0231527829
 11
365.4684104651
 21
32.0231527829
  0
LINE
  8
0
 62
7
  6
CONTINUOUS
 10
361.3637227445
 20
32.0231527829
 11
361.0746601894
 21
32.0231527829
  0
LINE
  8
0
 62
7
  6
CONTINUOUS
 10
360.4015045068
 20
32.3100380288
 11
360.8140758554
 21
32.3100380288
  0
LINE
  8
0
 62
7
  6
CONTINUOUS
 10
362.0408487691
 20
32.3100380288
 11
363.4342913921
 21
32.3100380288
  0
LINE
  8
0
 62
7
  6
CONTINUOUS
 10
363.7621602445
 20
32.3100380288
 11
365.1556028675
 21
32.3100380288
  0
LINE
  8
0
 62
7
  6
CONTINUOUS
 10
367.0408487691
 20
32.3100380288
 11
368.4342913921
 21
32.3100380288
  0
LINE
  8
0
 62
7
  6
CONTINUOUS
 10
368.7621602445
 20
32.3100380288
 11
370.1556028675
 21
32.3100380288
  0
LINE
  8
0
 62
7
  6
CONTINUOUS
 10
366.798097524
 20
31.5069337098
 11
366.624660024
 21
31.4424063369
  0
LINE
  8
0
 62
7
  6
CONTINUOUS
 10
364.369972524
 20
30.5390230296
 11
364.543410024
 21
30.6035504109
  0
LINE
  8
0
 62
7
  6
CONTINUOUS
 10
369.8043479651
 20
30.5390230296
 11
370.0355977445
 21
30.6035504109
  0
LINE
  8
0
 62
7
  6
CONTINUOUS
 10
369.8043479651
 20
30.7003414814
 11
369.6887227445
 21
30.668077795
  0
LINE
  8
0
 62
7
  6
CONTINUOUS
 10
368.7637229651
 20
31.3778789641
 11
368.9949727445
 21
31.4101426505
  0
LINE
  8
0
 62
7
  6
CONTINUOUS
 10
366.798097524
 20
31.3778789641
 11
367.0293479651
 21
31.4101426505
  0
LINE
  8
0
 62
7
  6
CONTINUOUS
 10
363.7340351343
 20
31.0229783683
 11
363.9652852445
 21
31.0552420547
  0
LINE
  8
0
 62
7
  6
CONTINUOUS
 10
367.0293479651
 20
31.5391973962
 11
366.798097524
 21
31.5069337098
  0
LINE
  8
0
 62
7
  6
CONTINUOUS
 10
363.6184102445
 20
31.3778789641
 11
363.8496603548
 21
31.4101426505
  0
LINE
  8
0
 62
7
  6
CONTINUOUS
 10
368.9949727445
 20
31.5391973962
 11
368.6480977445
 21
31.5069337098
  0
LINE
  8
0
 62
7
  6
CONTINUOUS
 10
363.9652852445
 20
31.1842968456
 11
363.6184102445
 21
31.1520331591
  0
LINE
  8
0
 62
7
  6
CONTINUOUS
 10
359.744972717
 20
31.5391973962
 11
359.3980977583
 21
31.5069337098
  0
LINE
  8
0
 62
7
  6
CONTINUOUS
 10
363.8496603548
 20
31.5391973962
 11
363.4449727445
 21
31.5069337098
  0
LINE
  8
0
 62
7
  6
CONTINUOUS
 10
361.221176638
 20
33.4575790124
 11
360.565438933
 21
33.4575790124
  0
LINE
  8
0
 62
7
  6
CONTINUOUS
 10
366.624660024
 20
31.3133515913
 11
366.798097524
 21
31.3778789641
  0
LINE
  8
0
 62
7
  6
CONTINUOUS
 10
368.6480977445
 20
31.3456152777
 11
368.7637229651
 21
31.3778789641
  0
LINE
  8
0
 62
7
  6
CONTINUOUS
 10
368.6480977445
 20
31.5069337098
 11
368.4168479651
 21
31.4424063369
  0
LINE
  8
0
 62
7
  6
CONTINUOUS
 10
364.369972524
 20
30.7003414814
 11
364.0809101343
 21
30.6358140973
  0
LINE
  8
0
 62
7
  6
CONTINUOUS
 10
361.6527851343
 20
31.3778789641
 11
361.8840352445
 21
31.4101426505
  0
LINE
  8
0
 62
7
  6
CONTINUOUS
 10
361.8840352445
 20
31.5391973962
 11
361.6527851343
 21
31.5069337098
  0
LINE
  8
0
 62
7
  6
CONTINUOUS
 10
359.4559102445
 20
31.3778789641
 11
359.6871602721
 21
31.4101426505
  0
LINE
  8
0
 62
7
  6
CONTINUOUS
 10
365.9752749986
 20
34.9329888485
 11
366.6310127035
 21
34.9329888485
  0
LINE
  8
0
 62
7
  6
CONTINUOUS
 10
363.6184102445
 20
30.9907146818
 11
363.7340351343
 21
31.0229783683
  0
LINE
  8
0
 62
7
  6
CONTINUOUS
 10
363.6184102445
 20
31.1520331591
 11
363.3871601343
 21
31.0875057863
  0
LINE
  8
0
 62
7
  6
CONTINUOUS
 10
363.5027853548
 20
31.3456152777
 11
363.6184102445
 21
31.3778789641
  0
LINE
  8
0
 62
7
  6
CONTINUOUS
 10
360.1496602445
 20
30.5390230296
 11
360.3809101894
 21
30.6035504109
  0
LINE
  8
0
 62
7
  6
CONTINUOUS
 10
363.4449727445
 20
31.5069337098
 11
363.3293478548
 21
31.4746700234
  0
LINE
  8
0
 62
7
  6
CONTINUOUS
 10
359.3980977583
 20
31.5069337098
 11
359.2246602583
 21
31.4746700234
  0
LINE
  8
0
 62
7
  6
CONTINUOUS
 10
370.1556028675
 20
36.0805298321
 11
368.7621602445
 21
36.0805298321
  0
LINE
  8
0
 62
7
  6
CONTINUOUS
 10
366.7949471298
 20
36.0805298321
 11
366.3823757812
 21
36.0805298321
  0
LINE
  8
0
 62
7
  6
CONTINUOUS
 10
365.1556028675
 20
36.0805298321
 11
363.7621602445
 21
36.0805298321
  0
LINE
  8
0
 62
7
  6
CONTINUOUS
 10
363.4342913921
 20
36.0805298321
 11
362.0408487691
 21
36.0805298321
  0
LINE
  8
0
 62
7
  6
CONTINUOUS
 10
360.1556028675
 20
36.0805298321
 11
358.7621602445
 21
36.0805298321
  0
LINE
  8
0
 62
7
  6
CONTINUOUS
 10
359.3402852307
 20
31.3456152777
 11
359.4559102445
 21
31.3778789641
  0
CIRCLE
  8
0
 62
7
  6
CONTINUOUS
 10
369.458881556
 20
38.4165954059
 40
2.0901639344
  0
ARC
  8
0
 62
7
  6
CONTINUOUS
 10
360.4015045068
 20
33.9493822911
 40
1.6393442623
 50
180.0
 51
270.0
  0
ARC
  8
0
 62
7
  6
CONTINUOUS
 10
366.7949471298
 20
34.4411855698
 40
1.6393442623
 50
0.0
 51
90.0
  0
ARC
  8
0
 62
7
  6
CONTINUOUS
 10
360.8140758554
 20
33.7854478649
 40
1.4754098361
 50
270.0
 51
326.2510114041
  0
ARC
  8
0
 62
7
  6
CONTINUOUS
 10
366.3823757812
 20
34.6051199961
 40
1.4754098361
 50
90.0
 51
146.2510114041
  0
ARC
  8
0
 62
7
  6
CONTINUOUS
 10
361.221176638
 20
34.2772511436
 40
0.8196721311
 50
270.0
 51
360.0
  0
ARC
  8
0
 62
7
  6
CONTINUOUS
 10
365.9752749986
 20
34.1133167174
 40
0.8196721311
 50
90.0
 51
180.0
  0
ARC
  8
0
 62
7
  6
CONTINUOUS
 10
360.565438933
 20
33.867415078
 40
0.4098360656
 50
180.0
 51
270.0
  0
ARC
  8
0
 62
7
  6
CONTINUOUS
 10
366.6310127035
 20
34.5231527829
 40
0.4098360656
 50
0.0
 51
90.0
  0
SOLID
  8
0
 62
7
  6
CONTINUOUS
 10
365.4684104651
 20
31.8618347111
 11
365.4684104651
 21
32.0231531947
 12
365.757472524
 22
31.8618347111
 13
365.757472524
 23
32.0231531947
  0
SOLID
  8
0
 62
7
  6
CONTINUOUS
 10
359.744972717
 20
31.5391977439
 11
360.1496602445
 21
31.5069333244
 12
359.3980977583
 22
31.5069333244
 13
359.3980977583
 23
31.5069333244
  0
SOLID
  8
0
 62
7
  6
CONTINUOUS
 10
359.2246602583
 20
31.4746706537
 11
359.3980977583
 21
31.5069333244
 12
360.1496602445
 22
31.5069333244
 13
360.1496602445
 23
31.5069333244
  0
SOLID
  8
0
 62
7
  6
CONTINUOUS
 10
360.1496602445
 20
31.5069333244
 11
360.3809101894
 21
31.4424063504
 12
359.2246602583
 22
31.4746706537
 13
359.2246602583
 23
31.4746706537
  0
SOLID
  8
0
 62
7
  6
CONTINUOUS
 10
359.0512227376
 20
31.4101419116
 11
359.2246602583
 21
31.4746706537
 12
360.3809101894
 22
31.4424063504
 13
360.3809101894
 23
31.4424063504
  0
SOLID
  8
0
 62
7
  6
CONTINUOUS
 10
359.0512227376
 20
31.4101419116
 11
360.3809101894
 21
31.4424063504
 12
359.6871602721
 22
31.4101419116
 13
359.6871602721
 23
31.4101419116
  0
SOLID
  8
0
 62
7
  6
CONTINUOUS
 10
359.6871602721
 20
31.4101419116
 11
360.3809101894
 21
31.4424063504
 12
360.091847717
 22
31.3778792603
 13
360.091847717
 23
31.3778792603
  0
SOLID
  8
0
 62
7
  6
CONTINUOUS
 10
360.3809101894
 20
31.4424063504
 11
360.5543476894
 21
31.345614957
 12
360.091847717
 22
31.3778792603
 13
360.091847717
 23
31.3778792603
  0
SOLID
  8
0
 62
7
  6
CONTINUOUS
 10
360.2652852997
 20
31.3133521701
 11
360.091847717
 21
31.3778792603
 12
360.5543476894
 22
31.345614957
 13
360.5543476894
 23
31.345614957
  0
SOLID
  8
0
 62
7
  6
CONTINUOUS
 10
360.2652852997
 20
31.3133521701
 11
360.5543476894
 21
31.345614957
 12
360.3230977445
 22
31.2165606992
 13
360.3230977445
 23
31.2165606992
  0
SOLID
  8
0
 62
7
  6
CONTINUOUS
 10
360.5543476894
 20
31.345614957
 11
360.6121602997
 21
31.2165606992
 12
360.3230977445
 22
31.2165606992
 13
360.3230977445
 23
31.2165606992
  0
SOLID
  8
0
 62
7
  6
CONTINUOUS
 10
361.6527851343
 20
31.5069329918
 11
361.8840352445
 21
31.5391972951
 12
362.1152853548
 22
31.5391972951
 13
362.1152853548
 23
31.5391972951
  0
SOLID
  8
0
 62
7
  6
CONTINUOUS
 10
362.1152853548
 20
31.5391972951
 11
362.2887228548
 21
31.5069329918
 12
361.6527851343
 22
31.5069329918
 13
361.6527851343
 23
31.5069329918
  0
SOLID
  8
0
 62
7
  6
CONTINUOUS
 10
361.4793477997
 20
31.4424059016
 11
361.6527851343
 21
31.5069329918
 12
362.2887228548
 22
31.5069329918
 13
362.2887228548
 23
31.5069329918
  0
SOLID
  8
0
 62
7
  6
CONTINUOUS
 10
362.2887228548
 20
31.5069329918
 11
362.4621603548
 21
31.4424059016
 12
361.4793477997
 22
31.4424059016
 13
361.4793477997
 23
31.4424059016
  0
SOLID
  8
0
 62
7
  6
CONTINUOUS
 10
362.4621603548
 20
31.4424059016
 11
361.8840352445
 21
31.4101420472
 12
361.4793477997
 22
31.4424059016
 13
361.4793477997
 23
31.4424059016
  0
SOLID
  8
0
 62
7
  6
CONTINUOUS
 10
361.3637227445
 20
31.3778788115
 11
361.4793477997
 21
31.4424059016
 12
361.8840352445
 22
31.4101420472
 13
361.8840352445
 23
31.4101420472
  0
SOLID
  8
0
 62
7
  6
CONTINUOUS
 10
361.8840352445
 20
31.4101420472
 11
361.6527851343
 21
31.3778788115
 12
361.3637227445
 22
31.3778788115
 13
361.3637227445
 23
31.3778788115
  0
SOLID
  8
0
 62
7
  6
CONTINUOUS
 10
361.8840352445
 20
31.4101420472
 11
362.4621603548
 21
31.4424059016
 12
362.1152853548
 22
31.3778788115
 13
362.1152853548
 23
31.3778788115
  0
SOLID
  8
0
 62
7
  6
CONTINUOUS
 10
362.4621603548
 20
31.4424059016
 11
362.5777852445
 21
31.3778788115
 12
362.1152853548
 22
31.3778788115
 13
362.1152853548
 23
31.3778788115
  0
SOLID
  8
0
 62
7
  6
CONTINUOUS
 10
362.2309102445
 20
31.345614957
 11
362.1152853548
 21
31.3778788115
 12
362.5777852445
 22
31.3778788115
 13
362.5777852445
 23
31.3778788115
  0
SOLID
  8
0
 62
7
  6
CONTINUOUS
 10
362.5777852445
 20
31.3778788115
 11
362.6355978548
 21
31.3133517213
 12
362.2309102445
 22
31.345614957
 13
362.2309102445
 23
31.345614957
  0
SOLID
  8
0
 62
7
  6
CONTINUOUS
 10
362.3465351343
 20
31.2810878668
 11
362.2309102445
 21
31.345614957
 12
362.6355978548
 22
31.3133517213
 13
362.6355978548
 23
31.3133517213
  0
SOLID
  8
0
 62
7
  6
CONTINUOUS
 10
362.3465351343
 20
31.2810878668
 11
362.6355978548
 21
31.3133517213
 12
362.4043477445
 22
31.1520332377
 13
362.4043477445
 23
31.1520332377
  0
SOLID
  8
0
 62
7
  6
CONTINUOUS
 10
362.6355978548
 20
31.3133517213
 11
362.6934101343
 21
31.1520332377
 12
362.4043477445
 22
31.1520332377
 13
362.4043477445
 23
31.1520332377
  0
SOLID
  8
0
 62
7
  6
CONTINUOUS
 10
361.6527851343
 20
31.3778788115
 11
361.4793477997
 21
31.3133517213
 12
361.3637227445
 22
31.3778788115
 13
361.3637227445
 23
31.3778788115
  0
SOLID
  8
0
 62
7
  6
CONTINUOUS
 10
361.4793477997
 20
31.3133517213
 11
361.3637227445
 21
31.2488235635
 12
361.3637227445
 22
31.3778788115
 13
361.3637227445
 23
31.3778788115
  0
SOLID
  8
0
 62
7
  6
CONTINUOUS
 10
361.3637227445
 20
31.2488235635
 11
361.0746601894
 21
30.5067593033
 12
361.3637227445
 22
31.3778788115
 13
361.3637227445
 23
31.3778788115
  0
SOLID
  8
0
 62
7
  6
CONTINUOUS
 10
361.3637227445
 20
31.3778788115
 11
361.0746601894
 21
30.5067593033
 12
361.3637227445
 22
32.0231527459
 13
361.3637227445
 23
32.0231527459
  0
SOLID
  8
0
 62
7
  6
CONTINUOUS
 10
361.0746601894
 20
30.5067593033
 11
361.0746601894
 21
32.0231527459
 12
361.3637227445
 22
32.0231527459
 13
361.3637227445
 23
32.0231527459
  0
SOLID
  8
0
 62
7
  6
CONTINUOUS
 10
361.3637227445
 20
31.2488235635
 11
361.3637227445
 21
30.5067593033
 12
361.0746601894
 22
30.5067593033
 13
361.0746601894
 23
30.5067593033
  0
SOLID
  8
0
 62
7
  6
CONTINUOUS
 10
362.4043477445
 20
30.5067593033
 11
362.4043477445
 21
31.1520332377
 12
362.6934101343
 22
31.1520332377
 13
362.6934101343
 23
31.1520332377
  0
SOLID
  8
0
 62
7
  6
CONTINUOUS
 10
362.6934101343
 20
31.1520332377
 11
362.6934101343
 21
30.5067593033
 12
362.4043477445
 22
30.5067593033
 13
362.4043477445
 23
30.5067593033
  0
SOLID
  8
0
 62
7
  6
CONTINUOUS
 10
363.4449727445
 20
31.506933758
 11
363.8496603548
 21
31.5391977507
 12
364.1965353548
 22
31.5391977507
 13
364.1965353548
 23
31.5391977507
  0
SOLID
  8
0
 62
7
  6
CONTINUOUS
 10
364.1965353548
 20
31.5391977507
 11
364.543410024
 21
31.506933758
 12
363.4449727445
 22
31.506933758
 13
363.4449727445
 23
31.506933758
  0
SOLID
  8
0
 62
7
  6
CONTINUOUS
 10
363.3293478548
 20
31.4746706537
 11
363.4449727445
 21
31.506933758
 12
364.543410024
 22
31.506933758
 13
364.543410024
 23
31.506933758
  0
SOLID
  8
0
 62
7
  6
CONTINUOUS
 10
364.543410024
 20
31.506933758
 11
364.716847524
 21
31.4424063504
 12
363.3293478548
 22
31.4746706537
 13
363.3293478548
 23
31.4746706537
  0
SOLID
  8
0
 62
7
  6
CONTINUOUS
 10
363.2137226343
 20
31.4101417797
 11
363.3293478548
 21
31.4746706537
 12
364.716847524
 22
31.4424063504
 13
364.716847524
 23
31.4424063504
  0
SOLID
  8
0
 62
7
  6
CONTINUOUS
 10
363.2137226343
 20
31.4101417797
 11
364.716847524
 21
31.4424063504
 12
363.8496603548
 22
31.4101417797
 13
363.8496603548
 23
31.4101417797
  0
SOLID
  8
0
 62
7
  6
CONTINUOUS
 10
363.8496603548
 20
31.4101417797
 11
364.716847524
 21
31.4424063504
 12
364.1965353548
 22
31.4101417797
 13
364.1965353548
 23
31.4101417797
  0
SOLID
  8
0
 62
7
  6
CONTINUOUS
 10
364.1965353548
 20
31.4101417797
 11
364.716847524
 21
31.4424063504
 12
364.4277854651
 22
31.3778793357
 13
364.4277854651
 23
31.3778793357
  0
SOLID
  8
0
 62
7
  6
CONTINUOUS
 10
364.716847524
 20
31.4424063504
 11
364.8324727445
 21
31.3778793357
 12
364.4277854651
 22
31.3778793357
 13
364.4277854651
 23
31.3778793357
  0
SOLID
  8
0
 62
7
  6
CONTINUOUS
 10
363.1559103548
 20
31.3456153429
 11
363.2137226343
 21
31.4101417797
 12
363.8496603548
 22
31.4101417797
 13
363.8496603548
 23
31.4101417797
  0
SOLID
  8
0
 62
7
  6
CONTINUOUS
 10
364.543410024
 20
31.3456153429
 11
364.4277854651
 21
31.3778793357
 12
364.8324727445
 22
31.3778793357
 13
364.8324727445
 23
31.3778793357
  0
SOLID
  8
0
 62
7
  6
CONTINUOUS
 10
364.543410024
 20
31.3456153429
 11
364.8324727445
 21
31.3778793357
 12
364.6012229651
 22
31.2810881318
 13
364.6012229651
 23
31.2810881318
  0
SOLID
  8
0
 62
7
  6
CONTINUOUS
 10
364.8324727445
 20
31.3778793357
 11
364.890285024
 21
31.2810881318
 12
364.6012229651
 22
31.2810881318
 13
364.6012229651
 23
31.2810881318
  0
SOLID
  8
0
 62
7
  6
CONTINUOUS
 10
364.6012229651
 20
31.1842964734
 11
364.6012229651
 21
31.2810881318
 12
364.890285024
 22
31.2810881318
 13
364.890285024
 23
31.2810881318
  0
SOLID
  8
0
 62
7
  6
CONTINUOUS
 10
364.6012229651
 20
31.1842964734
 11
364.890285024
 21
31.2810881318
 12
364.6012229651
 22
31.0552422931
 13
364.6012229651
 23
31.0552422931
  0
SOLID
  8
0
 62
7
  6
CONTINUOUS
 10
364.6012229651
 20
31.0552422931
 11
364.890285024
 21
31.2810881318
 12
364.6012229651
 22
30.8616599362
 13
364.6012229651
 23
30.8616599362
  0
SOLID
  8
0
 62
7
  6
CONTINUOUS
 10
364.890285024
 20
31.2810881318
 11
364.890285024
 21
30.7648681127
 12
364.6012229651
 22
30.8616599362
 13
364.6012229651
 23
30.8616599362
  0
SOLID
  8
0
 62
7
  6
CONTINUOUS
 10
366.798097524
 20
31.5069339419
 11
367.0293479651
 21
31.5391976292
 12
367.2605977445
 22
31.5391976292
 13
367.2605977445
 23
31.5391976292
  0
SOLID
  8
0
 62
7
  6
CONTINUOUS
 10
367.2605977445
 20
31.5391976292
 11
367.4340352445
 21
31.5069339419
 12
366.798097524
 22
31.5069339419
 13
366.798097524
 23
31.5069339419
  0
SOLID
  8
0
 62
7
  6
CONTINUOUS
 10
366.624660024
 20
31.4424065674
 11
366.798097524
 21
31.5069339419
 12
367.4340352445
 22
31.5069339419
 13
367.4340352445
 23
31.5069339419
  0
SOLID
  8
0
 62
7
  6
CONTINUOUS
 10
367.4340352445
 20
31.5069339419
 11
367.6074727445
 21
31.4424065674
 12
366.624660024
 22
31.4424065674
 13
366.624660024
 23
31.4424065674
  0
SOLID
  8
0
 62
7
  6
CONTINUOUS
 10
367.6074727445
 20
31.4424065674
 11
367.0293479651
 21
31.4101420472
 12
366.624660024
 22
31.4424065674
 13
366.624660024
 23
31.4424065674
  0
SOLID
  8
0
 62
7
  6
CONTINUOUS
 10
366.5090354651
 20
31.377879193
 11
366.624660024
 21
31.4424065674
 12
367.0293479651
 22
31.4101420472
 13
367.0293479651
 23
31.4101420472
  0
SOLID
  8
0
 62
7
  6
CONTINUOUS
 10
367.0293479651
 20
31.4101420472
 11
366.798097524
 21
31.377879193
 12
366.5090354651
 22
31.377879193
 13
366.5090354651
 23
31.377879193
  0
SOLID
  8
0
 62
7
  6
CONTINUOUS
 10
367.0293479651
 20
31.4101420472
 11
367.6074727445
 21
31.4424065674
 12
367.2605977445
 22
31.377879193
 13
367.2605977445
 23
31.377879193
  0
SOLID
  8
0
 62
7
  6
CONTINUOUS
 10
367.6074727445
 20
31.4424065674
 11
367.7230979651
 21
31.377879193
 12
367.2605977445
 22
31.377879193
 13
367.2605977445
 23
31.377879193
  0
SOLID
  8
0
 62
7
  6
CONTINUOUS
 10
367.3762229651
 20
31.345614957
 11
367.2605977445
 21
31.377879193
 12
367.7230979651
 22
31.377879193
 13
367.7230979651
 23
31.377879193
  0
SOLID
  8
0
 62
7
  6
CONTINUOUS
 10
367.3762229651
 20
31.345614957
 11
367.7230979651
 21
31.377879193
 12
367.491847524
 22
31.2810881312
 13
367.491847524
 23
31.2810881312
  0
SOLID
  8
0
 62
7
  6
CONTINUOUS
 10
367.7230979651
 20
31.377879193
 11
367.7809102445
 21
31.2810881312
 12
367.491847524
 22
31.2810881312
 13
367.491847524
 23
31.2810881312
  0
SOLID
  8
0
 62
7
  6
CONTINUOUS
 10
367.5496604651
 20
31.119769695
 11
367.491847524
 21
31.2810881312
 12
367.7809102445
 22
31.2810881312
 13
367.7809102445
 23
31.2810881312
  0
SOLID
  8
0
 62
7
  6
CONTINUOUS
 10
367.7809102445
 20
31.2810881312
 11
367.838722524
 21
31.119769695
 12
367.5496604651
 22
31.119769695
 13
367.5496604651
 23
31.119769695
  0
SOLID
  8
0
 62
7
  6
CONTINUOUS
 10
366.798097524
 20
31.377879193
 11
366.624660024
 21
31.3133521701
 12
366.5090354651
 22
31.377879193
 13
366.5090354651
 23
31.377879193
  0
SOLID
  8
0
 62
7
  6
CONTINUOUS
 10
366.624660024
 20
31.3133521701
 11
366.5090354651
 21
31.2488235635
 12
366.5090354651
 22
31.377879193
 13
366.5090354651
 23
31.377879193
  0
SOLID
  8
0
 62
7
  6
CONTINUOUS
 10
366.5090354651
 20
31.2488235635
 11
366.2199727445
 21
30.5067596374
 12
366.5090354651
 22
31.377879193
 13
366.5090354651
 23
31.377879193
  0
SOLID
  8
0
 62
7
  6
CONTINUOUS
 10
366.5090354651
 20
31.377879193
 11
366.2199727445
 21
30.5067596374
 12
366.5090354651
 22
31.5391976292
 13
366.5090354651
 23
31.5391976292
  0
SOLID
  8
0
 62
7
  6
CONTINUOUS
 10
366.2199727445
 20
30.5067596374
 11
366.2199727445
 21
31.5391976292
 12
366.5090354651
 22
31.5391976292
 13
366.5090354651
 23
31.5391976292
  0
SOLID
  8
0
 62
7
  6
CONTINUOUS
 10
366.5090354651
 20
31.2488235635
 11
366.5090354651
 21
30.5067596374
 12
366.2199727445
 22
30.5067596374
 13
366.2199727445
 23
30.5067596374
  0
SOLID
  8
0
 62
7
  6
CONTINUOUS
 10
367.5496604651
 20
30.5067596374
 11
367.5496604651
 21
31.119769695
 12
367.838722524
 22
31.119769695
 13
367.838722524
 23
31.119769695
  0
SOLID
  8
0
 62
7
  6
CONTINUOUS
 10
367.838722524
 20
31.119769695
 11
367.838722524
 21
30.5067596374
 12
367.5496604651
 22
30.5067596374
 13
367.5496604651
 23
30.5067596374
  0
SOLID
  8
0
 62
7
  6
CONTINUOUS
 10
368.6480977445
 20
31.5069334157
 11
368.9949727445
 21
31.539197762
 12
369.3418477445
 22
31.539197762
 13
369.3418477445
 23
31.539197762
  0
SOLID
  8
0
 62
7
  6
CONTINUOUS
 10
369.3418477445
 20
31.539197762
 11
369.6887227445
 21
31.5069334157
 12
368.6480977445
 22
31.5069334157
 13
368.6480977445
 23
31.5069334157
  0
SOLID
  8
0
 62
7
  6
CONTINUOUS
 10
368.4168479651
 20
31.4424063504
 11
368.6480977445
 21
31.5069334157
 12
369.6887227445
 22
31.5069334157
 13
369.6887227445
 23
31.5069334157
  0
SOLID
  8
0
 62
7
  6
CONTINUOUS
 10
368.4168479651
 20
31.4424063504
 11
369.6887227445
 21
31.5069334406
 12
369.8621602445
 22
31.4746706537
 13
369.8621602445
 23
31.4746706537
  0
SOLID
  8
0
 62
7
  6
CONTINUOUS
 10
368.4168479651
 20
31.4424063504
 11
369.8621602445
 21
31.4746706537
 12
368.9949727445
 22
31.4101421267
 13
368.9949727445
 23
31.4101421267
  0
SOLID
  8
0
 62
7
  6
CONTINUOUS
 10
368.9949727445
 20
31.4101421267
 11
369.8621602445
 21
31.4746706537
 12
369.3418477445
 22
31.4101421267
 13
369.3418477445
 23
31.4101421267
  0
SOLID
  8
0
 62
7
  6
CONTINUOUS
 10
369.8621602445
 20
31.4746706537
 11
370.0355977445
 21
31.4101421267
 12
369.3418477445
 22
31.4101421267
 13
369.3418477445
 23
31.4101421267
  0
SOLID
  8
0
 62
7
  6
CONTINUOUS
 10
369.6887227445
 20
31.3778792603
 11
369.3418477445
 21
31.4101421267
 12
370.0355977445
 22
31.4101421267
 13
370.0355977445
 23
31.4101421267
  0
SOLID
  8
0
 62
7
  6
CONTINUOUS
 10
368.3012227445
 20
31.3456148845
 11
368.4168479651
 21
31.4424063504
 12
368.9949727445
 22
31.4101421267
 13
368.9949727445
 23
31.4101421267
  0
SOLID
  8
0
 62
7
  6
CONTINUOUS
 10
369.6887227445
 20
31.3778792603
 11
370.0355977445
 21
31.4101421267
 12
369.8043479651
 22
31.3456148845
 13
369.8043479651
 23
31.3456148845
  0
SOLID
  8
0
 62
7
  6
CONTINUOUS
 10
369.8043479651
 20
31.3456148845
 11
370.0355977445
 21
31.4101421267
 12
369.8621602445
 22
31.281087868
 13
369.8621602445
 23
31.281087868
  0
SOLID
  8
0
 62
7
  6
CONTINUOUS
 10
370.0355977445
 20
31.4101421267
 11
370.1512223035
 21
31.281087868
 12
369.8621602445
 22
31.281087868
 13
369.8621602445
 23
31.281087868
  0
SOLID
  8
0
 62
7
  6
CONTINUOUS
 10
359.4559102445
 20
31.3778792603
 11
358.9355977445
 21
31.3456148963
 12
359.6871602721
 22
31.4101421155
 13
359.6871602721
 23
31.4101421155
  0
SOLID
  8
0
 62
7
  6
CONTINUOUS
 10
358.9355977445
 20
31.3456148963
 11
359.0512227376
 21
31.4101421155
 12
359.6871602721
 22
31.4101421155
 13
359.6871602721
 23
31.4101421155
  0
SOLID
  8
0
 62
7
  6
CONTINUOUS
 10
359.4559102445
 20
31.3778792603
 11
359.3402852307
 21
31.3456148963
 12
358.9355977445
 22
31.3456148963
 13
358.9355977445
 23
31.3456148963
  0
SOLID
  8
0
 62
7
  6
CONTINUOUS
 10
358.8199727462
 20
31.2165607767
 11
358.9355977445
 21
31.3456148963
 12
359.3402852307
 22
31.3456148963
 13
359.3402852307
 23
31.3456148963
  0
SOLID
  8
0
 62
7
  6
CONTINUOUS
 10
363.1559103548
 20
31.3456149608
 11
363.8496603548
 21
31.4101420472
 12
363.6184102445
 22
31.3778792603
 13
363.6184102445
 23
31.3778792603
  0
SOLID
  8
0
 62
7
  6
CONTINUOUS
 10
363.6184102445
 20
31.3778792603
 11
363.5027853548
 21
31.3456149608
 12
363.1559103548
 22
31.3456149608
 13
363.1559103548
 23
31.3456149608
  0
SOLID
  8
0
 62
7
  6
CONTINUOUS
 10
363.1559103548
 20
31.2810878707
 11
363.1559103548
 21
31.3456149608
 12
363.5027853548
 22
31.3456149608
 13
363.5027853548
 23
31.3456149608
  0
SOLID
  8
0
 62
7
  6
CONTINUOUS
 10
363.5027853548
 20
31.3456149608
 11
363.4449727445
 21
31.2810878707
 12
363.1559103548
 22
31.2810878707
 13
363.1559103548
 23
31.2810878707
  0
SOLID
  8
0
 62
7
  6
CONTINUOUS
 10
368.3012227445
 20
31.3456149608
 11
368.9949727445
 21
31.4101420472
 12
368.7637229651
 22
31.3778792603
 13
368.7637229651
 23
31.3778792603
  0
SOLID
  8
0
 62
7
  6
CONTINUOUS
 10
368.7637229651
 20
31.3778792603
 11
368.6480977445
 21
31.3456149608
 12
368.3012227445
 22
31.3456149608
 13
368.3012227445
 23
31.3456149608
  0
SOLID
  8
0
 62
7
  6
CONTINUOUS
 10
368.3012227445
 20
31.2810878707
 11
368.3012227445
 21
31.3456149608
 12
368.6480977445
 22
31.3456149608
 13
368.6480977445
 23
31.3456149608
  0
SOLID
  8
0
 62
7
  6
CONTINUOUS
 10
368.6480977445
 20
31.3456149608
 11
368.5902854651
 21
31.2810878707
 12
368.3012227445
 22
31.2810878707
 13
368.3012227445
 23
31.2810878707
  0
SOLID
  8
0
 62
7
  6
CONTINUOUS
 10
368.4168479651
 20
31.1520336865
 11
368.3012227445
 21
31.2810878707
 12
368.5902854651
 22
31.2810878707
 13
368.5902854651
 23
31.2810878707
  0
SOLID
  8
0
 62
7
  6
CONTINUOUS
 10
358.8199727462
 20
31.2165607767
 11
359.3402852307
 21
31.345614957
 12
359.1668477307
 22
31.2488235635
 13
359.1668477307
 23
31.2488235635
  0
SOLID
  8
0
 62
7
  6
CONTINUOUS
 10
359.1668477307
 20
31.2488235635
 11
359.1090352445
 21
31.1842964734
 12
358.8199727462
 22
31.2165607767
 13
358.8199727462
 23
31.2165607767
  0
SOLID
  8
0
 62
7
  6
CONTINUOUS
 10
358.7621602445
 20
31.0229779898
 11
358.8199727462
 21
31.2165607767
 12
359.1090352445
 22
31.1842964734
 13
359.1090352445
 23
31.1842964734
  0
SOLID
  8
0
 62
7
  6
CONTINUOUS
 10
363.6184102445
 20
31.1520336865
 11
363.9652852445
 21
31.1842964611
 12
364.6012229651
 22
31.1842964611
 13
364.6012229651
 23
31.1842964611
  0
SOLID
  8
0
 62
7
  6
CONTINUOUS
 10
363.6184102445
 20
31.1520336865
 11
364.6012229651
 21
31.1842964611
 12
363.3871601343
 22
31.0875057863
 13
363.3871601343
 23
31.0875057863
  0
SOLID
  8
0
 62
7
  6
CONTINUOUS
 10
363.3871601343
 20
31.0875057863
 11
364.6012229651
 21
31.1842964611
 12
363.9652852445
 22
31.0552422808
 13
363.9652852445
 23
31.0552422808
  0
SOLID
  8
0
 62
7
  6
CONTINUOUS
 10
364.6012229651
 20
31.1842964611
 11
364.6012229651
 21
31.0552422808
 12
363.9652852445
 22
31.0552422808
 13
363.9652852445
 23
31.0552422808
  0
SOLID
  8
0
 62
7
  6
CONTINUOUS
 10
368.4168479651
 20
31.1520338754
 11
368.5902854651
 21
31.2810878668
 12
368.6480977445
 22
31.2165607767
 13
368.6480977445
 23
31.2165607767
  0
SOLID
  8
0
 62
7
  6
CONTINUOUS
 10
368.6480977445
 20
31.2165607767
 11
368.8215352445
 21
31.1520338754
 12
368.4168479651
 22
31.1520338754
 13
368.4168479651
 23
31.1520338754
  0
SOLID
  8
0
 62
7
  6
CONTINUOUS
 10
368.6480977445
 20
31.0552422931
 11
368.4168479651
 21
31.1520338754
 12
368.8215352445
 22
31.1520338754
 13
368.8215352445
 23
31.1520338754
  0
SOLID
  8
0
 62
7
  6
CONTINUOUS
 10
368.8215352445
 20
31.1520338754
 11
369.8043479651
 21
30.9907152029
 12
368.6480977445
 22
31.0552422931
 13
368.6480977445
 23
31.0552422931
  0
SOLID
  8
0
 62
7
  6
CONTINUOUS
 10
369.6309104651
 20
30.8939239876
 11
368.6480977445
 21
31.0552422931
 12
369.8043479651
 22
30.9907152029
 13
369.8043479651
 23
30.9907152029
  0
SOLID
  8
0
 62
7
  6
CONTINUOUS
 10
369.8043479651
 20
30.9907152029
 11
370.0355977445
 21
30.8939239876
 12
369.6309104651
 22
30.8939239876
 13
369.6309104651
 23
30.8939239876
  0
SOLID
  8
0
 62
7
  6
CONTINUOUS
 10
369.8043479651
 20
30.8293967193
 11
369.6309104651
 21
30.8939239876
 12
370.0355977445
 22
30.8939239876
 13
370.0355977445
 23
30.8939239876
  0
SOLID
  8
0
 62
7
  6
CONTINUOUS
 10
369.8043479651
 20
30.8293967193
 11
370.0355977445
 21
30.8939239876
 12
369.8621602445
 22
30.7648682694
 13
369.8621602445
 23
30.7648682694
  0
SOLID
  8
0
 62
7
  6
CONTINUOUS
 10
370.0355977445
 20
30.8939239876
 11
370.1512223035
 21
30.7648682694
 12
369.8621602445
 22
30.7648682694
 13
369.8621602445
 23
30.7648682694
  0
SOLID
  8
0
 62
7
  6
CONTINUOUS
 10
369.8043479651
 20
30.7003411846
 11
369.8621602445
 21
30.7648682694
 12
370.1512223035
 22
30.7648682694
 13
370.1512223035
 23
30.7648682694
  0
SOLID
  8
0
 62
7
  6
CONTINUOUS
 10
370.1512223035
 20
30.7648682694
 11
370.1512223035
 21
30.7003411846
 12
369.8043479651
 22
30.7003411846
 13
369.8043479651
 23
30.7003411846
  0
SOLID
  8
0
 62
7
  6
CONTINUOUS
 10
369.6887227445
 20
30.6680782357
 11
369.8043479651
 21
30.7003411846
 12
370.1512223035
 22
30.7003411846
 13
370.1512223035
 23
30.7003411846
  0
SOLID
  8
0
 62
7
  6
CONTINUOUS
 10
369.6887227445
 20
30.6680782357
 11
370.1512223035
 21
30.7003411846
 12
369.4574729651
 22
30.6358140998
 13
369.4574729651
 23
30.6358140998
  0
SOLID
  8
0
 62
7
  6
CONTINUOUS
 10
370.1512223035
 20
30.7003411846
 11
370.0355977445
 21
30.6035511455
 12
369.4574729651
 22
30.6358140998
 13
369.4574729651
 23
30.6358140998
  0
SOLID
  8
0
 62
7
  6
CONTINUOUS
 10
370.0355977445
 20
30.6035511455
 11
368.5902854651
 21
30.5712868422
 12
369.4574729651
 22
30.6358140998
 13
369.4574729651
 23
30.6358140998
  0
SOLID
  8
0
 62
7
  6
CONTINUOUS
 10
369.4574729651
 20
30.6358140998
 11
368.5902854651
 21
30.5712868422
 12
369.1105979651
 22
30.6358140998
 13
369.1105979651
 23
30.6358140998
  0
SOLID
  8
0
 62
7
  6
CONTINUOUS
 10
368.5902854651
 20
30.5712868422
 11
368.4168479651
 21
30.6358140998
 12
369.1105979651
 22
30.6358140998
 13
369.1105979651
 23
30.6358140998
  0
SOLID
  8
0
 62
7
  6
CONTINUOUS
 10
368.5902854651
 20
30.5712868422
 11
370.0355977445
 21
30.6035511455
 12
368.7637229651
 22
30.5390223111
 13
368.7637229651
 23
30.5390223111
  0
SOLID
  8
0
 62
7
  6
CONTINUOUS
 10
370.0355977445
 20
30.6035511455
 11
369.8043479651
 21
30.5390223111
 12
368.7637229651
 22
30.5390223111
 13
368.7637229651
 23
30.5390223111
  0
SOLID
  8
0
 62
7
  6
CONTINUOUS
 10
369.1105979651
 20
30.5067599302
 11
368.7637229651
 21
30.5390223111
 12
369.8043479651
 22
30.5390223111
 13
369.8043479651
 23
30.5390223111
  0
SOLID
  8
0
 62
7
  6
CONTINUOUS
 10
369.8043479651
 20
30.5390223111
 11
369.4574729651
 21
30.5067599302
 12
369.1105979651
 22
30.5067599302
 13
369.1105979651
 23
30.5067599302
  0
SOLID
  8
0
 62
7
  6
CONTINUOUS
 10
358.7621602445
 20
31.0229779898
 11
359.1090352445
 21
31.1842964734
 12
359.0512227376
 22
31.0552422931
 13
359.0512227376
 23
31.0552422931
  0
SOLID
  8
0
 62
7
  6
CONTINUOUS
 10
359.0512227376
 20
31.0552422931
 11
359.0512227376
 21
30.9584509954
 12
358.7621602445
 22
31.0229779898
 13
358.7621602445
 23
31.0229779898
  0
SOLID
  8
0
 62
7
  6
CONTINUOUS
 10
358.8199727462
 20
30.8293967193
 11
358.7621602445
 21
31.0229779898
 12
359.0512227376
 22
30.9584509954
 13
359.0512227376
 23
30.9584509954
  0
SOLID
  8
0
 62
7
  6
CONTINUOUS
 10
359.0512227376
 20
30.9584509954
 11
359.1668477307
 21
30.797132416
 12
358.8199727462
 22
30.8293967193
 13
358.8199727462
 23
30.8293967193
  0
SOLID
  8
0
 62
7
  6
CONTINUOUS
 10
358.9355977445
 20
30.7003413087
 11
358.8199727462
 21
30.8293967193
 12
359.1668477307
 22
30.797132416
 13
359.1668477307
 23
30.797132416
  0
SOLID
  8
0
 62
7
  6
CONTINUOUS
 10
359.1668477307
 20
30.797132416
 11
359.3402852307
 21
30.7003413087
 12
358.9355977445
 22
30.7003413087
 13
358.9355977445
 23
30.7003413087
  0
SOLID
  8
0
 62
7
  6
CONTINUOUS
 10
359.0512227376
 20
30.6358140759
 11
358.9355977445
 21
30.7003413087
 12
359.3402852307
 22
30.7003413087
 13
359.3402852307
 23
30.7003413087
  0
SOLID
  8
0
 62
7
  6
CONTINUOUS
 10
359.3402852307
 20
30.7003413087
 11
359.6871602721
 21
30.6358140759
 12
359.0512227376
 22
30.6358140759
 13
359.0512227376
 23
30.6358140759
  0
SOLID
  8
0
 62
7
  6
CONTINUOUS
 10
359.2246602583
 20
30.5712868422
 11
359.0512227376
 21
30.6358140759
 12
359.6871602721
 22
30.6358140759
 13
359.6871602721
 23
30.6358140759
  0
SOLID
  8
0
 62
7
  6
CONTINUOUS
 10
363.2715352445
 20
31.0229779808
 11
363.3871601343
 21
31.0875057863
 12
363.9652852445
 22
31.0552422931
 13
363.9652852445
 23
31.0552422931
  0
SOLID
  8
0
 62
7
  6
CONTINUOUS
 10
363.9652852445
 20
31.0552422931
 11
363.7340351343
 21
31.0229779808
 12
363.2715352445
 22
31.0229779808
 13
363.2715352445
 23
31.0229779808
  0
SOLID
  8
0
 62
7
  6
CONTINUOUS
 10
363.1559103548
 20
30.8939238094
 11
363.2715352445
 21
31.0229779808
 12
363.7340351343
 22
31.0229779808
 13
363.7340351343
 23
31.0229779808
  0
SOLID
  8
0
 62
7
  6
CONTINUOUS
 10
363.5027853548
 20
30.926187309
 11
363.1559103548
 21
30.8939238094
 12
363.6184102445
 22
30.9907152029
 13
363.6184102445
 23
30.9907152029
  0
SOLID
  8
0
 62
7
  6
CONTINUOUS
 10
363.1559103548
 20
30.8939238094
 11
363.7340351343
 21
31.0229779898
 12
363.6184102445
 22
30.9907152029
 13
363.6184102445
 23
30.9907152029
  0
SOLID
  8
0
 62
7
  6
CONTINUOUS
 10
363.5027853548
 20
30.926187309
 11
363.4449727445
 21
30.8293967193
 12
363.1559103548
 22
30.8939238094
 13
363.1559103548
 23
30.8939238094
  0
SOLID
  8
0
 62
7
  6
CONTINUOUS
 10
363.1559103548
 20
30.797132416
 11
363.1559103548
 21
30.8939238094
 12
363.4449727445
 22
30.8293967193
 13
363.4449727445
 23
30.8293967193
  0
SOLID
  8
0
 62
7
  6
CONTINUOUS
 10
363.4449727445
 20
30.8293967193
 11
363.4449727445
 21
30.7648681127
 12
363.1559103548
 22
30.797132416
 13
363.1559103548
 23
30.797132416
  0
SOLID
  8
0
 62
7
  6
CONTINUOUS
 10
363.2137226343
 20
30.6680782357
 11
363.1559103548
 21
30.797132416
 12
363.4449727445
 22
30.7648681127
 13
363.4449727445
 23
30.7648681127
  0
SOLID
  8
0
 62
7
  6
CONTINUOUS
 10
364.6012229651
 20
30.8616599362
 11
364.890285024
 21
30.7648681127
 12
364.543410024
 22
30.797132416
 13
364.543410024
 23
30.797132416
  0
SOLID
  8
0
 62
7
  6
CONTINUOUS
 10
364.369972524
 20
30.7003410226
 11
364.543410024
 21
30.797132416
 12
364.890285024
 22
30.7648681127
 13
364.890285024
 23
30.7648681127
  0
SOLID
  8
0
 62
7
  6
CONTINUOUS
 10
364.369972524
 20
30.7003410226
 11
364.890285024
 21
30.7648681127
 12
364.6012229651
 22
30.6680782357
 13
364.6012229651
 23
30.6680782357
  0
SOLID
  8
0
 62
7
  6
CONTINUOUS
 10
364.890285024
 20
30.7648681127
 11
364.9480979651
 21
30.6035511455
 12
364.6012229651
 22
30.6680782357
 13
364.6012229651
 23
30.6680782357
  0
SOLID
  8
0
 62
7
  6
CONTINUOUS
 10
364.6590352445
 20
30.5712868422
 11
364.6012229651
 21
30.6680782357
 12
364.9480979651
 22
30.6035511455
 13
364.9480979651
 23
30.6035511455
  0
SOLID
  8
0
 62
7
  6
CONTINUOUS
 10
364.6590352445
 20
30.5712868422
 11
364.9480979651
 21
30.6035511455
 12
364.716847524
 22
30.5067598731
 13
364.716847524
 23
30.5067598731
  0
SOLID
  8
0
 62
7
  6
CONTINUOUS
 10
364.9480979651
 20
30.6035511455
 11
365.0059102445
 21
30.5067598731
 12
364.716847524
 22
30.5067598731
 13
364.716847524
 23
30.5067598731
  0
SOLID
  8
0
 62
7
  6
CONTINUOUS
 10
360.2652852997
 20
30.7326051679
 11
360.3230977445
 21
30.8293966612
 12
360.6121602997
 22
30.8293966612
 13
360.6121602997
 23
30.8293966612
  0
SOLID
  8
0
 62
7
  6
CONTINUOUS
 10
360.6121602997
 20
30.8293966612
 11
360.5543476894
 21
30.7003410226
 12
360.2652852997
 22
30.7326051679
 13
360.2652852997
 23
30.7326051679
  0
SOLID
  8
0
 62
7
  6
CONTINUOUS
 10
360.091847717
 20
30.6680782357
 11
360.2652852997
 21
30.7326051679
 12
360.5543476894
 22
30.7003410226
 13
360.5543476894
 23
30.7003410226
  0
SOLID
  8
0
 62
7
  6
CONTINUOUS
 10
360.091847717
 20
30.6680782357
 11
360.5543476894
 21
30.7003410226
 12
359.6871602721
 22
30.6358139324
 13
359.6871602721
 23
30.6358139324
  0
SOLID
  8
0
 62
7
  6
CONTINUOUS
 10
360.5543476894
 20
30.7003410226
 11
360.3809101894
 21
30.6035511455
 12
359.6871602721
 22
30.6358139324
 13
359.6871602721
 23
30.6358139324
  0
SOLID
  8
0
 62
7
  6
CONTINUOUS
 10
359.2246602583
 20
30.5712868422
 11
359.6871602721
 21
30.6358139324
 12
360.3809101894
 22
30.6035511455
 13
360.3809101894
 23
30.6035511455
  0
SOLID
  8
0
 62
7
  6
CONTINUOUS
 10
359.2246602583
 20
30.5712868422
 11
360.3809101894
 21
30.6035511455
 12
359.3980977583
 22
30.5390224228
 13
359.3980977583
 23
30.5390224228
  0
SOLID
  8
0
 62
7
  6
CONTINUOUS
 10
360.3809101894
 20
30.6035511455
 11
360.1496602445
 21
30.5390224228
 12
359.3980977583
 22
30.5390224228
 13
359.3980977583
 23
30.5390224228
  0
SOLID
  8
0
 62
7
  6
CONTINUOUS
 10
359.744972717
 20
30.5067597521
 11
359.3980977583
 21
30.5390224228
 12
360.1496602445
 22
30.5390224228
 13
360.1496602445
 23
30.5390224228
  0
SOLID
  8
0
 62
7
  6
CONTINUOUS
 10
363.2137226343
 20
30.6680782357
 11
363.4449727445
 21
30.7648681127
 12
363.5027853548
 22
30.7003410226
 13
363.5027853548
 23
30.7003410226
  0
SOLID
  8
0
 62
7
  6
CONTINUOUS
 10
363.5027853548
 20
30.7003410226
 11
363.7340351343
 21
30.6358139324
 12
363.2137226343
 22
30.6680782357
 13
363.2137226343
 23
30.6680782357
  0
SOLID
  8
0
 62
7
  6
CONTINUOUS
 10
363.3871601343
 20
30.5712868422
 11
363.2137226343
 21
30.6680782357
 12
363.7340351343
 22
30.6358139324
 13
363.7340351343
 23
30.6358139324
  0
SOLID
  8
0
 62
7
  6
CONTINUOUS
 10
364.0809101343
 20
30.6358139363
 11
364.369972524
 21
30.7003410226
 12
364.6012229651
 22
30.6680782357
 13
364.6012229651
 23
30.6680782357
  0
SOLID
  8
0
 62
7
  6
CONTINUOUS
 10
364.6012229651
 20
30.6680782357
 11
364.543410024
 21
30.6035511455
 12
364.0809101343
 22
30.6358139363
 13
364.0809101343
 23
30.6358139363
  0
SOLID
  8
0
 62
7
  6
CONTINUOUS
 10
364.543410024
 20
30.6035511455
 11
363.3871601343
 21
30.5712868422
 12
364.0809101343
 22
30.6358139363
 13
364.0809101343
 23
30.6358139363
  0
SOLID
  8
0
 62
7
  6
CONTINUOUS
 10
363.3871601343
 20
30.5712868422
 11
363.7340351343
 21
30.6358139363
 12
364.0809101343
 22
30.6358139363
 13
364.0809101343
 23
30.6358139363
  0
SOLID
  8
0
 62
7
  6
CONTINUOUS
 10
363.3871601343
 20
30.5712868422
 11
364.543410024
 21
30.6035511455
 12
363.5027853548
 22
30.5390225267
 13
363.5027853548
 23
30.5390225267
  0
SOLID
  8
0
 62
7
  6
CONTINUOUS
 10
364.543410024
 20
30.6035511455
 11
364.369972524
 21
30.5390225267
 12
363.5027853548
 22
30.5390225267
 13
363.5027853548
 23
30.5390225267
  0
SOLID
  8
0
 62
7
  6
CONTINUOUS
 10
363.7340351343
 20
30.5067596914
 11
363.5027853548
 21
30.5390225267
 12
364.369972524
 22
30.5390225267
 13
364.369972524
 23
30.5390225267
  0
SOLID
  8
0
 62
7
  6
CONTINUOUS
 10
364.369972524
 20
30.5390225267
 11
364.0809101343
 21
30.5067596914
 12
363.7340351343
 22
30.5067596914
 13
363.7340351343
 23
30.5067596914
  0
SOLID
  8
0
 62
7
  6
CONTINUOUS
 10
368.7637229651
 20
30.6680782357
 11
368.4168479651
 21
30.6358138717
 12
368.6480977445
 22
30.7003410226
 13
368.6480977445
 23
30.7003410226
  0
SOLID
  8
0
 62
7
  6
CONTINUOUS
 10
368.6480977445
 20
30.7003410226
 11
368.4168479651
 21
30.6358138717
 12
368.5902854651
 22
30.7648680521
 13
368.5902854651
 23
30.7648680521
  0
SOLID
  8
0
 62
7
  6
CONTINUOUS
 10
368.4168479651
 20
30.6358138717
 11
368.3012227445
 21
30.7648680521
 12
368.5902854651
 22
30.7648680521
 13
368.5902854651
 23
30.7648680521
  0
SOLID
  8
0
 62
7
  6
CONTINUOUS
 10
368.7637229651
 20
30.6680782357
 11
369.1105979651
 21
30.6358138717
 12
368.4168479651
 22
30.6358138717
 13
368.4168479651
 23
30.6358138717
  0
SOLID
  8
0
 62
7
  6
CONTINUOUS
 10
365.4684104651
 20
30.5067597521
 11
365.4684104651
 21
31.5391977439
 12
365.757472524
 22
30.5067597521
 13
365.757472524
 23
31.5391977439
  0
ENDBLK
  8
0
  6
BYBLOCK
 62
0
  0
BLOCK
  8
0
 62
2
  6
CONTINUOUS
  2
SYMBOL_0_BL0
 70
64
 10
240.8592468615
 20
19.762288695
  0
TEXT
  8
0
 62
7
  6
CONTINUOUS
 10
227.1239507038
 20
19.1357028027
  7
TEXTSTYLE_3
 40
2.7338706658
  1
Ammeraal Beltech
 41
1.0
 51
15.0
 72
0
  0
TEXT
  8
0
 62
7
  6
CONTINUOUS
 10
237.9247515296
 20
16.8621661299
  7
TEXTSTYLE_4
 40
1.0935482663
  1
Innovation & Service in Belting
 41
1.0
 72
0
  0
LINE
  8
0
 62
7
  6
CONTINUOUS
 10
221.0994100525
 20
19.9022961113
 11
221.8775620458
 21
23.5632134089
  0
LINE
  8
0
 62
7
  6
CONTINUOUS
 10
231.9727303357
 20
27.2266073205
 11
222.3653797889
 21
24.1049898993
  0
LINE
  8
0
 62
7
  6
CONTINUOUS
 10
221.3246933848
 20
19.2089453082
 11
228.8317686459
 21
12.4495443822
  0
LINE
  8
0
 62
7
  6
CONTINUOUS
 10
221.5872277955
 20
20.4440726016
 11
232.3954971607
 21
23.9558922005
  0
LINE
  8
0
 62
7
  6
CONTINUOUS
 10
232.3912920235
 20
13.6061036368
 11
223.9458323548
 21
21.2104296785
  0
LINE
  8
0
 62
7
  6
CONTINUOUS
 10
232.9111147433
 20
26.3816822048
 11
231.9345552061
 21
21.7873308023
  0
LINE
  8
0
 62
7
  6
CONTINUOUS
 10
231.2347532584
 20
18.4950214885
 11
230.5483050469
 21
15.2655365641
  0
LINE
  8
0
 62
7
  6
CONTINUOUS
 10
233.5922108419
 20
13.9963058145
 11
234.5484423775
 21
18.4950214885
  0
LINE
  8
0
 62
7
  6
CONTINUOUS
 10
235.2482443252
 20
21.7873308023
 11
235.6924861276
 21
23.8773241617
  0
LINE
  8
0
 62
7
  6
CONTINUOUS
 10
229.5448697213
 20
12.2979700695
 11
233.1043930989
 21
13.4545293241
  0
LINE
  8
0
 62
7
  6
CONTINUOUS
 10
232.685831411
 20
27.0750330078
 11
235.4672027953
 21
24.5706749648
  0
ARC
  8
0
 62
7
  6
CONTINUOUS
 10
222.5906631212
 20
23.4116390962
 40
0.7290321776
 50
108.0
 51
168.0
  0
ARC
  8
0
 62
7
  6
CONTINUOUS
 10
232.198013668
 20
26.5332565175
 40
0.7290321776
 50
348.0
 51
108.0
  0
ARC
  8
0
 62
7
  6
CONTINUOUS
 10
234.9793850522
 20
24.0288984744
 40
0.7290321776
 50
348.0
 51
48.0
  0
ARC
  8
0
 62
7
  6
CONTINUOUS
 10
229.319586389
 20
12.9913208726
 40
0.7290321776
 50
228.0
 51
288.0
  0
ARC
  8
0
 62
7
  6
CONTINUOUS
 10
221.8125111278
 20
19.7507217986
 40
0.7290321776
 50
108.0
 51
228.0
  0
ARC
  8
0
 62
7
  6
CONTINUOUS
 10
232.8791097665
 20
14.1478801272
 40
0.7290321776
 50
228.0
 51
348.0
  0
ENDBLK
  8
0
  6
BYBLOCK
 62
0
  0
ENDSEC
  0
SECTION
  2
ENTITIES
  0
TEXT
  8
0
 62
5
  6
CONTINUOUS
 10
304.937007874
 20
25.636
  7
TEXTSTYLE_2
 40
2.8
  1
Scale :
 41
0.6
 51
0.000019
 72
0
  0
TEXT
  8
0
 62
5
  6
CONTINUOUS
 10
324.937007874
 20
25.636
  7
TEXTSTYLE_2
 40
2.8
  1
Belt type:
 41
0.6
 51
0.000019
 72
0
  0
INSERT
  8
0
 62
2
  6
CONTINUOUS
  2
SYMBOL_0_BL0
 10
240.8592468615
 20
19.762288695
  0
INSERT
  8
0
 62
2
  6
CONTINUOUS
  2
SYMBOL_5_BL1
 10
382.7840918555
 20
35.5067593403
  0
LINE
  8
0
 62
2
  6
CONTINUOUS
 10
218.937007874
 20
30.0
 11
408.937007874
 21
30.0
  0
LINE
  8
0
 62
2
  6
CONTINUOUS
 10
218.937007874
 20
30.0
 11
218.937007874
 21
10.0
  0
LINE
  8
0
 62
2
  6
CONTINUOUS
 10
218.937007874
 20
10.0
 11
408.937007874
 21
10.0
  0
LINE
  8
0
 62
2
  6
CONTINUOUS
 10
303.937007874
 20
30.0
 11
303.937007874
 21
10.0
  0
LINE
  8
0
 62
2
  6
CONTINUOUS
 10
323.937007874
 20
30.0
 11
323.937007874
 21
10.0
  0
LINE
  8
0
 62
2
  6
CONTINUOUS
 10
408.937007874
 20
30.0
 11
408.937007874
 21
10.0
  0
TEXT
  8
0
 62
5
  6
CONTINUOUS
 10
221.937007874
 20
23.303
  7
TEXTSTYLE_5
 40
1.52
  1
                                                                     Ammeraal Beltech Modular A/S
 41
1.0
 72
0
  0
TEXT
  8
0
 62
5
  6
CONTINUOUS
 10
221.937007874
 20
20.595
  7
TEXTSTYLE_5
 40
1.5
  1
                                                                      Hjulmagervej 21, 7100 Vejle,  DK
 41
1.0
 72
0
  0
TEXT
  8
0
 62
5
  6
CONTINUOUS
 10
221.937007874
 20
17.881
  7
TEXTSTYLE_5
 40
1.495
  1
                                                                      tel: 
 41
1.0
 72
0
  0
TEXT
  8
0
 62
5
  6
CONTINUOUS
 10
266.9239544389
 20
17.881
  7
TEXTSTYLE_5
 40
1.51
  1
+45 75723100     fax: +45 75723348
 41
1.0
 72
0
  0
TEXT
  8
0
 62
5
  6
CONTINUOUS
 10
221.937007874
 20
15.177
  7
TEXTSTYLE_5
 40
1.5
  1
                                                                      admin@unichains.dk  www.unichains.com
 41
1.0
 72
0
  0
TEXT
  8
0
 62
5
  6
CONTINUOUS
 10
308.687007874
 20
13.75
  7
TEXTSTYLE_6
 40
5.0
  1
1:1
 41
0.7
 72
1
 11
313.937007874
 21
13.75
  0
TEXT
  8
0
 62
5
  6
CONTINUOUS
 10
326.937007874
 20
13.75
  7
TEXTSTYLE_7
 40
7.5
  1
un Flex ASB R2,2/43% Top K600 Outer 
 41
0.2762962963
 72
0
  0
LINE
  8
0
 62
7
  6
CONTINUOUS
 10
0.0
 20
0.0
 11
0.0
 21
297.0
  0
LINE
  8
0
 62
7
  6
CONTINUOUS
 10
8.937007874
 20
10.0
 11
8.937007874
 21
287.0
  0
LINE
  8
0
 62
7
  6
CONTINUOUS
 10
0.0
 20
0.0
 11
420.0
 21
0.0
  0
LINE
  8
0
 62
7
  6
CONTINUOUS
 10
408.937007874
 20
10.0
 11
8.937007874
 21
10.0
  0
LINE
  8
0
 62
7
  6
CONTINUOUS
 10
218.937007874
 20
30.0
 11
408.937007874
 21
30.0
  0
LINE
  8
0
 62
7
  6
CONTINUOUS
 10
210.0
 20
297.0
 11
210.0
 21
292.0
  0
LINE
  8
0
 62
7
  6
CONTINUOUS
 10
210.0
 20
0.0
 11
210.0
 21
5.0
  0
LINE
  8
0
 62
7
  6
CONTINUOUS
 10
8.937007874
 20
287.0
 11
408.937007874
 21
287.0
  0
LINE
  8
0
 62
7
  6
CONTINUOUS
 10
0.0
 20
297.0
 11
420.0
 21
297.0
  0
LINE
  8
0
 62
7
  6
CONTINUOUS
 10
408.937007874
 20
287.0
 11
408.937007874
 21
10.0
  0
LINE
  8
0
 62
7
  6
CONTINUOUS
 10
420.0
 20
0.0
 11
420.0
 21
297.0
  0
LINE
  8
0
 62
7
  6
CONTINUOUS
 10
76.9358922364
 20
116.1143158436
 11
76.9358922364
 21
127.5652189704
  0
LINE
  8
0
 62
7
  6
CONTINUOUS
 10
82.1898922364
 20
114.5494695969
 11
82.1898922364
 21
128.0972740659
  0
LINE
  8
0
 62
7
  6
CONTINUOUS
 10
84.3109065995
 20
147.1229019123
 11
84.3109065995
 21
143.1343898706
  0
LINE
  8
0
 62
7
  6
CONTINUOUS
 10
85.0608922364
 20
140.0895137125
 11
85.0608922364
 21
136.8101538497
  0
LINE
  8
0
 62
7
  6
CONTINUOUS
 10
85.0456149113
 20
140.2121674054
 11
85.0608922364
 21
140.0895137125
  0
LINE
  8
0
 62
7
  6
CONTINUOUS
 10
89.5608922364
 20
135.4087920046
 11
89.5608922364
 21
140.0895137125
  0
LINE
  8
0
 62
7
  6
CONTINUOUS
 10
90.3108778732
 20
147.1229019123
 11
90.3108778732
 21
143.1343898706
  0
LINE
  8
0
 62
7
  6
CONTINUOUS
 10
92.4318922364
 20
119.0601098603
 11
92.4318922364
 21
114.8087920046
  0
LINE
  8
0
 62
7
  6
CONTINUOUS
 10
93.1858922364
 20
122.121065819
 11
93.1858922364
 21
126.3587920046
  0
LINE
  8
0
 62
7
  6
CONTINUOUS
 10
97.6858922364
 20
122.1210702968
 11
97.6858922364
 21
126.2587920046
  0
LINE
  8
0
 62
7
  6
CONTINUOUS
 10
98.4398922364
 20
114.8087920046
 11
98.4398922364
 21
119.0603295299
  0
LINE
  8
0
 62
7
  6
CONTINUOUS
 10
98.9358922368
 20
131.4954891332
 11
98.9358922398
 21
130.9583169993
  0
LINE
  8
0
 62
7
  6
CONTINUOUS
 10
99.9359065995
 20
143.1343898706
 11
99.9359065995
 21
147.1229019123
  0
LINE
  8
0
 62
7
  6
CONTINUOUS
 10
100.6858922364
 20
134.4087920046
 11
100.6858922364
 21
140.0895137125
  0
LINE
  8
0
 62
7
  6
CONTINUOUS
 10
89.5608922364
 20
140.0895137125
 11
89.5761695614
 21
140.2121674054
  0
LINE
  8
0
 62
7
  6
CONTINUOUS
 10
89.5761695614
 20
140.2121674054
 11
90.3062946757
 21
143.0975937628
  0
LINE
  8
0
 62
7
  6
CONTINUOUS
 10
92.4364747849
 20
119.0969034034
 11
93.1706170746
 21
121.9984206754
  0
LINE
  8
0
 62
7
  6
CONTINUOUS
 10
84.3154897971
 20
143.0975937628
 11
85.0456149113
 21
140.2121674054
  0
LINE
  8
0
 62
7
  6
CONTINUOUS
 10
98.4353090389
 20
119.0971256378
 11
97.7011695614
 21
121.9984166039
  0
LINE
  8
0
 62
7
  6
CONTINUOUS
 10
97.7011695614
 20
121.9984166039
 11
97.6858922364
 21
122.1210702968
  0
LINE
  8
0
 62
7
  6
CONTINUOUS
 10
105.1858922364
 20
140.0895137125
 11
105.1858922364
 21
134.2587920046
  0
LINE
  8
0
 62
7
  6
CONTINUOUS
 10
105.9358778732
 20
147.1229019123
 11
105.9358778732
 21
143.1343898706
  0
LINE
  8
0
 62
7
  6
CONTINUOUS
 10
107.4318922364
 20
114.8087920046
 11
107.4318922364
 21
119.0603295299
  0
LINE
  8
0
 62
7
  6
CONTINUOUS
 10
108.1858922364
 20
122.1210702968
 11
108.1858922364
 21
126.2587920046
  0
LINE
  8
0
 62
7
  6
CONTINUOUS
 10
112.6858922364
 20
126.7587920046
 11
112.6858922364
 21
122.1210702968
  0
LINE
  8
0
 62
7
  6
CONTINUOUS
 10
113.4398922364
 20
119.0603295299
 11
113.4398922364
 21
114.8087920046
  0
LINE
  8
0
 62
7
  6
CONTINUOUS
 10
114.4359065995
 20
143.1343898706
 11
114.4359065995
 21
147.1229019123
  0
LINE
  8
0
 62
7
  6
CONTINUOUS
 10
115.1858922364
 20
134.2587920046
 11
115.1858922364
 21
140.0895137125
  0
LINE
  8
0
 62
7
  6
CONTINUOUS
 10
105.9312946757
 20
143.0975937628
 11
105.2011695614
 21
140.2121674054
  0
LINE
  8
0
 62
7
  6
CONTINUOUS
 10
107.4364754339
 20
119.0971256378
 11
108.1706149113
 21
121.9984166039
  0
LINE
  8
0
 62
7
  6
CONTINUOUS
 10
100.6706149113
 20
140.2121674054
 11
99.9404897971
 21
143.0975937628
  0
LINE
  8
0
 62
7
  6
CONTINUOUS
 10
112.7011695614
 20
121.9984166039
 11
113.4353090389
 21
119.0971256378
  0
LINE
  8
0
 62
7
  6
CONTINUOUS
 10
119.6858922364
 20
140.0895137125
 11
119.6858922364
 21
134.2587920046
  0
LINE
  8
0
 62
7
  6
CONTINUOUS
 10
120.4358778732
 20
147.1229019123
 11
120.4358778732
 21
143.1343898706
  0
LINE
  8
0
 62
7
  6
CONTINUOUS
 10
121.4318922364
 20
114.8087920046
 11
121.4318922364
 21
119.0603295299
  0
LINE
  8
0
 62
7
  6
CONTINUOUS
 10
122.1858922364
 20
122.1210702968
 11
122.1858922364
 21
126.7587920046
  0
LINE
  8
0
 62
7
  6
CONTINUOUS
 10
126.6898922364
 20
126.7587920046
 11
126.6898922364
 21
122.1210702968
  0
LINE
  8
0
 62
7
  6
CONTINUOUS
 10
127.4438922364
 20
119.0603295299
 11
127.4438922364
 21
114.8087920046
  0
LINE
  8
0
 62
7
  6
CONTINUOUS
 10
128.1899065995
 20
143.1343898706
 11
128.1899065995
 21
147.1290138569
  0
LINE
  8
0
 62
7
  6
CONTINUOUS
 10
128.9398922364
 20
134.2587920046
 11
128.9398922364
 21
140.0895137125
  0
LINE
  8
0
 62
7
  6
CONTINUOUS
 10
120.4312946757
 20
143.0975937628
 11
119.7011695614
 21
140.2121674054
  0
LINE
  8
0
 62
7
  6
CONTINUOUS
 10
121.4364754339
 20
119.0971256378
 11
122.1706149113
 21
121.9984166039
  0
LINE
  8
0
 62
7
  6
CONTINUOUS
 10
115.1706149113
 20
140.2121674054
 11
114.4404897971
 21
143.0975937628
  0
LINE
  8
0
 62
7
  6
CONTINUOUS
 10
126.7051695614
 20
121.9984166039
 11
127.4393090389
 21
119.0971256378
  0
LINE
  8
0
 62
7
  6
CONTINUOUS
 10
133.4398922364
 20
140.0895137125
 11
133.4398922364
 21
133.8927920046
  0
LINE
  8
0
 62
7
  6
CONTINUOUS
 10
134.1898778732
 20
147.1290138569
 11
134.1898778732
 21
143.1343898706
  0
LINE
  8
0
 62
7
  6
CONTINUOUS
 10
134.9358922364
 20
114.8087920046
 11
134.9358922364
 21
119.0603295299
  0
LINE
  8
0
 62
7
  6
CONTINUOUS
 10
135.6898922364
 20
122.1210702968
 11
135.6898922364
 21
126.7587920046
  0
LINE
  8
0
 62
7
  6
CONTINUOUS
 10
140.1818922364
 20
126.3047920046
 11
140.1818922364
 21
122.1210702968
  0
LINE
  8
0
 62
7
  6
CONTINUOUS
 10
140.9358922364
 20
119.0603295299
 11
140.9358922364
 21
114.8087920046
  0
LINE
  8
0
 62
7
  6
CONTINUOUS
 10
141.2858922364
 20
143.1343898706
 11
141.2858922364
 21
146.6082817474
  0
LINE
  8
0
 62
7
  6
CONTINUOUS
 10
142.0358922364
 20
133.8927920046
 11
142.0358922364
 21
140.0894569498
  0
LINE
  8
0
 62
7
  6
CONTINUOUS
 10
134.1852946757
 20
143.0975937628
 11
133.4551695614
 21
140.2121674054
  0
LINE
  8
0
 62
7
  6
CONTINUOUS
 10
134.9404754339
 20
119.0971256378
 11
135.6746149113
 21
121.9984166039
  0
LINE
  8
0
 62
7
  6
CONTINUOUS
 10
128.9246149113
 20
140.2121674054
 11
128.1944897971
 21
143.0975937628
  0
LINE
  8
0
 62
7
  6
CONTINUOUS
 10
140.1971695614
 20
121.9984166039
 11
140.9313090389
 21
119.0971256378
  0
LINE
  8
0
 62
7
  6
CONTINUOUS
 10
146.5358922364
 20
133.8927920046
 11
146.5358922364
 21
140.0894569498
  0
LINE
  8
0
 62
7
  6
CONTINUOUS
 10
147.2858922364
 20
143.1343898706
 11
147.2858922364
 21
146.6082817474
  0
LINE
  8
0
 62
7
  6
CONTINUOUS
 10
147.6358922364
 20
119.0603295299
 11
147.6358922364
 21
114.8087920046
  0
LINE
  8
0
 62
7
  6
CONTINUOUS
 10
148.3898922364
 20
126.3047920046
 11
148.3898922364
 21
122.1210702968
  0
LINE
  8
0
 62
7
  6
CONTINUOUS
 10
152.8818922364
 20
126.3047920046
 11
152.8818922364
 21
122.1210702968
  0
LINE
  8
DEFAULT_1
 62
2
  6
CENTER
 10
153.3858922364
 20
159.300660139
 11
153.3858922364
 21
133.4588920046
  0
LINE
  8
0
 62
2
  6
CONTINUOUS
 10
153.3858922364
 20
132.5087920046
 11
153.3858922364
 21
130.4087920046
  0
LINE
  8
DEFAULT_1
 62
2
  6
CENTER
 10
153.3858922364
 20
101.4837424102
 11
153.3858922364
 21
129.4586920046
  0
LINE
  8
0
 62
7
  6
CONTINUOUS
 10
153.6358922364
 20
119.0603295299
 11
153.6358922364
 21
114.8087920046
  0
LINE
  8
0
 62
7
  6
CONTINUOUS
 10
153.9858922364
 20
143.1343898706
 11
153.9858922364
 21
146.6082817474
  0
LINE
  8
0
 62
7
  6
CONTINUOUS
 10
154.7358922364
 20
133.8927920046
 11
154.7358922364
 21
140.0894569498
  0
LINE
  8
0
 62
7
  6
CONTINUOUS
 10
146.5511695614
 20
140.2121106427
 11
147.2813090389
 21
143.0975937628
  0
LINE
  8
0
 62
7
  6
CONTINUOUS
 10
148.3746149113
 20
121.9984166039
 11
147.6404754339
 21
119.0971256378
  0
LINE
  8
0
 62
7
  6
CONTINUOUS
 10
142.0206149113
 20
140.2121106427
 11
141.2904754339
 21
143.0975937628
  0
LINE
  8
0
 62
7
  6
CONTINUOUS
 10
152.8971695614
 20
121.9984166039
 11
153.6313090389
 21
119.0971256378
  0
LINE
  8
0
 62
7
  6
CONTINUOUS
 10
159.2358922364
 20
133.8927920046
 11
159.2358922364
 21
140.0894569498
  0
LINE
  8
0
 62
7
  6
CONTINUOUS
 10
159.9858922364
 20
143.1343898706
 11
159.9858922364
 21
146.6082817474
  0
LINE
  8
0
 62
7
  6
CONTINUOUS
 10
160.3358922364
 20
119.0603295299
 11
160.3358922364
 21
114.8087920046
  0
LINE
  8
0
 62
7
  6
CONTINUOUS
 10
161.0898922364
 20
126.3047920046
 11
161.0898922364
 21
122.1210702968
  0
LINE
  8
0
 62
7
  6
CONTINUOUS
 10
165.5818922364
 20
126.3047920046
 11
165.5818922364
 21
122.1210702968
  0
LINE
  8
0
 62
7
  6
CONTINUOUS
 10
166.3358922364
 20
119.0603295299
 11
166.3358922364
 21
114.8087920046
  0
LINE
  8
0
 62
7
  6
CONTINUOUS
 10
166.6858922364
 20
143.1343898706
 11
166.6858922364
 21
146.6082817474
  0
LINE
  8
0
 62
7
  6
CONTINUOUS
 10
167.4358922364
 20
133.8927920046
 11
167.4358922364
 21
140.0894569498
  0
LINE
  8
0
 62
7
  6
CONTINUOUS
 10
171.9358922364
 20
133.8927920046
 11
171.9358922364
 21
140.0894569498
  0
LINE
  8
0
 62
7
  6
CONTINUOUS
 10
159.2511695614
 20
140.2121106427
 11
159.9813090389
 21
143.0975937628
  0
LINE
  8
0
 62
7
  6
CONTINUOUS
 10
161.0746149113
 20
121.9984166039
 11
160.3404754339
 21
119.0971256378
  0
LINE
  8
0
 62
7
  6
CONTINUOUS
 10
171.9511695614
 20
140.2121106427
 11
172.6813090389
 21
143.0975937628
  0
LINE
  8
0
 62
7
  6
CONTINUOUS
 10
154.7206149113
 20
140.2121106427
 11
153.9904754339
 21
143.0975937628
  0
LINE
  8
0
 62
7
  6
CONTINUOUS
 10
165.5971695614
 20
121.9984166039
 11
166.3313090389
 21
119.0971256378
  0
LINE
  8
0
 62
7
  6
CONTINUOUS
 10
167.4206149113
 20
140.2121106427
 11
166.6904754339
 21
143.0975937628
  0
LINE
  8
0
 62
7
  6
CONTINUOUS
 10
172.6858922364
 20
143.1343898706
 11
172.6858922364
 21
146.6082817474
  0
LINE
  8
0
 62
7
  6
CONTINUOUS
 10
173.0358922364
 20
119.0603295299
 11
173.0358922364
 21
114.8087920046
  0
LINE
  8
0
 62
7
  6
CONTINUOUS
 10
173.7898922364
 20
126.3047920046
 11
173.7898922364
 21
122.1210702968
  0
LINE
  8
0
 62
7
  6
CONTINUOUS
 10
178.2818922364
 20
126.3047920046
 11
178.2818922364
 21
122.1210702968
  0
LINE
  8
0
 62
7
  6
CONTINUOUS
 10
179.0358922364
 20
119.0603295299
 11
179.0358922364
 21
114.8087920046
  0
LINE
  8
0
 62
7
  6
CONTINUOUS
 10
179.3858922364
 20
143.1343898706
 11
179.3858922364
 21
146.6082817474
  0
LINE
  8
0
 62
7
  6
CONTINUOUS
 10
180.1358922364
 20
133.8927920046
 11
180.1358922364
 21
140.0894569498
  0
LINE
  8
0
 62
7
  6
CONTINUOUS
 10
184.6358922364
 20
133.8927920046
 11
184.6358922364
 21
140.0894569498
  0
LINE
  8
0
 62
7
  6
CONTINUOUS
 10
185.3858922364
 20
143.1343898706
 11
185.3858922364
 21
146.6082817474
  0
LINE
  8
0
 62
7
  6
CONTINUOUS
 10
185.7358922364
 20
119.0603295299
 11
185.7358922364
 21
114.8087920046
  0
LINE
  8
0
 62
7
  6
CONTINUOUS
 10
186.4898922364
 20
126.3047920046
 11
186.4898922364
 21
122.1210702968
  0
LINE
  8
0
 62
7
  6
CONTINUOUS
 10
173.7746149113
 20
121.9984166039
 11
173.0404754339
 21
119.0971256378
  0
LINE
  8
0
 62
7
  6
CONTINUOUS
 10
184.6511695614
 20
140.2121106427
 11
185.3813090389
 21
143.0975937628
  0
LINE
  8
0
 62
7
  6
CONTINUOUS
 10
81.080435277
 20
131.160247133
 11
81.1996339694
 21
131.2042833732
  0
LINE
  8
0
 62
7
  6
CONTINUOUS
 10
78.9261386746
 20
130.3901999364
 11
81.080435277
 21
131.160247133
  0
LINE
  8
0
 62
7
  6
CONTINUOUS
 10
178.2971695614
 20
121.9984166039
 11
179.0313090389
 21
119.0971256378
  0
LINE
  8
0
 62
7
  6
CONTINUOUS
 10
180.1206149113
 20
140.2121106427
 11
179.3904754339
 21
143.0975937628
  0
LINE
  8
0
 62
7
  6
CONTINUOUS
 10
190.9818922364
 20
126.3047920046
 11
190.9818922364
 21
122.1210702968
  0
LINE
  8
0
 62
7
  6
CONTINUOUS
 10
191.7358922364
 20
119.0603295299
 11
191.7358922364
 21
114.8087920046
  0
LINE
  8
0
 62
7
  6
CONTINUOUS
 10
192.0858922364
 20
143.1343898706
 11
192.0858922364
 21
146.6082817474
  0
LINE
  8
0
 62
7
  6
CONTINUOUS
 10
192.8358922364
 20
133.8927920046
 11
192.8358922364
 21
140.0894569498
  0
LINE
  8
0
 62
7
  6
CONTINUOUS
 10
197.3358922364
 20
133.8927920046
 11
197.3358922364
 21
140.0894569498
  0
LINE
  8
0
 62
7
  6
CONTINUOUS
 10
198.0858922364
 20
143.1343898706
 11
198.0858922364
 21
146.6082817474
  0
LINE
  8
0
 62
7
  6
CONTINUOUS
 10
198.4358922364
 20
119.0603295299
 11
198.4358922364
 21
114.8087920046
  0
LINE
  8
0
 62
7
  6
CONTINUOUS
 10
199.1898922364
 20
126.3047920046
 11
199.1898922364
 21
122.1210702968
  0
LINE
  8
0
 62
7
  6
CONTINUOUS
 10
186.4746149113
 20
121.9984166039
 11
185.7404754339
 21
119.0971256378
  0
LINE
  8
0
 62
7
  6
CONTINUOUS
 10
197.3511695614
 20
140.2121106427
 11
198.0813090389
 21
143.0975937628
  0
LINE
  8
0
 62
7
  6
CONTINUOUS
 10
80.2773685234
 20
113.7601658401
 11
82.0903808136
 21
114.4082219294
  0
LINE
  8
0
 62
7
  6
CONTINUOUS
 10
190.9971695614
 20
121.9984166039
 11
191.7313090389
 21
119.0971256378
  0
LINE
  8
0
 62
7
  6
CONTINUOUS
 10
192.8206149113
 20
140.2121106427
 11
192.0904754339
 21
143.0975937628
  0
LINE
  8
0
 62
7
  6
CONTINUOUS
 10
203.6818922364
 20
126.3047920046
 11
203.6818922364
 21
122.1210702968
  0
LINE
  8
0
 62
7
  6
CONTINUOUS
 10
204.4358922364
 20
119.0603295299
 11
204.4358922364
 21
114.8087920046
  0
LINE
  8
0
 62
7
  6
CONTINUOUS
 10
204.7858922364
 20
143.1343898706
 11
204.7858922364
 21
146.6082817474
  0
LINE
  8
0
 62
7
  6
CONTINUOUS
 10
205.5358922364
 20
133.8927920046
 11
205.5358922364
 21
140.0894569498
  0
LINE
  8
0
 62
7
  6
CONTINUOUS
 10
210.0358922364
 20
133.8927920046
 11
210.0358922364
 21
140.0894569498
  0
LINE
  8
0
 62
7
  6
CONTINUOUS
 10
210.7858922364
 20
143.1343898706
 11
210.7858922364
 21
146.6082817474
  0
LINE
  8
0
 62
7
  6
CONTINUOUS
 10
211.1358922364
 20
119.0603295299
 11
211.1358922364
 21
114.8087920046
  0
LINE
  8
0
 62
7
  6
CONTINUOUS
 10
211.8898922364
 20
126.3047920046
 11
211.8898922364
 21
122.1210702968
  0
LINE
  8
0
 62
7
  6
CONTINUOUS
 10
199.1746149113
 20
121.9984166039
 11
198.4404754339
 21
119.0971256378
  0
LINE
  8
0
 62
7
  6
CONTINUOUS
 10
210.0511695614
 20
140.2121106427
 11
210.7813090389
 21
143.0975937628
  0
LINE
  8
0
 62
7
  6
CONTINUOUS
 10
211.8746149113
 20
121.9984166039
 11
211.1404754339
 21
119.0971256378
  0
LINE
  8
0
 62
7
  6
CONTINUOUS
 10
97.6898922364
 20
114.0587920046
 11
93.1818922364
 21
114.0587920046
  0
LINE
  8
0
 62
7
  6
CONTINUOUS
 10
108.1818922364
 20
114.0587920046
 11
112.6898922364
 21
114.0587920046
  0
LINE
  8
0
 62
7
  6
CONTINUOUS
 10
122.1818922364
 20
114.0587920046
 11
126.6938922364
 21
114.0587920046
  0
LINE
  8
0
 62
7
  6
CONTINUOUS
 10
135.6858922364
 20
114.0587920046
 11
140.1858922364
 21
114.0587920046
  0
LINE
  8
0
 62
7
  6
CONTINUOUS
 10
148.3858922364
 20
114.0587920046
 11
152.8858922364
 21
114.0587920046
  0
LINE
  8
0
 62
7
  6
CONTINUOUS
 10
161.0858922364
 20
114.0587920046
 11
165.5858922364
 21
114.0587920046
  0
LINE
  8
0
 62
7
  6
CONTINUOUS
 10
173.7858922364
 20
114.0587920046
 11
178.2858922364
 21
114.0587920046
  0
LINE
  8
0
 62
7
  6
CONTINUOUS
 10
186.4858922364
 20
114.0587920046
 11
190.9858922364
 21
114.0587920046
  0
LINE
  8
0
 62
7
  6
CONTINUOUS
 10
199.1858922364
 20
114.0587920046
 11
203.6858922364
 21
114.0587920046
  0
LINE
  8
0
 62
7
  6
CONTINUOUS
 10
211.8858922364
 20
114.0587920046
 11
216.3858922364
 21
114.0587920046
  0
LINE
  8
0
 62
7
  6
CONTINUOUS
 10
224.5858922364
 20
114.0587920046
 11
229.0858922364
 21
114.0587920046
  0
LINE
  8
AXES
 62
2
  6
CENTER
 10
76.9358922364
 20
118.4087920046
 11
231.8358922364
 21
118.4087920046
  0
LINE
  8
0
 62
7
  6
CONTINUOUS
 10
203.6971695614
 20
121.9984166039
 11
204.4313090389
 21
119.0971256378
  0
LINE
  8
0
 62
7
  6
CONTINUOUS
 10
205.5206149113
 20
140.2121106427
 11
204.7904754339
 21
143.0975937628
  0
LINE
  8
0
 62
7
  6
CONTINUOUS
 10
216.3971695614
 20
121.9984166039
 11
217.1313090389
 21
119.0971256378
  0
LINE
  8
0
 62
7
  6
CONTINUOUS
 10
216.3818922364
 20
126.3047920046
 11
216.3818922364
 21
122.1210702968
  0
LINE
  8
0
 62
7
  6
CONTINUOUS
 10
217.1358922364
 20
119.0603295299
 11
217.1358922364
 21
114.8087920046
  0
LINE
  8
0
 62
7
  6
CONTINUOUS
 10
217.4858922364
 20
143.1343898706
 11
217.4858922364
 21
146.6082817474
  0
LINE
  8
0
 62
7
  6
CONTINUOUS
 10
218.2358922364
 20
133.8927920046
 11
218.2358922364
 21
140.0894569498
  0
LINE
  8
0
 62
7
  6
CONTINUOUS
 10
222.7358922364
 20
133.8927920046
 11
222.7358922364
 21
140.0894569498
  0
LINE
  8
0
 62
7
  6
CONTINUOUS
 10
223.4858922364
 20
143.1343898706
 11
223.4858922364
 21
146.6082817474
  0
LINE
  8
0
 62
7
  6
CONTINUOUS
 10
223.8358922364
 20
119.0603295299
 11
223.8358922364
 21
114.8087920046
  0
LINE
  8
0
 62
7
  6
CONTINUOUS
 10
224.5898922364
 20
126.3047920046
 11
224.5898922364
 21
122.1210702968
  0
LINE
  8
0
 62
7
  6
CONTINUOUS
 10
222.7511695614
 20
140.2121106427
 11
223.4813090389
 21
143.0975937628
  0
LINE
  8
0
 62
7
  6
CONTINUOUS
 10
224.5746149113
 20
121.9984166039
 11
223.8404754339
 21
119.0971256378
  0
LINE
  8
0
 62
7
  6
CONTINUOUS
 10
131.8398922364
 20
130.6087920046
 11
130.5398922364
 21
130.6087920046
  0
LINE
  8
0
 62
7
  6
CONTINUOUS
 10
118.3358922364
 20
130.6087920046
 11
116.5358922364
 21
130.6087920046
  0
LINE
  8
0
 62
7
  6
CONTINUOUS
 10
103.6858922364
 20
130.7587920046
 11
102.1858922364
 21
130.7587920046
  0
LINE
  8
0
 62
7
  6
CONTINUOUS
 10
88.6858922364
 20
130.8587920046
 11
86.9358922364
 21
130.8587920046
  0
LINE
  8
0
 62
7
  6
CONTINUOUS
 10
97.6858922364
 20
131.4087920046
 11
93.5608922364
 21
131.4087920046
  0
LINE
  8
DEFAULT_1
 62
2
  6
CENTER
 10
238.9526099652
 20
131.4587920046
 11
155.3859922364
 21
131.4587920046
  0
LINE
  8
0
 62
2
  6
CONTINUOUS
 10
154.4358922364
 20
131.4587920046
 11
152.3358922364
 21
131.4587920046
  0
LINE
  8
DEFAULT_1
 62
2
  6
CENTER
 10
68.2350201622
 20
131.4587920046
 11
151.3857922364
 21
131.4587920046
  0
LINE
  8
0
 62
7
  6
CONTINUOUS
 10
107.8858922364
 20
131.5587920046
 11
112.4858922364
 21
131.5587920046
  0
LINE
  8
0
 62
7
  6
CONTINUOUS
 10
122.3858922364
 20
131.5587920046
 11
126.2398922364
 21
131.5587920046
  0
LINE
  8
0
 62
7
  6
CONTINUOUS
 10
228.0818922364
 20
131.8927920046
 11
224.7358922364
 21
131.8927920046
  0
LINE
  8
0
 62
7
  6
CONTINUOUS
 10
216.2358922364
 20
131.8927920046
 11
212.0358922364
 21
131.8927920046
  0
LINE
  8
0
 62
7
  6
CONTINUOUS
 10
203.5358922364
 20
131.8927920046
 11
199.3358922364
 21
131.8927920046
  0
LINE
  8
0
 62
7
  6
CONTINUOUS
 10
190.8358922364
 20
131.8927920046
 11
186.6358922364
 21
131.8927920046
  0
LINE
  8
0
 62
7
  6
CONTINUOUS
 10
178.1358922364
 20
131.8927920046
 11
173.9358922364
 21
131.8927920046
  0
LINE
  8
0
 62
7
  6
CONTINUOUS
 10
165.4358922364
 20
131.8927920046
 11
161.2358922364
 21
131.8927920046
  0
LINE
  8
0
 62
7
  6
CONTINUOUS
 10
152.7358922364
 20
131.8927920046
 11
148.5358922364
 21
131.8927920046
  0
LINE
  8
0
 62
7
  6
CONTINUOUS
 10
140.0358922364
 20
131.8927920046
 11
135.4398922364
 21
131.8927920046
  0
LINE
  8
0
 62
7
  6
CONTINUOUS
 10
218.2206149113
 20
140.2121106427
 11
217.4904754339
 21
143.0975937628
  0
LINE
  8
0
 62
7
  6
CONTINUOUS
 10
229.0971695614
 20
121.9984166039
 11
229.8313090389
 21
119.0971256378
  0
LINE
  8
0
 62
7
  6
CONTINUOUS
 10
229.0818922364
 20
130.8927920046
 11
229.0818922364
 21
122.1210702968
  0
LINE
  8
0
 62
7
  6
CONTINUOUS
 10
229.8358922364
 20
119.0603295299
 11
229.8358922364
 21
114.8087920046
  0
LINE
  8
DEFAULT_1
 62
2
  6
CENTER
 10
82.3109065995
 20
143.8087920046
 11
225.4858922364
 21
143.8087920046
  0
LINE
  8
0
 62
7
  6
CONTINUOUS
 10
131.6898922364
 20
148.1587920046
 11
130.6898922364
 21
148.1587920046
  0
LINE
  8
0
 62
7
  6
CONTINUOUS
 10
117.9358922364
 20
148.1587920046
 11
116.9358922364
 21
148.1587920046
  0
LINE
  8
0
 62
7
  6
CONTINUOUS
 10
103.4358922364
 20
148.1587920046
 11
102.4358922364
 21
148.1587920046
  0
LINE
  8
0
 62
7
  6
CONTINUOUS
 10
87.8108922364
 20
148.1587920046
 11
86.8108922364
 21
148.1587920046
  0
POLYLINE
  8
0
 62
7
  6
CONTINUOUS
 66
1
 70
0
  0
VERTEX
  8
0
 62
7
  6
CONTINUOUS
 10
76.9358922364
 20
230.2325141069
  0
VERTEX
  8
0
 62
7
  6
CONTINUOUS
 10
76.9385882345
 20
230.0401712545
  0
VERTEX
  8
0
 62
7
  6
CONTINUOUS
 10
76.9542241055
 20
229.6220288036
  0
VERTEX
  8
0
 62
7
  6
CONTINUOUS
 10
76.963293915
 20
229.4004700043
  0
VERTEX
  8
0
 62
7
  6
CONTINUOUS
 10
76.9759956357
 20
228.9451746233
  0
VERTEX
  8
0
 62
7
  6
CONTINUOUS
 10
76.9777388099
 20
228.7166720255
  0
SEQEND
  0
LINE
  8
0
 62
7
  6
CONTINUOUS
 10
76.9358922364
 20
233.5975529088
 11
76.9358922364
 21
222.8666720255
  0
POLYLINE
  8
0
 62
7
  6
CONTINUOUS
 66
1
 70
0
  0
VERTEX
  8
0
 62
7
  6
CONTINUOUS
 10
76.9777388099
 20
228.7166720255
  0
VERTEX
  8
0
 62
7
  6
CONTINUOUS
 10
76.9759946126
 20
228.4881017576
  0
VERTEX
  8
0
 62
7
  6
CONTINUOUS
 10
76.9632904597
 20
228.0327838922
  0
VERTEX
  8
0
 62
7
  6
CONTINUOUS
 10
76.9542205124
 20
227.8112306181
  0
VERTEX
  8
0
 62
7
  6
CONTINUOUS
 10
76.9385880548
 20
227.3931657572
  0
VERTEX
  8
0
 62
7
  6
CONTINUOUS
 10
76.9358922364
 20
227.2008299441
  0
SEQEND
  0
LINE
  8
0
 62
7
  6
CONTINUOUS
 10
82.1898922364
 20
222.8666720255
 11
82.1898922364
 21
234.5666720255
  0
LINE
  8
0
 62
7
  6
CONTINUOUS
 10
92.4318922364
 20
233.9666720255
 11
92.4318922364
 21
223.4666720255
  0
LINE
  8
0
 62
7
  6
CONTINUOUS
 10
98.4398922364
 20
223.4666720255
 11
98.4398922364
 21
233.9666720255
  0
LINE
  8
0
 62
7
  6
CONTINUOUS
 10
98.9358922364
 20
235.2166722176
 11
98.9358922364
 21
234.9166720255
  0
LINE
  8
0
 62
7
  6
CONTINUOUS
 10
99.1149040763
 20
245.27112238
 11
98.9358922398
 21
235.2166722177
  0
LINE
  8
0
 62
7
  6
CONTINUOUS
 10
113.4398922364
 20
235.2166720255
 11
113.2608803965
 21
245.27112238
  0
LINE
  8
0
 62
7
  6
CONTINUOUS
 10
107.4318922364
 20
223.4666720255
 11
107.4318922364
 21
235.2166720255
  0
LINE
  8
0
 62
7
  6
CONTINUOUS
 10
113.4398922364
 20
223.4666720255
 11
113.4398922364
 21
235.2166720255
  0
LINE
  8
0
 62
7
  6
CONTINUOUS
 10
107.4318922364
 20
235.2166720255
 11
107.6109040763
 21
245.27112238
  0
LINE
  8
0
 62
7
  6
CONTINUOUS
 10
127.4438922364
 20
235.2166720255
 11
127.2648803965
 21
245.27112238
  0
LINE
  8
0
 62
7
  6
CONTINUOUS
 10
121.4318922364
 20
223.4666720255
 11
121.4318922364
 21
235.2166720255
  0
LINE
  8
0
 62
7
  6
CONTINUOUS
 10
127.4438922364
 20
223.4666720255
 11
127.4438922364
 21
235.2166720255
  0
LINE
  8
0
 62
7
  6
CONTINUOUS
 10
121.4318922364
 20
235.2166720255
 11
121.6109040763
 21
245.27112238
  0
LINE
  8
0
 62
7
  6
CONTINUOUS
 10
140.9358922364
 20
235.2166720255
 11
140.7568803965
 21
245.27112238
  0
LINE
  8
0
 62
7
  6
CONTINUOUS
 10
134.9358922364
 20
223.4666720255
 11
134.9358922364
 21
235.2166720255
  0
LINE
  8
0
 62
7
  6
CONTINUOUS
 10
140.9358922364
 20
223.4666720255
 11
140.9358922364
 21
235.2166720255
  0
LINE
  8
0
 62
7
  6
CONTINUOUS
 10
134.9358922364
 20
235.2166720255
 11
135.1149040763
 21
245.27112238
  0
LINE
  8
0
 62
7
  6
CONTINUOUS
 10
153.6358922364
 20
235.2166720255
 11
153.4568803965
 21
245.27112238
  0
LINE
  8
0
 62
7
  6
CONTINUOUS
 10
147.6358922364
 20
223.4666720255
 11
147.6358922364
 21
235.2166720255
  0
LINE
  8
DEFAULT_1
 62
2
  6
CENTER
 10
153.3858922364
 20
220.2249581637
 11
153.3858922364
 21
247.5166720255
  0
LINE
  8
0
 62
7
  6
CONTINUOUS
 10
153.6358922364
 20
223.4666720255
 11
153.6358922364
 21
235.2166720255
  0
LINE
  8
0
 62
7
  6
CONTINUOUS
 10
147.6358922364
 20
235.2166720255
 11
147.8149040763
 21
245.27112238
  0
LINE
  8
0
 62
7
  6
CONTINUOUS
 10
166.3358922364
 20
235.2166720255
 11
166.1568803965
 21
245.27112238
  0
LINE
  8
0
 62
7
  6
CONTINUOUS
 10
160.3358922364
 20
223.4666720255
 11
160.3358922364
 21
235.2166720255
  0
LINE
  8
0
 62
7
  6
CONTINUOUS
 10
166.3358922364
 20
223.4666720255
 11
166.3358922364
 21
235.2166720255
  0
LINE
  8
0
 62
7
  6
CONTINUOUS
 10
173.0358922364
 20
223.4666720255
 11
173.0358922364
 21
235.2166720255
  0
LINE
  8
0
 62
7
  6
CONTINUOUS
 10
160.3358922364
 20
235.2166720255
 11
160.5149040763
 21
245.27112238
  0
LINE
  8
0
 62
7
  6
CONTINUOUS
 10
173.0358922364
 20
235.2166720255
 11
173.2149040763
 21
245.27112238
  0
LINE
  8
0
 62
7
  6
CONTINUOUS
 10
179.0358922364
 20
235.2166720255
 11
178.8568803965
 21
245.27112238
  0
LINE
  8
0
 62
7
  6
CONTINUOUS
 10
179.0358922364
 20
223.4666720255
 11
179.0358922364
 21
235.2166720255
  0
LINE
  8
0
 62
7
  6
CONTINUOUS
 10
185.7358922364
 20
223.4666720255
 11
185.7358922364
 21
235.2166720255
  0
LINE
  8
0
 62
7
  6
CONTINUOUS
 10
185.7358922364
 20
235.2166720255
 11
185.9149040763
 21
245.27112238
  0
LINE
  8
0
 62
7
  6
CONTINUOUS
 10
191.7358922364
 20
235.2166720255
 11
191.5568803965
 21
245.27112238
  0
LINE
  8
0
 62
7
  6
CONTINUOUS
 10
191.7358922364
 20
223.4666720255
 11
191.7358922364
 21
235.2166720255
  0
LINE
  8
0
 62
7
  6
CONTINUOUS
 10
198.4358922364
 20
223.4666720255
 11
198.4358922364
 21
235.2166720255
  0
LINE
  8
0
 62
7
  6
CONTINUOUS
 10
198.4358922364
 20
235.2166720255
 11
198.6149040763
 21
245.27112238
  0
LINE
  8
0
 62
7
  6
CONTINUOUS
 10
204.4358922364
 20
235.2166720255
 11
204.2568803965
 21
245.27112238
  0
LINE
  8
0
 62
7
  6
CONTINUOUS
 10
204.4358922364
 20
223.4666720255
 11
204.4358922364
 21
235.2166720255
  0
LINE
  8
0
 62
7
  6
CONTINUOUS
 10
211.1358922364
 20
223.4666720255
 11
211.1358922364
 21
235.2166720255
  0
LINE
  8
0
 62
7
  6
CONTINUOUS
 10
211.1358922364
 20
235.2166720255
 11
211.3149040763
 21
245.27112238
  0
LINE
  8
0
 62
7
  6
CONTINUOUS
 10
217.1358922364
 20
235.2166720255
 11
216.9568803965
 21
245.27112238
  0
LINE
  8
0
 62
7
  6
CONTINUOUS
 10
217.1358922364
 20
223.4666720255
 11
217.1358922364
 21
235.2166720255
  0
LINE
  8
0
 62
7
  6
CONTINUOUS
 10
223.8358922364
 20
223.4666720255
 11
223.8358922364
 21
235.2166720255
  0
LINE
  8
0
 62
7
  6
CONTINUOUS
 10
223.8358922364
 20
235.2166720255
 11
224.0149040763
 21
245.27112238
  0
LINE
  8
0
 62
7
  6
CONTINUOUS
 10
77.0858922364
 20
222.7166720255
 11
229.0858922364
 21
222.7166720255
  0
LINE
  8
AXES
 62
2
  6
CENTER
 10
76.9358922364
 20
228.7166720255
 11
231.8358922364
 21
228.7166720255
  0
LINE
  8
0
 62
7
  6
CONTINUOUS
 10
81.253104438
 20
234.7166720255
 11
99.432207485
 21
234.7166720255
  0
LINE
  8
0
 62
7
  6
CONTINUOUS
 10
107.4708274148
 20
235.2166713067
 11
107.4318922364
 21
235.2166720255
  0
LINE
  8
0
 62
7
  6
CONTINUOUS
 10
223.8748274148
 20
235.2166713067
 11
217.0969570833
 21
235.2166722541
  0
LINE
  8
0
 62
7
  6
CONTINUOUS
 10
211.1748274148
 20
235.2166713067
 11
204.3969570829
 21
235.216672242
  0
LINE
  8
0
 62
7
  6
CONTINUOUS
 10
198.4748274115
 20
235.2166714291
 11
191.6969570829
 21
235.216672242
  0
LINE
  8
0
 62
7
  6
CONTINUOUS
 10
185.7748274159
 20
235.2166712633
 11
178.9969570853
 21
235.21667233
  0
LINE
  8
0
 62
7
  6
CONTINUOUS
 10
173.0748274148
 20
235.2166713042
 11
166.2969570856
 21
235.2166723406
  0
LINE
  8
0
 62
7
  6
CONTINUOUS
 10
160.3748274148
 20
235.2166713042
 11
153.5969570856
 21
235.2166723406
  0
LINE
  8
0
 62
7
  6
CONTINUOUS
 10
147.6748274159
 20
235.2166712633
 11
140.8969570853
 21
235.21667233
  0
LINE
  8
0
 62
7
  6
CONTINUOUS
 10
113.4009570829
 20
235.216672242
 11
121.4708274115
 21
235.2166714291
  0
LINE
  8
0
 62
7
  6
CONTINUOUS
 10
127.4049570829
 20
235.216672242
 11
134.9748274159
 21
235.2166712633
  0
LINE
  8
0
 62
7
  6
CONTINUOUS
 10
229.7969570833
 20
235.2166722541
 11
229.8358922364
 21
235.2166720255
  0
LINE
  8
0
 62
7
  6
CONTINUOUS
 10
100.1057035571
 20
235.2166714539
 11
107.4318922364
 21
235.2166720255
  0
POLYLINE
  8
0
 62
7
  6
CONTINUOUS
 66
1
 70
0
  0
VERTEX
  8
0
 62
7
  6
CONTINUOUS
 10
99.2754116377
 20
235.2232487942
  0
VERTEX
  8
0
 62
7
  6
CONTINUOUS
 10
99.5755485715
 20
235.2224790904
  0
VERTEX
  8
0
 62
7
  6
CONTINUOUS
 10
99.7924299431
 20
235.2207575207
  0
SEQEND
  0
LINE
  8
0
 62
7
  6
CONTINUOUS
 10
99.7924299431
 20
235.2207575207
 11
100.1057035571
 21
235.2166720255
  0
LINE
  8
0
 62
7
  6
CONTINUOUS
 10
229.8358922364
 20
235.2166720255
 11
229.6568803965
 21
245.27112238
  0
LINE
  8
0
 62
7
  6
CONTINUOUS
 10
229.8358922364
 20
223.4666720255
 11
229.8358922364
 21
235.2166720255
  0
LINE
  8
0
 62
7
  6
CONTINUOUS
 10
99.3648644616
 20
245.5166720255
 11
229.406920011
 21
245.5166720255
  0
POLYLINE
  8
0
 62
7
  6
CONTINUOUS
 66
1
 70
0
  0
VERTEX
  8
0
 62
7
  6
CONTINUOUS
 10
98.9358922364
 20
235.2166720255
  0
VERTEX
  8
0
 62
7
  6
CONTINUOUS
 10
98.943321646
 20
235.2182009871
  0
VERTEX
  8
0
 62
7
  6
CONTINUOUS
 10
99.0021371975
 20
235.2207585977
  0
VERTEX
  8
0
 62
7
  6
CONTINUOUS
 10
99.1150144011
 20
235.2224795883
  0
VERTEX
  8
0
 62
7
  6
CONTINUOUS
 10
99.2754116377
 20
235.2232487942
  0
SEQEND
  0
LINE
  8
0
 62
7
  6
CONTINUOUS
 10
77.0519152122
 20
233.7436541129
 11
81.2191274138
 21
234.7127732296
  0
LINE
  8
0
 62
7
  6
CONTINUOUS
 10
327.374360659
 20
114.7902477925
 11
317.5803548143
 21
114.2769656959
  0
POLYLINE
  8
0
 62
7
  6
CONTINUOUS
 66
1
 70
0
  0
VERTEX
  8
0
 62
7
  6
CONTINUOUS
 10
315.2974608408
 20
113.6142920115
  0
VERTEX
  8
0
 62
7
  6
CONTINUOUS
 10
315.6126950708
 20
113.624499652
  0
VERTEX
  8
0
 62
7
  6
CONTINUOUS
 10
316.2803687749
 20
113.7187235969
  0
VERTEX
  8
0
 62
7
  6
CONTINUOUS
 10
316.8603053719
 20
113.8932425837
  0
VERTEX
  8
0
 62
7
  6
CONTINUOUS
 10
317.3642829945
 20
114.1322212465
  0
VERTEX
  8
0
 62
7
  6
CONTINUOUS
 10
317.7991702016
 20
114.4235480349
  0
VERTEX
  8
0
 62
7
  6
CONTINUOUS
 10
318.1697096173
 20
114.7567137068
  0
VERTEX
  8
0
 62
7
  6
CONTINUOUS
 10
318.4620264222
 20
115.098020103
  0
SEQEND
  0
LINE
  8
0
 62
7
  6
CONTINUOUS
 10
315.2985523967
 20
113.6142936849
 11
315.297481706
 21
113.6142936472
  0
LINE
  8
0
 62
7
  6
CONTINUOUS
 10
315.2965708139
 20
113.6142936315
 11
311.5365961108
 21
113.6142936382
  0
LINE
  8
0
 62
7
  6
CONTINUOUS
 10
307.5799440822
 20
145.2876384988
 11
307.5957758687
 21
145.3401259256
  0
POLYLINE
  8
0
 62
7
  6
CONTINUOUS
 66
1
 70
0
  0
VERTEX
  8
0
 62
7
  6
CONTINUOUS
 10
307.8360516979
 20
116.0587119906
  0
VERTEX
  8
0
 62
7
  6
CONTINUOUS
 10
307.9893535965
 20
115.7168908879
  0
VERTEX
  8
0
 62
7
  6
CONTINUOUS
 10
308.1968855921
 20
115.3508079486
  0
VERTEX
  8
0
 62
7
  6
CONTINUOUS
 10
308.4552833347
 20
114.9928160527
  0
VERTEX
  8
0
 62
7
  6
CONTINUOUS
 10
308.7722943439
 20
114.6504448298
  0
VERTEX
  8
0
 62
7
  6
CONTINUOUS
 10
309.1523984365
 20
114.3360589857
  0
VERTEX
  8
0
 62
7
  6
CONTINUOUS
 10
309.5953997713
 20
114.0641773302
  0
VERTEX
  8
0
 62
7
  6
CONTINUOUS
 10
310.0990087433
 20
113.8475044038
  0
VERTEX
  8
0
 62
7
  6
CONTINUOUS
 10
310.6644574244
 20
113.6958845703
  0
VERTEX
  8
0
 62
7
  6
CONTINUOUS
 10
311.3009557786
 20
113.6199943773
  0
VERTEX
  8
0
 62
7
  6
CONTINUOUS
 10
311.5373977569
 20
113.6142926158
  0
SEQEND
  0
POLYLINE
  8
0
 62
7
  6
CONTINUOUS
 66
1
 70
0
  0
VERTEX
  8
0
 62
7
  6
CONTINUOUS
 10
307.4173529241
 20
118.2477932417
  0
VERTEX
  8
0
 62
7
  6
CONTINUOUS
 10
307.4636980024
 20
117.5062832609
  0
VERTEX
  8
0
 62
7
  6
CONTINUOUS
 10
307.6084354235
 20
116.7525054006
  0
VERTEX
  8
0
 62
7
  6
CONTINUOUS
 10
307.8360512815
 20
116.0587118245
  0
SEQEND
  0
LINE
  8
0
 62
7
  6
CONTINUOUS
 10
307.4173527903
 20
118.0587920046
 11
307.4173527903
 21
144.1587920046
  0
LINE
  8
AXES
 62
2
  6
CENTER
 10
318.6673527903
 20
118.4087920046
 11
317.5173527903
 21
118.4087920046
  0
LINE
  8
AXES
 62
2
  6
CONTINUOUS
 10
314.4673527903
 20
118.4087920046
 11
312.3673527903
 21
118.4087920046
  0
LINE
  8
AXES
 62
2
  6
CENTER
 10
308.1673527903
 20
118.4087920046
 11
309.3173527903
 21
118.4087920046
  0
LINE
  8
AXES
 62
7
  6
CONTINUOUS
 10
311.3173527903
 20
135.7587920046
 11
311.3173527903
 21
143.8087920046
  0
LINE
  8
DEFAULT_1
 62
2
  6
CENTER
 10
313.4173527903
 20
149.0587920046
 11
313.4173527903
 21
145.8088920046
  0
LINE
  8
0
 62
2
  6
CONTINUOUS
 10
313.4173527903
 20
144.8587920046
 11
313.4173527903
 21
142.7587920046
  0
LINE
  8
AXES
 62
2
  6
CENTER
 10
313.4173527903
 20
123.6587920046
 11
313.4173527903
 21
122.5087920046
  0
LINE
  8
AXES
 62
2
  6
CONTINUOUS
 10
313.4173527903
 20
119.4587920046
 11
313.4173527903
 21
117.3587920046
  0
LINE
  8
AXES
 62
2
  6
CENTER
 10
313.4173527903
 20
113.1587920046
 11
313.4173527903
 21
114.3087920046
  0
LINE
  8
CURVE
 62
40
  6
CONTINUOUS
 10
313.4173527903
 20
135.9587920046
 11
313.4173527903
 21
138.9587920046
  0
LINE
  8
DEFAULT_1
 62
2
  6
CENTER
 10
313.4173527903
 20
138.5587920046
 11
313.4173527903
 21
141.8086920046
  0
LINE
  8
AXES
 62
7
  6
CONTINUOUS
 10
315.5173527903
 20
135.7587920046
 11
315.5173527903
 21
143.8087920046
  0
POLYLINE
  8
0
 62
7
  6
CONTINUOUS
 66
1
 70
0
  0
VERTEX
  8
0
 62
7
  6
CONTINUOUS
 10
319.9219726307
 20
130.1585260634
  0
VERTEX
  8
0
 62
7
  6
CONTINUOUS
 10
323.163572186
 20
130.2527605078
  0
VERTEX
  8
0
 62
7
  6
CONTINUOUS
 10
326.5374008599
 20
130.3489103457
  0
VERTEX
  8
0
 62
7
  6
CONTINUOUS
 10
329.9742688961
 20
130.4449503502
  0
SEQEND
  0
LINE
  8
0
 62
7
  6
CONTINUOUS
 10
319.5440570379
 20
130.158496149
 11
319.5454004495
 21
130.1585274454
  0
LINE
  8
0
 62
7
  6
CONTINUOUS
 10
319.921943831
 20
130.1585260397
 11
319.5446770428
 21
130.1585260397
  0
LINE
  8
DEFAULT_1
 62
2
  6
CENTER
 10
304.9256389285
 20
131.4587920046
 11
332.2173527903
 21
131.4587920046
  0
POLYLINE
  8
0
 62
7
  6
CONTINUOUS
 66
1
 70
0
  0
VERTEX
  8
0
 62
7
  6
CONTINUOUS
 10
319.4173528118
 20
130.0057606311
  0
VERTEX
  8
0
 62
7
  6
CONTINUOUS
 10
319.4175314487
 20
129.9984414761
  0
VERTEX
  8
0
 62
7
  6
CONTINUOUS
 10
319.4239828959
 20
130.0505983179
  0
VERTEX
  8
0
 62
7
  6
CONTINUOUS
 10
319.4492959114
 20
130.1009621118
  0
VERTEX
  8
0
 62
7
  6
CONTINUOUS
 10
319.486478884
 20
130.1367344028
  0
VERTEX
  8
0
 62
7
  6
CONTINUOUS
 10
319.5208158889
 20
130.153823503
  0
VERTEX
  8
0
 62
7
  6
CONTINUOUS
 10
319.541506748
 20
130.1583233421
  0
VERTEX
  8
0
 62
7
  6
CONTINUOUS
 10
319.5440570379
 20
130.158496149
  0
SEQEND
  0
LINE
  8
0
 62
7
  6
CONTINUOUS
 10
319.9173527903
 20
130.9585260397
 11
319.9214393625
 21
130.6397729333
  0
POLYLINE
  8
0
 62
7
  6
CONTINUOUS
 66
1
 70
0
  0
VERTEX
  8
0
 62
7
  6
CONTINUOUS
 10
319.9214393625
 20
130.6397729333
  0
VERTEX
  8
0
 62
7
  6
CONTINUOUS
 10
319.923929559
 20
130.3043413424
  0
VERTEX
  8
0
 62
7
  6
CONTINUOUS
 10
319.9239294676
 20
130.2477923291
  0
VERTEX
  8
0
 62
7
  6
CONTINUOUS
 10
319.9231598552
 20
130.1747595508
  0
VERTEX
  8
0
 62
7
  6
CONTINUOUS
 10
319.9219728699
 20
130.1585260669
  0
SEQEND
  0
LINE
  8
0
 62
7
  6
CONTINUOUS
 10
319.4173527903
 20
118.0587920046
 11
319.4173527903
 21
144.1587920046
  0
LINE
  8
0
 62
7
  6
CONTINUOUS
 10
319.9173528133
 20
131.4954891332
 11
319.9173529824
 21
130.9583169993
  0
LINE
  8
0
 62
7
  6
CONTINUOUS
 10
319.9173527484
 20
131.7603088897
 11
319.9173523851
 21
147.7977399258
  0
LINE
  8
0
 62
7
  6
CONTINUOUS
 10
319.9173520715
 20
114.5702824252
 11
319.9173527903
 21
130.1559063217
  0
POLYLINE
  8
0
 62
7
  6
CONTINUOUS
 66
1
 70
0
  0
VERTEX
  8
0
 62
7
  6
CONTINUOUS
 10
318.4850083339
 20
115.1419641673
  0
VERTEX
  8
0
 62
7
  6
CONTINUOUS
 10
318.6080712394
 20
115.5274787102
  0
VERTEX
  8
0
 62
7
  6
CONTINUOUS
 10
318.7292778129
 20
115.9269977252
  0
VERTEX
  8
0
 62
7
  6
CONTINUOUS
 10
318.842109341
 20
116.3209818397
  0
VERTEX
  8
0
 62
7
  6
CONTINUOUS
 10
318.9460492915
 20
116.7081510633
  0
VERTEX
  8
0
 62
7
  6
CONTINUOUS
 10
319.0405685174
 20
117.0870311151
  0
VERTEX
  8
0
 62
7
  6
CONTINUOUS
 10
319.1252032786
 20
117.4562051328
  0
VERTEX
  8
0
 62
7
  6
CONTINUOUS
 10
319.1997807683
 20
117.8154567714
  0
VERTEX
  8
0
 62
7
  6
CONTINUOUS
 10
319.2641800054
 20
118.1651697802
  0
VERTEX
  8
0
 62
7
  6
CONTINUOUS
 10
319.3183952506
 20
118.5074468875
  0
VERTEX
  8
0
 62
7
  6
CONTINUOUS
 10
319.3619588419
 20
118.8436693076
  0
VERTEX
  8
0
 62
7
  6
CONTINUOUS
 10
319.3937386614
 20
119.171988792
  0
VERTEX
  8
0
 62
7
  6
CONTINUOUS
 10
319.4123451793
 20
119.4856147472
  0
VERTEX
  8
0
 62
7
  6
CONTINUOUS
 10
319.4173525807
 20
119.7372961273
  0
SEQEND
  0
POLYLINE
  8
0
 62
7
  6
CONTINUOUS
 66
1
 70
0
  0
VERTEX
  8
0
 62
7
  6
CONTINUOUS
 10
318.4850084218
 20
115.1419655051
  0
VERTEX
  8
0
 62
7
  6
CONTINUOUS
 10
318.47727093
 20
115.122848025
  0
VERTEX
  8
0
 62
7
  6
CONTINUOUS
 10
318.4669471643
 20
115.1049172986
  0
VERTEX
  8
0
 62
7
  6
CONTINUOUS
 10
318.4620263476
 20
115.0980197618
  0
SEQEND
  0
LINE
  8
0
 62
7
  6
CONTINUOUS
 10
330.2173527903
 20
144.4314476125
 11
330.2173527903
 21
117.7861363967
  0
LINE
  8
DEFAULT_1
 62
2
  6
CENTER
 10
318.6673527903
 20
143.8087920046
 11
315.4174527903
 21
143.8087920046
  0
LINE
  8
0
 62
2
  6
CONTINUOUS
 10
314.4673527903
 20
143.8087920046
 11
312.3673527903
 21
143.8087920046
  0
LINE
  8
DEFAULT_1
 62
2
  6
CENTER
 10
308.1673527903
 20
143.8087920046
 11
311.4172527903
 21
143.8087920046
  0
LINE
  8
0
 62
7
  6
CONTINUOUS
 10
315.4173527903
 20
148.1587920046
 11
311.4173527903
 21
148.1587920046
  0
LINE
  8
0
 62
7
  6
CONTINUOUS
 10
316.545631137
 20
147.9948458835
 11
327.374360659
 21
147.4273362168
  0
ARC
  8
0
 62
7
  6
CONTINUOUS
 10
79.4358922364
 20
116.1142936315
 40
2.5
 50
179.9994909368
 51
289.6692853863
  0
ARC
  8
0
 62
7
  6
CONTINUOUS
 10
93.1818922364
 20
114.8087920046
 40
0.75
 50
180.0
 51
270.0
  0
ARC
  8
0
 62
7
  6
CONTINUOUS
 10
82.0398922364
 20
114.5494697867
 40
0.15
 50
289.6692609838
 51
359.9999275007
  0
ARC
  8
0
 62
7
  6
CONTINUOUS
 10
92.5818925314
 20
119.0601110261
 40
0.15
 50
165.8014698847
 51
180.0004452882
  0
ARC
  8
0
 62
7
  6
CONTINUOUS
 10
112.6898922364
 20
114.8087920046
 40
0.75
 50
270.0
 51
360.0
  0
ARC
  8
0
 62
7
  6
CONTINUOUS
 10
108.1818922364
 20
114.8087920046
 40
0.75
 50
180.0
 51
270.0
  0
ARC
  8
0
 62
7
  6
CONTINUOUS
 10
97.6898922364
 20
114.8087920046
 40
0.75
 50
270.0
 51
360.0
  0
ARC
  8
0
 62
7
  6
CONTINUOUS
 10
107.5818922364
 20
119.0603295299
 40
0.15
 50
165.8
 51
180.0
  0
ARC
  8
0
 62
7
  6
CONTINUOUS
 10
113.2898922364
 20
119.0603295299
 40
0.15
 50
0.0
 51
14.2
  0
ARC
  8
0
 62
7
  6
CONTINUOUS
 10
98.2898920183
 20
119.0603303916
 40
0.15
 50
359.9996708549
 51
14.199660478
  0
ARC
  8
0
 62
7
  6
CONTINUOUS
 10
92.6858922364
 20
122.121065819
 40
0.5
 50
345.8010105549
 51
360.0
  0
ARC
  8
0
 62
7
  6
CONTINUOUS
 10
79.9358922364
 20
127.5652401588
 40
3.0
 50
109.6692853863
 51
180.0
  0
ARC
  8
0
 62
7
  6
CONTINUOUS
 10
82.3398922364
 20
128.0972740659
 40
0.15
 50
149.2118097615
 51
180.0
  0
ARC
  8
0
 62
7
  6
CONTINUOUS
 10
86.9358922364
 20
125.3587920046
 40
5.5
 50
90.0
 51
149.2118097615
  0
ARC
  8
0
 62
7
  6
CONTINUOUS
 10
88.6858922364
 20
126.3587920046
 40
4.5
 50
0.0
 51
90.0
  0
ARC
  8
0
 62
7
  6
CONTINUOUS
 10
107.6858922364
 20
122.1210702968
 40
0.5
 50
345.8
 51
360.0
  0
ARC
  8
0
 62
7
  6
CONTINUOUS
 10
113.1858922364
 20
122.1210702968
 40
0.5
 50
180.0
 51
194.2
  0
ARC
  8
0
 62
7
  6
CONTINUOUS
 10
98.1858922364
 20
122.1210702968
 40
0.5
 50
180.0
 51
194.2
  0
ARC
  8
0
 62
7
  6
CONTINUOUS
 10
103.6858922364
 20
126.2587920046
 40
4.5
 50
0.0
 51
90.0
  0
ARC
  8
0
 62
7
  6
CONTINUOUS
 10
102.1858922364
 20
126.2587920046
 40
4.5
 50
90.0
 51
180.0
  0
ARC
  8
0
 62
7
  6
CONTINUOUS
 10
126.6938922364
 20
114.8087920046
 40
0.75
 50
270.0
 51
360.0
  0
ARC
  8
0
 62
7
  6
CONTINUOUS
 10
135.6858922364
 20
114.8087920046
 40
0.75
 50
180.0
 51
270.0
  0
ARC
  8
0
 62
7
  6
CONTINUOUS
 10
122.1818922364
 20
114.8087920046
 40
0.75
 50
180.0
 51
270.0
  0
ARC
  8
0
 62
7
  6
CONTINUOUS
 10
121.5818922364
 20
119.0603295299
 40
0.15
 50
165.8
 51
180.0
  0
ARC
  8
0
 62
7
  6
CONTINUOUS
 10
127.2938922364
 20
119.0603295299
 40
0.15
 50
0.0
 51
14.2
  0
ARC
  8
0
 62
7
  6
CONTINUOUS
 10
135.0858922364
 20
119.0603295299
 40
0.15
 50
165.8
 51
180.0
  0
ARC
  8
0
 62
7
  6
CONTINUOUS
 10
152.8858922364
 20
114.8087920046
 40
0.75
 50
270.0
 51
360.0
  0
ARC
  8
0
 62
7
  6
CONTINUOUS
 10
140.1858922364
 20
114.8087920046
 40
0.75
 50
270.0
 51
360.0
  0
ARC
  8
0
 62
7
  6
CONTINUOUS
 10
148.3858922364
 20
114.8087920046
 40
0.75
 50
180.0
 51
270.0
  0
ARC
  8
0
 62
7
  6
CONTINUOUS
 10
147.7858922364
 20
119.0603295299
 40
0.15
 50
165.8
 51
180.0
  0
ARC
  8
0
 62
7
  6
CONTINUOUS
 10
140.7858922364
 20
119.0603295299
 40
0.15
 50
0.0
 51
14.2
  0
ARC
  8
0
 62
7
  6
CONTINUOUS
 10
153.4858922364
 20
119.0603295299
 40
0.15
 50
0.0
 51
14.2
  0
ARC
  8
0
 62
7
  6
CONTINUOUS
 10
144.2858922364
 20
126.3047920046
 40
4.104
 50
0.0
 51
180.0
  0
ARC
  8
0
 62
7
  6
CONTINUOUS
 10
118.3358922364
 20
126.7587920046
 40
3.85
 50
0.0
 51
90.0
  0
ARC
  8
0
 62
7
  6
CONTINUOUS
 10
116.5358922364
 20
126.7587920046
 40
3.85
 50
90.0
 51
180.0
  0
ARC
  8
0
 62
7
  6
CONTINUOUS
 10
131.8398922364
 20
126.7587920046
 40
3.85
 50
0.0
 51
90.0
  0
ARC
  8
0
 62
7
  6
CONTINUOUS
 10
130.5398922364
 20
126.7587920046
 40
3.85
 50
90.0
 51
180.0
  0
ARC
  8
0
 62
7
  6
CONTINUOUS
 10
121.6858922364
 20
122.1210702968
 40
0.5
 50
345.8
 51
360.0
  0
ARC
  8
0
 62
7
  6
CONTINUOUS
 10
135.1898922364
 20
122.1210702968
 40
0.5
 50
345.8
 51
360.0
  0
ARC
  8
0
 62
7
  6
CONTINUOUS
 10
127.1898922364
 20
122.1210702968
 40
0.5
 50
180.0
 51
194.2
  0
ARC
  8
0
 62
7
  6
CONTINUOUS
 10
147.8898922364
 20
122.1210702968
 40
0.5
 50
345.8
 51
360.0
  0
ARC
  8
0
 62
7
  6
CONTINUOUS
 10
140.6818922364
 20
122.1210702968
 40
0.5
 50
180.0
 51
194.2
  0
ARC
  8
0
 62
7
  6
CONTINUOUS
 10
153.3818922364
 20
122.1210702968
 40
0.5
 50
180.0
 51
194.2
  0
ARC
  8
0
 62
7
  6
CONTINUOUS
 10
79.0608922364
 20
136.8101538497
 40
6.0
 50
290.8827642663
 51
360.0
  0
ARC
  8
0
 62
7
  6
CONTINUOUS
 10
93.5608922364
 20
135.4087920046
 40
4.0
 50
180.0
 51
270.0
  0
ARC
  8
0
 62
7
  6
CONTINUOUS
 10
97.6858922364
 20
134.4087920046
 40
3.0
 50
270.0
 51
360.0
  0
ARC
  8
0
 62
7
  6
CONTINUOUS
 10
107.8858922364
 20
134.2587920046
 40
2.7
 50
180.0
 51
270.0
  0
ARC
  8
0
 62
7
  6
CONTINUOUS
 10
112.4858922364
 20
134.2587920046
 40
2.7
 50
270.0
 51
360.0
  0
ARC
  8
0
 62
7
  6
CONTINUOUS
 10
99.7358922364
 20
130.9585260397
 40
0.8
 50
180.0
 51
297.5333058011
  0
ARC
  8
0
 62
7
  6
CONTINUOUS
 10
99.2358922364
 20
131.4954605782
 40
0.3
 50
118.014627982
 51
180.0
  0
ARC
  8
0
 62
7
  6
CONTINUOUS
 10
103.4358922364
 20
143.6587920046
 40
4.5
 50
60.0002375645
 51
90.0
  0
ARC
  8
0
 62
7
  6
CONTINUOUS
 10
102.4358922364
 20
143.6587920046
 40
4.5
 50
90.0
 51
119.9997624355
  0
ARC
  8
0
 62
7
  6
CONTINUOUS
 10
87.8108922364
 20
143.6587920046
 40
4.5
 50
60.0002375645
 51
90.0
  0
ARC
  8
0
 62
7
  6
CONTINUOUS
 10
86.8108922364
 20
143.6587920046
 40
4.5
 50
90.0
 51
119.9997624355
  0
ARC
  8
AXES
 62
7
  6
CONTINUOUS
 10
105.7358922364
 20
143.8287920046
 40
1.5
 50
274.1260708806
 51
77.7538206432
  0
ARC
  8
AXES
 62
7
  6
CONTINUOUS
 10
100.1358922364
 20
143.8287920046
 40
1.5
 50
102.2461793568
 51
265.8739291194
  0
ARC
  8
0
 62
7
  6
CONTINUOUS
 10
89.8108781851
 20
147.1229017816
 40
0.5000000053
 50
0.0000149787
 51
60.0002760042
  0
ARC
  8
0
 62
7
  6
CONTINUOUS
 10
100.4359065995
 20
147.1229019123
 40
0.5
 50
119.9997624355
 51
180.0
  0
ARC
  8
0
 62
7
  6
CONTINUOUS
 10
105.4358778732
 20
147.1229019123
 40
0.5
 50
0.0
 51
60.0002375645
  0
ARC
  8
0
 62
7
  6
CONTINUOUS
 10
114.9359065995
 20
147.1229019123
 40
0.5
 50
119.9997624355
 51
180.0
  0
ARC
  8
0
 62
7
  6
CONTINUOUS
 10
105.6858922364
 20
140.0895137125
 40
0.5
 50
165.8
 51
180.0
  0
ARC
  8
0
 62
7
  6
CONTINUOUS
 10
100.1858922364
 20
140.0895137125
 40
0.5
 50
0.0
 51
14.2
  0
ARC
  8
0
 62
7
  6
CONTINUOUS
 10
114.6858922364
 20
140.0895137125
 40
0.5
 50
0.0
 51
14.2
  0
ARC
  8
0
 62
7
  6
CONTINUOUS
 10
90.0608922364
 20
140.0895137125
 40
0.5
 50
165.8
 51
180.0
  0
ARC
  8
0
 62
7
  6
CONTINUOUS
 10
84.5608922364
 20
140.0895137125
 40
0.5
 50
0.0
 51
14.2
  0
ARC
  8
0
 62
7
  6
CONTINUOUS
 10
84.8109065995
 20
147.1229019123
 40
0.5
 50
119.9997624355
 51
180.0
  0
ARC
  8
0
 62
7
  6
CONTINUOUS
 10
100.0859065995
 20
143.1343898706
 40
0.15
 50
180.0
 51
194.2
  0
ARC
  8
0
 62
7
  6
CONTINUOUS
 10
105.7858778732
 20
143.1343898706
 40
0.15
 50
345.8
 51
360.0
  0
ARC
  8
0
 62
7
  6
CONTINUOUS
 10
114.5859065995
 20
143.1343898706
 40
0.15
 50
180.0
 51
194.2
  0
ARC
  8
AXES
 62
7
  6
CONTINUOUS
 10
105.8546118733
 20
142.1830685626
 40
0.15
 50
94.1260708806
 51
165.8
  0
ARC
  8
AXES
 62
7
  6
CONTINUOUS
 10
106.0858778732
 20
145.4412466719
 40
0.15
 50
180.0
 51
257.7538206432
  0
ARC
  8
0
 62
7
  6
CONTINUOUS
 10
90.1608778732
 20
143.1343898706
 40
0.15
 50
345.8
 51
360.0
  0
ARC
  8
AXES
 62
7
  6
CONTINUOUS
 10
90.1608778732
 20
143.1343898706
 40
0.15
 50
345.8
 51
360.0
  0
ARC
  8
AXES
 62
7
  6
CONTINUOUS
 10
100.0171725994
 20
142.1830685626
 40
0.15
 50
14.2
 51
85.8739291194
  0
ARC
  8
AXES
 62
7
  6
CONTINUOUS
 10
99.7859065995
 20
145.4412466719
 40
0.15
 50
282.2461793569
 51
360.0
  0
ARC
  8
0
 62
7
  6
CONTINUOUS
 10
84.4609068176
 20
143.1343890089
 40
0.15
 50
179.9996708549
 51
194.1996604781
  0
ARC
  8
AXES
 62
7
  6
CONTINUOUS
 10
84.4609065995
 20
143.1343898706
 40
0.15
 50
180.0
 51
194.2
  0
ARC
  8
0
 62
7
  6
CONTINUOUS
 10
122.3858922364
 20
134.2587920046
 40
2.7
 50
180.0
 51
270.0
  0
ARC
  8
0
 62
7
  6
CONTINUOUS
 10
126.2398922364
 20
134.2587920046
 40
2.7
 50
270.0
 51
360.0
  0
ARC
  8
0
 62
7
  6
CONTINUOUS
 10
135.4398922364
 20
133.8927920046
 40
2.0
 50
180.0
 51
270.0
  0
ARC
  8
0
 62
7
  6
CONTINUOUS
 10
140.0358922364
 20
133.8927920046
 40
2.0
 50
270.0
 51
360.0
  0
ARC
  8
0
 62
7
  6
CONTINUOUS
 10
148.5358922364
 20
133.8927920046
 40
2.0
 50
180.0
 51
270.0
  0
ARC
  8
0
 62
7
  6
CONTINUOUS
 10
152.7358922364
 20
133.8927920046
 40
2.0
 50
270.0
 51
360.0
  0
ARC
  8
0
 62
7
  6
CONTINUOUS
 10
131.6898922364
 20
143.6187920046
 40
4.54
 50
60.3272196412
 51
90.0
  0
ARC
  8
0
 62
7
  6
CONTINUOUS
 10
130.6898922364
 20
143.6187920046
 40
4.54
 50
90.0
 51
119.6727803588
  0
ARC
  8
0
 62
7
  6
CONTINUOUS
 10
117.9358922364
 20
143.6587920046
 40
4.5
 50
60.0002375645
 51
90.0
  0
ARC
  8
0
 62
7
  6
CONTINUOUS
 10
116.9358922364
 20
143.6587920046
 40
4.5
 50
90.0
 51
119.9997624355
  0
ARC
  8
0
 62
7
  6
CONTINUOUS
 10
144.2858922364
 20
144.1587920046
 40
4.0
 50
44.4153085972
 51
135.5846914028
  0
ARC
  8
0
 62
7
  6
CONTINUOUS
 10
119.9358778732
 20
147.1229019123
 40
0.5
 50
0.0
 51
60.0002375645
  0
ARC
  8
0
 62
7
  6
CONTINUOUS
 10
128.6899065995
 20
147.1290138569
 40
0.5
 50
119.6727803588
 51
180.0
  0
ARC
  8
0
 62
7
  6
CONTINUOUS
 10
133.6898778732
 20
147.1290138569
 40
0.5
 50
0.0
 51
60.3272196412
  0
ARC
  8
0
 62
7
  6
CONTINUOUS
 10
146.7858922364
 20
146.6082817474
 40
0.5
 50
0.0
 51
44.4153085972
  0
ARC
  8
0
 62
7
  6
CONTINUOUS
 10
141.7858922364
 20
146.6082817474
 40
0.5
 50
135.5846914028
 51
180.0
  0
ARC
  8
0
 62
7
  6
CONTINUOUS
 10
120.1858922364
 20
140.0895137125
 40
0.5
 50
165.8
 51
180.0
  0
ARC
  8
0
 62
7
  6
CONTINUOUS
 10
133.9398922364
 20
140.0895137125
 40
0.5
 50
165.8
 51
180.0
  0
ARC
  8
0
 62
7
  6
CONTINUOUS
 10
128.4398922364
 20
140.0895137125
 40
0.5
 50
0.0
 51
14.2
  0
ARC
  8
0
 62
7
  6
CONTINUOUS
 10
147.0358922364
 20
140.0894569498
 40
0.5
 50
165.8
 51
180.0
  0
ARC
  8
0
 62
7
  6
CONTINUOUS
 10
141.5358922364
 20
140.0894569498
 40
0.5
 50
0.0
 51
14.2
  0
ARC
  8
0
 62
7
  6
CONTINUOUS
 10
154.2358922364
 20
140.0894569498
 40
0.5
 50
0.0
 51
14.2
  0
ARC
  8
0
 62
7
  6
CONTINUOUS
 10
120.2858778732
 20
143.1343898706
 40
0.15
 50
345.8
 51
360.0
  0
ARC
  8
0
 62
7
  6
CONTINUOUS
 10
128.3399065995
 20
143.1343898706
 40
0.15
 50
180.0
 51
194.2
  0
ARC
  8
0
 62
7
  6
CONTINUOUS
 10
134.0398778732
 20
143.1343898706
 40
0.15
 50
345.8
 51
360.0
  0
ARC
  8
0
 62
7
  6
CONTINUOUS
 10
141.4358922364
 20
143.1343898706
 40
0.15
 50
180.0
 51
194.2
  0
ARC
  8
0
 62
7
  6
CONTINUOUS
 10
147.1358922364
 20
143.1343898706
 40
0.15
 50
345.8
 51
360.0
  0
ARC
  8
0
 62
7
  6
CONTINUOUS
 10
154.1358922364
 20
143.1343898706
 40
0.15
 50
180.0
 51
194.2
  0
ARC
  8
0
 62
7
  6
CONTINUOUS
 10
165.5858922364
 20
114.8087920046
 40
0.75
 50
270.0
 51
360.0
  0
ARC
  8
0
 62
7
  6
CONTINUOUS
 10
173.7858922364
 20
114.8087920046
 40
0.75
 50
180.0
 51
270.0
  0
ARC
  8
0
 62
7
  6
CONTINUOUS
 10
161.0858922364
 20
114.8087920046
 40
0.75
 50
180.0
 51
270.0
  0
ARC
  8
0
 62
7
  6
CONTINUOUS
 10
160.4858922364
 20
119.0603295299
 40
0.15
 50
165.8
 51
180.0
  0
ARC
  8
0
 62
7
  6
CONTINUOUS
 10
173.1858922364
 20
119.0603295299
 40
0.15
 50
165.8
 51
180.0
  0
ARC
  8
0
 62
7
  6
CONTINUOUS
 10
166.1858922364
 20
119.0603295299
 40
0.15
 50
0.0
 51
14.2
  0
ARC
  8
0
 62
7
  6
CONTINUOUS
 10
178.2858922364
 20
114.8087920046
 40
0.75
 50
270.0
 51
360.0
  0
ARC
  8
0
 62
7
  6
CONTINUOUS
 10
190.9858922364
 20
114.8087920046
 40
0.75
 50
270.0
 51
360.0
  0
ARC
  8
0
 62
7
  6
CONTINUOUS
 10
186.4858922364
 20
114.8087920046
 40
0.75
 50
180.0
 51
270.0
  0
ARC
  8
0
 62
7
  6
CONTINUOUS
 10
185.8858922364
 20
119.0603295299
 40
0.15
 50
165.8
 51
180.0
  0
ARC
  8
0
 62
7
  6
CONTINUOUS
 10
178.8858922364
 20
119.0603295299
 40
0.15
 50
0.0
 51
14.2
  0
ARC
  8
0
 62
7
  6
CONTINUOUS
 10
191.5858922364
 20
119.0603295299
 40
0.15
 50
0.0
 51
14.2
  0
ARC
  8
0
 62
7
  6
CONTINUOUS
 10
156.9858922364
 20
126.3047920046
 40
4.104
 50
0.0
 51
180.0
  0
ARC
  8
0
 62
7
  6
CONTINUOUS
 10
169.6858922364
 20
126.3047920046
 40
4.104
 50
0.0
 51
180.0
  0
ARC
  8
0
 62
7
  6
CONTINUOUS
 10
182.3858922364
 20
126.3047920046
 40
4.104
 50
0.0
 51
180.0
  0
ARC
  8
0
 62
7
  6
CONTINUOUS
 10
160.5898922364
 20
122.1210702968
 40
0.5
 50
345.8
 51
360.0
  0
ARC
  8
0
 62
7
  6
CONTINUOUS
 10
173.2898922364
 20
122.1210702968
 40
0.5
 50
345.8
 51
360.0
  0
ARC
  8
0
 62
7
  6
CONTINUOUS
 10
166.0818922364
 20
122.1210702968
 40
0.5
 50
180.0
 51
194.2
  0
ARC
  8
0
 62
7
  6
CONTINUOUS
 10
185.9898922364
 20
122.1210702968
 40
0.5
 50
345.8
 51
360.0
  0
ARC
  8
0
 62
7
  6
CONTINUOUS
 10
178.7818922364
 20
122.1210702968
 40
0.5
 50
180.0
 51
194.2
  0
ARC
  8
0
 62
7
  6
CONTINUOUS
 10
191.4818922364
 20
122.1210702968
 40
0.5
 50
180.0
 51
194.2
  0
ARC
  8
0
 62
7
  6
CONTINUOUS
 10
203.6858922364
 20
114.8087920046
 40
0.75
 50
270.0
 51
360.0
  0
ARC
  8
0
 62
7
  6
CONTINUOUS
 10
211.8858922364
 20
114.8087920046
 40
0.75
 50
180.0
 51
270.0
  0
ARC
  8
0
 62
7
  6
CONTINUOUS
 10
199.1858922364
 20
114.8087920046
 40
0.75
 50
180.0
 51
270.0
  0
ARC
  8
0
 62
7
  6
CONTINUOUS
 10
198.5858922364
 20
119.0603295299
 40
0.15
 50
165.8
 51
180.0
  0
ARC
  8
0
 62
7
  6
CONTINUOUS
 10
211.2858922364
 20
119.0603295299
 40
0.15
 50
165.8
 51
180.0
  0
ARC
  8
0
 62
7
  6
CONTINUOUS
 10
204.2858922364
 20
119.0603295299
 40
0.15
 50
0.0
 51
14.2
  0
ARC
  8
0
 62
7
  6
CONTINUOUS
 10
216.3858922364
 20
114.8087920046
 40
0.75
 50
270.0
 51
360.0
  0
ARC
  8
0
 62
7
  6
CONTINUOUS
 10
229.0858922364
 20
114.8087920046
 40
0.75
 50
270.0
 51
360.0
  0
ARC
  8
0
 62
7
  6
CONTINUOUS
 10
224.5858922364
 20
114.8087920046
 40
0.75
 50
180.0
 51
270.0
  0
ARC
  8
0
 62
7
  6
CONTINUOUS
 10
229.6858922364
 20
119.0603295299
 40
0.15
 50
0.0
 51
14.2
  0
ARC
  8
0
 62
7
  6
CONTINUOUS
 10
223.9858922364
 20
119.0603295299
 40
0.15
 50
165.8
 51
180.0
  0
ARC
  8
0
 62
7
  6
CONTINUOUS
 10
216.9858922364
 20
119.0603295299
 40
0.15
 50
0.0
 51
14.2
  0
ARC
  8
0
 62
7
  6
CONTINUOUS
 10
195.0858922364
 20
126.3047920046
 40
4.104
 50
0.0
 51
180.0
  0
ARC
  8
0
 62
7
  6
CONTINUOUS
 10
207.7858922364
 20
126.3047920046
 40
4.104
 50
0.0
 51
180.0
  0
ARC
  8
0
 62
7
  6
CONTINUOUS
 10
220.4858922364
 20
126.3047920046
 40
4.104
 50
0.0
 51
180.0
  0
ARC
  8
0
 62
7
  6
CONTINUOUS
 10
198.6898922364
 20
122.1210702968
 40
0.5
 50
345.8
 51
360.0
  0
ARC
  8
0
 62
7
  6
CONTINUOUS
 10
211.3898922364
 20
122.1210702968
 40
0.5
 50
345.8
 51
360.0
  0
ARC
  8
0
 62
7
  6
CONTINUOUS
 10
204.1818922364
 20
122.1210702968
 40
0.5
 50
180.0
 51
194.2
  0
ARC
  8
0
 62
7
  6
CONTINUOUS
 10
224.0898922364
 20
122.1210702968
 40
0.5
 50
345.8
 51
360.0
  0
ARC
  8
0
 62
7
  6
CONTINUOUS
 10
216.8818922364
 20
122.1210702968
 40
0.5
 50
180.0
 51
194.2
  0
ARC
  8
0
 62
7
  6
CONTINUOUS
 10
229.5818922364
 20
122.1210702968
 40
0.5
 50
180.0
 51
194.2
  0
ARC
  8
0
 62
7
  6
CONTINUOUS
 10
161.2358922364
 20
133.8927920046
 40
2.0
 50
180.0
 51
270.0
  0
ARC
  8
0
 62
7
  6
CONTINUOUS
 10
165.4358922364
 20
133.8927920046
 40
2.0
 50
270.0
 51
360.0
  0
ARC
  8
0
 62
7
  6
CONTINUOUS
 10
173.9358922364
 20
133.8927920046
 40
2.0
 50
180.0
 51
270.0
  0
ARC
  8
0
 62
7
  6
CONTINUOUS
 10
178.1358922364
 20
133.8927920046
 40
2.0
 50
270.0
 51
360.0
  0
ARC
  8
0
 62
7
  6
CONTINUOUS
 10
186.6358922364
 20
133.8927920046
 40
2.0
 50
180.0
 51
270.0
  0
ARC
  8
0
 62
7
  6
CONTINUOUS
 10
190.8358922364
 20
133.8927920046
 40
2.0
 50
270.0
 51
360.0
  0
ARC
  8
0
 62
7
  6
CONTINUOUS
 10
159.7358922364
 20
140.0894569498
 40
0.5
 50
165.8
 51
180.0
  0
ARC
  8
0
 62
7
  6
CONTINUOUS
 10
166.9358922364
 20
140.0894569498
 40
0.5
 50
0.0
 51
14.2
  0
ARC
  8
0
 62
7
  6
CONTINUOUS
 10
159.8358922364
 20
143.1343898706
 40
0.15
 50
345.8
 51
360.0
  0
ARC
  8
0
 62
7
  6
CONTINUOUS
 10
166.8358922364
 20
143.1343898706
 40
0.15
 50
180.0
 51
194.2
  0
ARC
  8
0
 62
7
  6
CONTINUOUS
 10
169.6858922364
 20
144.1587920046
 40
4.0
 50
44.4153085972
 51
135.5846914028
  0
ARC
  8
0
 62
7
  6
CONTINUOUS
 10
156.9858922364
 20
144.1587920046
 40
4.0
 50
44.4153085972
 51
135.5846914028
  0
ARC
  8
0
 62
7
  6
CONTINUOUS
 10
159.4858922364
 20
146.6082817474
 40
0.5
 50
0.0
 51
44.4153085972
  0
ARC
  8
0
 62
7
  6
CONTINUOUS
 10
154.4858922364
 20
146.6082817474
 40
0.5
 50
135.5846914028
 51
180.0
  0
ARC
  8
0
 62
7
  6
CONTINUOUS
 10
167.1858922364
 20
146.6082817474
 40
0.5
 50
135.5846914028
 51
180.0
  0
ARC
  8
0
 62
7
  6
CONTINUOUS
 10
172.4358922364
 20
140.0894569498
 40
0.5
 50
165.8
 51
180.0
  0
ARC
  8
0
 62
7
  6
CONTINUOUS
 10
185.1358922364
 20
140.0894569498
 40
0.5
 50
165.8
 51
180.0
  0
ARC
  8
0
 62
7
  6
CONTINUOUS
 10
179.6358922364
 20
140.0894569498
 40
0.5
 50
0.0
 51
14.2
  0
ARC
  8
0
 62
7
  6
CONTINUOUS
 10
172.5358922364
 20
143.1343898706
 40
0.15
 50
345.8
 51
360.0
  0
ARC
  8
0
 62
7
  6
CONTINUOUS
 10
179.5358922364
 20
143.1343898706
 40
0.15
 50
180.0
 51
194.2
  0
ARC
  8
0
 62
7
  6
CONTINUOUS
 10
185.2358922364
 20
143.1343898706
 40
0.15
 50
345.8
 51
360.0
  0
ARC
  8
0
 62
7
  6
CONTINUOUS
 10
182.3858922364
 20
144.1587920046
 40
4.0
 50
44.4153085972
 51
135.5846914028
  0
ARC
  8
0
 62
7
  6
CONTINUOUS
 10
172.1858922364
 20
146.6082817474
 40
0.5
 50
0.0
 51
44.4153085972
  0
ARC
  8
0
 62
7
  6
CONTINUOUS
 10
184.8858922364
 20
146.6082817474
 40
0.5
 50
0.0
 51
44.4153085972
  0
ARC
  8
0
 62
7
  6
CONTINUOUS
 10
179.8858922364
 20
146.6082817474
 40
0.5
 50
135.5846914028
 51
180.0
  0
ARC
  8
0
 62
7
  6
CONTINUOUS
 10
199.3358922364
 20
133.8927920046
 40
2.0
 50
180.0
 51
270.0
  0
ARC
  8
0
 62
7
  6
CONTINUOUS
 10
203.5358922364
 20
133.8927920046
 40
2.0
 50
270.0
 51
360.0
  0
ARC
  8
0
 62
7
  6
CONTINUOUS
 10
212.0358922364
 20
133.8927920046
 40
2.0
 50
180.0
 51
270.0
  0
ARC
  8
0
 62
7
  6
CONTINUOUS
 10
216.2358922364
 20
133.8927920046
 40
2.0
 50
270.0
 51
360.0
  0
ARC
  8
0
 62
7
  6
CONTINUOUS
 10
224.7358922364
 20
133.8927920046
 40
2.0
 50
180.0
 51
270.0
  0
ARC
  8
0
 62
7
  6
CONTINUOUS
 10
228.0818922364
 20
130.8927920046
 40
1.0
 50
0.0
 51
90.0
  0
ARC
  8
0
 62
7
  6
CONTINUOUS
 10
197.8358922364
 20
140.0894569498
 40
0.5
 50
165.8
 51
180.0
  0
ARC
  8
0
 62
7
  6
CONTINUOUS
 10
192.3358922364
 20
140.0894569498
 40
0.5
 50
0.0
 51
14.2
  0
ARC
  8
0
 62
7
  6
CONTINUOUS
 10
205.0358922364
 20
140.0894569498
 40
0.5
 50
0.0
 51
14.2
  0
ARC
  8
0
 62
7
  6
CONTINUOUS
 10
192.2358922364
 20
143.1343898706
 40
0.15
 50
180.0
 51
194.2
  0
ARC
  8
0
 62
7
  6
CONTINUOUS
 10
197.9358922364
 20
143.1343898706
 40
0.15
 50
345.8
 51
360.0
  0
ARC
  8
0
 62
7
  6
CONTINUOUS
 10
204.9358922364
 20
143.1343898706
 40
0.15
 50
180.0
 51
194.2
  0
ARC
  8
0
 62
7
  6
CONTINUOUS
 10
195.0858922364
 20
144.1587920046
 40
4.0
 50
44.4153085972
 51
135.5846914028
  0
ARC
  8
0
 62
7
  6
CONTINUOUS
 10
197.5858922364
 20
146.6082817474
 40
0.5
 50
0.0
 51
44.4153085972
  0
ARC
  8
0
 62
7
  6
CONTINUOUS
 10
192.5858922364
 20
146.6082817474
 40
0.5
 50
135.5846914028
 51
180.0
  0
ARC
  8
0
 62
7
  6
CONTINUOUS
 10
205.2858922364
 20
146.6082817474
 40
0.5
 50
135.5846914028
 51
180.0
  0
ARC
  8
0
 62
7
  6
CONTINUOUS
 10
210.5358922364
 20
140.0894569498
 40
0.5
 50
165.8
 51
180.0
  0
ARC
  8
0
 62
7
  6
CONTINUOUS
 10
223.2358922364
 20
140.0894569498
 40
0.5
 50
165.8
 51
180.0
  0
ARC
  8
0
 62
7
  6
CONTINUOUS
 10
217.7358922364
 20
140.0894569498
 40
0.5
 50
0.0
 51
14.2
  0
ARC
  8
0
 62
7
  6
CONTINUOUS
 10
223.3358922364
 20
143.1343898706
 40
0.15
 50
345.8
 51
360.0
  0
ARC
  8
0
 62
7
  6
CONTINUOUS
 10
210.6358922364
 20
143.1343898706
 40
0.15
 50
345.8
 51
360.0
  0
ARC
  8
0
 62
7
  6
CONTINUOUS
 10
217.6358922364
 20
143.1343898706
 40
0.15
 50
180.0
 51
194.2
  0
ARC
  8
0
 62
7
  6
CONTINUOUS
 10
220.4858922364
 20
144.1587920046
 40
4.0
 50
44.4153085972
 51
135.5846914028
  0
ARC
  8
0
 62
7
  6
CONTINUOUS
 10
207.7858922364
 20
144.1587920046
 40
4.0
 50
44.4153085972
 51
135.5846914028
  0
ARC
  8
0
 62
7
  6
CONTINUOUS
 10
210.2858922364
 20
146.6082817474
 40
0.5
 50
0.0
 51
44.4153085972
  0
ARC
  8
0
 62
7
  6
CONTINUOUS
 10
222.9858922364
 20
146.6082817474
 40
0.5
 50
0.0
 51
44.4153085972
  0
ARC
  8
0
 62
7
  6
CONTINUOUS
 10
217.9858922364
 20
146.6082817474
 40
0.5
 50
135.5846914028
 51
180.0
  0
ARC
  8
0
 62
7
  6
CONTINUOUS
 10
82.0398922364
 20
222.8666721897
 40
0.15
 50
270.0
 51
359.9999372771
  0
ARC
  8
0
 62
7
  6
CONTINUOUS
 10
77.0858922364
 20
222.8666720255
 40
0.15
 50
180.0
 51
270.0
  0
ARC
  8
0
 62
7
  6
CONTINUOUS
 10
93.1818922364
 20
223.4666720255
 40
0.75
 50
180.0
 51
270.0
  0
ARC
  8
0
 62
7
  6
CONTINUOUS
 10
97.6898922364
 20
223.4666720255
 40
0.75
 50
270.0
 51
360.0
  0
ARC
  8
0
 62
7
  6
CONTINUOUS
 10
108.1818922364
 20
223.4666720255
 40
0.75
 50
180.0
 51
270.0
  0
ARC
  8
0
 62
7
  6
CONTINUOUS
 10
112.6898922364
 20
223.4666720255
 40
0.75
 50
270.0
 51
360.0
  0
ARC
  8
0
 62
7
  6
CONTINUOUS
 10
93.1818922364
 20
233.9666720255
 40
0.75
 50
90.0
 51
180.0
  0
ARC
  8
0
 62
7
  6
CONTINUOUS
 10
97.6898922364
 20
233.9666720255
 40
0.75
 50
0.0
 51
90.0
  0
ARC
  8
0
 62
7
  6
CONTINUOUS
 10
77.0858925346
 20
233.5975529782
 40
0.15
 50
103.0920099966
 51
180.0000264867
  0
ARC
  8
0
 62
7
  6
CONTINUOUS
 10
148.3858922364
 20
223.4666720255
 40
0.75
 50
180.0
 51
270.0
  0
ARC
  8
0
 62
7
  6
CONTINUOUS
 10
152.8858922364
 20
223.4666720255
 40
0.75
 50
270.0
 51
360.0
  0
ARC
  8
0
 62
7
  6
CONTINUOUS
 10
140.1858922364
 20
223.4666720255
 40
0.75
 50
270.0
 51
360.0
  0
ARC
  8
0
 62
7
  6
CONTINUOUS
 10
122.1818922364
 20
223.4666720255
 40
0.75
 50
180.0
 51
270.0
  0
ARC
  8
0
 62
7
  6
CONTINUOUS
 10
135.6858922364
 20
223.4666720255
 40
0.75
 50
180.0
 51
270.0
  0
ARC
  8
0
 62
7
  6
CONTINUOUS
 10
126.6938922364
 20
223.4666720255
 40
0.75
 50
270.0
 51
360.0
  0
ARC
  8
0
 62
7
  6
CONTINUOUS
 10
98.7358922364
 20
234.9166720255
 40
0.2
 50
270.0
 51
360.0
  0
ARC
  8
0
 62
7
  6
CONTINUOUS
 10
82.0398922364
 20
234.5666720255
 40
0.15
 50
0.0
 51
90.0
  0
ARC
  8
0
 62
7
  6
CONTINUOUS
 10
81.253104438
 20
234.5666720255
 40
0.15
 50
90.0
 51
103.0918930644
  0
ARC
  8
0
 62
7
  6
CONTINUOUS
 10
113.010920011
 20
245.2666720255
 40
0.25
 50
1.02
 51
90.0
  0
ARC
  8
0
 62
7
  6
CONTINUOUS
 10
107.8608644563
 20
245.2666717174
 40
0.25
 50
89.9999987428
 51
178.9799293788
  0
ARC
  8
0
 62
7
  6
CONTINUOUS
 10
99.3648650027
 20
245.2666720255
 40
0.25
 50
90.0001243937
 51
178.980002193
  0
ARC
  8
0
 62
7
  6
CONTINUOUS
 10
153.206920011
 20
245.2666720255
 40
0.25
 50
1.02
 51
90.0
  0
ARC
  8
0
 62
7
  6
CONTINUOUS
 10
148.0648644563
 20
245.2666717174
 40
0.25
 50
89.9999987428
 51
178.9799293788
  0
ARC
  8
0
 62
7
  6
CONTINUOUS
 10
140.506920011
 20
245.2666720255
 40
0.25
 50
1.02
 51
90.0
  0
ARC
  8
0
 62
7
  6
CONTINUOUS
 10
135.3648644563
 20
245.2666717174
 40
0.25
 50
89.9999987428
 51
178.9799293788
  0
ARC
  8
0
 62
7
  6
CONTINUOUS
 10
127.014920011
 20
245.2666720255
 40
0.25
 50
1.02
 51
90.0
  0
ARC
  8
0
 62
7
  6
CONTINUOUS
 10
121.8608644563
 20
245.2666717174
 40
0.25
 50
89.9999987428
 51
178.9799293788
  0
ARC
  8
0
 62
7
  6
CONTINUOUS
 10
161.0858922364
 20
223.4666720255
 40
0.75
 50
180.0
 51
270.0
  0
ARC
  8
0
 62
7
  6
CONTINUOUS
 10
165.5858922364
 20
223.4666720255
 40
0.75
 50
270.0
 51
360.0
  0
ARC
  8
0
 62
7
  6
CONTINUOUS
 10
173.7858922364
 20
223.4666720255
 40
0.75
 50
180.0
 51
270.0
  0
ARC
  8
0
 62
7
  6
CONTINUOUS
 10
178.2858922364
 20
223.4666720255
 40
0.75
 50
270.0
 51
360.0
  0
ARC
  8
0
 62
7
  6
CONTINUOUS
 10
186.4858922364
 20
223.4666720255
 40
0.75
 50
180.0
 51
270.0
  0
ARC
  8
0
 62
7
  6
CONTINUOUS
 10
190.9858922364
 20
223.4666720255
 40
0.75
 50
270.0
 51
360.0
  0
ARC
  8
0
 62
7
  6
CONTINUOUS
 10
199.1858922364
 20
223.4666720255
 40
0.75
 50
180.0
 51
270.0
  0
ARC
  8
0
 62
7
  6
CONTINUOUS
 10
203.6858922364
 20
223.4666720255
 40
0.75
 50
270.0
 51
360.0
  0
ARC
  8
0
 62
7
  6
CONTINUOUS
 10
211.8858922364
 20
223.4666720255
 40
0.75
 50
180.0
 51
270.0
  0
ARC
  8
0
 62
7
  6
CONTINUOUS
 10
216.3858922364
 20
223.4666720255
 40
0.75
 50
270.0
 51
360.0
  0
ARC
  8
0
 62
7
  6
CONTINUOUS
 10
229.0858922364
 20
223.4666720255
 40
0.75
 50
270.0
 51
360.0
  0
ARC
  8
0
 62
7
  6
CONTINUOUS
 10
224.5858922364
 20
223.4666720255
 40
0.75
 50
180.0
 51
270.0
  0
ARC
  8
0
 62
7
  6
CONTINUOUS
 10
211.5648644563
 20
245.2666717174
 40
0.25
 50
89.9999987428
 51
178.9799293788
  0
ARC
  8
0
 62
7
  6
CONTINUOUS
 10
204.006920011
 20
245.2666720255
 40
0.25
 50
1.02
 51
90.0
  0
ARC
  8
0
 62
7
  6
CONTINUOUS
 10
198.8648644563
 20
245.2666717174
 40
0.25
 50
89.9999987428
 51
178.9799293788
  0
ARC
  8
0
 62
7
  6
CONTINUOUS
 10
191.306920011
 20
245.2666720255
 40
0.25
 50
1.02
 51
90.0
  0
ARC
  8
0
 62
7
  6
CONTINUOUS
 10
186.1648644563
 20
245.2666717174
 40
0.25
 50
89.9999987428
 51
178.9799293788
  0
ARC
  8
0
 62
7
  6
CONTINUOUS
 10
178.606920011
 20
245.2666720255
 40
0.25
 50
1.02
 51
90.0
  0
ARC
  8
0
 62
7
  6
CONTINUOUS
 10
173.4648644563
 20
245.2666717174
 40
0.25
 50
89.9999987428
 51
178.9799293788
  0
ARC
  8
0
 62
7
  6
CONTINUOUS
 10
165.906920011
 20
245.2666720255
 40
0.25
 50
1.02
 51
90.0
  0
ARC
  8
0
 62
7
  6
CONTINUOUS
 10
160.7648644563
 20
245.2666717174
 40
0.25
 50
89.9999987428
 51
178.9799293788
  0
ARC
  8
0
 62
7
  6
CONTINUOUS
 10
229.406920011
 20
245.2666720255
 40
0.25
 50
1.02
 51
90.0
  0
ARC
  8
0
 62
7
  6
CONTINUOUS
 10
224.2648644563
 20
245.2666717174
 40
0.25
 50
89.9999987428
 51
178.9799293788
  0
ARC
  8
0
 62
7
  6
CONTINUOUS
 10
216.706920011
 20
245.2666720255
 40
0.25
 50
1.02
 51
90.0
  0
ARC
  8
0
 62
7
  6
CONTINUOUS
 10
311.4173527903
 20
118.0587920046
 40
4.0
 50
180.0
 51
193.2680217901
  0
ARC
  8
0
 62
7
  6
CONTINUOUS
 10
315.4173527903
 20
118.0587920046
 40
4.0
 50
324.7617996965
 51
360.0
  0
CIRCLE
  8
0
 62
7
  6
CONTINUOUS
 10
313.4173527903
 20
118.4087920046
 40
2.75
  0
CIRCLE
  8
0
 62
7
  6
CONTINUOUS
 10
313.4173527903
 20
118.4087920046
 40
2.1
  0
ARC
  8
0
 62
7
  6
CONTINUOUS
 10
311.4173527903
 20
144.1587920046
 40
4.0
 50
90.0
 51
180.0
  0
ARC
  8
AXES
 62
7
  6
CONTINUOUS
 10
313.4173527903
 20
135.7587920046
 40
2.1
 50
180.0
 51
360.0
  0
ARC
  8
0
 62
7
  6
CONTINUOUS
 10
315.4173527903
 20
144.1587920046
 40
4.0
 50
0.0
 51
90.0
  0
ARC
  8
AXES
 62
7
  6
CONTINUOUS
 10
313.4173527903
 20
143.8087920046
 40
2.1
 50
0.0
 51
180.0
  0
ARC
  8
0
 62
7
  6
CONTINUOUS
 10
327.2173527903
 20
117.7861363967
 40
3.0
 50
273.0
 51
360.0
  0
ARC
  8
0
 62
7
  6
CONTINUOUS
 10
329.9673527903
 20
130.6948550695
 40
0.25
 50
271.585248429
 51
360.0
  0
ARC
  8
0
 62
7
  6
CONTINUOUS
 10
327.2173527903
 20
144.4314476125
 40
3.0
 50
0.0
 51
87.0
  0
ENDSEC
  0
EOF
