  0
SECTION
  2
HEADER
  9
$EXTMAX
 10
210.0
 20
297.0
 30
0.0
  9
$EXTMIN
 10
0.0
 20
0.0
 30
0.0
  9
$LIMMIN
 10
0.0
 20
0.0
  9
$LIMMAX
 10
210.0
 20
297.0
  9
$VIEWCTR
 10
105.0
 20
148.5
  9
$VIEWSIZE
 40
297.0
  9
$CLAYER
  8
0
  9
$LTSCALE
 40
19.36
  9
$CELTYPE
  6
BYLAYER
  9
$DIMSCALE
 40
1.0
  9
$DIMASZ
 40
3.5
  9
$DIMEXO
 40
2.2
  9
$DIMDLI
 40
13.376
  9
$DIMEXE
 40
6.336
  9
$DIMCEN
 40
3.168
  9
$DIMLFAC
 40
1.0
  9
$DIMBLK
  1
_FILLED
  9
$DIMTXT
 40
3.5
  9
$PDMODE
 70
3
  9
$PDSIZE
 40
0.3125
  9
$TILEMODE
 70
1
  0
ENDSEC
  0
SECTION
  2
TABLES
  0
TABLE
  2
LTYPE
 70
6
  0
LTYPE
  2
BYBLOCK
 70
0
  3

 72
65
 73
0
 40
0.0
  0
LTYPE
  2
BYLAYER
 70
0
  3

 72
65
 73
0
 40
0.0
  0
LTYPE
  2
CONTINUOUS
 70
64
  3
Solid line
 72
65
 73
0
 40
0.0
  0
LTYPE
  2
CENTER
 70
64
  3
____ _ ____ _ ____ _ ____ _ ____ _ ____ _ ____
 72
65
 73
4
 40
0.6
 49
0.375
 49
-0.075
 49
0.075
 49
-0.075
  0
LTYPE
  2
HIDDEN
 70
64
  3
- - - - - - - - - - - - - - - - - - - -
 72
65
 73
2
 40
0.2
 49
0.1
 49
-0.1
  0
LTYPE
  2
PHANTOM
 70
64
  3
_____ _ _ _____ _ _ _____ _ _ _____
 72
65
 73
6
 40
0.8
 49
0.45
 49
-0.05
 49
0.1
 49
-0.05
 49
0.1
 49
-0.05
  0
LTYPE
  2
DOT
 70
64
  3
. . . . . . . . . . . . . . . . . . . .
 72
65
 73
2
 40
0.2
 49
0.1
 49
-0.1
  0
LTYPE
  2
DASHED
 70
64
  3
- - - - - - - - - - - - - - - - - - - -
 72
65
 73
2
 40
0.2
 49
0.1
 49
-0.1
  0
ENDTAB
  0
TABLE
  2
LAYER
 70
36
  0
LAYER
  2
0
 70
0
 62
7
  6
CONTINUOUS
  0
LAYER
  2
DEFAULT_1
 70
0
 62
7
  6
CENTER
  0
LAYER
  2
DEFAULT_2
 70
0
 62
8
  6
HIDDEN
  0
LAYER
  2
DEFAULT_3
 70
0
 62
7
  6
PHANTOM
  0
LAYER
  2
CSYS
 70
0
 62
7
  6
CONTINUOUS
  0
LAYER
  2
CURVE
 70
0
 62
7
  6
CONTINUOUS
  0
LAYER
  2
PITCHLINE
 70
0
 62
7
  6
CONTINUOUS
  0
LAYER
  2
SQ
 70
0
 62
7
  6
CONTINUOUS
  0
LAYER
  2
SURFACE
 70
0
 62
7
  6
CONTINUOUS
  0
ENDTAB
  0
TABLE
  2
STYLE
 70
1
  0
STYLE
  2
STANDARD
 70
0
 40
0.0
 41
0.8
 50
0.0
 71
0
 42
0.2
  3
txt
  4

  0
STYLE
  2
TEXTSTYLE_1
 70
0
 40
0.0
 41
0.8
 50
0.0
 71
0
 42
0.2
  3
gdt
  4

  0
STYLE
  2
TEXTSTYLE_2
 70
0
 40
0.0
 41
0.6
 50
0.0
 71
0
 42
0.2
  3
txt
  4

  0
STYLE
  2
TEXTSTYLE_3
 70
0
 40
0.0
 41
1.0
 50
0.0
 71
0
 42
0.2
  3
ftb_____.ttf
  4

  0
STYLE
  2
TEXTSTYLE_4
 70
0
 40
0.0
 41
1.0
 50
0.0
 71
0
 42
0.2
  3
fti_____.ttf
  4

  0
STYLE
  2
TEXTSTYLE_5
 70
0
 40
0.0
 41
1.0
 50
0.0
 71
0
 42
0.2
  3
frutiger light.ttf
  4

  0
STYLE
  2
TEXTSTYLE_6
 70
0
 40
0.0
 41
0.7
 50
0.0
 71
0
 42
0.2
  3
txt
  4

  0
STYLE
  2
TEXTSTYLE_7
 70
0
 40
0.0
 41
0.8
 50
0.0
 71
0
 42
0.2
  3
txt
  4

  0
ENDTAB
  0
ENDSEC
  0
SECTION
  2
BLOCKS
  0
BLOCK
  8
0
 62
2
  6
CONTINUOUS
  2
SYMBOL_8_BL1
 70
64
 10
173.5956734183
 20
35.5937998301
  0
TEXT
  8
0
 62
7
  6
CONTINUOUS
 10
164.6539584268
 20
30.6865562072
  7
TEXTSTYLE_4
 40
1.0655737705
  1
The brand for plastic modular belts and chains
 41
1.0
 72
0
  0
LINE
  8
0
 62
7
  6
CONTINUOUS
 10
149.5737418074
 20
36.1675703219
 11
149.5737418074
 21
34.0364227809
  0
LINE
  8
0
 62
7
  6
CONTINUOUS
 10
149.8628043005
 20
31.0454914852
 11
149.8628043005
 21
31.1422825445
  0
LINE
  8
0
 62
7
  6
CONTINUOUS
 10
149.5737418074
 20
31.1100188581
 11
149.6315543091
 21
30.9164367395
  0
LINE
  8
0
 62
7
  6
CONTINUOUS
 10
150.9671844304
 20
33.9544555678
 11
150.9671844304
 21
36.1675703219
  0
LINE
  8
0
 62
7
  6
CONTINUOUS
 10
151.8862417523
 20
32.1101932727
 11
151.8862417523
 21
30.5937998301
  0
LINE
  8
0
 62
7
  6
CONTINUOUS
 10
152.1753043074
 20
30.5937998301
 11
152.1753043074
 21
31.3358647082
  0
LINE
  8
0
 62
7
  6
CONTINUOUS
 10
152.1753043074
 20
31.4649194539
 11
152.1753043074
 21
32.1101932727
  0
LINE
  8
0
 62
7
  6
CONTINUOUS
 10
149.6315543091
 20
31.3036010218
 11
149.5737418074
 21
31.1100188581
  0
LINE
  8
0
 62
7
  6
CONTINUOUS
 10
149.9784292936
 20
30.8841730531
 11
149.8628043005
 21
31.0454914852
  0
LINE
  8
0
 62
7
  6
CONTINUOUS
 10
151.0768668626
 20
31.400392081
 11
151.1346793074
 21
31.3036010218
  0
LINE
  8
0
 62
7
  6
CONTINUOUS
 10
151.4237418626
 20
31.3036010218
 11
151.3659292523
 21
31.4326557675
  0
LINE
  8
0
 62
7
  6
CONTINUOUS
 10
152.852430332
 20
36.1675703219
 11
152.852430332
 21
34.3642916334
  0
LINE
  8
0
 62
7
  6
CONTINUOUS
 10
152.852430332
 20
33.0528162235
 11
152.852430332
 21
32.3970785186
  0
LINE
  8
0
 62
7
  6
CONTINUOUS
 10
153.2159293074
 20
31.2390736489
 11
153.2159293074
 21
30.5937998301
  0
LINE
  8
0
 62
7
  6
CONTINUOUS
 10
153.5049916972
 20
30.5937998301
 11
153.5049916972
 21
31.2390736489
  0
LINE
  8
0
 62
7
  6
CONTINUOUS
 10
149.8628043005
 20
31.1422825445
 11
149.9206168074
 21
31.2713373354
  0
LINE
  8
0
 62
7
  6
CONTINUOUS
 10
149.6315543091
 20
30.9164367395
 11
149.7471793074
 21
30.7873819712
  0
LINE
  8
0
 62
7
  6
CONTINUOUS
 10
153.1581166972
 20
31.3681283946
 11
153.2159293074
 21
31.2390736489
  0
LINE
  8
0
 62
7
  6
CONTINUOUS
 10
153.9674919177
 20
30.8841730531
 11
154.0253041972
 21
30.7551182848
  0
LINE
  8
0
 62
7
  6
CONTINUOUS
 10
153.5049916972
 20
31.2390736489
 11
153.4471794177
 21
31.400392081
  0
LINE
  8
0
 62
7
  6
CONTINUOUS
 10
153.9674919177
 20
31.4326557675
 11
153.9674919177
 21
31.3681283946
  0
LINE
  8
0
 62
7
  6
CONTINUOUS
 10
153.9674919177
 20
30.9809641124
 11
153.9674919177
 21
30.8841730531
  0
LINE
  8
0
 62
7
  6
CONTINUOUS
 10
154.245872955
 20
32.3970785186
 11
154.245872955
 21
36.1675703219
  0
LINE
  8
0
 62
7
  6
CONTINUOUS
 10
154.2565543074
 20
30.8519093441
 11
154.2565543074
 21
30.9164367395
  0
LINE
  8
0
 62
7
  6
CONTINUOUS
 10
154.5737418074
 20
36.1675703219
 11
154.5737418074
 21
32.3970785186
  0
LINE
  8
0
 62
7
  6
CONTINUOUS
 10
151.3659292523
 20
30.7873819712
 11
151.4237418626
 21
30.9164367395
  0
LINE
  8
0
 62
7
  6
CONTINUOUS
 10
155.759679528
 20
30.6905909007
 11
155.7018665869
 21
30.8519093441
  0
LINE
  8
0
 62
7
  6
CONTINUOUS
 10
155.412804528
 20
31.3681283946
 11
155.412804528
 21
31.2713373354
  0
LINE
  8
0
 62
7
  6
CONTINUOUS
 10
155.412804528
 20
31.1422825445
 11
155.412804528
 21
30.9487004259
  0
LINE
  8
0
 62
7
  6
CONTINUOUS
 10
155.7018665869
 20
30.8519093441
 11
155.7018665869
 21
31.3681283946
  0
LINE
  8
0
 62
7
  6
CONTINUOUS
 10
155.9671844304
 20
32.3970785186
 11
155.9671844304
 21
34.2003572071
  0
LINE
  8
0
 62
7
  6
CONTINUOUS
 10
155.9671844304
 20
35.511832617
 11
155.9671844304
 21
36.1675703219
  0
LINE
  8
0
 62
7
  6
CONTINUOUS
 10
156.279992028
 20
32.1101932727
 11
156.279992028
 21
31.9488748406
  0
LINE
  8
0
 62
7
  6
CONTINUOUS
 10
156.279992028
 20
31.626237886
 11
156.279992028
 21
30.5937998301
  0
LINE
  8
0
 62
7
  6
CONTINUOUS
 10
156.5690540869
 20
30.5937998301
 11
156.5690540869
 21
31.626237886
  0
LINE
  8
0
 62
7
  6
CONTINUOUS
 10
156.5690540869
 20
31.9488748406
 11
156.5690540869
 21
32.1101932727
  0
LINE
  8
0
 62
7
  6
CONTINUOUS
 10
151.1346793074
 20
30.9164367395
 11
151.0768668626
 21
30.8196456577
  0
LINE
  8
0
 62
7
  6
CONTINUOUS
 10
153.4471794177
 20
31.400392081
 11
153.3893668074
 21
31.4649194539
  0
LINE
  8
0
 62
7
  6
CONTINUOUS
 10
154.3143669177
 20
30.7873819712
 11
154.2565543074
 21
30.8519093441
  0
LINE
  8
0
 62
7
  6
CONTINUOUS
 10
155.4706168074
 20
30.6583272086
 11
155.5284290869
 21
30.5937998301
  0
LINE
  8
0
 62
7
  6
CONTINUOUS
 10
155.412804528
 20
30.7551182848
 11
155.4706168074
 21
30.6583272086
  0
LINE
  8
0
 62
7
  6
CONTINUOUS
 10
155.8174918074
 20
30.5937998301
 11
155.759679528
 21
30.6905909007
  0
LINE
  8
0
 62
7
  6
CONTINUOUS
 10
155.7018665869
 20
31.3681283946
 11
155.6440543074
 21
31.4649194539
  0
LINE
  8
0
 62
7
  6
CONTINUOUS
 10
157.0315543074
 20
31.626237886
 11
157.0315543074
 21
30.5937998301
  0
LINE
  8
0
 62
7
  6
CONTINUOUS
 10
157.320617028
 20
30.5937998301
 11
157.320617028
 21
31.3358647082
  0
LINE
  8
0
 62
7
  6
CONTINUOUS
 10
157.320617028
 20
31.4649194539
 11
157.320617028
 21
31.626237886
  0
LINE
  8
0
 62
7
  6
CONTINUOUS
 10
157.852430332
 20
34.6101932727
 11
157.852430332
 21
32.3970785186
  0
LINE
  8
0
 62
7
  6
CONTINUOUS
 10
149.7471793074
 20
31.4326557675
 11
149.6315543091
 21
31.3036010218
  0
LINE
  8
0
 62
7
  6
CONTINUOUS
 10
149.9206168074
 20
31.2713373354
 11
149.9784292936
 21
31.3358647082
  0
LINE
  8
0
 62
7
  6
CONTINUOUS
 10
149.7471793074
 20
30.7873819712
 11
149.8628043005
 21
30.7228545871
  0
LINE
  8
0
 62
7
  6
CONTINUOUS
 10
150.1518667936
 20
30.7873819712
 11
149.9784292936
 21
30.8841730531
  0
LINE
  8
0
 62
7
  6
CONTINUOUS
 10
155.3549915869
 20
31.4326557675
 11
155.412804528
 21
31.3681283946
  0
LINE
  8
0
 62
7
  6
CONTINUOUS
 10
158.3034290869
 20
31.3681283946
 11
158.361242028
 21
31.2068099625
  0
LINE
  8
0
 62
7
  6
CONTINUOUS
 10
158.6503040869
 20
31.2068099625
 11
158.5924918074
 21
31.3681283946
  0
LINE
  8
0
 62
7
  6
CONTINUOUS
 10
158.361242028
 20
31.2068099625
 11
158.361242028
 21
30.5937998301
  0
LINE
  8
0
 62
7
  6
CONTINUOUS
 10
158.6503040869
 20
30.5937998301
 11
158.6503040869
 21
31.2068099625
  0
LINE
  8
0
 62
7
  6
CONTINUOUS
 10
159.1128043074
 20
31.4326557675
 11
159.1128043074
 21
31.3681283946
  0
LINE
  8
0
 62
7
  6
CONTINUOUS
 10
159.245872955
 20
32.3970785186
 11
159.245872955
 21
34.5282260596
  0
LINE
  8
0
 62
7
  6
CONTINUOUS
 10
159.5737418074
 20
36.1675703219
 11
159.5737418074
 21
32.3970785186
  0
LINE
  8
0
 62
7
  6
CONTINUOUS
 10
154.2565543074
 20
30.9164367395
 11
154.3143669177
 21
31.0132277988
  0
LINE
  8
0
 62
7
  6
CONTINUOUS
 10
149.8628043005
 20
30.7228545871
 11
150.0362418212
 21
30.6583272086
  0
LINE
  8
0
 62
7
  6
CONTINUOUS
 10
151.3659292523
 20
31.4326557675
 11
151.1924917523
 21
31.5294468267
  0
LINE
  8
0
 62
7
  6
CONTINUOUS
 10
154.0253041972
 20
30.7551182848
 11
154.1987416972
 21
30.6583272086
  0
LINE
  8
0
 62
7
  6
CONTINUOUS
 10
153.0424918074
 20
31.4326557675
 11
153.1581166972
 21
31.3681283946
  0
LINE
  8
0
 62
7
  6
CONTINUOUS
 10
153.3893668074
 20
31.4649194539
 11
153.2737419177
 21
31.5294468267
  0
LINE
  8
0
 62
7
  6
CONTINUOUS
 10
159.1128043074
 20
30.8519093441
 11
159.228429528
 21
30.7228545871
  0
LINE
  8
0
 62
7
  6
CONTINUOUS
 10
159.4596793074
 20
30.7873819712
 11
159.401867028
 21
30.8519093441
  0
LINE
  8
0
 62
7
  6
CONTINUOUS
 10
159.1128043074
 20
31.3681283946
 11
159.228429528
 21
31.2390736489
  0
LINE
  8
0
 62
7
  6
CONTINUOUS
 10
158.5924918074
 20
31.3681283946
 11
158.534679528
 21
31.4649194539
  0
LINE
  8
0
 62
7
  6
CONTINUOUS
 10
160.9628038663
 20
30.7873819712
 11
160.9628038663
 21
30.8519093441
  0
LINE
  8
0
 62
7
  6
CONTINUOUS
 10
160.9671844304
 20
32.3970785186
 11
160.9671844304
 21
36.1675703219
  0
LINE
  8
0
 62
7
  6
CONTINUOUS
 10
154.0253041972
 20
31.4971831403
 11
153.9674919177
 21
31.4326557675
  0
LINE
  8
0
 62
7
  6
CONTINUOUS
 10
150.9034292799
 20
31.4649194539
 11
151.0768668626
 21
31.400392081
  0
LINE
  8
0
 62
7
  6
CONTINUOUS
 10
155.6440543074
 20
31.4649194539
 11
155.5284290869
 21
31.5294468267
  0
LINE
  8
0
 62
7
  6
CONTINUOUS
 10
159.4596793074
 20
31.3036010218
 11
159.401867028
 21
31.3681283946
  0
LINE
  8
0
 62
7
  6
CONTINUOUS
 10
160.615929528
 20
30.9164367395
 11
160.6737418074
 21
30.8519093441
  0
LINE
  8
0
 62
7
  6
CONTINUOUS
 10
160.9628038663
 20
30.8519093441
 11
160.8471793074
 21
30.9809641124
  0
LINE
  8
0
 62
7
  6
CONTINUOUS
 10
160.615929528
 20
31.4326557675
 11
160.6737418074
 21
31.3681283946
  0
LINE
  8
0
 62
7
  6
CONTINUOUS
 10
160.9628038663
 20
31.3681283946
 11
160.8471793074
 21
31.4971831403
  0
LINE
  8
0
 62
7
  6
CONTINUOUS
 10
154.2565543074
 20
31.3681283946
 11
154.3143669177
 21
31.4326557675
  0
LINE
  8
0
 62
7
  6
CONTINUOUS
 10
154.0831168074
 20
31.1100188581
 11
153.9674919177
 21
30.9809641124
  0
LINE
  8
0
 62
7
  6
CONTINUOUS
 10
155.412804528
 20
30.9487004259
 11
155.3549915869
 21
30.8841730531
  0
LINE
  8
0
 62
7
  6
CONTINUOUS
 10
155.3549915869
 20
30.6905909007
 11
155.412804528
 21
30.7551182848
  0
LINE
  8
0
 62
7
  6
CONTINUOUS
 10
154.1987416972
 20
30.6583272086
 11
154.3143669177
 21
30.6260635193
  0
LINE
  8
0
 62
7
  6
CONTINUOUS
 10
151.1924917523
 20
31.5294468267
 11
150.9612418074
 21
31.5939741996
  0
LINE
  8
0
 62
7
  6
CONTINUOUS
 10
154.5456166972
 20
30.7228545871
 11
154.3143669177
 21
30.7873819712
  0
LINE
  8
0
 62
7
  6
CONTINUOUS
 10
153.2737419177
 20
31.5294468267
 11
153.1003044177
 21
31.5939741996
  0
LINE
  8
0
 62
7
  6
CONTINUOUS
 10
155.5284290869
 20
31.5294468267
 11
155.3549915869
 21
31.5939741996
  0
LINE
  8
0
 62
7
  6
CONTINUOUS
 10
158.187804528
 20
31.4326557675
 11
158.3034290869
 21
31.3681283946
  0
LINE
  8
0
 62
7
  6
CONTINUOUS
 10
158.534679528
 20
31.4649194539
 11
158.4190543074
 21
31.5294468267
  0
LINE
  8
0
 62
7
  6
CONTINUOUS
 10
150.0362418212
 20
30.6583272086
 11
150.2096793212
 21
30.6260635193
  0
LINE
  8
0
 62
7
  6
CONTINUOUS
 10
150.498741835
 20
30.7228545871
 11
150.1518667936
 21
30.7873819712
  0
LINE
  8
0
 62
7
  6
CONTINUOUS
 10
152.9268669177
 20
31.4649194539
 11
153.0424918074
 21
31.4326557675
  0
LINE
  8
0
 62
7
  6
CONTINUOUS
 10
155.239367028
 20
31.4649194539
 11
155.3549915869
 21
31.4326557675
  0
LINE
  8
0
 62
7
  6
CONTINUOUS
 10
159.575304528
 20
30.7551182848
 11
159.4596793074
 21
30.7873819712
  0
LINE
  8
0
 62
7
  6
CONTINUOUS
 10
158.0721793074
 20
31.4649194539
 11
158.187804528
 21
31.4326557675
  0
LINE
  8
0
 62
7
  6
CONTINUOUS
 10
159.228429528
 20
30.7228545871
 11
159.401867028
 21
30.6583272086
  0
LINE
  8
0
 62
7
  6
CONTINUOUS
 10
158.4190543074
 20
31.5294468267
 11
158.2456168074
 21
31.5939741996
  0
LINE
  8
0
 62
7
  6
CONTINUOUS
 10
159.6331168074
 20
31.2390736489
 11
159.4596793074
 21
31.3036010218
  0
LINE
  8
0
 62
7
  6
CONTINUOUS
 10
160.442492028
 20
30.9809641124
 11
160.615929528
 21
30.9164367395
  0
LINE
  8
0
 62
7
  6
CONTINUOUS
 10
160.8471793074
 20
31.4971831403
 11
160.6737418074
 21
31.5617105132
  0
LINE
  8
0
 62
7
  6
CONTINUOUS
 10
159.228429528
 20
31.2390736489
 11
159.4596793074
 21
31.1422825445
  0
LINE
  8
0
 62
7
  6
CONTINUOUS
 10
160.8471793074
 20
30.9809641124
 11
160.615929528
 21
31.0777551716
  0
LINE
  8
0
 62
7
  6
CONTINUOUS
 10
159.401867028
 20
31.3681283946
 11
159.4596793074
 21
31.4326557675
  0
LINE
  8
0
 62
7
  6
CONTINUOUS
 10
149.8628043005
 20
31.4971831403
 11
149.7471793074
 21
31.4326557675
  0
LINE
  8
0
 62
7
  6
CONTINUOUS
 10
149.9784292936
 20
31.3358647082
 11
150.1518667936
 21
31.4326557675
  0
LINE
  8
0
 62
7
  6
CONTINUOUS
 10
152.2909293626
 20
31.5294468267
 11
152.1753043074
 21
31.4649194539
  0
LINE
  8
0
 62
7
  6
CONTINUOUS
 10
152.1753043074
 20
31.3358647082
 11
152.2909293626
 21
31.400392081
  0
LINE
  8
0
 62
7
  6
CONTINUOUS
 10
151.1924917523
 20
30.6905909007
 11
151.3659292523
 21
30.7873819712
  0
LINE
  8
0
 62
7
  6
CONTINUOUS
 10
150.2096793212
 20
30.6260635193
 11
150.5565542799
 21
30.5937998301
  0
LINE
  8
0
 62
7
  6
CONTINUOUS
 10
154.3143669177
 20
30.6260635193
 11
154.5456166972
 21
30.5937998301
  0
LINE
  8
0
 62
7
  6
CONTINUOUS
 10
152.6956168074
 20
31.4971831403
 11
152.9268669177
 21
31.4649194539
  0
LINE
  8
0
 62
7
  6
CONTINUOUS
 10
155.0081169177
 20
31.4971831403
 11
155.239367028
 21
31.4649194539
  0
LINE
  8
0
 62
7
  6
CONTINUOUS
 10
159.4596793074
 20
31.1422825445
 11
160.442492028
 21
30.9809641124
  0
LINE
  8
0
 62
7
  6
CONTINUOUS
 10
160.615929528
 20
31.0777551716
 11
159.6331168074
 21
31.2390736489
  0
LINE
  8
0
 62
7
  6
CONTINUOUS
 10
153.1003044177
 20
31.5939741996
 11
152.9268669177
 21
31.626237886
  0
LINE
  8
0
 62
7
  6
CONTINUOUS
 10
159.401867028
 20
30.6583272086
 11
159.575304528
 21
30.6260635193
  0
LINE
  8
0
 62
7
  6
CONTINUOUS
 10
158.2456168074
 20
31.5939741996
 11
158.0721793074
 21
31.626237886
  0
LINE
  8
0
 62
7
  6
CONTINUOUS
 10
160.5003043074
 20
31.4649194539
 11
160.615929528
 21
31.4326557675
  0
LINE
  8
0
 62
7
  6
CONTINUOUS
 10
160.6737418074
 20
30.8519093441
 11
160.615929528
 21
30.7873819712
  0
LINE
  8
0
 62
7
  6
CONTINUOUS
 10
159.228429528
 20
31.5294468267
 11
159.1128043074
 21
31.4326557675
  0
LINE
  8
0
 62
7
  6
CONTINUOUS
 10
154.1409294177
 20
31.5617105132
 11
154.0253041972
 21
31.4971831403
  0
LINE
  8
0
 62
7
  6
CONTINUOUS
 10
154.1987416972
 20
31.1745462761
 11
154.0831168074
 21
31.1100188581
  0
LINE
  8
0
 62
7
  6
CONTINUOUS
 10
154.3143669177
 20
31.0132277988
 11
154.4299918074
 21
31.0777551716
  0
LINE
  8
0
 62
7
  6
CONTINUOUS
 10
151.8862417523
 20
30.5937998301
 11
152.1753043074
 21
30.5937998301
  0
LINE
  8
0
 62
7
  6
CONTINUOUS
 10
153.2159293074
 20
30.5937998301
 11
153.5049916972
 21
30.5937998301
  0
LINE
  8
0
 62
7
  6
CONTINUOUS
 10
154.5456166972
 20
30.5937998301
 11
154.8924916972
 21
30.5937998301
  0
LINE
  8
0
 62
7
  6
CONTINUOUS
 10
155.5284290869
 20
30.5937998301
 11
155.8174918074
 21
30.5937998301
  0
LINE
  8
0
 62
7
  6
CONTINUOUS
 10
156.279992028
 20
30.5937998301
 11
156.5690540869
 21
30.5937998301
  0
LINE
  8
0
 62
7
  6
CONTINUOUS
 10
157.0315543074
 20
30.5937998301
 11
157.320617028
 21
30.5937998301
  0
LINE
  8
0
 62
7
  6
CONTINUOUS
 10
158.361242028
 20
30.5937998301
 11
158.6503040869
 21
30.5937998301
  0
LINE
  8
0
 62
7
  6
CONTINUOUS
 10
159.922179528
 20
30.5937998301
 11
160.269054528
 21
30.5937998301
  0
LINE
  8
0
 62
7
  6
CONTINUOUS
 10
160.269054528
 20
30.7228545871
 11
159.922179528
 21
30.7228545871
  0
LINE
  8
0
 62
7
  6
CONTINUOUS
 10
154.8924916972
 20
30.7228545871
 11
154.5456166972
 21
30.7228545871
  0
LINE
  8
0
 62
7
  6
CONTINUOUS
 10
159.401867028
 20
30.8519093441
 11
159.1128043074
 21
30.8519093441
  0
LINE
  8
0
 62
7
  6
CONTINUOUS
 10
151.4237418626
 20
30.9164367395
 11
151.1346793074
 21
30.9164367395
  0
LINE
  8
0
 62
7
  6
CONTINUOUS
 10
150.498741835
 20
31.4971831403
 11
150.9034292799
 21
31.4649194539
  0
LINE
  8
0
 62
7
  6
CONTINUOUS
 10
150.9612418074
 20
31.5939741996
 11
150.5565542799
 21
31.626237886
  0
LINE
  8
0
 62
7
  6
CONTINUOUS
 10
159.575304528
 20
30.6260635193
 11
159.922179528
 21
30.5937998301
  0
LINE
  8
0
 62
7
  6
CONTINUOUS
 10
159.922179528
 20
30.7228545871
 11
159.575304528
 21
30.7551182848
  0
LINE
  8
0
 62
7
  6
CONTINUOUS
 10
155.3549915869
 20
31.5939741996
 11
155.0081169177
 21
31.626237886
  0
LINE
  8
0
 62
7
  6
CONTINUOUS
 10
160.1534293074
 20
31.4971831403
 11
160.5003043074
 21
31.4649194539
  0
LINE
  8
0
 62
7
  6
CONTINUOUS
 10
160.5003043074
 20
31.5939741996
 11
160.1534293074
 21
31.626237886
  0
LINE
  8
0
 62
7
  6
CONTINUOUS
 10
157.840929528
 20
31.4971831403
 11
158.0721793074
 21
31.4649194539
  0
LINE
  8
0
 62
7
  6
CONTINUOUS
 10
160.6737418074
 20
31.5617105132
 11
160.5003043074
 21
31.5939741996
  0
LINE
  8
0
 62
7
  6
CONTINUOUS
 10
160.8471793074
 20
30.6905909007
 11
160.9628038663
 21
30.7873819712
  0
LINE
  8
0
 62
7
  6
CONTINUOUS
 10
155.3549915869
 20
30.8841730531
 11
155.1815540869
 21
30.7873819712
  0
LINE
  8
0
 62
7
  6
CONTINUOUS
 10
157.4362415869
 20
31.5294468267
 11
157.320617028
 21
31.4649194539
  0
LINE
  8
0
 62
7
  6
CONTINUOUS
 10
157.320617028
 20
31.3358647082
 11
157.4362415869
 21
31.400392081
  0
LINE
  8
0
 62
7
  6
CONTINUOUS
 10
150.0362418212
 20
31.5617105132
 11
149.8628043005
 21
31.4971831403
  0
LINE
  8
0
 62
7
  6
CONTINUOUS
 10
152.4643666972
 20
31.5939741996
 11
152.2909293626
 21
31.5294468267
  0
LINE
  8
0
 62
7
  6
CONTINUOUS
 10
152.2909293626
 20
31.400392081
 11
152.4643666972
 21
31.4649194539
  0
LINE
  8
0
 62
7
  6
CONTINUOUS
 10
151.0768668626
 20
30.8196456577
 11
150.9034292799
 21
30.7551182848
  0
LINE
  8
0
 62
7
  6
CONTINUOUS
 10
160.5003043074
 20
30.7551182848
 11
160.269054528
 21
30.7228545871
  0
LINE
  8
0
 62
7
  6
CONTINUOUS
 10
154.8924916972
 20
30.5937998301
 11
155.1815540869
 21
30.6260635193
  0
LINE
  8
0
 62
7
  6
CONTINUOUS
 10
160.269054528
 20
30.5937998301
 11
160.615929528
 21
30.6260635193
  0
LINE
  8
0
 62
7
  6
CONTINUOUS
 10
150.5565542799
 20
30.5937998301
 11
150.9612418074
 21
30.6260635193
  0
LINE
  8
0
 62
7
  6
CONTINUOUS
 10
150.9034292799
 20
30.7551182848
 11
150.498741835
 21
30.7228545871
  0
LINE
  8
0
 62
7
  6
CONTINUOUS
 10
154.7768668074
 20
31.1422825445
 11
155.412804528
 21
31.1422825445
  0
LINE
  8
0
 62
7
  6
CONTINUOUS
 10
155.412804528
 20
31.2713373354
 11
154.7768668074
 21
31.2713373354
  0
LINE
  8
0
 62
7
  6
CONTINUOUS
 10
151.1346793074
 20
31.3036010218
 11
151.4237418626
 21
31.3036010218
  0
LINE
  8
0
 62
7
  6
CONTINUOUS
 10
153.9674919177
 20
31.3681283946
 11
154.2565543074
 21
31.3681283946
  0
LINE
  8
0
 62
7
  6
CONTINUOUS
 10
160.6737418074
 20
31.3681283946
 11
160.9628038663
 21
31.3681283946
  0
LINE
  8
0
 62
7
  6
CONTINUOUS
 10
154.6612419177
 20
31.4971831403
 11
155.0081169177
 21
31.4971831403
  0
LINE
  8
0
 62
7
  6
CONTINUOUS
 10
159.8065543074
 20
31.4971831403
 11
160.1534293074
 21
31.4971831403
  0
LINE
  8
0
 62
7
  6
CONTINUOUS
 10
160.1534293074
 20
31.626237886
 11
159.8065543074
 21
31.626237886
  0
LINE
  8
0
 62
7
  6
CONTINUOUS
 10
158.0721793074
 20
31.626237886
 11
157.840929528
 21
31.626237886
  0
LINE
  8
0
 62
7
  6
CONTINUOUS
 10
157.320617028
 20
31.626237886
 11
157.0315543074
 21
31.626237886
  0
LINE
  8
0
 62
7
  6
CONTINUOUS
 10
156.5690540869
 20
31.626237886
 11
156.279992028
 21
31.626237886
  0
LINE
  8
0
 62
7
  6
CONTINUOUS
 10
155.0081169177
 20
31.626237886
 11
154.6612419177
 21
31.626237886
  0
LINE
  8
0
 62
7
  6
CONTINUOUS
 10
152.9268669177
 20
31.626237886
 11
152.6956168074
 21
31.626237886
  0
LINE
  8
0
 62
7
  6
CONTINUOUS
 10
156.279992028
 20
31.9488748406
 11
156.5690540869
 21
31.9488748406
  0
LINE
  8
0
 62
7
  6
CONTINUOUS
 10
156.5690540869
 20
32.1101932727
 11
156.279992028
 21
32.1101932727
  0
LINE
  8
0
 62
7
  6
CONTINUOUS
 10
152.1753043074
 20
32.1101932727
 11
151.8862417523
 21
32.1101932727
  0
LINE
  8
0
 62
7
  6
CONTINUOUS
 10
151.2130860697
 20
32.3970785186
 11
151.6256574183
 21
32.3970785186
  0
LINE
  8
0
 62
7
  6
CONTINUOUS
 10
152.852430332
 20
32.3970785186
 11
154.245872955
 21
32.3970785186
  0
LINE
  8
0
 62
7
  6
CONTINUOUS
 10
154.5737418074
 20
32.3970785186
 11
155.9671844304
 21
32.3970785186
  0
LINE
  8
0
 62
7
  6
CONTINUOUS
 10
157.852430332
 20
32.3970785186
 11
159.245872955
 21
32.3970785186
  0
LINE
  8
0
 62
7
  6
CONTINUOUS
 10
159.5737418074
 20
32.3970785186
 11
160.9671844304
 21
32.3970785186
  0
LINE
  8
0
 62
7
  6
CONTINUOUS
 10
157.6096790869
 20
31.5939741996
 11
157.4362415869
 21
31.5294468267
  0
LINE
  8
0
 62
7
  6
CONTINUOUS
 10
155.1815540869
 20
30.6260635193
 11
155.3549915869
 21
30.6905909007
  0
LINE
  8
0
 62
7
  6
CONTINUOUS
 10
160.615929528
 20
30.6260635193
 11
160.8471793074
 21
30.6905909007
  0
LINE
  8
0
 62
7
  6
CONTINUOUS
 10
160.615929528
 20
30.7873819712
 11
160.5003043074
 21
30.7551182848
  0
LINE
  8
0
 62
7
  6
CONTINUOUS
 10
159.575304528
 20
31.4649194539
 11
159.8065543074
 21
31.4971831403
  0
LINE
  8
0
 62
7
  6
CONTINUOUS
 10
157.6096790869
 20
31.4649194539
 11
157.840929528
 21
31.4971831403
  0
LINE
  8
0
 62
7
  6
CONTINUOUS
 10
154.5456166972
 20
31.1100188581
 11
154.7768668074
 21
31.1422825445
  0
LINE
  8
0
 62
7
  6
CONTINUOUS
 10
157.840929528
 20
31.626237886
 11
157.6096790869
 21
31.5939741996
  0
LINE
  8
0
 62
7
  6
CONTINUOUS
 10
154.4299918074
 20
31.4649194539
 11
154.6612419177
 21
31.4971831403
  0
LINE
  8
0
 62
7
  6
CONTINUOUS
 10
159.8065543074
 20
31.626237886
 11
159.4596793074
 21
31.5939741996
  0
LINE
  8
0
 62
7
  6
CONTINUOUS
 10
154.7768668074
 20
31.2713373354
 11
154.4299918074
 21
31.2390736489
  0
LINE
  8
0
 62
7
  6
CONTINUOUS
 10
150.5565542799
 20
31.626237886
 11
150.2096793212
 21
31.5939741996
  0
LINE
  8
0
 62
7
  6
CONTINUOUS
 10
154.6612419177
 20
31.626237886
 11
154.2565543074
 21
31.5939741996
  0
LINE
  8
0
 62
7
  6
CONTINUOUS
 10
152.0327582009
 20
33.5446195022
 11
151.3770204959
 21
33.5446195022
  0
LINE
  8
0
 62
7
  6
CONTINUOUS
 10
157.4362415869
 20
31.400392081
 11
157.6096790869
 21
31.4649194539
  0
LINE
  8
0
 62
7
  6
CONTINUOUS
 10
159.4596793074
 20
31.4326557675
 11
159.575304528
 21
31.4649194539
  0
LINE
  8
0
 62
7
  6
CONTINUOUS
 10
159.4596793074
 20
31.5939741996
 11
159.228429528
 21
31.5294468267
  0
LINE
  8
0
 62
7
  6
CONTINUOUS
 10
155.1815540869
 20
30.7873819712
 11
154.8924916972
 21
30.7228545871
  0
LINE
  8
0
 62
7
  6
CONTINUOUS
 10
152.4643666972
 20
31.4649194539
 11
152.6956168074
 21
31.4971831403
  0
LINE
  8
0
 62
7
  6
CONTINUOUS
 10
152.6956168074
 20
31.626237886
 11
152.4643666972
 21
31.5939741996
  0
LINE
  8
0
 62
7
  6
CONTINUOUS
 10
150.2674918074
 20
31.4649194539
 11
150.498741835
 21
31.4971831403
  0
LINE
  8
0
 62
7
  6
CONTINUOUS
 10
156.7868565615
 20
35.0200293383
 11
157.4425942664
 21
35.0200293383
  0
LINE
  8
0
 62
7
  6
CONTINUOUS
 10
154.4299918074
 20
31.0777551716
 11
154.5456166972
 21
31.1100188581
  0
LINE
  8
0
 62
7
  6
CONTINUOUS
 10
154.4299918074
 20
31.2390736489
 11
154.1987416972
 21
31.1745462761
  0
LINE
  8
0
 62
7
  6
CONTINUOUS
 10
154.3143669177
 20
31.4326557675
 11
154.4299918074
 21
31.4649194539
  0
LINE
  8
0
 62
7
  6
CONTINUOUS
 10
150.9612418074
 20
30.6260635193
 11
151.1924917523
 21
30.6905909007
  0
LINE
  8
0
 62
7
  6
CONTINUOUS
 10
154.2565543074
 20
31.5939741996
 11
154.1409294177
 21
31.5617105132
  0
LINE
  8
0
 62
7
  6
CONTINUOUS
 10
150.2096793212
 20
31.5939741996
 11
150.0362418212
 21
31.5617105132
  0
LINE
  8
0
 62
7
  6
CONTINUOUS
 10
160.9671844304
 20
36.1675703219
 11
159.5737418074
 21
36.1675703219
  0
LINE
  8
0
 62
7
  6
CONTINUOUS
 10
157.6065286927
 20
36.1675703219
 11
157.1939573441
 21
36.1675703219
  0
LINE
  8
0
 62
7
  6
CONTINUOUS
 10
155.9671844304
 20
36.1675703219
 11
154.5737418074
 21
36.1675703219
  0
LINE
  8
0
 62
7
  6
CONTINUOUS
 10
154.245872955
 20
36.1675703219
 11
152.852430332
 21
36.1675703219
  0
LINE
  8
0
 62
7
  6
CONTINUOUS
 10
150.9671844304
 20
36.1675703219
 11
149.5737418074
 21
36.1675703219
  0
LINE
  8
0
 62
7
  6
CONTINUOUS
 10
150.1518667936
 20
31.4326557675
 11
150.2674918074
 21
31.4649194539
  0
CIRCLE
  8
0
 62
7
  6
CONTINUOUS
 10
160.2704631189
 20
38.5036358957
 40
2.0901639344
  0
ARC
  8
0
 62
7
  6
CONTINUOUS
 10
151.2130860697
 20
34.0364227809
 40
1.6393442623
 50
180.0
 51
270.0
  0
ARC
  8
0
 62
7
  6
CONTINUOUS
 10
157.6065286927
 20
34.5282260596
 40
1.6393442623
 50
0.0
 51
90.0
  0
ARC
  8
0
 62
7
  6
CONTINUOUS
 10
151.6256574183
 20
33.8724883547
 40
1.4754098361
 50
270.0
 51
326.2510114041
  0
ARC
  8
0
 62
7
  6
CONTINUOUS
 10
157.1939573441
 20
34.6921604858
 40
1.4754098361
 50
90.0
 51
146.2510114041
  0
ARC
  8
0
 62
7
  6
CONTINUOUS
 10
152.0327582009
 20
34.3642916334
 40
0.8196721311
 50
270.0
 51
360.0
  0
ARC
  8
0
 62
7
  6
CONTINUOUS
 10
156.7868565615
 20
34.2003572071
 40
0.8196721311
 50
90.0
 51
180.0
  0
ARC
  8
0
 62
7
  6
CONTINUOUS
 10
151.3770204959
 20
33.9544555678
 40
0.4098360656
 50
180.0
 51
270.0
  0
ARC
  8
0
 62
7
  6
CONTINUOUS
 10
157.4425942664
 20
34.6101932727
 40
0.4098360656
 50
0.0
 51
90.0
  0
SOLID
  8
0
 62
7
  6
CONTINUOUS
 10
156.279992028
 20
31.9488752009
 11
156.279992028
 21
32.1101936845
 12
156.5690540869
 22
31.9488752009
 13
156.5690540869
 23
32.1101936845
  0
SOLID
  8
0
 62
7
  6
CONTINUOUS
 10
150.5565542799
 20
31.6262382337
 11
150.9612418074
 21
31.5939740028
 12
150.2096793212
 22
31.5939740028
 13
150.2096793212
 23
31.5939740028
  0
SOLID
  8
0
 62
7
  6
CONTINUOUS
 10
150.0362418212
 20
31.5617111435
 11
150.2096793212
 21
31.5939740028
 12
150.9612418074
 22
31.5939740028
 13
150.9612418074
 23
31.5939740028
  0
SOLID
  8
0
 62
7
  6
CONTINUOUS
 10
150.9612418074
 20
31.5939740028
 11
151.1924917523
 21
31.5294468402
 12
150.0362418212
 22
31.5617111435
 13
150.0362418212
 23
31.5617111435
  0
SOLID
  8
0
 62
7
  6
CONTINUOUS
 10
149.8628043005
 20
31.49718259
 11
150.0362418212
 21
31.5617111435
 12
151.1924917523
 22
31.5294468402
 13
151.1924917523
 23
31.5294468402
  0
SOLID
  8
0
 62
7
  6
CONTINUOUS
 10
149.8628043005
 20
31.49718259
 11
151.1924917523
 21
31.5294468402
 12
150.498741835
 22
31.49718259
 13
150.498741835
 23
31.49718259
  0
SOLID
  8
0
 62
7
  6
CONTINUOUS
 10
150.498741835
 20
31.49718259
 11
151.1924917523
 21
31.5294468402
 12
150.9034292799
 22
31.4649197501
 13
150.9034292799
 23
31.4649197501
  0
SOLID
  8
0
 62
7
  6
CONTINUOUS
 10
151.1924917523
 20
31.5294468402
 11
151.3659292523
 21
31.4326554468
 12
150.9034292799
 22
31.4649197501
 13
150.9034292799
 23
31.4649197501
  0
SOLID
  8
0
 62
7
  6
CONTINUOUS
 10
151.0768668626
 20
31.4003926599
 11
150.9034292799
 21
31.4649197501
 12
151.3659292523
 22
31.4326554468
 13
151.3659292523
 23
31.4326554468
  0
SOLID
  8
0
 62
7
  6
CONTINUOUS
 10
151.0768668626
 20
31.4003926599
 11
151.3659292523
 21
31.4326554468
 12
151.1346793074
 22
31.3036013776
 13
151.1346793074
 23
31.3036013776
  0
SOLID
  8
0
 62
7
  6
CONTINUOUS
 10
151.3659292523
 20
31.4326554468
 11
151.4237418626
 21
31.3036013776
 12
151.1346793074
 22
31.3036013776
 13
151.1346793074
 23
31.3036013776
  0
SOLID
  8
0
 62
7
  6
CONTINUOUS
 10
152.4643666972
 20
31.5939739754
 11
152.6956168074
 21
31.6262382787
 12
152.9268669177
 22
31.6262382787
 13
152.9268669177
 23
31.6262382787
  0
SOLID
  8
0
 62
7
  6
CONTINUOUS
 10
152.9268669177
 20
31.6262382787
 11
153.1003044177
 21
31.5939739754
 12
152.4643666972
 22
31.5939739754
 13
152.4643666972
 23
31.5939739754
  0
SOLID
  8
0
 62
7
  6
CONTINUOUS
 10
152.2909293626
 20
31.5294468852
 11
152.4643666972
 21
31.5939739754
 12
153.1003044177
 22
31.5939739754
 13
153.1003044177
 23
31.5939739754
  0
SOLID
  8
0
 62
7
  6
CONTINUOUS
 10
153.1003044177
 20
31.5939739754
 11
153.2737419177
 21
31.5294468852
 12
152.2909293626
 22
31.5294468852
 13
152.2909293626
 23
31.5294468852
  0
SOLID
  8
0
 62
7
  6
CONTINUOUS
 10
153.2737419177
 20
31.5294468852
 11
152.6956168074
 21
31.4971825369
 12
152.2909293626
 22
31.5294468852
 13
152.2909293626
 23
31.5294468852
  0
SOLID
  8
0
 62
7
  6
CONTINUOUS
 10
152.1753043074
 20
31.4649197951
 11
152.2909293626
 21
31.5294468852
 12
152.6956168074
 22
31.4971825369
 13
152.6956168074
 23
31.4971825369
  0
SOLID
  8
0
 62
7
  6
CONTINUOUS
 10
152.6956168074
 20
31.4971825369
 11
152.4643666972
 21
31.4649197951
 12
152.1753043074
 22
31.4649197951
 13
152.1753043074
 23
31.4649197951
  0
SOLID
  8
0
 62
7
  6
CONTINUOUS
 10
152.6956168074
 20
31.4971825369
 11
153.2737419177
 21
31.5294468852
 12
152.9268669177
 22
31.4649197951
 13
152.9268669177
 23
31.4649197951
  0
SOLID
  8
0
 62
7
  6
CONTINUOUS
 10
153.2737419177
 20
31.5294468852
 11
153.3893668074
 21
31.4649197951
 12
152.9268669177
 22
31.4649197951
 13
152.9268669177
 23
31.4649197951
  0
SOLID
  8
0
 62
7
  6
CONTINUOUS
 10
153.0424918074
 20
31.4326554468
 11
152.9268669177
 21
31.4649197951
 12
153.3893668074
 22
31.4649197951
 13
153.3893668074
 23
31.4649197951
  0
SOLID
  8
0
 62
7
  6
CONTINUOUS
 10
153.3893668074
 20
31.4649197951
 11
153.4471794177
 21
31.4003927049
 12
153.0424918074
 22
31.4326554468
 13
153.0424918074
 23
31.4326554468
  0
SOLID
  8
0
 62
7
  6
CONTINUOUS
 10
153.1581166972
 20
31.3681283566
 11
153.0424918074
 21
31.4326554468
 12
153.4471794177
 22
31.4003927049
 13
153.4471794177
 23
31.4003927049
  0
SOLID
  8
0
 62
7
  6
CONTINUOUS
 10
153.1581166972
 20
31.3681283566
 11
153.4471794177
 21
31.4003927049
 12
153.2159293074
 22
31.2390742213
 13
153.2159293074
 23
31.2390742213
  0
SOLID
  8
0
 62
7
  6
CONTINUOUS
 10
153.4471794177
 20
31.4003927049
 11
153.5049916972
 21
31.2390742213
 12
153.2159293074
 22
31.2390742213
 13
153.2159293074
 23
31.2390742213
  0
SOLID
  8
0
 62
7
  6
CONTINUOUS
 10
152.4643666972
 20
31.4649197951
 11
152.2909293626
 21
31.4003927049
 12
152.1753043074
 22
31.4649197951
 13
152.1753043074
 23
31.4649197951
  0
SOLID
  8
0
 62
7
  6
CONTINUOUS
 10
152.2909293626
 20
31.4003927049
 11
152.1753043074
 21
31.3358640533
 12
152.1753043074
 22
31.4649197951
 13
152.1753043074
 23
31.4649197951
  0
SOLID
  8
0
 62
7
  6
CONTINUOUS
 10
152.1753043074
 20
31.3358640533
 11
151.8862417523
 21
30.5938002869
 12
152.1753043074
 22
31.4649197951
 13
152.1753043074
 23
31.4649197951
  0
SOLID
  8
0
 62
7
  6
CONTINUOUS
 10
152.1753043074
 20
31.4649197951
 11
151.8862417523
 21
30.5938002869
 12
152.1753043074
 22
32.1101937295
 13
152.1753043074
 23
32.1101937295
  0
SOLID
  8
0
 62
7
  6
CONTINUOUS
 10
151.8862417523
 20
30.5938002869
 11
151.8862417523
 21
32.1101937295
 12
152.1753043074
 22
32.1101937295
 13
152.1753043074
 23
32.1101937295
  0
SOLID
  8
0
 62
7
  6
CONTINUOUS
 10
152.1753043074
 20
31.3358640533
 11
152.1753043074
 21
30.5938002869
 12
151.8862417523
 22
30.5938002869
 13
151.8862417523
 23
30.5938002869
  0
SOLID
  8
0
 62
7
  6
CONTINUOUS
 10
153.2159293074
 20
30.5938002869
 11
153.2159293074
 21
31.2390742213
 12
153.5049916972
 22
31.2390742213
 13
153.5049916972
 23
31.2390742213
  0
SOLID
  8
0
 62
7
  6
CONTINUOUS
 10
153.5049916972
 20
31.2390742213
 11
153.5049916972
 21
30.5938002869
 12
153.2159293074
 22
30.5938002869
 13
153.2159293074
 23
30.5938002869
  0
SOLID
  8
0
 62
7
  6
CONTINUOUS
 10
154.2565543074
 20
31.5939738288
 11
154.6612419177
 21
31.6262385959
 12
155.0081169177
 22
31.6262385959
 13
155.0081169177
 23
31.6262385959
  0
SOLID
  8
0
 62
7
  6
CONTINUOUS
 10
155.0081169177
 20
31.6262385959
 11
155.3549915869
 21
31.5939738288
 12
154.2565543074
 22
31.5939738288
 13
154.2565543074
 23
31.5939738288
  0
SOLID
  8
0
 62
7
  6
CONTINUOUS
 10
154.1409294177
 20
31.5617111435
 11
154.2565543074
 21
31.5939738288
 12
155.3549915869
 22
31.5939738288
 13
155.3549915869
 23
31.5939738288
  0
SOLID
  8
0
 62
7
  6
CONTINUOUS
 10
155.3549915869
 20
31.5939738288
 11
155.5284290869
 21
31.5294468402
 12
154.1409294177
 22
31.5617111435
 13
154.1409294177
 23
31.5617111435
  0
SOLID
  8
0
 62
7
  6
CONTINUOUS
 10
154.0253041972
 20
31.4971826249
 11
154.1409294177
 21
31.5617111435
 12
155.5284290869
 22
31.5294468402
 13
155.5284290869
 23
31.5294468402
  0
SOLID
  8
0
 62
7
  6
CONTINUOUS
 10
154.0253041972
 20
31.4971826249
 11
155.5284290869
 21
31.5294468402
 12
154.6612419177
 22
31.4971826249
 13
154.6612419177
 23
31.4971826249
  0
SOLID
  8
0
 62
7
  6
CONTINUOUS
 10
154.6612419177
 20
31.4971826249
 11
155.5284290869
 21
31.5294468402
 12
155.0081169177
 22
31.4971826249
 13
155.0081169177
 23
31.4971826249
  0
SOLID
  8
0
 62
7
  6
CONTINUOUS
 10
155.0081169177
 20
31.4971826249
 11
155.5284290869
 21
31.5294468402
 12
155.239367028
 22
31.4649194065
 13
155.239367028
 23
31.4649194065
  0
SOLID
  8
0
 62
7
  6
CONTINUOUS
 10
155.5284290869
 20
31.5294468402
 11
155.6440543074
 21
31.4649194065
 12
155.239367028
 22
31.4649194065
 13
155.239367028
 23
31.4649194065
  0
SOLID
  8
0
 62
7
  6
CONTINUOUS
 10
153.9674919177
 20
31.4326554138
 11
154.0253041972
 21
31.4971826249
 12
154.6612419177
 22
31.4971826249
 13
154.6612419177
 23
31.4971826249
  0
SOLID
  8
0
 62
7
  6
CONTINUOUS
 10
155.3549915869
 20
31.4326554138
 11
155.239367028
 21
31.4649194065
 12
155.6440543074
 22
31.4649194065
 13
155.6440543074
 23
31.4649194065
  0
SOLID
  8
0
 62
7
  6
CONTINUOUS
 10
155.3549915869
 20
31.4326554138
 11
155.6440543074
 21
31.4649194065
 12
155.412804528
 22
31.3681282026
 13
155.412804528
 23
31.3681282026
  0
SOLID
  8
0
 62
7
  6
CONTINUOUS
 10
155.6440543074
 20
31.4649194065
 11
155.7018665869
 21
31.3681282026
 12
155.412804528
 22
31.3681282026
 13
155.412804528
 23
31.3681282026
  0
SOLID
  8
0
 62
7
  6
CONTINUOUS
 10
155.412804528
 20
31.2713369632
 11
155.412804528
 21
31.3681282026
 12
155.7018665869
 22
31.3681282026
 13
155.7018665869
 23
31.3681282026
  0
SOLID
  8
0
 62
7
  6
CONTINUOUS
 10
155.412804528
 20
31.2713369632
 11
155.7018665869
 21
31.3681282026
 12
155.412804528
 22
31.1422827828
 13
155.412804528
 23
31.1422827828
  0
SOLID
  8
0
 62
7
  6
CONTINUOUS
 10
155.412804528
 20
31.1422827828
 11
155.7018665869
 21
31.3681282026
 12
155.412804528
 22
30.9487004259
 13
155.412804528
 23
30.9487004259
  0
SOLID
  8
0
 62
7
  6
CONTINUOUS
 10
155.7018665869
 20
31.3681282026
 11
155.7018665869
 21
30.8519086025
 12
155.412804528
 22
30.9487004259
 13
155.412804528
 23
30.9487004259
  0
SOLID
  8
0
 62
7
  6
CONTINUOUS
 10
157.6096790869
 20
31.5939736268
 11
157.840929528
 21
31.6262383465
 12
158.0721793074
 22
31.6262383465
 13
158.0721793074
 23
31.6262383465
  0
SOLID
  8
0
 62
7
  6
CONTINUOUS
 10
158.0721793074
 20
31.6262383465
 11
158.2456168074
 21
31.5939736268
 12
157.6096790869
 22
31.5939736268
 13
157.6096790869
 23
31.5939736268
  0
SOLID
  8
0
 62
7
  6
CONTINUOUS
 10
157.4362415869
 20
31.5294472848
 11
157.6096790869
 21
31.5939736268
 12
158.2456168074
 22
31.5939736268
 13
158.2456168074
 23
31.5939736268
  0
SOLID
  8
0
 62
7
  6
CONTINUOUS
 10
158.2456168074
 20
31.5939736268
 11
158.4190543074
 21
31.5294472848
 12
157.4362415869
 22
31.5294472848
 13
157.4362415869
 23
31.5294472848
  0
SOLID
  8
0
 62
7
  6
CONTINUOUS
 10
158.4190543074
 20
31.5294472848
 11
157.840929528
 21
31.4971825369
 12
157.4362415869
 22
31.5294472848
 13
157.4362415869
 23
31.5294472848
  0
SOLID
  8
0
 62
7
  6
CONTINUOUS
 10
157.320617028
 20
31.4649199103
 11
157.4362415869
 21
31.5294472848
 12
157.840929528
 22
31.4971825369
 13
157.840929528
 23
31.4971825369
  0
SOLID
  8
0
 62
7
  6
CONTINUOUS
 10
157.840929528
 20
31.4971825369
 11
157.6096790869
 21
31.4649199103
 12
157.320617028
 22
31.4649199103
 13
157.320617028
 23
31.4649199103
  0
SOLID
  8
0
 62
7
  6
CONTINUOUS
 10
157.840929528
 20
31.4971825369
 11
158.4190543074
 21
31.5294472848
 12
158.0721793074
 22
31.4649199103
 13
158.0721793074
 23
31.4649199103
  0
SOLID
  8
0
 62
7
  6
CONTINUOUS
 10
158.4190543074
 20
31.5294472848
 11
158.534679528
 21
31.4649199103
 12
158.0721793074
 22
31.4649199103
 13
158.0721793074
 23
31.4649199103
  0
SOLID
  8
0
 62
7
  6
CONTINUOUS
 10
158.187804528
 20
31.4326554468
 11
158.0721793074
 21
31.4649199103
 12
158.534679528
 22
31.4649199103
 13
158.534679528
 23
31.4649199103
  0
SOLID
  8
0
 62
7
  6
CONTINUOUS
 10
158.187804528
 20
31.4326554468
 11
158.534679528
 21
31.4649199103
 12
158.3034290869
 22
31.3681288486
 13
158.3034290869
 23
31.3681288486
  0
SOLID
  8
0
 62
7
  6
CONTINUOUS
 10
158.534679528
 20
31.4649199103
 11
158.5924918074
 21
31.3681288486
 12
158.3034290869
 22
31.3681288486
 13
158.3034290869
 23
31.3681288486
  0
SOLID
  8
0
 62
7
  6
CONTINUOUS
 10
158.361242028
 20
31.2068093799
 11
158.3034290869
 21
31.3681288486
 12
158.5924918074
 22
31.3681288486
 13
158.5924918074
 23
31.3681288486
  0
SOLID
  8
0
 62
7
  6
CONTINUOUS
 10
158.5924918074
 20
31.3681288486
 11
158.6503040869
 21
31.2068093799
 12
158.361242028
 22
31.2068093799
 13
158.361242028
 23
31.2068093799
  0
SOLID
  8
0
 62
7
  6
CONTINUOUS
 10
157.6096790869
 20
31.4649199103
 11
157.4362415869
 21
31.4003926599
 12
157.320617028
 22
31.4649199103
 13
157.320617028
 23
31.4649199103
  0
SOLID
  8
0
 62
7
  6
CONTINUOUS
 10
157.4362415869
 20
31.4003926599
 11
157.320617028
 21
31.3358640533
 12
157.320617028
 22
31.4649199103
 13
157.320617028
 23
31.4649199103
  0
SOLID
  8
0
 62
7
  6
CONTINUOUS
 10
157.320617028
 20
31.3358640533
 11
157.0315543074
 21
30.5938003547
 12
157.320617028
 22
31.4649199103
 13
157.320617028
 23
31.4649199103
  0
SOLID
  8
0
 62
7
  6
CONTINUOUS
 10
157.320617028
 20
31.4649199103
 11
157.0315543074
 21
30.5938003547
 12
157.320617028
 22
31.6262383465
 13
157.320617028
 23
31.6262383465
  0
SOLID
  8
0
 62
7
  6
CONTINUOUS
 10
157.0315543074
 20
30.5938003547
 11
157.0315543074
 21
31.6262383465
 12
157.320617028
 22
31.6262383465
 13
157.320617028
 23
31.6262383465
  0
SOLID
  8
0
 62
7
  6
CONTINUOUS
 10
157.320617028
 20
31.3358640533
 11
157.320617028
 21
30.5938003547
 12
157.0315543074
 22
30.5938003547
 13
157.0315543074
 23
30.5938003547
  0
SOLID
  8
0
 62
7
  6
CONTINUOUS
 10
158.361242028
 20
30.5938003547
 11
158.361242028
 21
31.2068093799
 12
158.6503040869
 22
31.2068093799
 13
158.6503040869
 23
31.2068093799
  0
SOLID
  8
0
 62
7
  6
CONTINUOUS
 10
158.6503040869
 20
31.2068093799
 11
158.6503040869
 21
30.5938003547
 12
158.361242028
 22
30.5938003547
 13
158.361242028
 23
30.5938003547
  0
SOLID
  8
0
 62
7
  6
CONTINUOUS
 10
159.4596793074
 20
31.5939739474
 11
159.8065543074
 21
31.6262381969
 12
160.1534293074
 22
31.6262381969
 13
160.1534293074
 23
31.6262381969
  0
SOLID
  8
0
 62
7
  6
CONTINUOUS
 10
160.1534293074
 20
31.6262381969
 11
160.5003043074
 21
31.5939739474
 12
159.4596793074
 22
31.5939739474
 13
159.4596793074
 23
31.5939739474
  0
SOLID
  8
0
 62
7
  6
CONTINUOUS
 10
159.228429528
 20
31.5294468402
 11
159.4596793074
 21
31.5939739474
 12
160.5003043074
 22
31.5939739474
 13
160.5003043074
 23
31.5939739474
  0
SOLID
  8
0
 62
7
  6
CONTINUOUS
 10
159.228429528
 20
31.5294468402
 11
160.5003043074
 21
31.5939739304
 12
160.6737418074
 22
31.5617111435
 13
160.6737418074
 23
31.5617111435
  0
SOLID
  8
0
 62
7
  6
CONTINUOUS
 10
159.228429528
 20
31.5294468402
 11
160.6737418074
 21
31.5617111435
 12
159.8065543074
 22
31.4971825592
 13
159.8065543074
 23
31.4971825592
  0
SOLID
  8
0
 62
7
  6
CONTINUOUS
 10
159.8065543074
 20
31.4971825592
 11
160.6737418074
 21
31.5617111435
 12
160.1534293074
 22
31.4971825592
 13
160.1534293074
 23
31.4971825592
  0
SOLID
  8
0
 62
7
  6
CONTINUOUS
 10
160.6737418074
 20
31.5617111435
 11
160.8471793074
 21
31.4971825592
 12
160.1534293074
 22
31.4971825592
 13
160.1534293074
 23
31.4971825592
  0
SOLID
  8
0
 62
7
  6
CONTINUOUS
 10
160.5003043074
 20
31.4649197501
 11
160.1534293074
 21
31.4971825592
 12
160.8471793074
 22
31.4971825592
 13
160.8471793074
 23
31.4971825592
  0
SOLID
  8
0
 62
7
  6
CONTINUOUS
 10
159.1128043074
 20
31.4326555427
 11
159.228429528
 21
31.5294468402
 12
159.8065543074
 22
31.4971825592
 13
159.8065543074
 23
31.4971825592
  0
SOLID
  8
0
 62
7
  6
CONTINUOUS
 10
160.5003043074
 20
31.4649197501
 11
160.8471793074
 21
31.4971825592
 12
160.615929528
 22
31.4326555427
 13
160.615929528
 23
31.4326555427
  0
SOLID
  8
0
 62
7
  6
CONTINUOUS
 10
160.615929528
 20
31.4326555427
 11
160.8471793074
 21
31.4971825592
 12
160.6737418074
 22
31.3681283005
 13
160.6737418074
 23
31.3681283005
  0
SOLID
  8
0
 62
7
  6
CONTINUOUS
 10
160.8471793074
 20
31.4971825592
 11
160.9628038663
 21
31.3681283005
 12
160.6737418074
 22
31.3681283005
 13
160.6737418074
 23
31.3681283005
  0
SOLID
  8
0
 62
7
  6
CONTINUOUS
 10
150.2674918074
 20
31.4649197501
 11
149.7471793074
 21
31.4326554237
 12
150.498741835
 22
31.4971824493
 13
150.498741835
 23
31.4971824493
  0
SOLID
  8
0
 62
7
  6
CONTINUOUS
 10
149.7471793074
 20
31.4326554237
 11
149.8628043005
 21
31.4971824493
 12
150.498741835
 22
31.4971824493
 13
150.498741835
 23
31.4971824493
  0
SOLID
  8
0
 62
7
  6
CONTINUOUS
 10
150.2674918074
 20
31.4649197501
 11
150.1518667936
 21
31.4326554237
 12
149.7471793074
 22
31.4326554237
 13
149.7471793074
 23
31.4326554237
  0
SOLID
  8
0
 62
7
  6
CONTINUOUS
 10
149.6315543091
 20
31.3036012664
 11
149.7471793074
 21
31.4326554237
 12
150.1518667936
 22
31.4326554237
 13
150.1518667936
 23
31.4326554237
  0
SOLID
  8
0
 62
7
  6
CONTINUOUS
 10
153.9674919177
 20
31.4326554237
 11
154.6612419177
 21
31.4971825369
 12
154.4299918074
 22
31.4649197501
 13
154.4299918074
 23
31.4649197501
  0
SOLID
  8
0
 62
7
  6
CONTINUOUS
 10
154.4299918074
 20
31.4649197501
 11
154.3143669177
 21
31.4326554237
 12
153.9674919177
 22
31.4326554237
 13
153.9674919177
 23
31.4326554237
  0
SOLID
  8
0
 62
7
  6
CONTINUOUS
 10
153.9674919177
 20
31.3681283335
 11
153.9674919177
 21
31.4326554237
 12
154.3143669177
 22
31.4326554237
 13
154.3143669177
 23
31.4326554237
  0
SOLID
  8
0
 62
7
  6
CONTINUOUS
 10
154.3143669177
 20
31.4326554237
 11
154.2565543074
 21
31.3681283335
 12
153.9674919177
 22
31.3681283335
 13
153.9674919177
 23
31.3681283335
  0
SOLID
  8
0
 62
7
  6
CONTINUOUS
 10
159.1128043074
 20
31.4326555528
 11
159.8065543074
 21
31.4971825369
 12
159.575304528
 22
31.4649197501
 13
159.575304528
 23
31.4649197501
  0
SOLID
  8
0
 62
7
  6
CONTINUOUS
 10
159.575304528
 20
31.4649197501
 11
159.4596793074
 21
31.4326555528
 12
159.1128043074
 22
31.4326555528
 13
159.1128043074
 23
31.4326555528
  0
SOLID
  8
0
 62
7
  6
CONTINUOUS
 10
159.1128043074
 20
31.3681284626
 11
159.1128043074
 21
31.4326555528
 12
159.4596793074
 22
31.4326555528
 13
159.4596793074
 23
31.4326555528
  0
SOLID
  8
0
 62
7
  6
CONTINUOUS
 10
159.4596793074
 20
31.4326555528
 11
159.401867028
 21
31.3681284626
 12
159.1128043074
 22
31.3681284626
 13
159.1128043074
 23
31.3681284626
  0
SOLID
  8
0
 62
7
  6
CONTINUOUS
 10
159.228429528
 20
31.2390741763
 11
159.1128043074
 21
31.3681284626
 12
159.401867028
 22
31.3681284626
 13
159.401867028
 23
31.3681284626
  0
SOLID
  8
0
 62
7
  6
CONTINUOUS
 10
149.6315543091
 20
31.3036012664
 11
150.1518667936
 21
31.4326554468
 12
149.9784292936
 22
31.3358640533
 13
149.9784292936
 23
31.3358640533
  0
SOLID
  8
0
 62
7
  6
CONTINUOUS
 10
149.9784292936
 20
31.3358640533
 11
149.9206168074
 21
31.2713369632
 12
149.6315543091
 22
31.3036012664
 13
149.6315543091
 23
31.3036012664
  0
SOLID
  8
0
 62
7
  6
CONTINUOUS
 10
149.5737418074
 20
31.1100184796
 11
149.6315543091
 21
31.3036012664
 12
149.9206168074
 22
31.2713369632
 13
149.9206168074
 23
31.2713369632
  0
SOLID
  8
0
 62
7
  6
CONTINUOUS
 10
154.4299918074
 20
31.2390741763
 11
154.7768668074
 21
31.271336924
 12
155.412804528
 22
31.271336924
 13
155.412804528
 23
31.271336924
  0
SOLID
  8
0
 62
7
  6
CONTINUOUS
 10
154.4299918074
 20
31.2390741763
 11
155.412804528
 21
31.271336924
 12
154.1987416972
 22
31.1745462761
 13
154.1987416972
 23
31.1745462761
  0
SOLID
  8
0
 62
7
  6
CONTINUOUS
 10
154.1987416972
 20
31.1745462761
 11
155.412804528
 21
31.271336924
 12
154.7768668074
 22
31.1422827436
 13
154.7768668074
 23
31.1422827436
  0
SOLID
  8
0
 62
7
  6
CONTINUOUS
 10
155.412804528
 20
31.271336924
 11
155.412804528
 21
31.1422827436
 12
154.7768668074
 22
31.1422827436
 13
154.7768668074
 23
31.1422827436
  0
SOLID
  8
0
 62
7
  6
CONTINUOUS
 10
159.228429528
 20
31.2390745501
 11
159.401867028
 21
31.3681283566
 12
159.4596793074
 22
31.3036012664
 13
159.4596793074
 23
31.3036012664
  0
SOLID
  8
0
 62
7
  6
CONTINUOUS
 10
159.4596793074
 20
31.3036012664
 11
159.6331168074
 21
31.2390745501
 12
159.228429528
 22
31.2390745501
 13
159.228429528
 23
31.2390745501
  0
SOLID
  8
0
 62
7
  6
CONTINUOUS
 10
159.4596793074
 20
31.1422827828
 11
159.228429528
 21
31.2390745501
 12
159.6331168074
 22
31.2390745501
 13
159.6331168074
 23
31.2390745501
  0
SOLID
  8
0
 62
7
  6
CONTINUOUS
 10
159.6331168074
 20
31.2390745501
 11
160.615929528
 21
31.0777556927
 12
159.4596793074
 22
31.1422827828
 13
159.4596793074
 23
31.1422827828
  0
SOLID
  8
0
 62
7
  6
CONTINUOUS
 10
160.442492028
 20
30.9809646623
 11
159.4596793074
 21
31.1422827828
 12
160.615929528
 22
31.0777556927
 13
160.615929528
 23
31.0777556927
  0
SOLID
  8
0
 62
7
  6
CONTINUOUS
 10
160.615929528
 20
31.0777556927
 11
160.8471793074
 21
30.9809646623
 12
160.442492028
 22
30.9809646623
 13
160.442492028
 23
30.9809646623
  0
SOLID
  8
0
 62
7
  6
CONTINUOUS
 10
160.615929528
 20
30.9164372091
 11
160.442492028
 21
30.9809646623
 12
160.8471793074
 22
30.9809646623
 13
160.8471793074
 23
30.9809646623
  0
SOLID
  8
0
 62
7
  6
CONTINUOUS
 10
160.615929528
 20
30.9164372091
 11
160.8471793074
 21
30.9809646623
 12
160.6737418074
 22
30.8519089441
 13
160.6737418074
 23
30.8519089441
  0
SOLID
  8
0
 62
7
  6
CONTINUOUS
 10
160.8471793074
 20
30.9809646623
 11
160.9628038663
 21
30.8519089441
 12
160.6737418074
 22
30.8519089441
 13
160.6737418074
 23
30.8519089441
  0
SOLID
  8
0
 62
7
  6
CONTINUOUS
 10
160.615929528
 20
30.7873818593
 11
160.6737418074
 21
30.8519089441
 12
160.9628038663
 22
30.8519089441
 13
160.9628038663
 23
30.8519089441
  0
SOLID
  8
0
 62
7
  6
CONTINUOUS
 10
160.9628038663
 20
30.8519089441
 11
160.9628038663
 21
30.7873818593
 12
160.615929528
 22
30.7873818593
 13
160.615929528
 23
30.7873818593
  0
SOLID
  8
0
 62
7
  6
CONTINUOUS
 10
160.5003043074
 20
30.7551187255
 11
160.615929528
 21
30.7873818593
 12
160.9628038663
 22
30.7873818593
 13
160.9628038663
 23
30.7873818593
  0
SOLID
  8
0
 62
7
  6
CONTINUOUS
 10
160.5003043074
 20
30.7551187255
 11
160.9628038663
 21
30.7873818593
 12
160.269054528
 22
30.7228547745
 13
160.269054528
 23
30.7228547745
  0
SOLID
  8
0
 62
7
  6
CONTINUOUS
 10
160.9628038663
 20
30.7873818593
 11
160.8471793074
 21
30.6905916353
 12
160.269054528
 22
30.7228547745
 13
160.269054528
 23
30.7228547745
  0
SOLID
  8
0
 62
7
  6
CONTINUOUS
 10
160.8471793074
 20
30.6905916353
 11
159.401867028
 21
30.658327332
 12
160.269054528
 22
30.7228547745
 13
160.269054528
 23
30.7228547745
  0
SOLID
  8
0
 62
7
  6
CONTINUOUS
 10
160.269054528
 20
30.7228547745
 11
159.401867028
 21
30.658327332
 12
159.922179528
 22
30.7228547745
 13
159.922179528
 23
30.7228547745
  0
SOLID
  8
0
 62
7
  6
CONTINUOUS
 10
159.401867028
 20
30.658327332
 11
159.228429528
 21
30.7228547745
 12
159.922179528
 22
30.7228547745
 13
159.922179528
 23
30.7228547745
  0
SOLID
  8
0
 62
7
  6
CONTINUOUS
 10
159.401867028
 20
30.658327332
 11
160.8471793074
 21
30.6905916353
 12
159.575304528
 22
30.6260629858
 13
159.575304528
 23
30.6260629858
  0
SOLID
  8
0
 62
7
  6
CONTINUOUS
 10
160.8471793074
 20
30.6905916353
 11
160.615929528
 21
30.6260629858
 12
159.575304528
 22
30.6260629858
 13
159.575304528
 23
30.6260629858
  0
SOLID
  8
0
 62
7
  6
CONTINUOUS
 10
159.922179528
 20
30.5938006049
 11
159.575304528
 21
30.6260629858
 12
160.615929528
 22
30.6260629858
 13
160.615929528
 23
30.6260629858
  0
SOLID
  8
0
 62
7
  6
CONTINUOUS
 10
160.615929528
 20
30.6260629858
 11
160.269054528
 21
30.5938006049
 12
159.922179528
 22
30.5938006049
 13
159.922179528
 23
30.5938006049
  0
SOLID
  8
0
 62
7
  6
CONTINUOUS
 10
149.5737418074
 20
31.1100184796
 11
149.9206168074
 21
31.2713369632
 12
149.8628043005
 22
31.1422827828
 13
149.8628043005
 23
31.1422827828
  0
SOLID
  8
0
 62
7
  6
CONTINUOUS
 10
149.8628043005
 20
31.1422827828
 11
149.8628043005
 21
31.0454914852
 12
149.5737418074
 22
31.1100184796
 13
149.5737418074
 23
31.1100184796
  0
SOLID
  8
0
 62
7
  6
CONTINUOUS
 10
149.6315543091
 20
30.9164372091
 11
149.5737418074
 21
31.1100184796
 12
149.8628043005
 22
31.0454914852
 13
149.8628043005
 23
31.0454914852
  0
SOLID
  8
0
 62
7
  6
CONTINUOUS
 10
149.8628043005
 20
31.0454914852
 11
149.9784292936
 21
30.8841729058
 12
149.6315543091
 22
30.9164372091
 13
149.6315543091
 23
30.9164372091
  0
SOLID
  8
0
 62
7
  6
CONTINUOUS
 10
149.7471793074
 20
30.7873813202
 11
149.6315543091
 21
30.9164372091
 12
149.9784292936
 22
30.8841729058
 13
149.9784292936
 23
30.8841729058
  0
SOLID
  8
0
 62
7
  6
CONTINUOUS
 10
149.9784292936
 20
30.8841729058
 11
150.1518667936
 21
30.7873813202
 12
149.7471793074
 22
30.7873813202
 13
149.7471793074
 23
30.7873813202
  0
SOLID
  8
0
 62
7
  6
CONTINUOUS
 10
149.8628043005
 20
30.7228547004
 11
149.7471793074
 21
30.7873813202
 12
150.1518667936
 22
30.7873813202
 13
150.1518667936
 23
30.7873813202
  0
SOLID
  8
0
 62
7
  6
CONTINUOUS
 10
150.1518667936
 20
30.7873813202
 11
150.498741835
 21
30.7228547004
 12
149.8628043005
 22
30.7228547004
 13
149.8628043005
 23
30.7228547004
  0
SOLID
  8
0
 62
7
  6
CONTINUOUS
 10
150.0362418212
 20
30.658327332
 11
149.8628043005
 21
30.7228547004
 12
150.498741835
 22
30.7228547004
 13
150.498741835
 23
30.7228547004
  0
SOLID
  8
0
 62
7
  6
CONTINUOUS
 10
154.0831168074
 20
31.1100184386
 11
154.1987416972
 21
31.1745462761
 12
154.7768668074
 22
31.1422827828
 13
154.7768668074
 23
31.1422827828
  0
SOLID
  8
0
 62
7
  6
CONTINUOUS
 10
154.7768668074
 20
31.1422827828
 11
154.5456166972
 21
31.1100184386
 12
154.0831168074
 22
31.1100184386
 13
154.0831168074
 23
31.1100184386
  0
SOLID
  8
0
 62
7
  6
CONTINUOUS
 10
153.9674919177
 20
30.9809642992
 11
154.0831168074
 21
31.1100184386
 12
154.5456166972
 22
31.1100184386
 13
154.5456166972
 23
31.1100184386
  0
SOLID
  8
0
 62
7
  6
CONTINUOUS
 10
154.3143669177
 20
31.0132277988
 11
153.9674919177
 21
30.9809642992
 12
154.4299918074
 22
31.0777556927
 13
154.4299918074
 23
31.0777556927
  0
SOLID
  8
0
 62
7
  6
CONTINUOUS
 10
153.9674919177
 20
30.9809642992
 11
154.5456166972
 21
31.1100184796
 12
154.4299918074
 22
31.0777556927
 13
154.4299918074
 23
31.0777556927
  0
SOLID
  8
0
 62
7
  6
CONTINUOUS
 10
154.3143669177
 20
31.0132277988
 11
154.2565543074
 21
30.9164372091
 12
153.9674919177
 22
30.9809642992
 13
153.9674919177
 23
30.9809642992
  0
SOLID
  8
0
 62
7
  6
CONTINUOUS
 10
153.9674919177
 20
30.8841729058
 11
153.9674919177
 21
30.9809642992
 12
154.2565543074
 22
30.9164372091
 13
154.2565543074
 23
30.9164372091
  0
SOLID
  8
0
 62
7
  6
CONTINUOUS
 10
154.2565543074
 20
30.9164372091
 11
154.2565543074
 21
30.8519086025
 12
153.9674919177
 22
30.8841729058
 13
153.9674919177
 23
30.8841729058
  0
SOLID
  8
0
 62
7
  6
CONTINUOUS
 10
154.0253041972
 20
30.7551187255
 11
153.9674919177
 21
30.8841729058
 12
154.2565543074
 22
30.8519086025
 13
154.2565543074
 23
30.8519086025
  0
SOLID
  8
0
 62
7
  6
CONTINUOUS
 10
155.412804528
 20
30.9487004259
 11
155.7018665869
 21
30.8519086025
 12
155.3549915869
 22
30.8841729058
 13
155.3549915869
 23
30.8841729058
  0
SOLID
  8
0
 62
7
  6
CONTINUOUS
 10
155.1815540869
 20
30.7873815123
 11
155.3549915869
 21
30.8841729058
 12
155.7018665869
 22
30.8519086025
 13
155.7018665869
 23
30.8519086025
  0
SOLID
  8
0
 62
7
  6
CONTINUOUS
 10
155.1815540869
 20
30.7873815123
 11
155.7018665869
 21
30.8519086025
 12
155.412804528
 22
30.7551187255
 13
155.412804528
 23
30.7551187255
  0
SOLID
  8
0
 62
7
  6
CONTINUOUS
 10
155.7018665869
 20
30.8519086025
 11
155.759679528
 21
30.6905916353
 12
155.412804528
 22
30.7551187255
 13
155.412804528
 23
30.7551187255
  0
SOLID
  8
0
 62
7
  6
CONTINUOUS
 10
155.4706168074
 20
30.658327332
 11
155.412804528
 21
30.7551187255
 12
155.759679528
 22
30.6905916353
 13
155.759679528
 23
30.6905916353
  0
SOLID
  8
0
 62
7
  6
CONTINUOUS
 10
155.4706168074
 20
30.658327332
 11
155.759679528
 21
30.6905916353
 12
155.5284290869
 22
30.5938002079
 13
155.5284290869
 23
30.5938002079
  0
SOLID
  8
0
 62
7
  6
CONTINUOUS
 10
155.759679528
 20
30.6905916353
 11
155.8174918074
 21
30.5938002079
 12
155.5284290869
 22
30.5938002079
 13
155.5284290869
 23
30.5938002079
  0
SOLID
  8
0
 62
7
  6
CONTINUOUS
 10
151.0768668626
 20
30.8196456577
 11
151.1346793074
 21
30.9164373395
 12
151.4237418626
 22
30.9164373395
 13
151.4237418626
 23
30.9164373395
  0
SOLID
  8
0
 62
7
  6
CONTINUOUS
 10
151.4237418626
 20
30.9164373395
 11
151.3659292523
 21
30.7873815123
 12
151.0768668626
 22
30.8196456577
 13
151.0768668626
 23
30.8196456577
  0
SOLID
  8
0
 62
7
  6
CONTINUOUS
 10
150.9034292799
 20
30.7551187255
 11
151.0768668626
 21
30.8196456577
 12
151.3659292523
 22
30.7873815123
 13
151.3659292523
 23
30.7873815123
  0
SOLID
  8
0
 62
7
  6
CONTINUOUS
 10
150.9034292799
 20
30.7551187255
 11
151.3659292523
 21
30.7873815123
 12
150.498741835
 22
30.7228544222
 13
150.498741835
 23
30.7228544222
  0
SOLID
  8
0
 62
7
  6
CONTINUOUS
 10
151.3659292523
 20
30.7873815123
 11
151.1924917523
 21
30.6905916353
 12
150.498741835
 22
30.7228544222
 13
150.498741835
 23
30.7228544222
  0
SOLID
  8
0
 62
7
  6
CONTINUOUS
 10
150.0362418212
 20
30.658327332
 11
150.498741835
 21
30.7228544222
 12
151.1924917523
 22
30.6905916353
 13
151.1924917523
 23
30.6905916353
  0
SOLID
  8
0
 62
7
  6
CONTINUOUS
 10
150.0362418212
 20
30.658327332
 11
151.1924917523
 21
30.6905916353
 12
150.2096793212
 22
30.6260631011
 13
150.2096793212
 23
30.6260631011
  0
SOLID
  8
0
 62
7
  6
CONTINUOUS
 10
151.1924917523
 20
30.6905916353
 11
150.9612418074
 21
30.6260631011
 12
150.2096793212
 22
30.6260631011
 13
150.2096793212
 23
30.6260631011
  0
SOLID
  8
0
 62
7
  6
CONTINUOUS
 10
150.5565542799
 20
30.5938002419
 11
150.2096793212
 21
30.6260631011
 12
150.9612418074
 22
30.6260631011
 13
150.9612418074
 23
30.6260631011
  0
SOLID
  8
0
 62
7
  6
CONTINUOUS
 10
154.0253041972
 20
30.7551187255
 11
154.2565543074
 21
30.8519086025
 12
154.3143669177
 22
30.7873815123
 13
154.3143669177
 23
30.7873815123
  0
SOLID
  8
0
 62
7
  6
CONTINUOUS
 10
154.3143669177
 20
30.7873815123
 11
154.5456166972
 21
30.7228544222
 12
154.0253041972
 22
30.7551187255
 13
154.0253041972
 23
30.7551187255
  0
SOLID
  8
0
 62
7
  6
CONTINUOUS
 10
154.1987416972
 20
30.658327332
 11
154.0253041972
 21
30.7551187255
 12
154.5456166972
 22
30.7228544222
 13
154.5456166972
 23
30.7228544222
  0
SOLID
  8
0
 62
7
  6
CONTINUOUS
 10
154.8924916972
 20
30.7228544637
 11
155.1815540869
 21
30.7873815123
 12
155.412804528
 22
30.7551187255
 13
155.412804528
 23
30.7551187255
  0
SOLID
  8
0
 62
7
  6
CONTINUOUS
 10
155.412804528
 20
30.7551187255
 11
155.3549915869
 21
30.6905916353
 12
154.8924916972
 22
30.7228544637
 13
154.8924916972
 23
30.7228544637
  0
SOLID
  8
0
 62
7
  6
CONTINUOUS
 10
155.3549915869
 20
30.6905916353
 11
154.1987416972
 21
30.658327332
 12
154.8924916972
 22
30.7228544637
 13
154.8924916972
 23
30.7228544637
  0
SOLID
  8
0
 62
7
  6
CONTINUOUS
 10
154.1987416972
 20
30.658327332
 11
154.5456166972
 21
30.7228544637
 12
154.8924916972
 22
30.7228544637
 13
154.8924916972
 23
30.7228544637
  0
SOLID
  8
0
 62
7
  6
CONTINUOUS
 10
154.1987416972
 20
30.658327332
 11
155.3549915869
 21
30.6905916353
 12
154.3143669177
 22
30.6260630541
 13
154.3143669177
 23
30.6260630541
  0
SOLID
  8
0
 62
7
  6
CONTINUOUS
 10
155.3549915869
 20
30.6905916353
 11
155.1815540869
 21
30.6260630541
 12
154.3143669177
 22
30.6260630541
 13
154.3143669177
 23
30.6260630541
  0
SOLID
  8
0
 62
7
  6
CONTINUOUS
 10
154.5456166972
 20
30.5938002188
 11
154.3143669177
 21
30.6260630541
 12
155.1815540869
 22
30.6260630541
 13
155.1815540869
 23
30.6260630541
  0
SOLID
  8
0
 62
7
  6
CONTINUOUS
 10
155.1815540869
 20
30.6260630541
 11
154.8924916972
 21
30.5938002188
 12
154.5456166972
 22
30.5938002188
 13
154.5456166972
 23
30.5938002188
  0
SOLID
  8
0
 62
7
  6
CONTINUOUS
 10
159.575304528
 20
30.7551187255
 11
159.228429528
 21
30.7228544637
 12
159.4596793074
 22
30.7873815123
 13
159.4596793074
 23
30.7873815123
  0
SOLID
  8
0
 62
7
  6
CONTINUOUS
 10
159.4596793074
 20
30.7873815123
 11
159.228429528
 21
30.7228544637
 12
159.401867028
 22
30.851908644
 13
159.401867028
 23
30.851908644
  0
SOLID
  8
0
 62
7
  6
CONTINUOUS
 10
159.228429528
 20
30.7228544637
 11
159.1128043074
 21
30.851908644
 12
159.401867028
 22
30.851908644
 13
159.401867028
 23
30.851908644
  0
SOLID
  8
0
 62
7
  6
CONTINUOUS
 10
159.575304528
 20
30.7551187255
 11
159.922179528
 21
30.7228544637
 12
159.228429528
 22
30.7228544637
 13
159.228429528
 23
30.7228544637
  0
SOLID
  8
0
 62
7
  6
CONTINUOUS
 10
156.279992028
 20
30.5938002419
 11
156.279992028
 21
31.6262382337
 12
156.5690540869
 22
30.5938002419
 13
156.5690540869
 23
31.6262382337
  0
ENDBLK
  8
0
  6
BYBLOCK
 62
0
  0
BLOCK
  8
0
 62
2
  6
CONTINUOUS
  2
SYMBOL_3_BL0
 70
64
 10
32.1213064866
 20
19.8534310916
  0
TEXT
  8
0
 62
7
  6
CONTINUOUS
 10
18.3860103289
 20
19.2268451992
  7
TEXTSTYLE_3
 40
2.7338706658
  1
Ammeraal Beltech
 41
1.0
 51
15.0
 72
0
  0
TEXT
  8
0
 62
7
  6
CONTINUOUS
 10
29.1868111546
 20
16.9533085264
  7
TEXTSTYLE_4
 40
1.0935482663
  1
Innovation & Service in Belting
 41
1.0
 72
0
  0
LINE
  8
0
 62
7
  6
CONTINUOUS
 10
12.3614696776
 20
19.9934385078
 11
13.1396216709
 21
23.6543558055
  0
LINE
  8
0
 62
7
  6
CONTINUOUS
 10
23.2347899607
 20
27.3177497171
 11
13.6274394139
 21
24.1961322958
  0
LINE
  8
0
 62
7
  6
CONTINUOUS
 10
12.5867530099
 20
19.3000877048
 11
20.093828271
 21
12.5406867788
  0
LINE
  8
0
 62
7
  6
CONTINUOUS
 10
12.8492874206
 20
20.5352149982
 11
23.6575567857
 21
24.0470345971
  0
LINE
  8
0
 62
7
  6
CONTINUOUS
 10
23.6533516486
 20
13.6972460334
 11
15.2078919798
 21
21.3015720751
  0
LINE
  8
0
 62
7
  6
CONTINUOUS
 10
24.1731743684
 20
26.4728246013
 11
23.1966148312
 21
21.8784731989
  0
LINE
  8
0
 62
7
  6
CONTINUOUS
 10
22.4968128835
 20
18.5861638851
 11
21.810364672
 21
15.3566789607
  0
LINE
  8
0
 62
7
  6
CONTINUOUS
 10
24.8542704669
 20
14.087448211
 11
25.8105020025
 21
18.5861638851
  0
LINE
  8
0
 62
7
  6
CONTINUOUS
 10
26.5103039502
 20
21.8784731989
 11
26.9545457526
 21
23.9684665583
  0
LINE
  8
0
 62
7
  6
CONTINUOUS
 10
20.8069293463
 20
12.3891124661
 11
24.3664527239
 21
13.5456717207
  0
LINE
  8
0
 62
7
  6
CONTINUOUS
 10
23.9478910361
 20
27.1661754044
 11
26.7292624203
 21
24.6618173613
  0
ARC
  8
0
 62
7
  6
CONTINUOUS
 10
13.8527227462
 20
23.5027814928
 40
0.7290321776
 50
108.0
 51
168.0
  0
ARC
  8
0
 62
7
  6
CONTINUOUS
 10
23.4600732931
 20
26.624398914
 40
0.7290321776
 50
348.0
 51
108.0
  0
ARC
  8
0
 62
7
  6
CONTINUOUS
 10
26.2414446773
 20
24.120040871
 40
0.7290321776
 50
348.0
 51
48.0
  0
ARC
  8
0
 62
7
  6
CONTINUOUS
 10
20.581646014
 20
13.0824632691
 40
0.7290321776
 50
228.0
 51
288.0
  0
ARC
  8
0
 62
7
  6
CONTINUOUS
 10
13.0745707529
 20
19.8418641951
 40
0.7290321776
 50
108.0
 51
228.0
  0
ARC
  8
0
 62
7
  6
CONTINUOUS
 10
24.1411693916
 20
14.2390225237
 40
0.7290321776
 50
228.0
 51
348.0
  0
ENDBLK
  8
0
  6
BYBLOCK
 62
0
  0
ENDSEC
  0
SECTION
  2
ENTITIES
  0
TEXT
  8
0
 62
5
  6
CONTINUOUS
 10
96.0
 20
25.636
  7
TEXTSTYLE_2
 40
2.8
  1
Scale :
 41
0.6
 51
0.000019
 72
0
  0
TEXT
  8
0
 62
5
  6
CONTINUOUS
 10
116.0
 20
25.636
  7
TEXTSTYLE_2
 40
2.8
  1
Belt type:
 41
0.6
 51
0.000019
 72
0
  0
INSERT
  8
0
 62
2
  6
CONTINUOUS
  2
SYMBOL_3_BL0
 10
32.1213064866
 20
19.8534310916
  0
INSERT
  8
0
 62
2
  6
CONTINUOUS
  2
SYMBOL_8_BL1
 10
173.5956734183
 20
35.5937998301
  0
LINE
  8
0
 62
2
  6
CONTINUOUS
 10
10.0
 20
30.0
 11
200.0
 21
30.0
  0
LINE
  8
0
 62
2
  6
CONTINUOUS
 10
10.0
 20
30.0
 11
10.0
 21
10.0
  0
LINE
  8
0
 62
2
  6
CONTINUOUS
 10
10.0
 20
10.0
 11
200.0
 21
10.0
  0
LINE
  8
0
 62
2
  6
CONTINUOUS
 10
95.0
 20
30.0
 11
95.0
 21
10.0
  0
LINE
  8
0
 62
2
  6
CONTINUOUS
 10
115.0
 20
30.0
 11
115.0
 21
10.0
  0
LINE
  8
0
 62
2
  6
CONTINUOUS
 10
200.0
 20
30.0
 11
200.0
 21
10.0
  0
TEXT
  8
0
 62
5
  6
CONTINUOUS
 10
13.0
 20
23.303
  7
TEXTSTYLE_5
 40
1.52
  1
                                                                     Ammeraal Beltech Modular A/S
 41
1.0
 72
0
  0
TEXT
  8
0
 62
5
  6
CONTINUOUS
 10
13.0
 20
20.595
  7
TEXTSTYLE_5
 40
1.5
  1
                                                                      Hjulmagervej 21,  7100 Vejle,  DK
 41
1.0
 72
0
  0
TEXT
  8
0
 62
5
  6
CONTINUOUS
 10
13.0
 20
17.881
  7
TEXTSTYLE_5
 40
1.495
  1
                                                                      tel: 
 41
1.0
 72
0
  0
TEXT
  8
0
 62
5
  6
CONTINUOUS
 10
57.9869465649
 20
17.881
  7
TEXTSTYLE_5
 40
1.51
  1
+45 75723100     fax: +45 75723348
 41
1.0
 72
0
  0
TEXT
  8
0
 62
5
  6
CONTINUOUS
 10
13.0
 20
15.177
  7
TEXTSTYLE_5
 40
1.5
  1
                                                                      admin@unichains.dk  www.unichains.com
 41
1.0
 72
0
  0
TEXT
  8
0
 62
5
  6
CONTINUOUS
 10
99.75
 20
13.75
  7
TEXTSTYLE_6
 40
5.0
  1
1:1
 41
0.7
 72
1
 11
105.0
 21
13.75
  0
TEXT
  8
0
 62
5
  6
CONTINUOUS
 10
118.0
 20
13.75
  7
TEXTSTYLE_7
 40
7.5
  1
Sprocket Z07
 41
0.6694444444
 72
0
  0
LINE
  8
0
 62
7
  6
CONTINUOUS
 10
210.0
 20
0.0
 11
0.0
 21
0.0
  0
LINE
  8
0
 62
7
  6
CONTINUOUS
 10
10.0
 20
10.0
 11
200.0
 21
10.0
  0
LINE
  8
0
 62
7
  6
CONTINUOUS
 10
10.0
 20
30.0
 11
200.0
 21
30.0
  0
LINE
  8
0
 62
7
  6
CONTINUOUS
 10
0.0
 20
0.0
 11
0.0
 21
297.0
  0
LINE
  8
0
 62
7
  6
CONTINUOUS
 10
10.0
 20
10.0
 11
10.0
 21
287.0
  0
LINE
  8
0
 62
7
  6
CONTINUOUS
 10
200.0
 20
287.0
 11
200.0
 21
10.0
  0
LINE
  8
0
 62
7
  6
CONTINUOUS
 10
210.0
 20
0.0
 11
210.0
 21
297.0
  0
LINE
  8
0
 62
7
  6
CONTINUOUS
 10
10.0
 20
287.0
 11
200.0
 21
287.0
  0
LINE
  8
0
 62
7
  6
CONTINUOUS
 10
0.0
 20
297.0
 11
210.0
 21
297.0
  0
LINE
  8
0
 62
7
  6
CONTINUOUS
 10
68.7640369674
 20
187.5539959272
 11
68.7640369674
 21
192.2799222699
  0
LINE
  8
0
 62
7
  6
CONTINUOUS
 10
68.7640369674
 20
200.2539959272
 11
68.7640369674
 21
204.9799222699
  0
LINE
  8
0
 62
9
  6
CONTINUOUS
 10
68.7841342552
 20
187.7495657492
 11
68.7841342552
 21
192.0843510998
  0
LINE
  8
0
 62
9
  6
CONTINUOUS
 10
68.7841342552
 20
200.4495657492
 11
68.7841342552
 21
204.7843510998
  0
LINE
  8
DEFAULT_2
 62
8
  6
HIDDEN
 10
68.8517889181
 20
187.1744993231
 11
68.8517889181
 21
192.6594175259
  0
LINE
  8
DEFAULT_2
 62
8
  6
HIDDEN
 10
68.8517889181
 20
199.8744993231
 11
68.8517889181
 21
205.3594175259
  0
POLYLINE
  8
0
 62
7
  6
CONTINUOUS
 66
1
 70
0
  0
VERTEX
  8
0
 62
7
  6
CONTINUOUS
 10
68.7640369849
 20
200.2533755707
  0
VERTEX
  8
0
 62
7
  6
CONTINUOUS
 10
68.7648643737
 20
200.2928477911
  0
VERTEX
  8
0
 62
7
  6
CONTINUOUS
 10
68.7841342552
 20
200.4495657492
  0
SEQEND
  0
POLYLINE
  8
0
 62
7
  6
CONTINUOUS
 66
1
 70
0
  0
VERTEX
  8
0
 62
7
  6
CONTINUOUS
 10
68.7640369849
 20
187.5533755707
  0
VERTEX
  8
0
 62
7
  6
CONTINUOUS
 10
68.7648643737
 20
187.5928477911
  0
VERTEX
  8
0
 62
7
  6
CONTINUOUS
 10
68.7841342552
 20
187.7495657492
  0
SEQEND
  0
POLYLINE
  8
0
 62
7
  6
CONTINUOUS
 66
1
 70
0
  0
VERTEX
  8
0
 62
7
  6
CONTINUOUS
 10
68.7640369881
 20
204.9805573096
  0
VERTEX
  8
0
 62
7
  6
CONTINUOUS
 10
68.7709932118
 20
205.0926304939
  0
VERTEX
  8
0
 62
7
  6
CONTINUOUS
 10
68.8011122557
 20
205.2336824515
  0
VERTEX
  8
0
 62
7
  6
CONTINUOUS
 10
68.8517889181
 20
205.3594175259
  0
SEQEND
  0
POLYLINE
  8
0
 62
7
  6
CONTINUOUS
 66
1
 70
0
  0
VERTEX
  8
0
 62
7
  6
CONTINUOUS
 10
68.8517889181
 20
205.3594175259
  0
VERTEX
  8
0
 62
7
  6
CONTINUOUS
 10
68.9116975832
 20
205.4604114541
  0
VERTEX
  8
0
 62
7
  6
CONTINUOUS
 10
68.985310452
 20
205.5521990874
  0
VERTEX
  8
0
 62
7
  6
CONTINUOUS
 10
69.0714486533
 20
205.6312113404
  0
VERTEX
  8
0
 62
7
  6
CONTINUOUS
 10
69.1691517617
 20
205.6955025511
  0
VERTEX
  8
0
 62
7
  6
CONTINUOUS
 10
69.275502832
 20
205.7428423471
  0
VERTEX
  8
0
 62
7
  6
CONTINUOUS
 10
69.3857528593
 20
205.7720394404
  0
SEQEND
  0
POLYLINE
  8
0
 62
7
  6
CONTINUOUS
 66
1
 70
0
  0
VERTEX
  8
0
 62
7
  6
CONTINUOUS
 10
68.8517889181
 20
187.1744993231
  0
VERTEX
  8
0
 62
7
  6
CONTINUOUS
 10
68.8011413334
 20
187.3001396285
  0
VERTEX
  8
0
 62
7
  6
CONTINUOUS
 10
68.7709913324
 20
187.4413012889
  0
VERTEX
  8
0
 62
7
  6
CONTINUOUS
 10
68.7640369849
 20
187.5533755707
  0
SEQEND
  0
POLYLINE
  8
0
 62
7
  6
CONTINUOUS
 66
1
 70
0
  0
VERTEX
  8
0
 62
7
  6
CONTINUOUS
 10
69.0883872401
 20
187.7495657492
  0
VERTEX
  8
0
 62
7
  6
CONTINUOUS
 10
69.1399431337
 20
187.592812238
  0
VERTEX
  8
0
 62
7
  6
CONTINUOUS
 10
69.2141937304
 20
187.4412711406
  0
VERTEX
  8
0
 62
7
  6
CONTINUOUS
 10
69.3073576307
 20
187.3001340512
  0
VERTEX
  8
0
 62
7
  6
CONTINUOUS
 10
69.4136267538
 20
187.1744993231
  0
SEQEND
  0
POLYLINE
  8
0
 62
7
  6
CONTINUOUS
 66
1
 70
0
  0
VERTEX
  8
0
 62
7
  6
CONTINUOUS
 10
68.7841342552
 20
192.0843510998
  0
VERTEX
  8
0
 62
7
  6
CONTINUOUS
 10
68.7648593961
 20
192.2411880325
  0
VERTEX
  8
0
 62
7
  6
CONTINUOUS
 10
68.7640369881
 20
192.2805573096
  0
SEQEND
  0
LINE
  8
0
 62
9
  6
CONTINUOUS
 10
69.0883872401
 20
187.7495657492
 11
69.0883872401
 21
192.0843510998
  0
LINE
  8
0
 62
9
  6
CONTINUOUS
 10
69.0883872401
 20
200.4495657492
 11
69.0883872401
 21
204.7843510998
  0
LINE
  8
0
 62
9
  6
CONTINUOUS
 10
69.4136267538
 20
187.1744993231
 11
69.4136267538
 21
192.6594175259
  0
LINE
  8
0
 62
9
  6
CONTINUOUS
 10
69.4136267538
 20
199.8744993231
 11
69.4136267538
 21
205.3594175259
  0
LINE
  8
DEFAULT_2
 62
8
  6
HIDDEN
 10
71.0589936704
 20
186.4788086177
 11
71.0589936704
 21
193.3551082313
  0
LINE
  8
DEFAULT_2
 62
8
  6
HIDDEN
 10
71.0589936704
 20
199.1788086177
 11
71.0589936704
 21
206.0551082313
  0
POLYLINE
  8
0
 62
7
  6
CONTINUOUS
 66
1
 70
0
  0
VERTEX
  8
0
 62
7
  6
CONTINUOUS
 10
68.7640369881
 20
192.2805573096
  0
VERTEX
  8
0
 62
7
  6
CONTINUOUS
 10
68.7709932118
 20
192.3926304939
  0
VERTEX
  8
0
 62
7
  6
CONTINUOUS
 10
68.8011122557
 20
192.5336824515
  0
VERTEX
  8
0
 62
7
  6
CONTINUOUS
 10
68.8517889181
 20
192.6594175259
  0
SEQEND
  0
POLYLINE
  8
0
 62
7
  6
CONTINUOUS
 66
1
 70
0
  0
VERTEX
  8
0
 62
7
  6
CONTINUOUS
 10
69.4136267538
 20
205.3594175259
  0
VERTEX
  8
0
 62
7
  6
CONTINUOUS
 10
69.3072864186
 20
205.2336880428
  0
VERTEX
  8
0
 62
7
  6
CONTINUOUS
 10
69.2142013352
 20
205.0926589576
  0
VERTEX
  8
0
 62
7
  6
CONTINUOUS
 10
69.13999158
 20
204.9412230696
  0
VERTEX
  8
0
 62
7
  6
CONTINUOUS
 10
69.0883872401
 20
204.7843510998
  0
SEQEND
  0
POLYLINE
  8
0
 62
7
  6
CONTINUOUS
 66
1
 70
0
  0
VERTEX
  8
0
 62
7
  6
CONTINUOUS
 10
68.7841342552
 20
204.7843510998
  0
VERTEX
  8
0
 62
7
  6
CONTINUOUS
 10
68.7648593961
 20
204.9411880325
  0
VERTEX
  8
0
 62
7
  6
CONTINUOUS
 10
68.7640369881
 20
204.9805573096
  0
SEQEND
  0
LINE
  8
0
 62
9
  6
CONTINUOUS
 10
72.1502564541
 20
186.4788086177
 11
72.1502564541
 21
193.3551082313
  0
LINE
  8
0
 62
9
  6
CONTINUOUS
 10
72.1502564541
 20
199.1788086177
 11
72.1502564541
 21
206.0551082313
  0
POLYLINE
  8
0
 62
7
  6
CONTINUOUS
 66
1
 70
0
  0
VERTEX
  8
0
 62
7
  6
CONTINUOUS
 10
69.4136267538
 20
187.1744993231
  0
VERTEX
  8
0
 62
7
  6
CONTINUOUS
 10
69.5222160122
 20
187.0733873825
  0
VERTEX
  8
0
 62
7
  6
CONTINUOUS
 10
69.6478003663
 20
186.9816283492
  0
VERTEX
  8
0
 62
7
  6
CONTINUOUS
 10
69.786657803
 20
186.9026469347
  0
VERTEX
  8
0
 62
7
  6
CONTINUOUS
 10
69.9361738723
 20
186.8383526361
  0
VERTEX
  8
0
 62
7
  6
CONTINUOUS
 10
70.0912132471
 20
186.7910454214
  0
VERTEX
  8
0
 62
7
  6
CONTINUOUS
 10
70.2451552459
 20
186.7618774086
  0
SEQEND
  0
POLYLINE
  8
0
 62
7
  6
CONTINUOUS
 66
1
 70
0
  0
VERTEX
  8
0
 62
7
  6
CONTINUOUS
 10
68.8517889181
 20
199.8744993231
  0
VERTEX
  8
0
 62
7
  6
CONTINUOUS
 10
68.8011413334
 20
200.0001396285
  0
VERTEX
  8
0
 62
7
  6
CONTINUOUS
 10
68.7709913324
 20
200.1413012889
  0
VERTEX
  8
0
 62
7
  6
CONTINUOUS
 10
68.7640369849
 20
200.2533755707
  0
SEQEND
  0
POLYLINE
  8
0
 62
7
  6
CONTINUOUS
 66
1
 70
0
  0
VERTEX
  8
0
 62
7
  6
CONTINUOUS
 10
69.0883872401
 20
200.4495657492
  0
VERTEX
  8
0
 62
7
  6
CONTINUOUS
 10
69.1399431337
 20
200.292812238
  0
VERTEX
  8
0
 62
7
  6
CONTINUOUS
 10
69.2141937304
 20
200.1412711406
  0
VERTEX
  8
0
 62
7
  6
CONTINUOUS
 10
69.3073576307
 20
200.0001340512
  0
VERTEX
  8
0
 62
7
  6
CONTINUOUS
 10
69.4136267538
 20
199.8744993231
  0
SEQEND
  0
LINE
  8
DEFAULT_2
 62
8
  6
HIDDEN
 10
73.9038500506
 20
192.7187734861
 11
73.9049219931
 21
192.6594175259
  0
LINE
  8
DEFAULT_2
 62
8
  6
HIDDEN
 10
73.9038500506
 20
205.4187734861
 11
73.9049219931
 21
205.3594175259
  0
POLYLINE
  8
DEFAULT_2
 62
8
  6
HIDDEN
 66
1
 70
0
  0
VERTEX
  8
DEFAULT_2
 62
8
  6
HIDDEN
 10
73.9038500241
 20
187.1151239474
  0
VERTEX
  8
DEFAULT_2
 62
8
  6
HIDDEN
 10
73.9044309512
 20
187.0733873825
  0
VERTEX
  8
DEFAULT_2
 62
8
  6
HIDDEN
 10
73.9114962103
 20
186.9816283492
  0
VERTEX
  8
DEFAULT_2
 62
8
  6
HIDDEN
 10
73.9278392506
 20
186.9026469347
  0
VERTEX
  8
DEFAULT_2
 62
8
  6
HIDDEN
 10
73.9544462257
 20
186.8383526361
  0
VERTEX
  8
DEFAULT_2
 62
8
  6
HIDDEN
 10
73.9909909476
 20
186.7910454214
  0
VERTEX
  8
DEFAULT_2
 62
8
  6
HIDDEN
 10
74.0355632762
 20
186.7618774086
  0
SEQEND
  0
POLYLINE
  8
DEFAULT_2
 62
8
  6
HIDDEN
 66
1
 70
0
  0
VERTEX
  8
DEFAULT_2
 62
8
  6
HIDDEN
 10
73.9038500241
 20
199.8151239474
  0
VERTEX
  8
DEFAULT_2
 62
8
  6
HIDDEN
 10
73.9044309512
 20
199.7733873825
  0
VERTEX
  8
DEFAULT_2
 62
8
  6
HIDDEN
 10
73.9114962103
 20
199.6816283492
  0
VERTEX
  8
DEFAULT_2
 62
8
  6
HIDDEN
 10
73.9278392506
 20
199.6026469347
  0
VERTEX
  8
DEFAULT_2
 62
8
  6
HIDDEN
 10
73.9544462257
 20
199.5383526361
  0
VERTEX
  8
DEFAULT_2
 62
8
  6
HIDDEN
 10
73.9909909476
 20
199.4910454214
  0
VERTEX
  8
DEFAULT_2
 62
8
  6
HIDDEN
 10
74.0355632762
 20
199.4618774086
  0
SEQEND
  0
LINE
  8
DEFAULT_2
 62
8
  6
HIDDEN
 10
73.9038493977
 20
187.1162661005
 11
73.9038493977
 21
192.7176676797
  0
LINE
  8
DEFAULT_2
 62
8
  6
HIDDEN
 10
73.9038493977
 20
199.8162661005
 11
73.9038493977
 21
205.4176676797
  0
LINE
  8
DEFAULT_2
 62
8
  6
HIDDEN
 10
73.9049219931
 20
187.1744993231
 11
73.9049219931
 21
192.6594175259
  0
LINE
  8
DEFAULT_2
 62
8
  6
HIDDEN
 10
73.9049219931
 20
199.8744993231
 11
73.9049219931
 21
205.3594175259
  0
LINE
  8
DEFAULT_2
 62
8
  6
HIDDEN
 10
74.1082520167
 20
187.7495657492
 11
74.1082520167
 21
192.0843510998
  0
LINE
  8
DEFAULT_2
 62
8
  6
HIDDEN
 10
74.1082520167
 20
200.4495657492
 11
74.1082520167
 21
204.7843510998
  0
LINE
  8
DEFAULT_2
 62
8
  6
HIDDEN
 10
74.9607499365
 20
187.7495657492
 11
74.9607499365
 21
192.0843510998
  0
LINE
  8
DEFAULT_2
 62
8
  6
HIDDEN
 10
74.9607499365
 20
200.4495657492
 11
74.9607499365
 21
204.7843510998
  0
LINE
  8
DEFAULT_2
 62
8
  6
HIDDEN
 10
75.1455378266
 20
186.4788086177
 11
75.1455378266
 21
193.3551082313
  0
LINE
  8
DEFAULT_2
 62
8
  6
HIDDEN
 10
75.1455378266
 20
199.1788086177
 11
75.1455378266
 21
206.0551082313
  0
LINE
  8
DEFAULT_2
 62
8
  6
HIDDEN
 10
75.2858928371
 20
186.4169584245
 11
75.2858928371
 21
193.4169584245
  0
LINE
  8
DEFAULT_2
 62
8
  6
HIDDEN
 10
75.2858928371
 20
199.1169584245
 11
75.2858928371
 21
206.1169584245
  0
LINE
  8
DEFAULT_2
 62
8
  6
HIDDEN
 10
75.4791566264
 20
187.1744993231
 11
75.4791566264
 21
192.6594175259
  0
LINE
  8
DEFAULT_2
 62
8
  6
HIDDEN
 10
75.4791566264
 20
199.8744993231
 11
75.4791566264
 21
205.3594175259
  0
LINE
  8
DEFAULT_2
 62
8
  6
HIDDEN
 10
73.9049219931
 20
199.8744993231
 11
73.9038500241
 21
199.8151239474
  0
LINE
  8
DEFAULT_2
 62
8
  6
HIDDEN
 10
73.9049219931
 20
187.1744993231
 11
73.9038500241
 21
187.1151239474
  0
POLYLINE
  8
DEFAULT_2
 62
8
  6
HIDDEN
 66
1
 70
0
  0
VERTEX
  8
DEFAULT_2
 62
8
  6
HIDDEN
 10
74.1082520167
 20
200.4495657492
  0
VERTEX
  8
DEFAULT_2
 62
8
  6
HIDDEN
 10
74.0219703134
 20
200.292812238
  0
VERTEX
  8
DEFAULT_2
 62
8
  6
HIDDEN
 10
73.9587696353
 20
200.1412711406
  0
VERTEX
  8
DEFAULT_2
 62
8
  6
HIDDEN
 10
73.9199304064
 20
200.0001340512
  0
VERTEX
  8
DEFAULT_2
 62
8
  6
HIDDEN
 10
73.9049219931
 20
199.8744993231
  0
SEQEND
  0
POLYLINE
  8
0
 62
7
  6
CONTINUOUS
 66
1
 70
0
  0
VERTEX
  8
0
 62
7
  6
CONTINUOUS
 10
68.8517889181
 20
192.6594175259
  0
VERTEX
  8
0
 62
7
  6
CONTINUOUS
 10
68.9116975832
 20
192.7604114541
  0
VERTEX
  8
0
 62
7
  6
CONTINUOUS
 10
68.985310452
 20
192.8521990874
  0
VERTEX
  8
0
 62
7
  6
CONTINUOUS
 10
69.0714486533
 20
192.9312113404
  0
VERTEX
  8
0
 62
7
  6
CONTINUOUS
 10
69.1691517617
 20
192.9955025511
  0
VERTEX
  8
0
 62
7
  6
CONTINUOUS
 10
69.275502832
 20
193.0428423471
  0
VERTEX
  8
0
 62
7
  6
CONTINUOUS
 10
69.3857528593
 20
193.0720394404
  0
SEQEND
  0
POLYLINE
  8
DEFAULT_2
 62
8
  6
HIDDEN
 66
1
 70
0
  0
VERTEX
  8
DEFAULT_2
 62
8
  6
HIDDEN
 10
74.9607499365
 20
204.7843510998
  0
VERTEX
  8
DEFAULT_2
 62
8
  6
HIDDEN
 10
75.0729867799
 20
204.9411880325
  0
VERTEX
  8
DEFAULT_2
 62
8
  6
HIDDEN
 10
75.2005707064
 20
205.0926304939
  0
VERTEX
  8
DEFAULT_2
 62
8
  6
HIDDEN
 10
75.3382070549
 20
205.2336824515
  0
VERTEX
  8
DEFAULT_2
 62
8
  6
HIDDEN
 10
75.4791566264
 20
205.3594175259
  0
SEQEND
  0
POLYLINE
  8
DEFAULT_2
 62
8
  6
HIDDEN
 66
1
 70
0
  0
VERTEX
  8
DEFAULT_2
 62
8
  6
HIDDEN
 10
73.9049219931
 20
192.6594175259
  0
VERTEX
  8
DEFAULT_2
 62
8
  6
HIDDEN
 10
73.9199492287
 20
192.5336880428
  0
VERTEX
  8
DEFAULT_2
 62
8
  6
HIDDEN
 10
73.9587650359
 20
192.3926589576
  0
VERTEX
  8
DEFAULT_2
 62
8
  6
HIDDEN
 10
74.0219129446
 20
192.2412230696
  0
VERTEX
  8
DEFAULT_2
 62
8
  6
HIDDEN
 10
74.1082520167
 20
192.0843510998
  0
SEQEND
  0
POLYLINE
  8
DEFAULT_2
 62
8
  6
HIDDEN
 66
1
 70
0
  0
VERTEX
  8
DEFAULT_2
 62
8
  6
HIDDEN
 10
73.9049219931
 20
205.3594175259
  0
VERTEX
  8
DEFAULT_2
 62
8
  6
HIDDEN
 10
73.9199492287
 20
205.2336880428
  0
VERTEX
  8
DEFAULT_2
 62
8
  6
HIDDEN
 10
73.9587650359
 20
205.0926589576
  0
VERTEX
  8
DEFAULT_2
 62
8
  6
HIDDEN
 10
74.0219129446
 20
204.9412230696
  0
VERTEX
  8
DEFAULT_2
 62
8
  6
HIDDEN
 10
74.1082520167
 20
204.7843510998
  0
SEQEND
  0
POLYLINE
  8
0
 62
7
  6
CONTINUOUS
 66
1
 70
0
  0
VERTEX
  8
0
 62
7
  6
CONTINUOUS
 10
78.3432563297
 20
182.2669584245
  0
VERTEX
  8
0
 62
7
  6
CONTINUOUS
 10
78.3532615561
 20
182.1380114521
  0
VERTEX
  8
0
 62
7
  6
CONTINUOUS
 10
78.3820967424
 20
182.014563629
  0
VERTEX
  8
0
 62
7
  6
CONTINUOUS
 10
78.4290397891
 20
181.8959146124
  0
VERTEX
  8
0
 62
7
  6
CONTINUOUS
 10
78.4948392142
 20
181.7813240674
  0
VERTEX
  8
0
 62
7
  6
CONTINUOUS
 10
78.5803547639
 20
181.6720469325
  0
VERTEX
  8
0
 62
7
  6
CONTINUOUS
 10
78.6848366032
 20
181.5713673351
  0
VERTEX
  8
0
 62
7
  6
CONTINUOUS
 10
78.8048346601
 20
181.4833691527
  0
VERTEX
  8
0
 62
7
  6
CONTINUOUS
 10
78.9362104276
 20
181.4103744204
  0
VERTEX
  8
0
 62
7
  6
CONTINUOUS
 10
79.074133725
 20
181.3534268677
  0
VERTEX
  8
0
 62
7
  6
CONTINUOUS
 10
79.2245417779
 20
181.3096861884
  0
VERTEX
  8
0
 62
7
  6
CONTINUOUS
 10
79.3980286001
 20
181.2791474121
  0
VERTEX
  8
0
 62
7
  6
CONTINUOUS
 10
79.6042367267
 20
181.2669584245
  0
SEQEND
  0
LINE
  8
0
 62
7
  6
CONTINUOUS
 10
76.5016028167
 20
186.4169584245
 11
76.5016028167
 21
193.4169584245
  0
LINE
  8
0
 62
7
  6
CONTINUOUS
 10
76.5016028167
 20
199.1169584245
 11
76.5016028167
 21
206.1169584245
  0
LINE
  8
0
 62
7
  6
CONTINUOUS
 10
76.8350276909
 20
182.2669584245
 11
76.8350276909
 21
186.4169584245
  0
LINE
  8
0
 62
7
  6
CONTINUOUS
 10
76.8350276909
 20
193.4169584245
 11
76.8350276909
 21
199.1169584245
  0
LINE
  8
0
 62
7
  6
CONTINUOUS
 10
76.8350276909
 20
206.1169584245
 11
76.8350276909
 21
210.2669584245
  0
POLYLINE
  8
0
 62
7
  6
CONTINUOUS
 66
1
 70
0
  0
VERTEX
  8
0
 62
7
  6
CONTINUOUS
 10
76.8350276909
 20
210.2669584245
  0
VERTEX
  8
0
 62
7
  6
CONTINUOUS
 10
76.8428869809
 20
210.394842846
  0
VERTEX
  8
0
 62
7
  6
CONTINUOUS
 10
76.8657743305
 20
210.5183587925
  0
VERTEX
  8
0
 62
7
  6
CONTINUOUS
 10
76.9028179302
 20
210.6365133778
  0
VERTEX
  8
0
 62
7
  6
CONTINUOUS
 10
76.9537289109
 20
210.749097362
  0
VERTEX
  8
0
 62
7
  6
CONTINUOUS
 10
77.018153924
 20
210.8548360677
  0
VERTEX
  8
0
 62
7
  6
CONTINUOUS
 10
77.0955679867
 20
210.9521342429
  0
VERTEX
  8
0
 62
7
  6
CONTINUOUS
 10
77.1835239082
 20
211.0378257077
  0
VERTEX
  8
0
 62
7
  6
CONTINUOUS
 10
77.2785934933
 20
211.1096219283
  0
VERTEX
  8
0
 62
7
  6
CONTINUOUS
 10
77.3773024005
 20
211.1667200292
  0
VERTEX
  8
0
 62
7
  6
CONTINUOUS
 10
77.4806469456
 20
211.2109876511
  0
VERTEX
  8
0
 62
7
  6
CONTINUOUS
 10
77.5882620146
 20
211.2426051546
  0
VERTEX
  8
0
 62
7
  6
CONTINUOUS
 10
77.6970108239
 20
211.261093298
  0
VERTEX
  8
0
 62
7
  6
CONTINUOUS
 10
77.8032863644
 20
211.2669584245
  0
SEQEND
  0
POLYLINE
  8
DEFAULT_2
 62
8
  6
HIDDEN
 66
1
 70
0
  0
VERTEX
  8
DEFAULT_2
 62
8
  6
HIDDEN
 10
75.4791566264
 20
205.3594175259
  0
VERTEX
  8
DEFAULT_2
 62
8
  6
HIDDEN
 10
75.6146613821
 20
205.4604114541
  0
VERTEX
  8
DEFAULT_2
 62
8
  6
HIDDEN
 10
75.7673520336
 20
205.5521990874
  0
VERTEX
  8
DEFAULT_2
 62
8
  6
HIDDEN
 10
75.9314634417
 20
205.6312113404
  0
VERTEX
  8
DEFAULT_2
 62
8
  6
HIDDEN
 10
76.1030877363
 20
205.6955025511
  0
VERTEX
  8
DEFAULT_2
 62
8
  6
HIDDEN
 10
76.2761983627
 20
205.7428423471
  0
VERTEX
  8
DEFAULT_2
 62
8
  6
HIDDEN
 10
76.4435552535
 20
205.7720394404
  0
SEQEND
  0
POLYLINE
  8
DEFAULT_2
 62
8
  6
HIDDEN
 66
1
 70
0
  0
VERTEX
  8
DEFAULT_2
 62
8
  6
HIDDEN
 10
74.0355632762
 20
205.7720394404
  0
VERTEX
  8
DEFAULT_2
 62
8
  6
HIDDEN
 10
73.9909432156
 20
205.7428268452
  0
VERTEX
  8
DEFAULT_2
 62
8
  6
HIDDEN
 10
73.9543782122
 20
205.6954439479
  0
VERTEX
  8
DEFAULT_2
 62
8
  6
HIDDEN
 10
73.9277868846
 20
205.6310934665
  0
VERTEX
  8
DEFAULT_2
 62
8
  6
HIDDEN
 10
73.9114618425
 20
205.5520315961
  0
VERTEX
  8
DEFAULT_2
 62
8
  6
HIDDEN
 10
73.9044227974
 20
205.4602571077
  0
VERTEX
  8
DEFAULT_2
 62
8
  6
HIDDEN
 10
73.9038500506
 20
205.4187734861
  0
SEQEND
  0
POLYLINE
  8
DEFAULT_2
 62
8
  6
HIDDEN
 66
1
 70
0
  0
VERTEX
  8
DEFAULT_2
 62
8
  6
HIDDEN
 10
75.4791566264
 20
187.1744993231
  0
VERTEX
  8
DEFAULT_2
 62
8
  6
HIDDEN
 10
75.3383063145
 20
187.3001396285
  0
VERTEX
  8
DEFAULT_2
 62
8
  6
HIDDEN
 10
75.200557141
 20
187.4413012889
  0
VERTEX
  8
DEFAULT_2
 62
8
  6
HIDDEN
 10
75.0728941326
 20
187.5928477911
  0
VERTEX
  8
DEFAULT_2
 62
8
  6
HIDDEN
 10
74.9607499365
 20
187.7495657492
  0
SEQEND
  0
POLYLINE
  8
DEFAULT_2
 62
8
  6
HIDDEN
 66
1
 70
0
  0
VERTEX
  8
DEFAULT_2
 62
8
  6
HIDDEN
 10
79.3605916159
 20
182.2669584245
  0
VERTEX
  8
DEFAULT_2
 62
8
  6
HIDDEN
 10
79.3649856613
 20
182.1380114521
  0
VERTEX
  8
DEFAULT_2
 62
8
  6
HIDDEN
 10
79.3776013534
 20
182.014563629
  0
VERTEX
  8
DEFAULT_2
 62
8
  6
HIDDEN
 10
79.3979866355
 20
181.8959146124
  0
VERTEX
  8
DEFAULT_2
 62
8
  6
HIDDEN
 10
79.4262406403
 20
181.7813240674
  0
VERTEX
  8
DEFAULT_2
 62
8
  6
HIDDEN
 10
79.4624000276
 20
181.6720469325
  0
VERTEX
  8
DEFAULT_2
 62
8
  6
HIDDEN
 10
79.5057130876
 20
181.5713673351
  0
VERTEX
  8
DEFAULT_2
 62
8
  6
HIDDEN
 10
79.5542729858
 20
181.4833691527
  0
VERTEX
  8
DEFAULT_2
 62
8
  6
HIDDEN
 10
79.6059685061
 20
181.4103744204
  0
VERTEX
  8
DEFAULT_2
 62
8
  6
HIDDEN
 10
79.6585685921
 20
181.3534268677
  0
VERTEX
  8
DEFAULT_2
 62
8
  6
HIDDEN
 10
79.7139509058
 20
181.3096861884
  0
VERTEX
  8
DEFAULT_2
 62
8
  6
HIDDEN
 10
79.7752251973
 20
181.2791474121
  0
VERTEX
  8
DEFAULT_2
 62
8
  6
HIDDEN
 10
79.8443530607
 20
181.2669584245
  0
SEQEND
  0
LINE
  8
DEFAULT_2
 62
8
  6
HIDDEN
 10
78.2031882001
 20
186.4788086177
 11
78.2031882001
 21
193.3551082313
  0
LINE
  8
DEFAULT_2
 62
8
  6
HIDDEN
 10
78.2031882001
 20
199.1788086177
 11
78.2031882001
 21
206.0551082313
  0
LINE
  8
0
 62
7
  6
CONTINUOUS
 10
78.3432563297
 20
182.2669584245
 11
78.3432563297
 21
186.4169584245
  0
LINE
  8
0
 62
7
  6
CONTINUOUS
 10
78.3432563297
 20
193.4169584245
 11
78.3432563297
 21
199.1169584245
  0
LINE
  8
0
 62
7
  6
CONTINUOUS
 10
78.3432563297
 20
206.1169584245
 11
78.3432563297
 21
210.2669584245
  0
LINE
  8
DEFAULT_2
 62
8
  6
HIDDEN
 10
78.4108005781
 20
186.4169584245
 11
78.4108005781
 21
193.4169584245
  0
LINE
  8
DEFAULT_2
 62
8
  6
HIDDEN
 10
78.4108005781
 20
199.1169584245
 11
78.4108005781
 21
206.1169584245
  0
LINE
  8
DEFAULT_2
 62
8
  6
HIDDEN
 10
79.3605916159
 20
182.2669584245
 11
79.3605916159
 21
186.4169584245
  0
LINE
  8
DEFAULT_2
 62
8
  6
HIDDEN
 10
79.3605916159
 20
193.4169584245
 11
79.3605916159
 21
199.1169584245
  0
LINE
  8
DEFAULT_2
 62
8
  6
HIDDEN
 10
79.3605916159
 20
206.1169584245
 11
79.3605916159
 21
210.2669584245
  0
POLYLINE
  8
0
 62
7
  6
CONTINUOUS
 66
1
 70
0
  0
VERTEX
  8
0
 62
7
  6
CONTINUOUS
 10
69.4136267538
 20
192.6594175259
  0
VERTEX
  8
0
 62
7
  6
CONTINUOUS
 10
69.3072864186
 20
192.5336880428
  0
VERTEX
  8
0
 62
7
  6
CONTINUOUS
 10
69.2142013352
 20
192.3926589576
  0
VERTEX
  8
0
 62
7
  6
CONTINUOUS
 10
69.13999158
 20
192.2412230696
  0
VERTEX
  8
0
 62
7
  6
CONTINUOUS
 10
69.0883872401
 20
192.0843510998
  0
SEQEND
  0
POLYLINE
  8
DEFAULT_2
 62
8
  6
HIDDEN
 66
1
 70
0
  0
VERTEX
  8
DEFAULT_2
 62
8
  6
HIDDEN
 10
114.5582727599
 20
181.2669584245
  0
VERTEX
  8
DEFAULT_2
 62
8
  6
HIDDEN
 10
114.6274181467
 20
181.2791535192
  0
VERTEX
  8
DEFAULT_2
 62
8
  6
HIDDEN
 10
114.6886826369
 20
181.3096912007
  0
VERTEX
  8
DEFAULT_2
 62
8
  6
HIDDEN
 10
114.7440417865
 20
181.3534124393
  0
VERTEX
  8
DEFAULT_2
 62
8
  6
HIDDEN
 10
114.796622687
 20
181.4103315413
  0
VERTEX
  8
DEFAULT_2
 62
8
  6
HIDDEN
 10
114.8483210542
 20
181.4833183194
  0
VERTEX
  8
DEFAULT_2
 62
8
  6
HIDDEN
 10
114.8968916511
 20
181.5713241266
  0
VERTEX
  8
DEFAULT_2
 62
8
  6
HIDDEN
 10
114.9402113743
 20
181.6720088089
  0
VERTEX
  8
DEFAULT_2
 62
8
  6
HIDDEN
 10
114.976375158
 20
181.7812891531
  0
VERTEX
  8
DEFAULT_2
 62
8
  6
HIDDEN
 10
115.0046331762
 20
181.8958857513
  0
VERTEX
  8
DEFAULT_2
 62
8
  6
HIDDEN
 10
115.0250217978
 20
182.014544104
  0
VERTEX
  8
DEFAULT_2
 62
8
  6
HIDDEN
 10
115.0376395358
 20
182.1380023359
  0
VERTEX
  8
DEFAULT_2
 62
8
  6
HIDDEN
 10
115.0420342047
 20
182.2669584245
  0
SEQEND
  0
LINE
  8
DEFAULT_2
 62
8
  6
HIDDEN
 10
80.1541453778
 20
181.2669584245
 11
80.1541453778
 21
211.2669584245
  0
LINE
  8
DEFAULT_2
 62
8
  6
HIDDEN
 10
80.312837761
 20
181.2669584245
 11
80.312837761
 21
211.2669584245
  0
LINE
  8
DEFAULT_2
 62
8
  6
HIDDEN
 10
81.8171442455
 20
186.4169584245
 11
81.8171442455
 21
193.4169584245
  0
LINE
  8
DEFAULT_2
 62
8
  6
HIDDEN
 10
81.8171442455
 20
199.1169584245
 11
81.8171442455
 21
206.1169584245
  0
POLYLINE
  8
DEFAULT_2
 62
8
  6
HIDDEN
 66
1
 70
0
  0
VERTEX
  8
DEFAULT_2
 62
8
  6
HIDDEN
 10
74.1082520167
 20
187.7495657492
  0
VERTEX
  8
DEFAULT_2
 62
8
  6
HIDDEN
 10
74.0219703134
 20
187.592812238
  0
VERTEX
  8
DEFAULT_2
 62
8
  6
HIDDEN
 10
73.9587696353
 20
187.4412711406
  0
VERTEX
  8
DEFAULT_2
 62
8
  6
HIDDEN
 10
73.9199304064
 20
187.3001340512
  0
VERTEX
  8
DEFAULT_2
 62
8
  6
HIDDEN
 10
73.9049219931
 20
187.1744993231
  0
SEQEND
  0
POLYLINE
  8
DEFAULT_2
 62
8
  6
HIDDEN
 66
1
 70
0
  0
VERTEX
  8
DEFAULT_2
 62
8
  6
HIDDEN
 10
74.9607499365
 20
192.0843510998
  0
VERTEX
  8
DEFAULT_2
 62
8
  6
HIDDEN
 10
75.0729867799
 20
192.2411880325
  0
VERTEX
  8
DEFAULT_2
 62
8
  6
HIDDEN
 10
75.2005707064
 20
192.3926304939
  0
VERTEX
  8
DEFAULT_2
 62
8
  6
HIDDEN
 10
75.3382070549
 20
192.5336824515
  0
VERTEX
  8
DEFAULT_2
 62
8
  6
HIDDEN
 10
75.4791566264
 20
192.6594175259
  0
SEQEND
  0
POLYLINE
  8
DEFAULT_2
 62
8
  6
HIDDEN
 66
1
 70
0
  0
VERTEX
  8
DEFAULT_2
 62
8
  6
HIDDEN
 10
74.0355632762
 20
205.7720394404
  0
VERTEX
  8
DEFAULT_2
 62
8
  6
HIDDEN
 10
74.1465789901
 20
205.81368321
  0
VERTEX
  8
DEFAULT_2
 62
8
  6
HIDDEN
 10
74.2895959726
 20
205.8581417044
  0
VERTEX
  8
DEFAULT_2
 62
8
  6
HIDDEN
 10
74.4631124127
 20
205.9050066444
  0
VERTEX
  8
DEFAULT_2
 62
8
  6
HIDDEN
 10
74.6652193613
 20
205.953810483
  0
VERTEX
  8
DEFAULT_2
 62
8
  6
HIDDEN
 10
74.8935838538
 20
206.0040300933
  0
VERTEX
  8
DEFAULT_2
 62
8
  6
HIDDEN
 10
75.1455378266
 20
206.0551082313
  0
SEQEND
  0
POLYLINE
  8
0
 62
7
  6
CONTINUOUS
 66
1
 70
0
  0
VERTEX
  8
0
 62
7
  6
CONTINUOUS
 10
101.7875481466
 20
181.2669584245
  0
VERTEX
  8
0
 62
7
  6
CONTINUOUS
 10
101.9756034152
 20
181.2791535192
  0
VERTEX
  8
0
 62
7
  6
CONTINUOUS
 10
102.1306367796
 20
181.3096912007
  0
VERTEX
  8
0
 62
7
  6
CONTINUOUS
 10
102.262755417
 20
181.3534124393
  0
VERTEX
  8
0
 62
7
  6
CONTINUOUS
 10
102.382101987
 20
181.4103315413
  0
VERTEX
  8
0
 62
7
  6
CONTINUOUS
 10
102.4942386898
 20
181.4833183194
  0
VERTEX
  8
0
 62
7
  6
CONTINUOUS
 10
102.5953383331
 20
181.5713241266
  0
VERTEX
  8
0
 62
7
  6
CONTINUOUS
 10
102.6823265575
 20
181.6720088089
  0
VERTEX
  8
0
 62
7
  6
CONTINUOUS
 10
102.7528125198
 20
181.7812891531
  0
VERTEX
  8
0
 62
7
  6
CONTINUOUS
 10
102.8066170067
 20
181.8958857513
  0
VERTEX
  8
0
 62
7
  6
CONTINUOUS
 10
102.8447751123
 20
182.014544104
  0
VERTEX
  8
0
 62
7
  6
CONTINUOUS
 10
102.8681201211
 20
182.1380023359
  0
VERTEX
  8
0
 62
7
  6
CONTINUOUS
 10
102.8762035376
 20
182.2669584245
  0
SEQEND
  0
POLYLINE
  8
0
 62
7
  6
CONTINUOUS
 66
1
 70
0
  0
VERTEX
  8
0
 62
7
  6
CONTINUOUS
 10
114.7983890938
 20
181.2669584245
  0
VERTEX
  8
0
 62
7
  6
CONTINUOUS
 10
115.0046480051
 20
181.2791535192
  0
VERTEX
  8
0
 62
7
  6
CONTINUOUS
 10
115.1781054168
 20
181.3096912007
  0
VERTEX
  8
0
 62
7
  6
CONTINUOUS
 10
115.3284509289
 20
181.3534124393
  0
VERTEX
  8
0
 62
7
  6
CONTINUOUS
 10
115.4663260553
 20
181.4103315413
  0
VERTEX
  8
0
 62
7
  6
CONTINUOUS
 10
115.5977115804
 20
181.4833183194
  0
VERTEX
  8
0
 62
7
  6
CONTINUOUS
 10
115.7177377939
 20
181.5713241266
  0
VERTEX
  8
0
 62
7
  6
CONTINUOUS
 10
115.8222366544
 20
181.6720088089
  0
VERTEX
  8
0
 62
7
  6
CONTINUOUS
 10
115.9077631102
 20
181.7812891531
  0
VERTEX
  8
0
 62
7
  6
CONTINUOUS
 10
115.9735721298
 20
181.8958857513
  0
VERTEX
  8
0
 62
7
  6
CONTINUOUS
 10
116.0205229596
 20
182.014544104
  0
VERTEX
  8
0
 62
7
  6
CONTINUOUS
 10
116.0493628433
 20
182.1380023359
  0
VERTEX
  8
0
 62
7
  6
CONTINUOUS
 10
116.0593694909
 20
182.2669584245
  0
SEQEND
  0
POLYLINE
  8
DEFAULT_2
 62
8
  6
HIDDEN
 66
1
 70
0
  0
VERTEX
  8
DEFAULT_2
 62
8
  6
HIDDEN
 10
84.8905038412
 20
181.2669584245
  0
VERTEX
  8
DEFAULT_2
 62
8
  6
HIDDEN
 10
84.6716759804
 20
181.2791535192
  0
VERTEX
  8
DEFAULT_2
 62
8
  6
HIDDEN
 10
84.489377353
 20
181.3096912007
  0
VERTEX
  8
DEFAULT_2
 62
8
  6
HIDDEN
 10
84.3326215762
 20
181.3534124393
  0
VERTEX
  8
DEFAULT_2
 62
8
  6
HIDDEN
 10
84.189874304
 20
181.4103315413
  0
VERTEX
  8
DEFAULT_2
 62
8
  6
HIDDEN
 10
84.0547296633
 20
181.4833183194
  0
VERTEX
  8
DEFAULT_2
 62
8
  6
HIDDEN
 10
83.9320140709
 20
181.5713241266
  0
VERTEX
  8
DEFAULT_2
 62
8
  6
HIDDEN
 10
83.8257467559
 20
181.6720088089
  0
VERTEX
  8
DEFAULT_2
 62
8
  6
HIDDEN
 10
83.7391663958
 20
181.7812891531
  0
VERTEX
  8
DEFAULT_2
 62
8
  6
HIDDEN
 10
83.6727859076
 20
181.8958857513
  0
VERTEX
  8
DEFAULT_2
 62
8
  6
HIDDEN
 10
83.6255540118
 20
182.014544104
  0
VERTEX
  8
DEFAULT_2
 62
8
  6
HIDDEN
 10
83.5965935813
 20
182.1380023359
  0
VERTEX
  8
DEFAULT_2
 62
8
  6
HIDDEN
 10
83.5865543532
 20
182.2669584245
  0
SEQEND
  0
POLYLINE
  8
0
 62
7
  6
CONTINUOUS
 66
1
 70
0
  0
VERTEX
  8
0
 62
7
  6
CONTINUOUS
 10
77.8032863644
 20
181.2669584245
  0
VERTEX
  8
0
 62
7
  6
CONTINUOUS
 10
77.6504485095
 20
181.2791535192
  0
VERTEX
  8
0
 62
7
  6
CONTINUOUS
 10
77.5201876814
 20
181.3096912007
  0
VERTEX
  8
0
 62
7
  6
CONTINUOUS
 10
77.4060302065
 20
181.3534124393
  0
VERTEX
  8
0
 62
7
  6
CONTINUOUS
 10
77.3003350856
 20
181.4103315413
  0
VERTEX
  8
0
 62
7
  6
CONTINUOUS
 10
77.1987311907
 20
181.4833183194
  0
VERTEX
  8
0
 62
7
  6
CONTINUOUS
 10
77.1051670197
 20
181.5713241266
  0
VERTEX
  8
0
 62
7
  6
CONTINUOUS
 10
77.0231338946
 20
181.6720088089
  0
VERTEX
  8
0
 62
7
  6
CONTINUOUS
 10
76.9556009066
 20
181.7812891531
  0
VERTEX
  8
0
 62
7
  6
CONTINUOUS
 10
76.903397639
 20
181.8958857513
  0
VERTEX
  8
0
 62
7
  6
CONTINUOUS
 10
76.8660270629
 20
182.014544104
  0
VERTEX
  8
0
 62
7
  6
CONTINUOUS
 10
76.8430198186
 20
182.1380023359
  0
VERTEX
  8
0
 62
7
  6
CONTINUOUS
 10
76.8350276909
 20
182.2669584245
  0
SEQEND
  0
POLYLINE
  8
0
 62
7
  6
CONTINUOUS
 66
1
 70
0
  0
VERTEX
  8
0
 62
7
  6
CONTINUOUS
 10
69.3857528593
 20
186.7618774086
  0
VERTEX
  8
0
 62
7
  6
CONTINUOUS
 10
69.2756283425
 20
186.7910304715
  0
VERTEX
  8
0
 62
7
  6
CONTINUOUS
 10
69.1693702898
 20
186.8382948692
  0
VERTEX
  8
0
 62
7
  6
CONTINUOUS
 10
69.0716720166
 20
186.9025311057
  0
VERTEX
  8
0
 62
7
  6
CONTINUOUS
 10
68.9855454378
 20
186.981466005
  0
VERTEX
  8
0
 62
7
  6
CONTINUOUS
 10
68.9118825576
 20
187.0732370184
  0
VERTEX
  8
0
 62
7
  6
CONTINUOUS
 10
68.8517889181
 20
187.1744993231
  0
SEQEND
  0
POLYLINE
  8
DEFAULT_2
 62
8
  6
HIDDEN
 66
1
 70
0
  0
VERTEX
  8
DEFAULT_2
 62
8
  6
HIDDEN
 10
74.0355632762
 20
186.7618774086
  0
VERTEX
  8
DEFAULT_2
 62
8
  6
HIDDEN
 10
74.1465789901
 20
186.7202336391
  0
VERTEX
  8
DEFAULT_2
 62
8
  6
HIDDEN
 10
74.2895959726
 20
186.6757751446
  0
VERTEX
  8
DEFAULT_2
 62
8
  6
HIDDEN
 10
74.4631124127
 20
186.6289102047
  0
VERTEX
  8
DEFAULT_2
 62
8
  6
HIDDEN
 10
74.6652193613
 20
186.5801063661
  0
VERTEX
  8
DEFAULT_2
 62
8
  6
HIDDEN
 10
74.8935838538
 20
186.5298867557
  0
VERTEX
  8
DEFAULT_2
 62
8
  6
HIDDEN
 10
75.1455378266
 20
186.4788086177
  0
SEQEND
  0
POLYLINE
  8
0
 62
7
  6
CONTINUOUS
 66
1
 70
0
  0
VERTEX
  8
0
 62
7
  6
CONTINUOUS
 10
69.4136267538
 20
199.8744993231
  0
VERTEX
  8
0
 62
7
  6
CONTINUOUS
 10
69.5222160122
 20
199.7733873825
  0
VERTEX
  8
0
 62
7
  6
CONTINUOUS
 10
69.6478003663
 20
199.6816283492
  0
VERTEX
  8
0
 62
7
  6
CONTINUOUS
 10
69.786657803
 20
199.6026469347
  0
VERTEX
  8
0
 62
7
  6
CONTINUOUS
 10
69.9361738723
 20
199.5383526361
  0
VERTEX
  8
0
 62
7
  6
CONTINUOUS
 10
70.0912132471
 20
199.4910454214
  0
VERTEX
  8
0
 62
7
  6
CONTINUOUS
 10
70.2451552459
 20
199.4618774086
  0
SEQEND
  0
LINE
  8
0
 62
7
  6
CONTINUOUS
 10
83.2393273099
 20
186.7021626748
 11
83.2393273099
 21
193.1317541742
  0
LINE
  8
0
 62
7
  6
CONTINUOUS
 10
83.2393273099
 20
199.4021626748
 11
83.2393273099
 21
205.8317541742
  0
LINE
  8
0
 62
7
  6
CONTINUOUS
 10
83.5305459774
 20
181.2669584245
 11
83.5305459774
 21
186.5045961293
  0
LINE
  8
DEFAULT_2
 62
8
  6
HIDDEN
 10
83.5305459774
 20
186.5045961293
 11
83.5305459774
 21
193.3293207197
  0
LINE
  8
0
 62
7
  6
CONTINUOUS
 10
83.5305459774
 20
193.3293207197
 11
83.5305459774
 21
199.2045961293
  0
LINE
  8
DEFAULT_2
 62
8
  6
HIDDEN
 10
83.5305459774
 20
199.2045961293
 11
83.5305459774
 21
206.0293207197
  0
LINE
  8
0
 62
7
  6
CONTINUOUS
 10
83.5305459774
 20
206.0293207197
 11
83.5305459774
 21
211.2669584245
  0
LINE
  8
0
 62
9
  6
CONTINUOUS
 10
83.5721910008
 20
187.1744993231
 11
83.5721910008
 21
192.6594175259
  0
LINE
  8
0
 62
9
  6
CONTINUOUS
 10
83.5721910008
 20
199.8744993231
 11
83.5721910008
 21
205.3594175259
  0
LINE
  8
DEFAULT_2
 62
8
  6
HIDDEN
 10
83.5865543532
 20
182.2669584245
 11
83.5865543532
 21
186.4169584245
  0
LINE
  8
DEFAULT_2
 62
8
  6
HIDDEN
 10
83.5865543532
 20
193.4169584245
 11
83.5865543532
 21
199.1169584245
  0
LINE
  8
DEFAULT_2
 62
8
  6
HIDDEN
 10
83.5865543532
 20
206.1169584245
 11
83.5865543532
 21
210.2669584245
  0
LINE
  8
DEFAULT_2
 62
8
  6
HIDDEN
 10
83.6004987345
 20
186.4788086177
 11
83.6004987345
 21
193.3551082313
  0
LINE
  8
DEFAULT_2
 62
8
  6
HIDDEN
 10
83.6004987345
 20
199.1788086177
 11
83.6004987345
 21
206.0551082313
  0
LINE
  8
0
 62
9
  6
CONTINUOUS
 10
84.006233706
 20
187.7495657492
 11
84.006233706
 21
192.0843510998
  0
LINE
  8
0
 62
9
  6
CONTINUOUS
 10
84.006233706
 20
200.4495657492
 11
84.006233706
 21
204.7843510998
  0
POLYLINE
  8
DEFAULT_2
 62
8
  6
HIDDEN
 66
1
 70
0
  0
VERTEX
  8
DEFAULT_2
 62
8
  6
HIDDEN
 10
83.5865543532
 20
210.2669584245
  0
VERTEX
  8
DEFAULT_2
 62
8
  6
HIDDEN
 10
83.5964266309
 20
210.394842846
  0
VERTEX
  8
DEFAULT_2
 62
8
  6
HIDDEN
 10
83.6252353978
 20
210.5183587925
  0
VERTEX
  8
DEFAULT_2
 62
8
  6
HIDDEN
 10
83.6720514032
 20
210.6365133778
  0
VERTEX
  8
DEFAULT_2
 62
8
  6
HIDDEN
 10
83.736777834
 20
210.749097362
  0
VERTEX
  8
DEFAULT_2
 62
8
  6
HIDDEN
 10
83.8193346251
 20
210.8548360677
  0
VERTEX
  8
DEFAULT_2
 62
8
  6
HIDDEN
 10
83.9195161282
 20
210.9521342429
  0
VERTEX
  8
DEFAULT_2
 62
8
  6
HIDDEN
 10
84.0346726626
 20
211.0378257077
  0
VERTEX
  8
DEFAULT_2
 62
8
  6
HIDDEN
 10
84.1607870245
 20
211.1096219283
  0
VERTEX
  8
DEFAULT_2
 62
8
  6
HIDDEN
 10
84.2936000126
 20
211.1667200292
  0
VERTEX
  8
DEFAULT_2
 62
8
  6
HIDDEN
 10
84.4347713088
 20
211.2109876511
  0
VERTEX
  8
DEFAULT_2
 62
8
  6
HIDDEN
 10
84.5841789214
 20
211.2426051546
  0
VERTEX
  8
DEFAULT_2
 62
8
  6
HIDDEN
 10
84.7377634341
 20
211.261093298
  0
VERTEX
  8
DEFAULT_2
 62
8
  6
HIDDEN
 10
84.8905038412
 20
211.2669584245
  0
SEQEND
  0
POLYLINE
  8
0
 62
7
  6
CONTINUOUS
 66
1
 70
0
  0
VERTEX
  8
0
 62
7
  6
CONTINUOUS
 10
83.2393273103
 20
199.4024841014
  0
VERTEX
  8
0
 62
7
  6
CONTINUOUS
 10
83.2422029352
 20
199.4202417215
  0
VERTEX
  8
0
 62
7
  6
CONTINUOUS
 10
83.2736345175
 20
199.4618774086
  0
SEQEND
  0
POLYLINE
  8
0
 62
7
  6
CONTINUOUS
 66
1
 70
0
  0
VERTEX
  8
0
 62
7
  6
CONTINUOUS
 10
83.5721910008
 20
199.8744993231
  0
VERTEX
  8
0
 62
7
  6
CONTINUOUS
 10
83.6498848076
 20
200.0001396285
  0
VERTEX
  8
0
 62
7
  6
CONTINUOUS
 10
83.7500375448
 20
200.1413012889
  0
VERTEX
  8
0
 62
7
  6
CONTINUOUS
 10
83.8700603607
 20
200.2928477911
  0
VERTEX
  8
0
 62
7
  6
CONTINUOUS
 10
84.006233706
 20
200.4495657492
  0
SEQEND
  0
POLYLINE
  8
0
 62
7
  6
CONTINUOUS
 66
1
 70
0
  0
VERTEX
  8
0
 62
7
  6
CONTINUOUS
 10
85.8470259558
 20
205.3594175259
  0
VERTEX
  8
0
 62
7
  6
CONTINUOUS
 10
85.6993944913
 20
205.2336880428
  0
VERTEX
  8
0
 62
7
  6
CONTINUOUS
 10
85.5445034835
 20
205.0926589576
  0
VERTEX
  8
0
 62
7
  6
CONTINUOUS
 10
85.3888175237
 20
204.9412230696
  0
VERTEX
  8
0
 62
7
  6
CONTINUOUS
 10
85.2381288924
 20
204.7843510998
  0
SEQEND
  0
POLYLINE
  8
0
 62
7
  6
CONTINUOUS
 66
1
 70
0
  0
VERTEX
  8
0
 62
7
  6
CONTINUOUS
 10
83.6004987345
 20
206.0551082313
  0
VERTEX
  8
0
 62
7
  6
CONTINUOUS
 10
83.46201686
 20
206.0040580212
  0
VERTEX
  8
0
 62
7
  6
CONTINUOUS
 10
83.3559321675
 20
205.9538459014
  0
VERTEX
  8
0
 62
7
  6
CONTINUOUS
 10
83.2834824347
 20
205.9050360932
  0
VERTEX
  8
0
 62
7
  6
CONTINUOUS
 10
83.2454573198
 20
205.8581526744
  0
VERTEX
  8
0
 62
7
  6
CONTINUOUS
 10
83.2393273103
 20
205.8314327476
  0
SEQEND
  0
POLYLINE
  8
0
 62
7
  6
CONTINUOUS
 66
1
 70
0
  0
VERTEX
  8
0
 62
7
  6
CONTINUOUS
 10
83.6004987345
 20
206.0551082313
  0
VERTEX
  8
0
 62
7
  6
CONTINUOUS
 10
83.6499281302
 20
206.0716260176
  0
VERTEX
  8
0
 62
7
  6
CONTINUOUS
 10
83.7473418104
 20
206.1046467651
  0
SEQEND
  0
POLYLINE
  8
0
 62
7
  6
CONTINUOUS
 66
1
 70
0
  0
VERTEX
  8
0
 62
7
  6
CONTINUOUS
 10
83.7473418104
 20
206.1046467651
  0
VERTEX
  8
0
 62
7
  6
CONTINUOUS
 10
83.7712962953
 20
206.1114785238
  0
VERTEX
  8
0
 62
7
  6
CONTINUOUS
 10
83.7952805635
 20
206.1155878029
  0
VERTEX
  8
0
 62
7
  6
CONTINUOUS
 10
83.8192079026
 20
206.1169584245
  0
SEQEND
  0
LINE
  8
DEFAULT_2
 62
8
  6
HIDDEN
 10
115.9623665284
 20
186.4292700839
 11
116.1994376205
 21
186.4788086177
  0
POLYLINE
  8
DEFAULT_2
 62
8
  6
HIDDEN
 66
1
 70
0
  0
VERTEX
  8
DEFAULT_2
 62
8
  6
HIDDEN
 10
119.257087994
 20
186.4788086177
  0
VERTEX
  8
DEFAULT_2
 62
8
  6
HIDDEN
 10
119.5089095294
 20
186.5298588278
  0
VERTEX
  8
DEFAULT_2
 62
8
  6
HIDDEN
 10
119.7372524656
 20
186.5800709476
  0
VERTEX
  8
DEFAULT_2
 62
8
  6
HIDDEN
 10
119.9393977617
 20
186.6288807559
  0
VERTEX
  8
DEFAULT_2
 62
8
  6
HIDDEN
 10
120.1129918173
 20
186.6757641746
  0
VERTEX
  8
DEFAULT_2
 62
8
  6
HIDDEN
 10
120.2560706823
 20
186.7202417215
  0
VERTEX
  8
DEFAULT_2
 62
8
  6
HIDDEN
 10
120.3670625444
 20
186.7618774086
  0
SEQEND
  0
LINE
  8
DEFAULT_2
 62
8
  6
HIDDEN
 10
119.257087994
 20
186.4788086177
 11
119.0047383563
 21
186.4292700839
  0
POLYLINE
  8
0
 62
7
  6
CONTINUOUS
 66
1
 70
0
  0
VERTEX
  8
0
 62
7
  6
CONTINUOUS
 10
124.1574705747
 20
186.7618774086
  0
VERTEX
  8
0
 62
7
  6
CONTINUOUS
 10
124.3113517829
 20
186.7910304715
  0
VERTEX
  8
0
 62
7
  6
CONTINUOUS
 10
124.4662941426
 20
186.8382948692
  0
VERTEX
  8
0
 62
7
  6
CONTINUOUS
 10
124.6157350953
 20
186.9025311057
  0
VERTEX
  8
0
 62
7
  6
CONTINUOUS
 10
124.7545741327
 20
186.981466005
  0
VERTEX
  8
0
 62
7
  6
CONTINUOUS
 10
124.8802275564
 20
187.0732370184
  0
VERTEX
  8
0
 62
7
  6
CONTINUOUS
 10
124.9889990668
 20
187.1744993231
  0
SEQEND
  0
POLYLINE
  8
0
 62
7
  6
CONTINUOUS
 66
1
 70
0
  0
VERTEX
  8
0
 62
7
  6
CONTINUOUS
 10
125.0168729613
 20
186.7618774086
  0
VERTEX
  8
0
 62
7
  6
CONTINUOUS
 10
124.7853953258
 20
186.7202336391
  0
VERTEX
  8
0
 62
7
  6
CONTINUOUS
 10
124.5309397095
 20
186.6757751446
  0
VERTEX
  8
0
 62
7
  6
CONTINUOUS
 10
124.2562699654
 20
186.6289102047
  0
VERTEX
  8
0
 62
7
  6
CONTINUOUS
 10
123.9645056965
 20
186.5801063661
  0
VERTEX
  8
0
 62
7
  6
CONTINUOUS
 10
123.6590881957
 20
186.5298867557
  0
SEQEND
  0
POLYLINE
  8
DEFAULT_2
 62
8
  6
HIDDEN
 66
1
 70
0
  0
VERTEX
  8
DEFAULT_2
 62
8
  6
HIDDEN
 10
115.9623665284
 20
186.4292700839
  0
VERTEX
  8
DEFAULT_2
 62
8
  6
HIDDEN
 10
115.9227113071
 20
186.4224390752
  0
VERTEX
  8
DEFAULT_2
 62
8
  6
HIDDEN
 10
115.8827068345
 20
186.418329028
  0
VERTEX
  8
DEFAULT_2
 62
8
  6
HIDDEN
 10
115.8425109744
 20
186.4169584245
  0
SEQEND
  0
LINE
  8
0
 62
7
  6
CONTINUOUS
 10
122.2523693665
 20
186.4788086177
 11
121.9499469575
 21
186.4292700839
  0
POLYLINE
  8
0
 62
7
  6
CONTINUOUS
 66
1
 70
0
  0
VERTEX
  8
0
 62
7
  6
CONTINUOUS
 10
122.2523693665
 20
186.4788086177
  0
VERTEX
  8
0
 62
7
  6
CONTINUOUS
 10
122.5686715051
 20
186.5298588278
  0
VERTEX
  8
0
 62
7
  6
CONTINUOUS
 10
122.8905954146
 20
186.5800709476
  0
VERTEX
  8
0
 62
7
  6
CONTINUOUS
 10
123.2142618646
 20
186.6288807559
  0
VERTEX
  8
0
 62
7
  6
CONTINUOUS
 10
123.5358052775
 20
186.6757641746
  0
VERTEX
  8
0
 62
7
  6
CONTINUOUS
 10
123.8514363703
 20
186.7202417215
  0
VERTEX
  8
0
 62
7
  6
CONTINUOUS
 10
124.1574705747
 20
186.7618774086
  0
SEQEND
  0
LINE
  8
0
 62
7
  6
CONTINUOUS
 10
123.0357568915
 20
186.4292700839
 11
123.6590881957
 21
186.5298867557
  0
POLYLINE
  8
0
 62
7
  6
CONTINUOUS
 66
1
 70
0
  0
VERTEX
  8
0
 62
7
  6
CONTINUOUS
 10
123.0357568915
 20
186.4292700839
  0
VERTEX
  8
0
 62
7
  6
CONTINUOUS
 10
122.9847485028
 20
186.4224390752
  0
VERTEX
  8
0
 62
7
  6
CONTINUOUS
 10
122.9334307553
 20
186.418329028
  0
VERTEX
  8
0
 62
7
  6
CONTINUOUS
 10
122.8820080686
 20
186.4169584245
  0
SEQEND
  0
LINE
  8
0
 62
7
  6
CONTINUOUS
 10
77.8032863644
 20
181.2669584245
 11
116.5993394562
 21
181.2669584245
  0
LINE
  8
0
 62
9
  6
CONTINUOUS
 10
117.5675981297
 20
182.2669584245
 11
116.0593694909
 21
182.2669584245
  0
LINE
  8
0
 62
9
  6
CONTINUOUS
 10
108.9828966253
 20
182.2669584245
 11
102.8762035376
 21
182.2669584245
  0
LINE
  8
DEFAULT_2
 62
8
  6
HIDDEN
 10
100.5902718994
 20
182.2669584245
 11
93.8123539211
 21
182.2669584245
  0
LINE
  8
DEFAULT_2
 62
8
  6
HIDDEN
 10
83.5865543532
 20
182.2669584245
 11
79.3605916159
 21
182.2669584245
  0
LINE
  8
0
 62
9
  6
CONTINUOUS
 10
76.8350276909
 20
182.2669584245
 11
78.3432563297
 21
182.2669584245
  0
LINE
  8
0
 62
9
  6
CONTINUOUS
 10
85.4197291953
 20
182.2669584245
 11
91.526422283
 21
182.2669584245
  0
LINE
  8
DEFAULT_2
 62
8
  6
HIDDEN
 10
110.8160714674
 20
182.2669584245
 11
115.0420342047
 21
182.2669584245
  0
POLYLINE
  8
DEFAULT_2
 62
8
  6
HIDDEN
 66
1
 70
0
  0
VERTEX
  8
DEFAULT_2
 62
8
  6
HIDDEN
 10
101.2480116417
 20
181.2669584245
  0
VERTEX
  8
DEFAULT_2
 62
8
  6
HIDDEN
 10
101.1279756175
 20
181.2791535192
  0
VERTEX
  8
DEFAULT_2
 62
8
  6
HIDDEN
 10
101.0309137755
 20
181.3096912007
  0
VERTEX
  8
DEFAULT_2
 62
8
  6
HIDDEN
 10
100.9495999939
 20
181.3534124393
  0
VERTEX
  8
DEFAULT_2
 62
8
  6
HIDDEN
 10
100.8772921779
 20
181.4103315413
  0
VERTEX
  8
DEFAULT_2
 62
8
  6
HIDDEN
 10
100.8103734623
 20
181.4833183194
  0
VERTEX
  8
DEFAULT_2
 62
8
  6
HIDDEN
 10
100.7509137925
 20
181.5713241266
  0
VERTEX
  8
DEFAULT_2
 62
8
  6
HIDDEN
 10
100.7004337433
 20
181.6720088089
  0
VERTEX
  8
DEFAULT_2
 62
8
  6
HIDDEN
 10
100.6600027881
 20
181.7812891531
  0
VERTEX
  8
DEFAULT_2
 62
8
  6
HIDDEN
 10
100.6294309409
 20
181.8958857513
  0
VERTEX
  8
DEFAULT_2
 62
8
  6
HIDDEN
 10
100.6079043063
 20
182.014544104
  0
VERTEX
  8
DEFAULT_2
 62
8
  6
HIDDEN
 10
100.5947984845
 20
182.1380023359
  0
VERTEX
  8
DEFAULT_2
 62
8
  6
HIDDEN
 10
100.5902718994
 20
182.2669584245
  0
SEQEND
  0
POLYLINE
  8
0
 62
7
  6
CONTINUOUS
 66
1
 70
0
  0
VERTEX
  8
0
 62
7
  6
CONTINUOUS
 10
72.4526788631
 20
186.4292700839
  0
VERTEX
  8
0
 62
7
  6
CONTINUOUS
 10
72.5029933707
 20
186.4224390752
  0
VERTEX
  8
0
 62
7
  6
CONTINUOUS
 10
72.5536733794
 20
186.418329028
  0
VERTEX
  8
0
 62
7
  6
CONTINUOUS
 10
72.604517837
 20
186.4169584245
  0
SEQEND
  0
POLYLINE
  8
0
 62
7
  6
CONTINUOUS
 66
1
 70
0
  0
VERTEX
  8
0
 62
7
  6
CONTINUOUS
 10
70.2451552459
 20
186.7618774086
  0
VERTEX
  8
0
 62
7
  6
CONTINUOUS
 10
70.5512478184
 20
186.7202336391
  0
VERTEX
  8
0
 62
7
  6
CONTINUOUS
 10
70.8667440131
 20
186.6757751446
  0
VERTEX
  8
0
 62
7
  6
CONTINUOUS
 10
71.1881653496
 20
186.6289102047
  0
VERTEX
  8
0
 62
7
  6
CONTINUOUS
 10
71.5117994471
 20
186.5801063661
  0
VERTEX
  8
0
 62
7
  6
CONTINUOUS
 10
71.8337782746
 20
186.5298867557
  0
VERTEX
  8
0
 62
7
  6
CONTINUOUS
 10
72.1502564541
 20
186.4788086177
  0
SEQEND
  0
POLYLINE
  8
0
 62
7
  6
CONTINUOUS
 66
1
 70
0
  0
VERTEX
  8
0
 62
7
  6
CONTINUOUS
 10
71.3668689291
 20
186.4292700839
  0
VERTEX
  8
0
 62
7
  6
CONTINUOUS
 10
70.7437088174
 20
186.5298588278
  0
VERTEX
  8
0
 62
7
  6
CONTINUOUS
 10
70.4383337566
 20
186.5800709476
  0
VERTEX
  8
0
 62
7
  6
CONTINUOUS
 10
70.1465302521
 20
186.6288807559
  0
VERTEX
  8
0
 62
7
  6
CONTINUOUS
 10
69.8717496875
 20
186.6757641746
  0
VERTEX
  8
0
 62
7
  6
CONTINUOUS
 10
69.6171848661
 20
186.7202417215
  0
VERTEX
  8
0
 62
7
  6
CONTINUOUS
 10
69.3857528593
 20
186.7618774086
  0
SEQEND
  0
LINE
  8
0
 62
7
  6
CONTINUOUS
 10
72.4526788631
 20
186.4292700839
 11
72.1502564541
 21
186.4788086177
  0
POLYLINE
  8
DEFAULT_2
 62
8
  6
HIDDEN
 66
1
 70
0
  0
VERTEX
  8
DEFAULT_2
 62
8
  6
HIDDEN
 10
75.3978874642
 20
186.4292700839
  0
VERTEX
  8
DEFAULT_2
 62
8
  6
HIDDEN
 10
75.439486897
 20
186.4224390752
  0
VERTEX
  8
DEFAULT_2
 62
8
  6
HIDDEN
 10
75.481278274
 20
186.418329028
  0
VERTEX
  8
DEFAULT_2
 62
8
  6
HIDDEN
 10
75.5230942961
 20
186.4169584245
  0
SEQEND
  0
POLYLINE
  8
DEFAULT_2
 62
8
  6
HIDDEN
 66
1
 70
0
  0
VERTEX
  8
DEFAULT_2
 62
8
  6
HIDDEN
 10
76.4435552535
 20
186.7618774086
  0
VERTEX
  8
DEFAULT_2
 62
8
  6
HIDDEN
 10
76.2763954143
 20
186.7910304715
  0
VERTEX
  8
DEFAULT_2
 62
8
  6
HIDDEN
 10
76.1034569823
 20
186.8382948692
  0
VERTEX
  8
DEFAULT_2
 62
8
  6
HIDDEN
 10
75.9318719636
 20
186.9025311057
  0
VERTEX
  8
DEFAULT_2
 62
8
  6
HIDDEN
 10
75.7678192415
 20
186.981466005
  0
VERTEX
  8
DEFAULT_2
 62
8
  6
HIDDEN
 10
75.6150624759
 20
187.0732370184
  0
VERTEX
  8
DEFAULT_2
 62
8
  6
HIDDEN
 10
75.4791566264
 20
187.1744993231
  0
SEQEND
  0
LINE
  8
DEFAULT_2
 62
8
  6
HIDDEN
 10
75.3978874642
 20
186.4292700839
 11
75.1455378266
 21
186.4788086177
  0
POLYLINE
  8
DEFAULT_2
 62
8
  6
HIDDEN
 66
1
 70
0
  0
VERTEX
  8
DEFAULT_2
 62
8
  6
HIDDEN
 10
78.2031882001
 20
186.4788086177
  0
VERTEX
  8
DEFAULT_2
 62
8
  6
HIDDEN
 10
77.9485162935
 20
186.5298588278
  0
VERTEX
  8
DEFAULT_2
 62
8
  6
HIDDEN
 10
77.6738045137
 20
186.5800709476
  0
VERTEX
  8
DEFAULT_2
 62
8
  6
HIDDEN
 10
77.3823812281
 20
186.6288807559
  0
VERTEX
  8
DEFAULT_2
 62
8
  6
HIDDEN
 10
77.0777605834
 20
186.6757641746
  0
VERTEX
  8
DEFAULT_2
 62
8
  6
HIDDEN
 10
76.763577828
 20
186.7202417215
  0
VERTEX
  8
DEFAULT_2
 62
8
  6
HIDDEN
 10
76.4435552535
 20
186.7618774086
  0
SEQEND
  0
LINE
  8
DEFAULT_2
 62
8
  6
HIDDEN
 10
78.2031882001
 20
186.4788086177
 11
78.4402592922
 21
186.4292700839
  0
POLYLINE
  8
0
 62
7
  6
CONTINUOUS
 66
1
 70
0
  0
VERTEX
  8
0
 62
7
  6
CONTINUOUS
 10
83.6004987345
 20
186.4788086177
  0
VERTEX
  8
0
 62
7
  6
CONTINUOUS
 10
83.6988763012
 20
186.4457778043
  0
VERTEX
  8
0
 62
7
  6
CONTINUOUS
 10
83.7473418104
 20
186.4292700839
  0
SEQEND
  0
POLYLINE
  8
0
 62
7
  6
CONTINUOUS
 66
1
 70
0
  0
VERTEX
  8
0
 62
7
  6
CONTINUOUS
 10
83.6004987345
 20
186.4788086177
  0
VERTEX
  8
0
 62
7
  6
CONTINUOUS
 10
83.46201686
 20
186.5298588278
  0
VERTEX
  8
0
 62
7
  6
CONTINUOUS
 10
83.3559321675
 20
186.5800709476
  0
VERTEX
  8
0
 62
7
  6
CONTINUOUS
 10
83.2834824347
 20
186.6288807559
  0
VERTEX
  8
0
 62
7
  6
CONTINUOUS
 10
83.2454573198
 20
186.6757641746
  0
VERTEX
  8
0
 62
7
  6
CONTINUOUS
 10
83.2393273103
 20
186.7024841014
  0
SEQEND
  0
POLYLINE
  8
0
 62
7
  6
CONTINUOUS
 66
1
 70
0
  0
VERTEX
  8
0
 62
7
  6
CONTINUOUS
 10
85.8470259558
 20
187.1744993231
  0
VERTEX
  8
0
 62
7
  6
CONTINUOUS
 10
85.9829255881
 20
187.0733873825
  0
VERTEX
  8
0
 62
7
  6
CONTINUOUS
 10
86.1324614572
 20
186.9816283492
  0
VERTEX
  8
0
 62
7
  6
CONTINUOUS
 10
86.2892708082
 20
186.9026469347
  0
VERTEX
  8
0
 62
7
  6
CONTINUOUS
 10
86.449107322
 20
186.8383526361
  0
VERTEX
  8
0
 62
7
  6
CONTINUOUS
 10
86.6058935382
 20
186.7910454214
  0
VERTEX
  8
0
 62
7
  6
CONTINUOUS
 10
86.7532837423
 20
186.7618774086
  0
SEQEND
  0
POLYLINE
  8
0
 62
7
  6
CONTINUOUS
 66
1
 70
0
  0
VERTEX
  8
0
 62
7
  6
CONTINUOUS
 10
85.2381288924
 20
187.7495657492
  0
VERTEX
  8
0
 62
7
  6
CONTINUOUS
 10
85.3886997435
 20
187.592812238
  0
VERTEX
  8
0
 62
7
  6
CONTINUOUS
 10
85.5444894011
 20
187.4412711406
  0
VERTEX
  8
0
 62
7
  6
CONTINUOUS
 10
85.6995021134
 20
187.3001340512
  0
VERTEX
  8
0
 62
7
  6
CONTINUOUS
 10
85.8470259558
 20
187.1744993231
  0
SEQEND
  0
POLYLINE
  8
0
 62
7
  6
CONTINUOUS
 66
1
 70
0
  0
VERTEX
  8
0
 62
7
  6
CONTINUOUS
 10
83.5721910008
 20
192.6594175259
  0
VERTEX
  8
0
 62
7
  6
CONTINUOUS
 10
83.5113911286
 20
192.7604114541
  0
VERTEX
  8
0
 62
7
  6
CONTINUOUS
 10
83.4504942231
 20
192.8521990874
  0
VERTEX
  8
0
 62
7
  6
CONTINUOUS
 10
83.393795395
 20
192.9312113404
  0
VERTEX
  8
0
 62
7
  6
CONTINUOUS
 10
83.3440048839
 20
192.9955025511
  0
VERTEX
  8
0
 62
7
  6
CONTINUOUS
 10
83.3035118729
 20
193.0428423471
  0
VERTEX
  8
0
 62
7
  6
CONTINUOUS
 10
83.2736345175
 20
193.0720394404
  0
SEQEND
  0
POLYLINE
  8
0
 62
7
  6
CONTINUOUS
 66
1
 70
0
  0
VERTEX
  8
0
 62
7
  6
CONTINUOUS
 10
83.2393273103
 20
193.1314327476
  0
VERTEX
  8
0
 62
7
  6
CONTINUOUS
 10
83.2422029352
 20
193.1136751275
  0
VERTEX
  8
0
 62
7
  6
CONTINUOUS
 10
83.2736345175
 20
193.0720394404
  0
SEQEND
  0
POLYLINE
  8
0
 62
7
  6
CONTINUOUS
 66
1
 70
0
  0
VERTEX
  8
0
 62
7
  6
CONTINUOUS
 10
85.41864227
 20
210.6518700721
  0
VERTEX
  8
0
 62
7
  6
CONTINUOUS
 10
85.4171808904
 20
210.7702761689
  0
VERTEX
  8
0
 62
7
  6
CONTINUOUS
 10
85.4145055102
 20
210.8812280966
  0
VERTEX
  8
0
 62
7
  6
CONTINUOUS
 10
85.4099548264
 20
210.9837467607
  0
VERTEX
  8
0
 62
7
  6
CONTINUOUS
 10
85.402682046
 20
211.0753937909
  0
VERTEX
  8
0
 62
7
  6
CONTINUOUS
 10
85.3916094631
 20
211.1533503556
  0
VERTEX
  8
0
 62
7
  6
CONTINUOUS
 10
85.3754927294
 20
211.2139512797
  0
VERTEX
  8
0
 62
7
  6
CONTINUOUS
 10
85.3530060245
 20
211.253174206
  0
VERTEX
  8
0
 62
7
  6
CONTINUOUS
 10
85.3231785243
 20
211.2669584245
  0
SEQEND
  0
LINE
  8
0
 62
7
  6
CONTINUOUS
 10
85.4196542444
 20
210.3973286264
 11
85.41864227
 21
210.6518700721
  0
LINE
  8
0
 62
9
  6
CONTINUOUS
 10
85.2381288924
 20
187.7495657492
 11
85.2381288924
 21
192.0843510998
  0
LINE
  8
0
 62
9
  6
CONTINUOUS
 10
85.2381288924
 20
200.4495657492
 11
85.2381288924
 21
204.7843510998
  0
LINE
  8
DEFAULT_2
 62
8
  6
HIDDEN
 10
85.2573997369
 20
186.4169584245
 11
85.2573997369
 21
193.4169584245
  0
LINE
  8
DEFAULT_2
 62
8
  6
HIDDEN
 10
85.2573997369
 20
199.1169584245
 11
85.2573997369
 21
206.1169584245
  0
LINE
  8
0
 62
7
  6
CONTINUOUS
 10
85.4197291953
 20
193.4169584245
 11
85.4197291953
 21
199.1169584245
  0
LINE
  8
0
 62
7
  6
CONTINUOUS
 10
85.4197291953
 20
206.1169584245
 11
85.4196542444
 21
210.3973286264
  0
LINE
  8
DEFAULT_2
 62
8
  6
HIDDEN
 10
85.4199449179
 20
186.4169584245
 11
85.4199449179
 21
193.4169584245
  0
LINE
  8
DEFAULT_2
 62
8
  6
HIDDEN
 10
85.4199449179
 20
199.1169584245
 11
85.4199449179
 21
206.1169584245
  0
LINE
  8
0
 62
9
  6
CONTINUOUS
 10
85.8470259558
 20
187.1744993231
 11
85.8470259558
 21
192.6594175259
  0
LINE
  8
0
 62
9
  6
CONTINUOUS
 10
85.8470259558
 20
199.8744993231
 11
85.8470259558
 21
205.3594175259
  0
POLYLINE
  8
0
 62
7
  6
CONTINUOUS
 66
1
 70
0
  0
VERTEX
  8
0
 62
7
  6
CONTINUOUS
 10
83.2393273103
 20
186.7024841014
  0
VERTEX
  8
0
 62
7
  6
CONTINUOUS
 10
83.2422029352
 20
186.7202417215
  0
VERTEX
  8
0
 62
7
  6
CONTINUOUS
 10
83.2736345175
 20
186.7618774086
  0
SEQEND
  0
POLYLINE
  8
0
 62
7
  6
CONTINUOUS
 66
1
 70
0
  0
VERTEX
  8
0
 62
7
  6
CONTINUOUS
 10
83.2736345175
 20
199.4618774086
  0
VERTEX
  8
0
 62
7
  6
CONTINUOUS
 10
83.3034713304
 20
199.4910304715
  0
VERTEX
  8
0
 62
7
  6
CONTINUOUS
 10
83.343908138
 20
199.5382948692
  0
VERTEX
  8
0
 62
7
  6
CONTINUOUS
 10
83.3936654026
 20
199.6025311057
  0
VERTEX
  8
0
 62
7
  6
CONTINUOUS
 10
83.4503200377
 20
199.681466005
  0
VERTEX
  8
0
 62
7
  6
CONTINUOUS
 10
83.5112206941
 20
199.7732370184
  0
VERTEX
  8
0
 62
7
  6
CONTINUOUS
 10
83.5721910008
 20
199.8744993231
  0
SEQEND
  0
POLYLINE
  8
0
 62
7
  6
CONTINUOUS
 66
1
 70
0
  0
VERTEX
  8
0
 62
7
  6
CONTINUOUS
 10
88.1436964796
 20
206.1046467651
  0
VERTEX
  8
0
 62
7
  6
CONTINUOUS
 10
88.1016087535
 20
206.0881390409
  0
VERTEX
  8
0
 62
7
  6
CONTINUOUS
 10
88.0189315416
 20
206.0551082313
  0
SEQEND
  0
POLYLINE
  8
0
 62
7
  6
CONTINUOUS
 66
1
 70
0
  0
VERTEX
  8
0
 62
7
  6
CONTINUOUS
 10
107.6493420783
 20
186.7618774086
  0
VERTEX
  8
0
 62
7
  6
CONTINUOUS
 10
107.7966724922
 20
186.7910304715
  0
VERTEX
  8
0
 62
7
  6
CONTINUOUS
 10
107.9533544192
 20
186.8382948692
  0
VERTEX
  8
0
 62
7
  6
CONTINUOUS
 10
108.1130989866
 20
186.9025311057
  0
VERTEX
  8
0
 62
7
  6
CONTINUOUS
 10
108.2698727397
 20
186.981466005
  0
VERTEX
  8
0
 62
7
  6
CONTINUOUS
 10
108.4194774963
 20
187.0732370184
  0
VERTEX
  8
0
 62
7
  6
CONTINUOUS
 10
108.5555998648
 20
187.1744993231
  0
SEQEND
  0
POLYLINE
  8
DEFAULT_2
 62
8
  6
HIDDEN
 66
1
 70
0
  0
VERTEX
  8
DEFAULT_2
 62
8
  6
HIDDEN
 10
117.959070567
 20
186.7618774086
  0
VERTEX
  8
DEFAULT_2
 62
8
  6
HIDDEN
 10
117.6389884454
 20
186.7202336391
  0
VERTEX
  8
DEFAULT_2
 62
8
  6
HIDDEN
 10
117.3249395632
 20
186.6757751446
  0
VERTEX
  8
DEFAULT_2
 62
8
  6
HIDDEN
 10
117.0204280718
 20
186.6289102047
  0
VERTEX
  8
DEFAULT_2
 62
8
  6
HIDDEN
 10
116.7290238478
 20
186.5801063661
  0
VERTEX
  8
DEFAULT_2
 62
8
  6
HIDDEN
 10
116.4542555494
 20
186.5298867557
  0
VERTEX
  8
DEFAULT_2
 62
8
  6
HIDDEN
 10
116.1994376205
 20
186.4788086177
  0
SEQEND
  0
POLYLINE
  8
0
 62
7
  6
CONTINUOUS
 66
1
 70
0
  0
VERTEX
  8
0
 62
7
  6
CONTINUOUS
 10
86.7532837423
 20
186.7618774086
  0
VERTEX
  8
0
 62
7
  6
CONTINUOUS
 10
87.0239592232
 20
186.7202336391
  0
VERTEX
  8
0
 62
7
  6
CONTINUOUS
 10
87.2743595605
 20
186.6757751446
  0
VERTEX
  8
0
 62
7
  6
CONTINUOUS
 10
87.5016489712
 20
186.6289102047
  0
VERTEX
  8
0
 62
7
  6
CONTINUOUS
 10
87.7031071413
 20
186.5801063661
  0
VERTEX
  8
0
 62
7
  6
CONTINUOUS
 10
87.8762436794
 20
186.5298867557
  0
VERTEX
  8
0
 62
7
  6
CONTINUOUS
 10
88.0189315416
 20
186.4788086177
  0
SEQEND
  0
POLYLINE
  8
0
 62
7
  6
CONTINUOUS
 66
1
 70
0
  0
VERTEX
  8
0
 62
7
  6
CONTINUOUS
 10
88.1436964796
 20
186.4292700839
  0
VERTEX
  8
0
 62
7
  6
CONTINUOUS
 10
88.1648382116
 20
186.4224390752
  0
VERTEX
  8
0
 62
7
  6
CONTINUOUS
 10
88.1862437717
 20
186.418329028
  0
VERTEX
  8
0
 62
7
  6
CONTINUOUS
 10
88.2078297513
 20
186.4169584245
  0
SEQEND
  0
POLYLINE
  8
0
 62
7
  6
CONTINUOUS
 66
1
 70
0
  0
VERTEX
  8
0
 62
7
  6
CONTINUOUS
 10
88.1436964796
 20
186.4292700839
  0
VERTEX
  8
0
 62
7
  6
CONTINUOUS
 10
88.0600200644
 20
186.4622908197
  0
VERTEX
  8
0
 62
7
  6
CONTINUOUS
 10
88.0189315416
 20
186.4788086177
  0
SEQEND
  0
POLYLINE
  8
DEFAULT_2
 62
8
  6
HIDDEN
 66
1
 70
0
  0
VERTEX
  8
DEFAULT_2
 62
8
  6
HIDDEN
 10
75.4791566264
 20
199.8744993231
  0
VERTEX
  8
DEFAULT_2
 62
8
  6
HIDDEN
 10
75.3383063145
 20
200.0001396285
  0
VERTEX
  8
DEFAULT_2
 62
8
  6
HIDDEN
 10
75.200557141
 20
200.1413012889
  0
VERTEX
  8
DEFAULT_2
 62
8
  6
HIDDEN
 10
75.0728941326
 20
200.2928477911
  0
VERTEX
  8
DEFAULT_2
 62
8
  6
HIDDEN
 10
74.9607499365
 20
200.4495657492
  0
SEQEND
  0
POLYLINE
  8
0
 62
7
  6
CONTINUOUS
 66
1
 70
0
  0
VERTEX
  8
0
 62
7
  6
CONTINUOUS
 10
84.006233706
 20
192.0843510998
  0
VERTEX
  8
0
 62
7
  6
CONTINUOUS
 10
83.8699615065
 20
192.2411880325
  0
VERTEX
  8
0
 62
7
  6
CONTINUOUS
 10
83.750026323
 20
192.3926304939
  0
VERTEX
  8
0
 62
7
  6
CONTINUOUS
 10
83.6499478079
 20
192.5336824515
  0
VERTEX
  8
0
 62
7
  6
CONTINUOUS
 10
83.5721910008
 20
192.6594175259
  0
SEQEND
  0
POLYLINE
  8
0
 62
7
  6
CONTINUOUS
 66
1
 70
0
  0
VERTEX
  8
0
 62
7
  6
CONTINUOUS
 10
83.2393273103
 20
205.8314327476
  0
VERTEX
  8
0
 62
7
  6
CONTINUOUS
 10
83.2422029352
 20
205.8136751275
  0
VERTEX
  8
0
 62
7
  6
CONTINUOUS
 10
83.2736345175
 20
205.7720394404
  0
SEQEND
  0
LINE
  8
0
 62
9
  6
CONTINUOUS
 10
88.0189315416
 20
186.4788086177
 11
88.0189315416
 21
193.3551082313
  0
LINE
  8
0
 62
9
  6
CONTINUOUS
 10
88.0189315416
 20
199.1788086177
 11
88.0189315416
 21
206.0551082313
  0
POLYLINE
  8
DEFAULT_2
 62
8
  6
HIDDEN
 66
1
 70
0
  0
VERTEX
  8
DEFAULT_2
 62
8
  6
HIDDEN
 10
94.7658115267
 20
206.1169584245
  0
VERTEX
  8
DEFAULT_2
 62
8
  6
HIDDEN
 10
94.7645122488
 20
206.1155878029
  0
VERTEX
  8
DEFAULT_2
 62
8
  6
HIDDEN
 10
94.7630794768
 20
206.1114785238
  0
VERTEX
  8
DEFAULT_2
 62
8
  6
HIDDEN
 10
94.7615201351
 20
206.1046467651
  0
SEQEND
  0
POLYLINE
  8
DEFAULT_2
 62
8
  6
HIDDEN
 66
1
 70
0
  0
VERTEX
  8
DEFAULT_2
 62
8
  6
HIDDEN
 10
75.4791566264
 20
192.6594175259
  0
VERTEX
  8
DEFAULT_2
 62
8
  6
HIDDEN
 10
75.6146613821
 20
192.7604114541
  0
VERTEX
  8
DEFAULT_2
 62
8
  6
HIDDEN
 10
75.7673520336
 20
192.8521990874
  0
VERTEX
  8
DEFAULT_2
 62
8
  6
HIDDEN
 10
75.9314634417
 20
192.9312113404
  0
VERTEX
  8
DEFAULT_2
 62
8
  6
HIDDEN
 10
76.1030877363
 20
192.9955025511
  0
VERTEX
  8
DEFAULT_2
 62
8
  6
HIDDEN
 10
76.2761983627
 20
193.0428423471
  0
VERTEX
  8
DEFAULT_2
 62
8
  6
HIDDEN
 10
76.4435552535
 20
193.0720394404
  0
SEQEND
  0
POLYLINE
  8
DEFAULT_2
 62
8
  6
HIDDEN
 66
1
 70
0
  0
VERTEX
  8
DEFAULT_2
 62
8
  6
HIDDEN
 10
74.0355632762
 20
193.0720394404
  0
VERTEX
  8
DEFAULT_2
 62
8
  6
HIDDEN
 10
73.9909432156
 20
193.0428268452
  0
VERTEX
  8
DEFAULT_2
 62
8
  6
HIDDEN
 10
73.9543782122
 20
192.9954439479
  0
VERTEX
  8
DEFAULT_2
 62
8
  6
HIDDEN
 10
73.9277868846
 20
192.9310934665
  0
VERTEX
  8
DEFAULT_2
 62
8
  6
HIDDEN
 10
73.9114618425
 20
192.8520315961
  0
VERTEX
  8
DEFAULT_2
 62
8
  6
HIDDEN
 10
73.9044227974
 20
192.7602571077
  0
VERTEX
  8
DEFAULT_2
 62
8
  6
HIDDEN
 10
73.9038500506
 20
192.7187734861
  0
SEQEND
  0
POLYLINE
  8
0
 62
7
  6
CONTINUOUS
 66
1
 70
0
  0
VERTEX
  8
0
 62
7
  6
CONTINUOUS
 10
109.0794472963
 20
211.2669584245
  0
VERTEX
  8
0
 62
7
  6
CONTINUOUS
 10
109.0496166048
 20
211.2531708846
  0
VERTEX
  8
0
 62
7
  6
CONTINUOUS
 10
109.0271345594
 20
211.2139551729
  0
VERTEX
  8
0
 62
7
  6
CONTINUOUS
 10
109.0110204474
 20
211.1533717349
  0
VERTEX
  8
0
 62
7
  6
CONTINUOUS
 10
108.9999495491
 20
211.0754486902
  0
VERTEX
  8
0
 62
7
  6
CONTINUOUS
 10
108.9926784809
 20
210.9838736225
  0
VERTEX
  8
0
 62
7
  6
CONTINUOUS
 10
108.9881189094
 20
210.8811850812
  0
VERTEX
  8
0
 62
7
  6
CONTINUOUS
 10
108.9854436145
 20
210.7701997141
  0
VERTEX
  8
0
 62
7
  6
CONTINUOUS
 10
108.983983182
 20
210.6518261861
  0
VERTEX
  8
0
 62
7
  6
CONTINUOUS
 10
108.9832661038
 20
210.5265925982
  0
VERTEX
  8
0
 62
7
  6
CONTINUOUS
 10
108.9828966253
 20
206.1169584245
  0
SEQEND
  0
POLYLINE
  8
DEFAULT_2
 62
8
  6
HIDDEN
 66
1
 70
0
  0
VERTEX
  8
DEFAULT_2
 62
8
  6
HIDDEN
 10
95.2702532762
 20
186.7618774086
  0
VERTEX
  8
DEFAULT_2
 62
8
  6
HIDDEN
 10
95.1025950345
 20
186.7202336391
  0
VERTEX
  8
DEFAULT_2
 62
8
  6
HIDDEN
 10
94.9654381
 20
186.6757751446
  0
VERTEX
  8
DEFAULT_2
 62
8
  6
HIDDEN
 10
94.8603882252
 20
186.6289102047
  0
VERTEX
  8
DEFAULT_2
 62
8
  6
HIDDEN
 10
94.7887773704
 20
186.5801063661
  0
VERTEX
  8
DEFAULT_2
 62
8
  6
HIDDEN
 10
94.7515644074
 20
186.5298867557
  0
VERTEX
  8
DEFAULT_2
 62
8
  6
HIDDEN
 10
94.7459609104
 20
186.5011043131
  0
SEQEND
  0
POLYLINE
  8
0
 62
7
  6
CONTINUOUS
 66
1
 70
0
  0
VERTEX
  8
0
 62
7
  6
CONTINUOUS
 10
106.1947960693
 20
186.4169584245
  0
VERTEX
  8
0
 62
7
  6
CONTINUOUS
 10
106.2163820489
 20
186.418329028
  0
VERTEX
  8
0
 62
7
  6
CONTINUOUS
 10
106.2377876089
 20
186.4224390752
  0
VERTEX
  8
0
 62
7
  6
CONTINUOUS
 10
106.258929341
 20
186.4292700839
  0
SEQEND
  0
POLYLINE
  8
DEFAULT_2
 62
8
  6
HIDDEN
 66
1
 70
0
  0
VERTEX
  8
DEFAULT_2
 62
8
  6
HIDDEN
 10
118.8795315245
 20
186.4169584245
  0
VERTEX
  8
DEFAULT_2
 62
8
  6
HIDDEN
 10
118.9213475465
 20
186.418329028
  0
VERTEX
  8
DEFAULT_2
 62
8
  6
HIDDEN
 10
118.9631389235
 20
186.4224390752
  0
VERTEX
  8
DEFAULT_2
 62
8
  6
HIDDEN
 10
119.0047383563
 20
186.4292700839
  0
SEQEND
  0
POLYLINE
  8
0
 62
7
  6
CONTINUOUS
 66
1
 70
0
  0
VERTEX
  8
0
 62
7
  6
CONTINUOUS
 10
121.7981079836
 20
186.4169584245
  0
VERTEX
  8
0
 62
7
  6
CONTINUOUS
 10
121.8489524412
 20
186.418329028
  0
VERTEX
  8
0
 62
7
  6
CONTINUOUS
 10
121.8996324498
 20
186.4224390752
  0
VERTEX
  8
0
 62
7
  6
CONTINUOUS
 10
121.9499469575
 20
186.4292700839
  0
SEQEND
  0
LINE
  8
0
 62
7
  6
CONTINUOUS
 10
122.8820080686
 20
186.4169584245
 11
116.0593694909
 21
186.4169584245
  0
LINE
  8
DEFAULT_2
 62
8
  6
HIDDEN
 10
100.5902718994
 20
186.4169584245
 11
93.8123539211
 21
186.4169584245
  0
LINE
  8
0
 62
7
  6
CONTINUOUS
 10
91.526422283
 20
186.4169584245
 11
88.2078297513
 21
186.4169584245
  0
LINE
  8
DEFAULT_2
 62
8
  6
HIDDEN
 10
83.5865543532
 20
186.4169584245
 11
78.3432563297
 21
186.4169584245
  0
LINE
  8
0
 62
7
  6
CONTINUOUS
 10
71.5206177519
 20
186.4169584245
 11
78.3432563297
 21
186.4169584245
  0
LINE
  8
0
 62
7
  6
CONTINUOUS
 10
83.8192079026
 20
186.4169584245
 11
88.1436964796
 21
186.4169584245
  0
LINE
  8
DEFAULT_2
 62
8
  6
HIDDEN
 10
88.1436964796
 20
186.4169584245
 11
88.2078297513
 21
186.4169584245
  0
LINE
  8
0
 62
7
  6
CONTINUOUS
 10
102.8762035376
 20
186.4169584245
 11
110.5834179179
 21
186.4169584245
  0
LINE
  8
DEFAULT_2
 62
8
  6
HIDDEN
 10
110.8160714674
 20
186.4169584245
 11
116.0593694909
 21
186.4169584245
  0
LINE
  8
0
 62
9
  6
CONTINUOUS
 10
123.0357568915
 20
186.4292700839
 11
121.9499469575
 21
186.4292700839
  0
LINE
  8
0
 62
9
  6
CONTINUOUS
 10
110.6552840101
 20
186.4292700839
 11
106.258929341
 21
186.4292700839
  0
LINE
  8
DEFAULT_2
 62
8
  6
HIDDEN
 10
99.6411056855
 20
186.4292700839
 11
94.7615201351
 21
186.4292700839
  0
LINE
  8
DEFAULT_2
 62
8
  6
HIDDEN
 10
78.4402592922
 20
186.4292700839
 11
75.3978874642
 21
186.4292700839
  0
LINE
  8
0
 62
9
  6
CONTINUOUS
 10
71.3668689291
 20
186.4292700839
 11
72.4526788631
 21
186.4292700839
  0
LINE
  8
0
 62
9
  6
CONTINUOUS
 10
83.7473418104
 20
186.4292700839
 11
88.1436964796
 21
186.4292700839
  0
LINE
  8
DEFAULT_2
 62
8
  6
HIDDEN
 10
115.9623665284
 20
186.4292700839
 11
119.0047383563
 21
186.4292700839
  0
LINE
  8
0
 62
9
  6
CONTINUOUS
 10
125.0168729613
 20
186.7618774086
 11
124.1574705747
 21
186.7618774086
  0
LINE
  8
0
 62
9
  6
CONTINUOUS
 10
111.1289913031
 20
186.7618774086
 11
107.6493420783
 21
186.7618774086
  0
LINE
  8
DEFAULT_2
 62
8
  6
HIDDEN
 10
99.1323725444
 20
186.7618774086
 11
95.2702532762
 21
186.7618774086
  0
LINE
  8
DEFAULT_2
 62
8
  6
HIDDEN
 10
76.4435552535
 20
186.7618774086
 11
74.0355632762
 21
186.7618774086
  0
LINE
  8
0
 62
9
  6
CONTINUOUS
 10
69.3857528593
 20
186.7618774086
 11
70.2451552459
 21
186.7618774086
  0
LINE
  8
0
 62
9
  6
CONTINUOUS
 10
83.2736345175
 20
186.7618774086
 11
86.7532837423
 21
186.7618774086
  0
LINE
  8
DEFAULT_2
 62
8
  6
HIDDEN
 10
117.959070567
 20
186.7618774086
 11
120.3670625444
 21
186.7618774086
  0
LINE
  8
DEFAULT_2
 62
8
  6
HIDDEN
 10
120.2943738039
 20
187.7495657492
 11
119.4418758841
 21
187.7495657492
  0
LINE
  8
DEFAULT_2
 62
8
  6
HIDDEN
 10
97.8849631619
 20
187.7495657492
 11
96.5176626587
 21
187.7495657492
  0
LINE
  8
DEFAULT_2
 62
8
  6
HIDDEN
 10
74.9607499365
 20
187.7495657492
 11
74.1082520167
 21
187.7495657492
  0
LINE
  8
0
 62
9
  6
CONTINUOUS
 10
68.7841342552
 20
187.7495657492
 11
69.0883872401
 21
187.7495657492
  0
LINE
  8
0
 62
9
  6
CONTINUOUS
 10
84.006233706
 20
187.7495657492
 11
85.2381288924
 21
187.7495657492
  0
LINE
  8
0
 62
9
  6
CONTINUOUS
 10
109.1644969282
 20
187.7495657492
 11
110.3963921146
 21
187.7495657492
  0
LINE
  8
0
 62
9
  6
CONTINUOUS
 10
125.3142385804
 20
187.7495657492
 11
125.6184915654
 21
187.7495657492
  0
POLYLINE
  8
0
 62
7
  6
CONTINUOUS
 66
1
 70
0
  0
VERTEX
  8
0
 62
7
  6
CONTINUOUS
 10
71.5206177519
 20
186.4169584245
  0
VERTEX
  8
0
 62
7
  6
CONTINUOUS
 10
71.4691950652
 20
186.418329028
  0
VERTEX
  8
0
 62
7
  6
CONTINUOUS
 10
71.4178773178
 20
186.4224390752
  0
VERTEX
  8
0
 62
7
  6
CONTINUOUS
 10
71.3668689291
 20
186.4292700839
  0
SEQEND
  0
POLYLINE
  8
DEFAULT_2
 62
8
  6
HIDDEN
 66
1
 70
0
  0
VERTEX
  8
DEFAULT_2
 62
8
  6
HIDDEN
 10
78.5601148462
 20
186.4169584245
  0
VERTEX
  8
DEFAULT_2
 62
8
  6
HIDDEN
 10
78.519918986
 20
186.418329028
  0
VERTEX
  8
DEFAULT_2
 62
8
  6
HIDDEN
 10
78.4799145135
 20
186.4224390752
  0
VERTEX
  8
DEFAULT_2
 62
8
  6
HIDDEN
 10
78.4402592922
 20
186.4292700839
  0
SEQEND
  0
POLYLINE
  8
0
 62
7
  6
CONTINUOUS
 66
1
 70
0
  0
VERTEX
  8
0
 62
7
  6
CONTINUOUS
 10
83.8192079026
 20
186.4169584245
  0
VERTEX
  8
0
 62
7
  6
CONTINUOUS
 10
83.7952807213
 20
186.418329028
  0
VERTEX
  8
0
 62
7
  6
CONTINUOUS
 10
83.7712930095
 20
186.4224390752
  0
VERTEX
  8
0
 62
7
  6
CONTINUOUS
 10
83.7473418104
 20
186.4292700839
  0
SEQEND
  0
POLYLINE
  8
DEFAULT_2
 62
8
  6
HIDDEN
 66
1
 70
0
  0
VERTEX
  8
DEFAULT_2
 62
8
  6
HIDDEN
 10
99.1323725444
 20
186.7618774086
  0
VERTEX
  8
DEFAULT_2
 62
8
  6
HIDDEN
 10
99.0340521511
 20
186.7910304715
  0
VERTEX
  8
DEFAULT_2
 62
8
  6
HIDDEN
 10
98.9246595064
 20
186.8382948692
  0
VERTEX
  8
DEFAULT_2
 62
8
  6
HIDDEN
 10
98.808394761
 20
186.9025311057
  0
VERTEX
  8
DEFAULT_2
 62
8
  6
HIDDEN
 10
98.6899509414
 20
186.981466005
  0
VERTEX
  8
DEFAULT_2
 62
8
  6
HIDDEN
 10
98.5731292506
 20
187.0732370184
  0
VERTEX
  8
DEFAULT_2
 62
8
  6
HIDDEN
 10
98.4637510677
 20
187.1744993231
  0
SEQEND
  0
POLYLINE
  8
0
 62
7
  6
CONTINUOUS
 66
1
 70
0
  0
VERTEX
  8
0
 62
7
  6
CONTINUOUS
 10
91.526422283
 20
182.2669584245
  0
VERTEX
  8
0
 62
7
  6
CONTINUOUS
 10
91.5345045508
 20
182.1380114521
  0
VERTEX
  8
0
 62
7
  6
CONTINUOUS
 10
91.5578457478
 20
182.014563629
  0
VERTEX
  8
0
 62
7
  6
CONTINUOUS
 10
91.5959974875
 20
181.8959146124
  0
VERTEX
  8
0
 62
7
  6
CONTINUOUS
 10
91.6497940238
 20
181.7813240674
  0
VERTEX
  8
0
 62
7
  6
CONTINUOUS
 10
91.7202707827
 20
181.6720469325
  0
VERTEX
  8
0
 62
7
  6
CONTINUOUS
 10
91.8072444454
 20
181.5713673351
  0
VERTEX
  8
0
 62
7
  6
CONTINUOUS
 10
91.9083196766
 20
181.4833691527
  0
VERTEX
  8
0
 62
7
  6
CONTINUOUS
 10
92.0204470588
 20
181.4103744204
  0
VERTEX
  8
0
 62
7
  6
CONTINUOUS
 10
92.1398345115
 20
181.3534268677
  0
VERTEX
  8
0
 62
7
  6
CONTINUOUS
 10
92.272007972
 20
181.3096861884
  0
VERTEX
  8
0
 62
7
  6
CONTINUOUS
 10
92.4270682093
 20
181.2791474121
  0
VERTEX
  8
0
 62
7
  6
CONTINUOUS
 10
92.6150776739
 20
181.2669584245
  0
SEQEND
  0
LINE
  8
DEFAULT_2
 62
8
  6
HIDDEN
 10
89.614609629
 20
181.2669584245
 11
89.614609629
 21
211.2669584245
  0
LINE
  8
0
 62
7
  6
CONTINUOUS
 10
90.1797089529
 20
186.4169584245
 11
90.1797089529
 21
193.4169584245
  0
LINE
  8
0
 62
7
  6
CONTINUOUS
 10
90.1797089529
 20
199.1169584245
 11
90.1797089529
 21
206.1169584245
  0
POLYLINE
  8
0
 62
7
  6
CONTINUOUS
 66
1
 70
0
  0
VERTEX
  8
0
 62
7
  6
CONTINUOUS
 10
83.5721910008
 20
187.1744993231
  0
VERTEX
  8
0
 62
7
  6
CONTINUOUS
 10
83.6498848076
 20
187.3001396285
  0
VERTEX
  8
0
 62
7
  6
CONTINUOUS
 10
83.7500375448
 20
187.4413012889
  0
VERTEX
  8
0
 62
7
  6
CONTINUOUS
 10
83.8700603607
 20
187.5928477911
  0
VERTEX
  8
0
 62
7
  6
CONTINUOUS
 10
84.006233706
 20
187.7495657492
  0
SEQEND
  0
POLYLINE
  8
0
 62
7
  6
CONTINUOUS
 66
1
 70
0
  0
VERTEX
  8
0
 62
7
  6
CONTINUOUS
 10
83.5721910008
 20
205.3594175259
  0
VERTEX
  8
0
 62
7
  6
CONTINUOUS
 10
83.5113911286
 20
205.4604114541
  0
VERTEX
  8
0
 62
7
  6
CONTINUOUS
 10
83.4504942231
 20
205.5521990874
  0
VERTEX
  8
0
 62
7
  6
CONTINUOUS
 10
83.393795395
 20
205.6312113404
  0
VERTEX
  8
0
 62
7
  6
CONTINUOUS
 10
83.3440048839
 20
205.6955025511
  0
VERTEX
  8
0
 62
7
  6
CONTINUOUS
 10
83.3035118729
 20
205.7428423471
  0
VERTEX
  8
0
 62
7
  6
CONTINUOUS
 10
83.2736345175
 20
205.7720394404
  0
SEQEND
  0
LINE
  8
0
 62
7
  6
CONTINUOUS
 10
91.526422283
 20
182.2669584245
 11
91.526422283
 21
186.4169584245
  0
LINE
  8
0
 62
7
  6
CONTINUOUS
 10
91.526422283
 20
193.4169584245
 11
91.526422283
 21
199.1169584245
  0
LINE
  8
0
 62
7
  6
CONTINUOUS
 10
91.526422283
 20
206.1169584245
 11
91.526422283
 21
210.2669584245
  0
POLYLINE
  8
DEFAULT_2
 62
8
  6
HIDDEN
 66
1
 70
0
  0
VERTEX
  8
DEFAULT_2
 62
8
  6
HIDDEN
 10
94.7615201351
 20
206.1046467651
  0
VERTEX
  8
DEFAULT_2
 62
8
  6
HIDDEN
 10
94.7579807263
 20
206.0881390409
  0
VERTEX
  8
DEFAULT_2
 62
8
  6
HIDDEN
 10
94.7538965475
 20
206.0716260293
  0
VERTEX
  8
DEFAULT_2
 62
8
  6
HIDDEN
 10
94.7492676929
 20
206.0551082313
  0
SEQEND
  0
POLYLINE
  8
DEFAULT_2
 62
8
  6
HIDDEN
 66
1
 70
0
  0
VERTEX
  8
DEFAULT_2
 62
8
  6
HIDDEN
 10
98.1971558139
 20
205.0926304939
  0
VERTEX
  8
DEFAULT_2
 62
8
  6
HIDDEN
 10
98.3386664892
 20
205.2336824515
  0
VERTEX
  8
DEFAULT_2
 62
8
  6
HIDDEN
 10
98.4637510677
 20
205.3594175259
  0
SEQEND
  0
LINE
  8
DEFAULT_2
 62
8
  6
HIDDEN
 10
97.8849631619
 20
204.7843510998
 11
98.1971558139
 21
205.0926304939
  0
POLYLINE
  8
DEFAULT_2
 62
8
  6
HIDDEN
 66
1
 70
0
  0
VERTEX
  8
DEFAULT_2
 62
8
  6
HIDDEN
 10
98.4637510677
 20
205.3594175259
  0
VERTEX
  8
DEFAULT_2
 62
8
  6
HIDDEN
 10
98.5728140691
 20
205.4604114541
  0
VERTEX
  8
DEFAULT_2
 62
8
  6
HIDDEN
 10
98.6896033284
 20
205.5521990874
  0
VERTEX
  8
DEFAULT_2
 62
8
  6
HIDDEN
 10
98.8081087058
 20
205.6312113404
  0
VERTEX
  8
DEFAULT_2
 62
8
  6
HIDDEN
 10
98.9244175923
 20
205.6955025511
  0
VERTEX
  8
DEFAULT_2
 62
8
  6
HIDDEN
 10
99.0339319423
 20
205.7428423471
  0
VERTEX
  8
DEFAULT_2
 62
8
  6
HIDDEN
 10
99.1323725444
 20
205.7720394404
  0
SEQEND
  0
POLYLINE
  8
0
 62
7
  6
CONTINUOUS
 66
1
 70
0
  0
VERTEX
  8
0
 62
7
  6
CONTINUOUS
 10
85.8470259558
 20
192.6594175259
  0
VERTEX
  8
0
 62
7
  6
CONTINUOUS
 10
85.6993944913
 20
192.5336880428
  0
VERTEX
  8
0
 62
7
  6
CONTINUOUS
 10
85.5445034835
 20
192.3926589576
  0
VERTEX
  8
0
 62
7
  6
CONTINUOUS
 10
85.3888175237
 20
192.2412230696
  0
VERTEX
  8
0
 62
7
  6
CONTINUOUS
 10
85.2381288924
 20
192.0843510998
  0
SEQEND
  0
POLYLINE
  8
DEFAULT_2
 62
8
  6
HIDDEN
 66
1
 70
0
  0
VERTEX
  8
DEFAULT_2
 62
8
  6
HIDDEN
 10
74.0355632762
 20
193.0720394404
  0
VERTEX
  8
DEFAULT_2
 62
8
  6
HIDDEN
 10
74.1465789901
 20
193.11368321
  0
VERTEX
  8
DEFAULT_2
 62
8
  6
HIDDEN
 10
74.2895959726
 20
193.1581417044
  0
VERTEX
  8
DEFAULT_2
 62
8
  6
HIDDEN
 10
74.4631124127
 20
193.2050066444
  0
VERTEX
  8
DEFAULT_2
 62
8
  6
HIDDEN
 10
74.6652193613
 20
193.253810483
  0
VERTEX
  8
DEFAULT_2
 62
8
  6
HIDDEN
 10
74.8935838538
 20
193.3040300933
  0
VERTEX
  8
DEFAULT_2
 62
8
  6
HIDDEN
 10
75.1455378266
 20
193.3551082313
  0
SEQEND
  0
LINE
  8
DEFAULT_2
 62
8
  6
HIDDEN
 10
120.2943738039
 20
192.0843510998
 11
119.4418758841
 21
192.0843510998
  0
LINE
  8
DEFAULT_2
 62
8
  6
HIDDEN
 10
74.9607499365
 20
192.0843510998
 11
74.1082520167
 21
192.0843510998
  0
LINE
  8
0
 62
9
  6
CONTINUOUS
 10
68.7841342552
 20
192.0843510998
 11
69.0883872401
 21
192.0843510998
  0
LINE
  8
0
 62
9
  6
CONTINUOUS
 10
84.006233706
 20
192.0843510998
 11
85.2381288924
 21
192.0843510998
  0
LINE
  8
DEFAULT_2
 62
8
  6
HIDDEN
 10
96.5176626587
 20
192.0843510998
 11
97.8849631619
 21
192.0843510998
  0
LINE
  8
0
 62
9
  6
CONTINUOUS
 10
109.1644969282
 20
192.0843510998
 11
110.3963921146
 21
192.0843510998
  0
LINE
  8
0
 62
9
  6
CONTINUOUS
 10
125.3142385804
 20
192.0843510998
 11
125.6184915654
 21
192.0843510998
  0
POLYLINE
  8
DEFAULT_2
 62
8
  6
HIDDEN
 66
1
 70
0
  0
VERTEX
  8
DEFAULT_2
 62
8
  6
HIDDEN
 10
74.0355632762
 20
199.4618774086
  0
VERTEX
  8
DEFAULT_2
 62
8
  6
HIDDEN
 10
74.1465789901
 20
199.4202336391
  0
VERTEX
  8
DEFAULT_2
 62
8
  6
HIDDEN
 10
74.2895959726
 20
199.3757751446
  0
VERTEX
  8
DEFAULT_2
 62
8
  6
HIDDEN
 10
74.4631124127
 20
199.3289102047
  0
VERTEX
  8
DEFAULT_2
 62
8
  6
HIDDEN
 10
74.6652193613
 20
199.2801063661
  0
VERTEX
  8
DEFAULT_2
 62
8
  6
HIDDEN
 10
74.8935838538
 20
199.2298867557
  0
VERTEX
  8
DEFAULT_2
 62
8
  6
HIDDEN
 10
75.1455378266
 20
199.1788086177
  0
SEQEND
  0
POLYLINE
  8
DEFAULT_2
 62
8
  6
HIDDEN
 66
1
 70
0
  0
VERTEX
  8
DEFAULT_2
 62
8
  6
HIDDEN
 10
98.4637510677
 20
187.1744993231
  0
VERTEX
  8
DEFAULT_2
 62
8
  6
HIDDEN
 10
98.3387611863
 20
187.3001396285
  0
VERTEX
  8
DEFAULT_2
 62
8
  6
HIDDEN
 10
98.1971407776
 20
187.4413012889
  0
VERTEX
  8
DEFAULT_2
 62
8
  6
HIDDEN
 10
97.8849631619
 20
187.7495657492
  0
SEQEND
  0
POLYLINE
  8
0
 62
7
  6
CONTINUOUS
 66
1
 70
0
  0
VERTEX
  8
0
 62
7
  6
CONTINUOUS
 10
85.2381288924
 20
200.4495657492
  0
VERTEX
  8
0
 62
7
  6
CONTINUOUS
 10
85.3886997435
 20
200.292812238
  0
VERTEX
  8
0
 62
7
  6
CONTINUOUS
 10
85.5444894011
 20
200.1412711406
  0
VERTEX
  8
0
 62
7
  6
CONTINUOUS
 10
85.6995021134
 20
200.0001340512
  0
VERTEX
  8
0
 62
7
  6
CONTINUOUS
 10
85.8470259558
 20
199.8744993231
  0
SEQEND
  0
POLYLINE
  8
0
 62
7
  6
CONTINUOUS
 66
1
 70
0
  0
VERTEX
  8
0
 62
7
  6
CONTINUOUS
 10
84.006233706
 20
204.7843510998
  0
VERTEX
  8
0
 62
7
  6
CONTINUOUS
 10
83.8699615065
 20
204.9411880325
  0
VERTEX
  8
0
 62
7
  6
CONTINUOUS
 10
83.750026323
 20
205.0926304939
  0
VERTEX
  8
0
 62
7
  6
CONTINUOUS
 10
83.6499478079
 20
205.2336824515
  0
VERTEX
  8
0
 62
7
  6
CONTINUOUS
 10
83.5721910008
 20
205.3594175259
  0
SEQEND
  0
POLYLINE
  8
DEFAULT_2
 62
8
  6
HIDDEN
 66
1
 70
0
  0
VERTEX
  8
DEFAULT_2
 62
8
  6
HIDDEN
 10
94.7615201351
 20
186.4292700839
  0
VERTEX
  8
DEFAULT_2
 62
8
  6
HIDDEN
 10
94.7630792717
 20
186.4224390752
  0
VERTEX
  8
DEFAULT_2
 62
8
  6
HIDDEN
 10
94.7645122578
 20
186.418329028
  0
VERTEX
  8
DEFAULT_2
 62
8
  6
HIDDEN
 10
94.7658115267
 20
186.4169584245
  0
SEQEND
  0
POLYLINE
  8
DEFAULT_2
 62
8
  6
HIDDEN
 66
1
 70
0
  0
VERTEX
  8
DEFAULT_2
 62
8
  6
HIDDEN
 10
94.7615201351
 20
186.4292700839
  0
VERTEX
  8
DEFAULT_2
 62
8
  6
HIDDEN
 10
94.7579807263
 20
186.4457778081
  0
VERTEX
  8
DEFAULT_2
 62
8
  6
HIDDEN
 10
94.7538965475
 20
186.4622908197
  0
VERTEX
  8
DEFAULT_2
 62
8
  6
HIDDEN
 10
94.7492676929
 20
186.4788086177
  0
SEQEND
  0
LINE
  8
DEFAULT_2
 62
8
  6
HIDDEN
 10
93.8123539211
 20
199.1169584245
 11
93.8123539211
 21
193.4169584245
  0
LINE
  8
DEFAULT_2
 62
8
  6
HIDDEN
 10
93.8123539211
 20
186.4169584245
 11
93.8123539211
 21
182.2669584245
  0
LINE
  8
DEFAULT_2
 62
8
  6
HIDDEN
 10
93.8123539211
 20
206.1169584245
 11
93.8123539211
 21
210.2669584245
  0
LINE
  8
DEFAULT_2
 62
8
  6
HIDDEN
 10
94.4696373823
 20
186.4169584245
 11
94.4696373823
 21
193.4169584245
  0
LINE
  8
DEFAULT_2
 62
8
  6
HIDDEN
 10
94.4696373823
 20
199.1169584245
 11
94.4696373823
 21
206.1169584245
  0
LINE
  8
DEFAULT_2
 62
8
  6
HIDDEN
 10
94.7459609103
 20
186.5009988424
 11
94.7459609103
 21
193.3329180067
  0
LINE
  8
DEFAULT_2
 62
8
  6
HIDDEN
 10
94.7459609103
 20
199.2009988424
 11
94.7459609103
 21
206.0329180067
  0
LINE
  8
DEFAULT_2
 62
8
  6
HIDDEN
 10
94.7492676929
 20
186.4788086177
 11
94.7492676929
 21
193.3551082313
  0
LINE
  8
DEFAULT_2
 62
8
  6
HIDDEN
 10
94.7492676929
 20
199.1788086177
 11
94.7492676929
 21
206.0551082313
  0
LINE
  8
DEFAULT_2
 62
8
  6
HIDDEN
 10
94.7713129103
 20
186.4169584245
 11
94.7713129103
 21
193.4169584245
  0
LINE
  8
DEFAULT_2
 62
8
  6
HIDDEN
 10
94.7713129103
 20
199.1169584245
 11
94.7713129103
 21
206.1169584245
  0
POLYLINE
  8
DEFAULT_2
 62
8
  6
HIDDEN
 66
1
 70
0
  0
VERTEX
  8
DEFAULT_2
 62
8
  6
HIDDEN
 10
93.8123539211
 20
182.2669584245
  0
VERTEX
  8
DEFAULT_2
 62
8
  6
HIDDEN
 10
93.8078279797
 20
182.1380114521
  0
VERTEX
  8
DEFAULT_2
 62
8
  6
HIDDEN
 10
93.7947243042
 20
182.014563629
  0
VERTEX
  8
DEFAULT_2
 62
8
  6
HIDDEN
 10
93.7732012885
 20
181.8959146124
  0
VERTEX
  8
DEFAULT_2
 62
8
  6
HIDDEN
 10
93.7426340311
 20
181.7813240674
  0
VERTEX
  8
DEFAULT_2
 62
8
  6
HIDDEN
 10
93.7022084999
 20
181.6720469325
  0
VERTEX
  8
DEFAULT_2
 62
8
  6
HIDDEN
 10
93.6517371629
 20
181.5713673351
  0
VERTEX
  8
DEFAULT_2
 62
8
  6
HIDDEN
 10
93.5922923086
 20
181.4833691527
  0
VERTEX
  8
DEFAULT_2
 62
8
  6
HIDDEN
 10
93.5253798005
 20
181.4103744204
  0
VERTEX
  8
DEFAULT_2
 62
8
  6
HIDDEN
 10
93.4530477376
 20
181.3534268677
  0
VERTEX
  8
DEFAULT_2
 62
8
  6
HIDDEN
 10
93.3717003002
 20
181.3096861884
  0
VERTEX
  8
DEFAULT_2
 62
8
  6
HIDDEN
 10
93.2746212698
 20
181.2791474121
  0
VERTEX
  8
DEFAULT_2
 62
8
  6
HIDDEN
 10
93.1546141788
 20
181.2669584245
  0
SEQEND
  0
LINE
  8
DEFAULT_2
 62
8
  6
HIDDEN
 10
94.7459609104
 20
206.0328125359
 11
94.7492676929
 21
206.0551082313
  0
LINE
  8
DEFAULT_2
 62
8
  6
HIDDEN
 10
94.7459609104
 20
193.3328125359
 11
94.7492676929
 21
193.3551082313
  0
POLYLINE
  8
DEFAULT_2
 62
8
  6
HIDDEN
 66
1
 70
0
  0
VERTEX
  8
DEFAULT_2
 62
8
  6
HIDDEN
 10
96.2054546877
 20
200.1412711406
  0
VERTEX
  8
DEFAULT_2
 62
8
  6
HIDDEN
 10
96.0638590613
 20
200.0001340512
  0
VERTEX
  8
DEFAULT_2
 62
8
  6
HIDDEN
 10
95.9388747528
 20
199.8744993231
  0
SEQEND
  0
LINE
  8
DEFAULT_2
 62
8
  6
HIDDEN
 10
96.5176626587
 20
200.4495657492
 11
96.2054546877
 21
200.1412711406
  0
POLYLINE
  8
0
 62
7
  6
CONTINUOUS
 66
1
 70
0
  0
VERTEX
  8
0
 62
7
  6
CONTINUOUS
 10
83.2736345175
 20
186.7618774086
  0
VERTEX
  8
0
 62
7
  6
CONTINUOUS
 10
83.3034713304
 20
186.7910304715
  0
VERTEX
  8
0
 62
7
  6
CONTINUOUS
 10
83.343908138
 20
186.8382948692
  0
VERTEX
  8
0
 62
7
  6
CONTINUOUS
 10
83.3936654026
 20
186.9025311057
  0
VERTEX
  8
0
 62
7
  6
CONTINUOUS
 10
83.4503200377
 20
186.981466005
  0
VERTEX
  8
0
 62
7
  6
CONTINUOUS
 10
83.5112206941
 20
187.0732370184
  0
VERTEX
  8
0
 62
7
  6
CONTINUOUS
 10
83.5721910008
 20
187.1744993231
  0
SEQEND
  0
POLYLINE
  8
DEFAULT_2
 62
8
  6
HIDDEN
 66
1
 70
0
  0
VERTEX
  8
DEFAULT_2
 62
8
  6
HIDDEN
 10
95.9388747528
 20
199.8744993231
  0
VERTEX
  8
DEFAULT_2
 62
8
  6
HIDDEN
 10
95.8296731752
 20
199.7733873825
  0
VERTEX
  8
DEFAULT_2
 62
8
  6
HIDDEN
 10
95.712899055
 20
199.6816283492
  0
VERTEX
  8
DEFAULT_2
 62
8
  6
HIDDEN
 10
95.5944210563
 20
199.6026469347
  0
VERTEX
  8
DEFAULT_2
 62
8
  6
HIDDEN
 10
95.4780833422
 20
199.5383526361
  0
VERTEX
  8
DEFAULT_2
 62
8
  6
HIDDEN
 10
95.3686144903
 20
199.4910454214
  0
VERTEX
  8
DEFAULT_2
 62
8
  6
HIDDEN
 10
95.2702532762
 20
199.4618774086
  0
SEQEND
  0
POLYLINE
  8
0
 62
7
  6
CONTINUOUS
 66
1
 70
0
  0
VERTEX
  8
0
 62
7
  6
CONTINUOUS
 10
83.6004987345
 20
193.3551082313
  0
VERTEX
  8
0
 62
7
  6
CONTINUOUS
 10
83.46201686
 20
193.3040580212
  0
VERTEX
  8
0
 62
7
  6
CONTINUOUS
 10
83.3559321675
 20
193.2538459014
  0
VERTEX
  8
0
 62
7
  6
CONTINUOUS
 10
83.2834824347
 20
193.2050360932
  0
VERTEX
  8
0
 62
7
  6
CONTINUOUS
 10
83.2454573198
 20
193.1581526744
  0
VERTEX
  8
0
 62
7
  6
CONTINUOUS
 10
83.2393273103
 20
193.1314327476
  0
SEQEND
  0
POLYLINE
  8
0
 62
7
  6
CONTINUOUS
 66
1
 70
0
  0
VERTEX
  8
0
 62
7
  6
CONTINUOUS
 10
88.2078297513
 20
193.4169584245
  0
VERTEX
  8
0
 62
7
  6
CONTINUOUS
 10
88.1862436301
 20
193.4155878029
  0
VERTEX
  8
0
 62
7
  6
CONTINUOUS
 10
88.1648411278
 20
193.4114785238
  0
VERTEX
  8
0
 62
7
  6
CONTINUOUS
 10
88.1436964796
 20
193.4046467651
  0
SEQEND
  0
POLYLINE
  8
DEFAULT_2
 62
8
  6
HIDDEN
 66
1
 70
0
  0
VERTEX
  8
DEFAULT_2
 62
8
  6
HIDDEN
 10
75.5230942961
 20
193.4169584245
  0
VERTEX
  8
DEFAULT_2
 62
8
  6
HIDDEN
 10
75.4812779987
 20
193.4155878029
  0
VERTEX
  8
DEFAULT_2
 62
8
  6
HIDDEN
 10
75.4394926127
 20
193.4114785238
  0
VERTEX
  8
DEFAULT_2
 62
8
  6
HIDDEN
 10
75.3978874642
 20
193.4046467651
  0
SEQEND
  0
POLYLINE
  8
0
 62
7
  6
CONTINUOUS
 66
1
 70
0
  0
VERTEX
  8
0
 62
7
  6
CONTINUOUS
 10
72.604517837
 20
193.4169584245
  0
VERTEX
  8
0
 62
7
  6
CONTINUOUS
 10
72.553673045
 20
193.4155878029
  0
VERTEX
  8
0
 62
7
  6
CONTINUOUS
 10
72.5030002929
 20
193.4114785238
  0
VERTEX
  8
0
 62
7
  6
CONTINUOUS
 10
72.4526788631
 20
193.4046467651
  0
SEQEND
  0
LINE
  8
0
 62
9
  6
CONTINUOUS
 10
125.0168729613
 20
193.0720394404
 11
124.1574705747
 21
193.0720394404
  0
LINE
  8
0
 62
9
  6
CONTINUOUS
 10
111.1289913031
 20
193.0720394404
 11
107.6493420783
 21
193.0720394404
  0
LINE
  8
DEFAULT_2
 62
8
  6
HIDDEN
 10
99.1323725444
 20
193.0720394404
 11
95.2702532762
 21
193.0720394404
  0
LINE
  8
DEFAULT_2
 62
8
  6
HIDDEN
 10
76.4435552535
 20
193.0720394404
 11
74.0355632762
 21
193.0720394404
  0
LINE
  8
0
 62
9
  6
CONTINUOUS
 10
69.3857528593
 20
193.0720394404
 11
70.2451552459
 21
193.0720394404
  0
LINE
  8
0
 62
9
  6
CONTINUOUS
 10
83.2736345175
 20
193.0720394404
 11
86.7532837423
 21
193.0720394404
  0
LINE
  8
DEFAULT_2
 62
8
  6
HIDDEN
 10
117.959070567
 20
193.0720394404
 11
120.3670625444
 21
193.0720394404
  0
LINE
  8
0
 62
9
  6
CONTINUOUS
 10
123.0357568915
 20
193.4046467651
 11
121.9499469575
 21
193.4046467651
  0
LINE
  8
0
 62
9
  6
CONTINUOUS
 10
110.6552840101
 20
193.4046467651
 11
106.258929341
 21
193.4046467651
  0
LINE
  8
DEFAULT_2
 62
8
  6
HIDDEN
 10
99.6411056855
 20
193.4046467651
 11
94.7615201351
 21
193.4046467651
  0
LINE
  8
DEFAULT_2
 62
8
  6
HIDDEN
 10
78.4402592922
 20
193.4046467651
 11
75.3978874642
 21
193.4046467651
  0
LINE
  8
0
 62
9
  6
CONTINUOUS
 10
71.3668689291
 20
193.4046467651
 11
72.4526788631
 21
193.4046467651
  0
LINE
  8
0
 62
9
  6
CONTINUOUS
 10
83.7473418104
 20
193.4046467651
 11
88.1436964796
 21
193.4046467651
  0
LINE
  8
DEFAULT_2
 62
8
  6
HIDDEN
 10
115.9623665284
 20
193.4046467651
 11
119.0047383563
 21
193.4046467651
  0
LINE
  8
0
 62
7
  6
CONTINUOUS
 10
122.8820080686
 20
193.4169584245
 11
116.0593694909
 21
193.4169584245
  0
LINE
  8
DEFAULT_2
 62
8
  6
HIDDEN
 10
106.258929341
 20
193.4169584245
 11
106.1947960693
 21
193.4169584245
  0
LINE
  8
0
 62
7
  6
CONTINUOUS
 10
110.5834179179
 20
193.4169584245
 11
106.258929341
 21
193.4169584245
  0
LINE
  8
0
 62
7
  6
CONTINUOUS
 10
106.1947960693
 20
193.4169584245
 11
102.8762035376
 21
193.4169584245
  0
LINE
  8
0
 62
7
  6
CONTINUOUS
 10
91.526422283
 20
193.4169584245
 11
88.2078297513
 21
193.4169584245
  0
LINE
  8
DEFAULT_2
 62
8
  6
HIDDEN
 10
83.5865543532
 20
193.4169584245
 11
78.3432563297
 21
193.4169584245
  0
LINE
  8
0
 62
7
  6
CONTINUOUS
 10
71.5206177519
 20
193.4169584245
 11
78.3432563297
 21
193.4169584245
  0
LINE
  8
0
 62
7
  6
CONTINUOUS
 10
83.8192079026
 20
193.4169584245
 11
88.1436964796
 21
193.4169584245
  0
LINE
  8
DEFAULT_2
 62
8
  6
HIDDEN
 10
88.1436964796
 20
193.4169584245
 11
88.2078297513
 21
193.4169584245
  0
LINE
  8
DEFAULT_2
 62
8
  6
HIDDEN
 10
93.8123539211
 20
193.4169584245
 11
100.5902718994
 21
193.4169584245
  0
LINE
  8
DEFAULT_2
 62
8
  6
HIDDEN
 10
110.8160714674
 20
193.4169584245
 11
116.0593694909
 21
193.4169584245
  0
POLYLINE
  8
0
 62
7
  6
CONTINUOUS
 66
1
 70
0
  0
VERTEX
  8
0
 62
7
  6
CONTINUOUS
 10
122.8820080686
 20
193.4169584245
  0
VERTEX
  8
0
 62
7
  6
CONTINUOUS
 10
122.9334310937
 20
193.4155878029
  0
VERTEX
  8
0
 62
7
  6
CONTINUOUS
 10
122.9847414893
 20
193.4114785238
  0
VERTEX
  8
0
 62
7
  6
CONTINUOUS
 10
123.0357568915
 20
193.4046467651
  0
SEQEND
  0
POLYLINE
  8
DEFAULT_2
 62
8
  6
HIDDEN
 66
1
 70
0
  0
VERTEX
  8
DEFAULT_2
 62
8
  6
HIDDEN
 10
115.8425109744
 20
193.4169584245
  0
VERTEX
  8
DEFAULT_2
 62
8
  6
HIDDEN
 10
115.8827070987
 20
193.4155878029
  0
VERTEX
  8
DEFAULT_2
 62
8
  6
HIDDEN
 10
115.9227058472
 20
193.4114785238
  0
VERTEX
  8
DEFAULT_2
 62
8
  6
HIDDEN
 10
115.9623665284
 20
193.4046467651
  0
SEQEND
  0
POLYLINE
  8
0
 62
7
  6
CONTINUOUS
 66
1
 70
0
  0
VERTEX
  8
0
 62
7
  6
CONTINUOUS
 10
110.5834179179
 20
193.4169584245
  0
VERTEX
  8
0
 62
7
  6
CONTINUOUS
 10
110.6073452571
 20
193.4155878029
  0
VERTEX
  8
0
 62
7
  6
CONTINUOUS
 10
110.6313295253
 20
193.4114785238
  0
VERTEX
  8
0
 62
7
  6
CONTINUOUS
 10
110.6552840101
 20
193.4046467651
  0
SEQEND
  0
POLYLINE
  8
DEFAULT_2
 62
8
  6
HIDDEN
 66
1
 70
0
  0
VERTEX
  8
DEFAULT_2
 62
8
  6
HIDDEN
 10
95.2702532762
 20
193.0720394404
  0
VERTEX
  8
DEFAULT_2
 62
8
  6
HIDDEN
 10
95.1025950345
 20
193.11368321
  0
VERTEX
  8
DEFAULT_2
 62
8
  6
HIDDEN
 10
94.9654381
 20
193.1581417044
  0
VERTEX
  8
DEFAULT_2
 62
8
  6
HIDDEN
 10
94.8603882252
 20
193.2050066444
  0
VERTEX
  8
DEFAULT_2
 62
8
  6
HIDDEN
 10
94.7887773704
 20
193.253810483
  0
VERTEX
  8
DEFAULT_2
 62
8
  6
HIDDEN
 10
94.7515644074
 20
193.3040300933
  0
VERTEX
  8
DEFAULT_2
 62
8
  6
HIDDEN
 10
94.7459609104
 20
193.3328125359
  0
SEQEND
  0
POLYLINE
  8
0
 62
7
  6
CONTINUOUS
 66
1
 70
0
  0
VERTEX
  8
0
 62
7
  6
CONTINUOUS
 10
69.3857528593
 20
199.4618774086
  0
VERTEX
  8
0
 62
7
  6
CONTINUOUS
 10
69.2756283425
 20
199.4910304715
  0
VERTEX
  8
0
 62
7
  6
CONTINUOUS
 10
69.1693702898
 20
199.5382948692
  0
VERTEX
  8
0
 62
7
  6
CONTINUOUS
 10
69.0716720166
 20
199.6025311057
  0
VERTEX
  8
0
 62
7
  6
CONTINUOUS
 10
68.9855454378
 20
199.681466005
  0
VERTEX
  8
0
 62
7
  6
CONTINUOUS
 10
68.9118825576
 20
199.7732370184
  0
VERTEX
  8
0
 62
7
  6
CONTINUOUS
 10
68.8517889181
 20
199.8744993231
  0
SEQEND
  0
POLYLINE
  8
DEFAULT_2
 62
8
  6
HIDDEN
 66
1
 70
0
  0
VERTEX
  8
DEFAULT_2
 62
8
  6
HIDDEN
 10
95.2702532762
 20
193.0720394404
  0
VERTEX
  8
DEFAULT_2
 62
8
  6
HIDDEN
 10
95.3687361883
 20
193.0428268452
  0
VERTEX
  8
DEFAULT_2
 62
8
  6
HIDDEN
 10
95.4783268887
 20
192.9954439479
  0
VERTEX
  8
DEFAULT_2
 62
8
  6
HIDDEN
 10
95.5947103782
 20
192.9310934665
  0
VERTEX
  8
DEFAULT_2
 62
8
  6
HIDDEN
 10
95.7132536635
 20
192.8520315961
  0
VERTEX
  8
DEFAULT_2
 62
8
  6
HIDDEN
 10
95.8299929514
 20
192.7602571077
  0
VERTEX
  8
DEFAULT_2
 62
8
  6
HIDDEN
 10
95.9388747528
 20
192.6594175259
  0
SEQEND
  0
POLYLINE
  8
0
 62
7
  6
CONTINUOUS
 66
1
 70
0
  0
VERTEX
  8
0
 62
7
  6
CONTINUOUS
 10
83.6004987345
 20
199.1788086177
  0
VERTEX
  8
0
 62
7
  6
CONTINUOUS
 10
83.46201686
 20
199.2298588278
  0
VERTEX
  8
0
 62
7
  6
CONTINUOUS
 10
83.3559321675
 20
199.2800709476
  0
VERTEX
  8
0
 62
7
  6
CONTINUOUS
 10
83.2834824347
 20
199.3288807559
  0
VERTEX
  8
0
 62
7
  6
CONTINUOUS
 10
83.2454573198
 20
199.3757641746
  0
VERTEX
  8
0
 62
7
  6
CONTINUOUS
 10
83.2393273103
 20
199.4024841014
  0
SEQEND
  0
POLYLINE
  8
0
 62
7
  6
CONTINUOUS
 66
1
 70
0
  0
VERTEX
  8
0
 62
7
  6
CONTINUOUS
 10
85.8470259558
 20
199.8744993231
  0
VERTEX
  8
0
 62
7
  6
CONTINUOUS
 10
85.9829255881
 20
199.7733873825
  0
VERTEX
  8
0
 62
7
  6
CONTINUOUS
 10
86.1324614572
 20
199.6816283492
  0
VERTEX
  8
0
 62
7
  6
CONTINUOUS
 10
86.2892708082
 20
199.6026469347
  0
VERTEX
  8
0
 62
7
  6
CONTINUOUS
 10
86.449107322
 20
199.5383526361
  0
VERTEX
  8
0
 62
7
  6
CONTINUOUS
 10
86.6058935382
 20
199.4910454214
  0
VERTEX
  8
0
 62
7
  6
CONTINUOUS
 10
86.7532837423
 20
199.4618774086
  0
SEQEND
  0
POLYLINE
  8
DEFAULT_2
 62
8
  6
HIDDEN
 66
1
 70
0
  0
VERTEX
  8
DEFAULT_2
 62
8
  6
HIDDEN
 10
95.9388747528
 20
192.6594175259
  0
VERTEX
  8
DEFAULT_2
 62
8
  6
HIDDEN
 10
96.0639537442
 20
192.5336880428
  0
VERTEX
  8
DEFAULT_2
 62
8
  6
HIDDEN
 10
96.2054413477
 20
192.3926589576
  0
VERTEX
  8
DEFAULT_2
 62
8
  6
HIDDEN
 10
96.5176626587
 20
192.0843510998
  0
SEQEND
  0
LINE
  8
DEFAULT_2
 62
8
  6
HIDDEN
 10
94.7459609104
 20
186.5011043131
 11
94.7492676929
 21
186.4788086177
  0
LINE
  8
DEFAULT_2
 62
8
  6
HIDDEN
 10
94.7459609104
 20
199.2011043131
 11
94.7492676929
 21
199.1788086177
  0
LINE
  8
DEFAULT_2
 62
8
  6
HIDDEN
 10
95.9388747528
 20
187.1744993231
 11
95.9388747528
 21
192.6594175259
  0
LINE
  8
DEFAULT_2
 62
8
  6
HIDDEN
 10
95.9388747528
 20
199.8744993231
 11
95.9388747528
 21
205.3594175259
  0
LINE
  8
DEFAULT_2
 62
8
  6
HIDDEN
 10
96.5176626587
 20
187.7495657492
 11
96.5176626587
 21
192.0843510998
  0
LINE
  8
DEFAULT_2
 62
8
  6
HIDDEN
 10
96.5176626587
 20
200.4495657492
 11
96.5176626587
 21
204.7843510998
  0
LINE
  8
DEFAULT_1
 62
2
  6
CENTER
 10
97.2013129103
 20
181.2669584245
 11
97.2013129103
 21
179.2669584245
  0
LINE
  8
0
 62
7
  6
CONTINUOUS
 10
97.2013129103
 20
181.2669584245
 11
97.2013129103
 21
211.2669584245
  0
LINE
  8
DEFAULT_1
 62
2
  6
CENTER
 10
97.2013129103
 20
211.2669584245
 11
97.2013129103
 21
213.2669584245
  0
POLYLINE
  8
DEFAULT_2
 62
8
  6
HIDDEN
 66
1
 70
0
  0
VERTEX
  8
DEFAULT_2
 62
8
  6
HIDDEN
 10
94.7615201351
 20
193.4046467651
  0
VERTEX
  8
DEFAULT_2
 62
8
  6
HIDDEN
 10
94.7579807263
 20
193.3881390409
  0
VERTEX
  8
DEFAULT_2
 62
8
  6
HIDDEN
 10
94.7538965475
 20
193.3716260293
  0
VERTEX
  8
DEFAULT_2
 62
8
  6
HIDDEN
 10
94.7492676929
 20
193.3551082313
  0
SEQEND
  0
POLYLINE
  8
DEFAULT_2
 62
8
  6
HIDDEN
 66
1
 70
0
  0
VERTEX
  8
DEFAULT_2
 62
8
  6
HIDDEN
 10
99.6368142939
 20
199.1169584245
  0
VERTEX
  8
DEFAULT_2
 62
8
  6
HIDDEN
 10
99.6381135628
 20
199.118329028
  0
VERTEX
  8
DEFAULT_2
 62
8
  6
HIDDEN
 10
99.6395465489
 20
199.1224390752
  0
SEQEND
  0
POLYLINE
  8
DEFAULT_2
 62
8
  6
HIDDEN
 66
1
 70
0
  0
VERTEX
  8
DEFAULT_2
 62
8
  6
HIDDEN
 10
94.7658115267
 20
193.4169584245
  0
VERTEX
  8
DEFAULT_2
 62
8
  6
HIDDEN
 10
94.7645122488
 20
193.4155878029
  0
VERTEX
  8
DEFAULT_2
 62
8
  6
HIDDEN
 10
94.7630794768
 20
193.4114785238
  0
VERTEX
  8
DEFAULT_2
 62
8
  6
HIDDEN
 10
94.7615201351
 20
193.4046467651
  0
SEQEND
  0
POLYLINE
  8
0
 62
7
  6
CONTINUOUS
 66
1
 70
0
  0
VERTEX
  8
0
 62
7
  6
CONTINUOUS
 10
88.1436964796
 20
193.4046467651
  0
VERTEX
  8
0
 62
7
  6
CONTINUOUS
 10
88.1016087535
 20
193.3881390409
  0
VERTEX
  8
0
 62
7
  6
CONTINUOUS
 10
88.0189315416
 20
193.3551082313
  0
SEQEND
  0
POLYLINE
  8
0
 62
7
  6
CONTINUOUS
 66
1
 70
0
  0
VERTEX
  8
0
 62
7
  6
CONTINUOUS
 10
83.6004987345
 20
193.3551082313
  0
VERTEX
  8
0
 62
7
  6
CONTINUOUS
 10
83.6499281302
 20
193.3716260176
  0
VERTEX
  8
0
 62
7
  6
CONTINUOUS
 10
83.7473418104
 20
193.4046467651
  0
SEQEND
  0
POLYLINE
  8
0
 62
7
  6
CONTINUOUS
 66
1
 70
0
  0
VERTEX
  8
0
 62
7
  6
CONTINUOUS
 10
83.7473418104
 20
193.4046467651
  0
VERTEX
  8
0
 62
7
  6
CONTINUOUS
 10
83.7712962953
 20
193.4114785238
  0
VERTEX
  8
0
 62
7
  6
CONTINUOUS
 10
83.7952805635
 20
193.4155878029
  0
VERTEX
  8
0
 62
7
  6
CONTINUOUS
 10
83.8192079026
 20
193.4169584245
  0
SEQEND
  0
LINE
  8
DEFAULT_2
 62
8
  6
HIDDEN
 10
115.9623665284
 20
199.1292700839
 11
116.1994376205
 21
199.1788086177
  0
POLYLINE
  8
DEFAULT_2
 62
8
  6
HIDDEN
 66
1
 70
0
  0
VERTEX
  8
DEFAULT_2
 62
8
  6
HIDDEN
 10
119.257087994
 20
199.1788086177
  0
VERTEX
  8
DEFAULT_2
 62
8
  6
HIDDEN
 10
119.5089095294
 20
199.2298588278
  0
VERTEX
  8
DEFAULT_2
 62
8
  6
HIDDEN
 10
119.7372524656
 20
199.2800709476
  0
VERTEX
  8
DEFAULT_2
 62
8
  6
HIDDEN
 10
119.9393977617
 20
199.3288807559
  0
VERTEX
  8
DEFAULT_2
 62
8
  6
HIDDEN
 10
120.1129918173
 20
199.3757641746
  0
VERTEX
  8
DEFAULT_2
 62
8
  6
HIDDEN
 10
120.2560706823
 20
199.4202417215
  0
VERTEX
  8
DEFAULT_2
 62
8
  6
HIDDEN
 10
120.3670625444
 20
199.4618774086
  0
SEQEND
  0
POLYLINE
  8
0
 62
7
  6
CONTINUOUS
 66
1
 70
0
  0
VERTEX
  8
0
 62
7
  6
CONTINUOUS
 10
86.7532837423
 20
193.0720394404
  0
VERTEX
  8
0
 62
7
  6
CONTINUOUS
 10
86.605715294
 20
193.0428268452
  0
VERTEX
  8
0
 62
7
  6
CONTINUOUS
 10
86.4487658799
 20
192.9954439479
  0
VERTEX
  8
0
 62
7
  6
CONTINUOUS
 10
86.2888809687
 20
192.9310934665
  0
VERTEX
  8
0
 62
7
  6
CONTINUOUS
 10
86.132000195
 20
192.8520315961
  0
VERTEX
  8
0
 62
7
  6
CONTINUOUS
 10
85.9825223087
 20
192.7602571077
  0
VERTEX
  8
0
 62
7
  6
CONTINUOUS
 10
85.8470259558
 20
192.6594175259
  0
SEQEND
  0
LINE
  8
DEFAULT_2
 62
8
  6
HIDDEN
 10
119.257087994
 20
199.1788086177
 11
119.0047383563
 21
199.1292700839
  0
POLYLINE
  8
0
 62
7
  6
CONTINUOUS
 66
1
 70
0
  0
VERTEX
  8
0
 62
7
  6
CONTINUOUS
 10
124.1574705747
 20
199.4618774086
  0
VERTEX
  8
0
 62
7
  6
CONTINUOUS
 10
124.3113517829
 20
199.4910304715
  0
VERTEX
  8
0
 62
7
  6
CONTINUOUS
 10
124.4662941426
 20
199.5382948692
  0
VERTEX
  8
0
 62
7
  6
CONTINUOUS
 10
124.6157350953
 20
199.6025311057
  0
VERTEX
  8
0
 62
7
  6
CONTINUOUS
 10
124.7545741327
 20
199.681466005
  0
VERTEX
  8
0
 62
7
  6
CONTINUOUS
 10
124.8802275564
 20
199.7732370184
  0
VERTEX
  8
0
 62
7
  6
CONTINUOUS
 10
124.9889990668
 20
199.8744993231
  0
SEQEND
  0
POLYLINE
  8
0
 62
7
  6
CONTINUOUS
 66
1
 70
0
  0
VERTEX
  8
0
 62
7
  6
CONTINUOUS
 10
125.0168729613
 20
199.4618774086
  0
VERTEX
  8
0
 62
7
  6
CONTINUOUS
 10
124.7853953258
 20
199.4202336391
  0
VERTEX
  8
0
 62
7
  6
CONTINUOUS
 10
124.5309397095
 20
199.3757751446
  0
VERTEX
  8
0
 62
7
  6
CONTINUOUS
 10
124.2562699654
 20
199.3289102047
  0
VERTEX
  8
0
 62
7
  6
CONTINUOUS
 10
123.9645056965
 20
199.2801063661
  0
VERTEX
  8
0
 62
7
  6
CONTINUOUS
 10
123.6590881957
 20
199.2298867557
  0
SEQEND
  0
POLYLINE
  8
DEFAULT_2
 62
8
  6
HIDDEN
 66
1
 70
0
  0
VERTEX
  8
DEFAULT_2
 62
8
  6
HIDDEN
 10
115.9623665284
 20
199.1292700839
  0
VERTEX
  8
DEFAULT_2
 62
8
  6
HIDDEN
 10
115.9227113071
 20
199.1224390752
  0
VERTEX
  8
DEFAULT_2
 62
8
  6
HIDDEN
 10
115.8827068345
 20
199.118329028
  0
VERTEX
  8
DEFAULT_2
 62
8
  6
HIDDEN
 10
115.8425109744
 20
199.1169584245
  0
SEQEND
  0
LINE
  8
0
 62
7
  6
CONTINUOUS
 10
122.2523693665
 20
199.1788086177
 11
121.9499469575
 21
199.1292700839
  0
POLYLINE
  8
0
 62
7
  6
CONTINUOUS
 66
1
 70
0
  0
VERTEX
  8
0
 62
7
  6
CONTINUOUS
 10
122.2523693665
 20
199.1788086177
  0
VERTEX
  8
0
 62
7
  6
CONTINUOUS
 10
122.5686715051
 20
199.2298588278
  0
VERTEX
  8
0
 62
7
  6
CONTINUOUS
 10
122.8905954146
 20
199.2800709476
  0
VERTEX
  8
0
 62
7
  6
CONTINUOUS
 10
123.2142618646
 20
199.3288807559
  0
VERTEX
  8
0
 62
7
  6
CONTINUOUS
 10
123.5358052775
 20
199.3757641746
  0
VERTEX
  8
0
 62
7
  6
CONTINUOUS
 10
123.8514363703
 20
199.4202417215
  0
VERTEX
  8
0
 62
7
  6
CONTINUOUS
 10
124.1574705747
 20
199.4618774086
  0
SEQEND
  0
LINE
  8
0
 62
7
  6
CONTINUOUS
 10
123.0357568915
 20
199.1292700839
 11
123.6590881957
 21
199.2298867557
  0
POLYLINE
  8
0
 62
7
  6
CONTINUOUS
 66
1
 70
0
  0
VERTEX
  8
0
 62
7
  6
CONTINUOUS
 10
86.7532837423
 20
193.0720394404
  0
VERTEX
  8
0
 62
7
  6
CONTINUOUS
 10
87.0239592232
 20
193.11368321
  0
VERTEX
  8
0
 62
7
  6
CONTINUOUS
 10
87.2743595605
 20
193.1581417044
  0
VERTEX
  8
0
 62
7
  6
CONTINUOUS
 10
87.5016489712
 20
193.2050066444
  0
VERTEX
  8
0
 62
7
  6
CONTINUOUS
 10
87.7031071413
 20
193.253810483
  0
VERTEX
  8
0
 62
7
  6
CONTINUOUS
 10
87.8762436794
 20
193.3040300933
  0
VERTEX
  8
0
 62
7
  6
CONTINUOUS
 10
88.0189315416
 20
193.3551082313
  0
SEQEND
  0
POLYLINE
  8
0
 62
7
  6
CONTINUOUS
 66
1
 70
0
  0
VERTEX
  8
0
 62
7
  6
CONTINUOUS
 10
123.0357568915
 20
199.1292700839
  0
VERTEX
  8
0
 62
7
  6
CONTINUOUS
 10
122.9847485028
 20
199.1224390752
  0
VERTEX
  8
0
 62
7
  6
CONTINUOUS
 10
122.9334307553
 20
199.118329028
  0
VERTEX
  8
0
 62
7
  6
CONTINUOUS
 10
122.8820080686
 20
199.1169584245
  0
SEQEND
  0
POLYLINE
  8
DEFAULT_2
 62
8
  6
HIDDEN
 66
1
 70
0
  0
VERTEX
  8
DEFAULT_2
 62
8
  6
HIDDEN
 10
117.959070567
 20
193.0720394404
  0
VERTEX
  8
DEFAULT_2
 62
8
  6
HIDDEN
 10
117.6389884454
 20
193.11368321
  0
VERTEX
  8
DEFAULT_2
 62
8
  6
HIDDEN
 10
117.3249395632
 20
193.1581417044
  0
VERTEX
  8
DEFAULT_2
 62
8
  6
HIDDEN
 10
117.0204280718
 20
193.2050066444
  0
VERTEX
  8
DEFAULT_2
 62
8
  6
HIDDEN
 10
116.7290238478
 20
193.253810483
  0
VERTEX
  8
DEFAULT_2
 62
8
  6
HIDDEN
 10
116.4542555494
 20
193.3040300933
  0
VERTEX
  8
DEFAULT_2
 62
8
  6
HIDDEN
 10
116.1994376205
 20
193.3551082313
  0
SEQEND
  0
POLYLINE
  8
0
 62
7
  6
CONTINUOUS
 66
1
 70
0
  0
VERTEX
  8
0
 62
7
  6
CONTINUOUS
 10
72.4526788631
 20
199.1292700839
  0
VERTEX
  8
0
 62
7
  6
CONTINUOUS
 10
72.5029933707
 20
199.1224390752
  0
VERTEX
  8
0
 62
7
  6
CONTINUOUS
 10
72.5536733794
 20
199.118329028
  0
VERTEX
  8
0
 62
7
  6
CONTINUOUS
 10
72.604517837
 20
199.1169584245
  0
SEQEND
  0
POLYLINE
  8
0
 62
7
  6
CONTINUOUS
 66
1
 70
0
  0
VERTEX
  8
0
 62
7
  6
CONTINUOUS
 10
70.2451552459
 20
199.4618774086
  0
VERTEX
  8
0
 62
7
  6
CONTINUOUS
 10
70.5512478184
 20
199.4202336391
  0
VERTEX
  8
0
 62
7
  6
CONTINUOUS
 10
70.8667440131
 20
199.3757751446
  0
VERTEX
  8
0
 62
7
  6
CONTINUOUS
 10
71.1881653496
 20
199.3289102047
  0
VERTEX
  8
0
 62
7
  6
CONTINUOUS
 10
71.5117994471
 20
199.2801063661
  0
VERTEX
  8
0
 62
7
  6
CONTINUOUS
 10
71.8337782746
 20
199.2298867557
  0
VERTEX
  8
0
 62
7
  6
CONTINUOUS
 10
72.1502564541
 20
199.1788086177
  0
SEQEND
  0
POLYLINE
  8
0
 62
7
  6
CONTINUOUS
 66
1
 70
0
  0
VERTEX
  8
0
 62
7
  6
CONTINUOUS
 10
71.3668689291
 20
199.1292700839
  0
VERTEX
  8
0
 62
7
  6
CONTINUOUS
 10
70.7437088174
 20
199.2298588278
  0
VERTEX
  8
0
 62
7
  6
CONTINUOUS
 10
70.4383337566
 20
199.2800709476
  0
VERTEX
  8
0
 62
7
  6
CONTINUOUS
 10
70.1465302521
 20
199.3288807559
  0
VERTEX
  8
0
 62
7
  6
CONTINUOUS
 10
69.8717496875
 20
199.3757641746
  0
VERTEX
  8
0
 62
7
  6
CONTINUOUS
 10
69.6171848661
 20
199.4202417215
  0
VERTEX
  8
0
 62
7
  6
CONTINUOUS
 10
69.3857528593
 20
199.4618774086
  0
SEQEND
  0
LINE
  8
0
 62
7
  6
CONTINUOUS
 10
72.4526788631
 20
199.1292700839
 11
72.1502564541
 21
199.1788086177
  0
POLYLINE
  8
DEFAULT_2
 62
8
  6
HIDDEN
 66
1
 70
0
  0
VERTEX
  8
DEFAULT_2
 62
8
  6
HIDDEN
 10
75.3978874642
 20
199.1292700839
  0
VERTEX
  8
DEFAULT_2
 62
8
  6
HIDDEN
 10
75.439486897
 20
199.1224390752
  0
VERTEX
  8
DEFAULT_2
 62
8
  6
HIDDEN
 10
75.481278274
 20
199.118329028
  0
VERTEX
  8
DEFAULT_2
 62
8
  6
HIDDEN
 10
75.5230942961
 20
199.1169584245
  0
SEQEND
  0
POLYLINE
  8
DEFAULT_2
 62
8
  6
HIDDEN
 66
1
 70
0
  0
VERTEX
  8
DEFAULT_2
 62
8
  6
HIDDEN
 10
76.4435552535
 20
199.4618774086
  0
VERTEX
  8
DEFAULT_2
 62
8
  6
HIDDEN
 10
76.2763954143
 20
199.4910304715
  0
VERTEX
  8
DEFAULT_2
 62
8
  6
HIDDEN
 10
76.1034569823
 20
199.5382948692
  0
VERTEX
  8
DEFAULT_2
 62
8
  6
HIDDEN
 10
75.9318719636
 20
199.6025311057
  0
VERTEX
  8
DEFAULT_2
 62
8
  6
HIDDEN
 10
75.7678192415
 20
199.681466005
  0
VERTEX
  8
DEFAULT_2
 62
8
  6
HIDDEN
 10
75.6150624759
 20
199.7732370184
  0
VERTEX
  8
DEFAULT_2
 62
8
  6
HIDDEN
 10
75.4791566264
 20
199.8744993231
  0
SEQEND
  0
LINE
  8
DEFAULT_2
 62
8
  6
HIDDEN
 10
75.3978874642
 20
199.1292700839
 11
75.1455378266
 21
199.1788086177
  0
POLYLINE
  8
DEFAULT_2
 62
8
  6
HIDDEN
 66
1
 70
0
  0
VERTEX
  8
DEFAULT_2
 62
8
  6
HIDDEN
 10
78.2031882001
 20
199.1788086177
  0
VERTEX
  8
DEFAULT_2
 62
8
  6
HIDDEN
 10
77.9485162935
 20
199.2298588278
  0
VERTEX
  8
DEFAULT_2
 62
8
  6
HIDDEN
 10
77.6738045137
 20
199.2800709476
  0
VERTEX
  8
DEFAULT_2
 62
8
  6
HIDDEN
 10
77.3823812281
 20
199.3288807559
  0
VERTEX
  8
DEFAULT_2
 62
8
  6
HIDDEN
 10
77.0777605834
 20
199.3757641746
  0
VERTEX
  8
DEFAULT_2
 62
8
  6
HIDDEN
 10
76.763577828
 20
199.4202417215
  0
VERTEX
  8
DEFAULT_2
 62
8
  6
HIDDEN
 10
76.4435552535
 20
199.4618774086
  0
SEQEND
  0
LINE
  8
DEFAULT_2
 62
8
  6
HIDDEN
 10
78.2031882001
 20
199.1788086177
 11
78.4402592922
 21
199.1292700839
  0
POLYLINE
  8
0
 62
7
  6
CONTINUOUS
 66
1
 70
0
  0
VERTEX
  8
0
 62
7
  6
CONTINUOUS
 10
88.1436964796
 20
199.1292700839
  0
VERTEX
  8
0
 62
7
  6
CONTINUOUS
 10
88.1648382116
 20
199.1224390752
  0
VERTEX
  8
0
 62
7
  6
CONTINUOUS
 10
88.1862437717
 20
199.118329028
  0
VERTEX
  8
0
 62
7
  6
CONTINUOUS
 10
88.2078297513
 20
199.1169584245
  0
SEQEND
  0
POLYLINE
  8
0
 62
7
  6
CONTINUOUS
 66
1
 70
0
  0
VERTEX
  8
0
 62
7
  6
CONTINUOUS
 10
106.258929341
 20
193.4046467651
  0
VERTEX
  8
0
 62
7
  6
CONTINUOUS
 10
106.2377846928
 20
193.4114785238
  0
VERTEX
  8
0
 62
7
  6
CONTINUOUS
 10
106.2163821905
 20
193.4155878029
  0
VERTEX
  8
0
 62
7
  6
CONTINUOUS
 10
106.1947960693
 20
193.4169584245
  0
SEQEND
  0
POLYLINE
  8
0
 62
7
  6
CONTINUOUS
 66
1
 70
0
  0
VERTEX
  8
0
 62
7
  6
CONTINUOUS
 10
83.6004987345
 20
199.1788086177
  0
VERTEX
  8
0
 62
7
  6
CONTINUOUS
 10
83.6988763012
 20
199.1457778043
  0
VERTEX
  8
0
 62
7
  6
CONTINUOUS
 10
83.7473418104
 20
199.1292700839
  0
SEQEND
  0
POLYLINE
  8
0
 62
7
  6
CONTINUOUS
 66
1
 70
0
  0
VERTEX
  8
0
 62
7
  6
CONTINUOUS
 10
88.1436964796
 20
199.1292700839
  0
VERTEX
  8
0
 62
7
  6
CONTINUOUS
 10
88.0600200644
 20
199.1622908197
  0
VERTEX
  8
0
 62
7
  6
CONTINUOUS
 10
88.0189315416
 20
199.1788086177
  0
SEQEND
  0
POLYLINE
  8
DEFAULT_2
 62
8
  6
HIDDEN
 66
1
 70
0
  0
VERTEX
  8
DEFAULT_2
 62
8
  6
HIDDEN
 10
94.7615201351
 20
199.1292700839
  0
VERTEX
  8
DEFAULT_2
 62
8
  6
HIDDEN
 10
94.7630792717
 20
199.1224390752
  0
VERTEX
  8
DEFAULT_2
 62
8
  6
HIDDEN
 10
94.7645122578
 20
199.118329028
  0
VERTEX
  8
DEFAULT_2
 62
8
  6
HIDDEN
 10
94.7658115267
 20
199.1169584245
  0
SEQEND
  0
POLYLINE
  8
DEFAULT_2
 62
8
  6
HIDDEN
 66
1
 70
0
  0
VERTEX
  8
DEFAULT_2
 62
8
  6
HIDDEN
 10
94.7615201351
 20
199.1292700839
  0
VERTEX
  8
DEFAULT_2
 62
8
  6
HIDDEN
 10
94.7579807263
 20
199.1457778081
  0
VERTEX
  8
DEFAULT_2
 62
8
  6
HIDDEN
 10
94.7538965475
 20
199.1622908197
  0
VERTEX
  8
DEFAULT_2
 62
8
  6
HIDDEN
 10
94.7492676929
 20
199.1788086177
  0
SEQEND
  0
LINE
  8
DEFAULT_2
 62
8
  6
HIDDEN
 10
97.8849631619
 20
187.7495657492
 11
97.8849631619
 21
192.0843510998
  0
LINE
  8
DEFAULT_2
 62
8
  6
HIDDEN
 10
97.8849631619
 20
200.4495657492
 11
97.8849631619
 21
204.7843510998
  0
LINE
  8
DEFAULT_2
 62
8
  6
HIDDEN
 10
98.4637510677
 20
187.1744993231
 11
98.4637510677
 21
192.6594175259
  0
LINE
  8
DEFAULT_2
 62
8
  6
HIDDEN
 10
98.4637510677
 20
199.8744993231
 11
98.4637510677
 21
205.3594175259
  0
LINE
  8
DEFAULT_2
 62
8
  6
HIDDEN
 10
99.6313129103
 20
186.4169584245
 11
99.6313129103
 21
193.4169584245
  0
LINE
  8
DEFAULT_2
 62
8
  6
HIDDEN
 10
99.6313129103
 20
199.1169584245
 11
99.6313129103
 21
206.1169584245
  0
LINE
  8
DEFAULT_2
 62
8
  6
HIDDEN
 10
99.6533581277
 20
186.4788086177
 11
99.6533581277
 21
193.3551082313
  0
LINE
  8
DEFAULT_2
 62
8
  6
HIDDEN
 10
99.6533581277
 20
199.1788086177
 11
99.6533581277
 21
206.0551082313
  0
LINE
  8
DEFAULT_2
 62
8
  6
HIDDEN
 10
99.6566649103
 20
186.500998919
 11
99.6566649103
 21
193.33291793
  0
LINE
  8
DEFAULT_2
 62
8
  6
HIDDEN
 10
99.6566649103
 20
199.200998919
 11
99.6566649103
 21
206.03291793
  0
LINE
  8
DEFAULT_2
 62
8
  6
HIDDEN
 10
99.6533581277
 20
199.1788086177
 11
99.6566649103
 21
199.2011018922
  0
POLYLINE
  8
DEFAULT_2
 62
8
  6
HIDDEN
 66
1
 70
0
  0
VERTEX
  8
DEFAULT_2
 62
8
  6
HIDDEN
 10
99.6566649103
 20
206.0328149569
  0
VERTEX
  8
DEFAULT_2
 62
8
  6
HIDDEN
 10
99.6510723075
 20
206.0040580212
  0
VERTEX
  8
DEFAULT_2
 62
8
  6
HIDDEN
 10
99.613887382
 20
205.9538459014
  0
VERTEX
  8
DEFAULT_2
 62
8
  6
HIDDEN
 10
99.5422919933
 20
205.9050360932
  0
VERTEX
  8
DEFAULT_2
 62
8
  6
HIDDEN
 10
99.4372168271
 20
205.8581526744
  0
VERTEX
  8
DEFAULT_2
 62
8
  6
HIDDEN
 10
99.3000021606
 20
205.8136751275
  0
VERTEX
  8
DEFAULT_2
 62
8
  6
HIDDEN
 10
99.1323725444
 20
205.7720394404
  0
SEQEND
  0
LINE
  8
DEFAULT_2
 62
8
  6
HIDDEN
 10
99.6395465489
 20
199.1224390752
 11
99.6411056855
 21
199.1292700839
  0
POLYLINE
  8
DEFAULT_2
 62
8
  6
HIDDEN
 66
1
 70
0
  0
VERTEX
  8
DEFAULT_2
 62
8
  6
HIDDEN
 10
99.6533581277
 20
199.1788086177
  0
VERTEX
  8
DEFAULT_2
 62
8
  6
HIDDEN
 10
99.6487292762
 20
199.1622908314
  0
VERTEX
  8
DEFAULT_2
 62
8
  6
HIDDEN
 10
99.6446450934
 20
199.1457778043
  0
VERTEX
  8
DEFAULT_2
 62
8
  6
HIDDEN
 10
99.6411056855
 20
199.1292700839
  0
SEQEND
  0
POLYLINE
  8
0
 62
7
  6
CONTINUOUS
 66
1
 70
0
  0
VERTEX
  8
0
 62
7
  6
CONTINUOUS
 10
106.383694279
 20
199.1788086177
  0
VERTEX
  8
0
 62
7
  6
CONTINUOUS
 10
106.3010170574
 20
199.1457778043
  0
VERTEX
  8
0
 62
7
  6
CONTINUOUS
 10
106.258929341
 20
199.1292700839
  0
SEQEND
  0
POLYLINE
  8
0
 62
7
  6
CONTINUOUS
 66
1
 70
0
  0
VERTEX
  8
0
 62
7
  6
CONTINUOUS
 10
106.383694279
 20
199.1788086177
  0
VERTEX
  8
0
 62
7
  6
CONTINUOUS
 10
106.526295059
 20
199.2298588278
  0
VERTEX
  8
0
 62
7
  6
CONTINUOUS
 10
106.699384672
 20
199.2800709476
  0
VERTEX
  8
0
 62
7
  6
CONTINUOUS
 10
106.9008448375
 20
199.3288807559
  0
VERTEX
  8
0
 62
7
  6
CONTINUOUS
 10
107.1282088594
 20
199.3757641746
  0
VERTEX
  8
0
 62
7
  6
CONTINUOUS
 10
107.3787155295
 20
199.4202417215
  0
VERTEX
  8
0
 62
7
  6
CONTINUOUS
 10
107.6493420783
 20
199.4618774086
  0
SEQEND
  0
POLYLINE
  8
0
 62
7
  6
CONTINUOUS
 66
1
 70
0
  0
VERTEX
  8
0
 62
7
  6
CONTINUOUS
 10
110.6552840101
 20
199.1292700839
  0
VERTEX
  8
0
 62
7
  6
CONTINUOUS
 10
110.7526976555
 20
199.1622908197
  0
VERTEX
  8
0
 62
7
  6
CONTINUOUS
 10
110.8021270861
 20
199.1788086177
  0
SEQEND
  0
POLYLINE
  8
0
 62
7
  6
CONTINUOUS
 66
1
 70
0
  0
VERTEX
  8
0
 62
7
  6
CONTINUOUS
 10
110.6552840101
 20
199.1292700839
  0
VERTEX
  8
0
 62
7
  6
CONTINUOUS
 10
110.6313328111
 20
199.1224390752
  0
VERTEX
  8
0
 62
7
  6
CONTINUOUS
 10
110.6073450993
 20
199.118329028
  0
VERTEX
  8
0
 62
7
  6
CONTINUOUS
 10
110.5834179179
 20
199.1169584245
  0
SEQEND
  0
LINE
  8
DEFAULT_2
 62
8
  6
HIDDEN
 10
78.2031882001
 20
193.3551082313
 11
78.4402592922
 21
193.4046467651
  0
POLYLINE
  8
DEFAULT_2
 62
8
  6
HIDDEN
 66
1
 70
0
  0
VERTEX
  8
DEFAULT_2
 62
8
  6
HIDDEN
 10
78.2031882001
 20
193.3551082313
  0
VERTEX
  8
DEFAULT_2
 62
8
  6
HIDDEN
 10
77.9485162935
 20
193.3040580212
  0
VERTEX
  8
DEFAULT_2
 62
8
  6
HIDDEN
 10
77.6738045137
 20
193.2538459014
  0
VERTEX
  8
DEFAULT_2
 62
8
  6
HIDDEN
 10
77.3823812281
 20
193.2050360932
  0
VERTEX
  8
DEFAULT_2
 62
8
  6
HIDDEN
 10
77.0777605834
 20
193.1581526744
  0
VERTEX
  8
DEFAULT_2
 62
8
  6
HIDDEN
 10
76.763577828
 20
193.1136751275
  0
VERTEX
  8
DEFAULT_2
 62
8
  6
HIDDEN
 10
76.4435552535
 20
193.0720394404
  0
SEQEND
  0
POLYLINE
  8
0
 62
7
  6
CONTINUOUS
 66
1
 70
0
  0
VERTEX
  8
0
 62
7
  6
CONTINUOUS
 10
107.6493420783
 20
199.4618774086
  0
VERTEX
  8
0
 62
7
  6
CONTINUOUS
 10
107.7966724922
 20
199.4910304715
  0
VERTEX
  8
0
 62
7
  6
CONTINUOUS
 10
107.9533544192
 20
199.5382948692
  0
VERTEX
  8
0
 62
7
  6
CONTINUOUS
 10
108.1130989866
 20
199.6025311057
  0
VERTEX
  8
0
 62
7
  6
CONTINUOUS
 10
108.2698727397
 20
199.681466005
  0
VERTEX
  8
0
 62
7
  6
CONTINUOUS
 10
108.4194774963
 20
199.7732370184
  0
VERTEX
  8
0
 62
7
  6
CONTINUOUS
 10
108.5555998648
 20
199.8744993231
  0
SEQEND
  0
LINE
  8
DEFAULT_2
 62
8
  6
HIDDEN
 10
75.3978874642
 20
193.4046467651
 11
75.1455378266
 21
193.3551082313
  0
POLYLINE
  8
0
 62
7
  6
CONTINUOUS
 66
1
 70
0
  0
VERTEX
  8
0
 62
7
  6
CONTINUOUS
 10
70.2451552459
 20
193.0720394404
  0
VERTEX
  8
0
 62
7
  6
CONTINUOUS
 10
70.0910320282
 20
193.0428268452
  0
VERTEX
  8
0
 62
7
  6
CONTINUOUS
 10
69.9358455145
 20
192.9954439479
  0
VERTEX
  8
0
 62
7
  6
CONTINUOUS
 10
69.7863031817
 20
192.9310934665
  0
VERTEX
  8
0
 62
7
  6
CONTINUOUS
 10
69.6474029019
 20
192.8520315961
  0
VERTEX
  8
0
 62
7
  6
CONTINUOUS
 10
69.5218860683
 20
192.7602571077
  0
VERTEX
  8
0
 62
7
  6
CONTINUOUS
 10
69.4136267538
 20
192.6594175259
  0
SEQEND
  0
POLYLINE
  8
DEFAULT_2
 62
8
  6
HIDDEN
 66
1
 70
0
  0
VERTEX
  8
DEFAULT_2
 62
8
  6
HIDDEN
 10
78.4402592922
 20
193.4046467651
  0
VERTEX
  8
DEFAULT_2
 62
8
  6
HIDDEN
 10
78.4799199733
 20
193.4114785238
  0
VERTEX
  8
DEFAULT_2
 62
8
  6
HIDDEN
 10
78.5199187219
 20
193.4155878029
  0
VERTEX
  8
DEFAULT_2
 62
8
  6
HIDDEN
 10
78.5601148462
 20
193.4169584245
  0
SEQEND
  0
POLYLINE
  8
0
 62
7
  6
CONTINUOUS
 66
1
 70
0
  0
VERTEX
  8
0
 62
7
  6
CONTINUOUS
 10
70.7437088174
 20
193.3040580212
  0
VERTEX
  8
0
 62
7
  6
CONTINUOUS
 10
70.4383337566
 20
193.2538459014
  0
VERTEX
  8
0
 62
7
  6
CONTINUOUS
 10
70.1465302521
 20
193.2050360932
  0
VERTEX
  8
0
 62
7
  6
CONTINUOUS
 10
69.8717496875
 20
193.1581526744
  0
VERTEX
  8
0
 62
7
  6
CONTINUOUS
 10
69.6171848661
 20
193.1136751275
  0
VERTEX
  8
0
 62
7
  6
CONTINUOUS
 10
69.3857528593
 20
193.0720394404
  0
SEQEND
  0
LINE
  8
0
 62
7
  6
CONTINUOUS
 10
72.4526788631
 20
193.4046467651
 11
72.1502564541
 21
193.3551082313
  0
LINE
  8
0
 62
7
  6
CONTINUOUS
 10
70.7437088174
 20
193.3040580212
 11
71.3668689291
 21
193.4046467651
  0
POLYLINE
  8
0
 62
7
  6
CONTINUOUS
 66
1
 70
0
  0
VERTEX
  8
0
 62
7
  6
CONTINUOUS
 10
70.2451552459
 20
193.0720394404
  0
VERTEX
  8
0
 62
7
  6
CONTINUOUS
 10
70.5512478184
 20
193.11368321
  0
VERTEX
  8
0
 62
7
  6
CONTINUOUS
 10
70.8667440131
 20
193.1581417044
  0
VERTEX
  8
0
 62
7
  6
CONTINUOUS
 10
71.1881653496
 20
193.2050066444
  0
VERTEX
  8
0
 62
7
  6
CONTINUOUS
 10
71.5117994471
 20
193.253810483
  0
VERTEX
  8
0
 62
7
  6
CONTINUOUS
 10
71.8337782746
 20
193.3040300933
  0
VERTEX
  8
0
 62
7
  6
CONTINUOUS
 10
72.1502564541
 20
193.3551082313
  0
SEQEND
  0
POLYLINE
  8
0
 62
7
  6
CONTINUOUS
 66
1
 70
0
  0
VERTEX
  8
0
 62
7
  6
CONTINUOUS
 10
71.3668689291
 20
193.4046467651
  0
VERTEX
  8
0
 62
7
  6
CONTINUOUS
 10
71.4178843313
 20
193.4114785238
  0
VERTEX
  8
0
 62
7
  6
CONTINUOUS
 10
71.4691947269
 20
193.4155878029
  0
VERTEX
  8
0
 62
7
  6
CONTINUOUS
 10
71.5206177519
 20
193.4169584245
  0
SEQEND
  0
POLYLINE
  8
DEFAULT_2
 62
8
  6
HIDDEN
 66
1
 70
0
  0
VERTEX
  8
DEFAULT_2
 62
8
  6
HIDDEN
 10
117.959070567
 20
199.4618774086
  0
VERTEX
  8
DEFAULT_2
 62
8
  6
HIDDEN
 10
117.6389884454
 20
199.4202336391
  0
VERTEX
  8
DEFAULT_2
 62
8
  6
HIDDEN
 10
117.3249395632
 20
199.3757751446
  0
VERTEX
  8
DEFAULT_2
 62
8
  6
HIDDEN
 10
117.0204280718
 20
199.3289102047
  0
VERTEX
  8
DEFAULT_2
 62
8
  6
HIDDEN
 10
116.7290238478
 20
199.2801063661
  0
VERTEX
  8
DEFAULT_2
 62
8
  6
HIDDEN
 10
116.4542555494
 20
199.2298867557
  0
VERTEX
  8
DEFAULT_2
 62
8
  6
HIDDEN
 10
116.1994376205
 20
199.1788086177
  0
SEQEND
  0
POLYLINE
  8
0
 62
7
  6
CONTINUOUS
 66
1
 70
0
  0
VERTEX
  8
0
 62
7
  6
CONTINUOUS
 10
106.1947960693
 20
199.1169584245
  0
VERTEX
  8
0
 62
7
  6
CONTINUOUS
 10
106.2163820489
 20
199.118329028
  0
VERTEX
  8
0
 62
7
  6
CONTINUOUS
 10
106.2377876089
 20
199.1224390752
  0
VERTEX
  8
0
 62
7
  6
CONTINUOUS
 10
106.258929341
 20
199.1292700839
  0
SEQEND
  0
POLYLINE
  8
DEFAULT_2
 62
8
  6
HIDDEN
 66
1
 70
0
  0
VERTEX
  8
DEFAULT_2
 62
8
  6
HIDDEN
 10
118.8795315245
 20
199.1169584245
  0
VERTEX
  8
DEFAULT_2
 62
8
  6
HIDDEN
 10
118.9213475465
 20
199.118329028
  0
VERTEX
  8
DEFAULT_2
 62
8
  6
HIDDEN
 10
118.9631389235
 20
199.1224390752
  0
VERTEX
  8
DEFAULT_2
 62
8
  6
HIDDEN
 10
119.0047383563
 20
199.1292700839
  0
SEQEND
  0
POLYLINE
  8
0
 62
7
  6
CONTINUOUS
 66
1
 70
0
  0
VERTEX
  8
0
 62
7
  6
CONTINUOUS
 10
121.7981079836
 20
199.1169584245
  0
VERTEX
  8
0
 62
7
  6
CONTINUOUS
 10
121.8489524412
 20
199.118329028
  0
VERTEX
  8
0
 62
7
  6
CONTINUOUS
 10
121.8996324498
 20
199.1224390752
  0
VERTEX
  8
0
 62
7
  6
CONTINUOUS
 10
121.9499469575
 20
199.1292700839
  0
SEQEND
  0
POLYLINE
  8
0
 62
7
  6
CONTINUOUS
 66
1
 70
0
  0
VERTEX
  8
0
 62
7
  6
CONTINUOUS
 10
71.5206177519
 20
199.1169584245
  0
VERTEX
  8
0
 62
7
  6
CONTINUOUS
 10
71.4691950652
 20
199.118329028
  0
VERTEX
  8
0
 62
7
  6
CONTINUOUS
 10
71.4178773178
 20
199.1224390752
  0
VERTEX
  8
0
 62
7
  6
CONTINUOUS
 10
71.3668689291
 20
199.1292700839
  0
SEQEND
  0
POLYLINE
  8
DEFAULT_2
 62
8
  6
HIDDEN
 66
1
 70
0
  0
VERTEX
  8
DEFAULT_2
 62
8
  6
HIDDEN
 10
78.5601148462
 20
199.1169584245
  0
VERTEX
  8
DEFAULT_2
 62
8
  6
HIDDEN
 10
78.519918986
 20
199.118329028
  0
VERTEX
  8
DEFAULT_2
 62
8
  6
HIDDEN
 10
78.4799145135
 20
199.1224390752
  0
VERTEX
  8
DEFAULT_2
 62
8
  6
HIDDEN
 10
78.4402592922
 20
199.1292700839
  0
SEQEND
  0
POLYLINE
  8
0
 62
7
  6
CONTINUOUS
 66
1
 70
0
  0
VERTEX
  8
0
 62
7
  6
CONTINUOUS
 10
83.8192079026
 20
199.1169584245
  0
VERTEX
  8
0
 62
7
  6
CONTINUOUS
 10
83.7952807213
 20
199.118329028
  0
VERTEX
  8
0
 62
7
  6
CONTINUOUS
 10
83.7712930095
 20
199.1224390752
  0
VERTEX
  8
0
 62
7
  6
CONTINUOUS
 10
83.7473418104
 20
199.1292700839
  0
SEQEND
  0
POLYLINE
  8
0
 62
7
  6
CONTINUOUS
 66
1
 70
0
  0
VERTEX
  8
0
 62
7
  6
CONTINUOUS
 10
121.9499469575
 20
193.4046467651
  0
VERTEX
  8
0
 62
7
  6
CONTINUOUS
 10
121.8996255277
 20
193.4114785238
  0
VERTEX
  8
0
 62
7
  6
CONTINUOUS
 10
121.8489527756
 20
193.4155878029
  0
VERTEX
  8
0
 62
7
  6
CONTINUOUS
 10
121.7981079836
 20
193.4169584245
  0
SEQEND
  0
POLYLINE
  8
0
 62
7
  6
CONTINUOUS
 66
1
 70
0
  0
VERTEX
  8
0
 62
7
  6
CONTINUOUS
 10
86.7532837423
 20
199.4618774086
  0
VERTEX
  8
0
 62
7
  6
CONTINUOUS
 10
87.0239592232
 20
199.4202336391
  0
VERTEX
  8
0
 62
7
  6
CONTINUOUS
 10
87.2743595605
 20
199.3757751446
  0
VERTEX
  8
0
 62
7
  6
CONTINUOUS
 10
87.5016489712
 20
199.3289102047
  0
VERTEX
  8
0
 62
7
  6
CONTINUOUS
 10
87.7031071413
 20
199.2801063661
  0
VERTEX
  8
0
 62
7
  6
CONTINUOUS
 10
87.8762436794
 20
199.2298867557
  0
VERTEX
  8
0
 62
7
  6
CONTINUOUS
 10
88.0189315416
 20
199.1788086177
  0
SEQEND
  0
POLYLINE
  8
0
 62
7
  6
CONTINUOUS
 66
1
 70
0
  0
VERTEX
  8
0
 62
7
  6
CONTINUOUS
 10
122.2523693665
 20
193.3551082313
  0
VERTEX
  8
0
 62
7
  6
CONTINUOUS
 10
122.5686715051
 20
193.3040580212
  0
VERTEX
  8
0
 62
7
  6
CONTINUOUS
 10
122.8905954146
 20
193.2538459014
  0
VERTEX
  8
0
 62
7
  6
CONTINUOUS
 10
123.2142618646
 20
193.2050360932
  0
VERTEX
  8
0
 62
7
  6
CONTINUOUS
 10
123.5358052775
 20
193.1581526744
  0
VERTEX
  8
0
 62
7
  6
CONTINUOUS
 10
123.8514363703
 20
193.1136751275
  0
VERTEX
  8
0
 62
7
  6
CONTINUOUS
 10
124.1574705747
 20
193.0720394404
  0
SEQEND
  0
LINE
  8
0
 62
7
  6
CONTINUOUS
 10
122.2523693665
 20
193.3551082313
 11
121.9499469575
 21
193.4046467651
  0
POLYLINE
  8
DEFAULT_2
 62
8
  6
HIDDEN
 66
1
 70
0
  0
VERTEX
  8
DEFAULT_2
 62
8
  6
HIDDEN
 10
119.0047383563
 20
193.4046467651
  0
VERTEX
  8
DEFAULT_2
 62
8
  6
HIDDEN
 10
118.9631332079
 20
193.4114785238
  0
VERTEX
  8
DEFAULT_2
 62
8
  6
HIDDEN
 10
118.9213478219
 20
193.4155878029
  0
VERTEX
  8
DEFAULT_2
 62
8
  6
HIDDEN
 10
118.8795315245
 20
193.4169584245
  0
SEQEND
  0
POLYLINE
  8
DEFAULT_2
 62
8
  6
HIDDEN
 66
1
 70
0
  0
VERTEX
  8
DEFAULT_2
 62
8
  6
HIDDEN
 10
117.959070567
 20
193.0720394404
  0
VERTEX
  8
DEFAULT_2
 62
8
  6
HIDDEN
 10
118.1264968105
 20
193.0428268452
  0
VERTEX
  8
DEFAULT_2
 62
8
  6
HIDDEN
 10
118.2997191819
 20
192.9954439479
  0
VERTEX
  8
DEFAULT_2
 62
8
  6
HIDDEN
 10
118.4714383472
 20
192.9310934665
  0
VERTEX
  8
DEFAULT_2
 62
8
  6
HIDDEN
 10
118.6355844482
 20
192.8520315961
  0
VERTEX
  8
DEFAULT_2
 62
8
  6
HIDDEN
 10
118.7881950043
 20
192.7602571077
  0
VERTEX
  8
DEFAULT_2
 62
8
  6
HIDDEN
 10
118.9234691942
 20
192.6594175259
  0
SEQEND
  0
POLYLINE
  8
0
 62
7
  6
CONTINUOUS
 66
1
 70
0
  0
VERTEX
  8
0
 62
7
  6
CONTINUOUS
 10
125.0168729613
 20
193.0720394404
  0
VERTEX
  8
0
 62
7
  6
CONTINUOUS
 10
124.7853953258
 20
193.11368321
  0
VERTEX
  8
0
 62
7
  6
CONTINUOUS
 10
124.5309397095
 20
193.1581417044
  0
VERTEX
  8
0
 62
7
  6
CONTINUOUS
 10
124.2562699654
 20
193.2050066444
  0
VERTEX
  8
0
 62
7
  6
CONTINUOUS
 10
123.9645056965
 20
193.253810483
  0
VERTEX
  8
0
 62
7
  6
CONTINUOUS
 10
123.6590881957
 20
193.3040300933
  0
VERTEX
  8
0
 62
7
  6
CONTINUOUS
 10
123.0357568915
 20
193.4046467651
  0
SEQEND
  0
LINE
  8
DEFAULT_2
 62
8
  6
HIDDEN
 10
119.257087994
 20
193.3551082313
 11
119.0047383563
 21
193.4046467651
  0
POLYLINE
  8
DEFAULT_2
 62
8
  6
HIDDEN
 66
1
 70
0
  0
VERTEX
  8
DEFAULT_2
 62
8
  6
HIDDEN
 10
119.257087994
 20
193.3551082313
  0
VERTEX
  8
DEFAULT_2
 62
8
  6
HIDDEN
 10
119.5089095294
 20
193.3040580212
  0
VERTEX
  8
DEFAULT_2
 62
8
  6
HIDDEN
 10
119.7372524656
 20
193.2538459014
  0
VERTEX
  8
DEFAULT_2
 62
8
  6
HIDDEN
 10
119.9393977617
 20
193.2050360932
  0
VERTEX
  8
DEFAULT_2
 62
8
  6
HIDDEN
 10
120.1129918173
 20
193.1581526744
  0
VERTEX
  8
DEFAULT_2
 62
8
  6
HIDDEN
 10
120.2560706823
 20
193.1136751275
  0
VERTEX
  8
DEFAULT_2
 62
8
  6
HIDDEN
 10
120.3670625444
 20
193.0720394404
  0
SEQEND
  0
LINE
  8
DEFAULT_2
 62
8
  6
HIDDEN
 10
115.9623665284
 20
193.4046467651
 11
116.1994376205
 21
193.3551082313
  0
POLYLINE
  8
0
 62
7
  6
CONTINUOUS
 66
1
 70
0
  0
VERTEX
  8
0
 62
7
  6
CONTINUOUS
 10
110.6552840101
 20
193.4046467651
  0
VERTEX
  8
0
 62
7
  6
CONTINUOUS
 10
110.7037495306
 20
193.3881390409
  0
VERTEX
  8
0
 62
7
  6
CONTINUOUS
 10
110.8021270861
 20
193.3551082313
  0
SEQEND
  0
POLYLINE
  8
0
 62
7
  6
CONTINUOUS
 66
1
 70
0
  0
VERTEX
  8
0
 62
7
  6
CONTINUOUS
 10
106.383694279
 20
193.3551082313
  0
VERTEX
  8
0
 62
7
  6
CONTINUOUS
 10
106.526295059
 20
193.3040580212
  0
VERTEX
  8
0
 62
7
  6
CONTINUOUS
 10
106.699384672
 20
193.2538459014
  0
VERTEX
  8
0
 62
7
  6
CONTINUOUS
 10
106.9008448375
 20
193.2050360932
  0
VERTEX
  8
0
 62
7
  6
CONTINUOUS
 10
107.1282088594
 20
193.1581526744
  0
VERTEX
  8
0
 62
7
  6
CONTINUOUS
 10
107.3787155295
 20
193.1136751275
  0
VERTEX
  8
0
 62
7
  6
CONTINUOUS
 10
107.6493420783
 20
193.0720394404
  0
SEQEND
  0
POLYLINE
  8
0
 62
7
  6
CONTINUOUS
 66
1
 70
0
  0
VERTEX
  8
0
 62
7
  6
CONTINUOUS
 10
106.383694279
 20
193.3551082313
  0
VERTEX
  8
0
 62
7
  6
CONTINUOUS
 10
106.3426057855
 20
193.3716260176
  0
VERTEX
  8
0
 62
7
  6
CONTINUOUS
 10
106.258929341
 20
193.4046467651
  0
SEQEND
  0
POLYLINE
  8
DEFAULT_2
 62
8
  6
HIDDEN
 66
1
 70
0
  0
VERTEX
  8
DEFAULT_2
 62
8
  6
HIDDEN
 10
99.6533581277
 20
193.3551082313
  0
VERTEX
  8
DEFAULT_2
 62
8
  6
HIDDEN
 10
99.6487292762
 20
193.3716260176
  0
VERTEX
  8
DEFAULT_2
 62
8
  6
HIDDEN
 10
99.6446450934
 20
193.3881390447
  0
VERTEX
  8
DEFAULT_2
 62
8
  6
HIDDEN
 10
99.6411056855
 20
193.4046467651
  0
SEQEND
  0
POLYLINE
  8
DEFAULT_2
 62
8
  6
HIDDEN
 66
1
 70
0
  0
VERTEX
  8
DEFAULT_2
 62
8
  6
HIDDEN
 10
99.6411056855
 20
193.4046467651
  0
VERTEX
  8
DEFAULT_2
 62
8
  6
HIDDEN
 10
99.6395463438
 20
193.4114785238
  0
VERTEX
  8
DEFAULT_2
 62
8
  6
HIDDEN
 10
99.6381135718
 20
193.4155878029
  0
VERTEX
  8
DEFAULT_2
 62
8
  6
HIDDEN
 10
99.6368142939
 20
193.4169584245
  0
SEQEND
  0
POLYLINE
  8
DEFAULT_2
 62
8
  6
HIDDEN
 66
1
 70
0
  0
VERTEX
  8
DEFAULT_2
 62
8
  6
HIDDEN
 10
99.6566649103
 20
186.5011018922
  0
VERTEX
  8
DEFAULT_2
 62
8
  6
HIDDEN
 10
99.6510723075
 20
186.5298588278
  0
VERTEX
  8
DEFAULT_2
 62
8
  6
HIDDEN
 10
99.613887382
 20
186.5800709476
  0
VERTEX
  8
DEFAULT_2
 62
8
  6
HIDDEN
 10
99.5422919933
 20
186.6288807559
  0
VERTEX
  8
DEFAULT_2
 62
8
  6
HIDDEN
 10
99.4372168271
 20
186.6757641746
  0
VERTEX
  8
DEFAULT_2
 62
8
  6
HIDDEN
 10
99.3000021606
 20
186.7202417215
  0
VERTEX
  8
DEFAULT_2
 62
8
  6
HIDDEN
 10
99.1323725444
 20
186.7618774086
  0
SEQEND
  0
LINE
  8
DEFAULT_2
 62
8
  6
HIDDEN
 10
99.6533581277
 20
193.3551082313
 11
99.6566649103
 21
193.3328149569
  0
LINE
  8
DEFAULT_2
 62
8
  6
HIDDEN
 10
99.9329884383
 20
186.4169584245
 11
99.9329884383
 21
193.4169584245
  0
LINE
  8
DEFAULT_2
 62
8
  6
HIDDEN
 10
99.9329884383
 20
199.1169584245
 11
99.9329884383
 21
206.1169584245
  0
LINE
  8
DEFAULT_2
 62
8
  6
HIDDEN
 10
100.5902718994
 20
182.2669584245
 11
100.5902718994
 21
186.4169584245
  0
LINE
  8
DEFAULT_2
 62
8
  6
HIDDEN
 10
100.5902718994
 20
193.4169584245
 11
100.5902718994
 21
199.1169584245
  0
LINE
  8
DEFAULT_2
 62
8
  6
HIDDEN
 10
100.5902718994
 20
206.1169584245
 11
100.5902718994
 21
210.2669584245
  0
POLYLINE
  8
DEFAULT_2
 62
8
  6
HIDDEN
 66
1
 70
0
  0
VERTEX
  8
DEFAULT_2
 62
8
  6
HIDDEN
 10
100.5902718994
 20
210.2669584245
  0
VERTEX
  8
DEFAULT_2
 62
8
  6
HIDDEN
 10
100.5947231383
 20
210.394842846
  0
VERTEX
  8
DEFAULT_2
 62
8
  6
HIDDEN
 10
100.6077597336
 20
210.5183587925
  0
VERTEX
  8
DEFAULT_2
 62
8
  6
HIDDEN
 10
100.6290947376
 20
210.6365133778
  0
VERTEX
  8
DEFAULT_2
 62
8
  6
HIDDEN
 10
100.658896296
 20
210.749097362
  0
VERTEX
  8
DEFAULT_2
 62
8
  6
HIDDEN
 10
100.6974179176
 20
210.8548360677
  0
VERTEX
  8
DEFAULT_2
 62
8
  6
HIDDEN
 10
100.7449281458
 20
210.9521342429
  0
VERTEX
  8
DEFAULT_2
 62
8
  6
HIDDEN
 10
100.800570074
 20
211.0378257077
  0
VERTEX
  8
DEFAULT_2
 62
8
  6
HIDDEN
 10
100.8627625259
 20
211.1096219283
  0
VERTEX
  8
DEFAULT_2
 62
8
  6
HIDDEN
 10
100.929668706
 20
211.1667200292
  0
VERTEX
  8
DEFAULT_2
 62
8
  6
HIDDEN
 10
101.0023618879
 20
211.2109876511
  0
VERTEX
  8
DEFAULT_2
 62
8
  6
HIDDEN
 10
101.0810550644
 20
211.2426051546
  0
VERTEX
  8
DEFAULT_2
 62
8
  6
HIDDEN
 10
101.1638230099
 20
211.261093298
  0
VERTEX
  8
DEFAULT_2
 62
8
  6
HIDDEN
 10
101.2480116417
 20
211.2669584245
  0
SEQEND
  0
LINE
  8
DEFAULT_2
 62
8
  6
HIDDEN
 10
99.6533581277
 20
186.4788086177
 11
99.6566649103
 21
186.5011018922
  0
POLYLINE
  8
DEFAULT_2
 62
8
  6
HIDDEN
 66
1
 70
0
  0
VERTEX
  8
DEFAULT_2
 62
8
  6
HIDDEN
 10
99.6566649103
 20
193.3328149569
  0
VERTEX
  8
DEFAULT_2
 62
8
  6
HIDDEN
 10
99.6510723075
 20
193.3040580212
  0
VERTEX
  8
DEFAULT_2
 62
8
  6
HIDDEN
 10
99.613887382
 20
193.2538459014
  0
VERTEX
  8
DEFAULT_2
 62
8
  6
HIDDEN
 10
99.5422919933
 20
193.2050360932
  0
VERTEX
  8
DEFAULT_2
 62
8
  6
HIDDEN
 10
99.4372168271
 20
193.1581526744
  0
VERTEX
  8
DEFAULT_2
 62
8
  6
HIDDEN
 10
99.3000021606
 20
193.1136751275
  0
VERTEX
  8
DEFAULT_2
 62
8
  6
HIDDEN
 10
99.1323725444
 20
193.0720394404
  0
SEQEND
  0
LINE
  8
DEFAULT_2
 62
8
  6
HIDDEN
 10
99.6395465489
 20
186.4224390752
 11
99.6411056855
 21
186.4292700839
  0
POLYLINE
  8
DEFAULT_2
 62
8
  6
HIDDEN
 66
1
 70
0
  0
VERTEX
  8
DEFAULT_2
 62
8
  6
HIDDEN
 10
98.1971558139
 20
192.3926304939
  0
VERTEX
  8
DEFAULT_2
 62
8
  6
HIDDEN
 10
98.3386664892
 20
192.5336824515
  0
VERTEX
  8
DEFAULT_2
 62
8
  6
HIDDEN
 10
98.4637510677
 20
192.6594175259
  0
SEQEND
  0
LINE
  8
DEFAULT_2
 62
8
  6
HIDDEN
 10
97.8849631619
 20
192.0843510998
 11
98.1971558139
 21
192.3926304939
  0
POLYLINE
  8
0
 62
7
  6
CONTINUOUS
 66
1
 70
0
  0
VERTEX
  8
0
 62
7
  6
CONTINUOUS
 10
111.1289913031
 20
205.7720394404
  0
VERTEX
  8
0
 62
7
  6
CONTINUOUS
 10
111.0990996756
 20
205.7428268452
  0
VERTEX
  8
0
 62
7
  6
CONTINUOUS
 10
111.0585734712
 20
205.6954439479
  0
VERTEX
  8
0
 62
7
  6
CONTINUOUS
 10
111.0087425808
 20
205.6310934665
  0
VERTEX
  8
0
 62
7
  6
CONTINUOUS
 10
110.9520157355
 20
205.5520315961
  0
VERTEX
  8
0
 62
7
  6
CONTINUOUS
 10
110.8911366937
 20
205.4602571077
  0
VERTEX
  8
0
 62
7
  6
CONTINUOUS
 10
110.8304348198
 20
205.3594175259
  0
SEQEND
  0
POLYLINE
  8
DEFAULT_2
 62
8
  6
HIDDEN
 66
1
 70
0
  0
VERTEX
  8
DEFAULT_2
 62
8
  6
HIDDEN
 10
98.4637510677
 20
192.6594175259
  0
VERTEX
  8
DEFAULT_2
 62
8
  6
HIDDEN
 10
98.5728140691
 20
192.7604114541
  0
VERTEX
  8
DEFAULT_2
 62
8
  6
HIDDEN
 10
98.6896033284
 20
192.8521990874
  0
VERTEX
  8
DEFAULT_2
 62
8
  6
HIDDEN
 10
98.8081087058
 20
192.9312113404
  0
VERTEX
  8
DEFAULT_2
 62
8
  6
HIDDEN
 10
98.9244175923
 20
192.9955025511
  0
VERTEX
  8
DEFAULT_2
 62
8
  6
HIDDEN
 10
99.0339319423
 20
193.0428423471
  0
VERTEX
  8
DEFAULT_2
 62
8
  6
HIDDEN
 10
99.1323725444
 20
193.0720394404
  0
SEQEND
  0
POLYLINE
  8
0
 62
7
  6
CONTINUOUS
 66
1
 70
0
  0
VERTEX
  8
0
 62
7
  6
CONTINUOUS
 10
108.5555998648
 20
199.8744993231
  0
VERTEX
  8
0
 62
7
  6
CONTINUOUS
 10
108.7031300419
 20
200.0001396285
  0
VERTEX
  8
0
 62
7
  6
CONTINUOUS
 10
108.8581684634
 20
200.1413012889
  0
VERTEX
  8
0
 62
7
  6
CONTINUOUS
 10
109.0139614255
 20
200.2928477911
  0
VERTEX
  8
0
 62
7
  6
CONTINUOUS
 10
109.1644969282
 20
200.4495657492
  0
SEQEND
  0
POLYLINE
  8
DEFAULT_2
 62
8
  6
HIDDEN
 66
1
 70
0
  0
VERTEX
  8
DEFAULT_2
 62
8
  6
HIDDEN
 10
95.2702532762
 20
199.4618774086
  0
VERTEX
  8
DEFAULT_2
 62
8
  6
HIDDEN
 10
95.1025950345
 20
199.4202336391
  0
VERTEX
  8
DEFAULT_2
 62
8
  6
HIDDEN
 10
94.9654381
 20
199.3757751446
  0
VERTEX
  8
DEFAULT_2
 62
8
  6
HIDDEN
 10
94.8603882252
 20
199.3289102047
  0
VERTEX
  8
DEFAULT_2
 62
8
  6
HIDDEN
 10
94.7887773704
 20
199.2801063661
  0
VERTEX
  8
DEFAULT_2
 62
8
  6
HIDDEN
 10
94.7515644074
 20
199.2298867557
  0
VERTEX
  8
DEFAULT_2
 62
8
  6
HIDDEN
 10
94.7459609104
 20
199.2011043131
  0
SEQEND
  0
LINE
  8
0
 62
7
  6
CONTINUOUS
 10
122.8820080686
 20
199.1169584245
 11
116.0593694909
 21
199.1169584245
  0
LINE
  8
DEFAULT_2
 62
8
  6
HIDDEN
 10
106.258929341
 20
199.1169584245
 11
106.1947960693
 21
199.1169584245
  0
LINE
  8
0
 62
7
  6
CONTINUOUS
 10
110.5834179179
 20
199.1169584245
 11
106.258929341
 21
199.1169584245
  0
LINE
  8
0
 62
7
  6
CONTINUOUS
 10
106.1947960693
 20
199.1169584245
 11
102.8762035376
 21
199.1169584245
  0
LINE
  8
DEFAULT_2
 62
8
  6
HIDDEN
 10
100.5902718994
 20
199.1169584245
 11
93.8123539211
 21
199.1169584245
  0
LINE
  8
0
 62
7
  6
CONTINUOUS
 10
91.526422283
 20
199.1169584245
 11
88.2078297513
 21
199.1169584245
  0
LINE
  8
DEFAULT_2
 62
8
  6
HIDDEN
 10
83.5865543532
 20
199.1169584245
 11
78.3432563297
 21
199.1169584245
  0
LINE
  8
0
 62
7
  6
CONTINUOUS
 10
71.5206177519
 20
199.1169584245
 11
78.3432563297
 21
199.1169584245
  0
LINE
  8
0
 62
7
  6
CONTINUOUS
 10
83.8192079026
 20
199.1169584245
 11
88.1436964796
 21
199.1169584245
  0
LINE
  8
DEFAULT_2
 62
8
  6
HIDDEN
 10
88.1436964796
 20
199.1169584245
 11
88.2078297513
 21
199.1169584245
  0
LINE
  8
DEFAULT_2
 62
8
  6
HIDDEN
 10
110.8160714674
 20
199.1169584245
 11
116.0593694909
 21
199.1169584245
  0
LINE
  8
0
 62
9
  6
CONTINUOUS
 10
123.0357568915
 20
199.1292700839
 11
121.9499469575
 21
199.1292700839
  0
LINE
  8
0
 62
9
  6
CONTINUOUS
 10
110.6552840101
 20
199.1292700839
 11
106.258929341
 21
199.1292700839
  0
LINE
  8
DEFAULT_2
 62
8
  6
HIDDEN
 10
99.6411056855
 20
199.1292700839
 11
94.7615201351
 21
199.1292700839
  0
LINE
  8
DEFAULT_2
 62
8
  6
HIDDEN
 10
78.4402592922
 20
199.1292700839
 11
75.3978874642
 21
199.1292700839
  0
LINE
  8
0
 62
9
  6
CONTINUOUS
 10
71.3668689291
 20
199.1292700839
 11
72.4526788631
 21
199.1292700839
  0
LINE
  8
0
 62
9
  6
CONTINUOUS
 10
83.7473418104
 20
199.1292700839
 11
88.1436964796
 21
199.1292700839
  0
LINE
  8
DEFAULT_2
 62
8
  6
HIDDEN
 10
115.9623665284
 20
199.1292700839
 11
119.0047383563
 21
199.1292700839
  0
LINE
  8
0
 62
9
  6
CONTINUOUS
 10
125.0168729613
 20
199.4618774086
 11
124.1574705747
 21
199.4618774086
  0
LINE
  8
0
 62
9
  6
CONTINUOUS
 10
111.1289913031
 20
199.4618774086
 11
107.6493420783
 21
199.4618774086
  0
LINE
  8
DEFAULT_2
 62
8
  6
HIDDEN
 10
99.1323725444
 20
199.4618774086
 11
95.2702532762
 21
199.4618774086
  0
LINE
  8
DEFAULT_2
 62
8
  6
HIDDEN
 10
76.4435552535
 20
199.4618774086
 11
74.0355632762
 21
199.4618774086
  0
LINE
  8
0
 62
9
  6
CONTINUOUS
 10
69.3857528593
 20
199.4618774086
 11
70.2451552459
 21
199.4618774086
  0
LINE
  8
0
 62
9
  6
CONTINUOUS
 10
83.2736345175
 20
199.4618774086
 11
86.7532837423
 21
199.4618774086
  0
LINE
  8
DEFAULT_2
 62
8
  6
HIDDEN
 10
117.959070567
 20
199.4618774086
 11
120.3670625444
 21
199.4618774086
  0
LINE
  8
DEFAULT_2
 62
8
  6
HIDDEN
 10
120.2943738039
 20
200.4495657492
 11
119.4418758841
 21
200.4495657492
  0
LINE
  8
DEFAULT_2
 62
8
  6
HIDDEN
 10
97.8849631619
 20
200.4495657492
 11
96.5176626587
 21
200.4495657492
  0
LINE
  8
DEFAULT_2
 62
8
  6
HIDDEN
 10
74.9607499365
 20
200.4495657492
 11
74.1082520167
 21
200.4495657492
  0
LINE
  8
0
 62
9
  6
CONTINUOUS
 10
68.7841342552
 20
200.4495657492
 11
69.0883872401
 21
200.4495657492
  0
LINE
  8
0
 62
9
  6
CONTINUOUS
 10
84.006233706
 20
200.4495657492
 11
85.2381288924
 21
200.4495657492
  0
LINE
  8
0
 62
9
  6
CONTINUOUS
 10
109.1644969282
 20
200.4495657492
 11
110.3963921146
 21
200.4495657492
  0
LINE
  8
0
 62
9
  6
CONTINUOUS
 10
125.3142385804
 20
200.4495657492
 11
125.6184915654
 21
200.4495657492
  0
POLYLINE
  8
0
 62
7
  6
CONTINUOUS
 66
1
 70
0
  0
VERTEX
  8
0
 62
7
  6
CONTINUOUS
 10
125.0168729613
 20
193.0720394404
  0
VERTEX
  8
0
 62
7
  6
CONTINUOUS
 10
125.1271671598
 20
193.0428268452
  0
VERTEX
  8
0
 62
7
  6
CONTINUOUS
 10
125.2335812235
 20
192.9954439479
  0
VERTEX
  8
0
 62
7
  6
CONTINUOUS
 10
125.3313280307
 20
192.9310934665
  0
VERTEX
  8
0
 62
7
  6
CONTINUOUS
 10
125.4174715854
 20
192.8520315961
  0
VERTEX
  8
0
 62
7
  6
CONTINUOUS
 10
125.4910345483
 20
192.7602571077
  0
VERTEX
  8
0
 62
7
  6
CONTINUOUS
 10
125.5508369025
 20
192.6594175259
  0
SEQEND
  0
POLYLINE
  8
DEFAULT_2
 62
8
  6
HIDDEN
 66
1
 70
0
  0
VERTEX
  8
DEFAULT_2
 62
8
  6
HIDDEN
 10
99.1323725444
 20
199.4618774086
  0
VERTEX
  8
DEFAULT_2
 62
8
  6
HIDDEN
 10
99.0340521511
 20
199.4910304715
  0
VERTEX
  8
DEFAULT_2
 62
8
  6
HIDDEN
 10
98.9246595064
 20
199.5382948692
  0
VERTEX
  8
DEFAULT_2
 62
8
  6
HIDDEN
 10
98.808394761
 20
199.6025311057
  0
VERTEX
  8
DEFAULT_2
 62
8
  6
HIDDEN
 10
98.6899509414
 20
199.681466005
  0
VERTEX
  8
DEFAULT_2
 62
8
  6
HIDDEN
 10
98.5731292506
 20
199.7732370184
  0
VERTEX
  8
DEFAULT_2
 62
8
  6
HIDDEN
 10
98.4637510677
 20
199.8744993231
  0
SEQEND
  0
POLYLINE
  8
0
 62
7
  6
CONTINUOUS
 66
1
 70
0
  0
VERTEX
  8
0
 62
7
  6
CONTINUOUS
 10
108.5555998648
 20
192.6594175259
  0
VERTEX
  8
0
 62
7
  6
CONTINUOUS
 10
108.4198749991
 20
192.7604114541
  0
VERTEX
  8
0
 62
7
  6
CONTINUOUS
 10
108.2703249312
 20
192.8521990874
  0
VERTEX
  8
0
 62
7
  6
CONTINUOUS
 10
108.1134844478
 20
192.9312113404
  0
VERTEX
  8
0
 62
7
  6
CONTINUOUS
 10
107.9536935875
 20
192.9955025511
  0
VERTEX
  8
0
 62
7
  6
CONTINUOUS
 10
107.7968485585
 20
193.0428423471
  0
VERTEX
  8
0
 62
7
  6
CONTINUOUS
 10
107.6493420783
 20
193.0720394404
  0
SEQEND
  0
POLYLINE
  8
DEFAULT_2
 62
8
  6
HIDDEN
 66
1
 70
0
  0
VERTEX
  8
DEFAULT_2
 62
8
  6
HIDDEN
 10
98.4637510677
 20
199.8744993231
  0
VERTEX
  8
DEFAULT_2
 62
8
  6
HIDDEN
 10
98.3387611863
 20
200.0001396285
  0
VERTEX
  8
DEFAULT_2
 62
8
  6
HIDDEN
 10
98.1971407776
 20
200.1413012889
  0
VERTEX
  8
DEFAULT_2
 62
8
  6
HIDDEN
 10
97.8849631619
 20
200.4495657492
  0
SEQEND
  0
POLYLINE
  8
0
 62
7
  6
CONTINUOUS
 66
1
 70
0
  0
VERTEX
  8
0
 62
7
  6
CONTINUOUS
 10
110.3963921146
 20
187.7495657492
  0
VERTEX
  8
0
 62
7
  6
CONTINUOUS
 10
110.5325950012
 20
187.592812238
  0
VERTEX
  8
0
 62
7
  6
CONTINUOUS
 10
110.6526109301
 20
187.4412711406
  0
VERTEX
  8
0
 62
7
  6
CONTINUOUS
 10
110.7527447204
 20
187.3001340512
  0
VERTEX
  8
0
 62
7
  6
CONTINUOUS
 10
110.8304348198
 20
187.1744993231
  0
SEQEND
  0
POLYLINE
  8
DEFAULT_2
 62
8
  6
HIDDEN
 66
1
 70
0
  0
VERTEX
  8
DEFAULT_2
 62
8
  6
HIDDEN
 10
99.6411056855
 20
206.1046467651
  0
VERTEX
  8
DEFAULT_2
 62
8
  6
HIDDEN
 10
99.6395463438
 20
206.1114785238
  0
VERTEX
  8
DEFAULT_2
 62
8
  6
HIDDEN
 10
99.6381135718
 20
206.1155878029
  0
VERTEX
  8
DEFAULT_2
 62
8
  6
HIDDEN
 10
99.6368142939
 20
206.1169584245
  0
SEQEND
  0
POLYLINE
  8
DEFAULT_2
 62
8
  6
HIDDEN
 66
1
 70
0
  0
VERTEX
  8
DEFAULT_2
 62
8
  6
HIDDEN
 10
99.6566649103
 20
199.2011018922
  0
VERTEX
  8
DEFAULT_2
 62
8
  6
HIDDEN
 10
99.6510723075
 20
199.2298588278
  0
VERTEX
  8
DEFAULT_2
 62
8
  6
HIDDEN
 10
99.613887382
 20
199.2800709476
  0
VERTEX
  8
DEFAULT_2
 62
8
  6
HIDDEN
 10
99.5422919933
 20
199.3288807559
  0
VERTEX
  8
DEFAULT_2
 62
8
  6
HIDDEN
 10
99.4372168271
 20
199.3757641746
  0
VERTEX
  8
DEFAULT_2
 62
8
  6
HIDDEN
 10
99.3000021606
 20
199.4202417215
  0
VERTEX
  8
DEFAULT_2
 62
8
  6
HIDDEN
 10
99.1323725444
 20
199.4618774086
  0
SEQEND
  0
LINE
  8
DEFAULT_2
 62
8
  6
HIDDEN
 10
99.6533581277
 20
206.0551082313
 11
99.6566649103
 21
206.0328149569
  0
POLYLINE
  8
0
 62
7
  6
CONTINUOUS
 66
1
 70
0
  0
VERTEX
  8
0
 62
7
  6
CONTINUOUS
 10
102.8762035376
 20
210.2669584245
  0
VERTEX
  8
0
 62
7
  6
CONTINUOUS
 10
102.8682545862
 20
210.3948428415
  0
VERTEX
  8
0
 62
7
  6
CONTINUOUS
 10
102.8450321638
 20
210.5183587838
  0
VERTEX
  8
0
 62
7
  6
CONTINUOUS
 10
102.8072112096
 20
210.6365133652
  0
VERTEX
  8
0
 62
7
  6
CONTINUOUS
 10
102.754752137
 20
210.7490973462
  0
VERTEX
  8
0
 62
7
  6
CONTINUOUS
 10
102.6875586921
 20
210.8548360492
  0
VERTEX
  8
0
 62
7
  6
CONTINUOUS
 10
102.6055959706
 20
210.952134223
  0
VERTEX
  8
0
 62
7
  6
CONTINUOUS
 10
102.5108099809
 20
211.0378256877
  0
VERTEX
  8
0
 62
7
  6
CONTINUOUS
 10
102.4063075893
 20
211.1096219096
  0
VERTEX
  8
0
 62
7
  6
CONTINUOUS
 10
102.2954718186
 20
211.1667200127
  0
VERTEX
  8
0
 62
7
  6
CONTINUOUS
 10
102.1767859945
 20
211.2109876373
  0
VERTEX
  8
0
 62
7
  6
CONTINUOUS
 10
102.050199614
 20
211.2426051446
  0
VERTEX
  8
0
 62
7
  6
CONTINUOUS
 10
101.9190339011
 20
211.2610932928
  0
VERTEX
  8
0
 62
7
  6
CONTINUOUS
 10
101.7875482699
 20
211.2669584245
  0
SEQEND
  0
LINE
  8
0
 62
7
  6
CONTINUOUS
 10
102.8762035376
 20
182.2669584245
 11
102.8762035376
 21
186.4169584245
  0
LINE
  8
0
 62
7
  6
CONTINUOUS
 10
102.8762035376
 20
193.4169584245
 11
102.8762035376
 21
199.1169584245
  0
LINE
  8
0
 62
7
  6
CONTINUOUS
 10
102.8762035376
 20
206.1169584245
 11
102.8762035376
 21
210.2669584245
  0
POLYLINE
  8
DEFAULT_2
 62
8
  6
HIDDEN
 66
1
 70
0
  0
VERTEX
  8
DEFAULT_2
 62
8
  6
HIDDEN
 10
99.6533581277
 20
186.4788086177
  0
VERTEX
  8
DEFAULT_2
 62
8
  6
HIDDEN
 10
99.6487292762
 20
186.4622908314
  0
VERTEX
  8
DEFAULT_2
 62
8
  6
HIDDEN
 10
99.6446450934
 20
186.4457778043
  0
VERTEX
  8
DEFAULT_2
 62
8
  6
HIDDEN
 10
99.6411056855
 20
186.4292700839
  0
SEQEND
  0
POLYLINE
  8
0
 62
7
  6
CONTINUOUS
 66
1
 70
0
  0
VERTEX
  8
0
 62
7
  6
CONTINUOUS
 10
110.8304348198
 20
205.3594175259
  0
VERTEX
  8
0
 62
7
  6
CONTINUOUS
 10
110.7526817298
 20
205.2336880428
  0
VERTEX
  8
0
 62
7
  6
CONTINUOUS
 10
110.6526208858
 20
205.0926589576
  0
VERTEX
  8
0
 62
7
  6
CONTINUOUS
 10
110.5326934245
 20
204.9412230696
  0
VERTEX
  8
0
 62
7
  6
CONTINUOUS
 10
110.3963921146
 20
204.7843510998
  0
SEQEND
  0
POLYLINE
  8
0
 62
7
  6
CONTINUOUS
 66
1
 70
0
  0
VERTEX
  8
0
 62
7
  6
CONTINUOUS
 10
111.1289913031
 20
205.7720394404
  0
VERTEX
  8
0
 62
7
  6
CONTINUOUS
 10
111.1604255345
 20
205.81368321
  0
VERTEX
  8
0
 62
7
  6
CONTINUOUS
 10
111.1632985105
 20
205.8314343954
  0
SEQEND
  0
POLYLINE
  8
DEFAULT_2
 62
8
  6
HIDDEN
 66
1
 70
0
  0
VERTEX
  8
DEFAULT_2
 62
8
  6
HIDDEN
 10
96.2054546877
 20
187.4412711406
  0
VERTEX
  8
DEFAULT_2
 62
8
  6
HIDDEN
 10
96.0638590613
 20
187.3001340512
  0
VERTEX
  8
DEFAULT_2
 62
8
  6
HIDDEN
 10
95.9388747528
 20
187.1744993231
  0
SEQEND
  0
LINE
  8
DEFAULT_2
 62
8
  6
HIDDEN
 10
96.5176626587
 20
187.7495657492
 11
96.2054546877
 21
187.4412711406
  0
POLYLINE
  8
DEFAULT_2
 62
8
  6
HIDDEN
 66
1
 70
0
  0
VERTEX
  8
DEFAULT_2
 62
8
  6
HIDDEN
 10
95.9388747528
 20
187.1744993231
  0
VERTEX
  8
DEFAULT_2
 62
8
  6
HIDDEN
 10
95.8296731752
 20
187.0733873825
  0
VERTEX
  8
DEFAULT_2
 62
8
  6
HIDDEN
 10
95.712899055
 20
186.9816283492
  0
VERTEX
  8
DEFAULT_2
 62
8
  6
HIDDEN
 10
95.5944210563
 20
186.9026469347
  0
VERTEX
  8
DEFAULT_2
 62
8
  6
HIDDEN
 10
95.4780833422
 20
186.8383526361
  0
VERTEX
  8
DEFAULT_2
 62
8
  6
HIDDEN
 10
95.3686144903
 20
186.7910454214
  0
VERTEX
  8
DEFAULT_2
 62
8
  6
HIDDEN
 10
95.2702532762
 20
186.7618774086
  0
SEQEND
  0
POLYLINE
  8
DEFAULT_2
 62
8
  6
HIDDEN
 66
1
 70
0
  0
VERTEX
  8
DEFAULT_2
 62
8
  6
HIDDEN
 10
95.9388747528
 20
205.3594175259
  0
VERTEX
  8
DEFAULT_2
 62
8
  6
HIDDEN
 10
96.0639537442
 20
205.2336880428
  0
VERTEX
  8
DEFAULT_2
 62
8
  6
HIDDEN
 10
96.2054413477
 20
205.0926589576
  0
VERTEX
  8
DEFAULT_2
 62
8
  6
HIDDEN
 10
96.5176626587
 20
204.7843510998
  0
SEQEND
  0
POLYLINE
  8
0
 62
7
  6
CONTINUOUS
 66
1
 70
0
  0
VERTEX
  8
0
 62
7
  6
CONTINUOUS
 10
109.1644969282
 20
192.0843510998
  0
VERTEX
  8
0
 62
7
  6
CONTINUOUS
 10
109.0138431339
 20
192.2411880325
  0
VERTEX
  8
0
 62
7
  6
CONTINUOUS
 10
108.8581525907
 20
192.3926304939
  0
VERTEX
  8
0
 62
7
  6
CONTINUOUS
 10
108.7032376797
 20
192.5336824515
  0
VERTEX
  8
0
 62
7
  6
CONTINUOUS
 10
108.5555998648
 20
192.6594175259
  0
SEQEND
  0
POLYLINE
  8
0
 62
7
  6
CONTINUOUS
 66
1
 70
0
  0
VERTEX
  8
0
 62
7
  6
CONTINUOUS
 10
111.1289913031
 20
186.7618774086
  0
VERTEX
  8
0
 62
7
  6
CONTINUOUS
 10
111.1604255345
 20
186.7202336391
  0
VERTEX
  8
0
 62
7
  6
CONTINUOUS
 10
111.1632985105
 20
186.7024824536
  0
SEQEND
  0
POLYLINE
  8
DEFAULT_2
 62
8
  6
HIDDEN
 66
1
 70
0
  0
VERTEX
  8
DEFAULT_2
 62
8
  6
HIDDEN
 10
99.6533581277
 20
206.0551082313
  0
VERTEX
  8
DEFAULT_2
 62
8
  6
HIDDEN
 10
99.6487292762
 20
206.0716260176
  0
VERTEX
  8
DEFAULT_2
 62
8
  6
HIDDEN
 10
99.6446450934
 20
206.0881390447
  0
VERTEX
  8
DEFAULT_2
 62
8
  6
HIDDEN
 10
99.6411056855
 20
206.1046467651
  0
SEQEND
  0
LINE
  8
0
 62
7
  6
CONTINUOUS
 10
104.2229168677
 20
186.4169584245
 11
104.2229168677
 21
193.4169584245
  0
LINE
  8
0
 62
7
  6
CONTINUOUS
 10
104.2229168677
 20
199.1169584245
 11
104.2229168677
 21
206.1169584245
  0
LINE
  8
DEFAULT_2
 62
8
  6
HIDDEN
 10
104.7880161916
 20
181.2669584245
 11
104.7880161916
 21
211.2669584245
  0
POLYLINE
  8
DEFAULT_2
 62
8
  6
HIDDEN
 66
1
 70
0
  0
VERTEX
  8
DEFAULT_2
 62
8
  6
HIDDEN
 10
99.6368142939
 20
186.4169584245
  0
VERTEX
  8
DEFAULT_2
 62
8
  6
HIDDEN
 10
99.6381135628
 20
186.418329028
  0
VERTEX
  8
DEFAULT_2
 62
8
  6
HIDDEN
 10
99.6395465489
 20
186.4224390752
  0
SEQEND
  0
POLYLINE
  8
0
 62
7
  6
CONTINUOUS
 66
1
 70
0
  0
VERTEX
  8
0
 62
7
  6
CONTINUOUS
 10
85.3231785243
 20
181.2669584245
  0
VERTEX
  8
0
 62
7
  6
CONTINUOUS
 10
85.3530527893
 20
181.2807913651
  0
VERTEX
  8
0
 62
7
  6
CONTINUOUS
 10
85.3755237162
 20
181.3200477876
  0
VERTEX
  8
0
 62
7
  6
CONTINUOUS
 10
85.3916260702
 20
181.3806533463
  0
VERTEX
  8
0
 62
7
  6
CONTINUOUS
 10
85.4026931763
 20
181.4586289334
  0
VERTEX
  8
0
 62
7
  6
CONTINUOUS
 10
85.4099604274
 20
181.5502650613
  0
VERTEX
  8
0
 62
7
  6
CONTINUOUS
 10
85.4145138525
 20
181.6529450442
  0
VERTEX
  8
0
 62
7
  6
CONTINUOUS
 10
85.4171858986
 20
181.7639318785
  0
VERTEX
  8
0
 62
7
  6
CONTINUOUS
 10
85.4186429217
 20
181.8821243775
  0
VERTEX
  8
0
 62
7
  6
CONTINUOUS
 10
85.419358976
 20
182.0071193237
  0
VERTEX
  8
0
 62
7
  6
CONTINUOUS
 10
85.4197291953
 20
186.4169584245
  0
SEQEND
  0
LINE
  8
DEFAULT_2
 62
8
  6
HIDDEN
 10
120.2943738039
 20
204.7843510998
 11
119.4418758841
 21
204.7843510998
  0
LINE
  8
DEFAULT_2
 62
8
  6
HIDDEN
 10
74.9607499365
 20
204.7843510998
 11
74.1082520167
 21
204.7843510998
  0
LINE
  8
0
 62
9
  6
CONTINUOUS
 10
68.7841342552
 20
204.7843510998
 11
69.0883872401
 21
204.7843510998
  0
LINE
  8
0
 62
9
  6
CONTINUOUS
 10
84.006233706
 20
204.7843510998
 11
85.2381288924
 21
204.7843510998
  0
LINE
  8
DEFAULT_2
 62
8
  6
HIDDEN
 10
96.5176626587
 20
204.7843510998
 11
97.8849631619
 21
204.7843510998
  0
LINE
  8
0
 62
9
  6
CONTINUOUS
 10
109.1644969282
 20
204.7843510998
 11
110.3963921146
 21
204.7843510998
  0
LINE
  8
0
 62
9
  6
CONTINUOUS
 10
125.3142385804
 20
204.7843510998
 11
125.6184915654
 21
204.7843510998
  0
POLYLINE
  8
DEFAULT_2
 62
8
  6
HIDDEN
 66
1
 70
0
  0
VERTEX
  8
DEFAULT_2
 62
8
  6
HIDDEN
 10
95.2702532762
 20
205.7720394404
  0
VERTEX
  8
DEFAULT_2
 62
8
  6
HIDDEN
 10
95.1025950345
 20
205.81368321
  0
VERTEX
  8
DEFAULT_2
 62
8
  6
HIDDEN
 10
94.9654381
 20
205.8581417044
  0
VERTEX
  8
DEFAULT_2
 62
8
  6
HIDDEN
 10
94.8603882252
 20
205.9050066444
  0
VERTEX
  8
DEFAULT_2
 62
8
  6
HIDDEN
 10
94.7887773704
 20
205.953810483
  0
VERTEX
  8
DEFAULT_2
 62
8
  6
HIDDEN
 10
94.7515644074
 20
206.0040300933
  0
VERTEX
  8
DEFAULT_2
 62
8
  6
HIDDEN
 10
94.7459609104
 20
206.0328125359
  0
SEQEND
  0
POLYLINE
  8
DEFAULT_2
 62
8
  6
HIDDEN
 66
1
 70
0
  0
VERTEX
  8
DEFAULT_2
 62
8
  6
HIDDEN
 10
95.2702532762
 20
205.7720394404
  0
VERTEX
  8
DEFAULT_2
 62
8
  6
HIDDEN
 10
95.3687361883
 20
205.7428268452
  0
VERTEX
  8
DEFAULT_2
 62
8
  6
HIDDEN
 10
95.4783268887
 20
205.6954439479
  0
VERTEX
  8
DEFAULT_2
 62
8
  6
HIDDEN
 10
95.5947103782
 20
205.6310934665
  0
VERTEX
  8
DEFAULT_2
 62
8
  6
HIDDEN
 10
95.7132536635
 20
205.5520315961
  0
VERTEX
  8
DEFAULT_2
 62
8
  6
HIDDEN
 10
95.8299929514
 20
205.4602571077
  0
VERTEX
  8
DEFAULT_2
 62
8
  6
HIDDEN
 10
95.9388747528
 20
205.3594175259
  0
SEQEND
  0
POLYLINE
  8
0
 62
7
  6
CONTINUOUS
 66
1
 70
0
  0
VERTEX
  8
0
 62
7
  6
CONTINUOUS
 10
110.8304348198
 20
187.1744993231
  0
VERTEX
  8
0
 62
7
  6
CONTINUOUS
 10
110.891309631
 20
187.0733873825
  0
VERTEX
  8
0
 62
7
  6
CONTINUOUS
 10
110.9521934556
 20
186.9816283492
  0
VERTEX
  8
0
 62
7
  6
CONTINUOUS
 10
111.0088740814
 20
186.9026469347
  0
VERTEX
  8
0
 62
7
  6
CONTINUOUS
 10
111.0586708847
 20
186.8383526361
  0
VERTEX
  8
0
 62
7
  6
CONTINUOUS
 10
111.0991407236
 20
186.7910454214
  0
VERTEX
  8
0
 62
7
  6
CONTINUOUS
 10
111.1289913031
 20
186.7618774086
  0
SEQEND
  0
LINE
  8
0
 62
9
  6
CONTINUOUS
 10
106.383694279
 20
186.4788086177
 11
106.383694279
 21
193.3551082313
  0
LINE
  8
0
 62
9
  6
CONTINUOUS
 10
106.383694279
 20
199.1788086177
 11
106.383694279
 21
206.0551082313
  0
POLYLINE
  8
DEFAULT_2
 62
8
  6
HIDDEN
 66
1
 70
0
  0
VERTEX
  8
DEFAULT_2
 62
8
  6
HIDDEN
 10
118.9234691942
 20
199.8744993231
  0
VERTEX
  8
DEFAULT_2
 62
8
  6
HIDDEN
 10
118.7877880961
 20
199.7733873825
  0
VERTEX
  8
DEFAULT_2
 62
8
  6
HIDDEN
 10
118.6351078909
 20
199.6816283492
  0
VERTEX
  8
DEFAULT_2
 62
8
  6
HIDDEN
 10
118.4710252027
 20
199.6026469347
  0
VERTEX
  8
DEFAULT_2
 62
8
  6
HIDDEN
 10
118.299347471
 20
199.5383526361
  0
VERTEX
  8
DEFAULT_2
 62
8
  6
HIDDEN
 10
118.1262973235
 20
199.4910454214
  0
VERTEX
  8
DEFAULT_2
 62
8
  6
HIDDEN
 10
117.959070567
 20
199.4618774086
  0
SEQEND
  0
POLYLINE
  8
DEFAULT_2
 62
8
  6
HIDDEN
 66
1
 70
0
  0
VERTEX
  8
DEFAULT_2
 62
8
  6
HIDDEN
 10
120.3670625444
 20
199.4618774086
  0
VERTEX
  8
DEFAULT_2
 62
8
  6
HIDDEN
 10
120.4116188585
 20
199.4910304715
  0
VERTEX
  8
DEFAULT_2
 62
8
  6
HIDDEN
 10
120.4481468938
 20
199.5382948692
  0
VERTEX
  8
DEFAULT_2
 62
8
  6
HIDDEN
 10
120.4747521463
 20
199.6025311057
  0
VERTEX
  8
DEFAULT_2
 62
8
  6
HIDDEN
 10
120.4911078411
 20
199.681466005
  0
VERTEX
  8
DEFAULT_2
 62
8
  6
HIDDEN
 10
120.498190341
 20
199.7732370184
  0
VERTEX
  8
DEFAULT_2
 62
8
  6
HIDDEN
 10
120.4987758078
 20
199.8151157165
  0
SEQEND
  0
POLYLINE
  8
0
 62
7
  6
CONTINUOUS
 66
1
 70
0
  0
VERTEX
  8
0
 62
7
  6
CONTINUOUS
 10
86.7532837423
 20
205.7720394404
  0
VERTEX
  8
0
 62
7
  6
CONTINUOUS
 10
87.0239592232
 20
205.81368321
  0
VERTEX
  8
0
 62
7
  6
CONTINUOUS
 10
87.2743595605
 20
205.8581417044
  0
VERTEX
  8
0
 62
7
  6
CONTINUOUS
 10
87.5016489712
 20
205.9050066444
  0
VERTEX
  8
0
 62
7
  6
CONTINUOUS
 10
87.7031071413
 20
205.953810483
  0
VERTEX
  8
0
 62
7
  6
CONTINUOUS
 10
87.8762436794
 20
206.0040300933
  0
VERTEX
  8
0
 62
7
  6
CONTINUOUS
 10
88.0189315416
 20
206.0551082313
  0
SEQEND
  0
POLYLINE
  8
0
 62
7
  6
CONTINUOUS
 66
1
 70
0
  0
VERTEX
  8
0
 62
7
  6
CONTINUOUS
 10
88.2078297513
 20
206.1169584245
  0
VERTEX
  8
0
 62
7
  6
CONTINUOUS
 10
88.1862436301
 20
206.1155878029
  0
VERTEX
  8
0
 62
7
  6
CONTINUOUS
 10
88.1648411278
 20
206.1114785238
  0
VERTEX
  8
0
 62
7
  6
CONTINUOUS
 10
88.1436964796
 20
206.1046467651
  0
SEQEND
  0
POLYLINE
  8
DEFAULT_2
 62
8
  6
HIDDEN
 66
1
 70
0
  0
VERTEX
  8
DEFAULT_2
 62
8
  6
HIDDEN
 10
75.5230942961
 20
206.1169584245
  0
VERTEX
  8
DEFAULT_2
 62
8
  6
HIDDEN
 10
75.4812779987
 20
206.1155878029
  0
VERTEX
  8
DEFAULT_2
 62
8
  6
HIDDEN
 10
75.4394926127
 20
206.1114785238
  0
VERTEX
  8
DEFAULT_2
 62
8
  6
HIDDEN
 10
75.3978874642
 20
206.1046467651
  0
SEQEND
  0
POLYLINE
  8
0
 62
7
  6
CONTINUOUS
 66
1
 70
0
  0
VERTEX
  8
0
 62
7
  6
CONTINUOUS
 10
72.604517837
 20
206.1169584245
  0
VERTEX
  8
0
 62
7
  6
CONTINUOUS
 10
72.553673045
 20
206.1155878029
  0
VERTEX
  8
0
 62
7
  6
CONTINUOUS
 10
72.5030002929
 20
206.1114785238
  0
VERTEX
  8
0
 62
7
  6
CONTINUOUS
 10
72.4526788631
 20
206.1046467651
  0
SEQEND
  0
LINE
  8
0
 62
9
  6
CONTINUOUS
 10
125.0168729613
 20
205.7720394404
 11
124.1574705747
 21
205.7720394404
  0
LINE
  8
0
 62
9
  6
CONTINUOUS
 10
111.1289913031
 20
205.7720394404
 11
107.6493420783
 21
205.7720394404
  0
LINE
  8
DEFAULT_2
 62
8
  6
HIDDEN
 10
99.1323725444
 20
205.7720394404
 11
95.2702532762
 21
205.7720394404
  0
LINE
  8
DEFAULT_2
 62
8
  6
HIDDEN
 10
76.4435552535
 20
205.7720394404
 11
74.0355632762
 21
205.7720394404
  0
LINE
  8
0
 62
9
  6
CONTINUOUS
 10
69.3857528593
 20
205.7720394404
 11
70.2451552459
 21
205.7720394404
  0
LINE
  8
0
 62
9
  6
CONTINUOUS
 10
83.2736345175
 20
205.7720394404
 11
86.7532837423
 21
205.7720394404
  0
LINE
  8
DEFAULT_2
 62
8
  6
HIDDEN
 10
117.959070567
 20
205.7720394404
 11
120.3670625444
 21
205.7720394404
  0
LINE
  8
0
 62
9
  6
CONTINUOUS
 10
123.0357568915
 20
206.1046467651
 11
121.9499469575
 21
206.1046467651
  0
LINE
  8
0
 62
9
  6
CONTINUOUS
 10
110.6552840101
 20
206.1046467651
 11
106.258929341
 21
206.1046467651
  0
LINE
  8
DEFAULT_2
 62
8
  6
HIDDEN
 10
99.6411056855
 20
206.1046467651
 11
94.7615201351
 21
206.1046467651
  0
LINE
  8
DEFAULT_2
 62
8
  6
HIDDEN
 10
78.4402592922
 20
206.1046467651
 11
75.3978874642
 21
206.1046467651
  0
LINE
  8
0
 62
9
  6
CONTINUOUS
 10
71.3668689291
 20
206.1046467651
 11
72.4526788631
 21
206.1046467651
  0
LINE
  8
0
 62
9
  6
CONTINUOUS
 10
83.7473418104
 20
206.1046467651
 11
88.1436964796
 21
206.1046467651
  0
LINE
  8
DEFAULT_2
 62
8
  6
HIDDEN
 10
115.9623665284
 20
206.1046467651
 11
119.0047383563
 21
206.1046467651
  0
LINE
  8
0
 62
7
  6
CONTINUOUS
 10
122.8820080686
 20
206.1169584245
 11
116.0593694909
 21
206.1169584245
  0
LINE
  8
DEFAULT_2
 62
8
  6
HIDDEN
 10
106.258929341
 20
206.1169584245
 11
106.1947960693
 21
206.1169584245
  0
LINE
  8
0
 62
7
  6
CONTINUOUS
 10
110.5834179179
 20
206.1169584245
 11
106.258929341
 21
206.1169584245
  0
LINE
  8
0
 62
7
  6
CONTINUOUS
 10
106.1947960693
 20
206.1169584245
 11
102.8762035376
 21
206.1169584245
  0
LINE
  8
0
 62
7
  6
CONTINUOUS
 10
91.526422283
 20
206.1169584245
 11
88.2078297513
 21
206.1169584245
  0
LINE
  8
DEFAULT_2
 62
8
  6
HIDDEN
 10
83.5865543532
 20
206.1169584245
 11
78.3432563297
 21
206.1169584245
  0
LINE
  8
0
 62
7
  6
CONTINUOUS
 10
71.5206177519
 20
206.1169584245
 11
78.3432563297
 21
206.1169584245
  0
LINE
  8
0
 62
7
  6
CONTINUOUS
 10
83.8192079026
 20
206.1169584245
 11
88.1436964796
 21
206.1169584245
  0
LINE
  8
DEFAULT_2
 62
8
  6
HIDDEN
 10
88.1436964796
 20
206.1169584245
 11
88.2078297513
 21
206.1169584245
  0
LINE
  8
DEFAULT_2
 62
8
  6
HIDDEN
 10
93.8123539211
 20
206.1169584245
 11
100.5902718994
 21
206.1169584245
  0
LINE
  8
DEFAULT_2
 62
8
  6
HIDDEN
 10
110.8160714674
 20
206.1169584245
 11
116.0593694909
 21
206.1169584245
  0
POLYLINE
  8
0
 62
7
  6
CONTINUOUS
 66
1
 70
0
  0
VERTEX
  8
0
 62
7
  6
CONTINUOUS
 10
122.8820080686
 20
206.1169584245
  0
VERTEX
  8
0
 62
7
  6
CONTINUOUS
 10
122.9334310937
 20
206.1155878029
  0
VERTEX
  8
0
 62
7
  6
CONTINUOUS
 10
122.9847414893
 20
206.1114785238
  0
VERTEX
  8
0
 62
7
  6
CONTINUOUS
 10
123.0357568915
 20
206.1046467651
  0
SEQEND
  0
POLYLINE
  8
DEFAULT_2
 62
8
  6
HIDDEN
 66
1
 70
0
  0
VERTEX
  8
DEFAULT_2
 62
8
  6
HIDDEN
 10
115.8425109744
 20
206.1169584245
  0
VERTEX
  8
DEFAULT_2
 62
8
  6
HIDDEN
 10
115.8827070987
 20
206.1155878029
  0
VERTEX
  8
DEFAULT_2
 62
8
  6
HIDDEN
 10
115.9227058472
 20
206.1114785238
  0
VERTEX
  8
DEFAULT_2
 62
8
  6
HIDDEN
 10
115.9623665284
 20
206.1046467651
  0
SEQEND
  0
POLYLINE
  8
0
 62
7
  6
CONTINUOUS
 66
1
 70
0
  0
VERTEX
  8
0
 62
7
  6
CONTINUOUS
 10
110.5834179179
 20
206.1169584245
  0
VERTEX
  8
0
 62
7
  6
CONTINUOUS
 10
110.6073452571
 20
206.1155878029
  0
VERTEX
  8
0
 62
7
  6
CONTINUOUS
 10
110.6313295253
 20
206.1114785238
  0
VERTEX
  8
0
 62
7
  6
CONTINUOUS
 10
110.6552840101
 20
206.1046467651
  0
SEQEND
  0
POLYLINE
  8
0
 62
7
  6
CONTINUOUS
 66
1
 70
0
  0
VERTEX
  8
0
 62
7
  6
CONTINUOUS
 10
108.9837040891
 20
181.9194464455
  0
VERTEX
  8
0
 62
7
  6
CONTINUOUS
 10
108.9847153084
 20
181.8124095721
  0
VERTEX
  8
0
 62
7
  6
CONTINUOUS
 10
108.9865042897
 20
181.7110175696
  0
VERTEX
  8
0
 62
7
  6
CONTINUOUS
 10
108.9895170949
 20
181.6143370375
  0
VERTEX
  8
0
 62
7
  6
CONTINUOUS
 10
108.9944022661
 20
181.5231413862
  0
VERTEX
  8
0
 62
7
  6
CONTINUOUS
 10
109.0020553051
 20
181.4397212058
  0
VERTEX
  8
0
 62
7
  6
CONTINUOUS
 10
109.0133692327
 20
181.3689083897
  0
VERTEX
  8
0
 62
7
  6
CONTINUOUS
 10
109.0292930163
 20
181.3144761819
  0
VERTEX
  8
0
 62
7
  6
CONTINUOUS
 10
109.0509890935
 20
181.2793630064
  0
VERTEX
  8
0
 62
7
  6
CONTINUOUS
 10
109.0794472963
 20
181.2669584245
  0
SEQEND
  0
LINE
  8
0
 62
7
  6
CONTINUOUS
 10
108.9828966253
 20
182.2669584245
 11
108.9837040891
 21
181.9194464455
  0
LINE
  8
0
 62
9
  6
CONTINUOUS
 10
108.5555998648
 20
187.1744993231
 11
108.5555998648
 21
192.6594175259
  0
LINE
  8
0
 62
9
  6
CONTINUOUS
 10
108.5555998648
 20
199.8744993231
 11
108.5555998648
 21
205.3594175259
  0
LINE
  8
DEFAULT_2
 62
8
  6
HIDDEN
 10
108.9826809026
 20
186.4169584245
 11
108.9826809026
 21
193.4169584245
  0
LINE
  8
DEFAULT_2
 62
8
  6
HIDDEN
 10
108.9826809026
 20
199.1169584245
 11
108.9826809026
 21
206.1169584245
  0
LINE
  8
0
 62
7
  6
CONTINUOUS
 10
108.9828966253
 20
182.2669584245
 11
108.9828966253
 21
186.4169584245
  0
LINE
  8
0
 62
7
  6
CONTINUOUS
 10
108.9828966253
 20
193.4169584245
 11
108.9828966253
 21
199.1169584245
  0
LINE
  8
DEFAULT_2
 62
8
  6
HIDDEN
 10
109.1452260836
 20
186.4169584245
 11
109.1452260836
 21
193.4169584245
  0
LINE
  8
DEFAULT_2
 62
8
  6
HIDDEN
 10
109.1452260836
 20
199.1169584245
 11
109.1452260836
 21
206.1169584245
  0
LINE
  8
0
 62
9
  6
CONTINUOUS
 10
109.1644969282
 20
187.7495657492
 11
109.1644969282
 21
192.0843510998
  0
LINE
  8
0
 62
9
  6
CONTINUOUS
 10
109.1644969282
 20
200.4495657492
 11
109.1644969282
 21
204.7843510998
  0
LINE
  8
0
 62
9
  6
CONTINUOUS
 10
110.3963921146
 20
187.7495657492
 11
110.3963921146
 21
192.0843510998
  0
LINE
  8
0
 62
9
  6
CONTINUOUS
 10
110.3963921146
 20
200.4495657492
 11
110.3963921146
 21
204.7843510998
  0
POLYLINE
  8
0
 62
7
  6
CONTINUOUS
 66
1
 70
0
  0
VERTEX
  8
0
 62
7
  6
CONTINUOUS
 10
111.1632985105
 20
199.4024824536
  0
VERTEX
  8
0
 62
7
  6
CONTINUOUS
 10
111.1571734532
 20
199.3757751446
  0
VERTEX
  8
0
 62
7
  6
CONTINUOUS
 10
111.119177376
 20
199.3289102047
  0
VERTEX
  8
0
 62
7
  6
CONTINUOUS
 10
111.0467575076
 20
199.2801063661
  0
VERTEX
  8
0
 62
7
  6
CONTINUOUS
 10
110.9406764118
 20
199.2298867557
  0
VERTEX
  8
0
 62
7
  6
CONTINUOUS
 10
110.8021270861
 20
199.1788086177
  0
SEQEND
  0
POLYLINE
  8
0
 62
7
  6
CONTINUOUS
 66
1
 70
0
  0
VERTEX
  8
0
 62
7
  6
CONTINUOUS
 10
111.1289913031
 20
193.0720394404
  0
VERTEX
  8
0
 62
7
  6
CONTINUOUS
 10
111.1604255345
 20
193.11368321
  0
VERTEX
  8
0
 62
7
  6
CONTINUOUS
 10
111.1632985105
 20
193.1314343954
  0
SEQEND
  0
POLYLINE
  8
0
 62
7
  6
CONTINUOUS
 66
1
 70
0
  0
VERTEX
  8
0
 62
7
  6
CONTINUOUS
 10
111.1289913031
 20
193.0720394404
  0
VERTEX
  8
0
 62
7
  6
CONTINUOUS
 10
111.0990996756
 20
193.0428268452
  0
VERTEX
  8
0
 62
7
  6
CONTINUOUS
 10
111.0585734712
 20
192.9954439479
  0
VERTEX
  8
0
 62
7
  6
CONTINUOUS
 10
111.0087425808
 20
192.9310934665
  0
VERTEX
  8
0
 62
7
  6
CONTINUOUS
 10
110.9520157355
 20
192.8520315961
  0
VERTEX
  8
0
 62
7
  6
CONTINUOUS
 10
110.8911366937
 20
192.7602571077
  0
VERTEX
  8
0
 62
7
  6
CONTINUOUS
 10
110.8304348198
 20
192.6594175259
  0
SEQEND
  0
POLYLINE
  8
0
 62
7
  6
CONTINUOUS
 66
1
 70
0
  0
VERTEX
  8
0
 62
7
  6
CONTINUOUS
 10
106.383694279
 20
186.4788086177
  0
VERTEX
  8
0
 62
7
  6
CONTINUOUS
 10
106.3010170574
 20
186.4457778043
  0
VERTEX
  8
0
 62
7
  6
CONTINUOUS
 10
106.258929341
 20
186.4292700839
  0
SEQEND
  0
POLYLINE
  8
0
 62
7
  6
CONTINUOUS
 66
1
 70
0
  0
VERTEX
  8
0
 62
7
  6
CONTINUOUS
 10
106.383694279
 20
186.4788086177
  0
VERTEX
  8
0
 62
7
  6
CONTINUOUS
 10
106.526295059
 20
186.5298588278
  0
VERTEX
  8
0
 62
7
  6
CONTINUOUS
 10
106.699384672
 20
186.5800709476
  0
VERTEX
  8
0
 62
7
  6
CONTINUOUS
 10
106.9008448375
 20
186.6288807559
  0
VERTEX
  8
0
 62
7
  6
CONTINUOUS
 10
107.1282088594
 20
186.6757641746
  0
VERTEX
  8
0
 62
7
  6
CONTINUOUS
 10
107.3787155295
 20
186.7202417215
  0
VERTEX
  8
0
 62
7
  6
CONTINUOUS
 10
107.6493420783
 20
186.7618774086
  0
SEQEND
  0
POLYLINE
  8
0
 62
7
  6
CONTINUOUS
 66
1
 70
0
  0
VERTEX
  8
0
 62
7
  6
CONTINUOUS
 10
110.6552840101
 20
186.4292700839
  0
VERTEX
  8
0
 62
7
  6
CONTINUOUS
 10
110.6313328111
 20
186.4224390752
  0
VERTEX
  8
0
 62
7
  6
CONTINUOUS
 10
110.6073450993
 20
186.418329028
  0
VERTEX
  8
0
 62
7
  6
CONTINUOUS
 10
110.5834179179
 20
186.4169584245
  0
SEQEND
  0
POLYLINE
  8
DEFAULT_2
 62
8
  6
HIDDEN
 66
1
 70
0
  0
VERTEX
  8
DEFAULT_2
 62
8
  6
HIDDEN
 10
78.2031882001
 20
206.0551082313
  0
VERTEX
  8
DEFAULT_2
 62
8
  6
HIDDEN
 10
77.9485162935
 20
206.0040580212
  0
VERTEX
  8
DEFAULT_2
 62
8
  6
HIDDEN
 10
77.6738045137
 20
205.9538459014
  0
VERTEX
  8
DEFAULT_2
 62
8
  6
HIDDEN
 10
77.3823812281
 20
205.9050360932
  0
VERTEX
  8
DEFAULT_2
 62
8
  6
HIDDEN
 10
77.0777605834
 20
205.8581526744
  0
VERTEX
  8
DEFAULT_2
 62
8
  6
HIDDEN
 10
76.763577828
 20
205.8136751275
  0
VERTEX
  8
DEFAULT_2
 62
8
  6
HIDDEN
 10
76.4435552535
 20
205.7720394404
  0
SEQEND
  0
POLYLINE
  8
0
 62
7
  6
CONTINUOUS
 66
1
 70
0
  0
VERTEX
  8
0
 62
7
  6
CONTINUOUS
 10
86.7532837423
 20
205.7720394404
  0
VERTEX
  8
0
 62
7
  6
CONTINUOUS
 10
86.605715294
 20
205.7428268452
  0
VERTEX
  8
0
 62
7
  6
CONTINUOUS
 10
86.4487658799
 20
205.6954439479
  0
VERTEX
  8
0
 62
7
  6
CONTINUOUS
 10
86.2888809687
 20
205.6310934665
  0
VERTEX
  8
0
 62
7
  6
CONTINUOUS
 10
86.132000195
 20
205.5520315961
  0
VERTEX
  8
0
 62
7
  6
CONTINUOUS
 10
85.9825223087
 20
205.4602571077
  0
VERTEX
  8
0
 62
7
  6
CONTINUOUS
 10
85.8470259558
 20
205.3594175259
  0
SEQEND
  0
POLYLINE
  8
DEFAULT_2
 62
8
  6
HIDDEN
 66
1
 70
0
  0
VERTEX
  8
DEFAULT_2
 62
8
  6
HIDDEN
 10
78.4402592922
 20
206.1046467651
  0
VERTEX
  8
DEFAULT_2
 62
8
  6
HIDDEN
 10
78.4799199733
 20
206.1114785238
  0
VERTEX
  8
DEFAULT_2
 62
8
  6
HIDDEN
 10
78.5199187219
 20
206.1155878029
  0
VERTEX
  8
DEFAULT_2
 62
8
  6
HIDDEN
 10
78.5601148462
 20
206.1169584245
  0
SEQEND
  0
POLYLINE
  8
0
 62
7
  6
CONTINUOUS
 66
1
 70
0
  0
VERTEX
  8
0
 62
7
  6
CONTINUOUS
 10
70.2451552459
 20
205.7720394404
  0
VERTEX
  8
0
 62
7
  6
CONTINUOUS
 10
70.5512478184
 20
205.81368321
  0
VERTEX
  8
0
 62
7
  6
CONTINUOUS
 10
70.8667440131
 20
205.8581417044
  0
VERTEX
  8
0
 62
7
  6
CONTINUOUS
 10
71.1881653496
 20
205.9050066444
  0
VERTEX
  8
0
 62
7
  6
CONTINUOUS
 10
71.5117994471
 20
205.953810483
  0
VERTEX
  8
0
 62
7
  6
CONTINUOUS
 10
71.8337782746
 20
206.0040300933
  0
VERTEX
  8
0
 62
7
  6
CONTINUOUS
 10
72.1502564541
 20
206.0551082313
  0
SEQEND
  0
POLYLINE
  8
0
 62
7
  6
CONTINUOUS
 66
1
 70
0
  0
VERTEX
  8
0
 62
7
  6
CONTINUOUS
 10
71.3668689291
 20
206.1046467651
  0
VERTEX
  8
0
 62
7
  6
CONTINUOUS
 10
71.4178843313
 20
206.1114785238
  0
VERTEX
  8
0
 62
7
  6
CONTINUOUS
 10
71.4691947269
 20
206.1155878029
  0
VERTEX
  8
0
 62
7
  6
CONTINUOUS
 10
71.5206177519
 20
206.1169584245
  0
SEQEND
  0
POLYLINE
  8
DEFAULT_2
 62
8
  6
HIDDEN
 66
1
 70
0
  0
VERTEX
  8
DEFAULT_2
 62
8
  6
HIDDEN
 10
117.959070567
 20
205.7720394404
  0
VERTEX
  8
DEFAULT_2
 62
8
  6
HIDDEN
 10
117.6389884454
 20
205.81368321
  0
VERTEX
  8
DEFAULT_2
 62
8
  6
HIDDEN
 10
117.3249395632
 20
205.8581417044
  0
VERTEX
  8
DEFAULT_2
 62
8
  6
HIDDEN
 10
117.0204280718
 20
205.9050066444
  0
VERTEX
  8
DEFAULT_2
 62
8
  6
HIDDEN
 10
116.7290238478
 20
205.953810483
  0
VERTEX
  8
DEFAULT_2
 62
8
  6
HIDDEN
 10
116.4542555494
 20
206.0040300933
  0
VERTEX
  8
DEFAULT_2
 62
8
  6
HIDDEN
 10
116.1994376205
 20
206.0551082313
  0
SEQEND
  0
POLYLINE
  8
0
 62
7
  6
CONTINUOUS
 66
1
 70
0
  0
VERTEX
  8
0
 62
7
  6
CONTINUOUS
 10
121.9499469575
 20
206.1046467651
  0
VERTEX
  8
0
 62
7
  6
CONTINUOUS
 10
121.8996255277
 20
206.1114785238
  0
VERTEX
  8
0
 62
7
  6
CONTINUOUS
 10
121.8489527756
 20
206.1155878029
  0
VERTEX
  8
0
 62
7
  6
CONTINUOUS
 10
121.7981079836
 20
206.1169584245
  0
SEQEND
  0
POLYLINE
  8
DEFAULT_2
 62
8
  6
HIDDEN
 66
1
 70
0
  0
VERTEX
  8
DEFAULT_2
 62
8
  6
HIDDEN
 10
119.0047383563
 20
206.1046467651
  0
VERTEX
  8
DEFAULT_2
 62
8
  6
HIDDEN
 10
118.9631332079
 20
206.1114785238
  0
VERTEX
  8
DEFAULT_2
 62
8
  6
HIDDEN
 10
118.9213478219
 20
206.1155878029
  0
VERTEX
  8
DEFAULT_2
 62
8
  6
HIDDEN
 10
118.8795315245
 20
206.1169584245
  0
SEQEND
  0
POLYLINE
  8
DEFAULT_2
 62
8
  6
HIDDEN
 66
1
 70
0
  0
VERTEX
  8
DEFAULT_2
 62
8
  6
HIDDEN
 10
117.959070567
 20
205.7720394404
  0
VERTEX
  8
DEFAULT_2
 62
8
  6
HIDDEN
 10
118.1264968105
 20
205.7428268452
  0
VERTEX
  8
DEFAULT_2
 62
8
  6
HIDDEN
 10
118.2997191819
 20
205.6954439479
  0
VERTEX
  8
DEFAULT_2
 62
8
  6
HIDDEN
 10
118.4714383472
 20
205.6310934665
  0
VERTEX
  8
DEFAULT_2
 62
8
  6
HIDDEN
 10
118.6355844482
 20
205.5520315961
  0
VERTEX
  8
DEFAULT_2
 62
8
  6
HIDDEN
 10
118.7881950043
 20
205.4602571077
  0
VERTEX
  8
DEFAULT_2
 62
8
  6
HIDDEN
 10
118.9234691942
 20
205.3594175259
  0
SEQEND
  0
POLYLINE
  8
0
 62
7
  6
CONTINUOUS
 66
1
 70
0
  0
VERTEX
  8
0
 62
7
  6
CONTINUOUS
 10
106.258929341
 20
206.1046467651
  0
VERTEX
  8
0
 62
7
  6
CONTINUOUS
 10
106.2377846928
 20
206.1114785238
  0
VERTEX
  8
0
 62
7
  6
CONTINUOUS
 10
106.2163821905
 20
206.1155878029
  0
VERTEX
  8
0
 62
7
  6
CONTINUOUS
 10
106.1947960693
 20
206.1169584245
  0
SEQEND
  0
POLYLINE
  8
0
 62
7
  6
CONTINUOUS
 66
1
 70
0
  0
VERTEX
  8
0
 62
7
  6
CONTINUOUS
 10
106.383694279
 20
206.0551082313
  0
VERTEX
  8
0
 62
7
  6
CONTINUOUS
 10
106.526295059
 20
206.0040580212
  0
VERTEX
  8
0
 62
7
  6
CONTINUOUS
 10
106.699384672
 20
205.9538459014
  0
VERTEX
  8
0
 62
7
  6
CONTINUOUS
 10
106.9008448375
 20
205.9050360932
  0
VERTEX
  8
0
 62
7
  6
CONTINUOUS
 10
107.1282088594
 20
205.8581526744
  0
VERTEX
  8
0
 62
7
  6
CONTINUOUS
 10
107.3787155295
 20
205.8136751275
  0
VERTEX
  8
0
 62
7
  6
CONTINUOUS
 10
107.6493420783
 20
205.7720394404
  0
SEQEND
  0
POLYLINE
  8
0
 62
7
  6
CONTINUOUS
 66
1
 70
0
  0
VERTEX
  8
0
 62
7
  6
CONTINUOUS
 10
106.383694279
 20
206.0551082313
  0
VERTEX
  8
0
 62
7
  6
CONTINUOUS
 10
106.3426057855
 20
206.0716260176
  0
VERTEX
  8
0
 62
7
  6
CONTINUOUS
 10
106.258929341
 20
206.1046467651
  0
SEQEND
  0
POLYLINE
  8
DEFAULT_2
 62
8
  6
HIDDEN
 66
1
 70
0
  0
VERTEX
  8
DEFAULT_2
 62
8
  6
HIDDEN
 10
118.9234691942
 20
192.6594175259
  0
VERTEX
  8
DEFAULT_2
 62
8
  6
HIDDEN
 10
119.0644129097
 20
192.5336880428
  0
VERTEX
  8
DEFAULT_2
 62
8
  6
HIDDEN
 10
119.2020292581
 20
192.3926589576
  0
VERTEX
  8
DEFAULT_2
 62
8
  6
HIDDEN
 10
119.3296117546
 20
192.2412230696
  0
VERTEX
  8
DEFAULT_2
 62
8
  6
HIDDEN
 10
119.4418758841
 20
192.0843510998
  0
SEQEND
  0
POLYLINE
  8
0
 62
7
  6
CONTINUOUS
 66
1
 70
0
  0
VERTEX
  8
0
 62
7
  6
CONTINUOUS
 10
110.3963921146
 20
200.4495657492
  0
VERTEX
  8
0
 62
7
  6
CONTINUOUS
 10
110.5325950012
 20
200.292812238
  0
VERTEX
  8
0
 62
7
  6
CONTINUOUS
 10
110.6526109301
 20
200.1412711406
  0
VERTEX
  8
0
 62
7
  6
CONTINUOUS
 10
110.7527447204
 20
200.0001340512
  0
VERTEX
  8
0
 62
7
  6
CONTINUOUS
 10
110.8304348198
 20
199.8744993231
  0
SEQEND
  0
POLYLINE
  8
0
 62
7
  6
CONTINUOUS
 66
1
 70
0
  0
VERTEX
  8
0
 62
7
  6
CONTINUOUS
 10
111.1289913031
 20
199.4618774086
  0
VERTEX
  8
0
 62
7
  6
CONTINUOUS
 10
111.1604255345
 20
199.4202336391
  0
VERTEX
  8
0
 62
7
  6
CONTINUOUS
 10
111.1632985105
 20
199.4024824536
  0
SEQEND
  0
POLYLINE
  8
0
 62
7
  6
CONTINUOUS
 66
1
 70
0
  0
VERTEX
  8
0
 62
7
  6
CONTINUOUS
 10
111.1632985105
 20
193.1314343954
  0
VERTEX
  8
0
 62
7
  6
CONTINUOUS
 10
111.1571734532
 20
193.1581417044
  0
VERTEX
  8
0
 62
7
  6
CONTINUOUS
 10
111.119177376
 20
193.2050066444
  0
VERTEX
  8
0
 62
7
  6
CONTINUOUS
 10
111.0467575076
 20
193.253810483
  0
VERTEX
  8
0
 62
7
  6
CONTINUOUS
 10
110.9406764118
 20
193.3040300933
  0
VERTEX
  8
0
 62
7
  6
CONTINUOUS
 10
110.8021270861
 20
193.3551082313
  0
SEQEND
  0
LINE
  8
DEFAULT_2
 62
8
  6
HIDDEN
 10
110.8021270861
 20
186.4788086177
 11
110.8021270861
 21
193.3551082313
  0
LINE
  8
DEFAULT_2
 62
8
  6
HIDDEN
 10
110.8021270861
 20
199.1788086177
 11
110.8021270861
 21
206.0551082313
  0
LINE
  8
DEFAULT_2
 62
8
  6
HIDDEN
 10
110.8160714674
 20
182.2669584245
 11
110.8160714674
 21
186.4169584245
  0
LINE
  8
DEFAULT_2
 62
8
  6
HIDDEN
 10
110.8160714674
 20
193.4169584245
 11
110.8160714674
 21
199.1169584245
  0
LINE
  8
DEFAULT_2
 62
8
  6
HIDDEN
 10
110.8160714674
 20
206.1169584245
 11
110.8160714674
 21
210.2669584245
  0
LINE
  8
0
 62
9
  6
CONTINUOUS
 10
110.8304348198
 20
187.1744993231
 11
110.8304348198
 21
192.6594175259
  0
LINE
  8
0
 62
9
  6
CONTINUOUS
 10
110.8304348198
 20
199.8744993231
 11
110.8304348198
 21
205.3594175259
  0
LINE
  8
0
 62
7
  6
CONTINUOUS
 10
110.8720798432
 20
181.2669584245
 11
110.8720798432
 21
186.5045976756
  0
LINE
  8
DEFAULT_2
 62
8
  6
HIDDEN
 10
110.8720798432
 20
186.5045976756
 11
110.8720798432
 21
193.3293191734
  0
LINE
  8
0
 62
7
  6
CONTINUOUS
 10
110.8720798432
 20
193.3293191734
 11
110.8720798432
 21
199.2045976756
  0
LINE
  8
DEFAULT_2
 62
8
  6
HIDDEN
 10
110.8720798432
 20
199.2045976756
 11
110.8720798432
 21
206.0293191734
  0
LINE
  8
0
 62
7
  6
CONTINUOUS
 10
110.8720798432
 20
206.0293191734
 11
110.8720798432
 21
211.2669584245
  0
LINE
  8
0
 62
7
  6
CONTINUOUS
 10
111.1632985106
 20
186.7021629442
 11
111.1632985106
 21
193.1317539048
  0
LINE
  8
0
 62
7
  6
CONTINUOUS
 10
111.1632985106
 20
199.4021629442
 11
111.1632985106
 21
205.8317539048
  0
LINE
  8
DEFAULT_2
 62
8
  6
HIDDEN
 10
112.5854815751
 20
186.4169584245
 11
112.5854815751
 21
193.4169584245
  0
LINE
  8
DEFAULT_2
 62
8
  6
HIDDEN
 10
112.5854815751
 20
199.1169584245
 11
112.5854815751
 21
206.1169584245
  0
POLYLINE
  8
DEFAULT_2
 62
8
  6
HIDDEN
 66
1
 70
0
  0
VERTEX
  8
DEFAULT_2
 62
8
  6
HIDDEN
 10
110.8160714674
 20
182.2669584245
  0
VERTEX
  8
DEFAULT_2
 62
8
  6
HIDDEN
 10
110.8060336654
 20
182.1380114521
  0
VERTEX
  8
DEFAULT_2
 62
8
  6
HIDDEN
 10
110.7770779571
 20
182.014563629
  0
VERTEX
  8
DEFAULT_2
 62
8
  6
HIDDEN
 10
110.7298539135
 20
181.8959146124
  0
VERTEX
  8
DEFAULT_2
 62
8
  6
HIDDEN
 10
110.6634831621
 20
181.7813240674
  0
VERTEX
  8
DEFAULT_2
 62
8
  6
HIDDEN
 10
110.5769139619
 20
181.6720469325
  0
VERTEX
  8
DEFAULT_2
 62
8
  6
HIDDEN
 10
110.4706641741
 20
181.5713673351
  0
VERTEX
  8
DEFAULT_2
 62
8
  6
HIDDEN
 10
110.3479777551
 20
181.4833691527
  0
VERTEX
  8
DEFAULT_2
 62
8
  6
HIDDEN
 10
110.212843702
 20
181.4103744204
  0
VERTEX
  8
DEFAULT_2
 62
8
  6
HIDDEN
 10
110.0700470088
 20
181.3534268677
  0
VERTEX
  8
DEFAULT_2
 62
8
  6
HIDDEN
 10
109.9132260999
 20
181.3096861884
  0
VERTEX
  8
DEFAULT_2
 62
8
  6
HIDDEN
 10
109.7308962375
 20
181.2791474121
  0
VERTEX
  8
DEFAULT_2
 62
8
  6
HIDDEN
 10
109.5121219794
 20
181.2669584245
  0
SEQEND
  0
POLYLINE
  8
0
 62
7
  6
CONTINUOUS
 66
1
 70
0
  0
VERTEX
  8
0
 62
7
  6
CONTINUOUS
 10
110.8304348198
 20
192.6594175259
  0
VERTEX
  8
0
 62
7
  6
CONTINUOUS
 10
110.7526817298
 20
192.5336880428
  0
VERTEX
  8
0
 62
7
  6
CONTINUOUS
 10
110.6526208858
 20
192.3926589576
  0
VERTEX
  8
0
 62
7
  6
CONTINUOUS
 10
110.5326934245
 20
192.2412230696
  0
VERTEX
  8
0
 62
7
  6
CONTINUOUS
 10
110.3963921146
 20
192.0843510998
  0
SEQEND
  0
POLYLINE
  8
0
 62
7
  6
CONTINUOUS
 66
1
 70
0
  0
VERTEX
  8
0
 62
7
  6
CONTINUOUS
 10
108.5555998648
 20
187.1744993231
  0
VERTEX
  8
0
 62
7
  6
CONTINUOUS
 10
108.7031300419
 20
187.3001396285
  0
VERTEX
  8
0
 62
7
  6
CONTINUOUS
 10
108.8581684634
 20
187.4413012889
  0
VERTEX
  8
0
 62
7
  6
CONTINUOUS
 10
109.0139614255
 20
187.5928477911
  0
VERTEX
  8
0
 62
7
  6
CONTINUOUS
 10
109.1644969282
 20
187.7495657492
  0
SEQEND
  0
POLYLINE
  8
0
 62
7
  6
CONTINUOUS
 66
1
 70
0
  0
VERTEX
  8
0
 62
7
  6
CONTINUOUS
 10
110.6552840101
 20
186.4292700839
  0
VERTEX
  8
0
 62
7
  6
CONTINUOUS
 10
110.7526976555
 20
186.4622908197
  0
VERTEX
  8
0
 62
7
  6
CONTINUOUS
 10
110.8021270861
 20
186.4788086177
  0
SEQEND
  0
LINE
  8
DEFAULT_2
 62
8
  6
HIDDEN
 10
78.2031882001
 20
206.0551082313
 11
78.4402592922
 21
206.1046467651
  0
LINE
  8
DEFAULT_2
 62
8
  6
HIDDEN
 10
75.3978874642
 20
206.1046467651
 11
75.1455378266
 21
206.0551082313
  0
POLYLINE
  8
0
 62
7
  6
CONTINUOUS
 66
1
 70
0
  0
VERTEX
  8
0
 62
7
  6
CONTINUOUS
 10
70.2451552459
 20
205.7720394404
  0
VERTEX
  8
0
 62
7
  6
CONTINUOUS
 10
70.0910320282
 20
205.7428268452
  0
VERTEX
  8
0
 62
7
  6
CONTINUOUS
 10
69.9358455145
 20
205.6954439479
  0
VERTEX
  8
0
 62
7
  6
CONTINUOUS
 10
69.7863031817
 20
205.6310934665
  0
VERTEX
  8
0
 62
7
  6
CONTINUOUS
 10
69.6474029019
 20
205.5520315961
  0
VERTEX
  8
0
 62
7
  6
CONTINUOUS
 10
69.5218860683
 20
205.4602571077
  0
VERTEX
  8
0
 62
7
  6
CONTINUOUS
 10
69.4136267538
 20
205.3594175259
  0
SEQEND
  0
POLYLINE
  8
0
 62
7
  6
CONTINUOUS
 66
1
 70
0
  0
VERTEX
  8
0
 62
7
  6
CONTINUOUS
 10
70.7437088174
 20
206.0040580212
  0
VERTEX
  8
0
 62
7
  6
CONTINUOUS
 10
70.4383337566
 20
205.9538459014
  0
VERTEX
  8
0
 62
7
  6
CONTINUOUS
 10
70.1465302521
 20
205.9050360932
  0
VERTEX
  8
0
 62
7
  6
CONTINUOUS
 10
69.8717496875
 20
205.8581526744
  0
VERTEX
  8
0
 62
7
  6
CONTINUOUS
 10
69.6171848661
 20
205.8136751275
  0
VERTEX
  8
0
 62
7
  6
CONTINUOUS
 10
69.3857528593
 20
205.7720394404
  0
SEQEND
  0
LINE
  8
0
 62
7
  6
CONTINUOUS
 10
72.4526788631
 20
206.1046467651
 11
72.1502564541
 21
206.0551082313
  0
LINE
  8
0
 62
7
  6
CONTINUOUS
 10
70.7437088174
 20
206.0040580212
 11
71.3668689291
 21
206.1046467651
  0
POLYLINE
  8
0
 62
7
  6
CONTINUOUS
 66
1
 70
0
  0
VERTEX
  8
0
 62
7
  6
CONTINUOUS
 10
92.6150776739
 20
211.2669584245
  0
VERTEX
  8
0
 62
7
  6
CONTINUOUS
 10
92.4839506377
 20
211.2611258337
  0
VERTEX
  8
0
 62
7
  6
CONTINUOUS
 10
92.3531928187
 20
211.2427532163
  0
VERTEX
  8
0
 62
7
  6
CONTINUOUS
 10
92.2269586204
 20
211.21133321
  0
VERTEX
  8
0
 62
7
  6
CONTINUOUS
 10
92.1084821853
 20
211.1673047807
  0
VERTEX
  8
0
 62
7
  6
CONTINUOUS
 10
91.9976783144
 20
211.1104305911
  0
VERTEX
  8
0
 62
7
  6
CONTINUOUS
 10
91.8930567913
 20
211.0388023381
  0
VERTEX
  8
0
 62
7
  6
CONTINUOUS
 10
91.798033221
 20
210.9531717368
  0
VERTEX
  8
0
 62
7
  6
CONTINUOUS
 10
91.7157890753
 20
210.8558201206
  0
VERTEX
  8
0
 62
7
  6
CONTINUOUS
 10
91.6483349896
 20
210.7499401723
  0
VERTEX
  8
0
 62
7
  6
CONTINUOUS
 10
91.5956765756
 20
210.637183397
  0
VERTEX
  8
0
 62
7
  6
CONTINUOUS
 10
91.5577114995
 20
210.5188241726
  0
VERTEX
  8
0
 62
7
  6
CONTINUOUS
 10
91.5344016611
 20
210.3950861393
  0
VERTEX
  8
0
 62
7
  6
CONTINUOUS
 10
91.526422283
 20
210.2669584245
  0
SEQEND
  0
LINE
  8
0
 62
9
  6
CONTINUOUS
 10
117.5675981297
 20
210.2669584245
 11
116.0593694909
 21
210.2669584245
  0
LINE
  8
0
 62
9
  6
CONTINUOUS
 10
108.9828966253
 20
210.2669584245
 11
102.8762035376
 21
210.2669584245
  0
LINE
  8
DEFAULT_2
 62
8
  6
HIDDEN
 10
100.5902718994
 20
210.2669584245
 11
93.8123539211
 21
210.2669584245
  0
LINE
  8
DEFAULT_2
 62
8
  6
HIDDEN
 10
83.5865543532
 20
210.2669584245
 11
79.3605916159
 21
210.2669584245
  0
LINE
  8
0
 62
9
  6
CONTINUOUS
 10
76.8350276909
 20
210.2669584245
 11
78.3432563297
 21
210.2669584245
  0
LINE
  8
0
 62
9
  6
CONTINUOUS
 10
85.4197291953
 20
210.2669584245
 11
91.526422283
 21
210.2669584245
  0
LINE
  8
DEFAULT_2
 62
8
  6
HIDDEN
 10
110.8160714674
 20
210.2669584245
 11
115.0420342047
 21
210.2669584245
  0
LINE
  8
CURVE
 62
8
  6
PHANTOM
 10
84.7013284814
 20
211.2669584245
 11
109.7012771658
 21
211.2669584245
  0
LINE
  8
0
 62
7
  6
CONTINUOUS
 10
77.8032863644
 20
211.2669584245
 11
116.5993394562
 21
211.2669584245
  0
POLYLINE
  8
DEFAULT_2
 62
8
  6
HIDDEN
 66
1
 70
0
  0
VERTEX
  8
DEFAULT_2
 62
8
  6
HIDDEN
 10
109.5121219794
 20
211.2669584245
  0
VERTEX
  8
DEFAULT_2
 62
8
  6
HIDDEN
 10
109.6644441043
 20
211.2611258337
  0
VERTEX
  8
DEFAULT_2
 62
8
  6
HIDDEN
 10
109.8175457228
 20
211.2427532163
  0
VERTEX
  8
DEFAULT_2
 62
8
  6
HIDDEN
 10
109.9665288723
 20
211.21133321
  0
VERTEX
  8
DEFAULT_2
 62
8
  6
HIDDEN
 10
110.1074400969
 20
211.1673047807
  0
VERTEX
  8
DEFAULT_2
 62
8
  6
HIDDEN
 10
110.2402032257
 20
211.1104305911
  0
VERTEX
  8
DEFAULT_2
 62
8
  6
HIDDEN
 10
110.3664504323
 20
211.0388023381
  0
VERTEX
  8
DEFAULT_2
 62
8
  6
HIDDEN
 10
110.4818868155
 20
210.9531717368
  0
VERTEX
  8
DEFAULT_2
 62
8
  6
HIDDEN
 10
110.5824063042
 20
210.8558201206
  0
VERTEX
  8
DEFAULT_2
 62
8
  6
HIDDEN
 10
110.6652798849
 20
210.7499401723
  0
VERTEX
  8
DEFAULT_2
 62
8
  6
HIDDEN
 10
110.7302505979
 20
210.637183397
  0
VERTEX
  8
DEFAULT_2
 62
8
  6
HIDDEN
 10
110.777244358
 20
210.5188241726
  0
VERTEX
  8
DEFAULT_2
 62
8
  6
HIDDEN
 10
110.8061614126
 20
210.3950861393
  0
VERTEX
  8
DEFAULT_2
 62
8
  6
HIDDEN
 10
110.8160714674
 20
210.2669584245
  0
SEQEND
  0
POLYLINE
  8
DEFAULT_2
 62
8
  6
HIDDEN
 66
1
 70
0
  0
VERTEX
  8
DEFAULT_2
 62
8
  6
HIDDEN
 10
93.1546141788
 20
211.2669584245
  0
VERTEX
  8
DEFAULT_2
 62
8
  6
HIDDEN
 10
93.2385748087
 20
211.2611258337
  0
VERTEX
  8
DEFAULT_2
 62
8
  6
HIDDEN
 10
93.3210906384
 20
211.2427532163
  0
VERTEX
  8
DEFAULT_2
 62
8
  6
HIDDEN
 10
93.3995736544
 20
211.21133321
  0
VERTEX
  8
DEFAULT_2
 62
8
  6
HIDDEN
 10
93.4721495891
 20
211.1673047807
  0
VERTEX
  8
DEFAULT_2
 62
8
  6
HIDDEN
 10
93.5390481366
 20
211.1104305911
  0
VERTEX
  8
DEFAULT_2
 62
8
  6
HIDDEN
 10
93.6013224003
 20
211.0388023381
  0
VERTEX
  8
DEFAULT_2
 62
8
  6
HIDDEN
 10
93.6571125743
 20
210.9531717368
  0
VERTEX
  8
DEFAULT_2
 62
8
  6
HIDDEN
 10
93.7047919153
 20
210.8558201206
  0
VERTEX
  8
DEFAULT_2
 62
8
  6
HIDDEN
 10
93.7434663971
 20
210.7499401723
  0
VERTEX
  8
DEFAULT_2
 62
8
  6
HIDDEN
 10
93.7733828673
 20
210.637183397
  0
VERTEX
  8
DEFAULT_2
 62
8
  6
HIDDEN
 10
93.7947998104
 20
210.5188241726
  0
VERTEX
  8
DEFAULT_2
 62
8
  6
HIDDEN
 10
93.8078856333
 20
210.3950861393
  0
VERTEX
  8
DEFAULT_2
 62
8
  6
HIDDEN
 10
93.8123539211
 20
210.2669584245
  0
SEQEND
  0
POLYLINE
  8
0
 62
7
  6
CONTINUOUS
 66
1
 70
0
  0
VERTEX
  8
0
 62
7
  6
CONTINUOUS
 10
122.2523693665
 20
206.0551082313
  0
VERTEX
  8
0
 62
7
  6
CONTINUOUS
 10
122.5686715051
 20
206.0040580212
  0
VERTEX
  8
0
 62
7
  6
CONTINUOUS
 10
122.8905954146
 20
205.9538459014
  0
VERTEX
  8
0
 62
7
  6
CONTINUOUS
 10
123.2142618646
 20
205.9050360932
  0
VERTEX
  8
0
 62
7
  6
CONTINUOUS
 10
123.5358052775
 20
205.8581526744
  0
VERTEX
  8
0
 62
7
  6
CONTINUOUS
 10
123.8514363703
 20
205.8136751275
  0
VERTEX
  8
0
 62
7
  6
CONTINUOUS
 10
124.1574705747
 20
205.7720394404
  0
SEQEND
  0
LINE
  8
0
 62
7
  6
CONTINUOUS
 10
122.2523693665
 20
206.0551082313
 11
121.9499469575
 21
206.1046467651
  0
POLYLINE
  8
0
 62
7
  6
CONTINUOUS
 66
1
 70
0
  0
VERTEX
  8
0
 62
7
  6
CONTINUOUS
 10
125.0168729613
 20
205.7720394404
  0
VERTEX
  8
0
 62
7
  6
CONTINUOUS
 10
124.7853953258
 20
205.81368321
  0
VERTEX
  8
0
 62
7
  6
CONTINUOUS
 10
124.5309397095
 20
205.8581417044
  0
VERTEX
  8
0
 62
7
  6
CONTINUOUS
 10
124.2562699654
 20
205.9050066444
  0
VERTEX
  8
0
 62
7
  6
CONTINUOUS
 10
123.9645056965
 20
205.953810483
  0
VERTEX
  8
0
 62
7
  6
CONTINUOUS
 10
123.6590881957
 20
206.0040300933
  0
VERTEX
  8
0
 62
7
  6
CONTINUOUS
 10
123.0357568915
 20
206.1046467651
  0
SEQEND
  0
LINE
  8
DEFAULT_2
 62
8
  6
HIDDEN
 10
119.257087994
 20
206.0551082313
 11
119.0047383563
 21
206.1046467651
  0
POLYLINE
  8
DEFAULT_2
 62
8
  6
HIDDEN
 66
1
 70
0
  0
VERTEX
  8
DEFAULT_2
 62
8
  6
HIDDEN
 10
119.257087994
 20
206.0551082313
  0
VERTEX
  8
DEFAULT_2
 62
8
  6
HIDDEN
 10
119.5089095294
 20
206.0040580212
  0
VERTEX
  8
DEFAULT_2
 62
8
  6
HIDDEN
 10
119.7372524656
 20
205.9538459014
  0
VERTEX
  8
DEFAULT_2
 62
8
  6
HIDDEN
 10
119.9393977617
 20
205.9050360932
  0
VERTEX
  8
DEFAULT_2
 62
8
  6
HIDDEN
 10
120.1129918173
 20
205.8581526744
  0
VERTEX
  8
DEFAULT_2
 62
8
  6
HIDDEN
 10
120.2560706823
 20
205.8136751275
  0
VERTEX
  8
DEFAULT_2
 62
8
  6
HIDDEN
 10
120.3670625444
 20
205.7720394404
  0
SEQEND
  0
LINE
  8
DEFAULT_2
 62
8
  6
HIDDEN
 10
115.9623665284
 20
206.1046467651
 11
116.1994376205
 21
206.0551082313
  0
POLYLINE
  8
0
 62
7
  6
CONTINUOUS
 66
1
 70
0
  0
VERTEX
  8
0
 62
7
  6
CONTINUOUS
 10
110.6552840101
 20
206.1046467651
  0
VERTEX
  8
0
 62
7
  6
CONTINUOUS
 10
110.7037495306
 20
206.0881390409
  0
VERTEX
  8
0
 62
7
  6
CONTINUOUS
 10
110.8021270861
 20
206.0551082313
  0
SEQEND
  0
POLYLINE
  8
0
 62
7
  6
CONTINUOUS
 66
1
 70
0
  0
VERTEX
  8
0
 62
7
  6
CONTINUOUS
 10
108.5555998648
 20
205.3594175259
  0
VERTEX
  8
0
 62
7
  6
CONTINUOUS
 10
108.4198749991
 20
205.4604114541
  0
VERTEX
  8
0
 62
7
  6
CONTINUOUS
 10
108.2703249312
 20
205.5521990874
  0
VERTEX
  8
0
 62
7
  6
CONTINUOUS
 10
108.1134844478
 20
205.6312113404
  0
VERTEX
  8
0
 62
7
  6
CONTINUOUS
 10
107.9536935875
 20
205.6955025511
  0
VERTEX
  8
0
 62
7
  6
CONTINUOUS
 10
107.7968485585
 20
205.7428423471
  0
VERTEX
  8
0
 62
7
  6
CONTINUOUS
 10
107.6493420783
 20
205.7720394404
  0
SEQEND
  0
POLYLINE
  8
0
 62
7
  6
CONTINUOUS
 66
1
 70
0
  0
VERTEX
  8
0
 62
7
  6
CONTINUOUS
 10
109.1644969282
 20
204.7843510998
  0
VERTEX
  8
0
 62
7
  6
CONTINUOUS
 10
109.0138431339
 20
204.9411880325
  0
VERTEX
  8
0
 62
7
  6
CONTINUOUS
 10
108.8581525907
 20
205.0926304939
  0
VERTEX
  8
0
 62
7
  6
CONTINUOUS
 10
108.7032376797
 20
205.2336824515
  0
VERTEX
  8
0
 62
7
  6
CONTINUOUS
 10
108.5555998648
 20
205.3594175259
  0
SEQEND
  0
POLYLINE
  8
0
 62
7
  6
CONTINUOUS
 66
1
 70
0
  0
VERTEX
  8
0
 62
7
  6
CONTINUOUS
 10
110.8304348198
 20
199.8744993231
  0
VERTEX
  8
0
 62
7
  6
CONTINUOUS
 10
110.891309631
 20
199.7733873825
  0
VERTEX
  8
0
 62
7
  6
CONTINUOUS
 10
110.9521934556
 20
199.6816283492
  0
VERTEX
  8
0
 62
7
  6
CONTINUOUS
 10
111.0088740814
 20
199.6026469347
  0
VERTEX
  8
0
 62
7
  6
CONTINUOUS
 10
111.0586708847
 20
199.5383526361
  0
VERTEX
  8
0
 62
7
  6
CONTINUOUS
 10
111.0991407236
 20
199.4910454214
  0
VERTEX
  8
0
 62
7
  6
CONTINUOUS
 10
111.1289913031
 20
199.4618774086
  0
SEQEND
  0
LINE
  8
DEFAULT_2
 62
8
  6
HIDDEN
 10
114.0897880596
 20
181.2669584245
 11
114.0897880596
 21
211.2669584245
  0
LINE
  8
DEFAULT_2
 62
8
  6
HIDDEN
 10
114.2484804428
 20
181.2669584245
 11
114.2484804428
 21
211.2669584245
  0
POLYLINE
  8
0
 62
7
  6
CONTINUOUS
 66
1
 70
0
  0
VERTEX
  8
0
 62
7
  6
CONTINUOUS
 10
111.1632985105
 20
186.7024824536
  0
VERTEX
  8
0
 62
7
  6
CONTINUOUS
 10
111.1571734532
 20
186.6757751446
  0
VERTEX
  8
0
 62
7
  6
CONTINUOUS
 10
111.119177376
 20
186.6289102047
  0
VERTEX
  8
0
 62
7
  6
CONTINUOUS
 10
111.0467575076
 20
186.5801063661
  0
VERTEX
  8
0
 62
7
  6
CONTINUOUS
 10
110.9406764118
 20
186.5298867557
  0
VERTEX
  8
0
 62
7
  6
CONTINUOUS
 10
110.8021270861
 20
186.4788086177
  0
SEQEND
  0
POLYLINE
  8
DEFAULT_2
 62
8
  6
HIDDEN
 66
1
 70
0
  0
VERTEX
  8
DEFAULT_2
 62
8
  6
HIDDEN
 10
120.2943738039
 20
204.7843510998
  0
VERTEX
  8
DEFAULT_2
 62
8
  6
HIDDEN
 10
120.380695909
 20
204.9411880325
  0
VERTEX
  8
DEFAULT_2
 62
8
  6
HIDDEN
 10
120.4438509035
 20
205.0926304939
  0
VERTEX
  8
DEFAULT_2
 62
8
  6
HIDDEN
 10
120.4826754809
 20
205.2336824515
  0
VERTEX
  8
DEFAULT_2
 62
8
  6
HIDDEN
 10
120.4977038275
 20
205.3594175259
  0
SEQEND
  0
POLYLINE
  8
DEFAULT_2
 62
8
  6
HIDDEN
 66
1
 70
0
  0
VERTEX
  8
DEFAULT_2
 62
8
  6
HIDDEN
 10
119.4418758841
 20
200.4495657492
  0
VERTEX
  8
DEFAULT_2
 62
8
  6
HIDDEN
 10
119.3297040034
 20
200.292812238
  0
VERTEX
  8
DEFAULT_2
 62
8
  6
HIDDEN
 10
119.2020412936
 20
200.1412711406
  0
VERTEX
  8
DEFAULT_2
 62
8
  6
HIDDEN
 10
119.0643136642
 20
200.0001340512
  0
VERTEX
  8
DEFAULT_2
 62
8
  6
HIDDEN
 10
118.9234691942
 20
199.8744993231
  0
SEQEND
  0
POLYLINE
  8
DEFAULT_2
 62
8
  6
HIDDEN
 66
1
 70
0
  0
VERTEX
  8
DEFAULT_2
 62
8
  6
HIDDEN
 10
79.8443530607
 20
211.2669584245
  0
VERTEX
  8
DEFAULT_2
 62
8
  6
HIDDEN
 10
79.7967281287
 20
211.2611258337
  0
VERTEX
  8
DEFAULT_2
 62
8
  6
HIDDEN
 10
79.7465220669
 20
211.2427532163
  0
VERTEX
  8
DEFAULT_2
 62
8
  6
HIDDEN
 10
79.6954056376
 20
211.21133321
  0
VERTEX
  8
DEFAULT_2
 62
8
  6
HIDDEN
 10
79.6449951232
 20
211.1673047807
  0
VERTEX
  8
DEFAULT_2
 62
8
  6
HIDDEN
 10
79.5956531186
 20
211.1104305911
  0
VERTEX
  8
DEFAULT_2
 62
8
  6
HIDDEN
 10
79.5470606487
 20
211.0388023381
  0
VERTEX
  8
DEFAULT_2
 62
8
  6
HIDDEN
 10
79.5011934746
 20
210.9531717368
  0
VERTEX
  8
DEFAULT_2
 62
8
  6
HIDDEN
 10
79.4601291517
 20
210.8558201206
  0
VERTEX
  8
DEFAULT_2
 62
8
  6
HIDDEN
 10
79.4254818609
 20
210.7499401723
  0
VERTEX
  8
DEFAULT_2
 62
8
  6
HIDDEN
 10
79.3978163761
 20
210.637183397
  0
VERTEX
  8
DEFAULT_2
 62
8
  6
HIDDEN
 10
79.3775291073
 20
210.5188241726
  0
VERTEX
  8
DEFAULT_2
 62
8
  6
HIDDEN
 10
79.3649298069
 20
210.3950861393
  0
VERTEX
  8
DEFAULT_2
 62
8
  6
HIDDEN
 10
79.3605916159
 20
210.2669584245
  0
SEQEND
  0
POLYLINE
  8
0
 62
7
  6
CONTINUOUS
 66
1
 70
0
  0
VERTEX
  8
0
 62
7
  6
CONTINUOUS
 10
79.6042367267
 20
211.2669584245
  0
VERTEX
  8
0
 62
7
  6
CONTINUOUS
 10
79.4608887781
 20
211.2611258337
  0
VERTEX
  8
0
 62
7
  6
CONTINUOUS
 10
79.3157670132
 20
211.2427532163
  0
VERTEX
  8
0
 62
7
  6
CONTINUOUS
 10
79.1735428525
 20
211.21133321
  0
VERTEX
  8
0
 62
7
  6
CONTINUOUS
 10
79.0381060346
 20
211.1673047807
  0
VERTEX
  8
0
 62
7
  6
CONTINUOUS
 10
78.9096790138
 20
211.1104305911
  0
VERTEX
  8
0
 62
7
  6
CONTINUOUS
 10
78.7868109312
 20
211.0388023381
  0
VERTEX
  8
0
 62
7
  6
CONTINUOUS
 10
78.6738253266
 20
210.9531717368
  0
VERTEX
  8
0
 62
7
  6
CONTINUOUS
 10
78.5749396125
 20
210.8558201206
  0
VERTEX
  8
0
 62
7
  6
CONTINUOUS
 10
78.4930606658
 20
210.7499401723
  0
VERTEX
  8
0
 62
7
  6
CONTINUOUS
 10
78.4286459003
 20
210.637183397
  0
VERTEX
  8
0
 62
7
  6
CONTINUOUS
 10
78.3819311467
 20
210.5188241726
  0
VERTEX
  8
0
 62
7
  6
CONTINUOUS
 10
78.3531342532
 20
210.3950861393
  0
VERTEX
  8
0
 62
7
  6
CONTINUOUS
 10
78.3432563297
 20
210.2669584245
  0
SEQEND
  0
POLYLINE
  8
0
 62
7
  6
CONTINUOUS
 66
1
 70
0
  0
VERTEX
  8
0
 62
7
  6
CONTINUOUS
 10
116.5993394562
 20
211.2669584245
  0
VERTEX
  8
0
 62
7
  6
CONTINUOUS
 10
116.7053214093
 20
211.2611258337
  0
VERTEX
  8
0
 62
7
  6
CONTINUOUS
 10
116.8137201751
 20
211.2427532163
  0
VERTEX
  8
0
 62
7
  6
CONTINUOUS
 10
116.9210161078
 20
211.21133321
  0
VERTEX
  8
0
 62
7
  6
CONTINUOUS
 10
117.0241535961
 20
211.1673047807
  0
VERTEX
  8
0
 62
7
  6
CONTINUOUS
 10
117.1228079624
 20
211.1104305911
  0
VERTEX
  8
0
 62
7
  6
CONTINUOUS
 10
117.2179613904
 20
211.0388023381
  0
VERTEX
  8
0
 62
7
  6
CONTINUOUS
 10
117.3061180317
 20
210.9531717368
  0
VERTEX
  8
0
 62
7
  6
CONTINUOUS
 10
117.3837844429
 20
210.8558201206
  0
VERTEX
  8
0
 62
7
  6
CONTINUOUS
 10
117.4484516259
 20
210.7499401723
  0
VERTEX
  8
0
 62
7
  6
CONTINUOUS
 10
117.4995523097
 20
210.637183397
  0
VERTEX
  8
0
 62
7
  6
CONTINUOUS
 10
117.5367356269
 20
210.5188241726
  0
VERTEX
  8
0
 62
7
  6
CONTINUOUS
 10
117.5597087813
 20
210.3950861393
  0
VERTEX
  8
0
 62
7
  6
CONTINUOUS
 10
117.5675981297
 20
210.2669584245
  0
SEQEND
  0
POLYLINE
  8
0
 62
7
  6
CONTINUOUS
 66
1
 70
0
  0
VERTEX
  8
0
 62
7
  6
CONTINUOUS
 10
125.0168729613
 20
205.7720394404
  0
VERTEX
  8
0
 62
7
  6
CONTINUOUS
 10
125.1271671598
 20
205.7428268452
  0
VERTEX
  8
0
 62
7
  6
CONTINUOUS
 10
125.2335812235
 20
205.6954439479
  0
VERTEX
  8
0
 62
7
  6
CONTINUOUS
 10
125.3313280307
 20
205.6310934665
  0
VERTEX
  8
0
 62
7
  6
CONTINUOUS
 10
125.4174715854
 20
205.5520315961
  0
VERTEX
  8
0
 62
7
  6
CONTINUOUS
 10
125.4910345483
 20
205.4602571077
  0
VERTEX
  8
0
 62
7
  6
CONTINUOUS
 10
125.5508369025
 20
205.3594175259
  0
SEQEND
  0
POLYLINE
  8
0
 62
7
  6
CONTINUOUS
 66
1
 70
0
  0
VERTEX
  8
0
 62
7
  6
CONTINUOUS
 10
124.9889990668
 20
192.6594175259
  0
VERTEX
  8
0
 62
7
  6
CONTINUOUS
 10
124.8805527998
 20
192.7604114541
  0
VERTEX
  8
0
 62
7
  6
CONTINUOUS
 10
124.7549638209
 20
192.8521990874
  0
VERTEX
  8
0
 62
7
  6
CONTINUOUS
 10
124.6160857651
 20
192.9312113404
  0
VERTEX
  8
0
 62
7
  6
CONTINUOUS
 10
124.4666203326
 20
192.9955025511
  0
VERTEX
  8
0
 62
7
  6
CONTINUOUS
 10
124.3115307915
 20
193.0428423471
  0
VERTEX
  8
0
 62
7
  6
CONTINUOUS
 10
124.1574705747
 20
193.0720394404
  0
SEQEND
  0
POLYLINE
  8
0
 62
7
  6
CONTINUOUS
 66
1
 70
0
  0
VERTEX
  8
0
 62
7
  6
CONTINUOUS
 10
111.1632985105
 20
205.8314343954
  0
VERTEX
  8
0
 62
7
  6
CONTINUOUS
 10
111.1571734532
 20
205.8581417044
  0
VERTEX
  8
0
 62
7
  6
CONTINUOUS
 10
111.119177376
 20
205.9050066444
  0
VERTEX
  8
0
 62
7
  6
CONTINUOUS
 10
111.0467575076
 20
205.953810483
  0
VERTEX
  8
0
 62
7
  6
CONTINUOUS
 10
110.9406764118
 20
206.0040300933
  0
VERTEX
  8
0
 62
7
  6
CONTINUOUS
 10
110.8021270861
 20
206.0551082313
  0
SEQEND
  0
POLYLINE
  8
0
 62
7
  6
CONTINUOUS
 66
1
 70
0
  0
VERTEX
  8
0
 62
7
  6
CONTINUOUS
 10
116.0593694909
 20
210.2669584245
  0
VERTEX
  8
0
 62
7
  6
CONTINUOUS
 10
116.0495292132
 20
210.394842846
  0
VERTEX
  8
0
 62
7
  6
CONTINUOUS
 10
116.0208400329
 20
210.5183587925
  0
VERTEX
  8
0
 62
7
  6
CONTINUOUS
 10
115.9743014631
 20
210.6365133778
  0
VERTEX
  8
0
 62
7
  6
CONTINUOUS
 10
115.9101275412
 20
210.749097362
  0
VERTEX
  8
0
 62
7
  6
CONTINUOUS
 10
115.8285587937
 20
210.8548360677
  0
VERTEX
  8
0
 62
7
  6
CONTINUOUS
 10
115.7300006903
 20
210.9521342429
  0
VERTEX
  8
0
 62
7
  6
CONTINUOUS
 10
115.6172817811
 20
211.0378257077
  0
VERTEX
  8
0
 62
7
  6
CONTINUOUS
 10
115.4945339511
 20
211.1096219283
  0
VERTEX
  8
0
 62
7
  6
CONTINUOUS
 10
115.3660489925
 20
211.1667200292
  0
VERTEX
  8
0
 62
7
  6
CONTINUOUS
 10
115.2303529379
 20
211.2109876511
  0
VERTEX
  8
0
 62
7
  6
CONTINUOUS
 10
115.0877161106
 20
211.2426051546
  0
VERTEX
  8
0
 62
7
  6
CONTINUOUS
 10
114.9421321003
 20
211.261093298
  0
VERTEX
  8
0
 62
7
  6
CONTINUOUS
 10
114.7983890938
 20
211.2669584245
  0
SEQEND
  0
POLYLINE
  8
DEFAULT_2
 62
8
  6
HIDDEN
 66
1
 70
0
  0
VERTEX
  8
DEFAULT_2
 62
8
  6
HIDDEN
 10
115.0420342047
 20
210.2669584245
  0
VERTEX
  8
DEFAULT_2
 62
8
  6
HIDDEN
 10
115.0377125311
 20
210.394842846
  0
VERTEX
  8
DEFAULT_2
 62
8
  6
HIDDEN
 10
115.0251601325
 20
210.5183587925
  0
VERTEX
  8
DEFAULT_2
 62
8
  6
HIDDEN
 10
115.0049484421
 20
210.6365133778
  0
VERTEX
  8
DEFAULT_2
 62
8
  6
HIDDEN
 10
114.9773839467
 20
210.749097362
  0
VERTEX
  8
DEFAULT_2
 62
8
  6
HIDDEN
 10
114.942862832
 20
210.8548360677
  0
VERTEX
  8
DEFAULT_2
 62
8
  6
HIDDEN
 10
114.9019256145
 20
210.9521342429
  0
VERTEX
  8
DEFAULT_2
 62
8
  6
HIDDEN
 10
114.8561534297
 20
211.0378257077
  0
VERTEX
  8
DEFAULT_2
 62
8
  6
HIDDEN
 10
114.8075917868
 20
211.1096219283
  0
VERTEX
  8
DEFAULT_2
 62
8
  6
HIDDEN
 10
114.7582094406
 20
211.1667200292
  0
VERTEX
  8
DEFAULT_2
 62
8
  6
HIDDEN
 10
114.7076850596
 20
211.2109876511
  0
VERTEX
  8
DEFAULT_2
 62
8
  6
HIDDEN
 10
114.6564062331
 20
211.2426051546
  0
VERTEX
  8
DEFAULT_2
 62
8
  6
HIDDEN
 10
114.6060316603
 20
211.261093298
  0
VERTEX
  8
DEFAULT_2
 62
8
  6
HIDDEN
 10
114.5582727599
 20
211.2669584245
  0
SEQEND
  0
LINE
  8
DEFAULT_2
 62
8
  6
HIDDEN
 10
115.0420342047
 20
182.2669584245
 11
115.0420342047
 21
186.4169584245
  0
LINE
  8
DEFAULT_2
 62
8
  6
HIDDEN
 10
115.0420342047
 20
193.4169584245
 11
115.0420342047
 21
199.1169584245
  0
LINE
  8
DEFAULT_2
 62
8
  6
HIDDEN
 10
115.0420342047
 20
206.1169584245
 11
115.0420342047
 21
210.2669584245
  0
LINE
  8
DEFAULT_2
 62
8
  6
HIDDEN
 10
115.9918252425
 20
186.4169584245
 11
115.9918252425
 21
193.4169584245
  0
LINE
  8
DEFAULT_2
 62
8
  6
HIDDEN
 10
115.9918252425
 20
199.1169584245
 11
115.9918252425
 21
206.1169584245
  0
LINE
  8
0
 62
7
  6
CONTINUOUS
 10
116.0593694909
 20
182.2669584245
 11
116.0593694909
 21
186.4169584245
  0
LINE
  8
0
 62
7
  6
CONTINUOUS
 10
116.0593694909
 20
193.4169584245
 11
116.0593694909
 21
199.1169584245
  0
LINE
  8
0
 62
7
  6
CONTINUOUS
 10
116.0593694909
 20
206.1169584245
 11
116.0593694909
 21
210.2669584245
  0
LINE
  8
DEFAULT_2
 62
8
  6
HIDDEN
 10
116.1994376205
 20
186.4788086177
 11
116.1994376205
 21
193.3551082313
  0
LINE
  8
DEFAULT_2
 62
8
  6
HIDDEN
 10
116.1994376205
 20
199.1788086177
 11
116.1994376205
 21
206.0551082313
  0
POLYLINE
  8
0
 62
7
  6
CONTINUOUS
 66
1
 70
0
  0
VERTEX
  8
0
 62
7
  6
CONTINUOUS
 10
124.9889990668
 20
199.8744993231
  0
VERTEX
  8
0
 62
7
  6
CONTINUOUS
 10
125.0952723817
 20
200.0001396285
  0
VERTEX
  8
0
 62
7
  6
CONTINUOUS
 10
125.188449394
 20
200.1413012889
  0
VERTEX
  8
0
 62
7
  6
CONTINUOUS
 10
125.2626972243
 20
200.2928477911
  0
VERTEX
  8
0
 62
7
  6
CONTINUOUS
 10
125.3142385804
 20
200.4495657492
  0
SEQEND
  0
LINE
  8
0
 62
7
  6
CONTINUOUS
 10
117.5675981297
 20
182.2669584245
 11
117.5675981297
 21
186.4169584245
  0
LINE
  8
0
 62
7
  6
CONTINUOUS
 10
117.5675981297
 20
193.4169584245
 11
117.5675981297
 21
199.1169584245
  0
LINE
  8
0
 62
7
  6
CONTINUOUS
 10
117.5675981297
 20
206.1169584245
 11
117.5675981297
 21
210.2669584245
  0
LINE
  8
0
 62
7
  6
CONTINUOUS
 10
117.9010230039
 20
186.4169584245
 11
117.9010230039
 21
193.4169584245
  0
LINE
  8
0
 62
7
  6
CONTINUOUS
 10
117.9010230039
 20
199.1169584245
 11
117.9010230039
 21
206.1169584245
  0
LINE
  8
DEFAULT_2
 62
8
  6
HIDDEN
 10
118.9234691942
 20
187.1744993231
 11
118.9234691942
 21
192.6594175259
  0
LINE
  8
DEFAULT_2
 62
8
  6
HIDDEN
 10
118.9234691942
 20
199.8744993231
 11
118.9234691942
 21
205.3594175259
  0
LINE
  8
DEFAULT_2
 62
8
  6
HIDDEN
 10
119.1167329834
 20
186.4169584245
 11
119.1167329834
 21
193.4169584245
  0
LINE
  8
DEFAULT_2
 62
8
  6
HIDDEN
 10
119.1167329834
 20
199.1169584245
 11
119.1167329834
 21
206.1169584245
  0
LINE
  8
DEFAULT_2
 62
8
  6
HIDDEN
 10
119.257087994
 20
186.4788086177
 11
119.257087994
 21
193.3551082313
  0
LINE
  8
DEFAULT_2
 62
8
  6
HIDDEN
 10
119.257087994
 20
199.1788086177
 11
119.257087994
 21
206.0551082313
  0
POLYLINE
  8
0
 62
7
  6
CONTINUOUS
 66
1
 70
0
  0
VERTEX
  8
0
 62
7
  6
CONTINUOUS
 10
117.5675981297
 20
182.2669584245
  0
VERTEX
  8
0
 62
7
  6
CONTINUOUS
 10
117.5596071367
 20
182.1380114521
  0
VERTEX
  8
0
 62
7
  6
CONTINUOUS
 10
117.5366036346
 20
182.014563629
  0
VERTEX
  8
0
 62
7
  6
CONTINUOUS
 10
117.499239231
 20
181.8959146124
  0
VERTEX
  8
0
 62
7
  6
CONTINUOUS
 10
117.4470435153
 20
181.7813240674
  0
VERTEX
  8
0
 62
7
  6
CONTINUOUS
 10
117.3795190196
 20
181.6720469325
  0
VERTEX
  8
0
 62
7
  6
CONTINUOUS
 10
117.2974990383
 20
181.5713673351
  0
VERTEX
  8
0
 62
7
  6
CONTINUOUS
 10
117.2039564304
 20
181.4833691527
  0
VERTEX
  8
0
 62
7
  6
CONTINUOUS
 10
117.1023595305
 20
181.4103744204
  0
VERTEX
  8
0
 62
7
  6
CONTINUOUS
 10
116.9966270295
 20
181.3534268677
  0
VERTEX
  8
0
 62
7
  6
CONTINUOUS
 10
116.882421992
 20
181.3096861884
  0
VERTEX
  8
0
 62
7
  6
CONTINUOUS
 10
116.7521394029
 20
181.2791474121
  0
VERTEX
  8
0
 62
7
  6
CONTINUOUS
 10
116.5993394562
 20
181.2669584245
  0
SEQEND
  0
POLYLINE
  8
DEFAULT_2
 62
8
  6
HIDDEN
 66
1
 70
0
  0
VERTEX
  8
DEFAULT_2
 62
8
  6
HIDDEN
 10
118.9234691942
 20
187.1744993231
  0
VERTEX
  8
DEFAULT_2
 62
8
  6
HIDDEN
 10
118.7877880961
 20
187.0733873825
  0
VERTEX
  8
DEFAULT_2
 62
8
  6
HIDDEN
 10
118.6351078909
 20
186.9816283492
  0
VERTEX
  8
DEFAULT_2
 62
8
  6
HIDDEN
 10
118.4710252027
 20
186.9026469347
  0
VERTEX
  8
DEFAULT_2
 62
8
  6
HIDDEN
 10
118.299347471
 20
186.8383526361
  0
VERTEX
  8
DEFAULT_2
 62
8
  6
HIDDEN
 10
118.1262973235
 20
186.7910454214
  0
VERTEX
  8
DEFAULT_2
 62
8
  6
HIDDEN
 10
117.959070567
 20
186.7618774086
  0
SEQEND
  0
POLYLINE
  8
DEFAULT_2
 62
8
  6
HIDDEN
 66
1
 70
0
  0
VERTEX
  8
DEFAULT_2
 62
8
  6
HIDDEN
 10
120.3670625444
 20
186.7618774086
  0
VERTEX
  8
DEFAULT_2
 62
8
  6
HIDDEN
 10
120.4116188585
 20
186.7910304715
  0
VERTEX
  8
DEFAULT_2
 62
8
  6
HIDDEN
 10
120.4481468938
 20
186.8382948692
  0
VERTEX
  8
DEFAULT_2
 62
8
  6
HIDDEN
 10
120.4747521463
 20
186.9025311057
  0
VERTEX
  8
DEFAULT_2
 62
8
  6
HIDDEN
 10
120.4911078411
 20
186.981466005
  0
VERTEX
  8
DEFAULT_2
 62
8
  6
HIDDEN
 10
120.498190341
 20
187.0732370184
  0
VERTEX
  8
DEFAULT_2
 62
8
  6
HIDDEN
 10
120.4987758078
 20
187.1151157165
  0
SEQEND
  0
POLYLINE
  8
DEFAULT_2
 62
8
  6
HIDDEN
 66
1
 70
0
  0
VERTEX
  8
DEFAULT_2
 62
8
  6
HIDDEN
 10
118.9234691942
 20
205.3594175259
  0
VERTEX
  8
DEFAULT_2
 62
8
  6
HIDDEN
 10
119.0644129097
 20
205.2336880428
  0
VERTEX
  8
DEFAULT_2
 62
8
  6
HIDDEN
 10
119.2020292581
 20
205.0926589576
  0
VERTEX
  8
DEFAULT_2
 62
8
  6
HIDDEN
 10
119.3296117546
 20
204.9412230696
  0
VERTEX
  8
DEFAULT_2
 62
8
  6
HIDDEN
 10
119.4418758841
 20
204.7843510998
  0
SEQEND
  0
POLYLINE
  8
DEFAULT_2
 62
8
  6
HIDDEN
 66
1
 70
0
  0
VERTEX
  8
DEFAULT_2
 62
8
  6
HIDDEN
 10
120.4977038275
 20
187.1744993231
  0
VERTEX
  8
DEFAULT_2
 62
8
  6
HIDDEN
 10
120.4826943065
 20
187.3001396285
  0
VERTEX
  8
DEFAULT_2
 62
8
  6
HIDDEN
 10
120.4438457189
 20
187.4413012889
  0
VERTEX
  8
DEFAULT_2
 62
8
  6
HIDDEN
 10
120.3806382867
 20
187.5928477911
  0
VERTEX
  8
DEFAULT_2
 62
8
  6
HIDDEN
 10
120.2943738039
 20
187.7495657492
  0
SEQEND
  0
LINE
  8
DEFAULT_2
 62
8
  6
HIDDEN
 10
120.4987758078
 20
187.1151157165
 11
120.4977038275
 21
187.1744993231
  0
LINE
  8
DEFAULT_2
 62
8
  6
HIDDEN
 10
120.4987758078
 20
199.8151157165
 11
120.4977038275
 21
199.8744993231
  0
POLYLINE
  8
DEFAULT_2
 62
8
  6
HIDDEN
 66
1
 70
0
  0
VERTEX
  8
DEFAULT_2
 62
8
  6
HIDDEN
 10
120.4987757818
 20
192.7187818101
  0
VERTEX
  8
DEFAULT_2
 62
8
  6
HIDDEN
 10
120.49819841
 20
192.7604114541
  0
VERTEX
  8
DEFAULT_2
 62
8
  6
HIDDEN
 10
120.4911415829
 20
192.8521990874
  0
VERTEX
  8
DEFAULT_2
 62
8
  6
HIDDEN
 10
120.4748039632
 20
192.9312113404
  0
VERTEX
  8
DEFAULT_2
 62
8
  6
HIDDEN
 10
120.4482144778
 20
192.9955025511
  0
VERTEX
  8
DEFAULT_2
 62
8
  6
HIDDEN
 10
120.4116660122
 20
193.0428423471
  0
VERTEX
  8
DEFAULT_2
 62
8
  6
HIDDEN
 10
120.3670625444
 20
193.0720394404
  0
SEQEND
  0
POLYLINE
  8
DEFAULT_2
 62
8
  6
HIDDEN
 66
1
 70
0
  0
VERTEX
  8
DEFAULT_2
 62
8
  6
HIDDEN
 10
120.4987757818
 20
205.4187818101
  0
VERTEX
  8
DEFAULT_2
 62
8
  6
HIDDEN
 10
120.49819841
 20
205.4604114541
  0
VERTEX
  8
DEFAULT_2
 62
8
  6
HIDDEN
 10
120.4911415829
 20
205.5521990874
  0
VERTEX
  8
DEFAULT_2
 62
8
  6
HIDDEN
 10
120.4748039632
 20
205.6312113404
  0
VERTEX
  8
DEFAULT_2
 62
8
  6
HIDDEN
 10
120.4482144778
 20
205.6955025511
  0
VERTEX
  8
DEFAULT_2
 62
8
  6
HIDDEN
 10
120.4116660122
 20
205.7428423471
  0
VERTEX
  8
DEFAULT_2
 62
8
  6
HIDDEN
 10
120.3670625444
 20
205.7720394404
  0
SEQEND
  0
LINE
  8
DEFAULT_2
 62
8
  6
HIDDEN
 10
119.4418758841
 20
187.7495657492
 11
119.4418758841
 21
192.0843510998
  0
LINE
  8
DEFAULT_2
 62
8
  6
HIDDEN
 10
119.4418758841
 20
200.4495657492
 11
119.4418758841
 21
204.7843510998
  0
LINE
  8
DEFAULT_2
 62
8
  6
HIDDEN
 10
120.2943738039
 20
187.7495657492
 11
120.2943738039
 21
192.0843510998
  0
LINE
  8
DEFAULT_2
 62
8
  6
HIDDEN
 10
120.2943738039
 20
200.4495657492
 11
120.2943738039
 21
204.7843510998
  0
LINE
  8
DEFAULT_2
 62
8
  6
HIDDEN
 10
120.4977038275
 20
187.1744993231
 11
120.4977038275
 21
192.6594175259
  0
LINE
  8
DEFAULT_2
 62
8
  6
HIDDEN
 10
120.4977038275
 20
199.8744993231
 11
120.4977038275
 21
205.3594175259
  0
LINE
  8
DEFAULT_2
 62
8
  6
HIDDEN
 10
120.4987764229
 20
187.1162754474
 11
120.4987764229
 21
192.7176580846
  0
LINE
  8
DEFAULT_2
 62
8
  6
HIDDEN
 10
120.4987764229
 20
199.8162754474
 11
120.4987764229
 21
205.4176580846
  0
LINE
  8
DEFAULT_2
 62
8
  6
HIDDEN
 10
120.4977038275
 20
205.3594175259
 11
120.4987757818
 21
205.4187818101
  0
LINE
  8
DEFAULT_2
 62
8
  6
HIDDEN
 10
120.4977038275
 20
192.6594175259
 11
120.4987757818
 21
192.7187818101
  0
POLYLINE
  8
DEFAULT_2
 62
8
  6
HIDDEN
 66
1
 70
0
  0
VERTEX
  8
DEFAULT_2
 62
8
  6
HIDDEN
 10
120.2943738039
 20
192.0843510998
  0
VERTEX
  8
DEFAULT_2
 62
8
  6
HIDDEN
 10
120.380695909
 20
192.2411880325
  0
VERTEX
  8
DEFAULT_2
 62
8
  6
HIDDEN
 10
120.4438509035
 20
192.3926304939
  0
VERTEX
  8
DEFAULT_2
 62
8
  6
HIDDEN
 10
120.4826754809
 20
192.5336824515
  0
VERTEX
  8
DEFAULT_2
 62
8
  6
HIDDEN
 10
120.4977038275
 20
192.6594175259
  0
SEQEND
  0
POLYLINE
  8
0
 62
7
  6
CONTINUOUS
 66
1
 70
0
  0
VERTEX
  8
0
 62
7
  6
CONTINUOUS
 10
125.5508369025
 20
199.8744993231
  0
VERTEX
  8
0
 62
7
  6
CONTINUOUS
 10
125.4908469182
 20
199.7733873825
  0
VERTEX
  8
0
 62
7
  6
CONTINUOUS
 10
125.4172319366
 20
199.6816283492
  0
VERTEX
  8
0
 62
7
  6
CONTINUOUS
 10
125.3311021698
 20
199.6026469347
  0
VERTEX
  8
0
 62
7
  6
CONTINUOUS
 10
125.2333612541
 20
199.5383526361
  0
VERTEX
  8
0
 62
7
  6
CONTINUOUS
 10
125.1270401016
 20
199.4910454214
  0
VERTEX
  8
0
 62
7
  6
CONTINUOUS
 10
125.0168729613
 20
199.4618774086
  0
SEQEND
  0
POLYLINE
  8
DEFAULT_2
 62
8
  6
HIDDEN
 66
1
 70
0
  0
VERTEX
  8
DEFAULT_2
 62
8
  6
HIDDEN
 10
119.4418758841
 20
187.7495657492
  0
VERTEX
  8
DEFAULT_2
 62
8
  6
HIDDEN
 10
119.3297040034
 20
187.592812238
  0
VERTEX
  8
DEFAULT_2
 62
8
  6
HIDDEN
 10
119.2020412936
 20
187.4412711406
  0
VERTEX
  8
DEFAULT_2
 62
8
  6
HIDDEN
 10
119.0643136642
 20
187.3001340512
  0
VERTEX
  8
DEFAULT_2
 62
8
  6
HIDDEN
 10
118.9234691942
 20
187.1744993231
  0
SEQEND
  0
POLYLINE
  8
DEFAULT_2
 62
8
  6
HIDDEN
 66
1
 70
0
  0
VERTEX
  8
DEFAULT_2
 62
8
  6
HIDDEN
 10
120.4977038275
 20
199.8744993231
  0
VERTEX
  8
DEFAULT_2
 62
8
  6
HIDDEN
 10
120.4826943065
 20
200.0001396285
  0
VERTEX
  8
DEFAULT_2
 62
8
  6
HIDDEN
 10
120.4438457189
 20
200.1413012889
  0
VERTEX
  8
DEFAULT_2
 62
8
  6
HIDDEN
 10
120.3806382867
 20
200.2928477911
  0
VERTEX
  8
DEFAULT_2
 62
8
  6
HIDDEN
 10
120.2943738039
 20
200.4495657492
  0
SEQEND
  0
LINE
  8
0
 62
9
  6
CONTINUOUS
 10
122.2523693665
 20
186.4788086177
 11
122.2523693665
 21
193.3551082313
  0
LINE
  8
0
 62
9
  6
CONTINUOUS
 10
122.2523693665
 20
199.1788086177
 11
122.2523693665
 21
206.0551082313
  0
LINE
  8
DEFAULT_2
 62
8
  6
HIDDEN
 10
123.3436321502
 20
186.4788086177
 11
123.3436321502
 21
193.3551082313
  0
LINE
  8
DEFAULT_2
 62
8
  6
HIDDEN
 10
123.3436321502
 20
199.1788086177
 11
123.3436321502
 21
206.0551082313
  0
POLYLINE
  8
0
 62
7
  6
CONTINUOUS
 66
1
 70
0
  0
VERTEX
  8
0
 62
7
  6
CONTINUOUS
 10
124.9889990668
 20
205.3594175259
  0
VERTEX
  8
0
 62
7
  6
CONTINUOUS
 10
124.8805527998
 20
205.4604114541
  0
VERTEX
  8
0
 62
7
  6
CONTINUOUS
 10
124.7549638209
 20
205.5521990874
  0
VERTEX
  8
0
 62
7
  6
CONTINUOUS
 10
124.6160857651
 20
205.6312113404
  0
VERTEX
  8
0
 62
7
  6
CONTINUOUS
 10
124.4666203326
 20
205.6955025511
  0
VERTEX
  8
0
 62
7
  6
CONTINUOUS
 10
124.3115307915
 20
205.7428423471
  0
VERTEX
  8
0
 62
7
  6
CONTINUOUS
 10
124.1574705747
 20
205.7720394404
  0
SEQEND
  0
POLYLINE
  8
0
 62
7
  6
CONTINUOUS
 66
1
 70
0
  0
VERTEX
  8
0
 62
7
  6
CONTINUOUS
 10
125.5508369025
 20
192.6594175259
  0
VERTEX
  8
0
 62
7
  6
CONTINUOUS
 10
125.6015118497
 20
192.5336880428
  0
VERTEX
  8
0
 62
7
  6
CONTINUOUS
 10
125.6316290258
 20
192.3926589576
  0
VERTEX
  8
0
 62
7
  6
CONTINUOUS
 10
125.6385888318
 20
192.2805604615
  0
SEQEND
  0
POLYLINE
  8
0
 62
7
  6
CONTINUOUS
 66
1
 70
0
  0
VERTEX
  8
0
 62
7
  6
CONTINUOUS
 10
125.3142385804
 20
192.0843510998
  0
VERTEX
  8
0
 62
7
  6
CONTINUOUS
 10
125.2626485713
 20
192.2411880325
  0
VERTEX
  8
0
 62
7
  6
CONTINUOUS
 10
125.1884408228
 20
192.3926304939
  0
VERTEX
  8
0
 62
7
  6
CONTINUOUS
 10
125.0953436036
 20
192.5336824515
  0
VERTEX
  8
0
 62
7
  6
CONTINUOUS
 10
124.9889990668
 20
192.6594175259
  0
SEQEND
  0
LINE
  8
0
 62
9
  6
CONTINUOUS
 10
124.9889990668
 20
187.1744993231
 11
124.9889990668
 21
192.6594175259
  0
LINE
  8
0
 62
9
  6
CONTINUOUS
 10
124.9889990668
 20
199.8744993231
 11
124.9889990668
 21
205.3594175259
  0
LINE
  8
0
 62
9
  6
CONTINUOUS
 10
125.3142385804
 20
187.7495657492
 11
125.3142385804
 21
192.0843510998
  0
LINE
  8
0
 62
9
  6
CONTINUOUS
 10
125.3142385804
 20
200.4495657492
 11
125.3142385804
 21
204.7843510998
  0
LINE
  8
DEFAULT_2
 62
8
  6
HIDDEN
 10
125.5508369025
 20
187.1744993231
 11
125.5508369025
 21
192.6594175259
  0
LINE
  8
DEFAULT_2
 62
8
  6
HIDDEN
 10
125.5508369025
 20
199.8744993231
 11
125.5508369025
 21
205.3594175259
  0
LINE
  8
0
 62
9
  6
CONTINUOUS
 10
125.6184915654
 20
187.7495657492
 11
125.6184915654
 21
192.0843510998
  0
LINE
  8
0
 62
9
  6
CONTINUOUS
 10
125.6184915654
 20
200.4495657492
 11
125.6184915654
 21
204.7843510998
  0
LINE
  8
0
 62
7
  6
CONTINUOUS
 10
125.6385888531
 20
187.5539956615
 11
125.6385888531
 21
192.2799225391
  0
LINE
  8
0
 62
7
  6
CONTINUOUS
 10
125.6385888531
 20
200.2539956615
 11
125.6385888531
 21
204.9799225391
  0
POLYLINE
  8
0
 62
7
  6
CONTINUOUS
 66
1
 70
0
  0
VERTEX
  8
0
 62
7
  6
CONTINUOUS
 10
125.6385888318
 20
204.9805604615
  0
VERTEX
  8
0
 62
7
  6
CONTINUOUS
 10
125.6377678875
 20
204.9412230696
  0
VERTEX
  8
0
 62
7
  6
CONTINUOUS
 10
125.6184915654
 20
204.7843510998
  0
SEQEND
  0
POLYLINE
  8
0
 62
7
  6
CONTINUOUS
 66
1
 70
0
  0
VERTEX
  8
0
 62
7
  6
CONTINUOUS
 10
125.6385888318
 20
192.2805604615
  0
VERTEX
  8
0
 62
7
  6
CONTINUOUS
 10
125.6377678875
 20
192.2412230696
  0
VERTEX
  8
0
 62
7
  6
CONTINUOUS
 10
125.6184915654
 20
192.0843510998
  0
SEQEND
  0
POLYLINE
  8
0
 62
7
  6
CONTINUOUS
 66
1
 70
0
  0
VERTEX
  8
0
 62
7
  6
CONTINUOUS
 10
125.6385888351
 20
200.2533724008
  0
VERTEX
  8
0
 62
7
  6
CONTINUOUS
 10
125.6316306937
 20
200.1412711406
  0
VERTEX
  8
0
 62
7
  6
CONTINUOUS
 10
125.6014827755
 20
200.0001340512
  0
VERTEX
  8
0
 62
7
  6
CONTINUOUS
 10
125.5508369025
 20
199.8744993231
  0
SEQEND
  0
POLYLINE
  8
0
 62
7
  6
CONTINUOUS
 66
1
 70
0
  0
VERTEX
  8
0
 62
7
  6
CONTINUOUS
 10
124.9889990668
 20
187.1744993231
  0
VERTEX
  8
0
 62
7
  6
CONTINUOUS
 10
125.0952723817
 20
187.3001396285
  0
VERTEX
  8
0
 62
7
  6
CONTINUOUS
 10
125.188449394
 20
187.4413012889
  0
VERTEX
  8
0
 62
7
  6
CONTINUOUS
 10
125.2626972243
 20
187.5928477911
  0
VERTEX
  8
0
 62
7
  6
CONTINUOUS
 10
125.3142385804
 20
187.7495657492
  0
SEQEND
  0
POLYLINE
  8
0
 62
7
  6
CONTINUOUS
 66
1
 70
0
  0
VERTEX
  8
0
 62
7
  6
CONTINUOUS
 10
125.6184915654
 20
187.7495657492
  0
VERTEX
  8
0
 62
7
  6
CONTINUOUS
 10
125.6377629359
 20
187.592812238
  0
VERTEX
  8
0
 62
7
  6
CONTINUOUS
 10
125.6385888351
 20
187.5533724008
  0
SEQEND
  0
POLYLINE
  8
0
 62
7
  6
CONTINUOUS
 66
1
 70
0
  0
VERTEX
  8
0
 62
7
  6
CONTINUOUS
 10
125.6184915654
 20
200.4495657492
  0
VERTEX
  8
0
 62
7
  6
CONTINUOUS
 10
125.6377629359
 20
200.292812238
  0
VERTEX
  8
0
 62
7
  6
CONTINUOUS
 10
125.6385888351
 20
200.2533724008
  0
SEQEND
  0
POLYLINE
  8
0
 62
7
  6
CONTINUOUS
 66
1
 70
0
  0
VERTEX
  8
0
 62
7
  6
CONTINUOUS
 10
125.6385888351
 20
187.5533724008
  0
VERTEX
  8
0
 62
7
  6
CONTINUOUS
 10
125.6316306937
 20
187.4412711406
  0
VERTEX
  8
0
 62
7
  6
CONTINUOUS
 10
125.6014827755
 20
187.3001340512
  0
VERTEX
  8
0
 62
7
  6
CONTINUOUS
 10
125.5508369025
 20
187.1744993231
  0
SEQEND
  0
POLYLINE
  8
0
 62
7
  6
CONTINUOUS
 66
1
 70
0
  0
VERTEX
  8
0
 62
7
  6
CONTINUOUS
 10
125.5508369025
 20
187.1744993231
  0
VERTEX
  8
0
 62
7
  6
CONTINUOUS
 10
125.4908469182
 20
187.0733873825
  0
VERTEX
  8
0
 62
7
  6
CONTINUOUS
 10
125.4172319366
 20
186.9816283492
  0
VERTEX
  8
0
 62
7
  6
CONTINUOUS
 10
125.3311021698
 20
186.9026469347
  0
VERTEX
  8
0
 62
7
  6
CONTINUOUS
 10
125.2333612541
 20
186.8383526361
  0
VERTEX
  8
0
 62
7
  6
CONTINUOUS
 10
125.1270401016
 20
186.7910454214
  0
VERTEX
  8
0
 62
7
  6
CONTINUOUS
 10
125.0168729613
 20
186.7618774086
  0
SEQEND
  0
POLYLINE
  8
0
 62
7
  6
CONTINUOUS
 66
1
 70
0
  0
VERTEX
  8
0
 62
7
  6
CONTINUOUS
 10
125.5508369025
 20
205.3594175259
  0
VERTEX
  8
0
 62
7
  6
CONTINUOUS
 10
125.6015118497
 20
205.2336880428
  0
VERTEX
  8
0
 62
7
  6
CONTINUOUS
 10
125.6316290258
 20
205.0926589576
  0
VERTEX
  8
0
 62
7
  6
CONTINUOUS
 10
125.6385888318
 20
204.9805604615
  0
SEQEND
  0
POLYLINE
  8
0
 62
7
  6
CONTINUOUS
 66
1
 70
0
  0
VERTEX
  8
0
 62
7
  6
CONTINUOUS
 10
125.3142385804
 20
204.7843510998
  0
VERTEX
  8
0
 62
7
  6
CONTINUOUS
 10
125.2626485713
 20
204.9411880325
  0
VERTEX
  8
0
 62
7
  6
CONTINUOUS
 10
125.1884408228
 20
205.0926304939
  0
VERTEX
  8
0
 62
7
  6
CONTINUOUS
 10
125.0953436036
 20
205.2336824515
  0
VERTEX
  8
0
 62
7
  6
CONTINUOUS
 10
124.9889990668
 20
205.3594175259
  0
SEQEND
  0
LINE
  8
0
 62
7
  6
CONTINUOUS
 10
68.7841342552
 20
95.5981281693
 11
69.0883872401
 21
94.2651087445
  0
LINE
  8
CURVE
 62
2
  6
PHANTOM
 10
94.2013129103
 20
113.5175932658
 11
94.2013129103
 21
116.3175932658
  0
LINE
  8
DEFAULT_1
 62
2
  6
CENTER
 10
97.2013129103
 20
105.7829321663
 11
97.2013129103
 21
103.3830321663
  0
LINE
  8
0
 62
2
  6
CONTINUOUS
 10
97.2013129103
 20
102.2629321663
 11
97.2013129103
 21
100.5029321663
  0
LINE
  8
DEFAULT_1
 62
2
  6
CENTER
 10
97.2013129103
 20
96.9829321663
 11
97.2013129103
 21
99.3828321663
  0
LINE
  8
DEFAULT_1
 62
2
  6
CENTER
 10
101.6013129103
 20
101.3829321663
 11
99.2014129103
 21
101.3829321663
  0
LINE
  8
0
 62
2
  6
CONTINUOUS
 10
98.0813129103
 20
101.3829321663
 11
96.3213129103
 21
101.3829321663
  0
LINE
  8
DEFAULT_1
 62
2
  6
CENTER
 10
92.8013129103
 20
101.3829321663
 11
95.2012129103
 21
101.3829321663
  0
LINE
  8
CURVE
 62
2
  6
PHANTOM
 10
100.2013129103
 20
116.3175932658
 11
100.2013129103
 21
113.5175932658
  0
LINE
  8
CURVE
 62
2
  6
PHANTOM
 10
94.2013129103
 20
116.3175932658
 11
100.2013129103
 21
116.3175932658
  0
LINE
  8
0
 62
7
  6
CONTINUOUS
 10
125.3142385804
 20
94.2651087445
 11
125.6184915654
 21
95.5981281693
  0
LINE
  8
0
 62
7
  6
CONTINUOUS
 10
97.8849631619
 20
130.3748728108
 11
96.5176626587
 21
130.3748728108
  0
ARC
  8
0
 62
7
  6
CONTINUOUS
 10
77.5110201293
 20
73.881922087
 40
20.0
 50
92.8929967025
 51
105.5475606441
  0
ARC
  8
0
 62
7
  6
CONTINUOUS
 10
76.0766307844
 20
83.9655582415
 40
9.9
 50
41.1559823797
 51
87.5397385851
  0
ARC
  8
0
 62
7
  6
CONTINUOUS
 10
63.4234606861
 20
99.6308236362
 40
20.0
 50
41.4644252739
 51
54.1189892156
  0
ARC
  8
0
 62
7
  6
CONTINUOUS
 10
66.0083082313
 20
88.3058665827
 40
20.0
 50
331.5952964987
 51
344.2498604404
  0
ARC
  8
0
 62
7
  6
CONTINUOUS
 10
75.5199449179
 20
84.6636202386
 40
9.9
 50
349.6031185578
 51
35.9868747631
  0
ARC
  8
0
 62
7
  6
CONTINUOUS
 10
71.3461419028
 20
96.0403127428
 40
3.0
 50
229.8963980203
 51
285.5475606441
  0
ARC
  8
0
 62
7
  6
CONTINUOUS
 10
71.5885330661
 20
94.9783276677
 40
3.0
 50
100.1667250702
 51
155.817887694
  0
ARC
  8
0
 62
7
  6
CONTINUOUS
 10
69.7640369674
 20
95.7976041692
 40
1.0
 50
155.817887694
 51
191.5063186134
  0
ARC
  8
0
 62
7
  6
CONTINUOUS
 10
70.0577984701
 20
94.5105509314
 40
1.0
 50
194.2079671009
 51
229.8963980203
  0
ARC
  8
0
 62
7
  6
CONTINUOUS
 10
87.9768541752
 20
68.8418420459
 40
20.0
 50
23.0238679273
 51
35.678431869
  0
ARC
  8
0
 62
7
  6
CONTINUOUS
 10
96.754885507
 20
74.0074356059
 40
9.9
 50
41.0316899864
 51
87.4154461917
  0
ARC
  8
0
 62
7
  6
CONTINUOUS
 10
85.257905526
 20
77.8374767623
 40
3.0
 50
281.3249694489
 51
336.9761320727
  0
ARC
  8
0
 62
7
  6
CONTINUOUS
 10
86.2393273099
 20
77.3648489408
 40
3.0
 50
151.5952964987
 51
207.2464591225
  0
ARC
  8
0
 62
7
  6
CONTINUOUS
 10
85.6506524792
 20
75.8764184177
 40
1.0
 50
245.6365385295
 51
281.3249694489
  0
ARC
  8
0
 62
7
  6
CONTINUOUS
 10
84.4612364372
 20
76.4492109948
 40
1.0
 50
207.2464591225
 51
242.9348900419
  0
ARC
  8
0
 62
7
  6
CONTINUOUS
 10
67.528731032
 20
117.6171882275
 40
20.0
 50
280.1667250702
 51
292.8212890118
  0
ARC
  8
0
 62
7
  6
CONTINUOUS
 10
70.412837761
 20
107.0393186922
 40
9.9
 50
349.7274109512
 51
36.1111671565
  0
ARC
  8
0
 62
7
  6
CONTINUOUS
 10
70.6115166464
 20
107.9097877647
 40
9.9
 50
298.1745471292
 51
344.5583033345
  0
ARC
  8
0
 62
7
  6
CONTINUOUS
 10
76.9038493977
 20
118.2662501187
 40
3.0
 50
178.4678265917
 51
234.1189892156
  0
ARC
  8
0
 62
7
  6
CONTINUOUS
 10
76.2246844504
 20
117.4146042122
 40
3.0
 50
48.7381536416
 51
104.3893162654
  0
ARC
  8
0
 62
7
  6
CONTINUOUS
 10
75.7276659011
 20
119.3518632454
 40
1.0
 50
104.3893162654
 51
140.0777471848
  0
ARC
  8
0
 62
7
  6
CONTINUOUS
 10
74.9045644613
 20
118.319726686
 40
1.0
 50
142.7793956723
 51
178.4678265917
  0
ARC
  8
0
 62
7
  6
CONTINUOUS
 10
74.7713129103
 20
126.6990986451
 40
20.0
 50
350.0358538453
 51
2.690417787
  0
ARC
  8
0
 62
7
  6
CONTINUOUS
 10
91.3932131974
 20
134.7037839397
 40
20.0
 50
228.7381536416
 51
241.3927175833
  0
ARC
  8
0
 62
7
  6
CONTINUOUS
 10
84.9213129103
 20
125.8537047196
 40
9.9
 50
298.2988395226
 51
344.6825957279
  0
ARC
  8
0
 62
7
  6
CONTINUOUS
 10
85.7257472946
 20
126.2410999016
 40
9.9
 50
246.7459757006
 51
293.129731906
  0
ARC
  8
0
 62
7
  6
CONTINUOUS
 10
96.6566649103
 20
127.7787047196
 40
3.0
 50
357.309582213
 51
52.9607448368
  0
ARC
  8
0
 62
7
  6
CONTINUOUS
 10
96.5412368053
 20
129.3751507196
 40
1.0
 50
91.3508242438
 51
127.0392551632
  0
ARC
  8
0
 62
7
  6
CONTINUOUS
 10
106.4257716454
 20
68.8418420459
 40
20.0
 50
144.321568131
 51
156.9761320727
  0
ARC
  8
0
 62
7
  6
CONTINUOUS
 10
97.6477403136
 20
74.0074356059
 40
9.9
 50
92.5845538083
 51
138.9683100136
  0
ARC
  8
0
 62
7
  6
CONTINUOUS
 10
108.1632985106
 20
77.3648489408
 40
3.0
 50
332.7535408775
 51
28.4047035013
  0
ARC
  8
0
 62
7
  6
CONTINUOUS
 10
109.1447202946
 20
77.8374767623
 40
3.0
 50
203.0238679273
 51
258.6750305511
  0
ARC
  8
0
 62
7
  6
CONTINUOUS
 10
108.7519733414
 20
75.8764184177
 40
1.0
 50
258.6750305511
 51
294.3634614705
  0
ARC
  8
0
 62
7
  6
CONTINUOUS
 10
109.9413893834
 20
76.4492109948
 40
1.0
 50
297.0651099581
 51
332.7535408775
  0
ARC
  8
0
 62
7
  6
CONTINUOUS
 10
97.2013129103
 20
101.3829321663
 40
29.0
 50
88.6491757562
 51
91.3508242438
  0
ARC
  8
0
 62
7
  6
CONTINUOUS
 10
97.2013129103
 20
101.3829321663
 40
29.0
 50
37.2206043276
 51
39.9222528152
  0
ARC
  8
0
 62
7
  6
CONTINUOUS
 10
97.2013129103
 20
101.3829321663
 40
29.0
 50
140.0777471848
 51
142.7793956724
  0
ARC
  8
0
 62
7
  6
CONTINUOUS
 10
97.2013129103
 20
101.3829321663
 40
29.0
 50
191.5063186134
 51
194.2079671009
  0
ARC
  8
0
 62
7
  6
CONTINUOUS
 10
97.2013129103
 20
101.3829321663
 40
29.0
 50
345.7920328991
 51
348.4936813866
  0
ARC
  8
0
 62
7
  6
CONTINUOUS
 10
97.2013129103
 20
101.3829321663
 40
29.0
 50
242.9348900419
 51
245.6365385295
  0
ARC
  8
0
 62
7
  6
CONTINUOUS
 10
97.2013129103
 20
101.3829321663
 40
29.0
 50
294.3634614705
 51
297.0651099581
  0
ARC
  8
0
 62
9
  6
CONTINUOUS
 10
97.2013129103
 20
101.3829321663
 40
28.156434465
 50
137.4959538944
 51
145.3611889627
  0
ARC
  8
0
 62
9
  6
CONTINUOUS
 10
97.2013129103
 20
101.3829321663
 40
28.156434465
 50
188.924525323
 51
196.7897603913
  0
ARC
  8
0
 62
9
  6
CONTINUOUS
 10
97.2013129103
 20
101.3829321663
 40
28.156434465
 50
240.3530967516
 51
248.2183318198
  0
ARC
  8
0
 62
9
  6
CONTINUOUS
 10
97.2013129103
 20
101.3829321663
 40
28.156434465
 50
86.0673824659
 51
93.9326175341
  0
ARC
  8
0
 62
9
  6
CONTINUOUS
 10
97.2013129103
 20
101.3829321663
 40
28.156434465
 50
34.6388110373
 51
42.5040461056
  0
ARC
  8
0
 62
9
  6
CONTINUOUS
 10
97.2013129103
 20
101.3829321663
 40
28.156434465
 50
343.2102396087
 51
351.075474677
  0
ARC
  8
0
 62
9
  6
CONTINUOUS
 10
97.2013129103
 20
101.3829321663
 40
28.156434465
 50
291.7816681802
 51
299.6469032484
  0
ARC
  8
0
 62
9
  6
CONTINUOUS
 10
97.2013129103
 20
101.3829321663
 40
26.056434465
 50
136.0558138017
 51
146.8013290554
  0
ARC
  8
0
 62
9
  6
CONTINUOUS
 10
97.2013129103
 20
101.3829321663
 40
26.056434465
 50
187.4843852303
 51
198.229900484
  0
ARC
  8
0
 62
9
  6
CONTINUOUS
 10
97.2013129103
 20
101.3829321663
 40
26.056434465
 50
238.9129566589
 51
249.6584719126
  0
ARC
  8
0
 62
9
  6
CONTINUOUS
 10
97.2013129103
 20
101.3829321663
 40
26.056434465
 50
84.6272423732
 51
95.3727576268
  0
ARC
  8
0
 62
9
  6
CONTINUOUS
 10
97.2013129103
 20
101.3829321663
 40
26.056434465
 50
33.1986709446
 51
43.9441861983
  0
ARC
  8
0
 62
9
  6
CONTINUOUS
 10
97.2013129103
 20
101.3829321663
 40
26.056434465
 50
341.770099516
 51
352.5156147697
  0
ARC
  8
0
 62
9
  6
CONTINUOUS
 10
97.2013129103
 20
101.3829321663
 40
26.056434465
 50
290.3415280874
 51
301.0870433411
  0
ARC
  8
0
 62
9
  6
CONTINUOUS
 10
97.2013129103
 20
101.3829321663
 40
25.9
 50
341.7470877661
 51
352.5386265196
  0
ARC
  8
0
 62
9
  6
CONTINUOUS
 10
97.2013129103
 20
101.3829321663
 40
25.9
 50
238.8899449089
 51
249.6814836625
  0
ARC
  8
0
 62
9
  6
CONTINUOUS
 10
97.2013129103
 20
101.3829321663
 40
25.9
 50
290.3185163375
 51
301.1100550911
  0
ARC
  8
0
 62
9
  6
CONTINUOUS
 10
97.2013129103
 20
101.3829321663
 40
25.9
 50
84.6042306232
 51
95.3957693768
  0
ARC
  8
0
 62
9
  6
CONTINUOUS
 10
97.2013129103
 20
101.3829321663
 40
25.9
 50
136.0328020518
 51
146.8243408054
  0
ARC
  8
0
 62
9
  6
CONTINUOUS
 10
97.2013129103
 20
101.3829321663
 40
25.9
 50
187.4613734804
 51
198.2529122339
  0
ARC
  8
0
 62
9
  6
CONTINUOUS
 10
97.2013129103
 20
101.3829321663
 40
25.9
 50
33.1756591946
 51
43.9671979482
  0
ARC
  8
0
 62
7
  6
CONTINUOUS
 10
97.2013129103
 20
101.3829321663
 40
20.4
 50
131.8659515909
 51
150.9911912662
  0
ARC
  8
0
 62
7
  6
CONTINUOUS
 10
97.2013129103
 20
101.3829321663
 40
20.4
 50
183.2945230195
 51
202.4197626948
  0
ARC
  8
0
 62
7
  6
CONTINUOUS
 10
97.2013129103
 20
101.3829321663
 40
20.4
 50
234.7230944481
 51
253.8483341234
  0
ARC
  8
0
 62
7
  6
CONTINUOUS
 10
97.2013129103
 20
101.3829321663
 40
20.4
 50
80.4373801624
 51
99.5626198376
  0
ARC
  8
0
 62
7
  6
CONTINUOUS
 10
97.2013129103
 20
101.3829321663
 40
20.4
 50
29.0088087338
 51
48.1340484091
  0
ARC
  8
0
 62
7
  6
CONTINUOUS
 10
97.2013129103
 20
101.3829321663
 40
20.4
 50
337.5802373052
 51
356.7054769805
  0
ARC
  8
0
 62
7
  6
CONTINUOUS
 10
97.2013129103
 20
101.3829321663
 40
20.4
 50
286.1516658766
 51
305.2769055519
  0
ARC
  8
0
 62
9
  6
CONTINUOUS
 10
97.2013129103
 20
101.3829321663
 40
19.4
 50
335.1029624677
 51
359.182751818
  0
ARC
  8
0
 62
9
  6
CONTINUOUS
 10
97.2013129103
 20
101.3829321663
 40
19.4
 50
180.817248182
 51
204.8970375323
  0
ARC
  8
0
 62
9
  6
CONTINUOUS
 10
97.2013129103
 20
101.3829321663
 40
19.4
 50
129.3886767534
 51
153.4684661037
  0
ARC
  8
0
 62
9
  6
CONTINUOUS
 10
97.2013129103
 20
101.3829321663
 40
19.4
 50
26.5315338963
 51
50.6113232466
  0
ARC
  8
0
 62
9
  6
CONTINUOUS
 10
97.2013129103
 20
101.3829321663
 40
19.4
 50
77.9601053248
 51
102.0398946752
  0
ARC
  8
0
 62
9
  6
CONTINUOUS
 10
97.2013129103
 20
101.3829321663
 40
19.399999914
 50
283.6743910241
 51
307.7541803895
  0
ARC
  8
0
 62
9
  6
CONTINUOUS
 10
97.2013129103
 20
101.3829321663
 40
19.399999914
 50
232.2458196105
 51
256.3256089609
  0
ARC
  8
CURVE
 62
2
  6
PHANTOM
 10
97.2013129103
 20
101.3829321663
 40
12.5
 50
103.8865403626
 51
76.1134596374
  0
ARC
  8
0
 62
7
  6
CONTINUOUS
 10
116.8916056913
 20
73.881922087
 40
20.0
 50
74.4524393559
 51
87.1070032975
  0
ARC
  8
0
 62
7
  6
CONTINUOUS
 10
118.3259950362
 20
83.9655582415
 40
9.9
 50
92.4602614149
 51
138.8440176203
  0
ARC
  8
0
 62
7
  6
CONTINUOUS
 10
118.8826809026
 20
84.6636202386
 40
9.9
 50
144.0131252369
 51
190.3968814422
  0
ARC
  8
0
 62
7
  6
CONTINUOUS
 10
130.9791651345
 20
99.6308236362
 40
20.0
 50
125.8810107844
 51
138.5355747261
  0
ARC
  8
0
 62
7
  6
CONTINUOUS
 10
128.3943175893
 20
88.3058665827
 40
20.0
 50
195.7501395596
 51
208.4047035013
  0
ARC
  8
0
 62
7
  6
CONTINUOUS
 10
123.0564839177
 20
96.0403127428
 40
3.0
 50
254.4524393559
 51
310.1036019797
  0
ARC
  8
0
 62
7
  6
CONTINUOUS
 10
122.8140927545
 20
94.9783276677
 40
3.0
 50
24.182112306
 51
79.8332749298
  0
ARC
  8
0
 62
7
  6
CONTINUOUS
 10
124.3448273504
 20
94.5105509314
 40
1.0
 50
310.1036019797
 51
345.7920328991
  0
ARC
  8
0
 62
7
  6
CONTINUOUS
 10
124.6385888531
 20
95.7976041692
 40
1.0
 50
348.4936813866
 51
24.182112306
  0
ARC
  8
0
 62
7
  6
CONTINUOUS
 10
103.0094126231
 20
134.7037839397
 40
20.0
 50
298.6072824167
 51
311.2618463584
  0
ARC
  8
0
 62
7
  6
CONTINUOUS
 10
109.4813129103
 20
125.8537047196
 40
9.9
 50
195.3174042721
 51
241.7011604774
  0
ARC
  8
0
 62
7
  6
CONTINUOUS
 10
108.6768785259
 20
126.2410999016
 40
9.9
 50
246.870268094
 51
293.2540242994
  0
ARC
  8
0
 62
7
  6
CONTINUOUS
 10
97.7459609103
 20
127.7787047196
 40
3.0
 50
127.0392551632
 51
182.690417787
  0
ARC
  8
0
 62
7
  6
CONTINUOUS
 10
97.8613890152
 20
129.3751507196
 40
1.0
 50
52.9607448368
 51
88.6491757562
  0
ARC
  8
0
 62
7
  6
CONTINUOUS
 10
126.8738947885
 20
117.6171882275
 40
20.0
 50
247.1787109882
 51
259.8332749298
  0
ARC
  8
0
 62
7
  6
CONTINUOUS
 10
123.9897880596
 20
107.0393186922
 40
9.9
 50
143.8888328435
 51
190.2725890488
  0
ARC
  8
0
 62
7
  6
CONTINUOUS
 10
123.7911091741
 20
107.9097877647
 40
9.9
 50
195.4416966655
 51
241.8254528708
  0
ARC
  8
0
 62
7
  6
CONTINUOUS
 10
117.4987764229
 20
118.2662501187
 40
3.0
 50
305.8810107844
 51
1.5321734083
  0
ARC
  8
0
 62
7
  6
CONTINUOUS
 10
118.1779413701
 20
117.4146042122
 40
3.0
 50
75.6106837346
 51
131.2618463584
  0
ARC
  8
0
 62
7
  6
CONTINUOUS
 10
119.4980613593
 20
118.319726686
 40
1.0
 50
1.5321734083
 51
37.2206043276
  0
ARC
  8
0
 62
7
  6
CONTINUOUS
 10
118.6749599195
 20
119.3518632454
 40
1.0
 50
39.9222528152
 51
75.6106837346
  0
ARC
  8
0
 62
7
  6
CONTINUOUS
 10
119.6313129103
 20
126.6990986451
 40
20.0
 50
177.309582213
 51
189.9641461547
  0
ENDSEC
  0
EOF
