  0
SECTION
  2
HEADER
  9
$EXTMAX
 10
210.0
 20
297.0
 30
0.0
  9
$EXTMIN
 10
0.0
 20
0.0
 30
0.0
  9
$LIMMIN
 10
0.0
 20
0.0
  9
$LIMMAX
 10
210.0
 20
297.0
  9
$VIEWCTR
 10
105.0
 20
148.5
  9
$VIEWSIZE
 40
297.0
  9
$CLAYER
  8
0
  9
$LTSCALE
 40
19.36
  9
$CELTYPE
  6
BYLAYER
  9
$DIMSCALE
 40
1.0
  9
$DIMASZ
 40
3.5
  9
$DIMEXO
 40
2.2
  9
$DIMDLI
 40
13.376
  9
$DIMEXE
 40
6.336
  9
$DIMCEN
 40
3.168
  9
$DIMLFAC
 40
1.0
  9
$DIMBLK
  1
_FILLED
  9
$DIMTXT
 40
3.5
  9
$PDMODE
 70
3
  9
$PDSIZE
 40
0.3125
  9
$TILEMODE
 70
1
  0
ENDSEC
  0
SECTION
  2
TABLES
  0
TABLE
  2
LTYPE
 70
6
  0
LTYPE
  2
BYBLOCK
 70
0
  3

 72
65
 73
0
 40
0.0
  0
LTYPE
  2
BYLAYER
 70
0
  3

 72
65
 73
0
 40
0.0
  0
LTYPE
  2
CONTINUOUS
 70
64
  3
Solid line
 72
65
 73
0
 40
0.0
  0
LTYPE
  2
CENTER
 70
64
  3
____ _ ____ _ ____ _ ____ _ ____ _ ____ _ ____
 72
65
 73
4
 40
0.6
 49
0.375
 49
-0.075
 49
0.075
 49
-0.075
  0
LTYPE
  2
HIDDEN
 70
64
  3
- - - - - - - - - - - - - - - - - - - -
 72
65
 73
2
 40
0.2
 49
0.1
 49
-0.1
  0
LTYPE
  2
PHANTOM
 70
64
  3
_____ _ _ _____ _ _ _____ _ _ _____
 72
65
 73
6
 40
0.8
 49
0.45
 49
-0.05
 49
0.1
 49
-0.05
 49
0.1
 49
-0.05
  0
LTYPE
  2
DOT
 70
64
  3
. . . . . . . . . . . . . . . . . . . .
 72
65
 73
2
 40
0.2
 49
0.1
 49
-0.1
  0
LTYPE
  2
DASHED
 70
64
  3
- - - - - - - - - - - - - - - - - - - -
 72
65
 73
2
 40
0.2
 49
0.1
 49
-0.1
  0
ENDTAB
  0
TABLE
  2
LAYER
 70
36
  0
LAYER
  2
0
 70
0
 62
7
  6
CONTINUOUS
  0
LAYER
  2
DEFAULT_1
 70
0
 62
7
  6
CENTER
  0
LAYER
  2
DEFAULT_2
 70
0
 62
8
  6
HIDDEN
  0
LAYER
  2
DEFAULT_3
 70
0
 62
7
  6
PHANTOM
  0
LAYER
  2
CSYS
 70
0
 62
7
  6
CONTINUOUS
  0
LAYER
  2
CURVE
 70
0
 62
7
  6
CONTINUOUS
  0
LAYER
  2
PITCHLINE
 70
0
 62
7
  6
CONTINUOUS
  0
LAYER
  2
SQ
 70
0
 62
7
  6
CONTINUOUS
  0
LAYER
  2
SURFACE
 70
0
 62
7
  6
CONTINUOUS
  0
ENDTAB
  0
TABLE
  2
STYLE
 70
1
  0
STYLE
  2
STANDARD
 70
0
 40
0.0
 41
0.8
 50
0.0
 71
0
 42
0.2
  3
txt
  4

  0
STYLE
  2
TEXTSTYLE_1
 70
0
 40
0.0
 41
0.8
 50
0.0
 71
0
 42
0.2
  3
gdt
  4

  0
STYLE
  2
TEXTSTYLE_2
 70
0
 40
0.0
 41
0.6
 50
0.0
 71
0
 42
0.2
  3
txt
  4

  0
STYLE
  2
TEXTSTYLE_3
 70
0
 40
0.0
 41
1.0
 50
0.0
 71
0
 42
0.2
  3
ftb_____.ttf
  4

  0
STYLE
  2
TEXTSTYLE_4
 70
0
 40
0.0
 41
1.0
 50
0.0
 71
0
 42
0.2
  3
fti_____.ttf
  4

  0
STYLE
  2
TEXTSTYLE_5
 70
0
 40
0.0
 41
1.0
 50
0.0
 71
0
 42
0.2
  3
frutiger light.ttf
  4

  0
STYLE
  2
TEXTSTYLE_6
 70
0
 40
0.0
 41
0.7
 50
0.0
 71
0
 42
0.2
  3
txt
  4

  0
STYLE
  2
TEXTSTYLE_7
 70
0
 40
0.0
 41
0.8
 50
0.0
 71
0
 42
0.2
  3
txt
  4

  0
ENDTAB
  0
ENDSEC
  0
SECTION
  2
BLOCKS
  0
BLOCK
  8
0
 62
2
  6
CONTINUOUS
  2
SYMBOL_8_BL1
 70
64
 10
173.5956734183
 20
35.5937998301
  0
TEXT
  8
0
 62
7
  6
CONTINUOUS
 10
164.6539584268
 20
30.6865562072
  7
TEXTSTYLE_4
 40
1.0655737705
  1
The brand for plastic modular belts and chains
 41
1.0
 72
0
  0
LINE
  8
0
 62
7
  6
CONTINUOUS
 10
149.5737418074
 20
36.1675703219
 11
149.5737418074
 21
34.0364227809
  0
LINE
  8
0
 62
7
  6
CONTINUOUS
 10
149.8628043005
 20
31.0454914852
 11
149.8628043005
 21
31.1422825445
  0
LINE
  8
0
 62
7
  6
CONTINUOUS
 10
149.5737418074
 20
31.1100188581
 11
149.6315543091
 21
30.9164367395
  0
LINE
  8
0
 62
7
  6
CONTINUOUS
 10
150.9671844304
 20
33.9544555678
 11
150.9671844304
 21
36.1675703219
  0
LINE
  8
0
 62
7
  6
CONTINUOUS
 10
151.8862417523
 20
32.1101932727
 11
151.8862417523
 21
30.5937998301
  0
LINE
  8
0
 62
7
  6
CONTINUOUS
 10
152.1753043074
 20
30.5937998301
 11
152.1753043074
 21
31.3358647082
  0
LINE
  8
0
 62
7
  6
CONTINUOUS
 10
152.1753043074
 20
31.4649194539
 11
152.1753043074
 21
32.1101932727
  0
LINE
  8
0
 62
7
  6
CONTINUOUS
 10
149.6315543091
 20
31.3036010218
 11
149.5737418074
 21
31.1100188581
  0
LINE
  8
0
 62
7
  6
CONTINUOUS
 10
149.9784292936
 20
30.8841730531
 11
149.8628043005
 21
31.0454914852
  0
LINE
  8
0
 62
7
  6
CONTINUOUS
 10
151.0768668626
 20
31.400392081
 11
151.1346793074
 21
31.3036010218
  0
LINE
  8
0
 62
7
  6
CONTINUOUS
 10
151.4237418626
 20
31.3036010218
 11
151.3659292523
 21
31.4326557675
  0
LINE
  8
0
 62
7
  6
CONTINUOUS
 10
152.852430332
 20
36.1675703219
 11
152.852430332
 21
34.3642916334
  0
LINE
  8
0
 62
7
  6
CONTINUOUS
 10
152.852430332
 20
33.0528162235
 11
152.852430332
 21
32.3970785186
  0
LINE
  8
0
 62
7
  6
CONTINUOUS
 10
153.2159293074
 20
31.2390736489
 11
153.2159293074
 21
30.5937998301
  0
LINE
  8
0
 62
7
  6
CONTINUOUS
 10
153.5049916972
 20
30.5937998301
 11
153.5049916972
 21
31.2390736489
  0
LINE
  8
0
 62
7
  6
CONTINUOUS
 10
149.8628043005
 20
31.1422825445
 11
149.9206168074
 21
31.2713373354
  0
LINE
  8
0
 62
7
  6
CONTINUOUS
 10
149.6315543091
 20
30.9164367395
 11
149.7471793074
 21
30.7873819712
  0
LINE
  8
0
 62
7
  6
CONTINUOUS
 10
153.1581166972
 20
31.3681283946
 11
153.2159293074
 21
31.2390736489
  0
LINE
  8
0
 62
7
  6
CONTINUOUS
 10
153.9674919177
 20
30.8841730531
 11
154.0253041972
 21
30.7551182848
  0
LINE
  8
0
 62
7
  6
CONTINUOUS
 10
153.5049916972
 20
31.2390736489
 11
153.4471794177
 21
31.400392081
  0
LINE
  8
0
 62
7
  6
CONTINUOUS
 10
153.9674919177
 20
31.4326557675
 11
153.9674919177
 21
31.3681283946
  0
LINE
  8
0
 62
7
  6
CONTINUOUS
 10
153.9674919177
 20
30.9809641124
 11
153.9674919177
 21
30.8841730531
  0
LINE
  8
0
 62
7
  6
CONTINUOUS
 10
154.245872955
 20
32.3970785186
 11
154.245872955
 21
36.1675703219
  0
LINE
  8
0
 62
7
  6
CONTINUOUS
 10
154.2565543074
 20
30.8519093441
 11
154.2565543074
 21
30.9164367395
  0
LINE
  8
0
 62
7
  6
CONTINUOUS
 10
154.5737418074
 20
36.1675703219
 11
154.5737418074
 21
32.3970785186
  0
LINE
  8
0
 62
7
  6
CONTINUOUS
 10
151.3659292523
 20
30.7873819712
 11
151.4237418626
 21
30.9164367395
  0
LINE
  8
0
 62
7
  6
CONTINUOUS
 10
155.759679528
 20
30.6905909007
 11
155.7018665869
 21
30.8519093441
  0
LINE
  8
0
 62
7
  6
CONTINUOUS
 10
155.412804528
 20
31.3681283946
 11
155.412804528
 21
31.2713373354
  0
LINE
  8
0
 62
7
  6
CONTINUOUS
 10
155.412804528
 20
31.1422825445
 11
155.412804528
 21
30.9487004259
  0
LINE
  8
0
 62
7
  6
CONTINUOUS
 10
155.7018665869
 20
30.8519093441
 11
155.7018665869
 21
31.3681283946
  0
LINE
  8
0
 62
7
  6
CONTINUOUS
 10
155.9671844304
 20
32.3970785186
 11
155.9671844304
 21
34.2003572071
  0
LINE
  8
0
 62
7
  6
CONTINUOUS
 10
155.9671844304
 20
35.511832617
 11
155.9671844304
 21
36.1675703219
  0
LINE
  8
0
 62
7
  6
CONTINUOUS
 10
156.279992028
 20
32.1101932727
 11
156.279992028
 21
31.9488748406
  0
LINE
  8
0
 62
7
  6
CONTINUOUS
 10
156.279992028
 20
31.626237886
 11
156.279992028
 21
30.5937998301
  0
LINE
  8
0
 62
7
  6
CONTINUOUS
 10
156.5690540869
 20
30.5937998301
 11
156.5690540869
 21
31.626237886
  0
LINE
  8
0
 62
7
  6
CONTINUOUS
 10
156.5690540869
 20
31.9488748406
 11
156.5690540869
 21
32.1101932727
  0
LINE
  8
0
 62
7
  6
CONTINUOUS
 10
151.1346793074
 20
30.9164367395
 11
151.0768668626
 21
30.8196456577
  0
LINE
  8
0
 62
7
  6
CONTINUOUS
 10
153.4471794177
 20
31.400392081
 11
153.3893668074
 21
31.4649194539
  0
LINE
  8
0
 62
7
  6
CONTINUOUS
 10
154.3143669177
 20
30.7873819712
 11
154.2565543074
 21
30.8519093441
  0
LINE
  8
0
 62
7
  6
CONTINUOUS
 10
155.4706168074
 20
30.6583272086
 11
155.5284290869
 21
30.5937998301
  0
LINE
  8
0
 62
7
  6
CONTINUOUS
 10
155.412804528
 20
30.7551182848
 11
155.4706168074
 21
30.6583272086
  0
LINE
  8
0
 62
7
  6
CONTINUOUS
 10
155.8174918074
 20
30.5937998301
 11
155.759679528
 21
30.6905909007
  0
LINE
  8
0
 62
7
  6
CONTINUOUS
 10
155.7018665869
 20
31.3681283946
 11
155.6440543074
 21
31.4649194539
  0
LINE
  8
0
 62
7
  6
CONTINUOUS
 10
157.0315543074
 20
31.626237886
 11
157.0315543074
 21
30.5937998301
  0
LINE
  8
0
 62
7
  6
CONTINUOUS
 10
157.320617028
 20
30.5937998301
 11
157.320617028
 21
31.3358647082
  0
LINE
  8
0
 62
7
  6
CONTINUOUS
 10
157.320617028
 20
31.4649194539
 11
157.320617028
 21
31.626237886
  0
LINE
  8
0
 62
7
  6
CONTINUOUS
 10
157.852430332
 20
34.6101932727
 11
157.852430332
 21
32.3970785186
  0
LINE
  8
0
 62
7
  6
CONTINUOUS
 10
149.7471793074
 20
31.4326557675
 11
149.6315543091
 21
31.3036010218
  0
LINE
  8
0
 62
7
  6
CONTINUOUS
 10
149.9206168074
 20
31.2713373354
 11
149.9784292936
 21
31.3358647082
  0
LINE
  8
0
 62
7
  6
CONTINUOUS
 10
149.7471793074
 20
30.7873819712
 11
149.8628043005
 21
30.7228545871
  0
LINE
  8
0
 62
7
  6
CONTINUOUS
 10
150.1518667936
 20
30.7873819712
 11
149.9784292936
 21
30.8841730531
  0
LINE
  8
0
 62
7
  6
CONTINUOUS
 10
155.3549915869
 20
31.4326557675
 11
155.412804528
 21
31.3681283946
  0
LINE
  8
0
 62
7
  6
CONTINUOUS
 10
158.3034290869
 20
31.3681283946
 11
158.361242028
 21
31.2068099625
  0
LINE
  8
0
 62
7
  6
CONTINUOUS
 10
158.6503040869
 20
31.2068099625
 11
158.5924918074
 21
31.3681283946
  0
LINE
  8
0
 62
7
  6
CONTINUOUS
 10
158.361242028
 20
31.2068099625
 11
158.361242028
 21
30.5937998301
  0
LINE
  8
0
 62
7
  6
CONTINUOUS
 10
158.6503040869
 20
30.5937998301
 11
158.6503040869
 21
31.2068099625
  0
LINE
  8
0
 62
7
  6
CONTINUOUS
 10
159.1128043074
 20
31.4326557675
 11
159.1128043074
 21
31.3681283946
  0
LINE
  8
0
 62
7
  6
CONTINUOUS
 10
159.245872955
 20
32.3970785186
 11
159.245872955
 21
34.5282260596
  0
LINE
  8
0
 62
7
  6
CONTINUOUS
 10
159.5737418074
 20
36.1675703219
 11
159.5737418074
 21
32.3970785186
  0
LINE
  8
0
 62
7
  6
CONTINUOUS
 10
154.2565543074
 20
30.9164367395
 11
154.3143669177
 21
31.0132277988
  0
LINE
  8
0
 62
7
  6
CONTINUOUS
 10
149.8628043005
 20
30.7228545871
 11
150.0362418212
 21
30.6583272086
  0
LINE
  8
0
 62
7
  6
CONTINUOUS
 10
151.3659292523
 20
31.4326557675
 11
151.1924917523
 21
31.5294468267
  0
LINE
  8
0
 62
7
  6
CONTINUOUS
 10
154.0253041972
 20
30.7551182848
 11
154.1987416972
 21
30.6583272086
  0
LINE
  8
0
 62
7
  6
CONTINUOUS
 10
153.0424918074
 20
31.4326557675
 11
153.1581166972
 21
31.3681283946
  0
LINE
  8
0
 62
7
  6
CONTINUOUS
 10
153.3893668074
 20
31.4649194539
 11
153.2737419177
 21
31.5294468267
  0
LINE
  8
0
 62
7
  6
CONTINUOUS
 10
159.1128043074
 20
30.8519093441
 11
159.228429528
 21
30.7228545871
  0
LINE
  8
0
 62
7
  6
CONTINUOUS
 10
159.4596793074
 20
30.7873819712
 11
159.401867028
 21
30.8519093441
  0
LINE
  8
0
 62
7
  6
CONTINUOUS
 10
159.1128043074
 20
31.3681283946
 11
159.228429528
 21
31.2390736489
  0
LINE
  8
0
 62
7
  6
CONTINUOUS
 10
158.5924918074
 20
31.3681283946
 11
158.534679528
 21
31.4649194539
  0
LINE
  8
0
 62
7
  6
CONTINUOUS
 10
160.9628038663
 20
30.7873819712
 11
160.9628038663
 21
30.8519093441
  0
LINE
  8
0
 62
7
  6
CONTINUOUS
 10
160.9671844304
 20
32.3970785186
 11
160.9671844304
 21
36.1675703219
  0
LINE
  8
0
 62
7
  6
CONTINUOUS
 10
154.0253041972
 20
31.4971831403
 11
153.9674919177
 21
31.4326557675
  0
LINE
  8
0
 62
7
  6
CONTINUOUS
 10
150.9034292799
 20
31.4649194539
 11
151.0768668626
 21
31.400392081
  0
LINE
  8
0
 62
7
  6
CONTINUOUS
 10
155.6440543074
 20
31.4649194539
 11
155.5284290869
 21
31.5294468267
  0
LINE
  8
0
 62
7
  6
CONTINUOUS
 10
159.4596793074
 20
31.3036010218
 11
159.401867028
 21
31.3681283946
  0
LINE
  8
0
 62
7
  6
CONTINUOUS
 10
160.615929528
 20
30.9164367395
 11
160.6737418074
 21
30.8519093441
  0
LINE
  8
0
 62
7
  6
CONTINUOUS
 10
160.9628038663
 20
30.8519093441
 11
160.8471793074
 21
30.9809641124
  0
LINE
  8
0
 62
7
  6
CONTINUOUS
 10
160.615929528
 20
31.4326557675
 11
160.6737418074
 21
31.3681283946
  0
LINE
  8
0
 62
7
  6
CONTINUOUS
 10
160.9628038663
 20
31.3681283946
 11
160.8471793074
 21
31.4971831403
  0
LINE
  8
0
 62
7
  6
CONTINUOUS
 10
154.2565543074
 20
31.3681283946
 11
154.3143669177
 21
31.4326557675
  0
LINE
  8
0
 62
7
  6
CONTINUOUS
 10
154.0831168074
 20
31.1100188581
 11
153.9674919177
 21
30.9809641124
  0
LINE
  8
0
 62
7
  6
CONTINUOUS
 10
155.412804528
 20
30.9487004259
 11
155.3549915869
 21
30.8841730531
  0
LINE
  8
0
 62
7
  6
CONTINUOUS
 10
155.3549915869
 20
30.6905909007
 11
155.412804528
 21
30.7551182848
  0
LINE
  8
0
 62
7
  6
CONTINUOUS
 10
154.1987416972
 20
30.6583272086
 11
154.3143669177
 21
30.6260635193
  0
LINE
  8
0
 62
7
  6
CONTINUOUS
 10
151.1924917523
 20
31.5294468267
 11
150.9612418074
 21
31.5939741996
  0
LINE
  8
0
 62
7
  6
CONTINUOUS
 10
154.5456166972
 20
30.7228545871
 11
154.3143669177
 21
30.7873819712
  0
LINE
  8
0
 62
7
  6
CONTINUOUS
 10
153.2737419177
 20
31.5294468267
 11
153.1003044177
 21
31.5939741996
  0
LINE
  8
0
 62
7
  6
CONTINUOUS
 10
155.5284290869
 20
31.5294468267
 11
155.3549915869
 21
31.5939741996
  0
LINE
  8
0
 62
7
  6
CONTINUOUS
 10
158.187804528
 20
31.4326557675
 11
158.3034290869
 21
31.3681283946
  0
LINE
  8
0
 62
7
  6
CONTINUOUS
 10
158.534679528
 20
31.4649194539
 11
158.4190543074
 21
31.5294468267
  0
LINE
  8
0
 62
7
  6
CONTINUOUS
 10
150.0362418212
 20
30.6583272086
 11
150.2096793212
 21
30.6260635193
  0
LINE
  8
0
 62
7
  6
CONTINUOUS
 10
150.498741835
 20
30.7228545871
 11
150.1518667936
 21
30.7873819712
  0
LINE
  8
0
 62
7
  6
CONTINUOUS
 10
152.9268669177
 20
31.4649194539
 11
153.0424918074
 21
31.4326557675
  0
LINE
  8
0
 62
7
  6
CONTINUOUS
 10
155.239367028
 20
31.4649194539
 11
155.3549915869
 21
31.4326557675
  0
LINE
  8
0
 62
7
  6
CONTINUOUS
 10
159.575304528
 20
30.7551182848
 11
159.4596793074
 21
30.7873819712
  0
LINE
  8
0
 62
7
  6
CONTINUOUS
 10
158.0721793074
 20
31.4649194539
 11
158.187804528
 21
31.4326557675
  0
LINE
  8
0
 62
7
  6
CONTINUOUS
 10
159.228429528
 20
30.7228545871
 11
159.401867028
 21
30.6583272086
  0
LINE
  8
0
 62
7
  6
CONTINUOUS
 10
158.4190543074
 20
31.5294468267
 11
158.2456168074
 21
31.5939741996
  0
LINE
  8
0
 62
7
  6
CONTINUOUS
 10
159.6331168074
 20
31.2390736489
 11
159.4596793074
 21
31.3036010218
  0
LINE
  8
0
 62
7
  6
CONTINUOUS
 10
160.442492028
 20
30.9809641124
 11
160.615929528
 21
30.9164367395
  0
LINE
  8
0
 62
7
  6
CONTINUOUS
 10
160.8471793074
 20
31.4971831403
 11
160.6737418074
 21
31.5617105132
  0
LINE
  8
0
 62
7
  6
CONTINUOUS
 10
159.228429528
 20
31.2390736489
 11
159.4596793074
 21
31.1422825445
  0
LINE
  8
0
 62
7
  6
CONTINUOUS
 10
160.8471793074
 20
30.9809641124
 11
160.615929528
 21
31.0777551716
  0
LINE
  8
0
 62
7
  6
CONTINUOUS
 10
159.401867028
 20
31.3681283946
 11
159.4596793074
 21
31.4326557675
  0
LINE
  8
0
 62
7
  6
CONTINUOUS
 10
149.8628043005
 20
31.4971831403
 11
149.7471793074
 21
31.4326557675
  0
LINE
  8
0
 62
7
  6
CONTINUOUS
 10
149.9784292936
 20
31.3358647082
 11
150.1518667936
 21
31.4326557675
  0
LINE
  8
0
 62
7
  6
CONTINUOUS
 10
152.2909293626
 20
31.5294468267
 11
152.1753043074
 21
31.4649194539
  0
LINE
  8
0
 62
7
  6
CONTINUOUS
 10
152.1753043074
 20
31.3358647082
 11
152.2909293626
 21
31.400392081
  0
LINE
  8
0
 62
7
  6
CONTINUOUS
 10
151.1924917523
 20
30.6905909007
 11
151.3659292523
 21
30.7873819712
  0
LINE
  8
0
 62
7
  6
CONTINUOUS
 10
150.2096793212
 20
30.6260635193
 11
150.5565542799
 21
30.5937998301
  0
LINE
  8
0
 62
7
  6
CONTINUOUS
 10
154.3143669177
 20
30.6260635193
 11
154.5456166972
 21
30.5937998301
  0
LINE
  8
0
 62
7
  6
CONTINUOUS
 10
152.6956168074
 20
31.4971831403
 11
152.9268669177
 21
31.4649194539
  0
LINE
  8
0
 62
7
  6
CONTINUOUS
 10
155.0081169177
 20
31.4971831403
 11
155.239367028
 21
31.4649194539
  0
LINE
  8
0
 62
7
  6
CONTINUOUS
 10
159.4596793074
 20
31.1422825445
 11
160.442492028
 21
30.9809641124
  0
LINE
  8
0
 62
7
  6
CONTINUOUS
 10
160.615929528
 20
31.0777551716
 11
159.6331168074
 21
31.2390736489
  0
LINE
  8
0
 62
7
  6
CONTINUOUS
 10
153.1003044177
 20
31.5939741996
 11
152.9268669177
 21
31.626237886
  0
LINE
  8
0
 62
7
  6
CONTINUOUS
 10
159.401867028
 20
30.6583272086
 11
159.575304528
 21
30.6260635193
  0
LINE
  8
0
 62
7
  6
CONTINUOUS
 10
158.2456168074
 20
31.5939741996
 11
158.0721793074
 21
31.626237886
  0
LINE
  8
0
 62
7
  6
CONTINUOUS
 10
160.5003043074
 20
31.4649194539
 11
160.615929528
 21
31.4326557675
  0
LINE
  8
0
 62
7
  6
CONTINUOUS
 10
160.6737418074
 20
30.8519093441
 11
160.615929528
 21
30.7873819712
  0
LINE
  8
0
 62
7
  6
CONTINUOUS
 10
159.228429528
 20
31.5294468267
 11
159.1128043074
 21
31.4326557675
  0
LINE
  8
0
 62
7
  6
CONTINUOUS
 10
154.1409294177
 20
31.5617105132
 11
154.0253041972
 21
31.4971831403
  0
LINE
  8
0
 62
7
  6
CONTINUOUS
 10
154.1987416972
 20
31.1745462761
 11
154.0831168074
 21
31.1100188581
  0
LINE
  8
0
 62
7
  6
CONTINUOUS
 10
154.3143669177
 20
31.0132277988
 11
154.4299918074
 21
31.0777551716
  0
LINE
  8
0
 62
7
  6
CONTINUOUS
 10
151.8862417523
 20
30.5937998301
 11
152.1753043074
 21
30.5937998301
  0
LINE
  8
0
 62
7
  6
CONTINUOUS
 10
153.2159293074
 20
30.5937998301
 11
153.5049916972
 21
30.5937998301
  0
LINE
  8
0
 62
7
  6
CONTINUOUS
 10
154.5456166972
 20
30.5937998301
 11
154.8924916972
 21
30.5937998301
  0
LINE
  8
0
 62
7
  6
CONTINUOUS
 10
155.5284290869
 20
30.5937998301
 11
155.8174918074
 21
30.5937998301
  0
LINE
  8
0
 62
7
  6
CONTINUOUS
 10
156.279992028
 20
30.5937998301
 11
156.5690540869
 21
30.5937998301
  0
LINE
  8
0
 62
7
  6
CONTINUOUS
 10
157.0315543074
 20
30.5937998301
 11
157.320617028
 21
30.5937998301
  0
LINE
  8
0
 62
7
  6
CONTINUOUS
 10
158.361242028
 20
30.5937998301
 11
158.6503040869
 21
30.5937998301
  0
LINE
  8
0
 62
7
  6
CONTINUOUS
 10
159.922179528
 20
30.5937998301
 11
160.269054528
 21
30.5937998301
  0
LINE
  8
0
 62
7
  6
CONTINUOUS
 10
160.269054528
 20
30.7228545871
 11
159.922179528
 21
30.7228545871
  0
LINE
  8
0
 62
7
  6
CONTINUOUS
 10
154.8924916972
 20
30.7228545871
 11
154.5456166972
 21
30.7228545871
  0
LINE
  8
0
 62
7
  6
CONTINUOUS
 10
159.401867028
 20
30.8519093441
 11
159.1128043074
 21
30.8519093441
  0
LINE
  8
0
 62
7
  6
CONTINUOUS
 10
151.4237418626
 20
30.9164367395
 11
151.1346793074
 21
30.9164367395
  0
LINE
  8
0
 62
7
  6
CONTINUOUS
 10
150.498741835
 20
31.4971831403
 11
150.9034292799
 21
31.4649194539
  0
LINE
  8
0
 62
7
  6
CONTINUOUS
 10
150.9612418074
 20
31.5939741996
 11
150.5565542799
 21
31.626237886
  0
LINE
  8
0
 62
7
  6
CONTINUOUS
 10
159.575304528
 20
30.6260635193
 11
159.922179528
 21
30.5937998301
  0
LINE
  8
0
 62
7
  6
CONTINUOUS
 10
159.922179528
 20
30.7228545871
 11
159.575304528
 21
30.7551182848
  0
LINE
  8
0
 62
7
  6
CONTINUOUS
 10
155.3549915869
 20
31.5939741996
 11
155.0081169177
 21
31.626237886
  0
LINE
  8
0
 62
7
  6
CONTINUOUS
 10
160.1534293074
 20
31.4971831403
 11
160.5003043074
 21
31.4649194539
  0
LINE
  8
0
 62
7
  6
CONTINUOUS
 10
160.5003043074
 20
31.5939741996
 11
160.1534293074
 21
31.626237886
  0
LINE
  8
0
 62
7
  6
CONTINUOUS
 10
157.840929528
 20
31.4971831403
 11
158.0721793074
 21
31.4649194539
  0
LINE
  8
0
 62
7
  6
CONTINUOUS
 10
160.6737418074
 20
31.5617105132
 11
160.5003043074
 21
31.5939741996
  0
LINE
  8
0
 62
7
  6
CONTINUOUS
 10
160.8471793074
 20
30.6905909007
 11
160.9628038663
 21
30.7873819712
  0
LINE
  8
0
 62
7
  6
CONTINUOUS
 10
155.3549915869
 20
30.8841730531
 11
155.1815540869
 21
30.7873819712
  0
LINE
  8
0
 62
7
  6
CONTINUOUS
 10
157.4362415869
 20
31.5294468267
 11
157.320617028
 21
31.4649194539
  0
LINE
  8
0
 62
7
  6
CONTINUOUS
 10
157.320617028
 20
31.3358647082
 11
157.4362415869
 21
31.400392081
  0
LINE
  8
0
 62
7
  6
CONTINUOUS
 10
150.0362418212
 20
31.5617105132
 11
149.8628043005
 21
31.4971831403
  0
LINE
  8
0
 62
7
  6
CONTINUOUS
 10
152.4643666972
 20
31.5939741996
 11
152.2909293626
 21
31.5294468267
  0
LINE
  8
0
 62
7
  6
CONTINUOUS
 10
152.2909293626
 20
31.400392081
 11
152.4643666972
 21
31.4649194539
  0
LINE
  8
0
 62
7
  6
CONTINUOUS
 10
151.0768668626
 20
30.8196456577
 11
150.9034292799
 21
30.7551182848
  0
LINE
  8
0
 62
7
  6
CONTINUOUS
 10
160.5003043074
 20
30.7551182848
 11
160.269054528
 21
30.7228545871
  0
LINE
  8
0
 62
7
  6
CONTINUOUS
 10
154.8924916972
 20
30.5937998301
 11
155.1815540869
 21
30.6260635193
  0
LINE
  8
0
 62
7
  6
CONTINUOUS
 10
160.269054528
 20
30.5937998301
 11
160.615929528
 21
30.6260635193
  0
LINE
  8
0
 62
7
  6
CONTINUOUS
 10
150.5565542799
 20
30.5937998301
 11
150.9612418074
 21
30.6260635193
  0
LINE
  8
0
 62
7
  6
CONTINUOUS
 10
150.9034292799
 20
30.7551182848
 11
150.498741835
 21
30.7228545871
  0
LINE
  8
0
 62
7
  6
CONTINUOUS
 10
154.7768668074
 20
31.1422825445
 11
155.412804528
 21
31.1422825445
  0
LINE
  8
0
 62
7
  6
CONTINUOUS
 10
155.412804528
 20
31.2713373354
 11
154.7768668074
 21
31.2713373354
  0
LINE
  8
0
 62
7
  6
CONTINUOUS
 10
151.1346793074
 20
31.3036010218
 11
151.4237418626
 21
31.3036010218
  0
LINE
  8
0
 62
7
  6
CONTINUOUS
 10
153.9674919177
 20
31.3681283946
 11
154.2565543074
 21
31.3681283946
  0
LINE
  8
0
 62
7
  6
CONTINUOUS
 10
160.6737418074
 20
31.3681283946
 11
160.9628038663
 21
31.3681283946
  0
LINE
  8
0
 62
7
  6
CONTINUOUS
 10
154.6612419177
 20
31.4971831403
 11
155.0081169177
 21
31.4971831403
  0
LINE
  8
0
 62
7
  6
CONTINUOUS
 10
159.8065543074
 20
31.4971831403
 11
160.1534293074
 21
31.4971831403
  0
LINE
  8
0
 62
7
  6
CONTINUOUS
 10
160.1534293074
 20
31.626237886
 11
159.8065543074
 21
31.626237886
  0
LINE
  8
0
 62
7
  6
CONTINUOUS
 10
158.0721793074
 20
31.626237886
 11
157.840929528
 21
31.626237886
  0
LINE
  8
0
 62
7
  6
CONTINUOUS
 10
157.320617028
 20
31.626237886
 11
157.0315543074
 21
31.626237886
  0
LINE
  8
0
 62
7
  6
CONTINUOUS
 10
156.5690540869
 20
31.626237886
 11
156.279992028
 21
31.626237886
  0
LINE
  8
0
 62
7
  6
CONTINUOUS
 10
155.0081169177
 20
31.626237886
 11
154.6612419177
 21
31.626237886
  0
LINE
  8
0
 62
7
  6
CONTINUOUS
 10
152.9268669177
 20
31.626237886
 11
152.6956168074
 21
31.626237886
  0
LINE
  8
0
 62
7
  6
CONTINUOUS
 10
156.279992028
 20
31.9488748406
 11
156.5690540869
 21
31.9488748406
  0
LINE
  8
0
 62
7
  6
CONTINUOUS
 10
156.5690540869
 20
32.1101932727
 11
156.279992028
 21
32.1101932727
  0
LINE
  8
0
 62
7
  6
CONTINUOUS
 10
152.1753043074
 20
32.1101932727
 11
151.8862417523
 21
32.1101932727
  0
LINE
  8
0
 62
7
  6
CONTINUOUS
 10
151.2130860697
 20
32.3970785186
 11
151.6256574183
 21
32.3970785186
  0
LINE
  8
0
 62
7
  6
CONTINUOUS
 10
152.852430332
 20
32.3970785186
 11
154.245872955
 21
32.3970785186
  0
LINE
  8
0
 62
7
  6
CONTINUOUS
 10
154.5737418074
 20
32.3970785186
 11
155.9671844304
 21
32.3970785186
  0
LINE
  8
0
 62
7
  6
CONTINUOUS
 10
157.852430332
 20
32.3970785186
 11
159.245872955
 21
32.3970785186
  0
LINE
  8
0
 62
7
  6
CONTINUOUS
 10
159.5737418074
 20
32.3970785186
 11
160.9671844304
 21
32.3970785186
  0
LINE
  8
0
 62
7
  6
CONTINUOUS
 10
157.6096790869
 20
31.5939741996
 11
157.4362415869
 21
31.5294468267
  0
LINE
  8
0
 62
7
  6
CONTINUOUS
 10
155.1815540869
 20
30.6260635193
 11
155.3549915869
 21
30.6905909007
  0
LINE
  8
0
 62
7
  6
CONTINUOUS
 10
160.615929528
 20
30.6260635193
 11
160.8471793074
 21
30.6905909007
  0
LINE
  8
0
 62
7
  6
CONTINUOUS
 10
160.615929528
 20
30.7873819712
 11
160.5003043074
 21
30.7551182848
  0
LINE
  8
0
 62
7
  6
CONTINUOUS
 10
159.575304528
 20
31.4649194539
 11
159.8065543074
 21
31.4971831403
  0
LINE
  8
0
 62
7
  6
CONTINUOUS
 10
157.6096790869
 20
31.4649194539
 11
157.840929528
 21
31.4971831403
  0
LINE
  8
0
 62
7
  6
CONTINUOUS
 10
154.5456166972
 20
31.1100188581
 11
154.7768668074
 21
31.1422825445
  0
LINE
  8
0
 62
7
  6
CONTINUOUS
 10
157.840929528
 20
31.626237886
 11
157.6096790869
 21
31.5939741996
  0
LINE
  8
0
 62
7
  6
CONTINUOUS
 10
154.4299918074
 20
31.4649194539
 11
154.6612419177
 21
31.4971831403
  0
LINE
  8
0
 62
7
  6
CONTINUOUS
 10
159.8065543074
 20
31.626237886
 11
159.4596793074
 21
31.5939741996
  0
LINE
  8
0
 62
7
  6
CONTINUOUS
 10
154.7768668074
 20
31.2713373354
 11
154.4299918074
 21
31.2390736489
  0
LINE
  8
0
 62
7
  6
CONTINUOUS
 10
150.5565542799
 20
31.626237886
 11
150.2096793212
 21
31.5939741996
  0
LINE
  8
0
 62
7
  6
CONTINUOUS
 10
154.6612419177
 20
31.626237886
 11
154.2565543074
 21
31.5939741996
  0
LINE
  8
0
 62
7
  6
CONTINUOUS
 10
152.0327582009
 20
33.5446195022
 11
151.3770204959
 21
33.5446195022
  0
LINE
  8
0
 62
7
  6
CONTINUOUS
 10
157.4362415869
 20
31.400392081
 11
157.6096790869
 21
31.4649194539
  0
LINE
  8
0
 62
7
  6
CONTINUOUS
 10
159.4596793074
 20
31.4326557675
 11
159.575304528
 21
31.4649194539
  0
LINE
  8
0
 62
7
  6
CONTINUOUS
 10
159.4596793074
 20
31.5939741996
 11
159.228429528
 21
31.5294468267
  0
LINE
  8
0
 62
7
  6
CONTINUOUS
 10
155.1815540869
 20
30.7873819712
 11
154.8924916972
 21
30.7228545871
  0
LINE
  8
0
 62
7
  6
CONTINUOUS
 10
152.4643666972
 20
31.4649194539
 11
152.6956168074
 21
31.4971831403
  0
LINE
  8
0
 62
7
  6
CONTINUOUS
 10
152.6956168074
 20
31.626237886
 11
152.4643666972
 21
31.5939741996
  0
LINE
  8
0
 62
7
  6
CONTINUOUS
 10
150.2674918074
 20
31.4649194539
 11
150.498741835
 21
31.4971831403
  0
LINE
  8
0
 62
7
  6
CONTINUOUS
 10
156.7868565615
 20
35.0200293383
 11
157.4425942664
 21
35.0200293383
  0
LINE
  8
0
 62
7
  6
CONTINUOUS
 10
154.4299918074
 20
31.0777551716
 11
154.5456166972
 21
31.1100188581
  0
LINE
  8
0
 62
7
  6
CONTINUOUS
 10
154.4299918074
 20
31.2390736489
 11
154.1987416972
 21
31.1745462761
  0
LINE
  8
0
 62
7
  6
CONTINUOUS
 10
154.3143669177
 20
31.4326557675
 11
154.4299918074
 21
31.4649194539
  0
LINE
  8
0
 62
7
  6
CONTINUOUS
 10
150.9612418074
 20
30.6260635193
 11
151.1924917523
 21
30.6905909007
  0
LINE
  8
0
 62
7
  6
CONTINUOUS
 10
154.2565543074
 20
31.5939741996
 11
154.1409294177
 21
31.5617105132
  0
LINE
  8
0
 62
7
  6
CONTINUOUS
 10
150.2096793212
 20
31.5939741996
 11
150.0362418212
 21
31.5617105132
  0
LINE
  8
0
 62
7
  6
CONTINUOUS
 10
160.9671844304
 20
36.1675703219
 11
159.5737418074
 21
36.1675703219
  0
LINE
  8
0
 62
7
  6
CONTINUOUS
 10
157.6065286927
 20
36.1675703219
 11
157.1939573441
 21
36.1675703219
  0
LINE
  8
0
 62
7
  6
CONTINUOUS
 10
155.9671844304
 20
36.1675703219
 11
154.5737418074
 21
36.1675703219
  0
LINE
  8
0
 62
7
  6
CONTINUOUS
 10
154.245872955
 20
36.1675703219
 11
152.852430332
 21
36.1675703219
  0
LINE
  8
0
 62
7
  6
CONTINUOUS
 10
150.9671844304
 20
36.1675703219
 11
149.5737418074
 21
36.1675703219
  0
LINE
  8
0
 62
7
  6
CONTINUOUS
 10
150.1518667936
 20
31.4326557675
 11
150.2674918074
 21
31.4649194539
  0
CIRCLE
  8
0
 62
7
  6
CONTINUOUS
 10
160.2704631189
 20
38.5036358957
 40
2.0901639344
  0
ARC
  8
0
 62
7
  6
CONTINUOUS
 10
151.2130860697
 20
34.0364227809
 40
1.6393442623
 50
180.0
 51
270.0
  0
ARC
  8
0
 62
7
  6
CONTINUOUS
 10
157.6065286927
 20
34.5282260596
 40
1.6393442623
 50
0.0
 51
90.0
  0
ARC
  8
0
 62
7
  6
CONTINUOUS
 10
151.6256574183
 20
33.8724883547
 40
1.4754098361
 50
270.0
 51
326.2510114041
  0
ARC
  8
0
 62
7
  6
CONTINUOUS
 10
157.1939573441
 20
34.6921604858
 40
1.4754098361
 50
90.0
 51
146.2510114041
  0
ARC
  8
0
 62
7
  6
CONTINUOUS
 10
152.0327582009
 20
34.3642916334
 40
0.8196721311
 50
270.0
 51
360.0
  0
ARC
  8
0
 62
7
  6
CONTINUOUS
 10
156.7868565615
 20
34.2003572071
 40
0.8196721311
 50
90.0
 51
180.0
  0
ARC
  8
0
 62
7
  6
CONTINUOUS
 10
151.3770204959
 20
33.9544555678
 40
0.4098360656
 50
180.0
 51
270.0
  0
ARC
  8
0
 62
7
  6
CONTINUOUS
 10
157.4425942664
 20
34.6101932727
 40
0.4098360656
 50
0.0
 51
90.0
  0
SOLID
  8
0
 62
7
  6
CONTINUOUS
 10
156.279992028
 20
31.9488752009
 11
156.279992028
 21
32.1101936845
 12
156.5690540869
 22
31.9488752009
 13
156.5690540869
 23
32.1101936845
  0
SOLID
  8
0
 62
7
  6
CONTINUOUS
 10
150.5565542799
 20
31.6262382337
 11
150.9612418074
 21
31.5939740028
 12
150.2096793212
 22
31.5939740028
 13
150.2096793212
 23
31.5939740028
  0
SOLID
  8
0
 62
7
  6
CONTINUOUS
 10
150.0362418212
 20
31.5617111435
 11
150.2096793212
 21
31.5939740028
 12
150.9612418074
 22
31.5939740028
 13
150.9612418074
 23
31.5939740028
  0
SOLID
  8
0
 62
7
  6
CONTINUOUS
 10
150.9612418074
 20
31.5939740028
 11
151.1924917523
 21
31.5294468402
 12
150.0362418212
 22
31.5617111435
 13
150.0362418212
 23
31.5617111435
  0
SOLID
  8
0
 62
7
  6
CONTINUOUS
 10
149.8628043005
 20
31.49718259
 11
150.0362418212
 21
31.5617111435
 12
151.1924917523
 22
31.5294468402
 13
151.1924917523
 23
31.5294468402
  0
SOLID
  8
0
 62
7
  6
CONTINUOUS
 10
149.8628043005
 20
31.49718259
 11
151.1924917523
 21
31.5294468402
 12
150.498741835
 22
31.49718259
 13
150.498741835
 23
31.49718259
  0
SOLID
  8
0
 62
7
  6
CONTINUOUS
 10
150.498741835
 20
31.49718259
 11
151.1924917523
 21
31.5294468402
 12
150.9034292799
 22
31.4649197501
 13
150.9034292799
 23
31.4649197501
  0
SOLID
  8
0
 62
7
  6
CONTINUOUS
 10
151.1924917523
 20
31.5294468402
 11
151.3659292523
 21
31.4326554468
 12
150.9034292799
 22
31.4649197501
 13
150.9034292799
 23
31.4649197501
  0
SOLID
  8
0
 62
7
  6
CONTINUOUS
 10
151.0768668626
 20
31.4003926599
 11
150.9034292799
 21
31.4649197501
 12
151.3659292523
 22
31.4326554468
 13
151.3659292523
 23
31.4326554468
  0
SOLID
  8
0
 62
7
  6
CONTINUOUS
 10
151.0768668626
 20
31.4003926599
 11
151.3659292523
 21
31.4326554468
 12
151.1346793074
 22
31.3036013776
 13
151.1346793074
 23
31.3036013776
  0
SOLID
  8
0
 62
7
  6
CONTINUOUS
 10
151.3659292523
 20
31.4326554468
 11
151.4237418626
 21
31.3036013776
 12
151.1346793074
 22
31.3036013776
 13
151.1346793074
 23
31.3036013776
  0
SOLID
  8
0
 62
7
  6
CONTINUOUS
 10
152.4643666972
 20
31.5939739754
 11
152.6956168074
 21
31.6262382787
 12
152.9268669177
 22
31.6262382787
 13
152.9268669177
 23
31.6262382787
  0
SOLID
  8
0
 62
7
  6
CONTINUOUS
 10
152.9268669177
 20
31.6262382787
 11
153.1003044177
 21
31.5939739754
 12
152.4643666972
 22
31.5939739754
 13
152.4643666972
 23
31.5939739754
  0
SOLID
  8
0
 62
7
  6
CONTINUOUS
 10
152.2909293626
 20
31.5294468852
 11
152.4643666972
 21
31.5939739754
 12
153.1003044177
 22
31.5939739754
 13
153.1003044177
 23
31.5939739754
  0
SOLID
  8
0
 62
7
  6
CONTINUOUS
 10
153.1003044177
 20
31.5939739754
 11
153.2737419177
 21
31.5294468852
 12
152.2909293626
 22
31.5294468852
 13
152.2909293626
 23
31.5294468852
  0
SOLID
  8
0
 62
7
  6
CONTINUOUS
 10
153.2737419177
 20
31.5294468852
 11
152.6956168074
 21
31.4971825369
 12
152.2909293626
 22
31.5294468852
 13
152.2909293626
 23
31.5294468852
  0
SOLID
  8
0
 62
7
  6
CONTINUOUS
 10
152.1753043074
 20
31.4649197951
 11
152.2909293626
 21
31.5294468852
 12
152.6956168074
 22
31.4971825369
 13
152.6956168074
 23
31.4971825369
  0
SOLID
  8
0
 62
7
  6
CONTINUOUS
 10
152.6956168074
 20
31.4971825369
 11
152.4643666972
 21
31.4649197951
 12
152.1753043074
 22
31.4649197951
 13
152.1753043074
 23
31.4649197951
  0
SOLID
  8
0
 62
7
  6
CONTINUOUS
 10
152.6956168074
 20
31.4971825369
 11
153.2737419177
 21
31.5294468852
 12
152.9268669177
 22
31.4649197951
 13
152.9268669177
 23
31.4649197951
  0
SOLID
  8
0
 62
7
  6
CONTINUOUS
 10
153.2737419177
 20
31.5294468852
 11
153.3893668074
 21
31.4649197951
 12
152.9268669177
 22
31.4649197951
 13
152.9268669177
 23
31.4649197951
  0
SOLID
  8
0
 62
7
  6
CONTINUOUS
 10
153.0424918074
 20
31.4326554468
 11
152.9268669177
 21
31.4649197951
 12
153.3893668074
 22
31.4649197951
 13
153.3893668074
 23
31.4649197951
  0
SOLID
  8
0
 62
7
  6
CONTINUOUS
 10
153.3893668074
 20
31.4649197951
 11
153.4471794177
 21
31.4003927049
 12
153.0424918074
 22
31.4326554468
 13
153.0424918074
 23
31.4326554468
  0
SOLID
  8
0
 62
7
  6
CONTINUOUS
 10
153.1581166972
 20
31.3681283566
 11
153.0424918074
 21
31.4326554468
 12
153.4471794177
 22
31.4003927049
 13
153.4471794177
 23
31.4003927049
  0
SOLID
  8
0
 62
7
  6
CONTINUOUS
 10
153.1581166972
 20
31.3681283566
 11
153.4471794177
 21
31.4003927049
 12
153.2159293074
 22
31.2390742213
 13
153.2159293074
 23
31.2390742213
  0
SOLID
  8
0
 62
7
  6
CONTINUOUS
 10
153.4471794177
 20
31.4003927049
 11
153.5049916972
 21
31.2390742213
 12
153.2159293074
 22
31.2390742213
 13
153.2159293074
 23
31.2390742213
  0
SOLID
  8
0
 62
7
  6
CONTINUOUS
 10
152.4643666972
 20
31.4649197951
 11
152.2909293626
 21
31.4003927049
 12
152.1753043074
 22
31.4649197951
 13
152.1753043074
 23
31.4649197951
  0
SOLID
  8
0
 62
7
  6
CONTINUOUS
 10
152.2909293626
 20
31.4003927049
 11
152.1753043074
 21
31.3358640533
 12
152.1753043074
 22
31.4649197951
 13
152.1753043074
 23
31.4649197951
  0
SOLID
  8
0
 62
7
  6
CONTINUOUS
 10
152.1753043074
 20
31.3358640533
 11
151.8862417523
 21
30.5938002869
 12
152.1753043074
 22
31.4649197951
 13
152.1753043074
 23
31.4649197951
  0
SOLID
  8
0
 62
7
  6
CONTINUOUS
 10
152.1753043074
 20
31.4649197951
 11
151.8862417523
 21
30.5938002869
 12
152.1753043074
 22
32.1101937295
 13
152.1753043074
 23
32.1101937295
  0
SOLID
  8
0
 62
7
  6
CONTINUOUS
 10
151.8862417523
 20
30.5938002869
 11
151.8862417523
 21
32.1101937295
 12
152.1753043074
 22
32.1101937295
 13
152.1753043074
 23
32.1101937295
  0
SOLID
  8
0
 62
7
  6
CONTINUOUS
 10
152.1753043074
 20
31.3358640533
 11
152.1753043074
 21
30.5938002869
 12
151.8862417523
 22
30.5938002869
 13
151.8862417523
 23
30.5938002869
  0
SOLID
  8
0
 62
7
  6
CONTINUOUS
 10
153.2159293074
 20
30.5938002869
 11
153.2159293074
 21
31.2390742213
 12
153.5049916972
 22
31.2390742213
 13
153.5049916972
 23
31.2390742213
  0
SOLID
  8
0
 62
7
  6
CONTINUOUS
 10
153.5049916972
 20
31.2390742213
 11
153.5049916972
 21
30.5938002869
 12
153.2159293074
 22
30.5938002869
 13
153.2159293074
 23
30.5938002869
  0
SOLID
  8
0
 62
7
  6
CONTINUOUS
 10
154.2565543074
 20
31.5939738288
 11
154.6612419177
 21
31.6262385959
 12
155.0081169177
 22
31.6262385959
 13
155.0081169177
 23
31.6262385959
  0
SOLID
  8
0
 62
7
  6
CONTINUOUS
 10
155.0081169177
 20
31.6262385959
 11
155.3549915869
 21
31.5939738288
 12
154.2565543074
 22
31.5939738288
 13
154.2565543074
 23
31.5939738288
  0
SOLID
  8
0
 62
7
  6
CONTINUOUS
 10
154.1409294177
 20
31.5617111435
 11
154.2565543074
 21
31.5939738288
 12
155.3549915869
 22
31.5939738288
 13
155.3549915869
 23
31.5939738288
  0
SOLID
  8
0
 62
7
  6
CONTINUOUS
 10
155.3549915869
 20
31.5939738288
 11
155.5284290869
 21
31.5294468402
 12
154.1409294177
 22
31.5617111435
 13
154.1409294177
 23
31.5617111435
  0
SOLID
  8
0
 62
7
  6
CONTINUOUS
 10
154.0253041972
 20
31.4971826249
 11
154.1409294177
 21
31.5617111435
 12
155.5284290869
 22
31.5294468402
 13
155.5284290869
 23
31.5294468402
  0
SOLID
  8
0
 62
7
  6
CONTINUOUS
 10
154.0253041972
 20
31.4971826249
 11
155.5284290869
 21
31.5294468402
 12
154.6612419177
 22
31.4971826249
 13
154.6612419177
 23
31.4971826249
  0
SOLID
  8
0
 62
7
  6
CONTINUOUS
 10
154.6612419177
 20
31.4971826249
 11
155.5284290869
 21
31.5294468402
 12
155.0081169177
 22
31.4971826249
 13
155.0081169177
 23
31.4971826249
  0
SOLID
  8
0
 62
7
  6
CONTINUOUS
 10
155.0081169177
 20
31.4971826249
 11
155.5284290869
 21
31.5294468402
 12
155.239367028
 22
31.4649194065
 13
155.239367028
 23
31.4649194065
  0
SOLID
  8
0
 62
7
  6
CONTINUOUS
 10
155.5284290869
 20
31.5294468402
 11
155.6440543074
 21
31.4649194065
 12
155.239367028
 22
31.4649194065
 13
155.239367028
 23
31.4649194065
  0
SOLID
  8
0
 62
7
  6
CONTINUOUS
 10
153.9674919177
 20
31.4326554138
 11
154.0253041972
 21
31.4971826249
 12
154.6612419177
 22
31.4971826249
 13
154.6612419177
 23
31.4971826249
  0
SOLID
  8
0
 62
7
  6
CONTINUOUS
 10
155.3549915869
 20
31.4326554138
 11
155.239367028
 21
31.4649194065
 12
155.6440543074
 22
31.4649194065
 13
155.6440543074
 23
31.4649194065
  0
SOLID
  8
0
 62
7
  6
CONTINUOUS
 10
155.3549915869
 20
31.4326554138
 11
155.6440543074
 21
31.4649194065
 12
155.412804528
 22
31.3681282026
 13
155.412804528
 23
31.3681282026
  0
SOLID
  8
0
 62
7
  6
CONTINUOUS
 10
155.6440543074
 20
31.4649194065
 11
155.7018665869
 21
31.3681282026
 12
155.412804528
 22
31.3681282026
 13
155.412804528
 23
31.3681282026
  0
SOLID
  8
0
 62
7
  6
CONTINUOUS
 10
155.412804528
 20
31.2713369632
 11
155.412804528
 21
31.3681282026
 12
155.7018665869
 22
31.3681282026
 13
155.7018665869
 23
31.3681282026
  0
SOLID
  8
0
 62
7
  6
CONTINUOUS
 10
155.412804528
 20
31.2713369632
 11
155.7018665869
 21
31.3681282026
 12
155.412804528
 22
31.1422827828
 13
155.412804528
 23
31.1422827828
  0
SOLID
  8
0
 62
7
  6
CONTINUOUS
 10
155.412804528
 20
31.1422827828
 11
155.7018665869
 21
31.3681282026
 12
155.412804528
 22
30.9487004259
 13
155.412804528
 23
30.9487004259
  0
SOLID
  8
0
 62
7
  6
CONTINUOUS
 10
155.7018665869
 20
31.3681282026
 11
155.7018665869
 21
30.8519086025
 12
155.412804528
 22
30.9487004259
 13
155.412804528
 23
30.9487004259
  0
SOLID
  8
0
 62
7
  6
CONTINUOUS
 10
157.6096790869
 20
31.5939736268
 11
157.840929528
 21
31.6262383465
 12
158.0721793074
 22
31.6262383465
 13
158.0721793074
 23
31.6262383465
  0
SOLID
  8
0
 62
7
  6
CONTINUOUS
 10
158.0721793074
 20
31.6262383465
 11
158.2456168074
 21
31.5939736268
 12
157.6096790869
 22
31.5939736268
 13
157.6096790869
 23
31.5939736268
  0
SOLID
  8
0
 62
7
  6
CONTINUOUS
 10
157.4362415869
 20
31.5294472848
 11
157.6096790869
 21
31.5939736268
 12
158.2456168074
 22
31.5939736268
 13
158.2456168074
 23
31.5939736268
  0
SOLID
  8
0
 62
7
  6
CONTINUOUS
 10
158.2456168074
 20
31.5939736268
 11
158.4190543074
 21
31.5294472848
 12
157.4362415869
 22
31.5294472848
 13
157.4362415869
 23
31.5294472848
  0
SOLID
  8
0
 62
7
  6
CONTINUOUS
 10
158.4190543074
 20
31.5294472848
 11
157.840929528
 21
31.4971825369
 12
157.4362415869
 22
31.5294472848
 13
157.4362415869
 23
31.5294472848
  0
SOLID
  8
0
 62
7
  6
CONTINUOUS
 10
157.320617028
 20
31.4649199103
 11
157.4362415869
 21
31.5294472848
 12
157.840929528
 22
31.4971825369
 13
157.840929528
 23
31.4971825369
  0
SOLID
  8
0
 62
7
  6
CONTINUOUS
 10
157.840929528
 20
31.4971825369
 11
157.6096790869
 21
31.4649199103
 12
157.320617028
 22
31.4649199103
 13
157.320617028
 23
31.4649199103
  0
SOLID
  8
0
 62
7
  6
CONTINUOUS
 10
157.840929528
 20
31.4971825369
 11
158.4190543074
 21
31.5294472848
 12
158.0721793074
 22
31.4649199103
 13
158.0721793074
 23
31.4649199103
  0
SOLID
  8
0
 62
7
  6
CONTINUOUS
 10
158.4190543074
 20
31.5294472848
 11
158.534679528
 21
31.4649199103
 12
158.0721793074
 22
31.4649199103
 13
158.0721793074
 23
31.4649199103
  0
SOLID
  8
0
 62
7
  6
CONTINUOUS
 10
158.187804528
 20
31.4326554468
 11
158.0721793074
 21
31.4649199103
 12
158.534679528
 22
31.4649199103
 13
158.534679528
 23
31.4649199103
  0
SOLID
  8
0
 62
7
  6
CONTINUOUS
 10
158.187804528
 20
31.4326554468
 11
158.534679528
 21
31.4649199103
 12
158.3034290869
 22
31.3681288486
 13
158.3034290869
 23
31.3681288486
  0
SOLID
  8
0
 62
7
  6
CONTINUOUS
 10
158.534679528
 20
31.4649199103
 11
158.5924918074
 21
31.3681288486
 12
158.3034290869
 22
31.3681288486
 13
158.3034290869
 23
31.3681288486
  0
SOLID
  8
0
 62
7
  6
CONTINUOUS
 10
158.361242028
 20
31.2068093799
 11
158.3034290869
 21
31.3681288486
 12
158.5924918074
 22
31.3681288486
 13
158.5924918074
 23
31.3681288486
  0
SOLID
  8
0
 62
7
  6
CONTINUOUS
 10
158.5924918074
 20
31.3681288486
 11
158.6503040869
 21
31.2068093799
 12
158.361242028
 22
31.2068093799
 13
158.361242028
 23
31.2068093799
  0
SOLID
  8
0
 62
7
  6
CONTINUOUS
 10
157.6096790869
 20
31.4649199103
 11
157.4362415869
 21
31.4003926599
 12
157.320617028
 22
31.4649199103
 13
157.320617028
 23
31.4649199103
  0
SOLID
  8
0
 62
7
  6
CONTINUOUS
 10
157.4362415869
 20
31.4003926599
 11
157.320617028
 21
31.3358640533
 12
157.320617028
 22
31.4649199103
 13
157.320617028
 23
31.4649199103
  0
SOLID
  8
0
 62
7
  6
CONTINUOUS
 10
157.320617028
 20
31.3358640533
 11
157.0315543074
 21
30.5938003547
 12
157.320617028
 22
31.4649199103
 13
157.320617028
 23
31.4649199103
  0
SOLID
  8
0
 62
7
  6
CONTINUOUS
 10
157.320617028
 20
31.4649199103
 11
157.0315543074
 21
30.5938003547
 12
157.320617028
 22
31.6262383465
 13
157.320617028
 23
31.6262383465
  0
SOLID
  8
0
 62
7
  6
CONTINUOUS
 10
157.0315543074
 20
30.5938003547
 11
157.0315543074
 21
31.6262383465
 12
157.320617028
 22
31.6262383465
 13
157.320617028
 23
31.6262383465
  0
SOLID
  8
0
 62
7
  6
CONTINUOUS
 10
157.320617028
 20
31.3358640533
 11
157.320617028
 21
30.5938003547
 12
157.0315543074
 22
30.5938003547
 13
157.0315543074
 23
30.5938003547
  0
SOLID
  8
0
 62
7
  6
CONTINUOUS
 10
158.361242028
 20
30.5938003547
 11
158.361242028
 21
31.2068093799
 12
158.6503040869
 22
31.2068093799
 13
158.6503040869
 23
31.2068093799
  0
SOLID
  8
0
 62
7
  6
CONTINUOUS
 10
158.6503040869
 20
31.2068093799
 11
158.6503040869
 21
30.5938003547
 12
158.361242028
 22
30.5938003547
 13
158.361242028
 23
30.5938003547
  0
SOLID
  8
0
 62
7
  6
CONTINUOUS
 10
159.4596793074
 20
31.5939739474
 11
159.8065543074
 21
31.6262381969
 12
160.1534293074
 22
31.6262381969
 13
160.1534293074
 23
31.6262381969
  0
SOLID
  8
0
 62
7
  6
CONTINUOUS
 10
160.1534293074
 20
31.6262381969
 11
160.5003043074
 21
31.5939739474
 12
159.4596793074
 22
31.5939739474
 13
159.4596793074
 23
31.5939739474
  0
SOLID
  8
0
 62
7
  6
CONTINUOUS
 10
159.228429528
 20
31.5294468402
 11
159.4596793074
 21
31.5939739474
 12
160.5003043074
 22
31.5939739474
 13
160.5003043074
 23
31.5939739474
  0
SOLID
  8
0
 62
7
  6
CONTINUOUS
 10
159.228429528
 20
31.5294468402
 11
160.5003043074
 21
31.5939739304
 12
160.6737418074
 22
31.5617111435
 13
160.6737418074
 23
31.5617111435
  0
SOLID
  8
0
 62
7
  6
CONTINUOUS
 10
159.228429528
 20
31.5294468402
 11
160.6737418074
 21
31.5617111435
 12
159.8065543074
 22
31.4971825592
 13
159.8065543074
 23
31.4971825592
  0
SOLID
  8
0
 62
7
  6
CONTINUOUS
 10
159.8065543074
 20
31.4971825592
 11
160.6737418074
 21
31.5617111435
 12
160.1534293074
 22
31.4971825592
 13
160.1534293074
 23
31.4971825592
  0
SOLID
  8
0
 62
7
  6
CONTINUOUS
 10
160.6737418074
 20
31.5617111435
 11
160.8471793074
 21
31.4971825592
 12
160.1534293074
 22
31.4971825592
 13
160.1534293074
 23
31.4971825592
  0
SOLID
  8
0
 62
7
  6
CONTINUOUS
 10
160.5003043074
 20
31.4649197501
 11
160.1534293074
 21
31.4971825592
 12
160.8471793074
 22
31.4971825592
 13
160.8471793074
 23
31.4971825592
  0
SOLID
  8
0
 62
7
  6
CONTINUOUS
 10
159.1128043074
 20
31.4326555427
 11
159.228429528
 21
31.5294468402
 12
159.8065543074
 22
31.4971825592
 13
159.8065543074
 23
31.4971825592
  0
SOLID
  8
0
 62
7
  6
CONTINUOUS
 10
160.5003043074
 20
31.4649197501
 11
160.8471793074
 21
31.4971825592
 12
160.615929528
 22
31.4326555427
 13
160.615929528
 23
31.4326555427
  0
SOLID
  8
0
 62
7
  6
CONTINUOUS
 10
160.615929528
 20
31.4326555427
 11
160.8471793074
 21
31.4971825592
 12
160.6737418074
 22
31.3681283005
 13
160.6737418074
 23
31.3681283005
  0
SOLID
  8
0
 62
7
  6
CONTINUOUS
 10
160.8471793074
 20
31.4971825592
 11
160.9628038663
 21
31.3681283005
 12
160.6737418074
 22
31.3681283005
 13
160.6737418074
 23
31.3681283005
  0
SOLID
  8
0
 62
7
  6
CONTINUOUS
 10
150.2674918074
 20
31.4649197501
 11
149.7471793074
 21
31.4326554237
 12
150.498741835
 22
31.4971824493
 13
150.498741835
 23
31.4971824493
  0
SOLID
  8
0
 62
7
  6
CONTINUOUS
 10
149.7471793074
 20
31.4326554237
 11
149.8628043005
 21
31.4971824493
 12
150.498741835
 22
31.4971824493
 13
150.498741835
 23
31.4971824493
  0
SOLID
  8
0
 62
7
  6
CONTINUOUS
 10
150.2674918074
 20
31.4649197501
 11
150.1518667936
 21
31.4326554237
 12
149.7471793074
 22
31.4326554237
 13
149.7471793074
 23
31.4326554237
  0
SOLID
  8
0
 62
7
  6
CONTINUOUS
 10
149.6315543091
 20
31.3036012664
 11
149.7471793074
 21
31.4326554237
 12
150.1518667936
 22
31.4326554237
 13
150.1518667936
 23
31.4326554237
  0
SOLID
  8
0
 62
7
  6
CONTINUOUS
 10
153.9674919177
 20
31.4326554237
 11
154.6612419177
 21
31.4971825369
 12
154.4299918074
 22
31.4649197501
 13
154.4299918074
 23
31.4649197501
  0
SOLID
  8
0
 62
7
  6
CONTINUOUS
 10
154.4299918074
 20
31.4649197501
 11
154.3143669177
 21
31.4326554237
 12
153.9674919177
 22
31.4326554237
 13
153.9674919177
 23
31.4326554237
  0
SOLID
  8
0
 62
7
  6
CONTINUOUS
 10
153.9674919177
 20
31.3681283335
 11
153.9674919177
 21
31.4326554237
 12
154.3143669177
 22
31.4326554237
 13
154.3143669177
 23
31.4326554237
  0
SOLID
  8
0
 62
7
  6
CONTINUOUS
 10
154.3143669177
 20
31.4326554237
 11
154.2565543074
 21
31.3681283335
 12
153.9674919177
 22
31.3681283335
 13
153.9674919177
 23
31.3681283335
  0
SOLID
  8
0
 62
7
  6
CONTINUOUS
 10
159.1128043074
 20
31.4326555528
 11
159.8065543074
 21
31.4971825369
 12
159.575304528
 22
31.4649197501
 13
159.575304528
 23
31.4649197501
  0
SOLID
  8
0
 62
7
  6
CONTINUOUS
 10
159.575304528
 20
31.4649197501
 11
159.4596793074
 21
31.4326555528
 12
159.1128043074
 22
31.4326555528
 13
159.1128043074
 23
31.4326555528
  0
SOLID
  8
0
 62
7
  6
CONTINUOUS
 10
159.1128043074
 20
31.3681284626
 11
159.1128043074
 21
31.4326555528
 12
159.4596793074
 22
31.4326555528
 13
159.4596793074
 23
31.4326555528
  0
SOLID
  8
0
 62
7
  6
CONTINUOUS
 10
159.4596793074
 20
31.4326555528
 11
159.401867028
 21
31.3681284626
 12
159.1128043074
 22
31.3681284626
 13
159.1128043074
 23
31.3681284626
  0
SOLID
  8
0
 62
7
  6
CONTINUOUS
 10
159.228429528
 20
31.2390741763
 11
159.1128043074
 21
31.3681284626
 12
159.401867028
 22
31.3681284626
 13
159.401867028
 23
31.3681284626
  0
SOLID
  8
0
 62
7
  6
CONTINUOUS
 10
149.6315543091
 20
31.3036012664
 11
150.1518667936
 21
31.4326554468
 12
149.9784292936
 22
31.3358640533
 13
149.9784292936
 23
31.3358640533
  0
SOLID
  8
0
 62
7
  6
CONTINUOUS
 10
149.9784292936
 20
31.3358640533
 11
149.9206168074
 21
31.2713369632
 12
149.6315543091
 22
31.3036012664
 13
149.6315543091
 23
31.3036012664
  0
SOLID
  8
0
 62
7
  6
CONTINUOUS
 10
149.5737418074
 20
31.1100184796
 11
149.6315543091
 21
31.3036012664
 12
149.9206168074
 22
31.2713369632
 13
149.9206168074
 23
31.2713369632
  0
SOLID
  8
0
 62
7
  6
CONTINUOUS
 10
154.4299918074
 20
31.2390741763
 11
154.7768668074
 21
31.271336924
 12
155.412804528
 22
31.271336924
 13
155.412804528
 23
31.271336924
  0
SOLID
  8
0
 62
7
  6
CONTINUOUS
 10
154.4299918074
 20
31.2390741763
 11
155.412804528
 21
31.271336924
 12
154.1987416972
 22
31.1745462761
 13
154.1987416972
 23
31.1745462761
  0
SOLID
  8
0
 62
7
  6
CONTINUOUS
 10
154.1987416972
 20
31.1745462761
 11
155.412804528
 21
31.271336924
 12
154.7768668074
 22
31.1422827436
 13
154.7768668074
 23
31.1422827436
  0
SOLID
  8
0
 62
7
  6
CONTINUOUS
 10
155.412804528
 20
31.271336924
 11
155.412804528
 21
31.1422827436
 12
154.7768668074
 22
31.1422827436
 13
154.7768668074
 23
31.1422827436
  0
SOLID
  8
0
 62
7
  6
CONTINUOUS
 10
159.228429528
 20
31.2390745501
 11
159.401867028
 21
31.3681283566
 12
159.4596793074
 22
31.3036012664
 13
159.4596793074
 23
31.3036012664
  0
SOLID
  8
0
 62
7
  6
CONTINUOUS
 10
159.4596793074
 20
31.3036012664
 11
159.6331168074
 21
31.2390745501
 12
159.228429528
 22
31.2390745501
 13
159.228429528
 23
31.2390745501
  0
SOLID
  8
0
 62
7
  6
CONTINUOUS
 10
159.4596793074
 20
31.1422827828
 11
159.228429528
 21
31.2390745501
 12
159.6331168074
 22
31.2390745501
 13
159.6331168074
 23
31.2390745501
  0
SOLID
  8
0
 62
7
  6
CONTINUOUS
 10
159.6331168074
 20
31.2390745501
 11
160.615929528
 21
31.0777556927
 12
159.4596793074
 22
31.1422827828
 13
159.4596793074
 23
31.1422827828
  0
SOLID
  8
0
 62
7
  6
CONTINUOUS
 10
160.442492028
 20
30.9809646623
 11
159.4596793074
 21
31.1422827828
 12
160.615929528
 22
31.0777556927
 13
160.615929528
 23
31.0777556927
  0
SOLID
  8
0
 62
7
  6
CONTINUOUS
 10
160.615929528
 20
31.0777556927
 11
160.8471793074
 21
30.9809646623
 12
160.442492028
 22
30.9809646623
 13
160.442492028
 23
30.9809646623
  0
SOLID
  8
0
 62
7
  6
CONTINUOUS
 10
160.615929528
 20
30.9164372091
 11
160.442492028
 21
30.9809646623
 12
160.8471793074
 22
30.9809646623
 13
160.8471793074
 23
30.9809646623
  0
SOLID
  8
0
 62
7
  6
CONTINUOUS
 10
160.615929528
 20
30.9164372091
 11
160.8471793074
 21
30.9809646623
 12
160.6737418074
 22
30.8519089441
 13
160.6737418074
 23
30.8519089441
  0
SOLID
  8
0
 62
7
  6
CONTINUOUS
 10
160.8471793074
 20
30.9809646623
 11
160.9628038663
 21
30.8519089441
 12
160.6737418074
 22
30.8519089441
 13
160.6737418074
 23
30.8519089441
  0
SOLID
  8
0
 62
7
  6
CONTINUOUS
 10
160.615929528
 20
30.7873818593
 11
160.6737418074
 21
30.8519089441
 12
160.9628038663
 22
30.8519089441
 13
160.9628038663
 23
30.8519089441
  0
SOLID
  8
0
 62
7
  6
CONTINUOUS
 10
160.9628038663
 20
30.8519089441
 11
160.9628038663
 21
30.7873818593
 12
160.615929528
 22
30.7873818593
 13
160.615929528
 23
30.7873818593
  0
SOLID
  8
0
 62
7
  6
CONTINUOUS
 10
160.5003043074
 20
30.7551187255
 11
160.615929528
 21
30.7873818593
 12
160.9628038663
 22
30.7873818593
 13
160.9628038663
 23
30.7873818593
  0
SOLID
  8
0
 62
7
  6
CONTINUOUS
 10
160.5003043074
 20
30.7551187255
 11
160.9628038663
 21
30.7873818593
 12
160.269054528
 22
30.7228547745
 13
160.269054528
 23
30.7228547745
  0
SOLID
  8
0
 62
7
  6
CONTINUOUS
 10
160.9628038663
 20
30.7873818593
 11
160.8471793074
 21
30.6905916353
 12
160.269054528
 22
30.7228547745
 13
160.269054528
 23
30.7228547745
  0
SOLID
  8
0
 62
7
  6
CONTINUOUS
 10
160.8471793074
 20
30.6905916353
 11
159.401867028
 21
30.658327332
 12
160.269054528
 22
30.7228547745
 13
160.269054528
 23
30.7228547745
  0
SOLID
  8
0
 62
7
  6
CONTINUOUS
 10
160.269054528
 20
30.7228547745
 11
159.401867028
 21
30.658327332
 12
159.922179528
 22
30.7228547745
 13
159.922179528
 23
30.7228547745
  0
SOLID
  8
0
 62
7
  6
CONTINUOUS
 10
159.401867028
 20
30.658327332
 11
159.228429528
 21
30.7228547745
 12
159.922179528
 22
30.7228547745
 13
159.922179528
 23
30.7228547745
  0
SOLID
  8
0
 62
7
  6
CONTINUOUS
 10
159.401867028
 20
30.658327332
 11
160.8471793074
 21
30.6905916353
 12
159.575304528
 22
30.6260629858
 13
159.575304528
 23
30.6260629858
  0
SOLID
  8
0
 62
7
  6
CONTINUOUS
 10
160.8471793074
 20
30.6905916353
 11
160.615929528
 21
30.6260629858
 12
159.575304528
 22
30.6260629858
 13
159.575304528
 23
30.6260629858
  0
SOLID
  8
0
 62
7
  6
CONTINUOUS
 10
159.922179528
 20
30.5938006049
 11
159.575304528
 21
30.6260629858
 12
160.615929528
 22
30.6260629858
 13
160.615929528
 23
30.6260629858
  0
SOLID
  8
0
 62
7
  6
CONTINUOUS
 10
160.615929528
 20
30.6260629858
 11
160.269054528
 21
30.5938006049
 12
159.922179528
 22
30.5938006049
 13
159.922179528
 23
30.5938006049
  0
SOLID
  8
0
 62
7
  6
CONTINUOUS
 10
149.5737418074
 20
31.1100184796
 11
149.9206168074
 21
31.2713369632
 12
149.8628043005
 22
31.1422827828
 13
149.8628043005
 23
31.1422827828
  0
SOLID
  8
0
 62
7
  6
CONTINUOUS
 10
149.8628043005
 20
31.1422827828
 11
149.8628043005
 21
31.0454914852
 12
149.5737418074
 22
31.1100184796
 13
149.5737418074
 23
31.1100184796
  0
SOLID
  8
0
 62
7
  6
CONTINUOUS
 10
149.6315543091
 20
30.9164372091
 11
149.5737418074
 21
31.1100184796
 12
149.8628043005
 22
31.0454914852
 13
149.8628043005
 23
31.0454914852
  0
SOLID
  8
0
 62
7
  6
CONTINUOUS
 10
149.8628043005
 20
31.0454914852
 11
149.9784292936
 21
30.8841729058
 12
149.6315543091
 22
30.9164372091
 13
149.6315543091
 23
30.9164372091
  0
SOLID
  8
0
 62
7
  6
CONTINUOUS
 10
149.7471793074
 20
30.7873813202
 11
149.6315543091
 21
30.9164372091
 12
149.9784292936
 22
30.8841729058
 13
149.9784292936
 23
30.8841729058
  0
SOLID
  8
0
 62
7
  6
CONTINUOUS
 10
149.9784292936
 20
30.8841729058
 11
150.1518667936
 21
30.7873813202
 12
149.7471793074
 22
30.7873813202
 13
149.7471793074
 23
30.7873813202
  0
SOLID
  8
0
 62
7
  6
CONTINUOUS
 10
149.8628043005
 20
30.7228547004
 11
149.7471793074
 21
30.7873813202
 12
150.1518667936
 22
30.7873813202
 13
150.1518667936
 23
30.7873813202
  0
SOLID
  8
0
 62
7
  6
CONTINUOUS
 10
150.1518667936
 20
30.7873813202
 11
150.498741835
 21
30.7228547004
 12
149.8628043005
 22
30.7228547004
 13
149.8628043005
 23
30.7228547004
  0
SOLID
  8
0
 62
7
  6
CONTINUOUS
 10
150.0362418212
 20
30.658327332
 11
149.8628043005
 21
30.7228547004
 12
150.498741835
 22
30.7228547004
 13
150.498741835
 23
30.7228547004
  0
SOLID
  8
0
 62
7
  6
CONTINUOUS
 10
154.0831168074
 20
31.1100184386
 11
154.1987416972
 21
31.1745462761
 12
154.7768668074
 22
31.1422827828
 13
154.7768668074
 23
31.1422827828
  0
SOLID
  8
0
 62
7
  6
CONTINUOUS
 10
154.7768668074
 20
31.1422827828
 11
154.5456166972
 21
31.1100184386
 12
154.0831168074
 22
31.1100184386
 13
154.0831168074
 23
31.1100184386
  0
SOLID
  8
0
 62
7
  6
CONTINUOUS
 10
153.9674919177
 20
30.9809642992
 11
154.0831168074
 21
31.1100184386
 12
154.5456166972
 22
31.1100184386
 13
154.5456166972
 23
31.1100184386
  0
SOLID
  8
0
 62
7
  6
CONTINUOUS
 10
154.3143669177
 20
31.0132277988
 11
153.9674919177
 21
30.9809642992
 12
154.4299918074
 22
31.0777556927
 13
154.4299918074
 23
31.0777556927
  0
SOLID
  8
0
 62
7
  6
CONTINUOUS
 10
153.9674919177
 20
30.9809642992
 11
154.5456166972
 21
31.1100184796
 12
154.4299918074
 22
31.0777556927
 13
154.4299918074
 23
31.0777556927
  0
SOLID
  8
0
 62
7
  6
CONTINUOUS
 10
154.3143669177
 20
31.0132277988
 11
154.2565543074
 21
30.9164372091
 12
153.9674919177
 22
30.9809642992
 13
153.9674919177
 23
30.9809642992
  0
SOLID
  8
0
 62
7
  6
CONTINUOUS
 10
153.9674919177
 20
30.8841729058
 11
153.9674919177
 21
30.9809642992
 12
154.2565543074
 22
30.9164372091
 13
154.2565543074
 23
30.9164372091
  0
SOLID
  8
0
 62
7
  6
CONTINUOUS
 10
154.2565543074
 20
30.9164372091
 11
154.2565543074
 21
30.8519086025
 12
153.9674919177
 22
30.8841729058
 13
153.9674919177
 23
30.8841729058
  0
SOLID
  8
0
 62
7
  6
CONTINUOUS
 10
154.0253041972
 20
30.7551187255
 11
153.9674919177
 21
30.8841729058
 12
154.2565543074
 22
30.8519086025
 13
154.2565543074
 23
30.8519086025
  0
SOLID
  8
0
 62
7
  6
CONTINUOUS
 10
155.412804528
 20
30.9487004259
 11
155.7018665869
 21
30.8519086025
 12
155.3549915869
 22
30.8841729058
 13
155.3549915869
 23
30.8841729058
  0
SOLID
  8
0
 62
7
  6
CONTINUOUS
 10
155.1815540869
 20
30.7873815123
 11
155.3549915869
 21
30.8841729058
 12
155.7018665869
 22
30.8519086025
 13
155.7018665869
 23
30.8519086025
  0
SOLID
  8
0
 62
7
  6
CONTINUOUS
 10
155.1815540869
 20
30.7873815123
 11
155.7018665869
 21
30.8519086025
 12
155.412804528
 22
30.7551187255
 13
155.412804528
 23
30.7551187255
  0
SOLID
  8
0
 62
7
  6
CONTINUOUS
 10
155.7018665869
 20
30.8519086025
 11
155.759679528
 21
30.6905916353
 12
155.412804528
 22
30.7551187255
 13
155.412804528
 23
30.7551187255
  0
SOLID
  8
0
 62
7
  6
CONTINUOUS
 10
155.4706168074
 20
30.658327332
 11
155.412804528
 21
30.7551187255
 12
155.759679528
 22
30.6905916353
 13
155.759679528
 23
30.6905916353
  0
SOLID
  8
0
 62
7
  6
CONTINUOUS
 10
155.4706168074
 20
30.658327332
 11
155.759679528
 21
30.6905916353
 12
155.5284290869
 22
30.5938002079
 13
155.5284290869
 23
30.5938002079
  0
SOLID
  8
0
 62
7
  6
CONTINUOUS
 10
155.759679528
 20
30.6905916353
 11
155.8174918074
 21
30.5938002079
 12
155.5284290869
 22
30.5938002079
 13
155.5284290869
 23
30.5938002079
  0
SOLID
  8
0
 62
7
  6
CONTINUOUS
 10
151.0768668626
 20
30.8196456577
 11
151.1346793074
 21
30.9164373395
 12
151.4237418626
 22
30.9164373395
 13
151.4237418626
 23
30.9164373395
  0
SOLID
  8
0
 62
7
  6
CONTINUOUS
 10
151.4237418626
 20
30.9164373395
 11
151.3659292523
 21
30.7873815123
 12
151.0768668626
 22
30.8196456577
 13
151.0768668626
 23
30.8196456577
  0
SOLID
  8
0
 62
7
  6
CONTINUOUS
 10
150.9034292799
 20
30.7551187255
 11
151.0768668626
 21
30.8196456577
 12
151.3659292523
 22
30.7873815123
 13
151.3659292523
 23
30.7873815123
  0
SOLID
  8
0
 62
7
  6
CONTINUOUS
 10
150.9034292799
 20
30.7551187255
 11
151.3659292523
 21
30.7873815123
 12
150.498741835
 22
30.7228544222
 13
150.498741835
 23
30.7228544222
  0
SOLID
  8
0
 62
7
  6
CONTINUOUS
 10
151.3659292523
 20
30.7873815123
 11
151.1924917523
 21
30.6905916353
 12
150.498741835
 22
30.7228544222
 13
150.498741835
 23
30.7228544222
  0
SOLID
  8
0
 62
7
  6
CONTINUOUS
 10
150.0362418212
 20
30.658327332
 11
150.498741835
 21
30.7228544222
 12
151.1924917523
 22
30.6905916353
 13
151.1924917523
 23
30.6905916353
  0
SOLID
  8
0
 62
7
  6
CONTINUOUS
 10
150.0362418212
 20
30.658327332
 11
151.1924917523
 21
30.6905916353
 12
150.2096793212
 22
30.6260631011
 13
150.2096793212
 23
30.6260631011
  0
SOLID
  8
0
 62
7
  6
CONTINUOUS
 10
151.1924917523
 20
30.6905916353
 11
150.9612418074
 21
30.6260631011
 12
150.2096793212
 22
30.6260631011
 13
150.2096793212
 23
30.6260631011
  0
SOLID
  8
0
 62
7
  6
CONTINUOUS
 10
150.5565542799
 20
30.5938002419
 11
150.2096793212
 21
30.6260631011
 12
150.9612418074
 22
30.6260631011
 13
150.9612418074
 23
30.6260631011
  0
SOLID
  8
0
 62
7
  6
CONTINUOUS
 10
154.0253041972
 20
30.7551187255
 11
154.2565543074
 21
30.8519086025
 12
154.3143669177
 22
30.7873815123
 13
154.3143669177
 23
30.7873815123
  0
SOLID
  8
0
 62
7
  6
CONTINUOUS
 10
154.3143669177
 20
30.7873815123
 11
154.5456166972
 21
30.7228544222
 12
154.0253041972
 22
30.7551187255
 13
154.0253041972
 23
30.7551187255
  0
SOLID
  8
0
 62
7
  6
CONTINUOUS
 10
154.1987416972
 20
30.658327332
 11
154.0253041972
 21
30.7551187255
 12
154.5456166972
 22
30.7228544222
 13
154.5456166972
 23
30.7228544222
  0
SOLID
  8
0
 62
7
  6
CONTINUOUS
 10
154.8924916972
 20
30.7228544637
 11
155.1815540869
 21
30.7873815123
 12
155.412804528
 22
30.7551187255
 13
155.412804528
 23
30.7551187255
  0
SOLID
  8
0
 62
7
  6
CONTINUOUS
 10
155.412804528
 20
30.7551187255
 11
155.3549915869
 21
30.6905916353
 12
154.8924916972
 22
30.7228544637
 13
154.8924916972
 23
30.7228544637
  0
SOLID
  8
0
 62
7
  6
CONTINUOUS
 10
155.3549915869
 20
30.6905916353
 11
154.1987416972
 21
30.658327332
 12
154.8924916972
 22
30.7228544637
 13
154.8924916972
 23
30.7228544637
  0
SOLID
  8
0
 62
7
  6
CONTINUOUS
 10
154.1987416972
 20
30.658327332
 11
154.5456166972
 21
30.7228544637
 12
154.8924916972
 22
30.7228544637
 13
154.8924916972
 23
30.7228544637
  0
SOLID
  8
0
 62
7
  6
CONTINUOUS
 10
154.1987416972
 20
30.658327332
 11
155.3549915869
 21
30.6905916353
 12
154.3143669177
 22
30.6260630541
 13
154.3143669177
 23
30.6260630541
  0
SOLID
  8
0
 62
7
  6
CONTINUOUS
 10
155.3549915869
 20
30.6905916353
 11
155.1815540869
 21
30.6260630541
 12
154.3143669177
 22
30.6260630541
 13
154.3143669177
 23
30.6260630541
  0
SOLID
  8
0
 62
7
  6
CONTINUOUS
 10
154.5456166972
 20
30.5938002188
 11
154.3143669177
 21
30.6260630541
 12
155.1815540869
 22
30.6260630541
 13
155.1815540869
 23
30.6260630541
  0
SOLID
  8
0
 62
7
  6
CONTINUOUS
 10
155.1815540869
 20
30.6260630541
 11
154.8924916972
 21
30.5938002188
 12
154.5456166972
 22
30.5938002188
 13
154.5456166972
 23
30.5938002188
  0
SOLID
  8
0
 62
7
  6
CONTINUOUS
 10
159.575304528
 20
30.7551187255
 11
159.228429528
 21
30.7228544637
 12
159.4596793074
 22
30.7873815123
 13
159.4596793074
 23
30.7873815123
  0
SOLID
  8
0
 62
7
  6
CONTINUOUS
 10
159.4596793074
 20
30.7873815123
 11
159.228429528
 21
30.7228544637
 12
159.401867028
 22
30.851908644
 13
159.401867028
 23
30.851908644
  0
SOLID
  8
0
 62
7
  6
CONTINUOUS
 10
159.228429528
 20
30.7228544637
 11
159.1128043074
 21
30.851908644
 12
159.401867028
 22
30.851908644
 13
159.401867028
 23
30.851908644
  0
SOLID
  8
0
 62
7
  6
CONTINUOUS
 10
159.575304528
 20
30.7551187255
 11
159.922179528
 21
30.7228544637
 12
159.228429528
 22
30.7228544637
 13
159.228429528
 23
30.7228544637
  0
SOLID
  8
0
 62
7
  6
CONTINUOUS
 10
156.279992028
 20
30.5938002419
 11
156.279992028
 21
31.6262382337
 12
156.5690540869
 22
30.5938002419
 13
156.5690540869
 23
31.6262382337
  0
ENDBLK
  8
0
  6
BYBLOCK
 62
0
  0
BLOCK
  8
0
 62
2
  6
CONTINUOUS
  2
SYMBOL_3_BL0
 70
64
 10
32.1213064866
 20
19.8534310916
  0
TEXT
  8
0
 62
7
  6
CONTINUOUS
 10
18.3860103289
 20
19.2268451992
  7
TEXTSTYLE_3
 40
2.7338706658
  1
Ammeraal Beltech
 41
1.0
 51
15.0
 72
0
  0
TEXT
  8
0
 62
7
  6
CONTINUOUS
 10
29.1868111546
 20
16.9533085264
  7
TEXTSTYLE_4
 40
1.0935482663
  1
Innovation & Service in Belting
 41
1.0
 72
0
  0
LINE
  8
0
 62
7
  6
CONTINUOUS
 10
12.3614696776
 20
19.9934385078
 11
13.1396216709
 21
23.6543558055
  0
LINE
  8
0
 62
7
  6
CONTINUOUS
 10
23.2347899607
 20
27.3177497171
 11
13.6274394139
 21
24.1961322958
  0
LINE
  8
0
 62
7
  6
CONTINUOUS
 10
12.5867530099
 20
19.3000877048
 11
20.093828271
 21
12.5406867788
  0
LINE
  8
0
 62
7
  6
CONTINUOUS
 10
12.8492874206
 20
20.5352149982
 11
23.6575567857
 21
24.0470345971
  0
LINE
  8
0
 62
7
  6
CONTINUOUS
 10
23.6533516486
 20
13.6972460334
 11
15.2078919798
 21
21.3015720751
  0
LINE
  8
0
 62
7
  6
CONTINUOUS
 10
24.1731743684
 20
26.4728246013
 11
23.1966148312
 21
21.8784731989
  0
LINE
  8
0
 62
7
  6
CONTINUOUS
 10
22.4968128835
 20
18.5861638851
 11
21.810364672
 21
15.3566789607
  0
LINE
  8
0
 62
7
  6
CONTINUOUS
 10
24.8542704669
 20
14.087448211
 11
25.8105020025
 21
18.5861638851
  0
LINE
  8
0
 62
7
  6
CONTINUOUS
 10
26.5103039502
 20
21.8784731989
 11
26.9545457526
 21
23.9684665583
  0
LINE
  8
0
 62
7
  6
CONTINUOUS
 10
20.8069293463
 20
12.3891124661
 11
24.3664527239
 21
13.5456717207
  0
LINE
  8
0
 62
7
  6
CONTINUOUS
 10
23.9478910361
 20
27.1661754044
 11
26.7292624203
 21
24.6618173613
  0
ARC
  8
0
 62
7
  6
CONTINUOUS
 10
13.8527227462
 20
23.5027814928
 40
0.7290321776
 50
108.0
 51
168.0
  0
ARC
  8
0
 62
7
  6
CONTINUOUS
 10
23.4600732931
 20
26.624398914
 40
0.7290321776
 50
348.0
 51
108.0
  0
ARC
  8
0
 62
7
  6
CONTINUOUS
 10
26.2414446773
 20
24.120040871
 40
0.7290321776
 50
348.0
 51
48.0
  0
ARC
  8
0
 62
7
  6
CONTINUOUS
 10
20.581646014
 20
13.0824632691
 40
0.7290321776
 50
228.0
 51
288.0
  0
ARC
  8
0
 62
7
  6
CONTINUOUS
 10
13.0745707529
 20
19.8418641951
 40
0.7290321776
 50
108.0
 51
228.0
  0
ARC
  8
0
 62
7
  6
CONTINUOUS
 10
24.1411693916
 20
14.2390225237
 40
0.7290321776
 50
228.0
 51
348.0
  0
ENDBLK
  8
0
  6
BYBLOCK
 62
0
  0
ENDSEC
  0
SECTION
  2
ENTITIES
  0
TEXT
  8
0
 62
5
  6
CONTINUOUS
 10
96.0
 20
25.636
  7
TEXTSTYLE_2
 40
2.8
  1
Scale :
 41
0.6
 51
0.000019
 72
0
  0
TEXT
  8
0
 62
5
  6
CONTINUOUS
 10
116.0
 20
25.636
  7
TEXTSTYLE_2
 40
2.8
  1
Belt type:
 41
0.6
 51
0.000019
 72
0
  0
INSERT
  8
0
 62
2
  6
CONTINUOUS
  2
SYMBOL_3_BL0
 10
32.1213064866
 20
19.8534310916
  0
INSERT
  8
0
 62
2
  6
CONTINUOUS
  2
SYMBOL_8_BL1
 10
173.5956734183
 20
35.5937998301
  0
LINE
  8
0
 62
2
  6
CONTINUOUS
 10
10.0
 20
30.0
 11
200.0
 21
30.0
  0
LINE
  8
0
 62
2
  6
CONTINUOUS
 10
10.0
 20
30.0
 11
10.0
 21
10.0
  0
LINE
  8
0
 62
2
  6
CONTINUOUS
 10
10.0
 20
10.0
 11
200.0
 21
10.0
  0
LINE
  8
0
 62
2
  6
CONTINUOUS
 10
95.0
 20
30.0
 11
95.0
 21
10.0
  0
LINE
  8
0
 62
2
  6
CONTINUOUS
 10
115.0
 20
30.0
 11
115.0
 21
10.0
  0
LINE
  8
0
 62
2
  6
CONTINUOUS
 10
200.0
 20
30.0
 11
200.0
 21
10.0
  0
TEXT
  8
0
 62
5
  6
CONTINUOUS
 10
13.0
 20
23.303
  7
TEXTSTYLE_5
 40
1.52
  1
                                                                     Ammeraal Beltech Modular A/S
 41
1.0
 72
0
  0
TEXT
  8
0
 62
5
  6
CONTINUOUS
 10
13.0
 20
20.595
  7
TEXTSTYLE_5
 40
1.5
  1
                                                                      Hjulmagervej 21,  7100 Vejle,  DK
 41
1.0
 72
0
  0
TEXT
  8
0
 62
5
  6
CONTINUOUS
 10
13.0
 20
17.881
  7
TEXTSTYLE_5
 40
1.495
  1
                                                                      tel: 
 41
1.0
 72
0
  0
TEXT
  8
0
 62
5
  6
CONTINUOUS
 10
57.9869465649
 20
17.881
  7
TEXTSTYLE_5
 40
1.51
  1
+45 75723100     fax: +45 75723348
 41
1.0
 72
0
  0
TEXT
  8
0
 62
5
  6
CONTINUOUS
 10
13.0
 20
15.177
  7
TEXTSTYLE_5
 40
1.5
  1
                                                                      admin@unichains.dk  www.unichains.com
 41
1.0
 72
0
  0
TEXT
  8
0
 62
5
  6
CONTINUOUS
 10
99.75
 20
13.75
  7
TEXTSTYLE_6
 40
5.0
  1
1:1
 41
0.7
 72
1
 11
105.0
 21
13.75
  0
TEXT
  8
0
 62
5
  6
CONTINUOUS
 10
118.0
 20
13.75
  7
TEXTSTYLE_7
 40
7.5
  1
Sprocket Z09
 41
0.6694444444
 72
0
  0
LINE
  8
0
 62
7
  6
CONTINUOUS
 10
210.0
 20
0.0
 11
0.0
 21
0.0
  0
LINE
  8
0
 62
7
  6
CONTINUOUS
 10
10.0
 20
10.0
 11
200.0
 21
10.0
  0
LINE
  8
0
 62
7
  6
CONTINUOUS
 10
10.0
 20
30.0
 11
200.0
 21
30.0
  0
LINE
  8
0
 62
7
  6
CONTINUOUS
 10
0.0
 20
0.0
 11
0.0
 21
297.0
  0
LINE
  8
0
 62
7
  6
CONTINUOUS
 10
10.0
 20
10.0
 11
10.0
 21
287.0
  0
LINE
  8
0
 62
7
  6
CONTINUOUS
 10
200.0
 20
287.0
 11
200.0
 21
10.0
  0
LINE
  8
0
 62
7
  6
CONTINUOUS
 10
210.0
 20
0.0
 11
210.0
 21
297.0
  0
LINE
  8
0
 62
7
  6
CONTINUOUS
 10
10.0
 20
287.0
 11
200.0
 21
287.0
  0
LINE
  8
0
 62
7
  6
CONTINUOUS
 10
0.0
 20
297.0
 11
210.0
 21
297.0
  0
POLYLINE
  8
0
 62
7
  6
CONTINUOUS
 66
1
 70
0
  0
VERTEX
  8
0
 62
7
  6
CONTINUOUS
 10
63.0715948768
 20
224.6395417584
  0
VERTEX
  8
0
 62
7
  6
CONTINUOUS
 10
63.0852596676
 20
224.4809456527
  0
VERTEX
  8
0
 62
7
  6
CONTINUOUS
 10
63.1230270975
 20
224.3383331651
  0
VERTEX
  8
0
 62
7
  6
CONTINUOUS
 10
63.1808996047
 20
224.2119271902
  0
SEQEND
  0
LINE
  8
DEFAULT_2
 62
8
  6
HIDDEN
 10
63.0715948769
 20
229.2819069728
 11
63.0838078712
 21
229.128114776
  0
LINE
  8
0
 62
7
  6
CONTINUOUS
 10
63.0715948765
 20
224.6396275007
 11
63.0715948765
 21
229.2818157453
  0
LINE
  8
0
 62
7
  6
CONTINUOUS
 10
63.0715948765
 20
237.3396275007
 11
63.0715948765
 21
241.9818157453
  0
LINE
  8
DEFAULT_2
 62
8
  6
HIDDEN
 10
63.0838078712
 20
224.7933294253
 11
63.0838078712
 21
229.128114776
  0
LINE
  8
DEFAULT_2
 62
8
  6
HIDDEN
 10
63.0838078712
 20
237.4933294253
 11
63.0838078712
 21
241.828114776
  0
LINE
  8
DEFAULT_2
 62
8
  6
HIDDEN
 10
63.0838078712
 20
237.4933294253
 11
63.0715948768
 21
237.3395417584
  0
POLYLINE
  8
DEFAULT_2
 62
8
  6
HIDDEN
 66
1
 70
0
  0
VERTEX
  8
DEFAULT_2
 62
8
  6
HIDDEN
 10
63.3193305001
 20
241.828114776
  0
VERTEX
  8
DEFAULT_2
 62
8
  6
HIDDEN
 10
63.3629959302
 20
241.9870959114
  0
VERTEX
  8
DEFAULT_2
 62
8
  6
HIDDEN
 10
63.4303203055
 20
242.1404741534
  0
VERTEX
  8
DEFAULT_2
 62
8
  6
HIDDEN
 10
63.5176690827
 20
242.2829972821
  0
VERTEX
  8
DEFAULT_2
 62
8
  6
HIDDEN
 10
63.6193397757
 20
242.4095170111
  0
SEQEND
  0
POLYLINE
  8
0
 62
7
  6
CONTINUOUS
 66
1
 70
0
  0
VERTEX
  8
0
 62
7
  6
CONTINUOUS
 10
63.1808996047
 20
242.4095170111
  0
VERTEX
  8
0
 62
7
  6
CONTINUOUS
 10
63.1229883358
 20
242.2830032885
  0
VERTEX
  8
0
 62
7
  6
CONTINUOUS
 10
63.0852606994
 20
242.1405044221
  0
VERTEX
  8
0
 62
7
  6
CONTINUOUS
 10
63.0715948769
 20
241.9819069728
  0
SEQEND
  0
POLYLINE
  8
0
 62
7
  6
CONTINUOUS
 66
1
 70
0
  0
VERTEX
  8
0
 62
7
  6
CONTINUOUS
 10
63.0715948768
 20
237.3395417584
  0
VERTEX
  8
0
 62
7
  6
CONTINUOUS
 10
63.0852596676
 20
237.1809456527
  0
VERTEX
  8
0
 62
7
  6
CONTINUOUS
 10
63.1230270975
 20
237.0383331651
  0
VERTEX
  8
0
 62
7
  6
CONTINUOUS
 10
63.1808996047
 20
236.9119271902
  0
SEQEND
  0
LINE
  8
DEFAULT_2
 62
8
  6
HIDDEN
 10
63.0715948769
 20
241.9819069728
 11
63.0838078712
 21
241.828114776
  0
LINE
  8
0
 62
9
  6
CONTINUOUS
 10
63.1808996047
 20
224.2119271902
 11
63.1808996047
 21
229.7095170111
  0
LINE
  8
0
 62
9
  6
CONTINUOUS
 10
63.1808996047
 20
236.9119271902
 11
63.1808996047
 21
242.4095170111
  0
LINE
  8
DEFAULT_2
 62
8
  6
HIDDEN
 10
63.3193305001
 20
224.7933294253
 11
63.3193305001
 21
229.128114776
  0
LINE
  8
DEFAULT_2
 62
8
  6
HIDDEN
 10
63.3193305001
 20
237.4933294253
 11
63.3193305001
 21
241.828114776
  0
LINE
  8
DEFAULT_2
 62
8
  6
HIDDEN
 10
63.6193397757
 20
224.2119271902
 11
63.6193397757
 21
229.7095170111
  0
LINE
  8
DEFAULT_2
 62
8
  6
HIDDEN
 10
63.6193397757
 20
236.9119271902
 11
63.6193397757
 21
242.4095170111
  0
LINE
  8
0
 62
9
  6
CONTINUOUS
 10
65.4712939427
 20
223.5184456401
 11
65.4712939427
 21
230.4029985612
  0
LINE
  8
0
 62
9
  6
CONTINUOUS
 10
65.4712939427
 20
236.2184456401
 11
65.4712939427
 21
243.1029985612
  0
LINE
  8
DEFAULT_2
 62
8
  6
HIDDEN
 10
63.0838078712
 20
224.7933294253
 11
63.0715948768
 21
224.6395417584
  0
POLYLINE
  8
DEFAULT_2
 62
8
  6
HIDDEN
 66
1
 70
0
  0
VERTEX
  8
DEFAULT_2
 62
8
  6
HIDDEN
 10
63.3193305001
 20
229.128114776
  0
VERTEX
  8
DEFAULT_2
 62
8
  6
HIDDEN
 10
63.3629959302
 20
229.2870959114
  0
VERTEX
  8
DEFAULT_2
 62
8
  6
HIDDEN
 10
63.4303203055
 20
229.4404741534
  0
VERTEX
  8
DEFAULT_2
 62
8
  6
HIDDEN
 10
63.5176690827
 20
229.5829972821
  0
VERTEX
  8
DEFAULT_2
 62
8
  6
HIDDEN
 10
63.6193397757
 20
229.7095170111
  0
SEQEND
  0
POLYLINE
  8
0
 62
7
  6
CONTINUOUS
 66
1
 70
0
  0
VERTEX
  8
0
 62
7
  6
CONTINUOUS
 10
63.1808996047
 20
224.2119271902
  0
VERTEX
  8
0
 62
7
  6
CONTINUOUS
 10
63.2465430039
 20
224.1117390065
  0
VERTEX
  8
0
 62
7
  6
CONTINUOUS
 10
63.3255851766
 20
224.0213689911
  0
VERTEX
  8
0
 62
7
  6
CONTINUOUS
 10
63.4166664311
 20
223.9438373458
  0
VERTEX
  8
0
 62
7
  6
CONTINUOUS
 10
63.5188040538
 20
223.8807923938
  0
VERTEX
  8
0
 62
7
  6
CONTINUOUS
 10
63.6288859969
 20
223.8343733263
  0
VERTEX
  8
0
 62
7
  6
CONTINUOUS
 10
63.7422633752
 20
223.8056410847
  0
SEQEND
  0
LINE
  8
0
 62
7
  6
CONTINUOUS
 10
67.1985621511
 20
224.2119271902
 11
67.1910246999
 21
224.3143960505
  0
LINE
  8
0
 62
7
  6
CONTINUOUS
 10
67.1985621511
 20
236.9119271902
 11
67.1910246999
 21
237.0143960505
  0
LINE
  8
DEFAULT_2
 62
8
  6
HIDDEN
 10
66.3228803099
 20
223.5184456401
 11
66.3228803099
 21
230.4029985612
  0
LINE
  8
DEFAULT_2
 62
8
  6
HIDDEN
 10
66.3228803099
 20
236.2184456401
 11
66.3228803099
 21
243.1029985612
  0
LINE
  8
0
 62
7
  6
CONTINUOUS
 10
67.1910245732
 20
224.3155932194
 11
67.1910245732
 21
229.6058473702
  0
LINE
  8
0
 62
7
  6
CONTINUOUS
 10
67.1910245732
 20
237.0155932194
 11
67.1910245732
 21
242.3058473702
  0
LINE
  8
DEFAULT_2
 62
8
  6
HIDDEN
 10
67.1985621511
 20
224.2119271902
 11
67.1985621511
 21
229.7095170111
  0
LINE
  8
DEFAULT_2
 62
8
  6
HIDDEN
 10
67.1985621511
 20
236.9119271902
 11
67.1985621511
 21
242.4095170111
  0
LINE
  8
0
 62
9
  6
CONTINUOUS
 10
67.3160986555
 20
224.7933294253
 11
67.3160986555
 21
229.128114776
  0
LINE
  8
0
 62
9
  6
CONTINUOUS
 10
67.3160986555
 20
237.4933294253
 11
67.3160986555
 21
241.828114776
  0
LINE
  8
0
 62
9
  6
CONTINUOUS
 10
67.9942590373
 20
224.7933294253
 11
67.9942590373
 21
229.128114776
  0
LINE
  8
0
 62
9
  6
CONTINUOUS
 10
67.9942590373
 20
237.4933294253
 11
67.9942590373
 21
241.828114776
  0
POLYLINE
  8
0
 62
7
  6
CONTINUOUS
 66
1
 70
0
  0
VERTEX
  8
0
 62
7
  6
CONTINUOUS
 10
67.1910246999
 20
237.0143960505
  0
VERTEX
  8
0
 62
7
  6
CONTINUOUS
 10
67.1913878972
 20
237.0383393519
  0
VERTEX
  8
0
 62
7
  6
CONTINUOUS
 10
67.2078307902
 20
237.1809777996
  0
VERTEX
  8
0
 62
7
  6
CONTINUOUS
 10
67.2495480134
 20
237.3344655616
  0
VERTEX
  8
0
 62
7
  6
CONTINUOUS
 10
67.3160986555
 20
237.4933294253
  0
SEQEND
  0
POLYLINE
  8
0
 62
7
  6
CONTINUOUS
 66
1
 70
0
  0
VERTEX
  8
0
 62
7
  6
CONTINUOUS
 10
67.1910246999
 20
224.3143960505
  0
VERTEX
  8
0
 62
7
  6
CONTINUOUS
 10
67.1913878972
 20
224.3383393519
  0
VERTEX
  8
0
 62
7
  6
CONTINUOUS
 10
67.2078307902
 20
224.4809777996
  0
VERTEX
  8
0
 62
7
  6
CONTINUOUS
 10
67.2495480134
 20
224.6344655616
  0
VERTEX
  8
0
 62
7
  6
CONTINUOUS
 10
67.3160986555
 20
224.7933294253
  0
SEQEND
  0
LINE
  8
0
 62
7
  6
CONTINUOUS
 10
67.1910246913
 20
242.3070315162
 11
67.1985621511
 21
242.4095170111
  0
LINE
  8
0
 62
7
  6
CONTINUOUS
 10
67.1910246913
 20
229.6070315161
 11
67.1985621511
 21
229.7095170111
  0
POLYLINE
  8
0
 62
7
  6
CONTINUOUS
 66
1
 70
0
  0
VERTEX
  8
0
 62
7
  6
CONTINUOUS
 10
67.1985621511
 20
242.4095170111
  0
VERTEX
  8
0
 62
7
  6
CONTINUOUS
 10
67.2186278479
 20
242.5096078786
  0
VERTEX
  8
0
 62
7
  6
CONTINUOUS
 10
67.2481564441
 20
242.6000135215
  0
VERTEX
  8
0
 62
7
  6
CONTINUOUS
 10
67.287818271
 20
242.6775688328
  0
VERTEX
  8
0
 62
7
  6
CONTINUOUS
 10
67.3379284025
 20
242.7406041415
  0
VERTEX
  8
0
 62
7
  6
CONTINUOUS
 10
67.3973526586
 20
242.7870486478
  0
VERTEX
  8
0
 62
7
  6
CONTINUOUS
 10
67.463378388
 20
242.8158031166
  0
SEQEND
  0
POLYLINE
  8
0
 62
7
  6
CONTINUOUS
 66
1
 70
0
  0
VERTEX
  8
0
 62
7
  6
CONTINUOUS
 10
63.1808996047
 20
229.7095170111
  0
VERTEX
  8
0
 62
7
  6
CONTINUOUS
 10
63.1229883358
 20
229.5830032885
  0
VERTEX
  8
0
 62
7
  6
CONTINUOUS
 10
63.0852606994
 20
229.4405044221
  0
VERTEX
  8
0
 62
7
  6
CONTINUOUS
 10
63.0715948769
 20
229.2819069728
  0
SEQEND
  0
POLYLINE
  8
DEFAULT_2
 62
8
  6
HIDDEN
 66
1
 70
0
  0
VERTEX
  8
DEFAULT_2
 62
8
  6
HIDDEN
 10
63.6193397757
 20
242.4095170111
  0
VERTEX
  8
DEFAULT_2
 62
8
  6
HIDDEN
 10
63.7225049872
 20
242.5096078786
  0
VERTEX
  8
DEFAULT_2
 62
8
  6
HIDDEN
 10
63.8415481609
 20
242.6000135215
  0
VERTEX
  8
DEFAULT_2
 62
8
  6
HIDDEN
 10
63.9730823155
 20
242.6775688328
  0
VERTEX
  8
DEFAULT_2
 62
8
  6
HIDDEN
 10
64.114852373
 20
242.7406041415
  0
VERTEX
  8
DEFAULT_2
 62
8
  6
HIDDEN
 10
64.2623632619
 20
242.7870486478
  0
VERTEX
  8
DEFAULT_2
 62
8
  6
HIDDEN
 10
64.409542324
 20
242.8158031166
  0
SEQEND
  0
POLYLINE
  8
DEFAULT_2
 62
8
  6
HIDDEN
 66
1
 70
0
  0
VERTEX
  8
DEFAULT_2
 62
8
  6
HIDDEN
 10
63.6193397757
 20
224.2119271902
  0
VERTEX
  8
DEFAULT_2
 62
8
  6
HIDDEN
 10
63.5177451098
 20
224.3383393519
  0
VERTEX
  8
DEFAULT_2
 62
8
  6
HIDDEN
 10
63.4303162377
 20
224.4809777996
  0
VERTEX
  8
DEFAULT_2
 62
8
  6
HIDDEN
 10
63.3629541583
 20
224.6344655616
  0
VERTEX
  8
DEFAULT_2
 62
8
  6
HIDDEN
 10
63.3193305001
 20
224.7933294253
  0
SEQEND
  0
POLYLINE
  8
0
 62
7
  6
CONTINUOUS
 66
1
 70
0
  0
VERTEX
  8
0
 62
7
  6
CONTINUOUS
 10
67.9942590373
 20
224.7933294253
  0
VERTEX
  8
0
 62
7
  6
CONTINUOUS
 10
68.08846859
 20
224.6344283595
  0
VERTEX
  8
0
 62
7
  6
CONTINUOUS
 10
68.2014239031
 20
224.4809456527
  0
VERTEX
  8
0
 62
7
  6
CONTINUOUS
 10
68.3279455192
 20
224.3383331651
  0
VERTEX
  8
0
 62
7
  6
CONTINUOUS
 10
68.4610003085
 20
224.2119271902
  0
SEQEND
  0
POLYLINE
  8
0
 62
7
  6
CONTINUOUS
 66
1
 70
0
  0
VERTEX
  8
0
 62
7
  6
CONTINUOUS
 10
67.3160986555
 20
229.128114776
  0
VERTEX
  8
0
 62
7
  6
CONTINUOUS
 10
67.2495074436
 20
229.2870959114
  0
VERTEX
  8
0
 62
7
  6
CONTINUOUS
 10
67.2078292812
 20
229.4404741534
  0
VERTEX
  8
0
 62
7
  6
CONTINUOUS
 10
67.1913912
 20
229.5829972821
  0
VERTEX
  8
0
 62
7
  6
CONTINUOUS
 10
67.1910246913
 20
229.6070315161
  0
SEQEND
  0
POLYLINE
  8
0
 62
7
  6
CONTINUOUS
 66
1
 70
0
  0
VERTEX
  8
0
 62
7
  6
CONTINUOUS
 10
71.2752024014
 20
219.3107221007
  0
VERTEX
  8
0
 62
7
  6
CONTINUOUS
 10
71.2823759689
 20
219.1887981191
  0
VERTEX
  8
0
 62
7
  6
CONTINUOUS
 10
71.3041053499
 20
219.0673858661
  0
VERTEX
  8
0
 62
7
  6
CONTINUOUS
 10
71.3403150928
 20
218.9490108738
  0
VERTEX
  8
0
 62
7
  6
CONTINUOUS
 10
71.3907612643
 20
218.8354617616
  0
VERTEX
  8
0
 62
7
  6
CONTINUOUS
 10
71.4548750447
 20
218.7287525582
  0
VERTEX
  8
0
 62
7
  6
CONTINUOUS
 10
71.533448754
 20
218.6289684562
  0
VERTEX
  8
0
 62
7
  6
CONTINUOUS
 10
71.6265470155
 20
218.5381452282
  0
VERTEX
  8
0
 62
7
  6
CONTINUOUS
 10
71.7334705745
 20
218.459002321
  0
VERTEX
  8
0
 62
7
  6
CONTINUOUS
 10
71.8532693048
 20
218.3941438487
  0
VERTEX
  8
0
 62
7
  6
CONTINUOUS
 10
71.9824449532
 20
218.3468022368
  0
VERTEX
  8
0
 62
7
  6
CONTINUOUS
 10
72.1138229724
 20
218.3192738674
  0
VERTEX
  8
0
 62
7
  6
CONTINUOUS
 10
72.2404477228
 20
218.3107221007
  0
SEQEND
  0
LINE
  8
0
 62
9
  6
CONTINUOUS
 10
68.4610003085
 20
224.2119271902
 11
68.4610003085
 21
229.7095170111
  0
LINE
  8
0
 62
9
  6
CONTINUOUS
 10
68.4610003085
 20
236.9119271902
 11
68.4610003085
 21
242.4095170111
  0
LINE
  8
DEFAULT_2
 62
8
  6
HIDDEN
 10
68.7995549331
 20
223.5184456401
 11
68.7995549331
 21
230.4029985612
  0
LINE
  8
DEFAULT_2
 62
8
  6
HIDDEN
 10
68.7995549331
 20
236.2184456401
 11
68.7995549331
 21
243.1029985612
  0
LINE
  8
DEFAULT_2
 62
8
  6
HIDDEN
 10
69.7553250377
 20
223.4607221007
 11
69.7553250377
 21
230.4607221007
  0
LINE
  8
DEFAULT_2
 62
8
  6
HIDDEN
 10
69.7553250377
 20
236.1607221007
 11
69.7553250377
 21
243.1607221007
  0
LINE
  8
DEFAULT_2
 62
8
  6
HIDDEN
 10
70.7040259925
 20
223.4607221007
 11
70.7040259925
 21
230.4607221007
  0
LINE
  8
DEFAULT_2
 62
8
  6
HIDDEN
 10
70.7040259925
 20
236.1607221007
 11
70.7040259925
 21
243.1607221007
  0
POLYLINE
  8
0
 62
7
  6
CONTINUOUS
 66
1
 70
0
  0
VERTEX
  8
0
 62
7
  6
CONTINUOUS
 10
67.1985621511
 20
229.7095170111
  0
VERTEX
  8
0
 62
7
  6
CONTINUOUS
 10
67.2186278479
 20
229.8096078786
  0
VERTEX
  8
0
 62
7
  6
CONTINUOUS
 10
67.2481564441
 20
229.9000135215
  0
VERTEX
  8
0
 62
7
  6
CONTINUOUS
 10
67.287818271
 20
229.9775688328
  0
VERTEX
  8
0
 62
7
  6
CONTINUOUS
 10
67.3379284025
 20
230.0406041415
  0
VERTEX
  8
0
 62
7
  6
CONTINUOUS
 10
67.3973526586
 20
230.0870486478
  0
VERTEX
  8
0
 62
7
  6
CONTINUOUS
 10
67.463378388
 20
230.1158031166
  0
SEQEND
  0
LINE
  8
0
 62
9
  6
CONTINUOUS
 10
71.2516001505
 20
223.5184456401
 11
71.2516001505
 21
230.4029985612
  0
LINE
  8
0
 62
9
  6
CONTINUOUS
 10
71.2516001505
 20
236.2184456401
 11
71.2516001505
 21
243.1029985612
  0
LINE
  8
0
 62
7
  6
CONTINUOUS
 10
71.2752024014
 20
219.3107221007
 11
71.2752024014
 21
223.4607221007
  0
LINE
  8
0
 62
7
  6
CONTINUOUS
 10
71.2752024014
 20
230.4607221007
 11
71.2752024014
 21
236.1607221007
  0
LINE
  8
0
 62
7
  6
CONTINUOUS
 10
71.2752024014
 20
243.1607221007
 11
71.2752024014
 21
247.3107221007
  0
LINE
  8
DEFAULT_2
 62
8
  6
HIDDEN
 10
72.4375256329
 20
236.1607221007
 11
72.4375256329
 21
230.4607221007
  0
LINE
  8
DEFAULT_2
 62
8
  6
HIDDEN
 10
72.4375256329
 20
223.4607221007
 11
72.4375256329
 21
219.3107221007
  0
LINE
  8
DEFAULT_2
 62
8
  6
HIDDEN
 10
72.4375256329
 20
243.1607221007
 11
72.4375256329
 21
247.3107221007
  0
LINE
  8
DEFAULT_2
 62
8
  6
HIDDEN
 10
72.4697540647
 20
223.4607221007
 11
72.4697540647
 21
230.4607221007
  0
LINE
  8
DEFAULT_2
 62
8
  6
HIDDEN
 10
72.4697540647
 20
236.1607221007
 11
72.4697540647
 21
243.1607221007
  0
LINE
  8
0
 62
7
  6
CONTINUOUS
 10
73.5926895107
 20
219.3107221007
 11
73.5926895107
 21
223.4607221007
  0
LINE
  8
0
 62
7
  6
CONTINUOUS
 10
73.5926895107
 20
230.4607221007
 11
73.5926895107
 21
236.1607221007
  0
LINE
  8
0
 62
7
  6
CONTINUOUS
 10
73.5926895107
 20
243.1607221007
 11
73.5926895107
 21
247.3107221007
  0
POLYLINE
  8
0
 62
7
  6
CONTINUOUS
 66
1
 70
0
  0
VERTEX
  8
0
 62
7
  6
CONTINUOUS
 10
73.5926895107
 20
247.3107221007
  0
VERTEX
  8
0
 62
7
  6
CONTINUOUS
 10
73.5974486958
 20
247.4298359633
  0
VERTEX
  8
0
 62
7
  6
CONTINUOUS
 10
73.6116995366
 20
247.5476121114
  0
VERTEX
  8
0
 62
7
  6
CONTINUOUS
 10
73.6353354855
 20
247.6625904463
  0
VERTEX
  8
0
 62
7
  6
CONTINUOUS
 10
73.668478615
 20
247.7742080761
  0
VERTEX
  8
0
 62
7
  6
CONTINUOUS
 10
73.7109640666
 20
247.8805569842
  0
VERTEX
  8
0
 62
7
  6
CONTINUOUS
 10
73.7631937174
 20
247.9809587389
  0
VERTEX
  8
0
 62
7
  6
CONTINUOUS
 10
73.8246724427
 20
248.0726241882
  0
VERTEX
  8
0
 62
7
  6
CONTINUOUS
 10
73.8941199687
 20
248.1523995196
  0
VERTEX
  8
0
 62
7
  6
CONTINUOUS
 10
73.9699589033
 20
248.2177536614
  0
VERTEX
  8
0
 62
7
  6
CONTINUOUS
 10
74.0523124254
 20
248.2676566633
  0
VERTEX
  8
0
 62
7
  6
CONTINUOUS
 10
74.1400583307
 20
248.2995617736
  0
VERTEX
  8
0
 62
7
  6
CONTINUOUS
 10
74.2310940176
 20
248.3107221007
  0
SEQEND
  0
POLYLINE
  8
DEFAULT_2
 62
8
  6
HIDDEN
 66
1
 70
0
  0
VERTEX
  8
DEFAULT_2
 62
8
  6
HIDDEN
 10
72.4375256329
 20
247.3107221007
  0
VERTEX
  8
DEFAULT_2
 62
8
  6
HIDDEN
 10
72.4456318308
 20
247.4298359633
  0
VERTEX
  8
DEFAULT_2
 62
8
  6
HIDDEN
 10
72.4699537409
 20
247.5476121114
  0
VERTEX
  8
DEFAULT_2
 62
8
  6
HIDDEN
 10
72.5104564085
 20
247.6625904463
  0
VERTEX
  8
DEFAULT_2
 62
8
  6
HIDDEN
 10
72.5676001183
 20
247.7742080761
  0
VERTEX
  8
DEFAULT_2
 62
8
  6
HIDDEN
 10
72.6414644291
 20
247.8805569842
  0
VERTEX
  8
DEFAULT_2
 62
8
  6
HIDDEN
 10
72.7332478594
 20
247.9809587389
  0
VERTEX
  8
DEFAULT_2
 62
8
  6
HIDDEN
 10
72.8427304015
 20
248.0726241882
  0
VERTEX
  8
DEFAULT_2
 62
8
  6
HIDDEN
 10
72.9683903131
 20
248.1523995196
  0
VERTEX
  8
DEFAULT_2
 62
8
  6
HIDDEN
 10
73.1081836015
 20
248.2177536614
  0
VERTEX
  8
DEFAULT_2
 62
8
  6
HIDDEN
 10
73.2632606439
 20
248.2676566633
  0
VERTEX
  8
DEFAULT_2
 62
8
  6
HIDDEN
 10
73.4325856749
 20
248.2995617736
  0
VERTEX
  8
DEFAULT_2
 62
8
  6
HIDDEN
 10
73.6131889376
 20
248.3107221007
  0
SEQEND
  0
POLYLINE
  8
DEFAULT_2
 62
8
  6
HIDDEN
 66
1
 70
0
  0
VERTEX
  8
DEFAULT_2
 62
8
  6
HIDDEN
 10
75.1240659741
 20
242.8158031166
  0
VERTEX
  8
DEFAULT_2
 62
8
  6
HIDDEN
 10
75.1134195336
 20
242.787033345
  0
VERTEX
  8
DEFAULT_2
 62
8
  6
HIDDEN
 10
75.1113098915
 20
242.758082174
  0
SEQEND
  0
POLYLINE
  8
0
 62
7
  6
CONTINUOUS
 66
1
 70
0
  0
VERTEX
  8
0
 62
7
  6
CONTINUOUS
 10
68.4610003085
 20
242.4095170111
  0
VERTEX
  8
0
 62
7
  6
CONTINUOUS
 10
68.3278411551
 20
242.2830032885
  0
VERTEX
  8
0
 62
7
  6
CONTINUOUS
 10
68.2014286642
 20
242.1405044221
  0
VERTEX
  8
0
 62
7
  6
CONTINUOUS
 10
68.0885460465
 20
241.9871324909
  0
VERTEX
  8
0
 62
7
  6
CONTINUOUS
 10
67.9942590373
 20
241.828114776
  0
SEQEND
  0
POLYLINE
  8
0
 62
7
  6
CONTINUOUS
 66
1
 70
0
  0
VERTEX
  8
0
 62
7
  6
CONTINUOUS
 10
68.4610003085
 20
224.2119271902
  0
VERTEX
  8
0
 62
7
  6
CONTINUOUS
 10
68.5894570909
 20
224.1117390065
  0
VERTEX
  8
0
 62
7
  6
CONTINUOUS
 10
68.7341027876
 20
224.0213689911
  0
VERTEX
  8
0
 62
7
  6
CONTINUOUS
 10
68.8901907796
 20
223.9438373458
  0
VERTEX
  8
0
 62
7
  6
CONTINUOUS
 10
69.0545918497
 20
223.8807923938
  0
VERTEX
  8
0
 62
7
  6
CONTINUOUS
 10
69.2216674848
 20
223.8343733263
  0
VERTEX
  8
0
 62
7
  6
CONTINUOUS
 10
69.3847315454
 20
223.8056410847
  0
SEQEND
  0
POLYLINE
  8
0
 62
7
  6
CONTINUOUS
 66
1
 70
0
  0
VERTEX
  8
0
 62
7
  6
CONTINUOUS
 10
63.1808996047
 20
236.9119271902
  0
VERTEX
  8
0
 62
7
  6
CONTINUOUS
 10
63.2465430039
 20
236.8117390065
  0
VERTEX
  8
0
 62
7
  6
CONTINUOUS
 10
63.3255851766
 20
236.7213689911
  0
VERTEX
  8
0
 62
7
  6
CONTINUOUS
 10
63.4166664311
 20
236.6438373458
  0
VERTEX
  8
0
 62
7
  6
CONTINUOUS
 10
63.5188040538
 20
236.5807923938
  0
VERTEX
  8
0
 62
7
  6
CONTINUOUS
 10
63.6288859969
 20
236.5343733263
  0
VERTEX
  8
0
 62
7
  6
CONTINUOUS
 10
63.7422633752
 20
236.5056410847
  0
SEQEND
  0
POLYLINE
  8
0
 62
7
  6
CONTINUOUS
 66
1
 70
0
  0
VERTEX
  8
0
 62
7
  6
CONTINUOUS
 10
67.3160986555
 20
241.828114776
  0
VERTEX
  8
0
 62
7
  6
CONTINUOUS
 10
67.2495074436
 20
241.9870959114
  0
VERTEX
  8
0
 62
7
  6
CONTINUOUS
 10
67.2078292812
 20
242.1404741534
  0
VERTEX
  8
0
 62
7
  6
CONTINUOUS
 10
67.1913912
 20
242.2829972821
  0
VERTEX
  8
0
 62
7
  6
CONTINUOUS
 10
67.1910246913
 20
242.3070315162
  0
SEQEND
  0
POLYLINE
  8
DEFAULT_2
 62
8
  6
HIDDEN
 66
1
 70
0
  0
VERTEX
  8
DEFAULT_2
 62
8
  6
HIDDEN
 10
75.1113098919
 20
223.8633584336
  0
VERTEX
  8
DEFAULT_2
 62
8
  6
HIDDEN
 10
75.1134258134
 20
223.8343733263
  0
VERTEX
  8
DEFAULT_2
 62
8
  6
HIDDEN
 10
75.1240659741
 20
223.8056410847
  0
SEQEND
  0
POLYLINE
  8
DEFAULT_2
 62
8
  6
HIDDEN
 66
1
 70
0
  0
VERTEX
  8
DEFAULT_2
 62
8
  6
HIDDEN
 10
75.1113098919
 20
236.5633584336
  0
VERTEX
  8
DEFAULT_2
 62
8
  6
HIDDEN
 10
75.1134258134
 20
236.5343733263
  0
VERTEX
  8
DEFAULT_2
 62
8
  6
HIDDEN
 10
75.1240659741
 20
236.5056410847
  0
SEQEND
  0
POLYLINE
  8
0
 62
7
  6
CONTINUOUS
 66
1
 70
0
  0
VERTEX
  8
0
 62
7
  6
CONTINUOUS
 10
76.9394658694
 20
219.3107221007
  0
VERTEX
  8
0
 62
7
  6
CONTINUOUS
 10
76.9482571633
 20
219.1887981191
  0
VERTEX
  8
0
 62
7
  6
CONTINUOUS
 10
76.9749247359
 20
219.0673858661
  0
VERTEX
  8
0
 62
7
  6
CONTINUOUS
 10
77.0194909803
 20
218.9490108738
  0
VERTEX
  8
0
 62
7
  6
CONTINUOUS
 10
77.0818474715
 20
218.8354617616
  0
VERTEX
  8
0
 62
7
  6
CONTINUOUS
 10
77.1615556143
 20
218.7287525582
  0
VERTEX
  8
0
 62
7
  6
CONTINUOUS
 10
77.2599512834
 20
218.6289684562
  0
VERTEX
  8
0
 62
7
  6
CONTINUOUS
 10
77.3775717337
 20
218.5381452282
  0
VERTEX
  8
0
 62
7
  6
CONTINUOUS
 10
77.5140843805
 20
218.459002321
  0
VERTEX
  8
0
 62
7
  6
CONTINUOUS
 10
77.6689057953
 20
218.3941438487
  0
VERTEX
  8
0
 62
7
  6
CONTINUOUS
 10
77.8381466255
 20
218.3468022368
  0
VERTEX
  8
0
 62
7
  6
CONTINUOUS
 10
78.0128290354
 20
218.3192738674
  0
VERTEX
  8
0
 62
7
  6
CONTINUOUS
 10
78.1837448118
 20
218.3107221007
  0
SEQEND
  0
POLYLINE
  8
DEFAULT_2
 62
8
  6
HIDDEN
 66
1
 70
0
  0
VERTEX
  8
DEFAULT_2
 62
8
  6
HIDDEN
 10
75.1113098915
 20
230.058082174
  0
VERTEX
  8
DEFAULT_2
 62
8
  6
HIDDEN
 10
75.111852268
 20
230.0405469158
  0
VERTEX
  8
DEFAULT_2
 62
8
  6
HIDDEN
 10
75.1197901989
 20
229.9774543283
  0
VERTEX
  8
DEFAULT_2
 62
8
  6
HIDDEN
 10
75.1363606394
 20
229.8998522159
  0
VERTEX
  8
DEFAULT_2
 62
8
  6
HIDDEN
 10
75.1599200224
 20
229.8094594648
  0
VERTEX
  8
DEFAULT_2
 62
8
  6
HIDDEN
 10
75.1877380172
 20
229.7095170111
  0
SEQEND
  0
POLYLINE
  8
DEFAULT_2
 62
8
  6
HIDDEN
 66
1
 70
0
  0
VERTEX
  8
DEFAULT_2
 62
8
  6
HIDDEN
 10
75.1113098915
 20
242.758082174
  0
VERTEX
  8
DEFAULT_2
 62
8
  6
HIDDEN
 10
75.111852268
 20
242.7405469158
  0
VERTEX
  8
DEFAULT_2
 62
8
  6
HIDDEN
 10
75.1197901989
 20
242.6774543283
  0
VERTEX
  8
DEFAULT_2
 62
8
  6
HIDDEN
 10
75.1363606394
 20
242.5998522159
  0
VERTEX
  8
DEFAULT_2
 62
8
  6
HIDDEN
 10
75.1599200224
 20
242.5094594648
  0
VERTEX
  8
DEFAULT_2
 62
8
  6
HIDDEN
 10
75.1877380172
 20
242.4095170111
  0
SEQEND
  0
LINE
  8
DEFAULT_2
 62
8
  6
HIDDEN
 10
75.1113098888
 20
223.8652494685
 11
75.1113098888
 21
230.0561868218
  0
LINE
  8
DEFAULT_2
 62
8
  6
HIDDEN
 10
75.1113098888
 20
236.5652494685
 11
75.1113098888
 21
242.7561868218
  0
LINE
  8
DEFAULT_2
 62
8
  6
HIDDEN
 10
75.1877380172
 20
224.2119271902
 11
75.1877380172
 21
229.7095170111
  0
LINE
  8
DEFAULT_2
 62
8
  6
HIDDEN
 10
75.1877380172
 20
236.9119271902
 11
75.1877380172
 21
242.4095170111
  0
LINE
  8
0
 62
7
  6
CONTINUOUS
 10
75.2014295927
 20
223.4607221007
 11
75.2014295927
 21
230.4607221007
  0
LINE
  8
0
 62
7
  6
CONTINUOUS
 10
75.2014295927
 20
236.1607221007
 11
75.2014295927
 21
243.1607221007
  0
LINE
  8
DEFAULT_2
 62
8
  6
HIDDEN
 10
75.2224223364
 20
218.3107221007
 11
75.2224223364
 21
248.3107221007
  0
LINE
  8
DEFAULT_2
 62
8
  6
HIDDEN
 10
75.3307243197
 20
218.3107221007
 11
75.3307243197
 21
248.3107221007
  0
LINE
  8
DEFAULT_2
 62
8
  6
HIDDEN
 10
75.5057261225
 20
224.7933294253
 11
75.5057261225
 21
229.128114776
  0
LINE
  8
DEFAULT_2
 62
8
  6
HIDDEN
 10
75.5057261225
 20
237.4933294253
 11
75.5057261225
 21
241.828114776
  0
LINE
  8
DEFAULT_2
 62
8
  6
HIDDEN
 10
75.9062258856
 20
223.5184456401
 11
75.9062258856
 21
230.4029985612
  0
LINE
  8
DEFAULT_2
 62
8
  6
HIDDEN
 10
75.9062258856
 20
236.2184456401
 11
75.9062258856
 21
243.1029985612
  0
POLYLINE
  8
DEFAULT_2
 62
8
  6
HIDDEN
 66
1
 70
0
  0
VERTEX
  8
DEFAULT_2
 62
8
  6
HIDDEN
 10
75.1877380172
 20
236.9119271902
  0
VERTEX
  8
DEFAULT_2
 62
8
  6
HIDDEN
 10
75.1598527571
 20
236.8117390065
  0
VERTEX
  8
DEFAULT_2
 62
8
  6
HIDDEN
 10
75.1363066948
 20
236.7213689911
  0
VERTEX
  8
DEFAULT_2
 62
8
  6
HIDDEN
 10
75.1197632805
 20
236.6438373458
  0
VERTEX
  8
DEFAULT_2
 62
8
  6
HIDDEN
 10
75.111846127
 20
236.5807923938
  0
VERTEX
  8
DEFAULT_2
 62
8
  6
HIDDEN
 10
75.1113098919
 20
236.5633584336
  0
SEQEND
  0
POLYLINE
  8
DEFAULT_2
 62
8
  6
HIDDEN
 66
1
 70
0
  0
VERTEX
  8
DEFAULT_2
 62
8
  6
HIDDEN
 10
75.1240659741
 20
242.8158031166
  0
VERTEX
  8
DEFAULT_2
 62
8
  6
HIDDEN
 10
75.1715902335
 20
242.8581603104
  0
VERTEX
  8
DEFAULT_2
 62
8
  6
HIDDEN
 10
75.253790732
 20
242.9033681
  0
VERTEX
  8
DEFAULT_2
 62
8
  6
HIDDEN
 10
75.3698342408
 20
242.9509835934
  0
VERTEX
  8
DEFAULT_2
 62
8
  6
HIDDEN
 10
75.518466172
 20
243.0005039408
  0
VERTEX
  8
DEFAULT_2
 62
8
  6
HIDDEN
 10
75.6979700533
 20
243.0513716852
  0
VERTEX
  8
DEFAULT_2
 62
8
  6
HIDDEN
 10
75.9062258856
 20
243.1029985612
  0
SEQEND
  0
POLYLINE
  8
DEFAULT_2
 62
8
  6
HIDDEN
 66
1
 70
0
  0
VERTEX
  8
DEFAULT_2
 62
8
  6
HIDDEN
 10
75.1240659741
 20
223.8056410847
  0
VERTEX
  8
DEFAULT_2
 62
8
  6
HIDDEN
 10
75.1715902335
 20
223.7632838909
  0
VERTEX
  8
DEFAULT_2
 62
8
  6
HIDDEN
 10
75.253790732
 20
223.7180761013
  0
VERTEX
  8
DEFAULT_2
 62
8
  6
HIDDEN
 10
75.3698342408
 20
223.6704606079
  0
VERTEX
  8
DEFAULT_2
 62
8
  6
HIDDEN
 10
75.518466172
 20
223.6209402605
  0
VERTEX
  8
DEFAULT_2
 62
8
  6
HIDDEN
 10
75.6979700533
 20
223.5700725161
  0
VERTEX
  8
DEFAULT_2
 62
8
  6
HIDDEN
 10
75.9062258856
 20
223.5184456401
  0
SEQEND
  0
POLYLINE
  8
DEFAULT_2
 62
8
  6
HIDDEN
 66
1
 70
0
  0
VERTEX
  8
DEFAULT_2
 62
8
  6
HIDDEN
 10
63.6193397757
 20
236.9119271902
  0
VERTEX
  8
DEFAULT_2
 62
8
  6
HIDDEN
 10
63.5177451098
 20
237.0383393519
  0
VERTEX
  8
DEFAULT_2
 62
8
  6
HIDDEN
 10
63.4303162377
 20
237.1809777996
  0
VERTEX
  8
DEFAULT_2
 62
8
  6
HIDDEN
 10
63.3629541583
 20
237.3344655616
  0
VERTEX
  8
DEFAULT_2
 62
8
  6
HIDDEN
 10
63.3193305001
 20
237.4933294253
  0
SEQEND
  0
POLYLINE
  8
0
 62
7
  6
CONTINUOUS
 66
1
 70
0
  0
VERTEX
  8
0
 62
7
  6
CONTINUOUS
 10
67.9942590373
 20
237.4933294253
  0
VERTEX
  8
0
 62
7
  6
CONTINUOUS
 10
68.08846859
 20
237.3344283595
  0
VERTEX
  8
0
 62
7
  6
CONTINUOUS
 10
68.2014239031
 20
237.1809456527
  0
VERTEX
  8
0
 62
7
  6
CONTINUOUS
 10
68.3279455192
 20
237.0383331651
  0
VERTEX
  8
0
 62
7
  6
CONTINUOUS
 10
68.4610003085
 20
236.9119271902
  0
SEQEND
  0
POLYLINE
  8
DEFAULT_2
 62
8
  6
HIDDEN
 66
1
 70
0
  0
VERTEX
  8
DEFAULT_2
 62
8
  6
HIDDEN
 10
75.1877380172
 20
229.7095170111
  0
VERTEX
  8
DEFAULT_2
 62
8
  6
HIDDEN
 10
75.2321719591
 20
229.5830032885
  0
VERTEX
  8
DEFAULT_2
 62
8
  6
HIDDEN
 10
75.3007823576
 20
229.4405044221
  0
VERTEX
  8
DEFAULT_2
 62
8
  6
HIDDEN
 10
75.392750155
 20
229.2871324909
  0
VERTEX
  8
DEFAULT_2
 62
8
  6
HIDDEN
 10
75.5057261225
 20
229.128114776
  0
SEQEND
  0
POLYLINE
  8
DEFAULT_2
 62
8
  6
HIDDEN
 66
1
 70
0
  0
VERTEX
  8
DEFAULT_2
 62
8
  6
HIDDEN
 10
79.1104638129
 20
219.3107221007
  0
VERTEX
  8
DEFAULT_2
 62
8
  6
HIDDEN
 10
79.112663062
 20
219.1887981191
  0
VERTEX
  8
DEFAULT_2
 62
8
  6
HIDDEN
 10
79.1192868325
 20
219.0673858661
  0
VERTEX
  8
DEFAULT_2
 62
8
  6
HIDDEN
 10
79.1301971328
 20
218.9490108738
  0
VERTEX
  8
DEFAULT_2
 62
8
  6
HIDDEN
 10
79.1451286603
 20
218.8354617616
  0
VERTEX
  8
DEFAULT_2
 62
8
  6
HIDDEN
 10
79.163648528
 20
218.7287525582
  0
VERTEX
  8
DEFAULT_2
 62
8
  6
HIDDEN
 10
79.1856347655
 20
218.6289684562
  0
VERTEX
  8
DEFAULT_2
 62
8
  6
HIDDEN
 10
79.210649127
 20
218.5381452282
  0
VERTEX
  8
DEFAULT_2
 62
8
  6
HIDDEN
 10
79.2379528767
 20
218.459002321
  0
VERTEX
  8
DEFAULT_2
 62
8
  6
HIDDEN
 10
79.2666737651
 20
218.3941438487
  0
VERTEX
  8
DEFAULT_2
 62
8
  6
HIDDEN
 10
79.2953415102
 20
218.3468022368
  0
VERTEX
  8
DEFAULT_2
 62
8
  6
HIDDEN
 10
79.3219419035
 20
218.3192738674
  0
VERTEX
  8
DEFAULT_2
 62
8
  6
HIDDEN
 10
79.3450264999
 20
218.3107221007
  0
SEQEND
  0
LINE
  8
DEFAULT_2
 62
8
  6
HIDDEN
 10
76.5447281065
 20
224.7933294253
 11
76.5447281065
 21
229.128114776
  0
LINE
  8
DEFAULT_2
 62
8
  6
HIDDEN
 10
76.5447281065
 20
237.4933294253
 11
76.5447281065
 21
241.828114776
  0
LINE
  8
0
 62
7
  6
CONTINUOUS
 10
76.9394658694
 20
219.3107221007
 11
76.9394658694
 21
223.4607221007
  0
LINE
  8
0
 62
7
  6
CONTINUOUS
 10
76.9394658694
 20
230.4607221007
 11
76.9394658694
 21
236.1607221007
  0
LINE
  8
0
 62
7
  6
CONTINUOUS
 10
76.9394658694
 20
243.1607221007
 11
76.9394658694
 21
247.3107221007
  0
LINE
  8
DEFAULT_2
 62
8
  6
HIDDEN
 10
77.1219054878
 20
224.2119271902
 11
77.1219054878
 21
229.7095170111
  0
LINE
  8
DEFAULT_2
 62
8
  6
HIDDEN
 10
77.1219054878
 20
236.9119271902
 11
77.1219054878
 21
242.4095170111
  0
LINE
  8
DEFAULT_2
 62
8
  6
HIDDEN
 10
78.2261396982
 20
218.3107221007
 11
78.2261396982
 21
248.3107221007
  0
LINE
  8
DEFAULT_2
 62
8
  6
HIDDEN
 10
78.5199128722
 20
223.4607221007
 11
78.5199128722
 21
230.4607221007
  0
LINE
  8
DEFAULT_2
 62
8
  6
HIDDEN
 10
78.5199128722
 20
236.1607221007
 11
78.5199128722
 21
243.1607221007
  0
LINE
  8
DEFAULT_2
 62
8
  6
HIDDEN
 10
79.1104638129
 20
219.3107221007
 11
79.1104638129
 21
223.4607221007
  0
LINE
  8
DEFAULT_2
 62
8
  6
HIDDEN
 10
79.1104638129
 20
230.4607221007
 11
79.1104638129
 21
236.1607221007
  0
LINE
  8
DEFAULT_2
 62
8
  6
HIDDEN
 10
79.1104638129
 20
243.1607221007
 11
79.1104638129
 21
247.3107221007
  0
POLYLINE
  8
DEFAULT_2
 62
8
  6
HIDDEN
 66
1
 70
0
  0
VERTEX
  8
DEFAULT_2
 62
8
  6
HIDDEN
 10
75.1877380172
 20
224.2119271902
  0
VERTEX
  8
DEFAULT_2
 62
8
  6
HIDDEN
 10
75.1598527571
 20
224.1117390065
  0
VERTEX
  8
DEFAULT_2
 62
8
  6
HIDDEN
 10
75.1363066948
 20
224.0213689911
  0
VERTEX
  8
DEFAULT_2
 62
8
  6
HIDDEN
 10
75.1197632805
 20
223.9438373458
  0
VERTEX
  8
DEFAULT_2
 62
8
  6
HIDDEN
 10
75.111846127
 20
223.8807923938
  0
VERTEX
  8
DEFAULT_2
 62
8
  6
HIDDEN
 10
75.1113098919
 20
223.8633584336
  0
SEQEND
  0
POLYLINE
  8
DEFAULT_2
 62
8
  6
HIDDEN
 66
1
 70
0
  0
VERTEX
  8
DEFAULT_2
 62
8
  6
HIDDEN
 10
75.1240659741
 20
230.1158031166
  0
VERTEX
  8
DEFAULT_2
 62
8
  6
HIDDEN
 10
75.1134195336
 20
230.087033345
  0
VERTEX
  8
DEFAULT_2
 62
8
  6
HIDDEN
 10
75.1113098915
 20
230.058082174
  0
SEQEND
  0
POLYLINE
  8
DEFAULT_2
 62
8
  6
HIDDEN
 66
1
 70
0
  0
VERTEX
  8
DEFAULT_2
 62
8
  6
HIDDEN
 10
75.5057261225
 20
237.4933294253
  0
VERTEX
  8
DEFAULT_2
 62
8
  6
HIDDEN
 10
75.3928266297
 20
237.3344283595
  0
VERTEX
  8
DEFAULT_2
 62
8
  6
HIDDEN
 10
75.3007855378
 20
237.1809456527
  0
VERTEX
  8
DEFAULT_2
 62
8
  6
HIDDEN
 10
75.2321269813
 20
237.0383331651
  0
VERTEX
  8
DEFAULT_2
 62
8
  6
HIDDEN
 10
75.1877380172
 20
236.9119271902
  0
SEQEND
  0
POLYLINE
  8
DEFAULT_2
 62
8
  6
HIDDEN
 66
1
 70
0
  0
VERTEX
  8
DEFAULT_2
 62
8
  6
HIDDEN
 10
76.5447281065
 20
241.828114776
  0
VERTEX
  8
DEFAULT_2
 62
8
  6
HIDDEN
 10
76.6782186386
 20
241.9870959114
  0
VERTEX
  8
DEFAULT_2
 62
8
  6
HIDDEN
 10
76.823043728
 20
242.1404741534
  0
VERTEX
  8
DEFAULT_2
 62
8
  6
HIDDEN
 10
76.9733079001
 20
242.2829972821
  0
VERTEX
  8
DEFAULT_2
 62
8
  6
HIDDEN
 10
77.1219054878
 20
242.4095170111
  0
SEQEND
  0
POLYLINE
  8
DEFAULT_2
 62
8
  6
HIDDEN
 66
1
 70
0
  0
VERTEX
  8
DEFAULT_2
 62
8
  6
HIDDEN
 10
63.6193397757
 20
229.7095170111
  0
VERTEX
  8
DEFAULT_2
 62
8
  6
HIDDEN
 10
63.7225049872
 20
229.8096078786
  0
VERTEX
  8
DEFAULT_2
 62
8
  6
HIDDEN
 10
63.8415481609
 20
229.9000135215
  0
VERTEX
  8
DEFAULT_2
 62
8
  6
HIDDEN
 10
63.9730823155
 20
229.9775688328
  0
VERTEX
  8
DEFAULT_2
 62
8
  6
HIDDEN
 10
64.114852373
 20
230.0406041415
  0
VERTEX
  8
DEFAULT_2
 62
8
  6
HIDDEN
 10
64.2623632619
 20
230.0870486478
  0
VERTEX
  8
DEFAULT_2
 62
8
  6
HIDDEN
 10
64.409542324
 20
230.1158031166
  0
SEQEND
  0
POLYLINE
  8
DEFAULT_2
 62
8
  6
HIDDEN
 66
1
 70
0
  0
VERTEX
  8
DEFAULT_2
 62
8
  6
HIDDEN
 10
79.3450264999
 20
248.3107221007
  0
VERTEX
  8
DEFAULT_2
 62
8
  6
HIDDEN
 10
79.3184712733
 20
248.2995616411
  0
VERTEX
  8
DEFAULT_2
 62
8
  6
HIDDEN
 10
79.2903497888
 20
248.2676597447
  0
VERTEX
  8
DEFAULT_2
 62
8
  6
HIDDEN
 10
79.2619132877
 20
248.2177648475
  0
VERTEX
  8
DEFAULT_2
 62
8
  6
HIDDEN
 10
79.2341204306
 20
248.1524198792
  0
VERTEX
  8
DEFAULT_2
 62
8
  6
HIDDEN
 10
79.207416118
 20
248.0726492388
  0
VERTEX
  8
DEFAULT_2
 62
8
  6
HIDDEN
 10
79.1828386485
 20
247.9809822731
  0
VERTEX
  8
DEFAULT_2
 62
8
  6
HIDDEN
 10
79.1613044754
 20
247.8805745529
  0
VERTEX
  8
DEFAULT_2
 62
8
  6
HIDDEN
 10
79.1433646953
 20
247.7742194912
  0
VERTEX
  8
DEFAULT_2
 62
8
  6
HIDDEN
 10
79.1291157965
 20
247.6625985012
  0
VERTEX
  8
DEFAULT_2
 62
8
  6
HIDDEN
 10
79.118821774
 20
247.5476185481
  0
VERTEX
  8
DEFAULT_2
 62
8
  6
HIDDEN
 10
79.1125627913
 20
247.4298405882
  0
VERTEX
  8
DEFAULT_2
 62
8
  6
HIDDEN
 10
79.1104638129
 20
247.3107221007
  0
SEQEND
  0
POLYLINE
  8
0
 62
7
  6
CONTINUOUS
 66
1
 70
0
  0
VERTEX
  8
0
 62
7
  6
CONTINUOUS
 10
67.463378388
 20
223.8056410847
  0
VERTEX
  8
0
 62
7
  6
CONTINUOUS
 10
67.3974147925
 20
223.8343586063
  0
VERTEX
  8
0
 62
7
  6
CONTINUOUS
 10
67.3380326075
 20
223.8807359965
  0
VERTEX
  8
0
 62
7
  6
CONTINUOUS
 10
67.2879140854
 20
223.9437247933
  0
VERTEX
  8
0
 62
7
  6
CONTINUOUS
 10
67.2482458071
 20
224.0212125045
  0
VERTEX
  8
0
 62
7
  6
CONTINUOUS
 10
67.2186900216
 20
224.1115942891
  0
VERTEX
  8
0
 62
7
  6
CONTINUOUS
 10
67.1985621511
 20
224.2119271902
  0
SEQEND
  0
POLYLINE
  8
DEFAULT_2
 62
8
  6
HIDDEN
 66
1
 70
0
  0
VERTEX
  8
DEFAULT_2
 62
8
  6
HIDDEN
 10
77.1219054878
 20
224.2119271902
  0
VERTEX
  8
DEFAULT_2
 62
8
  6
HIDDEN
 10
76.9734276832
 20
224.3383393519
  0
VERTEX
  8
DEFAULT_2
 62
8
  6
HIDDEN
 10
76.8230359869
 20
224.4809777996
  0
VERTEX
  8
DEFAULT_2
 62
8
  6
HIDDEN
 10
76.6781140705
 20
224.6344655616
  0
VERTEX
  8
DEFAULT_2
 62
8
  6
HIDDEN
 10
76.5447281065
 20
224.7933294253
  0
SEQEND
  0
LINE
  8
DEFAULT_2
 62
8
  6
HIDDEN
 10
79.4244257021
 20
218.3107221007
 11
79.4244257021
 21
248.3107221007
  0
LINE
  8
DEFAULT_2
 62
8
  6
HIDDEN
 10
79.6629771117
 20
223.5184456401
 11
79.6629771117
 21
230.4029985612
  0
LINE
  8
DEFAULT_2
 62
8
  6
HIDDEN
 10
79.6629771117
 20
236.2184456401
 11
79.6629771117
 21
243.1029985612
  0
POLYLINE
  8
0
 62
7
  6
CONTINUOUS
 66
1
 70
0
  0
VERTEX
  8
0
 62
7
  6
CONTINUOUS
 10
68.4610003085
 20
229.7095170111
  0
VERTEX
  8
0
 62
7
  6
CONTINUOUS
 10
68.3278411551
 20
229.5830032885
  0
VERTEX
  8
0
 62
7
  6
CONTINUOUS
 10
68.2014286642
 20
229.4405044221
  0
VERTEX
  8
0
 62
7
  6
CONTINUOUS
 10
68.0885460465
 20
229.2871324909
  0
VERTEX
  8
0
 62
7
  6
CONTINUOUS
 10
67.9942590373
 20
229.128114776
  0
SEQEND
  0
POLYLINE
  8
DEFAULT_2
 62
8
  6
HIDDEN
 66
1
 70
0
  0
VERTEX
  8
DEFAULT_2
 62
8
  6
HIDDEN
 10
77.1219054878
 20
242.4095170111
  0
VERTEX
  8
DEFAULT_2
 62
8
  6
HIDDEN
 10
77.2598980651
 20
242.5096078786
  0
VERTEX
  8
DEFAULT_2
 62
8
  6
HIDDEN
 10
77.4127541922
 20
242.6000135215
  0
VERTEX
  8
DEFAULT_2
 62
8
  6
HIDDEN
 10
77.5746143817
 20
242.6775688328
  0
VERTEX
  8
DEFAULT_2
 62
8
  6
HIDDEN
 10
77.7417085796
 20
242.7406041415
  0
VERTEX
  8
DEFAULT_2
 62
8
  6
HIDDEN
 10
77.9082841172
 20
242.7870486478
  0
VERTEX
  8
DEFAULT_2
 62
8
  6
HIDDEN
 10
78.0677497931
 20
242.8158031166
  0
SEQEND
  0
POLYLINE
  8
DEFAULT_2
 62
8
  6
HIDDEN
 66
1
 70
0
  0
VERTEX
  8
DEFAULT_2
 62
8
  6
HIDDEN
 10
75.1877380172
 20
242.4095170111
  0
VERTEX
  8
DEFAULT_2
 62
8
  6
HIDDEN
 10
75.2321719591
 20
242.2830032885
  0
VERTEX
  8
DEFAULT_2
 62
8
  6
HIDDEN
 10
75.3007823576
 20
242.1405044221
  0
VERTEX
  8
DEFAULT_2
 62
8
  6
HIDDEN
 10
75.392750155
 20
241.9871324909
  0
VERTEX
  8
DEFAULT_2
 62
8
  6
HIDDEN
 10
75.5057261225
 20
241.828114776
  0
SEQEND
  0
LINE
  8
DEFAULT_2
 62
8
  6
HIDDEN
 10
82.7050825895
 20
223.4607221007
 11
82.7050825895
 21
230.4607221007
  0
LINE
  8
DEFAULT_2
 62
8
  6
HIDDEN
 10
82.7050825895
 20
236.1607221007
 11
82.7050825895
 21
243.1607221007
  0
LINE
  8
0
 62
7
  6
CONTINUOUS
 10
83.871281778
 20
218.3107221007
 11
83.871281778
 21
248.3107221007
  0
LINE
  8
DEFAULT_2
 62
8
  6
HIDDEN
 10
84.2380226769
 20
219.3107221007
 11
84.2380226769
 21
223.4607221007
  0
LINE
  8
DEFAULT_2
 62
8
  6
HIDDEN
 10
84.2380226769
 20
230.4607221007
 11
84.2380226769
 21
236.1607221007
  0
LINE
  8
DEFAULT_2
 62
8
  6
HIDDEN
 10
84.2380226769
 20
243.1607221007
 11
84.2380226769
 21
247.3107221007
  0
POLYLINE
  8
DEFAULT_2
 62
8
  6
HIDDEN
 66
1
 70
0
  0
VERTEX
  8
DEFAULT_2
 62
8
  6
HIDDEN
 10
84.2380226769
 20
247.3107221007
  0
VERTEX
  8
DEFAULT_2
 62
8
  6
HIDDEN
 10
84.2456792733
 20
247.4298078212
  0
VERTEX
  8
DEFAULT_2
 62
8
  6
HIDDEN
 10
84.2687452751
 20
247.5478014788
  0
VERTEX
  8
DEFAULT_2
 62
8
  6
HIDDEN
 10
84.3072782913
 20
247.6629949792
  0
VERTEX
  8
DEFAULT_2
 62
8
  6
HIDDEN
 10
84.3617569087
 20
247.774623432
  0
VERTEX
  8
DEFAULT_2
 62
8
  6
HIDDEN
 10
84.4322852821
 20
247.8806677656
  0
VERTEX
  8
DEFAULT_2
 62
8
  6
HIDDEN
 10
84.5202733068
 20
247.9806434356
  0
VERTEX
  8
DEFAULT_2
 62
8
  6
HIDDEN
 10
84.6261308702
 20
248.0720845862
  0
VERTEX
  8
DEFAULT_2
 62
8
  6
HIDDEN
 10
84.7491815232
 20
248.1519857153
  0
VERTEX
  8
DEFAULT_2
 62
8
  6
HIDDEN
 10
84.8884246262
 20
248.21781836
  0
VERTEX
  8
DEFAULT_2
 62
8
  6
HIDDEN
 10
85.0439890196
 20
248.2677803756
  0
VERTEX
  8
DEFAULT_2
 62
8
  6
HIDDEN
 10
85.2153957461
 20
248.2995888893
  0
VERTEX
  8
DEFAULT_2
 62
8
  6
HIDDEN
 10
85.4008388529
 20
248.3107221007
  0
SEQEND
  0
POLYLINE
  8
0
 62
7
  6
CONTINUOUS
 66
1
 70
0
  0
VERTEX
  8
0
 62
7
  6
CONTINUOUS
 10
132.7882627499
 20
223.8056410847
  0
VERTEX
  8
0
 62
7
  6
CONTINUOUS
 10
132.6334695112
 20
223.7632838909
  0
VERTEX
  8
0
 62
7
  6
CONTINUOUS
 10
132.4484268874
 20
223.7180761013
  0
VERTEX
  8
0
 62
7
  6
CONTINUOUS
 10
132.2351451023
 20
223.6704606079
  0
VERTEX
  8
0
 62
7
  6
CONTINUOUS
 10
131.9960503135
 20
223.6209402605
  0
VERTEX
  8
0
 62
7
  6
CONTINUOUS
 10
131.7339838532
 20
223.5700725161
  0
VERTEX
  8
0
 62
7
  6
CONTINUOUS
 10
131.4520862048
 20
223.5184456401
  0
SEQEND
  0
POLYLINE
  8
0
 62
7
  6
CONTINUOUS
 66
1
 70
0
  0
VERTEX
  8
0
 62
7
  6
CONTINUOUS
 10
136.5093777627
 20
223.8056410847
  0
VERTEX
  8
0
 62
7
  6
CONTINUOUS
 10
136.6227110762
 20
223.8343586063
  0
VERTEX
  8
0
 62
7
  6
CONTINUOUS
 10
136.7327276368
 20
223.8807359965
  0
VERTEX
  8
0
 62
7
  6
CONTINUOUS
 10
136.8348202444
 20
223.9437247933
  0
VERTEX
  8
0
 62
7
  6
CONTINUOUS
 10
136.9258976418
 20
224.0212125045
  0
VERTEX
  8
0
 62
7
  6
CONTINUOUS
 10
137.0049886411
 20
224.1115942891
  0
VERTEX
  8
0
 62
7
  6
CONTINUOUS
 10
137.0707415331
 20
224.2119271902
  0
SEQEND
  0
POLYLINE
  8
0
 62
7
  6
CONTINUOUS
 66
1
 70
0
  0
VERTEX
  8
0
 62
7
  6
CONTINUOUS
 10
128.011193415
 20
218.3107221007
  0
VERTEX
  8
0
 62
7
  6
CONTINUOUS
 10
128.1378181655
 20
218.3192738674
  0
VERTEX
  8
0
 62
7
  6
CONTINUOUS
 10
128.2691961847
 20
218.3468022368
  0
VERTEX
  8
0
 62
7
  6
CONTINUOUS
 10
128.3983718331
 20
218.3941438487
  0
VERTEX
  8
0
 62
7
  6
CONTINUOUS
 10
128.5181705633
 20
218.459002321
  0
VERTEX
  8
0
 62
7
  6
CONTINUOUS
 10
128.6250941224
 20
218.5381452282
  0
VERTEX
  8
0
 62
7
  6
CONTINUOUS
 10
128.7181923839
 20
218.6289684562
  0
VERTEX
  8
0
 62
7
  6
CONTINUOUS
 10
128.7967660932
 20
218.7287525582
  0
VERTEX
  8
0
 62
7
  6
CONTINUOUS
 10
128.8608798736
 20
218.8354617616
  0
VERTEX
  8
0
 62
7
  6
CONTINUOUS
 10
128.911326045
 20
218.9490108738
  0
VERTEX
  8
0
 62
7
  6
CONTINUOUS
 10
128.947535788
 20
219.0673858661
  0
VERTEX
  8
0
 62
7
  6
CONTINUOUS
 10
128.969265169
 20
219.1887981191
  0
VERTEX
  8
0
 62
7
  6
CONTINUOUS
 10
128.9764387364
 20
219.3107221007
  0
SEQEND
  0
POLYLINE
  8
0
 62
7
  6
CONTINUOUS
 66
1
 70
0
  0
VERTEX
  8
0
 62
7
  6
CONTINUOUS
 10
122.067896326
 20
218.3107221007
  0
VERTEX
  8
0
 62
7
  6
CONTINUOUS
 10
122.2388121025
 20
218.3192738674
  0
VERTEX
  8
0
 62
7
  6
CONTINUOUS
 10
122.4134945124
 20
218.3468022368
  0
VERTEX
  8
0
 62
7
  6
CONTINUOUS
 10
122.5827353425
 20
218.3941438487
  0
VERTEX
  8
0
 62
7
  6
CONTINUOUS
 10
122.7375567573
 20
218.459002321
  0
VERTEX
  8
0
 62
7
  6
CONTINUOUS
 10
122.8740694041
 20
218.5381452282
  0
VERTEX
  8
0
 62
7
  6
CONTINUOUS
 10
122.9916898544
 20
218.6289684562
  0
VERTEX
  8
0
 62
7
  6
CONTINUOUS
 10
123.0900855236
 20
218.7287525582
  0
VERTEX
  8
0
 62
7
  6
CONTINUOUS
 10
123.1697936663
 20
218.8354617616
  0
VERTEX
  8
0
 62
7
  6
CONTINUOUS
 10
123.2321501575
 20
218.9490108738
  0
VERTEX
  8
0
 62
7
  6
CONTINUOUS
 10
123.2767164019
 20
219.0673858661
  0
VERTEX
  8
0
 62
7
  6
CONTINUOUS
 10
123.3033839746
 20
219.1887981191
  0
VERTEX
  8
0
 62
7
  6
CONTINUOUS
 10
123.3121752684
 20
219.3107221007
  0
SEQEND
  0
POLYLINE
  8
DEFAULT_2
 62
8
  6
HIDDEN
 66
1
 70
0
  0
VERTEX
  8
DEFAULT_2
 62
8
  6
HIDDEN
 10
85.4008388529
 20
218.3107221007
  0
VERTEX
  8
DEFAULT_2
 62
8
  6
HIDDEN
 10
85.2390426219
 20
218.3191566774
  0
VERTEX
  8
DEFAULT_2
 62
8
  6
HIDDEN
 10
85.0734988842
 20
218.3465728397
  0
VERTEX
  8
DEFAULT_2
 62
8
  6
HIDDEN
 10
84.9143354557
 20
218.3937284147
  0
VERTEX
  8
DEFAULT_2
 62
8
  6
HIDDEN
 10
84.7709085269
 20
218.4576517303
  0
VERTEX
  8
DEFAULT_2
 62
8
  6
HIDDEN
 10
84.6443890097
 20
218.5359425107
  0
VERTEX
  8
DEFAULT_2
 62
8
  6
HIDDEN
 10
84.5337876094
 20
218.6276413895
  0
VERTEX
  8
DEFAULT_2
 62
8
  6
HIDDEN
 10
84.4410870544
 20
218.7294543743
  0
VERTEX
  8
DEFAULT_2
 62
8
  6
HIDDEN
 10
84.3669157161
 20
218.8379225929
  0
VERTEX
  8
DEFAULT_2
 62
8
  6
HIDDEN
 10
84.3100706216
 20
218.9516898685
  0
VERTEX
  8
DEFAULT_2
 62
8
  6
HIDDEN
 10
84.2699837133
 20
219.0689918569
  0
VERTEX
  8
DEFAULT_2
 62
8
  6
HIDDEN
 10
84.2460146077
 20
219.1890674038
  0
VERTEX
  8
DEFAULT_2
 62
8
  6
HIDDEN
 10
84.2380226769
 20
219.3107221007
  0
SEQEND
  0
POLYLINE
  8
DEFAULT_2
 62
8
  6
HIDDEN
 66
1
 70
0
  0
VERTEX
  8
DEFAULT_2
 62
8
  6
HIDDEN
 10
73.6131889376
 20
218.3107221007
  0
VERTEX
  8
DEFAULT_2
 62
8
  6
HIDDEN
 10
73.45487093
 20
218.3192738674
  0
VERTEX
  8
DEFAULT_2
 62
8
  6
HIDDEN
 10
73.2920195772
 20
218.3468022368
  0
VERTEX
  8
DEFAULT_2
 62
8
  6
HIDDEN
 10
73.1332354854
 20
218.3941438487
  0
VERTEX
  8
DEFAULT_2
 62
8
  6
HIDDEN
 10
72.9871131583
 20
218.459002321
  0
VERTEX
  8
DEFAULT_2
 62
8
  6
HIDDEN
 10
72.8575834587
 20
218.5381452282
  0
VERTEX
  8
DEFAULT_2
 62
8
  6
HIDDEN
 10
72.745462374
 20
218.6289684562
  0
VERTEX
  8
DEFAULT_2
 62
8
  6
HIDDEN
 10
72.6512989346
 20
218.7287525582
  0
VERTEX
  8
DEFAULT_2
 62
8
  6
HIDDEN
 10
72.5747728877
 20
218.8354617616
  0
VERTEX
  8
DEFAULT_2
 62
8
  6
HIDDEN
 10
72.5147518445
 20
218.9490108738
  0
VERTEX
  8
DEFAULT_2
 62
8
  6
HIDDEN
 10
72.4717718394
 20
219.0673858661
  0
VERTEX
  8
DEFAULT_2
 62
8
  6
HIDDEN
 10
72.4460203582
 20
219.1887981191
  0
VERTEX
  8
DEFAULT_2
 62
8
  6
HIDDEN
 10
72.4375256329
 20
219.3107221007
  0
SEQEND
  0
POLYLINE
  8
0
 62
7
  6
CONTINUOUS
 66
1
 70
0
  0
VERTEX
  8
0
 62
7
  6
CONTINUOUS
 10
74.2310940176
 20
218.3107221007
  0
VERTEX
  8
0
 62
7
  6
CONTINUOUS
 10
74.151435338
 20
218.3192738674
  0
VERTEX
  8
0
 62
7
  6
CONTINUOUS
 10
74.0673767804
 20
218.3468022368
  0
VERTEX
  8
0
 62
7
  6
CONTINUOUS
 10
73.983390065
 20
218.3941438487
  0
VERTEX
  8
0
 62
7
  6
CONTINUOUS
 10
73.9043644265
 20
218.459002321
  0
VERTEX
  8
0
 62
7
  6
CONTINUOUS
 10
73.8329435673
 20
218.5381452282
  0
VERTEX
  8
0
 62
7
  6
CONTINUOUS
 10
73.7700971533
 20
218.6289684562
  0
VERTEX
  8
0
 62
7
  6
CONTINUOUS
 10
73.7165903231
 20
218.7287525582
  0
VERTEX
  8
0
 62
7
  6
CONTINUOUS
 10
73.6726218774
 20
218.8354617616
  0
VERTEX
  8
0
 62
7
  6
CONTINUOUS
 10
73.6378351304
 20
218.9490108738
  0
VERTEX
  8
0
 62
7
  6
CONTINUOUS
 10
73.612763079
 20
219.0673858661
  0
VERTEX
  8
0
 62
7
  6
CONTINUOUS
 10
73.5976766822
 20
219.1887981191
  0
VERTEX
  8
0
 62
7
  6
CONTINUOUS
 10
73.5926895107
 20
219.3107221007
  0
SEQEND
  0
POLYLINE
  8
DEFAULT_2
 62
8
  6
HIDDEN
 66
1
 70
0
  0
VERTEX
  8
DEFAULT_2
 62
8
  6
HIDDEN
 10
64.409542324
 20
223.8056410847
  0
VERTEX
  8
DEFAULT_2
 62
8
  6
HIDDEN
 10
64.2625089627
 20
223.8343586063
  0
VERTEX
  8
DEFAULT_2
 62
8
  6
HIDDEN
 10
64.1151276475
 20
223.8807359965
  0
VERTEX
  8
DEFAULT_2
 62
8
  6
HIDDEN
 10
63.9733748294
 20
223.9437247933
  0
VERTEX
  8
DEFAULT_2
 62
8
  6
HIDDEN
 10
63.8418735914
 20
224.0212125045
  0
VERTEX
  8
DEFAULT_2
 62
8
  6
HIDDEN
 10
63.72278692
 20
224.1115942891
  0
VERTEX
  8
DEFAULT_2
 62
8
  6
HIDDEN
 10
63.6193397757
 20
224.2119271902
  0
SEQEND
  0
POLYLINE
  8
0
 62
7
  6
CONTINUOUS
 66
1
 70
0
  0
VERTEX
  8
0
 62
7
  6
CONTINUOUS
 10
68.4610003085
 20
236.9119271902
  0
VERTEX
  8
0
 62
7
  6
CONTINUOUS
 10
68.5894570909
 20
236.8117390065
  0
VERTEX
  8
0
 62
7
  6
CONTINUOUS
 10
68.7341027876
 20
236.7213689911
  0
VERTEX
  8
0
 62
7
  6
CONTINUOUS
 10
68.8901907796
 20
236.6438373458
  0
VERTEX
  8
0
 62
7
  6
CONTINUOUS
 10
69.0545918497
 20
236.5807923938
  0
VERTEX
  8
0
 62
7
  6
CONTINUOUS
 10
69.2216674848
 20
236.5343733263
  0
VERTEX
  8
0
 62
7
  6
CONTINUOUS
 10
69.3847315454
 20
236.5056410847
  0
SEQEND
  0
LINE
  8
0
 62
7
  6
CONTINUOUS
 10
85.7019452478
 20
223.7007242877
 11
85.7019452478
 21
230.2207199137
  0
LINE
  8
0
 62
7
  6
CONTINUOUS
 10
85.7019452478
 20
236.4007242877
 11
85.7019452478
 21
242.9207199137
  0
LINE
  8
DEFAULT_2
 62
8
  6
HIDDEN
 10
85.9341374
 20
223.5184456401
 11
85.9341374
 21
230.4029985612
  0
LINE
  8
DEFAULT_2
 62
8
  6
HIDDEN
 10
85.9341374
 20
236.2184456401
 11
85.9341374
 21
243.1029985612
  0
LINE
  8
0
 62
9
  6
CONTINUOUS
 10
86.1848146859
 20
224.2119271902
 11
86.1848146859
 21
229.7095170111
  0
LINE
  8
0
 62
9
  6
CONTINUOUS
 10
86.1848146859
 20
236.9119271902
 11
86.1848146859
 21
242.4095170111
  0
LINE
  8
0
 62
9
  6
CONTINUOUS
 10
86.6649003336
 20
224.7933294253
 11
86.6649003336
 21
229.128114776
  0
LINE
  8
0
 62
9
  6
CONTINUOUS
 10
86.6649003336
 20
237.4933294253
 11
86.6649003336
 21
241.828114776
  0
POLYLINE
  8
0
 62
7
  6
CONTINUOUS
 66
1
 70
0
  0
VERTEX
  8
0
 62
7
  6
CONTINUOUS
 10
85.701945248
 20
236.4009811177
  0
VERTEX
  8
0
 62
7
  6
CONTINUOUS
 10
85.7042974176
 20
236.4180629033
  0
VERTEX
  8
0
 62
7
  6
CONTINUOUS
 10
85.7348652321
 20
236.4632911158
  0
VERTEX
  8
0
 62
7
  6
CONTINUOUS
 10
85.800334151
 20
236.5056410847
  0
SEQEND
  0
POLYLINE
  8
DEFAULT_2
 62
8
  6
HIDDEN
 66
1
 70
0
  0
VERTEX
  8
DEFAULT_2
 62
8
  6
HIDDEN
 10
75.5057261225
 20
224.7933294253
  0
VERTEX
  8
DEFAULT_2
 62
8
  6
HIDDEN
 10
75.3928266297
 20
224.6344283595
  0
VERTEX
  8
DEFAULT_2
 62
8
  6
HIDDEN
 10
75.3007855378
 20
224.4809456527
  0
VERTEX
  8
DEFAULT_2
 62
8
  6
HIDDEN
 10
75.2321269813
 20
224.3383331651
  0
VERTEX
  8
DEFAULT_2
 62
8
  6
HIDDEN
 10
75.1877380172
 20
224.2119271902
  0
SEQEND
  0
POLYLINE
  8
0
 62
7
  6
CONTINUOUS
 66
1
 70
0
  0
VERTEX
  8
0
 62
7
  6
CONTINUOUS
 10
86.1848146859
 20
236.9119271902
  0
VERTEX
  8
0
 62
7
  6
CONTINUOUS
 10
86.2754177571
 20
237.0383393519
  0
VERTEX
  8
0
 62
7
  6
CONTINUOUS
 10
86.3880386029
 20
237.1809777996
  0
VERTEX
  8
0
 62
7
  6
CONTINUOUS
 10
86.5193151763
 20
237.3344655616
  0
VERTEX
  8
0
 62
7
  6
CONTINUOUS
 10
86.6649003336
 20
237.4933294253
  0
SEQEND
  0
POLYLINE
  8
DEFAULT_2
 62
8
  6
HIDDEN
 66
1
 70
0
  0
VERTEX
  8
DEFAULT_2
 62
8
  6
HIDDEN
 10
76.5447281065
 20
229.128114776
  0
VERTEX
  8
DEFAULT_2
 62
8
  6
HIDDEN
 10
76.6782186386
 20
229.2870959114
  0
VERTEX
  8
DEFAULT_2
 62
8
  6
HIDDEN
 10
76.823043728
 20
229.4404741534
  0
VERTEX
  8
DEFAULT_2
 62
8
  6
HIDDEN
 10
76.9733079001
 20
229.5829972821
  0
VERTEX
  8
DEFAULT_2
 62
8
  6
HIDDEN
 10
77.1219054878
 20
229.7095170111
  0
SEQEND
  0
POLYLINE
  8
DEFAULT_2
 62
8
  6
HIDDEN
 66
1
 70
0
  0
VERTEX
  8
DEFAULT_2
 62
8
  6
HIDDEN
 10
75.1240659741
 20
230.1158031166
  0
VERTEX
  8
DEFAULT_2
 62
8
  6
HIDDEN
 10
75.1715902335
 20
230.1581603104
  0
VERTEX
  8
DEFAULT_2
 62
8
  6
HIDDEN
 10
75.253790732
 20
230.2033681
  0
VERTEX
  8
DEFAULT_2
 62
8
  6
HIDDEN
 10
75.3698342408
 20
230.2509835934
  0
VERTEX
  8
DEFAULT_2
 62
8
  6
HIDDEN
 10
75.518466172
 20
230.3005039408
  0
VERTEX
  8
DEFAULT_2
 62
8
  6
HIDDEN
 10
75.6979700533
 20
230.3513716852
  0
VERTEX
  8
DEFAULT_2
 62
8
  6
HIDDEN
 10
75.9062258856
 20
230.4029985612
  0
SEQEND
  0
POLYLINE
  8
0
 62
7
  6
CONTINUOUS
 66
1
 70
0
  0
VERTEX
  8
0
 62
7
  6
CONTINUOUS
 10
88.5574223274
 20
242.4095170111
  0
VERTEX
  8
0
 62
7
  6
CONTINUOUS
 10
88.4113219373
 20
242.2830032885
  0
VERTEX
  8
0
 62
7
  6
CONTINUOUS
 10
88.2553744013
 20
242.1405044221
  0
VERTEX
  8
0
 62
7
  6
CONTINUOUS
 10
88.0960793767
 20
241.9871324909
  0
VERTEX
  8
0
 62
7
  6
CONTINUOUS
 10
87.9394249466
 20
241.828114776
  0
SEQEND
  0
POLYLINE
  8
0
 62
7
  6
CONTINUOUS
 66
1
 70
0
  0
VERTEX
  8
0
 62
7
  6
CONTINUOUS
 10
90.6297860944
 20
243.1484104413
  0
VERTEX
  8
0
 62
7
  6
CONTINUOUS
 10
90.6002471815
 20
243.1332755455
  0
VERTEX
  8
0
 62
7
  6
CONTINUOUS
 10
90.5711432576
 20
243.1181381307
  0
VERTEX
  8
0
 62
7
  6
CONTINUOUS
 10
90.5424749932
 20
243.1029985612
  0
SEQEND
  0
POLYLINE
  8
0
 62
7
  6
CONTINUOUS
 66
1
 70
0
  0
VERTEX
  8
0
 62
7
  6
CONTINUOUS
 10
85.9341374
 20
243.1029985612
  0
VERTEX
  8
0
 62
7
  6
CONTINUOUS
 10
85.8246937204
 20
243.0514003094
  0
VERTEX
  8
0
 62
7
  6
CONTINUOUS
 10
85.7493949544
 20
243.0005415863
  0
VERTEX
  8
0
 62
7
  6
CONTINUOUS
 10
85.709124764
 20
242.9510159591
  0
VERTEX
  8
0
 62
7
  6
CONTINUOUS
 10
85.701945248
 20
242.9204630836
  0
SEQEND
  0
POLYLINE
  8
0
 62
7
  6
CONTINUOUS
 66
1
 70
0
  0
VERTEX
  8
0
 62
7
  6
CONTINUOUS
 10
85.9341374
 20
243.1029985612
  0
VERTEX
  8
0
 62
7
  6
CONTINUOUS
 10
85.9708118028
 20
243.1181381242
  0
VERTEX
  8
0
 62
7
  6
CONTINUOUS
 10
86.0428914998
 20
243.1484104413
  0
SEQEND
  0
POLYLINE
  8
0
 62
7
  6
CONTINUOUS
 66
1
 70
0
  0
VERTEX
  8
0
 62
7
  6
CONTINUOUS
 10
86.0428914998
 20
243.1484104413
  0
VERTEX
  8
0
 62
7
  6
CONTINUOUS
 10
86.0621733073
 20
243.1552427128
  0
VERTEX
  8
0
 62
7
  6
CONTINUOUS
 10
86.081447062
 20
243.1593517415
  0
VERTEX
  8
0
 62
7
  6
CONTINUOUS
 10
86.1006425802
 20
243.1607221007
  0
SEQEND
  0
LINE
  8
DEFAULT_2
 62
8
  6
HIDDEN
 10
120.4131632499
 20
223.4730337601
 11
120.5886640262
 21
223.5184456401
  0
POLYLINE
  8
DEFAULT_2
 62
8
  6
HIDDEN
 66
1
 70
0
  0
VERTEX
  8
DEFAULT_2
 62
8
  6
HIDDEN
 10
124.3454152523
 20
223.5184456401
  0
VERTEX
  8
DEFAULT_2
 62
8
  6
HIDDEN
 10
124.5535627858
 20
223.5700438919
  0
VERTEX
  8
DEFAULT_2
 62
8
  6
HIDDEN
 10
124.7330519014
 20
223.620902615
  0
VERTEX
  8
DEFAULT_2
 62
8
  6
HIDDEN
 10
124.8817186974
 20
223.6704282422
  0
VERTEX
  8
DEFAULT_2
 62
8
  6
HIDDEN
 10
124.9978222166
 20
223.7180629033
  0
VERTEX
  8
DEFAULT_2
 62
8
  6
HIDDEN
 10
125.0800616082
 20
223.7632911158
  0
VERTEX
  8
DEFAULT_2
 62
8
  6
HIDDEN
 10
125.1275751637
 20
223.8056410847
  0
SEQEND
  0
LINE
  8
DEFAULT_2
 62
8
  6
HIDDEN
 10
124.3454152523
 20
223.5184456401
 11
124.1524339835
 21
223.4730337601
  0
POLYLINE
  8
DEFAULT_2
 62
8
  6
HIDDEN
 66
1
 70
0
  0
VERTEX
  8
DEFAULT_2
 62
8
  6
HIDDEN
 10
120.4131632499
 20
223.4730337601
  0
VERTEX
  8
DEFAULT_2
 62
8
  6
HIDDEN
 10
120.3810469944
 20
223.4662022226
  0
VERTEX
  8
DEFAULT_2
 62
8
  6
HIDDEN
 10
120.3486176908
 20
223.4620924316
  0
VERTEX
  8
DEFAULT_2
 62
8
  6
HIDDEN
 10
120.3160032493
 20
223.4607221007
  0
SEQEND
  0
LINE
  8
0
 62
7
  6
CONTINUOUS
 10
129.0000409874
 20
223.5184456401
 11
128.7575185198
 21
223.4730337601
  0
POLYLINE
  8
0
 62
7
  6
CONTINUOUS
 66
1
 70
0
  0
VERTEX
  8
0
 62
7
  6
CONTINUOUS
 10
129.0000409874
 20
223.5184456401
  0
VERTEX
  8
0
 62
7
  6
CONTINUOUS
 10
129.2842474075
 20
223.5700438919
  0
VERTEX
  8
0
 62
7
  6
CONTINUOUS
 10
129.5842515627
 20
223.620902615
  0
VERTEX
  8
0
 62
7
  6
CONTINUOUS
 10
129.896367149
 20
223.6704282422
  0
VERTEX
  8
0
 62
7
  6
CONTINUOUS
 10
130.2167741186
 20
223.7180629033
  0
VERTEX
  8
0
 62
7
  6
CONTINUOUS
 10
130.541589523
 20
223.7632911158
  0
VERTEX
  8
0
 62
7
  6
CONTINUOUS
 10
130.8669095925
 20
223.8056410847
  0
SEQEND
  0
LINE
  8
0
 62
7
  6
CONTINUOUS
 10
131.198154156
 20
223.4730337601
 11
131.4520862048
 21
223.5184456401
  0
POLYLINE
  8
0
 62
7
  6
CONTINUOUS
 66
1
 70
0
  0
VERTEX
  8
0
 62
7
  6
CONTINUOUS
 10
130.8669095925
 20
223.8056410847
  0
VERTEX
  8
0
 62
7
  6
CONTINUOUS
 10
131.0299086082
 20
223.8343586063
  0
VERTEX
  8
0
 62
7
  6
CONTINUOUS
 10
131.1968783163
 20
223.8807359965
  0
VERTEX
  8
0
 62
7
  6
CONTINUOUS
 10
131.361193863
 20
223.9437247933
  0
VERTEX
  8
0
 62
7
  6
CONTINUOUS
 10
131.5172579516
 20
224.0212125045
  0
VERTEX
  8
0
 62
7
  6
CONTINUOUS
 10
131.6619766849
 20
224.1115942891
  0
VERTEX
  8
0
 62
7
  6
CONTINUOUS
 10
131.7906408293
 20
224.2119271902
  0
SEQEND
  0
POLYLINE
  8
0
 62
7
  6
CONTINUOUS
 66
1
 70
0
  0
VERTEX
  8
0
 62
7
  6
CONTINUOUS
 10
135.7154297609
 20
223.6704282422
  0
VERTEX
  8
0
 62
7
  6
CONTINUOUS
 10
136.0003417479
 20
223.7180629033
  0
VERTEX
  8
0
 62
7
  6
CONTINUOUS
 10
136.2660278968
 20
223.7632911158
  0
VERTEX
  8
0
 62
7
  6
CONTINUOUS
 10
136.5093777627
 20
223.8056410847
  0
SEQEND
  0
LINE
  8
0
 62
7
  6
CONTINUOUS
 10
135.1017084151
 20
223.5700438919
 11
135.7154297609
 21
223.6704282422
  0
LINE
  8
0
 62
7
  6
CONTINUOUS
 10
135.1017084151
 20
223.5700438919
 11
134.4960923191
 21
223.4730337601
  0
POLYLINE
  8
0
 62
7
  6
CONTINUOUS
 66
1
 70
0
  0
VERTEX
  8
0
 62
7
  6
CONTINUOUS
 10
131.198154156
 20
223.4730337601
  0
VERTEX
  8
0
 62
7
  6
CONTINUOUS
 10
131.1523930763
 20
223.4662022226
  0
VERTEX
  8
0
 62
7
  6
CONTINUOUS
 10
131.1064026932
 20
223.4620924316
  0
VERTEX
  8
0
 62
7
  6
CONTINUOUS
 10
131.0603672553
 20
223.4607221007
  0
SEQEND
  0
POLYLINE
  8
DEFAULT_2
 62
8
  6
HIDDEN
 66
1
 70
0
  0
VERTEX
  8
DEFAULT_2
 62
8
  6
HIDDEN
 10
135.8420988138
 20
223.8056410847
  0
VERTEX
  8
DEFAULT_2
 62
8
  6
HIDDEN
 10
135.5394649662
 20
223.7632838909
  0
VERTEX
  8
DEFAULT_2
 62
8
  6
HIDDEN
 10
135.2254069986
 20
223.7180761013
  0
VERTEX
  8
DEFAULT_2
 62
8
  6
HIDDEN
 10
134.9034490187
 20
223.6704606079
  0
VERTEX
  8
DEFAULT_2
 62
8
  6
HIDDEN
 10
134.5773764192
 20
223.6209402605
  0
VERTEX
  8
DEFAULT_2
 62
8
  6
HIDDEN
 10
134.2511577931
 20
223.5700725161
  0
VERTEX
  8
DEFAULT_2
 62
8
  6
HIDDEN
 10
133.648468458
 20
223.4730337601
  0
SEQEND
  0
POLYLINE
  8
DEFAULT_2
 62
8
  6
HIDDEN
 66
1
 70
0
  0
VERTEX
  8
DEFAULT_2
 62
8
  6
HIDDEN
 10
133.648468458
 20
223.4730337601
  0
VERTEX
  8
DEFAULT_2
 62
8
  6
HIDDEN
 10
133.5976376374
 20
223.4662022226
  0
VERTEX
  8
DEFAULT_2
 62
8
  6
HIDDEN
 10
133.5464528221
 20
223.4620924316
  0
VERTEX
  8
DEFAULT_2
 62
8
  6
HIDDEN
 10
133.4951177592
 20
223.4607221007
  0
SEQEND
  0
POLYLINE
  8
0
 62
7
  6
CONTINUOUS
 66
1
 70
0
  0
VERTEX
  8
0
 62
7
  6
CONTINUOUS
 10
105.8576581313
 20
218.3107221007
  0
VERTEX
  8
0
 62
7
  6
CONTINUOUS
 10
105.9928915424
 20
218.3192738674
  0
VERTEX
  8
0
 62
7
  6
CONTINUOUS
 10
106.129142502
 20
218.3468022368
  0
VERTEX
  8
0
 62
7
  6
CONTINUOUS
 10
106.2592588486
 20
218.3941438487
  0
VERTEX
  8
0
 62
7
  6
CONTINUOUS
 10
106.3766602873
 20
218.459002321
  0
VERTEX
  8
0
 62
7
  6
CONTINUOUS
 10
106.4788862373
 20
218.5381452282
  0
VERTEX
  8
0
 62
7
  6
CONTINUOUS
 10
106.5659929605
 20
218.6289684562
  0
VERTEX
  8
0
 62
7
  6
CONTINUOUS
 10
106.6381701623
 20
218.7287525582
  0
VERTEX
  8
0
 62
7
  6
CONTINUOUS
 10
106.6961763416
 20
218.8354617616
  0
VERTEX
  8
0
 62
7
  6
CONTINUOUS
 10
106.7412658573
 20
218.9490108738
  0
VERTEX
  8
0
 62
7
  6
CONTINUOUS
 10
106.7733355621
 20
219.0673858661
  0
VERTEX
  8
0
 62
7
  6
CONTINUOUS
 10
106.7924632727
 20
219.1887981191
  0
VERTEX
  8
0
 62
7
  6
CONTINUOUS
 10
106.7987587489
 20
219.3107221007
  0
SEQEND
  0
LINE
  8
0
 62
7
  6
CONTINUOUS
 10
72.2404477228
 20
218.3107221007
 11
128.011193415
 21
218.3107221007
  0
LINE
  8
0
 62
9
  6
CONTINUOUS
 10
126.6589516272
 20
219.3107221007
 11
123.3121752684
 21
219.3107221007
  0
LINE
  8
0
 62
9
  6
CONTINUOUS
 10
113.0886408444
 20
219.3107221007
 11
106.7987587489
 21
219.3107221007
  0
LINE
  8
DEFAULT_2
 62
8
  6
HIDDEN
 10
103.4725969277
 20
219.3107221007
 11
96.7790442102
 21
219.3107221007
  0
LINE
  8
DEFAULT_2
 62
8
  6
HIDDEN
 10
84.2380226769
 20
219.3107221007
 11
79.1104638129
 21
219.3107221007
  0
LINE
  8
DEFAULT_2
 62
8
  6
HIDDEN
 10
72.4375256329
 20
219.3107221007
 11
71.2752024014
 21
219.3107221007
  0
LINE
  8
0
 62
9
  6
CONTINUOUS
 10
73.5926895107
 20
219.3107221007
 11
76.9394658694
 21
219.3107221007
  0
LINE
  8
0
 62
9
  6
CONTINUOUS
 10
87.1630002935
 20
219.3107221007
 11
93.452882389
 21
219.3107221007
  0
LINE
  8
DEFAULT_2
 62
8
  6
HIDDEN
 10
116.013618461
 20
219.3107221007
 11
121.141177325
 21
219.3107221007
  0
LINE
  8
DEFAULT_2
 62
8
  6
HIDDEN
 10
127.8141155049
 20
219.3107221007
 11
128.9764387364
 21
219.3107221007
  0
POLYLINE
  8
DEFAULT_2
 62
8
  6
HIDDEN
 66
1
 70
0
  0
VERTEX
  8
DEFAULT_2
 62
8
  6
HIDDEN
 10
104.0784713632
 20
218.3107221007
  0
VERTEX
  8
DEFAULT_2
 62
8
  6
HIDDEN
 10
103.9872142664
 20
218.3192738674
  0
VERTEX
  8
DEFAULT_2
 62
8
  6
HIDDEN
 10
103.896590414
 20
218.3468022368
  0
VERTEX
  8
DEFAULT_2
 62
8
  6
HIDDEN
 10
103.8113362993
 20
218.3941438487
  0
VERTEX
  8
DEFAULT_2
 62
8
  6
HIDDEN
 10
103.735540523
 20
218.459002321
  0
VERTEX
  8
DEFAULT_2
 62
8
  6
HIDDEN
 10
103.6704487354
 20
218.5381452282
  0
VERTEX
  8
DEFAULT_2
 62
8
  6
HIDDEN
 10
103.6156746991
 20
218.6289684562
  0
VERTEX
  8
DEFAULT_2
 62
8
  6
HIDDEN
 10
103.5707858601
 20
218.7287525582
  0
VERTEX
  8
DEFAULT_2
 62
8
  6
HIDDEN
 10
103.5350461631
 20
218.8354617616
  0
VERTEX
  8
DEFAULT_2
 62
8
  6
HIDDEN
 10
103.5074764189
 20
218.9490108738
  0
VERTEX
  8
DEFAULT_2
 62
8
  6
HIDDEN
 10
103.4879822258
 20
219.0673858661
  0
VERTEX
  8
DEFAULT_2
 62
8
  6
HIDDEN
 10
103.47640105
 20
219.1887981191
  0
VERTEX
  8
DEFAULT_2
 62
8
  6
HIDDEN
 10
103.4725969277
 20
219.3107221007
  0
SEQEND
  0
POLYLINE
  8
0
 62
7
  6
CONTINUOUS
 66
1
 70
0
  0
VERTEX
  8
0
 62
7
  6
CONTINUOUS
 10
69.3847315454
 20
223.8056410847
  0
VERTEX
  8
0
 62
7
  6
CONTINUOUS
 10
69.7101052633
 20
223.7632838909
  0
VERTEX
  8
0
 62
7
  6
CONTINUOUS
 10
70.0347752948
 20
223.7180761013
  0
VERTEX
  8
0
 62
7
  6
CONTINUOUS
 10
70.3550632401
 20
223.6704606079
  0
VERTEX
  8
0
 62
7
  6
CONTINUOUS
 10
70.6671599852
 20
223.6209402605
  0
VERTEX
  8
0
 62
7
  6
CONTINUOUS
 10
70.9672305002
 20
223.5700725161
  0
VERTEX
  8
0
 62
7
  6
CONTINUOUS
 10
71.2516001505
 20
223.5184456401
  0
SEQEND
  0
POLYLINE
  8
0
 62
7
  6
CONTINUOUS
 66
1
 70
0
  0
VERTEX
  8
0
 62
7
  6
CONTINUOUS
 10
65.7555488188
 20
223.4730337601
  0
VERTEX
  8
0
 62
7
  6
CONTINUOUS
 10
65.8069442954
 20
223.4662022226
  0
VERTEX
  8
0
 62
7
  6
CONTINUOUS
 10
65.8586501384
 20
223.4620924316
  0
VERTEX
  8
0
 62
7
  6
CONTINUOUS
 10
65.9104598998
 20
223.4607221007
  0
SEQEND
  0
POLYLINE
  8
0
 62
7
  6
CONTINUOUS
 66
1
 70
0
  0
VERTEX
  8
0
 62
7
  6
CONTINUOUS
 10
71.494122618
 20
223.4730337601
  0
VERTEX
  8
0
 62
7
  6
CONTINUOUS
 10
71.5382578354
 20
223.4662022226
  0
VERTEX
  8
0
 62
7
  6
CONTINUOUS
 10
71.5827479787
 20
223.4620924316
  0
VERTEX
  8
0
 62
7
  6
CONTINUOUS
 10
71.6274165771
 20
223.4607221007
  0
SEQEND
  0
POLYLINE
  8
DEFAULT_2
 62
8
  6
HIDDEN
 66
1
 70
0
  0
VERTEX
  8
DEFAULT_2
 62
8
  6
HIDDEN
 10
66.0006644987
 20
223.5700438919
  0
VERTEX
  8
DEFAULT_2
 62
8
  6
HIDDEN
 10
65.6745093565
 20
223.620902615
  0
VERTEX
  8
DEFAULT_2
 62
8
  6
HIDDEN
 10
65.3484080799
 20
223.6704282422
  0
VERTEX
  8
DEFAULT_2
 62
8
  6
HIDDEN
 10
65.0263245904
 20
223.7180629033
  0
VERTEX
  8
DEFAULT_2
 62
8
  6
HIDDEN
 10
64.7121252766
 20
223.7632911158
  0
VERTEX
  8
DEFAULT_2
 62
8
  6
HIDDEN
 10
64.409542324
 20
223.8056410847
  0
SEQEND
  0
LINE
  8
0
 62
7
  6
CONTINUOUS
 10
65.1497554949
 20
223.5700725161
 11
65.7555488188
 21
223.4730337601
  0
LINE
  8
DEFAULT_2
 62
8
  6
HIDDEN
 10
66.0006644987
 20
223.5700438919
 11
66.6031726799
 21
223.4730337601
  0
POLYLINE
  8
0
 62
7
  6
CONTINUOUS
 66
1
 70
0
  0
VERTEX
  8
0
 62
7
  6
CONTINUOUS
 10
63.7422633752
 20
223.8056410847
  0
VERTEX
  8
0
 62
7
  6
CONTINUOUS
 10
63.9856552441
 20
223.7632838909
  0
VERTEX
  8
0
 62
7
  6
CONTINUOUS
 10
64.2512211219
 20
223.7180761013
  0
VERTEX
  8
0
 62
7
  6
CONTINUOUS
 10
64.5360162523
 20
223.6704606079
  0
VERTEX
  8
0
 62
7
  6
CONTINUOUS
 10
65.1497554949
 20
223.5700725161
  0
SEQEND
  0
LINE
  8
0
 62
7
  6
CONTINUOUS
 10
68.7995549331
 20
223.5184456401
 11
69.0534869819
 21
223.4730337601
  0
POLYLINE
  8
DEFAULT_2
 62
8
  6
HIDDEN
 66
1
 70
0
  0
VERTEX
  8
DEFAULT_2
 62
8
  6
HIDDEN
 10
78.0677497931
 20
223.8056410847
  0
VERTEX
  8
DEFAULT_2
 62
8
  6
HIDDEN
 10
77.9084452099
 20
223.8343586063
  0
VERTEX
  8
DEFAULT_2
 62
8
  6
HIDDEN
 10
77.7420261198
 20
223.8807359965
  0
VERTEX
  8
DEFAULT_2
 62
8
  6
HIDDEN
 10
77.5749667246
 20
223.9437247933
  0
VERTEX
  8
DEFAULT_2
 62
8
  6
HIDDEN
 10
77.4131634177
 20
224.0212125045
  0
VERTEX
  8
DEFAULT_2
 62
8
  6
HIDDEN
 10
77.2602678375
 20
224.1115942891
  0
VERTEX
  8
DEFAULT_2
 62
8
  6
HIDDEN
 10
77.1219054878
 20
224.2119271902
  0
SEQEND
  0
POLYLINE
  8
0
 62
7
  6
CONTINUOUS
 66
1
 70
0
  0
VERTEX
  8
0
 62
7
  6
CONTINUOUS
 10
68.7995549331
 20
223.5184456401
  0
VERTEX
  8
0
 62
7
  6
CONTINUOUS
 10
68.5178092102
 20
223.5700438919
  0
VERTEX
  8
0
 62
7
  6
CONTINUOUS
 10
68.2557787812
 20
223.620902615
  0
VERTEX
  8
0
 62
7
  6
CONTINUOUS
 10
68.0166467894
 20
223.6704282422
  0
VERTEX
  8
0
 62
7
  6
CONTINUOUS
 10
67.8032708953
 20
223.7180629033
  0
VERTEX
  8
0
 62
7
  6
CONTINUOUS
 10
67.618143582
 20
223.7632911158
  0
VERTEX
  8
0
 62
7
  6
CONTINUOUS
 10
67.463378388
 20
223.8056410847
  0
SEQEND
  0
LINE
  8
0
 62
7
  6
CONTINUOUS
 10
71.494122618
 20
223.4730337601
 11
71.2516001505
 21
223.5184456401
  0
POLYLINE
  8
DEFAULT_2
 62
8
  6
HIDDEN
 66
1
 70
0
  0
VERTEX
  8
DEFAULT_2
 62
8
  6
HIDDEN
 10
76.0992071544
 20
223.4730337601
  0
VERTEX
  8
DEFAULT_2
 62
8
  6
HIDDEN
 10
76.1338143756
 20
223.4662022226
  0
VERTEX
  8
DEFAULT_2
 62
8
  6
HIDDEN
 10
76.1685421797
 20
223.4620924316
  0
VERTEX
  8
DEFAULT_2
 62
8
  6
HIDDEN
 10
76.203250741
 20
223.4607221007
  0
SEQEND
  0
LINE
  8
DEFAULT_2
 62
8
  6
HIDDEN
 10
76.0992071544
 20
223.4730337601
 11
75.9062258856
 21
223.5184456401
  0
POLYLINE
  8
DEFAULT_2
 62
8
  6
HIDDEN
 66
1
 70
0
  0
VERTEX
  8
DEFAULT_2
 62
8
  6
HIDDEN
 10
79.6629771117
 20
223.5184456401
  0
VERTEX
  8
DEFAULT_2
 62
8
  6
HIDDEN
 10
79.4510595713
 20
223.5700438919
  0
VERTEX
  8
DEFAULT_2
 62
8
  6
HIDDEN
 10
79.2133913318
 20
223.620902615
  0
VERTEX
  8
DEFAULT_2
 62
8
  6
HIDDEN
 10
78.9529071819
 20
223.6704282422
  0
VERTEX
  8
DEFAULT_2
 62
8
  6
HIDDEN
 10
78.6728225413
 20
223.7180629033
  0
VERTEX
  8
DEFAULT_2
 62
8
  6
HIDDEN
 10
78.3765685779
 20
223.7632911158
  0
VERTEX
  8
DEFAULT_2
 62
8
  6
HIDDEN
 10
78.0677497931
 20
223.8056410847
  0
SEQEND
  0
LINE
  8
DEFAULT_2
 62
8
  6
HIDDEN
 10
79.6629771117
 20
223.5184456401
 11
79.8384778879
 21
223.4730337601
  0
POLYLINE
  8
0
 62
7
  6
CONTINUOUS
 66
1
 70
0
  0
VERTEX
  8
0
 62
7
  6
CONTINUOUS
 10
85.9341374
 20
223.5184456401
  0
VERTEX
  8
0
 62
7
  6
CONTINUOUS
 10
86.0070634607
 20
223.4881686551
  0
VERTEX
  8
0
 62
7
  6
CONTINUOUS
 10
86.0428914998
 20
223.4730337601
  0
SEQEND
  0
POLYLINE
  8
0
 62
7
  6
CONTINUOUS
 66
1
 70
0
  0
VERTEX
  8
0
 62
7
  6
CONTINUOUS
 10
85.9341374
 20
223.5184456401
  0
VERTEX
  8
0
 62
7
  6
CONTINUOUS
 10
85.8246937204
 20
223.5700438919
  0
VERTEX
  8
0
 62
7
  6
CONTINUOUS
 10
85.7493949544
 20
223.620902615
  0
VERTEX
  8
0
 62
7
  6
CONTINUOUS
 10
85.709124764
 20
223.6704282422
  0
VERTEX
  8
0
 62
7
  6
CONTINUOUS
 10
85.701945248
 20
223.7009811177
  0
SEQEND
  0
POLYLINE
  8
0
 62
7
  6
CONTINUOUS
 66
1
 70
0
  0
VERTEX
  8
0
 62
7
  6
CONTINUOUS
 10
90.6297860944
 20
223.4730337601
  0
VERTEX
  8
0
 62
7
  6
CONTINUOUS
 10
90.6002471815
 20
223.4881686558
  0
VERTEX
  8
0
 62
7
  6
CONTINUOUS
 10
90.5711432576
 20
223.5033060706
  0
VERTEX
  8
0
 62
7
  6
CONTINUOUS
 10
90.5424749932
 20
223.5184456401
  0
SEQEND
  0
POLYLINE
  8
0
 62
7
  6
CONTINUOUS
 66
1
 70
0
  0
VERTEX
  8
0
 62
7
  6
CONTINUOUS
 10
88.5574223274
 20
224.2119271902
  0
VERTEX
  8
0
 62
7
  6
CONTINUOUS
 10
88.688586137
 20
224.1117390065
  0
VERTEX
  8
0
 62
7
  6
CONTINUOUS
 10
88.8311540285
 20
224.0213689911
  0
VERTEX
  8
0
 62
7
  6
CONTINUOUS
 10
88.9792134519
 20
223.9438373458
  0
VERTEX
  8
0
 62
7
  6
CONTINUOUS
 10
89.1289528816
 20
223.8807923938
  0
VERTEX
  8
0
 62
7
  6
CONTINUOUS
 10
89.2748456623
 20
223.8343733263
  0
VERTEX
  8
0
 62
7
  6
CONTINUOUS
 10
89.4112969188
 20
223.8056410847
  0
SEQEND
  0
POLYLINE
  8
DEFAULT_2
 62
8
  6
HIDDEN
 66
1
 70
0
  0
VERTEX
  8
DEFAULT_2
 62
8
  6
HIDDEN
 10
75.1240659741
 20
236.5056410847
  0
VERTEX
  8
DEFAULT_2
 62
8
  6
HIDDEN
 10
75.1715902335
 20
236.4632838909
  0
VERTEX
  8
DEFAULT_2
 62
8
  6
HIDDEN
 10
75.253790732
 20
236.4180761013
  0
VERTEX
  8
DEFAULT_2
 62
8
  6
HIDDEN
 10
75.3698342408
 20
236.3704606079
  0
VERTEX
  8
DEFAULT_2
 62
8
  6
HIDDEN
 10
75.518466172
 20
236.3209402605
  0
VERTEX
  8
DEFAULT_2
 62
8
  6
HIDDEN
 10
75.6979700533
 20
236.2700725161
  0
VERTEX
  8
DEFAULT_2
 62
8
  6
HIDDEN
 10
75.9062258856
 20
236.2184456401
  0
SEQEND
  0
POLYLINE
  8
0
 62
7
  6
CONTINUOUS
 66
1
 70
0
  0
VERTEX
  8
0
 62
7
  6
CONTINUOUS
 10
87.9394249466
 20
224.7933294253
  0
VERTEX
  8
0
 62
7
  6
CONTINUOUS
 10
88.0959613473
 20
224.6344283595
  0
VERTEX
  8
0
 62
7
  6
CONTINUOUS
 10
88.2553681387
 20
224.4809456527
  0
VERTEX
  8
0
 62
7
  6
CONTINUOUS
 10
88.4114430706
 20
224.3383331651
  0
VERTEX
  8
0
 62
7
  6
CONTINUOUS
 10
88.5574223274
 20
224.2119271902
  0
SEQEND
  0
POLYLINE
  8
0
 62
7
  6
CONTINUOUS
 66
1
 70
0
  0
VERTEX
  8
0
 62
7
  6
CONTINUOUS
 10
86.1848146859
 20
229.7095170111
  0
VERTEX
  8
0
 62
7
  6
CONTINUOUS
 10
86.1123919054
 20
229.8096078786
  0
VERTEX
  8
0
 62
7
  6
CONTINUOUS
 10
86.0385891658
 20
229.9000135215
  0
VERTEX
  8
0
 62
7
  6
CONTINUOUS
 10
85.9678204554
 20
229.9775688328
  0
VERTEX
  8
0
 62
7
  6
CONTINUOUS
 10
85.9028235736
 20
230.0406041415
  0
VERTEX
  8
0
 62
7
  6
CONTINUOUS
 10
85.8463559268
 20
230.0870486478
  0
VERTEX
  8
0
 62
7
  6
CONTINUOUS
 10
85.800334151
 20
230.1158031166
  0
SEQEND
  0
POLYLINE
  8
0
 62
7
  6
CONTINUOUS
 66
1
 70
0
  0
VERTEX
  8
0
 62
7
  6
CONTINUOUS
 10
85.701945248
 20
230.2204630836
  0
VERTEX
  8
0
 62
7
  6
CONTINUOUS
 10
85.7042974176
 20
230.203381298
  0
VERTEX
  8
0
 62
7
  6
CONTINUOUS
 10
85.7348652321
 20
230.1581530856
  0
VERTEX
  8
0
 62
7
  6
CONTINUOUS
 10
85.800334151
 20
230.1158031166
  0
SEQEND
  0
POLYLINE
  8
0
 62
7
  6
CONTINUOUS
 66
1
 70
0
  0
VERTEX
  8
0
 62
7
  6
CONTINUOUS
 10
87.1630002935
 20
247.3107221007
  0
VERTEX
  8
0
 62
7
  6
CONTINUOUS
 10
87.1621855904
 20
247.4298359633
  0
VERTEX
  8
0
 62
7
  6
CONTINUOUS
 10
87.1596972349
 20
247.5476121114
  0
VERTEX
  8
0
 62
7
  6
CONTINUOUS
 10
87.1554069421
 20
247.6625904463
  0
VERTEX
  8
0
 62
7
  6
CONTINUOUS
 10
87.1490414525
 20
247.7742080761
  0
VERTEX
  8
0
 62
7
  6
CONTINUOUS
 10
87.1402686299
 20
247.8805569842
  0
VERTEX
  8
0
 62
7
  6
CONTINUOUS
 10
87.1285056672
 20
247.9809587389
  0
VERTEX
  8
0
 62
7
  6
CONTINUOUS
 10
87.1132139969
 20
248.0726241882
  0
VERTEX
  8
0
 62
7
  6
CONTINUOUS
 10
87.093953868
 20
248.1523995196
  0
VERTEX
  8
0
 62
7
  6
CONTINUOUS
 10
87.0703525686
 20
248.2177536614
  0
VERTEX
  8
0
 62
7
  6
CONTINUOUS
 10
87.041448442
 20
248.2676566633
  0
VERTEX
  8
0
 62
7
  6
CONTINUOUS
 10
87.0065579373
 20
248.2995617736
  0
VERTEX
  8
0
 62
7
  6
CONTINUOUS
 10
86.9654294388
 20
248.3107221007
  0
SEQEND
  0
LINE
  8
0
 62
7
  6
CONTINUOUS
 10
87.1630002935
 20
219.3107221007
 11
87.1630002935
 21
223.4607221007
  0
LINE
  8
0
 62
7
  6
CONTINUOUS
 10
87.1630002935
 20
230.4607221007
 11
87.1630002935
 21
236.1607221007
  0
LINE
  8
0
 62
7
  6
CONTINUOUS
 10
87.1630002935
 20
243.1607221007
 11
87.1630002935
 21
247.3107221007
  0
LINE
  8
DEFAULT_2
 62
8
  6
HIDDEN
 10
87.1760630171
 20
223.4607221007
 11
87.1760630171
 21
230.4607221007
  0
LINE
  8
DEFAULT_2
 62
8
  6
HIDDEN
 10
87.1760630171
 20
236.1607221007
 11
87.1760630171
 21
243.1607221007
  0
LINE
  8
DEFAULT_2
 62
8
  6
HIDDEN
 10
87.2091069339
 20
223.4607221007
 11
87.2091069339
 21
230.4607221007
  0
LINE
  8
DEFAULT_2
 62
8
  6
HIDDEN
 10
87.2091069339
 20
236.1607221007
 11
87.2091069339
 21
243.1607221007
  0
LINE
  8
0
 62
9
  6
CONTINUOUS
 10
87.9394249466
 20
224.7933294253
 11
87.9394249466
 21
229.128114776
  0
LINE
  8
0
 62
9
  6
CONTINUOUS
 10
87.9394249466
 20
237.4933294253
 11
87.9394249466
 21
241.828114776
  0
LINE
  8
0
 62
9
  6
CONTINUOUS
 10
88.5574223274
 20
224.2119271902
 11
88.5574223274
 21
229.7095170111
  0
LINE
  8
0
 62
9
  6
CONTINUOUS
 10
88.5574223274
 20
236.9119271902
 11
88.5574223274
 21
242.4095170111
  0
POLYLINE
  8
0
 62
7
  6
CONTINUOUS
 66
1
 70
0
  0
VERTEX
  8
0
 62
7
  6
CONTINUOUS
 10
85.701945248
 20
223.7009811177
  0
VERTEX
  8
0
 62
7
  6
CONTINUOUS
 10
85.7042974176
 20
223.7180629033
  0
VERTEX
  8
0
 62
7
  6
CONTINUOUS
 10
85.7348652321
 20
223.7632911158
  0
VERTEX
  8
0
 62
7
  6
CONTINUOUS
 10
85.800334151
 20
223.8056410847
  0
SEQEND
  0
POLYLINE
  8
DEFAULT_2
 62
8
  6
HIDDEN
 66
1
 70
0
  0
VERTEX
  8
DEFAULT_2
 62
8
  6
HIDDEN
 10
77.1219054878
 20
229.7095170111
  0
VERTEX
  8
DEFAULT_2
 62
8
  6
HIDDEN
 10
77.2598980651
 20
229.8096078786
  0
VERTEX
  8
DEFAULT_2
 62
8
  6
HIDDEN
 10
77.4127541922
 20
229.9000135215
  0
VERTEX
  8
DEFAULT_2
 62
8
  6
HIDDEN
 10
77.5746143817
 20
229.9775688328
  0
VERTEX
  8
DEFAULT_2
 62
8
  6
HIDDEN
 10
77.7417085796
 20
230.0406041415
  0
VERTEX
  8
DEFAULT_2
 62
8
  6
HIDDEN
 10
77.9082841172
 20
230.0870486478
  0
VERTEX
  8
DEFAULT_2
 62
8
  6
HIDDEN
 10
78.0677497931
 20
230.1158031166
  0
SEQEND
  0
POLYLINE
  8
0
 62
7
  6
CONTINUOUS
 66
1
 70
0
  0
VERTEX
  8
0
 62
7
  6
CONTINUOUS
 10
86.9654294388
 20
218.3107221007
  0
VERTEX
  8
0
 62
7
  6
CONTINUOUS
 10
87.0017032686
 20
218.3192738674
  0
VERTEX
  8
0
 62
7
  6
CONTINUOUS
 10
87.0357694396
 20
218.3468022368
  0
VERTEX
  8
0
 62
7
  6
CONTINUOUS
 10
87.065878418
 20
218.3941438487
  0
VERTEX
  8
0
 62
7
  6
CONTINUOUS
 10
87.0909264427
 20
218.459002321
  0
VERTEX
  8
0
 62
7
  6
CONTINUOUS
 10
87.1110330377
 20
218.5381452282
  0
VERTEX
  8
0
 62
7
  6
CONTINUOUS
 10
87.1268678299
 20
218.6289684562
  0
VERTEX
  8
0
 62
7
  6
CONTINUOUS
 10
87.1390540496
 20
218.7287525582
  0
VERTEX
  8
0
 62
7
  6
CONTINUOUS
 10
87.1482165294
 20
218.8354617616
  0
VERTEX
  8
0
 62
7
  6
CONTINUOUS
 10
87.1549411841
 20
218.9490108738
  0
VERTEX
  8
0
 62
7
  6
CONTINUOUS
 10
87.159508578
 20
219.0673858661
  0
VERTEX
  8
0
 62
7
  6
CONTINUOUS
 10
87.1621463583
 20
219.1887981191
  0
VERTEX
  8
0
 62
7
  6
CONTINUOUS
 10
87.1630002935
 20
219.3107221007
  0
SEQEND
  0
POLYLINE
  8
0
 62
7
  6
CONTINUOUS
 66
1
 70
0
  0
VERTEX
  8
0
 62
7
  6
CONTINUOUS
 10
110.840344219
 20
223.8056410847
  0
VERTEX
  8
0
 62
7
  6
CONTINUOUS
 10
110.9767398859
 20
223.8343586063
  0
VERTEX
  8
0
 62
7
  6
CONTINUOUS
 10
111.1225357596
 20
223.8807359965
  0
VERTEX
  8
0
 62
7
  6
CONTINUOUS
 10
111.2721891747
 20
223.9437247933
  0
VERTEX
  8
0
 62
7
  6
CONTINUOUS
 10
111.4202158331
 20
224.0212125045
  0
VERTEX
  8
0
 62
7
  6
CONTINUOUS
 10
111.5628467968
 20
224.1115942891
  0
VERTEX
  8
0
 62
7
  6
CONTINUOUS
 10
111.6942188104
 20
224.2119271902
  0
SEQEND
  0
POLYLINE
  8
DEFAULT_2
 62
8
  6
HIDDEN
 66
1
 70
0
  0
VERTEX
  8
DEFAULT_2
 62
8
  6
HIDDEN
 10
122.1838913448
 20
223.8056410847
  0
VERTEX
  8
DEFAULT_2
 62
8
  6
HIDDEN
 10
121.8750226289
 20
223.7632838909
  0
VERTEX
  8
DEFAULT_2
 62
8
  6
HIDDEN
 10
121.5789005309
 20
223.7180761013
  0
VERTEX
  8
DEFAULT_2
 62
8
  6
HIDDEN
 10
121.2989140733
 20
223.6704606079
  0
VERTEX
  8
DEFAULT_2
 62
8
  6
HIDDEN
 10
121.0384366562
 20
223.6209402605
  0
VERTEX
  8
DEFAULT_2
 62
8
  6
HIDDEN
 10
120.8007071849
 20
223.5700725161
  0
VERTEX
  8
DEFAULT_2
 62
8
  6
HIDDEN
 10
120.5886640262
 20
223.5184456401
  0
SEQEND
  0
POLYLINE
  8
0
 62
7
  6
CONTINUOUS
 66
1
 70
0
  0
VERTEX
  8
0
 62
7
  6
CONTINUOUS
 10
109.5725479312
 20
223.4607221007
  0
VERTEX
  8
0
 62
7
  6
CONTINUOUS
 10
109.5891744329
 20
223.4620924316
  0
VERTEX
  8
0
 62
7
  6
CONTINUOUS
 10
109.6056314441
 20
223.4662022226
  0
VERTEX
  8
0
 62
7
  6
CONTINUOUS
 10
109.6218550434
 20
223.4730337601
  0
SEQEND
  0
POLYLINE
  8
DEFAULT_2
 62
8
  6
HIDDEN
 66
1
 70
0
  0
VERTEX
  8
DEFAULT_2
 62
8
  6
HIDDEN
 10
124.0483903969
 20
223.4607221007
  0
VERTEX
  8
DEFAULT_2
 62
8
  6
HIDDEN
 10
124.0830989582
 20
223.4620924316
  0
VERTEX
  8
DEFAULT_2
 62
8
  6
HIDDEN
 10
124.1178267622
 20
223.4662022226
  0
VERTEX
  8
DEFAULT_2
 62
8
  6
HIDDEN
 10
124.1524339835
 20
223.4730337601
  0
SEQEND
  0
POLYLINE
  8
0
 62
7
  6
CONTINUOUS
 66
1
 70
0
  0
VERTEX
  8
0
 62
7
  6
CONTINUOUS
 10
128.6242245608
 20
223.4607221007
  0
VERTEX
  8
0
 62
7
  6
CONTINUOUS
 10
128.6688931591
 20
223.4620924316
  0
VERTEX
  8
0
 62
7
  6
CONTINUOUS
 10
128.7133833025
 20
223.4662022226
  0
VERTEX
  8
0
 62
7
  6
CONTINUOUS
 10
128.7575185198
 20
223.4730337601
  0
SEQEND
  0
POLYLINE
  8
0
 62
7
  6
CONTINUOUS
 66
1
 70
0
  0
VERTEX
  8
0
 62
7
  6
CONTINUOUS
 10
134.341181238
 20
223.4607221007
  0
VERTEX
  8
0
 62
7
  6
CONTINUOUS
 10
134.3929909994
 20
223.4620924316
  0
VERTEX
  8
0
 62
7
  6
CONTINUOUS
 10
134.4446968425
 20
223.4662022226
  0
VERTEX
  8
0
 62
7
  6
CONTINUOUS
 10
134.4960923191
 20
223.4730337601
  0
SEQEND
  0
POLYLINE
  8
DEFAULT_2
 62
8
  6
HIDDEN
 66
1
 70
0
  0
VERTEX
  8
DEFAULT_2
 62
8
  6
HIDDEN
 10
66.7565233787
 20
223.4607221007
  0
VERTEX
  8
DEFAULT_2
 62
8
  6
HIDDEN
 10
66.7051883157
 20
223.4620924316
  0
VERTEX
  8
DEFAULT_2
 62
8
  6
HIDDEN
 10
66.6540035005
 20
223.4662022226
  0
VERTEX
  8
DEFAULT_2
 62
8
  6
HIDDEN
 10
66.6031726799
 20
223.4730337601
  0
SEQEND
  0
POLYLINE
  8
0
 62
7
  6
CONTINUOUS
 66
1
 70
0
  0
VERTEX
  8
0
 62
7
  6
CONTINUOUS
 10
69.1912738826
 20
223.4607221007
  0
VERTEX
  8
0
 62
7
  6
CONTINUOUS
 10
69.1452384446
 20
223.4620924316
  0
VERTEX
  8
0
 62
7
  6
CONTINUOUS
 10
69.0992480616
 20
223.4662022226
  0
VERTEX
  8
0
 62
7
  6
CONTINUOUS
 10
69.0534869819
 20
223.4730337601
  0
SEQEND
  0
POLYLINE
  8
DEFAULT_2
 62
8
  6
HIDDEN
 66
1
 70
0
  0
VERTEX
  8
DEFAULT_2
 62
8
  6
HIDDEN
 10
79.9356378885
 20
223.4607221007
  0
VERTEX
  8
DEFAULT_2
 62
8
  6
HIDDEN
 10
79.903023447
 20
223.4620924316
  0
VERTEX
  8
DEFAULT_2
 62
8
  6
HIDDEN
 10
79.8705941435
 20
223.4662022226
  0
VERTEX
  8
DEFAULT_2
 62
8
  6
HIDDEN
 10
79.8384778879
 20
223.4730337601
  0
SEQEND
  0
POLYLINE
  8
0
 62
7
  6
CONTINUOUS
 66
1
 70
0
  0
VERTEX
  8
0
 62
7
  6
CONTINUOUS
 10
86.1006425802
 20
223.4607221007
  0
VERTEX
  8
0
 62
7
  6
CONTINUOUS
 10
86.0814472603
 20
223.4620924316
  0
VERTEX
  8
0
 62
7
  6
CONTINUOUS
 10
86.0621707209
 20
223.4662022226
  0
VERTEX
  8
0
 62
7
  6
CONTINUOUS
 10
86.0428914998
 20
223.4730337601
  0
SEQEND
  0
POLYLINE
  8
0
 62
7
  6
CONTINUOUS
 66
1
 70
0
  0
VERTEX
  8
0
 62
7
  6
CONTINUOUS
 10
89.4112969188
 20
223.8056410847
  0
VERTEX
  8
0
 62
7
  6
CONTINUOUS
 10
89.6664065071
 20
223.7632838909
  0
VERTEX
  8
0
 62
7
  6
CONTINUOUS
 10
89.8982639762
 20
223.7180761013
  0
VERTEX
  8
0
 62
7
  6
CONTINUOUS
 10
90.1041784472
 20
223.6704606079
  0
VERTEX
  8
0
 62
7
  6
CONTINUOUS
 10
90.2816191156
 20
223.6209402605
  0
VERTEX
  8
0
 62
7
  6
CONTINUOUS
 10
90.4283338604
 20
223.5700725161
  0
VERTEX
  8
0
 62
7
  6
CONTINUOUS
 10
90.5424749932
 20
223.5184456401
  0
SEQEND
  0
POLYLINE
  8
0
 62
7
  6
CONTINUOUS
 66
1
 70
0
  0
VERTEX
  8
0
 62
7
  6
CONTINUOUS
 10
90.6297860944
 20
223.4730337601
  0
VERTEX
  8
0
 62
7
  6
CONTINUOUS
 10
90.6460096938
 20
223.4662022226
  0
VERTEX
  8
0
 62
7
  6
CONTINUOUS
 10
90.6624667049
 20
223.4620924316
  0
VERTEX
  8
0
 62
7
  6
CONTINUOUS
 10
90.6790932066
 20
223.4607221007
  0
SEQEND
  0
POLYLINE
  8
DEFAULT_2
 62
8
  6
HIDDEN
 66
1
 70
0
  0
VERTEX
  8
DEFAULT_2
 62
8
  6
HIDDEN
 10
77.1219054878
 20
236.9119271902
  0
VERTEX
  8
DEFAULT_2
 62
8
  6
HIDDEN
 10
76.9734276832
 20
237.0383393519
  0
VERTEX
  8
DEFAULT_2
 62
8
  6
HIDDEN
 10
76.8230359869
 20
237.1809777996
  0
VERTEX
  8
DEFAULT_2
 62
8
  6
HIDDEN
 10
76.6781140705
 20
237.3344655616
  0
VERTEX
  8
DEFAULT_2
 62
8
  6
HIDDEN
 10
76.5447281065
 20
237.4933294253
  0
SEQEND
  0
POLYLINE
  8
0
 62
7
  6
CONTINUOUS
 66
1
 70
0
  0
VERTEX
  8
0
 62
7
  6
CONTINUOUS
 10
86.6649003336
 20
229.128114776
  0
VERTEX
  8
0
 62
7
  6
CONTINUOUS
 10
86.5192112479
 20
229.2870959114
  0
VERTEX
  8
0
 62
7
  6
CONTINUOUS
 10
86.3880322233
 20
229.4404741534
  0
VERTEX
  8
0
 62
7
  6
CONTINUOUS
 10
86.2754988444
 20
229.5829972821
  0
VERTEX
  8
0
 62
7
  6
CONTINUOUS
 10
86.1848146859
 20
229.7095170111
  0
SEQEND
  0
POLYLINE
  8
0
 62
7
  6
CONTINUOUS
 66
1
 70
0
  0
VERTEX
  8
0
 62
7
  6
CONTINUOUS
 10
85.701945248
 20
242.9204630836
  0
VERTEX
  8
0
 62
7
  6
CONTINUOUS
 10
85.7042974176
 20
242.903381298
  0
VERTEX
  8
0
 62
7
  6
CONTINUOUS
 10
85.7348652321
 20
242.8581530856
  0
VERTEX
  8
0
 62
7
  6
CONTINUOUS
 10
85.800334151
 20
242.8158031166
  0
SEQEND
  0
LINE
  8
0
 62
9
  6
CONTINUOUS
 10
90.5424749932
 20
223.5184456401
 11
90.5424749932
 21
230.4029985612
  0
LINE
  8
0
 62
9
  6
CONTINUOUS
 10
90.5424749932
 20
236.2184456401
 11
90.5424749932
 21
243.1029985612
  0
LINE
  8
DEFAULT_2
 62
8
  6
HIDDEN
 10
91.4769611273
 20
218.3107221007
 11
91.4769611273
 21
248.3107221007
  0
LINE
  8
0
 62
7
  6
CONTINUOUS
 10
92.3099336893
 20
223.4607221007
 11
92.3099336893
 21
230.4607221007
  0
LINE
  8
0
 62
7
  6
CONTINUOUS
 10
92.3099336893
 20
236.1607221007
 11
92.3099336893
 21
243.1607221007
  0
POLYLINE
  8
DEFAULT_2
 62
8
  6
HIDDEN
 66
1
 70
0
  0
VERTEX
  8
DEFAULT_2
 62
8
  6
HIDDEN
 10
97.6896778744
 20
243.1607221007
  0
VERTEX
  8
DEFAULT_2
 62
8
  6
HIDDEN
 10
97.68831102
 20
243.1593517415
  0
VERTEX
  8
DEFAULT_2
 62
8
  6
HIDDEN
 10
97.6868110049
 20
243.1552427128
  0
VERTEX
  8
DEFAULT_2
 62
8
  6
HIDDEN
 10
97.6851849328
 20
243.1484104413
  0
SEQEND
  0
POLYLINE
  8
0
 62
7
  6
CONTINUOUS
 66
1
 70
0
  0
VERTEX
  8
0
 62
7
  6
CONTINUOUS
 10
85.800334151
 20
236.5056410847
  0
VERTEX
  8
0
 62
7
  6
CONTINUOUS
 10
85.8463054207
 20
236.5343586063
  0
VERTEX
  8
0
 62
7
  6
CONTINUOUS
 10
85.9027079502
 20
236.5807359965
  0
VERTEX
  8
0
 62
7
  6
CONTINUOUS
 10
85.9676747377
 20
236.6437247933
  0
VERTEX
  8
0
 62
7
  6
CONTINUOUS
 10
86.0384006473
 20
236.7212125045
  0
VERTEX
  8
0
 62
7
  6
CONTINUOUS
 10
86.1122052282
 20
236.8115942891
  0
VERTEX
  8
0
 62
7
  6
CONTINUOUS
 10
86.1848146859
 20
236.9119271902
  0
SEQEND
  0
POLYLINE
  8
DEFAULT_2
 62
8
  6
HIDDEN
 66
1
 70
0
  0
VERTEX
  8
DEFAULT_2
 62
8
  6
HIDDEN
 10
98.2044674115
 20
223.8056410847
  0
VERTEX
  8
DEFAULT_2
 62
8
  6
HIDDEN
 10
98.0338869323
 20
223.7632838909
  0
VERTEX
  8
DEFAULT_2
 62
8
  6
HIDDEN
 10
97.8942595246
 20
223.7180761013
  0
VERTEX
  8
DEFAULT_2
 62
8
  6
HIDDEN
 10
97.7872533644
 20
223.6704606079
  0
VERTEX
  8
DEFAULT_2
 62
8
  6
HIDDEN
 10
97.7142514081
 20
223.6209402605
  0
VERTEX
  8
DEFAULT_2
 62
8
  6
HIDDEN
 10
97.6762473533
 20
223.5700725161
  0
VERTEX
  8
DEFAULT_2
 62
8
  6
HIDDEN
 10
97.670468569
 20
223.5407721007
  0
SEQEND
  0
LINE
  8
0
 62
7
  6
CONTINUOUS
 10
134.341181238
 20
223.4607221007
 11
131.198154156
 21
223.4607221007
  0
LINE
  8
DEFAULT_2
 62
8
  6
HIDDEN
 10
131.198154156
 20
223.4607221007
 11
131.0603672553
 21
223.4607221007
  0
LINE
  8
DEFAULT_2
 62
8
  6
HIDDEN
 10
103.4725969277
 20
223.4607221007
 11
96.7790442102
 21
223.4607221007
  0
LINE
  8
0
 62
7
  6
CONTINUOUS
 10
93.452882389
 20
223.4607221007
 11
90.6790932066
 21
223.4607221007
  0
LINE
  8
DEFAULT_2
 62
8
  6
HIDDEN
 10
84.2380226769
 20
223.4607221007
 11
76.9394658694
 21
223.4607221007
  0
LINE
  8
0
 62
7
  6
CONTINUOUS
 10
76.9394658694
 20
223.4607221007
 11
71.6274165771
 21
223.4607221007
  0
LINE
  8
DEFAULT_2
 62
8
  6
HIDDEN
 10
71.6274165771
 20
223.4607221007
 11
71.494122618
 21
223.4607221007
  0
LINE
  8
0
 62
7
  6
CONTINUOUS
 10
65.9104598998
 20
223.4607221007
 11
71.494122618
 21
223.4607221007
  0
LINE
  8
0
 62
7
  6
CONTINUOUS
 10
86.1006425802
 20
223.4607221007
 11
90.6297860944
 21
223.4607221007
  0
LINE
  8
DEFAULT_2
 62
8
  6
HIDDEN
 10
90.6297860944
 20
223.4607221007
 11
90.6790932066
 21
223.4607221007
  0
LINE
  8
0
 62
7
  6
CONTINUOUS
 10
106.7987587489
 20
223.4607221007
 11
114.1509985577
 21
223.4607221007
  0
LINE
  8
DEFAULT_2
 62
8
  6
HIDDEN
 10
116.013618461
 20
223.4607221007
 11
123.3121752684
 21
223.4607221007
  0
LINE
  8
0
 62
7
  6
CONTINUOUS
 10
123.3121752684
 20
223.4607221007
 11
131.0603672553
 21
223.4607221007
  0
LINE
  8
0
 62
9
  6
CONTINUOUS
 10
131.198154156
 20
223.4730337601
 11
128.7575185198
 21
223.4730337601
  0
LINE
  8
0
 62
9
  6
CONTINUOUS
 10
114.2087496381
 20
223.4730337601
 11
109.6218550434
 21
223.4730337601
  0
LINE
  8
DEFAULT_2
 62
8
  6
HIDDEN
 10
102.5664562051
 20
223.4730337601
 11
97.6851849328
 21
223.4730337601
  0
LINE
  8
DEFAULT_2
 62
8
  6
HIDDEN
 10
79.8384778879
 20
223.4730337601
 11
76.0992071544
 21
223.4730337601
  0
LINE
  8
DEFAULT_2
 62
8
  6
HIDDEN
 10
66.6031726799
 20
223.4730337601
 11
65.7555488188
 21
223.4730337601
  0
LINE
  8
0
 62
9
  6
CONTINUOUS
 10
69.0534869819
 20
223.4730337601
 11
71.494122618
 21
223.4730337601
  0
LINE
  8
0
 62
9
  6
CONTINUOUS
 10
86.0428914998
 20
223.4730337601
 11
90.6297860944
 21
223.4730337601
  0
LINE
  8
DEFAULT_2
 62
8
  6
HIDDEN
 10
120.4131632499
 20
223.4730337601
 11
124.1524339835
 21
223.4730337601
  0
LINE
  8
DEFAULT_2
 62
8
  6
HIDDEN
 10
133.648468458
 20
223.4730337601
 11
134.4960923191
 21
223.4730337601
  0
LINE
  8
0
 62
9
  6
CONTINUOUS
 10
132.7882627499
 20
223.8056410847
 11
130.8669095925
 21
223.8056410847
  0
LINE
  8
0
 62
9
  6
CONTINUOUS
 10
114.4513069869
 20
223.8056410847
 11
110.840344219
 21
223.8056410847
  0
LINE
  8
DEFAULT_2
 62
8
  6
HIDDEN
 10
102.0471737263
 20
223.8056410847
 11
98.2044674115
 21
223.8056410847
  0
LINE
  8
DEFAULT_2
 62
8
  6
HIDDEN
 10
78.0677497931
 20
223.8056410847
 11
75.1240659741
 21
223.8056410847
  0
LINE
  8
DEFAULT_2
 62
8
  6
HIDDEN
 10
64.409542324
 20
223.8056410847
 11
63.7422633752
 21
223.8056410847
  0
LINE
  8
0
 62
9
  6
CONTINUOUS
 10
67.463378388
 20
223.8056410847
 11
69.3847315454
 21
223.8056410847
  0
LINE
  8
0
 62
9
  6
CONTINUOUS
 10
85.800334151
 20
223.8056410847
 11
89.4112969188
 21
223.8056410847
  0
LINE
  8
DEFAULT_2
 62
8
  6
HIDDEN
 10
122.1838913448
 20
223.8056410847
 11
125.1275751637
 21
223.8056410847
  0
LINE
  8
DEFAULT_2
 62
8
  6
HIDDEN
 10
135.8420988138
 20
223.8056410847
 11
136.5093777627
 21
223.8056410847
  0
LINE
  8
DEFAULT_2
 62
8
  6
HIDDEN
 10
137.1678332667
 20
224.7933294253
 11
136.9323106377
 21
224.7933294253
  0
LINE
  8
DEFAULT_2
 62
8
  6
HIDDEN
 10
124.7459150154
 20
224.7933294253
 11
123.7069130313
 21
224.7933294253
  0
LINE
  8
DEFAULT_2
 62
8
  6
HIDDEN
 10
100.8039809507
 20
224.7933294253
 11
99.4476601871
 21
224.7933294253
  0
LINE
  8
DEFAULT_2
 62
8
  6
HIDDEN
 10
76.5447281065
 20
224.7933294253
 11
75.5057261225
 21
224.7933294253
  0
LINE
  8
DEFAULT_2
 62
8
  6
HIDDEN
 10
63.3193305001
 20
224.7933294253
 11
63.0838078712
 21
224.7933294253
  0
LINE
  8
0
 62
9
  6
CONTINUOUS
 10
67.3160986555
 20
224.7933294253
 11
67.9942590373
 21
224.7933294253
  0
LINE
  8
0
 62
9
  6
CONTINUOUS
 10
86.6649003336
 20
224.7933294253
 11
87.9394249466
 21
224.7933294253
  0
LINE
  8
0
 62
9
  6
CONTINUOUS
 10
112.3122161913
 20
224.7933294253
 11
113.5867408043
 21
224.7933294253
  0
LINE
  8
0
 62
9
  6
CONTINUOUS
 10
132.2573821005
 20
224.7933294253
 11
132.9355424824
 21
224.7933294253
  0
POLYLINE
  8
DEFAULT_2
 62
8
  6
HIDDEN
 66
1
 70
0
  0
VERTEX
  8
DEFAULT_2
 62
8
  6
HIDDEN
 10
102.0471737263
 20
223.8056410847
  0
VERTEX
  8
DEFAULT_2
 62
8
  6
HIDDEN
 10
101.9501383061
 20
223.8343586063
  0
VERTEX
  8
DEFAULT_2
 62
8
  6
HIDDEN
 10
101.842550783
 20
223.8807359965
  0
VERTEX
  8
DEFAULT_2
 62
8
  6
HIDDEN
 10
101.7283537584
 20
223.9437247933
  0
VERTEX
  8
DEFAULT_2
 62
8
  6
HIDDEN
 10
101.6119579481
 20
224.0212125045
  0
VERTEX
  8
DEFAULT_2
 62
8
  6
HIDDEN
 10
101.4967950003
 20
224.1115942891
  0
VERTEX
  8
DEFAULT_2
 62
8
  6
HIDDEN
 10
101.3882587264
 20
224.2119271902
  0
SEQEND
  0
POLYLINE
  8
0
 62
7
  6
CONTINUOUS
 66
1
 70
0
  0
VERTEX
  8
0
 62
7
  6
CONTINUOUS
 10
67.463378388
 20
236.5056410847
  0
VERTEX
  8
0
 62
7
  6
CONTINUOUS
 10
67.3974147925
 20
236.5343586063
  0
VERTEX
  8
0
 62
7
  6
CONTINUOUS
 10
67.3380326075
 20
236.5807359965
  0
VERTEX
  8
0
 62
7
  6
CONTINUOUS
 10
67.2879140854
 20
236.6437247933
  0
VERTEX
  8
0
 62
7
  6
CONTINUOUS
 10
67.2482458071
 20
236.7212125045
  0
VERTEX
  8
0
 62
7
  6
CONTINUOUS
 10
67.2186900216
 20
236.8115942891
  0
VERTEX
  8
0
 62
7
  6
CONTINUOUS
 10
67.1985621511
 20
236.9119271902
  0
SEQEND
  0
POLYLINE
  8
0
 62
7
  6
CONTINUOUS
 66
1
 70
0
  0
VERTEX
  8
0
 62
7
  6
CONTINUOUS
 10
93.452882389
 20
219.3107221007
  0
VERTEX
  8
0
 62
7
  6
CONTINUOUS
 10
93.4591778651
 20
219.1887981191
  0
VERTEX
  8
0
 62
7
  6
CONTINUOUS
 10
93.4783055758
 20
219.0673858661
  0
VERTEX
  8
0
 62
7
  6
CONTINUOUS
 10
93.5103752806
 20
218.9490108738
  0
VERTEX
  8
0
 62
7
  6
CONTINUOUS
 10
93.5554647963
 20
218.8354617616
  0
VERTEX
  8
0
 62
7
  6
CONTINUOUS
 10
93.6134709755
 20
218.7287525582
  0
VERTEX
  8
0
 62
7
  6
CONTINUOUS
 10
93.6856481774
 20
218.6289684562
  0
VERTEX
  8
0
 62
7
  6
CONTINUOUS
 10
93.7727549006
 20
218.5381452282
  0
VERTEX
  8
0
 62
7
  6
CONTINUOUS
 10
93.8749808505
 20
218.459002321
  0
VERTEX
  8
0
 62
7
  6
CONTINUOUS
 10
93.9923822892
 20
218.3941438487
  0
VERTEX
  8
0
 62
7
  6
CONTINUOUS
 10
94.1224986359
 20
218.3468022368
  0
VERTEX
  8
0
 62
7
  6
CONTINUOUS
 10
94.2587495955
 20
218.3192738674
  0
VERTEX
  8
0
 62
7
  6
CONTINUOUS
 10
94.3939830066
 20
218.3107221007
  0
SEQEND
  0
LINE
  8
0
 62
7
  6
CONTINUOUS
 10
93.452882389
 20
219.3107221007
 11
93.452882389
 21
223.4607221007
  0
LINE
  8
0
 62
7
  6
CONTINUOUS
 10
93.452882389
 20
230.4607221007
 11
93.452882389
 21
236.1607221007
  0
LINE
  8
0
 62
7
  6
CONTINUOUS
 10
93.452882389
 20
243.1607221007
 11
93.452882389
 21
247.3107221007
  0
POLYLINE
  8
0
 62
7
  6
CONTINUOUS
 66
1
 70
0
  0
VERTEX
  8
0
 62
7
  6
CONTINUOUS
 10
86.1848146859
 20
224.2119271902
  0
VERTEX
  8
0
 62
7
  6
CONTINUOUS
 10
86.2754177571
 20
224.3383393519
  0
VERTEX
  8
0
 62
7
  6
CONTINUOUS
 10
86.3880386029
 20
224.4809777996
  0
VERTEX
  8
0
 62
7
  6
CONTINUOUS
 10
86.5193151763
 20
224.6344655616
  0
VERTEX
  8
0
 62
7
  6
CONTINUOUS
 10
86.6649003336
 20
224.7933294253
  0
SEQEND
  0
LINE
  8
DEFAULT_2
 62
8
  6
HIDDEN
 10
101.119395416
 20
242.1404741534
 11
101.3882587264
 21
242.4095170111
  0
LINE
  8
DEFAULT_2
 62
8
  6
HIDDEN
 10
100.8039809507
 20
241.828114776
 11
101.119395416
 21
242.1404741534
  0
POLYLINE
  8
DEFAULT_2
 62
8
  6
HIDDEN
 66
1
 70
0
  0
VERTEX
  8
DEFAULT_2
 62
8
  6
HIDDEN
 10
101.3882587264
 20
242.4095170111
  0
VERTEX
  8
DEFAULT_2
 62
8
  6
HIDDEN
 10
101.4965104089
 20
242.5096078786
  0
VERTEX
  8
DEFAULT_2
 62
8
  6
HIDDEN
 10
101.6116564088
 20
242.6000135215
  0
VERTEX
  8
DEFAULT_2
 62
8
  6
HIDDEN
 10
101.7281064517
 20
242.6775688328
  0
VERTEX
  8
DEFAULT_2
 62
8
  6
HIDDEN
 10
101.8423395578
 20
242.7406041415
  0
VERTEX
  8
DEFAULT_2
 62
8
  6
HIDDEN
 10
101.9500371986
 20
242.7870486478
  0
VERTEX
  8
DEFAULT_2
 62
8
  6
HIDDEN
 10
102.0471737263
 20
242.8158031166
  0
SEQEND
  0
POLYLINE
  8
0
 62
7
  6
CONTINUOUS
 66
1
 70
0
  0
VERTEX
  8
0
 62
7
  6
CONTINUOUS
 10
132.7882627499
 20
236.5056410847
  0
VERTEX
  8
0
 62
7
  6
CONTINUOUS
 10
132.6334695112
 20
236.4632838909
  0
VERTEX
  8
0
 62
7
  6
CONTINUOUS
 10
132.4484268874
 20
236.4180761013
  0
VERTEX
  8
0
 62
7
  6
CONTINUOUS
 10
132.2351451023
 20
236.3704606079
  0
VERTEX
  8
0
 62
7
  6
CONTINUOUS
 10
131.9960503135
 20
236.3209402605
  0
VERTEX
  8
0
 62
7
  6
CONTINUOUS
 10
131.7339838532
 20
236.2700725161
  0
VERTEX
  8
0
 62
7
  6
CONTINUOUS
 10
131.4520862048
 20
236.2184456401
  0
SEQEND
  0
POLYLINE
  8
0
 62
7
  6
CONTINUOUS
 66
1
 70
0
  0
VERTEX
  8
0
 62
7
  6
CONTINUOUS
 10
136.5093777627
 20
236.5056410847
  0
VERTEX
  8
0
 62
7
  6
CONTINUOUS
 10
136.6227110762
 20
236.5343586063
  0
VERTEX
  8
0
 62
7
  6
CONTINUOUS
 10
136.7327276368
 20
236.5807359965
  0
VERTEX
  8
0
 62
7
  6
CONTINUOUS
 10
136.8348202444
 20
236.6437247933
  0
VERTEX
  8
0
 62
7
  6
CONTINUOUS
 10
136.9258976418
 20
236.7212125045
  0
VERTEX
  8
0
 62
7
  6
CONTINUOUS
 10
137.0049886411
 20
236.8115942891
  0
VERTEX
  8
0
 62
7
  6
CONTINUOUS
 10
137.0707415331
 20
236.9119271902
  0
SEQEND
  0
LINE
  8
DEFAULT_2
 62
8
  6
HIDDEN
 10
101.1193876236
 20
224.4809777996
 11
100.8039809507
 21
224.7933294253
  0
LINE
  8
DEFAULT_2
 62
8
  6
HIDDEN
 10
101.3882587264
 20
224.2119271902
 11
101.1193876236
 21
224.4809777996
  0
POLYLINE
  8
0
 62
7
  6
CONTINUOUS
 66
1
 70
0
  0
VERTEX
  8
0
 62
7
  6
CONTINUOUS
 10
87.9394249466
 20
237.4933294253
  0
VERTEX
  8
0
 62
7
  6
CONTINUOUS
 10
88.0959613473
 20
237.3344283595
  0
VERTEX
  8
0
 62
7
  6
CONTINUOUS
 10
88.2553681387
 20
237.1809456527
  0
VERTEX
  8
0
 62
7
  6
CONTINUOUS
 10
88.4114430706
 20
237.0383331651
  0
VERTEX
  8
0
 62
7
  6
CONTINUOUS
 10
88.5574223274
 20
236.9119271902
  0
SEQEND
  0
POLYLINE
  8
0
 62
7
  6
CONTINUOUS
 66
1
 70
0
  0
VERTEX
  8
0
 62
7
  6
CONTINUOUS
 10
86.1848146859
 20
242.4095170111
  0
VERTEX
  8
0
 62
7
  6
CONTINUOUS
 10
86.1123919054
 20
242.5096078786
  0
VERTEX
  8
0
 62
7
  6
CONTINUOUS
 10
86.0385891658
 20
242.6000135215
  0
VERTEX
  8
0
 62
7
  6
CONTINUOUS
 10
85.9678204554
 20
242.6775688328
  0
VERTEX
  8
0
 62
7
  6
CONTINUOUS
 10
85.9028235736
 20
242.7406041415
  0
VERTEX
  8
0
 62
7
  6
CONTINUOUS
 10
85.8463559268
 20
242.7870486478
  0
VERTEX
  8
0
 62
7
  6
CONTINUOUS
 10
85.800334151
 20
242.8158031166
  0
SEQEND
  0
LINE
  8
DEFAULT_2
 62
8
  6
HIDDEN
 10
96.7790442102
 20
236.1607221007
 11
96.7790442102
 21
230.4607221007
  0
LINE
  8
DEFAULT_2
 62
8
  6
HIDDEN
 10
96.7790442102
 20
223.4607221007
 11
96.7790442102
 21
219.3107221007
  0
LINE
  8
DEFAULT_2
 62
8
  6
HIDDEN
 10
96.7790442102
 20
243.1607221007
 11
96.7790442102
 21
247.3107221007
  0
LINE
  8
DEFAULT_2
 62
8
  6
HIDDEN
 10
97.3941450409
 20
223.4607221007
 11
97.3941450409
 21
230.4607221007
  0
LINE
  8
DEFAULT_2
 62
8
  6
HIDDEN
 10
97.3941450409
 20
236.1607221007
 11
97.3941450409
 21
243.1607221007
  0
LINE
  8
DEFAULT_2
 62
8
  6
HIDDEN
 10
97.6704685689
 20
223.5406790344
 11
97.6704685689
 21
230.3807651669
  0
LINE
  8
DEFAULT_2
 62
8
  6
HIDDEN
 10
97.6704685689
 20
236.2406790344
 11
97.6704685689
 21
243.0807651669
  0
LINE
  8
DEFAULT_2
 62
8
  6
HIDDEN
 10
97.6737753515
 20
223.5184456401
 11
97.6737753515
 21
230.4029985612
  0
LINE
  8
DEFAULT_2
 62
8
  6
HIDDEN
 10
97.6737753515
 20
236.2184456401
 11
97.6737753515
 21
243.1029985612
  0
LINE
  8
DEFAULT_2
 62
8
  6
HIDDEN
 10
97.6958205689
 20
223.4607221007
 11
97.6958205689
 21
230.4607221007
  0
LINE
  8
DEFAULT_2
 62
8
  6
HIDDEN
 10
97.6958205689
 20
236.1607221007
 11
97.6958205689
 21
243.1607221007
  0
POLYLINE
  8
DEFAULT_2
 62
8
  6
HIDDEN
 66
1
 70
0
  0
VERTEX
  8
DEFAULT_2
 62
8
  6
HIDDEN
 10
96.7790442102
 20
219.3107221007
  0
VERTEX
  8
DEFAULT_2
 62
8
  6
HIDDEN
 10
96.7752400878
 20
219.1887981191
  0
VERTEX
  8
DEFAULT_2
 62
8
  6
HIDDEN
 10
96.763658912
 20
219.0673858661
  0
VERTEX
  8
DEFAULT_2
 62
8
  6
HIDDEN
 10
96.744164719
 20
218.9490108738
  0
VERTEX
  8
DEFAULT_2
 62
8
  6
HIDDEN
 10
96.7165949748
 20
218.8354617616
  0
VERTEX
  8
DEFAULT_2
 62
8
  6
HIDDEN
 10
96.6808552778
 20
218.7287525582
  0
VERTEX
  8
DEFAULT_2
 62
8
  6
HIDDEN
 10
96.6359664388
 20
218.6289684562
  0
VERTEX
  8
DEFAULT_2
 62
8
  6
HIDDEN
 10
96.5811924025
 20
218.5381452282
  0
VERTEX
  8
DEFAULT_2
 62
8
  6
HIDDEN
 10
96.5161006149
 20
218.459002321
  0
VERTEX
  8
DEFAULT_2
 62
8
  6
HIDDEN
 10
96.4403048386
 20
218.3941438487
  0
VERTEX
  8
DEFAULT_2
 62
8
  6
HIDDEN
 10
96.3550507238
 20
218.3468022368
  0
VERTEX
  8
DEFAULT_2
 62
8
  6
HIDDEN
 10
96.2644268715
 20
218.3192738674
  0
VERTEX
  8
DEFAULT_2
 62
8
  6
HIDDEN
 10
96.1731697747
 20
218.3107221007
  0
SEQEND
  0
LINE
  8
DEFAULT_2
 62
8
  6
HIDDEN
 10
97.670468569
 20
243.0806721006
 11
97.6737753515
 21
243.1029985612
  0
POLYLINE
  8
DEFAULT_2
 62
8
  6
HIDDEN
 66
1
 70
0
  0
VERTEX
  8
DEFAULT_2
 62
8
  6
HIDDEN
 10
97.6851849328
 20
243.1484104413
  0
VERTEX
  8
DEFAULT_2
 62
8
  6
HIDDEN
 10
97.6818385577
 20
243.1332755455
  0
VERTEX
  8
DEFAULT_2
 62
8
  6
HIDDEN
 10
97.6780353371
 20
243.1181381307
  0
VERTEX
  8
DEFAULT_2
 62
8
  6
HIDDEN
 10
97.6737753515
 20
243.1029985612
  0
SEQEND
  0
LINE
  8
DEFAULT_2
 62
8
  6
HIDDEN
 10
99.1322211986
 20
237.1809456527
 11
98.8633824115
 21
236.9119271902
  0
LINE
  8
DEFAULT_2
 62
8
  6
HIDDEN
 10
99.4476601871
 20
237.4933294253
 11
99.1322211986
 21
237.1809456527
  0
POLYLINE
  8
DEFAULT_2
 62
8
  6
HIDDEN
 66
1
 70
0
  0
VERTEX
  8
DEFAULT_2
 62
8
  6
HIDDEN
 10
98.8633824115
 20
236.9119271902
  0
VERTEX
  8
DEFAULT_2
 62
8
  6
HIDDEN
 10
98.7550163152
 20
236.8117390065
  0
VERTEX
  8
DEFAULT_2
 62
8
  6
HIDDEN
 10
98.6398994822
 20
236.7213689911
  0
VERTEX
  8
DEFAULT_2
 62
8
  6
HIDDEN
 10
98.5234722465
 20
236.6438373458
  0
VERTEX
  8
DEFAULT_2
 62
8
  6
HIDDEN
 10
98.409204841
 20
236.5807923938
  0
VERTEX
  8
DEFAULT_2
 62
8
  6
HIDDEN
 10
98.3015431179
 20
236.5343733263
  0
VERTEX
  8
DEFAULT_2
 62
8
  6
HIDDEN
 10
98.2044674115
 20
236.5056410847
  0
SEQEND
  0
POLYLINE
  8
0
 62
7
  6
CONTINUOUS
 66
1
 70
0
  0
VERTEX
  8
0
 62
7
  6
CONTINUOUS
 10
88.5574223274
 20
229.7095170111
  0
VERTEX
  8
0
 62
7
  6
CONTINUOUS
 10
88.4113219373
 20
229.5830032885
  0
VERTEX
  8
0
 62
7
  6
CONTINUOUS
 10
88.2553744013
 20
229.4405044221
  0
VERTEX
  8
0
 62
7
  6
CONTINUOUS
 10
88.0960793767
 20
229.2871324909
  0
VERTEX
  8
0
 62
7
  6
CONTINUOUS
 10
87.9394249466
 20
229.128114776
  0
SEQEND
  0
POLYLINE
  8
0
 62
7
  6
CONTINUOUS
 66
1
 70
0
  0
VERTEX
  8
0
 62
7
  6
CONTINUOUS
 10
85.9341374
 20
230.4029985612
  0
VERTEX
  8
0
 62
7
  6
CONTINUOUS
 10
85.8246937204
 20
230.3514003094
  0
VERTEX
  8
0
 62
7
  6
CONTINUOUS
 10
85.7493949544
 20
230.3005415863
  0
VERTEX
  8
0
 62
7
  6
CONTINUOUS
 10
85.709124764
 20
230.2510159591
  0
VERTEX
  8
0
 62
7
  6
CONTINUOUS
 10
85.701945248
 20
230.2204630836
  0
SEQEND
  0
POLYLINE
  8
0
 62
7
  6
CONTINUOUS
 66
1
 70
0
  0
VERTEX
  8
0
 62
7
  6
CONTINUOUS
 10
85.9341374
 20
230.4029985612
  0
VERTEX
  8
0
 62
7
  6
CONTINUOUS
 10
85.9708118028
 20
230.4181381242
  0
VERTEX
  8
0
 62
7
  6
CONTINUOUS
 10
86.0428914998
 20
230.4484104413
  0
SEQEND
  0
LINE
  8
DEFAULT_2
 62
8
  6
HIDDEN
 10
120.5305253277
 20
236.2033060706
 11
120.5886640262
 21
236.2184456401
  0
POLYLINE
  8
DEFAULT_2
 62
8
  6
HIDDEN
 66
1
 70
0
  0
VERTEX
  8
DEFAULT_2
 62
8
  6
HIDDEN
 10
124.3454152523
 20
236.2184456401
  0
VERTEX
  8
DEFAULT_2
 62
8
  6
HIDDEN
 10
124.5535627858
 20
236.2700438919
  0
VERTEX
  8
DEFAULT_2
 62
8
  6
HIDDEN
 10
124.7330519014
 20
236.320902615
  0
VERTEX
  8
DEFAULT_2
 62
8
  6
HIDDEN
 10
124.8817186974
 20
236.3704282422
  0
VERTEX
  8
DEFAULT_2
 62
8
  6
HIDDEN
 10
124.9978222166
 20
236.4180629033
  0
VERTEX
  8
DEFAULT_2
 62
8
  6
HIDDEN
 10
125.0800616082
 20
236.4632911158
  0
VERTEX
  8
DEFAULT_2
 62
8
  6
HIDDEN
 10
125.1275751637
 20
236.5056410847
  0
SEQEND
  0
LINE
  8
DEFAULT_2
 62
8
  6
HIDDEN
 10
124.3454152523
 20
236.2184456401
 11
124.1524339835
 21
236.1730337601
  0
LINE
  8
0
 62
7
  6
CONTINUOUS
 10
129.0000409874
 20
236.2184456401
 11
128.7575185198
 21
236.1730337601
  0
LINE
  8
0
 62
7
  6
CONTINUOUS
 10
131.198154156
 20
236.1730337601
 11
131.4520862048
 21
236.2184456401
  0
POLYLINE
  8
0
 62
7
  6
CONTINUOUS
 66
1
 70
0
  0
VERTEX
  8
0
 62
7
  6
CONTINUOUS
 10
135.7154297609
 20
236.3704282422
  0
VERTEX
  8
0
 62
7
  6
CONTINUOUS
 10
136.0003417479
 20
236.4180629033
  0
VERTEX
  8
0
 62
7
  6
CONTINUOUS
 10
136.2660278968
 20
236.4632911158
  0
VERTEX
  8
0
 62
7
  6
CONTINUOUS
 10
136.5093777627
 20
236.5056410847
  0
SEQEND
  0
LINE
  8
0
 62
7
  6
CONTINUOUS
 10
135.1017084151
 20
236.2700438919
 11
135.7154297609
 21
236.3704282422
  0
LINE
  8
0
 62
7
  6
CONTINUOUS
 10
135.1017084151
 20
236.2700438919
 11
134.4960923191
 21
236.1730337601
  0
LINE
  8
DEFAULT_2
 62
8
  6
HIDDEN
 10
137.1678332667
 20
229.128114776
 11
136.9323106377
 21
229.128114776
  0
LINE
  8
DEFAULT_2
 62
8
  6
HIDDEN
 10
124.7459150154
 20
229.128114776
 11
123.7069130313
 21
229.128114776
  0
LINE
  8
DEFAULT_2
 62
8
  6
HIDDEN
 10
76.5447281065
 20
229.128114776
 11
75.5057261225
 21
229.128114776
  0
LINE
  8
DEFAULT_2
 62
8
  6
HIDDEN
 10
63.3193305001
 20
229.128114776
 11
63.0838078712
 21
229.128114776
  0
LINE
  8
0
 62
9
  6
CONTINUOUS
 10
67.3160986555
 20
229.128114776
 11
67.9942590373
 21
229.128114776
  0
LINE
  8
0
 62
9
  6
CONTINUOUS
 10
86.6649003336
 20
229.128114776
 11
87.9394249466
 21
229.128114776
  0
LINE
  8
DEFAULT_2
 62
8
  6
HIDDEN
 10
99.4476601871
 20
229.128114776
 11
100.8039809507
 21
229.128114776
  0
LINE
  8
0
 62
9
  6
CONTINUOUS
 10
112.3122161913
 20
229.128114776
 11
113.5867408043
 21
229.128114776
  0
LINE
  8
0
 62
9
  6
CONTINUOUS
 10
132.2573821005
 20
229.128114776
 11
132.9355424824
 21
229.128114776
  0
LINE
  8
0
 62
9
  6
CONTINUOUS
 10
132.7882627499
 20
230.1158031166
 11
130.8669095925
 21
230.1158031166
  0
LINE
  8
0
 62
9
  6
CONTINUOUS
 10
114.4513069869
 20
230.1158031166
 11
110.840344219
 21
230.1158031166
  0
LINE
  8
DEFAULT_2
 62
8
  6
HIDDEN
 10
102.0471737263
 20
230.1158031166
 11
98.2044674115
 21
230.1158031166
  0
LINE
  8
DEFAULT_2
 62
8
  6
HIDDEN
 10
78.0677497931
 20
230.1158031166
 11
75.1240659741
 21
230.1158031166
  0
LINE
  8
DEFAULT_2
 62
8
  6
HIDDEN
 10
64.409542324
 20
230.1158031166
 11
63.7422633752
 21
230.1158031166
  0
LINE
  8
0
 62
9
  6
CONTINUOUS
 10
67.463378388
 20
230.1158031166
 11
69.3847315454
 21
230.1158031166
  0
LINE
  8
0
 62
9
  6
CONTINUOUS
 10
85.800334151
 20
230.1158031166
 11
89.4112969188
 21
230.1158031166
  0
LINE
  8
DEFAULT_2
 62
8
  6
HIDDEN
 10
122.1838913448
 20
230.1158031166
 11
125.1275751637
 21
230.1158031166
  0
LINE
  8
DEFAULT_2
 62
8
  6
HIDDEN
 10
135.8420988138
 20
230.1158031166
 11
136.5093777627
 21
230.1158031166
  0
LINE
  8
0
 62
9
  6
CONTINUOUS
 10
131.198154156
 20
230.4484104413
 11
128.7575185198
 21
230.4484104413
  0
LINE
  8
0
 62
9
  6
CONTINUOUS
 10
114.2087496381
 20
230.4484104413
 11
109.6218550434
 21
230.4484104413
  0
LINE
  8
DEFAULT_2
 62
8
  6
HIDDEN
 10
102.5664562051
 20
230.4484104413
 11
97.6851849328
 21
230.4484104413
  0
LINE
  8
DEFAULT_2
 62
8
  6
HIDDEN
 10
79.8384778879
 20
230.4484104413
 11
76.0992071544
 21
230.4484104413
  0
LINE
  8
DEFAULT_2
 62
8
  6
HIDDEN
 10
66.6031726799
 20
230.4484104413
 11
65.7555488188
 21
230.4484104413
  0
LINE
  8
0
 62
9
  6
CONTINUOUS
 10
69.0534869819
 20
230.4484104413
 11
71.494122618
 21
230.4484104413
  0
LINE
  8
0
 62
9
  6
CONTINUOUS
 10
86.0428914998
 20
230.4484104413
 11
90.6297860944
 21
230.4484104413
  0
LINE
  8
DEFAULT_2
 62
8
  6
HIDDEN
 10
120.4131632499
 20
230.4484104413
 11
124.1524339835
 21
230.4484104413
  0
LINE
  8
DEFAULT_2
 62
8
  6
HIDDEN
 10
133.648468458
 20
230.4484104413
 11
134.4960923191
 21
230.4484104413
  0
LINE
  8
0
 62
7
  6
CONTINUOUS
 10
134.341181238
 20
230.4607221007
 11
131.198154156
 21
230.4607221007
  0
LINE
  8
DEFAULT_2
 62
8
  6
HIDDEN
 10
131.198154156
 20
230.4607221007
 11
131.0603672553
 21
230.4607221007
  0
LINE
  8
0
 62
7
  6
CONTINUOUS
 10
131.0603672553
 20
230.4607221007
 11
128.7575185198
 21
230.4607221007
  0
LINE
  8
0
 62
7
  6
CONTINUOUS
 10
128.6242245608
 20
230.4607221007
 11
123.3121752684
 21
230.4607221007
  0
LINE
  8
0
 62
7
  6
CONTINUOUS
 10
114.1509985577
 20
230.4607221007
 11
109.6218550434
 21
230.4607221007
  0
LINE
  8
DEFAULT_2
 62
8
  6
HIDDEN
 10
109.6218550434
 20
230.4607221007
 11
109.5725479312
 21
230.4607221007
  0
LINE
  8
0
 62
7
  6
CONTINUOUS
 10
109.5725479312
 20
230.4607221007
 11
106.7987587489
 21
230.4607221007
  0
LINE
  8
0
 62
7
  6
CONTINUOUS
 10
93.452882389
 20
230.4607221007
 11
90.6790932066
 21
230.4607221007
  0
LINE
  8
DEFAULT_2
 62
8
  6
HIDDEN
 10
84.2380226769
 20
230.4607221007
 11
76.9394658694
 21
230.4607221007
  0
LINE
  8
0
 62
7
  6
CONTINUOUS
 10
76.9394658694
 20
230.4607221007
 11
71.6274165771
 21
230.4607221007
  0
LINE
  8
DEFAULT_2
 62
8
  6
HIDDEN
 10
71.6274165771
 20
230.4607221007
 11
71.494122618
 21
230.4607221007
  0
LINE
  8
0
 62
7
  6
CONTINUOUS
 10
65.9104598998
 20
230.4607221007
 11
71.494122618
 21
230.4607221007
  0
LINE
  8
0
 62
7
  6
CONTINUOUS
 10
86.1006425802
 20
230.4607221007
 11
90.6297860944
 21
230.4607221007
  0
LINE
  8
DEFAULT_2
 62
8
  6
HIDDEN
 10
90.6297860944
 20
230.4607221007
 11
90.6790932066
 21
230.4607221007
  0
LINE
  8
DEFAULT_2
 62
8
  6
HIDDEN
 10
96.7790442102
 20
230.4607221007
 11
103.4725969277
 21
230.4607221007
  0
LINE
  8
DEFAULT_2
 62
8
  6
HIDDEN
 10
116.013618461
 20
230.4607221007
 11
123.3121752684
 21
230.4607221007
  0
LINE
  8
DEFAULT_2
 62
8
  6
HIDDEN
 10
128.6242245608
 20
230.4607221007
 11
128.7575185198
 21
230.4607221007
  0
POLYLINE
  8
DEFAULT_2
 62
8
  6
HIDDEN
 66
1
 70
0
  0
VERTEX
  8
DEFAULT_2
 62
8
  6
HIDDEN
 10
66.0006644987
 20
236.2700438919
  0
VERTEX
  8
DEFAULT_2
 62
8
  6
HIDDEN
 10
65.6745093565
 20
236.320902615
  0
VERTEX
  8
DEFAULT_2
 62
8
  6
HIDDEN
 10
65.3484080799
 20
236.3704282422
  0
VERTEX
  8
DEFAULT_2
 62
8
  6
HIDDEN
 10
65.0263245904
 20
236.4180629033
  0
VERTEX
  8
DEFAULT_2
 62
8
  6
HIDDEN
 10
64.7121252766
 20
236.4632911158
  0
VERTEX
  8
DEFAULT_2
 62
8
  6
HIDDEN
 10
64.409542324
 20
236.5056410847
  0
SEQEND
  0
LINE
  8
0
 62
7
  6
CONTINUOUS
 10
65.1497554949
 20
236.2700725161
 11
65.7555488188
 21
236.1730337601
  0
LINE
  8
DEFAULT_2
 62
8
  6
HIDDEN
 10
66.0006644987
 20
236.2700438919
 11
66.6031726799
 21
236.1730337601
  0
POLYLINE
  8
0
 62
7
  6
CONTINUOUS
 66
1
 70
0
  0
VERTEX
  8
0
 62
7
  6
CONTINUOUS
 10
63.7422633752
 20
236.5056410847
  0
VERTEX
  8
0
 62
7
  6
CONTINUOUS
 10
63.9856552441
 20
236.4632838909
  0
VERTEX
  8
0
 62
7
  6
CONTINUOUS
 10
64.2512211219
 20
236.4180761013
  0
VERTEX
  8
0
 62
7
  6
CONTINUOUS
 10
64.5360162523
 20
236.3704606079
  0
VERTEX
  8
0
 62
7
  6
CONTINUOUS
 10
65.1497554949
 20
236.2700725161
  0
SEQEND
  0
LINE
  8
0
 62
7
  6
CONTINUOUS
 10
68.7995549331
 20
236.2184456401
 11
69.0534869819
 21
236.1730337601
  0
POLYLINE
  8
0
 62
7
  6
CONTINUOUS
 66
1
 70
0
  0
VERTEX
  8
0
 62
7
  6
CONTINUOUS
 10
68.7995549331
 20
236.2184456401
  0
VERTEX
  8
0
 62
7
  6
CONTINUOUS
 10
68.5178092102
 20
236.2700438919
  0
VERTEX
  8
0
 62
7
  6
CONTINUOUS
 10
68.2557787812
 20
236.320902615
  0
VERTEX
  8
0
 62
7
  6
CONTINUOUS
 10
68.0166467894
 20
236.3704282422
  0
VERTEX
  8
0
 62
7
  6
CONTINUOUS
 10
67.8032708953
 20
236.4180629033
  0
VERTEX
  8
0
 62
7
  6
CONTINUOUS
 10
67.618143582
 20
236.4632911158
  0
VERTEX
  8
0
 62
7
  6
CONTINUOUS
 10
67.463378388
 20
236.5056410847
  0
SEQEND
  0
LINE
  8
0
 62
7
  6
CONTINUOUS
 10
71.494122618
 20
236.1730337601
 11
71.2516001505
 21
236.2184456401
  0
POLYLINE
  8
DEFAULT_2
 62
8
  6
HIDDEN
 66
1
 70
0
  0
VERTEX
  8
DEFAULT_2
 62
8
  6
HIDDEN
 10
64.409542324
 20
236.5056410847
  0
VERTEX
  8
DEFAULT_2
 62
8
  6
HIDDEN
 10
64.2625089627
 20
236.5343586063
  0
VERTEX
  8
DEFAULT_2
 62
8
  6
HIDDEN
 10
64.1151276475
 20
236.5807359965
  0
VERTEX
  8
DEFAULT_2
 62
8
  6
HIDDEN
 10
63.9733748294
 20
236.6437247933
  0
VERTEX
  8
DEFAULT_2
 62
8
  6
HIDDEN
 10
63.8418735914
 20
236.7212125045
  0
VERTEX
  8
DEFAULT_2
 62
8
  6
HIDDEN
 10
63.72278692
 20
236.8115942891
  0
VERTEX
  8
DEFAULT_2
 62
8
  6
HIDDEN
 10
63.6193397757
 20
236.9119271902
  0
SEQEND
  0
LINE
  8
DEFAULT_2
 62
8
  6
HIDDEN
 10
76.0992071544
 20
236.1730337601
 11
75.9062258856
 21
236.2184456401
  0
POLYLINE
  8
DEFAULT_2
 62
8
  6
HIDDEN
 66
1
 70
0
  0
VERTEX
  8
DEFAULT_2
 62
8
  6
HIDDEN
 10
98.2044674115
 20
230.1158031166
  0
VERTEX
  8
DEFAULT_2
 62
8
  6
HIDDEN
 10
98.0338869323
 20
230.1581603104
  0
VERTEX
  8
DEFAULT_2
 62
8
  6
HIDDEN
 10
97.8942595246
 20
230.2033681
  0
VERTEX
  8
DEFAULT_2
 62
8
  6
HIDDEN
 10
97.7872533644
 20
230.2509835934
  0
VERTEX
  8
DEFAULT_2
 62
8
  6
HIDDEN
 10
97.7142514081
 20
230.3005039408
  0
VERTEX
  8
DEFAULT_2
 62
8
  6
HIDDEN
 10
97.6762473533
 20
230.3513716852
  0
VERTEX
  8
DEFAULT_2
 62
8
  6
HIDDEN
 10
97.670468569
 20
230.3806721006
  0
SEQEND
  0
POLYLINE
  8
DEFAULT_2
 62
8
  6
HIDDEN
 66
1
 70
0
  0
VERTEX
  8
DEFAULT_2
 62
8
  6
HIDDEN
 10
79.6629771117
 20
236.2184456401
  0
VERTEX
  8
DEFAULT_2
 62
8
  6
HIDDEN
 10
79.7211157853
 20
236.2033060771
  0
VERTEX
  8
DEFAULT_2
 62
8
  6
HIDDEN
 10
79.8384778879
 20
236.1730337601
  0
SEQEND
  0
POLYLINE
  8
DEFAULT_2
 62
8
  6
HIDDEN
 66
1
 70
0
  0
VERTEX
  8
DEFAULT_2
 62
8
  6
HIDDEN
 10
98.2044674115
 20
230.1158031166
  0
VERTEX
  8
DEFAULT_2
 62
8
  6
HIDDEN
 10
98.3016458052
 20
230.087033345
  0
VERTEX
  8
DEFAULT_2
 62
8
  6
HIDDEN
 10
98.4094176937
 20
230.0405469158
  0
VERTEX
  8
DEFAULT_2
 62
8
  6
HIDDEN
 10
98.5237226841
 20
229.9774543283
  0
VERTEX
  8
DEFAULT_2
 62
8
  6
HIDDEN
 10
98.640207587
 20
229.8998522159
  0
VERTEX
  8
DEFAULT_2
 62
8
  6
HIDDEN
 10
98.7553051811
 20
229.8094594648
  0
VERTEX
  8
DEFAULT_2
 62
8
  6
HIDDEN
 10
98.8633824115
 20
229.7095170111
  0
SEQEND
  0
POLYLINE
  8
0
 62
7
  6
CONTINUOUS
 66
1
 70
0
  0
VERTEX
  8
0
 62
7
  6
CONTINUOUS
 10
85.9341374
 20
236.2184456401
  0
VERTEX
  8
0
 62
7
  6
CONTINUOUS
 10
86.0070634607
 20
236.1881686551
  0
VERTEX
  8
0
 62
7
  6
CONTINUOUS
 10
86.0428914998
 20
236.1730337601
  0
SEQEND
  0
POLYLINE
  8
0
 62
7
  6
CONTINUOUS
 66
1
 70
0
  0
VERTEX
  8
0
 62
7
  6
CONTINUOUS
 10
85.9341374
 20
236.2184456401
  0
VERTEX
  8
0
 62
7
  6
CONTINUOUS
 10
85.8246937204
 20
236.2700438919
  0
VERTEX
  8
0
 62
7
  6
CONTINUOUS
 10
85.7493949544
 20
236.320902615
  0
VERTEX
  8
0
 62
7
  6
CONTINUOUS
 10
85.709124764
 20
236.3704282422
  0
VERTEX
  8
0
 62
7
  6
CONTINUOUS
 10
85.701945248
 20
236.4009811177
  0
SEQEND
  0
POLYLINE
  8
0
 62
7
  6
CONTINUOUS
 66
1
 70
0
  0
VERTEX
  8
0
 62
7
  6
CONTINUOUS
 10
88.5574223274
 20
236.9119271902
  0
VERTEX
  8
0
 62
7
  6
CONTINUOUS
 10
88.688586137
 20
236.8117390065
  0
VERTEX
  8
0
 62
7
  6
CONTINUOUS
 10
88.8311540285
 20
236.7213689911
  0
VERTEX
  8
0
 62
7
  6
CONTINUOUS
 10
88.9792134519
 20
236.6438373458
  0
VERTEX
  8
0
 62
7
  6
CONTINUOUS
 10
89.1289528816
 20
236.5807923938
  0
VERTEX
  8
0
 62
7
  6
CONTINUOUS
 10
89.2748456623
 20
236.5343733263
  0
VERTEX
  8
0
 62
7
  6
CONTINUOUS
 10
89.4112969188
 20
236.5056410847
  0
SEQEND
  0
LINE
  8
DEFAULT_2
 62
8
  6
HIDDEN
 10
99.1322152944
 20
229.4405044221
 11
99.4476601871
 21
229.128114776
  0
LINE
  8
DEFAULT_2
 62
8
  6
HIDDEN
 10
98.8633824115
 20
229.7095170111
 11
99.1322152944
 21
229.4405044221
  0
POLYLINE
  8
0
 62
7
  6
CONTINUOUS
 66
1
 70
0
  0
VERTEX
  8
0
 62
7
  6
CONTINUOUS
 10
86.6649003336
 20
241.828114776
  0
VERTEX
  8
0
 62
7
  6
CONTINUOUS
 10
86.5192112479
 20
241.9870959114
  0
VERTEX
  8
0
 62
7
  6
CONTINUOUS
 10
86.3880322233
 20
242.1404741534
  0
VERTEX
  8
0
 62
7
  6
CONTINUOUS
 10
86.2754988444
 20
242.2829972821
  0
VERTEX
  8
0
 62
7
  6
CONTINUOUS
 10
86.1848146859
 20
242.4095170111
  0
SEQEND
  0
POLYLINE
  8
DEFAULT_2
 62
8
  6
HIDDEN
 66
1
 70
0
  0
VERTEX
  8
DEFAULT_2
 62
8
  6
HIDDEN
 10
97.6851849328
 20
223.4730337601
  0
VERTEX
  8
DEFAULT_2
 62
8
  6
HIDDEN
 10
97.6868107951
 20
223.4662022226
  0
VERTEX
  8
DEFAULT_2
 62
8
  6
HIDDEN
 10
97.6883110348
 20
223.4620924316
  0
VERTEX
  8
DEFAULT_2
 62
8
  6
HIDDEN
 10
97.6896778744
 20
223.4607221007
  0
SEQEND
  0
POLYLINE
  8
DEFAULT_2
 62
8
  6
HIDDEN
 66
1
 70
0
  0
VERTEX
  8
DEFAULT_2
 62
8
  6
HIDDEN
 10
97.6851849328
 20
223.4730337601
  0
VERTEX
  8
DEFAULT_2
 62
8
  6
HIDDEN
 10
97.6818385577
 20
223.4881686558
  0
VERTEX
  8
DEFAULT_2
 62
8
  6
HIDDEN
 10
97.6780353371
 20
223.5033060706
  0
VERTEX
  8
DEFAULT_2
 62
8
  6
HIDDEN
 10
97.6737753515
 20
223.5184456401
  0
SEQEND
  0
LINE
  8
DEFAULT_2
 62
8
  6
HIDDEN
 10
97.670468569
 20
223.5407721007
 11
97.6737753515
 21
223.5184456401
  0
LINE
  8
DEFAULT_2
 62
8
  6
HIDDEN
 10
98.8633824115
 20
224.2119271902
 11
98.8633824115
 21
229.7095170111
  0
LINE
  8
DEFAULT_2
 62
8
  6
HIDDEN
 10
98.8633824115
 20
236.9119271902
 11
98.8633824115
 21
242.4095170111
  0
LINE
  8
DEFAULT_2
 62
8
  6
HIDDEN
 10
99.4476601871
 20
224.7933294253
 11
99.4476601871
 21
229.128114776
  0
LINE
  8
DEFAULT_2
 62
8
  6
HIDDEN
 10
99.4476601871
 20
237.4933294253
 11
99.4476601871
 21
241.828114776
  0
LINE
  8
DEFAULT_1
 62
2
  6
CENTER
 10
100.1258205689
 20
218.3107221007
 11
100.1258205689
 21
216.3107221007
  0
LINE
  8
0
 62
7
  6
CONTINUOUS
 10
100.1258205689
 20
218.3107221007
 11
100.1258205689
 21
248.3107221007
  0
LINE
  8
DEFAULT_1
 62
2
  6
CENTER
 10
100.1258205689
 20
248.3107221007
 11
100.1258205689
 21
250.3107221007
  0
LINE
  8
DEFAULT_2
 62
8
  6
HIDDEN
 10
97.670468569
 20
230.3806721006
 11
97.6737753515
 21
230.4029985612
  0
POLYLINE
  8
DEFAULT_2
 62
8
  6
HIDDEN
 66
1
 70
0
  0
VERTEX
  8
DEFAULT_2
 62
8
  6
HIDDEN
 10
97.6851849328
 20
230.4484104413
  0
VERTEX
  8
DEFAULT_2
 62
8
  6
HIDDEN
 10
97.6818385577
 20
230.4332755455
  0
VERTEX
  8
DEFAULT_2
 62
8
  6
HIDDEN
 10
97.6780353371
 20
230.4181381307
  0
VERTEX
  8
DEFAULT_2
 62
8
  6
HIDDEN
 10
97.6737753515
 20
230.4029985612
  0
SEQEND
  0
POLYLINE
  8
DEFAULT_2
 62
8
  6
HIDDEN
 66
1
 70
0
  0
VERTEX
  8
DEFAULT_2
 62
8
  6
HIDDEN
 10
102.5619632634
 20
236.1607221007
  0
VERTEX
  8
DEFAULT_2
 62
8
  6
HIDDEN
 10
102.5633301031
 20
236.1620924316
  0
VERTEX
  8
DEFAULT_2
 62
8
  6
HIDDEN
 10
102.5648303427
 20
236.1662022226
  0
SEQEND
  0
POLYLINE
  8
DEFAULT_2
 62
8
  6
HIDDEN
 66
1
 70
0
  0
VERTEX
  8
DEFAULT_2
 62
8
  6
HIDDEN
 10
97.6896778744
 20
230.4607221007
  0
VERTEX
  8
DEFAULT_2
 62
8
  6
HIDDEN
 10
97.68831102
 20
230.4593517415
  0
VERTEX
  8
DEFAULT_2
 62
8
  6
HIDDEN
 10
97.6868110049
 20
230.4552427128
  0
VERTEX
  8
DEFAULT_2
 62
8
  6
HIDDEN
 10
97.6851849328
 20
230.4484104413
  0
SEQEND
  0
POLYLINE
  8
0
 62
7
  6
CONTINUOUS
 66
1
 70
0
  0
VERTEX
  8
0
 62
7
  6
CONTINUOUS
 10
114.4513069869
 20
242.8158031166
  0
VERTEX
  8
0
 62
7
  6
CONTINUOUS
 10
114.5167838339
 20
242.8581603104
  0
VERTEX
  8
0
 62
7
  6
CONTINUOUS
 10
114.547340054
 20
242.9033681
  0
VERTEX
  8
0
 62
7
  6
CONTINUOUS
 10
114.5496958897
 20
242.9204622557
  0
SEQEND
  0
POLYLINE
  8
0
 62
7
  6
CONTINUOUS
 66
1
 70
0
  0
VERTEX
  8
0
 62
7
  6
CONTINUOUS
 10
114.4513069869
 20
242.8158031166
  0
VERTEX
  8
0
 62
7
  6
CONTINUOUS
 10
114.4052642963
 20
242.787033345
  0
VERTEX
  8
0
 62
7
  6
CONTINUOUS
 10
114.3487539968
 20
242.7405469158
  0
VERTEX
  8
0
 62
7
  6
CONTINUOUS
 10
114.2837098969
 20
242.6774543283
  0
VERTEX
  8
0
 62
7
  6
CONTINUOUS
 10
114.2129126274
 20
242.5998522159
  0
VERTEX
  8
0
 62
7
  6
CONTINUOUS
 10
114.1391347909
 20
242.5094594648
  0
VERTEX
  8
0
 62
7
  6
CONTINUOUS
 10
114.0668264519
 20
242.4095170111
  0
SEQEND
  0
POLYLINE
  8
0
 62
7
  6
CONTINUOUS
 66
1
 70
0
  0
VERTEX
  8
0
 62
7
  6
CONTINUOUS
 10
90.6297860944
 20
230.4484104413
  0
VERTEX
  8
0
 62
7
  6
CONTINUOUS
 10
90.6002471815
 20
230.4332755455
  0
VERTEX
  8
0
 62
7
  6
CONTINUOUS
 10
90.5711432576
 20
230.4181381307
  0
VERTEX
  8
0
 62
7
  6
CONTINUOUS
 10
90.5424749932
 20
230.4029985612
  0
SEQEND
  0
POLYLINE
  8
0
 62
7
  6
CONTINUOUS
 66
1
 70
0
  0
VERTEX
  8
0
 62
7
  6
CONTINUOUS
 10
86.0428914998
 20
230.4484104413
  0
VERTEX
  8
0
 62
7
  6
CONTINUOUS
 10
86.0621733073
 20
230.4552427128
  0
VERTEX
  8
0
 62
7
  6
CONTINUOUS
 10
86.081447062
 20
230.4593517415
  0
VERTEX
  8
0
 62
7
  6
CONTINUOUS
 10
86.1006425802
 20
230.4607221007
  0
SEQEND
  0
LINE
  8
DEFAULT_2
 62
8
  6
HIDDEN
 10
120.4131632499
 20
236.1730337601
 11
120.5305253277
 21
236.2033060706
  0
POLYLINE
  8
DEFAULT_2
 62
8
  6
HIDDEN
 66
1
 70
0
  0
VERTEX
  8
DEFAULT_2
 62
8
  6
HIDDEN
 10
120.4131632499
 20
236.1730337601
  0
VERTEX
  8
DEFAULT_2
 62
8
  6
HIDDEN
 10
120.3810469944
 20
236.1662022226
  0
VERTEX
  8
DEFAULT_2
 62
8
  6
HIDDEN
 10
120.3486176908
 20
236.1620924316
  0
VERTEX
  8
DEFAULT_2
 62
8
  6
HIDDEN
 10
120.3160032493
 20
236.1607221007
  0
SEQEND
  0
POLYLINE
  8
0
 62
7
  6
CONTINUOUS
 66
1
 70
0
  0
VERTEX
  8
0
 62
7
  6
CONTINUOUS
 10
89.4112969188
 20
230.1158031166
  0
VERTEX
  8
0
 62
7
  6
CONTINUOUS
 10
89.2747039705
 20
230.087033345
  0
VERTEX
  8
0
 62
7
  6
CONTINUOUS
 10
89.1286693733
 20
230.0405469158
  0
VERTEX
  8
0
 62
7
  6
CONTINUOUS
 10
88.9788903613
 20
229.9774543283
  0
VERTEX
  8
0
 62
7
  6
CONTINUOUS
 10
88.8307676233
 20
229.8998522159
  0
VERTEX
  8
0
 62
7
  6
CONTINUOUS
 10
88.6882327401
 20
229.8094594648
  0
VERTEX
  8
0
 62
7
  6
CONTINUOUS
 10
88.5574223274
 20
229.7095170111
  0
SEQEND
  0
POLYLINE
  8
0
 62
7
  6
CONTINUOUS
 66
1
 70
0
  0
VERTEX
  8
0
 62
7
  6
CONTINUOUS
 10
129.0000409874
 20
236.2184456401
  0
VERTEX
  8
0
 62
7
  6
CONTINUOUS
 10
129.2842474075
 20
236.2700438919
  0
VERTEX
  8
0
 62
7
  6
CONTINUOUS
 10
129.5842515627
 20
236.320902615
  0
VERTEX
  8
0
 62
7
  6
CONTINUOUS
 10
129.896367149
 20
236.3704282422
  0
VERTEX
  8
0
 62
7
  6
CONTINUOUS
 10
130.2167741186
 20
236.4180629033
  0
VERTEX
  8
0
 62
7
  6
CONTINUOUS
 10
130.541589523
 20
236.4632911158
  0
VERTEX
  8
0
 62
7
  6
CONTINUOUS
 10
130.8669095925
 20
236.5056410847
  0
SEQEND
  0
POLYLINE
  8
0
 62
7
  6
CONTINUOUS
 66
1
 70
0
  0
VERTEX
  8
0
 62
7
  6
CONTINUOUS
 10
130.8669095925
 20
236.5056410847
  0
VERTEX
  8
0
 62
7
  6
CONTINUOUS
 10
131.0299086082
 20
236.5343586063
  0
VERTEX
  8
0
 62
7
  6
CONTINUOUS
 10
131.1968783163
 20
236.5807359965
  0
VERTEX
  8
0
 62
7
  6
CONTINUOUS
 10
131.361193863
 20
236.6437247933
  0
VERTEX
  8
0
 62
7
  6
CONTINUOUS
 10
131.5172579516
 20
236.7212125045
  0
VERTEX
  8
0
 62
7
  6
CONTINUOUS
 10
131.6619766849
 20
236.8115942891
  0
VERTEX
  8
0
 62
7
  6
CONTINUOUS
 10
131.7906408293
 20
236.9119271902
  0
SEQEND
  0
POLYLINE
  8
0
 62
7
  6
CONTINUOUS
 66
1
 70
0
  0
VERTEX
  8
0
 62
7
  6
CONTINUOUS
 10
89.4112969188
 20
230.1158031166
  0
VERTEX
  8
0
 62
7
  6
CONTINUOUS
 10
89.6664065071
 20
230.1581603104
  0
VERTEX
  8
0
 62
7
  6
CONTINUOUS
 10
89.8982639762
 20
230.2033681
  0
VERTEX
  8
0
 62
7
  6
CONTINUOUS
 10
90.1041784472
 20
230.2509835934
  0
VERTEX
  8
0
 62
7
  6
CONTINUOUS
 10
90.2816191156
 20
230.3005039408
  0
VERTEX
  8
0
 62
7
  6
CONTINUOUS
 10
90.4283338604
 20
230.3513716852
  0
VERTEX
  8
0
 62
7
  6
CONTINUOUS
 10
90.5424749932
 20
230.4029985612
  0
SEQEND
  0
POLYLINE
  8
0
 62
7
  6
CONTINUOUS
 66
1
 70
0
  0
VERTEX
  8
0
 62
7
  6
CONTINUOUS
 10
131.198154156
 20
236.1730337601
  0
VERTEX
  8
0
 62
7
  6
CONTINUOUS
 10
131.1523930763
 20
236.1662022226
  0
VERTEX
  8
0
 62
7
  6
CONTINUOUS
 10
131.1064026932
 20
236.1620924316
  0
VERTEX
  8
0
 62
7
  6
CONTINUOUS
 10
131.0603672553
 20
236.1607221007
  0
SEQEND
  0
POLYLINE
  8
DEFAULT_2
 62
8
  6
HIDDEN
 66
1
 70
0
  0
VERTEX
  8
DEFAULT_2
 62
8
  6
HIDDEN
 10
135.8420988138
 20
236.5056410847
  0
VERTEX
  8
DEFAULT_2
 62
8
  6
HIDDEN
 10
135.5394649662
 20
236.4632838909
  0
VERTEX
  8
DEFAULT_2
 62
8
  6
HIDDEN
 10
135.2254069986
 20
236.4180761013
  0
VERTEX
  8
DEFAULT_2
 62
8
  6
HIDDEN
 10
134.9034490187
 20
236.3704606079
  0
VERTEX
  8
DEFAULT_2
 62
8
  6
HIDDEN
 10
134.5773764192
 20
236.3209402605
  0
VERTEX
  8
DEFAULT_2
 62
8
  6
HIDDEN
 10
134.2511577931
 20
236.2700725161
  0
VERTEX
  8
DEFAULT_2
 62
8
  6
HIDDEN
 10
133.648468458
 20
236.1730337601
  0
SEQEND
  0
POLYLINE
  8
DEFAULT_2
 62
8
  6
HIDDEN
 66
1
 70
0
  0
VERTEX
  8
DEFAULT_2
 62
8
  6
HIDDEN
 10
122.1838913448
 20
236.5056410847
  0
VERTEX
  8
DEFAULT_2
 62
8
  6
HIDDEN
 10
121.8750226289
 20
236.4632838909
  0
VERTEX
  8
DEFAULT_2
 62
8
  6
HIDDEN
 10
121.5789005309
 20
236.4180761013
  0
VERTEX
  8
DEFAULT_2
 62
8
  6
HIDDEN
 10
121.2989140733
 20
236.3704606079
  0
VERTEX
  8
DEFAULT_2
 62
8
  6
HIDDEN
 10
121.0384366562
 20
236.3209402605
  0
VERTEX
  8
DEFAULT_2
 62
8
  6
HIDDEN
 10
120.8007071849
 20
236.2700725161
  0
VERTEX
  8
DEFAULT_2
 62
8
  6
HIDDEN
 10
120.5886640262
 20
236.2184456401
  0
SEQEND
  0
POLYLINE
  8
DEFAULT_2
 62
8
  6
HIDDEN
 66
1
 70
0
  0
VERTEX
  8
DEFAULT_2
 62
8
  6
HIDDEN
 10
133.648468458
 20
236.1730337601
  0
VERTEX
  8
DEFAULT_2
 62
8
  6
HIDDEN
 10
133.5976376374
 20
236.1662022226
  0
VERTEX
  8
DEFAULT_2
 62
8
  6
HIDDEN
 10
133.5464528221
 20
236.1620924316
  0
VERTEX
  8
DEFAULT_2
 62
8
  6
HIDDEN
 10
133.4951177592
 20
236.1607221007
  0
SEQEND
  0
POLYLINE
  8
0
 62
7
  6
CONTINUOUS
 66
1
 70
0
  0
VERTEX
  8
0
 62
7
  6
CONTINUOUS
 10
90.6790932066
 20
230.4607221007
  0
VERTEX
  8
0
 62
7
  6
CONTINUOUS
 10
90.6624665344
 20
230.4593517415
  0
VERTEX
  8
0
 62
7
  6
CONTINUOUS
 10
90.646011886
 20
230.4552427128
  0
VERTEX
  8
0
 62
7
  6
CONTINUOUS
 10
90.6297860944
 20
230.4484104413
  0
SEQEND
  0
POLYLINE
  8
DEFAULT_2
 62
8
  6
HIDDEN
 66
1
 70
0
  0
VERTEX
  8
DEFAULT_2
 62
8
  6
HIDDEN
 10
76.203250741
 20
230.4607221007
  0
VERTEX
  8
DEFAULT_2
 62
8
  6
HIDDEN
 10
76.1685418219
 20
230.4593517415
  0
VERTEX
  8
DEFAULT_2
 62
8
  6
HIDDEN
 10
76.1338190268
 20
230.4552427128
  0
VERTEX
  8
DEFAULT_2
 62
8
  6
HIDDEN
 10
76.0992071544
 20
230.4484104413
  0
SEQEND
  0
POLYLINE
  8
0
 62
7
  6
CONTINUOUS
 66
1
 70
0
  0
VERTEX
  8
0
 62
7
  6
CONTINUOUS
 10
71.6274165771
 20
230.4607221007
  0
VERTEX
  8
0
 62
7
  6
CONTINUOUS
 10
71.5827475193
 20
230.4593517415
  0
VERTEX
  8
0
 62
7
  6
CONTINUOUS
 10
71.5382637805
 20
230.4552427128
  0
VERTEX
  8
0
 62
7
  6
CONTINUOUS
 10
71.494122618
 20
230.4484104413
  0
SEQEND
  0
POLYLINE
  8
0
 62
7
  6
CONTINUOUS
 66
1
 70
0
  0
VERTEX
  8
0
 62
7
  6
CONTINUOUS
 10
65.9104598998
 20
230.4607221007
  0
VERTEX
  8
0
 62
7
  6
CONTINUOUS
 10
65.858649605
 20
230.4593517415
  0
VERTEX
  8
0
 62
7
  6
CONTINUOUS
 10
65.8069512116
 20
230.4552427128
  0
VERTEX
  8
0
 62
7
  6
CONTINUOUS
 10
65.7555488188
 20
230.4484104413
  0
SEQEND
  0
POLYLINE
  8
DEFAULT_2
 62
8
  6
HIDDEN
 66
1
 70
0
  0
VERTEX
  8
DEFAULT_2
 62
8
  6
HIDDEN
 10
133.4951177592
 20
230.4607221007
  0
VERTEX
  8
DEFAULT_2
 62
8
  6
HIDDEN
 10
133.5464533505
 20
230.4593517415
  0
VERTEX
  8
DEFAULT_2
 62
8
  6
HIDDEN
 10
133.5976307941
 20
230.4552427128
  0
VERTEX
  8
DEFAULT_2
 62
8
  6
HIDDEN
 10
133.648468458
 20
230.4484104413
  0
SEQEND
  0
POLYLINE
  8
0
 62
7
  6
CONTINUOUS
 66
1
 70
0
  0
VERTEX
  8
0
 62
7
  6
CONTINUOUS
 10
131.0603672553
 20
230.4607221007
  0
VERTEX
  8
0
 62
7
  6
CONTINUOUS
 10
131.1064031675
 20
230.4593517415
  0
VERTEX
  8
0
 62
7
  6
CONTINUOUS
 10
131.1523869214
 20
230.4552427128
  0
VERTEX
  8
0
 62
7
  6
CONTINUOUS
 10
131.198154156
 20
230.4484104413
  0
SEQEND
  0
POLYLINE
  8
DEFAULT_2
 62
8
  6
HIDDEN
 66
1
 70
0
  0
VERTEX
  8
DEFAULT_2
 62
8
  6
HIDDEN
 10
120.3160032493
 20
230.4607221007
  0
VERTEX
  8
DEFAULT_2
 62
8
  6
HIDDEN
 10
120.348618026
 20
230.4593517415
  0
VERTEX
  8
DEFAULT_2
 62
8
  6
HIDDEN
 10
120.3810426646
 20
230.4552427128
  0
VERTEX
  8
DEFAULT_2
 62
8
  6
HIDDEN
 10
120.4131632499
 20
230.4484104413
  0
SEQEND
  0
POLYLINE
  8
0
 62
7
  6
CONTINUOUS
 66
1
 70
0
  0
VERTEX
  8
0
 62
7
  6
CONTINUOUS
 10
114.1509985577
 20
230.4607221007
  0
VERTEX
  8
0
 62
7
  6
CONTINUOUS
 10
114.1701940758
 20
230.4593517415
  0
VERTEX
  8
0
 62
7
  6
CONTINUOUS
 10
114.1894678306
 20
230.4552427128
  0
VERTEX
  8
0
 62
7
  6
CONTINUOUS
 10
114.2087496381
 20
230.4484104413
  0
SEQEND
  0
POLYLINE
  8
0
 62
7
  6
CONTINUOUS
 66
1
 70
0
  0
VERTEX
  8
0
 62
7
  6
CONTINUOUS
 10
69.3847315454
 20
236.5056410847
  0
VERTEX
  8
0
 62
7
  6
CONTINUOUS
 10
69.7101052633
 20
236.4632838909
  0
VERTEX
  8
0
 62
7
  6
CONTINUOUS
 10
70.0347752948
 20
236.4180761013
  0
VERTEX
  8
0
 62
7
  6
CONTINUOUS
 10
70.3550632401
 20
236.3704606079
  0
VERTEX
  8
0
 62
7
  6
CONTINUOUS
 10
70.6671599852
 20
236.3209402605
  0
VERTEX
  8
0
 62
7
  6
CONTINUOUS
 10
70.9672305002
 20
236.2700725161
  0
VERTEX
  8
0
 62
7
  6
CONTINUOUS
 10
71.2516001505
 20
236.2184456401
  0
SEQEND
  0
POLYLINE
  8
0
 62
7
  6
CONTINUOUS
 66
1
 70
0
  0
VERTEX
  8
0
 62
7
  6
CONTINUOUS
 10
65.7555488188
 20
236.1730337601
  0
VERTEX
  8
0
 62
7
  6
CONTINUOUS
 10
65.8069442954
 20
236.1662022226
  0
VERTEX
  8
0
 62
7
  6
CONTINUOUS
 10
65.8586501384
 20
236.1620924316
  0
VERTEX
  8
0
 62
7
  6
CONTINUOUS
 10
65.9104598998
 20
236.1607221007
  0
SEQEND
  0
POLYLINE
  8
DEFAULT_2
 62
8
  6
HIDDEN
 66
1
 70
0
  0
VERTEX
  8
DEFAULT_2
 62
8
  6
HIDDEN
 10
122.1838913448
 20
230.1158031166
  0
VERTEX
  8
DEFAULT_2
 62
8
  6
HIDDEN
 10
121.8750226289
 20
230.1581603104
  0
VERTEX
  8
DEFAULT_2
 62
8
  6
HIDDEN
 10
121.5789005309
 20
230.2033681
  0
VERTEX
  8
DEFAULT_2
 62
8
  6
HIDDEN
 10
121.2989140733
 20
230.2509835934
  0
VERTEX
  8
DEFAULT_2
 62
8
  6
HIDDEN
 10
121.0384366562
 20
230.3005039408
  0
VERTEX
  8
DEFAULT_2
 62
8
  6
HIDDEN
 10
120.8007071849
 20
230.3513716852
  0
VERTEX
  8
DEFAULT_2
 62
8
  6
HIDDEN
 10
120.5886640262
 20
230.4029985612
  0
SEQEND
  0
POLYLINE
  8
0
 62
7
  6
CONTINUOUS
 66
1
 70
0
  0
VERTEX
  8
0
 62
7
  6
CONTINUOUS
 10
71.494122618
 20
236.1730337601
  0
VERTEX
  8
0
 62
7
  6
CONTINUOUS
 10
71.5382578354
 20
236.1662022226
  0
VERTEX
  8
0
 62
7
  6
CONTINUOUS
 10
71.5827479787
 20
236.1620924316
  0
VERTEX
  8
0
 62
7
  6
CONTINUOUS
 10
71.6274165771
 20
236.1607221007
  0
SEQEND
  0
POLYLINE
  8
DEFAULT_2
 62
8
  6
HIDDEN
 66
1
 70
0
  0
VERTEX
  8
DEFAULT_2
 62
8
  6
HIDDEN
 10
78.0677497931
 20
236.5056410847
  0
VERTEX
  8
DEFAULT_2
 62
8
  6
HIDDEN
 10
77.9084452099
 20
236.5343586063
  0
VERTEX
  8
DEFAULT_2
 62
8
  6
HIDDEN
 10
77.7420261198
 20
236.5807359965
  0
VERTEX
  8
DEFAULT_2
 62
8
  6
HIDDEN
 10
77.5749667246
 20
236.6437247933
  0
VERTEX
  8
DEFAULT_2
 62
8
  6
HIDDEN
 10
77.4131634177
 20
236.7212125045
  0
VERTEX
  8
DEFAULT_2
 62
8
  6
HIDDEN
 10
77.2602678375
 20
236.8115942891
  0
VERTEX
  8
DEFAULT_2
 62
8
  6
HIDDEN
 10
77.1219054878
 20
236.9119271902
  0
SEQEND
  0
POLYLINE
  8
DEFAULT_2
 62
8
  6
HIDDEN
 66
1
 70
0
  0
VERTEX
  8
DEFAULT_2
 62
8
  6
HIDDEN
 10
76.0992071544
 20
236.1730337601
  0
VERTEX
  8
DEFAULT_2
 62
8
  6
HIDDEN
 10
76.1338143756
 20
236.1662022226
  0
VERTEX
  8
DEFAULT_2
 62
8
  6
HIDDEN
 10
76.1685421797
 20
236.1620924316
  0
VERTEX
  8
DEFAULT_2
 62
8
  6
HIDDEN
 10
76.203250741
 20
236.1607221007
  0
SEQEND
  0
POLYLINE
  8
DEFAULT_2
 62
8
  6
HIDDEN
 66
1
 70
0
  0
VERTEX
  8
DEFAULT_2
 62
8
  6
HIDDEN
 10
79.6629771117
 20
236.2184456401
  0
VERTEX
  8
DEFAULT_2
 62
8
  6
HIDDEN
 10
79.4510595713
 20
236.2700438919
  0
VERTEX
  8
DEFAULT_2
 62
8
  6
HIDDEN
 10
79.2133913318
 20
236.320902615
  0
VERTEX
  8
DEFAULT_2
 62
8
  6
HIDDEN
 10
78.9529071819
 20
236.3704282422
  0
VERTEX
  8
DEFAULT_2
 62
8
  6
HIDDEN
 10
78.6728225413
 20
236.4180629033
  0
VERTEX
  8
DEFAULT_2
 62
8
  6
HIDDEN
 10
78.3765685779
 20
236.4632911158
  0
VERTEX
  8
DEFAULT_2
 62
8
  6
HIDDEN
 10
78.0677497931
 20
236.5056410847
  0
SEQEND
  0
POLYLINE
  8
0
 62
7
  6
CONTINUOUS
 66
1
 70
0
  0
VERTEX
  8
0
 62
7
  6
CONTINUOUS
 10
90.6297860944
 20
236.1730337601
  0
VERTEX
  8
0
 62
7
  6
CONTINUOUS
 10
90.6460096938
 20
236.1662022226
  0
VERTEX
  8
0
 62
7
  6
CONTINUOUS
 10
90.6624667049
 20
236.1620924316
  0
VERTEX
  8
0
 62
7
  6
CONTINUOUS
 10
90.6790932066
 20
236.1607221007
  0
SEQEND
  0
POLYLINE
  8
0
 62
7
  6
CONTINUOUS
 66
1
 70
0
  0
VERTEX
  8
0
 62
7
  6
CONTINUOUS
 10
90.6297860944
 20
236.1730337601
  0
VERTEX
  8
0
 62
7
  6
CONTINUOUS
 10
90.6002471815
 20
236.1881686558
  0
VERTEX
  8
0
 62
7
  6
CONTINUOUS
 10
90.5711432576
 20
236.2033060706
  0
VERTEX
  8
0
 62
7
  6
CONTINUOUS
 10
90.5424749932
 20
236.2184456401
  0
SEQEND
  0
POLYLINE
  8
0
 62
7
  6
CONTINUOUS
 66
1
 70
0
  0
VERTEX
  8
0
 62
7
  6
CONTINUOUS
 10
114.4513069869
 20
223.8056410847
  0
VERTEX
  8
0
 62
7
  6
CONTINUOUS
 10
114.5167838339
 20
223.7632838909
  0
VERTEX
  8
0
 62
7
  6
CONTINUOUS
 10
114.547340054
 20
223.7180761013
  0
VERTEX
  8
0
 62
7
  6
CONTINUOUS
 10
114.5496958897
 20
223.7009819456
  0
SEQEND
  0
POLYLINE
  8
DEFAULT_2
 62
8
  6
HIDDEN
 66
1
 70
0
  0
VERTEX
  8
DEFAULT_2
 62
8
  6
HIDDEN
 10
97.6851849328
 20
236.1730337601
  0
VERTEX
  8
DEFAULT_2
 62
8
  6
HIDDEN
 10
97.6868107951
 20
236.1662022226
  0
VERTEX
  8
DEFAULT_2
 62
8
  6
HIDDEN
 10
97.6883110348
 20
236.1620924316
  0
VERTEX
  8
DEFAULT_2
 62
8
  6
HIDDEN
 10
97.6896778744
 20
236.1607221007
  0
SEQEND
  0
POLYLINE
  8
DEFAULT_2
 62
8
  6
HIDDEN
 66
1
 70
0
  0
VERTEX
  8
DEFAULT_2
 62
8
  6
HIDDEN
 10
97.6851849328
 20
236.1730337601
  0
VERTEX
  8
DEFAULT_2
 62
8
  6
HIDDEN
 10
97.6818385577
 20
236.1881686558
  0
VERTEX
  8
DEFAULT_2
 62
8
  6
HIDDEN
 10
97.6780353371
 20
236.2033060706
  0
VERTEX
  8
DEFAULT_2
 62
8
  6
HIDDEN
 10
97.6737753515
 20
236.2184456401
  0
SEQEND
  0
LINE
  8
DEFAULT_2
 62
8
  6
HIDDEN
 10
97.670468569
 20
236.2407721007
 11
97.6737753515
 21
236.2184456401
  0
LINE
  8
DEFAULT_2
 62
8
  6
HIDDEN
 10
100.8039809507
 20
224.7933294253
 11
100.8039809507
 21
229.128114776
  0
LINE
  8
DEFAULT_2
 62
8
  6
HIDDEN
 10
100.8039809507
 20
237.4933294253
 11
100.8039809507
 21
241.828114776
  0
LINE
  8
DEFAULT_2
 62
8
  6
HIDDEN
 10
101.3882587264
 20
224.2119271902
 11
101.3882587264
 21
229.7095170111
  0
LINE
  8
DEFAULT_2
 62
8
  6
HIDDEN
 10
101.3882587264
 20
236.9119271902
 11
101.3882587264
 21
242.4095170111
  0
LINE
  8
DEFAULT_2
 62
8
  6
HIDDEN
 10
102.5558205689
 20
223.4607221007
 11
102.5558205689
 21
230.4607221007
  0
LINE
  8
DEFAULT_2
 62
8
  6
HIDDEN
 10
102.5558205689
 20
236.1607221007
 11
102.5558205689
 21
243.1607221007
  0
LINE
  8
DEFAULT_2
 62
8
  6
HIDDEN
 10
102.5778657863
 20
223.5184456401
 11
102.5778657863
 21
230.4029985612
  0
LINE
  8
DEFAULT_2
 62
8
  6
HIDDEN
 10
102.5778657863
 20
236.2184456401
 11
102.5778657863
 21
243.1029985612
  0
LINE
  8
DEFAULT_2
 62
8
  6
HIDDEN
 10
102.5811725689
 20
223.5406790987
 11
102.5811725689
 21
230.3807651027
  0
LINE
  8
DEFAULT_2
 62
8
  6
HIDDEN
 10
102.5811725689
 20
236.2406790987
 11
102.5811725689
 21
243.0807651027
  0
LINE
  8
DEFAULT_2
 62
8
  6
HIDDEN
 10
102.8574960969
 20
223.4607221007
 11
102.8574960969
 21
230.4607221007
  0
LINE
  8
DEFAULT_2
 62
8
  6
HIDDEN
 10
102.8574960969
 20
236.1607221007
 11
102.8574960969
 21
243.1607221007
  0
POLYLINE
  8
DEFAULT_2
 62
8
  6
HIDDEN
 66
1
 70
0
  0
VERTEX
  8
DEFAULT_2
 62
8
  6
HIDDEN
 10
103.4725969277
 20
247.3107221007
  0
VERTEX
  8
DEFAULT_2
 62
8
  6
HIDDEN
 10
103.4762268838
 20
247.4298359633
  0
VERTEX
  8
DEFAULT_2
 62
8
  6
HIDDEN
 10
103.4871621499
 20
247.5476121114
  0
VERTEX
  8
DEFAULT_2
 62
8
  6
HIDDEN
 10
103.5055188717
 20
247.6625904463
  0
VERTEX
  8
DEFAULT_2
 62
8
  6
HIDDEN
 10
103.5317301634
 20
247.7742080761
  0
VERTEX
  8
DEFAULT_2
 62
8
  6
HIDDEN
 10
103.5661557919
 20
247.8805569842
  0
VERTEX
  8
DEFAULT_2
 62
8
  6
HIDDEN
 10
103.6097948054
 20
247.9809587389
  0
VERTEX
  8
DEFAULT_2
 62
8
  6
HIDDEN
 10
103.6631093635
 20
248.0726241882
  0
VERTEX
  8
DEFAULT_2
 62
8
  6
HIDDEN
 10
103.7260107218
 20
248.1523995196
  0
VERTEX
  8
DEFAULT_2
 62
8
  6
HIDDEN
 10
103.7981617208
 20
248.2177536614
  0
VERTEX
  8
DEFAULT_2
 62
8
  6
HIDDEN
 10
103.8809235389
 20
248.2676566633
  0
VERTEX
  8
DEFAULT_2
 62
8
  6
HIDDEN
 10
103.9746200098
 20
248.2995617736
  0
VERTEX
  8
DEFAULT_2
 62
8
  6
HIDDEN
 10
104.0784713632
 20
248.3107221007
  0
SEQEND
  0
LINE
  8
DEFAULT_2
 62
8
  6
HIDDEN
 10
102.5778657863
 20
236.2184456401
 11
102.5811725689
 21
236.240769774
  0
POLYLINE
  8
DEFAULT_2
 62
8
  6
HIDDEN
 66
1
 70
0
  0
VERTEX
  8
DEFAULT_2
 62
8
  6
HIDDEN
 10
102.5811725689
 20
243.0806744273
  0
VERTEX
  8
DEFAULT_2
 62
8
  6
HIDDEN
 10
102.5754050891
 20
243.0514003094
  0
VERTEX
  8
DEFAULT_2
 62
8
  6
HIDDEN
 10
102.5374313629
 20
243.0005415863
  0
VERTEX
  8
DEFAULT_2
 62
8
  6
HIDDEN
 10
102.4644477684
 20
242.9510159591
  0
VERTEX
  8
DEFAULT_2
 62
8
  6
HIDDEN
 10
102.3574166928
 20
242.903381298
  0
VERTEX
  8
DEFAULT_2
 62
8
  6
HIDDEN
 10
102.2177286018
 20
242.8581530856
  0
VERTEX
  8
DEFAULT_2
 62
8
  6
HIDDEN
 10
102.0471737263
 20
242.8158031166
  0
SEQEND
  0
POLYLINE
  8
DEFAULT_2
 62
8
  6
HIDDEN
 66
1
 70
0
  0
VERTEX
  8
DEFAULT_2
 62
8
  6
HIDDEN
 10
102.5811725689
 20
230.3806744273
  0
VERTEX
  8
DEFAULT_2
 62
8
  6
HIDDEN
 10
102.5754050891
 20
230.3514003094
  0
VERTEX
  8
DEFAULT_2
 62
8
  6
HIDDEN
 10
102.5374313629
 20
230.3005415863
  0
VERTEX
  8
DEFAULT_2
 62
8
  6
HIDDEN
 10
102.4644477684
 20
230.2510159591
  0
VERTEX
  8
DEFAULT_2
 62
8
  6
HIDDEN
 10
102.3574166928
 20
230.203381298
  0
VERTEX
  8
DEFAULT_2
 62
8
  6
HIDDEN
 10
102.2177286018
 20
230.1581530856
  0
VERTEX
  8
DEFAULT_2
 62
8
  6
HIDDEN
 10
102.0471737263
 20
230.1158031166
  0
SEQEND
  0
LINE
  8
DEFAULT_2
 62
8
  6
HIDDEN
 10
102.5648303427
 20
236.1662022226
 11
102.5664562051
 21
236.1730337601
  0
POLYLINE
  8
DEFAULT_2
 62
8
  6
HIDDEN
 66
1
 70
0
  0
VERTEX
  8
DEFAULT_2
 62
8
  6
HIDDEN
 10
102.5778657863
 20
236.2184456401
  0
VERTEX
  8
DEFAULT_2
 62
8
  6
HIDDEN
 10
102.5736058025
 20
236.2033060771
  0
VERTEX
  8
DEFAULT_2
 62
8
  6
HIDDEN
 10
102.56980258
 20
236.1881686551
  0
VERTEX
  8
DEFAULT_2
 62
8
  6
HIDDEN
 10
102.5664562051
 20
236.1730337601
  0
SEQEND
  0
POLYLINE
  8
0
 62
7
  6
CONTINUOUS
 66
1
 70
0
  0
VERTEX
  8
0
 62
7
  6
CONTINUOUS
 10
85.800334151
 20
223.8056410847
  0
VERTEX
  8
0
 62
7
  6
CONTINUOUS
 10
85.8463054207
 20
223.8343586063
  0
VERTEX
  8
0
 62
7
  6
CONTINUOUS
 10
85.9027079502
 20
223.8807359965
  0
VERTEX
  8
0
 62
7
  6
CONTINUOUS
 10
85.9676747377
 20
223.9437247933
  0
VERTEX
  8
0
 62
7
  6
CONTINUOUS
 10
86.0384006473
 20
224.0212125045
  0
VERTEX
  8
0
 62
7
  6
CONTINUOUS
 10
86.1122052282
 20
224.1115942891
  0
VERTEX
  8
0
 62
7
  6
CONTINUOUS
 10
86.1848146859
 20
224.2119271902
  0
SEQEND
  0
POLYLINE
  8
0
 62
7
  6
CONTINUOUS
 66
1
 70
0
  0
VERTEX
  8
0
 62
7
  6
CONTINUOUS
 10
109.7091661446
 20
236.2184456401
  0
VERTEX
  8
0
 62
7
  6
CONTINUOUS
 10
109.6804978926
 20
236.2033060771
  0
VERTEX
  8
0
 62
7
  6
CONTINUOUS
 10
109.6513939549
 20
236.1881686551
  0
VERTEX
  8
0
 62
7
  6
CONTINUOUS
 10
109.6218550434
 20
236.1730337601
  0
SEQEND
  0
POLYLINE
  8
0
 62
7
  6
CONTINUOUS
 66
1
 70
0
  0
VERTEX
  8
0
 62
7
  6
CONTINUOUS
 10
109.7091661446
 20
236.2184456401
  0
VERTEX
  8
0
 62
7
  6
CONTINUOUS
 10
109.8232344223
 20
236.2700438919
  0
VERTEX
  8
0
 62
7
  6
CONTINUOUS
 10
109.9699004488
 20
236.320902615
  0
VERTEX
  8
0
 62
7
  6
CONTINUOUS
 10
110.1473349295
 20
236.3704282422
  0
VERTEX
  8
0
 62
7
  6
CONTINUOUS
 10
110.3533148998
 20
236.4180629033
  0
VERTEX
  8
0
 62
7
  6
CONTINUOUS
 10
110.585274822
 20
236.4632911158
  0
VERTEX
  8
0
 62
7
  6
CONTINUOUS
 10
110.840344219
 20
236.5056410847
  0
SEQEND
  0
POLYLINE
  8
0
 62
7
  6
CONTINUOUS
 66
1
 70
0
  0
VERTEX
  8
0
 62
7
  6
CONTINUOUS
 10
114.2087496381
 20
236.1730337601
  0
VERTEX
  8
0
 62
7
  6
CONTINUOUS
 10
114.2808293195
 20
236.2033060706
  0
VERTEX
  8
0
 62
7
  6
CONTINUOUS
 10
114.3175037379
 20
236.2184456401
  0
SEQEND
  0
POLYLINE
  8
0
 62
7
  6
CONTINUOUS
 66
1
 70
0
  0
VERTEX
  8
0
 62
7
  6
CONTINUOUS
 10
114.2087496381
 20
236.1730337601
  0
VERTEX
  8
0
 62
7
  6
CONTINUOUS
 10
114.189470417
 20
236.1662022226
  0
VERTEX
  8
0
 62
7
  6
CONTINUOUS
 10
114.1701938776
 20
236.1620924316
  0
VERTEX
  8
0
 62
7
  6
CONTINUOUS
 10
114.1509985577
 20
236.1607221007
  0
SEQEND
  0
LINE
  8
DEFAULT_2
 62
8
  6
HIDDEN
 10
79.6629771117
 20
230.4029985612
 11
79.8384778879
 21
230.4484104413
  0
POLYLINE
  8
DEFAULT_2
 62
8
  6
HIDDEN
 66
1
 70
0
  0
VERTEX
  8
DEFAULT_2
 62
8
  6
HIDDEN
 10
79.6629771117
 20
230.4029985612
  0
VERTEX
  8
DEFAULT_2
 62
8
  6
HIDDEN
 10
79.4510595713
 20
230.3514003094
  0
VERTEX
  8
DEFAULT_2
 62
8
  6
HIDDEN
 10
79.2133913318
 20
230.3005415863
  0
VERTEX
  8
DEFAULT_2
 62
8
  6
HIDDEN
 10
78.9529071819
 20
230.2510159591
  0
VERTEX
  8
DEFAULT_2
 62
8
  6
HIDDEN
 10
78.6728225413
 20
230.203381298
  0
VERTEX
  8
DEFAULT_2
 62
8
  6
HIDDEN
 10
78.3765685779
 20
230.1581530856
  0
VERTEX
  8
DEFAULT_2
 62
8
  6
HIDDEN
 10
78.0677497931
 20
230.1158031166
  0
SEQEND
  0
LINE
  8
DEFAULT_2
 62
8
  6
HIDDEN
 10
76.0992071544
 20
230.4484104413
 11
75.9062258856
 21
230.4029985612
  0
POLYLINE
  8
DEFAULT_2
 62
8
  6
HIDDEN
 66
1
 70
0
  0
VERTEX
  8
DEFAULT_2
 62
8
  6
HIDDEN
 10
79.8384778879
 20
230.4484104413
  0
VERTEX
  8
DEFAULT_2
 62
8
  6
HIDDEN
 10
79.8705984732
 20
230.4552427128
  0
VERTEX
  8
DEFAULT_2
 62
8
  6
HIDDEN
 10
79.9030231119
 20
230.4593517415
  0
VERTEX
  8
DEFAULT_2
 62
8
  6
HIDDEN
 10
79.9356378885
 20
230.4607221007
  0
SEQEND
  0
POLYLINE
  8
0
 62
7
  6
CONTINUOUS
 66
1
 70
0
  0
VERTEX
  8
0
 62
7
  6
CONTINUOUS
 10
110.840344219
 20
236.5056410847
  0
VERTEX
  8
0
 62
7
  6
CONTINUOUS
 10
110.9767398859
 20
236.5343586063
  0
VERTEX
  8
0
 62
7
  6
CONTINUOUS
 10
111.1225357596
 20
236.5807359965
  0
VERTEX
  8
0
 62
7
  6
CONTINUOUS
 10
111.2721891747
 20
236.6437247933
  0
VERTEX
  8
0
 62
7
  6
CONTINUOUS
 10
111.4202158331
 20
236.7212125045
  0
VERTEX
  8
0
 62
7
  6
CONTINUOUS
 10
111.5628467968
 20
236.8115942891
  0
VERTEX
  8
0
 62
7
  6
CONTINUOUS
 10
111.6942188104
 20
236.9119271902
  0
SEQEND
  0
LINE
  8
0
 62
7
  6
CONTINUOUS
 10
71.494122618
 20
230.4484104413
 11
71.2516001505
 21
230.4029985612
  0
POLYLINE
  8
0
 62
7
  6
CONTINUOUS
 66
1
 70
0
  0
VERTEX
  8
0
 62
7
  6
CONTINUOUS
 10
68.7995549331
 20
230.4029985612
  0
VERTEX
  8
0
 62
7
  6
CONTINUOUS
 10
68.5178092102
 20
230.3514003094
  0
VERTEX
  8
0
 62
7
  6
CONTINUOUS
 10
68.2557787812
 20
230.3005415863
  0
VERTEX
  8
0
 62
7
  6
CONTINUOUS
 10
68.0166467894
 20
230.2510159591
  0
VERTEX
  8
0
 62
7
  6
CONTINUOUS
 10
67.8032708953
 20
230.203381298
  0
VERTEX
  8
0
 62
7
  6
CONTINUOUS
 10
67.618143582
 20
230.1581530856
  0
VERTEX
  8
0
 62
7
  6
CONTINUOUS
 10
67.463378388
 20
230.1158031166
  0
SEQEND
  0
LINE
  8
0
 62
7
  6
CONTINUOUS
 10
68.7995549331
 20
230.4029985612
 11
69.0534869819
 21
230.4484104413
  0
POLYLINE
  8
0
 62
7
  6
CONTINUOUS
 66
1
 70
0
  0
VERTEX
  8
0
 62
7
  6
CONTINUOUS
 10
69.3847315454
 20
230.1158031166
  0
VERTEX
  8
0
 62
7
  6
CONTINUOUS
 10
69.2215016979
 20
230.087033345
  0
VERTEX
  8
0
 62
7
  6
CONTINUOUS
 10
69.054274014
 20
230.0405469158
  0
VERTEX
  8
0
 62
7
  6
CONTINUOUS
 10
68.8898433541
 20
229.9774543283
  0
VERTEX
  8
0
 62
7
  6
CONTINUOUS
 10
68.733703423
 20
229.8998522159
  0
VERTEX
  8
0
 62
7
  6
CONTINUOUS
 10
68.5891051491
 20
229.8094594648
  0
VERTEX
  8
0
 62
7
  6
CONTINUOUS
 10
68.4610003085
 20
229.7095170111
  0
SEQEND
  0
LINE
  8
0
 62
7
  6
CONTINUOUS
 10
64.5360162523
 20
230.2509835934
 11
65.1497554949
 21
230.3513716852
  0
POLYLINE
  8
DEFAULT_2
 62
8
  6
HIDDEN
 66
1
 70
0
  0
VERTEX
  8
DEFAULT_2
 62
8
  6
HIDDEN
 10
66.6031726799
 20
230.4484104413
  0
VERTEX
  8
DEFAULT_2
 62
8
  6
HIDDEN
 10
66.0006644987
 20
230.3514003094
  0
VERTEX
  8
DEFAULT_2
 62
8
  6
HIDDEN
 10
65.6745093565
 20
230.3005415863
  0
VERTEX
  8
DEFAULT_2
 62
8
  6
HIDDEN
 10
65.3484080799
 20
230.2510159591
  0
VERTEX
  8
DEFAULT_2
 62
8
  6
HIDDEN
 10
65.0263245904
 20
230.203381298
  0
VERTEX
  8
DEFAULT_2
 62
8
  6
HIDDEN
 10
64.7121252766
 20
230.1581530856
  0
VERTEX
  8
DEFAULT_2
 62
8
  6
HIDDEN
 10
64.409542324
 20
230.1158031166
  0
SEQEND
  0
LINE
  8
0
 62
7
  6
CONTINUOUS
 10
65.7555488188
 20
230.4484104413
 11
65.1497554949
 21
230.3513716852
  0
POLYLINE
  8
0
 62
7
  6
CONTINUOUS
 66
1
 70
0
  0
VERTEX
  8
0
 62
7
  6
CONTINUOUS
 10
69.0534869819
 20
230.4484104413
  0
VERTEX
  8
0
 62
7
  6
CONTINUOUS
 10
69.0992542164
 20
230.4552427128
  0
VERTEX
  8
0
 62
7
  6
CONTINUOUS
 10
69.1452379704
 20
230.4593517415
  0
VERTEX
  8
0
 62
7
  6
CONTINUOUS
 10
69.1912738826
 20
230.4607221007
  0
SEQEND
  0
POLYLINE
  8
DEFAULT_2
 62
8
  6
HIDDEN
 66
1
 70
0
  0
VERTEX
  8
DEFAULT_2
 62
8
  6
HIDDEN
 10
66.6031726799
 20
230.4484104413
  0
VERTEX
  8
DEFAULT_2
 62
8
  6
HIDDEN
 10
66.6540103438
 20
230.4552427128
  0
VERTEX
  8
DEFAULT_2
 62
8
  6
HIDDEN
 10
66.7051877874
 20
230.4593517415
  0
VERTEX
  8
DEFAULT_2
 62
8
  6
HIDDEN
 10
66.7565233787
 20
230.4607221007
  0
SEQEND
  0
POLYLINE
  8
0
 62
7
  6
CONTINUOUS
 66
1
 70
0
  0
VERTEX
  8
0
 62
7
  6
CONTINUOUS
 10
69.3847315454
 20
230.1158031166
  0
VERTEX
  8
0
 62
7
  6
CONTINUOUS
 10
69.7101052633
 20
230.1581603104
  0
VERTEX
  8
0
 62
7
  6
CONTINUOUS
 10
70.0347752948
 20
230.2033681
  0
VERTEX
  8
0
 62
7
  6
CONTINUOUS
 10
70.3550632401
 20
230.2509835934
  0
VERTEX
  8
0
 62
7
  6
CONTINUOUS
 10
70.6671599852
 20
230.3005039408
  0
VERTEX
  8
0
 62
7
  6
CONTINUOUS
 10
70.9672305002
 20
230.3513716852
  0
VERTEX
  8
0
 62
7
  6
CONTINUOUS
 10
71.2516001505
 20
230.4029985612
  0
SEQEND
  0
POLYLINE
  8
0
 62
7
  6
CONTINUOUS
 66
1
 70
0
  0
VERTEX
  8
0
 62
7
  6
CONTINUOUS
 10
109.5725479312
 20
236.1607221007
  0
VERTEX
  8
0
 62
7
  6
CONTINUOUS
 10
109.5891744329
 20
236.1620924316
  0
VERTEX
  8
0
 62
7
  6
CONTINUOUS
 10
109.6056314441
 20
236.1662022226
  0
VERTEX
  8
0
 62
7
  6
CONTINUOUS
 10
109.6218550434
 20
236.1730337601
  0
SEQEND
  0
POLYLINE
  8
DEFAULT_2
 62
8
  6
HIDDEN
 66
1
 70
0
  0
VERTEX
  8
DEFAULT_2
 62
8
  6
HIDDEN
 10
124.0483903969
 20
236.1607221007
  0
VERTEX
  8
DEFAULT_2
 62
8
  6
HIDDEN
 10
124.0830989582
 20
236.1620924316
  0
VERTEX
  8
DEFAULT_2
 62
8
  6
HIDDEN
 10
124.1178267622
 20
236.1662022226
  0
VERTEX
  8
DEFAULT_2
 62
8
  6
HIDDEN
 10
124.1524339835
 20
236.1730337601
  0
SEQEND
  0
POLYLINE
  8
0
 62
7
  6
CONTINUOUS
 66
1
 70
0
  0
VERTEX
  8
0
 62
7
  6
CONTINUOUS
 10
128.6242245608
 20
236.1607221007
  0
VERTEX
  8
0
 62
7
  6
CONTINUOUS
 10
128.6688931591
 20
236.1620924316
  0
VERTEX
  8
0
 62
7
  6
CONTINUOUS
 10
128.7133833025
 20
236.1662022226
  0
VERTEX
  8
0
 62
7
  6
CONTINUOUS
 10
128.7575185198
 20
236.1730337601
  0
SEQEND
  0
POLYLINE
  8
0
 62
7
  6
CONTINUOUS
 66
1
 70
0
  0
VERTEX
  8
0
 62
7
  6
CONTINUOUS
 10
134.341181238
 20
236.1607221007
  0
VERTEX
  8
0
 62
7
  6
CONTINUOUS
 10
134.3929909994
 20
236.1620924316
  0
VERTEX
  8
0
 62
7
  6
CONTINUOUS
 10
134.4446968425
 20
236.1662022226
  0
VERTEX
  8
0
 62
7
  6
CONTINUOUS
 10
134.4960923191
 20
236.1730337601
  0
SEQEND
  0
LINE
  8
0
 62
7
  6
CONTINUOUS
 10
134.341181238
 20
236.1607221007
 11
131.198154156
 21
236.1607221007
  0
LINE
  8
DEFAULT_2
 62
8
  6
HIDDEN
 10
131.198154156
 20
236.1607221007
 11
131.0603672553
 21
236.1607221007
  0
LINE
  8
DEFAULT_2
 62
8
  6
HIDDEN
 10
103.4725969277
 20
236.1607221007
 11
96.7790442102
 21
236.1607221007
  0
LINE
  8
0
 62
7
  6
CONTINUOUS
 10
93.452882389
 20
236.1607221007
 11
90.6790932066
 21
236.1607221007
  0
LINE
  8
DEFAULT_2
 62
8
  6
HIDDEN
 10
84.2380226769
 20
236.1607221007
 11
76.9394658694
 21
236.1607221007
  0
LINE
  8
0
 62
7
  6
CONTINUOUS
 10
76.9394658694
 20
236.1607221007
 11
71.6274165771
 21
236.1607221007
  0
LINE
  8
DEFAULT_2
 62
8
  6
HIDDEN
 10
71.6274165771
 20
236.1607221007
 11
71.494122618
 21
236.1607221007
  0
LINE
  8
0
 62
7
  6
CONTINUOUS
 10
65.9104598998
 20
236.1607221007
 11
71.494122618
 21
236.1607221007
  0
LINE
  8
0
 62
7
  6
CONTINUOUS
 10
86.1006425802
 20
236.1607221007
 11
90.6297860944
 21
236.1607221007
  0
LINE
  8
DEFAULT_2
 62
8
  6
HIDDEN
 10
90.6297860944
 20
236.1607221007
 11
90.6790932066
 21
236.1607221007
  0
LINE
  8
0
 62
7
  6
CONTINUOUS
 10
106.7987587489
 20
236.1607221007
 11
114.1509985577
 21
236.1607221007
  0
LINE
  8
DEFAULT_2
 62
8
  6
HIDDEN
 10
116.013618461
 20
236.1607221007
 11
123.3121752684
 21
236.1607221007
  0
LINE
  8
0
 62
7
  6
CONTINUOUS
 10
123.3121752684
 20
236.1607221007
 11
131.0603672553
 21
236.1607221007
  0
LINE
  8
0
 62
9
  6
CONTINUOUS
 10
131.198154156
 20
236.1730337601
 11
128.7575185198
 21
236.1730337601
  0
LINE
  8
0
 62
9
  6
CONTINUOUS
 10
114.2087496381
 20
236.1730337601
 11
109.6218550434
 21
236.1730337601
  0
LINE
  8
DEFAULT_2
 62
8
  6
HIDDEN
 10
102.5664562051
 20
236.1730337601
 11
97.6851849328
 21
236.1730337601
  0
LINE
  8
DEFAULT_2
 62
8
  6
HIDDEN
 10
79.8384778879
 20
236.1730337601
 11
76.0992071544
 21
236.1730337601
  0
LINE
  8
DEFAULT_2
 62
8
  6
HIDDEN
 10
66.6031726799
 20
236.1730337601
 11
65.7555488188
 21
236.1730337601
  0
LINE
  8
0
 62
9
  6
CONTINUOUS
 10
69.0534869819
 20
236.1730337601
 11
71.494122618
 21
236.1730337601
  0
LINE
  8
0
 62
9
  6
CONTINUOUS
 10
86.0428914998
 20
236.1730337601
 11
90.6297860944
 21
236.1730337601
  0
LINE
  8
DEFAULT_2
 62
8
  6
HIDDEN
 10
120.4131632499
 20
236.1730337601
 11
124.1524339835
 21
236.1730337601
  0
LINE
  8
DEFAULT_2
 62
8
  6
HIDDEN
 10
133.648468458
 20
236.1730337601
 11
134.4960923191
 21
236.1730337601
  0
POLYLINE
  8
DEFAULT_2
 62
8
  6
HIDDEN
 66
1
 70
0
  0
VERTEX
  8
DEFAULT_2
 62
8
  6
HIDDEN
 10
66.7565233787
 20
236.1607221007
  0
VERTEX
  8
DEFAULT_2
 62
8
  6
HIDDEN
 10
66.7051883157
 20
236.1620924316
  0
VERTEX
  8
DEFAULT_2
 62
8
  6
HIDDEN
 10
66.6540035005
 20
236.1662022226
  0
VERTEX
  8
DEFAULT_2
 62
8
  6
HIDDEN
 10
66.6031726799
 20
236.1730337601
  0
SEQEND
  0
POLYLINE
  8
0
 62
7
  6
CONTINUOUS
 66
1
 70
0
  0
VERTEX
  8
0
 62
7
  6
CONTINUOUS
 10
69.1912738826
 20
236.1607221007
  0
VERTEX
  8
0
 62
7
  6
CONTINUOUS
 10
69.1452384446
 20
236.1620924316
  0
VERTEX
  8
0
 62
7
  6
CONTINUOUS
 10
69.0992480616
 20
236.1662022226
  0
VERTEX
  8
0
 62
7
  6
CONTINUOUS
 10
69.0534869819
 20
236.1730337601
  0
SEQEND
  0
POLYLINE
  8
DEFAULT_2
 62
8
  6
HIDDEN
 66
1
 70
0
  0
VERTEX
  8
DEFAULT_2
 62
8
  6
HIDDEN
 10
79.9356378885
 20
236.1607221007
  0
VERTEX
  8
DEFAULT_2
 62
8
  6
HIDDEN
 10
79.903023447
 20
236.1620924316
  0
VERTEX
  8
DEFAULT_2
 62
8
  6
HIDDEN
 10
79.8705941435
 20
236.1662022226
  0
VERTEX
  8
DEFAULT_2
 62
8
  6
HIDDEN
 10
79.8384778879
 20
236.1730337601
  0
SEQEND
  0
POLYLINE
  8
0
 62
7
  6
CONTINUOUS
 66
1
 70
0
  0
VERTEX
  8
0
 62
7
  6
CONTINUOUS
 10
86.1006425802
 20
236.1607221007
  0
VERTEX
  8
0
 62
7
  6
CONTINUOUS
 10
86.0814472603
 20
236.1620924316
  0
VERTEX
  8
0
 62
7
  6
CONTINUOUS
 10
86.0621707209
 20
236.1662022226
  0
VERTEX
  8
0
 62
7
  6
CONTINUOUS
 10
86.0428914998
 20
236.1730337601
  0
SEQEND
  0
POLYLINE
  8
0
 62
7
  6
CONTINUOUS
 66
1
 70
0
  0
VERTEX
  8
0
 62
7
  6
CONTINUOUS
 10
134.4960923191
 20
230.4484104413
  0
VERTEX
  8
0
 62
7
  6
CONTINUOUS
 10
134.4446899263
 20
230.4552427128
  0
VERTEX
  8
0
 62
7
  6
CONTINUOUS
 10
134.3929915329
 20
230.4593517415
  0
VERTEX
  8
0
 62
7
  6
CONTINUOUS
 10
134.341181238
 20
230.4607221007
  0
SEQEND
  0
POLYLINE
  8
DEFAULT_2
 62
8
  6
HIDDEN
 66
1
 70
0
  0
VERTEX
  8
DEFAULT_2
 62
8
  6
HIDDEN
 10
135.8420988138
 20
230.1158031166
  0
VERTEX
  8
DEFAULT_2
 62
8
  6
HIDDEN
 10
135.5394649662
 20
230.1581603104
  0
VERTEX
  8
DEFAULT_2
 62
8
  6
HIDDEN
 10
135.2254069986
 20
230.2033681
  0
VERTEX
  8
DEFAULT_2
 62
8
  6
HIDDEN
 10
134.9034490187
 20
230.2509835934
  0
VERTEX
  8
DEFAULT_2
 62
8
  6
HIDDEN
 10
134.5773764192
 20
230.3005039408
  0
VERTEX
  8
DEFAULT_2
 62
8
  6
HIDDEN
 10
134.2511577931
 20
230.3513716852
  0
SEQEND
  0
POLYLINE
  8
0
 62
7
  6
CONTINUOUS
 66
1
 70
0
  0
VERTEX
  8
0
 62
7
  6
CONTINUOUS
 10
128.7575185198
 20
230.4484104413
  0
VERTEX
  8
0
 62
7
  6
CONTINUOUS
 10
128.7133773574
 20
230.4552427128
  0
VERTEX
  8
0
 62
7
  6
CONTINUOUS
 10
128.6688936186
 20
230.4593517415
  0
VERTEX
  8
0
 62
7
  6
CONTINUOUS
 10
128.6242245608
 20
230.4607221007
  0
SEQEND
  0
LINE
  8
0
 62
7
  6
CONTINUOUS
 10
134.4960923191
 20
230.4484104413
 11
135.1017084151
 21
230.3514003094
  0
LINE
  8
DEFAULT_2
 62
8
  6
HIDDEN
 10
133.648468458
 20
230.4484104413
 11
134.2511577931
 21
230.3513716852
  0
POLYLINE
  8
0
 62
7
  6
CONTINUOUS
 66
1
 70
0
  0
VERTEX
  8
0
 62
7
  6
CONTINUOUS
 10
135.1017084151
 20
230.3514003094
  0
VERTEX
  8
0
 62
7
  6
CONTINUOUS
 10
135.7154297609
 20
230.2510159591
  0
VERTEX
  8
0
 62
7
  6
CONTINUOUS
 10
136.0003417479
 20
230.203381298
  0
VERTEX
  8
0
 62
7
  6
CONTINUOUS
 10
136.2660278968
 20
230.1581530856
  0
VERTEX
  8
0
 62
7
  6
CONTINUOUS
 10
136.5093777627
 20
230.1158031166
  0
SEQEND
  0
POLYLINE
  8
0
 62
7
  6
CONTINUOUS
 66
1
 70
0
  0
VERTEX
  8
0
 62
7
  6
CONTINUOUS
 10
89.4112969188
 20
236.5056410847
  0
VERTEX
  8
0
 62
7
  6
CONTINUOUS
 10
89.6664065071
 20
236.4632838909
  0
VERTEX
  8
0
 62
7
  6
CONTINUOUS
 10
89.8982639762
 20
236.4180761013
  0
VERTEX
  8
0
 62
7
  6
CONTINUOUS
 10
90.1041784472
 20
236.3704606079
  0
VERTEX
  8
0
 62
7
  6
CONTINUOUS
 10
90.2816191156
 20
236.3209402605
  0
VERTEX
  8
0
 62
7
  6
CONTINUOUS
 10
90.4283338604
 20
236.2700725161
  0
VERTEX
  8
0
 62
7
  6
CONTINUOUS
 10
90.5424749932
 20
236.2184456401
  0
SEQEND
  0
LINE
  8
0
 62
7
  6
CONTINUOUS
 10
131.198154156
 20
230.4484104413
 11
131.4520862048
 21
230.4029985612
  0
POLYLINE
  8
DEFAULT_2
 62
8
  6
HIDDEN
 66
1
 70
0
  0
VERTEX
  8
DEFAULT_2
 62
8
  6
HIDDEN
 10
122.1838913448
 20
230.1158031166
  0
VERTEX
  8
DEFAULT_2
 62
8
  6
HIDDEN
 10
122.3434237222
 20
230.087033345
  0
VERTEX
  8
DEFAULT_2
 62
8
  6
HIDDEN
 10
122.5101071005
 20
230.0405469158
  0
VERTEX
  8
DEFAULT_2
 62
8
  6
HIDDEN
 10
122.6772945749
 20
229.9774543283
  0
VERTEX
  8
DEFAULT_2
 62
8
  6
HIDDEN
 10
122.8391893596
 20
229.8998522159
  0
VERTEX
  8
DEFAULT_2
 62
8
  6
HIDDEN
 10
122.9919697214
 20
229.8094594648
  0
VERTEX
  8
DEFAULT_2
 62
8
  6
HIDDEN
 10
123.1297356501
 20
229.7095170111
  0
SEQEND
  0
POLYLINE
  8
0
 62
7
  6
CONTINUOUS
 66
1
 70
0
  0
VERTEX
  8
0
 62
7
  6
CONTINUOUS
 10
129.0000409874
 20
230.4029985612
  0
VERTEX
  8
0
 62
7
  6
CONTINUOUS
 10
129.2842474075
 20
230.3514003094
  0
VERTEX
  8
0
 62
7
  6
CONTINUOUS
 10
129.5842515627
 20
230.3005415863
  0
VERTEX
  8
0
 62
7
  6
CONTINUOUS
 10
129.896367149
 20
230.2510159591
  0
VERTEX
  8
0
 62
7
  6
CONTINUOUS
 10
130.2167741186
 20
230.203381298
  0
VERTEX
  8
0
 62
7
  6
CONTINUOUS
 10
130.541589523
 20
230.1581530856
  0
VERTEX
  8
0
 62
7
  6
CONTINUOUS
 10
130.8669095925
 20
230.1158031166
  0
SEQEND
  0
LINE
  8
0
 62
7
  6
CONTINUOUS
 10
129.0000409874
 20
230.4029985612
 11
128.7575185198
 21
230.4484104413
  0
POLYLINE
  8
DEFAULT_2
 62
8
  6
HIDDEN
 66
1
 70
0
  0
VERTEX
  8
DEFAULT_2
 62
8
  6
HIDDEN
 10
124.1524339835
 20
230.4484104413
  0
VERTEX
  8
DEFAULT_2
 62
8
  6
HIDDEN
 10
124.1178221111
 20
230.4552427128
  0
VERTEX
  8
DEFAULT_2
 62
8
  6
HIDDEN
 10
124.083099316
 20
230.4593517415
  0
VERTEX
  8
DEFAULT_2
 62
8
  6
HIDDEN
 10
124.0483903969
 20
230.4607221007
  0
SEQEND
  0
LINE
  8
DEFAULT_2
 62
8
  6
HIDDEN
 10
124.3454152523
 20
230.4029985612
 11
124.1524339835
 21
230.4484104413
  0
POLYLINE
  8
DEFAULT_2
 62
8
  6
HIDDEN
 66
1
 70
0
  0
VERTEX
  8
DEFAULT_2
 62
8
  6
HIDDEN
 10
124.3454152523
 20
230.4029985612
  0
VERTEX
  8
DEFAULT_2
 62
8
  6
HIDDEN
 10
124.5535627858
 20
230.3514003094
  0
VERTEX
  8
DEFAULT_2
 62
8
  6
HIDDEN
 10
124.7330519014
 20
230.3005415863
  0
VERTEX
  8
DEFAULT_2
 62
8
  6
HIDDEN
 10
124.8817186974
 20
230.2510159591
  0
VERTEX
  8
DEFAULT_2
 62
8
  6
HIDDEN
 10
124.9978222166
 20
230.203381298
  0
VERTEX
  8
DEFAULT_2
 62
8
  6
HIDDEN
 10
125.0800616082
 20
230.1581530856
  0
VERTEX
  8
DEFAULT_2
 62
8
  6
HIDDEN
 10
125.1275751637
 20
230.1158031166
  0
SEQEND
  0
LINE
  8
DEFAULT_2
 62
8
  6
HIDDEN
 10
120.4131632499
 20
230.4484104413
 11
120.5886640262
 21
230.4029985612
  0
POLYLINE
  8
0
 62
7
  6
CONTINUOUS
 66
1
 70
0
  0
VERTEX
  8
0
 62
7
  6
CONTINUOUS
 10
109.6218550434
 20
230.4484104413
  0
VERTEX
  8
0
 62
7
  6
CONTINUOUS
 10
109.6056292519
 20
230.4552427128
  0
VERTEX
  8
0
 62
7
  6
CONTINUOUS
 10
109.5891746034
 20
230.4593517415
  0
VERTEX
  8
0
 62
7
  6
CONTINUOUS
 10
109.5725479312
 20
230.4607221007
  0
SEQEND
  0
POLYLINE
  8
0
 62
7
  6
CONTINUOUS
 66
1
 70
0
  0
VERTEX
  8
0
 62
7
  6
CONTINUOUS
 10
114.2087496381
 20
230.4484104413
  0
VERTEX
  8
0
 62
7
  6
CONTINUOUS
 10
114.244577679
 20
230.4332755455
  0
VERTEX
  8
0
 62
7
  6
CONTINUOUS
 10
114.3175037379
 20
230.4029985612
  0
SEQEND
  0
POLYLINE
  8
0
 62
7
  6
CONTINUOUS
 66
1
 70
0
  0
VERTEX
  8
0
 62
7
  6
CONTINUOUS
 10
109.7091661446
 20
230.4029985612
  0
VERTEX
  8
0
 62
7
  6
CONTINUOUS
 10
109.8232344223
 20
230.3514003094
  0
VERTEX
  8
0
 62
7
  6
CONTINUOUS
 10
109.9699004488
 20
230.3005415863
  0
VERTEX
  8
0
 62
7
  6
CONTINUOUS
 10
110.1473349295
 20
230.2510159591
  0
VERTEX
  8
0
 62
7
  6
CONTINUOUS
 10
110.3533148998
 20
230.203381298
  0
VERTEX
  8
0
 62
7
  6
CONTINUOUS
 10
110.585274822
 20
230.1581530856
  0
VERTEX
  8
0
 62
7
  6
CONTINUOUS
 10
110.840344219
 20
230.1158031166
  0
SEQEND
  0
POLYLINE
  8
0
 62
7
  6
CONTINUOUS
 66
1
 70
0
  0
VERTEX
  8
0
 62
7
  6
CONTINUOUS
 10
109.7091661446
 20
230.4029985612
  0
VERTEX
  8
0
 62
7
  6
CONTINUOUS
 10
109.6804978926
 20
230.4181381242
  0
VERTEX
  8
0
 62
7
  6
CONTINUOUS
 10
109.6513939549
 20
230.4332755463
  0
VERTEX
  8
0
 62
7
  6
CONTINUOUS
 10
109.6218550434
 20
230.4484104413
  0
SEQEND
  0
POLYLINE
  8
DEFAULT_2
 62
8
  6
HIDDEN
 66
1
 70
0
  0
VERTEX
  8
DEFAULT_2
 62
8
  6
HIDDEN
 10
102.5778657863
 20
230.4029985612
  0
VERTEX
  8
DEFAULT_2
 62
8
  6
HIDDEN
 10
102.5736058025
 20
230.4181381242
  0
VERTEX
  8
DEFAULT_2
 62
8
  6
HIDDEN
 10
102.56980258
 20
230.4332755463
  0
VERTEX
  8
DEFAULT_2
 62
8
  6
HIDDEN
 10
102.5664562051
 20
230.4484104413
  0
SEQEND
  0
POLYLINE
  8
DEFAULT_2
 62
8
  6
HIDDEN
 66
1
 70
0
  0
VERTEX
  8
DEFAULT_2
 62
8
  6
HIDDEN
 10
102.5664562051
 20
230.4484104413
  0
VERTEX
  8
DEFAULT_2
 62
8
  6
HIDDEN
 10
102.564830133
 20
230.4552427128
  0
VERTEX
  8
DEFAULT_2
 62
8
  6
HIDDEN
 10
102.5633301178
 20
230.4593517415
  0
VERTEX
  8
DEFAULT_2
 62
8
  6
HIDDEN
 10
102.5619632634
 20
230.4607221007
  0
SEQEND
  0
POLYLINE
  8
DEFAULT_2
 62
8
  6
HIDDEN
 66
1
 70
0
  0
VERTEX
  8
DEFAULT_2
 62
8
  6
HIDDEN
 10
102.5811725689
 20
223.540769774
  0
VERTEX
  8
DEFAULT_2
 62
8
  6
HIDDEN
 10
102.5754050891
 20
223.5700438919
  0
VERTEX
  8
DEFAULT_2
 62
8
  6
HIDDEN
 10
102.5374313629
 20
223.620902615
  0
VERTEX
  8
DEFAULT_2
 62
8
  6
HIDDEN
 10
102.4644477684
 20
223.6704282422
  0
VERTEX
  8
DEFAULT_2
 62
8
  6
HIDDEN
 10
102.3574166928
 20
223.7180629033
  0
VERTEX
  8
DEFAULT_2
 62
8
  6
HIDDEN
 10
102.2177286018
 20
223.7632911158
  0
VERTEX
  8
DEFAULT_2
 62
8
  6
HIDDEN
 10
102.0471737263
 20
223.8056410847
  0
SEQEND
  0
POLYLINE
  8
DEFAULT_2
 62
8
  6
HIDDEN
 66
1
 70
0
  0
VERTEX
  8
DEFAULT_2
 62
8
  6
HIDDEN
 10
102.5811725689
 20
236.240769774
  0
VERTEX
  8
DEFAULT_2
 62
8
  6
HIDDEN
 10
102.5754050891
 20
236.2700438919
  0
VERTEX
  8
DEFAULT_2
 62
8
  6
HIDDEN
 10
102.5374313629
 20
236.320902615
  0
VERTEX
  8
DEFAULT_2
 62
8
  6
HIDDEN
 10
102.4644477684
 20
236.3704282422
  0
VERTEX
  8
DEFAULT_2
 62
8
  6
HIDDEN
 10
102.3574166928
 20
236.4180629033
  0
VERTEX
  8
DEFAULT_2
 62
8
  6
HIDDEN
 10
102.2177286018
 20
236.4632911158
  0
VERTEX
  8
DEFAULT_2
 62
8
  6
HIDDEN
 10
102.0471737263
 20
236.5056410847
  0
SEQEND
  0
LINE
  8
DEFAULT_2
 62
8
  6
HIDDEN
 10
102.5778657863
 20
230.4029985612
 11
102.5811725689
 21
230.3806744273
  0
LINE
  8
DEFAULT_2
 62
8
  6
HIDDEN
 10
103.4725969277
 20
219.3107221007
 11
103.4725969277
 21
223.4607221007
  0
LINE
  8
DEFAULT_2
 62
8
  6
HIDDEN
 10
103.4725969277
 20
230.4607221007
 11
103.4725969277
 21
236.1607221007
  0
LINE
  8
DEFAULT_2
 62
8
  6
HIDDEN
 10
103.4725969277
 20
243.1607221007
 11
103.4725969277
 21
247.3107221007
  0
LINE
  8
DEFAULT_2
 62
8
  6
HIDDEN
 10
102.5778657863
 20
223.5184456401
 11
102.5811725689
 21
223.540769774
  0
LINE
  8
DEFAULT_2
 62
8
  6
HIDDEN
 10
102.5648303427
 20
223.4662022226
 11
102.5664562051
 21
223.4730337601
  0
POLYLINE
  8
DEFAULT_2
 62
8
  6
HIDDEN
 66
1
 70
0
  0
VERTEX
  8
DEFAULT_2
 62
8
  6
HIDDEN
 10
102.5778657863
 20
223.5184456401
  0
VERTEX
  8
DEFAULT_2
 62
8
  6
HIDDEN
 10
102.5736058025
 20
223.5033060771
  0
VERTEX
  8
DEFAULT_2
 62
8
  6
HIDDEN
 10
102.56980258
 20
223.4881686551
  0
VERTEX
  8
DEFAULT_2
 62
8
  6
HIDDEN
 10
102.5664562051
 20
223.4730337601
  0
SEQEND
  0
LINE
  8
DEFAULT_2
 62
8
  6
HIDDEN
 10
101.119395416
 20
229.4404741534
 11
101.3882587264
 21
229.7095170111
  0
LINE
  8
DEFAULT_2
 62
8
  6
HIDDEN
 10
99.1322211986
 20
224.4809456527
 11
98.8633824115
 21
224.2119271902
  0
LINE
  8
DEFAULT_2
 62
8
  6
HIDDEN
 10
100.8039809507
 20
229.128114776
 11
101.119395416
 21
229.4404741534
  0
LINE
  8
DEFAULT_2
 62
8
  6
HIDDEN
 10
99.4476601871
 20
224.7933294253
 11
99.1322211986
 21
224.4809456527
  0
POLYLINE
  8
DEFAULT_2
 62
8
  6
HIDDEN
 66
1
 70
0
  0
VERTEX
  8
DEFAULT_2
 62
8
  6
HIDDEN
 10
101.3882587264
 20
229.7095170111
  0
VERTEX
  8
DEFAULT_2
 62
8
  6
HIDDEN
 10
101.4965104089
 20
229.8096078786
  0
VERTEX
  8
DEFAULT_2
 62
8
  6
HIDDEN
 10
101.6116564088
 20
229.9000135215
  0
VERTEX
  8
DEFAULT_2
 62
8
  6
HIDDEN
 10
101.7281064517
 20
229.9775688328
  0
VERTEX
  8
DEFAULT_2
 62
8
  6
HIDDEN
 10
101.8423395578
 20
230.0406041415
  0
VERTEX
  8
DEFAULT_2
 62
8
  6
HIDDEN
 10
101.9500371986
 20
230.0870486478
  0
VERTEX
  8
DEFAULT_2
 62
8
  6
HIDDEN
 10
102.0471737263
 20
230.1158031166
  0
SEQEND
  0
POLYLINE
  8
0
 62
7
  6
CONTINUOUS
 66
1
 70
0
  0
VERTEX
  8
0
 62
7
  6
CONTINUOUS
 10
111.6942188104
 20
236.9119271902
  0
VERTEX
  8
0
 62
7
  6
CONTINUOUS
 10
111.8402050227
 20
237.0383393519
  0
VERTEX
  8
0
 62
7
  6
CONTINUOUS
 10
111.9963072759
 20
237.1809777996
  0
VERTEX
  8
0
 62
7
  6
CONTINUOUS
 10
112.1557174319
 20
237.3344655616
  0
VERTEX
  8
0
 62
7
  6
CONTINUOUS
 10
112.3122161913
 20
237.4933294253
  0
SEQEND
  0
POLYLINE
  8
DEFAULT_2
 62
8
  6
HIDDEN
 66
1
 70
0
  0
VERTEX
  8
DEFAULT_2
 62
8
  6
HIDDEN
 10
98.2044674115
 20
236.5056410847
  0
VERTEX
  8
DEFAULT_2
 62
8
  6
HIDDEN
 10
98.0338869323
 20
236.4632838909
  0
VERTEX
  8
DEFAULT_2
 62
8
  6
HIDDEN
 10
97.8942595246
 20
236.4180761013
  0
VERTEX
  8
DEFAULT_2
 62
8
  6
HIDDEN
 10
97.7872533644
 20
236.3704606079
  0
VERTEX
  8
DEFAULT_2
 62
8
  6
HIDDEN
 10
97.7142514081
 20
236.3209402605
  0
VERTEX
  8
DEFAULT_2
 62
8
  6
HIDDEN
 10
97.6762473533
 20
236.2700725161
  0
VERTEX
  8
DEFAULT_2
 62
8
  6
HIDDEN
 10
97.670468569
 20
236.2407721007
  0
SEQEND
  0
POLYLINE
  8
0
 62
7
  6
CONTINUOUS
 66
1
 70
0
  0
VERTEX
  8
0
 62
7
  6
CONTINUOUS
 10
63.7422633752
 20
230.1158031166
  0
VERTEX
  8
0
 62
7
  6
CONTINUOUS
 10
63.9856552441
 20
230.1581603104
  0
VERTEX
  8
0
 62
7
  6
CONTINUOUS
 10
64.2512211219
 20
230.2033681
  0
VERTEX
  8
0
 62
7
  6
CONTINUOUS
 10
64.5360162523
 20
230.2509835934
  0
SEQEND
  0
LINE
  8
0
 62
9
  6
CONTINUOUS
 10
132.7882627499
 20
236.5056410847
 11
130.8669095925
 21
236.5056410847
  0
LINE
  8
0
 62
9
  6
CONTINUOUS
 10
114.4513069869
 20
236.5056410847
 11
110.840344219
 21
236.5056410847
  0
LINE
  8
DEFAULT_2
 62
8
  6
HIDDEN
 10
102.0471737263
 20
236.5056410847
 11
98.2044674115
 21
236.5056410847
  0
LINE
  8
DEFAULT_2
 62
8
  6
HIDDEN
 10
78.0677497931
 20
236.5056410847
 11
75.1240659741
 21
236.5056410847
  0
LINE
  8
DEFAULT_2
 62
8
  6
HIDDEN
 10
64.409542324
 20
236.5056410847
 11
63.7422633752
 21
236.5056410847
  0
LINE
  8
0
 62
9
  6
CONTINUOUS
 10
67.463378388
 20
236.5056410847
 11
69.3847315454
 21
236.5056410847
  0
LINE
  8
0
 62
9
  6
CONTINUOUS
 10
85.800334151
 20
236.5056410847
 11
89.4112969188
 21
236.5056410847
  0
LINE
  8
DEFAULT_2
 62
8
  6
HIDDEN
 10
122.1838913448
 20
236.5056410847
 11
125.1275751637
 21
236.5056410847
  0
LINE
  8
DEFAULT_2
 62
8
  6
HIDDEN
 10
135.8420988138
 20
236.5056410847
 11
136.5093777627
 21
236.5056410847
  0
LINE
  8
DEFAULT_2
 62
8
  6
HIDDEN
 10
137.1678332667
 20
237.4933294253
 11
136.9323106377
 21
237.4933294253
  0
LINE
  8
DEFAULT_2
 62
8
  6
HIDDEN
 10
124.7459150154
 20
237.4933294253
 11
123.7069130313
 21
237.4933294253
  0
LINE
  8
DEFAULT_2
 62
8
  6
HIDDEN
 10
100.8039809507
 20
237.4933294253
 11
99.4476601871
 21
237.4933294253
  0
LINE
  8
DEFAULT_2
 62
8
  6
HIDDEN
 10
76.5447281065
 20
237.4933294253
 11
75.5057261225
 21
237.4933294253
  0
LINE
  8
DEFAULT_2
 62
8
  6
HIDDEN
 10
63.3193305001
 20
237.4933294253
 11
63.0838078712
 21
237.4933294253
  0
LINE
  8
0
 62
9
  6
CONTINUOUS
 10
67.3160986555
 20
237.4933294253
 11
67.9942590373
 21
237.4933294253
  0
LINE
  8
0
 62
9
  6
CONTINUOUS
 10
86.6649003336
 20
237.4933294253
 11
87.9394249466
 21
237.4933294253
  0
LINE
  8
0
 62
9
  6
CONTINUOUS
 10
112.3122161913
 20
237.4933294253
 11
113.5867408043
 21
237.4933294253
  0
LINE
  8
0
 62
9
  6
CONTINUOUS
 10
132.2573821005
 20
237.4933294253
 11
132.9355424824
 21
237.4933294253
  0
POLYLINE
  8
DEFAULT_2
 62
8
  6
HIDDEN
 66
1
 70
0
  0
VERTEX
  8
DEFAULT_2
 62
8
  6
HIDDEN
 10
135.8420988138
 20
230.1158031166
  0
VERTEX
  8
DEFAULT_2
 62
8
  6
HIDDEN
 10
135.9893382026
 20
230.087033345
  0
VERTEX
  8
DEFAULT_2
 62
8
  6
HIDDEN
 10
136.1369400655
 20
230.0405469158
  0
VERTEX
  8
DEFAULT_2
 62
8
  6
HIDDEN
 10
136.2787811466
 20
229.9774543283
  0
VERTEX
  8
DEFAULT_2
 62
8
  6
HIDDEN
 10
136.4103334441
 20
229.8998522159
  0
VERTEX
  8
DEFAULT_2
 62
8
  6
HIDDEN
 10
136.5293089442
 20
229.8094594648
  0
VERTEX
  8
DEFAULT_2
 62
8
  6
HIDDEN
 10
136.6323013622
 20
229.7095170111
  0
SEQEND
  0
POLYLINE
  8
0
 62
7
  6
CONTINUOUS
 66
1
 70
0
  0
VERTEX
  8
0
 62
7
  6
CONTINUOUS
 10
132.7882627499
 20
230.1158031166
  0
VERTEX
  8
0
 62
7
  6
CONTINUOUS
 10
132.6334695112
 20
230.1581603104
  0
VERTEX
  8
0
 62
7
  6
CONTINUOUS
 10
132.4484268874
 20
230.2033681
  0
VERTEX
  8
0
 62
7
  6
CONTINUOUS
 10
132.2351451023
 20
230.2509835934
  0
VERTEX
  8
0
 62
7
  6
CONTINUOUS
 10
131.9960503135
 20
230.3005039408
  0
VERTEX
  8
0
 62
7
  6
CONTINUOUS
 10
131.7339838532
 20
230.3513716852
  0
VERTEX
  8
0
 62
7
  6
CONTINUOUS
 10
131.4520862048
 20
230.4029985612
  0
SEQEND
  0
POLYLINE
  8
DEFAULT_2
 62
8
  6
HIDDEN
 66
1
 70
0
  0
VERTEX
  8
DEFAULT_2
 62
8
  6
HIDDEN
 10
102.0471737263
 20
236.5056410847
  0
VERTEX
  8
DEFAULT_2
 62
8
  6
HIDDEN
 10
101.9501383061
 20
236.5343586063
  0
VERTEX
  8
DEFAULT_2
 62
8
  6
HIDDEN
 10
101.842550783
 20
236.5807359965
  0
VERTEX
  8
DEFAULT_2
 62
8
  6
HIDDEN
 10
101.7283537584
 20
236.6437247933
  0
VERTEX
  8
DEFAULT_2
 62
8
  6
HIDDEN
 10
101.6119579481
 20
236.7212125045
  0
VERTEX
  8
DEFAULT_2
 62
8
  6
HIDDEN
 10
101.4967950003
 20
236.8115942891
  0
VERTEX
  8
DEFAULT_2
 62
8
  6
HIDDEN
 10
101.3882587264
 20
236.9119271902
  0
SEQEND
  0
POLYLINE
  8
0
 62
7
  6
CONTINUOUS
 66
1
 70
0
  0
VERTEX
  8
0
 62
7
  6
CONTINUOUS
 10
111.6942188104
 20
229.7095170111
  0
VERTEX
  8
0
 62
7
  6
CONTINUOUS
 10
111.5631949765
 20
229.8096078786
  0
VERTEX
  8
0
 62
7
  6
CONTINUOUS
 10
111.4205940232
 20
229.9000135215
  0
VERTEX
  8
0
 62
7
  6
CONTINUOUS
 10
111.2725082416
 20
229.9775688328
  0
VERTEX
  8
0
 62
7
  6
CONTINUOUS
 10
111.1228171098
 20
230.0406041415
  0
VERTEX
  8
0
 62
7
  6
CONTINUOUS
 10
110.9768793997
 20
230.0870486478
  0
VERTEX
  8
0
 62
7
  6
CONTINUOUS
 10
110.840344219
 20
230.1158031166
  0
SEQEND
  0
LINE
  8
DEFAULT_2
 62
8
  6
HIDDEN
 10
101.1193876236
 20
237.1809777996
 11
100.8039809507
 21
237.4933294253
  0
LINE
  8
DEFAULT_2
 62
8
  6
HIDDEN
 10
99.1322152944
 20
242.1405044221
 11
99.4476601871
 21
241.828114776
  0
LINE
  8
DEFAULT_2
 62
8
  6
HIDDEN
 10
101.3882587264
 20
236.9119271902
 11
101.1193876236
 21
237.1809777996
  0
LINE
  8
DEFAULT_2
 62
8
  6
HIDDEN
 10
98.8633824115
 20
242.4095170111
 11
99.1322152944
 21
242.1405044221
  0
POLYLINE
  8
0
 62
7
  6
CONTINUOUS
 66
1
 70
0
  0
VERTEX
  8
0
 62
7
  6
CONTINUOUS
 10
113.5867408043
 20
224.7933294253
  0
VERTEX
  8
0
 62
7
  6
CONTINUOUS
 10
113.7323589314
 20
224.6344283595
  0
VERTEX
  8
0
 62
7
  6
CONTINUOUS
 10
113.8636289917
 20
224.4809456527
  0
VERTEX
  8
0
 62
7
  6
CONTINUOUS
 10
113.9762280444
 20
224.3383331651
  0
VERTEX
  8
0
 62
7
  6
CONTINUOUS
 10
114.0668264519
 20
224.2119271902
  0
SEQEND
  0
POLYLINE
  8
DEFAULT_2
 62
8
  6
HIDDEN
 66
1
 70
0
  0
VERTEX
  8
DEFAULT_2
 62
8
  6
HIDDEN
 10
102.5778657863
 20
243.1029985612
  0
VERTEX
  8
DEFAULT_2
 62
8
  6
HIDDEN
 10
102.5736058025
 20
243.1181381242
  0
VERTEX
  8
DEFAULT_2
 62
8
  6
HIDDEN
 10
102.56980258
 20
243.1332755463
  0
VERTEX
  8
DEFAULT_2
 62
8
  6
HIDDEN
 10
102.5664562051
 20
243.1484104413
  0
SEQEND
  0
POLYLINE
  8
DEFAULT_2
 62
8
  6
HIDDEN
 66
1
 70
0
  0
VERTEX
  8
DEFAULT_2
 62
8
  6
HIDDEN
 10
102.5664562051
 20
243.1484104413
  0
VERTEX
  8
DEFAULT_2
 62
8
  6
HIDDEN
 10
102.564830133
 20
243.1552427128
  0
VERTEX
  8
DEFAULT_2
 62
8
  6
HIDDEN
 10
102.5633301178
 20
243.1593517415
  0
VERTEX
  8
DEFAULT_2
 62
8
  6
HIDDEN
 10
102.5619632634
 20
243.1607221007
  0
SEQEND
  0
LINE
  8
DEFAULT_2
 62
8
  6
HIDDEN
 10
102.5778657863
 20
243.1029985612
 11
102.5811725689
 21
243.0806744273
  0
POLYLINE
  8
0
 62
7
  6
CONTINUOUS
 66
1
 70
0
  0
VERTEX
  8
0
 62
7
  6
CONTINUOUS
 10
106.7987587489
 20
247.3107221007
  0
VERTEX
  8
0
 62
7
  6
CONTINUOUS
 10
106.7927513666
 20
247.4298359585
  0
VERTEX
  8
0
 62
7
  6
CONTINUOUS
 10
106.7746881457
 20
247.5476121019
  0
VERTEX
  8
0
 62
7
  6
CONTINUOUS
 10
106.7444790891
 20
247.6625904324
  0
VERTEX
  8
0
 62
7
  6
CONTINUOUS
 10
106.7015834675
 20
247.7742080584
  0
VERTEX
  8
0
 62
7
  6
CONTINUOUS
 10
106.6456572766
 20
247.8805569631
  0
VERTEX
  8
0
 62
7
  6
CONTINUOUS
 10
106.5754057274
 20
247.9809587154
  0
VERTEX
  8
0
 62
7
  6
CONTINUOUS
 10
106.4904988114
 20
248.0726241637
  0
VERTEX
  8
0
 62
7
  6
CONTINUOUS
 10
106.3915430641
 20
248.1523994959
  0
VERTEX
  8
0
 62
7
  6
CONTINUOUS
 10
106.2795448501
 20
248.2177536402
  0
VERTEX
  8
0
 62
7
  6
CONTINUOUS
 10
106.1529076479
 20
248.2676566465
  0
VERTEX
  8
0
 62
7
  6
CONTINUOUS
 10
106.0117063999
 20
248.2995617638
  0
VERTEX
  8
0
 62
7
  6
CONTINUOUS
 10
105.8576582879
 20
248.3107221007
  0
SEQEND
  0
LINE
  8
0
 62
7
  6
CONTINUOUS
 10
106.7987587489
 20
219.3107221007
 11
106.7987587489
 21
223.4607221007
  0
LINE
  8
0
 62
7
  6
CONTINUOUS
 10
106.7987587489
 20
230.4607221007
 11
106.7987587489
 21
236.1607221007
  0
LINE
  8
0
 62
7
  6
CONTINUOUS
 10
106.7987587489
 20
243.1607221007
 11
106.7987587489
 21
247.3107221007
  0
LINE
  8
0
 62
7
  6
CONTINUOUS
 10
107.9417074486
 20
223.4607221007
 11
107.9417074486
 21
230.4607221007
  0
LINE
  8
0
 62
7
  6
CONTINUOUS
 10
107.9417074486
 20
236.1607221007
 11
107.9417074486
 21
243.1607221007
  0
POLYLINE
  8
0
 62
7
  6
CONTINUOUS
 66
1
 70
0
  0
VERTEX
  8
0
 62
7
  6
CONTINUOUS
 10
114.0668264519
 20
242.4095170111
  0
VERTEX
  8
0
 62
7
  6
CONTINUOUS
 10
113.9761468214
 20
242.2830032885
  0
VERTEX
  8
0
 62
7
  6
CONTINUOUS
 10
113.8636338255
 20
242.1405044221
  0
VERTEX
  8
0
 62
7
  6
CONTINUOUS
 10
113.7324623064
 20
241.9871324909
  0
VERTEX
  8
0
 62
7
  6
CONTINUOUS
 10
113.5867408043
 20
241.828114776
  0
SEQEND
  0
POLYLINE
  8
DEFAULT_2
 62
8
  6
HIDDEN
 66
1
 70
0
  0
VERTEX
  8
DEFAULT_2
 62
8
  6
HIDDEN
 10
98.8633824115
 20
224.2119271902
  0
VERTEX
  8
DEFAULT_2
 62
8
  6
HIDDEN
 10
98.7550163152
 20
224.1117390065
  0
VERTEX
  8
DEFAULT_2
 62
8
  6
HIDDEN
 10
98.6398994822
 20
224.0213689911
  0
VERTEX
  8
DEFAULT_2
 62
8
  6
HIDDEN
 10
98.5234722465
 20
223.9438373458
  0
VERTEX
  8
DEFAULT_2
 62
8
  6
HIDDEN
 10
98.409204841
 20
223.8807923938
  0
VERTEX
  8
DEFAULT_2
 62
8
  6
HIDDEN
 10
98.3015431179
 20
223.8343733263
  0
VERTEX
  8
DEFAULT_2
 62
8
  6
HIDDEN
 10
98.2044674115
 20
223.8056410847
  0
SEQEND
  0
POLYLINE
  8
0
 62
7
  6
CONTINUOUS
 66
1
 70
0
  0
VERTEX
  8
0
 62
7
  6
CONTINUOUS
 10
63.7422633752
 20
230.1158031166
  0
VERTEX
  8
0
 62
7
  6
CONTINUOUS
 10
63.6287736883
 20
230.087033345
  0
VERTEX
  8
0
 62
7
  6
CONTINUOUS
 10
63.5186006095
 20
230.0405469158
  0
VERTEX
  8
0
 62
7
  6
CONTINUOUS
 10
63.416457235
 20
229.9774543283
  0
VERTEX
  8
0
 62
7
  6
CONTINUOUS
 10
63.3253597197
 20
229.8998522159
  0
VERTEX
  8
0
 62
7
  6
CONTINUOUS
 10
63.2463571945
 20
229.8094594648
  0
VERTEX
  8
0
 62
7
  6
CONTINUOUS
 10
63.1808996047
 20
229.7095170111
  0
SEQEND
  0
POLYLINE
  8
0
 62
7
  6
CONTINUOUS
 66
1
 70
0
  0
VERTEX
  8
0
 62
7
  6
CONTINUOUS
 10
112.3122161913
 20
229.128114776
  0
VERTEX
  8
0
 62
7
  6
CONTINUOUS
 10
112.155598774
 20
229.2870959114
  0
VERTEX
  8
0
 62
7
  6
CONTINUOUS
 10
111.9962990107
 20
229.4404741534
  0
VERTEX
  8
0
 62
7
  6
CONTINUOUS
 10
111.8403259529
 20
229.5829972821
  0
VERTEX
  8
0
 62
7
  6
CONTINUOUS
 10
111.6942188104
 20
229.7095170111
  0
SEQEND
  0
POLYLINE
  8
0
 62
7
  6
CONTINUOUS
 66
1
 70
0
  0
VERTEX
  8
0
 62
7
  6
CONTINUOUS
 10
114.0668264519
 20
224.2119271902
  0
VERTEX
  8
0
 62
7
  6
CONTINUOUS
 10
114.1393242844
 20
224.1117390065
  0
VERTEX
  8
0
 62
7
  6
CONTINUOUS
 10
114.2131052699
 20
224.0213689911
  0
VERTEX
  8
0
 62
7
  6
CONTINUOUS
 10
114.283857475
 20
223.9438373458
  0
VERTEX
  8
0
 62
7
  6
CONTINUOUS
 10
114.3488705209
 20
223.8807923938
  0
VERTEX
  8
0
 62
7
  6
CONTINUOUS
 10
114.4053155937
 20
223.8343733263
  0
VERTEX
  8
0
 62
7
  6
CONTINUOUS
 10
114.4513069869
 20
223.8056410847
  0
SEQEND
  0
LINE
  8
DEFAULT_2
 62
8
  6
HIDDEN
 10
108.7746800105
 20
218.3107221007
 11
108.7746800105
 21
248.3107221007
  0
LINE
  8
0
 62
9
  6
CONTINUOUS
 10
109.7091661446
 20
223.5184456401
 11
109.7091661446
 21
230.4029985612
  0
LINE
  8
0
 62
9
  6
CONTINUOUS
 10
109.7091661446
 20
236.2184456401
 11
109.7091661446
 21
243.1029985612
  0
POLYLINE
  8
DEFAULT_2
 62
8
  6
HIDDEN
 66
1
 70
0
  0
VERTEX
  8
DEFAULT_2
 62
8
  6
HIDDEN
 10
102.5619632634
 20
223.4607221007
  0
VERTEX
  8
DEFAULT_2
 62
8
  6
HIDDEN
 10
102.5633301031
 20
223.4620924316
  0
VERTEX
  8
DEFAULT_2
 62
8
  6
HIDDEN
 10
102.5648303427
 20
223.4662022226
  0
SEQEND
  0
POLYLINE
  8
DEFAULT_2
 62
8
  6
HIDDEN
 66
1
 70
0
  0
VERTEX
  8
DEFAULT_2
 62
8
  6
HIDDEN
 10
123.1297356501
 20
236.9119271902
  0
VERTEX
  8
DEFAULT_2
 62
8
  6
HIDDEN
 10
122.9915944185
 20
236.8117390065
  0
VERTEX
  8
DEFAULT_2
 62
8
  6
HIDDEN
 10
122.8387712602
 20
236.7213689911
  0
VERTEX
  8
DEFAULT_2
 62
8
  6
HIDDEN
 10
122.6769378007
 20
236.6438373458
  0
VERTEX
  8
DEFAULT_2
 62
8
  6
HIDDEN
 10
122.5097871321
 20
236.5807923938
  0
VERTEX
  8
DEFAULT_2
 62
8
  6
HIDDEN
 10
122.3432601163
 20
236.5343733263
  0
VERTEX
  8
DEFAULT_2
 62
8
  6
HIDDEN
 10
122.1838913448
 20
236.5056410847
  0
SEQEND
  0
POLYLINE
  8
0
 62
7
  6
CONTINUOUS
 66
1
 70
0
  0
VERTEX
  8
0
 62
7
  6
CONTINUOUS
 10
114.4513069869
 20
230.1158031166
  0
VERTEX
  8
0
 62
7
  6
CONTINUOUS
 10
114.5167838339
 20
230.1581603104
  0
VERTEX
  8
0
 62
7
  6
CONTINUOUS
 10
114.547340054
 20
230.2033681
  0
VERTEX
  8
0
 62
7
  6
CONTINUOUS
 10
114.5496958897
 20
230.2204622557
  0
SEQEND
  0
POLYLINE
  8
0
 62
7
  6
CONTINUOUS
 66
1
 70
0
  0
VERTEX
  8
0
 62
7
  6
CONTINUOUS
 10
114.4513069869
 20
230.1158031166
  0
VERTEX
  8
0
 62
7
  6
CONTINUOUS
 10
114.4052642963
 20
230.087033345
  0
VERTEX
  8
0
 62
7
  6
CONTINUOUS
 10
114.3487539968
 20
230.0405469158
  0
VERTEX
  8
0
 62
7
  6
CONTINUOUS
 10
114.2837098969
 20
229.9774543283
  0
VERTEX
  8
0
 62
7
  6
CONTINUOUS
 10
114.2129126274
 20
229.8998522159
  0
VERTEX
  8
0
 62
7
  6
CONTINUOUS
 10
114.1391347909
 20
229.8094594648
  0
VERTEX
  8
0
 62
7
  6
CONTINUOUS
 10
114.0668264519
 20
229.7095170111
  0
SEQEND
  0
POLYLINE
  8
0
 62
7
  6
CONTINUOUS
 66
1
 70
0
  0
VERTEX
  8
0
 62
7
  6
CONTINUOUS
 10
113.286211699
 20
248.3107221007
  0
VERTEX
  8
0
 62
7
  6
CONTINUOUS
 10
113.2450829711
 20
248.2995616411
  0
VERTEX
  8
0
 62
7
  6
CONTINUOUS
 10
113.210195065
 20
248.2676597447
  0
VERTEX
  8
0
 62
7
  6
CONTINUOUS
 10
113.181293607
 20
248.2177648475
  0
VERTEX
  8
0
 62
7
  6
CONTINUOUS
 10
113.1576932372
 20
248.1524198792
  0
VERTEX
  8
0
 62
7
  6
CONTINUOUS
 10
113.1384321421
 20
248.0726492388
  0
VERTEX
  8
0
 62
7
  6
CONTINUOUS
 10
113.1231387472
 20
247.9809822731
  0
VERTEX
  8
0
 62
7
  6
CONTINUOUS
 10
113.1113742306
 20
247.8805745529
  0
VERTEX
  8
0
 62
7
  6
CONTINUOUS
 10
113.1026004694
 20
247.7742194912
  0
VERTEX
  8
0
 62
7
  6
CONTINUOUS
 10
113.0962345701
 20
247.6625985012
  0
VERTEX
  8
0
 62
7
  6
CONTINUOUS
 10
113.0919440884
 20
247.5476185481
  0
VERTEX
  8
0
 62
7
  6
CONTINUOUS
 10
113.0894556113
 20
247.4298405882
  0
VERTEX
  8
0
 62
7
  6
CONTINUOUS
 10
113.0886408444
 20
247.3107221007
  0
SEQEND
  0
POLYLINE
  8
0
 62
7
  6
CONTINUOUS
 66
1
 70
0
  0
VERTEX
  8
0
 62
7
  6
CONTINUOUS
 10
90.6790932066
 20
243.1607221007
  0
VERTEX
  8
0
 62
7
  6
CONTINUOUS
 10
90.6624665344
 20
243.1593517415
  0
VERTEX
  8
0
 62
7
  6
CONTINUOUS
 10
90.646011886
 20
243.1552427128
  0
VERTEX
  8
0
 62
7
  6
CONTINUOUS
 10
90.6297860944
 20
243.1484104413
  0
SEQEND
  0
POLYLINE
  8
DEFAULT_2
 62
8
  6
HIDDEN
 66
1
 70
0
  0
VERTEX
  8
DEFAULT_2
 62
8
  6
HIDDEN
 10
76.203250741
 20
243.1607221007
  0
VERTEX
  8
DEFAULT_2
 62
8
  6
HIDDEN
 10
76.1685418219
 20
243.1593517415
  0
VERTEX
  8
DEFAULT_2
 62
8
  6
HIDDEN
 10
76.1338190268
 20
243.1552427128
  0
VERTEX
  8
DEFAULT_2
 62
8
  6
HIDDEN
 10
76.0992071544
 20
243.1484104413
  0
SEQEND
  0
POLYLINE
  8
0
 62
7
  6
CONTINUOUS
 66
1
 70
0
  0
VERTEX
  8
0
 62
7
  6
CONTINUOUS
 10
71.6274165771
 20
243.1607221007
  0
VERTEX
  8
0
 62
7
  6
CONTINUOUS
 10
71.5827475193
 20
243.1593517415
  0
VERTEX
  8
0
 62
7
  6
CONTINUOUS
 10
71.5382637805
 20
243.1552427128
  0
VERTEX
  8
0
 62
7
  6
CONTINUOUS
 10
71.494122618
 20
243.1484104413
  0
SEQEND
  0
POLYLINE
  8
0
 62
7
  6
CONTINUOUS
 66
1
 70
0
  0
VERTEX
  8
0
 62
7
  6
CONTINUOUS
 10
65.9104598998
 20
243.1607221007
  0
VERTEX
  8
0
 62
7
  6
CONTINUOUS
 10
65.858649605
 20
243.1593517415
  0
VERTEX
  8
0
 62
7
  6
CONTINUOUS
 10
65.8069512116
 20
243.1552427128
  0
VERTEX
  8
0
 62
7
  6
CONTINUOUS
 10
65.7555488188
 20
243.1484104413
  0
SEQEND
  0
LINE
  8
DEFAULT_2
 62
8
  6
HIDDEN
 10
137.1678332667
 20
241.828114776
 11
136.9323106377
 21
241.828114776
  0
LINE
  8
DEFAULT_2
 62
8
  6
HIDDEN
 10
124.7459150154
 20
241.828114776
 11
123.7069130313
 21
241.828114776
  0
LINE
  8
DEFAULT_2
 62
8
  6
HIDDEN
 10
76.5447281065
 20
241.828114776
 11
75.5057261225
 21
241.828114776
  0
LINE
  8
DEFAULT_2
 62
8
  6
HIDDEN
 10
63.3193305001
 20
241.828114776
 11
63.0838078712
 21
241.828114776
  0
LINE
  8
0
 62
9
  6
CONTINUOUS
 10
67.3160986555
 20
241.828114776
 11
67.9942590373
 21
241.828114776
  0
LINE
  8
0
 62
9
  6
CONTINUOUS
 10
86.6649003336
 20
241.828114776
 11
87.9394249466
 21
241.828114776
  0
LINE
  8
DEFAULT_2
 62
8
  6
HIDDEN
 10
99.4476601871
 20
241.828114776
 11
100.8039809507
 21
241.828114776
  0
LINE
  8
0
 62
9
  6
CONTINUOUS
 10
112.3122161913
 20
241.828114776
 11
113.5867408043
 21
241.828114776
  0
LINE
  8
0
 62
9
  6
CONTINUOUS
 10
132.2573821005
 20
241.828114776
 11
132.9355424824
 21
241.828114776
  0
LINE
  8
0
 62
9
  6
CONTINUOUS
 10
132.7882627499
 20
242.8158031166
 11
130.8669095925
 21
242.8158031166
  0
LINE
  8
0
 62
9
  6
CONTINUOUS
 10
114.4513069869
 20
242.8158031166
 11
110.840344219
 21
242.8158031166
  0
LINE
  8
DEFAULT_2
 62
8
  6
HIDDEN
 10
102.0471737263
 20
242.8158031166
 11
98.2044674115
 21
242.8158031166
  0
LINE
  8
DEFAULT_2
 62
8
  6
HIDDEN
 10
78.0677497931
 20
242.8158031166
 11
75.1240659741
 21
242.8158031166
  0
LINE
  8
DEFAULT_2
 62
8
  6
HIDDEN
 10
64.409542324
 20
242.8158031166
 11
63.7422633752
 21
242.8158031166
  0
LINE
  8
0
 62
9
  6
CONTINUOUS
 10
67.463378388
 20
242.8158031166
 11
69.3847315454
 21
242.8158031166
  0
LINE
  8
0
 62
9
  6
CONTINUOUS
 10
85.800334151
 20
242.8158031166
 11
89.4112969188
 21
242.8158031166
  0
LINE
  8
DEFAULT_2
 62
8
  6
HIDDEN
 10
122.1838913448
 20
242.8158031166
 11
125.1275751637
 21
242.8158031166
  0
LINE
  8
DEFAULT_2
 62
8
  6
HIDDEN
 10
135.8420988138
 20
242.8158031166
 11
136.5093777627
 21
242.8158031166
  0
LINE
  8
0
 62
9
  6
CONTINUOUS
 10
131.198154156
 20
243.1484104413
 11
128.7575185198
 21
243.1484104413
  0
LINE
  8
0
 62
9
  6
CONTINUOUS
 10
114.2087496381
 20
243.1484104413
 11
109.6218550434
 21
243.1484104413
  0
LINE
  8
DEFAULT_2
 62
8
  6
HIDDEN
 10
102.5664562051
 20
243.1484104413
 11
97.6851849328
 21
243.1484104413
  0
LINE
  8
DEFAULT_2
 62
8
  6
HIDDEN
 10
79.8384778879
 20
243.1484104413
 11
76.0992071544
 21
243.1484104413
  0
LINE
  8
DEFAULT_2
 62
8
  6
HIDDEN
 10
66.6031726799
 20
243.1484104413
 11
65.7555488188
 21
243.1484104413
  0
LINE
  8
0
 62
9
  6
CONTINUOUS
 10
69.0534869819
 20
243.1484104413
 11
71.494122618
 21
243.1484104413
  0
LINE
  8
0
 62
9
  6
CONTINUOUS
 10
86.0428914998
 20
243.1484104413
 11
90.6297860944
 21
243.1484104413
  0
LINE
  8
DEFAULT_2
 62
8
  6
HIDDEN
 10
120.4131632499
 20
243.1484104413
 11
124.1524339835
 21
243.1484104413
  0
LINE
  8
DEFAULT_2
 62
8
  6
HIDDEN
 10
133.648468458
 20
243.1484104413
 11
134.4960923191
 21
243.1484104413
  0
LINE
  8
0
 62
7
  6
CONTINUOUS
 10
134.341181238
 20
243.1607221007
 11
131.198154156
 21
243.1607221007
  0
LINE
  8
DEFAULT_2
 62
8
  6
HIDDEN
 10
131.198154156
 20
243.1607221007
 11
131.0603672553
 21
243.1607221007
  0
LINE
  8
0
 62
7
  6
CONTINUOUS
 10
131.0603672553
 20
243.1607221007
 11
128.7575185198
 21
243.1607221007
  0
LINE
  8
0
 62
7
  6
CONTINUOUS
 10
128.6242245608
 20
243.1607221007
 11
123.3121752684
 21
243.1607221007
  0
LINE
  8
0
 62
7
  6
CONTINUOUS
 10
114.1509985577
 20
243.1607221007
 11
109.6218550434
 21
243.1607221007
  0
LINE
  8
DEFAULT_2
 62
8
  6
HIDDEN
 10
109.6218550434
 20
243.1607221007
 11
109.5725479312
 21
243.1607221007
  0
LINE
  8
0
 62
7
  6
CONTINUOUS
 10
109.5725479312
 20
243.1607221007
 11
106.7987587489
 21
243.1607221007
  0
LINE
  8
0
 62
7
  6
CONTINUOUS
 10
93.452882389
 20
243.1607221007
 11
90.6790932066
 21
243.1607221007
  0
LINE
  8
DEFAULT_2
 62
8
  6
HIDDEN
 10
84.2380226769
 20
243.1607221007
 11
76.9394658694
 21
243.1607221007
  0
LINE
  8
0
 62
7
  6
CONTINUOUS
 10
76.9394658694
 20
243.1607221007
 11
71.6274165771
 21
243.1607221007
  0
LINE
  8
DEFAULT_2
 62
8
  6
HIDDEN
 10
71.6274165771
 20
243.1607221007
 11
71.494122618
 21
243.1607221007
  0
LINE
  8
0
 62
7
  6
CONTINUOUS
 10
65.9104598998
 20
243.1607221007
 11
71.494122618
 21
243.1607221007
  0
LINE
  8
0
 62
7
  6
CONTINUOUS
 10
86.1006425802
 20
243.1607221007
 11
90.6297860944
 21
243.1607221007
  0
LINE
  8
DEFAULT_2
 62
8
  6
HIDDEN
 10
90.6297860944
 20
243.1607221007
 11
90.6790932066
 21
243.1607221007
  0
LINE
  8
DEFAULT_2
 62
8
  6
HIDDEN
 10
96.7790442102
 20
243.1607221007
 11
103.4725969277
 21
243.1607221007
  0
LINE
  8
DEFAULT_2
 62
8
  6
HIDDEN
 10
116.013618461
 20
243.1607221007
 11
123.3121752684
 21
243.1607221007
  0
LINE
  8
DEFAULT_2
 62
8
  6
HIDDEN
 10
128.6242245608
 20
243.1607221007
 11
128.7575185198
 21
243.1607221007
  0
POLYLINE
  8
DEFAULT_2
 62
8
  6
HIDDEN
 66
1
 70
0
  0
VERTEX
  8
DEFAULT_2
 62
8
  6
HIDDEN
 10
133.4951177592
 20
243.1607221007
  0
VERTEX
  8
DEFAULT_2
 62
8
  6
HIDDEN
 10
133.5464533505
 20
243.1593517415
  0
VERTEX
  8
DEFAULT_2
 62
8
  6
HIDDEN
 10
133.5976307941
 20
243.1552427128
  0
VERTEX
  8
DEFAULT_2
 62
8
  6
HIDDEN
 10
133.648468458
 20
243.1484104413
  0
SEQEND
  0
POLYLINE
  8
0
 62
7
  6
CONTINUOUS
 66
1
 70
0
  0
VERTEX
  8
0
 62
7
  6
CONTINUOUS
 10
131.0603672553
 20
243.1607221007
  0
VERTEX
  8
0
 62
7
  6
CONTINUOUS
 10
131.1064031675
 20
243.1593517415
  0
VERTEX
  8
0
 62
7
  6
CONTINUOUS
 10
131.1523869214
 20
243.1552427128
  0
VERTEX
  8
0
 62
7
  6
CONTINUOUS
 10
131.198154156
 20
243.1484104413
  0
SEQEND
  0
POLYLINE
  8
DEFAULT_2
 62
8
  6
HIDDEN
 66
1
 70
0
  0
VERTEX
  8
DEFAULT_2
 62
8
  6
HIDDEN
 10
120.3160032493
 20
243.1607221007
  0
VERTEX
  8
DEFAULT_2
 62
8
  6
HIDDEN
 10
120.348618026
 20
243.1593517415
  0
VERTEX
  8
DEFAULT_2
 62
8
  6
HIDDEN
 10
120.3810426646
 20
243.1552427128
  0
VERTEX
  8
DEFAULT_2
 62
8
  6
HIDDEN
 10
120.4131632499
 20
243.1484104413
  0
SEQEND
  0
POLYLINE
  8
0
 62
7
  6
CONTINUOUS
 66
1
 70
0
  0
VERTEX
  8
0
 62
7
  6
CONTINUOUS
 10
114.1509985577
 20
243.1607221007
  0
VERTEX
  8
0
 62
7
  6
CONTINUOUS
 10
114.1701940758
 20
243.1593517415
  0
VERTEX
  8
0
 62
7
  6
CONTINUOUS
 10
114.1894678306
 20
243.1552427128
  0
VERTEX
  8
0
 62
7
  6
CONTINUOUS
 10
114.2087496381
 20
243.1484104413
  0
SEQEND
  0
POLYLINE
  8
DEFAULT_2
 62
8
  6
HIDDEN
 66
1
 70
0
  0
VERTEX
  8
DEFAULT_2
 62
8
  6
HIDDEN
 10
98.2044674115
 20
242.8158031166
  0
VERTEX
  8
DEFAULT_2
 62
8
  6
HIDDEN
 10
98.0338869323
 20
242.8581603104
  0
VERTEX
  8
DEFAULT_2
 62
8
  6
HIDDEN
 10
97.8942595246
 20
242.9033681
  0
VERTEX
  8
DEFAULT_2
 62
8
  6
HIDDEN
 10
97.7872533644
 20
242.9509835934
  0
VERTEX
  8
DEFAULT_2
 62
8
  6
HIDDEN
 10
97.7142514081
 20
243.0005039408
  0
VERTEX
  8
DEFAULT_2
 62
8
  6
HIDDEN
 10
97.6762473533
 20
243.0513716852
  0
VERTEX
  8
DEFAULT_2
 62
8
  6
HIDDEN
 10
97.670468569
 20
243.0806721006
  0
SEQEND
  0
POLYLINE
  8
DEFAULT_2
 62
8
  6
HIDDEN
 66
1
 70
0
  0
VERTEX
  8
DEFAULT_2
 62
8
  6
HIDDEN
 10
98.2044674115
 20
242.8158031166
  0
VERTEX
  8
DEFAULT_2
 62
8
  6
HIDDEN
 10
98.3016458052
 20
242.787033345
  0
VERTEX
  8
DEFAULT_2
 62
8
  6
HIDDEN
 10
98.4094176937
 20
242.7405469158
  0
VERTEX
  8
DEFAULT_2
 62
8
  6
HIDDEN
 10
98.5237226841
 20
242.6774543283
  0
VERTEX
  8
DEFAULT_2
 62
8
  6
HIDDEN
 10
98.640207587
 20
242.5998522159
  0
VERTEX
  8
DEFAULT_2
 62
8
  6
HIDDEN
 10
98.7553051811
 20
242.5094594648
  0
VERTEX
  8
DEFAULT_2
 62
8
  6
HIDDEN
 10
98.8633824115
 20
242.4095170111
  0
SEQEND
  0
POLYLINE
  8
0
 62
7
  6
CONTINUOUS
 66
1
 70
0
  0
VERTEX
  8
0
 62
7
  6
CONTINUOUS
 10
132.7882627499
 20
230.1158031166
  0
VERTEX
  8
0
 62
7
  6
CONTINUOUS
 10
132.8543142036
 20
230.087033345
  0
VERTEX
  8
0
 62
7
  6
CONTINUOUS
 10
132.913769999
 20
230.0405469158
  0
VERTEX
  8
0
 62
7
  6
CONTINUOUS
 10
132.9638956686
 20
229.9774543283
  0
VERTEX
  8
0
 62
7
  6
CONTINUOUS
 10
133.0035506968
 20
229.8998522159
  0
VERTEX
  8
0
 62
7
  6
CONTINUOUS
 10
133.0330513766
 20
229.8094594648
  0
VERTEX
  8
0
 62
7
  6
CONTINUOUS
 10
133.0530789868
 20
229.7095170111
  0
SEQEND
  0
POLYLINE
  8
0
 62
7
  6
CONTINUOUS
 66
1
 70
0
  0
VERTEX
  8
0
 62
7
  6
CONTINUOUS
 10
114.4513069869
 20
236.5056410847
  0
VERTEX
  8
0
 62
7
  6
CONTINUOUS
 10
114.5167838339
 20
236.4632838909
  0
VERTEX
  8
0
 62
7
  6
CONTINUOUS
 10
114.547340054
 20
236.4180761013
  0
VERTEX
  8
0
 62
7
  6
CONTINUOUS
 10
114.5496958897
 20
236.4009819456
  0
SEQEND
  0
POLYLINE
  8
0
 62
7
  6
CONTINUOUS
 66
1
 70
0
  0
VERTEX
  8
0
 62
7
  6
CONTINUOUS
 10
113.0886408444
 20
219.3107221007
  0
VERTEX
  8
0
 62
7
  6
CONTINUOUS
 10
113.0894947796
 20
219.1887981191
  0
VERTEX
  8
0
 62
7
  6
CONTINUOUS
 10
113.0921325598
 20
219.0673858661
  0
VERTEX
  8
0
 62
7
  6
CONTINUOUS
 10
113.0966999538
 20
218.9490108738
  0
VERTEX
  8
0
 62
7
  6
CONTINUOUS
 10
113.1034246084
 20
218.8354617616
  0
VERTEX
  8
0
 62
7
  6
CONTINUOUS
 10
113.1125870882
 20
218.7287525582
  0
VERTEX
  8
0
 62
7
  6
CONTINUOUS
 10
113.1247733079
 20
218.6289684562
  0
VERTEX
  8
0
 62
7
  6
CONTINUOUS
 10
113.1406081001
 20
218.5381452282
  0
VERTEX
  8
0
 62
7
  6
CONTINUOUS
 10
113.1607146951
 20
218.459002321
  0
VERTEX
  8
0
 62
7
  6
CONTINUOUS
 10
113.1857627198
 20
218.3941438487
  0
VERTEX
  8
0
 62
7
  6
CONTINUOUS
 10
113.2158716982
 20
218.3468022368
  0
VERTEX
  8
0
 62
7
  6
CONTINUOUS
 10
113.2499378693
 20
218.3192738674
  0
VERTEX
  8
0
 62
7
  6
CONTINUOUS
 10
113.286211699
 20
218.3107221007
  0
SEQEND
  0
LINE
  8
0
 62
9
  6
CONTINUOUS
 10
111.6942188104
 20
224.2119271902
 11
111.6942188104
 21
229.7095170111
  0
LINE
  8
0
 62
9
  6
CONTINUOUS
 10
111.6942188104
 20
236.9119271902
 11
111.6942188104
 21
242.4095170111
  0
LINE
  8
0
 62
9
  6
CONTINUOUS
 10
112.3122161913
 20
224.7933294253
 11
112.3122161913
 21
229.128114776
  0
LINE
  8
0
 62
9
  6
CONTINUOUS
 10
112.3122161913
 20
237.4933294253
 11
112.3122161913
 21
241.828114776
  0
LINE
  8
DEFAULT_2
 62
8
  6
HIDDEN
 10
113.0425342039
 20
223.4607221007
 11
113.0425342039
 21
230.4607221007
  0
LINE
  8
DEFAULT_2
 62
8
  6
HIDDEN
 10
113.0425342039
 20
236.1607221007
 11
113.0425342039
 21
243.1607221007
  0
LINE
  8
DEFAULT_2
 62
8
  6
HIDDEN
 10
113.0755781207
 20
223.4607221007
 11
113.0755781207
 21
230.4607221007
  0
LINE
  8
DEFAULT_2
 62
8
  6
HIDDEN
 10
113.0755781207
 20
236.1607221007
 11
113.0755781207
 21
243.1607221007
  0
LINE
  8
0
 62
7
  6
CONTINUOUS
 10
113.0886408444
 20
219.3107221007
 11
113.0886408444
 21
223.4607221007
  0
LINE
  8
0
 62
7
  6
CONTINUOUS
 10
113.0886408444
 20
230.4607221007
 11
113.0886408444
 21
236.1607221007
  0
LINE
  8
0
 62
7
  6
CONTINUOUS
 10
113.0886408444
 20
243.1607221007
 11
113.0886408444
 21
247.3107221007
  0
LINE
  8
0
 62
9
  6
CONTINUOUS
 10
113.5867408043
 20
224.7933294253
 11
113.5867408043
 21
229.128114776
  0
LINE
  8
0
 62
9
  6
CONTINUOUS
 10
113.5867408043
 20
237.4933294253
 11
113.5867408043
 21
241.828114776
  0
POLYLINE
  8
0
 62
7
  6
CONTINUOUS
 66
1
 70
0
  0
VERTEX
  8
0
 62
7
  6
CONTINUOUS
 10
114.5496958897
 20
236.4009819456
  0
VERTEX
  8
0
 62
7
  6
CONTINUOUS
 10
114.5425313812
 20
236.3704606079
  0
VERTEX
  8
0
 62
7
  6
CONTINUOUS
 10
114.5022895121
 20
236.3209402605
  0
VERTEX
  8
0
 62
7
  6
CONTINUOUS
 10
114.426999027
 20
236.2700725161
  0
VERTEX
  8
0
 62
7
  6
CONTINUOUS
 10
114.3175037379
 20
236.2184456401
  0
SEQEND
  0
POLYLINE
  8
0
 62
7
  6
CONTINUOUS
 66
1
 70
0
  0
VERTEX
  8
0
 62
7
  6
CONTINUOUS
 10
114.0668264519
 20
229.7095170111
  0
VERTEX
  8
0
 62
7
  6
CONTINUOUS
 10
113.9761468214
 20
229.5830032885
  0
VERTEX
  8
0
 62
7
  6
CONTINUOUS
 10
113.8636338255
 20
229.4405044221
  0
VERTEX
  8
0
 62
7
  6
CONTINUOUS
 10
113.7324623064
 20
229.2871324909
  0
VERTEX
  8
0
 62
7
  6
CONTINUOUS
 10
113.5867408043
 20
229.128114776
  0
SEQEND
  0
POLYLINE
  8
0
 62
7
  6
CONTINUOUS
 66
1
 70
0
  0
VERTEX
  8
0
 62
7
  6
CONTINUOUS
 10
109.7091661446
 20
223.5184456401
  0
VERTEX
  8
0
 62
7
  6
CONTINUOUS
 10
109.6804978926
 20
223.5033060771
  0
VERTEX
  8
0
 62
7
  6
CONTINUOUS
 10
109.6513939549
 20
223.4881686551
  0
VERTEX
  8
0
 62
7
  6
CONTINUOUS
 10
109.6218550434
 20
223.4730337601
  0
SEQEND
  0
POLYLINE
  8
0
 62
7
  6
CONTINUOUS
 66
1
 70
0
  0
VERTEX
  8
0
 62
7
  6
CONTINUOUS
 10
109.7091661446
 20
223.5184456401
  0
VERTEX
  8
0
 62
7
  6
CONTINUOUS
 10
109.8232344223
 20
223.5700438919
  0
VERTEX
  8
0
 62
7
  6
CONTINUOUS
 10
109.9699004488
 20
223.620902615
  0
VERTEX
  8
0
 62
7
  6
CONTINUOUS
 10
110.1473349295
 20
223.6704282422
  0
VERTEX
  8
0
 62
7
  6
CONTINUOUS
 10
110.3533148998
 20
223.7180629033
  0
VERTEX
  8
0
 62
7
  6
CONTINUOUS
 10
110.585274822
 20
223.7632911158
  0
VERTEX
  8
0
 62
7
  6
CONTINUOUS
 10
110.840344219
 20
223.8056410847
  0
SEQEND
  0
POLYLINE
  8
0
 62
7
  6
CONTINUOUS
 66
1
 70
0
  0
VERTEX
  8
0
 62
7
  6
CONTINUOUS
 10
89.4112969188
 20
242.8158031166
  0
VERTEX
  8
0
 62
7
  6
CONTINUOUS
 10
89.2747039705
 20
242.787033345
  0
VERTEX
  8
0
 62
7
  6
CONTINUOUS
 10
89.1286693733
 20
242.7405469158
  0
VERTEX
  8
0
 62
7
  6
CONTINUOUS
 10
88.9788903613
 20
242.6774543283
  0
VERTEX
  8
0
 62
7
  6
CONTINUOUS
 10
88.8307676233
 20
242.5998522159
  0
VERTEX
  8
0
 62
7
  6
CONTINUOUS
 10
88.6882327401
 20
242.5094594648
  0
VERTEX
  8
0
 62
7
  6
CONTINUOUS
 10
88.5574223274
 20
242.4095170111
  0
SEQEND
  0
POLYLINE
  8
0
 62
7
  6
CONTINUOUS
 66
1
 70
0
  0
VERTEX
  8
0
 62
7
  6
CONTINUOUS
 10
89.4112969188
 20
242.8158031166
  0
VERTEX
  8
0
 62
7
  6
CONTINUOUS
 10
89.6664065071
 20
242.8581603104
  0
VERTEX
  8
0
 62
7
  6
CONTINUOUS
 10
89.8982639762
 20
242.9033681
  0
VERTEX
  8
0
 62
7
  6
CONTINUOUS
 10
90.1041784472
 20
242.9509835934
  0
VERTEX
  8
0
 62
7
  6
CONTINUOUS
 10
90.2816191156
 20
243.0005039408
  0
VERTEX
  8
0
 62
7
  6
CONTINUOUS
 10
90.4283338604
 20
243.0513716852
  0
VERTEX
  8
0
 62
7
  6
CONTINUOUS
 10
90.5424749932
 20
243.1029985612
  0
SEQEND
  0
POLYLINE
  8
0
 62
7
  6
CONTINUOUS
 66
1
 70
0
  0
VERTEX
  8
0
 62
7
  6
CONTINUOUS
 10
69.3847315454
 20
242.8158031166
  0
VERTEX
  8
0
 62
7
  6
CONTINUOUS
 10
69.7101052633
 20
242.8581603104
  0
VERTEX
  8
0
 62
7
  6
CONTINUOUS
 10
70.0347752948
 20
242.9033681
  0
VERTEX
  8
0
 62
7
  6
CONTINUOUS
 10
70.3550632401
 20
242.9509835934
  0
VERTEX
  8
0
 62
7
  6
CONTINUOUS
 10
70.6671599852
 20
243.0005039408
  0
VERTEX
  8
0
 62
7
  6
CONTINUOUS
 10
70.9672305002
 20
243.0513716852
  0
VERTEX
  8
0
 62
7
  6
CONTINUOUS
 10
71.2516001505
 20
243.1029985612
  0
SEQEND
  0
POLYLINE
  8
DEFAULT_2
 62
8
  6
HIDDEN
 66
1
 70
0
  0
VERTEX
  8
DEFAULT_2
 62
8
  6
HIDDEN
 10
122.1838913448
 20
242.8158031166
  0
VERTEX
  8
DEFAULT_2
 62
8
  6
HIDDEN
 10
121.8750226289
 20
242.8581603104
  0
VERTEX
  8
DEFAULT_2
 62
8
  6
HIDDEN
 10
121.5789005309
 20
242.9033681
  0
VERTEX
  8
DEFAULT_2
 62
8
  6
HIDDEN
 10
121.2989140733
 20
242.9509835934
  0
VERTEX
  8
DEFAULT_2
 62
8
  6
HIDDEN
 10
121.0384366562
 20
243.0005039408
  0
VERTEX
  8
DEFAULT_2
 62
8
  6
HIDDEN
 10
120.8007071849
 20
243.0513716852
  0
VERTEX
  8
DEFAULT_2
 62
8
  6
HIDDEN
 10
120.5886640262
 20
243.1029985612
  0
SEQEND
  0
POLYLINE
  8
DEFAULT_2
 62
8
  6
HIDDEN
 66
1
 70
0
  0
VERTEX
  8
DEFAULT_2
 62
8
  6
HIDDEN
 10
122.1838913448
 20
242.8158031166
  0
VERTEX
  8
DEFAULT_2
 62
8
  6
HIDDEN
 10
122.3434237222
 20
242.787033345
  0
VERTEX
  8
DEFAULT_2
 62
8
  6
HIDDEN
 10
122.5101071005
 20
242.7405469158
  0
VERTEX
  8
DEFAULT_2
 62
8
  6
HIDDEN
 10
122.6772945749
 20
242.6774543283
  0
VERTEX
  8
DEFAULT_2
 62
8
  6
HIDDEN
 10
122.8391893596
 20
242.5998522159
  0
VERTEX
  8
DEFAULT_2
 62
8
  6
HIDDEN
 10
122.9919697214
 20
242.5094594648
  0
VERTEX
  8
DEFAULT_2
 62
8
  6
HIDDEN
 10
123.1297356501
 20
242.4095170111
  0
SEQEND
  0
POLYLINE
  8
0
 62
7
  6
CONTINUOUS
 66
1
 70
0
  0
VERTEX
  8
0
 62
7
  6
CONTINUOUS
 10
109.6218550434
 20
243.1484104413
  0
VERTEX
  8
0
 62
7
  6
CONTINUOUS
 10
109.6056292519
 20
243.1552427128
  0
VERTEX
  8
0
 62
7
  6
CONTINUOUS
 10
109.5891746034
 20
243.1593517415
  0
VERTEX
  8
0
 62
7
  6
CONTINUOUS
 10
109.5725479312
 20
243.1607221007
  0
SEQEND
  0
POLYLINE
  8
0
 62
7
  6
CONTINUOUS
 66
1
 70
0
  0
VERTEX
  8
0
 62
7
  6
CONTINUOUS
 10
109.7091661446
 20
243.1029985612
  0
VERTEX
  8
0
 62
7
  6
CONTINUOUS
 10
109.8232344223
 20
243.0514003094
  0
VERTEX
  8
0
 62
7
  6
CONTINUOUS
 10
109.9699004488
 20
243.0005415863
  0
VERTEX
  8
0
 62
7
  6
CONTINUOUS
 10
110.1473349295
 20
242.9510159591
  0
VERTEX
  8
0
 62
7
  6
CONTINUOUS
 10
110.3533148998
 20
242.903381298
  0
VERTEX
  8
0
 62
7
  6
CONTINUOUS
 10
110.585274822
 20
242.8581530856
  0
VERTEX
  8
0
 62
7
  6
CONTINUOUS
 10
110.840344219
 20
242.8158031166
  0
SEQEND
  0
POLYLINE
  8
0
 62
7
  6
CONTINUOUS
 66
1
 70
0
  0
VERTEX
  8
0
 62
7
  6
CONTINUOUS
 10
109.7091661446
 20
243.1029985612
  0
VERTEX
  8
0
 62
7
  6
CONTINUOUS
 10
109.6804978926
 20
243.1181381242
  0
VERTEX
  8
0
 62
7
  6
CONTINUOUS
 10
109.6513939549
 20
243.1332755463
  0
VERTEX
  8
0
 62
7
  6
CONTINUOUS
 10
109.6218550434
 20
243.1484104413
  0
SEQEND
  0
POLYLINE
  8
DEFAULT_2
 62
8
  6
HIDDEN
 66
1
 70
0
  0
VERTEX
  8
DEFAULT_2
 62
8
  6
HIDDEN
 10
123.1297356501
 20
229.7095170111
  0
VERTEX
  8
DEFAULT_2
 62
8
  6
HIDDEN
 10
123.2783265496
 20
229.5830032885
  0
VERTEX
  8
DEFAULT_2
 62
8
  6
HIDDEN
 10
123.4285671819
 20
229.4405044221
  0
VERTEX
  8
DEFAULT_2
 62
8
  6
HIDDEN
 10
123.5733898804
 20
229.2871324909
  0
VERTEX
  8
DEFAULT_2
 62
8
  6
HIDDEN
 10
123.7069130313
 20
229.128114776
  0
SEQEND
  0
POLYLINE
  8
0
 62
7
  6
CONTINUOUS
 66
1
 70
0
  0
VERTEX
  8
0
 62
7
  6
CONTINUOUS
 10
113.5867408043
 20
237.4933294253
  0
VERTEX
  8
0
 62
7
  6
CONTINUOUS
 10
113.7323589314
 20
237.3344283595
  0
VERTEX
  8
0
 62
7
  6
CONTINUOUS
 10
113.8636289917
 20
237.1809456527
  0
VERTEX
  8
0
 62
7
  6
CONTINUOUS
 10
113.9762280444
 20
237.0383331651
  0
VERTEX
  8
0
 62
7
  6
CONTINUOUS
 10
114.0668264519
 20
236.9119271902
  0
SEQEND
  0
POLYLINE
  8
0
 62
7
  6
CONTINUOUS
 66
1
 70
0
  0
VERTEX
  8
0
 62
7
  6
CONTINUOUS
 10
114.0668264519
 20
236.9119271902
  0
VERTEX
  8
0
 62
7
  6
CONTINUOUS
 10
114.1393242844
 20
236.8117390065
  0
VERTEX
  8
0
 62
7
  6
CONTINUOUS
 10
114.2131052699
 20
236.7213689911
  0
VERTEX
  8
0
 62
7
  6
CONTINUOUS
 10
114.283857475
 20
236.6438373458
  0
VERTEX
  8
0
 62
7
  6
CONTINUOUS
 10
114.3488705209
 20
236.5807923938
  0
VERTEX
  8
0
 62
7
  6
CONTINUOUS
 10
114.4053155937
 20
236.5343733263
  0
VERTEX
  8
0
 62
7
  6
CONTINUOUS
 10
114.4513069869
 20
236.5056410847
  0
SEQEND
  0
POLYLINE
  8
0
 62
7
  6
CONTINUOUS
 66
1
 70
0
  0
VERTEX
  8
0
 62
7
  6
CONTINUOUS
 10
114.5496958897
 20
230.2204622557
  0
VERTEX
  8
0
 62
7
  6
CONTINUOUS
 10
114.5425313812
 20
230.2509835934
  0
VERTEX
  8
0
 62
7
  6
CONTINUOUS
 10
114.5022895121
 20
230.3005039408
  0
VERTEX
  8
0
 62
7
  6
CONTINUOUS
 10
114.426999027
 20
230.3513716852
  0
VERTEX
  8
0
 62
7
  6
CONTINUOUS
 10
114.3175037379
 20
230.4029985612
  0
SEQEND
  0
LINE
  8
0
 62
9
  6
CONTINUOUS
 10
114.0668264519
 20
224.2119271902
 11
114.0668264519
 21
229.7095170111
  0
LINE
  8
0
 62
9
  6
CONTINUOUS
 10
114.0668264519
 20
236.9119271902
 11
114.0668264519
 21
242.4095170111
  0
LINE
  8
DEFAULT_2
 62
8
  6
HIDDEN
 10
114.3175037379
 20
223.5184456401
 11
114.3175037379
 21
230.4029985612
  0
LINE
  8
DEFAULT_2
 62
8
  6
HIDDEN
 10
114.3175037379
 20
236.2184456401
 11
114.3175037379
 21
243.1029985612
  0
LINE
  8
0
 62
7
  6
CONTINUOUS
 10
114.5496958901
 20
223.700724335
 11
114.5496958901
 21
230.2207198663
  0
LINE
  8
0
 62
7
  6
CONTINUOUS
 10
114.5496958901
 20
236.400724335
 11
114.5496958901
 21
242.9207198663
  0
LINE
  8
DEFAULT_2
 62
8
  6
HIDDEN
 10
116.013618461
 20
219.3107221007
 11
116.013618461
 21
223.4607221007
  0
LINE
  8
DEFAULT_2
 62
8
  6
HIDDEN
 10
116.013618461
 20
230.4607221007
 11
116.013618461
 21
236.1607221007
  0
LINE
  8
DEFAULT_2
 62
8
  6
HIDDEN
 10
116.013618461
 20
243.1607221007
 11
116.013618461
 21
247.3107221007
  0
LINE
  8
0
 62
7
  6
CONTINUOUS
 10
116.3803593599
 20
218.3107221007
 11
116.3803593599
 21
248.3107221007
  0
POLYLINE
  8
0
 62
7
  6
CONTINUOUS
 66
1
 70
0
  0
VERTEX
  8
0
 62
7
  6
CONTINUOUS
 10
114.5496958897
 20
223.7009819456
  0
VERTEX
  8
0
 62
7
  6
CONTINUOUS
 10
114.5425313812
 20
223.6704606079
  0
VERTEX
  8
0
 62
7
  6
CONTINUOUS
 10
114.5022895121
 20
223.6209402605
  0
VERTEX
  8
0
 62
7
  6
CONTINUOUS
 10
114.426999027
 20
223.5700725161
  0
VERTEX
  8
0
 62
7
  6
CONTINUOUS
 10
114.3175037379
 20
223.5184456401
  0
SEQEND
  0
POLYLINE
  8
DEFAULT_2
 62
8
  6
HIDDEN
 66
1
 70
0
  0
VERTEX
  8
DEFAULT_2
 62
8
  6
HIDDEN
 10
124.7459150154
 20
241.828114776
  0
VERTEX
  8
DEFAULT_2
 62
8
  6
HIDDEN
 10
124.8588670025
 20
241.9870959114
  0
VERTEX
  8
DEFAULT_2
 62
8
  6
HIDDEN
 10
124.9508423906
 20
242.1404741534
  0
VERTEX
  8
DEFAULT_2
 62
8
  6
HIDDEN
 10
125.0194666712
 20
242.2829972821
  0
VERTEX
  8
DEFAULT_2
 62
8
  6
HIDDEN
 10
125.0639031207
 20
242.4095170111
  0
SEQEND
  0
POLYLINE
  8
DEFAULT_2
 62
8
  6
HIDDEN
 66
1
 70
0
  0
VERTEX
  8
DEFAULT_2
 62
8
  6
HIDDEN
 10
123.7069130313
 20
237.4933294253
  0
VERTEX
  8
DEFAULT_2
 62
8
  6
HIDDEN
 10
123.5734938962
 20
237.3344283595
  0
VERTEX
  8
DEFAULT_2
 62
8
  6
HIDDEN
 10
123.4285730474
 20
237.1809456527
  0
VERTEX
  8
DEFAULT_2
 62
8
  6
HIDDEN
 10
123.2782065649
 20
237.0383331651
  0
VERTEX
  8
DEFAULT_2
 62
8
  6
HIDDEN
 10
123.1297356501
 20
236.9119271902
  0
SEQEND
  0
POLYLINE
  8
0
 62
7
  6
CONTINUOUS
 66
1
 70
0
  0
VERTEX
  8
0
 62
7
  6
CONTINUOUS
 10
111.6942188104
 20
224.2119271902
  0
VERTEX
  8
0
 62
7
  6
CONTINUOUS
 10
111.8402050227
 20
224.3383393519
  0
VERTEX
  8
0
 62
7
  6
CONTINUOUS
 10
111.9963072759
 20
224.4809777996
  0
VERTEX
  8
0
 62
7
  6
CONTINUOUS
 10
112.1557174319
 20
224.6344655616
  0
VERTEX
  8
0
 62
7
  6
CONTINUOUS
 10
112.3122161913
 20
224.7933294253
  0
SEQEND
  0
POLYLINE
  8
0
 62
7
  6
CONTINUOUS
 66
1
 70
0
  0
VERTEX
  8
0
 62
7
  6
CONTINUOUS
 10
114.2087496381
 20
223.4730337601
  0
VERTEX
  8
0
 62
7
  6
CONTINUOUS
 10
114.2808293195
 20
223.5033060706
  0
VERTEX
  8
0
 62
7
  6
CONTINUOUS
 10
114.3175037379
 20
223.5184456401
  0
SEQEND
  0
POLYLINE
  8
0
 62
7
  6
CONTINUOUS
 66
1
 70
0
  0
VERTEX
  8
0
 62
7
  6
CONTINUOUS
 10
114.2087496381
 20
223.4730337601
  0
VERTEX
  8
0
 62
7
  6
CONTINUOUS
 10
114.189470417
 20
223.4662022226
  0
VERTEX
  8
0
 62
7
  6
CONTINUOUS
 10
114.1701938776
 20
223.4620924316
  0
VERTEX
  8
0
 62
7
  6
CONTINUOUS
 10
114.1509985577
 20
223.4607221007
  0
SEQEND
  0
LINE
  8
DEFAULT_2
 62
8
  6
HIDDEN
 10
79.6629771117
 20
243.1029985612
 11
79.8384778879
 21
243.1484104413
  0
POLYLINE
  8
DEFAULT_2
 62
8
  6
HIDDEN
 66
1
 70
0
  0
VERTEX
  8
DEFAULT_2
 62
8
  6
HIDDEN
 10
79.6629771117
 20
243.1029985612
  0
VERTEX
  8
DEFAULT_2
 62
8
  6
HIDDEN
 10
79.4510595713
 20
243.0514003094
  0
VERTEX
  8
DEFAULT_2
 62
8
  6
HIDDEN
 10
79.2133913318
 20
243.0005415863
  0
VERTEX
  8
DEFAULT_2
 62
8
  6
HIDDEN
 10
78.9529071819
 20
242.9510159591
  0
VERTEX
  8
DEFAULT_2
 62
8
  6
HIDDEN
 10
78.6728225413
 20
242.903381298
  0
VERTEX
  8
DEFAULT_2
 62
8
  6
HIDDEN
 10
78.3765685779
 20
242.8581530856
  0
VERTEX
  8
DEFAULT_2
 62
8
  6
HIDDEN
 10
78.0677497931
 20
242.8158031166
  0
SEQEND
  0
LINE
  8
DEFAULT_2
 62
8
  6
HIDDEN
 10
76.0992071544
 20
243.1484104413
 11
75.9062258856
 21
243.1029985612
  0
POLYLINE
  8
DEFAULT_2
 62
8
  6
HIDDEN
 66
1
 70
0
  0
VERTEX
  8
DEFAULT_2
 62
8
  6
HIDDEN
 10
79.8384778879
 20
243.1484104413
  0
VERTEX
  8
DEFAULT_2
 62
8
  6
HIDDEN
 10
79.8705984732
 20
243.1552427128
  0
VERTEX
  8
DEFAULT_2
 62
8
  6
HIDDEN
 10
79.9030231119
 20
243.1593517415
  0
VERTEX
  8
DEFAULT_2
 62
8
  6
HIDDEN
 10
79.9356378885
 20
243.1607221007
  0
SEQEND
  0
LINE
  8
0
 62
7
  6
CONTINUOUS
 10
71.494122618
 20
243.1484104413
 11
71.2516001505
 21
243.1029985612
  0
POLYLINE
  8
0
 62
7
  6
CONTINUOUS
 66
1
 70
0
  0
VERTEX
  8
0
 62
7
  6
CONTINUOUS
 10
68.7995549331
 20
243.1029985612
  0
VERTEX
  8
0
 62
7
  6
CONTINUOUS
 10
68.5178092102
 20
243.0514003094
  0
VERTEX
  8
0
 62
7
  6
CONTINUOUS
 10
68.2557787812
 20
243.0005415863
  0
VERTEX
  8
0
 62
7
  6
CONTINUOUS
 10
68.0166467894
 20
242.9510159591
  0
VERTEX
  8
0
 62
7
  6
CONTINUOUS
 10
67.8032708953
 20
242.903381298
  0
VERTEX
  8
0
 62
7
  6
CONTINUOUS
 10
67.618143582
 20
242.8581530856
  0
VERTEX
  8
0
 62
7
  6
CONTINUOUS
 10
67.463378388
 20
242.8158031166
  0
SEQEND
  0
LINE
  8
0
 62
7
  6
CONTINUOUS
 10
68.7995549331
 20
243.1029985612
 11
69.0534869819
 21
243.1484104413
  0
POLYLINE
  8
0
 62
7
  6
CONTINUOUS
 66
1
 70
0
  0
VERTEX
  8
0
 62
7
  6
CONTINUOUS
 10
69.3847315454
 20
242.8158031166
  0
VERTEX
  8
0
 62
7
  6
CONTINUOUS
 10
69.2215016979
 20
242.787033345
  0
VERTEX
  8
0
 62
7
  6
CONTINUOUS
 10
69.054274014
 20
242.7405469158
  0
VERTEX
  8
0
 62
7
  6
CONTINUOUS
 10
68.8898433541
 20
242.6774543283
  0
VERTEX
  8
0
 62
7
  6
CONTINUOUS
 10
68.733703423
 20
242.5998522159
  0
VERTEX
  8
0
 62
7
  6
CONTINUOUS
 10
68.5891051491
 20
242.5094594648
  0
VERTEX
  8
0
 62
7
  6
CONTINUOUS
 10
68.4610003085
 20
242.4095170111
  0
SEQEND
  0
POLYLINE
  8
0
 62
7
  6
CONTINUOUS
 66
1
 70
0
  0
VERTEX
  8
0
 62
7
  6
CONTINUOUS
 10
63.7422633752
 20
242.8158031166
  0
VERTEX
  8
0
 62
7
  6
CONTINUOUS
 10
63.9856552441
 20
242.8581603104
  0
VERTEX
  8
0
 62
7
  6
CONTINUOUS
 10
64.2512211219
 20
242.9033681
  0
VERTEX
  8
0
 62
7
  6
CONTINUOUS
 10
64.5360162523
 20
242.9509835934
  0
SEQEND
  0
LINE
  8
0
 62
7
  6
CONTINUOUS
 10
64.5360162523
 20
242.9509835934
 11
65.1497554949
 21
243.0513716852
  0
POLYLINE
  8
DEFAULT_2
 62
8
  6
HIDDEN
 66
1
 70
0
  0
VERTEX
  8
DEFAULT_2
 62
8
  6
HIDDEN
 10
66.6031726799
 20
243.1484104413
  0
VERTEX
  8
DEFAULT_2
 62
8
  6
HIDDEN
 10
66.0006644987
 20
243.0514003094
  0
VERTEX
  8
DEFAULT_2
 62
8
  6
HIDDEN
 10
65.6745093565
 20
243.0005415863
  0
VERTEX
  8
DEFAULT_2
 62
8
  6
HIDDEN
 10
65.3484080799
 20
242.9510159591
  0
VERTEX
  8
DEFAULT_2
 62
8
  6
HIDDEN
 10
65.0263245904
 20
242.903381298
  0
VERTEX
  8
DEFAULT_2
 62
8
  6
HIDDEN
 10
64.7121252766
 20
242.8581530856
  0
VERTEX
  8
DEFAULT_2
 62
8
  6
HIDDEN
 10
64.409542324
 20
242.8158031166
  0
SEQEND
  0
LINE
  8
0
 62
7
  6
CONTINUOUS
 10
65.7555488188
 20
243.1484104413
 11
65.1497554949
 21
243.0513716852
  0
POLYLINE
  8
0
 62
7
  6
CONTINUOUS
 66
1
 70
0
  0
VERTEX
  8
0
 62
7
  6
CONTINUOUS
 10
69.0534869819
 20
243.1484104413
  0
VERTEX
  8
0
 62
7
  6
CONTINUOUS
 10
69.0992542164
 20
243.1552427128
  0
VERTEX
  8
0
 62
7
  6
CONTINUOUS
 10
69.1452379704
 20
243.1593517415
  0
VERTEX
  8
0
 62
7
  6
CONTINUOUS
 10
69.1912738826
 20
243.1607221007
  0
SEQEND
  0
POLYLINE
  8
DEFAULT_2
 62
8
  6
HIDDEN
 66
1
 70
0
  0
VERTEX
  8
DEFAULT_2
 62
8
  6
HIDDEN
 10
66.6031726799
 20
243.1484104413
  0
VERTEX
  8
DEFAULT_2
 62
8
  6
HIDDEN
 10
66.6540103438
 20
243.1552427128
  0
VERTEX
  8
DEFAULT_2
 62
8
  6
HIDDEN
 10
66.7051877874
 20
243.1593517415
  0
VERTEX
  8
DEFAULT_2
 62
8
  6
HIDDEN
 10
66.7565233787
 20
243.1607221007
  0
SEQEND
  0
POLYLINE
  8
0
 62
7
  6
CONTINUOUS
 66
1
 70
0
  0
VERTEX
  8
0
 62
7
  6
CONTINUOUS
 10
94.3939830066
 20
248.3107221007
  0
VERTEX
  8
0
 62
7
  6
CONTINUOUS
 10
94.2399339105
 20
248.2995616411
  0
VERTEX
  8
0
 62
7
  6
CONTINUOUS
 10
94.0987435284
 20
248.2676597447
  0
VERTEX
  8
0
 62
7
  6
CONTINUOUS
 10
93.9721193273
 20
248.2177648475
  0
VERTEX
  8
0
 62
7
  6
CONTINUOUS
 10
93.8601276077
 20
248.1524198792
  0
VERTEX
  8
0
 62
7
  6
CONTINUOUS
 10
93.7611691119
 20
248.0726492388
  0
VERTEX
  8
0
 62
7
  6
CONTINUOUS
 10
93.6762543434
 20
247.9809822731
  0
VERTEX
  8
0
 62
7
  6
CONTINUOUS
 10
93.6059945346
 20
247.8805745529
  0
VERTEX
  8
0
 62
7
  6
CONTINUOUS
 10
93.5500628332
 20
247.7742194912
  0
VERTEX
  8
0
 62
7
  6
CONTINUOUS
 10
93.5071646403
 20
247.6625985012
  0
VERTEX
  8
0
 62
7
  6
CONTINUOUS
 10
93.4769543253
 20
247.5476185481
  0
VERTEX
  8
0
 62
7
  6
CONTINUOUS
 10
93.4588902403
 20
247.4298405882
  0
VERTEX
  8
0
 62
7
  6
CONTINUOUS
 10
93.452882389
 20
247.3107221007
  0
SEQEND
  0
POLYLINE
  8
0
 62
7
  6
CONTINUOUS
 66
1
 70
0
  0
VERTEX
  8
0
 62
7
  6
CONTINUOUS
 10
78.1837448118
 20
248.3107221007
  0
VERTEX
  8
0
 62
7
  6
CONTINUOUS
 10
77.9888566318
 20
248.2995616411
  0
VERTEX
  8
0
 62
7
  6
CONTINUOUS
 10
77.8074283226
 20
248.2676597447
  0
VERTEX
  8
0
 62
7
  6
CONTINUOUS
 10
77.6423302493
 20
248.2177648475
  0
VERTEX
  8
0
 62
7
  6
CONTINUOUS
 10
77.4943493502
 20
248.1524198792
  0
VERTEX
  8
0
 62
7
  6
CONTINUOUS
 10
77.3619972336
 20
248.0726492388
  0
VERTEX
  8
0
 62
7
  6
CONTINUOUS
 10
77.2471936554
 20
247.9809822731
  0
VERTEX
  8
0
 62
7
  6
CONTINUOUS
 10
77.1513138997
 20
247.8805745529
  0
VERTEX
  8
0
 62
7
  6
CONTINUOUS
 10
77.074395323
 20
247.7742194912
  0
VERTEX
  8
0
 62
7
  6
CONTINUOUS
 10
77.0150373776
 20
247.6625985012
  0
VERTEX
  8
0
 62
7
  6
CONTINUOUS
 10
76.9730429715
 20
247.5476185481
  0
VERTEX
  8
0
 62
7
  6
CONTINUOUS
 10
76.9478556647
 20
247.4298405882
  0
VERTEX
  8
0
 62
7
  6
CONTINUOUS
 10
76.9394658694
 20
247.3107221007
  0
SEQEND
  0
LINE
  8
0
 62
9
  6
CONTINUOUS
 10
126.6589516272
 20
247.3107221007
 11
123.3121752684
 21
247.3107221007
  0
LINE
  8
0
 62
9
  6
CONTINUOUS
 10
113.0886408444
 20
247.3107221007
 11
106.7987587489
 21
247.3107221007
  0
LINE
  8
DEFAULT_2
 62
8
  6
HIDDEN
 10
103.4725969277
 20
247.3107221007
 11
96.7790442102
 21
247.3107221007
  0
LINE
  8
DEFAULT_2
 62
8
  6
HIDDEN
 10
84.2380226769
 20
247.3107221007
 11
79.1104638129
 21
247.3107221007
  0
LINE
  8
DEFAULT_2
 62
8
  6
HIDDEN
 10
72.4375256329
 20
247.3107221007
 11
71.2752024014
 21
247.3107221007
  0
LINE
  8
0
 62
9
  6
CONTINUOUS
 10
73.5926895107
 20
247.3107221007
 11
76.9394658694
 21
247.3107221007
  0
LINE
  8
0
 62
9
  6
CONTINUOUS
 10
87.1630002935
 20
247.3107221007
 11
93.452882389
 21
247.3107221007
  0
LINE
  8
DEFAULT_2
 62
8
  6
HIDDEN
 10
116.013618461
 20
247.3107221007
 11
121.141177325
 21
247.3107221007
  0
LINE
  8
DEFAULT_2
 62
8
  6
HIDDEN
 10
127.8141155049
 20
247.3107221007
 11
128.9764387364
 21
247.3107221007
  0
LINE
  8
CURVE
 62
8
  6
PHANTOM
 10
77.8339377012
 20
248.3107221007
 11
122.4177034367
 21
248.3107221007
  0
LINE
  8
0
 62
7
  6
CONTINUOUS
 10
72.2404477228
 20
248.3107221007
 11
128.011193415
 21
248.3107221007
  0
POLYLINE
  8
DEFAULT_2
 62
8
  6
HIDDEN
 66
1
 70
0
  0
VERTEX
  8
DEFAULT_2
 62
8
  6
HIDDEN
 10
114.8508024005
 20
248.3107221007
  0
VERTEX
  8
DEFAULT_2
 62
8
  6
HIDDEN
 10
115.0361424498
 20
248.2996014819
  0
VERTEX
  8
DEFAULT_2
 62
8
  6
HIDDEN
 10
115.2074426457
 20
248.2678332205
  0
VERTEX
  8
DEFAULT_2
 62
8
  6
HIDDEN
 10
115.3629782802
 20
248.2179124536
  0
VERTEX
  8
DEFAULT_2
 62
8
  6
HIDDEN
 10
115.5023351925
 20
248.1520551021
  0
VERTEX
  8
DEFAULT_2
 62
8
  6
HIDDEN
 10
115.625615643
 20
248.0720053778
  0
VERTEX
  8
DEFAULT_2
 62
8
  6
HIDDEN
 10
115.7315286967
 20
247.9804837761
  0
VERTEX
  8
DEFAULT_2
 62
8
  6
HIDDEN
 10
115.8194900279
 20
247.8804924659
  0
VERTEX
  8
DEFAULT_2
 62
8
  6
HIDDEN
 10
115.8899691157
 20
247.7744751344
  0
VERTEX
  8
DEFAULT_2
 62
8
  6
HIDDEN
 10
115.9444098002
 20
247.6628800278
  0
VERTEX
  8
DEFAULT_2
 62
8
  6
HIDDEN
 10
115.9829169031
 20
247.5477216205
  0
VERTEX
  8
DEFAULT_2
 62
8
  6
HIDDEN
 10
116.0059673612
 20
247.4297652429
  0
VERTEX
  8
DEFAULT_2
 62
8
  6
HIDDEN
 10
116.013618461
 20
247.3107221007
  0
SEQEND
  0
POLYLINE
  8
DEFAULT_2
 62
8
  6
HIDDEN
 66
1
 70
0
  0
VERTEX
  8
DEFAULT_2
 62
8
  6
HIDDEN
 10
96.1731697747
 20
248.3107221007
  0
VERTEX
  8
DEFAULT_2
 62
8
  6
HIDDEN
 10
96.2770217257
 20
248.2995616411
  0
VERTEX
  8
DEFAULT_2
 62
8
  6
HIDDEN
 10
96.370711026
 20
248.2676597447
  0
VERTEX
  8
DEFAULT_2
 62
8
  6
HIDDEN
 10
96.4534645007
 20
248.2177648475
  0
VERTEX
  8
DEFAULT_2
 62
8
  6
HIDDEN
 10
96.5256115445
 20
248.1524198792
  0
VERTEX
  8
DEFAULT_2
 62
8
  6
HIDDEN
 10
96.588514875
 20
248.0726492388
  0
VERTEX
  8
DEFAULT_2
 62
8
  6
HIDDEN
 10
96.641834525
 20
247.9809822731
  0
VERTEX
  8
DEFAULT_2
 62
8
  6
HIDDEN
 10
96.685478757
 20
247.8805745529
  0
VERTEX
  8
DEFAULT_2
 62
8
  6
HIDDEN
 10
96.7199078145
 20
247.7742194912
  0
VERTEX
  8
DEFAULT_2
 62
8
  6
HIDDEN
 10
96.7461206905
 20
247.6625985012
  0
VERTEX
  8
DEFAULT_2
 62
8
  6
HIDDEN
 10
96.7644781809
 20
247.5476185481
  0
VERTEX
  8
DEFAULT_2
 62
8
  6
HIDDEN
 10
96.7754139708
 20
247.4298405882
  0
VERTEX
  8
DEFAULT_2
 62
8
  6
HIDDEN
 10
96.7790442102
 20
247.3107221007
  0
SEQEND
  0
POLYLINE
  8
0
 62
7
  6
CONTINUOUS
 66
1
 70
0
  0
VERTEX
  8
0
 62
7
  6
CONTINUOUS
 10
134.4960923191
 20
243.1484104413
  0
VERTEX
  8
0
 62
7
  6
CONTINUOUS
 10
134.4446899263
 20
243.1552427128
  0
VERTEX
  8
0
 62
7
  6
CONTINUOUS
 10
134.3929915329
 20
243.1593517415
  0
VERTEX
  8
0
 62
7
  6
CONTINUOUS
 10
134.341181238
 20
243.1607221007
  0
SEQEND
  0
POLYLINE
  8
DEFAULT_2
 62
8
  6
HIDDEN
 66
1
 70
0
  0
VERTEX
  8
DEFAULT_2
 62
8
  6
HIDDEN
 10
135.8420988138
 20
242.8158031166
  0
VERTEX
  8
DEFAULT_2
 62
8
  6
HIDDEN
 10
135.5394649662
 20
242.8581603104
  0
VERTEX
  8
DEFAULT_2
 62
8
  6
HIDDEN
 10
135.2254069986
 20
242.9033681
  0
VERTEX
  8
DEFAULT_2
 62
8
  6
HIDDEN
 10
134.9034490187
 20
242.9509835934
  0
VERTEX
  8
DEFAULT_2
 62
8
  6
HIDDEN
 10
134.5773764192
 20
243.0005039408
  0
VERTEX
  8
DEFAULT_2
 62
8
  6
HIDDEN
 10
134.2511577931
 20
243.0513716852
  0
SEQEND
  0
POLYLINE
  8
0
 62
7
  6
CONTINUOUS
 66
1
 70
0
  0
VERTEX
  8
0
 62
7
  6
CONTINUOUS
 10
128.7575185198
 20
243.1484104413
  0
VERTEX
  8
0
 62
7
  6
CONTINUOUS
 10
128.7133773574
 20
243.1552427128
  0
VERTEX
  8
0
 62
7
  6
CONTINUOUS
 10
128.6688936186
 20
243.1593517415
  0
VERTEX
  8
0
 62
7
  6
CONTINUOUS
 10
128.6242245608
 20
243.1607221007
  0
SEQEND
  0
LINE
  8
0
 62
7
  6
CONTINUOUS
 10
134.4960923191
 20
243.1484104413
 11
135.1017084151
 21
243.0514003094
  0
LINE
  8
DEFAULT_2
 62
8
  6
HIDDEN
 10
133.648468458
 20
243.1484104413
 11
134.2511577931
 21
243.0513716852
  0
POLYLINE
  8
0
 62
7
  6
CONTINUOUS
 66
1
 70
0
  0
VERTEX
  8
0
 62
7
  6
CONTINUOUS
 10
135.1017084151
 20
243.0514003094
  0
VERTEX
  8
0
 62
7
  6
CONTINUOUS
 10
135.7154297609
 20
242.9510159591
  0
VERTEX
  8
0
 62
7
  6
CONTINUOUS
 10
136.0003417479
 20
242.903381298
  0
VERTEX
  8
0
 62
7
  6
CONTINUOUS
 10
136.2660278968
 20
242.8581530856
  0
VERTEX
  8
0
 62
7
  6
CONTINUOUS
 10
136.5093777627
 20
242.8158031166
  0
SEQEND
  0
LINE
  8
0
 62
7
  6
CONTINUOUS
 10
131.198154156
 20
243.1484104413
 11
131.4520862048
 21
243.1029985612
  0
POLYLINE
  8
0
 62
7
  6
CONTINUOUS
 66
1
 70
0
  0
VERTEX
  8
0
 62
7
  6
CONTINUOUS
 10
129.0000409874
 20
243.1029985612
  0
VERTEX
  8
0
 62
7
  6
CONTINUOUS
 10
129.2842474075
 20
243.0514003094
  0
VERTEX
  8
0
 62
7
  6
CONTINUOUS
 10
129.5842515627
 20
243.0005415863
  0
VERTEX
  8
0
 62
7
  6
CONTINUOUS
 10
129.896367149
 20
242.9510159591
  0
VERTEX
  8
0
 62
7
  6
CONTINUOUS
 10
130.2167741186
 20
242.903381298
  0
VERTEX
  8
0
 62
7
  6
CONTINUOUS
 10
130.541589523
 20
242.8581530856
  0
VERTEX
  8
0
 62
7
  6
CONTINUOUS
 10
130.8669095925
 20
242.8158031166
  0
SEQEND
  0
LINE
  8
0
 62
7
  6
CONTINUOUS
 10
129.0000409874
 20
243.1029985612
 11
128.7575185198
 21
243.1484104413
  0
POLYLINE
  8
DEFAULT_2
 62
8
  6
HIDDEN
 66
1
 70
0
  0
VERTEX
  8
DEFAULT_2
 62
8
  6
HIDDEN
 10
135.8420988138
 20
242.8158031166
  0
VERTEX
  8
DEFAULT_2
 62
8
  6
HIDDEN
 10
135.9893382026
 20
242.787033345
  0
VERTEX
  8
DEFAULT_2
 62
8
  6
HIDDEN
 10
136.1369400655
 20
242.7405469158
  0
VERTEX
  8
DEFAULT_2
 62
8
  6
HIDDEN
 10
136.2787811466
 20
242.6774543283
  0
VERTEX
  8
DEFAULT_2
 62
8
  6
HIDDEN
 10
136.4103334441
 20
242.5998522159
  0
VERTEX
  8
DEFAULT_2
 62
8
  6
HIDDEN
 10
136.5293089442
 20
242.5094594648
  0
VERTEX
  8
DEFAULT_2
 62
8
  6
HIDDEN
 10
136.6323013622
 20
242.4095170111
  0
SEQEND
  0
POLYLINE
  8
DEFAULT_2
 62
8
  6
HIDDEN
 66
1
 70
0
  0
VERTEX
  8
DEFAULT_2
 62
8
  6
HIDDEN
 10
124.1524339835
 20
243.1484104413
  0
VERTEX
  8
DEFAULT_2
 62
8
  6
HIDDEN
 10
124.1178221111
 20
243.1552427128
  0
VERTEX
  8
DEFAULT_2
 62
8
  6
HIDDEN
 10
124.083099316
 20
243.1593517415
  0
VERTEX
  8
DEFAULT_2
 62
8
  6
HIDDEN
 10
124.0483903969
 20
243.1607221007
  0
SEQEND
  0
LINE
  8
DEFAULT_2
 62
8
  6
HIDDEN
 10
124.3454152523
 20
243.1029985612
 11
124.1524339835
 21
243.1484104413
  0
POLYLINE
  8
DEFAULT_2
 62
8
  6
HIDDEN
 66
1
 70
0
  0
VERTEX
  8
DEFAULT_2
 62
8
  6
HIDDEN
 10
124.3454152523
 20
243.1029985612
  0
VERTEX
  8
DEFAULT_2
 62
8
  6
HIDDEN
 10
124.5535627858
 20
243.0514003094
  0
VERTEX
  8
DEFAULT_2
 62
8
  6
HIDDEN
 10
124.7330519014
 20
243.0005415863
  0
VERTEX
  8
DEFAULT_2
 62
8
  6
HIDDEN
 10
124.8817186974
 20
242.9510159591
  0
VERTEX
  8
DEFAULT_2
 62
8
  6
HIDDEN
 10
124.9978222166
 20
242.903381298
  0
VERTEX
  8
DEFAULT_2
 62
8
  6
HIDDEN
 10
125.0800616082
 20
242.8581530856
  0
VERTEX
  8
DEFAULT_2
 62
8
  6
HIDDEN
 10
125.1275751637
 20
242.8158031166
  0
SEQEND
  0
LINE
  8
DEFAULT_2
 62
8
  6
HIDDEN
 10
120.4131632499
 20
243.1484104413
 11
120.5886640262
 21
243.1029985612
  0
POLYLINE
  8
0
 62
7
  6
CONTINUOUS
 66
1
 70
0
  0
VERTEX
  8
0
 62
7
  6
CONTINUOUS
 10
114.2087496381
 20
243.1484104413
  0
VERTEX
  8
0
 62
7
  6
CONTINUOUS
 10
114.244577679
 20
243.1332755455
  0
VERTEX
  8
0
 62
7
  6
CONTINUOUS
 10
114.3175037379
 20
243.1029985612
  0
SEQEND
  0
POLYLINE
  8
0
 62
7
  6
CONTINUOUS
 66
1
 70
0
  0
VERTEX
  8
0
 62
7
  6
CONTINUOUS
 10
111.6942188104
 20
242.4095170111
  0
VERTEX
  8
0
 62
7
  6
CONTINUOUS
 10
111.5631949765
 20
242.5096078786
  0
VERTEX
  8
0
 62
7
  6
CONTINUOUS
 10
111.4205940232
 20
242.6000135215
  0
VERTEX
  8
0
 62
7
  6
CONTINUOUS
 10
111.2725082416
 20
242.6775688328
  0
VERTEX
  8
0
 62
7
  6
CONTINUOUS
 10
111.1228171098
 20
242.7406041415
  0
VERTEX
  8
0
 62
7
  6
CONTINUOUS
 10
110.9768793997
 20
242.7870486478
  0
VERTEX
  8
0
 62
7
  6
CONTINUOUS
 10
110.840344219
 20
242.8158031166
  0
SEQEND
  0
POLYLINE
  8
0
 62
7
  6
CONTINUOUS
 66
1
 70
0
  0
VERTEX
  8
0
 62
7
  6
CONTINUOUS
 10
112.3122161913
 20
241.828114776
  0
VERTEX
  8
0
 62
7
  6
CONTINUOUS
 10
112.155598774
 20
241.9870959114
  0
VERTEX
  8
0
 62
7
  6
CONTINUOUS
 10
111.9962990107
 20
242.1404741534
  0
VERTEX
  8
0
 62
7
  6
CONTINUOUS
 10
111.8403259529
 20
242.2829972821
  0
VERTEX
  8
0
 62
7
  6
CONTINUOUS
 10
111.6942188104
 20
242.4095170111
  0
SEQEND
  0
POLYLINE
  8
0
 62
7
  6
CONTINUOUS
 66
1
 70
0
  0
VERTEX
  8
0
 62
7
  6
CONTINUOUS
 10
114.5496958897
 20
242.9204622557
  0
VERTEX
  8
0
 62
7
  6
CONTINUOUS
 10
114.5425313812
 20
242.9509835934
  0
VERTEX
  8
0
 62
7
  6
CONTINUOUS
 10
114.5022895121
 20
243.0005039408
  0
VERTEX
  8
0
 62
7
  6
CONTINUOUS
 10
114.426999027
 20
243.0513716852
  0
VERTEX
  8
0
 62
7
  6
CONTINUOUS
 10
114.3175037379
 20
243.1029985612
  0
SEQEND
  0
LINE
  8
DEFAULT_2
 62
8
  6
HIDDEN
 10
117.5465585484
 20
223.4607221007
 11
117.5465585484
 21
230.4607221007
  0
LINE
  8
DEFAULT_2
 62
8
  6
HIDDEN
 10
117.5465585484
 20
236.1607221007
 11
117.5465585484
 21
243.1607221007
  0
POLYLINE
  8
DEFAULT_2
 62
8
  6
HIDDEN
 66
1
 70
0
  0
VERTEX
  8
DEFAULT_2
 62
8
  6
HIDDEN
 10
116.013618461
 20
219.3107221007
  0
VERTEX
  8
DEFAULT_2
 62
8
  6
HIDDEN
 10
116.0055985749
 20
219.1888557271
  0
VERTEX
  8
DEFAULT_2
 62
8
  6
HIDDEN
 10
115.9812606931
 20
219.0675220726
  0
VERTEX
  8
DEFAULT_2
 62
8
  6
HIDDEN
 10
115.9405330299
 20
218.9492159342
  0
VERTEX
  8
DEFAULT_2
 62
8
  6
HIDDEN
 10
115.8834170889
 20
218.8357008129
  0
VERTEX
  8
DEFAULT_2
 62
8
  6
HIDDEN
 10
115.8101821444
 20
218.7289834819
  0
VERTEX
  8
DEFAULT_2
 62
8
  6
HIDDEN
 10
115.7194390769
 20
218.6291598106
  0
VERTEX
  8
DEFAULT_2
 62
8
  6
HIDDEN
 10
115.6104949676
 20
218.5382816177
  0
VERTEX
  8
DEFAULT_2
 62
8
  6
HIDDEN
 10
115.4834303161
 20
218.4590842863
  0
VERTEX
  8
DEFAULT_2
 62
8
  6
HIDDEN
 10
115.3385262735
 20
218.3941796073
  0
VERTEX
  8
DEFAULT_2
 62
8
  6
HIDDEN
 10
115.1791982391
 20
218.3468144254
  0
VERTEX
  8
DEFAULT_2
 62
8
  6
HIDDEN
 10
115.0137232238
 20
218.319276253
  0
VERTEX
  8
DEFAULT_2
 62
8
  6
HIDDEN
 10
114.8508022849
 20
218.3107221007
  0
SEQEND
  0
POLYLINE
  8
0
 62
7
  6
CONTINUOUS
 66
1
 70
0
  0
VERTEX
  8
0
 62
7
  6
CONTINUOUS
 10
63.7422633752
 20
242.8158031166
  0
VERTEX
  8
0
 62
7
  6
CONTINUOUS
 10
63.6287736883
 20
242.787033345
  0
VERTEX
  8
0
 62
7
  6
CONTINUOUS
 10
63.5186006095
 20
242.7405469158
  0
VERTEX
  8
0
 62
7
  6
CONTINUOUS
 10
63.416457235
 20
242.6774543283
  0
VERTEX
  8
0
 62
7
  6
CONTINUOUS
 10
63.3253597197
 20
242.5998522159
  0
VERTEX
  8
0
 62
7
  6
CONTINUOUS
 10
63.2463571945
 20
242.5094594648
  0
VERTEX
  8
0
 62
7
  6
CONTINUOUS
 10
63.1808996047
 20
242.4095170111
  0
SEQEND
  0
POLYLINE
  8
0
 62
7
  6
CONTINUOUS
 66
1
 70
0
  0
VERTEX
  8
0
 62
7
  6
CONTINUOUS
 10
72.2404477228
 20
248.3107221007
  0
VERTEX
  8
0
 62
7
  6
CONTINUOUS
 10
72.0959108042
 20
248.2995616411
  0
VERTEX
  8
0
 62
7
  6
CONTINUOUS
 10
71.9591368902
 20
248.2676597447
  0
VERTEX
  8
0
 62
7
  6
CONTINUOUS
 10
71.832816168
 20
248.2177648475
  0
VERTEX
  8
0
 62
7
  6
CONTINUOUS
 10
71.7180879968
 20
248.1524198792
  0
VERTEX
  8
0
 62
7
  6
CONTINUOUS
 10
71.6142712857
 20
248.0726492388
  0
VERTEX
  8
0
 62
7
  6
CONTINUOUS
 10
71.5232967679
 20
247.9809822731
  0
VERTEX
  8
0
 62
7
  6
CONTINUOUS
 10
71.4466602686
 20
247.8805745529
  0
VERTEX
  8
0
 62
7
  6
CONTINUOUS
 10
71.3847458734
 20
247.7742194912
  0
VERTEX
  8
0
 62
7
  6
CONTINUOUS
 10
71.336702418
 20
247.6625985012
  0
VERTEX
  8
0
 62
7
  6
CONTINUOUS
 10
71.30257357
 20
247.5476185481
  0
VERTEX
  8
0
 62
7
  6
CONTINUOUS
 10
71.2820484622
 20
247.4298405882
  0
VERTEX
  8
0
 62
7
  6
CONTINUOUS
 10
71.2752024014
 20
247.3107221007
  0
SEQEND
  0
POLYLINE
  8
DEFAULT_2
 62
8
  6
HIDDEN
 66
1
 70
0
  0
VERTEX
  8
DEFAULT_2
 62
8
  6
HIDDEN
 10
126.6384523439
 20
248.3107221007
  0
VERTEX
  8
DEFAULT_2
 62
8
  6
HIDDEN
 10
126.8190565852
 20
248.2995616333
  0
VERTEX
  8
DEFAULT_2
 62
8
  6
HIDDEN
 10
126.9883684418
 20
248.2676597314
  0
VERTEX
  8
DEFAULT_2
 62
8
  6
HIDDEN
 10
127.1434291345
 20
248.2177648307
  0
VERTEX
  8
DEFAULT_2
 62
8
  6
HIDDEN
 10
127.2832137027
 20
248.1524198604
  0
VERTEX
  8
DEFAULT_2
 62
8
  6
HIDDEN
 10
127.4088765035
 20
248.0726492194
  0
VERTEX
  8
DEFAULT_2
 62
8
  6
HIDDEN
 10
127.5183687343
 20
247.9809822545
  0
VERTEX
  8
DEFAULT_2
 62
8
  6
HIDDEN
 10
127.6101627101
 20
247.8805745362
  0
VERTEX
  8
DEFAULT_2
 62
8
  6
HIDDEN
 10
127.6840341867
 20
247.7742194772
  0
VERTEX
  8
DEFAULT_2
 62
8
  6
HIDDEN
 10
127.7411812747
 20
247.6625984902
  0
VERTEX
  8
DEFAULT_2
 62
8
  6
HIDDEN
 10
127.7816856095
 20
247.5476185406
  0
VERTEX
  8
DEFAULT_2
 62
8
  6
HIDDEN
 10
127.8060086757
 20
247.4298405844
  0
VERTEX
  8
DEFAULT_2
 62
8
  6
HIDDEN
 10
127.8141155049
 20
247.3107221007
  0
SEQEND
  0
POLYLINE
  8
0
 62
7
  6
CONTINUOUS
 66
1
 70
0
  0
VERTEX
  8
0
 62
7
  6
CONTINUOUS
 10
126.0205471203
 20
248.3107221007
  0
VERTEX
  8
0
 62
7
  6
CONTINUOUS
 10
126.1115833493
 20
248.2995616411
  0
VERTEX
  8
0
 62
7
  6
CONTINUOUS
 10
126.1993223582
 20
248.2676597447
  0
VERTEX
  8
0
 62
7
  6
CONTINUOUS
 10
126.2816669568
 20
248.2177648475
  0
VERTEX
  8
0
 62
7
  6
CONTINUOUS
 10
126.357500812
 20
248.1524198792
  0
VERTEX
  8
0
 62
7
  6
CONTINUOUS
 10
126.4269495982
 20
248.0726492388
  0
VERTEX
  8
0
 62
7
  6
CONTINUOUS
 10
126.4884335264
 20
247.9809822731
  0
VERTEX
  8
0
 62
7
  6
CONTINUOUS
 10
126.5406690501
 20
247.8805745529
  0
VERTEX
  8
0
 62
7
  6
CONTINUOUS
 10
126.5831585693
 20
247.7742194912
  0
VERTEX
  8
0
 62
7
  6
CONTINUOUS
 10
126.6163036387
 20
247.6625985012
  0
VERTEX
  8
0
 62
7
  6
CONTINUOUS
 10
126.6399405543
 20
247.5476185481
  0
VERTEX
  8
0
 62
7
  6
CONTINUOUS
 10
126.6541920712
 20
247.4298405882
  0
VERTEX
  8
0
 62
7
  6
CONTINUOUS
 10
126.6589516272
 20
247.3107221007
  0
SEQEND
  0
POLYLINE
  8
0
 62
7
  6
CONTINUOUS
 66
1
 70
0
  0
VERTEX
  8
0
 62
7
  6
CONTINUOUS
 10
132.7882627499
 20
242.8158031166
  0
VERTEX
  8
0
 62
7
  6
CONTINUOUS
 10
132.6334695112
 20
242.8581603104
  0
VERTEX
  8
0
 62
7
  6
CONTINUOUS
 10
132.4484268874
 20
242.9033681
  0
VERTEX
  8
0
 62
7
  6
CONTINUOUS
 10
132.2351451023
 20
242.9509835934
  0
VERTEX
  8
0
 62
7
  6
CONTINUOUS
 10
131.9960503135
 20
243.0005039408
  0
VERTEX
  8
0
 62
7
  6
CONTINUOUS
 10
131.7339838532
 20
243.0513716852
  0
VERTEX
  8
0
 62
7
  6
CONTINUOUS
 10
131.4520862048
 20
243.1029985612
  0
SEQEND
  0
POLYLINE
  8
0
 62
7
  6
CONTINUOUS
 66
1
 70
0
  0
VERTEX
  8
0
 62
7
  6
CONTINUOUS
 10
131.7906408293
 20
229.7095170111
  0
VERTEX
  8
0
 62
7
  6
CONTINUOUS
 10
131.66232345
 20
229.8096078786
  0
VERTEX
  8
0
 62
7
  6
CONTINUOUS
 10
131.517648854
 20
229.9000135215
  0
VERTEX
  8
0
 62
7
  6
CONTINUOUS
 10
131.3615369841
 20
229.9775688328
  0
VERTEX
  8
0
 62
7
  6
CONTINUOUS
 10
131.1971937465
 20
230.0406041415
  0
VERTEX
  8
0
 62
7
  6
CONTINUOUS
 10
131.0300718496
 20
230.0870486478
  0
VERTEX
  8
0
 62
7
  6
CONTINUOUS
 10
130.8669095925
 20
230.1158031166
  0
SEQEND
  0
POLYLINE
  8
DEFAULT_2
 62
8
  6
HIDDEN
 66
1
 70
0
  0
VERTEX
  8
DEFAULT_2
 62
8
  6
HIDDEN
 10
121.141177325
 20
247.3107221007
  0
VERTEX
  8
DEFAULT_2
 62
8
  6
HIDDEN
 10
121.13907851
 20
247.4298359604
  0
VERTEX
  8
DEFAULT_2
 62
8
  6
HIDDEN
 10
121.1328198226
 20
247.5476121056
  0
VERTEX
  8
DEFAULT_2
 62
8
  6
HIDDEN
 10
121.1225262145
 20
247.6625904378
  0
VERTEX
  8
DEFAULT_2
 62
8
  6
HIDDEN
 10
121.1082781306
 20
247.7742080653
  0
VERTEX
  8
DEFAULT_2
 62
8
  6
HIDDEN
 10
121.0903400163
 20
247.8805569714
  0
VERTEX
  8
DEFAULT_2
 62
8
  6
HIDDEN
 10
121.0688081422
 20
247.9809587246
  0
VERTEX
  8
DEFAULT_2
 62
8
  6
HIDDEN
 10
121.0442325246
 20
248.0726241732
  0
VERTEX
  8
DEFAULT_2
 62
8
  6
HIDDEN
 10
121.0175283693
 20
248.1523995051
  0
VERTEX
  8
DEFAULT_2
 62
8
  6
HIDDEN
 10
120.9897333051
 20
248.2177536484
  0
VERTEX
  8
DEFAULT_2
 62
8
  6
HIDDEN
 10
120.9612934765
 20
248.267656653
  0
VERTEX
  8
DEFAULT_2
 62
8
  6
HIDDEN
 10
120.9331697058
 20
248.2995617676
  0
VERTEX
  8
DEFAULT_2
 62
8
  6
HIDDEN
 10
120.9066146531
 20
248.3107221007
  0
SEQEND
  0
LINE
  8
DEFAULT_2
 62
8
  6
HIDDEN
 10
120.5886640262
 20
223.5184456401
 11
120.5886640262
 21
230.4029985612
  0
LINE
  8
DEFAULT_2
 62
8
  6
HIDDEN
 10
120.5886640262
 20
236.2184456401
 11
120.5886640262
 21
243.1029985612
  0
LINE
  8
DEFAULT_2
 62
8
  6
HIDDEN
 10
120.8272154358
 20
218.3107221007
 11
120.8272154358
 21
248.3107221007
  0
LINE
  8
DEFAULT_2
 62
8
  6
HIDDEN
 10
121.141177325
 20
219.3107221007
 11
121.141177325
 21
223.4607221007
  0
LINE
  8
DEFAULT_2
 62
8
  6
HIDDEN
 10
121.141177325
 20
230.4607221007
 11
121.141177325
 21
236.1607221007
  0
LINE
  8
DEFAULT_2
 62
8
  6
HIDDEN
 10
121.141177325
 20
243.1607221007
 11
121.141177325
 21
247.3107221007
  0
LINE
  8
DEFAULT_2
 62
8
  6
HIDDEN
 10
121.7317282657
 20
223.4607221007
 11
121.7317282657
 21
230.4607221007
  0
LINE
  8
DEFAULT_2
 62
8
  6
HIDDEN
 10
121.7317282657
 20
236.1607221007
 11
121.7317282657
 21
243.1607221007
  0
POLYLINE
  8
DEFAULT_2
 62
8
  6
HIDDEN
 66
1
 70
0
  0
VERTEX
  8
DEFAULT_2
 62
8
  6
HIDDEN
 10
125.0639031207
 20
242.4095170111
  0
VERTEX
  8
DEFAULT_2
 62
8
  6
HIDDEN
 10
125.0917617431
 20
242.5096078786
  0
VERTEX
  8
DEFAULT_2
 62
8
  6
HIDDEN
 10
125.1153195227
 20
242.6000135215
  0
VERTEX
  8
DEFAULT_2
 62
8
  6
HIDDEN
 10
125.1318711497
 20
242.6775688328
  0
VERTEX
  8
DEFAULT_2
 62
8
  6
HIDDEN
 10
125.1397922241
 20
242.7406041415
  0
VERTEX
  8
DEFAULT_2
 62
8
  6
HIDDEN
 10
125.1403312464
 20
242.7580823318
  0
SEQEND
  0
POLYLINE
  8
0
 62
7
  6
CONTINUOUS
 66
1
 70
0
  0
VERTEX
  8
0
 62
7
  6
CONTINUOUS
 10
131.7906408293
 20
236.9119271902
  0
VERTEX
  8
0
 62
7
  6
CONTINUOUS
 10
131.9237016116
 20
237.0383393519
  0
VERTEX
  8
0
 62
7
  6
CONTINUOUS
 10
132.050243293
 20
237.1809777996
  0
VERTEX
  8
0
 62
7
  6
CONTINUOUS
 10
132.1631972479
 20
237.3344655616
  0
VERTEX
  8
0
 62
7
  6
CONTINUOUS
 10
132.2573821005
 20
237.4933294253
  0
SEQEND
  0
POLYLINE
  8
DEFAULT_2
 62
8
  6
HIDDEN
 66
1
 70
0
  0
VERTEX
  8
DEFAULT_2
 62
8
  6
HIDDEN
 10
123.1297356501
 20
224.2119271902
  0
VERTEX
  8
DEFAULT_2
 62
8
  6
HIDDEN
 10
122.9915944185
 20
224.1117390065
  0
VERTEX
  8
DEFAULT_2
 62
8
  6
HIDDEN
 10
122.8387712602
 20
224.0213689911
  0
VERTEX
  8
DEFAULT_2
 62
8
  6
HIDDEN
 10
122.6769378007
 20
223.9438373458
  0
VERTEX
  8
DEFAULT_2
 62
8
  6
HIDDEN
 10
122.5097871321
 20
223.8807923938
  0
VERTEX
  8
DEFAULT_2
 62
8
  6
HIDDEN
 10
122.3432601163
 20
223.8343733263
  0
VERTEX
  8
DEFAULT_2
 62
8
  6
HIDDEN
 10
122.1838913448
 20
223.8056410847
  0
SEQEND
  0
POLYLINE
  8
DEFAULT_2
 62
8
  6
HIDDEN
 66
1
 70
0
  0
VERTEX
  8
DEFAULT_2
 62
8
  6
HIDDEN
 10
120.9066146379
 20
218.3107221007
  0
VERTEX
  8
DEFAULT_2
 62
8
  6
HIDDEN
 10
120.9296992344
 20
218.3192738674
  0
VERTEX
  8
DEFAULT_2
 62
8
  6
HIDDEN
 10
120.9562996276
 20
218.3468022368
  0
VERTEX
  8
DEFAULT_2
 62
8
  6
HIDDEN
 10
120.9849673727
 20
218.3941438487
  0
VERTEX
  8
DEFAULT_2
 62
8
  6
HIDDEN
 10
121.0136882611
 20
218.459002321
  0
VERTEX
  8
DEFAULT_2
 62
8
  6
HIDDEN
 10
121.0409920108
 20
218.5381452282
  0
VERTEX
  8
DEFAULT_2
 62
8
  6
HIDDEN
 10
121.0660063723
 20
218.6289684562
  0
VERTEX
  8
DEFAULT_2
 62
8
  6
HIDDEN
 10
121.0879926099
 20
218.7287525582
  0
VERTEX
  8
DEFAULT_2
 62
8
  6
HIDDEN
 10
121.1065124776
 20
218.8354617616
  0
VERTEX
  8
DEFAULT_2
 62
8
  6
HIDDEN
 10
121.121444005
 20
218.9490108738
  0
VERTEX
  8
DEFAULT_2
 62
8
  6
HIDDEN
 10
121.1323543053
 20
219.0673858661
  0
VERTEX
  8
DEFAULT_2
 62
8
  6
HIDDEN
 10
121.1389780759
 20
219.1887981191
  0
VERTEX
  8
DEFAULT_2
 62
8
  6
HIDDEN
 10
121.141177325
 20
219.3107221007
  0
SEQEND
  0
POLYLINE
  8
DEFAULT_2
 62
8
  6
HIDDEN
 66
1
 70
0
  0
VERTEX
  8
DEFAULT_2
 62
8
  6
HIDDEN
 10
125.0639031207
 20
224.2119271902
  0
VERTEX
  8
DEFAULT_2
 62
8
  6
HIDDEN
 10
125.0195115742
 20
224.3383393519
  0
VERTEX
  8
DEFAULT_2
 62
8
  6
HIDDEN
 10
124.9508381932
 20
224.4809777996
  0
VERTEX
  8
DEFAULT_2
 62
8
  6
HIDDEN
 10
124.8587901166
 20
224.6344655616
  0
VERTEX
  8
DEFAULT_2
 62
8
  6
HIDDEN
 10
124.7459150154
 20
224.7933294253
  0
SEQEND
  0
POLYLINE
  8
0
 62
7
  6
CONTINUOUS
 66
1
 70
0
  0
VERTEX
  8
0
 62
7
  6
CONTINUOUS
 10
123.3121752684
 20
247.3107221007
  0
VERTEX
  8
0
 62
7
  6
CONTINUOUS
 10
123.3037861278
 20
247.4298359588
  0
VERTEX
  8
0
 62
7
  6
CONTINUOUS
 10
123.2786000228
 20
247.5476121026
  0
VERTEX
  8
0
 62
7
  6
CONTINUOUS
 10
123.2366073553
 20
247.6625904334
  0
VERTEX
  8
0
 62
7
  6
CONTINUOUS
 10
123.1772529387
 20
247.7742080597
  0
VERTEX
  8
0
 62
7
  6
CONTINUOUS
 10
123.1003418646
 20
247.8805569647
  0
VERTEX
  8
0
 62
7
  6
CONTINUOUS
 10
123.0044732077
 20
247.9809587171
  0
VERTEX
  8
0
 62
7
  6
CONTINUOUS
 10
122.8896799332
 20
248.0726241655
  0
VERTEX
  8
0
 62
7
  6
CONTINUOUS
 10
122.7573310587
 20
248.1523994976
  0
VERTEX
  8
0
 62
7
  6
CONTINUOUS
 10
122.6093411357
 20
248.2177536417
  0
VERTEX
  8
0
 62
7
  6
CONTINUOUS
 10
122.4442258079
 20
248.2676566477
  0
VERTEX
  8
0
 62
7
  6
CONTINUOUS
 10
122.2627834447
 20
248.2995617645
  0
VERTEX
  8
0
 62
7
  6
CONTINUOUS
 10
122.0678965082
 20
248.3107221007
  0
SEQEND
  0
LINE
  8
DEFAULT_2
 62
8
  6
HIDDEN
 10
122.0255014396
 20
218.3107221007
 11
122.0255014396
 21
248.3107221007
  0
LINE
  8
DEFAULT_2
 62
8
  6
HIDDEN
 10
123.1297356501
 20
224.2119271902
 11
123.1297356501
 21
229.7095170111
  0
LINE
  8
DEFAULT_2
 62
8
  6
HIDDEN
 10
123.1297356501
 20
236.9119271902
 11
123.1297356501
 21
242.4095170111
  0
LINE
  8
0
 62
7
  6
CONTINUOUS
 10
123.3121752684
 20
219.3107221007
 11
123.3121752684
 21
223.4607221007
  0
LINE
  8
0
 62
7
  6
CONTINUOUS
 10
123.3121752684
 20
230.4607221007
 11
123.3121752684
 21
236.1607221007
  0
LINE
  8
0
 62
7
  6
CONTINUOUS
 10
123.3121752684
 20
243.1607221007
 11
123.3121752684
 21
247.3107221007
  0
LINE
  8
DEFAULT_2
 62
8
  6
HIDDEN
 10
123.7069130313
 20
224.7933294253
 11
123.7069130313
 21
229.128114776
  0
LINE
  8
DEFAULT_2
 62
8
  6
HIDDEN
 10
123.7069130313
 20
237.4933294253
 11
123.7069130313
 21
241.828114776
  0
LINE
  8
DEFAULT_2
 62
8
  6
HIDDEN
 10
124.3454152523
 20
223.5184456401
 11
124.3454152523
 21
230.4029985612
  0
LINE
  8
DEFAULT_2
 62
8
  6
HIDDEN
 10
124.3454152523
 20
236.2184456401
 11
124.3454152523
 21
243.1029985612
  0
POLYLINE
  8
DEFAULT_2
 62
8
  6
HIDDEN
 66
1
 70
0
  0
VERTEX
  8
DEFAULT_2
 62
8
  6
HIDDEN
 10
125.1275751637
 20
236.5056410847
  0
VERTEX
  8
DEFAULT_2
 62
8
  6
HIDDEN
 10
125.1382128581
 20
236.5343586063
  0
VERTEX
  8
DEFAULT_2
 62
8
  6
HIDDEN
 10
125.140331246
 20
236.5633582196
  0
SEQEND
  0
POLYLINE
  8
DEFAULT_2
 62
8
  6
HIDDEN
 66
1
 70
0
  0
VERTEX
  8
DEFAULT_2
 62
8
  6
HIDDEN
 10
124.7459150154
 20
229.128114776
  0
VERTEX
  8
DEFAULT_2
 62
8
  6
HIDDEN
 10
124.8588670025
 20
229.2870959114
  0
VERTEX
  8
DEFAULT_2
 62
8
  6
HIDDEN
 10
124.9508423906
 20
229.4404741534
  0
VERTEX
  8
DEFAULT_2
 62
8
  6
HIDDEN
 10
125.0194666712
 20
229.5829972821
  0
VERTEX
  8
DEFAULT_2
 62
8
  6
HIDDEN
 10
125.0639031207
 20
229.7095170111
  0
SEQEND
  0
POLYLINE
  8
DEFAULT_2
 62
8
  6
HIDDEN
 66
1
 70
0
  0
VERTEX
  8
DEFAULT_2
 62
8
  6
HIDDEN
 10
123.7069130313
 20
224.7933294253
  0
VERTEX
  8
DEFAULT_2
 62
8
  6
HIDDEN
 10
123.5734938962
 20
224.6344283595
  0
VERTEX
  8
DEFAULT_2
 62
8
  6
HIDDEN
 10
123.4285730474
 20
224.4809456527
  0
VERTEX
  8
DEFAULT_2
 62
8
  6
HIDDEN
 10
123.2782065649
 20
224.3383331651
  0
VERTEX
  8
DEFAULT_2
 62
8
  6
HIDDEN
 10
123.1297356501
 20
224.2119271902
  0
SEQEND
  0
POLYLINE
  8
DEFAULT_2
 62
8
  6
HIDDEN
 66
1
 70
0
  0
VERTEX
  8
DEFAULT_2
 62
8
  6
HIDDEN
 10
136.6323013622
 20
236.9119271902
  0
VERTEX
  8
DEFAULT_2
 62
8
  6
HIDDEN
 10
136.5290228127
 20
236.8117390065
  0
VERTEX
  8
DEFAULT_2
 62
8
  6
HIDDEN
 10
136.4100009835
 20
236.7213689911
  0
VERTEX
  8
DEFAULT_2
 62
8
  6
HIDDEN
 10
136.2784849744
 20
236.6438373458
  0
VERTEX
  8
DEFAULT_2
 62
8
  6
HIDDEN
 10
136.1366626982
 20
236.5807923938
  0
VERTEX
  8
DEFAULT_2
 62
8
  6
HIDDEN
 10
135.9891902311
 20
236.5343733263
  0
VERTEX
  8
DEFAULT_2
 62
8
  6
HIDDEN
 10
135.8420988138
 20
236.5056410847
  0
SEQEND
  0
POLYLINE
  8
0
 62
7
  6
CONTINUOUS
 66
1
 70
0
  0
VERTEX
  8
0
 62
7
  6
CONTINUOUS
 10
132.7882627499
 20
242.8158031166
  0
VERTEX
  8
0
 62
7
  6
CONTINUOUS
 10
132.8543142036
 20
242.787033345
  0
VERTEX
  8
0
 62
7
  6
CONTINUOUS
 10
132.913769999
 20
242.7405469158
  0
VERTEX
  8
0
 62
7
  6
CONTINUOUS
 10
132.9638956686
 20
242.6774543283
  0
VERTEX
  8
0
 62
7
  6
CONTINUOUS
 10
133.0035506968
 20
242.5998522159
  0
VERTEX
  8
0
 62
7
  6
CONTINUOUS
 10
133.0330513766
 20
242.5094594648
  0
VERTEX
  8
0
 62
7
  6
CONTINUOUS
 10
133.0530789868
 20
242.4095170111
  0
SEQEND
  0
POLYLINE
  8
DEFAULT_2
 62
8
  6
HIDDEN
 66
1
 70
0
  0
VERTEX
  8
DEFAULT_2
 62
8
  6
HIDDEN
 10
123.1297356501
 20
242.4095170111
  0
VERTEX
  8
DEFAULT_2
 62
8
  6
HIDDEN
 10
123.2783265496
 20
242.2830032885
  0
VERTEX
  8
DEFAULT_2
 62
8
  6
HIDDEN
 10
123.4285671819
 20
242.1405044221
  0
VERTEX
  8
DEFAULT_2
 62
8
  6
HIDDEN
 10
123.5733898804
 20
241.9871324909
  0
VERTEX
  8
DEFAULT_2
 62
8
  6
HIDDEN
 10
123.7069130313
 20
241.828114776
  0
SEQEND
  0
POLYLINE
  8
DEFAULT_2
 62
8
  6
HIDDEN
 66
1
 70
0
  0
VERTEX
  8
DEFAULT_2
 62
8
  6
HIDDEN
 10
125.1403312464
 20
230.0580823318
  0
VERTEX
  8
DEFAULT_2
 62
8
  6
HIDDEN
 10
125.1382190451
 20
230.0870486478
  0
VERTEX
  8
DEFAULT_2
 62
8
  6
HIDDEN
 10
125.1275751637
 20
230.1158031166
  0
SEQEND
  0
POLYLINE
  8
DEFAULT_2
 62
8
  6
HIDDEN
 66
1
 70
0
  0
VERTEX
  8
DEFAULT_2
 62
8
  6
HIDDEN
 10
125.1403312464
 20
242.7580823318
  0
VERTEX
  8
DEFAULT_2
 62
8
  6
HIDDEN
 10
125.1382190451
 20
242.7870486478
  0
VERTEX
  8
DEFAULT_2
 62
8
  6
HIDDEN
 10
125.1275751637
 20
242.8158031166
  0
SEQEND
  0
POLYLINE
  8
DEFAULT_2
 62
8
  6
HIDDEN
 66
1
 70
0
  0
VERTEX
  8
DEFAULT_2
 62
8
  6
HIDDEN
 10
125.140331246
 20
223.8633582196
  0
VERTEX
  8
DEFAULT_2
 62
8
  6
HIDDEN
 10
125.1397982997
 20
223.8807359965
  0
VERTEX
  8
DEFAULT_2
 62
8
  6
HIDDEN
 10
125.1318977026
 20
223.9437247933
  0
VERTEX
  8
DEFAULT_2
 62
8
  6
HIDDEN
 10
125.1153722822
 20
224.0212125045
  0
VERTEX
  8
DEFAULT_2
 62
8
  6
HIDDEN
 10
125.09182799
 20
224.1115942891
  0
VERTEX
  8
DEFAULT_2
 62
8
  6
HIDDEN
 10
125.0639031207
 20
224.2119271902
  0
SEQEND
  0
POLYLINE
  8
DEFAULT_2
 62
8
  6
HIDDEN
 66
1
 70
0
  0
VERTEX
  8
DEFAULT_2
 62
8
  6
HIDDEN
 10
125.140331246
 20
236.5633582196
  0
VERTEX
  8
DEFAULT_2
 62
8
  6
HIDDEN
 10
125.1397982997
 20
236.5807359965
  0
VERTEX
  8
DEFAULT_2
 62
8
  6
HIDDEN
 10
125.1318977026
 20
236.6437247933
  0
VERTEX
  8
DEFAULT_2
 62
8
  6
HIDDEN
 10
125.1153722822
 20
236.7212125045
  0
VERTEX
  8
DEFAULT_2
 62
8
  6
HIDDEN
 10
125.09182799
 20
236.8115942891
  0
VERTEX
  8
DEFAULT_2
 62
8
  6
HIDDEN
 10
125.0639031207
 20
236.9119271902
  0
SEQEND
  0
LINE
  8
DEFAULT_2
 62
8
  6
HIDDEN
 10
124.7459150154
 20
224.7933294253
 11
124.7459150154
 21
229.128114776
  0
LINE
  8
DEFAULT_2
 62
8
  6
HIDDEN
 10
124.7459150154
 20
237.4933294253
 11
124.7459150154
 21
241.828114776
  0
LINE
  8
DEFAULT_2
 62
8
  6
HIDDEN
 10
124.9209168181
 20
218.3107221007
 11
124.9209168181
 21
248.3107221007
  0
LINE
  8
DEFAULT_2
 62
8
  6
HIDDEN
 10
125.0292188015
 20
218.3107221007
 11
125.0292188015
 21
248.3107221007
  0
LINE
  8
0
 62
7
  6
CONTINUOUS
 10
125.0502115451
 20
223.4607221007
 11
125.0502115451
 21
230.4607221007
  0
LINE
  8
0
 62
7
  6
CONTINUOUS
 10
125.0502115451
 20
236.1607221007
 11
125.0502115451
 21
243.1607221007
  0
LINE
  8
DEFAULT_2
 62
8
  6
HIDDEN
 10
125.0639031207
 20
224.2119271902
 11
125.0639031207
 21
229.7095170111
  0
LINE
  8
DEFAULT_2
 62
8
  6
HIDDEN
 10
125.0639031207
 20
236.9119271902
 11
125.0639031207
 21
242.4095170111
  0
LINE
  8
DEFAULT_2
 62
8
  6
HIDDEN
 10
125.140331249
 20
223.8652447948
 11
125.140331249
 21
230.056191519
  0
LINE
  8
DEFAULT_2
 62
8
  6
HIDDEN
 10
125.140331249
 20
236.5652447948
 11
125.140331249
 21
242.756191519
  0
LINE
  8
0
 62
7
  6
CONTINUOUS
 10
126.6589516272
 20
219.3107221007
 11
126.6589516272
 21
223.4607221007
  0
LINE
  8
0
 62
7
  6
CONTINUOUS
 10
126.6589516272
 20
230.4607221007
 11
126.6589516272
 21
236.1607221007
  0
LINE
  8
0
 62
7
  6
CONTINUOUS
 10
126.6589516272
 20
243.1607221007
 11
126.6589516272
 21
247.3107221007
  0
POLYLINE
  8
DEFAULT_2
 62
8
  6
HIDDEN
 66
1
 70
0
  0
VERTEX
  8
DEFAULT_2
 62
8
  6
HIDDEN
 10
125.0639031207
 20
229.7095170111
  0
VERTEX
  8
DEFAULT_2
 62
8
  6
HIDDEN
 10
125.0917617431
 20
229.8096078786
  0
VERTEX
  8
DEFAULT_2
 62
8
  6
HIDDEN
 10
125.1153195227
 20
229.9000135215
  0
VERTEX
  8
DEFAULT_2
 62
8
  6
HIDDEN
 10
125.1318711497
 20
229.9775688328
  0
VERTEX
  8
DEFAULT_2
 62
8
  6
HIDDEN
 10
125.1397922241
 20
230.0406041415
  0
VERTEX
  8
DEFAULT_2
 62
8
  6
HIDDEN
 10
125.1403312464
 20
230.0580823318
  0
SEQEND
  0
POLYLINE
  8
DEFAULT_2
 62
8
  6
HIDDEN
 66
1
 70
0
  0
VERTEX
  8
DEFAULT_2
 62
8
  6
HIDDEN
 10
125.1275751637
 20
223.8056410847
  0
VERTEX
  8
DEFAULT_2
 62
8
  6
HIDDEN
 10
125.1382128581
 20
223.8343586063
  0
VERTEX
  8
DEFAULT_2
 62
8
  6
HIDDEN
 10
125.140331246
 20
223.8633582196
  0
SEQEND
  0
POLYLINE
  8
0
 62
7
  6
CONTINUOUS
 66
1
 70
0
  0
VERTEX
  8
0
 62
7
  6
CONTINUOUS
 10
131.7906408293
 20
242.4095170111
  0
VERTEX
  8
0
 62
7
  6
CONTINUOUS
 10
131.66232345
 20
242.5096078786
  0
VERTEX
  8
0
 62
7
  6
CONTINUOUS
 10
131.517648854
 20
242.6000135215
  0
VERTEX
  8
0
 62
7
  6
CONTINUOUS
 10
131.3615369841
 20
242.6775688328
  0
VERTEX
  8
0
 62
7
  6
CONTINUOUS
 10
131.1971937465
 20
242.7406041415
  0
VERTEX
  8
0
 62
7
  6
CONTINUOUS
 10
131.0300718496
 20
242.7870486478
  0
VERTEX
  8
0
 62
7
  6
CONTINUOUS
 10
130.8669095925
 20
242.8158031166
  0
SEQEND
  0
POLYLINE
  8
DEFAULT_2
 62
8
  6
HIDDEN
 66
1
 70
0
  0
VERTEX
  8
DEFAULT_2
 62
8
  6
HIDDEN
 10
136.6323013622
 20
229.7095170111
  0
VERTEX
  8
DEFAULT_2
 62
8
  6
HIDDEN
 10
136.7339678104
 20
229.5830032885
  0
VERTEX
  8
DEFAULT_2
 62
8
  6
HIDDEN
 10
136.8213049479
 20
229.4405044221
  0
VERTEX
  8
DEFAULT_2
 62
8
  6
HIDDEN
 10
136.8886321751
 20
229.2871324909
  0
VERTEX
  8
DEFAULT_2
 62
8
  6
HIDDEN
 10
136.9323106377
 20
229.128114776
  0
SEQEND
  0
POLYLINE
  8
0
 62
7
  6
CONTINUOUS
 66
1
 70
0
  0
VERTEX
  8
0
 62
7
  6
CONTINUOUS
 10
132.2573821005
 20
229.128114776
  0
VERTEX
  8
0
 62
7
  6
CONTINUOUS
 10
132.163119382
 20
229.2870959114
  0
VERTEX
  8
0
 62
7
  6
CONTINUOUS
 10
132.0502370096
 20
229.4404741534
  0
VERTEX
  8
0
 62
7
  6
CONTINUOUS
 10
131.9238058
 20
229.5829972821
  0
VERTEX
  8
0
 62
7
  6
CONTINUOUS
 10
131.7906408293
 20
229.7095170111
  0
SEQEND
  0
POLYLINE
  8
0
 62
7
  6
CONTINUOUS
 66
1
 70
0
  0
VERTEX
  8
0
 62
7
  6
CONTINUOUS
 10
132.9355424824
 20
224.7933294253
  0
VERTEX
  8
0
 62
7
  6
CONTINUOUS
 10
133.0021059958
 20
224.6344283595
  0
VERTEX
  8
0
 62
7
  6
CONTINUOUS
 10
133.0438166051
 20
224.4809456527
  0
VERTEX
  8
0
 62
7
  6
CONTINUOUS
 10
133.0602534302
 20
224.3383331651
  0
VERTEX
  8
0
 62
7
  6
CONTINUOUS
 10
133.0606164388
 20
224.3143975013
  0
SEQEND
  0
POLYLINE
  8
DEFAULT_2
 62
8
  6
HIDDEN
 66
1
 70
0
  0
VERTEX
  8
DEFAULT_2
 62
8
  6
HIDDEN
 10
125.0639031207
 20
236.9119271902
  0
VERTEX
  8
DEFAULT_2
 62
8
  6
HIDDEN
 10
125.0195115742
 20
237.0383393519
  0
VERTEX
  8
DEFAULT_2
 62
8
  6
HIDDEN
 10
124.9508381932
 20
237.1809777996
  0
VERTEX
  8
DEFAULT_2
 62
8
  6
HIDDEN
 10
124.8587901166
 20
237.3344655616
  0
VERTEX
  8
DEFAULT_2
 62
8
  6
HIDDEN
 10
124.7459150154
 20
237.4933294253
  0
SEQEND
  0
POLYLINE
  8
0
 62
7
  6
CONTINUOUS
 66
1
 70
0
  0
VERTEX
  8
0
 62
7
  6
CONTINUOUS
 10
128.9764387364
 20
247.3107221007
  0
VERTEX
  8
0
 62
7
  6
CONTINUOUS
 10
128.9695932091
 20
247.4298359633
  0
VERTEX
  8
0
 62
7
  6
CONTINUOUS
 10
128.9490690771
 20
247.5476121114
  0
VERTEX
  8
0
 62
7
  6
CONTINUOUS
 10
128.914941632
 20
247.6625904463
  0
VERTEX
  8
0
 62
7
  6
CONTINUOUS
 10
128.8669010083
 20
247.7742080761
  0
VERTEX
  8
0
 62
7
  6
CONTINUOUS
 10
128.8049925928
 20
247.8805569842
  0
VERTEX
  8
0
 62
7
  6
CONTINUOUS
 10
128.7283648328
 20
247.9809587389
  0
VERTEX
  8
0
 62
7
  6
CONTINUOUS
 10
128.6373982425
 20
248.0726241882
  0
VERTEX
  8
0
 62
7
  6
CONTINUOUS
 10
128.5335837433
 20
248.1523995196
  0
VERTEX
  8
0
 62
7
  6
CONTINUOUS
 10
128.418848234
 20
248.2177536614
  0
VERTEX
  8
0
 62
7
  6
CONTINUOUS
 10
128.2925140694
 20
248.2676566633
  0
VERTEX
  8
0
 62
7
  6
CONTINUOUS
 10
128.1557294812
 20
248.2995617736
  0
VERTEX
  8
0
 62
7
  6
CONTINUOUS
 10
128.011193415
 20
248.3107221007
  0
SEQEND
  0
LINE
  8
DEFAULT_2
 62
8
  6
HIDDEN
 10
127.7818870731
 20
223.4607221007
 11
127.7818870731
 21
230.4607221007
  0
LINE
  8
DEFAULT_2
 62
8
  6
HIDDEN
 10
127.7818870731
 20
236.1607221007
 11
127.7818870731
 21
243.1607221007
  0
LINE
  8
DEFAULT_2
 62
8
  6
HIDDEN
 10
127.8141155049
 20
219.3107221007
 11
127.8141155049
 21
223.4607221007
  0
LINE
  8
DEFAULT_2
 62
8
  6
HIDDEN
 10
127.8141155049
 20
230.4607221007
 11
127.8141155049
 21
236.1607221007
  0
LINE
  8
DEFAULT_2
 62
8
  6
HIDDEN
 10
127.8141155049
 20
243.1607221007
 11
127.8141155049
 21
247.3107221007
  0
LINE
  8
0
 62
7
  6
CONTINUOUS
 10
128.9764387364
 20
219.3107221007
 11
128.9764387364
 21
223.4607221007
  0
LINE
  8
0
 62
7
  6
CONTINUOUS
 10
128.9764387364
 20
230.4607221007
 11
128.9764387364
 21
236.1607221007
  0
LINE
  8
0
 62
7
  6
CONTINUOUS
 10
128.9764387364
 20
243.1607221007
 11
128.9764387364
 21
247.3107221007
  0
LINE
  8
0
 62
9
  6
CONTINUOUS
 10
129.0000409874
 20
223.5184456401
 11
129.0000409874
 21
230.4029985612
  0
LINE
  8
0
 62
9
  6
CONTINUOUS
 10
129.0000409874
 20
236.2184456401
 11
129.0000409874
 21
243.1029985612
  0
LINE
  8
DEFAULT_2
 62
8
  6
HIDDEN
 10
129.5476151453
 20
223.4607221007
 11
129.5476151453
 21
230.4607221007
  0
LINE
  8
DEFAULT_2
 62
8
  6
HIDDEN
 10
129.5476151453
 20
236.1607221007
 11
129.5476151453
 21
243.1607221007
  0
POLYLINE
  8
0
 62
7
  6
CONTINUOUS
 66
1
 70
0
  0
VERTEX
  8
0
 62
7
  6
CONTINUOUS
 10
126.6589516272
 20
219.3107221007
  0
VERTEX
  8
0
 62
7
  6
CONTINUOUS
 10
126.6539644557
 20
219.1887981191
  0
VERTEX
  8
0
 62
7
  6
CONTINUOUS
 10
126.6388780588
 20
219.0673858661
  0
VERTEX
  8
0
 62
7
  6
CONTINUOUS
 10
126.6138060075
 20
218.9490108738
  0
VERTEX
  8
0
 62
7
  6
CONTINUOUS
 10
126.5790192605
 20
218.8354617616
  0
VERTEX
  8
0
 62
7
  6
CONTINUOUS
 10
126.5350508147
 20
218.7287525582
  0
VERTEX
  8
0
 62
7
  6
CONTINUOUS
 10
126.4815439846
 20
218.6289684562
  0
VERTEX
  8
0
 62
7
  6
CONTINUOUS
 10
126.4186975706
 20
218.5381452282
  0
VERTEX
  8
0
 62
7
  6
CONTINUOUS
 10
126.3472767114
 20
218.459002321
  0
VERTEX
  8
0
 62
7
  6
CONTINUOUS
 10
126.2682510729
 20
218.3941438487
  0
VERTEX
  8
0
 62
7
  6
CONTINUOUS
 10
126.1842643574
 20
218.3468022368
  0
VERTEX
  8
0
 62
7
  6
CONTINUOUS
 10
126.1002057999
 20
218.3192738674
  0
VERTEX
  8
0
 62
7
  6
CONTINUOUS
 10
126.0205471203
 20
218.3107221007
  0
SEQEND
  0
POLYLINE
  8
DEFAULT_2
 62
8
  6
HIDDEN
 66
1
 70
0
  0
VERTEX
  8
DEFAULT_2
 62
8
  6
HIDDEN
 10
127.8141155049
 20
219.3107221007
  0
VERTEX
  8
DEFAULT_2
 62
8
  6
HIDDEN
 10
127.8056207797
 20
219.1887981191
  0
VERTEX
  8
DEFAULT_2
 62
8
  6
HIDDEN
 10
127.7798692985
 20
219.0673858661
  0
VERTEX
  8
DEFAULT_2
 62
8
  6
HIDDEN
 10
127.7368892933
 20
218.9490108738
  0
VERTEX
  8
DEFAULT_2
 62
8
  6
HIDDEN
 10
127.6768682502
 20
218.8354617616
  0
VERTEX
  8
DEFAULT_2
 62
8
  6
HIDDEN
 10
127.6003422033
 20
218.7287525582
  0
VERTEX
  8
DEFAULT_2
 62
8
  6
HIDDEN
 10
127.5061787639
 20
218.6289684562
  0
VERTEX
  8
DEFAULT_2
 62
8
  6
HIDDEN
 10
127.3940576792
 20
218.5381452282
  0
VERTEX
  8
DEFAULT_2
 62
8
  6
HIDDEN
 10
127.2645279795
 20
218.459002321
  0
VERTEX
  8
DEFAULT_2
 62
8
  6
HIDDEN
 10
127.1184056524
 20
218.3941438487
  0
VERTEX
  8
DEFAULT_2
 62
8
  6
HIDDEN
 10
126.9596215607
 20
218.3468022368
  0
VERTEX
  8
DEFAULT_2
 62
8
  6
HIDDEN
 10
126.7967702078
 20
218.3192738674
  0
VERTEX
  8
DEFAULT_2
 62
8
  6
HIDDEN
 10
126.6384522003
 20
218.3107221007
  0
SEQEND
  0
POLYLINE
  8
0
 62
7
  6
CONTINUOUS
 66
1
 70
0
  0
VERTEX
  8
0
 62
7
  6
CONTINUOUS
 10
131.7906408293
 20
224.2119271902
  0
VERTEX
  8
0
 62
7
  6
CONTINUOUS
 10
131.9237016116
 20
224.3383393519
  0
VERTEX
  8
0
 62
7
  6
CONTINUOUS
 10
132.050243293
 20
224.4809777996
  0
VERTEX
  8
0
 62
7
  6
CONTINUOUS
 10
132.1631972479
 20
224.6344655616
  0
VERTEX
  8
0
 62
7
  6
CONTINUOUS
 10
132.2573821005
 20
224.7933294253
  0
SEQEND
  0
POLYLINE
  8
0
 62
7
  6
CONTINUOUS
 66
1
 70
0
  0
VERTEX
  8
0
 62
7
  6
CONTINUOUS
 10
137.0707415331
 20
229.7095170111
  0
VERTEX
  8
0
 62
7
  6
CONTINUOUS
 10
137.0051717363
 20
229.8096078786
  0
VERTEX
  8
0
 62
7
  6
CONTINUOUS
 10
136.9261183488
 20
229.9000135215
  0
VERTEX
  8
0
 62
7
  6
CONTINUOUS
 10
136.8350268697
 20
229.9775688328
  0
VERTEX
  8
0
 62
7
  6
CONTINUOUS
 10
136.7329295536
 20
230.0406041415
  0
VERTEX
  8
0
 62
7
  6
CONTINUOUS
 10
136.6228216628
 20
230.0870486478
  0
VERTEX
  8
0
 62
7
  6
CONTINUOUS
 10
136.5093777627
 20
230.1158031166
  0
SEQEND
  0
LINE
  8
DEFAULT_2
 62
8
  6
HIDDEN
 10
130.4963161002
 20
223.4607221007
 11
130.4963161002
 21
230.4607221007
  0
LINE
  8
DEFAULT_2
 62
8
  6
HIDDEN
 10
130.4963161002
 20
236.1607221007
 11
130.4963161002
 21
243.1607221007
  0
LINE
  8
DEFAULT_2
 62
8
  6
HIDDEN
 10
131.4520862048
 20
223.5184456401
 11
131.4520862048
 21
230.4029985612
  0
LINE
  8
DEFAULT_2
 62
8
  6
HIDDEN
 10
131.4520862048
 20
236.2184456401
 11
131.4520862048
 21
243.1029985612
  0
LINE
  8
0
 62
9
  6
CONTINUOUS
 10
131.7906408293
 20
224.2119271902
 11
131.7906408293
 21
229.7095170111
  0
LINE
  8
0
 62
9
  6
CONTINUOUS
 10
131.7906408293
 20
236.9119271902
 11
131.7906408293
 21
242.4095170111
  0
LINE
  8
0
 62
9
  6
CONTINUOUS
 10
132.2573821005
 20
224.7933294253
 11
132.2573821005
 21
229.128114776
  0
LINE
  8
0
 62
9
  6
CONTINUOUS
 10
132.2573821005
 20
237.4933294253
 11
132.2573821005
 21
241.828114776
  0
POLYLINE
  8
0
 62
7
  6
CONTINUOUS
 66
1
 70
0
  0
VERTEX
  8
0
 62
7
  6
CONTINUOUS
 10
133.0530789868
 20
236.9119271902
  0
VERTEX
  8
0
 62
7
  6
CONTINUOUS
 10
133.0329883006
 20
236.8117390065
  0
VERTEX
  8
0
 62
7
  6
CONTINUOUS
 10
133.003459437
 20
236.7213689911
  0
VERTEX
  8
0
 62
7
  6
CONTINUOUS
 10
132.9637986807
 20
236.6438373458
  0
VERTEX
  8
0
 62
7
  6
CONTINUOUS
 10
132.9136650161
 20
236.5807923938
  0
VERTEX
  8
0
 62
7
  6
CONTINUOUS
 10
132.8542511041
 20
236.5343733263
  0
VERTEX
  8
0
 62
7
  6
CONTINUOUS
 10
132.7882627499
 20
236.5056410847
  0
SEQEND
  0
POLYLINE
  8
0
 62
7
  6
CONTINUOUS
 66
1
 70
0
  0
VERTEX
  8
0
 62
7
  6
CONTINUOUS
 10
137.0707415331
 20
236.9119271902
  0
VERTEX
  8
0
 62
7
  6
CONTINUOUS
 10
137.1286162665
 20
237.0383393519
  0
VERTEX
  8
0
 62
7
  6
CONTINUOUS
 10
137.166387117
 20
237.1809777996
  0
VERTEX
  8
0
 62
7
  6
CONTINUOUS
 10
137.1800462611
 20
237.3395426966
  0
SEQEND
  0
POLYLINE
  8
DEFAULT_2
 62
8
  6
HIDDEN
 66
1
 70
0
  0
VERTEX
  8
DEFAULT_2
 62
8
  6
HIDDEN
 10
136.6323013622
 20
224.2119271902
  0
VERTEX
  8
DEFAULT_2
 62
8
  6
HIDDEN
 10
136.5290228127
 20
224.1117390065
  0
VERTEX
  8
DEFAULT_2
 62
8
  6
HIDDEN
 10
136.4100009835
 20
224.0213689911
  0
VERTEX
  8
DEFAULT_2
 62
8
  6
HIDDEN
 10
136.2784849744
 20
223.9438373458
  0
VERTEX
  8
DEFAULT_2
 62
8
  6
HIDDEN
 10
136.1366626982
 20
223.8807923938
  0
VERTEX
  8
DEFAULT_2
 62
8
  6
HIDDEN
 10
135.9891902311
 20
223.8343733263
  0
VERTEX
  8
DEFAULT_2
 62
8
  6
HIDDEN
 10
135.8420988138
 20
223.8056410847
  0
SEQEND
  0
POLYLINE
  8
0
 62
7
  6
CONTINUOUS
 66
1
 70
0
  0
VERTEX
  8
0
 62
7
  6
CONTINUOUS
 10
132.2573821005
 20
241.828114776
  0
VERTEX
  8
0
 62
7
  6
CONTINUOUS
 10
132.163119382
 20
241.9870959114
  0
VERTEX
  8
0
 62
7
  6
CONTINUOUS
 10
132.0502370096
 20
242.1404741534
  0
VERTEX
  8
0
 62
7
  6
CONTINUOUS
 10
131.9238058
 20
242.2829972821
  0
VERTEX
  8
0
 62
7
  6
CONTINUOUS
 10
131.7906408293
 20
242.4095170111
  0
SEQEND
  0
POLYLINE
  8
0
 62
7
  6
CONTINUOUS
 66
1
 70
0
  0
VERTEX
  8
0
 62
7
  6
CONTINUOUS
 10
132.9355424824
 20
237.4933294253
  0
VERTEX
  8
0
 62
7
  6
CONTINUOUS
 10
133.0021059958
 20
237.3344283595
  0
VERTEX
  8
0
 62
7
  6
CONTINUOUS
 10
133.0438166051
 20
237.1809456527
  0
VERTEX
  8
0
 62
7
  6
CONTINUOUS
 10
133.0602534302
 20
237.0383331651
  0
VERTEX
  8
0
 62
7
  6
CONTINUOUS
 10
133.0606164388
 20
237.0143975013
  0
SEQEND
  0
LINE
  8
0
 62
7
  6
CONTINUOUS
 10
133.0530789868
 20
229.7095170111
 11
133.0606164472
 21
229.6070301765
  0
LINE
  8
0
 62
7
  6
CONTINUOUS
 10
133.0530789868
 20
242.4095170111
 11
133.0606164472
 21
242.3070301765
  0
LINE
  8
0
 62
9
  6
CONTINUOUS
 10
132.9355424824
 20
224.7933294253
 11
132.9355424824
 21
229.128114776
  0
LINE
  8
0
 62
9
  6
CONTINUOUS
 10
132.9355424824
 20
237.4933294253
 11
132.9355424824
 21
241.828114776
  0
LINE
  8
DEFAULT_2
 62
8
  6
HIDDEN
 10
133.0530789868
 20
224.2119271902
 11
133.0530789868
 21
229.7095170111
  0
LINE
  8
DEFAULT_2
 62
8
  6
HIDDEN
 10
133.0530789868
 20
236.9119271902
 11
133.0530789868
 21
242.4095170111
  0
LINE
  8
0
 62
7
  6
CONTINUOUS
 10
133.0606165647
 20
224.3155930117
 11
133.0606165647
 21
229.6058475719
  0
LINE
  8
0
 62
7
  6
CONTINUOUS
 10
133.0606165647
 20
237.0155930117
 11
133.0606165647
 21
242.3058475719
  0
LINE
  8
DEFAULT_2
 62
8
  6
HIDDEN
 10
133.928760828
 20
223.5184456401
 11
133.928760828
 21
230.4029985612
  0
LINE
  8
DEFAULT_2
 62
8
  6
HIDDEN
 10
133.928760828
 20
236.2184456401
 11
133.928760828
 21
243.1029985612
  0
LINE
  8
0
 62
9
  6
CONTINUOUS
 10
134.7803471951
 20
223.5184456401
 11
134.7803471951
 21
230.4029985612
  0
LINE
  8
0
 62
9
  6
CONTINUOUS
 10
134.7803471951
 20
236.2184456401
 11
134.7803471951
 21
243.1029985612
  0
POLYLINE
  8
0
 62
7
  6
CONTINUOUS
 66
1
 70
0
  0
VERTEX
  8
0
 62
7
  6
CONTINUOUS
 10
133.0606164472
 20
242.3070301765
  0
VERTEX
  8
0
 62
7
  6
CONTINUOUS
 10
133.0602501227
 20
242.2830032885
  0
VERTEX
  8
0
 62
7
  6
CONTINUOUS
 10
133.0438177482
 20
242.1405044221
  0
VERTEX
  8
0
 62
7
  6
CONTINUOUS
 10
133.0021463462
 20
241.9871324909
  0
VERTEX
  8
0
 62
7
  6
CONTINUOUS
 10
132.9355424824
 20
241.828114776
  0
SEQEND
  0
POLYLINE
  8
0
 62
7
  6
CONTINUOUS
 66
1
 70
0
  0
VERTEX
  8
0
 62
7
  6
CONTINUOUS
 10
133.0606164472
 20
229.6070301765
  0
VERTEX
  8
0
 62
7
  6
CONTINUOUS
 10
133.0602501227
 20
229.5830032885
  0
VERTEX
  8
0
 62
7
  6
CONTINUOUS
 10
133.0438177482
 20
229.4405044221
  0
VERTEX
  8
0
 62
7
  6
CONTINUOUS
 10
133.0021463462
 20
229.2871324909
  0
VERTEX
  8
0
 62
7
  6
CONTINUOUS
 10
132.9355424824
 20
229.128114776
  0
SEQEND
  0
LINE
  8
0
 62
7
  6
CONTINUOUS
 10
133.0606164388
 20
237.0143975013
 11
133.0530789868
 21
236.9119271902
  0
LINE
  8
0
 62
7
  6
CONTINUOUS
 10
133.0606164388
 20
224.3143975013
 11
133.0530789868
 21
224.2119271902
  0
POLYLINE
  8
0
 62
7
  6
CONTINUOUS
 66
1
 70
0
  0
VERTEX
  8
0
 62
7
  6
CONTINUOUS
 10
133.0530789868
 20
224.2119271902
  0
VERTEX
  8
0
 62
7
  6
CONTINUOUS
 10
133.0329883006
 20
224.1117390065
  0
VERTEX
  8
0
 62
7
  6
CONTINUOUS
 10
133.003459437
 20
224.0213689911
  0
VERTEX
  8
0
 62
7
  6
CONTINUOUS
 10
132.9637986807
 20
223.9438373458
  0
VERTEX
  8
0
 62
7
  6
CONTINUOUS
 10
132.9136650161
 20
223.8807923938
  0
VERTEX
  8
0
 62
7
  6
CONTINUOUS
 10
132.8542511041
 20
223.8343733263
  0
VERTEX
  8
0
 62
7
  6
CONTINUOUS
 10
132.7882627499
 20
223.8056410847
  0
SEQEND
  0
POLYLINE
  8
DEFAULT_2
 62
8
  6
HIDDEN
 66
1
 70
0
  0
VERTEX
  8
DEFAULT_2
 62
8
  6
HIDDEN
 10
136.9323106377
 20
237.4933294253
  0
VERTEX
  8
DEFAULT_2
 62
8
  6
HIDDEN
 10
136.8886737298
 20
237.3344283595
  0
VERTEX
  8
DEFAULT_2
 62
8
  6
HIDDEN
 10
136.8213080303
 20
237.1809456527
  0
VERTEX
  8
DEFAULT_2
 62
8
  6
HIDDEN
 10
136.7338916548
 20
237.0383331651
  0
VERTEX
  8
DEFAULT_2
 62
8
  6
HIDDEN
 10
136.6323013622
 20
236.9119271902
  0
SEQEND
  0
POLYLINE
  8
DEFAULT_2
 62
8
  6
HIDDEN
 66
1
 70
0
  0
VERTEX
  8
DEFAULT_2
 62
8
  6
HIDDEN
 10
136.6323013622
 20
242.4095170111
  0
VERTEX
  8
DEFAULT_2
 62
8
  6
HIDDEN
 10
136.7339678104
 20
242.2830032885
  0
VERTEX
  8
DEFAULT_2
 62
8
  6
HIDDEN
 10
136.8213049479
 20
242.1405044221
  0
VERTEX
  8
DEFAULT_2
 62
8
  6
HIDDEN
 10
136.8886321751
 20
241.9871324909
  0
VERTEX
  8
DEFAULT_2
 62
8
  6
HIDDEN
 10
136.9323106377
 20
241.828114776
  0
SEQEND
  0
POLYLINE
  8
0
 62
7
  6
CONTINUOUS
 66
1
 70
0
  0
VERTEX
  8
0
 62
7
  6
CONTINUOUS
 10
137.180046261
 20
229.281905993
  0
VERTEX
  8
0
 62
7
  6
CONTINUOUS
 10
137.1663857555
 20
229.4404741534
  0
VERTEX
  8
0
 62
7
  6
CONTINUOUS
 10
137.1286549623
 20
229.5829972821
  0
VERTEX
  8
0
 62
7
  6
CONTINUOUS
 10
137.0707415331
 20
229.7095170111
  0
SEQEND
  0
POLYLINE
  8
0
 62
7
  6
CONTINUOUS
 66
1
 70
0
  0
VERTEX
  8
0
 62
7
  6
CONTINUOUS
 10
137.180046261
 20
241.981905993
  0
VERTEX
  8
0
 62
7
  6
CONTINUOUS
 10
137.1663857555
 20
242.1404741534
  0
VERTEX
  8
0
 62
7
  6
CONTINUOUS
 10
137.1286549623
 20
242.2829972821
  0
VERTEX
  8
0
 62
7
  6
CONTINUOUS
 10
137.0707415331
 20
242.4095170111
  0
SEQEND
  0
LINE
  8
DEFAULT_2
 62
8
  6
HIDDEN
 10
137.1800462611
 20
224.6395426966
 11
137.1678332667
 21
224.7933294253
  0
LINE
  8
DEFAULT_2
 62
8
  6
HIDDEN
 10
137.1800462611
 20
237.3395426966
 11
137.1678332667
 21
237.4933294253
  0
LINE
  8
DEFAULT_2
 62
8
  6
HIDDEN
 10
136.6323013622
 20
224.2119271902
 11
136.6323013622
 21
229.7095170111
  0
LINE
  8
DEFAULT_2
 62
8
  6
HIDDEN
 10
136.6323013622
 20
236.9119271902
 11
136.6323013622
 21
242.4095170111
  0
LINE
  8
DEFAULT_2
 62
8
  6
HIDDEN
 10
136.9323106377
 20
224.7933294253
 11
136.9323106377
 21
229.128114776
  0
LINE
  8
DEFAULT_2
 62
8
  6
HIDDEN
 10
136.9323106377
 20
237.4933294253
 11
136.9323106377
 21
241.828114776
  0
LINE
  8
0
 62
9
  6
CONTINUOUS
 10
137.0707415331
 20
224.2119271902
 11
137.0707415331
 21
229.7095170111
  0
LINE
  8
0
 62
9
  6
CONTINUOUS
 10
137.0707415331
 20
236.9119271902
 11
137.0707415331
 21
242.4095170111
  0
LINE
  8
DEFAULT_2
 62
8
  6
HIDDEN
 10
137.1678332667
 20
224.7933294253
 11
137.1678332667
 21
229.128114776
  0
LINE
  8
DEFAULT_2
 62
8
  6
HIDDEN
 10
137.1678332667
 20
237.4933294253
 11
137.1678332667
 21
241.828114776
  0
LINE
  8
0
 62
7
  6
CONTINUOUS
 10
137.1800462614
 20
224.6396271962
 11
137.1800462614
 21
229.281816045
  0
LINE
  8
0
 62
7
  6
CONTINUOUS
 10
137.1800462614
 20
237.3396271962
 11
137.1800462614
 21
241.981816045
  0
LINE
  8
DEFAULT_2
 62
8
  6
HIDDEN
 10
137.1678332667
 20
241.828114776
 11
137.180046261
 21
241.981905993
  0
LINE
  8
DEFAULT_2
 62
8
  6
HIDDEN
 10
137.1678332667
 20
229.128114776
 11
137.180046261
 21
229.281905993
  0
POLYLINE
  8
DEFAULT_2
 62
8
  6
HIDDEN
 66
1
 70
0
  0
VERTEX
  8
DEFAULT_2
 62
8
  6
HIDDEN
 10
136.9323106377
 20
224.7933294253
  0
VERTEX
  8
DEFAULT_2
 62
8
  6
HIDDEN
 10
136.8886737298
 20
224.6344283595
  0
VERTEX
  8
DEFAULT_2
 62
8
  6
HIDDEN
 10
136.8213080303
 20
224.4809456527
  0
VERTEX
  8
DEFAULT_2
 62
8
  6
HIDDEN
 10
136.7338916548
 20
224.3383331651
  0
VERTEX
  8
DEFAULT_2
 62
8
  6
HIDDEN
 10
136.6323013622
 20
224.2119271902
  0
SEQEND
  0
POLYLINE
  8
0
 62
7
  6
CONTINUOUS
 66
1
 70
0
  0
VERTEX
  8
0
 62
7
  6
CONTINUOUS
 10
137.0707415331
 20
224.2119271902
  0
VERTEX
  8
0
 62
7
  6
CONTINUOUS
 10
137.1286162665
 20
224.3383393519
  0
VERTEX
  8
0
 62
7
  6
CONTINUOUS
 10
137.166387117
 20
224.4809777996
  0
VERTEX
  8
0
 62
7
  6
CONTINUOUS
 10
137.1800462611
 20
224.6395426966
  0
SEQEND
  0
POLYLINE
  8
0
 62
7
  6
CONTINUOUS
 66
1
 70
0
  0
VERTEX
  8
0
 62
7
  6
CONTINUOUS
 10
137.0707415331
 20
242.4095170111
  0
VERTEX
  8
0
 62
7
  6
CONTINUOUS
 10
137.0051717363
 20
242.5096078786
  0
VERTEX
  8
0
 62
7
  6
CONTINUOUS
 10
136.9261183488
 20
242.6000135215
  0
VERTEX
  8
0
 62
7
  6
CONTINUOUS
 10
136.8350268697
 20
242.6775688328
  0
VERTEX
  8
0
 62
7
  6
CONTINUOUS
 10
136.7329295536
 20
242.7406041415
  0
VERTEX
  8
0
 62
7
  6
CONTINUOUS
 10
136.6228216628
 20
242.7870486478
  0
VERTEX
  8
0
 62
7
  6
CONTINUOUS
 10
136.5093777627
 20
242.8158031166
  0
SEQEND
  0
LINE
  8
0
 62
7
  6
CONTINUOUS
 10
63.3193305001
 20
134.3736538067
 11
63.0838078712
 21
133.0379386031
  0
LINE
  8
0
 62
7
  6
CONTINUOUS
 10
67.3160986555
 20
109.0354248228
 11
67.9942590373
 21
107.8608165859
  0
LINE
  8
CURVE
 62
2
  6
PHANTOM
 10
85.9675370471
 20
136.5127160572
 11
90.8081589554
 21
141.3533379654
  0
LINE
  8
CURVE
 62
2
  6
PHANTOM
 10
95.9935158865
 20
144.2759531968
 11
94.9328557147
 21
143.215293025
  0
LINE
  8
CURVE
 62
2
  6
PHANTOM
 10
83.0449218158
 20
131.3273591261
 11
84.1055819876
 21
132.3880192979
  0
LINE
  8
CURVE
 62
2
  6
PHANTOM
 10
85.9675370471
 20
117.8773928301
 11
90.8081589554
 21
113.0367709218
  0
LINE
  8
CURVE
 62
2
  6
PHANTOM
 10
84.1055819876
 20
122.0020895894
 11
83.0449218158
 21
123.0627497612
  0
LINE
  8
CURVE
 62
2
  6
PHANTOM
 10
94.9328557147
 20
111.1748158623
 11
95.9935158865
 21
110.1141556905
  0
LINE
  8
CURVE
 62
2
  6
PHANTOM
 10
96.1258205689
 20
139.0377737259
 11
96.1258205689
 21
142.3377737259
  0
LINE
  8
DEFAULT_1
 62
2
  6
CENTER
 10
100.1258205689
 20
167.2948358862
 11
100.1258205689
 21
129.1951544436
  0
LINE
  8
0
 62
2
  6
CONTINUOUS
 10
100.1258205689
 20
128.0750544436
 11
100.1258205689
 21
126.3150544436
  0
LINE
  8
DEFAULT_1
 62
2
  6
CENTER
 10
100.1258205689
 20
87.0203501094
 11
100.1258205689
 21
125.1949544436
  0
LINE
  8
DEFAULT_1
 62
2
  6
CENTER
 10
135.7138293217
 20
127.1950544436
 11
102.1259205689
 21
127.1950544436
  0
LINE
  8
0
 62
2
  6
CONTINUOUS
 10
101.0058205689
 20
127.1950544436
 11
99.2458205689
 21
127.1950544436
  0
LINE
  8
DEFAULT_1
 62
2
  6
CENTER
 10
60.6384682713
 20
127.1950544436
 11
98.1257205689
 21
127.1950544436
  0
LINE
  8
CURVE
 62
2
  6
PHANTOM
 10
104.1258205689
 20
142.3377737259
 11
104.1258205689
 21
139.0377737259
  0
LINE
  8
CURVE
 62
2
  6
PHANTOM
 10
117.2067193221
 20
123.0627497612
 11
116.1460591503
 21
122.0020895894
  0
LINE
  8
CURVE
 62
2
  6
PHANTOM
 10
104.2581252514
 20
110.1141556905
 11
105.3187854232
 21
111.1748158623
  0
LINE
  8
CURVE
 62
2
  6
PHANTOM
 10
109.4434821825
 20
113.0367709218
 11
114.2841040908
 21
117.8773928301
  0
LINE
  8
CURVE
 62
2
  6
PHANTOM
 10
96.1258205689
 20
142.3377737259
 11
104.1258205689
 21
142.3377737259
  0
LINE
  8
CURVE
 62
2
  6
PHANTOM
 10
105.3187854232
 20
143.215293025
 11
104.2581252514
 21
144.2759531968
  0
LINE
  8
CURVE
 62
2
  6
PHANTOM
 10
116.1460591503
 20
132.3880192979
 11
117.2067193221
 21
131.3273591261
  0
LINE
  8
CURVE
 62
2
  6
PHANTOM
 10
109.4434821825
 20
141.3533379654
 11
114.2841040908
 21
136.5127160572
  0
LINE
  8
DEFAULT_2
 62
8
  6
HIDDEN
 10
132.2573821005
 20
107.8608165859
 11
132.9355424824
 21
109.0354248228
  0
LINE
  8
0
 62
7
  6
CONTINUOUS
 10
124.7459150154
 20
155.4811101858
 11
123.7069130313
 21
156.3529363674
  0
LINE
  8
DEFAULT_2
 62
8
  6
HIDDEN
 10
137.1678332667
 20
133.0379386031
 11
136.9323106377
 21
134.3736538067
  0
ARC
  8
0
 62
7
  6
CONTINUOUS
 10
67.4820850814
 20
103.0880610006
 40
20.0
 50
337.309582213
 51
349.9641461547
  0
ARC
  8
0
 62
7
  6
CONTINUOUS
 10
77.7107243197
 20
100.0739699789
 40
9.9
 50
51.5172835232
 51
104.6825957279
  0
ARC
  8
0
 62
7
  6
CONTINUOUS
 10
77.3091069339
 20
100.4109669792
 40
9.9
 50
355.3174042721
 51
48.4827164768
  0
ARC
  8
0
 62
7
  6
CONTINUOUS
 10
62.9266840946
 20
110.9782469585
 40
20.0
 50
70.0358538453
 51
82.690417787
  0
ARC
  8
0
 62
7
  6
CONTINUOUS
 10
65.5217635901
 20
120.827244537
 40
9.9
 50
11.5172835232
 51
64.6825957279
  0
ARC
  8
0
 62
7
  6
CONTINUOUS
 10
65.4307243197
 20
121.3435538959
 40
9.9
 50
315.3174042721
 51
8.4827164768
  0
ARC
  8
CURVE
 62
2
  6
PHANTOM
 10
81.0339374769
 20
127.1950544436
 40
3.2
 50
92.2544307753
 51
267.7455692247
  0
ARC
  8
CURVE
 62
2
  6
PHANTOM
 10
80.782180116
 20
120.8000080614
 40
3.2
 50
45.0
 51
87.7455692247
  0
ARC
  8
0
 62
7
  6
CONTINUOUS
 10
69.6313014174
 20
110.2179409415
 40
3.0
 50
247.0392551632
 51
302.690417787
  0
ARC
  8
0
 62
7
  6
CONTINUOUS
 10
70.1759494174
 20
109.2745829333
 40
3.0
 50
117.309582213
 51
172.9607448368
  0
ARC
  8
0
 62
7
  6
CONTINUOUS
 10
68.8511006782
 20
108.3763962621
 40
1.0
 50
211.0362092247
 51
247.0392551632
  0
ARC
  8
0
 62
7
  6
CONTINUOUS
 10
68.1910245732
 20
109.5196816127
 40
1.0
 50
172.9607448368
 51
208.9637907753
  0
ARC
  8
0
 62
7
  6
CONTINUOUS
 10
82.053591704
 20
90.8611151678
 40
20.0
 50
110.0358538453
 51
122.690417787
  0
ARC
  8
0
 62
7
  6
CONTINUOUS
 10
90.614945088
 20
87.745037371
 40
20.0
 50
17.309582213
 51
29.9641461547
  0
ARC
  8
0
 62
7
  6
CONTINUOUS
 10
99.8636834374
 20
92.0109522592
 40
9.9
 50
35.3174042721
 51
88.4827164768
  0
ARC
  8
0
 62
7
  6
CONTINUOUS
 10
87.6783418347
 20
94.5883319112
 40
3.0
 50
287.0392551632
 51
342.690417787
  0
ARC
  8
0
 62
7
  6
CONTINUOUS
 10
88.7019452478
 20
94.2157707372
 40
3.0
 50
157.309582213
 51
212.9607448368
  0
ARC
  8
0
 62
7
  6
CONTINUOUS
 10
87.0238582065
 20
93.1276421225
 40
1.0
 50
212.9607448368
 51
248.9637907753
  0
ARC
  8
0
 62
7
  6
CONTINUOUS
 10
88.2643954965
 20
92.6761234745
 40
1.0
 50
251.0362092247
 51
287.0392551632
  0
ARC
  8
CURVE
 62
2
  6
PHANTOM
 10
93.7307741867
 20
107.8514139907
 40
3.2
 50
2.2544307753
 51
45.0
  0
ARC
  8
CURVE
 62
2
  6
PHANTOM
 10
92.6701140149
 20
108.9120741625
 40
3.2
 50
45.0
 51
86.4096221093
  0
ARC
  8
CURVE
 62
2
  6
PHANTOM
 10
93.0709006552
 20
115.2995126216
 40
3.2
 50
225.0
 51
266.4096221093
  0
ARC
  8
CURVE
 62
2
  6
PHANTOM
 10
88.2302787469
 20
120.1401345299
 40
3.2
 50
183.5903778907
 51
225.0
  0
ARC
  8
CURVE
 62
2
  6
PHANTOM
 10
81.8428402878
 20
119.7393478896
 40
3.2
 50
3.5903778907
 51
45.0
  0
ARC
  8
0
 62
7
  6
CONTINUOUS
 10
61.2056658638
 20
138.6834032013
 40
20.0
 50
30.0358538453
 51
42.690417787
  0
ARC
  8
0
 62
7
  6
CONTINUOUS
 10
59.623591704
 20
129.7110147815
 40
20.0
 50
297.309582213
 51
309.9641461547
  0
ARC
  8
0
 62
7
  6
CONTINUOUS
 10
69.5244257021
 20
144.5600881207
 40
9.9
 50
331.5172835232
 51
24.6825957279
  0
ARC
  8
0
 62
7
  6
CONTINUOUS
 10
69.7865628336
 20
145.014122951
 40
9.9
 50
275.3174042721
 51
328.4827164768
  0
ARC
  8
0
 62
7
  6
CONTINUOUS
 10
65.85298542
 20
133.7913300591
 40
3.0
 50
207.0392551632
 51
262.690417787
  0
ARC
  8
0
 62
7
  6
CONTINUOUS
 10
65.6638311546
 20
132.7185829129
 40
3.0
 50
77.309582213
 51
132.9607448368
  0
ARC
  8
0
 62
7
  6
CONTINUOUS
 10
64.0715948765
 20
132.8821283589
 40
1.0
 50
171.0362092247
 51
207.0392551632
  0
ARC
  8
0
 62
7
  6
CONTINUOUS
 10
64.300836902
 20
134.1822244904
 40
1.0
 50
132.9607448368
 51
168.9637907753
  0
ARC
  8
0
 62
7
  6
CONTINUOUS
 10
77.6958205689
 20
161.0130333815
 40
20.0
 50
350.0358538453
 51
2.690417787
  0
ARC
  8
0
 62
7
  6
CONTINUOUS
 10
70.7165413447
 20
155.1567227586
 40
20.0
 50
257.309582213
 51
269.9641461547
  0
ARC
  8
0
 62
7
  6
CONTINUOUS
 10
78.1113098888
 20
154.2782485067
 40
3.0
 50
167.0392551632
 51
222.690417787
  0
ARC
  8
0
 62
7
  6
CONTINUOUS
 10
77.2768607411
 20
153.5780625346
 40
3.0
 50
37.309582213
 51
92.9607448368
  0
ARC
  8
0
 62
7
  6
CONTINUOUS
 10
76.1622619744
 20
154.726815366
 40
1.0
 50
131.0362092247
 51
167.0392551632
  0
ARC
  8
0
 62
7
  6
CONTINUOUS
 10
77.1735572389
 20
155.5753928494
 40
1.0
 50
92.9607448368
 51
128.9637907753
  0
ARC
  8
CURVE
 62
2
  6
PHANTOM
 10
80.782180116
 20
133.5901008259
 40
3.2
 50
272.2544307753
 51
315.0
  0
ARC
  8
CURVE
 62
2
  6
PHANTOM
 10
81.8428402878
 20
134.6507609977
 40
3.2
 50
315.0
 51
356.4096221093
  0
ARC
  8
CURVE
 62
2
  6
PHANTOM
 10
88.2302787469
 20
134.2499743574
 40
3.2
 50
135.0
 51
176.4096221093
  0
ARC
  8
CURVE
 62
2
  6
PHANTOM
 10
93.0709006552
 20
139.0905962657
 40
3.2
 50
93.5903778907
 51
135.0
  0
ARC
  8
CURVE
 62
2
  6
PHANTOM
 10
92.6701140149
 20
145.4780347248
 40
3.2
 50
273.5903778907
 51
315.0
  0
ARC
  8
CURVE
 62
2
  6
PHANTOM
 10
93.7307741867
 20
146.5386948965
 40
3.2
 50
315.0
 51
357.7455692247
  0
ARC
  8
0
 62
7
  6
CONTINUOUS
 10
95.5704195821
 20
167.5188553718
 40
20.0
 50
217.309582213
 51
229.9641461547
  0
ARC
  8
0
 62
7
  6
CONTINUOUS
 10
87.8458205689
 20
160.167639456
 40
9.9
 50
291.5172835232
 51
344.6825957279
  0
ARC
  8
0
 62
7
  6
CONTINUOUS
 10
88.3384772251
 20
160.3469518146
 40
9.9
 50
235.3174042721
 51
288.4827164768
  0
ARC
  8
0
 62
7
  6
CONTINUOUS
 10
99.5811725689
 20
162.092639456
 40
3.0
 50
357.309582213
 51
52.9607448368
  0
ARC
  8
0
 62
7
  6
CONTINUOUS
 10
99.465744464
 20
163.689085456
 40
1.0
 50
91.0362092247
 51
127.0392551632
  0
ARC
  8
0
 62
7
  6
CONTINUOUS
 10
118.1980494338
 20
90.8611151678
 40
20.0
 50
57.309582213
 51
69.9641461547
  0
ARC
  8
0
 62
7
  6
CONTINUOUS
 10
109.6366960498
 20
87.745037371
 40
20.0
 50
150.0358538453
 51
162.690417787
  0
ARC
  8
0
 62
7
  6
CONTINUOUS
 10
100.3879577004
 20
92.0109522592
 40
9.9
 50
91.5172835232
 51
144.6825957279
  0
ARC
  8
0
 62
7
  6
CONTINUOUS
 10
112.5732993031
 20
94.5883319112
 40
3.0
 50
197.309582213
 51
252.9607448368
  0
ARC
  8
0
 62
7
  6
CONTINUOUS
 10
111.5496958901
 20
94.2157707372
 40
3.0
 50
327.0392551632
 51
22.690417787
  0
ARC
  8
0
 62
7
  6
CONTINUOUS
 10
111.9872456413
 20
92.6761234745
 40
1.0
 50
252.9607448368
 51
288.9637907753
  0
ARC
  8
0
 62
7
  6
CONTINUOUS
 10
113.2277829313
 20
93.1276421225
 40
1.0
 50
291.0362092247
 51
327.0392551632
  0
ARC
  8
CURVE
 62
2
  6
PHANTOM
 10
107.1807404827
 20
115.2995126216
 40
3.2
 50
273.5903778907
 51
315.0
  0
ARC
  8
CURVE
 62
2
  6
PHANTOM
 10
107.581527123
 20
108.9120741625
 40
3.2
 50
93.5903778907
 51
135.0
  0
ARC
  8
CURVE
 62
2
  6
PHANTOM
 10
106.5208669512
 20
107.8514139907
 40
3.2
 50
135.0
 51
177.7455692247
  0
ARC
  8
CURVE
 62
2
  6
PHANTOM
 10
100.1258205689
 20
108.1031713516
 40
3.2
 50
182.2544307753
 51
357.7455692247
  0
ARC
  8
0
 62
7
  6
CONTINUOUS
 10
100.1258205689
 20
127.1950544436
 40
37.5
 50
48.9637907753
 51
51.0362092247
  0
ARC
  8
0
 62
7
  6
CONTINUOUS
 10
100.1258205689
 20
127.1950544436
 40
37.5
 50
88.9637907753
 51
91.0362092247
  0
ARC
  8
0
 62
7
  6
CONTINUOUS
 10
100.1258205689
 20
127.1950544436
 40
37.5
 50
8.9637907753
 51
11.0362092247
  0
ARC
  8
0
 62
7
  6
CONTINUOUS
 10
100.1258205689
 20
127.1950544436
 40
37.5
 50
128.9637907753
 51
131.0362092247
  0
ARC
  8
0
 62
7
  6
CONTINUOUS
 10
100.1258205689
 20
127.1950544436
 40
37.5
 50
168.9637907753
 51
171.0362092247
  0
ARC
  8
0
 62
7
  6
CONTINUOUS
 10
100.1258205689
 20
127.1950544436
 40
37.5
 50
328.9637907753
 51
331.0362092247
  0
ARC
  8
0
 62
7
  6
CONTINUOUS
 10
100.1258205689
 20
127.1950544436
 40
37.5
 50
208.9637907753
 51
211.0362092247
  0
ARC
  8
0
 62
7
  6
CONTINUOUS
 10
100.1258205689
 20
127.1950544436
 40
37.5
 50
248.9637907753
 51
251.0362092247
  0
ARC
  8
0
 62
7
  6
CONTINUOUS
 10
100.1258205689
 20
127.1950544436
 40
37.5
 50
288.9637907753
 51
291.0362092247
  0
ARC
  8
0
 62
9
  6
CONTINUOUS
 10
100.1258205689
 20
127.1950544436
 40
36.656434465
 50
46.9954552837
 51
53.0045447163
  0
ARC
  8
0
 62
9
  6
CONTINUOUS
 10
100.1258205689
 20
127.1950544436
 40
36.656434465
 50
86.9954552837
 51
93.0045447163
  0
ARC
  8
0
 62
9
  6
CONTINUOUS
 10
100.1258205689
 20
127.1950544436
 40
36.656434465
 50
6.9954552837
 51
13.0045447163
  0
ARC
  8
0
 62
9
  6
CONTINUOUS
 10
100.1258205689
 20
127.1950544436
 40
36.656434465
 50
326.9954552837
 51
333.0045447163
  0
ARC
  8
0
 62
9
  6
CONTINUOUS
 10
100.1258205689
 20
127.1950544436
 40
36.656434465
 50
286.9954552837
 51
293.0045447163
  0
ARC
  8
0
 62
9
  6
CONTINUOUS
 10
100.1258205689
 20
127.1950544436
 40
36.656434465
 50
166.9954552837
 51
173.0045447163
  0
ARC
  8
0
 62
9
  6
CONTINUOUS
 10
100.1258205689
 20
127.1950544436
 40
36.656434465
 50
126.9954552837
 51
133.0045447163
  0
ARC
  8
0
 62
9
  6
CONTINUOUS
 10
100.1258205689
 20
127.1950544436
 40
36.656434465
 50
206.9954552837
 51
213.0045447163
  0
ARC
  8
0
 62
9
  6
CONTINUOUS
 10
100.1258205689
 20
127.1950544436
 40
36.656434465
 50
246.9954552837
 51
253.0045447163
  0
ARC
  8
0
 62
9
  6
CONTINUOUS
 10
100.1258205689
 20
127.1950544436
 40
34.556434465
 50
205.9499687088
 51
214.0500312912
  0
ARC
  8
0
 62
9
  6
CONTINUOUS
 10
100.1258205689
 20
127.1950544436
 40
34.556434465
 50
245.9499687088
 51
254.0500312912
  0
ARC
  8
0
 62
9
  6
CONTINUOUS
 10
100.1258205689
 20
127.1950544436
 40
34.556434465
 50
85.9499687088
 51
94.0500312912
  0
ARC
  8
0
 62
9
  6
CONTINUOUS
 10
100.1258205689
 20
127.1950544436
 40
34.556434465
 50
45.9499687088
 51
54.0500312912
  0
ARC
  8
0
 62
9
  6
CONTINUOUS
 10
100.1258205689
 20
127.1950544436
 40
34.556434465
 50
5.9499687088
 51
14.0500312912
  0
ARC
  8
0
 62
9
  6
CONTINUOUS
 10
100.1258205689
 20
127.1950544436
 40
34.556434465
 50
325.9499687088
 51
334.0500312912
  0
ARC
  8
0
 62
9
  6
CONTINUOUS
 10
100.1258205689
 20
127.1950544436
 40
34.556434465
 50
285.9499687088
 51
294.0500312912
  0
ARC
  8
0
 62
9
  6
CONTINUOUS
 10
100.1258205689
 20
127.1950544436
 40
34.556434465
 50
165.9499687088
 51
174.0500312912
  0
ARC
  8
0
 62
9
  6
CONTINUOUS
 10
100.1258205689
 20
127.1950544436
 40
34.556434465
 50
125.9499687088
 51
134.0500312912
  0
ARC
  8
0
 62
9
  6
CONTINUOUS
 10
100.1258205689
 20
127.1950544436
 40
34.4
 50
165.939022392
 51
174.060977608
  0
ARC
  8
0
 62
9
  6
CONTINUOUS
 10
100.1258205689
 20
127.1950544436
 40
34.4
 50
125.939022392
 51
134.060977608
  0
ARC
  8
0
 62
9
  6
CONTINUOUS
 10
100.1258205689
 20
127.1950544436
 40
34.4
 50
205.939022392
 51
214.060977608
  0
ARC
  8
0
 62
9
  6
CONTINUOUS
 10
100.1258205689
 20
127.1950544436
 40
34.4
 50
245.939022392
 51
254.060977608
  0
ARC
  8
0
 62
9
  6
CONTINUOUS
 10
100.1258205689
 20
127.1950544436
 40
34.4
 50
85.939022392
 51
94.060977608
  0
ARC
  8
0
 62
9
  6
CONTINUOUS
 10
100.1258205689
 20
127.1950544436
 40
34.4
 50
45.939022392
 51
54.060977608
  0
ARC
  8
0
 62
9
  6
CONTINUOUS
 10
100.1258205689
 20
127.1950544436
 40
34.4
 50
5.939022392
 51
14.060977608
  0
ARC
  8
0
 62
9
  6
CONTINUOUS
 10
100.1258205689
 20
127.1950544436
 40
34.4
 50
325.939022392
 51
334.060977608
  0
ARC
  8
0
 62
9
  6
CONTINUOUS
 10
100.1258205689
 20
127.1950544436
 40
34.4
 50
285.939022392
 51
294.060977608
  0
ARC
  8
0
 62
7
  6
CONTINUOUS
 10
100.1258205689
 20
127.1950544436
 40
28.9
 50
163.3499179478
 51
176.6500820522
  0
ARC
  8
0
 62
7
  6
CONTINUOUS
 10
100.1258205689
 20
127.1950544436
 40
28.9
 50
123.3499179478
 51
136.6500820522
  0
ARC
  8
0
 62
7
  6
CONTINUOUS
 10
100.1258205689
 20
127.1950544436
 40
28.9
 50
203.3499179478
 51
216.6500820522
  0
ARC
  8
0
 62
7
  6
CONTINUOUS
 10
100.1258205689
 20
127.1950544436
 40
28.9
 50
243.3499179478
 51
256.6500820522
  0
ARC
  8
0
 62
7
  6
CONTINUOUS
 10
100.1258205689
 20
127.1950544436
 40
28.9
 50
83.3499179478
 51
96.6500820522
  0
ARC
  8
0
 62
7
  6
CONTINUOUS
 10
100.1258205689
 20
127.1950544436
 40
28.9
 50
43.3499179478
 51
56.6500820522
  0
ARC
  8
0
 62
7
  6
CONTINUOUS
 10
100.1258205689
 20
127.1950544436
 40
28.9
 50
3.3499179478
 51
16.6500820522
  0
ARC
  8
0
 62
7
  6
CONTINUOUS
 10
100.1258205689
 20
127.1950544436
 40
28.9
 50
323.3499179478
 51
336.6500820522
  0
ARC
  8
0
 62
7
  6
CONTINUOUS
 10
100.1258205689
 20
127.1950544436
 40
28.9
 50
283.3499179478
 51
296.6500820522
  0
ARC
  8
0
 62
9
  6
CONTINUOUS
 10
100.1258205689
 20
127.1950544436
 40
27.9
 50
121.8553866175
 51
138.1446133825
  0
ARC
  8
0
 62
9
  6
CONTINUOUS
 10
100.1258205689
 20
127.1950544436
 40
27.9
 50
81.8553866175
 51
98.1446133825
  0
ARC
  8
0
 62
9
  6
CONTINUOUS
 10
100.1258205689
 20
127.1950544436
 40
27.9
 50
41.8553866101
 51
58.1446133899
  0
ARC
  8
0
 62
9
  6
CONTINUOUS
 10
100.1258205689
 20
127.1950544436
 40
27.8999999003
 50
321.8553866063
 51
338.1446133825
  0
ARC
  8
0
 62
9
  6
CONTINUOUS
 10
100.1258205689
 20
127.1950544436
 40
27.8999999003
 50
201.8553866175
 51
218.1446133825
  0
ARC
  8
0
 62
9
  6
CONTINUOUS
 10
100.1258205689
 20
127.1950544436
 40
27.8999998915
 50
281.8553866054
 51
298.1446133825
  0
ARC
  8
0
 62
9
  6
CONTINUOUS
 10
100.1258205689
 20
127.1950544436
 40
27.8999998915
 50
241.8553866175
 51
258.1446133825
  0
ARC
  8
0
 62
9
  6
CONTINUOUS
 10
100.1258205689
 20
127.1950544436
 40
27.8999998867
 50
1.8553866175
 51
18.144613392
  0
ARC
  8
0
 62
9
  6
CONTINUOUS
 10
100.1258205689
 20
127.1950544436
 40
27.8999998866
 50
161.8553866175
 51
178.1446133825
  0
ARC
  8
CURVE
 62
2
  6
PHANTOM
 10
100.1258205689
 20
127.1950544436
 40
12.5
 50
108.6629248849
 51
71.3370751151
  0
CIRCLE
  8
CURVE
 62
2
  6
DOT
 10
100.1258205689
 20
127.1950544436
 40
9.525
  0
ARC
  8
CURVE
 62
2
  6
PHANTOM
 10
118.4088008501
 20
119.7393478896
 40
3.2
 50
135.0
 51
176.4096221093
  0
ARC
  8
CURVE
 62
2
  6
PHANTOM
 10
112.021362391
 20
120.1401345299
 40
3.2
 50
315.0
 51
356.4096221093
  0
ARC
  8
0
 62
7
  6
CONTINUOUS
 10
132.7695560565
 20
103.0880610006
 40
20.0
 50
190.0358538453
 51
202.690417787
  0
ARC
  8
0
 62
7
  6
CONTINUOUS
 10
122.5409168181
 20
100.0739699789
 40
9.9
 50
75.3174042721
 51
128.4827164768
  0
ARC
  8
0
 62
7
  6
CONTINUOUS
 10
122.9425342039
 20
100.4109669792
 40
9.9
 50
131.5172835232
 51
184.6825957279
  0
ARC
  8
0
 62
7
  6
CONTINUOUS
 10
137.3249570433
 20
110.9782469585
 40
20.0
 50
97.309582213
 51
109.9641461547
  0
ARC
  8
0
 62
7
  6
CONTINUOUS
 10
134.7298775478
 20
120.827244537
 40
9.9
 50
115.3174042721
 51
168.4827164768
  0
ARC
  8
0
 62
7
  6
CONTINUOUS
 10
134.8209168181
 20
121.3435538959
 40
9.9
 50
171.5172835232
 51
224.6825957279
  0
ARC
  8
CURVE
 62
2
  6
PHANTOM
 10
119.217703661
 20
127.1950544436
 40
3.2
 50
272.2544307753
 51
87.7455692247
  0
ARC
  8
CURVE
 62
2
  6
PHANTOM
 10
119.4694610219
 20
120.8000080614
 40
3.2
 50
92.2544307753
 51
135.0
  0
ARC
  8
0
 62
7
  6
CONTINUOUS
 10
130.6203397204
 20
110.2179409415
 40
3.0
 50
237.309582213
 51
292.9607448368
  0
ARC
  8
0
 62
7
  6
CONTINUOUS
 10
130.0756917204
 20
109.2745829333
 40
3.0
 50
7.0392551632
 51
62.690417787
  0
ARC
  8
0
 62
7
  6
CONTINUOUS
 10
131.4005404597
 20
108.3763962621
 40
1.0
 50
292.9607448368
 51
328.9637907753
  0
ARC
  8
0
 62
7
  6
CONTINUOUS
 10
132.0606165647
 20
109.5196816127
 40
1.0
 50
331.0362092247
 51
7.0392551632
  0
ARC
  8
CURVE
 62
2
  6
PHANTOM
 10
119.4694610219
 20
133.5901008259
 40
3.2
 50
225.0
 51
267.7455692247
  0
ARC
  8
CURVE
 62
2
  6
PHANTOM
 10
100.1258205689
 20
146.2869375357
 40
3.2
 50
2.2544307753
 51
177.7455692247
  0
ARC
  8
CURVE
 62
2
  6
PHANTOM
 10
106.5208669512
 20
146.5386948965
 40
3.2
 50
182.2544307753
 51
225.0
  0
ARC
  8
CURVE
 62
2
  6
PHANTOM
 10
107.581527123
 20
145.4780347248
 40
3.2
 50
225.0
 51
266.4096221093
  0
ARC
  8
CURVE
 62
2
  6
PHANTOM
 10
107.1807404827
 20
139.0905962657
 40
3.2
 50
45.0
 51
86.4096221093
  0
ARC
  8
CURVE
 62
2
  6
PHANTOM
 10
112.021362391
 20
134.2499743574
 40
3.2
 50
3.5903778907
 51
45.0
  0
ARC
  8
CURVE
 62
2
  6
PHANTOM
 10
118.4088008501
 20
134.6507609977
 40
3.2
 50
183.5903778907
 51
225.0
  0
ARC
  8
0
 62
7
  6
CONTINUOUS
 10
104.6812215557
 20
167.5188553718
 40
20.0
 50
310.0358538453
 51
322.690417787
  0
ARC
  8
0
 62
7
  6
CONTINUOUS
 10
112.4058205689
 20
160.167639456
 40
9.9
 50
195.3174042721
 51
248.4827164768
  0
ARC
  8
0
 62
7
  6
CONTINUOUS
 10
111.9131639127
 20
160.3469518146
 40
9.9
 50
251.5172835232
 51
304.6825957279
  0
ARC
  8
0
 62
7
  6
CONTINUOUS
 10
100.6704685689
 20
162.092639456
 40
3.0
 50
127.0392551632
 51
182.690417787
  0
ARC
  8
0
 62
7
  6
CONTINUOUS
 10
100.7858966739
 20
163.689085456
 40
1.0
 50
52.9607448368
 51
88.9637907753
  0
ARC
  8
0
 62
7
  6
CONTINUOUS
 10
139.045975274
 20
138.6834032013
 40
20.0
 50
137.309582213
 51
149.9641461547
  0
ARC
  8
0
 62
7
  6
CONTINUOUS
 10
140.6280494338
 20
129.7110147815
 40
20.0
 50
230.0358538453
 51
242.690417787
  0
ARC
  8
0
 62
7
  6
CONTINUOUS
 10
130.7272154358
 20
144.5600881207
 40
9.9
 50
155.3174042721
 51
208.4827164768
  0
ARC
  8
0
 62
7
  6
CONTINUOUS
 10
130.4650783043
 20
145.014122951
 40
9.9
 50
211.5172835232
 51
264.6825957279
  0
ARC
  8
0
 62
7
  6
CONTINUOUS
 10
134.3986557179
 20
133.7913300591
 40
3.0
 50
277.309582213
 51
332.9607448368
  0
ARC
  8
0
 62
7
  6
CONTINUOUS
 10
134.5878099832
 20
132.7185829129
 40
3.0
 50
47.0392551632
 51
102.690417787
  0
ARC
  8
0
 62
7
  6
CONTINUOUS
 10
136.1800462614
 20
132.8821283589
 40
1.0
 50
332.9607448368
 51
8.9637907753
  0
ARC
  8
0
 62
7
  6
CONTINUOUS
 10
135.9508042359
 20
134.1822244904
 40
1.0
 50
11.0362092247
 51
47.0392551632
  0
ARC
  8
0
 62
7
  6
CONTINUOUS
 10
122.5558205689
 20
161.0130333815
 40
20.0
 50
177.309582213
 51
189.9641461547
  0
ARC
  8
0
 62
7
  6
CONTINUOUS
 10
129.5350997931
 20
155.1567227586
 40
20.0
 50
270.0358538453
 51
282.690417787
  0
ARC
  8
0
 62
7
  6
CONTINUOUS
 10
122.140331249
 20
154.2782485067
 40
3.0
 50
317.309582213
 51
12.9607448368
  0
ARC
  8
0
 62
7
  6
CONTINUOUS
 10
122.9747803968
 20
153.5780625346
 40
3.0
 50
87.0392551632
 51
142.690417787
  0
ARC
  8
0
 62
7
  6
CONTINUOUS
 10
124.0893791635
 20
154.726815366
 40
1.0
 50
12.9607448368
 51
48.9637907753
  0
ARC
  8
0
 62
7
  6
CONTINUOUS
 10
123.078083899
 20
155.5753928494
 40
1.0
 50
51.0362092247
 51
87.0392551632
  0
ENDSEC
  0
EOF
