  0
SECTION
  2
HEADER
  9
$EXTMAX
 10
420.0
 20
297.0
 30
0.0
  9
$EXTMIN
 10
0.0
 20
0.0
 30
0.0
  9
$LIMMIN
 10
0.0
 20
0.0
  9
$LIMMAX
 10
420.0
 20
297.0
  9
$VIEWCTR
 10
210.0
 20
148.5
  9
$VIEWSIZE
 40
297.0
  9
$CLAYER
  8
0
  9
$LTSCALE
 40
23.1
  9
$CELTYPE
  6
BYLAYER
  9
$DIMSCALE
 40
1.0
  9
$DIMASZ
 40
3.5
  9
$DIMEXO
 40
2.625
  9
$DIMDLI
 40
15.96
  9
$DIMEXE
 40
7.56
  9
$DIMCEN
 40
3.78
  9
$DIMLFAC
 40
1.0
  9
$DIMBLK
  1
_FILLED
  9
$DIMTXT
 40
3.5
  9
$PDMODE
 70
3
  9
$PDSIZE
 40
0.3125
  9
$TILEMODE
 70
1
  0
ENDSEC
  0
SECTION
  2
TABLES
  0
TABLE
  2
LTYPE
 70
6
  0
LTYPE
  2
BYBLOCK
 70
0
  3

 72
65
 73
0
 40
0.0
  0
LTYPE
  2
BYLAYER
 70
0
  3

 72
65
 73
0
 40
0.0
  0
LTYPE
  2
CONTINUOUS
 70
64
  3
Solid line
 72
65
 73
0
 40
0.0
  0
LTYPE
  2
CENTER
 70
64
  3
____ _ ____ _ ____ _ ____ _ ____ _ ____ _ ____
 72
65
 73
4
 40
0.6
 49
0.375
 49
-0.075
 49
0.075
 49
-0.075
  0
LTYPE
  2
HIDDEN
 70
64
  3
- - - - - - - - - - - - - - - - - - - -
 72
65
 73
2
 40
0.2
 49
0.1
 49
-0.1
  0
LTYPE
  2
PHANTOM
 70
64
  3
_____ _ _ _____ _ _ _____ _ _ _____
 72
65
 73
6
 40
0.8
 49
0.45
 49
-0.05
 49
0.1
 49
-0.05
 49
0.1
 49
-0.05
  0
LTYPE
  2
DOT
 70
64
  3
. . . . . . . . . . . . . . . . . . . .
 72
65
 73
2
 40
0.2
 49
0.1
 49
-0.1
  0
LTYPE
  2
DASHED
 70
64
  3
- - - - - - - - - - - - - - - - - - - -
 72
65
 73
2
 40
0.2
 49
0.1
 49
-0.1
  0
ENDTAB
  0
TABLE
  2
LAYER
 70
36
  0
LAYER
  2
0
 70
0
 62
7
  6
CONTINUOUS
  0
LAYER
  2
DEFAULT_1
 70
0
 62
7
  6
CENTER
  0
LAYER
  2
DEFAULT_2
 70
0
 62
8
  6
HIDDEN
  0
LAYER
  2
DEFAULT_3
 70
0
 62
7
  6
PHANTOM
  0
LAYER
  2
CURVE
 70
0
 62
7
  6
CONTINUOUS
  0
LAYER
  2
KERNETRAK
 70
0
 62
7
  6
CONTINUOUS
  0
LAYER
  2
SURFACE
 70
0
 62
7
  6
CONTINUOUS
  0
ENDTAB
  0
TABLE
  2
STYLE
 70
1
  0
STYLE
  2
STANDARD
 70
0
 40
0.0
 41
0.8
 50
0.0
 71
0
 42
0.2
  3
txt
  4

  0
STYLE
  2
TEXTSTYLE_1
 70
0
 40
0.0
 41
0.8
 50
0.0
 71
0
 42
0.2
  3
gdt
  4

  0
STYLE
  2
TEXTSTYLE_2
 70
0
 40
0.0
 41
0.6
 50
0.0
 71
0
 42
0.2
  3
txt
  4

  0
STYLE
  2
TEXTSTYLE_3
 70
0
 40
0.0
 41
1.0
 50
0.0
 71
0
 42
0.2
  3
ftb_____.ttf
  4

  0
STYLE
  2
TEXTSTYLE_4
 70
0
 40
0.0
 41
1.0
 50
0.0
 71
0
 42
0.2
  3
fti_____.ttf
  4

  0
STYLE
  2
TEXTSTYLE_5
 70
0
 40
0.0
 41
1.0
 50
0.0
 71
0
 42
0.2
  3
frutiger light.ttf
  4

  0
STYLE
  2
TEXTSTYLE_6
 70
0
 40
0.0
 41
0.7
 50
0.0
 71
0
 42
0.2
  3
txt
  4

  0
STYLE
  2
TEXTSTYLE_7
 70
0
 40
0.0
 41
0.36
 50
0.0
 71
0
 42
0.2
  3
txt
  4

  0
ENDTAB
  0
ENDSEC
  0
SECTION
  2
BLOCKS
  0
BLOCK
  8
0
 62
2
  6
CONTINUOUS
  2
SYMBOL_5_BL1
 70
64
 10
382.7840918555
 20
35.5067593403
  0
TEXT
  8
0
 62
7
  6
CONTINUOUS
 10
373.842376864
 20
30.5995157174
  7
TEXTSTYLE_4
 40
1.0655737705
  1
The brand for plastic modular belts and chains
 41
1.0
 72
0
  0
LINE
  8
0
 62
7
  6
CONTINUOUS
 10
358.7621602445
 20
36.0805298321
 11
358.7621602445
 21
33.9493822911
  0
LINE
  8
0
 62
7
  6
CONTINUOUS
 10
359.0512227376
 20
30.9584509954
 11
359.0512227376
 21
31.0552420547
  0
LINE
  8
0
 62
7
  6
CONTINUOUS
 10
358.7621602445
 20
31.0229783683
 11
358.8199727462
 21
30.8293962497
  0
LINE
  8
0
 62
7
  6
CONTINUOUS
 10
360.1556028675
 20
33.867415078
 11
360.1556028675
 21
36.0805298321
  0
LINE
  8
0
 62
7
  6
CONTINUOUS
 10
361.0746601894
 20
32.0231527829
 11
361.0746601894
 21
30.5067593403
  0
LINE
  8
0
 62
7
  6
CONTINUOUS
 10
361.3637227445
 20
30.5067593403
 11
361.3637227445
 21
31.2488242184
  0
LINE
  8
0
 62
7
  6
CONTINUOUS
 10
361.3637227445
 20
31.3778789641
 11
361.3637227445
 21
32.0231527829
  0
LINE
  8
0
 62
7
  6
CONTINUOUS
 10
358.8199727462
 20
31.216560532
 11
358.7621602445
 21
31.0229783683
  0
LINE
  8
0
 62
7
  6
CONTINUOUS
 10
359.1668477307
 20
30.7971325633
 11
359.0512227376
 21
30.9584509954
  0
LINE
  8
0
 62
7
  6
CONTINUOUS
 10
360.2652852997
 20
31.3133515913
 11
360.3230977445
 21
31.216560532
  0
LINE
  8
0
 62
7
  6
CONTINUOUS
 10
360.6121602997
 20
31.216560532
 11
360.5543476894
 21
31.3456152777
  0
LINE
  8
0
 62
7
  6
CONTINUOUS
 10
362.0408487691
 20
36.0805298321
 11
362.0408487691
 21
34.2772511436
  0
LINE
  8
0
 62
7
  6
CONTINUOUS
 10
362.0408487691
 20
32.9657757338
 11
362.0408487691
 21
32.3100380288
  0
LINE
  8
0
 62
7
  6
CONTINUOUS
 10
362.4043477445
 20
31.1520331591
 11
362.4043477445
 21
30.5067593403
  0
LINE
  8
0
 62
7
  6
CONTINUOUS
 10
362.6934101343
 20
30.5067593403
 11
362.6934101343
 21
31.1520331591
  0
LINE
  8
0
 62
7
  6
CONTINUOUS
 10
359.0512227376
 20
31.0552420547
 11
359.1090352445
 21
31.1842968456
  0
LINE
  8
0
 62
7
  6
CONTINUOUS
 10
358.8199727462
 20
30.8293962497
 11
358.9355977445
 21
30.7003414814
  0
LINE
  8
0
 62
7
  6
CONTINUOUS
 10
362.3465351343
 20
31.2810879048
 11
362.4043477445
 21
31.1520331591
  0
LINE
  8
0
 62
7
  6
CONTINUOUS
 10
363.1559103548
 20
30.7971325633
 11
363.2137226343
 21
30.668077795
  0
LINE
  8
0
 62
7
  6
CONTINUOUS
 10
362.6934101343
 20
31.1520331591
 11
362.6355978548
 21
31.3133515913
  0
LINE
  8
0
 62
7
  6
CONTINUOUS
 10
363.1559103548
 20
31.3456152777
 11
363.1559103548
 21
31.2810879048
  0
LINE
  8
0
 62
7
  6
CONTINUOUS
 10
363.1559103548
 20
30.8939236226
 11
363.1559103548
 21
30.7971325633
  0
LINE
  8
0
 62
7
  6
CONTINUOUS
 10
363.4342913921
 20
32.3100380288
 11
363.4342913921
 21
36.0805298321
  0
LINE
  8
0
 62
7
  6
CONTINUOUS
 10
363.4449727445
 20
30.7648688543
 11
363.4449727445
 21
30.8293962497
  0
LINE
  8
0
 62
7
  6
CONTINUOUS
 10
363.7621602445
 20
36.0805298321
 11
363.7621602445
 21
32.3100380288
  0
LINE
  8
0
 62
7
  6
CONTINUOUS
 10
360.5543476894
 20
30.7003414814
 11
360.6121602997
 21
30.8293962497
  0
LINE
  8
0
 62
7
  6
CONTINUOUS
 10
364.9480979651
 20
30.6035504109
 11
364.890285024
 21
30.7648688543
  0
LINE
  8
0
 62
7
  6
CONTINUOUS
 10
364.6012229651
 20
31.2810879048
 11
364.6012229651
 21
31.1842968456
  0
LINE
  8
0
 62
7
  6
CONTINUOUS
 10
364.6012229651
 20
31.0552420547
 11
364.6012229651
 21
30.8616599362
  0
LINE
  8
0
 62
7
  6
CONTINUOUS
 10
364.890285024
 20
30.7648688543
 11
364.890285024
 21
31.2810879048
  0
LINE
  8
0
 62
7
  6
CONTINUOUS
 10
365.1556028675
 20
32.3100380288
 11
365.1556028675
 21
34.1133167174
  0
LINE
  8
0
 62
7
  6
CONTINUOUS
 10
365.1556028675
 20
35.4247921272
 11
365.1556028675
 21
36.0805298321
  0
LINE
  8
0
 62
7
  6
CONTINUOUS
 10
365.4684104651
 20
32.0231527829
 11
365.4684104651
 21
31.8618343508
  0
LINE
  8
0
 62
7
  6
CONTINUOUS
 10
365.4684104651
 20
31.5391973962
 11
365.4684104651
 21
30.5067593403
  0
LINE
  8
0
 62
7
  6
CONTINUOUS
 10
365.757472524
 20
30.5067593403
 11
365.757472524
 21
31.5391973962
  0
LINE
  8
0
 62
7
  6
CONTINUOUS
 10
365.757472524
 20
31.8618343508
 11
365.757472524
 21
32.0231527829
  0
LINE
  8
0
 62
7
  6
CONTINUOUS
 10
360.3230977445
 20
30.8293962497
 11
360.2652852997
 21
30.7326051679
  0
LINE
  8
0
 62
7
  6
CONTINUOUS
 10
362.6355978548
 20
31.3133515913
 11
362.5777852445
 21
31.3778789641
  0
LINE
  8
0
 62
7
  6
CONTINUOUS
 10
363.5027853548
 20
30.7003414814
 11
363.4449727445
 21
30.7648688543
  0
LINE
  8
0
 62
7
  6
CONTINUOUS
 10
364.6590352445
 20
30.5712867188
 11
364.716847524
 21
30.5067593403
  0
LINE
  8
0
 62
7
  6
CONTINUOUS
 10
364.6012229651
 20
30.668077795
 11
364.6590352445
 21
30.5712867188
  0
LINE
  8
0
 62
7
  6
CONTINUOUS
 10
365.0059102445
 20
30.5067593403
 11
364.9480979651
 21
30.6035504109
  0
LINE
  8
0
 62
7
  6
CONTINUOUS
 10
364.890285024
 20
31.2810879048
 11
364.8324727445
 21
31.3778789641
  0
LINE
  8
0
 62
7
  6
CONTINUOUS
 10
366.2199727445
 20
31.5391973962
 11
366.2199727445
 21
30.5067593403
  0
LINE
  8
0
 62
7
  6
CONTINUOUS
 10
366.5090354651
 20
30.5067593403
 11
366.5090354651
 21
31.2488242184
  0
LINE
  8
0
 62
7
  6
CONTINUOUS
 10
366.5090354651
 20
31.3778789641
 11
366.5090354651
 21
31.5391973962
  0
LINE
  8
0
 62
7
  6
CONTINUOUS
 10
367.0408487691
 20
34.5231527829
 11
367.0408487691
 21
32.3100380288
  0
LINE
  8
0
 62
7
  6
CONTINUOUS
 10
358.9355977445
 20
31.3456152777
 11
358.8199727462
 21
31.216560532
  0
LINE
  8
0
 62
7
  6
CONTINUOUS
 10
359.1090352445
 20
31.1842968456
 11
359.1668477307
 21
31.2488242184
  0
LINE
  8
0
 62
7
  6
CONTINUOUS
 10
358.9355977445
 20
30.7003414814
 11
359.0512227376
 21
30.6358140973
  0
LINE
  8
0
 62
7
  6
CONTINUOUS
 10
359.3402852307
 20
30.7003414814
 11
359.1668477307
 21
30.7971325633
  0
LINE
  8
0
 62
7
  6
CONTINUOUS
 10
364.543410024
 20
31.3456152777
 11
364.6012229651
 21
31.2810879048
  0
LINE
  8
0
 62
7
  6
CONTINUOUS
 10
367.491847524
 20
31.2810879048
 11
367.5496604651
 21
31.1197694727
  0
LINE
  8
0
 62
7
  6
CONTINUOUS
 10
367.838722524
 20
31.1197694727
 11
367.7809102445
 21
31.2810879048
  0
LINE
  8
0
 62
7
  6
CONTINUOUS
 10
367.5496604651
 20
31.1197694727
 11
367.5496604651
 21
30.5067593403
  0
LINE
  8
0
 62
7
  6
CONTINUOUS
 10
367.838722524
 20
30.5067593403
 11
367.838722524
 21
31.1197694727
  0
LINE
  8
0
 62
7
  6
CONTINUOUS
 10
368.3012227445
 20
31.3456152777
 11
368.3012227445
 21
31.2810879048
  0
LINE
  8
0
 62
7
  6
CONTINUOUS
 10
368.4342913921
 20
32.3100380288
 11
368.4342913921
 21
34.4411855698
  0
LINE
  8
0
 62
7
  6
CONTINUOUS
 10
368.7621602445
 20
36.0805298321
 11
368.7621602445
 21
32.3100380288
  0
LINE
  8
0
 62
7
  6
CONTINUOUS
 10
363.4449727445
 20
30.8293962497
 11
363.5027853548
 21
30.926187309
  0
LINE
  8
0
 62
7
  6
CONTINUOUS
 10
359.0512227376
 20
30.6358140973
 11
359.2246602583
 21
30.5712867188
  0
LINE
  8
0
 62
7
  6
CONTINUOUS
 10
360.5543476894
 20
31.3456152777
 11
360.3809101894
 21
31.4424063369
  0
LINE
  8
0
 62
7
  6
CONTINUOUS
 10
363.2137226343
 20
30.668077795
 11
363.3871601343
 21
30.5712867188
  0
LINE
  8
0
 62
7
  6
CONTINUOUS
 10
362.2309102445
 20
31.3456152777
 11
362.3465351343
 21
31.2810879048
  0
LINE
  8
0
 62
7
  6
CONTINUOUS
 10
362.5777852445
 20
31.3778789641
 11
362.4621603548
 21
31.4424063369
  0
LINE
  8
0
 62
7
  6
CONTINUOUS
 10
368.3012227445
 20
30.7648688543
 11
368.4168479651
 21
30.6358140973
  0
LINE
  8
0
 62
7
  6
CONTINUOUS
 10
368.6480977445
 20
30.7003414814
 11
368.5902854651
 21
30.7648688543
  0
LINE
  8
0
 62
7
  6
CONTINUOUS
 10
368.3012227445
 20
31.2810879048
 11
368.4168479651
 21
31.1520331591
  0
LINE
  8
0
 62
7
  6
CONTINUOUS
 10
367.7809102445
 20
31.2810879048
 11
367.7230979651
 21
31.3778789641
  0
LINE
  8
0
 62
7
  6
CONTINUOUS
 10
370.1512223035
 20
30.7003414814
 11
370.1512223035
 21
30.7648688543
  0
LINE
  8
0
 62
7
  6
CONTINUOUS
 10
370.1556028675
 20
32.3100380288
 11
370.1556028675
 21
36.0805298321
  0
LINE
  8
0
 62
7
  6
CONTINUOUS
 10
363.2137226343
 20
31.4101426505
 11
363.1559103548
 21
31.3456152777
  0
LINE
  8
0
 62
7
  6
CONTINUOUS
 10
360.091847717
 20
31.3778789641
 11
360.2652852997
 21
31.3133515913
  0
LINE
  8
0
 62
7
  6
CONTINUOUS
 10
364.8324727445
 20
31.3778789641
 11
364.716847524
 21
31.4424063369
  0
LINE
  8
0
 62
7
  6
CONTINUOUS
 10
368.6480977445
 20
31.216560532
 11
368.5902854651
 21
31.2810879048
  0
LINE
  8
0
 62
7
  6
CONTINUOUS
 10
369.8043479651
 20
30.8293962497
 11
369.8621602445
 21
30.7648688543
  0
LINE
  8
0
 62
7
  6
CONTINUOUS
 10
370.1512223035
 20
30.7648688543
 11
370.0355977445
 21
30.8939236226
  0
LINE
  8
0
 62
7
  6
CONTINUOUS
 10
369.8043479651
 20
31.3456152777
 11
369.8621602445
 21
31.2810879048
  0
LINE
  8
0
 62
7
  6
CONTINUOUS
 10
370.1512223035
 20
31.2810879048
 11
370.0355977445
 21
31.4101426505
  0
LINE
  8
0
 62
7
  6
CONTINUOUS
 10
363.4449727445
 20
31.2810879048
 11
363.5027853548
 21
31.3456152777
  0
LINE
  8
0
 62
7
  6
CONTINUOUS
 10
363.2715352445
 20
31.0229783683
 11
363.1559103548
 21
30.8939236226
  0
LINE
  8
0
 62
7
  6
CONTINUOUS
 10
364.6012229651
 20
30.8616599362
 11
364.543410024
 21
30.7971325633
  0
LINE
  8
0
 62
7
  6
CONTINUOUS
 10
364.543410024
 20
30.6035504109
 11
364.6012229651
 21
30.668077795
  0
LINE
  8
0
 62
7
  6
CONTINUOUS
 10
363.3871601343
 20
30.5712867188
 11
363.5027853548
 21
30.5390230296
  0
LINE
  8
0
 62
7
  6
CONTINUOUS
 10
360.3809101894
 20
31.4424063369
 11
360.1496602445
 21
31.5069337098
  0
LINE
  8
0
 62
7
  6
CONTINUOUS
 10
363.7340351343
 20
30.6358140973
 11
363.5027853548
 21
30.7003414814
  0
LINE
  8
0
 62
7
  6
CONTINUOUS
 10
362.4621603548
 20
31.4424063369
 11
362.2887228548
 21
31.5069337098
  0
LINE
  8
0
 62
7
  6
CONTINUOUS
 10
364.716847524
 20
31.4424063369
 11
364.543410024
 21
31.5069337098
  0
LINE
  8
0
 62
7
  6
CONTINUOUS
 10
367.3762229651
 20
31.3456152777
 11
367.491847524
 21
31.2810879048
  0
LINE
  8
0
 62
7
  6
CONTINUOUS
 10
367.7230979651
 20
31.3778789641
 11
367.6074727445
 21
31.4424063369
  0
LINE
  8
0
 62
7
  6
CONTINUOUS
 10
359.2246602583
 20
30.5712867188
 11
359.3980977583
 21
30.5390230296
  0
LINE
  8
0
 62
7
  6
CONTINUOUS
 10
359.6871602721
 20
30.6358140973
 11
359.3402852307
 21
30.7003414814
  0
LINE
  8
0
 62
7
  6
CONTINUOUS
 10
362.1152853548
 20
31.3778789641
 11
362.2309102445
 21
31.3456152777
  0
LINE
  8
0
 62
7
  6
CONTINUOUS
 10
364.4277854651
 20
31.3778789641
 11
364.543410024
 21
31.3456152777
  0
LINE
  8
0
 62
7
  6
CONTINUOUS
 10
368.7637229651
 20
30.668077795
 11
368.6480977445
 21
30.7003414814
  0
LINE
  8
0
 62
7
  6
CONTINUOUS
 10
367.2605977445
 20
31.3778789641
 11
367.3762229651
 21
31.3456152777
  0
LINE
  8
0
 62
7
  6
CONTINUOUS
 10
368.4168479651
 20
30.6358140973
 11
368.5902854651
 21
30.5712867188
  0
LINE
  8
0
 62
7
  6
CONTINUOUS
 10
367.6074727445
 20
31.4424063369
 11
367.4340352445
 21
31.5069337098
  0
LINE
  8
0
 62
7
  6
CONTINUOUS
 10
368.8215352445
 20
31.1520331591
 11
368.6480977445
 21
31.216560532
  0
LINE
  8
0
 62
7
  6
CONTINUOUS
 10
369.6309104651
 20
30.8939236226
 11
369.8043479651
 21
30.8293962497
  0
LINE
  8
0
 62
7
  6
CONTINUOUS
 10
370.0355977445
 20
31.4101426505
 11
369.8621602445
 21
31.4746700234
  0
LINE
  8
0
 62
7
  6
CONTINUOUS
 10
368.4168479651
 20
31.1520331591
 11
368.6480977445
 21
31.0552420547
  0
LINE
  8
0
 62
7
  6
CONTINUOUS
 10
370.0355977445
 20
30.8939236226
 11
369.8043479651
 21
30.9907146818
  0
LINE
  8
0
 62
7
  6
CONTINUOUS
 10
368.5902854651
 20
31.2810879048
 11
368.6480977445
 21
31.3456152777
  0
LINE
  8
0
 62
7
  6
CONTINUOUS
 10
359.0512227376
 20
31.4101426505
 11
358.9355977445
 21
31.3456152777
  0
LINE
  8
0
 62
7
  6
CONTINUOUS
 10
359.1668477307
 20
31.2488242184
 11
359.3402852307
 21
31.3456152777
  0
LINE
  8
0
 62
7
  6
CONTINUOUS
 10
361.4793477997
 20
31.4424063369
 11
361.3637227445
 21
31.3778789641
  0
LINE
  8
0
 62
7
  6
CONTINUOUS
 10
361.3637227445
 20
31.2488242184
 11
361.4793477997
 21
31.3133515913
  0
LINE
  8
0
 62
7
  6
CONTINUOUS
 10
360.3809101894
 20
30.6035504109
 11
360.5543476894
 21
30.7003414814
  0
LINE
  8
0
 62
7
  6
CONTINUOUS
 10
359.3980977583
 20
30.5390230296
 11
359.744972717
 21
30.5067593403
  0
LINE
  8
0
 62
7
  6
CONTINUOUS
 10
363.5027853548
 20
30.5390230296
 11
363.7340351343
 21
30.5067593403
  0
LINE
  8
0
 62
7
  6
CONTINUOUS
 10
361.8840352445
 20
31.4101426505
 11
362.1152853548
 21
31.3778789641
  0
LINE
  8
0
 62
7
  6
CONTINUOUS
 10
364.1965353548
 20
31.4101426505
 11
364.4277854651
 21
31.3778789641
  0
LINE
  8
0
 62
7
  6
CONTINUOUS
 10
368.6480977445
 20
31.0552420547
 11
369.6309104651
 21
30.8939236226
  0
LINE
  8
0
 62
7
  6
CONTINUOUS
 10
369.8043479651
 20
30.9907146818
 11
368.8215352445
 21
31.1520331591
  0
LINE
  8
0
 62
7
  6
CONTINUOUS
 10
362.2887228548
 20
31.5069337098
 11
362.1152853548
 21
31.5391973962
  0
LINE
  8
0
 62
7
  6
CONTINUOUS
 10
368.5902854651
 20
30.5712867188
 11
368.7637229651
 21
30.5390230296
  0
LINE
  8
0
 62
7
  6
CONTINUOUS
 10
367.4340352445
 20
31.5069337098
 11
367.2605977445
 21
31.5391973962
  0
LINE
  8
0
 62
7
  6
CONTINUOUS
 10
369.6887227445
 20
31.3778789641
 11
369.8043479651
 21
31.3456152777
  0
LINE
  8
0
 62
7
  6
CONTINUOUS
 10
369.8621602445
 20
30.7648688543
 11
369.8043479651
 21
30.7003414814
  0
LINE
  8
0
 62
7
  6
CONTINUOUS
 10
368.4168479651
 20
31.4424063369
 11
368.3012227445
 21
31.3456152777
  0
LINE
  8
0
 62
7
  6
CONTINUOUS
 10
363.3293478548
 20
31.4746700234
 11
363.2137226343
 21
31.4101426505
  0
LINE
  8
0
 62
7
  6
CONTINUOUS
 10
363.3871601343
 20
31.0875057863
 11
363.2715352445
 21
31.0229783683
  0
LINE
  8
0
 62
7
  6
CONTINUOUS
 10
363.5027853548
 20
30.926187309
 11
363.6184102445
 21
30.9907146818
  0
LINE
  8
0
 62
7
  6
CONTINUOUS
 10
361.0746601894
 20
30.5067593403
 11
361.3637227445
 21
30.5067593403
  0
LINE
  8
0
 62
7
  6
CONTINUOUS
 10
362.4043477445
 20
30.5067593403
 11
362.6934101343
 21
30.5067593403
  0
LINE
  8
0
 62
7
  6
CONTINUOUS
 10
363.7340351343
 20
30.5067593403
 11
364.0809101343
 21
30.5067593403
  0
LINE
  8
0
 62
7
  6
CONTINUOUS
 10
364.716847524
 20
30.5067593403
 11
365.0059102445
 21
30.5067593403
  0
LINE
  8
0
 62
7
  6
CONTINUOUS
 10
365.4684104651
 20
30.5067593403
 11
365.757472524
 21
30.5067593403
  0
LINE
  8
0
 62
7
  6
CONTINUOUS
 10
366.2199727445
 20
30.5067593403
 11
366.5090354651
 21
30.5067593403
  0
LINE
  8
0
 62
7
  6
CONTINUOUS
 10
367.5496604651
 20
30.5067593403
 11
367.838722524
 21
30.5067593403
  0
LINE
  8
0
 62
7
  6
CONTINUOUS
 10
369.1105979651
 20
30.5067593403
 11
369.4574729651
 21
30.5067593403
  0
LINE
  8
0
 62
7
  6
CONTINUOUS
 10
369.4574729651
 20
30.6358140973
 11
369.1105979651
 21
30.6358140973
  0
LINE
  8
0
 62
7
  6
CONTINUOUS
 10
364.0809101343
 20
30.6358140973
 11
363.7340351343
 21
30.6358140973
  0
LINE
  8
0
 62
7
  6
CONTINUOUS
 10
368.5902854651
 20
30.7648688543
 11
368.3012227445
 21
30.7648688543
  0
LINE
  8
0
 62
7
  6
CONTINUOUS
 10
360.6121602997
 20
30.8293962497
 11
360.3230977445
 21
30.8293962497
  0
LINE
  8
0
 62
7
  6
CONTINUOUS
 10
359.6871602721
 20
31.4101426505
 11
360.091847717
 21
31.3778789641
  0
LINE
  8
0
 62
7
  6
CONTINUOUS
 10
360.1496602445
 20
31.5069337098
 11
359.744972717
 21
31.5391973962
  0
LINE
  8
0
 62
7
  6
CONTINUOUS
 10
368.7637229651
 20
30.5390230296
 11
369.1105979651
 21
30.5067593403
  0
LINE
  8
0
 62
7
  6
CONTINUOUS
 10
369.1105979651
 20
30.6358140973
 11
368.7637229651
 21
30.668077795
  0
LINE
  8
0
 62
7
  6
CONTINUOUS
 10
364.543410024
 20
31.5069337098
 11
364.1965353548
 21
31.5391973962
  0
LINE
  8
0
 62
7
  6
CONTINUOUS
 10
369.3418477445
 20
31.4101426505
 11
369.6887227445
 21
31.3778789641
  0
LINE
  8
0
 62
7
  6
CONTINUOUS
 10
369.6887227445
 20
31.5069337098
 11
369.3418477445
 21
31.5391973962
  0
LINE
  8
0
 62
7
  6
CONTINUOUS
 10
367.0293479651
 20
31.4101426505
 11
367.2605977445
 21
31.3778789641
  0
LINE
  8
0
 62
7
  6
CONTINUOUS
 10
369.8621602445
 20
31.4746700234
 11
369.6887227445
 21
31.5069337098
  0
LINE
  8
0
 62
7
  6
CONTINUOUS
 10
370.0355977445
 20
30.6035504109
 11
370.1512223035
 21
30.7003414814
  0
LINE
  8
0
 62
7
  6
CONTINUOUS
 10
364.543410024
 20
30.7971325633
 11
364.369972524
 21
30.7003414814
  0
LINE
  8
0
 62
7
  6
CONTINUOUS
 10
366.624660024
 20
31.4424063369
 11
366.5090354651
 21
31.3778789641
  0
LINE
  8
0
 62
7
  6
CONTINUOUS
 10
366.5090354651
 20
31.2488242184
 11
366.624660024
 21
31.3133515913
  0
LINE
  8
0
 62
7
  6
CONTINUOUS
 10
359.2246602583
 20
31.4746700234
 11
359.0512227376
 21
31.4101426505
  0
LINE
  8
0
 62
7
  6
CONTINUOUS
 10
361.6527851343
 20
31.5069337098
 11
361.4793477997
 21
31.4424063369
  0
LINE
  8
0
 62
7
  6
CONTINUOUS
 10
361.4793477997
 20
31.3133515913
 11
361.6527851343
 21
31.3778789641
  0
LINE
  8
0
 62
7
  6
CONTINUOUS
 10
360.2652852997
 20
30.7326051679
 11
360.091847717
 21
30.668077795
  0
LINE
  8
0
 62
7
  6
CONTINUOUS
 10
369.6887227445
 20
30.668077795
 11
369.4574729651
 21
30.6358140973
  0
LINE
  8
0
 62
7
  6
CONTINUOUS
 10
364.0809101343
 20
30.5067593403
 11
364.369972524
 21
30.5390230296
  0
LINE
  8
0
 62
7
  6
CONTINUOUS
 10
369.4574729651
 20
30.5067593403
 11
369.8043479651
 21
30.5390230296
  0
LINE
  8
0
 62
7
  6
CONTINUOUS
 10
359.744972717
 20
30.5067593403
 11
360.1496602445
 21
30.5390230296
  0
LINE
  8
0
 62
7
  6
CONTINUOUS
 10
360.091847717
 20
30.668077795
 11
359.6871602721
 21
30.6358140973
  0
LINE
  8
0
 62
7
  6
CONTINUOUS
 10
363.9652852445
 20
31.0552420547
 11
364.6012229651
 21
31.0552420547
  0
LINE
  8
0
 62
7
  6
CONTINUOUS
 10
364.6012229651
 20
31.1842968456
 11
363.9652852445
 21
31.1842968456
  0
LINE
  8
0
 62
7
  6
CONTINUOUS
 10
360.3230977445
 20
31.216560532
 11
360.6121602997
 21
31.216560532
  0
LINE
  8
0
 62
7
  6
CONTINUOUS
 10
363.1559103548
 20
31.2810879048
 11
363.4449727445
 21
31.2810879048
  0
LINE
  8
0
 62
7
  6
CONTINUOUS
 10
369.8621602445
 20
31.2810879048
 11
370.1512223035
 21
31.2810879048
  0
LINE
  8
0
 62
7
  6
CONTINUOUS
 10
363.8496603548
 20
31.4101426505
 11
364.1965353548
 21
31.4101426505
  0
LINE
  8
0
 62
7
  6
CONTINUOUS
 10
368.9949727445
 20
31.4101426505
 11
369.3418477445
 21
31.4101426505
  0
LINE
  8
0
 62
7
  6
CONTINUOUS
 10
369.3418477445
 20
31.5391973962
 11
368.9949727445
 21
31.5391973962
  0
LINE
  8
0
 62
7
  6
CONTINUOUS
 10
367.2605977445
 20
31.5391973962
 11
367.0293479651
 21
31.5391973962
  0
LINE
  8
0
 62
7
  6
CONTINUOUS
 10
366.5090354651
 20
31.5391973962
 11
366.2199727445
 21
31.5391973962
  0
LINE
  8
0
 62
7
  6
CONTINUOUS
 10
365.757472524
 20
31.5391973962
 11
365.4684104651
 21
31.5391973962
  0
LINE
  8
0
 62
7
  6
CONTINUOUS
 10
364.1965353548
 20
31.5391973962
 11
363.8496603548
 21
31.5391973962
  0
LINE
  8
0
 62
7
  6
CONTINUOUS
 10
362.1152853548
 20
31.5391973962
 11
361.8840352445
 21
31.5391973962
  0
LINE
  8
0
 62
7
  6
CONTINUOUS
 10
365.4684104651
 20
31.8618343508
 11
365.757472524
 21
31.8618343508
  0
LINE
  8
0
 62
7
  6
CONTINUOUS
 10
365.757472524
 20
32.0231527829
 11
365.4684104651
 21
32.0231527829
  0
LINE
  8
0
 62
7
  6
CONTINUOUS
 10
361.3637227445
 20
32.0231527829
 11
361.0746601894
 21
32.0231527829
  0
LINE
  8
0
 62
7
  6
CONTINUOUS
 10
360.4015045068
 20
32.3100380288
 11
360.8140758554
 21
32.3100380288
  0
LINE
  8
0
 62
7
  6
CONTINUOUS
 10
362.0408487691
 20
32.3100380288
 11
363.4342913921
 21
32.3100380288
  0
LINE
  8
0
 62
7
  6
CONTINUOUS
 10
363.7621602445
 20
32.3100380288
 11
365.1556028675
 21
32.3100380288
  0
LINE
  8
0
 62
7
  6
CONTINUOUS
 10
367.0408487691
 20
32.3100380288
 11
368.4342913921
 21
32.3100380288
  0
LINE
  8
0
 62
7
  6
CONTINUOUS
 10
368.7621602445
 20
32.3100380288
 11
370.1556028675
 21
32.3100380288
  0
LINE
  8
0
 62
7
  6
CONTINUOUS
 10
366.798097524
 20
31.5069337098
 11
366.624660024
 21
31.4424063369
  0
LINE
  8
0
 62
7
  6
CONTINUOUS
 10
364.369972524
 20
30.5390230296
 11
364.543410024
 21
30.6035504109
  0
LINE
  8
0
 62
7
  6
CONTINUOUS
 10
369.8043479651
 20
30.5390230296
 11
370.0355977445
 21
30.6035504109
  0
LINE
  8
0
 62
7
  6
CONTINUOUS
 10
369.8043479651
 20
30.7003414814
 11
369.6887227445
 21
30.668077795
  0
LINE
  8
0
 62
7
  6
CONTINUOUS
 10
368.7637229651
 20
31.3778789641
 11
368.9949727445
 21
31.4101426505
  0
LINE
  8
0
 62
7
  6
CONTINUOUS
 10
366.798097524
 20
31.3778789641
 11
367.0293479651
 21
31.4101426505
  0
LINE
  8
0
 62
7
  6
CONTINUOUS
 10
363.7340351343
 20
31.0229783683
 11
363.9652852445
 21
31.0552420547
  0
LINE
  8
0
 62
7
  6
CONTINUOUS
 10
367.0293479651
 20
31.5391973962
 11
366.798097524
 21
31.5069337098
  0
LINE
  8
0
 62
7
  6
CONTINUOUS
 10
363.6184102445
 20
31.3778789641
 11
363.8496603548
 21
31.4101426505
  0
LINE
  8
0
 62
7
  6
CONTINUOUS
 10
368.9949727445
 20
31.5391973962
 11
368.6480977445
 21
31.5069337098
  0
LINE
  8
0
 62
7
  6
CONTINUOUS
 10
363.9652852445
 20
31.1842968456
 11
363.6184102445
 21
31.1520331591
  0
LINE
  8
0
 62
7
  6
CONTINUOUS
 10
359.744972717
 20
31.5391973962
 11
359.3980977583
 21
31.5069337098
  0
LINE
  8
0
 62
7
  6
CONTINUOUS
 10
363.8496603548
 20
31.5391973962
 11
363.4449727445
 21
31.5069337098
  0
LINE
  8
0
 62
7
  6
CONTINUOUS
 10
361.221176638
 20
33.4575790124
 11
360.565438933
 21
33.4575790124
  0
LINE
  8
0
 62
7
  6
CONTINUOUS
 10
366.624660024
 20
31.3133515913
 11
366.798097524
 21
31.3778789641
  0
LINE
  8
0
 62
7
  6
CONTINUOUS
 10
368.6480977445
 20
31.3456152777
 11
368.7637229651
 21
31.3778789641
  0
LINE
  8
0
 62
7
  6
CONTINUOUS
 10
368.6480977445
 20
31.5069337098
 11
368.4168479651
 21
31.4424063369
  0
LINE
  8
0
 62
7
  6
CONTINUOUS
 10
364.369972524
 20
30.7003414814
 11
364.0809101343
 21
30.6358140973
  0
LINE
  8
0
 62
7
  6
CONTINUOUS
 10
361.6527851343
 20
31.3778789641
 11
361.8840352445
 21
31.4101426505
  0
LINE
  8
0
 62
7
  6
CONTINUOUS
 10
361.8840352445
 20
31.5391973962
 11
361.6527851343
 21
31.5069337098
  0
LINE
  8
0
 62
7
  6
CONTINUOUS
 10
359.4559102445
 20
31.3778789641
 11
359.6871602721
 21
31.4101426505
  0
LINE
  8
0
 62
7
  6
CONTINUOUS
 10
365.9752749986
 20
34.9329888485
 11
366.6310127035
 21
34.9329888485
  0
LINE
  8
0
 62
7
  6
CONTINUOUS
 10
363.6184102445
 20
30.9907146818
 11
363.7340351343
 21
31.0229783683
  0
LINE
  8
0
 62
7
  6
CONTINUOUS
 10
363.6184102445
 20
31.1520331591
 11
363.3871601343
 21
31.0875057863
  0
LINE
  8
0
 62
7
  6
CONTINUOUS
 10
363.5027853548
 20
31.3456152777
 11
363.6184102445
 21
31.3778789641
  0
LINE
  8
0
 62
7
  6
CONTINUOUS
 10
360.1496602445
 20
30.5390230296
 11
360.3809101894
 21
30.6035504109
  0
LINE
  8
0
 62
7
  6
CONTINUOUS
 10
363.4449727445
 20
31.5069337098
 11
363.3293478548
 21
31.4746700234
  0
LINE
  8
0
 62
7
  6
CONTINUOUS
 10
359.3980977583
 20
31.5069337098
 11
359.2246602583
 21
31.4746700234
  0
LINE
  8
0
 62
7
  6
CONTINUOUS
 10
370.1556028675
 20
36.0805298321
 11
368.7621602445
 21
36.0805298321
  0
LINE
  8
0
 62
7
  6
CONTINUOUS
 10
366.7949471298
 20
36.0805298321
 11
366.3823757812
 21
36.0805298321
  0
LINE
  8
0
 62
7
  6
CONTINUOUS
 10
365.1556028675
 20
36.0805298321
 11
363.7621602445
 21
36.0805298321
  0
LINE
  8
0
 62
7
  6
CONTINUOUS
 10
363.4342913921
 20
36.0805298321
 11
362.0408487691
 21
36.0805298321
  0
LINE
  8
0
 62
7
  6
CONTINUOUS
 10
360.1556028675
 20
36.0805298321
 11
358.7621602445
 21
36.0805298321
  0
LINE
  8
0
 62
7
  6
CONTINUOUS
 10
359.3402852307
 20
31.3456152777
 11
359.4559102445
 21
31.3778789641
  0
CIRCLE
  8
0
 62
7
  6
CONTINUOUS
 10
369.458881556
 20
38.4165954059
 40
2.0901639344
  0
ARC
  8
0
 62
7
  6
CONTINUOUS
 10
360.4015045068
 20
33.9493822911
 40
1.6393442623
 50
180.0
 51
270.0
  0
ARC
  8
0
 62
7
  6
CONTINUOUS
 10
366.7949471298
 20
34.4411855698
 40
1.6393442623
 50
0.0
 51
90.0
  0
ARC
  8
0
 62
7
  6
CONTINUOUS
 10
360.8140758554
 20
33.7854478649
 40
1.4754098361
 50
270.0
 51
326.2510114041
  0
ARC
  8
0
 62
7
  6
CONTINUOUS
 10
366.3823757812
 20
34.6051199961
 40
1.4754098361
 50
90.0
 51
146.2510114041
  0
ARC
  8
0
 62
7
  6
CONTINUOUS
 10
361.221176638
 20
34.2772511436
 40
0.8196721311
 50
270.0
 51
360.0
  0
ARC
  8
0
 62
7
  6
CONTINUOUS
 10
365.9752749986
 20
34.1133167174
 40
0.8196721311
 50
90.0
 51
180.0
  0
ARC
  8
0
 62
7
  6
CONTINUOUS
 10
360.565438933
 20
33.867415078
 40
0.4098360656
 50
180.0
 51
270.0
  0
ARC
  8
0
 62
7
  6
CONTINUOUS
 10
366.6310127035
 20
34.5231527829
 40
0.4098360656
 50
0.0
 51
90.0
  0
SOLID
  8
0
 62
7
  6
CONTINUOUS
 10
365.4684104651
 20
31.8618347111
 11
365.4684104651
 21
32.0231531947
 12
365.757472524
 22
31.8618347111
 13
365.757472524
 23
32.0231531947
  0
SOLID
  8
0
 62
7
  6
CONTINUOUS
 10
359.744972717
 20
31.5391977439
 11
360.1496602445
 21
31.5069333244
 12
359.3980977583
 22
31.5069333244
 13
359.3980977583
 23
31.5069333244
  0
SOLID
  8
0
 62
7
  6
CONTINUOUS
 10
359.2246602583
 20
31.4746706537
 11
359.3980977583
 21
31.5069333244
 12
360.1496602445
 22
31.5069333244
 13
360.1496602445
 23
31.5069333244
  0
SOLID
  8
0
 62
7
  6
CONTINUOUS
 10
360.1496602445
 20
31.5069333244
 11
360.3809101894
 21
31.4424063504
 12
359.2246602583
 22
31.4746706537
 13
359.2246602583
 23
31.4746706537
  0
SOLID
  8
0
 62
7
  6
CONTINUOUS
 10
359.0512227376
 20
31.4101419116
 11
359.2246602583
 21
31.4746706537
 12
360.3809101894
 22
31.4424063504
 13
360.3809101894
 23
31.4424063504
  0
SOLID
  8
0
 62
7
  6
CONTINUOUS
 10
359.0512227376
 20
31.4101419116
 11
360.3809101894
 21
31.4424063504
 12
359.6871602721
 22
31.4101419116
 13
359.6871602721
 23
31.4101419116
  0
SOLID
  8
0
 62
7
  6
CONTINUOUS
 10
359.6871602721
 20
31.4101419116
 11
360.3809101894
 21
31.4424063504
 12
360.091847717
 22
31.3778792603
 13
360.091847717
 23
31.3778792603
  0
SOLID
  8
0
 62
7
  6
CONTINUOUS
 10
360.3809101894
 20
31.4424063504
 11
360.5543476894
 21
31.345614957
 12
360.091847717
 22
31.3778792603
 13
360.091847717
 23
31.3778792603
  0
SOLID
  8
0
 62
7
  6
CONTINUOUS
 10
360.2652852997
 20
31.3133521701
 11
360.091847717
 21
31.3778792603
 12
360.5543476894
 22
31.345614957
 13
360.5543476894
 23
31.345614957
  0
SOLID
  8
0
 62
7
  6
CONTINUOUS
 10
360.2652852997
 20
31.3133521701
 11
360.5543476894
 21
31.345614957
 12
360.3230977445
 22
31.2165606992
 13
360.3230977445
 23
31.2165606992
  0
SOLID
  8
0
 62
7
  6
CONTINUOUS
 10
360.5543476894
 20
31.345614957
 11
360.6121602997
 21
31.2165606992
 12
360.3230977445
 22
31.2165606992
 13
360.3230977445
 23
31.2165606992
  0
SOLID
  8
0
 62
7
  6
CONTINUOUS
 10
361.6527851343
 20
31.5069329918
 11
361.8840352445
 21
31.5391972951
 12
362.1152853548
 22
31.5391972951
 13
362.1152853548
 23
31.5391972951
  0
SOLID
  8
0
 62
7
  6
CONTINUOUS
 10
362.1152853548
 20
31.5391972951
 11
362.2887228548
 21
31.5069329918
 12
361.6527851343
 22
31.5069329918
 13
361.6527851343
 23
31.5069329918
  0
SOLID
  8
0
 62
7
  6
CONTINUOUS
 10
361.4793477997
 20
31.4424059016
 11
361.6527851343
 21
31.5069329918
 12
362.2887228548
 22
31.5069329918
 13
362.2887228548
 23
31.5069329918
  0
SOLID
  8
0
 62
7
  6
CONTINUOUS
 10
362.2887228548
 20
31.5069329918
 11
362.4621603548
 21
31.4424059016
 12
361.4793477997
 22
31.4424059016
 13
361.4793477997
 23
31.4424059016
  0
SOLID
  8
0
 62
7
  6
CONTINUOUS
 10
362.4621603548
 20
31.4424059016
 11
361.8840352445
 21
31.4101420472
 12
361.4793477997
 22
31.4424059016
 13
361.4793477997
 23
31.4424059016
  0
SOLID
  8
0
 62
7
  6
CONTINUOUS
 10
361.3637227445
 20
31.3778788115
 11
361.4793477997
 21
31.4424059016
 12
361.8840352445
 22
31.4101420472
 13
361.8840352445
 23
31.4101420472
  0
SOLID
  8
0
 62
7
  6
CONTINUOUS
 10
361.8840352445
 20
31.4101420472
 11
361.6527851343
 21
31.3778788115
 12
361.3637227445
 22
31.3778788115
 13
361.3637227445
 23
31.3778788115
  0
SOLID
  8
0
 62
7
  6
CONTINUOUS
 10
361.8840352445
 20
31.4101420472
 11
362.4621603548
 21
31.4424059016
 12
362.1152853548
 22
31.3778788115
 13
362.1152853548
 23
31.3778788115
  0
SOLID
  8
0
 62
7
  6
CONTINUOUS
 10
362.4621603548
 20
31.4424059016
 11
362.5777852445
 21
31.3778788115
 12
362.1152853548
 22
31.3778788115
 13
362.1152853548
 23
31.3778788115
  0
SOLID
  8
0
 62
7
  6
CONTINUOUS
 10
362.2309102445
 20
31.345614957
 11
362.1152853548
 21
31.3778788115
 12
362.5777852445
 22
31.3778788115
 13
362.5777852445
 23
31.3778788115
  0
SOLID
  8
0
 62
7
  6
CONTINUOUS
 10
362.5777852445
 20
31.3778788115
 11
362.6355978548
 21
31.3133517213
 12
362.2309102445
 22
31.345614957
 13
362.2309102445
 23
31.345614957
  0
SOLID
  8
0
 62
7
  6
CONTINUOUS
 10
362.3465351343
 20
31.2810878668
 11
362.2309102445
 21
31.345614957
 12
362.6355978548
 22
31.3133517213
 13
362.6355978548
 23
31.3133517213
  0
SOLID
  8
0
 62
7
  6
CONTINUOUS
 10
362.3465351343
 20
31.2810878668
 11
362.6355978548
 21
31.3133517213
 12
362.4043477445
 22
31.1520332377
 13
362.4043477445
 23
31.1520332377
  0
SOLID
  8
0
 62
7
  6
CONTINUOUS
 10
362.6355978548
 20
31.3133517213
 11
362.6934101343
 21
31.1520332377
 12
362.4043477445
 22
31.1520332377
 13
362.4043477445
 23
31.1520332377
  0
SOLID
  8
0
 62
7
  6
CONTINUOUS
 10
361.6527851343
 20
31.3778788115
 11
361.4793477997
 21
31.3133517213
 12
361.3637227445
 22
31.3778788115
 13
361.3637227445
 23
31.3778788115
  0
SOLID
  8
0
 62
7
  6
CONTINUOUS
 10
361.4793477997
 20
31.3133517213
 11
361.3637227445
 21
31.2488235635
 12
361.3637227445
 22
31.3778788115
 13
361.3637227445
 23
31.3778788115
  0
SOLID
  8
0
 62
7
  6
CONTINUOUS
 10
361.3637227445
 20
31.2488235635
 11
361.0746601894
 21
30.5067593033
 12
361.3637227445
 22
31.3778788115
 13
361.3637227445
 23
31.3778788115
  0
SOLID
  8
0
 62
7
  6
CONTINUOUS
 10
361.3637227445
 20
31.3778788115
 11
361.0746601894
 21
30.5067593033
 12
361.3637227445
 22
32.0231527459
 13
361.3637227445
 23
32.0231527459
  0
SOLID
  8
0
 62
7
  6
CONTINUOUS
 10
361.0746601894
 20
30.5067593033
 11
361.0746601894
 21
32.0231527459
 12
361.3637227445
 22
32.0231527459
 13
361.3637227445
 23
32.0231527459
  0
SOLID
  8
0
 62
7
  6
CONTINUOUS
 10
361.3637227445
 20
31.2488235635
 11
361.3637227445
 21
30.5067593033
 12
361.0746601894
 22
30.5067593033
 13
361.0746601894
 23
30.5067593033
  0
SOLID
  8
0
 62
7
  6
CONTINUOUS
 10
362.4043477445
 20
30.5067593033
 11
362.4043477445
 21
31.1520332377
 12
362.6934101343
 22
31.1520332377
 13
362.6934101343
 23
31.1520332377
  0
SOLID
  8
0
 62
7
  6
CONTINUOUS
 10
362.6934101343
 20
31.1520332377
 11
362.6934101343
 21
30.5067593033
 12
362.4043477445
 22
30.5067593033
 13
362.4043477445
 23
30.5067593033
  0
SOLID
  8
0
 62
7
  6
CONTINUOUS
 10
363.4449727445
 20
31.506933758
 11
363.8496603548
 21
31.5391977507
 12
364.1965353548
 22
31.5391977507
 13
364.1965353548
 23
31.5391977507
  0
SOLID
  8
0
 62
7
  6
CONTINUOUS
 10
364.1965353548
 20
31.5391977507
 11
364.543410024
 21
31.506933758
 12
363.4449727445
 22
31.506933758
 13
363.4449727445
 23
31.506933758
  0
SOLID
  8
0
 62
7
  6
CONTINUOUS
 10
363.3293478548
 20
31.4746706537
 11
363.4449727445
 21
31.506933758
 12
364.543410024
 22
31.506933758
 13
364.543410024
 23
31.506933758
  0
SOLID
  8
0
 62
7
  6
CONTINUOUS
 10
364.543410024
 20
31.506933758
 11
364.716847524
 21
31.4424063504
 12
363.3293478548
 22
31.4746706537
 13
363.3293478548
 23
31.4746706537
  0
SOLID
  8
0
 62
7
  6
CONTINUOUS
 10
363.2137226343
 20
31.4101417797
 11
363.3293478548
 21
31.4746706537
 12
364.716847524
 22
31.4424063504
 13
364.716847524
 23
31.4424063504
  0
SOLID
  8
0
 62
7
  6
CONTINUOUS
 10
363.2137226343
 20
31.4101417797
 11
364.716847524
 21
31.4424063504
 12
363.8496603548
 22
31.4101417797
 13
363.8496603548
 23
31.4101417797
  0
SOLID
  8
0
 62
7
  6
CONTINUOUS
 10
363.8496603548
 20
31.4101417797
 11
364.716847524
 21
31.4424063504
 12
364.1965353548
 22
31.4101417797
 13
364.1965353548
 23
31.4101417797
  0
SOLID
  8
0
 62
7
  6
CONTINUOUS
 10
364.1965353548
 20
31.4101417797
 11
364.716847524
 21
31.4424063504
 12
364.4277854651
 22
31.3778793357
 13
364.4277854651
 23
31.3778793357
  0
SOLID
  8
0
 62
7
  6
CONTINUOUS
 10
364.716847524
 20
31.4424063504
 11
364.8324727445
 21
31.3778793357
 12
364.4277854651
 22
31.3778793357
 13
364.4277854651
 23
31.3778793357
  0
SOLID
  8
0
 62
7
  6
CONTINUOUS
 10
363.1559103548
 20
31.3456153429
 11
363.2137226343
 21
31.4101417797
 12
363.8496603548
 22
31.4101417797
 13
363.8496603548
 23
31.4101417797
  0
SOLID
  8
0
 62
7
  6
CONTINUOUS
 10
364.543410024
 20
31.3456153429
 11
364.4277854651
 21
31.3778793357
 12
364.8324727445
 22
31.3778793357
 13
364.8324727445
 23
31.3778793357
  0
SOLID
  8
0
 62
7
  6
CONTINUOUS
 10
364.543410024
 20
31.3456153429
 11
364.8324727445
 21
31.3778793357
 12
364.6012229651
 22
31.2810881318
 13
364.6012229651
 23
31.2810881318
  0
SOLID
  8
0
 62
7
  6
CONTINUOUS
 10
364.8324727445
 20
31.3778793357
 11
364.890285024
 21
31.2810881318
 12
364.6012229651
 22
31.2810881318
 13
364.6012229651
 23
31.2810881318
  0
SOLID
  8
0
 62
7
  6
CONTINUOUS
 10
364.6012229651
 20
31.1842964734
 11
364.6012229651
 21
31.2810881318
 12
364.890285024
 22
31.2810881318
 13
364.890285024
 23
31.2810881318
  0
SOLID
  8
0
 62
7
  6
CONTINUOUS
 10
364.6012229651
 20
31.1842964734
 11
364.890285024
 21
31.2810881318
 12
364.6012229651
 22
31.0552422931
 13
364.6012229651
 23
31.0552422931
  0
SOLID
  8
0
 62
7
  6
CONTINUOUS
 10
364.6012229651
 20
31.0552422931
 11
364.890285024
 21
31.2810881318
 12
364.6012229651
 22
30.8616599362
 13
364.6012229651
 23
30.8616599362
  0
SOLID
  8
0
 62
7
  6
CONTINUOUS
 10
364.890285024
 20
31.2810881318
 11
364.890285024
 21
30.7648681127
 12
364.6012229651
 22
30.8616599362
 13
364.6012229651
 23
30.8616599362
  0
SOLID
  8
0
 62
7
  6
CONTINUOUS
 10
366.798097524
 20
31.5069339419
 11
367.0293479651
 21
31.5391976292
 12
367.2605977445
 22
31.5391976292
 13
367.2605977445
 23
31.5391976292
  0
SOLID
  8
0
 62
7
  6
CONTINUOUS
 10
367.2605977445
 20
31.5391976292
 11
367.4340352445
 21
31.5069339419
 12
366.798097524
 22
31.5069339419
 13
366.798097524
 23
31.5069339419
  0
SOLID
  8
0
 62
7
  6
CONTINUOUS
 10
366.624660024
 20
31.4424065674
 11
366.798097524
 21
31.5069339419
 12
367.4340352445
 22
31.5069339419
 13
367.4340352445
 23
31.5069339419
  0
SOLID
  8
0
 62
7
  6
CONTINUOUS
 10
367.4340352445
 20
31.5069339419
 11
367.6074727445
 21
31.4424065674
 12
366.624660024
 22
31.4424065674
 13
366.624660024
 23
31.4424065674
  0
SOLID
  8
0
 62
7
  6
CONTINUOUS
 10
367.6074727445
 20
31.4424065674
 11
367.0293479651
 21
31.4101420472
 12
366.624660024
 22
31.4424065674
 13
366.624660024
 23
31.4424065674
  0
SOLID
  8
0
 62
7
  6
CONTINUOUS
 10
366.5090354651
 20
31.377879193
 11
366.624660024
 21
31.4424065674
 12
367.0293479651
 22
31.4101420472
 13
367.0293479651
 23
31.4101420472
  0
SOLID
  8
0
 62
7
  6
CONTINUOUS
 10
367.0293479651
 20
31.4101420472
 11
366.798097524
 21
31.377879193
 12
366.5090354651
 22
31.377879193
 13
366.5090354651
 23
31.377879193
  0
SOLID
  8
0
 62
7
  6
CONTINUOUS
 10
367.0293479651
 20
31.4101420472
 11
367.6074727445
 21
31.4424065674
 12
367.2605977445
 22
31.377879193
 13
367.2605977445
 23
31.377879193
  0
SOLID
  8
0
 62
7
  6
CONTINUOUS
 10
367.6074727445
 20
31.4424065674
 11
367.7230979651
 21
31.377879193
 12
367.2605977445
 22
31.377879193
 13
367.2605977445
 23
31.377879193
  0
SOLID
  8
0
 62
7
  6
CONTINUOUS
 10
367.3762229651
 20
31.345614957
 11
367.2605977445
 21
31.377879193
 12
367.7230979651
 22
31.377879193
 13
367.7230979651
 23
31.377879193
  0
SOLID
  8
0
 62
7
  6
CONTINUOUS
 10
367.3762229651
 20
31.345614957
 11
367.7230979651
 21
31.377879193
 12
367.491847524
 22
31.2810881312
 13
367.491847524
 23
31.2810881312
  0
SOLID
  8
0
 62
7
  6
CONTINUOUS
 10
367.7230979651
 20
31.377879193
 11
367.7809102445
 21
31.2810881312
 12
367.491847524
 22
31.2810881312
 13
367.491847524
 23
31.2810881312
  0
SOLID
  8
0
 62
7
  6
CONTINUOUS
 10
367.5496604651
 20
31.119769695
 11
367.491847524
 21
31.2810881312
 12
367.7809102445
 22
31.2810881312
 13
367.7809102445
 23
31.2810881312
  0
SOLID
  8
0
 62
7
  6
CONTINUOUS
 10
367.7809102445
 20
31.2810881312
 11
367.838722524
 21
31.119769695
 12
367.5496604651
 22
31.119769695
 13
367.5496604651
 23
31.119769695
  0
SOLID
  8
0
 62
7
  6
CONTINUOUS
 10
366.798097524
 20
31.377879193
 11
366.624660024
 21
31.3133521701
 12
366.5090354651
 22
31.377879193
 13
366.5090354651
 23
31.377879193
  0
SOLID
  8
0
 62
7
  6
CONTINUOUS
 10
366.624660024
 20
31.3133521701
 11
366.5090354651
 21
31.2488235635
 12
366.5090354651
 22
31.377879193
 13
366.5090354651
 23
31.377879193
  0
SOLID
  8
0
 62
7
  6
CONTINUOUS
 10
366.5090354651
 20
31.2488235635
 11
366.2199727445
 21
30.5067596374
 12
366.5090354651
 22
31.377879193
 13
366.5090354651
 23
31.377879193
  0
SOLID
  8
0
 62
7
  6
CONTINUOUS
 10
366.5090354651
 20
31.377879193
 11
366.2199727445
 21
30.5067596374
 12
366.5090354651
 22
31.5391976292
 13
366.5090354651
 23
31.5391976292
  0
SOLID
  8
0
 62
7
  6
CONTINUOUS
 10
366.2199727445
 20
30.5067596374
 11
366.2199727445
 21
31.5391976292
 12
366.5090354651
 22
31.5391976292
 13
366.5090354651
 23
31.5391976292
  0
SOLID
  8
0
 62
7
  6
CONTINUOUS
 10
366.5090354651
 20
31.2488235635
 11
366.5090354651
 21
30.5067596374
 12
366.2199727445
 22
30.5067596374
 13
366.2199727445
 23
30.5067596374
  0
SOLID
  8
0
 62
7
  6
CONTINUOUS
 10
367.5496604651
 20
30.5067596374
 11
367.5496604651
 21
31.119769695
 12
367.838722524
 22
31.119769695
 13
367.838722524
 23
31.119769695
  0
SOLID
  8
0
 62
7
  6
CONTINUOUS
 10
367.838722524
 20
31.119769695
 11
367.838722524
 21
30.5067596374
 12
367.5496604651
 22
30.5067596374
 13
367.5496604651
 23
30.5067596374
  0
SOLID
  8
0
 62
7
  6
CONTINUOUS
 10
368.6480977445
 20
31.5069334157
 11
368.9949727445
 21
31.539197762
 12
369.3418477445
 22
31.539197762
 13
369.3418477445
 23
31.539197762
  0
SOLID
  8
0
 62
7
  6
CONTINUOUS
 10
369.3418477445
 20
31.539197762
 11
369.6887227445
 21
31.5069334157
 12
368.6480977445
 22
31.5069334157
 13
368.6480977445
 23
31.5069334157
  0
SOLID
  8
0
 62
7
  6
CONTINUOUS
 10
368.4168479651
 20
31.4424063504
 11
368.6480977445
 21
31.5069334157
 12
369.6887227445
 22
31.5069334157
 13
369.6887227445
 23
31.5069334157
  0
SOLID
  8
0
 62
7
  6
CONTINUOUS
 10
368.4168479651
 20
31.4424063504
 11
369.6887227445
 21
31.5069334406
 12
369.8621602445
 22
31.4746706537
 13
369.8621602445
 23
31.4746706537
  0
SOLID
  8
0
 62
7
  6
CONTINUOUS
 10
368.4168479651
 20
31.4424063504
 11
369.8621602445
 21
31.4746706537
 12
368.9949727445
 22
31.4101421267
 13
368.9949727445
 23
31.4101421267
  0
SOLID
  8
0
 62
7
  6
CONTINUOUS
 10
368.9949727445
 20
31.4101421267
 11
369.8621602445
 21
31.4746706537
 12
369.3418477445
 22
31.4101421267
 13
369.3418477445
 23
31.4101421267
  0
SOLID
  8
0
 62
7
  6
CONTINUOUS
 10
369.8621602445
 20
31.4746706537
 11
370.0355977445
 21
31.4101421267
 12
369.3418477445
 22
31.4101421267
 13
369.3418477445
 23
31.4101421267
  0
SOLID
  8
0
 62
7
  6
CONTINUOUS
 10
369.6887227445
 20
31.3778792603
 11
369.3418477445
 21
31.4101421267
 12
370.0355977445
 22
31.4101421267
 13
370.0355977445
 23
31.4101421267
  0
SOLID
  8
0
 62
7
  6
CONTINUOUS
 10
368.3012227445
 20
31.3456148845
 11
368.4168479651
 21
31.4424063504
 12
368.9949727445
 22
31.4101421267
 13
368.9949727445
 23
31.4101421267
  0
SOLID
  8
0
 62
7
  6
CONTINUOUS
 10
369.6887227445
 20
31.3778792603
 11
370.0355977445
 21
31.4101421267
 12
369.8043479651
 22
31.3456148845
 13
369.8043479651
 23
31.3456148845
  0
SOLID
  8
0
 62
7
  6
CONTINUOUS
 10
369.8043479651
 20
31.3456148845
 11
370.0355977445
 21
31.4101421267
 12
369.8621602445
 22
31.281087868
 13
369.8621602445
 23
31.281087868
  0
SOLID
  8
0
 62
7
  6
CONTINUOUS
 10
370.0355977445
 20
31.4101421267
 11
370.1512223035
 21
31.281087868
 12
369.8621602445
 22
31.281087868
 13
369.8621602445
 23
31.281087868
  0
SOLID
  8
0
 62
7
  6
CONTINUOUS
 10
359.4559102445
 20
31.3778792603
 11
358.9355977445
 21
31.3456148963
 12
359.6871602721
 22
31.4101421155
 13
359.6871602721
 23
31.4101421155
  0
SOLID
  8
0
 62
7
  6
CONTINUOUS
 10
358.9355977445
 20
31.3456148963
 11
359.0512227376
 21
31.4101421155
 12
359.6871602721
 22
31.4101421155
 13
359.6871602721
 23
31.4101421155
  0
SOLID
  8
0
 62
7
  6
CONTINUOUS
 10
359.4559102445
 20
31.3778792603
 11
359.3402852307
 21
31.3456148963
 12
358.9355977445
 22
31.3456148963
 13
358.9355977445
 23
31.3456148963
  0
SOLID
  8
0
 62
7
  6
CONTINUOUS
 10
358.8199727462
 20
31.2165607767
 11
358.9355977445
 21
31.3456148963
 12
359.3402852307
 22
31.3456148963
 13
359.3402852307
 23
31.3456148963
  0
SOLID
  8
0
 62
7
  6
CONTINUOUS
 10
363.1559103548
 20
31.3456149608
 11
363.8496603548
 21
31.4101420472
 12
363.6184102445
 22
31.3778792603
 13
363.6184102445
 23
31.3778792603
  0
SOLID
  8
0
 62
7
  6
CONTINUOUS
 10
363.6184102445
 20
31.3778792603
 11
363.5027853548
 21
31.3456149608
 12
363.1559103548
 22
31.3456149608
 13
363.1559103548
 23
31.3456149608
  0
SOLID
  8
0
 62
7
  6
CONTINUOUS
 10
363.1559103548
 20
31.2810878707
 11
363.1559103548
 21
31.3456149608
 12
363.5027853548
 22
31.3456149608
 13
363.5027853548
 23
31.3456149608
  0
SOLID
  8
0
 62
7
  6
CONTINUOUS
 10
363.5027853548
 20
31.3456149608
 11
363.4449727445
 21
31.2810878707
 12
363.1559103548
 22
31.2810878707
 13
363.1559103548
 23
31.2810878707
  0
SOLID
  8
0
 62
7
  6
CONTINUOUS
 10
368.3012227445
 20
31.3456149608
 11
368.9949727445
 21
31.4101420472
 12
368.7637229651
 22
31.3778792603
 13
368.7637229651
 23
31.3778792603
  0
SOLID
  8
0
 62
7
  6
CONTINUOUS
 10
368.7637229651
 20
31.3778792603
 11
368.6480977445
 21
31.3456149608
 12
368.3012227445
 22
31.3456149608
 13
368.3012227445
 23
31.3456149608
  0
SOLID
  8
0
 62
7
  6
CONTINUOUS
 10
368.3012227445
 20
31.2810878707
 11
368.3012227445
 21
31.3456149608
 12
368.6480977445
 22
31.3456149608
 13
368.6480977445
 23
31.3456149608
  0
SOLID
  8
0
 62
7
  6
CONTINUOUS
 10
368.6480977445
 20
31.3456149608
 11
368.5902854651
 21
31.2810878707
 12
368.3012227445
 22
31.2810878707
 13
368.3012227445
 23
31.2810878707
  0
SOLID
  8
0
 62
7
  6
CONTINUOUS
 10
368.4168479651
 20
31.1520336865
 11
368.3012227445
 21
31.2810878707
 12
368.5902854651
 22
31.2810878707
 13
368.5902854651
 23
31.2810878707
  0
SOLID
  8
0
 62
7
  6
CONTINUOUS
 10
358.8199727462
 20
31.2165607767
 11
359.3402852307
 21
31.345614957
 12
359.1668477307
 22
31.2488235635
 13
359.1668477307
 23
31.2488235635
  0
SOLID
  8
0
 62
7
  6
CONTINUOUS
 10
359.1668477307
 20
31.2488235635
 11
359.1090352445
 21
31.1842964734
 12
358.8199727462
 22
31.2165607767
 13
358.8199727462
 23
31.2165607767
  0
SOLID
  8
0
 62
7
  6
CONTINUOUS
 10
358.7621602445
 20
31.0229779898
 11
358.8199727462
 21
31.2165607767
 12
359.1090352445
 22
31.1842964734
 13
359.1090352445
 23
31.1842964734
  0
SOLID
  8
0
 62
7
  6
CONTINUOUS
 10
363.6184102445
 20
31.1520336865
 11
363.9652852445
 21
31.1842964611
 12
364.6012229651
 22
31.1842964611
 13
364.6012229651
 23
31.1842964611
  0
SOLID
  8
0
 62
7
  6
CONTINUOUS
 10
363.6184102445
 20
31.1520336865
 11
364.6012229651
 21
31.1842964611
 12
363.3871601343
 22
31.0875057863
 13
363.3871601343
 23
31.0875057863
  0
SOLID
  8
0
 62
7
  6
CONTINUOUS
 10
363.3871601343
 20
31.0875057863
 11
364.6012229651
 21
31.1842964611
 12
363.9652852445
 22
31.0552422808
 13
363.9652852445
 23
31.0552422808
  0
SOLID
  8
0
 62
7
  6
CONTINUOUS
 10
364.6012229651
 20
31.1842964611
 11
364.6012229651
 21
31.0552422808
 12
363.9652852445
 22
31.0552422808
 13
363.9652852445
 23
31.0552422808
  0
SOLID
  8
0
 62
7
  6
CONTINUOUS
 10
368.4168479651
 20
31.1520338754
 11
368.5902854651
 21
31.2810878668
 12
368.6480977445
 22
31.2165607767
 13
368.6480977445
 23
31.2165607767
  0
SOLID
  8
0
 62
7
  6
CONTINUOUS
 10
368.6480977445
 20
31.2165607767
 11
368.8215352445
 21
31.1520338754
 12
368.4168479651
 22
31.1520338754
 13
368.4168479651
 23
31.1520338754
  0
SOLID
  8
0
 62
7
  6
CONTINUOUS
 10
368.6480977445
 20
31.0552422931
 11
368.4168479651
 21
31.1520338754
 12
368.8215352445
 22
31.1520338754
 13
368.8215352445
 23
31.1520338754
  0
SOLID
  8
0
 62
7
  6
CONTINUOUS
 10
368.8215352445
 20
31.1520338754
 11
369.8043479651
 21
30.9907152029
 12
368.6480977445
 22
31.0552422931
 13
368.6480977445
 23
31.0552422931
  0
SOLID
  8
0
 62
7
  6
CONTINUOUS
 10
369.6309104651
 20
30.8939239876
 11
368.6480977445
 21
31.0552422931
 12
369.8043479651
 22
30.9907152029
 13
369.8043479651
 23
30.9907152029
  0
SOLID
  8
0
 62
7
  6
CONTINUOUS
 10
369.8043479651
 20
30.9907152029
 11
370.0355977445
 21
30.8939239876
 12
369.6309104651
 22
30.8939239876
 13
369.6309104651
 23
30.8939239876
  0
SOLID
  8
0
 62
7
  6
CONTINUOUS
 10
369.8043479651
 20
30.8293967193
 11
369.6309104651
 21
30.8939239876
 12
370.0355977445
 22
30.8939239876
 13
370.0355977445
 23
30.8939239876
  0
SOLID
  8
0
 62
7
  6
CONTINUOUS
 10
369.8043479651
 20
30.8293967193
 11
370.0355977445
 21
30.8939239876
 12
369.8621602445
 22
30.7648682694
 13
369.8621602445
 23
30.7648682694
  0
SOLID
  8
0
 62
7
  6
CONTINUOUS
 10
370.0355977445
 20
30.8939239876
 11
370.1512223035
 21
30.7648682694
 12
369.8621602445
 22
30.7648682694
 13
369.8621602445
 23
30.7648682694
  0
SOLID
  8
0
 62
7
  6
CONTINUOUS
 10
369.8043479651
 20
30.7003411846
 11
369.8621602445
 21
30.7648682694
 12
370.1512223035
 22
30.7648682694
 13
370.1512223035
 23
30.7648682694
  0
SOLID
  8
0
 62
7
  6
CONTINUOUS
 10
370.1512223035
 20
30.7648682694
 11
370.1512223035
 21
30.7003411846
 12
369.8043479651
 22
30.7003411846
 13
369.8043479651
 23
30.7003411846
  0
SOLID
  8
0
 62
7
  6
CONTINUOUS
 10
369.6887227445
 20
30.6680782357
 11
369.8043479651
 21
30.7003411846
 12
370.1512223035
 22
30.7003411846
 13
370.1512223035
 23
30.7003411846
  0
SOLID
  8
0
 62
7
  6
CONTINUOUS
 10
369.6887227445
 20
30.6680782357
 11
370.1512223035
 21
30.7003411846
 12
369.4574729651
 22
30.6358140998
 13
369.4574729651
 23
30.6358140998
  0
SOLID
  8
0
 62
7
  6
CONTINUOUS
 10
370.1512223035
 20
30.7003411846
 11
370.0355977445
 21
30.6035511455
 12
369.4574729651
 22
30.6358140998
 13
369.4574729651
 23
30.6358140998
  0
SOLID
  8
0
 62
7
  6
CONTINUOUS
 10
370.0355977445
 20
30.6035511455
 11
368.5902854651
 21
30.5712868422
 12
369.4574729651
 22
30.6358140998
 13
369.4574729651
 23
30.6358140998
  0
SOLID
  8
0
 62
7
  6
CONTINUOUS
 10
369.4574729651
 20
30.6358140998
 11
368.5902854651
 21
30.5712868422
 12
369.1105979651
 22
30.6358140998
 13
369.1105979651
 23
30.6358140998
  0
SOLID
  8
0
 62
7
  6
CONTINUOUS
 10
368.5902854651
 20
30.5712868422
 11
368.4168479651
 21
30.6358140998
 12
369.1105979651
 22
30.6358140998
 13
369.1105979651
 23
30.6358140998
  0
SOLID
  8
0
 62
7
  6
CONTINUOUS
 10
368.5902854651
 20
30.5712868422
 11
370.0355977445
 21
30.6035511455
 12
368.7637229651
 22
30.5390223111
 13
368.7637229651
 23
30.5390223111
  0
SOLID
  8
0
 62
7
  6
CONTINUOUS
 10
370.0355977445
 20
30.6035511455
 11
369.8043479651
 21
30.5390223111
 12
368.7637229651
 22
30.5390223111
 13
368.7637229651
 23
30.5390223111
  0
SOLID
  8
0
 62
7
  6
CONTINUOUS
 10
369.1105979651
 20
30.5067599302
 11
368.7637229651
 21
30.5390223111
 12
369.8043479651
 22
30.5390223111
 13
369.8043479651
 23
30.5390223111
  0
SOLID
  8
0
 62
7
  6
CONTINUOUS
 10
369.8043479651
 20
30.5390223111
 11
369.4574729651
 21
30.5067599302
 12
369.1105979651
 22
30.5067599302
 13
369.1105979651
 23
30.5067599302
  0
SOLID
  8
0
 62
7
  6
CONTINUOUS
 10
358.7621602445
 20
31.0229779898
 11
359.1090352445
 21
31.1842964734
 12
359.0512227376
 22
31.0552422931
 13
359.0512227376
 23
31.0552422931
  0
SOLID
  8
0
 62
7
  6
CONTINUOUS
 10
359.0512227376
 20
31.0552422931
 11
359.0512227376
 21
30.9584509954
 12
358.7621602445
 22
31.0229779898
 13
358.7621602445
 23
31.0229779898
  0
SOLID
  8
0
 62
7
  6
CONTINUOUS
 10
358.8199727462
 20
30.8293967193
 11
358.7621602445
 21
31.0229779898
 12
359.0512227376
 22
30.9584509954
 13
359.0512227376
 23
30.9584509954
  0
SOLID
  8
0
 62
7
  6
CONTINUOUS
 10
359.0512227376
 20
30.9584509954
 11
359.1668477307
 21
30.797132416
 12
358.8199727462
 22
30.8293967193
 13
358.8199727462
 23
30.8293967193
  0
SOLID
  8
0
 62
7
  6
CONTINUOUS
 10
358.9355977445
 20
30.7003413087
 11
358.8199727462
 21
30.8293967193
 12
359.1668477307
 22
30.797132416
 13
359.1668477307
 23
30.797132416
  0
SOLID
  8
0
 62
7
  6
CONTINUOUS
 10
359.1668477307
 20
30.797132416
 11
359.3402852307
 21
30.7003413087
 12
358.9355977445
 22
30.7003413087
 13
358.9355977445
 23
30.7003413087
  0
SOLID
  8
0
 62
7
  6
CONTINUOUS
 10
359.0512227376
 20
30.6358140759
 11
358.9355977445
 21
30.7003413087
 12
359.3402852307
 22
30.7003413087
 13
359.3402852307
 23
30.7003413087
  0
SOLID
  8
0
 62
7
  6
CONTINUOUS
 10
359.3402852307
 20
30.7003413087
 11
359.6871602721
 21
30.6358140759
 12
359.0512227376
 22
30.6358140759
 13
359.0512227376
 23
30.6358140759
  0
SOLID
  8
0
 62
7
  6
CONTINUOUS
 10
359.2246602583
 20
30.5712868422
 11
359.0512227376
 21
30.6358140759
 12
359.6871602721
 22
30.6358140759
 13
359.6871602721
 23
30.6358140759
  0
SOLID
  8
0
 62
7
  6
CONTINUOUS
 10
363.2715352445
 20
31.0229779808
 11
363.3871601343
 21
31.0875057863
 12
363.9652852445
 22
31.0552422931
 13
363.9652852445
 23
31.0552422931
  0
SOLID
  8
0
 62
7
  6
CONTINUOUS
 10
363.9652852445
 20
31.0552422931
 11
363.7340351343
 21
31.0229779808
 12
363.2715352445
 22
31.0229779808
 13
363.2715352445
 23
31.0229779808
  0
SOLID
  8
0
 62
7
  6
CONTINUOUS
 10
363.1559103548
 20
30.8939238094
 11
363.2715352445
 21
31.0229779808
 12
363.7340351343
 22
31.0229779808
 13
363.7340351343
 23
31.0229779808
  0
SOLID
  8
0
 62
7
  6
CONTINUOUS
 10
363.5027853548
 20
30.926187309
 11
363.1559103548
 21
30.8939238094
 12
363.6184102445
 22
30.9907152029
 13
363.6184102445
 23
30.9907152029
  0
SOLID
  8
0
 62
7
  6
CONTINUOUS
 10
363.1559103548
 20
30.8939238094
 11
363.7340351343
 21
31.0229779898
 12
363.6184102445
 22
30.9907152029
 13
363.6184102445
 23
30.9907152029
  0
SOLID
  8
0
 62
7
  6
CONTINUOUS
 10
363.5027853548
 20
30.926187309
 11
363.4449727445
 21
30.8293967193
 12
363.1559103548
 22
30.8939238094
 13
363.1559103548
 23
30.8939238094
  0
SOLID
  8
0
 62
7
  6
CONTINUOUS
 10
363.1559103548
 20
30.797132416
 11
363.1559103548
 21
30.8939238094
 12
363.4449727445
 22
30.8293967193
 13
363.4449727445
 23
30.8293967193
  0
SOLID
  8
0
 62
7
  6
CONTINUOUS
 10
363.4449727445
 20
30.8293967193
 11
363.4449727445
 21
30.7648681127
 12
363.1559103548
 22
30.797132416
 13
363.1559103548
 23
30.797132416
  0
SOLID
  8
0
 62
7
  6
CONTINUOUS
 10
363.2137226343
 20
30.6680782357
 11
363.1559103548
 21
30.797132416
 12
363.4449727445
 22
30.7648681127
 13
363.4449727445
 23
30.7648681127
  0
SOLID
  8
0
 62
7
  6
CONTINUOUS
 10
364.6012229651
 20
30.8616599362
 11
364.890285024
 21
30.7648681127
 12
364.543410024
 22
30.797132416
 13
364.543410024
 23
30.797132416
  0
SOLID
  8
0
 62
7
  6
CONTINUOUS
 10
364.369972524
 20
30.7003410226
 11
364.543410024
 21
30.797132416
 12
364.890285024
 22
30.7648681127
 13
364.890285024
 23
30.7648681127
  0
SOLID
  8
0
 62
7
  6
CONTINUOUS
 10
364.369972524
 20
30.7003410226
 11
364.890285024
 21
30.7648681127
 12
364.6012229651
 22
30.6680782357
 13
364.6012229651
 23
30.6680782357
  0
SOLID
  8
0
 62
7
  6
CONTINUOUS
 10
364.890285024
 20
30.7648681127
 11
364.9480979651
 21
30.6035511455
 12
364.6012229651
 22
30.6680782357
 13
364.6012229651
 23
30.6680782357
  0
SOLID
  8
0
 62
7
  6
CONTINUOUS
 10
364.6590352445
 20
30.5712868422
 11
364.6012229651
 21
30.6680782357
 12
364.9480979651
 22
30.6035511455
 13
364.9480979651
 23
30.6035511455
  0
SOLID
  8
0
 62
7
  6
CONTINUOUS
 10
364.6590352445
 20
30.5712868422
 11
364.9480979651
 21
30.6035511455
 12
364.716847524
 22
30.5067598731
 13
364.716847524
 23
30.5067598731
  0
SOLID
  8
0
 62
7
  6
CONTINUOUS
 10
364.9480979651
 20
30.6035511455
 11
365.0059102445
 21
30.5067598731
 12
364.716847524
 22
30.5067598731
 13
364.716847524
 23
30.5067598731
  0
SOLID
  8
0
 62
7
  6
CONTINUOUS
 10
360.2652852997
 20
30.7326051679
 11
360.3230977445
 21
30.8293966612
 12
360.6121602997
 22
30.8293966612
 13
360.6121602997
 23
30.8293966612
  0
SOLID
  8
0
 62
7
  6
CONTINUOUS
 10
360.6121602997
 20
30.8293966612
 11
360.5543476894
 21
30.7003410226
 12
360.2652852997
 22
30.7326051679
 13
360.2652852997
 23
30.7326051679
  0
SOLID
  8
0
 62
7
  6
CONTINUOUS
 10
360.091847717
 20
30.6680782357
 11
360.2652852997
 21
30.7326051679
 12
360.5543476894
 22
30.7003410226
 13
360.5543476894
 23
30.7003410226
  0
SOLID
  8
0
 62
7
  6
CONTINUOUS
 10
360.091847717
 20
30.6680782357
 11
360.5543476894
 21
30.7003410226
 12
359.6871602721
 22
30.6358139324
 13
359.6871602721
 23
30.6358139324
  0
SOLID
  8
0
 62
7
  6
CONTINUOUS
 10
360.5543476894
 20
30.7003410226
 11
360.3809101894
 21
30.6035511455
 12
359.6871602721
 22
30.6358139324
 13
359.6871602721
 23
30.6358139324
  0
SOLID
  8
0
 62
7
  6
CONTINUOUS
 10
359.2246602583
 20
30.5712868422
 11
359.6871602721
 21
30.6358139324
 12
360.3809101894
 22
30.6035511455
 13
360.3809101894
 23
30.6035511455
  0
SOLID
  8
0
 62
7
  6
CONTINUOUS
 10
359.2246602583
 20
30.5712868422
 11
360.3809101894
 21
30.6035511455
 12
359.3980977583
 22
30.5390224228
 13
359.3980977583
 23
30.5390224228
  0
SOLID
  8
0
 62
7
  6
CONTINUOUS
 10
360.3809101894
 20
30.6035511455
 11
360.1496602445
 21
30.5390224228
 12
359.3980977583
 22
30.5390224228
 13
359.3980977583
 23
30.5390224228
  0
SOLID
  8
0
 62
7
  6
CONTINUOUS
 10
359.744972717
 20
30.5067597521
 11
359.3980977583
 21
30.5390224228
 12
360.1496602445
 22
30.5390224228
 13
360.1496602445
 23
30.5390224228
  0
SOLID
  8
0
 62
7
  6
CONTINUOUS
 10
363.2137226343
 20
30.6680782357
 11
363.4449727445
 21
30.7648681127
 12
363.5027853548
 22
30.7003410226
 13
363.5027853548
 23
30.7003410226
  0
SOLID
  8
0
 62
7
  6
CONTINUOUS
 10
363.5027853548
 20
30.7003410226
 11
363.7340351343
 21
30.6358139324
 12
363.2137226343
 22
30.6680782357
 13
363.2137226343
 23
30.6680782357
  0
SOLID
  8
0
 62
7
  6
CONTINUOUS
 10
363.3871601343
 20
30.5712868422
 11
363.2137226343
 21
30.6680782357
 12
363.7340351343
 22
30.6358139324
 13
363.7340351343
 23
30.6358139324
  0
SOLID
  8
0
 62
7
  6
CONTINUOUS
 10
364.0809101343
 20
30.6358139363
 11
364.369972524
 21
30.7003410226
 12
364.6012229651
 22
30.6680782357
 13
364.6012229651
 23
30.6680782357
  0
SOLID
  8
0
 62
7
  6
CONTINUOUS
 10
364.6012229651
 20
30.6680782357
 11
364.543410024
 21
30.6035511455
 12
364.0809101343
 22
30.6358139363
 13
364.0809101343
 23
30.6358139363
  0
SOLID
  8
0
 62
7
  6
CONTINUOUS
 10
364.543410024
 20
30.6035511455
 11
363.3871601343
 21
30.5712868422
 12
364.0809101343
 22
30.6358139363
 13
364.0809101343
 23
30.6358139363
  0
SOLID
  8
0
 62
7
  6
CONTINUOUS
 10
363.3871601343
 20
30.5712868422
 11
363.7340351343
 21
30.6358139363
 12
364.0809101343
 22
30.6358139363
 13
364.0809101343
 23
30.6358139363
  0
SOLID
  8
0
 62
7
  6
CONTINUOUS
 10
363.3871601343
 20
30.5712868422
 11
364.543410024
 21
30.6035511455
 12
363.5027853548
 22
30.5390225267
 13
363.5027853548
 23
30.5390225267
  0
SOLID
  8
0
 62
7
  6
CONTINUOUS
 10
364.543410024
 20
30.6035511455
 11
364.369972524
 21
30.5390225267
 12
363.5027853548
 22
30.5390225267
 13
363.5027853548
 23
30.5390225267
  0
SOLID
  8
0
 62
7
  6
CONTINUOUS
 10
363.7340351343
 20
30.5067596914
 11
363.5027853548
 21
30.5390225267
 12
364.369972524
 22
30.5390225267
 13
364.369972524
 23
30.5390225267
  0
SOLID
  8
0
 62
7
  6
CONTINUOUS
 10
364.369972524
 20
30.5390225267
 11
364.0809101343
 21
30.5067596914
 12
363.7340351343
 22
30.5067596914
 13
363.7340351343
 23
30.5067596914
  0
SOLID
  8
0
 62
7
  6
CONTINUOUS
 10
368.7637229651
 20
30.6680782357
 11
368.4168479651
 21
30.6358138717
 12
368.6480977445
 22
30.7003410226
 13
368.6480977445
 23
30.7003410226
  0
SOLID
  8
0
 62
7
  6
CONTINUOUS
 10
368.6480977445
 20
30.7003410226
 11
368.4168479651
 21
30.6358138717
 12
368.5902854651
 22
30.7648680521
 13
368.5902854651
 23
30.7648680521
  0
SOLID
  8
0
 62
7
  6
CONTINUOUS
 10
368.4168479651
 20
30.6358138717
 11
368.3012227445
 21
30.7648680521
 12
368.5902854651
 22
30.7648680521
 13
368.5902854651
 23
30.7648680521
  0
SOLID
  8
0
 62
7
  6
CONTINUOUS
 10
368.7637229651
 20
30.6680782357
 11
369.1105979651
 21
30.6358138717
 12
368.4168479651
 22
30.6358138717
 13
368.4168479651
 23
30.6358138717
  0
SOLID
  8
0
 62
7
  6
CONTINUOUS
 10
365.4684104651
 20
30.5067597521
 11
365.4684104651
 21
31.5391977439
 12
365.757472524
 22
30.5067597521
 13
365.757472524
 23
31.5391977439
  0
ENDBLK
  8
0
  6
BYBLOCK
 62
0
  0
BLOCK
  8
0
 62
2
  6
CONTINUOUS
  2
SYMBOL_0_BL0
 70
64
 10
240.8592468615
 20
19.762288695
  0
TEXT
  8
0
 62
7
  6
CONTINUOUS
 10
227.1239507038
 20
19.1357028027
  7
TEXTSTYLE_3
 40
2.7338706658
  1
Ammeraal Beltech
 41
1.0
 51
15.0
 72
0
  0
TEXT
  8
0
 62
7
  6
CONTINUOUS
 10
237.9247515296
 20
16.8621661299
  7
TEXTSTYLE_4
 40
1.0935482663
  1
Innovation & Service in Belting
 41
1.0
 72
0
  0
LINE
  8
0
 62
7
  6
CONTINUOUS
 10
221.0994100525
 20
19.9022961113
 11
221.8775620458
 21
23.5632134089
  0
LINE
  8
0
 62
7
  6
CONTINUOUS
 10
231.9727303357
 20
27.2266073205
 11
222.3653797889
 21
24.1049898993
  0
LINE
  8
0
 62
7
  6
CONTINUOUS
 10
221.3246933848
 20
19.2089453082
 11
228.8317686459
 21
12.4495443822
  0
LINE
  8
0
 62
7
  6
CONTINUOUS
 10
221.5872277955
 20
20.4440726016
 11
232.3954971607
 21
23.9558922005
  0
LINE
  8
0
 62
7
  6
CONTINUOUS
 10
232.3912920235
 20
13.6061036368
 11
223.9458323548
 21
21.2104296785
  0
LINE
  8
0
 62
7
  6
CONTINUOUS
 10
232.9111147433
 20
26.3816822048
 11
231.9345552061
 21
21.7873308023
  0
LINE
  8
0
 62
7
  6
CONTINUOUS
 10
231.2347532584
 20
18.4950214885
 11
230.5483050469
 21
15.2655365641
  0
LINE
  8
0
 62
7
  6
CONTINUOUS
 10
233.5922108419
 20
13.9963058145
 11
234.5484423775
 21
18.4950214885
  0
LINE
  8
0
 62
7
  6
CONTINUOUS
 10
235.2482443252
 20
21.7873308023
 11
235.6924861276
 21
23.8773241617
  0
LINE
  8
0
 62
7
  6
CONTINUOUS
 10
229.5448697213
 20
12.2979700695
 11
233.1043930989
 21
13.4545293241
  0
LINE
  8
0
 62
7
  6
CONTINUOUS
 10
232.685831411
 20
27.0750330078
 11
235.4672027953
 21
24.5706749648
  0
ARC
  8
0
 62
7
  6
CONTINUOUS
 10
222.5906631212
 20
23.4116390962
 40
0.7290321776
 50
108.0
 51
168.0
  0
ARC
  8
0
 62
7
  6
CONTINUOUS
 10
232.198013668
 20
26.5332565175
 40
0.7290321776
 50
348.0
 51
108.0
  0
ARC
  8
0
 62
7
  6
CONTINUOUS
 10
234.9793850522
 20
24.0288984744
 40
0.7290321776
 50
348.0
 51
48.0
  0
ARC
  8
0
 62
7
  6
CONTINUOUS
 10
229.319586389
 20
12.9913208726
 40
0.7290321776
 50
228.0
 51
288.0
  0
ARC
  8
0
 62
7
  6
CONTINUOUS
 10
221.8125111278
 20
19.7507217986
 40
0.7290321776
 50
108.0
 51
228.0
  0
ARC
  8
0
 62
7
  6
CONTINUOUS
 10
232.8791097665
 20
14.1478801272
 40
0.7290321776
 50
228.0
 51
348.0
  0
ENDBLK
  8
0
  6
BYBLOCK
 62
0
  0
ENDSEC
  0
SECTION
  2
ENTITIES
  0
TEXT
  8
0
 62
5
  6
CONTINUOUS
 10
304.937007874
 20
25.636
  7
TEXTSTYLE_2
 40
2.8
  1
Scale :
 41
0.6
 51
0.000019
 72
0
  0
TEXT
  8
0
 62
5
  6
CONTINUOUS
 10
324.937007874
 20
25.636
  7
TEXTSTYLE_2
 40
2.8
  1
Belt type:
 41
0.6
 51
0.000019
 72
0
  0
INSERT
  8
0
 62
2
  6
CONTINUOUS
  2
SYMBOL_0_BL0
 10
240.8592468615
 20
19.762288695
  0
INSERT
  8
0
 62
2
  6
CONTINUOUS
  2
SYMBOL_5_BL1
 10
382.7840918555
 20
35.5067593403
  0
TEXT
  8
0
 62
7
  6
CONTINUOUS
 10
348.7934530707
 20
218.2061927876
  7
STANDARD
 40
3.5
  1
A_2_CENTER
 41
0.8
 72
0
  0
TEXT
  8
0
 62
7
  6
CONTINUOUS
 10
20.5008690614
 20
135.8129672897
  7
STANDARD
 40
3.5
  1
A_10
 41
0.8
 72
0
  0
TEXT
  8
0
 62
7
  6
CONTINUOUS
 10
367.8399544698
 20
135.8129672897
  7
STANDARD
 40
3.5
  1
A_10
 41
0.8
 72
0
  0
TEXT
  8
0
 62
7
  6
CONTINUOUS
 10
347.2871271028
 20
85.0502222897
  7
STANDARD
 40
3.5
  1
A_4
 41
0.8
 72
0
  0
TEXT
  8
0
 62
7
  6
CONTINUOUS
 10
367.8399544698
 20
85.0502222897
  7
STANDARD
 40
3.5
  1
A_4
 41
0.8
 72
0
  0
TEXT
  8
0
 62
7
  6
CONTINUOUS
 10
180.4988317759
 20
110.4129672897
  7
STANDARD
 40
3.5
  1
A_11
 41
0.8
 72
0
  0
TEXT
  8
0
 62
7
  6
CONTINUOUS
 10
180.4988317759
 20
207.9167191033
  7
STANDARD
 40
3.5
  1
A_11
 41
0.8
 72
0
  0
TEXT
  8
0
 62
7
  6
CONTINUOUS
 10
357.5504807856
 20
110.4129672897
  7
STANDARD
 40
3.5
  1
A_11
 41
0.8
 72
0
  0
LINE
  8
0
 62
2
  6
CONTINUOUS
 10
218.937007874
 20
30.0
 11
408.937007874
 21
30.0
  0
LINE
  8
0
 62
2
  6
CONTINUOUS
 10
218.937007874
 20
30.0
 11
218.937007874
 21
10.0
  0
LINE
  8
0
 62
2
  6
CONTINUOUS
 10
218.937007874
 20
10.0
 11
408.937007874
 21
10.0
  0
LINE
  8
0
 62
2
  6
CONTINUOUS
 10
303.937007874
 20
30.0
 11
303.937007874
 21
10.0
  0
LINE
  8
0
 62
2
  6
CONTINUOUS
 10
323.937007874
 20
30.0
 11
323.937007874
 21
10.0
  0
LINE
  8
0
 62
2
  6
CONTINUOUS
 10
408.937007874
 20
30.0
 11
408.937007874
 21
10.0
  0
TEXT
  8
0
 62
5
  6
CONTINUOUS
 10
221.937007874
 20
23.303
  7
TEXTSTYLE_5
 40
1.52
  1
                                                                     Ammeraal Beltech Modular A/S
 41
1.0
 72
0
  0
TEXT
  8
0
 62
5
  6
CONTINUOUS
 10
221.937007874
 20
20.595
  7
TEXTSTYLE_5
 40
1.5
  1
                                                                      Hjulmagervej 21, 7100 Vejle,  DK
 41
1.0
 72
0
  0
TEXT
  8
0
 62
5
  6
CONTINUOUS
 10
221.937007874
 20
17.881
  7
TEXTSTYLE_5
 40
1.495
  1
                                                                      tel: 
 41
1.0
 72
0
  0
TEXT
  8
0
 62
5
  6
CONTINUOUS
 10
266.9239544389
 20
17.881
  7
TEXTSTYLE_5
 40
1.51
  1
+45 75723100     fax: +45 75723348
 41
1.0
 72
0
  0
TEXT
  8
0
 62
5
  6
CONTINUOUS
 10
221.937007874
 20
15.177
  7
TEXTSTYLE_5
 40
1.5
  1
                                                                      admin@unichains.dk  www.unichains.com
 41
1.0
 72
0
  0
TEXT
  8
0
 62
5
  6
CONTINUOUS
 10
308.687007874
 20
13.75
  7
TEXTSTYLE_6
 40
5.0
  1
1:1
 41
0.7
 72
1
 11
313.937007874
 21
13.75
  0
TEXT
  8
0
 62
5
  6
CONTINUOUS
 10
326.937007874
 20
13.75
  7
TEXTSTYLE_7
 40
7.5
  1
K1200 Rubber top indent 30mm / 130mm
 41
0.3002083333
 72
0
  0
LINE
  8
0
 62
7
  6
CONTINUOUS
 10
0.0
 20
0.0
 11
0.0
 21
297.0
  0
LINE
  8
0
 62
7
  6
CONTINUOUS
 10
8.937007874
 20
10.0
 11
8.937007874
 21
287.0
  0
LINE
  8
0
 62
7
  6
CONTINUOUS
 10
0.0
 20
0.0
 11
420.0
 21
0.0
  0
LINE
  8
0
 62
7
  6
CONTINUOUS
 10
408.937007874
 20
10.0
 11
8.937007874
 21
10.0
  0
LINE
  8
0
 62
7
  6
CONTINUOUS
 10
218.937007874
 20
30.0
 11
408.937007874
 21
30.0
  0
LINE
  8
0
 62
7
  6
CONTINUOUS
 10
210.0
 20
297.0
 11
210.0
 21
292.0
  0
LINE
  8
0
 62
7
  6
CONTINUOUS
 10
210.0
 20
0.0
 11
210.0
 21
5.0
  0
LINE
  8
0
 62
7
  6
CONTINUOUS
 10
8.937007874
 20
287.0
 11
408.937007874
 21
287.0
  0
LINE
  8
0
 62
7
  6
CONTINUOUS
 10
0.0
 20
297.0
 11
420.0
 21
297.0
  0
LINE
  8
0
 62
7
  6
CONTINUOUS
 10
408.937007874
 20
287.0
 11
408.937007874
 21
10.0
  0
LINE
  8
0
 62
7
  6
CONTINUOUS
 10
420.0
 20
0.0
 11
420.0
 21
297.0
  0
LINE
  8
0
 62
7
  6
CONTINUOUS
 10
28.2488317759
 20
79.7129672897
 11
28.2488317759
 21
84.4063125495
  0
LINE
  8
0
 62
7
  6
CONTINUOUS
 10
28.3488317759
 20
107.9129672897
 11
28.3488317759
 21
112.7383066869
  0
LINE
  8
0
 62
7
  6
CONTINUOUS
 10
30.9488317759
 20
91.5454334452
 11
30.9488317759
 21
107.3129672897
  0
LINE
  8
0
 62
7
  6
CONTINUOUS
 10
37.9488317759
 20
105.6129672897
 11
37.9488317759
 21
91.5454334452
  0
LINE
  8
0
 62
7
  6
CONTINUOUS
 10
40.6488317759
 20
84.4063125495
 11
40.6488317759
 21
79.7129672897
  0
LINE
  8
0
 62
7
  6
CONTINUOUS
 10
40.6281702511
 20
84.5157201189
 11
38.0177035251
 21
91.180741547
  0
LINE
  8
0
 62
7
  6
CONTINUOUS
 10
40.9488317759
 20
136.419625764
 11
40.9488317759
 21
141.1129672897
  0
LINE
  8
0
 62
7
  6
CONTINUOUS
 10
43.6488317759
 20
129.2809766096
 11
43.6488317759
 21
113.4885424315
  0
LINE
  8
0
 62
7
  6
CONTINUOUS
 10
50.6488317759
 20
129.2809766096
 11
50.6488317759
 21
113.4885424315
  0
LINE
  8
0
 62
7
  6
CONTINUOUS
 10
28.2694933006
 20
84.5157201189
 11
30.8799600266
 21
91.180741547
  0
LINE
  8
0
 62
7
  6
CONTINUOUS
 10
53.3488317759
 20
141.1129672897
 11
53.3488317759
 21
136.419625764
  0
LINE
  8
0
 62
7
  6
CONTINUOUS
 10
53.6488317759
 20
79.7129672897
 11
53.6488317759
 21
84.4063125495
  0
LINE
  8
0
 62
7
  6
CONTINUOUS
 10
56.3488317759
 20
105.6129672897
 11
56.3488317759
 21
91.5454334452
  0
LINE
  8
0
 62
7
  6
CONTINUOUS
 10
57.1488317759
 20
88.6629672897
 11
57.1488317759
 21
90.1940436823
  0
LINE
  8
0
 62
7
  6
CONTINUOUS
 10
57.4488317416
 20
91.5454285586
 11
57.4488317416
 21
107.6248735359
  0
LINE
  8
0
 62
7
  6
CONTINUOUS
 10
50.7177122912
 20
129.6456908885
 11
53.3281676213
 21
136.3102114803
  0
LINE
  8
0
 62
7
  6
CONTINUOUS
 10
40.9694959305
 20
136.3102114803
 11
43.5799512606
 21
129.6456908885
  0
LINE
  8
0
 62
7
  6
CONTINUOUS
 10
62.2488317759
 20
105.6129672897
 11
62.2488317759
 21
91.5454334452
  0
LINE
  8
0
 62
7
  6
CONTINUOUS
 10
62.5488317759
 20
90.1940436823
 11
62.5488317759
 21
88.6629672897
  0
LINE
  8
0
 62
7
  6
CONTINUOUS
 10
63.3488317759
 20
105.6129672897
 11
63.3488317759
 21
91.5454334452
  0
LINE
  8
0
 62
7
  6
CONTINUOUS
 10
66.0488317759
 20
84.4063125495
 11
66.0488317759
 21
79.7129672897
  0
LINE
  8
0
 62
7
  6
CONTINUOUS
 10
66.3488317759
 20
136.419625764
 11
66.3488317759
 21
141.1129672897
  0
LINE
  8
0
 62
7
  6
CONTINUOUS
 10
69.0488317759
 20
129.2809766096
 11
69.0488317759
 21
113.4885424315
  0
LINE
  8
0
 62
7
  6
CONTINUOUS
 10
69.8488317759
 20
130.6323507438
 11
69.8488317759
 21
132.1629672897
  0
LINE
  8
0
 62
7
  6
CONTINUOUS
 10
70.1488317759
 20
113.4885431138
 11
70.1488317759
 21
129.2809766096
  0
LINE
  8
0
 62
7
  6
CONTINUOUS
 10
53.6694933006
 20
84.5157201189
 11
56.2799600266
 21
91.180741547
  0
LINE
  8
0
 62
7
  6
CONTINUOUS
 10
62.3934624493
 20
90.779580459
 11
62.4799600266
 21
90.5587355806
  0
LINE
  8
0
 62
7
  6
CONTINUOUS
 10
66.0281702511
 20
84.5157201189
 11
63.4177035251
 21
91.180741547
  0
POLYLINE
  8
0
 62
7
  6
CONTINUOUS
 66
1
 70
0
  0
VERTEX
  8
0
 62
7
  6
CONTINUOUS
 10
74.9488317759
 20
113.4885436809
  0
VERTEX
  8
0
 62
7
  6
CONTINUOUS
 10
74.9506872927
 20
113.3729771853
  0
VERTEX
  8
0
 62
7
  6
CONTINUOUS
 10
74.9559174232
 20
113.2630329557
  0
VERTEX
  8
0
 62
7
  6
CONTINUOUS
 10
74.9641659269
 20
113.1572896733
  0
VERTEX
  8
0
 62
7
  6
CONTINUOUS
 10
74.9752362801
 20
113.0544134905
  0
VERTEX
  8
0
 62
7
  6
CONTINUOUS
 10
74.9891041822
 20
112.9530933314
  0
VERTEX
  8
0
 62
7
  6
CONTINUOUS
 10
75.0058829374
 20
112.8520827849
  0
VERTEX
  8
0
 62
7
  6
CONTINUOUS
 10
75.0255899374
 20
112.7512960313
  0
VERTEX
  8
0
 62
7
  6
CONTINUOUS
 10
75.0481470214
 20
112.6512107922
  0
VERTEX
  8
0
 62
7
  6
CONTINUOUS
 10
75.0735469414
 20
112.5518856495
  0
VERTEX
  8
0
 62
7
  6
CONTINUOUS
 10
75.1017977325
 20
112.4532679456
  0
VERTEX
  8
0
 62
7
  6
CONTINUOUS
 10
75.1328554812
 20
112.3554908382
  0
VERTEX
  8
0
 62
7
  6
CONTINUOUS
 10
75.1666925749
 20
112.2586843603
  0
VERTEX
  8
0
 62
7
  6
CONTINUOUS
 10
75.2033489843
 20
112.1627981938
  0
VERTEX
  8
0
 62
7
  6
CONTINUOUS
 10
75.2428187792
 20
112.0679263137
  0
VERTEX
  8
0
 62
7
  6
CONTINUOUS
 10
75.2850668899
 20
111.9742458587
  0
VERTEX
  8
0
 62
7
  6
CONTINUOUS
 10
75.33015701
 20
111.8816783968
  0
VERTEX
  8
0
 62
7
  6
CONTINUOUS
 10
75.3781724923
 20
111.7901272779
  0
VERTEX
  8
0
 62
7
  6
CONTINUOUS
 10
75.4288947475
 20
111.7000625462
  0
VERTEX
  8
0
 62
7
  6
CONTINUOUS
 10
75.4820737633
 20
111.6118836396
  0
VERTEX
  8
0
 62
7
  6
CONTINUOUS
 10
75.5395391403
 20
111.522805502
  0
VERTEX
  8
0
 62
7
  6
CONTINUOUS
 10
75.6045644605
 20
111.4287863601
  0
VERTEX
  8
0
 62
7
  6
CONTINUOUS
 10
75.6808753087
 20
111.3264558886
  0
VERTEX
  8
0
 62
7
  6
CONTINUOUS
 10
75.76887325
 20
111.2178194143
  0
VERTEX
  8
0
 62
7
  6
CONTINUOUS
 10
75.8624656157
 20
111.1118665613
  0
VERTEX
  8
0
 62
7
  6
CONTINUOUS
 10
75.9540739833
 20
111.0165495444
  0
VERTEX
  8
0
 62
7
  6
CONTINUOUS
 10
76.0405853481
 20
110.9332703823
  0
VERTEX
  8
0
 62
7
  6
CONTINUOUS
 10
76.124022827
 20
110.8585461573
  0
VERTEX
  8
0
 62
7
  6
CONTINUOUS
 10
76.207096442
 20
110.7891422493
  0
VERTEX
  8
0
 62
7
  6
CONTINUOUS
 10
76.2919766656
 20
110.7229933102
  0
VERTEX
  8
0
 62
7
  6
CONTINUOUS
 10
76.3789567583
 20
110.6598676906
  0
VERTEX
  8
0
 62
7
  6
CONTINUOUS
 10
76.4680211255
 20
110.5998057836
  0
VERTEX
  8
0
 62
7
  6
CONTINUOUS
 10
76.559001862
 20
110.5429597266
  0
VERTEX
  8
0
 62
7
  6
CONTINUOUS
 10
76.6520125337
 20
110.4893299995
  0
VERTEX
  8
0
 62
7
  6
CONTINUOUS
 10
76.7473781146
 20
110.4388188333
  0
VERTEX
  8
0
 62
7
  6
CONTINUOUS
 10
76.8450576929
 20
110.3915686233
  0
VERTEX
  8
0
 62
7
  6
CONTINUOUS
 10
76.9449629393
 20
110.347712181
  0
VERTEX
  8
0
 62
7
  6
CONTINUOUS
 10
77.0467457368
 20
110.307457654
  0
VERTEX
  8
0
 62
7
  6
CONTINUOUS
 10
77.1501127277
 20
110.2709670567
  0
VERTEX
  8
0
 62
7
  6
CONTINUOUS
 10
77.2549746211
 20
110.2383130472
  0
VERTEX
  8
0
 62
7
  6
CONTINUOUS
 10
77.3612538063
 20
110.2095787688
  0
VERTEX
  8
0
 62
7
  6
CONTINUOUS
 10
77.4685116625
 20
110.1849355752
  0
VERTEX
  8
0
 62
7
  6
CONTINUOUS
 10
77.5768820266
 20
110.1644184538
  0
VERTEX
  8
0
 62
7
  6
CONTINUOUS
 10
77.6876398845
 20
110.1479276554
  0
VERTEX
  8
0
 62
7
  6
CONTINUOUS
 10
77.8022424654
 20
110.135567784
  0
VERTEX
  8
0
 62
7
  6
CONTINUOUS
 10
77.922123457
 20
110.1276799362
  0
VERTEX
  8
0
 62
7
  6
CONTINUOUS
 10
78.0488318642
 20
110.124867748
  0
SEQEND
  0
LINE
  8
0
 62
7
  6
CONTINUOUS
 10
74.9488317759
 20
129.2809766096
 11
74.9488317759
 21
113.4885436809
  0
LINE
  8
0
 62
7
  6
CONTINUOUS
 10
75.2488317759
 20
132.1629672897
 11
75.2488317759
 21
130.6323507438
  0
LINE
  8
0
 62
7
  6
CONTINUOUS
 10
76.0488317759
 20
129.2809766096
 11
76.0488317759
 21
113.4885424315
  0
LINE
  8
0
 62
7
  6
CONTINUOUS
 10
78.7488317759
 20
141.1129672897
 11
78.7488317759
 21
136.419625764
  0
LINE
  8
0
 62
7
  6
CONTINUOUS
 10
79.0488317759
 20
79.7129672897
 11
79.0488317759
 21
84.4063125495
  0
LINE
  8
0
 62
7
  6
CONTINUOUS
 10
81.7488317759
 20
105.6129672897
 11
81.7488317759
 21
91.5454334452
  0
LINE
  8
0
 62
7
  6
CONTINUOUS
 10
82.5488317759
 20
88.6629672897
 11
82.5488317759
 21
90.1940436823
  0
LINE
  8
0
 62
7
  6
CONTINUOUS
 10
82.8488317759
 20
91.5454334452
 11
82.8488317759
 21
105.6129672897
  0
LINE
  8
0
 62
7
  6
CONTINUOUS
 10
57.2177035251
 20
90.5587355806
 11
57.3042011025
 21
90.779580459
  0
LINE
  8
0
 62
7
  6
CONTINUOUS
 10
75.1799512606
 20
130.2676364649
 11
75.093480858
 21
130.0468765953
  0
LINE
  8
0
 62
7
  6
CONTINUOUS
 10
76.1177122912
 20
129.6456908885
 11
78.7281676213
 21
136.3102114803
  0
LINE
  8
0
 62
7
  6
CONTINUOUS
 10
87.6488317759
 20
105.6129672897
 11
87.6488317759
 21
91.5454334452
  0
LINE
  8
0
 62
7
  6
CONTINUOUS
 10
87.9488317759
 20
90.1940436823
 11
87.9488317759
 21
88.6629672897
  0
LINE
  8
0
 62
7
  6
CONTINUOUS
 10
88.7488317759
 20
105.6129672897
 11
88.7488317759
 21
91.5454334452
  0
LINE
  8
0
 62
7
  6
CONTINUOUS
 10
91.4488317759
 20
84.4063125495
 11
91.4488317759
 21
79.7129672897
  0
LINE
  8
0
 62
7
  6
CONTINUOUS
 10
91.7488317759
 20
136.419625764
 11
91.7488317759
 21
141.1129672897
  0
LINE
  8
0
 62
7
  6
CONTINUOUS
 10
66.3694959305
 20
136.3102114803
 11
68.9799512606
 21
129.6456908885
  0
LINE
  8
0
 62
7
  6
CONTINUOUS
 10
70.0041826937
 20
130.0468765953
 11
69.9177122912
 21
130.2676364649
  0
LINE
  8
0
 62
7
  6
CONTINUOUS
 10
87.7934624493
 20
90.779580459
 11
87.8799600266
 21
90.5587355806
  0
LINE
  8
0
 62
7
  6
CONTINUOUS
 10
91.4281702511
 20
84.5157201189
 11
88.8177035251
 21
91.180741547
  0
POLYLINE
  8
0
 62
7
  6
CONTINUOUS
 66
1
 70
0
  0
VERTEX
  8
0
 62
7
  6
CONTINUOUS
 10
100.3488317759
 20
113.488543681
  0
VERTEX
  8
0
 62
7
  6
CONTINUOUS
 10
100.3506872927
 20
113.3729771853
  0
VERTEX
  8
0
 62
7
  6
CONTINUOUS
 10
100.3559174232
 20
113.2630329558
  0
VERTEX
  8
0
 62
7
  6
CONTINUOUS
 10
100.3641659269
 20
113.1572896734
  0
VERTEX
  8
0
 62
7
  6
CONTINUOUS
 10
100.3752362801
 20
113.0544134906
  0
VERTEX
  8
0
 62
7
  6
CONTINUOUS
 10
100.3891041822
 20
112.9530933315
  0
VERTEX
  8
0
 62
7
  6
CONTINUOUS
 10
100.4058829374
 20
112.8520827849
  0
VERTEX
  8
0
 62
7
  6
CONTINUOUS
 10
100.4255899374
 20
112.7512960313
  0
VERTEX
  8
0
 62
7
  6
CONTINUOUS
 10
100.4481470213
 20
112.6512107922
  0
VERTEX
  8
0
 62
7
  6
CONTINUOUS
 10
100.4735469414
 20
112.5518856495
  0
VERTEX
  8
0
 62
7
  6
CONTINUOUS
 10
100.5017977325
 20
112.4532679456
  0
VERTEX
  8
0
 62
7
  6
CONTINUOUS
 10
100.5328554812
 20
112.3554908382
  0
VERTEX
  8
0
 62
7
  6
CONTINUOUS
 10
100.5666925748
 20
112.2586843603
  0
VERTEX
  8
0
 62
7
  6
CONTINUOUS
 10
100.6033489843
 20
112.1627981938
  0
VERTEX
  8
0
 62
7
  6
CONTINUOUS
 10
100.6428187792
 20
112.0679263137
  0
VERTEX
  8
0
 62
7
  6
CONTINUOUS
 10
100.6850668899
 20
111.9742458587
  0
VERTEX
  8
0
 62
7
  6
CONTINUOUS
 10
100.73015701
 20
111.8816783968
  0
VERTEX
  8
0
 62
7
  6
CONTINUOUS
 10
100.7781724923
 20
111.7901272779
  0
VERTEX
  8
0
 62
7
  6
CONTINUOUS
 10
100.8288947475
 20
111.7000625462
  0
VERTEX
  8
0
 62
7
  6
CONTINUOUS
 10
100.8820737633
 20
111.6118836396
  0
VERTEX
  8
0
 62
7
  6
CONTINUOUS
 10
100.9395391403
 20
111.522805502
  0
VERTEX
  8
0
 62
7
  6
CONTINUOUS
 10
101.0045644605
 20
111.4287863601
  0
VERTEX
  8
0
 62
7
  6
CONTINUOUS
 10
101.0808753087
 20
111.3264558887
  0
VERTEX
  8
0
 62
7
  6
CONTINUOUS
 10
101.1688732499
 20
111.2178194143
  0
VERTEX
  8
0
 62
7
  6
CONTINUOUS
 10
101.2624656157
 20
111.1118665613
  0
VERTEX
  8
0
 62
7
  6
CONTINUOUS
 10
101.3540739832
 20
111.0165495444
  0
VERTEX
  8
0
 62
7
  6
CONTINUOUS
 10
101.4405853481
 20
110.9332703823
  0
VERTEX
  8
0
 62
7
  6
CONTINUOUS
 10
101.524022827
 20
110.8585461573
  0
VERTEX
  8
0
 62
7
  6
CONTINUOUS
 10
101.607096442
 20
110.7891422493
  0
VERTEX
  8
0
 62
7
  6
CONTINUOUS
 10
101.6919766656
 20
110.7229933102
  0
VERTEX
  8
0
 62
7
  6
CONTINUOUS
 10
101.7789567583
 20
110.6598676906
  0
VERTEX
  8
0
 62
7
  6
CONTINUOUS
 10
101.8680211255
 20
110.5998057836
  0
VERTEX
  8
0
 62
7
  6
CONTINUOUS
 10
101.9590018619
 20
110.5429597266
  0
VERTEX
  8
0
 62
7
  6
CONTINUOUS
 10
102.0520125337
 20
110.4893299995
  0
VERTEX
  8
0
 62
7
  6
CONTINUOUS
 10
102.1473781146
 20
110.4388188333
  0
VERTEX
  8
0
 62
7
  6
CONTINUOUS
 10
102.2450576929
 20
110.3915686233
  0
VERTEX
  8
0
 62
7
  6
CONTINUOUS
 10
102.3449629393
 20
110.347712181
  0
VERTEX
  8
0
 62
7
  6
CONTINUOUS
 10
102.4467457368
 20
110.307457654
  0
VERTEX
  8
0
 62
7
  6
CONTINUOUS
 10
102.5501127277
 20
110.2709670567
  0
VERTEX
  8
0
 62
7
  6
CONTINUOUS
 10
102.6549746211
 20
110.2383130473
  0
VERTEX
  8
0
 62
7
  6
CONTINUOUS
 10
102.7612538063
 20
110.2095787688
  0
VERTEX
  8
0
 62
7
  6
CONTINUOUS
 10
102.8685116625
 20
110.1849355752
  0
VERTEX
  8
0
 62
7
  6
CONTINUOUS
 10
102.9768820266
 20
110.1644184538
  0
VERTEX
  8
0
 62
7
  6
CONTINUOUS
 10
103.0876398845
 20
110.1479276554
  0
VERTEX
  8
0
 62
7
  6
CONTINUOUS
 10
103.2022424654
 20
110.135567784
  0
VERTEX
  8
0
 62
7
  6
CONTINUOUS
 10
103.322123457
 20
110.1276799362
  0
VERTEX
  8
0
 62
7
  6
CONTINUOUS
 10
103.4488318642
 20
110.124867748
  0
SEQEND
  0
LINE
  8
0
 62
7
  6
CONTINUOUS
 10
94.4488317759
 20
129.2809766096
 11
94.4488317759
 21
113.4885424315
  0
LINE
  8
0
 62
7
  6
CONTINUOUS
 10
95.2488317759
 20
130.6323507438
 11
95.2488317759
 21
132.1629672897
  0
LINE
  8
0
 62
7
  6
CONTINUOUS
 10
95.5488317759
 20
113.4885431137
 11
95.5488317759
 21
129.2809766096
  0
LINE
  8
0
 62
7
  6
CONTINUOUS
 10
100.3488317759
 20
129.2809766096
 11
100.3488317759
 21
113.488543681
  0
LINE
  8
0
 62
7
  6
CONTINUOUS
 10
100.6488317759
 20
132.1629672897
 11
100.6488317759
 21
130.6323507438
  0
LINE
  8
0
 62
7
  6
CONTINUOUS
 10
101.4488317759
 20
129.2809766096
 11
101.4488317759
 21
113.4885424315
  0
LINE
  8
0
 62
7
  6
CONTINUOUS
 10
104.1488317759
 20
141.1129672897
 11
104.1488317759
 21
136.419625764
  0
LINE
  8
0
 62
7
  6
CONTINUOUS
 10
104.4488317759
 20
79.7129672897
 11
104.4488317759
 21
84.4063125495
  0
LINE
  8
0
 62
7
  6
CONTINUOUS
 10
79.0694933006
 20
84.5157201189
 11
81.6799600266
 21
91.180741547
  0
LINE
  8
0
 62
7
  6
CONTINUOUS
 10
82.6177035251
 20
90.5587355806
 11
82.7042011025
 21
90.779580459
  0
LINE
  8
0
 62
7
  6
CONTINUOUS
 10
100.5799512606
 20
130.2676364649
 11
100.493480858
 21
130.0468765953
  0
LINE
  8
0
 62
7
  6
CONTINUOUS
 10
101.5177122912
 20
129.6456908885
 11
104.1281676213
 21
136.3102114803
  0
LINE
  8
0
 62
7
  6
CONTINUOUS
 10
107.1488317759
 20
105.6129672897
 11
107.1488317759
 21
91.5454334452
  0
LINE
  8
0
 62
7
  6
CONTINUOUS
 10
107.9488317759
 20
88.6629672897
 11
107.9488317759
 21
90.1940436823
  0
LINE
  8
0
 62
7
  6
CONTINUOUS
 10
108.2488317759
 20
91.5454334452
 11
108.2488317759
 21
105.6129672897
  0
LINE
  8
0
 62
7
  6
CONTINUOUS
 10
113.0488317759
 20
105.6129672897
 11
113.0488317759
 21
91.5454334452
  0
LINE
  8
0
 62
7
  6
CONTINUOUS
 10
113.3488317759
 20
90.1940436823
 11
113.3488317759
 21
88.6629672897
  0
LINE
  8
0
 62
7
  6
CONTINUOUS
 10
114.1488317759
 20
105.6129672897
 11
114.1488317759
 21
91.5454334452
  0
LINE
  8
0
 62
7
  6
CONTINUOUS
 10
91.7694959305
 20
136.3102114803
 11
94.3799512606
 21
129.6456908885
  0
LINE
  8
0
 62
7
  6
CONTINUOUS
 10
95.4041826937
 20
130.0468765953
 11
95.3177122912
 21
130.2676364649
  0
LINE
  8
0
 62
7
  6
CONTINUOUS
 10
113.1934624493
 20
90.779580459
 11
113.2799600266
 21
90.5587355806
  0
LINE
  8
0
 62
7
  6
CONTINUOUS
 10
116.8281702511
 20
84.5157201189
 11
114.2177035251
 21
91.180741547
  0
LINE
  8
0
 62
7
  6
CONTINUOUS
 10
116.8488317759
 20
84.4063125495
 11
116.8488317759
 21
79.7129672897
  0
LINE
  8
0
 62
7
  6
CONTINUOUS
 10
117.1488317759
 20
136.419625764
 11
117.1488317759
 21
141.1129672897
  0
LINE
  8
0
 62
7
  6
CONTINUOUS
 10
119.8488317759
 20
129.2809766096
 11
119.8488317759
 21
113.4885424315
  0
LINE
  8
0
 62
7
  6
CONTINUOUS
 10
120.6488317759
 20
130.6323507438
 11
120.6488317759
 21
132.1629672897
  0
LINE
  8
0
 62
7
  6
CONTINUOUS
 10
120.9488317759
 20
113.4885431137
 11
120.9488317759
 21
129.2809766096
  0
LINE
  8
0
 62
7
  6
CONTINUOUS
 10
104.4694933006
 20
84.5157201189
 11
107.0799600266
 21
91.180741547
  0
LINE
  8
0
 62
7
  6
CONTINUOUS
 10
108.0177035251
 20
90.5587355806
 11
108.1042011025
 21
90.779580459
  0
LINE
  8
0
 62
7
  6
CONTINUOUS
 10
125.9799512606
 20
130.2676364649
 11
125.893480858
 21
130.0468765953
  0
LINE
  8
0
 62
7
  6
CONTINUOUS
 10
126.9177122912
 20
129.6456908885
 11
129.5281676213
 21
136.3102114803
  0
POLYLINE
  8
0
 62
7
  6
CONTINUOUS
 66
1
 70
0
  0
VERTEX
  8
0
 62
7
  6
CONTINUOUS
 10
125.7488317759
 20
113.4885436808
  0
VERTEX
  8
0
 62
7
  6
CONTINUOUS
 10
125.7506872927
 20
113.3729771852
  0
VERTEX
  8
0
 62
7
  6
CONTINUOUS
 10
125.7559174233
 20
113.2630329556
  0
VERTEX
  8
0
 62
7
  6
CONTINUOUS
 10
125.7641659269
 20
113.1572896733
  0
VERTEX
  8
0
 62
7
  6
CONTINUOUS
 10
125.7752362801
 20
113.0544134905
  0
VERTEX
  8
0
 62
7
  6
CONTINUOUS
 10
125.7891041822
 20
112.9530933313
  0
VERTEX
  8
0
 62
7
  6
CONTINUOUS
 10
125.8058829374
 20
112.8520827848
  0
VERTEX
  8
0
 62
7
  6
CONTINUOUS
 10
125.8255899375
 20
112.7512960312
  0
VERTEX
  8
0
 62
7
  6
CONTINUOUS
 10
125.8481470214
 20
112.6512107921
  0
VERTEX
  8
0
 62
7
  6
CONTINUOUS
 10
125.8735469415
 20
112.5518856494
  0
VERTEX
  8
0
 62
7
  6
CONTINUOUS
 10
125.9017977326
 20
112.4532679455
  0
VERTEX
  8
0
 62
7
  6
CONTINUOUS
 10
125.9328554813
 20
112.3554908381
  0
VERTEX
  8
0
 62
7
  6
CONTINUOUS
 10
125.9666925749
 20
112.2586843602
  0
VERTEX
  8
0
 62
7
  6
CONTINUOUS
 10
126.0033489843
 20
112.1627981937
  0
VERTEX
  8
0
 62
7
  6
CONTINUOUS
 10
126.0428187792
 20
112.0679263136
  0
VERTEX
  8
0
 62
7
  6
CONTINUOUS
 10
126.0850668899
 20
111.9742458586
  0
VERTEX
  8
0
 62
7
  6
CONTINUOUS
 10
126.13015701
 20
111.8816783967
  0
VERTEX
  8
0
 62
7
  6
CONTINUOUS
 10
126.1781724924
 20
111.7901272778
  0
VERTEX
  8
0
 62
7
  6
CONTINUOUS
 10
126.2288947475
 20
111.7000625461
  0
VERTEX
  8
0
 62
7
  6
CONTINUOUS
 10
126.2820737633
 20
111.6118836396
  0
VERTEX
  8
0
 62
7
  6
CONTINUOUS
 10
126.3395391404
 20
111.5228055019
  0
VERTEX
  8
0
 62
7
  6
CONTINUOUS
 10
126.4045644605
 20
111.42878636
  0
VERTEX
  8
0
 62
7
  6
CONTINUOUS
 10
126.4808753088
 20
111.3264558886
  0
VERTEX
  8
0
 62
7
  6
CONTINUOUS
 10
126.56887325
 20
111.2178194143
  0
VERTEX
  8
0
 62
7
  6
CONTINUOUS
 10
126.6624656158
 20
111.1118665613
  0
VERTEX
  8
0
 62
7
  6
CONTINUOUS
 10
126.7540739833
 20
111.0165495444
  0
VERTEX
  8
0
 62
7
  6
CONTINUOUS
 10
126.8405853482
 20
110.9332703823
  0
VERTEX
  8
0
 62
7
  6
CONTINUOUS
 10
126.924022827
 20
110.8585461572
  0
VERTEX
  8
0
 62
7
  6
CONTINUOUS
 10
127.007096442
 20
110.7891422493
  0
VERTEX
  8
0
 62
7
  6
CONTINUOUS
 10
127.0919766657
 20
110.7229933101
  0
VERTEX
  8
0
 62
7
  6
CONTINUOUS
 10
127.1789567583
 20
110.6598676906
  0
VERTEX
  8
0
 62
7
  6
CONTINUOUS
 10
127.2680211256
 20
110.5998057836
  0
VERTEX
  8
0
 62
7
  6
CONTINUOUS
 10
127.359001862
 20
110.5429597265
  0
VERTEX
  8
0
 62
7
  6
CONTINUOUS
 10
127.4520125337
 20
110.4893299995
  0
VERTEX
  8
0
 62
7
  6
CONTINUOUS
 10
127.5473781146
 20
110.4388188332
  0
VERTEX
  8
0
 62
7
  6
CONTINUOUS
 10
127.6450576929
 20
110.3915686233
  0
VERTEX
  8
0
 62
7
  6
CONTINUOUS
 10
127.7449629394
 20
110.347712181
  0
VERTEX
  8
0
 62
7
  6
CONTINUOUS
 10
127.8467457368
 20
110.307457654
  0
VERTEX
  8
0
 62
7
  6
CONTINUOUS
 10
127.9501127277
 20
110.2709670567
  0
VERTEX
  8
0
 62
7
  6
CONTINUOUS
 10
128.0549746211
 20
110.2383130472
  0
VERTEX
  8
0
 62
7
  6
CONTINUOUS
 10
128.1612538063
 20
110.2095787688
  0
VERTEX
  8
0
 62
7
  6
CONTINUOUS
 10
128.2685116625
 20
110.1849355752
  0
VERTEX
  8
0
 62
7
  6
CONTINUOUS
 10
128.3768820266
 20
110.1644184538
  0
VERTEX
  8
0
 62
7
  6
CONTINUOUS
 10
128.4876398845
 20
110.1479276554
  0
VERTEX
  8
0
 62
7
  6
CONTINUOUS
 10
128.6022424654
 20
110.135567784
  0
VERTEX
  8
0
 62
7
  6
CONTINUOUS
 10
128.722123457
 20
110.1276799362
  0
VERTEX
  8
0
 62
7
  6
CONTINUOUS
 10
128.8488318642
 20
110.124867748
  0
SEQEND
  0
LINE
  8
0
 62
7
  6
CONTINUOUS
 10
125.7488317759
 20
129.2809766096
 11
125.7488317759
 21
113.4885436808
  0
LINE
  8
0
 62
7
  6
CONTINUOUS
 10
126.0488317759
 20
132.1629672897
 11
126.0488317759
 21
130.6323507438
  0
LINE
  8
0
 62
7
  6
CONTINUOUS
 10
126.8488317759
 20
129.2809766096
 11
126.8488317759
 21
113.4885424315
  0
LINE
  8
0
 62
7
  6
CONTINUOUS
 10
129.5488317759
 20
141.1129672897
 11
129.5488317759
 21
136.419625764
  0
LINE
  8
0
 62
7
  6
CONTINUOUS
 10
129.8488317759
 20
79.7129672897
 11
129.8488317759
 21
84.4063125495
  0
LINE
  8
0
 62
7
  6
CONTINUOUS
 10
132.5488317759
 20
105.6129672897
 11
132.5488317759
 21
91.5454334452
  0
LINE
  8
0
 62
7
  6
CONTINUOUS
 10
133.3488317759
 20
88.6629672897
 11
133.3488317759
 21
90.1940436823
  0
LINE
  8
0
 62
7
  6
CONTINUOUS
 10
133.6488317759
 20
91.5454334452
 11
133.6488317759
 21
105.6129672897
  0
LINE
  8
0
 62
7
  6
CONTINUOUS
 10
117.1694959305
 20
136.3102114803
 11
119.7799512606
 21
129.6456908885
  0
LINE
  8
0
 62
7
  6
CONTINUOUS
 10
120.8041826937
 20
130.0468765953
 11
120.7177122912
 21
130.2676364649
  0
LINE
  8
0
 62
7
  6
CONTINUOUS
 10
138.5934624493
 20
90.779580459
 11
138.6799600266
 21
90.5587355806
  0
LINE
  8
0
 62
7
  6
CONTINUOUS
 10
142.2281702511
 20
84.5157201189
 11
139.6177035251
 21
91.180741547
  0
LINE
  8
0
 62
7
  6
CONTINUOUS
 10
138.4488317759
 20
105.6129672897
 11
138.4488317759
 21
91.5454334452
  0
LINE
  8
0
 62
7
  6
CONTINUOUS
 10
138.7488317759
 20
90.1940436823
 11
138.7488317759
 21
88.6629672897
  0
LINE
  8
0
 62
7
  6
CONTINUOUS
 10
139.5488317759
 20
105.6129672897
 11
139.5488317759
 21
91.5454334452
  0
LINE
  8
0
 62
7
  6
CONTINUOUS
 10
142.2488317759
 20
84.4063125495
 11
142.2488317759
 21
79.7129672897
  0
LINE
  8
0
 62
7
  6
CONTINUOUS
 10
142.5488317759
 20
136.419625764
 11
142.5488317759
 21
141.1129672897
  0
LINE
  8
0
 62
7
  6
CONTINUOUS
 10
145.2488317759
 20
129.2809766096
 11
145.2488317759
 21
113.4885424315
  0
LINE
  8
0
 62
7
  6
CONTINUOUS
 10
146.0488317759
 20
130.6323507438
 11
146.0488317759
 21
132.1629672897
  0
LINE
  8
0
 62
7
  6
CONTINUOUS
 10
146.3488317759
 20
113.4885431138
 11
146.3488317759
 21
129.2809766096
  0
LINE
  8
0
 62
7
  6
CONTINUOUS
 10
129.8694933006
 20
84.5157201189
 11
132.4799600266
 21
91.180741547
  0
LINE
  8
0
 62
7
  6
CONTINUOUS
 10
133.4177035251
 20
90.5587355806
 11
133.5042011025
 21
90.779580459
  0
LINE
  8
0
 62
7
  6
CONTINUOUS
 10
151.3799512606
 20
130.2676364649
 11
151.293480858
 21
130.0468765953
  0
LINE
  8
0
 62
7
  6
CONTINUOUS
 10
317.3488317759
 20
77.0129672897
 11
310.3488317759
 21
77.0129672897
  0
LINE
  8
0
 62
7
  6
CONTINUOUS
 10
291.9488317759
 20
77.0129672897
 11
284.9488317759
 21
77.0129672897
  0
LINE
  8
0
 62
7
  6
CONTINUOUS
 10
266.5488317759
 20
77.0129672897
 11
259.5488317759
 21
77.0129672897
  0
LINE
  8
0
 62
7
  6
CONTINUOUS
 10
241.1488317759
 20
77.0129672897
 11
234.1488317759
 21
77.0129672897
  0
LINE
  8
0
 62
7
  6
CONTINUOUS
 10
215.7488317759
 20
77.0129672897
 11
208.7488317759
 21
77.0129672897
  0
LINE
  8
0
 62
7
  6
CONTINUOUS
 10
190.3488317759
 20
77.0129672897
 11
183.3488317759
 21
77.0129672897
  0
LINE
  8
0
 62
7
  6
CONTINUOUS
 10
164.9488317759
 20
77.0129672897
 11
157.9488317759
 21
77.0129672897
  0
LINE
  8
0
 62
7
  6
CONTINUOUS
 10
139.5488317759
 20
77.0129672897
 11
132.5488317759
 21
77.0129672897
  0
LINE
  8
0
 62
7
  6
CONTINUOUS
 10
114.1488317759
 20
77.0129672897
 11
107.1488317759
 21
77.0129672897
  0
LINE
  8
0
 62
7
  6
CONTINUOUS
 10
88.7488317759
 20
77.0129672897
 11
81.7488317759
 21
77.0129672897
  0
LINE
  8
0
 62
7
  6
CONTINUOUS
 10
63.3488317759
 20
77.0129672897
 11
56.3488317759
 21
77.0129672897
  0
LINE
  8
0
 62
7
  6
CONTINUOUS
 10
30.9488317759
 20
77.0129672897
 11
37.9488317759
 21
77.0129672897
  0
POLYLINE
  8
0
 62
7
  6
CONTINUOUS
 66
1
 70
0
  0
VERTEX
  8
0
 62
7
  6
CONTINUOUS
 10
151.1488317759
 20
113.4885436809
  0
VERTEX
  8
0
 62
7
  6
CONTINUOUS
 10
151.1506872927
 20
113.3729771853
  0
VERTEX
  8
0
 62
7
  6
CONTINUOUS
 10
151.1559174232
 20
113.2630329557
  0
VERTEX
  8
0
 62
7
  6
CONTINUOUS
 10
151.1641659269
 20
113.1572896733
  0
VERTEX
  8
0
 62
7
  6
CONTINUOUS
 10
151.1752362801
 20
113.0544134905
  0
VERTEX
  8
0
 62
7
  6
CONTINUOUS
 10
151.1891041822
 20
112.9530933314
  0
VERTEX
  8
0
 62
7
  6
CONTINUOUS
 10
151.2058829374
 20
112.8520827848
  0
VERTEX
  8
0
 62
7
  6
CONTINUOUS
 10
151.2255899375
 20
112.7512960313
  0
VERTEX
  8
0
 62
7
  6
CONTINUOUS
 10
151.2481470214
 20
112.6512107922
  0
VERTEX
  8
0
 62
7
  6
CONTINUOUS
 10
151.2735469414
 20
112.5518856495
  0
VERTEX
  8
0
 62
7
  6
CONTINUOUS
 10
151.3017977325
 20
112.4532679456
  0
VERTEX
  8
0
 62
7
  6
CONTINUOUS
 10
151.3328554812
 20
112.3554908382
  0
VERTEX
  8
0
 62
7
  6
CONTINUOUS
 10
151.3666925749
 20
112.2586843603
  0
VERTEX
  8
0
 62
7
  6
CONTINUOUS
 10
151.4033489843
 20
112.1627981938
  0
VERTEX
  8
0
 62
7
  6
CONTINUOUS
 10
151.4428187792
 20
112.0679263136
  0
VERTEX
  8
0
 62
7
  6
CONTINUOUS
 10
151.4850668899
 20
111.9742458587
  0
VERTEX
  8
0
 62
7
  6
CONTINUOUS
 10
151.53015701
 20
111.8816783967
  0
VERTEX
  8
0
 62
7
  6
CONTINUOUS
 10
151.5781724923
 20
111.7901272779
  0
VERTEX
  8
0
 62
7
  6
CONTINUOUS
 10
151.6288947475
 20
111.7000625462
  0
VERTEX
  8
0
 62
7
  6
CONTINUOUS
 10
151.6820737633
 20
111.6118836396
  0
VERTEX
  8
0
 62
7
  6
CONTINUOUS
 10
151.7395391403
 20
111.522805502
  0
VERTEX
  8
0
 62
7
  6
CONTINUOUS
 10
151.8045644605
 20
111.4287863601
  0
VERTEX
  8
0
 62
7
  6
CONTINUOUS
 10
151.8808753087
 20
111.3264558886
  0
VERTEX
  8
0
 62
7
  6
CONTINUOUS
 10
151.96887325
 20
111.2178194143
  0
VERTEX
  8
0
 62
7
  6
CONTINUOUS
 10
152.0624656157
 20
111.1118665613
  0
VERTEX
  8
0
 62
7
  6
CONTINUOUS
 10
152.1540739833
 20
111.0165495444
  0
VERTEX
  8
0
 62
7
  6
CONTINUOUS
 10
152.2405853481
 20
110.9332703823
  0
VERTEX
  8
0
 62
7
  6
CONTINUOUS
 10
152.324022827
 20
110.8585461573
  0
VERTEX
  8
0
 62
7
  6
CONTINUOUS
 10
152.407096442
 20
110.7891422493
  0
VERTEX
  8
0
 62
7
  6
CONTINUOUS
 10
152.4919766656
 20
110.7229933102
  0
VERTEX
  8
0
 62
7
  6
CONTINUOUS
 10
152.5789567583
 20
110.6598676906
  0
VERTEX
  8
0
 62
7
  6
CONTINUOUS
 10
152.6680211255
 20
110.5998057836
  0
VERTEX
  8
0
 62
7
  6
CONTINUOUS
 10
152.759001862
 20
110.5429597265
  0
VERTEX
  8
0
 62
7
  6
CONTINUOUS
 10
152.8520125337
 20
110.4893299995
  0
VERTEX
  8
0
 62
7
  6
CONTINUOUS
 10
152.9473781146
 20
110.4388188332
  0
VERTEX
  8
0
 62
7
  6
CONTINUOUS
 10
153.0450576929
 20
110.3915686233
  0
VERTEX
  8
0
 62
7
  6
CONTINUOUS
 10
153.1449629393
 20
110.347712181
  0
VERTEX
  8
0
 62
7
  6
CONTINUOUS
 10
153.2467457368
 20
110.307457654
  0
VERTEX
  8
0
 62
7
  6
CONTINUOUS
 10
153.3501127277
 20
110.2709670567
  0
VERTEX
  8
0
 62
7
  6
CONTINUOUS
 10
153.4549746211
 20
110.2383130472
  0
VERTEX
  8
0
 62
7
  6
CONTINUOUS
 10
153.5612538063
 20
110.2095787688
  0
VERTEX
  8
0
 62
7
  6
CONTINUOUS
 10
153.6685116625
 20
110.1849355752
  0
VERTEX
  8
0
 62
7
  6
CONTINUOUS
 10
153.7768820266
 20
110.1644184538
  0
VERTEX
  8
0
 62
7
  6
CONTINUOUS
 10
153.8876398845
 20
110.1479276554
  0
VERTEX
  8
0
 62
7
  6
CONTINUOUS
 10
154.0022424654
 20
110.135567784
  0
VERTEX
  8
0
 62
7
  6
CONTINUOUS
 10
154.122123457
 20
110.1276799362
  0
VERTEX
  8
0
 62
7
  6
CONTINUOUS
 10
154.2488318642
 20
110.124867748
  0
SEQEND
  0
LINE
  8
0
 62
7
  6
CONTINUOUS
 10
151.1488317759
 20
129.2809766096
 11
151.1488317759
 21
113.4885436809
  0
LINE
  8
0
 62
7
  6
CONTINUOUS
 10
151.4488317759
 20
132.1629672897
 11
151.4488317759
 21
130.6323507438
  0
LINE
  8
0
 62
7
  6
CONTINUOUS
 10
152.2488317759
 20
129.2809766096
 11
152.2488317759
 21
113.4885424315
  0
LINE
  8
0
 62
7
  6
CONTINUOUS
 10
154.9488317759
 20
141.1129672897
 11
154.9488317759
 21
136.419625764
  0
LINE
  8
0
 62
7
  6
CONTINUOUS
 10
155.2488317759
 20
79.7129672897
 11
155.2488317759
 21
84.4063125495
  0
LINE
  8
0
 62
7
  6
CONTINUOUS
 10
152.3177122912
 20
129.6456908885
 11
154.9281676213
 21
136.3102114803
  0
LINE
  8
DEFAULT_1
 62
2
  6
CENTER
 10
15.506753271
 20
85.0502222897
 11
347.2871271028
 21
85.0502222897
  0
LINE
  8
0
 62
7
  6
CONTINUOUS
 10
188.5488317759
 20
87.6629672897
 11
185.1488317759
 21
87.6629672897
  0
LINE
  8
0
 62
7
  6
CONTINUOUS
 10
163.1488317759
 20
87.6629672897
 11
159.7488317759
 21
87.6629672897
  0
LINE
  8
0
 62
7
  6
CONTINUOUS
 10
137.7488317759
 20
87.6629672897
 11
134.3488317759
 21
87.6629672897
  0
LINE
  8
0
 62
7
  6
CONTINUOUS
 10
112.3488317759
 20
87.6629672897
 11
108.9488317759
 21
87.6629672897
  0
LINE
  8
0
 62
7
  6
CONTINUOUS
 10
86.9488317759
 20
87.6629672897
 11
83.5488317759
 21
87.6629672897
  0
LINE
  8
0
 62
7
  6
CONTINUOUS
 10
61.5488317759
 20
87.6629672897
 11
58.1488317759
 21
87.6629672897
  0
LINE
  8
0
 62
7
  6
CONTINUOUS
 10
142.5694959305
 20
136.3102114803
 11
145.1799512606
 21
129.6456908885
  0
LINE
  8
0
 62
7
  6
CONTINUOUS
 10
146.2041826937
 20
130.0468765953
 11
146.1177122912
 21
130.2676364649
  0
LINE
  8
0
 62
7
  6
CONTINUOUS
 10
157.9488317759
 20
105.6129672897
 11
157.9488317759
 21
91.5454334452
  0
LINE
  8
0
 62
7
  6
CONTINUOUS
 10
158.7488317759
 20
88.6629672897
 11
158.7488317759
 21
90.1940436823
  0
LINE
  8
0
 62
7
  6
CONTINUOUS
 10
159.0488317759
 20
91.5454334452
 11
159.0488317759
 21
105.6129672897
  0
LINE
  8
0
 62
7
  6
CONTINUOUS
 10
163.8488317759
 20
105.6129672897
 11
163.8488317759
 21
91.5454334452
  0
LINE
  8
0
 62
7
  6
CONTINUOUS
 10
164.1488317759
 20
90.1940436823
 11
164.1488317759
 21
88.6629672897
  0
LINE
  8
0
 62
7
  6
CONTINUOUS
 10
164.9488317759
 20
105.6129672897
 11
164.9488317759
 21
91.5454334452
  0
LINE
  8
0
 62
7
  6
CONTINUOUS
 10
167.6488317759
 20
84.4063125495
 11
167.6488317759
 21
79.7129672897
  0
LINE
  8
0
 62
7
  6
CONTINUOUS
 10
167.9488317759
 20
136.419625764
 11
167.9488317759
 21
141.1129672897
  0
LINE
  8
0
 62
7
  6
CONTINUOUS
 10
155.2694933006
 20
84.5157201189
 11
157.8799600266
 21
91.180741547
  0
LINE
  8
0
 62
7
  6
CONTINUOUS
 10
158.8177035251
 20
90.5587355806
 11
158.9042011025
 21
90.779580459
  0
LINE
  8
0
 62
7
  6
CONTINUOUS
 10
163.9934624493
 20
90.779580459
 11
164.0799600266
 21
90.5587355806
  0
LINE
  8
0
 62
7
  6
CONTINUOUS
 10
167.6281702511
 20
84.5157201189
 11
165.0177035251
 21
91.180741547
  0
POLYLINE
  8
0
 62
7
  6
CONTINUOUS
 66
1
 70
0
  0
VERTEX
  8
0
 62
7
  6
CONTINUOUS
 10
176.5488317759
 20
113.488543681
  0
VERTEX
  8
0
 62
7
  6
CONTINUOUS
 10
176.5506872927
 20
113.3729771854
  0
VERTEX
  8
0
 62
7
  6
CONTINUOUS
 10
176.5559174232
 20
113.2630329558
  0
VERTEX
  8
0
 62
7
  6
CONTINUOUS
 10
176.5641659269
 20
113.1572896734
  0
VERTEX
  8
0
 62
7
  6
CONTINUOUS
 10
176.5752362801
 20
113.0544134906
  0
VERTEX
  8
0
 62
7
  6
CONTINUOUS
 10
176.5891041822
 20
112.9530933315
  0
VERTEX
  8
0
 62
7
  6
CONTINUOUS
 10
176.6058829374
 20
112.8520827849
  0
VERTEX
  8
0
 62
7
  6
CONTINUOUS
 10
176.6255899374
 20
112.7512960314
  0
VERTEX
  8
0
 62
7
  6
CONTINUOUS
 10
176.6481470213
 20
112.6512107923
  0
VERTEX
  8
0
 62
7
  6
CONTINUOUS
 10
176.6735469414
 20
112.5518856496
  0
VERTEX
  8
0
 62
7
  6
CONTINUOUS
 10
176.7017977325
 20
112.4532679457
  0
VERTEX
  8
0
 62
7
  6
CONTINUOUS
 10
176.7328554812
 20
112.3554908383
  0
VERTEX
  8
0
 62
7
  6
CONTINUOUS
 10
176.7666925748
 20
112.2586843604
  0
VERTEX
  8
0
 62
7
  6
CONTINUOUS
 10
176.8033489843
 20
112.1627981938
  0
VERTEX
  8
0
 62
7
  6
CONTINUOUS
 10
176.8428187792
 20
112.0679263137
  0
VERTEX
  8
0
 62
7
  6
CONTINUOUS
 10
176.8850668899
 20
111.9742458588
  0
VERTEX
  8
0
 62
7
  6
CONTINUOUS
 10
176.93015701
 20
111.8816783968
  0
VERTEX
  8
0
 62
7
  6
CONTINUOUS
 10
176.9781724923
 20
111.7901272779
  0
VERTEX
  8
0
 62
7
  6
CONTINUOUS
 10
177.0288947475
 20
111.7000625462
  0
VERTEX
  8
0
 62
7
  6
CONTINUOUS
 10
177.0820737633
 20
111.6118836397
  0
VERTEX
  8
0
 62
7
  6
CONTINUOUS
 10
177.1395391403
 20
111.522805502
  0
VERTEX
  8
0
 62
7
  6
CONTINUOUS
 10
177.2045644605
 20
111.4287863601
  0
VERTEX
  8
0
 62
7
  6
CONTINUOUS
 10
177.2808753087
 20
111.3264558887
  0
VERTEX
  8
0
 62
7
  6
CONTINUOUS
 10
177.3688732499
 20
111.2178194143
  0
VERTEX
  8
0
 62
7
  6
CONTINUOUS
 10
177.4624656157
 20
111.1118665614
  0
VERTEX
  8
0
 62
7
  6
CONTINUOUS
 10
177.5540739832
 20
111.0165495444
  0
VERTEX
  8
0
 62
7
  6
CONTINUOUS
 10
177.6405853481
 20
110.9332703823
  0
VERTEX
  8
0
 62
7
  6
CONTINUOUS
 10
177.724022827
 20
110.8585461573
  0
VERTEX
  8
0
 62
7
  6
CONTINUOUS
 10
177.807096442
 20
110.7891422493
  0
VERTEX
  8
0
 62
7
  6
CONTINUOUS
 10
177.8919766656
 20
110.7229933102
  0
VERTEX
  8
0
 62
7
  6
CONTINUOUS
 10
177.9789567583
 20
110.6598676906
  0
VERTEX
  8
0
 62
7
  6
CONTINUOUS
 10
178.0680211255
 20
110.5998057836
  0
VERTEX
  8
0
 62
7
  6
CONTINUOUS
 10
178.1590018619
 20
110.5429597266
  0
VERTEX
  8
0
 62
7
  6
CONTINUOUS
 10
178.2520125337
 20
110.4893299995
  0
VERTEX
  8
0
 62
7
  6
CONTINUOUS
 10
178.3473781146
 20
110.4388188333
  0
VERTEX
  8
0
 62
7
  6
CONTINUOUS
 10
178.4450576929
 20
110.3915686233
  0
VERTEX
  8
0
 62
7
  6
CONTINUOUS
 10
178.5449629393
 20
110.347712181
  0
VERTEX
  8
0
 62
7
  6
CONTINUOUS
 10
178.6467457367
 20
110.307457654
  0
VERTEX
  8
0
 62
7
  6
CONTINUOUS
 10
178.7501127277
 20
110.2709670567
  0
VERTEX
  8
0
 62
7
  6
CONTINUOUS
 10
178.8549746211
 20
110.2383130473
  0
VERTEX
  8
0
 62
7
  6
CONTINUOUS
 10
178.9612538063
 20
110.2095787688
  0
VERTEX
  8
0
 62
7
  6
CONTINUOUS
 10
179.0685116625
 20
110.1849355752
  0
VERTEX
  8
0
 62
7
  6
CONTINUOUS
 10
179.1768820266
 20
110.1644184538
  0
VERTEX
  8
0
 62
7
  6
CONTINUOUS
 10
179.2876398845
 20
110.1479276554
  0
VERTEX
  8
0
 62
7
  6
CONTINUOUS
 10
179.4022424654
 20
110.135567784
  0
VERTEX
  8
0
 62
7
  6
CONTINUOUS
 10
179.522123457
 20
110.1276799362
  0
VERTEX
  8
0
 62
7
  6
CONTINUOUS
 10
179.6488318642
 20
110.124867748
  0
SEQEND
  0
LINE
  8
0
 62
7
  6
CONTINUOUS
 10
170.6488317759
 20
129.2809766096
 11
170.6488317759
 21
113.4885424315
  0
LINE
  8
0
 62
7
  6
CONTINUOUS
 10
171.4488317759
 20
130.6323507438
 11
171.4488317759
 21
132.1629672897
  0
LINE
  8
0
 62
7
  6
CONTINUOUS
 10
171.7488317759
 20
113.4885431137
 11
171.7488317759
 21
129.2809766096
  0
LINE
  8
0
 62
7
  6
CONTINUOUS
 10
176.5488317759
 20
129.2809766096
 11
176.5488317759
 21
113.488543681
  0
LINE
  8
0
 62
7
  6
CONTINUOUS
 10
176.8488317759
 20
132.1629672897
 11
176.8488317759
 21
130.6323507438
  0
LINE
  8
0
 62
7
  6
CONTINUOUS
 10
177.6488317759
 20
129.2809766096
 11
177.6488317759
 21
113.4885424315
  0
LINE
  8
0
 62
7
  6
CONTINUOUS
 10
176.7799512606
 20
130.2676364649
 11
176.693480858
 21
130.0468765953
  0
LINE
  8
0
 62
7
  6
CONTINUOUS
 10
177.7177122912
 20
129.6456908885
 11
180.3281676213
 21
136.3102114803
  0
POLYLINE
  8
0
 62
7
  6
CONTINUOUS
 66
1
 70
0
  0
VERTEX
  8
0
 62
7
  6
CONTINUOUS
 10
194.0488317597
 20
110.124867748
  0
VERTEX
  8
0
 62
7
  6
CONTINUOUS
 10
194.1742226416
 20
110.1276730311
  0
VERTEX
  8
0
 62
7
  6
CONTINUOUS
 10
194.2934292902
 20
110.135525261
  0
VERTEX
  8
0
 62
7
  6
CONTINUOUS
 10
194.407761416
 20
110.1478088343
  0
VERTEX
  8
0
 62
7
  6
CONTINUOUS
 10
194.5185389102
 20
110.1641903485
  0
VERTEX
  8
0
 62
7
  6
CONTINUOUS
 10
194.6271008423
 20
110.1845861128
  0
VERTEX
  8
0
 62
7
  6
CONTINUOUS
 10
194.7345968889
 20
110.2090995976
  0
VERTEX
  8
0
 62
7
  6
CONTINUOUS
 10
194.8410643008
 20
110.2377330148
  0
VERTEX
  8
0
 62
7
  6
CONTINUOUS
 10
194.9461860417
 20
110.2703729235
  0
VERTEX
  8
0
 62
7
  6
CONTINUOUS
 10
195.0496469257
 20
110.3068509914
  0
VERTEX
  8
0
 62
7
  6
CONTINUOUS
 10
195.1512906174
 20
110.3470377874
  0
VERTEX
  8
0
 62
7
  6
CONTINUOUS
 10
195.2509913591
 20
110.3907949589
  0
VERTEX
  8
0
 62
7
  6
CONTINUOUS
 10
195.3486435664
 20
110.4379947607
  0
VERTEX
  8
0
 62
7
  6
CONTINUOUS
 10
195.4445070782
 20
110.4887066065
  0
VERTEX
  8
0
 62
7
  6
CONTINUOUS
 10
195.5387074512
 20
110.5429494578
  0
VERTEX
  8
0
 62
7
  6
CONTINUOUS
 10
195.6310373489
 20
110.6005845717
  0
VERTEX
  8
0
 62
7
  6
CONTINUOUS
 10
195.7211040665
 20
110.6613375901
  0
VERTEX
  8
0
 62
7
  6
CONTINUOUS
 10
195.8083445509
 20
110.7247226761
  0
VERTEX
  8
0
 62
7
  6
CONTINUOUS
 10
195.892649131
 20
110.790509128
  0
VERTEX
  8
0
 62
7
  6
CONTINUOUS
 10
195.9741966377
 20
110.8587071356
  0
VERTEX
  8
0
 62
7
  6
CONTINUOUS
 10
196.0530477992
 20
110.9292597664
  0
VERTEX
  8
0
 62
7
  6
CONTINUOUS
 10
196.1291857639
 20
111.0020458285
  0
VERTEX
  8
0
 62
7
  6
CONTINUOUS
 10
196.2026795691
 20
111.07703611
  0
VERTEX
  8
0
 62
7
  6
CONTINUOUS
 10
196.2735222943
 20
111.1541126566
  0
VERTEX
  8
0
 62
7
  6
CONTINUOUS
 10
196.3414439095
 20
111.2328517189
  0
VERTEX
  8
0
 62
7
  6
CONTINUOUS
 10
196.406966402
 20
111.3137606134
  0
VERTEX
  8
0
 62
7
  6
CONTINUOUS
 10
196.4716726677
 20
111.3989614417
  0
VERTEX
  8
0
 62
7
  6
CONTINUOUS
 10
196.5358280886
 20
111.4893424442
  0
VERTEX
  8
0
 62
7
  6
CONTINUOUS
 10
196.5983412946
 20
111.5839020285
  0
VERTEX
  8
0
 62
7
  6
CONTINUOUS
 10
196.6581281747
 20
111.6812808922
  0
VERTEX
  8
0
 62
7
  6
CONTINUOUS
 10
196.7143316653
 20
111.7800874996
  0
VERTEX
  8
0
 62
7
  6
CONTINUOUS
 10
196.7663935985
 20
111.8790509076
  0
VERTEX
  8
0
 62
7
  6
CONTINUOUS
 10
196.8139495998
 20
111.976900122
  0
VERTEX
  8
0
 62
7
  6
CONTINUOUS
 10
196.8567761283
 20
112.0723242697
  0
VERTEX
  8
0
 62
7
  6
CONTINUOUS
 10
196.8956622952
 20
112.1662156395
  0
VERTEX
  8
0
 62
7
  6
CONTINUOUS
 10
196.931912433
 20
112.2612868344
  0
VERTEX
  8
0
 62
7
  6
CONTINUOUS
 10
196.9656774456
 20
112.3579753397
  0
VERTEX
  8
0
 62
7
  6
CONTINUOUS
 10
196.9966653818
 20
112.4555262316
  0
VERTEX
  8
0
 62
7
  6
CONTINUOUS
 10
197.0248174874
 20
112.553728887
  0
VERTEX
  8
0
 62
7
  6
CONTINUOUS
 10
197.0501382623
 20
112.6526566367
  0
VERTEX
  8
0
 62
7
  6
CONTINUOUS
 10
197.0726235538
 20
112.7523772826
  0
VERTEX
  8
0
 62
7
  6
CONTINUOUS
 10
197.0922336935
 20
112.8527542665
  0
VERTEX
  8
0
 62
7
  6
CONTINUOUS
 10
197.1089056231
 20
112.9534535272
  0
VERTEX
  8
0
 62
7
  6
CONTINUOUS
 10
197.1226783955
 20
113.0546282192
  0
VERTEX
  8
0
 62
7
  6
CONTINUOUS
 10
197.1336593103
 20
113.1574345663
  0
VERTEX
  8
0
 62
7
  6
CONTINUOUS
 10
197.1418273335
 20
113.2631509495
  0
VERTEX
  8
0
 62
7
  6
CONTINUOUS
 10
197.1469996851
 20
113.3730729933
  0
VERTEX
  8
0
 62
7
  6
CONTINUOUS
 10
197.1488317759
 20
113.4885431136
  0
SEQEND
  0
POLYLINE
  8
0
 62
7
  6
CONTINUOUS
 66
1
 70
0
  0
VERTEX
  8
0
 62
7
  6
CONTINUOUS
 10
168.6488317597
 20
110.124867748
  0
VERTEX
  8
0
 62
7
  6
CONTINUOUS
 10
168.7742226416
 20
110.1276730311
  0
VERTEX
  8
0
 62
7
  6
CONTINUOUS
 10
168.8934292902
 20
110.135525261
  0
VERTEX
  8
0
 62
7
  6
CONTINUOUS
 10
169.007761416
 20
110.1478088343
  0
VERTEX
  8
0
 62
7
  6
CONTINUOUS
 10
169.1185389102
 20
110.1641903485
  0
VERTEX
  8
0
 62
7
  6
CONTINUOUS
 10
169.2271008423
 20
110.1845861128
  0
VERTEX
  8
0
 62
7
  6
CONTINUOUS
 10
169.3345968889
 20
110.2090995976
  0
VERTEX
  8
0
 62
7
  6
CONTINUOUS
 10
169.4410643008
 20
110.2377330148
  0
VERTEX
  8
0
 62
7
  6
CONTINUOUS
 10
169.5461860417
 20
110.2703729235
  0
VERTEX
  8
0
 62
7
  6
CONTINUOUS
 10
169.6496469257
 20
110.3068509914
  0
VERTEX
  8
0
 62
7
  6
CONTINUOUS
 10
169.7512906175
 20
110.3470377874
  0
VERTEX
  8
0
 62
7
  6
CONTINUOUS
 10
169.8509913592
 20
110.3907949589
  0
VERTEX
  8
0
 62
7
  6
CONTINUOUS
 10
169.9486435665
 20
110.4379947607
  0
VERTEX
  8
0
 62
7
  6
CONTINUOUS
 10
170.0445070783
 20
110.4887066065
  0
VERTEX
  8
0
 62
7
  6
CONTINUOUS
 10
170.1387074512
 20
110.5429494578
  0
VERTEX
  8
0
 62
7
  6
CONTINUOUS
 10
170.2310373489
 20
110.6005845717
  0
VERTEX
  8
0
 62
7
  6
CONTINUOUS
 10
170.3211040666
 20
110.6613375902
  0
VERTEX
  8
0
 62
7
  6
CONTINUOUS
 10
170.408344551
 20
110.7247226761
  0
VERTEX
  8
0
 62
7
  6
CONTINUOUS
 10
170.4926491311
 20
110.7905091281
  0
VERTEX
  8
0
 62
7
  6
CONTINUOUS
 10
170.5741966377
 20
110.8587071357
  0
VERTEX
  8
0
 62
7
  6
CONTINUOUS
 10
170.6530477992
 20
110.9292597664
  0
VERTEX
  8
0
 62
7
  6
CONTINUOUS
 10
170.7291857639
 20
111.0020458286
  0
VERTEX
  8
0
 62
7
  6
CONTINUOUS
 10
170.8026795692
 20
111.0770361101
  0
VERTEX
  8
0
 62
7
  6
CONTINUOUS
 10
170.8735222944
 20
111.1541126566
  0
VERTEX
  8
0
 62
7
  6
CONTINUOUS
 10
170.9414439096
 20
111.2328517189
  0
VERTEX
  8
0
 62
7
  6
CONTINUOUS
 10
171.006966402
 20
111.3137606134
  0
VERTEX
  8
0
 62
7
  6
CONTINUOUS
 10
171.0716726677
 20
111.3989614418
  0
VERTEX
  8
0
 62
7
  6
CONTINUOUS
 10
171.1358280887
 20
111.4893424442
  0
VERTEX
  8
0
 62
7
  6
CONTINUOUS
 10
171.1983412946
 20
111.5839020285
  0
VERTEX
  8
0
 62
7
  6
CONTINUOUS
 10
171.2581281748
 20
111.6812808922
  0
VERTEX
  8
0
 62
7
  6
CONTINUOUS
 10
171.3143316653
 20
111.7800874997
  0
VERTEX
  8
0
 62
7
  6
CONTINUOUS
 10
171.3663935986
 20
111.8790509077
  0
VERTEX
  8
0
 62
7
  6
CONTINUOUS
 10
171.4139495999
 20
111.9769001221
  0
VERTEX
  8
0
 62
7
  6
CONTINUOUS
 10
171.4567761283
 20
112.0723242697
  0
VERTEX
  8
0
 62
7
  6
CONTINUOUS
 10
171.4956622952
 20
112.1662156396
  0
VERTEX
  8
0
 62
7
  6
CONTINUOUS
 10
171.531912433
 20
112.2612868345
  0
VERTEX
  8
0
 62
7
  6
CONTINUOUS
 10
171.5656774457
 20
112.3579753398
  0
VERTEX
  8
0
 62
7
  6
CONTINUOUS
 10
171.5966653819
 20
112.4555262317
  0
VERTEX
  8
0
 62
7
  6
CONTINUOUS
 10
171.6248174875
 20
112.5537288871
  0
VERTEX
  8
0
 62
7
  6
CONTINUOUS
 10
171.6501382623
 20
112.6526566368
  0
VERTEX
  8
0
 62
7
  6
CONTINUOUS
 10
171.6726235538
 20
112.7523772828
  0
VERTEX
  8
0
 62
7
  6
CONTINUOUS
 10
171.6922336935
 20
112.8527542666
  0
VERTEX
  8
0
 62
7
  6
CONTINUOUS
 10
171.7089056231
 20
112.9534535273
  0
VERTEX
  8
0
 62
7
  6
CONTINUOUS
 10
171.7226783955
 20
113.0546282193
  0
VERTEX
  8
0
 62
7
  6
CONTINUOUS
 10
171.7336593103
 20
113.1574345664
  0
VERTEX
  8
0
 62
7
  6
CONTINUOUS
 10
171.7418273335
 20
113.2631509496
  0
VERTEX
  8
0
 62
7
  6
CONTINUOUS
 10
171.7469996851
 20
113.3730729934
  0
VERTEX
  8
0
 62
7
  6
CONTINUOUS
 10
171.7488317759
 20
113.4885431137
  0
SEQEND
  0
POLYLINE
  8
0
 62
7
  6
CONTINUOUS
 66
1
 70
0
  0
VERTEX
  8
0
 62
7
  6
CONTINUOUS
 10
143.2488317597
 20
110.124867748
  0
VERTEX
  8
0
 62
7
  6
CONTINUOUS
 10
143.3742226416
 20
110.1276730311
  0
VERTEX
  8
0
 62
7
  6
CONTINUOUS
 10
143.4934292902
 20
110.135525261
  0
VERTEX
  8
0
 62
7
  6
CONTINUOUS
 10
143.607761416
 20
110.1478088343
  0
VERTEX
  8
0
 62
7
  6
CONTINUOUS
 10
143.7185389102
 20
110.1641903485
  0
VERTEX
  8
0
 62
7
  6
CONTINUOUS
 10
143.8271008423
 20
110.1845861128
  0
VERTEX
  8
0
 62
7
  6
CONTINUOUS
 10
143.9345968889
 20
110.2090995976
  0
VERTEX
  8
0
 62
7
  6
CONTINUOUS
 10
144.0410643008
 20
110.2377330149
  0
VERTEX
  8
0
 62
7
  6
CONTINUOUS
 10
144.1461860418
 20
110.2703729235
  0
VERTEX
  8
0
 62
7
  6
CONTINUOUS
 10
144.2496469257
 20
110.3068509914
  0
VERTEX
  8
0
 62
7
  6
CONTINUOUS
 10
144.3512906175
 20
110.3470377874
  0
VERTEX
  8
0
 62
7
  6
CONTINUOUS
 10
144.4509913592
 20
110.3907949589
  0
VERTEX
  8
0
 62
7
  6
CONTINUOUS
 10
144.5486435665
 20
110.4379947607
  0
VERTEX
  8
0
 62
7
  6
CONTINUOUS
 10
144.6445070783
 20
110.4887066065
  0
VERTEX
  8
0
 62
7
  6
CONTINUOUS
 10
144.7387074512
 20
110.5429494578
  0
VERTEX
  8
0
 62
7
  6
CONTINUOUS
 10
144.8310373489
 20
110.6005845717
  0
VERTEX
  8
0
 62
7
  6
CONTINUOUS
 10
144.9211040666
 20
110.6613375902
  0
VERTEX
  8
0
 62
7
  6
CONTINUOUS
 10
145.008344551
 20
110.7247226762
  0
VERTEX
  8
0
 62
7
  6
CONTINUOUS
 10
145.0926491311
 20
110.7905091281
  0
VERTEX
  8
0
 62
7
  6
CONTINUOUS
 10
145.1741966378
 20
110.8587071357
  0
VERTEX
  8
0
 62
7
  6
CONTINUOUS
 10
145.2530477992
 20
110.9292597665
  0
VERTEX
  8
0
 62
7
  6
CONTINUOUS
 10
145.329185764
 20
111.0020458286
  0
VERTEX
  8
0
 62
7
  6
CONTINUOUS
 10
145.4026795692
 20
111.0770361101
  0
VERTEX
  8
0
 62
7
  6
CONTINUOUS
 10
145.4735222944
 20
111.1541126567
  0
VERTEX
  8
0
 62
7
  6
CONTINUOUS
 10
145.5414439096
 20
111.232851719
  0
VERTEX
  8
0
 62
7
  6
CONTINUOUS
 10
145.6069664021
 20
111.3137606135
  0
VERTEX
  8
0
 62
7
  6
CONTINUOUS
 10
145.6716726678
 20
111.3989614419
  0
VERTEX
  8
0
 62
7
  6
CONTINUOUS
 10
145.7358280887
 20
111.4893424443
  0
VERTEX
  8
0
 62
7
  6
CONTINUOUS
 10
145.7983412947
 20
111.5839020286
  0
VERTEX
  8
0
 62
7
  6
CONTINUOUS
 10
145.8581281748
 20
111.6812808923
  0
VERTEX
  8
0
 62
7
  6
CONTINUOUS
 10
145.9143316654
 20
111.7800874997
  0
VERTEX
  8
0
 62
7
  6
CONTINUOUS
 10
145.9663935986
 20
111.8790509078
  0
VERTEX
  8
0
 62
7
  6
CONTINUOUS
 10
146.0139495999
 20
111.9769001221
  0
VERTEX
  8
0
 62
7
  6
CONTINUOUS
 10
146.0567761283
 20
112.0723242698
  0
VERTEX
  8
0
 62
7
  6
CONTINUOUS
 10
146.0956622952
 20
112.1662156397
  0
VERTEX
  8
0
 62
7
  6
CONTINUOUS
 10
146.131912433
 20
112.2612868346
  0
VERTEX
  8
0
 62
7
  6
CONTINUOUS
 10
146.1656774457
 20
112.3579753399
  0
VERTEX
  8
0
 62
7
  6
CONTINUOUS
 10
146.1966653819
 20
112.4555262318
  0
VERTEX
  8
0
 62
7
  6
CONTINUOUS
 10
146.2248174875
 20
112.5537288872
  0
VERTEX
  8
0
 62
7
  6
CONTINUOUS
 10
146.2501382623
 20
112.6526566369
  0
VERTEX
  8
0
 62
7
  6
CONTINUOUS
 10
146.2726235538
 20
112.7523772829
  0
VERTEX
  8
0
 62
7
  6
CONTINUOUS
 10
146.2922336936
 20
112.8527542667
  0
VERTEX
  8
0
 62
7
  6
CONTINUOUS
 10
146.3089056231
 20
112.9534535274
  0
VERTEX
  8
0
 62
7
  6
CONTINUOUS
 10
146.3226783955
 20
113.0546282194
  0
VERTEX
  8
0
 62
7
  6
CONTINUOUS
 10
146.3336593103
 20
113.1574345665
  0
VERTEX
  8
0
 62
7
  6
CONTINUOUS
 10
146.3418273336
 20
113.2631509497
  0
VERTEX
  8
0
 62
7
  6
CONTINUOUS
 10
146.3469996851
 20
113.3730729935
  0
VERTEX
  8
0
 62
7
  6
CONTINUOUS
 10
146.3488317759
 20
113.4885431138
  0
SEQEND
  0
POLYLINE
  8
0
 62
7
  6
CONTINUOUS
 66
1
 70
0
  0
VERTEX
  8
0
 62
7
  6
CONTINUOUS
 10
117.8488317597
 20
110.124867748
  0
VERTEX
  8
0
 62
7
  6
CONTINUOUS
 10
117.9742226416
 20
110.1276730311
  0
VERTEX
  8
0
 62
7
  6
CONTINUOUS
 10
118.0934292902
 20
110.135525261
  0
VERTEX
  8
0
 62
7
  6
CONTINUOUS
 10
118.207761416
 20
110.1478088343
  0
VERTEX
  8
0
 62
7
  6
CONTINUOUS
 10
118.3185389102
 20
110.1641903485
  0
VERTEX
  8
0
 62
7
  6
CONTINUOUS
 10
118.4271008423
 20
110.1845861128
  0
VERTEX
  8
0
 62
7
  6
CONTINUOUS
 10
118.5345968889
 20
110.2090995976
  0
VERTEX
  8
0
 62
7
  6
CONTINUOUS
 10
118.6410643008
 20
110.2377330148
  0
VERTEX
  8
0
 62
7
  6
CONTINUOUS
 10
118.7461860417
 20
110.2703729235
  0
VERTEX
  8
0
 62
7
  6
CONTINUOUS
 10
118.8496469257
 20
110.3068509914
  0
VERTEX
  8
0
 62
7
  6
CONTINUOUS
 10
118.9512906175
 20
110.3470377874
  0
VERTEX
  8
0
 62
7
  6
CONTINUOUS
 10
119.0509913592
 20
110.3907949589
  0
VERTEX
  8
0
 62
7
  6
CONTINUOUS
 10
119.1486435665
 20
110.4379947607
  0
VERTEX
  8
0
 62
7
  6
CONTINUOUS
 10
119.2445070783
 20
110.4887066065
  0
VERTEX
  8
0
 62
7
  6
CONTINUOUS
 10
119.3387074512
 20
110.5429494578
  0
VERTEX
  8
0
 62
7
  6
CONTINUOUS
 10
119.4310373489
 20
110.6005845717
  0
VERTEX
  8
0
 62
7
  6
CONTINUOUS
 10
119.5211040666
 20
110.6613375902
  0
VERTEX
  8
0
 62
7
  6
CONTINUOUS
 10
119.608344551
 20
110.7247226761
  0
VERTEX
  8
0
 62
7
  6
CONTINUOUS
 10
119.6926491311
 20
110.7905091281
  0
VERTEX
  8
0
 62
7
  6
CONTINUOUS
 10
119.7741966377
 20
110.8587071357
  0
VERTEX
  8
0
 62
7
  6
CONTINUOUS
 10
119.8530477992
 20
110.9292597664
  0
VERTEX
  8
0
 62
7
  6
CONTINUOUS
 10
119.9291857639
 20
111.0020458286
  0
VERTEX
  8
0
 62
7
  6
CONTINUOUS
 10
120.0026795692
 20
111.0770361101
  0
VERTEX
  8
0
 62
7
  6
CONTINUOUS
 10
120.0735222944
 20
111.1541126566
  0
VERTEX
  8
0
 62
7
  6
CONTINUOUS
 10
120.1414439096
 20
111.2328517189
  0
VERTEX
  8
0
 62
7
  6
CONTINUOUS
 10
120.206966402
 20
111.3137606134
  0
VERTEX
  8
0
 62
7
  6
CONTINUOUS
 10
120.2716726677
 20
111.3989614418
  0
VERTEX
  8
0
 62
7
  6
CONTINUOUS
 10
120.3358280887
 20
111.4893424442
  0
VERTEX
  8
0
 62
7
  6
CONTINUOUS
 10
120.3983412946
 20
111.5839020285
  0
VERTEX
  8
0
 62
7
  6
CONTINUOUS
 10
120.4581281748
 20
111.6812808922
  0
VERTEX
  8
0
 62
7
  6
CONTINUOUS
 10
120.5143316653
 20
111.7800874997
  0
VERTEX
  8
0
 62
7
  6
CONTINUOUS
 10
120.5663935986
 20
111.8790509077
  0
VERTEX
  8
0
 62
7
  6
CONTINUOUS
 10
120.6139495999
 20
111.9769001221
  0
VERTEX
  8
0
 62
7
  6
CONTINUOUS
 10
120.6567761283
 20
112.0723242697
  0
VERTEX
  8
0
 62
7
  6
CONTINUOUS
 10
120.6956622952
 20
112.1662156396
  0
VERTEX
  8
0
 62
7
  6
CONTINUOUS
 10
120.731912433
 20
112.2612868345
  0
VERTEX
  8
0
 62
7
  6
CONTINUOUS
 10
120.7656774457
 20
112.3579753398
  0
VERTEX
  8
0
 62
7
  6
CONTINUOUS
 10
120.7966653819
 20
112.4555262317
  0
VERTEX
  8
0
 62
7
  6
CONTINUOUS
 10
120.8248174875
 20
112.5537288871
  0
VERTEX
  8
0
 62
7
  6
CONTINUOUS
 10
120.8501382623
 20
112.6526566368
  0
VERTEX
  8
0
 62
7
  6
CONTINUOUS
 10
120.8726235538
 20
112.7523772828
  0
VERTEX
  8
0
 62
7
  6
CONTINUOUS
 10
120.8922336935
 20
112.8527542666
  0
VERTEX
  8
0
 62
7
  6
CONTINUOUS
 10
120.9089056231
 20
112.9534535273
  0
VERTEX
  8
0
 62
7
  6
CONTINUOUS
 10
120.9226783955
 20
113.0546282193
  0
VERTEX
  8
0
 62
7
  6
CONTINUOUS
 10
120.9336593103
 20
113.1574345664
  0
VERTEX
  8
0
 62
7
  6
CONTINUOUS
 10
120.9418273335
 20
113.2631509496
  0
VERTEX
  8
0
 62
7
  6
CONTINUOUS
 10
120.9469996851
 20
113.3730729934
  0
VERTEX
  8
0
 62
7
  6
CONTINUOUS
 10
120.9488317759
 20
113.4885431137
  0
SEQEND
  0
LINE
  8
0
 62
7
  6
CONTINUOUS
 10
332.3488317759
 20
107.6129672897
 11
319.3488317759
 21
107.6129672897
  0
LINE
  8
0
 62
7
  6
CONTINUOUS
 10
308.3488317759
 20
107.6129672897
 11
293.9488317759
 21
107.6129672897
  0
LINE
  8
0
 62
7
  6
CONTINUOUS
 10
282.9488317759
 20
107.6129672897
 11
268.5488317759
 21
107.6129672897
  0
LINE
  8
0
 62
7
  6
CONTINUOUS
 10
257.5488317759
 20
107.6129672897
 11
243.1488317759
 21
107.6129672897
  0
LINE
  8
0
 62
7
  6
CONTINUOUS
 10
232.1488317759
 20
107.6129672897
 11
217.7488317759
 21
107.6129672897
  0
LINE
  8
0
 62
7
  6
CONTINUOUS
 10
206.7488317759
 20
107.6129672897
 11
192.3488317759
 21
107.6129672897
  0
LINE
  8
0
 62
7
  6
CONTINUOUS
 10
181.3488317759
 20
107.6129672897
 11
166.9488317759
 21
107.6129672897
  0
LINE
  8
0
 62
7
  6
CONTINUOUS
 10
155.9488317759
 20
107.6129672897
 11
141.5488317759
 21
107.6129672897
  0
LINE
  8
0
 62
7
  6
CONTINUOUS
 10
130.5488317759
 20
107.6129672897
 11
116.1488317759
 21
107.6129672897
  0
LINE
  8
0
 62
7
  6
CONTINUOUS
 10
105.1488317759
 20
107.6129672897
 11
90.7488317759
 21
107.6129672897
  0
LINE
  8
0
 62
7
  6
CONTINUOUS
 10
79.7488317759
 20
107.6129672897
 11
65.3488317759
 21
107.6129672897
  0
LINE
  8
0
 62
7
  6
CONTINUOUS
 10
54.3488317759
 20
107.6129672897
 11
39.9488317759
 21
107.6129672897
  0
LINE
  8
0
 62
7
  6
CONTINUOUS
 10
28.6488317759
 20
107.6129672897
 11
30.6488317759
 21
107.6129672897
  0
LINE
  8
0
 62
7
  6
CONTINUOUS
 10
199.4488317759
 20
108.7129672897
 11
192.3488317759
 21
108.7129672897
  0
LINE
  8
0
 62
7
  6
CONTINUOUS
 10
181.3488317759
 20
108.7129672897
 11
166.9488317759
 21
108.7129672897
  0
LINE
  8
0
 62
7
  6
CONTINUOUS
 10
155.9488317759
 20
108.7129672897
 11
141.5488317759
 21
108.7129672897
  0
LINE
  8
0
 62
7
  6
CONTINUOUS
 10
130.5488317759
 20
108.7129672897
 11
116.1488317759
 21
108.7129672897
  0
LINE
  8
0
 62
7
  6
CONTINUOUS
 10
105.1488317759
 20
108.7129672897
 11
90.7488317759
 21
108.7129672897
  0
LINE
  8
0
 62
7
  6
CONTINUOUS
 10
79.7488317759
 20
108.7129672897
 11
65.3488317759
 21
108.7129672897
  0
LINE
  8
0
 62
7
  6
CONTINUOUS
 10
59.9488690054
 20
110.124867748
 11
67.0488317597
 21
110.124867748
  0
LINE
  8
0
 62
7
  6
CONTINUOUS
 10
78.0488318642
 20
110.124867748
 11
92.4488317597
 21
110.124867748
  0
LINE
  8
0
 62
7
  6
CONTINUOUS
 10
103.4488318642
 20
110.124867748
 11
117.8488317597
 21
110.124867748
  0
LINE
  8
0
 62
7
  6
CONTINUOUS
 10
128.8488318642
 20
110.124867748
 11
143.2488317597
 21
110.124867748
  0
LINE
  8
0
 62
7
  6
CONTINUOUS
 10
154.2488318642
 20
110.124867748
 11
168.6488317597
 21
110.124867748
  0
LINE
  8
0
 62
7
  6
CONTINUOUS
 10
179.6488318642
 20
110.124867748
 11
194.0488317597
 21
110.124867748
  0
LINE
  8
DEFAULT_1
 62
2
  6
CENTER
 10
185.7488317759
 20
110.4129672897
 11
182.4989317759
 21
110.4129672897
  0
LINE
  8
0
 62
2
  6
CONTINUOUS
 10
181.5488317759
 20
110.4129672897
 11
179.4488317759
 21
110.4129672897
  0
LINE
  8
DEFAULT_1
 62
2
  6
CENTER
 10
175.2488317759
 20
110.4129672897
 11
178.4987317759
 21
110.4129672897
  0
LINE
  8
0
 62
7
  6
CONTINUOUS
 10
330.1511146563
 20
111.1029672852
 11
332.3488317759
 21
111.1029672897
  0
LINE
  8
0
 62
7
  6
CONTINUOUS
 10
167.9694959305
 20
136.3102114803
 11
170.5799512606
 21
129.6456908885
  0
LINE
  8
0
 62
7
  6
CONTINUOUS
 10
180.3488317759
 20
141.1129672897
 11
180.3488317759
 21
136.419625764
  0
LINE
  8
DEFAULT_1
 62
2
  6
CENTER
 10
180.4988317759
 20
115.6629672897
 11
180.4988317759
 21
112.4130672897
  0
LINE
  8
0
 62
2
  6
CONTINUOUS
 10
180.4988317759
 20
111.4629672897
 11
180.4988317759
 21
109.3629672897
  0
LINE
  8
DEFAULT_1
 62
2
  6
CENTER
 10
180.4988317759
 20
105.1629672897
 11
180.4988317759
 21
108.4128672897
  0
LINE
  8
0
 62
7
  6
CONTINUOUS
 10
180.6488317759
 20
79.7129672897
 11
180.6488317759
 21
84.4063125495
  0
LINE
  8
0
 62
7
  6
CONTINUOUS
 10
183.3488317759
 20
105.6129672897
 11
183.3488317759
 21
91.5454334452
  0
LINE
  8
0
 62
7
  6
CONTINUOUS
 10
184.1488317759
 20
88.6629672897
 11
184.1488317759
 21
90.1940436823
  0
LINE
  8
0
 62
7
  6
CONTINUOUS
 10
184.4488317759
 20
91.5454334452
 11
184.4488317759
 21
105.6129672897
  0
LINE
  8
0
 62
7
  6
CONTINUOUS
 10
189.2488317759
 20
105.6129672897
 11
189.2488317759
 21
91.5454334452
  0
POLYLINE
  8
0
 62
7
  6
CONTINUOUS
 66
1
 70
0
  0
VERTEX
  8
0
 62
7
  6
CONTINUOUS
 10
92.4488317597
 20
110.124867748
  0
VERTEX
  8
0
 62
7
  6
CONTINUOUS
 10
92.5742226416
 20
110.1276730311
  0
VERTEX
  8
0
 62
7
  6
CONTINUOUS
 10
92.6934292902
 20
110.135525261
  0
VERTEX
  8
0
 62
7
  6
CONTINUOUS
 10
92.807761416
 20
110.1478088343
  0
VERTEX
  8
0
 62
7
  6
CONTINUOUS
 10
92.9185389102
 20
110.1641903485
  0
VERTEX
  8
0
 62
7
  6
CONTINUOUS
 10
93.0271008423
 20
110.1845861128
  0
VERTEX
  8
0
 62
7
  6
CONTINUOUS
 10
93.1345968889
 20
110.2090995976
  0
VERTEX
  8
0
 62
7
  6
CONTINUOUS
 10
93.2410643008
 20
110.2377330149
  0
VERTEX
  8
0
 62
7
  6
CONTINUOUS
 10
93.3461860417
 20
110.2703729235
  0
VERTEX
  8
0
 62
7
  6
CONTINUOUS
 10
93.4496469257
 20
110.3068509914
  0
VERTEX
  8
0
 62
7
  6
CONTINUOUS
 10
93.5512906175
 20
110.3470377874
  0
VERTEX
  8
0
 62
7
  6
CONTINUOUS
 10
93.6509913592
 20
110.3907949589
  0
VERTEX
  8
0
 62
7
  6
CONTINUOUS
 10
93.7486435665
 20
110.4379947607
  0
VERTEX
  8
0
 62
7
  6
CONTINUOUS
 10
93.8445070783
 20
110.4887066065
  0
VERTEX
  8
0
 62
7
  6
CONTINUOUS
 10
93.9387074512
 20
110.5429494578
  0
VERTEX
  8
0
 62
7
  6
CONTINUOUS
 10
94.0310373489
 20
110.6005845717
  0
VERTEX
  8
0
 62
7
  6
CONTINUOUS
 10
94.1211040666
 20
110.6613375902
  0
VERTEX
  8
0
 62
7
  6
CONTINUOUS
 10
94.208344551
 20
110.7247226762
  0
VERTEX
  8
0
 62
7
  6
CONTINUOUS
 10
94.2926491311
 20
110.7905091281
  0
VERTEX
  8
0
 62
7
  6
CONTINUOUS
 10
94.3741966377
 20
110.8587071357
  0
VERTEX
  8
0
 62
7
  6
CONTINUOUS
 10
94.4530477992
 20
110.9292597664
  0
VERTEX
  8
0
 62
7
  6
CONTINUOUS
 10
94.529185764
 20
111.0020458286
  0
VERTEX
  8
0
 62
7
  6
CONTINUOUS
 10
94.6026795692
 20
111.0770361101
  0
VERTEX
  8
0
 62
7
  6
CONTINUOUS
 10
94.6735222944
 20
111.1541126567
  0
VERTEX
  8
0
 62
7
  6
CONTINUOUS
 10
94.7414439096
 20
111.232851719
  0
VERTEX
  8
0
 62
7
  6
CONTINUOUS
 10
94.806966402
 20
111.3137606134
  0
VERTEX
  8
0
 62
7
  6
CONTINUOUS
 10
94.8716726677
 20
111.3989614418
  0
VERTEX
  8
0
 62
7
  6
CONTINUOUS
 10
94.9358280887
 20
111.4893424442
  0
VERTEX
  8
0
 62
7
  6
CONTINUOUS
 10
94.9983412946
 20
111.5839020286
  0
VERTEX
  8
0
 62
7
  6
CONTINUOUS
 10
95.0581281748
 20
111.6812808923
  0
VERTEX
  8
0
 62
7
  6
CONTINUOUS
 10
95.1143316653
 20
111.7800874997
  0
VERTEX
  8
0
 62
7
  6
CONTINUOUS
 10
95.1663935986
 20
111.8790509077
  0
VERTEX
  8
0
 62
7
  6
CONTINUOUS
 10
95.2139495999
 20
111.9769001221
  0
VERTEX
  8
0
 62
7
  6
CONTINUOUS
 10
95.2567761283
 20
112.0723242698
  0
VERTEX
  8
0
 62
7
  6
CONTINUOUS
 10
95.2956622952
 20
112.1662156396
  0
VERTEX
  8
0
 62
7
  6
CONTINUOUS
 10
95.331912433
 20
112.2612868345
  0
VERTEX
  8
0
 62
7
  6
CONTINUOUS
 10
95.3656774457
 20
112.3579753398
  0
VERTEX
  8
0
 62
7
  6
CONTINUOUS
 10
95.3966653819
 20
112.4555262317
  0
VERTEX
  8
0
 62
7
  6
CONTINUOUS
 10
95.4248174875
 20
112.5537288871
  0
VERTEX
  8
0
 62
7
  6
CONTINUOUS
 10
95.4501382623
 20
112.6526566368
  0
VERTEX
  8
0
 62
7
  6
CONTINUOUS
 10
95.4726235538
 20
112.7523772828
  0
VERTEX
  8
0
 62
7
  6
CONTINUOUS
 10
95.4922336936
 20
112.8527542666
  0
VERTEX
  8
0
 62
7
  6
CONTINUOUS
 10
95.5089056231
 20
112.9534535274
  0
VERTEX
  8
0
 62
7
  6
CONTINUOUS
 10
95.5226783955
 20
113.0546282194
  0
VERTEX
  8
0
 62
7
  6
CONTINUOUS
 10
95.5336593103
 20
113.1574345664
  0
VERTEX
  8
0
 62
7
  6
CONTINUOUS
 10
95.5418273336
 20
113.2631509496
  0
VERTEX
  8
0
 62
7
  6
CONTINUOUS
 10
95.5469996851
 20
113.3730729934
  0
VERTEX
  8
0
 62
7
  6
CONTINUOUS
 10
95.5488317759
 20
113.4885431137
  0
SEQEND
  0
POLYLINE
  8
0
 62
7
  6
CONTINUOUS
 66
1
 70
0
  0
VERTEX
  8
0
 62
7
  6
CONTINUOUS
 10
67.0488317597
 20
110.124867748
  0
VERTEX
  8
0
 62
7
  6
CONTINUOUS
 10
67.1742226416
 20
110.1276730311
  0
VERTEX
  8
0
 62
7
  6
CONTINUOUS
 10
67.2934292902
 20
110.135525261
  0
VERTEX
  8
0
 62
7
  6
CONTINUOUS
 10
67.407761416
 20
110.1478088343
  0
VERTEX
  8
0
 62
7
  6
CONTINUOUS
 10
67.5185389102
 20
110.1641903485
  0
VERTEX
  8
0
 62
7
  6
CONTINUOUS
 10
67.6271008423
 20
110.1845861128
  0
VERTEX
  8
0
 62
7
  6
CONTINUOUS
 10
67.7345968889
 20
110.2090995976
  0
VERTEX
  8
0
 62
7
  6
CONTINUOUS
 10
67.8410643008
 20
110.2377330149
  0
VERTEX
  8
0
 62
7
  6
CONTINUOUS
 10
67.9461860417
 20
110.2703729235
  0
VERTEX
  8
0
 62
7
  6
CONTINUOUS
 10
68.0496469257
 20
110.3068509914
  0
VERTEX
  8
0
 62
7
  6
CONTINUOUS
 10
68.1512906175
 20
110.3470377874
  0
VERTEX
  8
0
 62
7
  6
CONTINUOUS
 10
68.2509913592
 20
110.3907949589
  0
VERTEX
  8
0
 62
7
  6
CONTINUOUS
 10
68.3486435665
 20
110.4379947607
  0
VERTEX
  8
0
 62
7
  6
CONTINUOUS
 10
68.4445070783
 20
110.4887066065
  0
VERTEX
  8
0
 62
7
  6
CONTINUOUS
 10
68.5387074512
 20
110.5429494578
  0
VERTEX
  8
0
 62
7
  6
CONTINUOUS
 10
68.6310373489
 20
110.6005845717
  0
VERTEX
  8
0
 62
7
  6
CONTINUOUS
 10
68.7211040666
 20
110.6613375902
  0
VERTEX
  8
0
 62
7
  6
CONTINUOUS
 10
68.808344551
 20
110.7247226762
  0
VERTEX
  8
0
 62
7
  6
CONTINUOUS
 10
68.8926491311
 20
110.7905091281
  0
VERTEX
  8
0
 62
7
  6
CONTINUOUS
 10
68.9741966378
 20
110.8587071357
  0
VERTEX
  8
0
 62
7
  6
CONTINUOUS
 10
69.0530477992
 20
110.9292597664
  0
VERTEX
  8
0
 62
7
  6
CONTINUOUS
 10
69.129185764
 20
111.0020458286
  0
VERTEX
  8
0
 62
7
  6
CONTINUOUS
 10
69.2026795692
 20
111.0770361101
  0
VERTEX
  8
0
 62
7
  6
CONTINUOUS
 10
69.2735222944
 20
111.1541126567
  0
VERTEX
  8
0
 62
7
  6
CONTINUOUS
 10
69.3414439096
 20
111.232851719
  0
VERTEX
  8
0
 62
7
  6
CONTINUOUS
 10
69.406966402
 20
111.3137606135
  0
VERTEX
  8
0
 62
7
  6
CONTINUOUS
 10
69.4716726678
 20
111.3989614418
  0
VERTEX
  8
0
 62
7
  6
CONTINUOUS
 10
69.5358280887
 20
111.4893424443
  0
VERTEX
  8
0
 62
7
  6
CONTINUOUS
 10
69.5983412946
 20
111.5839020286
  0
VERTEX
  8
0
 62
7
  6
CONTINUOUS
 10
69.6581281748
 20
111.6812808923
  0
VERTEX
  8
0
 62
7
  6
CONTINUOUS
 10
69.7143316653
 20
111.7800874997
  0
VERTEX
  8
0
 62
7
  6
CONTINUOUS
 10
69.7663935986
 20
111.8790509078
  0
VERTEX
  8
0
 62
7
  6
CONTINUOUS
 10
69.8139495999
 20
111.9769001221
  0
VERTEX
  8
0
 62
7
  6
CONTINUOUS
 10
69.8567761283
 20
112.0723242698
  0
VERTEX
  8
0
 62
7
  6
CONTINUOUS
 10
69.8956622952
 20
112.1662156396
  0
VERTEX
  8
0
 62
7
  6
CONTINUOUS
 10
69.931912433
 20
112.2612868346
  0
VERTEX
  8
0
 62
7
  6
CONTINUOUS
 10
69.9656774457
 20
112.3579753399
  0
VERTEX
  8
0
 62
7
  6
CONTINUOUS
 10
69.9966653819
 20
112.4555262318
  0
VERTEX
  8
0
 62
7
  6
CONTINUOUS
 10
70.0248174875
 20
112.5537288871
  0
VERTEX
  8
0
 62
7
  6
CONTINUOUS
 10
70.0501382623
 20
112.6526566369
  0
VERTEX
  8
0
 62
7
  6
CONTINUOUS
 10
70.0726235538
 20
112.7523772828
  0
VERTEX
  8
0
 62
7
  6
CONTINUOUS
 10
70.0922336936
 20
112.8527542667
  0
VERTEX
  8
0
 62
7
  6
CONTINUOUS
 10
70.1089056231
 20
112.9534535274
  0
VERTEX
  8
0
 62
7
  6
CONTINUOUS
 10
70.1226783955
 20
113.0546282194
  0
VERTEX
  8
0
 62
7
  6
CONTINUOUS
 10
70.1336593103
 20
113.1574345665
  0
VERTEX
  8
0
 62
7
  6
CONTINUOUS
 10
70.1418273336
 20
113.2631509497
  0
VERTEX
  8
0
 62
7
  6
CONTINUOUS
 10
70.1469996851
 20
113.3730729935
  0
VERTEX
  8
0
 62
7
  6
CONTINUOUS
 10
70.1488317759
 20
113.4885431138
  0
SEQEND
  0
LINE
  8
0
 62
7
  6
CONTINUOUS
 10
321.0488317759
 20
113.0383073235
 11
306.6488317759
 21
113.0383073235
  0
LINE
  8
0
 62
7
  6
CONTINUOUS
 10
295.6488317759
 20
113.0383073235
 11
281.2488317759
 21
113.0383073235
  0
LINE
  8
0
 62
7
  6
CONTINUOUS
 10
270.2488317759
 20
113.0383073235
 11
255.8488317759
 21
113.0383073235
  0
LINE
  8
0
 62
7
  6
CONTINUOUS
 10
244.8488317759
 20
113.0383073235
 11
230.4488317759
 21
113.0383073235
  0
LINE
  8
0
 62
7
  6
CONTINUOUS
 10
219.4488317759
 20
113.0383073235
 11
205.0488317759
 21
113.0383073235
  0
LINE
  8
0
 62
7
  6
CONTINUOUS
 10
194.0488317759
 20
113.0383073235
 11
179.6488317759
 21
113.0383073235
  0
LINE
  8
0
 62
7
  6
CONTINUOUS
 10
168.6488317759
 20
113.0383073235
 11
154.2488317759
 21
113.0383073235
  0
LINE
  8
0
 62
7
  6
CONTINUOUS
 10
143.2488317759
 20
113.0383073235
 11
128.8488317759
 21
113.0383073235
  0
LINE
  8
0
 62
7
  6
CONTINUOUS
 10
117.8488317759
 20
113.0383073235
 11
103.4488317759
 21
113.0383073235
  0
LINE
  8
0
 62
7
  6
CONTINUOUS
 10
92.4488317759
 20
113.0383073235
 11
78.0488317759
 21
113.0383073235
  0
LINE
  8
0
 62
7
  6
CONTINUOUS
 10
67.0488317759
 20
113.0383073235
 11
52.6488317759
 21
113.0383073235
  0
LINE
  8
0
 62
7
  6
CONTINUOUS
 10
41.6488317759
 20
113.0383073235
 11
28.6488317759
 21
113.0383073235
  0
LINE
  8
0
 62
7
  6
CONTINUOUS
 10
330.3488317759
 20
113.0383073235
 11
332.3488317759
 21
113.0383073235
  0
POLYLINE
  8
0
 62
7
  6
CONTINUOUS
 66
1
 70
0
  0
VERTEX
  8
0
 62
7
  6
CONTINUOUS
 10
332.3488317759
 20
111.1029672897
  0
VERTEX
  8
0
 62
7
  6
CONTINUOUS
 10
332.371657822
 20
111.1024543937
  0
VERTEX
  8
0
 62
7
  6
CONTINUOUS
 10
332.3940934538
 20
111.100941864
  0
VERTEX
  8
0
 62
7
  6
CONTINUOUS
 10
332.4160243699
 20
111.098471597
  0
VERTEX
  8
0
 62
7
  6
CONTINUOUS
 10
332.4373454868
 20
111.0950886184
  0
VERTEX
  8
0
 62
7
  6
CONTINUOUS
 10
332.4579611936
 20
111.0908405233
  0
VERTEX
  8
0
 62
7
  6
CONTINUOUS
 10
332.477785391
 20
111.0857769048
  0
VERTEX
  8
0
 62
7
  6
CONTINUOUS
 10
332.4967413307
 20
111.0799488065
  0
VERTEX
  8
0
 62
7
  6
CONTINUOUS
 10
332.5147612984
 20
111.0734082266
  0
VERTEX
  8
0
 62
7
  6
CONTINUOUS
 10
332.5317861404
 20
111.0662077062
  0
VERTEX
  8
0
 62
7
  6
CONTINUOUS
 10
332.5477647892
 20
111.0583999722
  0
VERTEX
  8
0
 62
7
  6
CONTINUOUS
 10
332.5626537213
 20
111.0500376656
  0
VERTEX
  8
0
 62
7
  6
CONTINUOUS
 10
332.5764164304
 20
111.0411731344
  0
VERTEX
  8
0
 62
7
  6
CONTINUOUS
 10
332.589022937
 20
111.0318582786
  0
VERTEX
  8
0
 62
7
  6
CONTINUOUS
 10
332.6004493451
 20
111.0221444365
  0
VERTEX
  8
0
 62
7
  6
CONTINUOUS
 10
332.6106774518
 20
111.0120823001
  0
VERTEX
  8
0
 62
7
  6
CONTINUOUS
 10
332.6196944103
 20
111.0017218492
  0
VERTEX
  8
0
 62
7
  6
CONTINUOUS
 10
332.6274924435
 20
110.9911122951
  0
VERTEX
  8
0
 62
7
  6
CONTINUOUS
 10
332.6340685999
 20
110.9803020291
  0
VERTEX
  8
0
 62
7
  6
CONTINUOUS
 10
332.6394245506
 20
110.9693385586
  0
VERTEX
  8
0
 62
7
  6
CONTINUOUS
 10
332.6435664085
 20
110.9582684407
  0
VERTEX
  8
0
 62
7
  6
CONTINUOUS
 10
332.6465045642
 20
110.9471372026
  0
VERTEX
  8
0
 62
7
  6
CONTINUOUS
 10
332.6482535295
 20
110.9359892473
  0
VERTEX
  8
0
 62
7
  6
CONTINUOUS
 10
332.6488317759
 20
110.924867748
  0
SEQEND
  0
POLYLINE
  8
0
 62
7
  6
CONTINUOUS
 66
1
 70
0
  0
VERTEX
  8
0
 62
7
  6
CONTINUOUS
 10
330.1511146563
 20
111.1029672852
  0
VERTEX
  8
0
 62
7
  6
CONTINUOUS
 10
330.109392605
 20
111.1046551873
  0
VERTEX
  8
0
 62
7
  6
CONTINUOUS
 10
330.0674123685
 20
111.1097556086
  0
VERTEX
  8
0
 62
7
  6
CONTINUOUS
 10
330.025453612
 20
111.1183074402
  0
VERTEX
  8
0
 62
7
  6
CONTINUOUS
 10
329.9837845923
 20
111.1303313963
  0
VERTEX
  8
0
 62
7
  6
CONTINUOUS
 10
329.9426492752
 20
111.1458389942
  0
VERTEX
  8
0
 62
7
  6
CONTINUOUS
 10
329.9022944155
 20
111.1648256707
  0
VERTEX
  8
0
 62
7
  6
CONTINUOUS
 10
329.8628111264
 20
111.1873592182
  0
VERTEX
  8
0
 62
7
  6
CONTINUOUS
 10
329.8240872811
 20
111.2136827505
  0
VERTEX
  8
0
 62
7
  6
CONTINUOUS
 10
329.786099053
 20
111.2440626751
  0
VERTEX
  8
0
 62
7
  6
CONTINUOUS
 10
329.7488348641
 20
111.2787556781
  0
SEQEND
  0
LINE
  8
0
 62
7
  6
CONTINUOUS
 10
171.6041826937
 20
130.0468765953
 11
171.5177122912
 21
130.2676364649
  0
LINE
  8
0
 62
7
  6
CONTINUOUS
 10
189.3934624493
 20
90.779580459
 11
189.4799600266
 21
90.5587355806
  0
LINE
  8
0
 62
7
  6
CONTINUOUS
 10
193.0281702511
 20
84.5157201189
 11
190.4177035251
 21
91.180741547
  0
LINE
  8
0
 62
7
  6
CONTINUOUS
 10
189.5488317759
 20
90.1940436823
 11
189.5488317759
 21
88.6629672897
  0
LINE
  8
0
 62
7
  6
CONTINUOUS
 10
190.3488317759
 20
105.6129672897
 11
190.3488317759
 21
91.5454334452
  0
LINE
  8
0
 62
7
  6
CONTINUOUS
 10
193.0488317759
 20
84.4063125495
 11
193.0488317759
 21
79.7129672897
  0
LINE
  8
0
 62
7
  6
CONTINUOUS
 10
193.3488317759
 20
136.419625764
 11
193.3488317759
 21
141.1129672897
  0
LINE
  8
0
 62
7
  6
CONTINUOUS
 10
196.0488317759
 20
129.2809766096
 11
196.0488317759
 21
113.4885424315
  0
LINE
  8
0
 62
7
  6
CONTINUOUS
 10
196.8488317759
 20
130.6323507438
 11
196.8488317759
 21
132.1629672897
  0
LINE
  8
0
 62
7
  6
CONTINUOUS
 10
197.1488317759
 20
113.4885431136
 11
197.1488317759
 21
129.2809766096
  0
LINE
  8
0
 62
7
  6
CONTINUOUS
 10
180.6694933006
 20
84.5157201189
 11
183.2799600266
 21
91.180741547
  0
LINE
  8
0
 62
7
  6
CONTINUOUS
 10
184.2177035251
 20
90.5587355806
 11
184.3042011025
 21
90.779580459
  0
LINE
  8
0
 62
7
  6
CONTINUOUS
 10
202.1799512606
 20
130.2676364649
 11
202.093480858
 21
130.0468765953
  0
LINE
  8
0
 62
7
  6
CONTINUOUS
 10
203.1177122912
 20
129.6456908885
 11
205.7281676213
 21
136.3102114803
  0
LINE
  8
0
 62
7
  6
CONTINUOUS
 10
201.9488317759
 20
129.2809766096
 11
201.9488317759
 21
111.2129672897
  0
LINE
  8
0
 62
7
  6
CONTINUOUS
 10
202.2488317759
 20
132.1629672897
 11
202.2488317759
 21
130.6323507438
  0
LINE
  8
0
 62
7
  6
CONTINUOUS
 10
203.0488317759
 20
129.2809766096
 11
203.0488317759
 21
113.4885424315
  0
LINE
  8
0
 62
7
  6
CONTINUOUS
 10
205.7488317759
 20
141.1129672897
 11
205.7488317759
 21
136.419625764
  0
LINE
  8
0
 62
7
  6
CONTINUOUS
 10
206.0488317759
 20
79.7129672897
 11
206.0488317759
 21
84.4063125495
  0
LINE
  8
0
 62
7
  6
CONTINUOUS
 10
208.7488317759
 20
105.6129672897
 11
208.7488317759
 21
91.5454334452
  0
LINE
  8
0
 62
7
  6
CONTINUOUS
 10
70.8488317759
 20
133.1629672897
 11
74.2488317759
 21
133.1629672897
  0
LINE
  8
0
 62
7
  6
CONTINUOUS
 10
96.2488317759
 20
133.1629672897
 11
99.6488317759
 21
133.1629672897
  0
LINE
  8
0
 62
7
  6
CONTINUOUS
 10
121.6488317759
 20
133.1629672897
 11
125.0488317759
 21
133.1629672897
  0
LINE
  8
0
 62
7
  6
CONTINUOUS
 10
147.0488317759
 20
133.1629672897
 11
150.4488317759
 21
133.1629672897
  0
LINE
  8
0
 62
7
  6
CONTINUOUS
 10
172.4488317759
 20
133.1629672897
 11
175.8488317759
 21
133.1629672897
  0
LINE
  8
0
 62
7
  6
CONTINUOUS
 10
197.8488317759
 20
133.1629672897
 11
201.2488317759
 21
133.1629672897
  0
LINE
  8
DEFAULT_1
 62
2
  6
CENTER
 10
20.5008690614
 20
135.8129672897
 11
336.5228852839
 21
135.8129672897
  0
LINE
  8
0
 62
7
  6
CONTINUOUS
 10
193.3694959305
 20
136.3102114803
 11
195.9799512606
 21
129.6456908885
  0
LINE
  8
0
 62
7
  6
CONTINUOUS
 10
197.0041826937
 20
130.0468765953
 11
196.9177122912
 21
130.2676364649
  0
LINE
  8
0
 62
7
  6
CONTINUOUS
 10
218.4281702511
 20
84.5157201189
 11
215.8177035251
 21
91.180741547
  0
LINE
  8
0
 62
7
  6
CONTINUOUS
 10
215.7488317759
 20
105.6129672897
 11
215.7488317759
 21
91.5454334452
  0
LINE
  8
0
 62
7
  6
CONTINUOUS
 10
218.4488317759
 20
84.4063125495
 11
218.4488317759
 21
79.7129672897
  0
LINE
  8
0
 62
7
  6
CONTINUOUS
 10
218.7488317759
 20
136.419625764
 11
218.7488317759
 21
141.1129672897
  0
LINE
  8
0
 62
7
  6
CONTINUOUS
 10
206.0694933006
 20
84.5157201189
 11
208.6799600266
 21
91.180741547
  0
LINE
  8
0
 62
7
  6
CONTINUOUS
 10
228.5177122912
 20
129.6456908885
 11
231.1281676213
 21
136.3102114803
  0
LINE
  8
0
 62
7
  6
CONTINUOUS
 10
330.0488317759
 20
143.8129672897
 11
323.0488317759
 21
143.8129672897
  0
LINE
  8
0
 62
7
  6
CONTINUOUS
 10
304.6488317759
 20
143.8129672897
 11
297.6488317759
 21
143.8129672897
  0
LINE
  8
0
 62
7
  6
CONTINUOUS
 10
279.2488317759
 20
143.8129672897
 11
272.2488317759
 21
143.8129672897
  0
LINE
  8
0
 62
7
  6
CONTINUOUS
 10
253.8488317759
 20
143.8129672897
 11
246.8488317759
 21
143.8129672897
  0
LINE
  8
0
 62
7
  6
CONTINUOUS
 10
228.4488317759
 20
143.8129672897
 11
221.4488317759
 21
143.8129672897
  0
LINE
  8
0
 62
7
  6
CONTINUOUS
 10
203.0488317759
 20
143.8129672897
 11
196.0488317759
 21
143.8129672897
  0
LINE
  8
0
 62
7
  6
CONTINUOUS
 10
177.6488317759
 20
143.8129672897
 11
170.6488317759
 21
143.8129672897
  0
LINE
  8
0
 62
7
  6
CONTINUOUS
 10
152.2488317759
 20
143.8129672897
 11
145.2488317759
 21
143.8129672897
  0
LINE
  8
0
 62
7
  6
CONTINUOUS
 10
126.8488317759
 20
143.8129672897
 11
119.8488317759
 21
143.8129672897
  0
LINE
  8
0
 62
7
  6
CONTINUOUS
 10
101.4488317759
 20
143.8129672897
 11
94.4488317759
 21
143.8129672897
  0
LINE
  8
0
 62
7
  6
CONTINUOUS
 10
76.0488317759
 20
143.8129672897
 11
69.0488317759
 21
143.8129672897
  0
LINE
  8
0
 62
7
  6
CONTINUOUS
 10
50.6488317759
 20
143.8129672897
 11
43.6488317759
 21
143.8129672897
  0
LINE
  8
0
 62
7
  6
CONTINUOUS
 10
221.4488317759
 20
129.2809766096
 11
221.4488317759
 21
113.4885424315
  0
LINE
  8
0
 62
7
  6
CONTINUOUS
 10
228.4488317759
 20
129.2809766096
 11
228.4488317759
 21
113.4885424315
  0
LINE
  8
0
 62
7
  6
CONTINUOUS
 10
231.1488317759
 20
141.1129672897
 11
231.1488317759
 21
136.419625764
  0
LINE
  8
0
 62
7
  6
CONTINUOUS
 10
231.4488317759
 20
79.7129672897
 11
231.4488317759
 21
84.4063125495
  0
LINE
  8
0
 62
7
  6
CONTINUOUS
 10
218.7694959305
 20
136.3102114803
 11
221.3799512606
 21
129.6456908885
  0
LINE
  8
0
 62
7
  6
CONTINUOUS
 10
243.8281702511
 20
84.5157201189
 11
241.2177035251
 21
91.180741547
  0
LINE
  8
0
 62
7
  6
CONTINUOUS
 10
234.1488317759
 20
105.6129672897
 11
234.1488317759
 21
91.5454334452
  0
LINE
  8
0
 62
7
  6
CONTINUOUS
 10
241.1488317759
 20
105.6129672897
 11
241.1488317759
 21
91.5454334452
  0
LINE
  8
0
 62
7
  6
CONTINUOUS
 10
231.4694933006
 20
84.5157201189
 11
234.0799600266
 21
91.180741547
  0
LINE
  8
0
 62
7
  6
CONTINUOUS
 10
253.9177122912
 20
129.6456908885
 11
256.5281676213
 21
136.3102114803
  0
LINE
  8
0
 62
7
  6
CONTINUOUS
 10
243.8488317759
 20
84.4063125495
 11
243.8488317759
 21
79.7129672897
  0
LINE
  8
0
 62
7
  6
CONTINUOUS
 10
244.1488317759
 20
136.419625764
 11
244.1488317759
 21
141.1129672897
  0
LINE
  8
0
 62
7
  6
CONTINUOUS
 10
246.8488317759
 20
129.2809766096
 11
246.8488317759
 21
113.4885424315
  0
LINE
  8
0
 62
7
  6
CONTINUOUS
 10
244.1694959305
 20
136.3102114803
 11
246.7799512606
 21
129.6456908885
  0
LINE
  8
0
 62
7
  6
CONTINUOUS
 10
253.8488317759
 20
129.2809766096
 11
253.8488317759
 21
113.4885424315
  0
LINE
  8
0
 62
7
  6
CONTINUOUS
 10
256.5488317759
 20
141.1129672897
 11
256.5488317759
 21
136.419625764
  0
LINE
  8
0
 62
7
  6
CONTINUOUS
 10
256.8488317759
 20
79.7129672897
 11
256.8488317759
 21
84.4063125495
  0
LINE
  8
0
 62
7
  6
CONTINUOUS
 10
259.5488317759
 20
105.6129672897
 11
259.5488317759
 21
91.5454334452
  0
LINE
  8
0
 62
7
  6
CONTINUOUS
 10
256.8694933006
 20
84.5157201189
 11
259.4799600266
 21
91.180741547
  0
LINE
  8
0
 62
7
  6
CONTINUOUS
 10
269.2281702511
 20
84.5157201189
 11
266.6177035251
 21
91.180741547
  0
LINE
  8
0
 62
7
  6
CONTINUOUS
 10
266.5488317759
 20
105.6129672897
 11
266.5488317759
 21
91.5454334452
  0
LINE
  8
0
 62
7
  6
CONTINUOUS
 10
269.2488317759
 20
84.4063125495
 11
269.2488317759
 21
79.7129672897
  0
LINE
  8
0
 62
7
  6
CONTINUOUS
 10
269.5488317759
 20
136.419625764
 11
269.5488317759
 21
141.1129672897
  0
LINE
  8
0
 62
7
  6
CONTINUOUS
 10
272.2488317759
 20
129.2809766096
 11
272.2488317759
 21
113.4885424315
  0
LINE
  8
0
 62
7
  6
CONTINUOUS
 10
279.3177122912
 20
129.6456908885
 11
281.9281676213
 21
136.3102114803
  0
LINE
  8
0
 62
7
  6
CONTINUOUS
 10
269.5694959305
 20
136.3102114803
 11
272.1799512606
 21
129.6456908885
  0
LINE
  8
0
 62
7
  6
CONTINUOUS
 10
279.2488317759
 20
129.2809766096
 11
279.2488317759
 21
113.4885424315
  0
LINE
  8
0
 62
7
  6
CONTINUOUS
 10
281.9488317759
 20
141.1129672897
 11
281.9488317759
 21
136.419625764
  0
LINE
  8
0
 62
7
  6
CONTINUOUS
 10
282.2488317759
 20
79.7129672897
 11
282.2488317759
 21
84.4063125495
  0
LINE
  8
0
 62
7
  6
CONTINUOUS
 10
282.2694933006
 20
84.5157201189
 11
284.8799600266
 21
91.180741547
  0
LINE
  8
0
 62
7
  6
CONTINUOUS
 10
294.6281702511
 20
84.5157201189
 11
292.0177035251
 21
91.180741547
  0
LINE
  8
0
 62
7
  6
CONTINUOUS
 10
284.9488317759
 20
105.6129672897
 11
284.9488317759
 21
91.5454334452
  0
LINE
  8
0
 62
7
  6
CONTINUOUS
 10
291.9488317759
 20
105.6129672897
 11
291.9488317759
 21
91.5454334452
  0
LINE
  8
0
 62
7
  6
CONTINUOUS
 10
294.6488317759
 20
84.4063125495
 11
294.6488317759
 21
79.7129672897
  0
LINE
  8
0
 62
7
  6
CONTINUOUS
 10
294.9488317759
 20
136.419625764
 11
294.9488317759
 21
141.1129672897
  0
LINE
  8
0
 62
7
  6
CONTINUOUS
 10
304.7177122912
 20
129.6456908885
 11
307.3281676213
 21
136.3102114803
  0
LINE
  8
0
 62
7
  6
CONTINUOUS
 10
297.6488317759
 20
129.2809766096
 11
297.6488317759
 21
113.4885424315
  0
LINE
  8
0
 62
7
  6
CONTINUOUS
 10
304.6488317759
 20
129.2809766096
 11
304.6488317759
 21
113.4885424315
  0
LINE
  8
0
 62
7
  6
CONTINUOUS
 10
294.9694959305
 20
136.3102114803
 11
297.5799512606
 21
129.6456908885
  0
LINE
  8
0
 62
7
  6
CONTINUOUS
 10
320.0281702511
 20
84.5157201189
 11
317.4177035251
 21
91.180741547
  0
LINE
  8
0
 62
7
  6
CONTINUOUS
 10
307.3488317759
 20
141.1129672897
 11
307.3488317759
 21
136.419625764
  0
LINE
  8
0
 62
7
  6
CONTINUOUS
 10
307.6488317759
 20
79.7129672897
 11
307.6488317759
 21
84.4063125495
  0
LINE
  8
0
 62
7
  6
CONTINUOUS
 10
310.3488317759
 20
105.6129672897
 11
310.3488317759
 21
91.5454334452
  0
LINE
  8
0
 62
7
  6
CONTINUOUS
 10
307.6694933006
 20
84.5157201189
 11
310.2799600266
 21
91.180741547
  0
LINE
  8
0
 62
7
  6
CONTINUOUS
 10
330.1177122912
 20
129.6456908885
 11
332.7281676213
 21
136.3102114803
  0
LINE
  8
0
 62
7
  6
CONTINUOUS
 10
317.3488317759
 20
105.6129672897
 11
317.3488317759
 21
91.5454334452
  0
LINE
  8
0
 62
7
  6
CONTINUOUS
 10
320.0488317759
 20
84.4063125495
 11
320.0488317759
 21
79.7129672897
  0
LINE
  8
0
 62
7
  6
CONTINUOUS
 10
320.3488317759
 20
136.419625764
 11
320.3488317759
 21
141.1129672897
  0
LINE
  8
0
 62
7
  6
CONTINUOUS
 10
323.0488317759
 20
129.2809766096
 11
323.0488317759
 21
113.4885424315
  0
LINE
  8
0
 62
7
  6
CONTINUOUS
 10
330.0488317759
 20
129.2809766096
 11
330.0488317759
 21
111.602445947
  0
LINE
  8
0
 62
7
  6
CONTINUOUS
 10
332.6488317759
 20
112.7383073235
 11
332.6488317759
 21
107.9129672897
  0
LINE
  8
0
 62
7
  6
CONTINUOUS
 10
332.7488317759
 20
141.1129672897
 11
332.7488317759
 21
136.419625764
  0
LINE
  8
0
 62
7
  6
CONTINUOUS
 10
320.3694959305
 20
136.3102114803
 11
322.9799512606
 21
129.6456908885
  0
LINE
  8
0
 62
7
  6
CONTINUOUS
 10
367.9899544698
 20
77.0129672897
 11
367.6899544698
 21
77.0129672897
  0
LINE
  8
DEFAULT_1
 62
2
  6
CENTER
 10
373.0899544698
 20
85.0502222897
 11
372.9772094698
 21
85.0502222897
  0
LINE
  8
0
 62
2
  6
CONTINUOUS
 10
368.8899544698
 20
85.0502222897
 11
366.7899544698
 21
85.0502222897
  0
LINE
  8
DEFAULT_1
 62
2
  6
CENTER
 10
362.5899544698
 20
85.0502222897
 11
362.7026994698
 21
85.0502222897
  0
LINE
  8
0
 62
7
  6
CONTINUOUS
 10
375.3399544698
 20
87.6629672897
 11
375.9251249073
 21
87.6629672897
  0
LINE
  8
0
 62
7
  6
CONTINUOUS
 10
360.3399544698
 20
84.3629672897
 11
360.3399544698
 21
136.4629672897
  0
LINE
  8
0
 62
7
  6
CONTINUOUS
 10
364.5899544698
 20
119.4629672897
 11
364.5899544698
 21
135.6629672897
  0
LINE
  8
0
 62
7
  6
CONTINUOUS
 10
360.6399544698
 20
107.6129672897
 11
375.0399544698
 21
107.6129672897
  0
LINE
  8
DEFAULT_1
 62
2
  6
CENTER
 10
367.8399544698
 20
141.0629672897
 11
367.8399544698
 21
137.8130672897
  0
LINE
  8
0
 62
2
  6
CONTINUOUS
 10
367.8399544698
 20
136.8629672897
 11
367.8399544698
 21
134.7629672897
  0
LINE
  8
DEFAULT_1
 62
2
  6
CENTER
 10
367.8399544698
 20
90.3002222897
 11
367.8399544698
 21
90.1874772897
  0
LINE
  8
0
 62
2
  6
CONTINUOUS
 10
367.8399544698
 20
86.1002222897
 11
367.8399544698
 21
84.0002222897
  0
LINE
  8
DEFAULT_1
 62
2
  6
CENTER
 10
367.8399544698
 20
79.8002222897
 11
367.8399544698
 21
79.9129672897
  0
LINE
  8
DEFAULT_1
 62
2
  6
CENTER
 10
367.8399544698
 20
130.5629672897
 11
367.8399544698
 21
133.8128672897
  0
LINE
  8
0
 62
7
  6
CONTINUOUS
 10
375.3399544698
 20
110.124867748
 11
377.8379230283
 21
110.124867748
  0
LINE
  8
DEFAULT_1
 62
2
  6
CENTER
 10
357.5504807856
 20
110.4129672897
 11
380.3399545211
 21
110.4129672897
  0
LINE
  8
0
 62
7
  6
CONTINUOUS
 10
371.0899544698
 20
119.4629672897
 11
371.0899544698
 21
135.6629672897
  0
LINE
  8
0
 62
7
  6
CONTINUOUS
 10
375.3399544698
 20
84.3629672897
 11
375.3399544698
 21
136.4629672897
  0
LINE
  8
0
 62
7
  6
CONTINUOUS
 10
376.5040056422
 20
88.5792327144
 11
376.7556278729
 21
90.1162205989
  0
LINE
  8
0
 62
7
  6
CONTINUOUS
 10
376.7356419805
 20
130.7106601201
 11
376.4825428763
 21
132.2471863824
  0
LINE
  8
0
 62
7
  6
CONTINUOUS
 10
375.9032384138
 20
133.1629672897
 11
375.3399544698
 21
133.1629672897
  0
LINE
  8
DEFAULT_1
 62
2
  6
CENTER
 10
373.0899544698
 20
135.8129672897
 11
369.8400544698
 21
135.8129672897
  0
LINE
  8
0
 62
2
  6
CONTINUOUS
 10
368.8899544698
 20
135.8129672897
 11
366.7899544698
 21
135.8129672897
  0
LINE
  8
DEFAULT_1
 62
2
  6
CENTER
 10
362.5899544698
 20
135.8129672897
 11
365.8398544698
 21
135.8129672897
  0
LINE
  8
0
 62
7
  6
CONTINUOUS
 10
367.9899544698
 20
143.8129672897
 11
367.6899544698
 21
143.8129672897
  0
LINE
  8
0
 62
7
  6
CONTINUOUS
 10
28.2488317759
 20
213.4061927876
 11
28.2488317759
 21
223.0061927876
  0
LINE
  8
0
 62
7
  6
CONTINUOUS
 10
28.3488317759
 20
211.0061927876
 11
28.3488317759
 21
212.6784467025
  0
LINE
  8
0
 62
7
  6
CONTINUOUS
 10
28.3488317759
 20
223.7339388488
 11
28.3488317759
 21
225.4061927876
  0
LINE
  8
0
 62
7
  6
CONTINUOUS
 10
40.6488317759
 20
223.0061927876
 11
40.6488317759
 21
213.4061927876
  0
LINE
  8
0
 62
7
  6
CONTINUOUS
 10
53.6488317759
 20
213.4061927876
 11
53.6488317759
 21
223.0061927876
  0
POLYLINE
  8
0
 62
7
  6
CONTINUOUS
 66
1
 70
0
  0
VERTEX
  8
0
 62
7
  6
CONTINUOUS
 10
62.5488317039
 20
226.6279570234
  0
VERTEX
  8
0
 62
7
  6
CONTINUOUS
 10
62.5478284503
 20
226.6600081671
  0
VERTEX
  8
0
 62
7
  6
CONTINUOUS
 10
62.5428995903
 20
226.705708178
  0
VERTEX
  8
0
 62
7
  6
CONTINUOUS
 10
62.5338888317
 20
226.7508235774
  0
VERTEX
  8
0
 62
7
  6
CONTINUOUS
 10
62.5208720751
 20
226.7949643582
  0
VERTEX
  8
0
 62
7
  6
CONTINUOUS
 10
62.5039740004
 20
226.8377430406
  0
VERTEX
  8
0
 62
7
  6
CONTINUOUS
 10
62.4833689078
 20
226.8787865195
  0
VERTEX
  8
0
 62
7
  6
CONTINUOUS
 10
62.4592729667
 20
226.9177560204
  0
VERTEX
  8
0
 62
7
  6
CONTINUOUS
 10
62.4319374428
 20
226.9543531952
  0
VERTEX
  8
0
 62
7
  6
CONTINUOUS
 10
62.4016510847
 20
226.9883158318
  0
VERTEX
  8
0
 62
7
  6
CONTINUOUS
 10
62.3690801913
 20
227.0191290624
  0
VERTEX
  8
0
 62
7
  6
CONTINUOUS
 10
62.336168007
 20
227.0455940988
  0
VERTEX
  8
0
 62
7
  6
CONTINUOUS
 10
62.3042953201
 20
227.0675944294
  0
VERTEX
  8
0
 62
7
  6
CONTINUOUS
 10
62.2736588525
 20
227.0859166987
  0
VERTEX
  8
0
 62
7
  6
CONTINUOUS
 10
62.2441513544
 20
227.1013130952
  0
VERTEX
  8
0
 62
7
  6
CONTINUOUS
 10
62.2155607188
 20
227.1143935537
  0
VERTEX
  8
0
 62
7
  6
CONTINUOUS
 10
62.1995086567
 20
227.1210291247
  0
SEQEND
  0
LINE
  8
0
 62
7
  6
CONTINUOUS
 10
57.1488317759
 20
225.7061927876
 11
57.1488317759
 21
226.6279597545
  0
LINE
  8
0
 62
7
  6
CONTINUOUS
 10
57.448836287
 20
227.0988941623
 11
57.4488690054
 21
228.1775118813
  0
LINE
  8
0
 62
7
  6
CONTINUOUS
 10
62.2488317759
 20
228.1195167348
 11
62.2488317759
 21
227.098870949
  0
LINE
  8
0
 62
7
  6
CONTINUOUS
 10
62.5488317759
 20
226.6279597545
 11
62.5488317759
 21
225.7061927876
  0
LINE
  8
0
 62
7
  6
CONTINUOUS
 10
66.0488317759
 20
223.0061927876
 11
66.0488317759
 21
213.4061927876
  0
LINE
  8
0
 62
7
  6
CONTINUOUS
 10
79.0488317759
 20
213.4061927876
 11
79.0488317759
 21
223.0061927876
  0
LINE
  8
0
 62
7
  6
CONTINUOUS
 10
82.5488317759
 20
225.7061927876
 11
82.5488317759
 21
226.6279597545
  0
LINE
  8
0
 62
7
  6
CONTINUOUS
 10
82.8488317759
 20
227.0988917988
 11
82.8488317759
 21
228.1195167348
  0
POLYLINE
  8
0
 62
7
  6
CONTINUOUS
 66
1
 70
0
  0
VERTEX
  8
0
 62
7
  6
CONTINUOUS
 10
87.9488317039
 20
226.6279570234
  0
VERTEX
  8
0
 62
7
  6
CONTINUOUS
 10
87.9478284503
 20
226.6600081671
  0
VERTEX
  8
0
 62
7
  6
CONTINUOUS
 10
87.9428995903
 20
226.705708178
  0
VERTEX
  8
0
 62
7
  6
CONTINUOUS
 10
87.9338888317
 20
226.7508235774
  0
VERTEX
  8
0
 62
7
  6
CONTINUOUS
 10
87.9208720751
 20
226.7949643582
  0
VERTEX
  8
0
 62
7
  6
CONTINUOUS
 10
87.9039740004
 20
226.8377430406
  0
VERTEX
  8
0
 62
7
  6
CONTINUOUS
 10
87.8833689078
 20
226.8787865195
  0
VERTEX
  8
0
 62
7
  6
CONTINUOUS
 10
87.8592729667
 20
226.9177560204
  0
VERTEX
  8
0
 62
7
  6
CONTINUOUS
 10
87.8319374428
 20
226.9543531952
  0
VERTEX
  8
0
 62
7
  6
CONTINUOUS
 10
87.8016510847
 20
226.9883158318
  0
VERTEX
  8
0
 62
7
  6
CONTINUOUS
 10
87.7690801913
 20
227.0191290624
  0
VERTEX
  8
0
 62
7
  6
CONTINUOUS
 10
87.736168007
 20
227.0455940988
  0
VERTEX
  8
0
 62
7
  6
CONTINUOUS
 10
87.7042953201
 20
227.0675944294
  0
VERTEX
  8
0
 62
7
  6
CONTINUOUS
 10
87.6736588525
 20
227.0859166987
  0
VERTEX
  8
0
 62
7
  6
CONTINUOUS
 10
87.6441513544
 20
227.1013130952
  0
VERTEX
  8
0
 62
7
  6
CONTINUOUS
 10
87.6155607188
 20
227.1143935537
  0
VERTEX
  8
0
 62
7
  6
CONTINUOUS
 10
87.5995086567
 20
227.1210291247
  0
SEQEND
  0
LINE
  8
0
 62
7
  6
CONTINUOUS
 10
87.6488317759
 20
228.1195167348
 11
87.6488317759
 21
227.098870949
  0
LINE
  8
0
 62
7
  6
CONTINUOUS
 10
87.9488317759
 20
226.6279597545
 11
87.9488317759
 21
225.7061927876
  0
LINE
  8
0
 62
7
  6
CONTINUOUS
 10
91.4488317759
 20
223.0061927876
 11
91.4488317759
 21
213.4061927876
  0
LINE
  8
0
 62
7
  6
CONTINUOUS
 10
104.4488317759
 20
213.4061927876
 11
104.4488317759
 21
223.0061927876
  0
POLYLINE
  8
0
 62
7
  6
CONTINUOUS
 66
1
 70
0
  0
VERTEX
  8
0
 62
7
  6
CONTINUOUS
 10
113.3488317039
 20
226.6279570234
  0
VERTEX
  8
0
 62
7
  6
CONTINUOUS
 10
113.3478284503
 20
226.6600081671
  0
VERTEX
  8
0
 62
7
  6
CONTINUOUS
 10
113.3428995903
 20
226.705708178
  0
VERTEX
  8
0
 62
7
  6
CONTINUOUS
 10
113.3338888317
 20
226.7508235774
  0
VERTEX
  8
0
 62
7
  6
CONTINUOUS
 10
113.3208720751
 20
226.7949643582
  0
VERTEX
  8
0
 62
7
  6
CONTINUOUS
 10
113.3039740004
 20
226.8377430406
  0
VERTEX
  8
0
 62
7
  6
CONTINUOUS
 10
113.2833689078
 20
226.8787865195
  0
VERTEX
  8
0
 62
7
  6
CONTINUOUS
 10
113.2592729667
 20
226.9177560204
  0
VERTEX
  8
0
 62
7
  6
CONTINUOUS
 10
113.2319374428
 20
226.9543531952
  0
VERTEX
  8
0
 62
7
  6
CONTINUOUS
 10
113.2016510847
 20
226.9883158318
  0
VERTEX
  8
0
 62
7
  6
CONTINUOUS
 10
113.1690801913
 20
227.0191290624
  0
VERTEX
  8
0
 62
7
  6
CONTINUOUS
 10
113.136168007
 20
227.0455940988
  0
VERTEX
  8
0
 62
7
  6
CONTINUOUS
 10
113.1042953201
 20
227.0675944294
  0
VERTEX
  8
0
 62
7
  6
CONTINUOUS
 10
113.0736588525
 20
227.0859166987
  0
VERTEX
  8
0
 62
7
  6
CONTINUOUS
 10
113.0441513544
 20
227.1013130952
  0
VERTEX
  8
0
 62
7
  6
CONTINUOUS
 10
113.0155607188
 20
227.1143935537
  0
VERTEX
  8
0
 62
7
  6
CONTINUOUS
 10
112.9995086567
 20
227.1210291247
  0
SEQEND
  0
LINE
  8
0
 62
7
  6
CONTINUOUS
 10
107.9488317759
 20
225.7061927876
 11
107.9488317759
 21
226.6279597545
  0
LINE
  8
0
 62
7
  6
CONTINUOUS
 10
108.2488317759
 20
227.0988917988
 11
108.2488317759
 21
228.1195167348
  0
LINE
  8
0
 62
7
  6
CONTINUOUS
 10
113.0488317759
 20
228.1195167348
 11
113.0488317759
 21
227.098870949
  0
LINE
  8
0
 62
7
  6
CONTINUOUS
 10
113.3488317759
 20
226.6279597545
 11
113.3488317759
 21
225.7061927876
  0
POLYLINE
  8
0
 62
7
  6
CONTINUOUS
 66
1
 70
0
  0
VERTEX
  8
0
 62
7
  6
CONTINUOUS
 10
57.6113265271
 20
227.1666117514
  0
VERTEX
  8
0
 62
7
  6
CONTINUOUS
 10
57.6133879327
 20
227.1678355706
  0
VERTEX
  8
0
 62
7
  6
CONTINUOUS
 10
57.6124815911
 20
227.1673677223
  0
VERTEX
  8
0
 62
7
  6
CONTINUOUS
 10
57.6071285143
 20
227.164778515
  0
VERTEX
  8
0
 62
7
  6
CONTINUOUS
 10
57.5972392466
 20
227.1604170412
  0
VERTEX
  8
0
 62
7
  6
CONTINUOUS
 10
57.586466872
 20
227.1560282311
  0
SEQEND
  0
LINE
  8
0
 62
7
  6
CONTINUOUS
 10
116.8488317759
 20
223.0061927876
 11
116.8488317759
 21
213.4061927876
  0
POLYLINE
  8
0
 62
7
  6
CONTINUOUS
 66
1
 70
0
  0
VERTEX
  8
0
 62
7
  6
CONTINUOUS
 10
83.0113265349
 20
227.1666117562
  0
VERTEX
  8
0
 62
7
  6
CONTINUOUS
 10
83.0133879356
 20
227.1678355723
  0
VERTEX
  8
0
 62
7
  6
CONTINUOUS
 10
83.0124815834
 20
227.1673677184
  0
VERTEX
  8
0
 62
7
  6
CONTINUOUS
 10
83.0071284973
 20
227.164778507
  0
VERTEX
  8
0
 62
7
  6
CONTINUOUS
 10
82.997239229
 20
227.1604170337
  0
VERTEX
  8
0
 62
7
  6
CONTINUOUS
 10
82.9864668722
 20
227.1560282311
  0
SEQEND
  0
POLYLINE
  8
0
 62
7
  6
CONTINUOUS
 66
1
 70
0
  0
VERTEX
  8
0
 62
7
  6
CONTINUOUS
 10
57.498156942
 20
227.1210299438
  0
VERTEX
  8
0
 62
7
  6
CONTINUOUS
 10
57.4812257004
 20
227.114016899
  0
VERTEX
  8
0
 62
7
  6
CONTINUOUS
 10
57.4526349371
 20
227.1008843796
  0
VERTEX
  8
0
 62
7
  6
CONTINUOUS
 10
57.4230673577
 20
227.0853931115
  0
VERTEX
  8
0
 62
7
  6
CONTINUOUS
 10
57.3923531483
 20
227.066942468
  0
VERTEX
  8
0
 62
7
  6
CONTINUOUS
 10
57.3604279189
 20
227.0447992162
  0
VERTEX
  8
0
 62
7
  6
CONTINUOUS
 10
57.3275265629
 20
227.018207242
  0
VERTEX
  8
0
 62
7
  6
CONTINUOUS
 10
57.2950347419
 20
226.9873072703
  0
VERTEX
  8
0
 62
7
  6
CONTINUOUS
 10
57.2648525437
 20
226.9532812908
  0
VERTEX
  8
0
 62
7
  6
CONTINUOUS
 10
57.2376203135
 20
226.9166216555
  0
VERTEX
  8
0
 62
7
  6
CONTINUOUS
 10
57.2136319755
 20
226.8775972019
  0
VERTEX
  8
0
 62
7
  6
CONTINUOUS
 10
57.1931408758
 20
226.8365128169
  0
VERTEX
  8
0
 62
7
  6
CONTINUOUS
 10
57.1763608252
 20
226.7937080862
  0
VERTEX
  8
0
 62
7
  6
CONTINUOUS
 10
57.1634632641
 20
226.7495546998
  0
VERTEX
  8
0
 62
7
  6
CONTINUOUS
 10
57.1545706678
 20
226.7044380497
  0
VERTEX
  8
0
 62
7
  6
CONTINUOUS
 10
57.149757566
 20
226.6587458035
  0
VERTEX
  8
0
 62
7
  6
CONTINUOUS
 10
57.1488318575
 20
226.6279569688
  0
SEQEND
  0
LINE
  8
0
 62
7
  6
CONTINUOUS
 10
57.5864558784
 20
227.1560238915
 11
57.498145523
 21
227.1210254185
  0
LINE
  8
0
 62
7
  6
CONTINUOUS
 10
129.8488317759
 20
213.4061927876
 11
129.8488317759
 21
223.0061927876
  0
LINE
  8
0
 62
7
  6
CONTINUOUS
 10
133.3488317759
 20
225.7061927876
 11
133.3488317759
 21
226.6279597545
  0
LINE
  8
0
 62
7
  6
CONTINUOUS
 10
133.6488317759
 20
227.0988917988
 11
133.6488317759
 21
228.1195167348
  0
POLYLINE
  8
0
 62
7
  6
CONTINUOUS
 66
1
 70
0
  0
VERTEX
  8
0
 62
7
  6
CONTINUOUS
 10
108.4113265349
 20
227.1666117562
  0
VERTEX
  8
0
 62
7
  6
CONTINUOUS
 10
108.4133879356
 20
227.1678355723
  0
VERTEX
  8
0
 62
7
  6
CONTINUOUS
 10
108.4124815834
 20
227.1673677184
  0
VERTEX
  8
0
 62
7
  6
CONTINUOUS
 10
108.4071284973
 20
227.164778507
  0
VERTEX
  8
0
 62
7
  6
CONTINUOUS
 10
108.397239229
 20
227.1604170337
  0
VERTEX
  8
0
 62
7
  6
CONTINUOUS
 10
108.3864668722
 20
227.1560282311
  0
SEQEND
  0
POLYLINE
  8
0
 62
7
  6
CONTINUOUS
 66
1
 70
0
  0
VERTEX
  8
0
 62
7
  6
CONTINUOUS
 10
82.898156942
 20
227.1210299438
  0
VERTEX
  8
0
 62
7
  6
CONTINUOUS
 10
82.8812257004
 20
227.114016899
  0
VERTEX
  8
0
 62
7
  6
CONTINUOUS
 10
82.8526349371
 20
227.1008843796
  0
VERTEX
  8
0
 62
7
  6
CONTINUOUS
 10
82.8230673577
 20
227.0853931115
  0
VERTEX
  8
0
 62
7
  6
CONTINUOUS
 10
82.7923531483
 20
227.066942468
  0
VERTEX
  8
0
 62
7
  6
CONTINUOUS
 10
82.7604279189
 20
227.0447992162
  0
VERTEX
  8
0
 62
7
  6
CONTINUOUS
 10
82.7275265629
 20
227.018207242
  0
VERTEX
  8
0
 62
7
  6
CONTINUOUS
 10
82.6950347419
 20
226.9873072703
  0
VERTEX
  8
0
 62
7
  6
CONTINUOUS
 10
82.6648525437
 20
226.9532812908
  0
VERTEX
  8
0
 62
7
  6
CONTINUOUS
 10
82.6376203135
 20
226.9166216555
  0
VERTEX
  8
0
 62
7
  6
CONTINUOUS
 10
82.6136319755
 20
226.8775972019
  0
VERTEX
  8
0
 62
7
  6
CONTINUOUS
 10
82.5931408758
 20
226.8365128169
  0
VERTEX
  8
0
 62
7
  6
CONTINUOUS
 10
82.5763608252
 20
226.7937080862
  0
VERTEX
  8
0
 62
7
  6
CONTINUOUS
 10
82.5634632641
 20
226.7495546998
  0
VERTEX
  8
0
 62
7
  6
CONTINUOUS
 10
82.5545706678
 20
226.7044380497
  0
VERTEX
  8
0
 62
7
  6
CONTINUOUS
 10
82.549757566
 20
226.6587458035
  0
VERTEX
  8
0
 62
7
  6
CONTINUOUS
 10
82.5488318575
 20
226.6279569688
  0
SEQEND
  0
LINE
  8
0
 62
7
  6
CONTINUOUS
 10
82.9864558784
 20
227.1560238915
 11
82.898145523
 21
227.1210254185
  0
POLYLINE
  8
0
 62
7
  6
CONTINUOUS
 66
1
 70
0
  0
VERTEX
  8
0
 62
7
  6
CONTINUOUS
 10
138.7488317039
 20
226.6279570234
  0
VERTEX
  8
0
 62
7
  6
CONTINUOUS
 10
138.7478284503
 20
226.6600081671
  0
VERTEX
  8
0
 62
7
  6
CONTINUOUS
 10
138.7428995903
 20
226.705708178
  0
VERTEX
  8
0
 62
7
  6
CONTINUOUS
 10
138.7338888317
 20
226.7508235774
  0
VERTEX
  8
0
 62
7
  6
CONTINUOUS
 10
138.7208720751
 20
226.7949643582
  0
VERTEX
  8
0
 62
7
  6
CONTINUOUS
 10
138.7039740004
 20
226.8377430406
  0
VERTEX
  8
0
 62
7
  6
CONTINUOUS
 10
138.6833689078
 20
226.8787865195
  0
VERTEX
  8
0
 62
7
  6
CONTINUOUS
 10
138.6592729667
 20
226.9177560204
  0
VERTEX
  8
0
 62
7
  6
CONTINUOUS
 10
138.6319374428
 20
226.9543531952
  0
VERTEX
  8
0
 62
7
  6
CONTINUOUS
 10
138.6016510847
 20
226.9883158318
  0
VERTEX
  8
0
 62
7
  6
CONTINUOUS
 10
138.5690801913
 20
227.0191290624
  0
VERTEX
  8
0
 62
7
  6
CONTINUOUS
 10
138.536168007
 20
227.0455940988
  0
VERTEX
  8
0
 62
7
  6
CONTINUOUS
 10
138.5042953201
 20
227.0675944294
  0
VERTEX
  8
0
 62
7
  6
CONTINUOUS
 10
138.4736588525
 20
227.0859166987
  0
VERTEX
  8
0
 62
7
  6
CONTINUOUS
 10
138.4441513544
 20
227.1013130952
  0
VERTEX
  8
0
 62
7
  6
CONTINUOUS
 10
138.4155607188
 20
227.1143935537
  0
VERTEX
  8
0
 62
7
  6
CONTINUOUS
 10
138.3995086567
 20
227.1210291247
  0
SEQEND
  0
LINE
  8
0
 62
7
  6
CONTINUOUS
 10
138.4488317759
 20
228.1195167348
 11
138.4488317759
 21
227.098870949
  0
LINE
  8
0
 62
7
  6
CONTINUOUS
 10
138.7488317759
 20
226.6279597545
 11
138.7488317759
 21
225.7061927876
  0
LINE
  8
0
 62
7
  6
CONTINUOUS
 10
142.2488317759
 20
223.0061927876
 11
142.2488317759
 21
213.4061927876
  0
POLYLINE
  8
0
 62
7
  6
CONTINUOUS
 66
1
 70
0
  0
VERTEX
  8
0
 62
7
  6
CONTINUOUS
 10
108.298156942
 20
227.1210299438
  0
VERTEX
  8
0
 62
7
  6
CONTINUOUS
 10
108.2812257004
 20
227.114016899
  0
VERTEX
  8
0
 62
7
  6
CONTINUOUS
 10
108.2526349372
 20
227.1008843796
  0
VERTEX
  8
0
 62
7
  6
CONTINUOUS
 10
108.2230673577
 20
227.0853931115
  0
VERTEX
  8
0
 62
7
  6
CONTINUOUS
 10
108.1923531483
 20
227.066942468
  0
VERTEX
  8
0
 62
7
  6
CONTINUOUS
 10
108.1604279189
 20
227.0447992162
  0
VERTEX
  8
0
 62
7
  6
CONTINUOUS
 10
108.1275265629
 20
227.018207242
  0
VERTEX
  8
0
 62
7
  6
CONTINUOUS
 10
108.0950347419
 20
226.9873072703
  0
VERTEX
  8
0
 62
7
  6
CONTINUOUS
 10
108.0648525437
 20
226.9532812908
  0
VERTEX
  8
0
 62
7
  6
CONTINUOUS
 10
108.0376203135
 20
226.9166216555
  0
VERTEX
  8
0
 62
7
  6
CONTINUOUS
 10
108.0136319755
 20
226.877597202
  0
VERTEX
  8
0
 62
7
  6
CONTINUOUS
 10
107.9931408758
 20
226.8365128169
  0
VERTEX
  8
0
 62
7
  6
CONTINUOUS
 10
107.9763608252
 20
226.7937080862
  0
VERTEX
  8
0
 62
7
  6
CONTINUOUS
 10
107.9634632641
 20
226.7495546998
  0
VERTEX
  8
0
 62
7
  6
CONTINUOUS
 10
107.9545706678
 20
226.7044380497
  0
VERTEX
  8
0
 62
7
  6
CONTINUOUS
 10
107.949757566
 20
226.6587458035
  0
VERTEX
  8
0
 62
7
  6
CONTINUOUS
 10
107.9488318575
 20
226.6279569688
  0
SEQEND
  0
LINE
  8
0
 62
7
  6
CONTINUOUS
 10
108.3864558784
 20
227.1560238915
 11
108.298145523
 21
227.1210254185
  0
LINE
  8
0
 62
7
  6
CONTINUOUS
 10
62.1995180285
 20
227.1210254186
 11
62.1112076734
 21
227.1560238915
  0
POLYLINE
  8
0
 62
7
  6
CONTINUOUS
 66
1
 70
0
  0
VERTEX
  8
0
 62
7
  6
CONTINUOUS
 10
62.1111972127
 20
227.1560280206
  0
VERTEX
  8
0
 62
7
  6
CONTINUOUS
 10
62.1002162434
 20
227.160505
  0
VERTEX
  8
0
 62
7
  6
CONTINUOUS
 10
62.0904132837
 20
227.1648350246
  0
VERTEX
  8
0
 62
7
  6
CONTINUOUS
 10
62.0851352586
 20
227.1673916257
  0
VERTEX
  8
0
 62
7
  6
CONTINUOUS
 10
62.0841087497
 20
227.1679293191
  0
SEQEND
  0
LINE
  8
0
 62
7
  6
CONTINUOUS
 10
155.2488317759
 20
213.4061927876
 11
155.2488317759
 21
223.0061927876
  0
POLYLINE
  8
0
 62
7
  6
CONTINUOUS
 66
1
 70
0
  0
VERTEX
  8
0
 62
7
  6
CONTINUOUS
 10
133.8113265349
 20
227.1666117562
  0
VERTEX
  8
0
 62
7
  6
CONTINUOUS
 10
133.8133879356
 20
227.1678355723
  0
VERTEX
  8
0
 62
7
  6
CONTINUOUS
 10
133.8124815834
 20
227.1673677184
  0
VERTEX
  8
0
 62
7
  6
CONTINUOUS
 10
133.8071284973
 20
227.164778507
  0
VERTEX
  8
0
 62
7
  6
CONTINUOUS
 10
133.797239229
 20
227.1604170337
  0
VERTEX
  8
0
 62
7
  6
CONTINUOUS
 10
133.7864668722
 20
227.1560282311
  0
SEQEND
  0
POLYLINE
  8
0
 62
7
  6
CONTINUOUS
 66
1
 70
0
  0
VERTEX
  8
0
 62
7
  6
CONTINUOUS
 10
133.698156942
 20
227.1210299438
  0
VERTEX
  8
0
 62
7
  6
CONTINUOUS
 10
133.6812257004
 20
227.114016899
  0
VERTEX
  8
0
 62
7
  6
CONTINUOUS
 10
133.6526349371
 20
227.1008843796
  0
VERTEX
  8
0
 62
7
  6
CONTINUOUS
 10
133.6230673577
 20
227.0853931115
  0
VERTEX
  8
0
 62
7
  6
CONTINUOUS
 10
133.5923531483
 20
227.066942468
  0
VERTEX
  8
0
 62
7
  6
CONTINUOUS
 10
133.5604279189
 20
227.0447992162
  0
VERTEX
  8
0
 62
7
  6
CONTINUOUS
 10
133.5275265629
 20
227.018207242
  0
VERTEX
  8
0
 62
7
  6
CONTINUOUS
 10
133.4950347419
 20
226.9873072703
  0
VERTEX
  8
0
 62
7
  6
CONTINUOUS
 10
133.4648525437
 20
226.9532812908
  0
VERTEX
  8
0
 62
7
  6
CONTINUOUS
 10
133.4376203135
 20
226.9166216555
  0
VERTEX
  8
0
 62
7
  6
CONTINUOUS
 10
133.4136319755
 20
226.8775972019
  0
VERTEX
  8
0
 62
7
  6
CONTINUOUS
 10
133.3931408758
 20
226.8365128169
  0
VERTEX
  8
0
 62
7
  6
CONTINUOUS
 10
133.3763608252
 20
226.7937080862
  0
VERTEX
  8
0
 62
7
  6
CONTINUOUS
 10
133.3634632641
 20
226.7495546998
  0
VERTEX
  8
0
 62
7
  6
CONTINUOUS
 10
133.3545706678
 20
226.7044380497
  0
VERTEX
  8
0
 62
7
  6
CONTINUOUS
 10
133.349757566
 20
226.6587458035
  0
VERTEX
  8
0
 62
7
  6
CONTINUOUS
 10
133.3488318575
 20
226.6279569688
  0
SEQEND
  0
LINE
  8
0
 62
7
  6
CONTINUOUS
 10
133.7864558784
 20
227.1560238915
 11
133.698145523
 21
227.1210254185
  0
LINE
  8
0
 62
7
  6
CONTINUOUS
 10
87.5995180285
 20
227.1210254186
 11
87.5112076734
 21
227.1560238915
  0
POLYLINE
  8
0
 62
7
  6
CONTINUOUS
 66
1
 70
0
  0
VERTEX
  8
0
 62
7
  6
CONTINUOUS
 10
87.5111972127
 20
227.1560280206
  0
VERTEX
  8
0
 62
7
  6
CONTINUOUS
 10
87.5002162434
 20
227.160505
  0
VERTEX
  8
0
 62
7
  6
CONTINUOUS
 10
87.4904132837
 20
227.1648350246
  0
VERTEX
  8
0
 62
7
  6
CONTINUOUS
 10
87.4851352586
 20
227.1673916257
  0
VERTEX
  8
0
 62
7
  6
CONTINUOUS
 10
87.4841087497
 20
227.1679293191
  0
SEQEND
  0
POLYLINE
  8
0
 62
7
  6
CONTINUOUS
 66
1
 70
0
  0
VERTEX
  8
0
 62
7
  6
CONTINUOUS
 10
164.1488317039
 20
226.6279570234
  0
VERTEX
  8
0
 62
7
  6
CONTINUOUS
 10
164.1478284503
 20
226.6600081671
  0
VERTEX
  8
0
 62
7
  6
CONTINUOUS
 10
164.1428995903
 20
226.705708178
  0
VERTEX
  8
0
 62
7
  6
CONTINUOUS
 10
164.1338888317
 20
226.7508235774
  0
VERTEX
  8
0
 62
7
  6
CONTINUOUS
 10
164.1208720751
 20
226.7949643582
  0
VERTEX
  8
0
 62
7
  6
CONTINUOUS
 10
164.1039740004
 20
226.8377430406
  0
VERTEX
  8
0
 62
7
  6
CONTINUOUS
 10
164.0833689078
 20
226.8787865195
  0
VERTEX
  8
0
 62
7
  6
CONTINUOUS
 10
164.0592729667
 20
226.9177560204
  0
VERTEX
  8
0
 62
7
  6
CONTINUOUS
 10
164.0319374428
 20
226.9543531952
  0
VERTEX
  8
0
 62
7
  6
CONTINUOUS
 10
164.0016510847
 20
226.9883158318
  0
VERTEX
  8
0
 62
7
  6
CONTINUOUS
 10
163.9690801913
 20
227.0191290624
  0
VERTEX
  8
0
 62
7
  6
CONTINUOUS
 10
163.936168007
 20
227.0455940988
  0
VERTEX
  8
0
 62
7
  6
CONTINUOUS
 10
163.9042953201
 20
227.0675944294
  0
VERTEX
  8
0
 62
7
  6
CONTINUOUS
 10
163.8736588525
 20
227.0859166987
  0
VERTEX
  8
0
 62
7
  6
CONTINUOUS
 10
163.8441513544
 20
227.1013130952
  0
VERTEX
  8
0
 62
7
  6
CONTINUOUS
 10
163.8155607188
 20
227.1143935537
  0
VERTEX
  8
0
 62
7
  6
CONTINUOUS
 10
163.7995086567
 20
227.1210291247
  0
SEQEND
  0
LINE
  8
0
 62
7
  6
CONTINUOUS
 10
158.7488317759
 20
225.7061927876
 11
158.7488317759
 21
226.6279597545
  0
LINE
  8
0
 62
7
  6
CONTINUOUS
 10
159.0488317759
 20
227.0988917988
 11
159.0488317759
 21
228.1195167348
  0
LINE
  8
0
 62
7
  6
CONTINUOUS
 10
163.8488317759
 20
228.1195167348
 11
163.8488317759
 21
227.098870949
  0
LINE
  8
0
 62
7
  6
CONTINUOUS
 10
164.1488317759
 20
226.6279597545
 11
164.1488317759
 21
225.7061927876
  0
LINE
  8
0
 62
7
  6
CONTINUOUS
 10
167.6488317759
 20
223.0061927876
 11
167.6488317759
 21
213.4061927876
  0
POLYLINE
  8
0
 62
7
  6
CONTINUOUS
 66
1
 70
0
  0
VERTEX
  8
0
 62
7
  6
CONTINUOUS
 10
159.2113265349
 20
227.1666117562
  0
VERTEX
  8
0
 62
7
  6
CONTINUOUS
 10
159.2133879356
 20
227.1678355723
  0
VERTEX
  8
0
 62
7
  6
CONTINUOUS
 10
159.2124815834
 20
227.1673677184
  0
VERTEX
  8
0
 62
7
  6
CONTINUOUS
 10
159.2071284973
 20
227.164778507
  0
VERTEX
  8
0
 62
7
  6
CONTINUOUS
 10
159.197239229
 20
227.1604170337
  0
VERTEX
  8
0
 62
7
  6
CONTINUOUS
 10
159.1864668722
 20
227.1560282311
  0
SEQEND
  0
POLYLINE
  8
0
 62
7
  6
CONTINUOUS
 66
1
 70
0
  0
VERTEX
  8
0
 62
7
  6
CONTINUOUS
 10
159.098156942
 20
227.1210299438
  0
VERTEX
  8
0
 62
7
  6
CONTINUOUS
 10
159.0812257004
 20
227.114016899
  0
VERTEX
  8
0
 62
7
  6
CONTINUOUS
 10
159.0526349371
 20
227.1008843796
  0
VERTEX
  8
0
 62
7
  6
CONTINUOUS
 10
159.0230673577
 20
227.0853931115
  0
VERTEX
  8
0
 62
7
  6
CONTINUOUS
 10
158.9923531483
 20
227.066942468
  0
VERTEX
  8
0
 62
7
  6
CONTINUOUS
 10
158.9604279189
 20
227.0447992162
  0
VERTEX
  8
0
 62
7
  6
CONTINUOUS
 10
158.9275265629
 20
227.018207242
  0
VERTEX
  8
0
 62
7
  6
CONTINUOUS
 10
158.8950347419
 20
226.9873072703
  0
VERTEX
  8
0
 62
7
  6
CONTINUOUS
 10
158.8648525437
 20
226.9532812908
  0
VERTEX
  8
0
 62
7
  6
CONTINUOUS
 10
158.8376203135
 20
226.9166216555
  0
VERTEX
  8
0
 62
7
  6
CONTINUOUS
 10
158.8136319755
 20
226.8775972019
  0
VERTEX
  8
0
 62
7
  6
CONTINUOUS
 10
158.7931408758
 20
226.8365128169
  0
VERTEX
  8
0
 62
7
  6
CONTINUOUS
 10
158.7763608252
 20
226.7937080862
  0
VERTEX
  8
0
 62
7
  6
CONTINUOUS
 10
158.7634632641
 20
226.7495546998
  0
VERTEX
  8
0
 62
7
  6
CONTINUOUS
 10
158.7545706678
 20
226.7044380497
  0
VERTEX
  8
0
 62
7
  6
CONTINUOUS
 10
158.749757566
 20
226.6587458035
  0
VERTEX
  8
0
 62
7
  6
CONTINUOUS
 10
158.7488318575
 20
226.6279569688
  0
SEQEND
  0
LINE
  8
0
 62
7
  6
CONTINUOUS
 10
159.1864558784
 20
227.1560238915
 11
159.098145523
 21
227.1210254185
  0
LINE
  8
0
 62
7
  6
CONTINUOUS
 10
28.6488317759
 20
210.7061927876
 11
332.3488317759
 21
210.7061927876
  0
LINE
  8
0
 62
7
  6
CONTINUOUS
 10
112.9995180285
 20
227.1210254186
 11
112.9112076734
 21
227.1560238915
  0
POLYLINE
  8
0
 62
7
  6
CONTINUOUS
 66
1
 70
0
  0
VERTEX
  8
0
 62
7
  6
CONTINUOUS
 10
112.9111972127
 20
227.1560280206
  0
VERTEX
  8
0
 62
7
  6
CONTINUOUS
 10
112.9002162434
 20
227.160505
  0
VERTEX
  8
0
 62
7
  6
CONTINUOUS
 10
112.8904132837
 20
227.1648350246
  0
VERTEX
  8
0
 62
7
  6
CONTINUOUS
 10
112.8851352586
 20
227.1673916257
  0
VERTEX
  8
0
 62
7
  6
CONTINUOUS
 10
112.8841087497
 20
227.1679293191
  0
SEQEND
  0
POLYLINE
  8
0
 62
7
  6
CONTINUOUS
 66
1
 70
0
  0
VERTEX
  8
0
 62
7
  6
CONTINUOUS
 10
184.6113265349
 20
227.1666117562
  0
VERTEX
  8
0
 62
7
  6
CONTINUOUS
 10
184.6133879356
 20
227.1678355723
  0
VERTEX
  8
0
 62
7
  6
CONTINUOUS
 10
184.6124815834
 20
227.1673677184
  0
VERTEX
  8
0
 62
7
  6
CONTINUOUS
 10
184.6071284973
 20
227.164778507
  0
VERTEX
  8
0
 62
7
  6
CONTINUOUS
 10
184.597239229
 20
227.1604170337
  0
VERTEX
  8
0
 62
7
  6
CONTINUOUS
 10
184.5864668722
 20
227.1560282311
  0
SEQEND
  0
POLYLINE
  8
0
 62
7
  6
CONTINUOUS
 66
1
 70
0
  0
VERTEX
  8
0
 62
7
  6
CONTINUOUS
 10
184.498156942
 20
227.1210299438
  0
VERTEX
  8
0
 62
7
  6
CONTINUOUS
 10
184.4812257004
 20
227.114016899
  0
VERTEX
  8
0
 62
7
  6
CONTINUOUS
 10
184.4526349371
 20
227.1008843796
  0
VERTEX
  8
0
 62
7
  6
CONTINUOUS
 10
184.4230673577
 20
227.0853931115
  0
VERTEX
  8
0
 62
7
  6
CONTINUOUS
 10
184.3923531483
 20
227.066942468
  0
VERTEX
  8
0
 62
7
  6
CONTINUOUS
 10
184.3604279189
 20
227.0447992162
  0
VERTEX
  8
0
 62
7
  6
CONTINUOUS
 10
184.3275265629
 20
227.018207242
  0
VERTEX
  8
0
 62
7
  6
CONTINUOUS
 10
184.2950347419
 20
226.9873072703
  0
VERTEX
  8
0
 62
7
  6
CONTINUOUS
 10
184.2648525437
 20
226.9532812908
  0
VERTEX
  8
0
 62
7
  6
CONTINUOUS
 10
184.2376203135
 20
226.9166216555
  0
VERTEX
  8
0
 62
7
  6
CONTINUOUS
 10
184.2136319755
 20
226.8775972019
  0
VERTEX
  8
0
 62
7
  6
CONTINUOUS
 10
184.1931408758
 20
226.8365128169
  0
VERTEX
  8
0
 62
7
  6
CONTINUOUS
 10
184.1763608252
 20
226.7937080862
  0
VERTEX
  8
0
 62
7
  6
CONTINUOUS
 10
184.1634632641
 20
226.7495546998
  0
VERTEX
  8
0
 62
7
  6
CONTINUOUS
 10
184.1545706678
 20
226.7044380497
  0
VERTEX
  8
0
 62
7
  6
CONTINUOUS
 10
184.149757566
 20
226.6587458035
  0
VERTEX
  8
0
 62
7
  6
CONTINUOUS
 10
184.1488318575
 20
226.6279569688
  0
SEQEND
  0
LINE
  8
0
 62
7
  6
CONTINUOUS
 10
184.5864558784
 20
227.1560238915
 11
184.498145523
 21
227.1210254185
  0
LINE
  8
DEFAULT_1
 62
2
  6
CENTER
 10
20.9452491309
 20
218.2061927876
 11
348.7934530707
 21
218.2061927876
  0
LINE
  8
0
 62
7
  6
CONTINUOUS
 10
138.3995180285
 20
227.1210254186
 11
138.3112076734
 21
227.1560238915
  0
POLYLINE
  8
0
 62
7
  6
CONTINUOUS
 66
1
 70
0
  0
VERTEX
  8
0
 62
7
  6
CONTINUOUS
 10
138.3111972127
 20
227.1560280206
  0
VERTEX
  8
0
 62
7
  6
CONTINUOUS
 10
138.3002162434
 20
227.160505
  0
VERTEX
  8
0
 62
7
  6
CONTINUOUS
 10
138.2904132837
 20
227.1648350246
  0
VERTEX
  8
0
 62
7
  6
CONTINUOUS
 10
138.2851352586
 20
227.1673916257
  0
VERTEX
  8
0
 62
7
  6
CONTINUOUS
 10
138.2841087497
 20
227.1679293191
  0
SEQEND
  0
LINE
  8
DEFAULT_1
 62
2
  6
CENTER
 10
180.4988317759
 20
207.9167191033
 11
180.4988317759
 21
230.7061928388
  0
LINE
  8
0
 62
7
  6
CONTINUOUS
 10
180.6488317759
 20
213.4061927876
 11
180.6488317759
 21
223.0061927876
  0
LINE
  8
0
 62
7
  6
CONTINUOUS
 10
184.1488317759
 20
225.7061927876
 11
184.1488317759
 21
226.6279597545
  0
LINE
  8
0
 62
7
  6
CONTINUOUS
 10
184.4488317759
 20
227.0988917988
 11
184.4488317759
 21
228.1195167348
  0
LINE
  8
0
 62
7
  6
CONTINUOUS
 10
58.278998893
 20
228.6960893776
 11
58.1889145212
 21
228.6941776526
  0
LINE
  8
0
 62
7
  6
CONTINUOUS
 10
58.4264810703
 20
228.6983571441
 11
58.278998893
 21
228.6960893776
  0
LINE
  8
0
 62
7
  6
CONTINUOUS
 10
58.6618398078
 20
228.7006987117
 11
58.4264810703
 21
228.6983571441
  0
LINE
  8
0
 62
7
  6
CONTINUOUS
 10
59.1723678071
 20
228.7031895602
 11
58.6618398078
 21
228.7006987117
  0
LINE
  8
0
 62
7
  6
CONTINUOUS
 10
195.4971262498
 20
228.7055866719
 11
195.1404239528
 21
228.7050588935
  0
LINE
  8
0
 62
7
  6
CONTINUOUS
 10
195.1404239528
 20
228.7050588935
 11
194.4035031642
 21
228.7042664468
  0
LINE
  8
0
 62
7
  6
CONTINUOUS
 10
170.4407259368
 20
228.7060246032
 11
169.0035031642
 21
228.7042664468
  0
LINE
  8
0
 62
7
  6
CONTINUOUS
 10
196.1419978961
 20
228.7061928136
 11
195.4971262498
 21
228.7055866719
  0
LINE
  8
0
 62
7
  6
CONTINUOUS
 10
145.3419978961
 20
228.7061928136
 11
143.7894518588
 21
228.7044018541
  0
LINE
  8
0
 62
7
  6
CONTINUOUS
 10
119.9419978961
 20
228.7061928136
 11
118.3894518588
 21
228.7044018541
  0
LINE
  8
0
 62
7
  6
CONTINUOUS
 10
94.5419978961
 20
228.7061928136
 11
92.9894518588
 21
228.7044018541
  0
LINE
  8
0
 62
7
  6
CONTINUOUS
 10
69.1419978961
 20
228.7061928136
 11
67.5894518588
 21
228.7044018541
  0
LINE
  8
0
 62
7
  6
CONTINUOUS
 10
28.6488317759
 20
225.7061927876
 11
332.3488317759
 21
225.7061927876
  0
LINE
  8
0
 62
7
  6
CONTINUOUS
 10
59.9488690054
 20
228.7041613461
 11
67.5894518588
 21
228.7044018541
  0
LINE
  8
0
 62
7
  6
CONTINUOUS
 10
201.2521194648
 20
228.7061927876
 11
196.1410529571
 21
228.7061927876
  0
LINE
  8
0
 62
7
  6
CONTINUOUS
 10
59.9488690054
 20
228.7041613465
 11
59.1723678071
 21
228.7031895602
  0
LINE
  8
0
 62
7
  6
CONTINUOUS
 10
92.9894518588
 20
228.7044018541
 11
77.8681589114
 21
228.704188054
  0
LINE
  8
0
 62
7
  6
CONTINUOUS
 10
118.3894518588
 20
228.7044018541
 11
103.2681589114
 21
228.704188054
  0
LINE
  8
0
 62
7
  6
CONTINUOUS
 10
143.7894518588
 20
228.7044018541
 11
128.6681589114
 21
228.704188054
  0
LINE
  8
0
 62
7
  6
CONTINUOUS
 10
169.0035031642
 20
228.7042664468
 11
154.0681589114
 21
228.704188054
  0
LINE
  8
0
 62
7
  6
CONTINUOUS
 10
194.4035031642
 20
228.7042664468
 11
179.4681589114
 21
228.704188054
  0
LINE
  8
0
 62
7
  6
CONTINUOUS
 10
170.4407259368
 20
228.7060246032
 11
177.6568766449
 21
228.7061710344
  0
LINE
  8
0
 62
7
  6
CONTINUOUS
 10
154.2488318642
 20
228.7041535027
 11
153.4845401608
 21
228.7046284202
  0
LINE
  8
0
 62
7
  6
CONTINUOUS
 10
78.0488318642
 20
228.7041535027
 11
77.0933022173
 21
228.7048692782
  0
LINE
  8
0
 62
7
  6
CONTINUOUS
 10
69.1410529571
 20
228.7061927876
 11
76.4100417723
 21
228.705847568
  0
LINE
  8
0
 62
7
  6
CONTINUOUS
 10
103.4488318642
 20
228.7041535027
 11
102.4933022172
 21
228.7048692782
  0
LINE
  8
0
 62
7
  6
CONTINUOUS
 10
94.5410529571
 20
228.7061927876
 11
101.8100417723
 21
228.705847568
  0
LINE
  8
0
 62
7
  6
CONTINUOUS
 10
128.8488318642
 20
228.7041535027
 11
127.8933022173
 21
228.7048692782
  0
LINE
  8
0
 62
7
  6
CONTINUOUS
 10
119.9410529571
 20
228.7061927876
 11
127.2100417723
 21
228.705847568
  0
LINE
  8
0
 62
7
  6
CONTINUOUS
 10
145.3410529571
 20
228.7061927876
 11
152.6100417723
 21
228.705847568
  0
LINE
  8
0
 62
7
  6
CONTINUOUS
 10
179.4999124479
 20
228.704172049
 11
178.6933022173
 21
228.7048692782
  0
LINE
  8
0
 62
7
  6
CONTINUOUS
 10
77.3659679292
 20
228.7045316473
 11
76.6356560003
 21
228.7055326611
  0
LINE
  8
0
 62
7
  6
CONTINUOUS
 10
76.8715371534
 20
228.7051804583
 11
76.9925078678
 21
228.7050042064
  0
LINE
  8
0
 62
7
  6
CONTINUOUS
 10
76.7171925586
 20
228.7054155531
 11
76.3524198914
 21
228.7059197592
  0
LINE
  8
0
 62
7
  6
CONTINUOUS
 10
76.4100417723
 20
228.705847568
 11
76.6356560003
 21
228.7055326611
  0
LINE
  8
0
 62
7
  6
CONTINUOUS
 10
102.7659679292
 20
228.7045316473
 11
102.0356560003
 21
228.7055326611
  0
LINE
  8
0
 62
7
  6
CONTINUOUS
 10
102.2715371533
 20
228.7051804583
 11
102.3925078678
 21
228.7050042064
  0
LINE
  8
0
 62
7
  6
CONTINUOUS
 10
102.1171925585
 20
228.7054155531
 11
101.7524198913
 21
228.7059197592
  0
LINE
  8
0
 62
7
  6
CONTINUOUS
 10
128.1659679292
 20
228.7045316473
 11
127.4356560004
 21
228.7055326611
  0
LINE
  8
0
 62
7
  6
CONTINUOUS
 10
127.6715371534
 20
228.7051804583
 11
127.7925078678
 21
228.7050042064
  0
LINE
  8
0
 62
7
  6
CONTINUOUS
 10
127.5171925586
 20
228.7054155531
 11
127.1524198914
 21
228.7059197592
  0
LINE
  8
0
 62
7
  6
CONTINUOUS
 10
153.6934580781
 20
228.7044068993
 11
152.5524198913
 21
228.7059197592
  0
LINE
  8
0
 62
7
  6
CONTINUOUS
 10
178.8399692245
 20
228.7046753061
 11
177.657086818
 21
228.7061708031
  0
LINE
  8
0
 62
7
  6
CONTINUOUS
 10
201.3331410846
 20
228.7060540698
 11
201.2529816045
 21
228.7061927869
  0
LINE
  8
0
 62
7
  6
CONTINUOUS
 10
201.3829115046
 20
228.7057348855
 11
201.3331410846
 21
228.7060540698
  0
LINE
  8
0
 62
7
  6
CONTINUOUS
 10
201.4069335151
 20
228.7054523451
 11
201.3829115046
 21
228.7057348855
  0
LINE
  8
0
 62
7
  6
CONTINUOUS
 10
201.4209758238
 20
228.7052203467
 11
201.4069335151
 21
228.7054523451
  0
LINE
  8
0
 62
7
  6
CONTINUOUS
 10
201.4337305686
 20
228.7049453513
 11
201.4209758238
 21
228.7052203467
  0
LINE
  8
0
 62
7
  6
CONTINUOUS
 10
163.7995180285
 20
227.1210254186
 11
163.7112076734
 21
227.1560238915
  0
LINE
  8
0
 62
7
  6
CONTINUOUS
 10
189.1995180285
 20
227.1210254186
 11
189.1112076734
 21
227.1560238915
  0
POLYLINE
  8
0
 62
7
  6
CONTINUOUS
 66
1
 70
0
  0
VERTEX
  8
0
 62
7
  6
CONTINUOUS
 10
163.7111972127
 20
227.1560280206
  0
VERTEX
  8
0
 62
7
  6
CONTINUOUS
 10
163.7002162434
 20
227.160505
  0
VERTEX
  8
0
 62
7
  6
CONTINUOUS
 10
163.6904132837
 20
227.1648350246
  0
VERTEX
  8
0
 62
7
  6
CONTINUOUS
 10
163.6851352586
 20
227.1673916257
  0
VERTEX
  8
0
 62
7
  6
CONTINUOUS
 10
163.6841087497
 20
227.1679293191
  0
SEQEND
  0
POLYLINE
  8
0
 62
7
  6
CONTINUOUS
 66
1
 70
0
  0
VERTEX
  8
0
 62
7
  6
CONTINUOUS
 10
189.1111972127
 20
227.1560280206
  0
VERTEX
  8
0
 62
7
  6
CONTINUOUS
 10
189.1002162434
 20
227.160505
  0
VERTEX
  8
0
 62
7
  6
CONTINUOUS
 10
189.0904132837
 20
227.1648350246
  0
VERTEX
  8
0
 62
7
  6
CONTINUOUS
 10
189.0851352586
 20
227.1673916257
  0
VERTEX
  8
0
 62
7
  6
CONTINUOUS
 10
189.0841087497
 20
227.1679293191
  0
SEQEND
  0
POLYLINE
  8
0
 62
7
  6
CONTINUOUS
 66
1
 70
0
  0
VERTEX
  8
0
 62
7
  6
CONTINUOUS
 10
189.5488317039
 20
226.6279570234
  0
VERTEX
  8
0
 62
7
  6
CONTINUOUS
 10
189.5478284503
 20
226.6600081671
  0
VERTEX
  8
0
 62
7
  6
CONTINUOUS
 10
189.5428995903
 20
226.705708178
  0
VERTEX
  8
0
 62
7
  6
CONTINUOUS
 10
189.5338888317
 20
226.7508235774
  0
VERTEX
  8
0
 62
7
  6
CONTINUOUS
 10
189.5208720751
 20
226.7949643582
  0
VERTEX
  8
0
 62
7
  6
CONTINUOUS
 10
189.5039740004
 20
226.8377430407
  0
VERTEX
  8
0
 62
7
  6
CONTINUOUS
 10
189.4833689078
 20
226.8787865195
  0
VERTEX
  8
0
 62
7
  6
CONTINUOUS
 10
189.4592729667
 20
226.9177560204
  0
VERTEX
  8
0
 62
7
  6
CONTINUOUS
 10
189.4319374428
 20
226.9543531952
  0
VERTEX
  8
0
 62
7
  6
CONTINUOUS
 10
189.4016510847
 20
226.9883158318
  0
VERTEX
  8
0
 62
7
  6
CONTINUOUS
 10
189.3690801913
 20
227.0191290624
  0
VERTEX
  8
0
 62
7
  6
CONTINUOUS
 10
189.336168007
 20
227.0455940988
  0
VERTEX
  8
0
 62
7
  6
CONTINUOUS
 10
189.3042953201
 20
227.0675944294
  0
VERTEX
  8
0
 62
7
  6
CONTINUOUS
 10
189.2736588525
 20
227.0859166987
  0
VERTEX
  8
0
 62
7
  6
CONTINUOUS
 10
189.2441513544
 20
227.1013130952
  0
VERTEX
  8
0
 62
7
  6
CONTINUOUS
 10
189.2155607187
 20
227.1143935537
  0
VERTEX
  8
0
 62
7
  6
CONTINUOUS
 10
189.1995086567
 20
227.1210291247
  0
SEQEND
  0
LINE
  8
0
 62
7
  6
CONTINUOUS
 10
189.2488317759
 20
228.1195167348
 11
189.2488317759
 21
227.098870949
  0
LINE
  8
0
 62
7
  6
CONTINUOUS
 10
189.5488317759
 20
226.6279597545
 11
189.5488317759
 21
225.7061927876
  0
LINE
  8
0
 62
7
  6
CONTINUOUS
 10
193.0488317759
 20
223.0061927876
 11
193.0488317759
 21
213.4061927876
  0
POLYLINE
  8
0
 62
7
  6
CONTINUOUS
 66
1
 70
0
  0
VERTEX
  8
0
 62
7
  6
CONTINUOUS
 10
57.9384070646
 20
228.6827490208
  0
VERTEX
  8
0
 62
7
  6
CONTINUOUS
 10
57.9265286953
 20
228.6815690792
  0
VERTEX
  8
0
 62
7
  6
CONTINUOUS
 10
57.9146060046
 20
228.6802398276
  0
VERTEX
  8
0
 62
7
  6
CONTINUOUS
 10
57.9023883298
 20
228.678704022
  0
VERTEX
  8
0
 62
7
  6
CONTINUOUS
 10
57.8895935667
 20
228.6768815561
  0
VERTEX
  8
0
 62
7
  6
CONTINUOUS
 10
57.8760374637
 20
228.6746835323
  0
VERTEX
  8
0
 62
7
  6
CONTINUOUS
 10
57.8616125584
 20
228.6720129245
  0
VERTEX
  8
0
 62
7
  6
CONTINUOUS
 10
57.8463029558
 20
228.6687737031
  0
VERTEX
  8
0
 62
7
  6
CONTINUOUS
 10
57.8299269975
 20
228.664815789
  0
VERTEX
  8
0
 62
7
  6
CONTINUOUS
 10
57.8118659365
 20
228.6598240235
  0
VERTEX
  8
0
 62
7
  6
CONTINUOUS
 10
57.7913856721
 20
228.6533227821
  0
VERTEX
  8
0
 62
7
  6
CONTINUOUS
 10
57.7682082637
 20
228.6448223797
  0
VERTEX
  8
0
 62
7
  6
CONTINUOUS
 10
57.7427516317
 20
228.6339916739
  0
VERTEX
  8
0
 62
7
  6
CONTINUOUS
 10
57.7156825447
 20
228.6206186935
  0
VERTEX
  8
0
 62
7
  6
CONTINUOUS
 10
57.6874396715
 20
228.6044236824
  0
VERTEX
  8
0
 62
7
  6
CONTINUOUS
 10
57.6583604549
 20
228.585063331
  0
VERTEX
  8
0
 62
7
  6
CONTINUOUS
 10
57.6288126906
 20
228.5621732503
  0
VERTEX
  8
0
 62
7
  6
CONTINUOUS
 10
57.5991320493
 20
228.5352856065
  0
VERTEX
  8
0
 62
7
  6
CONTINUOUS
 10
57.5698489808
 20
228.5039912761
  0
VERTEX
  8
0
 62
7
  6
CONTINUOUS
 10
57.5420372772
 20
228.4684923736
  0
VERTEX
  8
0
 62
7
  6
CONTINUOUS
 10
57.516837264
 20
228.4294584798
  0
VERTEX
  8
0
 62
7
  6
CONTINUOUS
 10
57.4951239986
 20
228.3877517332
  0
VERTEX
  8
0
 62
7
  6
CONTINUOUS
 10
57.477333724
 20
228.3439630433
  0
VERTEX
  8
0
 62
7
  6
CONTINUOUS
 10
57.4637161435
 20
228.2985621756
  0
VERTEX
  8
0
 62
7
  6
CONTINUOUS
 10
57.4544462407
 20
228.2520500773
  0
VERTEX
  8
0
 62
7
  6
CONTINUOUS
 10
57.449620885
 20
228.2049450261
  0
VERTEX
  8
0
 62
7
  6
CONTINUOUS
 10
57.4488690552
 20
228.1775112412
  0
SEQEND
  0
LINE
  8
0
 62
7
  6
CONTINUOUS
 10
57.9483154859
 20
228.6836295797
 11
57.9384070646
 21
228.6827490208
  0
LINE
  8
0
 62
7
  6
CONTINUOUS
 10
57.9628669501
 20
228.6848101232
 11
57.9483154859
 21
228.6836295797
  0
POLYLINE
  8
0
 62
7
  6
CONTINUOUS
 66
1
 70
0
  0
VERTEX
  8
0
 62
7
  6
CONTINUOUS
 10
58.0193502325
 20
228.6882989422
  0
VERTEX
  8
0
 62
7
  6
CONTINUOUS
 10
58.0039255702
 20
228.6874766784
  0
VERTEX
  8
0
 62
7
  6
CONTINUOUS
 10
57.9894548694
 20
228.6866262388
  0
VERTEX
  8
0
 62
7
  6
CONTINUOUS
 10
57.9758148844
 20
228.6857407532
  0
VERTEX
  8
0
 62
7
  6
CONTINUOUS
 10
57.9628669501
 20
228.6848101232
  0
SEQEND
  0
LINE
  8
0
 62
7
  6
CONTINUOUS
 10
58.0535071159
 20
228.689876355
 11
58.0193502325
 21
228.6882989422
  0
LINE
  8
0
 62
7
  6
CONTINUOUS
 10
58.0927059194
 20
228.6913785042
 11
58.0535071159
 21
228.689876355
  0
LINE
  8
0
 62
7
  6
CONTINUOUS
 10
58.1376285237
 20
228.692812118
 11
58.0927059194
 21
228.6913785042
  0
LINE
  8
0
 62
7
  6
CONTINUOUS
 10
58.1889145212
 20
228.6941776526
 11
58.1376285237
 21
228.692812118
  0
POLYLINE
  8
0
 62
7
  6
CONTINUOUS
 66
1
 70
0
  0
VERTEX
  8
0
 62
7
  6
CONTINUOUS
 10
202.2488316943
 20
226.6080479343
  0
VERTEX
  8
0
 62
7
  6
CONTINUOUS
 10
202.2479081759
 20
226.638805161
  0
VERTEX
  8
0
 62
7
  6
CONTINUOUS
 10
202.2431183879
 20
226.6843718254
  0
VERTEX
  8
0
 62
7
  6
CONTINUOUS
 10
202.2342730231
 20
226.729366711
  0
VERTEX
  8
0
 62
7
  6
CONTINUOUS
 10
202.2214455668
 20
226.773407098
  0
VERTEX
  8
0
 62
7
  6
CONTINUOUS
 10
202.2047563999
 20
226.8161122982
  0
VERTEX
  8
0
 62
7
  6
CONTINUOUS
 10
202.1843739565
 20
226.8571146955
  0
VERTEX
  8
0
 62
7
  6
CONTINUOUS
 10
202.1605089994
 20
226.8960769552
  0
VERTEX
  8
0
 62
7
  6
CONTINUOUS
 10
202.1334146715
 20
226.9326920179
  0
VERTEX
  8
0
 62
7
  6
CONTINUOUS
 10
202.103386715
 20
226.9666883872
  0
VERTEX
  8
0
 62
7
  6
CONTINUOUS
 10
202.0710414201
 20
226.9975944045
  0
VERTEX
  8
0
 62
7
  6
CONTINUOUS
 10
202.0382311497
 20
227.024248907
  0
VERTEX
  8
0
 62
7
  6
CONTINUOUS
 10
202.0063254417
 20
227.0464975337
  0
VERTEX
  8
0
 62
7
  6
CONTINUOUS
 10
201.9755849097
 20
227.0650649969
  0
VERTEX
  8
0
 62
7
  6
CONTINUOUS
 10
201.9488317759
 20
227.0791593087
  0
SEQEND
  0
POLYLINE
  8
0
 62
7
  6
CONTINUOUS
 66
1
 70
0
  0
VERTEX
  8
0
 62
7
  6
CONTINUOUS
 10
201.948831726
 20
228.2033187486
  0
VERTEX
  8
0
 62
7
  6
CONTINUOUS
 10
201.9479564172
 20
228.2328941116
  0
VERTEX
  8
0
 62
7
  6
CONTINUOUS
 10
201.9434260651
 20
228.2766495914
  0
VERTEX
  8
0
 62
7
  6
CONTINUOUS
 10
201.9355128768
 20
228.3179654277
  0
VERTEX
  8
0
 62
7
  6
CONTINUOUS
 10
201.9247041816
 20
228.3567781783
  0
VERTEX
  8
0
 62
7
  6
CONTINUOUS
 10
201.9114283752
 20
228.3930850002
  0
VERTEX
  8
0
 62
7
  6
CONTINUOUS
 10
201.8960549348
 20
228.4269284015
  0
VERTEX
  8
0
 62
7
  6
CONTINUOUS
 10
201.8788970912
 20
228.4583817163
  0
VERTEX
  8
0
 62
7
  6
CONTINUOUS
 10
201.8602459729
 20
228.4874940281
  0
VERTEX
  8
0
 62
7
  6
CONTINUOUS
 10
201.8403963044
 20
228.5142831685
  0
VERTEX
  8
0
 62
7
  6
CONTINUOUS
 10
201.819622457
 20
228.5387898192
  0
VERTEX
  8
0
 62
7
  6
CONTINUOUS
 10
201.7981755935
 20
228.5610769245
  0
VERTEX
  8
0
 62
7
  6
CONTINUOUS
 10
201.7762698576
 20
228.5812371839
  0
VERTEX
  8
0
 62
7
  6
CONTINUOUS
 10
201.7540771421
 20
228.599386911
  0
VERTEX
  8
0
 62
7
  6
CONTINUOUS
 10
201.7317412922
 20
228.6156467418
  0
VERTEX
  8
0
 62
7
  6
CONTINUOUS
 10
201.7093903576
 20
228.6301322312
  0
VERTEX
  8
0
 62
7
  6
CONTINUOUS
 10
201.6871901664
 20
228.6429267999
  0
VERTEX
  8
0
 62
7
  6
CONTINUOUS
 10
201.665312793
 20
228.6541143449
  0
VERTEX
  8
0
 62
7
  6
CONTINUOUS
 10
201.643917452
 20
228.663790906
  0
VERTEX
  8
0
 62
7
  6
CONTINUOUS
 10
201.6231574021
 20
228.6720595045
  0
VERTEX
  8
0
 62
7
  6
CONTINUOUS
 10
201.6031917953
 20
228.6790256284
  0
VERTEX
  8
0
 62
7
  6
CONTINUOUS
 10
201.58417432
 20
228.6848021108
  0
VERTEX
  8
0
 62
7
  6
CONTINUOUS
 10
201.5663906391
 20
228.6894742245
  0
VERTEX
  8
0
 62
7
  6
CONTINUOUS
 10
201.5502728002
 20
228.6931188935
  0
VERTEX
  8
0
 62
7
  6
CONTINUOUS
 10
201.5361012342
 20
228.6958727766
  0
VERTEX
  8
0
 62
7
  6
CONTINUOUS
 10
201.5235374812
 20
228.6979702557
  0
VERTEX
  8
0
 62
7
  6
CONTINUOUS
 10
201.5119931719
 20
228.6996195862
  0
VERTEX
  8
0
 62
7
  6
CONTINUOUS
 10
201.5013616568
 20
228.7009096767
  0
VERTEX
  8
0
 62
7
  6
CONTINUOUS
 10
201.4919030567
 20
228.7018795655
  0
VERTEX
  8
0
 62
7
  6
CONTINUOUS
 10
201.4836164754
 20
228.7025980962
  0
VERTEX
  8
0
 62
7
  6
CONTINUOUS
 10
201.476243435
 20
228.7031407819
  0
VERTEX
  8
0
 62
7
  6
CONTINUOUS
 10
201.4695241225
 20
228.7035623913
  0
VERTEX
  8
0
 62
7
  6
CONTINUOUS
 10
201.4632429665
 20
228.7038997817
  0
VERTEX
  8
0
 62
7
  6
CONTINUOUS
 10
201.4572430364
 20
228.7041768707
  0
VERTEX
  8
0
 62
7
  6
CONTINUOUS
 10
201.4514031092
 20
228.7044098189
  0
VERTEX
  8
0
 62
7
  6
CONTINUOUS
 10
201.4456069089
 20
228.7046104114
  0
VERTEX
  8
0
 62
7
  6
CONTINUOUS
 10
201.4337305686
 20
228.7049453513
  0
SEQEND
  0
LINE
  8
0
 62
7
  6
CONTINUOUS
 10
201.9488317759
 20
225.7061927876
 11
201.9488317759
 21
228.2033188988
  0
LINE
  8
0
 62
7
  6
CONTINUOUS
 10
202.2488317759
 20
226.608050731
 11
202.2488317759
 21
225.7061927876
  0
LINE
  8
0
 62
7
  6
CONTINUOUS
 10
206.0488317759
 20
213.4061927876
 11
206.0488317759
 21
223.0061927876
  0
LINE
  8
0
 62
7
  6
CONTINUOUS
 10
218.4488317759
 20
223.0061927876
 11
218.4488317759
 21
213.4061927876
  0
POLYLINE
  8
0
 62
7
  6
CONTINUOUS
 66
1
 70
0
  0
VERTEX
  8
0
 62
7
  6
CONTINUOUS
 10
332.6488317759
 20
221.4248271763
  0
VERTEX
  8
0
 62
7
  6
CONTINUOUS
 10
332.6654512146
 20
221.4194786131
  0
VERTEX
  8
0
 62
7
  6
CONTINUOUS
 10
332.7281676213
 20
221.3910907385
  0
SEQEND
  0
LINE
  8
0
 62
7
  6
CONTINUOUS
 10
231.4488317759
 20
213.4061927876
 11
231.4488317759
 21
223.0061927876
  0
LINE
  8
0
 62
7
  6
CONTINUOUS
 10
243.8488317759
 20
223.0061927876
 11
243.8488317759
 21
213.4061927876
  0
POLYLINE
  8
0
 62
7
  6
CONTINUOUS
 66
1
 70
0
  0
VERTEX
  8
0
 62
7
  6
CONTINUOUS
 10
332.7281676213
 20
215.0212948366
  0
VERTEX
  8
0
 62
7
  6
CONTINUOUS
 10
332.6654512172
 20
214.992906963
  0
VERTEX
  8
0
 62
7
  6
CONTINUOUS
 10
332.6488317759
 20
214.9875583989
  0
SEQEND
  0
LINE
  8
0
 62
7
  6
CONTINUOUS
 10
256.8488317759
 20
213.4061927876
 11
256.8488317759
 21
223.0061927876
  0
POLYLINE
  8
0
 62
7
  6
CONTINUOUS
 66
1
 70
0
  0
VERTEX
  8
0
 62
7
  6
CONTINUOUS
 10
332.7281676213
 20
221.3910907385
  0
VERTEX
  8
0
 62
7
  6
CONTINUOUS
 10
332.7371263426
 20
221.3856049784
  0
VERTEX
  8
0
 62
7
  6
CONTINUOUS
 10
332.7435991018
 20
221.3797207307
  0
VERTEX
  8
0
 62
7
  6
CONTINUOUS
 10
332.7475152961
 20
221.3734731351
  0
VERTEX
  8
0
 62
7
  6
CONTINUOUS
 10
332.7488317759
 20
221.3668838438
  0
SEQEND
  0
LINE
  8
0
 62
7
  6
CONTINUOUS
 10
269.2488317759
 20
223.0061927876
 11
269.2488317759
 21
213.4061927876
  0
LINE
  8
0
 62
7
  6
CONTINUOUS
 10
282.2488317759
 20
213.4061927876
 11
282.2488317759
 21
223.0061927876
  0
LINE
  8
0
 62
7
  6
CONTINUOUS
 10
294.6488317759
 20
223.0061927876
 11
294.6488317759
 21
213.4061927876
  0
LINE
  8
0
 62
7
  6
CONTINUOUS
 10
307.6488317759
 20
213.4061927876
 11
307.6488317759
 21
223.0061927876
  0
LINE
  8
0
 62
7
  6
CONTINUOUS
 10
320.0488317759
 20
223.0061927876
 11
320.0488317759
 21
213.4061927876
  0
LINE
  8
0
 62
7
  6
CONTINUOUS
 10
332.6488317759
 20
225.4061927876
 11
332.6488317759
 21
211.0061927876
  0
LINE
  8
0
 62
7
  6
CONTINUOUS
 10
332.7488317759
 20
213.4061927876
 11
332.7488317759
 21
223.0061927876
  0
POLYLINE
  8
0
 62
7
  6
CONTINUOUS
 66
1
 70
0
  0
VERTEX
  8
0
 62
7
  6
CONTINUOUS
 10
332.7488317759
 20
215.0455017313
  0
VERTEX
  8
0
 62
7
  6
CONTINUOUS
 10
332.7475152961
 20
215.03891244
  0
VERTEX
  8
0
 62
7
  6
CONTINUOUS
 10
332.7435991018
 20
215.0326648444
  0
VERTEX
  8
0
 62
7
  6
CONTINUOUS
 10
332.7371263426
 20
215.0267805967
  0
VERTEX
  8
0
 62
7
  6
CONTINUOUS
 10
332.7281676213
 20
215.0212948366
  0
SEQEND
  0
POLYLINE
  8
0
 62
7
  6
CONTINUOUS
 66
1
 70
0
  0
VERTEX
  8
0
 62
7
  6
CONTINUOUS
 10
332.6488317759
 20
212.6800829952
  0
VERTEX
  8
0
 62
7
  6
CONTINUOUS
 10
332.6591437808
 20
212.7165780755
  0
VERTEX
  8
0
 62
7
  6
CONTINUOUS
 10
332.6815707989
 20
212.8079878897
  0
VERTEX
  8
0
 62
7
  6
CONTINUOUS
 10
332.7006258926
 20
212.8991227715
  0
VERTEX
  8
0
 62
7
  6
CONTINUOUS
 10
332.7162878352
 20
212.9892009047
  0
VERTEX
  8
0
 62
7
  6
CONTINUOUS
 10
332.7286251193
 20
213.0774559972
  0
VERTEX
  8
0
 62
7
  6
CONTINUOUS
 10
332.7378318156
 20
213.1636144058
  0
VERTEX
  8
0
 62
7
  6
CONTINUOUS
 10
332.7441570373
 20
213.2480862232
  0
VERTEX
  8
0
 62
7
  6
CONTINUOUS
 10
332.7477846752
 20
213.3314021665
  0
VERTEX
  8
0
 62
7
  6
CONTINUOUS
 10
332.7488317755
 20
213.4061927876
  0
SEQEND
  0
ARC
  8
0
 62
7
  6
CONTINUOUS
 10
37.9488317759
 20
79.7129672897
 40
2.7
 50
270.0
 51
360.0
  0
ARC
  8
0
 62
7
  6
CONTINUOUS
 10
56.3488317759
 20
79.7129672897
 40
2.7
 50
180.0
 51
270.0
  0
ARC
  8
0
 62
7
  6
CONTINUOUS
 10
30.9488317759
 20
79.7129672897
 40
2.7
 50
180.0
 51
270.0
  0
ARC
  8
0
 62
7
  6
CONTINUOUS
 10
28.5488317759
 20
84.4063125495
 40
0.3
 50
158.6113771722
 51
180.0
  0
ARC
  8
0
 62
7
  6
CONTINUOUS
 10
53.9488317759
 20
84.4063125495
 40
0.3
 50
158.6113771722
 51
180.0
  0
ARC
  8
0
 62
7
  6
CONTINUOUS
 10
40.3488317759
 20
84.4063125495
 40
0.3
 50
0.0
 51
21.3886228278
  0
ARC
  8
0
 62
7
  6
CONTINUOUS
 10
55.3488317759
 20
91.5454334452
 40
2.1
 50
338.6113771722
 51
359.9998673402
  0
ARC
  8
0
 62
7
  6
CONTINUOUS
 10
38.9488317759
 20
91.5454334452
 40
1.0
 50
180.0
 51
201.3886228278
  0
ARC
  8
0
 62
7
  6
CONTINUOUS
 10
55.3488317759
 20
91.5454334452
 40
1.0
 50
338.6113771722
 51
360.0
  0
ARC
  8
0
 62
7
  6
CONTINUOUS
 10
29.9488317759
 20
91.5454334452
 40
1.0
 50
338.6113771722
 51
360.0
  0
ARC
  8
0
 62
7
  6
CONTINUOUS
 10
58.1488317759
 20
88.6629672897
 40
1.0
 50
180.0
 51
270.0
  0
ARC
  8
0
 62
7
  6
CONTINUOUS
 10
58.1488317759
 20
90.1940436823
 40
1.0
 50
158.6113771722
 51
180.0
  0
ARC
  8
0
 62
7
  6
CONTINUOUS
 10
88.7488317759
 20
79.7129672897
 40
2.7
 50
270.0
 51
360.0
  0
ARC
  8
0
 62
7
  6
CONTINUOUS
 10
63.3488317759
 20
79.7129672897
 40
2.7
 50
270.0
 51
360.0
  0
ARC
  8
0
 62
7
  6
CONTINUOUS
 10
81.7488317759
 20
79.7129672897
 40
2.7
 50
180.0
 51
270.0
  0
ARC
  8
0
 62
7
  6
CONTINUOUS
 10
91.1488317759
 20
84.4063125495
 40
0.3
 50
0.0
 51
21.3886228278
  0
ARC
  8
0
 62
7
  6
CONTINUOUS
 10
79.3488317759
 20
84.4063125495
 40
0.3
 50
158.6113771722
 51
180.0
  0
ARC
  8
0
 62
7
  6
CONTINUOUS
 10
65.7488317759
 20
84.4063125495
 40
0.3
 50
0.0
 51
21.3886228278
  0
ARC
  8
0
 62
7
  6
CONTINUOUS
 10
89.7488317759
 20
91.5454334452
 40
2.1
 50
180.0
 51
201.3886228278
  0
ARC
  8
0
 62
7
  6
CONTINUOUS
 10
80.7488317759
 20
91.5454334452
 40
2.1
 50
338.6113771722
 51
360.0
  0
ARC
  8
0
 62
7
  6
CONTINUOUS
 10
64.3488317759
 20
91.5454334452
 40
2.1
 50
180.0
 51
201.3886228278
  0
ARC
  8
0
 62
7
  6
CONTINUOUS
 10
64.3488317759
 20
91.5454334452
 40
1.0
 50
180.0
 51
201.3886228278
  0
ARC
  8
0
 62
7
  6
CONTINUOUS
 10
80.7488317759
 20
91.5454334452
 40
1.0
 50
338.6113771722
 51
360.0
  0
ARC
  8
0
 62
7
  6
CONTINUOUS
 10
89.7488317759
 20
91.5454334452
 40
1.0
 50
180.0
 51
201.3886228278
  0
ARC
  8
0
 62
7
  6
CONTINUOUS
 10
86.9488317759
 20
88.6629672897
 40
1.0
 50
270.0
 51
360.0
  0
ARC
  8
0
 62
7
  6
CONTINUOUS
 10
83.5488317759
 20
88.6629672897
 40
1.0
 50
180.0
 51
270.0
  0
ARC
  8
0
 62
7
  6
CONTINUOUS
 10
61.5488317759
 20
88.6629672897
 40
1.0
 50
270.0
 51
360.0
  0
ARC
  8
0
 62
7
  6
CONTINUOUS
 10
61.5488317759
 20
90.1940436823
 40
1.0
 50
0.0
 51
21.3886228278
  0
ARC
  8
0
 62
7
  6
CONTINUOUS
 10
83.5488317759
 20
90.1940436823
 40
1.0
 50
158.6113771722
 51
180.0
  0
ARC
  8
0
 62
7
  6
CONTINUOUS
 10
86.9488317759
 20
90.1940436823
 40
1.0
 50
0.0
 51
21.3886228278
  0
ARC
  8
0
 62
7
  6
CONTINUOUS
 10
90.7488317759
 20
105.6129672897
 40
3.1
 50
90.0
 51
180.0
  0
ARC
  8
0
 62
7
  6
CONTINUOUS
 10
79.7488317759
 20
105.6129672897
 40
3.1
 50
0.0
 51
90.0
  0
ARC
  8
0
 62
7
  6
CONTINUOUS
 10
65.3488317759
 20
105.6129672897
 40
3.1
 50
90.0
 51
180.0
  0
ARC
  8
0
 62
7
  6
CONTINUOUS
 10
59.9488690054
 20
107.624867748
 40
2.5
 50
90.0
 51
179.9998673402
  0
ARC
  8
0
 62
7
  6
CONTINUOUS
 10
65.3488317759
 20
105.6129672897
 40
2.0
 50
90.0
 51
180.0
  0
ARC
  8
0
 62
7
  6
CONTINUOUS
 10
79.7488317759
 20
105.6129672897
 40
2.0
 50
0.0
 51
90.0
  0
ARC
  8
0
 62
7
  6
CONTINUOUS
 10
54.3488317759
 20
105.6129672897
 40
2.0
 50
0.0
 51
90.0
  0
ARC
  8
0
 62
7
  6
CONTINUOUS
 10
39.9488317759
 20
105.6129672897
 40
2.0
 50
90.0
 51
180.0
  0
ARC
  8
0
 62
7
  6
CONTINUOUS
 10
90.7488317759
 20
105.6129672897
 40
2.0
 50
90.0
 51
180.0
  0
ARC
  8
0
 62
7
  6
CONTINUOUS
 10
28.6488317759
 20
107.9129672897
 40
0.3
 50
180.0
 51
270.0
  0
ARC
  8
0
 62
7
  6
CONTINUOUS
 10
30.6488317759
 20
107.3129672897
 40
0.3
 50
0.0
 51
90.0
  0
ARC
  8
0
 62
7
  6
CONTINUOUS
 10
114.1488317759
 20
79.7129672897
 40
2.7
 50
270.0
 51
360.0
  0
ARC
  8
0
 62
7
  6
CONTINUOUS
 10
132.5488317759
 20
79.7129672897
 40
2.7
 50
180.0
 51
270.0
  0
ARC
  8
0
 62
7
  6
CONTINUOUS
 10
107.1488317759
 20
79.7129672897
 40
2.7
 50
180.0
 51
270.0
  0
ARC
  8
0
 62
7
  6
CONTINUOUS
 10
104.7488317759
 20
84.4063125495
 40
0.3
 50
158.6113771722
 51
180.0
  0
ARC
  8
0
 62
7
  6
CONTINUOUS
 10
130.1488317759
 20
84.4063125495
 40
0.3
 50
158.6113771722
 51
180.0
  0
ARC
  8
0
 62
7
  6
CONTINUOUS
 10
116.5488317759
 20
84.4063125495
 40
0.3
 50
0.0
 51
21.3886228278
  0
ARC
  8
0
 62
7
  6
CONTINUOUS
 10
131.5488317759
 20
91.5454334452
 40
2.1
 50
338.6113771722
 51
360.0
  0
ARC
  8
0
 62
7
  6
CONTINUOUS
 10
115.1488317759
 20
91.5454334452
 40
2.1
 50
180.0
 51
201.3886228278
  0
ARC
  8
0
 62
7
  6
CONTINUOUS
 10
106.1488317759
 20
91.5454334452
 40
2.1
 50
338.6113771722
 51
360.0
  0
ARC
  8
0
 62
7
  6
CONTINUOUS
 10
115.1488317759
 20
91.5454334452
 40
1.0
 50
180.0
 51
201.3886228278
  0
ARC
  8
0
 62
7
  6
CONTINUOUS
 10
131.5488317759
 20
91.5454334452
 40
1.0
 50
338.6113771722
 51
360.0
  0
ARC
  8
0
 62
7
  6
CONTINUOUS
 10
106.1488317759
 20
91.5454334452
 40
1.0
 50
338.6113771722
 51
360.0
  0
ARC
  8
0
 62
7
  6
CONTINUOUS
 10
134.3488317759
 20
88.6629672897
 40
1.0
 50
180.0
 51
270.0
  0
ARC
  8
0
 62
7
  6
CONTINUOUS
 10
112.3488317759
 20
88.6629672897
 40
1.0
 50
270.0
 51
360.0
  0
ARC
  8
0
 62
7
  6
CONTINUOUS
 10
108.9488317759
 20
88.6629672897
 40
1.0
 50
180.0
 51
270.0
  0
ARC
  8
0
 62
7
  6
CONTINUOUS
 10
108.9488317759
 20
90.1940436823
 40
1.0
 50
158.6113771722
 51
180.0
  0
ARC
  8
0
 62
7
  6
CONTINUOUS
 10
112.3488317759
 20
90.1940436823
 40
1.0
 50
0.0
 51
21.3886228278
  0
ARC
  8
0
 62
7
  6
CONTINUOUS
 10
134.3488317759
 20
90.1940436823
 40
1.0
 50
158.6113771722
 51
180.0
  0
ARC
  8
0
 62
7
  6
CONTINUOUS
 10
157.9488317759
 20
79.7129672897
 40
2.7
 50
180.0
 51
270.0
  0
ARC
  8
0
 62
7
  6
CONTINUOUS
 10
139.5488317759
 20
79.7129672897
 40
2.7
 50
270.0
 51
360.0
  0
ARC
  8
0
 62
7
  6
CONTINUOUS
 10
164.9488317759
 20
79.7129672897
 40
2.7
 50
270.0
 51
360.0
  0
ARC
  8
0
 62
7
  6
CONTINUOUS
 10
155.5488317759
 20
84.4063125495
 40
0.3
 50
158.6113771722
 51
180.0
  0
ARC
  8
0
 62
7
  6
CONTINUOUS
 10
141.9488317759
 20
84.4063125495
 40
0.3
 50
0.0
 51
21.3886228278
  0
ARC
  8
0
 62
7
  6
CONTINUOUS
 10
167.3488317759
 20
84.4063125495
 40
0.3
 50
0.0
 51
21.3886228278
  0
ARC
  8
0
 62
7
  6
CONTINUOUS
 10
165.9488317759
 20
91.5454334452
 40
2.1
 50
180.0
 51
201.3886228278
  0
ARC
  8
0
 62
7
  6
CONTINUOUS
 10
156.9488317759
 20
91.5454334452
 40
2.1
 50
338.6113771722
 51
360.0
  0
ARC
  8
0
 62
7
  6
CONTINUOUS
 10
140.5488317759
 20
91.5454334452
 40
2.1
 50
180.0
 51
201.3886228278
  0
ARC
  8
0
 62
7
  6
CONTINUOUS
 10
156.9488317759
 20
91.5454334452
 40
1.0
 50
338.6113771722
 51
360.0
  0
ARC
  8
0
 62
7
  6
CONTINUOUS
 10
140.5488317759
 20
91.5454334452
 40
1.0
 50
180.0
 51
201.3886228278
  0
ARC
  8
0
 62
7
  6
CONTINUOUS
 10
165.9488317759
 20
91.5454334452
 40
1.0
 50
180.0
 51
201.3886228278
  0
ARC
  8
0
 62
7
  6
CONTINUOUS
 10
159.7488317759
 20
88.6629672897
 40
1.0
 50
180.0
 51
270.0
  0
ARC
  8
0
 62
7
  6
CONTINUOUS
 10
163.1488317759
 20
88.6629672897
 40
1.0
 50
270.0
 51
360.0
  0
ARC
  8
0
 62
7
  6
CONTINUOUS
 10
137.7488317759
 20
88.6629672897
 40
1.0
 50
270.0
 51
360.0
  0
ARC
  8
0
 62
7
  6
CONTINUOUS
 10
137.7488317759
 20
90.1940436823
 40
1.0
 50
0.0
 51
21.3886228278
  0
ARC
  8
0
 62
7
  6
CONTINUOUS
 10
159.7488317759
 20
90.1940436823
 40
1.0
 50
158.6113771722
 51
180.0
  0
ARC
  8
0
 62
7
  6
CONTINUOUS
 10
163.1488317759
 20
90.1940436823
 40
1.0
 50
0.0
 51
21.3886228278
  0
ARC
  8
0
 62
7
  6
CONTINUOUS
 10
166.9488317759
 20
105.6129672897
 40
3.1
 50
90.0
 51
180.0
  0
ARC
  8
0
 62
7
  6
CONTINUOUS
 10
155.9488317759
 20
105.6129672897
 40
3.1
 50
0.0
 51
90.0
  0
ARC
  8
0
 62
7
  6
CONTINUOUS
 10
141.5488317759
 20
105.6129672897
 40
3.1
 50
90.0
 51
180.0
  0
ARC
  8
0
 62
7
  6
CONTINUOUS
 10
130.5488317759
 20
105.6129672897
 40
3.1
 50
0.0
 51
90.0
  0
ARC
  8
0
 62
7
  6
CONTINUOUS
 10
116.1488317759
 20
105.6129672897
 40
3.1
 50
90.0
 51
180.0
  0
ARC
  8
0
 62
7
  6
CONTINUOUS
 10
105.1488317759
 20
105.6129672897
 40
3.1
 50
0.0
 51
90.0
  0
ARC
  8
0
 62
7
  6
CONTINUOUS
 10
130.5488317759
 20
105.6129672897
 40
2.0
 50
0.0
 51
90.0
  0
ARC
  8
0
 62
7
  6
CONTINUOUS
 10
116.1488317759
 20
105.6129672897
 40
2.0
 50
90.0
 51
180.0
  0
ARC
  8
0
 62
7
  6
CONTINUOUS
 10
141.5488317759
 20
105.6129672897
 40
2.0
 50
90.0
 51
180.0
  0
ARC
  8
0
 62
7
  6
CONTINUOUS
 10
155.9488317759
 20
105.6129672897
 40
2.0
 50
0.0
 51
90.0
  0
ARC
  8
0
 62
7
  6
CONTINUOUS
 10
105.1488317759
 20
105.6129672897
 40
2.0
 50
0.0
 51
90.0
  0
ARC
  8
0
 62
7
  6
CONTINUOUS
 10
166.9488317759
 20
105.6129672897
 40
2.0
 50
90.0
 51
180.0
  0
ARC
  8
0
 62
7
  6
CONTINUOUS
 10
67.0488317759
 20
115.0383073235
 40
2.0
 50
270.0
 51
360.0
  0
ARC
  8
0
 62
7
  6
CONTINUOUS
 10
78.0488317759
 20
115.0383073235
 40
2.0
 50
180.0
 51
270.0
  0
ARC
  8
0
 62
7
  6
CONTINUOUS
 10
52.6488317759
 20
115.0383073235
 40
2.0
 50
180.0
 51
270.0
  0
ARC
  8
0
 62
7
  6
CONTINUOUS
 10
41.6488317759
 20
115.0383073235
 40
2.0
 50
270.0
 51
360.0
  0
ARC
  8
0
 62
7
  6
CONTINUOUS
 10
103.4488317759
 20
115.0383073235
 40
2.0
 50
180.0
 51
270.0
  0
ARC
  8
0
 62
7
  6
CONTINUOUS
 10
92.4488317759
 20
115.0383073235
 40
2.0
 50
270.0
 51
360.0
  0
ARC
  8
0
 62
7
  6
CONTINUOUS
 10
28.6488317759
 20
112.7383073235
 40
0.3
 50
90.0
 51
180.0000000073
  0
ARC
  8
0
 62
7
  6
CONTINUOUS
 10
68.0488317759
 20
129.2809766096
 40
2.1
 50
0.0
 51
21.39
  0
ARC
  8
0
 62
7
  6
CONTINUOUS
 10
68.0488317759
 20
129.2809766096
 40
1.0
 50
0.0
 51
21.39
  0
ARC
  8
0
 62
7
  6
CONTINUOUS
 10
51.6488317759
 20
129.2809766096
 40
1.0
 50
158.61
 51
180.0
  0
ARC
  8
0
 62
7
  6
CONTINUOUS
 10
42.6488317759
 20
129.2809766096
 40
1.0
 50
0.0
 51
21.39
  0
ARC
  8
0
 62
7
  6
CONTINUOUS
 10
70.8488317759
 20
132.1629672897
 40
1.0
 50
90.0
 51
180.0
  0
ARC
  8
0
 62
7
  6
CONTINUOUS
 10
70.8488317759
 20
130.6323507438
 40
1.0
 50
180.0
 51
201.39
  0
ARC
  8
0
 62
7
  6
CONTINUOUS
 10
69.0488317759
 20
141.1129672897
 40
2.7
 50
90.0
 51
180.0
  0
ARC
  8
0
 62
7
  6
CONTINUOUS
 10
50.6488317759
 20
141.1129672897
 40
2.7
 50
0.0
 51
90.0
  0
ARC
  8
0
 62
7
  6
CONTINUOUS
 10
43.6488317759
 20
141.1129672897
 40
2.7
 50
90.0
 51
180.0
  0
ARC
  8
0
 62
7
  6
CONTINUOUS
 10
41.2488317759
 20
136.419625764
 40
0.3
 50
180.0
 51
201.39
  0
ARC
  8
0
 62
7
  6
CONTINUOUS
 10
53.0488317759
 20
136.419625764
 40
0.3
 50
338.61
 51
360.0
  0
ARC
  8
0
 62
7
  6
CONTINUOUS
 10
66.6488317759
 20
136.419625764
 40
0.3
 50
180.0
 51
201.39
  0
ARC
  8
0
 62
7
  6
CONTINUOUS
 10
77.0488317759
 20
129.2809766096
 40
2.1
 50
158.61
 51
180.0
  0
ARC
  8
0
 62
7
  6
CONTINUOUS
 10
93.4488317759
 20
129.2809766096
 40
2.1
 50
0.0
 51
21.39
  0
ARC
  8
0
 62
7
  6
CONTINUOUS
 10
102.4488317759
 20
129.2809766096
 40
2.1
 50
158.61
 51
180.0
  0
ARC
  8
0
 62
7
  6
CONTINUOUS
 10
77.0488317759
 20
129.2809766096
 40
1.0
 50
158.61
 51
180.0
  0
ARC
  8
0
 62
7
  6
CONTINUOUS
 10
93.4488317759
 20
129.2809766096
 40
1.0
 50
0.0
 51
21.39
  0
ARC
  8
0
 62
7
  6
CONTINUOUS
 10
102.4488317759
 20
129.2809766096
 40
1.0
 50
158.61
 51
180.0
  0
ARC
  8
0
 62
7
  6
CONTINUOUS
 10
96.2488317759
 20
132.1629672897
 40
1.0
 50
90.0
 51
180.0
  0
ARC
  8
0
 62
7
  6
CONTINUOUS
 10
99.6488317759
 20
132.1629672897
 40
1.0
 50
0.0
 51
90.0
  0
ARC
  8
0
 62
7
  6
CONTINUOUS
 10
74.2488317759
 20
132.1629672897
 40
1.0
 50
0.0
 51
90.0
  0
ARC
  8
0
 62
7
  6
CONTINUOUS
 10
99.6488317759
 20
130.6323507438
 40
1.0
 50
338.61
 51
360.0
  0
ARC
  8
0
 62
7
  6
CONTINUOUS
 10
96.2488317759
 20
130.6323507438
 40
1.0
 50
180.0
 51
201.39
  0
ARC
  8
0
 62
7
  6
CONTINUOUS
 10
74.2488317759
 20
130.6323507438
 40
1.0
 50
338.61
 51
360.0
  0
ARC
  8
0
 62
7
  6
CONTINUOUS
 10
76.0488317759
 20
141.1129672897
 40
2.7
 50
0.0
 51
90.0
  0
ARC
  8
0
 62
7
  6
CONTINUOUS
 10
94.4488317759
 20
141.1129672897
 40
2.7
 50
90.0
 51
180.0
  0
ARC
  8
0
 62
7
  6
CONTINUOUS
 10
101.4488317759
 20
141.1129672897
 40
2.7
 50
0.0
 51
90.0
  0
ARC
  8
0
 62
7
  6
CONTINUOUS
 10
103.8488317759
 20
136.419625764
 40
0.3
 50
338.61
 51
360.0
  0
ARC
  8
0
 62
7
  6
CONTINUOUS
 10
92.0488317759
 20
136.419625764
 40
0.3
 50
180.0
 51
201.39
  0
ARC
  8
0
 62
7
  6
CONTINUOUS
 10
78.4488317759
 20
136.419625764
 40
0.3
 50
338.61
 51
360.0
  0
ARC
  8
0
 62
7
  6
CONTINUOUS
 10
168.6488317759
 20
115.0383073235
 40
2.0
 50
270.0
 51
360.0
  0
ARC
  8
0
 62
7
  6
CONTINUOUS
 10
179.6488317759
 20
115.0383073235
 40
2.0
 50
180.0
 51
270.0
  0
ARC
  8
0
 62
7
  6
CONTINUOUS
 10
154.2488317759
 20
115.0383073235
 40
2.0
 50
180.0
 51
270.0
  0
ARC
  8
0
 62
7
  6
CONTINUOUS
 10
143.2488317759
 20
115.0383073235
 40
2.0
 50
270.0
 51
360.0
  0
ARC
  8
0
 62
7
  6
CONTINUOUS
 10
117.8488317759
 20
115.0383073235
 40
2.0
 50
270.0
 51
360.0
  0
ARC
  8
0
 62
7
  6
CONTINUOUS
 10
128.8488317759
 20
115.0383073235
 40
2.0
 50
180.0
 51
270.0
  0
ARC
  8
0
 62
7
  6
CONTINUOUS
 10
118.8488317759
 20
129.2809766096
 40
2.1
 50
0.0
 51
21.39
  0
ARC
  8
0
 62
7
  6
CONTINUOUS
 10
127.8488317759
 20
129.2809766096
 40
2.1
 50
158.61
 51
180.0
  0
ARC
  8
0
 62
7
  6
CONTINUOUS
 10
144.2488317759
 20
129.2809766096
 40
2.1
 50
0.0
 51
21.39
  0
ARC
  8
0
 62
7
  6
CONTINUOUS
 10
144.2488317759
 20
129.2809766096
 40
1.0
 50
0.0
 51
21.39
  0
ARC
  8
0
 62
7
  6
CONTINUOUS
 10
127.8488317759
 20
129.2809766096
 40
1.0
 50
158.61
 51
180.0
  0
ARC
  8
0
 62
7
  6
CONTINUOUS
 10
118.8488317759
 20
129.2809766096
 40
1.0
 50
0.0
 51
21.39
  0
ARC
  8
0
 62
7
  6
CONTINUOUS
 10
121.6488317759
 20
132.1629672897
 40
1.0
 50
90.0
 51
180.0
  0
ARC
  8
0
 62
7
  6
CONTINUOUS
 10
125.0488317759
 20
132.1629672897
 40
1.0
 50
0.0
 51
90.0
  0
ARC
  8
0
 62
7
  6
CONTINUOUS
 10
147.0488317759
 20
132.1629672897
 40
1.0
 50
90.0
 51
180.0
  0
ARC
  8
0
 62
7
  6
CONTINUOUS
 10
147.0488317759
 20
130.6323507438
 40
1.0
 50
180.0
 51
201.39
  0
ARC
  8
0
 62
7
  6
CONTINUOUS
 10
125.0488317759
 20
130.6323507438
 40
1.0
 50
338.61
 51
360.0
  0
ARC
  8
0
 62
7
  6
CONTINUOUS
 10
121.6488317759
 20
130.6323507438
 40
1.0
 50
180.0
 51
201.39
  0
ARC
  8
0
 62
7
  6
CONTINUOUS
 10
145.2488317759
 20
141.1129672897
 40
2.7
 50
90.0
 51
180.0
  0
ARC
  8
0
 62
7
  6
CONTINUOUS
 10
126.8488317759
 20
141.1129672897
 40
2.7
 50
0.0
 51
90.0
  0
ARC
  8
0
 62
7
  6
CONTINUOUS
 10
119.8488317759
 20
141.1129672897
 40
2.7
 50
90.0
 51
180.0
  0
ARC
  8
0
 62
7
  6
CONTINUOUS
 10
117.4488317759
 20
136.419625764
 40
0.3
 50
180.0
 51
201.39
  0
ARC
  8
0
 62
7
  6
CONTINUOUS
 10
129.2488317759
 20
136.419625764
 40
0.3
 50
338.61
 51
360.0
  0
ARC
  8
0
 62
7
  6
CONTINUOUS
 10
142.8488317759
 20
136.419625764
 40
0.3
 50
180.0
 51
201.39
  0
ARC
  8
0
 62
7
  6
CONTINUOUS
 10
153.2488317759
 20
129.2809766096
 40
2.1
 50
158.61
 51
180.0
  0
ARC
  8
0
 62
7
  6
CONTINUOUS
 10
169.6488317759
 20
129.2809766096
 40
2.1
 50
0.0
 51
21.39
  0
ARC
  8
0
 62
7
  6
CONTINUOUS
 10
178.6488317759
 20
129.2809766096
 40
2.1
 50
158.61
 51
180.0
  0
ARC
  8
0
 62
7
  6
CONTINUOUS
 10
153.2488317759
 20
129.2809766096
 40
1.0
 50
158.61
 51
180.0
  0
ARC
  8
0
 62
7
  6
CONTINUOUS
 10
169.6488317759
 20
129.2809766096
 40
1.0
 50
0.0
 51
21.39
  0
ARC
  8
0
 62
7
  6
CONTINUOUS
 10
178.6488317759
 20
129.2809766096
 40
1.0
 50
158.61
 51
180.0
  0
ARC
  8
0
 62
7
  6
CONTINUOUS
 10
150.4488317759
 20
132.1629672897
 40
1.0
 50
0.0
 51
90.0
  0
ARC
  8
0
 62
7
  6
CONTINUOUS
 10
172.4488317759
 20
132.1629672897
 40
1.0
 50
90.0
 51
180.0
  0
ARC
  8
0
 62
7
  6
CONTINUOUS
 10
175.8488317759
 20
132.1629672897
 40
1.0
 50
0.0
 51
90.0
  0
ARC
  8
0
 62
7
  6
CONTINUOUS
 10
175.8488317759
 20
130.6323507438
 40
1.0
 50
338.61
 51
360.0
  0
ARC
  8
0
 62
7
  6
CONTINUOUS
 10
172.4488317759
 20
130.6323507438
 40
1.0
 50
180.0
 51
201.39
  0
ARC
  8
0
 62
7
  6
CONTINUOUS
 10
150.4488317759
 20
130.6323507438
 40
1.0
 50
338.61
 51
360.0
  0
ARC
  8
0
 62
7
  6
CONTINUOUS
 10
152.2488317759
 20
141.1129672897
 40
2.7
 50
0.0
 51
90.0
  0
ARC
  8
0
 62
7
  6
CONTINUOUS
 10
170.6488317759
 20
141.1129672897
 40
2.7
 50
90.0
 51
180.0
  0
ARC
  8
0
 62
7
  6
CONTINUOUS
 10
177.6488317759
 20
141.1129672897
 40
2.7
 50
0.0
 51
90.0
  0
ARC
  8
0
 62
7
  6
CONTINUOUS
 10
154.6488317759
 20
136.419625764
 40
0.3
 50
338.61
 51
360.0
  0
ARC
  8
0
 62
7
  6
CONTINUOUS
 10
168.2488317759
 20
136.419625764
 40
0.3
 50
180.0
 51
201.39
  0
ARC
  8
0
 62
7
  6
CONTINUOUS
 10
180.0488317759
 20
136.419625764
 40
0.3
 50
338.61
 51
360.0
  0
ARC
  8
0
 62
7
  6
CONTINUOUS
 10
183.3488317759
 20
79.7129672897
 40
2.7
 50
180.0
 51
270.0
  0
ARC
  8
0
 62
7
  6
CONTINUOUS
 10
208.7488317759
 20
79.7129672897
 40
2.7
 50
180.0
 51
270.0
  0
ARC
  8
0
 62
7
  6
CONTINUOUS
 10
190.3488317759
 20
79.7129672897
 40
2.7
 50
270.0
 51
360.0
  0
ARC
  8
0
 62
7
  6
CONTINUOUS
 10
241.1488317759
 20
79.7129672897
 40
2.7
 50
270.0
 51
360.0
  0
ARC
  8
0
 62
7
  6
CONTINUOUS
 10
215.7488317759
 20
79.7129672897
 40
2.7
 50
270.0
 51
360.0
  0
ARC
  8
0
 62
7
  6
CONTINUOUS
 10
234.1488317759
 20
79.7129672897
 40
2.7
 50
180.0
 51
270.0
  0
ARC
  8
0
 62
7
  6
CONTINUOUS
 10
191.3488317759
 20
91.5454334452
 40
2.1
 50
180.0
 51
201.3886228278
  0
ARC
  8
0
 62
7
  6
CONTINUOUS
 10
182.3488317759
 20
91.5454334452
 40
2.1
 50
338.6113771722
 51
360.0
  0
ARC
  8
0
 62
7
  6
CONTINUOUS
 10
182.3488317759
 20
91.5454334452
 40
1.0
 50
338.6113771722
 51
360.0
  0
ARC
  8
0
 62
7
  6
CONTINUOUS
 10
185.1488317759
 20
88.6629672897
 40
1.0
 50
180.0
 51
270.0
  0
ARC
  8
0
 62
7
  6
CONTINUOUS
 10
188.5488317759
 20
88.6629672897
 40
1.0
 50
270.0
 51
360.0
  0
ARC
  8
0
 62
7
  6
CONTINUOUS
 10
207.7488317759
 20
91.5454334452
 40
1.0
 50
338.6113771722
 51
360.0
  0
ARC
  8
0
 62
7
  6
CONTINUOUS
 10
191.3488317759
 20
91.5454334452
 40
1.0
 50
180.0
 51
201.3886228278
  0
ARC
  8
0
 62
7
  6
CONTINUOUS
 10
185.1488317759
 20
90.1940436823
 40
1.0
 50
158.6113771722
 51
180.0
  0
ARC
  8
0
 62
7
  6
CONTINUOUS
 10
188.5488317759
 20
90.1940436823
 40
1.0
 50
0.0
 51
21.3886228278
  0
ARC
  8
0
 62
7
  6
CONTINUOUS
 10
242.1488317759
 20
91.5454334452
 40
1.0
 50
180.0
 51
201.3886228278
  0
ARC
  8
0
 62
7
  6
CONTINUOUS
 10
216.7488317759
 20
91.5454334452
 40
1.0
 50
180.0
 51
201.3886228278
  0
ARC
  8
0
 62
7
  6
CONTINUOUS
 10
233.1488317759
 20
91.5454334452
 40
1.0
 50
338.6113771722
 51
360.0
  0
ARC
  8
0
 62
7
  6
CONTINUOUS
 10
180.9488317759
 20
84.4063125495
 40
0.3
 50
158.6113771722
 51
180.0
  0
ARC
  8
0
 62
7
  6
CONTINUOUS
 10
206.3488317759
 20
84.4063125495
 40
0.3
 50
158.6113771722
 51
180.0
  0
ARC
  8
0
 62
7
  6
CONTINUOUS
 10
192.7488317759
 20
84.4063125495
 40
0.3
 50
0.0
 51
21.3886228278
  0
ARC
  8
0
 62
7
  6
CONTINUOUS
 10
243.5488317759
 20
84.4063125495
 40
0.3
 50
0.0
 51
21.3886228278
  0
ARC
  8
0
 62
7
  6
CONTINUOUS
 10
218.1488317759
 20
84.4063125495
 40
0.3
 50
0.0
 51
21.3886228278
  0
ARC
  8
0
 62
7
  6
CONTINUOUS
 10
231.7488317759
 20
84.4063125495
 40
0.3
 50
158.6113771722
 51
180.0
  0
ARC
  8
0
 62
7
  6
CONTINUOUS
 10
192.3488317759
 20
105.6129672897
 40
3.1
 50
90.0
 51
180.0
  0
ARC
  8
0
 62
7
  6
CONTINUOUS
 10
181.3488317759
 20
105.6129672897
 40
3.1
 50
0.0
 51
90.0
  0
ARC
  8
0
 62
7
  6
CONTINUOUS
 10
181.3488317759
 20
105.6129672897
 40
2.0
 50
0.0
 51
90.0
  0
ARC
  8
0
 62
7
  6
CONTINUOUS
 10
192.3488317759
 20
105.6129672897
 40
2.0
 50
90.0
 51
180.0
  0
ARC
  8
0
 62
7
  6
CONTINUOUS
 10
206.7488317759
 20
105.6129672897
 40
2.0
 50
0.0
 51
90.0
  0
ARC
  8
0
 62
7
  6
CONTINUOUS
 10
243.1488317759
 20
105.6129672897
 40
2.0
 50
90.0
 51
180.0
  0
ARC
  8
0
 62
7
  6
CONTINUOUS
 10
232.1488317759
 20
105.6129672897
 40
2.0
 50
0.0
 51
90.0
  0
ARC
  8
0
 62
7
  6
CONTINUOUS
 10
217.7488317759
 20
105.6129672897
 40
2.0
 50
90.0
 51
180.0
  0
ARC
  8
0
 62
7
  6
CONTINUOUS
 10
310.3488317759
 20
79.7129672897
 40
2.7
 50
180.0
 51
270.0
  0
ARC
  8
0
 62
7
  6
CONTINUOUS
 10
284.9488317759
 20
79.7129672897
 40
2.7
 50
180.0
 51
270.0
  0
ARC
  8
0
 62
7
  6
CONTINUOUS
 10
259.5488317759
 20
79.7129672897
 40
2.7
 50
180.0
 51
270.0
  0
ARC
  8
0
 62
7
  6
CONTINUOUS
 10
317.3488317759
 20
79.7129672897
 40
2.7
 50
270.0
 51
360.0
  0
ARC
  8
0
 62
7
  6
CONTINUOUS
 10
266.5488317759
 20
79.7129672897
 40
2.7
 50
270.0
 51
360.0
  0
ARC
  8
0
 62
7
  6
CONTINUOUS
 10
291.9488317759
 20
79.7129672897
 40
2.7
 50
270.0
 51
360.0
  0
ARC
  8
0
 62
7
  6
CONTINUOUS
 10
258.5488317759
 20
91.5454334452
 40
1.0
 50
338.6113771722
 51
360.0
  0
ARC
  8
0
 62
7
  6
CONTINUOUS
 10
318.3488317759
 20
91.5454334452
 40
1.0
 50
180.0
 51
201.3886228278
  0
ARC
  8
0
 62
7
  6
CONTINUOUS
 10
283.9488317759
 20
91.5454334452
 40
1.0
 50
338.6113771722
 51
360.0
  0
ARC
  8
0
 62
7
  6
CONTINUOUS
 10
267.5488317759
 20
91.5454334452
 40
1.0
 50
180.0
 51
201.3886228278
  0
ARC
  8
0
 62
7
  6
CONTINUOUS
 10
292.9488317759
 20
91.5454334452
 40
1.0
 50
180.0
 51
201.3886228278
  0
ARC
  8
0
 62
7
  6
CONTINUOUS
 10
309.3488317759
 20
91.5454334452
 40
1.0
 50
338.6113771722
 51
360.0
  0
ARC
  8
0
 62
7
  6
CONTINUOUS
 10
257.1488317759
 20
84.4063125495
 40
0.3
 50
158.6113771722
 51
180.0
  0
ARC
  8
0
 62
7
  6
CONTINUOUS
 10
319.7488317759
 20
84.4063125495
 40
0.3
 50
0.0
 51
21.3886228278
  0
ARC
  8
0
 62
7
  6
CONTINUOUS
 10
282.5488317759
 20
84.4063125495
 40
0.3
 50
158.6113771722
 51
180.0
  0
ARC
  8
0
 62
7
  6
CONTINUOUS
 10
268.9488317759
 20
84.4063125495
 40
0.3
 50
0.0
 51
21.3886228278
  0
ARC
  8
0
 62
7
  6
CONTINUOUS
 10
294.3488317759
 20
84.4063125495
 40
0.3
 50
0.0
 51
21.3886228278
  0
ARC
  8
0
 62
7
  6
CONTINUOUS
 10
307.9488317759
 20
84.4063125495
 40
0.3
 50
158.6113771722
 51
180.0
  0
ARC
  8
0
 62
7
  6
CONTINUOUS
 10
257.5488317759
 20
105.6129672897
 40
2.0
 50
0.0
 51
90.0
  0
ARC
  8
0
 62
7
  6
CONTINUOUS
 10
319.3488317759
 20
105.6129672897
 40
2.0
 50
90.0
 51
180.0
  0
ARC
  8
0
 62
7
  6
CONTINUOUS
 10
268.5488317759
 20
105.6129672897
 40
2.0
 50
90.0
 51
180.0
  0
ARC
  8
0
 62
7
  6
CONTINUOUS
 10
282.9488317759
 20
105.6129672897
 40
2.0
 50
0.0
 51
90.0
  0
ARC
  8
0
 62
7
  6
CONTINUOUS
 10
308.3488317759
 20
105.6129672897
 40
2.0
 50
0.0
 51
90.0
  0
ARC
  8
0
 62
7
  6
CONTINUOUS
 10
293.9488317759
 20
105.6129672897
 40
2.0
 50
90.0
 51
180.0
  0
ARC
  8
0
 62
7
  6
CONTINUOUS
 10
332.3488317759
 20
107.9129672897
 40
0.3
 50
270.0
 51
360.0
  0
ARC
  8
0
 62
7
  6
CONTINUOUS
 10
199.4488317759
 20
111.2129672897
 40
2.5
 50
270.0
 51
360.0
  0
ARC
  8
0
 62
7
  6
CONTINUOUS
 10
230.4488317759
 20
115.0383073235
 40
2.0
 50
180.0
 51
270.0
  0
ARC
  8
0
 62
7
  6
CONTINUOUS
 10
219.4488317759
 20
115.0383073235
 40
2.0
 50
270.0
 51
360.0
  0
ARC
  8
0
 62
7
  6
CONTINUOUS
 10
255.8488317759
 20
115.0383073235
 40
2.0
 50
180.0
 51
270.0
  0
ARC
  8
0
 62
7
  6
CONTINUOUS
 10
194.0488317759
 20
115.0383073235
 40
2.0
 50
270.0
 51
360.0
  0
ARC
  8
0
 62
7
  6
CONTINUOUS
 10
205.0488317759
 20
115.0383073235
 40
2.0
 50
180.0
 51
270.0
  0
ARC
  8
0
 62
7
  6
CONTINUOUS
 10
244.8488317759
 20
115.0383073235
 40
2.0
 50
270.0
 51
360.0
  0
ARC
  8
0
 62
7
  6
CONTINUOUS
 10
196.0488317759
 20
141.1129672897
 40
2.7
 50
90.0
 51
180.0
  0
ARC
  8
0
 62
7
  6
CONTINUOUS
 10
203.0488317759
 20
141.1129672897
 40
2.7
 50
0.0
 51
90.0
  0
ARC
  8
0
 62
7
  6
CONTINUOUS
 10
221.4488317759
 20
141.1129672897
 40
2.7
 50
90.0
 51
180.0
  0
ARC
  8
0
 62
7
  6
CONTINUOUS
 10
228.4488317759
 20
141.1129672897
 40
2.7
 50
0.0
 51
90.0
  0
ARC
  8
0
 62
7
  6
CONTINUOUS
 10
253.8488317759
 20
141.1129672897
 40
2.7
 50
0.0
 51
90.0
  0
ARC
  8
0
 62
7
  6
CONTINUOUS
 10
246.8488317759
 20
141.1129672897
 40
2.7
 50
90.0
 51
180.0
  0
ARC
  8
0
 62
7
  6
CONTINUOUS
 10
195.0488317759
 20
129.2809766096
 40
2.1
 50
0.0
 51
21.39
  0
ARC
  8
0
 62
7
  6
CONTINUOUS
 10
204.0488317759
 20
129.2809766096
 40
2.1
 50
158.61
 51
180.0
  0
ARC
  8
0
 62
7
  6
CONTINUOUS
 10
195.0488317759
 20
129.2809766096
 40
1.0
 50
0.0
 51
21.39
  0
ARC
  8
0
 62
7
  6
CONTINUOUS
 10
204.0488317759
 20
129.2809766096
 40
1.0
 50
158.61
 51
180.0
  0
ARC
  8
0
 62
7
  6
CONTINUOUS
 10
197.8488317759
 20
132.1629672897
 40
1.0
 50
90.0
 51
180.0
  0
ARC
  8
0
 62
7
  6
CONTINUOUS
 10
201.2488317759
 20
132.1629672897
 40
1.0
 50
0.0
 51
90.0
  0
ARC
  8
0
 62
7
  6
CONTINUOUS
 10
245.8488317759
 20
129.2809766096
 40
1.0
 50
0.0
 51
21.39
  0
ARC
  8
0
 62
7
  6
CONTINUOUS
 10
201.2488317759
 20
130.6323507438
 40
1.0
 50
338.61
 51
360.0
  0
ARC
  8
0
 62
7
  6
CONTINUOUS
 10
197.8488317759
 20
130.6323507438
 40
1.0
 50
180.0
 51
201.39
  0
ARC
  8
0
 62
7
  6
CONTINUOUS
 10
229.4488317759
 20
129.2809766096
 40
1.0
 50
158.61
 51
180.0
  0
ARC
  8
0
 62
7
  6
CONTINUOUS
 10
254.8488317759
 20
129.2809766096
 40
1.0
 50
158.61
 51
180.0
  0
ARC
  8
0
 62
7
  6
CONTINUOUS
 10
220.4488317759
 20
129.2809766096
 40
1.0
 50
0.0
 51
21.39
  0
ARC
  8
0
 62
7
  6
CONTINUOUS
 10
193.6488317759
 20
136.419625764
 40
0.3
 50
180.0
 51
201.39
  0
ARC
  8
0
 62
7
  6
CONTINUOUS
 10
205.4488317759
 20
136.419625764
 40
0.3
 50
338.61
 51
360.0
  0
ARC
  8
0
 62
7
  6
CONTINUOUS
 10
244.4488317759
 20
136.419625764
 40
0.3
 50
180.0
 51
201.39
  0
ARC
  8
0
 62
7
  6
CONTINUOUS
 10
230.8488317759
 20
136.419625764
 40
0.3
 50
338.61
 51
360.0
  0
ARC
  8
0
 62
7
  6
CONTINUOUS
 10
256.2488317759
 20
136.419625764
 40
0.3
 50
338.61
 51
360.0
  0
ARC
  8
0
 62
7
  6
CONTINUOUS
 10
219.0488317759
 20
136.419625764
 40
0.3
 50
180.0
 51
201.39
  0
ARC
  8
0
 62
7
  6
CONTINUOUS
 10
321.0488317759
 20
115.0383073235
 40
2.0
 50
270.0
 51
360.0
  0
ARC
  8
0
 62
7
  6
CONTINUOUS
 10
306.6488317759
 20
115.0383073235
 40
2.0
 50
180.0
 51
270.0
  0
ARC
  8
0
 62
7
  6
CONTINUOUS
 10
295.6488317759
 20
115.0383073235
 40
2.0
 50
270.0
 51
360.0
  0
ARC
  8
0
 62
7
  6
CONTINUOUS
 10
281.2488317759
 20
115.0383073235
 40
2.0
 50
180.0
 51
270.0
  0
ARC
  8
0
 62
7
  6
CONTINUOUS
 10
270.2488317759
 20
115.0383073235
 40
2.0
 50
270.0
 51
360.0
  0
ARC
  8
0
 62
7
  6
CONTINUOUS
 10
330.3488317759
 20
113.3383073235
 40
0.3
 50
180.0000000001
 51
270.0
  0
ARC
  8
0
 62
7
  6
CONTINUOUS
 10
332.3488317759
 20
112.7383073235
 40
0.3
 50
0.0
 51
90.0
  0
ARC
  8
0
 62
7
  6
CONTINUOUS
 10
272.2488317759
 20
141.1129672897
 40
2.7
 50
90.0
 51
180.0
  0
ARC
  8
0
 62
7
  6
CONTINUOUS
 10
279.2488317759
 20
141.1129672897
 40
2.7
 50
0.0
 51
90.0
  0
ARC
  8
0
 62
7
  6
CONTINUOUS
 10
323.0488317759
 20
141.1129672897
 40
2.7
 50
90.0
 51
180.0
  0
ARC
  8
0
 62
7
  6
CONTINUOUS
 10
330.0488317759
 20
141.1129672897
 40
2.7
 50
0.0
 51
90.0
  0
ARC
  8
0
 62
7
  6
CONTINUOUS
 10
297.6488317759
 20
141.1129672897
 40
2.7
 50
90.0
 51
180.0
  0
ARC
  8
0
 62
7
  6
CONTINUOUS
 10
304.6488317759
 20
141.1129672897
 40
2.7
 50
0.0
 51
90.0
  0
ARC
  8
0
 62
7
  6
CONTINUOUS
 10
322.0488317759
 20
129.2809766096
 40
1.0
 50
0.0
 51
21.39
  0
ARC
  8
0
 62
7
  6
CONTINUOUS
 10
331.0488317759
 20
129.2809766096
 40
1.0
 50
158.61
 51
180.0
  0
ARC
  8
0
 62
7
  6
CONTINUOUS
 10
280.2488317759
 20
129.2809766096
 40
1.0
 50
158.61
 51
180.0
  0
ARC
  8
0
 62
7
  6
CONTINUOUS
 10
271.2488317759
 20
129.2809766096
 40
1.0
 50
0.0
 51
21.39
  0
ARC
  8
0
 62
7
  6
CONTINUOUS
 10
305.6488317759
 20
129.2809766096
 40
1.0
 50
158.61
 51
180.0
  0
ARC
  8
0
 62
7
  6
CONTINUOUS
 10
296.6488317759
 20
129.2809766096
 40
1.0
 50
0.0
 51
21.39
  0
ARC
  8
0
 62
7
  6
CONTINUOUS
 10
320.6488317759
 20
136.419625764
 40
0.3
 50
180.0
 51
201.39
  0
ARC
  8
0
 62
7
  6
CONTINUOUS
 10
332.4488317759
 20
136.419625764
 40
0.3
 50
338.61
 51
360.0
  0
ARC
  8
0
 62
7
  6
CONTINUOUS
 10
281.6488317759
 20
136.419625764
 40
0.3
 50
338.61
 51
360.0
  0
ARC
  8
0
 62
7
  6
CONTINUOUS
 10
269.8488317759
 20
136.419625764
 40
0.3
 50
180.0
 51
201.39
  0
ARC
  8
0
 62
7
  6
CONTINUOUS
 10
307.0488317759
 20
136.419625764
 40
0.3
 50
338.61
 51
360.0
  0
ARC
  8
0
 62
7
  6
CONTINUOUS
 10
295.2488317759
 20
136.419625764
 40
0.3
 50
180.0
 51
201.39
  0
ARC
  8
0
 62
7
  6
CONTINUOUS
 10
248.3399544698
 20
110.3502222897
 40
130.0
 50
350.1348339513
 51
9.9215257614
  0
ARC
  8
0
 62
7
  6
CONTINUOUS
 10
248.3399544698
 20
110.3502222897
 40
129.4999999036
 50
351.65051584
 51
358.794111891
  0
ARC
  8
0
 62
7
  6
CONTINUOUS
 10
367.6899544698
 20
84.3629672897
 40
7.35
 50
180.0
 51
270.0
  0
ARC
  8
0
 62
7
  6
CONTINUOUS
 10
367.9899544698
 20
84.3629672897
 40
7.35
 50
270.0
 51
360.0
  0
CIRCLE
  8
0
 62
7
  6
CONTINUOUS
 10
367.8399544698
 20
85.0502222897
 40
3.137255
  0
ARC
  8
0
 62
7
  6
CONTINUOUS
 10
367.8399544698
 20
97.5383073235
 40
15.5
 50
61.7262863686
 51
118.2737136314
  0
ARC
  8
0
 62
7
  6
CONTINUOUS
 10
360.6399544698
 20
107.9129672897
 40
0.3
 50
180.0
 51
270.0
  0
ARC
  8
0
 62
7
  6
CONTINUOUS
 10
375.9251249199
 20
88.1629673606
 40
0.5
 50
269.9999985521
 51
350.1348256961
  0
ARC
  8
0
 62
7
  6
CONTINUOUS
 10
377.8379230283
 20
109.624867748
 40
0.5
 50
359.6790735814
 51
90.0
  0
ARC
  8
0
 62
7
  6
CONTINUOUS
 10
375.0399544698
 20
107.9129672897
 40
0.3
 50
270.0
 51
360.0
  0
ARC
  8
0
 62
7
  6
CONTINUOUS
 10
367.8399544698
 20
119.4629672897
 40
3.25
 50
180.0
 51
360.0
  0
ARC
  8
0
 62
7
  6
CONTINUOUS
 10
360.6399544698
 20
110.924867748
 40
0.3
 50
118.2737136314
 51
180.0
  0
ARC
  8
0
 62
7
  6
CONTINUOUS
 10
367.6899544698
 20
136.4629672897
 40
7.35
 50
90.0
 51
180.0
  0
ARC
  8
0
 62
7
  6
CONTINUOUS
 10
367.8399544698
 20
135.6629672897
 40
3.25
 50
0.0
 51
180.0
  0
ARC
  8
0
 62
7
  6
CONTINUOUS
 10
367.9899544698
 20
136.4629672897
 40
7.35
 50
0.0
 51
90.0
  0
ARC
  8
0
 62
7
  6
CONTINUOUS
 10
375.0399544698
 20
110.924867748
 40
0.3
 50
0.0
 51
61.7262863686
  0
ARC
  8
0
 62
7
  6
CONTINUOUS
 10
375.9032384265
 20
132.6629672188
 40
0.5
 50
9.9215340204
 51
90.0000014566
  0
ARC
  8
0
 62
7
  6
CONTINUOUS
 10
107.1488317759
 20
213.4061927876
 40
2.7
 50
180.0
 51
270.0
  0
ARC
  8
0
 62
7
  6
CONTINUOUS
 10
88.7488317759
 20
213.4061927876
 40
2.7
 50
270.0
 51
360.0
  0
ARC
  8
0
 62
7
  6
CONTINUOUS
 10
132.5488317759
 20
213.4061927876
 40
2.7
 50
180.0
 51
270.0
  0
ARC
  8
0
 62
7
  6
CONTINUOUS
 10
114.1488317759
 20
213.4061927876
 40
2.7
 50
270.0
 51
360.0
  0
ARC
  8
0
 62
7
  6
CONTINUOUS
 10
30.9488317759
 20
213.4061927876
 40
2.7
 50
180.0
 51
270.0
  0
ARC
  8
0
 62
7
  6
CONTINUOUS
 10
56.3488317759
 20
213.4061927876
 40
2.7
 50
180.0
 51
270.0
  0
ARC
  8
0
 62
7
  6
CONTINUOUS
 10
37.9488317759
 20
213.4061927876
 40
2.7
 50
270.0
 51
360.0
  0
ARC
  8
0
 62
7
  6
CONTINUOUS
 10
81.7488317759
 20
213.4061927876
 40
2.7
 50
180.0
 51
270.0
  0
ARC
  8
0
 62
7
  6
CONTINUOUS
 10
63.3488317759
 20
213.4061927876
 40
2.7
 50
270.0
 51
360.0
  0
ARC
  8
0
 62
7
  6
CONTINUOUS
 10
157.9488317759
 20
213.4061927876
 40
2.7
 50
180.0
 51
270.0
  0
ARC
  8
0
 62
7
  6
CONTINUOUS
 10
139.5488317759
 20
213.4061927876
 40
2.7
 50
270.0
 51
360.0
  0
ARC
  8
0
 62
7
  6
CONTINUOUS
 10
164.9488317759
 20
213.4061927876
 40
2.7
 50
270.0
 51
360.0
  0
ARC
  8
0
 62
7
  6
CONTINUOUS
 10
28.6488317759
 20
211.0061927876
 40
0.3
 50
180.0
 51
270.0
  0
ARC
  8
0
 62
7
  6
CONTINUOUS
 10
30.9488317759
 20
223.0061927876
 40
2.7
 50
90.0
 51
180.0
  0
ARC
  8
0
 62
7
  6
CONTINUOUS
 10
56.3488317759
 20
223.0061927876
 40
2.7
 50
90.0
 51
180.0
  0
ARC
  8
0
 62
7
  6
CONTINUOUS
 10
81.7488317759
 20
223.0061927876
 40
2.7
 50
90.0
 51
180.0
  0
ARC
  8
0
 62
7
  6
CONTINUOUS
 10
63.3488317759
 20
223.0061927876
 40
2.7
 50
0.0
 51
90.0
  0
ARC
  8
0
 62
7
  6
CONTINUOUS
 10
37.9488317759
 20
223.0061927876
 40
2.7
 50
0.0
 51
90.0
  0
ARC
  8
0
 62
7
  6
CONTINUOUS
 10
88.7488317759
 20
223.0061927876
 40
2.7
 50
0.0
 51
90.0
  0
ARC
  8
0
 62
7
  6
CONTINUOUS
 10
28.6488317759
 20
225.4061927876
 40
0.3
 50
90.0
 51
180.0
  0
ARC
  8
0
 62
7
  6
CONTINUOUS
 10
107.1488317759
 20
223.0061927876
 40
2.7
 50
90.0
 51
180.0
  0
ARC
  8
0
 62
7
  6
CONTINUOUS
 10
132.5488317759
 20
223.0061927876
 40
2.7
 50
90.0
 51
180.0
  0
ARC
  8
0
 62
7
  6
CONTINUOUS
 10
157.9488317759
 20
223.0061927876
 40
2.7
 50
90.0
 51
180.0
  0
ARC
  8
0
 62
7
  6
CONTINUOUS
 10
139.5488317759
 20
223.0061927876
 40
2.7
 50
0.0
 51
90.0
  0
ARC
  8
0
 62
7
  6
CONTINUOUS
 10
164.9488317759
 20
223.0061927876
 40
2.7
 50
0.0
 51
90.0
  0
ARC
  8
0
 62
7
  6
CONTINUOUS
 10
114.1488317759
 20
223.0061927876
 40
2.7
 50
0.0
 51
90.0
  0
ARC
  8
0
 62
7
  6
CONTINUOUS
 10
183.3488317759
 20
213.4061927876
 40
2.7
 50
180.0
 51
270.0
  0
ARC
  8
0
 62
7
  6
CONTINUOUS
 10
208.7488317759
 20
213.4061927876
 40
2.7
 50
180.0
 51
270.0
  0
ARC
  8
0
 62
7
  6
CONTINUOUS
 10
190.3488317759
 20
213.4061927876
 40
2.7
 50
270.0
 51
360.0
  0
ARC
  8
0
 62
7
  6
CONTINUOUS
 10
259.5488317759
 20
213.4061927876
 40
2.7
 50
180.0
 51
270.0
  0
ARC
  8
0
 62
7
  6
CONTINUOUS
 10
241.1488317759
 20
213.4061927876
 40
2.7
 50
270.0
 51
360.0
  0
ARC
  8
0
 62
7
  6
CONTINUOUS
 10
284.9488317759
 20
213.4061927876
 40
2.7
 50
180.0
 51
270.0
  0
ARC
  8
0
 62
7
  6
CONTINUOUS
 10
266.5488317759
 20
213.4061927876
 40
2.7
 50
270.0
 51
360.0
  0
ARC
  8
0
 62
7
  6
CONTINUOUS
 10
310.3488317759
 20
213.4061927876
 40
2.7
 50
180.0
 51
270.0
  0
ARC
  8
0
 62
7
  6
CONTINUOUS
 10
215.7488317759
 20
213.4061927876
 40
2.7
 50
270.0
 51
360.0
  0
ARC
  8
0
 62
7
  6
CONTINUOUS
 10
291.9488317759
 20
213.4061927876
 40
2.7
 50
270.0
 51
360.0
  0
ARC
  8
0
 62
7
  6
CONTINUOUS
 10
234.1488317759
 20
213.4061927876
 40
2.7
 50
180.0
 51
270.0
  0
ARC
  8
0
 62
7
  6
CONTINUOUS
 10
330.0488317759
 20
213.4061927876
 40
2.7
 50
344.3647025063
 51
360.0
  0
ARC
  8
0
 62
7
  6
CONTINUOUS
 10
317.3488317759
 20
213.4061927876
 40
2.7
 50
270.0
 51
360.0
  0
ARC
  8
0
 62
7
  6
CONTINUOUS
 10
332.3488317759
 20
211.0061927876
 40
0.3
 50
270.0
 51
360.0
  0
ARC
  8
0
 62
7
  6
CONTINUOUS
 10
183.3488317759
 20
223.0061927876
 40
2.7
 50
90.0
 51
180.0
  0
ARC
  8
0
 62
7
  6
CONTINUOUS
 10
208.7488317759
 20
223.0061927876
 40
2.7
 50
90.0
 51
180.0
  0
ARC
  8
0
 62
7
  6
CONTINUOUS
 10
190.3488317759
 20
223.0061927876
 40
2.7
 50
0.0
 51
90.0
  0
ARC
  8
0
 62
7
  6
CONTINUOUS
 10
259.5488317759
 20
223.0061927876
 40
2.7
 50
90.0
 51
180.0
  0
ARC
  8
0
 62
7
  6
CONTINUOUS
 10
241.1488317759
 20
223.0061927876
 40
2.7
 50
0.0
 51
90.0
  0
ARC
  8
0
 62
7
  6
CONTINUOUS
 10
284.9488317759
 20
223.0061927876
 40
2.7
 50
90.0
 51
180.0
  0
ARC
  8
0
 62
7
  6
CONTINUOUS
 10
266.5488317759
 20
223.0061927876
 40
2.7
 50
0.0
 51
90.0
  0
ARC
  8
0
 62
7
  6
CONTINUOUS
 10
310.3488317759
 20
223.0061927876
 40
2.7
 50
90.0
 51
180.0
  0
ARC
  8
0
 62
7
  6
CONTINUOUS
 10
215.7488317759
 20
223.0061927876
 40
2.7
 50
0.0
 51
90.0
  0
ARC
  8
0
 62
7
  6
CONTINUOUS
 10
291.9488317759
 20
223.0061927876
 40
2.7
 50
0.0
 51
90.0
  0
ARC
  8
0
 62
7
  6
CONTINUOUS
 10
234.1488317759
 20
223.0061927876
 40
2.7
 50
90.0
 51
180.0
  0
ARC
  8
0
 62
7
  6
CONTINUOUS
 10
330.0488317759
 20
223.0061927876
 40
2.7
 50
0.0
 51
15.6352961738
  0
ARC
  8
0
 62
7
  6
CONTINUOUS
 10
317.3488317759
 20
223.0061927876
 40
2.7
 50
0.0
 51
90.0
  0
ARC
  8
0
 62
7
  6
CONTINUOUS
 10
332.3488317759
 20
225.4061927876
 40
0.3
 50
0.0
 51
90.0
  0
ENDSEC
  0
EOF
