  0
SECTION
  2
HEADER
  9
$EXTMAX
 10
210.0
 20
297.0
 30
0.0
  9
$EXTMIN
 10
0.0
 20
0.0
 30
0.0
  9
$LIMMIN
 10
0.0
 20
0.0
  9
$LIMMAX
 10
210.0
 20
297.0
  9
$VIEWCTR
 10
105.0
 20
148.5
  9
$VIEWSIZE
 40
297.0
  9
$CLAYER
  8
0
  9
$LTSCALE
 40
19.36
  9
$CELTYPE
  6
BYLAYER
  9
$DIMSCALE
 40
1.0
  9
$DIMASZ
 40
3.5
  9
$DIMEXO
 40
2.2
  9
$DIMDLI
 40
13.376
  9
$DIMEXE
 40
6.336
  9
$DIMCEN
 40
3.168
  9
$DIMLFAC
 40
1.0
  9
$DIMBLK
  1
_FILLED
  9
$DIMTXT
 40
3.5
  9
$PDMODE
 70
3
  9
$PDSIZE
 40
0.3125
  9
$TILEMODE
 70
1
  0
ENDSEC
  0
SECTION
  2
TABLES
  0
TABLE
  2
LTYPE
 70
6
  0
LTYPE
  2
BYBLOCK
 70
0
  3

 72
65
 73
0
 40
0.0
  0
LTYPE
  2
BYLAYER
 70
0
  3

 72
65
 73
0
 40
0.0
  0
LTYPE
  2
CONTINUOUS
 70
64
  3
Solid line
 72
65
 73
0
 40
0.0
  0
LTYPE
  2
CENTER
 70
64
  3
____ _ ____ _ ____ _ ____ _ ____ _ ____ _ ____
 72
65
 73
4
 40
0.6
 49
0.375
 49
-0.075
 49
0.075
 49
-0.075
  0
LTYPE
  2
HIDDEN
 70
64
  3
- - - - - - - - - - - - - - - - - - - -
 72
65
 73
2
 40
0.2
 49
0.1
 49
-0.1
  0
LTYPE
  2
PHANTOM
 70
64
  3
_____ _ _ _____ _ _ _____ _ _ _____
 72
65
 73
6
 40
0.8
 49
0.45
 49
-0.05
 49
0.1
 49
-0.05
 49
0.1
 49
-0.05
  0
LTYPE
  2
DOT
 70
64
  3
. . . . . . . . . . . . . . . . . . . .
 72
65
 73
2
 40
0.2
 49
0.1
 49
-0.1
  0
LTYPE
  2
DASHED
 70
64
  3
- - - - - - - - - - - - - - - - - - - -
 72
65
 73
2
 40
0.2
 49
0.1
 49
-0.1
  0
ENDTAB
  0
TABLE
  2
LAYER
 70
36
  0
LAYER
  2
0
 70
0
 62
7
  6
CONTINUOUS
  0
LAYER
  2
DEFAULT_1
 70
0
 62
7
  6
CENTER
  0
LAYER
  2
DEFAULT_2
 70
0
 62
8
  6
HIDDEN
  0
LAYER
  2
DEFAULT_3
 70
0
 62
7
  6
PHANTOM
  0
LAYER
  2
CSYS
 70
0
 62
7
  6
CONTINUOUS
  0
LAYER
  2
CURVE
 70
0
 62
7
  6
CONTINUOUS
  0
LAYER
  2
PITCHLINE
 70
0
 62
7
  6
CONTINUOUS
  0
LAYER
  2
SQ
 70
0
 62
7
  6
CONTINUOUS
  0
LAYER
  2
SURFACE
 70
0
 62
7
  6
CONTINUOUS
  0
ENDTAB
  0
TABLE
  2
STYLE
 70
1
  0
STYLE
  2
STANDARD
 70
0
 40
0.0
 41
0.8
 50
0.0
 71
0
 42
0.2
  3
txt
  4

  0
STYLE
  2
TEXTSTYLE_1
 70
0
 40
0.0
 41
0.8
 50
0.0
 71
0
 42
0.2
  3
gdt
  4

  0
STYLE
  2
TEXTSTYLE_2
 70
0
 40
0.0
 41
0.6
 50
0.0
 71
0
 42
0.2
  3
txt
  4

  0
STYLE
  2
TEXTSTYLE_3
 70
0
 40
0.0
 41
1.0
 50
0.0
 71
0
 42
0.2
  3
ftb_____.ttf
  4

  0
STYLE
  2
TEXTSTYLE_4
 70
0
 40
0.0
 41
1.0
 50
0.0
 71
0
 42
0.2
  3
fti_____.ttf
  4

  0
STYLE
  2
TEXTSTYLE_5
 70
0
 40
0.0
 41
1.0
 50
0.0
 71
0
 42
0.2
  3
frutiger light.ttf
  4

  0
STYLE
  2
TEXTSTYLE_6
 70
0
 40
0.0
 41
0.7
 50
0.0
 71
0
 42
0.2
  3
txt
  4

  0
STYLE
  2
TEXTSTYLE_7
 70
0
 40
0.0
 41
0.8
 50
0.0
 71
0
 42
0.2
  3
txt
  4

  0
ENDTAB
  0
ENDSEC
  0
SECTION
  2
BLOCKS
  0
BLOCK
  8
0
 62
2
  6
CONTINUOUS
  2
SYMBOL_8_BL1
 70
64
 10
173.5956734183
 20
35.5937998301
  0
TEXT
  8
0
 62
7
  6
CONTINUOUS
 10
164.6539584268
 20
30.6865562072
  7
TEXTSTYLE_4
 40
1.0655737705
  1
The brand for plastic modular belts and chains
 41
1.0
 72
0
  0
LINE
  8
0
 62
7
  6
CONTINUOUS
 10
149.5737418074
 20
36.1675703219
 11
149.5737418074
 21
34.0364227809
  0
LINE
  8
0
 62
7
  6
CONTINUOUS
 10
149.8628043005
 20
31.0454914852
 11
149.8628043005
 21
31.1422825445
  0
LINE
  8
0
 62
7
  6
CONTINUOUS
 10
149.5737418074
 20
31.1100188581
 11
149.6315543091
 21
30.9164367395
  0
LINE
  8
0
 62
7
  6
CONTINUOUS
 10
150.9671844304
 20
33.9544555678
 11
150.9671844304
 21
36.1675703219
  0
LINE
  8
0
 62
7
  6
CONTINUOUS
 10
151.8862417523
 20
32.1101932727
 11
151.8862417523
 21
30.5937998301
  0
LINE
  8
0
 62
7
  6
CONTINUOUS
 10
152.1753043074
 20
30.5937998301
 11
152.1753043074
 21
31.3358647082
  0
LINE
  8
0
 62
7
  6
CONTINUOUS
 10
152.1753043074
 20
31.4649194539
 11
152.1753043074
 21
32.1101932727
  0
LINE
  8
0
 62
7
  6
CONTINUOUS
 10
149.6315543091
 20
31.3036010218
 11
149.5737418074
 21
31.1100188581
  0
LINE
  8
0
 62
7
  6
CONTINUOUS
 10
149.9784292936
 20
30.8841730531
 11
149.8628043005
 21
31.0454914852
  0
LINE
  8
0
 62
7
  6
CONTINUOUS
 10
151.0768668626
 20
31.400392081
 11
151.1346793074
 21
31.3036010218
  0
LINE
  8
0
 62
7
  6
CONTINUOUS
 10
151.4237418626
 20
31.3036010218
 11
151.3659292523
 21
31.4326557675
  0
LINE
  8
0
 62
7
  6
CONTINUOUS
 10
152.852430332
 20
36.1675703219
 11
152.852430332
 21
34.3642916334
  0
LINE
  8
0
 62
7
  6
CONTINUOUS
 10
152.852430332
 20
33.0528162235
 11
152.852430332
 21
32.3970785186
  0
LINE
  8
0
 62
7
  6
CONTINUOUS
 10
153.2159293074
 20
31.2390736489
 11
153.2159293074
 21
30.5937998301
  0
LINE
  8
0
 62
7
  6
CONTINUOUS
 10
153.5049916972
 20
30.5937998301
 11
153.5049916972
 21
31.2390736489
  0
LINE
  8
0
 62
7
  6
CONTINUOUS
 10
149.8628043005
 20
31.1422825445
 11
149.9206168074
 21
31.2713373354
  0
LINE
  8
0
 62
7
  6
CONTINUOUS
 10
149.6315543091
 20
30.9164367395
 11
149.7471793074
 21
30.7873819712
  0
LINE
  8
0
 62
7
  6
CONTINUOUS
 10
153.1581166972
 20
31.3681283946
 11
153.2159293074
 21
31.2390736489
  0
LINE
  8
0
 62
7
  6
CONTINUOUS
 10
153.9674919177
 20
30.8841730531
 11
154.0253041972
 21
30.7551182848
  0
LINE
  8
0
 62
7
  6
CONTINUOUS
 10
153.5049916972
 20
31.2390736489
 11
153.4471794177
 21
31.400392081
  0
LINE
  8
0
 62
7
  6
CONTINUOUS
 10
153.9674919177
 20
31.4326557675
 11
153.9674919177
 21
31.3681283946
  0
LINE
  8
0
 62
7
  6
CONTINUOUS
 10
153.9674919177
 20
30.9809641124
 11
153.9674919177
 21
30.8841730531
  0
LINE
  8
0
 62
7
  6
CONTINUOUS
 10
154.245872955
 20
32.3970785186
 11
154.245872955
 21
36.1675703219
  0
LINE
  8
0
 62
7
  6
CONTINUOUS
 10
154.2565543074
 20
30.8519093441
 11
154.2565543074
 21
30.9164367395
  0
LINE
  8
0
 62
7
  6
CONTINUOUS
 10
154.5737418074
 20
36.1675703219
 11
154.5737418074
 21
32.3970785186
  0
LINE
  8
0
 62
7
  6
CONTINUOUS
 10
151.3659292523
 20
30.7873819712
 11
151.4237418626
 21
30.9164367395
  0
LINE
  8
0
 62
7
  6
CONTINUOUS
 10
155.759679528
 20
30.6905909007
 11
155.7018665869
 21
30.8519093441
  0
LINE
  8
0
 62
7
  6
CONTINUOUS
 10
155.412804528
 20
31.3681283946
 11
155.412804528
 21
31.2713373354
  0
LINE
  8
0
 62
7
  6
CONTINUOUS
 10
155.412804528
 20
31.1422825445
 11
155.412804528
 21
30.9487004259
  0
LINE
  8
0
 62
7
  6
CONTINUOUS
 10
155.7018665869
 20
30.8519093441
 11
155.7018665869
 21
31.3681283946
  0
LINE
  8
0
 62
7
  6
CONTINUOUS
 10
155.9671844304
 20
32.3970785186
 11
155.9671844304
 21
34.2003572071
  0
LINE
  8
0
 62
7
  6
CONTINUOUS
 10
155.9671844304
 20
35.511832617
 11
155.9671844304
 21
36.1675703219
  0
LINE
  8
0
 62
7
  6
CONTINUOUS
 10
156.279992028
 20
32.1101932727
 11
156.279992028
 21
31.9488748406
  0
LINE
  8
0
 62
7
  6
CONTINUOUS
 10
156.279992028
 20
31.626237886
 11
156.279992028
 21
30.5937998301
  0
LINE
  8
0
 62
7
  6
CONTINUOUS
 10
156.5690540869
 20
30.5937998301
 11
156.5690540869
 21
31.626237886
  0
LINE
  8
0
 62
7
  6
CONTINUOUS
 10
156.5690540869
 20
31.9488748406
 11
156.5690540869
 21
32.1101932727
  0
LINE
  8
0
 62
7
  6
CONTINUOUS
 10
151.1346793074
 20
30.9164367395
 11
151.0768668626
 21
30.8196456577
  0
LINE
  8
0
 62
7
  6
CONTINUOUS
 10
153.4471794177
 20
31.400392081
 11
153.3893668074
 21
31.4649194539
  0
LINE
  8
0
 62
7
  6
CONTINUOUS
 10
154.3143669177
 20
30.7873819712
 11
154.2565543074
 21
30.8519093441
  0
LINE
  8
0
 62
7
  6
CONTINUOUS
 10
155.4706168074
 20
30.6583272086
 11
155.5284290869
 21
30.5937998301
  0
LINE
  8
0
 62
7
  6
CONTINUOUS
 10
155.412804528
 20
30.7551182848
 11
155.4706168074
 21
30.6583272086
  0
LINE
  8
0
 62
7
  6
CONTINUOUS
 10
155.8174918074
 20
30.5937998301
 11
155.759679528
 21
30.6905909007
  0
LINE
  8
0
 62
7
  6
CONTINUOUS
 10
155.7018665869
 20
31.3681283946
 11
155.6440543074
 21
31.4649194539
  0
LINE
  8
0
 62
7
  6
CONTINUOUS
 10
157.0315543074
 20
31.626237886
 11
157.0315543074
 21
30.5937998301
  0
LINE
  8
0
 62
7
  6
CONTINUOUS
 10
157.320617028
 20
30.5937998301
 11
157.320617028
 21
31.3358647082
  0
LINE
  8
0
 62
7
  6
CONTINUOUS
 10
157.320617028
 20
31.4649194539
 11
157.320617028
 21
31.626237886
  0
LINE
  8
0
 62
7
  6
CONTINUOUS
 10
157.852430332
 20
34.6101932727
 11
157.852430332
 21
32.3970785186
  0
LINE
  8
0
 62
7
  6
CONTINUOUS
 10
149.7471793074
 20
31.4326557675
 11
149.6315543091
 21
31.3036010218
  0
LINE
  8
0
 62
7
  6
CONTINUOUS
 10
149.9206168074
 20
31.2713373354
 11
149.9784292936
 21
31.3358647082
  0
LINE
  8
0
 62
7
  6
CONTINUOUS
 10
149.7471793074
 20
30.7873819712
 11
149.8628043005
 21
30.7228545871
  0
LINE
  8
0
 62
7
  6
CONTINUOUS
 10
150.1518667936
 20
30.7873819712
 11
149.9784292936
 21
30.8841730531
  0
LINE
  8
0
 62
7
  6
CONTINUOUS
 10
155.3549915869
 20
31.4326557675
 11
155.412804528
 21
31.3681283946
  0
LINE
  8
0
 62
7
  6
CONTINUOUS
 10
158.3034290869
 20
31.3681283946
 11
158.361242028
 21
31.2068099625
  0
LINE
  8
0
 62
7
  6
CONTINUOUS
 10
158.6503040869
 20
31.2068099625
 11
158.5924918074
 21
31.3681283946
  0
LINE
  8
0
 62
7
  6
CONTINUOUS
 10
158.361242028
 20
31.2068099625
 11
158.361242028
 21
30.5937998301
  0
LINE
  8
0
 62
7
  6
CONTINUOUS
 10
158.6503040869
 20
30.5937998301
 11
158.6503040869
 21
31.2068099625
  0
LINE
  8
0
 62
7
  6
CONTINUOUS
 10
159.1128043074
 20
31.4326557675
 11
159.1128043074
 21
31.3681283946
  0
LINE
  8
0
 62
7
  6
CONTINUOUS
 10
159.245872955
 20
32.3970785186
 11
159.245872955
 21
34.5282260596
  0
LINE
  8
0
 62
7
  6
CONTINUOUS
 10
159.5737418074
 20
36.1675703219
 11
159.5737418074
 21
32.3970785186
  0
LINE
  8
0
 62
7
  6
CONTINUOUS
 10
154.2565543074
 20
30.9164367395
 11
154.3143669177
 21
31.0132277988
  0
LINE
  8
0
 62
7
  6
CONTINUOUS
 10
149.8628043005
 20
30.7228545871
 11
150.0362418212
 21
30.6583272086
  0
LINE
  8
0
 62
7
  6
CONTINUOUS
 10
151.3659292523
 20
31.4326557675
 11
151.1924917523
 21
31.5294468267
  0
LINE
  8
0
 62
7
  6
CONTINUOUS
 10
154.0253041972
 20
30.7551182848
 11
154.1987416972
 21
30.6583272086
  0
LINE
  8
0
 62
7
  6
CONTINUOUS
 10
153.0424918074
 20
31.4326557675
 11
153.1581166972
 21
31.3681283946
  0
LINE
  8
0
 62
7
  6
CONTINUOUS
 10
153.3893668074
 20
31.4649194539
 11
153.2737419177
 21
31.5294468267
  0
LINE
  8
0
 62
7
  6
CONTINUOUS
 10
159.1128043074
 20
30.8519093441
 11
159.228429528
 21
30.7228545871
  0
LINE
  8
0
 62
7
  6
CONTINUOUS
 10
159.4596793074
 20
30.7873819712
 11
159.401867028
 21
30.8519093441
  0
LINE
  8
0
 62
7
  6
CONTINUOUS
 10
159.1128043074
 20
31.3681283946
 11
159.228429528
 21
31.2390736489
  0
LINE
  8
0
 62
7
  6
CONTINUOUS
 10
158.5924918074
 20
31.3681283946
 11
158.534679528
 21
31.4649194539
  0
LINE
  8
0
 62
7
  6
CONTINUOUS
 10
160.9628038663
 20
30.7873819712
 11
160.9628038663
 21
30.8519093441
  0
LINE
  8
0
 62
7
  6
CONTINUOUS
 10
160.9671844304
 20
32.3970785186
 11
160.9671844304
 21
36.1675703219
  0
LINE
  8
0
 62
7
  6
CONTINUOUS
 10
154.0253041972
 20
31.4971831403
 11
153.9674919177
 21
31.4326557675
  0
LINE
  8
0
 62
7
  6
CONTINUOUS
 10
150.9034292799
 20
31.4649194539
 11
151.0768668626
 21
31.400392081
  0
LINE
  8
0
 62
7
  6
CONTINUOUS
 10
155.6440543074
 20
31.4649194539
 11
155.5284290869
 21
31.5294468267
  0
LINE
  8
0
 62
7
  6
CONTINUOUS
 10
159.4596793074
 20
31.3036010218
 11
159.401867028
 21
31.3681283946
  0
LINE
  8
0
 62
7
  6
CONTINUOUS
 10
160.615929528
 20
30.9164367395
 11
160.6737418074
 21
30.8519093441
  0
LINE
  8
0
 62
7
  6
CONTINUOUS
 10
160.9628038663
 20
30.8519093441
 11
160.8471793074
 21
30.9809641124
  0
LINE
  8
0
 62
7
  6
CONTINUOUS
 10
160.615929528
 20
31.4326557675
 11
160.6737418074
 21
31.3681283946
  0
LINE
  8
0
 62
7
  6
CONTINUOUS
 10
160.9628038663
 20
31.3681283946
 11
160.8471793074
 21
31.4971831403
  0
LINE
  8
0
 62
7
  6
CONTINUOUS
 10
154.2565543074
 20
31.3681283946
 11
154.3143669177
 21
31.4326557675
  0
LINE
  8
0
 62
7
  6
CONTINUOUS
 10
154.0831168074
 20
31.1100188581
 11
153.9674919177
 21
30.9809641124
  0
LINE
  8
0
 62
7
  6
CONTINUOUS
 10
155.412804528
 20
30.9487004259
 11
155.3549915869
 21
30.8841730531
  0
LINE
  8
0
 62
7
  6
CONTINUOUS
 10
155.3549915869
 20
30.6905909007
 11
155.412804528
 21
30.7551182848
  0
LINE
  8
0
 62
7
  6
CONTINUOUS
 10
154.1987416972
 20
30.6583272086
 11
154.3143669177
 21
30.6260635193
  0
LINE
  8
0
 62
7
  6
CONTINUOUS
 10
151.1924917523
 20
31.5294468267
 11
150.9612418074
 21
31.5939741996
  0
LINE
  8
0
 62
7
  6
CONTINUOUS
 10
154.5456166972
 20
30.7228545871
 11
154.3143669177
 21
30.7873819712
  0
LINE
  8
0
 62
7
  6
CONTINUOUS
 10
153.2737419177
 20
31.5294468267
 11
153.1003044177
 21
31.5939741996
  0
LINE
  8
0
 62
7
  6
CONTINUOUS
 10
155.5284290869
 20
31.5294468267
 11
155.3549915869
 21
31.5939741996
  0
LINE
  8
0
 62
7
  6
CONTINUOUS
 10
158.187804528
 20
31.4326557675
 11
158.3034290869
 21
31.3681283946
  0
LINE
  8
0
 62
7
  6
CONTINUOUS
 10
158.534679528
 20
31.4649194539
 11
158.4190543074
 21
31.5294468267
  0
LINE
  8
0
 62
7
  6
CONTINUOUS
 10
150.0362418212
 20
30.6583272086
 11
150.2096793212
 21
30.6260635193
  0
LINE
  8
0
 62
7
  6
CONTINUOUS
 10
150.498741835
 20
30.7228545871
 11
150.1518667936
 21
30.7873819712
  0
LINE
  8
0
 62
7
  6
CONTINUOUS
 10
152.9268669177
 20
31.4649194539
 11
153.0424918074
 21
31.4326557675
  0
LINE
  8
0
 62
7
  6
CONTINUOUS
 10
155.239367028
 20
31.4649194539
 11
155.3549915869
 21
31.4326557675
  0
LINE
  8
0
 62
7
  6
CONTINUOUS
 10
159.575304528
 20
30.7551182848
 11
159.4596793074
 21
30.7873819712
  0
LINE
  8
0
 62
7
  6
CONTINUOUS
 10
158.0721793074
 20
31.4649194539
 11
158.187804528
 21
31.4326557675
  0
LINE
  8
0
 62
7
  6
CONTINUOUS
 10
159.228429528
 20
30.7228545871
 11
159.401867028
 21
30.6583272086
  0
LINE
  8
0
 62
7
  6
CONTINUOUS
 10
158.4190543074
 20
31.5294468267
 11
158.2456168074
 21
31.5939741996
  0
LINE
  8
0
 62
7
  6
CONTINUOUS
 10
159.6331168074
 20
31.2390736489
 11
159.4596793074
 21
31.3036010218
  0
LINE
  8
0
 62
7
  6
CONTINUOUS
 10
160.442492028
 20
30.9809641124
 11
160.615929528
 21
30.9164367395
  0
LINE
  8
0
 62
7
  6
CONTINUOUS
 10
160.8471793074
 20
31.4971831403
 11
160.6737418074
 21
31.5617105132
  0
LINE
  8
0
 62
7
  6
CONTINUOUS
 10
159.228429528
 20
31.2390736489
 11
159.4596793074
 21
31.1422825445
  0
LINE
  8
0
 62
7
  6
CONTINUOUS
 10
160.8471793074
 20
30.9809641124
 11
160.615929528
 21
31.0777551716
  0
LINE
  8
0
 62
7
  6
CONTINUOUS
 10
159.401867028
 20
31.3681283946
 11
159.4596793074
 21
31.4326557675
  0
LINE
  8
0
 62
7
  6
CONTINUOUS
 10
149.8628043005
 20
31.4971831403
 11
149.7471793074
 21
31.4326557675
  0
LINE
  8
0
 62
7
  6
CONTINUOUS
 10
149.9784292936
 20
31.3358647082
 11
150.1518667936
 21
31.4326557675
  0
LINE
  8
0
 62
7
  6
CONTINUOUS
 10
152.2909293626
 20
31.5294468267
 11
152.1753043074
 21
31.4649194539
  0
LINE
  8
0
 62
7
  6
CONTINUOUS
 10
152.1753043074
 20
31.3358647082
 11
152.2909293626
 21
31.400392081
  0
LINE
  8
0
 62
7
  6
CONTINUOUS
 10
151.1924917523
 20
30.6905909007
 11
151.3659292523
 21
30.7873819712
  0
LINE
  8
0
 62
7
  6
CONTINUOUS
 10
150.2096793212
 20
30.6260635193
 11
150.5565542799
 21
30.5937998301
  0
LINE
  8
0
 62
7
  6
CONTINUOUS
 10
154.3143669177
 20
30.6260635193
 11
154.5456166972
 21
30.5937998301
  0
LINE
  8
0
 62
7
  6
CONTINUOUS
 10
152.6956168074
 20
31.4971831403
 11
152.9268669177
 21
31.4649194539
  0
LINE
  8
0
 62
7
  6
CONTINUOUS
 10
155.0081169177
 20
31.4971831403
 11
155.239367028
 21
31.4649194539
  0
LINE
  8
0
 62
7
  6
CONTINUOUS
 10
159.4596793074
 20
31.1422825445
 11
160.442492028
 21
30.9809641124
  0
LINE
  8
0
 62
7
  6
CONTINUOUS
 10
160.615929528
 20
31.0777551716
 11
159.6331168074
 21
31.2390736489
  0
LINE
  8
0
 62
7
  6
CONTINUOUS
 10
153.1003044177
 20
31.5939741996
 11
152.9268669177
 21
31.626237886
  0
LINE
  8
0
 62
7
  6
CONTINUOUS
 10
159.401867028
 20
30.6583272086
 11
159.575304528
 21
30.6260635193
  0
LINE
  8
0
 62
7
  6
CONTINUOUS
 10
158.2456168074
 20
31.5939741996
 11
158.0721793074
 21
31.626237886
  0
LINE
  8
0
 62
7
  6
CONTINUOUS
 10
160.5003043074
 20
31.4649194539
 11
160.615929528
 21
31.4326557675
  0
LINE
  8
0
 62
7
  6
CONTINUOUS
 10
160.6737418074
 20
30.8519093441
 11
160.615929528
 21
30.7873819712
  0
LINE
  8
0
 62
7
  6
CONTINUOUS
 10
159.228429528
 20
31.5294468267
 11
159.1128043074
 21
31.4326557675
  0
LINE
  8
0
 62
7
  6
CONTINUOUS
 10
154.1409294177
 20
31.5617105132
 11
154.0253041972
 21
31.4971831403
  0
LINE
  8
0
 62
7
  6
CONTINUOUS
 10
154.1987416972
 20
31.1745462761
 11
154.0831168074
 21
31.1100188581
  0
LINE
  8
0
 62
7
  6
CONTINUOUS
 10
154.3143669177
 20
31.0132277988
 11
154.4299918074
 21
31.0777551716
  0
LINE
  8
0
 62
7
  6
CONTINUOUS
 10
151.8862417523
 20
30.5937998301
 11
152.1753043074
 21
30.5937998301
  0
LINE
  8
0
 62
7
  6
CONTINUOUS
 10
153.2159293074
 20
30.5937998301
 11
153.5049916972
 21
30.5937998301
  0
LINE
  8
0
 62
7
  6
CONTINUOUS
 10
154.5456166972
 20
30.5937998301
 11
154.8924916972
 21
30.5937998301
  0
LINE
  8
0
 62
7
  6
CONTINUOUS
 10
155.5284290869
 20
30.5937998301
 11
155.8174918074
 21
30.5937998301
  0
LINE
  8
0
 62
7
  6
CONTINUOUS
 10
156.279992028
 20
30.5937998301
 11
156.5690540869
 21
30.5937998301
  0
LINE
  8
0
 62
7
  6
CONTINUOUS
 10
157.0315543074
 20
30.5937998301
 11
157.320617028
 21
30.5937998301
  0
LINE
  8
0
 62
7
  6
CONTINUOUS
 10
158.361242028
 20
30.5937998301
 11
158.6503040869
 21
30.5937998301
  0
LINE
  8
0
 62
7
  6
CONTINUOUS
 10
159.922179528
 20
30.5937998301
 11
160.269054528
 21
30.5937998301
  0
LINE
  8
0
 62
7
  6
CONTINUOUS
 10
160.269054528
 20
30.7228545871
 11
159.922179528
 21
30.7228545871
  0
LINE
  8
0
 62
7
  6
CONTINUOUS
 10
154.8924916972
 20
30.7228545871
 11
154.5456166972
 21
30.7228545871
  0
LINE
  8
0
 62
7
  6
CONTINUOUS
 10
159.401867028
 20
30.8519093441
 11
159.1128043074
 21
30.8519093441
  0
LINE
  8
0
 62
7
  6
CONTINUOUS
 10
151.4237418626
 20
30.9164367395
 11
151.1346793074
 21
30.9164367395
  0
LINE
  8
0
 62
7
  6
CONTINUOUS
 10
150.498741835
 20
31.4971831403
 11
150.9034292799
 21
31.4649194539
  0
LINE
  8
0
 62
7
  6
CONTINUOUS
 10
150.9612418074
 20
31.5939741996
 11
150.5565542799
 21
31.626237886
  0
LINE
  8
0
 62
7
  6
CONTINUOUS
 10
159.575304528
 20
30.6260635193
 11
159.922179528
 21
30.5937998301
  0
LINE
  8
0
 62
7
  6
CONTINUOUS
 10
159.922179528
 20
30.7228545871
 11
159.575304528
 21
30.7551182848
  0
LINE
  8
0
 62
7
  6
CONTINUOUS
 10
155.3549915869
 20
31.5939741996
 11
155.0081169177
 21
31.626237886
  0
LINE
  8
0
 62
7
  6
CONTINUOUS
 10
160.1534293074
 20
31.4971831403
 11
160.5003043074
 21
31.4649194539
  0
LINE
  8
0
 62
7
  6
CONTINUOUS
 10
160.5003043074
 20
31.5939741996
 11
160.1534293074
 21
31.626237886
  0
LINE
  8
0
 62
7
  6
CONTINUOUS
 10
157.840929528
 20
31.4971831403
 11
158.0721793074
 21
31.4649194539
  0
LINE
  8
0
 62
7
  6
CONTINUOUS
 10
160.6737418074
 20
31.5617105132
 11
160.5003043074
 21
31.5939741996
  0
LINE
  8
0
 62
7
  6
CONTINUOUS
 10
160.8471793074
 20
30.6905909007
 11
160.9628038663
 21
30.7873819712
  0
LINE
  8
0
 62
7
  6
CONTINUOUS
 10
155.3549915869
 20
30.8841730531
 11
155.1815540869
 21
30.7873819712
  0
LINE
  8
0
 62
7
  6
CONTINUOUS
 10
157.4362415869
 20
31.5294468267
 11
157.320617028
 21
31.4649194539
  0
LINE
  8
0
 62
7
  6
CONTINUOUS
 10
157.320617028
 20
31.3358647082
 11
157.4362415869
 21
31.400392081
  0
LINE
  8
0
 62
7
  6
CONTINUOUS
 10
150.0362418212
 20
31.5617105132
 11
149.8628043005
 21
31.4971831403
  0
LINE
  8
0
 62
7
  6
CONTINUOUS
 10
152.4643666972
 20
31.5939741996
 11
152.2909293626
 21
31.5294468267
  0
LINE
  8
0
 62
7
  6
CONTINUOUS
 10
152.2909293626
 20
31.400392081
 11
152.4643666972
 21
31.4649194539
  0
LINE
  8
0
 62
7
  6
CONTINUOUS
 10
151.0768668626
 20
30.8196456577
 11
150.9034292799
 21
30.7551182848
  0
LINE
  8
0
 62
7
  6
CONTINUOUS
 10
160.5003043074
 20
30.7551182848
 11
160.269054528
 21
30.7228545871
  0
LINE
  8
0
 62
7
  6
CONTINUOUS
 10
154.8924916972
 20
30.5937998301
 11
155.1815540869
 21
30.6260635193
  0
LINE
  8
0
 62
7
  6
CONTINUOUS
 10
160.269054528
 20
30.5937998301
 11
160.615929528
 21
30.6260635193
  0
LINE
  8
0
 62
7
  6
CONTINUOUS
 10
150.5565542799
 20
30.5937998301
 11
150.9612418074
 21
30.6260635193
  0
LINE
  8
0
 62
7
  6
CONTINUOUS
 10
150.9034292799
 20
30.7551182848
 11
150.498741835
 21
30.7228545871
  0
LINE
  8
0
 62
7
  6
CONTINUOUS
 10
154.7768668074
 20
31.1422825445
 11
155.412804528
 21
31.1422825445
  0
LINE
  8
0
 62
7
  6
CONTINUOUS
 10
155.412804528
 20
31.2713373354
 11
154.7768668074
 21
31.2713373354
  0
LINE
  8
0
 62
7
  6
CONTINUOUS
 10
151.1346793074
 20
31.3036010218
 11
151.4237418626
 21
31.3036010218
  0
LINE
  8
0
 62
7
  6
CONTINUOUS
 10
153.9674919177
 20
31.3681283946
 11
154.2565543074
 21
31.3681283946
  0
LINE
  8
0
 62
7
  6
CONTINUOUS
 10
160.6737418074
 20
31.3681283946
 11
160.9628038663
 21
31.3681283946
  0
LINE
  8
0
 62
7
  6
CONTINUOUS
 10
154.6612419177
 20
31.4971831403
 11
155.0081169177
 21
31.4971831403
  0
LINE
  8
0
 62
7
  6
CONTINUOUS
 10
159.8065543074
 20
31.4971831403
 11
160.1534293074
 21
31.4971831403
  0
LINE
  8
0
 62
7
  6
CONTINUOUS
 10
160.1534293074
 20
31.626237886
 11
159.8065543074
 21
31.626237886
  0
LINE
  8
0
 62
7
  6
CONTINUOUS
 10
158.0721793074
 20
31.626237886
 11
157.840929528
 21
31.626237886
  0
LINE
  8
0
 62
7
  6
CONTINUOUS
 10
157.320617028
 20
31.626237886
 11
157.0315543074
 21
31.626237886
  0
LINE
  8
0
 62
7
  6
CONTINUOUS
 10
156.5690540869
 20
31.626237886
 11
156.279992028
 21
31.626237886
  0
LINE
  8
0
 62
7
  6
CONTINUOUS
 10
155.0081169177
 20
31.626237886
 11
154.6612419177
 21
31.626237886
  0
LINE
  8
0
 62
7
  6
CONTINUOUS
 10
152.9268669177
 20
31.626237886
 11
152.6956168074
 21
31.626237886
  0
LINE
  8
0
 62
7
  6
CONTINUOUS
 10
156.279992028
 20
31.9488748406
 11
156.5690540869
 21
31.9488748406
  0
LINE
  8
0
 62
7
  6
CONTINUOUS
 10
156.5690540869
 20
32.1101932727
 11
156.279992028
 21
32.1101932727
  0
LINE
  8
0
 62
7
  6
CONTINUOUS
 10
152.1753043074
 20
32.1101932727
 11
151.8862417523
 21
32.1101932727
  0
LINE
  8
0
 62
7
  6
CONTINUOUS
 10
151.2130860697
 20
32.3970785186
 11
151.6256574183
 21
32.3970785186
  0
LINE
  8
0
 62
7
  6
CONTINUOUS
 10
152.852430332
 20
32.3970785186
 11
154.245872955
 21
32.3970785186
  0
LINE
  8
0
 62
7
  6
CONTINUOUS
 10
154.5737418074
 20
32.3970785186
 11
155.9671844304
 21
32.3970785186
  0
LINE
  8
0
 62
7
  6
CONTINUOUS
 10
157.852430332
 20
32.3970785186
 11
159.245872955
 21
32.3970785186
  0
LINE
  8
0
 62
7
  6
CONTINUOUS
 10
159.5737418074
 20
32.3970785186
 11
160.9671844304
 21
32.3970785186
  0
LINE
  8
0
 62
7
  6
CONTINUOUS
 10
157.6096790869
 20
31.5939741996
 11
157.4362415869
 21
31.5294468267
  0
LINE
  8
0
 62
7
  6
CONTINUOUS
 10
155.1815540869
 20
30.6260635193
 11
155.3549915869
 21
30.6905909007
  0
LINE
  8
0
 62
7
  6
CONTINUOUS
 10
160.615929528
 20
30.6260635193
 11
160.8471793074
 21
30.6905909007
  0
LINE
  8
0
 62
7
  6
CONTINUOUS
 10
160.615929528
 20
30.7873819712
 11
160.5003043074
 21
30.7551182848
  0
LINE
  8
0
 62
7
  6
CONTINUOUS
 10
159.575304528
 20
31.4649194539
 11
159.8065543074
 21
31.4971831403
  0
LINE
  8
0
 62
7
  6
CONTINUOUS
 10
157.6096790869
 20
31.4649194539
 11
157.840929528
 21
31.4971831403
  0
LINE
  8
0
 62
7
  6
CONTINUOUS
 10
154.5456166972
 20
31.1100188581
 11
154.7768668074
 21
31.1422825445
  0
LINE
  8
0
 62
7
  6
CONTINUOUS
 10
157.840929528
 20
31.626237886
 11
157.6096790869
 21
31.5939741996
  0
LINE
  8
0
 62
7
  6
CONTINUOUS
 10
154.4299918074
 20
31.4649194539
 11
154.6612419177
 21
31.4971831403
  0
LINE
  8
0
 62
7
  6
CONTINUOUS
 10
159.8065543074
 20
31.626237886
 11
159.4596793074
 21
31.5939741996
  0
LINE
  8
0
 62
7
  6
CONTINUOUS
 10
154.7768668074
 20
31.2713373354
 11
154.4299918074
 21
31.2390736489
  0
LINE
  8
0
 62
7
  6
CONTINUOUS
 10
150.5565542799
 20
31.626237886
 11
150.2096793212
 21
31.5939741996
  0
LINE
  8
0
 62
7
  6
CONTINUOUS
 10
154.6612419177
 20
31.626237886
 11
154.2565543074
 21
31.5939741996
  0
LINE
  8
0
 62
7
  6
CONTINUOUS
 10
152.0327582009
 20
33.5446195022
 11
151.3770204959
 21
33.5446195022
  0
LINE
  8
0
 62
7
  6
CONTINUOUS
 10
157.4362415869
 20
31.400392081
 11
157.6096790869
 21
31.4649194539
  0
LINE
  8
0
 62
7
  6
CONTINUOUS
 10
159.4596793074
 20
31.4326557675
 11
159.575304528
 21
31.4649194539
  0
LINE
  8
0
 62
7
  6
CONTINUOUS
 10
159.4596793074
 20
31.5939741996
 11
159.228429528
 21
31.5294468267
  0
LINE
  8
0
 62
7
  6
CONTINUOUS
 10
155.1815540869
 20
30.7873819712
 11
154.8924916972
 21
30.7228545871
  0
LINE
  8
0
 62
7
  6
CONTINUOUS
 10
152.4643666972
 20
31.4649194539
 11
152.6956168074
 21
31.4971831403
  0
LINE
  8
0
 62
7
  6
CONTINUOUS
 10
152.6956168074
 20
31.626237886
 11
152.4643666972
 21
31.5939741996
  0
LINE
  8
0
 62
7
  6
CONTINUOUS
 10
150.2674918074
 20
31.4649194539
 11
150.498741835
 21
31.4971831403
  0
LINE
  8
0
 62
7
  6
CONTINUOUS
 10
156.7868565615
 20
35.0200293383
 11
157.4425942664
 21
35.0200293383
  0
LINE
  8
0
 62
7
  6
CONTINUOUS
 10
154.4299918074
 20
31.0777551716
 11
154.5456166972
 21
31.1100188581
  0
LINE
  8
0
 62
7
  6
CONTINUOUS
 10
154.4299918074
 20
31.2390736489
 11
154.1987416972
 21
31.1745462761
  0
LINE
  8
0
 62
7
  6
CONTINUOUS
 10
154.3143669177
 20
31.4326557675
 11
154.4299918074
 21
31.4649194539
  0
LINE
  8
0
 62
7
  6
CONTINUOUS
 10
150.9612418074
 20
30.6260635193
 11
151.1924917523
 21
30.6905909007
  0
LINE
  8
0
 62
7
  6
CONTINUOUS
 10
154.2565543074
 20
31.5939741996
 11
154.1409294177
 21
31.5617105132
  0
LINE
  8
0
 62
7
  6
CONTINUOUS
 10
150.2096793212
 20
31.5939741996
 11
150.0362418212
 21
31.5617105132
  0
LINE
  8
0
 62
7
  6
CONTINUOUS
 10
160.9671844304
 20
36.1675703219
 11
159.5737418074
 21
36.1675703219
  0
LINE
  8
0
 62
7
  6
CONTINUOUS
 10
157.6065286927
 20
36.1675703219
 11
157.1939573441
 21
36.1675703219
  0
LINE
  8
0
 62
7
  6
CONTINUOUS
 10
155.9671844304
 20
36.1675703219
 11
154.5737418074
 21
36.1675703219
  0
LINE
  8
0
 62
7
  6
CONTINUOUS
 10
154.245872955
 20
36.1675703219
 11
152.852430332
 21
36.1675703219
  0
LINE
  8
0
 62
7
  6
CONTINUOUS
 10
150.9671844304
 20
36.1675703219
 11
149.5737418074
 21
36.1675703219
  0
LINE
  8
0
 62
7
  6
CONTINUOUS
 10
150.1518667936
 20
31.4326557675
 11
150.2674918074
 21
31.4649194539
  0
CIRCLE
  8
0
 62
7
  6
CONTINUOUS
 10
160.2704631189
 20
38.5036358957
 40
2.0901639344
  0
ARC
  8
0
 62
7
  6
CONTINUOUS
 10
151.2130860697
 20
34.0364227809
 40
1.6393442623
 50
180.0
 51
270.0
  0
ARC
  8
0
 62
7
  6
CONTINUOUS
 10
157.6065286927
 20
34.5282260596
 40
1.6393442623
 50
0.0
 51
90.0
  0
ARC
  8
0
 62
7
  6
CONTINUOUS
 10
151.6256574183
 20
33.8724883547
 40
1.4754098361
 50
270.0
 51
326.2510114041
  0
ARC
  8
0
 62
7
  6
CONTINUOUS
 10
157.1939573441
 20
34.6921604858
 40
1.4754098361
 50
90.0
 51
146.2510114041
  0
ARC
  8
0
 62
7
  6
CONTINUOUS
 10
152.0327582009
 20
34.3642916334
 40
0.8196721311
 50
270.0
 51
360.0
  0
ARC
  8
0
 62
7
  6
CONTINUOUS
 10
156.7868565615
 20
34.2003572071
 40
0.8196721311
 50
90.0
 51
180.0
  0
ARC
  8
0
 62
7
  6
CONTINUOUS
 10
151.3770204959
 20
33.9544555678
 40
0.4098360656
 50
180.0
 51
270.0
  0
ARC
  8
0
 62
7
  6
CONTINUOUS
 10
157.4425942664
 20
34.6101932727
 40
0.4098360656
 50
0.0
 51
90.0
  0
SOLID
  8
0
 62
7
  6
CONTINUOUS
 10
156.279992028
 20
31.9488752009
 11
156.279992028
 21
32.1101936845
 12
156.5690540869
 22
31.9488752009
 13
156.5690540869
 23
32.1101936845
  0
SOLID
  8
0
 62
7
  6
CONTINUOUS
 10
150.5565542799
 20
31.6262382337
 11
150.9612418074
 21
31.5939740028
 12
150.2096793212
 22
31.5939740028
 13
150.2096793212
 23
31.5939740028
  0
SOLID
  8
0
 62
7
  6
CONTINUOUS
 10
150.0362418212
 20
31.5617111435
 11
150.2096793212
 21
31.5939740028
 12
150.9612418074
 22
31.5939740028
 13
150.9612418074
 23
31.5939740028
  0
SOLID
  8
0
 62
7
  6
CONTINUOUS
 10
150.9612418074
 20
31.5939740028
 11
151.1924917523
 21
31.5294468402
 12
150.0362418212
 22
31.5617111435
 13
150.0362418212
 23
31.5617111435
  0
SOLID
  8
0
 62
7
  6
CONTINUOUS
 10
149.8628043005
 20
31.49718259
 11
150.0362418212
 21
31.5617111435
 12
151.1924917523
 22
31.5294468402
 13
151.1924917523
 23
31.5294468402
  0
SOLID
  8
0
 62
7
  6
CONTINUOUS
 10
149.8628043005
 20
31.49718259
 11
151.1924917523
 21
31.5294468402
 12
150.498741835
 22
31.49718259
 13
150.498741835
 23
31.49718259
  0
SOLID
  8
0
 62
7
  6
CONTINUOUS
 10
150.498741835
 20
31.49718259
 11
151.1924917523
 21
31.5294468402
 12
150.9034292799
 22
31.4649197501
 13
150.9034292799
 23
31.4649197501
  0
SOLID
  8
0
 62
7
  6
CONTINUOUS
 10
151.1924917523
 20
31.5294468402
 11
151.3659292523
 21
31.4326554468
 12
150.9034292799
 22
31.4649197501
 13
150.9034292799
 23
31.4649197501
  0
SOLID
  8
0
 62
7
  6
CONTINUOUS
 10
151.0768668626
 20
31.4003926599
 11
150.9034292799
 21
31.4649197501
 12
151.3659292523
 22
31.4326554468
 13
151.3659292523
 23
31.4326554468
  0
SOLID
  8
0
 62
7
  6
CONTINUOUS
 10
151.0768668626
 20
31.4003926599
 11
151.3659292523
 21
31.4326554468
 12
151.1346793074
 22
31.3036013776
 13
151.1346793074
 23
31.3036013776
  0
SOLID
  8
0
 62
7
  6
CONTINUOUS
 10
151.3659292523
 20
31.4326554468
 11
151.4237418626
 21
31.3036013776
 12
151.1346793074
 22
31.3036013776
 13
151.1346793074
 23
31.3036013776
  0
SOLID
  8
0
 62
7
  6
CONTINUOUS
 10
152.4643666972
 20
31.5939739754
 11
152.6956168074
 21
31.6262382787
 12
152.9268669177
 22
31.6262382787
 13
152.9268669177
 23
31.6262382787
  0
SOLID
  8
0
 62
7
  6
CONTINUOUS
 10
152.9268669177
 20
31.6262382787
 11
153.1003044177
 21
31.5939739754
 12
152.4643666972
 22
31.5939739754
 13
152.4643666972
 23
31.5939739754
  0
SOLID
  8
0
 62
7
  6
CONTINUOUS
 10
152.2909293626
 20
31.5294468852
 11
152.4643666972
 21
31.5939739754
 12
153.1003044177
 22
31.5939739754
 13
153.1003044177
 23
31.5939739754
  0
SOLID
  8
0
 62
7
  6
CONTINUOUS
 10
153.1003044177
 20
31.5939739754
 11
153.2737419177
 21
31.5294468852
 12
152.2909293626
 22
31.5294468852
 13
152.2909293626
 23
31.5294468852
  0
SOLID
  8
0
 62
7
  6
CONTINUOUS
 10
153.2737419177
 20
31.5294468852
 11
152.6956168074
 21
31.4971825369
 12
152.2909293626
 22
31.5294468852
 13
152.2909293626
 23
31.5294468852
  0
SOLID
  8
0
 62
7
  6
CONTINUOUS
 10
152.1753043074
 20
31.4649197951
 11
152.2909293626
 21
31.5294468852
 12
152.6956168074
 22
31.4971825369
 13
152.6956168074
 23
31.4971825369
  0
SOLID
  8
0
 62
7
  6
CONTINUOUS
 10
152.6956168074
 20
31.4971825369
 11
152.4643666972
 21
31.4649197951
 12
152.1753043074
 22
31.4649197951
 13
152.1753043074
 23
31.4649197951
  0
SOLID
  8
0
 62
7
  6
CONTINUOUS
 10
152.6956168074
 20
31.4971825369
 11
153.2737419177
 21
31.5294468852
 12
152.9268669177
 22
31.4649197951
 13
152.9268669177
 23
31.4649197951
  0
SOLID
  8
0
 62
7
  6
CONTINUOUS
 10
153.2737419177
 20
31.5294468852
 11
153.3893668074
 21
31.4649197951
 12
152.9268669177
 22
31.4649197951
 13
152.9268669177
 23
31.4649197951
  0
SOLID
  8
0
 62
7
  6
CONTINUOUS
 10
153.0424918074
 20
31.4326554468
 11
152.9268669177
 21
31.4649197951
 12
153.3893668074
 22
31.4649197951
 13
153.3893668074
 23
31.4649197951
  0
SOLID
  8
0
 62
7
  6
CONTINUOUS
 10
153.3893668074
 20
31.4649197951
 11
153.4471794177
 21
31.4003927049
 12
153.0424918074
 22
31.4326554468
 13
153.0424918074
 23
31.4326554468
  0
SOLID
  8
0
 62
7
  6
CONTINUOUS
 10
153.1581166972
 20
31.3681283566
 11
153.0424918074
 21
31.4326554468
 12
153.4471794177
 22
31.4003927049
 13
153.4471794177
 23
31.4003927049
  0
SOLID
  8
0
 62
7
  6
CONTINUOUS
 10
153.1581166972
 20
31.3681283566
 11
153.4471794177
 21
31.4003927049
 12
153.2159293074
 22
31.2390742213
 13
153.2159293074
 23
31.2390742213
  0
SOLID
  8
0
 62
7
  6
CONTINUOUS
 10
153.4471794177
 20
31.4003927049
 11
153.5049916972
 21
31.2390742213
 12
153.2159293074
 22
31.2390742213
 13
153.2159293074
 23
31.2390742213
  0
SOLID
  8
0
 62
7
  6
CONTINUOUS
 10
152.4643666972
 20
31.4649197951
 11
152.2909293626
 21
31.4003927049
 12
152.1753043074
 22
31.4649197951
 13
152.1753043074
 23
31.4649197951
  0
SOLID
  8
0
 62
7
  6
CONTINUOUS
 10
152.2909293626
 20
31.4003927049
 11
152.1753043074
 21
31.3358640533
 12
152.1753043074
 22
31.4649197951
 13
152.1753043074
 23
31.4649197951
  0
SOLID
  8
0
 62
7
  6
CONTINUOUS
 10
152.1753043074
 20
31.3358640533
 11
151.8862417523
 21
30.5938002869
 12
152.1753043074
 22
31.4649197951
 13
152.1753043074
 23
31.4649197951
  0
SOLID
  8
0
 62
7
  6
CONTINUOUS
 10
152.1753043074
 20
31.4649197951
 11
151.8862417523
 21
30.5938002869
 12
152.1753043074
 22
32.1101937295
 13
152.1753043074
 23
32.1101937295
  0
SOLID
  8
0
 62
7
  6
CONTINUOUS
 10
151.8862417523
 20
30.5938002869
 11
151.8862417523
 21
32.1101937295
 12
152.1753043074
 22
32.1101937295
 13
152.1753043074
 23
32.1101937295
  0
SOLID
  8
0
 62
7
  6
CONTINUOUS
 10
152.1753043074
 20
31.3358640533
 11
152.1753043074
 21
30.5938002869
 12
151.8862417523
 22
30.5938002869
 13
151.8862417523
 23
30.5938002869
  0
SOLID
  8
0
 62
7
  6
CONTINUOUS
 10
153.2159293074
 20
30.5938002869
 11
153.2159293074
 21
31.2390742213
 12
153.5049916972
 22
31.2390742213
 13
153.5049916972
 23
31.2390742213
  0
SOLID
  8
0
 62
7
  6
CONTINUOUS
 10
153.5049916972
 20
31.2390742213
 11
153.5049916972
 21
30.5938002869
 12
153.2159293074
 22
30.5938002869
 13
153.2159293074
 23
30.5938002869
  0
SOLID
  8
0
 62
7
  6
CONTINUOUS
 10
154.2565543074
 20
31.5939738288
 11
154.6612419177
 21
31.6262385959
 12
155.0081169177
 22
31.6262385959
 13
155.0081169177
 23
31.6262385959
  0
SOLID
  8
0
 62
7
  6
CONTINUOUS
 10
155.0081169177
 20
31.6262385959
 11
155.3549915869
 21
31.5939738288
 12
154.2565543074
 22
31.5939738288
 13
154.2565543074
 23
31.5939738288
  0
SOLID
  8
0
 62
7
  6
CONTINUOUS
 10
154.1409294177
 20
31.5617111435
 11
154.2565543074
 21
31.5939738288
 12
155.3549915869
 22
31.5939738288
 13
155.3549915869
 23
31.5939738288
  0
SOLID
  8
0
 62
7
  6
CONTINUOUS
 10
155.3549915869
 20
31.5939738288
 11
155.5284290869
 21
31.5294468402
 12
154.1409294177
 22
31.5617111435
 13
154.1409294177
 23
31.5617111435
  0
SOLID
  8
0
 62
7
  6
CONTINUOUS
 10
154.0253041972
 20
31.4971826249
 11
154.1409294177
 21
31.5617111435
 12
155.5284290869
 22
31.5294468402
 13
155.5284290869
 23
31.5294468402
  0
SOLID
  8
0
 62
7
  6
CONTINUOUS
 10
154.0253041972
 20
31.4971826249
 11
155.5284290869
 21
31.5294468402
 12
154.6612419177
 22
31.4971826249
 13
154.6612419177
 23
31.4971826249
  0
SOLID
  8
0
 62
7
  6
CONTINUOUS
 10
154.6612419177
 20
31.4971826249
 11
155.5284290869
 21
31.5294468402
 12
155.0081169177
 22
31.4971826249
 13
155.0081169177
 23
31.4971826249
  0
SOLID
  8
0
 62
7
  6
CONTINUOUS
 10
155.0081169177
 20
31.4971826249
 11
155.5284290869
 21
31.5294468402
 12
155.239367028
 22
31.4649194065
 13
155.239367028
 23
31.4649194065
  0
SOLID
  8
0
 62
7
  6
CONTINUOUS
 10
155.5284290869
 20
31.5294468402
 11
155.6440543074
 21
31.4649194065
 12
155.239367028
 22
31.4649194065
 13
155.239367028
 23
31.4649194065
  0
SOLID
  8
0
 62
7
  6
CONTINUOUS
 10
153.9674919177
 20
31.4326554138
 11
154.0253041972
 21
31.4971826249
 12
154.6612419177
 22
31.4971826249
 13
154.6612419177
 23
31.4971826249
  0
SOLID
  8
0
 62
7
  6
CONTINUOUS
 10
155.3549915869
 20
31.4326554138
 11
155.239367028
 21
31.4649194065
 12
155.6440543074
 22
31.4649194065
 13
155.6440543074
 23
31.4649194065
  0
SOLID
  8
0
 62
7
  6
CONTINUOUS
 10
155.3549915869
 20
31.4326554138
 11
155.6440543074
 21
31.4649194065
 12
155.412804528
 22
31.3681282026
 13
155.412804528
 23
31.3681282026
  0
SOLID
  8
0
 62
7
  6
CONTINUOUS
 10
155.6440543074
 20
31.4649194065
 11
155.7018665869
 21
31.3681282026
 12
155.412804528
 22
31.3681282026
 13
155.412804528
 23
31.3681282026
  0
SOLID
  8
0
 62
7
  6
CONTINUOUS
 10
155.412804528
 20
31.2713369632
 11
155.412804528
 21
31.3681282026
 12
155.7018665869
 22
31.3681282026
 13
155.7018665869
 23
31.3681282026
  0
SOLID
  8
0
 62
7
  6
CONTINUOUS
 10
155.412804528
 20
31.2713369632
 11
155.7018665869
 21
31.3681282026
 12
155.412804528
 22
31.1422827828
 13
155.412804528
 23
31.1422827828
  0
SOLID
  8
0
 62
7
  6
CONTINUOUS
 10
155.412804528
 20
31.1422827828
 11
155.7018665869
 21
31.3681282026
 12
155.412804528
 22
30.9487004259
 13
155.412804528
 23
30.9487004259
  0
SOLID
  8
0
 62
7
  6
CONTINUOUS
 10
155.7018665869
 20
31.3681282026
 11
155.7018665869
 21
30.8519086025
 12
155.412804528
 22
30.9487004259
 13
155.412804528
 23
30.9487004259
  0
SOLID
  8
0
 62
7
  6
CONTINUOUS
 10
157.6096790869
 20
31.5939736268
 11
157.840929528
 21
31.6262383465
 12
158.0721793074
 22
31.6262383465
 13
158.0721793074
 23
31.6262383465
  0
SOLID
  8
0
 62
7
  6
CONTINUOUS
 10
158.0721793074
 20
31.6262383465
 11
158.2456168074
 21
31.5939736268
 12
157.6096790869
 22
31.5939736268
 13
157.6096790869
 23
31.5939736268
  0
SOLID
  8
0
 62
7
  6
CONTINUOUS
 10
157.4362415869
 20
31.5294472848
 11
157.6096790869
 21
31.5939736268
 12
158.2456168074
 22
31.5939736268
 13
158.2456168074
 23
31.5939736268
  0
SOLID
  8
0
 62
7
  6
CONTINUOUS
 10
158.2456168074
 20
31.5939736268
 11
158.4190543074
 21
31.5294472848
 12
157.4362415869
 22
31.5294472848
 13
157.4362415869
 23
31.5294472848
  0
SOLID
  8
0
 62
7
  6
CONTINUOUS
 10
158.4190543074
 20
31.5294472848
 11
157.840929528
 21
31.4971825369
 12
157.4362415869
 22
31.5294472848
 13
157.4362415869
 23
31.5294472848
  0
SOLID
  8
0
 62
7
  6
CONTINUOUS
 10
157.320617028
 20
31.4649199103
 11
157.4362415869
 21
31.5294472848
 12
157.840929528
 22
31.4971825369
 13
157.840929528
 23
31.4971825369
  0
SOLID
  8
0
 62
7
  6
CONTINUOUS
 10
157.840929528
 20
31.4971825369
 11
157.6096790869
 21
31.4649199103
 12
157.320617028
 22
31.4649199103
 13
157.320617028
 23
31.4649199103
  0
SOLID
  8
0
 62
7
  6
CONTINUOUS
 10
157.840929528
 20
31.4971825369
 11
158.4190543074
 21
31.5294472848
 12
158.0721793074
 22
31.4649199103
 13
158.0721793074
 23
31.4649199103
  0
SOLID
  8
0
 62
7
  6
CONTINUOUS
 10
158.4190543074
 20
31.5294472848
 11
158.534679528
 21
31.4649199103
 12
158.0721793074
 22
31.4649199103
 13
158.0721793074
 23
31.4649199103
  0
SOLID
  8
0
 62
7
  6
CONTINUOUS
 10
158.187804528
 20
31.4326554468
 11
158.0721793074
 21
31.4649199103
 12
158.534679528
 22
31.4649199103
 13
158.534679528
 23
31.4649199103
  0
SOLID
  8
0
 62
7
  6
CONTINUOUS
 10
158.187804528
 20
31.4326554468
 11
158.534679528
 21
31.4649199103
 12
158.3034290869
 22
31.3681288486
 13
158.3034290869
 23
31.3681288486
  0
SOLID
  8
0
 62
7
  6
CONTINUOUS
 10
158.534679528
 20
31.4649199103
 11
158.5924918074
 21
31.3681288486
 12
158.3034290869
 22
31.3681288486
 13
158.3034290869
 23
31.3681288486
  0
SOLID
  8
0
 62
7
  6
CONTINUOUS
 10
158.361242028
 20
31.2068093799
 11
158.3034290869
 21
31.3681288486
 12
158.5924918074
 22
31.3681288486
 13
158.5924918074
 23
31.3681288486
  0
SOLID
  8
0
 62
7
  6
CONTINUOUS
 10
158.5924918074
 20
31.3681288486
 11
158.6503040869
 21
31.2068093799
 12
158.361242028
 22
31.2068093799
 13
158.361242028
 23
31.2068093799
  0
SOLID
  8
0
 62
7
  6
CONTINUOUS
 10
157.6096790869
 20
31.4649199103
 11
157.4362415869
 21
31.4003926599
 12
157.320617028
 22
31.4649199103
 13
157.320617028
 23
31.4649199103
  0
SOLID
  8
0
 62
7
  6
CONTINUOUS
 10
157.4362415869
 20
31.4003926599
 11
157.320617028
 21
31.3358640533
 12
157.320617028
 22
31.4649199103
 13
157.320617028
 23
31.4649199103
  0
SOLID
  8
0
 62
7
  6
CONTINUOUS
 10
157.320617028
 20
31.3358640533
 11
157.0315543074
 21
30.5938003547
 12
157.320617028
 22
31.4649199103
 13
157.320617028
 23
31.4649199103
  0
SOLID
  8
0
 62
7
  6
CONTINUOUS
 10
157.320617028
 20
31.4649199103
 11
157.0315543074
 21
30.5938003547
 12
157.320617028
 22
31.6262383465
 13
157.320617028
 23
31.6262383465
  0
SOLID
  8
0
 62
7
  6
CONTINUOUS
 10
157.0315543074
 20
30.5938003547
 11
157.0315543074
 21
31.6262383465
 12
157.320617028
 22
31.6262383465
 13
157.320617028
 23
31.6262383465
  0
SOLID
  8
0
 62
7
  6
CONTINUOUS
 10
157.320617028
 20
31.3358640533
 11
157.320617028
 21
30.5938003547
 12
157.0315543074
 22
30.5938003547
 13
157.0315543074
 23
30.5938003547
  0
SOLID
  8
0
 62
7
  6
CONTINUOUS
 10
158.361242028
 20
30.5938003547
 11
158.361242028
 21
31.2068093799
 12
158.6503040869
 22
31.2068093799
 13
158.6503040869
 23
31.2068093799
  0
SOLID
  8
0
 62
7
  6
CONTINUOUS
 10
158.6503040869
 20
31.2068093799
 11
158.6503040869
 21
30.5938003547
 12
158.361242028
 22
30.5938003547
 13
158.361242028
 23
30.5938003547
  0
SOLID
  8
0
 62
7
  6
CONTINUOUS
 10
159.4596793074
 20
31.5939739474
 11
159.8065543074
 21
31.6262381969
 12
160.1534293074
 22
31.6262381969
 13
160.1534293074
 23
31.6262381969
  0
SOLID
  8
0
 62
7
  6
CONTINUOUS
 10
160.1534293074
 20
31.6262381969
 11
160.5003043074
 21
31.5939739474
 12
159.4596793074
 22
31.5939739474
 13
159.4596793074
 23
31.5939739474
  0
SOLID
  8
0
 62
7
  6
CONTINUOUS
 10
159.228429528
 20
31.5294468402
 11
159.4596793074
 21
31.5939739474
 12
160.5003043074
 22
31.5939739474
 13
160.5003043074
 23
31.5939739474
  0
SOLID
  8
0
 62
7
  6
CONTINUOUS
 10
159.228429528
 20
31.5294468402
 11
160.5003043074
 21
31.5939739304
 12
160.6737418074
 22
31.5617111435
 13
160.6737418074
 23
31.5617111435
  0
SOLID
  8
0
 62
7
  6
CONTINUOUS
 10
159.228429528
 20
31.5294468402
 11
160.6737418074
 21
31.5617111435
 12
159.8065543074
 22
31.4971825592
 13
159.8065543074
 23
31.4971825592
  0
SOLID
  8
0
 62
7
  6
CONTINUOUS
 10
159.8065543074
 20
31.4971825592
 11
160.6737418074
 21
31.5617111435
 12
160.1534293074
 22
31.4971825592
 13
160.1534293074
 23
31.4971825592
  0
SOLID
  8
0
 62
7
  6
CONTINUOUS
 10
160.6737418074
 20
31.5617111435
 11
160.8471793074
 21
31.4971825592
 12
160.1534293074
 22
31.4971825592
 13
160.1534293074
 23
31.4971825592
  0
SOLID
  8
0
 62
7
  6
CONTINUOUS
 10
160.5003043074
 20
31.4649197501
 11
160.1534293074
 21
31.4971825592
 12
160.8471793074
 22
31.4971825592
 13
160.8471793074
 23
31.4971825592
  0
SOLID
  8
0
 62
7
  6
CONTINUOUS
 10
159.1128043074
 20
31.4326555427
 11
159.228429528
 21
31.5294468402
 12
159.8065543074
 22
31.4971825592
 13
159.8065543074
 23
31.4971825592
  0
SOLID
  8
0
 62
7
  6
CONTINUOUS
 10
160.5003043074
 20
31.4649197501
 11
160.8471793074
 21
31.4971825592
 12
160.615929528
 22
31.4326555427
 13
160.615929528
 23
31.4326555427
  0
SOLID
  8
0
 62
7
  6
CONTINUOUS
 10
160.615929528
 20
31.4326555427
 11
160.8471793074
 21
31.4971825592
 12
160.6737418074
 22
31.3681283005
 13
160.6737418074
 23
31.3681283005
  0
SOLID
  8
0
 62
7
  6
CONTINUOUS
 10
160.8471793074
 20
31.4971825592
 11
160.9628038663
 21
31.3681283005
 12
160.6737418074
 22
31.3681283005
 13
160.6737418074
 23
31.3681283005
  0
SOLID
  8
0
 62
7
  6
CONTINUOUS
 10
150.2674918074
 20
31.4649197501
 11
149.7471793074
 21
31.4326554237
 12
150.498741835
 22
31.4971824493
 13
150.498741835
 23
31.4971824493
  0
SOLID
  8
0
 62
7
  6
CONTINUOUS
 10
149.7471793074
 20
31.4326554237
 11
149.8628043005
 21
31.4971824493
 12
150.498741835
 22
31.4971824493
 13
150.498741835
 23
31.4971824493
  0
SOLID
  8
0
 62
7
  6
CONTINUOUS
 10
150.2674918074
 20
31.4649197501
 11
150.1518667936
 21
31.4326554237
 12
149.7471793074
 22
31.4326554237
 13
149.7471793074
 23
31.4326554237
  0
SOLID
  8
0
 62
7
  6
CONTINUOUS
 10
149.6315543091
 20
31.3036012664
 11
149.7471793074
 21
31.4326554237
 12
150.1518667936
 22
31.4326554237
 13
150.1518667936
 23
31.4326554237
  0
SOLID
  8
0
 62
7
  6
CONTINUOUS
 10
153.9674919177
 20
31.4326554237
 11
154.6612419177
 21
31.4971825369
 12
154.4299918074
 22
31.4649197501
 13
154.4299918074
 23
31.4649197501
  0
SOLID
  8
0
 62
7
  6
CONTINUOUS
 10
154.4299918074
 20
31.4649197501
 11
154.3143669177
 21
31.4326554237
 12
153.9674919177
 22
31.4326554237
 13
153.9674919177
 23
31.4326554237
  0
SOLID
  8
0
 62
7
  6
CONTINUOUS
 10
153.9674919177
 20
31.3681283335
 11
153.9674919177
 21
31.4326554237
 12
154.3143669177
 22
31.4326554237
 13
154.3143669177
 23
31.4326554237
  0
SOLID
  8
0
 62
7
  6
CONTINUOUS
 10
154.3143669177
 20
31.4326554237
 11
154.2565543074
 21
31.3681283335
 12
153.9674919177
 22
31.3681283335
 13
153.9674919177
 23
31.3681283335
  0
SOLID
  8
0
 62
7
  6
CONTINUOUS
 10
159.1128043074
 20
31.4326555528
 11
159.8065543074
 21
31.4971825369
 12
159.575304528
 22
31.4649197501
 13
159.575304528
 23
31.4649197501
  0
SOLID
  8
0
 62
7
  6
CONTINUOUS
 10
159.575304528
 20
31.4649197501
 11
159.4596793074
 21
31.4326555528
 12
159.1128043074
 22
31.4326555528
 13
159.1128043074
 23
31.4326555528
  0
SOLID
  8
0
 62
7
  6
CONTINUOUS
 10
159.1128043074
 20
31.3681284626
 11
159.1128043074
 21
31.4326555528
 12
159.4596793074
 22
31.4326555528
 13
159.4596793074
 23
31.4326555528
  0
SOLID
  8
0
 62
7
  6
CONTINUOUS
 10
159.4596793074
 20
31.4326555528
 11
159.401867028
 21
31.3681284626
 12
159.1128043074
 22
31.3681284626
 13
159.1128043074
 23
31.3681284626
  0
SOLID
  8
0
 62
7
  6
CONTINUOUS
 10
159.228429528
 20
31.2390741763
 11
159.1128043074
 21
31.3681284626
 12
159.401867028
 22
31.3681284626
 13
159.401867028
 23
31.3681284626
  0
SOLID
  8
0
 62
7
  6
CONTINUOUS
 10
149.6315543091
 20
31.3036012664
 11
150.1518667936
 21
31.4326554468
 12
149.9784292936
 22
31.3358640533
 13
149.9784292936
 23
31.3358640533
  0
SOLID
  8
0
 62
7
  6
CONTINUOUS
 10
149.9784292936
 20
31.3358640533
 11
149.9206168074
 21
31.2713369632
 12
149.6315543091
 22
31.3036012664
 13
149.6315543091
 23
31.3036012664
  0
SOLID
  8
0
 62
7
  6
CONTINUOUS
 10
149.5737418074
 20
31.1100184796
 11
149.6315543091
 21
31.3036012664
 12
149.9206168074
 22
31.2713369632
 13
149.9206168074
 23
31.2713369632
  0
SOLID
  8
0
 62
7
  6
CONTINUOUS
 10
154.4299918074
 20
31.2390741763
 11
154.7768668074
 21
31.271336924
 12
155.412804528
 22
31.271336924
 13
155.412804528
 23
31.271336924
  0
SOLID
  8
0
 62
7
  6
CONTINUOUS
 10
154.4299918074
 20
31.2390741763
 11
155.412804528
 21
31.271336924
 12
154.1987416972
 22
31.1745462761
 13
154.1987416972
 23
31.1745462761
  0
SOLID
  8
0
 62
7
  6
CONTINUOUS
 10
154.1987416972
 20
31.1745462761
 11
155.412804528
 21
31.271336924
 12
154.7768668074
 22
31.1422827436
 13
154.7768668074
 23
31.1422827436
  0
SOLID
  8
0
 62
7
  6
CONTINUOUS
 10
155.412804528
 20
31.271336924
 11
155.412804528
 21
31.1422827436
 12
154.7768668074
 22
31.1422827436
 13
154.7768668074
 23
31.1422827436
  0
SOLID
  8
0
 62
7
  6
CONTINUOUS
 10
159.228429528
 20
31.2390745501
 11
159.401867028
 21
31.3681283566
 12
159.4596793074
 22
31.3036012664
 13
159.4596793074
 23
31.3036012664
  0
SOLID
  8
0
 62
7
  6
CONTINUOUS
 10
159.4596793074
 20
31.3036012664
 11
159.6331168074
 21
31.2390745501
 12
159.228429528
 22
31.2390745501
 13
159.228429528
 23
31.2390745501
  0
SOLID
  8
0
 62
7
  6
CONTINUOUS
 10
159.4596793074
 20
31.1422827828
 11
159.228429528
 21
31.2390745501
 12
159.6331168074
 22
31.2390745501
 13
159.6331168074
 23
31.2390745501
  0
SOLID
  8
0
 62
7
  6
CONTINUOUS
 10
159.6331168074
 20
31.2390745501
 11
160.615929528
 21
31.0777556927
 12
159.4596793074
 22
31.1422827828
 13
159.4596793074
 23
31.1422827828
  0
SOLID
  8
0
 62
7
  6
CONTINUOUS
 10
160.442492028
 20
30.9809646623
 11
159.4596793074
 21
31.1422827828
 12
160.615929528
 22
31.0777556927
 13
160.615929528
 23
31.0777556927
  0
SOLID
  8
0
 62
7
  6
CONTINUOUS
 10
160.615929528
 20
31.0777556927
 11
160.8471793074
 21
30.9809646623
 12
160.442492028
 22
30.9809646623
 13
160.442492028
 23
30.9809646623
  0
SOLID
  8
0
 62
7
  6
CONTINUOUS
 10
160.615929528
 20
30.9164372091
 11
160.442492028
 21
30.9809646623
 12
160.8471793074
 22
30.9809646623
 13
160.8471793074
 23
30.9809646623
  0
SOLID
  8
0
 62
7
  6
CONTINUOUS
 10
160.615929528
 20
30.9164372091
 11
160.8471793074
 21
30.9809646623
 12
160.6737418074
 22
30.8519089441
 13
160.6737418074
 23
30.8519089441
  0
SOLID
  8
0
 62
7
  6
CONTINUOUS
 10
160.8471793074
 20
30.9809646623
 11
160.9628038663
 21
30.8519089441
 12
160.6737418074
 22
30.8519089441
 13
160.6737418074
 23
30.8519089441
  0
SOLID
  8
0
 62
7
  6
CONTINUOUS
 10
160.615929528
 20
30.7873818593
 11
160.6737418074
 21
30.8519089441
 12
160.9628038663
 22
30.8519089441
 13
160.9628038663
 23
30.8519089441
  0
SOLID
  8
0
 62
7
  6
CONTINUOUS
 10
160.9628038663
 20
30.8519089441
 11
160.9628038663
 21
30.7873818593
 12
160.615929528
 22
30.7873818593
 13
160.615929528
 23
30.7873818593
  0
SOLID
  8
0
 62
7
  6
CONTINUOUS
 10
160.5003043074
 20
30.7551187255
 11
160.615929528
 21
30.7873818593
 12
160.9628038663
 22
30.7873818593
 13
160.9628038663
 23
30.7873818593
  0
SOLID
  8
0
 62
7
  6
CONTINUOUS
 10
160.5003043074
 20
30.7551187255
 11
160.9628038663
 21
30.7873818593
 12
160.269054528
 22
30.7228547745
 13
160.269054528
 23
30.7228547745
  0
SOLID
  8
0
 62
7
  6
CONTINUOUS
 10
160.9628038663
 20
30.7873818593
 11
160.8471793074
 21
30.6905916353
 12
160.269054528
 22
30.7228547745
 13
160.269054528
 23
30.7228547745
  0
SOLID
  8
0
 62
7
  6
CONTINUOUS
 10
160.8471793074
 20
30.6905916353
 11
159.401867028
 21
30.658327332
 12
160.269054528
 22
30.7228547745
 13
160.269054528
 23
30.7228547745
  0
SOLID
  8
0
 62
7
  6
CONTINUOUS
 10
160.269054528
 20
30.7228547745
 11
159.401867028
 21
30.658327332
 12
159.922179528
 22
30.7228547745
 13
159.922179528
 23
30.7228547745
  0
SOLID
  8
0
 62
7
  6
CONTINUOUS
 10
159.401867028
 20
30.658327332
 11
159.228429528
 21
30.7228547745
 12
159.922179528
 22
30.7228547745
 13
159.922179528
 23
30.7228547745
  0
SOLID
  8
0
 62
7
  6
CONTINUOUS
 10
159.401867028
 20
30.658327332
 11
160.8471793074
 21
30.6905916353
 12
159.575304528
 22
30.6260629858
 13
159.575304528
 23
30.6260629858
  0
SOLID
  8
0
 62
7
  6
CONTINUOUS
 10
160.8471793074
 20
30.6905916353
 11
160.615929528
 21
30.6260629858
 12
159.575304528
 22
30.6260629858
 13
159.575304528
 23
30.6260629858
  0
SOLID
  8
0
 62
7
  6
CONTINUOUS
 10
159.922179528
 20
30.5938006049
 11
159.575304528
 21
30.6260629858
 12
160.615929528
 22
30.6260629858
 13
160.615929528
 23
30.6260629858
  0
SOLID
  8
0
 62
7
  6
CONTINUOUS
 10
160.615929528
 20
30.6260629858
 11
160.269054528
 21
30.5938006049
 12
159.922179528
 22
30.5938006049
 13
159.922179528
 23
30.5938006049
  0
SOLID
  8
0
 62
7
  6
CONTINUOUS
 10
149.5737418074
 20
31.1100184796
 11
149.9206168074
 21
31.2713369632
 12
149.8628043005
 22
31.1422827828
 13
149.8628043005
 23
31.1422827828
  0
SOLID
  8
0
 62
7
  6
CONTINUOUS
 10
149.8628043005
 20
31.1422827828
 11
149.8628043005
 21
31.0454914852
 12
149.5737418074
 22
31.1100184796
 13
149.5737418074
 23
31.1100184796
  0
SOLID
  8
0
 62
7
  6
CONTINUOUS
 10
149.6315543091
 20
30.9164372091
 11
149.5737418074
 21
31.1100184796
 12
149.8628043005
 22
31.0454914852
 13
149.8628043005
 23
31.0454914852
  0
SOLID
  8
0
 62
7
  6
CONTINUOUS
 10
149.8628043005
 20
31.0454914852
 11
149.9784292936
 21
30.8841729058
 12
149.6315543091
 22
30.9164372091
 13
149.6315543091
 23
30.9164372091
  0
SOLID
  8
0
 62
7
  6
CONTINUOUS
 10
149.7471793074
 20
30.7873813202
 11
149.6315543091
 21
30.9164372091
 12
149.9784292936
 22
30.8841729058
 13
149.9784292936
 23
30.8841729058
  0
SOLID
  8
0
 62
7
  6
CONTINUOUS
 10
149.9784292936
 20
30.8841729058
 11
150.1518667936
 21
30.7873813202
 12
149.7471793074
 22
30.7873813202
 13
149.7471793074
 23
30.7873813202
  0
SOLID
  8
0
 62
7
  6
CONTINUOUS
 10
149.8628043005
 20
30.7228547004
 11
149.7471793074
 21
30.7873813202
 12
150.1518667936
 22
30.7873813202
 13
150.1518667936
 23
30.7873813202
  0
SOLID
  8
0
 62
7
  6
CONTINUOUS
 10
150.1518667936
 20
30.7873813202
 11
150.498741835
 21
30.7228547004
 12
149.8628043005
 22
30.7228547004
 13
149.8628043005
 23
30.7228547004
  0
SOLID
  8
0
 62
7
  6
CONTINUOUS
 10
150.0362418212
 20
30.658327332
 11
149.8628043005
 21
30.7228547004
 12
150.498741835
 22
30.7228547004
 13
150.498741835
 23
30.7228547004
  0
SOLID
  8
0
 62
7
  6
CONTINUOUS
 10
154.0831168074
 20
31.1100184386
 11
154.1987416972
 21
31.1745462761
 12
154.7768668074
 22
31.1422827828
 13
154.7768668074
 23
31.1422827828
  0
SOLID
  8
0
 62
7
  6
CONTINUOUS
 10
154.7768668074
 20
31.1422827828
 11
154.5456166972
 21
31.1100184386
 12
154.0831168074
 22
31.1100184386
 13
154.0831168074
 23
31.1100184386
  0
SOLID
  8
0
 62
7
  6
CONTINUOUS
 10
153.9674919177
 20
30.9809642992
 11
154.0831168074
 21
31.1100184386
 12
154.5456166972
 22
31.1100184386
 13
154.5456166972
 23
31.1100184386
  0
SOLID
  8
0
 62
7
  6
CONTINUOUS
 10
154.3143669177
 20
31.0132277988
 11
153.9674919177
 21
30.9809642992
 12
154.4299918074
 22
31.0777556927
 13
154.4299918074
 23
31.0777556927
  0
SOLID
  8
0
 62
7
  6
CONTINUOUS
 10
153.9674919177
 20
30.9809642992
 11
154.5456166972
 21
31.1100184796
 12
154.4299918074
 22
31.0777556927
 13
154.4299918074
 23
31.0777556927
  0
SOLID
  8
0
 62
7
  6
CONTINUOUS
 10
154.3143669177
 20
31.0132277988
 11
154.2565543074
 21
30.9164372091
 12
153.9674919177
 22
30.9809642992
 13
153.9674919177
 23
30.9809642992
  0
SOLID
  8
0
 62
7
  6
CONTINUOUS
 10
153.9674919177
 20
30.8841729058
 11
153.9674919177
 21
30.9809642992
 12
154.2565543074
 22
30.9164372091
 13
154.2565543074
 23
30.9164372091
  0
SOLID
  8
0
 62
7
  6
CONTINUOUS
 10
154.2565543074
 20
30.9164372091
 11
154.2565543074
 21
30.8519086025
 12
153.9674919177
 22
30.8841729058
 13
153.9674919177
 23
30.8841729058
  0
SOLID
  8
0
 62
7
  6
CONTINUOUS
 10
154.0253041972
 20
30.7551187255
 11
153.9674919177
 21
30.8841729058
 12
154.2565543074
 22
30.8519086025
 13
154.2565543074
 23
30.8519086025
  0
SOLID
  8
0
 62
7
  6
CONTINUOUS
 10
155.412804528
 20
30.9487004259
 11
155.7018665869
 21
30.8519086025
 12
155.3549915869
 22
30.8841729058
 13
155.3549915869
 23
30.8841729058
  0
SOLID
  8
0
 62
7
  6
CONTINUOUS
 10
155.1815540869
 20
30.7873815123
 11
155.3549915869
 21
30.8841729058
 12
155.7018665869
 22
30.8519086025
 13
155.7018665869
 23
30.8519086025
  0
SOLID
  8
0
 62
7
  6
CONTINUOUS
 10
155.1815540869
 20
30.7873815123
 11
155.7018665869
 21
30.8519086025
 12
155.412804528
 22
30.7551187255
 13
155.412804528
 23
30.7551187255
  0
SOLID
  8
0
 62
7
  6
CONTINUOUS
 10
155.7018665869
 20
30.8519086025
 11
155.759679528
 21
30.6905916353
 12
155.412804528
 22
30.7551187255
 13
155.412804528
 23
30.7551187255
  0
SOLID
  8
0
 62
7
  6
CONTINUOUS
 10
155.4706168074
 20
30.658327332
 11
155.412804528
 21
30.7551187255
 12
155.759679528
 22
30.6905916353
 13
155.759679528
 23
30.6905916353
  0
SOLID
  8
0
 62
7
  6
CONTINUOUS
 10
155.4706168074
 20
30.658327332
 11
155.759679528
 21
30.6905916353
 12
155.5284290869
 22
30.5938002079
 13
155.5284290869
 23
30.5938002079
  0
SOLID
  8
0
 62
7
  6
CONTINUOUS
 10
155.759679528
 20
30.6905916353
 11
155.8174918074
 21
30.5938002079
 12
155.5284290869
 22
30.5938002079
 13
155.5284290869
 23
30.5938002079
  0
SOLID
  8
0
 62
7
  6
CONTINUOUS
 10
151.0768668626
 20
30.8196456577
 11
151.1346793074
 21
30.9164373395
 12
151.4237418626
 22
30.9164373395
 13
151.4237418626
 23
30.9164373395
  0
SOLID
  8
0
 62
7
  6
CONTINUOUS
 10
151.4237418626
 20
30.9164373395
 11
151.3659292523
 21
30.7873815123
 12
151.0768668626
 22
30.8196456577
 13
151.0768668626
 23
30.8196456577
  0
SOLID
  8
0
 62
7
  6
CONTINUOUS
 10
150.9034292799
 20
30.7551187255
 11
151.0768668626
 21
30.8196456577
 12
151.3659292523
 22
30.7873815123
 13
151.3659292523
 23
30.7873815123
  0
SOLID
  8
0
 62
7
  6
CONTINUOUS
 10
150.9034292799
 20
30.7551187255
 11
151.3659292523
 21
30.7873815123
 12
150.498741835
 22
30.7228544222
 13
150.498741835
 23
30.7228544222
  0
SOLID
  8
0
 62
7
  6
CONTINUOUS
 10
151.3659292523
 20
30.7873815123
 11
151.1924917523
 21
30.6905916353
 12
150.498741835
 22
30.7228544222
 13
150.498741835
 23
30.7228544222
  0
SOLID
  8
0
 62
7
  6
CONTINUOUS
 10
150.0362418212
 20
30.658327332
 11
150.498741835
 21
30.7228544222
 12
151.1924917523
 22
30.6905916353
 13
151.1924917523
 23
30.6905916353
  0
SOLID
  8
0
 62
7
  6
CONTINUOUS
 10
150.0362418212
 20
30.658327332
 11
151.1924917523
 21
30.6905916353
 12
150.2096793212
 22
30.6260631011
 13
150.2096793212
 23
30.6260631011
  0
SOLID
  8
0
 62
7
  6
CONTINUOUS
 10
151.1924917523
 20
30.6905916353
 11
150.9612418074
 21
30.6260631011
 12
150.2096793212
 22
30.6260631011
 13
150.2096793212
 23
30.6260631011
  0
SOLID
  8
0
 62
7
  6
CONTINUOUS
 10
150.5565542799
 20
30.5938002419
 11
150.2096793212
 21
30.6260631011
 12
150.9612418074
 22
30.6260631011
 13
150.9612418074
 23
30.6260631011
  0
SOLID
  8
0
 62
7
  6
CONTINUOUS
 10
154.0253041972
 20
30.7551187255
 11
154.2565543074
 21
30.8519086025
 12
154.3143669177
 22
30.7873815123
 13
154.3143669177
 23
30.7873815123
  0
SOLID
  8
0
 62
7
  6
CONTINUOUS
 10
154.3143669177
 20
30.7873815123
 11
154.5456166972
 21
30.7228544222
 12
154.0253041972
 22
30.7551187255
 13
154.0253041972
 23
30.7551187255
  0
SOLID
  8
0
 62
7
  6
CONTINUOUS
 10
154.1987416972
 20
30.658327332
 11
154.0253041972
 21
30.7551187255
 12
154.5456166972
 22
30.7228544222
 13
154.5456166972
 23
30.7228544222
  0
SOLID
  8
0
 62
7
  6
CONTINUOUS
 10
154.8924916972
 20
30.7228544637
 11
155.1815540869
 21
30.7873815123
 12
155.412804528
 22
30.7551187255
 13
155.412804528
 23
30.7551187255
  0
SOLID
  8
0
 62
7
  6
CONTINUOUS
 10
155.412804528
 20
30.7551187255
 11
155.3549915869
 21
30.6905916353
 12
154.8924916972
 22
30.7228544637
 13
154.8924916972
 23
30.7228544637
  0
SOLID
  8
0
 62
7
  6
CONTINUOUS
 10
155.3549915869
 20
30.6905916353
 11
154.1987416972
 21
30.658327332
 12
154.8924916972
 22
30.7228544637
 13
154.8924916972
 23
30.7228544637
  0
SOLID
  8
0
 62
7
  6
CONTINUOUS
 10
154.1987416972
 20
30.658327332
 11
154.5456166972
 21
30.7228544637
 12
154.8924916972
 22
30.7228544637
 13
154.8924916972
 23
30.7228544637
  0
SOLID
  8
0
 62
7
  6
CONTINUOUS
 10
154.1987416972
 20
30.658327332
 11
155.3549915869
 21
30.6905916353
 12
154.3143669177
 22
30.6260630541
 13
154.3143669177
 23
30.6260630541
  0
SOLID
  8
0
 62
7
  6
CONTINUOUS
 10
155.3549915869
 20
30.6905916353
 11
155.1815540869
 21
30.6260630541
 12
154.3143669177
 22
30.6260630541
 13
154.3143669177
 23
30.6260630541
  0
SOLID
  8
0
 62
7
  6
CONTINUOUS
 10
154.5456166972
 20
30.5938002188
 11
154.3143669177
 21
30.6260630541
 12
155.1815540869
 22
30.6260630541
 13
155.1815540869
 23
30.6260630541
  0
SOLID
  8
0
 62
7
  6
CONTINUOUS
 10
155.1815540869
 20
30.6260630541
 11
154.8924916972
 21
30.5938002188
 12
154.5456166972
 22
30.5938002188
 13
154.5456166972
 23
30.5938002188
  0
SOLID
  8
0
 62
7
  6
CONTINUOUS
 10
159.575304528
 20
30.7551187255
 11
159.228429528
 21
30.7228544637
 12
159.4596793074
 22
30.7873815123
 13
159.4596793074
 23
30.7873815123
  0
SOLID
  8
0
 62
7
  6
CONTINUOUS
 10
159.4596793074
 20
30.7873815123
 11
159.228429528
 21
30.7228544637
 12
159.401867028
 22
30.851908644
 13
159.401867028
 23
30.851908644
  0
SOLID
  8
0
 62
7
  6
CONTINUOUS
 10
159.228429528
 20
30.7228544637
 11
159.1128043074
 21
30.851908644
 12
159.401867028
 22
30.851908644
 13
159.401867028
 23
30.851908644
  0
SOLID
  8
0
 62
7
  6
CONTINUOUS
 10
159.575304528
 20
30.7551187255
 11
159.922179528
 21
30.7228544637
 12
159.228429528
 22
30.7228544637
 13
159.228429528
 23
30.7228544637
  0
SOLID
  8
0
 62
7
  6
CONTINUOUS
 10
156.279992028
 20
30.5938002419
 11
156.279992028
 21
31.6262382337
 12
156.5690540869
 22
30.5938002419
 13
156.5690540869
 23
31.6262382337
  0
ENDBLK
  8
0
  6
BYBLOCK
 62
0
  0
BLOCK
  8
0
 62
2
  6
CONTINUOUS
  2
SYMBOL_3_BL0
 70
64
 10
32.1213064866
 20
19.8534310916
  0
TEXT
  8
0
 62
7
  6
CONTINUOUS
 10
18.3860103289
 20
19.2268451992
  7
TEXTSTYLE_3
 40
2.7338706658
  1
Ammeraal Beltech
 41
1.0
 51
15.0
 72
0
  0
TEXT
  8
0
 62
7
  6
CONTINUOUS
 10
29.1868111546
 20
16.9533085264
  7
TEXTSTYLE_4
 40
1.0935482663
  1
Innovation & Service in Belting
 41
1.0
 72
0
  0
LINE
  8
0
 62
7
  6
CONTINUOUS
 10
12.3614696776
 20
19.9934385078
 11
13.1396216709
 21
23.6543558055
  0
LINE
  8
0
 62
7
  6
CONTINUOUS
 10
23.2347899607
 20
27.3177497171
 11
13.6274394139
 21
24.1961322958
  0
LINE
  8
0
 62
7
  6
CONTINUOUS
 10
12.5867530099
 20
19.3000877048
 11
20.093828271
 21
12.5406867788
  0
LINE
  8
0
 62
7
  6
CONTINUOUS
 10
12.8492874206
 20
20.5352149982
 11
23.6575567857
 21
24.0470345971
  0
LINE
  8
0
 62
7
  6
CONTINUOUS
 10
23.6533516486
 20
13.6972460334
 11
15.2078919798
 21
21.3015720751
  0
LINE
  8
0
 62
7
  6
CONTINUOUS
 10
24.1731743684
 20
26.4728246013
 11
23.1966148312
 21
21.8784731989
  0
LINE
  8
0
 62
7
  6
CONTINUOUS
 10
22.4968128835
 20
18.5861638851
 11
21.810364672
 21
15.3566789607
  0
LINE
  8
0
 62
7
  6
CONTINUOUS
 10
24.8542704669
 20
14.087448211
 11
25.8105020025
 21
18.5861638851
  0
LINE
  8
0
 62
7
  6
CONTINUOUS
 10
26.5103039502
 20
21.8784731989
 11
26.9545457526
 21
23.9684665583
  0
LINE
  8
0
 62
7
  6
CONTINUOUS
 10
20.8069293463
 20
12.3891124661
 11
24.3664527239
 21
13.5456717207
  0
LINE
  8
0
 62
7
  6
CONTINUOUS
 10
23.9478910361
 20
27.1661754044
 11
26.7292624203
 21
24.6618173613
  0
ARC
  8
0
 62
7
  6
CONTINUOUS
 10
13.8527227462
 20
23.5027814928
 40
0.7290321776
 50
108.0
 51
168.0
  0
ARC
  8
0
 62
7
  6
CONTINUOUS
 10
23.4600732931
 20
26.624398914
 40
0.7290321776
 50
348.0
 51
108.0
  0
ARC
  8
0
 62
7
  6
CONTINUOUS
 10
26.2414446773
 20
24.120040871
 40
0.7290321776
 50
348.0
 51
48.0
  0
ARC
  8
0
 62
7
  6
CONTINUOUS
 10
20.581646014
 20
13.0824632691
 40
0.7290321776
 50
228.0
 51
288.0
  0
ARC
  8
0
 62
7
  6
CONTINUOUS
 10
13.0745707529
 20
19.8418641951
 40
0.7290321776
 50
108.0
 51
228.0
  0
ARC
  8
0
 62
7
  6
CONTINUOUS
 10
24.1411693916
 20
14.2390225237
 40
0.7290321776
 50
228.0
 51
348.0
  0
ENDBLK
  8
0
  6
BYBLOCK
 62
0
  0
ENDSEC
  0
SECTION
  2
ENTITIES
  0
TEXT
  8
0
 62
5
  6
CONTINUOUS
 10
96.0
 20
25.636
  7
TEXTSTYLE_2
 40
2.8
  1
Scale :
 41
0.6
 51
0.000019
 72
0
  0
TEXT
  8
0
 62
5
  6
CONTINUOUS
 10
116.0
 20
25.636
  7
TEXTSTYLE_2
 40
2.8
  1
Belt type:
 41
0.6
 51
0.000019
 72
0
  0
INSERT
  8
0
 62
2
  6
CONTINUOUS
  2
SYMBOL_3_BL0
 10
32.1213064866
 20
19.8534310916
  0
INSERT
  8
0
 62
2
  6
CONTINUOUS
  2
SYMBOL_8_BL1
 10
173.5956734183
 20
35.5937998301
  0
LINE
  8
0
 62
2
  6
CONTINUOUS
 10
10.0
 20
30.0
 11
200.0
 21
30.0
  0
LINE
  8
0
 62
2
  6
CONTINUOUS
 10
10.0
 20
30.0
 11
10.0
 21
10.0
  0
LINE
  8
0
 62
2
  6
CONTINUOUS
 10
10.0
 20
10.0
 11
200.0
 21
10.0
  0
LINE
  8
0
 62
2
  6
CONTINUOUS
 10
95.0
 20
30.0
 11
95.0
 21
10.0
  0
LINE
  8
0
 62
2
  6
CONTINUOUS
 10
115.0
 20
30.0
 11
115.0
 21
10.0
  0
LINE
  8
0
 62
2
  6
CONTINUOUS
 10
200.0
 20
30.0
 11
200.0
 21
10.0
  0
TEXT
  8
0
 62
5
  6
CONTINUOUS
 10
13.0
 20
23.303
  7
TEXTSTYLE_5
 40
1.52
  1
                                                                     Ammeraal Beltech Modular A/S
 41
1.0
 72
0
  0
TEXT
  8
0
 62
5
  6
CONTINUOUS
 10
13.0
 20
20.595
  7
TEXTSTYLE_5
 40
1.5
  1
                                                                      Hjulmagervej 21,  7100 Vejle,  DK
 41
1.0
 72
0
  0
TEXT
  8
0
 62
5
  6
CONTINUOUS
 10
13.0
 20
17.881
  7
TEXTSTYLE_5
 40
1.495
  1
                                                                      tel: 
 41
1.0
 72
0
  0
TEXT
  8
0
 62
5
  6
CONTINUOUS
 10
57.9869465649
 20
17.881
  7
TEXTSTYLE_5
 40
1.51
  1
+45 75723100     fax: +45 75723348
 41
1.0
 72
0
  0
TEXT
  8
0
 62
5
  6
CONTINUOUS
 10
13.0
 20
15.177
  7
TEXTSTYLE_5
 40
1.5
  1
                                                                      admin@unichains.dk  www.unichains.com
 41
1.0
 72
0
  0
TEXT
  8
0
 62
5
  6
CONTINUOUS
 10
99.75
 20
13.75
  7
TEXTSTYLE_6
 40
5.0
  1
1:1
 41
0.7
 72
1
 11
105.0
 21
13.75
  0
TEXT
  8
0
 62
5
  6
CONTINUOUS
 10
118.0
 20
13.75
  7
TEXTSTYLE_7
 40
7.5
  1
Sprocket Z08
 41
0.6694444444
 72
0
  0
LINE
  8
0
 62
7
  6
CONTINUOUS
 10
210.0
 20
0.0
 11
0.0
 21
0.0
  0
LINE
  8
0
 62
7
  6
CONTINUOUS
 10
10.0
 20
10.0
 11
200.0
 21
10.0
  0
LINE
  8
0
 62
7
  6
CONTINUOUS
 10
10.0
 20
30.0
 11
200.0
 21
30.0
  0
LINE
  8
0
 62
7
  6
CONTINUOUS
 10
0.0
 20
0.0
 11
0.0
 21
297.0
  0
LINE
  8
0
 62
7
  6
CONTINUOUS
 10
10.0
 20
10.0
 11
10.0
 21
287.0
  0
LINE
  8
0
 62
7
  6
CONTINUOUS
 10
200.0
 20
287.0
 11
200.0
 21
10.0
  0
LINE
  8
0
 62
7
  6
CONTINUOUS
 10
210.0
 20
0.0
 11
210.0
 21
297.0
  0
LINE
  8
0
 62
7
  6
CONTINUOUS
 10
10.0
 20
287.0
 11
200.0
 21
287.0
  0
LINE
  8
0
 62
7
  6
CONTINUOUS
 10
0.0
 20
297.0
 11
210.0
 21
297.0
  0
LINE
  8
0
 62
7
  6
CONTINUOUS
 10
36.80845186
 20
76.6991715036
 11
36.80845186
 21
66.6624258705
  0
POLYLINE
  8
0
 62
7
  6
CONTINUOUS
 66
1
 70
0
  0
VERTEX
  8
0
 62
7
  6
CONTINUOUS
 10
36.8983423539
 20
66.6624258705
  0
VERTEX
  8
0
 62
7
  6
CONTINUOUS
 10
36.9201368071
 20
66.516768364
  0
VERTEX
  8
0
 62
7
  6
CONTINUOUS
 10
36.9655823134
 20
66.368826386
  0
VERTEX
  8
0
 62
7
  6
CONTINUOUS
 10
37.0331587947
 20
66.2278678676
  0
VERTEX
  8
0
 62
7
  6
CONTINUOUS
 10
37.1179187768
 20
66.1013562044
  0
VERTEX
  8
0
 62
7
  6
CONTINUOUS
 10
37.2158450738
 20
65.9910106647
  0
VERTEX
  8
0
 62
7
  6
CONTINUOUS
 10
37.3242996702
 20
65.8966881106
  0
VERTEX
  8
0
 62
7
  6
CONTINUOUS
 10
37.4421490726
 20
65.8176647649
  0
VERTEX
  8
0
 62
7
  6
CONTINUOUS
 10
37.5669039222
 20
65.7546359794
  0
VERTEX
  8
0
 62
7
  6
CONTINUOUS
 10
37.692257208
 20
65.7091148279
  0
VERTEX
  8
0
 62
7
  6
CONTINUOUS
 10
37.8099659678
 20
65.6807986871
  0
SEQEND
  0
LINE
  8
0
 62
7
  6
CONTINUOUS
 10
50.30845186
 20
86.6807986871
 11
50.30845186
 21
79.1807986871
  0
LINE
  8
0
 62
7
  6
CONTINUOUS
 10
50.30845186
 20
64.1807986871
 11
50.30845186
 21
56.6807986871
  0
LINE
  8
0
 62
7
  6
CONTINUOUS
 10
50.6413545054
 20
86.6807986871
 11
50.6413545054
 21
79.1807986871
  0
LINE
  8
0
 62
7
  6
CONTINUOUS
 10
50.6413545054
 20
64.1807986871
 11
50.6413545054
 21
56.6807986871
  0
LINE
  8
0
 62
7
  6
CONTINUOUS
 10
53.6103433225
 20
77.5644108193
 11
53.6103433225
 21
65.797216783
  0
POLYLINE
  8
0
 62
7
  6
CONTINUOUS
 66
1
 70
0
  0
VERTEX
  8
0
 62
7
  6
CONTINUOUS
 10
53.6103435291
 20
65.7954113557
  0
VERTEX
  8
0
 62
7
  6
CONTINUOUS
 10
53.6111339392
 20
65.8176024685
  0
VERTEX
  8
0
 62
7
  6
CONTINUOUS
 10
53.6243271693
 20
65.8966093875
  0
VERTEX
  8
0
 62
7
  6
CONTINUOUS
 10
53.6549737497
 20
65.9909348792
  0
VERTEX
  8
0
 62
7
  6
CONTINUOUS
 10
53.7053240917
 20
66.1012786432
  0
VERTEX
  8
0
 62
7
  6
CONTINUOUS
 10
53.7779908908
 20
66.2277614233
  0
VERTEX
  8
0
 62
7
  6
CONTINUOUS
 10
53.874805641
 20
66.3686749046
  0
VERTEX
  8
0
 62
7
  6
CONTINUOUS
 10
53.9927762364
 20
66.5166203632
  0
VERTEX
  8
0
 62
7
  6
CONTINUOUS
 10
54.1249494929
 20
66.6624258705
  0
SEQEND
  0
POLYLINE
  8
0
 62
7
  6
CONTINUOUS
 66
1
 70
0
  0
VERTEX
  8
0
 62
7
  6
CONTINUOUS
 10
53.6103435385
 20
77.5661916173
  0
VERTEX
  8
0
 62
7
  6
CONTINUOUS
 10
53.613963942
 20
77.6078939103
  0
VERTEX
  8
0
 62
7
  6
CONTINUOUS
 10
53.630133782
 20
77.6529733114
  0
VERTEX
  8
0
 62
7
  6
CONTINUOUS
 10
53.6549377158
 20
77.6807986871
  0
SEQEND
  0
LINE
  8
0
 62
7
  6
CONTINUOUS
 10
62.0760165846
 20
86.6807986871
 11
62.0760165846
 21
79.1807986871
  0
LINE
  8
0
 62
7
  6
CONTINUOUS
 10
62.0760165846
 20
64.1807986871
 11
62.0760165846
 21
56.6807986871
  0
POLYLINE
  8
0
 62
7
  6
CONTINUOUS
 66
1
 70
0
  0
VERTEX
  8
0
 62
7
  6
CONTINUOUS
 10
53.6549377158
 20
65.6807986871
  0
VERTEX
  8
0
 62
7
  6
CONTINUOUS
 10
53.6298423951
 20
65.709119081
  0
VERTEX
  8
0
 62
7
  6
CONTINUOUS
 10
53.6137957274
 20
65.7546126865
  0
VERTEX
  8
0
 62
7
  6
CONTINUOUS
 10
53.6103435291
 20
65.7954113557
  0
SEQEND
  0
LINE
  8
0
 62
7
  6
CONTINUOUS
 10
70.5269929157
 20
86.6807986871
 11
70.5269929157
 21
79.1807986871
  0
LINE
  8
0
 62
7
  6
CONTINUOUS
 10
70.5269929157
 20
64.1807986871
 11
70.5269929157
 21
56.6807986871
  0
POLYLINE
  8
0
 62
7
  6
CONTINUOUS
 66
1
 70
0
  0
VERTEX
  8
0
 62
7
  6
CONTINUOUS
 10
53.6549377158
 20
77.6807986871
  0
VERTEX
  8
0
 62
7
  6
CONTINUOUS
 10
53.7010975381
 20
77.7098291221
  0
VERTEX
  8
0
 62
7
  6
CONTINUOUS
 10
53.7630940168
 20
77.7405789144
  0
VERTEX
  8
0
 62
7
  6
CONTINUOUS
 10
53.8405136234
 20
77.7728254306
  0
VERTEX
  8
0
 62
7
  6
CONTINUOUS
 10
53.9327661064
 20
77.8063085551
  0
SEQEND
  0
POLYLINE
  8
0
 62
7
  6
CONTINUOUS
 66
1
 70
0
  0
VERTEX
  8
0
 62
7
  6
CONTINUOUS
 10
59.0425058351
 20
66.6624258705
  0
VERTEX
  8
0
 62
7
  6
CONTINUOUS
 10
59.2053749596
 20
66.516768364
  0
VERTEX
  8
0
 62
7
  6
CONTINUOUS
 10
59.3876289388
 20
66.368826386
  0
VERTEX
  8
0
 62
7
  6
CONTINUOUS
 10
59.5800565842
 20
66.2278678676
  0
VERTEX
  8
0
 62
7
  6
CONTINUOUS
 10
59.7726192049
 20
66.1013562044
  0
VERTEX
  8
0
 62
7
  6
CONTINUOUS
 10
59.961468524
 20
65.9910106647
  0
VERTEX
  8
0
 62
7
  6
CONTINUOUS
 10
60.1455031132
 20
65.8966881106
  0
VERTEX
  8
0
 62
7
  6
CONTINUOUS
 10
60.3253758549
 20
65.8176647649
  0
VERTEX
  8
0
 62
7
  6
CONTINUOUS
 10
60.4991526851
 20
65.7546359794
  0
VERTEX
  8
0
 62
7
  6
CONTINUOUS
 10
60.6603755983
 20
65.7091148279
  0
VERTEX
  8
0
 62
7
  6
CONTINUOUS
 10
60.8017480906
 20
65.6807986871
  0
SEQEND
  0
POLYLINE
  8
0
 62
7
  6
CONTINUOUS
 66
1
 70
0
  0
VERTEX
  8
0
 62
7
  6
CONTINUOUS
 10
54.1249494929
 20
76.6991715036
  0
VERTEX
  8
0
 62
7
  6
CONTINUOUS
 10
53.99242176
 20
76.8453930117
  0
VERTEX
  8
0
 62
7
  6
CONTINUOUS
 10
53.8741763062
 20
76.9937709776
  0
VERTEX
  8
0
 62
7
  6
CONTINUOUS
 10
53.7773586349
 20
77.1348397945
  0
VERTEX
  8
0
 62
7
  6
CONTINUOUS
 10
53.7048438293
 20
77.2612512008
  0
VERTEX
  8
0
 62
7
  6
CONTINUOUS
 10
53.6546256281
 20
77.371551997
  0
VERTEX
  8
0
 62
7
  6
CONTINUOUS
 10
53.6240966171
 20
77.4659145929
  0
VERTEX
  8
0
 62
7
  6
CONTINUOUS
 10
53.6110650698
 20
77.5449988735
  0
VERTEX
  8
0
 62
7
  6
CONTINUOUS
 10
53.6103435385
 20
77.5661916173
  0
SEQEND
  0
POLYLINE
  8
0
 62
7
  6
CONTINUOUS
 66
1
 70
0
  0
VERTEX
  8
0
 62
7
  6
CONTINUOUS
 10
53.6549377158
 20
65.6807986871
  0
VERTEX
  8
0
 62
7
  6
CONTINUOUS
 10
53.7010975381
 20
65.6517682521
  0
VERTEX
  8
0
 62
7
  6
CONTINUOUS
 10
53.7630940168
 20
65.6210184598
  0
VERTEX
  8
0
 62
7
  6
CONTINUOUS
 10
53.8405136234
 20
65.5887719436
  0
VERTEX
  8
0
 62
7
  6
CONTINUOUS
 10
53.9327661064
 20
65.5552888191
  0
SEQEND
  0
POLYLINE
  8
0
 62
7
  6
CONTINUOUS
 66
1
 70
0
  0
VERTEX
  8
0
 62
7
  6
CONTINUOUS
 10
53.9327661064
 20
77.8063085551
  0
VERTEX
  8
0
 62
7
  6
CONTINUOUS
 10
54.4519749536
 20
77.97745735
  0
VERTEX
  8
0
 62
7
  6
CONTINUOUS
 10
55.0155964771
 20
78.1509993473
  0
VERTEX
  8
0
 62
7
  6
CONTINUOUS
 10
55.6217184871
 20
78.3264192998
  0
VERTEX
  8
0
 62
7
  6
CONTINUOUS
 10
56.2681538276
 20
78.5031352509
  0
VERTEX
  8
0
 62
7
  6
CONTINUOUS
 10
56.9524567191
 20
78.6805098458
  0
VERTEX
  8
0
 62
7
  6
CONTINUOUS
 10
57.6720359921
 20
78.8578813565
  0
SEQEND
  0
POLYLINE
  8
0
 62
7
  6
CONTINUOUS
 66
1
 70
0
  0
VERTEX
  8
0
 62
7
  6
CONTINUOUS
 10
65.4292849492
 20
78.8578813565
  0
VERTEX
  8
0
 62
7
  6
CONTINUOUS
 10
65.6678775966
 20
78.934842205
  0
VERTEX
  8
0
 62
7
  6
CONTINUOUS
 10
65.9147291972
 20
79.0118780115
  0
VERTEX
  8
0
 62
7
  6
CONTINUOUS
 10
66.1696639645
 20
79.0889346043
  0
SEQEND
  0
POLYLINE
  8
0
 62
7
  6
CONTINUOUS
 66
1
 70
0
  0
VERTEX
  8
0
 62
7
  6
CONTINUOUS
 10
65.4292849492
 20
78.8578813565
  0
VERTEX
  8
0
 62
7
  6
CONTINUOUS
 10
64.8675656557
 20
78.6805497347
  0
VERTEX
  8
0
 62
7
  6
CONTINUOUS
 10
64.2634187483
 20
78.5032009579
  0
VERTEX
  8
0
 62
7
  6
CONTINUOUS
 10
63.619117351
 20
78.3264878433
  0
VERTEX
  8
0
 62
7
  6
CONTINUOUS
 10
62.937123348
 20
78.1510401412
  0
VERTEX
  8
0
 62
7
  6
CONTINUOUS
 10
62.2200598637
 20
77.9774584455
  0
VERTEX
  8
0
 62
7
  6
CONTINUOUS
 10
61.4706757411
 20
77.8063085551
  0
SEQEND
  0
POLYLINE
  8
0
 62
7
  6
CONTINUOUS
 66
1
 70
0
  0
VERTEX
  8
0
 62
7
  6
CONTINUOUS
 10
170.4069377521
 20
65.6807986871
  0
VERTEX
  8
0
 62
7
  6
CONTINUOUS
 10
170.5246607798
 20
65.709119081
  0
VERTEX
  8
0
 62
7
  6
CONTINUOUS
 10
170.6499457283
 20
65.7546126865
  0
VERTEX
  8
0
 62
7
  6
CONTINUOUS
 10
170.7746480121
 20
65.8176024685
  0
VERTEX
  8
0
 62
7
  6
CONTINUOUS
 10
170.8925010561
 20
65.8966093875
  0
VERTEX
  8
0
 62
7
  6
CONTINUOUS
 10
171.000981909
 20
65.9909348792
  0
VERTEX
  8
0
 62
7
  6
CONTINUOUS
 10
171.098924784
 20
66.1012786432
  0
VERTEX
  8
0
 62
7
  6
CONTINUOUS
 10
171.1836839279
 20
66.2277614233
  0
VERTEX
  8
0
 62
7
  6
CONTINUOUS
 10
171.2512621178
 20
66.3686749046
  0
VERTEX
  8
0
 62
7
  6
CONTINUOUS
 10
171.2967334571
 20
66.5166203632
  0
VERTEX
  8
0
 62
7
  6
CONTINUOUS
 10
171.318561366
 20
66.6624258705
  0
SEQEND
  0
POLYLINE
  8
0
 62
7
  6
CONTINUOUS
 66
1
 70
0
  0
VERTEX
  8
0
 62
7
  6
CONTINUOUS
 10
53.9327661064
 20
65.5552888191
  0
VERTEX
  8
0
 62
7
  6
CONTINUOUS
 10
54.4519749536
 20
65.3841400242
  0
VERTEX
  8
0
 62
7
  6
CONTINUOUS
 10
55.0155964771
 20
65.2105980269
  0
VERTEX
  8
0
 62
7
  6
CONTINUOUS
 10
55.6217184871
 20
65.0351780744
  0
VERTEX
  8
0
 62
7
  6
CONTINUOUS
 10
56.2681538276
 20
64.8584621233
  0
VERTEX
  8
0
 62
7
  6
CONTINUOUS
 10
56.9524567191
 20
64.6810875284
  0
VERTEX
  8
0
 62
7
  6
CONTINUOUS
 10
57.6720359921
 20
64.5037160177
  0
SEQEND
  0
POLYLINE
  8
0
 62
7
  6
CONTINUOUS
 66
1
 70
0
  0
VERTEX
  8
0
 62
7
  6
CONTINUOUS
 10
150.5448677279
 20
64.5037160177
  0
VERTEX
  8
0
 62
7
  6
CONTINUOUS
 10
151.2642891426
 20
64.6810476394
  0
VERTEX
  8
0
 62
7
  6
CONTINUOUS
 10
151.9485029457
 20
64.8583964162
  0
VERTEX
  8
0
 62
7
  6
CONTINUOUS
 10
152.5949414095
 20
65.0351095308
  0
VERTEX
  8
0
 62
7
  6
CONTINUOUS
 10
153.2011704898
 20
65.210557233
  0
VERTEX
  8
0
 62
7
  6
CONTINUOUS
 10
153.7649253246
 20
65.3841389287
  0
VERTEX
  8
0
 62
7
  6
CONTINUOUS
 10
154.2841376135
 20
65.5552888191
  0
SEQEND
  0
POLYLINE
  8
0
 62
7
  6
CONTINUOUS
 66
1
 70
0
  0
VERTEX
  8
0
 62
7
  6
CONTINUOUS
 10
150.5448677279
 20
64.5037160177
  0
VERTEX
  8
0
 62
7
  6
CONTINUOUS
 10
150.2283122395
 20
64.4267551692
  0
VERTEX
  8
0
 62
7
  6
CONTINUOUS
 10
149.9181335862
 20
64.3497193626
  0
VERTEX
  8
0
 62
7
  6
CONTINUOUS
 10
149.6145541217
 20
64.2726627699
  0
SEQEND
  0
POLYLINE
  8
0
 62
7
  6
CONTINUOUS
 66
1
 70
0
  0
VERTEX
  8
0
 62
7
  6
CONTINUOUS
 10
146.7462279788
 20
65.5552888191
  0
VERTEX
  8
0
 62
7
  6
CONTINUOUS
 10
145.9968485168
 20
65.3841400242
  0
VERTEX
  8
0
 62
7
  6
CONTINUOUS
 10
145.2799439062
 20
65.2105980269
  0
VERTEX
  8
0
 62
7
  6
CONTINUOUS
 10
144.598044533
 20
65.0351780744
  0
VERTEX
  8
0
 62
7
  6
CONTINUOUS
 10
143.9537166689
 20
64.8584621233
  0
VERTEX
  8
0
 62
7
  6
CONTINUOUS
 10
143.3494691836
 20
64.6810875284
  0
VERTEX
  8
0
 62
7
  6
CONTINUOUS
 10
142.7876187707
 20
64.5037160177
  0
SEQEND
  0
POLYLINE
  8
0
 62
7
  6
CONTINUOUS
 66
1
 70
0
  0
VERTEX
  8
0
 62
7
  6
CONTINUOUS
 10
149.6145541217
 20
64.2726627699
  0
VERTEX
  8
0
 62
7
  6
CONTINUOUS
 10
149.3774274097
 20
64.2216893815
  0
VERTEX
  8
0
 62
7
  6
CONTINUOUS
 10
149.1426369662
 20
64.191025741
  0
VERTEX
  8
0
 62
7
  6
CONTINUOUS
 10
148.9113752002
 20
64.1807986871
  0
SEQEND
  0
LINE
  8
0
 62
7
  6
CONTINUOUS
 10
163.1128995454
 20
64.2726627699
 11
165.2003652478
 21
64.6810875284
  0
LINE
  8
0
 62
7
  6
CONTINUOUS
 10
170.5992608553
 20
65.6807986871
 11
163.3550295673
 21
64.2726627699
  0
POLYLINE
  8
0
 62
7
  6
CONTINUOUS
 66
1
 70
0
  0
VERTEX
  8
0
 62
7
  6
CONTINUOUS
 10
168.8404527393
 20
65.3841400242
  0
VERTEX
  8
0
 62
7
  6
CONTINUOUS
 10
167.9349840265
 20
65.2105980269
  0
VERTEX
  8
0
 62
7
  6
CONTINUOUS
 10
167.0242153721
 20
65.0351780744
  0
VERTEX
  8
0
 62
7
  6
CONTINUOUS
 10
166.1115079572
 20
64.8584621233
  0
VERTEX
  8
0
 62
7
  6
CONTINUOUS
 10
165.2003652478
 20
64.6810875284
  0
SEQEND
  0
LINE
  8
0
 62
7
  6
CONTINUOUS
 10
170.0853697182
 20
65.6210184598
 11
168.8404527393
 21
65.3841400242
  0
LINE
  8
0
 62
7
  6
CONTINUOUS
 10
170.4069377521
 20
65.6807986871
 11
170.0853697182
 21
65.6210184598
  0
LINE
  8
0
 62
7
  6
CONTINUOUS
 10
50.3084568959
 20
56.6807986871
 11
157.9084468241
 21
56.6807986871
  0
POLYLINE
  8
0
 62
7
  6
CONTINUOUS
 66
1
 70
0
  0
VERTEX
  8
0
 62
7
  6
CONTINUOUS
 10
45.1040041745
 20
64.2726627699
  0
VERTEX
  8
0
 62
7
  6
CONTINUOUS
 10
45.4193858421
 20
64.2216893815
  0
VERTEX
  8
0
 62
7
  6
CONTINUOUS
 10
45.7379942999
 20
64.191025741
  0
SEQEND
  0
LINE
  8
0
 62
7
  6
CONTINUOUS
 10
38.3029428106
 20
65.5887612897
 11
37.8099659678
 21
65.6807986871
  0
LINE
  8
0
 62
7
  6
CONTINUOUS
 10
37.6176428646
 20
65.6807986871
 11
44.8618741526
 21
64.2726627699
  0
POLYLINE
  8
0
 62
7
  6
CONTINUOUS
 66
1
 70
0
  0
VERTEX
  8
0
 62
7
  6
CONTINUOUS
 10
43.01674281
 20
64.6810476394
  0
VERTEX
  8
0
 62
7
  6
CONTINUOUS
 10
42.1057342151
 20
64.8583964162
  0
VERTEX
  8
0
 62
7
  6
CONTINUOUS
 10
41.1930433065
 20
65.0351095308
  0
VERTEX
  8
0
 62
7
  6
CONTINUOUS
 10
40.2821320287
 20
65.210557233
  0
VERTEX
  8
0
 62
7
  6
CONTINUOUS
 10
39.3764567097
 20
65.3841389287
  0
VERTEX
  8
0
 62
7
  6
CONTINUOUS
 10
38.3029428106
 20
65.5887612897
  0
SEQEND
  0
LINE
  8
0
 62
7
  6
CONTINUOUS
 10
43.01674281
 20
64.6810476394
 11
45.1040041745
 21
64.2726627699
  0
POLYLINE
  8
0
 62
7
  6
CONTINUOUS
 66
1
 70
0
  0
VERTEX
  8
0
 62
7
  6
CONTINUOUS
 10
61.4706757411
 20
65.5552888191
  0
VERTEX
  8
0
 62
7
  6
CONTINUOUS
 10
61.3133192195
 20
65.5887612897
  0
VERTEX
  8
0
 62
7
  6
CONTINUOUS
 10
61.1483858645
 20
65.6210131712
  0
VERTEX
  8
0
 62
7
  6
CONTINUOUS
 10
60.9773711077
 20
65.6517725195
  0
VERTEX
  8
0
 62
7
  6
CONTINUOUS
 10
60.8017480906
 20
65.6807986871
  0
SEQEND
  0
POLYLINE
  8
0
 62
7
  6
CONTINUOUS
 66
1
 70
0
  0
VERTEX
  8
0
 62
7
  6
CONTINUOUS
 10
66.1696639645
 20
64.2726627699
  0
VERTEX
  8
0
 62
7
  6
CONTINUOUS
 10
66.3785542842
 20
64.2216893815
  0
VERTEX
  8
0
 62
7
  6
CONTINUOUS
 10
66.5943442428
 20
64.191025741
  0
VERTEX
  8
0
 62
7
  6
CONTINUOUS
 10
66.81612782
 20
64.1807986871
  0
SEQEND
  0
POLYLINE
  8
0
 62
7
  6
CONTINUOUS
 66
1
 70
0
  0
VERTEX
  8
0
 62
7
  6
CONTINUOUS
 10
58.6023495982
 20
64.2726627699
  0
VERTEX
  8
0
 62
7
  6
CONTINUOUS
 10
58.2987730035
 20
64.3497186421
  0
VERTEX
  8
0
 62
7
  6
CONTINUOUS
 10
57.9885935175
 20
64.4267546687
  0
VERTEX
  8
0
 62
7
  6
CONTINUOUS
 10
57.6720359921
 20
64.5037160177
  0
SEQEND
  0
POLYLINE
  8
0
 62
7
  6
CONTINUOUS
 66
1
 70
0
  0
VERTEX
  8
0
 62
7
  6
CONTINUOUS
 10
65.4292849492
 20
64.5037160177
  0
VERTEX
  8
0
 62
7
  6
CONTINUOUS
 10
64.8675656557
 20
64.6810476394
  0
VERTEX
  8
0
 62
7
  6
CONTINUOUS
 10
64.2634187483
 20
64.8583964162
  0
VERTEX
  8
0
 62
7
  6
CONTINUOUS
 10
63.619117351
 20
65.0351095308
  0
VERTEX
  8
0
 62
7
  6
CONTINUOUS
 10
62.937123348
 20
65.210557233
  0
VERTEX
  8
0
 62
7
  6
CONTINUOUS
 10
62.2200598637
 20
65.3841389287
  0
VERTEX
  8
0
 62
7
  6
CONTINUOUS
 10
61.4706757411
 20
65.5552888191
  0
SEQEND
  0
POLYLINE
  8
0
 62
7
  6
CONTINUOUS
 66
1
 70
0
  0
VERTEX
  8
0
 62
7
  6
CONTINUOUS
 10
65.4292849492
 20
64.5037160177
  0
VERTEX
  8
0
 62
7
  6
CONTINUOUS
 10
65.6678775966
 20
64.4267551692
  0
VERTEX
  8
0
 62
7
  6
CONTINUOUS
 10
65.9147291972
 20
64.3497193626
  0
VERTEX
  8
0
 62
7
  6
CONTINUOUS
 10
66.1696639645
 20
64.2726627699
  0
SEQEND
  0
POLYLINE
  8
0
 62
7
  6
CONTINUOUS
 66
1
 70
0
  0
VERTEX
  8
0
 62
7
  6
CONTINUOUS
 10
147.4151556293
 20
65.6807986871
  0
VERTEX
  8
0
 62
7
  6
CONTINUOUS
 10
147.556545811
 20
65.709119081
  0
VERTEX
  8
0
 62
7
  6
CONTINUOUS
 10
147.7176788166
 20
65.7546126865
  0
VERTEX
  8
0
 62
7
  6
CONTINUOUS
 10
147.8913726894
 20
65.8176024685
  0
VERTEX
  8
0
 62
7
  6
CONTINUOUS
 10
148.0712352926
 20
65.8966093875
  0
VERTEX
  8
0
 62
7
  6
CONTINUOUS
 10
148.2552969665
 20
65.9909348792
  0
VERTEX
  8
0
 62
7
  6
CONTINUOUS
 10
148.4441594508
 20
66.1012786432
  0
VERTEX
  8
0
 62
7
  6
CONTINUOUS
 10
148.6366937806
 20
66.2277614233
  0
VERTEX
  8
0
 62
7
  6
CONTINUOUS
 10
148.8290785236
 20
66.3686749046
  0
VERTEX
  8
0
 62
7
  6
CONTINUOUS
 10
149.0113553037
 20
66.5166203632
  0
VERTEX
  8
0
 62
7
  6
CONTINUOUS
 10
149.1743978848
 20
66.6624258705
  0
SEQEND
  0
POLYLINE
  8
0
 62
7
  6
CONTINUOUS
 66
1
 70
0
  0
VERTEX
  8
0
 62
7
  6
CONTINUOUS
 10
147.4151556293
 20
65.6807986871
  0
VERTEX
  8
0
 62
7
  6
CONTINUOUS
 10
147.2395078662
 20
65.6517682521
  0
VERTEX
  8
0
 62
7
  6
CONTINUOUS
 10
147.0685460555
 20
65.6210184598
  0
VERTEX
  8
0
 62
7
  6
CONTINUOUS
 10
146.9036367486
 20
65.5887719436
  0
VERTEX
  8
0
 62
7
  6
CONTINUOUS
 10
146.7462279788
 20
65.5552888191
  0
SEQEND
  0
POLYLINE
  8
0
 62
7
  6
CONTINUOUS
 66
1
 70
0
  0
VERTEX
  8
0
 62
7
  6
CONTINUOUS
 10
98.44745186
 20
64.951720298
  0
VERTEX
  8
0
 62
7
  6
CONTINUOUS
 10
98.4551096519
 20
64.8584621233
  0
VERTEX
  8
0
 62
7
  6
CONTINUOUS
 10
98.5117173725
 20
64.6810875284
  0
VERTEX
  8
0
 62
7
  6
CONTINUOUS
 10
98.623248519
 20
64.5037160177
  0
SEQEND
  0
LINE
  8
0
 62
7
  6
CONTINUOUS
 10
98.1327091886
 20
86.6807986871
 11
98.1327091886
 21
79.1807986871
  0
LINE
  8
0
 62
7
  6
CONTINUOUS
 10
98.1327091886
 20
64.1807986871
 11
98.1327091886
 21
56.6807986871
  0
LINE
  8
0
 62
7
  6
CONTINUOUS
 10
98.44745186
 20
78.4100010314
 11
98.44745186
 21
64.9515963428
  0
POLYLINE
  8
0
 62
7
  6
CONTINUOUS
 66
1
 70
0
  0
VERTEX
  8
0
 62
7
  6
CONTINUOUS
 10
98.44745186
 20
78.4098770762
  0
VERTEX
  8
0
 62
7
  6
CONTINUOUS
 10
98.4551096519
 20
78.5031352509
  0
VERTEX
  8
0
 62
7
  6
CONTINUOUS
 10
98.5117173725
 20
78.6805098458
  0
VERTEX
  8
0
 62
7
  6
CONTINUOUS
 10
98.623248519
 20
78.8578813565
  0
SEQEND
  0
POLYLINE
  8
0
 62
7
  6
CONTINUOUS
 66
1
 70
0
  0
VERTEX
  8
0
 62
7
  6
CONTINUOUS
 10
98.7575525562
 20
79.0889346043
  0
VERTEX
  8
0
 62
7
  6
CONTINUOUS
 10
98.7775186287
 20
79.1399078173
  0
VERTEX
  8
0
 62
7
  6
CONTINUOUS
 10
98.7909540314
 20
79.1705715501
  0
VERTEX
  8
0
 62
7
  6
CONTINUOUS
 10
98.7976561639
 20
79.1807986871
  0
SEQEND
  0
POLYLINE
  8
0
 62
7
  6
CONTINUOUS
 66
1
 70
0
  0
VERTEX
  8
0
 62
7
  6
CONTINUOUS
 10
98.7575525562
 20
79.0889346043
  0
VERTEX
  8
0
 62
7
  6
CONTINUOUS
 10
98.7231559311
 20
79.011878732
  0
VERTEX
  8
0
 62
7
  6
CONTINUOUS
 10
98.6783768973
 20
78.9348427055
  0
VERTEX
  8
0
 62
7
  6
CONTINUOUS
 10
98.623248519
 20
78.8578813565
  0
SEQEND
  0
POLYLINE
  8
0
 62
7
  6
CONTINUOUS
 66
1
 70
0
  0
VERTEX
  8
0
 62
7
  6
CONTINUOUS
 10
109.1620099398
 20
77.6807986871
  0
VERTEX
  8
0
 62
7
  6
CONTINUOUS
 10
109.0809409677
 20
77.6529381118
  0
VERTEX
  8
0
 62
7
  6
CONTINUOUS
 10
108.9789915388
 20
77.6078587872
  0
VERTEX
  8
0
 62
7
  6
CONTINUOUS
 10
108.85807171
 20
77.5450013884
  0
VERTEX
  8
0
 62
7
  6
CONTINUOUS
 10
108.7213508437
 20
77.4659592189
  0
VERTEX
  8
0
 62
7
  6
CONTINUOUS
 10
108.5693842889
 20
77.3716000825
  0
VERTEX
  8
0
 62
7
  6
CONTINUOUS
 10
108.400218722
 20
77.261284154
  0
VERTEX
  8
0
 62
7
  6
CONTINUOUS
 10
108.2127411405
 20
77.134860729
  0
VERTEX
  8
0
 62
7
  6
CONTINUOUS
 10
108.008030122
 20
76.9938140974
  0
VERTEX
  8
0
 62
7
  6
CONTINUOUS
 10
107.5856892964
 20
76.6991715036
  0
SEQEND
  0
POLYLINE
  8
0
 62
7
  6
CONTINUOUS
 66
1
 70
0
  0
VERTEX
  8
0
 62
7
  6
CONTINUOUS
 10
141.4007758999
 20
64.1807986871
  0
VERTEX
  8
0
 62
7
  6
CONTINUOUS
 10
141.6225594771
 20
64.191025741
  0
VERTEX
  8
0
 62
7
  6
CONTINUOUS
 10
141.8383494357
 20
64.2216893815
  0
VERTEX
  8
0
 62
7
  6
CONTINUOUS
 10
142.0472397554
 20
64.2726627699
  0
SEQEND
  0
POLYLINE
  8
0
 62
7
  6
CONTINUOUS
 66
1
 70
0
  0
VERTEX
  8
0
 62
7
  6
CONTINUOUS
 10
162.1585579856
 20
64.1807986871
  0
VERTEX
  8
0
 62
7
  6
CONTINUOUS
 10
162.47890942
 20
64.191025741
  0
VERTEX
  8
0
 62
7
  6
CONTINUOUS
 10
162.7975178779
 20
64.2216893815
  0
VERTEX
  8
0
 62
7
  6
CONTINUOUS
 10
163.1128995454
 20
64.2726627699
  0
SEQEND
  0
LINE
  8
0
 62
7
  6
CONTINUOUS
 10
45.8159191295
 20
64.1807986871
 11
50.6413545054
 21
64.1807986871
  0
LINE
  8
0
 62
7
  6
CONTINUOUS
 10
59.3055285197
 20
64.1807986871
 11
70.5269929157
 21
64.1807986871
  0
LINE
  8
0
 62
7
  6
CONTINUOUS
 10
98.1327091886
 20
64.1807986871
 11
110.0841945313
 21
64.1807986871
  0
LINE
  8
0
 62
7
  6
CONTINUOUS
 10
137.6899108042
 20
64.1807986871
 11
148.9113752002
 21
64.1807986871
  0
LINE
  8
0
 62
7
  6
CONTINUOUS
 10
157.5755492146
 20
64.1807986871
 11
162.4009845904
 21
64.1807986871
  0
LINE
  8
0
 62
7
  6
CONTINUOUS
 10
45.7379942999
 20
64.191025741
 11
46.0583457343
 21
64.1807986871
  0
POLYLINE
  8
0
 62
7
  6
CONTINUOUS
 66
1
 70
0
  0
VERTEX
  8
0
 62
7
  6
CONTINUOUS
 10
59.3055285197
 20
64.1807986871
  0
VERTEX
  8
0
 62
7
  6
CONTINUOUS
 10
59.0742667538
 20
64.191025741
  0
VERTEX
  8
0
 62
7
  6
CONTINUOUS
 10
58.8394763102
 20
64.2216893815
  0
VERTEX
  8
0
 62
7
  6
CONTINUOUS
 10
58.6023495982
 20
64.2726627699
  0
SEQEND
  0
POLYLINE
  8
0
 62
7
  6
CONTINUOUS
 66
1
 70
0
  0
VERTEX
  8
0
 62
7
  6
CONTINUOUS
 10
98.7976561639
 20
64.1807986871
  0
VERTEX
  8
0
 62
7
  6
CONTINUOUS
 10
98.7909540724
 20
64.191025741
  0
VERTEX
  8
0
 62
7
  6
CONTINUOUS
 10
98.7775187006
 20
64.2216893815
  0
VERTEX
  8
0
 62
7
  6
CONTINUOUS
 10
98.7575525562
 20
64.2726627699
  0
SEQEND
  0
POLYLINE
  8
0
 62
7
  6
CONTINUOUS
 66
1
 70
0
  0
VERTEX
  8
0
 62
7
  6
CONTINUOUS
 10
98.7575525562
 20
64.2726627699
  0
VERTEX
  8
0
 62
7
  6
CONTINUOUS
 10
98.7231559311
 20
64.3497186421
  0
VERTEX
  8
0
 62
7
  6
CONTINUOUS
 10
98.6783768973
 20
64.4267546687
  0
VERTEX
  8
0
 62
7
  6
CONTINUOUS
 10
98.623248519
 20
64.5037160177
  0
SEQEND
  0
LINE
  8
DEFAULT_1
 62
2
  6
CENTER
 10
104.10845186
 20
51.6807986871
 11
104.10845186
 21
88.6807986871
  0
POLYLINE
  8
0
 62
7
  6
CONTINUOUS
 66
1
 70
0
  0
VERTEX
  8
0
 62
7
  6
CONTINUOUS
 10
98.7783448413
 20
65.5552888191
  0
VERTEX
  8
0
 62
7
  6
CONTINUOUS
 10
98.6155896387
 20
65.3841400242
  0
VERTEX
  8
0
 62
7
  6
CONTINUOUS
 10
98.5072021284
 20
65.2105980269
  0
VERTEX
  8
0
 62
7
  6
CONTINUOUS
 10
98.4536194411
 20
65.0351780744
  0
VERTEX
  8
0
 62
7
  6
CONTINUOUS
 10
98.44745186
 20
64.951720298
  0
SEQEND
  0
POLYLINE
  8
0
 62
7
  6
CONTINUOUS
 66
1
 70
0
  0
VERTEX
  8
0
 62
7
  6
CONTINUOUS
 10
109.4385588786
 20
77.8063085551
  0
VERTEX
  8
0
 62
7
  6
CONTINUOUS
 10
109.3925039257
 20
77.7728360844
  0
VERTEX
  8
0
 62
7
  6
CONTINUOUS
 10
109.3306335311
 20
77.740584203
  0
VERTEX
  8
0
 62
7
  6
CONTINUOUS
 10
109.2535597016
 20
77.7098248547
  0
VERTEX
  8
0
 62
7
  6
CONTINUOUS
 10
109.1620099398
 20
77.6807986871
  0
SEQEND
  0
POLYLINE
  8
0
 62
7
  6
CONTINUOUS
 66
1
 70
0
  0
VERTEX
  8
0
 62
7
  6
CONTINUOUS
 10
108.0065271109
 20
66.368826386
  0
VERTEX
  8
0
 62
7
  6
CONTINUOUS
 10
108.2110844155
 20
66.2278678676
  0
VERTEX
  8
0
 62
7
  6
CONTINUOUS
 10
108.3986491033
 20
66.1013562044
  0
VERTEX
  8
0
 62
7
  6
CONTINUOUS
 10
108.5677960746
 20
65.9910106647
  0
VERTEX
  8
0
 62
7
  6
CONTINUOUS
 10
108.7196056901
 20
65.8966881106
  0
VERTEX
  8
0
 62
7
  6
CONTINUOUS
 10
108.8561347586
 20
65.8176647649
  0
VERTEX
  8
0
 62
7
  6
CONTINUOUS
 10
108.9771374591
 20
65.7546359794
  0
VERTEX
  8
0
 62
7
  6
CONTINUOUS
 10
109.0797878037
 20
65.7091148279
  0
VERTEX
  8
0
 62
7
  6
CONTINUOUS
 10
109.1620099398
 20
65.6807986871
  0
SEQEND
  0
LINE
  8
0
 62
7
  6
CONTINUOUS
 10
107.5856892964
 20
66.6624258705
 11
108.0065271109
 21
66.368826386
  0
POLYLINE
  8
0
 62
7
  6
CONTINUOUS
 66
1
 70
0
  0
VERTEX
  8
0
 62
7
  6
CONTINUOUS
 10
109.4385588786
 20
65.5552888191
  0
VERTEX
  8
0
 62
7
  6
CONTINUOUS
 10
109.3925039257
 20
65.5887612897
  0
VERTEX
  8
0
 62
7
  6
CONTINUOUS
 10
109.3306335311
 20
65.6210131712
  0
VERTEX
  8
0
 62
7
  6
CONTINUOUS
 10
109.2535597016
 20
65.6517725195
  0
VERTEX
  8
0
 62
7
  6
CONTINUOUS
 10
109.1620099398
 20
65.6807986871
  0
SEQEND
  0
POLYLINE
  8
0
 62
7
  6
CONTINUOUS
 66
1
 70
0
  0
VERTEX
  8
0
 62
7
  6
CONTINUOUS
 10
109.7694518599
 20
78.4098803872
  0
VERTEX
  8
0
 62
7
  6
CONTINUOUS
 10
109.7632944193
 20
78.3264878433
  0
VERTEX
  8
0
 62
7
  6
CONTINUOUS
 10
109.7097205288
 20
78.1510401412
  0
VERTEX
  8
0
 62
7
  6
CONTINUOUS
 10
109.601314943
 20
77.9774584455
  0
VERTEX
  8
0
 62
7
  6
CONTINUOUS
 10
109.4385588786
 20
77.8063085551
  0
SEQEND
  0
POLYLINE
  8
0
 62
7
  6
CONTINUOUS
 66
1
 70
0
  0
VERTEX
  8
0
 62
7
  6
CONTINUOUS
 10
99.0548937801
 20
65.6807986871
  0
VERTEX
  8
0
 62
7
  6
CONTINUOUS
 10
99.1371266649
 20
65.709119081
  0
VERTEX
  8
0
 62
7
  6
CONTINUOUS
 10
99.2397181983
 20
65.7546126865
  0
VERTEX
  8
0
 62
7
  6
CONTINUOUS
 10
99.3606561451
 20
65.8176024685
  0
VERTEX
  8
0
 62
7
  6
CONTINUOUS
 10
99.497167234
 20
65.8966093875
  0
VERTEX
  8
0
 62
7
  6
CONTINUOUS
 10
99.6489888966
 20
65.9909348792
  0
VERTEX
  8
0
 62
7
  6
CONTINUOUS
 10
99.8181379082
 20
66.1012786432
  0
VERTEX
  8
0
 62
7
  6
CONTINUOUS
 10
100.0056634249
 20
66.2277614233
  0
VERTEX
  8
0
 62
7
  6
CONTINUOUS
 10
100.2101583476
 20
66.3686749046
  0
VERTEX
  8
0
 62
7
  6
CONTINUOUS
 10
100.6312144235
 20
66.6624258705
  0
SEQEND
  0
POLYLINE
  8
0
 62
7
  6
CONTINUOUS
 66
1
 70
0
  0
VERTEX
  8
0
 62
7
  6
CONTINUOUS
 10
99.0548937801
 20
65.6807986871
  0
VERTEX
  8
0
 62
7
  6
CONTINUOUS
 10
98.963331979
 20
65.6517682521
  0
VERTEX
  8
0
 62
7
  6
CONTINUOUS
 10
98.8862818539
 20
65.6210184598
  0
VERTEX
  8
0
 62
7
  6
CONTINUOUS
 10
98.8244172935
 20
65.5887719436
  0
VERTEX
  8
0
 62
7
  6
CONTINUOUS
 10
98.7783448413
 20
65.5552888191
  0
SEQEND
  0
POLYLINE
  8
0
 62
7
  6
CONTINUOUS
 66
1
 70
0
  0
VERTEX
  8
0
 62
7
  6
CONTINUOUS
 10
100.2089357315
 20
76.9937709776
  0
VERTEX
  8
0
 62
7
  6
CONTINUOUS
 10
100.0041932416
 20
77.1348397945
  0
VERTEX
  8
0
 62
7
  6
CONTINUOUS
 10
99.8167345972
 20
77.2612512008
  0
VERTEX
  8
0
 62
7
  6
CONTINUOUS
 10
99.6475948106
 20
77.371551997
  0
VERTEX
  8
0
 62
7
  6
CONTINUOUS
 10
99.4956270804
 20
77.4659145929
  0
VERTEX
  8
0
 62
7
  6
CONTINUOUS
 10
99.3588365713
 20
77.5449988735
  0
VERTEX
  8
0
 62
7
  6
CONTINUOUS
 10
99.2378395134
 20
77.6078939103
  0
VERTEX
  8
0
 62
7
  6
CONTINUOUS
 10
99.1358734999
 20
77.6529733114
  0
VERTEX
  8
0
 62
7
  6
CONTINUOUS
 10
99.0548937801
 20
77.6807986871
  0
SEQEND
  0
LINE
  8
0
 62
7
  6
CONTINUOUS
 10
100.6312144235
 20
76.6991715036
 11
100.2089357315
 21
76.9937709776
  0
POLYLINE
  8
0
 62
7
  6
CONTINUOUS
 66
1
 70
0
  0
VERTEX
  8
0
 62
7
  6
CONTINUOUS
 10
98.7783448413
 20
77.8063085551
  0
VERTEX
  8
0
 62
7
  6
CONTINUOUS
 10
98.6155896387
 20
77.97745735
  0
VERTEX
  8
0
 62
7
  6
CONTINUOUS
 10
98.5072021284
 20
78.1509993473
  0
VERTEX
  8
0
 62
7
  6
CONTINUOUS
 10
98.4536194411
 20
78.3264192998
  0
VERTEX
  8
0
 62
7
  6
CONTINUOUS
 10
98.44745186
 20
78.4098770762
  0
SEQEND
  0
POLYLINE
  8
0
 62
7
  6
CONTINUOUS
 66
1
 70
0
  0
VERTEX
  8
0
 62
7
  6
CONTINUOUS
 10
109.7694518599
 20
64.951716987
  0
VERTEX
  8
0
 62
7
  6
CONTINUOUS
 10
109.7632944193
 20
65.0351095308
  0
VERTEX
  8
0
 62
7
  6
CONTINUOUS
 10
109.7097205288
 20
65.210557233
  0
VERTEX
  8
0
 62
7
  6
CONTINUOUS
 10
109.601314943
 20
65.3841389287
  0
VERTEX
  8
0
 62
7
  6
CONTINUOUS
 10
109.4385588786
 20
65.5552888191
  0
SEQEND
  0
LINE
  8
0
 62
7
  6
CONTINUOUS
 10
109.76945186
 20
78.4100009984
 11
109.76945186
 21
64.9515963758
  0
LINE
  8
0
 62
7
  6
CONTINUOUS
 10
110.0841945313
 20
86.6807986871
 11
110.0841945313
 21
79.1807986871
  0
LINE
  8
0
 62
7
  6
CONTINUOUS
 10
110.0841945313
 20
64.1807986871
 11
110.0841945313
 21
56.6807986871
  0
POLYLINE
  8
0
 62
7
  6
CONTINUOUS
 66
1
 70
0
  0
VERTEX
  8
0
 62
7
  6
CONTINUOUS
 10
109.4593511638
 20
64.2726627699
  0
VERTEX
  8
0
 62
7
  6
CONTINUOUS
 10
109.4393850193
 20
64.2216893815
  0
VERTEX
  8
0
 62
7
  6
CONTINUOUS
 10
109.4259496475
 20
64.191025741
  0
VERTEX
  8
0
 62
7
  6
CONTINUOUS
 10
109.419247556
 20
64.1807986871
  0
SEQEND
  0
POLYLINE
  8
0
 62
7
  6
CONTINUOUS
 66
1
 70
0
  0
VERTEX
  8
0
 62
7
  6
CONTINUOUS
 10
109.5936552009
 20
64.5037160177
  0
VERTEX
  8
0
 62
7
  6
CONTINUOUS
 10
109.7051674403
 20
64.6810476394
  0
VERTEX
  8
0
 62
7
  6
CONTINUOUS
 10
109.7617832851
 20
64.8583964162
  0
VERTEX
  8
0
 62
7
  6
CONTINUOUS
 10
109.7694518599
 20
64.951716987
  0
SEQEND
  0
POLYLINE
  8
0
 62
7
  6
CONTINUOUS
 66
1
 70
0
  0
VERTEX
  8
0
 62
7
  6
CONTINUOUS
 10
109.5936552009
 20
64.5037160177
  0
VERTEX
  8
0
 62
7
  6
CONTINUOUS
 10
109.5385271474
 20
64.4267551692
  0
VERTEX
  8
0
 62
7
  6
CONTINUOUS
 10
109.493748159
 20
64.3497193626
  0
VERTEX
  8
0
 62
7
  6
CONTINUOUS
 10
109.4593511638
 20
64.2726627699
  0
SEQEND
  0
LINE
  8
0
 62
7
  6
CONTINUOUS
 10
45.8159191295
 20
79.1807986871
 11
50.6413545054
 21
79.1807986871
  0
LINE
  8
0
 62
7
  6
CONTINUOUS
 10
59.3055285197
 20
79.1807986871
 11
70.5269929157
 21
79.1807986871
  0
LINE
  8
0
 62
7
  6
CONTINUOUS
 10
98.1327091886
 20
79.1807986871
 11
110.0841945313
 21
79.1807986871
  0
LINE
  8
0
 62
7
  6
CONTINUOUS
 10
137.6899108042
 20
79.1807986871
 11
148.9113752002
 21
79.1807986871
  0
LINE
  8
0
 62
7
  6
CONTINUOUS
 10
157.5755492146
 20
79.1807986871
 11
162.4009845904
 21
79.1807986871
  0
POLYLINE
  8
0
 62
7
  6
CONTINUOUS
 66
1
 70
0
  0
VERTEX
  8
0
 62
7
  6
CONTINUOUS
 10
99.0548937801
 20
77.6807986871
  0
VERTEX
  8
0
 62
7
  6
CONTINUOUS
 10
98.963331979
 20
77.7098291221
  0
VERTEX
  8
0
 62
7
  6
CONTINUOUS
 10
98.8862818539
 20
77.7405789144
  0
VERTEX
  8
0
 62
7
  6
CONTINUOUS
 10
98.8244172935
 20
77.7728254306
  0
VERTEX
  8
0
 62
7
  6
CONTINUOUS
 10
98.7783448413
 20
77.8063085551
  0
SEQEND
  0
POLYLINE
  8
0
 62
7
  6
CONTINUOUS
 66
1
 70
0
  0
VERTEX
  8
0
 62
7
  6
CONTINUOUS
 10
109.5936552009
 20
78.8578813565
  0
VERTEX
  8
0
 62
7
  6
CONTINUOUS
 10
109.5385271474
 20
78.934842205
  0
VERTEX
  8
0
 62
7
  6
CONTINUOUS
 10
109.493748159
 20
79.0118780115
  0
VERTEX
  8
0
 62
7
  6
CONTINUOUS
 10
109.4593511638
 20
79.0889346043
  0
SEQEND
  0
POLYLINE
  8
0
 62
7
  6
CONTINUOUS
 66
1
 70
0
  0
VERTEX
  8
0
 62
7
  6
CONTINUOUS
 10
109.419247556
 20
79.1807986871
  0
VERTEX
  8
0
 62
7
  6
CONTINUOUS
 10
109.4259496885
 20
79.1705715501
  0
VERTEX
  8
0
 62
7
  6
CONTINUOUS
 10
109.4393850912
 20
79.1399078173
  0
VERTEX
  8
0
 62
7
  6
CONTINUOUS
 10
109.4593511638
 20
79.0889346043
  0
SEQEND
  0
POLYLINE
  8
0
 62
7
  6
CONTINUOUS
 66
1
 70
0
  0
VERTEX
  8
0
 62
7
  6
CONTINUOUS
 10
109.5936552009
 20
78.8578813565
  0
VERTEX
  8
0
 62
7
  6
CONTINUOUS
 10
109.7051674403
 20
78.6805497347
  0
VERTEX
  8
0
 62
7
  6
CONTINUOUS
 10
109.7617832851
 20
78.5032009579
  0
VERTEX
  8
0
 62
7
  6
CONTINUOUS
 10
109.7694518599
 20
78.4098803872
  0
SEQEND
  0
POLYLINE
  8
0
 62
7
  6
CONTINUOUS
 66
1
 70
0
  0
VERTEX
  8
0
 62
7
  6
CONTINUOUS
 10
66.81612782
 20
79.1807986871
  0
VERTEX
  8
0
 62
7
  6
CONTINUOUS
 10
66.594343354
 20
79.1705715501
  0
VERTEX
  8
0
 62
7
  6
CONTINUOUS
 10
66.3785533719
 20
79.1399078173
  0
VERTEX
  8
0
 62
7
  6
CONTINUOUS
 10
66.1696639645
 20
79.0889346043
  0
SEQEND
  0
POLYLINE
  8
0
 62
7
  6
CONTINUOUS
 66
1
 70
0
  0
VERTEX
  8
0
 62
7
  6
CONTINUOUS
 10
46.0583457343
 20
79.1807986871
  0
VERTEX
  8
0
 62
7
  6
CONTINUOUS
 10
45.7379930019
 20
79.1705715501
  0
VERTEX
  8
0
 62
7
  6
CONTINUOUS
 10
45.4193844799
 20
79.1399078173
  0
VERTEX
  8
0
 62
7
  6
CONTINUOUS
 10
45.1040041745
 20
79.0889346043
  0
SEQEND
  0
LINE
  8
0
 62
7
  6
CONTINUOUS
 10
162.478910718
 20
79.1705715501
 11
162.1585579856
 21
79.1807986871
  0
POLYLINE
  8
0
 62
7
  6
CONTINUOUS
 66
1
 70
0
  0
VERTEX
  8
0
 62
7
  6
CONTINUOUS
 10
148.9113752002
 20
79.1807986871
  0
VERTEX
  8
0
 62
7
  6
CONTINUOUS
 10
149.1426379129
 20
79.1705715501
  0
VERTEX
  8
0
 62
7
  6
CONTINUOUS
 10
149.3774284238
 20
79.1399078173
  0
VERTEX
  8
0
 62
7
  6
CONTINUOUS
 10
149.6145541217
 20
79.0889346043
  0
SEQEND
  0
POLYLINE
  8
0
 62
7
  6
CONTINUOUS
 66
1
 70
0
  0
VERTEX
  8
0
 62
7
  6
CONTINUOUS
 10
147.4151556293
 20
77.6807986871
  0
VERTEX
  8
0
 62
7
  6
CONTINUOUS
 10
147.2395078662
 20
77.7098291221
  0
VERTEX
  8
0
 62
7
  6
CONTINUOUS
 10
147.0685460555
 20
77.7405789144
  0
VERTEX
  8
0
 62
7
  6
CONTINUOUS
 10
146.9036367486
 20
77.7728254306
  0
VERTEX
  8
0
 62
7
  6
CONTINUOUS
 10
146.7462279788
 20
77.8063085551
  0
SEQEND
  0
POLYLINE
  8
0
 62
7
  6
CONTINUOUS
 66
1
 70
0
  0
VERTEX
  8
0
 62
7
  6
CONTINUOUS
 10
142.0472397554
 20
64.2726627699
  0
VERTEX
  8
0
 62
7
  6
CONTINUOUS
 10
142.3021721765
 20
64.3497186421
  0
VERTEX
  8
0
 62
7
  6
CONTINUOUS
 10
142.5490245454
 20
64.4267546687
  0
VERTEX
  8
0
 62
7
  6
CONTINUOUS
 10
142.7876187707
 20
64.5037160177
  0
SEQEND
  0
POLYLINE
  8
0
 62
7
  6
CONTINUOUS
 66
1
 70
0
  0
VERTEX
  8
0
 62
7
  6
CONTINUOUS
 10
58.6023495982
 20
79.0889346043
  0
VERTEX
  8
0
 62
7
  6
CONTINUOUS
 10
58.8394752962
 20
79.1399078173
  0
VERTEX
  8
0
 62
7
  6
CONTINUOUS
 10
59.074265807
 20
79.1705715501
  0
VERTEX
  8
0
 62
7
  6
CONTINUOUS
 10
59.3055285197
 20
79.1807986871
  0
SEQEND
  0
POLYLINE
  8
0
 62
7
  6
CONTINUOUS
 66
1
 70
0
  0
VERTEX
  8
0
 62
7
  6
CONTINUOUS
 10
61.4706757411
 20
77.8063085551
  0
VERTEX
  8
0
 62
7
  6
CONTINUOUS
 10
61.3133192195
 20
77.7728360844
  0
VERTEX
  8
0
 62
7
  6
CONTINUOUS
 10
61.1483858645
 20
77.740584203
  0
VERTEX
  8
0
 62
7
  6
CONTINUOUS
 10
60.9773711077
 20
77.7098248547
  0
VERTEX
  8
0
 62
7
  6
CONTINUOUS
 10
60.8017480906
 20
77.6807986871
  0
SEQEND
  0
POLYLINE
  8
0
 62
7
  6
CONTINUOUS
 66
1
 70
0
  0
VERTEX
  8
0
 62
7
  6
CONTINUOUS
 10
60.8017480906
 20
77.6807986871
  0
VERTEX
  8
0
 62
7
  6
CONTINUOUS
 10
60.6622744793
 20
77.6529381118
  0
VERTEX
  8
0
 62
7
  6
CONTINUOUS
 10
60.5019406259
 20
77.6078587872
  0
VERTEX
  8
0
 62
7
  6
CONTINUOUS
 10
60.328041709
 20
77.5450013884
  0
VERTEX
  8
0
 62
7
  6
CONTINUOUS
 10
60.1477098575
 20
77.4659592189
  0
VERTEX
  8
0
 62
7
  6
CONTINUOUS
 10
59.9633179798
 20
77.3716000825
  0
VERTEX
  8
0
 62
7
  6
CONTINUOUS
 10
59.7743017757
 20
77.261284154
  0
VERTEX
  8
0
 62
7
  6
CONTINUOUS
 10
59.581687023
 20
77.134860729
  0
VERTEX
  8
0
 62
7
  6
CONTINUOUS
 10
59.3889808047
 20
76.9938140974
  0
VERTEX
  8
0
 62
7
  6
CONTINUOUS
 10
59.2061263628
 20
76.8454700366
  0
VERTEX
  8
0
 62
7
  6
CONTINUOUS
 10
59.0425058351
 20
76.6991715036
  0
SEQEND
  0
LINE
  8
0
 62
7
  6
CONTINUOUS
 10
50.3084568959
 20
86.6807986871
 11
157.9084468241
 21
86.6807986871
  0
POLYLINE
  8
0
 62
7
  6
CONTINUOUS
 66
1
 70
0
  0
VERTEX
  8
0
 62
7
  6
CONTINUOUS
 10
163.1128995454
 20
79.0889346043
  0
VERTEX
  8
0
 62
7
  6
CONTINUOUS
 10
162.79751924
 20
79.1399078173
  0
VERTEX
  8
0
 62
7
  6
CONTINUOUS
 10
162.478910718
 20
79.1705715501
  0
SEQEND
  0
POLYLINE
  8
0
 62
7
  6
CONTINUOUS
 66
1
 70
0
  0
VERTEX
  8
0
 62
7
  6
CONTINUOUS
 10
146.7462279788
 20
77.8063085551
  0
VERTEX
  8
0
 62
7
  6
CONTINUOUS
 10
145.9968485168
 20
77.97745735
  0
VERTEX
  8
0
 62
7
  6
CONTINUOUS
 10
145.2799439062
 20
78.1509993473
  0
VERTEX
  8
0
 62
7
  6
CONTINUOUS
 10
144.598044533
 20
78.3264192998
  0
VERTEX
  8
0
 62
7
  6
CONTINUOUS
 10
143.9537166689
 20
78.5031352509
  0
VERTEX
  8
0
 62
7
  6
CONTINUOUS
 10
143.3494691836
 20
78.6805098458
  0
VERTEX
  8
0
 62
7
  6
CONTINUOUS
 10
142.7876187707
 20
78.8578813565
  0
SEQEND
  0
POLYLINE
  8
0
 62
7
  6
CONTINUOUS
 66
1
 70
0
  0
VERTEX
  8
0
 62
7
  6
CONTINUOUS
 10
142.0472397554
 20
79.0889346043
  0
VERTEX
  8
0
 62
7
  6
CONTINUOUS
 10
141.838350348
 20
79.1399078173
  0
VERTEX
  8
0
 62
7
  6
CONTINUOUS
 10
141.6225603659
 20
79.1705715501
  0
VERTEX
  8
0
 62
7
  6
CONTINUOUS
 10
141.4007758999
 20
79.1807986871
  0
SEQEND
  0
POLYLINE
  8
0
 62
7
  6
CONTINUOUS
 66
1
 70
0
  0
VERTEX
  8
0
 62
7
  6
CONTINUOUS
 10
154.2841376135
 20
65.5552888191
  0
VERTEX
  8
0
 62
7
  6
CONTINUOUS
 10
154.376362596
 20
65.5887612897
  0
VERTEX
  8
0
 62
7
  6
CONTINUOUS
 10
154.453798
 20
65.6210131712
  0
VERTEX
  8
0
 62
7
  6
CONTINUOUS
 10
154.5158139018
 20
65.6517725195
  0
VERTEX
  8
0
 62
7
  6
CONTINUOUS
 10
154.5619660041
 20
65.6807986871
  0
SEQEND
  0
POLYLINE
  8
0
 62
7
  6
CONTINUOUS
 66
1
 70
0
  0
VERTEX
  8
0
 62
7
  6
CONTINUOUS
 10
58.6023495982
 20
79.0889346043
  0
VERTEX
  8
0
 62
7
  6
CONTINUOUS
 10
58.2987730035
 20
79.011878732
  0
VERTEX
  8
0
 62
7
  6
CONTINUOUS
 10
57.9885935175
 20
78.9348427055
  0
VERTEX
  8
0
 62
7
  6
CONTINUOUS
 10
57.6720359921
 20
78.8578813565
  0
SEQEND
  0
POLYLINE
  8
0
 62
7
  6
CONTINUOUS
 66
1
 70
0
  0
VERTEX
  8
0
 62
7
  6
CONTINUOUS
 10
37.8099659678
 20
77.6807986871
  0
VERTEX
  8
0
 62
7
  6
CONTINUOUS
 10
37.6937894673
 20
77.6529381118
  0
VERTEX
  8
0
 62
7
  6
CONTINUOUS
 10
37.5689925862
 20
77.6078587872
  0
VERTEX
  8
0
 62
7
  6
CONTINUOUS
 10
37.4439822082
 20
77.5450013884
  0
VERTEX
  8
0
 62
7
  6
CONTINUOUS
 10
37.3256753244
 20
77.4659592189
  0
VERTEX
  8
0
 62
7
  6
CONTINUOUS
 10
37.2168723849
 20
77.3716000825
  0
VERTEX
  8
0
 62
7
  6
CONTINUOUS
 10
37.1187286725
 20
77.261284154
  0
VERTEX
  8
0
 62
7
  6
CONTINUOUS
 10
37.0338078585
 20
77.134860729
  0
VERTEX
  8
0
 62
7
  6
CONTINUOUS
 10
36.9659911295
 20
76.9938140974
  0
VERTEX
  8
0
 62
7
  6
CONTINUOUS
 10
36.9202818802
 20
76.8454700366
  0
VERTEX
  8
0
 62
7
  6
CONTINUOUS
 10
36.8983423539
 20
76.6991715036
  0
SEQEND
  0
POLYLINE
  8
0
 62
7
  6
CONTINUOUS
 66
1
 70
0
  0
VERTEX
  8
0
 62
7
  6
CONTINUOUS
 10
43.01674281
 20
78.6805497347
  0
VERTEX
  8
0
 62
7
  6
CONTINUOUS
 10
44.7090749738
 20
79.0118780115
  0
VERTEX
  8
0
 62
7
  6
CONTINUOUS
 10
45.1040041745
 20
79.0889346043
  0
SEQEND
  0
POLYLINE
  8
0
 62
7
  6
CONTINUOUS
 66
1
 70
0
  0
VERTEX
  8
0
 62
7
  6
CONTINUOUS
 10
43.01674281
 20
78.6805497347
  0
VERTEX
  8
0
 62
7
  6
CONTINUOUS
 10
42.1057342151
 20
78.5032009579
  0
VERTEX
  8
0
 62
7
  6
CONTINUOUS
 10
41.1930433065
 20
78.3264878433
  0
VERTEX
  8
0
 62
7
  6
CONTINUOUS
 10
40.2821320287
 20
78.1510401412
  0
VERTEX
  8
0
 62
7
  6
CONTINUOUS
 10
39.3764567097
 20
77.9774584455
  0
SEQEND
  0
LINE
  8
0
 62
7
  6
CONTINUOUS
 10
44.8618741526
 20
79.0889346043
 11
37.6176428646
 21
77.6807986871
  0
LINE
  8
0
 62
7
  6
CONTINUOUS
 10
39.3764567097
 20
77.9774584455
 11
38.1315622176
 21
77.740584203
  0
LINE
  8
0
 62
7
  6
CONTINUOUS
 10
38.1315622176
 20
77.740584203
 11
37.8099659678
 21
77.6807986871
  0
LINE
  8
0
 62
7
  6
CONTINUOUS
 10
170.4069377521
 20
77.6807986871
 11
170.0853697182
 21
77.7405789144
  0
POLYLINE
  8
0
 62
7
  6
CONTINUOUS
 66
1
 70
0
  0
VERTEX
  8
0
 62
7
  6
CONTINUOUS
 10
170.0853697182
 20
77.7405789144
  0
VERTEX
  8
0
 62
7
  6
CONTINUOUS
 10
168.8404527393
 20
77.97745735
  0
VERTEX
  8
0
 62
7
  6
CONTINUOUS
 10
167.9349840265
 20
78.1509993473
  0
VERTEX
  8
0
 62
7
  6
CONTINUOUS
 10
167.0242153721
 20
78.3264192998
  0
VERTEX
  8
0
 62
7
  6
CONTINUOUS
 10
166.1115079572
 20
78.5031352509
  0
VERTEX
  8
0
 62
7
  6
CONTINUOUS
 10
165.2003652478
 20
78.6805098458
  0
SEQEND
  0
LINE
  8
0
 62
7
  6
CONTINUOUS
 10
163.3550295673
 20
79.0889346043
 11
170.5992608553
 21
77.6807986871
  0
LINE
  8
0
 62
7
  6
CONTINUOUS
 10
163.1128995454
 20
79.0889346043
 11
165.2003652478
 21
78.6805098458
  0
POLYLINE
  8
0
 62
7
  6
CONTINUOUS
 66
1
 70
0
  0
VERTEX
  8
0
 62
7
  6
CONTINUOUS
 10
150.5448677279
 20
78.8578813565
  0
VERTEX
  8
0
 62
7
  6
CONTINUOUS
 10
150.2283122395
 20
78.934842205
  0
VERTEX
  8
0
 62
7
  6
CONTINUOUS
 10
149.9181335862
 20
79.0118780115
  0
VERTEX
  8
0
 62
7
  6
CONTINUOUS
 10
149.6145541217
 20
79.0889346043
  0
SEQEND
  0
POLYLINE
  8
0
 62
7
  6
CONTINUOUS
 66
1
 70
0
  0
VERTEX
  8
0
 62
7
  6
CONTINUOUS
 10
150.5448677279
 20
78.8578813565
  0
VERTEX
  8
0
 62
7
  6
CONTINUOUS
 10
151.2642891426
 20
78.6805497347
  0
VERTEX
  8
0
 62
7
  6
CONTINUOUS
 10
151.9485029457
 20
78.5032009579
  0
VERTEX
  8
0
 62
7
  6
CONTINUOUS
 10
152.5949414095
 20
78.3264878433
  0
VERTEX
  8
0
 62
7
  6
CONTINUOUS
 10
153.2011704898
 20
78.1510401412
  0
VERTEX
  8
0
 62
7
  6
CONTINUOUS
 10
153.7649253246
 20
77.9774584455
  0
VERTEX
  8
0
 62
7
  6
CONTINUOUS
 10
154.2841376135
 20
77.8063085551
  0
SEQEND
  0
POLYLINE
  8
0
 62
7
  6
CONTINUOUS
 66
1
 70
0
  0
VERTEX
  8
0
 62
7
  6
CONTINUOUS
 10
142.0472397554
 20
79.0889346043
  0
VERTEX
  8
0
 62
7
  6
CONTINUOUS
 10
142.3021721765
 20
79.011878732
  0
VERTEX
  8
0
 62
7
  6
CONTINUOUS
 10
142.5490245454
 20
78.9348427055
  0
VERTEX
  8
0
 62
7
  6
CONTINUOUS
 10
142.7876187707
 20
78.8578813565
  0
SEQEND
  0
POLYLINE
  8
0
 62
7
  6
CONTINUOUS
 66
1
 70
0
  0
VERTEX
  8
0
 62
7
  6
CONTINUOUS
 10
154.2841376135
 20
77.8063085551
  0
VERTEX
  8
0
 62
7
  6
CONTINUOUS
 10
154.376362596
 20
77.7728360844
  0
VERTEX
  8
0
 62
7
  6
CONTINUOUS
 10
154.453798
 20
77.740584203
  0
VERTEX
  8
0
 62
7
  6
CONTINUOUS
 10
154.5158139018
 20
77.7098248547
  0
VERTEX
  8
0
 62
7
  6
CONTINUOUS
 10
154.5619660041
 20
77.6807986871
  0
SEQEND
  0
LINE
  8
0
 62
7
  6
CONTINUOUS
 10
137.6899108042
 20
86.6807986871
 11
137.6899108042
 21
79.1807986871
  0
LINE
  8
0
 62
7
  6
CONTINUOUS
 10
137.6899108042
 20
64.1807986871
 11
137.6899108042
 21
56.6807986871
  0
POLYLINE
  8
0
 62
7
  6
CONTINUOUS
 66
1
 70
0
  0
VERTEX
  8
0
 62
7
  6
CONTINUOUS
 10
149.1743978848
 20
76.6991715036
  0
VERTEX
  8
0
 62
7
  6
CONTINUOUS
 10
149.0108676615
 20
76.8453930117
  0
VERTEX
  8
0
 62
7
  6
CONTINUOUS
 10
148.8279788181
 20
76.9937709776
  0
VERTEX
  8
0
 62
7
  6
CONTINUOUS
 10
148.6352468834
 20
77.1348397945
  0
VERTEX
  8
0
 62
7
  6
CONTINUOUS
 10
148.4426551317
 20
77.2612512008
  0
VERTEX
  8
0
 62
7
  6
CONTINUOUS
 10
148.2536735528
 20
77.371551997
  0
VERTEX
  8
0
 62
7
  6
CONTINUOUS
 10
148.0692877388
 20
77.4659145929
  0
VERTEX
  8
0
 62
7
  6
CONTINUOUS
 10
147.8888682928
 20
77.5449988735
  0
VERTEX
  8
0
 62
7
  6
CONTINUOUS
 10
147.7148537403
 20
77.6078939103
  0
VERTEX
  8
0
 62
7
  6
CONTINUOUS
 10
147.5544821812
 20
77.6529733114
  0
VERTEX
  8
0
 62
7
  6
CONTINUOUS
 10
147.4151556293
 20
77.6807986871
  0
SEQEND
  0
POLYLINE
  8
0
 62
7
  6
CONTINUOUS
 66
1
 70
0
  0
VERTEX
  8
0
 62
7
  6
CONTINUOUS
 10
154.0919542271
 20
66.6624258705
  0
VERTEX
  8
0
 62
7
  6
CONTINUOUS
 10
154.2240013404
 20
66.516768364
  0
VERTEX
  8
0
 62
7
  6
CONTINUOUS
 10
154.3419856682
 20
66.368826386
  0
VERTEX
  8
0
 62
7
  6
CONTINUOUS
 10
154.4388457372
 20
66.2278678676
  0
VERTEX
  8
0
 62
7
  6
CONTINUOUS
 10
154.5115396418
 20
66.1013562044
  0
VERTEX
  8
0
 62
7
  6
CONTINUOUS
 10
154.5619002635
 20
65.9910106647
  0
VERTEX
  8
0
 62
7
  6
CONTINUOUS
 10
154.5925568915
 20
65.8966881106
  0
VERTEX
  8
0
 62
7
  6
CONTINUOUS
 10
154.6057654101
 20
65.8176647649
  0
VERTEX
  8
0
 62
7
  6
CONTINUOUS
 10
154.6065601926
 20
65.7954134753
  0
SEQEND
  0
LINE
  8
0
 62
7
  6
CONTINUOUS
 10
146.1408871353
 20
86.6807986871
 11
146.1408871353
 21
79.1807986871
  0
LINE
  8
0
 62
7
  6
CONTINUOUS
 10
146.1408871353
 20
64.1807986871
 11
146.1408871353
 21
56.6807986871
  0
POLYLINE
  8
0
 62
7
  6
CONTINUOUS
 66
1
 70
0
  0
VERTEX
  8
0
 62
7
  6
CONTINUOUS
 10
154.5619660041
 20
77.6807986871
  0
VERTEX
  8
0
 62
7
  6
CONTINUOUS
 10
154.5867907755
 20
77.6529381118
  0
VERTEX
  8
0
 62
7
  6
CONTINUOUS
 10
154.6029463639
 20
77.6078587872
  0
VERTEX
  8
0
 62
7
  6
CONTINUOUS
 10
154.6065601815
 20
77.5661921643
  0
SEQEND
  0
LINE
  8
0
 62
7
  6
CONTINUOUS
 10
154.6065603974
 20
77.564412364
 11
154.6065603974
 21
65.7972199025
  0
POLYLINE
  8
0
 62
7
  6
CONTINUOUS
 66
1
 70
0
  0
VERTEX
  8
0
 62
7
  6
CONTINUOUS
 10
154.6065601815
 20
77.5661921643
  0
VERTEX
  8
0
 62
7
  6
CONTINUOUS
 10
154.6058388189
 20
77.5450013884
  0
VERTEX
  8
0
 62
7
  6
CONTINUOUS
 10
154.5928181671
 20
77.4659592189
  0
VERTEX
  8
0
 62
7
  6
CONTINUOUS
 10
154.562296882
 20
77.3716000825
  0
VERTEX
  8
0
 62
7
  6
CONTINUOUS
 10
154.512076847
 20
77.261284154
  0
VERTEX
  8
0
 62
7
  6
CONTINUOUS
 10
154.4395582613
 20
77.134860729
  0
VERTEX
  8
0
 62
7
  6
CONTINUOUS
 10
154.3427593809
 20
76.9938140974
  0
VERTEX
  8
0
 62
7
  6
CONTINUOUS
 10
154.2245475791
 20
76.8454700366
  0
VERTEX
  8
0
 62
7
  6
CONTINUOUS
 10
154.0919542271
 20
76.6991715036
  0
SEQEND
  0
POLYLINE
  8
0
 62
7
  6
CONTINUOUS
 66
1
 70
0
  0
VERTEX
  8
0
 62
7
  6
CONTINUOUS
 10
154.6065601926
 20
65.7954134753
  0
VERTEX
  8
0
 62
7
  6
CONTINUOUS
 10
154.60311224
 20
65.7546359794
  0
VERTEX
  8
0
 62
7
  6
CONTINUOUS
 10
154.5870588364
 20
65.7091148279
  0
VERTEX
  8
0
 62
7
  6
CONTINUOUS
 10
154.5619660041
 20
65.6807986871
  0
SEQEND
  0
LINE
  8
0
 62
7
  6
CONTINUOUS
 10
157.5755492146
 20
86.6807986871
 11
157.5755492146
 21
79.1807986871
  0
LINE
  8
0
 62
7
  6
CONTINUOUS
 10
157.5755492146
 20
64.1807986871
 11
157.5755492146
 21
56.6807986871
  0
LINE
  8
0
 62
7
  6
CONTINUOUS
 10
157.90845186
 20
86.6807986871
 11
157.90845186
 21
79.1807986871
  0
LINE
  8
0
 62
7
  6
CONTINUOUS
 10
157.90845186
 20
64.1807986871
 11
157.90845186
 21
56.6807986871
  0
LINE
  8
0
 62
7
  6
CONTINUOUS
 10
171.40845186
 20
76.6991715036
 11
171.40845186
 21
66.6624258705
  0
POLYLINE
  8
0
 62
7
  6
CONTINUOUS
 66
1
 70
0
  0
VERTEX
  8
0
 62
7
  6
CONTINUOUS
 10
171.318561366
 20
76.6991715036
  0
VERTEX
  8
0
 62
7
  6
CONTINUOUS
 10
171.2966392947
 20
76.8453930117
  0
VERTEX
  8
0
 62
7
  6
CONTINUOUS
 10
171.2509295155
 20
76.9937709776
  0
VERTEX
  8
0
 62
7
  6
CONTINUOUS
 10
171.1831078896
 20
77.1348397945
  0
VERTEX
  8
0
 62
7
  6
CONTINUOUS
 10
171.0982006666
 20
77.2612512008
  0
VERTEX
  8
0
 62
7
  6
CONTINUOUS
 10
171.0000801413
 20
77.371551997
  0
VERTEX
  8
0
 62
7
  6
CONTINUOUS
 10
170.8912869526
 20
77.4659145929
  0
VERTEX
  8
0
 62
7
  6
CONTINUOUS
 10
170.7729258343
 20
77.5449988735
  0
VERTEX
  8
0
 62
7
  6
CONTINUOUS
 10
170.647829152
 20
77.6078939103
  0
VERTEX
  8
0
 62
7
  6
CONTINUOUS
 10
170.5229955316
 20
77.6529733114
  0
VERTEX
  8
0
 62
7
  6
CONTINUOUS
 10
170.4069377521
 20
77.6807986871
  0
SEQEND
  0
LINE
  8
DEFAULT_1
 62
2
  6
CENTER
 10
104.10845186
 20
278.2750273523
 11
104.10845186
 21
208.5471459163
  0
LINE
  8
0
 62
2
  6
CONTINUOUS
 10
104.10845186
 20
207.4270459163
 11
104.10845186
 21
205.6670459163
  0
LINE
  8
DEFAULT_1
 62
2
  6
CENTER
 10
104.10845186
 20
134.0436269147
 11
104.10845186
 21
204.5469459163
  0
LINE
  8
DEFAULT_1
 62
2
  6
CENTER
 10
177.7750273523
 20
206.5470459163
 11
106.10855186
 21
206.5470459163
  0
LINE
  8
0
 62
2
  6
CONTINUOUS
 10
104.98845186
 20
206.5470459163
 11
103.22845186
 21
206.5470459163
  0
LINE
  8
DEFAULT_1
 62
2
  6
CENTER
 10
29.6664387309
 20
206.5470459163
 11
102.10835186
 21
206.5470459163
  0
ARC
  8
0
 62
7
  6
CONTINUOUS
 10
34.0356136659
 20
177.5219259823
 40
30.0
 50
9.5968984091
 51
35.4031015909
  0
ARC
  8
0
 62
7
  6
CONTINUOUS
 10
75.083331926
 20
136.4742077222
 40
30.0
 50
54.5968984091
 51
80.4031015909
  0
ARC
  8
0
 62
7
  6
CONTINUOUS
 10
41.624381059
 20
197.0970459163
 40
15.111
 50
81.2518086435
 51
102.0124198389
  0
ARC
  8
0
 62
7
  6
CONTINUOUS
 10
53.2433825983
 20
169.046294819
 40
15.111
 50
302.9875801611
 51
323.7481913565
  0
ARC
  8
0
 62
7
  6
CONTINUOUS
 10
66.6077007627
 20
155.6819766546
 40
15.111
 50
126.2518086435
 51
147.0124198389
  0
ARC
  8
0
 62
7
  6
CONTINUOUS
 10
94.65845186
 20
144.0629751153
 40
15.111
 50
347.9875801611
 51
8.7481913565
  0
ARC
  8
0
 62
7
  6
CONTINUOUS
 10
46.2131544245
 20
186.1770459163
 40
15.06
 50
35.4031015909
 51
98.7481913565
  0
ARC
  8
0
 62
7
  6
CONTINUOUS
 10
77.5740595773
 20
151.2051233681
 40
15.06
 50
80.4031015909
 51
143.7481913565
  0
ARC
  8
0
 62
7
  6
CONTINUOUS
 10
48.7665293118
 20
180.0126536336
 40
15.06
 50
306.2518086435
 51
9.5968984091
  0
ARC
  8
0
 62
7
  6
CONTINUOUS
 10
83.73845186
 20
148.6517484809
 40
15.06
 50
351.2518086435
 51
54.5968984091
  0
ARC
  8
0
 62
7
  6
CONTINUOUS
 10
38.8956710168
 20
203.1731439163
 40
2.0
 50
182.9616609079
 51
257.9875801611
  0
ARC
  8
0
 62
7
  6
CONTINUOUS
 10
60.381761289
 20
158.0489373788
 40
2.0
 50
227.9616609079
 51
302.9875801611
  0
ARC
  8
0
 62
7
  6
CONTINUOUS
 10
55.6103433225
 20
162.8203553453
 40
2.0
 50
147.0124198389
 51
222.0383390921
  0
ARC
  8
0
 62
7
  6
CONTINUOUS
 10
100.73454986
 20
141.3342650731
 40
2.0
 50
192.0124198389
 51
267.0383390921
  0
ARC
  8
0
 62
7
  6
CONTINUOUS
 10
75.083331926
 20
276.6198841104
 40
30.0
 50
279.5968984091
 51
305.4031015909
  0
ARC
  8
0
 62
7
  6
CONTINUOUS
 10
34.0356136659
 20
235.5721658502
 40
30.0
 50
324.5968984091
 51
350.4031015909
  0
ARC
  8
0
 62
7
  6
CONTINUOUS
 10
66.6077007627
 20
257.412115178
 40
15.111
 50
212.9875801611
 51
233.7481913565
  0
ARC
  8
0
 62
7
  6
CONTINUOUS
 10
94.65845186
 20
269.0311167172
 40
15.111
 50
351.2518086435
 51
12.0124198389
  0
ARC
  8
0
 62
7
  6
CONTINUOUS
 10
53.2433825983
 20
244.0477970135
 40
15.111
 50
36.2518086435
 51
57.0124198389
  0
ARC
  8
0
 62
7
  6
CONTINUOUS
 10
41.624381059
 20
215.9970459163
 40
15.111
 50
257.9875801611
 51
278.7481913565
  0
ARC
  8
0
 62
7
  6
CONTINUOUS
 10
48.7665293118
 20
233.0814381989
 40
15.06
 50
350.4031015909
 51
53.7481913565
  0
ARC
  8
0
 62
7
  6
CONTINUOUS
 10
77.5740595773
 20
261.8889684644
 40
15.06
 50
216.2518086435
 51
279.5968984091
  0
ARC
  8
0
 62
7
  6
CONTINUOUS
 10
83.73845186
 20
264.4423433517
 40
15.06
 50
305.4031015909
 51
8.7481913565
  0
ARC
  8
0
 62
7
  6
CONTINUOUS
 10
46.2131544245
 20
226.9170459163
 40
15.06
 50
261.2518086435
 51
324.5968984091
  0
ARC
  8
0
 62
7
  6
CONTINUOUS
 10
55.6103433225
 20
250.2737364872
 40
2.0
 50
137.9616609079
 51
212.9875801611
  0
ARC
  8
0
 62
7
  6
CONTINUOUS
 10
60.381761289
 20
255.0451544537
 40
2.0
 50
57.0124198389
 51
132.0383390921
  0
ARC
  8
0
 62
7
  6
CONTINUOUS
 10
38.8956710168
 20
209.9209479163
 40
2.0
 50
102.0124198389
 51
177.0383390921
  0
ARC
  8
0
 62
7
  6
CONTINUOUS
 10
100.73454986
 20
271.7598267594
 40
2.0
 50
92.9616609079
 51
167.9875801611
  0
ARC
  8
0
 62
7
  6
CONTINUOUS
 10
133.1335717939
 20
136.4742077222
 40
30.0
 50
99.5968984091
 51
125.4031015909
  0
ARC
  8
0
 62
7
  6
CONTINUOUS
 10
174.181290054
 20
177.5219259823
 40
30.0
 50
144.5968984091
 51
170.4031015909
  0
ARC
  8
0
 62
7
  6
CONTINUOUS
 10
113.55845186
 20
144.0629751153
 40
15.111
 50
171.2518086435
 51
192.0124198389
  0
ARC
  8
0
 62
7
  6
CONTINUOUS
 10
141.6092029572
 20
155.6819766546
 40
15.111
 50
32.9875801611
 51
53.7481913565
  0
ARC
  8
0
 62
7
  6
CONTINUOUS
 10
154.9735211216
 20
169.046294819
 40
15.111
 50
216.2518086435
 51
237.0124198389
  0
ARC
  8
0
 62
7
  6
CONTINUOUS
 10
166.5925226609
 20
197.0970459163
 40
15.111
 50
77.9875801611
 51
98.7481913565
  0
ARC
  8
0
 62
7
  6
CONTINUOUS
 10
124.47845186
 20
148.6517484809
 40
15.06
 50
125.4031015909
 51
188.7481913565
  0
ARC
  8
0
 62
7
  6
CONTINUOUS
 10
159.4503744081
 20
180.0126536336
 40
15.06
 50
170.4031015909
 51
233.7481913565
  0
ARC
  8
0
 62
7
  6
CONTINUOUS
 10
162.0037492954
 20
186.1770459163
 40
15.06
 50
81.2518086435
 51
144.5968984091
  0
ARC
  8
0
 62
7
  6
CONTINUOUS
 10
130.6428441426
 20
151.2051233681
 40
15.06
 50
36.2518086435
 51
99.5968984091
  0
ARC
  8
0
 62
7
  6
CONTINUOUS
 10
107.48235386
 20
141.3342650731
 40
2.0
 50
272.9616609079
 51
347.9875801611
  0
ARC
  8
0
 62
7
  6
CONTINUOUS
 10
152.6065603974
 20
162.8203553453
 40
2.0
 50
317.9616609079
 51
32.9875801611
  0
ARC
  8
0
 62
7
  6
CONTINUOUS
 10
147.8351424309
 20
158.0489373788
 40
2.0
 50
237.0124198389
 51
312.0383390922
  0
ARC
  8
0
 62
7
  6
CONTINUOUS
 10
169.3212327031
 20
203.1731439163
 40
2.0
 50
282.0124198389
 51
357.0383390921
  0
ARC
  8
0
 62
7
  6
CONTINUOUS
 10
104.10845186
 20
206.5470459163
 40
67.3
 50
267.0383390921
 51
272.9616609079
  0
ARC
  8
0
 62
7
  6
CONTINUOUS
 10
104.10845186
 20
206.5470459163
 40
67.3
 50
87.0383390921
 51
92.9616609079
  0
ARC
  8
0
 62
7
  6
CONTINUOUS
 10
104.10845186
 20
206.5470459163
 40
67.3
 50
132.0383390921
 51
137.9616609079
  0
ARC
  8
0
 62
7
  6
CONTINUOUS
 10
104.10845186
 20
206.5470459163
 40
67.3
 50
177.0383390921
 51
182.9616609079
  0
ARC
  8
0
 62
7
  6
CONTINUOUS
 10
104.10845186
 20
206.5470459163
 40
67.3
 50
222.0383390921
 51
227.9616609079
  0
ARC
  8
0
 62
7
  6
CONTINUOUS
 10
104.10845186
 20
206.5470459163
 40
67.3
 50
312.0383390921
 51
317.9616609079
  0
ARC
  8
0
 62
7
  6
CONTINUOUS
 10
104.10845186
 20
206.5470459163
 40
67.3
 50
357.0383390921
 51
2.9616609079
  0
ARC
  8
0
 62
7
  6
CONTINUOUS
 10
104.10845186
 20
206.5470459163
 40
67.3
 50
42.0383390921
 51
47.9616609079
  0
ARC
  8
0
 62
7
  6
CONTINUOUS
 10
104.10845186
 20
206.5470459163
 40
53.8
 50
38.6228106329
 51
51.3771893671
  0
ARC
  8
0
 62
7
  6
CONTINUOUS
 10
104.10845186
 20
206.5470459163
 40
53.8
 50
353.6228106329
 51
6.3771893671
  0
ARC
  8
0
 62
7
  6
CONTINUOUS
 10
104.10845186
 20
206.5470459163
 40
53.8
 50
308.6228106329
 51
321.3771893671
  0
ARC
  8
0
 62
7
  6
CONTINUOUS
 10
104.10845186
 20
206.5470459163
 40
53.8
 50
218.6228106329
 51
231.3771893671
  0
ARC
  8
0
 62
7
  6
CONTINUOUS
 10
104.10845186
 20
206.5470459163
 40
53.8
 50
173.6228106329
 51
186.3771893671
  0
ARC
  8
0
 62
7
  6
CONTINUOUS
 10
104.10845186
 20
206.5470459163
 40
53.8
 50
128.6228106329
 51
141.3771893671
  0
ARC
  8
0
 62
7
  6
CONTINUOUS
 10
104.10845186
 20
206.5470459163
 40
53.8
 50
263.6228106329
 51
276.3771893671
  0
ARC
  8
0
 62
7
  6
CONTINUOUS
 10
104.10845186
 20
206.5470459163
 40
53.8
 50
83.6228106329
 51
96.3771893671
  0
ARC
  8
0
 62
7
  6
CONTINUOUS
 10
133.1335717939
 20
276.6198841104
 40
30.0
 50
234.5968984091
 51
260.4031015909
  0
ARC
  8
0
 62
7
  6
CONTINUOUS
 10
113.55845186
 20
269.0311167172
 40
15.111
 50
167.9875801611
 51
188.7481913565
  0
ARC
  8
0
 62
7
  6
CONTINUOUS
 10
124.47845186
 20
264.4423433517
 40
15.06
 50
171.2518086435
 51
234.5968984091
  0
ARC
  8
0
 62
7
  6
CONTINUOUS
 10
130.6428441426
 20
261.8889684644
 40
15.06
 50
260.4031015909
 51
323.7481913565
  0
ARC
  8
0
 62
7
  6
CONTINUOUS
 10
107.48235386
 20
271.7598267594
 40
2.0
 50
12.0124198389
 51
87.0383390921
  0
ARC
  8
0
 62
7
  6
CONTINUOUS
 10
174.181290054
 20
235.5721658502
 40
30.0
 50
189.5968984091
 51
215.4031015909
  0
ARC
  8
0
 62
7
  6
CONTINUOUS
 10
166.5925226609
 20
215.9970459163
 40
15.111
 50
261.2518086435
 51
282.0124198389
  0
ARC
  8
0
 62
7
  6
CONTINUOUS
 10
159.4503744081
 20
233.0814381989
 40
15.06
 50
126.2518086435
 51
189.5968984091
  0
ARC
  8
0
 62
7
  6
CONTINUOUS
 10
162.0037492954
 20
226.9170459163
 40
15.06
 50
215.4031015909
 51
278.7481913565
  0
ARC
  8
0
 62
7
  6
CONTINUOUS
 10
169.3212327031
 20
209.9209479163
 40
2.0
 50
2.9616609079
 51
77.9875801611
  0
ARC
  8
0
 62
7
  6
CONTINUOUS
 10
141.6092029572
 20
257.412115178
 40
15.111
 50
306.2518086435
 51
327.0124198389
  0
ARC
  8
0
 62
7
  6
CONTINUOUS
 10
154.9735211216
 20
244.0477970135
 40
15.111
 50
122.9875801611
 51
143.7481913565
  0
ARC
  8
0
 62
7
  6
CONTINUOUS
 10
152.6065603974
 20
250.2737364872
 40
2.0
 50
327.0124198389
 51
42.0383390921
  0
ARC
  8
0
 62
7
  6
CONTINUOUS
 10
147.8351424309
 20
255.0451544537
 40
2.0
 50
47.9616609079
 51
122.9875801611
  0
ARC
  8
0
 62
7
  6
CONTINUOUS
 10
162.4009845904
 20
69.1807986871
 40
5.0
 50
270.0
 51
281.0
  0
ARC
  8
0
 62
7
  6
CONTINUOUS
 10
45.8159191295
 20
69.1807986871
 40
5.0
 50
259.0
 51
270.0
  0
ARC
  8
0
 62
7
  6
CONTINUOUS
 10
162.4009845904
 20
74.1807986871
 40
5.0
 50
79.0
 51
90.0
  0
ARC
  8
0
 62
7
  6
CONTINUOUS
 10
45.8159191295
 20
74.1807986871
 40
5.0
 50
90.0
 51
101.0
  0
ARC
  8
0
 62
7
  6
CONTINUOUS
 10
170.40845186
 20
66.6624258705
 40
1.0
 50
281.0
 51
360.0
  0
ARC
  8
0
 62
7
  6
CONTINUOUS
 10
37.80845186
 20
66.6624258705
 40
1.0
 50
180.0
 51
259.0
  0
ARC
  8
0
 62
7
  6
CONTINUOUS
 10
170.40845186
 20
76.6991715036
 40
1.0
 50
0.0
 51
79.0
  0
ARC
  8
0
 62
7
  6
CONTINUOUS
 10
37.80845186
 20
76.6991715036
 40
1.0
 50
101.0
 51
180.0
  0
ENDSEC
  0
EOF
