  0
SECTION
  2
HEADER
  9
$EXTMAX
 10
420.0
 20
297.0
 30
0.0
  9
$EXTMIN
 10
0.0
 20
0.0
 30
0.0
  9
$LIMMIN
 10
0.0
 20
0.0
  9
$LIMMAX
 10
420.0
 20
297.0
  9
$VIEWCTR
 10
210.0
 20
148.5
  9
$VIEWSIZE
 40
297.0
  9
$CLAYER
  8
0
  9
$LTSCALE
 40
23.1
  9
$CELTYPE
  6
BYLAYER
  9
$DIMSCALE
 40
1.0
  9
$DIMASZ
 40
3.5
  9
$DIMEXO
 40
1.0
  9
$DIMDLI
 40
15.96
  9
$DIMEXE
 40
2.0
  9
$DIMCEN
 40
3.78
  9
$DIMLFAC
 40
1.0
  9
$DIMBLK
  1
_FILLED
  9
$DIMTXT
 40
3.5
  9
$AUNITS
 70
0
  9
$PDMODE
 70
3
  9
$PDSIZE
 40
0.3125
  9
$TILEMODE
 70
1
  0
ENDSEC
  0
SECTION
  2
TABLES
  0
TABLE
  2
LTYPE
 70
6
  0
LTYPE
  2
BYBLOCK
 70
0
  3

 72
65
 73
0
 40
0.0
  0
LTYPE
  2
BYLAYER
 70
0
  3

 72
65
 73
0
 40
0.0
  0
LTYPE
  2
CONTINUOUS
 70
64
  3
Solid line
 72
65
 73
0
 40
0.0
  0
LTYPE
  2
CENTER
 70
64
  3
____ _ ____ _ ____ _ ____ _ ____ _ ____ _ ____
 72
65
 73
4
 40
0.6
 49
0.375
 49
-0.075
 49
0.075
 49
-0.075
  0
LTYPE
  2
HIDDEN
 70
64
  3
- - - - - - - - - - - - - - - - - - - -
 72
65
 73
2
 40
0.2
 49
0.1
 49
-0.1
  0
LTYPE
  2
PHANTOM
 70
64
  3
_____ _ _ _____ _ _ _____ _ _ _____
 72
65
 73
6
 40
0.8
 49
0.45
 49
-0.05
 49
0.1
 49
-0.05
 49
0.1
 49
-0.05
  0
LTYPE
  2
DOT
 70
64
  3
. . . . . . . . . . . . . . . . . . . .
 72
65
 73
2
 40
0.2
 49
0.1
 49
-0.1
  0
LTYPE
  2
DASHED
 70
64
  3
- - - - - - - - - - - - - - - - - - - -
 72
65
 73
2
 40
0.2
 49
0.1
 49
-0.1
  0
ENDTAB
  0
TABLE
  2
LAYER
 70
36
  0
LAYER
  2
0
 70
0
 62
7
  6
CONTINUOUS
  0
LAYER
  2
DEFAULT_1
 70
0
 62
7
  6
CENTER
  0
LAYER
  2
DEFAULT_2
 70
0
 62
8
  6
HIDDEN
  0
LAYER
  2
DEFAULT_3
 70
0
 62
7
  6
PHANTOM
  0
LAYER
  2
CURVE
 70
0
 62
7
  6
CONTINUOUS
  0
LAYER
  2
PLAN
 70
0
 62
7
  6
CONTINUOUS
  0
LAYER
  2
SURFACE
 70
0
 62
7
  6
CONTINUOUS
  0
ENDTAB
  0
TABLE
  2
STYLE
 70
1
  0
STYLE
  2
STANDARD
 70
0
 40
0.0
 41
0.8
 50
0.0
 71
0
 42
0.2
  3
txt
  4

  0
STYLE
  2
TEXTSTYLE_1
 70
0
 40
0.0
 41
0.8
 50
0.0
 71
0
 42
0.2
  3
gdt
  4

  0
STYLE
  2
TEXTSTYLE_2
 70
0
 40
0.0
 41
0.6
 50
0.0
 71
0
 42
0.2
  3
txt
  4

  0
STYLE
  2
TEXTSTYLE_3
 70
0
 40
0.0
 41
1.0
 50
0.0
 71
0
 42
0.2
  3
ftb_____.ttf
  4

  0
STYLE
  2
TEXTSTYLE_4
 70
0
 40
0.0
 41
1.0
 50
0.0
 71
0
 42
0.2
  3
fti_____.ttf
  4

  0
STYLE
  2
TEXTSTYLE_5
 70
0
 40
0.0
 41
1.0
 50
0.0
 71
0
 42
0.2
  3
frutiger light.ttf
  4

  0
STYLE
  2
TEXTSTYLE_6
 70
0
 40
0.0
 41
0.7
 50
0.0
 71
0
 42
0.2
  3
txt
  4

  0
STYLE
  2
TEXTSTYLE_7
 70
0
 40
0.0
 41
0.4
 50
0.0
 71
0
 42
0.2
  3
txt
  4

  0
ENDTAB
  0
ENDSEC
  0
SECTION
  2
BLOCKS
  0
BLOCK
  8
0
 62
2
  6
CONTINUOUS
  2
UNI_LOGO2_BL1
 70
64
 10
382.7840918555
 20
35.5067593403
  0
TEXT
  8
0
 62
7
  6
CONTINUOUS
 10
373.842376864
 20
30.5995157174
  7
TEXTSTYLE_4
 40
1.0655737705
  1
The brand for plastic modular belts and chains
 41
1.0
 72
0
  0
LINE
  8
0
 62
7
  6
CONTINUOUS
 10
358.7621602445
 20
36.0805298321
 11
358.7621602445
 21
33.9493822911
  0
LINE
  8
0
 62
7
  6
CONTINUOUS
 10
359.0512227376
 20
30.9584509954
 11
359.0512227376
 21
31.0552420547
  0
LINE
  8
0
 62
7
  6
CONTINUOUS
 10
358.7621602445
 20
31.0229783683
 11
358.8199727462
 21
30.8293962497
  0
LINE
  8
0
 62
7
  6
CONTINUOUS
 10
360.1556028675
 20
33.867415078
 11
360.1556028675
 21
36.0805298321
  0
LINE
  8
0
 62
7
  6
CONTINUOUS
 10
361.0746601894
 20
32.0231527829
 11
361.0746601894
 21
30.5067593403
  0
LINE
  8
0
 62
7
  6
CONTINUOUS
 10
361.3637227445
 20
30.5067593403
 11
361.3637227445
 21
31.2488242184
  0
LINE
  8
0
 62
7
  6
CONTINUOUS
 10
361.3637227445
 20
31.3778789641
 11
361.3637227445
 21
32.0231527829
  0
LINE
  8
0
 62
7
  6
CONTINUOUS
 10
358.8199727462
 20
31.216560532
 11
358.7621602445
 21
31.0229783683
  0
LINE
  8
0
 62
7
  6
CONTINUOUS
 10
359.1668477307
 20
30.7971325633
 11
359.0512227376
 21
30.9584509954
  0
LINE
  8
0
 62
7
  6
CONTINUOUS
 10
360.2652852997
 20
31.3133515913
 11
360.3230977445
 21
31.216560532
  0
LINE
  8
0
 62
7
  6
CONTINUOUS
 10
360.6121602997
 20
31.216560532
 11
360.5543476894
 21
31.3456152777
  0
LINE
  8
0
 62
7
  6
CONTINUOUS
 10
362.0408487691
 20
36.0805298321
 11
362.0408487691
 21
34.2772511436
  0
LINE
  8
0
 62
7
  6
CONTINUOUS
 10
362.0408487691
 20
32.9657757338
 11
362.0408487691
 21
32.3100380288
  0
LINE
  8
0
 62
7
  6
CONTINUOUS
 10
362.4043477445
 20
31.1520331591
 11
362.4043477445
 21
30.5067593403
  0
LINE
  8
0
 62
7
  6
CONTINUOUS
 10
362.6934101343
 20
30.5067593403
 11
362.6934101343
 21
31.1520331591
  0
LINE
  8
0
 62
7
  6
CONTINUOUS
 10
359.0512227376
 20
31.0552420547
 11
359.1090352445
 21
31.1842968456
  0
LINE
  8
0
 62
7
  6
CONTINUOUS
 10
358.8199727462
 20
30.8293962497
 11
358.9355977445
 21
30.7003414814
  0
LINE
  8
0
 62
7
  6
CONTINUOUS
 10
362.3465351343
 20
31.2810879048
 11
362.4043477445
 21
31.1520331591
  0
LINE
  8
0
 62
7
  6
CONTINUOUS
 10
363.1559103548
 20
30.7971325633
 11
363.2137226343
 21
30.668077795
  0
LINE
  8
0
 62
7
  6
CONTINUOUS
 10
362.6934101343
 20
31.1520331591
 11
362.6355978548
 21
31.3133515913
  0
LINE
  8
0
 62
7
  6
CONTINUOUS
 10
363.1559103548
 20
31.3456152777
 11
363.1559103548
 21
31.2810879048
  0
LINE
  8
0
 62
7
  6
CONTINUOUS
 10
363.1559103548
 20
30.8939236226
 11
363.1559103548
 21
30.7971325633
  0
LINE
  8
0
 62
7
  6
CONTINUOUS
 10
363.4342913921
 20
32.3100380288
 11
363.4342913921
 21
36.0805298321
  0
LINE
  8
0
 62
7
  6
CONTINUOUS
 10
363.4449727445
 20
30.7648688543
 11
363.4449727445
 21
30.8293962497
  0
LINE
  8
0
 62
7
  6
CONTINUOUS
 10
363.7621602445
 20
36.0805298321
 11
363.7621602445
 21
32.3100380288
  0
LINE
  8
0
 62
7
  6
CONTINUOUS
 10
360.5543476894
 20
30.7003414814
 11
360.6121602997
 21
30.8293962497
  0
LINE
  8
0
 62
7
  6
CONTINUOUS
 10
364.9480979651
 20
30.6035504109
 11
364.890285024
 21
30.7648688543
  0
LINE
  8
0
 62
7
  6
CONTINUOUS
 10
364.6012229651
 20
31.2810879048
 11
364.6012229651
 21
31.1842968456
  0
LINE
  8
0
 62
7
  6
CONTINUOUS
 10
364.6012229651
 20
31.0552420547
 11
364.6012229651
 21
30.8616599362
  0
LINE
  8
0
 62
7
  6
CONTINUOUS
 10
364.890285024
 20
30.7648688543
 11
364.890285024
 21
31.2810879048
  0
LINE
  8
0
 62
7
  6
CONTINUOUS
 10
365.1556028675
 20
32.3100380288
 11
365.1556028675
 21
34.1133167174
  0
LINE
  8
0
 62
7
  6
CONTINUOUS
 10
365.1556028675
 20
35.4247921272
 11
365.1556028675
 21
36.0805298321
  0
LINE
  8
0
 62
7
  6
CONTINUOUS
 10
365.4684104651
 20
32.0231527829
 11
365.4684104651
 21
31.8618343508
  0
LINE
  8
0
 62
7
  6
CONTINUOUS
 10
365.4684104651
 20
31.5391973962
 11
365.4684104651
 21
30.5067593403
  0
LINE
  8
0
 62
7
  6
CONTINUOUS
 10
365.757472524
 20
30.5067593403
 11
365.757472524
 21
31.5391973962
  0
LINE
  8
0
 62
7
  6
CONTINUOUS
 10
365.757472524
 20
31.8618343508
 11
365.757472524
 21
32.0231527829
  0
LINE
  8
0
 62
7
  6
CONTINUOUS
 10
360.3230977445
 20
30.8293962497
 11
360.2652852997
 21
30.7326051679
  0
LINE
  8
0
 62
7
  6
CONTINUOUS
 10
362.6355978548
 20
31.3133515913
 11
362.5777852445
 21
31.3778789641
  0
LINE
  8
0
 62
7
  6
CONTINUOUS
 10
363.5027853548
 20
30.7003414814
 11
363.4449727445
 21
30.7648688543
  0
LINE
  8
0
 62
7
  6
CONTINUOUS
 10
364.6590352445
 20
30.5712867188
 11
364.716847524
 21
30.5067593403
  0
LINE
  8
0
 62
7
  6
CONTINUOUS
 10
364.6012229651
 20
30.668077795
 11
364.6590352445
 21
30.5712867188
  0
LINE
  8
0
 62
7
  6
CONTINUOUS
 10
365.0059102445
 20
30.5067593403
 11
364.9480979651
 21
30.6035504109
  0
LINE
  8
0
 62
7
  6
CONTINUOUS
 10
364.890285024
 20
31.2810879048
 11
364.8324727445
 21
31.3778789641
  0
LINE
  8
0
 62
7
  6
CONTINUOUS
 10
366.2199727445
 20
31.5391973962
 11
366.2199727445
 21
30.5067593403
  0
LINE
  8
0
 62
7
  6
CONTINUOUS
 10
366.5090354651
 20
30.5067593403
 11
366.5090354651
 21
31.2488242184
  0
LINE
  8
0
 62
7
  6
CONTINUOUS
 10
366.5090354651
 20
31.3778789641
 11
366.5090354651
 21
31.5391973962
  0
LINE
  8
0
 62
7
  6
CONTINUOUS
 10
367.0408487691
 20
34.5231527829
 11
367.0408487691
 21
32.3100380288
  0
LINE
  8
0
 62
7
  6
CONTINUOUS
 10
358.9355977445
 20
31.3456152777
 11
358.8199727462
 21
31.216560532
  0
LINE
  8
0
 62
7
  6
CONTINUOUS
 10
359.1090352445
 20
31.1842968456
 11
359.1668477307
 21
31.2488242184
  0
LINE
  8
0
 62
7
  6
CONTINUOUS
 10
358.9355977445
 20
30.7003414814
 11
359.0512227376
 21
30.6358140973
  0
LINE
  8
0
 62
7
  6
CONTINUOUS
 10
359.3402852307
 20
30.7003414814
 11
359.1668477307
 21
30.7971325633
  0
LINE
  8
0
 62
7
  6
CONTINUOUS
 10
364.543410024
 20
31.3456152777
 11
364.6012229651
 21
31.2810879048
  0
LINE
  8
0
 62
7
  6
CONTINUOUS
 10
367.491847524
 20
31.2810879048
 11
367.5496604651
 21
31.1197694727
  0
LINE
  8
0
 62
7
  6
CONTINUOUS
 10
367.838722524
 20
31.1197694727
 11
367.7809102445
 21
31.2810879048
  0
LINE
  8
0
 62
7
  6
CONTINUOUS
 10
367.5496604651
 20
31.1197694727
 11
367.5496604651
 21
30.5067593403
  0
LINE
  8
0
 62
7
  6
CONTINUOUS
 10
367.838722524
 20
30.5067593403
 11
367.838722524
 21
31.1197694727
  0
LINE
  8
0
 62
7
  6
CONTINUOUS
 10
368.3012227445
 20
31.3456152777
 11
368.3012227445
 21
31.2810879048
  0
LINE
  8
0
 62
7
  6
CONTINUOUS
 10
368.4342913921
 20
32.3100380288
 11
368.4342913921
 21
34.4411855698
  0
LINE
  8
0
 62
7
  6
CONTINUOUS
 10
368.7621602445
 20
36.0805298321
 11
368.7621602445
 21
32.3100380288
  0
LINE
  8
0
 62
7
  6
CONTINUOUS
 10
363.4449727445
 20
30.8293962497
 11
363.5027853548
 21
30.926187309
  0
LINE
  8
0
 62
7
  6
CONTINUOUS
 10
359.0512227376
 20
30.6358140973
 11
359.2246602583
 21
30.5712867188
  0
LINE
  8
0
 62
7
  6
CONTINUOUS
 10
360.5543476894
 20
31.3456152777
 11
360.3809101894
 21
31.4424063369
  0
LINE
  8
0
 62
7
  6
CONTINUOUS
 10
363.2137226343
 20
30.668077795
 11
363.3871601343
 21
30.5712867188
  0
LINE
  8
0
 62
7
  6
CONTINUOUS
 10
362.2309102445
 20
31.3456152777
 11
362.3465351343
 21
31.2810879048
  0
LINE
  8
0
 62
7
  6
CONTINUOUS
 10
362.5777852445
 20
31.3778789641
 11
362.4621603548
 21
31.4424063369
  0
LINE
  8
0
 62
7
  6
CONTINUOUS
 10
368.3012227445
 20
30.7648688543
 11
368.4168479651
 21
30.6358140973
  0
LINE
  8
0
 62
7
  6
CONTINUOUS
 10
368.6480977445
 20
30.7003414814
 11
368.5902854651
 21
30.7648688543
  0
LINE
  8
0
 62
7
  6
CONTINUOUS
 10
368.3012227445
 20
31.2810879048
 11
368.4168479651
 21
31.1520331591
  0
LINE
  8
0
 62
7
  6
CONTINUOUS
 10
367.7809102445
 20
31.2810879048
 11
367.7230979651
 21
31.3778789641
  0
LINE
  8
0
 62
7
  6
CONTINUOUS
 10
370.1512223035
 20
30.7003414814
 11
370.1512223035
 21
30.7648688543
  0
LINE
  8
0
 62
7
  6
CONTINUOUS
 10
370.1556028675
 20
32.3100380288
 11
370.1556028675
 21
36.0805298321
  0
LINE
  8
0
 62
7
  6
CONTINUOUS
 10
363.2137226343
 20
31.4101426505
 11
363.1559103548
 21
31.3456152777
  0
LINE
  8
0
 62
7
  6
CONTINUOUS
 10
360.091847717
 20
31.3778789641
 11
360.2652852997
 21
31.3133515913
  0
LINE
  8
0
 62
7
  6
CONTINUOUS
 10
364.8324727445
 20
31.3778789641
 11
364.716847524
 21
31.4424063369
  0
LINE
  8
0
 62
7
  6
CONTINUOUS
 10
368.6480977445
 20
31.216560532
 11
368.5902854651
 21
31.2810879048
  0
LINE
  8
0
 62
7
  6
CONTINUOUS
 10
369.8043479651
 20
30.8293962497
 11
369.8621602445
 21
30.7648688543
  0
LINE
  8
0
 62
7
  6
CONTINUOUS
 10
370.1512223035
 20
30.7648688543
 11
370.0355977445
 21
30.8939236226
  0
LINE
  8
0
 62
7
  6
CONTINUOUS
 10
369.8043479651
 20
31.3456152777
 11
369.8621602445
 21
31.2810879048
  0
LINE
  8
0
 62
7
  6
CONTINUOUS
 10
370.1512223035
 20
31.2810879048
 11
370.0355977445
 21
31.4101426505
  0
LINE
  8
0
 62
7
  6
CONTINUOUS
 10
363.4449727445
 20
31.2810879048
 11
363.5027853548
 21
31.3456152777
  0
LINE
  8
0
 62
7
  6
CONTINUOUS
 10
363.2715352445
 20
31.0229783683
 11
363.1559103548
 21
30.8939236226
  0
LINE
  8
0
 62
7
  6
CONTINUOUS
 10
364.6012229651
 20
30.8616599362
 11
364.543410024
 21
30.7971325633
  0
LINE
  8
0
 62
7
  6
CONTINUOUS
 10
364.543410024
 20
30.6035504109
 11
364.6012229651
 21
30.668077795
  0
LINE
  8
0
 62
7
  6
CONTINUOUS
 10
363.3871601343
 20
30.5712867188
 11
363.5027853548
 21
30.5390230296
  0
LINE
  8
0
 62
7
  6
CONTINUOUS
 10
360.3809101894
 20
31.4424063369
 11
360.1496602445
 21
31.5069337098
  0
LINE
  8
0
 62
7
  6
CONTINUOUS
 10
363.7340351343
 20
30.6358140973
 11
363.5027853548
 21
30.7003414814
  0
LINE
  8
0
 62
7
  6
CONTINUOUS
 10
362.4621603548
 20
31.4424063369
 11
362.2887228548
 21
31.5069337098
  0
LINE
  8
0
 62
7
  6
CONTINUOUS
 10
364.716847524
 20
31.4424063369
 11
364.543410024
 21
31.5069337098
  0
LINE
  8
0
 62
7
  6
CONTINUOUS
 10
367.3762229651
 20
31.3456152777
 11
367.491847524
 21
31.2810879048
  0
LINE
  8
0
 62
7
  6
CONTINUOUS
 10
367.7230979651
 20
31.3778789641
 11
367.6074727445
 21
31.4424063369
  0
LINE
  8
0
 62
7
  6
CONTINUOUS
 10
359.2246602583
 20
30.5712867188
 11
359.3980977583
 21
30.5390230296
  0
LINE
  8
0
 62
7
  6
CONTINUOUS
 10
359.6871602721
 20
30.6358140973
 11
359.3402852307
 21
30.7003414814
  0
LINE
  8
0
 62
7
  6
CONTINUOUS
 10
362.1152853548
 20
31.3778789641
 11
362.2309102445
 21
31.3456152777
  0
LINE
  8
0
 62
7
  6
CONTINUOUS
 10
364.4277854651
 20
31.3778789641
 11
364.543410024
 21
31.3456152777
  0
LINE
  8
0
 62
7
  6
CONTINUOUS
 10
368.7637229651
 20
30.668077795
 11
368.6480977445
 21
30.7003414814
  0
LINE
  8
0
 62
7
  6
CONTINUOUS
 10
367.2605977445
 20
31.3778789641
 11
367.3762229651
 21
31.3456152777
  0
LINE
  8
0
 62
7
  6
CONTINUOUS
 10
368.4168479651
 20
30.6358140973
 11
368.5902854651
 21
30.5712867188
  0
LINE
  8
0
 62
7
  6
CONTINUOUS
 10
367.6074727445
 20
31.4424063369
 11
367.4340352445
 21
31.5069337098
  0
LINE
  8
0
 62
7
  6
CONTINUOUS
 10
368.8215352445
 20
31.1520331591
 11
368.6480977445
 21
31.216560532
  0
LINE
  8
0
 62
7
  6
CONTINUOUS
 10
369.6309104651
 20
30.8939236226
 11
369.8043479651
 21
30.8293962497
  0
LINE
  8
0
 62
7
  6
CONTINUOUS
 10
370.0355977445
 20
31.4101426505
 11
369.8621602445
 21
31.4746700234
  0
LINE
  8
0
 62
7
  6
CONTINUOUS
 10
368.4168479651
 20
31.1520331591
 11
368.6480977445
 21
31.0552420547
  0
LINE
  8
0
 62
7
  6
CONTINUOUS
 10
370.0355977445
 20
30.8939236226
 11
369.8043479651
 21
30.9907146818
  0
LINE
  8
0
 62
7
  6
CONTINUOUS
 10
368.5902854651
 20
31.2810879048
 11
368.6480977445
 21
31.3456152777
  0
LINE
  8
0
 62
7
  6
CONTINUOUS
 10
359.0512227376
 20
31.4101426505
 11
358.9355977445
 21
31.3456152777
  0
LINE
  8
0
 62
7
  6
CONTINUOUS
 10
359.1668477307
 20
31.2488242184
 11
359.3402852307
 21
31.3456152777
  0
LINE
  8
0
 62
7
  6
CONTINUOUS
 10
361.4793477997
 20
31.4424063369
 11
361.3637227445
 21
31.3778789641
  0
LINE
  8
0
 62
7
  6
CONTINUOUS
 10
361.3637227445
 20
31.2488242184
 11
361.4793477997
 21
31.3133515913
  0
LINE
  8
0
 62
7
  6
CONTINUOUS
 10
360.3809101894
 20
30.6035504109
 11
360.5543476894
 21
30.7003414814
  0
LINE
  8
0
 62
7
  6
CONTINUOUS
 10
359.3980977583
 20
30.5390230296
 11
359.744972717
 21
30.5067593403
  0
LINE
  8
0
 62
7
  6
CONTINUOUS
 10
363.5027853548
 20
30.5390230296
 11
363.7340351343
 21
30.5067593403
  0
LINE
  8
0
 62
7
  6
CONTINUOUS
 10
361.8840352445
 20
31.4101426505
 11
362.1152853548
 21
31.3778789641
  0
LINE
  8
0
 62
7
  6
CONTINUOUS
 10
364.1965353548
 20
31.4101426505
 11
364.4277854651
 21
31.3778789641
  0
LINE
  8
0
 62
7
  6
CONTINUOUS
 10
368.6480977445
 20
31.0552420547
 11
369.6309104651
 21
30.8939236226
  0
LINE
  8
0
 62
7
  6
CONTINUOUS
 10
369.8043479651
 20
30.9907146818
 11
368.8215352445
 21
31.1520331591
  0
LINE
  8
0
 62
7
  6
CONTINUOUS
 10
362.2887228548
 20
31.5069337098
 11
362.1152853548
 21
31.5391973962
  0
LINE
  8
0
 62
7
  6
CONTINUOUS
 10
368.5902854651
 20
30.5712867188
 11
368.7637229651
 21
30.5390230296
  0
LINE
  8
0
 62
7
  6
CONTINUOUS
 10
367.4340352445
 20
31.5069337098
 11
367.2605977445
 21
31.5391973962
  0
LINE
  8
0
 62
7
  6
CONTINUOUS
 10
369.6887227445
 20
31.3778789641
 11
369.8043479651
 21
31.3456152777
  0
LINE
  8
0
 62
7
  6
CONTINUOUS
 10
369.8621602445
 20
30.7648688543
 11
369.8043479651
 21
30.7003414814
  0
LINE
  8
0
 62
7
  6
CONTINUOUS
 10
368.4168479651
 20
31.4424063369
 11
368.3012227445
 21
31.3456152777
  0
LINE
  8
0
 62
7
  6
CONTINUOUS
 10
363.3293478548
 20
31.4746700234
 11
363.2137226343
 21
31.4101426505
  0
LINE
  8
0
 62
7
  6
CONTINUOUS
 10
363.3871601343
 20
31.0875057863
 11
363.2715352445
 21
31.0229783683
  0
LINE
  8
0
 62
7
  6
CONTINUOUS
 10
363.5027853548
 20
30.926187309
 11
363.6184102445
 21
30.9907146818
  0
LINE
  8
0
 62
7
  6
CONTINUOUS
 10
361.0746601894
 20
30.5067593403
 11
361.3637227445
 21
30.5067593403
  0
LINE
  8
0
 62
7
  6
CONTINUOUS
 10
362.4043477445
 20
30.5067593403
 11
362.6934101343
 21
30.5067593403
  0
LINE
  8
0
 62
7
  6
CONTINUOUS
 10
363.7340351343
 20
30.5067593403
 11
364.0809101343
 21
30.5067593403
  0
LINE
  8
0
 62
7
  6
CONTINUOUS
 10
364.716847524
 20
30.5067593403
 11
365.0059102445
 21
30.5067593403
  0
LINE
  8
0
 62
7
  6
CONTINUOUS
 10
365.4684104651
 20
30.5067593403
 11
365.757472524
 21
30.5067593403
  0
LINE
  8
0
 62
7
  6
CONTINUOUS
 10
366.2199727445
 20
30.5067593403
 11
366.5090354651
 21
30.5067593403
  0
LINE
  8
0
 62
7
  6
CONTINUOUS
 10
367.5496604651
 20
30.5067593403
 11
367.838722524
 21
30.5067593403
  0
LINE
  8
0
 62
7
  6
CONTINUOUS
 10
369.1105979651
 20
30.5067593403
 11
369.4574729651
 21
30.5067593403
  0
LINE
  8
0
 62
7
  6
CONTINUOUS
 10
369.4574729651
 20
30.6358140973
 11
369.1105979651
 21
30.6358140973
  0
LINE
  8
0
 62
7
  6
CONTINUOUS
 10
364.0809101343
 20
30.6358140973
 11
363.7340351343
 21
30.6358140973
  0
LINE
  8
0
 62
7
  6
CONTINUOUS
 10
368.5902854651
 20
30.7648688543
 11
368.3012227445
 21
30.7648688543
  0
LINE
  8
0
 62
7
  6
CONTINUOUS
 10
360.6121602997
 20
30.8293962497
 11
360.3230977445
 21
30.8293962497
  0
LINE
  8
0
 62
7
  6
CONTINUOUS
 10
359.6871602721
 20
31.4101426505
 11
360.091847717
 21
31.3778789641
  0
LINE
  8
0
 62
7
  6
CONTINUOUS
 10
360.1496602445
 20
31.5069337098
 11
359.744972717
 21
31.5391973962
  0
LINE
  8
0
 62
7
  6
CONTINUOUS
 10
368.7637229651
 20
30.5390230296
 11
369.1105979651
 21
30.5067593403
  0
LINE
  8
0
 62
7
  6
CONTINUOUS
 10
369.1105979651
 20
30.6358140973
 11
368.7637229651
 21
30.668077795
  0
LINE
  8
0
 62
7
  6
CONTINUOUS
 10
364.543410024
 20
31.5069337098
 11
364.1965353548
 21
31.5391973962
  0
LINE
  8
0
 62
7
  6
CONTINUOUS
 10
369.3418477445
 20
31.4101426505
 11
369.6887227445
 21
31.3778789641
  0
LINE
  8
0
 62
7
  6
CONTINUOUS
 10
369.6887227445
 20
31.5069337098
 11
369.3418477445
 21
31.5391973962
  0
LINE
  8
0
 62
7
  6
CONTINUOUS
 10
367.0293479651
 20
31.4101426505
 11
367.2605977445
 21
31.3778789641
  0
LINE
  8
0
 62
7
  6
CONTINUOUS
 10
369.8621602445
 20
31.4746700234
 11
369.6887227445
 21
31.5069337098
  0
LINE
  8
0
 62
7
  6
CONTINUOUS
 10
370.0355977445
 20
30.6035504109
 11
370.1512223035
 21
30.7003414814
  0
LINE
  8
0
 62
7
  6
CONTINUOUS
 10
364.543410024
 20
30.7971325633
 11
364.369972524
 21
30.7003414814
  0
LINE
  8
0
 62
7
  6
CONTINUOUS
 10
366.624660024
 20
31.4424063369
 11
366.5090354651
 21
31.3778789641
  0
LINE
  8
0
 62
7
  6
CONTINUOUS
 10
366.5090354651
 20
31.2488242184
 11
366.624660024
 21
31.3133515913
  0
LINE
  8
0
 62
7
  6
CONTINUOUS
 10
359.2246602583
 20
31.4746700234
 11
359.0512227376
 21
31.4101426505
  0
LINE
  8
0
 62
7
  6
CONTINUOUS
 10
361.6527851343
 20
31.5069337098
 11
361.4793477997
 21
31.4424063369
  0
LINE
  8
0
 62
7
  6
CONTINUOUS
 10
361.4793477997
 20
31.3133515913
 11
361.6527851343
 21
31.3778789641
  0
LINE
  8
0
 62
7
  6
CONTINUOUS
 10
360.2652852997
 20
30.7326051679
 11
360.091847717
 21
30.668077795
  0
LINE
  8
0
 62
7
  6
CONTINUOUS
 10
369.6887227445
 20
30.668077795
 11
369.4574729651
 21
30.6358140973
  0
LINE
  8
0
 62
7
  6
CONTINUOUS
 10
364.0809101343
 20
30.5067593403
 11
364.369972524
 21
30.5390230296
  0
LINE
  8
0
 62
7
  6
CONTINUOUS
 10
369.4574729651
 20
30.5067593403
 11
369.8043479651
 21
30.5390230296
  0
LINE
  8
0
 62
7
  6
CONTINUOUS
 10
359.744972717
 20
30.5067593403
 11
360.1496602445
 21
30.5390230296
  0
LINE
  8
0
 62
7
  6
CONTINUOUS
 10
360.091847717
 20
30.668077795
 11
359.6871602721
 21
30.6358140973
  0
LINE
  8
0
 62
7
  6
CONTINUOUS
 10
363.9652852445
 20
31.0552420547
 11
364.6012229651
 21
31.0552420547
  0
LINE
  8
0
 62
7
  6
CONTINUOUS
 10
364.6012229651
 20
31.1842968456
 11
363.9652852445
 21
31.1842968456
  0
LINE
  8
0
 62
7
  6
CONTINUOUS
 10
360.3230977445
 20
31.216560532
 11
360.6121602997
 21
31.216560532
  0
LINE
  8
0
 62
7
  6
CONTINUOUS
 10
363.1559103548
 20
31.2810879048
 11
363.4449727445
 21
31.2810879048
  0
LINE
  8
0
 62
7
  6
CONTINUOUS
 10
369.8621602445
 20
31.2810879048
 11
370.1512223035
 21
31.2810879048
  0
LINE
  8
0
 62
7
  6
CONTINUOUS
 10
363.8496603548
 20
31.4101426505
 11
364.1965353548
 21
31.4101426505
  0
LINE
  8
0
 62
7
  6
CONTINUOUS
 10
368.9949727445
 20
31.4101426505
 11
369.3418477445
 21
31.4101426505
  0
LINE
  8
0
 62
7
  6
CONTINUOUS
 10
369.3418477445
 20
31.5391973962
 11
368.9949727445
 21
31.5391973962
  0
LINE
  8
0
 62
7
  6
CONTINUOUS
 10
367.2605977445
 20
31.5391973962
 11
367.0293479651
 21
31.5391973962
  0
LINE
  8
0
 62
7
  6
CONTINUOUS
 10
366.5090354651
 20
31.5391973962
 11
366.2199727445
 21
31.5391973962
  0
LINE
  8
0
 62
7
  6
CONTINUOUS
 10
365.757472524
 20
31.5391973962
 11
365.4684104651
 21
31.5391973962
  0
LINE
  8
0
 62
7
  6
CONTINUOUS
 10
364.1965353548
 20
31.5391973962
 11
363.8496603548
 21
31.5391973962
  0
LINE
  8
0
 62
7
  6
CONTINUOUS
 10
362.1152853548
 20
31.5391973962
 11
361.8840352445
 21
31.5391973962
  0
LINE
  8
0
 62
7
  6
CONTINUOUS
 10
365.4684104651
 20
31.8618343508
 11
365.757472524
 21
31.8618343508
  0
LINE
  8
0
 62
7
  6
CONTINUOUS
 10
365.757472524
 20
32.0231527829
 11
365.4684104651
 21
32.0231527829
  0
LINE
  8
0
 62
7
  6
CONTINUOUS
 10
361.3637227445
 20
32.0231527829
 11
361.0746601894
 21
32.0231527829
  0
LINE
  8
0
 62
7
  6
CONTINUOUS
 10
360.4015045068
 20
32.3100380288
 11
360.8140758554
 21
32.3100380288
  0
LINE
  8
0
 62
7
  6
CONTINUOUS
 10
362.0408487691
 20
32.3100380288
 11
363.4342913921
 21
32.3100380288
  0
LINE
  8
0
 62
7
  6
CONTINUOUS
 10
363.7621602445
 20
32.3100380288
 11
365.1556028675
 21
32.3100380288
  0
LINE
  8
0
 62
7
  6
CONTINUOUS
 10
367.0408487691
 20
32.3100380288
 11
368.4342913921
 21
32.3100380288
  0
LINE
  8
0
 62
7
  6
CONTINUOUS
 10
368.7621602445
 20
32.3100380288
 11
370.1556028675
 21
32.3100380288
  0
LINE
  8
0
 62
7
  6
CONTINUOUS
 10
366.798097524
 20
31.5069337098
 11
366.624660024
 21
31.4424063369
  0
LINE
  8
0
 62
7
  6
CONTINUOUS
 10
364.369972524
 20
30.5390230296
 11
364.543410024
 21
30.6035504109
  0
LINE
  8
0
 62
7
  6
CONTINUOUS
 10
369.8043479651
 20
30.5390230296
 11
370.0355977445
 21
30.6035504109
  0
LINE
  8
0
 62
7
  6
CONTINUOUS
 10
369.8043479651
 20
30.7003414814
 11
369.6887227445
 21
30.668077795
  0
LINE
  8
0
 62
7
  6
CONTINUOUS
 10
368.7637229651
 20
31.3778789641
 11
368.9949727445
 21
31.4101426505
  0
LINE
  8
0
 62
7
  6
CONTINUOUS
 10
366.798097524
 20
31.3778789641
 11
367.0293479651
 21
31.4101426505
  0
LINE
  8
0
 62
7
  6
CONTINUOUS
 10
363.7340351343
 20
31.0229783683
 11
363.9652852445
 21
31.0552420547
  0
LINE
  8
0
 62
7
  6
CONTINUOUS
 10
367.0293479651
 20
31.5391973962
 11
366.798097524
 21
31.5069337098
  0
LINE
  8
0
 62
7
  6
CONTINUOUS
 10
363.6184102445
 20
31.3778789641
 11
363.8496603548
 21
31.4101426505
  0
LINE
  8
0
 62
7
  6
CONTINUOUS
 10
368.9949727445
 20
31.5391973962
 11
368.6480977445
 21
31.5069337098
  0
LINE
  8
0
 62
7
  6
CONTINUOUS
 10
363.9652852445
 20
31.1842968456
 11
363.6184102445
 21
31.1520331591
  0
LINE
  8
0
 62
7
  6
CONTINUOUS
 10
359.744972717
 20
31.5391973962
 11
359.3980977583
 21
31.5069337098
  0
LINE
  8
0
 62
7
  6
CONTINUOUS
 10
363.8496603548
 20
31.5391973962
 11
363.4449727445
 21
31.5069337098
  0
LINE
  8
0
 62
7
  6
CONTINUOUS
 10
361.221176638
 20
33.4575790124
 11
360.565438933
 21
33.4575790124
  0
LINE
  8
0
 62
7
  6
CONTINUOUS
 10
366.624660024
 20
31.3133515913
 11
366.798097524
 21
31.3778789641
  0
LINE
  8
0
 62
7
  6
CONTINUOUS
 10
368.6480977445
 20
31.3456152777
 11
368.7637229651
 21
31.3778789641
  0
LINE
  8
0
 62
7
  6
CONTINUOUS
 10
368.6480977445
 20
31.5069337098
 11
368.4168479651
 21
31.4424063369
  0
LINE
  8
0
 62
7
  6
CONTINUOUS
 10
364.369972524
 20
30.7003414814
 11
364.0809101343
 21
30.6358140973
  0
LINE
  8
0
 62
7
  6
CONTINUOUS
 10
361.6527851343
 20
31.3778789641
 11
361.8840352445
 21
31.4101426505
  0
LINE
  8
0
 62
7
  6
CONTINUOUS
 10
361.8840352445
 20
31.5391973962
 11
361.6527851343
 21
31.5069337098
  0
LINE
  8
0
 62
7
  6
CONTINUOUS
 10
359.4559102445
 20
31.3778789641
 11
359.6871602721
 21
31.4101426505
  0
LINE
  8
0
 62
7
  6
CONTINUOUS
 10
365.9752749986
 20
34.9329888485
 11
366.6310127035
 21
34.9329888485
  0
LINE
  8
0
 62
7
  6
CONTINUOUS
 10
363.6184102445
 20
30.9907146818
 11
363.7340351343
 21
31.0229783683
  0
LINE
  8
0
 62
7
  6
CONTINUOUS
 10
363.6184102445
 20
31.1520331591
 11
363.3871601343
 21
31.0875057863
  0
LINE
  8
0
 62
7
  6
CONTINUOUS
 10
363.5027853548
 20
31.3456152777
 11
363.6184102445
 21
31.3778789641
  0
LINE
  8
0
 62
7
  6
CONTINUOUS
 10
360.1496602445
 20
30.5390230296
 11
360.3809101894
 21
30.6035504109
  0
LINE
  8
0
 62
7
  6
CONTINUOUS
 10
363.4449727445
 20
31.5069337098
 11
363.3293478548
 21
31.4746700234
  0
LINE
  8
0
 62
7
  6
CONTINUOUS
 10
359.3980977583
 20
31.5069337098
 11
359.2246602583
 21
31.4746700234
  0
LINE
  8
0
 62
7
  6
CONTINUOUS
 10
370.1556028675
 20
36.0805298321
 11
368.7621602445
 21
36.0805298321
  0
LINE
  8
0
 62
7
  6
CONTINUOUS
 10
366.7949471298
 20
36.0805298321
 11
366.3823757812
 21
36.0805298321
  0
LINE
  8
0
 62
7
  6
CONTINUOUS
 10
365.1556028675
 20
36.0805298321
 11
363.7621602445
 21
36.0805298321
  0
LINE
  8
0
 62
7
  6
CONTINUOUS
 10
363.4342913921
 20
36.0805298321
 11
362.0408487691
 21
36.0805298321
  0
LINE
  8
0
 62
7
  6
CONTINUOUS
 10
360.1556028675
 20
36.0805298321
 11
358.7621602445
 21
36.0805298321
  0
LINE
  8
0
 62
7
  6
CONTINUOUS
 10
359.3402852307
 20
31.3456152777
 11
359.4559102445
 21
31.3778789641
  0
CIRCLE
  8
0
 62
7
  6
CONTINUOUS
 10
369.458881556
 20
38.4165954059
 40
2.0901639344
  0
ARC
  8
0
 62
7
  6
CONTINUOUS
 10
360.4015045068
 20
33.9493822911
 40
1.6393442623
 50
180.0
 51
270.0
  0
ARC
  8
0
 62
7
  6
CONTINUOUS
 10
366.7949471298
 20
34.4411855698
 40
1.6393442623
 50
0.0
 51
90.0
  0
ARC
  8
0
 62
7
  6
CONTINUOUS
 10
360.8140758554
 20
33.7854478649
 40
1.4754098361
 50
270.0
 51
326.2510114041
  0
ARC
  8
0
 62
7
  6
CONTINUOUS
 10
366.3823757812
 20
34.6051199961
 40
1.4754098361
 50
90.0
 51
146.2510114041
  0
ARC
  8
0
 62
7
  6
CONTINUOUS
 10
361.221176638
 20
34.2772511436
 40
0.8196721311
 50
270.0
 51
360.0
  0
ARC
  8
0
 62
7
  6
CONTINUOUS
 10
365.9752749986
 20
34.1133167174
 40
0.8196721311
 50
90.0
 51
180.0
  0
ARC
  8
0
 62
7
  6
CONTINUOUS
 10
360.565438933
 20
33.867415078
 40
0.4098360656
 50
180.0
 51
270.0
  0
ARC
  8
0
 62
7
  6
CONTINUOUS
 10
366.6310127035
 20
34.5231527829
 40
0.4098360656
 50
0.0
 51
90.0
  0
SOLID
  8
0
 62
7
  6
CONTINUOUS
 10
365.4684104651
 20
31.8618347111
 11
365.4684104651
 21
32.0231531947
 12
365.757472524
 22
31.8618347111
 13
365.757472524
 23
32.0231531947
  0
SOLID
  8
0
 62
7
  6
CONTINUOUS
 10
359.744972717
 20
31.5391977439
 11
360.1496602445
 21
31.5069333244
 12
359.3980977583
 22
31.5069333244
 13
359.3980977583
 23
31.5069333244
  0
SOLID
  8
0
 62
7
  6
CONTINUOUS
 10
359.2246602583
 20
31.4746706537
 11
359.3980977583
 21
31.5069333244
 12
360.1496602445
 22
31.5069333244
 13
360.1496602445
 23
31.5069333244
  0
SOLID
  8
0
 62
7
  6
CONTINUOUS
 10
360.1496602445
 20
31.5069333244
 11
360.3809101894
 21
31.4424063504
 12
359.2246602583
 22
31.4746706537
 13
359.2246602583
 23
31.4746706537
  0
SOLID
  8
0
 62
7
  6
CONTINUOUS
 10
359.0512227376
 20
31.4101419116
 11
359.2246602583
 21
31.4746706537
 12
360.3809101894
 22
31.4424063504
 13
360.3809101894
 23
31.4424063504
  0
SOLID
  8
0
 62
7
  6
CONTINUOUS
 10
359.0512227376
 20
31.4101419116
 11
360.3809101894
 21
31.4424063504
 12
359.6871602721
 22
31.4101419116
 13
359.6871602721
 23
31.4101419116
  0
SOLID
  8
0
 62
7
  6
CONTINUOUS
 10
359.6871602721
 20
31.4101419116
 11
360.3809101894
 21
31.4424063504
 12
360.091847717
 22
31.3778792603
 13
360.091847717
 23
31.3778792603
  0
SOLID
  8
0
 62
7
  6
CONTINUOUS
 10
360.3809101894
 20
31.4424063504
 11
360.5543476894
 21
31.345614957
 12
360.091847717
 22
31.3778792603
 13
360.091847717
 23
31.3778792603
  0
SOLID
  8
0
 62
7
  6
CONTINUOUS
 10
360.2652852997
 20
31.3133521701
 11
360.091847717
 21
31.3778792603
 12
360.5543476894
 22
31.345614957
 13
360.5543476894
 23
31.345614957
  0
SOLID
  8
0
 62
7
  6
CONTINUOUS
 10
360.2652852997
 20
31.3133521701
 11
360.5543476894
 21
31.345614957
 12
360.3230977445
 22
31.2165606992
 13
360.3230977445
 23
31.2165606992
  0
SOLID
  8
0
 62
7
  6
CONTINUOUS
 10
360.5543476894
 20
31.345614957
 11
360.6121602997
 21
31.2165606992
 12
360.3230977445
 22
31.2165606992
 13
360.3230977445
 23
31.2165606992
  0
SOLID
  8
0
 62
7
  6
CONTINUOUS
 10
361.6527851343
 20
31.5069329918
 11
361.8840352445
 21
31.5391972951
 12
362.1152853548
 22
31.5391972951
 13
362.1152853548
 23
31.5391972951
  0
SOLID
  8
0
 62
7
  6
CONTINUOUS
 10
362.1152853548
 20
31.5391972951
 11
362.2887228548
 21
31.5069329918
 12
361.6527851343
 22
31.5069329918
 13
361.6527851343
 23
31.5069329918
  0
SOLID
  8
0
 62
7
  6
CONTINUOUS
 10
361.4793477997
 20
31.4424059016
 11
361.6527851343
 21
31.5069329918
 12
362.2887228548
 22
31.5069329918
 13
362.2887228548
 23
31.5069329918
  0
SOLID
  8
0
 62
7
  6
CONTINUOUS
 10
362.2887228548
 20
31.5069329918
 11
362.4621603548
 21
31.4424059016
 12
361.4793477997
 22
31.4424059016
 13
361.4793477997
 23
31.4424059016
  0
SOLID
  8
0
 62
7
  6
CONTINUOUS
 10
362.4621603548
 20
31.4424059016
 11
361.8840352445
 21
31.4101420472
 12
361.4793477997
 22
31.4424059016
 13
361.4793477997
 23
31.4424059016
  0
SOLID
  8
0
 62
7
  6
CONTINUOUS
 10
361.3637227445
 20
31.3778788115
 11
361.4793477997
 21
31.4424059016
 12
361.8840352445
 22
31.4101420472
 13
361.8840352445
 23
31.4101420472
  0
SOLID
  8
0
 62
7
  6
CONTINUOUS
 10
361.8840352445
 20
31.4101420472
 11
361.6527851343
 21
31.3778788115
 12
361.3637227445
 22
31.3778788115
 13
361.3637227445
 23
31.3778788115
  0
SOLID
  8
0
 62
7
  6
CONTINUOUS
 10
361.8840352445
 20
31.4101420472
 11
362.4621603548
 21
31.4424059016
 12
362.1152853548
 22
31.3778788115
 13
362.1152853548
 23
31.3778788115
  0
SOLID
  8
0
 62
7
  6
CONTINUOUS
 10
362.4621603548
 20
31.4424059016
 11
362.5777852445
 21
31.3778788115
 12
362.1152853548
 22
31.3778788115
 13
362.1152853548
 23
31.3778788115
  0
SOLID
  8
0
 62
7
  6
CONTINUOUS
 10
362.2309102445
 20
31.345614957
 11
362.1152853548
 21
31.3778788115
 12
362.5777852445
 22
31.3778788115
 13
362.5777852445
 23
31.3778788115
  0
SOLID
  8
0
 62
7
  6
CONTINUOUS
 10
362.5777852445
 20
31.3778788115
 11
362.6355978548
 21
31.3133517213
 12
362.2309102445
 22
31.345614957
 13
362.2309102445
 23
31.345614957
  0
SOLID
  8
0
 62
7
  6
CONTINUOUS
 10
362.3465351343
 20
31.2810878668
 11
362.2309102445
 21
31.345614957
 12
362.6355978548
 22
31.3133517213
 13
362.6355978548
 23
31.3133517213
  0
SOLID
  8
0
 62
7
  6
CONTINUOUS
 10
362.3465351343
 20
31.2810878668
 11
362.6355978548
 21
31.3133517213
 12
362.4043477445
 22
31.1520332377
 13
362.4043477445
 23
31.1520332377
  0
SOLID
  8
0
 62
7
  6
CONTINUOUS
 10
362.6355978548
 20
31.3133517213
 11
362.6934101343
 21
31.1520332377
 12
362.4043477445
 22
31.1520332377
 13
362.4043477445
 23
31.1520332377
  0
SOLID
  8
0
 62
7
  6
CONTINUOUS
 10
361.6527851343
 20
31.3778788115
 11
361.4793477997
 21
31.3133517213
 12
361.3637227445
 22
31.3778788115
 13
361.3637227445
 23
31.3778788115
  0
SOLID
  8
0
 62
7
  6
CONTINUOUS
 10
361.4793477997
 20
31.3133517213
 11
361.3637227445
 21
31.2488235635
 12
361.3637227445
 22
31.3778788115
 13
361.3637227445
 23
31.3778788115
  0
SOLID
  8
0
 62
7
  6
CONTINUOUS
 10
361.3637227445
 20
31.2488235635
 11
361.0746601894
 21
30.5067593033
 12
361.3637227445
 22
31.3778788115
 13
361.3637227445
 23
31.3778788115
  0
SOLID
  8
0
 62
7
  6
CONTINUOUS
 10
361.3637227445
 20
31.3778788115
 11
361.0746601894
 21
30.5067593033
 12
361.3637227445
 22
32.0231527459
 13
361.3637227445
 23
32.0231527459
  0
SOLID
  8
0
 62
7
  6
CONTINUOUS
 10
361.0746601894
 20
30.5067593033
 11
361.0746601894
 21
32.0231527459
 12
361.3637227445
 22
32.0231527459
 13
361.3637227445
 23
32.0231527459
  0
SOLID
  8
0
 62
7
  6
CONTINUOUS
 10
361.3637227445
 20
31.2488235635
 11
361.3637227445
 21
30.5067593033
 12
361.0746601894
 22
30.5067593033
 13
361.0746601894
 23
30.5067593033
  0
SOLID
  8
0
 62
7
  6
CONTINUOUS
 10
362.4043477445
 20
30.5067593033
 11
362.4043477445
 21
31.1520332377
 12
362.6934101343
 22
31.1520332377
 13
362.6934101343
 23
31.1520332377
  0
SOLID
  8
0
 62
7
  6
CONTINUOUS
 10
362.6934101343
 20
31.1520332377
 11
362.6934101343
 21
30.5067593033
 12
362.4043477445
 22
30.5067593033
 13
362.4043477445
 23
30.5067593033
  0
SOLID
  8
0
 62
7
  6
CONTINUOUS
 10
363.4449727445
 20
31.506933758
 11
363.8496603548
 21
31.5391977507
 12
364.1965353548
 22
31.5391977507
 13
364.1965353548
 23
31.5391977507
  0
SOLID
  8
0
 62
7
  6
CONTINUOUS
 10
364.1965353548
 20
31.5391977507
 11
364.543410024
 21
31.506933758
 12
363.4449727445
 22
31.506933758
 13
363.4449727445
 23
31.506933758
  0
SOLID
  8
0
 62
7
  6
CONTINUOUS
 10
363.3293478548
 20
31.4746706537
 11
363.4449727445
 21
31.506933758
 12
364.543410024
 22
31.506933758
 13
364.543410024
 23
31.506933758
  0
SOLID
  8
0
 62
7
  6
CONTINUOUS
 10
364.543410024
 20
31.506933758
 11
364.716847524
 21
31.4424063504
 12
363.3293478548
 22
31.4746706537
 13
363.3293478548
 23
31.4746706537
  0
SOLID
  8
0
 62
7
  6
CONTINUOUS
 10
363.2137226343
 20
31.4101417797
 11
363.3293478548
 21
31.4746706537
 12
364.716847524
 22
31.4424063504
 13
364.716847524
 23
31.4424063504
  0
SOLID
  8
0
 62
7
  6
CONTINUOUS
 10
363.2137226343
 20
31.4101417797
 11
364.716847524
 21
31.4424063504
 12
363.8496603548
 22
31.4101417797
 13
363.8496603548
 23
31.4101417797
  0
SOLID
  8
0
 62
7
  6
CONTINUOUS
 10
363.8496603548
 20
31.4101417797
 11
364.716847524
 21
31.4424063504
 12
364.1965353548
 22
31.4101417797
 13
364.1965353548
 23
31.4101417797
  0
SOLID
  8
0
 62
7
  6
CONTINUOUS
 10
364.1965353548
 20
31.4101417797
 11
364.716847524
 21
31.4424063504
 12
364.4277854651
 22
31.3778793357
 13
364.4277854651
 23
31.3778793357
  0
SOLID
  8
0
 62
7
  6
CONTINUOUS
 10
364.716847524
 20
31.4424063504
 11
364.8324727445
 21
31.3778793357
 12
364.4277854651
 22
31.3778793357
 13
364.4277854651
 23
31.3778793357
  0
SOLID
  8
0
 62
7
  6
CONTINUOUS
 10
363.1559103548
 20
31.3456153429
 11
363.2137226343
 21
31.4101417797
 12
363.8496603548
 22
31.4101417797
 13
363.8496603548
 23
31.4101417797
  0
SOLID
  8
0
 62
7
  6
CONTINUOUS
 10
364.543410024
 20
31.3456153429
 11
364.4277854651
 21
31.3778793357
 12
364.8324727445
 22
31.3778793357
 13
364.8324727445
 23
31.3778793357
  0
SOLID
  8
0
 62
7
  6
CONTINUOUS
 10
364.543410024
 20
31.3456153429
 11
364.8324727445
 21
31.3778793357
 12
364.6012229651
 22
31.2810881318
 13
364.6012229651
 23
31.2810881318
  0
SOLID
  8
0
 62
7
  6
CONTINUOUS
 10
364.8324727445
 20
31.3778793357
 11
364.890285024
 21
31.2810881318
 12
364.6012229651
 22
31.2810881318
 13
364.6012229651
 23
31.2810881318
  0
SOLID
  8
0
 62
7
  6
CONTINUOUS
 10
364.6012229651
 20
31.1842964734
 11
364.6012229651
 21
31.2810881318
 12
364.890285024
 22
31.2810881318
 13
364.890285024
 23
31.2810881318
  0
SOLID
  8
0
 62
7
  6
CONTINUOUS
 10
364.6012229651
 20
31.1842964734
 11
364.890285024
 21
31.2810881318
 12
364.6012229651
 22
31.0552422931
 13
364.6012229651
 23
31.0552422931
  0
SOLID
  8
0
 62
7
  6
CONTINUOUS
 10
364.6012229651
 20
31.0552422931
 11
364.890285024
 21
31.2810881318
 12
364.6012229651
 22
30.8616599362
 13
364.6012229651
 23
30.8616599362
  0
SOLID
  8
0
 62
7
  6
CONTINUOUS
 10
364.890285024
 20
31.2810881318
 11
364.890285024
 21
30.7648681127
 12
364.6012229651
 22
30.8616599362
 13
364.6012229651
 23
30.8616599362
  0
SOLID
  8
0
 62
7
  6
CONTINUOUS
 10
366.798097524
 20
31.5069339419
 11
367.0293479651
 21
31.5391976292
 12
367.2605977445
 22
31.5391976292
 13
367.2605977445
 23
31.5391976292
  0
SOLID
  8
0
 62
7
  6
CONTINUOUS
 10
367.2605977445
 20
31.5391976292
 11
367.4340352445
 21
31.5069339419
 12
366.798097524
 22
31.5069339419
 13
366.798097524
 23
31.5069339419
  0
SOLID
  8
0
 62
7
  6
CONTINUOUS
 10
366.624660024
 20
31.4424065674
 11
366.798097524
 21
31.5069339419
 12
367.4340352445
 22
31.5069339419
 13
367.4340352445
 23
31.5069339419
  0
SOLID
  8
0
 62
7
  6
CONTINUOUS
 10
367.4340352445
 20
31.5069339419
 11
367.6074727445
 21
31.4424065674
 12
366.624660024
 22
31.4424065674
 13
366.624660024
 23
31.4424065674
  0
SOLID
  8
0
 62
7
  6
CONTINUOUS
 10
367.6074727445
 20
31.4424065674
 11
367.0293479651
 21
31.4101420472
 12
366.624660024
 22
31.4424065674
 13
366.624660024
 23
31.4424065674
  0
SOLID
  8
0
 62
7
  6
CONTINUOUS
 10
366.5090354651
 20
31.377879193
 11
366.624660024
 21
31.4424065674
 12
367.0293479651
 22
31.4101420472
 13
367.0293479651
 23
31.4101420472
  0
SOLID
  8
0
 62
7
  6
CONTINUOUS
 10
367.0293479651
 20
31.4101420472
 11
366.798097524
 21
31.377879193
 12
366.5090354651
 22
31.377879193
 13
366.5090354651
 23
31.377879193
  0
SOLID
  8
0
 62
7
  6
CONTINUOUS
 10
367.0293479651
 20
31.4101420472
 11
367.6074727445
 21
31.4424065674
 12
367.2605977445
 22
31.377879193
 13
367.2605977445
 23
31.377879193
  0
SOLID
  8
0
 62
7
  6
CONTINUOUS
 10
367.6074727445
 20
31.4424065674
 11
367.7230979651
 21
31.377879193
 12
367.2605977445
 22
31.377879193
 13
367.2605977445
 23
31.377879193
  0
SOLID
  8
0
 62
7
  6
CONTINUOUS
 10
367.3762229651
 20
31.345614957
 11
367.2605977445
 21
31.377879193
 12
367.7230979651
 22
31.377879193
 13
367.7230979651
 23
31.377879193
  0
SOLID
  8
0
 62
7
  6
CONTINUOUS
 10
367.3762229651
 20
31.345614957
 11
367.7230979651
 21
31.377879193
 12
367.491847524
 22
31.2810881312
 13
367.491847524
 23
31.2810881312
  0
SOLID
  8
0
 62
7
  6
CONTINUOUS
 10
367.7230979651
 20
31.377879193
 11
367.7809102445
 21
31.2810881312
 12
367.491847524
 22
31.2810881312
 13
367.491847524
 23
31.2810881312
  0
SOLID
  8
0
 62
7
  6
CONTINUOUS
 10
367.5496604651
 20
31.119769695
 11
367.491847524
 21
31.2810881312
 12
367.7809102445
 22
31.2810881312
 13
367.7809102445
 23
31.2810881312
  0
SOLID
  8
0
 62
7
  6
CONTINUOUS
 10
367.7809102445
 20
31.2810881312
 11
367.838722524
 21
31.119769695
 12
367.5496604651
 22
31.119769695
 13
367.5496604651
 23
31.119769695
  0
SOLID
  8
0
 62
7
  6
CONTINUOUS
 10
366.798097524
 20
31.377879193
 11
366.624660024
 21
31.3133521701
 12
366.5090354651
 22
31.377879193
 13
366.5090354651
 23
31.377879193
  0
SOLID
  8
0
 62
7
  6
CONTINUOUS
 10
366.624660024
 20
31.3133521701
 11
366.5090354651
 21
31.2488235635
 12
366.5090354651
 22
31.377879193
 13
366.5090354651
 23
31.377879193
  0
SOLID
  8
0
 62
7
  6
CONTINUOUS
 10
366.5090354651
 20
31.2488235635
 11
366.2199727445
 21
30.5067596374
 12
366.5090354651
 22
31.377879193
 13
366.5090354651
 23
31.377879193
  0
SOLID
  8
0
 62
7
  6
CONTINUOUS
 10
366.5090354651
 20
31.377879193
 11
366.2199727445
 21
30.5067596374
 12
366.5090354651
 22
31.5391976292
 13
366.5090354651
 23
31.5391976292
  0
SOLID
  8
0
 62
7
  6
CONTINUOUS
 10
366.2199727445
 20
30.5067596374
 11
366.2199727445
 21
31.5391976292
 12
366.5090354651
 22
31.5391976292
 13
366.5090354651
 23
31.5391976292
  0
SOLID
  8
0
 62
7
  6
CONTINUOUS
 10
366.5090354651
 20
31.2488235635
 11
366.5090354651
 21
30.5067596374
 12
366.2199727445
 22
30.5067596374
 13
366.2199727445
 23
30.5067596374
  0
SOLID
  8
0
 62
7
  6
CONTINUOUS
 10
367.5496604651
 20
30.5067596374
 11
367.5496604651
 21
31.119769695
 12
367.838722524
 22
31.119769695
 13
367.838722524
 23
31.119769695
  0
SOLID
  8
0
 62
7
  6
CONTINUOUS
 10
367.838722524
 20
31.119769695
 11
367.838722524
 21
30.5067596374
 12
367.5496604651
 22
30.5067596374
 13
367.5496604651
 23
30.5067596374
  0
SOLID
  8
0
 62
7
  6
CONTINUOUS
 10
368.6480977445
 20
31.5069334157
 11
368.9949727445
 21
31.539197762
 12
369.3418477445
 22
31.539197762
 13
369.3418477445
 23
31.539197762
  0
SOLID
  8
0
 62
7
  6
CONTINUOUS
 10
369.3418477445
 20
31.539197762
 11
369.6887227445
 21
31.5069334157
 12
368.6480977445
 22
31.5069334157
 13
368.6480977445
 23
31.5069334157
  0
SOLID
  8
0
 62
7
  6
CONTINUOUS
 10
368.4168479651
 20
31.4424063504
 11
368.6480977445
 21
31.5069334157
 12
369.6887227445
 22
31.5069334157
 13
369.6887227445
 23
31.5069334157
  0
SOLID
  8
0
 62
7
  6
CONTINUOUS
 10
368.4168479651
 20
31.4424063504
 11
369.6887227445
 21
31.5069334406
 12
369.8621602445
 22
31.4746706537
 13
369.8621602445
 23
31.4746706537
  0
SOLID
  8
0
 62
7
  6
CONTINUOUS
 10
368.4168479651
 20
31.4424063504
 11
369.8621602445
 21
31.4746706537
 12
368.9949727445
 22
31.4101421267
 13
368.9949727445
 23
31.4101421267
  0
SOLID
  8
0
 62
7
  6
CONTINUOUS
 10
368.9949727445
 20
31.4101421267
 11
369.8621602445
 21
31.4746706537
 12
369.3418477445
 22
31.4101421267
 13
369.3418477445
 23
31.4101421267
  0
SOLID
  8
0
 62
7
  6
CONTINUOUS
 10
369.8621602445
 20
31.4746706537
 11
370.0355977445
 21
31.4101421267
 12
369.3418477445
 22
31.4101421267
 13
369.3418477445
 23
31.4101421267
  0
SOLID
  8
0
 62
7
  6
CONTINUOUS
 10
369.6887227445
 20
31.3778792603
 11
369.3418477445
 21
31.4101421267
 12
370.0355977445
 22
31.4101421267
 13
370.0355977445
 23
31.4101421267
  0
SOLID
  8
0
 62
7
  6
CONTINUOUS
 10
368.3012227445
 20
31.3456148845
 11
368.4168479651
 21
31.4424063504
 12
368.9949727445
 22
31.4101421267
 13
368.9949727445
 23
31.4101421267
  0
SOLID
  8
0
 62
7
  6
CONTINUOUS
 10
369.6887227445
 20
31.3778792603
 11
370.0355977445
 21
31.4101421267
 12
369.8043479651
 22
31.3456148845
 13
369.8043479651
 23
31.3456148845
  0
SOLID
  8
0
 62
7
  6
CONTINUOUS
 10
369.8043479651
 20
31.3456148845
 11
370.0355977445
 21
31.4101421267
 12
369.8621602445
 22
31.281087868
 13
369.8621602445
 23
31.281087868
  0
SOLID
  8
0
 62
7
  6
CONTINUOUS
 10
370.0355977445
 20
31.4101421267
 11
370.1512223035
 21
31.281087868
 12
369.8621602445
 22
31.281087868
 13
369.8621602445
 23
31.281087868
  0
SOLID
  8
0
 62
7
  6
CONTINUOUS
 10
359.4559102445
 20
31.3778792603
 11
358.9355977445
 21
31.3456148963
 12
359.6871602721
 22
31.4101421155
 13
359.6871602721
 23
31.4101421155
  0
SOLID
  8
0
 62
7
  6
CONTINUOUS
 10
358.9355977445
 20
31.3456148963
 11
359.0512227376
 21
31.4101421155
 12
359.6871602721
 22
31.4101421155
 13
359.6871602721
 23
31.4101421155
  0
SOLID
  8
0
 62
7
  6
CONTINUOUS
 10
359.4559102445
 20
31.3778792603
 11
359.3402852307
 21
31.3456148963
 12
358.9355977445
 22
31.3456148963
 13
358.9355977445
 23
31.3456148963
  0
SOLID
  8
0
 62
7
  6
CONTINUOUS
 10
358.8199727462
 20
31.2165607767
 11
358.9355977445
 21
31.3456148963
 12
359.3402852307
 22
31.3456148963
 13
359.3402852307
 23
31.3456148963
  0
SOLID
  8
0
 62
7
  6
CONTINUOUS
 10
363.1559103548
 20
31.3456149608
 11
363.8496603548
 21
31.4101420472
 12
363.6184102445
 22
31.3778792603
 13
363.6184102445
 23
31.3778792603
  0
SOLID
  8
0
 62
7
  6
CONTINUOUS
 10
363.6184102445
 20
31.3778792603
 11
363.5027853548
 21
31.3456149608
 12
363.1559103548
 22
31.3456149608
 13
363.1559103548
 23
31.3456149608
  0
SOLID
  8
0
 62
7
  6
CONTINUOUS
 10
363.1559103548
 20
31.2810878707
 11
363.1559103548
 21
31.3456149608
 12
363.5027853548
 22
31.3456149608
 13
363.5027853548
 23
31.3456149608
  0
SOLID
  8
0
 62
7
  6
CONTINUOUS
 10
363.5027853548
 20
31.3456149608
 11
363.4449727445
 21
31.2810878707
 12
363.1559103548
 22
31.2810878707
 13
363.1559103548
 23
31.2810878707
  0
SOLID
  8
0
 62
7
  6
CONTINUOUS
 10
368.3012227445
 20
31.3456149608
 11
368.9949727445
 21
31.4101420472
 12
368.7637229651
 22
31.3778792603
 13
368.7637229651
 23
31.3778792603
  0
SOLID
  8
0
 62
7
  6
CONTINUOUS
 10
368.7637229651
 20
31.3778792603
 11
368.6480977445
 21
31.3456149608
 12
368.3012227445
 22
31.3456149608
 13
368.3012227445
 23
31.3456149608
  0
SOLID
  8
0
 62
7
  6
CONTINUOUS
 10
368.3012227445
 20
31.2810878707
 11
368.3012227445
 21
31.3456149608
 12
368.6480977445
 22
31.3456149608
 13
368.6480977445
 23
31.3456149608
  0
SOLID
  8
0
 62
7
  6
CONTINUOUS
 10
368.6480977445
 20
31.3456149608
 11
368.5902854651
 21
31.2810878707
 12
368.3012227445
 22
31.2810878707
 13
368.3012227445
 23
31.2810878707
  0
SOLID
  8
0
 62
7
  6
CONTINUOUS
 10
368.4168479651
 20
31.1520336865
 11
368.3012227445
 21
31.2810878707
 12
368.5902854651
 22
31.2810878707
 13
368.5902854651
 23
31.2810878707
  0
SOLID
  8
0
 62
7
  6
CONTINUOUS
 10
358.8199727462
 20
31.2165607767
 11
359.3402852307
 21
31.345614957
 12
359.1668477307
 22
31.2488235635
 13
359.1668477307
 23
31.2488235635
  0
SOLID
  8
0
 62
7
  6
CONTINUOUS
 10
359.1668477307
 20
31.2488235635
 11
359.1090352445
 21
31.1842964734
 12
358.8199727462
 22
31.2165607767
 13
358.8199727462
 23
31.2165607767
  0
SOLID
  8
0
 62
7
  6
CONTINUOUS
 10
358.7621602445
 20
31.0229779898
 11
358.8199727462
 21
31.2165607767
 12
359.1090352445
 22
31.1842964734
 13
359.1090352445
 23
31.1842964734
  0
SOLID
  8
0
 62
7
  6
CONTINUOUS
 10
363.6184102445
 20
31.1520336865
 11
363.9652852445
 21
31.1842964611
 12
364.6012229651
 22
31.1842964611
 13
364.6012229651
 23
31.1842964611
  0
SOLID
  8
0
 62
7
  6
CONTINUOUS
 10
363.6184102445
 20
31.1520336865
 11
364.6012229651
 21
31.1842964611
 12
363.3871601343
 22
31.0875057863
 13
363.3871601343
 23
31.0875057863
  0
SOLID
  8
0
 62
7
  6
CONTINUOUS
 10
363.3871601343
 20
31.0875057863
 11
364.6012229651
 21
31.1842964611
 12
363.9652852445
 22
31.0552422808
 13
363.9652852445
 23
31.0552422808
  0
SOLID
  8
0
 62
7
  6
CONTINUOUS
 10
364.6012229651
 20
31.1842964611
 11
364.6012229651
 21
31.0552422808
 12
363.9652852445
 22
31.0552422808
 13
363.9652852445
 23
31.0552422808
  0
SOLID
  8
0
 62
7
  6
CONTINUOUS
 10
368.4168479651
 20
31.1520338754
 11
368.5902854651
 21
31.2810878668
 12
368.6480977445
 22
31.2165607767
 13
368.6480977445
 23
31.2165607767
  0
SOLID
  8
0
 62
7
  6
CONTINUOUS
 10
368.6480977445
 20
31.2165607767
 11
368.8215352445
 21
31.1520338754
 12
368.4168479651
 22
31.1520338754
 13
368.4168479651
 23
31.1520338754
  0
SOLID
  8
0
 62
7
  6
CONTINUOUS
 10
368.6480977445
 20
31.0552422931
 11
368.4168479651
 21
31.1520338754
 12
368.8215352445
 22
31.1520338754
 13
368.8215352445
 23
31.1520338754
  0
SOLID
  8
0
 62
7
  6
CONTINUOUS
 10
368.8215352445
 20
31.1520338754
 11
369.8043479651
 21
30.9907152029
 12
368.6480977445
 22
31.0552422931
 13
368.6480977445
 23
31.0552422931
  0
SOLID
  8
0
 62
7
  6
CONTINUOUS
 10
369.6309104651
 20
30.8939239876
 11
368.6480977445
 21
31.0552422931
 12
369.8043479651
 22
30.9907152029
 13
369.8043479651
 23
30.9907152029
  0
SOLID
  8
0
 62
7
  6
CONTINUOUS
 10
369.8043479651
 20
30.9907152029
 11
370.0355977445
 21
30.8939239876
 12
369.6309104651
 22
30.8939239876
 13
369.6309104651
 23
30.8939239876
  0
SOLID
  8
0
 62
7
  6
CONTINUOUS
 10
369.8043479651
 20
30.8293967193
 11
369.6309104651
 21
30.8939239876
 12
370.0355977445
 22
30.8939239876
 13
370.0355977445
 23
30.8939239876
  0
SOLID
  8
0
 62
7
  6
CONTINUOUS
 10
369.8043479651
 20
30.8293967193
 11
370.0355977445
 21
30.8939239876
 12
369.8621602445
 22
30.7648682694
 13
369.8621602445
 23
30.7648682694
  0
SOLID
  8
0
 62
7
  6
CONTINUOUS
 10
370.0355977445
 20
30.8939239876
 11
370.1512223035
 21
30.7648682694
 12
369.8621602445
 22
30.7648682694
 13
369.8621602445
 23
30.7648682694
  0
SOLID
  8
0
 62
7
  6
CONTINUOUS
 10
369.8043479651
 20
30.7003411846
 11
369.8621602445
 21
30.7648682694
 12
370.1512223035
 22
30.7648682694
 13
370.1512223035
 23
30.7648682694
  0
SOLID
  8
0
 62
7
  6
CONTINUOUS
 10
370.1512223035
 20
30.7648682694
 11
370.1512223035
 21
30.7003411846
 12
369.8043479651
 22
30.7003411846
 13
369.8043479651
 23
30.7003411846
  0
SOLID
  8
0
 62
7
  6
CONTINUOUS
 10
369.6887227445
 20
30.6680782357
 11
369.8043479651
 21
30.7003411846
 12
370.1512223035
 22
30.7003411846
 13
370.1512223035
 23
30.7003411846
  0
SOLID
  8
0
 62
7
  6
CONTINUOUS
 10
369.6887227445
 20
30.6680782357
 11
370.1512223035
 21
30.7003411846
 12
369.4574729651
 22
30.6358140998
 13
369.4574729651
 23
30.6358140998
  0
SOLID
  8
0
 62
7
  6
CONTINUOUS
 10
370.1512223035
 20
30.7003411846
 11
370.0355977445
 21
30.6035511455
 12
369.4574729651
 22
30.6358140998
 13
369.4574729651
 23
30.6358140998
  0
SOLID
  8
0
 62
7
  6
CONTINUOUS
 10
370.0355977445
 20
30.6035511455
 11
368.5902854651
 21
30.5712868422
 12
369.4574729651
 22
30.6358140998
 13
369.4574729651
 23
30.6358140998
  0
SOLID
  8
0
 62
7
  6
CONTINUOUS
 10
369.4574729651
 20
30.6358140998
 11
368.5902854651
 21
30.5712868422
 12
369.1105979651
 22
30.6358140998
 13
369.1105979651
 23
30.6358140998
  0
SOLID
  8
0
 62
7
  6
CONTINUOUS
 10
368.5902854651
 20
30.5712868422
 11
368.4168479651
 21
30.6358140998
 12
369.1105979651
 22
30.6358140998
 13
369.1105979651
 23
30.6358140998
  0
SOLID
  8
0
 62
7
  6
CONTINUOUS
 10
368.5902854651
 20
30.5712868422
 11
370.0355977445
 21
30.6035511455
 12
368.7637229651
 22
30.5390223111
 13
368.7637229651
 23
30.5390223111
  0
SOLID
  8
0
 62
7
  6
CONTINUOUS
 10
370.0355977445
 20
30.6035511455
 11
369.8043479651
 21
30.5390223111
 12
368.7637229651
 22
30.5390223111
 13
368.7637229651
 23
30.5390223111
  0
SOLID
  8
0
 62
7
  6
CONTINUOUS
 10
369.1105979651
 20
30.5067599302
 11
368.7637229651
 21
30.5390223111
 12
369.8043479651
 22
30.5390223111
 13
369.8043479651
 23
30.5390223111
  0
SOLID
  8
0
 62
7
  6
CONTINUOUS
 10
369.8043479651
 20
30.5390223111
 11
369.4574729651
 21
30.5067599302
 12
369.1105979651
 22
30.5067599302
 13
369.1105979651
 23
30.5067599302
  0
SOLID
  8
0
 62
7
  6
CONTINUOUS
 10
358.7621602445
 20
31.0229779898
 11
359.1090352445
 21
31.1842964734
 12
359.0512227376
 22
31.0552422931
 13
359.0512227376
 23
31.0552422931
  0
SOLID
  8
0
 62
7
  6
CONTINUOUS
 10
359.0512227376
 20
31.0552422931
 11
359.0512227376
 21
30.9584509954
 12
358.7621602445
 22
31.0229779898
 13
358.7621602445
 23
31.0229779898
  0
SOLID
  8
0
 62
7
  6
CONTINUOUS
 10
358.8199727462
 20
30.8293967193
 11
358.7621602445
 21
31.0229779898
 12
359.0512227376
 22
30.9584509954
 13
359.0512227376
 23
30.9584509954
  0
SOLID
  8
0
 62
7
  6
CONTINUOUS
 10
359.0512227376
 20
30.9584509954
 11
359.1668477307
 21
30.797132416
 12
358.8199727462
 22
30.8293967193
 13
358.8199727462
 23
30.8293967193
  0
SOLID
  8
0
 62
7
  6
CONTINUOUS
 10
358.9355977445
 20
30.7003413087
 11
358.8199727462
 21
30.8293967193
 12
359.1668477307
 22
30.797132416
 13
359.1668477307
 23
30.797132416
  0
SOLID
  8
0
 62
7
  6
CONTINUOUS
 10
359.1668477307
 20
30.797132416
 11
359.3402852307
 21
30.7003413087
 12
358.9355977445
 22
30.7003413087
 13
358.9355977445
 23
30.7003413087
  0
SOLID
  8
0
 62
7
  6
CONTINUOUS
 10
359.0512227376
 20
30.6358140759
 11
358.9355977445
 21
30.7003413087
 12
359.3402852307
 22
30.7003413087
 13
359.3402852307
 23
30.7003413087
  0
SOLID
  8
0
 62
7
  6
CONTINUOUS
 10
359.3402852307
 20
30.7003413087
 11
359.6871602721
 21
30.6358140759
 12
359.0512227376
 22
30.6358140759
 13
359.0512227376
 23
30.6358140759
  0
SOLID
  8
0
 62
7
  6
CONTINUOUS
 10
359.2246602583
 20
30.5712868422
 11
359.0512227376
 21
30.6358140759
 12
359.6871602721
 22
30.6358140759
 13
359.6871602721
 23
30.6358140759
  0
SOLID
  8
0
 62
7
  6
CONTINUOUS
 10
363.2715352445
 20
31.0229779808
 11
363.3871601343
 21
31.0875057863
 12
363.9652852445
 22
31.0552422931
 13
363.9652852445
 23
31.0552422931
  0
SOLID
  8
0
 62
7
  6
CONTINUOUS
 10
363.9652852445
 20
31.0552422931
 11
363.7340351343
 21
31.0229779808
 12
363.2715352445
 22
31.0229779808
 13
363.2715352445
 23
31.0229779808
  0
SOLID
  8
0
 62
7
  6
CONTINUOUS
 10
363.1559103548
 20
30.8939238094
 11
363.2715352445
 21
31.0229779808
 12
363.7340351343
 22
31.0229779808
 13
363.7340351343
 23
31.0229779808
  0
SOLID
  8
0
 62
7
  6
CONTINUOUS
 10
363.5027853548
 20
30.926187309
 11
363.1559103548
 21
30.8939238094
 12
363.6184102445
 22
30.9907152029
 13
363.6184102445
 23
30.9907152029
  0
SOLID
  8
0
 62
7
  6
CONTINUOUS
 10
363.1559103548
 20
30.8939238094
 11
363.7340351343
 21
31.0229779898
 12
363.6184102445
 22
30.9907152029
 13
363.6184102445
 23
30.9907152029
  0
SOLID
  8
0
 62
7
  6
CONTINUOUS
 10
363.5027853548
 20
30.926187309
 11
363.4449727445
 21
30.8293967193
 12
363.1559103548
 22
30.8939238094
 13
363.1559103548
 23
30.8939238094
  0
SOLID
  8
0
 62
7
  6
CONTINUOUS
 10
363.1559103548
 20
30.797132416
 11
363.1559103548
 21
30.8939238094
 12
363.4449727445
 22
30.8293967193
 13
363.4449727445
 23
30.8293967193
  0
SOLID
  8
0
 62
7
  6
CONTINUOUS
 10
363.4449727445
 20
30.8293967193
 11
363.4449727445
 21
30.7648681127
 12
363.1559103548
 22
30.797132416
 13
363.1559103548
 23
30.797132416
  0
SOLID
  8
0
 62
7
  6
CONTINUOUS
 10
363.2137226343
 20
30.6680782357
 11
363.1559103548
 21
30.797132416
 12
363.4449727445
 22
30.7648681127
 13
363.4449727445
 23
30.7648681127
  0
SOLID
  8
0
 62
7
  6
CONTINUOUS
 10
364.6012229651
 20
30.8616599362
 11
364.890285024
 21
30.7648681127
 12
364.543410024
 22
30.797132416
 13
364.543410024
 23
30.797132416
  0
SOLID
  8
0
 62
7
  6
CONTINUOUS
 10
364.369972524
 20
30.7003410226
 11
364.543410024
 21
30.797132416
 12
364.890285024
 22
30.7648681127
 13
364.890285024
 23
30.7648681127
  0
SOLID
  8
0
 62
7
  6
CONTINUOUS
 10
364.369972524
 20
30.7003410226
 11
364.890285024
 21
30.7648681127
 12
364.6012229651
 22
30.6680782357
 13
364.6012229651
 23
30.6680782357
  0
SOLID
  8
0
 62
7
  6
CONTINUOUS
 10
364.890285024
 20
30.7648681127
 11
364.9480979651
 21
30.6035511455
 12
364.6012229651
 22
30.6680782357
 13
364.6012229651
 23
30.6680782357
  0
SOLID
  8
0
 62
7
  6
CONTINUOUS
 10
364.6590352445
 20
30.5712868422
 11
364.6012229651
 21
30.6680782357
 12
364.9480979651
 22
30.6035511455
 13
364.9480979651
 23
30.6035511455
  0
SOLID
  8
0
 62
7
  6
CONTINUOUS
 10
364.6590352445
 20
30.5712868422
 11
364.9480979651
 21
30.6035511455
 12
364.716847524
 22
30.5067598731
 13
364.716847524
 23
30.5067598731
  0
SOLID
  8
0
 62
7
  6
CONTINUOUS
 10
364.9480979651
 20
30.6035511455
 11
365.0059102445
 21
30.5067598731
 12
364.716847524
 22
30.5067598731
 13
364.716847524
 23
30.5067598731
  0
SOLID
  8
0
 62
7
  6
CONTINUOUS
 10
360.2652852997
 20
30.7326051679
 11
360.3230977445
 21
30.8293966612
 12
360.6121602997
 22
30.8293966612
 13
360.6121602997
 23
30.8293966612
  0
SOLID
  8
0
 62
7
  6
CONTINUOUS
 10
360.6121602997
 20
30.8293966612
 11
360.5543476894
 21
30.7003410226
 12
360.2652852997
 22
30.7326051679
 13
360.2652852997
 23
30.7326051679
  0
SOLID
  8
0
 62
7
  6
CONTINUOUS
 10
360.091847717
 20
30.6680782357
 11
360.2652852997
 21
30.7326051679
 12
360.5543476894
 22
30.7003410226
 13
360.5543476894
 23
30.7003410226
  0
SOLID
  8
0
 62
7
  6
CONTINUOUS
 10
360.091847717
 20
30.6680782357
 11
360.5543476894
 21
30.7003410226
 12
359.6871602721
 22
30.6358139324
 13
359.6871602721
 23
30.6358139324
  0
SOLID
  8
0
 62
7
  6
CONTINUOUS
 10
360.5543476894
 20
30.7003410226
 11
360.3809101894
 21
30.6035511455
 12
359.6871602721
 22
30.6358139324
 13
359.6871602721
 23
30.6358139324
  0
SOLID
  8
0
 62
7
  6
CONTINUOUS
 10
359.2246602583
 20
30.5712868422
 11
359.6871602721
 21
30.6358139324
 12
360.3809101894
 22
30.6035511455
 13
360.3809101894
 23
30.6035511455
  0
SOLID
  8
0
 62
7
  6
CONTINUOUS
 10
359.2246602583
 20
30.5712868422
 11
360.3809101894
 21
30.6035511455
 12
359.3980977583
 22
30.5390224228
 13
359.3980977583
 23
30.5390224228
  0
SOLID
  8
0
 62
7
  6
CONTINUOUS
 10
360.3809101894
 20
30.6035511455
 11
360.1496602445
 21
30.5390224228
 12
359.3980977583
 22
30.5390224228
 13
359.3980977583
 23
30.5390224228
  0
SOLID
  8
0
 62
7
  6
CONTINUOUS
 10
359.744972717
 20
30.5067597521
 11
359.3980977583
 21
30.5390224228
 12
360.1496602445
 22
30.5390224228
 13
360.1496602445
 23
30.5390224228
  0
SOLID
  8
0
 62
7
  6
CONTINUOUS
 10
363.2137226343
 20
30.6680782357
 11
363.4449727445
 21
30.7648681127
 12
363.5027853548
 22
30.7003410226
 13
363.5027853548
 23
30.7003410226
  0
SOLID
  8
0
 62
7
  6
CONTINUOUS
 10
363.5027853548
 20
30.7003410226
 11
363.7340351343
 21
30.6358139324
 12
363.2137226343
 22
30.6680782357
 13
363.2137226343
 23
30.6680782357
  0
SOLID
  8
0
 62
7
  6
CONTINUOUS
 10
363.3871601343
 20
30.5712868422
 11
363.2137226343
 21
30.6680782357
 12
363.7340351343
 22
30.6358139324
 13
363.7340351343
 23
30.6358139324
  0
SOLID
  8
0
 62
7
  6
CONTINUOUS
 10
364.0809101343
 20
30.6358139363
 11
364.369972524
 21
30.7003410226
 12
364.6012229651
 22
30.6680782357
 13
364.6012229651
 23
30.6680782357
  0
SOLID
  8
0
 62
7
  6
CONTINUOUS
 10
364.6012229651
 20
30.6680782357
 11
364.543410024
 21
30.6035511455
 12
364.0809101343
 22
30.6358139363
 13
364.0809101343
 23
30.6358139363
  0
SOLID
  8
0
 62
7
  6
CONTINUOUS
 10
364.543410024
 20
30.6035511455
 11
363.3871601343
 21
30.5712868422
 12
364.0809101343
 22
30.6358139363
 13
364.0809101343
 23
30.6358139363
  0
SOLID
  8
0
 62
7
  6
CONTINUOUS
 10
363.3871601343
 20
30.5712868422
 11
363.7340351343
 21
30.6358139363
 12
364.0809101343
 22
30.6358139363
 13
364.0809101343
 23
30.6358139363
  0
SOLID
  8
0
 62
7
  6
CONTINUOUS
 10
363.3871601343
 20
30.5712868422
 11
364.543410024
 21
30.6035511455
 12
363.5027853548
 22
30.5390225267
 13
363.5027853548
 23
30.5390225267
  0
SOLID
  8
0
 62
7
  6
CONTINUOUS
 10
364.543410024
 20
30.6035511455
 11
364.369972524
 21
30.5390225267
 12
363.5027853548
 22
30.5390225267
 13
363.5027853548
 23
30.5390225267
  0
SOLID
  8
0
 62
7
  6
CONTINUOUS
 10
363.7340351343
 20
30.5067596914
 11
363.5027853548
 21
30.5390225267
 12
364.369972524
 22
30.5390225267
 13
364.369972524
 23
30.5390225267
  0
SOLID
  8
0
 62
7
  6
CONTINUOUS
 10
364.369972524
 20
30.5390225267
 11
364.0809101343
 21
30.5067596914
 12
363.7340351343
 22
30.5067596914
 13
363.7340351343
 23
30.5067596914
  0
SOLID
  8
0
 62
7
  6
CONTINUOUS
 10
368.7637229651
 20
30.6680782357
 11
368.4168479651
 21
30.6358138717
 12
368.6480977445
 22
30.7003410226
 13
368.6480977445
 23
30.7003410226
  0
SOLID
  8
0
 62
7
  6
CONTINUOUS
 10
368.6480977445
 20
30.7003410226
 11
368.4168479651
 21
30.6358138717
 12
368.5902854651
 22
30.7648680521
 13
368.5902854651
 23
30.7648680521
  0
SOLID
  8
0
 62
7
  6
CONTINUOUS
 10
368.4168479651
 20
30.6358138717
 11
368.3012227445
 21
30.7648680521
 12
368.5902854651
 22
30.7648680521
 13
368.5902854651
 23
30.7648680521
  0
SOLID
  8
0
 62
7
  6
CONTINUOUS
 10
368.7637229651
 20
30.6680782357
 11
369.1105979651
 21
30.6358138717
 12
368.4168479651
 22
30.6358138717
 13
368.4168479651
 23
30.6358138717
  0
SOLID
  8
0
 62
7
  6
CONTINUOUS
 10
365.4684104651
 20
30.5067597521
 11
365.4684104651
 21
31.5391977439
 12
365.757472524
 22
30.5067597521
 13
365.757472524
 23
31.5391977439
  0
ENDBLK
  8
0
  6
BYBLOCK
 62
0
  0
BLOCK
  8
0
 62
2
  6
CONTINUOUS
  2
AMMEAAL_LOGO_BL0
 70
64
 10
240.8592468615
 20
19.762288695
  0
TEXT
  8
0
 62
7
  6
CONTINUOUS
 10
227.1239507038
 20
19.1357028027
  7
TEXTSTYLE_3
 40
2.7338706658
  1
Ammeraal Beltech
 41
1.0
 51
15.0
 72
0
  0
TEXT
  8
0
 62
7
  6
CONTINUOUS
 10
237.9247515296
 20
16.8621661299
  7
TEXTSTYLE_4
 40
1.0935482663
  1
Innovation & Service in Belting
 41
1.0
 72
0
  0
LINE
  8
0
 62
7
  6
CONTINUOUS
 10
221.0994100525
 20
19.9022961113
 11
221.8775620458
 21
23.5632134089
  0
LINE
  8
0
 62
7
  6
CONTINUOUS
 10
231.9727303357
 20
27.2266073205
 11
222.3653797889
 21
24.1049898993
  0
LINE
  8
0
 62
7
  6
CONTINUOUS
 10
221.3246933848
 20
19.2089453082
 11
228.8317686459
 21
12.4495443822
  0
LINE
  8
0
 62
7
  6
CONTINUOUS
 10
221.5872277955
 20
20.4440726016
 11
232.3954971607
 21
23.9558922005
  0
LINE
  8
0
 62
7
  6
CONTINUOUS
 10
232.3912920235
 20
13.6061036368
 11
223.9458323548
 21
21.2104296785
  0
LINE
  8
0
 62
7
  6
CONTINUOUS
 10
232.9111147433
 20
26.3816822048
 11
231.9345552061
 21
21.7873308023
  0
LINE
  8
0
 62
7
  6
CONTINUOUS
 10
231.2347532584
 20
18.4950214885
 11
230.5483050469
 21
15.2655365641
  0
LINE
  8
0
 62
7
  6
CONTINUOUS
 10
233.5922108419
 20
13.9963058145
 11
234.5484423775
 21
18.4950214885
  0
LINE
  8
0
 62
7
  6
CONTINUOUS
 10
235.2482443252
 20
21.7873308023
 11
235.6924861276
 21
23.8773241617
  0
LINE
  8
0
 62
7
  6
CONTINUOUS
 10
229.5448697213
 20
12.2979700695
 11
233.1043930989
 21
13.4545293241
  0
LINE
  8
0
 62
7
  6
CONTINUOUS
 10
232.685831411
 20
27.0750330078
 11
235.4672027953
 21
24.5706749648
  0
ARC
  8
0
 62
7
  6
CONTINUOUS
 10
222.5906631212
 20
23.4116390962
 40
0.7290321776
 50
108.0
 51
168.0
  0
ARC
  8
0
 62
7
  6
CONTINUOUS
 10
232.198013668
 20
26.5332565175
 40
0.7290321776
 50
348.0
 51
108.0
  0
ARC
  8
0
 62
7
  6
CONTINUOUS
 10
234.9793850522
 20
24.0288984744
 40
0.7290321776
 50
348.0
 51
48.0
  0
ARC
  8
0
 62
7
  6
CONTINUOUS
 10
229.319586389
 20
12.9913208726
 40
0.7290321776
 50
228.0
 51
288.0
  0
ARC
  8
0
 62
7
  6
CONTINUOUS
 10
221.8125111278
 20
19.7507217986
 40
0.7290321776
 50
108.0
 51
228.0
  0
ARC
  8
0
 62
7
  6
CONTINUOUS
 10
232.8791097665
 20
14.1478801272
 40
0.7290321776
 50
228.0
 51
348.0
  0
ENDBLK
  8
0
  6
BYBLOCK
 62
0
  0
ENDSEC
  0
SECTION
  2
ENTITIES
  0
TEXT
  8
0
 62
5
  6
CONTINUOUS
 10
304.937007874
 20
25.636
  7
TEXTSTYLE_2
 40
2.8
  1
Scale :
 41
0.6
 51
0.000019
 72
0
  0
TEXT
  8
0
 62
5
  6
CONTINUOUS
 10
324.937007874
 20
25.636
  7
TEXTSTYLE_2
 40
2.8
  1
Belt type:
 41
0.6
 51
0.000019
 72
0
  0
INSERT
  8
0
 62
2
  6
CONTINUOUS
  2
AMMEAAL_LOGO_BL0
 10
240.8592468615
 20
19.762288695
  0
INSERT
  8
0
 62
2
  6
CONTINUOUS
  2
UNI_LOGO2_BL1
 10
382.7840918555
 20
35.5067593403
  0
LINE
  8
0
 62
2
  6
CONTINUOUS
 10
218.937007874
 20
30.0
 11
408.937007874
 21
30.0
  0
LINE
  8
0
 62
2
  6
CONTINUOUS
 10
218.937007874
 20
30.0
 11
218.937007874
 21
10.0
  0
LINE
  8
0
 62
2
  6
CONTINUOUS
 10
218.937007874
 20
10.0
 11
408.937007874
 21
10.0
  0
LINE
  8
0
 62
2
  6
CONTINUOUS
 10
303.937007874
 20
30.0
 11
303.937007874
 21
10.0
  0
LINE
  8
0
 62
2
  6
CONTINUOUS
 10
323.937007874
 20
30.0
 11
323.937007874
 21
10.0
  0
LINE
  8
0
 62
2
  6
CONTINUOUS
 10
408.937007874
 20
30.0
 11
408.937007874
 21
10.0
  0
TEXT
  8
0
 62
5
  6
CONTINUOUS
 10
221.937007874
 20
23.303
  7
TEXTSTYLE_5
 40
1.52
  1
                                                                     Ammeraal Beltech Modular A/S
 41
1.0
 72
0
  0
TEXT
  8
0
 62
5
  6
CONTINUOUS
 10
221.937007874
 20
20.595
  7
TEXTSTYLE_5
 40
1.5
  1
                                                                      Hjulmagervej 21, 7100 Vejle,  DK
 41
1.0
 72
0
  0
TEXT
  8
0
 62
5
  6
CONTINUOUS
 10
221.937007874
 20
17.881
  7
TEXTSTYLE_5
 40
1.495
  1
                                                                      tel: 
 41
1.0
 72
0
  0
TEXT
  8
0
 62
5
  6
CONTINUOUS
 10
266.9239544389
 20
17.881
  7
TEXTSTYLE_5
 40
1.51
  1
+45 75723100     fax: +45 75723348
 41
1.0
 72
0
  0
TEXT
  8
0
 62
5
  6
CONTINUOUS
 10
221.937007874
 20
15.177
  7
TEXTSTYLE_5
 40
1.5
  1
                                                                      admin@unichains.dk  www.unichains.com
 41
1.0
 72
0
  0
TEXT
  8
0
 62
5
  6
CONTINUOUS
 10
308.687007874
 20
13.75
  7
TEXTSTYLE_6
 40
5.0
  1
1:1
 41
0.7
 72
1
 11
313.937007874
 21
13.75
  0
TEXT
  8
0
 62
5
  6
CONTINUOUS
 10
326.937007874
 20
13.75
  7
TEXTSTYLE_7
 40
7.5
  1
uni Flex L-OSB 2,2/65% K1200
 41
0.3229166667
 72
0
  0
LINE
  8
0
 62
7
  6
CONTINUOUS
 10
0.0
 20
0.0
 11
0.0
 21
297.0
  0
LINE
  8
0
 62
7
  6
CONTINUOUS
 10
8.937007874
 20
10.0
 11
8.937007874
 21
287.0
  0
LINE
  8
0
 62
7
  6
CONTINUOUS
 10
0.0
 20
0.0
 11
420.0
 21
0.0
  0
LINE
  8
0
 62
7
  6
CONTINUOUS
 10
408.937007874
 20
10.0
 11
8.937007874
 21
10.0
  0
LINE
  8
0
 62
7
  6
CONTINUOUS
 10
218.937007874
 20
30.0
 11
408.937007874
 21
30.0
  0
LINE
  8
0
 62
7
  6
CONTINUOUS
 10
210.0
 20
297.0
 11
210.0
 21
292.0
  0
LINE
  8
0
 62
7
  6
CONTINUOUS
 10
210.0
 20
0.0
 11
210.0
 21
5.0
  0
LINE
  8
0
 62
7
  6
CONTINUOUS
 10
8.937007874
 20
287.0
 11
408.937007874
 21
287.0
  0
LINE
  8
0
 62
7
  6
CONTINUOUS
 10
0.0
 20
297.0
 11
420.0
 21
297.0
  0
LINE
  8
0
 62
7
  6
CONTINUOUS
 10
408.937007874
 20
287.0
 11
408.937007874
 21
10.0
  0
LINE
  8
0
 62
7
  6
CONTINUOUS
 10
420.0
 20
0.0
 11
420.0
 21
297.0
  0
LINE
  8
0
 62
7
  6
CONTINUOUS
 10
32.2977711694
 20
230.6203202708
 11
32.2977711694
 21
231.7160785509
  0
LINE
  8
0
 62
7
  6
CONTINUOUS
 10
34.0977711694
 20
208.7681994109
 11
34.0977711694
 21
202.7681994109
  0
LINE
  8
0
 62
7
  6
CONTINUOUS
 10
36.7977711694
 20
209.8966265356
 11
36.7977711694
 21
234.9966852383
  0
LINE
  8
0
 62
7
  6
CONTINUOUS
 10
36.7991531905
 20
235.0492412295
 11
36.7977711694
 21
234.9966852383
  0
POLYLINE
  8
0
 62
7
  6
CONTINUOUS
 66
1
 70
0
  0
VERTEX
  8
0
 62
7
  6
CONTINUOUS
 10
39.747181585
 20
230.0681994109
  0
VERTEX
  8
0
 62
7
  6
CONTINUOUS
 10
39.7515514948
 20
229.5562125207
  0
VERTEX
  8
0
 62
7
  6
CONTINUOUS
 10
39.7574836734
 20
229.0987026051
  0
VERTEX
  8
0
 62
7
  6
CONTINUOUS
 10
39.7647778173
 20
228.7111300621
  0
VERTEX
  8
0
 62
7
  6
CONTINUOUS
 10
39.7688602318
 20
228.5477702954
  0
VERTEX
  8
0
 62
7
  6
CONTINUOUS
 10
39.7777233095
 20
228.2888152267
  0
VERTEX
  8
0
 62
7
  6
CONTINUOUS
 10
39.7872646937
 20
228.1271966784
  0
VERTEX
  8
0
 62
7
  6
CONTINUOUS
 10
39.7971619037
 20
228.0683959245
  0
SEQEND
  0
LINE
  8
0
 62
7
  6
CONTINUOUS
 10
39.7974665134
 20
228.0681994136
 11
39.7974665134
 21
211.2678947281
  0
LINE
  8
0
 62
7
  6
CONTINUOUS
 10
62.1990477301
 20
176.5373942117
 11
62.2004735252
 21
176.4840129664
  0
LINE
  8
0
 62
7
  6
CONTINUOUS
 10
56.8003242907
 20
234.9966852383
 11
56.7989424756
 21
235.0492373152
  0
LINE
  8
0
 62
7
  6
CONTINUOUS
 10
65.1431906847
 20
179.8348804365
 11
65.1455864084
 21
179.3175522358
  0
LINE
  8
0
 62
7
  6
CONTINUOUS
 10
53.8006289468
 20
211.2678947281
 11
53.8006289468
 21
228.0681994136
  0
LINE
  8
0
 62
7
  6
CONTINUOUS
 10
56.8003242907
 20
209.8966265356
 11
56.8003242907
 21
234.9966852383
  0
LINE
  8
0
 62
7
  6
CONTINUOUS
 10
61.3003242907
 20
230.6203202708
 11
61.3003242907
 21
231.7160785509
  0
LINE
  8
0
 62
7
  6
CONTINUOUS
 10
62.1990477301
 20
176.5373942117
 11
62.1990477301
 21
201.6397722861
  0
LINE
  8
0
 62
7
  6
CONTINUOUS
 10
65.1423839075
 20
196.8681994109
 11
65.1431906847
 21
179.8348804365
  0
LINE
  8
0
 62
7
  6
CONTINUOUS
 10
65.1961899527
 20
200.2685040936
 11
65.1961899527
 21
199.9681994081
  0
POLYLINE
  8
0
 62
7
  6
CONTINUOUS
 66
1
 70
0
  0
VERTEX
  8
0
 62
7
  6
CONTINUOUS
 10
53.8509138751
 20
230.0681994109
  0
VERTEX
  8
0
 62
7
  6
CONTINUOUS
 10
53.8465439653
 20
229.5562125207
  0
VERTEX
  8
0
 62
7
  6
CONTINUOUS
 10
53.8406117867
 20
229.0987026051
  0
VERTEX
  8
0
 62
7
  6
CONTINUOUS
 10
53.8333176428
 20
228.7111300621
  0
VERTEX
  8
0
 62
7
  6
CONTINUOUS
 10
53.8292352283
 20
228.5477702954
  0
VERTEX
  8
0
 62
7
  6
CONTINUOUS
 10
53.8203721506
 20
228.2888152267
  0
VERTEX
  8
0
 62
7
  6
CONTINUOUS
 10
53.8108307664
 20
228.1271966784
  0
VERTEX
  8
0
 62
7
  6
CONTINUOUS
 10
53.8009335565
 20
228.0683959245
  0
SEQEND
  0
POLYLINE
  8
0
 62
7
  6
CONTINUOUS
 66
1
 70
0
  0
VERTEX
  8
0
 62
7
  6
CONTINUOUS
 10
65.195885343
 20
199.9680028972
  0
VERTEX
  8
0
 62
7
  6
CONTINUOUS
 10
65.1854148954
 20
199.9025171867
  0
VERTEX
  8
0
 62
7
  6
CONTINUOUS
 10
65.1753643685
 20
199.7220682077
  0
VERTEX
  8
0
 62
7
  6
CONTINUOUS
 10
65.1661146308
 20
199.4335009367
  0
VERTEX
  8
0
 62
7
  6
CONTINUOUS
 10
65.1580161016
 20
199.0477586948
  0
VERTEX
  8
0
 62
7
  6
CONTINUOUS
 10
65.1513754717
 20
198.5794645275
  0
VERTEX
  8
0
 62
7
  6
CONTINUOUS
 10
65.1464441196
 20
198.0463637011
  0
VERTEX
  8
0
 62
7
  6
CONTINUOUS
 10
65.1434086523
 20
197.4686496323
  0
VERTEX
  8
0
 62
7
  6
CONTINUOUS
 10
65.1423839075
 20
196.8681994109
  0
SEQEND
  0
LINE
  8
0
 62
7
  6
CONTINUOUS
 10
53.8009335565
 20
228.0683959245
 11
53.8006289468
 21
228.0681994109
  0
POLYLINE
  8
0
 62
7
  6
CONTINUOUS
 66
1
 70
0
  0
VERTEX
  8
0
 62
7
  6
CONTINUOUS
 10
53.8509138751
 20
230.0681994109
  0
VERTEX
  8
0
 62
7
  6
CONTINUOUS
 10
53.8211668824
 20
230.3284934352
  0
VERTEX
  8
0
 62
7
  6
CONTINUOUS
 10
53.7320109963
 20
230.5705170465
  0
VERTEX
  8
0
 62
7
  6
CONTINUOUS
 10
53.5854867919
 20
230.7883431326
  0
VERTEX
  8
0
 62
7
  6
CONTINUOUS
 10
53.4932284715
 20
230.8829162934
  0
VERTEX
  8
0
 62
7
  6
CONTINUOUS
 10
53.2743612869
 20
231.0374954096
  0
VERTEX
  8
0
 62
7
  6
CONTINUOUS
 10
53.0232340069
 20
231.134818991
  0
VERTEX
  8
0
 62
7
  6
CONTINUOUS
 10
52.7542674311
 20
231.1681994109
  0
SEQEND
  0
LINE
  8
SURFACE
 62
7
  6
CONTINUOUS
 10
79.1973302084
 20
199.9681994081
 11
79.1973302084
 21
200.2685040936
  0
POLYLINE
  8
SURFACE
 62
7
  6
CONTINUOUS
 66
1
 70
0
  0
VERTEX
  8
SURFACE
 62
7
  6
CONTINUOUS
 10
79.2511362536
 20
196.8681994109
  0
VERTEX
  8
SURFACE
 62
7
  6
CONTINUOUS
 10
79.2503294764
 20
179.8348804365
  0
VERTEX
  8
SURFACE
 62
7
  6
CONTINUOUS
 10
79.2479337527
 20
179.3175522358
  0
SEQEND
  0
LINE
  8
SURFACE
 62
7
  6
CONTINUOUS
 10
333.0683385433
 20
174.3682001186
 11
333.2526303462
 21
174.3853285934
  0
POLYLINE
  8
SURFACE
 62
7
  6
CONTINUOUS
 66
1
 70
0
  0
VERTEX
  8
SURFACE
 62
7
  6
CONTINUOUS
 10
79.1976348181
 20
199.9680028972
  0
VERTEX
  8
SURFACE
 62
7
  6
CONTINUOUS
 10
79.2081052658
 20
199.9025171867
  0
VERTEX
  8
SURFACE
 62
7
  6
CONTINUOUS
 10
79.2181557926
 20
199.7220682077
  0
VERTEX
  8
SURFACE
 62
7
  6
CONTINUOUS
 10
79.2274055303
 20
199.4335009367
  0
VERTEX
  8
SURFACE
 62
7
  6
CONTINUOUS
 10
79.2355040595
 20
199.0477586948
  0
VERTEX
  8
SURFACE
 62
7
  6
CONTINUOUS
 10
79.2421446894
 20
198.5794645275
  0
VERTEX
  8
SURFACE
 62
7
  6
CONTINUOUS
 10
79.2470760415
 20
198.0463637011
  0
VERTEX
  8
SURFACE
 62
7
  6
CONTINUOUS
 10
79.2501115088
 20
197.4686496323
  0
VERTEX
  8
SURFACE
 62
7
  6
CONTINUOUS
 10
79.2511362536
 20
196.8681994109
  0
SEQEND
  0
POLYLINE
  8
SURFACE
 62
7
  6
CONTINUOUS
 66
1
 70
0
  0
VERTEX
  8
SURFACE
 62
7
  6
CONTINUOUS
 10
90.542606286
 20
230.0681994109
  0
VERTEX
  8
SURFACE
 62
7
  6
CONTINUOUS
 10
90.5469761958
 20
229.5562125207
  0
VERTEX
  8
SURFACE
 62
7
  6
CONTINUOUS
 10
90.5529083744
 20
229.0987026051
  0
VERTEX
  8
SURFACE
 62
7
  6
CONTINUOUS
 10
90.5602025183
 20
228.7111300621
  0
VERTEX
  8
SURFACE
 62
7
  6
CONTINUOUS
 10
90.5642849328
 20
228.5477702954
  0
VERTEX
  8
SURFACE
 62
7
  6
CONTINUOUS
 10
90.5731480105
 20
228.2888152267
  0
VERTEX
  8
SURFACE
 62
7
  6
CONTINUOUS
 10
90.5826893947
 20
228.1271966784
  0
VERTEX
  8
SURFACE
 62
7
  6
CONTINUOUS
 10
90.5925866046
 20
228.0683959245
  0
SEQEND
  0
LINE
  8
SURFACE
 62
7
  6
CONTINUOUS
 10
82.194472431
 20
176.5373942117
 11
82.194472431
 21
201.6397722861
  0
LINE
  8
SURFACE
 62
7
  6
CONTINUOUS
 10
83.0931958704
 20
230.6203202708
 11
83.0931958704
 21
231.7160785509
  0
LINE
  8
SURFACE
 62
7
  6
CONTINUOUS
 10
87.5931958704
 20
209.8966265356
 11
87.5931958704
 21
234.9966852383
  0
LINE
  8
SURFACE
 62
7
  6
CONTINUOUS
 10
90.5928912143
 20
228.0681994136
 11
90.5928912143
 21
211.2678947281
  0
LINE
  8
SURFACE
 62
7
  6
CONTINUOUS
 10
87.5931958704
 20
234.9966852383
 11
87.5945776855
 21
235.0492373152
  0
LINE
  8
SURFACE
 62
7
  6
CONTINUOUS
 10
82.194472431
 20
176.5373942117
 11
82.1930466359
 21
176.4840129664
  0
POLYLINE
  8
SURFACE
 62
7
  6
CONTINUOUS
 66
1
 70
0
  0
VERTEX
  8
SURFACE
 62
7
  6
CONTINUOUS
 10
90.542606286
 20
230.0681994109
  0
VERTEX
  8
SURFACE
 62
7
  6
CONTINUOUS
 10
90.5723532787
 20
230.3284934352
  0
VERTEX
  8
SURFACE
 62
7
  6
CONTINUOUS
 10
90.6615091648
 20
230.5705170465
  0
VERTEX
  8
SURFACE
 62
7
  6
CONTINUOUS
 10
90.8080333692
 20
230.7883431326
  0
VERTEX
  8
SURFACE
 62
7
  6
CONTINUOUS
 10
90.9002916896
 20
230.8829162934
  0
VERTEX
  8
SURFACE
 62
7
  6
CONTINUOUS
 10
91.1191588743
 20
231.0374954096
  0
VERTEX
  8
SURFACE
 62
7
  6
CONTINUOUS
 10
91.3702861542
 20
231.134818991
  0
VERTEX
  8
SURFACE
 62
7
  6
CONTINUOUS
 10
91.63925273
 20
231.1681994109
  0
SEQEND
  0
LINE
  8
SURFACE
 62
7
  6
CONTINUOUS
 10
104.5963582574
 20
228.0683959245
 11
104.5960536478
 21
228.0681994109
  0
LINE
  8
0
 62
7
  6
CONTINUOUS
 10
65.1961899527
 20
199.9681994109
 11
65.195885343
 21
199.9680028972
  0
LINE
  8
SURFACE
 62
7
  6
CONTINUOUS
 10
231.4683385433
 20
174.3682001186
 11
231.6526303462
 21
174.3853285934
  0
POLYLINE
  8
SURFACE
 62
7
  6
CONTINUOUS
 66
1
 70
0
  0
VERTEX
  8
SURFACE
 62
7
  6
CONTINUOUS
 10
129.8683385433
 20
174.3682001186
  0
VERTEX
  8
SURFACE
 62
7
  6
CONTINUOUS
 10
130.0526303462
 20
174.3853285934
  0
VERTEX
  8
SURFACE
 62
7
  6
CONTINUOUS
 10
130.2849350712
 20
174.459108936
  0
SEQEND
  0
POLYLINE
  8
SURFACE
 62
7
  6
CONTINUOUS
 66
1
 70
0
  0
VERTEX
  8
SURFACE
 62
7
  6
CONTINUOUS
 10
331.207562578
 20
177.3559795086
  0
VERTEX
  8
SURFACE
 62
7
  6
CONTINUOUS
 10
331.3722213713
 20
177.3622870648
  0
VERTEX
  8
SURFACE
 62
7
  6
CONTINUOUS
 10
331.5579527629
 20
177.384663604
  0
VERTEX
  8
SURFACE
 62
7
  6
CONTINUOUS
 10
331.7608394589
 20
177.4283858844
  0
VERTEX
  8
SURFACE
 62
7
  6
CONTINUOUS
 10
331.978999115
 20
177.4997891771
  0
VERTEX
  8
SURFACE
 62
7
  6
CONTINUOUS
 10
332.2129625487
 20
177.6083577223
  0
VERTEX
  8
SURFACE
 62
7
  6
CONTINUOUS
 10
332.3417768594
 20
177.6846379672
  0
VERTEX
  8
SURFACE
 62
7
  6
CONTINUOUS
 10
332.6285477596
 20
177.9084194538
  0
VERTEX
  8
SURFACE
 62
7
  6
CONTINUOUS
 10
332.9040132551
 20
178.229366144
  0
VERTEX
  8
SURFACE
 62
7
  6
CONTINUOUS
 10
333.0969774653
 20
178.5846483905
  0
VERTEX
  8
SURFACE
 62
7
  6
CONTINUOUS
 10
333.2084768867
 20
178.9523818944
  0
VERTEX
  8
SURFACE
 62
7
  6
CONTINUOUS
 10
333.2453806314
 20
179.3175522358
  0
SEQEND
  0
POLYLINE
  8
SURFACE
 62
7
  6
CONTINUOUS
 66
1
 70
0
  0
VERTEX
  8
SURFACE
 62
7
  6
CONTINUOUS
 10
280.4101156993
 20
177.3559795086
  0
VERTEX
  8
SURFACE
 62
7
  6
CONTINUOUS
 10
280.5747744925
 20
177.3622870648
  0
VERTEX
  8
SURFACE
 62
7
  6
CONTINUOUS
 10
280.7605058842
 20
177.384663604
  0
VERTEX
  8
SURFACE
 62
7
  6
CONTINUOUS
 10
280.9633925802
 20
177.4283858844
  0
VERTEX
  8
SURFACE
 62
7
  6
CONTINUOUS
 10
281.1815522362
 20
177.4997891771
  0
VERTEX
  8
SURFACE
 62
7
  6
CONTINUOUS
 10
281.41551567
 20
177.6083577223
  0
VERTEX
  8
SURFACE
 62
7
  6
CONTINUOUS
 10
281.5443299807
 20
177.6846379672
  0
VERTEX
  8
SURFACE
 62
7
  6
CONTINUOUS
 10
281.8311008808
 20
177.9084194538
  0
VERTEX
  8
SURFACE
 62
7
  6
CONTINUOUS
 10
282.1065663764
 20
178.229366144
  0
VERTEX
  8
SURFACE
 62
7
  6
CONTINUOUS
 10
282.2995305865
 20
178.5846483905
  0
VERTEX
  8
SURFACE
 62
7
  6
CONTINUOUS
 10
282.411030008
 20
178.9523818944
  0
VERTEX
  8
SURFACE
 62
7
  6
CONTINUOUS
 10
282.4479337527
 20
179.3175522358
  0
SEQEND
  0
POLYLINE
  8
SURFACE
 62
7
  6
CONTINUOUS
 66
1
 70
0
  0
VERTEX
  8
SURFACE
 62
7
  6
CONTINUOUS
 10
229.607562578
 20
177.3559795086
  0
VERTEX
  8
SURFACE
 62
7
  6
CONTINUOUS
 10
229.7722213713
 20
177.3622870648
  0
VERTEX
  8
SURFACE
 62
7
  6
CONTINUOUS
 10
229.9579527629
 20
177.384663604
  0
VERTEX
  8
SURFACE
 62
7
  6
CONTINUOUS
 10
230.1608394589
 20
177.4283858844
  0
VERTEX
  8
SURFACE
 62
7
  6
CONTINUOUS
 10
230.378999115
 20
177.4997891771
  0
VERTEX
  8
SURFACE
 62
7
  6
CONTINUOUS
 10
230.6129625487
 20
177.6083577223
  0
VERTEX
  8
SURFACE
 62
7
  6
CONTINUOUS
 10
230.7417768594
 20
177.6846379672
  0
VERTEX
  8
SURFACE
 62
7
  6
CONTINUOUS
 10
231.0285477596
 20
177.9084194538
  0
VERTEX
  8
SURFACE
 62
7
  6
CONTINUOUS
 10
231.3040132551
 20
178.229366144
  0
VERTEX
  8
SURFACE
 62
7
  6
CONTINUOUS
 10
231.4969774653
 20
178.5846483905
  0
VERTEX
  8
SURFACE
 62
7
  6
CONTINUOUS
 10
231.6084768867
 20
178.9523818944
  0
VERTEX
  8
SURFACE
 62
7
  6
CONTINUOUS
 10
231.6453806314
 20
179.3175522358
  0
SEQEND
  0
LINE
  8
SURFACE
 62
7
  6
CONTINUOUS
 10
115.9363276173
 20
174.385327499
 11
116.1206065179
 21
174.3682000636
  0
LINE
  8
SURFACE
 62
7
  6
CONTINUOUS
 10
115.7040278774
 20
174.4591005484
 11
115.9363368515
 21
174.3853245664
  0
LINE
  8
SURFACE
 62
7
  6
CONTINUOUS
 10
115.6999115489
 20
174.4609877905
 11
115.7040746985
 21
174.4590793566
  0
LINE
  8
SURFACE
 62
7
  6
CONTINUOUS
 10
107.5943669706
 20
235.0492412295
 11
107.5957489917
 21
234.9966852383
  0
LINE
  8
SURFACE
 62
7
  6
CONTINUOUS
 10
104.5960536478
 20
211.2678947281
 11
104.5960536478
 21
228.0681994136
  0
LINE
  8
SURFACE
 62
7
  6
CONTINUOUS
 10
107.5957489917
 20
209.8966265356
 11
107.5957489917
 21
234.9966852383
  0
POLYLINE
  8
SURFACE
 62
7
  6
CONTINUOUS
 66
1
 70
0
  0
VERTEX
  8
SURFACE
 62
7
  6
CONTINUOUS
 10
104.6463385761
 20
230.0681994109
  0
VERTEX
  8
SURFACE
 62
7
  6
CONTINUOUS
 10
104.6419686663
 20
229.5562125207
  0
VERTEX
  8
SURFACE
 62
7
  6
CONTINUOUS
 10
104.6360364877
 20
229.0987026051
  0
VERTEX
  8
SURFACE
 62
7
  6
CONTINUOUS
 10
104.6287423438
 20
228.7111300621
  0
VERTEX
  8
SURFACE
 62
7
  6
CONTINUOUS
 10
104.6246599293
 20
228.5477702954
  0
VERTEX
  8
SURFACE
 62
7
  6
CONTINUOUS
 10
104.6157968516
 20
228.2888152267
  0
VERTEX
  8
SURFACE
 62
7
  6
CONTINUOUS
 10
104.6062554674
 20
228.1271966784
  0
VERTEX
  8
SURFACE
 62
7
  6
CONTINUOUS
 10
104.5963582574
 20
228.0683959245
  0
SEQEND
  0
POLYLINE
  8
SURFACE
 62
7
  6
CONTINUOUS
 66
1
 70
0
  0
VERTEX
  8
SURFACE
 62
7
  6
CONTINUOUS
 10
178.8101156993
 20
177.3559795086
  0
VERTEX
  8
SURFACE
 62
7
  6
CONTINUOUS
 10
178.9747744925
 20
177.3622870648
  0
VERTEX
  8
SURFACE
 62
7
  6
CONTINUOUS
 10
179.1605058842
 20
177.384663604
  0
VERTEX
  8
SURFACE
 62
7
  6
CONTINUOUS
 10
179.3633925802
 20
177.4283858844
  0
VERTEX
  8
SURFACE
 62
7
  6
CONTINUOUS
 10
179.5815522362
 20
177.4997891771
  0
VERTEX
  8
SURFACE
 62
7
  6
CONTINUOUS
 10
179.81551567
 20
177.6083577223
  0
VERTEX
  8
SURFACE
 62
7
  6
CONTINUOUS
 10
179.9443299807
 20
177.6846379672
  0
VERTEX
  8
SURFACE
 62
7
  6
CONTINUOUS
 10
180.2311008808
 20
177.9084194538
  0
VERTEX
  8
SURFACE
 62
7
  6
CONTINUOUS
 10
180.5065663764
 20
178.229366144
  0
VERTEX
  8
SURFACE
 62
7
  6
CONTINUOUS
 10
180.6995305865
 20
178.5846483905
  0
VERTEX
  8
SURFACE
 62
7
  6
CONTINUOUS
 10
180.811030008
 20
178.9523818944
  0
VERTEX
  8
SURFACE
 62
7
  6
CONTINUOUS
 10
180.8479337527
 20
179.3175522358
  0
SEQEND
  0
POLYLINE
  8
SURFACE
 62
7
  6
CONTINUOUS
 66
1
 70
0
  0
VERTEX
  8
SURFACE
 62
7
  6
CONTINUOUS
 10
128.007562578
 20
177.3559795086
  0
VERTEX
  8
SURFACE
 62
7
  6
CONTINUOUS
 10
128.1722213713
 20
177.3622870648
  0
VERTEX
  8
SURFACE
 62
7
  6
CONTINUOUS
 10
128.3579527629
 20
177.384663604
  0
VERTEX
  8
SURFACE
 62
7
  6
CONTINUOUS
 10
128.5608394589
 20
177.4283858844
  0
VERTEX
  8
SURFACE
 62
7
  6
CONTINUOUS
 10
128.778999115
 20
177.4997891771
  0
VERTEX
  8
SURFACE
 62
7
  6
CONTINUOUS
 10
129.0129625487
 20
177.6083577223
  0
VERTEX
  8
SURFACE
 62
7
  6
CONTINUOUS
 10
129.1417768594
 20
177.6846379672
  0
VERTEX
  8
SURFACE
 62
7
  6
CONTINUOUS
 10
129.4285477596
 20
177.9084194538
  0
VERTEX
  8
SURFACE
 62
7
  6
CONTINUOUS
 10
129.7040132551
 20
178.229366144
  0
VERTEX
  8
SURFACE
 62
7
  6
CONTINUOUS
 10
129.8969774653
 20
178.5846483905
  0
VERTEX
  8
SURFACE
 62
7
  6
CONTINUOUS
 10
130.0084768867
 20
178.9523818944
  0
VERTEX
  8
SURFACE
 62
7
  6
CONTINUOUS
 10
130.0453806314
 20
179.3175522358
  0
SEQEND
  0
POLYLINE
  8
SURFACE
 62
7
  6
CONTINUOUS
 66
1
 70
0
  0
VERTEX
  8
SURFACE
 62
7
  6
CONTINUOUS
 10
77.2101156993
 20
177.3559795086
  0
VERTEX
  8
SURFACE
 62
7
  6
CONTINUOUS
 10
77.3747744925
 20
177.3622870648
  0
VERTEX
  8
SURFACE
 62
7
  6
CONTINUOUS
 10
77.5605058842
 20
177.384663604
  0
VERTEX
  8
SURFACE
 62
7
  6
CONTINUOUS
 10
77.7633925802
 20
177.4283858844
  0
VERTEX
  8
SURFACE
 62
7
  6
CONTINUOUS
 10
77.9815522362
 20
177.4997891771
  0
VERTEX
  8
SURFACE
 62
7
  6
CONTINUOUS
 10
78.21551567
 20
177.6083577223
  0
VERTEX
  8
SURFACE
 62
7
  6
CONTINUOUS
 10
78.3443299807
 20
177.6846379672
  0
VERTEX
  8
SURFACE
 62
7
  6
CONTINUOUS
 10
78.6311008808
 20
177.9084194538
  0
VERTEX
  8
SURFACE
 62
7
  6
CONTINUOUS
 10
78.9065663764
 20
178.229366144
  0
VERTEX
  8
SURFACE
 62
7
  6
CONTINUOUS
 10
79.0995305865
 20
178.5846483905
  0
VERTEX
  8
SURFACE
 62
7
  6
CONTINUOUS
 10
79.211030008
 20
178.9523818944
  0
VERTEX
  8
SURFACE
 62
7
  6
CONTINUOUS
 10
79.2479337527
 20
179.3175522358
  0
SEQEND
  0
LINE
  8
SURFACE
 62
7
  6
CONTINUOUS
 10
282.270623623
 20
174.3681994109
 11
268.5228965381
 21
174.3681994109
  0
LINE
  8
SURFACE
 62
7
  6
CONTINUOUS
 10
180.670623623
 20
174.3681994109
 11
166.9228965381
 21
174.3681994109
  0
LINE
  8
0
 62
7
  6
CONTINUOUS
 10
79.070623623
 20
174.3681994109
 11
65.3228965381
 21
174.3681994109
  0
LINE
  8
SURFACE
 62
7
  6
CONTINUOUS
 10
333.0694013529
 20
174.3687650459
 11
319.3195433155
 21
174.3687650459
  0
LINE
  8
SURFACE
 62
7
  6
CONTINUOUS
 10
231.4694013529
 20
174.3687650459
 11
217.7195433155
 21
174.3687650459
  0
LINE
  8
SURFACE
 62
7
  6
CONTINUOUS
 10
129.8694013529
 20
174.3687650459
 11
116.1195433155
 21
174.3687650459
  0
LINE
  8
SURFACE
 62
7
  6
CONTINUOUS
 10
331.207562578
 20
177.3559795086
 11
321.181382284
 21
177.3559795086
  0
LINE
  8
SURFACE
 62
7
  6
CONTINUOUS
 10
229.607562578
 20
177.3559795086
 11
219.581382284
 21
177.3559795086
  0
LINE
  8
SURFACE
 62
7
  6
CONTINUOUS
 10
128.007562578
 20
177.3559795086
 11
117.981382284
 21
177.3559795086
  0
LINE
  8
0
 62
7
  6
CONTINUOUS
 10
67.1834044618
 20
177.3559795086
 11
77.2101156993
 21
177.3559795086
  0
LINE
  8
SURFACE
 62
7
  6
CONTINUOUS
 10
168.7834044618
 20
177.3559795086
 11
178.8101156993
 21
177.3559795086
  0
LINE
  8
SURFACE
 62
7
  6
CONTINUOUS
 10
270.3834044618
 20
177.3559795086
 11
280.4101156993
 21
177.3559795086
  0
LINE
  8
DEFAULT_1
 62
2
  6
CENTER
 10
344.8164624023
 20
180.3681994109
 11
46.4327124023
 21
180.3681994109
  0
POLYLINE
  8
0
 62
7
  6
CONTINUOUS
 66
1
 70
0
  0
VERTEX
  8
0
 62
7
  6
CONTINUOUS
 10
67.1834044618
 20
177.3559795086
  0
VERTEX
  8
0
 62
7
  6
CONTINUOUS
 10
67.0187456686
 20
177.3622870648
  0
VERTEX
  8
0
 62
7
  6
CONTINUOUS
 10
66.8330142769
 20
177.384663604
  0
VERTEX
  8
0
 62
7
  6
CONTINUOUS
 10
66.6301275809
 20
177.4283858844
  0
VERTEX
  8
0
 62
7
  6
CONTINUOUS
 10
66.4119679249
 20
177.4997891771
  0
VERTEX
  8
0
 62
7
  6
CONTINUOUS
 10
66.1780044912
 20
177.6083577223
  0
VERTEX
  8
0
 62
7
  6
CONTINUOUS
 10
66.0491901804
 20
177.6846379672
  0
VERTEX
  8
0
 62
7
  6
CONTINUOUS
 10
65.7624192803
 20
177.9084194538
  0
VERTEX
  8
0
 62
7
  6
CONTINUOUS
 10
65.4869537847
 20
178.229366144
  0
VERTEX
  8
0
 62
7
  6
CONTINUOUS
 10
65.2939895746
 20
178.5846483905
  0
VERTEX
  8
0
 62
7
  6
CONTINUOUS
 10
65.1824901532
 20
178.9523818944
  0
VERTEX
  8
0
 62
7
  6
CONTINUOUS
 10
65.1455864084
 20
179.3175522358
  0
SEQEND
  0
POLYLINE
  8
SURFACE
 62
7
  6
CONTINUOUS
 66
1
 70
0
  0
VERTEX
  8
SURFACE
 62
7
  6
CONTINUOUS
 10
168.7834044618
 20
177.3559795086
  0
VERTEX
  8
SURFACE
 62
7
  6
CONTINUOUS
 10
168.6187456686
 20
177.3622870648
  0
VERTEX
  8
SURFACE
 62
7
  6
CONTINUOUS
 10
168.4330142769
 20
177.384663604
  0
VERTEX
  8
SURFACE
 62
7
  6
CONTINUOUS
 10
168.2301275809
 20
177.4283858844
  0
VERTEX
  8
SURFACE
 62
7
  6
CONTINUOUS
 10
168.0119679249
 20
177.4997891771
  0
VERTEX
  8
SURFACE
 62
7
  6
CONTINUOUS
 10
167.7780044912
 20
177.6083577223
  0
VERTEX
  8
SURFACE
 62
7
  6
CONTINUOUS
 10
167.6491901804
 20
177.6846379672
  0
VERTEX
  8
SURFACE
 62
7
  6
CONTINUOUS
 10
167.3624192803
 20
177.9084194538
  0
VERTEX
  8
SURFACE
 62
7
  6
CONTINUOUS
 10
167.0869537847
 20
178.229366144
  0
VERTEX
  8
SURFACE
 62
7
  6
CONTINUOUS
 10
166.8939895746
 20
178.5846483905
  0
VERTEX
  8
SURFACE
 62
7
  6
CONTINUOUS
 10
166.7824901532
 20
178.9523818944
  0
VERTEX
  8
SURFACE
 62
7
  6
CONTINUOUS
 10
166.7455864084
 20
179.3175522358
  0
SEQEND
  0
POLYLINE
  8
SURFACE
 62
7
  6
CONTINUOUS
 66
1
 70
0
  0
VERTEX
  8
SURFACE
 62
7
  6
CONTINUOUS
 10
270.3834044618
 20
177.3559795086
  0
VERTEX
  8
SURFACE
 62
7
  6
CONTINUOUS
 10
270.2187456686
 20
177.3622870648
  0
VERTEX
  8
SURFACE
 62
7
  6
CONTINUOUS
 10
270.0330142769
 20
177.384663604
  0
VERTEX
  8
SURFACE
 62
7
  6
CONTINUOUS
 10
269.8301275809
 20
177.4283858844
  0
VERTEX
  8
SURFACE
 62
7
  6
CONTINUOUS
 10
269.6119679249
 20
177.4997891771
  0
VERTEX
  8
SURFACE
 62
7
  6
CONTINUOUS
 10
269.3780044912
 20
177.6083577223
  0
VERTEX
  8
SURFACE
 62
7
  6
CONTINUOUS
 10
269.2491901804
 20
177.6846379672
  0
VERTEX
  8
SURFACE
 62
7
  6
CONTINUOUS
 10
268.9624192803
 20
177.9084194538
  0
VERTEX
  8
SURFACE
 62
7
  6
CONTINUOUS
 10
268.6869537847
 20
178.229366144
  0
VERTEX
  8
SURFACE
 62
7
  6
CONTINUOUS
 10
268.4939895746
 20
178.5846483905
  0
VERTEX
  8
SURFACE
 62
7
  6
CONTINUOUS
 10
268.3824901532
 20
178.9523818944
  0
VERTEX
  8
SURFACE
 62
7
  6
CONTINUOUS
 10
268.3455864084
 20
179.3175522358
  0
SEQEND
  0
LINE
  8
SURFACE
 62
7
  6
CONTINUOUS
 10
79.1973302084
 20
199.9681994109
 11
79.1976348181
 21
199.9680028972
  0
LINE
  8
0
 62
7
  6
CONTINUOUS
 10
39.7971619037
 20
228.0683959245
 11
39.7974665134
 21
228.0681994109
  0
POLYLINE
  8
SURFACE
 62
7
  6
CONTINUOUS
 66
1
 70
0
  0
VERTEX
  8
SURFACE
 62
7
  6
CONTINUOUS
 10
115.9435642307
 20
179.3175522358
  0
VERTEX
  8
SURFACE
 62
7
  6
CONTINUOUS
 10
115.9828274637
 20
178.9406428952
  0
VERTEX
  8
SURFACE
 62
7
  6
CONTINUOUS
 10
116.1017720462
 20
178.5614570404
  0
VERTEX
  8
SURFACE
 62
7
  6
CONTINUOUS
 10
116.3088929222
 20
178.1952307795
  0
VERTEX
  8
SURFACE
 62
7
  6
CONTINUOUS
 10
116.6047938018
 20
177.8679681366
  0
VERTEX
  8
SURFACE
 62
7
  6
CONTINUOUS
 10
116.8994075363
 20
177.6521436933
  0
VERTEX
  8
SURFACE
 62
7
  6
CONTINUOUS
 10
117.1548510329
 20
177.5221806923
  0
VERTEX
  8
SURFACE
 62
7
  6
CONTINUOUS
 10
117.3903156981
 20
177.4388722275
  0
VERTEX
  8
SURFACE
 62
7
  6
CONTINUOUS
 10
117.6085653928
 20
177.3884850055
  0
VERTEX
  8
SURFACE
 62
7
  6
CONTINUOUS
 10
117.8049331731
 20
177.3632230882
  0
VERTEX
  8
SURFACE
 62
7
  6
CONTINUOUS
 10
117.981382284
 20
177.3559795086
  0
SEQEND
  0
LINE
  8
SURFACE
 62
7
  6
CONTINUOUS
 10
112.9958688428
 20
176.4860540063
 11
112.994472431
 21
176.5388827249
  0
LINE
  8
SURFACE
 62
7
  6
CONTINUOUS
 10
115.9411685069
 20
179.8348804365
 11
115.9435642307
 21
179.3175522358
  0
LINE
  8
SURFACE
 62
7
  6
CONTINUOUS
 10
112.0957489917
 20
230.6203202708
 11
112.0957489917
 21
231.7160785509
  0
LINE
  8
SURFACE
 62
7
  6
CONTINUOUS
 10
112.994472431
 20
201.6397722861
 11
112.994472431
 21
176.5388827249
  0
LINE
  8
SURFACE
 62
7
  6
CONTINUOUS
 10
115.9403617298
 20
196.8681994109
 11
115.9411685069
 21
179.8348804365
  0
LINE
  8
SURFACE
 62
7
  6
CONTINUOUS
 10
115.994167775
 20
200.2685040936
 11
115.994167775
 21
199.9681994081
  0
POLYLINE
  8
SURFACE
 62
7
  6
CONTINUOUS
 66
1
 70
0
  0
VERTEX
  8
SURFACE
 62
7
  6
CONTINUOUS
 10
115.9938631653
 20
199.9680028972
  0
VERTEX
  8
SURFACE
 62
7
  6
CONTINUOUS
 10
115.9833927176
 20
199.9025171867
  0
VERTEX
  8
SURFACE
 62
7
  6
CONTINUOUS
 10
115.9733421908
 20
199.7220682077
  0
VERTEX
  8
SURFACE
 62
7
  6
CONTINUOUS
 10
115.964092453
 20
199.4335009367
  0
VERTEX
  8
SURFACE
 62
7
  6
CONTINUOUS
 10
115.9559939239
 20
199.0477586948
  0
VERTEX
  8
SURFACE
 62
7
  6
CONTINUOUS
 10
115.9493532939
 20
198.5794645275
  0
VERTEX
  8
SURFACE
 62
7
  6
CONTINUOUS
 10
115.9444219418
 20
198.0463637011
  0
VERTEX
  8
SURFACE
 62
7
  6
CONTINUOUS
 10
115.9413864745
 20
197.4686496323
  0
VERTEX
  8
SURFACE
 62
7
  6
CONTINUOUS
 10
115.9403617298
 20
196.8681994109
  0
SEQEND
  0
LINE
  8
SURFACE
 62
7
  6
CONTINUOUS
 10
155.4009335565
 20
228.0683959245
 11
155.4006289468
 21
228.0681994109
  0
LINE
  8
SURFACE
 62
7
  6
CONTINUOUS
 10
115.994167775
 20
199.9681994109
 11
115.9938631653
 21
199.9680028972
  0
LINE
  8
SURFACE
 62
7
  6
CONTINUOUS
 10
311.622100814
 20
228.7139075327
 11
314.0562212582
 21
229.1431086413
  0
LINE
  8
0
 62
7
  6
CONTINUOUS
 10
338.3977711694
 20
202.2681994109
 11
338.194472431
 21
202.2681994109
  0
LINE
  8
SURFACE
 62
7
  6
CONTINUOUS
 10
314.194472431
 20
202.2681994109
 11
287.394472431
 21
202.2681994109
  0
LINE
  8
SURFACE
 62
7
  6
CONTINUOUS
 10
212.594472431
 20
202.2681994109
 11
185.794472431
 21
202.2681994109
  0
LINE
  8
0
 62
7
  6
CONTINUOUS
 10
161.7990477301
 20
202.2681994109
 11
134.994472431
 21
202.2681994109
  0
LINE
  8
SURFACE
 62
7
  6
CONTINUOUS
 10
110.994472431
 20
202.2681994109
 11
84.194472431
 21
202.2681994109
  0
LINE
  8
0
 62
7
  6
CONTINUOUS
 10
34.5977711694
 20
202.2681994109
 11
60.1990477301
 21
202.2681994109
  0
LINE
  8
SURFACE
 62
7
  6
CONTINUOUS
 10
134.994472431
 20
202.2681994109
 11
161.7990477301
 21
202.2681994109
  0
LINE
  8
SURFACE
 62
7
  6
CONTINUOUS
 10
236.594472431
 20
202.2681994109
 11
263.3990477301
 21
202.2681994109
  0
LINE
  8
0
 62
7
  6
CONTINUOUS
 10
236.594472431
 20
202.2681994109
 11
263.3990477301
 21
202.2681994109
  0
LINE
  8
SURFACE
 62
7
  6
CONTINUOUS
 10
338.194472431
 20
202.2681994109
 11
338.3977711694
 21
202.2681994109
  0
LINE
  8
SURFACE
 62
7
  6
CONTINUOUS
 10
331.1947771138
 20
202.268504067
 11
321.1941677483
 21
202.268504067
  0
LINE
  8
SURFACE
 62
7
  6
CONTINUOUS
 10
280.3973302351
 20
202.268504067
 11
270.3961899261
 21
202.268504067
  0
LINE
  8
SURFACE
 62
7
  6
CONTINUOUS
 10
229.5947771138
 20
202.268504067
 11
219.5941677483
 21
202.268504067
  0
LINE
  8
SURFACE
 62
7
  6
CONTINUOUS
 10
178.7973302351
 20
202.268504067
 11
168.7961899261
 21
202.268504067
  0
LINE
  8
SURFACE
 62
7
  6
CONTINUOUS
 10
127.9947771138
 20
202.268504067
 11
117.9941677483
 21
202.268504067
  0
LINE
  8
SURFACE
 62
7
  6
CONTINUOUS
 10
77.1973302351
 20
202.268504067
 11
67.1961899261
 21
202.268504067
  0
LINE
  8
SURFACE
 62
7
  6
CONTINUOUS
 10
129.9947770871
 20
199.9681994109
 11
129.9950816968
 21
199.9680028972
  0
LINE
  8
SURFACE
 62
7
  6
CONTINUOUS
 10
129.9947770871
 20
199.9681994081
 11
129.9947770871
 21
200.2685040936
  0
LINE
  8
SURFACE
 62
7
  6
CONTINUOUS
 10
132.994472431
 20
201.6397722861
 11
132.994472431
 21
176.5388827249
  0
LINE
  8
SURFACE
 62
7
  6
CONTINUOUS
 10
133.8977711694
 20
230.6203202708
 11
133.8977711694
 21
231.7160785509
  0
LINE
  8
SURFACE
 62
7
  6
CONTINUOUS
 10
138.3977711694
 20
209.8966265356
 11
138.3977711694
 21
234.9966852383
  0
POLYLINE
  8
SURFACE
 62
7
  6
CONTINUOUS
 66
1
 70
0
  0
VERTEX
  8
SURFACE
 62
7
  6
CONTINUOUS
 10
130.0485831323
 20
196.8681994109
  0
VERTEX
  8
SURFACE
 62
7
  6
CONTINUOUS
 10
130.0477763552
 20
179.8348804365
  0
VERTEX
  8
SURFACE
 62
7
  6
CONTINUOUS
 10
130.0453806314
 20
179.3175522358
  0
SEQEND
  0
LINE
  8
SURFACE
 62
7
  6
CONTINUOUS
 10
138.3991531905
 20
235.0492412295
 11
138.3977711694
 21
234.9966852383
  0
LINE
  8
SURFACE
 62
7
  6
CONTINUOUS
 10
132.994472431
 20
176.5388827249
 11
132.9930760656
 21
176.4860548814
  0
LINE
  8
SURFACE
 62
7
  6
CONTINUOUS
 10
287.5327236039
 20
233.1932901804
 11
289.9668440481
 21
233.622491289
  0
LINE
  8
SURFACE
 62
7
  6
CONTINUOUS
 10
260.826676113
 20
228.7139075327
 11
263.2607965572
 21
229.1431086413
  0
LINE
  8
SURFACE
 62
7
  6
CONTINUOUS
 10
236.7372989029
 20
233.1932901804
 11
239.1714193471
 21
233.622491289
  0
LINE
  8
SURFACE
 62
7
  6
CONTINUOUS
 10
210.022100814
 20
228.7139075327
 11
212.4562212582
 21
229.1431086413
  0
POLYLINE
  8
SURFACE
 62
7
  6
CONTINUOUS
 66
1
 70
0
  0
VERTEX
  8
SURFACE
 62
7
  6
CONTINUOUS
 10
244.043828029
 20
231.1681994109
  0
VERTEX
  8
SURFACE
 62
7
  6
CONTINUOUS
 10
243.7748614533
 20
231.134818991
  0
VERTEX
  8
SURFACE
 62
7
  6
CONTINUOUS
 10
243.5237341733
 20
231.0374954096
  0
VERTEX
  8
SURFACE
 62
7
  6
CONTINUOUS
 10
243.3048669886
 20
230.8829162934
  0
VERTEX
  8
SURFACE
 62
7
  6
CONTINUOUS
 10
243.2126086682
 20
230.7883431327
  0
VERTEX
  8
SURFACE
 62
7
  6
CONTINUOUS
 10
243.0660844638
 20
230.5705170465
  0
VERTEX
  8
SURFACE
 62
7
  6
CONTINUOUS
 10
242.9769285777
 20
230.3284934352
  0
VERTEX
  8
SURFACE
 62
7
  6
CONTINUOUS
 10
242.947181585
 20
230.0681994109
  0
SEQEND
  0
LINE
  8
0
 62
7
  6
CONTINUOUS
 10
41.7974664867
 20
209.2678947548
 11
51.8006289734
 21
209.2678947548
  0
LINE
  8
SURFACE
 62
7
  6
CONTINUOUS
 10
92.5928911877
 20
209.2678947548
 11
102.5960536744
 21
209.2678947548
  0
LINE
  8
SURFACE
 62
7
  6
CONTINUOUS
 10
143.3974664867
 20
209.2678947548
 11
153.4006289734
 21
209.2678947548
  0
LINE
  8
SURFACE
 62
7
  6
CONTINUOUS
 10
194.1928911877
 20
209.2678947548
 11
204.1960536744
 21
209.2678947548
  0
LINE
  8
SURFACE
 62
7
  6
CONTINUOUS
 10
244.9974664867
 20
209.2678947548
 11
255.0006289734
 21
209.2678947548
  0
LINE
  8
SURFACE
 62
7
  6
CONTINUOUS
 10
295.7928911877
 20
209.2678947548
 11
305.7960536744
 21
209.2678947548
  0
LINE
  8
0
 62
7
  6
CONTINUOUS
 10
338.3977711694
 20
209.2681994109
 11
312.7957489917
 21
209.2681994109
  0
LINE
  8
0
 62
7
  6
CONTINUOUS
 10
237.9977711694
 20
209.2681994109
 11
211.1957489917
 21
209.2681994109
  0
LINE
  8
0
 62
7
  6
CONTINUOUS
 10
34.5977711694
 20
209.2681994109
 11
34.7977711694
 21
209.2681994109
  0
LINE
  8
SURFACE
 62
7
  6
CONTINUOUS
 10
58.8003242907
 20
209.2681994109
 11
85.5931958704
 21
209.2681994109
  0
LINE
  8
0
 62
7
  6
CONTINUOUS
 10
58.8003242907
 20
209.2681994109
 11
85.5931958704
 21
209.2681994109
  0
LINE
  8
SURFACE
 62
7
  6
CONTINUOUS
 10
109.5957489917
 20
209.2681994109
 11
136.3977711694
 21
209.2681994109
  0
LINE
  8
0
 62
7
  6
CONTINUOUS
 10
109.5957489917
 20
209.2681994109
 11
136.3977711694
 21
209.2681994109
  0
LINE
  8
SURFACE
 62
7
  6
CONTINUOUS
 10
160.4003242907
 20
209.2681994109
 11
187.1931958704
 21
209.2681994109
  0
LINE
  8
SURFACE
 62
7
  6
CONTINUOUS
 10
211.1957489917
 20
209.2681994109
 11
237.9977711694
 21
209.2681994109
  0
LINE
  8
SURFACE
 62
7
  6
CONTINUOUS
 10
262.0003242907
 20
209.2681994109
 11
288.7931958704
 21
209.2681994109
  0
LINE
  8
SURFACE
 62
7
  6
CONTINUOUS
 10
312.7957489917
 20
209.2681994109
 11
338.3977711694
 21
209.2681994109
  0
LINE
  8
0
 62
7
  6
CONTINUOUS
 10
35.9714193471
 20
228.7139075327
 11
33.5372989029
 21
229.1431086413
  0
POLYLINE
  8
SURFACE
 62
7
  6
CONTINUOUS
 66
1
 70
0
  0
VERTEX
  8
SURFACE
 62
7
  6
CONTINUOUS
 10
217.3040278774
 20
174.4591005484
  0
VERTEX
  8
SURFACE
 62
7
  6
CONTINUOUS
 10
217.5363368515
 20
174.3853245664
  0
VERTEX
  8
SURFACE
 62
7
  6
CONTINUOUS
 10
217.7206047992
 20
174.3682005351
  0
SEQEND
  0
LINE
  8
SURFACE
 62
7
  6
CONTINUOUS
 10
217.3040170435
 20
174.4591057773
 11
217.2999115489
 21
174.4609877905
  0
LINE
  8
SURFACE
 62
7
  6
CONTINUOUS
 10
90.5925866046
 20
228.0683959245
 11
90.5928912143
 21
228.0681994109
  0
POLYLINE
  8
SURFACE
 62
7
  6
CONTINUOUS
 66
1
 70
0
  0
VERTEX
  8
SURFACE
 62
7
  6
CONTINUOUS
 10
129.9950816968
 20
199.9680028972
  0
VERTEX
  8
SURFACE
 62
7
  6
CONTINUOUS
 10
130.0055521445
 20
199.9025171867
  0
VERTEX
  8
SURFACE
 62
7
  6
CONTINUOUS
 10
130.0156026713
 20
199.7220682077
  0
VERTEX
  8
SURFACE
 62
7
  6
CONTINUOUS
 10
130.0248524091
 20
199.4335009367
  0
VERTEX
  8
SURFACE
 62
7
  6
CONTINUOUS
 10
130.0329509382
 20
199.0477586948
  0
VERTEX
  8
SURFACE
 62
7
  6
CONTINUOUS
 10
130.0395915681
 20
198.5794645275
  0
VERTEX
  8
SURFACE
 62
7
  6
CONTINUOUS
 10
130.0445229203
 20
198.0463637011
  0
VERTEX
  8
SURFACE
 62
7
  6
CONTINUOUS
 10
130.0475583876
 20
197.4686496323
  0
VERTEX
  8
SURFACE
 62
7
  6
CONTINUOUS
 10
130.0485831323
 20
196.8681994109
  0
SEQEND
  0
POLYLINE
  8
SURFACE
 62
7
  6
CONTINUOUS
 66
1
 70
0
  0
VERTEX
  8
SURFACE
 62
7
  6
CONTINUOUS
 10
141.347181585
 20
230.0681994109
  0
VERTEX
  8
SURFACE
 62
7
  6
CONTINUOUS
 10
141.3515514948
 20
229.5562125207
  0
VERTEX
  8
SURFACE
 62
7
  6
CONTINUOUS
 10
141.3574836734
 20
229.0987026051
  0
VERTEX
  8
SURFACE
 62
7
  6
CONTINUOUS
 10
141.3647778173
 20
228.7111300621
  0
VERTEX
  8
SURFACE
 62
7
  6
CONTINUOUS
 10
141.3688602318
 20
228.5477702954
  0
VERTEX
  8
SURFACE
 62
7
  6
CONTINUOUS
 10
141.3777233095
 20
228.2888152267
  0
VERTEX
  8
SURFACE
 62
7
  6
CONTINUOUS
 10
141.3872646937
 20
228.1271966784
  0
VERTEX
  8
SURFACE
 62
7
  6
CONTINUOUS
 10
141.3971619037
 20
228.0683959245
  0
SEQEND
  0
LINE
  8
SURFACE
 62
7
  6
CONTINUOUS
 10
141.3974665134
 20
228.0681994136
 11
141.3974665134
 21
211.2678947281
  0
LINE
  8
SURFACE
 62
7
  6
CONTINUOUS
 10
155.4006289468
 20
211.2678947281
 11
155.4006289468
 21
228.0681994136
  0
POLYLINE
  8
SURFACE
 62
7
  6
CONTINUOUS
 66
1
 70
0
  0
VERTEX
  8
SURFACE
 62
7
  6
CONTINUOUS
 10
155.4509138751
 20
230.0681994109
  0
VERTEX
  8
SURFACE
 62
7
  6
CONTINUOUS
 10
155.4465439653
 20
229.5562125207
  0
VERTEX
  8
SURFACE
 62
7
  6
CONTINUOUS
 10
155.4406117867
 20
229.0987026051
  0
VERTEX
  8
SURFACE
 62
7
  6
CONTINUOUS
 10
155.4333176428
 20
228.7111300621
  0
VERTEX
  8
SURFACE
 62
7
  6
CONTINUOUS
 10
155.4292352283
 20
228.5477702954
  0
VERTEX
  8
SURFACE
 62
7
  6
CONTINUOUS
 10
155.4203721506
 20
228.2888152267
  0
VERTEX
  8
SURFACE
 62
7
  6
CONTINUOUS
 10
155.4108307664
 20
228.1271966784
  0
VERTEX
  8
SURFACE
 62
7
  6
CONTINUOUS
 10
155.4009335565
 20
228.0683959245
  0
SEQEND
  0
LINE
  8
SURFACE
 62
7
  6
CONTINUOUS
 10
206.1963582574
 20
228.0683959245
 11
206.1960536478
 21
228.0681994109
  0
LINE
  8
SURFACE
 62
7
  6
CONTINUOUS
 10
166.7961899527
 20
199.9681994109
 11
166.795885343
 21
199.9680028972
  0
LINE
  8
SURFACE
 62
7
  6
CONTINUOUS
 10
130.2849313231
 20
174.4591073833
 11
130.2890333132
 21
174.4609877905
  0
LINE
  8
SURFACE
 62
7
  6
CONTINUOUS
 10
185.9327236039
 20
233.1932901804
 11
188.3668440481
 21
233.622491289
  0
LINE
  8
SURFACE
 62
7
  6
CONTINUOUS
 10
159.226676113
 20
228.7139075327
 11
161.6607965572
 21
229.1431086413
  0
LINE
  8
SURFACE
 62
7
  6
CONTINUOUS
 10
135.1372989029
 20
233.1932901804
 11
137.5714193471
 21
233.622491289
  0
LINE
  8
SURFACE
 62
7
  6
CONTINUOUS
 10
108.422100814
 20
228.7139075327
 11
110.8562212582
 21
229.1431086413
  0
POLYLINE
  8
SURFACE
 62
7
  6
CONTINUOUS
 66
1
 70
0
  0
VERTEX
  8
SURFACE
 62
7
  6
CONTINUOUS
 10
142.443828029
 20
231.1681994109
  0
VERTEX
  8
SURFACE
 62
7
  6
CONTINUOUS
 10
142.1748614533
 20
231.134818991
  0
VERTEX
  8
SURFACE
 62
7
  6
CONTINUOUS
 10
141.9237341733
 20
231.0374954096
  0
VERTEX
  8
SURFACE
 62
7
  6
CONTINUOUS
 10
141.7048669886
 20
230.8829162934
  0
VERTEX
  8
SURFACE
 62
7
  6
CONTINUOUS
 10
141.6126086682
 20
230.7883431327
  0
VERTEX
  8
SURFACE
 62
7
  6
CONTINUOUS
 10
141.4660844638
 20
230.5705170465
  0
VERTEX
  8
SURFACE
 62
7
  6
CONTINUOUS
 10
141.3769285777
 20
230.3284934352
  0
VERTEX
  8
SURFACE
 62
7
  6
CONTINUOUS
 10
141.347181585
 20
230.0681994109
  0
SEQEND
  0
LINE
  8
SURFACE
 62
7
  6
CONTINUOUS
 10
310.8549985252
 20
228.0681994109
 11
310.7957489917
 21
228.0681994109
  0
LINE
  8
SURFACE
 62
7
  6
CONTINUOUS
 10
290.7931958704
 20
228.0681994109
 11
290.7339463369
 21
228.0681994109
  0
LINE
  8
SURFACE
 62
7
  6
CONTINUOUS
 10
209.2549985252
 20
228.0681994109
 11
209.1957489917
 21
228.0681994109
  0
LINE
  8
SURFACE
 62
7
  6
CONTINUOUS
 10
189.1931958704
 20
228.0681994109
 11
189.1339463369
 21
228.0681994109
  0
LINE
  8
SURFACE
 62
7
  6
CONTINUOUS
 10
107.6549985252
 20
228.0681994109
 11
107.5957489917
 21
228.0681994109
  0
LINE
  8
SURFACE
 62
7
  6
CONTINUOUS
 10
87.5931958704
 20
228.0681994109
 11
87.5339463369
 21
228.0681994109
  0
LINE
  8
0
 62
7
  6
CONTINUOUS
 10
36.7385216359
 20
228.0681994109
 11
36.7977711694
 21
228.0681994109
  0
LINE
  8
0
 62
7
  6
CONTINUOUS
 10
56.8003242907
 20
228.0681994109
 11
56.8595738242
 21
228.0681994109
  0
LINE
  8
SURFACE
 62
7
  6
CONTINUOUS
 10
138.3385216359
 20
228.0681994109
 11
138.3977711694
 21
228.0681994109
  0
LINE
  8
SURFACE
 62
7
  6
CONTINUOUS
 10
158.4003242907
 20
228.0681994109
 11
158.4595738242
 21
228.0681994109
  0
LINE
  8
SURFACE
 62
7
  6
CONTINUOUS
 10
239.9385216359
 20
228.0681994109
 11
239.9977711694
 21
228.0681994109
  0
LINE
  8
SURFACE
 62
7
  6
CONTINUOUS
 10
260.0003242907
 20
228.0681994109
 11
260.0595738242
 21
228.0681994109
  0
LINE
  8
SURFACE
 62
7
  6
CONTINUOUS
 10
255.9568236662
 20
231.1681994109
 11
244.0412717939
 21
231.1681994109
  0
LINE
  8
SURFACE
 62
7
  6
CONTINUOUS
 10
154.3568236662
 20
231.1681994109
 11
142.4412717939
 21
231.1681994109
  0
LINE
  8
0
 62
7
  6
CONTINUOUS
 10
52.7568236662
 20
231.1681994109
 11
40.8412717939
 21
231.1681994109
  0
LINE
  8
DEFAULT_1
 62
2
  6
CENTER
 10
40.8412717939
 20
231.1681994109
 11
17.3739624023
 21
231.1681994109
  0
LINE
  8
SURFACE
 62
7
  6
CONTINUOUS
 10
91.6366964949
 20
231.1681994109
 11
103.5522483672
 21
231.1681994109
  0
LINE
  8
SURFACE
 62
7
  6
CONTINUOUS
 10
193.2366964949
 20
231.1681994109
 11
205.1522483672
 21
231.1681994109
  0
LINE
  8
DEFAULT_1
 62
2
  6
CENTER
 10
52.7568236662
 20
231.1681994109
 11
326.3889624023
 21
231.1681994109
  0
LINE
  8
SURFACE
 62
7
  6
CONTINUOUS
 10
294.8366964949
 20
231.1681994109
 11
306.7522483672
 21
231.1681994109
  0
POLYLINE
  8
SURFACE
 62
7
  6
CONTINUOUS
 66
1
 70
0
  0
VERTEX
  8
SURFACE
 62
7
  6
CONTINUOUS
 10
103.5496921321
 20
231.1681994109
  0
VERTEX
  8
SURFACE
 62
7
  6
CONTINUOUS
 10
103.8186587079
 20
231.134818991
  0
VERTEX
  8
SURFACE
 62
7
  6
CONTINUOUS
 10
104.0697859878
 20
231.0374954096
  0
VERTEX
  8
SURFACE
 62
7
  6
CONTINUOUS
 10
104.2886531725
 20
230.8829162934
  0
VERTEX
  8
SURFACE
 62
7
  6
CONTINUOUS
 10
104.3809114929
 20
230.7883431327
  0
VERTEX
  8
SURFACE
 62
7
  6
CONTINUOUS
 10
104.5274356973
 20
230.5705170465
  0
VERTEX
  8
SURFACE
 62
7
  6
CONTINUOUS
 10
104.6165915834
 20
230.3284934352
  0
VERTEX
  8
SURFACE
 62
7
  6
CONTINUOUS
 10
104.6463385761
 20
230.0681994109
  0
SEQEND
  0
LINE
  8
0
 62
7
  6
CONTINUOUS
 10
60.0607965572
 20
233.1932901804
 11
57.626676113
 21
233.622491289
  0
LINE
  8
SURFACE
 62
7
  6
CONTINUOUS
 10
86.7668440481
 20
228.7139075327
 11
84.3327236039
 21
229.1431086413
  0
LINE
  8
SURFACE
 62
7
  6
CONTINUOUS
 10
110.8562212582
 20
233.1932901804
 11
108.422100814
 21
233.622491289
  0
LINE
  8
SURFACE
 62
7
  6
CONTINUOUS
 10
137.5714193471
 20
228.7139075327
 11
135.1372989029
 21
229.1431086413
  0
LINE
  8
SURFACE
 62
7
  6
CONTINUOUS
 10
180.7976348181
 20
199.9680028972
 11
180.7973302084
 21
199.9681994109
  0
LINE
  8
SURFACE
 62
7
  6
CONTINUOUS
 10
163.7990477301
 20
176.5373942117
 11
163.8004735252
 21
176.4840129664
  0
LINE
  8
SURFACE
 62
7
  6
CONTINUOUS
 10
158.4003242907
 20
234.9966852383
 11
158.3989424756
 21
235.0492373152
  0
LINE
  8
SURFACE
 62
7
  6
CONTINUOUS
 10
166.7431906847
 20
179.8348804365
 11
166.7455864084
 21
179.3175522358
  0
LINE
  8
SURFACE
 62
7
  6
CONTINUOUS
 10
158.4003242907
 20
209.8966265356
 11
158.4003242907
 21
234.9966852383
  0
LINE
  8
SURFACE
 62
7
  6
CONTINUOUS
 10
162.9003242907
 20
230.6203202708
 11
162.9003242907
 21
231.7160785509
  0
LINE
  8
SURFACE
 62
7
  6
CONTINUOUS
 10
163.7990477301
 20
176.5373942117
 11
163.7990477301
 21
201.6397722861
  0
LINE
  8
SURFACE
 62
7
  6
CONTINUOUS
 10
166.7423839075
 20
196.8681994109
 11
166.7431906847
 21
179.8348804365
  0
LINE
  8
SURFACE
 62
7
  6
CONTINUOUS
 10
166.7961899527
 20
200.2685040936
 11
166.7961899527
 21
199.9681994081
  0
POLYLINE
  8
SURFACE
 62
7
  6
CONTINUOUS
 66
1
 70
0
  0
VERTEX
  8
SURFACE
 62
7
  6
CONTINUOUS
 10
166.795885343
 20
199.9680028972
  0
VERTEX
  8
SURFACE
 62
7
  6
CONTINUOUS
 10
166.7854148954
 20
199.9025171867
  0
VERTEX
  8
SURFACE
 62
7
  6
CONTINUOUS
 10
166.7753643685
 20
199.7220682077
  0
VERTEX
  8
SURFACE
 62
7
  6
CONTINUOUS
 10
166.7661146308
 20
199.4335009367
  0
VERTEX
  8
SURFACE
 62
7
  6
CONTINUOUS
 10
166.7580161016
 20
199.0477586948
  0
VERTEX
  8
SURFACE
 62
7
  6
CONTINUOUS
 10
166.7513754717
 20
198.5794645275
  0
VERTEX
  8
SURFACE
 62
7
  6
CONTINUOUS
 10
166.7464441196
 20
198.0463637011
  0
VERTEX
  8
SURFACE
 62
7
  6
CONTINUOUS
 10
166.7434086523
 20
197.4686496323
  0
VERTEX
  8
SURFACE
 62
7
  6
CONTINUOUS
 10
166.7423839075
 20
196.8681994109
  0
SEQEND
  0
LINE
  8
SURFACE
 62
7
  6
CONTINUOUS
 10
84.3327236039
 20
233.1932901804
 11
86.7668440481
 21
233.622491289
  0
LINE
  8
0
 62
7
  6
CONTINUOUS
 10
57.626676113
 20
228.7139075327
 11
60.0607965572
 21
229.1431086413
  0
POLYLINE
  8
0
 62
7
  6
CONTINUOUS
 66
1
 70
0
  0
VERTEX
  8
0
 62
7
  6
CONTINUOUS
 10
40.843828029
 20
231.1681994109
  0
VERTEX
  8
0
 62
7
  6
CONTINUOUS
 10
40.5748614533
 20
231.134818991
  0
VERTEX
  8
0
 62
7
  6
CONTINUOUS
 10
40.3237341733
 20
231.0374954096
  0
VERTEX
  8
0
 62
7
  6
CONTINUOUS
 10
40.1048669886
 20
230.8829162934
  0
VERTEX
  8
0
 62
7
  6
CONTINUOUS
 10
40.0126086682
 20
230.7883431327
  0
VERTEX
  8
0
 62
7
  6
CONTINUOUS
 10
39.8660844638
 20
230.5705170465
  0
VERTEX
  8
0
 62
7
  6
CONTINUOUS
 10
39.7769285777
 20
230.3284934352
  0
VERTEX
  8
0
 62
7
  6
CONTINUOUS
 10
39.747181585
 20
230.0681994109
  0
SEQEND
  0
LINE
  8
SURFACE
 62
7
  6
CONTINUOUS
 10
310.8549985252
 20
234.2681994109
 11
310.7957489917
 21
234.2681994109
  0
LINE
  8
SURFACE
 62
7
  6
CONTINUOUS
 10
290.7931958704
 20
234.2681994109
 11
290.7339463369
 21
234.2681994109
  0
LINE
  8
SURFACE
 62
7
  6
CONTINUOUS
 10
209.2549985252
 20
234.2681994109
 11
209.1957489917
 21
234.2681994109
  0
LINE
  8
SURFACE
 62
7
  6
CONTINUOUS
 10
189.1931958704
 20
234.2681994109
 11
189.1339463369
 21
234.2681994109
  0
LINE
  8
SURFACE
 62
7
  6
CONTINUOUS
 10
107.6549985252
 20
234.2681994109
 11
107.5957489917
 21
234.2681994109
  0
LINE
  8
SURFACE
 62
7
  6
CONTINUOUS
 10
87.5931958704
 20
234.2681994109
 11
87.5339463369
 21
234.2681994109
  0
LINE
  8
0
 62
7
  6
CONTINUOUS
 10
36.7385216359
 20
234.2681994109
 11
36.7977711694
 21
234.2681994109
  0
LINE
  8
0
 62
7
  6
CONTINUOUS
 10
56.8003242907
 20
234.2681994109
 11
56.8595738242
 21
234.2681994109
  0
LINE
  8
SURFACE
 62
7
  6
CONTINUOUS
 10
138.3385216359
 20
234.2681994109
 11
138.3977711694
 21
234.2681994109
  0
LINE
  8
SURFACE
 62
7
  6
CONTINUOUS
 10
158.4003242907
 20
234.2681994109
 11
158.4595738242
 21
234.2681994109
  0
LINE
  8
SURFACE
 62
7
  6
CONTINUOUS
 10
239.9385216359
 20
234.2681994109
 11
239.9977711694
 21
234.2681994109
  0
LINE
  8
SURFACE
 62
7
  6
CONTINUOUS
 10
260.0003242907
 20
234.2681994109
 11
260.0595738242
 21
234.2681994109
  0
LINE
  8
SURFACE
 62
7
  6
CONTINUOUS
 10
307.6683359735
 20
237.1681994109
 11
293.9206088886
 21
237.1681994109
  0
LINE
  8
SURFACE
 62
7
  6
CONTINUOUS
 10
206.0683359735
 20
237.1681994109
 11
192.3206088886
 21
237.1681994109
  0
LINE
  8
SURFACE
 62
7
  6
CONTINUOUS
 10
104.4683359735
 20
237.1681994109
 11
90.7206088886
 21
237.1681994109
  0
LINE
  8
0
 62
7
  6
CONTINUOUS
 10
39.9251841876
 20
237.1681994109
 11
53.6729112725
 21
237.1681994109
  0
LINE
  8
SURFACE
 62
7
  6
CONTINUOUS
 10
141.5251841876
 20
237.1681994109
 11
155.2729112725
 21
237.1681994109
  0
LINE
  8
SURFACE
 62
7
  6
CONTINUOUS
 10
243.1251841876
 20
237.1681994109
 11
256.8729112725
 21
237.1681994109
  0
POLYLINE
  8
SURFACE
 62
7
  6
CONTINUOUS
 66
1
 70
0
  0
VERTEX
  8
SURFACE
 62
7
  6
CONTINUOUS
 10
205.1496921321
 20
231.1681994109
  0
VERTEX
  8
SURFACE
 62
7
  6
CONTINUOUS
 10
205.4186587079
 20
231.134818991
  0
VERTEX
  8
SURFACE
 62
7
  6
CONTINUOUS
 10
205.6697859878
 20
231.0374954096
  0
VERTEX
  8
SURFACE
 62
7
  6
CONTINUOUS
 10
205.8886531725
 20
230.8829162934
  0
VERTEX
  8
SURFACE
 62
7
  6
CONTINUOUS
 10
205.9809114929
 20
230.7883431327
  0
VERTEX
  8
SURFACE
 62
7
  6
CONTINUOUS
 10
206.1274356973
 20
230.5705170465
  0
VERTEX
  8
SURFACE
 62
7
  6
CONTINUOUS
 10
206.2165915834
 20
230.3284934352
  0
VERTEX
  8
SURFACE
 62
7
  6
CONTINUOUS
 10
206.2463385761
 20
230.0681994109
  0
SEQEND
  0
LINE
  8
SURFACE
 62
7
  6
CONTINUOUS
 10
161.6607965572
 20
233.1932901804
 11
159.226676113
 21
233.622491289
  0
LINE
  8
SURFACE
 62
7
  6
CONTINUOUS
 10
188.3668440481
 20
228.7139075327
 11
185.9327236039
 21
229.1431086413
  0
POLYLINE
  8
SURFACE
 62
7
  6
CONTINUOUS
 66
1
 70
0
  0
VERTEX
  8
SURFACE
 62
7
  6
CONTINUOUS
 10
318.9040278774
 20
174.4591005484
  0
VERTEX
  8
SURFACE
 62
7
  6
CONTINUOUS
 10
319.1363368515
 20
174.3853245664
  0
VERTEX
  8
SURFACE
 62
7
  6
CONTINUOUS
 10
319.3206047992
 20
174.3682005351
  0
SEQEND
  0
LINE
  8
SURFACE
 62
7
  6
CONTINUOUS
 10
318.9040098926
 20
174.4591089021
 11
319.0075316773
 21
174.4262301244
  0
LINE
  8
SURFACE
 62
7
  6
CONTINUOUS
 10
141.3971619037
 20
228.0683959245
 11
141.3974665134
 21
228.0681994109
  0
POLYLINE
  8
SURFACE
 62
7
  6
CONTINUOUS
 66
1
 70
0
  0
VERTEX
  8
SURFACE
 62
7
  6
CONTINUOUS
 10
155.4509138751
 20
230.0681994109
  0
VERTEX
  8
SURFACE
 62
7
  6
CONTINUOUS
 10
155.4211668824
 20
230.3284934352
  0
VERTEX
  8
SURFACE
 62
7
  6
CONTINUOUS
 10
155.3320109963
 20
230.5705170465
  0
VERTEX
  8
SURFACE
 62
7
  6
CONTINUOUS
 10
155.1854867919
 20
230.7883431326
  0
VERTEX
  8
SURFACE
 62
7
  6
CONTINUOUS
 10
155.0932284715
 20
230.8829162934
  0
VERTEX
  8
SURFACE
 62
7
  6
CONTINUOUS
 10
154.8743612869
 20
231.0374954096
  0
VERTEX
  8
SURFACE
 62
7
  6
CONTINUOUS
 10
154.6232340069
 20
231.134818991
  0
VERTEX
  8
SURFACE
 62
7
  6
CONTINUOUS
 10
154.3542674311
 20
231.1681994109
  0
SEQEND
  0
LINE
  8
SURFACE
 62
7
  6
CONTINUOUS
 10
180.7973302084
 20
199.9681994081
 11
180.7973302084
 21
200.2685040936
  0
LINE
  8
SURFACE
 62
7
  6
CONTINUOUS
 10
183.794472431
 20
176.5373942117
 11
183.794472431
 21
201.6397722861
  0
LINE
  8
SURFACE
 62
7
  6
CONTINUOUS
 10
184.6931958704
 20
230.6203202708
 11
184.6931958704
 21
231.7160785509
  0
POLYLINE
  8
SURFACE
 62
7
  6
CONTINUOUS
 66
1
 70
0
  0
VERTEX
  8
SURFACE
 62
7
  6
CONTINUOUS
 10
180.8511362536
 20
196.8681994109
  0
VERTEX
  8
SURFACE
 62
7
  6
CONTINUOUS
 10
180.8503294764
 20
179.8348804365
  0
VERTEX
  8
SURFACE
 62
7
  6
CONTINUOUS
 10
180.8479337527
 20
179.3175522358
  0
SEQEND
  0
LINE
  8
SURFACE
 62
7
  6
CONTINUOUS
 10
183.794472431
 20
176.5373942117
 11
183.7930466359
 21
176.4840129664
  0
LINE
  8
SURFACE
 62
7
  6
CONTINUOUS
 10
257.0009335565
 20
228.0683959245
 11
257.0006289468
 21
228.0681994109
  0
LINE
  8
SURFACE
 62
7
  6
CONTINUOUS
 10
217.594167775
 20
199.9681994109
 11
217.5938631653
 21
199.9680028972
  0
LINE
  8
SURFACE
 62
7
  6
CONTINUOUS
 10
231.6526229504
 20
174.385327906
 11
231.8849287441
 21
174.4591059946
  0
LINE
  8
0
 62
7
  6
CONTINUOUS
 10
33.5372989029
 20
233.1932901804
 11
35.9714193471
 21
233.622491289
  0
POLYLINE
  8
SURFACE
 62
7
  6
CONTINUOUS
 66
1
 70
0
  0
VERTEX
  8
SURFACE
 62
7
  6
CONTINUOUS
 10
306.7496921321
 20
231.1681994109
  0
VERTEX
  8
SURFACE
 62
7
  6
CONTINUOUS
 10
307.0186587079
 20
231.134818991
  0
VERTEX
  8
SURFACE
 62
7
  6
CONTINUOUS
 10
307.2697859878
 20
231.0374954096
  0
VERTEX
  8
SURFACE
 62
7
  6
CONTINUOUS
 10
307.4886531725
 20
230.8829162934
  0
VERTEX
  8
SURFACE
 62
7
  6
CONTINUOUS
 10
307.5809114929
 20
230.7883431327
  0
VERTEX
  8
SURFACE
 62
7
  6
CONTINUOUS
 10
307.7274356973
 20
230.5705170465
  0
VERTEX
  8
SURFACE
 62
7
  6
CONTINUOUS
 10
307.8165915834
 20
230.3284934352
  0
VERTEX
  8
SURFACE
 62
7
  6
CONTINUOUS
 10
307.8463385761
 20
230.0681994109
  0
SEQEND
  0
LINE
  8
SURFACE
 62
7
  6
CONTINUOUS
 10
212.4562212582
 20
233.1932901804
 11
210.022100814
 21
233.622491289
  0
LINE
  8
SURFACE
 62
7
  6
CONTINUOUS
 10
239.1714193471
 20
228.7139075327
 11
236.7372989029
 21
229.1431086413
  0
LINE
  8
SURFACE
 62
7
  6
CONTINUOUS
 10
263.2607965572
 20
233.1932901804
 11
260.826676113
 21
233.622491289
  0
LINE
  8
SURFACE
 62
7
  6
CONTINUOUS
 10
289.9668440481
 20
228.7139075327
 11
287.5327236039
 21
229.1431086413
  0
LINE
  8
SURFACE
 62
7
  6
CONTINUOUS
 10
318.8999115489
 20
174.4609877905
 11
318.9040746985
 21
174.4590793566
  0
LINE
  8
SURFACE
 62
7
  6
CONTINUOUS
 10
231.5950816968
 20
199.9680028972
 11
231.5947770871
 21
199.9681994109
  0
LINE
  8
SURFACE
 62
7
  6
CONTINUOUS
 10
192.1928912143
 20
228.0681994109
 11
192.1925866046
 21
228.0683959245
  0
POLYLINE
  8
SURFACE
 62
7
  6
CONTINUOUS
 66
1
 70
0
  0
VERTEX
  8
SURFACE
 62
7
  6
CONTINUOUS
 10
180.7976348181
 20
199.9680028972
  0
VERTEX
  8
SURFACE
 62
7
  6
CONTINUOUS
 10
180.8081052658
 20
199.9025171867
  0
VERTEX
  8
SURFACE
 62
7
  6
CONTINUOUS
 10
180.8181557926
 20
199.7220682077
  0
VERTEX
  8
SURFACE
 62
7
  6
CONTINUOUS
 10
180.8274055303
 20
199.4335009367
  0
VERTEX
  8
SURFACE
 62
7
  6
CONTINUOUS
 10
180.8355040595
 20
199.0477586948
  0
VERTEX
  8
SURFACE
 62
7
  6
CONTINUOUS
 10
180.8421446894
 20
198.5794645275
  0
VERTEX
  8
SURFACE
 62
7
  6
CONTINUOUS
 10
180.8470760415
 20
198.0463637011
  0
VERTEX
  8
SURFACE
 62
7
  6
CONTINUOUS
 10
180.8501115088
 20
197.4686496323
  0
VERTEX
  8
SURFACE
 62
7
  6
CONTINUOUS
 10
180.8511362536
 20
196.8681994109
  0
SEQEND
  0
POLYLINE
  8
SURFACE
 62
7
  6
CONTINUOUS
 66
1
 70
0
  0
VERTEX
  8
SURFACE
 62
7
  6
CONTINUOUS
 10
192.142606286
 20
230.0681994109
  0
VERTEX
  8
SURFACE
 62
7
  6
CONTINUOUS
 10
192.1469761958
 20
229.5562125207
  0
VERTEX
  8
SURFACE
 62
7
  6
CONTINUOUS
 10
192.1529083744
 20
229.0987026051
  0
VERTEX
  8
SURFACE
 62
7
  6
CONTINUOUS
 10
192.1602025183
 20
228.7111300621
  0
VERTEX
  8
SURFACE
 62
7
  6
CONTINUOUS
 10
192.1642849328
 20
228.5477702954
  0
VERTEX
  8
SURFACE
 62
7
  6
CONTINUOUS
 10
192.1731480105
 20
228.2888152267
  0
VERTEX
  8
SURFACE
 62
7
  6
CONTINUOUS
 10
192.1826893947
 20
228.1271966784
  0
VERTEX
  8
SURFACE
 62
7
  6
CONTINUOUS
 10
192.1925866046
 20
228.0683959245
  0
SEQEND
  0
LINE
  8
SURFACE
 62
7
  6
CONTINUOUS
 10
189.1931958704
 20
209.8966265356
 11
189.1931958704
 21
234.9966852383
  0
LINE
  8
SURFACE
 62
7
  6
CONTINUOUS
 10
192.1928912143
 20
228.0681994136
 11
192.1928912143
 21
211.2678947281
  0
LINE
  8
SURFACE
 62
7
  6
CONTINUOUS
 10
189.1931958704
 20
234.9966852383
 11
189.1945776855
 21
235.0492373152
  0
POLYLINE
  8
SURFACE
 62
7
  6
CONTINUOUS
 66
1
 70
0
  0
VERTEX
  8
SURFACE
 62
7
  6
CONTINUOUS
 10
192.142606286
 20
230.0681994109
  0
VERTEX
  8
SURFACE
 62
7
  6
CONTINUOUS
 10
192.1723532787
 20
230.3284934352
  0
VERTEX
  8
SURFACE
 62
7
  6
CONTINUOUS
 10
192.2615091648
 20
230.5705170465
  0
VERTEX
  8
SURFACE
 62
7
  6
CONTINUOUS
 10
192.4080333692
 20
230.7883431326
  0
VERTEX
  8
SURFACE
 62
7
  6
CONTINUOUS
 10
192.5002916896
 20
230.8829162934
  0
VERTEX
  8
SURFACE
 62
7
  6
CONTINUOUS
 10
192.7191588743
 20
231.0374954096
  0
VERTEX
  8
SURFACE
 62
7
  6
CONTINUOUS
 10
192.9702861542
 20
231.134818991
  0
VERTEX
  8
SURFACE
 62
7
  6
CONTINUOUS
 10
193.23925273
 20
231.1681994109
  0
SEQEND
  0
LINE
  8
SURFACE
 62
7
  6
CONTINUOUS
 10
231.8849313231
 20
174.4591073833
 11
231.8890333132
 21
174.4609877905
  0
LINE
  8
SURFACE
 62
7
  6
CONTINUOUS
 10
314.0562212582
 20
233.1932901804
 11
311.622100814
 21
233.622491289
  0
LINE
  8
SURFACE
 62
7
  6
CONTINUOUS
 10
214.5958688428
 20
176.4860540063
 11
214.594472431
 21
176.5388827249
  0
LINE
  8
SURFACE
 62
7
  6
CONTINUOUS
 10
209.1943669706
 20
235.0492412295
 11
209.1957489917
 21
234.9966852383
  0
LINE
  8
SURFACE
 62
7
  6
CONTINUOUS
 10
206.1960536478
 20
211.2678947281
 11
206.1960536478
 21
228.0681994136
  0
LINE
  8
SURFACE
 62
7
  6
CONTINUOUS
 10
209.1957489917
 20
209.8966265356
 11
209.1957489917
 21
234.9966852383
  0
LINE
  8
SURFACE
 62
7
  6
CONTINUOUS
 10
213.6957489917
 20
230.6203202708
 11
213.6957489917
 21
231.7160785509
  0
POLYLINE
  8
SURFACE
 62
7
  6
CONTINUOUS
 66
1
 70
0
  0
VERTEX
  8
SURFACE
 62
7
  6
CONTINUOUS
 10
206.2463385761
 20
230.0681994109
  0
VERTEX
  8
SURFACE
 62
7
  6
CONTINUOUS
 10
206.2419686663
 20
229.5562125207
  0
VERTEX
  8
SURFACE
 62
7
  6
CONTINUOUS
 10
206.2360364877
 20
229.0987026051
  0
VERTEX
  8
SURFACE
 62
7
  6
CONTINUOUS
 10
206.2287423438
 20
228.7111300621
  0
VERTEX
  8
SURFACE
 62
7
  6
CONTINUOUS
 10
206.2246599293
 20
228.5477702954
  0
VERTEX
  8
SURFACE
 62
7
  6
CONTINUOUS
 10
206.2157968516
 20
228.2888152267
  0
VERTEX
  8
SURFACE
 62
7
  6
CONTINUOUS
 10
206.2062554674
 20
228.1271966784
  0
VERTEX
  8
SURFACE
 62
7
  6
CONTINUOUS
 10
206.1963582574
 20
228.0683959245
  0
SEQEND
  0
LINE
  8
SURFACE
 62
7
  6
CONTINUOUS
 10
307.7963582574
 20
228.0683959245
 11
307.7960536478
 21
228.0681994109
  0
LINE
  8
SURFACE
 62
7
  6
CONTINUOUS
 10
268.3961899527
 20
199.9681994109
 11
268.395885343
 21
199.9680028972
  0
LINE
  8
SURFACE
 62
7
  6
CONTINUOUS
 10
333.2526229504
 20
174.385327906
 11
333.4849287441
 21
174.4591059946
  0
LINE
  8
SURFACE
 62
7
  6
CONTINUOUS
 10
282.3976348181
 20
199.9680028972
 11
282.3973302084
 21
199.9681994109
  0
LINE
  8
SURFACE
 62
7
  6
CONTINUOUS
 10
242.9974665134
 20
228.0681994109
 11
242.9971619037
 21
228.0683959245
  0
POLYLINE
  8
SURFACE
 62
7
  6
CONTINUOUS
 66
1
 70
0
  0
VERTEX
  8
SURFACE
 62
7
  6
CONTINUOUS
 10
217.5435642307
 20
179.3175522358
  0
VERTEX
  8
SURFACE
 62
7
  6
CONTINUOUS
 10
217.5828274637
 20
178.9406428952
  0
VERTEX
  8
SURFACE
 62
7
  6
CONTINUOUS
 10
217.7017720462
 20
178.5614570404
  0
VERTEX
  8
SURFACE
 62
7
  6
CONTINUOUS
 10
217.9088929222
 20
178.1952307795
  0
VERTEX
  8
SURFACE
 62
7
  6
CONTINUOUS
 10
218.2047938018
 20
177.8679681366
  0
VERTEX
  8
SURFACE
 62
7
  6
CONTINUOUS
 10
218.4994075363
 20
177.6521436933
  0
VERTEX
  8
SURFACE
 62
7
  6
CONTINUOUS
 10
218.7548510329
 20
177.5221806923
  0
VERTEX
  8
SURFACE
 62
7
  6
CONTINUOUS
 10
218.9903156981
 20
177.4388722275
  0
VERTEX
  8
SURFACE
 62
7
  6
CONTINUOUS
 10
219.2085653928
 20
177.3884850055
  0
VERTEX
  8
SURFACE
 62
7
  6
CONTINUOUS
 10
219.4049331731
 20
177.3632230882
  0
VERTEX
  8
SURFACE
 62
7
  6
CONTINUOUS
 10
219.581382284
 20
177.3559795086
  0
SEQEND
  0
LINE
  8
SURFACE
 62
7
  6
CONTINUOUS
 10
217.5411685069
 20
179.8348804365
 11
217.5435642307
 21
179.3175522358
  0
LINE
  8
SURFACE
 62
7
  6
CONTINUOUS
 10
214.594472431
 20
201.6397722861
 11
214.594472431
 21
176.5388827249
  0
LINE
  8
SURFACE
 62
7
  6
CONTINUOUS
 10
217.5403617298
 20
196.8681994109
 11
217.5411685069
 21
179.8348804365
  0
LINE
  8
SURFACE
 62
7
  6
CONTINUOUS
 10
217.594167775
 20
200.2685040936
 11
217.594167775
 21
199.9681994081
  0
POLYLINE
  8
SURFACE
 62
7
  6
CONTINUOUS
 66
1
 70
0
  0
VERTEX
  8
SURFACE
 62
7
  6
CONTINUOUS
 10
217.5938631653
 20
199.9680028972
  0
VERTEX
  8
SURFACE
 62
7
  6
CONTINUOUS
 10
217.5833927176
 20
199.9025171867
  0
VERTEX
  8
SURFACE
 62
7
  6
CONTINUOUS
 10
217.5733421908
 20
199.7220682077
  0
VERTEX
  8
SURFACE
 62
7
  6
CONTINUOUS
 10
217.564092453
 20
199.4335009367
  0
VERTEX
  8
SURFACE
 62
7
  6
CONTINUOUS
 10
217.5559939239
 20
199.0477586948
  0
VERTEX
  8
SURFACE
 62
7
  6
CONTINUOUS
 10
217.5493532939
 20
198.5794645275
  0
VERTEX
  8
SURFACE
 62
7
  6
CONTINUOUS
 10
217.5444219418
 20
198.0463637011
  0
VERTEX
  8
SURFACE
 62
7
  6
CONTINUOUS
 10
217.5413864745
 20
197.4686496323
  0
VERTEX
  8
SURFACE
 62
7
  6
CONTINUOUS
 10
217.5403617298
 20
196.8681994109
  0
SEQEND
  0
POLYLINE
  8
SURFACE
 62
7
  6
CONTINUOUS
 66
1
 70
0
  0
VERTEX
  8
SURFACE
 62
7
  6
CONTINUOUS
 10
242.947181585
 20
230.0681994109
  0
VERTEX
  8
SURFACE
 62
7
  6
CONTINUOUS
 10
242.9515514948
 20
229.5562125207
  0
VERTEX
  8
SURFACE
 62
7
  6
CONTINUOUS
 10
242.9574836734
 20
229.0987026051
  0
VERTEX
  8
SURFACE
 62
7
  6
CONTINUOUS
 10
242.9647778173
 20
228.7111300621
  0
VERTEX
  8
SURFACE
 62
7
  6
CONTINUOUS
 10
242.9688602318
 20
228.5477702954
  0
VERTEX
  8
SURFACE
 62
7
  6
CONTINUOUS
 10
242.9777233095
 20
228.2888152267
  0
VERTEX
  8
SURFACE
 62
7
  6
CONTINUOUS
 10
242.9872646937
 20
228.1271966784
  0
VERTEX
  8
SURFACE
 62
7
  6
CONTINUOUS
 10
242.9971619037
 20
228.0683959245
  0
SEQEND
  0
LINE
  8
SURFACE
 62
7
  6
CONTINUOUS
 10
231.5947770871
 20
199.9681994081
 11
231.5947770871
 21
200.2685040936
  0
LINE
  8
SURFACE
 62
7
  6
CONTINUOUS
 10
234.594472431
 20
201.6397722861
 11
234.594472431
 21
176.5388827249
  0
LINE
  8
SURFACE
 62
7
  6
CONTINUOUS
 10
235.4977711694
 20
230.6203202708
 11
235.4977711694
 21
231.7160785509
  0
LINE
  8
SURFACE
 62
7
  6
CONTINUOUS
 10
239.9977711694
 20
209.8966265356
 11
239.9977711694
 21
234.9966852383
  0
LINE
  8
SURFACE
 62
7
  6
CONTINUOUS
 10
242.9974665134
 20
228.0681994136
 11
242.9974665134
 21
211.2678947281
  0
POLYLINE
  8
SURFACE
 62
7
  6
CONTINUOUS
 66
1
 70
0
  0
VERTEX
  8
SURFACE
 62
7
  6
CONTINUOUS
 10
231.6485831323
 20
196.8681994109
  0
VERTEX
  8
SURFACE
 62
7
  6
CONTINUOUS
 10
231.6477763552
 20
179.8348804365
  0
VERTEX
  8
SURFACE
 62
7
  6
CONTINUOUS
 10
231.6453806314
 20
179.3175522358
  0
SEQEND
  0
LINE
  8
SURFACE
 62
7
  6
CONTINUOUS
 10
239.9991531905
 20
235.0492412295
 11
239.9977711694
 21
234.9966852383
  0
LINE
  8
SURFACE
 62
7
  6
CONTINUOUS
 10
234.594472431
 20
176.5388827249
 11
234.5930760656
 21
176.4860548814
  0
LINE
  8
SURFACE
 62
7
  6
CONTINUOUS
 10
319.194167775
 20
199.9681994109
 11
319.1938631653
 21
199.9680028972
  0
LINE
  8
SURFACE
 62
7
  6
CONTINUOUS
 10
333.4849313231
 20
174.4591073833
 11
333.4890333132
 21
174.4609877905
  0
LINE
  8
SURFACE
 62
7
  6
CONTINUOUS
 10
333.1950816968
 20
199.9680028972
 11
333.1947770871
 21
199.9681994109
  0
LINE
  8
SURFACE
 62
7
  6
CONTINUOUS
 10
293.7928912143
 20
228.0681994109
 11
293.7925866046
 21
228.0683959245
  0
POLYLINE
  8
SURFACE
 62
7
  6
CONTINUOUS
 66
1
 70
0
  0
VERTEX
  8
SURFACE
 62
7
  6
CONTINUOUS
 10
231.5950816968
 20
199.9680028972
  0
VERTEX
  8
SURFACE
 62
7
  6
CONTINUOUS
 10
231.6055521445
 20
199.9025171867
  0
VERTEX
  8
SURFACE
 62
7
  6
CONTINUOUS
 10
231.6156026713
 20
199.7220682077
  0
VERTEX
  8
SURFACE
 62
7
  6
CONTINUOUS
 10
231.6248524091
 20
199.4335009367
  0
VERTEX
  8
SURFACE
 62
7
  6
CONTINUOUS
 10
231.6329509382
 20
199.0477586948
  0
VERTEX
  8
SURFACE
 62
7
  6
CONTINUOUS
 10
231.6395915681
 20
198.5794645275
  0
VERTEX
  8
SURFACE
 62
7
  6
CONTINUOUS
 10
231.6445229203
 20
198.0463637011
  0
VERTEX
  8
SURFACE
 62
7
  6
CONTINUOUS
 10
231.6475583876
 20
197.4686496323
  0
VERTEX
  8
SURFACE
 62
7
  6
CONTINUOUS
 10
231.6485831323
 20
196.8681994109
  0
SEQEND
  0
LINE
  8
SURFACE
 62
7
  6
CONTINUOUS
 10
257.0006289468
 20
211.2678947281
 11
257.0006289468
 21
228.0681994136
  0
POLYLINE
  8
SURFACE
 62
7
  6
CONTINUOUS
 66
1
 70
0
  0
VERTEX
  8
SURFACE
 62
7
  6
CONTINUOUS
 10
257.0509138751
 20
230.0681994109
  0
VERTEX
  8
SURFACE
 62
7
  6
CONTINUOUS
 10
257.0465439653
 20
229.5562125207
  0
VERTEX
  8
SURFACE
 62
7
  6
CONTINUOUS
 10
257.0406117867
 20
229.0987026051
  0
VERTEX
  8
SURFACE
 62
7
  6
CONTINUOUS
 10
257.0333176428
 20
228.7111300621
  0
VERTEX
  8
SURFACE
 62
7
  6
CONTINUOUS
 10
257.0292352283
 20
228.5477702954
  0
VERTEX
  8
SURFACE
 62
7
  6
CONTINUOUS
 10
257.0203721506
 20
228.2888152267
  0
VERTEX
  8
SURFACE
 62
7
  6
CONTINUOUS
 10
257.0108307664
 20
228.1271966784
  0
VERTEX
  8
SURFACE
 62
7
  6
CONTINUOUS
 10
257.0009335565
 20
228.0683959245
  0
SEQEND
  0
LINE
  8
SURFACE
 62
7
  6
CONTINUOUS
 10
265.3990477301
 20
176.5373942117
 11
265.4004735252
 21
176.4840129664
  0
LINE
  8
SURFACE
 62
7
  6
CONTINUOUS
 10
260.0003242907
 20
234.9966852383
 11
259.9989424756
 21
235.0492373152
  0
LINE
  8
SURFACE
 62
7
  6
CONTINUOUS
 10
268.3431906847
 20
179.8348804365
 11
268.3455864084
 21
179.3175522358
  0
LINE
  8
SURFACE
 62
7
  6
CONTINUOUS
 10
260.0003242907
 20
209.8966265356
 11
260.0003242907
 21
234.9966852383
  0
LINE
  8
SURFACE
 62
7
  6
CONTINUOUS
 10
264.5003242907
 20
230.6203202708
 11
264.5003242907
 21
231.7160785509
  0
LINE
  8
SURFACE
 62
7
  6
CONTINUOUS
 10
265.3990477301
 20
176.5373942117
 11
265.3990477301
 21
201.6397722861
  0
LINE
  8
SURFACE
 62
7
  6
CONTINUOUS
 10
268.3423839075
 20
196.8681994109
 11
268.3431906847
 21
179.8348804365
  0
LINE
  8
SURFACE
 62
7
  6
CONTINUOUS
 10
268.3961899527
 20
200.2685040936
 11
268.3961899527
 21
199.9681994081
  0
POLYLINE
  8
SURFACE
 62
7
  6
CONTINUOUS
 66
1
 70
0
  0
VERTEX
  8
SURFACE
 62
7
  6
CONTINUOUS
 10
268.395885343
 20
199.9680028972
  0
VERTEX
  8
SURFACE
 62
7
  6
CONTINUOUS
 10
268.3854148954
 20
199.9025171867
  0
VERTEX
  8
SURFACE
 62
7
  6
CONTINUOUS
 10
268.3753643685
 20
199.7220682077
  0
VERTEX
  8
SURFACE
 62
7
  6
CONTINUOUS
 10
268.3661146308
 20
199.4335009367
  0
VERTEX
  8
SURFACE
 62
7
  6
CONTINUOUS
 10
268.3580161016
 20
199.0477586948
  0
VERTEX
  8
SURFACE
 62
7
  6
CONTINUOUS
 10
268.3513754717
 20
198.5794645275
  0
VERTEX
  8
SURFACE
 62
7
  6
CONTINUOUS
 10
268.3464441196
 20
198.0463637011
  0
VERTEX
  8
SURFACE
 62
7
  6
CONTINUOUS
 10
268.3434086523
 20
197.4686496323
  0
VERTEX
  8
SURFACE
 62
7
  6
CONTINUOUS
 10
268.3423839075
 20
196.8681994109
  0
SEQEND
  0
POLYLINE
  8
SURFACE
 62
7
  6
CONTINUOUS
 66
1
 70
0
  0
VERTEX
  8
SURFACE
 62
7
  6
CONTINUOUS
 10
257.0509138751
 20
230.0681994109
  0
VERTEX
  8
SURFACE
 62
7
  6
CONTINUOUS
 10
257.0211668824
 20
230.3284934352
  0
VERTEX
  8
SURFACE
 62
7
  6
CONTINUOUS
 10
256.9320109963
 20
230.5705170465
  0
VERTEX
  8
SURFACE
 62
7
  6
CONTINUOUS
 10
256.7854867919
 20
230.7883431326
  0
VERTEX
  8
SURFACE
 62
7
  6
CONTINUOUS
 10
256.6932284715
 20
230.8829162934
  0
VERTEX
  8
SURFACE
 62
7
  6
CONTINUOUS
 10
256.4743612869
 20
231.0374954096
  0
VERTEX
  8
SURFACE
 62
7
  6
CONTINUOUS
 10
256.2232340069
 20
231.134818991
  0
VERTEX
  8
SURFACE
 62
7
  6
CONTINUOUS
 10
255.9542674311
 20
231.1681994109
  0
SEQEND
  0
LINE
  8
SURFACE
 62
7
  6
CONTINUOUS
 10
282.3973302084
 20
199.9681994081
 11
282.3973302084
 21
200.2685040936
  0
LINE
  8
SURFACE
 62
7
  6
CONTINUOUS
 10
285.394472431
 20
176.5373942117
 11
285.394472431
 21
201.6397722861
  0
LINE
  8
SURFACE
 62
7
  6
CONTINUOUS
 10
286.2931958704
 20
230.6203202708
 11
286.2931958704
 21
231.7160785509
  0
POLYLINE
  8
SURFACE
 62
7
  6
CONTINUOUS
 66
1
 70
0
  0
VERTEX
  8
SURFACE
 62
7
  6
CONTINUOUS
 10
282.4511362536
 20
196.8681994109
  0
VERTEX
  8
SURFACE
 62
7
  6
CONTINUOUS
 10
282.4503294764
 20
179.8348804365
  0
VERTEX
  8
SURFACE
 62
7
  6
CONTINUOUS
 10
282.4479337527
 20
179.3175522358
  0
SEQEND
  0
LINE
  8
SURFACE
 62
7
  6
CONTINUOUS
 10
285.394472431
 20
176.5373942117
 11
285.3930466359
 21
176.4840129664
  0
POLYLINE
  8
SURFACE
 62
7
  6
CONTINUOUS
 66
1
 70
0
  0
VERTEX
  8
SURFACE
 62
7
  6
CONTINUOUS
 10
282.3976348181
 20
199.9680028972
  0
VERTEX
  8
SURFACE
 62
7
  6
CONTINUOUS
 10
282.4081052658
 20
199.9025171867
  0
VERTEX
  8
SURFACE
 62
7
  6
CONTINUOUS
 10
282.4181557926
 20
199.7220682077
  0
VERTEX
  8
SURFACE
 62
7
  6
CONTINUOUS
 10
282.4274055303
 20
199.4335009367
  0
VERTEX
  8
SURFACE
 62
7
  6
CONTINUOUS
 10
282.4355040595
 20
199.0477586948
  0
VERTEX
  8
SURFACE
 62
7
  6
CONTINUOUS
 10
282.4421446894
 20
198.5794645275
  0
VERTEX
  8
SURFACE
 62
7
  6
CONTINUOUS
 10
282.4470760415
 20
198.0463637011
  0
VERTEX
  8
SURFACE
 62
7
  6
CONTINUOUS
 10
282.4501115088
 20
197.4686496323
  0
VERTEX
  8
SURFACE
 62
7
  6
CONTINUOUS
 10
282.4511362536
 20
196.8681994109
  0
SEQEND
  0
POLYLINE
  8
SURFACE
 62
7
  6
CONTINUOUS
 66
1
 70
0
  0
VERTEX
  8
SURFACE
 62
7
  6
CONTINUOUS
 10
293.742606286
 20
230.0681994109
  0
VERTEX
  8
SURFACE
 62
7
  6
CONTINUOUS
 10
293.7469761958
 20
229.5562125207
  0
VERTEX
  8
SURFACE
 62
7
  6
CONTINUOUS
 10
293.7529083744
 20
229.0987026051
  0
VERTEX
  8
SURFACE
 62
7
  6
CONTINUOUS
 10
293.7602025183
 20
228.7111300621
  0
VERTEX
  8
SURFACE
 62
7
  6
CONTINUOUS
 10
293.7642849328
 20
228.5477702954
  0
VERTEX
  8
SURFACE
 62
7
  6
CONTINUOUS
 10
293.7731480105
 20
228.2888152267
  0
VERTEX
  8
SURFACE
 62
7
  6
CONTINUOUS
 10
293.7826893947
 20
228.1271966784
  0
VERTEX
  8
SURFACE
 62
7
  6
CONTINUOUS
 10
293.7925866046
 20
228.0683959245
  0
SEQEND
  0
LINE
  8
SURFACE
 62
7
  6
CONTINUOUS
 10
290.7931958704
 20
209.8966265356
 11
290.7931958704
 21
234.9966852383
  0
LINE
  8
SURFACE
 62
7
  6
CONTINUOUS
 10
293.7928912143
 20
228.0681994136
 11
293.7928912143
 21
211.2678947281
  0
LINE
  8
SURFACE
 62
7
  6
CONTINUOUS
 10
290.7931958704
 20
234.9966852383
 11
290.7945776855
 21
235.0492373152
  0
POLYLINE
  8
SURFACE
 62
7
  6
CONTINUOUS
 66
1
 70
0
  0
VERTEX
  8
SURFACE
 62
7
  6
CONTINUOUS
 10
293.742606286
 20
230.0681994109
  0
VERTEX
  8
SURFACE
 62
7
  6
CONTINUOUS
 10
293.7723532787
 20
230.3284934352
  0
VERTEX
  8
SURFACE
 62
7
  6
CONTINUOUS
 10
293.8615091648
 20
230.5705170465
  0
VERTEX
  8
SURFACE
 62
7
  6
CONTINUOUS
 10
294.0080333692
 20
230.7883431326
  0
VERTEX
  8
SURFACE
 62
7
  6
CONTINUOUS
 10
294.1002916896
 20
230.8829162934
  0
VERTEX
  8
SURFACE
 62
7
  6
CONTINUOUS
 10
294.3191588743
 20
231.0374954096
  0
VERTEX
  8
SURFACE
 62
7
  6
CONTINUOUS
 10
294.5702861542
 20
231.134818991
  0
VERTEX
  8
SURFACE
 62
7
  6
CONTINUOUS
 10
294.83925273
 20
231.1681994109
  0
SEQEND
  0
POLYLINE
  8
SURFACE
 62
7
  6
CONTINUOUS
 66
1
 70
0
  0
VERTEX
  8
SURFACE
 62
7
  6
CONTINUOUS
 10
319.1435642307
 20
179.3175522358
  0
VERTEX
  8
SURFACE
 62
7
  6
CONTINUOUS
 10
319.1828274637
 20
178.9406428952
  0
VERTEX
  8
SURFACE
 62
7
  6
CONTINUOUS
 10
319.3017720462
 20
178.5614570404
  0
VERTEX
  8
SURFACE
 62
7
  6
CONTINUOUS
 10
319.5088929222
 20
178.1952307795
  0
VERTEX
  8
SURFACE
 62
7
  6
CONTINUOUS
 10
319.8047938018
 20
177.8679681366
  0
VERTEX
  8
SURFACE
 62
7
  6
CONTINUOUS
 10
320.0994075363
 20
177.6521436933
  0
VERTEX
  8
SURFACE
 62
7
  6
CONTINUOUS
 10
320.3548510329
 20
177.5221806923
  0
VERTEX
  8
SURFACE
 62
7
  6
CONTINUOUS
 10
320.5903156981
 20
177.4388722275
  0
VERTEX
  8
SURFACE
 62
7
  6
CONTINUOUS
 10
320.8085653928
 20
177.3884850055
  0
VERTEX
  8
SURFACE
 62
7
  6
CONTINUOUS
 10
321.0049331731
 20
177.3632230882
  0
VERTEX
  8
SURFACE
 62
7
  6
CONTINUOUS
 10
321.181382284
 20
177.3559795086
  0
SEQEND
  0
LINE
  8
SURFACE
 62
7
  6
CONTINUOUS
 10
316.1958688428
 20
176.4860540063
 11
316.194472431
 21
176.5388827249
  0
LINE
  8
SURFACE
 62
7
  6
CONTINUOUS
 10
310.7943669706
 20
235.0492412295
 11
310.7957489917
 21
234.9966852383
  0
LINE
  8
SURFACE
 62
7
  6
CONTINUOUS
 10
307.7960536478
 20
211.2678947281
 11
307.7960536478
 21
228.0681994136
  0
LINE
  8
SURFACE
 62
7
  6
CONTINUOUS
 10
310.7957489917
 20
209.8966265356
 11
310.7957489917
 21
234.9966852383
  0
LINE
  8
SURFACE
 62
7
  6
CONTINUOUS
 10
315.2957489917
 20
230.6203202708
 11
315.2957489917
 21
231.7160785509
  0
LINE
  8
SURFACE
 62
7
  6
CONTINUOUS
 10
316.194472431
 20
201.6397722861
 11
316.194472431
 21
176.5388827249
  0
POLYLINE
  8
SURFACE
 62
7
  6
CONTINUOUS
 66
1
 70
0
  0
VERTEX
  8
SURFACE
 62
7
  6
CONTINUOUS
 10
307.8463385761
 20
230.0681994109
  0
VERTEX
  8
SURFACE
 62
7
  6
CONTINUOUS
 10
307.8419686663
 20
229.5562125207
  0
VERTEX
  8
SURFACE
 62
7
  6
CONTINUOUS
 10
307.8360364877
 20
229.0987026051
  0
VERTEX
  8
SURFACE
 62
7
  6
CONTINUOUS
 10
307.8287423438
 20
228.7111300621
  0
VERTEX
  8
SURFACE
 62
7
  6
CONTINUOUS
 10
307.8246599293
 20
228.5477702954
  0
VERTEX
  8
SURFACE
 62
7
  6
CONTINUOUS
 10
307.8157968516
 20
228.2888152267
  0
VERTEX
  8
SURFACE
 62
7
  6
CONTINUOUS
 10
307.8062554674
 20
228.1271966784
  0
VERTEX
  8
SURFACE
 62
7
  6
CONTINUOUS
 10
307.7963582574
 20
228.0683959245
  0
SEQEND
  0
POLYLINE
  8
SURFACE
 62
7
  6
CONTINUOUS
 66
1
 70
0
  0
VERTEX
  8
SURFACE
 62
7
  6
CONTINUOUS
 10
319.1938631653
 20
199.9680028972
  0
VERTEX
  8
SURFACE
 62
7
  6
CONTINUOUS
 10
319.1833927176
 20
199.9025171867
  0
VERTEX
  8
SURFACE
 62
7
  6
CONTINUOUS
 10
319.1733421908
 20
199.7220682077
  0
VERTEX
  8
SURFACE
 62
7
  6
CONTINUOUS
 10
319.164092453
 20
199.4335009367
  0
VERTEX
  8
SURFACE
 62
7
  6
CONTINUOUS
 10
319.1559939239
 20
199.0477586948
  0
VERTEX
  8
SURFACE
 62
7
  6
CONTINUOUS
 10
319.1493532939
 20
198.5794645275
  0
VERTEX
  8
SURFACE
 62
7
  6
CONTINUOUS
 10
319.1444219418
 20
198.0463637011
  0
VERTEX
  8
SURFACE
 62
7
  6
CONTINUOUS
 10
319.1413864745
 20
197.4686496323
  0
VERTEX
  8
SURFACE
 62
7
  6
CONTINUOUS
 10
319.1403617298
 20
196.8681994109
  0
SEQEND
  0
LINE
  8
SURFACE
 62
7
  6
CONTINUOUS
 10
319.1411685069
 20
179.8348804365
 11
319.1435642307
 21
179.3175522358
  0
LINE
  8
SURFACE
 62
7
  6
CONTINUOUS
 10
319.1403617298
 20
196.8681994109
 11
319.1411685069
 21
179.8348804365
  0
LINE
  8
SURFACE
 62
7
  6
CONTINUOUS
 10
319.194167775
 20
200.2685040936
 11
319.194167775
 21
199.9681994081
  0
LINE
  8
SURFACE
 62
7
  6
CONTINUOUS
 10
333.1947770871
 20
199.9681994081
 11
333.1947770871
 21
200.2685040936
  0
LINE
  8
SURFACE
 62
7
  6
CONTINUOUS
 10
336.194472431
 20
201.6397722861
 11
336.194472431
 21
176.5388827249
  0
LINE
  8
0
 62
7
  6
CONTINUOUS
 10
338.8977711694
 20
202.7681994109
 11
338.8977711694
 21
208.7681994109
  0
POLYLINE
  8
SURFACE
 62
7
  6
CONTINUOUS
 66
1
 70
0
  0
VERTEX
  8
SURFACE
 62
7
  6
CONTINUOUS
 10
333.2485831323
 20
196.8681994109
  0
VERTEX
  8
SURFACE
 62
7
  6
CONTINUOUS
 10
333.2477763552
 20
179.8348804365
  0
VERTEX
  8
SURFACE
 62
7
  6
CONTINUOUS
 10
333.2453806314
 20
179.3175522358
  0
SEQEND
  0
LINE
  8
SURFACE
 62
7
  6
CONTINUOUS
 10
336.194472431
 20
176.5388827249
 11
336.1930760656
 21
176.4860548814
  0
POLYLINE
  8
SURFACE
 62
7
  6
CONTINUOUS
 66
1
 70
0
  0
VERTEX
  8
SURFACE
 62
7
  6
CONTINUOUS
 10
333.1950816968
 20
199.9680028972
  0
VERTEX
  8
SURFACE
 62
7
  6
CONTINUOUS
 10
333.2055521445
 20
199.9025171867
  0
VERTEX
  8
SURFACE
 62
7
  6
CONTINUOUS
 10
333.2156026713
 20
199.7220682077
  0
VERTEX
  8
SURFACE
 62
7
  6
CONTINUOUS
 10
333.2248524091
 20
199.4335009367
  0
VERTEX
  8
SURFACE
 62
7
  6
CONTINUOUS
 10
333.2329509382
 20
199.0477586948
  0
VERTEX
  8
SURFACE
 62
7
  6
CONTINUOUS
 10
333.2395915681
 20
198.5794645275
  0
VERTEX
  8
SURFACE
 62
7
  6
CONTINUOUS
 10
333.2445229203
 20
198.0463637011
  0
VERTEX
  8
SURFACE
 62
7
  6
CONTINUOUS
 10
333.2475583876
 20
197.4686496323
  0
VERTEX
  8
SURFACE
 62
7
  6
CONTINUOUS
 10
333.2485831323
 20
196.8681994109
  0
SEQEND
  0
LINE
  8
0
 62
7
  6
CONTINUOUS
 10
376.784364143
 20
235.21704665
 11
376.3780006756
 21
234.8110905157
  0
LINE
  8
SURFACE
 62
7
  6
CONTINUOUS
 10
376.784364143
 20
235.21704665
 11
376.3780006756
 21
234.8110905157
  0
LINE
  8
0
 62
7
  6
CONTINUOUS
 10
376.826339885
 20
235.2555237369
 11
376.784364143
 21
235.21704665
  0
LINE
  8
0
 62
7
  6
CONTINUOUS
 10
381.7718433147
 20
174.3681994109
 11
382.0718433147
 21
174.3681994109
  0
LINE
  8
DEFAULT_1
 62
2
  6
CENTER
 10
387.1718433147
 20
180.3681994109
 11
383.9219433147
 21
180.3681994109
  0
LINE
  8
0
 62
2
  6
CONTINUOUS
 10
382.9718433147
 20
180.3681994109
 11
380.8718433147
 21
180.3681994109
  0
LINE
  8
DEFAULT_1
 62
2
  6
CENTER
 10
376.6718433147
 20
180.3681994109
 11
379.9217433147
 21
180.3681994109
  0
LINE
  8
0
 62
7
  6
CONTINUOUS
 10
376.8296143231
 20
176.2778986292
 11
376.78698314
 21
176.3169339074
  0
LINE
  8
0
 62
7
  6
CONTINUOUS
 10
374.4218433147
 20
181.7181994109
 11
374.4218433147
 21
229.8181994109
  0
LINE
  8
0
 62
7
  6
CONTINUOUS
 10
378.8218433147
 20
180.3681994109
 11
378.8218433147
 21
196.8681994109
  0
LINE
  8
0
 62
7
  6
CONTINUOUS
 10
378.8218433147
 20
231.1681994109
 11
378.8706421663
 21
231.7160785509
  0
LINE
  8
0
 62
7
  6
CONTINUOUS
 10
378.8706421663
 20
230.6203202708
 11
378.8218433147
 21
231.1681994109
  0
LINE
  8
DEFAULT_1
 62
2
  6
CENTER
 10
381.9218433147
 20
236.4181994109
 11
381.9218433147
 21
234.6072990421
  0
LINE
  8
DEFAULT_1
 62
2
  6
CENTER
 10
381.9218433147
 20
234.2681994109
 11
381.9218433147
 21
233.1682244109
  0
LINE
  8
0
 62
7
  6
CONTINUOUS
 10
381.9218433147
 20
234.6072990421
 11
381.9218433147
 21
234.2681994109
  0
LINE
  8
0
 62
2
  6
CONTINUOUS
 10
381.9218433147
 20
232.2181994109
 11
381.9218433147
 21
230.1181994109
  0
LINE
  8
0
 62
7
  6
CONTINUOUS
 10
381.9218433147
 20
228.0681994109
 11
381.9218433147
 21
227.7290997797
  0
LINE
  8
DEFAULT_1
 62
2
  6
CENTER
 10
381.9218433147
 20
185.6181994109
 11
381.9218433147
 21
182.3682994109
  0
LINE
  8
0
 62
2
  6
CONTINUOUS
 10
381.9218433147
 20
181.4181994109
 11
381.9218433147
 21
179.3181994109
  0
LINE
  8
DEFAULT_1
 62
2
  6
CENTER
 10
381.9218433147
 20
175.1181994109
 11
381.9218433147
 21
178.3680994109
  0
LINE
  8
DEFAULT_1
 62
2
  6
CENTER
 10
381.9218433147
 20
225.9181994109
 11
381.9218433147
 21
227.7290997797
  0
LINE
  8
DEFAULT_1
 62
2
  6
CENTER
 10
381.9218433147
 20
228.0681994109
 11
381.9218433147
 21
229.1681744109
  0
LINE
  8
0
 62
7
  6
CONTINUOUS
 10
385.6792026276
 20
202.2681994109
 11
374.7218433147
 21
202.2681994109
  0
LINE
  8
DEFAULT_1
 62
2
  6
CENTER
 10
360.6204210115
 20
205.768190091
 11
396.7074598479
 21
205.768190091
  0
LINE
  8
0
 62
7
  6
CONTINUOUS
 10
385.0218433147
 20
196.8681994109
 11
385.0218433147
 21
180.3681994109
  0
LINE
  8
0
 62
7
  6
CONTINUOUS
 10
389.3339753491
 20
204.6803314452
 11
387.8005229712
 21
203.1468790673
  0
LINE
  8
0
 62
7
  6
CONTINUOUS
 10
374.7218433147
 20
209.2681994109
 11
385.6792026276
 21
209.2681994109
  0
LINE
  8
SURFACE
 62
7
  6
CONTINUOUS
 10
389.4218433147
 20
204.8924634796
 11
389.4218433147
 21
201.9199931181
  0
LINE
  8
SURFACE
 62
7
  6
CONTINUOUS
 10
389.4218433147
 20
206.6439353422
 11
389.4218433147
 21
209.6164057044
  0
LINE
  8
0
 62
7
  6
CONTINUOUS
 10
389.4218433147
 20
181.7181994109
 11
389.4218433147
 21
229.8181994109
  0
LINE
  8
0
 62
7
  6
CONTINUOUS
 10
387.8005229712
 20
208.3895197544
 11
389.3339753491
 21
206.8560673765
  0
LINE
  8
0
 62
7
  6
CONTINUOUS
 10
387.0140196702
 20
176.2778508125
 11
387.056703773
 21
176.3169341691
  0
LINE
  8
DEFAULT_1
 62
2
  6
CENTER
 10
387.1718433147
 20
231.1681994109
 11
383.9218683147
 21
231.1681994109
  0
LINE
  8
0
 62
2
  6
CONTINUOUS
 10
382.9718433147
 20
231.1681994109
 11
380.8718433147
 21
231.1681994109
  0
LINE
  8
DEFAULT_1
 62
2
  6
CENTER
 10
376.6718433147
 20
231.1681994109
 11
379.9218183147
 21
231.1681994109
  0
LINE
  8
0
 62
7
  6
CONTINUOUS
 10
387.0173968147
 20
235.2554781952
 11
387.0593225256
 21
235.2170466138
  0
LINE
  8
0
 62
7
  6
CONTINUOUS
 10
382.0718433147
 20
237.1681994109
 11
381.7718433147
 21
237.1681994109
  0
LINE
  8
0
 62
7
  6
CONTINUOUS
 10
39.6720033121
 20
108.2081360596
 11
39.6790411289
 21
107.8049398027
  0
LINE
  8
0
 62
7
  6
CONTINUOUS
 10
32.2977711694
 20
104.054101486
 11
32.2977711694
 21
108.1571206458
  0
LINE
  8
0
 62
7
  6
CONTINUOUS
 10
34.0977711694
 20
103.2587750377
 11
34.0977711694
 21
94.0029003376
  0
LINE
  8
0
 62
7
  6
CONTINUOUS
 10
36.7977711694
 20
93.8029003376
 11
36.7977711694
 21
106.3265861343
  0
LINE
  8
0
 62
7
  6
CONTINUOUS
 10
53.9190543312
 20
94.2008608725
 11
53.9260921458
 21
93.7976647445
  0
LINE
  8
0
 62
7
  6
CONTINUOUS
 10
39.6790411289
 20
94.2008608725
 11
39.6720033121
 21
93.7976646157
  0
LINE
  8
0
 62
7
  6
CONTINUOUS
 10
53.9190543312
 20
107.8049398027
 11
53.926092148
 21
108.2081360596
  0
POLYLINE
  8
0
 62
7
  6
CONTINUOUS
 66
1
 70
0
  0
VERTEX
  8
0
 62
7
  6
CONTINUOUS
 10
39.6790405216
 20
94.200826035
  0
VERTEX
  8
0
 62
7
  6
CONTINUOUS
 10
39.6794581737
 20
94.203861493
  0
VERTEX
  8
0
 62
7
  6
CONTINUOUS
 10
39.7020925292
 20
94.2630700843
  0
VERTEX
  8
0
 62
7
  6
CONTINUOUS
 10
39.7851559617
 20
94.3868022105
  0
VERTEX
  8
0
 62
7
  6
CONTINUOUS
 10
39.8571533643
 20
94.4688888211
  0
VERTEX
  8
0
 62
7
  6
CONTINUOUS
 10
40.0725981188
 20
94.6639416597
  0
VERTEX
  8
0
 62
7
  6
CONTINUOUS
 10
40.1648621692
 20
94.7336377866
  0
SEQEND
  0
POLYLINE
  8
0
 62
7
  6
CONTINUOUS
 66
1
 70
0
  0
VERTEX
  8
0
 62
7
  6
CONTINUOUS
 10
53.9190549384
 20
107.8049746328
  0
VERTEX
  8
0
 62
7
  6
CONTINUOUS
 10
53.9186372772
 20
107.8019391399
  0
VERTEX
  8
0
 62
7
  6
CONTINUOUS
 10
53.8960028356
 20
107.7427304026
  0
VERTEX
  8
0
 62
7
  6
CONTINUOUS
 10
53.8129392405
 20
107.6189981414
  0
VERTEX
  8
0
 62
7
  6
CONTINUOUS
 10
53.740941462
 20
107.5369111899
  0
VERTEX
  8
0
 62
7
  6
CONTINUOUS
 10
53.525494736
 20
107.3418569571
  0
VERTEX
  8
0
 62
7
  6
CONTINUOUS
 10
53.4332334336
 20
107.2721629816
  0
SEQEND
  0
POLYLINE
  8
0
 62
7
  6
CONTINUOUS
 66
1
 70
0
  0
VERTEX
  8
0
 62
7
  6
CONTINUOUS
 10
32.2977711694
 20
104.054101486
  0
VERTEX
  8
0
 62
7
  6
CONTINUOUS
 10
32.3305834621
 20
103.9812493991
  0
VERTEX
  8
0
 62
7
  6
CONTINUOUS
 10
32.4318713482
 20
103.8745224203
  0
VERTEX
  8
0
 62
7
  6
CONTINUOUS
 10
32.6049566451
 20
103.7389633518
  0
VERTEX
  8
0
 62
7
  6
CONTINUOUS
 10
32.7161010395
 20
103.665812038
  0
VERTEX
  8
0
 62
7
  6
CONTINUOUS
 10
32.9731106614
 20
103.5261800711
  0
VERTEX
  8
0
 62
7
  6
CONTINUOUS
 10
33.256159233
 20
103.4154548661
  0
VERTEX
  8
0
 62
7
  6
CONTINUOUS
 10
33.5372989029
 20
103.3500278107
  0
SEQEND
  0
LINE
  8
0
 62
7
  6
CONTINUOUS
 10
56.8003242907
 20
93.8029003376
 11
56.8003242907
 21
106.3265861343
  0
LINE
  8
0
 62
7
  6
CONTINUOUS
 10
61.3003242907
 20
104.054101486
 11
61.3003242907
 21
108.1571206458
  0
POLYLINE
  8
0
 62
7
  6
CONTINUOUS
 66
1
 70
0
  0
VERTEX
  8
0
 62
7
  6
CONTINUOUS
 10
56.8595738242
 20
101.0029003376
  0
VERTEX
  8
0
 62
7
  6
CONTINUOUS
 10
56.876502644
 20
101.5217202275
  0
VERTEX
  8
0
 62
7
  6
CONTINUOUS
 10
56.9331714183
 20
101.9827882787
  0
VERTEX
  8
0
 62
7
  6
CONTINUOUS
 10
57.0266639708
 20
102.3216782333
  0
VERTEX
  8
0
 62
7
  6
CONTINUOUS
 10
57.1516368034
 20
102.5643344087
  0
VERTEX
  8
0
 62
7
  6
CONTINUOUS
 10
57.2984699588
 20
102.7302580795
  0
VERTEX
  8
0
 62
7
  6
CONTINUOUS
 10
57.4589073015
 20
102.8370379669
  0
VERTEX
  8
0
 62
7
  6
CONTINUOUS
 10
57.626676113
 20
102.8966931924
  0
SEQEND
  0
POLYLINE
  8
0
 62
7
  6
CONTINUOUS
 66
1
 70
0
  0
VERTEX
  8
0
 62
7
  6
CONTINUOUS
 10
61.3003242907
 20
108.1571176921
  0
VERTEX
  8
0
 62
7
  6
CONTINUOUS
 10
61.2828731016
 20
108.2605546574
  0
VERTEX
  8
0
 62
7
  6
CONTINUOUS
 10
61.2327378089
 20
108.3523311669
  0
VERTEX
  8
0
 62
7
  6
CONTINUOUS
 10
61.1588088685
 20
108.4213300373
  0
VERTEX
  8
0
 62
7
  6
CONTINUOUS
 10
61.0775679599
 20
108.4628009623
  0
VERTEX
  8
0
 62
7
  6
CONTINUOUS
 10
61.038379088
 20
108.475178187
  0
SEQEND
  0
POLYLINE
  8
0
 62
7
  6
CONTINUOUS
 66
1
 70
0
  0
VERTEX
  8
0
 62
7
  6
CONTINUOUS
 10
53.4332484735
 20
94.7336265228
  0
VERTEX
  8
0
 62
7
  6
CONTINUOUS
 10
53.5277884596
 20
94.6621257285
  0
VERTEX
  8
0
 62
7
  6
CONTINUOUS
 10
53.7423571575
 20
94.4673928875
  0
VERTEX
  8
0
 62
7
  6
CONTINUOUS
 10
53.8140226251
 20
94.3854529288
  0
VERTEX
  8
0
 62
7
  6
CONTINUOUS
 10
53.8965015407
 20
94.2620934767
  0
VERTEX
  8
0
 62
7
  6
CONTINUOUS
 10
53.9186788543
 20
94.2036140407
  0
VERTEX
  8
0
 62
7
  6
CONTINUOUS
 10
53.919055035
 20
94.2008204772
  0
SEQEND
  0
POLYLINE
  8
0
 62
7
  6
CONTINUOUS
 66
1
 70
0
  0
VERTEX
  8
0
 62
7
  6
CONTINUOUS
 10
40.1648469409
 20
107.2721741917
  0
VERTEX
  8
0
 62
7
  6
CONTINUOUS
 10
40.0703045725
 20
107.343676871
  0
VERTEX
  8
0
 62
7
  6
CONTINUOUS
 10
39.8557378633
 20
107.5384082487
  0
VERTEX
  8
0
 62
7
  6
CONTINUOUS
 10
39.7840727159
 20
107.6203478965
  0
VERTEX
  8
0
 62
7
  6
CONTINUOUS
 10
39.7015938514
 20
107.7437073344
  0
VERTEX
  8
0
 62
7
  6
CONTINUOUS
 10
39.6794165968
 20
107.8021866724
  0
VERTEX
  8
0
 62
7
  6
CONTINUOUS
 10
39.6790404249
 20
107.8049802103
  0
SEQEND
  0
POLYLINE
  8
SURFACE
 62
7
  6
CONTINUOUS
 66
1
 70
0
  0
VERTEX
  8
SURFACE
 62
7
  6
CONTINUOUS
 10
87.5339463369
 20
101.0029003376
  0
VERTEX
  8
SURFACE
 62
7
  6
CONTINUOUS
 10
87.5170175171
 20
101.5217202275
  0
VERTEX
  8
SURFACE
 62
7
  6
CONTINUOUS
 10
87.4603487428
 20
101.9827882787
  0
VERTEX
  8
SURFACE
 62
7
  6
CONTINUOUS
 10
87.3668561903
 20
102.3216782333
  0
VERTEX
  8
SURFACE
 62
7
  6
CONTINUOUS
 10
87.2418833577
 20
102.5643344087
  0
VERTEX
  8
SURFACE
 62
7
  6
CONTINUOUS
 10
87.0950502023
 20
102.7302580795
  0
VERTEX
  8
SURFACE
 62
7
  6
CONTINUOUS
 10
86.9346128596
 20
102.8370379669
  0
VERTEX
  8
SURFACE
 62
7
  6
CONTINUOUS
 10
86.7668440481
 20
102.8966931924
  0
SEQEND
  0
LINE
  8
SURFACE
 62
7
  6
CONTINUOUS
 10
90.4744658299
 20
107.8049398027
 11
90.4674280131
 21
108.2081360596
  0
LINE
  8
SURFACE
 62
7
  6
CONTINUOUS
 10
83.0931958704
 20
108.1571206458
 11
83.0931958704
 21
104.054101486
  0
LINE
  8
SURFACE
 62
7
  6
CONTINUOUS
 10
87.5931958704
 20
93.8029003376
 11
87.5931958704
 21
106.3265861343
  0
LINE
  8
SURFACE
 62
7
  6
CONTINUOUS
 10
90.4744650856
 20
94.2008182312
 11
90.4674280153
 21
93.7976647445
  0
POLYLINE
  8
SURFACE
 62
7
  6
CONTINUOUS
 66
1
 70
0
  0
VERTEX
  8
SURFACE
 62
7
  6
CONTINUOUS
 10
90.4744650871
 20
94.2008182312
  0
VERTEX
  8
SURFACE
 62
7
  6
CONTINUOUS
 10
90.4748389862
 20
94.2036000076
  0
VERTEX
  8
SURFACE
 62
7
  6
CONTINUOUS
 10
90.4969938489
 20
94.2620447986
  0
VERTEX
  8
SURFACE
 62
7
  6
CONTINUOUS
 10
90.5794558902
 20
94.3854009613
  0
VERTEX
  8
SURFACE
 62
7
  6
CONTINUOUS
 10
90.6510287175
 20
94.4672507267
  0
VERTEX
  8
SURFACE
 62
7
  6
CONTINUOUS
 10
90.8650454039
 20
94.6615809013
  0
VERTEX
  8
SURFACE
 62
7
  6
CONTINUOUS
 10
90.9602717389
 20
94.7336265599
  0
SEQEND
  0
POLYLINE
  8
0
 62
7
  6
CONTINUOUS
 66
1
 70
0
  0
VERTEX
  8
0
 62
7
  6
CONTINUOUS
 10
53.4332392964
 20
107.272167144
  0
VERTEX
  8
0
 62
7
  6
CONTINUOUS
 10
53.3042289327
 20
107.1949295896
  0
VERTEX
  8
0
 62
7
  6
CONTINUOUS
 10
53.0918790153
 20
107.1218564591
  0
VERTEX
  8
0
 62
7
  6
CONTINUOUS
 10
52.9016887177
 20
107.1019241107
  0
SEQEND
  0
POLYLINE
  8
0
 62
7
  6
CONTINUOUS
 66
1
 70
0
  0
VERTEX
  8
0
 62
7
  6
CONTINUOUS
 10
40.1648563208
 20
94.7336336372
  0
VERTEX
  8
0
 62
7
  6
CONTINUOUS
 10
40.2938589229
 20
94.810867355
  0
VERTEX
  8
0
 62
7
  6
CONTINUOUS
 10
40.5062126579
 20
94.8839434134
  0
VERTEX
  8
0
 62
7
  6
CONTINUOUS
 10
40.6964067244
 20
94.9038765646
  0
SEQEND
  0
POLYLINE
  8
0
 62
7
  6
CONTINUOUS
 66
1
 70
0
  0
VERTEX
  8
0
 62
7
  6
CONTINUOUS
 10
32.5588931471
 20
108.4749568456
  0
VERTEX
  8
0
 62
7
  6
CONTINUOUS
 10
32.5197767115
 20
108.4625237406
  0
VERTEX
  8
0
 62
7
  6
CONTINUOUS
 10
32.4387403984
 20
108.4209564584
  0
VERTEX
  8
0
 62
7
  6
CONTINUOUS
 10
32.3650741362
 20
108.3519689515
  0
VERTEX
  8
0
 62
7
  6
CONTINUOUS
 10
32.3151220447
 20
108.2602655907
  0
VERTEX
  8
0
 62
7
  6
CONTINUOUS
 10
32.2977711695
 20
108.157117807
  0
SEQEND
  0
POLYLINE
  8
SURFACE
 62
7
  6
CONTINUOUS
 66
1
 70
0
  0
VERTEX
  8
SURFACE
 62
7
  6
CONTINUOUS
 10
263.2607965572
 20
103.3500278107
  0
VERTEX
  8
SURFACE
 62
7
  6
CONTINUOUS
 10
263.5421206169
 20
103.415512484
  0
VERTEX
  8
SURFACE
 62
7
  6
CONTINUOUS
 10
263.8250882584
 20
103.526228672
  0
VERTEX
  8
SURFACE
 62
7
  6
CONTINUOUS
 10
264.0820078786
 20
103.6658203866
  0
VERTEX
  8
SURFACE
 62
7
  6
CONTINUOUS
 10
264.1931275169
 20
103.7389554592
  0
VERTEX
  8
SURFACE
 62
7
  6
CONTINUOUS
 10
264.3662245834
 20
103.8745228427
  0
VERTEX
  8
SURFACE
 62
7
  6
CONTINUOUS
 10
264.4675112818
 20
103.9812484266
  0
VERTEX
  8
SURFACE
 62
7
  6
CONTINUOUS
 10
264.5003242907
 20
104.054101486
  0
SEQEND
  0
LINE
  8
SURFACE
 62
7
  6
CONTINUOUS
 10
286.6317673436
 20
108.4902415602
 11
286.554593934
 21
108.4750312486
  0
POLYLINE
  8
SURFACE
 62
7
  6
CONTINUOUS
 66
1
 70
0
  0
VERTEX
  8
SURFACE
 62
7
  6
CONTINUOUS
 10
314.0562212582
 20
103.3500278107
  0
VERTEX
  8
SURFACE
 62
7
  6
CONTINUOUS
 10
313.1858251664
 20
103.208315077
  0
VERTEX
  8
SURFACE
 62
7
  6
CONTINUOUS
 10
312.3751937173
 20
103.0573179693
  0
VERTEX
  8
SURFACE
 62
7
  6
CONTINUOUS
 10
311.622100814
 20
102.8966931924
  0
SEQEND
  0
POLYLINE
  8
0
 62
7
  6
CONTINUOUS
 66
1
 70
0
  0
VERTEX
  8
0
 62
7
  6
CONTINUOUS
 10
35.9714193471
 20
102.8966931924
  0
VERTEX
  8
0
 62
7
  6
CONTINUOUS
 10
36.1391625048
 20
102.8370506638
  0
VERTEX
  8
0
 62
7
  6
CONTINUOUS
 10
36.2995608135
 20
102.7303140052
  0
VERTEX
  8
0
 62
7
  6
CONTINUOUS
 10
36.4463640913
 20
102.5644726269
  0
VERTEX
  8
0
 62
7
  6
CONTINUOUS
 10
36.5713826975
 20
102.3218049577
  0
VERTEX
  8
0
 62
7
  6
CONTINUOUS
 10
36.6649462992
 20
101.9826719512
  0
VERTEX
  8
0
 62
7
  6
CONTINUOUS
 10
36.7215932992
 20
101.5217133607
  0
VERTEX
  8
0
 62
7
  6
CONTINUOUS
 10
36.7385216359
 20
101.0029003376
  0
SEQEND
  0
LINE
  8
SURFACE
 62
7
  6
CONTINUOUS
 10
104.7144790322
 20
94.2008608725
 11
104.721516849
 21
93.7976646157
  0
LINE
  8
SURFACE
 62
7
  6
CONTINUOUS
 10
107.5957489917
 20
93.8029003376
 11
107.5957489917
 21
106.3265861343
  0
LINE
  8
SURFACE
 62
7
  6
CONTINUOUS
 10
104.721516849
 20
108.2081360596
 11
104.7144790322
 21
107.8049398027
  0
POLYLINE
  8
SURFACE
 62
7
  6
CONTINUOUS
 66
1
 70
0
  0
VERTEX
  8
SURFACE
 62
7
  6
CONTINUOUS
 10
104.7144797751
 20
107.8049824488
  0
VERTEX
  8
SURFACE
 62
7
  6
CONTINUOUS
 10
104.7141058809
 20
107.8022006813
  0
VERTEX
  8
SURFACE
 62
7
  6
CONTINUOUS
 10
104.6919511534
 20
107.7437561542
  0
VERTEX
  8
SURFACE
 62
7
  6
CONTINUOUS
 10
104.6094896071
 20
107.6204005079
  0
VERTEX
  8
SURFACE
 62
7
  6
CONTINUOUS
 10
104.5379172148
 20
107.5385510775
  0
VERTEX
  8
SURFACE
 62
7
  6
CONTINUOUS
 10
104.3239016684
 20
107.3442215268
  0
VERTEX
  8
SURFACE
 62
7
  6
CONTINUOUS
 10
104.2286731707
 20
107.272174156
  0
SEQEND
  0
POLYLINE
  8
SURFACE
 62
7
  6
CONTINUOUS
 66
1
 70
0
  0
VERTEX
  8
SURFACE
 62
7
  6
CONTINUOUS
 10
104.2286673501
 20
107.2721698181
  0
VERTEX
  8
SURFACE
 62
7
  6
CONTINUOUS
 10
104.0995247514
 20
107.1948666942
  0
VERTEX
  8
SURFACE
 62
7
  6
CONTINUOUS
 10
103.8872357596
 20
107.1218419819
  0
VERTEX
  8
SURFACE
 62
7
  6
CONTINUOUS
 10
103.6971130145
 20
107.1019241945
  0
SEQEND
  0
POLYLINE
  8
SURFACE
 62
7
  6
CONTINUOUS
 66
1
 70
0
  0
VERTEX
  8
SURFACE
 62
7
  6
CONTINUOUS
 10
83.354593934
 20
108.4750312486
  0
VERTEX
  8
SURFACE
 62
7
  6
CONTINUOUS
 10
83.3153521249
 20
108.4625795346
  0
VERTEX
  8
SURFACE
 62
7
  6
CONTINUOUS
 10
83.2340733941
 20
108.4208935709
  0
VERTEX
  8
SURFACE
 62
7
  6
CONTINUOUS
 10
83.1604032106
 20
108.3518463154
  0
VERTEX
  8
SURFACE
 62
7
  6
CONTINUOUS
 10
83.1105670652
 20
108.2603240579
  0
VERTEX
  8
SURFACE
 62
7
  6
CONTINUOUS
 10
83.0931958705
 20
108.1571176962
  0
SEQEND
  0
LINE
  8
SURFACE
 62
7
  6
CONTINUOUS
 10
235.8358052595
 20
108.49016725
 11
235.7588931471
 21
108.4749568456
  0
POLYLINE
  8
SURFACE
 62
7
  6
CONTINUOUS
 66
1
 70
0
  0
VERTEX
  8
SURFACE
 62
7
  6
CONTINUOUS
 10
263.2607965572
 20
103.3500278107
  0
VERTEX
  8
SURFACE
 62
7
  6
CONTINUOUS
 10
262.3904004654
 20
103.208315077
  0
VERTEX
  8
SURFACE
 62
7
  6
CONTINUOUS
 10
261.5797690163
 20
103.0573179693
  0
VERTEX
  8
SURFACE
 62
7
  6
CONTINUOUS
 10
260.826676113
 20
102.8966931924
  0
SEQEND
  0
POLYLINE
  8
SURFACE
 62
7
  6
CONTINUOUS
 66
1
 70
0
  0
VERTEX
  8
SURFACE
 62
7
  6
CONTINUOUS
 10
212.4562212582
 20
103.3500278107
  0
VERTEX
  8
SURFACE
 62
7
  6
CONTINUOUS
 10
211.5858251664
 20
103.208315077
  0
VERTEX
  8
SURFACE
 62
7
  6
CONTINUOUS
 10
210.7751937173
 20
103.0573179693
  0
VERTEX
  8
SURFACE
 62
7
  6
CONTINUOUS
 10
210.022100814
 20
102.8966931924
  0
SEQEND
  0
POLYLINE
  8
0
 62
7
  6
CONTINUOUS
 66
1
 70
0
  0
VERTEX
  8
0
 62
7
  6
CONTINUOUS
 10
52.901689156
 20
94.9038764801
  0
VERTEX
  8
0
 62
7
  6
CONTINUOUS
 10
53.0883236709
 20
94.8846894929
  0
VERTEX
  8
0
 62
7
  6
CONTINUOUS
 10
53.3006589717
 20
94.8126081813
  0
VERTEX
  8
0
 62
7
  6
CONTINUOUS
 10
53.4332421418
 20
94.7336312316
  0
SEQEND
  0
POLYLINE
  8
0
 62
7
  6
CONTINUOUS
 66
1
 70
0
  0
VERTEX
  8
0
 62
7
  6
CONTINUOUS
 10
33.5372989029
 20
103.3500278107
  0
VERTEX
  8
0
 62
7
  6
CONTINUOUS
 10
34.4076949947
 20
103.208315077
  0
VERTEX
  8
0
 62
7
  6
CONTINUOUS
 10
35.2183264438
 20
103.0573179693
  0
VERTEX
  8
0
 62
7
  6
CONTINUOUS
 10
35.9714193471
 20
102.8966931924
  0
SEQEND
  0
POLYLINE
  8
SURFACE
 62
7
  6
CONTINUOUS
 66
1
 70
0
  0
VERTEX
  8
SURFACE
 62
7
  6
CONTINUOUS
 10
104.2286579255
 20
94.7336378345
  0
VERTEX
  8
SURFACE
 62
7
  6
CONTINUOUS
 10
104.3216922963
 20
94.6633316417
  0
VERTEX
  8
SURFACE
 62
7
  6
CONTINUOUS
 10
104.5364343158
 20
94.468817534
  0
VERTEX
  8
SURFACE
 62
7
  6
CONTINUOUS
 10
104.6083455121
 20
94.3868254537
  0
VERTEX
  8
SURFACE
 62
7
  6
CONTINUOUS
 10
104.6914457564
 20
94.2630346933
  0
VERTEX
  8
SURFACE
 62
7
  6
CONTINUOUS
 10
104.714065192
 20
94.2038426152
  0
VERTEX
  8
SURFACE
 62
7
  6
CONTINUOUS
 10
104.7144796955
 20
94.2008228117
  0
SEQEND
  0
POLYLINE
  8
SURFACE
 62
7
  6
CONTINUOUS
 66
1
 70
0
  0
VERTEX
  8
SURFACE
 62
7
  6
CONTINUOUS
 10
90.9602867932
 20
107.2721629342
  0
VERTEX
  8
SURFACE
 62
7
  6
CONTINUOUS
 10
90.8672552905
 20
107.3424668786
  0
VERTEX
  8
SURFACE
 62
7
  6
CONTINUOUS
 10
90.6525118933
 20
107.536981724
  0
VERTEX
  8
SURFACE
 62
7
  6
CONTINUOUS
 10
90.5806001576
 20
107.6189742144
  0
VERTEX
  8
SURFACE
 62
7
  6
CONTINUOUS
 10
90.497499288
 20
107.7427656234
  0
VERTEX
  8
SURFACE
 62
7
  6
CONTINUOUS
 10
90.4748796762
 20
107.8019580361
  0
VERTEX
  8
SURFACE
 62
7
  6
CONTINUOUS
 10
90.4744651666
 20
107.8049778624
  0
SEQEND
  0
LINE
  8
SURFACE
 62
7
  6
CONTINUOUS
 10
112.0957489917
 20
104.054101486
 11
112.0957489917
 21
108.1571206458
  0
POLYLINE
  8
SURFACE
 62
7
  6
CONTINUOUS
 66
1
 70
0
  0
VERTEX
  8
SURFACE
 62
7
  6
CONTINUOUS
 10
112.0957489917
 20
104.054101486
  0
VERTEX
  8
SURFACE
 62
7
  6
CONTINUOUS
 10
112.062936699
 20
103.9812493991
  0
VERTEX
  8
SURFACE
 62
7
  6
CONTINUOUS
 10
111.9616488129
 20
103.8745224203
  0
VERTEX
  8
SURFACE
 62
7
  6
CONTINUOUS
 10
111.788563516
 20
103.7389633518
  0
VERTEX
  8
SURFACE
 62
7
  6
CONTINUOUS
 10
111.6774191216
 20
103.665812038
  0
VERTEX
  8
SURFACE
 62
7
  6
CONTINUOUS
 10
111.4204094997
 20
103.5261800711
  0
VERTEX
  8
SURFACE
 62
7
  6
CONTINUOUS
 10
111.1373609282
 20
103.4154548661
  0
VERTEX
  8
SURFACE
 62
7
  6
CONTINUOUS
 10
110.8562212582
 20
103.3500278107
  0
SEQEND
  0
POLYLINE
  8
SURFACE
 62
7
  6
CONTINUOUS
 66
1
 70
0
  0
VERTEX
  8
SURFACE
 62
7
  6
CONTINUOUS
 10
90.9602774705
 20
94.7336308357
  0
VERTEX
  8
SURFACE
 62
7
  6
CONTINUOUS
 10
91.089409974
 20
94.8109290251
  0
VERTEX
  8
SURFACE
 62
7
  6
CONTINUOUS
 10
91.3017038086
 20
94.8839575737
  0
VERTEX
  8
SURFACE
 62
7
  6
CONTINUOUS
 10
91.4918318216
 20
94.9038764801
  0
SEQEND
  0
POLYLINE
  8
SURFACE
 62
7
  6
CONTINUOUS
 66
1
 70
0
  0
VERTEX
  8
SURFACE
 62
7
  6
CONTINUOUS
 10
108.422100814
 20
102.8966931924
  0
VERTEX
  8
SURFACE
 62
7
  6
CONTINUOUS
 10
108.2543576563
 20
102.8370506638
  0
VERTEX
  8
SURFACE
 62
7
  6
CONTINUOUS
 10
108.0939593476
 20
102.7303140052
  0
VERTEX
  8
SURFACE
 62
7
  6
CONTINUOUS
 10
107.9471560698
 20
102.5644726269
  0
VERTEX
  8
SURFACE
 62
7
  6
CONTINUOUS
 10
107.8221374636
 20
102.3218049577
  0
VERTEX
  8
SURFACE
 62
7
  6
CONTINUOUS
 10
107.7285738619
 20
101.9826719512
  0
VERTEX
  8
SURFACE
 62
7
  6
CONTINUOUS
 10
107.6719268619
 20
101.5217133607
  0
VERTEX
  8
SURFACE
 62
7
  6
CONTINUOUS
 10
107.6549985252
 20
101.0029003376
  0
SEQEND
  0
POLYLINE
  8
SURFACE
 62
7
  6
CONTINUOUS
 66
1
 70
0
  0
VERTEX
  8
SURFACE
 62
7
  6
CONTINUOUS
 10
134.1588931471
 20
108.4749568456
  0
VERTEX
  8
SURFACE
 62
7
  6
CONTINUOUS
 10
134.1197767115
 20
108.4625237406
  0
VERTEX
  8
SURFACE
 62
7
  6
CONTINUOUS
 10
134.0387403984
 20
108.4209564584
  0
VERTEX
  8
SURFACE
 62
7
  6
CONTINUOUS
 10
133.9650741362
 20
108.3519689515
  0
VERTEX
  8
SURFACE
 62
7
  6
CONTINUOUS
 10
133.9151220447
 20
108.2602655907
  0
VERTEX
  8
SURFACE
 62
7
  6
CONTINUOUS
 10
133.8977711695
 20
108.157117807
  0
SEQEND
  0
POLYLINE
  8
SURFACE
 62
7
  6
CONTINUOUS
 66
1
 70
0
  0
VERTEX
  8
SURFACE
 62
7
  6
CONTINUOUS
 10
161.6607965572
 20
103.3500278107
  0
VERTEX
  8
SURFACE
 62
7
  6
CONTINUOUS
 10
161.9421206169
 20
103.415512484
  0
VERTEX
  8
SURFACE
 62
7
  6
CONTINUOUS
 10
162.2250882584
 20
103.526228672
  0
VERTEX
  8
SURFACE
 62
7
  6
CONTINUOUS
 10
162.4820078786
 20
103.6658203866
  0
VERTEX
  8
SURFACE
 62
7
  6
CONTINUOUS
 10
162.5931275169
 20
103.7389554592
  0
VERTEX
  8
SURFACE
 62
7
  6
CONTINUOUS
 10
162.7662245834
 20
103.8745228427
  0
VERTEX
  8
SURFACE
 62
7
  6
CONTINUOUS
 10
162.8675112818
 20
103.9812484266
  0
VERTEX
  8
SURFACE
 62
7
  6
CONTINUOUS
 10
162.9003242907
 20
104.054101486
  0
SEQEND
  0
LINE
  8
SURFACE
 62
7
  6
CONTINUOUS
 10
185.0317673436
 20
108.4902415602
 11
184.954593934
 21
108.4750312486
  0
POLYLINE
  8
SURFACE
 62
7
  6
CONTINUOUS
 66
1
 70
0
  0
VERTEX
  8
SURFACE
 62
7
  6
CONTINUOUS
 10
161.6607965572
 20
103.3500278107
  0
VERTEX
  8
SURFACE
 62
7
  6
CONTINUOUS
 10
160.7904004654
 20
103.208315077
  0
VERTEX
  8
SURFACE
 62
7
  6
CONTINUOUS
 10
159.9797690163
 20
103.0573179693
  0
VERTEX
  8
SURFACE
 62
7
  6
CONTINUOUS
 10
159.226676113
 20
102.8966931924
  0
SEQEND
  0
POLYLINE
  8
SURFACE
 62
7
  6
CONTINUOUS
 66
1
 70
0
  0
VERTEX
  8
SURFACE
 62
7
  6
CONTINUOUS
 10
110.8562212582
 20
103.3500278107
  0
VERTEX
  8
SURFACE
 62
7
  6
CONTINUOUS
 10
109.9858251664
 20
103.208315077
  0
VERTEX
  8
SURFACE
 62
7
  6
CONTINUOUS
 10
109.1751937173
 20
103.0573179693
  0
VERTEX
  8
SURFACE
 62
7
  6
CONTINUOUS
 10
108.422100814
 20
102.8966931924
  0
SEQEND
  0
LINE
  8
0
 62
7
  6
CONTINUOUS
 10
338.3977711694
 20
93.5029003376
 11
312.7957489917
 21
93.5029003376
  0
LINE
  8
SURFACE
 62
7
  6
CONTINUOUS
 10
312.7957489917
 20
93.5029003376
 11
308.2214711576
 21
93.5029003376
  0
LINE
  8
SURFACE
 62
7
  6
CONTINUOUS
 10
211.1957489917
 20
93.5029003376
 11
206.6214711576
 21
93.5029003376
  0
LINE
  8
0
 62
7
  6
CONTINUOUS
 10
136.3977711694
 20
93.5029003376
 11
109.5957489917
 21
93.5029003376
  0
LINE
  8
SURFACE
 62
7
  6
CONTINUOUS
 10
109.5957489917
 20
93.5029003376
 11
105.0214711576
 21
93.5029003376
  0
LINE
  8
0
 62
7
  6
CONTINUOUS
 10
34.5977711694
 20
93.5029003376
 11
39.3720490035
 21
93.5029003376
  0
LINE
  8
0
 62
7
  6
CONTINUOUS
 10
39.3783304753
 20
93.5029003376
 11
54.2197649848
 21
93.5029003376
  0
LINE
  8
0
 62
7
  6
CONTINUOUS
 10
54.2260464566
 20
93.5029003376
 11
85.5931958704
 21
93.5029003376
  0
LINE
  8
SURFACE
 62
7
  6
CONTINUOUS
 10
85.5931958704
 20
93.5029003376
 11
105.0151896858
 21
93.5029003376
  0
LINE
  8
SURFACE
 62
7
  6
CONTINUOUS
 10
136.3977711694
 20
93.5029003376
 11
140.9720490035
 21
93.5029003376
  0
LINE
  8
SURFACE
 62
7
  6
CONTINUOUS
 10
140.9783304753
 20
93.5029003376
 11
155.8197649848
 21
93.5029003376
  0
LINE
  8
SURFACE
 62
7
  6
CONTINUOUS
 10
155.8260464566
 20
93.5029003376
 11
206.6151896858
 21
93.5029003376
  0
LINE
  8
0
 62
7
  6
CONTINUOUS
 10
211.1957489917
 20
93.5029003376
 11
237.9977711694
 21
93.5029003376
  0
LINE
  8
SURFACE
 62
7
  6
CONTINUOUS
 10
237.9977711694
 20
93.5029003376
 11
242.5720490035
 21
93.5029003376
  0
LINE
  8
SURFACE
 62
7
  6
CONTINUOUS
 10
242.5783304753
 20
93.5029003376
 11
257.4197649848
 21
93.5029003376
  0
LINE
  8
SURFACE
 62
7
  6
CONTINUOUS
 10
257.4260464566
 20
93.5029003376
 11
308.2151896858
 21
93.5029003376
  0
LINE
  8
SURFACE
 62
7
  6
CONTINUOUS
 10
306.8972414643
 20
94.9038765541
 11
294.6915377368
 21
94.9038765541
  0
LINE
  8
SURFACE
 62
7
  6
CONTINUOUS
 10
256.1019824244
 20
94.9038765541
 11
243.8962786968
 21
94.9038765541
  0
LINE
  8
SURFACE
 62
7
  6
CONTINUOUS
 10
205.2972414643
 20
94.9038765541
 11
193.0915377368
 21
94.9038765541
  0
LINE
  8
SURFACE
 62
7
  6
CONTINUOUS
 10
154.5019824244
 20
94.9038765541
 11
142.2962786968
 21
94.9038765541
  0
LINE
  8
SURFACE
 62
7
  6
CONTINUOUS
 10
103.6972414643
 20
94.9038765541
 11
91.4915377368
 21
94.9038765541
  0
LINE
  8
0
 62
7
  6
CONTINUOUS
 10
52.9019824244
 20
94.9038765541
 11
40.6962786968
 21
94.9038765541
  0
LINE
  8
SURFACE
 62
7
  6
CONTINUOUS
 10
260.0595738242
 20
101.0029003376
 11
260.0003242907
 21
101.0029003376
  0
LINE
  8
SURFACE
 62
7
  6
CONTINUOUS
 10
239.9977711694
 20
101.0029003376
 11
239.9385216359
 21
101.0029003376
  0
LINE
  8
SURFACE
 62
7
  6
CONTINUOUS
 10
158.4595738242
 20
101.0029003376
 11
158.4003242907
 21
101.0029003376
  0
LINE
  8
SURFACE
 62
7
  6
CONTINUOUS
 10
138.3977711694
 20
101.0029003376
 11
138.3385216359
 21
101.0029003376
  0
LINE
  8
0
 62
7
  6
CONTINUOUS
 10
56.8595738242
 20
101.0029003376
 11
56.8003242907
 21
101.0029003376
  0
LINE
  8
0
 62
7
  6
CONTINUOUS
 10
36.7977711694
 20
101.0029003376
 11
36.7385216359
 21
101.0029003376
  0
LINE
  8
DEFAULT_1
 62
2
  6
CENTER
 10
23.0439624023
 20
101.0029003376
 11
36.7385216359
 21
101.0029003376
  0
LINE
  8
DEFAULT_1
 62
2
  6
CENTER
 10
56.8595738242
 20
101.0029003376
 11
340.8977711694
 21
101.0029003376
  0
LINE
  8
DEFAULT_1
 62
2
  6
CENTER
 10
36.7977711694
 20
101.0029003376
 11
56.8003242907
 21
101.0029003376
  0
LINE
  8
SURFACE
 62
7
  6
CONTINUOUS
 10
87.5339463369
 20
101.0029003376
 11
87.5931958704
 21
101.0029003376
  0
LINE
  8
DEFAULT_1
 62
2
  6
CENTER
 10
-92.2440402382
 20
101.0029003376
 11
-94.2440402382
 21
101.0029003376
  0
LINE
  8
SURFACE
 62
7
  6
CONTINUOUS
 10
107.5957489917
 20
101.0029003376
 11
107.6549985252
 21
101.0029003376
  0
LINE
  8
SURFACE
 62
7
  6
CONTINUOUS
 10
189.1339463369
 20
101.0029003376
 11
189.1931958704
 21
101.0029003376
  0
LINE
  8
SURFACE
 62
7
  6
CONTINUOUS
 10
209.1957489917
 20
101.0029003376
 11
209.2549985252
 21
101.0029003376
  0
LINE
  8
SURFACE
 62
7
  6
CONTINUOUS
 10
290.7339463369
 20
101.0029003376
 11
290.7931958704
 21
101.0029003376
  0
LINE
  8
SURFACE
 62
7
  6
CONTINUOUS
 10
310.7957489917
 20
101.0029003376
 11
310.8549985252
 21
101.0029003376
  0
POLYLINE
  8
SURFACE
 62
7
  6
CONTINUOUS
 66
1
 70
0
  0
VERTEX
  8
SURFACE
 62
7
  6
CONTINUOUS
 10
154.501689156
 20
94.9038764801
  0
VERTEX
  8
SURFACE
 62
7
  6
CONTINUOUS
 10
154.6883236709
 20
94.8846894929
  0
VERTEX
  8
SURFACE
 62
7
  6
CONTINUOUS
 10
154.9006589717
 20
94.8126081813
  0
VERTEX
  8
SURFACE
 62
7
  6
CONTINUOUS
 10
155.0332421418
 20
94.7336312316
  0
SEQEND
  0
POLYLINE
  8
0
 62
7
  6
CONTINUOUS
 66
1
 70
0
  0
VERTEX
  8
0
 62
7
  6
CONTINUOUS
 10
40.6964063308
 20
107.1019241945
  0
VERTEX
  8
0
 62
7
  6
CONTINUOUS
 10
40.5097773864
 20
107.1211100212
  0
VERTEX
  8
0
 62
7
  6
CONTINUOUS
 10
40.2974473362
 20
107.1931872473
  0
VERTEX
  8
0
 62
7
  6
CONTINUOUS
 10
40.164853365
 20
107.2721694185
  0
SEQEND
  0
POLYLINE
  8
SURFACE
 62
7
  6
CONTINUOUS
 66
1
 70
0
  0
VERTEX
  8
SURFACE
 62
7
  6
CONTINUOUS
 10
103.6971141294
 20
94.9038765647
  0
VERTEX
  8
SURFACE
 62
7
  6
CONTINUOUS
 10
103.8838559062
 20
94.8846670725
  0
VERTEX
  8
SURFACE
 62
7
  6
CONTINUOUS
 10
104.0962953102
 20
94.8125058751
  0
VERTEX
  8
SURFACE
 62
7
  6
CONTINUOUS
 10
104.2286629725
 20
94.7336342632
  0
SEQEND
  0
POLYLINE
  8
SURFACE
 62
7
  6
CONTINUOUS
 66
1
 70
0
  0
VERTEX
  8
SURFACE
 62
7
  6
CONTINUOUS
 10
205.2971141294
 20
94.9038765647
  0
VERTEX
  8
SURFACE
 62
7
  6
CONTINUOUS
 10
205.4838559062
 20
94.8846670725
  0
VERTEX
  8
SURFACE
 62
7
  6
CONTINUOUS
 10
205.6962953102
 20
94.8125058751
  0
VERTEX
  8
SURFACE
 62
7
  6
CONTINUOUS
 10
205.8286629725
 20
94.7336342632
  0
SEQEND
  0
POLYLINE
  8
SURFACE
 62
7
  6
CONTINUOUS
 66
1
 70
0
  0
VERTEX
  8
SURFACE
 62
7
  6
CONTINUOUS
 10
91.4918307518
 20
107.1019241107
  0
VERTEX
  8
SURFACE
 62
7
  6
CONTINUOUS
 10
91.3050921787
 20
107.1211329323
  0
VERTEX
  8
SURFACE
 62
7
  6
CONTINUOUS
 10
91.092656153
 20
107.1932915946
  0
VERTEX
  8
SURFACE
 62
7
  6
CONTINUOUS
 10
90.9602817437
 20
107.2721665099
  0
SEQEND
  0
POLYLINE
  8
SURFACE
 62
7
  6
CONTINUOUS
 66
1
 70
0
  0
VERTEX
  8
SURFACE
 62
7
  6
CONTINUOUS
 10
84.3327236039
 20
103.3500278107
  0
VERTEX
  8
SURFACE
 62
7
  6
CONTINUOUS
 10
85.2031196957
 20
103.208315077
  0
VERTEX
  8
SURFACE
 62
7
  6
CONTINUOUS
 10
86.0137511448
 20
103.0573179693
  0
VERTEX
  8
SURFACE
 62
7
  6
CONTINUOUS
 10
86.7668440481
 20
102.8966931924
  0
SEQEND
  0
POLYLINE
  8
SURFACE
 62
7
  6
CONTINUOUS
 66
1
 70
0
  0
VERTEX
  8
SURFACE
 62
7
  6
CONTINUOUS
 10
135.1372989029
 20
103.3500278107
  0
VERTEX
  8
SURFACE
 62
7
  6
CONTINUOUS
 10
136.0076949947
 20
103.208315077
  0
VERTEX
  8
SURFACE
 62
7
  6
CONTINUOUS
 10
136.8183264438
 20
103.0573179693
  0
VERTEX
  8
SURFACE
 62
7
  6
CONTINUOUS
 10
137.5714193471
 20
102.8966931924
  0
SEQEND
  0
POLYLINE
  8
0
 62
7
  6
CONTINUOUS
 66
1
 70
0
  0
VERTEX
  8
0
 62
7
  6
CONTINUOUS
 10
61.038379088
 20
108.475178187
  0
VERTEX
  8
0
 62
7
  6
CONTINUOUS
 10
60.9612924558
 20
108.4903049332
  0
VERTEX
  8
0
 62
7
  6
CONTINUOUS
 10
60.8780575187
 20
108.4983048831
  0
VERTEX
  8
0
 62
7
  6
CONTINUOUS
 10
60.780462197
 20
108.5021115456
  0
VERTEX
  8
0
 62
7
  6
CONTINUOUS
 10
60.6929774959
 20
108.5029003357
  0
SEQEND
  0
POLYLINE
  8
SURFACE
 62
7
  6
CONTINUOUS
 66
1
 70
0
  0
VERTEX
  8
SURFACE
 62
7
  6
CONTINUOUS
 10
111.8351709183
 20
108.4748097719
  0
VERTEX
  8
SURFACE
 62
7
  6
CONTINUOUS
 10
111.7581723639
 20
108.4901037106
  0
VERTEX
  8
SURFACE
 62
7
  6
CONTINUOUS
 10
111.6751601613
 20
108.4981980123
  0
VERTEX
  8
SURFACE
 62
7
  6
CONTINUOUS
 10
111.5778933658
 20
108.5020708191
  0
VERTEX
  8
SURFACE
 62
7
  6
CONTINUOUS
 10
111.4883912156
 20
108.5029003359
  0
SEQEND
  0
POLYLINE
  8
SURFACE
 62
7
  6
CONTINUOUS
 66
1
 70
0
  0
VERTEX
  8
SURFACE
 62
7
  6
CONTINUOUS
 10
84.3327236039
 20
103.3500278107
  0
VERTEX
  8
SURFACE
 62
7
  6
CONTINUOUS
 10
84.0513995443
 20
103.415512484
  0
VERTEX
  8
SURFACE
 62
7
  6
CONTINUOUS
 10
83.7684319027
 20
103.526228672
  0
VERTEX
  8
SURFACE
 62
7
  6
CONTINUOUS
 10
83.5115122825
 20
103.6658203866
  0
VERTEX
  8
SURFACE
 62
7
  6
CONTINUOUS
 10
83.4003926442
 20
103.7389554592
  0
VERTEX
  8
SURFACE
 62
7
  6
CONTINUOUS
 10
83.2272955777
 20
103.8745228427
  0
VERTEX
  8
SURFACE
 62
7
  6
CONTINUOUS
 10
83.1260088793
 20
103.9812484266
  0
VERTEX
  8
SURFACE
 62
7
  6
CONTINUOUS
 10
83.0931958704
 20
104.054101486
  0
SEQEND
  0
POLYLINE
  8
SURFACE
 62
7
  6
CONTINUOUS
 66
1
 70
0
  0
VERTEX
  8
SURFACE
 62
7
  6
CONTINUOUS
 10
112.0957489916
 20
108.1571178115
  0
VERTEX
  8
SURFACE
 62
7
  6
CONTINUOUS
 10
112.0784776034
 20
108.2600357348
  0
VERTEX
  8
SURFACE
 62
7
  6
CONTINUOUS
 10
112.028821919
 20
108.3514868413
  0
VERTEX
  8
SURFACE
 62
7
  6
CONTINUOUS
 10
111.955411311
 20
108.4205225569
  0
VERTEX
  8
SURFACE
 62
7
  6
CONTINUOUS
 10
111.8743391854
 20
108.4623026183
  0
VERTEX
  8
SURFACE
 62
7
  6
CONTINUOUS
 10
111.8351709183
 20
108.4748097719
  0
SEQEND
  0
LINE
  8
SURFACE
 62
7
  6
CONTINUOUS
 10
133.8977711694
 20
104.054101486
 11
133.8977711694
 21
108.1571206458
  0
LINE
  8
SURFACE
 62
7
  6
CONTINUOUS
 10
138.3977711694
 20
93.8029003376
 11
138.3977711694
 21
106.3265861343
  0
POLYLINE
  8
SURFACE
 62
7
  6
CONTINUOUS
 66
1
 70
0
  0
VERTEX
  8
SURFACE
 62
7
  6
CONTINUOUS
 10
155.0332392964
 20
107.272167144
  0
VERTEX
  8
SURFACE
 62
7
  6
CONTINUOUS
 10
154.9042289327
 20
107.1949295896
  0
VERTEX
  8
SURFACE
 62
7
  6
CONTINUOUS
 10
154.6918790153
 20
107.1218564591
  0
VERTEX
  8
SURFACE
 62
7
  6
CONTINUOUS
 10
154.5016887177
 20
107.1019241107
  0
SEQEND
  0
POLYLINE
  8
SURFACE
 62
7
  6
CONTINUOUS
 66
1
 70
0
  0
VERTEX
  8
SURFACE
 62
7
  6
CONTINUOUS
 10
184.954593934
 20
108.4750312486
  0
VERTEX
  8
SURFACE
 62
7
  6
CONTINUOUS
 10
184.9153521249
 20
108.4625795346
  0
VERTEX
  8
SURFACE
 62
7
  6
CONTINUOUS
 10
184.8340733941
 20
108.4208935709
  0
VERTEX
  8
SURFACE
 62
7
  6
CONTINUOUS
 10
184.7604032106
 20
108.3518463154
  0
VERTEX
  8
SURFACE
 62
7
  6
CONTINUOUS
 10
184.7105670652
 20
108.2603240579
  0
VERTEX
  8
SURFACE
 62
7
  6
CONTINUOUS
 10
184.6931958705
 20
108.1571176962
  0
SEQEND
  0
POLYLINE
  8
0
 62
7
  6
CONTINUOUS
 66
1
 70
0
  0
VERTEX
  8
0
 62
7
  6
CONTINUOUS
 10
60.0607965572
 20
103.3500278107
  0
VERTEX
  8
0
 62
7
  6
CONTINUOUS
 10
60.3421206169
 20
103.415512484
  0
VERTEX
  8
0
 62
7
  6
CONTINUOUS
 10
60.6250882584
 20
103.526228672
  0
VERTEX
  8
0
 62
7
  6
CONTINUOUS
 10
60.8820078786
 20
103.6658203866
  0
VERTEX
  8
0
 62
7
  6
CONTINUOUS
 10
60.9931275169
 20
103.7389554592
  0
VERTEX
  8
0
 62
7
  6
CONTINUOUS
 10
61.1662245834
 20
103.8745228427
  0
VERTEX
  8
0
 62
7
  6
CONTINUOUS
 10
61.2675112818
 20
103.9812484266
  0
VERTEX
  8
0
 62
7
  6
CONTINUOUS
 10
61.3003242907
 20
104.054101486
  0
SEQEND
  0
LINE
  8
SURFACE
 62
7
  6
CONTINUOUS
 10
134.2358052595
 20
108.49016725
 11
134.1588931471
 21
108.4749568456
  0
LINE
  8
SURFACE
 62
7
  6
CONTINUOUS
 10
83.4317673436
 20
108.4902415602
 11
83.354593934
 21
108.4750312486
  0
POLYLINE
  8
0
 62
7
  6
CONTINUOUS
 66
1
 70
0
  0
VERTEX
  8
0
 62
7
  6
CONTINUOUS
 10
60.0607965572
 20
103.3500278107
  0
VERTEX
  8
0
 62
7
  6
CONTINUOUS
 10
59.1904004654
 20
103.208315077
  0
VERTEX
  8
0
 62
7
  6
CONTINUOUS
 10
58.3797690163
 20
103.0573179693
  0
VERTEX
  8
0
 62
7
  6
CONTINUOUS
 10
57.626676113
 20
102.8966931924
  0
SEQEND
  0
POLYLINE
  8
SURFACE
 62
7
  6
CONTINUOUS
 66
1
 70
0
  0
VERTEX
  8
SURFACE
 62
7
  6
CONTINUOUS
 10
236.1051303705
 20
108.5029003359
  0
VERTEX
  8
SURFACE
 62
7
  6
CONTINUOUS
 10
236.0158532764
 20
108.502075478
  0
VERTEX
  8
SURFACE
 62
7
  6
CONTINUOUS
 10
235.9187267443
 20
108.4982215293
  0
VERTEX
  8
SURFACE
 62
7
  6
CONTINUOUS
 10
235.8358052595
 20
108.49016725
  0
SEQEND
  0
POLYLINE
  8
SURFACE
 62
7
  6
CONTINUOUS
 66
1
 70
0
  0
VERTEX
  8
SURFACE
 62
7
  6
CONTINUOUS
 10
134.5051303705
 20
108.5029003359
  0
VERTEX
  8
SURFACE
 62
7
  6
CONTINUOUS
 10
134.4158532764
 20
108.502075478
  0
VERTEX
  8
SURFACE
 62
7
  6
CONTINUOUS
 10
134.3187267443
 20
108.4982215293
  0
VERTEX
  8
SURFACE
 62
7
  6
CONTINUOUS
 10
134.2358052595
 20
108.49016725
  0
SEQEND
  0
POLYLINE
  8
0
 62
7
  6
CONTINUOUS
 66
1
 70
0
  0
VERTEX
  8
0
 62
7
  6
CONTINUOUS
 10
32.9051303705
 20
108.5029003359
  0
VERTEX
  8
0
 62
7
  6
CONTINUOUS
 10
32.8158532764
 20
108.502075478
  0
VERTEX
  8
0
 62
7
  6
CONTINUOUS
 10
32.7187267443
 20
108.4982215293
  0
VERTEX
  8
0
 62
7
  6
CONTINUOUS
 10
32.6358052595
 20
108.49016725
  0
SEQEND
  0
POLYLINE
  8
SURFACE
 62
7
  6
CONTINUOUS
 66
1
 70
0
  0
VERTEX
  8
SURFACE
 62
7
  6
CONTINUOUS
 10
286.900541191
 20
108.5029003357
  0
VERTEX
  8
SURFACE
 62
7
  6
CONTINUOUS
 10
286.8128293709
 20
108.5021069677
  0
VERTEX
  8
SURFACE
 62
7
  6
CONTINUOUS
 10
286.7150930464
 20
108.4982814888
  0
VERTEX
  8
SURFACE
 62
7
  6
CONTINUOUS
 10
286.6317673436
 20
108.4902415602
  0
SEQEND
  0
POLYLINE
  8
SURFACE
 62
7
  6
CONTINUOUS
 66
1
 70
0
  0
VERTEX
  8
SURFACE
 62
7
  6
CONTINUOUS
 10
185.300541191
 20
108.5029003357
  0
VERTEX
  8
SURFACE
 62
7
  6
CONTINUOUS
 10
185.2128293709
 20
108.5021069677
  0
VERTEX
  8
SURFACE
 62
7
  6
CONTINUOUS
 10
185.1150930464
 20
108.4982814888
  0
VERTEX
  8
SURFACE
 62
7
  6
CONTINUOUS
 10
185.0317673436
 20
108.4902415602
  0
SEQEND
  0
POLYLINE
  8
SURFACE
 62
7
  6
CONTINUOUS
 66
1
 70
0
  0
VERTEX
  8
SURFACE
 62
7
  6
CONTINUOUS
 10
83.700541191
 20
108.5029003357
  0
VERTEX
  8
SURFACE
 62
7
  6
CONTINUOUS
 10
83.6128293709
 20
108.5021069677
  0
VERTEX
  8
SURFACE
 62
7
  6
CONTINUOUS
 10
83.5150930464
 20
108.4982814888
  0
VERTEX
  8
SURFACE
 62
7
  6
CONTINUOUS
 10
83.4317673436
 20
108.4902415602
  0
SEQEND
  0
LINE
  8
0
 62
7
  6
CONTINUOUS
 10
40.6961130238
 20
107.1019241212
 11
52.9018167391
 21
107.1019241212
  0
LINE
  8
SURFACE
 62
7
  6
CONTINUOUS
 10
91.491703422
 20
107.1019241212
 11
103.6974071374
 21
107.1019241212
  0
LINE
  8
SURFACE
 62
7
  6
CONTINUOUS
 10
142.2961130238
 20
107.1019241212
 11
154.5018167391
 21
107.1019241212
  0
LINE
  8
SURFACE
 62
7
  6
CONTINUOUS
 10
193.091703422
 20
107.1019241212
 11
205.2974071374
 21
107.1019241212
  0
LINE
  8
SURFACE
 62
7
  6
CONTINUOUS
 10
243.8961130238
 20
107.1019241212
 11
256.1018167391
 21
107.1019241212
  0
LINE
  8
SURFACE
 62
7
  6
CONTINUOUS
 10
294.691703422
 20
107.1019241212
 11
306.8974071374
 21
107.1019241212
  0
LINE
  8
0
 62
7
  6
CONTINUOUS
 10
236.105245469
 20
108.5029003376
 11
213.0882746922
 21
108.5029003376
  0
LINE
  8
0
 62
7
  6
CONTINUOUS
 10
32.905245469
 20
108.5029003376
 11
83.7006701699
 21
108.5029003376
  0
LINE
  8
SURFACE
 62
7
  6
CONTINUOUS
 10
83.7006701699
 20
108.5029003376
 11
111.4883964574
 21
108.5029003363
  0
LINE
  8
0
 62
7
  6
CONTINUOUS
 10
111.4882746922
 20
108.5029003376
 11
134.505245469
 21
108.5029003376
  0
LINE
  8
SURFACE
 62
7
  6
CONTINUOUS
 10
134.5051251283
 20
108.5029003363
 11
213.0882746922
 21
108.5029003376
  0
LINE
  8
SURFACE
 62
7
  6
CONTINUOUS
 10
236.1051251283
 20
108.5029003363
 11
314.6882746922
 21
108.5029003376
  0
LINE
  8
0
 62
7
  6
CONTINUOUS
 10
314.6882746922
 20
108.5029003376
 11
338.3977711694
 21
108.5029003376
  0
POLYLINE
  8
SURFACE
 62
7
  6
CONTINUOUS
 66
1
 70
0
  0
VERTEX
  8
SURFACE
 62
7
  6
CONTINUOUS
 10
256.101689156
 20
94.9038764801
  0
VERTEX
  8
SURFACE
 62
7
  6
CONTINUOUS
 10
256.2883236709
 20
94.8846894929
  0
VERTEX
  8
SURFACE
 62
7
  6
CONTINUOUS
 10
256.5006589717
 20
94.8126081813
  0
VERTEX
  8
SURFACE
 62
7
  6
CONTINUOUS
 10
256.6332421418
 20
94.7336312316
  0
SEQEND
  0
POLYLINE
  8
SURFACE
 62
7
  6
CONTINUOUS
 66
1
 70
0
  0
VERTEX
  8
SURFACE
 62
7
  6
CONTINUOUS
 10
142.2964063308
 20
107.1019241945
  0
VERTEX
  8
SURFACE
 62
7
  6
CONTINUOUS
 10
142.1097773864
 20
107.1211100212
  0
VERTEX
  8
SURFACE
 62
7
  6
CONTINUOUS
 10
141.8974473362
 20
107.1931872473
  0
VERTEX
  8
SURFACE
 62
7
  6
CONTINUOUS
 10
141.764853365
 20
107.2721694185
  0
SEQEND
  0
POLYLINE
  8
SURFACE
 62
7
  6
CONTINUOUS
 66
1
 70
0
  0
VERTEX
  8
SURFACE
 62
7
  6
CONTINUOUS
 10
243.8964063308
 20
107.1019241945
  0
VERTEX
  8
SURFACE
 62
7
  6
CONTINUOUS
 10
243.7097773864
 20
107.1211100212
  0
VERTEX
  8
SURFACE
 62
7
  6
CONTINUOUS
 10
243.4974473362
 20
107.1931872473
  0
VERTEX
  8
SURFACE
 62
7
  6
CONTINUOUS
 10
243.364853365
 20
107.2721694185
  0
SEQEND
  0
POLYLINE
  8
SURFACE
 62
7
  6
CONTINUOUS
 66
1
 70
0
  0
VERTEX
  8
SURFACE
 62
7
  6
CONTINUOUS
 10
306.8971141294
 20
94.9038765647
  0
VERTEX
  8
SURFACE
 62
7
  6
CONTINUOUS
 10
307.0838559062
 20
94.8846670725
  0
VERTEX
  8
SURFACE
 62
7
  6
CONTINUOUS
 10
307.2962953102
 20
94.8125058751
  0
VERTEX
  8
SURFACE
 62
7
  6
CONTINUOUS
 10
307.4286629725
 20
94.7336342632
  0
SEQEND
  0
POLYLINE
  8
SURFACE
 62
7
  6
CONTINUOUS
 66
1
 70
0
  0
VERTEX
  8
SURFACE
 62
7
  6
CONTINUOUS
 10
193.0918307518
 20
107.1019241107
  0
VERTEX
  8
SURFACE
 62
7
  6
CONTINUOUS
 10
192.9050921787
 20
107.1211329323
  0
VERTEX
  8
SURFACE
 62
7
  6
CONTINUOUS
 10
192.692656153
 20
107.1932915946
  0
VERTEX
  8
SURFACE
 62
7
  6
CONTINUOUS
 10
192.5602817437
 20
107.2721665099
  0
SEQEND
  0
POLYLINE
  8
SURFACE
 62
7
  6
CONTINUOUS
 66
1
 70
0
  0
VERTEX
  8
SURFACE
 62
7
  6
CONTINUOUS
 10
185.9327236039
 20
103.3500278107
  0
VERTEX
  8
SURFACE
 62
7
  6
CONTINUOUS
 10
186.8031196957
 20
103.208315077
  0
VERTEX
  8
SURFACE
 62
7
  6
CONTINUOUS
 10
187.6137511448
 20
103.0573179693
  0
VERTEX
  8
SURFACE
 62
7
  6
CONTINUOUS
 10
188.3668440481
 20
102.8966931924
  0
SEQEND
  0
POLYLINE
  8
SURFACE
 62
7
  6
CONTINUOUS
 66
1
 70
0
  0
VERTEX
  8
SURFACE
 62
7
  6
CONTINUOUS
 10
162.638379088
 20
108.475178187
  0
VERTEX
  8
SURFACE
 62
7
  6
CONTINUOUS
 10
162.5612924558
 20
108.4903049332
  0
VERTEX
  8
SURFACE
 62
7
  6
CONTINUOUS
 10
162.4780575187
 20
108.4983048831
  0
VERTEX
  8
SURFACE
 62
7
  6
CONTINUOUS
 10
162.380462197
 20
108.5021115456
  0
VERTEX
  8
SURFACE
 62
7
  6
CONTINUOUS
 10
162.2929774959
 20
108.5029003357
  0
SEQEND
  0
POLYLINE
  8
SURFACE
 62
7
  6
CONTINUOUS
 66
1
 70
0
  0
VERTEX
  8
SURFACE
 62
7
  6
CONTINUOUS
 10
185.9327236039
 20
103.3500278107
  0
VERTEX
  8
SURFACE
 62
7
  6
CONTINUOUS
 10
185.6513995443
 20
103.415512484
  0
VERTEX
  8
SURFACE
 62
7
  6
CONTINUOUS
 10
185.3684319027
 20
103.526228672
  0
VERTEX
  8
SURFACE
 62
7
  6
CONTINUOUS
 10
185.1115122825
 20
103.6658203866
  0
VERTEX
  8
SURFACE
 62
7
  6
CONTINUOUS
 10
185.0003926442
 20
103.7389554592
  0
VERTEX
  8
SURFACE
 62
7
  6
CONTINUOUS
 10
184.8272955777
 20
103.8745228427
  0
VERTEX
  8
SURFACE
 62
7
  6
CONTINUOUS
 10
184.7260088793
 20
103.9812484266
  0
VERTEX
  8
SURFACE
 62
7
  6
CONTINUOUS
 10
184.6931958704
 20
104.054101486
  0
SEQEND
  0
POLYLINE
  8
SURFACE
 62
7
  6
CONTINUOUS
 66
1
 70
0
  0
VERTEX
  8
SURFACE
 62
7
  6
CONTINUOUS
 10
137.5714193471
 20
102.8966931924
  0
VERTEX
  8
SURFACE
 62
7
  6
CONTINUOUS
 10
137.7391625048
 20
102.8370506638
  0
VERTEX
  8
SURFACE
 62
7
  6
CONTINUOUS
 10
137.8995608135
 20
102.7303140052
  0
VERTEX
  8
SURFACE
 62
7
  6
CONTINUOUS
 10
138.0463640913
 20
102.5644726269
  0
VERTEX
  8
SURFACE
 62
7
  6
CONTINUOUS
 10
138.1713826975
 20
102.3218049577
  0
VERTEX
  8
SURFACE
 62
7
  6
CONTINUOUS
 10
138.2649462992
 20
101.9826719512
  0
VERTEX
  8
SURFACE
 62
7
  6
CONTINUOUS
 10
138.3215932992
 20
101.5217133607
  0
VERTEX
  8
SURFACE
 62
7
  6
CONTINUOUS
 10
138.3385216359
 20
101.0029003376
  0
SEQEND
  0
POLYLINE
  8
SURFACE
 62
7
  6
CONTINUOUS
 66
1
 70
0
  0
VERTEX
  8
SURFACE
 62
7
  6
CONTINUOUS
 10
155.0332484735
 20
94.7336265228
  0
VERTEX
  8
SURFACE
 62
7
  6
CONTINUOUS
 10
155.1277884596
 20
94.6621257285
  0
VERTEX
  8
SURFACE
 62
7
  6
CONTINUOUS
 10
155.3423571575
 20
94.4673928875
  0
VERTEX
  8
SURFACE
 62
7
  6
CONTINUOUS
 10
155.4140226251
 20
94.3854529288
  0
VERTEX
  8
SURFACE
 62
7
  6
CONTINUOUS
 10
155.4965015407
 20
94.2620934767
  0
VERTEX
  8
SURFACE
 62
7
  6
CONTINUOUS
 10
155.5186788543
 20
94.2036140407
  0
VERTEX
  8
SURFACE
 62
7
  6
CONTINUOUS
 10
155.519055035
 20
94.2008204772
  0
SEQEND
  0
POLYLINE
  8
SURFACE
 62
7
  6
CONTINUOUS
 66
1
 70
0
  0
VERTEX
  8
SURFACE
 62
7
  6
CONTINUOUS
 10
141.7648469409
 20
107.2721741917
  0
VERTEX
  8
SURFACE
 62
7
  6
CONTINUOUS
 10
141.6703045725
 20
107.343676871
  0
VERTEX
  8
SURFACE
 62
7
  6
CONTINUOUS
 10
141.4557378633
 20
107.5384082487
  0
VERTEX
  8
SURFACE
 62
7
  6
CONTINUOUS
 10
141.3840727159
 20
107.6203478965
  0
VERTEX
  8
SURFACE
 62
7
  6
CONTINUOUS
 10
141.3015938514
 20
107.7437073344
  0
VERTEX
  8
SURFACE
 62
7
  6
CONTINUOUS
 10
141.2794165968
 20
107.8021866724
  0
VERTEX
  8
SURFACE
 62
7
  6
CONTINUOUS
 10
141.2790404249
 20
107.8049802103
  0
SEQEND
  0
POLYLINE
  8
SURFACE
 62
7
  6
CONTINUOUS
 66
1
 70
0
  0
VERTEX
  8
SURFACE
 62
7
  6
CONTINUOUS
 10
133.8977711694
 20
104.054101486
  0
VERTEX
  8
SURFACE
 62
7
  6
CONTINUOUS
 10
133.9305834621
 20
103.9812493991
  0
VERTEX
  8
SURFACE
 62
7
  6
CONTINUOUS
 10
134.0318713482
 20
103.8745224203
  0
VERTEX
  8
SURFACE
 62
7
  6
CONTINUOUS
 10
134.2049566451
 20
103.7389633518
  0
VERTEX
  8
SURFACE
 62
7
  6
CONTINUOUS
 10
134.3161010395
 20
103.665812038
  0
VERTEX
  8
SURFACE
 62
7
  6
CONTINUOUS
 10
134.5731106614
 20
103.5261800711
  0
VERTEX
  8
SURFACE
 62
7
  6
CONTINUOUS
 10
134.856159233
 20
103.4154548661
  0
VERTEX
  8
SURFACE
 62
7
  6
CONTINUOUS
 10
135.1372989029
 20
103.3500278107
  0
SEQEND
  0
LINE
  8
SURFACE
 62
7
  6
CONTINUOUS
 10
141.2720033121
 20
108.2081360596
 11
141.2790411289
 21
107.8049398027
  0
LINE
  8
SURFACE
 62
7
  6
CONTINUOUS
 10
141.2790411289
 20
94.2008608725
 11
141.2720033121
 21
93.7976646157
  0
POLYLINE
  8
SURFACE
 62
7
  6
CONTINUOUS
 66
1
 70
0
  0
VERTEX
  8
SURFACE
 62
7
  6
CONTINUOUS
 10
141.2790405216
 20
94.200826035
  0
VERTEX
  8
SURFACE
 62
7
  6
CONTINUOUS
 10
141.2794581737
 20
94.203861493
  0
VERTEX
  8
SURFACE
 62
7
  6
CONTINUOUS
 10
141.3020925292
 20
94.2630700843
  0
VERTEX
  8
SURFACE
 62
7
  6
CONTINUOUS
 10
141.3851559617
 20
94.3868022105
  0
VERTEX
  8
SURFACE
 62
7
  6
CONTINUOUS
 10
141.4571533643
 20
94.4688888211
  0
VERTEX
  8
SURFACE
 62
7
  6
CONTINUOUS
 10
141.6725981188
 20
94.6639416597
  0
VERTEX
  8
SURFACE
 62
7
  6
CONTINUOUS
 10
141.7648621692
 20
94.7336377866
  0
SEQEND
  0
POLYLINE
  8
SURFACE
 62
7
  6
CONTINUOUS
 66
1
 70
0
  0
VERTEX
  8
SURFACE
 62
7
  6
CONTINUOUS
 10
141.7648563208
 20
94.7336336372
  0
VERTEX
  8
SURFACE
 62
7
  6
CONTINUOUS
 10
141.8938589229
 20
94.810867355
  0
VERTEX
  8
SURFACE
 62
7
  6
CONTINUOUS
 10
142.1062126579
 20
94.8839434134
  0
VERTEX
  8
SURFACE
 62
7
  6
CONTINUOUS
 10
142.2964067244
 20
94.9038765646
  0
SEQEND
  0
POLYLINE
  8
SURFACE
 62
7
  6
CONTINUOUS
 66
1
 70
0
  0
VERTEX
  8
SURFACE
 62
7
  6
CONTINUOUS
 10
210.022100814
 20
102.8966931924
  0
VERTEX
  8
SURFACE
 62
7
  6
CONTINUOUS
 10
209.8543576563
 20
102.8370506638
  0
VERTEX
  8
SURFACE
 62
7
  6
CONTINUOUS
 10
209.6939593476
 20
102.7303140052
  0
VERTEX
  8
SURFACE
 62
7
  6
CONTINUOUS
 10
209.5471560698
 20
102.5644726269
  0
VERTEX
  8
SURFACE
 62
7
  6
CONTINUOUS
 10
209.4221374636
 20
102.3218049577
  0
VERTEX
  8
SURFACE
 62
7
  6
CONTINUOUS
 10
209.3285738619
 20
101.9826719512
  0
VERTEX
  8
SURFACE
 62
7
  6
CONTINUOUS
 10
209.2719268619
 20
101.5217133607
  0
VERTEX
  8
SURFACE
 62
7
  6
CONTINUOUS
 10
209.2549985252
 20
101.0029003376
  0
SEQEND
  0
POLYLINE
  8
SURFACE
 62
7
  6
CONTINUOUS
 66
1
 70
0
  0
VERTEX
  8
SURFACE
 62
7
  6
CONTINUOUS
 10
235.7588931471
 20
108.4749568456
  0
VERTEX
  8
SURFACE
 62
7
  6
CONTINUOUS
 10
235.7197767115
 20
108.4625237406
  0
VERTEX
  8
SURFACE
 62
7
  6
CONTINUOUS
 10
235.6387403984
 20
108.4209564584
  0
VERTEX
  8
SURFACE
 62
7
  6
CONTINUOUS
 10
235.5650741362
 20
108.3519689515
  0
VERTEX
  8
SURFACE
 62
7
  6
CONTINUOUS
 10
235.5151220447
 20
108.2602655907
  0
VERTEX
  8
SURFACE
 62
7
  6
CONTINUOUS
 10
235.4977711695
 20
108.157117807
  0
SEQEND
  0
LINE
  8
0
 62
7
  6
CONTINUOUS
 10
32.6358052595
 20
108.49016725
 11
32.5588931471
 21
108.4749568456
  0
POLYLINE
  8
SURFACE
 62
7
  6
CONTINUOUS
 66
1
 70
0
  0
VERTEX
  8
SURFACE
 62
7
  6
CONTINUOUS
 10
294.6918307518
 20
107.1019241107
  0
VERTEX
  8
SURFACE
 62
7
  6
CONTINUOUS
 10
294.5050921787
 20
107.1211329323
  0
VERTEX
  8
SURFACE
 62
7
  6
CONTINUOUS
 10
294.292656153
 20
107.1932915946
  0
VERTEX
  8
SURFACE
 62
7
  6
CONTINUOUS
 10
294.1602817437
 20
107.2721665099
  0
SEQEND
  0
POLYLINE
  8
SURFACE
 62
7
  6
CONTINUOUS
 66
1
 70
0
  0
VERTEX
  8
SURFACE
 62
7
  6
CONTINUOUS
 10
236.7372989029
 20
103.3500278107
  0
VERTEX
  8
SURFACE
 62
7
  6
CONTINUOUS
 10
237.6076949947
 20
103.208315077
  0
VERTEX
  8
SURFACE
 62
7
  6
CONTINUOUS
 10
238.4183264438
 20
103.0573179693
  0
VERTEX
  8
SURFACE
 62
7
  6
CONTINUOUS
 10
239.1714193471
 20
102.8966931924
  0
SEQEND
  0
POLYLINE
  8
SURFACE
 62
7
  6
CONTINUOUS
 66
1
 70
0
  0
VERTEX
  8
SURFACE
 62
7
  6
CONTINUOUS
 10
287.5327236039
 20
103.3500278107
  0
VERTEX
  8
SURFACE
 62
7
  6
CONTINUOUS
 10
288.4031196957
 20
103.208315077
  0
VERTEX
  8
SURFACE
 62
7
  6
CONTINUOUS
 10
289.2137511448
 20
103.0573179693
  0
VERTEX
  8
SURFACE
 62
7
  6
CONTINUOUS
 10
289.9668440481
 20
102.8966931924
  0
SEQEND
  0
POLYLINE
  8
SURFACE
 62
7
  6
CONTINUOUS
 66
1
 70
0
  0
VERTEX
  8
SURFACE
 62
7
  6
CONTINUOUS
 10
213.4351709183
 20
108.4748097719
  0
VERTEX
  8
SURFACE
 62
7
  6
CONTINUOUS
 10
213.3581723639
 20
108.4901037106
  0
VERTEX
  8
SURFACE
 62
7
  6
CONTINUOUS
 10
213.2751601613
 20
108.4981980123
  0
VERTEX
  8
SURFACE
 62
7
  6
CONTINUOUS
 10
213.1778933658
 20
108.5020708191
  0
VERTEX
  8
SURFACE
 62
7
  6
CONTINUOUS
 10
213.0883912156
 20
108.5029003359
  0
SEQEND
  0
LINE
  8
SURFACE
 62
7
  6
CONTINUOUS
 10
155.5190550363
 20
94.2008204772
 11
155.5260921458
 21
93.7976647445
  0
LINE
  8
SURFACE
 62
7
  6
CONTINUOUS
 10
158.4003242907
 20
93.8029003376
 11
158.4003242907
 21
106.3265861343
  0
LINE
  8
SURFACE
 62
7
  6
CONTINUOUS
 10
162.9003242907
 20
104.054101486
 11
162.9003242907
 21
108.1571206458
  0
LINE
  8
SURFACE
 62
7
  6
CONTINUOUS
 10
155.5190543312
 20
107.8049398027
 11
155.526092148
 21
108.2081360596
  0
POLYLINE
  8
SURFACE
 62
7
  6
CONTINUOUS
 66
1
 70
0
  0
VERTEX
  8
SURFACE
 62
7
  6
CONTINUOUS
 10
158.4595738242
 20
101.0029003376
  0
VERTEX
  8
SURFACE
 62
7
  6
CONTINUOUS
 10
158.476502644
 20
101.5217202275
  0
VERTEX
  8
SURFACE
 62
7
  6
CONTINUOUS
 10
158.5331714183
 20
101.9827882787
  0
VERTEX
  8
SURFACE
 62
7
  6
CONTINUOUS
 10
158.6266639708
 20
102.3216782333
  0
VERTEX
  8
SURFACE
 62
7
  6
CONTINUOUS
 10
158.7516368034
 20
102.5643344087
  0
VERTEX
  8
SURFACE
 62
7
  6
CONTINUOUS
 10
158.8984699588
 20
102.7302580795
  0
VERTEX
  8
SURFACE
 62
7
  6
CONTINUOUS
 10
159.0589073015
 20
102.8370379669
  0
VERTEX
  8
SURFACE
 62
7
  6
CONTINUOUS
 10
159.226676113
 20
102.8966931924
  0
SEQEND
  0
POLYLINE
  8
SURFACE
 62
7
  6
CONTINUOUS
 66
1
 70
0
  0
VERTEX
  8
SURFACE
 62
7
  6
CONTINUOUS
 10
155.5190549384
 20
107.8049746328
  0
VERTEX
  8
SURFACE
 62
7
  6
CONTINUOUS
 10
155.5186372772
 20
107.8019391399
  0
VERTEX
  8
SURFACE
 62
7
  6
CONTINUOUS
 10
155.4960028356
 20
107.7427304026
  0
VERTEX
  8
SURFACE
 62
7
  6
CONTINUOUS
 10
155.4129392405
 20
107.6189981414
  0
VERTEX
  8
SURFACE
 62
7
  6
CONTINUOUS
 10
155.340941462
 20
107.5369111899
  0
VERTEX
  8
SURFACE
 62
7
  6
CONTINUOUS
 10
155.125494736
 20
107.3418569571
  0
VERTEX
  8
SURFACE
 62
7
  6
CONTINUOUS
 10
155.0332334336
 20
107.2721629816
  0
SEQEND
  0
POLYLINE
  8
SURFACE
 62
7
  6
CONTINUOUS
 66
1
 70
0
  0
VERTEX
  8
SURFACE
 62
7
  6
CONTINUOUS
 10
205.8286673501
 20
107.2721698181
  0
VERTEX
  8
SURFACE
 62
7
  6
CONTINUOUS
 10
205.6995247514
 20
107.1948666942
  0
VERTEX
  8
SURFACE
 62
7
  6
CONTINUOUS
 10
205.4872357596
 20
107.1218419819
  0
VERTEX
  8
SURFACE
 62
7
  6
CONTINUOUS
 10
205.2971130145
 20
107.1019241945
  0
SEQEND
  0
POLYLINE
  8
SURFACE
 62
7
  6
CONTINUOUS
 66
1
 70
0
  0
VERTEX
  8
SURFACE
 62
7
  6
CONTINUOUS
 10
192.5602774705
 20
94.7336308357
  0
VERTEX
  8
SURFACE
 62
7
  6
CONTINUOUS
 10
192.689409974
 20
94.8109290251
  0
VERTEX
  8
SURFACE
 62
7
  6
CONTINUOUS
 10
192.9017038086
 20
94.8839575737
  0
VERTEX
  8
SURFACE
 62
7
  6
CONTINUOUS
 10
193.0918318216
 20
94.9038764801
  0
SEQEND
  0
POLYLINE
  8
SURFACE
 62
7
  6
CONTINUOUS
 66
1
 70
0
  0
VERTEX
  8
SURFACE
 62
7
  6
CONTINUOUS
 10
264.238379088
 20
108.475178187
  0
VERTEX
  8
SURFACE
 62
7
  6
CONTINUOUS
 10
264.1612924558
 20
108.4903049332
  0
VERTEX
  8
SURFACE
 62
7
  6
CONTINUOUS
 10
264.0780575187
 20
108.4983048831
  0
VERTEX
  8
SURFACE
 62
7
  6
CONTINUOUS
 10
263.980462197
 20
108.5021115456
  0
VERTEX
  8
SURFACE
 62
7
  6
CONTINUOUS
 10
263.8929774959
 20
108.5029003357
  0
SEQEND
  0
POLYLINE
  8
SURFACE
 62
7
  6
CONTINUOUS
 66
1
 70
0
  0
VERTEX
  8
SURFACE
 62
7
  6
CONTINUOUS
 10
315.0351709183
 20
108.4748097719
  0
VERTEX
  8
SURFACE
 62
7
  6
CONTINUOUS
 10
314.9581723639
 20
108.4901037106
  0
VERTEX
  8
SURFACE
 62
7
  6
CONTINUOUS
 10
314.8751601613
 20
108.4981980123
  0
VERTEX
  8
SURFACE
 62
7
  6
CONTINUOUS
 10
314.7778933658
 20
108.5020708191
  0
VERTEX
  8
SURFACE
 62
7
  6
CONTINUOUS
 10
314.6883912156
 20
108.5029003359
  0
SEQEND
  0
POLYLINE
  8
SURFACE
 62
7
  6
CONTINUOUS
 66
1
 70
0
  0
VERTEX
  8
SURFACE
 62
7
  6
CONTINUOUS
 10
287.5327236039
 20
103.3500278107
  0
VERTEX
  8
SURFACE
 62
7
  6
CONTINUOUS
 10
287.2513995443
 20
103.415512484
  0
VERTEX
  8
SURFACE
 62
7
  6
CONTINUOUS
 10
286.9684319027
 20
103.526228672
  0
VERTEX
  8
SURFACE
 62
7
  6
CONTINUOUS
 10
286.7115122825
 20
103.6658203866
  0
VERTEX
  8
SURFACE
 62
7
  6
CONTINUOUS
 10
286.6003926442
 20
103.7389554592
  0
VERTEX
  8
SURFACE
 62
7
  6
CONTINUOUS
 10
286.4272955777
 20
103.8745228427
  0
VERTEX
  8
SURFACE
 62
7
  6
CONTINUOUS
 10
286.3260088793
 20
103.9812484266
  0
VERTEX
  8
SURFACE
 62
7
  6
CONTINUOUS
 10
286.2931958704
 20
104.054101486
  0
SEQEND
  0
POLYLINE
  8
SURFACE
 62
7
  6
CONTINUOUS
 66
1
 70
0
  0
VERTEX
  8
SURFACE
 62
7
  6
CONTINUOUS
 10
239.1714193471
 20
102.8966931924
  0
VERTEX
  8
SURFACE
 62
7
  6
CONTINUOUS
 10
239.3391625048
 20
102.8370506638
  0
VERTEX
  8
SURFACE
 62
7
  6
CONTINUOUS
 10
239.4995608135
 20
102.7303140052
  0
VERTEX
  8
SURFACE
 62
7
  6
CONTINUOUS
 10
239.6463640913
 20
102.5644726269
  0
VERTEX
  8
SURFACE
 62
7
  6
CONTINUOUS
 10
239.7713826975
 20
102.3218049577
  0
VERTEX
  8
SURFACE
 62
7
  6
CONTINUOUS
 10
239.8649462992
 20
101.9826719512
  0
VERTEX
  8
SURFACE
 62
7
  6
CONTINUOUS
 10
239.9215932992
 20
101.5217133607
  0
VERTEX
  8
SURFACE
 62
7
  6
CONTINUOUS
 10
239.9385216359
 20
101.0029003376
  0
SEQEND
  0
POLYLINE
  8
SURFACE
 62
7
  6
CONTINUOUS
 66
1
 70
0
  0
VERTEX
  8
SURFACE
 62
7
  6
CONTINUOUS
 10
205.8286579255
 20
94.7336378345
  0
VERTEX
  8
SURFACE
 62
7
  6
CONTINUOUS
 10
205.9216922963
 20
94.6633316417
  0
VERTEX
  8
SURFACE
 62
7
  6
CONTINUOUS
 10
206.1364343158
 20
94.468817534
  0
VERTEX
  8
SURFACE
 62
7
  6
CONTINUOUS
 10
206.2083455121
 20
94.3868254537
  0
VERTEX
  8
SURFACE
 62
7
  6
CONTINUOUS
 10
206.2914457564
 20
94.2630346933
  0
VERTEX
  8
SURFACE
 62
7
  6
CONTINUOUS
 10
206.314065192
 20
94.2038426152
  0
VERTEX
  8
SURFACE
 62
7
  6
CONTINUOUS
 10
206.3144796955
 20
94.2008228117
  0
SEQEND
  0
POLYLINE
  8
SURFACE
 62
7
  6
CONTINUOUS
 66
1
 70
0
  0
VERTEX
  8
SURFACE
 62
7
  6
CONTINUOUS
 10
192.5602867932
 20
107.2721629342
  0
VERTEX
  8
SURFACE
 62
7
  6
CONTINUOUS
 10
192.4672552905
 20
107.3424668786
  0
VERTEX
  8
SURFACE
 62
7
  6
CONTINUOUS
 10
192.2525118933
 20
107.536981724
  0
VERTEX
  8
SURFACE
 62
7
  6
CONTINUOUS
 10
192.1806001576
 20
107.6189742144
  0
VERTEX
  8
SURFACE
 62
7
  6
CONTINUOUS
 10
192.097499288
 20
107.7427656234
  0
VERTEX
  8
SURFACE
 62
7
  6
CONTINUOUS
 10
192.0748796762
 20
107.8019580361
  0
VERTEX
  8
SURFACE
 62
7
  6
CONTINUOUS
 10
192.0744651666
 20
107.8049778624
  0
SEQEND
  0
POLYLINE
  8
SURFACE
 62
7
  6
CONTINUOUS
 66
1
 70
0
  0
VERTEX
  8
SURFACE
 62
7
  6
CONTINUOUS
 10
162.9003242907
 20
108.1571176921
  0
VERTEX
  8
SURFACE
 62
7
  6
CONTINUOUS
 10
162.8828731016
 20
108.2605546574
  0
VERTEX
  8
SURFACE
 62
7
  6
CONTINUOUS
 10
162.8327378089
 20
108.3523311669
  0
VERTEX
  8
SURFACE
 62
7
  6
CONTINUOUS
 10
162.7588088685
 20
108.4213300373
  0
VERTEX
  8
SURFACE
 62
7
  6
CONTINUOUS
 10
162.6775679599
 20
108.4628009623
  0
VERTEX
  8
SURFACE
 62
7
  6
CONTINUOUS
 10
162.638379088
 20
108.475178187
  0
SEQEND
  0
POLYLINE
  8
SURFACE
 62
7
  6
CONTINUOUS
 66
1
 70
0
  0
VERTEX
  8
SURFACE
 62
7
  6
CONTINUOUS
 10
286.554593934
 20
108.4750312486
  0
VERTEX
  8
SURFACE
 62
7
  6
CONTINUOUS
 10
286.5153521249
 20
108.4625795346
  0
VERTEX
  8
SURFACE
 62
7
  6
CONTINUOUS
 10
286.4340733941
 20
108.4208935709
  0
VERTEX
  8
SURFACE
 62
7
  6
CONTINUOUS
 10
286.3604032106
 20
108.3518463154
  0
VERTEX
  8
SURFACE
 62
7
  6
CONTINUOUS
 10
286.3105670652
 20
108.2603240579
  0
VERTEX
  8
SURFACE
 62
7
  6
CONTINUOUS
 10
286.2931958705
 20
108.1571176962
  0
SEQEND
  0
POLYLINE
  8
SURFACE
 62
7
  6
CONTINUOUS
 66
1
 70
0
  0
VERTEX
  8
SURFACE
 62
7
  6
CONTINUOUS
 10
189.1339463369
 20
101.0029003376
  0
VERTEX
  8
SURFACE
 62
7
  6
CONTINUOUS
 10
189.1170175171
 20
101.5217202275
  0
VERTEX
  8
SURFACE
 62
7
  6
CONTINUOUS
 10
189.0603487428
 20
101.9827882787
  0
VERTEX
  8
SURFACE
 62
7
  6
CONTINUOUS
 10
188.9668561903
 20
102.3216782333
  0
VERTEX
  8
SURFACE
 62
7
  6
CONTINUOUS
 10
188.8418833577
 20
102.5643344087
  0
VERTEX
  8
SURFACE
 62
7
  6
CONTINUOUS
 10
188.6950502023
 20
102.7302580795
  0
VERTEX
  8
SURFACE
 62
7
  6
CONTINUOUS
 10
188.5346128596
 20
102.8370379669
  0
VERTEX
  8
SURFACE
 62
7
  6
CONTINUOUS
 10
188.3668440481
 20
102.8966931924
  0
SEQEND
  0
LINE
  8
SURFACE
 62
7
  6
CONTINUOUS
 10
192.0744651656
 20
107.8049778624
 11
192.0674280131
 21
108.2081360596
  0
LINE
  8
SURFACE
 62
7
  6
CONTINUOUS
 10
184.6931958704
 20
108.1571206458
 11
184.6931958704
 21
104.054101486
  0
LINE
  8
SURFACE
 62
7
  6
CONTINUOUS
 10
189.1931958704
 20
93.8029003376
 11
189.1931958704
 21
106.3265861343
  0
LINE
  8
SURFACE
 62
7
  6
CONTINUOUS
 10
192.0744650856
 20
94.2008182312
 11
192.0674280153
 21
93.7976647445
  0
POLYLINE
  8
SURFACE
 62
7
  6
CONTINUOUS
 66
1
 70
0
  0
VERTEX
  8
SURFACE
 62
7
  6
CONTINUOUS
 10
192.0744650871
 20
94.2008182312
  0
VERTEX
  8
SURFACE
 62
7
  6
CONTINUOUS
 10
192.0748389862
 20
94.2036000076
  0
VERTEX
  8
SURFACE
 62
7
  6
CONTINUOUS
 10
192.0969938489
 20
94.2620447986
  0
VERTEX
  8
SURFACE
 62
7
  6
CONTINUOUS
 10
192.1794558902
 20
94.3854009613
  0
VERTEX
  8
SURFACE
 62
7
  6
CONTINUOUS
 10
192.2510287175
 20
94.4672507267
  0
VERTEX
  8
SURFACE
 62
7
  6
CONTINUOUS
 10
192.4650454039
 20
94.6615809013
  0
VERTEX
  8
SURFACE
 62
7
  6
CONTINUOUS
 10
192.5602717389
 20
94.7336265599
  0
SEQEND
  0
POLYLINE
  8
SURFACE
 62
7
  6
CONTINUOUS
 66
1
 70
0
  0
VERTEX
  8
SURFACE
 62
7
  6
CONTINUOUS
 10
256.6332392964
 20
107.272167144
  0
VERTEX
  8
SURFACE
 62
7
  6
CONTINUOUS
 10
256.5042289327
 20
107.1949295896
  0
VERTEX
  8
SURFACE
 62
7
  6
CONTINUOUS
 10
256.2918790153
 20
107.1218564591
  0
VERTEX
  8
SURFACE
 62
7
  6
CONTINUOUS
 10
256.1016887177
 20
107.1019241107
  0
SEQEND
  0
POLYLINE
  8
SURFACE
 62
7
  6
CONTINUOUS
 66
1
 70
0
  0
VERTEX
  8
SURFACE
 62
7
  6
CONTINUOUS
 10
243.3648563208
 20
94.7336336372
  0
VERTEX
  8
SURFACE
 62
7
  6
CONTINUOUS
 10
243.4938589228
 20
94.810867355
  0
VERTEX
  8
SURFACE
 62
7
  6
CONTINUOUS
 10
243.7062126579
 20
94.8839434134
  0
VERTEX
  8
SURFACE
 62
7
  6
CONTINUOUS
 10
243.8964067244
 20
94.9038765646
  0
SEQEND
  0
POLYLINE
  8
SURFACE
 62
7
  6
CONTINUOUS
 66
1
 70
0
  0
VERTEX
  8
SURFACE
 62
7
  6
CONTINUOUS
 10
311.622100814
 20
102.8966931924
  0
VERTEX
  8
SURFACE
 62
7
  6
CONTINUOUS
 10
311.4543576563
 20
102.8370506638
  0
VERTEX
  8
SURFACE
 62
7
  6
CONTINUOUS
 10
311.2939593476
 20
102.7303140052
  0
VERTEX
  8
SURFACE
 62
7
  6
CONTINUOUS
 10
311.1471560698
 20
102.5644726269
  0
VERTEX
  8
SURFACE
 62
7
  6
CONTINUOUS
 10
311.0221374636
 20
102.3218049577
  0
VERTEX
  8
SURFACE
 62
7
  6
CONTINUOUS
 10
310.9285738619
 20
101.9826719512
  0
VERTEX
  8
SURFACE
 62
7
  6
CONTINUOUS
 10
310.8719268619
 20
101.5217133607
  0
VERTEX
  8
SURFACE
 62
7
  6
CONTINUOUS
 10
310.8549985252
 20
101.0029003376
  0
SEQEND
  0
POLYLINE
  8
SURFACE
 62
7
  6
CONTINUOUS
 66
1
 70
0
  0
VERTEX
  8
SURFACE
 62
7
  6
CONTINUOUS
 10
256.6332484735
 20
94.7336265228
  0
VERTEX
  8
SURFACE
 62
7
  6
CONTINUOUS
 10
256.7277884596
 20
94.6621257285
  0
VERTEX
  8
SURFACE
 62
7
  6
CONTINUOUS
 10
256.9423571575
 20
94.4673928875
  0
VERTEX
  8
SURFACE
 62
7
  6
CONTINUOUS
 10
257.0140226251
 20
94.3854529288
  0
VERTEX
  8
SURFACE
 62
7
  6
CONTINUOUS
 10
257.0965015407
 20
94.2620934767
  0
VERTEX
  8
SURFACE
 62
7
  6
CONTINUOUS
 10
257.1186788543
 20
94.2036140407
  0
VERTEX
  8
SURFACE
 62
7
  6
CONTINUOUS
 10
257.119055035
 20
94.2008204772
  0
SEQEND
  0
LINE
  8
SURFACE
 62
7
  6
CONTINUOUS
 10
206.3144790322
 20
94.2008608725
 11
206.321516849
 21
93.7976646157
  0
LINE
  8
SURFACE
 62
7
  6
CONTINUOUS
 10
209.1957489917
 20
93.8029003376
 11
209.1957489917
 21
106.3265861343
  0
LINE
  8
SURFACE
 62
7
  6
CONTINUOUS
 10
206.321516849
 20
108.2081360596
 11
206.3144790322
 21
107.8049398027
  0
POLYLINE
  8
SURFACE
 62
7
  6
CONTINUOUS
 66
1
 70
0
  0
VERTEX
  8
SURFACE
 62
7
  6
CONTINUOUS
 10
206.3144797751
 20
107.8049824488
  0
VERTEX
  8
SURFACE
 62
7
  6
CONTINUOUS
 10
206.3141058809
 20
107.8022006813
  0
VERTEX
  8
SURFACE
 62
7
  6
CONTINUOUS
 10
206.2919511534
 20
107.7437561542
  0
VERTEX
  8
SURFACE
 62
7
  6
CONTINUOUS
 10
206.2094896071
 20
107.6204005079
  0
VERTEX
  8
SURFACE
 62
7
  6
CONTINUOUS
 10
206.1379172148
 20
107.5385510775
  0
VERTEX
  8
SURFACE
 62
7
  6
CONTINUOUS
 10
205.9239016684
 20
107.3442215268
  0
VERTEX
  8
SURFACE
 62
7
  6
CONTINUOUS
 10
205.8286731707
 20
107.272174156
  0
SEQEND
  0
POLYLINE
  8
SURFACE
 62
7
  6
CONTINUOUS
 66
1
 70
0
  0
VERTEX
  8
SURFACE
 62
7
  6
CONTINUOUS
 10
213.6957489917
 20
104.054101486
  0
VERTEX
  8
SURFACE
 62
7
  6
CONTINUOUS
 10
213.662936699
 20
103.9812493991
  0
VERTEX
  8
SURFACE
 62
7
  6
CONTINUOUS
 10
213.5616488129
 20
103.8745224203
  0
VERTEX
  8
SURFACE
 62
7
  6
CONTINUOUS
 10
213.388563516
 20
103.7389633518
  0
VERTEX
  8
SURFACE
 62
7
  6
CONTINUOUS
 10
213.2774191216
 20
103.665812038
  0
VERTEX
  8
SURFACE
 62
7
  6
CONTINUOUS
 10
213.0204094997
 20
103.5261800711
  0
VERTEX
  8
SURFACE
 62
7
  6
CONTINUOUS
 10
212.7373609282
 20
103.4154548661
  0
VERTEX
  8
SURFACE
 62
7
  6
CONTINUOUS
 10
212.4562212582
 20
103.3500278107
  0
SEQEND
  0
POLYLINE
  8
SURFACE
 62
7
  6
CONTINUOUS
 66
1
 70
0
  0
VERTEX
  8
SURFACE
 62
7
  6
CONTINUOUS
 10
243.3648469409
 20
107.2721741917
  0
VERTEX
  8
SURFACE
 62
7
  6
CONTINUOUS
 10
243.2703045725
 20
107.343676871
  0
VERTEX
  8
SURFACE
 62
7
  6
CONTINUOUS
 10
243.0557378633
 20
107.5384082487
  0
VERTEX
  8
SURFACE
 62
7
  6
CONTINUOUS
 10
242.9840727159
 20
107.6203478965
  0
VERTEX
  8
SURFACE
 62
7
  6
CONTINUOUS
 10
242.9015938514
 20
107.7437073344
  0
VERTEX
  8
SURFACE
 62
7
  6
CONTINUOUS
 10
242.8794165968
 20
107.8021866724
  0
VERTEX
  8
SURFACE
 62
7
  6
CONTINUOUS
 10
242.8790404249
 20
107.8049802103
  0
SEQEND
  0
LINE
  8
SURFACE
 62
7
  6
CONTINUOUS
 10
213.6957489917
 20
104.054101486
 11
213.6957489917
 21
108.1571206458
  0
POLYLINE
  8
SURFACE
 62
7
  6
CONTINUOUS
 66
1
 70
0
  0
VERTEX
  8
SURFACE
 62
7
  6
CONTINUOUS
 10
307.4286673501
 20
107.2721698181
  0
VERTEX
  8
SURFACE
 62
7
  6
CONTINUOUS
 10
307.2995247514
 20
107.1948666942
  0
VERTEX
  8
SURFACE
 62
7
  6
CONTINUOUS
 10
307.0872357596
 20
107.1218419819
  0
VERTEX
  8
SURFACE
 62
7
  6
CONTINUOUS
 10
306.8971130145
 20
107.1019241945
  0
SEQEND
  0
POLYLINE
  8
SURFACE
 62
7
  6
CONTINUOUS
 66
1
 70
0
  0
VERTEX
  8
SURFACE
 62
7
  6
CONTINUOUS
 10
294.1602774705
 20
94.7336308357
  0
VERTEX
  8
SURFACE
 62
7
  6
CONTINUOUS
 10
294.289409974
 20
94.8109290251
  0
VERTEX
  8
SURFACE
 62
7
  6
CONTINUOUS
 10
294.5017038086
 20
94.8839575737
  0
VERTEX
  8
SURFACE
 62
7
  6
CONTINUOUS
 10
294.6918318216
 20
94.9038764801
  0
SEQEND
  0
POLYLINE
  8
SURFACE
 62
7
  6
CONTINUOUS
 66
1
 70
0
  0
VERTEX
  8
SURFACE
 62
7
  6
CONTINUOUS
 10
235.4977711694
 20
104.054101486
  0
VERTEX
  8
SURFACE
 62
7
  6
CONTINUOUS
 10
235.5305834621
 20
103.9812493991
  0
VERTEX
  8
SURFACE
 62
7
  6
CONTINUOUS
 10
235.6318713482
 20
103.8745224203
  0
VERTEX
  8
SURFACE
 62
7
  6
CONTINUOUS
 10
235.8049566451
 20
103.7389633518
  0
VERTEX
  8
SURFACE
 62
7
  6
CONTINUOUS
 10
235.9161010395
 20
103.665812038
  0
VERTEX
  8
SURFACE
 62
7
  6
CONTINUOUS
 10
236.1731106614
 20
103.5261800711
  0
VERTEX
  8
SURFACE
 62
7
  6
CONTINUOUS
 10
236.456159233
 20
103.4154548661
  0
VERTEX
  8
SURFACE
 62
7
  6
CONTINUOUS
 10
236.7372989029
 20
103.3500278107
  0
SEQEND
  0
POLYLINE
  8
SURFACE
 62
7
  6
CONTINUOUS
 66
1
 70
0
  0
VERTEX
  8
SURFACE
 62
7
  6
CONTINUOUS
 10
213.6957489916
 20
108.1571178115
  0
VERTEX
  8
SURFACE
 62
7
  6
CONTINUOUS
 10
213.6784776034
 20
108.2600357348
  0
VERTEX
  8
SURFACE
 62
7
  6
CONTINUOUS
 10
213.628821919
 20
108.3514868413
  0
VERTEX
  8
SURFACE
 62
7
  6
CONTINUOUS
 10
213.555411311
 20
108.4205225569
  0
VERTEX
  8
SURFACE
 62
7
  6
CONTINUOUS
 10
213.4743391854
 20
108.4623026183
  0
VERTEX
  8
SURFACE
 62
7
  6
CONTINUOUS
 10
213.4351709183
 20
108.4748097719
  0
SEQEND
  0
LINE
  8
SURFACE
 62
7
  6
CONTINUOUS
 10
235.4977711694
 20
104.054101486
 11
235.4977711694
 21
108.1571206458
  0
LINE
  8
SURFACE
 62
7
  6
CONTINUOUS
 10
239.9977711694
 20
93.8029003376
 11
239.9977711694
 21
106.3265861343
  0
POLYLINE
  8
SURFACE
 62
7
  6
CONTINUOUS
 66
1
 70
0
  0
VERTEX
  8
SURFACE
 62
7
  6
CONTINUOUS
 10
307.4286579255
 20
94.7336378345
  0
VERTEX
  8
SURFACE
 62
7
  6
CONTINUOUS
 10
307.5216922963
 20
94.6633316417
  0
VERTEX
  8
SURFACE
 62
7
  6
CONTINUOUS
 10
307.7364343158
 20
94.468817534
  0
VERTEX
  8
SURFACE
 62
7
  6
CONTINUOUS
 10
307.8083455121
 20
94.3868254537
  0
VERTEX
  8
SURFACE
 62
7
  6
CONTINUOUS
 10
307.8914457564
 20
94.2630346933
  0
VERTEX
  8
SURFACE
 62
7
  6
CONTINUOUS
 10
307.914065192
 20
94.2038426152
  0
VERTEX
  8
SURFACE
 62
7
  6
CONTINUOUS
 10
307.9144796955
 20
94.2008228117
  0
SEQEND
  0
POLYLINE
  8
SURFACE
 62
7
  6
CONTINUOUS
 66
1
 70
0
  0
VERTEX
  8
SURFACE
 62
7
  6
CONTINUOUS
 10
294.1602867932
 20
107.2721629342
  0
VERTEX
  8
SURFACE
 62
7
  6
CONTINUOUS
 10
294.0672552905
 20
107.3424668786
  0
VERTEX
  8
SURFACE
 62
7
  6
CONTINUOUS
 10
293.8525118933
 20
107.536981724
  0
VERTEX
  8
SURFACE
 62
7
  6
CONTINUOUS
 10
293.7806001576
 20
107.6189742144
  0
VERTEX
  8
SURFACE
 62
7
  6
CONTINUOUS
 10
293.697499288
 20
107.7427656234
  0
VERTEX
  8
SURFACE
 62
7
  6
CONTINUOUS
 10
293.6748796762
 20
107.8019580361
  0
VERTEX
  8
SURFACE
 62
7
  6
CONTINUOUS
 10
293.6744651666
 20
107.8049778624
  0
SEQEND
  0
LINE
  8
SURFACE
 62
7
  6
CONTINUOUS
 10
242.8720033121
 20
108.2081360596
 11
242.8790411289
 21
107.8049398027
  0
LINE
  8
SURFACE
 62
7
  6
CONTINUOUS
 10
242.8790411289
 20
94.2008608725
 11
242.8720033121
 21
93.7976646157
  0
POLYLINE
  8
SURFACE
 62
7
  6
CONTINUOUS
 66
1
 70
0
  0
VERTEX
  8
SURFACE
 62
7
  6
CONTINUOUS
 10
242.8790405216
 20
94.200826035
  0
VERTEX
  8
SURFACE
 62
7
  6
CONTINUOUS
 10
242.8794581737
 20
94.203861493
  0
VERTEX
  8
SURFACE
 62
7
  6
CONTINUOUS
 10
242.9020925292
 20
94.2630700843
  0
VERTEX
  8
SURFACE
 62
7
  6
CONTINUOUS
 10
242.9851559617
 20
94.3868022105
  0
VERTEX
  8
SURFACE
 62
7
  6
CONTINUOUS
 10
243.0571533643
 20
94.4688888211
  0
VERTEX
  8
SURFACE
 62
7
  6
CONTINUOUS
 10
243.2725981188
 20
94.6639416597
  0
VERTEX
  8
SURFACE
 62
7
  6
CONTINUOUS
 10
243.3648621692
 20
94.7336377866
  0
SEQEND
  0
LINE
  8
SURFACE
 62
7
  6
CONTINUOUS
 10
257.1190550363
 20
94.2008204772
 11
257.1260921458
 21
93.7976647445
  0
LINE
  8
SURFACE
 62
7
  6
CONTINUOUS
 10
260.0003242907
 20
93.8029003376
 11
260.0003242907
 21
106.3265861343
  0
LINE
  8
SURFACE
 62
7
  6
CONTINUOUS
 10
264.5003242907
 20
104.054101486
 11
264.5003242907
 21
108.1571206458
  0
LINE
  8
SURFACE
 62
7
  6
CONTINUOUS
 10
257.1190549392
 20
107.8049746328
 11
257.126092148
 21
108.2081360596
  0
POLYLINE
  8
SURFACE
 62
7
  6
CONTINUOUS
 66
1
 70
0
  0
VERTEX
  8
SURFACE
 62
7
  6
CONTINUOUS
 10
260.0595738242
 20
101.0029003376
  0
VERTEX
  8
SURFACE
 62
7
  6
CONTINUOUS
 10
260.076502644
 20
101.5217202275
  0
VERTEX
  8
SURFACE
 62
7
  6
CONTINUOUS
 10
260.1331714183
 20
101.9827882787
  0
VERTEX
  8
SURFACE
 62
7
  6
CONTINUOUS
 10
260.2266639708
 20
102.3216782333
  0
VERTEX
  8
SURFACE
 62
7
  6
CONTINUOUS
 10
260.3516368034
 20
102.5643344087
  0
VERTEX
  8
SURFACE
 62
7
  6
CONTINUOUS
 10
260.4984699588
 20
102.7302580795
  0
VERTEX
  8
SURFACE
 62
7
  6
CONTINUOUS
 10
260.6589073015
 20
102.8370379669
  0
VERTEX
  8
SURFACE
 62
7
  6
CONTINUOUS
 10
260.826676113
 20
102.8966931924
  0
SEQEND
  0
POLYLINE
  8
SURFACE
 62
7
  6
CONTINUOUS
 66
1
 70
0
  0
VERTEX
  8
SURFACE
 62
7
  6
CONTINUOUS
 10
257.1190549384
 20
107.8049746328
  0
VERTEX
  8
SURFACE
 62
7
  6
CONTINUOUS
 10
257.1186372772
 20
107.8019391399
  0
VERTEX
  8
SURFACE
 62
7
  6
CONTINUOUS
 10
257.0960028356
 20
107.7427304026
  0
VERTEX
  8
SURFACE
 62
7
  6
CONTINUOUS
 10
257.0129392405
 20
107.6189981414
  0
VERTEX
  8
SURFACE
 62
7
  6
CONTINUOUS
 10
256.940941462
 20
107.5369111899
  0
VERTEX
  8
SURFACE
 62
7
  6
CONTINUOUS
 10
256.725494736
 20
107.3418569571
  0
VERTEX
  8
SURFACE
 62
7
  6
CONTINUOUS
 10
256.6332334336
 20
107.2721629816
  0
SEQEND
  0
POLYLINE
  8
SURFACE
 62
7
  6
CONTINUOUS
 66
1
 70
0
  0
VERTEX
  8
SURFACE
 62
7
  6
CONTINUOUS
 10
264.5003242907
 20
108.1571176921
  0
VERTEX
  8
SURFACE
 62
7
  6
CONTINUOUS
 10
264.4828731016
 20
108.2605546575
  0
VERTEX
  8
SURFACE
 62
7
  6
CONTINUOUS
 10
264.4327378089
 20
108.3523311669
  0
VERTEX
  8
SURFACE
 62
7
  6
CONTINUOUS
 10
264.3588088685
 20
108.4213300373
  0
VERTEX
  8
SURFACE
 62
7
  6
CONTINUOUS
 10
264.2775679599
 20
108.4628009623
  0
VERTEX
  8
SURFACE
 62
7
  6
CONTINUOUS
 10
264.238379088
 20
108.475178187
  0
SEQEND
  0
POLYLINE
  8
SURFACE
 62
7
  6
CONTINUOUS
 66
1
 70
0
  0
VERTEX
  8
SURFACE
 62
7
  6
CONTINUOUS
 10
290.7339463369
 20
101.0029003376
  0
VERTEX
  8
SURFACE
 62
7
  6
CONTINUOUS
 10
290.7170175171
 20
101.5217202275
  0
VERTEX
  8
SURFACE
 62
7
  6
CONTINUOUS
 10
290.6603487428
 20
101.9827882787
  0
VERTEX
  8
SURFACE
 62
7
  6
CONTINUOUS
 10
290.5668561903
 20
102.3216782333
  0
VERTEX
  8
SURFACE
 62
7
  6
CONTINUOUS
 10
290.4418833577
 20
102.5643344087
  0
VERTEX
  8
SURFACE
 62
7
  6
CONTINUOUS
 10
290.2950502023
 20
102.7302580795
  0
VERTEX
  8
SURFACE
 62
7
  6
CONTINUOUS
 10
290.1346128596
 20
102.8370379669
  0
VERTEX
  8
SURFACE
 62
7
  6
CONTINUOUS
 10
289.9668440481
 20
102.8966931924
  0
SEQEND
  0
LINE
  8
SURFACE
 62
7
  6
CONTINUOUS
 10
293.6744658299
 20
107.8049398027
 11
293.6674280131
 21
108.2081360596
  0
LINE
  8
SURFACE
 62
7
  6
CONTINUOUS
 10
286.2931958704
 20
108.1571206458
 11
286.2931958704
 21
104.054101486
  0
LINE
  8
SURFACE
 62
7
  6
CONTINUOUS
 10
290.7931958704
 20
93.8029003376
 11
290.7931958704
 21
106.3265861343
  0
LINE
  8
SURFACE
 62
7
  6
CONTINUOUS
 10
293.6744650856
 20
94.2008182312
 11
293.6674280153
 21
93.7976647445
  0
POLYLINE
  8
SURFACE
 62
7
  6
CONTINUOUS
 66
1
 70
0
  0
VERTEX
  8
SURFACE
 62
7
  6
CONTINUOUS
 10
293.6744650871
 20
94.2008182312
  0
VERTEX
  8
SURFACE
 62
7
  6
CONTINUOUS
 10
293.6748389862
 20
94.2036000076
  0
VERTEX
  8
SURFACE
 62
7
  6
CONTINUOUS
 10
293.6969938489
 20
94.2620447986
  0
VERTEX
  8
SURFACE
 62
7
  6
CONTINUOUS
 10
293.7794558902
 20
94.3854009613
  0
VERTEX
  8
SURFACE
 62
7
  6
CONTINUOUS
 10
293.8510287175
 20
94.4672507267
  0
VERTEX
  8
SURFACE
 62
7
  6
CONTINUOUS
 10
294.0650454039
 20
94.6615809013
  0
VERTEX
  8
SURFACE
 62
7
  6
CONTINUOUS
 10
294.1602717389
 20
94.7336265599
  0
SEQEND
  0
LINE
  8
SURFACE
 62
7
  6
CONTINUOUS
 10
307.9144790322
 20
94.2008608725
 11
307.921516849
 21
93.7976646157
  0
LINE
  8
SURFACE
 62
7
  6
CONTINUOUS
 10
310.7957489917
 20
93.8029003376
 11
310.7957489917
 21
106.3265861343
  0
LINE
  8
SURFACE
 62
7
  6
CONTINUOUS
 10
307.921516849
 20
108.2081360596
 11
307.9144790322
 21
107.8049398027
  0
POLYLINE
  8
SURFACE
 62
7
  6
CONTINUOUS
 66
1
 70
0
  0
VERTEX
  8
SURFACE
 62
7
  6
CONTINUOUS
 10
307.9144797751
 20
107.8049824488
  0
VERTEX
  8
SURFACE
 62
7
  6
CONTINUOUS
 10
307.9141058809
 20
107.8022006813
  0
VERTEX
  8
SURFACE
 62
7
  6
CONTINUOUS
 10
307.8919511534
 20
107.7437561542
  0
VERTEX
  8
SURFACE
 62
7
  6
CONTINUOUS
 10
307.8094896071
 20
107.6204005079
  0
VERTEX
  8
SURFACE
 62
7
  6
CONTINUOUS
 10
307.7379172148
 20
107.5385510775
  0
VERTEX
  8
SURFACE
 62
7
  6
CONTINUOUS
 10
307.5239016684
 20
107.3442215268
  0
VERTEX
  8
SURFACE
 62
7
  6
CONTINUOUS
 10
307.4286731707
 20
107.272174156
  0
SEQEND
  0
POLYLINE
  8
SURFACE
 62
7
  6
CONTINUOUS
 66
1
 70
0
  0
VERTEX
  8
SURFACE
 62
7
  6
CONTINUOUS
 10
315.2957489917
 20
104.054101486
  0
VERTEX
  8
SURFACE
 62
7
  6
CONTINUOUS
 10
315.262936699
 20
103.9812493991
  0
VERTEX
  8
SURFACE
 62
7
  6
CONTINUOUS
 10
315.1616488129
 20
103.8745224203
  0
VERTEX
  8
SURFACE
 62
7
  6
CONTINUOUS
 10
314.988563516
 20
103.7389633518
  0
VERTEX
  8
SURFACE
 62
7
  6
CONTINUOUS
 10
314.8774191216
 20
103.665812038
  0
VERTEX
  8
SURFACE
 62
7
  6
CONTINUOUS
 10
314.6204094997
 20
103.5261800711
  0
VERTEX
  8
SURFACE
 62
7
  6
CONTINUOUS
 10
314.3373609282
 20
103.4154548661
  0
VERTEX
  8
SURFACE
 62
7
  6
CONTINUOUS
 10
314.0562212582
 20
103.3500278107
  0
SEQEND
  0
LINE
  8
SURFACE
 62
7
  6
CONTINUOUS
 10
315.2957489917
 20
104.054101486
 11
315.2957489917
 21
108.1571206458
  0
LINE
  8
0
 62
7
  6
CONTINUOUS
 10
338.8977711694
 20
94.0029003376
 11
338.8977711694
 21
108.0029003376
  0
POLYLINE
  8
SURFACE
 62
7
  6
CONTINUOUS
 66
1
 70
0
  0
VERTEX
  8
SURFACE
 62
7
  6
CONTINUOUS
 10
315.2957489916
 20
108.1571178115
  0
VERTEX
  8
SURFACE
 62
7
  6
CONTINUOUS
 10
315.2784776034
 20
108.2600357348
  0
VERTEX
  8
SURFACE
 62
7
  6
CONTINUOUS
 10
315.228821919
 20
108.3514868413
  0
VERTEX
  8
SURFACE
 62
7
  6
CONTINUOUS
 10
315.155411311
 20
108.4205225569
  0
VERTEX
  8
SURFACE
 62
7
  6
CONTINUOUS
 10
315.0743391854
 20
108.4623026183
  0
VERTEX
  8
SURFACE
 62
7
  6
CONTINUOUS
 10
315.0351709183
 20
108.4748097719
  0
SEQEND
  0
ARC
  8
0
 62
7
  6
CONTINUOUS
 10
65.3228965381
 20
175.3681994109
 40
1.0
 50
245.3800226713
 51
269.9999999998
  0
ARC
  8
0
 62
7
  6
CONTINUOUS
 10
63.1990477301
 20
176.5373942117
 40
1.0
 50
183.0599744973
 51
236.9537462233
  0
ARC
  8
SURFACE
 62
7
  6
CONTINUOUS
 10
79.070623623
 20
175.3681994109
 40
1.0
 50
270.0
 51
294.6199773287
  0
ARC
  8
SURFACE
 62
7
  6
CONTINUOUS
 10
81.194472431
 20
176.5373942117
 40
1.0
 50
303.0462537767
 51
356.9400255027
  0
ARC
  8
0
 62
7
  6
CONTINUOUS
 10
72.1967600806
 20
190.3681994109
 40
17.5
 50
236.9537462233
 51
245.3800226713
  0
ARC
  8
SURFACE
 62
7
  6
CONTINUOUS
 10
72.1967600806
 20
190.3681994109
 40
17.5
 50
294.6199773287
 51
303.0462537767
  0
ARC
  8
0
 62
7
  6
CONTINUOUS
 10
60.1990477301
 20
200.2681994109
 40
2.0
 50
0.0
 51
90.0
  0
ARC
  8
SURFACE
 62
7
  6
CONTINUOUS
 10
84.194472431
 20
200.2681994109
 40
2.0
 50
90.0
 51
180.0
  0
ARC
  8
SURFACE
 62
7
  6
CONTINUOUS
 10
77.1973302315
 20
200.26850409
 40
1.9999999885
 50
0.0
 51
90.0
  0
ARC
  8
0
 62
7
  6
CONTINUOUS
 10
67.1961899296
 20
200.26850409
 40
1.9999999885
 50
90.0
 51
180.0
  0
ARC
  8
0
 62
7
  6
CONTINUOUS
 10
34.5977711694
 20
202.7681994109
 40
0.5
 50
180.0
 51
270.0
  0
ARC
  8
SURFACE
 62
7
  6
CONTINUOUS
 10
113.994472431
 20
176.5388827249
 40
1.0
 50
183.0282723207
 51
236.9442688491
  0
ARC
  8
SURFACE
 62
7
  6
CONTINUOUS
 10
131.994472431
 20
176.5388827249
 40
1.0
 50
303.0557311509
 51
356.9717778898
  0
ARC
  8
SURFACE
 62
7
  6
CONTINUOUS
 10
182.794472431
 20
176.5373942117
 40
1.0
 50
303.0462537767
 51
356.9400255027
  0
ARC
  8
SURFACE
 62
7
  6
CONTINUOUS
 10
180.670623623
 20
175.3681994109
 40
1.0
 50
270.0000000002
 51
294.6199773287
  0
ARC
  8
SURFACE
 62
7
  6
CONTINUOUS
 10
164.7990477301
 20
176.5373942117
 40
1.0
 50
183.0599744973
 51
236.9537462233
  0
ARC
  8
SURFACE
 62
7
  6
CONTINUOUS
 10
166.9228965381
 20
175.3681994109
 40
1.0
 50
245.3800226713
 51
269.9999999998
  0
ARC
  8
SURFACE
 62
7
  6
CONTINUOUS
 10
122.994472431
 20
190.3681994109
 40
17.5
 50
294.6200104651
 51
303.0557311509
  0
ARC
  8
SURFACE
 62
7
  6
CONTINUOUS
 10
122.994472431
 20
190.3681994109
 40
17.5
 50
236.9442688491
 51
245.3800440832
  0
ARC
  8
SURFACE
 62
7
  6
CONTINUOUS
 10
173.7967600806
 20
190.3681994109
 40
17.5
 50
294.6199773287
 51
303.0462537767
  0
ARC
  8
SURFACE
 62
7
  6
CONTINUOUS
 10
173.7967600806
 20
190.3681994109
 40
17.5
 50
236.9537462233
 51
245.3800226713
  0
ARC
  8
SURFACE
 62
7
  6
CONTINUOUS
 10
134.994472431
 20
200.2681994109
 40
2.0
 50
90.0
 51
180.0
  0
ARC
  8
SURFACE
 62
7
  6
CONTINUOUS
 10
110.994472431
 20
200.2681994109
 40
2.0
 50
0.0
 51
90.0
  0
ARC
  8
SURFACE
 62
7
  6
CONTINUOUS
 10
185.794472431
 20
200.2681994109
 40
2.0
 50
90.0
 51
180.0
  0
ARC
  8
SURFACE
 62
7
  6
CONTINUOUS
 10
161.7990477301
 20
200.2681994109
 40
2.0
 50
0.0
 51
90.0
  0
ARC
  8
SURFACE
 62
7
  6
CONTINUOUS
 10
178.7973302315
 20
200.26850409
 40
1.9999999885
 50
0.0
 51
90.0
  0
ARC
  8
SURFACE
 62
7
  6
CONTINUOUS
 10
168.7961899296
 20
200.26850409
 40
1.9999999885
 50
90.0
 51
180.0
  0
ARC
  8
SURFACE
 62
7
  6
CONTINUOUS
 10
117.9941677519
 20
200.26850409
 40
1.9999999885
 50
90.0
 51
180.0
  0
ARC
  8
SURFACE
 62
7
  6
CONTINUOUS
 10
127.9947771102
 20
200.26850409
 40
1.9999999885
 50
0.0
 51
90.0
  0
ARC
  8
0
 62
7
  6
CONTINUOUS
 10
46.7990477301
 20
221.1681994109
 40
17.5
 50
56.9389798146
 51
65.3800226713
  0
ARC
  8
0
 62
7
  6
CONTINUOUS
 10
46.7990477301
 20
221.1681994109
 40
17.5
 50
114.6199773287
 51
123.0610201854
  0
ARC
  8
SURFACE
 62
7
  6
CONTINUOUS
 10
97.594472431
 20
221.1681994109
 40
17.5
 50
114.6199773287
 51
123.0610201854
  0
ARC
  8
SURFACE
 62
7
  6
CONTINUOUS
 10
97.594472431
 20
221.1681994109
 40
17.5
 50
56.9389798146
 51
65.3800226713
  0
ARC
  8
0
 62
7
  6
CONTINUOUS
 10
34.7977711694
 20
211.2681994109
 40
2.0
 50
270.0
 51
360.0
  0
ARC
  8
0
 62
7
  6
CONTINUOUS
 10
58.8003242907
 20
211.2681994109
 40
2.0
 50
180.0
 51
270.0
  0
ARC
  8
SURFACE
 62
7
  6
CONTINUOUS
 10
85.5931958704
 20
211.2681994109
 40
2.0
 50
270.0
 51
360.0
  0
ARC
  8
SURFACE
 62
7
  6
CONTINUOUS
 10
92.5928911913
 20
211.2678947317
 40
1.9999999885
 50
180.0
 51
270.0
  0
ARC
  8
0
 62
7
  6
CONTINUOUS
 10
51.8006289699
 20
211.2678947317
 40
1.9999999885
 50
270.0
 51
360.0
  0
ARC
  8
0
 62
7
  6
CONTINUOUS
 10
41.7974664903
 20
211.2678947317
 40
1.9999999885
 50
180.0
 51
270.0
  0
ARC
  8
0
 62
7
  6
CONTINUOUS
 10
34.5977711694
 20
208.7681994109
 40
0.5
 50
90.0
 51
180.0
  0
ARC
  8
0
 62
7
  6
CONTINUOUS
 10
59.8003242907
 20
231.7160785509
 40
1.5
 50
0.0
 51
80.0
  0
ARC
  8
0
 62
7
  6
CONTINUOUS
 10
59.8003242907
 20
230.6203202708
 40
1.5
 50
280.0
 51
360.0
  0
ARC
  8
0
 62
7
  6
CONTINUOUS
 10
33.7977711694
 20
231.7160785509
 40
1.5
 50
100.0
 51
180.0
  0
ARC
  8
0
 62
7
  6
CONTINUOUS
 10
33.7977711694
 20
230.6203202708
 40
1.5
 50
180.0
 51
260.0
  0
ARC
  8
SURFACE
 62
7
  6
CONTINUOUS
 10
84.5931958704
 20
230.6203202708
 40
1.5
 50
180.0
 51
260.0
  0
ARC
  8
SURFACE
 62
7
  6
CONTINUOUS
 10
84.5931958704
 20
231.7160785509
 40
1.5
 50
100.0
 51
180.0
  0
ARC
  8
0
 62
7
  6
CONTINUOUS
 10
57.8003242907
 20
234.6072990421
 40
1.0
 50
180.0
 51
260.0
  0
ARC
  8
0
 62
7
  6
CONTINUOUS
 10
57.8003242907
 20
227.7290997797
 40
1.0
 50
100.0
 51
180.0
  0
ARC
  8
0
 62
7
  6
CONTINUOUS
 10
35.7977711694
 20
234.6072990421
 40
1.0
 50
280.0
 51
360.0
  0
ARC
  8
0
 62
7
  6
CONTINUOUS
 10
35.7977711694
 20
227.7290997797
 40
1.0
 50
0.0
 51
80.0
  0
ARC
  8
0
 62
7
  6
CONTINUOUS
 10
53.6729112725
 20
236.1681994109
 40
1.0
 50
65.3800226713
 51
89.9999999999
  0
ARC
  8
0
 62
7
  6
CONTINUOUS
 10
55.8003242907
 20
234.9966852383
 40
1.0
 50
3.0123998679
 51
56.9389798146
  0
ARC
  8
0
 62
7
  6
CONTINUOUS
 10
39.9251841876
 20
236.1681994109
 40
1.0
 50
90.0
 51
114.6199773287
  0
ARC
  8
0
 62
7
  6
CONTINUOUS
 10
37.7977711694
 20
234.9966852383
 40
1.0
 50
123.0610201854
 51
176.9873755487
  0
ARC
  8
SURFACE
 62
7
  6
CONTINUOUS
 10
86.5931958704
 20
227.7290997797
 40
1.0
 50
0.0
 51
80.0
  0
ARC
  8
SURFACE
 62
7
  6
CONTINUOUS
 10
86.5931958704
 20
234.6072990421
 40
1.0
 50
280.0
 51
360.0
  0
ARC
  8
SURFACE
 62
7
  6
CONTINUOUS
 10
90.7206088886
 20
236.1681994109
 40
1.0
 50
90.0000000001
 51
114.6199773287
  0
ARC
  8
SURFACE
 62
7
  6
CONTINUOUS
 10
88.5931958704
 20
234.9966852383
 40
1.0
 50
123.0610201854
 51
176.9876001321
  0
ARC
  8
SURFACE
 62
7
  6
CONTINUOUS
 10
148.3990477301
 20
221.1681994109
 40
17.5
 50
114.6199773287
 51
123.0610201854
  0
ARC
  8
SURFACE
 62
7
  6
CONTINUOUS
 10
148.3990477301
 20
221.1681994109
 40
17.5
 50
56.9389798146
 51
65.3800226713
  0
ARC
  8
SURFACE
 62
7
  6
CONTINUOUS
 10
109.5957489917
 20
211.2681994109
 40
2.0
 50
180.0
 51
270.0
  0
ARC
  8
SURFACE
 62
7
  6
CONTINUOUS
 10
160.4003242907
 20
211.2681994109
 40
2.0
 50
180.0
 51
270.0
  0
ARC
  8
SURFACE
 62
7
  6
CONTINUOUS
 10
136.3977711694
 20
211.2681994109
 40
2.0
 50
270.0
 51
360.0
  0
ARC
  8
SURFACE
 62
7
  6
CONTINUOUS
 10
153.4006289699
 20
211.2678947317
 40
1.9999999885
 50
270.0
 51
360.0
  0
ARC
  8
SURFACE
 62
7
  6
CONTINUOUS
 10
143.3974664903
 20
211.2678947317
 40
1.9999999885
 50
180.0
 51
270.0
  0
ARC
  8
SURFACE
 62
7
  6
CONTINUOUS
 10
102.5960536708
 20
211.2678947317
 40
1.9999999885
 50
270.0
 51
360.0
  0
ARC
  8
SURFACE
 62
7
  6
CONTINUOUS
 10
110.5957489917
 20
230.6203202708
 40
1.5
 50
280.0
 51
360.0
  0
ARC
  8
SURFACE
 62
7
  6
CONTINUOUS
 10
110.5957489917
 20
231.7160785509
 40
1.5
 50
0.0
 51
80.0
  0
ARC
  8
SURFACE
 62
7
  6
CONTINUOUS
 10
161.4003242907
 20
231.7160785509
 40
1.5
 50
0.0
 51
80.0
  0
ARC
  8
SURFACE
 62
7
  6
CONTINUOUS
 10
161.4003242907
 20
230.6203202708
 40
1.5
 50
280.0
 51
360.0
  0
ARC
  8
SURFACE
 62
7
  6
CONTINUOUS
 10
135.3977711694
 20
231.7160785509
 40
1.5
 50
100.0
 51
180.0
  0
ARC
  8
SURFACE
 62
7
  6
CONTINUOUS
 10
135.3977711694
 20
230.6203202708
 40
1.5
 50
180.0
 51
260.0
  0
ARC
  8
SURFACE
 62
7
  6
CONTINUOUS
 10
108.5957489917
 20
227.7290997797
 40
1.0
 50
100.0
 51
180.0
  0
ARC
  8
SURFACE
 62
7
  6
CONTINUOUS
 10
108.5957489917
 20
234.6072990421
 40
1.0
 50
180.0
 51
260.0
  0
ARC
  8
SURFACE
 62
7
  6
CONTINUOUS
 10
104.4683359735
 20
236.1681994109
 40
1.0
 50
65.3800226713
 51
90.0
  0
ARC
  8
SURFACE
 62
7
  6
CONTINUOUS
 10
106.5957489917
 20
234.9966852383
 40
1.0
 50
3.0126244513
 51
56.9389798146
  0
ARC
  8
SURFACE
 62
7
  6
CONTINUOUS
 10
139.3977711694
 20
234.9966852383
 40
1.0
 50
123.0610201854
 51
176.9873755487
  0
ARC
  8
SURFACE
 62
7
  6
CONTINUOUS
 10
157.4003242907
 20
234.9966852383
 40
1.0
 50
3.0123998679
 51
56.9389798146
  0
ARC
  8
SURFACE
 62
7
  6
CONTINUOUS
 10
155.2729112725
 20
236.1681994109
 40
1.0
 50
65.3800226713
 51
90.0
  0
ARC
  8
SURFACE
 62
7
  6
CONTINUOUS
 10
141.5251841876
 20
236.1681994109
 40
1.0
 50
90.0000000002
 51
114.6199773287
  0
ARC
  8
SURFACE
 62
7
  6
CONTINUOUS
 10
159.4003242907
 20
234.6072990421
 40
1.0
 50
180.0
 51
260.0
  0
ARC
  8
SURFACE
 62
7
  6
CONTINUOUS
 10
159.4003242907
 20
227.7290997797
 40
1.0
 50
100.0
 51
180.0
  0
ARC
  8
SURFACE
 62
7
  6
CONTINUOUS
 10
137.3977711694
 20
234.6072990421
 40
1.0
 50
280.0
 51
360.0
  0
ARC
  8
SURFACE
 62
7
  6
CONTINUOUS
 10
137.3977711694
 20
227.7290997797
 40
1.0
 50
0.0
 51
80.0
  0
ARC
  8
SURFACE
 62
7
  6
CONTINUOUS
 10
233.594472431
 20
176.5388827249
 40
1.0
 50
303.0557311509
 51
356.9717778898
  0
ARC
  8
SURFACE
 62
7
  6
CONTINUOUS
 10
215.594472431
 20
176.5388827249
 40
1.0
 50
183.0282723207
 51
236.9442688491
  0
ARC
  8
SURFACE
 62
7
  6
CONTINUOUS
 10
268.5228965381
 20
175.3681994109
 40
1.0
 50
245.3800226713
 51
270.0
  0
ARC
  8
SURFACE
 62
7
  6
CONTINUOUS
 10
266.3990477301
 20
176.5373942117
 40
1.0
 50
183.0599744973
 51
236.9537462233
  0
ARC
  8
SURFACE
 62
7
  6
CONTINUOUS
 10
224.594472431
 20
190.3681994109
 40
17.5
 50
236.9442688491
 51
245.3800440832
  0
ARC
  8
SURFACE
 62
7
  6
CONTINUOUS
 10
224.594472431
 20
190.3681994109
 40
17.5
 50
294.6200104652
 51
303.0557311509
  0
ARC
  8
SURFACE
 62
7
  6
CONTINUOUS
 10
275.3967600806
 20
190.3681994109
 40
17.5
 50
236.9537462233
 51
245.3800226713
  0
ARC
  8
SURFACE
 62
7
  6
CONTINUOUS
 10
275.3967600806
 20
190.3681994109
 40
17.5
 50
294.6199773287
 51
303.0462537767
  0
ARC
  8
SURFACE
 62
7
  6
CONTINUOUS
 10
212.594472431
 20
200.2681994109
 40
2.0
 50
0.0
 51
90.0
  0
ARC
  8
SURFACE
 62
7
  6
CONTINUOUS
 10
236.594472431
 20
200.2681994109
 40
2.0
 50
90.0
 51
180.0
  0
ARC
  8
SURFACE
 62
7
  6
CONTINUOUS
 10
263.3990477301
 20
200.2681994109
 40
2.0
 50
0.0
 51
90.0
  0
ARC
  8
SURFACE
 62
7
  6
CONTINUOUS
 10
219.5941677519
 20
200.26850409
 40
1.9999999885
 50
90.0
 51
180.0
  0
ARC
  8
SURFACE
 62
7
  6
CONTINUOUS
 10
229.5947771102
 20
200.26850409
 40
1.9999999885
 50
0.0
 51
90.0
  0
ARC
  8
SURFACE
 62
7
  6
CONTINUOUS
 10
270.3961899296
 20
200.26850409
 40
1.9999999885
 50
90.0
 51
180.0
  0
ARC
  8
SURFACE
 62
7
  6
CONTINUOUS
 10
282.270623623
 20
175.3681994109
 40
1.0
 50
270.0
 51
294.6199773287
  0
ARC
  8
SURFACE
 62
7
  6
CONTINUOUS
 10
284.394472431
 20
176.5373942117
 40
1.0
 50
303.0462537767
 51
356.9400255027
  0
ARC
  8
SURFACE
 62
7
  6
CONTINUOUS
 10
317.194472431
 20
176.5388827249
 40
1.0
 50
183.0282723207
 51
236.9442688491
  0
ARC
  8
SURFACE
 62
7
  6
CONTINUOUS
 10
335.194472431
 20
176.5388827249
 40
1.0
 50
303.0557311509
 51
356.9717778898
  0
ARC
  8
SURFACE
 62
7
  6
CONTINUOUS
 10
326.194472431
 20
190.3681994109
 40
17.5
 50
294.6200104652
 51
303.0557311509
  0
ARC
  8
SURFACE
 62
7
  6
CONTINUOUS
 10
326.194472431
 20
190.3681994109
 40
17.5
 50
236.9442688491
 51
245.3800440832
  0
ARC
  8
SURFACE
 62
7
  6
CONTINUOUS
 10
338.194472431
 20
200.2681994109
 40
2.0
 50
90.0
 51
180.0
  0
ARC
  8
SURFACE
 62
7
  6
CONTINUOUS
 10
314.194472431
 20
200.2681994109
 40
2.0
 50
0.0
 51
90.0
  0
ARC
  8
SURFACE
 62
7
  6
CONTINUOUS
 10
287.394472431
 20
200.2681994109
 40
2.0
 50
90.0
 51
180.0
  0
ARC
  8
SURFACE
 62
7
  6
CONTINUOUS
 10
280.3973302315
 20
200.26850409
 40
1.9999999885
 50
0.0
 51
90.0
  0
ARC
  8
SURFACE
 62
7
  6
CONTINUOUS
 10
321.1941677519
 20
200.26850409
 40
1.9999999885
 50
90.0
 51
180.0
  0
ARC
  8
SURFACE
 62
7
  6
CONTINUOUS
 10
331.1947771102
 20
200.26850409
 40
1.9999999885
 50
0.0
 51
90.0
  0
ARC
  8
0
 62
7
  6
CONTINUOUS
 10
338.3977711694
 20
202.7681994109
 40
0.5
 50
270.0
 51
360.0
  0
ARC
  8
SURFACE
 62
7
  6
CONTINUOUS
 10
199.194472431
 20
221.1681994109
 40
17.5
 50
56.9389798146
 51
65.3800226713
  0
ARC
  8
SURFACE
 62
7
  6
CONTINUOUS
 10
199.194472431
 20
221.1681994109
 40
17.5
 50
114.6199773287
 51
123.0610201854
  0
ARC
  8
SURFACE
 62
7
  6
CONTINUOUS
 10
249.9990477301
 20
221.1681994109
 40
17.5
 50
56.9389798146
 51
65.3800226713
  0
ARC
  8
SURFACE
 62
7
  6
CONTINUOUS
 10
249.9990477301
 20
221.1681994109
 40
17.5
 50
114.6199773287
 51
123.0610201854
  0
ARC
  8
SURFACE
 62
7
  6
CONTINUOUS
 10
187.1931958704
 20
211.2681994109
 40
2.0
 50
270.0
 51
360.0
  0
ARC
  8
SURFACE
 62
7
  6
CONTINUOUS
 10
211.1957489917
 20
211.2681994109
 40
2.0
 50
180.0
 51
270.0
  0
ARC
  8
SURFACE
 62
7
  6
CONTINUOUS
 10
237.9977711694
 20
211.2681994109
 40
2.0
 50
270.0
 51
360.0
  0
ARC
  8
SURFACE
 62
7
  6
CONTINUOUS
 10
262.0003242907
 20
211.2681994109
 40
2.0
 50
180.0
 51
270.0
  0
ARC
  8
SURFACE
 62
7
  6
CONTINUOUS
 10
194.1928911913
 20
211.2678947317
 40
1.9999999885
 50
180.0
 51
270.0
  0
ARC
  8
SURFACE
 62
7
  6
CONTINUOUS
 10
204.1960536708
 20
211.2678947317
 40
1.9999999885
 50
270.0
 51
360.0
  0
ARC
  8
SURFACE
 62
7
  6
CONTINUOUS
 10
255.0006289699
 20
211.2678947317
 40
1.9999999885
 50
270.0
 51
360.0
  0
ARC
  8
SURFACE
 62
7
  6
CONTINUOUS
 10
244.9974664903
 20
211.2678947317
 40
1.9999999885
 50
180.0
 51
270.0
  0
ARC
  8
SURFACE
 62
7
  6
CONTINUOUS
 10
186.1931958704
 20
231.7160785509
 40
1.5
 50
100.0
 51
180.0
  0
ARC
  8
SURFACE
 62
7
  6
CONTINUOUS
 10
186.1931958704
 20
230.6203202708
 40
1.5
 50
180.0
 51
260.0
  0
ARC
  8
SURFACE
 62
7
  6
CONTINUOUS
 10
212.1957489917
 20
231.7160785509
 40
1.5
 50
0.0
 51
80.0
  0
ARC
  8
SURFACE
 62
7
  6
CONTINUOUS
 10
212.1957489917
 20
230.6203202708
 40
1.5
 50
280.0
 51
360.0
  0
ARC
  8
SURFACE
 62
7
  6
CONTINUOUS
 10
188.1931958704
 20
227.7290997797
 40
1.0
 50
0.0
 51
80.0
  0
ARC
  8
SURFACE
 62
7
  6
CONTINUOUS
 10
210.1957489917
 20
227.7290997797
 40
1.0
 50
100.0
 51
180.0
  0
ARC
  8
SURFACE
 62
7
  6
CONTINUOUS
 10
208.1957489917
 20
234.9966852383
 40
1.0
 50
3.0126244513
 51
56.9389798146
  0
ARC
  8
SURFACE
 62
7
  6
CONTINUOUS
 10
190.1931958704
 20
234.9966852383
 40
1.0
 50
123.0610201854
 51
176.9876001321
  0
ARC
  8
SURFACE
 62
7
  6
CONTINUOUS
 10
192.3206088886
 20
236.1681994109
 40
1.0
 50
90.0
 51
114.6199773287
  0
ARC
  8
SURFACE
 62
7
  6
CONTINUOUS
 10
206.0683359735
 20
236.1681994109
 40
1.0
 50
65.3800226713
 51
89.9999999998
  0
ARC
  8
SURFACE
 62
7
  6
CONTINUOUS
 10
188.1931958704
 20
234.6072990421
 40
1.0
 50
280.0
 51
360.0
  0
ARC
  8
SURFACE
 62
7
  6
CONTINUOUS
 10
210.1957489917
 20
234.6072990421
 40
1.0
 50
180.0
 51
260.0
  0
ARC
  8
SURFACE
 62
7
  6
CONTINUOUS
 10
236.9977711694
 20
230.6203202708
 40
1.5
 50
180.0
 51
260.0
  0
ARC
  8
SURFACE
 62
7
  6
CONTINUOUS
 10
236.9977711694
 20
231.7160785509
 40
1.5
 50
100.0
 51
180.0
  0
ARC
  8
SURFACE
 62
7
  6
CONTINUOUS
 10
238.9977711694
 20
227.7290997797
 40
1.0
 50
0.0
 51
80.0
  0
ARC
  8
SURFACE
 62
7
  6
CONTINUOUS
 10
261.0003242907
 20
227.7290997797
 40
1.0
 50
100.0
 51
180.0
  0
ARC
  8
SURFACE
 62
7
  6
CONTINUOUS
 10
238.9977711694
 20
234.6072990421
 40
1.0
 50
280.0
 51
360.0
  0
ARC
  8
SURFACE
 62
7
  6
CONTINUOUS
 10
261.0003242907
 20
234.6072990421
 40
1.0
 50
180.0
 51
260.0
  0
ARC
  8
SURFACE
 62
7
  6
CONTINUOUS
 10
243.1251841876
 20
236.1681994109
 40
1.0
 50
90.0
 51
114.6199773287
  0
ARC
  8
SURFACE
 62
7
  6
CONTINUOUS
 10
256.8729112725
 20
236.1681994109
 40
1.0
 50
65.3800226713
 51
89.9999999999
  0
ARC
  8
SURFACE
 62
7
  6
CONTINUOUS
 10
259.0003242907
 20
234.9966852383
 40
1.0
 50
3.0123998679
 51
56.9389798146
  0
ARC
  8
SURFACE
 62
7
  6
CONTINUOUS
 10
240.9977711694
 20
234.9966852383
 40
1.0
 50
123.0610201854
 51
176.9873755487
  0
ARC
  8
SURFACE
 62
7
  6
CONTINUOUS
 10
300.794472431
 20
221.1681994109
 40
17.5
 50
114.6199773287
 51
123.0610201854
  0
ARC
  8
SURFACE
 62
7
  6
CONTINUOUS
 10
300.794472431
 20
221.1681994109
 40
17.5
 50
56.9389798146
 51
65.3800226713
  0
ARC
  8
SURFACE
 62
7
  6
CONTINUOUS
 10
312.7957489917
 20
211.2681994109
 40
2.0
 50
180.0
 51
270.0
  0
ARC
  8
SURFACE
 62
7
  6
CONTINUOUS
 10
288.7931958704
 20
211.2681994109
 40
2.0
 50
270.0
 51
360.0
  0
ARC
  8
SURFACE
 62
7
  6
CONTINUOUS
 10
295.7928911913
 20
211.2678947317
 40
1.9999999885
 50
180.0
 51
270.0
  0
ARC
  8
SURFACE
 62
7
  6
CONTINUOUS
 10
305.7960536708
 20
211.2678947317
 40
1.9999999885
 50
270.0
 51
360.0
  0
ARC
  8
0
 62
7
  6
CONTINUOUS
 10
338.3977711694
 20
208.7681994109
 40
0.5
 50
0.0
 51
90.0
  0
ARC
  8
SURFACE
 62
7
  6
CONTINUOUS
 10
263.0003242907
 20
230.6203202708
 40
1.5
 50
280.0
 51
360.0
  0
ARC
  8
SURFACE
 62
7
  6
CONTINUOUS
 10
263.0003242907
 20
231.7160785509
 40
1.5
 50
0.0
 51
80.0
  0
ARC
  8
SURFACE
 62
7
  6
CONTINUOUS
 10
313.7957489917
 20
230.6203202708
 40
1.5
 50
280.0
 51
360.0
  0
ARC
  8
SURFACE
 62
7
  6
CONTINUOUS
 10
313.7957489917
 20
231.7160785509
 40
1.5
 50
0.0
 51
80.0
  0
ARC
  8
SURFACE
 62
7
  6
CONTINUOUS
 10
287.7931958704
 20
230.6203202708
 40
1.5
 50
180.0
 51
260.0
  0
ARC
  8
SURFACE
 62
7
  6
CONTINUOUS
 10
287.7931958704
 20
231.7160785509
 40
1.5
 50
100.0
 51
180.0
  0
ARC
  8
SURFACE
 62
7
  6
CONTINUOUS
 10
311.7957489917
 20
227.7290997797
 40
1.0
 50
100.0
 51
180.0
  0
ARC
  8
SURFACE
 62
7
  6
CONTINUOUS
 10
311.7957489917
 20
234.6072990421
 40
1.0
 50
180.0
 51
260.0
  0
ARC
  8
SURFACE
 62
7
  6
CONTINUOUS
 10
289.7931958704
 20
227.7290997797
 40
1.0
 50
0.0
 51
80.0
  0
ARC
  8
SURFACE
 62
7
  6
CONTINUOUS
 10
289.7931958704
 20
234.6072990421
 40
1.0
 50
280.0
 51
360.0
  0
ARC
  8
SURFACE
 62
7
  6
CONTINUOUS
 10
307.6683359735
 20
236.1681994109
 40
1.0
 50
65.3800226713
 51
90.0
  0
ARC
  8
SURFACE
 62
7
  6
CONTINUOUS
 10
293.9206088886
 20
236.1681994109
 40
1.0
 50
90.0000000001
 51
114.6199773287
  0
ARC
  8
SURFACE
 62
7
  6
CONTINUOUS
 10
291.7931958704
 20
234.9966852383
 40
1.0
 50
123.0610201854
 51
176.9876001321
  0
ARC
  8
SURFACE
 62
7
  6
CONTINUOUS
 10
309.7957489917
 20
234.9966852383
 40
1.0
 50
3.0126244513
 51
56.9389798146
  0
ARC
  8
0
 62
7
  6
CONTINUOUS
 10
374.7218433147
 20
202.5681994109
 40
0.3
 50
180.0
 51
270.0
  0
ARC
  8
0
 62
7
  6
CONTINUOUS
 10
374.7218433147
 20
202.6939215768
 40
0.3
 50
199.9209294224
 51
269.0
  0
ARC
  8
SURFACE
 62
7
  6
CONTINUOUS
 10
374.7218433147
 20
202.6939215768
 40
0.3
 50
199.9209294224
 51
269.0
  0
ARC
  8
SURFACE
 62
7
  6
CONTINUOUS
 10
381.7718433147
 20
181.7181994109
 40
7.35
 50
248.1252200812
 51
252.4173355177
  0
ARC
  8
0
 62
7
  6
CONTINUOUS
 10
381.7718433147
 20
181.7181994109
 40
7.35
 50
180.0
 51
227.2958991308
  0
ARC
  8
0
 62
7
  6
CONTINUOUS
 10
381.7718433147
 20
181.7181994109
 40
7.35
 50
227.7464934848
 51
270.0
  0
ARC
  8
SURFACE
 62
7
  6
CONTINUOUS
 10
381.7718433147
 20
181.7181994109
 40
7.35
 50
180.0
 51
186.770455339
  0
ARC
  8
SURFACE
 62
7
  6
CONTINUOUS
 10
381.7718433147
 20
181.7181994109
 40
7.35
 50
186.9551839243
 51
190.7007798101
  0
ARC
  8
SURFACE
 62
7
  6
CONTINUOUS
 10
381.7718433147
 20
181.7181994109
 40
7.35
 50
195.9330317954
 51
214.8548641998
  0
ARC
  8
SURFACE
 62
7
  6
CONTINUOUS
 10
381.7718433147
 20
181.7181994109
 40
7.35
 50
220.5329011607
 51
227.2780629505
  0
ARC
  8
SURFACE
 62
7
  6
CONTINUOUS
 10
381.7718433147
 20
181.7181994109
 40
7.35
 50
260.138681928
 51
270.0
  0
ARC
  8
0
 62
7
  6
CONTINUOUS
 10
374.7218433147
 20
208.9681994109
 40
0.3
 50
90.0
 51
180.0
  0
ARC
  8
0
 62
7
  6
CONTINUOUS
 10
374.7218433147
 20
208.842477245
 40
0.3
 50
91.0
 51
160.0790701546
  0
ARC
  8
SURFACE
 62
7
  6
CONTINUOUS
 10
374.7218433147
 20
208.842477245
 40
0.3
 50
126.6000101179
 51
135.2610703905
  0
ARC
  8
0
 62
7
  6
CONTINUOUS
 10
381.7718433147
 20
229.8181994109
 40
7.35
 50
90.0
 51
132.288001449
  0
ARC
  8
0
 62
7
  6
CONTINUOUS
 10
381.7718433147
 20
229.8181994109
 40
7.35
 50
137.2106497174
 51
180.0
  0
ARC
  8
SURFACE
 62
7
  6
CONTINUOUS
 10
381.7718433147
 20
229.8181994109
 40
7.35
 50
122.7580099148
 51
132.2886845457
  0
ARC
  8
SURFACE
 62
7
  6
CONTINUOUS
 10
381.7718433147
 20
229.8181994109
 40
7.35
 50
90.0
 51
99.5790531327
  0
ARC
  8
SURFACE
 62
7
  6
CONTINUOUS
 10
381.7718433147
 20
229.8181994109
 40
7.35
 50
169.4296060527
 51
171.2173798269
  0
ARC
  8
SURFACE
 62
7
  6
CONTINUOUS
 10
382.0718433147
 20
181.7181994109
 40
7.35
 50
300.0928115989
 51
302.7823209651
  0
ARC
  8
SURFACE
 62
7
  6
CONTINUOUS
 10
382.0718433147
 20
181.7181994109
 40
7.35
 50
287.1479055499
 51
291.7757017786
  0
ARC
  8
0
 62
7
  6
CONTINUOUS
 10
382.0718433147
 20
181.7181994109
 40
7.35
 50
270.0
 51
312.2529521681
  0
ARC
  8
0
 62
7
  6
CONTINUOUS
 10
382.0718433147
 20
181.7181994109
 40
7.35
 50
312.7041038771
 51
360.0
  0
ARC
  8
SURFACE
 62
7
  6
CONTINUOUS
 10
382.0718433147
 20
181.7181994109
 40
7.35
 50
270.0
 51
280.7765892997
  0
ARC
  8
0
 62
7
  6
CONTINUOUS
 10
381.9218433147
 20
180.3681994109
 40
3.1
 50
180.0
 51
360.0
  0
ARC
  8
0
 62
7
  6
CONTINUOUS
 10
381.9218433147
 20
196.8681994109
 40
3.1
 50
0.0
 51
180.0
  0
ARC
  8
0
 62
7
  6
CONTINUOUS
 10
385.6792026276
 20
205.2681994109
 40
3.0
 50
270.0
 51
315.0
  0
ARC
  8
0
 62
7
  6
CONTINUOUS
 10
389.1218433147
 20
204.8924634796
 40
0.3
 50
315.0
 51
359.9999999991
  0
ARC
  8
0
 62
7
  6
CONTINUOUS
 10
382.0718433147
 20
229.8181994109
 40
7.35
 50
0.0
 51
47.2681105842
  0
ARC
  8
0
 62
7
  6
CONTINUOUS
 10
382.0718433147
 20
229.8181994109
 40
7.35
 50
47.7114709336
 51
90.0
  0
ARC
  8
SURFACE
 62
7
  6
CONTINUOUS
 10
382.0718433147
 20
229.8181994109
 40
7.35
 50
47.7114709336
 51
57.2405484874
  0
ARC
  8
SURFACE
 62
7
  6
CONTINUOUS
 10
382.0718433147
 20
229.8181994109
 40
7.35
 50
80.4068589792
 51
90.0
  0
ARC
  8
SURFACE
 62
7
  6
CONTINUOUS
 10
382.0718433147
 20
229.8181994109
 40
7.35
 50
35.6244842282
 51
47.2681105842
  0
ARC
  8
0
 62
7
  6
CONTINUOUS
 10
381.9218433147
 20
231.1681994109
 40
3.1
 50
190.1796522409
 51
169.8203477591
  0
ARC
  8
0
 62
7
  6
CONTINUOUS
 10
385.6792026276
 20
206.2681994109
 40
3.0
 50
45.0
 51
90.0
  0
ARC
  8
0
 62
7
  6
CONTINUOUS
 10
389.1218433147
 20
206.6439353422
 40
0.3
 50
0.0
 51
45.0
  0
ARC
  8
0
 62
7
  6
CONTINUOUS
 10
37.0977711694
 20
93.8029003376
 40
0.3
 50
180.0
 51
270.0
  0
ARC
  8
0
 62
7
  6
CONTINUOUS
 10
54.2260464566
 20
93.8029003376
 40
0.3
 50
180.9999753912
 51
269.9998777477
  0
ARC
  8
0
 62
7
  6
CONTINUOUS
 10
39.3720490035
 20
93.8029003376
 40
0.3
 50
270.0
 51
359.0
  0
ARC
  8
SURFACE
 62
7
  6
CONTINUOUS
 10
87.8931958704
 20
93.8029003376
 40
0.3
 50
180.0
 51
270.0
  0
ARC
  8
0
 62
7
  6
CONTINUOUS
 10
56.5003242907
 20
93.8029003376
 40
0.3
 50
270.0
 51
360.0
  0
ARC
  8
SURFACE
 62
7
  6
CONTINUOUS
 10
90.1674737045
 20
93.8029003376
 40
0.3
 50
270.0001222523
 51
359.0000246088
  0
ARC
  8
0
 62
7
  6
CONTINUOUS
 10
34.5977711694
 20
94.0029003376
 40
0.5
 50
180.0
 51
270.0
  0
ARC
  8
SURFACE
 62
7
  6
CONTINUOUS
 10
107.2957489917
 20
93.8029003376
 40
0.3
 50
270.0
 51
360.0
  0
ARC
  8
SURFACE
 62
7
  6
CONTINUOUS
 10
105.0214711576
 20
93.8029003376
 40
0.3
 50
181.0
 51
270.0
  0
ARC
  8
SURFACE
 62
7
  6
CONTINUOUS
 10
140.9720490035
 20
93.8029003376
 40
0.3
 50
270.0
 51
359.0
  0
ARC
  8
SURFACE
 62
7
  6
CONTINUOUS
 10
155.8260464566
 20
93.8029003376
 40
0.3
 50
181.0
 51
270.0
  0
ARC
  8
SURFACE
 62
7
  6
CONTINUOUS
 10
138.6977711694
 20
93.8029003376
 40
0.3
 50
180.0
 51
270.0
  0
ARC
  8
SURFACE
 62
7
  6
CONTINUOUS
 10
158.1003242907
 20
93.8029003376
 40
0.3
 50
270.0
 51
360.0
  0
ARC
  8
0
 62
7
  6
CONTINUOUS
 10
39.3720490035
 20
108.2029003376
 40
0.3
 50
1.0
 51
90.0
  0
ARC
  8
0
 62
7
  6
CONTINUOUS
 10
54.2260464566
 20
108.2029003376
 40
0.3
 50
90.0
 51
179.0
  0
ARC
  8
SURFACE
 62
7
  6
CONTINUOUS
 10
105.0214711576
 20
108.2029003376
 40
0.3
 50
90.0
 51
179.0
  0
ARC
  8
SURFACE
 62
7
  6
CONTINUOUS
 10
90.1674737045
 20
108.2029003376
 40
0.3
 50
1.0
 51
90.0
  0
ARC
  8
SURFACE
 62
7
  6
CONTINUOUS
 10
155.8260464566
 20
108.2029003376
 40
0.3
 50
90.0000000001
 51
179.0
  0
ARC
  8
SURFACE
 62
7
  6
CONTINUOUS
 10
140.9720490035
 20
108.2029003376
 40
0.3
 50
1.0
 51
90.0
  0
ARC
  8
SURFACE
 62
7
  6
CONTINUOUS
 10
206.6214711576
 20
93.8029003376
 40
0.3
 50
181.0
 51
270.0
  0
ARC
  8
SURFACE
 62
7
  6
CONTINUOUS
 10
191.7674737045
 20
93.8029003376
 40
0.3
 50
270.0
 51
359.0
  0
ARC
  8
SURFACE
 62
7
  6
CONTINUOUS
 10
208.8957489917
 20
93.8029003376
 40
0.3
 50
270.0
 51
360.0
  0
ARC
  8
SURFACE
 62
7
  6
CONTINUOUS
 10
189.4931958704
 20
93.8029003376
 40
0.3
 50
180.0
 51
270.0
  0
ARC
  8
SURFACE
 62
7
  6
CONTINUOUS
 10
259.7003242907
 20
93.8029003376
 40
0.3
 50
270.0
 51
360.0
  0
ARC
  8
SURFACE
 62
7
  6
CONTINUOUS
 10
240.2977711694
 20
93.8029003376
 40
0.3
 50
180.0
 51
270.0
  0
ARC
  8
SURFACE
 62
7
  6
CONTINUOUS
 10
257.4260464566
 20
93.8029003376
 40
0.3
 50
180.9999753912
 51
269.9998777477
  0
ARC
  8
SURFACE
 62
7
  6
CONTINUOUS
 10
242.5720490035
 20
93.8029003376
 40
0.3
 50
270.0
 51
359.0
  0
ARC
  8
SURFACE
 62
7
  6
CONTINUOUS
 10
291.0931958704
 20
93.8029003376
 40
0.3
 50
180.0
 51
270.0
  0
ARC
  8
SURFACE
 62
7
  6
CONTINUOUS
 10
310.4957489917
 20
93.8029003376
 40
0.3
 50
270.0
 51
360.0
  0
ARC
  8
SURFACE
 62
7
  6
CONTINUOUS
 10
308.2214711576
 20
93.8029003376
 40
0.3
 50
181.0
 51
270.0
  0
ARC
  8
SURFACE
 62
7
  6
CONTINUOUS
 10
293.3674737045
 20
93.8029003376
 40
0.3
 50
270.0
 51
359.0
  0
ARC
  8
0
 62
7
  6
CONTINUOUS
 10
338.3977711694
 20
94.0029003376
 40
0.5
 50
270.0
 51
360.0
  0
ARC
  8
SURFACE
 62
7
  6
CONTINUOUS
 10
191.7674737045
 20
108.2029003376
 40
0.3
 50
1.0
 51
89.9999999999
  0
ARC
  8
SURFACE
 62
7
  6
CONTINUOUS
 10
206.6214711576
 20
108.2029003376
 40
0.3
 50
90.0
 51
179.0
  0
ARC
  8
SURFACE
 62
7
  6
CONTINUOUS
 10
242.5720490035
 20
108.2029003376
 40
0.3
 50
1.0
 51
90.0
  0
ARC
  8
SURFACE
 62
7
  6
CONTINUOUS
 10
257.4260464566
 20
108.2029003376
 40
0.3
 50
90.0
 51
179.0
  0
ARC
  8
0
 62
7
  6
CONTINUOUS
 10
338.3977711694
 20
108.0029003376
 40
0.5
 50
0.0
 51
90.0
  0
ARC
  8
SURFACE
 62
7
  6
CONTINUOUS
 10
293.3674737045
 20
108.2029003376
 40
0.3
 50
1.0
 51
89.9999999999
  0
ARC
  8
SURFACE
 62
7
  6
CONTINUOUS
 10
308.2214711576
 20
108.2029003376
 40
0.3
 50
90.0
 51
179.0
  0
ENDSEC
  0
EOF
