  0
SECTION
  2
HEADER
  9
$EXTMAX
 10
594.0
 20
420.0
 30
0.0
  9
$EXTMIN
 10
0.0
 20
0.0
 30
0.0
  9
$LIMMIN
 10
0.0
 20
0.0
  9
$LIMMAX
 10
594.0
 20
420.0
  9
$VIEWCTR
 10
297.0
 20
210.0
  9
$VIEWSIZE
 40
420.0
  9
$CLAYER
  8
0
  9
$LTSCALE
 40
32.67
  9
$CELTYPE
  6
BYLAYER
  9
$DIMSCALE
 40
1.0
  9
$DIMASZ
 40
3.5
  9
$DIMEXO
 40
1.0
  9
$DIMDLI
 40
22.572
  9
$DIMEXE
 40
2.0
  9
$DIMCEN
 40
5.346
  9
$DIMLFAC
 40
1.0
  9
$DIMBLK
  1
_FILLED
  9
$DIMALT
 70
0
  9
$DIMALTF
 40
0.0393700787
  9
$DIMTXT
 40
3.5
  9
$AUNITS
 70
0
  9
$PDMODE
 70
3
  9
$PDSIZE
 40
0.3125
  9
$TILEMODE
 70
1
  0
ENDSEC
  0
SECTION
  2
TABLES
  0
TABLE
  2
LTYPE
 70
6
  0
LTYPE
  2
BYBLOCK
 70
0
  3

 72
65
 73
0
 40
0.0
  0
LTYPE
  2
BYLAYER
 70
0
  3

 72
65
 73
0
 40
0.0
  0
LTYPE
  2
CONTINUOUS
 70
64
  3
Solid line
 72
65
 73
0
 40
0.0
  0
LTYPE
  2
CENTER
 70
64
  3
____ _ ____ _ ____ _ ____ _ ____ _ ____ _ ____
 72
65
 73
4
 40
0.6
 49
0.375
 49
-0.075
 49
0.075
 49
-0.075
  0
LTYPE
  2
HIDDEN
 70
64
  3
- - - - - - - - - - - - - - - - - - - -
 72
65
 73
2
 40
0.2
 49
0.1
 49
-0.1
  0
LTYPE
  2
PHANTOM
 70
64
  3
_____ _ _ _____ _ _ _____ _ _ _____
 72
65
 73
6
 40
0.8
 49
0.45
 49
-0.05
 49
0.1
 49
-0.05
 49
0.1
 49
-0.05
  0
LTYPE
  2
DOT
 70
64
  3
. . . . . . . . . . . . . . . . . . . .
 72
65
 73
2
 40
0.2
 49
0.1
 49
-0.1
  0
LTYPE
  2
DASHED
 70
64
  3
- - - - - - - - - - - - - - - - - - - -
 72
65
 73
2
 40
0.2
 49
0.1
 49
-0.1
  0
ENDTAB
  0
TABLE
  2
LAYER
 70
36
  0
LAYER
  2
0
 70
0
 62
7
  6
CONTINUOUS
  0
LAYER
  2
DEFAULT_1
 70
0
 62
7
  6
CENTER
  0
LAYER
  2
DEFAULT_2
 70
0
 62
8
  6
HIDDEN
  0
LAYER
  2
DEFAULT_3
 70
0
 62
7
  6
PHANTOM
  0
LAYER
  2
CURVE
 70
0
 62
7
  6
CONTINUOUS
  0
LAYER
  2
PLAN
 70
0
 62
7
  6
CONTINUOUS
  0
LAYER
  2
SURFACE
 70
0
 62
7
  6
CONTINUOUS
  0
ENDTAB
  0
TABLE
  2
STYLE
 70
1
  0
STYLE
  2
STANDARD
 70
0
 40
0.0
 41
0.8
 50
0.0
 71
0
 42
0.2
  3
txt
  4

  0
STYLE
  2
TEXTSTYLE_1
 70
0
 40
0.0
 41
0.8
 50
0.0
 71
0
 42
0.2
  3
gdt
  4

  0
STYLE
  2
TEXTSTYLE_2
 70
0
 40
0.0
 41
0.6
 50
0.0
 71
0
 42
0.2
  3
txt
  4

  0
STYLE
  2
TEXTSTYLE_3
 70
0
 40
0.0
 41
1.0
 50
0.0
 71
0
 42
0.2
  3
ftb_____.ttf
  4

  0
STYLE
  2
TEXTSTYLE_4
 70
0
 40
0.0
 41
1.0
 50
0.0
 71
0
 42
0.2
  3
fti_____.ttf
  4

  0
STYLE
  2
TEXTSTYLE_5
 70
0
 40
0.0
 41
1.0
 50
0.0
 71
0
 42
0.2
  3
frutiger light.ttf
  4

  0
STYLE
  2
TEXTSTYLE_6
 70
0
 40
0.0
 41
0.7
 50
0.0
 71
0
 42
0.2
  3
txt
  4

  0
STYLE
  2
TEXTSTYLE_7
 70
0
 40
0.0
 41
0.4
 50
0.0
 71
0
 42
0.2
  3
txt
  4

  0
ENDTAB
  0
ENDSEC
  0
SECTION
  2
BLOCKS
  0
BLOCK
  8
0
 62
2
  6
CONTINUOUS
  2
UNI_LOGO2_BL1
 70
64
 10
557.4079930916
 20
35.8092573885
  0
TEXT
  8
0
 62
7
  6
CONTINUOUS
 10
548.4662781001
 20
30.9020137655
  7
TEXTSTYLE_4
 40
1.0655737705
  1
The brand for plastic modular belts and chains
 41
1.0
 72
0
  0
LINE
  8
0
 62
7
  6
CONTINUOUS
 10
533.3860614807
 20
36.3830278803
 11
533.3860614807
 21
34.2518803393
  0
LINE
  8
0
 62
7
  6
CONTINUOUS
 10
533.6751239738
 20
31.2609490436
 11
533.6751239738
 21
31.3577401029
  0
LINE
  8
0
 62
7
  6
CONTINUOUS
 10
533.3860614807
 20
31.3254764164
 11
533.4438739824
 21
31.1318942979
  0
LINE
  8
0
 62
7
  6
CONTINUOUS
 10
534.7795041036
 20
34.1699131262
 11
534.7795041036
 21
36.3830278803
  0
LINE
  8
0
 62
7
  6
CONTINUOUS
 10
535.6985614255
 20
32.3256508311
 11
535.6985614255
 21
30.8092573885
  0
LINE
  8
0
 62
7
  6
CONTINUOUS
 10
535.9876239807
 20
30.8092573885
 11
535.9876239807
 21
31.5513222666
  0
LINE
  8
0
 62
7
  6
CONTINUOUS
 10
535.9876239807
 20
31.6803770123
 11
535.9876239807
 21
32.3256508311
  0
LINE
  8
0
 62
7
  6
CONTINUOUS
 10
533.4438739824
 20
31.5190585802
 11
533.3860614807
 21
31.3254764164
  0
LINE
  8
0
 62
7
  6
CONTINUOUS
 10
533.7907489669
 20
31.0996306115
 11
533.6751239738
 21
31.2609490436
  0
LINE
  8
0
 62
7
  6
CONTINUOUS
 10
534.8891865358
 20
31.6158496394
 11
534.9469989807
 21
31.5190585802
  0
LINE
  8
0
 62
7
  6
CONTINUOUS
 10
535.2360615358
 20
31.5190585802
 11
535.1782489255
 21
31.6481133259
  0
LINE
  8
0
 62
7
  6
CONTINUOUS
 10
536.6647500053
 20
36.3830278803
 11
536.6647500053
 21
34.5797491918
  0
LINE
  8
0
 62
7
  6
CONTINUOUS
 10
536.6647500053
 20
33.2682737819
 11
536.6647500053
 21
32.612536077
  0
LINE
  8
0
 62
7
  6
CONTINUOUS
 10
537.0282489807
 20
31.4545312073
 11
537.0282489807
 21
30.8092573885
  0
LINE
  8
0
 62
7
  6
CONTINUOUS
 10
537.3173113704
 20
30.8092573885
 11
537.3173113704
 21
31.4545312073
  0
LINE
  8
0
 62
7
  6
CONTINUOUS
 10
533.6751239738
 20
31.3577401029
 11
533.7329364807
 21
31.4867948937
  0
LINE
  8
0
 62
7
  6
CONTINUOUS
 10
533.4438739824
 20
31.1318942979
 11
533.5594989807
 21
31.0028395296
  0
LINE
  8
0
 62
7
  6
CONTINUOUS
 10
536.9704363704
 20
31.583585953
 11
537.0282489807
 21
31.4545312073
  0
LINE
  8
0
 62
7
  6
CONTINUOUS
 10
537.7798115909
 20
31.0996306115
 11
537.8376238704
 21
30.9705758432
  0
LINE
  8
0
 62
7
  6
CONTINUOUS
 10
537.3173113704
 20
31.4545312073
 11
537.2594990909
 21
31.6158496394
  0
LINE
  8
0
 62
7
  6
CONTINUOUS
 10
537.7798115909
 20
31.6481133259
 11
537.7798115909
 21
31.583585953
  0
LINE
  8
0
 62
7
  6
CONTINUOUS
 10
537.7798115909
 20
31.1964216708
 11
537.7798115909
 21
31.0996306115
  0
LINE
  8
0
 62
7
  6
CONTINUOUS
 10
538.0581926282
 20
32.612536077
 11
538.0581926282
 21
36.3830278803
  0
LINE
  8
0
 62
7
  6
CONTINUOUS
 10
538.0688739807
 20
31.0673669025
 11
538.0688739807
 21
31.1318942979
  0
LINE
  8
0
 62
7
  6
CONTINUOUS
 10
538.3860614807
 20
36.3830278803
 11
538.3860614807
 21
32.612536077
  0
LINE
  8
0
 62
7
  6
CONTINUOUS
 10
535.1782489255
 20
31.0028395296
 11
535.2360615358
 21
31.1318942979
  0
LINE
  8
0
 62
7
  6
CONTINUOUS
 10
539.5719992012
 20
30.9060484591
 11
539.5141862601
 21
31.0673669025
  0
LINE
  8
0
 62
7
  6
CONTINUOUS
 10
539.2251242012
 20
31.583585953
 11
539.2251242012
 21
31.4867948937
  0
LINE
  8
0
 62
7
  6
CONTINUOUS
 10
539.2251242012
 20
31.3577401029
 11
539.2251242012
 21
31.1641579843
  0
LINE
  8
0
 62
7
  6
CONTINUOUS
 10
539.5141862601
 20
31.0673669025
 11
539.5141862601
 21
31.583585953
  0
LINE
  8
0
 62
7
  6
CONTINUOUS
 10
539.7795041036
 20
32.612536077
 11
539.7795041036
 21
34.4158147655
  0
LINE
  8
0
 62
7
  6
CONTINUOUS
 10
539.7795041036
 20
35.7272901754
 11
539.7795041036
 21
36.3830278803
  0
LINE
  8
0
 62
7
  6
CONTINUOUS
 10
540.0923117012
 20
32.3256508311
 11
540.0923117012
 21
32.164332399
  0
LINE
  8
0
 62
7
  6
CONTINUOUS
 10
540.0923117012
 20
31.8416954444
 11
540.0923117012
 21
30.8092573885
  0
LINE
  8
0
 62
7
  6
CONTINUOUS
 10
540.3813737601
 20
30.8092573885
 11
540.3813737601
 21
31.8416954444
  0
LINE
  8
0
 62
7
  6
CONTINUOUS
 10
540.3813737601
 20
32.164332399
 11
540.3813737601
 21
32.3256508311
  0
LINE
  8
0
 62
7
  6
CONTINUOUS
 10
534.9469989807
 20
31.1318942979
 11
534.8891865358
 21
31.035103216
  0
LINE
  8
0
 62
7
  6
CONTINUOUS
 10
537.2594990909
 20
31.6158496394
 11
537.2016864807
 21
31.6803770123
  0
LINE
  8
0
 62
7
  6
CONTINUOUS
 10
538.1266865909
 20
31.0028395296
 11
538.0688739807
 21
31.0673669025
  0
LINE
  8
0
 62
7
  6
CONTINUOUS
 10
539.2829364807
 20
30.873784767
 11
539.3407487601
 21
30.8092573885
  0
LINE
  8
0
 62
7
  6
CONTINUOUS
 10
539.2251242012
 20
30.9705758432
 11
539.2829364807
 21
30.873784767
  0
LINE
  8
0
 62
7
  6
CONTINUOUS
 10
539.6298114807
 20
30.8092573885
 11
539.5719992012
 21
30.9060484591
  0
LINE
  8
0
 62
7
  6
CONTINUOUS
 10
539.5141862601
 20
31.583585953
 11
539.4563739807
 21
31.6803770123
  0
LINE
  8
0
 62
7
  6
CONTINUOUS
 10
540.8438739807
 20
31.8416954444
 11
540.8438739807
 21
30.8092573885
  0
LINE
  8
0
 62
7
  6
CONTINUOUS
 10
541.1329367012
 20
30.8092573885
 11
541.1329367012
 21
31.5513222666
  0
LINE
  8
0
 62
7
  6
CONTINUOUS
 10
541.1329367012
 20
31.6803770123
 11
541.1329367012
 21
31.8416954444
  0
LINE
  8
0
 62
7
  6
CONTINUOUS
 10
541.6647500053
 20
34.8256508311
 11
541.6647500053
 21
32.612536077
  0
LINE
  8
0
 62
7
  6
CONTINUOUS
 10
533.5594989807
 20
31.6481133259
 11
533.4438739824
 21
31.5190585802
  0
LINE
  8
0
 62
7
  6
CONTINUOUS
 10
533.7329364807
 20
31.4867948937
 11
533.7907489669
 21
31.5513222666
  0
LINE
  8
0
 62
7
  6
CONTINUOUS
 10
533.5594989807
 20
31.0028395296
 11
533.6751239738
 21
30.9383121455
  0
LINE
  8
0
 62
7
  6
CONTINUOUS
 10
533.9641864669
 20
31.0028395296
 11
533.7907489669
 21
31.0996306115
  0
LINE
  8
0
 62
7
  6
CONTINUOUS
 10
539.1673112601
 20
31.6481133259
 11
539.2251242012
 21
31.583585953
  0
LINE
  8
0
 62
7
  6
CONTINUOUS
 10
542.1157487601
 20
31.583585953
 11
542.1735617012
 21
31.4222675209
  0
LINE
  8
0
 62
7
  6
CONTINUOUS
 10
542.4626237601
 20
31.4222675209
 11
542.4048114807
 21
31.583585953
  0
LINE
  8
0
 62
7
  6
CONTINUOUS
 10
542.1735617012
 20
31.4222675209
 11
542.1735617012
 21
30.8092573885
  0
LINE
  8
0
 62
7
  6
CONTINUOUS
 10
542.4626237601
 20
30.8092573885
 11
542.4626237601
 21
31.4222675209
  0
LINE
  8
0
 62
7
  6
CONTINUOUS
 10
542.9251239807
 20
31.6481133259
 11
542.9251239807
 21
31.583585953
  0
LINE
  8
0
 62
7
  6
CONTINUOUS
 10
543.0581926282
 20
32.612536077
 11
543.0581926282
 21
34.743683618
  0
LINE
  8
0
 62
7
  6
CONTINUOUS
 10
543.3860614807
 20
36.3830278803
 11
543.3860614807
 21
32.612536077
  0
LINE
  8
0
 62
7
  6
CONTINUOUS
 10
538.0688739807
 20
31.1318942979
 11
538.1266865909
 21
31.2286853572
  0
LINE
  8
0
 62
7
  6
CONTINUOUS
 10
533.6751239738
 20
30.9383121455
 11
533.8485614944
 21
30.873784767
  0
LINE
  8
0
 62
7
  6
CONTINUOUS
 10
535.1782489255
 20
31.6481133259
 11
535.0048114255
 21
31.7449043851
  0
LINE
  8
0
 62
7
  6
CONTINUOUS
 10
537.8376238704
 20
30.9705758432
 11
538.0110613704
 21
30.873784767
  0
LINE
  8
0
 62
7
  6
CONTINUOUS
 10
536.8548114807
 20
31.6481133259
 11
536.9704363704
 21
31.583585953
  0
LINE
  8
0
 62
7
  6
CONTINUOUS
 10
537.2016864807
 20
31.6803770123
 11
537.0860615909
 21
31.7449043851
  0
LINE
  8
0
 62
7
  6
CONTINUOUS
 10
542.9251239807
 20
31.0673669025
 11
543.0407492012
 21
30.9383121455
  0
LINE
  8
0
 62
7
  6
CONTINUOUS
 10
543.2719989807
 20
31.0028395296
 11
543.2141867012
 21
31.0673669025
  0
LINE
  8
0
 62
7
  6
CONTINUOUS
 10
542.9251239807
 20
31.583585953
 11
543.0407492012
 21
31.4545312073
  0
LINE
  8
0
 62
7
  6
CONTINUOUS
 10
542.4048114807
 20
31.583585953
 11
542.3469992012
 21
31.6803770123
  0
LINE
  8
0
 62
7
  6
CONTINUOUS
 10
544.7751235396
 20
31.0028395296
 11
544.7751235396
 21
31.0673669025
  0
LINE
  8
0
 62
7
  6
CONTINUOUS
 10
544.7795041036
 20
32.612536077
 11
544.7795041036
 21
36.3830278803
  0
LINE
  8
0
 62
7
  6
CONTINUOUS
 10
537.8376238704
 20
31.7126406987
 11
537.7798115909
 21
31.6481133259
  0
LINE
  8
0
 62
7
  6
CONTINUOUS
 10
534.7157489531
 20
31.6803770123
 11
534.8891865358
 21
31.6158496394
  0
LINE
  8
0
 62
7
  6
CONTINUOUS
 10
539.4563739807
 20
31.6803770123
 11
539.3407487601
 21
31.7449043851
  0
LINE
  8
0
 62
7
  6
CONTINUOUS
 10
543.2719989807
 20
31.5190585802
 11
543.2141867012
 21
31.583585953
  0
LINE
  8
0
 62
7
  6
CONTINUOUS
 10
544.4282492012
 20
31.1318942979
 11
544.4860614807
 21
31.0673669025
  0
LINE
  8
0
 62
7
  6
CONTINUOUS
 10
544.7751235396
 20
31.0673669025
 11
544.6594989807
 21
31.1964216708
  0
LINE
  8
0
 62
7
  6
CONTINUOUS
 10
544.4282492012
 20
31.6481133259
 11
544.4860614807
 21
31.583585953
  0
LINE
  8
0
 62
7
  6
CONTINUOUS
 10
544.7751235396
 20
31.583585953
 11
544.6594989807
 21
31.7126406987
  0
LINE
  8
0
 62
7
  6
CONTINUOUS
 10
538.0688739807
 20
31.583585953
 11
538.1266865909
 21
31.6481133259
  0
LINE
  8
0
 62
7
  6
CONTINUOUS
 10
537.8954364807
 20
31.3254764164
 11
537.7798115909
 21
31.1964216708
  0
LINE
  8
0
 62
7
  6
CONTINUOUS
 10
539.2251242012
 20
31.1641579843
 11
539.1673112601
 21
31.0996306115
  0
LINE
  8
0
 62
7
  6
CONTINUOUS
 10
539.1673112601
 20
30.9060484591
 11
539.2251242012
 21
30.9705758432
  0
LINE
  8
0
 62
7
  6
CONTINUOUS
 10
538.0110613704
 20
30.873784767
 11
538.1266865909
 21
30.8415210777
  0
LINE
  8
0
 62
7
  6
CONTINUOUS
 10
535.0048114255
 20
31.7449043851
 11
534.7735614807
 21
31.809431758
  0
LINE
  8
0
 62
7
  6
CONTINUOUS
 10
538.3579363704
 20
30.9383121455
 11
538.1266865909
 21
31.0028395296
  0
LINE
  8
0
 62
7
  6
CONTINUOUS
 10
537.0860615909
 20
31.7449043851
 11
536.9126240909
 21
31.809431758
  0
LINE
  8
0
 62
7
  6
CONTINUOUS
 10
539.3407487601
 20
31.7449043851
 11
539.1673112601
 21
31.809431758
  0
LINE
  8
0
 62
7
  6
CONTINUOUS
 10
542.0001242012
 20
31.6481133259
 11
542.1157487601
 21
31.583585953
  0
LINE
  8
0
 62
7
  6
CONTINUOUS
 10
542.3469992012
 20
31.6803770123
 11
542.2313739807
 21
31.7449043851
  0
LINE
  8
0
 62
7
  6
CONTINUOUS
 10
533.8485614944
 20
30.873784767
 11
534.0219989944
 21
30.8415210777
  0
LINE
  8
0
 62
7
  6
CONTINUOUS
 10
534.3110615082
 20
30.9383121455
 11
533.9641864669
 21
31.0028395296
  0
LINE
  8
0
 62
7
  6
CONTINUOUS
 10
536.7391865909
 20
31.6803770123
 11
536.8548114807
 21
31.6481133259
  0
LINE
  8
0
 62
7
  6
CONTINUOUS
 10
539.0516867012
 20
31.6803770123
 11
539.1673112601
 21
31.6481133259
  0
LINE
  8
0
 62
7
  6
CONTINUOUS
 10
543.3876242012
 20
30.9705758432
 11
543.2719989807
 21
31.0028395296
  0
LINE
  8
0
 62
7
  6
CONTINUOUS
 10
541.8844989807
 20
31.6803770123
 11
542.0001242012
 21
31.6481133259
  0
LINE
  8
0
 62
7
  6
CONTINUOUS
 10
543.0407492012
 20
30.9383121455
 11
543.2141867012
 21
30.873784767
  0
LINE
  8
0
 62
7
  6
CONTINUOUS
 10
542.2313739807
 20
31.7449043851
 11
542.0579364807
 21
31.809431758
  0
LINE
  8
0
 62
7
  6
CONTINUOUS
 10
543.4454364807
 20
31.4545312073
 11
543.2719989807
 21
31.5190585802
  0
LINE
  8
0
 62
7
  6
CONTINUOUS
 10
544.2548117012
 20
31.1964216708
 11
544.4282492012
 21
31.1318942979
  0
LINE
  8
0
 62
7
  6
CONTINUOUS
 10
544.6594989807
 20
31.7126406987
 11
544.4860614807
 21
31.7771680715
  0
LINE
  8
0
 62
7
  6
CONTINUOUS
 10
543.0407492012
 20
31.4545312073
 11
543.2719989807
 21
31.3577401029
  0
LINE
  8
0
 62
7
  6
CONTINUOUS
 10
544.6594989807
 20
31.1964216708
 11
544.4282492012
 21
31.29321273
  0
LINE
  8
0
 62
7
  6
CONTINUOUS
 10
543.2141867012
 20
31.583585953
 11
543.2719989807
 21
31.6481133259
  0
LINE
  8
0
 62
7
  6
CONTINUOUS
 10
533.6751239738
 20
31.7126406987
 11
533.5594989807
 21
31.6481133259
  0
LINE
  8
0
 62
7
  6
CONTINUOUS
 10
533.7907489669
 20
31.5513222666
 11
533.9641864669
 21
31.6481133259
  0
LINE
  8
0
 62
7
  6
CONTINUOUS
 10
536.1032490358
 20
31.7449043851
 11
535.9876239807
 21
31.6803770123
  0
LINE
  8
0
 62
7
  6
CONTINUOUS
 10
535.9876239807
 20
31.5513222666
 11
536.1032490358
 21
31.6158496394
  0
LINE
  8
0
 62
7
  6
CONTINUOUS
 10
535.0048114255
 20
30.9060484591
 11
535.1782489255
 21
31.0028395296
  0
LINE
  8
0
 62
7
  6
CONTINUOUS
 10
534.0219989944
 20
30.8415210777
 11
534.3688739531
 21
30.8092573885
  0
LINE
  8
0
 62
7
  6
CONTINUOUS
 10
538.1266865909
 20
30.8415210777
 11
538.3579363704
 21
30.8092573885
  0
LINE
  8
0
 62
7
  6
CONTINUOUS
 10
536.5079364807
 20
31.7126406987
 11
536.7391865909
 21
31.6803770123
  0
LINE
  8
0
 62
7
  6
CONTINUOUS
 10
538.8204365909
 20
31.7126406987
 11
539.0516867012
 21
31.6803770123
  0
LINE
  8
0
 62
7
  6
CONTINUOUS
 10
543.2719989807
 20
31.3577401029
 11
544.2548117012
 21
31.1964216708
  0
LINE
  8
0
 62
7
  6
CONTINUOUS
 10
544.4282492012
 20
31.29321273
 11
543.4454364807
 21
31.4545312073
  0
LINE
  8
0
 62
7
  6
CONTINUOUS
 10
536.9126240909
 20
31.809431758
 11
536.7391865909
 21
31.8416954444
  0
LINE
  8
0
 62
7
  6
CONTINUOUS
 10
543.2141867012
 20
30.873784767
 11
543.3876242012
 21
30.8415210777
  0
LINE
  8
0
 62
7
  6
CONTINUOUS
 10
542.0579364807
 20
31.809431758
 11
541.8844989807
 21
31.8416954444
  0
LINE
  8
0
 62
7
  6
CONTINUOUS
 10
544.3126239807
 20
31.6803770123
 11
544.4282492012
 21
31.6481133259
  0
LINE
  8
0
 62
7
  6
CONTINUOUS
 10
544.4860614807
 20
31.0673669025
 11
544.4282492012
 21
31.0028395296
  0
LINE
  8
0
 62
7
  6
CONTINUOUS
 10
543.0407492012
 20
31.7449043851
 11
542.9251239807
 21
31.6481133259
  0
LINE
  8
0
 62
7
  6
CONTINUOUS
 10
537.9532490909
 20
31.7771680715
 11
537.8376238704
 21
31.7126406987
  0
LINE
  8
0
 62
7
  6
CONTINUOUS
 10
538.0110613704
 20
31.3900038345
 11
537.8954364807
 21
31.3254764164
  0
LINE
  8
0
 62
7
  6
CONTINUOUS
 10
538.1266865909
 20
31.2286853572
 11
538.2423114807
 21
31.29321273
  0
LINE
  8
0
 62
7
  6
CONTINUOUS
 10
535.6985614255
 20
30.8092573885
 11
535.9876239807
 21
30.8092573885
  0
LINE
  8
0
 62
7
  6
CONTINUOUS
 10
537.0282489807
 20
30.8092573885
 11
537.3173113704
 21
30.8092573885
  0
LINE
  8
0
 62
7
  6
CONTINUOUS
 10
538.3579363704
 20
30.8092573885
 11
538.7048113704
 21
30.8092573885
  0
LINE
  8
0
 62
7
  6
CONTINUOUS
 10
539.3407487601
 20
30.8092573885
 11
539.6298114807
 21
30.8092573885
  0
LINE
  8
0
 62
7
  6
CONTINUOUS
 10
540.0923117012
 20
30.8092573885
 11
540.3813737601
 21
30.8092573885
  0
LINE
  8
0
 62
7
  6
CONTINUOUS
 10
540.8438739807
 20
30.8092573885
 11
541.1329367012
 21
30.8092573885
  0
LINE
  8
0
 62
7
  6
CONTINUOUS
 10
542.1735617012
 20
30.8092573885
 11
542.4626237601
 21
30.8092573885
  0
LINE
  8
0
 62
7
  6
CONTINUOUS
 10
543.7344992012
 20
30.8092573885
 11
544.0813742012
 21
30.8092573885
  0
LINE
  8
0
 62
7
  6
CONTINUOUS
 10
544.0813742012
 20
30.9383121455
 11
543.7344992012
 21
30.9383121455
  0
LINE
  8
0
 62
7
  6
CONTINUOUS
 10
538.7048113704
 20
30.9383121455
 11
538.3579363704
 21
30.9383121455
  0
LINE
  8
0
 62
7
  6
CONTINUOUS
 10
543.2141867012
 20
31.0673669025
 11
542.9251239807
 21
31.0673669025
  0
LINE
  8
0
 62
7
  6
CONTINUOUS
 10
535.2360615358
 20
31.1318942979
 11
534.9469989807
 21
31.1318942979
  0
LINE
  8
0
 62
7
  6
CONTINUOUS
 10
534.3110615082
 20
31.7126406987
 11
534.7157489531
 21
31.6803770123
  0
LINE
  8
0
 62
7
  6
CONTINUOUS
 10
534.7735614807
 20
31.809431758
 11
534.3688739531
 21
31.8416954444
  0
LINE
  8
0
 62
7
  6
CONTINUOUS
 10
543.3876242012
 20
30.8415210777
 11
543.7344992012
 21
30.8092573885
  0
LINE
  8
0
 62
7
  6
CONTINUOUS
 10
543.7344992012
 20
30.9383121455
 11
543.3876242012
 21
30.9705758432
  0
LINE
  8
0
 62
7
  6
CONTINUOUS
 10
539.1673112601
 20
31.809431758
 11
538.8204365909
 21
31.8416954444
  0
LINE
  8
0
 62
7
  6
CONTINUOUS
 10
543.9657489807
 20
31.7126406987
 11
544.3126239807
 21
31.6803770123
  0
LINE
  8
0
 62
7
  6
CONTINUOUS
 10
544.3126239807
 20
31.809431758
 11
543.9657489807
 21
31.8416954444
  0
LINE
  8
0
 62
7
  6
CONTINUOUS
 10
541.6532492012
 20
31.7126406987
 11
541.8844989807
 21
31.6803770123
  0
LINE
  8
0
 62
7
  6
CONTINUOUS
 10
544.4860614807
 20
31.7771680715
 11
544.3126239807
 21
31.809431758
  0
LINE
  8
0
 62
7
  6
CONTINUOUS
 10
544.6594989807
 20
30.9060484591
 11
544.7751235396
 21
31.0028395296
  0
LINE
  8
0
 62
7
  6
CONTINUOUS
 10
539.1673112601
 20
31.0996306115
 11
538.9938737601
 21
31.0028395296
  0
LINE
  8
0
 62
7
  6
CONTINUOUS
 10
541.2485612601
 20
31.7449043851
 11
541.1329367012
 21
31.6803770123
  0
LINE
  8
0
 62
7
  6
CONTINUOUS
 10
541.1329367012
 20
31.5513222666
 11
541.2485612601
 21
31.6158496394
  0
LINE
  8
0
 62
7
  6
CONTINUOUS
 10
533.8485614944
 20
31.7771680715
 11
533.6751239738
 21
31.7126406987
  0
LINE
  8
0
 62
7
  6
CONTINUOUS
 10
536.2766863704
 20
31.809431758
 11
536.1032490358
 21
31.7449043851
  0
LINE
  8
0
 62
7
  6
CONTINUOUS
 10
536.1032490358
 20
31.6158496394
 11
536.2766863704
 21
31.6803770123
  0
LINE
  8
0
 62
7
  6
CONTINUOUS
 10
534.8891865358
 20
31.035103216
 11
534.7157489531
 21
30.9705758432
  0
LINE
  8
0
 62
7
  6
CONTINUOUS
 10
544.3126239807
 20
30.9705758432
 11
544.0813742012
 21
30.9383121455
  0
LINE
  8
0
 62
7
  6
CONTINUOUS
 10
538.7048113704
 20
30.8092573885
 11
538.9938737601
 21
30.8415210777
  0
LINE
  8
0
 62
7
  6
CONTINUOUS
 10
544.0813742012
 20
30.8092573885
 11
544.4282492012
 21
30.8415210777
  0
LINE
  8
0
 62
7
  6
CONTINUOUS
 10
534.3688739531
 20
30.8092573885
 11
534.7735614807
 21
30.8415210777
  0
LINE
  8
0
 62
7
  6
CONTINUOUS
 10
534.7157489531
 20
30.9705758432
 11
534.3110615082
 21
30.9383121455
  0
LINE
  8
0
 62
7
  6
CONTINUOUS
 10
538.5891864807
 20
31.3577401029
 11
539.2251242012
 21
31.3577401029
  0
LINE
  8
0
 62
7
  6
CONTINUOUS
 10
539.2251242012
 20
31.4867948937
 11
538.5891864807
 21
31.4867948937
  0
LINE
  8
0
 62
7
  6
CONTINUOUS
 10
534.9469989807
 20
31.5190585802
 11
535.2360615358
 21
31.5190585802
  0
LINE
  8
0
 62
7
  6
CONTINUOUS
 10
537.7798115909
 20
31.583585953
 11
538.0688739807
 21
31.583585953
  0
LINE
  8
0
 62
7
  6
CONTINUOUS
 10
544.4860614807
 20
31.583585953
 11
544.7751235396
 21
31.583585953
  0
LINE
  8
0
 62
7
  6
CONTINUOUS
 10
538.4735615909
 20
31.7126406987
 11
538.8204365909
 21
31.7126406987
  0
LINE
  8
0
 62
7
  6
CONTINUOUS
 10
543.6188739807
 20
31.7126406987
 11
543.9657489807
 21
31.7126406987
  0
LINE
  8
0
 62
7
  6
CONTINUOUS
 10
543.9657489807
 20
31.8416954444
 11
543.6188739807
 21
31.8416954444
  0
LINE
  8
0
 62
7
  6
CONTINUOUS
 10
541.8844989807
 20
31.8416954444
 11
541.6532492012
 21
31.8416954444
  0
LINE
  8
0
 62
7
  6
CONTINUOUS
 10
541.1329367012
 20
31.8416954444
 11
540.8438739807
 21
31.8416954444
  0
LINE
  8
0
 62
7
  6
CONTINUOUS
 10
540.3813737601
 20
31.8416954444
 11
540.0923117012
 21
31.8416954444
  0
LINE
  8
0
 62
7
  6
CONTINUOUS
 10
538.8204365909
 20
31.8416954444
 11
538.4735615909
 21
31.8416954444
  0
LINE
  8
0
 62
7
  6
CONTINUOUS
 10
536.7391865909
 20
31.8416954444
 11
536.5079364807
 21
31.8416954444
  0
LINE
  8
0
 62
7
  6
CONTINUOUS
 10
540.0923117012
 20
32.164332399
 11
540.3813737601
 21
32.164332399
  0
LINE
  8
0
 62
7
  6
CONTINUOUS
 10
540.3813737601
 20
32.3256508311
 11
540.0923117012
 21
32.3256508311
  0
LINE
  8
0
 62
7
  6
CONTINUOUS
 10
535.9876239807
 20
32.3256508311
 11
535.6985614255
 21
32.3256508311
  0
LINE
  8
0
 62
7
  6
CONTINUOUS
 10
535.025405743
 20
32.612536077
 11
535.4379770916
 21
32.612536077
  0
LINE
  8
0
 62
7
  6
CONTINUOUS
 10
536.6647500053
 20
32.612536077
 11
538.0581926282
 21
32.612536077
  0
LINE
  8
0
 62
7
  6
CONTINUOUS
 10
538.3860614807
 20
32.612536077
 11
539.7795041036
 21
32.612536077
  0
LINE
  8
0
 62
7
  6
CONTINUOUS
 10
541.6647500053
 20
32.612536077
 11
543.0581926282
 21
32.612536077
  0
LINE
  8
0
 62
7
  6
CONTINUOUS
 10
543.3860614807
 20
32.612536077
 11
544.7795041036
 21
32.612536077
  0
LINE
  8
0
 62
7
  6
CONTINUOUS
 10
541.4219987601
 20
31.809431758
 11
541.2485612601
 21
31.7449043851
  0
LINE
  8
0
 62
7
  6
CONTINUOUS
 10
538.9938737601
 20
30.8415210777
 11
539.1673112601
 21
30.9060484591
  0
LINE
  8
0
 62
7
  6
CONTINUOUS
 10
544.4282492012
 20
30.8415210777
 11
544.6594989807
 21
30.9060484591
  0
LINE
  8
0
 62
7
  6
CONTINUOUS
 10
544.4282492012
 20
31.0028395296
 11
544.3126239807
 21
30.9705758432
  0
LINE
  8
0
 62
7
  6
CONTINUOUS
 10
543.3876242012
 20
31.6803770123
 11
543.6188739807
 21
31.7126406987
  0
LINE
  8
0
 62
7
  6
CONTINUOUS
 10
541.4219987601
 20
31.6803770123
 11
541.6532492012
 21
31.7126406987
  0
LINE
  8
0
 62
7
  6
CONTINUOUS
 10
538.3579363704
 20
31.3254764164
 11
538.5891864807
 21
31.3577401029
  0
LINE
  8
0
 62
7
  6
CONTINUOUS
 10
541.6532492012
 20
31.8416954444
 11
541.4219987601
 21
31.809431758
  0
LINE
  8
0
 62
7
  6
CONTINUOUS
 10
538.2423114807
 20
31.6803770123
 11
538.4735615909
 21
31.7126406987
  0
LINE
  8
0
 62
7
  6
CONTINUOUS
 10
543.6188739807
 20
31.8416954444
 11
543.2719989807
 21
31.809431758
  0
LINE
  8
0
 62
7
  6
CONTINUOUS
 10
538.5891864807
 20
31.4867948937
 11
538.2423114807
 21
31.4545312073
  0
LINE
  8
0
 62
7
  6
CONTINUOUS
 10
534.3688739531
 20
31.8416954444
 11
534.0219989944
 21
31.809431758
  0
LINE
  8
0
 62
7
  6
CONTINUOUS
 10
538.4735615909
 20
31.8416954444
 11
538.0688739807
 21
31.809431758
  0
LINE
  8
0
 62
7
  6
CONTINUOUS
 10
535.8450778741
 20
33.7600770606
 11
535.1893401692
 21
33.7600770606
  0
LINE
  8
0
 62
7
  6
CONTINUOUS
 10
541.2485612601
 20
31.6158496394
 11
541.4219987601
 21
31.6803770123
  0
LINE
  8
0
 62
7
  6
CONTINUOUS
 10
543.2719989807
 20
31.6481133259
 11
543.3876242012
 21
31.6803770123
  0
LINE
  8
0
 62
7
  6
CONTINUOUS
 10
543.2719989807
 20
31.809431758
 11
543.0407492012
 21
31.7449043851
  0
LINE
  8
0
 62
7
  6
CONTINUOUS
 10
538.9938737601
 20
31.0028395296
 11
538.7048113704
 21
30.9383121455
  0
LINE
  8
0
 62
7
  6
CONTINUOUS
 10
536.2766863704
 20
31.6803770123
 11
536.5079364807
 21
31.7126406987
  0
LINE
  8
0
 62
7
  6
CONTINUOUS
 10
536.5079364807
 20
31.8416954444
 11
536.2766863704
 21
31.809431758
  0
LINE
  8
0
 62
7
  6
CONTINUOUS
 10
534.0798114807
 20
31.6803770123
 11
534.3110615082
 21
31.7126406987
  0
LINE
  8
0
 62
7
  6
CONTINUOUS
 10
540.5991762348
 20
35.2354868967
 11
541.2549139397
 21
35.2354868967
  0
LINE
  8
0
 62
7
  6
CONTINUOUS
 10
538.2423114807
 20
31.29321273
 11
538.3579363704
 21
31.3254764164
  0
LINE
  8
0
 62
7
  6
CONTINUOUS
 10
538.2423114807
 20
31.4545312073
 11
538.0110613704
 21
31.3900038345
  0
LINE
  8
0
 62
7
  6
CONTINUOUS
 10
538.1266865909
 20
31.6481133259
 11
538.2423114807
 21
31.6803770123
  0
LINE
  8
0
 62
7
  6
CONTINUOUS
 10
534.7735614807
 20
30.8415210777
 11
535.0048114255
 21
30.9060484591
  0
LINE
  8
0
 62
7
  6
CONTINUOUS
 10
538.0688739807
 20
31.809431758
 11
537.9532490909
 21
31.7771680715
  0
LINE
  8
0
 62
7
  6
CONTINUOUS
 10
534.0219989944
 20
31.809431758
 11
533.8485614944
 21
31.7771680715
  0
LINE
  8
0
 62
7
  6
CONTINUOUS
 10
544.7795041036
 20
36.3830278803
 11
543.3860614807
 21
36.3830278803
  0
LINE
  8
0
 62
7
  6
CONTINUOUS
 10
541.4188483659
 20
36.3830278803
 11
541.0062770173
 21
36.3830278803
  0
LINE
  8
0
 62
7
  6
CONTINUOUS
 10
539.7795041036
 20
36.3830278803
 11
538.3860614807
 21
36.3830278803
  0
LINE
  8
0
 62
7
  6
CONTINUOUS
 10
538.0581926282
 20
36.3830278803
 11
536.6647500053
 21
36.3830278803
  0
LINE
  8
0
 62
7
  6
CONTINUOUS
 10
534.7795041036
 20
36.3830278803
 11
533.3860614807
 21
36.3830278803
  0
LINE
  8
0
 62
7
  6
CONTINUOUS
 10
533.9641864669
 20
31.6481133259
 11
534.0798114807
 21
31.6803770123
  0
CIRCLE
  8
0
 62
7
  6
CONTINUOUS
 10
544.0827827921
 20
38.7190934541
 40
2.0901639344
  0
ARC
  8
0
 62
7
  6
CONTINUOUS
 10
535.025405743
 20
34.2518803393
 40
1.6393442623
 50
180.0
 51
270.0
  0
ARC
  8
0
 62
7
  6
CONTINUOUS
 10
541.4188483659
 20
34.743683618
 40
1.6393442623
 50
0.0
 51
90.0
  0
ARC
  8
0
 62
7
  6
CONTINUOUS
 10
535.4379770916
 20
34.0879459131
 40
1.4754098361
 50
270.0
 51
326.2510114041
  0
ARC
  8
0
 62
7
  6
CONTINUOUS
 10
541.0062770173
 20
34.9076180442
 40
1.4754098361
 50
90.0
 51
146.2510114041
  0
ARC
  8
0
 62
7
  6
CONTINUOUS
 10
535.8450778741
 20
34.5797491918
 40
0.8196721311
 50
270.0
 51
360.0
  0
ARC
  8
0
 62
7
  6
CONTINUOUS
 10
540.5991762348
 20
34.4158147655
 40
0.8196721311
 50
90.0
 51
180.0
  0
ARC
  8
0
 62
7
  6
CONTINUOUS
 10
535.1893401692
 20
34.1699131262
 40
0.4098360656
 50
180.0
 51
270.0
  0
ARC
  8
0
 62
7
  6
CONTINUOUS
 10
541.2549139397
 20
34.8256508311
 40
0.4098360656
 50
0.0
 51
90.0
  0
SOLID
  8
0
 62
7
  6
CONTINUOUS
 10
540.0923117012
 20
32.1643327593
 11
540.0923117012
 21
32.3256512429
 12
540.3813737601
 22
32.1643327593
 13
540.3813737601
 23
32.3256512429
  0
SOLID
  8
0
 62
7
  6
CONTINUOUS
 10
534.3688739531
 20
31.841695792
 11
534.7735614807
 21
31.8094316148
 12
534.0219989944
 22
31.8094316148
 13
534.0219989944
 23
31.8094316148
  0
SOLID
  8
0
 62
7
  6
CONTINUOUS
 10
533.8485614944
 20
31.7771687019
 11
534.0219989944
 21
31.8094316148
 12
534.7735614807
 22
31.8094316148
 13
534.7735614807
 23
31.8094316148
  0
SOLID
  8
0
 62
7
  6
CONTINUOUS
 10
534.7735614807
 20
31.8094316148
 11
535.0048114255
 21
31.7449043986
 12
533.8485614944
 22
31.7771687019
 13
533.8485614944
 23
31.7771687019
  0
SOLID
  8
0
 62
7
  6
CONTINUOUS
 10
533.6751239738
 20
31.712640202
 11
533.8485614944
 21
31.7771687019
 12
535.0048114255
 22
31.7449043986
 13
535.0048114255
 23
31.7449043986
  0
SOLID
  8
0
 62
7
  6
CONTINUOUS
 10
533.6751239738
 20
31.712640202
 11
535.0048114255
 21
31.7449043986
 12
534.3110615082
 22
31.712640202
 13
534.3110615082
 23
31.712640202
  0
SOLID
  8
0
 62
7
  6
CONTINUOUS
 10
534.3110615082
 20
31.712640202
 11
535.0048114255
 21
31.7449043986
 12
534.7157489531
 22
31.6803773084
 13
534.7157489531
 23
31.6803773084
  0
SOLID
  8
0
 62
7
  6
CONTINUOUS
 10
535.0048114255
 20
31.7449043986
 11
535.1782489255
 21
31.6481130052
 12
534.7157489531
 22
31.6803773084
 13
534.7157489531
 23
31.6803773084
  0
SOLID
  8
0
 62
7
  6
CONTINUOUS
 10
534.8891865358
 20
31.6158502183
 11
534.7157489531
 21
31.6803773084
 12
535.1782489255
 22
31.6481130052
 13
535.1782489255
 23
31.6481130052
  0
SOLID
  8
0
 62
7
  6
CONTINUOUS
 10
534.8891865358
 20
31.6158502183
 11
535.1782489255
 21
31.6481130052
 12
534.9469989807
 22
31.5190586669
 13
534.9469989807
 23
31.5190586669
  0
SOLID
  8
0
 62
7
  6
CONTINUOUS
 10
535.1782489255
 20
31.6481130052
 11
535.2360615358
 21
31.5190586669
 12
534.9469989807
 22
31.5190586669
 13
534.9469989807
 23
31.5190586669
  0
SOLID
  8
0
 62
7
  6
CONTINUOUS
 10
536.2766863704
 20
31.8094307377
 11
536.5079364807
 21
31.841695041
 12
536.7391865909
 22
31.841695041
 13
536.7391865909
 23
31.841695041
  0
SOLID
  8
0
 62
7
  6
CONTINUOUS
 10
536.7391865909
 20
31.841695041
 11
536.9126240909
 21
31.8094307377
 12
536.2766863704
 22
31.8094307377
 13
536.2766863704
 23
31.8094307377
  0
SOLID
  8
0
 62
7
  6
CONTINUOUS
 10
536.1032490358
 20
31.7449036475
 11
536.2766863704
 21
31.8094307377
 12
536.9126240909
 22
31.8094307377
 13
536.9126240909
 23
31.8094307377
  0
SOLID
  8
0
 62
7
  6
CONTINUOUS
 10
536.9126240909
 20
31.8094307377
 11
537.0860615909
 21
31.7449036475
 12
536.1032490358
 22
31.7449036475
 13
536.1032490358
 23
31.7449036475
  0
SOLID
  8
0
 62
7
  6
CONTINUOUS
 10
537.0860615909
 20
31.7449036475
 11
536.5079364807
 21
31.7126400953
 12
536.1032490358
 22
31.7449036475
 13
536.1032490358
 23
31.7449036475
  0
SOLID
  8
0
 62
7
  6
CONTINUOUS
 10
535.9876239807
 20
31.6803765574
 11
536.1032490358
 21
31.7449036475
 12
536.5079364807
 22
31.7126400953
 13
536.5079364807
 23
31.7126400953
  0
SOLID
  8
0
 62
7
  6
CONTINUOUS
 10
536.5079364807
 20
31.7126400953
 11
536.2766863704
 21
31.6803765574
 12
535.9876239807
 22
31.6803765574
 13
535.9876239807
 23
31.6803765574
  0
SOLID
  8
0
 62
7
  6
CONTINUOUS
 10
536.5079364807
 20
31.7126400953
 11
537.0860615909
 21
31.7449036475
 12
536.7391865909
 22
31.6803765574
 13
536.7391865909
 23
31.6803765574
  0
SOLID
  8
0
 62
7
  6
CONTINUOUS
 10
537.0860615909
 20
31.7449036475
 11
537.2016864807
 21
31.6803765574
 12
536.7391865909
 22
31.6803765574
 13
536.7391865909
 23
31.6803765574
  0
SOLID
  8
0
 62
7
  6
CONTINUOUS
 10
536.8548114807
 20
31.6481130052
 11
536.7391865909
 21
31.6803765574
 12
537.2016864807
 22
31.6803765574
 13
537.2016864807
 23
31.6803765574
  0
SOLID
  8
0
 62
7
  6
CONTINUOUS
 10
537.2016864807
 20
31.6803765574
 11
537.2594990909
 21
31.6158494672
 12
536.8548114807
 22
31.6481130052
 13
536.8548114807
 23
31.6481130052
  0
SOLID
  8
0
 62
7
  6
CONTINUOUS
 10
536.9704363704
 20
31.583585915
 11
536.8548114807
 21
31.6481130052
 12
537.2594990909
 22
31.6158494672
 13
537.2594990909
 23
31.6158494672
  0
SOLID
  8
0
 62
7
  6
CONTINUOUS
 10
536.9704363704
 20
31.583585915
 11
537.2594990909
 21
31.6158494672
 12
537.0282489807
 22
31.4545309836
 13
537.0282489807
 23
31.4545309836
  0
SOLID
  8
0
 62
7
  6
CONTINUOUS
 10
537.2594990909
 20
31.6158494672
 11
537.3173113704
 21
31.4545309836
 12
537.0282489807
 22
31.4545309836
 13
537.0282489807
 23
31.4545309836
  0
SOLID
  8
0
 62
7
  6
CONTINUOUS
 10
536.2766863704
 20
31.6803765574
 11
536.1032490358
 21
31.6158494672
 12
535.9876239807
 22
31.6803765574
 13
535.9876239807
 23
31.6803765574
  0
SOLID
  8
0
 62
7
  6
CONTINUOUS
 10
536.1032490358
 20
31.6158494672
 11
535.9876239807
 21
31.5513216117
 12
535.9876239807
 22
31.6803765574
 13
535.9876239807
 23
31.6803765574
  0
SOLID
  8
0
 62
7
  6
CONTINUOUS
 10
535.9876239807
 20
31.5513216117
 11
535.6985614255
 21
30.8092570492
 12
535.9876239807
 22
31.6803765574
 13
535.9876239807
 23
31.6803765574
  0
SOLID
  8
0
 62
7
  6
CONTINUOUS
 10
535.9876239807
 20
31.6803765574
 11
535.6985614255
 21
30.8092570492
 12
535.9876239807
 22
32.3256504918
 13
535.9876239807
 23
32.3256504918
  0
SOLID
  8
0
 62
7
  6
CONTINUOUS
 10
535.6985614255
 20
30.8092570492
 11
535.6985614255
 21
32.3256504918
 12
535.9876239807
 22
32.3256504918
 13
535.9876239807
 23
32.3256504918
  0
SOLID
  8
0
 62
7
  6
CONTINUOUS
 10
535.9876239807
 20
31.5513216117
 11
535.9876239807
 21
30.8092570492
 12
535.6985614255
 22
30.8092570492
 13
535.6985614255
 23
30.8092570492
  0
SOLID
  8
0
 62
7
  6
CONTINUOUS
 10
537.0282489807
 20
30.8092570492
 11
537.0282489807
 21
31.4545309836
 12
537.3173113704
 22
31.4545309836
 13
537.3173113704
 23
31.4545309836
  0
SOLID
  8
0
 62
7
  6
CONTINUOUS
 10
537.3173113704
 20
31.4545309836
 11
537.3173113704
 21
30.8092570492
 12
537.0282489807
 22
30.8092570492
 13
537.0282489807
 23
30.8092570492
  0
SOLID
  8
0
 62
7
  6
CONTINUOUS
 10
538.0688739807
 20
31.809431823
 11
538.4735615909
 21
31.8416958158
 12
538.8204365909
 22
31.8416958158
 13
538.8204365909
 23
31.8416958158
  0
SOLID
  8
0
 62
7
  6
CONTINUOUS
 10
538.8204365909
 20
31.8416958158
 11
539.1673112601
 21
31.809431823
 12
538.0688739807
 22
31.809431823
 13
538.0688739807
 23
31.809431823
  0
SOLID
  8
0
 62
7
  6
CONTINUOUS
 10
537.9532490909
 20
31.7771687019
 11
538.0688739807
 21
31.809431823
 12
539.1673112601
 22
31.809431823
 13
539.1673112601
 23
31.809431823
  0
SOLID
  8
0
 62
7
  6
CONTINUOUS
 10
539.1673112601
 20
31.809431823
 11
539.3407487601
 21
31.7449043986
 12
537.9532490909
 22
31.7771687019
 13
537.9532490909
 23
31.7771687019
  0
SOLID
  8
0
 62
7
  6
CONTINUOUS
 10
537.8376238704
 20
31.7126398448
 11
537.9532490909
 21
31.7771687019
 12
539.3407487601
 22
31.7449043986
 13
539.3407487601
 23
31.7449043986
  0
SOLID
  8
0
 62
7
  6
CONTINUOUS
 10
537.8376238704
 20
31.7126398448
 11
539.3407487601
 21
31.7449043986
 12
538.4735615909
 22
31.7126398448
 13
538.4735615909
 23
31.7126398448
  0
SOLID
  8
0
 62
7
  6
CONTINUOUS
 10
538.4735615909
 20
31.7126398448
 11
539.3407487601
 21
31.7449043986
 12
538.8204365909
 22
31.7126398448
 13
538.8204365909
 23
31.7126398448
  0
SOLID
  8
0
 62
7
  6
CONTINUOUS
 10
538.8204365909
 20
31.7126398448
 11
539.3407487601
 21
31.7449043986
 12
539.0516867012
 22
31.6803774007
 13
539.0516867012
 23
31.6803774007
  0
SOLID
  8
0
 62
7
  6
CONTINUOUS
 10
539.3407487601
 20
31.7449043986
 11
539.4563739807
 21
31.6803774007
 12
539.0516867012
 22
31.6803774007
 13
539.0516867012
 23
31.6803774007
  0
SOLID
  8
0
 62
7
  6
CONTINUOUS
 10
537.7798115909
 20
31.6481126336
 11
537.8376238704
 21
31.7126398448
 12
538.4735615909
 22
31.7126398448
 13
538.4735615909
 23
31.7126398448
  0
SOLID
  8
0
 62
7
  6
CONTINUOUS
 10
539.1673112601
 20
31.6481126336
 11
539.0516867012
 21
31.6803774007
 12
539.4563739807
 22
31.6803774007
 13
539.4563739807
 23
31.6803774007
  0
SOLID
  8
0
 62
7
  6
CONTINUOUS
 10
539.1673112601
 20
31.6481126336
 11
539.4563739807
 21
31.6803774007
 12
539.2251242012
 22
31.5835861968
 13
539.2251242012
 23
31.5835861968
  0
SOLID
  8
0
 62
7
  6
CONTINUOUS
 10
539.4563739807
 20
31.6803774007
 11
539.5141862601
 21
31.5835861968
 12
539.2251242012
 22
31.5835861968
 13
539.2251242012
 23
31.5835861968
  0
SOLID
  8
0
 62
7
  6
CONTINUOUS
 10
539.2251242012
 20
31.4867945216
 11
539.2251242012
 21
31.5835861968
 12
539.5141862601
 22
31.5835861968
 13
539.5141862601
 23
31.5835861968
  0
SOLID
  8
0
 62
7
  6
CONTINUOUS
 10
539.2251242012
 20
31.4867945216
 11
539.5141862601
 21
31.5835861968
 12
539.2251242012
 22
31.3577403412
 13
539.2251242012
 23
31.3577403412
  0
SOLID
  8
0
 62
7
  6
CONTINUOUS
 10
539.2251242012
 20
31.3577403412
 11
539.5141862601
 21
31.5835861968
 12
539.2251242012
 22
31.1641579843
 13
539.2251242012
 23
31.1641579843
  0
SOLID
  8
0
 62
7
  6
CONTINUOUS
 10
539.5141862601
 20
31.5835861968
 11
539.5141862601
 21
31.0673661609
 12
539.2251242012
 22
31.1641579843
 13
539.2251242012
 23
31.1641579843
  0
SOLID
  8
0
 62
7
  6
CONTINUOUS
 10
541.4219987601
 20
31.8094310465
 11
541.6532492012
 21
31.8416957661
 12
541.8844989807
 22
31.8416957661
 13
541.8844989807
 23
31.8416957661
  0
SOLID
  8
0
 62
7
  6
CONTINUOUS
 10
541.8844989807
 20
31.8416957661
 11
542.0579364807
 21
31.8094310465
 12
541.4219987601
 22
31.8094310465
 13
541.4219987601
 23
31.8094310465
  0
SOLID
  8
0
 62
7
  6
CONTINUOUS
 10
541.2485612601
 20
31.7449047044
 11
541.4219987601
 21
31.8094310465
 12
542.0579364807
 22
31.8094310465
 13
542.0579364807
 23
31.8094310465
  0
SOLID
  8
0
 62
7
  6
CONTINUOUS
 10
542.0579364807
 20
31.8094310465
 11
542.2313739807
 21
31.7449047044
 12
541.2485612601
 22
31.7449047044
 13
541.2485612601
 23
31.7449047044
  0
SOLID
  8
0
 62
7
  6
CONTINUOUS
 10
542.2313739807
 20
31.7449047044
 11
541.6532492012
 21
31.7126400953
 12
541.2485612601
 22
31.7449047044
 13
541.2485612601
 23
31.7449047044
  0
SOLID
  8
0
 62
7
  6
CONTINUOUS
 10
541.1329367012
 20
31.6803773299
 11
541.2485612601
 21
31.7449047044
 12
541.6532492012
 22
31.7126400953
 13
541.6532492012
 23
31.7126400953
  0
SOLID
  8
0
 62
7
  6
CONTINUOUS
 10
541.6532492012
 20
31.7126400953
 11
541.4219987601
 21
31.6803773299
 12
541.1329367012
 22
31.6803773299
 13
541.1329367012
 23
31.6803773299
  0
SOLID
  8
0
 62
7
  6
CONTINUOUS
 10
541.6532492012
 20
31.7126400953
 11
542.2313739807
 21
31.7449047044
 12
541.8844989807
 22
31.6803773299
 13
541.8844989807
 23
31.6803773299
  0
SOLID
  8
0
 62
7
  6
CONTINUOUS
 10
542.2313739807
 20
31.7449047044
 11
542.3469992012
 21
31.6803773299
 12
541.8844989807
 22
31.6803773299
 13
541.8844989807
 23
31.6803773299
  0
SOLID
  8
0
 62
7
  6
CONTINUOUS
 10
542.0001242012
 20
31.6481130052
 11
541.8844989807
 21
31.6803773299
 12
542.3469992012
 22
31.6803773299
 13
542.3469992012
 23
31.6803773299
  0
SOLID
  8
0
 62
7
  6
CONTINUOUS
 10
542.0001242012
 20
31.6481130052
 11
542.3469992012
 21
31.6803773299
 12
542.1157487601
 22
31.5835862682
 13
542.1157487601
 23
31.5835862682
  0
SOLID
  8
0
 62
7
  6
CONTINUOUS
 10
542.3469992012
 20
31.6803773299
 11
542.4048114807
 21
31.5835862682
 12
542.1157487601
 22
31.5835862682
 13
542.1157487601
 23
31.5835862682
  0
SOLID
  8
0
 62
7
  6
CONTINUOUS
 10
542.1735617012
 20
31.422267832
 11
542.1157487601
 21
31.5835862682
 12
542.4048114807
 22
31.5835862682
 13
542.4048114807
 23
31.5835862682
  0
SOLID
  8
0
 62
7
  6
CONTINUOUS
 10
542.4048114807
 20
31.5835862682
 11
542.4626237601
 21
31.422267832
 12
542.1735617012
 22
31.422267832
 13
542.1735617012
 23
31.422267832
  0
SOLID
  8
0
 62
7
  6
CONTINUOUS
 10
541.4219987601
 20
31.6803773299
 11
541.2485612601
 21
31.6158502183
 12
541.1329367012
 22
31.6803773299
 13
541.1329367012
 23
31.6803773299
  0
SOLID
  8
0
 62
7
  6
CONTINUOUS
 10
541.2485612601
 20
31.6158502183
 11
541.1329367012
 21
31.5513216117
 12
541.1329367012
 22
31.6803773299
 13
541.1329367012
 23
31.6803773299
  0
SOLID
  8
0
 62
7
  6
CONTINUOUS
 10
541.1329367012
 20
31.5513216117
 11
540.8438739807
 21
30.8092577743
 12
541.1329367012
 22
31.6803773299
 13
541.1329367012
 23
31.6803773299
  0
SOLID
  8
0
 62
7
  6
CONTINUOUS
 10
541.1329367012
 20
31.6803773299
 11
540.8438739807
 21
30.8092577743
 12
541.1329367012
 22
31.8416957661
 13
541.1329367012
 23
31.8416957661
  0
SOLID
  8
0
 62
7
  6
CONTINUOUS
 10
540.8438739807
 20
30.8092577743
 11
540.8438739807
 21
31.8416957661
 12
541.1329367012
 22
31.8416957661
 13
541.1329367012
 23
31.8416957661
  0
SOLID
  8
0
 62
7
  6
CONTINUOUS
 10
541.1329367012
 20
31.5513216117
 11
541.1329367012
 21
30.8092577743
 12
540.8438739807
 22
30.8092577743
 13
540.8438739807
 23
30.8092577743
  0
SOLID
  8
0
 62
7
  6
CONTINUOUS
 10
542.1735617012
 20
30.8092577743
 11
542.1735617012
 21
31.422267832
 12
542.4626237601
 22
31.422267832
 13
542.4626237601
 23
31.422267832
  0
SOLID
  8
0
 62
7
  6
CONTINUOUS
 10
542.4626237601
 20
31.422267832
 11
542.4626237601
 21
30.8092577743
 12
542.1735617012
 22
30.8092577743
 13
542.1735617012
 23
30.8092577743
  0
SOLID
  8
0
 62
7
  6
CONTINUOUS
 10
543.2719989807
 20
31.8094314924
 11
543.6188739807
 21
31.8416958387
 12
543.9657489807
 22
31.8416958387
 13
543.9657489807
 23
31.8416958387
  0
SOLID
  8
0
 62
7
  6
CONTINUOUS
 10
543.9657489807
 20
31.8416958387
 11
544.3126239807
 21
31.8094314924
 12
543.2719989807
 22
31.8094314924
 13
543.2719989807
 23
31.8094314924
  0
SOLID
  8
0
 62
7
  6
CONTINUOUS
 10
543.0407492012
 20
31.7449043986
 11
543.2719989807
 21
31.8094314924
 12
544.3126239807
 22
31.8094314924
 13
544.3126239807
 23
31.8094314924
  0
SOLID
  8
0
 62
7
  6
CONTINUOUS
 10
543.0407492012
 20
31.7449043986
 11
544.3126239807
 21
31.8094314888
 12
544.4860614807
 22
31.7771687019
 13
544.4860614807
 23
31.7771687019
  0
SOLID
  8
0
 62
7
  6
CONTINUOUS
 10
543.0407492012
 20
31.7449043986
 11
544.4860614807
 21
31.7771687019
 12
543.6188739807
 22
31.7126401399
 13
543.6188739807
 23
31.7126401399
  0
SOLID
  8
0
 62
7
  6
CONTINUOUS
 10
543.6188739807
 20
31.7126401399
 11
544.4860614807
 21
31.7771687019
 12
543.9657489807
 22
31.7126401399
 13
543.9657489807
 23
31.7126401399
  0
SOLID
  8
0
 62
7
  6
CONTINUOUS
 10
544.4860614807
 20
31.7771687019
 11
544.6594989807
 21
31.7126401399
 12
543.9657489807
 22
31.7126401399
 13
543.9657489807
 23
31.7126401399
  0
SOLID
  8
0
 62
7
  6
CONTINUOUS
 10
544.3126239807
 20
31.6803773084
 11
543.9657489807
 21
31.7126401399
 12
544.6594989807
 22
31.7126401399
 13
544.6594989807
 23
31.7126401399
  0
SOLID
  8
0
 62
7
  6
CONTINUOUS
 10
542.9251239807
 20
31.6481128977
 11
543.0407492012
 21
31.7449043986
 12
543.6188739807
 22
31.7126401399
 13
543.6188739807
 23
31.7126401399
  0
SOLID
  8
0
 62
7
  6
CONTINUOUS
 10
544.3126239807
 20
31.6803773084
 11
544.6594989807
 21
31.7126401399
 12
544.4282492012
 22
31.6481128977
 13
544.4282492012
 23
31.6481128977
  0
SOLID
  8
0
 62
7
  6
CONTINUOUS
 10
544.4282492012
 20
31.6481128977
 11
544.6594989807
 21
31.7126401399
 12
544.4860614807
 22
31.5835858812
 13
544.4860614807
 23
31.5835858812
  0
SOLID
  8
0
 62
7
  6
CONTINUOUS
 10
544.6594989807
 20
31.7126401399
 11
544.7751235396
 21
31.5835858812
 12
544.4860614807
 22
31.5835858812
 13
544.4860614807
 23
31.5835858812
  0
SOLID
  8
0
 62
7
  6
CONTINUOUS
 10
534.0798114807
 20
31.6803773084
 11
533.5594989807
 21
31.6481129264
 12
534.3110615082
 22
31.7126401456
 13
534.3110615082
 23
31.7126401456
  0
SOLID
  8
0
 62
7
  6
CONTINUOUS
 10
533.5594989807
 20
31.6481129264
 11
533.6751239738
 21
31.7126401456
 12
534.3110615082
 22
31.7126401456
 13
534.3110615082
 23
31.7126401456
  0
SOLID
  8
0
 62
7
  6
CONTINUOUS
 10
534.0798114807
 20
31.6803773084
 11
533.9641864669
 21
31.6481129264
 12
533.5594989807
 22
31.6481129264
 13
533.5594989807
 23
31.6481129264
  0
SOLID
  8
0
 62
7
  6
CONTINUOUS
 10
533.4438739824
 20
31.5190588248
 11
533.5594989807
 21
31.6481129264
 12
533.9641864669
 22
31.6481129264
 13
533.9641864669
 23
31.6481129264
  0
SOLID
  8
0
 62
7
  6
CONTINUOUS
 10
537.7798115909
 20
31.6481130555
 11
538.4735615909
 21
31.7126400953
 12
538.2423114807
 22
31.6803773084
 13
538.2423114807
 23
31.6803773084
  0
SOLID
  8
0
 62
7
  6
CONTINUOUS
 10
538.2423114807
 20
31.6803773084
 11
538.1266865909
 21
31.6481130555
 12
537.7798115909
 22
31.6481130555
 13
537.7798115909
 23
31.6481130555
  0
SOLID
  8
0
 62
7
  6
CONTINUOUS
 10
537.7798115909
 20
31.5835859653
 11
537.7798115909
 21
31.6481130555
 12
538.1266865909
 22
31.6481130555
 13
538.1266865909
 23
31.6481130555
  0
SOLID
  8
0
 62
7
  6
CONTINUOUS
 10
538.1266865909
 20
31.6481130555
 11
538.0688739807
 21
31.5835859653
 12
537.7798115909
 22
31.5835859653
 13
537.7798115909
 23
31.5835859653
  0
SOLID
  8
0
 62
7
  6
CONTINUOUS
 10
542.9251239807
 20
31.6481130555
 11
543.6188739807
 21
31.7126400953
 12
543.3876242012
 22
31.6803773084
 13
543.3876242012
 23
31.6803773084
  0
SOLID
  8
0
 62
7
  6
CONTINUOUS
 10
543.3876242012
 20
31.6803773084
 11
543.2719989807
 21
31.6481130555
 12
542.9251239807
 22
31.6481130555
 13
542.9251239807
 23
31.6481130555
  0
SOLID
  8
0
 62
7
  6
CONTINUOUS
 10
542.9251239807
 20
31.5835859653
 11
542.9251239807
 21
31.6481130555
 12
543.2719989807
 22
31.6481130555
 13
543.2719989807
 23
31.6481130555
  0
SOLID
  8
0
 62
7
  6
CONTINUOUS
 10
543.2719989807
 20
31.6481130555
 11
543.2141867012
 21
31.5835859653
 12
542.9251239807
 22
31.5835859653
 13
542.9251239807
 23
31.5835859653
  0
SOLID
  8
0
 62
7
  6
CONTINUOUS
 10
543.0407492012
 20
31.4545317347
 11
542.9251239807
 21
31.5835859653
 12
543.2141867012
 22
31.5835859653
 13
543.2141867012
 23
31.5835859653
  0
SOLID
  8
0
 62
7
  6
CONTINUOUS
 10
533.4438739824
 20
31.5190588248
 11
533.9641864669
 21
31.6481130052
 12
533.7907489669
 22
31.5513216117
 13
533.7907489669
 23
31.5513216117
  0
SOLID
  8
0
 62
7
  6
CONTINUOUS
 10
533.7907489669
 20
31.5513216117
 11
533.7329364807
 21
31.4867945216
 12
533.4438739824
 22
31.5190588248
 13
533.4438739824
 23
31.5190588248
  0
SOLID
  8
0
 62
7
  6
CONTINUOUS
 10
533.3860614807
 20
31.325476038
 11
533.4438739824
 21
31.5190588248
 12
533.7329364807
 22
31.4867945216
 13
533.7329364807
 23
31.4867945216
  0
SOLID
  8
0
 62
7
  6
CONTINUOUS
 10
538.2423114807
 20
31.4545317347
 11
538.5891864807
 21
31.4867945557
 12
539.2251242012
 22
31.4867945557
 13
539.2251242012
 23
31.4867945557
  0
SOLID
  8
0
 62
7
  6
CONTINUOUS
 10
538.2423114807
 20
31.4545317347
 11
539.2251242012
 21
31.4867945557
 12
538.0110613704
 22
31.3900038345
 13
538.0110613704
 23
31.3900038345
  0
SOLID
  8
0
 62
7
  6
CONTINUOUS
 10
538.0110613704
 20
31.3900038345
 11
539.2251242012
 21
31.4867945557
 12
538.5891864807
 22
31.3577403754
 13
538.5891864807
 23
31.3577403754
  0
SOLID
  8
0
 62
7
  6
CONTINUOUS
 10
539.2251242012
 20
31.4867945557
 11
539.2251242012
 21
31.3577403754
 12
538.5891864807
 22
31.3577403754
 13
538.5891864807
 23
31.3577403754
  0
SOLID
  8
0
 62
7
  6
CONTINUOUS
 10
543.0407492012
 20
31.4545313481
 11
543.2141867012
 21
31.583585915
 12
543.2719989807
 22
31.5190588248
 13
543.2719989807
 23
31.5190588248
  0
SOLID
  8
0
 62
7
  6
CONTINUOUS
 10
543.2719989807
 20
31.5190588248
 11
543.4454364807
 21
31.4545313481
 12
543.0407492012
 22
31.4545313481
 13
543.0407492012
 23
31.4545313481
  0
SOLID
  8
0
 62
7
  6
CONTINUOUS
 10
543.2719989807
 20
31.3577403412
 11
543.0407492012
 21
31.4545313481
 12
543.4454364807
 22
31.4545313481
 13
543.4454364807
 23
31.4545313481
  0
SOLID
  8
0
 62
7
  6
CONTINUOUS
 10
543.4454364807
 20
31.4545313481
 11
544.4282492012
 21
31.2932132511
 12
543.2719989807
 22
31.3577403412
 13
543.2719989807
 23
31.3577403412
  0
SOLID
  8
0
 62
7
  6
CONTINUOUS
 10
544.2548117012
 20
31.1964222346
 11
543.2719989807
 21
31.3577403412
 12
544.4282492012
 22
31.2932132511
 13
544.4282492012
 23
31.2932132511
  0
SOLID
  8
0
 62
7
  6
CONTINUOUS
 10
544.4282492012
 20
31.2932132511
 11
544.6594989807
 21
31.1964222346
 12
544.2548117012
 22
31.1964222346
 13
544.2548117012
 23
31.1964222346
  0
SOLID
  8
0
 62
7
  6
CONTINUOUS
 10
544.4282492012
 20
31.1318947675
 11
544.2548117012
 21
31.1964222346
 12
544.6594989807
 22
31.1964222346
 13
544.6594989807
 23
31.1964222346
  0
SOLID
  8
0
 62
7
  6
CONTINUOUS
 10
544.4282492012
 20
31.1318947675
 11
544.6594989807
 21
31.1964222346
 12
544.4860614807
 22
31.0673665164
 13
544.4860614807
 23
31.0673665164
  0
SOLID
  8
0
 62
7
  6
CONTINUOUS
 10
544.6594989807
 20
31.1964222346
 11
544.7751235396
 21
31.0673665164
 12
544.4860614807
 22
31.0673665164
 13
544.4860614807
 23
31.0673665164
  0
SOLID
  8
0
 62
7
  6
CONTINUOUS
 10
544.4282492012
 20
31.0028394316
 11
544.4860614807
 21
31.0673665164
 12
544.7751235396
 22
31.0673665164
 13
544.7751235396
 23
31.0673665164
  0
SOLID
  8
0
 62
7
  6
CONTINUOUS
 10
544.7751235396
 20
31.0673665164
 11
544.7751235396
 21
31.0028394316
 12
544.4282492012
 22
31.0028394316
 13
544.4282492012
 23
31.0028394316
  0
SOLID
  8
0
 62
7
  6
CONTINUOUS
 10
544.3126239807
 20
30.9705762839
 11
544.4282492012
 21
31.0028394316
 12
544.7751235396
 22
31.0028394316
 13
544.7751235396
 23
31.0028394316
  0
SOLID
  8
0
 62
7
  6
CONTINUOUS
 10
544.3126239807
 20
30.9705762839
 11
544.7751235396
 21
31.0028394316
 12
544.0813742012
 22
30.9383123468
 13
544.0813742012
 23
30.9383123468
  0
SOLID
  8
0
 62
7
  6
CONTINUOUS
 10
544.7751235396
 20
31.0028394316
 11
544.6594989807
 21
30.9060491937
 12
544.0813742012
 22
30.9383123468
 13
544.0813742012
 23
30.9383123468
  0
SOLID
  8
0
 62
7
  6
CONTINUOUS
 10
544.6594989807
 20
30.9060491937
 11
543.2141867012
 21
30.8737848904
 12
544.0813742012
 22
30.9383123468
 13
544.0813742012
 23
30.9383123468
  0
SOLID
  8
0
 62
7
  6
CONTINUOUS
 10
544.0813742012
 20
30.9383123468
 11
543.2141867012
 21
30.8737848904
 12
543.7344992012
 22
30.9383123468
 13
543.7344992012
 23
30.9383123468
  0
SOLID
  8
0
 62
7
  6
CONTINUOUS
 10
543.2141867012
 20
30.8737848904
 11
543.0407492012
 21
30.9383123468
 12
543.7344992012
 22
30.9383123468
 13
543.7344992012
 23
30.9383123468
  0
SOLID
  8
0
 62
7
  6
CONTINUOUS
 10
543.2141867012
 20
30.8737848904
 11
544.6594989807
 21
30.9060491937
 12
543.3876242012
 22
30.8415205581
 13
543.3876242012
 23
30.8415205581
  0
SOLID
  8
0
 62
7
  6
CONTINUOUS
 10
544.6594989807
 20
30.9060491937
 11
544.4282492012
 21
30.8415205581
 12
543.3876242012
 22
30.8415205581
 13
543.3876242012
 23
30.8415205581
  0
SOLID
  8
0
 62
7
  6
CONTINUOUS
 10
543.7344992012
 20
30.8092581772
 11
543.3876242012
 21
30.8415205581
 12
544.4282492012
 22
30.8415205581
 13
544.4282492012
 23
30.8415205581
  0
SOLID
  8
0
 62
7
  6
CONTINUOUS
 10
544.4282492012
 20
30.8415205581
 11
544.0813742012
 21
30.8092581772
 12
543.7344992012
 22
30.8092581772
 13
543.7344992012
 23
30.8092581772
  0
SOLID
  8
0
 62
7
  6
CONTINUOUS
 10
533.3860614807
 20
31.325476038
 11
533.7329364807
 21
31.4867945216
 12
533.6751239738
 22
31.3577403412
 13
533.6751239738
 23
31.3577403412
  0
SOLID
  8
0
 62
7
  6
CONTINUOUS
 10
533.6751239738
 20
31.3577403412
 11
533.6751239738
 21
31.2609490436
 12
533.3860614807
 22
31.325476038
 13
533.3860614807
 23
31.325476038
  0
SOLID
  8
0
 62
7
  6
CONTINUOUS
 10
533.4438739824
 20
31.1318947675
 11
533.3860614807
 21
31.325476038
 12
533.6751239738
 22
31.2609490436
 13
533.6751239738
 23
31.2609490436
  0
SOLID
  8
0
 62
7
  6
CONTINUOUS
 10
533.6751239738
 20
31.2609490436
 11
533.7907489669
 21
31.0996304642
 12
533.4438739824
 22
31.1318947675
 13
533.4438739824
 23
31.1318947675
  0
SOLID
  8
0
 62
7
  6
CONTINUOUS
 10
533.5594989807
 20
31.0028388804
 11
533.4438739824
 21
31.1318947675
 12
533.7907489669
 22
31.0996304642
 13
533.7907489669
 23
31.0996304642
  0
SOLID
  8
0
 62
7
  6
CONTINUOUS
 10
533.7907489669
 20
31.0996304642
 11
533.9641864669
 21
31.0028388804
 12
533.5594989807
 22
31.0028388804
 13
533.5594989807
 23
31.0028388804
  0
SOLID
  8
0
 62
7
  6
CONTINUOUS
 10
533.6751239738
 20
30.9383122606
 11
533.5594989807
 21
31.0028388804
 12
533.9641864669
 22
31.0028388804
 13
533.9641864669
 23
31.0028388804
  0
SOLID
  8
0
 62
7
  6
CONTINUOUS
 10
533.9641864669
 20
31.0028388804
 11
534.3110615082
 21
30.9383122606
 12
533.6751239738
 22
30.9383122606
 13
533.6751239738
 23
30.9383122606
  0
SOLID
  8
0
 62
7
  6
CONTINUOUS
 10
533.8485614944
 20
30.8737848904
 11
533.6751239738
 21
30.9383122606
 12
534.3110615082
 22
30.9383122606
 13
534.3110615082
 23
30.9383122606
  0
SOLID
  8
0
 62
7
  6
CONTINUOUS
 10
537.8954364807
 20
31.3254759532
 11
538.0110613704
 21
31.3900038345
 12
538.5891864807
 22
31.3577403412
 13
538.5891864807
 23
31.3577403412
  0
SOLID
  8
0
 62
7
  6
CONTINUOUS
 10
538.5891864807
 20
31.3577403412
 11
538.3579363704
 21
31.3254759532
 12
537.8954364807
 22
31.3254759532
 13
537.8954364807
 23
31.3254759532
  0
SOLID
  8
0
 62
7
  6
CONTINUOUS
 10
537.7798115909
 20
31.1964218576
 11
537.8954364807
 21
31.3254759532
 12
538.3579363704
 22
31.3254759532
 13
538.3579363704
 23
31.3254759532
  0
SOLID
  8
0
 62
7
  6
CONTINUOUS
 10
538.1266865909
 20
31.2286853572
 11
537.7798115909
 21
31.1964218576
 12
538.2423114807
 22
31.2932132511
 13
538.2423114807
 23
31.2932132511
  0
SOLID
  8
0
 62
7
  6
CONTINUOUS
 10
537.7798115909
 20
31.1964218576
 11
538.3579363704
 21
31.325476038
 12
538.2423114807
 22
31.2932132511
 13
538.2423114807
 23
31.2932132511
  0
SOLID
  8
0
 62
7
  6
CONTINUOUS
 10
538.1266865909
 20
31.2286853572
 11
538.0688739807
 21
31.1318947675
 12
537.7798115909
 22
31.1964218576
 13
537.7798115909
 23
31.1964218576
  0
SOLID
  8
0
 62
7
  6
CONTINUOUS
 10
537.7798115909
 20
31.0996304642
 11
537.7798115909
 21
31.1964218576
 12
538.0688739807
 22
31.1318947675
 13
538.0688739807
 23
31.1318947675
  0
SOLID
  8
0
 62
7
  6
CONTINUOUS
 10
538.0688739807
 20
31.1318947675
 11
538.0688739807
 21
31.0673661609
 12
537.7798115909
 22
31.0996304642
 13
537.7798115909
 23
31.0996304642
  0
SOLID
  8
0
 62
7
  6
CONTINUOUS
 10
537.8376238704
 20
30.9705762839
 11
537.7798115909
 21
31.0996304642
 12
538.0688739807
 22
31.0673661609
 13
538.0688739807
 23
31.0673661609
  0
SOLID
  8
0
 62
7
  6
CONTINUOUS
 10
539.2251242012
 20
31.1641579843
 11
539.5141862601
 21
31.0673661609
 12
539.1673112601
 22
31.0996304642
 13
539.1673112601
 23
31.0996304642
  0
SOLID
  8
0
 62
7
  6
CONTINUOUS
 10
538.9938737601
 20
31.0028390707
 11
539.1673112601
 21
31.0996304642
 12
539.5141862601
 22
31.0673661609
 13
539.5141862601
 23
31.0673661609
  0
SOLID
  8
0
 62
7
  6
CONTINUOUS
 10
538.9938737601
 20
31.0028390707
 11
539.5141862601
 21
31.0673661609
 12
539.2251242012
 22
30.9705762839
 13
539.2251242012
 23
30.9705762839
  0
SOLID
  8
0
 62
7
  6
CONTINUOUS
 10
539.5141862601
 20
31.0673661609
 11
539.5719992012
 21
30.9060491937
 12
539.2251242012
 22
30.9705762839
 13
539.2251242012
 23
30.9705762839
  0
SOLID
  8
0
 62
7
  6
CONTINUOUS
 10
539.2829364807
 20
30.8737848904
 11
539.2251242012
 21
30.9705762839
 12
539.5719992012
 22
30.9060491937
 13
539.5719992012
 23
30.9060491937
  0
SOLID
  8
0
 62
7
  6
CONTINUOUS
 10
539.2829364807
 20
30.8737848904
 11
539.5719992012
 21
30.9060491937
 12
539.3407487601
 22
30.8092576254
 13
539.3407487601
 23
30.8092576254
  0
SOLID
  8
0
 62
7
  6
CONTINUOUS
 10
539.5719992012
 20
30.9060491937
 11
539.6298114807
 21
30.8092576254
 12
539.3407487601
 22
30.8092576254
 13
539.3407487601
 23
30.8092576254
  0
SOLID
  8
0
 62
7
  6
CONTINUOUS
 10
534.8891865358
 20
31.035103216
 11
534.9469989807
 21
31.1318946289
 12
535.2360615358
 22
31.1318946289
 13
535.2360615358
 23
31.1318946289
  0
SOLID
  8
0
 62
7
  6
CONTINUOUS
 10
535.2360615358
 20
31.1318946289
 11
535.1782489255
 21
31.0028390707
 12
534.8891865358
 22
31.035103216
 13
534.8891865358
 23
31.035103216
  0
SOLID
  8
0
 62
7
  6
CONTINUOUS
 10
534.7157489531
 20
30.9705762839
 11
534.8891865358
 21
31.035103216
 12
535.1782489255
 22
31.0028390707
 13
535.1782489255
 23
31.0028390707
  0
SOLID
  8
0
 62
7
  6
CONTINUOUS
 10
534.7157489531
 20
30.9705762839
 11
535.1782489255
 21
31.0028390707
 12
534.3110615082
 22
30.9383119806
 13
534.3110615082
 23
30.9383119806
  0
SOLID
  8
0
 62
7
  6
CONTINUOUS
 10
535.1782489255
 20
31.0028390707
 11
535.0048114255
 21
30.9060491937
 12
534.3110615082
 22
30.9383119806
 13
534.3110615082
 23
30.9383119806
  0
SOLID
  8
0
 62
7
  6
CONTINUOUS
 10
533.8485614944
 20
30.8737848904
 11
534.3110615082
 21
30.9383119806
 12
535.0048114255
 22
30.9060491937
 13
535.0048114255
 23
30.9060491937
  0
SOLID
  8
0
 62
7
  6
CONTINUOUS
 10
533.8485614944
 20
30.8737848904
 11
535.0048114255
 21
30.9060491937
 12
534.0219989944
 22
30.8415207131
 13
534.0219989944
 23
30.8415207131
  0
SOLID
  8
0
 62
7
  6
CONTINUOUS
 10
535.0048114255
 20
30.9060491937
 11
534.7735614807
 21
30.8415207131
 12
534.0219989944
 22
30.8415207131
 13
534.0219989944
 23
30.8415207131
  0
SOLID
  8
0
 62
7
  6
CONTINUOUS
 10
534.3688739531
 20
30.8092578002
 11
534.0219989944
 21
30.8415207131
 12
534.7735614807
 22
30.8415207131
 13
534.7735614807
 23
30.8415207131
  0
SOLID
  8
0
 62
7
  6
CONTINUOUS
 10
537.8376238704
 20
30.9705762839
 11
538.0688739807
 21
31.0673661609
 12
538.1266865909
 22
31.0028390707
 13
538.1266865909
 23
31.0028390707
  0
SOLID
  8
0
 62
7
  6
CONTINUOUS
 10
538.1266865909
 20
31.0028390707
 11
538.3579363704
 21
30.9383119806
 12
537.8376238704
 22
30.9705762839
 13
537.8376238704
 23
30.9705762839
  0
SOLID
  8
0
 62
7
  6
CONTINUOUS
 10
538.0110613704
 20
30.8737848904
 11
537.8376238704
 21
30.9705762839
 12
538.3579363704
 22
30.9383119806
 13
538.3579363704
 23
30.9383119806
  0
SOLID
  8
0
 62
7
  6
CONTINUOUS
 10
538.7048113704
 20
30.9383119664
 11
538.9938737601
 21
31.0028390707
 12
539.2251242012
 22
30.9705762839
 13
539.2251242012
 23
30.9705762839
  0
SOLID
  8
0
 62
7
  6
CONTINUOUS
 10
539.2251242012
 20
30.9705762839
 11
539.1673112601
 21
30.9060491937
 12
538.7048113704
 22
30.9383119664
 13
538.7048113704
 23
30.9383119664
  0
SOLID
  8
0
 62
7
  6
CONTINUOUS
 10
539.1673112601
 20
30.9060491937
 11
538.0110613704
 21
30.8737848904
 12
538.7048113704
 22
30.9383119664
 13
538.7048113704
 23
30.9383119664
  0
SOLID
  8
0
 62
7
  6
CONTINUOUS
 10
538.0110613704
 20
30.8737848904
 11
538.3579363704
 21
30.9383119664
 12
538.7048113704
 22
30.9383119664
 13
538.7048113704
 23
30.9383119664
  0
SOLID
  8
0
 62
7
  6
CONTINUOUS
 10
538.0110613704
 20
30.8737848904
 11
539.1673112601
 21
30.9060491937
 12
538.1266865909
 22
30.8415205568
 13
538.1266865909
 23
30.8415205568
  0
SOLID
  8
0
 62
7
  6
CONTINUOUS
 10
539.1673112601
 20
30.9060491937
 11
538.9938737601
 21
30.8415205568
 12
538.1266865909
 22
30.8415205568
 13
538.1266865909
 23
30.8415205568
  0
SOLID
  8
0
 62
7
  6
CONTINUOUS
 10
538.3579363704
 20
30.8092577215
 11
538.1266865909
 21
30.8415205568
 12
538.9938737601
 22
30.8415205568
 13
538.9938737601
 23
30.8415205568
  0
SOLID
  8
0
 62
7
  6
CONTINUOUS
 10
538.9938737601
 20
30.8415205568
 11
538.7048113704
 21
30.8092577215
 12
538.3579363704
 22
30.8092577215
 13
538.3579363704
 23
30.8092577215
  0
SOLID
  8
0
 62
7
  6
CONTINUOUS
 10
543.3876242012
 20
30.9705762839
 11
543.0407492012
 21
30.9383119664
 12
543.2719989807
 22
31.0028390707
 13
543.2719989807
 23
31.0028390707
  0
SOLID
  8
0
 62
7
  6
CONTINUOUS
 10
543.2719989807
 20
31.0028390707
 11
543.0407492012
 21
30.9383119664
 12
543.2141867012
 22
31.0673661467
 13
543.2141867012
 23
31.0673661467
  0
SOLID
  8
0
 62
7
  6
CONTINUOUS
 10
543.0407492012
 20
30.9383119664
 11
542.9251239807
 21
31.0673661467
 12
543.2141867012
 22
31.0673661467
 13
543.2141867012
 23
31.0673661467
  0
SOLID
  8
0
 62
7
  6
CONTINUOUS
 10
543.3876242012
 20
30.9705762839
 11
543.7344992012
 21
30.9383119664
 12
543.0407492012
 22
30.9383119664
 13
543.0407492012
 23
30.9383119664
  0
SOLID
  8
0
 62
7
  6
CONTINUOUS
 10
540.0923117012
 20
30.8092578002
 11
540.0923117012
 21
31.841695792
 12
540.3813737601
 22
30.8092578002
 13
540.3813737601
 23
31.841695792
  0
ENDBLK
  8
0
  6
BYBLOCK
 62
0
  0
BLOCK
  8
0
 62
2
  6
CONTINUOUS
  2
AMMEAAL_LOGO_BL0
 70
64
 10
416.1419631151
 20
19.7009994242
  0
TEXT
  8
0
 62
7
  6
CONTINUOUS
 10
402.4066669574
 20
19.0744135318
  7
TEXTSTYLE_3
 40
2.7338706658
  1
Ammeraal Beltech
 41
1.0
 51
15.0
 72
0
  0
TEXT
  8
0
 62
7
  6
CONTINUOUS
 10
413.2074677831
 20
16.800876859
  7
TEXTSTYLE_4
 40
1.0935482663
  1
Innovation & Service in Belting
 41
1.0
 72
0
  0
LINE
  8
0
 62
7
  6
CONTINUOUS
 10
396.382126306
 20
19.8410068404
 11
397.1602782994
 21
23.5019241381
  0
LINE
  8
0
 62
7
  6
CONTINUOUS
 10
407.2554465892
 20
27.1653180497
 11
397.6480960424
 21
24.0437006284
  0
LINE
  8
0
 62
7
  6
CONTINUOUS
 10
396.6074096383
 20
19.1476560374
 11
404.1144848995
 21
12.3882551114
  0
LINE
  8
0
 62
7
  6
CONTINUOUS
 10
396.869944049
 20
20.3827833308
 11
407.6782134142
 21
23.8946029297
  0
LINE
  8
0
 62
7
  6
CONTINUOUS
 10
407.674008277
 20
13.544814366
 11
399.2285486083
 21
21.1491404077
  0
LINE
  8
0
 62
7
  6
CONTINUOUS
 10
408.1938309968
 20
26.320392934
 11
407.2172714596
 21
21.7260415315
  0
LINE
  8
0
 62
7
  6
CONTINUOUS
 10
406.5174695119
 20
18.4337322177
 11
405.8310213004
 21
15.2042472933
  0
LINE
  8
0
 62
7
  6
CONTINUOUS
 10
408.8749270954
 20
13.9350165436
 11
409.831158631
 21
18.4337322177
  0
LINE
  8
0
 62
7
  6
CONTINUOUS
 10
410.5309605787
 20
21.7260415315
 11
410.9752023811
 21
23.8160348909
  0
LINE
  8
0
 62
7
  6
CONTINUOUS
 10
404.8275859748
 20
12.2366807987
 11
408.3871093524
 21
13.3932400533
  0
LINE
  8
0
 62
7
  6
CONTINUOUS
 10
407.9685476645
 20
27.013743737
 11
410.7499190488
 21
24.5093856939
  0
ARC
  8
0
 62
7
  6
CONTINUOUS
 10
397.8733793747
 20
23.3503498254
 40
0.7290321776
 50
108.0
 51
168.0
  0
ARC
  8
0
 62
7
  6
CONTINUOUS
 10
407.4807299215
 20
26.4719672466
 40
0.7290321776
 50
348.0
 51
108.0
  0
ARC
  8
0
 62
7
  6
CONTINUOUS
 10
410.2621013058
 20
23.9676092036
 40
0.7290321776
 50
348.0
 51
48.0
  0
ARC
  8
0
 62
7
  6
CONTINUOUS
 10
404.6023026425
 20
12.9300316018
 40
0.7290321776
 50
228.0
 51
288.0
  0
ARC
  8
0
 62
7
  6
CONTINUOUS
 10
397.0952273813
 20
19.6894325277
 40
0.7290321776
 50
108.0
 51
228.0
  0
ARC
  8
0
 62
7
  6
CONTINUOUS
 10
408.1618260201
 20
14.0865908563
 40
0.7290321776
 50
228.0
 51
348.0
  0
ENDBLK
  8
0
  6
BYBLOCK
 62
0
  0
ENDSEC
  0
SECTION
  2
ENTITIES
  0
TEXT
  8
0
 62
5
  6
CONTINUOUS
 10
480.0
 20
25.636
  7
TEXTSTYLE_2
 40
2.8
  1
Scale :
 41
0.6
 51
0.000019
 72
0
  0
TEXT
  8
0
 62
5
  6
CONTINUOUS
 10
500.0
 20
25.636
  7
TEXTSTYLE_2
 40
2.8
  1
Belt type:
 41
0.6
 51
0.000019
 72
0
  0
INSERT
  8
0
 62
2
  6
CONTINUOUS
  2
AMMEAAL_LOGO_BL0
 10
416.1419631151
 20
19.7009994242
  0
INSERT
  8
0
 62
2
  6
CONTINUOUS
  2
UNI_LOGO2_BL1
 10
557.4079930916
 20
35.8092573885
  0
LINE
  8
0
 62
2
  6
CONTINUOUS
 10
394.0
 20
30.0
 11
584.0
 21
30.0
  0
LINE
  8
0
 62
2
  6
CONTINUOUS
 10
394.0
 20
30.0
 11
394.0
 21
10.0
  0
LINE
  8
0
 62
2
  6
CONTINUOUS
 10
394.0
 20
10.0
 11
584.0
 21
10.0
  0
LINE
  8
0
 62
2
  6
CONTINUOUS
 10
479.0
 20
30.0
 11
479.0
 21
10.0
  0
LINE
  8
0
 62
2
  6
CONTINUOUS
 10
499.0
 20
30.0
 11
499.0
 21
10.0
  0
LINE
  8
0
 62
2
  6
CONTINUOUS
 10
584.0
 20
30.0
 11
584.0
 21
10.0
  0
TEXT
  8
0
 62
5
  6
CONTINUOUS
 10
397.0
 20
23.303
  7
TEXTSTYLE_5
 40
1.52
  1
                                                                     Ammeraal Beltech Modular A/S
 41
1.0
 72
0
  0
TEXT
  8
0
 62
5
  6
CONTINUOUS
 10
397.0
 20
20.595
  7
TEXTSTYLE_5
 40
1.5
  1
                                                                      Hjulmagervej 21, 7100 Vejle,  DK
 41
1.0
 72
0
  0
TEXT
  8
0
 62
5
  6
CONTINUOUS
 10
397.0
 20
17.881
  7
TEXTSTYLE_5
 40
1.495
  1
                                                                      tel: 
 41
1.0
 72
0
  0
TEXT
  8
0
 62
5
  6
CONTINUOUS
 10
441.9869465649
 20
17.881
  7
TEXTSTYLE_5
 40
1.51
  1
+45 75723100     fax: +45 75723348
 41
1.0
 72
0
  0
TEXT
  8
0
 62
5
  6
CONTINUOUS
 10
397.0
 20
15.177
  7
TEXTSTYLE_5
 40
1.5
  1
                                                                      admin@unichains.dk  www.unichains.com
 41
1.0
 72
0
  0
TEXT
  8
0
 62
5
  6
CONTINUOUS
 10
483.75
 20
13.75
  7
TEXTSTYLE_6
 40
5.0
  1
1:1
 41
0.7
 72
1
 11
489.0
 21
13.75
  0
TEXT
  8
0
 62
5
  6
CONTINUOUS
 10
502.0
 20
13.75
  7
TEXTSTYLE_7
 40
7.5
  1
uni Flex L-OSB 2,2/65% K1280 Both
 41
0.3244949495
 72
0
  0
LINE
  8
0
 62
7
  6
CONTINUOUS
 10
0.0
 20
0.0
 11
0.0
 21
420.0
  0
LINE
  8
0
 62
7
  6
CONTINUOUS
 10
10.0
 20
10.0
 11
10.0
 21
410.0
  0
LINE
  8
0
 62
7
  6
CONTINUOUS
 10
0.0
 20
0.0
 11
594.0
 21
0.0
  0
LINE
  8
0
 62
7
  6
CONTINUOUS
 10
10.0
 20
10.0
 11
584.0
 21
10.0
  0
LINE
  8
0
 62
7
  6
CONTINUOUS
 10
394.0
 20
30.0
 11
584.0
 21
30.0
  0
LINE
  8
0
 62
7
  6
CONTINUOUS
 10
179.0
 20
5.0
 11
179.0
 21
10.0
  0
LINE
  8
0
 62
7
  6
CONTINUOUS
 10
179.0
 20
410.0
 11
179.0
 21
415.0
  0
LINE
  8
0
 62
7
  6
CONTINUOUS
 10
594.0
 20
420.0
 11
584.0
 21
410.0
  0
LINE
  8
0
 62
7
  6
CONTINUOUS
 10
384.0
 20
410.0
 11
384.0
 21
415.0
  0
LINE
  8
0
 62
7
  6
CONTINUOUS
 10
584.0
 20
297.0
 11
589.0
 21
297.0
  0
LINE
  8
0
 62
7
  6
CONTINUOUS
 10
10.0
 20
410.0
 11
584.0
 21
410.0
  0
LINE
  8
0
 62
7
  6
CONTINUOUS
 10
0.0
 20
420.0
 11
594.0
 21
420.0
  0
LINE
  8
0
 62
7
  6
CONTINUOUS
 10
584.0
 20
10.0
 11
584.0
 21
410.0
  0
LINE
  8
0
 62
7
  6
CONTINUOUS
 10
594.0
 20
0.0
 11
594.0
 21
420.0
  0
LINE
  8
SURFACE
 62
7
  6
CONTINUOUS
 10
459.1057385554
 20
279.1355225139
 11
459.1057385554
 21
279.4355225139
  0
LINE
  8
DEFAULT_1
 62
2
  6
CENTER
 10
467.1057385554
 20
286.7105225139
 11
467.1057385554
 21
281.2856225139
  0
LINE
  8
0
 62
2
  6
CONTINUOUS
 10
467.1057385554
 20
280.7705225139
 11
467.1057385554
 21
277.8005225139
  0
LINE
  8
DEFAULT_1
 62
2
  6
CENTER
 10
467.1057385554
 20
271.8605225139
 11
467.1057385554
 21
277.2854225139
  0
POLYLINE
  8
0
 62
7
  6
CONTINUOUS
 66
1
 70
0
  0
VERTEX
  8
0
 62
7
  6
CONTINUOUS
 10
520.069190082
 20
271.9285834216
  0
VERTEX
  8
0
 62
7
  6
CONTINUOUS
 10
520.5204543795
 20
271.9846613159
  0
VERTEX
  8
0
 62
7
  6
CONTINUOUS
 10
521.2235862819
 20
272.140918988
  0
VERTEX
  8
0
 62
7
  6
CONTINUOUS
 10
522.5845172876
 20
272.5825984035
  0
VERTEX
  8
0
 62
7
  6
CONTINUOUS
 10
523.1964999369
 20
272.8472843326
  0
SEQEND
  0
POLYLINE
  8
SURFACE
 62
7
  6
CONTINUOUS
 66
1
 70
0
  0
VERTEX
  8
SURFACE
 62
7
  6
CONTINUOUS
 10
518.4026105484
 20
271.7855225139
  0
VERTEX
  8
SURFACE
 62
7
  6
CONTINUOUS
 10
519.0826657353
 20
271.805989615
  0
VERTEX
  8
SURFACE
 62
7
  6
CONTINUOUS
 10
520.5204543795
 20
271.9846613159
  0
VERTEX
  8
SURFACE
 62
7
  6
CONTINUOUS
 10
521.2235862819
 20
272.140918988
  0
VERTEX
  8
SURFACE
 62
7
  6
CONTINUOUS
 10
522.5845172876
 20
272.5825984035
  0
VERTEX
  8
SURFACE
 62
7
  6
CONTINUOUS
 10
523.1964999369
 20
272.8472843326
  0
SEQEND
  0
LINE
  8
SURFACE
 62
7
  6
CONTINUOUS
 10
466.4557385554
 20
271.7855225139
 11
518.5557385554
 21
271.7855225139
  0
POLYLINE
  8
SURFACE
 62
7
  6
CONTINUOUS
 66
1
 70
0
  0
VERTEX
  8
SURFACE
 62
7
  6
CONTINUOUS
 10
489.7568841314
 20
271.7855225139
  0
VERTEX
  8
SURFACE
 62
7
  6
CONTINUOUS
 10
489.67068895
 20
271.8001730829
  0
VERTEX
  8
SURFACE
 62
7
  6
CONTINUOUS
 10
489.5933784314
 20
271.8427890478
  0
VERTEX
  8
SURFACE
 62
7
  6
CONTINUOUS
 10
489.5326469529
 20
271.9092402682
  0
VERTEX
  8
SURFACE
 62
7
  6
CONTINUOUS
 10
489.4945158274
 20
271.9929493098
  0
VERTEX
  8
SURFACE
 62
7
  6
CONTINUOUS
 10
489.4826884752
 20
272.0855225139
  0
SEQEND
  0
POLYLINE
  8
SURFACE
 62
7
  6
CONTINUOUS
 66
1
 70
0
  0
VERTEX
  8
SURFACE
 62
7
  6
CONTINUOUS
 10
489.4826843799
 20
286.4855225139
  0
VERTEX
  8
SURFACE
 62
7
  6
CONTINUOUS
 10
489.4945127333
 20
286.5780995003
  0
VERTEX
  8
SURFACE
 62
7
  6
CONTINUOUS
 10
489.5326440607
 20
286.6618067588
  0
VERTEX
  8
SURFACE
 62
7
  6
CONTINUOUS
 10
489.5933746457
 20
286.7282563277
  0
VERTEX
  8
SURFACE
 62
7
  6
CONTINUOUS
 10
489.6706851316
 20
286.7708720916
  0
VERTEX
  8
SURFACE
 62
7
  6
CONTINUOUS
 10
489.756880044
 20
286.7855225139
  0
SEQEND
  0
LINE
  8
SURFACE
 62
7
  6
CONTINUOUS
 10
467.1057385554
 20
276.1855225139
 11
483.6057385554
 21
276.1855225139
  0
LINE
  8
SURFACE
 62
7
  6
CONTINUOUS
 10
466.8822409942
 20
276.1935896492
 11
467.1057385554
 21
276.1855225139
  0
LINE
  8
DEFAULT_1
 62
2
  6
CENTER
 10
492.5057292355
 20
257.9841002107
 11
492.5057292355
 21
294.0711390471
  0
LINE
  8
DEFAULT_1
 62
2
  6
CENTER
 10
525.3307385554
 20
279.2855225139
 11
519.9057635554
 21
279.2855225139
  0
LINE
  8
0
 62
2
  6
CONTINUOUS
 10
519.3907385554
 20
279.2855225139
 11
516.4207385554
 21
279.2855225139
  0
LINE
  8
DEFAULT_1
 62
2
  6
CENTER
 10
474.5307385554
 20
279.2855225139
 11
469.1058385554
 21
279.2855225139
  0
LINE
  8
0
 62
2
  6
CONTINUOUS
 10
468.5907385554
 20
279.2855225139
 11
465.6207385554
 21
279.2855225139
  0
LINE
  8
DEFAULT_1
 62
2
  6
CENTER
 10
459.6807385554
 20
279.2855225139
 11
465.1056385554
 21
279.2855225139
  0
LINE
  8
DEFAULT_1
 62
2
  6
CENTER
 10
510.4807385554
 20
279.2855225139
 11
515.9057135554
 21
279.2855225139
  0
LINE
  8
SURFACE
 62
7
  6
CONTINUOUS
 10
467.1057385554
 20
282.3855225139
 11
466.8822409942
 21
282.3774553787
  0
LINE
  8
SURFACE
 62
7
  6
CONTINUOUS
 10
483.6057385554
 20
282.3855225139
 11
467.1057385554
 21
282.3855225139
  0
LINE
  8
SURFACE
 62
7
  6
CONTINUOUS
 10
466.4557385554
 20
286.7855225139
 11
518.5557385554
 21
286.7855225139
  0
POLYLINE
  8
SURFACE
 62
7
  6
CONTINUOUS
 66
1
 70
0
  0
VERTEX
  8
SURFACE
 62
7
  6
CONTINUOUS
 10
523.1964922395
 20
272.847300735
  0
VERTEX
  8
SURFACE
 62
7
  6
CONTINUOUS
 10
523.8301754545
 20
273.1810511976
  0
VERTEX
  8
SURFACE
 62
7
  6
CONTINUOUS
 10
524.4976883275
 20
273.6253279569
  0
VERTEX
  8
SURFACE
 62
7
  6
CONTINUOUS
 10
525.1386503425
 20
274.1718691586
  0
VERTEX
  8
SURFACE
 62
7
  6
CONTINUOUS
 10
525.4407502563
 20
274.4847791583
  0
VERTEX
  8
SURFACE
 62
7
  6
CONTINUOUS
 10
525.9951244712
 20
275.1925584698
  0
VERTEX
  8
SURFACE
 62
7
  6
CONTINUOUS
 10
526.4564634101
 20
275.9962569208
  0
VERTEX
  8
SURFACE
 62
7
  6
CONTINUOUS
 10
526.7923418069
 20
276.8454390578
  0
SEQEND
  0
POLYLINE
  8
0
 62
7
  6
CONTINUOUS
 66
1
 70
0
  0
VERTEX
  8
0
 62
7
  6
CONTINUOUS
 10
523.1964922395
 20
272.847300735
  0
VERTEX
  8
0
 62
7
  6
CONTINUOUS
 10
523.8301754545
 20
273.1810511976
  0
VERTEX
  8
0
 62
7
  6
CONTINUOUS
 10
524.4976883275
 20
273.6253279569
  0
VERTEX
  8
0
 62
7
  6
CONTINUOUS
 10
525.1386503425
 20
274.1718691586
  0
VERTEX
  8
0
 62
7
  6
CONTINUOUS
 10
525.4407502563
 20
274.4847791583
  0
VERTEX
  8
0
 62
7
  6
CONTINUOUS
 10
525.9951244712
 20
275.1925584698
  0
VERTEX
  8
0
 62
7
  6
CONTINUOUS
 10
526.4564634101
 20
275.9962569208
  0
SEQEND
  0
POLYLINE
  8
SURFACE
 62
7
  6
CONTINUOUS
 66
1
 70
0
  0
VERTEX
  8
SURFACE
 62
7
  6
CONTINUOUS
 10
523.1964999369
 20
285.7237606952
  0
VERTEX
  8
SURFACE
 62
7
  6
CONTINUOUS
 10
522.5882933938
 20
285.9869468777
  0
VERTEX
  8
SURFACE
 62
7
  6
CONTINUOUS
 10
521.2275756109
 20
286.4291052557
  0
VERTEX
  8
SURFACE
 62
7
  6
CONTINUOUS
 10
520.524505041
 20
286.5856161421
  0
VERTEX
  8
SURFACE
 62
7
  6
CONTINUOUS
 10
519.0867457862
 20
286.7648092293
  0
VERTEX
  8
SURFACE
 62
7
  6
CONTINUOUS
 10
518.4026105488
 20
286.7855225139
  0
SEQEND
  0
POLYLINE
  8
0
 62
7
  6
CONTINUOUS
 66
1
 70
0
  0
VERTEX
  8
0
 62
7
  6
CONTINUOUS
 10
523.1964999369
 20
285.7237606952
  0
VERTEX
  8
0
 62
7
  6
CONTINUOUS
 10
522.5882933938
 20
285.9869468777
  0
VERTEX
  8
0
 62
7
  6
CONTINUOUS
 10
521.2275756109
 20
286.4291052557
  0
VERTEX
  8
0
 62
7
  6
CONTINUOUS
 10
520.524505041
 20
286.5856161421
  0
VERTEX
  8
0
 62
7
  6
CONTINUOUS
 10
520.0691831256
 20
286.6423645438
  0
SEQEND
  0
LINE
  8
DEFAULT_1
 62
2
  6
CENTER
 10
517.9057385554
 20
286.7105225139
 11
517.9057385554
 21
281.2855475139
  0
LINE
  8
0
 62
2
  6
CONTINUOUS
 10
517.9057385554
 20
280.7705225139
 11
517.9057385554
 21
277.8005225139
  0
LINE
  8
DEFAULT_1
 62
2
  6
CENTER
 10
517.9057385554
 20
271.8605225139
 11
517.9057385554
 21
277.2854975139
  0
POLYLINE
  8
SURFACE
 62
7
  6
CONTINUOUS
 66
1
 70
0
  0
VERTEX
  8
SURFACE
 62
7
  6
CONTINUOUS
 10
526.792406664
 20
276.8456744644
  0
VERTEX
  8
SURFACE
 62
7
  6
CONTINUOUS
 10
526.860230044
 20
277.0837882245
  0
VERTEX
  8
SURFACE
 62
7
  6
CONTINUOUS
 10
526.9666575381
 20
277.6141837089
  0
VERTEX
  8
SURFACE
 62
7
  6
CONTINUOUS
 10
527.0240004086
 20
278.128660862
  0
VERTEX
  8
SURFACE
 62
7
  6
CONTINUOUS
 10
527.0503266903
 20
278.6386238542
  0
VERTEX
  8
SURFACE
 62
7
  6
CONTINUOUS
 10
527.0587831888
 20
279.1526719786
  0
VERTEX
  8
SURFACE
 62
7
  6
CONTINUOUS
 10
527.0588056086
 20
279.4122952727
  0
VERTEX
  8
SURFACE
 62
7
  6
CONTINUOUS
 10
527.0504638824
 20
279.9280987238
  0
VERTEX
  8
SURFACE
 62
7
  6
CONTINUOUS
 10
527.0241375174
 20
280.4405450834
  0
VERTEX
  8
SURFACE
 62
7
  6
CONTINUOUS
 10
526.9667875666
 20
280.9566790297
  0
VERTEX
  8
SURFACE
 62
7
  6
CONTINUOUS
 10
526.8598598727
 20
281.4889626751
  0
SEQEND
  0
POLYLINE
  8
0
 62
7
  6
CONTINUOUS
 66
1
 70
0
  0
VERTEX
  8
0
 62
7
  6
CONTINUOUS
 10
526.792406664
 20
276.8456744644
  0
VERTEX
  8
0
 62
7
  6
CONTINUOUS
 10
526.860230044
 20
277.0837882245
  0
VERTEX
  8
0
 62
7
  6
CONTINUOUS
 10
526.9666575381
 20
277.6141837089
  0
VERTEX
  8
0
 62
7
  6
CONTINUOUS
 10
527.0240004086
 20
278.128660862
  0
VERTEX
  8
0
 62
7
  6
CONTINUOUS
 10
527.0503266903
 20
278.6386238542
  0
VERTEX
  8
0
 62
7
  6
CONTINUOUS
 10
527.0587831888
 20
279.1526719786
  0
VERTEX
  8
0
 62
7
  6
CONTINUOUS
 10
527.0588056086
 20
279.4122952727
  0
VERTEX
  8
0
 62
7
  6
CONTINUOUS
 10
527.0504638824
 20
279.9280987238
  0
VERTEX
  8
0
 62
7
  6
CONTINUOUS
 10
527.0241375174
 20
280.4405450834
  0
VERTEX
  8
0
 62
7
  6
CONTINUOUS
 10
526.9667875666
 20
280.9566790297
  0
VERTEX
  8
0
 62
7
  6
CONTINUOUS
 10
526.8598598727
 20
281.4889626751
  0
VERTEX
  8
0
 62
7
  6
CONTINUOUS
 10
526.7924074735
 20
281.7253679921
  0
SEQEND
  0
LINE
  8
SURFACE
 62
7
  6
CONTINUOUS
 10
526.7924099598
 20
276.8456562116
 11
526.7923418069
 21
276.8454390578
  0
LINE
  8
0
 62
7
  6
CONTINUOUS
 10
526.4564634101
 20
275.9962569208
 11
526.7923418069
 21
276.8454390578
  0
POLYLINE
  8
SURFACE
 62
7
  6
CONTINUOUS
 66
1
 70
0
  0
VERTEX
  8
SURFACE
 62
7
  6
CONTINUOUS
 10
526.7923413797
 20
281.7256073636
  0
VERTEX
  8
SURFACE
 62
7
  6
CONTINUOUS
 10
526.4554857633
 20
282.5768229576
  0
VERTEX
  8
SURFACE
 62
7
  6
CONTINUOUS
 10
525.9941006048
 20
283.3800057158
  0
VERTEX
  8
SURFACE
 62
7
  6
CONTINUOUS
 10
525.439568638
 20
284.0875738598
  0
VERTEX
  8
SURFACE
 62
7
  6
CONTINUOUS
 10
525.1378654899
 20
284.3999085307
  0
VERTEX
  8
SURFACE
 62
7
  6
CONTINUOUS
 10
524.4972685373
 20
284.9460328103
  0
VERTEX
  8
SURFACE
 62
7
  6
CONTINUOUS
 10
523.829646577
 20
285.3904038793
  0
VERTEX
  8
SURFACE
 62
7
  6
CONTINUOUS
 10
523.1964922512
 20
285.7237443178
  0
SEQEND
  0
POLYLINE
  8
0
 62
7
  6
CONTINUOUS
 66
1
 70
0
  0
VERTEX
  8
0
 62
7
  6
CONTINUOUS
 10
526.7659376192
 20
281.7923282125
  0
VERTEX
  8
0
 62
7
  6
CONTINUOUS
 10
526.4554857633
 20
282.5768229576
  0
VERTEX
  8
0
 62
7
  6
CONTINUOUS
 10
525.9941006048
 20
283.3800057158
  0
VERTEX
  8
0
 62
7
  6
CONTINUOUS
 10
525.439568638
 20
284.0875738598
  0
VERTEX
  8
0
 62
7
  6
CONTINUOUS
 10
525.1378654899
 20
284.3999085307
  0
VERTEX
  8
0
 62
7
  6
CONTINUOUS
 10
524.4972685373
 20
284.9460328103
  0
VERTEX
  8
0
 62
7
  6
CONTINUOUS
 10
523.829646577
 20
285.3904038793
  0
VERTEX
  8
0
 62
7
  6
CONTINUOUS
 10
523.1964922512
 20
285.7237443178
  0
SEQEND
  0
LINE
  8
SURFACE
 62
7
  6
CONTINUOUS
 10
526.7924074735
 20
281.7253679921
 11
526.7923377928
 21
281.7255885215
  0
LINE
  8
SURFACE
 62
7
  6
CONTINUOUS
 10
526.8598598727
 20
281.4889626751
 11
526.7924074735
 21
281.7253679921
  0
LINE
  8
SURFACE
 62
7
  6
CONTINUOUS
 10
62.2511212339
 20
272.0855225139
 11
62.2511212339
 21
286.4855225139
  0
LINE
  8
SURFACE
 62
7
  6
CONTINUOUS
 10
71.9511212339
 20
272.0855225139
 11
71.9511212339
 21
286.4855225139
  0
POLYLINE
  8
SURFACE
 62
7
  6
CONTINUOUS
 66
1
 70
0
  0
VERTEX
  8
SURFACE
 62
7
  6
CONTINUOUS
 10
89.6034088862
 20
273.6058142352
  0
VERTEX
  8
SURFACE
 62
7
  6
CONTINUOUS
 10
89.607279591
 20
273.4853486996
  0
VERTEX
  8
SURFACE
 62
7
  6
CONTINUOUS
 10
89.6656074762
 20
273.1288101572
  0
VERTEX
  8
SURFACE
 62
7
  6
CONTINUOUS
 10
89.8048841197
 20
272.7668470497
  0
VERTEX
  8
SURFACE
 62
7
  6
CONTINUOUS
 10
90.027828001
 20
272.4308900607
  0
VERTEX
  8
SURFACE
 62
7
  6
CONTINUOUS
 10
90.1986703843
 20
272.2532427741
  0
SEQEND
  0
LINE
  8
SURFACE
 62
7
  6
CONTINUOUS
 10
94.1123769584
 20
286.4933755984
 11
94.1140152095
 21
286.430813311
  0
LINE
  8
SURFACE
 62
7
  6
CONTINUOUS
 10
97.4898655095
 20
272.0776694294
 11
97.4882272597
 21
272.1402316657
  0
LINE
  8
SURFACE
 62
7
  6
CONTINUOUS
 10
89.6034088834
 20
284.9652131504
 11
89.6034088834
 21
273.6058318942
  0
LINE
  8
SURFACE
 62
7
  6
CONTINUOUS
 10
94.1140150095
 20
272.1402240781
 11
94.1123769584
 21
272.0776694294
  0
LINE
  8
SURFACE
 62
7
  6
CONTINUOUS
 10
97.4882274581
 20
286.4308209414
 11
97.4898655095
 21
286.4933755984
  0
POLYLINE
  8
SURFACE
 62
7
  6
CONTINUOUS
 66
1
 70
0
  0
VERTEX
  8
SURFACE
 62
7
  6
CONTINUOUS
 10
88.7444521394
 20
272.0855225139
  0
VERTEX
  8
SURFACE
 62
7
  6
CONTINUOUS
 10
88.7576874701
 20
271.9929190545
  0
VERTEX
  8
SURFACE
 62
7
  6
CONTINUOUS
 10
88.7893365242
 20
271.909227734
  0
VERTEX
  8
SURFACE
 62
7
  6
CONTINUOUS
 10
88.8363063254
 20
271.8427988112
  0
VERTEX
  8
SURFACE
 62
7
  6
CONTINUOUS
 10
88.89396323
 20
271.8001807384
  0
VERTEX
  8
SURFACE
 62
7
  6
CONTINUOUS
 10
88.9565861955
 20
271.7855225139
  0
SEQEND
  0
POLYLINE
  8
SURFACE
 62
7
  6
CONTINUOUS
 66
1
 70
0
  0
VERTEX
  8
SURFACE
 62
7
  6
CONTINUOUS
 10
102.0034088811
 20
284.9581238547
  0
VERTEX
  8
SURFACE
 62
7
  6
CONTINUOUS
 10
101.9994636282
 20
285.0798937672
  0
VERTEX
  8
SURFACE
 62
7
  6
CONTINUOUS
 10
101.940347021
 20
285.4390696431
  0
VERTEX
  8
SURFACE
 62
7
  6
CONTINUOUS
 10
101.7997026909
 20
285.8028840273
  0
VERTEX
  8
SURFACE
 62
7
  6
CONTINUOUS
 10
101.5756391687
 20
286.1393725938
  0
VERTEX
  8
SURFACE
 62
7
  6
CONTINUOUS
 10
101.4354356317
 20
286.2882508467
  0
VERTEX
  8
SURFACE
 62
7
  6
CONTINUOUS
 10
101.3466131647
 20
286.3671362753
  0
SEQEND
  0
LINE
  8
SURFACE
 62
7
  6
CONTINUOUS
 10
102.0034088834
 20
273.612935587
 11
102.0034088834
 21
284.9581082605
  0
POLYLINE
  8
SURFACE
 62
7
  6
CONTINUOUS
 66
1
 70
0
  0
VERTEX
  8
SURFACE
 62
7
  6
CONTINUOUS
 10
101.9995587142
 20
273.5971116046
  0
VERTEX
  8
SURFACE
 62
7
  6
CONTINUOUS
 10
101.9545640756
 20
273.1941940135
  0
VERTEX
  8
SURFACE
 62
7
  6
CONTINUOUS
 10
101.8208700557
 20
272.8113573253
  0
VERTEX
  8
SURFACE
 62
7
  6
CONTINUOUS
 10
101.6051966708
 20
272.4678445008
  0
VERTEX
  8
SURFACE
 62
7
  6
CONTINUOUS
 10
101.3466187578
 20
272.2039127571
  0
SEQEND
  0
POLYLINE
  8
SURFACE
 62
7
  6
CONTINUOUS
 66
1
 70
0
  0
VERTEX
  8
SURFACE
 62
7
  6
CONTINUOUS
 10
102.8191315456
 20
286.4855225139
  0
VERTEX
  8
SURFACE
 62
7
  6
CONTINUOUS
 10
102.8059508382
 20
286.5781253002
  0
VERTEX
  8
SURFACE
 62
7
  6
CONTINUOUS
 10
102.7743299672
 20
286.6618175508
  0
VERTEX
  8
SURFACE
 62
7
  6
CONTINUOUS
 10
102.7273581626
 20
286.7282479687
  0
VERTEX
  8
SURFACE
 62
7
  6
CONTINUOUS
 10
102.6696702254
 20
286.7708656825
  0
VERTEX
  8
SURFACE
 62
7
  6
CONTINUOUS
 10
102.6069970455
 20
286.7855225139
  0
SEQEND
  0
POLYLINE
  8
SURFACE
 62
7
  6
CONTINUOUS
 66
1
 70
0
  0
VERTEX
  8
SURFACE
 62
7
  6
CONTINUOUS
 10
101.999558713
 20
284.9739322106
  0
VERTEX
  8
SURFACE
 62
7
  6
CONTINUOUS
 10
101.9545640431
 20
285.3768500728
  0
VERTEX
  8
SURFACE
 62
7
  6
CONTINUOUS
 10
101.8208699331
 20
285.7596870177
  0
VERTEX
  8
SURFACE
 62
7
  6
CONTINUOUS
 10
101.6051964039
 20
286.1032000721
  0
VERTEX
  8
SURFACE
 62
7
  6
CONTINUOUS
 10
101.3466131647
 20
286.3671362753
  0
SEQEND
  0
POLYLINE
  8
SURFACE
 62
7
  6
CONTINUOUS
 66
1
 70
0
  0
VERTEX
  8
SURFACE
 62
7
  6
CONTINUOUS
 10
117.4034088857
 20
273.61291996
  0
VERTEX
  8
SURFACE
 62
7
  6
CONTINUOUS
 10
117.407353783
 20
273.4911555901
  0
VERTEX
  8
SURFACE
 62
7
  6
CONTINUOUS
 10
117.4664725517
 20
273.1319680618
  0
VERTEX
  8
SURFACE
 62
7
  6
CONTINUOUS
 10
117.6071253771
 20
272.768140446
  0
VERTEX
  8
SURFACE
 62
7
  6
CONTINUOUS
 10
117.8311911454
 20
272.4316568189
  0
VERTEX
  8
SURFACE
 62
7
  6
CONTINUOUS
 10
117.9713927691
 20
272.2827833849
  0
VERTEX
  8
SURFACE
 62
7
  6
CONTINUOUS
 10
118.0594693616
 20
272.2045194627
  0
SEQEND
  0
LINE
  8
SURFACE
 62
7
  6
CONTINUOUS
 10
121.9123769584
 20
286.4933755984
 11
121.9140152095
 21
286.4308133109
  0
LINE
  8
SURFACE
 62
7
  6
CONTINUOUS
 10
117.4034088834
 20
284.9581081046
 11
117.4034088834
 21
273.6129354743
  0
LINE
  8
SURFACE
 62
7
  6
CONTINUOUS
 10
121.9140150095
 20
272.1402240782
 11
121.9123769584
 21
272.0776694294
  0
POLYLINE
  8
SURFACE
 62
7
  6
CONTINUOUS
 66
1
 70
0
  0
VERTEX
  8
SURFACE
 62
7
  6
CONTINUOUS
 10
117.407259054
 20
284.9739320497
  0
VERTEX
  8
SURFACE
 62
7
  6
CONTINUOUS
 10
117.4522535503
 20
285.3768497642
  0
VERTEX
  8
SURFACE
 62
7
  6
CONTINUOUS
 10
117.5859475912
 20
285.7596866824
  0
VERTEX
  8
SURFACE
 62
7
  6
CONTINUOUS
 10
117.8016211446
 20
286.1031997898
  0
VERTEX
  8
SURFACE
 62
7
  6
CONTINUOUS
 10
118.0594758795
 20
286.3665301971
  0
SEQEND
  0
POLYLINE
  8
SURFACE
 62
7
  6
CONTINUOUS
 66
1
 70
0
  0
VERTEX
  8
SURFACE
 62
7
  6
CONTINUOUS
 10
90.1986699612
 20
286.3178018797
  0
VERTEX
  8
SURFACE
 62
7
  6
CONTINUOUS
 10
90.0277858455
 20
286.1401046789
  0
VERTEX
  8
SURFACE
 62
7
  6
CONTINUOUS
 10
89.8048449634
 20
285.8041216614
  0
VERTEX
  8
SURFACE
 62
7
  6
CONTINUOUS
 10
89.6655132859
 20
285.4418813547
  0
VERTEX
  8
SURFACE
 62
7
  6
CONTINUOUS
 10
89.6072567454
 20
285.0853408902
  0
VERTEX
  8
SURFACE
 62
7
  6
CONTINUOUS
 10
89.6034088864
 20
284.9652312663
  0
SEQEND
  0
POLYLINE
  8
SURFACE
 62
7
  6
CONTINUOUS
 66
1
 70
0
  0
VERTEX
  8
SURFACE
 62
7
  6
CONTINUOUS
 10
116.5876653917
 20
272.0855225139
  0
VERTEX
  8
SURFACE
 62
7
  6
CONTINUOUS
 10
116.6008451268
 20
271.9929218488
  0
VERTEX
  8
SURFACE
 62
7
  6
CONTINUOUS
 10
116.6324655088
 20
271.9092290043
  0
VERTEX
  8
SURFACE
 62
7
  6
CONTINUOUS
 10
116.6794372586
 20
271.8427979514
  0
VERTEX
  8
SURFACE
 62
7
  6
CONTINUOUS
 10
116.7371252577
 20
271.8001798372
  0
VERTEX
  8
SURFACE
 62
7
  6
CONTINUOUS
 10
116.7997998681
 20
271.7855225139
  0
SEQEND
  0
POLYLINE
  8
SURFACE
 62
7
  6
CONTINUOUS
 66
1
 70
0
  0
VERTEX
  8
SURFACE
 62
7
  6
CONTINUOUS
 10
117.4072590526
 20
273.5971114895
  0
VERTEX
  8
SURFACE
 62
7
  6
CONTINUOUS
 10
117.4522535108
 20
273.1941941074
  0
VERTEX
  8
SURFACE
 62
7
  6
CONTINUOUS
 10
117.5859474414
 20
272.8113575042
  0
VERTEX
  8
SURFACE
 62
7
  6
CONTINUOUS
 10
117.8016208176
 20
272.4678446789
  0
VERTEX
  8
SURFACE
 62
7
  6
CONTINUOUS
 10
118.0594693616
 20
272.2045194627
  0
SEQEND
  0
POLYLINE
  8
SURFACE
 62
7
  6
CONTINUOUS
 66
1
 70
0
  0
VERTEX
  8
SURFACE
 62
7
  6
CONTINUOUS
 10
129.8034088811
 20
284.9581237851
  0
VERTEX
  8
SURFACE
 62
7
  6
CONTINUOUS
 10
129.7994636276
 20
285.079893709
  0
VERTEX
  8
SURFACE
 62
7
  6
CONTINUOUS
 10
129.7403470137
 20
285.4390696081
  0
VERTEX
  8
SURFACE
 62
7
  6
CONTINUOUS
 10
129.599702672
 20
285.8028840094
  0
VERTEX
  8
SURFACE
 62
7
  6
CONTINUOUS
 10
129.3756391394
 20
286.1393725827
  0
VERTEX
  8
SURFACE
 62
7
  6
CONTINUOUS
 10
129.2354355981
 20
286.2882508372
  0
VERTEX
  8
SURFACE
 62
7
  6
CONTINUOUS
 10
129.1466126767
 20
286.3671366423
  0
SEQEND
  0
LINE
  8
SURFACE
 62
7
  6
CONTINUOUS
 10
125.2898655095
 20
272.0776694294
 11
125.2882272597
 21
272.1402316658
  0
LINE
  8
SURFACE
 62
7
  6
CONTINUOUS
 10
129.8034088834
 20
273.6118840518
 11
129.8034088834
 21
284.9581081909
  0
LINE
  8
SURFACE
 62
7
  6
CONTINUOUS
 10
125.2882274581
 20
286.4308209412
 11
125.2898655095
 21
286.4933755984
  0
POLYLINE
  8
SURFACE
 62
7
  6
CONTINUOUS
 66
1
 70
0
  0
VERTEX
  8
SURFACE
 62
7
  6
CONTINUOUS
 10
129.7995597614
 20
273.5959979905
  0
VERTEX
  8
SURFACE
 62
7
  6
CONTINUOUS
 10
129.7545949142
 20
273.1933303549
  0
VERTEX
  8
SURFACE
 62
7
  6
CONTINUOUS
 10
129.6209840223
 20
272.8107297564
  0
VERTEX
  8
SURFACE
 62
7
  6
CONTINUOUS
 10
129.405443107
 20
272.4674278142
  0
VERTEX
  8
SURFACE
 62
7
  6
CONTINUOUS
 10
129.1561749032
 20
272.2113149638
  0
SEQEND
  0
LINE
  8
SURFACE
 62
7
  6
CONTINUOUS
 10
90.1986699612
 20
286.3178018797
 11
90.1988741156
 21
286.3179870024
  0
POLYLINE
  8
SURFACE
 62
7
  6
CONTINUOUS
 66
1
 70
0
  0
VERTEX
  8
SURFACE
 62
7
  6
CONTINUOUS
 10
97.5231330093
 20
286.4572568051
  0
VERTEX
  8
SURFACE
 62
7
  6
CONTINUOUS
 10
97.5186124044
 20
286.4532217721
  0
VERTEX
  8
SURFACE
 62
7
  6
CONTINUOUS
 10
97.4927539611
 20
286.4335153127
  0
SEQEND
  0
LINE
  8
SURFACE
 62
7
  6
CONTINUOUS
 10
90.1986703843
 20
272.2532427741
 11
90.1988355876
 21
272.2530929671
  0
POLYLINE
  8
SURFACE
 62
7
  6
CONTINUOUS
 66
1
 70
0
  0
VERTEX
  8
SURFACE
 62
7
  6
CONTINUOUS
 10
130.6191303676
 20
286.4855225139
  0
VERTEX
  8
SURFACE
 62
7
  6
CONTINUOUS
 10
130.6059484951
 20
286.5781296881
  0
VERTEX
  8
SURFACE
 62
7
  6
CONTINUOUS
 10
130.5743243727
 20
286.6618258306
  0
VERTEX
  8
SURFACE
 62
7
  6
CONTINUOUS
 10
130.5273476789
 20
286.7282575665
  0
VERTEX
  8
SURFACE
 62
7
  6
CONTINUOUS
 10
130.4696548786
 20
286.7708723754
  0
SEQEND
  0
POLYLINE
  8
SURFACE
 62
7
  6
CONTINUOUS
 66
1
 70
0
  0
VERTEX
  8
SURFACE
 62
7
  6
CONTINUOUS
 10
129.799558713
 20
284.9739321379
  0
VERTEX
  8
SURFACE
 62
7
  6
CONTINUOUS
 10
129.7545640411
 20
285.3768500164
  0
VERTEX
  8
SURFACE
 62
7
  6
CONTINUOUS
 10
129.6208699257
 20
285.7596869768
  0
VERTEX
  8
SURFACE
 62
7
  6
CONTINUOUS
 10
129.4051963878
 20
286.1032000448
  0
VERTEX
  8
SURFACE
 62
7
  6
CONTINUOUS
 10
129.1466126767
 20
286.3671366423
  0
SEQEND
  0
LINE
  8
SURFACE
 62
7
  6
CONTINUOUS
 10
143.2534088834
 20
272.0855225139
 11
143.2534088834
 21
286.4855225139
  0
POLYLINE
  8
SURFACE
 62
7
  6
CONTINUOUS
 66
1
 70
0
  0
VERTEX
  8
SURFACE
 62
7
  6
CONTINUOUS
 10
94.079108967
 20
272.1137876564
  0
VERTEX
  8
SURFACE
 62
7
  6
CONTINUOUS
 10
94.0836312741
 20
272.1178242806
  0
VERTEX
  8
SURFACE
 62
7
  6
CONTINUOUS
 10
94.1094888105
 20
272.1375299239
  0
SEQEND
  0
POLYLINE
  8
SURFACE
 62
7
  6
CONTINUOUS
 66
1
 70
0
  0
VERTEX
  8
SURFACE
 62
7
  6
CONTINUOUS
 10
118.0594758795
 20
286.3665301971
  0
VERTEX
  8
SURFACE
 62
7
  6
CONTINUOUS
 10
117.9713110664
 20
286.2881832935
  0
VERTEX
  8
SURFACE
 62
7
  6
CONTINUOUS
 10
117.8311366579
 20
286.1393224405
  0
VERTEX
  8
SURFACE
 62
7
  6
CONTINUOUS
 10
117.607073436
 20
285.8028027082
  0
VERTEX
  8
SURFACE
 62
7
  6
CONTINUOUS
 10
117.4663743668
 20
285.4387094048
  0
VERTEX
  8
SURFACE
 62
7
  6
CONTINUOUS
 10
117.4073308967
 20
285.0795351757
  0
VERTEX
  8
SURFACE
 62
7
  6
CONTINUOUS
 10
117.4034088858
 20
284.9581239804
  0
SEQEND
  0
POLYLINE
  8
SURFACE
 62
7
  6
CONTINUOUS
 66
1
 70
0
  0
VERTEX
  8
SURFACE
 62
7
  6
CONTINUOUS
 10
101.3466187578
 20
272.2039127571
  0
VERTEX
  8
SURFACE
 62
7
  6
CONTINUOUS
 10
101.4355208274
 20
272.2828743046
  0
VERTEX
  8
SURFACE
 62
7
  6
CONTINUOUS
 10
101.5756967904
 20
272.4317402167
  0
VERTEX
  8
SURFACE
 62
7
  6
CONTINUOUS
 10
101.7997572554
 20
272.7682659215
  0
VERTEX
  8
SURFACE
 62
7
  6
CONTINUOUS
 10
101.9404473343
 20
273.1323485456
  0
VERTEX
  8
SURFACE
 62
7
  6
CONTINUOUS
 10
101.9994868945
 20
273.4915087769
  0
VERTEX
  8
SURFACE
 62
7
  6
CONTINUOUS
 10
102.003408881
 20
273.6129196353
  0
SEQEND
  0
LINE
  8
SURFACE
 62
7
  6
CONTINUOUS
 10
97.4927539611
 20
286.4335153127
 11
97.4926282947
 21
286.4334283385
  0
POLYLINE
  8
SURFACE
 62
7
  6
CONTINUOUS
 66
1
 70
0
  0
VERTEX
  8
SURFACE
 62
7
  6
CONTINUOUS
 10
90.1988355876
 20
272.2530929671
  0
VERTEX
  8
SURFACE
 62
7
  6
CONTINUOUS
 10
90.4898064522
 20
272.0381715497
  0
VERTEX
  8
SURFACE
 62
7
  6
CONTINUOUS
 10
90.6609594391
 20
271.9485746475
  0
VERTEX
  8
SURFACE
 62
7
  6
CONTINUOUS
 10
91.0267472004
 20
271.826731449
  0
VERTEX
  8
SURFACE
 62
7
  6
CONTINUOUS
 10
91.4097028926
 20
271.7855225139
  0
SEQEND
  0
POLYLINE
  8
SURFACE
 62
7
  6
CONTINUOUS
 66
1
 70
0
  0
VERTEX
  8
SURFACE
 62
7
  6
CONTINUOUS
 10
97.4927564165
 20
272.1375281264
  0
VERTEX
  8
SURFACE
 62
7
  6
CONTINUOUS
 10
97.5188981582
 20
272.1175738918
  0
VERTEX
  8
SURFACE
 62
7
  6
CONTINUOUS
 10
97.5232773114
 20
272.1135436969
  0
SEQEND
  0
LINE
  8
SURFACE
 62
7
  6
CONTINUOUS
 10
146.1276410283
 20
286.4907581072
 11
146.134678208
 21
286.0875983533
  0
LINE
  8
SURFACE
 62
7
  6
CONTINUOUS
 10
156.1234161195
 20
272.4834466746
 11
156.1304533014
 21
272.080286792
  0
LINE
  8
SURFACE
 62
7
  6
CONTINUOUS
 10
146.134678114
 20
272.4834412915
 11
146.1276410261
 21
272.080286792
  0
LINE
  8
SURFACE
 62
7
  6
CONTINUOUS
 10
156.1304533014
 20
286.4907582359
 11
156.1234154846
 21
286.087561979
  0
POLYLINE
  8
SURFACE
 62
7
  6
CONTINUOUS
 66
1
 70
0
  0
VERTEX
  8
SURFACE
 62
7
  6
CONTINUOUS
 10
146.1346781155
 20
272.4834412915
  0
VERTEX
  8
SURFACE
 62
7
  6
CONTINUOUS
 10
146.1427925871
 20
272.5125646168
  0
VERTEX
  8
SURFACE
 62
7
  6
CONTINUOUS
 10
146.2070664656
 20
272.6250952687
  0
VERTEX
  8
SURFACE
 62
7
  6
CONTINUOUS
 10
146.3655292368
 20
272.8047480898
  0
VERTEX
  8
SURFACE
 62
7
  6
CONTINUOUS
 10
146.6204836728
 20
273.0162479582
  0
SEQEND
  0
POLYLINE
  8
SURFACE
 62
7
  6
CONTINUOUS
 66
1
 70
0
  0
VERTEX
  8
SURFACE
 62
7
  6
CONTINUOUS
 10
156.123416212
 20
286.0876037368
  0
VERTEX
  8
SURFACE
 62
7
  6
CONTINUOUS
 10
156.1153017569
 20
286.0584804544
  0
VERTEX
  8
SURFACE
 62
7
  6
CONTINUOUS
 10
156.0510279761
 20
285.9459499187
  0
VERTEX
  8
SURFACE
 62
7
  6
CONTINUOUS
 10
155.8925654328
 20
285.7662972706
  0
VERTEX
  8
SURFACE
 62
7
  6
CONTINUOUS
 10
155.6376106442
 20
285.5547970625
  0
SEQEND
  0
POLYLINE
  8
SURFACE
 62
7
  6
CONTINUOUS
 66
1
 70
0
  0
VERTEX
  8
SURFACE
 62
7
  6
CONTINUOUS
 10
125.3231330093
 20
286.457256805
  0
VERTEX
  8
SURFACE
 62
7
  6
CONTINUOUS
 10
125.3186124046
 20
286.4532217723
  0
VERTEX
  8
SURFACE
 62
7
  6
CONTINUOUS
 10
125.2927539618
 20
286.4335153132
  0
SEQEND
  0
LINE
  8
SURFACE
 62
7
  6
CONTINUOUS
 10
118.0594758795
 20
286.3665301971
 11
118.0595844756
 21
286.3666205445
  0
LINE
  8
SURFACE
 62
7
  6
CONTINUOUS
 10
101.3466187578
 20
272.2039127571
 11
101.3465140016
 21
272.2038256961
  0
LINE
  8
SURFACE
 62
7
  6
CONTINUOUS
 10
94.1094888105
 20
272.1375299239
 11
94.1096144295
 21
272.1376168655
  0
POLYLINE
  8
SURFACE
 62
7
  6
CONTINUOUS
 66
1
 70
0
  0
VERTEX
  8
SURFACE
 62
7
  6
CONTINUOUS
 10
97.4926288459
 20
286.4334275427
  0
VERTEX
  8
SURFACE
 62
7
  6
CONTINUOUS
 10
97.4348198015
 20
286.3991917202
  0
VERTEX
  8
SURFACE
 62
7
  6
CONTINUOUS
 10
97.3050341334
 20
286.341903431
  0
VERTEX
  8
SURFACE
 62
7
  6
CONTINUOUS
 10
97.1133685939
 20
286.2809502947
  0
VERTEX
  8
SURFACE
 62
7
  6
CONTINUOUS
 10
96.8642335641
 20
286.2275513775
  0
VERTEX
  8
SURFACE
 62
7
  6
CONTINUOUS
 10
96.5697813901
 20
286.192306482
  0
VERTEX
  8
SURFACE
 62
7
  6
CONTINUOUS
 10
96.3011248256
 20
286.1823375103
  0
SEQEND
  0
LINE
  8
SURFACE
 62
7
  6
CONTINUOUS
 10
97.4927566998
 20
272.1375285358
 11
97.4926422405
 21
272.1376077498
  0
POLYLINE
  8
SURFACE
 62
7
  6
CONTINUOUS
 66
1
 70
0
  0
VERTEX
  8
SURFACE
 62
7
  6
CONTINUOUS
 10
118.0595812906
 20
272.2044263418
  0
VERTEX
  8
SURFACE
 62
7
  6
CONTINUOUS
 10
118.192662597
 20
272.1037054024
  0
VERTEX
  8
SURFACE
 62
7
  6
CONTINUOUS
 10
118.5107721768
 20
271.9292744027
  0
VERTEX
  8
SURFACE
 62
7
  6
CONTINUOUS
 10
118.6812292731
 20
271.8668373827
  0
VERTEX
  8
SURFACE
 62
7
  6
CONTINUOUS
 10
119.0363281695
 20
271.7946134475
  0
VERTEX
  8
SURFACE
 62
7
  6
CONTINUOUS
 10
119.2173979399
 20
271.7855225139
  0
SEQEND
  0
POLYLINE
  8
SURFACE
 62
7
  6
CONTINUOUS
 66
1
 70
0
  0
VERTEX
  8
SURFACE
 62
7
  6
CONTINUOUS
 10
94.1094862629
 20
286.4335167578
  0
VERTEX
  8
SURFACE
 62
7
  6
CONTINUOUS
 10
94.0833449403
 20
286.4534706193
  0
VERTEX
  8
SURFACE
 62
7
  6
CONTINUOUS
 10
94.0789650192
 20
286.4575014508
  0
SEQEND
  0
LINE
  8
SURFACE
 62
7
  6
CONTINUOUS
 10
101.3466131647
 20
286.3671362753
 11
101.3465051443
 21
286.3672260483
  0
LINE
  8
SURFACE
 62
7
  6
CONTINUOUS
 10
118.0594693616
 20
272.2045194627
 11
118.0595812906
 21
272.2044263418
  0
POLYLINE
  8
SURFACE
 62
7
  6
CONTINUOUS
 66
1
 70
0
  0
VERTEX
  8
SURFACE
 62
7
  6
CONTINUOUS
 10
159.0639349776
 20
279.2855225139
  0
VERTEX
  8
SURFACE
 62
7
  6
CONTINUOUS
 10
159.0808637974
 20
278.766702624
  0
VERTEX
  8
SURFACE
 62
7
  6
CONTINUOUS
 10
159.1375325717
 20
278.3056345728
  0
VERTEX
  8
SURFACE
 62
7
  6
CONTINUOUS
 10
159.2310251242
 20
277.9667446182
  0
VERTEX
  8
SURFACE
 62
7
  6
CONTINUOUS
 10
159.3559979568
 20
277.7240884429
  0
VERTEX
  8
SURFACE
 62
7
  6
CONTINUOUS
 10
159.5028311122
 20
277.5581647721
  0
VERTEX
  8
SURFACE
 62
7
  6
CONTINUOUS
 10
159.6632684549
 20
277.4513848846
  0
VERTEX
  8
SURFACE
 62
7
  6
CONTINUOUS
 10
159.8310372664
 20
277.3917296592
  0
SEQEND
  0
LINE
  8
SURFACE
 62
7
  6
CONTINUOUS
 10
159.004685444
 20
273.9618367173
 11
159.004685444
 21
286.4855225139
  0
LINE
  8
SURFACE
 62
7
  6
CONTINUOUS
 10
163.504685444
 20
272.1313022057
 11
163.504685444
 21
276.2343213656
  0
POLYLINE
  8
SURFACE
 62
7
  6
CONTINUOUS
 66
1
 70
0
  0
VERTEX
  8
SURFACE
 62
7
  6
CONTINUOUS
 10
129.1561749032
 20
272.2113149638
  0
VERTEX
  8
SURFACE
 62
7
  6
CONTINUOUS
 10
129.2360771475
 20
272.2827672257
  0
VERTEX
  8
SURFACE
 62
7
  6
CONTINUOUS
 10
129.3761933594
 20
272.4316250249
  0
VERTEX
  8
SURFACE
 62
7
  6
CONTINUOUS
 10
129.6000874461
 20
272.7680709021
  0
VERTEX
  8
SURFACE
 62
7
  6
CONTINUOUS
 10
129.7405758441
 20
273.1318824871
  0
VERTEX
  8
SURFACE
 62
7
  6
CONTINUOUS
 10
129.799498139
 20
273.4906532913
  0
VERTEX
  8
SURFACE
 62
7
  6
CONTINUOUS
 10
129.8034088809
 20
273.6118677711
  0
SEQEND
  0
POLYLINE
  8
SURFACE
 62
7
  6
CONTINUOUS
 66
1
 70
0
  0
VERTEX
  8
SURFACE
 62
7
  6
CONTINUOUS
 10
121.879108967
 20
272.1137876564
  0
VERTEX
  8
SURFACE
 62
7
  6
CONTINUOUS
 10
121.8836312739
 20
272.1178242805
  0
VERTEX
  8
SURFACE
 62
7
  6
CONTINUOUS
 10
121.9094888099
 20
272.1375299236
  0
SEQEND
  0
LINE
  8
SURFACE
 62
7
  6
CONTINUOUS
 10
129.1561749032
 20
272.2113149638
 11
129.1560440445
 21
272.211204745
  0
POLYLINE
  8
SURFACE
 62
7
  6
CONTINUOUS
 66
1
 70
0
  0
VERTEX
  8
SURFACE
 62
7
  6
CONTINUOUS
 10
129.1560440445
 20
272.211204745
  0
VERTEX
  8
SURFACE
 62
7
  6
CONTINUOUS
 10
129.1188064453
 20
272.1806807801
  0
VERTEX
  8
SURFACE
 62
7
  6
CONTINUOUS
 10
128.775481979
 20
271.9649021438
  0
VERTEX
  8
SURFACE
 62
7
  6
CONTINUOUS
 10
128.392727092
 20
271.8309381313
  0
VERTEX
  8
SURFACE
 62
7
  6
CONTINUOUS
 10
127.9897811589
 20
271.7855225139
  0
SEQEND
  0
LINE
  8
SURFACE
 62
7
  6
CONTINUOUS
 10
125.2927539618
 20
286.4335153132
 11
125.2926282966
 21
286.4334283398
  0
POLYLINE
  8
SURFACE
 62
7
  6
CONTINUOUS
 66
1
 70
0
  0
VERTEX
  8
SURFACE
 62
7
  6
CONTINUOUS
 10
118.0595844756
 20
286.3666205445
  0
VERTEX
  8
SURFACE
 62
7
  6
CONTINUOUS
 10
118.4319683615
 20
286.6060333106
  0
VERTEX
  8
SURFACE
 62
7
  6
CONTINUOUS
 10
118.8149580886
 20
286.7400791691
  0
VERTEX
  8
SURFACE
 62
7
  6
CONTINUOUS
 10
119.218152025
 20
286.7855225139
  0
SEQEND
  0
POLYLINE
  8
SURFACE
 62
7
  6
CONTINUOUS
 66
1
 70
0
  0
VERTEX
  8
SURFACE
 62
7
  6
CONTINUOUS
 10
101.3465140016
 20
272.2038256961
  0
VERTEX
  8
SURFACE
 62
7
  6
CONTINUOUS
 10
100.974850091
 20
271.9650115031
  0
VERTEX
  8
SURFACE
 62
7
  6
CONTINUOUS
 10
100.5918607314
 20
271.8309658033
  0
VERTEX
  8
SURFACE
 62
7
  6
CONTINUOUS
 10
100.188667116
 20
271.7855225139
  0
SEQEND
  0
POLYLINE
  8
SURFACE
 62
7
  6
CONTINUOUS
 66
1
 70
0
  0
VERTEX
  8
SURFACE
 62
7
  6
CONTINUOUS
 10
94.1096138751
 20
272.1376176659
  0
VERTEX
  8
SURFACE
 62
7
  6
CONTINUOUS
 10
94.1674297398
 20
272.171857014
  0
VERTEX
  8
SURFACE
 62
7
  6
CONTINUOUS
 10
94.2972272139
 20
272.2291487538
  0
VERTEX
  8
SURFACE
 62
7
  6
CONTINUOUS
 10
94.4889126307
 20
272.2901050551
  0
VERTEX
  8
SURFACE
 62
7
  6
CONTINUOUS
 10
94.7380793188
 20
272.3435054316
  0
VERTEX
  8
SURFACE
 62
7
  6
CONTINUOUS
 10
95.0325390879
 20
272.3787443566
  0
VERTEX
  8
SURFACE
 62
7
  6
CONTINUOUS
 10
95.3011180133
 20
272.3887075196
  0
SEQEND
  0
POLYLINE
  8
SURFACE
 62
7
  6
CONTINUOUS
 66
1
 70
0
  0
VERTEX
  8
SURFACE
 62
7
  6
CONTINUOUS
 10
125.2926288478
 20
286.433427544
  0
VERTEX
  8
SURFACE
 62
7
  6
CONTINUOUS
 10
125.2348198708
 20
286.3991917564
  0
VERTEX
  8
SURFACE
 62
7
  6
CONTINUOUS
 10
125.1050343172
 20
286.3419035007
  0
VERTEX
  8
SURFACE
 62
7
  6
CONTINUOUS
 10
124.9133689714
 20
286.2809503952
  0
VERTEX
  8
SURFACE
 62
7
  6
CONTINUOUS
 10
124.664234256
 20
286.2275514933
  0
VERTEX
  8
SURFACE
 62
7
  6
CONTINUOUS
 10
124.3697821613
 20
286.1923065394
  0
VERTEX
  8
SURFACE
 62
7
  6
CONTINUOUS
 10
124.1011248293
 20
286.1823375103
  0
SEQEND
  0
POLYLINE
  8
SURFACE
 62
7
  6
CONTINUOUS
 66
1
 70
0
  0
VERTEX
  8
SURFACE
 62
7
  6
CONTINUOUS
 10
101.3465051443
 20
286.3672260483
  0
VERTEX
  8
SURFACE
 62
7
  6
CONTINUOUS
 10
100.9748494034
 20
286.6060334052
  0
VERTEX
  8
SURFACE
 62
7
  6
CONTINUOUS
 10
100.591859788
 20
286.7400791943
  0
VERTEX
  8
SURFACE
 62
7
  6
CONTINUOUS
 10
100.1886659028
 20
286.7855225139
  0
SEQEND
  0
POLYLINE
  8
SURFACE
 62
7
  6
CONTINUOUS
 66
1
 70
0
  0
VERTEX
  8
SURFACE
 62
7
  6
CONTINUOUS
 10
118.0595812906
 20
272.2044263418
  0
VERTEX
  8
SURFACE
 62
7
  6
CONTINUOUS
 10
118.4319675177
 20
271.9650115703
  0
VERTEX
  8
SURFACE
 62
7
  6
CONTINUOUS
 10
118.8149569306
 20
271.8309658216
  0
VERTEX
  8
SURFACE
 62
7
  6
CONTINUOUS
 10
119.2181505358
 20
271.7855225139
  0
SEQEND
  0
LINE
  8
SURFACE
 62
7
  6
CONTINUOUS
 10
94.1094859733
 20
286.4335163393
 11
94.1096004317
 21
286.4334371257
  0
LINE
  8
SURFACE
 62
7
  6
CONTINUOUS
 10
125.2927566999
 20
272.1375285358
 11
125.2926422401
 21
272.1376077502
  0
POLYLINE
  8
SURFACE
 62
7
  6
CONTINUOUS
 66
1
 70
0
  0
VERTEX
  8
SURFACE
 62
7
  6
CONTINUOUS
 10
101.3465051443
 20
286.3672260483
  0
VERTEX
  8
SURFACE
 62
7
  6
CONTINUOUS
 10
101.213480147
 20
286.4678022678
  0
VERTEX
  8
SURFACE
 62
7
  6
CONTINUOUS
 10
100.8955426008
 20
286.6419832762
  0
VERTEX
  8
SURFACE
 62
7
  6
CONTINUOUS
 10
100.7251967153
 20
286.7043286427
  0
VERTEX
  8
SURFACE
 62
7
  6
CONTINUOUS
 10
100.3703521127
 20
286.7764451989
  0
VERTEX
  8
SURFACE
 62
7
  6
CONTINUOUS
 10
100.1894175451
 20
286.7855225139
  0
SEQEND
  0
POLYLINE
  8
SURFACE
 62
7
  6
CONTINUOUS
 66
1
 70
0
  0
VERTEX
  8
SURFACE
 62
7
  6
CONTINUOUS
 10
125.2927564165
 20
272.1375281263
  0
VERTEX
  8
SURFACE
 62
7
  6
CONTINUOUS
 10
125.3188981582
 20
272.1175738918
  0
VERTEX
  8
SURFACE
 62
7
  6
CONTINUOUS
 10
125.3232773114
 20
272.1135436969
  0
SEQEND
  0
LINE
  8
SURFACE
 62
7
  6
CONTINUOUS
 10
121.9094888099
 20
272.1375299236
 11
121.9096144279
 21
272.1376168644
  0
POLYLINE
  8
SURFACE
 62
7
  6
CONTINUOUS
 66
1
 70
0
  0
VERTEX
  8
SURFACE
 62
7
  6
CONTINUOUS
 10
155.6375935568
 20
285.5547845966
  0
VERTEX
  8
SURFACE
 62
7
  6
CONTINUOUS
 10
155.5564316456
 20
285.5027755153
  0
VERTEX
  8
SURFACE
 62
7
  6
CONTINUOUS
 10
155.3239770925
 20
285.4107988845
  0
VERTEX
  8
SURFACE
 62
7
  6
CONTINUOUS
 10
155.1060610749
 20
285.3845463707
  0
SEQEND
  0
POLYLINE
  8
SURFACE
 62
7
  6
CONTINUOUS
 66
1
 70
0
  0
VERTEX
  8
SURFACE
 62
7
  6
CONTINUOUS
 10
121.9096138735
 20
272.1376176648
  0
VERTEX
  8
SURFACE
 62
7
  6
CONTINUOUS
 10
121.967429681
 20
272.1718569832
  0
VERTEX
  8
SURFACE
 62
7
  6
CONTINUOUS
 10
122.0972270578
 20
272.2291486947
  0
VERTEX
  8
SURFACE
 62
7
  6
CONTINUOUS
 10
122.2889123101
 20
272.2901049698
  0
VERTEX
  8
SURFACE
 62
7
  6
CONTINUOUS
 10
122.5380787312
 20
272.3435053333
  0
VERTEX
  8
SURFACE
 62
7
  6
CONTINUOUS
 10
122.8325384326
 20
272.3787443078
  0
VERTEX
  8
SURFACE
 62
7
  6
CONTINUOUS
 10
123.1011180099
 20
272.3887075196
  0
SEQEND
  0
LINE
  8
SURFACE
 62
7
  6
CONTINUOUS
 10
121.9094859733
 20
286.4335163393
 11
121.9096004321
 21
286.4334371254
  0
POLYLINE
  8
SURFACE
 62
7
  6
CONTINUOUS
 66
1
 70
0
  0
VERTEX
  8
SURFACE
 62
7
  6
CONTINUOUS
 10
129.1465046586
 20
286.3672264133
  0
VERTEX
  8
SURFACE
 62
7
  6
CONTINUOUS
 10
129.013479686
 20
286.4678025497
  0
VERTEX
  8
SURFACE
 62
7
  6
CONTINUOUS
 10
128.6955422197
 20
286.641983413
  0
VERTEX
  8
SURFACE
 62
7
  6
CONTINUOUS
 10
128.5251963962
 20
286.7043287223
  0
VERTEX
  8
SURFACE
 62
7
  6
CONTINUOUS
 10
128.1703519556
 20
286.7764452076
  0
VERTEX
  8
SURFACE
 62
7
  6
CONTINUOUS
 10
127.9894174712
 20
286.7855225139
  0
SEQEND
  0
POLYLINE
  8
SURFACE
 62
7
  6
CONTINUOUS
 66
1
 70
0
  0
VERTEX
  8
SURFACE
 62
7
  6
CONTINUOUS
 10
121.9094862629
 20
286.4335167578
  0
VERTEX
  8
SURFACE
 62
7
  6
CONTINUOUS
 10
121.8833449403
 20
286.4534706193
  0
VERTEX
  8
SURFACE
 62
7
  6
CONTINUOUS
 10
121.8789650192
 20
286.4575014508
  0
SEQEND
  0
POLYLINE
  8
SURFACE
 62
7
  6
CONTINUOUS
 66
1
 70
0
  0
VERTEX
  8
SURFACE
 62
7
  6
CONTINUOUS
 10
155.6375963209
 20
273.0162586193
  0
VERTEX
  8
SURFACE
 62
7
  6
CONTINUOUS
 10
155.8908674715
 20
272.8063884577
  0
VERTEX
  8
SURFACE
 62
7
  6
CONTINUOUS
 10
156.0500800953
 20
272.6264165176
  0
VERTEX
  8
SURFACE
 62
7
  6
CONTINUOUS
 10
156.1150235381
 20
272.5132927647
  0
VERTEX
  8
SURFACE
 62
7
  6
CONTINUOUS
 10
156.1234161186
 20
272.4834466746
  0
SEQEND
  0
LINE
  8
SURFACE
 62
7
  6
CONTINUOUS
 10
129.1466126767
 20
286.3671366423
 11
129.1465046586
 21
286.3672264133
  0
LINE
  8
SURFACE
 62
7
  6
CONTINUOUS
 10
185.3021323228
 20
276.2343213656
 11
185.3021323228
 21
272.1313022057
  0
LINE
  8
SURFACE
 62
7
  6
CONTINUOUS
 10
189.8021323228
 20
286.4855225139
 11
189.8021323228
 21
273.9618367173
  0
POLYLINE
  8
SURFACE
 62
7
  6
CONTINUOUS
 66
1
 70
0
  0
VERTEX
  8
SURFACE
 62
7
  6
CONTINUOUS
 10
185.3021323228
 20
276.2343213656
  0
VERTEX
  8
SURFACE
 62
7
  6
CONTINUOUS
 10
185.3349446154
 20
276.3071734525
  0
VERTEX
  8
SURFACE
 62
7
  6
CONTINUOUS
 10
185.4362325016
 20
276.4139004313
  0
VERTEX
  8
SURFACE
 62
7
  6
CONTINUOUS
 10
185.6093177985
 20
276.5494594998
  0
VERTEX
  8
SURFACE
 62
7
  6
CONTINUOUS
 10
185.7204621929
 20
276.6226108136
  0
VERTEX
  8
SURFACE
 62
7
  6
CONTINUOUS
 10
185.9774718148
 20
276.7622427805
  0
VERTEX
  8
SURFACE
 62
7
  6
CONTINUOUS
 10
186.2605203863
 20
276.8729679855
  0
VERTEX
  8
SURFACE
 62
7
  6
CONTINUOUS
 10
186.5416600563
 20
276.9383950408
  0
SEQEND
  0
POLYLINE
  8
SURFACE
 62
7
  6
CONTINUOUS
 66
1
 70
0
  0
VERTEX
  8
SURFACE
 62
7
  6
CONTINUOUS
 10
146.6205007487
 20
273.016260416
  0
VERTEX
  8
SURFACE
 62
7
  6
CONTINUOUS
 10
146.7016617855
 20
273.0682690053
  0
VERTEX
  8
SURFACE
 62
7
  6
CONTINUOUS
 10
146.934116666
 20
273.1602460043
  0
VERTEX
  8
SURFACE
 62
7
  6
CONTINUOUS
 10
147.1520332508
 20
273.1864986572
  0
SEQEND
  0
POLYLINE
  8
SURFACE
 62
7
  6
CONTINUOUS
 66
1
 70
0
  0
VERTEX
  8
SURFACE
 62
7
  6
CONTINUOUS
 10
129.1465046586
 20
286.3672264133
  0
VERTEX
  8
SURFACE
 62
7
  6
CONTINUOUS
 10
128.7748493622
 20
286.6060333981
  0
VERTEX
  8
SURFACE
 62
7
  6
CONTINUOUS
 10
128.3918597315
 20
286.7400791925
  0
VERTEX
  8
SURFACE
 62
7
  6
CONTINUOUS
 10
127.9886658301
 20
286.7855225139
  0
SEQEND
  0
POLYLINE
  8
SURFACE
 62
7
  6
CONTINUOUS
 66
1
 70
0
  0
VERTEX
  8
SURFACE
 62
7
  6
CONTINUOUS
 10
146.6204975791
 20
285.5547867183
  0
VERTEX
  8
SURFACE
 62
7
  6
CONTINUOUS
 10
146.3672267262
 20
285.7646566955
  0
VERTEX
  8
SURFACE
 62
7
  6
CONTINUOUS
 10
146.2080141915
 20
285.944628567
  0
VERTEX
  8
SURFACE
 62
7
  6
CONTINUOUS
 10
146.1430707836
 20
286.0577522781
  0
VERTEX
  8
SURFACE
 62
7
  6
CONTINUOUS
 10
146.1346782089
 20
286.0875983533
  0
SEQEND
  0
POLYLINE
  8
SURFACE
 62
7
  6
CONTINUOUS
 66
1
 70
0
  0
VERTEX
  8
SURFACE
 62
7
  6
CONTINUOUS
 10
185.3021323229
 20
272.131305198
  0
VERTEX
  8
SURFACE
 62
7
  6
CONTINUOUS
 10
185.3216170084
 20
272.0221889837
  0
VERTEX
  8
SURFACE
 62
7
  6
CONTINUOUS
 10
185.3771869779
 20
271.9269121402
  0
VERTEX
  8
SURFACE
 62
7
  6
CONTINUOUS
 10
185.4576585484
 20
271.8580167252
  0
VERTEX
  8
SURFACE
 62
7
  6
CONTINUOUS
 10
185.5432927325
 20
271.8193195757
  0
SEQEND
  0
LINE
  8
SURFACE
 62
7
  6
CONTINUOUS
 10
192.6763644677
 20
286.4907581072
 11
192.6834016473
 21
286.0875983569
  0
LINE
  8
SURFACE
 62
7
  6
CONTINUOUS
 10
192.6834015533
 20
272.4834412829
 11
192.6763644655
 21
272.080286792
  0
POLYLINE
  8
SURFACE
 62
7
  6
CONTINUOUS
 66
1
 70
0
  0
VERTEX
  8
SURFACE
 62
7
  6
CONTINUOUS
 10
192.6834015547
 20
272.4834412829
  0
VERTEX
  8
SURFACE
 62
7
  6
CONTINUOUS
 10
192.6915159432
 20
272.5125643944
  0
VERTEX
  8
SURFACE
 62
7
  6
CONTINUOUS
 10
192.7557893759
 20
272.6250945312
  0
VERTEX
  8
SURFACE
 62
7
  6
CONTINUOUS
 10
192.9142509344
 20
272.8047463978
  0
VERTEX
  8
SURFACE
 62
7
  6
CONTINUOUS
 10
193.1692071217
 20
273.0162479583
  0
SEQEND
  0
POLYLINE
  8
SURFACE
 62
7
  6
CONTINUOUS
 66
1
 70
0
  0
VERTEX
  8
SURFACE
 62
7
  6
CONTINUOUS
 10
209.8639349776
 20
279.2855225139
  0
VERTEX
  8
SURFACE
 62
7
  6
CONTINUOUS
 10
209.8808637974
 20
278.766702624
  0
VERTEX
  8
SURFACE
 62
7
  6
CONTINUOUS
 10
209.9375325717
 20
278.3056345728
  0
VERTEX
  8
SURFACE
 62
7
  6
CONTINUOUS
 10
210.0310251242
 20
277.9667446182
  0
VERTEX
  8
SURFACE
 62
7
  6
CONTINUOUS
 10
210.1559979568
 20
277.7240884429
  0
VERTEX
  8
SURFACE
 62
7
  6
CONTINUOUS
 10
210.3028311122
 20
277.5581647721
  0
VERTEX
  8
SURFACE
 62
7
  6
CONTINUOUS
 10
210.4632684549
 20
277.4513848846
  0
VERTEX
  8
SURFACE
 62
7
  6
CONTINUOUS
 10
210.6310372664
 20
277.3917296592
  0
SEQEND
  0
LINE
  8
SURFACE
 62
7
  6
CONTINUOUS
 10
206.9234161195
 20
272.4834466746
 11
206.9304533014
 21
272.080286792
  0
LINE
  8
SURFACE
 62
7
  6
CONTINUOUS
 10
209.804685444
 20
273.9618367173
 11
209.804685444
 21
286.4855225139
  0
LINE
  8
SURFACE
 62
7
  6
CONTINUOUS
 10
206.9304533014
 20
286.4907582359
 11
206.9234154846
 21
286.087561979
  0
POLYLINE
  8
SURFACE
 62
7
  6
CONTINUOUS
 66
1
 70
0
  0
VERTEX
  8
SURFACE
 62
7
  6
CONTINUOUS
 10
206.923416212
 20
286.0876037368
  0
VERTEX
  8
SURFACE
 62
7
  6
CONTINUOUS
 10
206.9153017569
 20
286.0584804544
  0
VERTEX
  8
SURFACE
 62
7
  6
CONTINUOUS
 10
206.8510279761
 20
285.9459499187
  0
VERTEX
  8
SURFACE
 62
7
  6
CONTINUOUS
 10
206.6925654328
 20
285.7662972706
  0
VERTEX
  8
SURFACE
 62
7
  6
CONTINUOUS
 10
206.4376106245
 20
285.5547970483
  0
SEQEND
  0
POLYLINE
  8
SURFACE
 62
7
  6
CONTINUOUS
 66
1
 70
0
  0
VERTEX
  8
SURFACE
 62
7
  6
CONTINUOUS
 10
206.4375935748
 20
285.554784609
  0
VERTEX
  8
SURFACE
 62
7
  6
CONTINUOUS
 10
206.3564350272
 20
285.5027774312
  0
VERTEX
  8
SURFACE
 62
7
  6
CONTINUOUS
 10
206.1239792022
 20
285.4107993995
  0
VERTEX
  8
SURFACE
 62
7
  6
CONTINUOUS
 10
205.9060610832
 20
285.3845463709
  0
SEQEND
  0
POLYLINE
  8
SURFACE
 62
7
  6
CONTINUOUS
 66
1
 70
0
  0
VERTEX
  8
SURFACE
 62
7
  6
CONTINUOUS
 10
193.1692242889
 20
273.0162604803
  0
VERTEX
  8
SURFACE
 62
7
  6
CONTINUOUS
 10
193.2503925644
 20
273.0682731585
  0
VERTEX
  8
SURFACE
 62
7
  6
CONTINUOUS
 10
193.4828447682
 20
273.1602471433
  0
VERTEX
  8
SURFACE
 62
7
  6
CONTINUOUS
 10
193.7007567093
 20
273.1864986576
  0
SEQEND
  0
POLYLINE
  8
SURFACE
 62
7
  6
CONTINUOUS
 66
1
 70
0
  0
VERTEX
  8
SURFACE
 62
7
  6
CONTINUOUS
 10
163.2627393038
 20
271.8190705927
  0
VERTEX
  8
SURFACE
 62
7
  6
CONTINUOUS
 10
163.34856997
 20
271.8576555825
  0
VERTEX
  8
SURFACE
 62
7
  6
CONTINUOUS
 10
163.4293224396
 20
271.9265477145
  0
VERTEX
  8
SURFACE
 62
7
  6
CONTINUOUS
 10
163.4850917622
 20
272.0218941645
  0
VERTEX
  8
SURFACE
 62
7
  6
CONTINUOUS
 10
163.504685444
 20
272.1313053001
  0
SEQEND
  0
POLYLINE
  8
SURFACE
 62
7
  6
CONTINUOUS
 66
1
 70
0
  0
VERTEX
  8
SURFACE
 62
7
  6
CONTINUOUS
 10
188.9757805005
 20
277.3917296592
  0
VERTEX
  8
SURFACE
 62
7
  6
CONTINUOUS
 10
189.1435236582
 20
277.4513721878
  0
VERTEX
  8
SURFACE
 62
7
  6
CONTINUOUS
 10
189.3039219669
 20
277.5581088464
  0
VERTEX
  8
SURFACE
 62
7
  6
CONTINUOUS
 10
189.4507252447
 20
277.7239502246
  0
VERTEX
  8
SURFACE
 62
7
  6
CONTINUOUS
 10
189.5757438509
 20
277.9666178939
  0
VERTEX
  8
SURFACE
 62
7
  6
CONTINUOUS
 10
189.6693074526
 20
278.3057509003
  0
VERTEX
  8
SURFACE
 62
7
  6
CONTINUOUS
 10
189.7259544525
 20
278.7667094908
  0
VERTEX
  8
SURFACE
 62
7
  6
CONTINUOUS
 10
189.7428827893
 20
279.2855225139
  0
SEQEND
  0
LINE
  8
0
 62
7
  6
CONTINUOUS
 10
319.9325875893
 20
286.7708723754
 11
319.994884938
 21
286.7855225139
  0
POLYLINE
  8
0
 62
7
  6
CONTINUOUS
 66
1
 70
0
  0
VERTEX
  8
0
 62
7
  6
CONTINUOUS
 10
288.1370847573
 20
276.9383950408
  0
VERTEX
  8
0
 62
7
  6
CONTINUOUS
 10
287.8557606976
 20
276.8729103675
  0
VERTEX
  8
0
 62
7
  6
CONTINUOUS
 10
287.5727930561
 20
276.7621941796
  0
VERTEX
  8
0
 62
7
  6
CONTINUOUS
 10
287.3158734359
 20
276.6226024649
  0
VERTEX
  8
0
 62
7
  6
CONTINUOUS
 10
287.2047537976
 20
276.5494673924
  0
VERTEX
  8
0
 62
7
  6
CONTINUOUS
 10
287.0316567311
 20
276.4139000089
  0
VERTEX
  8
0
 62
7
  6
CONTINUOUS
 10
286.9303700327
 20
276.3071744249
  0
VERTEX
  8
0
 62
7
  6
CONTINUOUS
 10
286.8975570238
 20
276.2343213656
  0
SEQEND
  0
LINE
  8
0
 62
7
  6
CONTINUOUS
 10
264.7766758747
 20
271.8004167839
 11
264.8583785278
 21
271.8191384733
  0
POLYLINE
  8
0
 62
7
  6
CONTINUOUS
 66
1
 70
0
  0
VERTEX
  8
0
 62
7
  6
CONTINUOUS
 10
288.1370847573
 20
276.9383950408
  0
VERTEX
  8
0
 62
7
  6
CONTINUOUS
 10
289.0074808491
 20
277.0801077745
  0
VERTEX
  8
0
 62
7
  6
CONTINUOUS
 10
289.8181122982
 20
277.2311048822
  0
VERTEX
  8
0
 62
7
  6
CONTINUOUS
 10
290.5712052015
 20
277.3917296592
  0
SEQEND
  0
POLYLINE
  8
0
 62
7
  6
CONTINUOUS
 66
1
 70
0
  0
VERTEX
  8
0
 62
7
  6
CONTINUOUS
 10
358.9925395756
 20
271.7855225139
  0
VERTEX
  8
0
 62
7
  6
CONTINUOUS
 10
359.3754947349
 20
271.8267313331
  0
VERTEX
  8
0
 62
7
  6
CONTINUOUS
 10
359.741283478
 20
271.9485748528
  0
VERTEX
  8
0
 62
7
  6
CONTINUOUS
 10
359.9124368174
 20
272.0381720258
  0
VERTEX
  8
0
 62
7
  6
CONTINUOUS
 10
360.2034068805
 20
272.2530929672
  0
SEQEND
  0
POLYLINE
  8
0
 62
7
  6
CONTINUOUS
 66
1
 70
0
  0
VERTEX
  8
0
 62
7
  6
CONTINUOUS
 10
331.1848445283
 20
271.7855225139
  0
VERTEX
  8
0
 62
7
  6
CONTINUOUS
 10
331.3659138439
 20
271.7946134018
  0
VERTEX
  8
0
 62
7
  6
CONTINUOUS
 10
331.7210139212
 20
271.8668376081
  0
VERTEX
  8
0
 62
7
  6
CONTINUOUS
 10
331.8914711464
 20
271.9292747656
  0
VERTEX
  8
0
 62
7
  6
CONTINUOUS
 10
332.2095803153
 20
272.1037057077
  0
VERTEX
  8
0
 62
7
  6
CONTINUOUS
 10
332.3426611781
 20
272.2044263425
  0
SEQEND
  0
POLYLINE
  8
SURFACE
 62
7
  6
CONTINUOUS
 66
1
 70
0
  0
VERTEX
  8
SURFACE
 62
7
  6
CONTINUOUS
 10
155.1060655617
 20
273.1864987421
  0
VERTEX
  8
SURFACE
 62
7
  6
CONTINUOUS
 10
155.3239610686
 20
273.1602499603
  0
VERTEX
  8
SURFACE
 62
7
  6
CONTINUOUS
 10
155.5547963987
 20
273.0691938823
  0
VERTEX
  8
SURFACE
 62
7
  6
CONTINUOUS
 10
155.6375957208
 20
273.0162591489
  0
SEQEND
  0
POLYLINE
  8
SURFACE
 62
7
  6
CONTINUOUS
 66
1
 70
0
  0
VERTEX
  8
SURFACE
 62
7
  6
CONTINUOUS
 10
185.5432927325
 20
271.8193195757
  0
VERTEX
  8
SURFACE
 62
7
  6
CONTINUOUS
 10
185.6250939913
 20
271.800491529
  0
VERTEX
  8
SURFACE
 62
7
  6
CONTINUOUS
 10
185.7117041719
 20
271.7909721373
  0
VERTEX
  8
SURFACE
 62
7
  6
CONTINUOUS
 10
185.8133856467
 20
271.7864949115
  0
VERTEX
  8
SURFACE
 62
7
  6
CONTINUOUS
 10
185.9094429083
 20
271.7855225171
  0
SEQEND
  0
POLYLINE
  8
SURFACE
 62
7
  6
CONTINUOUS
 66
1
 70
0
  0
VERTEX
  8
SURFACE
 62
7
  6
CONTINUOUS
 10
162.2651577105
 20
276.9383950408
  0
VERTEX
  8
SURFACE
 62
7
  6
CONTINUOUS
 10
162.5464817702
 20
276.8729103675
  0
VERTEX
  8
SURFACE
 62
7
  6
CONTINUOUS
 10
162.8294494118
 20
276.7621941796
  0
VERTEX
  8
SURFACE
 62
7
  6
CONTINUOUS
 10
163.086369032
 20
276.6226024649
  0
VERTEX
  8
SURFACE
 62
7
  6
CONTINUOUS
 10
163.1974886703
 20
276.5494673924
  0
VERTEX
  8
SURFACE
 62
7
  6
CONTINUOUS
 10
163.3705857367
 20
276.4139000089
  0
VERTEX
  8
SURFACE
 62
7
  6
CONTINUOUS
 10
163.4718724351
 20
276.3071744249
  0
VERTEX
  8
SURFACE
 62
7
  6
CONTINUOUS
 10
163.504685444
 20
276.2343213656
  0
SEQEND
  0
LINE
  8
SURFACE
 62
7
  6
CONTINUOUS
 10
130.4696548786
 20
286.7708723754
 11
130.4073575298
 21
286.7855225139
  0
POLYLINE
  8
SURFACE
 62
7
  6
CONTINUOUS
 66
1
 70
0
  0
VERTEX
  8
SURFACE
 62
7
  6
CONTINUOUS
 10
206.43759688
 20
273.0162582161
  0
VERTEX
  8
SURFACE
 62
7
  6
CONTINUOUS
 10
206.6908674715
 20
272.8063884577
  0
VERTEX
  8
SURFACE
 62
7
  6
CONTINUOUS
 10
206.8500800953
 20
272.6264165176
  0
VERTEX
  8
SURFACE
 62
7
  6
CONTINUOUS
 10
206.9150235381
 20
272.5132927647
  0
VERTEX
  8
SURFACE
 62
7
  6
CONTINUOUS
 10
206.9234161186
 20
272.4834466746
  0
SEQEND
  0
POLYLINE
  8
SURFACE
 62
7
  6
CONTINUOUS
 66
1
 70
0
  0
VERTEX
  8
SURFACE
 62
7
  6
CONTINUOUS
 10
193.1692210869
 20
285.5547866775
  0
VERTEX
  8
SURFACE
 62
7
  6
CONTINUOUS
 10
192.915948557
 20
285.7646582562
  0
VERTEX
  8
SURFACE
 62
7
  6
CONTINUOUS
 10
192.756737141
 20
285.9446292463
  0
VERTEX
  8
SURFACE
 62
7
  6
CONTINUOUS
 10
192.6917941447
 20
286.0577524854
  0
VERTEX
  8
SURFACE
 62
7
  6
CONTINUOUS
 10
192.6834016482
 20
286.0875983569
  0
SEQEND
  0
LINE
  8
SURFACE
 62
7
  6
CONTINUOUS
 10
214.304685444
 20
272.1313022057
 11
214.304685444
 21
276.2343213656
  0
POLYLINE
  8
SURFACE
 62
7
  6
CONTINUOUS
 66
1
 70
0
  0
VERTEX
  8
SURFACE
 62
7
  6
CONTINUOUS
 10
214.0627393038
 20
271.8190705927
  0
VERTEX
  8
SURFACE
 62
7
  6
CONTINUOUS
 10
214.14856997
 20
271.8576555825
  0
VERTEX
  8
SURFACE
 62
7
  6
CONTINUOUS
 10
214.2293224396
 20
271.9265477145
  0
VERTEX
  8
SURFACE
 62
7
  6
CONTINUOUS
 10
214.2850917622
 20
272.0218941645
  0
VERTEX
  8
SURFACE
 62
7
  6
CONTINUOUS
 10
214.304685444
 20
272.1313053001
  0
SEQEND
  0
POLYLINE
  8
0
 62
7
  6
CONTINUOUS
 66
1
 70
0
  0
VERTEX
  8
0
 62
7
  6
CONTINUOUS
 10
237.3370847573
 20
276.9383950408
  0
VERTEX
  8
0
 62
7
  6
CONTINUOUS
 10
237.0557606976
 20
276.8729103675
  0
VERTEX
  8
0
 62
7
  6
CONTINUOUS
 10
236.7727930561
 20
276.7621941796
  0
VERTEX
  8
0
 62
7
  6
CONTINUOUS
 10
236.5158734359
 20
276.6226024649
  0
VERTEX
  8
0
 62
7
  6
CONTINUOUS
 10
236.4047537976
 20
276.5494673924
  0
VERTEX
  8
0
 62
7
  6
CONTINUOUS
 10
236.2316567311
 20
276.4139000089
  0
VERTEX
  8
0
 62
7
  6
CONTINUOUS
 10
236.1303700327
 20
276.3071744249
  0
VERTEX
  8
0
 62
7
  6
CONTINUOUS
 10
236.0975570238
 20
276.2343213656
  0
SEQEND
  0
LINE
  8
SURFACE
 62
7
  6
CONTINUOUS
 10
213.9807718553
 20
271.8003412403
 11
214.0627393038
 21
271.8190705927
  0
POLYLINE
  8
0
 62
7
  6
CONTINUOUS
 66
1
 70
0
  0
VERTEX
  8
0
 62
7
  6
CONTINUOUS
 10
237.3370847573
 20
276.9383950408
  0
VERTEX
  8
0
 62
7
  6
CONTINUOUS
 10
238.2074808491
 20
277.0801077745
  0
VERTEX
  8
0
 62
7
  6
CONTINUOUS
 10
239.0181122982
 20
277.2311048822
  0
VERTEX
  8
0
 62
7
  6
CONTINUOUS
 10
239.7712052015
 20
277.3917296592
  0
SEQEND
  0
POLYLINE
  8
SURFACE
 62
7
  6
CONTINUOUS
 66
1
 70
0
  0
VERTEX
  8
SURFACE
 62
7
  6
CONTINUOUS
 10
127.9905568717
 20
271.7855225139
  0
VERTEX
  8
SURFACE
 62
7
  6
CONTINUOUS
 10
128.1719208605
 20
271.7946491571
  0
VERTEX
  8
SURFACE
 62
7
  6
CONTINUOUS
 10
128.5275679358
 20
271.867155301
  0
VERTEX
  8
SURFACE
 62
7
  6
CONTINUOUS
 10
128.6982562632
 20
271.9298331626
  0
VERTEX
  8
SURFACE
 62
7
  6
CONTINUOUS
 10
129.0166905554
 20
272.1049194836
  0
VERTEX
  8
SURFACE
 62
7
  6
CONTINUOUS
 10
129.1560440445
 20
272.211204745
  0
SEQEND
  0
POLYLINE
  8
0
 62
7
  6
CONTINUOUS
 66
1
 70
0
  0
VERTEX
  8
0
 62
7
  6
CONTINUOUS
 10
264.4927979337
 20
271.785522517
  0
VERTEX
  8
0
 62
7
  6
CONTINUOUS
 10
264.5886192712
 20
271.7864895302
  0
VERTEX
  8
0
 62
7
  6
CONTINUOUS
 10
264.6901586279
 20
271.7909450299
  0
VERTEX
  8
0
 62
7
  6
CONTINUOUS
 10
264.7766758747
 20
271.8004167839
  0
SEQEND
  0
POLYLINE
  8
SURFACE
 62
7
  6
CONTINUOUS
 66
1
 70
0
  0
VERTEX
  8
SURFACE
 62
7
  6
CONTINUOUS
 10
213.69738893
 20
271.7855225174
  0
VERTEX
  8
SURFACE
 62
7
  6
CONTINUOUS
 10
213.7916880534
 20
271.7864558296
  0
VERTEX
  8
SURFACE
 62
7
  6
CONTINUOUS
 10
213.8938529619
 20
271.790882507
  0
VERTEX
  8
SURFACE
 62
7
  6
CONTINUOUS
 10
213.9807718553
 20
271.8003412403
  0
SEQEND
  0
POLYLINE
  8
SURFACE
 62
7
  6
CONTINUOUS
 66
1
 70
0
  0
VERTEX
  8
SURFACE
 62
7
  6
CONTINUOUS
 10
162.89738893
 20
271.7855225174
  0
VERTEX
  8
SURFACE
 62
7
  6
CONTINUOUS
 10
162.9916880534
 20
271.7864558296
  0
VERTEX
  8
SURFACE
 62
7
  6
CONTINUOUS
 10
163.0938529619
 20
271.790882507
  0
VERTEX
  8
SURFACE
 62
7
  6
CONTINUOUS
 10
163.1807718553
 20
271.8003412403
  0
SEQEND
  0
LINE
  8
SURFACE
 62
7
  6
CONTINUOUS
 10
62.5511212339
 20
271.7855225139
 11
119.212076794
 21
271.7855225139
  0
LINE
  8
SURFACE
 62
7
  6
CONTINUOUS
 10
119.2181505358
 20
271.7855225139
 11
127.9897811589
 21
271.7855225139
  0
LINE
  8
SURFACE
 62
7
  6
CONTINUOUS
 10
128.0027885831
 20
271.7855225139
 11
213.6972111445
 21
271.7855225139
  0
LINE
  8
0
 62
7
  6
CONTINUOUS
 10
213.6972111445
 20
271.7855225139
 11
387.8511212339
 21
271.7855225139
  0
LINE
  8
SURFACE
 62
7
  6
CONTINUOUS
 10
95.3011180507
 20
272.3887075196
 11
96.3011138734
 21
272.3887075196
  0
LINE
  8
SURFACE
 62
7
  6
CONTINUOUS
 10
123.1011180473
 20
272.3887075196
 11
124.1011138743
 21
272.3887075196
  0
LINE
  8
0
 62
7
  6
CONTINUOUS
 10
326.3011285935
 20
272.3887075196
 11
327.3011244205
 21
272.3887075196
  0
LINE
  8
0
 62
7
  6
CONTINUOUS
 10
354.1011285944
 20
272.3887075196
 11
355.1011244172
 21
272.3887075196
  0
LINE
  8
0
 62
7
  6
CONTINUOUS
 10
303.2504917187
 20
273.1864987304
 11
295.2960644682
 21
273.1864987304
  0
LINE
  8
0
 62
7
  6
CONTINUOUS
 10
256.7017682907
 20
273.1864987304
 11
244.4960645754
 21
273.1864987304
  0
LINE
  8
SURFACE
 62
7
  6
CONTINUOUS
 10
205.9061778925
 20
273.1864987304
 11
193.7004741771
 21
273.1864987304
  0
LINE
  8
SURFACE
 62
7
  6
CONTINUOUS
 10
155.1061779996
 20
273.1864987304
 11
147.1517507492
 21
273.1864987304
  0
POLYLINE
  8
0
 62
7
  6
CONTINUOUS
 66
1
 70
0
  0
VERTEX
  8
0
 62
7
  6
CONTINUOUS
 10
327.3011244579
 20
272.3887075196
  0
VERTEX
  8
0
 62
7
  6
CONTINUOUS
 10
327.5697040353
 20
272.3787443078
  0
VERTEX
  8
0
 62
7
  6
CONTINUOUS
 10
327.8641637367
 20
272.3435053333
  0
VERTEX
  8
0
 62
7
  6
CONTINUOUS
 10
328.1133301577
 20
272.2901049698
  0
VERTEX
  8
0
 62
7
  6
CONTINUOUS
 10
328.30501541
 20
272.2291486947
  0
VERTEX
  8
0
 62
7
  6
CONTINUOUS
 10
328.4348127868
 20
272.1718569832
  0
VERTEX
  8
0
 62
7
  6
CONTINUOUS
 10
328.4926285943
 20
272.1376176648
  0
SEQEND
  0
POLYLINE
  8
0
 62
7
  6
CONTINUOUS
 66
1
 70
0
  0
VERTEX
  8
0
 62
7
  6
CONTINUOUS
 10
355.1011244546
 20
272.3887075196
  0
VERTEX
  8
0
 62
7
  6
CONTINUOUS
 10
355.3697033799
 20
272.3787443566
  0
VERTEX
  8
0
 62
7
  6
CONTINUOUS
 10
355.664163149
 20
272.3435054316
  0
VERTEX
  8
0
 62
7
  6
CONTINUOUS
 10
355.9133298372
 20
272.2901050551
  0
VERTEX
  8
0
 62
7
  6
CONTINUOUS
 10
356.105015254
 20
272.2291487538
  0
VERTEX
  8
0
 62
7
  6
CONTINUOUS
 10
356.2348127281
 20
272.171857014
  0
VERTEX
  8
0
 62
7
  6
CONTINUOUS
 10
356.2926285928
 20
272.1376176659
  0
SEQEND
  0
POLYLINE
  8
SURFACE
 62
7
  6
CONTINUOUS
 66
1
 70
0
  0
VERTEX
  8
SURFACE
 62
7
  6
CONTINUOUS
 10
96.3011138743
 20
272.3887056779
  0
VERTEX
  8
SURFACE
 62
7
  6
CONTINUOUS
 10
96.5737404702
 20
272.3784406447
  0
VERTEX
  8
SURFACE
 62
7
  6
CONTINUOUS
 10
96.868280676
 20
272.3428138022
  0
VERTEX
  8
SURFACE
 62
7
  6
CONTINUOUS
 10
97.1170724435
 20
272.289105024
  0
VERTEX
  8
SURFACE
 62
7
  6
CONTINUOUS
 10
97.3078170796
 20
272.2280844123
  0
VERTEX
  8
SURFACE
 62
7
  6
CONTINUOUS
 10
97.4365518377
 20
272.1709434548
  0
VERTEX
  8
SURFACE
 62
7
  6
CONTINUOUS
 10
97.4926422405
 20
272.1376077498
  0
SEQEND
  0
POLYLINE
  8
SURFACE
 62
7
  6
CONTINUOUS
 66
1
 70
0
  0
VERTEX
  8
SURFACE
 62
7
  6
CONTINUOUS
 10
124.1011138752
 20
272.3887056778
  0
VERTEX
  8
SURFACE
 62
7
  6
CONTINUOUS
 10
124.3737405839
 20
272.3784406361
  0
VERTEX
  8
SURFACE
 62
7
  6
CONTINUOUS
 10
124.6682807857
 20
272.3428137837
  0
VERTEX
  8
SURFACE
 62
7
  6
CONTINUOUS
 10
124.9170725097
 20
272.2891050063
  0
VERTEX
  8
SURFACE
 62
7
  6
CONTINUOUS
 10
125.1078171117
 20
272.2280844001
  0
VERTEX
  8
SURFACE
 62
7
  6
CONTINUOUS
 10
125.2365518478
 20
272.1709434495
  0
VERTEX
  8
SURFACE
 62
7
  6
CONTINUOUS
 10
125.2926422401
 20
272.1376077502
  0
SEQEND
  0
POLYLINE
  8
0
 62
7
  6
CONTINUOUS
 66
1
 70
0
  0
VERTEX
  8
0
 62
7
  6
CONTINUOUS
 10
256.7014872564
 20
273.1864986576
  0
VERTEX
  8
0
 62
7
  6
CONTINUOUS
 10
256.915872034
 20
273.1611007207
  0
VERTEX
  8
0
 62
7
  6
CONTINUOUS
 10
257.1485435093
 20
273.0701368136
  0
VERTEX
  8
0
 62
7
  6
CONTINUOUS
 10
257.2330179921
 20
273.0162606151
  0
SEQEND
  0
POLYLINE
  8
SURFACE
 62
7
  6
CONTINUOUS
 66
1
 70
0
  0
VERTEX
  8
SURFACE
 62
7
  6
CONTINUOUS
 10
205.9060653145
 20
273.1864987415
  0
VERTEX
  8
SURFACE
 62
7
  6
CONTINUOUS
 10
206.1236485821
 20
273.1603262117
  0
VERTEX
  8
SURFACE
 62
7
  6
CONTINUOUS
 10
206.354530799
 20
273.069343539
  0
VERTEX
  8
SURFACE
 62
7
  6
CONTINUOUS
 10
206.4375949384
 20
273.016259683
  0
SEQEND
  0
POLYLINE
  8
SURFACE
 62
7
  6
CONTINUOUS
 66
1
 70
0
  0
VERTEX
  8
SURFACE
 62
7
  6
CONTINUOUS
 10
147.1520289652
 20
285.3845462862
  0
VERTEX
  8
SURFACE
 62
7
  6
CONTINUOUS
 10
146.9343925331
 20
285.4107317927
  0
VERTEX
  8
SURFACE
 62
7
  6
CONTINUOUS
 10
146.7035181828
 20
285.5017270324
  0
VERTEX
  8
SURFACE
 62
7
  6
CONTINUOUS
 10
146.6204992661
 20
285.5547854303
  0
SEQEND
  0
POLYLINE
  8
SURFACE
 62
7
  6
CONTINUOUS
 66
1
 70
0
  0
VERTEX
  8
SURFACE
 62
7
  6
CONTINUOUS
 10
162.2651577105
 20
276.9383950408
  0
VERTEX
  8
SURFACE
 62
7
  6
CONTINUOUS
 10
161.3947616188
 20
277.0801077745
  0
VERTEX
  8
SURFACE
 62
7
  6
CONTINUOUS
 10
160.5841301697
 20
277.2311048822
  0
VERTEX
  8
SURFACE
 62
7
  6
CONTINUOUS
 10
159.8310372664
 20
277.3917296592
  0
SEQEND
  0
POLYLINE
  8
SURFACE
 62
7
  6
CONTINUOUS
 66
1
 70
0
  0
VERTEX
  8
SURFACE
 62
7
  6
CONTINUOUS
 10
213.0651577105
 20
276.9383950408
  0
VERTEX
  8
SURFACE
 62
7
  6
CONTINUOUS
 10
212.1947616188
 20
277.0801077745
  0
VERTEX
  8
SURFACE
 62
7
  6
CONTINUOUS
 10
211.3841301697
 20
277.2311048822
  0
VERTEX
  8
SURFACE
 62
7
  6
CONTINUOUS
 10
210.6310372664
 20
277.3917296592
  0
SEQEND
  0
POLYLINE
  8
0
 62
7
  6
CONTINUOUS
 66
1
 70
0
  0
VERTEX
  8
0
 62
7
  6
CONTINUOUS
 10
236.3400781135
 20
271.8188894638
  0
VERTEX
  8
0
 62
7
  6
CONTINUOUS
 10
236.4219461589
 20
271.8002666621
  0
VERTEX
  8
0
 62
7
  6
CONTINUOUS
 10
236.5087720679
 20
271.7908555258
  0
VERTEX
  8
0
 62
7
  6
CONTINUOUS
 10
236.6107941567
 20
271.7864505329
  0
VERTEX
  8
0
 62
7
  6
CONTINUOUS
 10
236.7048552294
 20
271.7855225174
  0
SEQEND
  0
POLYLINE
  8
SURFACE
 62
7
  6
CONTINUOUS
 66
1
 70
0
  0
VERTEX
  8
SURFACE
 62
7
  6
CONTINUOUS
 10
213.0651577105
 20
276.9383950408
  0
VERTEX
  8
SURFACE
 62
7
  6
CONTINUOUS
 10
213.3464817702
 20
276.8729103675
  0
VERTEX
  8
SURFACE
 62
7
  6
CONTINUOUS
 10
213.6294494118
 20
276.7621941796
  0
VERTEX
  8
SURFACE
 62
7
  6
CONTINUOUS
 10
213.886369032
 20
276.6226024649
  0
VERTEX
  8
SURFACE
 62
7
  6
CONTINUOUS
 10
213.9974886703
 20
276.5494673924
  0
VERTEX
  8
SURFACE
 62
7
  6
CONTINUOUS
 10
214.1705857367
 20
276.4139000089
  0
VERTEX
  8
SURFACE
 62
7
  6
CONTINUOUS
 10
214.2718724351
 20
276.3071744249
  0
VERTEX
  8
SURFACE
 62
7
  6
CONTINUOUS
 10
214.304685444
 20
276.2343213656
  0
SEQEND
  0
LINE
  8
DEFAULT_1
 62
2
  6
CENTER
 10
225.2011212339
 20
257.9841002107
 11
225.2011212339
 21
294.0711390471
  0
POLYLINE
  8
0
 62
7
  6
CONTINUOUS
 66
1
 70
0
  0
VERTEX
  8
0
 62
7
  6
CONTINUOUS
 10
257.2330189102
 20
285.5547848263
  0
VERTEX
  8
0
 62
7
  6
CONTINUOUS
 10
257.1531357046
 20
285.5035012952
  0
VERTEX
  8
0
 62
7
  6
CONTINUOUS
 10
256.9226735781
 20
285.4116042939
  0
VERTEX
  8
0
 62
7
  6
CONTINUOUS
 10
256.7014887101
 20
285.3845462863
  0
SEQEND
  0
LINE
  8
SURFACE
 62
7
  6
CONTINUOUS
 10
163.1807718553
 20
271.8003412403
 11
163.2627393038
 21
271.8190705927
  0
POLYLINE
  8
SURFACE
 62
7
  6
CONTINUOUS
 66
1
 70
0
  0
VERTEX
  8
SURFACE
 62
7
  6
CONTINUOUS
 10
186.5416600563
 20
276.9383950408
  0
VERTEX
  8
SURFACE
 62
7
  6
CONTINUOUS
 10
187.4120561481
 20
277.0801077745
  0
VERTEX
  8
SURFACE
 62
7
  6
CONTINUOUS
 10
188.2226875972
 20
277.2311048822
  0
VERTEX
  8
SURFACE
 62
7
  6
CONTINUOUS
 10
188.9757805005
 20
277.3917296592
  0
SEQEND
  0
POLYLINE
  8
SURFACE
 62
7
  6
CONTINUOUS
 66
1
 70
0
  0
VERTEX
  8
SURFACE
 62
7
  6
CONTINUOUS
 10
100.1894187712
 20
271.7855225139
  0
VERTEX
  8
SURFACE
 62
7
  6
CONTINUOUS
 10
100.3701816045
 20
271.7945825699
  0
VERTEX
  8
SURFACE
 62
7
  6
CONTINUOUS
 10
100.7247028175
 20
271.8665629664
  0
VERTEX
  8
SURFACE
 62
7
  6
CONTINUOUS
 10
100.8949071163
 20
271.9287920823
  0
VERTEX
  8
SURFACE
 62
7
  6
CONTINUOUS
 10
101.2126252016
 20
272.1026559174
  0
VERTEX
  8
SURFACE
 62
7
  6
CONTINUOUS
 10
101.3465140016
 20
272.2038256961
  0
SEQEND
  0
POLYLINE
  8
0
 62
7
  6
CONTINUOUS
 66
1
 70
0
  0
VERTEX
  8
0
 62
7
  6
CONTINUOUS
 10
350.2128249224
 20
286.7855225139
  0
VERTEX
  8
0
 62
7
  6
CONTINUOUS
 10
350.0318908241
 20
286.776445246
  0
VERTEX
  8
0
 62
7
  6
CONTINUOUS
 10
349.6770450892
 20
286.704328437
  0
VERTEX
  8
0
 62
7
  6
CONTINUOUS
 10
349.5066990751
 20
286.6419829405
  0
VERTEX
  8
0
 62
7
  6
CONTINUOUS
 10
349.188761905
 20
286.4678019825
  0
VERTEX
  8
0
 62
7
  6
CONTINUOUS
 10
349.0557373228
 20
286.3672260476
  0
SEQEND
  0
POLYLINE
  8
0
 62
7
  6
CONTINUOUS
 66
1
 70
0
  0
VERTEX
  8
0
 62
7
  6
CONTINUOUS
 10
322.4128249962
 20
286.7855225139
  0
VERTEX
  8
0
 62
7
  6
CONTINUOUS
 10
322.2318909262
 20
286.7764452493
  0
VERTEX
  8
0
 62
7
  6
CONTINUOUS
 10
321.8770451835
 20
286.7043284469
  0
VERTEX
  8
0
 62
7
  6
CONTINUOUS
 10
321.7066992304
 20
286.6419829815
  0
VERTEX
  8
0
 62
7
  6
CONTINUOUS
 10
321.3887622646
 20
286.4678021947
  0
VERTEX
  8
0
 62
7
  6
CONTINUOUS
 10
321.2557378083
 20
286.3672264125
  0
SEQEND
  0
LINE
  8
SURFACE
 62
7
  6
CONTINUOUS
 10
209.8639349776
 20
279.2855225139
 11
209.804685444
 21
279.2855225139
  0
LINE
  8
SURFACE
 62
7
  6
CONTINUOUS
 10
189.8021323228
 20
279.2855225139
 11
189.7428827893
 21
279.2855225139
  0
LINE
  8
SURFACE
 62
7
  6
CONTINUOUS
 10
159.0639349776
 20
279.2855225139
 11
159.004685444
 21
279.2855225139
  0
LINE
  8
DEFAULT_1
 62
2
  6
CENTER
 10
240.5383074902
 20
279.2855225139
 11
53.3449725161
 21
279.2855225139
  0
LINE
  8
DEFAULT_1
 62
2
  6
CENTER
 10
260.600110145
 20
279.2855225139
 11
240.5975570238
 21
279.2855225139
  0
LINE
  8
DEFAULT_1
 62
2
  6
CENTER
 10
291.3383074902
 20
279.2855225139
 11
260.6593596786
 21
279.2855225139
  0
LINE
  8
0
 62
7
  6
CONTINUOUS
 10
240.5383074902
 20
279.2855225139
 11
240.5975570238
 21
279.2855225139
  0
LINE
  8
0
 62
7
  6
CONTINUOUS
 10
260.600110145
 20
279.2855225139
 11
260.6593596786
 21
279.2855225139
  0
LINE
  8
0
 62
7
  6
CONTINUOUS
 10
291.3383074902
 20
279.2855225139
 11
291.3975570238
 21
279.2855225139
  0
LINE
  8
DEFAULT_1
 62
2
  6
CENTER
 10
291.3975570238
 20
279.2855225139
 11
391.6419215527
 21
279.2855225139
  0
LINE
  8
SURFACE
 62
7
  6
CONTINUOUS
 10
147.1519164166
 20
285.3845462975
 11
155.1063435804
 21
285.3845462975
  0
LINE
  8
SURFACE
 62
7
  6
CONTINUOUS
 10
193.7006398501
 20
285.3845462975
 11
205.9063435777
 21
285.3845462975
  0
LINE
  8
0
 62
7
  6
CONTINUOUS
 10
244.4958988901
 20
285.3845462975
 11
256.7016026177
 21
285.3845462975
  0
LINE
  8
0
 62
7
  6
CONTINUOUS
 10
295.2958988875
 20
285.3845462975
 11
303.2503260512
 21
285.3845462975
  0
LINE
  8
0
 62
7
  6
CONTINUOUS
 10
355.1011143082
 20
286.1823375083
 11
354.10111768
 21
286.1823375083
  0
LINE
  8
0
 62
7
  6
CONTINUOUS
 10
327.3011143091
 20
286.1823375083
 11
326.3011176763
 21
286.1823375083
  0
LINE
  8
SURFACE
 62
7
  6
CONTINUOUS
 10
124.1011247915
 20
286.1823375083
 11
123.1011281587
 21
286.1823375083
  0
LINE
  8
SURFACE
 62
7
  6
CONTINUOUS
 10
96.3011247878
 20
286.1823375083
 11
95.3011281597
 21
286.1823375083
  0
LINE
  8
0
 62
7
  6
CONTINUOUS
 10
304.5682742786
 20
286.7855225139
 11
293.9781163297
 21
286.7855225139
  0
LINE
  8
0
 62
7
  6
CONTINUOUS
 10
293.9718348579
 20
286.7855225139
 11
258.0258323109
 21
286.7855225139
  0
LINE
  8
0
 62
7
  6
CONTINUOUS
 10
258.0195508392
 20
286.7855225139
 11
243.1781163297
 21
286.7855225139
  0
LINE
  8
SURFACE
 62
7
  6
CONTINUOUS
 10
62.5511212339
 20
286.7855225139
 11
100.1886659028
 21
286.7855225139
  0
LINE
  8
SURFACE
 62
7
  6
CONTINUOUS
 10
100.1947387802
 20
286.7855225139
 11
127.9886658301
 21
286.7855225139
  0
LINE
  8
SURFACE
 62
7
  6
CONTINUOUS
 10
127.994738505
 20
286.7855225139
 11
145.8276867175
 21
286.7855225139
  0
LINE
  8
SURFACE
 62
7
  6
CONTINUOUS
 10
145.8339681892
 20
286.7855225139
 11
192.3764101569
 21
286.7855225139
  0
LINE
  8
SURFACE
 62
7
  6
CONTINUOUS
 10
192.3826916286
 20
286.7855225139
 11
211.804685444
 21
286.7855225139
  0
LINE
  8
0
 62
7
  6
CONTINUOUS
 10
211.804685444
 20
286.7855225139
 11
243.1718348579
 21
286.7855225139
  0
LINE
  8
0
 62
7
  6
CONTINUOUS
 10
304.5745557503
 20
286.7855225139
 11
387.8511212339
 21
286.7855225139
  0
POLYLINE
  8
SURFACE
 62
7
  6
CONTINUOUS
 66
1
 70
0
  0
VERTEX
  8
SURFACE
 62
7
  6
CONTINUOUS
 10
95.3011281588
 20
286.1823393785
  0
VERTEX
  8
SURFACE
 62
7
  6
CONTINUOUS
 10
95.0284559728
 20
286.1926078606
  0
VERTEX
  8
SURFACE
 62
7
  6
CONTINUOUS
 10
94.7339166727
 20
286.2282388434
  0
VERTEX
  8
SURFACE
 62
7
  6
CONTINUOUS
 10
94.4851422922
 20
286.2819474356
  0
VERTEX
  8
SURFACE
 62
7
  6
CONTINUOUS
 10
94.2944119137
 20
286.3429657579
  0
VERTEX
  8
SURFACE
 62
7
  6
CONTINUOUS
 10
94.1656864875
 20
286.4001037568
  0
VERTEX
  8
SURFACE
 62
7
  6
CONTINUOUS
 10
94.1096004317
 20
286.4334371257
  0
SEQEND
  0
POLYLINE
  8
SURFACE
 62
7
  6
CONTINUOUS
 66
1
 70
0
  0
VERTEX
  8
SURFACE
 62
7
  6
CONTINUOUS
 10
123.1011281578
 20
286.1823393786
  0
VERTEX
  8
SURFACE
 62
7
  6
CONTINUOUS
 10
122.8284558545
 20
286.1926078695
  0
VERTEX
  8
SURFACE
 62
7
  6
CONTINUOUS
 10
122.5339165595
 20
286.2282388625
  0
VERTEX
  8
SURFACE
 62
7
  6
CONTINUOUS
 10
122.2851422247
 20
286.2819474537
  0
VERTEX
  8
SURFACE
 62
7
  6
CONTINUOUS
 10
122.0944118811
 20
286.3429657704
  0
VERTEX
  8
SURFACE
 62
7
  6
CONTINUOUS
 10
121.9656864771
 20
286.4001037623
  0
VERTEX
  8
SURFACE
 62
7
  6
CONTINUOUS
 10
121.9096004321
 20
286.4334371254
  0
SEQEND
  0
POLYLINE
  8
0
 62
7
  6
CONTINUOUS
 66
1
 70
0
  0
VERTEX
  8
0
 62
7
  6
CONTINUOUS
 10
303.2502107157
 20
273.1864986572
  0
VERTEX
  8
0
 62
7
  6
CONTINUOUS
 10
303.4646004161
 20
273.161099534
  0
VERTEX
  8
0
 62
7
  6
CONTINUOUS
 10
303.697274814
 20
273.0701324065
  0
VERTEX
  8
0
 62
7
  6
CONTINUOUS
 10
303.7817415285
 20
273.0162605536
  0
SEQEND
  0
POLYLINE
  8
0
 62
7
  6
CONTINUOUS
 66
1
 70
0
  0
VERTEX
  8
0
 62
7
  6
CONTINUOUS
 10
244.4961798858
 20
285.3845463708
  0
VERTEX
  8
0
 62
7
  6
CONTINUOUS
 10
244.28178856
 20
285.4099458853
  0
VERTEX
  8
0
 62
7
  6
CONTINUOUS
 10
244.0491131359
 20
285.5009141131
  0
VERTEX
  8
0
 62
7
  6
CONTINUOUS
 10
243.9646490849
 20
285.5547844705
  0
SEQEND
  0
POLYLINE
  8
SURFACE
 62
7
  6
CONTINUOUS
 66
1
 70
0
  0
VERTEX
  8
SURFACE
 62
7
  6
CONTINUOUS
 10
193.7007524186
 20
285.3845462863
  0
VERTEX
  8
SURFACE
 62
7
  6
CONTINUOUS
 10
193.4831361791
 20
285.4107268662
  0
VERTEX
  8
SURFACE
 62
7
  6
CONTINUOUS
 10
193.2522588679
 20
285.5017173268
  0
VERTEX
  8
SURFACE
 62
7
  6
CONTINUOUS
 10
193.1692229058
 20
285.5547852964
  0
SEQEND
  0
POLYLINE
  8
0
 62
7
  6
CONTINUOUS
 66
1
 70
0
  0
VERTEX
  8
0
 62
7
  6
CONTINUOUS
 10
263.8605824115
 20
276.9383950408
  0
VERTEX
  8
0
 62
7
  6
CONTINUOUS
 10
262.9901863198
 20
277.0801077745
  0
VERTEX
  8
0
 62
7
  6
CONTINUOUS
 10
262.1795548706
 20
277.2311048822
  0
VERTEX
  8
0
 62
7
  6
CONTINUOUS
 10
261.4264619674
 20
277.3917296592
  0
SEQEND
  0
POLYLINE
  8
0
 62
7
  6
CONTINUOUS
 66
1
 70
0
  0
VERTEX
  8
0
 62
7
  6
CONTINUOUS
 10
287.1400781135
 20
271.8188894638
  0
VERTEX
  8
0
 62
7
  6
CONTINUOUS
 10
287.2219461589
 20
271.8002666621
  0
VERTEX
  8
0
 62
7
  6
CONTINUOUS
 10
287.3087720679
 20
271.7908555258
  0
VERTEX
  8
0
 62
7
  6
CONTINUOUS
 10
287.4107941567
 20
271.7864505329
  0
VERTEX
  8
0
 62
7
  6
CONTINUOUS
 10
287.5048552294
 20
271.7855225174
  0
SEQEND
  0
LINE
  8
0
 62
7
  6
CONTINUOUS
 10
243.4717891664
 20
286.4907582359
 11
243.4788269833
 21
286.087561979
  0
LINE
  8
0
 62
7
  6
CONTINUOUS
 10
236.0975570238
 20
272.1313022057
 11
236.0975570238
 21
276.2343213656
  0
LINE
  8
0
 62
7
  6
CONTINUOUS
 10
240.5975570238
 20
273.9618367173
 11
240.5975570238
 21
286.4855225139
  0
LINE
  8
0
 62
7
  6
CONTINUOUS
 10
243.4788269833
 20
272.4834830489
 11
243.4717891664
 21
272.080286792
  0
POLYLINE
  8
0
 62
7
  6
CONTINUOUS
 66
1
 70
0
  0
VERTEX
  8
0
 62
7
  6
CONTINUOUS
 10
240.5383074902
 20
279.2855225139
  0
VERTEX
  8
0
 62
7
  6
CONTINUOUS
 10
240.5213786705
 20
278.766702624
  0
VERTEX
  8
0
 62
7
  6
CONTINUOUS
 10
240.4647098962
 20
278.3056345728
  0
VERTEX
  8
0
 62
7
  6
CONTINUOUS
 10
240.3712173436
 20
277.9667446182
  0
VERTEX
  8
0
 62
7
  6
CONTINUOUS
 10
240.246244511
 20
277.7240884429
  0
VERTEX
  8
0
 62
7
  6
CONTINUOUS
 10
240.0994113557
 20
277.5581647721
  0
VERTEX
  8
0
 62
7
  6
CONTINUOUS
 10
239.9389740129
 20
277.4513848846
  0
VERTEX
  8
0
 62
7
  6
CONTINUOUS
 10
239.7712052015
 20
277.3917296592
  0
SEQEND
  0
POLYLINE
  8
0
 62
7
  6
CONTINUOUS
 66
1
 70
0
  0
VERTEX
  8
0
 62
7
  6
CONTINUOUS
 10
243.478826417
 20
272.4834505713
  0
VERTEX
  8
0
 62
7
  6
CONTINUOUS
 10
243.4872385055
 20
272.5133437377
  0
VERTEX
  8
0
 62
7
  6
CONTINUOUS
 10
243.5521456553
 20
272.6263932569
  0
VERTEX
  8
0
 62
7
  6
CONTINUOUS
 10
243.711588927
 20
272.8065948798
  0
VERTEX
  8
0
 62
7
  6
CONTINUOUS
 10
243.9646452969
 20
273.0162580063
  0
SEQEND
  0
POLYLINE
  8
0
 62
7
  6
CONTINUOUS
 66
1
 70
0
  0
VERTEX
  8
0
 62
7
  6
CONTINUOUS
 10
243.9646481943
 20
273.0162601626
  0
VERTEX
  8
0
 62
7
  6
CONTINUOUS
 10
244.0445603183
 20
273.0675601499
  0
VERTEX
  8
0
 62
7
  6
CONTINUOUS
 10
244.2750275786
 20
273.1594491677
  0
VERTEX
  8
0
 62
7
  6
CONTINUOUS
 10
244.4961784911
 20
273.1864987414
  0
SEQEND
  0
POLYLINE
  8
0
 62
7
  6
CONTINUOUS
 66
1
 70
0
  0
VERTEX
  8
0
 62
7
  6
CONTINUOUS
 10
264.8583785278
 20
271.8191384733
  0
VERTEX
  8
0
 62
7
  6
CONTINUOUS
 10
264.9439393768
 20
271.8576217322
  0
VERTEX
  8
0
 62
7
  6
CONTINUOUS
 10
265.0246374225
 20
271.9264181043
  0
VERTEX
  8
0
 62
7
  6
CONTINUOUS
 10
265.0805330593
 20
272.0219388251
  0
VERTEX
  8
0
 62
7
  6
CONTINUOUS
 10
265.100110145
 20
272.1313052036
  0
SEQEND
  0
POLYLINE
  8
SURFACE
 62
7
  6
CONTINUOUS
 66
1
 70
0
  0
VERTEX
  8
SURFACE
 62
7
  6
CONTINUOUS
 10
102.607099193
 20
271.7855225139
  0
VERTEX
  8
SURFACE
 62
7
  6
CONTINUOUS
 10
102.669777949
 20
271.8001800439
  0
VERTEX
  8
SURFACE
 62
7
  6
CONTINUOUS
 10
102.7274658796
 20
271.8427980988
  0
VERTEX
  8
SURFACE
 62
7
  6
CONTINUOUS
 10
102.7744368675
 20
271.9092287476
  0
VERTEX
  8
SURFACE
 62
7
  6
CONTINUOUS
 10
102.8060556873
 20
271.9929213217
  0
VERTEX
  8
SURFACE
 62
7
  6
CONTINUOUS
 10
102.8192329918
 20
272.0855225139
  0
SEQEND
  0
POLYLINE
  8
SURFACE
 62
7
  6
CONTINUOUS
 66
1
 70
0
  0
VERTEX
  8
SURFACE
 62
7
  6
CONTINUOUS
 10
130.3339105902
 20
271.7855225139
  0
VERTEX
  8
SURFACE
 62
7
  6
CONTINUOUS
 10
130.3966246472
 20
271.8001799541
  0
VERTEX
  8
SURFACE
 62
7
  6
CONTINUOUS
 10
130.4543427456
 20
271.8427993737
  0
VERTEX
  8
SURFACE
 62
7
  6
CONTINUOUS
 10
130.5013132086
 20
271.9092273464
  0
VERTEX
  8
SURFACE
 62
7
  6
CONTINUOUS
 10
130.5329084667
 20
271.9929184219
  0
VERTEX
  8
SURFACE
 62
7
  6
CONTINUOUS
 10
130.5460408107
 20
272.0855225139
  0
SEQEND
  0
POLYLINE
  8
SURFACE
 62
7
  6
CONTINUOUS
 66
1
 70
0
  0
VERTEX
  8
SURFACE
 62
7
  6
CONTINUOUS
 10
119.2173994448
 20
286.7855225139
  0
VERTEX
  8
SURFACE
 62
7
  6
CONTINUOUS
 10
119.0365031722
 20
286.7764490439
  0
VERTEX
  8
SURFACE
 62
7
  6
CONTINUOUS
 10
118.6817309193
 20
286.7043628735
  0
VERTEX
  8
SURFACE
 62
7
  6
CONTINUOUS
 10
118.5114168073
 20
286.6420434799
  0
VERTEX
  8
SURFACE
 62
7
  6
CONTINUOUS
 10
118.1935287078
 20
286.4679334141
  0
VERTEX
  8
SURFACE
 62
7
  6
CONTINUOUS
 10
118.0595844756
 20
286.3666205445
  0
SEQEND
  0
POLYLINE
  8
0
 62
7
  6
CONTINUOUS
 66
1
 70
0
  0
VERTEX
  8
0
 62
7
  6
CONTINUOUS
 10
326.3011176385
 20
286.1823375103
  0
VERTEX
  8
0
 62
7
  6
CONTINUOUS
 10
326.0324603065
 20
286.1923065394
  0
VERTEX
  8
0
 62
7
  6
CONTINUOUS
 10
325.7380082119
 20
286.2275514933
  0
VERTEX
  8
0
 62
7
  6
CONTINUOUS
 10
325.4888734964
 20
286.2809503952
  0
VERTEX
  8
0
 62
7
  6
CONTINUOUS
 10
325.2972081506
 20
286.3419035007
  0
VERTEX
  8
0
 62
7
  6
CONTINUOUS
 10
325.167422597
 20
286.3991917564
  0
VERTEX
  8
0
 62
7
  6
CONTINUOUS
 10
325.1096136201
 20
286.433427544
  0
SEQEND
  0
POLYLINE
  8
0
 62
7
  6
CONTINUOUS
 66
1
 70
0
  0
VERTEX
  8
0
 62
7
  6
CONTINUOUS
 10
354.1011176423
 20
286.1823375103
  0
VERTEX
  8
0
 62
7
  6
CONTINUOUS
 10
353.8324610777
 20
286.192306482
  0
VERTEX
  8
0
 62
7
  6
CONTINUOUS
 10
353.5380089037
 20
286.2275513775
  0
VERTEX
  8
0
 62
7
  6
CONTINUOUS
 10
353.288873874
 20
286.2809502947
  0
VERTEX
  8
0
 62
7
  6
CONTINUOUS
 10
353.0972083344
 20
286.341903431
  0
VERTEX
  8
0
 62
7
  6
CONTINUOUS
 10
352.9674226663
 20
286.3991917202
  0
VERTEX
  8
0
 62
7
  6
CONTINUOUS
 10
352.909613622
 20
286.4334275427
  0
SEQEND
  0
POLYLINE
  8
0
 62
7
  6
CONTINUOUS
 66
1
 70
0
  0
VERTEX
  8
0
 62
7
  6
CONTINUOUS
 10
295.2961798944
 20
285.3845463706
  0
VERTEX
  8
0
 62
7
  6
CONTINUOUS
 10
295.0817907939
 20
285.4099453493
  0
VERTEX
  8
0
 62
7
  6
CONTINUOUS
 10
294.8491167523
 20
285.5009120844
  0
VERTEX
  8
0
 62
7
  6
CONTINUOUS
 10
294.7646491012
 20
285.5547844594
  0
SEQEND
  0
POLYLINE
  8
0
 62
7
  6
CONTINUOUS
 66
1
 70
0
  0
VERTEX
  8
0
 62
7
  6
CONTINUOUS
 10
320.0683318776
 20
271.7855225139
  0
VERTEX
  8
0
 62
7
  6
CONTINUOUS
 10
320.0056178206
 20
271.8001799541
  0
VERTEX
  8
0
 62
7
  6
CONTINUOUS
 10
319.9478997222
 20
271.8427993737
  0
VERTEX
  8
0
 62
7
  6
CONTINUOUS
 10
319.9009292593
 20
271.9092273464
  0
VERTEX
  8
0
 62
7
  6
CONTINUOUS
 10
319.8693340011
 20
271.9929184219
  0
VERTEX
  8
0
 62
7
  6
CONTINUOUS
 10
319.8562016571
 20
272.0855225139
  0
SEQEND
  0
POLYLINE
  8
0
 62
7
  6
CONTINUOUS
 66
1
 70
0
  0
VERTEX
  8
0
 62
7
  6
CONTINUOUS
 10
261.4264619674
 20
277.3917296592
  0
VERTEX
  8
0
 62
7
  6
CONTINUOUS
 10
261.2587188097
 20
277.4513721878
  0
VERTEX
  8
0
 62
7
  6
CONTINUOUS
 10
261.098320501
 20
277.5581088464
  0
VERTEX
  8
0
 62
7
  6
CONTINUOUS
 10
260.9515172231
 20
277.7239502246
  0
VERTEX
  8
0
 62
7
  6
CONTINUOUS
 10
260.8264986169
 20
277.9666178939
  0
VERTEX
  8
0
 62
7
  6
CONTINUOUS
 10
260.7329350152
 20
278.3057509003
  0
VERTEX
  8
0
 62
7
  6
CONTINUOUS
 10
260.6762880153
 20
278.7667094908
  0
VERTEX
  8
0
 62
7
  6
CONTINUOUS
 10
260.6593596786
 20
279.2855225139
  0
SEQEND
  0
POLYLINE
  8
0
 62
7
  6
CONTINUOUS
 66
1
 70
0
  0
VERTEX
  8
0
 62
7
  6
CONTINUOUS
 10
257.2330356202
 20
273.0162477607
  0
VERTEX
  8
0
 62
7
  6
CONTINUOUS
 10
257.4877325513
 20
272.8049969166
  0
VERTEX
  8
0
 62
7
  6
CONTINUOUS
 10
257.6464255454
 20
272.625133006
  0
VERTEX
  8
0
 62
7
  6
CONTINUOUS
 10
257.710708711
 20
272.5126112241
  0
VERTEX
  8
0
 62
7
  6
CONTINUOUS
 10
257.7188408659
 20
272.4834440063
  0
SEQEND
  0
POLYLINE
  8
0
 62
7
  6
CONTINUOUS
 66
1
 70
0
  0
VERTEX
  8
0
 62
7
  6
CONTINUOUS
 10
243.9646315697
 20
285.5547972456
  0
VERTEX
  8
0
 62
7
  6
CONTINUOUS
 10
243.7099354875
 20
285.7660472646
  0
VERTEX
  8
0
 62
7
  6
CONTINUOUS
 10
243.5512416683
 20
285.9459119607
  0
VERTEX
  8
0
 62
7
  6
CONTINUOUS
 10
243.486958524
 20
286.0584336262
  0
VERTEX
  8
0
 62
7
  6
CONTINUOUS
 10
243.4788263033
 20
286.0876010042
  0
SEQEND
  0
POLYLINE
  8
0
 62
7
  6
CONTINUOUS
 66
1
 70
0
  0
VERTEX
  8
0
 62
7
  6
CONTINUOUS
 10
236.0975570238
 20
272.1313053053
  0
VERTEX
  8
0
 62
7
  6
CONTINUOUS
 10
236.117243709
 20
272.0216431435
  0
VERTEX
  8
0
 62
7
  6
CONTINUOUS
 10
236.1733418615
 20
271.9260507251
  0
VERTEX
  8
0
 62
7
  6
CONTINUOUS
 10
236.2543232547
 20
271.8572585486
  0
VERTEX
  8
0
 62
7
  6
CONTINUOUS
 10
236.3400781135
 20
271.8188894638
  0
SEQEND
  0
POLYLINE
  8
0
 62
7
  6
CONTINUOUS
 66
1
 70
0
  0
VERTEX
  8
0
 62
7
  6
CONTINUOUS
 10
257.718840752
 20
286.0875944678
  0
VERTEX
  8
0
 62
7
  6
CONTINUOUS
 10
257.7104287377
 20
286.057701487
  0
VERTEX
  8
0
 62
7
  6
CONTINUOUS
 10
257.6455216506
 20
285.9446519595
  0
VERTEX
  8
0
 62
7
  6
CONTINUOUS
 10
257.4860793083
 20
285.7644511854
  0
VERTEX
  8
0
 62
7
  6
CONTINUOUS
 10
257.2330216731
 20
285.5547868883
  0
SEQEND
  0
POLYLINE
  8
SURFACE
 62
7
  6
CONTINUOUS
 66
1
 70
0
  0
VERTEX
  8
SURFACE
 62
7
  6
CONTINUOUS
 10
116.7997083258
 20
286.7855225139
  0
VERTEX
  8
SURFACE
 62
7
  6
CONTINUOUS
 10
116.7370310924
 20
286.770865643
  0
VERTEX
  8
SURFACE
 62
7
  6
CONTINUOUS
 10
116.6793429657
 20
286.728248071
  0
VERTEX
  8
SURFACE
 62
7
  6
CONTINUOUS
 10
116.6323715083
 20
286.661817466
  0
VERTEX
  8
SURFACE
 62
7
  6
CONTINUOUS
 10
116.600752345
 20
286.5781251005
  0
VERTEX
  8
SURFACE
 62
7
  6
CONTINUOUS
 10
116.5875745352
 20
286.4855225139
  0
SEQEND
  0
POLYLINE
  8
SURFACE
 62
7
  6
CONTINUOUS
 66
1
 70
0
  0
VERTEX
  8
SURFACE
 62
7
  6
CONTINUOUS
 10
91.4097028752
 20
286.7855225139
  0
VERTEX
  8
SURFACE
 62
7
  6
CONTINUOUS
 10
91.0335395904
 20
286.74577855
  0
VERTEX
  8
SURFACE
 62
7
  6
CONTINUOUS
 10
90.6736331332
 20
286.6282036514
  0
VERTEX
  8
SURFACE
 62
7
  6
CONTINUOUS
 10
90.5048057595
 20
286.5416821914
  0
VERTEX
  8
SURFACE
 62
7
  6
CONTINUOUS
 10
90.1988741156
 20
286.3179870024
  0
SEQEND
  0
POLYLINE
  8
0
 62
7
  6
CONTINUOUS
 66
1
 70
0
  0
VERTEX
  8
0
 62
7
  6
CONTINUOUS
 10
347.7951432748
 20
271.7855225139
  0
VERTEX
  8
0
 62
7
  6
CONTINUOUS
 10
347.7324645188
 20
271.8001800439
  0
VERTEX
  8
0
 62
7
  6
CONTINUOUS
 10
347.6747765882
 20
271.8427980988
  0
VERTEX
  8
0
 62
7
  6
CONTINUOUS
 10
347.6278056003
 20
271.9092287476
  0
VERTEX
  8
0
 62
7
  6
CONTINUOUS
 10
347.5961867805
 20
271.9929213217
  0
VERTEX
  8
0
 62
7
  6
CONTINUOUS
 10
347.583009476
 20
272.0855225139
  0
SEQEND
  0
LINE
  8
0
 62
7
  6
CONTINUOUS
 10
257.7188401855
 20
272.4834830489
 11
257.7258780024
 21
272.080286792
  0
LINE
  8
0
 62
7
  6
CONTINUOUS
 10
260.600110145
 20
286.4855225139
 11
260.600110145
 21
273.9618367173
  0
LINE
  8
0
 62
7
  6
CONTINUOUS
 10
265.100110145
 20
276.2343213656
 11
265.100110145
 21
272.1313022057
  0
LINE
  8
0
 62
7
  6
CONTINUOUS
 10
257.7258780001
 20
286.4907581072
 11
257.7188401855
 21
286.087561979
  0
POLYLINE
  8
0
 62
7
  6
CONTINUOUS
 66
1
 70
0
  0
VERTEX
  8
0
 62
7
  6
CONTINUOUS
 10
321.2557378083
 20
286.3672264125
  0
VERTEX
  8
0
 62
7
  6
CONTINUOUS
 10
321.6273931056
 20
286.6060333981
  0
VERTEX
  8
0
 62
7
  6
CONTINUOUS
 10
322.0103827364
 20
286.7400791925
  0
VERTEX
  8
0
 62
7
  6
CONTINUOUS
 10
322.4135766377
 20
286.7855225139
  0
SEQEND
  0
POLYLINE
  8
0
 62
7
  6
CONTINUOUS
 66
1
 70
0
  0
VERTEX
  8
0
 62
7
  6
CONTINUOUS
 10
294.7646472911
 20
273.0162595413
  0
VERTEX
  8
0
 62
7
  6
CONTINUOUS
 10
294.8442875918
 20
273.0674050149
  0
VERTEX
  8
0
 62
7
  6
CONTINUOUS
 10
295.0747057892
 20
273.1593692808
  0
VERTEX
  8
0
 62
7
  6
CONTINUOUS
 10
295.2961782256
 20
273.186498742
  0
SEQEND
  0
POLYLINE
  8
0
 62
7
  6
CONTINUOUS
 66
1
 70
0
  0
VERTEX
  8
0
 62
7
  6
CONTINUOUS
 10
303.7817425577
 20
285.5547849658
  0
VERTEX
  8
0
 62
7
  6
CONTINUOUS
 10
303.7018768011
 20
285.5035113271
  0
VERTEX
  8
0
 62
7
  6
CONTINUOUS
 10
303.47141777
 20
285.4116094415
  0
VERTEX
  8
0
 62
7
  6
CONTINUOUS
 10
303.2502121623
 20
285.3845462863
  0
SEQEND
  0
POLYLINE
  8
0
 62
7
  6
CONTINUOUS
 66
1
 70
0
  0
VERTEX
  8
0
 62
7
  6
CONTINUOUS
 10
328.4926420357
 20
286.4334371254
  0
VERTEX
  8
0
 62
7
  6
CONTINUOUS
 10
328.4365559907
 20
286.4001037623
  0
VERTEX
  8
0
 62
7
  6
CONTINUOUS
 10
328.3078305868
 20
286.3429657704
  0
VERTEX
  8
0
 62
7
  6
CONTINUOUS
 10
328.1171002431
 20
286.2819474537
  0
VERTEX
  8
0
 62
7
  6
CONTINUOUS
 10
327.8683259083
 20
286.2282388625
  0
VERTEX
  8
0
 62
7
  6
CONTINUOUS
 10
327.5737866134
 20
286.1926078695
  0
VERTEX
  8
0
 62
7
  6
CONTINUOUS
 10
327.30111431
 20
286.1823393786
  0
SEQEND
  0
POLYLINE
  8
SURFACE
 62
7
  6
CONTINUOUS
 66
1
 70
0
  0
VERTEX
  8
SURFACE
 62
7
  6
CONTINUOUS
 10
88.9564317639
 20
286.7855225139
  0
VERTEX
  8
SURFACE
 62
7
  6
CONTINUOUS
 10
88.8870511934
 20
286.7674613956
  0
VERTEX
  8
SURFACE
 62
7
  6
CONTINUOUS
 10
88.8245918763
 20
286.7153307894
  0
VERTEX
  8
SURFACE
 62
7
  6
CONTINUOUS
 10
88.7984501627
 20
286.6783601105
  0
VERTEX
  8
SURFACE
 62
7
  6
CONTINUOUS
 10
88.7601770408
 20
286.5880204781
  0
VERTEX
  8
SURFACE
 62
7
  6
CONTINUOUS
 10
88.7442988404
 20
286.4855225139
  0
SEQEND
  0
POLYLINE
  8
0
 62
7
  6
CONTINUOUS
 66
1
 70
0
  0
VERTEX
  8
0
 62
7
  6
CONTINUOUS
 10
333.602534142
 20
286.7855225139
  0
VERTEX
  8
0
 62
7
  6
CONTINUOUS
 10
333.6652113754
 20
286.770865643
  0
VERTEX
  8
0
 62
7
  6
CONTINUOUS
 10
333.7228995022
 20
286.728248071
  0
VERTEX
  8
0
 62
7
  6
CONTINUOUS
 10
333.7698709595
 20
286.661817466
  0
VERTEX
  8
0
 62
7
  6
CONTINUOUS
 10
333.8014901228
 20
286.5781251005
  0
VERTEX
  8
0
 62
7
  6
CONTINUOUS
 10
333.8146679326
 20
286.4855225139
  0
SEQEND
  0
POLYLINE
  8
0
 62
7
  6
CONTINUOUS
 66
1
 70
0
  0
VERTEX
  8
0
 62
7
  6
CONTINUOUS
 10
361.4458107039
 20
286.7855225139
  0
VERTEX
  8
0
 62
7
  6
CONTINUOUS
 10
361.5151912744
 20
286.7674613956
  0
VERTEX
  8
0
 62
7
  6
CONTINUOUS
 10
361.5776505916
 20
286.7153307894
  0
VERTEX
  8
0
 62
7
  6
CONTINUOUS
 10
361.6037923052
 20
286.6783601105
  0
VERTEX
  8
0
 62
7
  6
CONTINUOUS
 10
361.642065427
 20
286.5880204781
  0
VERTEX
  8
0
 62
7
  6
CONTINUOUS
 10
361.6579436274
 20
286.4855225139
  0
SEQEND
  0
POLYLINE
  8
0
 62
7
  6
CONTINUOUS
 66
1
 70
0
  0
VERTEX
  8
0
 62
7
  6
CONTINUOUS
 10
265.100110145
 20
276.2343213656
  0
VERTEX
  8
0
 62
7
  6
CONTINUOUS
 10
265.0672978524
 20
276.3071734525
  0
VERTEX
  8
0
 62
7
  6
CONTINUOUS
 10
264.9660099663
 20
276.4139004313
  0
VERTEX
  8
0
 62
7
  6
CONTINUOUS
 10
264.7929246693
 20
276.5494594998
  0
VERTEX
  8
0
 62
7
  6
CONTINUOUS
 10
264.681780275
 20
276.6226108136
  0
VERTEX
  8
0
 62
7
  6
CONTINUOUS
 10
264.4247706531
 20
276.7622427805
  0
VERTEX
  8
0
 62
7
  6
CONTINUOUS
 10
264.1417220815
 20
276.8729679855
  0
VERTEX
  8
0
 62
7
  6
CONTINUOUS
 10
263.8605824115
 20
276.9383950408
  0
SEQEND
  0
LINE
  8
0
 62
7
  6
CONTINUOUS
 10
321.255647343
 20
286.3671512301
 11
321.2557378083
 21
286.3672264125
  0
LINE
  8
0
 62
7
  6
CONTINUOUS
 10
328.4927540643
 20
286.4335146585
 11
328.4926420357
 21
286.4334371254
  0
POLYLINE
  8
0
 62
7
  6
CONTINUOUS
 66
1
 70
0
  0
VERTEX
  8
0
 62
7
  6
CONTINUOUS
 10
325.1096002278
 20
272.1376077502
  0
VERTEX
  8
0
 62
7
  6
CONTINUOUS
 10
325.16569062
 20
272.1709434495
  0
VERTEX
  8
0
 62
7
  6
CONTINUOUS
 10
325.2944253561
 20
272.2280844001
  0
VERTEX
  8
0
 62
7
  6
CONTINUOUS
 10
325.4851699582
 20
272.2891050063
  0
VERTEX
  8
0
 62
7
  6
CONTINUOUS
 10
325.7339616821
 20
272.3428137837
  0
VERTEX
  8
0
 62
7
  6
CONTINUOUS
 10
326.028501884
 20
272.3784406361
  0
VERTEX
  8
0
 62
7
  6
CONTINUOUS
 10
326.3011285926
 20
272.3887056778
  0
SEQEND
  0
POLYLINE
  8
0
 62
7
  6
CONTINUOUS
 66
1
 70
0
  0
VERTEX
  8
0
 62
7
  6
CONTINUOUS
 10
303.7817590685
 20
273.016247761
  0
VERTEX
  8
0
 62
7
  6
CONTINUOUS
 10
304.0364548659
 20
272.8049980113
  0
VERTEX
  8
0
 62
7
  6
CONTINUOUS
 10
304.1951488628
 20
272.6251331748
  0
VERTEX
  8
0
 62
7
  6
CONTINUOUS
 10
304.2594320706
 20
272.5126114375
  0
VERTEX
  8
0
 62
7
  6
CONTINUOUS
 10
304.2675643049
 20
272.4834440244
  0
SEQEND
  0
POLYLINE
  8
0
 62
7
  6
CONTINUOUS
 66
1
 70
0
  0
VERTEX
  8
0
 62
7
  6
CONTINUOUS
 10
294.76463155
 20
285.5547972599
  0
VERTEX
  8
0
 62
7
  6
CONTINUOUS
 10
294.5099354874
 20
285.7660472646
  0
VERTEX
  8
0
 62
7
  6
CONTINUOUS
 10
294.3512416683
 20
285.9459119607
  0
VERTEX
  8
0
 62
7
  6
CONTINUOUS
 10
294.286958524
 20
286.0584336262
  0
VERTEX
  8
0
 62
7
  6
CONTINUOUS
 10
294.2788263033
 20
286.0876010042
  0
SEQEND
  0
LINE
  8
0
 62
7
  6
CONTINUOUS
 10
286.8975570238
 20
272.1313022057
 11
286.8975570238
 21
276.2343213656
  0
POLYLINE
  8
0
 62
7
  6
CONTINUOUS
 66
1
 70
0
  0
VERTEX
  8
0
 62
7
  6
CONTINUOUS
 10
328.5231729542
 20
286.4573036946
  0
VERTEX
  8
0
 62
7
  6
CONTINUOUS
 10
328.5187258842
 20
286.4533207132
  0
VERTEX
  8
0
 62
7
  6
CONTINUOUS
 10
328.4927537747
 20
286.4335150769
  0
SEQEND
  0
POLYLINE
  8
0
 62
7
  6
CONTINUOUS
 66
1
 70
0
  0
VERTEX
  8
0
 62
7
  6
CONTINUOUS
 10
321.255647343
 20
286.3671512301
  0
VERTEX
  8
0
 62
7
  6
CONTINUOUS
 10
321.1635839258
 20
286.2851862895
  0
VERTEX
  8
0
 62
7
  6
CONTINUOUS
 10
321.0237164736
 20
286.1359295901
  0
VERTEX
  8
0
 62
7
  6
CONTINUOUS
 10
320.8004784864
 20
285.7988737987
  0
VERTEX
  8
0
 62
7
  6
CONTINUOUS
 10
320.6607708082
 20
285.4348558919
  0
VERTEX
  8
0
 62
7
  6
CONTINUOUS
 10
320.6025121837
 20
285.0757166602
  0
VERTEX
  8
0
 62
7
  6
CONTINUOUS
 10
320.598833587
 20
284.9581246348
  0
SEQEND
  0
LINE
  8
0
 62
7
  6
CONTINUOUS
 10
325.1094882017
 20
272.1375302191
 11
325.1096002278
 21
272.1376077502
  0
LINE
  8
0
 62
7
  6
CONTINUOUS
 10
356.2927540643
 20
286.4335146585
 11
356.2926420362
 21
286.4334371257
  0
POLYLINE
  8
0
 62
7
  6
CONTINUOUS
 66
1
 70
0
  0
VERTEX
  8
0
 62
7
  6
CONTINUOUS
 10
332.3426611781
 20
272.2044263425
  0
VERTEX
  8
0
 62
7
  6
CONTINUOUS
 10
331.9702749501
 20
271.9650115703
  0
VERTEX
  8
0
 62
7
  6
CONTINUOUS
 10
331.5872855372
 20
271.8309658216
  0
VERTEX
  8
0
 62
7
  6
CONTINUOUS
 10
331.1840919321
 20
271.7855225139
  0
SEQEND
  0
POLYLINE
  8
0
 62
7
  6
CONTINUOUS
 66
1
 70
0
  0
VERTEX
  8
0
 62
7
  6
CONTINUOUS
 10
349.0557373228
 20
286.3672260476
  0
VERTEX
  8
0
 62
7
  6
CONTINUOUS
 10
349.4273930644
 20
286.6060334052
  0
VERTEX
  8
0
 62
7
  6
CONTINUOUS
 10
349.8103826799
 20
286.7400791943
  0
VERTEX
  8
0
 62
7
  6
CONTINUOUS
 10
350.213576565
 20
286.7855225139
  0
SEQEND
  0
POLYLINE
  8
0
 62
7
  6
CONTINUOUS
 66
1
 70
0
  0
VERTEX
  8
0
 62
7
  6
CONTINUOUS
 10
356.2926420362
 20
286.4334371257
  0
VERTEX
  8
0
 62
7
  6
CONTINUOUS
 10
356.2365559803
 20
286.4001037568
  0
VERTEX
  8
0
 62
7
  6
CONTINUOUS
 10
356.1078305541
 20
286.3429657579
  0
VERTEX
  8
0
 62
7
  6
CONTINUOUS
 10
355.9171001756
 20
286.2819474356
  0
VERTEX
  8
0
 62
7
  6
CONTINUOUS
 10
355.6683257952
 20
286.2282388434
  0
VERTEX
  8
0
 62
7
  6
CONTINUOUS
 10
355.3737864951
 20
286.1926078606
  0
VERTEX
  8
0
 62
7
  6
CONTINUOUS
 10
355.101114309
 20
286.1823393785
  0
SEQEND
  0
POLYLINE
  8
0
 62
7
  6
CONTINUOUS
 66
1
 70
0
  0
VERTEX
  8
0
 62
7
  6
CONTINUOUS
 10
349.0557284655
 20
272.2038256967
  0
VERTEX
  8
0
 62
7
  6
CONTINUOUS
 10
349.4273923768
 20
271.9650115031
  0
VERTEX
  8
0
 62
7
  6
CONTINUOUS
 10
349.8103817365
 20
271.8309658033
  0
VERTEX
  8
0
 62
7
  6
CONTINUOUS
 10
350.2135753519
 20
271.7855225139
  0
SEQEND
  0
LINE
  8
0
 62
7
  6
CONTINUOUS
 10
328.4927511646
 20
272.137531648
 11
328.4926280399
 21
272.1376168644
  0
LINE
  8
0
 62
7
  6
CONTINUOUS
 10
325.1094910052
 20
286.4335135847
 11
325.1096141712
 21
286.4334283398
  0
POLYLINE
  8
0
 62
7
  6
CONTINUOUS
 66
1
 70
0
  0
VERTEX
  8
0
 62
7
  6
CONTINUOUS
 10
328.4927511646
 20
272.137531648
  0
VERTEX
  8
0
 62
7
  6
CONTINUOUS
 10
328.5184345383
 20
272.1179777957
  0
VERTEX
  8
0
 62
7
  6
CONTINUOUS
 10
328.5230980833
 20
272.1137200892
  0
SEQEND
  0
POLYLINE
  8
0
 62
7
  6
CONTINUOUS
 66
1
 70
0
  0
VERTEX
  8
0
 62
7
  6
CONTINUOUS
 10
321.2461984229
 20
272.2112047453
  0
VERTEX
  8
0
 62
7
  6
CONTINUOUS
 10
321.3855514868
 20
272.1049197768
  0
VERTEX
  8
0
 62
7
  6
CONTINUOUS
 10
321.7039853882
 20
271.9298335099
  0
VERTEX
  8
0
 62
7
  6
CONTINUOUS
 10
321.8746738416
 20
271.8671555158
  0
VERTEX
  8
0
 62
7
  6
CONTINUOUS
 10
322.2303220565
 20
271.7946491118
  0
VERTEX
  8
0
 62
7
  6
CONTINUOUS
 10
322.4116855958
 20
271.7855225139
  0
SEQEND
  0
POLYLINE
  8
0
 62
7
  6
CONTINUOUS
 66
1
 70
0
  0
VERTEX
  8
0
 62
7
  6
CONTINUOUS
 10
321.2461984229
 20
272.2112047453
  0
VERTEX
  8
0
 62
7
  6
CONTINUOUS
 10
321.2834360225
 20
272.1806807801
  0
VERTEX
  8
0
 62
7
  6
CONTINUOUS
 10
321.6267604888
 20
271.9649021438
  0
VERTEX
  8
0
 62
7
  6
CONTINUOUS
 10
322.0095153759
 20
271.8309381313
  0
VERTEX
  8
0
 62
7
  6
CONTINUOUS
 10
322.4124613089
 20
271.7855225139
  0
SEQEND
  0
LINE
  8
0
 62
7
  6
CONTINUOUS
 10
321.2460841518
 20
272.2113009916
 11
321.2461984229
 21
272.2112047453
  0
POLYLINE
  8
0
 62
7
  6
CONTINUOUS
 66
1
 70
0
  0
VERTEX
  8
0
 62
7
  6
CONTINUOUS
 10
286.8975570238
 20
272.1313053053
  0
VERTEX
  8
0
 62
7
  6
CONTINUOUS
 10
286.917243709
 20
272.0216431435
  0
VERTEX
  8
0
 62
7
  6
CONTINUOUS
 10
286.9733418615
 20
271.9260507251
  0
VERTEX
  8
0
 62
7
  6
CONTINUOUS
 10
287.0543232547
 20
271.8572585486
  0
VERTEX
  8
0
 62
7
  6
CONTINUOUS
 10
287.1400781135
 20
271.8188894638
  0
SEQEND
  0
LINE
  8
0
 62
7
  6
CONTINUOUS
 10
294.2717891664
 20
286.4907582359
 11
294.2788269833
 21
286.087561979
  0
LINE
  8
0
 62
7
  6
CONTINUOUS
 10
291.3975570238
 20
273.9618367173
 11
291.3975570238
 21
286.4855225139
  0
LINE
  8
0
 62
7
  6
CONTINUOUS
 10
294.2788269833
 20
272.4834830489
 11
294.2717891664
 21
272.080286792
  0
POLYLINE
  8
0
 62
7
  6
CONTINUOUS
 66
1
 70
0
  0
VERTEX
  8
0
 62
7
  6
CONTINUOUS
 10
291.3383074902
 20
279.2855225139
  0
VERTEX
  8
0
 62
7
  6
CONTINUOUS
 10
291.3213786705
 20
278.766702624
  0
VERTEX
  8
0
 62
7
  6
CONTINUOUS
 10
291.2647098962
 20
278.3056345728
  0
VERTEX
  8
0
 62
7
  6
CONTINUOUS
 10
291.1712173436
 20
277.9667446182
  0
VERTEX
  8
0
 62
7
  6
CONTINUOUS
 10
291.046244511
 20
277.7240884429
  0
VERTEX
  8
0
 62
7
  6
CONTINUOUS
 10
290.8994113557
 20
277.5581647721
  0
VERTEX
  8
0
 62
7
  6
CONTINUOUS
 10
290.7389740129
 20
277.4513848846
  0
VERTEX
  8
0
 62
7
  6
CONTINUOUS
 10
290.5712052015
 20
277.3917296592
  0
SEQEND
  0
POLYLINE
  8
0
 62
7
  6
CONTINUOUS
 66
1
 70
0
  0
VERTEX
  8
0
 62
7
  6
CONTINUOUS
 10
294.278826417
 20
272.4834505713
  0
VERTEX
  8
0
 62
7
  6
CONTINUOUS
 10
294.2872385055
 20
272.5133437377
  0
VERTEX
  8
0
 62
7
  6
CONTINUOUS
 10
294.3521456553
 20
272.6263932569
  0
VERTEX
  8
0
 62
7
  6
CONTINUOUS
 10
294.511588927
 20
272.8065948798
  0
VERTEX
  8
0
 62
7
  6
CONTINUOUS
 10
294.7646458558
 20
273.0162584094
  0
SEQEND
  0
POLYLINE
  8
0
 62
7
  6
CONTINUOUS
 66
1
 70
0
  0
VERTEX
  8
0
 62
7
  6
CONTINUOUS
 10
304.2675641912
 20
286.0875944566
  0
VERTEX
  8
0
 62
7
  6
CONTINUOUS
 10
304.259152108
 20
286.0577013039
  0
VERTEX
  8
0
 62
7
  6
CONTINUOUS
 10
304.1942449933
 20
285.9446518272
  0
VERTEX
  8
0
 62
7
  6
CONTINUOUS
 10
304.0348018056
 20
285.7644502682
  0
VERTEX
  8
0
 62
7
  6
CONTINUOUS
 10
303.7817451798
 20
285.5547869282
  0
SEQEND
  0
POLYLINE
  8
0
 62
7
  6
CONTINUOUS
 66
1
 70
0
  0
VERTEX
  8
0
 62
7
  6
CONTINUOUS
 10
325.0790694955
 20
272.1137412721
  0
VERTEX
  8
0
 62
7
  6
CONTINUOUS
 10
325.0835159629
 20
272.1177238076
  0
VERTEX
  8
0
 62
7
  6
CONTINUOUS
 10
325.1094884851
 20
272.1375298096
  0
SEQEND
  0
POLYLINE
  8
0
 62
7
  6
CONTINUOUS
 66
1
 70
0
  0
VERTEX
  8
0
 62
7
  6
CONTINUOUS
 10
332.3427556011
 20
272.2045048981
  0
VERTEX
  8
0
 62
7
  6
CONTINUOUS
 10
332.4340729542
 20
272.28584818
  0
VERTEX
  8
0
 62
7
  6
CONTINUOUS
 10
332.5739385075
 20
272.4351001318
  0
VERTEX
  8
0
 62
7
  6
CONTINUOUS
 10
332.7971787648
 20
272.7721512475
  0
VERTEX
  8
0
 62
7
  6
CONTINUOUS
 10
332.9368948213
 20
273.1361826868
  0
VERTEX
  8
0
 62
7
  6
CONTINUOUS
 10
332.9951553697
 20
273.4953332791
  0
VERTEX
  8
0
 62
7
  6
CONTINUOUS
 10
332.9988335819
 20
273.6129191133
  0
SEQEND
  0
POLYLINE
  8
0
 62
7
  6
CONTINUOUS
 66
1
 70
0
  0
VERTEX
  8
0
 62
7
  6
CONTINUOUS
 10
349.055646855
 20
286.3671508631
  0
VERTEX
  8
0
 62
7
  6
CONTINUOUS
 10
348.9635838921
 20
286.285186299
  0
VERTEX
  8
0
 62
7
  6
CONTINUOUS
 10
348.8237164442
 20
286.1359296012
  0
VERTEX
  8
0
 62
7
  6
CONTINUOUS
 10
348.6004784675
 20
285.7988738167
  0
VERTEX
  8
0
 62
7
  6
CONTINUOUS
 10
348.460770801
 20
285.4348559269
  0
VERTEX
  8
0
 62
7
  6
CONTINUOUS
 10
348.4025121831
 20
285.0757167184
  0
VERTEX
  8
0
 62
7
  6
CONTINUOUS
 10
348.398833587
 20
284.9581247044
  0
SEQEND
  0
LINE
  8
0
 62
7
  6
CONTINUOUS
 10
332.3427556011
 20
272.2045048981
 11
332.3426611781
 21
272.2044263425
  0
LINE
  8
0
 62
7
  6
CONTINUOUS
 10
349.055646855
 20
286.3671508631
 11
349.0557373228
 21
286.3672260476
  0
LINE
  8
0
 62
7
  6
CONTINUOUS
 10
352.9094882018
 20
272.1375302191
 11
352.9096002273
 21
272.1376077498
  0
POLYLINE
  8
0
 62
7
  6
CONTINUOUS
 66
1
 70
0
  0
VERTEX
  8
0
 62
7
  6
CONTINUOUS
 10
352.9096002273
 20
272.1376077498
  0
VERTEX
  8
0
 62
7
  6
CONTINUOUS
 10
352.9656906301
 20
272.1709434548
  0
VERTEX
  8
0
 62
7
  6
CONTINUOUS
 10
353.0944253882
 20
272.2280844123
  0
VERTEX
  8
0
 62
7
  6
CONTINUOUS
 10
353.2851700243
 20
272.289105024
  0
VERTEX
  8
0
 62
7
  6
CONTINUOUS
 10
353.5339617919
 20
272.3428138022
  0
VERTEX
  8
0
 62
7
  6
CONTINUOUS
 10
353.8285019977
 20
272.3784406447
  0
VERTEX
  8
0
 62
7
  6
CONTINUOUS
 10
354.1011285935
 20
272.3887056779
  0
SEQEND
  0
POLYLINE
  8
0
 62
7
  6
CONTINUOUS
 66
1
 70
0
  0
VERTEX
  8
0
 62
7
  6
CONTINUOUS
 10
332.3426579929
 20
286.366620544
  0
VERTEX
  8
0
 62
7
  6
CONTINUOUS
 10
331.9702741063
 20
286.6060333106
  0
VERTEX
  8
0
 62
7
  6
CONTINUOUS
 10
331.5872843793
 20
286.7400791691
  0
VERTEX
  8
0
 62
7
  6
CONTINUOUS
 10
331.1840904429
 20
286.7855225139
  0
SEQEND
  0
LINE
  8
0
 62
7
  6
CONTINUOUS
 10
356.2927511641
 20
272.1375316484
 11
356.2926280384
 21
272.1376168655
  0
POLYLINE
  8
0
 62
7
  6
CONTINUOUS
 66
1
 70
0
  0
VERTEX
  8
0
 62
7
  6
CONTINUOUS
 10
349.0557284655
 20
272.2038256967
  0
VERTEX
  8
0
 62
7
  6
CONTINUOUS
 10
349.1896168051
 20
272.1026562334
  0
VERTEX
  8
0
 62
7
  6
CONTINUOUS
 10
349.5073344589
 20
271.9287924603
  0
VERTEX
  8
0
 62
7
  6
CONTINUOUS
 10
349.6775388861
 20
271.8665632032
  0
VERTEX
  8
0
 62
7
  6
CONTINUOUS
 10
350.0320613044
 20
271.7945825256
  0
VERTEX
  8
0
 62
7
  6
CONTINUOUS
 10
350.2128236963
 20
271.7855225139
  0
SEQEND
  0
POLYLINE
  8
0
 62
7
  6
CONTINUOUS
 66
1
 70
0
  0
VERTEX
  8
0
 62
7
  6
CONTINUOUS
 10
332.3426579929
 20
286.366620544
  0
VERTEX
  8
0
 62
7
  6
CONTINUOUS
 10
332.2087141708
 20
286.4679331324
  0
VERTEX
  8
0
 62
7
  6
CONTINUOUS
 10
331.8908264408
 20
286.6420431492
  0
VERTEX
  8
0
 62
7
  6
CONTINUOUS
 10
331.7205122004
 20
286.7043626714
  0
VERTEX
  8
0
 62
7
  6
CONTINUOUS
 10
331.3657388236
 20
286.7764490914
  0
VERTEX
  8
0
 62
7
  6
CONTINUOUS
 10
331.1848430234
 20
286.7855225139
  0
SEQEND
  0
POLYLINE
  8
0
 62
7
  6
CONTINUOUS
 66
1
 70
0
  0
VERTEX
  8
0
 62
7
  6
CONTINUOUS
 10
325.1094910052
 20
286.4335135847
  0
VERTEX
  8
0
 62
7
  6
CONTINUOUS
 10
325.0838066988
 20
286.4530682716
  0
VERTEX
  8
0
 62
7
  6
CONTINUOUS
 10
325.0791440522
 20
286.4573252814
  0
SEQEND
  0
POLYLINE
  8
0
 62
7
  6
CONTINUOUS
 66
1
 70
0
  0
VERTEX
  8
0
 62
7
  6
CONTINUOUS
 10
356.2927511641
 20
272.1375316484
  0
VERTEX
  8
0
 62
7
  6
CONTINUOUS
 10
356.3184345381
 20
272.1179777958
  0
VERTEX
  8
0
 62
7
  6
CONTINUOUS
 10
356.3230980833
 20
272.1137200892
  0
SEQEND
  0
LINE
  8
0
 62
7
  6
CONTINUOUS
 10
349.0556412449
 20
272.2038981833
 11
349.0557284655
 21
272.2038256967
  0
LINE
  8
0
 62
7
  6
CONTINUOUS
 10
332.3427490983
 20
286.366544749
 11
332.3426579929
 21
286.366620544
  0
LINE
  8
0
 62
7
  6
CONTINUOUS
 10
304.2675636249
 20
272.4834830489
 11
304.2746014418
 21
272.080286792
  0
LINE
  8
0
 62
7
  6
CONTINUOUS
 10
307.1488335844
 20
272.0855225139
 11
307.1488335844
 21
286.4855225139
  0
LINE
  8
0
 62
7
  6
CONTINUOUS
 10
304.2746014395
 20
286.4907581072
 11
304.2675636249
 21
286.087561979
  0
POLYLINE
  8
0
 62
7
  6
CONTINUOUS
 66
1
 70
0
  0
VERTEX
  8
0
 62
7
  6
CONTINUOUS
 10
356.3231729542
 20
286.4573036946
  0
VERTEX
  8
0
 62
7
  6
CONTINUOUS
 10
356.3187258842
 20
286.4533207132
  0
VERTEX
  8
0
 62
7
  6
CONTINUOUS
 10
356.2927537747
 20
286.4335150769
  0
SEQEND
  0
POLYLINE
  8
0
 62
7
  6
CONTINUOUS
 66
1
 70
0
  0
VERTEX
  8
0
 62
7
  6
CONTINUOUS
 10
352.8790694955
 20
272.1137412721
  0
VERTEX
  8
0
 62
7
  6
CONTINUOUS
 10
352.8835159629
 20
272.1177238076
  0
VERTEX
  8
0
 62
7
  6
CONTINUOUS
 10
352.9094884851
 20
272.1375298097
  0
SEQEND
  0
LINE
  8
0
 62
7
  6
CONTINUOUS
 10
352.9094910059
 20
286.4335135843
 11
352.9096141732
 21
286.4334283385
  0
POLYLINE
  8
0
 62
7
  6
CONTINUOUS
 66
1
 70
0
  0
VERTEX
  8
0
 62
7
  6
CONTINUOUS
 10
360.2034364542
 20
286.3179252554
  0
VERTEX
  8
0
 62
7
  6
CONTINUOUS
 10
359.8974362392
 20
286.5416824639
  0
VERTEX
  8
0
 62
7
  6
CONTINUOUS
 10
359.7286082778
 20
286.6282041246
  0
VERTEX
  8
0
 62
7
  6
CONTINUOUS
 10
359.3687011516
 20
286.7457789187
  0
VERTEX
  8
0
 62
7
  6
CONTINUOUS
 10
358.992539593
 20
286.7855225139
  0
SEQEND
  0
POLYLINE
  8
0
 62
7
  6
CONTINUOUS
 66
1
 70
0
  0
VERTEX
  8
0
 62
7
  6
CONTINUOUS
 10
352.9094910059
 20
286.4335135843
  0
VERTEX
  8
0
 62
7
  6
CONTINUOUS
 10
352.883806699
 20
286.4530682714
  0
VERTEX
  8
0
 62
7
  6
CONTINUOUS
 10
352.8791440523
 20
286.4573252813
  0
SEQEND
  0
POLYLINE
  8
0
 62
7
  6
CONTINUOUS
 66
1
 70
0
  0
VERTEX
  8
0
 62
7
  6
CONTINUOUS
 10
320.5988335872
 20
273.6118668964
  0
VERTEX
  8
0
 62
7
  6
CONTINUOUS
 10
320.6024785135
 20
273.4948352155
  0
VERTEX
  8
0
 62
7
  6
CONTINUOUS
 10
320.6605417361
 20
273.1361041884
  0
VERTEX
  8
0
 62
7
  6
CONTINUOUS
 10
320.8000919235
 20
272.7720878112
  0
VERTEX
  8
0
 62
7
  6
CONTINUOUS
 10
321.0231591616
 20
272.4350735221
  0
VERTEX
  8
0
 62
7
  6
CONTINUOUS
 10
321.1629387463
 20
272.2858366393
  0
VERTEX
  8
0
 62
7
  6
CONTINUOUS
 10
321.2460841518
 20
272.2113009916
  0
SEQEND
  0
LINE
  8
0
 62
7
  6
CONTINUOUS
 10
320.5988335844
 20
273.6118840518
 11
320.5988335844
 21
284.9581081909
  0
POLYLINE
  8
0
 62
7
  6
CONTINUOUS
 66
1
 70
0
  0
VERTEX
  8
0
 62
7
  6
CONTINUOUS
 10
320.6026837549
 20
284.9739321379
  0
VERTEX
  8
0
 62
7
  6
CONTINUOUS
 10
320.6476784268
 20
285.3768500164
  0
VERTEX
  8
0
 62
7
  6
CONTINUOUS
 10
320.7813725421
 20
285.7596869768
  0
VERTEX
  8
0
 62
7
  6
CONTINUOUS
 10
320.99704608
 20
286.1032000448
  0
VERTEX
  8
0
 62
7
  6
CONTINUOUS
 10
321.255647343
 20
286.3671512301
  0
SEQEND
  0
POLYLINE
  8
0
 62
7
  6
CONTINUOUS
 66
1
 70
0
  0
VERTEX
  8
0
 62
7
  6
CONTINUOUS
 10
319.7831121002
 20
286.4855225139
  0
VERTEX
  8
0
 62
7
  6
CONTINUOUS
 10
319.7962939727
 20
286.5781296881
  0
VERTEX
  8
0
 62
7
  6
CONTINUOUS
 10
319.8279180952
 20
286.6618258306
  0
VERTEX
  8
0
 62
7
  6
CONTINUOUS
 10
319.874894789
 20
286.7282575665
  0
VERTEX
  8
0
 62
7
  6
CONTINUOUS
 10
319.9325875893
 20
286.7708723754
  0
SEQEND
  0
LINE
  8
0
 62
7
  6
CONTINUOUS
 10
360.2035800983
 20
272.2532500429
 11
360.2034068805
 21
272.2530929672
  0
LINE
  8
0
 62
7
  6
CONTINUOUS
 10
360.2035804592
 20
286.3177946673
 11
360.2033683532
 21
286.3179870016
  0
POLYLINE
  8
0
 62
7
  6
CONTINUOUS
 66
1
 70
0
  0
VERTEX
  8
0
 62
7
  6
CONTINUOUS
 10
320.6026827065
 20
273.5959979905
  0
VERTEX
  8
0
 62
7
  6
CONTINUOUS
 10
320.6476475537
 20
273.1933303549
  0
VERTEX
  8
0
 62
7
  6
CONTINUOUS
 10
320.7812584456
 20
272.8107297564
  0
VERTEX
  8
0
 62
7
  6
CONTINUOUS
 10
320.9967993608
 20
272.4674278142
  0
VERTEX
  8
0
 62
7
  6
CONTINUOUS
 10
321.2460841518
 20
272.2113009916
  0
SEQEND
  0
POLYLINE
  8
0
 62
7
  6
CONTINUOUS
 66
1
 70
0
  0
VERTEX
  8
0
 62
7
  6
CONTINUOUS
 10
332.9988335818
 20
284.9581248401
  0
VERTEX
  8
0
 62
7
  6
CONTINUOUS
 10
332.9951778526
 20
285.0753512541
  0
VERTEX
  8
0
 62
7
  6
CONTINUOUS
 10
332.93699452
 20
285.4344855595
  0
VERTEX
  8
0
 62
7
  6
CONTINUOUS
 10
332.7972331773
 20
285.7987864655
  0
VERTEX
  8
0
 62
7
  6
CONTINUOUS
 10
332.5739954628
 20
286.1358758478
  0
VERTEX
  8
0
 62
7
  6
CONTINUOUS
 10
332.4341571881
 20
286.2851157018
  0
VERTEX
  8
0
 62
7
  6
CONTINUOUS
 10
332.3427490983
 20
286.366544749
  0
SEQEND
  0
LINE
  8
0
 62
7
  6
CONTINUOUS
 10
325.1140150097
 20
286.4308209412
 11
325.1123769584
 21
286.4933755984
  0
LINE
  8
0
 62
7
  6
CONTINUOUS
 10
328.4882274583
 20
272.1402240782
 11
328.4898655095
 21
272.0776694294
  0
LINE
  8
0
 62
7
  6
CONTINUOUS
 10
332.9988335844
 20
284.9581081046
 11
332.9988335844
 21
273.6129354743
  0
LINE
  8
0
 62
7
  6
CONTINUOUS
 10
325.1123769584
 20
272.0776694294
 11
325.1140152082
 21
272.1402316658
  0
LINE
  8
0
 62
7
  6
CONTINUOUS
 10
328.4898655095
 20
286.4933755984
 11
328.4882272583
 21
286.4308133109
  0
POLYLINE
  8
0
 62
7
  6
CONTINUOUS
 66
1
 70
0
  0
VERTEX
  8
0
 62
7
  6
CONTINUOUS
 10
332.9949834152
 20
273.5971114895
  0
VERTEX
  8
0
 62
7
  6
CONTINUOUS
 10
332.949988957
 20
273.1941941074
  0
VERTEX
  8
0
 62
7
  6
CONTINUOUS
 10
332.8162950265
 20
272.8113575042
  0
VERTEX
  8
0
 62
7
  6
CONTINUOUS
 10
332.6006216502
 20
272.4678446789
  0
VERTEX
  8
0
 62
7
  6
CONTINUOUS
 10
332.3427556011
 20
272.2045048981
  0
SEQEND
  0
POLYLINE
  8
0
 62
7
  6
CONTINUOUS
 66
1
 70
0
  0
VERTEX
  8
0
 62
7
  6
CONTINUOUS
 10
333.8145770761
 20
272.0855225139
  0
VERTEX
  8
0
 62
7
  6
CONTINUOUS
 10
333.8013973411
 20
271.9929218488
  0
VERTEX
  8
0
 62
7
  6
CONTINUOUS
 10
333.769776959
 20
271.9092290043
  0
VERTEX
  8
0
 62
7
  6
CONTINUOUS
 10
333.7228052093
 20
271.8427979514
  0
VERTEX
  8
0
 62
7
  6
CONTINUOUS
 10
333.6651172101
 20
271.8001798372
  0
VERTEX
  8
0
 62
7
  6
CONTINUOUS
 10
333.6024425997
 20
271.7855225139
  0
SEQEND
  0
POLYLINE
  8
0
 62
7
  6
CONTINUOUS
 66
1
 70
0
  0
VERTEX
  8
0
 62
7
  6
CONTINUOUS
 10
360.2035800983
 20
272.2532500429
  0
VERTEX
  8
0
 62
7
  6
CONTINUOUS
 10
360.377305627
 20
272.4343481172
  0
VERTEX
  8
0
 62
7
  6
CONTINUOUS
 10
360.5994150043
 20
272.770865559
  0
VERTEX
  8
0
 62
7
  6
CONTINUOUS
 10
360.7377510894
 20
273.1330150333
  0
VERTEX
  8
0
 62
7
  6
CONTINUOUS
 10
360.7952267042
 20
273.4895164328
  0
VERTEX
  8
0
 62
7
  6
CONTINUOUS
 10
360.7988335813
 20
273.6058133098
  0
SEQEND
  0
POLYLINE
  8
0
 62
7
  6
CONTINUOUS
 66
1
 70
0
  0
VERTEX
  8
0
 62
7
  6
CONTINUOUS
 10
332.9949834138
 20
284.9739320497
  0
VERTEX
  8
0
 62
7
  6
CONTINUOUS
 10
332.9499889175
 20
285.3768497642
  0
VERTEX
  8
0
 62
7
  6
CONTINUOUS
 10
332.8162948767
 20
285.7596866824
  0
VERTEX
  8
0
 62
7
  6
CONTINUOUS
 10
332.6006213232
 20
286.1031997898
  0
VERTEX
  8
0
 62
7
  6
CONTINUOUS
 10
332.3427490983
 20
286.366544749
  0
SEQEND
  0
POLYLINE
  8
0
 62
7
  6
CONTINUOUS
 66
1
 70
0
  0
VERTEX
  8
0
 62
7
  6
CONTINUOUS
 10
347.5831109222
 20
286.4855225139
  0
VERTEX
  8
0
 62
7
  6
CONTINUOUS
 10
347.5962916296
 20
286.5781253002
  0
VERTEX
  8
0
 62
7
  6
CONTINUOUS
 10
347.6279125006
 20
286.6618175508
  0
VERTEX
  8
0
 62
7
  6
CONTINUOUS
 10
347.6748843052
 20
286.7282479687
  0
VERTEX
  8
0
 62
7
  6
CONTINUOUS
 10
347.7325722424
 20
286.7708656825
  0
VERTEX
  8
0
 62
7
  6
CONTINUOUS
 10
347.7952454223
 20
286.7855225139
  0
SEQEND
  0
POLYLINE
  8
0
 62
7
  6
CONTINUOUS
 66
1
 70
0
  0
VERTEX
  8
0
 62
7
  6
CONTINUOUS
 10
348.3988335871
 20
273.6129187727
  0
VERTEX
  8
0
 62
7
  6
CONTINUOUS
 10
348.402489326
 20
273.4956921723
  0
VERTEX
  8
0
 62
7
  6
CONTINUOUS
 10
348.4606689416
 20
273.1365716762
  0
VERTEX
  8
0
 62
7
  6
CONTINUOUS
 10
348.6004213626
 20
272.772281736
  0
VERTEX
  8
0
 62
7
  6
CONTINUOUS
 10
348.8236562752
 20
272.4351865993
  0
VERTEX
  8
0
 62
7
  6
CONTINUOUS
 10
348.963496086
 20
272.2859417371
  0
VERTEX
  8
0
 62
7
  6
CONTINUOUS
 10
349.0556412449
 20
272.2038981833
  0
SEQEND
  0
LINE
  8
0
 62
7
  6
CONTINUOUS
 10
352.9140150097
 20
286.4308209414
 11
352.9123769584
 21
286.4933755984
  0
LINE
  8
0
 62
7
  6
CONTINUOUS
 10
356.2882274583
 20
272.1402240781
 11
356.2898655095
 21
272.0776694294
  0
LINE
  8
0
 62
7
  6
CONTINUOUS
 10
348.3988335844
 20
273.612935587
 11
348.3988335844
 21
284.9581082605
  0
LINE
  8
0
 62
7
  6
CONTINUOUS
 10
352.9123769584
 20
272.0776694294
 11
352.9140152082
 21
272.1402316657
  0
LINE
  8
0
 62
7
  6
CONTINUOUS
 10
356.2898655095
 20
286.4933755984
 11
356.2882272583
 21
286.430813311
  0
POLYLINE
  8
0
 62
7
  6
CONTINUOUS
 66
1
 70
0
  0
VERTEX
  8
0
 62
7
  6
CONTINUOUS
 10
348.4026837548
 20
284.9739322106
  0
VERTEX
  8
0
 62
7
  6
CONTINUOUS
 10
348.4476784248
 20
285.3768500728
  0
VERTEX
  8
0
 62
7
  6
CONTINUOUS
 10
348.5813725347
 20
285.7596870177
  0
VERTEX
  8
0
 62
7
  6
CONTINUOUS
 10
348.797046064
 20
286.1032000721
  0
VERTEX
  8
0
 62
7
  6
CONTINUOUS
 10
349.055646855
 20
286.3671508631
  0
SEQEND
  0
POLYLINE
  8
0
 62
7
  6
CONTINUOUS
 66
1
 70
0
  0
VERTEX
  8
0
 62
7
  6
CONTINUOUS
 10
348.4026837537
 20
273.5971116046
  0
VERTEX
  8
0
 62
7
  6
CONTINUOUS
 10
348.4476783922
 20
273.1941940135
  0
VERTEX
  8
0
 62
7
  6
CONTINUOUS
 10
348.5813724121
 20
272.8113573253
  0
VERTEX
  8
0
 62
7
  6
CONTINUOUS
 10
348.797045797
 20
272.4678445008
  0
VERTEX
  8
0
 62
7
  6
CONTINUOUS
 10
349.0556412449
 20
272.2038981833
  0
SEQEND
  0
POLYLINE
  8
0
 62
7
  6
CONTINUOUS
 66
1
 70
0
  0
VERTEX
  8
0
 62
7
  6
CONTINUOUS
 10
360.7988335811
 20
284.9652322072
  0
VERTEX
  8
0
 62
7
  6
CONTINUOUS
 10
360.7952491188
 20
285.0811672361
  0
VERTEX
  8
0
 62
7
  6
CONTINUOUS
 10
360.737846692
 20
285.4376677142
  0
VERTEX
  8
0
 62
7
  6
CONTINUOUS
 10
360.5994564272
 20
285.8000982382
  0
VERTEX
  8
0
 62
7
  6
CONTINUOUS
 10
360.3773499936
 20
286.136643715
  0
VERTEX
  8
0
 62
7
  6
CONTINUOUS
 10
360.2035804592
 20
286.3177946673
  0
SEQEND
  0
LINE
  8
0
 62
7
  6
CONTINUOUS
 10
360.7988335844
 20
284.9652131504
 11
360.7988335844
 21
273.6058318942
  0
POLYLINE
  8
0
 62
7
  6
CONTINUOUS
 66
1
 70
0
  0
VERTEX
  8
0
 62
7
  6
CONTINUOUS
 10
361.6577903285
 20
272.0855225139
  0
VERTEX
  8
0
 62
7
  6
CONTINUOUS
 10
361.6445549977
 20
271.9929190545
  0
VERTEX
  8
0
 62
7
  6
CONTINUOUS
 10
361.6129059437
 20
271.909227734
  0
VERTEX
  8
0
 62
7
  6
CONTINUOUS
 10
361.5659361425
 20
271.8427988112
  0
VERTEX
  8
0
 62
7
  6
CONTINUOUS
 10
361.5082792378
 20
271.8001807384
  0
VERTEX
  8
0
 62
7
  6
CONTINUOUS
 10
361.4456562723
 20
271.7855225139
  0
SEQEND
  0
LINE
  8
0
 62
7
  6
CONTINUOUS
 10
378.4511212339
 20
272.0855225139
 11
378.4511212339
 21
286.4855225139
  0
LINE
  8
0
 62
7
  6
CONTINUOUS
 10
388.1511212339
 20
272.0855225139
 11
388.1511212339
 21
286.4855225139
  0
LINE
  8
SURFACE
 62
7
  6
CONTINUOUS
 10
62.2511212339
 20
116.4744579343
 11
62.2511212339
 21
142.9372378239
  0
LINE
  8
SURFACE
 62
7
  6
CONTINUOUS
 10
69.2511212339
 20
136.9752008037
 11
69.2511212339
 21
133.5822562003
  0
LINE
  8
SURFACE
 62
7
  6
CONTINUOUS
 10
71.9511212339
 20
114.961485205
 11
71.9511212339
 21
128.5573850697
  0
LINE
  8
SURFACE
 62
7
  6
CONTINUOUS
 10
74.5747982532
 20
172.6612673886
 11
75.9033427386
 21
152.381426568
  0
POLYLINE
  8
SURFACE
 62
7
  6
CONTINUOUS
 66
1
 70
0
  0
VERTEX
  8
SURFACE
 62
7
  6
CONTINUOUS
 10
79.1799448771
 20
155.9377698274
  0
VERTEX
  8
SURFACE
 62
7
  6
CONTINUOUS
 10
79.1815046482
 20
155.3329917096
  0
VERTEX
  8
SURFACE
 62
7
  6
CONTINUOUS
 10
79.1861231776
 20
154.7515324737
  0
VERTEX
  8
SURFACE
 62
7
  6
CONTINUOUS
 10
79.193622521
 20
154.2156758032
  0
VERTEX
  8
SURFACE
 62
7
  6
CONTINUOUS
 10
79.2037149704
 20
153.7459645658
  0
VERTEX
  8
SURFACE
 62
7
  6
CONTINUOUS
 10
79.216013777
 20
153.3604255767
  0
VERTEX
  8
SURFACE
 62
7
  6
CONTINUOUS
 10
79.2300476193
 20
153.0738819901
  0
VERTEX
  8
SURFACE
 62
7
  6
CONTINUOUS
 10
79.2452783151
 20
152.8973825429
  0
VERTEX
  8
SURFACE
 62
7
  6
CONTINUOUS
 10
79.2611212339
 20
152.8377698274
  0
SEQEND
  0
LINE
  8
SURFACE
 62
7
  6
CONTINUOUS
 10
82.3422975908
 20
172.4377698274
 11
82.3407626052
 21
173.0377698274
  0
LINE
  8
SURFACE
 62
7
  6
CONTINUOUS
 10
74.5534088834
 20
178.4377996997
 11
74.5534088834
 21
173.3149721313
  0
LINE
  8
SURFACE
 62
7
  6
CONTINUOUS
 10
79.2611212339
 20
152.0377698274
 11
79.2611212339
 21
152.8377698274
  0
LINE
  8
SURFACE
 62
7
  6
CONTINUOUS
 10
82.2611212339
 20
152.8377698274
 11
82.2611212339
 21
152.0377698274
  0
LINE
  8
SURFACE
 62
7
  6
CONTINUOUS
 10
82.3422975908
 20
155.9377698274
 11
82.3422975908
 21
172.4377698274
  0
POLYLINE
  8
SURFACE
 62
7
  6
CONTINUOUS
 66
1
 70
0
  0
VERTEX
  8
SURFACE
 62
7
  6
CONTINUOUS
 10
79.1799448771
 20
155.9377698274
  0
VERTEX
  8
SURFACE
 62
7
  6
CONTINUOUS
 10
79.1806282887
 20
172.8391788323
  0
VERTEX
  8
SURFACE
 62
7
  6
CONTINUOUS
 10
79.1814798626
 20
173.0377698274
  0
SEQEND
  0
POLYLINE
  8
SURFACE
 62
7
  6
CONTINUOUS
 66
1
 70
0
  0
VERTEX
  8
SURFACE
 62
7
  6
CONTINUOUS
 10
82.3422975908
 20
155.9377698274
  0
VERTEX
  8
SURFACE
 62
7
  6
CONTINUOUS
 10
82.3407378196
 20
155.3329917096
  0
VERTEX
  8
SURFACE
 62
7
  6
CONTINUOUS
 10
82.3361192902
 20
154.7515324737
  0
VERTEX
  8
SURFACE
 62
7
  6
CONTINUOUS
 10
82.3286199468
 20
154.2156758032
  0
VERTEX
  8
SURFACE
 62
7
  6
CONTINUOUS
 10
82.3185274975
 20
153.7459645658
  0
VERTEX
  8
SURFACE
 62
7
  6
CONTINUOUS
 10
82.3062286909
 20
153.3604255767
  0
VERTEX
  8
SURFACE
 62
7
  6
CONTINUOUS
 10
82.2921948486
 20
153.0738819901
  0
VERTEX
  8
SURFACE
 62
7
  6
CONTINUOUS
 10
82.2769641527
 20
152.8973825429
  0
VERTEX
  8
SURFACE
 62
7
  6
CONTINUOUS
 10
82.2611212339
 20
152.8377698274
  0
SEQEND
  0
POLYLINE
  8
SURFACE
 62
7
  6
CONTINUOUS
 66
1
 70
0
  0
VERTEX
  8
SURFACE
 62
7
  6
CONTINUOUS
 10
71.9511212339
 20
114.961485205
  0
VERTEX
  8
SURFACE
 62
7
  6
CONTINUOUS
 10
71.9451148273
 20
114.9017544167
  0
VERTEX
  8
SURFACE
 62
7
  6
CONTINUOUS
 10
71.9277937522
 20
114.8455010784
  0
VERTEX
  8
SURFACE
 62
7
  6
CONTINUOUS
 10
71.8995057662
 20
114.7932439374
  0
VERTEX
  8
SURFACE
 62
7
  6
CONTINUOUS
 10
71.8608502168
 20
114.746977038
  0
VERTEX
  8
SURFACE
 62
7
  6
CONTINUOUS
 10
71.8133288413
 20
114.7091190185
  0
VERTEX
  8
SURFACE
 62
7
  6
CONTINUOUS
 10
71.7586316188
 20
114.6814110771
  0
SEQEND
  0
POLYLINE
  8
SURFACE
 62
7
  6
CONTINUOUS
 66
1
 70
0
  0
VERTEX
  8
SURFACE
 62
7
  6
CONTINUOUS
 10
79.1814798626
 20
173.0377698274
  0
VERTEX
  8
SURFACE
 62
7
  6
CONTINUOUS
 10
79.2141656963
 20
173.2946690373
  0
VERTEX
  8
SURFACE
 62
7
  6
CONTINUOUS
 10
79.3110399801
 20
173.5425383931
  0
VERTEX
  8
SURFACE
 62
7
  6
CONTINUOUS
 10
79.4694519831
 20
173.7626317231
  0
VERTEX
  8
SURFACE
 62
7
  6
CONTINUOUS
 10
79.5675800965
 20
173.8554453347
  0
VERTEX
  8
SURFACE
 62
7
  6
CONTINUOUS
 10
79.788084268
 20
173.9976954668
  0
VERTEX
  8
SURFACE
 62
7
  6
CONTINUOUS
 10
80.0231396113
 20
174.0797929606
  0
VERTEX
  8
SURFACE
 62
7
  6
CONTINUOUS
 10
80.2611212339
 20
174.1061867059
  0
SEQEND
  0
LINE
  8
SURFACE
 62
7
  6
CONTINUOUS
 10
69.3850958301
 20
133.0822562003
 11
71.9109288551
 21
128.7073850697
  0
LINE
  8
SURFACE
 62
7
  6
CONTINUOUS
 10
86.9534088831
 20
178.437821905
 11
86.9534088834
 21
173.3149721313
  0
LINE
  8
SURFACE
 62
7
  6
CONTINUOUS
 10
89.6034088834
 20
120.7605675235
 11
89.6034088834
 21
115.6377377962
  0
LINE
  8
SURFACE
 62
7
  6
CONTINUOUS
 10
94.3011212339
 20
124.7377698274
 11
94.3011212339
 21
142.0377698274
  0
POLYLINE
  8
SURFACE
 62
7
  6
CONTINUOUS
 66
1
 70
0
  0
VERTEX
  8
SURFACE
 62
7
  6
CONTINUOUS
 10
94.224284404
 20
122.6377698274
  0
VERTEX
  8
SURFACE
 62
7
  6
CONTINUOUS
 10
94.2306556849
 20
123.1768203188
  0
VERTEX
  8
SURFACE
 62
7
  6
CONTINUOUS
 10
94.2395937825
 20
123.6599465187
  0
VERTEX
  8
SURFACE
 62
7
  6
CONTINUOUS
 10
94.2507753163
 20
124.0695350797
  0
VERTEX
  8
SURFACE
 62
7
  6
CONTINUOUS
 10
94.2570784874
 20
124.2418300275
  0
VERTEX
  8
SURFACE
 62
7
  6
CONTINUOUS
 10
94.2708336839
 20
124.5139123439
  0
VERTEX
  8
SURFACE
 62
7
  6
CONTINUOUS
 10
94.2856947068
 20
124.6812781914
  0
VERTEX
  8
SURFACE
 62
7
  6
CONTINUOUS
 10
94.3011212339
 20
124.7377698274
  0
SEQEND
  0
LINE
  8
SURFACE
 62
7
  6
CONTINUOUS
 10
86.9320195136
 20
172.6612673886
 11
85.7101306957
 21
154.0094939623
  0
LINE
  8
SURFACE
 62
7
  6
CONTINUOUS
 10
90.8399239608
 20
139.9628088028
 11
89.6247982532
 21
121.4142722662
  0
LINE
  8
SURFACE
 62
7
  6
CONTINUOUS
 10
101.9820195136
 20
121.4142722662
 11
100.7223187608
 21
140.6432337576
  0
LINE
  8
SURFACE
 62
7
  6
CONTINUOUS
 10
103.5247982532
 20
172.6612673886
 11
104.7466870711
 21
154.0094939623
  0
POLYLINE
  8
SURFACE
 62
7
  6
CONTINUOUS
 66
1
 70
0
  0
VERTEX
  8
SURFACE
 62
7
  6
CONTINUOUS
 10
97.3779580638
 20
122.6377698274
  0
VERTEX
  8
SURFACE
 62
7
  6
CONTINUOUS
 10
97.371586783
 20
123.1768203188
  0
VERTEX
  8
SURFACE
 62
7
  6
CONTINUOUS
 10
97.3626486853
 20
123.6599465187
  0
VERTEX
  8
SURFACE
 62
7
  6
CONTINUOUS
 10
97.3514671516
 20
124.0695350797
  0
VERTEX
  8
SURFACE
 62
7
  6
CONTINUOUS
 10
97.3451639805
 20
124.2418300275
  0
VERTEX
  8
SURFACE
 62
7
  6
CONTINUOUS
 10
97.3314087839
 20
124.5139123439
  0
VERTEX
  8
SURFACE
 62
7
  6
CONTINUOUS
 10
97.316547761
 20
124.6812781914
  0
VERTEX
  8
SURFACE
 62
7
  6
CONTINUOUS
 10
97.3011212339
 20
124.7377698274
  0
SEQEND
  0
LINE
  8
SURFACE
 62
7
  6
CONTINUOUS
 10
97.3011212339
 20
142.0377698274
 11
97.3011212339
 21
124.7377698274
  0
LINE
  8
SURFACE
 62
7
  6
CONTINUOUS
 10
102.0034088834
 20
115.6377390198
 11
102.0034088834
 21
120.7605675235
  0
LINE
  8
SURFACE
 62
7
  6
CONTINUOUS
 10
103.5034088834
 20
178.4377928538
 11
103.5034088834
 21
173.3149721313
  0
POLYLINE
  8
SURFACE
 62
7
  6
CONTINUOUS
 66
1
 70
0
  0
VERTEX
  8
SURFACE
 62
7
  6
CONTINUOUS
 10
97.3779580638
 20
122.6377698274
  0
VERTEX
  8
SURFACE
 62
7
  6
CONTINUOUS
 10
97.3514764206
 20
122.4015132323
  0
VERTEX
  8
SURFACE
 62
7
  6
CONTINUOUS
 10
97.2706736731
 20
122.1811672246
  0
VERTEX
  8
SURFACE
 62
7
  6
CONTINUOUS
 10
97.1371805876
 20
121.9825872288
  0
VERTEX
  8
SURFACE
 62
7
  6
CONTINUOUS
 10
97.0532210848
 20
121.8966018426
  0
VERTEX
  8
SURFACE
 62
7
  6
CONTINUOUS
 10
96.8541942303
 20
121.7562445834
  0
VERTEX
  8
SURFACE
 62
7
  6
CONTINUOUS
 10
96.6260954892
 20
121.6680099182
  0
VERTEX
  8
SURFACE
 62
7
  6
CONTINUOUS
 10
96.3857316921
 20
121.6382376462
  0
SEQEND
  0
POLYLINE
  8
SURFACE
 62
7
  6
CONTINUOUS
 66
1
 70
0
  0
VERTEX
  8
SURFACE
 62
7
  6
CONTINUOUS
 10
108.1214798626
 20
173.0377698274
  0
VERTEX
  8
SURFACE
 62
7
  6
CONTINUOUS
 10
108.1541656963
 20
173.2946690373
  0
VERTEX
  8
SURFACE
 62
7
  6
CONTINUOUS
 10
108.2510399801
 20
173.5425383931
  0
VERTEX
  8
SURFACE
 62
7
  6
CONTINUOUS
 10
108.4094519831
 20
173.7626317231
  0
VERTEX
  8
SURFACE
 62
7
  6
CONTINUOUS
 10
108.5075800965
 20
173.8554453347
  0
VERTEX
  8
SURFACE
 62
7
  6
CONTINUOUS
 10
108.728084268
 20
173.9976954668
  0
VERTEX
  8
SURFACE
 62
7
  6
CONTINUOUS
 10
108.9631396113
 20
174.0797929606
  0
VERTEX
  8
SURFACE
 62
7
  6
CONTINUOUS
 10
109.2011212339
 20
174.1061867059
  0
SEQEND
  0
POLYLINE
  8
SURFACE
 62
7
  6
CONTINUOUS
 66
1
 70
0
  0
VERTEX
  8
SURFACE
 62
7
  6
CONTINUOUS
 10
73.9039210488
 20
150.0608240029
  0
VERTEX
  8
SURFACE
 62
7
  6
CONTINUOUS
 10
73.9133616751
 20
150.0489956495
  0
VERTEX
  8
SURFACE
 62
7
  6
CONTINUOUS
 10
73.9324984432
 20
150.0108643221
  0
VERTEX
  8
SURFACE
 62
7
  6
CONTINUOUS
 10
73.9594597476
 20
149.9501337371
  0
VERTEX
  8
SURFACE
 62
7
  6
CONTINUOUS
 10
73.9915752118
 20
149.8728232512
  0
VERTEX
  8
SURFACE
 62
7
  6
CONTINUOUS
 10
74.0256450719
 20
149.7866283388
  0
SEQEND
  0
POLYLINE
  8
SURFACE
 62
7
  6
CONTINUOUS
 66
1
 70
0
  0
VERTEX
  8
SURFACE
 62
7
  6
CONTINUOUS
 10
108.1199448771
 20
155.9377698274
  0
VERTEX
  8
SURFACE
 62
7
  6
CONTINUOUS
 10
108.1215046482
 20
155.3329917096
  0
VERTEX
  8
SURFACE
 62
7
  6
CONTINUOUS
 10
108.1261231776
 20
154.7515324737
  0
VERTEX
  8
SURFACE
 62
7
  6
CONTINUOUS
 10
108.133622521
 20
154.2156758032
  0
VERTEX
  8
SURFACE
 62
7
  6
CONTINUOUS
 10
108.1437149704
 20
153.7459645658
  0
VERTEX
  8
SURFACE
 62
7
  6
CONTINUOUS
 10
108.156013777
 20
153.3604255767
  0
VERTEX
  8
SURFACE
 62
7
  6
CONTINUOUS
 10
108.1700476193
 20
153.0738819901
  0
VERTEX
  8
SURFACE
 62
7
  6
CONTINUOUS
 10
108.1852783151
 20
152.8973825429
  0
VERTEX
  8
SURFACE
 62
7
  6
CONTINUOUS
 10
108.2011212339
 20
152.8377698274
  0
SEQEND
  0
LINE
  8
SURFACE
 62
7
  6
CONTINUOUS
 10
111.2822975908
 20
172.4377698274
 11
111.2807626052
 21
173.0377698274
  0
LINE
  8
SURFACE
 62
7
  6
CONTINUOUS
 10
108.2011212339
 20
152.0377698274
 11
108.2011212339
 21
152.8377698274
  0
LINE
  8
SURFACE
 62
7
  6
CONTINUOUS
 10
111.2011212339
 20
152.8377698274
 11
111.2011212339
 21
152.0377698274
  0
LINE
  8
SURFACE
 62
7
  6
CONTINUOUS
 10
111.2822975908
 20
155.9377698274
 11
111.2822975908
 21
172.4377698274
  0
LINE
  8
SURFACE
 62
7
  6
CONTINUOUS
 10
115.9034088834
 20
178.4377916551
 11
115.9034088834
 21
173.3149721313
  0
LINE
  8
SURFACE
 62
7
  6
CONTINUOUS
 10
117.4034088834
 20
120.7605675235
 11
117.4034088834
 21
115.637739037
  0
POLYLINE
  8
SURFACE
 62
7
  6
CONTINUOUS
 66
1
 70
0
  0
VERTEX
  8
SURFACE
 62
7
  6
CONTINUOUS
 10
108.1199448771
 20
155.9377698274
  0
VERTEX
  8
SURFACE
 62
7
  6
CONTINUOUS
 10
108.1206282887
 20
172.8391788323
  0
VERTEX
  8
SURFACE
 62
7
  6
CONTINUOUS
 10
108.1214798626
 20
173.0377698274
  0
SEQEND
  0
POLYLINE
  8
SURFACE
 62
7
  6
CONTINUOUS
 66
1
 70
0
  0
VERTEX
  8
SURFACE
 62
7
  6
CONTINUOUS
 10
111.2822975908
 20
155.9377698274
  0
VERTEX
  8
SURFACE
 62
7
  6
CONTINUOUS
 10
111.2807378196
 20
155.3329917096
  0
VERTEX
  8
SURFACE
 62
7
  6
CONTINUOUS
 10
111.2761192902
 20
154.7515324737
  0
VERTEX
  8
SURFACE
 62
7
  6
CONTINUOUS
 10
111.2686199468
 20
154.2156758032
  0
VERTEX
  8
SURFACE
 62
7
  6
CONTINUOUS
 10
111.2585274975
 20
153.7459645658
  0
VERTEX
  8
SURFACE
 62
7
  6
CONTINUOUS
 10
111.2462286909
 20
153.3604255767
  0
VERTEX
  8
SURFACE
 62
7
  6
CONTINUOUS
 10
111.2321948486
 20
153.0738819901
  0
VERTEX
  8
SURFACE
 62
7
  6
CONTINUOUS
 10
111.2169641527
 20
152.8973825429
  0
VERTEX
  8
SURFACE
 62
7
  6
CONTINUOUS
 10
111.2011212339
 20
152.8377698274
  0
SEQEND
  0
LINE
  8
SURFACE
 62
7
  6
CONTINUOUS
 10
115.8820195136
 20
172.6612673886
 11
114.6155556505
 21
153.3290690075
  0
POLYLINE
  8
SURFACE
 62
7
  6
CONTINUOUS
 66
1
 70
0
  0
VERTEX
  8
SURFACE
 62
7
  6
CONTINUOUS
 10
86.7041158795
 20
151.7844188713
  0
VERTEX
  8
SURFACE
 62
7
  6
CONTINUOUS
 10
86.6379752027
 20
151.7041183002
  0
VERTEX
  8
SURFACE
 62
7
  6
CONTINUOUS
 10
86.599686894
 20
151.6625739672
  0
VERTEX
  8
SURFACE
 62
7
  6
CONTINUOUS
 10
86.5211037968
 20
151.575052734
  0
SEQEND
  0
LINE
  8
SURFACE
 62
7
  6
CONTINUOUS
 10
129.7820195136
 20
121.4142722662
 11
128.5223187608
 21
140.6432337576
  0
POLYLINE
  8
SURFACE
 62
7
  6
CONTINUOUS
 66
1
 70
0
  0
VERTEX
  8
SURFACE
 62
7
  6
CONTINUOUS
 10
125.1779580638
 20
122.6377698274
  0
VERTEX
  8
SURFACE
 62
7
  6
CONTINUOUS
 10
125.171586783
 20
123.1768203188
  0
VERTEX
  8
SURFACE
 62
7
  6
CONTINUOUS
 10
125.1626486853
 20
123.6599465187
  0
VERTEX
  8
SURFACE
 62
7
  6
CONTINUOUS
 10
125.1514671516
 20
124.0695350797
  0
VERTEX
  8
SURFACE
 62
7
  6
CONTINUOUS
 10
125.1451639805
 20
124.2418300275
  0
VERTEX
  8
SURFACE
 62
7
  6
CONTINUOUS
 10
125.1314087839
 20
124.5139123439
  0
VERTEX
  8
SURFACE
 62
7
  6
CONTINUOUS
 10
125.116547761
 20
124.6812781914
  0
VERTEX
  8
SURFACE
 62
7
  6
CONTINUOUS
 10
125.1011212339
 20
124.7377698274
  0
SEQEND
  0
LINE
  8
SURFACE
 62
7
  6
CONTINUOUS
 10
122.1011212339
 20
124.7377698274
 11
122.1011212339
 21
142.0377698274
  0
LINE
  8
SURFACE
 62
7
  6
CONTINUOUS
 10
125.1011212339
 20
142.0377698274
 11
125.1011212339
 21
124.7377698274
  0
LINE
  8
SURFACE
 62
7
  6
CONTINUOUS
 10
129.8034088834
 20
115.6377388371
 11
129.8034088834
 21
120.7605675235
  0
LINE
  8
SURFACE
 62
7
  6
CONTINUOUS
 10
130.1034088834
 20
173.3149721313
 11
130.1034088834
 21
178.4377993124
  0
POLYLINE
  8
SURFACE
 62
7
  6
CONTINUOUS
 66
1
 70
0
  0
VERTEX
  8
SURFACE
 62
7
  6
CONTINUOUS
 10
122.024284404
 20
122.6377698274
  0
VERTEX
  8
SURFACE
 62
7
  6
CONTINUOUS
 10
122.0306556849
 20
123.1768203188
  0
VERTEX
  8
SURFACE
 62
7
  6
CONTINUOUS
 10
122.0395937825
 20
123.6599465187
  0
VERTEX
  8
SURFACE
 62
7
  6
CONTINUOUS
 10
122.0507753163
 20
124.0695350797
  0
VERTEX
  8
SURFACE
 62
7
  6
CONTINUOUS
 10
122.0570784874
 20
124.2418300275
  0
VERTEX
  8
SURFACE
 62
7
  6
CONTINUOUS
 10
122.0708336839
 20
124.5139123439
  0
VERTEX
  8
SURFACE
 62
7
  6
CONTINUOUS
 10
122.0856947068
 20
124.6812781914
  0
VERTEX
  8
SURFACE
 62
7
  6
CONTINUOUS
 10
122.1011212339
 20
124.7377698274
  0
SEQEND
  0
LINE
  8
SURFACE
 62
7
  6
CONTINUOUS
 10
118.684499006
 20
140.6432337576
 11
117.4247982532
 21
121.4142722662
  0
POLYLINE
  8
SURFACE
 62
7
  6
CONTINUOUS
 66
1
 70
0
  0
VERTEX
  8
SURFACE
 62
7
  6
CONTINUOUS
 10
125.1779580638
 20
122.6377698274
  0
VERTEX
  8
SURFACE
 62
7
  6
CONTINUOUS
 10
125.1514764206
 20
122.4015132323
  0
VERTEX
  8
SURFACE
 62
7
  6
CONTINUOUS
 10
125.0706736731
 20
122.1811672246
  0
VERTEX
  8
SURFACE
 62
7
  6
CONTINUOUS
 10
124.9371805876
 20
121.9825872288
  0
VERTEX
  8
SURFACE
 62
7
  6
CONTINUOUS
 10
124.8532210848
 20
121.8966018426
  0
VERTEX
  8
SURFACE
 62
7
  6
CONTINUOUS
 10
124.6541942303
 20
121.7562445834
  0
VERTEX
  8
SURFACE
 62
7
  6
CONTINUOUS
 10
124.4260954892
 20
121.6680099182
  0
VERTEX
  8
SURFACE
 62
7
  6
CONTINUOUS
 10
124.1857316921
 20
121.6382376462
  0
SEQEND
  0
POLYLINE
  8
SURFACE
 62
7
  6
CONTINUOUS
 66
1
 70
0
  0
VERTEX
  8
SURFACE
 62
7
  6
CONTINUOUS
 10
88.9564317639
 20
143.2340110156
  0
VERTEX
  8
SURFACE
 62
7
  6
CONTINUOUS
 10
88.8870511934
 20
143.1584056074
  0
VERTEX
  8
SURFACE
 62
7
  6
CONTINUOUS
 10
88.8245918763
 20
143.0931306931
  0
VERTEX
  8
SURFACE
 62
7
  6
CONTINUOUS
 10
88.7984501627
 20
143.0669890435
  0
VERTEX
  8
SURFACE
 62
7
  6
CONTINUOUS
 10
88.7601770408
 20
143.0315323257
  0
VERTEX
  8
SURFACE
 62
7
  6
CONTINUOUS
 10
88.7442988404
 20
143.0218798704
  0
SEQEND
  0
LINE
  8
SURFACE
 62
7
  6
CONTINUOUS
 10
74.4068360082
 20
144.6161969522
 11
71.0084805468
 21
141.2178414908
  0
LINE
  8
SURFACE
 62
7
  6
CONTINUOUS
 10
90.2584153971
 20
141.5077633137
 11
87.1499817587
 21
144.6161969522
  0
LINE
  8
SURFACE
 62
7
  6
CONTINUOUS
 10
86.2916392594
 20
152.4645394514
 11
88.8568360082
 21
149.8993427027
  0
LINE
  8
SURFACE
 62
7
  6
CONTINUOUS
 10
131.3912621163
 20
153.3290690075
 11
130.1247982532
 21
172.6612673886
  0
POLYLINE
  8
SURFACE
 62
7
  6
CONTINUOUS
 66
1
 70
0
  0
VERTEX
  8
SURFACE
 62
7
  6
CONTINUOUS
 10
134.7099448771
 20
155.9377698274
  0
VERTEX
  8
SURFACE
 62
7
  6
CONTINUOUS
 10
134.7115046482
 20
155.3329917096
  0
VERTEX
  8
SURFACE
 62
7
  6
CONTINUOUS
 10
134.7161231776
 20
154.7515324737
  0
VERTEX
  8
SURFACE
 62
7
  6
CONTINUOUS
 10
134.723622521
 20
154.2156758032
  0
VERTEX
  8
SURFACE
 62
7
  6
CONTINUOUS
 10
134.7337149704
 20
153.7459645658
  0
VERTEX
  8
SURFACE
 62
7
  6
CONTINUOUS
 10
134.746013777
 20
153.3604255767
  0
VERTEX
  8
SURFACE
 62
7
  6
CONTINUOUS
 10
134.7600476193
 20
153.0738819901
  0
VERTEX
  8
SURFACE
 62
7
  6
CONTINUOUS
 10
134.7752783151
 20
152.8973825429
  0
VERTEX
  8
SURFACE
 62
7
  6
CONTINUOUS
 10
134.7911212339
 20
152.8377698274
  0
SEQEND
  0
LINE
  8
SURFACE
 62
7
  6
CONTINUOUS
 10
137.8722975908
 20
172.4377698274
 11
137.8707626052
 21
173.0377698274
  0
LINE
  8
SURFACE
 62
7
  6
CONTINUOUS
 10
134.7911212339
 20
152.0377698274
 11
134.7911212339
 21
152.8377698274
  0
LINE
  8
SURFACE
 62
7
  6
CONTINUOUS
 10
137.7911212339
 20
152.8377698274
 11
137.7911212339
 21
152.0377698274
  0
LINE
  8
SURFACE
 62
7
  6
CONTINUOUS
 10
137.8722975908
 20
155.9377698274
 11
137.8722975908
 21
172.4377698274
  0
POLYLINE
  8
SURFACE
 62
7
  6
CONTINUOUS
 66
1
 70
0
  0
VERTEX
  8
SURFACE
 62
7
  6
CONTINUOUS
 10
134.7099448771
 20
155.9377698274
  0
VERTEX
  8
SURFACE
 62
7
  6
CONTINUOUS
 10
134.7106282887
 20
172.8391788323
  0
VERTEX
  8
SURFACE
 62
7
  6
CONTINUOUS
 10
134.7114798626
 20
173.0377698274
  0
SEQEND
  0
POLYLINE
  8
SURFACE
 62
7
  6
CONTINUOUS
 66
1
 70
0
  0
VERTEX
  8
SURFACE
 62
7
  6
CONTINUOUS
 10
137.8722975908
 20
155.9377698274
  0
VERTEX
  8
SURFACE
 62
7
  6
CONTINUOUS
 10
137.8707378196
 20
155.3329917096
  0
VERTEX
  8
SURFACE
 62
7
  6
CONTINUOUS
 10
137.8661192902
 20
154.7515324737
  0
VERTEX
  8
SURFACE
 62
7
  6
CONTINUOUS
 10
137.8586199468
 20
154.2156758032
  0
VERTEX
  8
SURFACE
 62
7
  6
CONTINUOUS
 10
137.8485274975
 20
153.7459645658
  0
VERTEX
  8
SURFACE
 62
7
  6
CONTINUOUS
 10
137.8362286909
 20
153.3604255767
  0
VERTEX
  8
SURFACE
 62
7
  6
CONTINUOUS
 10
137.8221948486
 20
153.0738819901
  0
VERTEX
  8
SURFACE
 62
7
  6
CONTINUOUS
 10
137.8069641527
 20
152.8973825429
  0
VERTEX
  8
SURFACE
 62
7
  6
CONTINUOUS
 10
137.7911212339
 20
152.8377698274
  0
SEQEND
  0
LINE
  8
SURFACE
 62
7
  6
CONTINUOUS
 10
141.1040746621
 20
151.627344507
 11
142.4820195136
 21
172.6612673886
  0
POLYLINE
  8
SURFACE
 62
7
  6
CONTINUOUS
 66
1
 70
0
  0
VERTEX
  8
SURFACE
 62
7
  6
CONTINUOUS
 10
134.7114798626
 20
173.0377698274
  0
VERTEX
  8
SURFACE
 62
7
  6
CONTINUOUS
 10
134.7441656963
 20
173.2946690373
  0
VERTEX
  8
SURFACE
 62
7
  6
CONTINUOUS
 10
134.8410399801
 20
173.5425383931
  0
VERTEX
  8
SURFACE
 62
7
  6
CONTINUOUS
 10
134.9994519831
 20
173.7626317231
  0
VERTEX
  8
SURFACE
 62
7
  6
CONTINUOUS
 10
135.0975800965
 20
173.8554453347
  0
VERTEX
  8
SURFACE
 62
7
  6
CONTINUOUS
 10
135.318084268
 20
173.9976954668
  0
VERTEX
  8
SURFACE
 62
7
  6
CONTINUOUS
 10
135.5531396113
 20
174.0797929606
  0
VERTEX
  8
SURFACE
 62
7
  6
CONTINUOUS
 10
135.7911212339
 20
174.1061867059
  0
SEQEND
  0
LINE
  8
SURFACE
 62
7
  6
CONTINUOUS
 10
104.1651785075
 20
152.4645394514
 11
101.5999817587
 21
149.8993427027
  0
POLYLINE
  8
SURFACE
 62
7
  6
CONTINUOUS
 66
1
 70
0
  0
VERTEX
  8
SURFACE
 62
7
  6
CONTINUOUS
 10
86.7041150459
 20
151.7844202672
  0
VERTEX
  8
SURFACE
 62
7
  6
CONTINUOUS
 10
86.7824456328
 20
151.8525938663
  0
VERTEX
  8
SURFACE
 62
7
  6
CONTINUOUS
 10
86.8288095023
 20
151.8971447602
  0
VERTEX
  8
SURFACE
 62
7
  6
CONTINUOUS
 10
86.845464741
 20
151.9107139698
  0
SEQEND
  0
LINE
  8
SURFACE
 62
7
  6
CONTINUOUS
 10
102.4220425129
 20
150.1230454202
 11
102.6305805024
 21
149.9086817522
  0
LINE
  8
SURFACE
 62
7
  6
CONTINUOUS
 10
143.2547782499
 20
117.7576177894
 11
143.2534088834
 21
117.809932776
  0
LINE
  8
SURFACE
 62
7
  6
CONTINUOUS
 10
142.5034088834
 20
173.3149721313
 11
142.5034088834
 21
178.4377966681
  0
LINE
  8
SURFACE
 62
7
  6
CONTINUOUS
 10
143.2534088834
 20
117.809932776
 11
143.2534088834
 21
142.8877698274
  0
LINE
  8
SURFACE
 62
7
  6
CONTINUOUS
 10
146.2534088834
 20
141.5735614764
 11
146.2534088834
 21
124.7377698274
  0
POLYLINE
  8
SURFACE
 62
7
  6
CONTINUOUS
 66
1
 70
0
  0
VERTEX
  8
SURFACE
 62
7
  6
CONTINUOUS
 10
146.202819299
 20
122.7377698274
  0
VERTEX
  8
SURFACE
 62
7
  6
CONTINUOUS
 10
146.2072379896
 20
123.2543384084
  0
VERTEX
  8
SURFACE
 62
7
  6
CONTINUOUS
 10
146.2132467297
 20
123.7152474485
  0
VERTEX
  8
SURFACE
 62
7
  6
CONTINUOUS
 10
146.2206388093
 20
124.1046267699
  0
VERTEX
  8
SURFACE
 62
7
  6
CONTINUOUS
 10
146.2247757521
 20
124.2681913494
  0
VERTEX
  8
SURFACE
 62
7
  6
CONTINUOUS
 10
146.2337533983
 20
124.5260191938
  0
VERTEX
  8
SURFACE
 62
7
  6
CONTINUOUS
 10
146.2434086098
 20
124.6843692547
  0
VERTEX
  8
SURFACE
 62
7
  6
CONTINUOUS
 10
146.2534088834
 20
124.7377698274
  0
SEQEND
  0
POLYLINE
  8
SURFACE
 62
7
  6
CONTINUOUS
 66
1
 70
0
  0
VERTEX
  8
SURFACE
 62
7
  6
CONTINUOUS
 10
146.2534088834
 20
141.5735614764
  0
VERTEX
  8
SURFACE
 62
7
  6
CONTINUOUS
 10
146.2600843585
 20
141.7056534039
  0
VERTEX
  8
SURFACE
 62
7
  6
CONTINUOUS
 10
146.3419088259
 20
142.1280702622
  0
VERTEX
  8
SURFACE
 62
7
  6
CONTINUOUS
 10
146.5122263554
 20
142.5232389129
  0
VERTEX
  8
SURFACE
 62
7
  6
CONTINUOUS
 10
146.7631910491
 20
142.8728316397
  0
VERTEX
  8
SURFACE
 62
7
  6
CONTINUOUS
 10
146.9154222443
 20
143.0253624552
  0
VERTEX
  8
SURFACE
 62
7
  6
CONTINUOUS
 10
147.2645465974
 20
143.27702864
  0
VERTEX
  8
SURFACE
 62
7
  6
CONTINUOUS
 10
147.6593904002
 20
143.4481193219
  0
VERTEX
  8
SURFACE
 62
7
  6
CONTINUOUS
 10
148.0815569059
 20
143.5307578495
  0
VERTEX
  8
SURFACE
 62
7
  6
CONTINUOUS
 10
148.252495008
 20
143.5380735503
  0
SEQEND
  0
POLYLINE
  8
SURFACE
 62
7
  6
CONTINUOUS
 66
1
 70
0
  0
VERTEX
  8
SURFACE
 62
7
  6
CONTINUOUS
 10
116.7997083258
 20
143.9157344537
  0
VERTEX
  8
SURFACE
 62
7
  6
CONTINUOUS
 10
116.7370310924
 20
143.8474208577
  0
VERTEX
  8
SURFACE
 62
7
  6
CONTINUOUS
 10
116.6793429657
 20
143.7867634791
  0
VERTEX
  8
SURFACE
 62
7
  6
CONTINUOUS
 10
116.6323715083
 20
143.7397926966
  0
VERTEX
  8
SURFACE
 62
7
  6
CONTINUOUS
 10
116.600752345
 20
143.7111442514
  0
VERTEX
  8
SURFACE
 62
7
  6
CONTINUOUS
 10
116.5875745352
 20
143.7036041756
  0
SEQEND
  0
LINE
  8
SURFACE
 62
7
  6
CONTINUOUS
 10
101.3038273245
 20
142.1881882685
 11
103.3318360082
 21
144.2161969522
  0
POLYLINE
  8
SURFACE
 62
7
  6
CONTINUOUS
 66
1
 70
0
  0
VERTEX
  8
SURFACE
 62
7
  6
CONTINUOUS
 10
115.8337122329
 20
150.4203214533
  0
VERTEX
  8
SURFACE
 62
7
  6
CONTINUOUS
 10
116.0751599571
 20
150.6628568017
  0
VERTEX
  8
SURFACE
 62
7
  6
CONTINUOUS
 10
116.1181576702
 20
150.7054211401
  0
VERTEX
  8
SURFACE
 62
7
  6
CONTINUOUS
 10
116.1777533027
 20
150.7633406554
  0
VERTEX
  8
SURFACE
 62
7
  6
CONTINUOUS
 10
116.1990575661
 20
150.7821211447
  0
SEQEND
  0
POLYLINE
  8
SURFACE
 62
7
  6
CONTINUOUS
 66
1
 70
0
  0
VERTEX
  8
SURFACE
 62
7
  6
CONTINUOUS
 10
115.8337122329
 20
150.4203214533
  0
VERTEX
  8
SURFACE
 62
7
  6
CONTINUOUS
 10
115.7585125312
 20
150.3454171238
  0
VERTEX
  8
SURFACE
 62
7
  6
CONTINUOUS
 10
115.6811703338
 20
150.2671149277
  0
VERTEX
  8
SURFACE
 62
7
  6
CONTINUOUS
 10
115.6031199221
 20
150.1868599992
  0
SEQEND
  0
LINE
  8
SURFACE
 62
7
  6
CONTINUOUS
 10
118.1029904424
 20
142.1881882685
 11
116.0749817587
 21
144.2161969522
  0
LINE
  8
SURFACE
 62
7
  6
CONTINUOUS
 10
115.1970642142
 20
151.7841144966
 11
116.6318360082
 21
150.3493427027
  0
POLYLINE
  8
SURFACE
 62
7
  6
CONTINUOUS
 66
1
 70
0
  0
VERTEX
  8
SURFACE
 62
7
  6
CONTINUOUS
 10
156.0552750284
 20
122.7377698274
  0
VERTEX
  8
SURFACE
 62
7
  6
CONTINUOUS
 10
156.0509051187
 20
123.2497567176
  0
VERTEX
  8
SURFACE
 62
7
  6
CONTINUOUS
 10
156.0449729401
 20
123.7072666331
  0
VERTEX
  8
SURFACE
 62
7
  6
CONTINUOUS
 10
156.0376787962
 20
124.0948391762
  0
VERTEX
  8
SURFACE
 62
7
  6
CONTINUOUS
 10
156.0335963817
 20
124.2581989429
  0
VERTEX
  8
SURFACE
 62
7
  6
CONTINUOUS
 10
156.024733304
 20
124.5171540115
  0
VERTEX
  8
SURFACE
 62
7
  6
CONTINUOUS
 10
156.0151919198
 20
124.6787725599
  0
VERTEX
  8
SURFACE
 62
7
  6
CONTINUOUS
 10
156.0052947098
 20
124.7375733138
  0
SEQEND
  0
LINE
  8
SURFACE
 62
7
  6
CONTINUOUS
 10
156.0049901001
 20
124.7377698247
 11
156.0049901001
 21
141.5380745102
  0
LINE
  8
SURFACE
 62
7
  6
CONTINUOUS
 10
159.004685444
 20
117.809284
 11
159.004685444
 21
142.9093427027
  0
LINE
  8
SURFACE
 62
7
  6
CONTINUOUS
 10
163.504685444
 20
122.1856489675
 11
163.504685444
 21
121.0898906874
  0
LINE
  8
SURFACE
 62
7
  6
CONTINUOUS
 10
164.4034088834
 20
151.1661969522
 11
164.4034088834
 21
176.2670865133
  0
LINE
  8
SURFACE
 62
7
  6
CONTINUOUS
 10
159.004685444
 20
117.809284
 11
159.0033036289
 21
117.756731923
  0
LINE
  8
SURFACE
 62
7
  6
CONTINUOUS
 10
164.4034088834
 20
176.2670865133
 11
164.4048052489
 21
176.3199143569
  0
POLYLINE
  8
SURFACE
 62
7
  6
CONTINUOUS
 66
1
 70
0
  0
VERTEX
  8
SURFACE
 62
7
  6
CONTINUOUS
 10
156.0552750284
 20
122.7377698274
  0
VERTEX
  8
SURFACE
 62
7
  6
CONTINUOUS
 10
156.0255280358
 20
122.4774758031
  0
VERTEX
  8
SURFACE
 62
7
  6
CONTINUOUS
 10
155.9363721497
 20
122.2354521917
  0
VERTEX
  8
SURFACE
 62
7
  6
CONTINUOUS
 10
155.7898479453
 20
122.0176261056
  0
VERTEX
  8
SURFACE
 62
7
  6
CONTINUOUS
 10
155.6975896248
 20
121.9230529448
  0
VERTEX
  8
SURFACE
 62
7
  6
CONTINUOUS
 10
155.4787224401
 20
121.7684738286
  0
VERTEX
  8
SURFACE
 62
7
  6
CONTINUOUS
 10
155.2275951601
 20
121.6711502472
  0
VERTEX
  8
SURFACE
 62
7
  6
CONTINUOUS
 10
154.9586285845
 20
121.6377698274
  0
SEQEND
  0
LINE
  8
SURFACE
 62
7
  6
CONTINUOUS
 10
130.8097535527
 20
151.7841144966
 11
129.3749817587
 21
150.3493427027
  0
LINE
  8
SURFACE
 62
7
  6
CONTINUOUS
 10
129.1038273245
 20
142.1881882685
 11
130.6318360082
 21
143.7161969522
  0
LINE
  8
SURFACE
 62
7
  6
CONTINUOUS
 10
64.0338786006
 20
145.6791933982
 11
74.7191157014
 21
150.4227152366
  0
POLYLINE
  8
SURFACE
 62
7
  6
CONTINUOUS
 66
1
 70
0
  0
VERTEX
  8
SURFACE
 62
7
  6
CONTINUOUS
 10
102.8191315456
 20
143.7034924896
  0
VERTEX
  8
SURFACE
 62
7
  6
CONTINUOUS
 10
102.8059508382
 20
143.7110297594
  0
VERTEX
  8
SURFACE
 62
7
  6
CONTINUOUS
 10
102.7743299672
 20
143.7396764925
  0
VERTEX
  8
SURFACE
 62
7
  6
CONTINUOUS
 10
102.7273581626
 20
143.7866466413
  0
VERTEX
  8
SURFACE
 62
7
  6
CONTINUOUS
 10
102.6696702254
 20
143.8473045808
  0
VERTEX
  8
SURFACE
 62
7
  6
CONTINUOUS
 10
102.6069970455
 20
143.9156220582
  0
SEQEND
  0
POLYLINE
  8
SURFACE
 62
7
  6
CONTINUOUS
 66
1
 70
0
  0
VERTEX
  8
SURFACE
 62
7
  6
CONTINUOUS
 10
102.119948358
 20
150.419309302
  0
VERTEX
  8
SURFACE
 62
7
  6
CONTINUOUS
 10
102.126336451
 20
150.415296543
  0
VERTEX
  8
SURFACE
 62
7
  6
CONTINUOUS
 10
102.1690477288
 20
150.376048064
  0
VERTEX
  8
SURFACE
 62
7
  6
CONTINUOUS
 10
102.2483943869
 20
150.2982343921
  0
VERTEX
  8
SURFACE
 62
7
  6
CONTINUOUS
 10
102.2997930632
 20
150.2468368362
  0
VERTEX
  8
SURFACE
 62
7
  6
CONTINUOUS
 10
102.4220425129
 20
150.1230454202
  0
SEQEND
  0
LINE
  8
SURFACE
 62
7
  6
CONTINUOUS
 10
156.0052947098
 20
124.7375733138
 11
156.0049901001
 21
124.7377698274
  0
POLYLINE
  8
SURFACE
 62
7
  6
CONTINUOUS
 66
1
 70
0
  0
VERTEX
  8
SURFACE
 62
7
  6
CONTINUOUS
 10
130.6588487177
 20
151.6332096616
  0
VERTEX
  8
SURFACE
 62
7
  6
CONTINUOUS
 10
130.6779872541
 20
151.6159625553
  0
VERTEX
  8
SURFACE
 62
7
  6
CONTINUOUS
 10
130.73267699
 20
151.5637286337
  0
SEQEND
  0
POLYLINE
  8
SURFACE
 62
7
  6
CONTINUOUS
 66
1
 70
0
  0
VERTEX
  8
SURFACE
 62
7
  6
CONTINUOUS
 10
130.6059484951
 20
143.7110294301
  0
VERTEX
  8
SURFACE
 62
7
  6
CONTINUOUS
 10
130.5743243727
 20
143.7396794026
  0
VERTEX
  8
SURFACE
 62
7
  6
CONTINUOUS
 10
130.5273476789
 20
143.7866548452
  0
VERTEX
  8
SURFACE
 62
7
  6
CONTINUOUS
 10
130.4696548786
 20
143.8473183966
  0
VERTEX
  8
SURFACE
 62
7
  6
CONTINUOUS
 10
130.4073575298
 20
143.9159825425
  0
SEQEND
  0
POLYLINE
  8
SURFACE
 62
7
  6
CONTINUOUS
 66
1
 70
0
  0
VERTEX
  8
SURFACE
 62
7
  6
CONTINUOUS
 10
130.7326096474
 20
151.5637812941
  0
VERTEX
  8
SURFACE
 62
7
  6
CONTINUOUS
 10
130.7646573532
 20
151.5302340724
  0
VERTEX
  8
SURFACE
 62
7
  6
CONTINUOUS
 10
130.8440471171
 20
151.44954134
  0
VERTEX
  8
SURFACE
 62
7
  6
CONTINUOUS
 10
130.8890845801
 20
151.4029651983
  0
VERTEX
  8
SURFACE
 62
7
  6
CONTINUOUS
 10
130.9852996864
 20
151.3012709157
  0
VERTEX
  8
SURFACE
 62
7
  6
CONTINUOUS
 10
131.0347688986
 20
151.2484897033
  0
SEQEND
  0
LINE
  8
SURFACE
 62
7
  6
CONTINUOUS
 10
167.4031042273
 20
152.8377698302
 11
167.4031042273
 21
152.5374651446
  0
POLYLINE
  8
SURFACE
 62
7
  6
CONTINUOUS
 66
1
 70
0
  0
VERTEX
  8
SURFACE
 62
7
  6
CONTINUOUS
 10
167.3492981822
 20
155.9377698274
  0
VERTEX
  8
SURFACE
 62
7
  6
CONTINUOUS
 10
167.3501049593
 20
172.9710888018
  0
VERTEX
  8
SURFACE
 62
7
  6
CONTINUOUS
 10
167.352500683
 20
173.4884170025
  0
SEQEND
  0
LINE
  8
SURFACE
 62
7
  6
CONTINUOUS
 10
167.1129499913
 20
178.346861855
 11
167.1088480013
 21
178.3449814478
  0
POLYLINE
  8
0
 62
7
  6
CONTINUOUS
 66
1
 70
0
  0
VERTEX
  8
0
 62
7
  6
CONTINUOUS
 10
355.1857316921
 20
121.6382376462
  0
VERTEX
  8
0
 62
7
  6
CONTINUOUS
 10
355.4260954893
 20
121.6680099183
  0
VERTEX
  8
0
 62
7
  6
CONTINUOUS
 10
355.6541942304
 20
121.7562445834
  0
VERTEX
  8
0
 62
7
  6
CONTINUOUS
 10
355.8532210849
 20
121.8966018427
  0
VERTEX
  8
0
 62
7
  6
CONTINUOUS
 10
355.9371805877
 20
121.9825872289
  0
VERTEX
  8
0
 62
7
  6
CONTINUOUS
 10
356.0706736731
 20
122.1811672247
  0
VERTEX
  8
0
 62
7
  6
CONTINUOUS
 10
356.1514764206
 20
122.4015132323
  0
VERTEX
  8
0
 62
7
  6
CONTINUOUS
 10
356.1779580638
 20
122.6377698274
  0
SEQEND
  0
LINE
  8
0
 62
7
  6
CONTINUOUS
 10
384.4414964389
 20
112.4850261364
 11
384.4786674348
 21
112.4878209453
  0
LINE
  8
SURFACE
 62
7
  6
CONTINUOUS
 10
65.9235750331
 20
112.4878209453
 11
65.9607460289
 21
112.4850261364
  0
LINE
  8
SURFACE
 62
7
  6
CONTINUOUS
 10
130.6191303676
 20
143.7034913116
 11
130.6059484951
 21
143.7110294301
  0
POLYLINE
  8
SURFACE
 62
7
  6
CONTINUOUS
 66
1
 70
0
  0
VERTEX
  8
SURFACE
 62
7
  6
CONTINUOUS
 10
167.4027996177
 20
152.837966341
  0
VERTEX
  8
SURFACE
 62
7
  6
CONTINUOUS
 10
167.39232917
 20
152.9034520516
  0
VERTEX
  8
SURFACE
 62
7
  6
CONTINUOUS
 10
167.3822786431
 20
153.0839010305
  0
VERTEX
  8
SURFACE
 62
7
  6
CONTINUOUS
 10
167.3730289054
 20
153.3724683015
  0
VERTEX
  8
SURFACE
 62
7
  6
CONTINUOUS
 10
167.3649303762
 20
153.7582105435
  0
VERTEX
  8
SURFACE
 62
7
  6
CONTINUOUS
 10
167.3582897463
 20
154.2265047108
  0
VERTEX
  8
SURFACE
 62
7
  6
CONTINUOUS
 10
167.3533583942
 20
154.7596055372
  0
VERTEX
  8
SURFACE
 62
7
  6
CONTINUOUS
 10
167.3503229269
 20
155.337319606
  0
VERTEX
  8
SURFACE
 62
7
  6
CONTINUOUS
 10
167.3492981822
 20
155.9377698274
  0
SEQEND
  0
POLYLINE
  8
SURFACE
 62
7
  6
CONTINUOUS
 66
1
 70
0
  0
VERTEX
  8
SURFACE
 62
7
  6
CONTINUOUS
 10
181.4543170838
 20
173.4884170025
  0
VERTEX
  8
SURFACE
 62
7
  6
CONTINUOUS
 10
181.4150538508
 20
173.8653263431
  0
VERTEX
  8
SURFACE
 62
7
  6
CONTINUOUS
 10
181.2961092683
 20
174.2445121979
  0
VERTEX
  8
SURFACE
 62
7
  6
CONTINUOUS
 10
181.0889883923
 20
174.6107384587
  0
VERTEX
  8
SURFACE
 62
7
  6
CONTINUOUS
 10
180.7930875127
 20
174.9380011017
  0
VERTEX
  8
SURFACE
 62
7
  6
CONTINUOUS
 10
180.4984737782
 20
175.153825545
  0
VERTEX
  8
SURFACE
 62
7
  6
CONTINUOUS
 10
180.2430302816
 20
175.283788546
  0
VERTEX
  8
SURFACE
 62
7
  6
CONTINUOUS
 10
180.0075656164
 20
175.3670970108
  0
VERTEX
  8
SURFACE
 62
7
  6
CONTINUOUS
 10
179.7893159216
 20
175.4174842327
  0
VERTEX
  8
SURFACE
 62
7
  6
CONTINUOUS
 10
179.5929481414
 20
175.44274615
  0
VERTEX
  8
SURFACE
 62
7
  6
CONTINUOUS
 10
179.4164990304
 20
175.4499897297
  0
SEQEND
  0
LINE
  8
SURFACE
 62
7
  6
CONTINUOUS
 10
184.4020124717
 20
176.319915232
 11
184.4034088834
 21
176.2670865133
  0
LINE
  8
SURFACE
 62
7
  6
CONTINUOUS
 10
181.4567128076
 20
172.9710888018
 11
181.4543170838
 21
173.4884170025
  0
LINE
  8
SURFACE
 62
7
  6
CONTINUOUS
 10
181.4037135395
 20
152.5374651446
 11
181.4037135395
 21
152.8377698302
  0
LINE
  8
SURFACE
 62
7
  6
CONTINUOUS
 10
181.4575195847
 20
155.9377698274
 11
181.4567128076
 21
172.9710888018
  0
LINE
  8
SURFACE
 62
7
  6
CONTINUOUS
 10
184.4034088834
 20
151.1661969522
 11
184.4034088834
 21
176.2670865133
  0
LINE
  8
SURFACE
 62
7
  6
CONTINUOUS
 10
185.3021323228
 20
122.1856489675
 11
185.3021323228
 21
121.0898906874
  0
POLYLINE
  8
SURFACE
 62
7
  6
CONTINUOUS
 66
1
 70
0
  0
VERTEX
  8
SURFACE
 62
7
  6
CONTINUOUS
 10
181.4040181492
 20
152.837966341
  0
VERTEX
  8
SURFACE
 62
7
  6
CONTINUOUS
 10
181.4144885969
 20
152.9034520516
  0
VERTEX
  8
SURFACE
 62
7
  6
CONTINUOUS
 10
181.4245391237
 20
153.0839010305
  0
VERTEX
  8
SURFACE
 62
7
  6
CONTINUOUS
 10
181.4337888615
 20
153.3724683015
  0
VERTEX
  8
SURFACE
 62
7
  6
CONTINUOUS
 10
181.4418873906
 20
153.7582105435
  0
VERTEX
  8
SURFACE
 62
7
  6
CONTINUOUS
 10
181.4485280205
 20
154.2265047108
  0
VERTEX
  8
SURFACE
 62
7
  6
CONTINUOUS
 10
181.4534593727
 20
154.7596055372
  0
VERTEX
  8
SURFACE
 62
7
  6
CONTINUOUS
 10
181.4564948399
 20
155.337319606
  0
VERTEX
  8
SURFACE
 62
7
  6
CONTINUOUS
 10
181.4575195847
 20
155.9377698274
  0
SEQEND
  0
LINE
  8
0
 62
7
  6
CONTINUOUS
 10
290.5712052015
 20
124.0920617056
 11
288.1370847573
 21
123.662860597
  0
LINE
  8
0
 62
7
  6
CONTINUOUS
 10
263.8605824115
 20
119.6126790578
 11
261.4264619674
 21
119.1834779492
  0
POLYLINE
  8
0
 62
7
  6
CONTINUOUS
 66
1
 70
0
  0
VERTEX
  8
0
 62
7
  6
CONTINUOUS
 10
303.1027767249
 20
121.6377698274
  0
VERTEX
  8
0
 62
7
  6
CONTINUOUS
 10
303.3717433006
 20
121.6711502472
  0
VERTEX
  8
0
 62
7
  6
CONTINUOUS
 10
303.6228705806
 20
121.7684738287
  0
VERTEX
  8
0
 62
7
  6
CONTINUOUS
 10
303.8417377652
 20
121.9230529449
  0
VERTEX
  8
0
 62
7
  6
CONTINUOUS
 10
303.9339960857
 20
122.0176261056
  0
VERTEX
  8
0
 62
7
  6
CONTINUOUS
 10
304.08052029
 20
122.2354521918
  0
VERTEX
  8
0
 62
7
  6
CONTINUOUS
 10
304.1696761761
 20
122.4774758031
  0
VERTEX
  8
0
 62
7
  6
CONTINUOUS
 10
304.1994231688
 20
122.7377698274
  0
SEQEND
  0
POLYLINE
  8
0
 62
7
  6
CONTINUOUS
 66
1
 70
0
  0
VERTEX
  8
0
 62
7
  6
CONTINUOUS
 10
256.5540532855
 20
121.6377698274
  0
VERTEX
  8
0
 62
7
  6
CONTINUOUS
 10
256.8230198612
 20
121.6711502472
  0
VERTEX
  8
0
 62
7
  6
CONTINUOUS
 10
257.0741471412
 20
121.7684738287
  0
VERTEX
  8
0
 62
7
  6
CONTINUOUS
 10
257.2930143259
 20
121.9230529449
  0
VERTEX
  8
0
 62
7
  6
CONTINUOUS
 10
257.3852726463
 20
122.0176261056
  0
VERTEX
  8
0
 62
7
  6
CONTINUOUS
 10
257.5317968507
 20
122.2354521918
  0
VERTEX
  8
0
 62
7
  6
CONTINUOUS
 10
257.6209527367
 20
122.4774758031
  0
VERTEX
  8
0
 62
7
  6
CONTINUOUS
 10
257.6506997294
 20
122.7377698274
  0
SEQEND
  0
POLYLINE
  8
0
 62
7
  6
CONTINUOUS
 66
1
 70
0
  0
VERTEX
  8
0
 62
7
  6
CONTINUOUS
 10
327.3857316921
 20
121.6382376462
  0
VERTEX
  8
0
 62
7
  6
CONTINUOUS
 10
327.6260954894
 20
121.6680099183
  0
VERTEX
  8
0
 62
7
  6
CONTINUOUS
 10
327.8541942304
 20
121.7562445835
  0
VERTEX
  8
0
 62
7
  6
CONTINUOUS
 10
328.0532210849
 20
121.8966018427
  0
VERTEX
  8
0
 62
7
  6
CONTINUOUS
 10
328.1371805877
 20
121.9825872289
  0
VERTEX
  8
0
 62
7
  6
CONTINUOUS
 10
328.2706736731
 20
122.1811672247
  0
VERTEX
  8
0
 62
7
  6
CONTINUOUS
 10
328.3514764206
 20
122.4015132323
  0
VERTEX
  8
0
 62
7
  6
CONTINUOUS
 10
328.3779580638
 20
122.6377698274
  0
SEQEND
  0
LINE
  8
0
 62
7
  6
CONTINUOUS
 10
358.7988656156
 20
113.6377698274
 11
350.3988027923
 21
113.6377698274
  0
LINE
  8
0
 62
7
  6
CONTINUOUS
 10
330.9988643748
 20
113.6377698274
 11
322.5988027927
 21
113.6377698274
  0
LINE
  8
SURFACE
 62
7
  6
CONTINUOUS
 10
91.6033768523
 20
113.6377698274
 11
100.0034396756
 21
113.6377698274
  0
LINE
  8
SURFACE
 62
7
  6
CONTINUOUS
 10
119.4033780931
 20
113.6377698274
 11
127.8034396751
 21
113.6377698274
  0
LINE
  8
0
 62
7
  6
CONTINUOUS
 10
304.0204568082
 20
115.6377698274
 11
294.524970042
 21
115.6377698274
  0
LINE
  8
0
 62
7
  6
CONTINUOUS
 10
257.4726971268
 20
115.6377698274
 11
243.724970042
 21
115.6377698274
  0
LINE
  8
SURFACE
 62
7
  6
CONTINUOUS
 10
206.6772724259
 20
115.6377698274
 11
192.929545341
 21
115.6377698274
  0
LINE
  8
SURFACE
 62
7
  6
CONTINUOUS
 10
155.8772724259
 20
115.6377698274
 11
146.3817856597
 21
115.6377698274
  0
POLYLINE
  8
SURFACE
 62
7
  6
CONTINUOUS
 66
1
 70
0
  0
VERTEX
  8
SURFACE
 62
7
  6
CONTINUOUS
 10
95.2165107757
 20
121.6382376462
  0
VERTEX
  8
SURFACE
 62
7
  6
CONTINUOUS
 10
94.9761469785
 20
121.6680099183
  0
VERTEX
  8
SURFACE
 62
7
  6
CONTINUOUS
 10
94.7480482375
 20
121.7562445834
  0
VERTEX
  8
SURFACE
 62
7
  6
CONTINUOUS
 10
94.549021383
 20
121.8966018427
  0
VERTEX
  8
SURFACE
 62
7
  6
CONTINUOUS
 10
94.4650618802
 20
121.9825872289
  0
VERTEX
  8
SURFACE
 62
7
  6
CONTINUOUS
 10
94.3315687947
 20
122.1811672247
  0
VERTEX
  8
SURFACE
 62
7
  6
CONTINUOUS
 10
94.2507660473
 20
122.4015132323
  0
VERTEX
  8
SURFACE
 62
7
  6
CONTINUOUS
 10
94.224284404
 20
122.6377698274
  0
SEQEND
  0
POLYLINE
  8
SURFACE
 62
7
  6
CONTINUOUS
 66
1
 70
0
  0
VERTEX
  8
SURFACE
 62
7
  6
CONTINUOUS
 10
123.0165107757
 20
121.6382376462
  0
VERTEX
  8
SURFACE
 62
7
  6
CONTINUOUS
 10
122.7761469785
 20
121.6680099183
  0
VERTEX
  8
SURFACE
 62
7
  6
CONTINUOUS
 10
122.5480482374
 20
121.7562445835
  0
VERTEX
  8
SURFACE
 62
7
  6
CONTINUOUS
 10
122.3490213829
 20
121.8966018427
  0
VERTEX
  8
SURFACE
 62
7
  6
CONTINUOUS
 10
122.2650618801
 20
121.9825872289
  0
VERTEX
  8
SURFACE
 62
7
  6
CONTINUOUS
 10
122.1315687947
 20
122.1811672247
  0
VERTEX
  8
SURFACE
 62
7
  6
CONTINUOUS
 10
122.0507660473
 20
122.4015132323
  0
VERTEX
  8
SURFACE
 62
7
  6
CONTINUOUS
 10
122.024284404
 20
122.6377698274
  0
SEQEND
  0
POLYLINE
  8
SURFACE
 62
7
  6
CONTINUOUS
 66
1
 70
0
  0
VERTEX
  8
SURFACE
 62
7
  6
CONTINUOUS
 10
147.299465743
 20
121.6377698274
  0
VERTEX
  8
SURFACE
 62
7
  6
CONTINUOUS
 10
147.0304991672
 20
121.6711502472
  0
VERTEX
  8
SURFACE
 62
7
  6
CONTINUOUS
 10
146.7793718873
 20
121.7684738287
  0
VERTEX
  8
SURFACE
 62
7
  6
CONTINUOUS
 10
146.5605047026
 20
121.9230529449
  0
VERTEX
  8
SURFACE
 62
7
  6
CONTINUOUS
 10
146.4682463822
 20
122.0176261056
  0
VERTEX
  8
SURFACE
 62
7
  6
CONTINUOUS
 10
146.3217221778
 20
122.2354521918
  0
VERTEX
  8
SURFACE
 62
7
  6
CONTINUOUS
 10
146.2325662917
 20
122.4774758031
  0
VERTEX
  8
SURFACE
 62
7
  6
CONTINUOUS
 10
146.202819299
 20
122.7377698274
  0
SEQEND
  0
LINE
  8
SURFACE
 62
7
  6
CONTINUOUS
 10
159.8310372664
 20
124.0920617056
 11
162.2651577105
 21
123.662860597
  0
LINE
  8
SURFACE
 62
7
  6
CONTINUOUS
 10
186.5416600563
 20
119.6126790578
 11
188.9757805005
 21
119.1834779492
  0
LINE
  8
SURFACE
 62
7
  6
CONTINUOUS
 10
189.8035143439
 20
117.7567280087
 11
189.8021323228
 21
117.809284
  0
LINE
  8
SURFACE
 62
7
  6
CONTINUOUS
 10
189.8021323228
 20
142.9093427027
 11
189.8021323228
 21
117.809284
  0
LINE
  8
SURFACE
 62
7
  6
CONTINUOUS
 10
192.8018276667
 20
141.5380745102
 11
192.8018276667
 21
124.7377698247
  0
POLYLINE
  8
SURFACE
 62
7
  6
CONTINUOUS
 66
1
 70
0
  0
VERTEX
  8
SURFACE
 62
7
  6
CONTINUOUS
 10
192.7515427384
 20
122.7377698274
  0
VERTEX
  8
SURFACE
 62
7
  6
CONTINUOUS
 10
192.7559126482
 20
123.2497567176
  0
VERTEX
  8
SURFACE
 62
7
  6
CONTINUOUS
 10
192.7618448268
 20
123.7072666331
  0
VERTEX
  8
SURFACE
 62
7
  6
CONTINUOUS
 10
192.7691389707
 20
124.0948391762
  0
VERTEX
  8
SURFACE
 62
7
  6
CONTINUOUS
 10
192.7732213852
 20
124.2581989429
  0
VERTEX
  8
SURFACE
 62
7
  6
CONTINUOUS
 10
192.7820844629
 20
124.5171540115
  0
VERTEX
  8
SURFACE
 62
7
  6
CONTINUOUS
 10
192.7916258471
 20
124.6787725599
  0
VERTEX
  8
SURFACE
 62
7
  6
CONTINUOUS
 10
192.801523057
 20
124.7375733138
  0
SEQEND
  0
LINE
  8
SURFACE
 62
7
  6
CONTINUOUS
 10
181.4040181492
 20
152.837966341
 11
181.4037135395
 21
152.8377698274
  0
LINE
  8
0
 62
7
  6
CONTINUOUS
 10
239.7712052015
 20
124.0920617056
 11
237.3370847573
 21
123.662860597
  0
LINE
  8
SURFACE
 62
7
  6
CONTINUOUS
 10
213.0651577105
 20
119.6126790578
 11
210.6310372664
 21
119.1834779492
  0
POLYLINE
  8
SURFACE
 62
7
  6
CONTINUOUS
 66
1
 70
0
  0
VERTEX
  8
SURFACE
 62
7
  6
CONTINUOUS
 10
65.9607460289
 20
112.4850261364
  0
VERTEX
  8
SURFACE
 62
7
  6
CONTINUOUS
 10
66.0482786218
 20
112.4923782665
  0
VERTEX
  8
SURFACE
 62
7
  6
CONTINUOUS
 10
66.0872006319
 20
112.5043531401
  0
SEQEND
  0
LINE
  8
0
 62
7
  6
CONTINUOUS
 10
291.3975570238
 20
118.5377698274
 11
291.3383074902
 21
118.5377698274
  0
LINE
  8
0
 62
7
  6
CONTINUOUS
 10
260.6593596786
 20
118.5377698274
 11
260.600110145
 21
118.5377698274
  0
LINE
  8
0
 62
7
  6
CONTINUOUS
 10
240.5975570238
 20
118.5377698274
 11
240.5383074902
 21
118.5377698274
  0
LINE
  8
SURFACE
 62
7
  6
CONTINUOUS
 10
159.004685444
 20
118.5377698274
 11
159.0639349776
 21
118.5377698274
  0
LINE
  8
SURFACE
 62
7
  6
CONTINUOUS
 10
189.7428827893
 20
118.5377698274
 11
189.8021323228
 21
118.5377698274
  0
LINE
  8
SURFACE
 62
7
  6
CONTINUOUS
 10
209.804685444
 20
118.5377698274
 11
209.8639349776
 21
118.5377698274
  0
LINE
  8
0
 62
7
  6
CONTINUOUS
 10
355.1857896377
 20
121.6377698274
 11
354.0164528301
 21
121.6377698274
  0
LINE
  8
0
 62
7
  6
CONTINUOUS
 10
327.3857896377
 20
121.6377698274
 11
326.2164528301
 21
121.6377698274
  0
LINE
  8
SURFACE
 62
7
  6
CONTINUOUS
 10
205.7611848196
 20
121.6377698274
 11
193.8456329473
 21
121.6377698274
  0
LINE
  8
SURFACE
 62
7
  6
CONTINUOUS
 10
154.9611848196
 20
121.6377698274
 11
147.2969095079
 21
121.6377698274
  0
LINE
  8
DEFAULT_1
 62
2
  6
CENTER
 10
50.5988335844
 20
121.6377698274
 11
244.6410576483
 21
121.6377698274
  0
LINE
  8
DEFAULT_1
 62
2
  6
CENTER
 10
355.1857896377
 20
121.6377698274
 11
395.5988335844
 21
121.6377698274
  0
LINE
  8
DEFAULT_1
 62
2
  6
CENTER
 10
327.3857896377
 20
121.6377698274
 11
354.0164528301
 21
121.6377698274
  0
LINE
  8
DEFAULT_1
 62
2
  6
CENTER
 10
256.5566095205
 20
121.6377698274
 11
295.4410576483
 21
121.6377698274
  0
LINE
  8
DEFAULT_1
 62
2
  6
CENTER
 10
303.1053329599
 20
121.6377698274
 11
326.2164528301
 21
121.6377698274
  0
LINE
  8
SURFACE
 62
7
  6
CONTINUOUS
 10
95.2164528301
 20
121.6377698274
 11
96.3857896377
 21
121.6377698274
  0
LINE
  8
SURFACE
 62
7
  6
CONTINUOUS
 10
123.0164528301
 20
121.6377698274
 11
124.1857896377
 21
121.6377698274
  0
LINE
  8
0
 62
7
  6
CONTINUOUS
 10
244.6410576483
 20
121.6377698274
 11
256.5566095205
 21
121.6377698274
  0
LINE
  8
0
 62
7
  6
CONTINUOUS
 10
295.4410576483
 20
121.6377698274
 11
303.1053329599
 21
121.6377698274
  0
LINE
  8
0
 62
7
  6
CONTINUOUS
 10
291.3975570238
 20
124.7377698274
 11
291.3383074902
 21
124.7377698274
  0
LINE
  8
0
 62
7
  6
CONTINUOUS
 10
260.6593596786
 20
124.7377698274
 11
260.600110145
 21
124.7377698274
  0
LINE
  8
0
 62
7
  6
CONTINUOUS
 10
240.5975570238
 20
124.7377698274
 11
240.5383074902
 21
124.7377698274
  0
LINE
  8
SURFACE
 62
7
  6
CONTINUOUS
 10
159.004685444
 20
124.7377698274
 11
159.0639349776
 21
124.7377698274
  0
LINE
  8
SURFACE
 62
7
  6
CONTINUOUS
 10
189.7428827893
 20
124.7377698274
 11
189.8021323228
 21
124.7377698274
  0
LINE
  8
SURFACE
 62
7
  6
CONTINUOUS
 10
209.804685444
 20
124.7377698274
 11
209.8639349776
 21
124.7377698274
  0
POLYLINE
  8
SURFACE
 62
7
  6
CONTINUOUS
 66
1
 70
0
  0
VERTEX
  8
SURFACE
 62
7
  6
CONTINUOUS
 10
193.8481891824
 20
121.6377698274
  0
VERTEX
  8
SURFACE
 62
7
  6
CONTINUOUS
 10
193.5792226066
 20
121.6711502472
  0
VERTEX
  8
SURFACE
 62
7
  6
CONTINUOUS
 10
193.3280953267
 20
121.7684738287
  0
VERTEX
  8
SURFACE
 62
7
  6
CONTINUOUS
 10
193.109228142
 20
121.9230529449
  0
VERTEX
  8
SURFACE
 62
7
  6
CONTINUOUS
 10
193.0169698216
 20
122.0176261056
  0
VERTEX
  8
SURFACE
 62
7
  6
CONTINUOUS
 10
192.8704456172
 20
122.2354521918
  0
VERTEX
  8
SURFACE
 62
7
  6
CONTINUOUS
 10
192.7812897311
 20
122.4774758031
  0
VERTEX
  8
SURFACE
 62
7
  6
CONTINUOUS
 10
192.7515427384
 20
122.7377698274
  0
SEQEND
  0
LINE
  8
SURFACE
 62
7
  6
CONTINUOUS
 10
210.6310372664
 20
124.0920617056
 11
213.0651577105
 21
123.662860597
  0
LINE
  8
0
 62
7
  6
CONTINUOUS
 10
237.3370847573
 20
119.6126790578
 11
239.7712052015
 21
119.1834779492
  0
LINE
  8
SURFACE
 62
7
  6
CONTINUOUS
 10
206.8052947098
 20
124.7375733138
 11
206.8049901001
 21
124.7377698274
  0
LINE
  8
SURFACE
 62
7
  6
CONTINUOUS
 10
167.4031042273
 20
152.8377698274
 11
167.4027996177
 21
152.837966341
  0
POLYLINE
  8
SURFACE
 62
7
  6
CONTINUOUS
 66
1
 70
0
  0
VERTEX
  8
SURFACE
 62
7
  6
CONTINUOUS
 10
206.8552750284
 20
122.7377698274
  0
VERTEX
  8
SURFACE
 62
7
  6
CONTINUOUS
 10
206.8509051187
 20
123.2497567176
  0
VERTEX
  8
SURFACE
 62
7
  6
CONTINUOUS
 10
206.8449729401
 20
123.7072666331
  0
VERTEX
  8
SURFACE
 62
7
  6
CONTINUOUS
 10
206.8376787962
 20
124.0948391762
  0
VERTEX
  8
SURFACE
 62
7
  6
CONTINUOUS
 10
206.8335963817
 20
124.2581989429
  0
VERTEX
  8
SURFACE
 62
7
  6
CONTINUOUS
 10
206.824733304
 20
124.5171540115
  0
VERTEX
  8
SURFACE
 62
7
  6
CONTINUOUS
 10
206.8151919198
 20
124.6787725599
  0
VERTEX
  8
SURFACE
 62
7
  6
CONTINUOUS
 10
206.8052947098
 20
124.7375733138
  0
SEQEND
  0
LINE
  8
SURFACE
 62
7
  6
CONTINUOUS
 10
206.8049901001
 20
124.7377698247
 11
206.8049901001
 21
141.5380745102
  0
LINE
  8
SURFACE
 62
7
  6
CONTINUOUS
 10
209.804685444
 20
142.9093427027
 11
209.804685444
 21
117.809284
  0
LINE
  8
SURFACE
 62
7
  6
CONTINUOUS
 10
209.804685444
 20
117.809284
 11
209.8033036289
 21
117.756731923
  0
POLYLINE
  8
SURFACE
 62
7
  6
CONTINUOUS
 66
1
 70
0
  0
VERTEX
  8
SURFACE
 62
7
  6
CONTINUOUS
 10
206.8552750284
 20
122.7377698274
  0
VERTEX
  8
SURFACE
 62
7
  6
CONTINUOUS
 10
206.8255280358
 20
122.4774758031
  0
VERTEX
  8
SURFACE
 62
7
  6
CONTINUOUS
 10
206.7363721497
 20
122.2354521918
  0
VERTEX
  8
SURFACE
 62
7
  6
CONTINUOUS
 10
206.5898479453
 20
122.0176261056
  0
VERTEX
  8
SURFACE
 62
7
  6
CONTINUOUS
 10
206.4975896249
 20
121.9230529449
  0
VERTEX
  8
SURFACE
 62
7
  6
CONTINUOUS
 10
206.2787224402
 20
121.7684738287
  0
VERTEX
  8
SURFACE
 62
7
  6
CONTINUOUS
 10
206.0275951603
 20
121.6711502472
  0
VERTEX
  8
SURFACE
 62
7
  6
CONTINUOUS
 10
205.7586285845
 20
121.6377698274
  0
SEQEND
  0
LINE
  8
SURFACE
 62
7
  6
CONTINUOUS
 10
66.0871549551
 20
112.5043351604
 11
71.7586316188
 21
114.6814110771
  0
LINE
  8
0
 62
7
  6
CONTINUOUS
 10
268.9397064327
 20
178.4204570615
 11
268.7083710466
 21
178.3468603366
  0
LINE
  8
SURFACE
 62
7
  6
CONTINUOUS
 10
188.9757805005
 20
124.0920617056
 11
186.5416600563
 21
123.662860597
  0
LINE
  8
SURFACE
 62
7
  6
CONTINUOUS
 10
162.2651577105
 20
119.6126790578
 11
159.8310372664
 21
119.1834779492
  0
LINE
  8
0
 62
7
  6
CONTINUOUS
 10
261.4264619674
 20
124.0920617056
 11
263.8605824115
 21
123.662860597
  0
LINE
  8
0
 62
7
  6
CONTINUOUS
 10
288.1370847573
 20
119.6126790578
 11
290.5712052015
 21
119.1834779492
  0
LINE
  8
SURFACE
 62
7
  6
CONTINUOUS
 10
214.304685444
 20
122.1856489675
 11
214.304685444
 21
121.0898906874
  0
LINE
  8
SURFACE
 62
7
  6
CONTINUOUS
 10
215.2034088834
 20
176.2685750266
 11
215.2034088834
 21
151.1661969522
  0
LINE
  8
SURFACE
 62
7
  6
CONTINUOUS
 10
218.2005511061
 20
152.8377698302
 11
218.2005511061
 21
152.5374651446
  0
POLYLINE
  8
SURFACE
 62
7
  6
CONTINUOUS
 66
1
 70
0
  0
VERTEX
  8
SURFACE
 62
7
  6
CONTINUOUS
 10
218.1467450609
 20
155.9377698274
  0
VERTEX
  8
SURFACE
 62
7
  6
CONTINUOUS
 10
218.1475518381
 20
172.9710888018
  0
VERTEX
  8
SURFACE
 62
7
  6
CONTINUOUS
 10
218.1499475618
 20
173.4884170025
  0
SEQEND
  0
LINE
  8
SURFACE
 62
7
  6
CONTINUOUS
 10
215.2034088834
 20
176.2685750266
 11
215.2048346785
 21
176.3219562719
  0
LINE
  8
0
 62
7
  6
CONTINUOUS
 10
268.7083781974
 20
178.3468634612
 11
268.7042727022
 21
178.3449814478
  0
LINE
  8
0
 62
7
  6
CONTINUOUS
 10
355.1011212339
 20
143.0377698274
 11
354.1011212339
 21
143.0377698274
  0
LINE
  8
0
 62
7
  6
CONTINUOUS
 10
327.3011212339
 20
143.0377698274
 11
326.3011212339
 21
143.0377698274
  0
LINE
  8
SURFACE
 62
7
  6
CONTINUOUS
 10
95.3011212339
 20
143.0377698274
 11
96.3011212339
 21
143.0377698274
  0
LINE
  8
SURFACE
 62
7
  6
CONTINUOUS
 10
123.1011212339
 20
143.0377698274
 11
124.1011212339
 21
143.0377698274
  0
LINE
  8
0
 62
7
  6
CONTINUOUS
 10
289.3975570238
 20
143.5377698274
 11
262.600110145
 21
143.5377698274
  0
LINE
  8
SURFACE
 62
7
  6
CONTINUOUS
 10
238.5975570238
 20
143.5377698274
 11
211.804685444
 21
143.5377698274
  0
LINE
  8
0
 62
7
  6
CONTINUOUS
 10
238.5975570238
 20
143.5377698274
 11
211.804685444
 21
143.5377698274
  0
LINE
  8
SURFACE
 62
7
  6
CONTINUOUS
 10
187.8021323228
 20
143.5377698274
 11
161.004685444
 21
143.5377698274
  0
LINE
  8
0
 62
7
  6
CONTINUOUS
 10
302.1497474599
 20
143.5380744835
 11
296.397252341
 21
143.5380744835
  0
LINE
  8
0
 62
7
  6
CONTINUOUS
 10
255.6004148278
 20
143.5380744835
 11
245.597252341
 21
143.5380744835
  0
LINE
  8
SURFACE
 62
7
  6
CONTINUOUS
 10
204.8049901268
 20
143.5380744835
 11
194.80182764
 21
143.5380744835
  0
LINE
  8
SURFACE
 62
7
  6
CONTINUOUS
 10
154.0049901268
 20
143.5380744835
 11
148.252495008
 21
143.5380744835
  0
LINE
  8
0
 62
7
  6
CONTINUOUS
 10
316.9419793349
 20
144.8877698274
 11
309.1488335844
 21
144.8877698274
  0
LINE
  8
SURFACE
 62
7
  6
CONTINUOUS
 10
133.4602631329
 20
144.8877698274
 11
141.2534088834
 21
144.8877698274
  0
LINE
  8
SURFACE
 62
7
  6
CONTINUOUS
 10
113.2465546339
 20
145.3877698274
 11
106.1602631329
 21
145.3877698274
  0
LINE
  8
0
 62
7
  6
CONTINUOUS
 10
337.1556878339
 20
145.3877698274
 11
344.2419793349
 21
145.3877698274
  0
LINE
  8
SURFACE
 62
7
  6
CONTINUOUS
 10
84.3215546339
 20
145.7877698274
 11
77.2352631329
 21
145.7877698274
  0
LINE
  8
0
 62
7
  6
CONTINUOUS
 10
366.0806878339
 20
145.7877698274
 11
373.1669793349
 21
145.7877698274
  0
LINE
  8
DEFAULT_1
 62
2
  6
CENTER
 10
232.6261212339
 20
147.0377791473
 11
227.2012212339
 21
147.0377791473
  0
LINE
  8
0
 62
2
  6
CONTINUOUS
 10
226.6861212339
 20
147.0377791473
 11
223.7161212339
 21
147.0377791473
  0
LINE
  8
DEFAULT_1
 62
2
  6
CENTER
 10
217.7761212339
 20
147.0377791473
 11
223.2010212339
 21
147.0377791473
  0
LINE
  8
0
 62
7
  6
CONTINUOUS
 10
358.7169793349
 20
148.7277698274
 11
351.6306878339
 21
148.7277698274
  0
LINE
  8
SURFACE
 62
7
  6
CONTINUOUS
 10
91.6852631329
 20
148.7277698274
 11
98.7715546339
 21
148.7277698274
  0
LINE
  8
0
 62
7
  6
CONTINUOUS
 10
330.9419793349
 20
149.1777698274
 11
323.8556878339
 21
149.1777698274
  0
LINE
  8
SURFACE
 62
7
  6
CONTINUOUS
 10
119.4602631329
 20
149.1777698274
 11
126.5465546339
 21
149.1777698274
  0
LINE
  8
SURFACE
 62
7
  6
CONTINUOUS
 10
169.4031042007
 20
150.5374651713
 11
179.4037135662
 21
150.5374651713
  0
LINE
  8
SURFACE
 62
7
  6
CONTINUOUS
 10
220.2005510794
 20
150.5374651713
 11
230.2016913884
 21
150.5374651713
  0
LINE
  8
0
 62
7
  6
CONTINUOUS
 10
270.9985289016
 20
150.5374651713
 11
280.9991382672
 21
150.5374651713
  0
LINE
  8
0
 62
7
  6
CONTINUOUS
 10
307.2342382556
 20
150.5377698274
 11
287.9988335844
 21
150.5377698274
  0
LINE
  8
0
 62
7
  6
CONTINUOUS
 10
263.9988335844
 20
150.5377698274
 11
237.1988335844
 21
150.5377698274
  0
LINE
  8
SURFACE
 62
7
  6
CONTINUOUS
 10
162.4034088834
 20
150.5377698274
 11
143.1680042123
 21
150.5377698274
  0
LINE
  8
SURFACE
 62
7
  6
CONTINUOUS
 10
186.4034088834
 20
150.5377698274
 11
213.2034088834
 21
150.5377698274
  0
LINE
  8
SURFACE
 62
7
  6
CONTINUOUS
 10
136.7911212339
 20
151.0377698274
 11
135.7911212339
 21
151.0377698274
  0
LINE
  8
SURFACE
 62
7
  6
CONTINUOUS
 10
110.2011212339
 20
151.0377698274
 11
109.2011212339
 21
151.0377698274
  0
LINE
  8
SURFACE
 62
7
  6
CONTINUOUS
 10
81.2611212339
 20
151.0377698274
 11
80.2611212339
 21
151.0377698274
  0
LINE
  8
0
 62
7
  6
CONTINUOUS
 10
313.6111212339
 20
151.0377698274
 11
314.6111212339
 21
151.0377698274
  0
LINE
  8
0
 62
7
  6
CONTINUOUS
 10
340.2011212339
 20
151.0377698274
 11
341.2011212339
 21
151.0377698274
  0
LINE
  8
0
 62
7
  6
CONTINUOUS
 10
369.1411212339
 20
151.0377698274
 11
370.1411212339
 21
151.0377698274
  0
POLYLINE
  8
0
 62
7
  6
CONTINUOUS
 66
1
 70
0
  0
VERTEX
  8
0
 62
7
  6
CONTINUOUS
 10
302.1497474598
 20
143.5380735503
  0
VERTEX
  8
0
 62
7
  6
CONTINUOUS
 10
302.3207169299
 20
143.5307551597
  0
VERTEX
  8
0
 62
7
  6
CONTINUOUS
 10
302.7429875145
 20
143.4480772604
  0
VERTEX
  8
0
 62
7
  6
CONTINUOUS
 10
303.1378555992
 20
143.2769378705
  0
VERTEX
  8
0
 62
7
  6
CONTINUOUS
 10
303.486887767
 20
143.0253017087
  0
VERTEX
  8
0
 62
7
  6
CONTINUOUS
 10
303.6390642657
 20
142.872817298
  0
VERTEX
  8
0
 62
7
  6
CONTINUOUS
 10
303.8899648534
 20
142.5233295284
  0
VERTEX
  8
0
 62
7
  6
CONTINUOUS
 10
304.060297733
 20
142.1281866952
  0
VERTEX
  8
0
 62
7
  6
CONTINUOUS
 10
304.1421538033
 20
141.7057048062
  0
VERTEX
  8
0
 62
7
  6
CONTINUOUS
 10
304.148833539
 20
141.5735640777
  0
SEQEND
  0
LINE
  8
0
 62
7
  6
CONTINUOUS
 10
257.6007194108
 20
124.7375733138
 11
257.6004148011
 21
124.7377698274
  0
LINE
  8
SURFACE
 62
7
  6
CONTINUOUS
 10
218.2005511061
 20
152.8377698274
 11
218.2002464964
 21
152.837966341
  0
POLYLINE
  8
SURFACE
 62
7
  6
CONTINUOUS
 66
1
 70
0
  0
VERTEX
  8
SURFACE
 62
7
  6
CONTINUOUS
 10
218.2002464964
 20
152.837966341
  0
VERTEX
  8
SURFACE
 62
7
  6
CONTINUOUS
 10
218.1897760487
 20
152.9034520516
  0
VERTEX
  8
SURFACE
 62
7
  6
CONTINUOUS
 10
218.1797255219
 20
153.0839010305
  0
VERTEX
  8
SURFACE
 62
7
  6
CONTINUOUS
 10
218.1704757841
 20
153.3724683015
  0
VERTEX
  8
SURFACE
 62
7
  6
CONTINUOUS
 10
218.162377255
 20
153.7582105435
  0
VERTEX
  8
SURFACE
 62
7
  6
CONTINUOUS
 10
218.1557366251
 20
154.2265047108
  0
VERTEX
  8
SURFACE
 62
7
  6
CONTINUOUS
 10
218.1508052729
 20
154.7596055372
  0
VERTEX
  8
SURFACE
 62
7
  6
CONTINUOUS
 10
218.1477698057
 20
155.337319606
  0
VERTEX
  8
SURFACE
 62
7
  6
CONTINUOUS
 10
218.1467450609
 20
155.9377698274
  0
SEQEND
  0
LINE
  8
0
 62
7
  6
CONTINUOUS
 10
232.2546906298
 20
172.9710888018
 11
232.252294906
 21
173.4884170025
  0
LINE
  8
DEFAULT_1
 62
2
  6
CENTER
 10
225.2011212339
 20
154.4627791473
 11
225.2011212339
 21
149.0378791473
  0
LINE
  8
0
 62
2
  6
CONTINUOUS
 10
225.2011212339
 20
148.5227791473
 11
225.2011212339
 21
145.5527791473
  0
LINE
  8
DEFAULT_1
 62
2
  6
CENTER
 10
225.2011212339
 20
139.6127791473
 11
225.2011212339
 21
145.0376791473
  0
LINE
  8
0
 62
7
  6
CONTINUOUS
 10
232.2016913617
 20
152.5374651446
 11
232.2016913617
 21
152.8377698302
  0
LINE
  8
0
 62
7
  6
CONTINUOUS
 10
232.2554974069
 20
155.9377698274
 11
232.2546906298
 21
172.9710888018
  0
POLYLINE
  8
0
 62
7
  6
CONTINUOUS
 66
1
 70
0
  0
VERTEX
  8
0
 62
7
  6
CONTINUOUS
 10
232.2019959714
 20
152.837966341
  0
VERTEX
  8
0
 62
7
  6
CONTINUOUS
 10
232.2124664191
 20
152.9034520516
  0
VERTEX
  8
0
 62
7
  6
CONTINUOUS
 10
232.2225169459
 20
153.0839010305
  0
VERTEX
  8
0
 62
7
  6
CONTINUOUS
 10
232.2317666837
 20
153.3724683015
  0
VERTEX
  8
0
 62
7
  6
CONTINUOUS
 10
232.2398652128
 20
153.7582105435
  0
VERTEX
  8
0
 62
7
  6
CONTINUOUS
 10
232.2465058428
 20
154.2265047108
  0
VERTEX
  8
0
 62
7
  6
CONTINUOUS
 10
232.2514371949
 20
154.7596055372
  0
VERTEX
  8
0
 62
7
  6
CONTINUOUS
 10
232.2544726622
 20
155.337319606
  0
VERTEX
  8
0
 62
7
  6
CONTINUOUS
 10
232.2554974069
 20
155.9377698274
  0
SEQEND
  0
LINE
  8
0
 62
7
  6
CONTINUOUS
 10
232.2019959714
 20
152.837966341
 11
232.2016913617
 21
152.8377698274
  0
LINE
  8
SURFACE
 62
7
  6
CONTINUOUS
 10
192.8018276667
 20
124.7377698274
 11
192.801523057
 21
124.7375733138
  0
POLYLINE
  8
0
 62
7
  6
CONTINUOUS
 66
1
 70
0
  0
VERTEX
  8
0
 62
7
  6
CONTINUOUS
 10
369.1411212339
 20
174.1061867059
  0
VERTEX
  8
0
 62
7
  6
CONTINUOUS
 10
368.9031390351
 20
174.0797928312
  0
VERTEX
  8
0
 62
7
  6
CONTINUOUS
 10
368.6680832664
 20
173.9976949815
  0
VERTEX
  8
0
 62
7
  6
CONTINUOUS
 10
368.4475796393
 20
173.8554449536
  0
VERTEX
  8
0
 62
7
  6
CONTINUOUS
 10
368.3494515034
 20
173.7626312087
  0
VERTEX
  8
0
 62
7
  6
CONTINUOUS
 10
368.1910395262
 20
173.5425375565
  0
VERTEX
  8
0
 62
7
  6
CONTINUOUS
 10
368.0941655782
 20
173.2946685706
  0
VERTEX
  8
0
 62
7
  6
CONTINUOUS
 10
368.0614798626
 20
173.0377698274
  0
SEQEND
  0
POLYLINE
  8
0
 62
7
  6
CONTINUOUS
 66
1
 70
0
  0
VERTEX
  8
0
 62
7
  6
CONTINUOUS
 10
340.2011212339
 20
174.1061867059
  0
VERTEX
  8
0
 62
7
  6
CONTINUOUS
 10
339.9631390351
 20
174.0797928312
  0
VERTEX
  8
0
 62
7
  6
CONTINUOUS
 10
339.7280832664
 20
173.9976949815
  0
VERTEX
  8
0
 62
7
  6
CONTINUOUS
 10
339.5075796393
 20
173.8554449536
  0
VERTEX
  8
0
 62
7
  6
CONTINUOUS
 10
339.4094515034
 20
173.7626312087
  0
VERTEX
  8
0
 62
7
  6
CONTINUOUS
 10
339.2510395262
 20
173.5425375565
  0
VERTEX
  8
0
 62
7
  6
CONTINUOUS
 10
339.1541655782
 20
173.2946685706
  0
VERTEX
  8
0
 62
7
  6
CONTINUOUS
 10
339.1214798626
 20
173.0377698274
  0
SEQEND
  0
POLYLINE
  8
0
 62
7
  6
CONTINUOUS
 66
1
 70
0
  0
VERTEX
  8
0
 62
7
  6
CONTINUOUS
 10
313.6111212339
 20
174.1061867059
  0
VERTEX
  8
0
 62
7
  6
CONTINUOUS
 10
313.3731390351
 20
174.0797928312
  0
VERTEX
  8
0
 62
7
  6
CONTINUOUS
 10
313.1380832664
 20
173.9976949815
  0
VERTEX
  8
0
 62
7
  6
CONTINUOUS
 10
312.9175796393
 20
173.8554449536
  0
VERTEX
  8
0
 62
7
  6
CONTINUOUS
 10
312.8194515034
 20
173.7626312087
  0
VERTEX
  8
0
 62
7
  6
CONTINUOUS
 10
312.6610395262
 20
173.5425375565
  0
VERTEX
  8
0
 62
7
  6
CONTINUOUS
 10
312.5641655782
 20
173.2946685706
  0
VERTEX
  8
0
 62
7
  6
CONTINUOUS
 10
312.5314798626
 20
173.0377698274
  0
SEQEND
  0
POLYLINE
  8
SURFACE
 62
7
  6
CONTINUOUS
 66
1
 70
0
  0
VERTEX
  8
SURFACE
 62
7
  6
CONTINUOUS
 10
81.2611212339
 20
174.1061867059
  0
VERTEX
  8
SURFACE
 62
7
  6
CONTINUOUS
 10
81.4991034327
 20
174.0797928312
  0
VERTEX
  8
SURFACE
 62
7
  6
CONTINUOUS
 10
81.7341592014
 20
173.9976949815
  0
VERTEX
  8
SURFACE
 62
7
  6
CONTINUOUS
 10
81.9546628285
 20
173.8554449536
  0
VERTEX
  8
SURFACE
 62
7
  6
CONTINUOUS
 10
82.0527909644
 20
173.7626312087
  0
VERTEX
  8
SURFACE
 62
7
  6
CONTINUOUS
 10
82.2112029416
 20
173.5425375565
  0
VERTEX
  8
SURFACE
 62
7
  6
CONTINUOUS
 10
82.3080768896
 20
173.2946685706
  0
VERTEX
  8
SURFACE
 62
7
  6
CONTINUOUS
 10
82.3407626052
 20
173.0377698274
  0
SEQEND
  0
POLYLINE
  8
SURFACE
 62
7
  6
CONTINUOUS
 66
1
 70
0
  0
VERTEX
  8
SURFACE
 62
7
  6
CONTINUOUS
 10
110.2011212339
 20
174.1061867059
  0
VERTEX
  8
SURFACE
 62
7
  6
CONTINUOUS
 10
110.4391034327
 20
174.0797928312
  0
VERTEX
  8
SURFACE
 62
7
  6
CONTINUOUS
 10
110.6741592014
 20
173.9976949815
  0
VERTEX
  8
SURFACE
 62
7
  6
CONTINUOUS
 10
110.8946628285
 20
173.8554449536
  0
VERTEX
  8
SURFACE
 62
7
  6
CONTINUOUS
 10
110.9927909644
 20
173.7626312087
  0
VERTEX
  8
SURFACE
 62
7
  6
CONTINUOUS
 10
111.1512029416
 20
173.5425375565
  0
VERTEX
  8
SURFACE
 62
7
  6
CONTINUOUS
 10
111.2480768896
 20
173.2946685706
  0
VERTEX
  8
SURFACE
 62
7
  6
CONTINUOUS
 10
111.2807626052
 20
173.0377698274
  0
SEQEND
  0
POLYLINE
  8
0
 62
7
  6
CONTINUOUS
 66
1
 70
0
  0
VERTEX
  8
0
 62
7
  6
CONTINUOUS
 10
384.3150418359
 20
112.5043531401
  0
VERTEX
  8
0
 62
7
  6
CONTINUOUS
 10
384.3539706066
 20
112.4923766778
  0
VERTEX
  8
0
 62
7
  6
CONTINUOUS
 10
384.4414964389
 20
112.4850261364
  0
SEQEND
  0
LINE
  8
SURFACE
 62
7
  6
CONTINUOUS
 10
181.693864271
 20
178.346863461
 11
181.6979697656
 21
178.3449814478
  0
LINE
  8
0
 62
7
  6
CONTINUOUS
 10
235.1988335844
 20
176.2685750266
 11
235.1974077893
 21
176.3219562719
  0
LINE
  8
0
 62
7
  6
CONTINUOUS
 10
240.5975570238
 20
117.809284
 11
240.5989388389
 21
117.756731923
  0
LINE
  8
0
 62
7
  6
CONTINUOUS
 10
235.1988335844
 20
176.2685750266
 11
235.1988335844
 21
151.1661969522
  0
LINE
  8
0
 62
7
  6
CONTINUOUS
 10
236.0975570238
 20
122.1856489675
 11
236.0975570238
 21
121.0898906874
  0
LINE
  8
0
 62
7
  6
CONTINUOUS
 10
240.5975570238
 20
142.9093427027
 11
240.5975570238
 21
117.809284
  0
LINE
  8
0
 62
7
  6
CONTINUOUS
 10
243.5972523677
 20
141.5380745102
 11
243.5972523677
 21
124.7377698247
  0
POLYLINE
  8
0
 62
7
  6
CONTINUOUS
 66
1
 70
0
  0
VERTEX
  8
0
 62
7
  6
CONTINUOUS
 10
243.5469674394
 20
122.7377698274
  0
VERTEX
  8
0
 62
7
  6
CONTINUOUS
 10
243.5513373491
 20
123.2497567176
  0
VERTEX
  8
0
 62
7
  6
CONTINUOUS
 10
243.5572695278
 20
123.7072666331
  0
VERTEX
  8
0
 62
7
  6
CONTINUOUS
 10
243.5645636716
 20
124.0948391762
  0
VERTEX
  8
0
 62
7
  6
CONTINUOUS
 10
243.5686460861
 20
124.2581989429
  0
VERTEX
  8
0
 62
7
  6
CONTINUOUS
 10
243.5775091638
 20
124.5171540115
  0
VERTEX
  8
0
 62
7
  6
CONTINUOUS
 10
243.587050548
 20
124.6787725599
  0
VERTEX
  8
0
 62
7
  6
CONTINUOUS
 10
243.596947758
 20
124.7375733138
  0
SEQEND
  0
LINE
  8
0
 62
7
  6
CONTINUOUS
 10
269.1249676713
 20
178.4377691747
 11
268.9397064327
 21
178.4204570615
  0
POLYLINE
  8
SURFACE
 62
7
  6
CONTINUOUS
 66
1
 70
0
  0
VERTEX
  8
SURFACE
 62
7
  6
CONTINUOUS
 10
220.1877656152
 20
175.4499897297
  0
VERTEX
  8
SURFACE
 62
7
  6
CONTINUOUS
 10
220.023106822
 20
175.4436821735
  0
VERTEX
  8
SURFACE
 62
7
  6
CONTINUOUS
 10
219.8373754303
 20
175.4213056343
  0
VERTEX
  8
SURFACE
 62
7
  6
CONTINUOUS
 10
219.6344887343
 20
175.3775833539
  0
VERTEX
  8
SURFACE
 62
7
  6
CONTINUOUS
 10
219.4163290783
 20
175.3061800612
  0
VERTEX
  8
SURFACE
 62
7
  6
CONTINUOUS
 10
219.1823656445
 20
175.197611516
  0
VERTEX
  8
SURFACE
 62
7
  6
CONTINUOUS
 10
219.0535513338
 20
175.1213312711
  0
VERTEX
  8
SURFACE
 62
7
  6
CONTINUOUS
 10
218.7667804337
 20
174.8975497845
  0
VERTEX
  8
SURFACE
 62
7
  6
CONTINUOUS
 10
218.4913149381
 20
174.5766030942
  0
VERTEX
  8
SURFACE
 62
7
  6
CONTINUOUS
 10
218.2983507279
 20
174.2213208478
  0
VERTEX
  8
SURFACE
 62
7
  6
CONTINUOUS
 10
218.1868513065
 20
173.8535873439
  0
VERTEX
  8
SURFACE
 62
7
  6
CONTINUOUS
 10
218.1499475618
 20
173.4884170025
  0
SEQEND
  0
LINE
  8
DEFAULT_1
 62
2
  6
CENTER
 10
53.8988335844
 20
172.4377698274
 11
388.8988335844
 21
172.4377698274
  0
LINE
  8
0
 62
7
  6
CONTINUOUS
 10
370.1411212339
 20
174.1061867059
 11
369.1411212339
 21
174.1061867059
  0
LINE
  8
0
 62
7
  6
CONTINUOUS
 10
341.2011212339
 20
174.1061867059
 11
340.2011212339
 21
174.1061867059
  0
LINE
  8
0
 62
7
  6
CONTINUOUS
 10
314.6111212339
 20
174.1061867059
 11
313.6111212339
 21
174.1061867059
  0
LINE
  8
SURFACE
 62
7
  6
CONTINUOUS
 10
80.2611212339
 20
174.1061867059
 11
81.2611212339
 21
174.1061867059
  0
LINE
  8
SURFACE
 62
7
  6
CONTINUOUS
 10
109.2011212339
 20
174.1061867059
 11
110.2011212339
 21
174.1061867059
  0
LINE
  8
SURFACE
 62
7
  6
CONTINUOUS
 10
135.7911212339
 20
174.1061867059
 11
136.7911212339
 21
174.1061867059
  0
LINE
  8
0
 62
7
  6
CONTINUOUS
 10
281.0119237314
 20
175.4499897297
 11
270.9857434374
 21
175.4499897297
  0
LINE
  8
0
 62
7
  6
CONTINUOUS
 10
230.2144768526
 20
175.4499897297
 11
220.1877656152
 21
175.4499897297
  0
LINE
  8
SURFACE
 62
7
  6
CONTINUOUS
 10
169.3903187364
 20
175.4499897297
 11
179.4164990304
 21
175.4499897297
  0
POLYLINE
  8
0
 62
7
  6
CONTINUOUS
 66
1
 70
0
  0
VERTEX
  8
0
 62
7
  6
CONTINUOUS
 10
230.2144768526
 20
175.4499897297
  0
VERTEX
  8
0
 62
7
  6
CONTINUOUS
 10
230.3791356459
 20
175.4436821735
  0
VERTEX
  8
0
 62
7
  6
CONTINUOUS
 10
230.5648670376
 20
175.4213056343
  0
VERTEX
  8
0
 62
7
  6
CONTINUOUS
 10
230.7677537335
 20
175.3775833539
  0
VERTEX
  8
0
 62
7
  6
CONTINUOUS
 10
230.9859133896
 20
175.3061800612
  0
VERTEX
  8
0
 62
7
  6
CONTINUOUS
 10
231.2198768233
 20
175.197611516
  0
VERTEX
  8
0
 62
7
  6
CONTINUOUS
 10
231.348691134
 20
175.1213312711
  0
VERTEX
  8
0
 62
7
  6
CONTINUOUS
 10
231.6354620342
 20
174.8975497845
  0
VERTEX
  8
0
 62
7
  6
CONTINUOUS
 10
231.9109275297
 20
174.5766030942
  0
VERTEX
  8
0
 62
7
  6
CONTINUOUS
 10
232.1038917399
 20
174.2213208478
  0
VERTEX
  8
0
 62
7
  6
CONTINUOUS
 10
232.2153911613
 20
173.8535873439
  0
VERTEX
  8
0
 62
7
  6
CONTINUOUS
 10
232.252294906
 20
173.4884170025
  0
SEQEND
  0
LINE
  8
SURFACE
 62
7
  6
CONTINUOUS
 10
181.4615536971
 20
178.4206417393
 11
181.2772747966
 21
178.4377691747
  0
POLYLINE
  8
SURFACE
 62
7
  6
CONTINUOUS
 66
1
 70
0
  0
VERTEX
  8
SURFACE
 62
7
  6
CONTINUOUS
 10
136.7911212339
 20
174.1061867059
  0
VERTEX
  8
SURFACE
 62
7
  6
CONTINUOUS
 10
137.0291034327
 20
174.0797928312
  0
VERTEX
  8
SURFACE
 62
7
  6
CONTINUOUS
 10
137.2641592014
 20
173.9976949815
  0
VERTEX
  8
SURFACE
 62
7
  6
CONTINUOUS
 10
137.4846628285
 20
173.8554449536
  0
VERTEX
  8
SURFACE
 62
7
  6
CONTINUOUS
 10
137.5827909644
 20
173.7626312087
  0
VERTEX
  8
SURFACE
 62
7
  6
CONTINUOUS
 10
137.7412029416
 20
173.5425375565
  0
VERTEX
  8
SURFACE
 62
7
  6
CONTINUOUS
 10
137.8380768896
 20
173.2946685706
  0
VERTEX
  8
SURFACE
 62
7
  6
CONTINUOUS
 10
137.8707626052
 20
173.0377698274
  0
SEQEND
  0
LINE
  8
SURFACE
 62
7
  6
CONTINUOUS
 10
181.6938714219
 20
178.3468603362
 11
181.461544463
 21
178.4206446719
  0
LINE
  8
0
 62
7
  6
CONTINUOUS
 10
378.6436108491
 20
114.6814110771
 11
384.3150875127
 21
112.5043351604
  0
POLYLINE
  8
0
 62
7
  6
CONTINUOUS
 66
1
 70
0
  0
VERTEX
  8
0
 62
7
  6
CONTINUOUS
 10
243.5469674394
 20
122.7377698274
  0
VERTEX
  8
0
 62
7
  6
CONTINUOUS
 10
243.5767144321
 20
122.4774758031
  0
VERTEX
  8
0
 62
7
  6
CONTINUOUS
 10
243.6658703182
 20
122.2354521918
  0
VERTEX
  8
0
 62
7
  6
CONTINUOUS
 10
243.8123945225
 20
122.0176261056
  0
VERTEX
  8
0
 62
7
  6
CONTINUOUS
 10
243.9046528429
 20
121.9230529449
  0
VERTEX
  8
0
 62
7
  6
CONTINUOUS
 10
244.1235200276
 20
121.7684738287
  0
VERTEX
  8
0
 62
7
  6
CONTINUOUS
 10
244.3746473076
 20
121.6711502473
  0
VERTEX
  8
0
 62
7
  6
CONTINUOUS
 10
244.6436138833
 20
121.6377698274
  0
SEQEND
  0
POLYLINE
  8
0
 62
7
  6
CONTINUOUS
 66
1
 70
0
  0
VERTEX
  8
0
 62
7
  6
CONTINUOUS
 10
257.6506997294
 20
122.7377698274
  0
VERTEX
  8
0
 62
7
  6
CONTINUOUS
 10
257.6463298197
 20
123.2497567176
  0
VERTEX
  8
0
 62
7
  6
CONTINUOUS
 10
257.640397641
 20
123.7072666331
  0
VERTEX
  8
0
 62
7
  6
CONTINUOUS
 10
257.6331034972
 20
124.0948391762
  0
VERTEX
  8
0
 62
7
  6
CONTINUOUS
 10
257.6290210827
 20
124.2581989429
  0
VERTEX
  8
0
 62
7
  6
CONTINUOUS
 10
257.620158005
 20
124.5171540115
  0
VERTEX
  8
0
 62
7
  6
CONTINUOUS
 10
257.6106166208
 20
124.6787725599
  0
VERTEX
  8
0
 62
7
  6
CONTINUOUS
 10
257.6007194108
 20
124.7375733138
  0
SEQEND
  0
LINE
  8
0
 62
7
  6
CONTINUOUS
 10
257.6004148011
 20
124.7377698247
 11
257.6004148011
 21
141.5380745102
  0
LINE
  8
0
 62
7
  6
CONTINUOUS
 10
282.9994428502
 20
152.837966341
 11
282.9991382405
 21
152.8377698274
  0
LINE
  8
0
 62
7
  6
CONTINUOUS
 10
243.5972523677
 20
124.7377698274
 11
243.596947758
 21
124.7375733138
  0
POLYLINE
  8
SURFACE
 62
7
  6
CONTINUOUS
 66
1
 70
0
  0
VERTEX
  8
SURFACE
 62
7
  6
CONTINUOUS
 10
167.5295427712
 20
178.4377691197
  0
VERTEX
  8
SURFACE
 62
7
  6
CONTINUOUS
 10
167.3452509683
 20
178.4206406449
  0
VERTEX
  8
SURFACE
 62
7
  6
CONTINUOUS
 10
167.1129462433
 20
178.3468603023
  0
SEQEND
  0
POLYLINE
  8
SURFACE
 62
7
  6
CONTINUOUS
 66
1
 70
0
  0
VERTEX
  8
SURFACE
 62
7
  6
CONTINUOUS
 10
169.3903187364
 20
175.4499897297
  0
VERTEX
  8
SURFACE
 62
7
  6
CONTINUOUS
 10
169.2256599432
 20
175.4436821735
  0
VERTEX
  8
SURFACE
 62
7
  6
CONTINUOUS
 10
169.0399285515
 20
175.4213056343
  0
VERTEX
  8
SURFACE
 62
7
  6
CONTINUOUS
 10
168.8370418556
 20
175.3775833539
  0
VERTEX
  8
SURFACE
 62
7
  6
CONTINUOUS
 10
168.6188821995
 20
175.3061800612
  0
VERTEX
  8
SURFACE
 62
7
  6
CONTINUOUS
 10
168.3849187658
 20
175.197611516
  0
VERTEX
  8
SURFACE
 62
7
  6
CONTINUOUS
 10
168.2561044551
 20
175.1213312711
  0
VERTEX
  8
SURFACE
 62
7
  6
CONTINUOUS
 10
167.9693335549
 20
174.8975497845
  0
VERTEX
  8
SURFACE
 62
7
  6
CONTINUOUS
 10
167.6938680593
 20
174.5766030942
  0
VERTEX
  8
SURFACE
 62
7
  6
CONTINUOUS
 10
167.5009038492
 20
174.2213208478
  0
VERTEX
  8
SURFACE
 62
7
  6
CONTINUOUS
 10
167.3894044278
 20
173.8535873439
  0
VERTEX
  8
SURFACE
 62
7
  6
CONTINUOUS
 10
167.352500683
 20
173.4884170025
  0
SEQEND
  0
LINE
  8
0
 62
7
  6
CONTINUOUS
 10
282.8737625063
 20
178.4372041924
 11
269.1239044689
 21
178.4372041924
  0
LINE
  8
SURFACE
 62
7
  6
CONTINUOUS
 10
167.5284799615
 20
178.4372041924
 11
181.278337999
 21
178.4372041924
  0
LINE
  8
0
 62
7
  6
CONTINUOUS
 10
218.3272576915
 20
178.4377698274
 11
232.0749847764
 21
178.4377698274
  0
LINE
  8
0
 62
7
  6
CONTINUOUS
 10
373.8488634567
 20
180.4377698274
 11
365.4488024565
 21
180.4377698274
  0
LINE
  8
0
 62
7
  6
CONTINUOUS
 10
344.8988566108
 20
180.4377698274
 11
336.4988117568
 21
180.4377698274
  0
LINE
  8
0
 62
7
  6
CONTINUOUS
 10
318.2988630694
 20
180.4377698274
 11
309.8988067437
 21
180.4377698274
  0
LINE
  8
SURFACE
 62
7
  6
CONTINUOUS
 10
76.5533790112
 20
180.4377698274
 11
84.9534400113
 21
180.4377698274
  0
LINE
  8
SURFACE
 62
7
  6
CONTINUOUS
 10
105.503385857
 20
180.4377698274
 11
113.9034307111
 21
180.4377698274
  0
LINE
  8
SURFACE
 62
7
  6
CONTINUOUS
 10
132.1033793985
 20
180.4377698274
 11
140.5034357241
 21
180.4377698274
  0
POLYLINE
  8
0
 62
7
  6
CONTINUOUS
 66
1
 70
0
  0
VERTEX
  8
0
 62
7
  6
CONTINUOUS
 10
281.0119237314
 20
175.4499897297
  0
VERTEX
  8
0
 62
7
  6
CONTINUOUS
 10
281.1765825246
 20
175.4436821735
  0
VERTEX
  8
0
 62
7
  6
CONTINUOUS
 10
281.3623139163
 20
175.4213056343
  0
VERTEX
  8
0
 62
7
  6
CONTINUOUS
 10
281.5652006123
 20
175.3775833539
  0
VERTEX
  8
0
 62
7
  6
CONTINUOUS
 10
281.7833602683
 20
175.3061800612
  0
VERTEX
  8
0
 62
7
  6
CONTINUOUS
 10
282.0173237021
 20
175.197611516
  0
VERTEX
  8
0
 62
7
  6
CONTINUOUS
 10
282.1461380128
 20
175.1213312711
  0
VERTEX
  8
0
 62
7
  6
CONTINUOUS
 10
282.4329089129
 20
174.8975497845
  0
VERTEX
  8
0
 62
7
  6
CONTINUOUS
 10
282.7083744085
 20
174.5766030942
  0
VERTEX
  8
0
 62
7
  6
CONTINUOUS
 10
282.9013386186
 20
174.2213208478
  0
VERTEX
  8
0
 62
7
  6
CONTINUOUS
 10
283.0128380401
 20
173.8535873439
  0
VERTEX
  8
0
 62
7
  6
CONTINUOUS
 10
283.0497417848
 20
173.4884170025
  0
SEQEND
  0
LINE
  8
0
 62
7
  6
CONTINUOUS
 10
283.057973636
 20
178.4204559823
 11
282.8726996967
 21
178.4377691197
  0
LINE
  8
0
 62
7
  6
CONTINUOUS
 10
268.9985289283
 20
152.8377698274
 11
268.9982243186
 21
152.837966341
  0
LINE
  8
0
 62
7
  6
CONTINUOUS
 10
260.600110145
 20
142.9093427027
 11
260.600110145
 21
117.809284
  0
LINE
  8
0
 62
7
  6
CONTINUOUS
 10
265.100110145
 20
122.1856489675
 11
265.100110145
 21
121.0898906874
  0
LINE
  8
0
 62
7
  6
CONTINUOUS
 10
265.9988335844
 20
151.1661969522
 11
265.9988335844
 21
176.2670865133
  0
LINE
  8
0
 62
7
  6
CONTINUOUS
 10
268.9985289283
 20
152.8377698302
 11
268.9985289283
 21
152.5374651446
  0
POLYLINE
  8
0
 62
7
  6
CONTINUOUS
 66
1
 70
0
  0
VERTEX
  8
0
 62
7
  6
CONTINUOUS
 10
268.9447228831
 20
155.9377698274
  0
VERTEX
  8
0
 62
7
  6
CONTINUOUS
 10
268.9455296603
 20
172.9710888018
  0
VERTEX
  8
0
 62
7
  6
CONTINUOUS
 10
268.947925384
 20
173.4884170025
  0
SEQEND
  0
LINE
  8
0
 62
7
  6
CONTINUOUS
 10
260.5987281239
 20
117.7567280087
 11
260.600110145
 21
117.809284
  0
LINE
  8
0
 62
7
  6
CONTINUOUS
 10
266.0002299962
 20
176.319915232
 11
265.9988335844
 21
176.2670865133
  0
POLYLINE
  8
0
 62
7
  6
CONTINUOUS
 66
1
 70
0
  0
VERTEX
  8
0
 62
7
  6
CONTINUOUS
 10
268.947925384
 20
173.4884170025
  0
VERTEX
  8
0
 62
7
  6
CONTINUOUS
 10
268.987188617
 20
173.8653263431
  0
VERTEX
  8
0
 62
7
  6
CONTINUOUS
 10
269.1061331996
 20
174.2445121979
  0
VERTEX
  8
0
 62
7
  6
CONTINUOUS
 10
269.3132540755
 20
174.6107384587
  0
VERTEX
  8
0
 62
7
  6
CONTINUOUS
 10
269.6091549552
 20
174.9380011017
  0
VERTEX
  8
0
 62
7
  6
CONTINUOUS
 10
269.9037686896
 20
175.153825545
  0
VERTEX
  8
0
 62
7
  6
CONTINUOUS
 10
270.1592121862
 20
175.283788546
  0
VERTEX
  8
0
 62
7
  6
CONTINUOUS
 10
270.3946768515
 20
175.3670970108
  0
VERTEX
  8
0
 62
7
  6
CONTINUOUS
 10
270.6129265462
 20
175.4174842327
  0
VERTEX
  8
0
 62
7
  6
CONTINUOUS
 10
270.8092943264
 20
175.44274615
  0
VERTEX
  8
0
 62
7
  6
CONTINUOUS
 10
270.9857434374
 20
175.4499897297
  0
SEQEND
  0
LINE
  8
0
 62
7
  6
CONTINUOUS
 10
283.2892898962
 20
178.3468632443
 11
283.0579663414
 21
178.420456664
  0
POLYLINE
  8
0
 62
7
  6
CONTINUOUS
 66
1
 70
0
  0
VERTEX
  8
0
 62
7
  6
CONTINUOUS
 10
268.9982243186
 20
152.837966341
  0
VERTEX
  8
0
 62
7
  6
CONTINUOUS
 10
268.9877538709
 20
152.9034520516
  0
VERTEX
  8
0
 62
7
  6
CONTINUOUS
 10
268.9777033441
 20
153.0839010305
  0
VERTEX
  8
0
 62
7
  6
CONTINUOUS
 10
268.9684536064
 20
153.3724683015
  0
VERTEX
  8
0
 62
7
  6
CONTINUOUS
 10
268.9603550772
 20
153.7582105435
  0
VERTEX
  8
0
 62
7
  6
CONTINUOUS
 10
268.9537144473
 20
154.2265047108
  0
VERTEX
  8
0
 62
7
  6
CONTINUOUS
 10
268.9487830952
 20
154.7596055372
  0
VERTEX
  8
0
 62
7
  6
CONTINUOUS
 10
268.9457476279
 20
155.337319606
  0
VERTEX
  8
0
 62
7
  6
CONTINUOUS
 10
268.9447228831
 20
155.9377698274
  0
SEQEND
  0
LINE
  8
0
 62
7
  6
CONTINUOUS
 10
319.7831121002
 20
143.7034913116
 11
319.7962939727
 21
143.7110294301
  0
LINE
  8
0
 62
7
  6
CONTINUOUS
 10
283.2933944666
 20
178.3449814478
 11
283.2892359046
 21
178.3468877794
  0
LINE
  8
0
 62
7
  6
CONTINUOUS
 10
285.9988335844
 20
176.2670865133
 11
285.997437219
 21
176.3199143569
  0
LINE
  8
0
 62
7
  6
CONTINUOUS
 10
291.3975570238
 20
117.809284
 11
291.3989388389
 21
117.756731923
  0
LINE
  8
0
 62
7
  6
CONTINUOUS
 10
283.0521375085
 20
172.9710888018
 11
283.0497417848
 21
173.4884170025
  0
LINE
  8
0
 62
7
  6
CONTINUOUS
 10
282.9991382405
 20
152.5374651446
 11
282.9991382405
 21
152.8377698302
  0
LINE
  8
0
 62
7
  6
CONTINUOUS
 10
283.0529442857
 20
155.9377698274
 11
283.0521375085
 21
172.9710888018
  0
LINE
  8
0
 62
7
  6
CONTINUOUS
 10
285.9988335844
 20
151.1661969522
 11
285.9988335844
 21
176.2670865133
  0
LINE
  8
0
 62
7
  6
CONTINUOUS
 10
286.8975570238
 20
122.1856489675
 11
286.8975570238
 21
121.0898906874
  0
LINE
  8
0
 62
7
  6
CONTINUOUS
 10
291.3975570238
 20
117.809284
 11
291.3975570238
 21
142.9093427027
  0
POLYLINE
  8
0
 62
7
  6
CONTINUOUS
 66
1
 70
0
  0
VERTEX
  8
0
 62
7
  6
CONTINUOUS
 10
282.9994428502
 20
152.837966341
  0
VERTEX
  8
0
 62
7
  6
CONTINUOUS
 10
283.0099132979
 20
152.9034520516
  0
VERTEX
  8
0
 62
7
  6
CONTINUOUS
 10
283.0199638247
 20
153.0839010305
  0
VERTEX
  8
0
 62
7
  6
CONTINUOUS
 10
283.0292135625
 20
153.3724683015
  0
VERTEX
  8
0
 62
7
  6
CONTINUOUS
 10
283.0373120916
 20
153.7582105435
  0
VERTEX
  8
0
 62
7
  6
CONTINUOUS
 10
283.0439527215
 20
154.2265047108
  0
VERTEX
  8
0
 62
7
  6
CONTINUOUS
 10
283.0488840737
 20
154.7596055372
  0
VERTEX
  8
0
 62
7
  6
CONTINUOUS
 10
283.0519195409
 20
155.337319606
  0
VERTEX
  8
0
 62
7
  6
CONTINUOUS
 10
283.0529442857
 20
155.9377698274
  0
SEQEND
  0
POLYLINE
  8
0
 62
7
  6
CONTINUOUS
 66
1
 70
0
  0
VERTEX
  8
0
 62
7
  6
CONTINUOUS
 10
319.6696328204
 20
151.5637812941
  0
VERTEX
  8
0
 62
7
  6
CONTINUOUS
 10
319.6375851146
 20
151.5302340724
  0
VERTEX
  8
0
 62
7
  6
CONTINUOUS
 10
319.5581953507
 20
151.44954134
  0
VERTEX
  8
0
 62
7
  6
CONTINUOUS
 10
319.5131578877
 20
151.4029651983
  0
VERTEX
  8
0
 62
7
  6
CONTINUOUS
 10
319.4169427814
 20
151.3012709157
  0
VERTEX
  8
0
 62
7
  6
CONTINUOUS
 10
319.3674735692
 20
151.2484897033
  0
SEQEND
  0
POLYLINE
  8
0
 62
7
  6
CONTINUOUS
 66
1
 70
0
  0
VERTEX
  8
0
 62
7
  6
CONTINUOUS
 10
319.7433937502
 20
151.6332096616
  0
VERTEX
  8
0
 62
7
  6
CONTINUOUS
 10
319.7242552137
 20
151.6159625553
  0
VERTEX
  8
0
 62
7
  6
CONTINUOUS
 10
319.6695654778
 20
151.5637286337
  0
SEQEND
  0
LINE
  8
0
 62
7
  6
CONTINUOUS
 10
294.3972523677
 20
124.7377698274
 11
294.396947758
 21
124.7375733138
  0
POLYLINE
  8
0
 62
7
  6
CONTINUOUS
 66
1
 70
0
  0
VERTEX
  8
0
 62
7
  6
CONTINUOUS
 10
348.2822941098
 20
150.419309302
  0
VERTEX
  8
0
 62
7
  6
CONTINUOUS
 10
348.2759060168
 20
150.415296543
  0
VERTEX
  8
0
 62
7
  6
CONTINUOUS
 10
348.233194739
 20
150.376048064
  0
VERTEX
  8
0
 62
7
  6
CONTINUOUS
 10
348.153848081
 20
150.2982343921
  0
VERTEX
  8
0
 62
7
  6
CONTINUOUS
 10
348.1024494046
 20
150.2468368362
  0
VERTEX
  8
0
 62
7
  6
CONTINUOUS
 10
347.9801999549
 20
150.1230454202
  0
VERTEX
  8
0
 62
7
  6
CONTINUOUS
 10
347.7716619655
 20
149.9086817522
  0
SEQEND
  0
POLYLINE
  8
0
 62
7
  6
CONTINUOUS
 66
1
 70
0
  0
VERTEX
  8
0
 62
7
  6
CONTINUOUS
 10
347.5831109222
 20
143.7034924896
  0
VERTEX
  8
0
 62
7
  6
CONTINUOUS
 10
347.5962916296
 20
143.7110297594
  0
VERTEX
  8
0
 62
7
  6
CONTINUOUS
 10
347.6279125006
 20
143.7396764925
  0
VERTEX
  8
0
 62
7
  6
CONTINUOUS
 10
347.6748843052
 20
143.7866466413
  0
VERTEX
  8
0
 62
7
  6
CONTINUOUS
 10
347.7325722424
 20
143.8473045808
  0
VERTEX
  8
0
 62
7
  6
CONTINUOUS
 10
347.7952454223
 20
143.9156220582
  0
SEQEND
  0
LINE
  8
0
 62
7
  6
CONTINUOUS
 10
375.6831267664
 20
150.4227152366
 11
386.3683638673
 21
145.6791933982
  0
LINE
  8
0
 62
7
  6
CONTINUOUS
 10
319.7704064597
 20
143.7161969522
 11
321.2984151433
 21
142.1881882685
  0
LINE
  8
0
 62
7
  6
CONTINUOUS
 10
321.0272607092
 20
150.3493427027
 11
319.5924889152
 21
151.7841144966
  0
POLYLINE
  8
0
 62
7
  6
CONTINUOUS
 66
1
 70
0
  0
VERTEX
  8
0
 62
7
  6
CONTINUOUS
 10
294.3469674394
 20
122.7377698274
  0
VERTEX
  8
0
 62
7
  6
CONTINUOUS
 10
294.3767144321
 20
122.4774758031
  0
VERTEX
  8
0
 62
7
  6
CONTINUOUS
 10
294.4658703182
 20
122.2354521917
  0
VERTEX
  8
0
 62
7
  6
CONTINUOUS
 10
294.6123945226
 20
122.0176261056
  0
VERTEX
  8
0
 62
7
  6
CONTINUOUS
 10
294.704652843
 20
121.9230529448
  0
VERTEX
  8
0
 62
7
  6
CONTINUOUS
 10
294.9235200277
 20
121.7684738286
  0
VERTEX
  8
0
 62
7
  6
CONTINUOUS
 10
295.1746473077
 20
121.6711502472
  0
VERTEX
  8
0
 62
7
  6
CONTINUOUS
 10
295.4436138833
 20
121.6377698274
  0
SEQEND
  0
POLYLINE
  8
0
 62
7
  6
CONTINUOUS
 66
1
 70
0
  0
VERTEX
  8
0
 62
7
  6
CONTINUOUS
 10
304.1994231688
 20
122.7377698274
  0
VERTEX
  8
0
 62
7
  6
CONTINUOUS
 10
304.1950044782
 20
123.2543384084
  0
VERTEX
  8
0
 62
7
  6
CONTINUOUS
 10
304.1889957382
 20
123.7152474485
  0
VERTEX
  8
0
 62
7
  6
CONTINUOUS
 10
304.1816036585
 20
124.1046267699
  0
VERTEX
  8
0
 62
7
  6
CONTINUOUS
 10
304.1774667157
 20
124.2681913494
  0
VERTEX
  8
0
 62
7
  6
CONTINUOUS
 10
304.1684890695
 20
124.5260191938
  0
VERTEX
  8
0
 62
7
  6
CONTINUOUS
 10
304.158833858
 20
124.6843692547
  0
VERTEX
  8
0
 62
7
  6
CONTINUOUS
 10
304.1488335844
 20
124.7377698274
  0
SEQEND
  0
LINE
  8
0
 62
7
  6
CONTINUOUS
 10
294.3972523677
 20
141.5380745102
 11
294.3972523677
 21
124.7377698247
  0
LINE
  8
0
 62
7
  6
CONTINUOUS
 10
304.1488335844
 20
141.5735614764
 11
304.1488335844
 21
124.7377698274
  0
POLYLINE
  8
0
 62
7
  6
CONTINUOUS
 66
1
 70
0
  0
VERTEX
  8
0
 62
7
  6
CONTINUOUS
 10
294.3469674394
 20
122.7377698274
  0
VERTEX
  8
0
 62
7
  6
CONTINUOUS
 10
294.3513373491
 20
123.2497567176
  0
VERTEX
  8
0
 62
7
  6
CONTINUOUS
 10
294.3572695278
 20
123.7072666331
  0
VERTEX
  8
0
 62
7
  6
CONTINUOUS
 10
294.3645636716
 20
124.0948391762
  0
VERTEX
  8
0
 62
7
  6
CONTINUOUS
 10
294.3686460861
 20
124.2581989429
  0
VERTEX
  8
0
 62
7
  6
CONTINUOUS
 10
294.3775091638
 20
124.5171540115
  0
VERTEX
  8
0
 62
7
  6
CONTINUOUS
 10
294.387050548
 20
124.6787725599
  0
VERTEX
  8
0
 62
7
  6
CONTINUOUS
 10
294.396947758
 20
124.7375733138
  0
SEQEND
  0
LINE
  8
0
 62
7
  6
CONTINUOUS
 10
335.2051782536
 20
151.7841144966
 11
333.7704064597
 21
150.3493427027
  0
POLYLINE
  8
0
 62
7
  6
CONTINUOUS
 66
1
 70
0
  0
VERTEX
  8
0
 62
7
  6
CONTINUOUS
 10
319.7962939727
 20
143.7110294301
  0
VERTEX
  8
0
 62
7
  6
CONTINUOUS
 10
319.8279180952
 20
143.7396794026
  0
VERTEX
  8
0
 62
7
  6
CONTINUOUS
 10
319.874894789
 20
143.7866548452
  0
VERTEX
  8
0
 62
7
  6
CONTINUOUS
 10
319.9325875893
 20
143.8473183966
  0
VERTEX
  8
0
 62
7
  6
CONTINUOUS
 10
319.994884938
 20
143.9159825425
  0
SEQEND
  0
POLYLINE
  8
0
 62
7
  6
CONTINUOUS
 66
1
 70
0
  0
VERTEX
  8
0
 62
7
  6
CONTINUOUS
 10
334.3270825108
 20
150.6628568017
  0
VERTEX
  8
0
 62
7
  6
CONTINUOUS
 10
334.2840847976
 20
150.7054211401
  0
VERTEX
  8
0
 62
7
  6
CONTINUOUS
 10
334.2244891651
 20
150.7633406554
  0
VERTEX
  8
0
 62
7
  6
CONTINUOUS
 10
334.2031849017
 20
150.7821211447
  0
SEQEND
  0
POLYLINE
  8
0
 62
7
  6
CONTINUOUS
 66
1
 70
0
  0
VERTEX
  8
0
 62
7
  6
CONTINUOUS
 10
334.5685302349
 20
150.4203214533
  0
VERTEX
  8
0
 62
7
  6
CONTINUOUS
 10
334.6437299367
 20
150.3454171238
  0
VERTEX
  8
0
 62
7
  6
CONTINUOUS
 10
334.721072134
 20
150.2671149277
  0
VERTEX
  8
0
 62
7
  6
CONTINUOUS
 10
334.7991225458
 20
150.1868599992
  0
SEQEND
  0
LINE
  8
0
 62
7
  6
CONTINUOUS
 10
334.5685302349
 20
150.4203214533
 11
334.3270825108
 21
150.6628568017
  0
POLYLINE
  8
0
 62
7
  6
CONTINUOUS
 66
1
 70
0
  0
VERTEX
  8
0
 62
7
  6
CONTINUOUS
 10
333.602534142
 20
143.9157344537
  0
VERTEX
  8
0
 62
7
  6
CONTINUOUS
 10
333.6652113754
 20
143.8474208577
  0
VERTEX
  8
0
 62
7
  6
CONTINUOUS
 10
333.7228995022
 20
143.7867634791
  0
VERTEX
  8
0
 62
7
  6
CONTINUOUS
 10
333.7698709595
 20
143.7397926966
  0
VERTEX
  8
0
 62
7
  6
CONTINUOUS
 10
333.8014901228
 20
143.7111442514
  0
VERTEX
  8
0
 62
7
  6
CONTINUOUS
 10
333.8146679326
 20
143.7036041756
  0
SEQEND
  0
LINE
  8
0
 62
7
  6
CONTINUOUS
 10
309.2981678058
 20
151.627344507
 11
307.9202229542
 21
172.6612673886
  0
POLYLINE
  8
0
 62
7
  6
CONTINUOUS
 66
1
 70
0
  0
VERTEX
  8
0
 62
7
  6
CONTINUOUS
 10
312.5299448771
 20
155.9377698274
  0
VERTEX
  8
0
 62
7
  6
CONTINUOUS
 10
312.5315046482
 20
155.3329917096
  0
VERTEX
  8
0
 62
7
  6
CONTINUOUS
 10
312.5361231776
 20
154.7515324737
  0
VERTEX
  8
0
 62
7
  6
CONTINUOUS
 10
312.543622521
 20
154.2156758032
  0
VERTEX
  8
0
 62
7
  6
CONTINUOUS
 10
312.5537149704
 20
153.7459645658
  0
VERTEX
  8
0
 62
7
  6
CONTINUOUS
 10
312.566013777
 20
153.3604255767
  0
VERTEX
  8
0
 62
7
  6
CONTINUOUS
 10
312.5800476193
 20
153.0738819901
  0
VERTEX
  8
0
 62
7
  6
CONTINUOUS
 10
312.5952783151
 20
152.8973825429
  0
VERTEX
  8
0
 62
7
  6
CONTINUOUS
 10
312.6111212339
 20
152.8377698274
  0
SEQEND
  0
LINE
  8
0
 62
7
  6
CONTINUOUS
 10
315.6922975908
 20
172.4377698274
 11
315.6907626052
 21
173.0377698274
  0
LINE
  8
0
 62
7
  6
CONTINUOUS
 10
307.1488335844
 20
117.809932776
 11
307.1488335844
 21
142.8877698274
  0
LINE
  8
0
 62
7
  6
CONTINUOUS
 10
307.8988335844
 20
173.3149721313
 11
307.8988335844
 21
178.4377966681
  0
LINE
  8
0
 62
7
  6
CONTINUOUS
 10
312.6111212339
 20
152.8377698274
 11
312.6111212339
 21
152.0377698274
  0
LINE
  8
0
 62
7
  6
CONTINUOUS
 10
315.6111212339
 20
152.0377698274
 11
315.6111212339
 21
152.8377698274
  0
LINE
  8
0
 62
7
  6
CONTINUOUS
 10
315.6922975908
 20
155.9377698274
 11
315.6922975908
 21
172.4377698274
  0
POLYLINE
  8
0
 62
7
  6
CONTINUOUS
 66
1
 70
0
  0
VERTEX
  8
0
 62
7
  6
CONTINUOUS
 10
312.5299448771
 20
155.9377698274
  0
VERTEX
  8
0
 62
7
  6
CONTINUOUS
 10
312.5306282887
 20
172.8391788323
  0
VERTEX
  8
0
 62
7
  6
CONTINUOUS
 10
312.5314798626
 20
173.0377698274
  0
SEQEND
  0
POLYLINE
  8
0
 62
7
  6
CONTINUOUS
 66
1
 70
0
  0
VERTEX
  8
0
 62
7
  6
CONTINUOUS
 10
315.6922975908
 20
155.9377698274
  0
VERTEX
  8
0
 62
7
  6
CONTINUOUS
 10
315.6907378196
 20
155.3329917096
  0
VERTEX
  8
0
 62
7
  6
CONTINUOUS
 10
315.6861192902
 20
154.7515324737
  0
VERTEX
  8
0
 62
7
  6
CONTINUOUS
 10
315.6786199468
 20
154.2156758032
  0
VERTEX
  8
0
 62
7
  6
CONTINUOUS
 10
315.6685274975
 20
153.7459645658
  0
VERTEX
  8
0
 62
7
  6
CONTINUOUS
 10
315.6562286909
 20
153.3604255767
  0
VERTEX
  8
0
 62
7
  6
CONTINUOUS
 10
315.6421948486
 20
153.0738819901
  0
VERTEX
  8
0
 62
7
  6
CONTINUOUS
 10
315.6269641527
 20
152.8973825429
  0
VERTEX
  8
0
 62
7
  6
CONTINUOUS
 10
315.6111212339
 20
152.8377698274
  0
SEQEND
  0
LINE
  8
0
 62
7
  6
CONTINUOUS
 10
307.1474642179
 20
117.7576177894
 11
307.1488335844
 21
117.809932776
  0
LINE
  8
0
 62
7
  6
CONTINUOUS
 10
332.2992520255
 20
142.1881882685
 11
334.3272607092
 21
144.2161969522
  0
POLYLINE
  8
0
 62
7
  6
CONTINUOUS
 66
1
 70
0
  0
VERTEX
  8
0
 62
7
  6
CONTINUOUS
 10
363.6981274219
 20
151.7844202672
  0
VERTEX
  8
0
 62
7
  6
CONTINUOUS
 10
363.619796835
 20
151.8525938663
  0
VERTEX
  8
0
 62
7
  6
CONTINUOUS
 10
363.5734329655
 20
151.8971447602
  0
VERTEX
  8
0
 62
7
  6
CONTINUOUS
 10
363.5567777268
 20
151.9107139698
  0
SEQEND
  0
LINE
  8
0
 62
7
  6
CONTINUOUS
 10
347.0704064597
 20
144.2161969522
 11
349.0984151433
 21
142.1881882685
  0
LINE
  8
0
 62
7
  6
CONTINUOUS
 10
346.2370639604
 20
152.4645394514
 11
348.8022607092
 21
149.8993427027
  0
LINE
  8
0
 62
7
  6
CONTINUOUS
 10
320.2988335844
 20
173.3149721313
 11
320.2988335844
 21
178.4377993124
  0
LINE
  8
0
 62
7
  6
CONTINUOUS
 10
320.5988335844
 20
115.6377388371
 11
320.5988335844
 21
120.7605675235
  0
LINE
  8
0
 62
7
  6
CONTINUOUS
 10
325.3011212339
 20
142.0377698274
 11
325.3011212339
 21
124.7377698274
  0
POLYLINE
  8
0
 62
7
  6
CONTINUOUS
 66
1
 70
0
  0
VERTEX
  8
0
 62
7
  6
CONTINUOUS
 10
325.224284404
 20
122.6377698274
  0
VERTEX
  8
0
 62
7
  6
CONTINUOUS
 10
325.2306556849
 20
123.1768203188
  0
VERTEX
  8
0
 62
7
  6
CONTINUOUS
 10
325.2395937825
 20
123.6599465187
  0
VERTEX
  8
0
 62
7
  6
CONTINUOUS
 10
325.2507753163
 20
124.0695350797
  0
VERTEX
  8
0
 62
7
  6
CONTINUOUS
 10
325.2570784874
 20
124.2418300275
  0
VERTEX
  8
0
 62
7
  6
CONTINUOUS
 10
325.2708336839
 20
124.5139123439
  0
VERTEX
  8
0
 62
7
  6
CONTINUOUS
 10
325.2856947068
 20
124.6812781914
  0
VERTEX
  8
0
 62
7
  6
CONTINUOUS
 10
325.3011212339
 20
124.7377698274
  0
SEQEND
  0
LINE
  8
0
 62
7
  6
CONTINUOUS
 10
319.0109803515
 20
153.3290690075
 11
320.2774442146
 21
172.6612673886
  0
LINE
  8
0
 62
7
  6
CONTINUOUS
 10
320.6202229542
 20
121.4142722662
 11
321.879923707
 21
140.6432337576
  0
LINE
  8
0
 62
7
  6
CONTINUOUS
 10
364.1106032084
 20
152.4645394514
 11
361.5454064597
 21
149.8993427027
  0
LINE
  8
0
 62
7
  6
CONTINUOUS
 10
360.1438270707
 20
141.5077633137
 11
363.2522607092
 21
144.6161969522
  0
LINE
  8
0
 62
7
  6
CONTINUOUS
 10
375.9954064597
 20
144.6161969522
 11
379.393761921
 21
141.2178414908
  0
POLYLINE
  8
0
 62
7
  6
CONTINUOUS
 66
1
 70
0
  0
VERTEX
  8
0
 62
7
  6
CONTINUOUS
 10
361.4458107039
 20
143.2340110156
  0
VERTEX
  8
0
 62
7
  6
CONTINUOUS
 10
361.5151912744
 20
143.1584056074
  0
VERTEX
  8
0
 62
7
  6
CONTINUOUS
 10
361.5776505916
 20
143.0931306931
  0
VERTEX
  8
0
 62
7
  6
CONTINUOUS
 10
361.6037923052
 20
143.0669890435
  0
VERTEX
  8
0
 62
7
  6
CONTINUOUS
 10
361.642065427
 20
143.0315323257
  0
VERTEX
  8
0
 62
7
  6
CONTINUOUS
 10
361.6579436274
 20
143.0218798704
  0
SEQEND
  0
POLYLINE
  8
0
 62
7
  6
CONTINUOUS
 66
1
 70
0
  0
VERTEX
  8
0
 62
7
  6
CONTINUOUS
 10
315.6907626052
 20
173.0377698274
  0
VERTEX
  8
0
 62
7
  6
CONTINUOUS
 10
315.6580767715
 20
173.2946690373
  0
VERTEX
  8
0
 62
7
  6
CONTINUOUS
 10
315.5612024877
 20
173.5425383931
  0
VERTEX
  8
0
 62
7
  6
CONTINUOUS
 10
315.4027904848
 20
173.7626317231
  0
VERTEX
  8
0
 62
7
  6
CONTINUOUS
 10
315.3046623713
 20
173.8554453347
  0
VERTEX
  8
0
 62
7
  6
CONTINUOUS
 10
315.0841581999
 20
173.9976954668
  0
VERTEX
  8
0
 62
7
  6
CONTINUOUS
 10
314.8491028565
 20
174.0797929606
  0
VERTEX
  8
0
 62
7
  6
CONTINUOUS
 10
314.6111212339
 20
174.1061867059
  0
SEQEND
  0
POLYLINE
  8
0
 62
7
  6
CONTINUOUS
 66
1
 70
0
  0
VERTEX
  8
0
 62
7
  6
CONTINUOUS
 10
325.224284404
 20
122.6377698274
  0
VERTEX
  8
0
 62
7
  6
CONTINUOUS
 10
325.2507660473
 20
122.4015132323
  0
VERTEX
  8
0
 62
7
  6
CONTINUOUS
 10
325.3315687947
 20
122.1811672246
  0
VERTEX
  8
0
 62
7
  6
CONTINUOUS
 10
325.4650618802
 20
121.9825872288
  0
VERTEX
  8
0
 62
7
  6
CONTINUOUS
 10
325.549021383
 20
121.8966018426
  0
VERTEX
  8
0
 62
7
  6
CONTINUOUS
 10
325.7480482376
 20
121.7562445834
  0
VERTEX
  8
0
 62
7
  6
CONTINUOUS
 10
325.9761469786
 20
121.6680099182
  0
VERTEX
  8
0
 62
7
  6
CONTINUOUS
 10
326.2165107757
 20
121.6382376462
  0
SEQEND
  0
LINE
  8
0
 62
7
  6
CONTINUOUS
 10
331.7177434618
 20
140.6432337576
 11
332.9774442146
 21
121.4142722662
  0
LINE
  8
0
 62
7
  6
CONTINUOUS
 10
334.5202229542
 20
172.6612673886
 11
335.7866868173
 21
153.3290690075
  0
POLYLINE
  8
0
 62
7
  6
CONTINUOUS
 66
1
 70
0
  0
VERTEX
  8
0
 62
7
  6
CONTINUOUS
 10
328.3779580638
 20
122.6377698274
  0
VERTEX
  8
0
 62
7
  6
CONTINUOUS
 10
328.371586783
 20
123.1768203188
  0
VERTEX
  8
0
 62
7
  6
CONTINUOUS
 10
328.3626486853
 20
123.6599465187
  0
VERTEX
  8
0
 62
7
  6
CONTINUOUS
 10
328.3514671516
 20
124.0695350797
  0
VERTEX
  8
0
 62
7
  6
CONTINUOUS
 10
328.3451639805
 20
124.2418300275
  0
VERTEX
  8
0
 62
7
  6
CONTINUOUS
 10
328.3314087839
 20
124.5139123439
  0
VERTEX
  8
0
 62
7
  6
CONTINUOUS
 10
328.316547761
 20
124.6812781914
  0
VERTEX
  8
0
 62
7
  6
CONTINUOUS
 10
328.3011212339
 20
124.7377698274
  0
SEQEND
  0
POLYLINE
  8
0
 62
7
  6
CONTINUOUS
 66
1
 70
0
  0
VERTEX
  8
0
 62
7
  6
CONTINUOUS
 10
339.1199448771
 20
155.9377698274
  0
VERTEX
  8
0
 62
7
  6
CONTINUOUS
 10
339.1215046482
 20
155.3329917096
  0
VERTEX
  8
0
 62
7
  6
CONTINUOUS
 10
339.1261231776
 20
154.7515324737
  0
VERTEX
  8
0
 62
7
  6
CONTINUOUS
 10
339.133622521
 20
154.2156758032
  0
VERTEX
  8
0
 62
7
  6
CONTINUOUS
 10
339.1437149704
 20
153.7459645658
  0
VERTEX
  8
0
 62
7
  6
CONTINUOUS
 10
339.156013777
 20
153.3604255767
  0
VERTEX
  8
0
 62
7
  6
CONTINUOUS
 10
339.1700476193
 20
153.0738819901
  0
VERTEX
  8
0
 62
7
  6
CONTINUOUS
 10
339.1852783151
 20
152.8973825429
  0
VERTEX
  8
0
 62
7
  6
CONTINUOUS
 10
339.2011212339
 20
152.8377698274
  0
SEQEND
  0
LINE
  8
0
 62
7
  6
CONTINUOUS
 10
328.3011212339
 20
124.7377698274
 11
328.3011212339
 21
142.0377698274
  0
LINE
  8
0
 62
7
  6
CONTINUOUS
 10
332.9988335844
 20
120.7605675235
 11
332.9988335844
 21
115.637739037
  0
LINE
  8
0
 62
7
  6
CONTINUOUS
 10
334.4988335844
 20
178.4377916551
 11
334.4988335844
 21
173.3149721313
  0
LINE
  8
0
 62
7
  6
CONTINUOUS
 10
339.2011212339
 20
152.8377698274
 11
339.2011212339
 21
152.0377698274
  0
POLYLINE
  8
0
 62
7
  6
CONTINUOUS
 66
1
 70
0
  0
VERTEX
  8
0
 62
7
  6
CONTINUOUS
 10
339.1199448771
 20
155.9377698274
  0
VERTEX
  8
0
 62
7
  6
CONTINUOUS
 10
339.1206282887
 20
172.8391788323
  0
VERTEX
  8
0
 62
7
  6
CONTINUOUS
 10
339.1214798626
 20
173.0377698274
  0
SEQEND
  0
POLYLINE
  8
0
 62
7
  6
CONTINUOUS
 66
1
 70
0
  0
VERTEX
  8
0
 62
7
  6
CONTINUOUS
 10
363.6981265883
 20
151.7844188713
  0
VERTEX
  8
0
 62
7
  6
CONTINUOUS
 10
363.7642672652
 20
151.7041183002
  0
VERTEX
  8
0
 62
7
  6
CONTINUOUS
 10
363.8025555739
 20
151.6625739672
  0
VERTEX
  8
0
 62
7
  6
CONTINUOUS
 10
363.8811386711
 20
151.575052734
  0
SEQEND
  0
LINE
  8
0
 62
7
  6
CONTINUOUS
 10
342.2822975908
 20
172.4377698274
 11
342.2807626052
 21
173.0377698274
  0
LINE
  8
0
 62
7
  6
CONTINUOUS
 10
342.2011212339
 20
152.0377698274
 11
342.2011212339
 21
152.8377698274
  0
LINE
  8
0
 62
7
  6
CONTINUOUS
 10
342.2822975908
 20
155.9377698274
 11
342.2822975908
 21
172.4377698274
  0
LINE
  8
0
 62
7
  6
CONTINUOUS
 10
346.8988335844
 20
178.4377928538
 11
346.8988335844
 21
173.3149721313
  0
LINE
  8
0
 62
7
  6
CONTINUOUS
 10
348.3988335844
 20
115.6377390198
 11
348.3988335844
 21
120.7605675235
  0
POLYLINE
  8
0
 62
7
  6
CONTINUOUS
 66
1
 70
0
  0
VERTEX
  8
0
 62
7
  6
CONTINUOUS
 10
342.2822975908
 20
155.9377698274
  0
VERTEX
  8
0
 62
7
  6
CONTINUOUS
 10
342.2807378196
 20
155.3329917096
  0
VERTEX
  8
0
 62
7
  6
CONTINUOUS
 10
342.2761192902
 20
154.7515324737
  0
VERTEX
  8
0
 62
7
  6
CONTINUOUS
 10
342.2686199468
 20
154.2156758032
  0
VERTEX
  8
0
 62
7
  6
CONTINUOUS
 10
342.2585274975
 20
153.7459645658
  0
VERTEX
  8
0
 62
7
  6
CONTINUOUS
 10
342.2462286909
 20
153.3604255767
  0
VERTEX
  8
0
 62
7
  6
CONTINUOUS
 10
342.2321948486
 20
153.0738819901
  0
VERTEX
  8
0
 62
7
  6
CONTINUOUS
 10
342.2169641527
 20
152.8973825429
  0
VERTEX
  8
0
 62
7
  6
CONTINUOUS
 10
342.2011212339
 20
152.8377698274
  0
SEQEND
  0
LINE
  8
0
 62
7
  6
CONTINUOUS
 10
346.8774442146
 20
172.6612673886
 11
345.6555553967
 21
154.0094939623
  0
LINE
  8
0
 62
7
  6
CONTINUOUS
 10
348.4202229542
 20
121.4142722662
 11
349.679923707
 21
140.6432337576
  0
POLYLINE
  8
0
 62
7
  6
CONTINUOUS
 66
1
 70
0
  0
VERTEX
  8
0
 62
7
  6
CONTINUOUS
 10
376.498321419
 20
150.0608240029
  0
VERTEX
  8
0
 62
7
  6
CONTINUOUS
 10
376.4888807927
 20
150.0489956495
  0
VERTEX
  8
0
 62
7
  6
CONTINUOUS
 10
376.4697440247
 20
150.0108643221
  0
VERTEX
  8
0
 62
7
  6
CONTINUOUS
 10
376.4427827202
 20
149.9501337371
  0
VERTEX
  8
0
 62
7
  6
CONTINUOUS
 10
376.4106672561
 20
149.8728232512
  0
VERTEX
  8
0
 62
7
  6
CONTINUOUS
 10
376.376597396
 20
149.7866283388
  0
SEQEND
  0
POLYLINE
  8
0
 62
7
  6
CONTINUOUS
 66
1
 70
0
  0
VERTEX
  8
0
 62
7
  6
CONTINUOUS
 10
342.2807626052
 20
173.0377698274
  0
VERTEX
  8
0
 62
7
  6
CONTINUOUS
 10
342.2480767715
 20
173.2946690373
  0
VERTEX
  8
0
 62
7
  6
CONTINUOUS
 10
342.1512024877
 20
173.5425383931
  0
VERTEX
  8
0
 62
7
  6
CONTINUOUS
 10
341.9927904848
 20
173.7626317231
  0
VERTEX
  8
0
 62
7
  6
CONTINUOUS
 10
341.8946623713
 20
173.8554453347
  0
VERTEX
  8
0
 62
7
  6
CONTINUOUS
 10
341.6741581999
 20
173.9976954668
  0
VERTEX
  8
0
 62
7
  6
CONTINUOUS
 10
341.4391028565
 20
174.0797929606
  0
VERTEX
  8
0
 62
7
  6
CONTINUOUS
 10
341.2011212339
 20
174.1061867059
  0
SEQEND
  0
POLYLINE
  8
0
 62
7
  6
CONTINUOUS
 66
1
 70
0
  0
VERTEX
  8
0
 62
7
  6
CONTINUOUS
 10
353.024284404
 20
122.6377698274
  0
VERTEX
  8
0
 62
7
  6
CONTINUOUS
 10
353.0507660473
 20
122.4015132323
  0
VERTEX
  8
0
 62
7
  6
CONTINUOUS
 10
353.1315687947
 20
122.1811672246
  0
VERTEX
  8
0
 62
7
  6
CONTINUOUS
 10
353.2650618802
 20
121.9825872288
  0
VERTEX
  8
0
 62
7
  6
CONTINUOUS
 10
353.349021383
 20
121.8966018426
  0
VERTEX
  8
0
 62
7
  6
CONTINUOUS
 10
353.5480482376
 20
121.7562445834
  0
VERTEX
  8
0
 62
7
  6
CONTINUOUS
 10
353.7761469786
 20
121.6680099182
  0
VERTEX
  8
0
 62
7
  6
CONTINUOUS
 10
354.0165107757
 20
121.6382376462
  0
SEQEND
  0
LINE
  8
0
 62
7
  6
CONTINUOUS
 10
359.562318507
 20
139.9628088028
 11
360.7774442146
 21
121.4142722662
  0
POLYLINE
  8
0
 62
7
  6
CONTINUOUS
 66
1
 70
0
  0
VERTEX
  8
0
 62
7
  6
CONTINUOUS
 10
356.1779580638
 20
122.6377698274
  0
VERTEX
  8
0
 62
7
  6
CONTINUOUS
 10
356.171586783
 20
123.1768203188
  0
VERTEX
  8
0
 62
7
  6
CONTINUOUS
 10
356.1626486853
 20
123.6599465187
  0
VERTEX
  8
0
 62
7
  6
CONTINUOUS
 10
356.1514671516
 20
124.0695350797
  0
VERTEX
  8
0
 62
7
  6
CONTINUOUS
 10
356.1451639805
 20
124.2418300275
  0
VERTEX
  8
0
 62
7
  6
CONTINUOUS
 10
356.1314087839
 20
124.5139123439
  0
VERTEX
  8
0
 62
7
  6
CONTINUOUS
 10
356.116547761
 20
124.6812781914
  0
VERTEX
  8
0
 62
7
  6
CONTINUOUS
 10
356.1011212339
 20
124.7377698274
  0
SEQEND
  0
LINE
  8
0
 62
7
  6
CONTINUOUS
 10
353.1011212339
 20
142.0377698274
 11
353.1011212339
 21
124.7377698274
  0
LINE
  8
0
 62
7
  6
CONTINUOUS
 10
356.1011212339
 20
124.7377698274
 11
356.1011212339
 21
142.0377698274
  0
LINE
  8
0
 62
7
  6
CONTINUOUS
 10
360.7988335844
 20
120.7605675235
 11
360.7988335844
 21
115.6377377962
  0
POLYLINE
  8
0
 62
7
  6
CONTINUOUS
 66
1
 70
0
  0
VERTEX
  8
0
 62
7
  6
CONTINUOUS
 10
353.024284404
 20
122.6377698274
  0
VERTEX
  8
0
 62
7
  6
CONTINUOUS
 10
353.0306556849
 20
123.1768203188
  0
VERTEX
  8
0
 62
7
  6
CONTINUOUS
 10
353.0395937825
 20
123.6599465187
  0
VERTEX
  8
0
 62
7
  6
CONTINUOUS
 10
353.0507753163
 20
124.0695350797
  0
VERTEX
  8
0
 62
7
  6
CONTINUOUS
 10
353.0570784874
 20
124.2418300275
  0
VERTEX
  8
0
 62
7
  6
CONTINUOUS
 10
353.0708336839
 20
124.5139123439
  0
VERTEX
  8
0
 62
7
  6
CONTINUOUS
 10
353.0856947068
 20
124.6812781914
  0
VERTEX
  8
0
 62
7
  6
CONTINUOUS
 10
353.1011212339
 20
124.7377698274
  0
SEQEND
  0
POLYLINE
  8
0
 62
7
  6
CONTINUOUS
 66
1
 70
0
  0
VERTEX
  8
0
 62
7
  6
CONTINUOUS
 10
378.4511212339
 20
114.961485205
  0
VERTEX
  8
0
 62
7
  6
CONTINUOUS
 10
378.4571276406
 20
114.9017544167
  0
VERTEX
  8
0
 62
7
  6
CONTINUOUS
 10
378.4744487157
 20
114.8455010784
  0
VERTEX
  8
0
 62
7
  6
CONTINUOUS
 10
378.5027367017
 20
114.7932439374
  0
VERTEX
  8
0
 62
7
  6
CONTINUOUS
 10
378.541392251
 20
114.746977038
  0
VERTEX
  8
0
 62
7
  6
CONTINUOUS
 10
378.5889136266
 20
114.7091190185
  0
VERTEX
  8
0
 62
7
  6
CONTINUOUS
 10
378.6436108491
 20
114.6814110771
  0
SEQEND
  0
LINE
  8
0
 62
7
  6
CONTINUOUS
 10
363.4702229542
 20
172.6612673886
 11
364.6921117721
 21
154.0094939623
  0
POLYLINE
  8
0
 62
7
  6
CONTINUOUS
 66
1
 70
0
  0
VERTEX
  8
0
 62
7
  6
CONTINUOUS
 10
368.0599448771
 20
155.9377698274
  0
VERTEX
  8
0
 62
7
  6
CONTINUOUS
 10
368.0615046482
 20
155.3329917096
  0
VERTEX
  8
0
 62
7
  6
CONTINUOUS
 10
368.0661231776
 20
154.7515324737
  0
VERTEX
  8
0
 62
7
  6
CONTINUOUS
 10
368.073622521
 20
154.2156758032
  0
VERTEX
  8
0
 62
7
  6
CONTINUOUS
 10
368.0837149704
 20
153.7459645658
  0
VERTEX
  8
0
 62
7
  6
CONTINUOUS
 10
368.096013777
 20
153.3604255767
  0
VERTEX
  8
0
 62
7
  6
CONTINUOUS
 10
368.1100476193
 20
153.0738819901
  0
VERTEX
  8
0
 62
7
  6
CONTINUOUS
 10
368.1252783151
 20
152.8973825429
  0
VERTEX
  8
0
 62
7
  6
CONTINUOUS
 10
368.1411212339
 20
152.8377698274
  0
SEQEND
  0
LINE
  8
0
 62
7
  6
CONTINUOUS
 10
371.2222975908
 20
172.4377698274
 11
371.2207626052
 21
173.0377698274
  0
LINE
  8
0
 62
7
  6
CONTINUOUS
 10
363.4488335844
 20
178.4378009553
 11
363.4488335844
 21
173.3149721313
  0
LINE
  8
0
 62
7
  6
CONTINUOUS
 10
368.1411212339
 20
152.8377698274
 11
368.1411212339
 21
152.0377698274
  0
LINE
  8
0
 62
7
  6
CONTINUOUS
 10
371.1411212339
 20
152.0377698274
 11
371.1411212339
 21
152.8377698274
  0
LINE
  8
0
 62
7
  6
CONTINUOUS
 10
371.2222975908
 20
155.9377698274
 11
371.2222975908
 21
172.4377698274
  0
POLYLINE
  8
0
 62
7
  6
CONTINUOUS
 66
1
 70
0
  0
VERTEX
  8
0
 62
7
  6
CONTINUOUS
 10
368.0599448771
 20
155.9377698274
  0
VERTEX
  8
0
 62
7
  6
CONTINUOUS
 10
368.0606282887
 20
172.8391788323
  0
VERTEX
  8
0
 62
7
  6
CONTINUOUS
 10
368.0614798626
 20
173.0377698274
  0
SEQEND
  0
POLYLINE
  8
0
 62
7
  6
CONTINUOUS
 66
1
 70
0
  0
VERTEX
  8
0
 62
7
  6
CONTINUOUS
 10
371.2222975908
 20
155.9377698274
  0
VERTEX
  8
0
 62
7
  6
CONTINUOUS
 10
371.2207378196
 20
155.3329917096
  0
VERTEX
  8
0
 62
7
  6
CONTINUOUS
 10
371.2161192902
 20
154.7515324737
  0
VERTEX
  8
0
 62
7
  6
CONTINUOUS
 10
371.2086199468
 20
154.2156758032
  0
VERTEX
  8
0
 62
7
  6
CONTINUOUS
 10
371.1985274975
 20
153.7459645658
  0
VERTEX
  8
0
 62
7
  6
CONTINUOUS
 10
371.1862286909
 20
153.3604255767
  0
VERTEX
  8
0
 62
7
  6
CONTINUOUS
 10
371.1721948486
 20
153.0738819901
  0
VERTEX
  8
0
 62
7
  6
CONTINUOUS
 10
371.1569641527
 20
152.8973825429
  0
VERTEX
  8
0
 62
7
  6
CONTINUOUS
 10
371.1411212339
 20
152.8377698274
  0
SEQEND
  0
LINE
  8
0
 62
7
  6
CONTINUOUS
 10
375.8274442146
 20
172.6612673886
 11
374.4988997293
 21
152.381426568
  0
LINE
  8
0
 62
7
  6
CONTINUOUS
 10
381.0171466377
 20
133.0822562003
 11
378.4913136128
 21
128.7073850697
  0
POLYLINE
  8
0
 62
7
  6
CONTINUOUS
 66
1
 70
0
  0
VERTEX
  8
0
 62
7
  6
CONTINUOUS
 10
371.2207626052
 20
173.0377698274
  0
VERTEX
  8
0
 62
7
  6
CONTINUOUS
 10
371.1880767715
 20
173.2946690373
  0
VERTEX
  8
0
 62
7
  6
CONTINUOUS
 10
371.0912024877
 20
173.5425383931
  0
VERTEX
  8
0
 62
7
  6
CONTINUOUS
 10
370.9327904848
 20
173.7626317231
  0
VERTEX
  8
0
 62
7
  6
CONTINUOUS
 10
370.8346623713
 20
173.8554453347
  0
VERTEX
  8
0
 62
7
  6
CONTINUOUS
 10
370.6141581999
 20
173.9976954668
  0
VERTEX
  8
0
 62
7
  6
CONTINUOUS
 10
370.3791028565
 20
174.0797929606
  0
VERTEX
  8
0
 62
7
  6
CONTINUOUS
 10
370.1411212339
 20
174.1061867059
  0
SEQEND
  0
LINE
  8
0
 62
7
  6
CONTINUOUS
 10
375.8488335844
 20
178.4377996997
 11
375.8488335844
 21
173.3149721313
  0
LINE
  8
0
 62
7
  6
CONTINUOUS
 10
378.4511212339
 20
114.961485205
 11
378.4511212339
 21
128.5573850697
  0
LINE
  8
0
 62
7
  6
CONTINUOUS
 10
381.1511212339
 20
136.9752008037
 11
381.1511212339
 21
133.5822562003
  0
LINE
  8
0
 62
7
  6
CONTINUOUS
 10
388.1511212339
 20
116.4744579343
 11
388.1511212339
 21
142.9372378239
  0
ARC
  8
SURFACE
 62
7
  6
CONTINUOUS
 10
466.4557385554
 20
279.4355225139
 40
7.35
 50
90.0
 51
180.0
  0
ARC
  8
SURFACE
 62
7
  6
CONTINUOUS
 10
466.4557385554
 20
279.1355225139
 40
7.35
 50
180.0
 51
270.0
  0
ARC
  8
SURFACE
 62
7
  6
CONTINUOUS
 10
518.5557385554
 20
279.1355225139
 40
7.35
 50
270.0
 51
274.1622259058
  0
ARC
  8
SURFACE
 62
7
  6
CONTINUOUS
 10
518.5557385554
 20
279.4355225139
 40
7.35
 50
85.8036871656
 51
90.0
  0
ARC
  8
0
 62
7
  6
CONTINUOUS
 10
466.4557385554
 20
279.1355225139
 40
7.35
 50
182.7385787043
 51
258.2574601307
  0
ARC
  8
0
 62
7
  6
CONTINUOUS
 10
466.4557385554
 20
279.4355225139
 40
7.35
 50
101.7425424313
 51
177.2614217387
  0
CIRCLE
  8
SURFACE
 62
7
  6
CONTINUOUS
 10
517.9057385554
 20
279.2855225139
 40
4.5
  0
ARC
  8
SURFACE
 62
7
  6
CONTINUOUS
 10
483.6057385554
 20
279.2855225139
 40
3.1
 50
270.0
 51
90.0
  0
ARC
  8
SURFACE
 62
7
  6
CONTINUOUS
 10
467.1057385554
 20
279.2855225139
 40
3.1
 50
94.1343827296
 51
265.8656172704
  0
CIRCLE
  8
SURFACE
 62
7
  6
CONTINUOUS
 10
517.9057385554
 20
279.2855225139
 40
3.1
  0
ARC
  8
SURFACE
 62
7
  6
CONTINUOUS
 10
97.789762707
 20
272.0855225139
 40
0.3
 50
181.5
 51
270.0
  0
ARC
  8
SURFACE
 62
7
  6
CONTINUOUS
 10
93.8124797609
 20
272.0855225139
 40
0.3
 50
270.0
 51
358.5
  0
ARC
  8
SURFACE
 62
7
  6
CONTINUOUS
 10
125.589762707
 20
272.0855225139
 40
0.3
 50
181.5
 51
270.0
  0
ARC
  8
SURFACE
 62
7
  6
CONTINUOUS
 10
121.6124797609
 20
272.0855225139
 40
0.3
 50
270.0
 51
358.5
  0
ARC
  8
SURFACE
 62
7
  6
CONTINUOUS
 10
62.5511212339
 20
272.0855225139
 40
0.3
 50
180.0
 51
270.0
  0
ARC
  8
SURFACE
 62
7
  6
CONTINUOUS
 10
71.6511212339
 20
272.0855225139
 40
0.3
 50
270.0
 51
360.0
  0
ARC
  8
SURFACE
 62
7
  6
CONTINUOUS
 10
156.4304076099
 20
272.0855225139
 40
0.3
 50
181.0
 51
269.9999999999
  0
ARC
  8
SURFACE
 62
7
  6
CONTINUOUS
 10
145.8276867175
 20
272.0855225139
 40
0.3
 50
270.0
 51
359.0
  0
ARC
  8
SURFACE
 62
7
  6
CONTINUOUS
 10
207.2304076099
 20
272.0855225139
 40
0.3
 50
181.0
 51
269.9999999999
  0
ARC
  8
SURFACE
 62
7
  6
CONTINUOUS
 10
192.3764101569
 20
272.0855225139
 40
0.3
 50
270.0
 51
359.0
  0
ARC
  8
SURFACE
 62
7
  6
CONTINUOUS
 10
143.5534088834
 20
272.0855225139
 40
0.3
 50
180.0
 51
270.0
  0
ARC
  8
SURFACE
 62
7
  6
CONTINUOUS
 10
93.8124797609
 20
286.4855225139
 40
0.3
 50
1.5
 51
90.0
  0
ARC
  8
SURFACE
 62
7
  6
CONTINUOUS
 10
97.789762707
 20
286.4855225139
 40
0.3
 50
90.0
 51
178.5
  0
ARC
  8
SURFACE
 62
7
  6
CONTINUOUS
 10
121.6124797609
 20
286.4855225139
 40
0.3
 50
1.5
 51
90.0
  0
ARC
  8
SURFACE
 62
7
  6
CONTINUOUS
 10
125.589762707
 20
286.4855225139
 40
0.3
 50
90.0
 51
178.5
  0
ARC
  8
SURFACE
 62
7
  6
CONTINUOUS
 10
62.5511212339
 20
286.4855225139
 40
0.3
 50
90.0
 51
180.0
  0
ARC
  8
SURFACE
 62
7
  6
CONTINUOUS
 10
71.6511212339
 20
286.4855225139
 40
0.3
 50
0.0
 51
90.0
  0
ARC
  8
SURFACE
 62
7
  6
CONTINUOUS
 10
145.8276867175
 20
286.4855225139
 40
0.3
 50
1.0
 51
90.0
  0
ARC
  8
SURFACE
 62
7
  6
CONTINUOUS
 10
156.4304076099
 20
286.4855225139
 40
0.3
 50
90.0
 51
179.0
  0
ARC
  8
SURFACE
 62
7
  6
CONTINUOUS
 10
192.3764101569
 20
286.4855225139
 40
0.3
 50
1.0
 51
90.0
  0
ARC
  8
SURFACE
 62
7
  6
CONTINUOUS
 10
207.2304076099
 20
286.4855225139
 40
0.3
 50
90.0
 51
179.0
  0
ARC
  8
SURFACE
 62
7
  6
CONTINUOUS
 10
209.504685444
 20
286.4855225139
 40
0.3
 50
0.0
 51
90.0
  0
ARC
  8
SURFACE
 62
7
  6
CONTINUOUS
 10
143.5534088834
 20
286.4855225139
 40
0.3
 50
90.0
 51
180.0
  0
ARC
  8
SURFACE
 62
7
  6
CONTINUOUS
 10
190.1021323228
 20
286.4855225139
 40
0.3
 50
90.0
 51
180.0
  0
ARC
  8
SURFACE
 62
7
  6
CONTINUOUS
 10
158.704685444
 20
286.4855225139
 40
0.3
 50
0.0
 51
90.0
  0
ARC
  8
0
 62
7
  6
CONTINUOUS
 10
378.7511212339
 20
272.0855225139
 40
0.3
 50
180.0
 51
270.0
  0
ARC
  8
0
 62
7
  6
CONTINUOUS
 10
258.0258323109
 20
272.0855225139
 40
0.3
 50
181.0
 51
270.0
  0
ARC
  8
0
 62
7
  6
CONTINUOUS
 10
243.1718348579
 20
272.0855225139
 40
0.3
 50
270.0
 51
359.0
  0
ARC
  8
0
 62
7
  6
CONTINUOUS
 10
304.5745557503
 20
272.0855225139
 40
0.3
 50
181.0
 51
270.0
  0
ARC
  8
0
 62
7
  6
CONTINUOUS
 10
293.9718348579
 20
272.0855225139
 40
0.3
 50
270.0
 51
359.0
  0
ARC
  8
0
 62
7
  6
CONTINUOUS
 10
306.8488335844
 20
272.0855225139
 40
0.3
 50
270.0
 51
360.0
  0
ARC
  8
0
 62
7
  6
CONTINUOUS
 10
387.8511212339
 20
272.0855225139
 40
0.3
 50
270.0
 51
360.0
  0
ARC
  8
0
 62
7
  6
CONTINUOUS
 10
352.6124797609
 20
272.0855225139
 40
0.3
 50
270.0
 51
358.5
  0
ARC
  8
0
 62
7
  6
CONTINUOUS
 10
356.589762707
 20
272.0855225139
 40
0.3
 50
181.5
 51
270.0
  0
ARC
  8
0
 62
7
  6
CONTINUOUS
 10
324.8124797609
 20
272.0855225139
 40
0.3
 50
270.0
 51
358.5
  0
ARC
  8
0
 62
7
  6
CONTINUOUS
 10
328.789762707
 20
272.0855225139
 40
0.3
 50
181.5
 51
270.0
  0
ARC
  8
0
 62
7
  6
CONTINUOUS
 10
378.7511212339
 20
286.4855225139
 40
0.3
 50
90.0
 51
180.0
  0
ARC
  8
0
 62
7
  6
CONTINUOUS
 10
260.300110145
 20
286.4855225139
 40
0.3
 50
0.0
 51
90.0
  0
ARC
  8
0
 62
7
  6
CONTINUOUS
 10
291.6975570238
 20
286.4855225139
 40
0.3
 50
90.0
 51
180.0
  0
ARC
  8
0
 62
7
  6
CONTINUOUS
 10
243.1718348579
 20
286.4855225139
 40
0.3
 50
0.9999753912
 51
89.9998777477
  0
ARC
  8
0
 62
7
  6
CONTINUOUS
 10
258.0258323109
 20
286.4855225139
 40
0.3
 50
90.0
 51
179.0
  0
ARC
  8
0
 62
7
  6
CONTINUOUS
 10
293.9718348579
 20
286.4855225139
 40
0.3
 50
0.9999753912
 51
89.9998777477
  0
ARC
  8
0
 62
7
  6
CONTINUOUS
 10
304.5745557503
 20
286.4855225139
 40
0.3
 50
90.0
 51
179.0
  0
ARC
  8
0
 62
7
  6
CONTINUOUS
 10
306.8488335844
 20
286.4855225139
 40
0.3
 50
0.0
 51
90.0
  0
ARC
  8
0
 62
7
  6
CONTINUOUS
 10
240.8975570238
 20
286.4855225139
 40
0.3
 50
90.0
 51
180.0
  0
ARC
  8
0
 62
7
  6
CONTINUOUS
 10
387.8511212339
 20
286.4855225139
 40
0.3
 50
0.0
 51
90.0
  0
ARC
  8
0
 62
7
  6
CONTINUOUS
 10
356.589762707
 20
286.4855225139
 40
0.3
 50
90.0
 51
178.5
  0
ARC
  8
0
 62
7
  6
CONTINUOUS
 10
352.6124797609
 20
286.4855225139
 40
0.3
 50
1.5
 51
90.0
  0
ARC
  8
0
 62
7
  6
CONTINUOUS
 10
328.789762707
 20
286.4855225139
 40
0.3
 50
90.0
 51
178.5
  0
ARC
  8
0
 62
7
  6
CONTINUOUS
 10
324.8124797609
 20
286.4855225139
 40
0.3
 50
1.5
 51
90.0
  0
ARC
  8
SURFACE
 62
7
  6
CONTINUOUS
 10
119.8034088834
 20
120.7605675235
 40
10.0
 50
0.0
 51
3.7481249957
  0
ARC
  8
SURFACE
 62
7
  6
CONTINUOUS
 10
92.0034088834
 20
120.7605675235
 40
10.0
 50
0.0
 51
3.7481249957
  0
ARC
  8
SURFACE
 62
7
  6
CONTINUOUS
 10
127.4034088834
 20
120.7605675235
 40
10.0
 50
176.2518750043
 51
180.0
  0
ARC
  8
SURFACE
 62
7
  6
CONTINUOUS
 10
99.6034088834
 20
120.7605675235
 40
10.0
 50
176.2518750043
 51
180.0
  0
ARC
  8
SURFACE
 62
7
  6
CONTINUOUS
 10
66.2511212339
 20
116.4744579343
 40
4.0
 50
180.0
 51
265.7929190421
  0
ARC
  8
SURFACE
 62
7
  6
CONTINUOUS
 10
119.4033777439
 20
115.6377386879
 40
1.999969035
 50
179.9999899965
 51
270.0
  0
ARC
  8
SURFACE
 62
7
  6
CONTINUOUS
 10
127.8034400239
 20
115.637738687
 40
1.9999690339
 50
270.0
 51
0.0000099906
  0
ARC
  8
SURFACE
 62
7
  6
CONTINUOUS
 10
100.0034400243
 20
115.6377386865
 40
1.9999690335
 50
270.0
 51
0.0000099907
  0
ARC
  8
SURFACE
 62
7
  6
CONTINUOUS
 10
91.6033764745
 20
115.6377374185
 40
1.9999677799
 50
179.9999891779
 51
270.0
  0
ARC
  8
SURFACE
 62
7
  6
CONTINUOUS
 10
71.6511212339
 20
128.5573850697
 40
0.3
 50
0.0
 51
30.0
  0
ARC
  8
SURFACE
 62
7
  6
CONTINUOUS
 10
75.2511212339
 20
136.9752008037
 40
6.0
 50
135.0
 51
180.0
  0
ARC
  8
SURFACE
 62
7
  6
CONTINUOUS
 10
133.4602631329
 20
140.8877698274
 40
4.0
 50
90.0
 51
135.0
  0
ARC
  8
SURFACE
 62
7
  6
CONTINUOUS
 10
106.1602631329
 20
141.3877698274
 40
4.0
 50
90.0
 51
135.0
  0
ARC
  8
SURFACE
 62
7
  6
CONTINUOUS
 10
113.2465546339
 20
141.3877698274
 40
4.0
 50
45.0
 51
90.0
  0
ARC
  8
SURFACE
 62
7
  6
CONTINUOUS
 10
84.3215546339
 20
141.7877698274
 40
4.0
 50
45.0
 51
90.0
  0
ARC
  8
SURFACE
 62
7
  6
CONTINUOUS
 10
77.2352631329
 20
141.7877698274
 40
4.0
 50
90.0
 51
135.0
  0
ARC
  8
SURFACE
 62
7
  6
CONTINUOUS
 10
65.2511212339
 20
142.9372378239
 40
3.0
 50
113.9379806067
 51
180.0
  0
ARC
  8
SURFACE
 62
7
  6
CONTINUOUS
 10
130.5180408869
 20
140.7739747061
 40
2.0
 50
135.0
 51
183.7481249957
  0
ARC
  8
SURFACE
 62
7
  6
CONTINUOUS
 10
116.68877688
 20
140.7739747061
 40
2.0
 50
356.2518750043
 51
45.0
  0
ARC
  8
SURFACE
 62
7
  6
CONTINUOUS
 10
102.7180408869
 20
140.7739747061
 40
2.0
 50
135.0
 51
183.7481249957
  0
ARC
  8
SURFACE
 62
7
  6
CONTINUOUS
 10
88.8442018348
 20
140.0935497513
 40
2.0
 50
356.2518750043
 51
45.0
  0
ARC
  8
SURFACE
 62
7
  6
CONTINUOUS
 10
96.3011212339
 20
142.0377698274
 40
1.0
 50
0.0
 51
90.0
  0
ARC
  8
SURFACE
 62
7
  6
CONTINUOUS
 10
95.3011212339
 20
142.0377698274
 40
1.0
 50
90.0
 51
180.0
  0
ARC
  8
SURFACE
 62
7
  6
CONTINUOUS
 10
124.1011212339
 20
142.0377698274
 40
1.0
 50
0.0
 51
90.0
  0
ARC
  8
SURFACE
 62
7
  6
CONTINUOUS
 10
123.1011212339
 20
142.0377698274
 40
1.0
 50
90.0
 51
180.0
  0
ARC
  8
SURFACE
 62
7
  6
CONTINUOUS
 10
70.2511212339
 20
133.5822562003
 40
1.0
 50
180.0
 51
210.0
  0
ARC
  8
SURFACE
 62
7
  6
CONTINUOUS
 10
212.804685444
 20
121.0898906874
 40
1.5
 50
280.0
 51
360.0
  0
ARC
  8
SURFACE
 62
7
  6
CONTINUOUS
 10
212.804685444
 20
122.1856489675
 40
1.5
 50
0.0
 51
80.0
  0
ARC
  8
SURFACE
 62
7
  6
CONTINUOUS
 10
186.8021323228
 20
121.0898906874
 40
1.5
 50
180.0
 51
260.0
  0
ARC
  8
SURFACE
 62
7
  6
CONTINUOUS
 10
186.8021323228
 20
122.1856489675
 40
1.5
 50
100.0
 51
180.0
  0
ARC
  8
SURFACE
 62
7
  6
CONTINUOUS
 10
162.004685444
 20
121.0898906874
 40
1.5
 50
280.0
 51
360.0
  0
ARC
  8
SURFACE
 62
7
  6
CONTINUOUS
 10
162.004685444
 20
122.1856489675
 40
1.5
 50
0.0
 51
80.0
  0
ARC
  8
SURFACE
 62
7
  6
CONTINUOUS
 10
144.2534088834
 20
117.809932776
 40
1.0
 50
182.9987968783
 51
236.9345440666
  0
ARC
  8
SURFACE
 62
7
  6
CONTINUOUS
 10
146.3817856597
 20
116.6377698274
 40
1.0
 50
245.3795812911
 51
270.0
  0
ARC
  8
SURFACE
 62
7
  6
CONTINUOUS
 10
190.8021323228
 20
117.809284
 40
1.0
 50
183.0126244513
 51
236.9389798146
  0
ARC
  8
SURFACE
 62
7
  6
CONTINUOUS
 10
208.804685444
 20
117.809284
 40
1.0
 50
303.0610201854
 51
356.9876001321
  0
ARC
  8
SURFACE
 62
7
  6
CONTINUOUS
 10
158.004685444
 20
117.809284
 40
1.0
 50
303.0610201854
 51
356.9876001321
  0
ARC
  8
SURFACE
 62
7
  6
CONTINUOUS
 10
155.8772724259
 20
116.6377698274
 40
1.0
 50
270.0000000001
 51
294.6199773287
  0
ARC
  8
SURFACE
 62
7
  6
CONTINUOUS
 10
206.6772724259
 20
116.6377698274
 40
1.0
 50
270.0
 51
294.6199773287
  0
ARC
  8
SURFACE
 62
7
  6
CONTINUOUS
 10
192.929545341
 20
116.6377698274
 40
1.0
 50
245.3800226713
 51
269.9999999998
  0
ARC
  8
SURFACE
 62
7
  6
CONTINUOUS
 10
210.804685444
 20
118.1986701962
 40
1.0
 50
100.0
 51
180.0
  0
ARC
  8
SURFACE
 62
7
  6
CONTINUOUS
 10
210.804685444
 20
125.0768694586
 40
1.0
 50
180.0
 51
260.0
  0
ARC
  8
SURFACE
 62
7
  6
CONTINUOUS
 10
188.8021323228
 20
118.1986701962
 40
1.0
 50
0.0
 51
80.0
  0
ARC
  8
SURFACE
 62
7
  6
CONTINUOUS
 10
188.8021323228
 20
125.0768694586
 40
1.0
 50
280.0
 51
360.0
  0
ARC
  8
SURFACE
 62
7
  6
CONTINUOUS
 10
160.004685444
 20
118.1986701962
 40
1.0
 50
100.0
 51
180.0
  0
ARC
  8
SURFACE
 62
7
  6
CONTINUOUS
 10
160.004685444
 20
125.0768694586
 40
1.0
 50
180.0
 51
260.0
  0
ARC
  8
SURFACE
 62
7
  6
CONTINUOUS
 10
153.2557930424
 20
131.6377786009
 40
17.5000679
 50
236.9345440666
 51
245.3795812911
  0
ARC
  8
SURFACE
 62
7
  6
CONTINUOUS
 10
199.8034088834
 20
131.6377698274
 40
17.5
 50
236.9389798146
 51
245.3800226713
  0
ARC
  8
SURFACE
 62
7
  6
CONTINUOUS
 10
199.8034088834
 20
131.6377698274
 40
17.5
 50
294.6199773287
 51
303.0610201854
  0
ARC
  8
SURFACE
 62
7
  6
CONTINUOUS
 10
149.0034088834
 20
131.6377698274
 40
17.5
 50
294.6199773287
 51
303.0610201854
  0
ARC
  8
SURFACE
 62
7
  6
CONTINUOUS
 10
211.804685444
 20
141.5377698274
 40
2.0
 50
90.0
 51
180.0
  0
ARC
  8
SURFACE
 62
7
  6
CONTINUOUS
 10
187.8021323228
 20
141.5377698274
 40
2.0
 50
0.0
 51
90.0
  0
ARC
  8
SURFACE
 62
7
  6
CONTINUOUS
 10
161.004685444
 20
141.5377698274
 40
2.0
 50
90.0
 51
180.0
  0
ARC
  8
SURFACE
 62
7
  6
CONTINUOUS
 10
141.2534088834
 20
142.8877698274
 40
2.0
 50
0.0
 51
90.0
  0
ARC
  8
SURFACE
 62
7
  6
CONTINUOUS
 10
204.8049901232
 20
141.5380745066
 40
1.9999999885
 50
0.0
 51
90.0
  0
ARC
  8
SURFACE
 62
7
  6
CONTINUOUS
 10
154.0049901232
 20
141.5380745066
 40
1.9999999885
 50
0.0
 51
90.0
  0
ARC
  8
SURFACE
 62
7
  6
CONTINUOUS
 10
194.8018276436
 20
141.5380745066
 40
1.9999999885
 50
90.0
 51
180.0
  0
ARC
  8
SURFACE
 62
7
  6
CONTINUOUS
 10
98.7715546339
 20
152.7277698274
 40
4.0
 50
270.0
 51
315.0
  0
ARC
  8
SURFACE
 62
7
  6
CONTINUOUS
 10
91.6852631329
 20
152.7277698274
 40
4.0
 50
225.0
 51
270.0
  0
ARC
  8
SURFACE
 62
7
  6
CONTINUOUS
 10
119.4602631329
 20
153.1777698274
 40
4.0
 50
225.0
 51
270.0
  0
ARC
  8
SURFACE
 62
7
  6
CONTINUOUS
 10
126.5465546339
 20
153.1777698274
 40
4.0
 50
270.0
 51
315.0
  0
ARC
  8
SURFACE
 62
7
  6
CONTINUOUS
 10
73.9076206125
 20
152.2506856195
 40
2.0
 50
293.9379806067
 51
3.7481249957
  0
ARC
  8
SURFACE
 62
7
  6
CONTINUOUS
 10
102.7509649451
 20
153.8787530138
 40
2.0
 50
315.0
 51
3.7481249957
  0
ARC
  8
SURFACE
 62
7
  6
CONTINUOUS
 10
116.6112777766
 20
153.198328059
 40
2.0
 50
176.2518750043
 51
225.0
  0
ARC
  8
SURFACE
 62
7
  6
CONTINUOUS
 10
129.3955399903
 20
153.198328059
 40
2.0
 50
315.0
 51
3.7481249957
  0
ARC
  8
SURFACE
 62
7
  6
CONTINUOUS
 10
143.1680042123
 20
152.5377698274
 40
2.0
 50
176.2518750043
 51
270.0
  0
ARC
  8
SURFACE
 62
7
  6
CONTINUOUS
 10
87.7058528218
 20
153.8787530138
 40
2.0
 50
176.2518750043
 51
225.0
  0
ARC
  8
SURFACE
 62
7
  6
CONTINUOUS
 10
80.2611212339
 20
152.0377698274
 40
1.0
 50
180.0
 51
270.0
  0
ARC
  8
SURFACE
 62
7
  6
CONTINUOUS
 10
81.2611212339
 20
152.0377698274
 40
1.0
 50
270.0
 51
360.0
  0
ARC
  8
SURFACE
 62
7
  6
CONTINUOUS
 10
109.2011212339
 20
152.0377698274
 40
1.0
 50
180.0
 51
270.0
  0
ARC
  8
SURFACE
 62
7
  6
CONTINUOUS
 10
110.2011212339
 20
152.0377698274
 40
1.0
 50
270.0
 51
360.0
  0
ARC
  8
SURFACE
 62
7
  6
CONTINUOUS
 10
135.7911212339
 20
152.0377698274
 40
1.0
 50
180.0
 51
270.0
  0
ARC
  8
SURFACE
 62
7
  6
CONTINUOUS
 10
136.7911212339
 20
152.0377698274
 40
1.0
 50
270.0
 51
360.0
  0
ARC
  8
SURFACE
 62
7
  6
CONTINUOUS
 10
140.1034088834
 20
173.3149721313
 40
10.0
 50
180.0
 51
183.7481249957
  0
ARC
  8
SURFACE
 62
7
  6
CONTINUOUS
 10
113.5034088834
 20
173.3149721313
 40
10.0
 50
180.0
 51
183.7481249957
  0
ARC
  8
SURFACE
 62
7
  6
CONTINUOUS
 10
84.5534088834
 20
173.3149721313
 40
10.0
 50
180.0
 51
183.7481249957
  0
ARC
  8
SURFACE
 62
7
  6
CONTINUOUS
 10
76.9534088834
 20
173.3149721313
 40
10.0
 50
356.2518750043
 51
360.0
  0
ARC
  8
SURFACE
 62
7
  6
CONTINUOUS
 10
105.9034088834
 20
173.3149721313
 40
10.0
 50
356.2518750043
 51
360.0
  0
ARC
  8
SURFACE
 62
7
  6
CONTINUOUS
 10
132.5034088834
 20
173.3149721313
 40
10.0
 50
356.2518750043
 51
360.0
  0
ARC
  8
SURFACE
 62
7
  6
CONTINUOUS
 10
113.903430886
 20
178.43779183
 40
1.9999780849
 50
0.0
 51
90.0000050108
  0
ARC
  8
SURFACE
 62
7
  6
CONTINUOUS
 10
105.503385662
 20
178.4377930488
 40
1.9999768761
 50
90.0
 51
180.0000055864
  0
ARC
  8
SURFACE
 62
7
  6
CONTINUOUS
 10
132.1033790786
 20
178.4377996322
 40
1.9999703551
 50
89.9999908379
 51
180.0
  0
ARC
  8
SURFACE
 62
7
  6
CONTINUOUS
 10
76.553378683
 20
178.4378000278
 40
1.9999699637
 50
90.0
 51
180.0000094001
  0
ARC
  8
SURFACE
 62
7
  6
CONTINUOUS
 10
140.5034394497
 20
178.4378003937
 40
1.9999696021
 50
359.9999903509
 51
90.0
  0
ARC
  8
SURFACE
 62
7
  6
CONTINUOUS
 10
84.9534403672
 20
178.4378013112
 40
1.9999686942
 50
0.0
 51
90.0000101943
  0
ARC
  8
SURFACE
 62
7
  6
CONTINUOUS
 10
174.4034088834
 20
162.4377698274
 40
17.5
 50
56.9442688491
 51
65.3800440832
  0
ARC
  8
SURFACE
 62
7
  6
CONTINUOUS
 10
174.4034088834
 20
162.4377698274
 40
17.5
 50
114.6200104651
 51
123.0557311509
  0
ARC
  8
SURFACE
 62
7
  6
CONTINUOUS
 10
213.2034088834
 20
152.5377698274
 40
2.0
 50
270.0
 51
360.0
  0
ARC
  8
SURFACE
 62
7
  6
CONTINUOUS
 10
186.4034088834
 20
152.5377698274
 40
2.0
 50
180.0
 51
270.0
  0
ARC
  8
SURFACE
 62
7
  6
CONTINUOUS
 10
162.4034088834
 20
152.5377698274
 40
2.0
 50
270.0
 51
360.0
  0
ARC
  8
SURFACE
 62
7
  6
CONTINUOUS
 10
220.200551083
 20
152.5374651482
 40
1.9999999885
 50
180.0
 51
270.0
  0
ARC
  8
SURFACE
 62
7
  6
CONTINUOUS
 10
179.4037135626
 20
152.5374651482
 40
1.9999999885
 50
270.0
 51
360.0
  0
ARC
  8
SURFACE
 62
7
  6
CONTINUOUS
 10
169.4031042043
 20
152.5374651482
 40
1.9999999885
 50
180.0
 51
270.0
  0
ARC
  8
SURFACE
 62
7
  6
CONTINUOUS
 10
165.4034088834
 20
176.2670865133
 40
1.0
 50
123.0557311508
 51
176.9717778898
  0
ARC
  8
SURFACE
 62
7
  6
CONTINUOUS
 10
183.4034088834
 20
176.2670865133
 40
1.0
 50
3.0282723207
 51
56.9442688491
  0
ARC
  8
SURFACE
 62
7
  6
CONTINUOUS
 10
216.2034088834
 20
176.2685750266
 40
1.0
 50
123.0462537767
 51
176.9400255027
  0
ARC
  8
SURFACE
 62
7
  6
CONTINUOUS
 10
218.3272576915
 20
177.4377698274
 40
1.0
 50
90.0000000002
 51
114.6199773287
  0
ARC
  8
0
 62
7
  6
CONTINUOUS
 10
237.5975570238
 20
121.0898906874
 40
1.5
 50
180.0
 51
260.0
  0
ARC
  8
0
 62
7
  6
CONTINUOUS
 10
237.5975570238
 20
122.1856489675
 40
1.5
 50
100.0
 51
180.0
  0
ARC
  8
0
 62
7
  6
CONTINUOUS
 10
263.600110145
 20
121.0898906874
 40
1.5
 50
280.0
 51
360.0
  0
ARC
  8
0
 62
7
  6
CONTINUOUS
 10
263.600110145
 20
122.1856489675
 40
1.5
 50
0.0
 51
80.0
  0
ARC
  8
0
 62
7
  6
CONTINUOUS
 10
288.3975570238
 20
122.1856489675
 40
1.5
 50
100.0
 51
180.0
  0
ARC
  8
0
 62
7
  6
CONTINUOUS
 10
288.3975570238
 20
121.0898906874
 40
1.5
 50
180.0
 51
260.0
  0
ARC
  8
0
 62
7
  6
CONTINUOUS
 10
239.5975570238
 20
118.1986701962
 40
1.0
 50
0.0
 51
80.0
  0
ARC
  8
0
 62
7
  6
CONTINUOUS
 10
239.5975570238
 20
125.0768694586
 40
1.0
 50
280.0
 51
360.0
  0
ARC
  8
0
 62
7
  6
CONTINUOUS
 10
261.600110145
 20
118.1986701962
 40
1.0
 50
100.0
 51
180.0
  0
ARC
  8
0
 62
7
  6
CONTINUOUS
 10
261.600110145
 20
125.0768694586
 40
1.0
 50
180.0
 51
260.0
  0
ARC
  8
0
 62
7
  6
CONTINUOUS
 10
290.3975570238
 20
125.0768694586
 40
1.0
 50
280.0
 51
360.0
  0
ARC
  8
0
 62
7
  6
CONTINUOUS
 10
290.3975570238
 20
118.1986701962
 40
1.0
 50
0.0
 51
80.0
  0
ARC
  8
0
 62
7
  6
CONTINUOUS
 10
243.724970042
 20
116.6377698274
 40
1.0
 50
245.3800226713
 51
269.9999999999
  0
ARC
  8
0
 62
7
  6
CONTINUOUS
 10
241.5975570238
 20
117.809284
 40
1.0
 50
183.0123998679
 51
236.9389798146
  0
ARC
  8
0
 62
7
  6
CONTINUOUS
 10
257.4726971268
 20
116.6377698274
 40
1.0
 50
270.0
 51
294.6199773287
  0
ARC
  8
0
 62
7
  6
CONTINUOUS
 10
259.600110145
 20
117.809284
 40
1.0
 50
303.0610201854
 51
356.9873755487
  0
ARC
  8
0
 62
7
  6
CONTINUOUS
 10
294.524970042
 20
116.6377698274
 40
1.0
 50
245.3800226713
 51
269.9999999999
  0
ARC
  8
0
 62
7
  6
CONTINUOUS
 10
292.3975570238
 20
117.809284
 40
1.0
 50
183.0123998679
 51
236.9389798147
  0
ARC
  8
0
 62
7
  6
CONTINUOUS
 10
304.0204568082
 20
116.6377698274
 40
1.0
 50
270.0
 51
294.6204187089
  0
ARC
  8
0
 62
7
  6
CONTINUOUS
 10
306.1488335844
 20
117.809932776
 40
1.0
 50
303.0654559334
 51
357.0012031217
  0
ARC
  8
0
 62
7
  6
CONTINUOUS
 10
250.5988335844
 20
131.6377698274
 40
17.5
 50
236.9389798146
 51
245.3800226713
  0
ARC
  8
0
 62
7
  6
CONTINUOUS
 10
250.5988335844
 20
131.6377698274
 40
17.5
 50
294.6199773287
 51
303.0610201854
  0
ARC
  8
0
 62
7
  6
CONTINUOUS
 10
262.600110145
 20
141.5377698274
 40
2.0
 50
90.0
 51
180.0
  0
ARC
  8
0
 62
7
  6
CONTINUOUS
 10
238.5975570238
 20
141.5377698274
 40
2.0
 50
0.0
 51
90.0
  0
ARC
  8
0
 62
7
  6
CONTINUOUS
 10
245.5972523446
 20
141.5380745066
 40
1.9999999885
 50
90.0
 51
180.0
  0
ARC
  8
0
 62
7
  6
CONTINUOUS
 10
255.6004148242
 20
141.5380745066
 40
1.9999999885
 50
0.0
 51
90.0
  0
ARC
  8
0
 62
7
  6
CONTINUOUS
 10
297.1464494254
 20
131.6377786009
 40
17.5000679
 50
294.6204187089
 51
303.0654559334
  0
ARC
  8
0
 62
7
  6
CONTINUOUS
 10
301.3988335844
 20
131.6377698274
 40
17.5
 50
236.9389798146
 51
245.3800226713
  0
ARC
  8
0
 62
7
  6
CONTINUOUS
 10
309.1488335844
 20
142.8877698274
 40
2.0
 50
90.0
 51
180.0
  0
ARC
  8
0
 62
7
  6
CONTINUOUS
 10
289.3975570238
 20
141.5377698274
 40
2.0
 50
0.0
 51
90.0
  0
ARC
  8
0
 62
7
  6
CONTINUOUS
 10
296.3972523446
 20
141.5380745066
 40
1.9999999885
 50
90.0
 51
180.0
  0
ARC
  8
0
 62
7
  6
CONTINUOUS
 10
350.7988335844
 20
120.7605675235
 40
10.0
 50
0.0
 51
3.7481249957
  0
ARC
  8
0
 62
7
  6
CONTINUOUS
 10
322.9988335844
 20
120.7605675235
 40
10.0
 50
0.0
 51
3.7481249957
  0
ARC
  8
0
 62
7
  6
CONTINUOUS
 10
358.3988335844
 20
120.7605675235
 40
10.0
 50
176.2518750043
 51
180.0
  0
ARC
  8
0
 62
7
  6
CONTINUOUS
 10
330.5988335844
 20
120.7605675235
 40
10.0
 50
176.2518750043
 51
180.0
  0
ARC
  8
0
 62
7
  6
CONTINUOUS
 10
384.1511212339
 20
116.4744579343
 40
4.0
 50
274.2070809579
 51
360.0
  0
ARC
  8
0
 62
7
  6
CONTINUOUS
 10
330.998864724
 20
115.6377386879
 40
1.999969035
 50
270.0
 51
0.0000100035
  0
ARC
  8
0
 62
7
  6
CONTINUOUS
 10
350.3988024435
 20
115.6377386865
 40
1.9999690335
 50
179.9999900093
 51
270.0
  0
ARC
  8
0
 62
7
  6
CONTINUOUS
 10
322.5988022406
 20
115.6377384836
 40
1.999968833
 50
179.9999898732
 51
270.0
  0
ARC
  8
0
 62
7
  6
CONTINUOUS
 10
358.7988659933
 20
115.6377374185
 40
1.9999677799
 50
270.0
 51
0.0000108221
  0
ARC
  8
0
 62
7
  6
CONTINUOUS
 10
378.7511212339
 20
128.5573850697
 40
0.3
 50
150.0
 51
180.0
  0
ARC
  8
0
 62
7
  6
CONTINUOUS
 10
316.9419793349
 20
140.8877698274
 40
4.0
 50
45.0
 51
90.0
  0
ARC
  8
0
 62
7
  6
CONTINUOUS
 10
319.884201581
 20
140.7739747061
 40
2.0
 50
356.2518750043
 51
45.0
  0
ARC
  8
0
 62
7
  6
CONTINUOUS
 10
326.3011212339
 20
142.0377698274
 40
1.0
 50
90.0
 51
180.0
  0
ARC
  8
0
 62
7
  6
CONTINUOUS
 10
327.3011212339
 20
142.0377698274
 40
1.0
 50
0.0
 51
90.0
  0
ARC
  8
0
 62
7
  6
CONTINUOUS
 10
344.2419793349
 20
141.3877698274
 40
4.0
 50
45.0
 51
90.0
  0
ARC
  8
0
 62
7
  6
CONTINUOUS
 10
337.1556878339
 20
141.3877698274
 40
4.0
 50
90.0
 51
135.0
  0
ARC
  8
0
 62
7
  6
CONTINUOUS
 10
333.7134655879
 20
140.7739747061
 40
2.0
 50
135.0
 51
183.7481249957
  0
ARC
  8
0
 62
7
  6
CONTINUOUS
 10
347.684201581
 20
140.7739747061
 40
2.0
 50
356.2518750043
 51
45.0
  0
ARC
  8
0
 62
7
  6
CONTINUOUS
 10
375.1511212339
 20
136.9752008037
 40
6.0
 50
0.0
 51
45.0
  0
ARC
  8
0
 62
7
  6
CONTINUOUS
 10
380.1511212339
 20
133.5822562003
 40
1.0
 50
330.0
 51
360.0
  0
ARC
  8
0
 62
7
  6
CONTINUOUS
 10
361.5580406331
 20
140.0935497513
 40
2.0
 50
135.0
 51
183.7481249957
  0
ARC
  8
0
 62
7
  6
CONTINUOUS
 10
366.0806878339
 20
141.7877698274
 40
4.0
 50
90.0
 51
135.0
  0
ARC
  8
0
 62
7
  6
CONTINUOUS
 10
354.1011212339
 20
142.0377698274
 40
1.0
 50
90.0
 51
180.0
  0
ARC
  8
0
 62
7
  6
CONTINUOUS
 10
355.1011212339
 20
142.0377698274
 40
1.0
 50
0.0
 51
90.0
  0
ARC
  8
0
 62
7
  6
CONTINUOUS
 10
373.1669793349
 20
141.7877698274
 40
4.0
 50
45.0
 51
90.0
  0
ARC
  8
0
 62
7
  6
CONTINUOUS
 10
385.1511212339
 20
142.9372378239
 40
3.0
 50
0.0
 51
66.0620193933
  0
ARC
  8
0
 62
7
  6
CONTINUOUS
 10
225.2011212339
 20
162.4377698274
 40
17.5
 50
56.9537462233
 51
65.3800226713
  0
ARC
  8
0
 62
7
  6
CONTINUOUS
 10
275.9988335844
 20
162.4377698274
 40
17.5
 50
56.9442688491
 51
65.3799893571
  0
ARC
  8
0
 62
7
  6
CONTINUOUS
 10
275.9988335844
 20
162.4377698274
 40
17.5
 50
114.6197491007
 51
123.0557311509
  0
ARC
  8
SURFACE
 62
7
  6
CONTINUOUS
 10
225.2011212339
 20
162.4377698274
 40
17.5
 50
114.6199773287
 51
123.0462537767
  0
ARC
  8
0
 62
7
  6
CONTINUOUS
 10
237.1988335844
 20
152.5377698274
 40
2.0
 50
180.0
 51
270.0
  0
ARC
  8
0
 62
7
  6
CONTINUOUS
 10
287.9988335844
 20
152.5377698274
 40
2.0
 50
180.0
 51
270.0
  0
ARC
  8
0
 62
7
  6
CONTINUOUS
 10
263.9988335844
 20
152.5377698274
 40
2.0
 50
270.0
 51
360.0
  0
ARC
  8
0
 62
7
  6
CONTINUOUS
 10
270.9985289052
 20
152.5374651482
 40
1.9999999885
 50
180.0
 51
270.0
  0
ARC
  8
0
 62
7
  6
CONTINUOUS
 10
280.9991382636
 20
152.5374651482
 40
1.9999999885
 50
270.0
 51
360.0
  0
ARC
  8
0
 62
7
  6
CONTINUOUS
 10
230.2016913848
 20
152.5374651482
 40
1.9999999885
 50
270.0
 51
360.0
  0
ARC
  8
0
 62
7
  6
CONTINUOUS
 10
232.0749847764
 20
177.4377698274
 40
1.0
 50
65.3800226713
 51
89.9999999998
  0
ARC
  8
0
 62
7
  6
CONTINUOUS
 10
234.1988335844
 20
176.2685750266
 40
1.0
 50
3.0599744973
 51
56.9537462233
  0
ARC
  8
0
 62
7
  6
CONTINUOUS
 10
266.9988335844
 20
176.2670865133
 40
1.0
 50
123.0557311508
 51
176.9717276793
  0
ARC
  8
0
 62
7
  6
CONTINUOUS
 10
284.9988335844
 20
176.2670865133
 40
1.0
 50
3.0282221102
 51
56.9442688491
  0
ARC
  8
0
 62
7
  6
CONTINUOUS
 10
351.6306878339
 20
152.7277698274
 40
4.0
 50
225.0
 51
270.0
  0
ARC
  8
0
 62
7
  6
CONTINUOUS
 10
358.7169793349
 20
152.7277698274
 40
4.0
 50
270.0
 51
315.0
  0
ARC
  8
0
 62
7
  6
CONTINUOUS
 10
330.9419793349
 20
153.1777698274
 40
4.0
 50
270.0
 51
315.0
  0
ARC
  8
0
 62
7
  6
CONTINUOUS
 10
323.8556878339
 20
153.1777698274
 40
4.0
 50
225.0
 51
270.0
  0
ARC
  8
0
 62
7
  6
CONTINUOUS
 10
362.6963896461
 20
153.8787530138
 40
2.0
 50
315.0
 51
3.7481249957
  0
ARC
  8
0
 62
7
  6
CONTINUOUS
 10
376.4946218553
 20
152.2506856195
 40
2.0
 50
176.2518750043
 51
246.0620193933
  0
ARC
  8
0
 62
7
  6
CONTINUOUS
 10
347.6512775228
 20
153.8787530138
 40
2.0
 50
176.2518750043
 51
225.0
  0
ARC
  8
0
 62
7
  6
CONTINUOUS
 10
333.7909646913
 20
153.198328059
 40
2.0
 50
315.0
 51
3.7481249957
  0
ARC
  8
0
 62
7
  6
CONTINUOUS
 10
321.0067024776
 20
153.198328059
 40
2.0
 50
176.2518750043
 51
225.0
  0
ARC
  8
0
 62
7
  6
CONTINUOUS
 10
307.2342382556
 20
152.5377698274
 40
2.0
 50
270.0
 51
3.7481249957
  0
ARC
  8
0
 62
7
  6
CONTINUOUS
 10
370.1411212339
 20
152.0377698274
 40
1.0
 50
270.0
 51
360.0
  0
ARC
  8
0
 62
7
  6
CONTINUOUS
 10
369.1411212339
 20
152.0377698274
 40
1.0
 50
180.0
 51
270.0
  0
ARC
  8
0
 62
7
  6
CONTINUOUS
 10
341.2011212339
 20
152.0377698274
 40
1.0
 50
270.0
 51
360.0
  0
ARC
  8
0
 62
7
  6
CONTINUOUS
 10
340.2011212339
 20
152.0377698274
 40
1.0
 50
180.0
 51
270.0
  0
ARC
  8
0
 62
7
  6
CONTINUOUS
 10
314.6111212339
 20
152.0377698274
 40
1.0
 50
270.0
 51
360.0
  0
ARC
  8
0
 62
7
  6
CONTINUOUS
 10
313.6111212339
 20
152.0377698274
 40
1.0
 50
180.0
 51
270.0
  0
ARC
  8
0
 62
7
  6
CONTINUOUS
 10
344.4988335844
 20
173.3149721313
 40
10.0
 50
180.0
 51
183.7481249957
  0
ARC
  8
0
 62
7
  6
CONTINUOUS
 10
373.4488335844
 20
173.3149721313
 40
10.0
 50
180.0
 51
183.7481249957
  0
ARC
  8
0
 62
7
  6
CONTINUOUS
 10
365.8488335844
 20
173.3149721313
 40
10.0
 50
356.2518750043
 51
360.0
  0
ARC
  8
0
 62
7
  6
CONTINUOUS
 10
336.8988335844
 20
173.3149721313
 40
10.0
 50
356.2518750043
 51
360.0
  0
ARC
  8
0
 62
7
  6
CONTINUOUS
 10
310.2988335844
 20
173.3149721313
 40
10.0
 50
356.2518750043
 51
360.0
  0
ARC
  8
0
 62
7
  6
CONTINUOUS
 10
317.8988335844
 20
173.3149721313
 40
10.0
 50
180.0
 51
183.7481249957
  0
ARC
  8
0
 62
7
  6
CONTINUOUS
 10
336.4988115819
 20
178.43779183
 40
1.9999780849
 50
89.9999949892
 51
180.0
  0
ARC
  8
0
 62
7
  6
CONTINUOUS
 10
344.8988568073
 20
178.4377930503
 40
1.9999768747
 50
359.9999944052
 51
90.0
  0
ARC
  8
0
 62
7
  6
CONTINUOUS
 10
318.2988633892
 20
178.4377996322
 40
1.9999703551
 50
0.0
 51
90.0000091621
  0
ARC
  8
0
 62
7
  6
CONTINUOUS
 10
373.8488637848
 20
178.4378000278
 40
1.9999699637
 50
359.9999905999
 51
90.0
  0
ARC
  8
0
 62
7
  6
CONTINUOUS
 10
309.8988030181
 20
178.4378003937
 40
1.9999696021
 50
90.0
 51
180.0000096491
  0
ARC
  8
0
 62
7
  6
CONTINUOUS
 10
365.4488021007
 20
178.4378013112
 40
1.9999686942
 50
89.9999898057
 51
180.0
  0
ENDSEC
  0
EOF
