  0
SECTION
  2
HEADER
  9
$EXTMAX
 10
420.0
 20
297.0
 30
0.0
  9
$EXTMIN
 10
0.0
 20
0.0
 30
0.0
  9
$LIMMIN
 10
0.0
 20
0.0
  9
$LIMMAX
 10
420.0
 20
297.0
  9
$VIEWCTR
 10
210.0
 20
148.5
  9
$VIEWSIZE
 40
297.0
  9
$CLAYER
  8
0
  9
$LTSCALE
 40
23.1
  9
$CELTYPE
  6
BYLAYER
  9
$DIMSCALE
 40
1.0
  9
$DIMASZ
 40
3.5
  9
$DIMEXO
 40
1.0
  9
$DIMDLI
 40
15.96
  9
$DIMEXE
 40
2.0
  9
$DIMCEN
 40
3.78
  9
$DIMLFAC
 40
1.0
  9
$DIMBLK
  1
_FILLED
  9
$DIMTXT
 40
3.5
  9
$AUNITS
 70
0
  9
$PDMODE
 70
3
  9
$PDSIZE
 40
0.3125
  9
$TILEMODE
 70
1
  0
ENDSEC
  0
SECTION
  2
TABLES
  0
TABLE
  2
LTYPE
 70
6
  0
LTYPE
  2
BYBLOCK
 70
0
  3

 72
65
 73
0
 40
0.0
  0
LTYPE
  2
BYLAYER
 70
0
  3

 72
65
 73
0
 40
0.0
  0
LTYPE
  2
CONTINUOUS
 70
64
  3
Solid line
 72
65
 73
0
 40
0.0
  0
LTYPE
  2
CENTER
 70
64
  3
____ _ ____ _ ____ _ ____ _ ____ _ ____ _ ____
 72
65
 73
4
 40
0.6
 49
0.375
 49
-0.075
 49
0.075
 49
-0.075
  0
LTYPE
  2
HIDDEN
 70
64
  3
- - - - - - - - - - - - - - - - - - - -
 72
65
 73
2
 40
0.2
 49
0.1
 49
-0.1
  0
LTYPE
  2
PHANTOM
 70
64
  3
_____ _ _ _____ _ _ _____ _ _ _____
 72
65
 73
6
 40
0.8
 49
0.45
 49
-0.05
 49
0.1
 49
-0.05
 49
0.1
 49
-0.05
  0
LTYPE
  2
DOT
 70
64
  3
. . . . . . . . . . . . . . . . . . . .
 72
65
 73
2
 40
0.2
 49
0.1
 49
-0.1
  0
LTYPE
  2
DASHED
 70
64
  3
- - - - - - - - - - - - - - - - - - - -
 72
65
 73
2
 40
0.2
 49
0.1
 49
-0.1
  0
ENDTAB
  0
TABLE
  2
LAYER
 70
36
  0
LAYER
  2
0
 70
0
 62
7
  6
CONTINUOUS
  0
LAYER
  2
DEFAULT_1
 70
0
 62
7
  6
CENTER
  0
LAYER
  2
DEFAULT_2
 70
0
 62
8
  6
HIDDEN
  0
LAYER
  2
DEFAULT_3
 70
0
 62
7
  6
PHANTOM
  0
LAYER
  2
CSYS
 70
0
 62
7
  6
CONTINUOUS
  0
LAYER
  2
CURVE
 70
0
 62
7
  6
CONTINUOUS
  0
LAYER
  2
PITCHLINE
 70
0
 62
7
  6
CONTINUOUS
  0
LAYER
  2
SQ
 70
0
 62
7
  6
CONTINUOUS
  0
LAYER
  2
SURFACE
 70
0
 62
7
  6
CONTINUOUS
  0
ENDTAB
  0
TABLE
  2
STYLE
 70
1
  0
STYLE
  2
STANDARD
 70
0
 40
0.0
 41
0.8
 50
0.0
 71
0
 42
0.2
  3
txt
  4

  0
STYLE
  2
TEXTSTYLE_1
 70
0
 40
0.0
 41
0.8
 50
0.0
 71
0
 42
0.2
  3
gdt
  4

  0
STYLE
  2
TEXTSTYLE_2
 70
0
 40
0.0
 41
0.6
 50
0.0
 71
0
 42
0.2
  3
txt
  4

  0
STYLE
  2
TEXTSTYLE_3
 70
0
 40
0.0
 41
1.0
 50
0.0
 71
0
 42
0.2
  3
ftb_____.ttf
  4

  0
STYLE
  2
TEXTSTYLE_4
 70
0
 40
0.0
 41
1.0
 50
0.0
 71
0
 42
0.2
  3
fti_____.ttf
  4

  0
STYLE
  2
TEXTSTYLE_5
 70
0
 40
0.0
 41
1.0
 50
0.0
 71
0
 42
0.2
  3
frutiger light.ttf
  4

  0
STYLE
  2
TEXTSTYLE_6
 70
0
 40
0.0
 41
0.7
 50
0.0
 71
0
 42
0.2
  3
txt
  4

  0
STYLE
  2
TEXTSTYLE_7
 70
0
 40
0.0
 41
0.4
 50
0.0
 71
0
 42
0.2
  3
txt
  4

  0
ENDTAB
  0
ENDSEC
  0
SECTION
  2
BLOCKS
  0
BLOCK
  8
0
 62
2
  6
CONTINUOUS
  2
UNI_LOGO2_BL1
 70
64
 10
382.7840918555
 20
35.5067593403
  0
TEXT
  8
0
 62
7
  6
CONTINUOUS
 10
373.842376864
 20
30.5995157174
  7
TEXTSTYLE_4
 40
1.0655737705
  1
The brand for plastic modular belts and chains
 41
1.0
 72
0
  0
LINE
  8
0
 62
7
  6
CONTINUOUS
 10
358.7621602445
 20
36.0805298321
 11
358.7621602445
 21
33.9493822911
  0
LINE
  8
0
 62
7
  6
CONTINUOUS
 10
359.0512227376
 20
30.9584509954
 11
359.0512227376
 21
31.0552420547
  0
LINE
  8
0
 62
7
  6
CONTINUOUS
 10
358.7621602445
 20
31.0229783683
 11
358.8199727462
 21
30.8293962497
  0
LINE
  8
0
 62
7
  6
CONTINUOUS
 10
360.1556028675
 20
33.867415078
 11
360.1556028675
 21
36.0805298321
  0
LINE
  8
0
 62
7
  6
CONTINUOUS
 10
361.0746601894
 20
32.0231527829
 11
361.0746601894
 21
30.5067593403
  0
LINE
  8
0
 62
7
  6
CONTINUOUS
 10
361.3637227445
 20
30.5067593403
 11
361.3637227445
 21
31.2488242184
  0
LINE
  8
0
 62
7
  6
CONTINUOUS
 10
361.3637227445
 20
31.3778789641
 11
361.3637227445
 21
32.0231527829
  0
LINE
  8
0
 62
7
  6
CONTINUOUS
 10
358.8199727462
 20
31.216560532
 11
358.7621602445
 21
31.0229783683
  0
LINE
  8
0
 62
7
  6
CONTINUOUS
 10
359.1668477307
 20
30.7971325633
 11
359.0512227376
 21
30.9584509954
  0
LINE
  8
0
 62
7
  6
CONTINUOUS
 10
360.2652852997
 20
31.3133515913
 11
360.3230977445
 21
31.216560532
  0
LINE
  8
0
 62
7
  6
CONTINUOUS
 10
360.6121602997
 20
31.216560532
 11
360.5543476894
 21
31.3456152777
  0
LINE
  8
0
 62
7
  6
CONTINUOUS
 10
362.0408487691
 20
36.0805298321
 11
362.0408487691
 21
34.2772511436
  0
LINE
  8
0
 62
7
  6
CONTINUOUS
 10
362.0408487691
 20
32.9657757338
 11
362.0408487691
 21
32.3100380288
  0
LINE
  8
0
 62
7
  6
CONTINUOUS
 10
362.4043477445
 20
31.1520331591
 11
362.4043477445
 21
30.5067593403
  0
LINE
  8
0
 62
7
  6
CONTINUOUS
 10
362.6934101343
 20
30.5067593403
 11
362.6934101343
 21
31.1520331591
  0
LINE
  8
0
 62
7
  6
CONTINUOUS
 10
359.0512227376
 20
31.0552420547
 11
359.1090352445
 21
31.1842968456
  0
LINE
  8
0
 62
7
  6
CONTINUOUS
 10
358.8199727462
 20
30.8293962497
 11
358.9355977445
 21
30.7003414814
  0
LINE
  8
0
 62
7
  6
CONTINUOUS
 10
362.3465351343
 20
31.2810879048
 11
362.4043477445
 21
31.1520331591
  0
LINE
  8
0
 62
7
  6
CONTINUOUS
 10
363.1559103548
 20
30.7971325633
 11
363.2137226343
 21
30.668077795
  0
LINE
  8
0
 62
7
  6
CONTINUOUS
 10
362.6934101343
 20
31.1520331591
 11
362.6355978548
 21
31.3133515913
  0
LINE
  8
0
 62
7
  6
CONTINUOUS
 10
363.1559103548
 20
31.3456152777
 11
363.1559103548
 21
31.2810879048
  0
LINE
  8
0
 62
7
  6
CONTINUOUS
 10
363.1559103548
 20
30.8939236226
 11
363.1559103548
 21
30.7971325633
  0
LINE
  8
0
 62
7
  6
CONTINUOUS
 10
363.4342913921
 20
32.3100380288
 11
363.4342913921
 21
36.0805298321
  0
LINE
  8
0
 62
7
  6
CONTINUOUS
 10
363.4449727445
 20
30.7648688543
 11
363.4449727445
 21
30.8293962497
  0
LINE
  8
0
 62
7
  6
CONTINUOUS
 10
363.7621602445
 20
36.0805298321
 11
363.7621602445
 21
32.3100380288
  0
LINE
  8
0
 62
7
  6
CONTINUOUS
 10
360.5543476894
 20
30.7003414814
 11
360.6121602997
 21
30.8293962497
  0
LINE
  8
0
 62
7
  6
CONTINUOUS
 10
364.9480979651
 20
30.6035504109
 11
364.890285024
 21
30.7648688543
  0
LINE
  8
0
 62
7
  6
CONTINUOUS
 10
364.6012229651
 20
31.2810879048
 11
364.6012229651
 21
31.1842968456
  0
LINE
  8
0
 62
7
  6
CONTINUOUS
 10
364.6012229651
 20
31.0552420547
 11
364.6012229651
 21
30.8616599362
  0
LINE
  8
0
 62
7
  6
CONTINUOUS
 10
364.890285024
 20
30.7648688543
 11
364.890285024
 21
31.2810879048
  0
LINE
  8
0
 62
7
  6
CONTINUOUS
 10
365.1556028675
 20
32.3100380288
 11
365.1556028675
 21
34.1133167174
  0
LINE
  8
0
 62
7
  6
CONTINUOUS
 10
365.1556028675
 20
35.4247921272
 11
365.1556028675
 21
36.0805298321
  0
LINE
  8
0
 62
7
  6
CONTINUOUS
 10
365.4684104651
 20
32.0231527829
 11
365.4684104651
 21
31.8618343508
  0
LINE
  8
0
 62
7
  6
CONTINUOUS
 10
365.4684104651
 20
31.5391973962
 11
365.4684104651
 21
30.5067593403
  0
LINE
  8
0
 62
7
  6
CONTINUOUS
 10
365.757472524
 20
30.5067593403
 11
365.757472524
 21
31.5391973962
  0
LINE
  8
0
 62
7
  6
CONTINUOUS
 10
365.757472524
 20
31.8618343508
 11
365.757472524
 21
32.0231527829
  0
LINE
  8
0
 62
7
  6
CONTINUOUS
 10
360.3230977445
 20
30.8293962497
 11
360.2652852997
 21
30.7326051679
  0
LINE
  8
0
 62
7
  6
CONTINUOUS
 10
362.6355978548
 20
31.3133515913
 11
362.5777852445
 21
31.3778789641
  0
LINE
  8
0
 62
7
  6
CONTINUOUS
 10
363.5027853548
 20
30.7003414814
 11
363.4449727445
 21
30.7648688543
  0
LINE
  8
0
 62
7
  6
CONTINUOUS
 10
364.6590352445
 20
30.5712867188
 11
364.716847524
 21
30.5067593403
  0
LINE
  8
0
 62
7
  6
CONTINUOUS
 10
364.6012229651
 20
30.668077795
 11
364.6590352445
 21
30.5712867188
  0
LINE
  8
0
 62
7
  6
CONTINUOUS
 10
365.0059102445
 20
30.5067593403
 11
364.9480979651
 21
30.6035504109
  0
LINE
  8
0
 62
7
  6
CONTINUOUS
 10
364.890285024
 20
31.2810879048
 11
364.8324727445
 21
31.3778789641
  0
LINE
  8
0
 62
7
  6
CONTINUOUS
 10
366.2199727445
 20
31.5391973962
 11
366.2199727445
 21
30.5067593403
  0
LINE
  8
0
 62
7
  6
CONTINUOUS
 10
366.5090354651
 20
30.5067593403
 11
366.5090354651
 21
31.2488242184
  0
LINE
  8
0
 62
7
  6
CONTINUOUS
 10
366.5090354651
 20
31.3778789641
 11
366.5090354651
 21
31.5391973962
  0
LINE
  8
0
 62
7
  6
CONTINUOUS
 10
367.0408487691
 20
34.5231527829
 11
367.0408487691
 21
32.3100380288
  0
LINE
  8
0
 62
7
  6
CONTINUOUS
 10
358.9355977445
 20
31.3456152777
 11
358.8199727462
 21
31.216560532
  0
LINE
  8
0
 62
7
  6
CONTINUOUS
 10
359.1090352445
 20
31.1842968456
 11
359.1668477307
 21
31.2488242184
  0
LINE
  8
0
 62
7
  6
CONTINUOUS
 10
358.9355977445
 20
30.7003414814
 11
359.0512227376
 21
30.6358140973
  0
LINE
  8
0
 62
7
  6
CONTINUOUS
 10
359.3402852307
 20
30.7003414814
 11
359.1668477307
 21
30.7971325633
  0
LINE
  8
0
 62
7
  6
CONTINUOUS
 10
364.543410024
 20
31.3456152777
 11
364.6012229651
 21
31.2810879048
  0
LINE
  8
0
 62
7
  6
CONTINUOUS
 10
367.491847524
 20
31.2810879048
 11
367.5496604651
 21
31.1197694727
  0
LINE
  8
0
 62
7
  6
CONTINUOUS
 10
367.838722524
 20
31.1197694727
 11
367.7809102445
 21
31.2810879048
  0
LINE
  8
0
 62
7
  6
CONTINUOUS
 10
367.5496604651
 20
31.1197694727
 11
367.5496604651
 21
30.5067593403
  0
LINE
  8
0
 62
7
  6
CONTINUOUS
 10
367.838722524
 20
30.5067593403
 11
367.838722524
 21
31.1197694727
  0
LINE
  8
0
 62
7
  6
CONTINUOUS
 10
368.3012227445
 20
31.3456152777
 11
368.3012227445
 21
31.2810879048
  0
LINE
  8
0
 62
7
  6
CONTINUOUS
 10
368.4342913921
 20
32.3100380288
 11
368.4342913921
 21
34.4411855698
  0
LINE
  8
0
 62
7
  6
CONTINUOUS
 10
368.7621602445
 20
36.0805298321
 11
368.7621602445
 21
32.3100380288
  0
LINE
  8
0
 62
7
  6
CONTINUOUS
 10
363.4449727445
 20
30.8293962497
 11
363.5027853548
 21
30.926187309
  0
LINE
  8
0
 62
7
  6
CONTINUOUS
 10
359.0512227376
 20
30.6358140973
 11
359.2246602583
 21
30.5712867188
  0
LINE
  8
0
 62
7
  6
CONTINUOUS
 10
360.5543476894
 20
31.3456152777
 11
360.3809101894
 21
31.4424063369
  0
LINE
  8
0
 62
7
  6
CONTINUOUS
 10
363.2137226343
 20
30.668077795
 11
363.3871601343
 21
30.5712867188
  0
LINE
  8
0
 62
7
  6
CONTINUOUS
 10
362.2309102445
 20
31.3456152777
 11
362.3465351343
 21
31.2810879048
  0
LINE
  8
0
 62
7
  6
CONTINUOUS
 10
362.5777852445
 20
31.3778789641
 11
362.4621603548
 21
31.4424063369
  0
LINE
  8
0
 62
7
  6
CONTINUOUS
 10
368.3012227445
 20
30.7648688543
 11
368.4168479651
 21
30.6358140973
  0
LINE
  8
0
 62
7
  6
CONTINUOUS
 10
368.6480977445
 20
30.7003414814
 11
368.5902854651
 21
30.7648688543
  0
LINE
  8
0
 62
7
  6
CONTINUOUS
 10
368.3012227445
 20
31.2810879048
 11
368.4168479651
 21
31.1520331591
  0
LINE
  8
0
 62
7
  6
CONTINUOUS
 10
367.7809102445
 20
31.2810879048
 11
367.7230979651
 21
31.3778789641
  0
LINE
  8
0
 62
7
  6
CONTINUOUS
 10
370.1512223035
 20
30.7003414814
 11
370.1512223035
 21
30.7648688543
  0
LINE
  8
0
 62
7
  6
CONTINUOUS
 10
370.1556028675
 20
32.3100380288
 11
370.1556028675
 21
36.0805298321
  0
LINE
  8
0
 62
7
  6
CONTINUOUS
 10
363.2137226343
 20
31.4101426505
 11
363.1559103548
 21
31.3456152777
  0
LINE
  8
0
 62
7
  6
CONTINUOUS
 10
360.091847717
 20
31.3778789641
 11
360.2652852997
 21
31.3133515913
  0
LINE
  8
0
 62
7
  6
CONTINUOUS
 10
364.8324727445
 20
31.3778789641
 11
364.716847524
 21
31.4424063369
  0
LINE
  8
0
 62
7
  6
CONTINUOUS
 10
368.6480977445
 20
31.216560532
 11
368.5902854651
 21
31.2810879048
  0
LINE
  8
0
 62
7
  6
CONTINUOUS
 10
369.8043479651
 20
30.8293962497
 11
369.8621602445
 21
30.7648688543
  0
LINE
  8
0
 62
7
  6
CONTINUOUS
 10
370.1512223035
 20
30.7648688543
 11
370.0355977445
 21
30.8939236226
  0
LINE
  8
0
 62
7
  6
CONTINUOUS
 10
369.8043479651
 20
31.3456152777
 11
369.8621602445
 21
31.2810879048
  0
LINE
  8
0
 62
7
  6
CONTINUOUS
 10
370.1512223035
 20
31.2810879048
 11
370.0355977445
 21
31.4101426505
  0
LINE
  8
0
 62
7
  6
CONTINUOUS
 10
363.4449727445
 20
31.2810879048
 11
363.5027853548
 21
31.3456152777
  0
LINE
  8
0
 62
7
  6
CONTINUOUS
 10
363.2715352445
 20
31.0229783683
 11
363.1559103548
 21
30.8939236226
  0
LINE
  8
0
 62
7
  6
CONTINUOUS
 10
364.6012229651
 20
30.8616599362
 11
364.543410024
 21
30.7971325633
  0
LINE
  8
0
 62
7
  6
CONTINUOUS
 10
364.543410024
 20
30.6035504109
 11
364.6012229651
 21
30.668077795
  0
LINE
  8
0
 62
7
  6
CONTINUOUS
 10
363.3871601343
 20
30.5712867188
 11
363.5027853548
 21
30.5390230296
  0
LINE
  8
0
 62
7
  6
CONTINUOUS
 10
360.3809101894
 20
31.4424063369
 11
360.1496602445
 21
31.5069337098
  0
LINE
  8
0
 62
7
  6
CONTINUOUS
 10
363.7340351343
 20
30.6358140973
 11
363.5027853548
 21
30.7003414814
  0
LINE
  8
0
 62
7
  6
CONTINUOUS
 10
362.4621603548
 20
31.4424063369
 11
362.2887228548
 21
31.5069337098
  0
LINE
  8
0
 62
7
  6
CONTINUOUS
 10
364.716847524
 20
31.4424063369
 11
364.543410024
 21
31.5069337098
  0
LINE
  8
0
 62
7
  6
CONTINUOUS
 10
367.3762229651
 20
31.3456152777
 11
367.491847524
 21
31.2810879048
  0
LINE
  8
0
 62
7
  6
CONTINUOUS
 10
367.7230979651
 20
31.3778789641
 11
367.6074727445
 21
31.4424063369
  0
LINE
  8
0
 62
7
  6
CONTINUOUS
 10
359.2246602583
 20
30.5712867188
 11
359.3980977583
 21
30.5390230296
  0
LINE
  8
0
 62
7
  6
CONTINUOUS
 10
359.6871602721
 20
30.6358140973
 11
359.3402852307
 21
30.7003414814
  0
LINE
  8
0
 62
7
  6
CONTINUOUS
 10
362.1152853548
 20
31.3778789641
 11
362.2309102445
 21
31.3456152777
  0
LINE
  8
0
 62
7
  6
CONTINUOUS
 10
364.4277854651
 20
31.3778789641
 11
364.543410024
 21
31.3456152777
  0
LINE
  8
0
 62
7
  6
CONTINUOUS
 10
368.7637229651
 20
30.668077795
 11
368.6480977445
 21
30.7003414814
  0
LINE
  8
0
 62
7
  6
CONTINUOUS
 10
367.2605977445
 20
31.3778789641
 11
367.3762229651
 21
31.3456152777
  0
LINE
  8
0
 62
7
  6
CONTINUOUS
 10
368.4168479651
 20
30.6358140973
 11
368.5902854651
 21
30.5712867188
  0
LINE
  8
0
 62
7
  6
CONTINUOUS
 10
367.6074727445
 20
31.4424063369
 11
367.4340352445
 21
31.5069337098
  0
LINE
  8
0
 62
7
  6
CONTINUOUS
 10
368.8215352445
 20
31.1520331591
 11
368.6480977445
 21
31.216560532
  0
LINE
  8
0
 62
7
  6
CONTINUOUS
 10
369.6309104651
 20
30.8939236226
 11
369.8043479651
 21
30.8293962497
  0
LINE
  8
0
 62
7
  6
CONTINUOUS
 10
370.0355977445
 20
31.4101426505
 11
369.8621602445
 21
31.4746700234
  0
LINE
  8
0
 62
7
  6
CONTINUOUS
 10
368.4168479651
 20
31.1520331591
 11
368.6480977445
 21
31.0552420547
  0
LINE
  8
0
 62
7
  6
CONTINUOUS
 10
370.0355977445
 20
30.8939236226
 11
369.8043479651
 21
30.9907146818
  0
LINE
  8
0
 62
7
  6
CONTINUOUS
 10
368.5902854651
 20
31.2810879048
 11
368.6480977445
 21
31.3456152777
  0
LINE
  8
0
 62
7
  6
CONTINUOUS
 10
359.0512227376
 20
31.4101426505
 11
358.9355977445
 21
31.3456152777
  0
LINE
  8
0
 62
7
  6
CONTINUOUS
 10
359.1668477307
 20
31.2488242184
 11
359.3402852307
 21
31.3456152777
  0
LINE
  8
0
 62
7
  6
CONTINUOUS
 10
361.4793477997
 20
31.4424063369
 11
361.3637227445
 21
31.3778789641
  0
LINE
  8
0
 62
7
  6
CONTINUOUS
 10
361.3637227445
 20
31.2488242184
 11
361.4793477997
 21
31.3133515913
  0
LINE
  8
0
 62
7
  6
CONTINUOUS
 10
360.3809101894
 20
30.6035504109
 11
360.5543476894
 21
30.7003414814
  0
LINE
  8
0
 62
7
  6
CONTINUOUS
 10
359.3980977583
 20
30.5390230296
 11
359.744972717
 21
30.5067593403
  0
LINE
  8
0
 62
7
  6
CONTINUOUS
 10
363.5027853548
 20
30.5390230296
 11
363.7340351343
 21
30.5067593403
  0
LINE
  8
0
 62
7
  6
CONTINUOUS
 10
361.8840352445
 20
31.4101426505
 11
362.1152853548
 21
31.3778789641
  0
LINE
  8
0
 62
7
  6
CONTINUOUS
 10
364.1965353548
 20
31.4101426505
 11
364.4277854651
 21
31.3778789641
  0
LINE
  8
0
 62
7
  6
CONTINUOUS
 10
368.6480977445
 20
31.0552420547
 11
369.6309104651
 21
30.8939236226
  0
LINE
  8
0
 62
7
  6
CONTINUOUS
 10
369.8043479651
 20
30.9907146818
 11
368.8215352445
 21
31.1520331591
  0
LINE
  8
0
 62
7
  6
CONTINUOUS
 10
362.2887228548
 20
31.5069337098
 11
362.1152853548
 21
31.5391973962
  0
LINE
  8
0
 62
7
  6
CONTINUOUS
 10
368.5902854651
 20
30.5712867188
 11
368.7637229651
 21
30.5390230296
  0
LINE
  8
0
 62
7
  6
CONTINUOUS
 10
367.4340352445
 20
31.5069337098
 11
367.2605977445
 21
31.5391973962
  0
LINE
  8
0
 62
7
  6
CONTINUOUS
 10
369.6887227445
 20
31.3778789641
 11
369.8043479651
 21
31.3456152777
  0
LINE
  8
0
 62
7
  6
CONTINUOUS
 10
369.8621602445
 20
30.7648688543
 11
369.8043479651
 21
30.7003414814
  0
LINE
  8
0
 62
7
  6
CONTINUOUS
 10
368.4168479651
 20
31.4424063369
 11
368.3012227445
 21
31.3456152777
  0
LINE
  8
0
 62
7
  6
CONTINUOUS
 10
363.3293478548
 20
31.4746700234
 11
363.2137226343
 21
31.4101426505
  0
LINE
  8
0
 62
7
  6
CONTINUOUS
 10
363.3871601343
 20
31.0875057863
 11
363.2715352445
 21
31.0229783683
  0
LINE
  8
0
 62
7
  6
CONTINUOUS
 10
363.5027853548
 20
30.926187309
 11
363.6184102445
 21
30.9907146818
  0
LINE
  8
0
 62
7
  6
CONTINUOUS
 10
361.0746601894
 20
30.5067593403
 11
361.3637227445
 21
30.5067593403
  0
LINE
  8
0
 62
7
  6
CONTINUOUS
 10
362.4043477445
 20
30.5067593403
 11
362.6934101343
 21
30.5067593403
  0
LINE
  8
0
 62
7
  6
CONTINUOUS
 10
363.7340351343
 20
30.5067593403
 11
364.0809101343
 21
30.5067593403
  0
LINE
  8
0
 62
7
  6
CONTINUOUS
 10
364.716847524
 20
30.5067593403
 11
365.0059102445
 21
30.5067593403
  0
LINE
  8
0
 62
7
  6
CONTINUOUS
 10
365.4684104651
 20
30.5067593403
 11
365.757472524
 21
30.5067593403
  0
LINE
  8
0
 62
7
  6
CONTINUOUS
 10
366.2199727445
 20
30.5067593403
 11
366.5090354651
 21
30.5067593403
  0
LINE
  8
0
 62
7
  6
CONTINUOUS
 10
367.5496604651
 20
30.5067593403
 11
367.838722524
 21
30.5067593403
  0
LINE
  8
0
 62
7
  6
CONTINUOUS
 10
369.1105979651
 20
30.5067593403
 11
369.4574729651
 21
30.5067593403
  0
LINE
  8
0
 62
7
  6
CONTINUOUS
 10
369.4574729651
 20
30.6358140973
 11
369.1105979651
 21
30.6358140973
  0
LINE
  8
0
 62
7
  6
CONTINUOUS
 10
364.0809101343
 20
30.6358140973
 11
363.7340351343
 21
30.6358140973
  0
LINE
  8
0
 62
7
  6
CONTINUOUS
 10
368.5902854651
 20
30.7648688543
 11
368.3012227445
 21
30.7648688543
  0
LINE
  8
0
 62
7
  6
CONTINUOUS
 10
360.6121602997
 20
30.8293962497
 11
360.3230977445
 21
30.8293962497
  0
LINE
  8
0
 62
7
  6
CONTINUOUS
 10
359.6871602721
 20
31.4101426505
 11
360.091847717
 21
31.3778789641
  0
LINE
  8
0
 62
7
  6
CONTINUOUS
 10
360.1496602445
 20
31.5069337098
 11
359.744972717
 21
31.5391973962
  0
LINE
  8
0
 62
7
  6
CONTINUOUS
 10
368.7637229651
 20
30.5390230296
 11
369.1105979651
 21
30.5067593403
  0
LINE
  8
0
 62
7
  6
CONTINUOUS
 10
369.1105979651
 20
30.6358140973
 11
368.7637229651
 21
30.668077795
  0
LINE
  8
0
 62
7
  6
CONTINUOUS
 10
364.543410024
 20
31.5069337098
 11
364.1965353548
 21
31.5391973962
  0
LINE
  8
0
 62
7
  6
CONTINUOUS
 10
369.3418477445
 20
31.4101426505
 11
369.6887227445
 21
31.3778789641
  0
LINE
  8
0
 62
7
  6
CONTINUOUS
 10
369.6887227445
 20
31.5069337098
 11
369.3418477445
 21
31.5391973962
  0
LINE
  8
0
 62
7
  6
CONTINUOUS
 10
367.0293479651
 20
31.4101426505
 11
367.2605977445
 21
31.3778789641
  0
LINE
  8
0
 62
7
  6
CONTINUOUS
 10
369.8621602445
 20
31.4746700234
 11
369.6887227445
 21
31.5069337098
  0
LINE
  8
0
 62
7
  6
CONTINUOUS
 10
370.0355977445
 20
30.6035504109
 11
370.1512223035
 21
30.7003414814
  0
LINE
  8
0
 62
7
  6
CONTINUOUS
 10
364.543410024
 20
30.7971325633
 11
364.369972524
 21
30.7003414814
  0
LINE
  8
0
 62
7
  6
CONTINUOUS
 10
366.624660024
 20
31.4424063369
 11
366.5090354651
 21
31.3778789641
  0
LINE
  8
0
 62
7
  6
CONTINUOUS
 10
366.5090354651
 20
31.2488242184
 11
366.624660024
 21
31.3133515913
  0
LINE
  8
0
 62
7
  6
CONTINUOUS
 10
359.2246602583
 20
31.4746700234
 11
359.0512227376
 21
31.4101426505
  0
LINE
  8
0
 62
7
  6
CONTINUOUS
 10
361.6527851343
 20
31.5069337098
 11
361.4793477997
 21
31.4424063369
  0
LINE
  8
0
 62
7
  6
CONTINUOUS
 10
361.4793477997
 20
31.3133515913
 11
361.6527851343
 21
31.3778789641
  0
LINE
  8
0
 62
7
  6
CONTINUOUS
 10
360.2652852997
 20
30.7326051679
 11
360.091847717
 21
30.668077795
  0
LINE
  8
0
 62
7
  6
CONTINUOUS
 10
369.6887227445
 20
30.668077795
 11
369.4574729651
 21
30.6358140973
  0
LINE
  8
0
 62
7
  6
CONTINUOUS
 10
364.0809101343
 20
30.5067593403
 11
364.369972524
 21
30.5390230296
  0
LINE
  8
0
 62
7
  6
CONTINUOUS
 10
369.4574729651
 20
30.5067593403
 11
369.8043479651
 21
30.5390230296
  0
LINE
  8
0
 62
7
  6
CONTINUOUS
 10
359.744972717
 20
30.5067593403
 11
360.1496602445
 21
30.5390230296
  0
LINE
  8
0
 62
7
  6
CONTINUOUS
 10
360.091847717
 20
30.668077795
 11
359.6871602721
 21
30.6358140973
  0
LINE
  8
0
 62
7
  6
CONTINUOUS
 10
363.9652852445
 20
31.0552420547
 11
364.6012229651
 21
31.0552420547
  0
LINE
  8
0
 62
7
  6
CONTINUOUS
 10
364.6012229651
 20
31.1842968456
 11
363.9652852445
 21
31.1842968456
  0
LINE
  8
0
 62
7
  6
CONTINUOUS
 10
360.3230977445
 20
31.216560532
 11
360.6121602997
 21
31.216560532
  0
LINE
  8
0
 62
7
  6
CONTINUOUS
 10
363.1559103548
 20
31.2810879048
 11
363.4449727445
 21
31.2810879048
  0
LINE
  8
0
 62
7
  6
CONTINUOUS
 10
369.8621602445
 20
31.2810879048
 11
370.1512223035
 21
31.2810879048
  0
LINE
  8
0
 62
7
  6
CONTINUOUS
 10
363.8496603548
 20
31.4101426505
 11
364.1965353548
 21
31.4101426505
  0
LINE
  8
0
 62
7
  6
CONTINUOUS
 10
368.9949727445
 20
31.4101426505
 11
369.3418477445
 21
31.4101426505
  0
LINE
  8
0
 62
7
  6
CONTINUOUS
 10
369.3418477445
 20
31.5391973962
 11
368.9949727445
 21
31.5391973962
  0
LINE
  8
0
 62
7
  6
CONTINUOUS
 10
367.2605977445
 20
31.5391973962
 11
367.0293479651
 21
31.5391973962
  0
LINE
  8
0
 62
7
  6
CONTINUOUS
 10
366.5090354651
 20
31.5391973962
 11
366.2199727445
 21
31.5391973962
  0
LINE
  8
0
 62
7
  6
CONTINUOUS
 10
365.757472524
 20
31.5391973962
 11
365.4684104651
 21
31.5391973962
  0
LINE
  8
0
 62
7
  6
CONTINUOUS
 10
364.1965353548
 20
31.5391973962
 11
363.8496603548
 21
31.5391973962
  0
LINE
  8
0
 62
7
  6
CONTINUOUS
 10
362.1152853548
 20
31.5391973962
 11
361.8840352445
 21
31.5391973962
  0
LINE
  8
0
 62
7
  6
CONTINUOUS
 10
365.4684104651
 20
31.8618343508
 11
365.757472524
 21
31.8618343508
  0
LINE
  8
0
 62
7
  6
CONTINUOUS
 10
365.757472524
 20
32.0231527829
 11
365.4684104651
 21
32.0231527829
  0
LINE
  8
0
 62
7
  6
CONTINUOUS
 10
361.3637227445
 20
32.0231527829
 11
361.0746601894
 21
32.0231527829
  0
LINE
  8
0
 62
7
  6
CONTINUOUS
 10
360.4015045068
 20
32.3100380288
 11
360.8140758554
 21
32.3100380288
  0
LINE
  8
0
 62
7
  6
CONTINUOUS
 10
362.0408487691
 20
32.3100380288
 11
363.4342913921
 21
32.3100380288
  0
LINE
  8
0
 62
7
  6
CONTINUOUS
 10
363.7621602445
 20
32.3100380288
 11
365.1556028675
 21
32.3100380288
  0
LINE
  8
0
 62
7
  6
CONTINUOUS
 10
367.0408487691
 20
32.3100380288
 11
368.4342913921
 21
32.3100380288
  0
LINE
  8
0
 62
7
  6
CONTINUOUS
 10
368.7621602445
 20
32.3100380288
 11
370.1556028675
 21
32.3100380288
  0
LINE
  8
0
 62
7
  6
CONTINUOUS
 10
366.798097524
 20
31.5069337098
 11
366.624660024
 21
31.4424063369
  0
LINE
  8
0
 62
7
  6
CONTINUOUS
 10
364.369972524
 20
30.5390230296
 11
364.543410024
 21
30.6035504109
  0
LINE
  8
0
 62
7
  6
CONTINUOUS
 10
369.8043479651
 20
30.5390230296
 11
370.0355977445
 21
30.6035504109
  0
LINE
  8
0
 62
7
  6
CONTINUOUS
 10
369.8043479651
 20
30.7003414814
 11
369.6887227445
 21
30.668077795
  0
LINE
  8
0
 62
7
  6
CONTINUOUS
 10
368.7637229651
 20
31.3778789641
 11
368.9949727445
 21
31.4101426505
  0
LINE
  8
0
 62
7
  6
CONTINUOUS
 10
366.798097524
 20
31.3778789641
 11
367.0293479651
 21
31.4101426505
  0
LINE
  8
0
 62
7
  6
CONTINUOUS
 10
363.7340351343
 20
31.0229783683
 11
363.9652852445
 21
31.0552420547
  0
LINE
  8
0
 62
7
  6
CONTINUOUS
 10
367.0293479651
 20
31.5391973962
 11
366.798097524
 21
31.5069337098
  0
LINE
  8
0
 62
7
  6
CONTINUOUS
 10
363.6184102445
 20
31.3778789641
 11
363.8496603548
 21
31.4101426505
  0
LINE
  8
0
 62
7
  6
CONTINUOUS
 10
368.9949727445
 20
31.5391973962
 11
368.6480977445
 21
31.5069337098
  0
LINE
  8
0
 62
7
  6
CONTINUOUS
 10
363.9652852445
 20
31.1842968456
 11
363.6184102445
 21
31.1520331591
  0
LINE
  8
0
 62
7
  6
CONTINUOUS
 10
359.744972717
 20
31.5391973962
 11
359.3980977583
 21
31.5069337098
  0
LINE
  8
0
 62
7
  6
CONTINUOUS
 10
363.8496603548
 20
31.5391973962
 11
363.4449727445
 21
31.5069337098
  0
LINE
  8
0
 62
7
  6
CONTINUOUS
 10
361.221176638
 20
33.4575790124
 11
360.565438933
 21
33.4575790124
  0
LINE
  8
0
 62
7
  6
CONTINUOUS
 10
366.624660024
 20
31.3133515913
 11
366.798097524
 21
31.3778789641
  0
LINE
  8
0
 62
7
  6
CONTINUOUS
 10
368.6480977445
 20
31.3456152777
 11
368.7637229651
 21
31.3778789641
  0
LINE
  8
0
 62
7
  6
CONTINUOUS
 10
368.6480977445
 20
31.5069337098
 11
368.4168479651
 21
31.4424063369
  0
LINE
  8
0
 62
7
  6
CONTINUOUS
 10
364.369972524
 20
30.7003414814
 11
364.0809101343
 21
30.6358140973
  0
LINE
  8
0
 62
7
  6
CONTINUOUS
 10
361.6527851343
 20
31.3778789641
 11
361.8840352445
 21
31.4101426505
  0
LINE
  8
0
 62
7
  6
CONTINUOUS
 10
361.8840352445
 20
31.5391973962
 11
361.6527851343
 21
31.5069337098
  0
LINE
  8
0
 62
7
  6
CONTINUOUS
 10
359.4559102445
 20
31.3778789641
 11
359.6871602721
 21
31.4101426505
  0
LINE
  8
0
 62
7
  6
CONTINUOUS
 10
365.9752749986
 20
34.9329888485
 11
366.6310127035
 21
34.9329888485
  0
LINE
  8
0
 62
7
  6
CONTINUOUS
 10
363.6184102445
 20
30.9907146818
 11
363.7340351343
 21
31.0229783683
  0
LINE
  8
0
 62
7
  6
CONTINUOUS
 10
363.6184102445
 20
31.1520331591
 11
363.3871601343
 21
31.0875057863
  0
LINE
  8
0
 62
7
  6
CONTINUOUS
 10
363.5027853548
 20
31.3456152777
 11
363.6184102445
 21
31.3778789641
  0
LINE
  8
0
 62
7
  6
CONTINUOUS
 10
360.1496602445
 20
30.5390230296
 11
360.3809101894
 21
30.6035504109
  0
LINE
  8
0
 62
7
  6
CONTINUOUS
 10
363.4449727445
 20
31.5069337098
 11
363.3293478548
 21
31.4746700234
  0
LINE
  8
0
 62
7
  6
CONTINUOUS
 10
359.3980977583
 20
31.5069337098
 11
359.2246602583
 21
31.4746700234
  0
LINE
  8
0
 62
7
  6
CONTINUOUS
 10
370.1556028675
 20
36.0805298321
 11
368.7621602445
 21
36.0805298321
  0
LINE
  8
0
 62
7
  6
CONTINUOUS
 10
366.7949471298
 20
36.0805298321
 11
366.3823757812
 21
36.0805298321
  0
LINE
  8
0
 62
7
  6
CONTINUOUS
 10
365.1556028675
 20
36.0805298321
 11
363.7621602445
 21
36.0805298321
  0
LINE
  8
0
 62
7
  6
CONTINUOUS
 10
363.4342913921
 20
36.0805298321
 11
362.0408487691
 21
36.0805298321
  0
LINE
  8
0
 62
7
  6
CONTINUOUS
 10
360.1556028675
 20
36.0805298321
 11
358.7621602445
 21
36.0805298321
  0
LINE
  8
0
 62
7
  6
CONTINUOUS
 10
359.3402852307
 20
31.3456152777
 11
359.4559102445
 21
31.3778789641
  0
CIRCLE
  8
0
 62
7
  6
CONTINUOUS
 10
369.458881556
 20
38.4165954059
 40
2.0901639344
  0
ARC
  8
0
 62
7
  6
CONTINUOUS
 10
360.4015045068
 20
33.9493822911
 40
1.6393442623
 50
180.0
 51
270.0
  0
ARC
  8
0
 62
7
  6
CONTINUOUS
 10
366.7949471298
 20
34.4411855698
 40
1.6393442623
 50
0.0
 51
90.0
  0
ARC
  8
0
 62
7
  6
CONTINUOUS
 10
360.8140758554
 20
33.7854478649
 40
1.4754098361
 50
270.0
 51
326.2510114041
  0
ARC
  8
0
 62
7
  6
CONTINUOUS
 10
366.3823757812
 20
34.6051199961
 40
1.4754098361
 50
90.0
 51
146.2510114041
  0
ARC
  8
0
 62
7
  6
CONTINUOUS
 10
361.221176638
 20
34.2772511436
 40
0.8196721311
 50
270.0
 51
360.0
  0
ARC
  8
0
 62
7
  6
CONTINUOUS
 10
365.9752749986
 20
34.1133167174
 40
0.8196721311
 50
90.0
 51
180.0
  0
ARC
  8
0
 62
7
  6
CONTINUOUS
 10
360.565438933
 20
33.867415078
 40
0.4098360656
 50
180.0
 51
270.0
  0
ARC
  8
0
 62
7
  6
CONTINUOUS
 10
366.6310127035
 20
34.5231527829
 40
0.4098360656
 50
0.0
 51
90.0
  0
SOLID
  8
0
 62
7
  6
CONTINUOUS
 10
365.4684104651
 20
31.8618347111
 11
365.4684104651
 21
32.0231531947
 12
365.757472524
 22
31.8618347111
 13
365.757472524
 23
32.0231531947
  0
SOLID
  8
0
 62
7
  6
CONTINUOUS
 10
359.744972717
 20
31.5391977439
 11
360.1496602445
 21
31.5069333244
 12
359.3980977583
 22
31.5069333244
 13
359.3980977583
 23
31.5069333244
  0
SOLID
  8
0
 62
7
  6
CONTINUOUS
 10
359.2246602583
 20
31.4746706537
 11
359.3980977583
 21
31.5069333244
 12
360.1496602445
 22
31.5069333244
 13
360.1496602445
 23
31.5069333244
  0
SOLID
  8
0
 62
7
  6
CONTINUOUS
 10
360.1496602445
 20
31.5069333244
 11
360.3809101894
 21
31.4424063504
 12
359.2246602583
 22
31.4746706537
 13
359.2246602583
 23
31.4746706537
  0
SOLID
  8
0
 62
7
  6
CONTINUOUS
 10
359.0512227376
 20
31.4101419116
 11
359.2246602583
 21
31.4746706537
 12
360.3809101894
 22
31.4424063504
 13
360.3809101894
 23
31.4424063504
  0
SOLID
  8
0
 62
7
  6
CONTINUOUS
 10
359.0512227376
 20
31.4101419116
 11
360.3809101894
 21
31.4424063504
 12
359.6871602721
 22
31.4101419116
 13
359.6871602721
 23
31.4101419116
  0
SOLID
  8
0
 62
7
  6
CONTINUOUS
 10
359.6871602721
 20
31.4101419116
 11
360.3809101894
 21
31.4424063504
 12
360.091847717
 22
31.3778792603
 13
360.091847717
 23
31.3778792603
  0
SOLID
  8
0
 62
7
  6
CONTINUOUS
 10
360.3809101894
 20
31.4424063504
 11
360.5543476894
 21
31.345614957
 12
360.091847717
 22
31.3778792603
 13
360.091847717
 23
31.3778792603
  0
SOLID
  8
0
 62
7
  6
CONTINUOUS
 10
360.2652852997
 20
31.3133521701
 11
360.091847717
 21
31.3778792603
 12
360.5543476894
 22
31.345614957
 13
360.5543476894
 23
31.345614957
  0
SOLID
  8
0
 62
7
  6
CONTINUOUS
 10
360.2652852997
 20
31.3133521701
 11
360.5543476894
 21
31.345614957
 12
360.3230977445
 22
31.2165606992
 13
360.3230977445
 23
31.2165606992
  0
SOLID
  8
0
 62
7
  6
CONTINUOUS
 10
360.5543476894
 20
31.345614957
 11
360.6121602997
 21
31.2165606992
 12
360.3230977445
 22
31.2165606992
 13
360.3230977445
 23
31.2165606992
  0
SOLID
  8
0
 62
7
  6
CONTINUOUS
 10
361.6527851343
 20
31.5069329918
 11
361.8840352445
 21
31.5391972951
 12
362.1152853548
 22
31.5391972951
 13
362.1152853548
 23
31.5391972951
  0
SOLID
  8
0
 62
7
  6
CONTINUOUS
 10
362.1152853548
 20
31.5391972951
 11
362.2887228548
 21
31.5069329918
 12
361.6527851343
 22
31.5069329918
 13
361.6527851343
 23
31.5069329918
  0
SOLID
  8
0
 62
7
  6
CONTINUOUS
 10
361.4793477997
 20
31.4424059016
 11
361.6527851343
 21
31.5069329918
 12
362.2887228548
 22
31.5069329918
 13
362.2887228548
 23
31.5069329918
  0
SOLID
  8
0
 62
7
  6
CONTINUOUS
 10
362.2887228548
 20
31.5069329918
 11
362.4621603548
 21
31.4424059016
 12
361.4793477997
 22
31.4424059016
 13
361.4793477997
 23
31.4424059016
  0
SOLID
  8
0
 62
7
  6
CONTINUOUS
 10
362.4621603548
 20
31.4424059016
 11
361.8840352445
 21
31.4101420472
 12
361.4793477997
 22
31.4424059016
 13
361.4793477997
 23
31.4424059016
  0
SOLID
  8
0
 62
7
  6
CONTINUOUS
 10
361.3637227445
 20
31.3778788115
 11
361.4793477997
 21
31.4424059016
 12
361.8840352445
 22
31.4101420472
 13
361.8840352445
 23
31.4101420472
  0
SOLID
  8
0
 62
7
  6
CONTINUOUS
 10
361.8840352445
 20
31.4101420472
 11
361.6527851343
 21
31.3778788115
 12
361.3637227445
 22
31.3778788115
 13
361.3637227445
 23
31.3778788115
  0
SOLID
  8
0
 62
7
  6
CONTINUOUS
 10
361.8840352445
 20
31.4101420472
 11
362.4621603548
 21
31.4424059016
 12
362.1152853548
 22
31.3778788115
 13
362.1152853548
 23
31.3778788115
  0
SOLID
  8
0
 62
7
  6
CONTINUOUS
 10
362.4621603548
 20
31.4424059016
 11
362.5777852445
 21
31.3778788115
 12
362.1152853548
 22
31.3778788115
 13
362.1152853548
 23
31.3778788115
  0
SOLID
  8
0
 62
7
  6
CONTINUOUS
 10
362.2309102445
 20
31.345614957
 11
362.1152853548
 21
31.3778788115
 12
362.5777852445
 22
31.3778788115
 13
362.5777852445
 23
31.3778788115
  0
SOLID
  8
0
 62
7
  6
CONTINUOUS
 10
362.5777852445
 20
31.3778788115
 11
362.6355978548
 21
31.3133517213
 12
362.2309102445
 22
31.345614957
 13
362.2309102445
 23
31.345614957
  0
SOLID
  8
0
 62
7
  6
CONTINUOUS
 10
362.3465351343
 20
31.2810878668
 11
362.2309102445
 21
31.345614957
 12
362.6355978548
 22
31.3133517213
 13
362.6355978548
 23
31.3133517213
  0
SOLID
  8
0
 62
7
  6
CONTINUOUS
 10
362.3465351343
 20
31.2810878668
 11
362.6355978548
 21
31.3133517213
 12
362.4043477445
 22
31.1520332377
 13
362.4043477445
 23
31.1520332377
  0
SOLID
  8
0
 62
7
  6
CONTINUOUS
 10
362.6355978548
 20
31.3133517213
 11
362.6934101343
 21
31.1520332377
 12
362.4043477445
 22
31.1520332377
 13
362.4043477445
 23
31.1520332377
  0
SOLID
  8
0
 62
7
  6
CONTINUOUS
 10
361.6527851343
 20
31.3778788115
 11
361.4793477997
 21
31.3133517213
 12
361.3637227445
 22
31.3778788115
 13
361.3637227445
 23
31.3778788115
  0
SOLID
  8
0
 62
7
  6
CONTINUOUS
 10
361.4793477997
 20
31.3133517213
 11
361.3637227445
 21
31.2488235635
 12
361.3637227445
 22
31.3778788115
 13
361.3637227445
 23
31.3778788115
  0
SOLID
  8
0
 62
7
  6
CONTINUOUS
 10
361.3637227445
 20
31.2488235635
 11
361.0746601894
 21
30.5067593033
 12
361.3637227445
 22
31.3778788115
 13
361.3637227445
 23
31.3778788115
  0
SOLID
  8
0
 62
7
  6
CONTINUOUS
 10
361.3637227445
 20
31.3778788115
 11
361.0746601894
 21
30.5067593033
 12
361.3637227445
 22
32.0231527459
 13
361.3637227445
 23
32.0231527459
  0
SOLID
  8
0
 62
7
  6
CONTINUOUS
 10
361.0746601894
 20
30.5067593033
 11
361.0746601894
 21
32.0231527459
 12
361.3637227445
 22
32.0231527459
 13
361.3637227445
 23
32.0231527459
  0
SOLID
  8
0
 62
7
  6
CONTINUOUS
 10
361.3637227445
 20
31.2488235635
 11
361.3637227445
 21
30.5067593033
 12
361.0746601894
 22
30.5067593033
 13
361.0746601894
 23
30.5067593033
  0
SOLID
  8
0
 62
7
  6
CONTINUOUS
 10
362.4043477445
 20
30.5067593033
 11
362.4043477445
 21
31.1520332377
 12
362.6934101343
 22
31.1520332377
 13
362.6934101343
 23
31.1520332377
  0
SOLID
  8
0
 62
7
  6
CONTINUOUS
 10
362.6934101343
 20
31.1520332377
 11
362.6934101343
 21
30.5067593033
 12
362.4043477445
 22
30.5067593033
 13
362.4043477445
 23
30.5067593033
  0
SOLID
  8
0
 62
7
  6
CONTINUOUS
 10
363.4449727445
 20
31.506933758
 11
363.8496603548
 21
31.5391977507
 12
364.1965353548
 22
31.5391977507
 13
364.1965353548
 23
31.5391977507
  0
SOLID
  8
0
 62
7
  6
CONTINUOUS
 10
364.1965353548
 20
31.5391977507
 11
364.543410024
 21
31.506933758
 12
363.4449727445
 22
31.506933758
 13
363.4449727445
 23
31.506933758
  0
SOLID
  8
0
 62
7
  6
CONTINUOUS
 10
363.3293478548
 20
31.4746706537
 11
363.4449727445
 21
31.506933758
 12
364.543410024
 22
31.506933758
 13
364.543410024
 23
31.506933758
  0
SOLID
  8
0
 62
7
  6
CONTINUOUS
 10
364.543410024
 20
31.506933758
 11
364.716847524
 21
31.4424063504
 12
363.3293478548
 22
31.4746706537
 13
363.3293478548
 23
31.4746706537
  0
SOLID
  8
0
 62
7
  6
CONTINUOUS
 10
363.2137226343
 20
31.4101417797
 11
363.3293478548
 21
31.4746706537
 12
364.716847524
 22
31.4424063504
 13
364.716847524
 23
31.4424063504
  0
SOLID
  8
0
 62
7
  6
CONTINUOUS
 10
363.2137226343
 20
31.4101417797
 11
364.716847524
 21
31.4424063504
 12
363.8496603548
 22
31.4101417797
 13
363.8496603548
 23
31.4101417797
  0
SOLID
  8
0
 62
7
  6
CONTINUOUS
 10
363.8496603548
 20
31.4101417797
 11
364.716847524
 21
31.4424063504
 12
364.1965353548
 22
31.4101417797
 13
364.1965353548
 23
31.4101417797
  0
SOLID
  8
0
 62
7
  6
CONTINUOUS
 10
364.1965353548
 20
31.4101417797
 11
364.716847524
 21
31.4424063504
 12
364.4277854651
 22
31.3778793357
 13
364.4277854651
 23
31.3778793357
  0
SOLID
  8
0
 62
7
  6
CONTINUOUS
 10
364.716847524
 20
31.4424063504
 11
364.8324727445
 21
31.3778793357
 12
364.4277854651
 22
31.3778793357
 13
364.4277854651
 23
31.3778793357
  0
SOLID
  8
0
 62
7
  6
CONTINUOUS
 10
363.1559103548
 20
31.3456153429
 11
363.2137226343
 21
31.4101417797
 12
363.8496603548
 22
31.4101417797
 13
363.8496603548
 23
31.4101417797
  0
SOLID
  8
0
 62
7
  6
CONTINUOUS
 10
364.543410024
 20
31.3456153429
 11
364.4277854651
 21
31.3778793357
 12
364.8324727445
 22
31.3778793357
 13
364.8324727445
 23
31.3778793357
  0
SOLID
  8
0
 62
7
  6
CONTINUOUS
 10
364.543410024
 20
31.3456153429
 11
364.8324727445
 21
31.3778793357
 12
364.6012229651
 22
31.2810881318
 13
364.6012229651
 23
31.2810881318
  0
SOLID
  8
0
 62
7
  6
CONTINUOUS
 10
364.8324727445
 20
31.3778793357
 11
364.890285024
 21
31.2810881318
 12
364.6012229651
 22
31.2810881318
 13
364.6012229651
 23
31.2810881318
  0
SOLID
  8
0
 62
7
  6
CONTINUOUS
 10
364.6012229651
 20
31.1842964734
 11
364.6012229651
 21
31.2810881318
 12
364.890285024
 22
31.2810881318
 13
364.890285024
 23
31.2810881318
  0
SOLID
  8
0
 62
7
  6
CONTINUOUS
 10
364.6012229651
 20
31.1842964734
 11
364.890285024
 21
31.2810881318
 12
364.6012229651
 22
31.0552422931
 13
364.6012229651
 23
31.0552422931
  0
SOLID
  8
0
 62
7
  6
CONTINUOUS
 10
364.6012229651
 20
31.0552422931
 11
364.890285024
 21
31.2810881318
 12
364.6012229651
 22
30.8616599362
 13
364.6012229651
 23
30.8616599362
  0
SOLID
  8
0
 62
7
  6
CONTINUOUS
 10
364.890285024
 20
31.2810881318
 11
364.890285024
 21
30.7648681127
 12
364.6012229651
 22
30.8616599362
 13
364.6012229651
 23
30.8616599362
  0
SOLID
  8
0
 62
7
  6
CONTINUOUS
 10
366.798097524
 20
31.5069339419
 11
367.0293479651
 21
31.5391976292
 12
367.2605977445
 22
31.5391976292
 13
367.2605977445
 23
31.5391976292
  0
SOLID
  8
0
 62
7
  6
CONTINUOUS
 10
367.2605977445
 20
31.5391976292
 11
367.4340352445
 21
31.5069339419
 12
366.798097524
 22
31.5069339419
 13
366.798097524
 23
31.5069339419
  0
SOLID
  8
0
 62
7
  6
CONTINUOUS
 10
366.624660024
 20
31.4424065674
 11
366.798097524
 21
31.5069339419
 12
367.4340352445
 22
31.5069339419
 13
367.4340352445
 23
31.5069339419
  0
SOLID
  8
0
 62
7
  6
CONTINUOUS
 10
367.4340352445
 20
31.5069339419
 11
367.6074727445
 21
31.4424065674
 12
366.624660024
 22
31.4424065674
 13
366.624660024
 23
31.4424065674
  0
SOLID
  8
0
 62
7
  6
CONTINUOUS
 10
367.6074727445
 20
31.4424065674
 11
367.0293479651
 21
31.4101420472
 12
366.624660024
 22
31.4424065674
 13
366.624660024
 23
31.4424065674
  0
SOLID
  8
0
 62
7
  6
CONTINUOUS
 10
366.5090354651
 20
31.377879193
 11
366.624660024
 21
31.4424065674
 12
367.0293479651
 22
31.4101420472
 13
367.0293479651
 23
31.4101420472
  0
SOLID
  8
0
 62
7
  6
CONTINUOUS
 10
367.0293479651
 20
31.4101420472
 11
366.798097524
 21
31.377879193
 12
366.5090354651
 22
31.377879193
 13
366.5090354651
 23
31.377879193
  0
SOLID
  8
0
 62
7
  6
CONTINUOUS
 10
367.0293479651
 20
31.4101420472
 11
367.6074727445
 21
31.4424065674
 12
367.2605977445
 22
31.377879193
 13
367.2605977445
 23
31.377879193
  0
SOLID
  8
0
 62
7
  6
CONTINUOUS
 10
367.6074727445
 20
31.4424065674
 11
367.7230979651
 21
31.377879193
 12
367.2605977445
 22
31.377879193
 13
367.2605977445
 23
31.377879193
  0
SOLID
  8
0
 62
7
  6
CONTINUOUS
 10
367.3762229651
 20
31.345614957
 11
367.2605977445
 21
31.377879193
 12
367.7230979651
 22
31.377879193
 13
367.7230979651
 23
31.377879193
  0
SOLID
  8
0
 62
7
  6
CONTINUOUS
 10
367.3762229651
 20
31.345614957
 11
367.7230979651
 21
31.377879193
 12
367.491847524
 22
31.2810881312
 13
367.491847524
 23
31.2810881312
  0
SOLID
  8
0
 62
7
  6
CONTINUOUS
 10
367.7230979651
 20
31.377879193
 11
367.7809102445
 21
31.2810881312
 12
367.491847524
 22
31.2810881312
 13
367.491847524
 23
31.2810881312
  0
SOLID
  8
0
 62
7
  6
CONTINUOUS
 10
367.5496604651
 20
31.119769695
 11
367.491847524
 21
31.2810881312
 12
367.7809102445
 22
31.2810881312
 13
367.7809102445
 23
31.2810881312
  0
SOLID
  8
0
 62
7
  6
CONTINUOUS
 10
367.7809102445
 20
31.2810881312
 11
367.838722524
 21
31.119769695
 12
367.5496604651
 22
31.119769695
 13
367.5496604651
 23
31.119769695
  0
SOLID
  8
0
 62
7
  6
CONTINUOUS
 10
366.798097524
 20
31.377879193
 11
366.624660024
 21
31.3133521701
 12
366.5090354651
 22
31.377879193
 13
366.5090354651
 23
31.377879193
  0
SOLID
  8
0
 62
7
  6
CONTINUOUS
 10
366.624660024
 20
31.3133521701
 11
366.5090354651
 21
31.2488235635
 12
366.5090354651
 22
31.377879193
 13
366.5090354651
 23
31.377879193
  0
SOLID
  8
0
 62
7
  6
CONTINUOUS
 10
366.5090354651
 20
31.2488235635
 11
366.2199727445
 21
30.5067596374
 12
366.5090354651
 22
31.377879193
 13
366.5090354651
 23
31.377879193
  0
SOLID
  8
0
 62
7
  6
CONTINUOUS
 10
366.5090354651
 20
31.377879193
 11
366.2199727445
 21
30.5067596374
 12
366.5090354651
 22
31.5391976292
 13
366.5090354651
 23
31.5391976292
  0
SOLID
  8
0
 62
7
  6
CONTINUOUS
 10
366.2199727445
 20
30.5067596374
 11
366.2199727445
 21
31.5391976292
 12
366.5090354651
 22
31.5391976292
 13
366.5090354651
 23
31.5391976292
  0
SOLID
  8
0
 62
7
  6
CONTINUOUS
 10
366.5090354651
 20
31.2488235635
 11
366.5090354651
 21
30.5067596374
 12
366.2199727445
 22
30.5067596374
 13
366.2199727445
 23
30.5067596374
  0
SOLID
  8
0
 62
7
  6
CONTINUOUS
 10
367.5496604651
 20
30.5067596374
 11
367.5496604651
 21
31.119769695
 12
367.838722524
 22
31.119769695
 13
367.838722524
 23
31.119769695
  0
SOLID
  8
0
 62
7
  6
CONTINUOUS
 10
367.838722524
 20
31.119769695
 11
367.838722524
 21
30.5067596374
 12
367.5496604651
 22
30.5067596374
 13
367.5496604651
 23
30.5067596374
  0
SOLID
  8
0
 62
7
  6
CONTINUOUS
 10
368.6480977445
 20
31.5069334157
 11
368.9949727445
 21
31.539197762
 12
369.3418477445
 22
31.539197762
 13
369.3418477445
 23
31.539197762
  0
SOLID
  8
0
 62
7
  6
CONTINUOUS
 10
369.3418477445
 20
31.539197762
 11
369.6887227445
 21
31.5069334157
 12
368.6480977445
 22
31.5069334157
 13
368.6480977445
 23
31.5069334157
  0
SOLID
  8
0
 62
7
  6
CONTINUOUS
 10
368.4168479651
 20
31.4424063504
 11
368.6480977445
 21
31.5069334157
 12
369.6887227445
 22
31.5069334157
 13
369.6887227445
 23
31.5069334157
  0
SOLID
  8
0
 62
7
  6
CONTINUOUS
 10
368.4168479651
 20
31.4424063504
 11
369.6887227445
 21
31.5069334406
 12
369.8621602445
 22
31.4746706537
 13
369.8621602445
 23
31.4746706537
  0
SOLID
  8
0
 62
7
  6
CONTINUOUS
 10
368.4168479651
 20
31.4424063504
 11
369.8621602445
 21
31.4746706537
 12
368.9949727445
 22
31.4101421267
 13
368.9949727445
 23
31.4101421267
  0
SOLID
  8
0
 62
7
  6
CONTINUOUS
 10
368.9949727445
 20
31.4101421267
 11
369.8621602445
 21
31.4746706537
 12
369.3418477445
 22
31.4101421267
 13
369.3418477445
 23
31.4101421267
  0
SOLID
  8
0
 62
7
  6
CONTINUOUS
 10
369.8621602445
 20
31.4746706537
 11
370.0355977445
 21
31.4101421267
 12
369.3418477445
 22
31.4101421267
 13
369.3418477445
 23
31.4101421267
  0
SOLID
  8
0
 62
7
  6
CONTINUOUS
 10
369.6887227445
 20
31.3778792603
 11
369.3418477445
 21
31.4101421267
 12
370.0355977445
 22
31.4101421267
 13
370.0355977445
 23
31.4101421267
  0
SOLID
  8
0
 62
7
  6
CONTINUOUS
 10
368.3012227445
 20
31.3456148845
 11
368.4168479651
 21
31.4424063504
 12
368.9949727445
 22
31.4101421267
 13
368.9949727445
 23
31.4101421267
  0
SOLID
  8
0
 62
7
  6
CONTINUOUS
 10
369.6887227445
 20
31.3778792603
 11
370.0355977445
 21
31.4101421267
 12
369.8043479651
 22
31.3456148845
 13
369.8043479651
 23
31.3456148845
  0
SOLID
  8
0
 62
7
  6
CONTINUOUS
 10
369.8043479651
 20
31.3456148845
 11
370.0355977445
 21
31.4101421267
 12
369.8621602445
 22
31.281087868
 13
369.8621602445
 23
31.281087868
  0
SOLID
  8
0
 62
7
  6
CONTINUOUS
 10
370.0355977445
 20
31.4101421267
 11
370.1512223035
 21
31.281087868
 12
369.8621602445
 22
31.281087868
 13
369.8621602445
 23
31.281087868
  0
SOLID
  8
0
 62
7
  6
CONTINUOUS
 10
359.4559102445
 20
31.3778792603
 11
358.9355977445
 21
31.3456148963
 12
359.6871602721
 22
31.4101421155
 13
359.6871602721
 23
31.4101421155
  0
SOLID
  8
0
 62
7
  6
CONTINUOUS
 10
358.9355977445
 20
31.3456148963
 11
359.0512227376
 21
31.4101421155
 12
359.6871602721
 22
31.4101421155
 13
359.6871602721
 23
31.4101421155
  0
SOLID
  8
0
 62
7
  6
CONTINUOUS
 10
359.4559102445
 20
31.3778792603
 11
359.3402852307
 21
31.3456148963
 12
358.9355977445
 22
31.3456148963
 13
358.9355977445
 23
31.3456148963
  0
SOLID
  8
0
 62
7
  6
CONTINUOUS
 10
358.8199727462
 20
31.2165607767
 11
358.9355977445
 21
31.3456148963
 12
359.3402852307
 22
31.3456148963
 13
359.3402852307
 23
31.3456148963
  0
SOLID
  8
0
 62
7
  6
CONTINUOUS
 10
363.1559103548
 20
31.3456149608
 11
363.8496603548
 21
31.4101420472
 12
363.6184102445
 22
31.3778792603
 13
363.6184102445
 23
31.3778792603
  0
SOLID
  8
0
 62
7
  6
CONTINUOUS
 10
363.6184102445
 20
31.3778792603
 11
363.5027853548
 21
31.3456149608
 12
363.1559103548
 22
31.3456149608
 13
363.1559103548
 23
31.3456149608
  0
SOLID
  8
0
 62
7
  6
CONTINUOUS
 10
363.1559103548
 20
31.2810878707
 11
363.1559103548
 21
31.3456149608
 12
363.5027853548
 22
31.3456149608
 13
363.5027853548
 23
31.3456149608
  0
SOLID
  8
0
 62
7
  6
CONTINUOUS
 10
363.5027853548
 20
31.3456149608
 11
363.4449727445
 21
31.2810878707
 12
363.1559103548
 22
31.2810878707
 13
363.1559103548
 23
31.2810878707
  0
SOLID
  8
0
 62
7
  6
CONTINUOUS
 10
368.3012227445
 20
31.3456149608
 11
368.9949727445
 21
31.4101420472
 12
368.7637229651
 22
31.3778792603
 13
368.7637229651
 23
31.3778792603
  0
SOLID
  8
0
 62
7
  6
CONTINUOUS
 10
368.7637229651
 20
31.3778792603
 11
368.6480977445
 21
31.3456149608
 12
368.3012227445
 22
31.3456149608
 13
368.3012227445
 23
31.3456149608
  0
SOLID
  8
0
 62
7
  6
CONTINUOUS
 10
368.3012227445
 20
31.2810878707
 11
368.3012227445
 21
31.3456149608
 12
368.6480977445
 22
31.3456149608
 13
368.6480977445
 23
31.3456149608
  0
SOLID
  8
0
 62
7
  6
CONTINUOUS
 10
368.6480977445
 20
31.3456149608
 11
368.5902854651
 21
31.2810878707
 12
368.3012227445
 22
31.2810878707
 13
368.3012227445
 23
31.2810878707
  0
SOLID
  8
0
 62
7
  6
CONTINUOUS
 10
368.4168479651
 20
31.1520336865
 11
368.3012227445
 21
31.2810878707
 12
368.5902854651
 22
31.2810878707
 13
368.5902854651
 23
31.2810878707
  0
SOLID
  8
0
 62
7
  6
CONTINUOUS
 10
358.8199727462
 20
31.2165607767
 11
359.3402852307
 21
31.345614957
 12
359.1668477307
 22
31.2488235635
 13
359.1668477307
 23
31.2488235635
  0
SOLID
  8
0
 62
7
  6
CONTINUOUS
 10
359.1668477307
 20
31.2488235635
 11
359.1090352445
 21
31.1842964734
 12
358.8199727462
 22
31.2165607767
 13
358.8199727462
 23
31.2165607767
  0
SOLID
  8
0
 62
7
  6
CONTINUOUS
 10
358.7621602445
 20
31.0229779898
 11
358.8199727462
 21
31.2165607767
 12
359.1090352445
 22
31.1842964734
 13
359.1090352445
 23
31.1842964734
  0
SOLID
  8
0
 62
7
  6
CONTINUOUS
 10
363.6184102445
 20
31.1520336865
 11
363.9652852445
 21
31.1842964611
 12
364.6012229651
 22
31.1842964611
 13
364.6012229651
 23
31.1842964611
  0
SOLID
  8
0
 62
7
  6
CONTINUOUS
 10
363.6184102445
 20
31.1520336865
 11
364.6012229651
 21
31.1842964611
 12
363.3871601343
 22
31.0875057863
 13
363.3871601343
 23
31.0875057863
  0
SOLID
  8
0
 62
7
  6
CONTINUOUS
 10
363.3871601343
 20
31.0875057863
 11
364.6012229651
 21
31.1842964611
 12
363.9652852445
 22
31.0552422808
 13
363.9652852445
 23
31.0552422808
  0
SOLID
  8
0
 62
7
  6
CONTINUOUS
 10
364.6012229651
 20
31.1842964611
 11
364.6012229651
 21
31.0552422808
 12
363.9652852445
 22
31.0552422808
 13
363.9652852445
 23
31.0552422808
  0
SOLID
  8
0
 62
7
  6
CONTINUOUS
 10
368.4168479651
 20
31.1520338754
 11
368.5902854651
 21
31.2810878668
 12
368.6480977445
 22
31.2165607767
 13
368.6480977445
 23
31.2165607767
  0
SOLID
  8
0
 62
7
  6
CONTINUOUS
 10
368.6480977445
 20
31.2165607767
 11
368.8215352445
 21
31.1520338754
 12
368.4168479651
 22
31.1520338754
 13
368.4168479651
 23
31.1520338754
  0
SOLID
  8
0
 62
7
  6
CONTINUOUS
 10
368.6480977445
 20
31.0552422931
 11
368.4168479651
 21
31.1520338754
 12
368.8215352445
 22
31.1520338754
 13
368.8215352445
 23
31.1520338754
  0
SOLID
  8
0
 62
7
  6
CONTINUOUS
 10
368.8215352445
 20
31.1520338754
 11
369.8043479651
 21
30.9907152029
 12
368.6480977445
 22
31.0552422931
 13
368.6480977445
 23
31.0552422931
  0
SOLID
  8
0
 62
7
  6
CONTINUOUS
 10
369.6309104651
 20
30.8939239876
 11
368.6480977445
 21
31.0552422931
 12
369.8043479651
 22
30.9907152029
 13
369.8043479651
 23
30.9907152029
  0
SOLID
  8
0
 62
7
  6
CONTINUOUS
 10
369.8043479651
 20
30.9907152029
 11
370.0355977445
 21
30.8939239876
 12
369.6309104651
 22
30.8939239876
 13
369.6309104651
 23
30.8939239876
  0
SOLID
  8
0
 62
7
  6
CONTINUOUS
 10
369.8043479651
 20
30.8293967193
 11
369.6309104651
 21
30.8939239876
 12
370.0355977445
 22
30.8939239876
 13
370.0355977445
 23
30.8939239876
  0
SOLID
  8
0
 62
7
  6
CONTINUOUS
 10
369.8043479651
 20
30.8293967193
 11
370.0355977445
 21
30.8939239876
 12
369.8621602445
 22
30.7648682694
 13
369.8621602445
 23
30.7648682694
  0
SOLID
  8
0
 62
7
  6
CONTINUOUS
 10
370.0355977445
 20
30.8939239876
 11
370.1512223035
 21
30.7648682694
 12
369.8621602445
 22
30.7648682694
 13
369.8621602445
 23
30.7648682694
  0
SOLID
  8
0
 62
7
  6
CONTINUOUS
 10
369.8043479651
 20
30.7003411846
 11
369.8621602445
 21
30.7648682694
 12
370.1512223035
 22
30.7648682694
 13
370.1512223035
 23
30.7648682694
  0
SOLID
  8
0
 62
7
  6
CONTINUOUS
 10
370.1512223035
 20
30.7648682694
 11
370.1512223035
 21
30.7003411846
 12
369.8043479651
 22
30.7003411846
 13
369.8043479651
 23
30.7003411846
  0
SOLID
  8
0
 62
7
  6
CONTINUOUS
 10
369.6887227445
 20
30.6680782357
 11
369.8043479651
 21
30.7003411846
 12
370.1512223035
 22
30.7003411846
 13
370.1512223035
 23
30.7003411846
  0
SOLID
  8
0
 62
7
  6
CONTINUOUS
 10
369.6887227445
 20
30.6680782357
 11
370.1512223035
 21
30.7003411846
 12
369.4574729651
 22
30.6358140998
 13
369.4574729651
 23
30.6358140998
  0
SOLID
  8
0
 62
7
  6
CONTINUOUS
 10
370.1512223035
 20
30.7003411846
 11
370.0355977445
 21
30.6035511455
 12
369.4574729651
 22
30.6358140998
 13
369.4574729651
 23
30.6358140998
  0
SOLID
  8
0
 62
7
  6
CONTINUOUS
 10
370.0355977445
 20
30.6035511455
 11
368.5902854651
 21
30.5712868422
 12
369.4574729651
 22
30.6358140998
 13
369.4574729651
 23
30.6358140998
  0
SOLID
  8
0
 62
7
  6
CONTINUOUS
 10
369.4574729651
 20
30.6358140998
 11
368.5902854651
 21
30.5712868422
 12
369.1105979651
 22
30.6358140998
 13
369.1105979651
 23
30.6358140998
  0
SOLID
  8
0
 62
7
  6
CONTINUOUS
 10
368.5902854651
 20
30.5712868422
 11
368.4168479651
 21
30.6358140998
 12
369.1105979651
 22
30.6358140998
 13
369.1105979651
 23
30.6358140998
  0
SOLID
  8
0
 62
7
  6
CONTINUOUS
 10
368.5902854651
 20
30.5712868422
 11
370.0355977445
 21
30.6035511455
 12
368.7637229651
 22
30.5390223111
 13
368.7637229651
 23
30.5390223111
  0
SOLID
  8
0
 62
7
  6
CONTINUOUS
 10
370.0355977445
 20
30.6035511455
 11
369.8043479651
 21
30.5390223111
 12
368.7637229651
 22
30.5390223111
 13
368.7637229651
 23
30.5390223111
  0
SOLID
  8
0
 62
7
  6
CONTINUOUS
 10
369.1105979651
 20
30.5067599302
 11
368.7637229651
 21
30.5390223111
 12
369.8043479651
 22
30.5390223111
 13
369.8043479651
 23
30.5390223111
  0
SOLID
  8
0
 62
7
  6
CONTINUOUS
 10
369.8043479651
 20
30.5390223111
 11
369.4574729651
 21
30.5067599302
 12
369.1105979651
 22
30.5067599302
 13
369.1105979651
 23
30.5067599302
  0
SOLID
  8
0
 62
7
  6
CONTINUOUS
 10
358.7621602445
 20
31.0229779898
 11
359.1090352445
 21
31.1842964734
 12
359.0512227376
 22
31.0552422931
 13
359.0512227376
 23
31.0552422931
  0
SOLID
  8
0
 62
7
  6
CONTINUOUS
 10
359.0512227376
 20
31.0552422931
 11
359.0512227376
 21
30.9584509954
 12
358.7621602445
 22
31.0229779898
 13
358.7621602445
 23
31.0229779898
  0
SOLID
  8
0
 62
7
  6
CONTINUOUS
 10
358.8199727462
 20
30.8293967193
 11
358.7621602445
 21
31.0229779898
 12
359.0512227376
 22
30.9584509954
 13
359.0512227376
 23
30.9584509954
  0
SOLID
  8
0
 62
7
  6
CONTINUOUS
 10
359.0512227376
 20
30.9584509954
 11
359.1668477307
 21
30.797132416
 12
358.8199727462
 22
30.8293967193
 13
358.8199727462
 23
30.8293967193
  0
SOLID
  8
0
 62
7
  6
CONTINUOUS
 10
358.9355977445
 20
30.7003413087
 11
358.8199727462
 21
30.8293967193
 12
359.1668477307
 22
30.797132416
 13
359.1668477307
 23
30.797132416
  0
SOLID
  8
0
 62
7
  6
CONTINUOUS
 10
359.1668477307
 20
30.797132416
 11
359.3402852307
 21
30.7003413087
 12
358.9355977445
 22
30.7003413087
 13
358.9355977445
 23
30.7003413087
  0
SOLID
  8
0
 62
7
  6
CONTINUOUS
 10
359.0512227376
 20
30.6358140759
 11
358.9355977445
 21
30.7003413087
 12
359.3402852307
 22
30.7003413087
 13
359.3402852307
 23
30.7003413087
  0
SOLID
  8
0
 62
7
  6
CONTINUOUS
 10
359.3402852307
 20
30.7003413087
 11
359.6871602721
 21
30.6358140759
 12
359.0512227376
 22
30.6358140759
 13
359.0512227376
 23
30.6358140759
  0
SOLID
  8
0
 62
7
  6
CONTINUOUS
 10
359.2246602583
 20
30.5712868422
 11
359.0512227376
 21
30.6358140759
 12
359.6871602721
 22
30.6358140759
 13
359.6871602721
 23
30.6358140759
  0
SOLID
  8
0
 62
7
  6
CONTINUOUS
 10
363.2715352445
 20
31.0229779808
 11
363.3871601343
 21
31.0875057863
 12
363.9652852445
 22
31.0552422931
 13
363.9652852445
 23
31.0552422931
  0
SOLID
  8
0
 62
7
  6
CONTINUOUS
 10
363.9652852445
 20
31.0552422931
 11
363.7340351343
 21
31.0229779808
 12
363.2715352445
 22
31.0229779808
 13
363.2715352445
 23
31.0229779808
  0
SOLID
  8
0
 62
7
  6
CONTINUOUS
 10
363.1559103548
 20
30.8939238094
 11
363.2715352445
 21
31.0229779808
 12
363.7340351343
 22
31.0229779808
 13
363.7340351343
 23
31.0229779808
  0
SOLID
  8
0
 62
7
  6
CONTINUOUS
 10
363.5027853548
 20
30.926187309
 11
363.1559103548
 21
30.8939238094
 12
363.6184102445
 22
30.9907152029
 13
363.6184102445
 23
30.9907152029
  0
SOLID
  8
0
 62
7
  6
CONTINUOUS
 10
363.1559103548
 20
30.8939238094
 11
363.7340351343
 21
31.0229779898
 12
363.6184102445
 22
30.9907152029
 13
363.6184102445
 23
30.9907152029
  0
SOLID
  8
0
 62
7
  6
CONTINUOUS
 10
363.5027853548
 20
30.926187309
 11
363.4449727445
 21
30.8293967193
 12
363.1559103548
 22
30.8939238094
 13
363.1559103548
 23
30.8939238094
  0
SOLID
  8
0
 62
7
  6
CONTINUOUS
 10
363.1559103548
 20
30.797132416
 11
363.1559103548
 21
30.8939238094
 12
363.4449727445
 22
30.8293967193
 13
363.4449727445
 23
30.8293967193
  0
SOLID
  8
0
 62
7
  6
CONTINUOUS
 10
363.4449727445
 20
30.8293967193
 11
363.4449727445
 21
30.7648681127
 12
363.1559103548
 22
30.797132416
 13
363.1559103548
 23
30.797132416
  0
SOLID
  8
0
 62
7
  6
CONTINUOUS
 10
363.2137226343
 20
30.6680782357
 11
363.1559103548
 21
30.797132416
 12
363.4449727445
 22
30.7648681127
 13
363.4449727445
 23
30.7648681127
  0
SOLID
  8
0
 62
7
  6
CONTINUOUS
 10
364.6012229651
 20
30.8616599362
 11
364.890285024
 21
30.7648681127
 12
364.543410024
 22
30.797132416
 13
364.543410024
 23
30.797132416
  0
SOLID
  8
0
 62
7
  6
CONTINUOUS
 10
364.369972524
 20
30.7003410226
 11
364.543410024
 21
30.797132416
 12
364.890285024
 22
30.7648681127
 13
364.890285024
 23
30.7648681127
  0
SOLID
  8
0
 62
7
  6
CONTINUOUS
 10
364.369972524
 20
30.7003410226
 11
364.890285024
 21
30.7648681127
 12
364.6012229651
 22
30.6680782357
 13
364.6012229651
 23
30.6680782357
  0
SOLID
  8
0
 62
7
  6
CONTINUOUS
 10
364.890285024
 20
30.7648681127
 11
364.9480979651
 21
30.6035511455
 12
364.6012229651
 22
30.6680782357
 13
364.6012229651
 23
30.6680782357
  0
SOLID
  8
0
 62
7
  6
CONTINUOUS
 10
364.6590352445
 20
30.5712868422
 11
364.6012229651
 21
30.6680782357
 12
364.9480979651
 22
30.6035511455
 13
364.9480979651
 23
30.6035511455
  0
SOLID
  8
0
 62
7
  6
CONTINUOUS
 10
364.6590352445
 20
30.5712868422
 11
364.9480979651
 21
30.6035511455
 12
364.716847524
 22
30.5067598731
 13
364.716847524
 23
30.5067598731
  0
SOLID
  8
0
 62
7
  6
CONTINUOUS
 10
364.9480979651
 20
30.6035511455
 11
365.0059102445
 21
30.5067598731
 12
364.716847524
 22
30.5067598731
 13
364.716847524
 23
30.5067598731
  0
SOLID
  8
0
 62
7
  6
CONTINUOUS
 10
360.2652852997
 20
30.7326051679
 11
360.3230977445
 21
30.8293966612
 12
360.6121602997
 22
30.8293966612
 13
360.6121602997
 23
30.8293966612
  0
SOLID
  8
0
 62
7
  6
CONTINUOUS
 10
360.6121602997
 20
30.8293966612
 11
360.5543476894
 21
30.7003410226
 12
360.2652852997
 22
30.7326051679
 13
360.2652852997
 23
30.7326051679
  0
SOLID
  8
0
 62
7
  6
CONTINUOUS
 10
360.091847717
 20
30.6680782357
 11
360.2652852997
 21
30.7326051679
 12
360.5543476894
 22
30.7003410226
 13
360.5543476894
 23
30.7003410226
  0
SOLID
  8
0
 62
7
  6
CONTINUOUS
 10
360.091847717
 20
30.6680782357
 11
360.5543476894
 21
30.7003410226
 12
359.6871602721
 22
30.6358139324
 13
359.6871602721
 23
30.6358139324
  0
SOLID
  8
0
 62
7
  6
CONTINUOUS
 10
360.5543476894
 20
30.7003410226
 11
360.3809101894
 21
30.6035511455
 12
359.6871602721
 22
30.6358139324
 13
359.6871602721
 23
30.6358139324
  0
SOLID
  8
0
 62
7
  6
CONTINUOUS
 10
359.2246602583
 20
30.5712868422
 11
359.6871602721
 21
30.6358139324
 12
360.3809101894
 22
30.6035511455
 13
360.3809101894
 23
30.6035511455
  0
SOLID
  8
0
 62
7
  6
CONTINUOUS
 10
359.2246602583
 20
30.5712868422
 11
360.3809101894
 21
30.6035511455
 12
359.3980977583
 22
30.5390224228
 13
359.3980977583
 23
30.5390224228
  0
SOLID
  8
0
 62
7
  6
CONTINUOUS
 10
360.3809101894
 20
30.6035511455
 11
360.1496602445
 21
30.5390224228
 12
359.3980977583
 22
30.5390224228
 13
359.3980977583
 23
30.5390224228
  0
SOLID
  8
0
 62
7
  6
CONTINUOUS
 10
359.744972717
 20
30.5067597521
 11
359.3980977583
 21
30.5390224228
 12
360.1496602445
 22
30.5390224228
 13
360.1496602445
 23
30.5390224228
  0
SOLID
  8
0
 62
7
  6
CONTINUOUS
 10
363.2137226343
 20
30.6680782357
 11
363.4449727445
 21
30.7648681127
 12
363.5027853548
 22
30.7003410226
 13
363.5027853548
 23
30.7003410226
  0
SOLID
  8
0
 62
7
  6
CONTINUOUS
 10
363.5027853548
 20
30.7003410226
 11
363.7340351343
 21
30.6358139324
 12
363.2137226343
 22
30.6680782357
 13
363.2137226343
 23
30.6680782357
  0
SOLID
  8
0
 62
7
  6
CONTINUOUS
 10
363.3871601343
 20
30.5712868422
 11
363.2137226343
 21
30.6680782357
 12
363.7340351343
 22
30.6358139324
 13
363.7340351343
 23
30.6358139324
  0
SOLID
  8
0
 62
7
  6
CONTINUOUS
 10
364.0809101343
 20
30.6358139363
 11
364.369972524
 21
30.7003410226
 12
364.6012229651
 22
30.6680782357
 13
364.6012229651
 23
30.6680782357
  0
SOLID
  8
0
 62
7
  6
CONTINUOUS
 10
364.6012229651
 20
30.6680782357
 11
364.543410024
 21
30.6035511455
 12
364.0809101343
 22
30.6358139363
 13
364.0809101343
 23
30.6358139363
  0
SOLID
  8
0
 62
7
  6
CONTINUOUS
 10
364.543410024
 20
30.6035511455
 11
363.3871601343
 21
30.5712868422
 12
364.0809101343
 22
30.6358139363
 13
364.0809101343
 23
30.6358139363
  0
SOLID
  8
0
 62
7
  6
CONTINUOUS
 10
363.3871601343
 20
30.5712868422
 11
363.7340351343
 21
30.6358139363
 12
364.0809101343
 22
30.6358139363
 13
364.0809101343
 23
30.6358139363
  0
SOLID
  8
0
 62
7
  6
CONTINUOUS
 10
363.3871601343
 20
30.5712868422
 11
364.543410024
 21
30.6035511455
 12
363.5027853548
 22
30.5390225267
 13
363.5027853548
 23
30.5390225267
  0
SOLID
  8
0
 62
7
  6
CONTINUOUS
 10
364.543410024
 20
30.6035511455
 11
364.369972524
 21
30.5390225267
 12
363.5027853548
 22
30.5390225267
 13
363.5027853548
 23
30.5390225267
  0
SOLID
  8
0
 62
7
  6
CONTINUOUS
 10
363.7340351343
 20
30.5067596914
 11
363.5027853548
 21
30.5390225267
 12
364.369972524
 22
30.5390225267
 13
364.369972524
 23
30.5390225267
  0
SOLID
  8
0
 62
7
  6
CONTINUOUS
 10
364.369972524
 20
30.5390225267
 11
364.0809101343
 21
30.5067596914
 12
363.7340351343
 22
30.5067596914
 13
363.7340351343
 23
30.5067596914
  0
SOLID
  8
0
 62
7
  6
CONTINUOUS
 10
368.7637229651
 20
30.6680782357
 11
368.4168479651
 21
30.6358138717
 12
368.6480977445
 22
30.7003410226
 13
368.6480977445
 23
30.7003410226
  0
SOLID
  8
0
 62
7
  6
CONTINUOUS
 10
368.6480977445
 20
30.7003410226
 11
368.4168479651
 21
30.6358138717
 12
368.5902854651
 22
30.7648680521
 13
368.5902854651
 23
30.7648680521
  0
SOLID
  8
0
 62
7
  6
CONTINUOUS
 10
368.4168479651
 20
30.6358138717
 11
368.3012227445
 21
30.7648680521
 12
368.5902854651
 22
30.7648680521
 13
368.5902854651
 23
30.7648680521
  0
SOLID
  8
0
 62
7
  6
CONTINUOUS
 10
368.7637229651
 20
30.6680782357
 11
369.1105979651
 21
30.6358138717
 12
368.4168479651
 22
30.6358138717
 13
368.4168479651
 23
30.6358138717
  0
SOLID
  8
0
 62
7
  6
CONTINUOUS
 10
365.4684104651
 20
30.5067597521
 11
365.4684104651
 21
31.5391977439
 12
365.757472524
 22
30.5067597521
 13
365.757472524
 23
31.5391977439
  0
ENDBLK
  8
0
  6
BYBLOCK
 62
0
  0
BLOCK
  8
0
 62
2
  6
CONTINUOUS
  2
AMMEAAL_LOGO_BL0
 70
64
 10
240.8592468615
 20
19.762288695
  0
TEXT
  8
0
 62
7
  6
CONTINUOUS
 10
227.1239507038
 20
19.1357028027
  7
TEXTSTYLE_3
 40
2.7338706658
  1
Ammeraal Beltech
 41
1.0
 51
15.0
 72
0
  0
TEXT
  8
0
 62
7
  6
CONTINUOUS
 10
237.9247515296
 20
16.8621661299
  7
TEXTSTYLE_4
 40
1.0935482663
  1
Innovation & Service in Belting
 41
1.0
 72
0
  0
LINE
  8
0
 62
7
  6
CONTINUOUS
 10
221.0994100525
 20
19.9022961113
 11
221.8775620458
 21
23.5632134089
  0
LINE
  8
0
 62
7
  6
CONTINUOUS
 10
231.9727303357
 20
27.2266073205
 11
222.3653797889
 21
24.1049898993
  0
LINE
  8
0
 62
7
  6
CONTINUOUS
 10
221.3246933848
 20
19.2089453082
 11
228.8317686459
 21
12.4495443822
  0
LINE
  8
0
 62
7
  6
CONTINUOUS
 10
221.5872277955
 20
20.4440726016
 11
232.3954971607
 21
23.9558922005
  0
LINE
  8
0
 62
7
  6
CONTINUOUS
 10
232.3912920235
 20
13.6061036368
 11
223.9458323548
 21
21.2104296785
  0
LINE
  8
0
 62
7
  6
CONTINUOUS
 10
232.9111147433
 20
26.3816822048
 11
231.9345552061
 21
21.7873308023
  0
LINE
  8
0
 62
7
  6
CONTINUOUS
 10
231.2347532584
 20
18.4950214885
 11
230.5483050469
 21
15.2655365641
  0
LINE
  8
0
 62
7
  6
CONTINUOUS
 10
233.5922108419
 20
13.9963058145
 11
234.5484423775
 21
18.4950214885
  0
LINE
  8
0
 62
7
  6
CONTINUOUS
 10
235.2482443252
 20
21.7873308023
 11
235.6924861276
 21
23.8773241617
  0
LINE
  8
0
 62
7
  6
CONTINUOUS
 10
229.5448697213
 20
12.2979700695
 11
233.1043930989
 21
13.4545293241
  0
LINE
  8
0
 62
7
  6
CONTINUOUS
 10
232.685831411
 20
27.0750330078
 11
235.4672027953
 21
24.5706749648
  0
ARC
  8
0
 62
7
  6
CONTINUOUS
 10
222.5906631212
 20
23.4116390962
 40
0.7290321776
 50
108.0
 51
168.0
  0
ARC
  8
0
 62
7
  6
CONTINUOUS
 10
232.198013668
 20
26.5332565175
 40
0.7290321776
 50
348.0
 51
108.0
  0
ARC
  8
0
 62
7
  6
CONTINUOUS
 10
234.9793850522
 20
24.0288984744
 40
0.7290321776
 50
348.0
 51
48.0
  0
ARC
  8
0
 62
7
  6
CONTINUOUS
 10
229.319586389
 20
12.9913208726
 40
0.7290321776
 50
228.0
 51
288.0
  0
ARC
  8
0
 62
7
  6
CONTINUOUS
 10
221.8125111278
 20
19.7507217986
 40
0.7290321776
 50
108.0
 51
228.0
  0
ARC
  8
0
 62
7
  6
CONTINUOUS
 10
232.8791097665
 20
14.1478801272
 40
0.7290321776
 50
228.0
 51
348.0
  0
ENDBLK
  8
0
  6
BYBLOCK
 62
0
  0
ENDSEC
  0
SECTION
  2
ENTITIES
  0
TEXT
  8
0
 62
5
  6
CONTINUOUS
 10
304.937007874
 20
25.636
  7
TEXTSTYLE_2
 40
2.8
  1
Scale :
 41
0.6
 51
0.000019
 72
0
  0
TEXT
  8
0
 62
5
  6
CONTINUOUS
 10
324.937007874
 20
25.636
  7
TEXTSTYLE_2
 40
2.8
  1
Belt type:
 41
0.6
 51
0.000019
 72
0
  0
INSERT
  8
0
 62
2
  6
CONTINUOUS
  2
AMMEAAL_LOGO_BL0
 10
240.8592468615
 20
19.762288695
  0
INSERT
  8
0
 62
2
  6
CONTINUOUS
  2
UNI_LOGO2_BL1
 10
382.7840918555
 20
35.5067593403
  0
LINE
  8
0
 62
2
  6
CONTINUOUS
 10
218.937007874
 20
30.0
 11
408.937007874
 21
30.0
  0
LINE
  8
0
 62
2
  6
CONTINUOUS
 10
218.937007874
 20
30.0
 11
218.937007874
 21
10.0
  0
LINE
  8
0
 62
2
  6
CONTINUOUS
 10
218.937007874
 20
10.0
 11
408.937007874
 21
10.0
  0
LINE
  8
0
 62
2
  6
CONTINUOUS
 10
303.937007874
 20
30.0
 11
303.937007874
 21
10.0
  0
LINE
  8
0
 62
2
  6
CONTINUOUS
 10
323.937007874
 20
30.0
 11
323.937007874
 21
10.0
  0
LINE
  8
0
 62
2
  6
CONTINUOUS
 10
408.937007874
 20
30.0
 11
408.937007874
 21
10.0
  0
TEXT
  8
0
 62
5
  6
CONTINUOUS
 10
221.937007874
 20
23.303
  7
TEXTSTYLE_5
 40
1.52
  1
                                                                     Ammeraal Beltech Modular A/S
 41
1.0
 72
0
  0
TEXT
  8
0
 62
5
  6
CONTINUOUS
 10
221.937007874
 20
20.595
  7
TEXTSTYLE_5
 40
1.5
  1
                                                                      Hjulmagervej 21, 7100 Vejle,  DK
 41
1.0
 72
0
  0
TEXT
  8
0
 62
5
  6
CONTINUOUS
 10
221.937007874
 20
17.881
  7
TEXTSTYLE_5
 40
1.495
  1
                                                                      tel: 
 41
1.0
 72
0
  0
TEXT
  8
0
 62
5
  6
CONTINUOUS
 10
266.9239544389
 20
17.881
  7
TEXTSTYLE_5
 40
1.51
  1
+45 75723100     fax: +45 75723348
 41
1.0
 72
0
  0
TEXT
  8
0
 62
5
  6
CONTINUOUS
 10
221.937007874
 20
15.177
  7
TEXTSTYLE_5
 40
1.5
  1
                                                                      admin@unichains.dk  www.unichains.com
 41
1.0
 72
0
  0
TEXT
  8
0
 62
5
  6
CONTINUOUS
 10
308.687007874
 20
13.75
  7
TEXTSTYLE_6
 40
5.0
  1
1:1
 41
0.7
 72
1
 11
313.937007874
 21
13.75
  0
TEXT
  8
0
 62
5
  6
CONTINUOUS
 10
326.937007874
 20
13.75
  7
TEXTSTYLE_7
 40
7.5
  1
uni Flex L-OSB Sprocket Z08
 41
0.3259259259
 72
0
  0
LINE
  8
0
 62
7
  6
CONTINUOUS
 10
0.0
 20
0.0
 11
0.0
 21
297.0
  0
LINE
  8
0
 62
7
  6
CONTINUOUS
 10
8.937007874
 20
10.0
 11
8.937007874
 21
287.0
  0
LINE
  8
0
 62
7
  6
CONTINUOUS
 10
0.0
 20
0.0
 11
420.0
 21
0.0
  0
LINE
  8
0
 62
7
  6
CONTINUOUS
 10
408.937007874
 20
10.0
 11
8.937007874
 21
10.0
  0
LINE
  8
0
 62
7
  6
CONTINUOUS
 10
218.937007874
 20
30.0
 11
408.937007874
 21
30.0
  0
LINE
  8
0
 62
7
  6
CONTINUOUS
 10
210.0
 20
297.0
 11
210.0
 21
292.0
  0
LINE
  8
0
 62
7
  6
CONTINUOUS
 10
210.0
 20
0.0
 11
210.0
 21
5.0
  0
LINE
  8
0
 62
7
  6
CONTINUOUS
 10
8.937007874
 20
287.0
 11
408.937007874
 21
287.0
  0
LINE
  8
0
 62
7
  6
CONTINUOUS
 10
0.0
 20
297.0
 11
420.0
 21
297.0
  0
LINE
  8
0
 62
7
  6
CONTINUOUS
 10
408.937007874
 20
287.0
 11
408.937007874
 21
10.0
  0
LINE
  8
0
 62
7
  6
CONTINUOUS
 10
420.0
 20
0.0
 11
420.0
 21
297.0
  0
POLYLINE
  8
0
 62
7
  6
CONTINUOUS
 66
1
 70
0
  0
VERTEX
  8
0
 62
7
  6
CONTINUOUS
 10
305.627421875
 20
94.8250467084
  0
VERTEX
  8
0
 62
7
  6
CONTINUOUS
 10
305.9210213595
 20
94.8922866679
  0
VERTEX
  8
0
 62
7
  6
CONTINUOUS
 10
306.1884915411
 20
95.0446231312
  0
VERTEX
  8
0
 62
7
  6
CONTINUOUS
 10
306.3931596349
 20
95.2510040247
  0
VERTEX
  8
0
 62
7
  6
CONTINUOUS
 10
306.5352117662
 20
95.4936082766
  0
VERTEX
  8
0
 62
7
  6
CONTINUOUS
 10
306.6090490584
 20
95.7366703223
  0
SEQEND
  0
LINE
  8
0
 62
7
  6
CONTINUOUS
 10
280.587421875
 20
94.7351562144
 11
305.627421875
 21
94.7351562144
  0
POLYLINE
  8
0
 62
7
  6
CONTINUOUS
 66
1
 70
0
  0
VERTEX
  8
0
 62
7
  6
CONTINUOUS
 10
279.6057946916
 20
212.4886703585
  0
VERTEX
  8
0
 62
7
  6
CONTINUOUS
 10
279.6787345915
 20
212.5296507183
  0
VERTEX
  8
0
 62
7
  6
CONTINUOUS
 10
279.7207463129
 20
212.5332647519
  0
SEQEND
  0
POLYLINE
  8
0
 62
7
  6
CONTINUOUS
 66
1
 70
0
  0
VERTEX
  8
0
 62
7
  6
CONTINUOUS
 10
312.107421875
 20
108.5680588598
  0
VERTEX
  8
0
 62
7
  6
CONTINUOUS
 10
312.3368603843
 20
108.5958623148
  0
VERTEX
  8
0
 62
7
  6
CONTINUOUS
 10
312.5549191368
 20
108.6782939214
  0
VERTEX
  8
0
 62
7
  6
CONTINUOUS
 10
312.7523294693
 20
108.8140871369
  0
VERTEX
  8
0
 62
7
  6
CONTINUOUS
 10
312.8389123998
 20
108.9002746394
  0
VERTEX
  8
0
 62
7
  6
CONTINUOUS
 10
312.9823017738
 20
109.1072439775
  0
VERTEX
  8
0
 62
7
  6
CONTINUOUS
 10
313.0747929571
 20
109.3500335608
  0
SEQEND
  0
LINE
  8
0
 62
7
  6
CONTINUOUS
 10
274.107421875
 20
108.2351562144
 11
278.107421875
 21
108.2351562144
  0
LINE
  8
0
 62
7
  6
CONTINUOUS
 10
308.107421875
 20
108.2351562144
 11
312.107421875
 21
108.2351562144
  0
LINE
  8
0
 62
7
  6
CONTINUOUS
 10
274.107421875
 20
108.5680588598
 11
278.107421875
 21
108.5680588598
  0
LINE
  8
0
 62
7
  6
CONTINUOUS
 10
308.107421875
 20
108.5680588598
 11
312.107421875
 21
108.5680588598
  0
POLYLINE
  8
0
 62
7
  6
CONTINUOUS
 66
1
 70
0
  0
VERTEX
  8
0
 62
7
  6
CONTINUOUS
 10
279.7207468195
 20
111.537047677
  0
VERTEX
  8
0
 62
7
  6
CONTINUOUS
 10
279.6786994683
 20
111.5406682964
  0
VERTEX
  8
0
 62
7
  6
CONTINUOUS
 10
279.6057946916
 20
111.5816420703
  0
SEQEND
  0
LINE
  8
0
 62
7
  6
CONTINUOUS
 10
279.7207166168
 20
111.5370476769
 11
306.4941271332
 21
111.5370476769
  0
POLYLINE
  8
0
 62
7
  6
CONTINUOUS
 66
1
 70
0
  0
VERTEX
  8
0
 62
7
  6
CONTINUOUS
 10
306.4940986009
 20
111.537047677
  0
VERTEX
  8
0
 62
7
  6
CONTINUOUS
 10
306.3932383581
 20
111.5510315238
  0
VERTEX
  8
0
 62
7
  6
CONTINUOUS
 10
306.1885691024
 20
111.6320284462
  0
VERTEX
  8
0
 62
7
  6
CONTINUOUS
 10
305.921172841
 20
111.8015099955
  0
VERTEX
  8
0
 62
7
  6
CONTINUOUS
 10
305.627421875
 20
112.0516538473
  0
SEQEND
  0
LINE
  8
0
 62
7
  6
CONTINUOUS
 10
274.107421875
 20
120.0027209391
 11
278.107421875
 21
120.0027209391
  0
LINE
  8
0
 62
7
  6
CONTINUOUS
 10
308.107421875
 20
120.0027209391
 11
312.107421875
 21
120.0027209391
  0
POLYLINE
  8
0
 62
7
  6
CONTINUOUS
 66
1
 70
0
  0
VERTEX
  8
0
 62
7
  6
CONTINUOUS
 10
274.107421875
 20
120.0027209391
  0
VERTEX
  8
0
 62
7
  6
CONTINUOUS
 10
273.8779087077
 20
120.0163209708
  0
VERTEX
  8
0
 62
7
  6
CONTINUOUS
 10
273.659947235
 20
120.0563560451
  0
VERTEX
  8
0
 62
7
  6
CONTINUOUS
 10
273.4625646577
 20
120.1215128579
  0
VERTEX
  8
0
 62
7
  6
CONTINUOUS
 10
273.3759991802
 20
120.1623404625
  0
VERTEX
  8
0
 62
7
  6
CONTINUOUS
 10
273.2325842029
 20
120.2587448589
  0
VERTEX
  8
0
 62
7
  6
CONTINUOUS
 10
273.1400952577
 20
120.3687421204
  0
VERTEX
  8
0
 62
7
  6
CONTINUOUS
 10
273.107421875
 20
120.4861004388
  0
SEQEND
  0
POLYLINE
  8
0
 62
7
  6
CONTINUOUS
 66
1
 70
0
  0
VERTEX
  8
0
 62
7
  6
CONTINUOUS
 10
280.587421875
 20
207.1011022393
  0
VERTEX
  8
0
 62
7
  6
CONTINUOUS
 10
280.292822401
 20
206.7546831726
  0
VERTEX
  8
0
 62
7
  6
CONTINUOUS
 10
280.0253421778
 20
206.3693594861
  0
VERTEX
  8
0
 62
7
  6
CONTINUOUS
 10
279.8206787858
 20
205.9959920932
  0
VERTEX
  8
0
 62
7
  6
CONTINUOUS
 10
279.6786994683
 20
205.6415580948
  0
VERTEX
  8
0
 62
7
  6
CONTINUOUS
 10
279.6057946916
 20
205.3418599838
  0
SEQEND
  0
POLYLINE
  8
0
 62
7
  6
CONTINUOUS
 66
1
 70
0
  0
VERTEX
  8
0
 62
7
  6
CONTINUOUS
 10
279.6057946916
 20
111.5816420703
  0
VERTEX
  8
0
 62
7
  6
CONTINUOUS
 10
279.5460144642
 20
111.6897983713
  0
VERTEX
  8
0
 62
7
  6
CONTINUOUS
 10
279.4802848235
 20
111.8594704608
  0
SEQEND
  0
POLYLINE
  8
0
 62
7
  6
CONTINUOUS
 66
1
 70
0
  0
VERTEX
  8
0
 62
7
  6
CONTINUOUS
 10
279.4802848235
 20
212.210841968
  0
VERTEX
  8
0
 62
7
  6
CONTINUOUS
 10
279.5460091757
 20
212.3805023544
  0
VERTEX
  8
0
 62
7
  6
CONTINUOUS
 10
279.6057946916
 20
212.4886703585
  0
SEQEND
  0
POLYLINE
  8
0
 62
7
  6
CONTINUOUS
 66
1
 70
0
  0
VERTEX
  8
0
 62
7
  6
CONTINUOUS
 10
312.107421875
 20
128.4536972701
  0
VERTEX
  8
0
 62
7
  6
CONTINUOUS
 10
312.3368603843
 20
128.479426217
  0
VERTEX
  8
0
 62
7
  6
CONTINUOUS
 10
312.5549191368
 20
128.5559523709
  0
VERTEX
  8
0
 62
7
  6
CONTINUOUS
 10
312.7523294693
 20
128.6828207177
  0
VERTEX
  8
0
 62
7
  6
CONTINUOUS
 10
312.8389123998
 20
128.7638659068
  0
VERTEX
  8
0
 62
7
  6
CONTINUOUS
 10
312.9823017738
 20
128.9601594376
  0
VERTEX
  8
0
 62
7
  6
CONTINUOUS
 10
313.0747929571
 20
129.1934755478
  0
VERTEX
  8
0
 62
7
  6
CONTINUOUS
 10
313.107421875
 20
129.4542421057
  0
SEQEND
  0
LINE
  8
0
 62
7
  6
CONTINUOUS
 10
274.107421875
 20
128.4536972701
 11
278.107421875
 21
128.4536972701
  0
LINE
  8
0
 62
7
  6
CONTINUOUS
 10
308.107421875
 20
128.4536972701
 11
312.107421875
 21
128.4536972701
  0
POLYLINE
  8
0
 62
7
  6
CONTINUOUS
 66
1
 70
0
  0
VERTEX
  8
0
 62
7
  6
CONTINUOUS
 10
279.6057946916
 20
95.7366703223
  0
VERTEX
  8
0
 62
7
  6
CONTINUOUS
 10
279.6787345915
 20
95.4956969406
  0
VERTEX
  8
0
 62
7
  6
CONTINUOUS
 10
279.8206341598
 20
95.2523796789
  0
VERTEX
  8
0
 62
7
  6
CONTINUOUS
 10
280.0253092246
 20
95.045433027
  0
VERTEX
  8
0
 62
7
  6
CONTINUOUS
 10
280.2927792812
 20
94.892695484
  0
VERTEX
  8
0
 62
7
  6
CONTINUOUS
 10
280.587421875
 20
94.8250467084
  0
SEQEND
  0
LINE
  8
0
 62
7
  6
CONTINUOUS
 10
278.1992859578
 20
221.2901050549
 11
279.6057946916
 21
228.5259652098
  0
LINE
  8
0
 62
7
  6
CONTINUOUS
 10
278.1992859578
 20
221.0479532563
 11
278.7834581277
 21
224.0382123116
  0
POLYLINE
  8
0
 62
7
  6
CONTINUOUS
 66
1
 70
0
  0
VERTEX
  8
0
 62
7
  6
CONTINUOUS
 10
273.107421875
 20
203.58421199
  0
VERTEX
  8
0
 62
7
  6
CONTINUOUS
 10
273.1400952577
 20
203.7015703084
  0
VERTEX
  8
0
 62
7
  6
CONTINUOUS
 10
273.2325842029
 20
203.8115675699
  0
VERTEX
  8
0
 62
7
  6
CONTINUOUS
 10
273.3759991802
 20
203.9079719663
  0
VERTEX
  8
0
 62
7
  6
CONTINUOUS
 10
273.4625646577
 20
203.9487995709
  0
VERTEX
  8
0
 62
7
  6
CONTINUOUS
 10
273.659947235
 20
204.0139563837
  0
VERTEX
  8
0
 62
7
  6
CONTINUOUS
 10
273.8779087077
 20
204.0539914581
  0
VERTEX
  8
0
 62
7
  6
CONTINUOUS
 10
274.107421875
 20
204.0675914897
  0
SEQEND
  0
POLYLINE
  8
0
 62
7
  6
CONTINUOUS
 66
1
 70
0
  0
VERTEX
  8
0
 62
7
  6
CONTINUOUS
 10
305.627421875
 20
212.0186585815
  0
VERTEX
  8
0
 62
7
  6
CONTINUOUS
 10
305.9210213595
 20
212.2686900226
  0
VERTEX
  8
0
 62
7
  6
CONTINUOUS
 10
306.1884915411
 20
212.4382439962
  0
VERTEX
  8
0
 62
7
  6
CONTINUOUS
 10
306.3931596349
 20
212.5192612459
  0
VERTEX
  8
0
 62
7
  6
CONTINUOUS
 10
306.4940980833
 20
212.5332647519
  0
SEQEND
  0
POLYLINE
  8
0
 62
7
  6
CONTINUOUS
 66
1
 70
0
  0
VERTEX
  8
0
 62
7
  6
CONTINUOUS
 10
278.4287120221
 20
123.3559893037
  0
VERTEX
  8
0
 62
7
  6
CONTINUOUS
 10
278.3522932748
 20
123.5928732782
  0
VERTEX
  8
0
 62
7
  6
CONTINUOUS
 10
278.2758002475
 20
123.8379015405
  0
VERTEX
  8
0
 62
7
  6
CONTINUOUS
 10
278.1992859578
 20
124.0909020805
  0
SEQEND
  0
POLYLINE
  8
0
 62
7
  6
CONTINUOUS
 66
1
 70
0
  0
VERTEX
  8
0
 62
7
  6
CONTINUOUS
 10
279.4802848235
 20
111.8594704608
  0
VERTEX
  8
0
 62
7
  6
CONTINUOUS
 10
279.1355940314
 20
112.9423008316
  0
VERTEX
  8
0
 62
7
  6
CONTINUOUS
 10
278.7834581277
 20
114.1948581821
  0
VERTEX
  8
0
 62
7
  6
CONTINUOUS
 10
278.4287120221
 20
115.5987403465
  0
SEQEND
  0
POLYLINE
  8
0
 62
7
  6
CONTINUOUS
 66
1
 70
0
  0
VERTEX
  8
0
 62
7
  6
CONTINUOUS
 10
278.2758002475
 20
102.6302258433
  0
VERTEX
  8
0
 62
7
  6
CONTINUOUS
 10
278.7833924207
 20
100.0324385696
  0
VERTEX
  8
0
 62
7
  6
CONTINUOUS
 10
279.1355532374
 20
98.2088363832
  0
VERTEX
  8
0
 62
7
  6
CONTINUOUS
 10
279.4802848235
 20
96.406127939
  0
SEQEND
  0
LINE
  8
0
 62
7
  6
CONTINUOUS
 10
278.2758002475
 20
102.6302258433
 11
278.1992859578
 21
103.0223591726
  0
LINE
  8
0
 62
7
  6
CONTINUOUS
 10
278.1992859578
 20
102.780207374
 11
279.6057946916
 21
95.544347219
  0
POLYLINE
  8
0
 62
7
  6
CONTINUOUS
 66
1
 70
0
  0
VERTEX
  8
0
 62
7
  6
CONTINUOUS
 10
273.107421875
 20
109.6173518201
  0
VERTEX
  8
0
 62
7
  6
CONTINUOUS
 10
273.1400952577
 20
109.3498548595
  0
VERTEX
  8
0
 62
7
  6
CONTINUOUS
 10
273.2325842029
 20
109.1071639456
  0
VERTEX
  8
0
 62
7
  6
CONTINUOUS
 10
273.3759991802
 20
108.9001984997
  0
VERTEX
  8
0
 62
7
  6
CONTINUOUS
 10
273.4625646577
 20
108.8140427059
  0
VERTEX
  8
0
 62
7
  6
CONTINUOUS
 10
273.659947235
 20
108.6782821098
  0
VERTEX
  8
0
 62
7
  6
CONTINUOUS
 10
273.8779087077
 20
108.5958806632
  0
VERTEX
  8
0
 62
7
  6
CONTINUOUS
 10
274.107421875
 20
108.5680588598
  0
SEQEND
  0
POLYLINE
  8
0
 62
7
  6
CONTINUOUS
 66
1
 70
0
  0
VERTEX
  8
0
 62
7
  6
CONTINUOUS
 10
278.1992859578
 20
221.0479532563
  0
VERTEX
  8
0
 62
7
  6
CONTINUOUS
 10
278.1483122509
 20
220.732585037
  0
VERTEX
  8
0
 62
7
  6
CONTINUOUS
 10
278.1176487678
 20
220.4139927363
  0
SEQEND
  0
POLYLINE
  8
0
 62
7
  6
CONTINUOUS
 66
1
 70
0
  0
VERTEX
  8
0
 62
7
  6
CONTINUOUS
 10
279.6057946916
 20
228.3336421066
  0
VERTEX
  8
0
 62
7
  6
CONTINUOUS
 10
279.5460144642
 20
228.0120740726
  0
VERTEX
  8
0
 62
7
  6
CONTINUOUS
 10
279.4802848235
 20
227.6641844898
  0
SEQEND
  0
POLYLINE
  8
0
 62
7
  6
CONTINUOUS
 66
1
 70
0
  0
VERTEX
  8
0
 62
7
  6
CONTINUOUS
 10
279.4802848235
 20
227.6641844898
  0
VERTEX
  8
0
 62
7
  6
CONTINUOUS
 10
279.1355940314
 20
225.8616883809
  0
VERTEX
  8
0
 62
7
  6
CONTINUOUS
 10
278.7834581277
 20
224.0382123116
  0
SEQEND
  0
POLYLINE
  8
0
 62
7
  6
CONTINUOUS
 66
1
 70
0
  0
VERTEX
  8
0
 62
7
  6
CONTINUOUS
 10
279.4802848235
 20
204.6729323333
  0
VERTEX
  8
0
 62
7
  6
CONTINUOUS
 10
279.1355940314
 20
203.2066482607
  0
VERTEX
  8
0
 62
7
  6
CONTINUOUS
 10
278.7834581277
 20
201.8804210233
  0
VERTEX
  8
0
 62
7
  6
CONTINUOUS
 10
278.4287120221
 20
200.7143231252
  0
SEQEND
  0
POLYLINE
  8
0
 62
7
  6
CONTINUOUS
 66
1
 70
0
  0
VERTEX
  8
0
 62
7
  6
CONTINUOUS
 10
278.4287120221
 20
208.4715720823
  0
VERTEX
  8
0
 62
7
  6
CONTINUOUS
 10
278.3522932748
 20
208.1572230055
  0
VERTEX
  8
0
 62
7
  6
CONTINUOUS
 10
278.2758002475
 20
207.8491597431
  0
VERTEX
  8
0
 62
7
  6
CONTINUOUS
 10
278.1992859578
 20
207.5476000107
  0
SEQEND
  0
POLYLINE
  8
0
 62
7
  6
CONTINUOUS
 66
1
 70
0
  0
VERTEX
  8
0
 62
7
  6
CONTINUOUS
 10
278.1992859578
 20
199.9794103483
  0
VERTEX
  8
0
 62
7
  6
CONTINUOUS
 10
278.1483122509
 20
199.7706534256
  0
VERTEX
  8
0
 62
7
  6
CONTINUOUS
 10
278.1176487678
 20
199.5549999736
  0
VERTEX
  8
0
 62
7
  6
CONTINUOUS
 10
278.107421875
 20
199.3333558188
  0
SEQEND
  0
POLYLINE
  8
0
 62
7
  6
CONTINUOUS
 66
1
 70
0
  0
VERTEX
  8
0
 62
7
  6
CONTINUOUS
 10
278.4287120221
 20
208.4715720823
  0
VERTEX
  8
0
 62
7
  6
CONTINUOUS
 10
278.7833924207
 20
209.8752073001
  0
VERTEX
  8
0
 62
7
  6
CONTINUOUS
 10
279.1355532374
 20
211.1278748442
  0
VERTEX
  8
0
 62
7
  6
CONTINUOUS
 10
279.4802848235
 20
212.210841968
  0
SEQEND
  0
POLYLINE
  8
0
 62
7
  6
CONTINUOUS
 66
1
 70
0
  0
VERTEX
  8
0
 62
7
  6
CONTINUOUS
 10
278.1992859578
 20
199.9794103483
  0
VERTEX
  8
0
 62
7
  6
CONTINUOUS
 10
278.2757995402
 20
200.2324085862
  0
VERTEX
  8
0
 62
7
  6
CONTINUOUS
 10
278.352292787
 20
200.4774376131
  0
VERTEX
  8
0
 62
7
  6
CONTINUOUS
 10
278.4287120221
 20
200.7143231252
  0
SEQEND
  0
POLYLINE
  8
0
 62
7
  6
CONTINUOUS
 66
1
 70
0
  0
VERTEX
  8
0
 62
7
  6
CONTINUOUS
 10
278.4287120221
 20
123.3559893037
  0
VERTEX
  8
0
 62
7
  6
CONTINUOUS
 10
278.7833924207
 20
122.1901231028
  0
VERTEX
  8
0
 62
7
  6
CONTINUOUS
 10
279.1355532374
 20
120.8638277025
  0
VERTEX
  8
0
 62
7
  6
CONTINUOUS
 10
279.4802848235
 20
119.3973800956
  0
SEQEND
  0
POLYLINE
  8
0
 62
7
  6
CONTINUOUS
 66
1
 70
0
  0
VERTEX
  8
0
 62
7
  6
CONTINUOUS
 10
278.1992859578
 20
116.5227124182
  0
VERTEX
  8
0
 62
7
  6
CONTINUOUS
 10
278.2757995402
 20
116.2211555038
  0
VERTEX
  8
0
 62
7
  6
CONTINUOUS
 10
278.352292787
 20
115.9130914092
  0
VERTEX
  8
0
 62
7
  6
CONTINUOUS
 10
278.4287120221
 20
115.5987403465
  0
SEQEND
  0
POLYLINE
  8
0
 62
7
  6
CONTINUOUS
 66
1
 70
0
  0
VERTEX
  8
0
 62
7
  6
CONTINUOUS
 10
279.6057946916
 20
118.728452445
  0
VERTEX
  8
0
 62
7
  6
CONTINUOUS
 10
279.6787345915
 20
118.4286449803
  0
VERTEX
  8
0
 62
7
  6
CONTINUOUS
 10
279.8206341598
 20
118.074414212
  0
VERTEX
  8
0
 62
7
  6
CONTINUOUS
 10
280.0253092246
 20
117.7010061302
  0
VERTEX
  8
0
 62
7
  6
CONTINUOUS
 10
280.2927792812
 20
117.3156851592
  0
VERTEX
  8
0
 62
7
  6
CONTINUOUS
 10
280.587421875
 20
116.9692101895
  0
SEQEND
  0
POLYLINE
  8
0
 62
7
  6
CONTINUOUS
 66
1
 70
0
  0
VERTEX
  8
0
 62
7
  6
CONTINUOUS
 10
278.1992859578
 20
116.5227124182
  0
VERTEX
  8
0
 62
7
  6
CONTINUOUS
 10
278.1483122509
 20
116.7599535083
  0
VERTEX
  8
0
 62
7
  6
CONTINUOUS
 10
278.1176487678
 20
116.9948576089
  0
VERTEX
  8
0
 62
7
  6
CONTINUOUS
 10
278.107421875
 20
117.226231907
  0
SEQEND
  0
POLYLINE
  8
0
 62
7
  6
CONTINUOUS
 66
1
 70
0
  0
VERTEX
  8
0
 62
7
  6
CONTINUOUS
 10
279.4802848235
 20
119.3973800956
  0
VERTEX
  8
0
 62
7
  6
CONTINUOUS
 10
279.5460091757
 20
119.075090219
  0
VERTEX
  8
0
 62
7
  6
CONTINUOUS
 10
279.6057946916
 20
118.728452445
  0
SEQEND
  0
POLYLINE
  8
0
 62
7
  6
CONTINUOUS
 66
1
 70
0
  0
VERTEX
  8
0
 62
7
  6
CONTINUOUS
 10
279.4802848235
 20
96.406127939
  0
VERTEX
  8
0
 62
7
  6
CONTINUOUS
 10
279.5460091757
 20
96.058266572
  0
VERTEX
  8
0
 62
7
  6
CONTINUOUS
 10
279.6057946916
 20
95.7366703223
  0
SEQEND
  0
POLYLINE
  8
0
 62
7
  6
CONTINUOUS
 66
1
 70
0
  0
VERTEX
  8
0
 62
7
  6
CONTINUOUS
 10
273.107421875
 20
129.4542421057
  0
VERTEX
  8
0
 62
7
  6
CONTINUOUS
 10
273.1400952577
 20
129.1933025946
  0
VERTEX
  8
0
 62
7
  6
CONTINUOUS
 10
273.2325842029
 20
128.9600830742
  0
VERTEX
  8
0
 62
7
  6
CONTINUOUS
 10
273.3759991802
 20
128.76379413
  0
VERTEX
  8
0
 62
7
  6
CONTINUOUS
 10
273.4625646577
 20
128.6827790425
  0
VERTEX
  8
0
 62
7
  6
CONTINUOUS
 10
273.659947235
 20
128.5559413792
  0
VERTEX
  8
0
 62
7
  6
CONTINUOUS
 10
273.8779087077
 20
128.4794432101
  0
VERTEX
  8
0
 62
7
  6
CONTINUOUS
 10
274.107421875
 20
128.4536972701
  0
SEQEND
  0
POLYLINE
  8
0
 62
7
  6
CONTINUOUS
 66
1
 70
0
  0
VERTEX
  8
0
 62
7
  6
CONTINUOUS
 10
278.107421875
 20
124.7369566101
  0
VERTEX
  8
0
 62
7
  6
CONTINUOUS
 10
278.1176487678
 20
124.5153124552
  0
VERTEX
  8
0
 62
7
  6
CONTINUOUS
 10
278.1483122509
 20
124.2996590032
  0
VERTEX
  8
0
 62
7
  6
CONTINUOUS
 10
278.1992859578
 20
124.0909020805
  0
SEQEND
  0
POLYLINE
  8
0
 62
7
  6
CONTINUOUS
 66
1
 70
0
  0
VERTEX
  8
0
 62
7
  6
CONTINUOUS
 10
278.107421875
 20
103.9766521127
  0
VERTEX
  8
0
 62
7
  6
CONTINUOUS
 10
278.1176487678
 20
103.6563196926
  0
VERTEX
  8
0
 62
7
  6
CONTINUOUS
 10
278.1483122509
 20
103.3377273918
  0
VERTEX
  8
0
 62
7
  6
CONTINUOUS
 10
278.1992859578
 20
103.0223591726
  0
SEQEND
  0
LINE
  8
0
 62
7
  6
CONTINUOUS
 10
273.107421875
 20
109.2351562144
 11
273.107421875
 21
214.8347610175
  0
LINE
  8
0
 62
7
  6
CONTINUOUS
 10
278.1176487678
 20
220.4139927363
 11
278.107421875
 21
220.0936603161
  0
POLYLINE
  8
0
 62
7
  6
CONTINUOUS
 66
1
 70
0
  0
VERTEX
  8
0
 62
7
  6
CONTINUOUS
 10
278.107421875
 20
206.8440805218
  0
VERTEX
  8
0
 62
7
  6
CONTINUOUS
 10
278.1176487678
 20
207.0754548199
  0
VERTEX
  8
0
 62
7
  6
CONTINUOUS
 10
278.1483122509
 20
207.3103589205
  0
VERTEX
  8
0
 62
7
  6
CONTINUOUS
 10
278.1992859578
 20
207.5476000107
  0
SEQEND
  0
POLYLINE
  8
0
 62
7
  6
CONTINUOUS
 66
1
 70
0
  0
VERTEX
  8
0
 62
7
  6
CONTINUOUS
 10
279.6057946916
 20
205.3418599838
  0
VERTEX
  8
0
 62
7
  6
CONTINUOUS
 10
279.5460144642
 20
204.9952504099
  0
VERTEX
  8
0
 62
7
  6
CONTINUOUS
 10
279.4802848235
 20
204.6729323333
  0
SEQEND
  0
POLYLINE
  8
0
 62
7
  6
CONTINUOUS
 66
1
 70
0
  0
VERTEX
  8
0
 62
7
  6
CONTINUOUS
 10
273.107421875
 20
168.3765900017
  0
VERTEX
  8
0
 62
7
  6
CONTINUOUS
 10
273.1400952577
 20
168.2750627667
  0
VERTEX
  8
0
 62
7
  6
CONTINUOUS
 10
273.2325842029
 20
168.1879314718
  0
VERTEX
  8
0
 62
7
  6
CONTINUOUS
 10
273.3759991802
 20
168.1173024308
  0
VERTEX
  8
0
 62
7
  6
CONTINUOUS
 10
273.4625646577
 20
168.0888855891
  0
VERTEX
  8
0
 62
7
  6
CONTINUOUS
 10
273.659947235
 20
168.0452706414
  0
VERTEX
  8
0
 62
7
  6
CONTINUOUS
 10
273.8779087077
 20
168.0194873399
  0
VERTEX
  8
0
 62
7
  6
CONTINUOUS
 10
274.107421875
 20
168.0108988857
  0
SEQEND
  0
LINE
  8
0
 62
7
  6
CONTINUOUS
 10
278.107421875
 20
103.7342569166
 11
278.107421875
 21
108.5680588598
  0
LINE
  8
0
 62
7
  6
CONTINUOUS
 10
278.107421875
 20
117.226231907
 11
278.107421875
 21
128.4536972701
  0
LINE
  8
0
 62
7
  6
CONTINUOUS
 10
278.107421875
 20
156.0594135431
 11
278.107421875
 21
168.0108988857
  0
LINE
  8
0
 62
7
  6
CONTINUOUS
 10
278.107421875
 20
195.6166151587
 11
278.107421875
 21
206.8440805218
  0
LINE
  8
0
 62
7
  6
CONTINUOUS
 10
278.107421875
 20
215.502253569
 11
278.107421875
 21
220.336060078
  0
POLYLINE
  8
0
 62
7
  6
CONTINUOUS
 66
1
 70
0
  0
VERTEX
  8
0
 62
7
  6
CONTINUOUS
 10
278.4287120221
 20
167.5203595554
  0
VERTEX
  8
0
 62
7
  6
CONTINUOUS
 10
278.3522932748
 20
167.4655834562
  0
VERTEX
  8
0
 62
7
  6
CONTINUOUS
 10
278.2758002475
 20
167.4210109802
  0
VERTEX
  8
0
 62
7
  6
CONTINUOUS
 10
278.1992859578
 20
167.386674446
  0
SEQEND
  0
POLYLINE
  8
0
 62
7
  6
CONTINUOUS
 66
1
 70
0
  0
VERTEX
  8
0
 62
7
  6
CONTINUOUS
 10
278.107421875
 20
167.3460405835
  0
VERTEX
  8
0
 62
7
  6
CONTINUOUS
 10
278.1176487678
 20
167.3529208339
  0
VERTEX
  8
0
 62
7
  6
CONTINUOUS
 10
278.1483122509
 20
167.366533098
  0
VERTEX
  8
0
 62
7
  6
CONTINUOUS
 10
278.1992859578
 20
167.386674446
  0
SEQEND
  0
POLYLINE
  8
0
 62
7
  6
CONTINUOUS
 66
1
 70
0
  0
VERTEX
  8
0
 62
7
  6
CONTINUOUS
 10
279.6057946916
 20
156.9815981346
  0
VERTEX
  8
0
 62
7
  6
CONTINUOUS
 10
279.5460144642
 20
156.8129862084
  0
VERTEX
  8
0
 62
7
  6
CONTINUOUS
 10
279.4802848235
 20
156.7050491957
  0
SEQEND
  0
POLYLINE
  8
0
 62
7
  6
CONTINUOUS
 66
1
 70
0
  0
VERTEX
  8
0
 62
7
  6
CONTINUOUS
 10
280.587421875
 20
158.557918778
  0
VERTEX
  8
0
 62
7
  6
CONTINUOUS
 10
280.292822401
 20
158.1356400859
  0
VERTEX
  8
0
 62
7
  6
CONTINUOUS
 10
280.0253421778
 20
157.7434389516
  0
VERTEX
  8
0
 62
7
  6
CONTINUOUS
 10
279.8206787858
 20
157.4223314349
  0
VERTEX
  8
0
 62
7
  6
CONTINUOUS
 10
279.6786994683
 20
157.1645438678
  0
VERTEX
  8
0
 62
7
  6
CONTINUOUS
 10
279.6057946916
 20
156.9815981346
  0
SEQEND
  0
POLYLINE
  8
0
 62
7
  6
CONTINUOUS
 66
1
 70
0
  0
VERTEX
  8
0
 62
7
  6
CONTINUOUS
 10
278.4287120221
 20
167.5203595554
  0
VERTEX
  8
0
 62
7
  6
CONTINUOUS
 10
278.7833924207
 20
167.6884876396
  0
VERTEX
  8
0
 62
7
  6
CONTINUOUS
 10
278.8767094896
 20
167.6961562144
  0
SEQEND
  0
POLYLINE
  8
0
 62
7
  6
CONTINUOUS
 66
1
 70
0
  0
VERTEX
  8
0
 62
7
  6
CONTINUOUS
 10
278.1992859578
 20
156.6836379829
  0
VERTEX
  8
0
 62
7
  6
CONTINUOUS
 10
278.1483122509
 20
156.7037793308
  0
VERTEX
  8
0
 62
7
  6
CONTINUOUS
 10
278.1176487678
 20
156.717391595
  0
VERTEX
  8
0
 62
7
  6
CONTINUOUS
 10
278.107421875
 20
156.7242718453
  0
SEQEND
  0
POLYLINE
  8
0
 62
7
  6
CONTINUOUS
 66
1
 70
0
  0
VERTEX
  8
0
 62
7
  6
CONTINUOUS
 10
278.1992859578
 20
156.6836379829
  0
VERTEX
  8
0
 62
7
  6
CONTINUOUS
 10
278.2757995402
 20
156.6493018134
  0
VERTEX
  8
0
 62
7
  6
CONTINUOUS
 10
278.352292787
 20
156.6047292896
  0
VERTEX
  8
0
 62
7
  6
CONTINUOUS
 10
278.4287120221
 20
156.5499528735
  0
SEQEND
  0
POLYLINE
  8
0
 62
7
  6
CONTINUOUS
 66
1
 70
0
  0
VERTEX
  8
0
 62
7
  6
CONTINUOUS
 10
279.4802848235
 20
167.3652632331
  0
VERTEX
  8
0
 62
7
  6
CONTINUOUS
 10
279.5460091757
 20
167.2573378856
  0
VERTEX
  8
0
 62
7
  6
CONTINUOUS
 10
279.6057946916
 20
167.0887142942
  0
SEQEND
  0
POLYLINE
  8
0
 62
7
  6
CONTINUOUS
 66
1
 70
0
  0
VERTEX
  8
0
 62
7
  6
CONTINUOUS
 10
279.6057946916
 20
167.0887142942
  0
VERTEX
  8
0
 62
7
  6
CONTINUOUS
 10
279.6787345915
 20
166.9056958932
  0
VERTEX
  8
0
 62
7
  6
CONTINUOUS
 10
279.8206341598
 20
166.6480551982
  0
VERTEX
  8
0
 62
7
  6
CONTINUOUS
 10
280.0253092246
 20
166.3269230765
  0
VERTEX
  8
0
 62
7
  6
CONTINUOUS
 10
280.2927792812
 20
165.9347344764
  0
VERTEX
  8
0
 62
7
  6
CONTINUOUS
 10
280.587421875
 20
165.5123936509
  0
SEQEND
  0
POLYLINE
  8
0
 62
7
  6
CONTINUOUS
 66
1
 70
0
  0
VERTEX
  8
0
 62
7
  6
CONTINUOUS
 10
279.4802848235
 20
156.7050491957
  0
VERTEX
  8
0
 62
7
  6
CONTINUOUS
 10
279.1355940314
 20
156.4339064828
  0
VERTEX
  8
0
 62
7
  6
CONTINUOUS
 10
278.8767094533
 20
156.3741562144
  0
SEQEND
  0
POLYLINE
  8
0
 62
7
  6
CONTINUOUS
 66
1
 70
0
  0
VERTEX
  8
0
 62
7
  6
CONTINUOUS
 10
307.3381342967
 20
156.3741562144
  0
VERTEX
  8
0
 62
7
  6
CONTINUOUS
 10
307.4313856223
 20
156.3818140063
  0
VERTEX
  8
0
 62
7
  6
CONTINUOUS
 10
307.7861317279
 20
156.5499528735
  0
SEQEND
  0
POLYLINE
  8
0
 62
7
  6
CONTINUOUS
 66
1
 70
0
  0
VERTEX
  8
0
 62
7
  6
CONTINUOUS
 10
274.107421875
 20
156.0594135431
  0
VERTEX
  8
0
 62
7
  6
CONTINUOUS
 10
273.8779087077
 20
156.0508250889
  0
VERTEX
  8
0
 62
7
  6
CONTINUOUS
 10
273.659947235
 20
156.0250417874
  0
VERTEX
  8
0
 62
7
  6
CONTINUOUS
 10
273.4625646577
 20
155.9814268397
  0
VERTEX
  8
0
 62
7
  6
CONTINUOUS
 10
273.3759991802
 20
155.9530099981
  0
VERTEX
  8
0
 62
7
  6
CONTINUOUS
 10
273.2325842029
 20
155.882380957
  0
VERTEX
  8
0
 62
7
  6
CONTINUOUS
 10
273.1400952577
 20
155.7952496621
  0
VERTEX
  8
0
 62
7
  6
CONTINUOUS
 10
273.107421875
 20
155.6937224271
  0
SEQEND
  0
LINE
  8
0
 62
7
  6
CONTINUOUS
 10
274.107421875
 20
156.0594135431
 11
278.107421875
 21
156.0594135431
  0
LINE
  8
0
 62
7
  6
CONTINUOUS
 10
308.107421875
 20
156.0594135431
 11
312.107421875
 21
156.0594135431
  0
LINE
  8
0
 62
7
  6
CONTINUOUS
 10
278.8767088395
 20
156.3741562144
 11
307.3381349105
 21
156.3741562144
  0
POLYLINE
  8
0
 62
7
  6
CONTINUOUS
 66
1
 70
0
  0
VERTEX
  8
0
 62
7
  6
CONTINUOUS
 10
278.8767094533
 20
156.3741562144
  0
VERTEX
  8
0
 62
7
  6
CONTINUOUS
 10
278.7834581277
 20
156.3818140063
  0
VERTEX
  8
0
 62
7
  6
CONTINUOUS
 10
278.4287120221
 20
156.5499528735
  0
SEQEND
  0
LINE
  8
DEFAULT_1
 62
2
  6
CENTER
 10
271.107421875
 20
162.0351562144
 11
319.107421875
 21
162.0351562144
  0
POLYLINE
  8
0
 62
7
  6
CONTINUOUS
 66
1
 70
0
  0
VERTEX
  8
0
 62
7
  6
CONTINUOUS
 10
307.3381342604
 20
167.6961562144
  0
VERTEX
  8
0
 62
7
  6
CONTINUOUS
 10
307.0792905126
 20
167.6364248832
  0
VERTEX
  8
0
 62
7
  6
CONTINUOUS
 10
306.7345589265
 20
167.3652632331
  0
SEQEND
  0
POLYLINE
  8
0
 62
7
  6
CONTINUOUS
 66
1
 70
0
  0
VERTEX
  8
0
 62
7
  6
CONTINUOUS
 10
312.107421875
 20
168.0108988857
  0
VERTEX
  8
0
 62
7
  6
CONTINUOUS
 10
312.3368603843
 20
168.0194816564
  0
VERTEX
  8
0
 62
7
  6
CONTINUOUS
 10
312.5549191368
 20
168.0452743744
  0
VERTEX
  8
0
 62
7
  6
CONTINUOUS
 10
312.7523294693
 20
168.0889000957
  0
VERTEX
  8
0
 62
7
  6
CONTINUOUS
 10
312.8389123998
 20
168.1173277987
  0
VERTEX
  8
0
 62
7
  6
CONTINUOUS
 10
312.9823017738
 20
168.1879594341
  0
VERTEX
  8
0
 62
7
  6
CONTINUOUS
 10
313.0747929571
 20
168.2751286581
  0
VERTEX
  8
0
 62
7
  6
CONTINUOUS
 10
313.107421875
 20
168.3765900017
  0
SEQEND
  0
POLYLINE
  8
0
 62
7
  6
CONTINUOUS
 66
1
 70
0
  0
VERTEX
  8
0
 62
7
  6
CONTINUOUS
 10
278.8767094896
 20
167.6961562144
  0
VERTEX
  8
0
 62
7
  6
CONTINUOUS
 10
279.1355532374
 20
167.6364248832
  0
VERTEX
  8
0
 62
7
  6
CONTINUOUS
 10
279.4802848235
 20
167.3652632331
  0
SEQEND
  0
POLYLINE
  8
0
 62
7
  6
CONTINUOUS
 66
1
 70
0
  0
VERTEX
  8
0
 62
7
  6
CONTINUOUS
 10
306.7345589265
 20
156.7050491957
  0
VERTEX
  8
0
 62
7
  6
CONTINUOUS
 10
307.0792497186
 20
156.4339064828
  0
VERTEX
  8
0
 62
7
  6
CONTINUOUS
 10
307.3381342967
 20
156.3741562144
  0
SEQEND
  0
POLYLINE
  8
0
 62
7
  6
CONTINUOUS
 66
1
 70
0
  0
VERTEX
  8
0
 62
7
  6
CONTINUOUS
 10
306.7345589265
 20
167.3652632331
  0
VERTEX
  8
0
 62
7
  6
CONTINUOUS
 10
306.6688345743
 20
167.2573378856
  0
VERTEX
  8
0
 62
7
  6
CONTINUOUS
 10
306.6090490584
 20
167.0887142942
  0
SEQEND
  0
POLYLINE
  8
0
 62
7
  6
CONTINUOUS
 66
1
 70
0
  0
VERTEX
  8
0
 62
7
  6
CONTINUOUS
 10
305.627421875
 20
165.5123936509
  0
VERTEX
  8
0
 62
7
  6
CONTINUOUS
 10
305.9210213595
 20
165.9332314654
  0
VERTEX
  8
0
 62
7
  6
CONTINUOUS
 10
306.1884915411
 20
166.3253534578
  0
VERTEX
  8
0
 62
7
  6
CONTINUOUS
 10
306.3931596349
 20
166.6463100445
  0
VERTEX
  8
0
 62
7
  6
CONTINUOUS
 10
306.5352117662
 20
166.9038418135
  0
VERTEX
  8
0
 62
7
  6
CONTINUOUS
 10
306.6090490584
 20
167.0887142942
  0
SEQEND
  0
LINE
  8
0
 62
7
  6
CONTINUOUS
 10
278.8767088395
 20
167.6961562144
 11
307.3381349105
 21
167.6961562144
  0
LINE
  8
0
 62
7
  6
CONTINUOUS
 10
274.107421875
 20
168.0108988857
 11
278.107421875
 21
168.0108988857
  0
LINE
  8
0
 62
7
  6
CONTINUOUS
 10
308.107421875
 20
168.0108988857
 11
312.107421875
 21
168.0108988857
  0
POLYLINE
  8
0
 62
7
  6
CONTINUOUS
 66
1
 70
0
  0
VERTEX
  8
0
 62
7
  6
CONTINUOUS
 10
308.0155577922
 20
167.386674446
  0
VERTEX
  8
0
 62
7
  6
CONTINUOUS
 10
308.0665316776
 20
167.3665330241
  0
VERTEX
  8
0
 62
7
  6
CONTINUOUS
 10
308.0971950668
 20
167.3529207914
  0
VERTEX
  8
0
 62
7
  6
CONTINUOUS
 10
308.107421875
 20
167.3460405835
  0
SEQEND
  0
POLYLINE
  8
0
 62
7
  6
CONTINUOUS
 66
1
 70
0
  0
VERTEX
  8
0
 62
7
  6
CONTINUOUS
 10
306.6090490584
 20
156.9815981346
  0
VERTEX
  8
0
 62
7
  6
CONTINUOUS
 10
306.5352350591
 20
157.1664225528
  0
VERTEX
  8
0
 62
7
  6
CONTINUOUS
 10
306.3932383581
 20
157.4238715885
  0
VERTEX
  8
0
 62
7
  6
CONTINUOUS
 10
306.1885691024
 20
157.7448422627
  0
VERTEX
  8
0
 62
7
  6
CONTINUOUS
 10
305.921172841
 20
158.136862702
  0
VERTEX
  8
0
 62
7
  6
CONTINUOUS
 10
305.627421875
 20
158.557918778
  0
SEQEND
  0
POLYLINE
  8
0
 62
7
  6
CONTINUOUS
 66
1
 70
0
  0
VERTEX
  8
0
 62
7
  6
CONTINUOUS
 10
306.6090490584
 20
156.9815981346
  0
VERTEX
  8
0
 62
7
  6
CONTINUOUS
 10
306.6688292858
 20
156.8129862084
  0
VERTEX
  8
0
 62
7
  6
CONTINUOUS
 10
306.7345589265
 20
156.7050491957
  0
SEQEND
  0
POLYLINE
  8
0
 62
7
  6
CONTINUOUS
 66
1
 70
0
  0
VERTEX
  8
0
 62
7
  6
CONTINUOUS
 10
308.107421875
 20
199.3333558188
  0
VERTEX
  8
0
 62
7
  6
CONTINUOUS
 10
308.0971950668
 20
199.5549990687
  0
VERTEX
  8
0
 62
7
  6
CONTINUOUS
 10
308.0665316776
 20
199.7706524979
  0
VERTEX
  8
0
 62
7
  6
CONTINUOUS
 10
308.0155577922
 20
199.9794103483
  0
SEQEND
  0
LINE
  8
0
 62
7
  6
CONTINUOUS
 10
308.107421875
 20
103.7342569166
 11
308.107421875
 21
108.5680588598
  0
LINE
  8
0
 62
7
  6
CONTINUOUS
 10
308.107421875
 20
117.226231907
 11
308.107421875
 21
128.4536972701
  0
LINE
  8
0
 62
7
  6
CONTINUOUS
 10
308.107421875
 20
156.0594135431
 11
308.107421875
 21
168.0108988857
  0
LINE
  8
0
 62
7
  6
CONTINUOUS
 10
308.107421875
 20
195.6166151587
 11
308.107421875
 21
206.8440805218
  0
LINE
  8
0
 62
7
  6
CONTINUOUS
 10
308.107421875
 20
215.502253569
 11
308.107421875
 21
220.336060078
  0
POLYLINE
  8
0
 62
7
  6
CONTINUOUS
 66
1
 70
0
  0
VERTEX
  8
0
 62
7
  6
CONTINUOUS
 10
308.107421875
 20
156.7242718453
  0
VERTEX
  8
0
 62
7
  6
CONTINUOUS
 10
308.0971950668
 20
156.7173916375
  0
VERTEX
  8
0
 62
7
  6
CONTINUOUS
 10
308.0665316776
 20
156.7037794048
  0
VERTEX
  8
0
 62
7
  6
CONTINUOUS
 10
308.0155577922
 20
156.6836379829
  0
SEQEND
  0
POLYLINE
  8
0
 62
7
  6
CONTINUOUS
 66
1
 70
0
  0
VERTEX
  8
0
 62
7
  6
CONTINUOUS
 10
308.0155577922
 20
156.6836379829
  0
VERTEX
  8
0
 62
7
  6
CONTINUOUS
 10
307.9390442098
 20
156.6493018134
  0
VERTEX
  8
0
 62
7
  6
CONTINUOUS
 10
307.862550963
 20
156.6047292896
  0
VERTEX
  8
0
 62
7
  6
CONTINUOUS
 10
307.7861317279
 20
156.5499528735
  0
SEQEND
  0
POLYLINE
  8
0
 62
7
  6
CONTINUOUS
 66
1
 70
0
  0
VERTEX
  8
0
 62
7
  6
CONTINUOUS
 10
307.7861317279
 20
167.5203595554
  0
VERTEX
  8
0
 62
7
  6
CONTINUOUS
 10
307.4314513293
 20
167.6884876396
  0
VERTEX
  8
0
 62
7
  6
CONTINUOUS
 10
307.3381342604
 20
167.6961562144
  0
SEQEND
  0
POLYLINE
  8
0
 62
7
  6
CONTINUOUS
 66
1
 70
0
  0
VERTEX
  8
0
 62
7
  6
CONTINUOUS
 10
307.7861317279
 20
167.5203595554
  0
VERTEX
  8
0
 62
7
  6
CONTINUOUS
 10
307.8625504752
 20
167.4655834562
  0
VERTEX
  8
0
 62
7
  6
CONTINUOUS
 10
307.9390435025
 20
167.4210109802
  0
VERTEX
  8
0
 62
7
  6
CONTINUOUS
 10
308.0155577922
 20
167.386674446
  0
SEQEND
  0
POLYLINE
  8
0
 62
7
  6
CONTINUOUS
 66
1
 70
0
  0
VERTEX
  8
0
 62
7
  6
CONTINUOUS
 10
308.107421875
 20
220.0936603161
  0
VERTEX
  8
0
 62
7
  6
CONTINUOUS
 10
308.0971950668
 20
220.4139914141
  0
VERTEX
  8
0
 62
7
  6
CONTINUOUS
 10
308.0665316776
 20
220.732583651
  0
VERTEX
  8
0
 62
7
  6
CONTINUOUS
 10
308.0155577922
 20
221.0479532563
  0
SEQEND
  0
LINE
  8
0
 62
7
  6
CONTINUOUS
 10
313.107421875
 20
109.2351562144
 11
313.107421875
 21
214.8351562144
  0
LINE
  8
0
 62
7
  6
CONTINUOUS
 10
308.0971950668
 20
103.6563210148
 11
308.107421875
 21
103.9766521127
  0
POLYLINE
  8
0
 62
7
  6
CONTINUOUS
 66
1
 70
0
  0
VERTEX
  8
0
 62
7
  6
CONTINUOUS
 10
308.107421875
 20
117.226231907
  0
VERTEX
  8
0
 62
7
  6
CONTINUOUS
 10
308.0971950668
 20
116.9948585739
  0
VERTEX
  8
0
 62
7
  6
CONTINUOUS
 10
308.0665316776
 20
116.7599545406
  0
VERTEX
  8
0
 62
7
  6
CONTINUOUS
 10
308.0155577922
 20
116.5227124182
  0
SEQEND
  0
POLYLINE
  8
0
 62
7
  6
CONTINUOUS
 66
1
 70
0
  0
VERTEX
  8
0
 62
7
  6
CONTINUOUS
 10
313.107421875
 20
155.6937224271
  0
VERTEX
  8
0
 62
7
  6
CONTINUOUS
 10
313.0747929571
 20
155.7951837707
  0
VERTEX
  8
0
 62
7
  6
CONTINUOUS
 10
312.9823017738
 20
155.8823529947
  0
VERTEX
  8
0
 62
7
  6
CONTINUOUS
 10
312.8389123998
 20
155.9529846301
  0
VERTEX
  8
0
 62
7
  6
CONTINUOUS
 10
312.7523294693
 20
155.9814123332
  0
VERTEX
  8
0
 62
7
  6
CONTINUOUS
 10
312.5549191368
 20
156.0250380544
  0
VERTEX
  8
0
 62
7
  6
CONTINUOUS
 10
312.3368603843
 20
156.0508307724
  0
VERTEX
  8
0
 62
7
  6
CONTINUOUS
 10
312.107421875
 20
156.0594135431
  0
SEQEND
  0
POLYLINE
  8
0
 62
7
  6
CONTINUOUS
 66
1
 70
0
  0
VERTEX
  8
0
 62
7
  6
CONTINUOUS
 10
306.6090490584
 20
205.3418599838
  0
VERTEX
  8
0
 62
7
  6
CONTINUOUS
 10
306.6688292858
 20
204.9952504099
  0
VERTEX
  8
0
 62
7
  6
CONTINUOUS
 10
306.7345589265
 20
204.6729323333
  0
SEQEND
  0
LINE
  8
0
 62
7
  6
CONTINUOUS
 10
313.0747929571
 20
109.3500335608
 11
313.107421875
 21
109.6173518201
  0
POLYLINE
  8
0
 62
7
  6
CONTINUOUS
 66
1
 70
0
  0
VERTEX
  8
0
 62
7
  6
CONTINUOUS
 10
308.0155577922
 20
103.0223591726
  0
VERTEX
  8
0
 62
7
  6
CONTINUOUS
 10
308.0665316776
 20
103.3377287778
  0
VERTEX
  8
0
 62
7
  6
CONTINUOUS
 10
308.0971950668
 20
103.6563210148
  0
SEQEND
  0
POLYLINE
  8
0
 62
7
  6
CONTINUOUS
 66
1
 70
0
  0
VERTEX
  8
0
 62
7
  6
CONTINUOUS
 10
306.7345589265
 20
96.406127939
  0
VERTEX
  8
0
 62
7
  6
CONTINUOUS
 10
306.6688345743
 20
96.058266572
  0
VERTEX
  8
0
 62
7
  6
CONTINUOUS
 10
306.6090490584
 20
95.7366703223
  0
SEQEND
  0
POLYLINE
  8
0
 62
7
  6
CONTINUOUS
 66
1
 70
0
  0
VERTEX
  8
0
 62
7
  6
CONTINUOUS
 10
307.4314513293
 20
100.0324385696
  0
VERTEX
  8
0
 62
7
  6
CONTINUOUS
 10
307.0792905126
 20
98.2088363832
  0
VERTEX
  8
0
 62
7
  6
CONTINUOUS
 10
306.7345589265
 20
96.406127939
  0
SEQEND
  0
LINE
  8
0
 62
7
  6
CONTINUOUS
 10
306.6090490584
 20
95.544347219
 11
308.0155577922
 21
102.780207374
  0
LINE
  8
0
 62
7
  6
CONTINUOUS
 10
307.4314513293
 20
100.0324385696
 11
308.0155577922
 21
103.0223591726
  0
POLYLINE
  8
0
 62
7
  6
CONTINUOUS
 66
1
 70
0
  0
VERTEX
  8
0
 62
7
  6
CONTINUOUS
 10
306.7345589265
 20
119.3973800956
  0
VERTEX
  8
0
 62
7
  6
CONTINUOUS
 10
306.6688345743
 20
119.075090219
  0
VERTEX
  8
0
 62
7
  6
CONTINUOUS
 10
306.6090490584
 20
118.728452445
  0
SEQEND
  0
POLYLINE
  8
0
 62
7
  6
CONTINUOUS
 66
1
 70
0
  0
VERTEX
  8
0
 62
7
  6
CONTINUOUS
 10
308.0155577922
 20
124.0909020805
  0
VERTEX
  8
0
 62
7
  6
CONTINUOUS
 10
308.0665316776
 20
124.2996599309
  0
VERTEX
  8
0
 62
7
  6
CONTINUOUS
 10
308.0971950668
 20
124.5153133601
  0
VERTEX
  8
0
 62
7
  6
CONTINUOUS
 10
308.107421875
 20
124.7369566101
  0
SEQEND
  0
POLYLINE
  8
0
 62
7
  6
CONTINUOUS
 66
1
 70
0
  0
VERTEX
  8
0
 62
7
  6
CONTINUOUS
 10
308.0155577922
 20
116.5227124182
  0
VERTEX
  8
0
 62
7
  6
CONTINUOUS
 10
307.9390442098
 20
116.2211555038
  0
VERTEX
  8
0
 62
7
  6
CONTINUOUS
 10
307.862550963
 20
115.9130914092
  0
VERTEX
  8
0
 62
7
  6
CONTINUOUS
 10
307.7861317279
 20
115.5987403465
  0
SEQEND
  0
POLYLINE
  8
0
 62
7
  6
CONTINUOUS
 66
1
 70
0
  0
VERTEX
  8
0
 62
7
  6
CONTINUOUS
 10
307.7861317279
 20
123.3559893037
  0
VERTEX
  8
0
 62
7
  6
CONTINUOUS
 10
307.4314513293
 20
122.1901231028
  0
VERTEX
  8
0
 62
7
  6
CONTINUOUS
 10
307.0792905126
 20
120.8638277025
  0
VERTEX
  8
0
 62
7
  6
CONTINUOUS
 10
306.7345589265
 20
119.3973800956
  0
SEQEND
  0
POLYLINE
  8
0
 62
7
  6
CONTINUOUS
 66
1
 70
0
  0
VERTEX
  8
0
 62
7
  6
CONTINUOUS
 10
307.7861317279
 20
123.3559893037
  0
VERTEX
  8
0
 62
7
  6
CONTINUOUS
 10
307.8625504752
 20
123.5928732782
  0
VERTEX
  8
0
 62
7
  6
CONTINUOUS
 10
307.9390435025
 20
123.8379015405
  0
VERTEX
  8
0
 62
7
  6
CONTINUOUS
 10
308.0155577922
 20
124.0909020805
  0
SEQEND
  0
POLYLINE
  8
0
 62
7
  6
CONTINUOUS
 66
1
 70
0
  0
VERTEX
  8
0
 62
7
  6
CONTINUOUS
 10
308.0155577922
 20
199.9794103483
  0
VERTEX
  8
0
 62
7
  6
CONTINUOUS
 10
307.9390442098
 20
200.2324085862
  0
VERTEX
  8
0
 62
7
  6
CONTINUOUS
 10
307.862550963
 20
200.4774376131
  0
VERTEX
  8
0
 62
7
  6
CONTINUOUS
 10
307.7861317279
 20
200.7143231252
  0
SEQEND
  0
POLYLINE
  8
0
 62
7
  6
CONTINUOUS
 66
1
 70
0
  0
VERTEX
  8
0
 62
7
  6
CONTINUOUS
 10
307.7861317279
 20
208.4715720823
  0
VERTEX
  8
0
 62
7
  6
CONTINUOUS
 10
307.4314513293
 20
209.8752073001
  0
VERTEX
  8
0
 62
7
  6
CONTINUOUS
 10
307.0792905126
 20
211.1278748442
  0
VERTEX
  8
0
 62
7
  6
CONTINUOUS
 10
306.7345589265
 20
212.210841968
  0
SEQEND
  0
POLYLINE
  8
0
 62
7
  6
CONTINUOUS
 66
1
 70
0
  0
VERTEX
  8
0
 62
7
  6
CONTINUOUS
 10
306.6090490584
 20
205.3418599838
  0
VERTEX
  8
0
 62
7
  6
CONTINUOUS
 10
306.5352350591
 20
205.6443831711
  0
VERTEX
  8
0
 62
7
  6
CONTINUOUS
 10
306.3932383581
 20
205.9979396471
  0
VERTEX
  8
0
 62
7
  6
CONTINUOUS
 10
306.1885691024
 20
206.3708638052
  0
VERTEX
  8
0
 62
7
  6
CONTINUOUS
 10
305.921172841
 20
206.755782878
  0
VERTEX
  8
0
 62
7
  6
CONTINUOUS
 10
305.627421875
 20
207.1011022393
  0
SEQEND
  0
POLYLINE
  8
0
 62
7
  6
CONTINUOUS
 66
1
 70
0
  0
VERTEX
  8
0
 62
7
  6
CONTINUOUS
 10
307.7861317279
 20
208.4715720823
  0
VERTEX
  8
0
 62
7
  6
CONTINUOUS
 10
307.8625504752
 20
208.1572230055
  0
VERTEX
  8
0
 62
7
  6
CONTINUOUS
 10
307.9390435025
 20
207.8491597431
  0
VERTEX
  8
0
 62
7
  6
CONTINUOUS
 10
308.0155577922
 20
207.5476000107
  0
SEQEND
  0
POLYLINE
  8
0
 62
7
  6
CONTINUOUS
 66
1
 70
0
  0
VERTEX
  8
0
 62
7
  6
CONTINUOUS
 10
306.7345589265
 20
204.6729323333
  0
VERTEX
  8
0
 62
7
  6
CONTINUOUS
 10
307.0792497186
 20
203.2066482607
  0
VERTEX
  8
0
 62
7
  6
CONTINUOUS
 10
307.4313856223
 20
201.8804210233
  0
VERTEX
  8
0
 62
7
  6
CONTINUOUS
 10
307.7861317279
 20
200.7143231252
  0
SEQEND
  0
POLYLINE
  8
0
 62
7
  6
CONTINUOUS
 66
1
 70
0
  0
VERTEX
  8
0
 62
7
  6
CONTINUOUS
 10
308.0155577922
 20
207.5476000107
  0
VERTEX
  8
0
 62
7
  6
CONTINUOUS
 10
308.0665316776
 20
207.3103578882
  0
VERTEX
  8
0
 62
7
  6
CONTINUOUS
 10
308.0971950668
 20
207.075453855
  0
VERTEX
  8
0
 62
7
  6
CONTINUOUS
 10
308.107421875
 20
206.8440805218
  0
SEQEND
  0
LINE
  8
0
 62
7
  6
CONTINUOUS
 10
308.0155577922
 20
221.0479532563
 11
307.7861317279
 21
222.2209619818
  0
LINE
  8
0
 62
7
  6
CONTINUOUS
 10
306.6090490584
 20
228.5259652098
 11
308.0155577922
 21
221.2901050549
  0
POLYLINE
  8
0
 62
7
  6
CONTINUOUS
 66
1
 70
0
  0
VERTEX
  8
0
 62
7
  6
CONTINUOUS
 10
306.7345589265
 20
227.6641844898
  0
VERTEX
  8
0
 62
7
  6
CONTINUOUS
 10
307.0792497186
 20
225.8616883809
  0
VERTEX
  8
0
 62
7
  6
CONTINUOUS
 10
307.4313856223
 20
224.0382123116
  0
VERTEX
  8
0
 62
7
  6
CONTINUOUS
 10
307.7861317279
 20
222.2209619818
  0
SEQEND
  0
POLYLINE
  8
0
 62
7
  6
CONTINUOUS
 66
1
 70
0
  0
VERTEX
  8
0
 62
7
  6
CONTINUOUS
 10
306.6090490584
 20
228.3336421066
  0
VERTEX
  8
0
 62
7
  6
CONTINUOUS
 10
306.6688292858
 20
228.0120740726
  0
VERTEX
  8
0
 62
7
  6
CONTINUOUS
 10
306.7345589265
 20
227.6641844898
  0
SEQEND
  0
POLYLINE
  8
0
 62
7
  6
CONTINUOUS
 66
1
 70
0
  0
VERTEX
  8
0
 62
7
  6
CONTINUOUS
 10
313.107421875
 20
194.6160703231
  0
VERTEX
  8
0
 62
7
  6
CONTINUOUS
 10
313.0747929571
 20
194.8768368811
  0
VERTEX
  8
0
 62
7
  6
CONTINUOUS
 10
312.9823017738
 20
195.1101529912
  0
VERTEX
  8
0
 62
7
  6
CONTINUOUS
 10
312.8389123998
 20
195.306446522
  0
VERTEX
  8
0
 62
7
  6
CONTINUOUS
 10
312.7523294693
 20
195.3874917111
  0
VERTEX
  8
0
 62
7
  6
CONTINUOUS
 10
312.5549191368
 20
195.5143600579
  0
VERTEX
  8
0
 62
7
  6
CONTINUOUS
 10
312.3368603843
 20
195.5908862118
  0
VERTEX
  8
0
 62
7
  6
CONTINUOUS
 10
312.107421875
 20
195.6166151587
  0
SEQEND
  0
POLYLINE
  8
0
 62
7
  6
CONTINUOUS
 66
1
 70
0
  0
VERTEX
  8
0
 62
7
  6
CONTINUOUS
 10
313.107421875
 20
214.4529606087
  0
VERTEX
  8
0
 62
7
  6
CONTINUOUS
 10
313.0747929571
 20
214.720278868
  0
VERTEX
  8
0
 62
7
  6
CONTINUOUS
 10
312.9823017738
 20
214.9630684513
  0
VERTEX
  8
0
 62
7
  6
CONTINUOUS
 10
312.8389123998
 20
215.1700377894
  0
VERTEX
  8
0
 62
7
  6
CONTINUOUS
 10
312.7523294693
 20
215.2562252919
  0
VERTEX
  8
0
 62
7
  6
CONTINUOUS
 10
312.5549191368
 20
215.3920185074
  0
VERTEX
  8
0
 62
7
  6
CONTINUOUS
 10
312.3368603843
 20
215.474450114
  0
VERTEX
  8
0
 62
7
  6
CONTINUOUS
 10
312.107421875
 20
215.502253569
  0
SEQEND
  0
POLYLINE
  8
0
 62
7
  6
CONTINUOUS
 66
1
 70
0
  0
VERTEX
  8
0
 62
7
  6
CONTINUOUS
 10
313.107421875
 20
120.4861004388
  0
VERTEX
  8
0
 62
7
  6
CONTINUOUS
 10
313.0747929571
 20
120.3688218891
  0
VERTEX
  8
0
 62
7
  6
CONTINUOUS
 10
312.9823017738
 20
120.2587816777
  0
VERTEX
  8
0
 62
7
  6
CONTINUOUS
 10
312.8389123998
 20
120.1623763636
  0
VERTEX
  8
0
 62
7
  6
CONTINUOUS
 10
312.7523294693
 20
120.1215340177
  0
VERTEX
  8
0
 62
7
  6
CONTINUOUS
 10
312.5549191368
 20
120.0563617575
  0
VERTEX
  8
0
 62
7
  6
CONTINUOUS
 10
312.3368603843
 20
120.0163120153
  0
VERTEX
  8
0
 62
7
  6
CONTINUOUS
 10
312.107421875
 20
120.0027209391
  0
SEQEND
  0
POLYLINE
  8
0
 62
7
  6
CONTINUOUS
 66
1
 70
0
  0
VERTEX
  8
0
 62
7
  6
CONTINUOUS
 10
306.7345589265
 20
111.8594704608
  0
VERTEX
  8
0
 62
7
  6
CONTINUOUS
 10
307.0792497186
 20
112.9423008316
  0
VERTEX
  8
0
 62
7
  6
CONTINUOUS
 10
307.4313856223
 20
114.1948581821
  0
VERTEX
  8
0
 62
7
  6
CONTINUOUS
 10
307.7861317279
 20
115.5987403465
  0
SEQEND
  0
POLYLINE
  8
0
 62
7
  6
CONTINUOUS
 66
1
 70
0
  0
VERTEX
  8
0
 62
7
  6
CONTINUOUS
 10
280.587421875
 20
112.0516538473
  0
VERTEX
  8
0
 62
7
  6
CONTINUOUS
 10
280.292822401
 20
111.8008806607
  0
VERTEX
  8
0
 62
7
  6
CONTINUOUS
 10
280.0253421778
 20
111.6315481838
  0
VERTEX
  8
0
 62
7
  6
CONTINUOUS
 10
279.8206787858
 20
111.5508009715
  0
VERTEX
  8
0
 62
7
  6
CONTINUOUS
 10
279.7207468195
 20
111.537047677
  0
SEQEND
  0
LINE
  8
0
 62
7
  6
CONTINUOUS
 10
274.107421875
 20
195.6166151587
 11
278.107421875
 21
195.6166151587
  0
LINE
  8
0
 62
7
  6
CONTINUOUS
 10
308.107421875
 20
195.6166151587
 11
312.107421875
 21
195.6166151587
  0
POLYLINE
  8
0
 62
7
  6
CONTINUOUS
 66
1
 70
0
  0
VERTEX
  8
0
 62
7
  6
CONTINUOUS
 10
306.7345589265
 20
212.210841968
  0
VERTEX
  8
0
 62
7
  6
CONTINUOUS
 10
306.6688345743
 20
212.3805023544
  0
VERTEX
  8
0
 62
7
  6
CONTINUOUS
 10
306.6090490584
 20
212.4886703585
  0
SEQEND
  0
POLYLINE
  8
0
 62
7
  6
CONTINUOUS
 66
1
 70
0
  0
VERTEX
  8
0
 62
7
  6
CONTINUOUS
 10
306.6090490584
 20
228.3336421066
  0
VERTEX
  8
0
 62
7
  6
CONTINUOUS
 10
306.5352350591
 20
228.5766500828
  0
VERTEX
  8
0
 62
7
  6
CONTINUOUS
 10
306.3932383581
 20
228.8192054105
  0
VERTEX
  8
0
 62
7
  6
CONTINUOUS
 10
306.1885691024
 20
229.0256291385
  0
VERTEX
  8
0
 62
7
  6
CONTINUOUS
 10
305.921172841
 20
229.1779664723
  0
VERTEX
  8
0
 62
7
  6
CONTINUOUS
 10
305.627421875
 20
229.2452657204
  0
SEQEND
  0
POLYLINE
  8
0
 62
7
  6
CONTINUOUS
 66
1
 70
0
  0
VERTEX
  8
0
 62
7
  6
CONTINUOUS
 10
306.6090490584
 20
111.5816420703
  0
VERTEX
  8
0
 62
7
  6
CONTINUOUS
 10
306.6688292858
 20
111.6897983713
  0
VERTEX
  8
0
 62
7
  6
CONTINUOUS
 10
306.7345589265
 20
111.8594704608
  0
SEQEND
  0
POLYLINE
  8
0
 62
7
  6
CONTINUOUS
 66
1
 70
0
  0
VERTEX
  8
0
 62
7
  6
CONTINUOUS
 10
305.627421875
 20
116.9692101895
  0
VERTEX
  8
0
 62
7
  6
CONTINUOUS
 10
305.9210213595
 20
117.3143332933
  0
VERTEX
  8
0
 62
7
  6
CONTINUOUS
 10
306.1884915411
 20
117.6993235594
  0
VERTEX
  8
0
 62
7
  6
CONTINUOUS
 10
306.3931596349
 20
118.0722074676
  0
VERTEX
  8
0
 62
7
  6
CONTINUOUS
 10
306.5352117662
 20
118.4258570396
  0
VERTEX
  8
0
 62
7
  6
CONTINUOUS
 10
306.6090490584
 20
118.728452445
  0
SEQEND
  0
POLYLINE
  8
0
 62
7
  6
CONTINUOUS
 66
1
 70
0
  0
VERTEX
  8
0
 62
7
  6
CONTINUOUS
 10
274.107421875
 20
195.6166151587
  0
VERTEX
  8
0
 62
7
  6
CONTINUOUS
 10
273.8779087077
 20
195.5908692187
  0
VERTEX
  8
0
 62
7
  6
CONTINUOUS
 10
273.659947235
 20
195.5143710497
  0
VERTEX
  8
0
 62
7
  6
CONTINUOUS
 10
273.4625646577
 20
195.3875333863
  0
VERTEX
  8
0
 62
7
  6
CONTINUOUS
 10
273.3759991802
 20
195.3065182988
  0
VERTEX
  8
0
 62
7
  6
CONTINUOUS
 10
273.2325842029
 20
195.1102293546
  0
VERTEX
  8
0
 62
7
  6
CONTINUOUS
 10
273.1400952577
 20
194.8770098342
  0
VERTEX
  8
0
 62
7
  6
CONTINUOUS
 10
273.107421875
 20
194.6160703231
  0
SEQEND
  0
LINE
  8
0
 62
7
  6
CONTINUOUS
 10
274.107421875
 20
204.0675914897
 11
278.107421875
 21
204.0675914897
  0
LINE
  8
0
 62
7
  6
CONTINUOUS
 10
308.107421875
 20
204.0675914897
 11
312.107421875
 21
204.0675914897
  0
POLYLINE
  8
0
 62
7
  6
CONTINUOUS
 66
1
 70
0
  0
VERTEX
  8
0
 62
7
  6
CONTINUOUS
 10
312.107421875
 20
204.0675914897
  0
VERTEX
  8
0
 62
7
  6
CONTINUOUS
 10
312.3368603843
 20
204.0540004135
  0
VERTEX
  8
0
 62
7
  6
CONTINUOUS
 10
312.5549191368
 20
204.0139506713
  0
VERTEX
  8
0
 62
7
  6
CONTINUOUS
 10
312.7523294693
 20
203.9487784111
  0
VERTEX
  8
0
 62
7
  6
CONTINUOUS
 10
312.8389123998
 20
203.9079360652
  0
VERTEX
  8
0
 62
7
  6
CONTINUOUS
 10
312.9823017738
 20
203.8115307511
  0
VERTEX
  8
0
 62
7
  6
CONTINUOUS
 10
313.0747929571
 20
203.7014905397
  0
VERTEX
  8
0
 62
7
  6
CONTINUOUS
 10
313.107421875
 20
203.58421199
  0
SEQEND
  0
POLYLINE
  8
0
 62
7
  6
CONTINUOUS
 66
1
 70
0
  0
VERTEX
  8
0
 62
7
  6
CONTINUOUS
 10
306.6090490584
 20
111.5816420703
  0
VERTEX
  8
0
 62
7
  6
CONTINUOUS
 10
306.5352350591
 20
111.5405000819
  0
VERTEX
  8
0
 62
7
  6
CONTINUOUS
 10
306.4940986009
 20
111.537047677
  0
SEQEND
  0
LINE
  8
0
 62
7
  6
CONTINUOUS
 10
279.7207166168
 20
212.5332647519
 11
306.4941271332
 21
212.5332647519
  0
POLYLINE
  8
0
 62
7
  6
CONTINUOUS
 66
1
 70
0
  0
VERTEX
  8
0
 62
7
  6
CONTINUOUS
 10
306.4940980833
 20
212.5332647519
  0
VERTEX
  8
0
 62
7
  6
CONTINUOUS
 10
306.5352117662
 20
212.5298165945
  0
VERTEX
  8
0
 62
7
  6
CONTINUOUS
 10
306.6090490584
 20
212.4886703585
  0
SEQEND
  0
POLYLINE
  8
0
 62
7
  6
CONTINUOUS
 66
1
 70
0
  0
VERTEX
  8
0
 62
7
  6
CONTINUOUS
 10
279.7207463129
 20
212.5332647519
  0
VERTEX
  8
0
 62
7
  6
CONTINUOUS
 10
279.8206341598
 20
212.5195225215
  0
VERTEX
  8
0
 62
7
  6
CONTINUOUS
 10
280.0253092246
 20
212.4387812015
  0
VERTEX
  8
0
 62
7
  6
CONTINUOUS
 10
280.2927792812
 20
212.2694637353
  0
VERTEX
  8
0
 62
7
  6
CONTINUOUS
 10
280.587421875
 20
212.0186585815
  0
SEQEND
  0
POLYLINE
  8
0
 62
7
  6
CONTINUOUS
 66
1
 70
0
  0
VERTEX
  8
0
 62
7
  6
CONTINUOUS
 10
274.107421875
 20
215.502253569
  0
VERTEX
  8
0
 62
7
  6
CONTINUOUS
 10
273.8779087077
 20
215.4744317656
  0
VERTEX
  8
0
 62
7
  6
CONTINUOUS
 10
273.659947235
 20
215.392030319
  0
VERTEX
  8
0
 62
7
  6
CONTINUOUS
 10
273.4625646577
 20
215.2562697229
  0
VERTEX
  8
0
 62
7
  6
CONTINUOUS
 10
273.3759991802
 20
215.1701139291
  0
VERTEX
  8
0
 62
7
  6
CONTINUOUS
 10
273.2325842029
 20
214.9631484832
  0
VERTEX
  8
0
 62
7
  6
CONTINUOUS
 10
273.1400952577
 20
214.7204575693
  0
VERTEX
  8
0
 62
7
  6
CONTINUOUS
 10
273.107421875
 20
214.4529606087
  0
SEQEND
  0
LINE
  8
0
 62
7
  6
CONTINUOUS
 10
274.107421875
 20
215.502253569
 11
278.107421875
 21
215.502253569
  0
LINE
  8
0
 62
7
  6
CONTINUOUS
 10
308.107421875
 20
215.502253569
 11
312.107421875
 21
215.502253569
  0
LINE
  8
0
 62
7
  6
CONTINUOUS
 10
274.107421875
 20
215.8351562144
 11
278.107421875
 21
215.8351562144
  0
LINE
  8
0
 62
7
  6
CONTINUOUS
 10
308.107421875
 20
215.8351562144
 11
312.107421875
 21
215.8351562144
  0
POLYLINE
  8
0
 62
7
  6
CONTINUOUS
 66
1
 70
0
  0
VERTEX
  8
0
 62
7
  6
CONTINUOUS
 10
280.587421875
 20
229.2452657204
  0
VERTEX
  8
0
 62
7
  6
CONTINUOUS
 10
280.292822401
 20
229.17763387
  0
VERTEX
  8
0
 62
7
  6
CONTINUOUS
 10
280.0253421778
 20
229.0249050211
  0
VERTEX
  8
0
 62
7
  6
CONTINUOUS
 10
279.8206787858
 20
228.817991307
  0
VERTEX
  8
0
 62
7
  6
CONTINUOUS
 10
279.6786994683
 20
228.5745335065
  0
VERTEX
  8
0
 62
7
  6
CONTINUOUS
 10
279.6057946916
 20
228.3336421066
  0
SEQEND
  0
LINE
  8
0
 62
7
  6
CONTINUOUS
 10
280.587421875
 20
229.3351562144
 11
305.627421875
 21
229.3351562144
  0
LINE
  8
0
 62
2
  6
CONTINUOUS
 10
129.814453125
 20
163.0851562144
 11
129.814453125
 21
160.9851562144
  0
LINE
  8
DEFAULT_1
 62
2
  6
CENTER
 10
129.814453125
 20
156.7851562144
 11
129.814453125
 21
91.3174273144
  0
LINE
  8
DEFAULT_1
 62
2
  6
CENTER
 10
129.814453125
 20
167.2851562144
 11
129.814453125
 21
232.7528851144
  0
LINE
  8
0
 62
2
  6
CONTINUOUS
 10
130.864453125
 20
162.0351562144
 11
128.764453125
 21
162.0351562144
  0
LINE
  8
DEFAULT_1
 62
2
  6
CENTER
 10
124.564453125
 20
162.0351562144
 11
59.096724225
 21
162.0351562144
  0
LINE
  8
DEFAULT_1
 62
2
  6
CENTER
 10
135.064453125
 20
162.0351562144
 11
200.532182025
 21
162.0351562144
  0
ARC
  8
0
 62
7
  6
CONTINUOUS
 10
59.7416149309
 20
133.0100362805
 40
30.0
 50
9.5968984091
 51
35.4031015909
  0
ARC
  8
0
 62
7
  6
CONTINUOUS
 10
100.789333191
 20
91.9623180203
 40
30.0
 50
54.5968984091
 51
80.4031015909
  0
ARC
  8
0
 62
7
  6
CONTINUOUS
 10
67.3303823241
 20
152.5851562144
 40
15.111
 50
81.2518086435
 51
102.0124198389
  0
ARC
  8
0
 62
7
  6
CONTINUOUS
 10
78.9493838633
 20
124.5344051171
 40
15.111
 50
302.9875801611
 51
323.7481913565
  0
ARC
  8
0
 62
7
  6
CONTINUOUS
 10
92.3137020277
 20
111.1700869527
 40
15.111
 50
126.2518086435
 51
147.0124198389
  0
ARC
  8
0
 62
7
  6
CONTINUOUS
 10
120.364453125
 20
99.5510854135
 40
15.111
 50
347.9875801611
 51
8.7481913565
  0
ARC
  8
0
 62
7
  6
CONTINUOUS
 10
71.9191556896
 20
141.6651562144
 40
15.06
 50
35.4031015909
 51
98.7481913565
  0
ARC
  8
0
 62
7
  6
CONTINUOUS
 10
103.2800608424
 20
106.6932336662
 40
15.06
 50
80.4031015909
 51
143.7481913565
  0
ARC
  8
0
 62
7
  6
CONTINUOUS
 10
74.4725305768
 20
135.5007639318
 40
15.06
 50
306.2518086435
 51
9.5968984091
  0
ARC
  8
0
 62
7
  6
CONTINUOUS
 10
109.444453125
 20
104.139858779
 40
15.06
 50
351.2518086435
 51
54.5968984091
  0
ARC
  8
0
 62
7
  6
CONTINUOUS
 10
64.6016722819
 20
158.6612542144
 40
2.0
 50
182.9616609079
 51
257.9875801611
  0
ARC
  8
0
 62
7
  6
CONTINUOUS
 10
86.087762554
 20
113.5370476769
 40
2.0
 50
227.9616609079
 51
302.9875801611
  0
ARC
  8
0
 62
7
  6
CONTINUOUS
 10
81.3163445875
 20
118.3084656435
 40
2.0
 50
147.0124198389
 51
222.0383390921
  0
ARC
  8
0
 62
7
  6
CONTINUOUS
 10
126.440551125
 20
96.8223753713
 40
2.0
 50
192.0124198389
 51
267.0383390921
  0
ARC
  8
0
 62
7
  6
CONTINUOUS
 10
100.789333191
 20
232.1079944085
 40
30.0
 50
279.5968984091
 51
305.4031015909
  0
ARC
  8
0
 62
7
  6
CONTINUOUS
 10
59.7416149309
 20
191.0602761484
 40
30.0
 50
324.5968984091
 51
350.4031015909
  0
ARC
  8
0
 62
7
  6
CONTINUOUS
 10
120.364453125
 20
224.5192270153
 40
15.111
 50
351.2518086435
 51
12.0124198389
  0
ARC
  8
0
 62
7
  6
CONTINUOUS
 10
92.3137020277
 20
212.9002254761
 40
15.111
 50
212.9875801611
 51
233.7481913565
  0
ARC
  8
0
 62
7
  6
CONTINUOUS
 10
78.9493838633
 20
199.5359073117
 40
15.111
 50
36.2518086435
 51
57.0124198389
  0
ARC
  8
0
 62
7
  6
CONTINUOUS
 10
67.3303823241
 20
171.4851562144
 40
15.111
 50
257.9875801611
 51
278.7481913565
  0
ARC
  8
0
 62
7
  6
CONTINUOUS
 10
74.4725305768
 20
188.569548497
 40
15.06
 50
350.4031015909
 51
53.7481913565
  0
ARC
  8
0
 62
7
  6
CONTINUOUS
 10
103.2800608424
 20
217.3770787626
 40
15.06
 50
216.2518086435
 51
279.5968984091
  0
ARC
  8
0
 62
7
  6
CONTINUOUS
 10
109.444453125
 20
219.9304536498
 40
15.06
 50
305.4031015909
 51
8.7481913565
  0
ARC
  8
0
 62
7
  6
CONTINUOUS
 10
71.9191556896
 20
182.4051562144
 40
15.06
 50
261.2518086435
 51
324.5968984091
  0
ARC
  8
0
 62
7
  6
CONTINUOUS
 10
81.3163445875
 20
205.7618467854
 40
2.0
 50
137.9616609079
 51
212.9875801611
  0
ARC
  8
0
 62
7
  6
CONTINUOUS
 10
86.087762554
 20
210.5332647519
 40
2.0
 50
57.0124198389
 51
132.0383390921
  0
ARC
  8
0
 62
7
  6
CONTINUOUS
 10
126.440551125
 20
227.2479370575
 40
2.0
 50
92.9616609079
 51
167.9875801611
  0
ARC
  8
0
 62
7
  6
CONTINUOUS
 10
64.6016722819
 20
165.4090582144
 40
2.0
 50
102.0124198389
 51
177.0383390921
  0
ARC
  8
0
 62
7
  6
CONTINUOUS
 10
199.8872913191
 20
133.0100362805
 40
30.0
 50
144.5968984091
 51
170.4031015909
  0
ARC
  8
0
 62
7
  6
CONTINUOUS
 10
158.839573059
 20
91.9623180203
 40
30.0
 50
99.5968984091
 51
125.4031015909
  0
ARC
  8
0
 62
7
  6
CONTINUOUS
 10
139.264453125
 20
99.5510854135
 40
15.111
 50
171.2518086435
 51
192.0124198389
  0
ARC
  8
0
 62
7
  6
CONTINUOUS
 10
167.3152042223
 20
111.1700869527
 40
15.111
 50
32.9875801611
 51
53.7481913565
  0
ARC
  8
0
 62
7
  6
CONTINUOUS
 10
192.2985239259
 20
152.5851562144
 40
15.111
 50
77.9875801611
 51
98.7481913565
  0
ARC
  8
0
 62
7
  6
CONTINUOUS
 10
180.6795223867
 20
124.5344051171
 40
15.111
 50
216.2518086435
 51
237.0124198389
  0
ARC
  8
0
 62
7
  6
CONTINUOUS
 10
187.7097505604
 20
141.6651562144
 40
15.06
 50
81.2518086435
 51
144.5968984091
  0
ARC
  8
0
 62
7
  6
CONTINUOUS
 10
150.184453125
 20
104.139858779
 40
15.06
 50
125.4031015909
 51
188.7481913565
  0
ARC
  8
0
 62
7
  6
CONTINUOUS
 10
185.1563756732
 20
135.5007639318
 40
15.06
 50
170.4031015909
 51
233.7481913565
  0
ARC
  8
0
 62
7
  6
CONTINUOUS
 10
156.3488454076
 20
106.6932336662
 40
15.06
 50
36.2518086435
 51
99.5968984091
  0
ARC
  8
0
 62
7
  6
CONTINUOUS
 10
133.188355125
 20
96.8223753713
 40
2.0
 50
272.9616609079
 51
347.9875801611
  0
ARC
  8
0
 62
7
  6
CONTINUOUS
 10
195.0272339681
 20
158.6612542144
 40
2.0
 50
282.0124198389
 51
357.0383390921
  0
ARC
  8
0
 62
7
  6
CONTINUOUS
 10
178.3125616625
 20
118.3084656435
 40
2.0
 50
317.9616609079
 51
32.9875801611
  0
ARC
  8
0
 62
7
  6
CONTINUOUS
 10
173.541143696
 20
113.5370476769
 40
2.0
 50
237.0124198389
 51
312.0383390921
  0
ARC
  8
0
 62
7
  6
CONTINUOUS
 10
129.814453125
 20
162.0351562144
 40
67.3
 50
87.0383390921
 51
92.9616609079
  0
ARC
  8
0
 62
7
  6
CONTINUOUS
 10
129.814453125
 20
162.0351562144
 40
67.3
 50
132.0383390921
 51
137.9616609079
  0
ARC
  8
0
 62
7
  6
CONTINUOUS
 10
129.814453125
 20
162.0351562144
 40
67.3
 50
177.0383390921
 51
182.9616609079
  0
ARC
  8
0
 62
7
  6
CONTINUOUS
 10
129.814453125
 20
162.0351562144
 40
67.3
 50
222.0383390921
 51
227.9616609079
  0
ARC
  8
0
 62
7
  6
CONTINUOUS
 10
129.814453125
 20
162.0351562144
 40
67.3
 50
312.0383390921
 51
317.9616609079
  0
ARC
  8
0
 62
7
  6
CONTINUOUS
 10
129.814453125
 20
162.0351562144
 40
67.3
 50
357.0383390921
 51
2.9616609079
  0
ARC
  8
0
 62
7
  6
CONTINUOUS
 10
129.814453125
 20
162.0351562144
 40
67.3
 50
42.0383390921
 51
47.9616609079
  0
ARC
  8
0
 62
7
  6
CONTINUOUS
 10
129.814453125
 20
162.0351562144
 40
67.3
 50
267.0383390921
 51
272.9616609079
  0
ARC
  8
0
 62
7
  6
CONTINUOUS
 10
129.814453125
 20
162.0351562144
 40
53.8
 50
263.6228106329
 51
276.3771893671
  0
ARC
  8
0
 62
7
  6
CONTINUOUS
 10
129.814453125
 20
162.0351562144
 40
53.8
 50
83.6228106329
 51
96.3771893671
  0
ARC
  8
0
 62
7
  6
CONTINUOUS
 10
129.814453125
 20
162.0351562144
 40
53.8
 50
218.6228106329
 51
231.3771893671
  0
ARC
  8
0
 62
7
  6
CONTINUOUS
 10
129.814453125
 20
162.0351562144
 40
53.8
 50
173.6228106329
 51
186.3771893671
  0
ARC
  8
0
 62
7
  6
CONTINUOUS
 10
129.814453125
 20
162.0351562144
 40
53.8
 50
128.6228106329
 51
141.3771893671
  0
ARC
  8
0
 62
7
  6
CONTINUOUS
 10
129.814453125
 20
162.0351562144
 40
53.8
 50
38.6228106329
 51
51.3771893671
  0
ARC
  8
0
 62
7
  6
CONTINUOUS
 10
129.814453125
 20
162.0351562144
 40
53.8
 50
353.6228106329
 51
6.3771893671
  0
ARC
  8
0
 62
7
  6
CONTINUOUS
 10
129.814453125
 20
162.0351562144
 40
53.8
 50
308.6228106329
 51
321.3771893671
  0
ARC
  8
0
 62
7
  6
CONTINUOUS
 10
158.839573059
 20
232.1079944085
 40
30.0
 50
234.5968984091
 51
260.4031015909
  0
ARC
  8
0
 62
7
  6
CONTINUOUS
 10
139.264453125
 20
224.5192270153
 40
15.111
 50
167.9875801611
 51
188.7481913565
  0
ARC
  8
0
 62
7
  6
CONTINUOUS
 10
150.184453125
 20
219.9304536498
 40
15.06
 50
171.2518086435
 51
234.5968984091
  0
ARC
  8
0
 62
7
  6
CONTINUOUS
 10
156.3488454076
 20
217.3770787626
 40
15.06
 50
260.4031015909
 51
323.7481913565
  0
ARC
  8
0
 62
7
  6
CONTINUOUS
 10
133.188355125
 20
227.2479370575
 40
2.0
 50
12.0124198389
 51
87.0383390921
  0
ARC
  8
0
 62
7
  6
CONTINUOUS
 10
199.8872913191
 20
191.0602761484
 40
30.0
 50
189.5968984091
 51
215.4031015909
  0
ARC
  8
0
 62
7
  6
CONTINUOUS
 10
192.2985239259
 20
171.4851562144
 40
15.111
 50
261.2518086435
 51
282.0124198389
  0
ARC
  8
0
 62
7
  6
CONTINUOUS
 10
185.1563756732
 20
188.569548497
 40
15.06
 50
126.2518086435
 51
189.5968984091
  0
ARC
  8
0
 62
7
  6
CONTINUOUS
 10
187.7097505604
 20
182.4051562144
 40
15.06
 50
215.4031015909
 51
278.7481913565
  0
ARC
  8
0
 62
7
  6
CONTINUOUS
 10
195.0272339681
 20
165.4090582144
 40
2.0
 50
2.9616609079
 51
77.9875801611
  0
ARC
  8
0
 62
7
  6
CONTINUOUS
 10
167.3152042223
 20
212.9002254761
 40
15.111
 50
306.2518086435
 51
327.0124198389
  0
ARC
  8
0
 62
7
  6
CONTINUOUS
 10
180.6795223867
 20
199.5359073117
 40
15.111
 50
122.9875801611
 51
143.7481913565
  0
ARC
  8
0
 62
7
  6
CONTINUOUS
 10
178.3125616625
 20
205.7618467854
 40
2.0
 50
327.0124198389
 51
42.0383390921
  0
ARC
  8
0
 62
7
  6
CONTINUOUS
 10
173.541143696
 20
210.5332647519
 40
2.0
 50
47.9616609079
 51
122.9875801611
  0
ARC
  8
0
 62
7
  6
CONTINUOUS
 10
303.107421875
 20
220.336060078
 40
5.0
 50
0.0
 51
11.0
  0
ARC
  8
0
 62
7
  6
CONTINUOUS
 10
303.107421875
 20
103.7342523508
 40
5.0
 50
349.0
 51
360.0
  0
ARC
  8
0
 62
7
  6
CONTINUOUS
 10
283.107421875
 20
220.336060078
 40
5.0
 50
169.0
 51
180.0
  0
ARC
  8
0
 62
7
  6
CONTINUOUS
 10
283.107421875
 20
103.7342523508
 40
5.0
 50
180.0
 51
191.0
  0
ARC
  8
0
 62
7
  6
CONTINUOUS
 10
312.107421875
 20
214.8351562144
 40
1.0
 50
0.0
 51
90.0
  0
ARC
  8
0
 62
7
  6
CONTINUOUS
 10
312.107421875
 20
109.2351562144
 40
1.0
 50
270.0
 51
360.0
  0
ARC
  8
0
 62
7
  6
CONTINUOUS
 10
305.627421875
 20
228.3351562144
 40
1.0
 50
11.0
 51
90.0
  0
ARC
  8
0
 62
7
  6
CONTINUOUS
 10
305.627421875
 20
95.7351562144
 40
1.0
 50
270.0
 51
349.0
  0
ARC
  8
0
 62
7
  6
CONTINUOUS
 10
280.587421875
 20
228.3351562144
 40
1.0
 50
90.0
 51
169.0
  0
ARC
  8
0
 62
7
  6
CONTINUOUS
 10
280.587421875
 20
95.7351562144
 40
1.0
 50
191.0
 51
270.0
  0
ARC
  8
0
 62
7
  6
CONTINUOUS
 10
274.107421875
 20
214.8351562144
 40
1.0
 50
90.0
 51
180.0
  0
ARC
  8
0
 62
7
  6
CONTINUOUS
 10
274.107421875
 20
109.2351562144
 40
1.0
 50
180.0
 51
270.0
  0
ENDSEC
  0
EOF
