  0
SECTION
  2
HEADER
  9
$EXTMAX
 10
594.0
 20
420.0
 30
0.0
  9
$EXTMIN
 10
0.0
 20
0.0
 30
0.0
  9
$LIMMIN
 10
0.0
 20
0.0
  9
$LIMMAX
 10
594.0
 20
420.0
  9
$VIEWCTR
 10
297.0
 20
210.0
  9
$VIEWSIZE
 40
420.0
  9
$CLAYER
  8
0
  9
$LTSCALE
 40
32.67
  9
$CELTYPE
  6
BYLAYER
  9
$DIMSCALE
 40
1.0
  9
$DIMASZ
 40
3.5
  9
$DIMEXO
 40
3.7125
  9
$DIMDLI
 40
22.572
  9
$DIMEXE
 40
10.692
  9
$DIMCEN
 40
5.346
  9
$DIMLFAC
 40
1.0
  9
$DIMBLK
  1
_FILLED
  9
$DIMTXT
 40
3.5
  9
$PDMODE
 70
3
  9
$PDSIZE
 40
0.3125
  9
$TILEMODE
 70
1
  0
ENDSEC
  0
SECTION
  2
TABLES
  0
TABLE
  2
LTYPE
 70
6
  0
LTYPE
  2
BYBLOCK
 70
0
  3

 72
65
 73
0
 40
0.0
  0
LTYPE
  2
BYLAYER
 70
0
  3

 72
65
 73
0
 40
0.0
  0
LTYPE
  2
CONTINUOUS
 70
64
  3
Solid line
 72
65
 73
0
 40
0.0
  0
LTYPE
  2
CENTER
 70
64
  3
____ _ ____ _ ____ _ ____ _ ____ _ ____ _ ____
 72
65
 73
4
 40
0.6
 49
0.375
 49
-0.075
 49
0.075
 49
-0.075
  0
LTYPE
  2
HIDDEN
 70
64
  3
- - - - - - - - - - - - - - - - - - - -
 72
65
 73
2
 40
0.2
 49
0.1
 49
-0.1
  0
LTYPE
  2
PHANTOM
 70
64
  3
_____ _ _ _____ _ _ _____ _ _ _____
 72
65
 73
6
 40
0.8
 49
0.45
 49
-0.05
 49
0.1
 49
-0.05
 49
0.1
 49
-0.05
  0
LTYPE
  2
DOT
 70
64
  3
. . . . . . . . . . . . . . . . . . . .
 72
65
 73
2
 40
0.2
 49
0.1
 49
-0.1
  0
LTYPE
  2
DASHED
 70
64
  3
- - - - - - - - - - - - - - - - - - - -
 72
65
 73
2
 40
0.2
 49
0.1
 49
-0.1
  0
ENDTAB
  0
TABLE
  2
LAYER
 70
36
  0
LAYER
  2
0
 70
0
 62
7
  6
CONTINUOUS
  0
LAYER
  2
DEFAULT_1
 70
0
 62
7
  6
CENTER
  0
LAYER
  2
DEFAULT_2
 70
0
 62
8
  6
HIDDEN
  0
LAYER
  2
DEFAULT_3
 70
0
 62
7
  6
PHANTOM
  0
LAYER
  2
CURVE
 70
0
 62
7
  6
CONTINUOUS
  0
LAYER
  2
SURFACE
 70
0
 62
7
  6
CONTINUOUS
  0
LAYER
  2
XSEC_DATUMS
 70
0
 62
7
  6
CONTINUOUS
  0
ENDTAB
  0
TABLE
  2
STYLE
 70
1
  0
STYLE
  2
STANDARD
 70
0
 40
0.0
 41
0.8
 50
0.0
 71
0
 42
0.2
  3
txt
  4

  0
STYLE
  2
TEXTSTYLE_1
 70
0
 40
0.0
 41
0.8
 50
0.0
 71
0
 42
0.2
  3
gdt
  4

  0
STYLE
  2
TEXTSTYLE_2
 70
0
 40
0.0
 41
0.6
 50
0.0
 71
0
 42
0.2
  3
txt
  4

  0
STYLE
  2
TEXTSTYLE_3
 70
0
 40
0.0
 41
1.0
 50
0.0
 71
0
 42
0.2
  3
ftb_____.ttf
  4

  0
STYLE
  2
TEXTSTYLE_4
 70
0
 40
0.0
 41
1.0
 50
0.0
 71
0
 42
0.2
  3
fti_____.ttf
  4

  0
STYLE
  2
TEXTSTYLE_5
 70
0
 40
0.0
 41
1.0
 50
0.0
 71
0
 42
0.2
  3
frutiger light.ttf
  4

  0
STYLE
  2
TEXTSTYLE_6
 70
0
 40
0.0
 41
0.7
 50
0.0
 71
0
 42
0.2
  3
txt
  4

  0
STYLE
  2
TEXTSTYLE_7
 70
0
 40
0.0
 41
0.6
 50
0.0
 71
0
 42
0.2
  3
txt
  4

  0
ENDTAB
  0
ENDSEC
  0
SECTION
  2
BLOCKS
  0
BLOCK
  8
0
 62
2
  6
CONTINUOUS
  2
SYMBOL_3_BL1
 70
64
 10
557.4079930916
 20
35.8092573885
  0
TEXT
  8
0
 62
7
  6
CONTINUOUS
 10
548.4662781001
 20
30.9020137655
  7
TEXTSTYLE_4
 40
1.0655737705
  1
The brand for plastic modular belts and chains
 41
1.0
 72
0
  0
LINE
  8
0
 62
7
  6
CONTINUOUS
 10
533.3860614807
 20
36.3830278803
 11
533.3860614807
 21
34.2518803393
  0
LINE
  8
0
 62
7
  6
CONTINUOUS
 10
533.6751239738
 20
31.2609490436
 11
533.6751239738
 21
31.3577401029
  0
LINE
  8
0
 62
7
  6
CONTINUOUS
 10
533.3860614807
 20
31.3254764164
 11
533.4438739824
 21
31.1318942979
  0
LINE
  8
0
 62
7
  6
CONTINUOUS
 10
534.7795041036
 20
34.1699131262
 11
534.7795041036
 21
36.3830278803
  0
LINE
  8
0
 62
7
  6
CONTINUOUS
 10
535.6985614255
 20
32.3256508311
 11
535.6985614255
 21
30.8092573885
  0
LINE
  8
0
 62
7
  6
CONTINUOUS
 10
535.9876239807
 20
30.8092573885
 11
535.9876239807
 21
31.5513222666
  0
LINE
  8
0
 62
7
  6
CONTINUOUS
 10
535.9876239807
 20
31.6803770123
 11
535.9876239807
 21
32.3256508311
  0
LINE
  8
0
 62
7
  6
CONTINUOUS
 10
533.4438739824
 20
31.5190585802
 11
533.3860614807
 21
31.3254764164
  0
LINE
  8
0
 62
7
  6
CONTINUOUS
 10
533.7907489669
 20
31.0996306115
 11
533.6751239738
 21
31.2609490436
  0
LINE
  8
0
 62
7
  6
CONTINUOUS
 10
534.8891865358
 20
31.6158496394
 11
534.9469989807
 21
31.5190585802
  0
LINE
  8
0
 62
7
  6
CONTINUOUS
 10
535.2360615358
 20
31.5190585802
 11
535.1782489255
 21
31.6481133259
  0
LINE
  8
0
 62
7
  6
CONTINUOUS
 10
536.6647500053
 20
36.3830278803
 11
536.6647500053
 21
34.5797491918
  0
LINE
  8
0
 62
7
  6
CONTINUOUS
 10
536.6647500053
 20
33.2682737819
 11
536.6647500053
 21
32.612536077
  0
LINE
  8
0
 62
7
  6
CONTINUOUS
 10
537.0282489807
 20
31.4545312073
 11
537.0282489807
 21
30.8092573885
  0
LINE
  8
0
 62
7
  6
CONTINUOUS
 10
537.3173113704
 20
30.8092573885
 11
537.3173113704
 21
31.4545312073
  0
LINE
  8
0
 62
7
  6
CONTINUOUS
 10
533.6751239738
 20
31.3577401029
 11
533.7329364807
 21
31.4867948937
  0
LINE
  8
0
 62
7
  6
CONTINUOUS
 10
533.4438739824
 20
31.1318942979
 11
533.5594989807
 21
31.0028395296
  0
LINE
  8
0
 62
7
  6
CONTINUOUS
 10
536.9704363704
 20
31.583585953
 11
537.0282489807
 21
31.4545312073
  0
LINE
  8
0
 62
7
  6
CONTINUOUS
 10
537.7798115909
 20
31.0996306115
 11
537.8376238704
 21
30.9705758432
  0
LINE
  8
0
 62
7
  6
CONTINUOUS
 10
537.3173113704
 20
31.4545312073
 11
537.2594990909
 21
31.6158496394
  0
LINE
  8
0
 62
7
  6
CONTINUOUS
 10
537.7798115909
 20
31.6481133259
 11
537.7798115909
 21
31.583585953
  0
LINE
  8
0
 62
7
  6
CONTINUOUS
 10
537.7798115909
 20
31.1964216708
 11
537.7798115909
 21
31.0996306115
  0
LINE
  8
0
 62
7
  6
CONTINUOUS
 10
538.0581926282
 20
32.612536077
 11
538.0581926282
 21
36.3830278803
  0
LINE
  8
0
 62
7
  6
CONTINUOUS
 10
538.0688739807
 20
31.0673669025
 11
538.0688739807
 21
31.1318942979
  0
LINE
  8
0
 62
7
  6
CONTINUOUS
 10
538.3860614807
 20
36.3830278803
 11
538.3860614807
 21
32.612536077
  0
LINE
  8
0
 62
7
  6
CONTINUOUS
 10
535.1782489255
 20
31.0028395296
 11
535.2360615358
 21
31.1318942979
  0
LINE
  8
0
 62
7
  6
CONTINUOUS
 10
539.5719992012
 20
30.9060484591
 11
539.5141862601
 21
31.0673669025
  0
LINE
  8
0
 62
7
  6
CONTINUOUS
 10
539.2251242012
 20
31.583585953
 11
539.2251242012
 21
31.4867948937
  0
LINE
  8
0
 62
7
  6
CONTINUOUS
 10
539.2251242012
 20
31.3577401029
 11
539.2251242012
 21
31.1641579843
  0
LINE
  8
0
 62
7
  6
CONTINUOUS
 10
539.5141862601
 20
31.0673669025
 11
539.5141862601
 21
31.583585953
  0
LINE
  8
0
 62
7
  6
CONTINUOUS
 10
539.7795041036
 20
32.612536077
 11
539.7795041036
 21
34.4158147655
  0
LINE
  8
0
 62
7
  6
CONTINUOUS
 10
539.7795041036
 20
35.7272901754
 11
539.7795041036
 21
36.3830278803
  0
LINE
  8
0
 62
7
  6
CONTINUOUS
 10
540.0923117012
 20
32.3256508311
 11
540.0923117012
 21
32.164332399
  0
LINE
  8
0
 62
7
  6
CONTINUOUS
 10
540.0923117012
 20
31.8416954444
 11
540.0923117012
 21
30.8092573885
  0
LINE
  8
0
 62
7
  6
CONTINUOUS
 10
540.3813737601
 20
30.8092573885
 11
540.3813737601
 21
31.8416954444
  0
LINE
  8
0
 62
7
  6
CONTINUOUS
 10
540.3813737601
 20
32.164332399
 11
540.3813737601
 21
32.3256508311
  0
LINE
  8
0
 62
7
  6
CONTINUOUS
 10
534.9469989807
 20
31.1318942979
 11
534.8891865358
 21
31.035103216
  0
LINE
  8
0
 62
7
  6
CONTINUOUS
 10
537.2594990909
 20
31.6158496394
 11
537.2016864807
 21
31.6803770123
  0
LINE
  8
0
 62
7
  6
CONTINUOUS
 10
538.1266865909
 20
31.0028395296
 11
538.0688739807
 21
31.0673669025
  0
LINE
  8
0
 62
7
  6
CONTINUOUS
 10
539.2829364807
 20
30.873784767
 11
539.3407487601
 21
30.8092573885
  0
LINE
  8
0
 62
7
  6
CONTINUOUS
 10
539.2251242012
 20
30.9705758432
 11
539.2829364807
 21
30.873784767
  0
LINE
  8
0
 62
7
  6
CONTINUOUS
 10
539.6298114807
 20
30.8092573885
 11
539.5719992012
 21
30.9060484591
  0
LINE
  8
0
 62
7
  6
CONTINUOUS
 10
539.5141862601
 20
31.583585953
 11
539.4563739807
 21
31.6803770123
  0
LINE
  8
0
 62
7
  6
CONTINUOUS
 10
540.8438739807
 20
31.8416954444
 11
540.8438739807
 21
30.8092573885
  0
LINE
  8
0
 62
7
  6
CONTINUOUS
 10
541.1329367012
 20
30.8092573885
 11
541.1329367012
 21
31.5513222666
  0
LINE
  8
0
 62
7
  6
CONTINUOUS
 10
541.1329367012
 20
31.6803770123
 11
541.1329367012
 21
31.8416954444
  0
LINE
  8
0
 62
7
  6
CONTINUOUS
 10
541.6647500053
 20
34.8256508311
 11
541.6647500053
 21
32.612536077
  0
LINE
  8
0
 62
7
  6
CONTINUOUS
 10
533.5594989807
 20
31.6481133259
 11
533.4438739824
 21
31.5190585802
  0
LINE
  8
0
 62
7
  6
CONTINUOUS
 10
533.7329364807
 20
31.4867948937
 11
533.7907489669
 21
31.5513222666
  0
LINE
  8
0
 62
7
  6
CONTINUOUS
 10
533.5594989807
 20
31.0028395296
 11
533.6751239738
 21
30.9383121455
  0
LINE
  8
0
 62
7
  6
CONTINUOUS
 10
533.9641864669
 20
31.0028395296
 11
533.7907489669
 21
31.0996306115
  0
LINE
  8
0
 62
7
  6
CONTINUOUS
 10
539.1673112601
 20
31.6481133259
 11
539.2251242012
 21
31.583585953
  0
LINE
  8
0
 62
7
  6
CONTINUOUS
 10
542.1157487601
 20
31.583585953
 11
542.1735617012
 21
31.4222675209
  0
LINE
  8
0
 62
7
  6
CONTINUOUS
 10
542.4626237601
 20
31.4222675209
 11
542.4048114807
 21
31.583585953
  0
LINE
  8
0
 62
7
  6
CONTINUOUS
 10
542.1735617012
 20
31.4222675209
 11
542.1735617012
 21
30.8092573885
  0
LINE
  8
0
 62
7
  6
CONTINUOUS
 10
542.4626237601
 20
30.8092573885
 11
542.4626237601
 21
31.4222675209
  0
LINE
  8
0
 62
7
  6
CONTINUOUS
 10
542.9251239807
 20
31.6481133259
 11
542.9251239807
 21
31.583585953
  0
LINE
  8
0
 62
7
  6
CONTINUOUS
 10
543.0581926282
 20
32.612536077
 11
543.0581926282
 21
34.743683618
  0
LINE
  8
0
 62
7
  6
CONTINUOUS
 10
543.3860614807
 20
36.3830278803
 11
543.3860614807
 21
32.612536077
  0
LINE
  8
0
 62
7
  6
CONTINUOUS
 10
538.0688739807
 20
31.1318942979
 11
538.1266865909
 21
31.2286853572
  0
LINE
  8
0
 62
7
  6
CONTINUOUS
 10
533.6751239738
 20
30.9383121455
 11
533.8485614944
 21
30.873784767
  0
LINE
  8
0
 62
7
  6
CONTINUOUS
 10
535.1782489255
 20
31.6481133259
 11
535.0048114255
 21
31.7449043851
  0
LINE
  8
0
 62
7
  6
CONTINUOUS
 10
537.8376238704
 20
30.9705758432
 11
538.0110613704
 21
30.873784767
  0
LINE
  8
0
 62
7
  6
CONTINUOUS
 10
536.8548114807
 20
31.6481133259
 11
536.9704363704
 21
31.583585953
  0
LINE
  8
0
 62
7
  6
CONTINUOUS
 10
537.2016864807
 20
31.6803770123
 11
537.0860615909
 21
31.7449043851
  0
LINE
  8
0
 62
7
  6
CONTINUOUS
 10
542.9251239807
 20
31.0673669025
 11
543.0407492012
 21
30.9383121455
  0
LINE
  8
0
 62
7
  6
CONTINUOUS
 10
543.2719989807
 20
31.0028395296
 11
543.2141867012
 21
31.0673669025
  0
LINE
  8
0
 62
7
  6
CONTINUOUS
 10
542.9251239807
 20
31.583585953
 11
543.0407492012
 21
31.4545312073
  0
LINE
  8
0
 62
7
  6
CONTINUOUS
 10
542.4048114807
 20
31.583585953
 11
542.3469992012
 21
31.6803770123
  0
LINE
  8
0
 62
7
  6
CONTINUOUS
 10
544.7751235396
 20
31.0028395296
 11
544.7751235396
 21
31.0673669025
  0
LINE
  8
0
 62
7
  6
CONTINUOUS
 10
544.7795041036
 20
32.612536077
 11
544.7795041036
 21
36.3830278803
  0
LINE
  8
0
 62
7
  6
CONTINUOUS
 10
537.8376238704
 20
31.7126406987
 11
537.7798115909
 21
31.6481133259
  0
LINE
  8
0
 62
7
  6
CONTINUOUS
 10
534.7157489531
 20
31.6803770123
 11
534.8891865358
 21
31.6158496394
  0
LINE
  8
0
 62
7
  6
CONTINUOUS
 10
539.4563739807
 20
31.6803770123
 11
539.3407487601
 21
31.7449043851
  0
LINE
  8
0
 62
7
  6
CONTINUOUS
 10
543.2719989807
 20
31.5190585802
 11
543.2141867012
 21
31.583585953
  0
LINE
  8
0
 62
7
  6
CONTINUOUS
 10
544.4282492012
 20
31.1318942979
 11
544.4860614807
 21
31.0673669025
  0
LINE
  8
0
 62
7
  6
CONTINUOUS
 10
544.7751235396
 20
31.0673669025
 11
544.6594989807
 21
31.1964216708
  0
LINE
  8
0
 62
7
  6
CONTINUOUS
 10
544.4282492012
 20
31.6481133259
 11
544.4860614807
 21
31.583585953
  0
LINE
  8
0
 62
7
  6
CONTINUOUS
 10
544.7751235396
 20
31.583585953
 11
544.6594989807
 21
31.7126406987
  0
LINE
  8
0
 62
7
  6
CONTINUOUS
 10
538.0688739807
 20
31.583585953
 11
538.1266865909
 21
31.6481133259
  0
LINE
  8
0
 62
7
  6
CONTINUOUS
 10
537.8954364807
 20
31.3254764164
 11
537.7798115909
 21
31.1964216708
  0
LINE
  8
0
 62
7
  6
CONTINUOUS
 10
539.2251242012
 20
31.1641579843
 11
539.1673112601
 21
31.0996306115
  0
LINE
  8
0
 62
7
  6
CONTINUOUS
 10
539.1673112601
 20
30.9060484591
 11
539.2251242012
 21
30.9705758432
  0
LINE
  8
0
 62
7
  6
CONTINUOUS
 10
538.0110613704
 20
30.873784767
 11
538.1266865909
 21
30.8415210777
  0
LINE
  8
0
 62
7
  6
CONTINUOUS
 10
535.0048114255
 20
31.7449043851
 11
534.7735614807
 21
31.809431758
  0
LINE
  8
0
 62
7
  6
CONTINUOUS
 10
538.3579363704
 20
30.9383121455
 11
538.1266865909
 21
31.0028395296
  0
LINE
  8
0
 62
7
  6
CONTINUOUS
 10
537.0860615909
 20
31.7449043851
 11
536.9126240909
 21
31.809431758
  0
LINE
  8
0
 62
7
  6
CONTINUOUS
 10
539.3407487601
 20
31.7449043851
 11
539.1673112601
 21
31.809431758
  0
LINE
  8
0
 62
7
  6
CONTINUOUS
 10
542.0001242012
 20
31.6481133259
 11
542.1157487601
 21
31.583585953
  0
LINE
  8
0
 62
7
  6
CONTINUOUS
 10
542.3469992012
 20
31.6803770123
 11
542.2313739807
 21
31.7449043851
  0
LINE
  8
0
 62
7
  6
CONTINUOUS
 10
533.8485614944
 20
30.873784767
 11
534.0219989944
 21
30.8415210777
  0
LINE
  8
0
 62
7
  6
CONTINUOUS
 10
534.3110615082
 20
30.9383121455
 11
533.9641864669
 21
31.0028395296
  0
LINE
  8
0
 62
7
  6
CONTINUOUS
 10
536.7391865909
 20
31.6803770123
 11
536.8548114807
 21
31.6481133259
  0
LINE
  8
0
 62
7
  6
CONTINUOUS
 10
539.0516867012
 20
31.6803770123
 11
539.1673112601
 21
31.6481133259
  0
LINE
  8
0
 62
7
  6
CONTINUOUS
 10
543.3876242012
 20
30.9705758432
 11
543.2719989807
 21
31.0028395296
  0
LINE
  8
0
 62
7
  6
CONTINUOUS
 10
541.8844989807
 20
31.6803770123
 11
542.0001242012
 21
31.6481133259
  0
LINE
  8
0
 62
7
  6
CONTINUOUS
 10
543.0407492012
 20
30.9383121455
 11
543.2141867012
 21
30.873784767
  0
LINE
  8
0
 62
7
  6
CONTINUOUS
 10
542.2313739807
 20
31.7449043851
 11
542.0579364807
 21
31.809431758
  0
LINE
  8
0
 62
7
  6
CONTINUOUS
 10
543.4454364807
 20
31.4545312073
 11
543.2719989807
 21
31.5190585802
  0
LINE
  8
0
 62
7
  6
CONTINUOUS
 10
544.2548117012
 20
31.1964216708
 11
544.4282492012
 21
31.1318942979
  0
LINE
  8
0
 62
7
  6
CONTINUOUS
 10
544.6594989807
 20
31.7126406987
 11
544.4860614807
 21
31.7771680715
  0
LINE
  8
0
 62
7
  6
CONTINUOUS
 10
543.0407492012
 20
31.4545312073
 11
543.2719989807
 21
31.3577401029
  0
LINE
  8
0
 62
7
  6
CONTINUOUS
 10
544.6594989807
 20
31.1964216708
 11
544.4282492012
 21
31.29321273
  0
LINE
  8
0
 62
7
  6
CONTINUOUS
 10
543.2141867012
 20
31.583585953
 11
543.2719989807
 21
31.6481133259
  0
LINE
  8
0
 62
7
  6
CONTINUOUS
 10
533.6751239738
 20
31.7126406987
 11
533.5594989807
 21
31.6481133259
  0
LINE
  8
0
 62
7
  6
CONTINUOUS
 10
533.7907489669
 20
31.5513222666
 11
533.9641864669
 21
31.6481133259
  0
LINE
  8
0
 62
7
  6
CONTINUOUS
 10
536.1032490358
 20
31.7449043851
 11
535.9876239807
 21
31.6803770123
  0
LINE
  8
0
 62
7
  6
CONTINUOUS
 10
535.9876239807
 20
31.5513222666
 11
536.1032490358
 21
31.6158496394
  0
LINE
  8
0
 62
7
  6
CONTINUOUS
 10
535.0048114255
 20
30.9060484591
 11
535.1782489255
 21
31.0028395296
  0
LINE
  8
0
 62
7
  6
CONTINUOUS
 10
534.0219989944
 20
30.8415210777
 11
534.3688739531
 21
30.8092573885
  0
LINE
  8
0
 62
7
  6
CONTINUOUS
 10
538.1266865909
 20
30.8415210777
 11
538.3579363704
 21
30.8092573885
  0
LINE
  8
0
 62
7
  6
CONTINUOUS
 10
536.5079364807
 20
31.7126406987
 11
536.7391865909
 21
31.6803770123
  0
LINE
  8
0
 62
7
  6
CONTINUOUS
 10
538.8204365909
 20
31.7126406987
 11
539.0516867012
 21
31.6803770123
  0
LINE
  8
0
 62
7
  6
CONTINUOUS
 10
543.2719989807
 20
31.3577401029
 11
544.2548117012
 21
31.1964216708
  0
LINE
  8
0
 62
7
  6
CONTINUOUS
 10
544.4282492012
 20
31.29321273
 11
543.4454364807
 21
31.4545312073
  0
LINE
  8
0
 62
7
  6
CONTINUOUS
 10
536.9126240909
 20
31.809431758
 11
536.7391865909
 21
31.8416954444
  0
LINE
  8
0
 62
7
  6
CONTINUOUS
 10
543.2141867012
 20
30.873784767
 11
543.3876242012
 21
30.8415210777
  0
LINE
  8
0
 62
7
  6
CONTINUOUS
 10
542.0579364807
 20
31.809431758
 11
541.8844989807
 21
31.8416954444
  0
LINE
  8
0
 62
7
  6
CONTINUOUS
 10
544.3126239807
 20
31.6803770123
 11
544.4282492012
 21
31.6481133259
  0
LINE
  8
0
 62
7
  6
CONTINUOUS
 10
544.4860614807
 20
31.0673669025
 11
544.4282492012
 21
31.0028395296
  0
LINE
  8
0
 62
7
  6
CONTINUOUS
 10
543.0407492012
 20
31.7449043851
 11
542.9251239807
 21
31.6481133259
  0
LINE
  8
0
 62
7
  6
CONTINUOUS
 10
537.9532490909
 20
31.7771680715
 11
537.8376238704
 21
31.7126406987
  0
LINE
  8
0
 62
7
  6
CONTINUOUS
 10
538.0110613704
 20
31.3900038345
 11
537.8954364807
 21
31.3254764164
  0
LINE
  8
0
 62
7
  6
CONTINUOUS
 10
538.1266865909
 20
31.2286853572
 11
538.2423114807
 21
31.29321273
  0
LINE
  8
0
 62
7
  6
CONTINUOUS
 10
535.6985614255
 20
30.8092573885
 11
535.9876239807
 21
30.8092573885
  0
LINE
  8
0
 62
7
  6
CONTINUOUS
 10
537.0282489807
 20
30.8092573885
 11
537.3173113704
 21
30.8092573885
  0
LINE
  8
0
 62
7
  6
CONTINUOUS
 10
538.3579363704
 20
30.8092573885
 11
538.7048113704
 21
30.8092573885
  0
LINE
  8
0
 62
7
  6
CONTINUOUS
 10
539.3407487601
 20
30.8092573885
 11
539.6298114807
 21
30.8092573885
  0
LINE
  8
0
 62
7
  6
CONTINUOUS
 10
540.0923117012
 20
30.8092573885
 11
540.3813737601
 21
30.8092573885
  0
LINE
  8
0
 62
7
  6
CONTINUOUS
 10
540.8438739807
 20
30.8092573885
 11
541.1329367012
 21
30.8092573885
  0
LINE
  8
0
 62
7
  6
CONTINUOUS
 10
542.1735617012
 20
30.8092573885
 11
542.4626237601
 21
30.8092573885
  0
LINE
  8
0
 62
7
  6
CONTINUOUS
 10
543.7344992012
 20
30.8092573885
 11
544.0813742012
 21
30.8092573885
  0
LINE
  8
0
 62
7
  6
CONTINUOUS
 10
544.0813742012
 20
30.9383121455
 11
543.7344992012
 21
30.9383121455
  0
LINE
  8
0
 62
7
  6
CONTINUOUS
 10
538.7048113704
 20
30.9383121455
 11
538.3579363704
 21
30.9383121455
  0
LINE
  8
0
 62
7
  6
CONTINUOUS
 10
543.2141867012
 20
31.0673669025
 11
542.9251239807
 21
31.0673669025
  0
LINE
  8
0
 62
7
  6
CONTINUOUS
 10
535.2360615358
 20
31.1318942979
 11
534.9469989807
 21
31.1318942979
  0
LINE
  8
0
 62
7
  6
CONTINUOUS
 10
534.3110615082
 20
31.7126406987
 11
534.7157489531
 21
31.6803770123
  0
LINE
  8
0
 62
7
  6
CONTINUOUS
 10
534.7735614807
 20
31.809431758
 11
534.3688739531
 21
31.8416954444
  0
LINE
  8
0
 62
7
  6
CONTINUOUS
 10
543.3876242012
 20
30.8415210777
 11
543.7344992012
 21
30.8092573885
  0
LINE
  8
0
 62
7
  6
CONTINUOUS
 10
543.7344992012
 20
30.9383121455
 11
543.3876242012
 21
30.9705758432
  0
LINE
  8
0
 62
7
  6
CONTINUOUS
 10
539.1673112601
 20
31.809431758
 11
538.8204365909
 21
31.8416954444
  0
LINE
  8
0
 62
7
  6
CONTINUOUS
 10
543.9657489807
 20
31.7126406987
 11
544.3126239807
 21
31.6803770123
  0
LINE
  8
0
 62
7
  6
CONTINUOUS
 10
544.3126239807
 20
31.809431758
 11
543.9657489807
 21
31.8416954444
  0
LINE
  8
0
 62
7
  6
CONTINUOUS
 10
541.6532492012
 20
31.7126406987
 11
541.8844989807
 21
31.6803770123
  0
LINE
  8
0
 62
7
  6
CONTINUOUS
 10
544.4860614807
 20
31.7771680715
 11
544.3126239807
 21
31.809431758
  0
LINE
  8
0
 62
7
  6
CONTINUOUS
 10
544.6594989807
 20
30.9060484591
 11
544.7751235396
 21
31.0028395296
  0
LINE
  8
0
 62
7
  6
CONTINUOUS
 10
539.1673112601
 20
31.0996306115
 11
538.9938737601
 21
31.0028395296
  0
LINE
  8
0
 62
7
  6
CONTINUOUS
 10
541.2485612601
 20
31.7449043851
 11
541.1329367012
 21
31.6803770123
  0
LINE
  8
0
 62
7
  6
CONTINUOUS
 10
541.1329367012
 20
31.5513222666
 11
541.2485612601
 21
31.6158496394
  0
LINE
  8
0
 62
7
  6
CONTINUOUS
 10
533.8485614944
 20
31.7771680715
 11
533.6751239738
 21
31.7126406987
  0
LINE
  8
0
 62
7
  6
CONTINUOUS
 10
536.2766863704
 20
31.809431758
 11
536.1032490358
 21
31.7449043851
  0
LINE
  8
0
 62
7
  6
CONTINUOUS
 10
536.1032490358
 20
31.6158496394
 11
536.2766863704
 21
31.6803770123
  0
LINE
  8
0
 62
7
  6
CONTINUOUS
 10
534.8891865358
 20
31.035103216
 11
534.7157489531
 21
30.9705758432
  0
LINE
  8
0
 62
7
  6
CONTINUOUS
 10
544.3126239807
 20
30.9705758432
 11
544.0813742012
 21
30.9383121455
  0
LINE
  8
0
 62
7
  6
CONTINUOUS
 10
538.7048113704
 20
30.8092573885
 11
538.9938737601
 21
30.8415210777
  0
LINE
  8
0
 62
7
  6
CONTINUOUS
 10
544.0813742012
 20
30.8092573885
 11
544.4282492012
 21
30.8415210777
  0
LINE
  8
0
 62
7
  6
CONTINUOUS
 10
534.3688739531
 20
30.8092573885
 11
534.7735614807
 21
30.8415210777
  0
LINE
  8
0
 62
7
  6
CONTINUOUS
 10
534.7157489531
 20
30.9705758432
 11
534.3110615082
 21
30.9383121455
  0
LINE
  8
0
 62
7
  6
CONTINUOUS
 10
538.5891864807
 20
31.3577401029
 11
539.2251242012
 21
31.3577401029
  0
LINE
  8
0
 62
7
  6
CONTINUOUS
 10
539.2251242012
 20
31.4867948937
 11
538.5891864807
 21
31.4867948937
  0
LINE
  8
0
 62
7
  6
CONTINUOUS
 10
534.9469989807
 20
31.5190585802
 11
535.2360615358
 21
31.5190585802
  0
LINE
  8
0
 62
7
  6
CONTINUOUS
 10
537.7798115909
 20
31.583585953
 11
538.0688739807
 21
31.583585953
  0
LINE
  8
0
 62
7
  6
CONTINUOUS
 10
544.4860614807
 20
31.583585953
 11
544.7751235396
 21
31.583585953
  0
LINE
  8
0
 62
7
  6
CONTINUOUS
 10
538.4735615909
 20
31.7126406987
 11
538.8204365909
 21
31.7126406987
  0
LINE
  8
0
 62
7
  6
CONTINUOUS
 10
543.6188739807
 20
31.7126406987
 11
543.9657489807
 21
31.7126406987
  0
LINE
  8
0
 62
7
  6
CONTINUOUS
 10
543.9657489807
 20
31.8416954444
 11
543.6188739807
 21
31.8416954444
  0
LINE
  8
0
 62
7
  6
CONTINUOUS
 10
541.8844989807
 20
31.8416954444
 11
541.6532492012
 21
31.8416954444
  0
LINE
  8
0
 62
7
  6
CONTINUOUS
 10
541.1329367012
 20
31.8416954444
 11
540.8438739807
 21
31.8416954444
  0
LINE
  8
0
 62
7
  6
CONTINUOUS
 10
540.3813737601
 20
31.8416954444
 11
540.0923117012
 21
31.8416954444
  0
LINE
  8
0
 62
7
  6
CONTINUOUS
 10
538.8204365909
 20
31.8416954444
 11
538.4735615909
 21
31.8416954444
  0
LINE
  8
0
 62
7
  6
CONTINUOUS
 10
536.7391865909
 20
31.8416954444
 11
536.5079364807
 21
31.8416954444
  0
LINE
  8
0
 62
7
  6
CONTINUOUS
 10
540.0923117012
 20
32.164332399
 11
540.3813737601
 21
32.164332399
  0
LINE
  8
0
 62
7
  6
CONTINUOUS
 10
540.3813737601
 20
32.3256508311
 11
540.0923117012
 21
32.3256508311
  0
LINE
  8
0
 62
7
  6
CONTINUOUS
 10
535.9876239807
 20
32.3256508311
 11
535.6985614255
 21
32.3256508311
  0
LINE
  8
0
 62
7
  6
CONTINUOUS
 10
535.025405743
 20
32.612536077
 11
535.4379770916
 21
32.612536077
  0
LINE
  8
0
 62
7
  6
CONTINUOUS
 10
536.6647500053
 20
32.612536077
 11
538.0581926282
 21
32.612536077
  0
LINE
  8
0
 62
7
  6
CONTINUOUS
 10
538.3860614807
 20
32.612536077
 11
539.7795041036
 21
32.612536077
  0
LINE
  8
0
 62
7
  6
CONTINUOUS
 10
541.6647500053
 20
32.612536077
 11
543.0581926282
 21
32.612536077
  0
LINE
  8
0
 62
7
  6
CONTINUOUS
 10
543.3860614807
 20
32.612536077
 11
544.7795041036
 21
32.612536077
  0
LINE
  8
0
 62
7
  6
CONTINUOUS
 10
541.4219987601
 20
31.809431758
 11
541.2485612601
 21
31.7449043851
  0
LINE
  8
0
 62
7
  6
CONTINUOUS
 10
538.9938737601
 20
30.8415210777
 11
539.1673112601
 21
30.9060484591
  0
LINE
  8
0
 62
7
  6
CONTINUOUS
 10
544.4282492012
 20
30.8415210777
 11
544.6594989807
 21
30.9060484591
  0
LINE
  8
0
 62
7
  6
CONTINUOUS
 10
544.4282492012
 20
31.0028395296
 11
544.3126239807
 21
30.9705758432
  0
LINE
  8
0
 62
7
  6
CONTINUOUS
 10
543.3876242012
 20
31.6803770123
 11
543.6188739807
 21
31.7126406987
  0
LINE
  8
0
 62
7
  6
CONTINUOUS
 10
541.4219987601
 20
31.6803770123
 11
541.6532492012
 21
31.7126406987
  0
LINE
  8
0
 62
7
  6
CONTINUOUS
 10
538.3579363704
 20
31.3254764164
 11
538.5891864807
 21
31.3577401029
  0
LINE
  8
0
 62
7
  6
CONTINUOUS
 10
541.6532492012
 20
31.8416954444
 11
541.4219987601
 21
31.809431758
  0
LINE
  8
0
 62
7
  6
CONTINUOUS
 10
538.2423114807
 20
31.6803770123
 11
538.4735615909
 21
31.7126406987
  0
LINE
  8
0
 62
7
  6
CONTINUOUS
 10
543.6188739807
 20
31.8416954444
 11
543.2719989807
 21
31.809431758
  0
LINE
  8
0
 62
7
  6
CONTINUOUS
 10
538.5891864807
 20
31.4867948937
 11
538.2423114807
 21
31.4545312073
  0
LINE
  8
0
 62
7
  6
CONTINUOUS
 10
534.3688739531
 20
31.8416954444
 11
534.0219989944
 21
31.809431758
  0
LINE
  8
0
 62
7
  6
CONTINUOUS
 10
538.4735615909
 20
31.8416954444
 11
538.0688739807
 21
31.809431758
  0
LINE
  8
0
 62
7
  6
CONTINUOUS
 10
535.8450778741
 20
33.7600770606
 11
535.1893401692
 21
33.7600770606
  0
LINE
  8
0
 62
7
  6
CONTINUOUS
 10
541.2485612601
 20
31.6158496394
 11
541.4219987601
 21
31.6803770123
  0
LINE
  8
0
 62
7
  6
CONTINUOUS
 10
543.2719989807
 20
31.6481133259
 11
543.3876242012
 21
31.6803770123
  0
LINE
  8
0
 62
7
  6
CONTINUOUS
 10
543.2719989807
 20
31.809431758
 11
543.0407492012
 21
31.7449043851
  0
LINE
  8
0
 62
7
  6
CONTINUOUS
 10
538.9938737601
 20
31.0028395296
 11
538.7048113704
 21
30.9383121455
  0
LINE
  8
0
 62
7
  6
CONTINUOUS
 10
536.2766863704
 20
31.6803770123
 11
536.5079364807
 21
31.7126406987
  0
LINE
  8
0
 62
7
  6
CONTINUOUS
 10
536.5079364807
 20
31.8416954444
 11
536.2766863704
 21
31.809431758
  0
LINE
  8
0
 62
7
  6
CONTINUOUS
 10
534.0798114807
 20
31.6803770123
 11
534.3110615082
 21
31.7126406987
  0
LINE
  8
0
 62
7
  6
CONTINUOUS
 10
540.5991762348
 20
35.2354868967
 11
541.2549139397
 21
35.2354868967
  0
LINE
  8
0
 62
7
  6
CONTINUOUS
 10
538.2423114807
 20
31.29321273
 11
538.3579363704
 21
31.3254764164
  0
LINE
  8
0
 62
7
  6
CONTINUOUS
 10
538.2423114807
 20
31.4545312073
 11
538.0110613704
 21
31.3900038345
  0
LINE
  8
0
 62
7
  6
CONTINUOUS
 10
538.1266865909
 20
31.6481133259
 11
538.2423114807
 21
31.6803770123
  0
LINE
  8
0
 62
7
  6
CONTINUOUS
 10
534.7735614807
 20
30.8415210777
 11
535.0048114255
 21
30.9060484591
  0
LINE
  8
0
 62
7
  6
CONTINUOUS
 10
538.0688739807
 20
31.809431758
 11
537.9532490909
 21
31.7771680715
  0
LINE
  8
0
 62
7
  6
CONTINUOUS
 10
534.0219989944
 20
31.809431758
 11
533.8485614944
 21
31.7771680715
  0
LINE
  8
0
 62
7
  6
CONTINUOUS
 10
544.7795041036
 20
36.3830278803
 11
543.3860614807
 21
36.3830278803
  0
LINE
  8
0
 62
7
  6
CONTINUOUS
 10
541.4188483659
 20
36.3830278803
 11
541.0062770173
 21
36.3830278803
  0
LINE
  8
0
 62
7
  6
CONTINUOUS
 10
539.7795041036
 20
36.3830278803
 11
538.3860614807
 21
36.3830278803
  0
LINE
  8
0
 62
7
  6
CONTINUOUS
 10
538.0581926282
 20
36.3830278803
 11
536.6647500053
 21
36.3830278803
  0
LINE
  8
0
 62
7
  6
CONTINUOUS
 10
534.7795041036
 20
36.3830278803
 11
533.3860614807
 21
36.3830278803
  0
LINE
  8
0
 62
7
  6
CONTINUOUS
 10
533.9641864669
 20
31.6481133259
 11
534.0798114807
 21
31.6803770123
  0
CIRCLE
  8
0
 62
7
  6
CONTINUOUS
 10
544.0827827921
 20
38.7190934541
 40
2.0901639344
  0
ARC
  8
0
 62
7
  6
CONTINUOUS
 10
535.025405743
 20
34.2518803393
 40
1.6393442623
 50
180.0
 51
270.0
  0
ARC
  8
0
 62
7
  6
CONTINUOUS
 10
541.4188483659
 20
34.743683618
 40
1.6393442623
 50
0.0
 51
90.0
  0
ARC
  8
0
 62
7
  6
CONTINUOUS
 10
535.4379770916
 20
34.0879459131
 40
1.4754098361
 50
270.0
 51
326.2510114041
  0
ARC
  8
0
 62
7
  6
CONTINUOUS
 10
541.0062770173
 20
34.9076180442
 40
1.4754098361
 50
90.0
 51
146.2510114041
  0
ARC
  8
0
 62
7
  6
CONTINUOUS
 10
535.8450778741
 20
34.5797491918
 40
0.8196721311
 50
270.0
 51
360.0
  0
ARC
  8
0
 62
7
  6
CONTINUOUS
 10
540.5991762348
 20
34.4158147655
 40
0.8196721311
 50
90.0
 51
180.0
  0
ARC
  8
0
 62
7
  6
CONTINUOUS
 10
535.1893401692
 20
34.1699131262
 40
0.4098360656
 50
180.0
 51
270.0
  0
ARC
  8
0
 62
7
  6
CONTINUOUS
 10
541.2549139397
 20
34.8256508311
 40
0.4098360656
 50
0.0
 51
90.0
  0
SOLID
  8
0
 62
7
  6
CONTINUOUS
 10
540.0923117012
 20
32.1643327593
 11
540.0923117012
 21
32.3256512429
 12
540.3813737601
 22
32.1643327593
 13
540.3813737601
 23
32.3256512429
  0
SOLID
  8
0
 62
7
  6
CONTINUOUS
 10
534.3688739531
 20
31.841695792
 11
534.7735614807
 21
31.8094316148
 12
534.0219989944
 22
31.8094316148
 13
534.0219989944
 23
31.8094316148
  0
SOLID
  8
0
 62
7
  6
CONTINUOUS
 10
533.8485614944
 20
31.7771687019
 11
534.0219989944
 21
31.8094316148
 12
534.7735614807
 22
31.8094316148
 13
534.7735614807
 23
31.8094316148
  0
SOLID
  8
0
 62
7
  6
CONTINUOUS
 10
534.7735614807
 20
31.8094316148
 11
535.0048114255
 21
31.7449043986
 12
533.8485614944
 22
31.7771687019
 13
533.8485614944
 23
31.7771687019
  0
SOLID
  8
0
 62
7
  6
CONTINUOUS
 10
533.6751239738
 20
31.712640202
 11
533.8485614944
 21
31.7771687019
 12
535.0048114255
 22
31.7449043986
 13
535.0048114255
 23
31.7449043986
  0
SOLID
  8
0
 62
7
  6
CONTINUOUS
 10
533.6751239738
 20
31.712640202
 11
535.0048114255
 21
31.7449043986
 12
534.3110615082
 22
31.712640202
 13
534.3110615082
 23
31.712640202
  0
SOLID
  8
0
 62
7
  6
CONTINUOUS
 10
534.3110615082
 20
31.712640202
 11
535.0048114255
 21
31.7449043986
 12
534.7157489531
 22
31.6803773084
 13
534.7157489531
 23
31.6803773084
  0
SOLID
  8
0
 62
7
  6
CONTINUOUS
 10
535.0048114255
 20
31.7449043986
 11
535.1782489255
 21
31.6481130052
 12
534.7157489531
 22
31.6803773084
 13
534.7157489531
 23
31.6803773084
  0
SOLID
  8
0
 62
7
  6
CONTINUOUS
 10
534.8891865358
 20
31.6158502183
 11
534.7157489531
 21
31.6803773084
 12
535.1782489255
 22
31.6481130052
 13
535.1782489255
 23
31.6481130052
  0
SOLID
  8
0
 62
7
  6
CONTINUOUS
 10
534.8891865358
 20
31.6158502183
 11
535.1782489255
 21
31.6481130052
 12
534.9469989807
 22
31.5190586669
 13
534.9469989807
 23
31.5190586669
  0
SOLID
  8
0
 62
7
  6
CONTINUOUS
 10
535.1782489255
 20
31.6481130052
 11
535.2360615358
 21
31.5190586669
 12
534.9469989807
 22
31.5190586669
 13
534.9469989807
 23
31.5190586669
  0
SOLID
  8
0
 62
7
  6
CONTINUOUS
 10
536.2766863704
 20
31.8094307377
 11
536.5079364807
 21
31.841695041
 12
536.7391865909
 22
31.841695041
 13
536.7391865909
 23
31.841695041
  0
SOLID
  8
0
 62
7
  6
CONTINUOUS
 10
536.7391865909
 20
31.841695041
 11
536.9126240909
 21
31.8094307377
 12
536.2766863704
 22
31.8094307377
 13
536.2766863704
 23
31.8094307377
  0
SOLID
  8
0
 62
7
  6
CONTINUOUS
 10
536.1032490358
 20
31.7449036475
 11
536.2766863704
 21
31.8094307377
 12
536.9126240909
 22
31.8094307377
 13
536.9126240909
 23
31.8094307377
  0
SOLID
  8
0
 62
7
  6
CONTINUOUS
 10
536.9126240909
 20
31.8094307377
 11
537.0860615909
 21
31.7449036475
 12
536.1032490358
 22
31.7449036475
 13
536.1032490358
 23
31.7449036475
  0
SOLID
  8
0
 62
7
  6
CONTINUOUS
 10
537.0860615909
 20
31.7449036475
 11
536.5079364807
 21
31.7126400953
 12
536.1032490358
 22
31.7449036475
 13
536.1032490358
 23
31.7449036475
  0
SOLID
  8
0
 62
7
  6
CONTINUOUS
 10
535.9876239807
 20
31.6803765574
 11
536.1032490358
 21
31.7449036475
 12
536.5079364807
 22
31.7126400953
 13
536.5079364807
 23
31.7126400953
  0
SOLID
  8
0
 62
7
  6
CONTINUOUS
 10
536.5079364807
 20
31.7126400953
 11
536.2766863704
 21
31.6803765574
 12
535.9876239807
 22
31.6803765574
 13
535.9876239807
 23
31.6803765574
  0
SOLID
  8
0
 62
7
  6
CONTINUOUS
 10
536.5079364807
 20
31.7126400953
 11
537.0860615909
 21
31.7449036475
 12
536.7391865909
 22
31.6803765574
 13
536.7391865909
 23
31.6803765574
  0
SOLID
  8
0
 62
7
  6
CONTINUOUS
 10
537.0860615909
 20
31.7449036475
 11
537.2016864807
 21
31.6803765574
 12
536.7391865909
 22
31.6803765574
 13
536.7391865909
 23
31.6803765574
  0
SOLID
  8
0
 62
7
  6
CONTINUOUS
 10
536.8548114807
 20
31.6481130052
 11
536.7391865909
 21
31.6803765574
 12
537.2016864807
 22
31.6803765574
 13
537.2016864807
 23
31.6803765574
  0
SOLID
  8
0
 62
7
  6
CONTINUOUS
 10
537.2016864807
 20
31.6803765574
 11
537.2594990909
 21
31.6158494672
 12
536.8548114807
 22
31.6481130052
 13
536.8548114807
 23
31.6481130052
  0
SOLID
  8
0
 62
7
  6
CONTINUOUS
 10
536.9704363704
 20
31.583585915
 11
536.8548114807
 21
31.6481130052
 12
537.2594990909
 22
31.6158494672
 13
537.2594990909
 23
31.6158494672
  0
SOLID
  8
0
 62
7
  6
CONTINUOUS
 10
536.9704363704
 20
31.583585915
 11
537.2594990909
 21
31.6158494672
 12
537.0282489807
 22
31.4545309836
 13
537.0282489807
 23
31.4545309836
  0
SOLID
  8
0
 62
7
  6
CONTINUOUS
 10
537.2594990909
 20
31.6158494672
 11
537.3173113704
 21
31.4545309836
 12
537.0282489807
 22
31.4545309836
 13
537.0282489807
 23
31.4545309836
  0
SOLID
  8
0
 62
7
  6
CONTINUOUS
 10
536.2766863704
 20
31.6803765574
 11
536.1032490358
 21
31.6158494672
 12
535.9876239807
 22
31.6803765574
 13
535.9876239807
 23
31.6803765574
  0
SOLID
  8
0
 62
7
  6
CONTINUOUS
 10
536.1032490358
 20
31.6158494672
 11
535.9876239807
 21
31.5513216117
 12
535.9876239807
 22
31.6803765574
 13
535.9876239807
 23
31.6803765574
  0
SOLID
  8
0
 62
7
  6
CONTINUOUS
 10
535.9876239807
 20
31.5513216117
 11
535.6985614255
 21
30.8092570492
 12
535.9876239807
 22
31.6803765574
 13
535.9876239807
 23
31.6803765574
  0
SOLID
  8
0
 62
7
  6
CONTINUOUS
 10
535.9876239807
 20
31.6803765574
 11
535.6985614255
 21
30.8092570492
 12
535.9876239807
 22
32.3256504918
 13
535.9876239807
 23
32.3256504918
  0
SOLID
  8
0
 62
7
  6
CONTINUOUS
 10
535.6985614255
 20
30.8092570492
 11
535.6985614255
 21
32.3256504918
 12
535.9876239807
 22
32.3256504918
 13
535.9876239807
 23
32.3256504918
  0
SOLID
  8
0
 62
7
  6
CONTINUOUS
 10
535.9876239807
 20
31.5513216117
 11
535.9876239807
 21
30.8092570492
 12
535.6985614255
 22
30.8092570492
 13
535.6985614255
 23
30.8092570492
  0
SOLID
  8
0
 62
7
  6
CONTINUOUS
 10
537.0282489807
 20
30.8092570492
 11
537.0282489807
 21
31.4545309836
 12
537.3173113704
 22
31.4545309836
 13
537.3173113704
 23
31.4545309836
  0
SOLID
  8
0
 62
7
  6
CONTINUOUS
 10
537.3173113704
 20
31.4545309836
 11
537.3173113704
 21
30.8092570492
 12
537.0282489807
 22
30.8092570492
 13
537.0282489807
 23
30.8092570492
  0
SOLID
  8
0
 62
7
  6
CONTINUOUS
 10
538.0688739807
 20
31.809431823
 11
538.4735615909
 21
31.8416958158
 12
538.8204365909
 22
31.8416958158
 13
538.8204365909
 23
31.8416958158
  0
SOLID
  8
0
 62
7
  6
CONTINUOUS
 10
538.8204365909
 20
31.8416958158
 11
539.1673112601
 21
31.809431823
 12
538.0688739807
 22
31.809431823
 13
538.0688739807
 23
31.809431823
  0
SOLID
  8
0
 62
7
  6
CONTINUOUS
 10
537.9532490909
 20
31.7771687019
 11
538.0688739807
 21
31.809431823
 12
539.1673112601
 22
31.809431823
 13
539.1673112601
 23
31.809431823
  0
SOLID
  8
0
 62
7
  6
CONTINUOUS
 10
539.1673112601
 20
31.809431823
 11
539.3407487601
 21
31.7449043986
 12
537.9532490909
 22
31.7771687019
 13
537.9532490909
 23
31.7771687019
  0
SOLID
  8
0
 62
7
  6
CONTINUOUS
 10
537.8376238704
 20
31.7126398448
 11
537.9532490909
 21
31.7771687019
 12
539.3407487601
 22
31.7449043986
 13
539.3407487601
 23
31.7449043986
  0
SOLID
  8
0
 62
7
  6
CONTINUOUS
 10
537.8376238704
 20
31.7126398448
 11
539.3407487601
 21
31.7449043986
 12
538.4735615909
 22
31.7126398448
 13
538.4735615909
 23
31.7126398448
  0
SOLID
  8
0
 62
7
  6
CONTINUOUS
 10
538.4735615909
 20
31.7126398448
 11
539.3407487601
 21
31.7449043986
 12
538.8204365909
 22
31.7126398448
 13
538.8204365909
 23
31.7126398448
  0
SOLID
  8
0
 62
7
  6
CONTINUOUS
 10
538.8204365909
 20
31.7126398448
 11
539.3407487601
 21
31.7449043986
 12
539.0516867012
 22
31.6803774007
 13
539.0516867012
 23
31.6803774007
  0
SOLID
  8
0
 62
7
  6
CONTINUOUS
 10
539.3407487601
 20
31.7449043986
 11
539.4563739807
 21
31.6803774007
 12
539.0516867012
 22
31.6803774007
 13
539.0516867012
 23
31.6803774007
  0
SOLID
  8
0
 62
7
  6
CONTINUOUS
 10
537.7798115909
 20
31.6481126336
 11
537.8376238704
 21
31.7126398448
 12
538.4735615909
 22
31.7126398448
 13
538.4735615909
 23
31.7126398448
  0
SOLID
  8
0
 62
7
  6
CONTINUOUS
 10
539.1673112601
 20
31.6481126336
 11
539.0516867012
 21
31.6803774007
 12
539.4563739807
 22
31.6803774007
 13
539.4563739807
 23
31.6803774007
  0
SOLID
  8
0
 62
7
  6
CONTINUOUS
 10
539.1673112601
 20
31.6481126336
 11
539.4563739807
 21
31.6803774007
 12
539.2251242012
 22
31.5835861968
 13
539.2251242012
 23
31.5835861968
  0
SOLID
  8
0
 62
7
  6
CONTINUOUS
 10
539.4563739807
 20
31.6803774007
 11
539.5141862601
 21
31.5835861968
 12
539.2251242012
 22
31.5835861968
 13
539.2251242012
 23
31.5835861968
  0
SOLID
  8
0
 62
7
  6
CONTINUOUS
 10
539.2251242012
 20
31.4867945216
 11
539.2251242012
 21
31.5835861968
 12
539.5141862601
 22
31.5835861968
 13
539.5141862601
 23
31.5835861968
  0
SOLID
  8
0
 62
7
  6
CONTINUOUS
 10
539.2251242012
 20
31.4867945216
 11
539.5141862601
 21
31.5835861968
 12
539.2251242012
 22
31.3577403412
 13
539.2251242012
 23
31.3577403412
  0
SOLID
  8
0
 62
7
  6
CONTINUOUS
 10
539.2251242012
 20
31.3577403412
 11
539.5141862601
 21
31.5835861968
 12
539.2251242012
 22
31.1641579843
 13
539.2251242012
 23
31.1641579843
  0
SOLID
  8
0
 62
7
  6
CONTINUOUS
 10
539.5141862601
 20
31.5835861968
 11
539.5141862601
 21
31.0673661609
 12
539.2251242012
 22
31.1641579843
 13
539.2251242012
 23
31.1641579843
  0
SOLID
  8
0
 62
7
  6
CONTINUOUS
 10
541.4219987601
 20
31.8094310465
 11
541.6532492012
 21
31.8416957661
 12
541.8844989807
 22
31.8416957661
 13
541.8844989807
 23
31.8416957661
  0
SOLID
  8
0
 62
7
  6
CONTINUOUS
 10
541.8844989807
 20
31.8416957661
 11
542.0579364807
 21
31.8094310465
 12
541.4219987601
 22
31.8094310465
 13
541.4219987601
 23
31.8094310465
  0
SOLID
  8
0
 62
7
  6
CONTINUOUS
 10
541.2485612601
 20
31.7449047044
 11
541.4219987601
 21
31.8094310465
 12
542.0579364807
 22
31.8094310465
 13
542.0579364807
 23
31.8094310465
  0
SOLID
  8
0
 62
7
  6
CONTINUOUS
 10
542.0579364807
 20
31.8094310465
 11
542.2313739807
 21
31.7449047044
 12
541.2485612601
 22
31.7449047044
 13
541.2485612601
 23
31.7449047044
  0
SOLID
  8
0
 62
7
  6
CONTINUOUS
 10
542.2313739807
 20
31.7449047044
 11
541.6532492012
 21
31.7126400953
 12
541.2485612601
 22
31.7449047044
 13
541.2485612601
 23
31.7449047044
  0
SOLID
  8
0
 62
7
  6
CONTINUOUS
 10
541.1329367012
 20
31.6803773299
 11
541.2485612601
 21
31.7449047044
 12
541.6532492012
 22
31.7126400953
 13
541.6532492012
 23
31.7126400953
  0
SOLID
  8
0
 62
7
  6
CONTINUOUS
 10
541.6532492012
 20
31.7126400953
 11
541.4219987601
 21
31.6803773299
 12
541.1329367012
 22
31.6803773299
 13
541.1329367012
 23
31.6803773299
  0
SOLID
  8
0
 62
7
  6
CONTINUOUS
 10
541.6532492012
 20
31.7126400953
 11
542.2313739807
 21
31.7449047044
 12
541.8844989807
 22
31.6803773299
 13
541.8844989807
 23
31.6803773299
  0
SOLID
  8
0
 62
7
  6
CONTINUOUS
 10
542.2313739807
 20
31.7449047044
 11
542.3469992012
 21
31.6803773299
 12
541.8844989807
 22
31.6803773299
 13
541.8844989807
 23
31.6803773299
  0
SOLID
  8
0
 62
7
  6
CONTINUOUS
 10
542.0001242012
 20
31.6481130052
 11
541.8844989807
 21
31.6803773299
 12
542.3469992012
 22
31.6803773299
 13
542.3469992012
 23
31.6803773299
  0
SOLID
  8
0
 62
7
  6
CONTINUOUS
 10
542.0001242012
 20
31.6481130052
 11
542.3469992012
 21
31.6803773299
 12
542.1157487601
 22
31.5835862682
 13
542.1157487601
 23
31.5835862682
  0
SOLID
  8
0
 62
7
  6
CONTINUOUS
 10
542.3469992012
 20
31.6803773299
 11
542.4048114807
 21
31.5835862682
 12
542.1157487601
 22
31.5835862682
 13
542.1157487601
 23
31.5835862682
  0
SOLID
  8
0
 62
7
  6
CONTINUOUS
 10
542.1735617012
 20
31.422267832
 11
542.1157487601
 21
31.5835862682
 12
542.4048114807
 22
31.5835862682
 13
542.4048114807
 23
31.5835862682
  0
SOLID
  8
0
 62
7
  6
CONTINUOUS
 10
542.4048114807
 20
31.5835862682
 11
542.4626237601
 21
31.422267832
 12
542.1735617012
 22
31.422267832
 13
542.1735617012
 23
31.422267832
  0
SOLID
  8
0
 62
7
  6
CONTINUOUS
 10
541.4219987601
 20
31.6803773299
 11
541.2485612601
 21
31.6158502183
 12
541.1329367012
 22
31.6803773299
 13
541.1329367012
 23
31.6803773299
  0
SOLID
  8
0
 62
7
  6
CONTINUOUS
 10
541.2485612601
 20
31.6158502183
 11
541.1329367012
 21
31.5513216117
 12
541.1329367012
 22
31.6803773299
 13
541.1329367012
 23
31.6803773299
  0
SOLID
  8
0
 62
7
  6
CONTINUOUS
 10
541.1329367012
 20
31.5513216117
 11
540.8438739807
 21
30.8092577743
 12
541.1329367012
 22
31.6803773299
 13
541.1329367012
 23
31.6803773299
  0
SOLID
  8
0
 62
7
  6
CONTINUOUS
 10
541.1329367012
 20
31.6803773299
 11
540.8438739807
 21
30.8092577743
 12
541.1329367012
 22
31.8416957661
 13
541.1329367012
 23
31.8416957661
  0
SOLID
  8
0
 62
7
  6
CONTINUOUS
 10
540.8438739807
 20
30.8092577743
 11
540.8438739807
 21
31.8416957661
 12
541.1329367012
 22
31.8416957661
 13
541.1329367012
 23
31.8416957661
  0
SOLID
  8
0
 62
7
  6
CONTINUOUS
 10
541.1329367012
 20
31.5513216117
 11
541.1329367012
 21
30.8092577743
 12
540.8438739807
 22
30.8092577743
 13
540.8438739807
 23
30.8092577743
  0
SOLID
  8
0
 62
7
  6
CONTINUOUS
 10
542.1735617012
 20
30.8092577743
 11
542.1735617012
 21
31.422267832
 12
542.4626237601
 22
31.422267832
 13
542.4626237601
 23
31.422267832
  0
SOLID
  8
0
 62
7
  6
CONTINUOUS
 10
542.4626237601
 20
31.422267832
 11
542.4626237601
 21
30.8092577743
 12
542.1735617012
 22
30.8092577743
 13
542.1735617012
 23
30.8092577743
  0
SOLID
  8
0
 62
7
  6
CONTINUOUS
 10
543.2719989807
 20
31.8094314924
 11
543.6188739807
 21
31.8416958387
 12
543.9657489807
 22
31.8416958387
 13
543.9657489807
 23
31.8416958387
  0
SOLID
  8
0
 62
7
  6
CONTINUOUS
 10
543.9657489807
 20
31.8416958387
 11
544.3126239807
 21
31.8094314924
 12
543.2719989807
 22
31.8094314924
 13
543.2719989807
 23
31.8094314924
  0
SOLID
  8
0
 62
7
  6
CONTINUOUS
 10
543.0407492012
 20
31.7449043986
 11
543.2719989807
 21
31.8094314924
 12
544.3126239807
 22
31.8094314924
 13
544.3126239807
 23
31.8094314924
  0
SOLID
  8
0
 62
7
  6
CONTINUOUS
 10
543.0407492012
 20
31.7449043986
 11
544.3126239807
 21
31.8094314888
 12
544.4860614807
 22
31.7771687019
 13
544.4860614807
 23
31.7771687019
  0
SOLID
  8
0
 62
7
  6
CONTINUOUS
 10
543.0407492012
 20
31.7449043986
 11
544.4860614807
 21
31.7771687019
 12
543.6188739807
 22
31.7126401399
 13
543.6188739807
 23
31.7126401399
  0
SOLID
  8
0
 62
7
  6
CONTINUOUS
 10
543.6188739807
 20
31.7126401399
 11
544.4860614807
 21
31.7771687019
 12
543.9657489807
 22
31.7126401399
 13
543.9657489807
 23
31.7126401399
  0
SOLID
  8
0
 62
7
  6
CONTINUOUS
 10
544.4860614807
 20
31.7771687019
 11
544.6594989807
 21
31.7126401399
 12
543.9657489807
 22
31.7126401399
 13
543.9657489807
 23
31.7126401399
  0
SOLID
  8
0
 62
7
  6
CONTINUOUS
 10
544.3126239807
 20
31.6803773084
 11
543.9657489807
 21
31.7126401399
 12
544.6594989807
 22
31.7126401399
 13
544.6594989807
 23
31.7126401399
  0
SOLID
  8
0
 62
7
  6
CONTINUOUS
 10
542.9251239807
 20
31.6481128977
 11
543.0407492012
 21
31.7449043986
 12
543.6188739807
 22
31.7126401399
 13
543.6188739807
 23
31.7126401399
  0
SOLID
  8
0
 62
7
  6
CONTINUOUS
 10
544.3126239807
 20
31.6803773084
 11
544.6594989807
 21
31.7126401399
 12
544.4282492012
 22
31.6481128977
 13
544.4282492012
 23
31.6481128977
  0
SOLID
  8
0
 62
7
  6
CONTINUOUS
 10
544.4282492012
 20
31.6481128977
 11
544.6594989807
 21
31.7126401399
 12
544.4860614807
 22
31.5835858812
 13
544.4860614807
 23
31.5835858812
  0
SOLID
  8
0
 62
7
  6
CONTINUOUS
 10
544.6594989807
 20
31.7126401399
 11
544.7751235396
 21
31.5835858812
 12
544.4860614807
 22
31.5835858812
 13
544.4860614807
 23
31.5835858812
  0
SOLID
  8
0
 62
7
  6
CONTINUOUS
 10
534.0798114807
 20
31.6803773084
 11
533.5594989807
 21
31.6481129264
 12
534.3110615082
 22
31.7126401456
 13
534.3110615082
 23
31.7126401456
  0
SOLID
  8
0
 62
7
  6
CONTINUOUS
 10
533.5594989807
 20
31.6481129264
 11
533.6751239738
 21
31.7126401456
 12
534.3110615082
 22
31.7126401456
 13
534.3110615082
 23
31.7126401456
  0
SOLID
  8
0
 62
7
  6
CONTINUOUS
 10
534.0798114807
 20
31.6803773084
 11
533.9641864669
 21
31.6481129264
 12
533.5594989807
 22
31.6481129264
 13
533.5594989807
 23
31.6481129264
  0
SOLID
  8
0
 62
7
  6
CONTINUOUS
 10
533.4438739824
 20
31.5190588248
 11
533.5594989807
 21
31.6481129264
 12
533.9641864669
 22
31.6481129264
 13
533.9641864669
 23
31.6481129264
  0
SOLID
  8
0
 62
7
  6
CONTINUOUS
 10
537.7798115909
 20
31.6481130555
 11
538.4735615909
 21
31.7126400953
 12
538.2423114807
 22
31.6803773084
 13
538.2423114807
 23
31.6803773084
  0
SOLID
  8
0
 62
7
  6
CONTINUOUS
 10
538.2423114807
 20
31.6803773084
 11
538.1266865909
 21
31.6481130555
 12
537.7798115909
 22
31.6481130555
 13
537.7798115909
 23
31.6481130555
  0
SOLID
  8
0
 62
7
  6
CONTINUOUS
 10
537.7798115909
 20
31.5835859653
 11
537.7798115909
 21
31.6481130555
 12
538.1266865909
 22
31.6481130555
 13
538.1266865909
 23
31.6481130555
  0
SOLID
  8
0
 62
7
  6
CONTINUOUS
 10
538.1266865909
 20
31.6481130555
 11
538.0688739807
 21
31.5835859653
 12
537.7798115909
 22
31.5835859653
 13
537.7798115909
 23
31.5835859653
  0
SOLID
  8
0
 62
7
  6
CONTINUOUS
 10
542.9251239807
 20
31.6481130555
 11
543.6188739807
 21
31.7126400953
 12
543.3876242012
 22
31.6803773084
 13
543.3876242012
 23
31.6803773084
  0
SOLID
  8
0
 62
7
  6
CONTINUOUS
 10
543.3876242012
 20
31.6803773084
 11
543.2719989807
 21
31.6481130555
 12
542.9251239807
 22
31.6481130555
 13
542.9251239807
 23
31.6481130555
  0
SOLID
  8
0
 62
7
  6
CONTINUOUS
 10
542.9251239807
 20
31.5835859653
 11
542.9251239807
 21
31.6481130555
 12
543.2719989807
 22
31.6481130555
 13
543.2719989807
 23
31.6481130555
  0
SOLID
  8
0
 62
7
  6
CONTINUOUS
 10
543.2719989807
 20
31.6481130555
 11
543.2141867012
 21
31.5835859653
 12
542.9251239807
 22
31.5835859653
 13
542.9251239807
 23
31.5835859653
  0
SOLID
  8
0
 62
7
  6
CONTINUOUS
 10
543.0407492012
 20
31.4545317347
 11
542.9251239807
 21
31.5835859653
 12
543.2141867012
 22
31.5835859653
 13
543.2141867012
 23
31.5835859653
  0
SOLID
  8
0
 62
7
  6
CONTINUOUS
 10
533.4438739824
 20
31.5190588248
 11
533.9641864669
 21
31.6481130052
 12
533.7907489669
 22
31.5513216117
 13
533.7907489669
 23
31.5513216117
  0
SOLID
  8
0
 62
7
  6
CONTINUOUS
 10
533.7907489669
 20
31.5513216117
 11
533.7329364807
 21
31.4867945216
 12
533.4438739824
 22
31.5190588248
 13
533.4438739824
 23
31.5190588248
  0
SOLID
  8
0
 62
7
  6
CONTINUOUS
 10
533.3860614807
 20
31.325476038
 11
533.4438739824
 21
31.5190588248
 12
533.7329364807
 22
31.4867945216
 13
533.7329364807
 23
31.4867945216
  0
SOLID
  8
0
 62
7
  6
CONTINUOUS
 10
538.2423114807
 20
31.4545317347
 11
538.5891864807
 21
31.4867945557
 12
539.2251242012
 22
31.4867945557
 13
539.2251242012
 23
31.4867945557
  0
SOLID
  8
0
 62
7
  6
CONTINUOUS
 10
538.2423114807
 20
31.4545317347
 11
539.2251242012
 21
31.4867945557
 12
538.0110613704
 22
31.3900038345
 13
538.0110613704
 23
31.3900038345
  0
SOLID
  8
0
 62
7
  6
CONTINUOUS
 10
538.0110613704
 20
31.3900038345
 11
539.2251242012
 21
31.4867945557
 12
538.5891864807
 22
31.3577403754
 13
538.5891864807
 23
31.3577403754
  0
SOLID
  8
0
 62
7
  6
CONTINUOUS
 10
539.2251242012
 20
31.4867945557
 11
539.2251242012
 21
31.3577403754
 12
538.5891864807
 22
31.3577403754
 13
538.5891864807
 23
31.3577403754
  0
SOLID
  8
0
 62
7
  6
CONTINUOUS
 10
543.0407492012
 20
31.4545313481
 11
543.2141867012
 21
31.583585915
 12
543.2719989807
 22
31.5190588248
 13
543.2719989807
 23
31.5190588248
  0
SOLID
  8
0
 62
7
  6
CONTINUOUS
 10
543.2719989807
 20
31.5190588248
 11
543.4454364807
 21
31.4545313481
 12
543.0407492012
 22
31.4545313481
 13
543.0407492012
 23
31.4545313481
  0
SOLID
  8
0
 62
7
  6
CONTINUOUS
 10
543.2719989807
 20
31.3577403412
 11
543.0407492012
 21
31.4545313481
 12
543.4454364807
 22
31.4545313481
 13
543.4454364807
 23
31.4545313481
  0
SOLID
  8
0
 62
7
  6
CONTINUOUS
 10
543.4454364807
 20
31.4545313481
 11
544.4282492012
 21
31.2932132511
 12
543.2719989807
 22
31.3577403412
 13
543.2719989807
 23
31.3577403412
  0
SOLID
  8
0
 62
7
  6
CONTINUOUS
 10
544.2548117012
 20
31.1964222346
 11
543.2719989807
 21
31.3577403412
 12
544.4282492012
 22
31.2932132511
 13
544.4282492012
 23
31.2932132511
  0
SOLID
  8
0
 62
7
  6
CONTINUOUS
 10
544.4282492012
 20
31.2932132511
 11
544.6594989807
 21
31.1964222346
 12
544.2548117012
 22
31.1964222346
 13
544.2548117012
 23
31.1964222346
  0
SOLID
  8
0
 62
7
  6
CONTINUOUS
 10
544.4282492012
 20
31.1318947675
 11
544.2548117012
 21
31.1964222346
 12
544.6594989807
 22
31.1964222346
 13
544.6594989807
 23
31.1964222346
  0
SOLID
  8
0
 62
7
  6
CONTINUOUS
 10
544.4282492012
 20
31.1318947675
 11
544.6594989807
 21
31.1964222346
 12
544.4860614807
 22
31.0673665164
 13
544.4860614807
 23
31.0673665164
  0
SOLID
  8
0
 62
7
  6
CONTINUOUS
 10
544.6594989807
 20
31.1964222346
 11
544.7751235396
 21
31.0673665164
 12
544.4860614807
 22
31.0673665164
 13
544.4860614807
 23
31.0673665164
  0
SOLID
  8
0
 62
7
  6
CONTINUOUS
 10
544.4282492012
 20
31.0028394316
 11
544.4860614807
 21
31.0673665164
 12
544.7751235396
 22
31.0673665164
 13
544.7751235396
 23
31.0673665164
  0
SOLID
  8
0
 62
7
  6
CONTINUOUS
 10
544.7751235396
 20
31.0673665164
 11
544.7751235396
 21
31.0028394316
 12
544.4282492012
 22
31.0028394316
 13
544.4282492012
 23
31.0028394316
  0
SOLID
  8
0
 62
7
  6
CONTINUOUS
 10
544.3126239807
 20
30.9705762839
 11
544.4282492012
 21
31.0028394316
 12
544.7751235396
 22
31.0028394316
 13
544.7751235396
 23
31.0028394316
  0
SOLID
  8
0
 62
7
  6
CONTINUOUS
 10
544.3126239807
 20
30.9705762839
 11
544.7751235396
 21
31.0028394316
 12
544.0813742012
 22
30.9383123468
 13
544.0813742012
 23
30.9383123468
  0
SOLID
  8
0
 62
7
  6
CONTINUOUS
 10
544.7751235396
 20
31.0028394316
 11
544.6594989807
 21
30.9060491937
 12
544.0813742012
 22
30.9383123468
 13
544.0813742012
 23
30.9383123468
  0
SOLID
  8
0
 62
7
  6
CONTINUOUS
 10
544.6594989807
 20
30.9060491937
 11
543.2141867012
 21
30.8737848904
 12
544.0813742012
 22
30.9383123468
 13
544.0813742012
 23
30.9383123468
  0
SOLID
  8
0
 62
7
  6
CONTINUOUS
 10
544.0813742012
 20
30.9383123468
 11
543.2141867012
 21
30.8737848904
 12
543.7344992012
 22
30.9383123468
 13
543.7344992012
 23
30.9383123468
  0
SOLID
  8
0
 62
7
  6
CONTINUOUS
 10
543.2141867012
 20
30.8737848904
 11
543.0407492012
 21
30.9383123468
 12
543.7344992012
 22
30.9383123468
 13
543.7344992012
 23
30.9383123468
  0
SOLID
  8
0
 62
7
  6
CONTINUOUS
 10
543.2141867012
 20
30.8737848904
 11
544.6594989807
 21
30.9060491937
 12
543.3876242012
 22
30.8415205581
 13
543.3876242012
 23
30.8415205581
  0
SOLID
  8
0
 62
7
  6
CONTINUOUS
 10
544.6594989807
 20
30.9060491937
 11
544.4282492012
 21
30.8415205581
 12
543.3876242012
 22
30.8415205581
 13
543.3876242012
 23
30.8415205581
  0
SOLID
  8
0
 62
7
  6
CONTINUOUS
 10
543.7344992012
 20
30.8092581772
 11
543.3876242012
 21
30.8415205581
 12
544.4282492012
 22
30.8415205581
 13
544.4282492012
 23
30.8415205581
  0
SOLID
  8
0
 62
7
  6
CONTINUOUS
 10
544.4282492012
 20
30.8415205581
 11
544.0813742012
 21
30.8092581772
 12
543.7344992012
 22
30.8092581772
 13
543.7344992012
 23
30.8092581772
  0
SOLID
  8
0
 62
7
  6
CONTINUOUS
 10
533.3860614807
 20
31.325476038
 11
533.7329364807
 21
31.4867945216
 12
533.6751239738
 22
31.3577403412
 13
533.6751239738
 23
31.3577403412
  0
SOLID
  8
0
 62
7
  6
CONTINUOUS
 10
533.6751239738
 20
31.3577403412
 11
533.6751239738
 21
31.2609490436
 12
533.3860614807
 22
31.325476038
 13
533.3860614807
 23
31.325476038
  0
SOLID
  8
0
 62
7
  6
CONTINUOUS
 10
533.4438739824
 20
31.1318947675
 11
533.3860614807
 21
31.325476038
 12
533.6751239738
 22
31.2609490436
 13
533.6751239738
 23
31.2609490436
  0
SOLID
  8
0
 62
7
  6
CONTINUOUS
 10
533.6751239738
 20
31.2609490436
 11
533.7907489669
 21
31.0996304642
 12
533.4438739824
 22
31.1318947675
 13
533.4438739824
 23
31.1318947675
  0
SOLID
  8
0
 62
7
  6
CONTINUOUS
 10
533.5594989807
 20
31.0028388804
 11
533.4438739824
 21
31.1318947675
 12
533.7907489669
 22
31.0996304642
 13
533.7907489669
 23
31.0996304642
  0
SOLID
  8
0
 62
7
  6
CONTINUOUS
 10
533.7907489669
 20
31.0996304642
 11
533.9641864669
 21
31.0028388804
 12
533.5594989807
 22
31.0028388804
 13
533.5594989807
 23
31.0028388804
  0
SOLID
  8
0
 62
7
  6
CONTINUOUS
 10
533.6751239738
 20
30.9383122606
 11
533.5594989807
 21
31.0028388804
 12
533.9641864669
 22
31.0028388804
 13
533.9641864669
 23
31.0028388804
  0
SOLID
  8
0
 62
7
  6
CONTINUOUS
 10
533.9641864669
 20
31.0028388804
 11
534.3110615082
 21
30.9383122606
 12
533.6751239738
 22
30.9383122606
 13
533.6751239738
 23
30.9383122606
  0
SOLID
  8
0
 62
7
  6
CONTINUOUS
 10
533.8485614944
 20
30.8737848904
 11
533.6751239738
 21
30.9383122606
 12
534.3110615082
 22
30.9383122606
 13
534.3110615082
 23
30.9383122606
  0
SOLID
  8
0
 62
7
  6
CONTINUOUS
 10
537.8954364807
 20
31.3254759532
 11
538.0110613704
 21
31.3900038345
 12
538.5891864807
 22
31.3577403412
 13
538.5891864807
 23
31.3577403412
  0
SOLID
  8
0
 62
7
  6
CONTINUOUS
 10
538.5891864807
 20
31.3577403412
 11
538.3579363704
 21
31.3254759532
 12
537.8954364807
 22
31.3254759532
 13
537.8954364807
 23
31.3254759532
  0
SOLID
  8
0
 62
7
  6
CONTINUOUS
 10
537.7798115909
 20
31.1964218576
 11
537.8954364807
 21
31.3254759532
 12
538.3579363704
 22
31.3254759532
 13
538.3579363704
 23
31.3254759532
  0
SOLID
  8
0
 62
7
  6
CONTINUOUS
 10
538.1266865909
 20
31.2286853572
 11
537.7798115909
 21
31.1964218576
 12
538.2423114807
 22
31.2932132511
 13
538.2423114807
 23
31.2932132511
  0
SOLID
  8
0
 62
7
  6
CONTINUOUS
 10
537.7798115909
 20
31.1964218576
 11
538.3579363704
 21
31.325476038
 12
538.2423114807
 22
31.2932132511
 13
538.2423114807
 23
31.2932132511
  0
SOLID
  8
0
 62
7
  6
CONTINUOUS
 10
538.1266865909
 20
31.2286853572
 11
538.0688739807
 21
31.1318947675
 12
537.7798115909
 22
31.1964218576
 13
537.7798115909
 23
31.1964218576
  0
SOLID
  8
0
 62
7
  6
CONTINUOUS
 10
537.7798115909
 20
31.0996304642
 11
537.7798115909
 21
31.1964218576
 12
538.0688739807
 22
31.1318947675
 13
538.0688739807
 23
31.1318947675
  0
SOLID
  8
0
 62
7
  6
CONTINUOUS
 10
538.0688739807
 20
31.1318947675
 11
538.0688739807
 21
31.0673661609
 12
537.7798115909
 22
31.0996304642
 13
537.7798115909
 23
31.0996304642
  0
SOLID
  8
0
 62
7
  6
CONTINUOUS
 10
537.8376238704
 20
30.9705762839
 11
537.7798115909
 21
31.0996304642
 12
538.0688739807
 22
31.0673661609
 13
538.0688739807
 23
31.0673661609
  0
SOLID
  8
0
 62
7
  6
CONTINUOUS
 10
539.2251242012
 20
31.1641579843
 11
539.5141862601
 21
31.0673661609
 12
539.1673112601
 22
31.0996304642
 13
539.1673112601
 23
31.0996304642
  0
SOLID
  8
0
 62
7
  6
CONTINUOUS
 10
538.9938737601
 20
31.0028390707
 11
539.1673112601
 21
31.0996304642
 12
539.5141862601
 22
31.0673661609
 13
539.5141862601
 23
31.0673661609
  0
SOLID
  8
0
 62
7
  6
CONTINUOUS
 10
538.9938737601
 20
31.0028390707
 11
539.5141862601
 21
31.0673661609
 12
539.2251242012
 22
30.9705762839
 13
539.2251242012
 23
30.9705762839
  0
SOLID
  8
0
 62
7
  6
CONTINUOUS
 10
539.5141862601
 20
31.0673661609
 11
539.5719992012
 21
30.9060491937
 12
539.2251242012
 22
30.9705762839
 13
539.2251242012
 23
30.9705762839
  0
SOLID
  8
0
 62
7
  6
CONTINUOUS
 10
539.2829364807
 20
30.8737848904
 11
539.2251242012
 21
30.9705762839
 12
539.5719992012
 22
30.9060491937
 13
539.5719992012
 23
30.9060491937
  0
SOLID
  8
0
 62
7
  6
CONTINUOUS
 10
539.2829364807
 20
30.8737848904
 11
539.5719992012
 21
30.9060491937
 12
539.3407487601
 22
30.8092576254
 13
539.3407487601
 23
30.8092576254
  0
SOLID
  8
0
 62
7
  6
CONTINUOUS
 10
539.5719992012
 20
30.9060491937
 11
539.6298114807
 21
30.8092576254
 12
539.3407487601
 22
30.8092576254
 13
539.3407487601
 23
30.8092576254
  0
SOLID
  8
0
 62
7
  6
CONTINUOUS
 10
534.8891865358
 20
31.035103216
 11
534.9469989807
 21
31.1318946289
 12
535.2360615358
 22
31.1318946289
 13
535.2360615358
 23
31.1318946289
  0
SOLID
  8
0
 62
7
  6
CONTINUOUS
 10
535.2360615358
 20
31.1318946289
 11
535.1782489255
 21
31.0028390707
 12
534.8891865358
 22
31.035103216
 13
534.8891865358
 23
31.035103216
  0
SOLID
  8
0
 62
7
  6
CONTINUOUS
 10
534.7157489531
 20
30.9705762839
 11
534.8891865358
 21
31.035103216
 12
535.1782489255
 22
31.0028390707
 13
535.1782489255
 23
31.0028390707
  0
SOLID
  8
0
 62
7
  6
CONTINUOUS
 10
534.7157489531
 20
30.9705762839
 11
535.1782489255
 21
31.0028390707
 12
534.3110615082
 22
30.9383119806
 13
534.3110615082
 23
30.9383119806
  0
SOLID
  8
0
 62
7
  6
CONTINUOUS
 10
535.1782489255
 20
31.0028390707
 11
535.0048114255
 21
30.9060491937
 12
534.3110615082
 22
30.9383119806
 13
534.3110615082
 23
30.9383119806
  0
SOLID
  8
0
 62
7
  6
CONTINUOUS
 10
533.8485614944
 20
30.8737848904
 11
534.3110615082
 21
30.9383119806
 12
535.0048114255
 22
30.9060491937
 13
535.0048114255
 23
30.9060491937
  0
SOLID
  8
0
 62
7
  6
CONTINUOUS
 10
533.8485614944
 20
30.8737848904
 11
535.0048114255
 21
30.9060491937
 12
534.0219989944
 22
30.8415207131
 13
534.0219989944
 23
30.8415207131
  0
SOLID
  8
0
 62
7
  6
CONTINUOUS
 10
535.0048114255
 20
30.9060491937
 11
534.7735614807
 21
30.8415207131
 12
534.0219989944
 22
30.8415207131
 13
534.0219989944
 23
30.8415207131
  0
SOLID
  8
0
 62
7
  6
CONTINUOUS
 10
534.3688739531
 20
30.8092578002
 11
534.0219989944
 21
30.8415207131
 12
534.7735614807
 22
30.8415207131
 13
534.7735614807
 23
30.8415207131
  0
SOLID
  8
0
 62
7
  6
CONTINUOUS
 10
537.8376238704
 20
30.9705762839
 11
538.0688739807
 21
31.0673661609
 12
538.1266865909
 22
31.0028390707
 13
538.1266865909
 23
31.0028390707
  0
SOLID
  8
0
 62
7
  6
CONTINUOUS
 10
538.1266865909
 20
31.0028390707
 11
538.3579363704
 21
30.9383119806
 12
537.8376238704
 22
30.9705762839
 13
537.8376238704
 23
30.9705762839
  0
SOLID
  8
0
 62
7
  6
CONTINUOUS
 10
538.0110613704
 20
30.8737848904
 11
537.8376238704
 21
30.9705762839
 12
538.3579363704
 22
30.9383119806
 13
538.3579363704
 23
30.9383119806
  0
SOLID
  8
0
 62
7
  6
CONTINUOUS
 10
538.7048113704
 20
30.9383119664
 11
538.9938737601
 21
31.0028390707
 12
539.2251242012
 22
30.9705762839
 13
539.2251242012
 23
30.9705762839
  0
SOLID
  8
0
 62
7
  6
CONTINUOUS
 10
539.2251242012
 20
30.9705762839
 11
539.1673112601
 21
30.9060491937
 12
538.7048113704
 22
30.9383119664
 13
538.7048113704
 23
30.9383119664
  0
SOLID
  8
0
 62
7
  6
CONTINUOUS
 10
539.1673112601
 20
30.9060491937
 11
538.0110613704
 21
30.8737848904
 12
538.7048113704
 22
30.9383119664
 13
538.7048113704
 23
30.9383119664
  0
SOLID
  8
0
 62
7
  6
CONTINUOUS
 10
538.0110613704
 20
30.8737848904
 11
538.3579363704
 21
30.9383119664
 12
538.7048113704
 22
30.9383119664
 13
538.7048113704
 23
30.9383119664
  0
SOLID
  8
0
 62
7
  6
CONTINUOUS
 10
538.0110613704
 20
30.8737848904
 11
539.1673112601
 21
30.9060491937
 12
538.1266865909
 22
30.8415205568
 13
538.1266865909
 23
30.8415205568
  0
SOLID
  8
0
 62
7
  6
CONTINUOUS
 10
539.1673112601
 20
30.9060491937
 11
538.9938737601
 21
30.8415205568
 12
538.1266865909
 22
30.8415205568
 13
538.1266865909
 23
30.8415205568
  0
SOLID
  8
0
 62
7
  6
CONTINUOUS
 10
538.3579363704
 20
30.8092577215
 11
538.1266865909
 21
30.8415205568
 12
538.9938737601
 22
30.8415205568
 13
538.9938737601
 23
30.8415205568
  0
SOLID
  8
0
 62
7
  6
CONTINUOUS
 10
538.9938737601
 20
30.8415205568
 11
538.7048113704
 21
30.8092577215
 12
538.3579363704
 22
30.8092577215
 13
538.3579363704
 23
30.8092577215
  0
SOLID
  8
0
 62
7
  6
CONTINUOUS
 10
543.3876242012
 20
30.9705762839
 11
543.0407492012
 21
30.9383119664
 12
543.2719989807
 22
31.0028390707
 13
543.2719989807
 23
31.0028390707
  0
SOLID
  8
0
 62
7
  6
CONTINUOUS
 10
543.2719989807
 20
31.0028390707
 11
543.0407492012
 21
30.9383119664
 12
543.2141867012
 22
31.0673661467
 13
543.2141867012
 23
31.0673661467
  0
SOLID
  8
0
 62
7
  6
CONTINUOUS
 10
543.0407492012
 20
30.9383119664
 11
542.9251239807
 21
31.0673661467
 12
543.2141867012
 22
31.0673661467
 13
543.2141867012
 23
31.0673661467
  0
SOLID
  8
0
 62
7
  6
CONTINUOUS
 10
543.3876242012
 20
30.9705762839
 11
543.7344992012
 21
30.9383119664
 12
543.0407492012
 22
30.9383119664
 13
543.0407492012
 23
30.9383119664
  0
SOLID
  8
0
 62
7
  6
CONTINUOUS
 10
540.0923117012
 20
30.8092578002
 11
540.0923117012
 21
31.841695792
 12
540.3813737601
 22
30.8092578002
 13
540.3813737601
 23
31.841695792
  0
ENDBLK
  8
0
  6
BYBLOCK
 62
0
  0
BLOCK
  8
0
 62
2
  6
CONTINUOUS
  2
SYMBOL_2_BL0
 70
64
 10
416.1419631151
 20
19.7009994242
  0
TEXT
  8
0
 62
7
  6
CONTINUOUS
 10
402.4066669574
 20
19.0744135318
  7
TEXTSTYLE_3
 40
2.7338706658
  1
Ammeraal Beltech
 41
1.0
 51
15.0
 72
0
  0
TEXT
  8
0
 62
7
  6
CONTINUOUS
 10
413.2074677831
 20
16.800876859
  7
TEXTSTYLE_4
 40
1.0935482663
  1
Innovation & Service in Belting
 41
1.0
 72
0
  0
LINE
  8
0
 62
7
  6
CONTINUOUS
 10
396.382126306
 20
19.8410068404
 11
397.1602782994
 21
23.5019241381
  0
LINE
  8
0
 62
7
  6
CONTINUOUS
 10
407.2554465892
 20
27.1653180497
 11
397.6480960424
 21
24.0437006284
  0
LINE
  8
0
 62
7
  6
CONTINUOUS
 10
396.6074096383
 20
19.1476560374
 11
404.1144848995
 21
12.3882551114
  0
LINE
  8
0
 62
7
  6
CONTINUOUS
 10
396.869944049
 20
20.3827833308
 11
407.6782134142
 21
23.8946029297
  0
LINE
  8
0
 62
7
  6
CONTINUOUS
 10
407.674008277
 20
13.544814366
 11
399.2285486083
 21
21.1491404077
  0
LINE
  8
0
 62
7
  6
CONTINUOUS
 10
408.1938309968
 20
26.320392934
 11
407.2172714596
 21
21.7260415315
  0
LINE
  8
0
 62
7
  6
CONTINUOUS
 10
406.5174695119
 20
18.4337322177
 11
405.8310213004
 21
15.2042472933
  0
LINE
  8
0
 62
7
  6
CONTINUOUS
 10
408.8749270954
 20
13.9350165436
 11
409.831158631
 21
18.4337322177
  0
LINE
  8
0
 62
7
  6
CONTINUOUS
 10
410.5309605787
 20
21.7260415315
 11
410.9752023811
 21
23.8160348909
  0
LINE
  8
0
 62
7
  6
CONTINUOUS
 10
404.8275859748
 20
12.2366807987
 11
408.3871093524
 21
13.3932400533
  0
LINE
  8
0
 62
7
  6
CONTINUOUS
 10
407.9685476645
 20
27.013743737
 11
410.7499190488
 21
24.5093856939
  0
ARC
  8
0
 62
7
  6
CONTINUOUS
 10
397.8733793747
 20
23.3503498254
 40
0.7290321776
 50
108.0
 51
168.0
  0
ARC
  8
0
 62
7
  6
CONTINUOUS
 10
407.4807299215
 20
26.4719672466
 40
0.7290321776
 50
348.0
 51
108.0
  0
ARC
  8
0
 62
7
  6
CONTINUOUS
 10
410.2621013058
 20
23.9676092036
 40
0.7290321776
 50
348.0
 51
48.0
  0
ARC
  8
0
 62
7
  6
CONTINUOUS
 10
404.6023026425
 20
12.9300316018
 40
0.7290321776
 50
228.0
 51
288.0
  0
ARC
  8
0
 62
7
  6
CONTINUOUS
 10
397.0952273813
 20
19.6894325277
 40
0.7290321776
 50
108.0
 51
228.0
  0
ARC
  8
0
 62
7
  6
CONTINUOUS
 10
408.1618260201
 20
14.0865908563
 40
0.7290321776
 50
228.0
 51
348.0
  0
ENDBLK
  8
0
  6
BYBLOCK
 62
0
  0
ENDSEC
  0
SECTION
  2
ENTITIES
  0
TEXT
  8
0
 62
5
  6
CONTINUOUS
 10
480.0
 20
25.636
  7
TEXTSTYLE_2
 40
2.8
  1
Scale :
 41
0.6
 51
0.000019
 72
0
  0
TEXT
  8
0
 62
5
  6
CONTINUOUS
 10
500.0
 20
25.636
  7
TEXTSTYLE_2
 40
2.8
  1
Belt type:
 41
0.6
 51
0.000019
 72
0
  0
INSERT
  8
0
 62
2
  6
CONTINUOUS
  2
SYMBOL_2_BL0
 10
416.1419631151
 20
19.7009994242
  0
INSERT
  8
0
 62
2
  6
CONTINUOUS
  2
SYMBOL_3_BL1
 10
557.4079930916
 20
35.8092573885
  0
LINE
  8
0
 62
2
  6
CONTINUOUS
 10
394.0
 20
30.0
 11
584.0
 21
30.0
  0
LINE
  8
0
 62
2
  6
CONTINUOUS
 10
394.0
 20
30.0
 11
394.0
 21
10.0
  0
LINE
  8
0
 62
2
  6
CONTINUOUS
 10
394.0
 20
10.0
 11
584.0
 21
10.0
  0
LINE
  8
0
 62
2
  6
CONTINUOUS
 10
479.0
 20
30.0
 11
479.0
 21
10.0
  0
LINE
  8
0
 62
2
  6
CONTINUOUS
 10
499.0
 20
30.0
 11
499.0
 21
10.0
  0
LINE
  8
0
 62
2
  6
CONTINUOUS
 10
584.0
 20
30.0
 11
584.0
 21
10.0
  0
TEXT
  8
0
 62
5
  6
CONTINUOUS
 10
397.0
 20
23.303
  7
TEXTSTYLE_5
 40
1.52
  1
                                                                     Ammeraal Beltech Modular A/S
 41
1.0
 72
0
  0
TEXT
  8
0
 62
5
  6
CONTINUOUS
 10
397.0
 20
20.595
  7
TEXTSTYLE_5
 40
1.5
  1
                                                                      Hjulmagervej 21, 7100 Vejle,  DK
 41
1.0
 72
0
  0
TEXT
  8
0
 62
5
  6
CONTINUOUS
 10
397.0
 20
17.881
  7
TEXTSTYLE_5
 40
1.495
  1
                                                                      tel: 
 41
1.0
 72
0
  0
TEXT
  8
0
 62
5
  6
CONTINUOUS
 10
441.9869465649
 20
17.881
  7
TEXTSTYLE_5
 40
1.51
  1
+45 75723100     fax: +45 75723348
 41
1.0
 72
0
  0
TEXT
  8
0
 62
5
  6
CONTINUOUS
 10
397.0
 20
15.177
  7
TEXTSTYLE_5
 40
1.5
  1
                                                                      admin@unichains.dk  www.unichains.com
 41
1.0
 72
0
  0
TEXT
  8
0
 62
5
  6
CONTINUOUS
 10
483.75
 20
13.75
  7
TEXTSTYLE_6
 40
5.0
  1
1:1
 41
0.7
 72
1
 11
489.0
 21
13.75
  0
TEXT
  8
0
 62
5
  6
CONTINUOUS
 10
502.0
 20
13.75
  7
TEXTSTYLE_7
 40
7.5
  1
uni Flex ONE O K1500
 41
0.5025
 72
0
  0
LINE
  8
0
 62
7
  6
CONTINUOUS
 10
0.0
 20
0.0
 11
0.0
 21
420.0
  0
LINE
  8
0
 62
7
  6
CONTINUOUS
 10
10.0
 20
10.0
 11
10.0
 21
410.0
  0
LINE
  8
0
 62
7
  6
CONTINUOUS
 10
0.0
 20
0.0
 11
594.0
 21
0.0
  0
LINE
  8
0
 62
7
  6
CONTINUOUS
 10
10.0
 20
10.0
 11
584.0
 21
10.0
  0
LINE
  8
0
 62
7
  6
CONTINUOUS
 10
394.0
 20
30.0
 11
584.0
 21
30.0
  0
LINE
  8
0
 62
7
  6
CONTINUOUS
 10
179.0
 20
5.0
 11
179.0
 21
10.0
  0
LINE
  8
0
 62
7
  6
CONTINUOUS
 10
179.0
 20
410.0
 11
179.0
 21
415.0
  0
LINE
  8
0
 62
7
  6
CONTINUOUS
 10
594.0
 20
420.0
 11
584.0
 21
410.0
  0
LINE
  8
0
 62
7
  6
CONTINUOUS
 10
384.0
 20
410.0
 11
384.0
 21
415.0
  0
LINE
  8
0
 62
7
  6
CONTINUOUS
 10
584.0
 20
297.0
 11
589.0
 21
297.0
  0
LINE
  8
0
 62
7
  6
CONTINUOUS
 10
10.0
 20
410.0
 11
584.0
 21
410.0
  0
LINE
  8
0
 62
7
  6
CONTINUOUS
 10
0.0
 20
420.0
 11
594.0
 21
420.0
  0
LINE
  8
0
 62
7
  6
CONTINUOUS
 10
584.0
 20
10.0
 11
584.0
 21
410.0
  0
LINE
  8
0
 62
7
  6
CONTINUOUS
 10
594.0
 20
0.0
 11
594.0
 21
420.0
  0
POLYLINE
  8
0
 62
7
  6
CONTINUOUS
 66
1
 70
0
  0
VERTEX
  8
0
 62
7
  6
CONTINUOUS
 10
62.055389818
 20
270.7942763432
  0
VERTEX
  8
0
 62
7
  6
CONTINUOUS
 10
62.0576987683
 20
270.6323036956
  0
VERTEX
  8
0
 62
7
  6
CONTINUOUS
 10
62.0644219322
 20
270.4767947287
  0
VERTEX
  8
0
 62
7
  6
CONTINUOUS
 10
62.0752922035
 20
270.3271749157
  0
VERTEX
  8
0
 62
7
  6
CONTINUOUS
 10
62.0900747586
 20
270.1830474946
  0
VERTEX
  8
0
 62
7
  6
CONTINUOUS
 10
62.1085586909
 20
270.0440830853
  0
VERTEX
  8
0
 62
7
  6
CONTINUOUS
 10
62.1305711374
 20
269.9098922609
  0
VERTEX
  8
0
 62
7
  6
CONTINUOUS
 10
62.1559730316
 20
269.7800979569
  0
VERTEX
  8
0
 62
7
  6
CONTINUOUS
 10
62.1846331401
 20
269.6544417443
  0
VERTEX
  8
0
 62
7
  6
CONTINUOUS
 10
62.2164303198
 20
269.5327121241
  0
VERTEX
  8
0
 62
7
  6
CONTINUOUS
 10
62.2512705449
 20
269.414668909
  0
VERTEX
  8
0
 62
7
  6
CONTINUOUS
 10
62.2890837076
 20
269.300070397
  0
VERTEX
  8
0
 62
7
  6
CONTINUOUS
 10
62.3298196661
 20
269.1886885263
  0
VERTEX
  8
0
 62
7
  6
CONTINUOUS
 10
62.3734526814
 20
269.0802965889
  0
VERTEX
  8
0
 62
7
  6
CONTINUOUS
 10
62.4199813257
 20
268.9746729769
  0
VERTEX
  8
0
 62
7
  6
CONTINUOUS
 10
62.469418584
 20
268.8716232442
  0
VERTEX
  8
0
 62
7
  6
CONTINUOUS
 10
62.5217985744
 20
268.7709617585
  0
VERTEX
  8
0
 62
7
  6
CONTINUOUS
 10
62.5771706301
 20
268.6725226364
  0
VERTEX
  8
0
 62
7
  6
CONTINUOUS
 10
62.6355682118
 20
268.5762062829
  0
VERTEX
  8
0
 62
7
  6
CONTINUOUS
 10
62.6970130701
 20
268.4819542937
  0
VERTEX
  8
0
 62
7
  6
CONTINUOUS
 10
62.7615386885
 20
268.3897056257
  0
VERTEX
  8
0
 62
7
  6
CONTINUOUS
 10
62.8292258966
 20
268.2993528933
  0
VERTEX
  8
0
 62
7
  6
CONTINUOUS
 10
62.9002593666
 20
268.2106906119
  0
VERTEX
  8
0
 62
7
  6
CONTINUOUS
 10
62.974858293
 20
268.1235277955
  0
VERTEX
  8
0
 62
7
  6
CONTINUOUS
 10
63.0531965657
 20
268.0377746956
  0
VERTEX
  8
0
 62
7
  6
CONTINUOUS
 10
63.1353887437
 20
267.9534322986
  0
VERTEX
  8
0
 62
7
  6
CONTINUOUS
 10
63.2215418043
 20
267.8705204005
  0
VERTEX
  8
0
 62
7
  6
CONTINUOUS
 10
63.3117777353
 20
267.7890537269
  0
VERTEX
  8
0
 62
7
  6
CONTINUOUS
 10
63.4063375527
 20
267.7089593459
  0
VERTEX
  8
0
 62
7
  6
CONTINUOUS
 10
63.5055772079
 20
267.6301085322
  0
VERTEX
  8
0
 62
7
  6
CONTINUOUS
 10
63.6098448493
 20
267.5524282285
  0
VERTEX
  8
0
 62
7
  6
CONTINUOUS
 10
63.7194630306
 20
267.4759044767
  0
VERTEX
  8
0
 62
7
  6
CONTINUOUS
 10
63.8347376017
 20
267.40056579
  0
VERTEX
  8
0
 62
7
  6
CONTINUOUS
 10
63.9559428624
 20
267.3264844258
  0
VERTEX
  8
0
 62
7
  6
CONTINUOUS
 10
64.0833289451
 20
267.2537629688
  0
VERTEX
  8
0
 62
7
  6
CONTINUOUS
 10
64.2173400884
 20
267.1824154834
  0
VERTEX
  8
0
 62
7
  6
CONTINUOUS
 10
64.3586658374
 20
267.1123764907
  0
VERTEX
  8
0
 62
7
  6
CONTINUOUS
 10
64.5079920115
 20
267.0436495094
  0
VERTEX
  8
0
 62
7
  6
CONTINUOUS
 10
64.6658796158
 20
266.9763490779
  0
VERTEX
  8
0
 62
7
  6
CONTINUOUS
 10
64.8321136587
 20
266.9109206473
  0
VERTEX
  8
0
 62
7
  6
CONTINUOUS
 10
65.0076391693
 20
266.8473451777
  0
VERTEX
  8
0
 62
7
  6
CONTINUOUS
 10
65.1938041566
 20
266.7855568132
  0
VERTEX
  8
0
 62
7
  6
CONTINUOUS
 10
65.3917363768
 20
266.7256730687
  0
VERTEX
  8
0
 62
7
  6
CONTINUOUS
 10
65.6010341591
 20
266.6682945439
  0
VERTEX
  8
0
 62
7
  6
CONTINUOUS
 10
65.8230909615
 20
266.6135146495
  0
VERTEX
  8
0
 62
7
  6
CONTINUOUS
 10
66.0598938202
 20
266.5614096096
  0
VERTEX
  8
0
 62
7
  6
CONTINUOUS
 10
66.3122870446
 20
266.5124205221
  0
VERTEX
  8
0
 62
7
  6
CONTINUOUS
 10
66.5807136509
 20
266.4670828051
  0
VERTEX
  8
0
 62
7
  6
CONTINUOUS
 10
66.8670988193
 20
266.4257243593
  0
VERTEX
  8
0
 62
7
  6
CONTINUOUS
 10
67.1732462075
 20
266.3888135688
  0
VERTEX
  8
0
 62
7
  6
CONTINUOUS
 10
67.5001145715
 20
266.3569972806
  0
VERTEX
  8
0
 62
7
  6
CONTINUOUS
 10
67.8491203328
 20
266.330914405
  0
VERTEX
  8
0
 62
7
  6
CONTINUOUS
 10
68.2236100462
 20
266.3111800575
  0
VERTEX
  8
0
 62
7
  6
CONTINUOUS
 10
68.6244207504
 20
266.2986761971
  0
VERTEX
  8
0
 62
7
  6
CONTINUOUS
 10
69.055389818
 20
266.2942753385
  0
SEQEND
  0
LINE
  8
0
 62
7
  6
CONTINUOUS
 10
49.355389818
 20
288.794275341
 11
49.355389818
 21
293.7942753361
  0
LINE
  8
0
 62
7
  6
CONTINUOUS
 10
62.055389818
 20
302.7942753385
 11
62.055389818
 21
297.002479271
  0
LINE
  8
0
 62
7
  6
CONTINUOUS
 10
62.055389818
 20
283.586071406
 11
62.055389818
 21
270.7942763432
  0
LINE
  8
0
 62
7
  6
CONTINUOUS
 10
85.055389818
 20
287.6997187643
 11
85.055389818
 21
295.5637080238
  0
LINE
  8
0
 62
7
  6
CONTINUOUS
 10
86.055389818
 20
261.1932546402
 11
86.055389818
 21
256.8715890327
  0
LINE
  8
0
 62
7
  6
CONTINUOUS
 10
86.2495145623
 20
255.8099562379
 11
86.2544944986
 21
255.7968868633
  0
LINE
  8
0
 62
7
  6
CONTINUOUS
 10
86.2444604064
 20
255.8234088037
 11
86.2495145623
 21
255.8099562379
  0
LINE
  8
0
 62
7
  6
CONTINUOUS
 10
86.2398964679
 20
255.8357298418
 11
86.2444604064
 21
255.8234088037
  0
LINE
  8
0
 62
7
  6
CONTINUOUS
 10
86.2368908817
 20
255.8439388541
 11
86.2398964679
 21
255.8357298418
  0
LINE
  8
0
 62
7
  6
CONTINUOUS
 10
86.2274077555
 20
255.8703452546
 11
86.2300069984
 21
255.8630335651
  0
LINE
  8
0
 62
7
  6
CONTINUOUS
 10
86.2190814126
 20
255.8941283945
 11
86.2274077555
 21
255.8703452546
  0
LINE
  8
0
 62
7
  6
CONTINUOUS
 10
86.2141142801
 20
255.9086716717
 11
86.2190814126
 21
255.8941283945
  0
LINE
  8
0
 62
7
  6
CONTINUOUS
 10
86.209001128
 20
255.9239997332
 11
86.2141142801
 21
255.9086716717
  0
LINE
  8
0
 62
7
  6
CONTINUOUS
 10
86.2041078009
 20
255.9387691768
 11
86.2061271631
 21
255.9325637085
  0
LINE
  8
0
 62
7
  6
CONTINUOUS
 10
86.1988016388
 20
255.9556819106
 11
86.2043461276
 21
255.938020663
  0
LINE
  8
0
 62
7
  6
CONTINUOUS
 10
86.1840220019
 20
256.003742479
 11
86.1895351742
 21
255.9845280466
  0
LINE
  8
0
 62
7
  6
CONTINUOUS
 10
89.0266315855
 20
298.3134000693
 11
88.8140109585
 21
302.3704433167
  0
LINE
  8
0
 62
7
  6
CONTINUOUS
 10
95.055389818
 20
302.8442753381
 11
95.055389818
 21
297.992668558
  0
LINE
  8
0
 62
7
  6
CONTINUOUS
 10
98.055389818
 20
256.8715889229
 11
98.055389818
 21
267.0974095565
  0
LINE
  8
0
 62
7
  6
CONTINUOUS
 10
99.055389818
 20
299.5200771197
 11
99.055389818
 21
294.0388619063
  0
LINE
  8
0
 62
7
  6
CONTINUOUS
 10
96.7790618342
 20
285.8517419873
 11
96.6666821362
 21
286.2711487302
  0
LINE
  8
0
 62
7
  6
CONTINUOUS
 10
111.055389818
 20
294.0388619076
 11
111.055389818
 21
299.5200771197
  0
LINE
  8
0
 62
7
  6
CONTINUOUS
 10
112.055389818
 20
267.0974095565
 11
112.055389818
 21
256.8715890193
  0
LINE
  8
0
 62
7
  6
CONTINUOUS
 10
115.055389818
 20
297.1963326152
 11
115.055389818
 21
302.8442753385
  0
POLYLINE
  8
0
 62
7
  6
CONTINUOUS
 66
1
 70
0
  0
VERTEX
  8
0
 62
7
  6
CONTINUOUS
 10
111.0553898658
 20
295.8000910015
  0
VERTEX
  8
0
 62
7
  6
CONTINUOUS
 10
111.0635369314
 20
295.9271853101
  0
VERTEX
  8
0
 62
7
  6
CONTINUOUS
 10
111.0877712618
 20
296.0522137195
  0
VERTEX
  8
0
 62
7
  6
CONTINUOUS
 10
111.1276998605
 20
296.1731482501
  0
VERTEX
  8
0
 62
7
  6
CONTINUOUS
 10
111.1826751548
 20
296.2880273506
  0
VERTEX
  8
0
 62
7
  6
CONTINUOUS
 10
111.2518054901
 20
296.3949876719
  0
VERTEX
  8
0
 62
7
  6
CONTINUOUS
 10
111.3339695978
 20
296.4922943127
  0
VERTEX
  8
0
 62
7
  6
CONTINUOUS
 10
111.4278347875
 20
296.5783689654
  0
VERTEX
  8
0
 62
7
  6
CONTINUOUS
 10
111.5318785965
 20
296.6518155374
  0
VERTEX
  8
0
 62
7
  6
CONTINUOUS
 10
111.644413488
 20
296.711442773
  0
VERTEX
  8
0
 62
7
  6
CONTINUOUS
 10
111.7636142078
 20
296.7562835558
  0
VERTEX
  8
0
 62
7
  6
CONTINUOUS
 10
111.8875473875
 20
296.7856105944
  0
VERTEX
  8
0
 62
7
  6
CONTINUOUS
 10
112.014202902
 20
296.7989482179
  0
VERTEX
  8
0
 62
7
  6
CONTINUOUS
 10
112.0972654716
 20
296.798919589
  0
SEQEND
  0
LINE
  8
0
 62
7
  6
CONTINUOUS
 10
113.4550203679
 20
286.3119134287
 11
113.3317178017
 21
285.8517419873
  0
LINE
  8
0
 62
7
  6
CONTINUOUS
 10
121.055389818
 20
302.8442753381
 11
121.055389818
 21
296.9029456889
  0
LINE
  8
0
 62
7
  6
CONTINUOUS
 10
124.055389818
 20
256.8715889229
 11
124.055389818
 21
267.0974095565
  0
LINE
  8
0
 62
7
  6
CONTINUOUS
 10
125.055389818
 20
299.5200771197
 11
125.055389818
 21
294.0388619063
  0
LINE
  8
0
 62
7
  6
CONTINUOUS
 10
89.3180288888
 20
253.1535543748
 11
89.3093525041
 21
253.1602877383
  0
LINE
  8
0
 62
7
  6
CONTINUOUS
 10
89.3093525041
 20
253.1602877383
 11
89.1055666956
 21
253.3282274005
  0
POLYLINE
  8
0
 62
7
  6
CONTINUOUS
 66
1
 70
0
  0
VERTEX
  8
0
 62
7
  6
CONTINUOUS
 10
89.0552586751
 20
253.3706469505
  0
VERTEX
  8
0
 62
7
  6
CONTINUOUS
 10
89.1834409194
 20
253.2625641225
  0
VERTEX
  8
0
 62
7
  6
CONTINUOUS
 10
89.286832249
 20
253.1783040947
  0
VERTEX
  8
0
 62
7
  6
CONTINUOUS
 10
89.366464532
 20
253.1151281656
  0
VERTEX
  8
0
 62
7
  6
CONTINUOUS
 10
89.4246201573
 20
253.0699148475
  0
VERTEX
  8
0
 62
7
  6
CONTINUOUS
 10
89.4640081946
 20
253.0397281286
  0
VERTEX
  8
0
 62
7
  6
CONTINUOUS
 10
89.4947113543
 20
253.0164385453
  0
SEQEND
  0
POLYLINE
  8
0
 62
7
  6
CONTINUOUS
 66
1
 70
0
  0
VERTEX
  8
0
 62
7
  6
CONTINUOUS
 10
89.0860259708
 20
253.3443308905
  0
VERTEX
  8
0
 62
7
  6
CONTINUOUS
 10
88.8271383366
 20
253.57341221
  0
VERTEX
  8
0
 62
7
  6
CONTINUOUS
 10
88.5394002282
 20
253.8496769773
  0
SEQEND
  0
POLYLINE
  8
0
 62
7
  6
CONTINUOUS
 66
1
 70
0
  0
VERTEX
  8
0
 62
7
  6
CONTINUOUS
 10
88.5394002282
 20
253.8496769773
  0
VERTEX
  8
0
 62
7
  6
CONTINUOUS
 10
88.72954378
 20
253.6644487831
  0
VERTEX
  8
0
 62
7
  6
CONTINUOUS
 10
88.9030539467
 20
253.5044069115
  0
VERTEX
  8
0
 62
7
  6
CONTINUOUS
 10
89.0552586751
 20
253.3706469505
  0
SEQEND
  0
LINE
  8
0
 62
7
  6
CONTINUOUS
 10
122.7790618342
 20
285.8517419873
 11
122.6557592681
 21
286.3119134287
  0
LINE
  8
0
 62
7
  6
CONTINUOUS
 10
137.055389818
 20
294.0388378379
 11
137.055389818
 21
299.5200771197
  0
LINE
  8
0
 62
7
  6
CONTINUOUS
 10
138.055389818
 20
267.0974095565
 11
138.055389818
 21
256.8715890193
  0
LINE
  8
0
 62
7
  6
CONTINUOUS
 10
141.055389818
 20
296.1066097462
 11
141.055389818
 21
302.8442753385
  0
POLYLINE
  8
0
 62
7
  6
CONTINUOUS
 66
1
 70
0
  0
VERTEX
  8
0
 62
7
  6
CONTINUOUS
 10
137.0553898658
 20
294.7103681324
  0
VERTEX
  8
0
 62
7
  6
CONTINUOUS
 10
137.0635369314
 20
294.837462441
  0
VERTEX
  8
0
 62
7
  6
CONTINUOUS
 10
137.0877712618
 20
294.9624908504
  0
VERTEX
  8
0
 62
7
  6
CONTINUOUS
 10
137.1276998605
 20
295.083425381
  0
VERTEX
  8
0
 62
7
  6
CONTINUOUS
 10
137.1826751548
 20
295.1983044816
  0
VERTEX
  8
0
 62
7
  6
CONTINUOUS
 10
137.2518054901
 20
295.3052648029
  0
VERTEX
  8
0
 62
7
  6
CONTINUOUS
 10
137.3339695978
 20
295.4025714436
  0
VERTEX
  8
0
 62
7
  6
CONTINUOUS
 10
137.4278347875
 20
295.4886460963
  0
VERTEX
  8
0
 62
7
  6
CONTINUOUS
 10
137.5318785965
 20
295.5620926684
  0
VERTEX
  8
0
 62
7
  6
CONTINUOUS
 10
137.644413488
 20
295.6217199039
  0
VERTEX
  8
0
 62
7
  6
CONTINUOUS
 10
137.7636142078
 20
295.6665606867
  0
VERTEX
  8
0
 62
7
  6
CONTINUOUS
 10
137.8875473875
 20
295.6958877254
  0
VERTEX
  8
0
 62
7
  6
CONTINUOUS
 10
138.014202902
 20
295.7092253488
  0
VERTEX
  8
0
 62
7
  6
CONTINUOUS
 10
138.0972654716
 20
295.70919672
  0
SEQEND
  0
LINE
  8
0
 62
7
  6
CONTINUOUS
 10
139.4550203679
 20
286.3119134287
 11
139.3317178017
 21
285.8517419873
  0
LINE
  8
0
 62
7
  6
CONTINUOUS
 10
147.055389818
 20
302.8442753381
 11
147.055389818
 21
295.8442753389
  0
LINE
  8
0
 62
7
  6
CONTINUOUS
 10
150.055389818
 20
256.8715890193
 11
150.055389818
 21
267.0974095565
  0
LINE
  8
0
 62
7
  6
CONTINUOUS
 10
151.055389818
 20
299.5200771197
 11
151.055389818
 21
294.0388378368
  0
POLYLINE
  8
0
 62
7
  6
CONTINUOUS
 66
1
 70
0
  0
VERTEX
  8
0
 62
7
  6
CONTINUOUS
 10
101.875054752
 20
303.5323116289
  0
VERTEX
  8
0
 62
7
  6
CONTINUOUS
 10
101.7812808876
 20
303.4725158405
  0
VERTEX
  8
0
 62
7
  6
CONTINUOUS
 10
101.6814468853
 20
303.4235028642
  0
VERTEX
  8
0
 62
7
  6
CONTINUOUS
 10
101.5767876049
 20
303.3858789874
  0
VERTEX
  8
0
 62
7
  6
CONTINUOUS
 10
101.4685975721
 20
303.3601096128
  0
VERTEX
  8
0
 62
7
  6
CONTINUOUS
 10
101.3582149979
 20
303.346513519
  0
VERTEX
  8
0
 62
7
  6
CONTINUOUS
 10
101.2913468333
 20
303.3442753385
  0
SEQEND
  0
LINE
  8
0
 62
7
  6
CONTINUOUS
 10
148.7790618342
 20
285.8517419873
 11
148.6557592681
 21
286.3119134287
  0
LINE
  8
0
 62
7
  6
CONTINUOUS
 10
163.055389818
 20
294.0388378382
 11
163.055389818
 21
299.5200771197
  0
LINE
  8
0
 62
7
  6
CONTINUOUS
 10
164.055389818
 20
267.0974095565
 11
164.055389818
 21
256.8715890193
  0
LINE
  8
0
 62
7
  6
CONTINUOUS
 10
167.055389818
 20
295.8442753385
 11
167.055389818
 21
302.8442753385
  0
LINE
  8
0
 62
7
  6
CONTINUOUS
 10
165.4550203679
 20
286.3119134287
 11
165.3317178017
 21
285.8517419873
  0
POLYLINE
  8
0
 62
7
  6
CONTINUOUS
 66
1
 70
0
  0
VERTEX
  8
0
 62
7
  6
CONTINUOUS
 10
95.5713770431
 20
253.849685346
  0
VERTEX
  8
0
 62
7
  6
CONTINUOUS
 10
95.3805483226
 20
253.6638065248
  0
VERTEX
  8
0
 62
7
  6
CONTINUOUS
 10
95.20752384
 20
253.5042313643
  0
VERTEX
  8
0
 62
7
  6
CONTINUOUS
 10
95.0560144718
 20
253.3710739692
  0
SEQEND
  0
POLYLINE
  8
0
 62
7
  6
CONTINUOUS
 66
1
 70
0
  0
VERTEX
  8
0
 62
7
  6
CONTINUOUS
 10
95.5713770431
 20
253.849685346
  0
VERTEX
  8
0
 62
7
  6
CONTINUOUS
 10
95.2835563398
 20
253.5733411693
  0
VERTEX
  8
0
 62
7
  6
CONTINUOUS
 10
95.0246959162
 20
253.3442840755
  0
SEQEND
  0
POLYLINE
  8
0
 62
7
  6
CONTINUOUS
 66
1
 70
0
  0
VERTEX
  8
0
 62
7
  6
CONTINUOUS
 10
95.0560144718
 20
253.3710739692
  0
VERTEX
  8
0
 62
7
  6
CONTINUOUS
 10
94.9279844147
 20
253.2630991237
  0
VERTEX
  8
0
 62
7
  6
CONTINUOUS
 10
94.8241541335
 20
253.1784697209
  0
VERTEX
  8
0
 62
7
  6
CONTINUOUS
 10
94.7438561699
 20
253.1147675547
  0
VERTEX
  8
0
 62
7
  6
CONTINUOUS
 10
94.6851659466
 20
253.0691480618
  0
VERTEX
  8
0
 62
7
  6
CONTINUOUS
 10
94.6457179502
 20
253.03892455
  0
SEQEND
  0
POLYLINE
  8
0
 62
7
  6
CONTINUOUS
 66
1
 70
0
  0
VERTEX
  8
0
 62
7
  6
CONTINUOUS
 10
127.875054752
 20
303.5323116289
  0
VERTEX
  8
0
 62
7
  6
CONTINUOUS
 10
127.7812808876
 20
303.4725158405
  0
VERTEX
  8
0
 62
7
  6
CONTINUOUS
 10
127.6814468853
 20
303.4235028642
  0
VERTEX
  8
0
 62
7
  6
CONTINUOUS
 10
127.5767876049
 20
303.3858789874
  0
VERTEX
  8
0
 62
7
  6
CONTINUOUS
 10
127.4685975721
 20
303.3601096128
  0
VERTEX
  8
0
 62
7
  6
CONTINUOUS
 10
127.3582149979
 20
303.346513519
  0
VERTEX
  8
0
 62
7
  6
CONTINUOUS
 10
127.2913468333
 20
303.3442753385
  0
SEQEND
  0
LINE
  8
0
 62
7
  6
CONTINUOUS
 10
173.055389818
 20
302.8442753381
 11
173.055389818
 21
295.8442753385
  0
LINE
  8
0
 62
7
  6
CONTINUOUS
 10
176.055389818
 20
256.8715890193
 11
176.055389818
 21
267.0974095565
  0
LINE
  8
0
 62
7
  6
CONTINUOUS
 10
177.055389818
 20
299.5200771197
 11
177.055389818
 21
294.0388378365
  0
POLYLINE
  8
0
 62
7
  6
CONTINUOUS
 66
1
 70
0
  0
VERTEX
  8
0
 62
7
  6
CONTINUOUS
 10
94.8063335901
 20
253.1643322863
  0
VERTEX
  8
0
 62
7
  6
CONTINUOUS
 10
94.8013668342
 20
253.1602391964
  0
VERTEX
  8
0
 62
7
  6
CONTINUOUS
 10
94.792517556
 20
253.1533717182
  0
SEQEND
  0
LINE
  8
0
 62
7
  6
CONTINUOUS
 10
94.6457179502
 20
253.03892455
 11
94.6160595387
 21
253.0164312813
  0
POLYLINE
  8
0
 62
7
  6
CONTINUOUS
 66
1
 70
0
  0
VERTEX
  8
0
 62
7
  6
CONTINUOUS
 10
153.8750547506
 20
303.532311628
  0
VERTEX
  8
0
 62
7
  6
CONTINUOUS
 10
153.7812808865
 20
303.4725158398
  0
VERTEX
  8
0
 62
7
  6
CONTINUOUS
 10
153.6814468843
 20
303.4235028638
  0
VERTEX
  8
0
 62
7
  6
CONTINUOUS
 10
153.5767876041
 20
303.3858789871
  0
VERTEX
  8
0
 62
7
  6
CONTINUOUS
 10
153.4685975715
 20
303.3601096127
  0
VERTEX
  8
0
 62
7
  6
CONTINUOUS
 10
153.3582149976
 20
303.3465135189
  0
VERTEX
  8
0
 62
7
  6
CONTINUOUS
 10
153.2913468333
 20
303.3442753385
  0
SEQEND
  0
LINE
  8
0
 62
7
  6
CONTINUOUS
 10
174.7790618342
 20
285.8517419873
 11
174.6557592681
 21
286.3119134287
  0
LINE
  8
0
 62
7
  6
CONTINUOUS
 10
189.055389818
 20
294.0388378379
 11
189.055389818
 21
299.5200771197
  0
LINE
  8
0
 62
7
  6
CONTINUOUS
 10
190.055389818
 20
267.0974095565
 11
190.055389818
 21
256.8715890193
  0
LINE
  8
0
 62
7
  6
CONTINUOUS
 10
193.055389818
 20
295.8442753385
 11
193.055389818
 21
302.8442753385
  0
LINE
  8
0
 62
7
  6
CONTINUOUS
 10
199.055389818
 20
302.8442753381
 11
199.055389818
 21
295.8442753385
  0
LINE
  8
0
 62
7
  6
CONTINUOUS
 10
191.4550203679
 20
286.3119134287
 11
191.3317178017
 21
285.8517419873
  0
POLYLINE
  8
0
 62
7
  6
CONTINUOUS
 66
1
 70
0
  0
VERTEX
  8
0
 62
7
  6
CONTINUOUS
 10
179.8750547514
 20
303.5323116285
  0
VERTEX
  8
0
 62
7
  6
CONTINUOUS
 10
179.7812808872
 20
303.4725158402
  0
VERTEX
  8
0
 62
7
  6
CONTINUOUS
 10
179.6814468848
 20
303.423502864
  0
VERTEX
  8
0
 62
7
  6
CONTINUOUS
 10
179.5767876046
 20
303.3858789873
  0
VERTEX
  8
0
 62
7
  6
CONTINUOUS
 10
179.4685975719
 20
303.3601096128
  0
VERTEX
  8
0
 62
7
  6
CONTINUOUS
 10
179.3582149978
 20
303.346513519
  0
VERTEX
  8
0
 62
7
  6
CONTINUOUS
 10
179.2913468333
 20
303.3442753385
  0
SEQEND
  0
LINE
  8
0
 62
7
  6
CONTINUOUS
 10
202.055389818
 20
256.8715890193
 11
202.055389818
 21
267.0974095565
  0
LINE
  8
0
 62
7
  6
CONTINUOUS
 10
203.055389818
 20
299.5200771197
 11
203.055389818
 21
294.0388379851
  0
POLYLINE
  8
0
 62
7
  6
CONTINUOUS
 66
1
 70
0
  0
VERTEX
  8
0
 62
7
  6
CONTINUOUS
 10
205.8750547517
 20
303.5323116288
  0
VERTEX
  8
0
 62
7
  6
CONTINUOUS
 10
205.7812808874
 20
303.4725158404
  0
VERTEX
  8
0
 62
7
  6
CONTINUOUS
 10
205.6814468851
 20
303.4235028641
  0
VERTEX
  8
0
 62
7
  6
CONTINUOUS
 10
205.5767876047
 20
303.3858789873
  0
VERTEX
  8
0
 62
7
  6
CONTINUOUS
 10
205.468597572
 20
303.3601096128
  0
VERTEX
  8
0
 62
7
  6
CONTINUOUS
 10
205.3582149979
 20
303.346513519
  0
VERTEX
  8
0
 62
7
  6
CONTINUOUS
 10
205.2913468333
 20
303.3442753385
  0
SEQEND
  0
LINE
  8
0
 62
7
  6
CONTINUOUS
 10
200.7790618342
 20
285.8517419873
 11
200.6557592681
 21
286.3119134287
  0
LINE
  8
0
 62
7
  6
CONTINUOUS
 10
215.055389818
 20
294.0388379851
 11
215.055389818
 21
299.5200771197
  0
LINE
  8
0
 62
7
  6
CONTINUOUS
 10
216.055389818
 20
267.0974095565
 11
216.055389818
 21
256.8715890193
  0
LINE
  8
0
 62
7
  6
CONTINUOUS
 10
219.055389818
 20
295.8442753385
 11
219.055389818
 21
302.8442753385
  0
LINE
  8
0
 62
7
  6
CONTINUOUS
 10
225.055389818
 20
302.8442753381
 11
225.055389818
 21
295.8442753389
  0
LINE
  8
0
 62
7
  6
CONTINUOUS
 10
217.4550203679
 20
286.3119134287
 11
217.3317178017
 21
285.8517419873
  0
POLYLINE
  8
0
 62
7
  6
CONTINUOUS
 66
1
 70
0
  0
VERTEX
  8
0
 62
7
  6
CONTINUOUS
 10
231.8750547506
 20
303.532311628
  0
VERTEX
  8
0
 62
7
  6
CONTINUOUS
 10
231.7812808865
 20
303.4725158398
  0
VERTEX
  8
0
 62
7
  6
CONTINUOUS
 10
231.6814468843
 20
303.4235028638
  0
VERTEX
  8
0
 62
7
  6
CONTINUOUS
 10
231.5767876041
 20
303.3858789871
  0
VERTEX
  8
0
 62
7
  6
CONTINUOUS
 10
231.4685975715
 20
303.3601096127
  0
VERTEX
  8
0
 62
7
  6
CONTINUOUS
 10
231.3582149976
 20
303.3465135189
  0
VERTEX
  8
0
 62
7
  6
CONTINUOUS
 10
231.2913468333
 20
303.3442753385
  0
SEQEND
  0
LINE
  8
0
 62
7
  6
CONTINUOUS
 10
224.5680404915
 20
252.7942753385
 11
219.5427391445
 21
252.7942753385
  0
LINE
  8
0
 62
7
  6
CONTINUOUS
 10
198.5680404915
 20
252.7942753385
 11
193.5427391445
 21
252.7942753385
  0
LINE
  8
0
 62
7
  6
CONTINUOUS
 10
172.5680404915
 20
252.7942753385
 11
167.5427391445
 21
252.7942753385
  0
LINE
  8
0
 62
7
  6
CONTINUOUS
 10
146.5680404915
 20
252.7942753385
 11
141.5427391445
 21
252.7942753385
  0
LINE
  8
0
 62
7
  6
CONTINUOUS
 10
120.5680404915
 20
252.7942753385
 11
115.5427391445
 21
252.7942753385
  0
LINE
  8
0
 62
7
  6
CONTINUOUS
 10
89.5427391445
 20
252.7942753385
 11
94.5680404915
 21
252.7942753385
  0
LINE
  8
0
 62
7
  6
CONTINUOUS
 10
245.5427391445
 20
252.7942753385
 11
259.5680404915
 21
252.7942753385
  0
LINE
  8
SURFACE
 62
7
  6
CONTINUOUS
 10
280.5427391445
 20
252.7942753385
 11
285.5680404915
 21
252.7942753385
  0
LINE
  8
SURFACE
 62
7
  6
CONTINUOUS
 10
306.5427391445
 20
252.7942753385
 11
311.5680404915
 21
252.7942753385
  0
LINE
  8
SURFACE
 62
7
  6
CONTINUOUS
 10
332.5427391445
 20
252.7942753385
 11
337.5680404915
 21
252.7942753385
  0
LINE
  8
0
 62
7
  6
CONTINUOUS
 10
358.5427391445
 20
252.7942753385
 11
363.5680404915
 21
252.7942753385
  0
LINE
  8
SURFACE
 62
7
  6
CONTINUOUS
 10
358.5427391445
 20
252.7942753385
 11
363.5680404915
 21
252.7942753385
  0
LINE
  8
0
 62
7
  6
CONTINUOUS
 10
384.5427391445
 20
252.7942753385
 11
389.5680404915
 21
252.7942753385
  0
LINE
  8
SURFACE
 62
7
  6
CONTINUOUS
 10
384.5427391445
 20
252.7942753385
 11
389.5680404915
 21
252.7942753385
  0
LINE
  8
SURFACE
 62
7
  6
CONTINUOUS
 10
410.5427391445
 20
252.7942753385
 11
415.5680404915
 21
252.7942753385
  0
LINE
  8
0
 62
7
  6
CONTINUOUS
 10
228.055389818
 20
256.8715890193
 11
228.055389818
 21
267.0974095565
  0
LINE
  8
0
 62
7
  6
CONTINUOUS
 10
229.055389818
 20
299.5200771197
 11
229.055389818
 21
294.0388379851
  0
POLYLINE
  8
SURFACE
 62
7
  6
CONTINUOUS
 66
1
 70
0
  0
VERTEX
  8
SURFACE
 62
7
  6
CONTINUOUS
 10
266.8751877791
 20
303.5324072766
  0
VERTEX
  8
SURFACE
 62
7
  6
CONTINUOUS
 10
266.7808188965
 20
303.4722563597
  0
VERTEX
  8
SURFACE
 62
7
  6
CONTINUOUS
 10
266.6803198658
 20
303.4230261974
  0
VERTEX
  8
SURFACE
 62
7
  6
CONTINUOUS
 10
266.5749493104
 20
303.3853334034
  0
VERTEX
  8
SURFACE
 62
7
  6
CONTINUOUS
 10
266.4660268285
 20
303.3596500802
  0
VERTEX
  8
SURFACE
 62
7
  6
CONTINUOUS
 10
266.3549165249
 20
303.3462979368
  0
VERTEX
  8
SURFACE
 62
7
  6
CONTINUOUS
 10
266.2913468333
 20
303.3442753385
  0
SEQEND
  0
POLYLINE
  8
SURFACE
 62
7
  6
CONTINUOUS
 66
1
 70
0
  0
VERTEX
  8
SURFACE
 62
7
  6
CONTINUOUS
 10
264.6314820512
 20
301.2144659742
  0
VERTEX
  8
SURFACE
 62
7
  6
CONTINUOUS
 10
264.7245153603
 20
301.2628945948
  0
VERTEX
  8
SURFACE
 62
7
  6
CONTINUOUS
 10
264.8302830221
 20
301.2961645478
  0
VERTEX
  8
SURFACE
 62
7
  6
CONTINUOUS
 10
264.9465759185
 20
301.3135855333
  0
VERTEX
  8
SURFACE
 62
7
  6
CONTINUOUS
 10
265.0709651277
 20
301.3147983665
  0
VERTEX
  8
SURFACE
 62
7
  6
CONTINUOUS
 10
265.2008525756
 20
301.2997821719
  0
VERTEX
  8
SURFACE
 62
7
  6
CONTINUOUS
 10
265.3335255807
 20
301.2688551049
  0
SEQEND
  0
LINE
  8
DEFAULT_1
 62
7
  6
CENTER
 10
84.055389818
 20
261.2442753385
 11
421.055389818
 21
261.2442753385
  0
LINE
  8
SURFACE
 62
7
  6
CONTINUOUS
 10
436.055389818
 20
266.2942753385
 11
427.055390173
 21
266.2942753385
  0
LINE
  8
0
 62
7
  6
CONTINUOUS
 10
69.055389818
 20
266.2942753385
 11
78.055389463
 21
266.2942753385
  0
LINE
  8
0
 62
7
  6
CONTINUOUS
 10
226.7790618342
 20
285.8517419873
 11
226.6557592681
 21
286.3119134287
  0
LINE
  8
0
 62
7
  6
CONTINUOUS
 10
242.055389818
 20
267.0974095565
 11
242.055389818
 21
256.8715890193
  0
LINE
  8
0
 62
7
  6
CONTINUOUS
 10
245.055389818
 20
295.8442753385
 11
245.055389818
 21
302.8442753385
  0
LINE
  8
DEFAULT_1
 62
7
  6
CENTER
 10
252.555389818
 20
287.7192753385
 11
252.555389818
 21
282.2943753385
  0
LINE
  8
0
 62
2
  6
CONTINUOUS
 10
252.555389818
 20
281.7792753385
 11
252.555389818
 21
278.8092753385
  0
LINE
  8
DEFAULT_1
 62
7
  6
CENTER
 10
252.555389818
 20
272.8692753385
 11
252.555389818
 21
278.2941753385
  0
LINE
  8
0
 62
7
  6
CONTINUOUS
 10
243.4550203679
 20
286.3119134287
 11
243.3317178017
 21
285.8517419873
  0
POLYLINE
  8
SURFACE
 62
7
  6
CONTINUOUS
 66
1
 70
0
  0
VERTEX
  8
SURFACE
 62
7
  6
CONTINUOUS
 10
264.4910850354
 20
301.0764579881
  0
VERTEX
  8
SURFACE
 62
7
  6
CONTINUOUS
 10
264.5531263326
 20
301.151885956
  0
VERTEX
  8
SURFACE
 62
7
  6
CONTINUOUS
 10
264.6314820512
 20
301.2144659742
  0
SEQEND
  0
LINE
  8
DEFAULT_1
 62
7
  6
CENTER
 10
259.980389818
 20
280.2942753385
 11
254.555489818
 21
280.2942753385
  0
LINE
  8
0
 62
2
  6
CONTINUOUS
 10
254.040389818
 20
280.2942753385
 11
251.070389818
 21
280.2942753385
  0
LINE
  8
DEFAULT_1
 62
7
  6
CENTER
 10
245.130389818
 20
280.2942753385
 11
250.555289818
 21
280.2942753385
  0
LINE
  8
SURFACE
 62
7
  6
CONTINUOUS
 10
260.055389818
 20
295.8442753385
 11
260.055389818
 21
302.8442753385
  0
LINE
  8
SURFACE
 62
7
  6
CONTINUOUS
 10
263.055389818
 20
267.0974095565
 11
263.055389818
 21
256.8715890193
  0
POLYLINE
  8
SURFACE
 62
7
  6
CONTINUOUS
 66
1
 70
0
  0
VERTEX
  8
SURFACE
 62
7
  6
CONTINUOUS
 10
292.8751877804
 20
303.5324072775
  0
VERTEX
  8
SURFACE
 62
7
  6
CONTINUOUS
 10
292.7808188976
 20
303.4722563604
  0
VERTEX
  8
SURFACE
 62
7
  6
CONTINUOUS
 10
292.6803198668
 20
303.4230261978
  0
VERTEX
  8
SURFACE
 62
7
  6
CONTINUOUS
 10
292.5749493111
 20
303.3853334036
  0
VERTEX
  8
SURFACE
 62
7
  6
CONTINUOUS
 10
292.466026829
 20
303.3596500803
  0
VERTEX
  8
SURFACE
 62
7
  6
CONTINUOUS
 10
292.3549165251
 20
303.3462979368
  0
VERTEX
  8
SURFACE
 62
7
  6
CONTINUOUS
 10
292.2913468333
 20
303.3442753385
  0
SEQEND
  0
LINE
  8
SURFACE
 62
7
  6
CONTINUOUS
 10
419.2040009904
 20
297.8966262126
 11
416.6044006447
 21
297.7876706761
  0
LINE
  8
SURFACE
 62
7
  6
CONTINUOUS
 10
364.5763276453
 20
295.6070483307
 11
367.0135145435
 21
295.7091967269
  0
LINE
  8
SURFACE
 62
7
  6
CONTINUOUS
 10
381.0135145434
 20
296.2959705794
 11
383.5763276453
 21
296.4033842735
  0
LINE
  8
SURFACE
 62
7
  6
CONTINUOUS
 10
390.5763276453
 20
296.6967711998
 11
393.0135145435
 21
296.7989195959
  0
LINE
  8
SURFACE
 62
7
  6
CONTINUOUS
 10
407.0135145434
 20
297.3856934485
 11
409.5763276453
 21
297.4931071426
  0
LINE
  8
0
 62
7
  6
CONTINUOUS
 10
94.6811367309
 20
287.7527897553
 11
85.2607591933
 21
287.4997908528
  0
POLYLINE
  8
SURFACE
 62
7
  6
CONTINUOUS
 66
1
 70
0
  0
VERTEX
  8
SURFACE
 62
7
  6
CONTINUOUS
 10
367.0135141644
 20
295.70919672
  0
VERTEX
  8
SURFACE
 62
7
  6
CONTINUOUS
 10
367.0929099773
 20
295.7093697608
  0
VERTEX
  8
SURFACE
 62
7
  6
CONTINUOUS
 10
367.2199390888
 20
295.6964427546
  0
VERTEX
  8
SURFACE
 62
7
  6
CONTINUOUS
 10
367.3442854564
 20
295.6674344851
  0
VERTEX
  8
SURFACE
 62
7
  6
CONTINUOUS
 10
367.463921811
 20
295.6228178898
  0
VERTEX
  8
SURFACE
 62
7
  6
CONTINUOUS
 10
367.5768976713
 20
295.5633203706
  0
VERTEX
  8
SURFACE
 62
7
  6
CONTINUOUS
 10
367.6813711429
 20
295.4899119358
  0
VERTEX
  8
SURFACE
 62
7
  6
CONTINUOUS
 10
367.7756389454
 20
295.4037893867
  0
VERTEX
  8
SURFACE
 62
7
  6
CONTINUOUS
 10
367.8581641659
 20
295.3063568272
  0
VERTEX
  8
SURFACE
 62
7
  6
CONTINUOUS
 10
367.9276013213
 20
295.1992027968
  0
VERTEX
  8
SURFACE
 62
7
  6
CONTINUOUS
 10
367.9828183335
 20
295.0840743468
  0
VERTEX
  8
SURFACE
 62
7
  6
CONTINUOUS
 10
368.0229149927
 20
294.9628485495
  0
VERTEX
  8
SURFACE
 62
7
  6
CONTINUOUS
 10
368.0472376398
 20
294.8375018691
  0
VERTEX
  8
SURFACE
 62
7
  6
CONTINUOUS
 10
368.0553898135
 20
294.7100779886
  0
SEQEND
  0
LINE
  8
SURFACE
 62
7
  6
CONTINUOUS
 10
453.255389818
 20
286.2942753385
 11
444.4409267193
 21
286.2942753385
  0
LINE
  8
0
 62
7
  6
CONTINUOUS
 10
60.6698529167
 20
286.2942753385
 11
51.855389818
 21
286.2942753385
  0
LINE
  8
0
 62
7
  6
CONTINUOUS
 10
224.7239076155
 20
287.7942753385
 11
219.3868720204
 21
287.7942753385
  0
LINE
  8
0
 62
7
  6
CONTINUOUS
 10
198.7239076155
 20
287.7942753385
 11
193.3868720204
 21
287.7942753385
  0
LINE
  8
0
 62
7
  6
CONTINUOUS
 10
172.7239076155
 20
287.7942753385
 11
167.3868720204
 21
287.7942753385
  0
LINE
  8
0
 62
7
  6
CONTINUOUS
 10
146.7239076155
 20
287.7942753385
 11
141.3868720204
 21
287.7942753385
  0
LINE
  8
0
 62
7
  6
CONTINUOUS
 10
120.7239076155
 20
287.7942753385
 11
115.3868720204
 21
287.7942753385
  0
LINE
  8
0
 62
7
  6
CONTINUOUS
 10
245.3868720204
 20
287.7942753385
 11
259.7239076155
 21
287.7942753385
  0
LINE
  8
SURFACE
 62
7
  6
CONTINUOUS
 10
280.3868720204
 20
287.7942753385
 11
285.7239076155
 21
287.7942753385
  0
LINE
  8
SURFACE
 62
7
  6
CONTINUOUS
 10
306.3868720204
 20
287.7942753385
 11
311.7239076155
 21
287.7942753385
  0
LINE
  8
SURFACE
 62
7
  6
CONTINUOUS
 10
332.3868720204
 20
287.7942753385
 11
337.7239076155
 21
287.7942753385
  0
LINE
  8
SURFACE
 62
7
  6
CONTINUOUS
 10
358.3868720204
 20
287.7942753385
 11
363.7239076155
 21
287.7942753385
  0
LINE
  8
SURFACE
 62
7
  6
CONTINUOUS
 10
384.3868720204
 20
287.7942753385
 11
389.7239076155
 21
287.7942753385
  0
LINE
  8
SURFACE
 62
7
  6
CONTINUOUS
 10
147.555389818
 20
295.3442753385
 11
150.055389818
 21
295.3442753385
  0
LINE
  8
SURFACE
 62
7
  6
CONTINUOUS
 10
164.055389818
 20
295.3442753385
 11
166.555389818
 21
295.3442753385
  0
LINE
  8
SURFACE
 62
7
  6
CONTINUOUS
 10
173.555389818
 20
295.3442753385
 11
176.055389818
 21
295.3442753385
  0
LINE
  8
SURFACE
 62
7
  6
CONTINUOUS
 10
190.055389818
 20
295.3442753385
 11
192.555389818
 21
295.3442753385
  0
LINE
  8
SURFACE
 62
7
  6
CONTINUOUS
 10
199.555389818
 20
295.3442753385
 11
202.055389818
 21
295.3442753385
  0
LINE
  8
SURFACE
 62
7
  6
CONTINUOUS
 10
216.055389818
 20
295.3442753385
 11
218.555389818
 21
295.3442753385
  0
LINE
  8
SURFACE
 62
7
  6
CONTINUOUS
 10
225.555389818
 20
295.3442753385
 11
228.055389818
 21
295.3442753385
  0
LINE
  8
SURFACE
 62
7
  6
CONTINUOUS
 10
241.7743144455
 20
295.3442753385
 11
244.555389818
 21
295.3442753385
  0
LINE
  8
SURFACE
 62
7
  6
CONTINUOUS
 10
260.555389818
 20
295.3442753385
 11
263.3364651905
 21
295.3442753385
  0
LINE
  8
SURFACE
 62
7
  6
CONTINUOUS
 10
277.055389818
 20
295.3442753385
 11
279.555389818
 21
295.3442753385
  0
LINE
  8
SURFACE
 62
7
  6
CONTINUOUS
 10
286.555389818
 20
295.3442753385
 11
289.055389818
 21
295.3442753385
  0
LINE
  8
SURFACE
 62
7
  6
CONTINUOUS
 10
303.055389818
 20
295.3442753385
 11
305.555389818
 21
295.3442753385
  0
LINE
  8
SURFACE
 62
7
  6
CONTINUOUS
 10
312.555389818
 20
295.3442753385
 11
315.055389818
 21
295.3442753385
  0
LINE
  8
SURFACE
 62
7
  6
CONTINUOUS
 10
329.055389818
 20
295.3442753385
 11
331.555389818
 21
295.3442753385
  0
LINE
  8
SURFACE
 62
7
  6
CONTINUOUS
 10
338.555389818
 20
295.3442753385
 11
341.055389818
 21
295.3442753385
  0
LINE
  8
SURFACE
 62
7
  6
CONTINUOUS
 10
355.055389818
 20
295.3442753385
 11
357.555389818
 21
295.3442753385
  0
LINE
  8
SURFACE
 62
7
  6
CONTINUOUS
 10
410.4296429051
 20
287.7527897553
 11
419.8500204427
 21
287.4997908528
  0
LINE
  8
0
 62
7
  6
CONTINUOUS
 10
85.9067786456
 20
297.8966262126
 11
88.5063789913
 21
297.7876706761
  0
LINE
  8
SURFACE
 62
7
  6
CONTINUOUS
 10
95.5344519906
 20
297.4931071426
 11
98.0972650925
 21
297.3856934485
  0
LINE
  8
SURFACE
 62
7
  6
CONTINUOUS
 10
112.0972650925
 20
296.7989195959
 11
114.5344519906
 21
296.6967711998
  0
LINE
  8
SURFACE
 62
7
  6
CONTINUOUS
 10
121.5344519906
 20
296.4033842735
 11
124.0972650925
 21
296.2959705794
  0
LINE
  8
SURFACE
 62
7
  6
CONTINUOUS
 10
138.0972650925
 20
295.7091967269
 11
140.5344519906
 21
295.6070483307
  0
POLYLINE
  8
0
 62
7
  6
CONTINUOUS
 66
1
 70
0
  0
VERTEX
  8
0
 62
7
  6
CONTINUOUS
 10
98.0972654716
 20
297.3856934416
  0
VERTEX
  8
0
 62
7
  6
CONTINUOUS
 10
98.1736635168
 20
297.3795516446
  0
VERTEX
  8
0
 62
7
  6
CONTINUOUS
 10
98.2926749164
 20
297.3580106672
  0
VERTEX
  8
0
 62
7
  6
CONTINUOUS
 10
98.4082153664
 20
297.3222597328
  0
VERTEX
  8
0
 62
7
  6
CONTINUOUS
 10
98.5185947792
 20
297.2728217963
  0
VERTEX
  8
0
 62
7
  6
CONTINUOUS
 10
98.6221985604
 20
297.2104200197
  0
VERTEX
  8
0
 62
7
  6
CONTINUOUS
 10
98.7175112263
 20
297.1359671939
  0
VERTEX
  8
0
 62
7
  6
CONTINUOUS
 10
98.803138571
 20
297.0505523872
  0
VERTEX
  8
0
 62
7
  6
CONTINUOUS
 10
98.8778280536
 20
296.955425025
  0
VERTEX
  8
0
 62
7
  6
CONTINUOUS
 10
98.9404871188
 20
296.8519766302
  0
VERTEX
  8
0
 62
7
  6
CONTINUOUS
 10
98.9901992009
 20
296.7417204544
  0
VERTEX
  8
0
 62
7
  6
CONTINUOUS
 10
99.0262371352
 20
296.6262693369
  0
VERTEX
  8
0
 62
7
  6
CONTINUOUS
 10
99.048073798
 20
296.5073121011
  0
VERTEX
  8
0
 62
7
  6
CONTINUOUS
 10
99.0553898133
 20
296.3865888648
  0
SEQEND
  0
POLYLINE
  8
0
 62
7
  6
CONTINUOUS
 66
1
 70
0
  0
VERTEX
  8
0
 62
7
  6
CONTINUOUS
 10
124.0972654716
 20
296.2959705725
  0
VERTEX
  8
0
 62
7
  6
CONTINUOUS
 10
124.1736635168
 20
296.2898287755
  0
VERTEX
  8
0
 62
7
  6
CONTINUOUS
 10
124.2926749164
 20
296.2682877981
  0
VERTEX
  8
0
 62
7
  6
CONTINUOUS
 10
124.4082153664
 20
296.2325368637
  0
VERTEX
  8
0
 62
7
  6
CONTINUOUS
 10
124.5185947792
 20
296.1830989273
  0
VERTEX
  8
0
 62
7
  6
CONTINUOUS
 10
124.6221985604
 20
296.1206971507
  0
VERTEX
  8
0
 62
7
  6
CONTINUOUS
 10
124.7175112263
 20
296.0462443248
  0
VERTEX
  8
0
 62
7
  6
CONTINUOUS
 10
124.803138571
 20
295.9608295181
  0
VERTEX
  8
0
 62
7
  6
CONTINUOUS
 10
124.8778280536
 20
295.8657021559
  0
VERTEX
  8
0
 62
7
  6
CONTINUOUS
 10
124.9404871188
 20
295.7622537612
  0
VERTEX
  8
0
 62
7
  6
CONTINUOUS
 10
124.9901992009
 20
295.6519975853
  0
VERTEX
  8
0
 62
7
  6
CONTINUOUS
 10
125.0262371352
 20
295.5365464678
  0
VERTEX
  8
0
 62
7
  6
CONTINUOUS
 10
125.048073798
 20
295.4175892321
  0
VERTEX
  8
0
 62
7
  6
CONTINUOUS
 10
125.0553898133
 20
295.2968659957
  0
SEQEND
  0
POLYLINE
  8
0
 62
7
  6
CONTINUOUS
 66
1
 70
0
  0
VERTEX
  8
0
 62
7
  6
CONTINUOUS
 10
240.4792975848
 20
301.2144659742
  0
VERTEX
  8
0
 62
7
  6
CONTINUOUS
 10
240.3862642757
 20
301.2628945948
  0
VERTEX
  8
0
 62
7
  6
CONTINUOUS
 10
240.2804966139
 20
301.2961645478
  0
VERTEX
  8
0
 62
7
  6
CONTINUOUS
 10
240.1642037175
 20
301.3135855333
  0
VERTEX
  8
0
 62
7
  6
CONTINUOUS
 10
240.0398145083
 20
301.3147983665
  0
VERTEX
  8
0
 62
7
  6
CONTINUOUS
 10
239.9099270604
 20
301.2997821719
  0
VERTEX
  8
0
 62
7
  6
CONTINUOUS
 10
239.7772540553
 20
301.2688551049
  0
SEQEND
  0
POLYLINE
  8
0
 62
7
  6
CONTINUOUS
 66
1
 70
0
  0
VERTEX
  8
0
 62
7
  6
CONTINUOUS
 10
240.6196946006
 20
301.0764579881
  0
VERTEX
  8
0
 62
7
  6
CONTINUOUS
 10
240.5576533034
 20
301.151885956
  0
VERTEX
  8
0
 62
7
  6
CONTINUOUS
 10
240.4792975848
 20
301.2144659742
  0
SEQEND
  0
LINE
  8
SURFACE
 62
7
  6
CONTINUOUS
 10
261.6557592681
 20
286.3119134287
 11
261.7790618342
 21
285.8517419873
  0
LINE
  8
SURFACE
 62
7
  6
CONTINUOUS
 10
276.055389818
 20
299.5200771197
 11
276.055389818
 21
294.0388379851
  0
LINE
  8
SURFACE
 62
7
  6
CONTINUOUS
 10
277.055389818
 20
256.8715890193
 11
277.055389818
 21
267.0974095565
  0
LINE
  8
SURFACE
 62
7
  6
CONTINUOUS
 10
280.055389818
 20
302.8442753381
 11
280.055389818
 21
295.8442753389
  0
LINE
  8
SURFACE
 62
7
  6
CONTINUOUS
 10
278.3317178017
 20
285.8517419873
 11
278.4550203679
 21
286.3119134287
  0
POLYLINE
  8
SURFACE
 62
7
  6
CONTINUOUS
 66
1
 70
0
  0
VERTEX
  8
SURFACE
 62
7
  6
CONTINUOUS
 10
318.8751877801
 20
303.5324072773
  0
VERTEX
  8
SURFACE
 62
7
  6
CONTINUOUS
 10
318.7808188974
 20
303.4722563602
  0
VERTEX
  8
SURFACE
 62
7
  6
CONTINUOUS
 10
318.6803198666
 20
303.4230261978
  0
VERTEX
  8
SURFACE
 62
7
  6
CONTINUOUS
 10
318.574949311
 20
303.3853334035
  0
VERTEX
  8
SURFACE
 62
7
  6
CONTINUOUS
 10
318.4660268289
 20
303.3596500803
  0
VERTEX
  8
SURFACE
 62
7
  6
CONTINUOUS
 10
318.3549165251
 20
303.3462979368
  0
VERTEX
  8
SURFACE
 62
7
  6
CONTINUOUS
 10
318.2913468333
 20
303.3442753385
  0
SEQEND
  0
POLYLINE
  8
0
 62
7
  6
CONTINUOUS
 66
1
 70
0
  0
VERTEX
  8
0
 62
7
  6
CONTINUOUS
 10
185.2818170876
 20
303.7933850655
  0
VERTEX
  8
0
 62
7
  6
CONTINUOUS
 10
185.0170090769
 20
303.788866217
  0
VERTEX
  8
0
 62
7
  6
CONTINUOUS
 10
184.9223196055
 20
303.7876145894
  0
VERTEX
  8
0
 62
7
  6
CONTINUOUS
 10
184.8256746656
 20
303.7867594071
  0
SEQEND
  0
LINE
  8
SURFACE
 62
7
  6
CONTINUOUS
 10
324.0106693328
 20
303.7887713335
 11
324.3139196726
 21
303.7937474751
  0
LINE
  8
SURFACE
 62
7
  6
CONTINUOUS
 10
324.036877703
 20
303.7888229664
 11
323.9157463834
 21
303.787542058
  0
LINE
  8
0
 62
7
  6
CONTINUOUS
 10
185.3600434276
 20
303.7942125858
 11
185.2818170876
 21
303.7933850655
  0
LINE
  8
SURFACE
 62
7
  6
CONTINUOUS
 10
323.8174601588
 20
303.7862752398
 11
323.9288912379
 21
303.7872860472
  0
LINE
  8
SURFACE
 62
7
  6
CONTINUOUS
 10
324.2767168557
 20
303.7933096094
 11
324.3815533775
 21
303.7942749526
  0
POLYLINE
  8
SURFACE
 62
7
  6
CONTINUOUS
 66
1
 70
0
  0
VERTEX
  8
SURFACE
 62
7
  6
CONTINUOUS
 10
393.0135141644
 20
296.798919589
  0
VERTEX
  8
SURFACE
 62
7
  6
CONTINUOUS
 10
393.0929099773
 20
296.7990926298
  0
VERTEX
  8
SURFACE
 62
7
  6
CONTINUOUS
 10
393.2199390888
 20
296.7861656236
  0
VERTEX
  8
SURFACE
 62
7
  6
CONTINUOUS
 10
393.3442854564
 20
296.7571573542
  0
VERTEX
  8
SURFACE
 62
7
  6
CONTINUOUS
 10
393.463921811
 20
296.7125407589
  0
VERTEX
  8
SURFACE
 62
7
  6
CONTINUOUS
 10
393.5768976713
 20
296.6530432397
  0
VERTEX
  8
SURFACE
 62
7
  6
CONTINUOUS
 10
393.6813711429
 20
296.5796348049
  0
VERTEX
  8
SURFACE
 62
7
  6
CONTINUOUS
 10
393.7756389454
 20
296.4935122557
  0
VERTEX
  8
SURFACE
 62
7
  6
CONTINUOUS
 10
393.8581641659
 20
296.3960796963
  0
VERTEX
  8
SURFACE
 62
7
  6
CONTINUOUS
 10
393.9276013213
 20
296.2889256659
  0
VERTEX
  8
SURFACE
 62
7
  6
CONTINUOUS
 10
393.9828183335
 20
296.1737972158
  0
VERTEX
  8
SURFACE
 62
7
  6
CONTINUOUS
 10
394.0229149927
 20
296.0525714186
  0
VERTEX
  8
SURFACE
 62
7
  6
CONTINUOUS
 10
394.0472376398
 20
295.9272247381
  0
VERTEX
  8
SURFACE
 62
7
  6
CONTINUOUS
 10
394.0553898135
 20
295.7998008576
  0
SEQEND
  0
LINE
  8
SURFACE
 62
7
  6
CONTINUOUS
 10
453.255389818
 20
296.2942753385
 11
444.555389818
 21
296.2942753385
  0
LINE
  8
0
 62
7
  6
CONTINUOUS
 10
60.555389818
 20
296.2942753385
 11
51.855389818
 21
296.2942753385
  0
LINE
  8
DEFAULT_1
 62
7
  6
CENTER
 10
57.2415508753
 20
299.3442753385
 11
447.2246471554
 21
299.3442753385
  0
LINE
  8
0
 62
7
  6
CONTINUOUS
 10
88.314581555
 20
302.8442753385
 11
80.4959134095
 21
302.8442753385
  0
LINE
  8
SURFACE
 62
7
  6
CONTINUOUS
 10
416.796198081
 20
302.8442753385
 11
424.6148662265
 21
302.8442753385
  0
LINE
  8
SURFACE
 62
7
  6
CONTINUOUS
 10
95.555389818
 20
303.3442753385
 11
101.2913347668
 21
303.3442753385
  0
LINE
  8
SURFACE
 62
7
  6
CONTINUOUS
 10
108.819444743
 20
303.3442753385
 11
114.555389818
 21
303.3442753385
  0
LINE
  8
SURFACE
 62
7
  6
CONTINUOUS
 10
121.555389818
 20
303.3442753385
 11
127.2913347668
 21
303.3442753385
  0
LINE
  8
SURFACE
 62
7
  6
CONTINUOUS
 10
134.819444743
 20
303.3442753385
 11
140.555389818
 21
303.3442753385
  0
LINE
  8
SURFACE
 62
7
  6
CONTINUOUS
 10
147.555389818
 20
303.3442753385
 11
153.2913347668
 21
303.3442753385
  0
LINE
  8
SURFACE
 62
7
  6
CONTINUOUS
 10
160.819444743
 20
303.3442753385
 11
166.555389818
 21
303.3442753385
  0
LINE
  8
SURFACE
 62
7
  6
CONTINUOUS
 10
173.555389818
 20
303.3442753385
 11
179.2913347668
 21
303.3442753385
  0
LINE
  8
SURFACE
 62
7
  6
CONTINUOUS
 10
186.819444743
 20
303.3442753385
 11
192.555389818
 21
303.3442753385
  0
LINE
  8
SURFACE
 62
7
  6
CONTINUOUS
 10
199.555389818
 20
303.3442753385
 11
205.2913347668
 21
303.3442753385
  0
LINE
  8
SURFACE
 62
7
  6
CONTINUOUS
 10
212.819444743
 20
303.3442753385
 11
218.555389818
 21
303.3442753385
  0
LINE
  8
SURFACE
 62
7
  6
CONTINUOUS
 10
225.555389818
 20
303.3442753385
 11
231.2913347668
 21
303.3442753385
  0
LINE
  8
SURFACE
 62
7
  6
CONTINUOUS
 10
238.819444743
 20
303.3442753385
 11
244.555389818
 21
303.3442753385
  0
LINE
  8
SURFACE
 62
7
  6
CONTINUOUS
 10
260.555389818
 20
303.3442753385
 11
266.291334893
 21
303.3442753385
  0
LINE
  8
SURFACE
 62
7
  6
CONTINUOUS
 10
273.8194448691
 20
303.3442753385
 11
279.555389818
 21
303.3442753385
  0
LINE
  8
SURFACE
 62
7
  6
CONTINUOUS
 10
286.555389818
 20
303.3442753385
 11
292.291334893
 21
303.3442753385
  0
LINE
  8
SURFACE
 62
7
  6
CONTINUOUS
 10
299.8194448692
 20
303.3442753385
 11
305.555389818
 21
303.3442753385
  0
LINE
  8
SURFACE
 62
7
  6
CONTINUOUS
 10
312.555389818
 20
303.3442753385
 11
318.291334893
 21
303.3442753385
  0
LINE
  8
SURFACE
 62
7
  6
CONTINUOUS
 10
325.8194448692
 20
303.3442753385
 11
331.555389818
 21
303.3442753385
  0
LINE
  8
SURFACE
 62
7
  6
CONTINUOUS
 10
338.555389818
 20
303.3442753385
 11
344.291334893
 21
303.3442753385
  0
LINE
  8
SURFACE
 62
7
  6
CONTINUOUS
 10
351.8194448691
 20
303.3442753385
 11
357.555389818
 21
303.3442753385
  0
LINE
  8
SURFACE
 62
7
  6
CONTINUOUS
 10
364.555389818
 20
303.3442753385
 11
370.291334893
 21
303.3442753385
  0
LINE
  8
SURFACE
 62
7
  6
CONTINUOUS
 10
377.8194448692
 20
303.3442753385
 11
383.555389818
 21
303.3442753385
  0
LINE
  8
SURFACE
 62
7
  6
CONTINUOUS
 10
390.555389818
 20
303.3442753385
 11
396.291334893
 21
303.3442753385
  0
LINE
  8
SURFACE
 62
7
  6
CONTINUOUS
 10
403.8194448692
 20
303.3442753385
 11
409.555389818
 21
303.3442753385
  0
LINE
  8
SURFACE
 62
7
  6
CONTINUOUS
 10
323.818941199
 20
303.7867171721
 11
320.405389818
 21
303.7863715481
  0
LINE
  8
0
 62
7
  6
CONTINUOUS
 10
184.8256746656
 20
303.7867594071
 11
181.4053898182
 21
303.7863715481
  0
LINE
  8
0
 62
7
  6
CONTINUOUS
 10
237.5483405932
 20
303.7942753385
 11
232.5624390428
 21
303.7942753385
  0
LINE
  8
0
 62
7
  6
CONTINUOUS
 10
211.5483405932
 20
303.7942753385
 11
206.5624390428
 21
303.7942753385
  0
LINE
  8
0
 62
7
  6
CONTINUOUS
 10
185.5483405932
 20
303.7942753385
 11
185.3600434276
 21
303.7942125858
  0
LINE
  8
0
 62
7
  6
CONTINUOUS
 10
159.5483405932
 20
303.7942753385
 11
154.5624390428
 21
303.7942753385
  0
LINE
  8
0
 62
7
  6
CONTINUOUS
 10
133.5483405932
 20
303.7942753385
 11
128.5624390428
 21
303.7942753385
  0
LINE
  8
0
 62
7
  6
CONTINUOUS
 10
107.5483405932
 20
303.7942753385
 11
102.5624390428
 21
303.7942753385
  0
LINE
  8
0
 62
7
  6
CONTINUOUS
 10
78.3753524625
 20
303.7942753385
 11
63.055389818
 21
303.7942753385
  0
LINE
  8
SURFACE
 62
7
  6
CONTINUOUS
 10
267.5624390428
 20
303.7942753385
 11
272.5483405932
 21
303.7942753385
  0
LINE
  8
SURFACE
 62
7
  6
CONTINUOUS
 10
293.5624390428
 20
303.7942753385
 11
298.5483405932
 21
303.7942753385
  0
LINE
  8
SURFACE
 62
7
  6
CONTINUOUS
 10
324.3555431865
 20
303.7941884484
 11
324.5483405932
 21
303.7942753385
  0
LINE
  8
SURFACE
 62
7
  6
CONTINUOUS
 10
345.5624390428
 20
303.7942753385
 11
350.5483405932
 21
303.7942753385
  0
LINE
  8
SURFACE
 62
7
  6
CONTINUOUS
 10
371.5624390428
 20
303.7942753385
 11
376.5483405932
 21
303.7942753385
  0
LINE
  8
SURFACE
 62
7
  6
CONTINUOUS
 10
397.5624390428
 20
303.7942753385
 11
402.5483405932
 21
303.7942753385
  0
LINE
  8
SURFACE
 62
7
  6
CONTINUOUS
 10
426.7354271735
 20
303.7942753385
 11
442.055389818
 21
303.7942753385
  0
LINE
  8
0
 62
7
  6
CONTINUOUS
 10
180.7552364494
 20
303.7941884484
 11
180.5624390428
 21
303.7942753385
  0
LINE
  8
0
 62
7
  6
CONTINUOUS
 10
181.4053898182
 20
303.786371264
 11
181.291838437
 21
303.7867171721
  0
POLYLINE
  8
SURFACE
 62
7
  6
CONTINUOUS
 66
1
 70
0
  0
VERTEX
  8
SURFACE
 62
7
  6
CONTINUOUS
 10
320.405389818
 20
303.7863712606
  0
VERTEX
  8
SURFACE
 62
7
  6
CONTINUOUS
 10
320.2851049703
 20
303.7867594071
  0
VERTEX
  8
SURFACE
 62
7
  6
CONTINUOUS
 10
320.1884600305
 20
303.7876145894
  0
SEQEND
  0
POLYLINE
  8
SURFACE
 62
7
  6
CONTINUOUS
 66
1
 70
0
  0
VERTEX
  8
SURFACE
 62
7
  6
CONTINUOUS
 10
319.8289625484
 20
303.7933850655
  0
VERTEX
  8
SURFACE
 62
7
  6
CONTINUOUS
 10
319.7507362084
 20
303.7942125858
  0
VERTEX
  8
SURFACE
 62
7
  6
CONTINUOUS
 10
319.5624390428
 20
303.7942753385
  0
SEQEND
  0
LINE
  8
0
 62
7
  6
CONTINUOUS
 10
180.8340627803
 20
303.7933096094
 11
180.7292262585
 21
303.7942749526
  0
LINE
  8
0
 62
7
  6
CONTINUOUS
 10
181.2933194772
 20
303.7862752398
 11
181.1001103032
 21
303.7887713335
  0
POLYLINE
  8
SURFACE
 62
7
  6
CONTINUOUS
 66
1
 70
0
  0
VERTEX
  8
SURFACE
 62
7
  6
CONTINUOUS
 10
320.1884600305
 20
303.7876145894
  0
VERTEX
  8
SURFACE
 62
7
  6
CONTINUOUS
 10
320.0017078129
 20
303.7903850023
  0
VERTEX
  8
SURFACE
 62
7
  6
CONTINUOUS
 10
319.8289625484
 20
303.7933850655
  0
SEQEND
  0
LINE
  8
0
 62
7
  6
CONTINUOUS
 10
181.181888398
 20
303.7872860472
 11
180.7968599634
 21
303.7937474751
  0
LINE
  8
0
 62
7
  6
CONTINUOUS
 10
180.9721660151
 20
303.7906386328
 11
180.8791126671
 21
303.7924052753
  0
POLYLINE
  8
SURFACE
 62
7
  6
CONTINUOUS
 66
1
 70
0
  0
VERTEX
  8
SURFACE
 62
7
  6
CONTINUOUS
 10
273.8194328027
 20
303.3442753385
  0
VERTEX
  8
SURFACE
 62
7
  6
CONTINUOUS
 10
273.7558624897
 20
303.3462979764
  0
VERTEX
  8
SURFACE
 62
7
  6
CONTINUOUS
 10
273.6447515895
 20
303.3596502963
  0
VERTEX
  8
SURFACE
 62
7
  6
CONTINUOUS
 10
273.5358285541
 20
303.3853339273
  0
VERTEX
  8
SURFACE
 62
7
  6
CONTINUOUS
 10
273.4304575097
 20
303.4230271518
  0
VERTEX
  8
SURFACE
 62
7
  6
CONTINUOUS
 10
273.3299580744
 20
303.4722578557
  0
VERTEX
  8
SURFACE
 62
7
  6
CONTINUOUS
 10
273.2355888901
 20
303.5324094101
  0
SEQEND
  0
POLYLINE
  8
SURFACE
 62
7
  6
CONTINUOUS
 66
1
 70
0
  0
VERTEX
  8
SURFACE
 62
7
  6
CONTINUOUS
 10
299.8194328027
 20
303.3442753385
  0
VERTEX
  8
SURFACE
 62
7
  6
CONTINUOUS
 10
299.7558624895
 20
303.3462979764
  0
VERTEX
  8
SURFACE
 62
7
  6
CONTINUOUS
 10
299.6447515891
 20
303.3596502964
  0
VERTEX
  8
SURFACE
 62
7
  6
CONTINUOUS
 10
299.5358285535
 20
303.3853339275
  0
VERTEX
  8
SURFACE
 62
7
  6
CONTINUOUS
 10
299.430457509
 20
303.4230271522
  0
VERTEX
  8
SURFACE
 62
7
  6
CONTINUOUS
 10
299.3299580735
 20
303.4722578562
  0
VERTEX
  8
SURFACE
 62
7
  6
CONTINUOUS
 10
299.2355888891
 20
303.5324094108
  0
SEQEND
  0
POLYLINE
  8
SURFACE
 62
7
  6
CONTINUOUS
 66
1
 70
0
  0
VERTEX
  8
SURFACE
 62
7
  6
CONTINUOUS
 10
325.8194328027
 20
303.3442753385
  0
VERTEX
  8
SURFACE
 62
7
  6
CONTINUOUS
 10
325.7558624895
 20
303.3462979764
  0
VERTEX
  8
SURFACE
 62
7
  6
CONTINUOUS
 10
325.6447515892
 20
303.3596502963
  0
VERTEX
  8
SURFACE
 62
7
  6
CONTINUOUS
 10
325.5358285537
 20
303.3853339274
  0
VERTEX
  8
SURFACE
 62
7
  6
CONTINUOUS
 10
325.4304575092
 20
303.4230271521
  0
VERTEX
  8
SURFACE
 62
7
  6
CONTINUOUS
 10
325.3299580738
 20
303.472257856
  0
VERTEX
  8
SURFACE
 62
7
  6
CONTINUOUS
 10
325.2355888894
 20
303.5324094106
  0
SEQEND
  0
POLYLINE
  8
SURFACE
 62
7
  6
CONTINUOUS
 66
1
 70
0
  0
VERTEX
  8
SURFACE
 62
7
  6
CONTINUOUS
 10
351.8194328027
 20
303.3442753385
  0
VERTEX
  8
SURFACE
 62
7
  6
CONTINUOUS
 10
351.7558624897
 20
303.3462979764
  0
VERTEX
  8
SURFACE
 62
7
  6
CONTINUOUS
 10
351.6447515895
 20
303.3596502963
  0
VERTEX
  8
SURFACE
 62
7
  6
CONTINUOUS
 10
351.5358285541
 20
303.3853339273
  0
VERTEX
  8
SURFACE
 62
7
  6
CONTINUOUS
 10
351.4304575097
 20
303.4230271518
  0
VERTEX
  8
SURFACE
 62
7
  6
CONTINUOUS
 10
351.3299580744
 20
303.4722578557
  0
VERTEX
  8
SURFACE
 62
7
  6
CONTINUOUS
 10
351.2355888901
 20
303.5324094101
  0
SEQEND
  0
POLYLINE
  8
SURFACE
 62
7
  6
CONTINUOUS
 66
1
 70
0
  0
VERTEX
  8
SURFACE
 62
7
  6
CONTINUOUS
 10
377.8194328027
 20
303.3442753385
  0
VERTEX
  8
SURFACE
 62
7
  6
CONTINUOUS
 10
377.7558624894
 20
303.3462979764
  0
VERTEX
  8
SURFACE
 62
7
  6
CONTINUOUS
 10
377.644751589
 20
303.3596502964
  0
VERTEX
  8
SURFACE
 62
7
  6
CONTINUOUS
 10
377.5358285534
 20
303.3853339275
  0
VERTEX
  8
SURFACE
 62
7
  6
CONTINUOUS
 10
377.4304575088
 20
303.4230271522
  0
VERTEX
  8
SURFACE
 62
7
  6
CONTINUOUS
 10
377.3299580733
 20
303.4722578563
  0
VERTEX
  8
SURFACE
 62
7
  6
CONTINUOUS
 10
377.2355888889
 20
303.532409411
  0
SEQEND
  0
POLYLINE
  8
SURFACE
 62
7
  6
CONTINUOUS
 66
1
 70
0
  0
VERTEX
  8
SURFACE
 62
7
  6
CONTINUOUS
 10
403.8194328027
 20
303.3442753385
  0
VERTEX
  8
SURFACE
 62
7
  6
CONTINUOUS
 10
403.7558624894
 20
303.3462979764
  0
VERTEX
  8
SURFACE
 62
7
  6
CONTINUOUS
 10
403.644751589
 20
303.3596502964
  0
VERTEX
  8
SURFACE
 62
7
  6
CONTINUOUS
 10
403.5358285534
 20
303.3853339275
  0
VERTEX
  8
SURFACE
 62
7
  6
CONTINUOUS
 10
403.4304575088
 20
303.4230271522
  0
VERTEX
  8
SURFACE
 62
7
  6
CONTINUOUS
 10
403.3299580733
 20
303.4722578563
  0
VERTEX
  8
SURFACE
 62
7
  6
CONTINUOUS
 10
403.2355888889
 20
303.532409411
  0
SEQEND
  0
POLYLINE
  8
0
 62
7
  6
CONTINUOUS
 66
1
 70
0
  0
VERTEX
  8
0
 62
7
  6
CONTINUOUS
 10
108.8194328027
 20
303.3442753385
  0
VERTEX
  8
0
 62
7
  6
CONTINUOUS
 10
108.7525652863
 20
303.3465134755
  0
VERTEX
  8
0
 62
7
  6
CONTINUOUS
 10
108.6421833362
 20
303.3601093837
  0
VERTEX
  8
0
 62
7
  6
CONTINUOUS
 10
108.5339938842
 20
303.3858784354
  0
VERTEX
  8
0
 62
7
  6
CONTINUOUS
 10
108.4293351191
 20
303.4235018608
  0
VERTEX
  8
0
 62
7
  6
CONTINUOUS
 10
108.3295015455
 20
303.4725142685
  0
VERTEX
  8
0
 62
7
  6
CONTINUOUS
 10
108.235728004
 20
303.5323093861
  0
SEQEND
  0
POLYLINE
  8
0
 62
7
  6
CONTINUOUS
 66
1
 70
0
  0
VERTEX
  8
0
 62
7
  6
CONTINUOUS
 10
134.8194328027
 20
303.3442753385
  0
VERTEX
  8
0
 62
7
  6
CONTINUOUS
 10
134.7525652864
 20
303.3465134755
  0
VERTEX
  8
0
 62
7
  6
CONTINUOUS
 10
134.6421833363
 20
303.3601093837
  0
VERTEX
  8
0
 62
7
  6
CONTINUOUS
 10
134.5339938844
 20
303.3858784354
  0
VERTEX
  8
0
 62
7
  6
CONTINUOUS
 10
134.4293351192
 20
303.4235018607
  0
VERTEX
  8
0
 62
7
  6
CONTINUOUS
 10
134.3295015457
 20
303.4725142684
  0
VERTEX
  8
0
 62
7
  6
CONTINUOUS
 10
134.2357280042
 20
303.5323093859
  0
SEQEND
  0
POLYLINE
  8
0
 62
7
  6
CONTINUOUS
 66
1
 70
0
  0
VERTEX
  8
0
 62
7
  6
CONTINUOUS
 10
160.8194328027
 20
303.3442753385
  0
VERTEX
  8
0
 62
7
  6
CONTINUOUS
 10
160.7525652863
 20
303.3465134755
  0
VERTEX
  8
0
 62
7
  6
CONTINUOUS
 10
160.6421833363
 20
303.3601093837
  0
VERTEX
  8
0
 62
7
  6
CONTINUOUS
 10
160.5339938843
 20
303.3858784354
  0
VERTEX
  8
0
 62
7
  6
CONTINUOUS
 10
160.4293351192
 20
303.4235018608
  0
VERTEX
  8
0
 62
7
  6
CONTINUOUS
 10
160.3295015456
 20
303.4725142684
  0
VERTEX
  8
0
 62
7
  6
CONTINUOUS
 10
160.2357280041
 20
303.5323093859
  0
SEQEND
  0
POLYLINE
  8
0
 62
7
  6
CONTINUOUS
 66
1
 70
0
  0
VERTEX
  8
0
 62
7
  6
CONTINUOUS
 10
186.8194328027
 20
303.3442753385
  0
VERTEX
  8
0
 62
7
  6
CONTINUOUS
 10
186.7525652864
 20
303.3465134755
  0
VERTEX
  8
0
 62
7
  6
CONTINUOUS
 10
186.6421833363
 20
303.3601093837
  0
VERTEX
  8
0
 62
7
  6
CONTINUOUS
 10
186.5339938844
 20
303.3858784354
  0
VERTEX
  8
0
 62
7
  6
CONTINUOUS
 10
186.4293351193
 20
303.4235018607
  0
VERTEX
  8
0
 62
7
  6
CONTINUOUS
 10
186.3295015457
 20
303.4725142684
  0
VERTEX
  8
0
 62
7
  6
CONTINUOUS
 10
186.2357280042
 20
303.5323093859
  0
SEQEND
  0
POLYLINE
  8
0
 62
7
  6
CONTINUOUS
 66
1
 70
0
  0
VERTEX
  8
0
 62
7
  6
CONTINUOUS
 10
212.8194328027
 20
303.3442753385
  0
VERTEX
  8
0
 62
7
  6
CONTINUOUS
 10
212.7525652863
 20
303.3465134755
  0
VERTEX
  8
0
 62
7
  6
CONTINUOUS
 10
212.6421833362
 20
303.3601093837
  0
VERTEX
  8
0
 62
7
  6
CONTINUOUS
 10
212.5339938842
 20
303.3858784354
  0
VERTEX
  8
0
 62
7
  6
CONTINUOUS
 10
212.4293351191
 20
303.4235018608
  0
VERTEX
  8
0
 62
7
  6
CONTINUOUS
 10
212.3295015455
 20
303.4725142685
  0
VERTEX
  8
0
 62
7
  6
CONTINUOUS
 10
212.235728004
 20
303.5323093861
  0
SEQEND
  0
POLYLINE
  8
0
 62
7
  6
CONTINUOUS
 66
1
 70
0
  0
VERTEX
  8
0
 62
7
  6
CONTINUOUS
 10
238.8194328027
 20
303.3442753385
  0
VERTEX
  8
0
 62
7
  6
CONTINUOUS
 10
238.7525652866
 20
303.3465134755
  0
VERTEX
  8
0
 62
7
  6
CONTINUOUS
 10
238.6421833367
 20
303.3601093836
  0
VERTEX
  8
0
 62
7
  6
CONTINUOUS
 10
238.533993885
 20
303.3858784352
  0
VERTEX
  8
0
 62
7
  6
CONTINUOUS
 10
238.4293351201
 20
303.4235018604
  0
VERTEX
  8
0
 62
7
  6
CONTINUOUS
 10
238.3295015466
 20
303.4725142679
  0
VERTEX
  8
0
 62
7
  6
CONTINUOUS
 10
238.2357280053
 20
303.5323093851
  0
SEQEND
  0
LINE
  8
SURFACE
 62
7
  6
CONTINUOUS
 10
286.055389818
 20
295.8442753385
 11
286.055389818
 21
302.8442753385
  0
LINE
  8
SURFACE
 62
7
  6
CONTINUOUS
 10
289.055389818
 20
267.0974095565
 11
289.055389818
 21
256.8715890193
  0
LINE
  8
SURFACE
 62
7
  6
CONTINUOUS
 10
290.055389818
 20
294.0388379851
 11
290.055389818
 21
299.5200771197
  0
POLYLINE
  8
SURFACE
 62
7
  6
CONTINUOUS
 66
1
 70
0
  0
VERTEX
  8
SURFACE
 62
7
  6
CONTINUOUS
 10
344.8751877802
 20
303.5324072773
  0
VERTEX
  8
SURFACE
 62
7
  6
CONTINUOUS
 10
344.7808188974
 20
303.4722563603
  0
VERTEX
  8
SURFACE
 62
7
  6
CONTINUOUS
 10
344.6803198666
 20
303.4230261978
  0
VERTEX
  8
SURFACE
 62
7
  6
CONTINUOUS
 10
344.574949311
 20
303.3853334036
  0
VERTEX
  8
SURFACE
 62
7
  6
CONTINUOUS
 10
344.4660268289
 20
303.3596500803
  0
VERTEX
  8
SURFACE
 62
7
  6
CONTINUOUS
 10
344.3549165251
 20
303.3462979368
  0
VERTEX
  8
SURFACE
 62
7
  6
CONTINUOUS
 10
344.2913468333
 20
303.3442753385
  0
SEQEND
  0
LINE
  8
SURFACE
 62
7
  6
CONTINUOUS
 10
287.6557592681
 20
286.3119134287
 11
287.7790618342
 21
285.8517419873
  0
LINE
  8
SURFACE
 62
7
  6
CONTINUOUS
 10
302.055389818
 20
299.5200771197
 11
302.055389818
 21
294.0388379851
  0
LINE
  8
SURFACE
 62
7
  6
CONTINUOUS
 10
303.055389818
 20
256.8715890193
 11
303.055389818
 21
267.0974095565
  0
LINE
  8
SURFACE
 62
7
  6
CONTINUOUS
 10
306.055389818
 20
302.8442753381
 11
306.055389818
 21
295.8442753389
  0
LINE
  8
SURFACE
 62
7
  6
CONTINUOUS
 10
304.3317178017
 20
285.8517419873
 11
304.4550203679
 21
286.3119134287
  0
POLYLINE
  8
SURFACE
 62
7
  6
CONTINUOUS
 66
1
 70
0
  0
VERTEX
  8
SURFACE
 62
7
  6
CONTINUOUS
 10
370.8751877801
 20
303.5324072773
  0
VERTEX
  8
SURFACE
 62
7
  6
CONTINUOUS
 10
370.7808188974
 20
303.4722563602
  0
VERTEX
  8
SURFACE
 62
7
  6
CONTINUOUS
 10
370.6803198666
 20
303.4230261978
  0
VERTEX
  8
SURFACE
 62
7
  6
CONTINUOUS
 10
370.574949311
 20
303.3853334036
  0
VERTEX
  8
SURFACE
 62
7
  6
CONTINUOUS
 10
370.4660268289
 20
303.3596500803
  0
VERTEX
  8
SURFACE
 62
7
  6
CONTINUOUS
 10
370.3549165251
 20
303.3462979368
  0
VERTEX
  8
SURFACE
 62
7
  6
CONTINUOUS
 10
370.2913468333
 20
303.3442753385
  0
SEQEND
  0
LINE
  8
SURFACE
 62
7
  6
CONTINUOUS
 10
312.055389818
 20
295.8442753385
 11
312.055389818
 21
302.8442753385
  0
LINE
  8
SURFACE
 62
7
  6
CONTINUOUS
 10
315.055389818
 20
267.0974095565
 11
315.055389818
 21
256.8715890193
  0
LINE
  8
SURFACE
 62
7
  6
CONTINUOUS
 10
316.055389818
 20
299.5200771197
 11
316.055389818
 21
294.0388379851
  0
POLYLINE
  8
SURFACE
 62
7
  6
CONTINUOUS
 66
1
 70
0
  0
VERTEX
  8
SURFACE
 62
7
  6
CONTINUOUS
 10
396.8751877804
 20
303.5324072775
  0
VERTEX
  8
SURFACE
 62
7
  6
CONTINUOUS
 10
396.7808188976
 20
303.4722563603
  0
VERTEX
  8
SURFACE
 62
7
  6
CONTINUOUS
 10
396.6803198668
 20
303.4230261978
  0
VERTEX
  8
SURFACE
 62
7
  6
CONTINUOUS
 10
396.5749493111
 20
303.3853334036
  0
VERTEX
  8
SURFACE
 62
7
  6
CONTINUOUS
 10
396.466026829
 20
303.3596500803
  0
VERTEX
  8
SURFACE
 62
7
  6
CONTINUOUS
 10
396.3549165251
 20
303.3462979368
  0
VERTEX
  8
SURFACE
 62
7
  6
CONTINUOUS
 10
396.2913468333
 20
303.3442753385
  0
SEQEND
  0
LINE
  8
SURFACE
 62
7
  6
CONTINUOUS
 10
313.6557592681
 20
286.3119134287
 11
313.7790618342
 21
285.8517419873
  0
LINE
  8
SURFACE
 62
7
  6
CONTINUOUS
 10
328.055389818
 20
299.5200771197
 11
328.055389818
 21
294.0388378365
  0
LINE
  8
SURFACE
 62
7
  6
CONTINUOUS
 10
329.055389818
 20
256.8715890193
 11
329.055389818
 21
267.0974095565
  0
LINE
  8
SURFACE
 62
7
  6
CONTINUOUS
 10
332.055389818
 20
302.8442753381
 11
332.055389818
 21
295.8442753385
  0
LINE
  8
SURFACE
 62
7
  6
CONTINUOUS
 10
330.3317178017
 20
285.8517419873
 11
330.4550203679
 21
286.3119134287
  0
POLYLINE
  8
SURFACE
 62
7
  6
CONTINUOUS
 66
1
 70
0
  0
VERTEX
  8
SURFACE
 62
7
  6
CONTINUOUS
 10
410.3044460459
 20
253.1643322863
  0
VERTEX
  8
SURFACE
 62
7
  6
CONTINUOUS
 10
410.3094128018
 20
253.1602391964
  0
VERTEX
  8
SURFACE
 62
7
  6
CONTINUOUS
 10
410.3182620799
 20
253.1533717182
  0
SEQEND
  0
POLYLINE
  8
SURFACE
 62
7
  6
CONTINUOUS
 66
1
 70
0
  0
VERTEX
  8
SURFACE
 62
7
  6
CONTINUOUS
 10
410.0547651642
 20
253.3710739692
  0
VERTEX
  8
SURFACE
 62
7
  6
CONTINUOUS
 10
410.1827952213
 20
253.2630991237
  0
VERTEX
  8
SURFACE
 62
7
  6
CONTINUOUS
 10
410.2866255025
 20
253.1784697209
  0
VERTEX
  8
SURFACE
 62
7
  6
CONTINUOUS
 10
410.3669234661
 20
253.1147675547
  0
VERTEX
  8
SURFACE
 62
7
  6
CONTINUOUS
 10
410.4256136894
 20
253.0691480618
  0
VERTEX
  8
SURFACE
 62
7
  6
CONTINUOUS
 10
410.4650616858
 20
253.03892455
  0
VERTEX
  8
SURFACE
 62
7
  6
CONTINUOUS
 10
410.4947200973
 20
253.0164312813
  0
SEQEND
  0
LINE
  8
SURFACE
 62
7
  6
CONTINUOUS
 10
338.055389818
 20
295.8442753385
 11
338.055389818
 21
302.8442753385
  0
LINE
  8
SURFACE
 62
7
  6
CONTINUOUS
 10
341.055389818
 20
267.0974095565
 11
341.055389818
 21
256.8715890193
  0
LINE
  8
SURFACE
 62
7
  6
CONTINUOUS
 10
342.055389818
 20
294.0388378382
 11
342.055389818
 21
299.5200771197
  0
POLYLINE
  8
SURFACE
 62
7
  6
CONTINUOUS
 66
1
 70
0
  0
VERTEX
  8
SURFACE
 62
7
  6
CONTINUOUS
 10
409.5394025929
 20
253.849685346
  0
VERTEX
  8
SURFACE
 62
7
  6
CONTINUOUS
 10
409.8272232962
 20
253.5733411693
  0
VERTEX
  8
SURFACE
 62
7
  6
CONTINUOUS
 10
410.0860837198
 20
253.3442840755
  0
SEQEND
  0
POLYLINE
  8
SURFACE
 62
7
  6
CONTINUOUS
 66
1
 70
0
  0
VERTEX
  8
SURFACE
 62
7
  6
CONTINUOUS
 10
409.5394025929
 20
253.849685346
  0
VERTEX
  8
SURFACE
 62
7
  6
CONTINUOUS
 10
409.7302313134
 20
253.6638065248
  0
VERTEX
  8
SURFACE
 62
7
  6
CONTINUOUS
 10
409.9032557959
 20
253.5042313643
  0
VERTEX
  8
SURFACE
 62
7
  6
CONTINUOUS
 10
410.0547651642
 20
253.3710739692
  0
SEQEND
  0
LINE
  8
SURFACE
 62
7
  6
CONTINUOUS
 10
339.6557592681
 20
286.3119134287
 11
339.7790618342
 21
285.8517419873
  0
LINE
  8
SURFACE
 62
7
  6
CONTINUOUS
 10
354.055389818
 20
299.5200771197
 11
354.055389818
 21
294.0388378368
  0
LINE
  8
SURFACE
 62
7
  6
CONTINUOUS
 10
355.055389818
 20
256.8715890193
 11
355.055389818
 21
267.0974095565
  0
LINE
  8
SURFACE
 62
7
  6
CONTINUOUS
 10
358.055389818
 20
302.8442753381
 11
358.055389818
 21
295.8442753389
  0
LINE
  8
SURFACE
 62
7
  6
CONTINUOUS
 10
356.3317178017
 20
285.8517419873
 11
356.4550203679
 21
286.3119134287
  0
LINE
  8
SURFACE
 62
7
  6
CONTINUOUS
 10
365.6557592681
 20
286.3119134287
 11
365.7790618342
 21
285.8517419873
  0
LINE
  8
SURFACE
 62
7
  6
CONTINUOUS
 10
364.055389818
 20
296.1066097462
 11
364.055389818
 21
302.8442753385
  0
LINE
  8
SURFACE
 62
7
  6
CONTINUOUS
 10
367.055389818
 20
267.0974095565
 11
367.055389818
 21
256.8715890193
  0
LINE
  8
SURFACE
 62
7
  6
CONTINUOUS
 10
368.055389818
 20
294.0388378379
 11
368.055389818
 21
299.5200771197
  0
LINE
  8
SURFACE
 62
7
  6
CONTINUOUS
 10
382.3317178017
 20
285.8517419873
 11
382.4550203679
 21
286.3119134287
  0
LINE
  8
SURFACE
 62
7
  6
CONTINUOUS
 10
415.8014271319
 20
253.1602877383
 11
416.0052129404
 21
253.3282274005
  0
LINE
  8
SURFACE
 62
7
  6
CONTINUOUS
 10
415.7927507472
 20
253.1535543748
 11
415.8014271319
 21
253.1602877383
  0
LINE
  8
SURFACE
 62
7
  6
CONTINUOUS
 10
415.6467714414
 20
253.0397281286
 11
415.6160682817
 21
253.0164385453
  0
LINE
  8
SURFACE
 62
7
  6
CONTINUOUS
 10
380.055389818
 20
299.5200771197
 11
380.055389818
 21
294.0388619063
  0
LINE
  8
SURFACE
 62
7
  6
CONTINUOUS
 10
381.055389818
 20
256.8715889229
 11
381.055389818
 21
267.0974095565
  0
LINE
  8
SURFACE
 62
7
  6
CONTINUOUS
 10
384.055389818
 20
302.8442753381
 11
384.055389818
 21
296.9029456889
  0
LINE
  8
SURFACE
 62
7
  6
CONTINUOUS
 10
390.055389818
 20
297.1963326152
 11
390.055389818
 21
302.8442753385
  0
POLYLINE
  8
SURFACE
 62
7
  6
CONTINUOUS
 66
1
 70
0
  0
VERTEX
  8
SURFACE
 62
7
  6
CONTINUOUS
 10
380.0553898225
 20
295.2968477444
  0
VERTEX
  8
SURFACE
 62
7
  6
CONTINUOUS
 10
380.0627384214
 20
295.417856818
  0
VERTEX
  8
SURFACE
 62
7
  6
CONTINUOUS
 10
380.084681781
 20
295.5371098893
  0
VERTEX
  8
SURFACE
 62
7
  6
CONTINUOUS
 10
380.1208973192
 20
295.6528305551
  0
VERTEX
  8
SURFACE
 62
7
  6
CONTINUOUS
 10
380.1708525951
 20
295.7633173508
  0
VERTEX
  8
SURFACE
 62
7
  6
CONTINUOUS
 10
380.2338131337
 20
295.8669457577
  0
VERTEX
  8
SURFACE
 62
7
  6
CONTINUOUS
 10
380.3088532278
 20
295.9621921011
  0
VERTEX
  8
SURFACE
 62
7
  6
CONTINUOUS
 10
380.394869553
 20
296.047655958
  0
VERTEX
  8
SURFACE
 62
7
  6
CONTINUOUS
 10
380.4905974138
 20
296.1220807629
  0
VERTEX
  8
SURFACE
 62
7
  6
CONTINUOUS
 10
380.5946293375
 20
296.1843722651
  0
VERTEX
  8
SURFACE
 62
7
  6
CONTINUOUS
 10
380.70543576
 20
296.2336146059
  0
VERTEX
  8
SURFACE
 62
7
  6
CONTINUOUS
 10
380.8213875145
 20
296.2690837846
  0
VERTEX
  8
SURFACE
 62
7
  6
CONTINUOUS
 10
380.940779784
 20
296.2902583021
  0
VERTEX
  8
SURFACE
 62
7
  6
CONTINUOUS
 10
381.0135141644
 20
296.2959705725
  0
SEQEND
  0
POLYLINE
  8
SURFACE
 62
7
  6
CONTINUOUS
 66
1
 70
0
  0
VERTEX
  8
SURFACE
 62
7
  6
CONTINUOUS
 10
416.5713794078
 20
253.8496769773
  0
VERTEX
  8
SURFACE
 62
7
  6
CONTINUOUS
 10
416.381235856
 20
253.6644487831
  0
VERTEX
  8
SURFACE
 62
7
  6
CONTINUOUS
 10
416.2077256892
 20
253.5044069115
  0
VERTEX
  8
SURFACE
 62
7
  6
CONTINUOUS
 10
416.0555209608
 20
253.3706469505
  0
SEQEND
  0
POLYLINE
  8
SURFACE
 62
7
  6
CONTINUOUS
 66
1
 70
0
  0
VERTEX
  8
SURFACE
 62
7
  6
CONTINUOUS
 10
416.0247536652
 20
253.3443308905
  0
VERTEX
  8
SURFACE
 62
7
  6
CONTINUOUS
 10
416.2836412994
 20
253.57341221
  0
VERTEX
  8
SURFACE
 62
7
  6
CONTINUOUS
 10
416.5713794078
 20
253.8496769773
  0
SEQEND
  0
POLYLINE
  8
SURFACE
 62
7
  6
CONTINUOUS
 66
1
 70
0
  0
VERTEX
  8
SURFACE
 62
7
  6
CONTINUOUS
 10
416.0555209608
 20
253.3706469505
  0
VERTEX
  8
SURFACE
 62
7
  6
CONTINUOUS
 10
415.9273387166
 20
253.2625641225
  0
VERTEX
  8
SURFACE
 62
7
  6
CONTINUOUS
 10
415.823947387
 20
253.1783040947
  0
VERTEX
  8
SURFACE
 62
7
  6
CONTINUOUS
 10
415.744315104
 20
253.1151281656
  0
VERTEX
  8
SURFACE
 62
7
  6
CONTINUOUS
 10
415.6861594787
 20
253.0699148475
  0
VERTEX
  8
SURFACE
 62
7
  6
CONTINUOUS
 10
415.6467714414
 20
253.0397281286
  0
SEQEND
  0
LINE
  8
SURFACE
 62
7
  6
CONTINUOUS
 10
391.6557592681
 20
286.3119134287
 11
391.7790618342
 21
285.8517419873
  0
LINE
  8
SURFACE
 62
7
  6
CONTINUOUS
 10
393.055389818
 20
267.0974095565
 11
393.055389818
 21
256.8715890193
  0
LINE
  8
SURFACE
 62
7
  6
CONTINUOUS
 10
394.055389818
 20
294.0388619076
 11
394.055389818
 21
299.5200771197
  0
POLYLINE
  8
SURFACE
 62
7
  6
CONTINUOUS
 66
1
 70
0
  0
VERTEX
  8
SURFACE
 62
7
  6
CONTINUOUS
 10
406.0553898225
 20
296.3865706134
  0
VERTEX
  8
SURFACE
 62
7
  6
CONTINUOUS
 10
406.0627384214
 20
296.5075796871
  0
VERTEX
  8
SURFACE
 62
7
  6
CONTINUOUS
 10
406.084681781
 20
296.6268327583
  0
VERTEX
  8
SURFACE
 62
7
  6
CONTINUOUS
 10
406.1208973192
 20
296.7425534241
  0
VERTEX
  8
SURFACE
 62
7
  6
CONTINUOUS
 10
406.1708525951
 20
296.8530402198
  0
VERTEX
  8
SURFACE
 62
7
  6
CONTINUOUS
 10
406.2338131337
 20
296.9566686267
  0
VERTEX
  8
SURFACE
 62
7
  6
CONTINUOUS
 10
406.3088532278
 20
297.0519149701
  0
VERTEX
  8
SURFACE
 62
7
  6
CONTINUOUS
 10
406.394869553
 20
297.1373788271
  0
VERTEX
  8
SURFACE
 62
7
  6
CONTINUOUS
 10
406.4905974138
 20
297.211803632
  0
VERTEX
  8
SURFACE
 62
7
  6
CONTINUOUS
 10
406.5946293375
 20
297.2740951341
  0
VERTEX
  8
SURFACE
 62
7
  6
CONTINUOUS
 10
406.70543576
 20
297.323337475
  0
VERTEX
  8
SURFACE
 62
7
  6
CONTINUOUS
 10
406.8213875145
 20
297.3588066537
  0
VERTEX
  8
SURFACE
 62
7
  6
CONTINUOUS
 10
406.940779784
 20
297.3799811712
  0
VERTEX
  8
SURFACE
 62
7
  6
CONTINUOUS
 10
407.0135141644
 20
297.3856934416
  0
SEQEND
  0
LINE
  8
SURFACE
 62
7
  6
CONTINUOUS
 10
408.3317178017
 20
285.8517419873
 11
408.4440974998
 21
286.2711487302
  0
LINE
  8
SURFACE
 62
7
  6
CONTINUOUS
 10
406.055389818
 20
299.5200771197
 11
406.055389818
 21
294.0388619063
  0
LINE
  8
SURFACE
 62
7
  6
CONTINUOUS
 10
407.055389818
 20
256.8715889229
 11
407.055389818
 21
267.0974095565
  0
LINE
  8
SURFACE
 62
7
  6
CONTINUOUS
 10
410.055389818
 20
302.8442753381
 11
410.055389818
 21
297.992668558
  0
LINE
  8
SURFACE
 62
7
  6
CONTINUOUS
 10
416.0841480505
 20
298.3134000693
 11
416.2967686775
 21
302.3704433167
  0
LINE
  8
SURFACE
 62
7
  6
CONTINUOUS
 10
418.9066716689
 20
255.9387686392
 11
418.9119629335
 21
255.9556864676
  0
LINE
  8
0
 62
7
  6
CONTINUOUS
 10
418.9119779925
 20
255.9556818951
 11
418.9064335083
 21
255.938020663
  0
LINE
  8
SURFACE
 62
7
  6
CONTINUOUS
 10
418.9046524728
 20
255.9325637085
 11
418.9066716689
 21
255.9387686392
  0
LINE
  8
SURFACE
 62
7
  6
CONTINUOUS
 10
418.8937975873
 20
255.9002348064
 11
418.9017771347
 21
255.9239956084
  0
LINE
  8
SURFACE
 62
7
  6
CONTINUOUS
 10
419.055389818
 20
261.1932546402
 11
419.055389818
 21
256.8715890327
  0
LINE
  8
SURFACE
 62
7
  6
CONTINUOUS
 10
420.055389818
 20
287.6997187643
 11
420.055389818
 21
295.5637080238
  0
LINE
  8
SURFACE
 62
7
  6
CONTINUOUS
 10
418.9212417529
 20
255.9845192957
 11
418.9246787613
 21
255.997017766
  0
LINE
  8
SURFACE
 62
7
  6
CONTINUOUS
 10
443.055389818
 20
302.7942753385
 11
443.055389818
 21
297.002479271
  0
LINE
  8
SURFACE
 62
7
  6
CONTINUOUS
 10
443.055389818
 20
283.586071406
 11
443.055389818
 21
270.7942763432
  0
LINE
  8
SURFACE
 62
7
  6
CONTINUOUS
 10
455.755389818
 20
288.794275341
 11
455.755389818
 21
293.7942753385
  0
POLYLINE
  8
SURFACE
 62
7
  6
CONTINUOUS
 66
1
 70
0
  0
VERTEX
  8
SURFACE
 62
7
  6
CONTINUOUS
 10
443.055389818
 20
270.7942763432
  0
VERTEX
  8
SURFACE
 62
7
  6
CONTINUOUS
 10
443.0530808677
 20
270.6323036956
  0
VERTEX
  8
SURFACE
 62
7
  6
CONTINUOUS
 10
443.0463577038
 20
270.4767947287
  0
VERTEX
  8
SURFACE
 62
7
  6
CONTINUOUS
 10
443.0354874325
 20
270.3271749157
  0
VERTEX
  8
SURFACE
 62
7
  6
CONTINUOUS
 10
443.0207048774
 20
270.1830474946
  0
VERTEX
  8
SURFACE
 62
7
  6
CONTINUOUS
 10
443.002220945
 20
270.0440830853
  0
VERTEX
  8
SURFACE
 62
7
  6
CONTINUOUS
 10
442.9802084986
 20
269.9098922609
  0
VERTEX
  8
SURFACE
 62
7
  6
CONTINUOUS
 10
442.9548066044
 20
269.7800979569
  0
VERTEX
  8
SURFACE
 62
7
  6
CONTINUOUS
 10
442.9261464959
 20
269.6544417443
  0
VERTEX
  8
SURFACE
 62
7
  6
CONTINUOUS
 10
442.8943493162
 20
269.5327121241
  0
VERTEX
  8
SURFACE
 62
7
  6
CONTINUOUS
 10
442.8595090911
 20
269.414668909
  0
VERTEX
  8
SURFACE
 62
7
  6
CONTINUOUS
 10
442.8216959284
 20
269.300070397
  0
VERTEX
  8
SURFACE
 62
7
  6
CONTINUOUS
 10
442.7809599699
 20
269.1886885263
  0
VERTEX
  8
SURFACE
 62
7
  6
CONTINUOUS
 10
442.7373269546
 20
269.0802965889
  0
VERTEX
  8
SURFACE
 62
7
  6
CONTINUOUS
 10
442.6907983103
 20
268.9746729769
  0
VERTEX
  8
SURFACE
 62
7
  6
CONTINUOUS
 10
442.641361052
 20
268.8716232442
  0
VERTEX
  8
SURFACE
 62
7
  6
CONTINUOUS
 10
442.5889810615
 20
268.7709617585
  0
VERTEX
  8
SURFACE
 62
7
  6
CONTINUOUS
 10
442.5336090059
 20
268.6725226364
  0
VERTEX
  8
SURFACE
 62
7
  6
CONTINUOUS
 10
442.4752114242
 20
268.5762062829
  0
VERTEX
  8
SURFACE
 62
7
  6
CONTINUOUS
 10
442.4137665659
 20
268.4819542937
  0
VERTEX
  8
SURFACE
 62
7
  6
CONTINUOUS
 10
442.3492409475
 20
268.3897056257
  0
VERTEX
  8
SURFACE
 62
7
  6
CONTINUOUS
 10
442.2815537393
 20
268.2993528933
  0
VERTEX
  8
SURFACE
 62
7
  6
CONTINUOUS
 10
442.2105202694
 20
268.2106906119
  0
VERTEX
  8
SURFACE
 62
7
  6
CONTINUOUS
 10
442.135921343
 20
268.1235277955
  0
VERTEX
  8
SURFACE
 62
7
  6
CONTINUOUS
 10
442.0575830703
 20
268.0377746956
  0
VERTEX
  8
SURFACE
 62
7
  6
CONTINUOUS
 10
441.9753908923
 20
267.9534322986
  0
VERTEX
  8
SURFACE
 62
7
  6
CONTINUOUS
 10
441.8892378317
 20
267.8705204005
  0
VERTEX
  8
SURFACE
 62
7
  6
CONTINUOUS
 10
441.7990019006
 20
267.7890537269
  0
VERTEX
  8
SURFACE
 62
7
  6
CONTINUOUS
 10
441.7044420833
 20
267.7089593459
  0
VERTEX
  8
SURFACE
 62
7
  6
CONTINUOUS
 10
441.6052024281
 20
267.6301085322
  0
VERTEX
  8
SURFACE
 62
7
  6
CONTINUOUS
 10
441.5009347867
 20
267.5524282285
  0
VERTEX
  8
SURFACE
 62
7
  6
CONTINUOUS
 10
441.3913166054
 20
267.4759044767
  0
VERTEX
  8
SURFACE
 62
7
  6
CONTINUOUS
 10
441.2760420343
 20
267.40056579
  0
VERTEX
  8
SURFACE
 62
7
  6
CONTINUOUS
 10
441.1548367736
 20
267.3264844258
  0
VERTEX
  8
SURFACE
 62
7
  6
CONTINUOUS
 10
441.0274506909
 20
267.2537629688
  0
VERTEX
  8
SURFACE
 62
7
  6
CONTINUOUS
 10
440.8934395476
 20
267.1824154834
  0
VERTEX
  8
SURFACE
 62
7
  6
CONTINUOUS
 10
440.7521137986
 20
267.1123764907
  0
VERTEX
  8
SURFACE
 62
7
  6
CONTINUOUS
 10
440.6027876244
 20
267.0436495094
  0
VERTEX
  8
SURFACE
 62
7
  6
CONTINUOUS
 10
440.4449000202
 20
266.9763490779
  0
VERTEX
  8
SURFACE
 62
7
  6
CONTINUOUS
 10
440.2786659773
 20
266.9109206473
  0
VERTEX
  8
SURFACE
 62
7
  6
CONTINUOUS
 10
440.1031404667
 20
266.8473451777
  0
VERTEX
  8
SURFACE
 62
7
  6
CONTINUOUS
 10
439.9169754794
 20
266.7855568132
  0
VERTEX
  8
SURFACE
 62
7
  6
CONTINUOUS
 10
439.7190432592
 20
266.7256730687
  0
VERTEX
  8
SURFACE
 62
7
  6
CONTINUOUS
 10
439.5097454769
 20
266.6682945439
  0
VERTEX
  8
SURFACE
 62
7
  6
CONTINUOUS
 10
439.2876886745
 20
266.6135146495
  0
VERTEX
  8
SURFACE
 62
7
  6
CONTINUOUS
 10
439.0508858157
 20
266.5614096096
  0
VERTEX
  8
SURFACE
 62
7
  6
CONTINUOUS
 10
438.7984925914
 20
266.5124205221
  0
VERTEX
  8
SURFACE
 62
7
  6
CONTINUOUS
 10
438.5300659851
 20
266.4670828051
  0
VERTEX
  8
SURFACE
 62
7
  6
CONTINUOUS
 10
438.2436808167
 20
266.4257243593
  0
VERTEX
  8
SURFACE
 62
7
  6
CONTINUOUS
 10
437.9375334285
 20
266.3888135688
  0
VERTEX
  8
SURFACE
 62
7
  6
CONTINUOUS
 10
437.6106650645
 20
266.3569972806
  0
VERTEX
  8
SURFACE
 62
7
  6
CONTINUOUS
 10
437.2616593032
 20
266.330914405
  0
VERTEX
  8
SURFACE
 62
7
  6
CONTINUOUS
 10
436.8871695898
 20
266.3111800575
  0
VERTEX
  8
SURFACE
 62
7
  6
CONTINUOUS
 10
436.4863588856
 20
266.2986761971
  0
VERTEX
  8
SURFACE
 62
7
  6
CONTINUOUS
 10
436.055389818
 20
266.2942753385
  0
SEQEND
  0
LINE
  8
0
 62
7
  6
CONTINUOUS
 10
49.355389818
 20
162.9274378333
 11
49.355389818
 21
163.8274378333
  0
LINE
  8
0
 62
7
  6
CONTINUOUS
 10
62.055389818
 20
154.8524378333
 11
62.055389818
 21
171.9024378333
  0
POLYLINE
  8
0
 62
7
  6
CONTINUOUS
 66
1
 70
0
  0
VERTEX
  8
0
 62
7
  6
CONTINUOUS
 10
89.0254842247
 20
169.6686773988
  0
VERTEX
  8
0
 62
7
  6
CONTINUOUS
 10
89.023704655
 20
169.7623450453
  0
VERTEX
  8
0
 62
7
  6
CONTINUOUS
 10
89.0216244017
 20
169.8495693005
  0
VERTEX
  8
0
 62
7
  6
CONTINUOUS
 10
89.0192903315
 20
169.9304817968
  0
VERTEX
  8
0
 62
7
  6
CONTINUOUS
 10
89.0167421589
 20
170.0052965751
  0
VERTEX
  8
0
 62
7
  6
CONTINUOUS
 10
89.0140119519
 20
170.0742914101
  0
VERTEX
  8
0
 62
7
  6
CONTINUOUS
 10
89.0111254539
 20
170.1377763641
  0
VERTEX
  8
0
 62
7
  6
CONTINUOUS
 10
89.0081051441
 20
170.1960131428
  0
VERTEX
  8
0
 62
7
  6
CONTINUOUS
 10
89.0049685117
 20
170.2492899351
  0
VERTEX
  8
0
 62
7
  6
CONTINUOUS
 10
89.0017250324
 20
170.2979389485
  0
VERTEX
  8
0
 62
7
  6
CONTINUOUS
 10
88.9983746638
 20
170.342344443
  0
VERTEX
  8
0
 62
7
  6
CONTINUOUS
 10
88.994904194
 20
170.3829360039
  0
VERTEX
  8
0
 62
7
  6
CONTINUOUS
 10
88.9912892863
 20
170.4201343796
  0
VERTEX
  8
0
 62
7
  6
CONTINUOUS
 10
88.9874766481
 20
170.4544799069
  0
VERTEX
  8
0
 62
7
  6
CONTINUOUS
 10
88.9833700348
 20
170.4866278179
  0
VERTEX
  8
0
 62
7
  6
CONTINUOUS
 10
88.9787924755
 20
170.5174571657
  0
VERTEX
  8
0
 62
7
  6
CONTINUOUS
 10
88.9734852532
 20
170.5478107188
  0
VERTEX
  8
0
 62
7
  6
CONTINUOUS
 10
88.9671222123
 20
170.5783052561
  0
VERTEX
  8
0
 62
7
  6
CONTINUOUS
 10
88.9591945923
 20
170.6097866758
  0
VERTEX
  8
0
 62
7
  6
CONTINUOUS
 10
88.9490797432
 20
170.6428273804
  0
VERTEX
  8
0
 62
7
  6
CONTINUOUS
 10
88.93572558
 20
170.6785357031
  0
VERTEX
  8
0
 62
7
  6
CONTINUOUS
 10
88.9170649866
 20
170.7190089995
  0
VERTEX
  8
0
 62
7
  6
CONTINUOUS
 10
88.890781408
 20
170.764596327
  0
VERTEX
  8
0
 62
7
  6
CONTINUOUS
 10
88.855442156
 20
170.812951561
  0
VERTEX
  8
0
 62
7
  6
CONTINUOUS
 10
88.8101391065
 20
170.8611832959
  0
VERTEX
  8
0
 62
7
  6
CONTINUOUS
 10
88.7544161425
 20
170.9063372203
  0
VERTEX
  8
0
 62
7
  6
CONTINUOUS
 10
88.6892994058
 20
170.9449473051
  0
VERTEX
  8
0
 62
7
  6
CONTINUOUS
 10
88.617100785
 20
170.9740297167
  0
VERTEX
  8
0
 62
7
  6
CONTINUOUS
 10
88.5409825203
 20
170.9916902897
  0
VERTEX
  8
0
 62
7
  6
CONTINUOUS
 10
88.4656131024
 20
170.9973655909
  0
SEQEND
  0
LINE
  8
0
 62
7
  6
CONTINUOUS
 10
89.0273165765
 20
169.5316020806
 11
89.0254842247
 21
169.6686773988
  0
LINE
  8
0
 62
7
  6
CONTINUOUS
 10
80.4959134095
 20
161.8121519911
 11
80.4959124699
 21
167.0703526276
  0
LINE
  8
0
 62
7
  6
CONTINUOUS
 10
85.055389818
 20
171.9024378333
 11
85.055389818
 21
170.9973663309
  0
LINE
  8
0
 62
7
  6
CONTINUOUS
 10
85.055389818
 20
154.8524378333
 11
85.055389818
 21
159.6713884371
  0
POLYLINE
  8
0
 62
7
  6
CONTINUOUS
 66
1
 70
0
  0
VERTEX
  8
0
 62
7
  6
CONTINUOUS
 10
88.9149987776
 20
160.1238384019
  0
VERTEX
  8
0
 62
7
  6
CONTINUOUS
 10
88.9303586785
 20
160.2697630271
  0
VERTEX
  8
0
 62
7
  6
CONTINUOUS
 10
88.945966307
 20
160.4533437463
  0
VERTEX
  8
0
 62
7
  6
CONTINUOUS
 10
88.9600265703
 20
160.6556805429
  0
VERTEX
  8
0
 62
7
  6
CONTINUOUS
 10
88.9726895889
 20
160.8754109918
  0
VERTEX
  8
0
 62
7
  6
CONTINUOUS
 10
88.9840370466
 20
161.1113743899
  0
VERTEX
  8
0
 62
7
  6
CONTINUOUS
 10
88.9941123432
 20
161.3626743715
  0
VERTEX
  8
0
 62
7
  6
CONTINUOUS
 10
89.0029291199
 20
161.6286050648
  0
VERTEX
  8
0
 62
7
  6
CONTINUOUS
 10
89.0104549666
 20
161.9077089162
  0
VERTEX
  8
0
 62
7
  6
CONTINUOUS
 10
89.0166395879
 20
162.1978187693
  0
VERTEX
  8
0
 62
7
  6
CONTINUOUS
 10
89.021441614
 20
162.4966418623
  0
VERTEX
  8
0
 62
7
  6
CONTINUOUS
 10
89.0248303695
 20
162.8018100216
  0
VERTEX
  8
0
 62
7
  6
CONTINUOUS
 10
89.0267865039
 20
163.1109067511
  0
VERTEX
  8
0
 62
7
  6
CONTINUOUS
 10
89.0273168182
 20
169.5315243942
  0
SEQEND
  0
LINE
  8
0
 62
7
  6
CONTINUOUS
 10
75.8567909797
 20
172.1612568784
 11
74.2376703174
 21
166.118616303
  0
POLYLINE
  8
0
 62
7
  6
CONTINUOUS
 66
1
 70
0
  0
VERTEX
  8
0
 62
7
  6
CONTINUOUS
 10
80.2858879398
 20
167.9716093899
  0
VERTEX
  8
0
 62
7
  6
CONTINUOUS
 10
80.3380760033
 20
167.8017648048
  0
VERTEX
  8
0
 62
7
  6
CONTINUOUS
 10
80.3886219541
 20
167.6237750938
  0
VERTEX
  8
0
 62
7
  6
CONTINUOUS
 10
80.4358691003
 20
167.4409105804
  0
VERTEX
  8
0
 62
7
  6
CONTINUOUS
 10
80.4777096526
 20
167.2584330409
  0
SEQEND
  0
LINE
  8
0
 62
7
  6
CONTINUOUS
 10
71.8731086527
 20
166.1186187882
 11
70.2539886563
 21
172.1612568784
  0
POLYLINE
  8
0
 62
7
  6
CONTINUOUS
 66
1
 70
0
  0
VERTEX
  8
0
 62
7
  6
CONTINUOUS
 10
80.4777096526
 20
167.2584330409
  0
VERTEX
  8
0
 62
7
  6
CONTINUOUS
 10
80.4912811522
 20
167.1695431991
  0
VERTEX
  8
0
 62
7
  6
CONTINUOUS
 10
80.4959124699
 20
167.0703526276
  0
SEQEND
  0
POLYLINE
  8
0
 62
7
  6
CONTINUOUS
 66
1
 70
0
  0
VERTEX
  8
0
 62
7
  6
CONTINUOUS
 10
99.0553903524
 20
155.8241346403
  0
VERTEX
  8
0
 62
7
  6
CONTINUOUS
 10
99.0578156157
 20
155.7496489323
  0
VERTEX
  8
0
 62
7
  6
CONTINUOUS
 10
99.0767309651
 20
155.6040671904
  0
VERTEX
  8
0
 62
7
  6
CONTINUOUS
 10
99.1141650779
 20
155.4615950842
  0
VERTEX
  8
0
 62
7
  6
CONTINUOUS
 10
99.1697966788
 20
155.323840017
  0
VERTEX
  8
0
 62
7
  6
CONTINUOUS
 10
99.2430084141
 20
155.1927084759
  0
VERTEX
  8
0
 62
7
  6
CONTINUOUS
 10
99.3328076507
 20
155.070034054
  0
VERTEX
  8
0
 62
7
  6
CONTINUOUS
 10
99.4378320953
 20
154.9573337053
  0
VERTEX
  8
0
 62
7
  6
CONTINUOUS
 10
99.555964124
 20
154.8559570675
  0
VERTEX
  8
0
 62
7
  6
CONTINUOUS
 10
99.6851973164
 20
154.7661720017
  0
VERTEX
  8
0
 62
7
  6
CONTINUOUS
 10
99.8248314186
 20
154.6869243968
  0
VERTEX
  8
0
 62
7
  6
CONTINUOUS
 10
99.9757409421
 20
154.6165354906
  0
VERTEX
  8
0
 62
7
  6
CONTINUOUS
 10
100.1408906706
 20
154.5530938398
  0
VERTEX
  8
0
 62
7
  6
CONTINUOUS
 10
100.3240978433
 20
154.495317903
  0
VERTEX
  8
0
 62
7
  6
CONTINUOUS
 10
100.529488158
 20
154.442678905
  0
VERTEX
  8
0
 62
7
  6
CONTINUOUS
 10
100.729132848
 20
154.4012551692
  0
SEQEND
  0
LINE
  8
0
 62
7
  6
CONTINUOUS
 10
99.0551925997
 20
158.7574595726
 11
99.055389054
 21
158.7430208461
  0
LINE
  8
0
 62
7
  6
CONTINUOUS
 10
95.055389818
 20
166.6274378333
 11
95.055389818
 21
160.1274378333
  0
LINE
  8
0
 62
7
  6
CONTINUOUS
 10
99.055389818
 20
171.9024378333
 11
99.055389818
 21
168.0117918433
  0
LINE
  8
0
 62
7
  6
CONTINUOUS
 10
99.055389818
 20
158.7430939671
 11
99.055389818
 21
155.8240856624
  0
POLYLINE
  8
0
 62
7
  6
CONTINUOUS
 66
1
 70
0
  0
VERTEX
  8
0
 62
7
  6
CONTINUOUS
 10
99.0553884702
 20
168.0118399938
  0
VERTEX
  8
0
 62
7
  6
CONTINUOUS
 10
99.0551615
 20
167.9963242722
  0
VERTEX
  8
0
 62
7
  6
CONTINUOUS
 10
99.0533860302
 20
167.9638288335
  0
SEQEND
  0
POLYLINE
  8
0
 62
7
  6
CONTINUOUS
 66
1
 70
0
  0
VERTEX
  8
0
 62
7
  6
CONTINUOUS
 10
99.0533860302
 20
167.9638288335
  0
VERTEX
  8
0
 62
7
  6
CONTINUOUS
 10
99.0488437794
 20
167.9220799402
  0
VERTEX
  8
0
 62
7
  6
CONTINUOUS
 10
99.040403562
 20
167.8724347345
  0
VERTEX
  8
0
 62
7
  6
CONTINUOUS
 10
99.0271503436
 20
167.8167439524
  0
VERTEX
  8
0
 62
7
  6
CONTINUOUS
 10
99.0082473001
 20
167.7563597792
  0
VERTEX
  8
0
 62
7
  6
CONTINUOUS
 10
98.9829693477
 20
167.6925766249
  0
VERTEX
  8
0
 62
7
  6
CONTINUOUS
 10
98.9507744064
 20
167.626785573
  0
VERTEX
  8
0
 62
7
  6
CONTINUOUS
 10
98.9113491874
 20
167.5604498836
  0
VERTEX
  8
0
 62
7
  6
CONTINUOUS
 10
98.8642027779
 20
167.4944959961
  0
VERTEX
  8
0
 62
7
  6
CONTINUOUS
 10
98.8087757748
 20
167.4298172731
  0
VERTEX
  8
0
 62
7
  6
CONTINUOUS
 10
98.7446066215
 20
167.3675309453
  0
VERTEX
  8
0
 62
7
  6
CONTINUOUS
 10
98.6714794841
 20
167.3090343157
  0
VERTEX
  8
0
 62
7
  6
CONTINUOUS
 10
98.5894688872
 20
167.2559086757
  0
VERTEX
  8
0
 62
7
  6
CONTINUOUS
 10
98.4989160961
 20
167.2098058917
  0
VERTEX
  8
0
 62
7
  6
CONTINUOUS
 10
98.4004761965
 20
167.1724080313
  0
VERTEX
  8
0
 62
7
  6
CONTINUOUS
 10
98.2951600647
 20
167.1453690158
  0
VERTEX
  8
0
 62
7
  6
CONTINUOUS
 10
98.1880120939
 20
167.1307318566
  0
SEQEND
  0
LINE
  8
0
 62
7
  6
CONTINUOUS
 10
89.0266315855
 20
169.5290186602
 11
89.0273168181
 21
169.5315632767
  0
LINE
  8
0
 62
7
  6
CONTINUOUS
 10
84.6889124455
 20
171.0400991318
 11
84.6892014519
 21
171.0394094335
  0
LINE
  8
0
 62
7
  6
CONTINUOUS
 10
111.055389818
 20
155.8240856627
 11
111.055389818
 21
158.6292041613
  0
LINE
  8
0
 62
7
  6
CONTINUOUS
 10
111.055389818
 20
168.1256715869
 11
111.055389818
 21
171.9024378333
  0
LINE
  8
0
 62
7
  6
CONTINUOUS
 10
115.055389818
 20
160.1274378333
 11
115.055389818
 21
166.6274378333
  0
LINE
  8
0
 62
7
  6
CONTINUOUS
 10
111.0553899056
 20
158.6292121274
 11
111.0569700911
 21
158.685220365
  0
LINE
  8
0
 62
7
  6
CONTINUOUS
 10
111.0569700911
 20
158.685220365
 11
111.0694335601
 21
158.7957605027
  0
POLYLINE
  8
0
 62
7
  6
CONTINUOUS
 66
1
 70
0
  0
VERTEX
  8
0
 62
7
  6
CONTINUOUS
 10
111.0694335601
 20
158.7957605027
  0
VERTEX
  8
0
 62
7
  6
CONTINUOUS
 10
111.0955869674
 20
158.9092272482
  0
VERTEX
  8
0
 62
7
  6
CONTINUOUS
 10
111.136051717
 20
159.0218580613
  0
VERTEX
  8
0
 62
7
  6
CONTINUOUS
 10
111.1904298919
 20
159.1300965346
  0
VERTEX
  8
0
 62
7
  6
CONTINUOUS
 10
111.2574213089
 20
159.2308407748
  0
VERTEX
  8
0
 62
7
  6
CONTINUOUS
 10
111.3358686492
 20
159.3225113987
  0
VERTEX
  8
0
 62
7
  6
CONTINUOUS
 10
111.4248379168
 20
159.404095457
  0
VERTEX
  8
0
 62
7
  6
CONTINUOUS
 10
111.5230995493
 20
159.4744225133
  0
VERTEX
  8
0
 62
7
  6
CONTINUOUS
 10
111.6291952834
 20
159.532406359
  0
VERTEX
  8
0
 62
7
  6
CONTINUOUS
 10
111.7415352575
 20
159.5771595771
  0
VERTEX
  8
0
 62
7
  6
CONTINUOUS
 10
111.8584263765
 20
159.6080099018
  0
SEQEND
  0
POLYLINE
  8
0
 62
7
  6
CONTINUOUS
 66
1
 70
0
  0
VERTEX
  8
0
 62
7
  6
CONTINUOUS
 10
81.1649962318
 20
160.1720130282
  0
VERTEX
  8
0
 62
7
  6
CONTINUOUS
 10
81.0367537712
 20
160.3500817868
  0
VERTEX
  8
0
 62
7
  6
CONTINUOUS
 10
80.9252221965
 20
160.5167061129
  0
VERTEX
  8
0
 62
7
  6
CONTINUOUS
 10
80.8296353451
 20
160.6726347116
  0
VERTEX
  8
0
 62
7
  6
CONTINUOUS
 10
80.749240123
 20
160.8185910996
  0
VERTEX
  8
0
 62
7
  6
CONTINUOUS
 10
80.6817240349
 20
160.9584390194
  0
VERTEX
  8
0
 62
7
  6
CONTINUOUS
 10
80.6244576159
 20
161.0983975188
  0
VERTEX
  8
0
 62
7
  6
CONTINUOUS
 10
80.5756009987
 20
161.2464667135
  0
VERTEX
  8
0
 62
7
  6
CONTINUOUS
 10
80.5353820546
 20
161.410999903
  0
VERTEX
  8
0
 62
7
  6
CONTINUOUS
 10
80.5067229233
 20
161.6004793869
  0
VERTEX
  8
0
 62
7
  6
CONTINUOUS
 10
80.4959133303
 20
161.8121479371
  0
SEQEND
  0
POLYLINE
  8
0
 62
7
  6
CONTINUOUS
 66
1
 70
0
  0
VERTEX
  8
0
 62
7
  6
CONTINUOUS
 10
111.0695038806
 20
167.9587013082
  0
VERTEX
  8
0
 62
7
  6
CONTINUOUS
 10
111.057038479
 20
168.0684557653
  0
VERTEX
  8
0
 62
7
  6
CONTINUOUS
 10
111.0553898447
 20
168.1256627576
  0
SEQEND
  0
POLYLINE
  8
0
 62
7
  6
CONTINUOUS
 66
1
 70
0
  0
VERTEX
  8
0
 62
7
  6
CONTINUOUS
 10
125.0553903524
 20
155.8241346403
  0
VERTEX
  8
0
 62
7
  6
CONTINUOUS
 10
125.0578156157
 20
155.7496489323
  0
VERTEX
  8
0
 62
7
  6
CONTINUOUS
 10
125.0767309651
 20
155.6040671904
  0
VERTEX
  8
0
 62
7
  6
CONTINUOUS
 10
125.1141650779
 20
155.4615950842
  0
VERTEX
  8
0
 62
7
  6
CONTINUOUS
 10
125.1697966788
 20
155.323840017
  0
VERTEX
  8
0
 62
7
  6
CONTINUOUS
 10
125.2430084141
 20
155.1927084759
  0
VERTEX
  8
0
 62
7
  6
CONTINUOUS
 10
125.3328076507
 20
155.070034054
  0
VERTEX
  8
0
 62
7
  6
CONTINUOUS
 10
125.4378320953
 20
154.9573337053
  0
VERTEX
  8
0
 62
7
  6
CONTINUOUS
 10
125.555964124
 20
154.8559570675
  0
VERTEX
  8
0
 62
7
  6
CONTINUOUS
 10
125.6851973164
 20
154.7661720017
  0
VERTEX
  8
0
 62
7
  6
CONTINUOUS
 10
125.8248314186
 20
154.6869243968
  0
VERTEX
  8
0
 62
7
  6
CONTINUOUS
 10
125.9757409421
 20
154.6165354906
  0
VERTEX
  8
0
 62
7
  6
CONTINUOUS
 10
126.1408906706
 20
154.5530938398
  0
VERTEX
  8
0
 62
7
  6
CONTINUOUS
 10
126.3240978433
 20
154.495317903
  0
VERTEX
  8
0
 62
7
  6
CONTINUOUS
 10
126.529488158
 20
154.442678905
  0
VERTEX
  8
0
 62
7
  6
CONTINUOUS
 10
126.729132848
 20
154.4012551692
  0
SEQEND
  0
LINE
  8
0
 62
7
  6
CONTINUOUS
 10
121.055389818
 20
166.6274378333
 11
121.055389818
 21
160.1274378333
  0
LINE
  8
0
 62
7
  6
CONTINUOUS
 10
125.055389818
 20
171.9024378333
 11
125.055389818
 21
168.1274378333
  0
LINE
  8
0
 62
7
  6
CONTINUOUS
 10
125.055389818
 20
158.6274378333
 11
125.055389818
 21
155.8240856624
  0
LINE
  8
0
 62
7
  6
CONTINUOUS
 10
62.055389818
 20
166.6001949982
 11
62.047506981
 21
166.5929846988
  0
LINE
  8
0
 62
7
  6
CONTINUOUS
 10
62.047506981
 20
166.5929846988
 11
62.006826754
 21
166.560137113
  0
POLYLINE
  8
0
 62
7
  6
CONTINUOUS
 66
1
 70
0
  0
VERTEX
  8
0
 62
7
  6
CONTINUOUS
 10
62.0063184013
 20
160.195123232
  0
VERTEX
  8
0
 62
7
  6
CONTINUOUS
 10
62.0471042925
 20
160.1622387181
  0
VERTEX
  8
0
 62
7
  6
CONTINUOUS
 10
62.055389818
 20
160.154671314
  0
SEQEND
  0
POLYLINE
  8
0
 62
7
  6
CONTINUOUS
 66
1
 70
0
  0
VERTEX
  8
0
 62
7
  6
CONTINUOUS
 10
84.7139506358
 20
170.9973663309
  0
VERTEX
  8
0
 62
7
  6
CONTINUOUS
 10
84.7072930273
 20
171.0056106909
  0
VERTEX
  8
0
 62
7
  6
CONTINUOUS
 10
84.6892014519
 20
171.0394094335
  0
SEQEND
  0
LINE
  8
0
 62
7
  6
CONTINUOUS
 10
137.055389818
 20
155.8240792133
 11
137.055389818
 21
158.6274378333
  0
LINE
  8
0
 62
7
  6
CONTINUOUS
 10
137.055389818
 20
168.1274378333
 11
137.055389818
 21
171.9024378333
  0
LINE
  8
0
 62
7
  6
CONTINUOUS
 10
141.055389818
 20
160.1274378333
 11
141.055389818
 21
166.6274378333
  0
LINE
  8
0
 62
7
  6
CONTINUOUS
 10
142.180389818
 20
172.9023141258
 11
142.180389818
 21
172.9024378333
  0
LINE
  8
0
 62
7
  6
CONTINUOUS
 10
142.3931557501
 20
172.7024378333
 11
142.3931557501
 21
172.9024378333
  0
LINE
  8
0
 62
7
  6
CONTINUOUS
 10
145.055389818
 20
172.7024378333
 11
145.055389818
 21
172.9024378333
  0
LINE
  8
0
 62
7
  6
CONTINUOUS
 10
145.305389818
 20
172.7024378333
 11
145.305389818
 21
172.9024378333
  0
POLYLINE
  8
0
 62
7
  6
CONTINUOUS
 66
1
 70
0
  0
VERTEX
  8
0
 62
7
  6
CONTINUOUS
 10
62.006826754
 20
166.560137113
  0
VERTEX
  8
0
 62
7
  6
CONTINUOUS
 10
61.9518697132
 20
166.5215338221
  0
VERTEX
  8
0
 62
7
  6
CONTINUOUS
 10
61.880389939
 20
166.4788048246
  0
VERTEX
  8
0
 62
7
  6
CONTINUOUS
 10
61.7893995291
 20
166.434119301
  0
VERTEX
  8
0
 62
7
  6
CONTINUOUS
 10
61.6777579971
 20
166.3915431722
  0
SEQEND
  0
POLYLINE
  8
0
 62
7
  6
CONTINUOUS
 66
1
 70
0
  0
VERTEX
  8
0
 62
7
  6
CONTINUOUS
 10
62.733009966
 20
172.6459724026
  0
VERTEX
  8
0
 62
7
  6
CONTINUOUS
 10
62.6203567654
 20
172.5745950223
  0
VERTEX
  8
0
 62
7
  6
CONTINUOUS
 10
62.489254005
 20
172.4704475203
  0
VERTEX
  8
0
 62
7
  6
CONTINUOUS
 10
62.3742738246
 20
172.3534989382
  0
VERTEX
  8
0
 62
7
  6
CONTINUOUS
 10
62.2759655985
 20
172.2249368327
  0
VERTEX
  8
0
 62
7
  6
CONTINUOUS
 10
62.1948015778
 20
172.0857624981
  0
VERTEX
  8
0
 62
7
  6
CONTINUOUS
 10
62.1314809466
 20
171.9371560731
  0
VERTEX
  8
0
 62
7
  6
CONTINUOUS
 10
62.0868127924
 20
171.7806349204
  0
VERTEX
  8
0
 62
7
  6
CONTINUOUS
 10
62.0614675277
 20
171.6178719959
  0
VERTEX
  8
0
 62
7
  6
CONTINUOUS
 10
62.0553898463
 20
171.4874644228
  0
SEQEND
  0
POLYLINE
  8
0
 62
7
  6
CONTINUOUS
 66
1
 70
0
  0
VERTEX
  8
0
 62
7
  6
CONTINUOUS
 10
151.0553898253
 20
155.8241160092
  0
VERTEX
  8
0
 62
7
  6
CONTINUOUS
 10
151.0598230099
 20
155.7234702679
  0
VERTEX
  8
0
 62
7
  6
CONTINUOUS
 10
151.08301879
 20
155.5740392653
  0
VERTEX
  8
0
 62
7
  6
CONTINUOUS
 10
151.12623187
 20
155.4270579024
  0
VERTEX
  8
0
 62
7
  6
CONTINUOUS
 10
151.1893283093
 20
155.2849055901
  0
VERTEX
  8
0
 62
7
  6
CONTINUOUS
 10
151.2716726004
 20
155.150061544
  0
VERTEX
  8
0
 62
7
  6
CONTINUOUS
 10
151.3717586456
 20
155.0251377136
  0
VERTEX
  8
0
 62
7
  6
CONTINUOUS
 10
151.4876485773
 20
154.9118774211
  0
VERTEX
  8
0
 62
7
  6
CONTINUOUS
 10
151.6176995363
 20
154.8107521053
  0
VERTEX
  8
0
 62
7
  6
CONTINUOUS
 10
151.7611440672
 20
154.7211272434
  0
VERTEX
  8
0
 62
7
  6
CONTINUOUS
 10
151.9189449942
 20
154.6414435589
  0
VERTEX
  8
0
 62
7
  6
CONTINUOUS
 10
152.093858058
 20
154.5699301134
  0
VERTEX
  8
0
 62
7
  6
CONTINUOUS
 10
152.2898418367
 20
154.505262751
  0
VERTEX
  8
0
 62
7
  6
CONTINUOUS
 10
152.5111408419
 20
154.4469353337
  0
VERTEX
  8
0
 62
7
  6
CONTINUOUS
 10
152.7291208102
 20
154.4012571352
  0
SEQEND
  0
LINE
  8
0
 62
7
  6
CONTINUOUS
 10
147.055389818
 20
166.6274378333
 11
147.055389818
 21
160.1274378333
  0
LINE
  8
0
 62
7
  6
CONTINUOUS
 10
151.055389818
 20
171.9024378333
 11
151.055389818
 21
168.1274378333
  0
LINE
  8
0
 62
7
  6
CONTINUOUS
 10
151.055389818
 20
158.6274378333
 11
151.055389818
 21
155.824079213
  0
LINE
  8
0
 62
7
  6
CONTINUOUS
 10
84.1029733512
 20
159.6392957665
 11
84.10358188
 21
159.6398038919
  0
POLYLINE
  8
0
 62
7
  6
CONTINUOUS
 66
1
 70
0
  0
VERTEX
  8
0
 62
7
  6
CONTINUOUS
 10
84.1035839474
 20
159.6398014145
  0
VERTEX
  8
0
 62
7
  6
CONTINUOUS
 10
84.1226173439
 20
159.653097533
  0
VERTEX
  8
0
 62
7
  6
CONTINUOUS
 10
84.1588110633
 20
159.6701872416
  0
VERTEX
  8
0
 62
7
  6
CONTINUOUS
 10
84.1919985016
 20
159.6787827721
  0
VERTEX
  8
0
 62
7
  6
CONTINUOUS
 10
84.2047837444
 20
159.6799835876
  0
SEQEND
  0
LINE
  8
0
 62
7
  6
CONTINUOUS
 10
62.733218236
 20
172.6460914353
 11
62.733009966
 21
172.6459724026
  0
LINE
  8
0
 62
7
  6
CONTINUOUS
 10
163.055389818
 20
155.8240792134
 11
163.055389818
 21
158.6274378333
  0
LINE
  8
0
 62
7
  6
CONTINUOUS
 10
163.055389818
 20
168.1274378333
 11
163.055389818
 21
171.9024378333
  0
LINE
  8
0
 62
7
  6
CONTINUOUS
 10
167.055389818
 20
160.1274378333
 11
167.055389818
 21
166.6274378333
  0
POLYLINE
  8
0
 62
7
  6
CONTINUOUS
 66
1
 70
0
  0
VERTEX
  8
0
 62
7
  6
CONTINUOUS
 10
177.0553898253
 20
155.8241160091
  0
VERTEX
  8
0
 62
7
  6
CONTINUOUS
 10
177.0598230099
 20
155.7234702681
  0
VERTEX
  8
0
 62
7
  6
CONTINUOUS
 10
177.0830187899
 20
155.5740392655
  0
VERTEX
  8
0
 62
7
  6
CONTINUOUS
 10
177.12623187
 20
155.4270579027
  0
VERTEX
  8
0
 62
7
  6
CONTINUOUS
 10
177.1893283091
 20
155.2849055904
  0
VERTEX
  8
0
 62
7
  6
CONTINUOUS
 10
177.2716726003
 20
155.1500615441
  0
VERTEX
  8
0
 62
7
  6
CONTINUOUS
 10
177.3717586454
 20
155.0251377139
  0
VERTEX
  8
0
 62
7
  6
CONTINUOUS
 10
177.4876485772
 20
154.9118774212
  0
VERTEX
  8
0
 62
7
  6
CONTINUOUS
 10
177.6176995361
 20
154.8107521055
  0
VERTEX
  8
0
 62
7
  6
CONTINUOUS
 10
177.761144067
 20
154.7211272435
  0
VERTEX
  8
0
 62
7
  6
CONTINUOUS
 10
177.9189449941
 20
154.6414435589
  0
VERTEX
  8
0
 62
7
  6
CONTINUOUS
 10
178.0938580578
 20
154.5699301135
  0
VERTEX
  8
0
 62
7
  6
CONTINUOUS
 10
178.2898418366
 20
154.505262751
  0
VERTEX
  8
0
 62
7
  6
CONTINUOUS
 10
178.5111408418
 20
154.4469353338
  0
VERTEX
  8
0
 62
7
  6
CONTINUOUS
 10
178.7291208102
 20
154.4012571352
  0
SEQEND
  0
LINE
  8
0
 62
7
  6
CONTINUOUS
 10
173.055389818
 20
166.6274378333
 11
173.055389818
 21
160.1274378333
  0
LINE
  8
0
 62
7
  6
CONTINUOUS
 10
177.055389818
 20
171.9024378333
 11
177.055389818
 21
168.1274378333
  0
LINE
  8
0
 62
7
  6
CONTINUOUS
 10
177.055389818
 20
158.6274378333
 11
177.055389818
 21
155.8240792129
  0
LINE
  8
0
 62
7
  6
CONTINUOUS
 10
181.105389818
 20
163.6774376113
 11
181.105389818
 21
168.7340723771
  0
LINE
  8
0
 62
7
  6
CONTINUOUS
 10
185.005389818
 20
168.7340723771
 11
185.005389818
 21
163.6774378333
  0
POLYLINE
  8
0
 62
7
  6
CONTINUOUS
 66
1
 70
0
  0
VERTEX
  8
0
 62
7
  6
CONTINUOUS
 10
101.9645446354
 20
154.0476280415
  0
VERTEX
  8
0
 62
7
  6
CONTINUOUS
 10
102.1067610781
 20
153.9863759527
  0
VERTEX
  8
0
 62
7
  6
CONTINUOUS
 10
102.2800274441
 20
153.9257496547
  0
VERTEX
  8
0
 62
7
  6
CONTINUOUS
 10
102.4534223861
 20
153.8822761139
  0
VERTEX
  8
0
 62
7
  6
CONTINUOUS
 10
102.6271779977
 20
153.8576333651
  0
VERTEX
  8
0
 62
7
  6
CONTINUOUS
 10
102.7486205931
 20
153.8524387301
  0
SEQEND
  0
LINE
  8
0
 62
7
  6
CONTINUOUS
 10
189.055389818
 20
155.8240792133
 11
189.055389818
 21
158.6274378333
  0
LINE
  8
0
 62
7
  6
CONTINUOUS
 10
189.055389818
 20
168.1274378333
 11
189.055389818
 21
171.9024378333
  0
LINE
  8
0
 62
7
  6
CONTINUOUS
 10
193.055389818
 20
160.1274378333
 11
193.055389818
 21
166.6274378333
  0
LINE
  8
0
 62
7
  6
CONTINUOUS
 10
199.055389818
 20
166.6274378333
 11
199.055389818
 21
160.1274378333
  0
POLYLINE
  8
0
 62
7
  6
CONTINUOUS
 66
1
 70
0
  0
VERTEX
  8
0
 62
7
  6
CONTINUOUS
 10
127.9645446354
 20
154.0476280415
  0
VERTEX
  8
0
 62
7
  6
CONTINUOUS
 10
128.1067610781
 20
153.9863759527
  0
VERTEX
  8
0
 62
7
  6
CONTINUOUS
 10
128.2800274441
 20
153.9257496547
  0
VERTEX
  8
0
 62
7
  6
CONTINUOUS
 10
128.4534223861
 20
153.8822761139
  0
VERTEX
  8
0
 62
7
  6
CONTINUOUS
 10
128.6271779977
 20
153.8576333651
  0
VERTEX
  8
0
 62
7
  6
CONTINUOUS
 10
128.7486205931
 20
153.8524387301
  0
SEQEND
  0
LINE
  8
0
 62
7
  6
CONTINUOUS
 10
203.055389818
 20
154.8524378333
 11
203.055389818
 21
158.6274378333
  0
LINE
  8
0
 62
7
  6
CONTINUOUS
 10
203.055389818
 20
168.1274378333
 11
203.055389818
 21
171.9024378333
  0
POLYLINE
  8
0
 62
7
  6
CONTINUOUS
 66
1
 70
0
  0
VERTEX
  8
0
 62
7
  6
CONTINUOUS
 10
108.1462165082
 20
154.0476190719
  0
VERTEX
  8
0
 62
7
  6
CONTINUOUS
 10
108.2386702058
 20
154.0881239321
  0
VERTEX
  8
0
 62
7
  6
CONTINUOUS
 10
108.3745190873
 20
154.1407390311
  0
VERTEX
  8
0
 62
7
  6
CONTINUOUS
 10
108.5351641261
 20
154.1952391485
  0
VERTEX
  8
0
 62
7
  6
CONTINUOUS
 10
108.7203937586
 20
154.2503246851
  0
VERTEX
  8
0
 62
7
  6
CONTINUOUS
 10
108.9298931237
 20
154.3048615203
  0
VERTEX
  8
0
 62
7
  6
CONTINUOUS
 10
109.1633067425
 20
154.3578486465
  0
SEQEND
  0
POLYLINE
  8
0
 62
7
  6
CONTINUOUS
 66
1
 70
0
  0
VERTEX
  8
0
 62
7
  6
CONTINUOUS
 10
134.14621828
 20
154.0476200143
  0
VERTEX
  8
0
 62
7
  6
CONTINUOUS
 10
134.2387239653
 20
154.088146512
  0
VERTEX
  8
0
 62
7
  6
CONTINUOUS
 10
134.3746386527
 20
154.1407824034
  0
VERTEX
  8
0
 62
7
  6
CONTINUOUS
 10
134.53534933
 20
154.195298024
  0
VERTEX
  8
0
 62
7
  6
CONTINUOUS
 10
134.720607596
 20
154.2503842563
  0
VERTEX
  8
0
 62
7
  6
CONTINUOUS
 10
134.9301098197
 20
154.3049142415
  0
VERTEX
  8
0
 62
7
  6
CONTINUOUS
 10
135.1634605178
 20
154.357881137
  0
SEQEND
  0
LINE
  8
SURFACE
 62
7
  6
CONTINUOUS
 10
443.4354773551
 20
160.3641328449
 11
443.5674762686
 21
160.3992915141
  0
POLYLINE
  8
SURFACE
 62
7
  6
CONTINUOUS
 66
1
 70
0
  0
VERTEX
  8
SURFACE
 62
7
  6
CONTINUOUS
 10
404.3816468724
 20
154.4012551849
  0
VERTEX
  8
SURFACE
 62
7
  6
CONTINUOUS
 10
404.5811727192
 20
154.4426516178
  0
VERTEX
  8
SURFACE
 62
7
  6
CONTINUOUS
 10
404.7864457723
 20
154.4952506388
  0
VERTEX
  8
SURFACE
 62
7
  6
CONTINUOUS
 10
404.9695511298
 20
154.5529761435
  0
VERTEX
  8
SURFACE
 62
7
  6
CONTINUOUS
 10
405.1346252521
 20
154.6163605397
  0
VERTEX
  8
SURFACE
 62
7
  6
CONTINUOUS
 10
405.2854932208
 20
154.6866906249
  0
VERTEX
  8
SURFACE
 62
7
  6
CONTINUOUS
 10
405.4251265528
 20
154.7658863847
  0
VERTEX
  8
SURFACE
 62
7
  6
CONTINUOUS
 10
405.5543985986
 20
154.8556359245
  0
VERTEX
  8
SURFACE
 62
7
  6
CONTINUOUS
 10
405.672603615
 20
154.957004533
  0
VERTEX
  8
SURFACE
 62
7
  6
CONTINUOUS
 10
405.7777193686
 20
155.0697291954
  0
VERTEX
  8
SURFACE
 62
7
  6
CONTINUOUS
 10
405.8675963394
 20
155.1924363086
  0
VERTEX
  8
SURFACE
 62
7
  6
CONTINUOUS
 10
405.9408649711
 20
155.3235937842
  0
VERTEX
  8
SURFACE
 62
7
  6
CONTINUOUS
 10
405.9965436771
 20
155.4613815895
  0
VERTEX
  8
SURFACE
 62
7
  6
CONTINUOUS
 10
406.0340156599
 20
155.6038984862
  0
VERTEX
  8
SURFACE
 62
7
  6
CONTINUOUS
 10
406.0529574084
 20
155.7495476186
  0
VERTEX
  8
SURFACE
 62
7
  6
CONTINUOUS
 10
406.0553892835
 20
155.8241347002
  0
SEQEND
  0
POLYLINE
  8
0
 62
7
  6
CONTINUOUS
 66
1
 70
0
  0
VERTEX
  8
0
 62
7
  6
CONTINUOUS
 10
100.9441683495
 20
154.3585473404
  0
VERTEX
  8
0
 62
7
  6
CONTINUOUS
 10
101.1778065115
 20
154.3056105124
  0
VERTEX
  8
0
 62
7
  6
CONTINUOUS
 10
101.3875685002
 20
154.2511086646
  0
VERTEX
  8
0
 62
7
  6
CONTINUOUS
 10
101.5730922182
 20
154.1960405791
  0
VERTEX
  8
0
 62
7
  6
CONTINUOUS
 10
101.7340592542
 20
154.141536834
  0
VERTEX
  8
0
 62
7
  6
CONTINUOUS
 10
101.870254042
 20
154.0888926992
  0
VERTEX
  8
0
 62
7
  6
CONTINUOUS
 10
101.9645657808
 20
154.0476178366
  0
SEQEND
  0
POLYLINE
  8
0
 62
7
  6
CONTINUOUS
 66
1
 70
0
  0
VERTEX
  8
0
 62
7
  6
CONTINUOUS
 10
61.5457794675
 20
160.3987685392
  0
VERTEX
  8
0
 62
7
  6
CONTINUOUS
 10
61.677220575
 20
160.3635081309
  0
VERTEX
  8
0
 62
7
  6
CONTINUOUS
 10
61.7888057438
 20
160.3210166161
  0
VERTEX
  8
0
 62
7
  6
CONTINUOUS
 10
61.8797789938
 20
160.2764048447
  0
VERTEX
  8
0
 62
7
  6
CONTINUOUS
 10
61.9512872429
 20
160.2337216402
  0
VERTEX
  8
0
 62
7
  6
CONTINUOUS
 10
62.0063184013
 20
160.195123232
  0
SEQEND
  0
POLYLINE
  8
0
 62
7
  6
CONTINUOUS
 66
1
 70
0
  0
VERTEX
  8
0
 62
7
  6
CONTINUOUS
 10
153.9645465965
 20
154.0476268672
  0
VERTEX
  8
0
 62
7
  6
CONTINUOUS
 10
154.1067530658
 20
153.9863781024
  0
VERTEX
  8
0
 62
7
  6
CONTINUOUS
 10
154.2800188073
 20
153.925751942
  0
VERTEX
  8
0
 62
7
  6
CONTINUOUS
 10
154.453410252
 20
153.8822788272
  0
VERTEX
  8
0
 62
7
  6
CONTINUOUS
 10
154.6272085153
 20
153.8576263895
  0
VERTEX
  8
0
 62
7
  6
CONTINUOUS
 10
154.7486288043
 20
153.8524379239
  0
SEQEND
  0
LINE
  8
0
 62
7
  6
CONTINUOUS
 10
215.055389818
 20
171.9024378333
 11
215.055389818
 21
168.1274378333
  0
LINE
  8
0
 62
7
  6
CONTINUOUS
 10
215.055389818
 20
154.8524378333
 11
215.055389818
 21
158.6274378333
  0
LINE
  8
0
 62
7
  6
CONTINUOUS
 10
219.055389818
 20
160.1274378333
 11
219.055389818
 21
166.6274378333
  0
LINE
  8
0
 62
7
  6
CONTINUOUS
 10
225.055389818
 20
166.6274378333
 11
225.055389818
 21
160.1274378333
  0
POLYLINE
  8
0
 62
7
  6
CONTINUOUS
 66
1
 70
0
  0
VERTEX
  8
0
 62
7
  6
CONTINUOUS
 10
160.1462182868
 20
154.0476200176
  0
VERTEX
  8
0
 62
7
  6
CONTINUOUS
 10
160.2387243571
 20
154.0881466745
  0
VERTEX
  8
0
 62
7
  6
CONTINUOUS
 10
160.3746394102
 20
154.1407826783
  0
VERTEX
  8
0
 62
7
  6
CONTINUOUS
 10
160.5353503602
 20
154.1952983516
  0
VERTEX
  8
0
 62
7
  6
CONTINUOUS
 10
160.7206087432
 20
154.2503845758
  0
VERTEX
  8
0
 62
7
  6
CONTINUOUS
 10
160.9301108682
 20
154.3049144967
  0
VERTEX
  8
0
 62
7
  6
CONTINUOUS
 10
161.1634611974
 20
154.3578812808
  0
SEQEND
  0
POLYLINE
  8
SURFACE
 62
7
  6
CONTINUOUS
 66
1
 70
0
  0
VERTEX
  8
SURFACE
 62
7
  6
CONTINUOUS
 10
352.3816593016
 20
154.4012572239
  0
VERTEX
  8
SURFACE
 62
7
  6
CONTINUOUS
 10
352.5841256918
 20
154.4433312039
  0
VERTEX
  8
SURFACE
 62
7
  6
CONTINUOUS
 10
352.79339497
 20
154.4972381135
  0
VERTEX
  8
SURFACE
 62
7
  6
CONTINUOUS
 10
352.9800519948
 20
154.5566556681
  0
VERTEX
  8
SURFACE
 62
7
  6
CONTINUOUS
 10
353.1476260048
 20
154.6219046835
  0
VERTEX
  8
SURFACE
 62
7
  6
CONTINUOUS
 10
353.2994545303
 20
154.6939293114
  0
VERTEX
  8
SURFACE
 62
7
  6
CONTINUOUS
 10
353.4382074471
 20
154.7741620932
  0
VERTEX
  8
SURFACE
 62
7
  6
CONTINUOUS
 10
353.565162758
 20
154.8640012362
  0
VERTEX
  8
SURFACE
 62
7
  6
CONTINUOUS
 10
353.6802469507
 20
154.9643727065
  0
VERTEX
  8
SURFACE
 62
7
  6
CONTINUOUS
 10
353.7823068863
 20
155.0752950366
  0
VERTEX
  8
SURFACE
 62
7
  6
CONTINUOUS
 10
353.8698563067
 20
155.1959658426
  0
VERTEX
  8
SURFACE
 62
7
  6
CONTINUOUS
 10
353.9413483373
 20
155.3246041017
  0
VERTEX
  8
SURFACE
 62
7
  6
CONTINUOUS
 10
353.9957581668
 20
155.45902395
  0
VERTEX
  8
SURFACE
 62
7
  6
CONTINUOUS
 10
354.0326968217
 20
155.5972552346
  0
VERTEX
  8
SURFACE
 62
7
  6
CONTINUOUS
 10
354.0520975988
 20
155.7373594182
  0
VERTEX
  8
SURFACE
 62
7
  6
CONTINUOUS
 10
354.0553898127
 20
155.8241103356
  0
SEQEND
  0
POLYLINE
  8
SURFACE
 62
7
  6
CONTINUOUS
 66
1
 70
0
  0
VERTEX
  8
SURFACE
 62
7
  6
CONTINUOUS
 10
378.3816468724
 20
154.4012551849
  0
VERTEX
  8
SURFACE
 62
7
  6
CONTINUOUS
 10
378.5811727192
 20
154.4426516178
  0
VERTEX
  8
SURFACE
 62
7
  6
CONTINUOUS
 10
378.7864457723
 20
154.4952506388
  0
VERTEX
  8
SURFACE
 62
7
  6
CONTINUOUS
 10
378.9695511298
 20
154.5529761435
  0
VERTEX
  8
SURFACE
 62
7
  6
CONTINUOUS
 10
379.1346252521
 20
154.6163605397
  0
VERTEX
  8
SURFACE
 62
7
  6
CONTINUOUS
 10
379.2854932208
 20
154.6866906249
  0
VERTEX
  8
SURFACE
 62
7
  6
CONTINUOUS
 10
379.4251265528
 20
154.7658863847
  0
VERTEX
  8
SURFACE
 62
7
  6
CONTINUOUS
 10
379.5543985986
 20
154.8556359245
  0
VERTEX
  8
SURFACE
 62
7
  6
CONTINUOUS
 10
379.672603615
 20
154.957004533
  0
VERTEX
  8
SURFACE
 62
7
  6
CONTINUOUS
 10
379.7777193686
 20
155.0697291954
  0
VERTEX
  8
SURFACE
 62
7
  6
CONTINUOUS
 10
379.8675963394
 20
155.1924363086
  0
VERTEX
  8
SURFACE
 62
7
  6
CONTINUOUS
 10
379.9408649711
 20
155.3235937842
  0
VERTEX
  8
SURFACE
 62
7
  6
CONTINUOUS
 10
379.9965436771
 20
155.4613815895
  0
VERTEX
  8
SURFACE
 62
7
  6
CONTINUOUS
 10
380.0340156599
 20
155.6038984862
  0
VERTEX
  8
SURFACE
 62
7
  6
CONTINUOUS
 10
380.0529574084
 20
155.7495476186
  0
VERTEX
  8
SURFACE
 62
7
  6
CONTINUOUS
 10
380.0553892835
 20
155.8241347002
  0
SEQEND
  0
LINE
  8
SURFACE
 62
7
  6
CONTINUOUS
 10
404.1666112865
 20
154.3585473404
 11
404.381653708
 21
154.4012561598
  0
LINE
  8
SURFACE
 62
7
  6
CONTINUOUS
 10
378.1666112865
 20
154.3585473404
 11
378.381653708
 21
154.4012561598
  0
LINE
  8
SURFACE
 62
7
  6
CONTINUOUS
 10
352.1667762586
 20
154.3585821389
 11
352.3816526792
 21
154.4012559714
  0
POLYLINE
  8
SURFACE
 62
7
  6
CONTINUOUS
 66
1
 70
0
  0
VERTEX
  8
SURFACE
 62
7
  6
CONTINUOUS
 10
443.5674762686
 20
160.3992915141
  0
VERTEX
  8
SURFACE
 62
7
  6
CONTINUOUS
 10
443.7173716323
 20
160.4218312609
  0
VERTEX
  8
SURFACE
 62
7
  6
CONTINUOUS
 10
443.8397060119
 20
160.4274379793
  0
SEQEND
  0
POLYLINE
  8
0
 62
7
  6
CONTINUOUS
 66
1
 70
0
  0
VERTEX
  8
0
 62
7
  6
CONTINUOUS
 10
98.1964893838
 20
159.6236244221
  0
VERTEX
  8
0
 62
7
  6
CONTINUOUS
 10
98.319730466
 20
159.6043310745
  0
VERTEX
  8
0
 62
7
  6
CONTINUOUS
 10
98.4368864406
 20
159.5700697228
  0
VERTEX
  8
0
 62
7
  6
CONTINUOUS
 10
98.5456196993
 20
159.5228013451
  0
VERTEX
  8
0
 62
7
  6
CONTINUOUS
 10
98.6442291506
 20
159.4648248051
  0
VERTEX
  8
0
 62
7
  6
CONTINUOUS
 10
98.7315752927
 20
159.3986506121
  0
VERTEX
  8
0
 62
7
  6
CONTINUOUS
 10
98.807075902
 20
159.3268662382
  0
VERTEX
  8
0
 62
7
  6
CONTINUOUS
 10
98.8707854479
 20
159.251861343
  0
VERTEX
  8
0
 62
7
  6
CONTINUOUS
 10
98.9233468723
 20
159.1755240833
  0
VERTEX
  8
0
 62
7
  6
CONTINUOUS
 10
98.9655970828
 20
159.0994331978
  0
VERTEX
  8
0
 62
7
  6
CONTINUOUS
 10
98.9982677122
 20
159.0254213135
  0
VERTEX
  8
0
 62
7
  6
CONTINUOUS
 10
99.0221803969
 20
158.9555735646
  0
VERTEX
  8
0
 62
7
  6
CONTINUOUS
 10
99.0384765864
 20
158.8916997156
  0
VERTEX
  8
0
 62
7
  6
CONTINUOUS
 10
99.048394478
 20
158.8360133268
  0
VERTEX
  8
0
 62
7
  6
CONTINUOUS
 10
99.0533992802
 20
158.7908888403
  0
VERTEX
  8
0
 62
7
  6
CONTINUOUS
 10
99.0551925997
 20
158.7574595726
  0
SEQEND
  0
LINE
  8
0
 62
7
  6
CONTINUOUS
 10
152.7291269568
 20
154.4012559714
 11
152.9440033774
 21
154.3585821389
  0
LINE
  8
0
 62
7
  6
CONTINUOUS
 10
100.729125928
 20
154.4012561598
 11
100.9441683495
 21
154.3585473404
  0
LINE
  8
0
 62
7
  6
CONTINUOUS
 10
126.729125928
 20
154.4012561598
 11
126.9441683495
 21
154.3585473404
  0
POLYLINE
  8
0
 62
7
  6
CONTINUOUS
 66
1
 70
0
  0
VERTEX
  8
0
 62
7
  6
CONTINUOUS
 10
126.9441683495
 20
154.3585473404
  0
VERTEX
  8
0
 62
7
  6
CONTINUOUS
 10
127.1778065115
 20
154.3056105124
  0
VERTEX
  8
0
 62
7
  6
CONTINUOUS
 10
127.3875685002
 20
154.2511086646
  0
VERTEX
  8
0
 62
7
  6
CONTINUOUS
 10
127.5730922182
 20
154.1960405791
  0
VERTEX
  8
0
 62
7
  6
CONTINUOUS
 10
127.7340592542
 20
154.141536834
  0
VERTEX
  8
0
 62
7
  6
CONTINUOUS
 10
127.870254042
 20
154.0888926992
  0
VERTEX
  8
0
 62
7
  6
CONTINUOUS
 10
127.9645657808
 20
154.0476178366
  0
SEQEND
  0
POLYLINE
  8
0
 62
7
  6
CONTINUOUS
 66
1
 70
0
  0
VERTEX
  8
0
 62
7
  6
CONTINUOUS
 10
152.9440033774
 20
154.3585821389
  0
VERTEX
  8
0
 62
7
  6
CONTINUOUS
 10
153.1775730132
 20
154.3056672132
  0
VERTEX
  8
0
 62
7
  6
CONTINUOUS
 10
153.3873350846
 20
154.2511735647
  0
VERTEX
  8
0
 62
7
  6
CONTINUOUS
 10
153.5728891327
 20
154.1961050146
  0
VERTEX
  8
0
 62
7
  6
CONTINUOUS
 10
153.7339264649
 20
154.1415849078
  0
VERTEX
  8
0
 62
7
  6
CONTINUOUS
 10
153.8701934062
 20
154.0889180886
  0
VERTEX
  8
0
 62
7
  6
CONTINUOUS
 10
153.9645638134
 20
154.0476188733
  0
SEQEND
  0
POLYLINE
  8
0
 62
7
  6
CONTINUOUS
 66
1
 70
0
  0
VERTEX
  8
0
 62
7
  6
CONTINUOUS
 10
179.9645465965
 20
154.0476268672
  0
VERTEX
  8
0
 62
7
  6
CONTINUOUS
 10
180.1067530657
 20
153.9863781025
  0
VERTEX
  8
0
 62
7
  6
CONTINUOUS
 10
180.2800188073
 20
153.925751942
  0
VERTEX
  8
0
 62
7
  6
CONTINUOUS
 10
180.4534102518
 20
153.8822788273
  0
VERTEX
  8
0
 62
7
  6
CONTINUOUS
 10
180.6272085146
 20
153.8576263896
  0
VERTEX
  8
0
 62
7
  6
CONTINUOUS
 10
180.7486288038
 20
153.8524379239
  0
SEQEND
  0
LINE
  8
0
 62
7
  6
CONTINUOUS
 10
229.055389818
 20
171.9024378333
 11
229.055389818
 21
168.1274378333
  0
LINE
  8
0
 62
7
  6
CONTINUOUS
 10
229.055389818
 20
158.6274378333
 11
229.055389818
 21
154.8524378333
  0
LINE
  8
0
 62
7
  6
CONTINUOUS
 10
240.6247481039
 20
158.9076226846
 11
240.6247515206
 21
157.539647655
  0
LINE
  8
0
 62
7
  6
CONTINUOUS
 10
240.6247515219
 20
169.215228013
 11
240.6247485586
 21
167.8472534993
  0
POLYLINE
  8
0
 62
7
  6
CONTINUOUS
 66
1
 70
0
  0
VERTEX
  8
0
 62
7
  6
CONTINUOUS
 10
186.1462182838
 20
154.0476200161
  0
VERTEX
  8
0
 62
7
  6
CONTINUOUS
 10
186.2387241027
 20
154.088146569
  0
VERTEX
  8
0
 62
7
  6
CONTINUOUS
 10
186.3746389166
 20
154.1407824992
  0
VERTEX
  8
0
 62
7
  6
CONTINUOUS
 10
186.5353496882
 20
154.1952981379
  0
VERTEX
  8
0
 62
7
  6
CONTINUOUS
 10
186.7206079948
 20
154.2503843674
  0
VERTEX
  8
0
 62
7
  6
CONTINUOUS
 10
186.9301101842
 20
154.3049143302
  0
VERTEX
  8
0
 62
7
  6
CONTINUOUS
 10
187.1634607541
 20
154.357881187
  0
SEQEND
  0
POLYLINE
  8
SURFACE
 62
7
  6
CONTINUOUS
 66
1
 70
0
  0
VERTEX
  8
SURFACE
 62
7
  6
CONTINUOUS
 10
326.3816593016
 20
154.4012572239
  0
VERTEX
  8
SURFACE
 62
7
  6
CONTINUOUS
 10
326.5841256919
 20
154.4433312039
  0
VERTEX
  8
SURFACE
 62
7
  6
CONTINUOUS
 10
326.7933949701
 20
154.4972381135
  0
VERTEX
  8
SURFACE
 62
7
  6
CONTINUOUS
 10
326.980051995
 20
154.5566556682
  0
VERTEX
  8
SURFACE
 62
7
  6
CONTINUOUS
 10
327.1476260051
 20
154.6219046836
  0
VERTEX
  8
SURFACE
 62
7
  6
CONTINUOUS
 10
327.2994545305
 20
154.6939293115
  0
VERTEX
  8
SURFACE
 62
7
  6
CONTINUOUS
 10
327.4382074474
 20
154.7741620935
  0
VERTEX
  8
SURFACE
 62
7
  6
CONTINUOUS
 10
327.5651627582
 20
154.8640012364
  0
VERTEX
  8
SURFACE
 62
7
  6
CONTINUOUS
 10
327.680246951
 20
154.9643727067
  0
VERTEX
  8
SURFACE
 62
7
  6
CONTINUOUS
 10
327.7823068864
 20
155.0752950368
  0
VERTEX
  8
SURFACE
 62
7
  6
CONTINUOUS
 10
327.869856307
 20
155.195965843
  0
VERTEX
  8
SURFACE
 62
7
  6
CONTINUOUS
 10
327.9413483374
 20
155.324604102
  0
VERTEX
  8
SURFACE
 62
7
  6
CONTINUOUS
 10
327.9957581669
 20
155.4590239503
  0
VERTEX
  8
SURFACE
 62
7
  6
CONTINUOUS
 10
328.0326968218
 20
155.5972552349
  0
VERTEX
  8
SURFACE
 62
7
  6
CONTINUOUS
 10
328.0520975988
 20
155.7373594183
  0
VERTEX
  8
SURFACE
 62
7
  6
CONTINUOUS
 10
328.0553898127
 20
155.8241103355
  0
SEQEND
  0
LINE
  8
SURFACE
 62
7
  6
CONTINUOUS
 10
326.1667762396
 20
154.3585821349
 11
326.3816526792
 21
154.4012559714
  0
LINE
  8
SURFACE
 62
7
  6
CONTINUOUS
 10
393.2493483533
 20
167.1462692146
 11
393.1293789875
 21
167.1301158302
  0
POLYLINE
  8
SURFACE
 62
7
  6
CONTINUOUS
 66
1
 70
0
  0
VERTEX
  8
SURFACE
 62
7
  6
CONTINUOUS
 10
402.3621590429
 20
153.8524387301
  0
VERTEX
  8
SURFACE
 62
7
  6
CONTINUOUS
 10
402.4836016383
 20
153.8576333651
  0
VERTEX
  8
SURFACE
 62
7
  6
CONTINUOUS
 10
402.6573572499
 20
153.8822761139
  0
VERTEX
  8
SURFACE
 62
7
  6
CONTINUOUS
 10
402.8307521919
 20
153.9257496547
  0
VERTEX
  8
SURFACE
 62
7
  6
CONTINUOUS
 10
403.0040185579
 20
153.9863759527
  0
VERTEX
  8
SURFACE
 62
7
  6
CONTINUOUS
 10
403.1462350006
 20
154.0476280415
  0
SEQEND
  0
POLYLINE
  8
SURFACE
 62
7
  6
CONTINUOUS
 66
1
 70
0
  0
VERTEX
  8
SURFACE
 62
7
  6
CONTINUOUS
 10
376.3621590429
 20
153.8524387301
  0
VERTEX
  8
SURFACE
 62
7
  6
CONTINUOUS
 10
376.4836016383
 20
153.8576333651
  0
VERTEX
  8
SURFACE
 62
7
  6
CONTINUOUS
 10
376.6573572499
 20
153.8822761139
  0
VERTEX
  8
SURFACE
 62
7
  6
CONTINUOUS
 10
376.8307521919
 20
153.9257496547
  0
VERTEX
  8
SURFACE
 62
7
  6
CONTINUOUS
 10
377.0040185579
 20
153.9863759527
  0
VERTEX
  8
SURFACE
 62
7
  6
CONTINUOUS
 10
377.1462350006
 20
154.0476280415
  0
SEQEND
  0
POLYLINE
  8
SURFACE
 62
7
  6
CONTINUOUS
 66
1
 70
0
  0
VERTEX
  8
SURFACE
 62
7
  6
CONTINUOUS
 10
350.3621508316
 20
153.8524379239
  0
VERTEX
  8
SURFACE
 62
7
  6
CONTINUOUS
 10
350.4835711207
 20
153.8576263895
  0
VERTEX
  8
SURFACE
 62
7
  6
CONTINUOUS
 10
350.657369384
 20
153.8822788272
  0
VERTEX
  8
SURFACE
 62
7
  6
CONTINUOUS
 10
350.8307608287
 20
153.925751942
  0
VERTEX
  8
SURFACE
 62
7
  6
CONTINUOUS
 10
351.0040265702
 20
153.9863781024
  0
VERTEX
  8
SURFACE
 62
7
  6
CONTINUOUS
 10
351.1462330395
 20
154.0476268672
  0
SEQEND
  0
POLYLINE
  8
SURFACE
 62
7
  6
CONTINUOUS
 66
1
 70
0
  0
VERTEX
  8
SURFACE
 62
7
  6
CONTINUOUS
 10
324.3621508322
 20
153.8524379239
  0
VERTEX
  8
SURFACE
 62
7
  6
CONTINUOUS
 10
324.4835711213
 20
153.8576263896
  0
VERTEX
  8
SURFACE
 62
7
  6
CONTINUOUS
 10
324.6573693842
 20
153.8822788273
  0
VERTEX
  8
SURFACE
 62
7
  6
CONTINUOUS
 10
324.8307608286
 20
153.925751942
  0
VERTEX
  8
SURFACE
 62
7
  6
CONTINUOUS
 10
325.0040265702
 20
153.9863781025
  0
VERTEX
  8
SURFACE
 62
7
  6
CONTINUOUS
 10
325.1462330395
 20
154.0476268672
  0
SEQEND
  0
POLYLINE
  8
0
 62
7
  6
CONTINUOUS
 66
1
 70
0
  0
VERTEX
  8
0
 62
7
  6
CONTINUOUS
 10
61.271072343
 20
160.4274379792
  0
VERTEX
  8
0
 62
7
  6
CONTINUOUS
 10
61.3964377014
 20
160.4215489953
  0
VERTEX
  8
0
 62
7
  6
CONTINUOUS
 10
61.5457794675
 20
160.3987685392
  0
SEQEND
  0
POLYLINE
  8
0
 62
7
  6
CONTINUOUS
 66
1
 70
0
  0
VERTEX
  8
0
 62
7
  6
CONTINUOUS
 10
111.9772886652
 20
167.1304260278
  0
VERTEX
  8
0
 62
7
  6
CONTINUOUS
 10
111.857266237
 20
167.1470986637
  0
VERTEX
  8
0
 62
7
  6
CONTINUOUS
 10
111.7403146626
 20
167.1781195183
  0
VERTEX
  8
0
 62
7
  6
CONTINUOUS
 10
111.6280118849
 20
167.2230268627
  0
VERTEX
  8
0
 62
7
  6
CONTINUOUS
 10
111.5218837721
 20
167.2812177888
  0
VERTEX
  8
0
 62
7
  6
CONTINUOUS
 10
111.4233987294
 20
167.3519502629
  0
VERTEX
  8
0
 62
7
  6
CONTINUOUS
 10
111.3339617632
 20
167.4343431911
  0
VERTEX
  8
0
 62
7
  6
CONTINUOUS
 10
111.2550507067
 20
167.5271829737
  0
VERTEX
  8
0
 62
7
  6
CONTINUOUS
 10
111.1882777715
 20
167.6285025752
  0
VERTEX
  8
0
 62
7
  6
CONTINUOUS
 10
111.1348111836
 20
167.7359250101
  0
VERTEX
  8
0
 62
7
  6
CONTINUOUS
 10
111.0952195311
 20
167.8469060018
  0
VERTEX
  8
0
 62
7
  6
CONTINUOUS
 10
111.0695038806
 20
167.9587013082
  0
SEQEND
  0
LINE
  8
0
 62
7
  6
CONTINUOUS
 10
178.7291269568
 20
154.4012559714
 11
178.9440033964
 21
154.3585821349
  0
POLYLINE
  8
0
 62
7
  6
CONTINUOUS
 66
1
 70
0
  0
VERTEX
  8
0
 62
7
  6
CONTINUOUS
 10
178.9440033964
 20
154.3585821349
  0
VERTEX
  8
0
 62
7
  6
CONTINUOUS
 10
179.1775730426
 20
154.305667206
  0
VERTEX
  8
0
 62
7
  6
CONTINUOUS
 10
179.3873351168
 20
154.2511735557
  0
VERTEX
  8
0
 62
7
  6
CONTINUOUS
 10
179.5728891617
 20
154.1961050054
  0
VERTEX
  8
0
 62
7
  6
CONTINUOUS
 10
179.7339264862
 20
154.1415849001
  0
VERTEX
  8
0
 62
7
  6
CONTINUOUS
 10
179.8701934172
 20
154.088918084
  0
VERTEX
  8
0
 62
7
  6
CONTINUOUS
 10
179.9645638136
 20
154.0476188732
  0
SEQEND
  0
POLYLINE
  8
0
 62
7
  6
CONTINUOUS
 66
1
 70
0
  0
VERTEX
  8
0
 62
7
  6
CONTINUOUS
 10
240.6247483869
 20
167.8472939718
  0
VERTEX
  8
0
 62
7
  6
CONTINUOUS
 10
240.6257092835
 20
167.8353756068
  0
VERTEX
  8
0
 62
7
  6
CONTINUOUS
 10
240.6287598186
 20
167.8250096695
  0
VERTEX
  8
0
 62
7
  6
CONTINUOUS
 10
240.6336847099
 20
167.8166751395
  0
VERTEX
  8
0
 62
7
  6
CONTINUOUS
 10
240.6400067472
 20
167.8102468749
  0
VERTEX
  8
0
 62
7
  6
CONTINUOUS
 10
240.6475273628
 20
167.8052079913
  0
VERTEX
  8
0
 62
7
  6
CONTINUOUS
 10
240.656195582
 20
167.8011952504
  0
VERTEX
  8
0
 62
7
  6
CONTINUOUS
 10
240.665819414
 20
167.7980302579
  0
VERTEX
  8
0
 62
7
  6
CONTINUOUS
 10
240.676069033
 20
167.7955816536
  0
VERTEX
  8
0
 62
7
  6
CONTINUOUS
 10
240.687108639
 20
167.7936358635
  0
VERTEX
  8
0
 62
7
  6
CONTINUOUS
 10
240.6989817077
 20
167.7920801836
  0
VERTEX
  8
0
 62
7
  6
CONTINUOUS
 10
240.711656414
 20
167.7908371856
  0
VERTEX
  8
0
 62
7
  6
CONTINUOUS
 10
240.7251826963
 20
167.7898340294
  0
VERTEX
  8
0
 62
7
  6
CONTINUOUS
 10
240.739673267
 20
167.7890064636
  0
VERTEX
  8
0
 62
7
  6
CONTINUOUS
 10
240.7552465776
 20
167.7882982998
  0
VERTEX
  8
0
 62
7
  6
CONTINUOUS
 10
240.7720135469
 20
167.7876556069
  0
SEQEND
  0
POLYLINE
  8
0
 62
7
  6
CONTINUOUS
 66
1
 70
0
  0
VERTEX
  8
0
 62
7
  6
CONTINUOUS
 10
241.9053897674
 20
171.5573934671
  0
VERTEX
  8
0
 62
7
  6
CONTINUOUS
 10
241.9041299069
 20
171.6205923612
  0
VERTEX
  8
0
 62
7
  6
CONTINUOUS
 10
241.8850176187
 20
171.8057596306
  0
VERTEX
  8
0
 62
7
  6
CONTINUOUS
 10
241.8427569509
 20
171.9832915086
  0
VERTEX
  8
0
 62
7
  6
CONTINUOUS
 10
241.777757174
 20
172.1508827327
  0
VERTEX
  8
0
 62
7
  6
CONTINUOUS
 10
241.6908619537
 20
172.3064176349
  0
VERTEX
  8
0
 62
7
  6
CONTINUOUS
 10
241.5829090879
 20
172.4481527497
  0
VERTEX
  8
0
 62
7
  6
CONTINUOUS
 10
241.4547674026
 20
172.5742207319
  0
VERTEX
  8
0
 62
7
  6
CONTINUOUS
 10
241.3086207934
 20
172.6818243045
  0
VERTEX
  8
0
 62
7
  6
CONTINUOUS
 10
241.1487443029
 20
172.7681027857
  0
VERTEX
  8
0
 62
7
  6
CONTINUOUS
 10
240.9797895085
 20
172.8319810477
  0
VERTEX
  8
0
 62
7
  6
CONTINUOUS
 10
240.8057481249
 20
172.8741868983
  0
VERTEX
  8
0
 62
7
  6
CONTINUOUS
 10
240.6291394762
 20
172.8967554112
  0
VERTEX
  8
0
 62
7
  6
CONTINUOUS
 10
240.4767292197
 20
172.9024378223
  0
SEQEND
  0
LINE
  8
0
 62
7
  6
CONTINUOUS
 10
241.9053898165
 20
155.197235478
 11
241.9053897667
 21
155.1975065537
  0
LINE
  8
0
 62
7
  6
CONTINUOUS
 10
241.905389818
 20
171.5533828998
 11
241.905389818
 21
167.1401033554
  0
LINE
  8
0
 62
7
  6
CONTINUOUS
 10
241.905389818
 20
159.6147723112
 11
241.905389818
 21
155.2014943871
  0
LINE
  8
0
 62
7
  6
CONTINUOUS
 10
245.055389818
 20
160.1274378333
 11
245.055389818
 21
166.6274378333
  0
LINE
  8
DEFAULT_1
 62
7
  6
CENTER
 10
252.555389818
 20
151.8524376261
 11
252.555389818
 21
174.9024500882
  0
LINE
  8
0
 62
7
  6
CONTINUOUS
 10
241.9053897859
 20
171.5574174392
 11
241.9053898165
 21
171.5576401369
  0
POLYLINE
  8
0
 62
7
  6
CONTINUOUS
 66
1
 70
0
  0
VERTEX
  8
0
 62
7
  6
CONTINUOUS
 10
240.6247515285
 20
157.5396503012
  0
VERTEX
  8
0
 62
7
  6
CONTINUOUS
 10
240.6241710979
 20
157.5291593249
  0
VERTEX
  8
0
 62
7
  6
CONTINUOUS
 10
240.6224494671
 20
157.5201476576
  0
VERTEX
  8
0
 62
7
  6
CONTINUOUS
 10
240.6196946034
 20
157.512827683
  0
SEQEND
  0
POLYLINE
  8
0
 62
7
  6
CONTINUOUS
 66
1
 70
0
  0
VERTEX
  8
0
 62
7
  6
CONTINUOUS
 10
240.6196946006
 20
157.512827683
  0
VERTEX
  8
0
 62
7
  6
CONTINUOUS
 10
240.5576533034
 20
157.4061868619
  0
VERTEX
  8
0
 62
7
  6
CONTINUOUS
 10
240.4792975848
 20
157.3020014245
  0
VERTEX
  8
0
 62
7
  6
CONTINUOUS
 10
240.3862642757
 20
157.2024534352
  0
VERTEX
  8
0
 62
7
  6
CONTINUOUS
 10
240.2804966139
 20
157.1096280009
  0
VERTEX
  8
0
 62
7
  6
CONTINUOUS
 10
240.1642037175
 20
157.0254694743
  0
VERTEX
  8
0
 62
7
  6
CONTINUOUS
 10
240.0398145083
 20
156.9517406025
  0
VERTEX
  8
0
 62
7
  6
CONTINUOUS
 10
239.9099270604
 20
156.8899854733
  0
VERTEX
  8
0
 62
7
  6
CONTINUOUS
 10
239.7772540553
 20
156.8414977061
  0
SEQEND
  0
POLYLINE
  8
0
 62
7
  6
CONTINUOUS
 66
1
 70
0
  0
VERTEX
  8
0
 62
7
  6
CONTINUOUS
 10
241.4124792908
 20
159.3933546814
  0
VERTEX
  8
0
 62
7
  6
CONTINUOUS
 10
241.2899073491
 20
159.2870627697
  0
VERTEX
  8
0
 62
7
  6
CONTINUOUS
 10
241.0605212912
 20
159.0805462485
  0
SEQEND
  0
POLYLINE
  8
0
 62
7
  6
CONTINUOUS
 66
1
 70
0
  0
VERTEX
  8
0
 62
7
  6
CONTINUOUS
 10
241.0605212912
 20
159.0805462485
  0
VERTEX
  8
0
 62
7
  6
CONTINUOUS
 10
241.000149906
 20
159.0340932555
  0
VERTEX
  8
0
 62
7
  6
CONTINUOUS
 10
240.9330004947
 20
158.999249756
  0
VERTEX
  8
0
 62
7
  6
CONTINUOUS
 10
240.8578126857
 20
158.9767886454
  0
VERTEX
  8
0
 62
7
  6
CONTINUOUS
 10
240.7720139249
 20
158.9672220133
  0
SEQEND
  0
POLYLINE
  8
SURFACE
 62
7
  6
CONTINUOUS
 66
1
 70
0
  0
VERTEX
  8
SURFACE
 62
7
  6
CONTINUOUS
 10
416.6451667275
 20
170.9973655909
  0
VERTEX
  8
SURFACE
 62
7
  6
CONTINUOUS
 10
416.5658601395
 20
170.9910780866
  0
VERTEX
  8
SURFACE
 62
7
  6
CONTINUOUS
 10
416.4900081079
 20
170.9728560647
  0
VERTEX
  8
SURFACE
 62
7
  6
CONTINUOUS
 10
416.4182275758
 20
170.9433204207
  0
VERTEX
  8
SURFACE
 62
7
  6
CONTINUOUS
 10
416.3536498795
 20
170.9044266593
  0
VERTEX
  8
SURFACE
 62
7
  6
CONTINUOUS
 10
416.2985369516
 20
170.8592055727
  0
VERTEX
  8
SURFACE
 62
7
  6
CONTINUOUS
 10
416.2538409833
 20
170.8111272828
  0
VERTEX
  8
SURFACE
 62
7
  6
CONTINUOUS
 10
416.21904987
 20
170.7631217098
  0
VERTEX
  8
SURFACE
 62
7
  6
CONTINUOUS
 10
416.1928629034
 20
170.7173383234
  0
VERTEX
  8
SURFACE
 62
7
  6
CONTINUOUS
 10
416.1736139133
 20
170.675011939
  0
VERTEX
  8
SURFACE
 62
7
  6
CONTINUOUS
 10
416.1596310633
 20
170.6365768596
  0
VERTEX
  8
SURFACE
 62
7
  6
CONTINUOUS
 10
416.1493789804
 20
170.6016160509
  0
VERTEX
  8
SURFACE
 62
7
  6
CONTINUOUS
 10
416.1415514506
 20
170.5688167339
  0
VERTEX
  8
SURFACE
 62
7
  6
CONTINUOUS
 10
416.1352344521
 20
170.5366363283
  0
VERTEX
  8
SURFACE
 62
7
  6
CONTINUOUS
 10
416.1298879334
 20
170.5039148564
  0
VERTEX
  8
SURFACE
 62
7
  6
CONTINUOUS
 10
416.1251763831
 20
170.469722999
  0
VERTEX
  8
SURFACE
 62
7
  6
CONTINUOUS
 10
416.1208568983
 20
170.4329859725
  0
VERTEX
  8
SURFACE
 62
7
  6
CONTINUOUS
 10
416.1167912127
 20
170.3928221577
  0
VERTEX
  8
SURFACE
 62
7
  6
CONTINUOUS
 10
416.1129088409
 20
170.3485611644
  0
VERTEX
  8
SURFACE
 62
7
  6
CONTINUOUS
 10
416.1091828515
 20
170.2997423634
  0
VERTEX
  8
SURFACE
 62
7
  6
CONTINUOUS
 10
416.1055989037
 20
170.2458903841
  0
VERTEX
  8
SURFACE
 62
7
  6
CONTINUOUS
 10
416.1021522817
 20
170.1864684064
  0
VERTEX
  8
SURFACE
 62
7
  6
CONTINUOUS
 10
416.0988527188
 20
170.1209916627
  0
VERTEX
  8
SURFACE
 62
7
  6
CONTINUOUS
 10
416.095722289
 20
170.0490314102
  0
VERTEX
  8
SURFACE
 62
7
  6
CONTINUOUS
 10
416.0927913057
 20
169.9701725905
  0
VERTEX
  8
SURFACE
 62
7
  6
CONTINUOUS
 10
416.0900987072
 20
169.8840174002
  0
VERTEX
  8
SURFACE
 62
7
  6
CONTINUOUS
 10
416.0876941617
 20
169.790247994
  0
VERTEX
  8
SURFACE
 62
7
  6
CONTINUOUS
 10
416.0856377347
 20
169.6886659966
  0
VERTEX
  8
SURFACE
 62
7
  6
CONTINUOUS
 10
416.0834630597
 20
169.5316021025
  0
SEQEND
  0
POLYLINE
  8
0
 62
7
  6
CONTINUOUS
 66
1
 70
0
  0
VERTEX
  8
0
 62
7
  6
CONTINUOUS
 10
185.3621657984
 20
153.8524379411
  0
VERTEX
  8
0
 62
7
  6
CONTINUOUS
 10
185.479351793
 20
153.8572759732
  0
VERTEX
  8
0
 62
7
  6
CONTINUOUS
 10
185.6535780493
 20
153.8815333792
  0
VERTEX
  8
0
 62
7
  6
CONTINUOUS
 10
185.8273811656
 20
153.9247343815
  0
VERTEX
  8
0
 62
7
  6
CONTINUOUS
 10
186.0009989316
 20
153.9851818423
  0
VERTEX
  8
0
 62
7
  6
CONTINUOUS
 10
186.1462295963
 20
154.0476252761
  0
SEQEND
  0
POLYLINE
  8
0
 62
7
  6
CONTINUOUS
 66
1
 70
0
  0
VERTEX
  8
0
 62
7
  6
CONTINUOUS
 10
159.362166226
 20
153.8524379348
  0
VERTEX
  8
0
 62
7
  6
CONTINUOUS
 10
159.4793517315
 20
153.8572759601
  0
VERTEX
  8
0
 62
7
  6
CONTINUOUS
 10
159.6535783678
 20
153.8815334404
  0
VERTEX
  8
0
 62
7
  6
CONTINUOUS
 10
159.8273812854
 20
153.9247344174
  0
VERTEX
  8
0
 62
7
  6
CONTINUOUS
 10
160.0009990021
 20
153.9851818698
  0
VERTEX
  8
0
 62
7
  6
CONTINUOUS
 10
160.1462295873
 20
154.0476252723
  0
SEQEND
  0
POLYLINE
  8
0
 62
7
  6
CONTINUOUS
 66
1
 70
0
  0
VERTEX
  8
0
 62
7
  6
CONTINUOUS
 10
133.3621659562
 20
153.8524379402
  0
VERTEX
  8
0
 62
7
  6
CONTINUOUS
 10
133.4793518005
 20
153.857275972
  0
VERTEX
  8
0
 62
7
  6
CONTINUOUS
 10
133.6535781773
 20
153.8815334042
  0
VERTEX
  8
0
 62
7
  6
CONTINUOUS
 10
133.8273812254
 20
153.9247343995
  0
VERTEX
  8
0
 62
7
  6
CONTINUOUS
 10
134.0009989646
 20
153.9851818553
  0
VERTEX
  8
0
 62
7
  6
CONTINUOUS
 10
134.1462295941
 20
154.0476252751
  0
SEQEND
  0
POLYLINE
  8
0
 62
7
  6
CONTINUOUS
 66
1
 70
0
  0
VERTEX
  8
0
 62
7
  6
CONTINUOUS
 10
107.3621725737
 20
153.8524387389
  0
VERTEX
  8
0
 62
7
  6
CONTINUOUS
 10
107.4793821902
 20
153.8572828168
  0
VERTEX
  8
0
 62
7
  6
CONTINUOUS
 10
107.6535612624
 20
153.8815298438
  0
VERTEX
  8
0
 62
7
  6
CONTINUOUS
 10
107.8273722321
 20
153.9247320019
  0
VERTEX
  8
0
 62
7
  6
CONTINUOUS
 10
108.0009933851
 20
153.9851806404
  0
VERTEX
  8
0
 62
7
  6
CONTINUOUS
 10
108.1462310599
 20
154.0476262091
  0
SEQEND
  0
POLYLINE
  8
0
 62
7
  6
CONTINUOUS
 66
1
 70
0
  0
VERTEX
  8
0
 62
7
  6
CONTINUOUS
 10
240.7720139249
 20
158.9672220133
  0
VERTEX
  8
0
 62
7
  6
CONTINUOUS
 10
240.7549999856
 20
158.9665692989
  0
VERTEX
  8
0
 62
7
  6
CONTINUOUS
 10
240.7393539779
 20
158.9658550807
  0
VERTEX
  8
0
 62
7
  6
CONTINUOUS
 10
240.7249948042
 20
158.9650312483
  0
VERTEX
  8
0
 62
7
  6
CONTINUOUS
 10
240.7118146225
 20
158.9640532649
  0
VERTEX
  8
0
 62
7
  6
CONTINUOUS
 10
240.6996834776
 20
158.9628749146
  0
VERTEX
  8
0
 62
7
  6
CONTINUOUS
 10
240.6884580228
 20
158.9614408505
  0
VERTEX
  8
0
 62
7
  6
CONTINUOUS
 10
240.6779896562
 20
158.9596754679
  0
VERTEX
  8
0
 62
7
  6
CONTINUOUS
 10
240.6681323599
 20
158.9574648582
  0
VERTEX
  8
0
 62
7
  6
CONTINUOUS
 10
240.658742521
 20
158.9546207192
  0
VERTEX
  8
0
 62
7
  6
CONTINUOUS
 10
240.6497548979
 20
158.950835975
  0
VERTEX
  8
0
 62
7
  6
CONTINUOUS
 10
240.6414672922
 20
158.9457638837
  0
VERTEX
  8
0
 62
7
  6
CONTINUOUS
 10
240.6344698945
 20
158.9391648101
  0
VERTEX
  8
0
 62
7
  6
CONTINUOUS
 10
240.6291350972
 20
158.9306899589
  0
VERTEX
  8
0
 62
7
  6
CONTINUOUS
 10
240.62582195
 20
158.9200810747
  0
VERTEX
  8
0
 62
7
  6
CONTINUOUS
 10
240.6247479021
 20
158.9075783436
  0
SEQEND
  0
POLYLINE
  8
0
 62
7
  6
CONTINUOUS
 66
1
 70
0
  0
VERTEX
  8
0
 62
7
  6
CONTINUOUS
 10
240.4767106632
 20
153.8524378508
  0
VERTEX
  8
0
 62
7
  6
CONTINUOUS
 10
240.6249768769
 20
153.8578059046
  0
VERTEX
  8
0
 62
7
  6
CONTINUOUS
 10
240.7974438652
 20
153.8791990338
  0
VERTEX
  8
0
 62
7
  6
CONTINUOUS
 10
240.9674786778
 20
153.9191770082
  0
VERTEX
  8
0
 62
7
  6
CONTINUOUS
 10
241.1328800319
 20
153.9796818704
  0
VERTEX
  8
0
 62
7
  6
CONTINUOUS
 10
241.2900403711
 20
154.0615160621
  0
VERTEX
  8
0
 62
7
  6
CONTINUOUS
 10
241.4346933452
 20
154.1638981084
  0
VERTEX
  8
0
 62
7
  6
CONTINUOUS
 10
241.5627332116
 20
154.2843579625
  0
VERTEX
  8
0
 62
7
  6
CONTINUOUS
 10
241.6717438465
 20
154.4201213624
  0
VERTEX
  8
0
 62
7
  6
CONTINUOUS
 10
241.7607414854
 20
154.5691763149
  0
VERTEX
  8
0
 62
7
  6
CONTINUOUS
 10
241.8289493253
 20
154.7296399761
  0
VERTEX
  8
0
 62
7
  6
CONTINUOUS
 10
241.8758279158
 20
154.9000659989
  0
VERTEX
  8
0
 62
7
  6
CONTINUOUS
 10
241.9009203226
 20
155.0793234763
  0
VERTEX
  8
0
 62
7
  6
CONTINUOUS
 10
241.9053897572
 20
155.1975302377
  0
SEQEND
  0
LINE
  8
SURFACE
 62
7
  6
CONTINUOUS
 10
416.707736985
 20
159.6389309435
 11
420.9057815278
 21
159.6799813865
  0
LINE
  8
SURFACE
 62
7
  6
CONTINUOUS
 10
418.9878870874
 20
155.6525428365
 11
418.972583123
 21
155.6524378333
  0
LINE
  8
0
 62
7
  6
CONTINUOUS
 10
63.055389818
 20
153.8524378333
 11
259.7239076155
 21
153.8524378333
  0
LINE
  8
SURFACE
 62
7
  6
CONTINUOUS
 10
245.3868720204
 20
153.8524378333
 11
442.055389818
 21
153.8524378333
  0
LINE
  8
SURFACE
 62
7
  6
CONTINUOUS
 10
418.9725831204
 20
155.6524378333
 11
406.9363210423
 21
155.6524378333
  0
LINE
  8
SURFACE
 62
7
  6
CONTINUOUS
 10
366.8456266811
 20
155.6524378333
 11
355.265151924
 21
155.6524378333
  0
LINE
  8
SURFACE
 62
7
  6
CONTINUOUS
 10
339.8703519781
 20
155.6524378333
 11
330.2404293725
 21
155.6524378333
  0
LINE
  8
SURFACE
 62
7
  6
CONTINUOUS
 10
313.8703519781
 20
155.6524378333
 11
304.2404293725
 21
155.6524378333
  0
LINE
  8
SURFACE
 62
7
  6
CONTINUOUS
 10
287.8703519781
 20
155.6524378333
 11
278.2404293725
 21
155.6524378333
  0
LINE
  8
0
 62
7
  6
CONTINUOUS
 10
86.1381965155
 20
155.6524378333
 11
98.1744585937
 21
155.6524378333
  0
LINE
  8
0
 62
7
  6
CONTINUOUS
 10
112.0795727161
 20
155.6524378333
 11
124.0312476856
 21
155.6524378333
  0
LINE
  8
0
 62
7
  6
CONTINUOUS
 10
138.2651529549
 20
155.6524378333
 11
149.845627712
 21
155.6524378333
  0
LINE
  8
0
 62
7
  6
CONTINUOUS
 10
165.2404276579
 20
155.6524378333
 11
174.8703502635
 21
155.6524378333
  0
LINE
  8
0
 62
7
  6
CONTINUOUS
 10
191.2404276579
 20
155.6524378333
 11
200.8703502635
 21
155.6524378333
  0
LINE
  8
0
 62
7
  6
CONTINUOUS
 10
217.2404276579
 20
155.6524378333
 11
226.8703502635
 21
155.6524378333
  0
LINE
  8
SURFACE
 62
7
  6
CONTINUOUS
 10
245.3868720204
 20
155.6524378333
 11
261.8703519781
 21
155.6524378333
  0
LINE
  8
0
 62
7
  6
CONTINUOUS
 10
243.2404276579
 20
155.6524378333
 11
259.7239076155
 21
155.6524378333
  0
LINE
  8
SURFACE
 62
7
  6
CONTINUOUS
 10
381.0795319504
 20
155.6524378333
 11
393.0312069199
 21
155.6524378333
  0
LINE
  8
0
 62
7
  6
CONTINUOUS
 10
63.055389818
 20
156.4024378333
 11
84.055389818
 21
156.4024378333
  0
LINE
  8
SURFACE
 62
7
  6
CONTINUOUS
 10
421.055389818
 20
156.4024378333
 11
442.055389818
 21
156.4024378333
  0
LINE
  8
SURFACE
 62
7
  6
CONTINUOUS
 10
409.555389818
 20
159.6274378333
 11
406.9223175488
 21
159.6274378333
  0
LINE
  8
SURFACE
 62
7
  6
CONTINUOUS
 10
393.1884618773
 20
159.6274378333
 11
390.555389818
 21
159.6274378333
  0
LINE
  8
SURFACE
 62
7
  6
CONTINUOUS
 10
383.555389818
 20
159.6274378333
 11
380.9223177986
 21
159.6274378333
  0
LINE
  8
SURFACE
 62
7
  6
CONTINUOUS
 10
367.1884618344
 20
159.6274378333
 11
364.555389818
 21
159.6274378333
  0
LINE
  8
SURFACE
 62
7
  6
CONTINUOUS
 10
357.555389818
 20
159.6274378333
 11
354.9223177986
 21
159.6274378333
  0
LINE
  8
SURFACE
 62
7
  6
CONTINUOUS
 10
341.1884618344
 20
159.6274378333
 11
338.555389818
 21
159.6274378333
  0
LINE
  8
SURFACE
 62
7
  6
CONTINUOUS
 10
331.555389818
 20
159.6274378333
 11
328.9223177986
 21
159.6274378333
  0
LINE
  8
SURFACE
 62
7
  6
CONTINUOUS
 10
315.1884618344
 20
159.6274378333
 11
312.555389818
 21
159.6274378333
  0
LINE
  8
SURFACE
 62
7
  6
CONTINUOUS
 10
305.555389818
 20
159.6274378333
 11
302.9223177957
 21
159.6274378333
  0
LINE
  8
SURFACE
 62
7
  6
CONTINUOUS
 10
289.1884618344
 20
159.6274378333
 11
286.555389818
 21
159.6274378333
  0
LINE
  8
SURFACE
 62
7
  6
CONTINUOUS
 10
279.555389818
 20
159.6274378333
 11
276.9223177985
 21
159.6274378333
  0
LINE
  8
SURFACE
 62
7
  6
CONTINUOUS
 10
263.1884578096
 20
159.6274378333
 11
260.555389818
 21
159.6274378333
  0
LINE
  8
0
 62
7
  6
CONTINUOUS
 10
95.555389818
 20
159.6274378333
 11
98.1884620872
 21
159.6274378333
  0
LINE
  8
0
 62
7
  6
CONTINUOUS
 10
111.9223177587
 20
159.6274378333
 11
114.555389818
 21
159.6274378333
  0
LINE
  8
0
 62
7
  6
CONTINUOUS
 10
121.555389818
 20
159.6274378333
 11
124.1884618374
 21
159.6274378333
  0
LINE
  8
0
 62
7
  6
CONTINUOUS
 10
137.9223178016
 20
159.6274378333
 11
140.555389818
 21
159.6274378333
  0
LINE
  8
0
 62
7
  6
CONTINUOUS
 10
147.555389818
 20
159.6274378333
 11
150.1884618374
 21
159.6274378333
  0
LINE
  8
0
 62
7
  6
CONTINUOUS
 10
163.9223178016
 20
159.6274378333
 11
166.555389818
 21
159.6274378333
  0
LINE
  8
0
 62
7
  6
CONTINUOUS
 10
173.555389818
 20
159.6274378333
 11
176.1884618374
 21
159.6274378333
  0
LINE
  8
0
 62
7
  6
CONTINUOUS
 10
189.9223178016
 20
159.6274378333
 11
192.555389818
 21
159.6274378333
  0
LINE
  8
0
 62
7
  6
CONTINUOUS
 10
199.555389818
 20
159.6274378333
 11
202.1884618402
 21
159.6274378333
  0
LINE
  8
0
 62
7
  6
CONTINUOUS
 10
215.9223178016
 20
159.6274378333
 11
218.555389818
 21
159.6274378333
  0
LINE
  8
0
 62
7
  6
CONTINUOUS
 10
225.555389818
 20
159.6274378333
 11
228.1884618375
 21
159.6274378333
  0
LINE
  8
0
 62
7
  6
CONTINUOUS
 10
241.9223218264
 20
159.6274378333
 11
244.555389818
 21
159.6274378333
  0
LINE
  8
SURFACE
 62
7
  6
CONTINUOUS
 10
453.255389818
 20
160.4274378333
 11
443.8397338029
 21
160.4274378333
  0
LINE
  8
0
 62
7
  6
CONTINUOUS
 10
61.2710458331
 20
160.4274378333
 11
51.855389818
 21
160.4274378333
  0
LINE
  8
DEFAULT_1
 62
7
  6
CENTER
 10
47.151999453
 20
163.1774378333
 11
458.1915508753
 21
163.1774378333
  0
LINE
  8
SURFACE
 62
7
  6
CONTINUOUS
 10
323.705389818
 20
163.3774378333
 11
320.405389818
 21
163.3774378333
  0
LINE
  8
0
 62
7
  6
CONTINUOUS
 10
184.705389818
 20
163.3774378333
 11
181.405389818
 21
163.3774378333
  0
LINE
  8
0
 62
7
  6
CONTINUOUS
 10
86.1228925486
 20
155.6525428365
 11
86.138196513
 21
155.6524378333
  0
LINE
  8
0
 62
7
  6
CONTINUOUS
 10
84.2049981082
 20
159.6799813865
 11
88.403042651
 21
159.6389309435
  0
POLYLINE
  8
SURFACE
 62
7
  6
CONTINUOUS
 66
1
 70
0
  0
VERTEX
  8
SURFACE
 62
7
  6
CONTINUOUS
 10
264.3387657111
 20
158.9672220133
  0
VERTEX
  8
SURFACE
 62
7
  6
CONTINUOUS
 10
264.3557796504
 20
158.9665692989
  0
VERTEX
  8
SURFACE
 62
7
  6
CONTINUOUS
 10
264.3714256581
 20
158.9658550807
  0
VERTEX
  8
SURFACE
 62
7
  6
CONTINUOUS
 10
264.3857848318
 20
158.9650312483
  0
VERTEX
  8
SURFACE
 62
7
  6
CONTINUOUS
 10
264.3989650135
 20
158.9640532649
  0
VERTEX
  8
SURFACE
 62
7
  6
CONTINUOUS
 10
264.4110961583
 20
158.9628749146
  0
VERTEX
  8
SURFACE
 62
7
  6
CONTINUOUS
 10
264.4223216132
 20
158.9614408505
  0
VERTEX
  8
SURFACE
 62
7
  6
CONTINUOUS
 10
264.4327899798
 20
158.9596754679
  0
VERTEX
  8
SURFACE
 62
7
  6
CONTINUOUS
 10
264.442647276
 20
158.9574648582
  0
VERTEX
  8
SURFACE
 62
7
  6
CONTINUOUS
 10
264.452037115
 20
158.9546207192
  0
VERTEX
  8
SURFACE
 62
7
  6
CONTINUOUS
 10
264.4610247381
 20
158.950835975
  0
VERTEX
  8
SURFACE
 62
7
  6
CONTINUOUS
 10
264.4693123438
 20
158.9457638837
  0
VERTEX
  8
SURFACE
 62
7
  6
CONTINUOUS
 10
264.4763097415
 20
158.9391648101
  0
VERTEX
  8
SURFACE
 62
7
  6
CONTINUOUS
 10
264.4816445388
 20
158.9306899589
  0
VERTEX
  8
SURFACE
 62
7
  6
CONTINUOUS
 10
264.484957686
 20
158.9200810747
  0
VERTEX
  8
SURFACE
 62
7
  6
CONTINUOUS
 10
264.4860317339
 20
158.9075783436
  0
SEQEND
  0
LINE
  8
0
 62
7
  6
CONTINUOUS
 10
98.1883071719
 20
159.6239923046
 11
98.1964893838
 21
159.6236244221
  0
POLYLINE
  8
0
 62
7
  6
CONTINUOUS
 66
1
 70
0
  0
VERTEX
  8
0
 62
7
  6
CONTINUOUS
 10
145.180389818
 20
172.8802584174
  0
VERTEX
  8
0
 62
7
  6
CONTINUOUS
 10
145.081688464
 20
172.8969719832
  0
VERTEX
  8
0
 62
7
  6
CONTINUOUS
 10
144.9856312631
 20
172.9024378333
  0
SEQEND
  0
POLYLINE
  8
0
 62
7
  6
CONTINUOUS
 66
1
 70
0
  0
VERTEX
  8
0
 62
7
  6
CONTINUOUS
 10
241.0605212855
 20
167.6743293428
  0
VERTEX
  8
0
 62
7
  6
CONTINUOUS
 10
241.2898957706
 20
167.4678231434
  0
VERTEX
  8
0
 62
7
  6
CONTINUOUS
 10
241.4124777301
 20
167.3615221472
  0
SEQEND
  0
POLYLINE
  8
0
 62
7
  6
CONTINUOUS
 66
1
 70
0
  0
VERTEX
  8
0
 62
7
  6
CONTINUOUS
 10
240.6196945258
 20
169.2420478643
  0
VERTEX
  8
0
 62
7
  6
CONTINUOUS
 10
240.5576532159
 20
169.3486887212
  0
VERTEX
  8
0
 62
7
  6
CONTINUOUS
 10
240.4792974891
 20
169.452874196
  0
VERTEX
  8
0
 62
7
  6
CONTINUOUS
 10
240.3862641833
 20
169.5524222277
  0
VERTEX
  8
0
 62
7
  6
CONTINUOUS
 10
240.2804965445
 20
169.645247717
  0
VERTEX
  8
0
 62
7
  6
CONTINUOUS
 10
240.1642037031
 20
169.7294063289
  0
VERTEX
  8
0
 62
7
  6
CONTINUOUS
 10
240.0398146108
 20
169.8031353665
  0
VERTEX
  8
0
 62
7
  6
CONTINUOUS
 10
239.9099274803
 20
169.8648909831
  0
VERTEX
  8
0
 62
7
  6
CONTINUOUS
 10
239.7772540553
 20
169.9133779549
  0
SEQEND
  0
POLYLINE
  8
0
 62
7
  6
CONTINUOUS
 66
1
 70
0
  0
VERTEX
  8
0
 62
7
  6
CONTINUOUS
 10
240.6196945238
 20
169.2420478643
  0
VERTEX
  8
0
 62
7
  6
CONTINUOUS
 10
240.6224494704
 20
169.2347279987
  0
VERTEX
  8
0
 62
7
  6
CONTINUOUS
 10
240.6241711001
 20
169.2257163359
  0
VERTEX
  8
0
 62
7
  6
CONTINUOUS
 10
240.6247515298
 20
169.2152253406
  0
SEQEND
  0
POLYLINE
  8
SURFACE
 62
7
  6
CONTINUOUS
 66
1
 70
0
  0
VERTEX
  8
SURFACE
 62
7
  6
CONTINUOUS
 10
264.4860281075
 20
157.5396503012
  0
VERTEX
  8
SURFACE
 62
7
  6
CONTINUOUS
 10
264.486608538
 20
157.5291593249
  0
VERTEX
  8
SURFACE
 62
7
  6
CONTINUOUS
 10
264.4883301689
 20
157.5201476576
  0
VERTEX
  8
SURFACE
 62
7
  6
CONTINUOUS
 10
264.4910850326
 20
157.512827683
  0
SEQEND
  0
POLYLINE
  8
SURFACE
 62
7
  6
CONTINUOUS
 66
1
 70
0
  0
VERTEX
  8
SURFACE
 62
7
  6
CONTINUOUS
 10
263.2053898796
 20
155.1975321369
  0
VERTEX
  8
SURFACE
 62
7
  6
CONTINUOUS
 10
263.2094212076
 20
155.0851820811
  0
VERTEX
  8
SURFACE
 62
7
  6
CONTINUOUS
 10
263.2338972856
 20
154.9052341122
  0
VERTEX
  8
SURFACE
 62
7
  6
CONTINUOUS
 10
263.2803102213
 20
154.734034846
  0
VERTEX
  8
SURFACE
 62
7
  6
CONTINUOUS
 10
263.3481928335
 20
154.5728257836
  0
VERTEX
  8
SURFACE
 62
7
  6
CONTINUOUS
 10
263.4369790283
 20
154.4230913806
  0
VERTEX
  8
SURFACE
 62
7
  6
CONTINUOUS
 10
263.5459006972
 20
154.2866857347
  0
VERTEX
  8
SURFACE
 62
7
  6
CONTINUOUS
 10
263.674000387
 20
154.1656068412
  0
VERTEX
  8
SURFACE
 62
7
  6
CONTINUOUS
 10
263.8188516722
 20
154.0626682782
  0
VERTEX
  8
SURFACE
 62
7
  6
CONTINUOUS
 10
263.9763192486
 20
153.9803773852
  0
VERTEX
  8
SURFACE
 62
7
  6
CONTINUOUS
 10
264.1420986747
 20
153.9195348634
  0
VERTEX
  8
SURFACE
 62
7
  6
CONTINUOUS
 10
264.3125395412
 20
153.8793399331
  0
VERTEX
  8
SURFACE
 62
7
  6
CONTINUOUS
 10
264.4854103184
 20
153.8578351398
  0
VERTEX
  8
SURFACE
 62
7
  6
CONTINUOUS
 10
264.6340688236
 20
153.8524378508
  0
SEQEND
  0
LINE
  8
SURFACE
 62
7
  6
CONTINUOUS
 10
263.205389856
 20
171.5574012705
 11
263.2053898195
 21
171.5576401369
  0
LINE
  8
SURFACE
 62
7
  6
CONTINUOUS
 10
260.055389818
 20
160.1274378333
 11
260.055389818
 21
166.6274378333
  0
LINE
  8
SURFACE
 62
7
  6
CONTINUOUS
 10
263.205389818
 20
155.2014943871
 11
263.205389818
 21
159.6147723112
  0
LINE
  8
SURFACE
 62
7
  6
CONTINUOUS
 10
263.205389818
 20
167.1401033554
 11
263.205389818
 21
171.5533828998
  0
LINE
  8
SURFACE
 62
7
  6
CONTINUOUS
 10
264.4860281141
 20
169.215228013
 11
264.4860310773
 21
167.8472534993
  0
LINE
  8
SURFACE
 62
7
  6
CONTINUOUS
 10
264.4860315321
 20
158.9076226846
 11
264.4860281154
 21
157.539647655
  0
LINE
  8
SURFACE
 62
7
  6
CONTINUOUS
 10
263.2053898195
 20
155.197235478
 11
263.2053898701
 21
155.1975084514
  0
POLYLINE
  8
SURFACE
 62
7
  6
CONTINUOUS
 66
1
 70
0
  0
VERTEX
  8
SURFACE
 62
7
  6
CONTINUOUS
 10
264.4860312491
 20
167.8472939718
  0
VERTEX
  8
SURFACE
 62
7
  6
CONTINUOUS
 10
264.4850703525
 20
167.8353756068
  0
VERTEX
  8
SURFACE
 62
7
  6
CONTINUOUS
 10
264.4820198174
 20
167.8250096695
  0
VERTEX
  8
SURFACE
 62
7
  6
CONTINUOUS
 10
264.4770949261
 20
167.8166751395
  0
VERTEX
  8
SURFACE
 62
7
  6
CONTINUOUS
 10
264.4707728888
 20
167.8102468749
  0
VERTEX
  8
SURFACE
 62
7
  6
CONTINUOUS
 10
264.4632522731
 20
167.8052079913
  0
VERTEX
  8
SURFACE
 62
7
  6
CONTINUOUS
 10
264.4545840539
 20
167.8011952504
  0
VERTEX
  8
SURFACE
 62
7
  6
CONTINUOUS
 10
264.444960222
 20
167.7980302579
  0
VERTEX
  8
SURFACE
 62
7
  6
CONTINUOUS
 10
264.4347106029
 20
167.7955816536
  0
VERTEX
  8
SURFACE
 62
7
  6
CONTINUOUS
 10
264.4236709969
 20
167.7936358635
  0
VERTEX
  8
SURFACE
 62
7
  6
CONTINUOUS
 10
264.4117979283
 20
167.7920801836
  0
VERTEX
  8
SURFACE
 62
7
  6
CONTINUOUS
 10
264.399123222
 20
167.7908371856
  0
VERTEX
  8
SURFACE
 62
7
  6
CONTINUOUS
 10
264.3855969397
 20
167.7898340294
  0
VERTEX
  8
SURFACE
 62
7
  6
CONTINUOUS
 10
264.371106369
 20
167.7890064636
  0
VERTEX
  8
SURFACE
 62
7
  6
CONTINUOUS
 10
264.3555330584
 20
167.7882982998
  0
VERTEX
  8
SURFACE
 62
7
  6
CONTINUOUS
 10
264.3387660891
 20
167.7876556069
  0
SEQEND
  0
POLYLINE
  8
SURFACE
 62
7
  6
CONTINUOUS
 66
1
 70
0
  0
VERTEX
  8
SURFACE
 62
7
  6
CONTINUOUS
 10
264.4910851122
 20
169.2420478643
  0
VERTEX
  8
SURFACE
 62
7
  6
CONTINUOUS
 10
264.4883301656
 20
169.2347279987
  0
VERTEX
  8
SURFACE
 62
7
  6
CONTINUOUS
 10
264.4866085359
 20
169.2257163359
  0
VERTEX
  8
SURFACE
 62
7
  6
CONTINUOUS
 10
264.4860281062
 20
169.2152253406
  0
SEQEND
  0
POLYLINE
  8
SURFACE
 62
7
  6
CONTINUOUS
 66
1
 70
0
  0
VERTEX
  8
SURFACE
 62
7
  6
CONTINUOUS
 10
264.4910851102
 20
169.2420478643
  0
VERTEX
  8
SURFACE
 62
7
  6
CONTINUOUS
 10
264.5531264201
 20
169.3486887212
  0
VERTEX
  8
SURFACE
 62
7
  6
CONTINUOUS
 10
264.6314821469
 20
169.452874196
  0
VERTEX
  8
SURFACE
 62
7
  6
CONTINUOUS
 10
264.7245154527
 20
169.5524222277
  0
VERTEX
  8
SURFACE
 62
7
  6
CONTINUOUS
 10
264.8302830915
 20
169.645247717
  0
VERTEX
  8
SURFACE
 62
7
  6
CONTINUOUS
 10
264.9465759329
 20
169.7294063289
  0
VERTEX
  8
SURFACE
 62
7
  6
CONTINUOUS
 10
265.0709650252
 20
169.8031353665
  0
VERTEX
  8
SURFACE
 62
7
  6
CONTINUOUS
 10
265.2008521557
 20
169.8648909831
  0
VERTEX
  8
SURFACE
 62
7
  6
CONTINUOUS
 10
265.3335255807
 20
169.9133779549
  0
SEQEND
  0
POLYLINE
  8
SURFACE
 62
7
  6
CONTINUOUS
 66
1
 70
0
  0
VERTEX
  8
SURFACE
 62
7
  6
CONTINUOUS
 10
264.0502583505
 20
167.6743293428
  0
VERTEX
  8
SURFACE
 62
7
  6
CONTINUOUS
 10
263.8208838654
 20
167.4678231434
  0
VERTEX
  8
SURFACE
 62
7
  6
CONTINUOUS
 10
263.6983019059
 20
167.3615221472
  0
SEQEND
  0
POLYLINE
  8
0
 62
7
  6
CONTINUOUS
 66
1
 70
0
  0
VERTEX
  8
0
 62
7
  6
CONTINUOUS
 10
187.381659444
 20
154.4012572505
  0
VERTEX
  8
0
 62
7
  6
CONTINUOUS
 10
187.5813445
 20
154.4426911714
  0
VERTEX
  8
0
 62
7
  6
CONTINUOUS
 10
187.7908020888
 20
154.4964947961
  0
VERTEX
  8
0
 62
7
  6
CONTINUOUS
 10
187.9776235215
 20
154.5558008185
  0
VERTEX
  8
0
 62
7
  6
CONTINUOUS
 10
188.1453221728
 20
154.6209157001
  0
VERTEX
  8
0
 62
7
  6
CONTINUOUS
 10
188.2972291123
 20
154.6927661779
  0
VERTEX
  8
0
 62
7
  6
CONTINUOUS
 10
188.4360228294
 20
154.772768532
  0
VERTEX
  8
0
 62
7
  6
CONTINUOUS
 10
188.5630167217
 20
154.8623210831
  0
VERTEX
  8
0
 62
7
  6
CONTINUOUS
 10
188.678179936
 20
154.9623686474
  0
VERTEX
  8
0
 62
7
  6
CONTINUOUS
 10
188.7803864585
 20
155.0729572191
  0
VERTEX
  8
0
 62
7
  6
CONTINUOUS
 10
188.8681475934
 20
155.1932949439
  0
VERTEX
  8
0
 62
7
  6
CONTINUOUS
 10
188.9399079199
 20
155.3216023967
  0
VERTEX
  8
0
 62
7
  6
CONTINUOUS
 10
188.9946381188
 20
155.4556921358
  0
VERTEX
  8
0
 62
7
  6
CONTINUOUS
 10
189.031949609
 20
155.5935845727
  0
VERTEX
  8
0
 62
7
  6
CONTINUOUS
 10
189.0517841276
 20
155.7333302126
  0
VERTEX
  8
0
 62
7
  6
CONTINUOUS
 10
189.0553898129
 20
155.8241096364
  0
SEQEND
  0
POLYLINE
  8
0
 62
7
  6
CONTINUOUS
 66
1
 70
0
  0
VERTEX
  8
0
 62
7
  6
CONTINUOUS
 10
161.3816594441
 20
154.4012572505
  0
VERTEX
  8
0
 62
7
  6
CONTINUOUS
 10
161.5813444998
 20
154.4426911714
  0
VERTEX
  8
0
 62
7
  6
CONTINUOUS
 10
161.7908020885
 20
154.496494796
  0
VERTEX
  8
0
 62
7
  6
CONTINUOUS
 10
161.977623521
 20
154.5558008183
  0
VERTEX
  8
0
 62
7
  6
CONTINUOUS
 10
162.1453221723
 20
154.6209156999
  0
VERTEX
  8
0
 62
7
  6
CONTINUOUS
 10
162.2972291117
 20
154.6927661775
  0
VERTEX
  8
0
 62
7
  6
CONTINUOUS
 10
162.4360228288
 20
154.7727685316
  0
VERTEX
  8
0
 62
7
  6
CONTINUOUS
 10
162.5630167211
 20
154.8623210826
  0
VERTEX
  8
0
 62
7
  6
CONTINUOUS
 10
162.6781799353
 20
154.9623686467
  0
VERTEX
  8
0
 62
7
  6
CONTINUOUS
 10
162.780386458
 20
155.0729572185
  0
VERTEX
  8
0
 62
7
  6
CONTINUOUS
 10
162.8681475927
 20
155.1932949428
  0
VERTEX
  8
0
 62
7
  6
CONTINUOUS
 10
162.9399079194
 20
155.3216023957
  0
VERTEX
  8
0
 62
7
  6
CONTINUOUS
 10
162.9946381185
 20
155.4556921349
  0
VERTEX
  8
0
 62
7
  6
CONTINUOUS
 10
163.0319496088
 20
155.5935845719
  0
VERTEX
  8
0
 62
7
  6
CONTINUOUS
 10
163.0517841275
 20
155.7333302121
  0
VERTEX
  8
0
 62
7
  6
CONTINUOUS
 10
163.0553898129
 20
155.8241096365
  0
SEQEND
  0
POLYLINE
  8
0
 62
7
  6
CONTINUOUS
 66
1
 70
0
  0
VERTEX
  8
0
 62
7
  6
CONTINUOUS
 10
135.381659444
 20
154.4012572505
  0
VERTEX
  8
0
 62
7
  6
CONTINUOUS
 10
135.5813445002
 20
154.4426911714
  0
VERTEX
  8
0
 62
7
  6
CONTINUOUS
 10
135.7908020892
 20
154.4964947962
  0
VERTEX
  8
0
 62
7
  6
CONTINUOUS
 10
135.977623522
 20
154.5558008186
  0
VERTEX
  8
0
 62
7
  6
CONTINUOUS
 10
136.1453221735
 20
154.6209157004
  0
VERTEX
  8
0
 62
7
  6
CONTINUOUS
 10
136.2972291128
 20
154.6927661781
  0
VERTEX
  8
0
 62
7
  6
CONTINUOUS
 10
136.43602283
 20
154.7727685324
  0
VERTEX
  8
0
 62
7
  6
CONTINUOUS
 10
136.5630167223
 20
154.8623210836
  0
VERTEX
  8
0
 62
7
  6
CONTINUOUS
 10
136.6781799366
 20
154.9623686479
  0
VERTEX
  8
0
 62
7
  6
CONTINUOUS
 10
136.7803864592
 20
155.0729572199
  0
VERTEX
  8
0
 62
7
  6
CONTINUOUS
 10
136.868147594
 20
155.1932949448
  0
VERTEX
  8
0
 62
7
  6
CONTINUOUS
 10
136.9399079204
 20
155.3216023977
  0
VERTEX
  8
0
 62
7
  6
CONTINUOUS
 10
136.9946381191
 20
155.4556921368
  0
VERTEX
  8
0
 62
7
  6
CONTINUOUS
 10
137.0319496092
 20
155.5935845735
  0
VERTEX
  8
0
 62
7
  6
CONTINUOUS
 10
137.0517841276
 20
155.7333302132
  0
VERTEX
  8
0
 62
7
  6
CONTINUOUS
 10
137.0553898129
 20
155.8241096364
  0
SEQEND
  0
LINE
  8
0
 62
7
  6
CONTINUOUS
 10
187.1634607541
 20
154.357881187
 11
187.3816529891
 21
154.4012560291
  0
LINE
  8
0
 62
7
  6
CONTINUOUS
 10
161.1634611974
 20
154.3578812808
 11
161.3816529898
 21
154.4012560292
  0
LINE
  8
0
 62
7
  6
CONTINUOUS
 10
135.1634605178
 20
154.357881137
 11
135.3816529887
 21
154.401256029
  0
POLYLINE
  8
SURFACE
 62
7
  6
CONTINUOUS
 66
1
 70
0
  0
VERTEX
  8
SURFACE
 62
7
  6
CONTINUOUS
 10
264.3387660891
 20
167.7876556069
  0
VERTEX
  8
SURFACE
 62
7
  6
CONTINUOUS
 10
264.2529753596
 20
167.778088702
  0
VERTEX
  8
SURFACE
 62
7
  6
CONTINUOUS
 10
264.1777886998
 20
167.755629794
  0
VERTEX
  8
SURFACE
 62
7
  6
CONTINUOUS
 10
264.1106316047
 20
167.7207836088
  0
VERTEX
  8
SURFACE
 62
7
  6
CONTINUOUS
 10
264.0502583505
 20
167.6743293428
  0
SEQEND
  0
POLYLINE
  8
0
 62
7
  6
CONTINUOUS
 66
1
 70
0
  0
VERTEX
  8
0
 62
7
  6
CONTINUOUS
 10
362.3371048244
 20
172.9024378333
  0
VERTEX
  8
0
 62
7
  6
CONTINUOUS
 10
362.2588165457
 20
172.8972306522
  0
VERTEX
  8
0
 62
7
  6
CONTINUOUS
 10
362.180389818
 20
172.8815700731
  0
SEQEND
  0
POLYLINE
  8
0
 62
7
  6
CONTINUOUS
 66
1
 70
0
  0
VERTEX
  8
0
 62
7
  6
CONTINUOUS
 10
88.4030432185
 20
159.6389313467
  0
VERTEX
  8
0
 62
7
  6
CONTINUOUS
 10
88.4706147167
 20
159.642867312
  0
VERTEX
  8
0
 62
7
  6
CONTINUOUS
 10
88.5316108314
 20
159.6544514354
  0
VERTEX
  8
0
 62
7
  6
CONTINUOUS
 10
88.5886555263
 20
159.6726842332
  0
VERTEX
  8
0
 62
7
  6
CONTINUOUS
 10
88.6411801761
 20
159.6965581745
  0
VERTEX
  8
0
 62
7
  6
CONTINUOUS
 10
88.6887972481
 20
159.7250636064
  0
VERTEX
  8
0
 62
7
  6
CONTINUOUS
 10
88.7312985096
 20
159.7572219472
  0
VERTEX
  8
0
 62
7
  6
CONTINUOUS
 10
88.7686286336
 20
159.7921057048
  0
VERTEX
  8
0
 62
7
  6
CONTINUOUS
 10
88.8008531685
 20
159.828841119
  0
VERTEX
  8
0
 62
7
  6
CONTINUOUS
 10
88.8281362606
 20
159.8666027721
  0
VERTEX
  8
0
 62
7
  6
CONTINUOUS
 10
88.8507464402
 20
159.9046399406
  0
VERTEX
  8
0
 62
7
  6
CONTINUOUS
 10
88.8688858658
 20
159.9419303013
  0
VERTEX
  8
0
 62
7
  6
CONTINUOUS
 10
88.8828420398
 20
159.97722784
  0
VERTEX
  8
0
 62
7
  6
CONTINUOUS
 10
88.8931648985
 20
160.0095103989
  0
VERTEX
  8
0
 62
7
  6
CONTINUOUS
 10
88.900657985
 20
160.0385193455
  0
VERTEX
  8
0
 62
7
  6
CONTINUOUS
 10
88.9061763329
 20
160.0648964075
  0
VERTEX
  8
0
 62
7
  6
CONTINUOUS
 10
88.9104593243
 20
160.0900762316
  0
VERTEX
  8
0
 62
7
  6
CONTINUOUS
 10
88.9140122812
 20
160.1157075094
  0
VERTEX
  8
0
 62
7
  6
CONTINUOUS
 10
88.9150098494
 20
160.1239316656
  0
SEQEND
  0
LINE
  8
SURFACE
 62
7
  6
CONTINUOUS
 10
356.014551005
 20
172.901556039
 11
355.9998233003
 21
172.9008160847
  0
POLYLINE
  8
0
 62
7
  6
CONTINUOUS
 66
1
 70
0
  0
VERTEX
  8
0
 62
7
  6
CONTINUOUS
 10
217.0217519849
 20
172.9018769481
  0
VERTEX
  8
0
 62
7
  6
CONTINUOUS
 10
217.0108724307
 20
172.9014507544
  0
VERTEX
  8
0
 62
7
  6
CONTINUOUS
 10
217.002487971
 20
172.9010413936
  0
VERTEX
  8
0
 62
7
  6
CONTINUOUS
 10
216.9944560703
 20
172.900583201
  0
SEQEND
  0
POLYLINE
  8
0
 62
7
  6
CONTINUOUS
 66
1
 70
0
  0
VERTEX
  8
0
 62
7
  6
CONTINUOUS
 10
165.0217486747
 20
172.9018768364
  0
VERTEX
  8
0
 62
7
  6
CONTINUOUS
 10
165.0108693985
 20
172.9014506191
  0
VERTEX
  8
0
 62
7
  6
CONTINUOUS
 10
165.0024856004
 20
172.9010412679
  0
VERTEX
  8
0
 62
7
  6
CONTINUOUS
 10
164.9944555179
 20
172.9005831673
  0
SEQEND
  0
POLYLINE
  8
SURFACE
 62
7
  6
CONTINUOUS
 66
1
 70
0
  0
VERTEX
  8
SURFACE
 62
7
  6
CONTINUOUS
 10
264.6340505959
 20
172.9024378223
  0
VERTEX
  8
SURFACE
 62
7
  6
CONTINUOUS
 10
264.4821102683
 20
172.8967913856
  0
VERTEX
  8
SURFACE
 62
7
  6
CONTINUOUS
 10
264.3059810281
 20
172.8743595078
  0
VERTEX
  8
SURFACE
 62
7
  6
CONTINUOUS
 10
264.1324169324
 20
172.8324179941
  0
VERTEX
  8
SURFACE
 62
7
  6
CONTINUOUS
 10
263.9638994508
 20
172.7689486531
  0
VERTEX
  8
SURFACE
 62
7
  6
CONTINUOUS
 10
263.8043693159
 20
172.683219421
  0
VERTEX
  8
SURFACE
 62
7
  6
CONTINUOUS
 10
263.65843298
 20
172.5762789611
  0
VERTEX
  8
SURFACE
 62
7
  6
CONTINUOUS
 10
263.5303326711
 20
172.450940438
  0
VERTEX
  8
SURFACE
 62
7
  6
CONTINUOUS
 10
263.4222502079
 20
172.3099651752
  0
VERTEX
  8
SURFACE
 62
7
  6
CONTINUOUS
 10
263.3350809626
 20
172.1552402666
  0
VERTEX
  8
SURFACE
 62
7
  6
CONTINUOUS
 10
263.2696628667
 20
171.9885307132
  0
VERTEX
  8
SURFACE
 62
7
  6
CONTINUOUS
 10
263.2268072619
 20
171.8118651297
  0
VERTEX
  8
SURFACE
 62
7
  6
CONTINUOUS
 10
263.2069402203
 20
171.6274286135
  0
VERTEX
  8
SURFACE
 62
7
  6
CONTINUOUS
 10
263.2053898744
 20
171.5573772907
  0
SEQEND
  0
LINE
  8
0
 62
7
  6
CONTINUOUS
 10
243.0553905882
 20
172.9024419225
 11
243.0515914085
 21
172.9023275856
  0
LINE
  8
0
 62
7
  6
CONTINUOUS
 10
217.0553905882
 20
172.9024419225
 11
216.9953415226
 21
172.9006347358
  0
LINE
  8
0
 62
7
  6
CONTINUOUS
 10
191.0553905882
 20
172.9024419225
 11
190.9953416783
 21
172.9006347452
  0
LINE
  8
0
 62
7
  6
CONTINUOUS
 10
165.0553905882
 20
172.9024419225
 11
164.9953414673
 21
172.9006347325
  0
LINE
  8
SURFACE
 62
7
  6
CONTINUOUS
 10
356.0551994781
 20
172.9024525101
 11
356.0502727329
 21
172.9024378333
  0
LINE
  8
SURFACE
 62
7
  6
CONTINUOUS
 10
432.271745157
 20
165.3774378333
 11
431.839034479
 21
165.3774378333
  0
LINE
  8
0
 62
7
  6
CONTINUOUS
 10
73.271745157
 20
165.3774378333
 11
72.839034479
 21
165.3774378333
  0
LINE
  8
0
 62
7
  6
CONTINUOUS
 10
61.2710465074
 20
166.3274378333
 11
51.855389818
 21
166.3274378333
  0
LINE
  8
SURFACE
 62
7
  6
CONTINUOUS
 10
443.8397331286
 20
166.3274378333
 11
453.255389818
 21
166.3274378333
  0
LINE
  8
SURFACE
 62
7
  6
CONTINUOUS
 10
263.1884593046
 20
167.1274378333
 11
260.555389818
 21
167.1274378333
  0
LINE
  8
0
 62
7
  6
CONTINUOUS
 10
244.555389818
 20
167.1274378333
 11
241.9223203314
 21
167.1274378333
  0
LINE
  8
0
 62
7
  6
CONTINUOUS
 10
228.1884618313
 20
167.1274378333
 11
225.555389818
 21
167.1274378333
  0
LINE
  8
0
 62
7
  6
CONTINUOUS
 10
218.555389818
 20
167.1274378333
 11
215.9223177957
 21
167.1274378333
  0
LINE
  8
0
 62
7
  6
CONTINUOUS
 10
202.1884618343
 20
167.1274378333
 11
199.555389818
 21
167.1274378333
  0
LINE
  8
0
 62
7
  6
CONTINUOUS
 10
192.555389818
 20
167.1274378333
 11
189.9223177957
 21
167.1274378333
  0
LINE
  8
0
 62
7
  6
CONTINUOUS
 10
176.1884618313
 20
167.1274378333
 11
173.555389818
 21
167.1274378333
  0
LINE
  8
0
 62
7
  6
CONTINUOUS
 10
166.555389818
 20
167.1274378333
 11
163.9223177957
 21
167.1274378333
  0
LINE
  8
0
 62
7
  6
CONTINUOUS
 10
150.1884618313
 20
167.1274378333
 11
147.555389818
 21
167.1274378333
  0
LINE
  8
0
 62
7
  6
CONTINUOUS
 10
140.555389818
 20
167.1274378333
 11
137.9223177957
 21
167.1274378333
  0
LINE
  8
0
 62
7
  6
CONTINUOUS
 10
124.1884618312
 20
167.1274378333
 11
121.555389818
 21
167.1274378333
  0
LINE
  8
0
 62
7
  6
CONTINUOUS
 10
114.555389818
 20
167.1274378333
 11
111.9223177527
 21
167.1274378333
  0
LINE
  8
0
 62
7
  6
CONTINUOUS
 10
98.1884620805
 20
167.1274378333
 11
95.555389818
 21
167.1274378333
  0
LINE
  8
SURFACE
 62
7
  6
CONTINUOUS
 10
276.9223178047
 20
167.1274378333
 11
279.555389818
 21
167.1274378333
  0
LINE
  8
SURFACE
 62
7
  6
CONTINUOUS
 10
286.555389818
 20
167.1274378333
 11
289.1884618403
 21
167.1274378333
  0
LINE
  8
SURFACE
 62
7
  6
CONTINUOUS
 10
302.9223178016
 20
167.1274378333
 11
305.555389818
 21
167.1274378333
  0
LINE
  8
SURFACE
 62
7
  6
CONTINUOUS
 10
312.555389818
 20
167.1274378333
 11
315.1884618403
 21
167.1274378333
  0
LINE
  8
SURFACE
 62
7
  6
CONTINUOUS
 10
328.9223178047
 20
167.1274378333
 11
331.555389818
 21
167.1274378333
  0
LINE
  8
SURFACE
 62
7
  6
CONTINUOUS
 10
338.555389818
 20
167.1274378333
 11
341.1884618403
 21
167.1274378333
  0
LINE
  8
SURFACE
 62
7
  6
CONTINUOUS
 10
354.9223178047
 20
167.1274378333
 11
357.555389818
 21
167.1274378333
  0
LINE
  8
SURFACE
 62
7
  6
CONTINUOUS
 10
364.555389818
 20
167.1274378333
 11
367.1884618403
 21
167.1274378333
  0
LINE
  8
SURFACE
 62
7
  6
CONTINUOUS
 10
380.9223178047
 20
167.1274378333
 11
383.555389818
 21
167.1274378333
  0
LINE
  8
SURFACE
 62
7
  6
CONTINUOUS
 10
390.555389818
 20
167.1274378333
 11
393.1884618833
 21
167.1274378333
  0
LINE
  8
SURFACE
 62
7
  6
CONTINUOUS
 10
406.9223175555
 20
167.1274378333
 11
409.555389818
 21
167.1274378333
  0
LINE
  8
SURFACE
 62
7
  6
CONTINUOUS
 10
420.6149442104
 20
170.9973663033
 11
420.615354974
 21
170.9973663307
  0
LINE
  8
SURFACE
 62
7
  6
CONTINUOUS
 10
84.494658574
 20
170.9973663309
 11
88.4656123336
 21
170.9973663309
  0
LINE
  8
SURFACE
 62
7
  6
CONTINUOUS
 10
416.6451673023
 20
170.9973663309
 11
420.616121062
 21
170.9973663309
  0
LINE
  8
0
 62
7
  6
CONTINUOUS
 10
368.4962975118
 20
172.9024378333
 11
353.614347219
 21
172.9024378333
  0
LINE
  8
0
 62
7
  6
CONTINUOUS
 10
162.055389818
 20
172.9024378333
 11
152.055389818
 21
172.9024378333
  0
LINE
  8
0
 62
7
  6
CONTINUOUS
 10
63.055389818
 20
172.9024378333
 11
100.0503995169
 21
172.9024378333
  0
LINE
  8
0
 62
7
  6
CONTINUOUS
 10
100.055389818
 20
172.9024378333
 11
152.0229888514
 21
172.9024378333
  0
LINE
  8
0
 62
7
  6
CONTINUOUS
 10
162.0760306124
 20
172.9024378333
 11
188.055389818
 21
172.9024378333
  0
LINE
  8
0
 62
7
  6
CONTINUOUS
 10
188.0762587973
 20
172.9024378333
 11
214.055389818
 21
172.9024378333
  0
LINE
  8
0
 62
7
  6
CONTINUOUS
 10
214.0760242345
 20
172.9024378333
 11
230.0347631417
 21
172.9024378333
  0
LINE
  8
0
 62
7
  6
CONTINUOUS
 10
230.055389818
 20
172.9024378333
 11
240.4767319343
 21
172.9024378333
  0
LINE
  8
0
 62
7
  6
CONTINUOUS
 10
240.5151501007
 20
172.9024378333
 11
257.055389818
 21
172.9024378333
  0
LINE
  8
SURFACE
 62
7
  6
CONTINUOUS
 10
257.055389818
 20
172.9024378333
 11
264.5956295352
 21
172.9024378333
  0
LINE
  8
0
 62
7
  6
CONTINUOUS
 10
307.4036989222
 20
172.9024378333
 11
310.7070807138
 21
172.9024378333
  0
LINE
  8
SURFACE
 62
7
  6
CONTINUOUS
 10
264.6340477017
 20
172.9024378333
 11
353.614347219
 21
172.9024378349
  0
LINE
  8
SURFACE
 62
7
  6
CONTINUOUS
 10
368.4962975118
 20
172.9024378333
 11
405.055389818
 21
172.9024378333
  0
LINE
  8
SURFACE
 62
7
  6
CONTINUOUS
 10
405.0603801191
 20
172.9024378333
 11
442.055389818
 21
172.9024378333
  0
LINE
  8
0
 62
7
  6
CONTINUOUS
 10
63.6077481586
 20
172.9024378333
 11
63.6075045184
 21
172.9024378021
  0
LINE
  8
0
 62
7
  6
CONTINUOUS
 10
84.4958354256
 20
170.9973663033
 11
84.4954166231
 21
170.9973663308
  0
LINE
  8
SURFACE
 62
7
  6
CONTINUOUS
 10
262.059212061
 20
172.9024275491
 11
262.0553088818
 21
172.9024454194
  0
LINE
  8
SURFACE
 62
7
  6
CONTINUOUS
 10
288.0644677623
 20
172.9024034864
 11
288.0553088818
 21
172.9024454194
  0
LINE
  8
SURFACE
 62
7
  6
CONTINUOUS
 10
314.0644677623
 20
172.9024034864
 11
314.0553088818
 21
172.9024454194
  0
LINE
  8
SURFACE
 62
7
  6
CONTINUOUS
 10
340.0644677638
 20
172.9024034864
 11
340.0553088818
 21
172.9024454194
  0
LINE
  8
0
 62
7
  6
CONTINUOUS
 10
149.0588520172
 20
172.9024296646
 11
149.0553311
 21
172.9024498165
  0
LINE
  8
0
 62
7
  6
CONTINUOUS
 10
175.0588519185
 20
172.9024296652
 11
175.0553311
 21
172.9024498165
  0
LINE
  8
0
 62
7
  6
CONTINUOUS
 10
201.058851906
 20
172.9024296652
 11
201.0553311
 21
172.9024498165
  0
LINE
  8
0
 62
7
  6
CONTINUOUS
 10
227.0588519547
 20
172.9024296649
 11
227.0553311
 21
172.9024498165
  0
LINE
  8
0
 62
7
  6
CONTINUOUS
 10
142.3931557501
 20
172.9010132755
 11
142.2515657379
 21
172.9020242163
  0
LINE
  8
0
 62
7
  6
CONTINUOUS
 10
359.3931557501
 20
172.9005243204
 11
359.180389818
 21
172.9021257635
  0
LINE
  8
0
 62
7
  6
CONTINUOUS
 10
149.0588516123
 20
172.9024058916
 11
149.0555801577
 21
172.9024525101
  0
LINE
  8
0
 62
7
  6
CONTINUOUS
 10
175.0588515137
 20
172.902405893
 11
175.0555801577
 21
172.9024525101
  0
LINE
  8
0
 62
7
  6
CONTINUOUS
 10
201.0588515012
 20
172.9024058932
 11
201.0555801577
 21
172.9024525101
  0
LINE
  8
0
 62
7
  6
CONTINUOUS
 10
227.0588515499
 20
172.9024058925
 11
227.0555801577
 21
172.9024525101
  0
LINE
  8
SURFACE
 62
7
  6
CONTINUOUS
 10
288.0774232239
 20
172.902200933
 11
288.0644677623
 21
172.9024034864
  0
LINE
  8
SURFACE
 62
7
  6
CONTINUOUS
 10
340.0774232255
 20
172.902200933
 11
340.0644677638
 21
172.9024034864
  0
LINE
  8
SURFACE
 62
7
  6
CONTINUOUS
 10
262.0592106009
 20
172.9023756548
 11
262.0556198597
 21
172.9024632047
  0
LINE
  8
SURFACE
 62
7
  6
CONTINUOUS
 10
288.059210601
 20
172.9023756548
 11
288.0556198597
 21
172.9024632047
  0
LINE
  8
SURFACE
 62
7
  6
CONTINUOUS
 10
314.059210601
 20
172.9023756548
 11
314.0556198597
 21
172.9024632047
  0
LINE
  8
SURFACE
 62
7
  6
CONTINUOUS
 10
340.0592106009
 20
172.9023756548
 11
340.0556198597
 21
172.9024632047
  0
LINE
  8
SURFACE
 62
7
  6
CONTINUOUS
 10
262.0553890478
 20
172.9024419225
 11
262.059208783
 21
172.9023269667
  0
LINE
  8
SURFACE
 62
7
  6
CONTINUOUS
 10
288.0553890478
 20
172.9024419225
 11
288.115438235
 21
172.9006347285
  0
LINE
  8
SURFACE
 62
7
  6
CONTINUOUS
 10
314.0553890478
 20
172.9024419225
 11
314.059208783
 21
172.9023269668
  0
LINE
  8
SURFACE
 62
7
  6
CONTINUOUS
 10
340.0553890478
 20
172.9024419225
 11
340.1154382277
 21
172.9006347289
  0
LINE
  8
SURFACE
 62
7
  6
CONTINUOUS
 10
262.0592074343
 20
172.902306734
 11
262.0554159976
 21
172.9024423061
  0
LINE
  8
SURFACE
 62
7
  6
CONTINUOUS
 10
288.0592074343
 20
172.902306734
 11
288.0554159976
 21
172.9024423061
  0
LINE
  8
SURFACE
 62
7
  6
CONTINUOUS
 10
314.0592074343
 20
172.902306734
 11
314.0554159976
 21
172.9024423061
  0
LINE
  8
SURFACE
 62
7
  6
CONTINUOUS
 10
340.0592074343
 20
172.902306734
 11
340.0554159976
 21
172.9024423061
  0
LINE
  8
0
 62
7
  6
CONTINUOUS
 10
149.1146398821
 20
172.9007068761
 11
149.0933341673
 21
172.9016406358
  0
POLYLINE
  8
SURFACE
 62
7
  6
CONTINUOUS
 66
1
 70
0
  0
VERTEX
  8
SURFACE
 62
7
  6
CONTINUOUS
 10
443.8397067667
 20
166.3274376038
  0
VERTEX
  8
SURFACE
 62
7
  6
CONTINUOUS
 10
443.7171161474
 20
166.3330679256
  0
VERTEX
  8
SURFACE
 62
7
  6
CONTINUOUS
 10
443.5670431537
 20
166.3556752998
  0
SEQEND
  0
POLYLINE
  8
SURFACE
 62
7
  6
CONTINUOUS
 66
1
 70
0
  0
VERTEX
  8
SURFACE
 62
7
  6
CONTINUOUS
 10
288.108695807
 20
172.9010198821
  0
VERTEX
  8
SURFACE
 62
7
  6
CONTINUOUS
 10
288.1004864084
 20
172.9014247407
  0
VERTEX
  8
SURFACE
 62
7
  6
CONTINUOUS
 10
288.0897418673
 20
172.9018526048
  0
SEQEND
  0
POLYLINE
  8
SURFACE
 62
7
  6
CONTINUOUS
 66
1
 70
0
  0
VERTEX
  8
SURFACE
 62
7
  6
CONTINUOUS
 10
314.1086958069
 20
172.9010198821
  0
VERTEX
  8
SURFACE
 62
7
  6
CONTINUOUS
 10
314.1004864084
 20
172.9014247407
  0
VERTEX
  8
SURFACE
 62
7
  6
CONTINUOUS
 10
314.0897418672
 20
172.9018526048
  0
VERTEX
  8
SURFACE
 62
7
  6
CONTINUOUS
 10
314.0774232239
 20
172.902200933
  0
VERTEX
  8
SURFACE
 62
7
  6
CONTINUOUS
 10
314.0644677623
 20
172.9024034864
  0
SEQEND
  0
POLYLINE
  8
SURFACE
 62
7
  6
CONTINUOUS
 66
1
 70
0
  0
VERTEX
  8
SURFACE
 62
7
  6
CONTINUOUS
 10
340.1086958082
 20
172.9010198821
  0
VERTEX
  8
SURFACE
 62
7
  6
CONTINUOUS
 10
340.10048641
 20
172.9014247406
  0
VERTEX
  8
SURFACE
 62
7
  6
CONTINUOUS
 10
340.089741869
 20
172.9018526048
  0
SEQEND
  0
POLYLINE
  8
SURFACE
 62
7
  6
CONTINUOUS
 66
1
 70
0
  0
VERTEX
  8
SURFACE
 62
7
  6
CONTINUOUS
 10
288.1160187548
 20
172.9006017532
  0
VERTEX
  8
SURFACE
 62
7
  6
CONTINUOUS
 10
288.1164345031
 20
172.9005764213
  0
VERTEX
  8
SURFACE
 62
7
  6
CONTINUOUS
 10
288.108695807
 20
172.9010198821
  0
SEQEND
  0
POLYLINE
  8
SURFACE
 62
7
  6
CONTINUOUS
 66
1
 70
0
  0
VERTEX
  8
SURFACE
 62
7
  6
CONTINUOUS
 10
314.1160187548
 20
172.9006017532
  0
VERTEX
  8
SURFACE
 62
7
  6
CONTINUOUS
 10
314.1164345031
 20
172.9005764213
  0
VERTEX
  8
SURFACE
 62
7
  6
CONTINUOUS
 10
314.1086958069
 20
172.9010198821
  0
SEQEND
  0
POLYLINE
  8
SURFACE
 62
7
  6
CONTINUOUS
 66
1
 70
0
  0
VERTEX
  8
SURFACE
 62
7
  6
CONTINUOUS
 10
340.1160187543
 20
172.9006017532
  0
VERTEX
  8
SURFACE
 62
7
  6
CONTINUOUS
 10
340.1164345034
 20
172.9005764213
  0
VERTEX
  8
SURFACE
 62
7
  6
CONTINUOUS
 10
340.1086958082
 20
172.9010198821
  0
SEQEND
  0
POLYLINE
  8
SURFACE
 62
7
  6
CONTINUOUS
 66
1
 70
0
  0
VERTEX
  8
SURFACE
 62
7
  6
CONTINUOUS
 10
420.9060101109
 20
159.679983734
  0
VERTEX
  8
SURFACE
 62
7
  6
CONTINUOUS
 10
420.9185731967
 20
159.6788143301
  0
VERTEX
  8
SURFACE
 62
7
  6
CONTINUOUS
 10
420.9517371586
 20
159.6702699364
  0
VERTEX
  8
SURFACE
 62
7
  6
CONTINUOUS
 10
420.9880533162
 20
159.6531629868
  0
VERTEX
  8
SURFACE
 62
7
  6
CONTINUOUS
 10
421.0071913774
 20
159.6398050099
  0
SEQEND
  0
POLYLINE
  8
0
 62
7
  6
CONTINUOUS
 66
1
 70
0
  0
VERTEX
  8
0
 62
7
  6
CONTINUOUS
 10
240.7720135469
 20
167.7876556069
  0
VERTEX
  8
0
 62
7
  6
CONTINUOUS
 10
240.8578042764
 20
167.778088702
  0
VERTEX
  8
0
 62
7
  6
CONTINUOUS
 10
240.9329909362
 20
167.755629794
  0
VERTEX
  8
0
 62
7
  6
CONTINUOUS
 10
241.0001480313
 20
167.7207836088
  0
VERTEX
  8
0
 62
7
  6
CONTINUOUS
 10
241.0605212855
 20
167.6743293428
  0
SEQEND
  0
POLYLINE
  8
SURFACE
 62
7
  6
CONTINUOUS
 66
1
 70
0
  0
VERTEX
  8
SURFACE
 62
7
  6
CONTINUOUS
 10
393.1285972449
 20
159.6248168918
  0
VERTEX
  8
SURFACE
 62
7
  6
CONTINUOUS
 10
393.2482389916
 20
159.6088242878
  0
VERTEX
  8
SURFACE
 62
7
  6
CONTINUOUS
 10
393.3651591406
 20
159.578497139
  0
VERTEX
  8
SURFACE
 62
7
  6
CONTINUOUS
 10
393.4775957197
 20
159.5342716644
  0
VERTEX
  8
SURFACE
 62
7
  6
CONTINUOUS
 10
393.5838582892
 20
159.4768103148
  0
VERTEX
  8
SURFACE
 62
7
  6
CONTINUOUS
 10
393.6823579799
 20
159.4069898363
  0
VERTEX
  8
SURFACE
 62
7
  6
CONTINUOUS
 10
393.7716356269
 20
159.3258852373
  0
VERTEX
  8
SURFACE
 62
7
  6
CONTINUOUS
 10
393.8504537577
 20
159.2346630378
  0
VERTEX
  8
SURFACE
 62
7
  6
CONTINUOUS
 10
393.9178642982
 20
159.1343511823
  0
VERTEX
  8
SURFACE
 62
7
  6
CONTINUOUS
 10
393.9727336969
 20
159.026479212
  0
VERTEX
  8
SURFACE
 62
7
  6
CONTINUOUS
 10
394.0137628143
 20
158.9140637066
  0
VERTEX
  8
SURFACE
 62
7
  6
CONTINUOUS
 10
394.0405127919
 20
158.8005977359
  0
SEQEND
  0
POLYLINE
  8
SURFACE
 62
7
  6
CONTINUOUS
 66
1
 70
0
  0
VERTEX
  8
SURFACE
 62
7
  6
CONTINUOUS
 10
317.7291266469
 20
154.4012560291
  0
VERTEX
  8
SURFACE
 62
7
  6
CONTINUOUS
 10
317.9473188819
 20
154.357881187
  0
VERTEX
  8
SURFACE
 62
7
  6
CONTINUOUS
 10
318.1806694517
 20
154.3049143302
  0
VERTEX
  8
SURFACE
 62
7
  6
CONTINUOUS
 10
318.3901716412
 20
154.2503843674
  0
VERTEX
  8
SURFACE
 62
7
  6
CONTINUOUS
 10
318.5754299478
 20
154.1952981379
  0
VERTEX
  8
SURFACE
 62
7
  6
CONTINUOUS
 10
318.7361407194
 20
154.1407824992
  0
VERTEX
  8
SURFACE
 62
7
  6
CONTINUOUS
 10
318.8720555333
 20
154.088146569
  0
VERTEX
  8
SURFACE
 62
7
  6
CONTINUOUS
 10
318.9645613522
 20
154.0476200161
  0
SEQEND
  0
POLYLINE
  8
SURFACE
 62
7
  6
CONTINUOUS
 66
1
 70
0
  0
VERTEX
  8
SURFACE
 62
7
  6
CONTINUOUS
 10
343.7291266462
 20
154.4012560292
  0
VERTEX
  8
SURFACE
 62
7
  6
CONTINUOUS
 10
343.9473184386
 20
154.3578812808
  0
VERTEX
  8
SURFACE
 62
7
  6
CONTINUOUS
 10
344.1806687678
 20
154.3049144967
  0
VERTEX
  8
SURFACE
 62
7
  6
CONTINUOUS
 10
344.3901708928
 20
154.2503845758
  0
VERTEX
  8
SURFACE
 62
7
  6
CONTINUOUS
 10
344.5754292758
 20
154.1952983516
  0
VERTEX
  8
SURFACE
 62
7
  6
CONTINUOUS
 10
344.7361402258
 20
154.1407826783
  0
VERTEX
  8
SURFACE
 62
7
  6
CONTINUOUS
 10
344.8720552789
 20
154.0881466745
  0
VERTEX
  8
SURFACE
 62
7
  6
CONTINUOUS
 10
344.9645613492
 20
154.0476200176
  0
SEQEND
  0
POLYLINE
  8
SURFACE
 62
7
  6
CONTINUOUS
 66
1
 70
0
  0
VERTEX
  8
SURFACE
 62
7
  6
CONTINUOUS
 10
369.7291266473
 20
154.401256029
  0
VERTEX
  8
SURFACE
 62
7
  6
CONTINUOUS
 10
369.9473191182
 20
154.357881137
  0
VERTEX
  8
SURFACE
 62
7
  6
CONTINUOUS
 10
370.1806698163
 20
154.3049142415
  0
VERTEX
  8
SURFACE
 62
7
  6
CONTINUOUS
 10
370.39017204
 20
154.2503842563
  0
VERTEX
  8
SURFACE
 62
7
  6
CONTINUOUS
 10
370.575430306
 20
154.195298024
  0
VERTEX
  8
SURFACE
 62
7
  6
CONTINUOUS
 10
370.7361409833
 20
154.1407824034
  0
VERTEX
  8
SURFACE
 62
7
  6
CONTINUOUS
 10
370.8720556707
 20
154.088146512
  0
VERTEX
  8
SURFACE
 62
7
  6
CONTINUOUS
 10
370.964561356
 20
154.0476200143
  0
SEQEND
  0
POLYLINE
  8
SURFACE
 62
7
  6
CONTINUOUS
 66
1
 70
0
  0
VERTEX
  8
SURFACE
 62
7
  6
CONTINUOUS
 10
264.0502583448
 20
159.0805462485
  0
VERTEX
  8
SURFACE
 62
7
  6
CONTINUOUS
 10
264.11062973
 20
159.0340932555
  0
VERTEX
  8
SURFACE
 62
7
  6
CONTINUOUS
 10
264.1777791413
 20
158.999249756
  0
VERTEX
  8
SURFACE
 62
7
  6
CONTINUOUS
 10
264.2529669503
 20
158.9767886454
  0
VERTEX
  8
SURFACE
 62
7
  6
CONTINUOUS
 10
264.3387657111
 20
158.9672220133
  0
SEQEND
  0
POLYLINE
  8
SURFACE
 62
7
  6
CONTINUOUS
 66
1
 70
0
  0
VERTEX
  8
SURFACE
 62
7
  6
CONTINUOUS
 10
263.6983003452
 20
159.3933546814
  0
VERTEX
  8
SURFACE
 62
7
  6
CONTINUOUS
 10
263.8208722868
 20
159.2870627697
  0
VERTEX
  8
SURFACE
 62
7
  6
CONTINUOUS
 10
264.0502583448
 20
159.0805462485
  0
SEQEND
  0
POLYLINE
  8
SURFACE
 62
7
  6
CONTINUOUS
 66
1
 70
0
  0
VERTEX
  8
SURFACE
 62
7
  6
CONTINUOUS
 10
264.4910850354
 20
157.512827683
  0
VERTEX
  8
SURFACE
 62
7
  6
CONTINUOUS
 10
264.5531263326
 20
157.4061868619
  0
VERTEX
  8
SURFACE
 62
7
  6
CONTINUOUS
 10
264.6314820512
 20
157.3020014245
  0
VERTEX
  8
SURFACE
 62
7
  6
CONTINUOUS
 10
264.7245153603
 20
157.2024534352
  0
VERTEX
  8
SURFACE
 62
7
  6
CONTINUOUS
 10
264.8302830221
 20
157.1096280009
  0
VERTEX
  8
SURFACE
 62
7
  6
CONTINUOUS
 10
264.9465759185
 20
157.0254694743
  0
VERTEX
  8
SURFACE
 62
7
  6
CONTINUOUS
 10
265.0709651277
 20
156.9517406025
  0
VERTEX
  8
SURFACE
 62
7
  6
CONTINUOUS
 10
265.2008525756
 20
156.8899854733
  0
VERTEX
  8
SURFACE
 62
7
  6
CONTINUOUS
 10
265.3335255807
 20
156.8414977061
  0
SEQEND
  0
LINE
  8
SURFACE
 62
7
  6
CONTINUOUS
 10
276.055389818
 20
171.9024378333
 11
276.055389818
 21
168.1274378333
  0
LINE
  8
SURFACE
 62
7
  6
CONTINUOUS
 10
276.055389818
 20
158.6274378333
 11
276.055389818
 21
154.8524378333
  0
LINE
  8
SURFACE
 62
7
  6
CONTINUOUS
 10
280.055389818
 20
166.6274378333
 11
280.055389818
 21
160.1274378333
  0
POLYLINE
  8
0
 62
7
  6
CONTINUOUS
 66
1
 70
0
  0
VERTEX
  8
0
 62
7
  6
CONTINUOUS
 10
109.3816459462
 20
154.4012550119
  0
VERTEX
  8
0
 62
7
  6
CONTINUOUS
 10
109.5782304326
 20
154.441976645
  0
VERTEX
  8
0
 62
7
  6
CONTINUOUS
 10
109.7835142895
 20
154.4944165976
  0
VERTEX
  8
0
 62
7
  6
CONTINUOUS
 10
109.966641971
 20
154.5519645034
  0
VERTEX
  8
0
 62
7
  6
CONTINUOUS
 10
110.13173101
 20
154.6151383038
  0
VERTEX
  8
0
 62
7
  6
CONTINUOUS
 10
110.2825940027
 20
154.6852044054
  0
VERTEX
  8
0
 62
7
  6
CONTINUOUS
 10
110.4222092218
 20
154.7640627919
  0
VERTEX
  8
0
 62
7
  6
CONTINUOUS
 10
110.5514756965
 20
154.8533908387
  0
VERTEX
  8
0
 62
7
  6
CONTINUOUS
 10
110.6697293167
 20
154.9542623387
  0
VERTEX
  8
0
 62
7
  6
CONTINUOUS
 10
110.7749891093
 20
155.0664463804
  0
VERTEX
  8
0
 62
7
  6
CONTINUOUS
 10
110.8651311835
 20
155.1886164485
  0
VERTEX
  8
0
 62
7
  6
CONTINUOUS
 10
110.9387797125
 20
155.3192656155
  0
VERTEX
  8
0
 62
7
  6
CONTINUOUS
 10
110.994938145
 20
155.4565821088
  0
VERTEX
  8
0
 62
7
  6
CONTINUOUS
 10
111.0329790214
 20
155.5986670775
  0
VERTEX
  8
0
 62
7
  6
CONTINUOUS
 10
111.052575711
 20
155.7439164515
  0
VERTEX
  8
0
 62
7
  6
CONTINUOUS
 10
111.0553892834
 20
155.8241350754
  0
SEQEND
  0
LINE
  8
0
 62
7
  6
CONTINUOUS
 10
109.1633067425
 20
154.3578486465
 11
109.3816539473
 21
154.4012561918
  0
LINE
  8
0
 62
7
  6
CONTINUOUS
 10
111.8584263765
 20
159.6080099018
 11
111.9781026269
 21
159.62451241
  0
POLYLINE
  8
0
 62
7
  6
CONTINUOUS
 66
1
 70
0
  0
VERTEX
  8
0
 62
7
  6
CONTINUOUS
 10
145.3424201929
 20
172.9024378333
  0
VERTEX
  8
0
 62
7
  6
CONTINUOUS
 10
145.2614854205
 20
172.8969042804
  0
VERTEX
  8
0
 62
7
  6
CONTINUOUS
 10
145.180389818
 20
172.8802584174
  0
SEQEND
  0
POLYLINE
  8
0
 62
7
  6
CONTINUOUS
 66
1
 70
0
  0
VERTEX
  8
0
 62
7
  6
CONTINUOUS
 10
63.6075045184
 20
172.9024377923
  0
VERTEX
  8
0
 62
7
  6
CONTINUOUS
 10
63.4507117996
 20
172.8938138566
  0
VERTEX
  8
0
 62
7
  6
CONTINUOUS
 10
63.2600191716
 20
172.8607069505
  0
VERTEX
  8
0
 62
7
  6
CONTINUOUS
 10
63.0736067667
 20
172.8050175649
  0
VERTEX
  8
0
 62
7
  6
CONTINUOUS
 10
62.8919582327
 20
172.7291801616
  0
VERTEX
  8
0
 62
7
  6
CONTINUOUS
 10
62.7332182165
 20
172.6460914693
  0
SEQEND
  0
POLYLINE
  8
SURFACE
 62
7
  6
CONTINUOUS
 66
1
 70
0
  0
VERTEX
  8
SURFACE
 62
7
  6
CONTINUOUS
 10
406.9246924923
 20
167.1303713829
  0
VERTEX
  8
SURFACE
 62
7
  6
CONTINUOUS
 10
406.8075357957
 20
167.146997123
  0
VERTEX
  8
SURFACE
 62
7
  6
CONTINUOUS
 10
406.6954589967
 20
167.1772661085
  0
VERTEX
  8
SURFACE
 62
7
  6
CONTINUOUS
 10
406.590582821
 20
167.21956994
  0
VERTEX
  8
SURFACE
 62
7
  6
CONTINUOUS
 10
406.4945017306
 20
167.2719847185
  0
VERTEX
  8
SURFACE
 62
7
  6
CONTINUOUS
 10
406.4083278513
 20
167.3323861954
  0
VERTEX
  8
SURFACE
 62
7
  6
CONTINUOUS
 10
406.332703438
 20
167.3985579164
  0
VERTEX
  8
SURFACE
 62
7
  6
CONTINUOUS
 10
406.2677942427
 20
167.4683319442
  0
VERTEX
  8
SURFACE
 62
7
  6
CONTINUOUS
 10
406.2131758748
 20
167.539950294
  0
VERTEX
  8
SURFACE
 62
7
  6
CONTINUOUS
 10
406.1681628616
 20
167.6119903589
  0
VERTEX
  8
SURFACE
 62
7
  6
CONTINUOUS
 10
406.1320446793
 20
167.6831163664
  0
VERTEX
  8
SURFACE
 62
7
  6
CONTINUOUS
 10
406.1042072836
 20
167.7516544042
  0
VERTEX
  8
SURFACE
 62
7
  6
CONTINUOUS
 10
406.0838243921
 20
167.8160324532
  0
VERTEX
  8
SURFACE
 62
7
  6
CONTINUOUS
 10
406.0699153586
 20
167.8747296394
  0
VERTEX
  8
SURFACE
 62
7
  6
CONTINUOUS
 10
406.0614553029
 20
167.9256397972
  0
VERTEX
  8
SURFACE
 62
7
  6
CONTINUOUS
 10
406.0571467349
 20
167.9670331898
  0
VERTEX
  8
SURFACE
 62
7
  6
CONTINUOUS
 10
406.0555712331
 20
167.9980576129
  0
SEQEND
  0
POLYLINE
  8
0
 62
7
  6
CONTINUOUS
 66
1
 70
0
  0
VERTEX
  8
0
 62
7
  6
CONTINUOUS
 10
362.180389818
 20
172.8815700731
  0
VERTEX
  8
0
 62
7
  6
CONTINUOUS
 10
362.0841777587
 20
172.8972935166
  0
VERTEX
  8
0
 62
7
  6
CONTINUOUS
 10
361.9904774066
 20
172.9024378333
  0
SEQEND
  0
POLYLINE
  8
SURFACE
 62
7
  6
CONTINUOUS
 66
1
 70
0
  0
VERTEX
  8
SURFACE
 62
7
  6
CONTINUOUS
 10
395.7291256886
 20
154.4012561918
  0
VERTEX
  8
SURFACE
 62
7
  6
CONTINUOUS
 10
395.9474728935
 20
154.3578486465
  0
VERTEX
  8
SURFACE
 62
7
  6
CONTINUOUS
 10
396.1808865123
 20
154.3048615203
  0
VERTEX
  8
SURFACE
 62
7
  6
CONTINUOUS
 10
396.3903858774
 20
154.2503246851
  0
VERTEX
  8
SURFACE
 62
7
  6
CONTINUOUS
 10
396.5756155099
 20
154.1952391485
  0
VERTEX
  8
SURFACE
 62
7
  6
CONTINUOUS
 10
396.7362605487
 20
154.1407390311
  0
VERTEX
  8
SURFACE
 62
7
  6
CONTINUOUS
 10
396.8721094302
 20
154.0881239321
  0
VERTEX
  8
SURFACE
 62
7
  6
CONTINUOUS
 10
396.9645631278
 20
154.0476190719
  0
SEQEND
  0
POLYLINE
  8
SURFACE
 62
7
  6
CONTINUOUS
 66
1
 70
0
  0
VERTEX
  8
SURFACE
 62
7
  6
CONTINUOUS
 10
318.9645500397
 20
154.0476252761
  0
VERTEX
  8
SURFACE
 62
7
  6
CONTINUOUS
 10
319.1097807044
 20
153.9851818423
  0
VERTEX
  8
SURFACE
 62
7
  6
CONTINUOUS
 10
319.2833984704
 20
153.9247343815
  0
VERTEX
  8
SURFACE
 62
7
  6
CONTINUOUS
 10
319.4572015866
 20
153.8815333792
  0
VERTEX
  8
SURFACE
 62
7
  6
CONTINUOUS
 10
319.631427843
 20
153.8572759732
  0
VERTEX
  8
SURFACE
 62
7
  6
CONTINUOUS
 10
319.7486138376
 20
153.8524379411
  0
SEQEND
  0
POLYLINE
  8
SURFACE
 62
7
  6
CONTINUOUS
 66
1
 70
0
  0
VERTEX
  8
SURFACE
 62
7
  6
CONTINUOUS
 10
344.9645500486
 20
154.0476252723
  0
VERTEX
  8
SURFACE
 62
7
  6
CONTINUOUS
 10
345.1097806339
 20
153.9851818698
  0
VERTEX
  8
SURFACE
 62
7
  6
CONTINUOUS
 10
345.2833983506
 20
153.9247344174
  0
VERTEX
  8
SURFACE
 62
7
  6
CONTINUOUS
 10
345.4572012682
 20
153.8815334404
  0
VERTEX
  8
SURFACE
 62
7
  6
CONTINUOUS
 10
345.6314279045
 20
153.8572759601
  0
VERTEX
  8
SURFACE
 62
7
  6
CONTINUOUS
 10
345.74861341
 20
153.8524379348
  0
SEQEND
  0
LINE
  8
SURFACE
 62
7
  6
CONTINUOUS
 10
286.055389818
 20
160.1274378333
 11
286.055389818
 21
166.6274378333
  0
LINE
  8
SURFACE
 62
7
  6
CONTINUOUS
 10
290.055389818
 20
171.9024378333
 11
290.055389818
 21
168.1274378333
  0
LINE
  8
SURFACE
 62
7
  6
CONTINUOUS
 10
290.055389818
 20
154.8524378333
 11
290.055389818
 21
158.6274378333
  0
POLYLINE
  8
SURFACE
 62
7
  6
CONTINUOUS
 66
1
 70
0
  0
VERTEX
  8
SURFACE
 62
7
  6
CONTINUOUS
 10
325.1462158224
 20
154.0476188732
  0
VERTEX
  8
SURFACE
 62
7
  6
CONTINUOUS
 10
325.2405862188
 20
154.088918084
  0
VERTEX
  8
SURFACE
 62
7
  6
CONTINUOUS
 10
325.3768531498
 20
154.1415849001
  0
VERTEX
  8
SURFACE
 62
7
  6
CONTINUOUS
 10
325.5378904743
 20
154.1961050054
  0
VERTEX
  8
SURFACE
 62
7
  6
CONTINUOUS
 10
325.7234445192
 20
154.2511735557
  0
VERTEX
  8
SURFACE
 62
7
  6
CONTINUOUS
 10
325.9332065934
 20
154.305667206
  0
VERTEX
  8
SURFACE
 62
7
  6
CONTINUOUS
 10
326.1667762396
 20
154.3585821349
  0
SEQEND
  0
POLYLINE
  8
SURFACE
 62
7
  6
CONTINUOUS
 66
1
 70
0
  0
VERTEX
  8
SURFACE
 62
7
  6
CONTINUOUS
 10
370.9645500419
 20
154.0476252751
  0
VERTEX
  8
SURFACE
 62
7
  6
CONTINUOUS
 10
371.1097806714
 20
153.9851818553
  0
VERTEX
  8
SURFACE
 62
7
  6
CONTINUOUS
 10
371.2833984106
 20
153.9247343995
  0
VERTEX
  8
SURFACE
 62
7
  6
CONTINUOUS
 10
371.4572014587
 20
153.8815334042
  0
VERTEX
  8
SURFACE
 62
7
  6
CONTINUOUS
 10
371.6314278355
 20
153.857275972
  0
VERTEX
  8
SURFACE
 62
7
  6
CONTINUOUS
 10
371.7486136798
 20
153.8524379402
  0
SEQEND
  0
LINE
  8
SURFACE
 62
7
  6
CONTINUOUS
 10
302.055389818
 20
154.8524378333
 11
302.055389818
 21
158.6274378333
  0
LINE
  8
SURFACE
 62
7
  6
CONTINUOUS
 10
302.055389818
 20
168.1274378333
 11
302.055389818
 21
171.9024378333
  0
LINE
  8
SURFACE
 62
7
  6
CONTINUOUS
 10
306.055389818
 20
166.6274378333
 11
306.055389818
 21
160.1274378333
  0
POLYLINE
  8
SURFACE
 62
7
  6
CONTINUOUS
 66
1
 70
0
  0
VERTEX
  8
SURFACE
 62
7
  6
CONTINUOUS
 10
351.1462158225
 20
154.0476188733
  0
VERTEX
  8
SURFACE
 62
7
  6
CONTINUOUS
 10
351.2405862298
 20
154.0889180886
  0
VERTEX
  8
SURFACE
 62
7
  6
CONTINUOUS
 10
351.3768531711
 20
154.1415849078
  0
VERTEX
  8
SURFACE
 62
7
  6
CONTINUOUS
 10
351.5378905033
 20
154.1961050146
  0
VERTEX
  8
SURFACE
 62
7
  6
CONTINUOUS
 10
351.7234445514
 20
154.2511735647
  0
VERTEX
  8
SURFACE
 62
7
  6
CONTINUOUS
 10
351.9332066228
 20
154.3056672132
  0
VERTEX
  8
SURFACE
 62
7
  6
CONTINUOUS
 10
352.1667762586
 20
154.3585821389
  0
SEQEND
  0
POLYLINE
  8
0
 62
7
  6
CONTINUOUS
 66
1
 70
0
  0
VERTEX
  8
0
 62
7
  6
CONTINUOUS
 10
61.6777579971
 20
166.3915431722
  0
VERTEX
  8
0
 62
7
  6
CONTINUOUS
 10
61.5462115743
 20
166.3561989419
  0
VERTEX
  8
0
 62
7
  6
CONTINUOUS
 10
61.396692673
 20
166.3333507356
  0
VERTEX
  8
0
 62
7
  6
CONTINUOUS
 10
61.2710715829
 20
166.3274376039
  0
SEQEND
  0
POLYLINE
  8
SURFACE
 62
7
  6
CONTINUOUS
 66
1
 70
0
  0
VERTEX
  8
SURFACE
 62
7
  6
CONTINUOUS
 10
443.5670431537
 20
166.3556752998
  0
VERTEX
  8
SURFACE
 62
7
  6
CONTINUOUS
 10
443.4349384608
 20
166.3909179825
  0
VERTEX
  8
SURFACE
 62
7
  6
CONTINUOUS
 10
443.3227809426
 20
166.4335059261
  0
VERTEX
  8
SURFACE
 62
7
  6
CONTINUOUS
 10
443.2313534993
 20
166.4782781422
  0
VERTEX
  8
SURFACE
 62
7
  6
CONTINUOUS
 10
443.1595365737
 20
166.5211252394
  0
VERTEX
  8
SURFACE
 62
7
  6
CONTINUOUS
 10
443.1043370135
 20
166.5598463885
  0
SEQEND
  0
POLYLINE
  8
SURFACE
 62
7
  6
CONTINUOUS
 66
1
 70
0
  0
VERTEX
  8
SURFACE
 62
7
  6
CONTINUOUS
 10
396.9645485761
 20
154.0476262091
  0
VERTEX
  8
SURFACE
 62
7
  6
CONTINUOUS
 10
397.1097862509
 20
153.9851806404
  0
VERTEX
  8
SURFACE
 62
7
  6
CONTINUOUS
 10
397.2834074039
 20
153.9247320019
  0
VERTEX
  8
SURFACE
 62
7
  6
CONTINUOUS
 10
397.4572183736
 20
153.8815298438
  0
VERTEX
  8
SURFACE
 62
7
  6
CONTINUOUS
 10
397.6313974458
 20
153.8572828168
  0
VERTEX
  8
SURFACE
 62
7
  6
CONTINUOUS
 10
397.7486070623
 20
153.8524387389
  0
SEQEND
  0
POLYLINE
  8
SURFACE
 62
7
  6
CONTINUOUS
 66
1
 70
0
  0
VERTEX
  8
SURFACE
 62
7
  6
CONTINUOUS
 10
316.0553898233
 20
155.8241104368
  0
VERTEX
  8
SURFACE
 62
7
  6
CONTINUOUS
 10
316.0586921699
 20
155.7372262378
  0
VERTEX
  8
SURFACE
 62
7
  6
CONTINUOUS
 10
316.0781413754
 20
155.5969653343
  0
VERTEX
  8
SURFACE
 62
7
  6
CONTINUOUS
 10
316.1151733694
 20
155.4585701366
  0
VERTEX
  8
SURFACE
 62
7
  6
CONTINUOUS
 10
316.1697220524
 20
155.3239964605
  0
VERTEX
  8
SURFACE
 62
7
  6
CONTINUOUS
 10
316.2413922857
 20
155.1952313027
  0
VERTEX
  8
SURFACE
 62
7
  6
CONTINUOUS
 10
316.3291453844
 20
155.0744749374
  0
VERTEX
  8
SURFACE
 62
7
  6
CONTINUOUS
 10
316.4314191655
 20
154.9635122022
  0
VERTEX
  8
SURFACE
 62
7
  6
CONTINUOUS
 10
316.5467153618
 20
154.8631404465
  0
VERTEX
  8
SURFACE
 62
7
  6
CONTINUOUS
 10
316.6738731198
 20
154.7733316768
  0
VERTEX
  8
SURFACE
 62
7
  6
CONTINUOUS
 10
316.8128223908
 20
154.6931463547
  0
VERTEX
  8
SURFACE
 62
7
  6
CONTINUOUS
 10
316.9648495906
 20
154.6211763727
  0
VERTEX
  8
SURFACE
 62
7
  6
CONTINUOUS
 10
317.1326459082
 20
154.5559802209
  0
VERTEX
  8
SURFACE
 62
7
  6
CONTINUOUS
 10
317.3195746531
 20
154.4966101611
  0
VERTEX
  8
SURFACE
 62
7
  6
CONTINUOUS
 10
317.5291869564
 20
154.4427482096
  0
VERTEX
  8
SURFACE
 62
7
  6
CONTINUOUS
 10
317.7291200537
 20
154.4012572763
  0
SEQEND
  0
LINE
  8
SURFACE
 62
7
  6
CONTINUOUS
 10
312.055389818
 20
160.1274378333
 11
312.055389818
 21
166.6274378333
  0
LINE
  8
SURFACE
 62
7
  6
CONTINUOUS
 10
316.055389818
 20
171.9024378333
 11
316.055389818
 21
168.1274378333
  0
LINE
  8
SURFACE
 62
7
  6
CONTINUOUS
 10
316.055389818
 20
158.6274378333
 11
316.055389818
 21
155.8240792527
  0
LINE
  8
SURFACE
 62
7
  6
CONTINUOUS
 10
320.105389818
 20
168.7340723771
 11
320.105389818
 21
163.6774378333
  0
POLYLINE
  8
SURFACE
 62
7
  6
CONTINUOUS
 66
1
 70
0
  0
VERTEX
  8
SURFACE
 62
7
  6
CONTINUOUS
 10
377.1462138552
 20
154.0476178366
  0
VERTEX
  8
SURFACE
 62
7
  6
CONTINUOUS
 10
377.240525594
 20
154.0888926992
  0
VERTEX
  8
SURFACE
 62
7
  6
CONTINUOUS
 10
377.3767203817
 20
154.141536834
  0
VERTEX
  8
SURFACE
 62
7
  6
CONTINUOUS
 10
377.5376874177
 20
154.1960405791
  0
VERTEX
  8
SURFACE
 62
7
  6
CONTINUOUS
 10
377.7232111358
 20
154.2511086646
  0
VERTEX
  8
SURFACE
 62
7
  6
CONTINUOUS
 10
377.9329731245
 20
154.3056105124
  0
VERTEX
  8
SURFACE
 62
7
  6
CONTINUOUS
 10
378.1666112865
 20
154.3585473404
  0
SEQEND
  0
POLYLINE
  8
SURFACE
 62
7
  6
CONTINUOUS
 66
1
 70
0
  0
VERTEX
  8
SURFACE
 62
7
  6
CONTINUOUS
 10
403.1462138552
 20
154.0476178366
  0
VERTEX
  8
SURFACE
 62
7
  6
CONTINUOUS
 10
403.240525594
 20
154.0888926992
  0
VERTEX
  8
SURFACE
 62
7
  6
CONTINUOUS
 10
403.3767203817
 20
154.141536834
  0
VERTEX
  8
SURFACE
 62
7
  6
CONTINUOUS
 10
403.5376874177
 20
154.1960405791
  0
VERTEX
  8
SURFACE
 62
7
  6
CONTINUOUS
 10
403.7232111358
 20
154.2511086646
  0
VERTEX
  8
SURFACE
 62
7
  6
CONTINUOUS
 10
403.9329731245
 20
154.3056105124
  0
VERTEX
  8
SURFACE
 62
7
  6
CONTINUOUS
 10
404.1666112865
 20
154.3585473404
  0
SEQEND
  0
LINE
  8
SURFACE
 62
7
  6
CONTINUOUS
 10
324.005389818
 20
163.6774376113
 11
324.005389818
 21
168.7340723771
  0
LINE
  8
SURFACE
 62
7
  6
CONTINUOUS
 10
328.055389818
 20
171.9024378333
 11
328.055389818
 21
168.1274378333
  0
LINE
  8
SURFACE
 62
7
  6
CONTINUOUS
 10
328.055389818
 20
158.6274378333
 11
328.055389818
 21
155.8240792129
  0
LINE
  8
SURFACE
 62
7
  6
CONTINUOUS
 10
332.055389818
 20
166.6274378333
 11
332.055389818
 21
160.1274378333
  0
POLYLINE
  8
SURFACE
 62
7
  6
CONTINUOUS
 66
1
 70
0
  0
VERTEX
  8
SURFACE
 62
7
  6
CONTINUOUS
 10
342.0553898233
 20
155.8241104369
  0
VERTEX
  8
SURFACE
 62
7
  6
CONTINUOUS
 10
342.05869217
 20
155.7372262373
  0
VERTEX
  8
SURFACE
 62
7
  6
CONTINUOUS
 10
342.0781413755
 20
155.5969653336
  0
VERTEX
  8
SURFACE
 62
7
  6
CONTINUOUS
 10
342.1151733697
 20
155.4585701358
  0
VERTEX
  8
SURFACE
 62
7
  6
CONTINUOUS
 10
342.1697220528
 20
155.3239964596
  0
VERTEX
  8
SURFACE
 62
7
  6
CONTINUOUS
 10
342.2413922863
 20
155.1952313018
  0
VERTEX
  8
SURFACE
 62
7
  6
CONTINUOUS
 10
342.3291453849
 20
155.0744749368
  0
VERTEX
  8
SURFACE
 62
7
  6
CONTINUOUS
 10
342.4314191661
 20
154.9635122016
  0
VERTEX
  8
SURFACE
 62
7
  6
CONTINUOUS
 10
342.5467153623
 20
154.8631404461
  0
VERTEX
  8
SURFACE
 62
7
  6
CONTINUOUS
 10
342.6738731203
 20
154.7733316764
  0
VERTEX
  8
SURFACE
 62
7
  6
CONTINUOUS
 10
342.8128223913
 20
154.6931463545
  0
VERTEX
  8
SURFACE
 62
7
  6
CONTINUOUS
 10
342.9648495911
 20
154.6211763725
  0
VERTEX
  8
SURFACE
 62
7
  6
CONTINUOUS
 10
343.1326459087
 20
154.5559802207
  0
VERTEX
  8
SURFACE
 62
7
  6
CONTINUOUS
 10
343.3195746534
 20
154.496610161
  0
VERTEX
  8
SURFACE
 62
7
  6
CONTINUOUS
 10
343.5291869566
 20
154.4427482096
  0
VERTEX
  8
SURFACE
 62
7
  6
CONTINUOUS
 10
343.7291200537
 20
154.4012572763
  0
SEQEND
  0
LINE
  8
SURFACE
 62
7
  6
CONTINUOUS
 10
338.055389818
 20
160.1274378333
 11
338.055389818
 21
166.6274378333
  0
LINE
  8
SURFACE
 62
7
  6
CONTINUOUS
 10
342.055389818
 20
155.8240792134
 11
342.055389818
 21
158.6274378333
  0
LINE
  8
SURFACE
 62
7
  6
CONTINUOUS
 10
342.055389818
 20
168.1274378333
 11
342.055389818
 21
171.9024378333
  0
POLYLINE
  8
SURFACE
 62
7
  6
CONTINUOUS
 66
1
 70
0
  0
VERTEX
  8
SURFACE
 62
7
  6
CONTINUOUS
 10
442.3775614195
 20
172.6460914693
  0
VERTEX
  8
SURFACE
 62
7
  6
CONTINUOUS
 10
442.2188214033
 20
172.7291801616
  0
VERTEX
  8
SURFACE
 62
7
  6
CONTINUOUS
 10
442.0371728692
 20
172.8050175649
  0
VERTEX
  8
SURFACE
 62
7
  6
CONTINUOUS
 10
441.8507604644
 20
172.8607069505
  0
VERTEX
  8
SURFACE
 62
7
  6
CONTINUOUS
 10
441.6600678364
 20
172.8938138566
  0
VERTEX
  8
SURFACE
 62
7
  6
CONTINUOUS
 10
441.5032751175
 20
172.9024377923
  0
SEQEND
  0
LINE
  8
SURFACE
 62
7
  6
CONTINUOUS
 10
354.055389818
 20
171.9024378333
 11
354.055389818
 21
168.1274378333
  0
LINE
  8
SURFACE
 62
7
  6
CONTINUOUS
 10
354.055389818
 20
158.6274378333
 11
354.055389818
 21
155.824079213
  0
LINE
  8
SURFACE
 62
7
  6
CONTINUOUS
 10
358.055389818
 20
166.6274378333
 11
358.055389818
 21
160.1274378333
  0
LINE
  8
0
 62
7
  6
CONTINUOUS
 10
359.180389818
 20
172.902125765
 11
359.180389818
 21
172.9024378333
  0
LINE
  8
0
 62
7
  6
CONTINUOUS
 10
359.3931557501
 20
172.9024378333
 11
359.3931557501
 21
172.7024378333
  0
LINE
  8
0
 62
7
  6
CONTINUOUS
 10
362.055389818
 20
172.9024378333
 11
362.055389818
 21
172.7024378333
  0
LINE
  8
0
 62
7
  6
CONTINUOUS
 10
362.305389818
 20
172.9024378333
 11
362.305389818
 21
172.7024378333
  0
LINE
  8
SURFACE
 62
7
  6
CONTINUOUS
 10
442.3775614
 20
172.6460914353
 11
442.3777700274
 21
172.6459721983
  0
LINE
  8
SURFACE
 62
7
  6
CONTINUOUS
 10
421.0078065382
 20
159.6392955546
 11
421.0071934448
 21
159.6398074873
  0
POLYLINE
  8
SURFACE
 62
7
  6
CONTINUOUS
 66
1
 70
0
  0
VERTEX
  8
SURFACE
 62
7
  6
CONTINUOUS
 10
368.0553898233
 20
155.8241104368
  0
VERTEX
  8
SURFACE
 62
7
  6
CONTINUOUS
 10
368.0586921699
 20
155.7372262382
  0
VERTEX
  8
SURFACE
 62
7
  6
CONTINUOUS
 10
368.0781413753
 20
155.5969653349
  0
VERTEX
  8
SURFACE
 62
7
  6
CONTINUOUS
 10
368.1151733692
 20
155.4585701374
  0
VERTEX
  8
SURFACE
 62
7
  6
CONTINUOUS
 10
368.169722052
 20
155.3239964613
  0
VERTEX
  8
SURFACE
 62
7
  6
CONTINUOUS
 10
368.2413922853
 20
155.1952313034
  0
VERTEX
  8
SURFACE
 62
7
  6
CONTINUOUS
 10
368.3291453839
 20
155.074474938
  0
VERTEX
  8
SURFACE
 62
7
  6
CONTINUOUS
 10
368.431419165
 20
154.9635122026
  0
VERTEX
  8
SURFACE
 62
7
  6
CONTINUOUS
 10
368.5467153613
 20
154.8631404469
  0
VERTEX
  8
SURFACE
 62
7
  6
CONTINUOUS
 10
368.6738731193
 20
154.7733316771
  0
VERTEX
  8
SURFACE
 62
7
  6
CONTINUOUS
 10
368.8128223904
 20
154.6931463549
  0
VERTEX
  8
SURFACE
 62
7
  6
CONTINUOUS
 10
368.9648495901
 20
154.6211763729
  0
VERTEX
  8
SURFACE
 62
7
  6
CONTINUOUS
 10
369.1326459078
 20
154.555980221
  0
VERTEX
  8
SURFACE
 62
7
  6
CONTINUOUS
 10
369.3195746529
 20
154.4966101612
  0
VERTEX
  8
SURFACE
 62
7
  6
CONTINUOUS
 10
369.5291869563
 20
154.4427482096
  0
VERTEX
  8
SURFACE
 62
7
  6
CONTINUOUS
 10
369.7291200537
 20
154.4012572763
  0
SEQEND
  0
LINE
  8
SURFACE
 62
7
  6
CONTINUOUS
 10
364.055389818
 20
160.1274378333
 11
364.055389818
 21
166.6274378333
  0
LINE
  8
SURFACE
 62
7
  6
CONTINUOUS
 10
368.055389818
 20
155.8240792133
 11
368.055389818
 21
158.6274378333
  0
LINE
  8
SURFACE
 62
7
  6
CONTINUOUS
 10
368.055389818
 20
168.1274378333
 11
368.055389818
 21
171.9024378333
  0
LINE
  8
SURFACE
 62
7
  6
CONTINUOUS
 10
443.0638937929
 20
160.1624271484
 11
443.1048468581
 21
160.1954146518
  0
POLYLINE
  8
SURFACE
 62
7
  6
CONTINUOUS
 66
1
 70
0
  0
VERTEX
  8
SURFACE
 62
7
  6
CONTINUOUS
 10
443.1048468581
 20
160.1954146518
  0
VERTEX
  8
SURFACE
 62
7
  6
CONTINUOUS
 10
443.1601206438
 20
160.2341306567
  0
VERTEX
  8
SURFACE
 62
7
  6
CONTINUOUS
 10
443.2319660848
 20
160.2769316448
  0
VERTEX
  8
SURFACE
 62
7
  6
CONTINUOUS
 10
443.3233764022
 20
160.3216298195
  0
VERTEX
  8
SURFACE
 62
7
  6
CONTINUOUS
 10
443.4354773551
 20
160.3641328449
  0
SEQEND
  0
POLYLINE
  8
SURFACE
 62
7
  6
CONTINUOUS
 66
1
 70
0
  0
VERTEX
  8
SURFACE
 62
7
  6
CONTINUOUS
 10
443.1043370135
 20
166.5598463885
  0
VERTEX
  8
SURFACE
 62
7
  6
CONTINUOUS
 10
443.0634896768
 20
166.5927972201
  0
VERTEX
  8
SURFACE
 62
7
  6
CONTINUOUS
 10
443.055389818
 20
166.6002009254
  0
SEQEND
  0
LINE
  8
SURFACE
 62
7
  6
CONTINUOUS
 10
380.055389818
 20
171.9024378333
 11
380.055389818
 21
168.1274378333
  0
LINE
  8
SURFACE
 62
7
  6
CONTINUOUS
 10
380.055389818
 20
158.6274378333
 11
380.055389818
 21
155.8240856624
  0
LINE
  8
SURFACE
 62
7
  6
CONTINUOUS
 10
384.055389818
 20
166.6274378333
 11
384.055389818
 21
160.1274378333
  0
POLYLINE
  8
SURFACE
 62
7
  6
CONTINUOUS
 66
1
 70
0
  0
VERTEX
  8
SURFACE
 62
7
  6
CONTINUOUS
 10
394.0404426882
 20
167.9538772949
  0
VERTEX
  8
SURFACE
 62
7
  6
CONTINUOUS
 10
394.0141252817
 20
167.8420295569
  0
VERTEX
  8
SURFACE
 62
7
  6
CONTINUOUS
 10
393.973948996
 20
167.7312050229
  0
VERTEX
  8
SURFACE
 62
7
  6
CONTINUOUS
 10
393.9199508587
 20
167.6240930621
  0
VERTEX
  8
SURFACE
 62
7
  6
CONTINUOUS
 10
393.8527244899
 20
167.5231975356
  0
VERTEX
  8
SURFACE
 62
7
  6
CONTINUOUS
 10
393.7734440958
 20
167.4308493395
  0
VERTEX
  8
SURFACE
 62
7
  6
CONTINUOUS
 10
393.6837119144
 20
167.3489761154
  0
VERTEX
  8
SURFACE
 62
7
  6
CONTINUOUS
 10
393.5849990928
 20
167.2787756025
  0
VERTEX
  8
SURFACE
 62
7
  6
CONTINUOUS
 10
393.4787114864
 20
167.2211236458
  0
VERTEX
  8
SURFACE
 62
7
  6
CONTINUOUS
 10
393.3663188276
 20
167.1767562583
  0
VERTEX
  8
SURFACE
 62
7
  6
CONTINUOUS
 10
393.2493483533
 20
167.1462692146
  0
SEQEND
  0
LINE
  8
SURFACE
 62
7
  6
CONTINUOUS
 10
443.055389818
 20
160.1546655936
 11
443.0638937929
 21
160.1624271484
  0
POLYLINE
  8
SURFACE
 62
7
  6
CONTINUOUS
 66
1
 70
0
  0
VERTEX
  8
SURFACE
 62
7
  6
CONTINUOUS
 10
394.0553903526
 20
155.8241351315
  0
VERTEX
  8
SURFACE
 62
7
  6
CONTINUOUS
 10
394.0582110674
 20
155.7438148598
  0
VERTEX
  8
SURFACE
 62
7
  6
CONTINUOUS
 10
394.0778345372
 20
155.5984980069
  0
VERTEX
  8
SURFACE
 62
7
  6
CONTINUOUS
 10
394.1159135901
 20
155.4563681928
  0
VERTEX
  8
SURFACE
 62
7
  6
CONTINUOUS
 10
394.1721194048
 20
155.3190189652
  0
VERTEX
  8
SURFACE
 62
7
  6
CONTINUOUS
 10
394.2458252527
 20
155.1883436745
  0
VERTEX
  8
SURFACE
 62
7
  6
CONTINUOUS
 10
394.3360458807
 20
155.0661404712
  0
VERTEX
  8
SURFACE
 62
7
  6
CONTINUOUS
 10
394.4413965715
 20
154.9539330573
  0
VERTEX
  8
SURFACE
 62
7
  6
CONTINUOUS
 10
394.5597223544
 20
154.8530703651
  0
VERTEX
  8
SURFACE
 62
7
  6
CONTINUOUS
 10
394.6890268129
 20
154.763778223
  0
VERTEX
  8
SURFACE
 62
7
  6
CONTINUOUS
 10
394.8286406089
 20
154.6849716988
  0
VERTEX
  8
SURFACE
 62
7
  6
CONTINUOUS
 10
394.9794617604
 20
154.6149641912
  0
VERTEX
  8
SURFACE
 62
7
  6
CONTINUOUS
 10
395.1444751908
 20
154.5518473468
  0
VERTEX
  8
SURFACE
 62
7
  6
CONTINUOUS
 10
395.327501207
 20
154.4943496059
  0
VERTEX
  8
SURFACE
 62
7
  6
CONTINUOUS
 10
395.5326679585
 20
154.4419494454
  0
VERTEX
  8
SURFACE
 62
7
  6
CONTINUOUS
 10
395.7291336005
 20
154.4012550286
  0
SEQEND
  0
LINE
  8
SURFACE
 62
7
  6
CONTINUOUS
 10
390.055389818
 20
160.1274378333
 11
390.055389818
 21
166.6274378333
  0
LINE
  8
SURFACE
 62
7
  6
CONTINUOUS
 10
394.055389818
 20
155.8240856627
 11
394.055389818
 21
158.6292041613
  0
LINE
  8
SURFACE
 62
7
  6
CONTINUOUS
 10
394.055389818
 20
168.1256715869
 11
394.055389818
 21
171.9024378333
  0
LINE
  8
SURFACE
 62
7
  6
CONTINUOUS
 10
394.0553897913
 20
168.1256627195
 11
394.0534700955
 21
168.0639337116
  0
LINE
  8
SURFACE
 62
7
  6
CONTINUOUS
 10
394.0534700955
 20
168.0639337116
 11
394.0404426882
 21
167.9538772949
  0
POLYLINE
  8
SURFACE
 62
7
  6
CONTINUOUS
 66
1
 70
0
  0
VERTEX
  8
SURFACE
 62
7
  6
CONTINUOUS
 10
420.4215764368
 20
171.0394052713
  0
VERTEX
  8
SURFACE
 62
7
  6
CONTINUOUS
 10
420.4033833432
 20
171.0054538407
  0
VERTEX
  8
SURFACE
 62
7
  6
CONTINUOUS
 10
420.3968378803
 20
170.9973663309
  0
SEQEND
  0
POLYLINE
  8
SURFACE
 62
7
  6
CONTINUOUS
 66
1
 70
0
  0
VERTEX
  8
SURFACE
 62
7
  6
CONTINUOUS
 10
423.9457834042
 20
160.1720130282
  0
VERTEX
  8
SURFACE
 62
7
  6
CONTINUOUS
 10
424.0740258647
 20
160.3500817868
  0
VERTEX
  8
SURFACE
 62
7
  6
CONTINUOUS
 10
424.1855574395
 20
160.5167061129
  0
VERTEX
  8
SURFACE
 62
7
  6
CONTINUOUS
 10
424.2811442909
 20
160.6726347116
  0
VERTEX
  8
SURFACE
 62
7
  6
CONTINUOUS
 10
424.361539513
 20
160.8185910996
  0
VERTEX
  8
SURFACE
 62
7
  6
CONTINUOUS
 10
424.4290556011
 20
160.9584390194
  0
VERTEX
  8
SURFACE
 62
7
  6
CONTINUOUS
 10
424.48632202
 20
161.0983975188
  0
VERTEX
  8
SURFACE
 62
7
  6
CONTINUOUS
 10
424.5351786373
 20
161.2464667135
  0
VERTEX
  8
SURFACE
 62
7
  6
CONTINUOUS
 10
424.5753975814
 20
161.410999903
  0
VERTEX
  8
SURFACE
 62
7
  6
CONTINUOUS
 10
424.6040567127
 20
161.6004793869
  0
VERTEX
  8
SURFACE
 62
7
  6
CONTINUOUS
 10
424.6148663057
 20
161.8121479371
  0
SEQEND
  0
POLYLINE
  8
SURFACE
 62
7
  6
CONTINUOUS
 66
1
 70
0
  0
VERTEX
  8
SURFACE
 62
7
  6
CONTINUOUS
 10
394.0405127919
 20
158.8005977359
  0
VERTEX
  8
SURFACE
 62
7
  6
CONTINUOUS
 10
394.0535418373
 20
158.6897772889
  0
VERTEX
  8
SURFACE
 62
7
  6
CONTINUOUS
 10
394.0553897304
 20
158.6292122176
  0
SEQEND
  0
LINE
  8
SURFACE
 62
7
  6
CONTINUOUS
 10
416.1804209574
 20
160.2697630271
 11
416.1957808584
 21
160.1238384019
  0
LINE
  8
SURFACE
 62
7
  6
CONTINUOUS
 10
406.0555712331
 20
167.9980576129
 11
406.0553911656
 21
168.011873693
  0
POLYLINE
  8
SURFACE
 62
7
  6
CONTINUOUS
 66
1
 70
0
  0
VERTEX
  8
SURFACE
 62
7
  6
CONTINUOUS
 10
416.0839931321
 20
163.1109067511
  0
VERTEX
  8
SURFACE
 62
7
  6
CONTINUOUS
 10
416.0859492665
 20
162.8018100216
  0
VERTEX
  8
SURFACE
 62
7
  6
CONTINUOUS
 10
416.089338022
 20
162.4966418623
  0
VERTEX
  8
SURFACE
 62
7
  6
CONTINUOUS
 10
416.0941400481
 20
162.1978187693
  0
VERTEX
  8
SURFACE
 62
7
  6
CONTINUOUS
 10
416.1003246694
 20
161.9077089162
  0
VERTEX
  8
SURFACE
 62
7
  6
CONTINUOUS
 10
416.1078505161
 20
161.6286050648
  0
VERTEX
  8
SURFACE
 62
7
  6
CONTINUOUS
 10
416.1166672928
 20
161.3626743715
  0
VERTEX
  8
SURFACE
 62
7
  6
CONTINUOUS
 10
416.1267425894
 20
161.1113743899
  0
VERTEX
  8
SURFACE
 62
7
  6
CONTINUOUS
 10
416.1380900471
 20
160.8754109918
  0
VERTEX
  8
SURFACE
 62
7
  6
CONTINUOUS
 10
416.1507530657
 20
160.6556805429
  0
VERTEX
  8
SURFACE
 62
7
  6
CONTINUOUS
 10
416.164813329
 20
160.4533437463
  0
VERTEX
  8
SURFACE
 62
7
  6
CONTINUOUS
 10
416.1804209574
 20
160.2697630271
  0
SEQEND
  0
LINE
  8
SURFACE
 62
7
  6
CONTINUOUS
 10
406.055389818
 20
171.9024378333
 11
406.055389818
 21
168.0117918433
  0
LINE
  8
SURFACE
 62
7
  6
CONTINUOUS
 10
406.055389818
 20
158.7430939671
 11
406.055389818
 21
155.8240856624
  0
LINE
  8
SURFACE
 62
7
  6
CONTINUOUS
 10
410.055389818
 20
166.6274378333
 11
410.055389818
 21
160.1274378333
  0
LINE
  8
SURFACE
 62
7
  6
CONTINUOUS
 10
416.0839931321
 20
163.1109067511
 11
416.0834628178
 21
169.5315243942
  0
POLYLINE
  8
SURFACE
 62
7
  6
CONTINUOUS
 66
1
 70
0
  0
VERTEX
  8
SURFACE
 62
7
  6
CONTINUOUS
 10
406.0553905835
 20
158.7430610064
  0
VERTEX
  8
SURFACE
 62
7
  6
CONTINUOUS
 10
406.0555949779
 20
158.7577546621
  0
VERTEX
  8
SURFACE
 62
7
  6
CONTINUOUS
 10
406.0573146233
 20
158.7900522376
  0
SEQEND
  0
POLYLINE
  8
SURFACE
 62
7
  6
CONTINUOUS
 66
1
 70
0
  0
VERTEX
  8
SURFACE
 62
7
  6
CONTINUOUS
 10
406.0573146233
 20
158.7900522376
  0
VERTEX
  8
SURFACE
 62
7
  6
CONTINUOUS
 10
406.0618022284
 20
158.8318157945
  0
VERTEX
  8
SURFACE
 62
7
  6
CONTINUOUS
 10
406.0702186815
 20
158.8816624625
  0
VERTEX
  8
SURFACE
 62
7
  6
CONTINUOUS
 10
406.0834953393
 20
158.9376463332
  0
VERTEX
  8
SURFACE
 62
7
  6
CONTINUOUS
 10
406.1024954815
 20
158.9984144013
  0
VERTEX
  8
SURFACE
 62
7
  6
CONTINUOUS
 10
406.1279589646
 20
159.0626362434
  0
VERTEX
  8
SURFACE
 62
7
  6
CONTINUOUS
 10
406.1604117765
 20
159.1288419816
  0
VERTEX
  8
SURFACE
 62
7
  6
CONTINUOUS
 10
406.2001456952
 20
159.1955216358
  0
VERTEX
  8
SURFACE
 62
7
  6
CONTINUOUS
 10
406.2476778948
 20
159.2617854892
  0
VERTEX
  8
SURFACE
 62
7
  6
CONTINUOUS
 10
406.3035143642
 20
159.3266653247
  0
VERTEX
  8
SURFACE
 62
7
  6
CONTINUOUS
 10
406.3680632376
 20
159.389010181
  0
VERTEX
  8
SURFACE
 62
7
  6
CONTINUOUS
 10
406.4415164282
 20
159.4474379816
  0
VERTEX
  8
SURFACE
 62
7
  6
CONTINUOUS
 10
406.5237983401
 20
159.5003992724
  0
VERTEX
  8
SURFACE
 62
7
  6
CONTINUOUS
 10
406.6145766882
 20
159.5462701116
  0
VERTEX
  8
SURFACE
 62
7
  6
CONTINUOUS
 10
406.7132202957
 20
159.5833906698
  0
VERTEX
  8
SURFACE
 62
7
  6
CONTINUOUS
 10
406.8187620196
 20
159.6101188076
  0
VERTEX
  8
SURFACE
 62
7
  6
CONTINUOUS
 10
406.922780393
 20
159.6239593294
  0
SEQEND
  0
POLYLINE
  8
SURFACE
 62
7
  6
CONTINUOUS
 66
1
 70
0
  0
VERTEX
  8
SURFACE
 62
7
  6
CONTINUOUS
 10
424.8248916962
 20
167.9716093899
  0
VERTEX
  8
SURFACE
 62
7
  6
CONTINUOUS
 10
424.7727036327
 20
167.8017648048
  0
VERTEX
  8
SURFACE
 62
7
  6
CONTINUOUS
 10
424.7221576818
 20
167.6237750938
  0
VERTEX
  8
SURFACE
 62
7
  6
CONTINUOUS
 10
424.6749105357
 20
167.4409105804
  0
VERTEX
  8
SURFACE
 62
7
  6
CONTINUOUS
 10
424.6330699834
 20
167.2584330409
  0
SEQEND
  0
LINE
  8
SURFACE
 62
7
  6
CONTINUOUS
 10
420.4218671904
 20
171.0400991318
 11
420.4215764368
 21
171.0394052713
  0
LINE
  8
SURFACE
 62
7
  6
CONTINUOUS
 10
416.0841480505
 20
169.5290186602
 11
416.0834628179
 21
169.5315632767
  0
POLYLINE
  8
SURFACE
 62
7
  6
CONTINUOUS
 66
1
 70
0
  0
VERTEX
  8
SURFACE
 62
7
  6
CONTINUOUS
 10
416.195769843
 20
160.1239311854
  0
VERTEX
  8
SURFACE
 62
7
  6
CONTINUOUS
 10
416.1967523063
 20
160.1158278199
  0
VERTEX
  8
SURFACE
 62
7
  6
CONTINUOUS
 10
416.2002844943
 20
160.090310102
  0
VERTEX
  8
SURFACE
 62
7
  6
CONTINUOUS
 10
416.2045350411
 20
160.065259933
  0
VERTEX
  8
SURFACE
 62
7
  6
CONTINUOUS
 10
416.2100000066
 20
160.0390459133
  0
VERTEX
  8
SURFACE
 62
7
  6
CONTINUOUS
 10
416.2174066573
 20
160.0102391961
  0
VERTEX
  8
SURFACE
 62
7
  6
CONTINUOUS
 10
416.2276006458
 20
159.9781811284
  0
VERTEX
  8
SURFACE
 62
7
  6
CONTINUOUS
 10
416.2413858922
 20
159.943094169
  0
VERTEX
  8
SURFACE
 62
7
  6
CONTINUOUS
 10
416.2593185543
 20
159.9059748388
  0
VERTEX
  8
SURFACE
 62
7
  6
CONTINUOUS
 10
416.2816960587
 20
159.8680549017
  0
VERTEX
  8
SURFACE
 62
7
  6
CONTINUOUS
 10
416.3087302106
 20
159.8303517463
  0
VERTEX
  8
SURFACE
 62
7
  6
CONTINUOUS
 10
416.3406889986
 20
159.7936242435
  0
VERTEX
  8
SURFACE
 62
7
  6
CONTINUOUS
 10
416.3777334107
 20
159.7587031303
  0
VERTEX
  8
SURFACE
 62
7
  6
CONTINUOUS
 10
416.4199291901
 20
159.7264597484
  0
VERTEX
  8
SURFACE
 62
7
  6
CONTINUOUS
 10
416.4672242429
 20
159.6978153476
  0
VERTEX
  8
SURFACE
 62
7
  6
CONTINUOUS
 10
416.5194150121
 20
159.6737411941
  0
VERTEX
  8
SURFACE
 62
7
  6
CONTINUOUS
 10
416.5761205741
 20
159.6552387551
  0
VERTEX
  8
SURFACE
 62
7
  6
CONTINUOUS
 10
416.6367822427
 20
159.6433065752
  0
VERTEX
  8
SURFACE
 62
7
  6
CONTINUOUS
 10
416.7006360141
 20
159.6389151099
  0
VERTEX
  8
SURFACE
 62
7
  6
CONTINUOUS
 10
416.707736451
 20
159.638931347
  0
SEQEND
  0
LINE
  8
SURFACE
 62
7
  6
CONTINUOUS
 10
420.055389818
 20
171.9024378333
 11
420.055389818
 21
170.9973663309
  0
LINE
  8
SURFACE
 62
7
  6
CONTINUOUS
 10
420.055389818
 20
154.8524378333
 11
420.055389818
 21
159.6713884371
  0
LINE
  8
SURFACE
 62
7
  6
CONTINUOUS
 10
424.6148662265
 20
161.8121519911
 11
424.6148671661
 21
167.0703526276
  0
POLYLINE
  8
SURFACE
 62
7
  6
CONTINUOUS
 66
1
 70
0
  0
VERTEX
  8
SURFACE
 62
7
  6
CONTINUOUS
 10
424.6330699834
 20
167.2584330409
  0
VERTEX
  8
SURFACE
 62
7
  6
CONTINUOUS
 10
424.6194984837
 20
167.1695431991
  0
VERTEX
  8
SURFACE
 62
7
  6
CONTINUOUS
 10
424.6148671661
 20
167.0703526276
  0
SEQEND
  0
LINE
  8
SURFACE
 62
7
  6
CONTINUOUS
 10
433.2376709833
 20
166.1186187882
 11
434.8567909797
 21
172.1612568784
  0
LINE
  8
SURFACE
 62
7
  6
CONTINUOUS
 10
429.2539886563
 20
172.1612568784
 11
430.8731093186
 21
166.118616303
  0
POLYLINE
  8
SURFACE
 62
7
  6
CONTINUOUS
 66
1
 70
0
  0
VERTEX
  8
SURFACE
 62
7
  6
CONTINUOUS
 10
443.0553897897
 20
171.4874643471
  0
VERTEX
  8
SURFACE
 62
7
  6
CONTINUOUS
 10
443.0493125805
 20
171.617866966
  0
VERTEX
  8
SURFACE
 62
7
  6
CONTINUOUS
 10
443.0239676557
 20
171.7806312197
  0
VERTEX
  8
SURFACE
 62
7
  6
CONTINUOUS
 10
442.9792990262
 20
171.937155122
  0
VERTEX
  8
SURFACE
 62
7
  6
CONTINUOUS
 10
442.9159789426
 20
172.0857607371
  0
VERTEX
  8
SURFACE
 62
7
  6
CONTINUOUS
 10
442.8348206623
 20
172.2249269478
  0
VERTEX
  8
SURFACE
 62
7
  6
CONTINUOUS
 10
442.7365245253
 20
172.3534773802
  0
VERTEX
  8
SURFACE
 62
7
  6
CONTINUOUS
 10
442.6215534881
 20
172.4704224656
  0
VERTEX
  8
SURFACE
 62
7
  6
CONTINUOUS
 10
442.4904483736
 20
172.5745771552
  0
VERTEX
  8
SURFACE
 62
7
  6
CONTINUOUS
 10
442.3777700274
 20
172.6459721983
  0
SEQEND
  0
LINE
  8
SURFACE
 62
7
  6
CONTINUOUS
 10
443.055389818
 20
154.8524378333
 11
443.055389818
 21
171.9024378333
  0
LINE
  8
SURFACE
 62
7
  6
CONTINUOUS
 10
455.755389818
 20
162.9274378333
 11
455.755389818
 21
163.8274378333
  0
LINE
  8
0
 62
7
  6
CONTINUOUS
 10
521.1979117205
 20
252.7942753385
 11
518.1479117205
 21
252.7942753385
  0
LINE
  8
0
 62
7
  6
CONTINUOUS
 10
518.2729117205
 20
257.2442753385
 11
511.7041310497
 21
257.0148884629
  0
LINE
  8
0
 62
7
  6
CONTINUOUS
 10
518.0729117205
 20
257.2442753385
 11
518.4729117205
 21
257.2442753385
  0
POLYLINE
  8
0
 62
7
  6
CONTINUOUS
 66
1
 70
0
  0
VERTEX
  8
0
 62
7
  6
CONTINUOUS
 10
511.7041233111
 20
257.0148881927
  0
VERTEX
  8
0
 62
7
  6
CONTINUOUS
 10
511.6112828559
 20
257.0053962909
  0
VERTEX
  8
0
 62
7
  6
CONTINUOUS
 10
511.5205418315
 20
256.9835900643
  0
VERTEX
  8
0
 62
7
  6
CONTINUOUS
 10
511.4335260773
 20
256.949860225
  0
VERTEX
  8
0
 62
7
  6
CONTINUOUS
 10
511.3517946857
 20
256.9048111244
  0
VERTEX
  8
0
 62
7
  6
CONTINUOUS
 10
511.2768120671
 20
256.8492499256
  0
VERTEX
  8
0
 62
7
  6
CONTINUOUS
 10
511.2099217116
 20
256.7841721406
  0
VERTEX
  8
0
 62
7
  6
CONTINUOUS
 10
511.1523221171
 20
256.7107437941
  0
VERTEX
  8
0
 62
7
  6
CONTINUOUS
 10
511.1050453154
 20
256.6302805325
  0
VERTEX
  8
0
 62
7
  6
CONTINUOUS
 10
511.0689383795
 20
256.544224049
  0
VERTEX
  8
0
 62
7
  6
CONTINUOUS
 10
511.0446482447
 20
256.4541162466
  0
VERTEX
  8
0
 62
7
  6
CONTINUOUS
 10
511.0326101215
 20
256.3615716041
  0
VERTEX
  8
0
 62
7
  6
CONTINUOUS
 10
511.0330397046
 20
256.2682482603
  0
VERTEX
  8
0
 62
7
  6
CONTINUOUS
 10
511.0459293039
 20
256.1758183305
  0
VERTEX
  8
0
 62
7
  6
CONTINUOUS
 10
511.0710479578
 20
256.0859379714
  0
VERTEX
  8
0
 62
7
  6
CONTINUOUS
 10
511.1079455591
 20
256.0002176547
  0
VERTEX
  8
0
 62
7
  6
CONTINUOUS
 10
511.1559609242
 20
255.9201932934
  0
VERTEX
  8
0
 62
7
  6
CONTINUOUS
 10
511.2141779866
 20
255.847359513
  0
SEQEND
  0
LINE
  8
DEFAULT_1
 62
7
  6
CENTER
 10
525.8979117205
 20
261.2442753385
 11
520.4730117205
 21
261.2442753385
  0
LINE
  8
0
 62
2
  6
CONTINUOUS
 10
519.9579117205
 20
261.2442753385
 11
516.9879117205
 21
261.2442753385
  0
LINE
  8
DEFAULT_1
 62
7
  6
CENTER
 10
511.0479117205
 20
261.2442753385
 11
516.4728117205
 21
261.2442753385
  0
LINE
  8
0
 62
7
  6
CONTINUOUS
 10
526.7979132132
 20
266.2942753385
 11
526.2979117205
 21
266.2942753385
  0
POLYLINE
  8
0
 62
7
  6
CONTINUOUS
 66
1
 70
0
  0
VERTEX
  8
0
 62
7
  6
CONTINUOUS
 10
508.7479117093
 20
278.3857293833
  0
VERTEX
  8
0
 62
7
  6
CONTINUOUS
 10
508.7479968372
 20
278.3726791462
  0
VERTEX
  8
0
 62
7
  6
CONTINUOUS
 10
508.7483106227
 20
278.3574840741
  0
VERTEX
  8
0
 62
7
  6
CONTINUOUS
 10
508.7488525259
 20
278.3423594931
  0
VERTEX
  8
0
 62
7
  6
CONTINUOUS
 10
508.7496195146
 20
278.3273088215
  0
VERTEX
  8
0
 62
7
  6
CONTINUOUS
 10
508.7506085168
 20
278.3123353882
  0
VERTEX
  8
0
 62
7
  6
CONTINUOUS
 10
508.7518164235
 20
278.2974424325
  0
VERTEX
  8
0
 62
7
  6
CONTINUOUS
 10
508.7532400908
 20
278.2826331052
  0
VERTEX
  8
0
 62
7
  6
CONTINUOUS
 10
508.7548763419
 20
278.2679104677
  0
VERTEX
  8
0
 62
7
  6
CONTINUOUS
 10
508.7567219694
 20
278.253277493
  0
VERTEX
  8
0
 62
7
  6
CONTINUOUS
 10
508.7587737373
 20
278.2387370659
  0
VERTEX
  8
0
 62
7
  6
CONTINUOUS
 10
508.7610283831
 20
278.2242919831
  0
VERTEX
  8
0
 62
7
  6
CONTINUOUS
 10
508.7634826199
 20
278.209944954
  0
VERTEX
  8
0
 62
7
  6
CONTINUOUS
 10
508.7661331382
 20
278.1956986007
  0
VERTEX
  8
0
 62
7
  6
CONTINUOUS
 10
508.7689766082
 20
278.1815554588
  0
VERTEX
  8
0
 62
7
  6
CONTINUOUS
 10
508.7720096814
 20
278.1675179778
  0
VERTEX
  8
0
 62
7
  6
CONTINUOUS
 10
508.7752289927
 20
278.1535885216
  0
VERTEX
  8
0
 62
7
  6
CONTINUOUS
 10
508.7786311623
 20
278.1397693693
  0
VERTEX
  8
0
 62
7
  6
CONTINUOUS
 10
508.7822127972
 20
278.1260627153
  0
VERTEX
  8
0
 62
7
  6
CONTINUOUS
 10
508.7859704936
 20
278.1124706707
  0
VERTEX
  8
0
 62
7
  6
CONTINUOUS
 10
508.789900838
 20
278.0989952632
  0
VERTEX
  8
0
 62
7
  6
CONTINUOUS
 10
508.7940004095
 20
278.0856384386
  0
VERTEX
  8
0
 62
7
  6
CONTINUOUS
 10
508.798265781
 20
278.0724020606
  0
VERTEX
  8
0
 62
7
  6
CONTINUOUS
 10
508.8026935211
 20
278.0592879125
  0
VERTEX
  8
0
 62
7
  6
CONTINUOUS
 10
508.807280196
 20
278.0462976974
  0
VERTEX
  8
0
 62
7
  6
CONTINUOUS
 10
508.8120223688
 20
278.0334330435
  0
VERTEX
  8
0
 62
7
  6
CONTINUOUS
 10
508.8169165994
 20
278.0206955094
  0
VERTEX
  8
0
 62
7
  6
CONTINUOUS
 10
508.8219594564
 20
278.0080865577
  0
VERTEX
  8
0
 62
7
  6
CONTINUOUS
 10
508.8271475129
 20
277.9956075728
  0
VERTEX
  8
0
 62
7
  6
CONTINUOUS
 10
508.8324773469
 20
277.9832598637
  0
VERTEX
  8
0
 62
7
  6
CONTINUOUS
 10
508.8379455432
 20
277.9710446648
  0
VERTEX
  8
0
 62
7
  6
CONTINUOUS
 10
508.8435486942
 20
277.958963137
  0
VERTEX
  8
0
 62
7
  6
CONTINUOUS
 10
508.8492834016
 20
277.9470163688
  0
VERTEX
  8
0
 62
7
  6
CONTINUOUS
 10
508.8551462775
 20
277.9352053767
  0
VERTEX
  8
0
 62
7
  6
CONTINUOUS
 10
508.8611339457
 20
277.923531107
  0
VERTEX
  8
0
 62
7
  6
CONTINUOUS
 10
508.8672430429
 20
277.9119944359
  0
VERTEX
  8
0
 62
7
  6
CONTINUOUS
 10
508.8734702198
 20
277.9005961713
  0
VERTEX
  8
0
 62
7
  6
CONTINUOUS
 10
508.8798121423
 20
277.8893370536
  0
VERTEX
  8
0
 62
7
  6
CONTINUOUS
 10
508.8862654925
 20
277.8782177566
  0
VERTEX
  8
0
 62
7
  6
CONTINUOUS
 10
508.89282697
 20
277.8672388884
  0
VERTEX
  8
0
 62
7
  6
CONTINUOUS
 10
508.8994932924
 20
277.8564009931
  0
VERTEX
  8
0
 62
7
  6
CONTINUOUS
 10
508.9062611971
 20
277.8457045509
  0
VERTEX
  8
0
 62
7
  6
CONTINUOUS
 10
508.9131274414
 20
277.83514998
  0
VERTEX
  8
0
 62
7
  6
CONTINUOUS
 10
508.9200888039
 20
277.8247376373
  0
VERTEX
  8
0
 62
7
  6
CONTINUOUS
 10
508.9271420856
 20
277.8144678196
  0
VERTEX
  8
0
 62
7
  6
CONTINUOUS
 10
508.93428411
 20
277.8043407646
  0
VERTEX
  8
0
 62
7
  6
CONTINUOUS
 10
508.9415117246
 20
277.794356652
  0
VERTEX
  8
0
 62
7
  6
CONTINUOUS
 10
508.9488218016
 20
277.7845156048
  0
VERTEX
  8
0
 62
7
  6
CONTINUOUS
 10
508.9562112383
 20
277.7748176901
  0
VERTEX
  8
0
 62
7
  6
CONTINUOUS
 10
508.9636769581
 20
277.7652629205
  0
VERTEX
  8
0
 62
7
  6
CONTINUOUS
 10
508.9712159112
 20
277.755851255
  0
VERTEX
  8
0
 62
7
  6
CONTINUOUS
 10
508.978825075
 20
277.7465826001
  0
VERTEX
  8
0
 62
7
  6
CONTINUOUS
 10
508.9865014553
 20
277.7374568113
  0
VERTEX
  8
0
 62
7
  6
CONTINUOUS
 10
508.994242086
 20
277.7284736935
  0
VERTEX
  8
0
 62
7
  6
CONTINUOUS
 10
509.0020440307
 20
277.7196330027
  0
VERTEX
  8
0
 62
7
  6
CONTINUOUS
 10
509.0099043823
 20
277.710934447
  0
VERTEX
  8
0
 62
7
  6
CONTINUOUS
 10
509.0178202439
 20
277.7023777092
  0
VERTEX
  8
0
 62
7
  6
CONTINUOUS
 10
509.0257885706
 20
277.6939626108
  0
VERTEX
  8
0
 62
7
  6
CONTINUOUS
 10
509.0338062464
 20
277.6856890139
  0
VERTEX
  8
0
 62
7
  6
CONTINUOUS
 10
509.0418701726
 20
277.6775567246
  0
VERTEX
  8
0
 62
7
  6
CONTINUOUS
 10
509.049977269
 20
277.6695654932
  0
VERTEX
  8
0
 62
7
  6
CONTINUOUS
 10
509.0581244751
 20
277.661715015
  0
VERTEX
  8
0
 62
7
  6
CONTINUOUS
 10
509.066308751
 20
277.6540049309
  0
VERTEX
  8
0
 62
7
  6
CONTINUOUS
 10
509.074527078
 20
277.6464348293
  0
VERTEX
  8
0
 62
7
  6
CONTINUOUS
 10
509.0827764599
 20
277.6390042458
  0
VERTEX
  8
0
 62
7
  6
CONTINUOUS
 10
509.0910539232
 20
277.6317126652
  0
VERTEX
  8
0
 62
7
  6
CONTINUOUS
 10
509.0993565184
 20
277.6245595221
  0
VERTEX
  8
0
 62
7
  6
CONTINUOUS
 10
509.1076813206
 20
277.6175442016
  0
VERTEX
  8
0
 62
7
  6
CONTINUOUS
 10
509.1160254301
 20
277.610666041
  0
VERTEX
  8
0
 62
7
  6
CONTINUOUS
 10
509.1243859732
 20
277.6039243299
  0
VERTEX
  8
0
 62
7
  6
CONTINUOUS
 10
509.1327601029
 20
277.5973183125
  0
VERTEX
  8
0
 62
7
  6
CONTINUOUS
 10
509.1411449994
 20
277.5908471874
  0
VERTEX
  8
0
 62
7
  6
CONTINUOUS
 10
509.1495378709
 20
277.5845101094
  0
VERTEX
  8
0
 62
7
  6
CONTINUOUS
 10
509.1579359537
 20
277.5783061904
  0
VERTEX
  8
0
 62
7
  6
CONTINUOUS
 10
509.1663365248
 20
277.572234492
  0
VERTEX
  8
0
 62
7
  6
CONTINUOUS
 10
509.1747371525
 20
277.5662938528
  0
VERTEX
  8
0
 62
7
  6
CONTINUOUS
 10
509.1831356295
 20
277.5604829545
  0
VERTEX
  8
0
 62
7
  6
CONTINUOUS
 10
509.1915297922
 20
277.5548004591
  0
VERTEX
  8
0
 62
7
  6
CONTINUOUS
 10
509.199917517
 20
277.5492450107
  0
VERTEX
  8
0
 62
7
  6
CONTINUOUS
 10
509.2082967209
 20
277.5438152374
  0
VERTEX
  8
0
 62
7
  6
CONTINUOUS
 10
509.2166653604
 20
277.5385097511
  0
VERTEX
  8
0
 62
7
  6
CONTINUOUS
 10
509.2250214314
 20
277.5333271494
  0
VERTEX
  8
0
 62
7
  6
CONTINUOUS
 10
509.2333629691
 20
277.5282660157
  0
VERTEX
  8
0
 62
7
  6
CONTINUOUS
 10
509.241688047
 20
277.5233249204
  0
VERTEX
  8
0
 62
7
  6
CONTINUOUS
 10
509.2499947772
 20
277.5185024217
  0
VERTEX
  8
0
 62
7
  6
CONTINUOUS
 10
509.2582813094
 20
277.5137970663
  0
VERTEX
  8
0
 62
7
  6
CONTINUOUS
 10
509.2665458304
 20
277.5092073904
  0
VERTEX
  8
0
 62
7
  6
CONTINUOUS
 10
509.2747865641
 20
277.5047319205
  0
VERTEX
  8
0
 62
7
  6
CONTINUOUS
 10
509.2830017703
 20
277.5003691739
  0
VERTEX
  8
0
 62
7
  6
CONTINUOUS
 10
509.2911897458
 20
277.4961176593
  0
VERTEX
  8
0
 62
7
  6
CONTINUOUS
 10
509.2993488201
 20
277.4919758795
  0
VERTEX
  8
0
 62
7
  6
CONTINUOUS
 10
509.3074773589
 20
277.4879423298
  0
VERTEX
  8
0
 62
7
  6
CONTINUOUS
 10
509.3155737617
 20
277.4840154994
  0
VERTEX
  8
0
 62
7
  6
CONTINUOUS
 10
509.3236364614
 20
277.4801938724
  0
VERTEX
  8
0
 62
7
  6
CONTINUOUS
 10
509.3316639231
 20
277.4764759283
  0
VERTEX
  8
0
 62
7
  6
CONTINUOUS
 10
509.3396545078
 20
277.4728602039
  0
VERTEX
  8
0
 62
7
  6
CONTINUOUS
 10
509.3476062356
 20
277.4693453893
  0
VERTEX
  8
0
 62
7
  6
CONTINUOUS
 10
509.355517083
 20
277.4659301832
  0
VERTEX
  8
0
 62
7
  6
CONTINUOUS
 10
509.3633850436
 20
277.4626132647
  0
VERTEX
  8
0
 62
7
  6
CONTINUOUS
 10
509.3712081275
 20
277.4593932943
  0
VERTEX
  8
0
 62
7
  6
CONTINUOUS
 10
509.3789843613
 20
277.4562689143
  0
VERTEX
  8
0
 62
7
  6
CONTINUOUS
 10
509.3867117883
 20
277.4532387494
  0
VERTEX
  8
0
 62
7
  6
CONTINUOUS
 10
509.3943884683
 20
277.4503014077
  0
VERTEX
  8
0
 62
7
  6
CONTINUOUS
 10
509.402012477
 20
277.4474554817
  0
VERTEX
  8
0
 62
7
  6
CONTINUOUS
 10
509.4095819061
 20
277.4446995479
  0
VERTEX
  8
0
 62
7
  6
CONTINUOUS
 10
509.4170948622
 20
277.4420321687
  0
VERTEX
  8
0
 62
7
  6
CONTINUOUS
 10
509.4245494595
 20
277.4394518944
  0
VERTEX
  8
0
 62
7
  6
CONTINUOUS
 10
509.4319436899
 20
277.4369573076
  0
VERTEX
  8
0
 62
7
  6
CONTINUOUS
 10
509.4392758161
 20
277.4345468897
  0
VERTEX
  8
0
 62
7
  6
CONTINUOUS
 10
509.4465442176
 20
277.4322190816
  0
VERTEX
  8
0
 62
7
  6
CONTINUOUS
 10
509.4537472796
 20
277.4299723224
  0
VERTEX
  8
0
 62
7
  6
CONTINUOUS
 10
509.4608833821
 20
277.4278050536
  0
VERTEX
  8
0
 62
7
  6
CONTINUOUS
 10
509.4679509046
 20
277.4257157166
  0
VERTEX
  8
0
 62
7
  6
CONTINUOUS
 10
509.4749482265
 20
277.4237027525
  0
VERTEX
  8
0
 62
7
  6
CONTINUOUS
 10
509.481873725
 20
277.4217646017
  0
VERTEX
  8
0
 62
7
  6
CONTINUOUS
 10
509.4887257747
 20
277.4198997047
  0
VERTEX
  8
0
 62
7
  6
CONTINUOUS
 10
509.4955027487
 20
277.4181065014
  0
VERTEX
  8
0
 62
7
  6
CONTINUOUS
 10
509.5022030106
 20
277.4163834341
  0
VERTEX
  8
0
 62
7
  6
CONTINUOUS
 10
509.5088249176
 20
277.4147289467
  0
VERTEX
  8
0
 62
7
  6
CONTINUOUS
 10
509.5153668222
 20
277.4131414828
  0
VERTEX
  8
0
 62
7
  6
CONTINUOUS
 10
509.5218268807
 20
277.4116195308
  0
VERTEX
  8
0
 62
7
  6
CONTINUOUS
 10
509.5281977894
 20
277.4101628019
  0
VERTEX
  8
0
 62
7
  6
CONTINUOUS
 10
509.5344659872
 20
277.4087722233
  0
VERTEX
  8
0
 62
7
  6
CONTINUOUS
 10
509.5406174884
 20
277.407448503
  0
VERTEX
  8
0
 62
7
  6
CONTINUOUS
 10
509.546638217
 20
277.4061920636
  0
VERTEX
  8
0
 62
7
  6
CONTINUOUS
 10
509.5525140179
 20
277.405003057
  0
VERTEX
  8
0
 62
7
  6
CONTINUOUS
 10
509.5582363659
 20
277.4038802833
  0
VERTEX
  8
0
 62
7
  6
CONTINUOUS
 10
509.5638141052
 20
277.4028191801
  0
VERTEX
  8
0
 62
7
  6
CONTINUOUS
 10
509.569259419
 20
277.4018148756
  0
VERTEX
  8
0
 62
7
  6
CONTINUOUS
 10
509.5745845362
 20
277.4008628464
  0
VERTEX
  8
0
 62
7
  6
CONTINUOUS
 10
509.5798017354
 20
277.3999589002
  0
VERTEX
  8
0
 62
7
  6
CONTINUOUS
 10
509.5849233287
 20
277.399099159
  0
VERTEX
  8
0
 62
7
  6
CONTINUOUS
 10
509.5899595341
 20
277.3982803837
  0
VERTEX
  8
0
 62
7
  6
CONTINUOUS
 10
509.594908344
 20
277.3975014794
  0
VERTEX
  8
0
 62
7
  6
CONTINUOUS
 10
509.599763348
 20
277.3967619997
  0
VERTEX
  8
0
 62
7
  6
CONTINUOUS
 10
509.6045181612
 20
277.3960614002
  0
VERTEX
  8
0
 62
7
  6
CONTINUOUS
 10
509.6091664404
 20
277.3953990449
  0
VERTEX
  8
0
 62
7
  6
CONTINUOUS
 10
509.6137018738
 20
277.394774211
  0
VERTEX
  8
0
 62
7
  6
CONTINUOUS
 10
509.6181182022
 20
277.394186101
  0
VERTEX
  8
0
 62
7
  6
CONTINUOUS
 10
509.626572747
 20
277.3931160176
  0
SEQEND
  0
LINE
  8
0
 62
7
  6
CONTINUOUS
 10
508.7479117205
 20
262.1942747741
 11
508.7479117205
 21
294.3942753385
  0
LINE
  8
0
 62
7
  6
CONTINUOUS
 10
514.0729117205
 20
261.2442753385
 11
514.0729117205
 21
273.1442753385
  0
LINE
  8
0
 62
7
  6
CONTINUOUS
 10
515.3229117205
 20
293.3442753385
 11
515.3229117205
 21
289.2442753385
  0
LINE
  8
0
 62
7
  6
CONTINUOUS
 10
518.0729117205
 20
277.1442753385
 11
518.4729117205
 21
277.1442753385
  0
LINE
  8
0
 62
7
  6
CONTINUOUS
 10
509.6639625927
 20
277.389264365
 11
509.7130122238
 21
277.3869451205
  0
LINE
  8
0
 62
7
  6
CONTINUOUS
 10
509.6577839964
 20
277.3897960987
 11
509.6639746248
 21
277.389263377
  0
LINE
  8
0
 62
7
  6
CONTINUOUS
 10
509.6515566785
 20
277.3903803774
 11
509.6577839964
 21
277.3897960987
  0
LINE
  8
0
 62
7
  6
CONTINUOUS
 10
509.6451286573
 20
277.3910232592
 11
509.6515566785
 21
277.3903803774
  0
LINE
  8
0
 62
7
  6
CONTINUOUS
 10
509.6382547874
 20
277.3917576734
 11
509.6451286573
 21
277.3910232592
  0
POLYLINE
  8
0
 62
7
  6
CONTINUOUS
 66
1
 70
0
  0
VERTEX
  8
0
 62
7
  6
CONTINUOUS
 10
509.626572747
 20
277.3931160176
  0
VERTEX
  8
0
 62
7
  6
CONTINUOUS
 10
509.6306064666
 20
277.3926312343
  0
VERTEX
  8
0
 62
7
  6
CONTINUOUS
 10
509.6382547874
 20
277.3917576734
  0
SEQEND
  0
LINE
  8
DEFAULT_1
 62
7
  6
CENTER
 10
518.2729117205
 20
306.7692753385
 11
518.2729117205
 21
301.3443753385
  0
LINE
  8
0
 62
2
  6
CONTINUOUS
 10
518.2729117205
 20
300.8292753385
 11
518.2729117205
 21
297.8592753385
  0
LINE
  8
0
 62
7
  6
CONTINUOUS
 10
518.2729117205
 20
277.3213184631
 11
518.2729117205
 21
277.1442753385
  0
LINE
  8
0
 62
7
  6
CONTINUOUS
 10
518.2729117205
 20
257.2442753385
 11
518.2729117205
 21
255.938020663
  0
LINE
  8
DEFAULT_1
 62
7
  6
CENTER
 10
518.2729117205
 20
291.9192753385
 11
518.2729117205
 21
297.3441753385
  0
LINE
  8
DEFAULT_1
 62
7
  6
CENTER
 10
518.4729117205
 20
268.6692753385
 11
518.4729117205
 21
263.2443753385
  0
LINE
  8
0
 62
2
  6
CONTINUOUS
 10
518.4729117205
 20
262.7292753385
 11
518.4729117205
 21
259.7592753385
  0
LINE
  8
DEFAULT_1
 62
7
  6
CENTER
 10
518.4729117205
 20
253.8192753385
 11
518.4729117205
 21
259.2441753385
  0
LINE
  8
0
 62
7
  6
CONTINUOUS
 10
509.7479113952
 20
279.2942753385
 11
522.4562238451
 21
279.2942753385
  0
LINE
  8
DEFAULT_1
 62
7
  6
CENTER
 10
506.7478994655
 20
280.2942753385
 11
529.7979119277
 21
280.2942753385
  0
LINE
  8
0
 62
7
  6
CONTINUOUS
 10
521.2229117205
 20
289.2442753385
 11
521.2229117205
 21
293.3442753385
  0
LINE
  8
0
 62
7
  6
CONTINUOUS
 10
522.4729117205
 20
261.2442753385
 11
522.4729117205
 21
273.1442753385
  0
LINE
  8
0
 62
7
  6
CONTINUOUS
 10
525.2479117205
 20
298.3864551942
 11
525.2479117205
 21
291.5942748478
  0
LINE
  8
0
 62
7
  6
CONTINUOUS
 10
525.7979117205
 20
274.7942750748
 11
525.7979117205
 21
264.9111192827
  0
LINE
  8
0
 62
7
  6
CONTINUOUS
 10
527.7979117205
 20
294.3942753385
 11
527.7979117205
 21
262.1942753385
  0
LINE
  8
SURFACE
 62
7
  6
CONTINUOUS
 10
527.7979117205
 20
267.293375421
 11
527.7979123267
 21
267.2943830293
  0
LINE
  8
0
 62
7
  6
CONTINUOUS
 10
527.7978679323
 20
267.2849172186
 11
527.7979117205
 21
267.2942753407
  0
LINE
  8
0
 62
7
  6
CONTINUOUS
 10
527.7978270268
 20
267.2812594123
 11
527.797876804
 21
267.2859188013
  0
LINE
  8
0
 62
7
  6
CONTINUOUS
 10
527.7976894752
 20
267.2731914927
 11
527.7978270268
 21
267.2812594123
  0
LINE
  8
0
 62
7
  6
CONTINUOUS
 10
527.7975507339
 20
267.2674058697
 11
527.7977513254
 21
267.2763457611
  0
LINE
  8
0
 62
7
  6
CONTINUOUS
 10
527.7973606539
 20
267.2610790099
 11
527.7976562779
 21
267.2716507214
  0
LINE
  8
0
 62
7
  6
CONTINUOUS
 10
527.7971169517
 20
267.2544116233
 11
527.797496516
 21
267.2654352915
  0
LINE
  8
0
 62
7
  6
CONTINUOUS
 10
527.7968161535
 20
267.247475891
 11
527.7972450685
 21
267.2577385736
  0
LINE
  8
0
 62
7
  6
CONTINUOUS
 10
527.7962915215
 20
267.2373427297
 11
527.7968677376
 21
267.2485629964
  0
LINE
  8
0
 62
7
  6
CONTINUOUS
 10
527.7960372477
 20
267.2330725744
 11
527.7964563685
 21
267.240341248
  0
LINE
  8
0
 62
7
  6
CONTINUOUS
 10
527.7950141775
 20
267.2182021518
 11
527.7955572513
 21
267.2256911736
  0
POLYLINE
  8
0
 62
7
  6
CONTINUOUS
 66
1
 70
0
  0
VERTEX
  8
0
 62
7
  6
CONTINUOUS
 10
527.7937443563
 20
267.2030431195
  0
VERTEX
  8
0
 62
7
  6
CONTINUOUS
 10
527.7953693765
 20
267.2229816359
  0
VERTEX
  8
0
 62
7
  6
CONTINUOUS
 10
527.7962915215
 20
267.2373427297
  0
SEQEND
  0
POLYLINE
  8
0
 62
7
  6
CONTINUOUS
 66
1
 70
0
  0
VERTEX
  8
0
 62
7
  6
CONTINUOUS
 10
527.7869754371
 20
267.1467835382
  0
VERTEX
  8
0
 62
7
  6
CONTINUOUS
 10
527.7881679717
 20
267.1550152358
  0
VERTEX
  8
0
 62
7
  6
CONTINUOUS
 10
527.7892825117
 20
267.1631848126
  0
VERTEX
  8
0
 62
7
  6
CONTINUOUS
 10
527.7903202152
 20
267.1712871128
  0
VERTEX
  8
0
 62
7
  6
CONTINUOUS
 10
527.7912823746
 20
267.1793169981
  0
VERTEX
  8
0
 62
7
  6
CONTINUOUS
 10
527.792170413
 20
267.1872693519
  0
VERTEX
  8
0
 62
7
  6
CONTINUOUS
 10
527.7929858807
 20
267.1951390841
  0
VERTEX
  8
0
 62
7
  6
CONTINUOUS
 10
527.7937304508
 20
267.2029211364
  0
VERTEX
  8
0
 62
7
  6
CONTINUOUS
 10
527.7944059148
 20
267.210610487
  0
SEQEND
  0
LINE
  8
0
 62
7
  6
CONTINUOUS
 10
527.6616149584
 20
266.0356088975
 11
525.1288135457
 21
256.5830653396
  0
POLYLINE
  8
0
 62
7
  6
CONTINUOUS
 66
1
 70
0
  0
VERTEX
  8
0
 62
7
  6
CONTINUOUS
 10
527.7563445386
 20
267.0089542489
  0
VERTEX
  8
0
 62
7
  6
CONTINUOUS
 10
527.7589438071
 20
267.0178356943
  0
VERTEX
  8
0
 62
7
  6
CONTINUOUS
 10
527.7614465308
 20
267.0266895114
  0
VERTEX
  8
0
 62
7
  6
CONTINUOUS
 10
527.7638537435
 20
267.0355139228
  0
VERTEX
  8
0
 62
7
  6
CONTINUOUS
 10
527.766166508
 20
267.0443071711
  0
VERTEX
  8
0
 62
7
  6
CONTINUOUS
 10
527.7683859149
 20
267.0530675195
  0
VERTEX
  8
0
 62
7
  6
CONTINUOUS
 10
527.7705130823
 20
267.0617932524
  0
VERTEX
  8
0
 62
7
  6
CONTINUOUS
 10
527.7725491549
 20
267.0704826757
  0
VERTEX
  8
0
 62
7
  6
CONTINUOUS
 10
527.7744953031
 20
267.0791341168
  0
VERTEX
  8
0
 62
7
  6
CONTINUOUS
 10
527.7763527228
 20
267.0877459253
  0
VERTEX
  8
0
 62
7
  6
CONTINUOUS
 10
527.7781226341
 20
267.0963164732
  0
VERTEX
  8
0
 62
7
  6
CONTINUOUS
 10
527.779806281
 20
267.1048441549
  0
VERTEX
  8
0
 62
7
  6
CONTINUOUS
 10
527.7814049304
 20
267.1133273877
  0
VERTEX
  8
0
 62
7
  6
CONTINUOUS
 10
527.7829198714
 20
267.1217646119
  0
VERTEX
  8
0
 62
7
  6
CONTINUOUS
 10
527.7843524145
 20
267.1301542907
  0
VERTEX
  8
0
 62
7
  6
CONTINUOUS
 10
527.7857038879
 20
267.1384948904
  0
VERTEX
  8
0
 62
7
  6
CONTINUOUS
 10
527.7869754371
 20
267.1467835382
  0
SEQEND
  0
LINE
  8
0
 62
7
  6
CONTINUOUS
 10
525.2911518382
 20
299.8996305817
 11
527.6616052417
 21
291.0529780427
  0
POLYLINE
  8
0
 62
7
  6
CONTINUOUS
 66
1
 70
0
  0
VERTEX
  8
0
 62
7
  6
CONTINUOUS
 10
527.7051624453
 20
266.8736825617
  0
VERTEX
  8
0
 62
7
  6
CONTINUOUS
 10
527.7093124683
 20
266.8827527937
  0
VERTEX
  8
0
 62
7
  6
CONTINUOUS
 10
527.7133543142
 20
266.8918241595
  0
VERTEX
  8
0
 62
7
  6
CONTINUOUS
 10
527.7172885117
 20
266.9008946391
  0
VERTEX
  8
0
 62
7
  6
CONTINUOUS
 10
527.7211156274
 20
266.9099622246
  0
VERTEX
  8
0
 62
7
  6
CONTINUOUS
 10
527.7248362647
 20
266.9190249204
  0
VERTEX
  8
0
 62
7
  6
CONTINUOUS
 10
527.7284510637
 20
266.9280807444
  0
VERTEX
  8
0
 62
7
  6
CONTINUOUS
 10
527.7319607005
 20
266.9371277284
  0
VERTEX
  8
0
 62
7
  6
CONTINUOUS
 10
527.7353658868
 20
266.9461639191
  0
VERTEX
  8
0
 62
7
  6
CONTINUOUS
 10
527.7386673691
 20
266.9551873779
  0
VERTEX
  8
0
 62
7
  6
CONTINUOUS
 10
527.7418659283
 20
266.9641961818
  0
VERTEX
  8
0
 62
7
  6
CONTINUOUS
 10
527.7449623789
 20
266.9731884243
  0
VERTEX
  8
0
 62
7
  6
CONTINUOUS
 10
527.7479575689
 20
266.9821622155
  0
VERTEX
  8
0
 62
7
  6
CONTINUOUS
 10
527.7508523786
 20
266.9911156831
  0
VERTEX
  8
0
 62
7
  6
CONTINUOUS
 10
527.7536477206
 20
267.0000469729
  0
VERTEX
  8
0
 62
7
  6
CONTINUOUS
 10
527.7563445386
 20
267.0089542489
  0
SEQEND
  0
POLYLINE
  8
0
 62
7
  6
CONTINUOUS
 66
1
 70
0
  0
VERTEX
  8
0
 62
7
  6
CONTINUOUS
 10
527.6355003338
 20
266.7479715222
  0
VERTEX
  8
0
 62
7
  6
CONTINUOUS
 10
527.6411983535
 20
266.7568088949
  0
VERTEX
  8
0
 62
7
  6
CONTINUOUS
 10
527.6467849605
 20
266.7656765084
  0
VERTEX
  8
0
 62
7
  6
CONTINUOUS
 10
527.6522601178
 20
266.7745722566
  0
VERTEX
  8
0
 62
7
  6
CONTINUOUS
 10
527.6576238306
 20
266.7834940345
  0
VERTEX
  8
0
 62
7
  6
CONTINUOUS
 10
527.6628761463
 20
266.7924397383
  0
VERTEX
  8
0
 62
7
  6
CONTINUOUS
 10
527.6680171541
 20
266.8014072672
  0
VERTEX
  8
0
 62
7
  6
CONTINUOUS
 10
527.6730469849
 20
266.8103945234
  0
VERTEX
  8
0
 62
7
  6
CONTINUOUS
 10
527.6779658109
 20
266.8193994133
  0
VERTEX
  8
0
 62
7
  6
CONTINUOUS
 10
527.6827738454
 20
266.8284198486
  0
VERTEX
  8
0
 62
7
  6
CONTINUOUS
 10
527.6874713425
 20
266.8374537466
  0
VERTEX
  8
0
 62
7
  6
CONTINUOUS
 10
527.6920585966
 20
266.8464990312
  0
VERTEX
  8
0
 62
7
  6
CONTINUOUS
 10
527.6965359424
 20
266.855553634
  0
VERTEX
  8
0
 62
7
  6
CONTINUOUS
 10
527.7009037541
 20
266.8646154946
  0
VERTEX
  8
0
 62
7
  6
CONTINUOUS
 10
527.7051624453
 20
266.8736825617
  0
SEQEND
  0
POLYLINE
  8
0
 62
7
  6
CONTINUOUS
 66
1
 70
0
  0
VERTEX
  8
0
 62
7
  6
CONTINUOUS
 10
527.5513822505
 20
266.6367915786
  0
VERTEX
  8
0
 62
7
  6
CONTINUOUS
 10
527.558505778
 20
266.6450454828
  0
VERTEX
  8
0
 62
7
  6
CONTINUOUS
 10
527.5655222762
 20
266.6533566609
  0
VERTEX
  8
0
 62
7
  6
CONTINUOUS
 10
527.5724311501
 20
266.6617230803
  0
VERTEX
  8
0
 62
7
  6
CONTINUOUS
 10
527.5792318472
 20
266.6701426969
  0
VERTEX
  8
0
 62
7
  6
CONTINUOUS
 10
527.5859238583
 20
266.6786134565
  0
VERTEX
  8
0
 62
7
  6
CONTINUOUS
 10
527.592506717
 20
266.6871332956
  0
VERTEX
  8
0
 62
7
  6
CONTINUOUS
 10
527.5989799999
 20
266.6957001421
  0
VERTEX
  8
0
 62
7
  6
CONTINUOUS
 10
527.605343327
 20
266.7043119166
  0
VERTEX
  8
0
 62
7
  6
CONTINUOUS
 10
527.6115963611
 20
266.7129665331
  0
VERTEX
  8
0
 62
7
  6
CONTINUOUS
 10
527.6177388083
 20
266.7216618999
  0
VERTEX
  8
0
 62
7
  6
CONTINUOUS
 10
527.6237704176
 20
266.7303959208
  0
VERTEX
  8
0
 62
7
  6
CONTINUOUS
 10
527.6296909811
 20
266.7391664959
  0
VERTEX
  8
0
 62
7
  6
CONTINUOUS
 10
527.6355003338
 20
266.7479715222
  0
SEQEND
  0
POLYLINE
  8
0
 62
7
  6
CONTINUOUS
 66
1
 70
0
  0
VERTEX
  8
0
 62
7
  6
CONTINUOUS
 10
527.5064321522
 20
266.5885830846
  0
VERTEX
  8
0
 62
7
  6
CONTINUOUS
 10
527.5141829805
 20
266.5964514064
  0
VERTEX
  8
0
 62
7
  6
CONTINUOUS
 10
527.52183124
 20
266.6043889096
  0
VERTEX
  8
0
 62
7
  6
CONTINUOUS
 10
527.5293760824
 20
266.6123936486
  0
VERTEX
  8
0
 62
7
  6
CONTINUOUS
 10
527.5368167012
 20
266.6204636612
  0
VERTEX
  8
0
 62
7
  6
CONTINUOUS
 10
527.5441523314
 20
266.6285969689
  0
VERTEX
  8
0
 62
7
  6
CONTINUOUS
 10
527.5513822505
 20
266.6367915786
  0
SEQEND
  0
LINE
  8
DEFAULT_1
 62
7
  6
CENTER
 10
525.6979117205
 20
299.3442753385
 11
520.2730117205
 21
299.3442753385
  0
LINE
  8
0
 62
2
  6
CONTINUOUS
 10
519.7579117205
 20
299.3442753385
 11
516.7879117205
 21
299.3442753385
  0
LINE
  8
DEFAULT_1
 62
7
  6
CENTER
 10
510.8479117205
 20
299.3442753385
 11
516.2728117205
 21
299.3442753385
  0
LINE
  8
0
 62
7
  6
CONTINUOUS
 10
524.2150839701
 20
254.9169351619
 11
524.2390835341
 21
254.9433678962
  0
LINE
  8
0
 62
7
  6
CONTINUOUS
 10
522.3501844478
 20
302.923023212
 11
522.3502655329
 21
302.9229856362
  0
LINE
  8
0
 62
7
  6
CONTINUOUS
 10
518.1479117205
 20
303.7942753385
 11
518.3979117205
 21
303.7942753385
  0
POLYLINE
  8
0
 62
7
  6
CONTINUOUS
 66
1
 70
0
  0
VERTEX
  8
0
 62
7
  6
CONTINUOUS
 10
521.7956250281
 20
253.4298275865
  0
VERTEX
  8
0
 62
7
  6
CONTINUOUS
 10
522.3392916612
 20
253.6606736395
  0
VERTEX
  8
0
 62
7
  6
CONTINUOUS
 10
522.8921078345
 20
253.939052055
  0
SEQEND
  0
ARC
  8
0
 62
7
  6
CONTINUOUS
 10
90.1575858254
 20
253.8942753385
 40
1.1
 50
232.94271873
 51
270.0
  0
ARC
  8
0
 62
7
  6
CONTINUOUS
 10
93.9531946873
 20
253.8942753385
 40
1.1
 50
270.0
 51
307.0566534036
  0
ARC
  8
0
 62
7
  6
CONTINUOUS
 10
94.5680404915
 20
253.7942753385
 40
1.0
 50
270.0
 51
302.9545473106
  0
ARC
  8
0
 62
7
  6
CONTINUOUS
 10
89.5427391445
 20
253.7942753385
 40
1.0
 50
237.0454526894
 51
270.0
  0
ARC
  8
0
 62
7
  6
CONTINUOUS
 10
78.055389818
 20
256.2942753385
 40
10.0
 50
44.4153050616
 51
90.000002034
  0
ARC
  8
0
 62
7
  6
CONTINUOUS
 10
95.055389818
 20
256.8715890193
 40
3.0
 50
320.2651204234
 51
359.9999981591
  0
ARC
  8
0
 62
7
  6
CONTINUOUS
 10
89.055389818
 20
256.8715890193
 40
3.0
 50
179.9999997428
 51
219.7344123437
  0
ARC
  8
0
 62
7
  6
CONTINUOUS
 10
115.5427391445
 20
253.7942753385
 40
1.0
 50
237.0454526894
 51
270.0
  0
ARC
  8
0
 62
7
  6
CONTINUOUS
 10
115.055389818
 20
256.8715890193
 40
3.0
 50
180.0
 51
219.7348079284
  0
ARC
  8
0
 62
7
  6
CONTINUOUS
 10
115.6722785675
 20
261.3461966294
 40
10.0
 50
302.9545473106
 51
320.2654567486
  0
ARC
  8
0
 62
7
  6
CONTINUOUS
 10
89.6722785675
 20
261.3461966294
 40
10.0
 50
302.9545473106
 51
320.2654554009
  0
ARC
  8
0
 62
7
  6
CONTINUOUS
 10
94.4385010685
 20
261.3461966294
 40
10.0
 50
219.7344015338
 51
237.0454526894
  0
ARC
  8
0
 62
7
  6
CONTINUOUS
 10
105.055389818
 20
261.35284691
 40
10.0
 50
55.150095421
 51
62.2417561891
  0
ARC
  8
0
 62
7
  6
CONTINUOUS
 10
105.055389818
 20
261.35284691
 40
10.0
 50
117.7582438109
 51
124.849904579
  0
ARC
  8
0
 62
7
  6
CONTINUOUS
 10
83.055389818
 20
261.1932548241
 40
3.0
 50
359.9999964876
 51
44.415296812
  0
ARC
  8
0
 62
7
  6
CONTINUOUS
 10
147.055389818
 20
256.8715890193
 40
3.0
 50
320.2656046576
 51
360.0
  0
ARC
  8
0
 62
7
  6
CONTINUOUS
 10
121.055389818
 20
256.8715890193
 40
3.0
 50
320.2651204234
 51
359.9999981591
  0
ARC
  8
0
 62
7
  6
CONTINUOUS
 10
141.055389818
 20
256.8715890193
 40
3.0
 50
180.0
 51
219.7348079284
  0
ARC
  8
0
 62
7
  6
CONTINUOUS
 10
141.5427391445
 20
253.7942753385
 40
1.0
 50
237.0454526894
 51
270.0
  0
ARC
  8
0
 62
7
  6
CONTINUOUS
 10
120.5680404915
 20
253.7942753385
 40
1.0
 50
270.0
 51
302.9545473106
  0
ARC
  8
0
 62
7
  6
CONTINUOUS
 10
146.5680404915
 20
253.7942753385
 40
1.0
 50
270.0
 51
302.9545473106
  0
ARC
  8
0
 62
7
  6
CONTINUOUS
 10
141.6722785675
 20
261.3461966294
 40
10.0
 50
302.9545473106
 51
320.2656006712
  0
ARC
  8
0
 62
7
  6
CONTINUOUS
 10
146.4385010685
 20
261.3461966294
 40
10.0
 50
219.7345231046
 51
237.0454526894
  0
ARC
  8
0
 62
7
  6
CONTINUOUS
 10
120.4385010685
 20
261.3461966294
 40
10.0
 50
219.7345231046
 51
237.0454526894
  0
ARC
  8
0
 62
7
  6
CONTINUOUS
 10
157.055389818
 20
261.35284691
 40
10.0
 50
55.150095421
 51
62.2417561891
  0
ARC
  8
0
 62
7
  6
CONTINUOUS
 10
157.055389818
 20
261.35284691
 40
10.0
 50
117.7582438109
 51
124.849904579
  0
ARC
  8
0
 62
7
  6
CONTINUOUS
 10
131.055389818
 20
261.35284691
 40
10.0
 50
55.150095421
 51
62.2417561891
  0
ARC
  8
0
 62
7
  6
CONTINUOUS
 10
131.055389818
 20
261.35284691
 40
10.0
 50
117.7582438109
 51
124.849904579
  0
ARC
  8
0
 62
7
  6
CONTINUOUS
 10
127.7951968751
 20
267.5472913544
 40
3.0
 50
65.9506016389
 51
117.7582438109
  0
ARC
  8
0
 62
7
  6
CONTINUOUS
 10
108.3155827609
 20
267.5472913544
 40
3.0
 50
62.2417561891
 51
114.0493983611
  0
ARC
  8
0
 62
7
  6
CONTINUOUS
 10
101.7951968751
 20
267.5472913544
 40
3.0
 50
65.9506016389
 51
117.7582438109
  0
ARC
  8
0
 62
7
  6
CONTINUOUS
 10
127.055389818
 20
267.0974095565
 40
3.0
 50
124.849904579
 51
180.0
  0
ARC
  8
0
 62
7
  6
CONTINUOUS
 10
109.055389818
 20
267.0974095565
 40
3.0
 50
0.0
 51
55.150095421
  0
ARC
  8
0
 62
7
  6
CONTINUOUS
 10
101.055389818
 20
267.0974095565
 40
3.0
 50
124.849904579
 51
180.0
  0
ARC
  8
0
 62
7
  6
CONTINUOUS
 10
105.055389818
 20
274.85284691
 40
5.0
 50
245.9506016389
 51
294.0493983611
  0
ARC
  8
0
 62
7
  6
CONTINUOUS
 10
160.3155827609
 20
267.5472913544
 40
3.0
 50
62.2417561891
 51
114.0493983611
  0
ARC
  8
0
 62
7
  6
CONTINUOUS
 10
153.7951968751
 20
267.5472913544
 40
3.0
 50
65.9506016389
 51
117.7582438109
  0
ARC
  8
0
 62
7
  6
CONTINUOUS
 10
134.3155827609
 20
267.5472913544
 40
3.0
 50
62.2417561891
 51
114.0493983611
  0
ARC
  8
0
 62
7
  6
CONTINUOUS
 10
161.055389818
 20
267.0974095565
 40
3.0
 50
0.0
 51
55.150095421
  0
ARC
  8
0
 62
7
  6
CONTINUOUS
 10
153.055389818
 20
267.0974095565
 40
3.0
 50
124.849904579
 51
180.0
  0
ARC
  8
0
 62
7
  6
CONTINUOUS
 10
135.055389818
 20
267.0974095565
 40
3.0
 50
0.0
 51
55.150095421
  0
ARC
  8
0
 62
7
  6
CONTINUOUS
 10
131.055389818
 20
274.85284691
 40
5.0
 50
245.9506016389
 51
294.0493983611
  0
ARC
  8
0
 62
7
  6
CONTINUOUS
 10
157.055389818
 20
274.85284691
 40
5.0
 50
245.9506016389
 51
294.0493983611
  0
ARC
  8
0
 62
7
  6
CONTINUOUS
 10
167.055389818
 20
256.8715890193
 40
3.0
 50
180.0
 51
219.734418259
  0
ARC
  8
0
 62
7
  6
CONTINUOUS
 10
173.055389818
 20
256.8715890193
 40
3.0
 50
320.2656046576
 51
360.0
  0
ARC
  8
0
 62
7
  6
CONTINUOUS
 10
193.055389818
 20
256.8715890193
 40
3.0
 50
180.0
 51
219.734418259
  0
ARC
  8
0
 62
7
  6
CONTINUOUS
 10
199.055389818
 20
256.8715890193
 40
3.0
 50
320.2656046694
 51
360.0
  0
ARC
  8
0
 62
7
  6
CONTINUOUS
 10
167.5427391445
 20
253.7942753385
 40
1.0
 50
237.0454526894
 51
270.0
  0
ARC
  8
0
 62
7
  6
CONTINUOUS
 10
193.5427391445
 20
253.7942753385
 40
1.0
 50
237.0454526894
 51
270.0
  0
ARC
  8
0
 62
7
  6
CONTINUOUS
 10
172.5680404915
 20
253.7942753385
 40
1.0
 50
270.0
 51
302.9545473106
  0
ARC
  8
0
 62
7
  6
CONTINUOUS
 10
198.5680404915
 20
253.7942753385
 40
1.0
 50
270.0
 51
302.9545473106
  0
ARC
  8
0
 62
7
  6
CONTINUOUS
 10
172.4385010685
 20
261.3461966294
 40
10.0
 50
219.7344062038
 51
237.0454526894
  0
ARC
  8
0
 62
7
  6
CONTINUOUS
 10
167.6722785675
 20
261.3461966294
 40
10.0
 50
302.9545473106
 51
320.2656006712
  0
ARC
  8
0
 62
7
  6
CONTINUOUS
 10
198.4385010685
 20
261.3461966294
 40
10.0
 50
219.7344062038
 51
237.0454526894
  0
ARC
  8
0
 62
7
  6
CONTINUOUS
 10
193.6722785675
 20
261.3461966294
 40
10.0
 50
302.9545473106
 51
320.2656006747
  0
ARC
  8
0
 62
7
  6
CONTINUOUS
 10
183.055389818
 20
261.35284691
 40
10.0
 50
55.150095421
 51
62.2417561891
  0
ARC
  8
0
 62
7
  6
CONTINUOUS
 10
183.055389818
 20
261.35284691
 40
10.0
 50
117.7582438109
 51
124.849904579
  0
ARC
  8
0
 62
7
  6
CONTINUOUS
 10
219.055389818
 20
256.8715890193
 40
3.0
 50
180.0
 51
219.7344104715
  0
ARC
  8
0
 62
7
  6
CONTINUOUS
 10
225.055389818
 20
256.8715890193
 40
3.0
 50
320.265593208
 51
360.0
  0
ARC
  8
0
 62
7
  6
CONTINUOUS
 10
245.055389818
 20
256.8715890193
 40
3.0
 50
180.0
 51
219.7344104593
  0
ARC
  8
0
 62
7
  6
CONTINUOUS
 10
219.5427391445
 20
253.7942753385
 40
1.0
 50
237.0454526894
 51
270.0
  0
ARC
  8
0
 62
7
  6
CONTINUOUS
 10
245.5427391445
 20
253.7942753385
 40
1.0
 50
237.0454526894
 51
270.0
  0
ARC
  8
0
 62
7
  6
CONTINUOUS
 10
224.5680404915
 20
253.7942753385
 40
1.0
 50
270.0
 51
302.9545473106
  0
ARC
  8
0
 62
7
  6
CONTINUOUS
 10
224.4385010685
 20
261.3461966294
 40
10.0
 50
219.7344038675
 51
237.0454526894
  0
ARC
  8
0
 62
7
  6
CONTINUOUS
 10
219.6722785675
 20
261.3461966294
 40
10.0
 50
302.9545473106
 51
320.2655972363
  0
ARC
  8
0
 62
7
  6
CONTINUOUS
 10
250.4385010685
 20
261.3461966294
 40
10.0
 50
219.7344038639
 51
237.0454526894
  0
ARC
  8
0
 62
7
  6
CONTINUOUS
 10
209.055389818
 20
261.35284691
 40
10.0
 50
55.150095421
 51
62.2417561891
  0
ARC
  8
0
 62
7
  6
CONTINUOUS
 10
209.055389818
 20
261.35284691
 40
10.0
 50
117.7582438109
 51
124.849904579
  0
ARC
  8
0
 62
7
  6
CONTINUOUS
 10
235.055389818
 20
261.35284691
 40
10.0
 50
55.150095421
 51
62.2417561891
  0
ARC
  8
0
 62
7
  6
CONTINUOUS
 10
235.055389818
 20
261.35284691
 40
10.0
 50
117.7582438109
 51
124.849904579
  0
ARC
  8
0
 62
7
  6
CONTINUOUS
 10
205.7951968751
 20
267.5472913544
 40
3.0
 50
65.9506016389
 51
117.7582438109
  0
ARC
  8
0
 62
7
  6
CONTINUOUS
 10
186.3155827609
 20
267.5472913544
 40
3.0
 50
62.2417561891
 51
114.0493983611
  0
ARC
  8
0
 62
7
  6
CONTINUOUS
 10
179.7951968751
 20
267.5472913544
 40
3.0
 50
65.9506016389
 51
117.7582438109
  0
ARC
  8
0
 62
7
  6
CONTINUOUS
 10
205.055389818
 20
267.0974095565
 40
3.0
 50
124.849904579
 51
180.0
  0
ARC
  8
0
 62
7
  6
CONTINUOUS
 10
187.055389818
 20
267.0974095565
 40
3.0
 50
0.0
 51
55.150095421
  0
ARC
  8
0
 62
7
  6
CONTINUOUS
 10
179.055389818
 20
267.0974095565
 40
3.0
 50
124.849904579
 51
180.0
  0
ARC
  8
0
 62
7
  6
CONTINUOUS
 10
183.055389818
 20
274.85284691
 40
5.0
 50
245.9506016389
 51
294.0493983611
  0
ARC
  8
0
 62
7
  6
CONTINUOUS
 10
238.3155827609
 20
267.5472913544
 40
3.0
 50
62.2417561891
 51
114.0493983611
  0
ARC
  8
0
 62
7
  6
CONTINUOUS
 10
231.7951968751
 20
267.5472913544
 40
3.0
 50
65.9506016389
 51
117.7582438109
  0
ARC
  8
0
 62
7
  6
CONTINUOUS
 10
212.3155827609
 20
267.5472913544
 40
3.0
 50
62.2417561891
 51
114.0493983611
  0
ARC
  8
0
 62
7
  6
CONTINUOUS
 10
239.055389818
 20
267.0974095565
 40
3.0
 50
0.0
 51
55.150095421
  0
ARC
  8
0
 62
7
  6
CONTINUOUS
 10
231.055389818
 20
267.0974095565
 40
3.0
 50
124.849904579
 51
180.0
  0
ARC
  8
0
 62
7
  6
CONTINUOUS
 10
213.055389818
 20
267.0974095565
 40
3.0
 50
0.0
 51
55.150095421
  0
ARC
  8
0
 62
7
  6
CONTINUOUS
 10
209.055389818
 20
274.85284691
 40
5.0
 50
245.9506016389
 51
294.0493983611
  0
ARC
  8
0
 62
7
  6
CONTINUOUS
 10
235.055389818
 20
274.85284691
 40
5.0
 50
245.9506016389
 51
294.0493983611
  0
ARC
  8
0
 62
7
  6
CONTINUOUS
 10
67.055389818
 20
283.586071406
 40
5.0
 50
163.0425737058
 51
180.0
  0
ARC
  8
0
 62
7
  6
CONTINUOUS
 10
60.6686621715
 20
284.7942760629
 40
1.4999997558
 50
349.2877065434
 51
90.0
  0
ARC
  8
0
 62
7
  6
CONTINUOUS
 10
45.055389818
 20
290.2942753385
 40
18.0
 50
343.0425737058
 51
16.9574262942
  0
ARC
  8
0
 62
7
  6
CONTINUOUS
 10
51.855389818
 20
288.7942753385
 40
2.5
 50
179.9999999436
 51
270.0
  0
ARC
  8
0
 62
7
  6
CONTINUOUS
 10
85.255389818
 20
287.6997187643
 40
0.2
 50
180.0
 51
271.5383975474
  0
ARC
  8
0
 62
7
  6
CONTINUOUS
 10
141.3868720204
 20
285.7942753385
 40
2.0
 50
90.0
 51
165.0
  0
ARC
  8
0
 62
7
  6
CONTINUOUS
 10
120.7239076155
 20
285.7942753385
 40
2.0
 50
15.0
 51
90.0
  0
ARC
  8
0
 62
7
  6
CONTINUOUS
 10
115.3868720204
 20
285.7942753385
 40
2.0
 50
90.0
 51
165.0
  0
ARC
  8
0
 62
7
  6
CONTINUOUS
 10
94.7348304836
 20
285.75351064
 40
2.0
 50
15.0
 51
91.5383975474
  0
ARC
  8
0
 62
7
  6
CONTINUOUS
 10
98.680389818
 20
286.3612012851
 40
1.9683995727
 50
195.0
 51
287.9170172437
  0
ARC
  8
0
 62
7
  6
CONTINUOUS
 10
124.680389818
 20
286.3612012851
 40
1.9683995727
 50
195.0
 51
287.9170172437
  0
ARC
  8
0
 62
7
  6
CONTINUOUS
 10
111.430389818
 20
286.3612012851
 40
1.9683995727
 50
252.0829827563
 51
345.0
  0
ARC
  8
0
 62
7
  6
CONTINUOUS
 10
137.430389818
 20
286.3612012851
 40
1.9683995727
 50
252.0829827563
 51
345.0
  0
ARC
  8
0
 62
7
  6
CONTINUOUS
 10
138.055389818
 20
288.2942753385
 40
4.0
 50
124.8499029211
 51
252.0829827563
  0
ARC
  8
0
 62
7
  6
CONTINUOUS
 10
112.055389818
 20
288.2942753385
 40
4.0
 50
124.850035426
 51
252.0829827563
  0
ARC
  8
0
 62
7
  6
CONTINUOUS
 10
124.055389818
 20
288.2942753385
 40
4.0
 50
287.9170172437
 51
55.149981658
  0
ARC
  8
0
 62
7
  6
CONTINUOUS
 10
98.055389818
 20
288.2942753385
 40
4.0
 50
287.9170172437
 51
55.149981658
  0
ARC
  8
0
 62
7
  6
CONTINUOUS
 10
51.855389818
 20
293.7942753385
 40
2.5
 50
90.0
 51
180.0000000564
  0
ARC
  8
0
 62
7
  6
CONTINUOUS
 10
67.055389818
 20
297.002479271
 40
5.0
 50
179.9999931515
 51
196.9574220025
  0
ARC
  8
0
 62
7
  6
CONTINUOUS
 10
60.555389818
 20
297.7942753385
 40
1.5
 50
270.0
 51
359.9999511307
  0
ARC
  8
0
 62
7
  6
CONTINUOUS
 10
75.1544279238
 20
294.3903687995
 40
10.0
 50
9.6494631176
 51
69.0299125367
  0
ARC
  8
0
 62
7
  6
CONTINUOUS
 10
82.055389818
 20
295.5637080238
 40
3.0
 50
0.0
 51
9.6494631176
  0
ARC
  8
0
 62
7
  6
CONTINUOUS
 10
85.8649029919
 20
296.8975033825
 40
1.0
 50
87.6
 51
193.1747223281
  0
ARC
  8
0
 62
7
  6
CONTINUOUS
 10
95.555389818
 20
297.992668558
 40
0.5
 50
180.0
 51
267.5999999994
  0
ARC
  8
0
 62
7
  6
CONTINUOUS
 10
78.3753524625
 20
302.7942753385
 40
1.0
 50
69.0299125367
 51
90.0
  0
ARC
  8
0
 62
7
  6
CONTINUOUS
 10
63.055389818
 20
302.7942753385
 40
1.0
 50
90.0
 51
180.0
  0
ARC
  8
0
 62
7
  6
CONTINUOUS
 10
95.555389818
 20
302.8442753385
 40
0.5
 50
90.0
 51
180.0000000469
  0
ARC
  8
0
 62
7
  6
CONTINUOUS
 10
88.3146962217
 20
302.3442747541
 40
0.5
 50
3.0000670593
 51
90.0131370675
  0
ARC
  8
0
 62
7
  6
CONTINUOUS
 10
88.5273168181
 20
298.2872320916
 40
0.5
 50
267.6000000045
 51
2.9999999519
  0
ARC
  8
0
 62
7
  6
CONTINUOUS
 10
108.055389818
 20
294.0388379851
 40
3.0
 50
304.8497301164
 51
0.0004568857
  0
ARC
  8
0
 62
7
  6
CONTINUOUS
 10
102.055389818
 20
294.0388379851
 40
3.0
 50
180.0
 51
235.1502471049
  0
ARC
  8
0
 62
7
  6
CONTINUOUS
 10
101.1844280742
 20
293.5474871522
 40
2.0
 50
209.4294066249
 51
210.4049833271
  0
ARC
  8
0
 62
7
  6
CONTINUOUS
 10
107.7361752925
 20
295.4300066567
 40
10.0
 50
125.0897993214
 51
144.2466658479
  0
ARC
  8
0
 62
7
  6
CONTINUOUS
 10
102.3746043435
 20
295.4300066567
 40
10.0
 50
35.7533337962
 51
54.9102006786
  0
ARC
  8
0
 62
7
  6
CONTINUOUS
 10
114.555389818
 20
297.1963326152
 40
0.5
 50
267.5999999994
 51
360.0
  0
ARC
  8
0
 62
7
  6
CONTINUOUS
 10
134.055389818
 20
294.0388379851
 40
3.0
 50
304.8499067896
 51
359.999997189
  0
ARC
  8
0
 62
7
  6
CONTINUOUS
 10
128.055389818
 20
294.0388379851
 40
3.0
 50
180.0
 51
235.1502471049
  0
ARC
  8
0
 62
7
  6
CONTINUOUS
 10
127.1844280742
 20
293.5474871522
 40
2.0
 50
209.429406625
 51
210.4050526601
  0
ARC
  8
0
 62
7
  6
CONTINUOUS
 10
128.3746043435
 20
295.4300066567
 40
10.0
 50
35.7532540856
 51
54.9102006786
  0
ARC
  8
0
 62
7
  6
CONTINUOUS
 10
133.7361752925
 20
295.4300066567
 40
10.0
 50
125.0897993214
 51
144.2466658479
  0
ARC
  8
0
 62
7
  6
CONTINUOUS
 10
121.555389818
 20
296.9029456889
 40
0.5
 50
180.0
 51
267.5999999994
  0
ARC
  8
0
 62
7
  6
CONTINUOUS
 10
140.555389818
 20
296.1066097462
 40
0.5
 50
267.5999999994
 51
360.0
  0
ARC
  8
0
 62
7
  6
CONTINUOUS
 10
108.055389818
 20
299.5200771197
 40
3.0
 50
0.0
 51
35.7535160322
  0
ARC
  8
0
 62
7
  6
CONTINUOUS
 10
102.055389818
 20
299.5200771197
 40
3.0
 50
144.2464827815
 51
180.0
  0
ARC
  8
0
 62
7
  6
CONTINUOUS
 10
107.5483405932
 20
302.7942753385
 40
1.0
 50
54.9102006786
 51
90.0
  0
ARC
  8
0
 62
7
  6
CONTINUOUS
 10
102.5624390428
 20
302.7942753385
 40
1.0
 50
90.0
 51
125.0897993214
  0
ARC
  8
0
 62
7
  6
CONTINUOUS
 10
114.555389818
 20
302.8442753385
 40
0.5
 50
0.0
 51
90.0
  0
ARC
  8
0
 62
7
  6
CONTINUOUS
 10
134.055389818
 20
299.5200771197
 40
3.0
 50
0.0
 51
35.7532503299
  0
ARC
  8
0
 62
7
  6
CONTINUOUS
 10
128.055389818
 20
299.5200771197
 40
3.0
 50
144.2464827815
 51
180.0
  0
ARC
  8
0
 62
7
  6
CONTINUOUS
 10
128.5624390428
 20
302.7942753385
 40
1.0
 50
90.0
 51
125.0897993214
  0
ARC
  8
0
 62
7
  6
CONTINUOUS
 10
133.5483405932
 20
302.7942753385
 40
1.0
 50
54.9102006786
 51
90.0
  0
ARC
  8
0
 62
7
  6
CONTINUOUS
 10
121.555389818
 20
302.8442753385
 40
0.5
 50
90.0
 51
180.0000000469
  0
ARC
  8
0
 62
7
  6
CONTINUOUS
 10
140.555389818
 20
302.8442753385
 40
0.5
 50
0.0
 51
90.0
  0
ARC
  8
0
 62
7
  6
CONTINUOUS
 10
150.055389818
 20
288.2942753385
 40
4.0
 50
287.9170172437
 51
55.1500959347
  0
ARC
  8
0
 62
7
  6
CONTINUOUS
 10
164.055389818
 20
288.2942753385
 40
4.0
 50
124.8499026459
 51
252.0829827563
  0
ARC
  8
0
 62
7
  6
CONTINUOUS
 10
176.055389818
 20
288.2942753385
 40
4.0
 50
287.9170172437
 51
55.1500959235
  0
ARC
  8
0
 62
7
  6
CONTINUOUS
 10
190.055389818
 20
288.2942753385
 40
4.0
 50
124.8499028102
 51
252.0829827563
  0
ARC
  8
0
 62
7
  6
CONTINUOUS
 10
202.055389818
 20
288.2942753385
 40
4.0
 50
287.9170172437
 51
55.150095421
  0
ARC
  8
0
 62
7
  6
CONTINUOUS
 10
216.055389818
 20
288.2942753385
 40
4.0
 50
124.849904579
 51
252.0829827563
  0
ARC
  8
0
 62
7
  6
CONTINUOUS
 10
228.055389818
 20
288.2942753385
 40
4.0
 50
287.9170172437
 51
55.150095421
  0
ARC
  8
0
 62
7
  6
CONTINUOUS
 10
242.055389818
 20
288.2942753385
 40
4.0
 50
124.849904579
 51
252.0829827563
  0
ARC
  8
0
 62
7
  6
CONTINUOUS
 10
245.3868720204
 20
285.7942753385
 40
2.0
 50
90.0
 51
165.0
  0
ARC
  8
0
 62
7
  6
CONTINUOUS
 10
224.7239076155
 20
285.7942753385
 40
2.0
 50
15.0
 51
90.0
  0
ARC
  8
0
 62
7
  6
CONTINUOUS
 10
219.3868720204
 20
285.7942753385
 40
2.0
 50
90.0
 51
165.0
  0
ARC
  8
0
 62
7
  6
CONTINUOUS
 10
198.7239076155
 20
285.7942753385
 40
2.0
 50
15.0
 51
90.0
  0
ARC
  8
0
 62
7
  6
CONTINUOUS
 10
193.3868720204
 20
285.7942753385
 40
2.0
 50
90.0
 51
165.0
  0
ARC
  8
0
 62
7
  6
CONTINUOUS
 10
172.7239076155
 20
285.7942753385
 40
2.0
 50
15.0
 51
90.0
  0
ARC
  8
0
 62
7
  6
CONTINUOUS
 10
167.3868720204
 20
285.7942753385
 40
2.0
 50
90.0
 51
165.0
  0
ARC
  8
0
 62
7
  6
CONTINUOUS
 10
146.7239076155
 20
285.7942753385
 40
2.0
 50
15.0
 51
90.0
  0
ARC
  8
0
 62
7
  6
CONTINUOUS
 10
150.680389818
 20
286.3612012851
 40
1.9683995727
 50
195.0
 51
287.9170172437
  0
ARC
  8
0
 62
7
  6
CONTINUOUS
 10
202.680389818
 20
286.3612012851
 40
1.9683995727
 50
195.0
 51
287.9170172437
  0
ARC
  8
0
 62
7
  6
CONTINUOUS
 10
189.430389818
 20
286.3612012851
 40
1.9683995727
 50
252.0829827563
 51
345.0
  0
ARC
  8
0
 62
7
  6
CONTINUOUS
 10
176.680389818
 20
286.3612012851
 40
1.9683995727
 50
195.0
 51
287.9170172437
  0
ARC
  8
0
 62
7
  6
CONTINUOUS
 10
163.430389818
 20
286.3612012851
 40
1.9683995727
 50
252.0829827563
 51
345.0
  0
ARC
  8
0
 62
7
  6
CONTINUOUS
 10
228.680389818
 20
286.3612012851
 40
1.9683995727
 50
195.0
 51
287.9170172437
  0
ARC
  8
0
 62
7
  6
CONTINUOUS
 10
215.430389818
 20
286.3612012851
 40
1.9683995727
 50
252.0829827563
 51
345.0
  0
ARC
  8
0
 62
7
  6
CONTINUOUS
 10
241.430389818
 20
286.3612012851
 40
1.9683995727
 50
252.0829827563
 51
345.0
  0
ARC
  8
0
 62
7
  6
CONTINUOUS
 10
154.055389818
 20
294.0388379851
 40
3.0
 50
180.0000028321
 51
235.1500947359
  0
ARC
  8
0
 62
7
  6
CONTINUOUS
 10
160.055389818
 20
294.0388379851
 40
3.0
 50
304.8499071566
 51
359.9999971949
  0
ARC
  8
0
 62
7
  6
CONTINUOUS
 10
150.055389818
 20
294.3442753385
 40
1.0
 50
0.0000006594
 51
90.0
  0
ARC
  8
0
 62
7
  6
CONTINUOUS
 10
164.055389818
 20
294.3442753385
 40
1.0
 50
90.0
 51
179.9999993406
  0
ARC
  8
0
 62
7
  6
CONTINUOUS
 10
159.7361752925
 20
295.4300066567
 40
10.0
 50
125.0897993214
 51
144.2467483339
  0
ARC
  8
0
 62
7
  6
CONTINUOUS
 10
154.3746043435
 20
295.4300066567
 40
10.0
 50
35.7532543897
 51
54.9102006786
  0
ARC
  8
0
 62
7
  6
CONTINUOUS
 10
147.555389818
 20
295.8442753385
 40
0.5
 50
179.9999999532
 51
270.0
  0
ARC
  8
0
 62
7
  6
CONTINUOUS
 10
166.555389818
 20
295.8442753385
 40
0.5
 50
270.0
 51
360.0
  0
ARC
  8
0
 62
7
  6
CONTINUOUS
 10
180.055389818
 20
294.0388379851
 40
3.0
 50
180.0000028381
 51
235.1500947508
  0
ARC
  8
0
 62
7
  6
CONTINUOUS
 10
186.055389818
 20
294.0388379851
 40
3.0
 50
304.8499069375
 51
359.9999971891
  0
ARC
  8
0
 62
7
  6
CONTINUOUS
 10
176.055389818
 20
294.3442753385
 40
1.0
 50
0.0000006594
 51
90.0
  0
ARC
  8
0
 62
7
  6
CONTINUOUS
 10
190.055389818
 20
294.3442753385
 40
1.0
 50
90.0
 51
179.9999993406
  0
ARC
  8
0
 62
7
  6
CONTINUOUS
 10
185.7361752925
 20
295.4300066567
 40
10.0
 50
125.0897993214
 51
144.2467483428
  0
ARC
  8
0
 62
7
  6
CONTINUOUS
 10
180.3746043435
 20
295.4300066567
 40
10.0
 50
35.7532539068
 51
54.9102006786
  0
ARC
  8
0
 62
7
  6
CONTINUOUS
 10
173.555389818
 20
295.8442753385
 40
0.5
 50
179.9999999532
 51
270.0
  0
ARC
  8
0
 62
7
  6
CONTINUOUS
 10
192.555389818
 20
295.8442753385
 40
0.5
 50
270.0
 51
360.0
  0
ARC
  8
0
 62
7
  6
CONTINUOUS
 10
154.055389818
 20
299.5200771197
 40
3.0
 50
144.2467577348
 51
180.0
  0
ARC
  8
0
 62
7
  6
CONTINUOUS
 10
180.055389818
 20
299.5200771197
 40
3.0
 50
144.2467577647
 51
180.0
  0
ARC
  8
0
 62
7
  6
CONTINUOUS
 10
160.055389818
 20
299.5200771197
 40
3.0
 50
0.0
 51
35.7532513439
  0
ARC
  8
0
 62
7
  6
CONTINUOUS
 10
186.055389818
 20
299.5200771197
 40
3.0
 50
0.0
 51
35.753249734
  0
ARC
  8
0
 62
7
  6
CONTINUOUS
 10
154.5624390428
 20
302.7942753385
 40
1.0
 50
90.0
 51
125.0897993214
  0
ARC
  8
0
 62
7
  6
CONTINUOUS
 10
180.5624390428
 20
302.7942753385
 40
1.0
 50
90.0
 51
125.0897993214
  0
ARC
  8
0
 62
7
  6
CONTINUOUS
 10
159.5483405932
 20
302.7942753385
 40
1.0
 50
54.9102006786
 51
90.0
  0
ARC
  8
0
 62
7
  6
CONTINUOUS
 10
185.5483405932
 20
302.7942753385
 40
1.0
 50
54.9102006786
 51
90.0
  0
ARC
  8
0
 62
7
  6
CONTINUOUS
 10
147.555389818
 20
302.8442753385
 40
0.5
 50
90.0
 51
180.0000000469
  0
ARC
  8
0
 62
7
  6
CONTINUOUS
 10
173.555389818
 20
302.8442753385
 40
0.5
 50
90.0
 51
180.0000000469
  0
ARC
  8
0
 62
7
  6
CONTINUOUS
 10
166.555389818
 20
302.8442753385
 40
0.5
 50
0.0
 51
90.0
  0
ARC
  8
0
 62
7
  6
CONTINUOUS
 10
192.555389818
 20
302.8442753385
 40
0.5
 50
0.0
 51
90.0
  0
ARC
  8
0
 62
7
  6
CONTINUOUS
 10
212.055389818
 20
294.0388379851
 40
3.0
 50
304.849904579
 51
360.0
  0
ARC
  8
0
 62
7
  6
CONTINUOUS
 10
206.055389818
 20
294.0388379851
 40
3.0
 50
180.0
 51
235.150095421
  0
ARC
  8
0
 62
7
  6
CONTINUOUS
 10
202.055389818
 20
294.3442753385
 40
1.0
 50
2.8613026469
 51
90.0
  0
ARC
  8
0
 62
7
  6
CONTINUOUS
 10
216.055389818
 20
294.3442753385
 40
1.0
 50
90.0
 51
177.1386973532
  0
ARC
  8
0
 62
7
  6
CONTINUOUS
 10
211.7361752925
 20
295.4300066567
 40
10.0
 50
125.0897993214
 51
144.2467413101
  0
ARC
  8
0
 62
7
  6
CONTINUOUS
 10
206.3746043435
 20
295.4300066567
 40
10.0
 50
35.7532575468
 51
54.9102006786
  0
ARC
  8
0
 62
7
  6
CONTINUOUS
 10
199.555389818
 20
295.8442753385
 40
0.5
 50
179.9999999532
 51
270.0
  0
ARC
  8
0
 62
7
  6
CONTINUOUS
 10
218.555389818
 20
295.8442753385
 40
0.5
 50
270.0
 51
360.0
  0
ARC
  8
0
 62
7
  6
CONTINUOUS
 10
232.055389818
 20
294.0388379851
 40
3.0
 50
180.0
 51
235.150095421
  0
ARC
  8
0
 62
7
  6
CONTINUOUS
 10
238.055389818
 20
294.0388379851
 40
3.0
 50
304.849904579
 51
325.5019439644
  0
ARC
  8
0
 62
7
  6
CONTINUOUS
 10
228.055389818
 20
294.3442753385
 40
1.0
 50
2.8613026469
 51
90.0
  0
ARC
  8
0
 62
7
  6
CONTINUOUS
 10
237.7361752925
 20
295.4300066567
 40
10.0
 50
125.0897993214
 51
144.2467495711
  0
ARC
  8
0
 62
7
  6
CONTINUOUS
 10
232.3746043435
 20
295.4300066567
 40
10.0
 50
35.7532494864
 51
54.9102006786
  0
ARC
  8
0
 62
7
  6
CONTINUOUS
 10
234.0718510501
 20
296.7764493354
 40
7.8335387679
 50
325.5019439644
 51
33.2931493206
  0
ARC
  8
0
 62
7
  6
CONTINUOUS
 10
225.555389818
 20
295.8442753385
 40
0.5
 50
179.9999999532
 51
270.0
  0
ARC
  8
0
 62
7
  6
CONTINUOUS
 10
244.555389818
 20
295.8442753385
 40
0.5
 50
270.0
 51
360.0
  0
ARC
  8
0
 62
7
  6
CONTINUOUS
 10
206.055389818
 20
299.5200771197
 40
3.0
 50
144.2467343222
 51
180.0
  0
ARC
  8
0
 62
7
  6
CONTINUOUS
 10
232.055389818
 20
299.5200771197
 40
3.0
 50
144.2467618588
 51
180.0
  0
ARC
  8
0
 62
7
  6
CONTINUOUS
 10
212.055389818
 20
299.5200771197
 40
3.0
 50
0.0
 51
35.7532618676
  0
ARC
  8
0
 62
7
  6
CONTINUOUS
 10
238.055389818
 20
299.5200771197
 40
3.0
 50
31.0792714359
 51
35.7532349993
  0
ARC
  8
0
 62
7
  6
CONTINUOUS
 10
206.5624390428
 20
302.7942753385
 40
1.0
 50
90.0
 51
125.0897993214
  0
ARC
  8
0
 62
7
  6
CONTINUOUS
 10
232.5624390428
 20
302.7942753385
 40
1.0
 50
90.0
 51
125.0897993214
  0
ARC
  8
0
 62
7
  6
CONTINUOUS
 10
211.5483405932
 20
302.7942753385
 40
1.0
 50
54.9102006786
 51
90.0
  0
ARC
  8
0
 62
7
  6
CONTINUOUS
 10
237.5483405932
 20
302.7942753385
 40
1.0
 50
54.9102006786
 51
90.0
  0
ARC
  8
0
 62
7
  6
CONTINUOUS
 10
199.555389818
 20
302.8442753385
 40
0.5
 50
90.0
 51
180.0000000468
  0
ARC
  8
0
 62
7
  6
CONTINUOUS
 10
225.555389818
 20
302.8442753385
 40
0.5
 50
90.0
 51
180.0000000468
  0
ARC
  8
0
 62
7
  6
CONTINUOUS
 10
218.555389818
 20
302.8442753385
 40
0.5
 50
0.0
 51
90.0
  0
ARC
  8
0
 62
7
  6
CONTINUOUS
 10
244.555389818
 20
302.8442753385
 40
0.5
 50
0.0
 51
90.0
  0
ARC
  8
SURFACE
 62
7
  6
CONTINUOUS
 10
260.055389818
 20
256.8715890193
 40
3.0
 50
320.2655895407
 51
360.0
  0
ARC
  8
SURFACE
 62
7
  6
CONTINUOUS
 10
280.055389818
 20
256.8715890193
 40
3.0
 50
180.0
 51
219.734406792
  0
ARC
  8
SURFACE
 62
7
  6
CONTINUOUS
 10
286.055389818
 20
256.8715890193
 40
3.0
 50
320.2655895285
 51
360.0
  0
ARC
  8
SURFACE
 62
7
  6
CONTINUOUS
 10
280.5427391445
 20
253.7942753385
 40
1.0
 50
237.0454526894
 51
270.0
  0
ARC
  8
SURFACE
 62
7
  6
CONTINUOUS
 10
259.5680404915
 20
253.7942753385
 40
1.0
 50
270.0
 51
302.9545473106
  0
ARC
  8
SURFACE
 62
7
  6
CONTINUOUS
 10
285.5680404957
 20
253.7942753399
 40
1.0000000001
 50
269.9999997582
 51
302.9545470662
  0
ARC
  8
SURFACE
 62
7
  6
CONTINUOUS
 10
270.055389818
 20
261.35284691
 40
10.0
 50
55.150095421
 51
62.2417561891
  0
ARC
  8
SURFACE
 62
7
  6
CONTINUOUS
 10
270.055389818
 20
261.35284691
 40
10.0
 50
117.7582438109
 51
124.849904579
  0
ARC
  8
SURFACE
 62
7
  6
CONTINUOUS
 10
254.6722785675
 20
261.3461966294
 40
10.0
 50
302.9545473106
 51
320.2655961361
  0
ARC
  8
SURFACE
 62
7
  6
CONTINUOUS
 10
285.4385010685
 20
261.3461966294
 40
10.0
 50
219.7344027637
 51
237.0454526894
  0
ARC
  8
SURFACE
 62
7
  6
CONTINUOUS
 10
296.055389818
 20
261.35284691
 40
10.0
 50
55.150095421
 51
62.2417561891
  0
ARC
  8
SURFACE
 62
7
  6
CONTINUOUS
 10
296.055389818
 20
261.35284691
 40
10.0
 50
117.7582438109
 51
124.849904579
  0
ARC
  8
SURFACE
 62
7
  6
CONTINUOUS
 10
280.6722785675
 20
261.3461966294
 40
10.0
 50
302.9545473106
 51
320.2655961325
  0
ARC
  8
SURFACE
 62
7
  6
CONTINUOUS
 10
306.055389818
 20
256.8715890193
 40
3.0
 50
180.0
 51
219.7343953306
  0
ARC
  8
SURFACE
 62
7
  6
CONTINUOUS
 10
312.055389818
 20
256.8715890193
 40
3.0
 50
320.265581741
 51
360.0
  0
ARC
  8
SURFACE
 62
7
  6
CONTINUOUS
 10
332.055389818
 20
256.8715890193
 40
3.0
 50
180.0
 51
219.7343953424
  0
ARC
  8
SURFACE
 62
7
  6
CONTINUOUS
 10
338.055389818
 20
256.8715890193
 40
3.0
 50
320.2655817411
 51
360.0
  0
ARC
  8
SURFACE
 62
7
  6
CONTINUOUS
 10
306.5427391445
 20
253.7942753385
 40
1.0
 50
237.0454526894
 51
270.0
  0
ARC
  8
SURFACE
 62
7
  6
CONTINUOUS
 10
332.5427391445
 20
253.7942753385
 40
1.0
 50
237.0454526894
 51
270.0
  0
ARC
  8
SURFACE
 62
7
  6
CONTINUOUS
 10
311.5680404958
 20
253.7942753399
 40
1.0000000001
 50
269.9999997549
 51
302.9545470628
  0
ARC
  8
SURFACE
 62
7
  6
CONTINUOUS
 10
337.5680404958
 20
253.7942753399
 40
1.0000000001
 50
269.9999997549
 51
302.9545470628
  0
ARC
  8
SURFACE
 62
7
  6
CONTINUOUS
 10
322.055389818
 20
261.35284691
 40
10.0
 50
55.150095421
 51
62.2417561891
  0
ARC
  8
SURFACE
 62
7
  6
CONTINUOUS
 10
322.055389818
 20
261.35284691
 40
10.0
 50
117.7582438109
 51
124.849904579
  0
ARC
  8
SURFACE
 62
7
  6
CONTINUOUS
 10
311.4385010685
 20
261.3461966294
 40
10.0
 50
219.7343993253
 51
237.0454526894
  0
ARC
  8
SURFACE
 62
7
  6
CONTINUOUS
 10
306.6722785675
 20
261.3461966294
 40
10.0
 50
302.9545473106
 51
320.2655937962
  0
ARC
  8
SURFACE
 62
7
  6
CONTINUOUS
 10
337.4385010685
 20
261.3461966294
 40
10.0
 50
219.7343993288
 51
237.0454526894
  0
ARC
  8
SURFACE
 62
7
  6
CONTINUOUS
 10
332.6722785675
 20
261.3461966294
 40
10.0
 50
302.9545473106
 51
320.2655937962
  0
ARC
  8
SURFACE
 62
7
  6
CONTINUOUS
 10
266.7951968751
 20
267.5472913544
 40
3.0
 50
65.9506016389
 51
117.7582438109
  0
ARC
  8
SURFACE
 62
7
  6
CONTINUOUS
 10
273.3155827609
 20
267.5472913544
 40
3.0
 50
62.2417561891
 51
114.0493983611
  0
ARC
  8
SURFACE
 62
7
  6
CONTINUOUS
 10
292.7951968751
 20
267.5472913544
 40
3.0
 50
65.9506016389
 51
117.7582438109
  0
ARC
  8
SURFACE
 62
7
  6
CONTINUOUS
 10
266.055389818
 20
267.0974095565
 40
3.0
 50
124.849904579
 51
180.0
  0
ARC
  8
SURFACE
 62
7
  6
CONTINUOUS
 10
274.055389818
 20
267.0974095565
 40
3.0
 50
0.0
 51
55.150095421
  0
ARC
  8
SURFACE
 62
7
  6
CONTINUOUS
 10
292.055389818
 20
267.0974095565
 40
3.0
 50
124.849904579
 51
180.0
  0
ARC
  8
SURFACE
 62
7
  6
CONTINUOUS
 10
270.055389818
 20
274.85284691
 40
5.0
 50
245.9506016389
 51
294.0493983611
  0
ARC
  8
SURFACE
 62
7
  6
CONTINUOUS
 10
299.3155827609
 20
267.5472913544
 40
3.0
 50
62.2417561891
 51
114.0493983611
  0
ARC
  8
SURFACE
 62
7
  6
CONTINUOUS
 10
318.7951968751
 20
267.5472913544
 40
3.0
 50
65.9506016389
 51
117.7582438109
  0
ARC
  8
SURFACE
 62
7
  6
CONTINUOUS
 10
325.3155827609
 20
267.5472913544
 40
3.0
 50
62.2417561891
 51
114.0493983611
  0
ARC
  8
SURFACE
 62
7
  6
CONTINUOUS
 10
300.055389818
 20
267.0974095565
 40
3.0
 50
0.0
 51
55.150095421
  0
ARC
  8
SURFACE
 62
7
  6
CONTINUOUS
 10
318.055389818
 20
267.0974095565
 40
3.0
 50
124.849904579
 51
180.0
  0
ARC
  8
SURFACE
 62
7
  6
CONTINUOUS
 10
326.055389818
 20
267.0974095565
 40
3.0
 50
0.0
 51
55.150095421
  0
ARC
  8
SURFACE
 62
7
  6
CONTINUOUS
 10
296.055389818
 20
274.85284691
 40
5.0
 50
245.9506016389
 51
294.0493983611
  0
ARC
  8
SURFACE
 62
7
  6
CONTINUOUS
 10
322.055389818
 20
274.85284691
 40
5.0
 50
245.9506016389
 51
294.0493983611
  0
ARC
  8
SURFACE
 62
7
  6
CONTINUOUS
 10
364.055389818
 20
256.8715890193
 40
3.0
 50
320.2651920716
 51
360.0
  0
ARC
  8
SURFACE
 62
7
  6
CONTINUOUS
 10
384.055389818
 20
256.8715890193
 40
3.0
 50
180.0000018409
 51
219.7348795766
  0
ARC
  8
SURFACE
 62
7
  6
CONTINUOUS
 10
358.055389818
 20
256.8715890193
 40
3.0
 50
180.0
 51
219.7343953424
  0
ARC
  8
SURFACE
 62
7
  6
CONTINUOUS
 10
384.5427391445
 20
253.7942753385
 40
1.0
 50
237.0454526894
 51
270.0
  0
ARC
  8
SURFACE
 62
7
  6
CONTINUOUS
 10
363.5680404915
 20
253.7942753385
 40
1.0
 50
270.0
 51
302.9545473106
  0
ARC
  8
SURFACE
 62
7
  6
CONTINUOUS
 10
358.5427391445
 20
253.7942753385
 40
1.0
 50
237.0454526894
 51
270.0
  0
ARC
  8
SURFACE
 62
7
  6
CONTINUOUS
 10
384.6722785675
 20
261.3461966294
 40
10.0
 50
302.9545473106
 51
320.2654768954
  0
ARC
  8
SURFACE
 62
7
  6
CONTINUOUS
 10
358.6722785675
 20
261.3461966294
 40
10.0
 50
302.9545473106
 51
320.2654768954
  0
ARC
  8
SURFACE
 62
7
  6
CONTINUOUS
 10
374.055389818
 20
261.35284691
 40
10.0
 50
55.150095421
 51
62.2417561891
  0
ARC
  8
SURFACE
 62
7
  6
CONTINUOUS
 10
374.055389818
 20
261.35284691
 40
10.0
 50
117.7582438109
 51
124.849904579
  0
ARC
  8
SURFACE
 62
7
  6
CONTINUOUS
 10
348.055389818
 20
261.35284691
 40
10.0
 50
55.150095421
 51
62.2417561891
  0
ARC
  8
SURFACE
 62
7
  6
CONTINUOUS
 10
348.055389818
 20
261.35284691
 40
10.0
 50
117.7582438109
 51
124.849904579
  0
ARC
  8
SURFACE
 62
7
  6
CONTINUOUS
 10
363.4385010685
 20
261.3461966294
 40
10.0
 50
219.7343993288
 51
237.0454526894
  0
ARC
  8
SURFACE
 62
7
  6
CONTINUOUS
 10
389.5680404915
 20
253.7942753385
 40
1.0
 50
270.0
 51
302.9545473106
  0
ARC
  8
SURFACE
 62
7
  6
CONTINUOUS
 10
390.055389818
 20
256.8715890193
 40
3.0
 50
320.2651920716
 51
360.0
  0
ARC
  8
SURFACE
 62
7
  6
CONTINUOUS
 10
411.1575849487
 20
253.8942753385
 40
1.1
 50
232.9441967282
 51
270.0
  0
ARC
  8
SURFACE
 62
7
  6
CONTINUOUS
 10
414.9531938106
 20
253.8942753385
 40
1.1
 50
270.0
 51
307.0564118729
  0
ARC
  8
SURFACE
 62
7
  6
CONTINUOUS
 10
415.5680404915
 20
253.7942753385
 40
1.0
 50
270.0
 51
302.9545473106
  0
ARC
  8
SURFACE
 62
7
  6
CONTINUOUS
 10
410.5427391445
 20
253.7942753385
 40
1.0
 50
237.0454526894
 51
270.0
  0
ARC
  8
SURFACE
 62
7
  6
CONTINUOUS
 10
427.055389818
 20
256.2942753385
 40
10.0
 50
89.999997966
 51
135.5846949384
  0
ARC
  8
SURFACE
 62
7
  6
CONTINUOUS
 10
416.055389818
 20
256.8715890193
 40
3.0
 50
320.2655876563
 51
0.0000002572
  0
ARC
  8
SURFACE
 62
7
  6
CONTINUOUS
 10
410.055389818
 20
256.8715890193
 40
3.0
 50
180.0000018409
 51
219.7348795766
  0
ARC
  8
SURFACE
 62
7
  6
CONTINUOUS
 10
400.055389818
 20
261.35284691
 40
10.0
 50
55.150095421
 51
62.2417561891
  0
ARC
  8
SURFACE
 62
7
  6
CONTINUOUS
 10
400.055389818
 20
261.35284691
 40
10.0
 50
117.7582438109
 51
124.849904579
  0
ARC
  8
SURFACE
 62
7
  6
CONTINUOUS
 10
410.6722785675
 20
261.3461966294
 40
10.0
 50
302.9545473106
 51
320.2655984662
  0
ARC
  8
SURFACE
 62
7
  6
CONTINUOUS
 10
415.4385010685
 20
261.3461966294
 40
10.0
 50
219.7345432514
 51
237.0454526894
  0
ARC
  8
SURFACE
 62
7
  6
CONTINUOUS
 10
389.4385010685
 20
261.3461966294
 40
10.0
 50
219.7345445991
 51
237.0454526894
  0
ARC
  8
SURFACE
 62
7
  6
CONTINUOUS
 10
422.055389818
 20
261.1932548241
 40
3.0
 50
135.584703188
 51
180.0000035124
  0
ARC
  8
SURFACE
 62
7
  6
CONTINUOUS
 10
344.7951968751
 20
267.5472913544
 40
3.0
 50
65.9506016389
 51
117.7582438109
  0
ARC
  8
SURFACE
 62
7
  6
CONTINUOUS
 10
351.3155827609
 20
267.5472913544
 40
3.0
 50
62.2417561891
 51
114.0493983611
  0
ARC
  8
SURFACE
 62
7
  6
CONTINUOUS
 10
370.7951968751
 20
267.5472913544
 40
3.0
 50
65.9506016389
 51
117.7582438109
  0
ARC
  8
SURFACE
 62
7
  6
CONTINUOUS
 10
344.055389818
 20
267.0974095565
 40
3.0
 50
124.849904579
 51
180.0
  0
ARC
  8
SURFACE
 62
7
  6
CONTINUOUS
 10
352.055389818
 20
267.0974095565
 40
3.0
 50
0.0
 51
55.150095421
  0
ARC
  8
SURFACE
 62
7
  6
CONTINUOUS
 10
370.055389818
 20
267.0974095565
 40
3.0
 50
124.849904579
 51
180.0
  0
ARC
  8
SURFACE
 62
7
  6
CONTINUOUS
 10
348.055389818
 20
274.85284691
 40
5.0
 50
245.9506016389
 51
294.0493983611
  0
ARC
  8
SURFACE
 62
7
  6
CONTINUOUS
 10
377.3155827609
 20
267.5472913544
 40
3.0
 50
62.2417561891
 51
114.0493983611
  0
ARC
  8
SURFACE
 62
7
  6
CONTINUOUS
 10
396.7951968751
 20
267.5472913544
 40
3.0
 50
65.9506016389
 51
117.7582438109
  0
ARC
  8
SURFACE
 62
7
  6
CONTINUOUS
 10
403.3155827609
 20
267.5472913544
 40
3.0
 50
62.2417561891
 51
114.0493983611
  0
ARC
  8
SURFACE
 62
7
  6
CONTINUOUS
 10
378.055389818
 20
267.0974095565
 40
3.0
 50
0.0
 51
55.150095421
  0
ARC
  8
SURFACE
 62
7
  6
CONTINUOUS
 10
396.055389818
 20
267.0974095565
 40
3.0
 50
124.849904579
 51
180.0
  0
ARC
  8
SURFACE
 62
7
  6
CONTINUOUS
 10
404.055389818
 20
267.0974095565
 40
3.0
 50
0.0
 51
55.150095421
  0
ARC
  8
SURFACE
 62
7
  6
CONTINUOUS
 10
374.055389818
 20
274.85284691
 40
5.0
 50
245.9506016389
 51
294.0493983611
  0
ARC
  8
SURFACE
 62
7
  6
CONTINUOUS
 10
400.055389818
 20
274.85284691
 40
5.0
 50
245.9506016389
 51
294.0493983611
  0
ARC
  8
SURFACE
 62
7
  6
CONTINUOUS
 10
259.7239076155
 20
285.7942753385
 40
2.0
 50
15.0
 51
90.0
  0
ARC
  8
SURFACE
 62
7
  6
CONTINUOUS
 10
280.3868720204
 20
285.7942753385
 40
2.0
 50
90.0
 51
165.0
  0
ARC
  8
SURFACE
 62
7
  6
CONTINUOUS
 10
263.680389818
 20
286.3612012851
 40
1.9683995727
 50
195.0
 51
287.9170172437
  0
ARC
  8
SURFACE
 62
7
  6
CONTINUOUS
 10
276.430389818
 20
286.3612012851
 40
1.9683995727
 50
252.0829827563
 51
345.0
  0
ARC
  8
SURFACE
 62
7
  6
CONTINUOUS
 10
285.7239076155
 20
285.7942753385
 40
2.0
 50
15.0
 51
90.0
  0
ARC
  8
SURFACE
 62
7
  6
CONTINUOUS
 10
306.3868720204
 20
285.7942753385
 40
2.0
 50
90.0
 51
165.0
  0
ARC
  8
SURFACE
 62
7
  6
CONTINUOUS
 10
289.680389818
 20
286.3612012851
 40
1.9683995727
 50
195.0
 51
287.9170172437
  0
ARC
  8
SURFACE
 62
7
  6
CONTINUOUS
 10
302.430389818
 20
286.3612012851
 40
1.9683995727
 50
252.0829827563
 51
345.0
  0
ARC
  8
SURFACE
 62
7
  6
CONTINUOUS
 10
263.055389818
 20
288.2942753385
 40
4.0
 50
287.9170172437
 51
55.150095421
  0
ARC
  8
SURFACE
 62
7
  6
CONTINUOUS
 10
277.055389818
 20
288.2942753385
 40
4.0
 50
124.849904579
 51
252.0829827563
  0
ARC
  8
SURFACE
 62
7
  6
CONTINUOUS
 10
289.055389818
 20
288.2942753385
 40
4.0
 50
287.9170172437
 51
55.150095421
  0
ARC
  8
SURFACE
 62
7
  6
CONTINUOUS
 10
303.055389818
 20
288.2942753385
 40
4.0
 50
124.849904579
 51
252.0829827563
  0
ARC
  8
SURFACE
 62
7
  6
CONTINUOUS
 10
311.7239076155
 20
285.7942753385
 40
2.0
 50
15.0
 51
90.0
  0
ARC
  8
SURFACE
 62
7
  6
CONTINUOUS
 10
332.3868720204
 20
285.7942753385
 40
2.0
 50
90.0
 51
165.0
  0
ARC
  8
SURFACE
 62
7
  6
CONTINUOUS
 10
328.430389818
 20
286.3612012851
 40
1.9683995727
 50
252.0829827563
 51
345.0
  0
ARC
  8
SURFACE
 62
7
  6
CONTINUOUS
 10
315.680389818
 20
286.3612012851
 40
1.9683995727
 50
195.0
 51
287.9170172437
  0
ARC
  8
SURFACE
 62
7
  6
CONTINUOUS
 10
337.7239076155
 20
285.7942753385
 40
2.0
 50
15.0
 51
90.0
  0
ARC
  8
SURFACE
 62
7
  6
CONTINUOUS
 10
358.3868720204
 20
285.7942753385
 40
2.0
 50
90.0
 51
165.0
  0
ARC
  8
SURFACE
 62
7
  6
CONTINUOUS
 10
341.680389818
 20
286.3612012851
 40
1.9683995727
 50
195.0
 51
287.9170172437
  0
ARC
  8
SURFACE
 62
7
  6
CONTINUOUS
 10
354.430389818
 20
286.3612012851
 40
1.9683995727
 50
252.0829827563
 51
345.0
  0
ARC
  8
SURFACE
 62
7
  6
CONTINUOUS
 10
315.055389818
 20
288.2942753385
 40
4.0
 50
287.9170172437
 51
55.1500971898
  0
ARC
  8
SURFACE
 62
7
  6
CONTINUOUS
 10
329.055389818
 20
288.2942753385
 40
4.0
 50
124.8499040764
 51
252.0829827563
  0
ARC
  8
SURFACE
 62
7
  6
CONTINUOUS
 10
341.055389818
 20
288.2942753385
 40
4.0
 50
287.9170172437
 51
55.1500973541
  0
ARC
  8
SURFACE
 62
7
  6
CONTINUOUS
 10
355.055389818
 20
288.2942753385
 40
4.0
 50
124.8499040653
 51
252.0829827563
  0
ARC
  8
SURFACE
 62
7
  6
CONTINUOUS
 10
267.055389818
 20
294.0388379851
 40
3.0
 50
214.4980560356
 51
235.150095421
  0
ARC
  8
SURFACE
 62
7
  6
CONTINUOUS
 10
273.055389818
 20
294.0388379851
 40
3.0
 50
304.849904579
 51
360.0
  0
ARC
  8
SURFACE
 62
7
  6
CONTINUOUS
 10
277.055389818
 20
294.3442753385
 40
1.0
 50
90.0
 51
177.1386973531
  0
ARC
  8
SURFACE
 62
7
  6
CONTINUOUS
 10
272.7361752925
 20
295.4300066567
 40
10.0
 50
125.0897993214
 51
144.2467505136
  0
ARC
  8
SURFACE
 62
7
  6
CONTINUOUS
 10
267.3746043435
 20
295.4300066567
 40
10.0
 50
35.7532504289
 51
54.9102006786
  0
ARC
  8
SURFACE
 62
7
  6
CONTINUOUS
 10
271.0389285859
 20
296.7764493354
 40
7.8335387679
 50
146.7068506794
 51
214.4980560356
  0
ARC
  8
SURFACE
 62
7
  6
CONTINUOUS
 10
279.555389818
 20
295.8442753385
 40
0.5
 50
270.0
 51
360.0
  0
ARC
  8
SURFACE
 62
7
  6
CONTINUOUS
 10
260.555389818
 20
295.8442753385
 40
0.5
 50
179.9999999532
 51
270.0
  0
ARC
  8
SURFACE
 62
7
  6
CONTINUOUS
 10
299.055389818
 20
294.0388379851
 40
3.0
 50
304.849904579
 51
360.0
  0
ARC
  8
SURFACE
 62
7
  6
CONTINUOUS
 10
293.055389818
 20
294.0388379851
 40
3.0
 50
180.0
 51
235.150095421
  0
ARC
  8
SURFACE
 62
7
  6
CONTINUOUS
 10
303.055389818
 20
294.3442753385
 40
1.0
 50
90.0
 51
177.1386973531
  0
ARC
  8
SURFACE
 62
7
  6
CONTINUOUS
 10
289.055389818
 20
294.3442753385
 40
1.0
 50
2.8613026468
 51
90.0
  0
ARC
  8
SURFACE
 62
7
  6
CONTINUOUS
 10
298.7361752925
 20
295.4300066567
 40
10.0
 50
125.0897993214
 51
144.2467424532
  0
ARC
  8
SURFACE
 62
7
  6
CONTINUOUS
 10
293.3746043435
 20
295.4300066567
 40
10.0
 50
35.7532586899
 51
54.9102006786
  0
ARC
  8
SURFACE
 62
7
  6
CONTINUOUS
 10
305.555389818
 20
295.8442753385
 40
0.5
 50
270.0
 51
360.0
  0
ARC
  8
SURFACE
 62
7
  6
CONTINUOUS
 10
286.555389818
 20
295.8442753385
 40
0.5
 50
179.9999999532
 51
270.0
  0
ARC
  8
SURFACE
 62
7
  6
CONTINUOUS
 10
299.055389818
 20
299.5200771197
 40
3.0
 50
0.0
 51
35.7532656777
  0
ARC
  8
SURFACE
 62
7
  6
CONTINUOUS
 10
267.055389818
 20
299.5200771197
 40
3.0
 50
144.2467650007
 51
148.9207285641
  0
ARC
  8
SURFACE
 62
7
  6
CONTINUOUS
 10
293.055389818
 20
299.5200771197
 40
3.0
 50
144.2467381324
 51
180.0
  0
ARC
  8
SURFACE
 62
7
  6
CONTINUOUS
 10
273.055389818
 20
299.5200771197
 40
3.0
 50
0.0
 51
35.7532381412
  0
ARC
  8
SURFACE
 62
7
  6
CONTINUOUS
 10
267.5624390428
 20
302.7942753385
 40
1.0
 50
90.0
 51
125.0897993214
  0
ARC
  8
SURFACE
 62
7
  6
CONTINUOUS
 10
272.5483405932
 20
302.7942753385
 40
1.0
 50
54.9102006786
 51
90.0
  0
ARC
  8
SURFACE
 62
7
  6
CONTINUOUS
 10
293.5624390428
 20
302.7942753385
 40
1.0
 50
90.0
 51
125.0897993214
  0
ARC
  8
SURFACE
 62
7
  6
CONTINUOUS
 10
298.5483405932
 20
302.7942753385
 40
1.0
 50
54.9102006786
 51
90.0
  0
ARC
  8
SURFACE
 62
7
  6
CONTINUOUS
 10
305.555389818
 20
302.8442753385
 40
0.5
 50
0.0
 51
90.0
  0
ARC
  8
SURFACE
 62
7
  6
CONTINUOUS
 10
279.555389818
 20
302.8442753385
 40
0.5
 50
0.0
 51
90.0
  0
ARC
  8
SURFACE
 62
7
  6
CONTINUOUS
 10
286.555389818
 20
302.8442753385
 40
0.5
 50
90.0
 51
180.0000000469
  0
ARC
  8
SURFACE
 62
7
  6
CONTINUOUS
 10
260.555389818
 20
302.8442753385
 40
0.5
 50
90.0
 51
180.0000000468
  0
ARC
  8
SURFACE
 62
7
  6
CONTINUOUS
 10
319.055389818
 20
294.0388379851
 40
3.0
 50
180.0000028109
 51
235.1500930625
  0
ARC
  8
SURFACE
 62
7
  6
CONTINUOUS
 10
325.055389818
 20
294.0388379851
 40
3.0
 50
304.8499052492
 51
359.9999971619
  0
ARC
  8
SURFACE
 62
7
  6
CONTINUOUS
 10
315.055389818
 20
294.3442753385
 40
1.0
 50
0.0000006594
 51
90.0
  0
ARC
  8
SURFACE
 62
7
  6
CONTINUOUS
 10
329.055389818
 20
294.3442753385
 40
1.0
 50
90.0
 51
179.9999993406
  0
ARC
  8
SURFACE
 62
7
  6
CONTINUOUS
 10
324.7361752925
 20
295.4300066567
 40
10.0
 50
125.0897993214
 51
144.2467460932
  0
ARC
  8
SURFACE
 62
7
  6
CONTINUOUS
 10
319.3746043435
 20
295.4300066567
 40
10.0
 50
35.7532516572
 51
54.9102006786
  0
ARC
  8
SURFACE
 62
7
  6
CONTINUOUS
 10
331.555389818
 20
295.8442753385
 40
0.5
 50
270.0
 51
360.0
  0
ARC
  8
SURFACE
 62
7
  6
CONTINUOUS
 10
312.555389818
 20
295.8442753385
 40
0.5
 50
179.9999999532
 51
270.0
  0
ARC
  8
SURFACE
 62
7
  6
CONTINUOUS
 10
345.055389818
 20
294.0388379851
 40
3.0
 50
180.0000028051
 51
235.1500928434
  0
ARC
  8
SURFACE
 62
7
  6
CONTINUOUS
 10
351.055389818
 20
294.0388379851
 40
3.0
 50
304.8499052641
 51
359.9999971679
  0
ARC
  8
SURFACE
 62
7
  6
CONTINUOUS
 10
341.055389818
 20
294.3442753385
 40
1.0
 50
0.0000006594
 51
90.0
  0
ARC
  8
SURFACE
 62
7
  6
CONTINUOUS
 10
355.055389818
 20
294.3442753385
 40
1.0
 50
90.0
 51
179.9999993406
  0
ARC
  8
SURFACE
 62
7
  6
CONTINUOUS
 10
350.7361752925
 20
295.4300066567
 40
10.0
 50
125.0897993214
 51
144.2467456103
  0
ARC
  8
SURFACE
 62
7
  6
CONTINUOUS
 10
345.3746043435
 20
295.4300066567
 40
10.0
 50
35.7532516661
 51
54.9102006786
  0
ARC
  8
SURFACE
 62
7
  6
CONTINUOUS
 10
357.555389818
 20
295.8442753385
 40
0.5
 50
270.0
 51
360.0
  0
ARC
  8
SURFACE
 62
7
  6
CONTINUOUS
 10
338.555389818
 20
295.8442753385
 40
0.5
 50
179.9999999532
 51
270.0
  0
ARC
  8
SURFACE
 62
7
  6
CONTINUOUS
 10
319.055389818
 20
299.5200771197
 40
3.0
 50
144.246750266
 51
180.0
  0
ARC
  8
SURFACE
 62
7
  6
CONTINUOUS
 10
345.055389818
 20
299.5200771197
 40
3.0
 50
144.2467486561
 51
180.0
  0
ARC
  8
SURFACE
 62
7
  6
CONTINUOUS
 10
325.055389818
 20
299.5200771197
 40
3.0
 50
0.0
 51
35.7532422353
  0
ARC
  8
SURFACE
 62
7
  6
CONTINUOUS
 10
351.055389818
 20
299.5200771197
 40
3.0
 50
0.0
 51
35.7532422652
  0
ARC
  8
SURFACE
 62
7
  6
CONTINUOUS
 10
319.5624390428
 20
302.7942753385
 40
1.0
 50
90.0
 51
125.0897993214
  0
ARC
  8
SURFACE
 62
7
  6
CONTINUOUS
 10
324.5483405932
 20
302.7942753385
 40
1.0
 50
54.9102006786
 51
90.0
  0
ARC
  8
SURFACE
 62
7
  6
CONTINUOUS
 10
345.5624390428
 20
302.7942753385
 40
1.0
 50
90.0
 51
125.0897993214
  0
ARC
  8
SURFACE
 62
7
  6
CONTINUOUS
 10
350.5483405932
 20
302.7942753385
 40
1.0
 50
54.9102006786
 51
90.0
  0
ARC
  8
SURFACE
 62
7
  6
CONTINUOUS
 10
357.555389818
 20
302.8442753385
 40
0.5
 50
0.0
 51
90.0
  0
ARC
  8
SURFACE
 62
7
  6
CONTINUOUS
 10
331.555389818
 20
302.8442753385
 40
0.5
 50
0.0
 51
90.0
  0
ARC
  8
SURFACE
 62
7
  6
CONTINUOUS
 10
338.555389818
 20
302.8442753385
 40
0.5
 50
90.0
 51
180.0000000468
  0
ARC
  8
SURFACE
 62
7
  6
CONTINUOUS
 10
312.555389818
 20
302.8442753385
 40
0.5
 50
90.0
 51
180.0000000468
  0
ARC
  8
SURFACE
 62
7
  6
CONTINUOUS
 10
363.7239076155
 20
285.7942753385
 40
2.0
 50
15.0
 51
90.0
  0
ARC
  8
SURFACE
 62
7
  6
CONTINUOUS
 10
384.3868720204
 20
285.7942753385
 40
2.0
 50
90.0
 51
165.000840057
  0
ARC
  8
SURFACE
 62
7
  6
CONTINUOUS
 10
367.680389818
 20
286.3612012851
 40
1.9683995727
 50
195.0
 51
287.9170172437
  0
ARC
  8
SURFACE
 62
7
  6
CONTINUOUS
 10
380.430389818
 20
286.3612012851
 40
1.9683995727
 50
252.0829827563
 51
345.0
  0
ARC
  8
SURFACE
 62
7
  6
CONTINUOUS
 10
410.3759491524
 20
285.75351064
 40
2.0
 50
88.4616024526
 51
165.0
  0
ARC
  8
SURFACE
 62
7
  6
CONTINUOUS
 10
389.7239076155
 20
285.7942753385
 40
2.0
 50
15.0
 51
90.0
  0
ARC
  8
SURFACE
 62
7
  6
CONTINUOUS
 10
406.430389818
 20
286.3612012851
 40
1.9683995727
 50
252.0829827563
 51
345.0
  0
ARC
  8
SURFACE
 62
7
  6
CONTINUOUS
 10
393.680389818
 20
286.3612012851
 40
1.9683995727
 50
195.0
 51
287.9170172437
  0
ARC
  8
SURFACE
 62
7
  6
CONTINUOUS
 10
407.055389818
 20
288.2942753385
 40
4.0
 50
124.850018342
 51
252.0829827563
  0
ARC
  8
SURFACE
 62
7
  6
CONTINUOUS
 10
381.055389818
 20
288.2942753385
 40
4.0
 50
124.850018342
 51
252.0829827563
  0
ARC
  8
SURFACE
 62
7
  6
CONTINUOUS
 10
393.055389818
 20
288.2942753385
 40
4.0
 50
287.9170172437
 51
55.149964574
  0
ARC
  8
SURFACE
 62
7
  6
CONTINUOUS
 10
367.055389818
 20
288.2942753385
 40
4.0
 50
287.9170172437
 51
55.1500970789
  0
ARC
  8
SURFACE
 62
7
  6
CONTINUOUS
 10
438.055389818
 20
283.586071406
 40
5.0
 50
0.0
 51
16.9574262942
  0
ARC
  8
SURFACE
 62
7
  6
CONTINUOUS
 10
444.4421174645
 20
284.7942760629
 40
1.4999997558
 50
90.0
 51
190.7122934566
  0
ARC
  8
SURFACE
 62
7
  6
CONTINUOUS
 10
460.055389818
 20
290.2942753385
 40
18.0
 50
163.0425737058
 51
196.9574262942
  0
ARC
  8
SURFACE
 62
7
  6
CONTINUOUS
 10
453.255389818
 20
288.7942753385
 40
2.5
 50
270.0
 51
360.0
  0
ARC
  8
SURFACE
 62
7
  6
CONTINUOUS
 10
419.855389818
 20
287.6997187643
 40
0.2
 50
268.4616024526
 51
360.0
  0
ARC
  8
SURFACE
 62
7
  6
CONTINUOUS
 10
371.3746043435
 20
295.4300066567
 40
10.0
 50
35.7532517342
 51
54.9102006786
  0
ARC
  8
SURFACE
 62
7
  6
CONTINUOUS
 10
376.7361752925
 20
295.4300066567
 40
10.0
 50
125.0897993214
 51
144.2467459144
  0
ARC
  8
SURFACE
 62
7
  6
CONTINUOUS
 10
377.055389818
 20
294.0388379851
 40
3.0
 50
304.8497528951
 51
0.0004568612
  0
ARC
  8
SURFACE
 62
7
  6
CONTINUOUS
 10
371.055389818
 20
294.0388379851
 40
3.0
 50
180.000002811
 51
235.1500932104
  0
ARC
  8
SURFACE
 62
7
  6
CONTINUOUS
 10
383.555389818
 20
296.9029456889
 40
0.5
 50
272.4000000006
 51
360.0
  0
ARC
  8
SURFACE
 62
7
  6
CONTINUOUS
 10
364.555389818
 20
296.1066097462
 40
0.5
 50
180.0
 51
272.4000000006
  0
ARC
  8
SURFACE
 62
7
  6
CONTINUOUS
 10
397.3746043435
 20
295.4300066567
 40
10.0
 50
35.7532517342
 51
54.9102006786
  0
ARC
  8
SURFACE
 62
7
  6
CONTINUOUS
 10
402.7361752925
 20
295.4300066567
 40
10.0
 50
125.0897993214
 51
144.2466662038
  0
ARC
  8
SURFACE
 62
7
  6
CONTINUOUS
 10
403.055389818
 20
294.0388379851
 40
3.0
 50
304.8497528951
 51
0.0004568612
  0
ARC
  8
SURFACE
 62
7
  6
CONTINUOUS
 10
397.055389818
 20
294.0388379851
 40
3.0
 50
179.9995431143
 51
235.1502698836
  0
ARC
  8
SURFACE
 62
7
  6
CONTINUOUS
 10
390.555389818
 20
297.1963326152
 40
0.5
 50
180.0
 51
272.4000000006
  0
ARC
  8
SURFACE
 62
7
  6
CONTINUOUS
 10
377.055389818
 20
299.5200771197
 40
3.0
 50
0.0
 51
35.7535172185
  0
ARC
  8
SURFACE
 62
7
  6
CONTINUOUS
 10
371.055389818
 20
299.5200771197
 40
3.0
 50
144.2467496701
 51
180.0
  0
ARC
  8
SURFACE
 62
7
  6
CONTINUOUS
 10
376.5483405932
 20
302.7942753385
 40
1.0
 50
54.9102006786
 51
90.0
  0
ARC
  8
SURFACE
 62
7
  6
CONTINUOUS
 10
371.5624390428
 20
302.7942753385
 40
1.0
 50
90.0
 51
125.0897993214
  0
ARC
  8
SURFACE
 62
7
  6
CONTINUOUS
 10
383.555389818
 20
302.8442753385
 40
0.5
 50
0.0
 51
90.0
  0
ARC
  8
SURFACE
 62
7
  6
CONTINUOUS
 10
364.555389818
 20
302.8442753385
 40
0.5
 50
90.0
 51
180.0000000469
  0
ARC
  8
SURFACE
 62
7
  6
CONTINUOUS
 10
403.055389818
 20
299.5200771197
 40
3.0
 50
0.0
 51
35.7535172185
  0
ARC
  8
SURFACE
 62
7
  6
CONTINUOUS
 10
397.055389818
 20
299.5200771197
 40
3.0
 50
144.2464839678
 51
180.0
  0
ARC
  8
SURFACE
 62
7
  6
CONTINUOUS
 10
397.5624390428
 20
302.7942753385
 40
1.0
 50
90.0
 51
125.0897993214
  0
ARC
  8
SURFACE
 62
7
  6
CONTINUOUS
 10
402.5483405932
 20
302.7942753385
 40
1.0
 50
54.9102006786
 51
90.0
  0
ARC
  8
SURFACE
 62
7
  6
CONTINUOUS
 10
390.555389818
 20
302.8442753385
 40
0.5
 50
90.0
 51
180.0000000469
  0
ARC
  8
SURFACE
 62
7
  6
CONTINUOUS
 10
423.055389818
 20
295.5637080238
 40
3.0
 50
170.3505368824
 51
180.0
  0
ARC
  8
SURFACE
 62
7
  6
CONTINUOUS
 10
429.9563517122
 20
294.3903687995
 40
10.0
 50
110.9700874633
 51
170.3505368824
  0
ARC
  8
SURFACE
 62
7
  6
CONTINUOUS
 10
419.2458766441
 20
296.8975033825
 40
1.0
 50
346.8252776719
 51
92.4
  0
ARC
  8
SURFACE
 62
7
  6
CONTINUOUS
 10
409.555389818
 20
297.992668558
 40
0.5
 50
272.4000000006
 51
360.0
  0
ARC
  8
SURFACE
 62
7
  6
CONTINUOUS
 10
416.5834628179
 20
298.2872320916
 40
0.5
 50
177.0000000482
 51
272.3999999955
  0
ARC
  8
SURFACE
 62
7
  6
CONTINUOUS
 10
453.255389818
 20
293.7942753385
 40
2.5
 50
0.0
 51
90.0
  0
ARC
  8
SURFACE
 62
7
  6
CONTINUOUS
 10
438.055389818
 20
297.002479271
 40
5.0
 50
343.0425737058
 51
360.0
  0
ARC
  8
SURFACE
 62
7
  6
CONTINUOUS
 10
444.555389818
 20
297.7942753385
 40
1.5
 50
180.0000488693
 51
270.0
  0
ARC
  8
SURFACE
 62
7
  6
CONTINUOUS
 10
426.7354271735
 20
302.7942753385
 40
1.0
 50
90.0
 51
110.9700874633
  0
ARC
  8
SURFACE
 62
7
  6
CONTINUOUS
 10
442.055389818
 20
302.7942753385
 40
1.0
 50
0.0
 51
90.0
  0
ARC
  8
SURFACE
 62
7
  6
CONTINUOUS
 10
409.555389818
 20
302.8442753385
 40
0.5
 50
0.0
 51
90.0
  0
ARC
  8
SURFACE
 62
7
  6
CONTINUOUS
 10
416.7960834143
 20
302.3442747541
 40
0.5
 50
89.9868629325
 51
176.9999329407
  0
ARC
  8
0
 62
7
  6
CONTINUOUS
 10
84.055389818
 20
157.4024378333
 40
1.0
 50
270.0
 51
360.0
  0
ARC
  8
0
 62
7
  6
CONTINUOUS
 10
84.055389818
 20
154.8524378333
 40
1.0
 50
270.0
 51
360.0
  0
ARC
  8
0
 62
7
  6
CONTINUOUS
 10
63.055389818
 20
154.8524378333
 40
1.0
 50
180.0
 51
270.0
  0
ARC
  8
0
 62
7
  6
CONTINUOUS
 10
63.055389818
 20
157.4024378333
 40
1.0
 50
180.0
 51
270.0
  0
ARC
  8
0
 62
7
  6
CONTINUOUS
 10
138.055389818
 20
158.6274378333
 40
1.0
 50
96.9230683623
 51
180.0
  0
ARC
  8
0
 62
7
  6
CONTINUOUS
 10
124.055389818
 20
158.6274378333
 40
1.0
 50
0.0
 51
83.0769311186
  0
ARC
  8
0
 62
7
  6
CONTINUOUS
 10
51.855389818
 20
162.9274378333
 40
2.5
 50
180.0
 51
270.0
  0
ARC
  8
0
 62
7
  6
CONTINUOUS
 10
140.555389818
 20
160.1274378333
 40
0.5
 50
270.0
 51
360.0
  0
ARC
  8
0
 62
7
  6
CONTINUOUS
 10
147.555389818
 20
160.1274378333
 40
0.5
 50
180.0
 51
270.0
  0
ARC
  8
0
 62
7
  6
CONTINUOUS
 10
114.555389818
 20
160.1274378333
 40
0.5
 50
270.0
 51
360.0
  0
ARC
  8
0
 62
7
  6
CONTINUOUS
 10
121.555389818
 20
160.1274378333
 40
0.5
 50
180.0
 51
270.0
  0
ARC
  8
0
 62
7
  6
CONTINUOUS
 10
95.555389818
 20
160.1274378333
 40
0.5
 50
180.0
 51
270.0
  0
ARC
  8
0
 62
7
  6
CONTINUOUS
 10
190.055389818
 20
158.6274378333
 40
1.0
 50
96.9230683623
 51
180.0
  0
ARC
  8
0
 62
7
  6
CONTINUOUS
 10
164.055389818
 20
158.6274378333
 40
1.0
 50
96.9230683623
 51
180.0
  0
ARC
  8
0
 62
7
  6
CONTINUOUS
 10
176.055389818
 20
158.6274378333
 40
1.0
 50
0.0
 51
83.0769311185
  0
ARC
  8
0
 62
7
  6
CONTINUOUS
 10
150.055389818
 20
158.6274378333
 40
1.0
 50
0.0
 51
83.0769311185
  0
ARC
  8
0
 62
7
  6
CONTINUOUS
 10
204.055389818
 20
154.8524378333
 40
1.0
 50
180.0
 51
270.0
  0
ARC
  8
0
 62
7
  6
CONTINUOUS
 10
230.055389818
 20
154.8524378333
 40
1.0
 50
180.0
 51
270.0
  0
ARC
  8
0
 62
7
  6
CONTINUOUS
 10
214.055389818
 20
154.8524378333
 40
1.0
 50
270.0
 51
360.0
  0
ARC
  8
0
 62
7
  6
CONTINUOUS
 10
242.055389818
 20
158.6274378333
 40
1.0
 50
97.0062924419
 51
130.1296985921
  0
ARC
  8
0
 62
7
  6
CONTINUOUS
 10
216.055389818
 20
158.6274378333
 40
1.0
 50
96.9230683623
 51
180.0
  0
ARC
  8
0
 62
7
  6
CONTINUOUS
 10
228.055389818
 20
158.6274378333
 40
1.0
 50
0.0
 51
83.0769309232
  0
ARC
  8
0
 62
7
  6
CONTINUOUS
 10
202.055389818
 20
158.6274378333
 40
1.0
 50
0.0
 51
83.0769317354
  0
ARC
  8
0
 62
7
  6
CONTINUOUS
 10
244.555389818
 20
160.1274378333
 40
0.5
 50
270.0
 51
360.0
  0
ARC
  8
0
 62
7
  6
CONTINUOUS
 10
218.555389818
 20
160.1274378333
 40
0.5
 50
270.0
 51
360.0
  0
ARC
  8
0
 62
7
  6
CONTINUOUS
 10
225.555389818
 20
160.1274378333
 40
0.5
 50
180.0
 51
270.0
  0
ARC
  8
0
 62
7
  6
CONTINUOUS
 10
192.555389818
 20
160.1274378333
 40
0.5
 50
270.0
 51
360.0
  0
ARC
  8
0
 62
7
  6
CONTINUOUS
 10
199.555389818
 20
160.1274378333
 40
0.5
 50
180.0
 51
270.0
  0
ARC
  8
0
 62
7
  6
CONTINUOUS
 10
166.555389818
 20
160.1274378333
 40
0.5
 50
270.0
 51
360.0
  0
ARC
  8
0
 62
7
  6
CONTINUOUS
 10
173.555389818
 20
160.1274378333
 40
0.5
 50
180.0
 51
270.0
  0
ARC
  8
0
 62
7
  6
CONTINUOUS
 10
51.855389818
 20
163.8274378333
 40
2.5
 50
90.0
 51
180.0
  0
ARC
  8
0
 62
7
  6
CONTINUOUS
 10
73.271745157
 20
166.3774378333
 40
1.0
 50
269.9996442701
 51
344.9998525894
  0
ARC
  8
0
 62
7
  6
CONTINUOUS
 10
72.839034479
 20
166.3774378333
 40
1.0
 50
195.0001477485
 51
270.0003572515
  0
ARC
  8
0
 62
7
  6
CONTINUOUS
 10
140.555389818
 20
166.6274378333
 40
0.5
 50
0.0
 51
90.0
  0
ARC
  8
0
 62
7
  6
CONTINUOUS
 10
147.555389818
 20
166.6274378333
 40
0.5
 50
90.0
 51
180.0
  0
ARC
  8
0
 62
7
  6
CONTINUOUS
 10
114.555389818
 20
166.6274378333
 40
0.5
 50
0.0
 51
90.0
  0
ARC
  8
0
 62
7
  6
CONTINUOUS
 10
121.555389818
 20
166.6274378333
 40
0.5
 50
90.0
 51
180.0
  0
ARC
  8
0
 62
7
  6
CONTINUOUS
 10
95.555389818
 20
166.6274378333
 40
0.5
 50
90.0
 51
180.0
  0
ARC
  8
0
 62
7
  6
CONTINUOUS
 10
84.055389818
 20
171.9024378333
 40
1.0
 50
0.0
 51
90.0
  0
ARC
  8
0
 62
7
  6
CONTINUOUS
 10
100.055389818
 20
171.9024378333
 40
1.0
 50
90.0
 51
180.0
  0
ARC
  8
0
 62
7
  6
CONTINUOUS
 10
63.055389818
 20
171.9024378333
 40
1.0
 50
90.0
 51
180.0
  0
ARC
  8
0
 62
7
  6
CONTINUOUS
 10
76.8227167413
 20
171.9024375921
 40
1.0
 50
89.9999962972
 51
164.9999856933
  0
ARC
  8
0
 62
7
  6
CONTINUOUS
 10
69.2880636905
 20
171.9024378333
 40
0.9999995844
 50
15.0000127601
 51
90.000049301
  0
ARC
  8
0
 62
7
  6
CONTINUOUS
 10
138.055389818
 20
168.1274378333
 40
1.0
 50
180.0
 51
263.0769316445
  0
ARC
  8
0
 62
7
  6
CONTINUOUS
 10
124.055389818
 20
168.1274378333
 40
1.0
 50
276.9230688865
 51
360.0
  0
ARC
  8
0
 62
7
  6
CONTINUOUS
 10
110.055389818
 20
171.9024378333
 40
1.0
 50
0.0
 51
90.0
  0
ARC
  8
0
 62
7
  6
CONTINUOUS
 10
126.055389818
 20
171.9024378333
 40
1.0
 50
90.0
 51
180.0
  0
ARC
  8
0
 62
7
  6
CONTINUOUS
 10
136.055389818
 20
171.9024378333
 40
1.0
 50
0.0
 51
90.0
  0
ARC
  8
0
 62
7
  6
CONTINUOUS
 10
142.4036989222
 20
171.9024378333
 40
1.0
 50
102.5724622711
 51
116.4
  0
ARC
  8
0
 62
7
  6
CONTINUOUS
 10
244.555389818
 20
166.6274378333
 40
0.5
 50
0.0
 51
90.0
  0
ARC
  8
0
 62
7
  6
CONTINUOUS
 10
218.555389818
 20
166.6274378333
 40
0.5
 50
0.0
 51
90.0
  0
ARC
  8
0
 62
7
  6
CONTINUOUS
 10
225.555389818
 20
166.6274378333
 40
0.5
 50
90.0
 51
180.0
  0
ARC
  8
0
 62
7
  6
CONTINUOUS
 10
192.555389818
 20
166.6274378333
 40
0.5
 50
0.0
 51
90.0
  0
ARC
  8
0
 62
7
  6
CONTINUOUS
 10
199.555389818
 20
166.6274378333
 40
0.5
 50
90.0
 51
180.0
  0
ARC
  8
0
 62
7
  6
CONTINUOUS
 10
166.555389818
 20
166.6274378333
 40
0.5
 50
0.0
 51
90.0
  0
ARC
  8
0
 62
7
  6
CONTINUOUS
 10
173.555389818
 20
166.6274378333
 40
0.5
 50
90.0
 51
180.0
  0
ARC
  8
0
 62
7
  6
CONTINUOUS
 10
181.405389818
 20
163.6774378333
 40
0.3
 50
180.0000423998
 51
269.999881426
  0
ARC
  8
0
 62
7
  6
CONTINUOUS
 10
184.705389818
 20
163.6774378333
 40
0.3
 50
270.0001190746
 51
359.9999573527
  0
ARC
  8
0
 62
7
  6
CONTINUOUS
 10
190.055389818
 20
168.1274378333
 40
1.0
 50
180.0
 51
263.0769316445
  0
ARC
  8
0
 62
7
  6
CONTINUOUS
 10
164.055389818
 20
168.1274378333
 40
1.0
 50
180.0
 51
263.0769316445
  0
ARC
  8
0
 62
7
  6
CONTINUOUS
 10
176.055389818
 20
168.1274378333
 40
1.0
 50
276.9230688866
 51
360.0
  0
ARC
  8
0
 62
7
  6
CONTINUOUS
 10
150.055389818
 20
168.1274378333
 40
1.0
 50
276.9230688866
 51
360.0
  0
ARC
  8
0
 62
7
  6
CONTINUOUS
 10
152.055389818
 20
171.9024378333
 40
1.0
 50
90.0
 51
180.0
  0
ARC
  8
0
 62
7
  6
CONTINUOUS
 10
178.055389818
 20
171.9024378333
 40
1.0
 50
90.0
 51
180.0
  0
ARC
  8
0
 62
7
  6
CONTINUOUS
 10
162.055389818
 20
171.9024378333
 40
1.0
 50
0.0
 51
90.0
  0
ARC
  8
0
 62
7
  6
CONTINUOUS
 10
188.055389818
 20
171.9024378333
 40
1.0
 50
0.0
 51
90.0
  0
ARC
  8
0
 62
7
  6
CONTINUOUS
 10
194.4036989222
 20
171.9024378333
 40
1.0
 50
90.0
 51
116.4
  0
ARC
  8
0
 62
7
  6
CONTINUOUS
 10
168.4036989222
 20
171.9024378333
 40
1.0
 50
90.0
 51
116.4
  0
ARC
  8
0
 62
7
  6
CONTINUOUS
 10
242.055389818
 20
168.1274378333
 40
1.0
 50
229.8702815981
 51
262.9937079201
  0
ARC
  8
0
 62
7
  6
CONTINUOUS
 10
216.055389818
 20
168.1274378333
 40
1.0
 50
180.0
 51
263.0769316445
  0
ARC
  8
0
 62
7
  6
CONTINUOUS
 10
228.055389818
 20
168.1274378333
 40
1.0
 50
276.9230692792
 51
360.0
  0
ARC
  8
0
 62
7
  6
CONTINUOUS
 10
202.055389818
 20
168.1274378333
 40
1.0
 50
276.9230682706
 51
360.0
  0
ARC
  8
0
 62
7
  6
CONTINUOUS
 10
204.055389818
 20
171.9024378333
 40
1.0
 50
90.0
 51
180.0
  0
ARC
  8
0
 62
7
  6
CONTINUOUS
 10
230.055389818
 20
171.9024378333
 40
1.0
 50
90.0
 51
180.0
  0
ARC
  8
0
 62
7
  6
CONTINUOUS
 10
214.055389818
 20
171.9024378333
 40
1.0
 50
0.0
 51
90.0
  0
ARC
  8
0
 62
7
  6
CONTINUOUS
 10
220.4036989222
 20
171.9024378333
 40
1.0
 50
90.0
 51
116.4
  0
ARC
  8
SURFACE
 62
7
  6
CONTINUOUS
 10
301.055389818
 20
154.8524378333
 40
1.0
 50
270.0
 51
360.0
  0
ARC
  8
SURFACE
 62
7
  6
CONTINUOUS
 10
275.055389818
 20
154.8524378333
 40
1.0
 50
270.0
 51
360.0
  0
ARC
  8
SURFACE
 62
7
  6
CONTINUOUS
 10
291.055389818
 20
154.8524378333
 40
1.0
 50
180.0
 51
270.0
  0
ARC
  8
SURFACE
 62
7
  6
CONTINUOUS
 10
263.055389818
 20
158.6274378333
 40
1.0
 50
49.8703014079
 51
82.9937075581
  0
ARC
  8
SURFACE
 62
7
  6
CONTINUOUS
 10
303.055389818
 20
158.6274378333
 40
1.0
 50
96.9230682646
 51
180.0
  0
ARC
  8
SURFACE
 62
7
  6
CONTINUOUS
 10
289.055389818
 20
158.6274378333
 40
1.0
 50
0.0
 51
83.0769316377
  0
ARC
  8
SURFACE
 62
7
  6
CONTINUOUS
 10
277.055389818
 20
158.6274378333
 40
1.0
 50
96.9230690768
 51
180.0
  0
ARC
  8
SURFACE
 62
7
  6
CONTINUOUS
 10
315.055389818
 20
158.6274378333
 40
1.0
 50
0.0
 51
83.0769316377
  0
ARC
  8
SURFACE
 62
7
  6
CONTINUOUS
 10
341.055389818
 20
158.6274378333
 40
1.0
 50
0.0
 51
83.0769316377
  0
ARC
  8
SURFACE
 62
7
  6
CONTINUOUS
 10
329.055389818
 20
158.6274378333
 40
1.0
 50
96.9230688815
 51
180.0
  0
ARC
  8
SURFACE
 62
7
  6
CONTINUOUS
 10
355.055389818
 20
158.6274378333
 40
1.0
 50
96.9230688815
 51
180.0
  0
ARC
  8
SURFACE
 62
7
  6
CONTINUOUS
 10
331.555389818
 20
160.1274378333
 40
0.5
 50
270.0
 51
360.0
  0
ARC
  8
SURFACE
 62
7
  6
CONTINUOUS
 10
338.555389818
 20
160.1274378333
 40
0.5
 50
180.0
 51
270.0
  0
ARC
  8
SURFACE
 62
7
  6
CONTINUOUS
 10
305.555389818
 20
160.1274378333
 40
0.5
 50
270.0
 51
360.0
  0
ARC
  8
SURFACE
 62
7
  6
CONTINUOUS
 10
312.555389818
 20
160.1274378333
 40
0.5
 50
180.0
 51
270.0
  0
ARC
  8
SURFACE
 62
7
  6
CONTINUOUS
 10
260.555389818
 20
160.1274378333
 40
0.5
 50
180.0
 51
270.0
  0
ARC
  8
SURFACE
 62
7
  6
CONTINUOUS
 10
286.555389818
 20
160.1274378333
 40
0.5
 50
180.0
 51
270.0
  0
ARC
  8
SURFACE
 62
7
  6
CONTINUOUS
 10
279.555389818
 20
160.1274378333
 40
0.5
 50
270.0
 51
360.0
  0
ARC
  8
SURFACE
 62
7
  6
CONTINUOUS
 10
421.055389818
 20
157.4024378333
 40
1.0
 50
180.0
 51
270.0
  0
ARC
  8
SURFACE
 62
7
  6
CONTINUOUS
 10
421.055389818
 20
154.8524378333
 40
1.0
 50
180.0
 51
270.0
  0
ARC
  8
SURFACE
 62
7
  6
CONTINUOUS
 10
367.055389818
 20
158.6274378333
 40
1.0
 50
0.0
 51
83.0769316377
  0
ARC
  8
SURFACE
 62
7
  6
CONTINUOUS
 10
381.055389818
 20
158.6274378333
 40
1.0
 50
96.9230688814
 51
180.0
  0
ARC
  8
SURFACE
 62
7
  6
CONTINUOUS
 10
442.055389818
 20
154.8524378333
 40
1.0
 50
270.0
 51
360.0
  0
ARC
  8
SURFACE
 62
7
  6
CONTINUOUS
 10
442.055389818
 20
157.4024378333
 40
1.0
 50
270.0
 51
360.0
  0
ARC
  8
SURFACE
 62
7
  6
CONTINUOUS
 10
453.255389818
 20
162.9274378333
 40
2.5
 50
270.0
 51
360.0
  0
ARC
  8
SURFACE
 62
7
  6
CONTINUOUS
 10
409.555389818
 20
160.1274378333
 40
0.5
 50
270.0
 51
360.0
  0
ARC
  8
SURFACE
 62
7
  6
CONTINUOUS
 10
383.555389818
 20
160.1274378333
 40
0.5
 50
270.0
 51
360.0
  0
ARC
  8
SURFACE
 62
7
  6
CONTINUOUS
 10
390.555389818
 20
160.1274378333
 40
0.5
 50
180.0
 51
270.0
  0
ARC
  8
SURFACE
 62
7
  6
CONTINUOUS
 10
364.555389818
 20
160.1274378333
 40
0.5
 50
180.0
 51
270.0
  0
ARC
  8
SURFACE
 62
7
  6
CONTINUOUS
 10
357.555389818
 20
160.1274378333
 40
0.5
 50
270.0
 51
360.0
  0
ARC
  8
SURFACE
 62
7
  6
CONTINUOUS
 10
331.555389818
 20
166.6274378333
 40
0.5
 50
0.0
 51
90.0
  0
ARC
  8
SURFACE
 62
7
  6
CONTINUOUS
 10
338.555389818
 20
166.6274378333
 40
0.5
 50
90.0
 51
180.0
  0
ARC
  8
SURFACE
 62
7
  6
CONTINUOUS
 10
305.555389818
 20
166.6274378333
 40
0.5
 50
0.0
 51
90.0
  0
ARC
  8
SURFACE
 62
7
  6
CONTINUOUS
 10
312.555389818
 20
166.6274378333
 40
0.5
 50
90.0
 51
180.0
  0
ARC
  8
SURFACE
 62
7
  6
CONTINUOUS
 10
260.555389818
 20
166.6274378333
 40
0.5
 50
90.0
 51
180.0
  0
ARC
  8
SURFACE
 62
7
  6
CONTINUOUS
 10
286.555389818
 20
166.6274378333
 40
0.5
 50
90.0
 51
180.0
  0
ARC
  8
SURFACE
 62
7
  6
CONTINUOUS
 10
279.555389818
 20
166.6274378333
 40
0.5
 50
0.0
 51
90.0
  0
ARC
  8
SURFACE
 62
7
  6
CONTINUOUS
 10
320.405389818
 20
163.6774378333
 40
0.3
 50
180.0000426472
 51
269.9998809254
  0
ARC
  8
SURFACE
 62
7
  6
CONTINUOUS
 10
323.705389818
 20
163.6774378333
 40
0.3
 50
270.0001185741
 51
359.9999576002
  0
ARC
  8
SURFACE
 62
7
  6
CONTINUOUS
 10
263.055389818
 20
168.1274378333
 40
1.0
 50
277.0062920799
 51
310.1297184019
  0
ARC
  8
SURFACE
 62
7
  6
CONTINUOUS
 10
303.055389818
 20
168.1274378333
 40
1.0
 50
180.0
 51
263.0769317294
  0
ARC
  8
SURFACE
 62
7
  6
CONTINUOUS
 10
289.055389818
 20
168.1274378333
 40
1.0
 50
276.9230683555
 51
360.0
  0
ARC
  8
SURFACE
 62
7
  6
CONTINUOUS
 10
277.055389818
 20
168.1274378333
 40
1.0
 50
180.0
 51
263.0769307208
  0
ARC
  8
SURFACE
 62
7
  6
CONTINUOUS
 10
301.055389818
 20
171.9024378333
 40
1.0
 50
0.0
 51
90.0
  0
ARC
  8
SURFACE
 62
7
  6
CONTINUOUS
 10
275.055389818
 20
171.9024378333
 40
1.0
 50
0.0
 51
90.0
  0
ARC
  8
SURFACE
 62
7
  6
CONTINUOUS
 10
291.055389818
 20
171.9024378333
 40
1.0
 50
90.0
 51
180.0
  0
ARC
  8
SURFACE
 62
7
  6
CONTINUOUS
 10
284.7070807138
 20
171.9024378333
 40
1.0
 50
59.4308239009
 51
90.0
  0
ARC
  8
SURFACE
 62
7
  6
CONTINUOUS
 10
315.055389818
 20
168.1274378333
 40
1.0
 50
276.9230683555
 51
360.0
  0
ARC
  8
SURFACE
 62
7
  6
CONTINUOUS
 10
341.055389818
 20
168.1274378333
 40
1.0
 50
276.9230683555
 51
360.0
  0
ARC
  8
SURFACE
 62
7
  6
CONTINUOUS
 10
329.055389818
 20
168.1274378333
 40
1.0
 50
180.0
 51
263.0769311134
  0
ARC
  8
SURFACE
 62
7
  6
CONTINUOUS
 10
355.055389818
 20
168.1274378333
 40
1.0
 50
180.0
 51
263.0769311134
  0
ARC
  8
SURFACE
 62
7
  6
CONTINUOUS
 10
310.7070807138
 20
171.9024378333
 40
1.0
 50
59.4308411461
 51
90.0
  0
ARC
  8
SURFACE
 62
7
  6
CONTINUOUS
 10
317.055389818
 20
171.9024378333
 40
1.0
 50
90.0
 51
180.0
  0
ARC
  8
SURFACE
 62
7
  6
CONTINUOUS
 10
327.055389818
 20
171.9024378333
 40
1.0
 50
0.0
 51
90.0
  0
ARC
  8
SURFACE
 62
7
  6
CONTINUOUS
 10
343.055389818
 20
171.9024378333
 40
1.0
 50
90.0
 51
180.0
  0
ARC
  8
SURFACE
 62
7
  6
CONTINUOUS
 10
336.7070807138
 20
171.9024378333
 40
1.0
 50
59.4308066559
 51
90.0
  0
ARC
  8
SURFACE
 62
7
  6
CONTINUOUS
 10
353.055389818
 20
171.9024378333
 40
1.0
 50
0.0
 51
90.0
  0
ARC
  8
SURFACE
 62
7
  6
CONTINUOUS
 10
453.255389818
 20
163.8274378333
 40
2.5
 50
0.0
 51
90.0
  0
ARC
  8
SURFACE
 62
7
  6
CONTINUOUS
 10
432.271745157
 20
166.3774378333
 40
1.0
 50
269.9996427485
 51
344.9998522515
  0
ARC
  8
SURFACE
 62
7
  6
CONTINUOUS
 10
431.839034479
 20
166.3774378333
 40
1.0
 50
195.0001474106
 51
270.0003557299
  0
ARC
  8
SURFACE
 62
7
  6
CONTINUOUS
 10
409.555389818
 20
166.6274378333
 40
0.5
 50
0.0
 51
90.0
  0
ARC
  8
SURFACE
 62
7
  6
CONTINUOUS
 10
383.555389818
 20
166.6274378333
 40
0.5
 50
0.0
 51
90.0
  0
ARC
  8
SURFACE
 62
7
  6
CONTINUOUS
 10
390.555389818
 20
166.6274378333
 40
0.5
 50
90.0
 51
180.0
  0
ARC
  8
SURFACE
 62
7
  6
CONTINUOUS
 10
364.555389818
 20
166.6274378333
 40
0.5
 50
90.0
 51
180.0
  0
ARC
  8
SURFACE
 62
7
  6
CONTINUOUS
 10
357.555389818
 20
166.6274378333
 40
0.5
 50
0.0
 51
90.0
  0
ARC
  8
SURFACE
 62
7
  6
CONTINUOUS
 10
367.055389818
 20
168.1274378333
 40
1.0
 50
276.9230683555
 51
360.0
  0
ARC
  8
SURFACE
 62
7
  6
CONTINUOUS
 10
381.055389818
 20
168.1274378333
 40
1.0
 50
180.0
 51
263.0769311135
  0
ARC
  8
SURFACE
 62
7
  6
CONTINUOUS
 10
395.055389818
 20
171.9024378333
 40
1.0
 50
90.0
 51
180.0
  0
ARC
  8
SURFACE
 62
7
  6
CONTINUOUS
 10
379.055389818
 20
171.9024378333
 40
1.0
 50
0.0
 51
90.0
  0
ARC
  8
SURFACE
 62
7
  6
CONTINUOUS
 10
362.7070807138
 20
171.9024378333
 40
1.0
 50
59.4308016479
 51
77.4275377289
  0
ARC
  8
SURFACE
 62
7
  6
CONTINUOUS
 10
369.055389818
 20
171.9024378333
 40
1.0
 50
90.0
 51
180.0
  0
ARC
  8
SURFACE
 62
7
  6
CONTINUOUS
 10
428.2880628946
 20
171.9024375921
 40
1.0
 50
15.0000143066
 51
90.0000037028
  0
ARC
  8
SURFACE
 62
7
  6
CONTINUOUS
 10
421.055389818
 20
171.9024378333
 40
1.0
 50
90.0
 51
180.0
  0
ARC
  8
SURFACE
 62
7
  6
CONTINUOUS
 10
405.055389818
 20
171.9024378333
 40
1.0
 50
0.0
 51
90.0
  0
ARC
  8
SURFACE
 62
7
  6
CONTINUOUS
 10
442.055389818
 20
171.9024378333
 40
1.0
 50
0.0
 51
90.0
  0
ARC
  8
SURFACE
 62
7
  6
CONTINUOUS
 10
435.8227159455
 20
171.9024378333
 40
0.9999995844
 50
89.999950699
 51
164.9999872399
  0
ARC
  8
SURFACE
 62
7
  6
CONTINUOUS
 10
518.1479117205
 20
262.1942753385
 40
9.4
 50
227.678786594
 51
229.7158030403
  0
ARC
  8
SURFACE
 62
7
  6
CONTINUOUS
 10
518.1479117205
 20
262.1942753385
 40
9.4
 50
264.6552570036
 51
270.0
  0
ARC
  8
SURFACE
 62
7
  6
CONTINUOUS
 10
518.1479117205
 20
262.1942753385
 40
9.4
 50
229.7855530973
 51
231.7994235174
  0
ARC
  8
SURFACE
 62
7
  6
CONTINUOUS
 10
518.1479117205
 20
262.1942753385
 40
9.4
 50
212.7564380093
 51
219.3201613089
  0
ARC
  8
0
 62
7
  6
CONTINUOUS
 10
518.1479117205
 20
262.1942753385
 40
9.4
 50
180.0000034406
 51
270.0
  0
ARC
  8
0
 62
7
  6
CONTINUOUS
 10
518.0729117205
 20
261.2442753385
 40
4.0
 50
180.0
 51
270.0
  0
ARC
  8
0
 62
7
  6
CONTINUOUS
 10
518.0729117205
 20
273.1442753385
 40
4.0
 50
90.0
 51
180.0
  0
ARC
  8
SURFACE
 62
7
  6
CONTINUOUS
 10
518.3979117205
 20
262.1942753385
 40
9.4
 50
320.6798386911
 51
360.0
  0
ARC
  8
SURFACE
 62
7
  6
CONTINUOUS
 10
518.3979117205
 20
262.1942753385
 40
9.4
 50
277.6982807749
 51
281.5488879874
  0
ARC
  8
SURFACE
 62
7
  6
CONTINUOUS
 10
518.3979117205
 20
262.1942753385
 40
9.4
 50
273.8413269753
 51
277.4773275802
  0
ARC
  8
0
 62
7
  6
CONTINUOUS
 10
518.3979117205
 20
262.1942753385
 40
9.4
 50
270.0
 51
291.1899231962
  0
ARC
  8
0
 62
7
  6
CONTINUOUS
 10
518.3979117205
 20
262.1942753385
 40
9.4
 50
314.34564813
 51
360.0
  0
ARC
  8
0
 62
7
  6
CONTINUOUS
 10
518.4729117205
 20
261.2442753385
 40
4.0
 50
270.0
 51
360.0
  0
ARC
  8
0
 62
7
  6
CONTINUOUS
 10
518.4729117205
 20
273.1442753385
 40
4.0
 50
0.0
 51
90.0
  0
ARC
  8
0
 62
7
  6
CONTINUOUS
 10
509.7479117205
 20
280.2942760662
 40
1.0
 50
180.0000208452
 51
269.999981362
  0
ARC
  8
0
 62
7
  6
CONTINUOUS
 10
518.1479117205
 20
294.3942753385
 40
9.4
 50
90.0
 51
180.0
  0
ARC
  8
SURFACE
 62
7
  6
CONTINUOUS
 10
518.1479117205
 20
294.3942753385
 40
9.4
 50
91.1707794716
 51
91.2812539213
  0
ARC
  8
SURFACE
 62
7
  6
CONTINUOUS
 10
518.1479117205
 20
294.3942753385
 40
9.4
 50
96.4394360728
 51
105.951313757
  0
ARC
  8
SURFACE
 62
7
  6
CONTINUOUS
 10
518.1479117205
 20
294.3942753385
 40
9.4
 50
91.9135296445
 51
96.3581037288
  0
ARC
  8
0
 62
7
  6
CONTINUOUS
 10
518.2729117205
 20
289.2442753385
 40
2.95
 50
179.999573248
 51
360.0
  0
ARC
  8
0
 62
7
  6
CONTINUOUS
 10
518.3979117205
 20
294.3942753385
 40
9.4
 50
0.0
 51
90.0
  0
ARC
  8
SURFACE
 62
7
  6
CONTINUOUS
 10
518.3979117205
 20
294.3942753385
 40
9.4
 50
87.388371656
 51
87.6051979657
  0
ARC
  8
SURFACE
 62
7
  6
CONTINUOUS
 10
518.3979117205
 20
294.3942753385
 40
9.4
 50
36.158577547
 51
37.5708040803
  0
ARC
  8
SURFACE
 62
7
  6
CONTINUOUS
 10
518.3979117205
 20
294.3942753385
 40
9.4
 50
46.7317733021
 51
46.9987037375
  0
ARC
  8
SURFACE
 62
7
  6
CONTINUOUS
 10
518.3979117205
 20
294.3942753385
 40
9.4
 50
88.0198213508
 51
90.0
  0
ARC
  8
SURFACE
 62
7
  6
CONTINUOUS
 10
518.3979117205
 20
294.3942753385
 40
9.4
 50
88.0002389093
 51
88.0093999806
  0
ARC
  8
0
 62
7
  6
CONTINUOUS
 10
518.2729117205
 20
293.3442753385
 40
2.95
 50
0.0
 51
180.0000839697
  0
ARC
  8
0
 62
7
  6
CONTINUOUS
 10
520.7979117205
 20
274.7942753385
 40
5.0
 50
359.9999969772
 51
56.442686141
  0
ARC
  8
0
 62
7
  6
CONTINUOUS
 10
521.2651101583
 20
257.6183412133
 40
4.0
 50
302.0714372854
 51
317.5403745352
  0
ARC
  8
0
 62
7
  6
CONTINUOUS
 10
521.2651101583
 20
257.6183412133
 40
4.0
 50
318.0298536516
 51
345.000004548
  0
ARC
  8
0
 62
7
  6
CONTINUOUS
 10
523.7979117205
 20
267.0708853289
 40
4.0
 50
345.0
 51
360.0
  0
ARC
  8
0
 62
7
  6
CONTINUOUS
 10
521.1979117205
 20
256.7942753385
 40
4.0
 50
269.9987212021
 51
359.7541034187
  0
ARC
  8
SURFACE
 62
7
  6
CONTINUOUS
 10
521.1979117205
 20
256.7942753385
 40
4.0
 50
269.9987212021
 51
273.8078497463
  0
ARC
  8
0
 62
7
  6
CONTINUOUS
 10
522.4562241157
 20
277.2942753385
 40
2.0
 50
56.4426799954
 51
90.0000077524
  0
ARC
  8
0
 62
7
  6
CONTINUOUS
 10
526.7979132132
 20
267.2942738459
 40
0.9999985073
 50
270.0000000496
 51
359.9798662369
  0
ARC
  8
0
 62
7
  6
CONTINUOUS
 10
526.2979117205
 20
266.7942753385
 40
0.5
 50
180.0
 51
270.0
  0
ARC
  8
0
 62
7
  6
CONTINUOUS
 10
525.6978696053
 20
256.7749598139
 40
0.4999999694
 50
165.0000999594
 51
179.7537580634
  0
ARC
  8
0
 62
7
  6
CONTINUOUS
 10
520.2479117205
 20
298.3864551942
 40
5.0
 50
359.9996950802
 51
65.1367118331
  0
ARC
  8
0
 62
7
  6
CONTINUOUS
 10
521.4274375511
 20
298.8643953863
 40
4.0
 50
15.0000064587
 51
55.8740923313
  0
ARC
  8
0
 62
7
  6
CONTINUOUS
 10
523.7979117205
 20
290.0176653482
 40
4.0
 50
359.9991415421
 51
15.0005414762
  0
ARC
  8
0
 62
7
  6
CONTINUOUS
 10
527.2479117205
 20
291.5942753385
 40
2.0
 50
180.000014059
 51
248.7461824588
  0
ARC
  8
0
 62
7
  6
CONTINUOUS
 10
525.7979117205
 20
287.8663402533
 40
2.0
 50
0.0
 51
68.7461991705
  0
ENDSEC
  0
EOF
