  0
SECTION
  2
HEADER
  9
$EXTMAX
 10
210.0
 20
297.0
 30
0.0
  9
$EXTMIN
 10
0.0
 20
0.0
 30
0.0
  9
$LIMMIN
 10
0.0
 20
0.0
  9
$LIMMAX
 10
210.0
 20
297.0
  9
$VIEWCTR
 10
105.0
 20
148.5
  9
$VIEWSIZE
 40
297.0
  9
$CLAYER
  8
0
  9
$LTSCALE
 40
19.36
  9
$CELTYPE
  6
BYLAYER
  9
$DIMSCALE
 40
1.0
  9
$DIMASZ
 40
3.5
  9
$DIMEXO
 40
2.2
  9
$DIMDLI
 40
13.376
  9
$DIMEXE
 40
6.336
  9
$DIMCEN
 40
3.168
  9
$DIMLFAC
 40
1.0
  9
$DIMBLK
  1
_FILLED
  9
$DIMTXT
 40
3.5
  9
$PDMODE
 70
3
  9
$PDSIZE
 40
0.3125
  9
$TILEMODE
 70
1
  0
ENDSEC
  0
SECTION
  2
TABLES
  0
TABLE
  2
LTYPE
 70
6
  0
LTYPE
  2
BYBLOCK
 70
0
  3

 72
65
 73
0
 40
0.0
  0
LTYPE
  2
BYLAYER
 70
0
  3

 72
65
 73
0
 40
0.0
  0
LTYPE
  2
CONTINUOUS
 70
64
  3
Solid line
 72
65
 73
0
 40
0.0
  0
LTYPE
  2
CENTER
 70
64
  3
____ _ ____ _ ____ _ ____ _ ____ _ ____ _ ____
 72
65
 73
4
 40
0.6
 49
0.375
 49
-0.075
 49
0.075
 49
-0.075
  0
LTYPE
  2
HIDDEN
 70
64
  3
- - - - - - - - - - - - - - - - - - - -
 72
65
 73
2
 40
0.2
 49
0.1
 49
-0.1
  0
LTYPE
  2
PHANTOM
 70
64
  3
_____ _ _ _____ _ _ _____ _ _ _____
 72
65
 73
6
 40
0.8
 49
0.45
 49
-0.05
 49
0.1
 49
-0.05
 49
0.1
 49
-0.05
  0
LTYPE
  2
DOT
 70
64
  3
. . . . . . . . . . . . . . . . . . . .
 72
65
 73
2
 40
0.2
 49
0.1
 49
-0.1
  0
LTYPE
  2
DASHED
 70
64
  3
- - - - - - - - - - - - - - - - - - - -
 72
65
 73
2
 40
0.2
 49
0.1
 49
-0.1
  0
ENDTAB
  0
TABLE
  2
LAYER
 70
36
  0
LAYER
  2
0
 70
0
 62
7
  6
CONTINUOUS
  0
LAYER
  2
DEFAULT_1
 70
0
 62
7
  6
CENTER
  0
LAYER
  2
DEFAULT_2
 70
0
 62
8
  6
HIDDEN
  0
LAYER
  2
DEFAULT_3
 70
0
 62
7
  6
PHANTOM
  0
LAYER
  2
BLANK_CURVE
 70
0
 62
7
  6
CONTINUOUS
  0
LAYER
  2
HUB_SQ_NAV
 70
0
 62
7
  6
CONTINUOUS
  0
LAYER
  2
LAY0001
 70
0
 62
7
  6
CONTINUOUS
  0
ENDTAB
  0
TABLE
  2
STYLE
 70
1
  0
STYLE
  2
STANDARD
 70
0
 40
0.0
 41
0.8
 50
0.0
 71
0
 42
0.2
  3
txt
  4

  0
STYLE
  2
TEXTSTYLE_1
 70
0
 40
0.0
 41
0.8
 50
0.0
 71
0
 42
0.2
  3
gdt
  4

  0
STYLE
  2
TEXTSTYLE_2
 70
0
 40
0.0
 41
0.6
 50
0.0
 71
0
 42
0.2
  3
txt
  4

  0
STYLE
  2
TEXTSTYLE_3
 70
0
 40
0.0
 41
1.0
 50
0.0
 71
0
 42
0.2
  3
ftb_____.ttf
  4

  0
STYLE
  2
TEXTSTYLE_4
 70
0
 40
0.0
 41
1.0
 50
0.0
 71
0
 42
0.2
  3
fti_____.ttf
  4

  0
STYLE
  2
TEXTSTYLE_5
 70
0
 40
0.0
 41
1.0
 50
0.0
 71
0
 42
0.2
  3
frutiger light.ttf
  4

  0
STYLE
  2
TEXTSTYLE_6
 70
0
 40
0.0
 41
0.7
 50
0.0
 71
0
 42
0.2
  3
txt
  4

  0
STYLE
  2
TEXTSTYLE_7
 70
0
 40
0.0
 41
0.8
 50
0.0
 71
0
 42
0.2
  3
txt
  4

  0
ENDTAB
  0
ENDSEC
  0
SECTION
  2
BLOCKS
  0
BLOCK
  8
0
 62
2
  6
CONTINUOUS
  2
SYMBOL_8_BL1
 70
64
 10
173.5956734183
 20
35.5937998301
  0
TEXT
  8
0
 62
7
  6
CONTINUOUS
 10
164.6539584268
 20
30.6865562072
  7
TEXTSTYLE_4
 40
1.0655737705
  1
The brand for plastic modular belts and chains
 41
1.0
 72
0
  0
LINE
  8
0
 62
7
  6
CONTINUOUS
 10
149.5737418074
 20
36.1675703219
 11
149.5737418074
 21
34.0364227809
  0
LINE
  8
0
 62
7
  6
CONTINUOUS
 10
149.8628043005
 20
31.0454914852
 11
149.8628043005
 21
31.1422825445
  0
LINE
  8
0
 62
7
  6
CONTINUOUS
 10
149.5737418074
 20
31.1100188581
 11
149.6315543091
 21
30.9164367395
  0
LINE
  8
0
 62
7
  6
CONTINUOUS
 10
150.9671844304
 20
33.9544555678
 11
150.9671844304
 21
36.1675703219
  0
LINE
  8
0
 62
7
  6
CONTINUOUS
 10
151.8862417523
 20
32.1101932727
 11
151.8862417523
 21
30.5937998301
  0
LINE
  8
0
 62
7
  6
CONTINUOUS
 10
152.1753043074
 20
30.5937998301
 11
152.1753043074
 21
31.3358647082
  0
LINE
  8
0
 62
7
  6
CONTINUOUS
 10
152.1753043074
 20
31.4649194539
 11
152.1753043074
 21
32.1101932727
  0
LINE
  8
0
 62
7
  6
CONTINUOUS
 10
149.6315543091
 20
31.3036010218
 11
149.5737418074
 21
31.1100188581
  0
LINE
  8
0
 62
7
  6
CONTINUOUS
 10
149.9784292936
 20
30.8841730531
 11
149.8628043005
 21
31.0454914852
  0
LINE
  8
0
 62
7
  6
CONTINUOUS
 10
151.0768668626
 20
31.400392081
 11
151.1346793074
 21
31.3036010218
  0
LINE
  8
0
 62
7
  6
CONTINUOUS
 10
151.4237418626
 20
31.3036010218
 11
151.3659292523
 21
31.4326557675
  0
LINE
  8
0
 62
7
  6
CONTINUOUS
 10
152.852430332
 20
36.1675703219
 11
152.852430332
 21
34.3642916334
  0
LINE
  8
0
 62
7
  6
CONTINUOUS
 10
152.852430332
 20
33.0528162235
 11
152.852430332
 21
32.3970785186
  0
LINE
  8
0
 62
7
  6
CONTINUOUS
 10
153.2159293074
 20
31.2390736489
 11
153.2159293074
 21
30.5937998301
  0
LINE
  8
0
 62
7
  6
CONTINUOUS
 10
153.5049916972
 20
30.5937998301
 11
153.5049916972
 21
31.2390736489
  0
LINE
  8
0
 62
7
  6
CONTINUOUS
 10
149.8628043005
 20
31.1422825445
 11
149.9206168074
 21
31.2713373354
  0
LINE
  8
0
 62
7
  6
CONTINUOUS
 10
149.6315543091
 20
30.9164367395
 11
149.7471793074
 21
30.7873819712
  0
LINE
  8
0
 62
7
  6
CONTINUOUS
 10
153.1581166972
 20
31.3681283946
 11
153.2159293074
 21
31.2390736489
  0
LINE
  8
0
 62
7
  6
CONTINUOUS
 10
153.9674919177
 20
30.8841730531
 11
154.0253041972
 21
30.7551182848
  0
LINE
  8
0
 62
7
  6
CONTINUOUS
 10
153.5049916972
 20
31.2390736489
 11
153.4471794177
 21
31.400392081
  0
LINE
  8
0
 62
7
  6
CONTINUOUS
 10
153.9674919177
 20
31.4326557675
 11
153.9674919177
 21
31.3681283946
  0
LINE
  8
0
 62
7
  6
CONTINUOUS
 10
153.9674919177
 20
30.9809641124
 11
153.9674919177
 21
30.8841730531
  0
LINE
  8
0
 62
7
  6
CONTINUOUS
 10
154.245872955
 20
32.3970785186
 11
154.245872955
 21
36.1675703219
  0
LINE
  8
0
 62
7
  6
CONTINUOUS
 10
154.2565543074
 20
30.8519093441
 11
154.2565543074
 21
30.9164367395
  0
LINE
  8
0
 62
7
  6
CONTINUOUS
 10
154.5737418074
 20
36.1675703219
 11
154.5737418074
 21
32.3970785186
  0
LINE
  8
0
 62
7
  6
CONTINUOUS
 10
151.3659292523
 20
30.7873819712
 11
151.4237418626
 21
30.9164367395
  0
LINE
  8
0
 62
7
  6
CONTINUOUS
 10
155.759679528
 20
30.6905909007
 11
155.7018665869
 21
30.8519093441
  0
LINE
  8
0
 62
7
  6
CONTINUOUS
 10
155.412804528
 20
31.3681283946
 11
155.412804528
 21
31.2713373354
  0
LINE
  8
0
 62
7
  6
CONTINUOUS
 10
155.412804528
 20
31.1422825445
 11
155.412804528
 21
30.9487004259
  0
LINE
  8
0
 62
7
  6
CONTINUOUS
 10
155.7018665869
 20
30.8519093441
 11
155.7018665869
 21
31.3681283946
  0
LINE
  8
0
 62
7
  6
CONTINUOUS
 10
155.9671844304
 20
32.3970785186
 11
155.9671844304
 21
34.2003572071
  0
LINE
  8
0
 62
7
  6
CONTINUOUS
 10
155.9671844304
 20
35.511832617
 11
155.9671844304
 21
36.1675703219
  0
LINE
  8
0
 62
7
  6
CONTINUOUS
 10
156.279992028
 20
32.1101932727
 11
156.279992028
 21
31.9488748406
  0
LINE
  8
0
 62
7
  6
CONTINUOUS
 10
156.279992028
 20
31.626237886
 11
156.279992028
 21
30.5937998301
  0
LINE
  8
0
 62
7
  6
CONTINUOUS
 10
156.5690540869
 20
30.5937998301
 11
156.5690540869
 21
31.626237886
  0
LINE
  8
0
 62
7
  6
CONTINUOUS
 10
156.5690540869
 20
31.9488748406
 11
156.5690540869
 21
32.1101932727
  0
LINE
  8
0
 62
7
  6
CONTINUOUS
 10
151.1346793074
 20
30.9164367395
 11
151.0768668626
 21
30.8196456577
  0
LINE
  8
0
 62
7
  6
CONTINUOUS
 10
153.4471794177
 20
31.400392081
 11
153.3893668074
 21
31.4649194539
  0
LINE
  8
0
 62
7
  6
CONTINUOUS
 10
154.3143669177
 20
30.7873819712
 11
154.2565543074
 21
30.8519093441
  0
LINE
  8
0
 62
7
  6
CONTINUOUS
 10
155.4706168074
 20
30.6583272086
 11
155.5284290869
 21
30.5937998301
  0
LINE
  8
0
 62
7
  6
CONTINUOUS
 10
155.412804528
 20
30.7551182848
 11
155.4706168074
 21
30.6583272086
  0
LINE
  8
0
 62
7
  6
CONTINUOUS
 10
155.8174918074
 20
30.5937998301
 11
155.759679528
 21
30.6905909007
  0
LINE
  8
0
 62
7
  6
CONTINUOUS
 10
155.7018665869
 20
31.3681283946
 11
155.6440543074
 21
31.4649194539
  0
LINE
  8
0
 62
7
  6
CONTINUOUS
 10
157.0315543074
 20
31.626237886
 11
157.0315543074
 21
30.5937998301
  0
LINE
  8
0
 62
7
  6
CONTINUOUS
 10
157.320617028
 20
30.5937998301
 11
157.320617028
 21
31.3358647082
  0
LINE
  8
0
 62
7
  6
CONTINUOUS
 10
157.320617028
 20
31.4649194539
 11
157.320617028
 21
31.626237886
  0
LINE
  8
0
 62
7
  6
CONTINUOUS
 10
157.852430332
 20
34.6101932727
 11
157.852430332
 21
32.3970785186
  0
LINE
  8
0
 62
7
  6
CONTINUOUS
 10
149.7471793074
 20
31.4326557675
 11
149.6315543091
 21
31.3036010218
  0
LINE
  8
0
 62
7
  6
CONTINUOUS
 10
149.9206168074
 20
31.2713373354
 11
149.9784292936
 21
31.3358647082
  0
LINE
  8
0
 62
7
  6
CONTINUOUS
 10
149.7471793074
 20
30.7873819712
 11
149.8628043005
 21
30.7228545871
  0
LINE
  8
0
 62
7
  6
CONTINUOUS
 10
150.1518667936
 20
30.7873819712
 11
149.9784292936
 21
30.8841730531
  0
LINE
  8
0
 62
7
  6
CONTINUOUS
 10
155.3549915869
 20
31.4326557675
 11
155.412804528
 21
31.3681283946
  0
LINE
  8
0
 62
7
  6
CONTINUOUS
 10
158.3034290869
 20
31.3681283946
 11
158.361242028
 21
31.2068099625
  0
LINE
  8
0
 62
7
  6
CONTINUOUS
 10
158.6503040869
 20
31.2068099625
 11
158.5924918074
 21
31.3681283946
  0
LINE
  8
0
 62
7
  6
CONTINUOUS
 10
158.361242028
 20
31.2068099625
 11
158.361242028
 21
30.5937998301
  0
LINE
  8
0
 62
7
  6
CONTINUOUS
 10
158.6503040869
 20
30.5937998301
 11
158.6503040869
 21
31.2068099625
  0
LINE
  8
0
 62
7
  6
CONTINUOUS
 10
159.1128043074
 20
31.4326557675
 11
159.1128043074
 21
31.3681283946
  0
LINE
  8
0
 62
7
  6
CONTINUOUS
 10
159.245872955
 20
32.3970785186
 11
159.245872955
 21
34.5282260596
  0
LINE
  8
0
 62
7
  6
CONTINUOUS
 10
159.5737418074
 20
36.1675703219
 11
159.5737418074
 21
32.3970785186
  0
LINE
  8
0
 62
7
  6
CONTINUOUS
 10
154.2565543074
 20
30.9164367395
 11
154.3143669177
 21
31.0132277988
  0
LINE
  8
0
 62
7
  6
CONTINUOUS
 10
149.8628043005
 20
30.7228545871
 11
150.0362418212
 21
30.6583272086
  0
LINE
  8
0
 62
7
  6
CONTINUOUS
 10
151.3659292523
 20
31.4326557675
 11
151.1924917523
 21
31.5294468267
  0
LINE
  8
0
 62
7
  6
CONTINUOUS
 10
154.0253041972
 20
30.7551182848
 11
154.1987416972
 21
30.6583272086
  0
LINE
  8
0
 62
7
  6
CONTINUOUS
 10
153.0424918074
 20
31.4326557675
 11
153.1581166972
 21
31.3681283946
  0
LINE
  8
0
 62
7
  6
CONTINUOUS
 10
153.3893668074
 20
31.4649194539
 11
153.2737419177
 21
31.5294468267
  0
LINE
  8
0
 62
7
  6
CONTINUOUS
 10
159.1128043074
 20
30.8519093441
 11
159.228429528
 21
30.7228545871
  0
LINE
  8
0
 62
7
  6
CONTINUOUS
 10
159.4596793074
 20
30.7873819712
 11
159.401867028
 21
30.8519093441
  0
LINE
  8
0
 62
7
  6
CONTINUOUS
 10
159.1128043074
 20
31.3681283946
 11
159.228429528
 21
31.2390736489
  0
LINE
  8
0
 62
7
  6
CONTINUOUS
 10
158.5924918074
 20
31.3681283946
 11
158.534679528
 21
31.4649194539
  0
LINE
  8
0
 62
7
  6
CONTINUOUS
 10
160.9628038663
 20
30.7873819712
 11
160.9628038663
 21
30.8519093441
  0
LINE
  8
0
 62
7
  6
CONTINUOUS
 10
160.9671844304
 20
32.3970785186
 11
160.9671844304
 21
36.1675703219
  0
LINE
  8
0
 62
7
  6
CONTINUOUS
 10
154.0253041972
 20
31.4971831403
 11
153.9674919177
 21
31.4326557675
  0
LINE
  8
0
 62
7
  6
CONTINUOUS
 10
150.9034292799
 20
31.4649194539
 11
151.0768668626
 21
31.400392081
  0
LINE
  8
0
 62
7
  6
CONTINUOUS
 10
155.6440543074
 20
31.4649194539
 11
155.5284290869
 21
31.5294468267
  0
LINE
  8
0
 62
7
  6
CONTINUOUS
 10
159.4596793074
 20
31.3036010218
 11
159.401867028
 21
31.3681283946
  0
LINE
  8
0
 62
7
  6
CONTINUOUS
 10
160.615929528
 20
30.9164367395
 11
160.6737418074
 21
30.8519093441
  0
LINE
  8
0
 62
7
  6
CONTINUOUS
 10
160.9628038663
 20
30.8519093441
 11
160.8471793074
 21
30.9809641124
  0
LINE
  8
0
 62
7
  6
CONTINUOUS
 10
160.615929528
 20
31.4326557675
 11
160.6737418074
 21
31.3681283946
  0
LINE
  8
0
 62
7
  6
CONTINUOUS
 10
160.9628038663
 20
31.3681283946
 11
160.8471793074
 21
31.4971831403
  0
LINE
  8
0
 62
7
  6
CONTINUOUS
 10
154.2565543074
 20
31.3681283946
 11
154.3143669177
 21
31.4326557675
  0
LINE
  8
0
 62
7
  6
CONTINUOUS
 10
154.0831168074
 20
31.1100188581
 11
153.9674919177
 21
30.9809641124
  0
LINE
  8
0
 62
7
  6
CONTINUOUS
 10
155.412804528
 20
30.9487004259
 11
155.3549915869
 21
30.8841730531
  0
LINE
  8
0
 62
7
  6
CONTINUOUS
 10
155.3549915869
 20
30.6905909007
 11
155.412804528
 21
30.7551182848
  0
LINE
  8
0
 62
7
  6
CONTINUOUS
 10
154.1987416972
 20
30.6583272086
 11
154.3143669177
 21
30.6260635193
  0
LINE
  8
0
 62
7
  6
CONTINUOUS
 10
151.1924917523
 20
31.5294468267
 11
150.9612418074
 21
31.5939741996
  0
LINE
  8
0
 62
7
  6
CONTINUOUS
 10
154.5456166972
 20
30.7228545871
 11
154.3143669177
 21
30.7873819712
  0
LINE
  8
0
 62
7
  6
CONTINUOUS
 10
153.2737419177
 20
31.5294468267
 11
153.1003044177
 21
31.5939741996
  0
LINE
  8
0
 62
7
  6
CONTINUOUS
 10
155.5284290869
 20
31.5294468267
 11
155.3549915869
 21
31.5939741996
  0
LINE
  8
0
 62
7
  6
CONTINUOUS
 10
158.187804528
 20
31.4326557675
 11
158.3034290869
 21
31.3681283946
  0
LINE
  8
0
 62
7
  6
CONTINUOUS
 10
158.534679528
 20
31.4649194539
 11
158.4190543074
 21
31.5294468267
  0
LINE
  8
0
 62
7
  6
CONTINUOUS
 10
150.0362418212
 20
30.6583272086
 11
150.2096793212
 21
30.6260635193
  0
LINE
  8
0
 62
7
  6
CONTINUOUS
 10
150.498741835
 20
30.7228545871
 11
150.1518667936
 21
30.7873819712
  0
LINE
  8
0
 62
7
  6
CONTINUOUS
 10
152.9268669177
 20
31.4649194539
 11
153.0424918074
 21
31.4326557675
  0
LINE
  8
0
 62
7
  6
CONTINUOUS
 10
155.239367028
 20
31.4649194539
 11
155.3549915869
 21
31.4326557675
  0
LINE
  8
0
 62
7
  6
CONTINUOUS
 10
159.575304528
 20
30.7551182848
 11
159.4596793074
 21
30.7873819712
  0
LINE
  8
0
 62
7
  6
CONTINUOUS
 10
158.0721793074
 20
31.4649194539
 11
158.187804528
 21
31.4326557675
  0
LINE
  8
0
 62
7
  6
CONTINUOUS
 10
159.228429528
 20
30.7228545871
 11
159.401867028
 21
30.6583272086
  0
LINE
  8
0
 62
7
  6
CONTINUOUS
 10
158.4190543074
 20
31.5294468267
 11
158.2456168074
 21
31.5939741996
  0
LINE
  8
0
 62
7
  6
CONTINUOUS
 10
159.6331168074
 20
31.2390736489
 11
159.4596793074
 21
31.3036010218
  0
LINE
  8
0
 62
7
  6
CONTINUOUS
 10
160.442492028
 20
30.9809641124
 11
160.615929528
 21
30.9164367395
  0
LINE
  8
0
 62
7
  6
CONTINUOUS
 10
160.8471793074
 20
31.4971831403
 11
160.6737418074
 21
31.5617105132
  0
LINE
  8
0
 62
7
  6
CONTINUOUS
 10
159.228429528
 20
31.2390736489
 11
159.4596793074
 21
31.1422825445
  0
LINE
  8
0
 62
7
  6
CONTINUOUS
 10
160.8471793074
 20
30.9809641124
 11
160.615929528
 21
31.0777551716
  0
LINE
  8
0
 62
7
  6
CONTINUOUS
 10
159.401867028
 20
31.3681283946
 11
159.4596793074
 21
31.4326557675
  0
LINE
  8
0
 62
7
  6
CONTINUOUS
 10
149.8628043005
 20
31.4971831403
 11
149.7471793074
 21
31.4326557675
  0
LINE
  8
0
 62
7
  6
CONTINUOUS
 10
149.9784292936
 20
31.3358647082
 11
150.1518667936
 21
31.4326557675
  0
LINE
  8
0
 62
7
  6
CONTINUOUS
 10
152.2909293626
 20
31.5294468267
 11
152.1753043074
 21
31.4649194539
  0
LINE
  8
0
 62
7
  6
CONTINUOUS
 10
152.1753043074
 20
31.3358647082
 11
152.2909293626
 21
31.400392081
  0
LINE
  8
0
 62
7
  6
CONTINUOUS
 10
151.1924917523
 20
30.6905909007
 11
151.3659292523
 21
30.7873819712
  0
LINE
  8
0
 62
7
  6
CONTINUOUS
 10
150.2096793212
 20
30.6260635193
 11
150.5565542799
 21
30.5937998301
  0
LINE
  8
0
 62
7
  6
CONTINUOUS
 10
154.3143669177
 20
30.6260635193
 11
154.5456166972
 21
30.5937998301
  0
LINE
  8
0
 62
7
  6
CONTINUOUS
 10
152.6956168074
 20
31.4971831403
 11
152.9268669177
 21
31.4649194539
  0
LINE
  8
0
 62
7
  6
CONTINUOUS
 10
155.0081169177
 20
31.4971831403
 11
155.239367028
 21
31.4649194539
  0
LINE
  8
0
 62
7
  6
CONTINUOUS
 10
159.4596793074
 20
31.1422825445
 11
160.442492028
 21
30.9809641124
  0
LINE
  8
0
 62
7
  6
CONTINUOUS
 10
160.615929528
 20
31.0777551716
 11
159.6331168074
 21
31.2390736489
  0
LINE
  8
0
 62
7
  6
CONTINUOUS
 10
153.1003044177
 20
31.5939741996
 11
152.9268669177
 21
31.626237886
  0
LINE
  8
0
 62
7
  6
CONTINUOUS
 10
159.401867028
 20
30.6583272086
 11
159.575304528
 21
30.6260635193
  0
LINE
  8
0
 62
7
  6
CONTINUOUS
 10
158.2456168074
 20
31.5939741996
 11
158.0721793074
 21
31.626237886
  0
LINE
  8
0
 62
7
  6
CONTINUOUS
 10
160.5003043074
 20
31.4649194539
 11
160.615929528
 21
31.4326557675
  0
LINE
  8
0
 62
7
  6
CONTINUOUS
 10
160.6737418074
 20
30.8519093441
 11
160.615929528
 21
30.7873819712
  0
LINE
  8
0
 62
7
  6
CONTINUOUS
 10
159.228429528
 20
31.5294468267
 11
159.1128043074
 21
31.4326557675
  0
LINE
  8
0
 62
7
  6
CONTINUOUS
 10
154.1409294177
 20
31.5617105132
 11
154.0253041972
 21
31.4971831403
  0
LINE
  8
0
 62
7
  6
CONTINUOUS
 10
154.1987416972
 20
31.1745462761
 11
154.0831168074
 21
31.1100188581
  0
LINE
  8
0
 62
7
  6
CONTINUOUS
 10
154.3143669177
 20
31.0132277988
 11
154.4299918074
 21
31.0777551716
  0
LINE
  8
0
 62
7
  6
CONTINUOUS
 10
151.8862417523
 20
30.5937998301
 11
152.1753043074
 21
30.5937998301
  0
LINE
  8
0
 62
7
  6
CONTINUOUS
 10
153.2159293074
 20
30.5937998301
 11
153.5049916972
 21
30.5937998301
  0
LINE
  8
0
 62
7
  6
CONTINUOUS
 10
154.5456166972
 20
30.5937998301
 11
154.8924916972
 21
30.5937998301
  0
LINE
  8
0
 62
7
  6
CONTINUOUS
 10
155.5284290869
 20
30.5937998301
 11
155.8174918074
 21
30.5937998301
  0
LINE
  8
0
 62
7
  6
CONTINUOUS
 10
156.279992028
 20
30.5937998301
 11
156.5690540869
 21
30.5937998301
  0
LINE
  8
0
 62
7
  6
CONTINUOUS
 10
157.0315543074
 20
30.5937998301
 11
157.320617028
 21
30.5937998301
  0
LINE
  8
0
 62
7
  6
CONTINUOUS
 10
158.361242028
 20
30.5937998301
 11
158.6503040869
 21
30.5937998301
  0
LINE
  8
0
 62
7
  6
CONTINUOUS
 10
159.922179528
 20
30.5937998301
 11
160.269054528
 21
30.5937998301
  0
LINE
  8
0
 62
7
  6
CONTINUOUS
 10
160.269054528
 20
30.7228545871
 11
159.922179528
 21
30.7228545871
  0
LINE
  8
0
 62
7
  6
CONTINUOUS
 10
154.8924916972
 20
30.7228545871
 11
154.5456166972
 21
30.7228545871
  0
LINE
  8
0
 62
7
  6
CONTINUOUS
 10
159.401867028
 20
30.8519093441
 11
159.1128043074
 21
30.8519093441
  0
LINE
  8
0
 62
7
  6
CONTINUOUS
 10
151.4237418626
 20
30.9164367395
 11
151.1346793074
 21
30.9164367395
  0
LINE
  8
0
 62
7
  6
CONTINUOUS
 10
150.498741835
 20
31.4971831403
 11
150.9034292799
 21
31.4649194539
  0
LINE
  8
0
 62
7
  6
CONTINUOUS
 10
150.9612418074
 20
31.5939741996
 11
150.5565542799
 21
31.626237886
  0
LINE
  8
0
 62
7
  6
CONTINUOUS
 10
159.575304528
 20
30.6260635193
 11
159.922179528
 21
30.5937998301
  0
LINE
  8
0
 62
7
  6
CONTINUOUS
 10
159.922179528
 20
30.7228545871
 11
159.575304528
 21
30.7551182848
  0
LINE
  8
0
 62
7
  6
CONTINUOUS
 10
155.3549915869
 20
31.5939741996
 11
155.0081169177
 21
31.626237886
  0
LINE
  8
0
 62
7
  6
CONTINUOUS
 10
160.1534293074
 20
31.4971831403
 11
160.5003043074
 21
31.4649194539
  0
LINE
  8
0
 62
7
  6
CONTINUOUS
 10
160.5003043074
 20
31.5939741996
 11
160.1534293074
 21
31.626237886
  0
LINE
  8
0
 62
7
  6
CONTINUOUS
 10
157.840929528
 20
31.4971831403
 11
158.0721793074
 21
31.4649194539
  0
LINE
  8
0
 62
7
  6
CONTINUOUS
 10
160.6737418074
 20
31.5617105132
 11
160.5003043074
 21
31.5939741996
  0
LINE
  8
0
 62
7
  6
CONTINUOUS
 10
160.8471793074
 20
30.6905909007
 11
160.9628038663
 21
30.7873819712
  0
LINE
  8
0
 62
7
  6
CONTINUOUS
 10
155.3549915869
 20
30.8841730531
 11
155.1815540869
 21
30.7873819712
  0
LINE
  8
0
 62
7
  6
CONTINUOUS
 10
157.4362415869
 20
31.5294468267
 11
157.320617028
 21
31.4649194539
  0
LINE
  8
0
 62
7
  6
CONTINUOUS
 10
157.320617028
 20
31.3358647082
 11
157.4362415869
 21
31.400392081
  0
LINE
  8
0
 62
7
  6
CONTINUOUS
 10
150.0362418212
 20
31.5617105132
 11
149.8628043005
 21
31.4971831403
  0
LINE
  8
0
 62
7
  6
CONTINUOUS
 10
152.4643666972
 20
31.5939741996
 11
152.2909293626
 21
31.5294468267
  0
LINE
  8
0
 62
7
  6
CONTINUOUS
 10
152.2909293626
 20
31.400392081
 11
152.4643666972
 21
31.4649194539
  0
LINE
  8
0
 62
7
  6
CONTINUOUS
 10
151.0768668626
 20
30.8196456577
 11
150.9034292799
 21
30.7551182848
  0
LINE
  8
0
 62
7
  6
CONTINUOUS
 10
160.5003043074
 20
30.7551182848
 11
160.269054528
 21
30.7228545871
  0
LINE
  8
0
 62
7
  6
CONTINUOUS
 10
154.8924916972
 20
30.5937998301
 11
155.1815540869
 21
30.6260635193
  0
LINE
  8
0
 62
7
  6
CONTINUOUS
 10
160.269054528
 20
30.5937998301
 11
160.615929528
 21
30.6260635193
  0
LINE
  8
0
 62
7
  6
CONTINUOUS
 10
150.5565542799
 20
30.5937998301
 11
150.9612418074
 21
30.6260635193
  0
LINE
  8
0
 62
7
  6
CONTINUOUS
 10
150.9034292799
 20
30.7551182848
 11
150.498741835
 21
30.7228545871
  0
LINE
  8
0
 62
7
  6
CONTINUOUS
 10
154.7768668074
 20
31.1422825445
 11
155.412804528
 21
31.1422825445
  0
LINE
  8
0
 62
7
  6
CONTINUOUS
 10
155.412804528
 20
31.2713373354
 11
154.7768668074
 21
31.2713373354
  0
LINE
  8
0
 62
7
  6
CONTINUOUS
 10
151.1346793074
 20
31.3036010218
 11
151.4237418626
 21
31.3036010218
  0
LINE
  8
0
 62
7
  6
CONTINUOUS
 10
153.9674919177
 20
31.3681283946
 11
154.2565543074
 21
31.3681283946
  0
LINE
  8
0
 62
7
  6
CONTINUOUS
 10
160.6737418074
 20
31.3681283946
 11
160.9628038663
 21
31.3681283946
  0
LINE
  8
0
 62
7
  6
CONTINUOUS
 10
154.6612419177
 20
31.4971831403
 11
155.0081169177
 21
31.4971831403
  0
LINE
  8
0
 62
7
  6
CONTINUOUS
 10
159.8065543074
 20
31.4971831403
 11
160.1534293074
 21
31.4971831403
  0
LINE
  8
0
 62
7
  6
CONTINUOUS
 10
160.1534293074
 20
31.626237886
 11
159.8065543074
 21
31.626237886
  0
LINE
  8
0
 62
7
  6
CONTINUOUS
 10
158.0721793074
 20
31.626237886
 11
157.840929528
 21
31.626237886
  0
LINE
  8
0
 62
7
  6
CONTINUOUS
 10
157.320617028
 20
31.626237886
 11
157.0315543074
 21
31.626237886
  0
LINE
  8
0
 62
7
  6
CONTINUOUS
 10
156.5690540869
 20
31.626237886
 11
156.279992028
 21
31.626237886
  0
LINE
  8
0
 62
7
  6
CONTINUOUS
 10
155.0081169177
 20
31.626237886
 11
154.6612419177
 21
31.626237886
  0
LINE
  8
0
 62
7
  6
CONTINUOUS
 10
152.9268669177
 20
31.626237886
 11
152.6956168074
 21
31.626237886
  0
LINE
  8
0
 62
7
  6
CONTINUOUS
 10
156.279992028
 20
31.9488748406
 11
156.5690540869
 21
31.9488748406
  0
LINE
  8
0
 62
7
  6
CONTINUOUS
 10
156.5690540869
 20
32.1101932727
 11
156.279992028
 21
32.1101932727
  0
LINE
  8
0
 62
7
  6
CONTINUOUS
 10
152.1753043074
 20
32.1101932727
 11
151.8862417523
 21
32.1101932727
  0
LINE
  8
0
 62
7
  6
CONTINUOUS
 10
151.2130860697
 20
32.3970785186
 11
151.6256574183
 21
32.3970785186
  0
LINE
  8
0
 62
7
  6
CONTINUOUS
 10
152.852430332
 20
32.3970785186
 11
154.245872955
 21
32.3970785186
  0
LINE
  8
0
 62
7
  6
CONTINUOUS
 10
154.5737418074
 20
32.3970785186
 11
155.9671844304
 21
32.3970785186
  0
LINE
  8
0
 62
7
  6
CONTINUOUS
 10
157.852430332
 20
32.3970785186
 11
159.245872955
 21
32.3970785186
  0
LINE
  8
0
 62
7
  6
CONTINUOUS
 10
159.5737418074
 20
32.3970785186
 11
160.9671844304
 21
32.3970785186
  0
LINE
  8
0
 62
7
  6
CONTINUOUS
 10
157.6096790869
 20
31.5939741996
 11
157.4362415869
 21
31.5294468267
  0
LINE
  8
0
 62
7
  6
CONTINUOUS
 10
155.1815540869
 20
30.6260635193
 11
155.3549915869
 21
30.6905909007
  0
LINE
  8
0
 62
7
  6
CONTINUOUS
 10
160.615929528
 20
30.6260635193
 11
160.8471793074
 21
30.6905909007
  0
LINE
  8
0
 62
7
  6
CONTINUOUS
 10
160.615929528
 20
30.7873819712
 11
160.5003043074
 21
30.7551182848
  0
LINE
  8
0
 62
7
  6
CONTINUOUS
 10
159.575304528
 20
31.4649194539
 11
159.8065543074
 21
31.4971831403
  0
LINE
  8
0
 62
7
  6
CONTINUOUS
 10
157.6096790869
 20
31.4649194539
 11
157.840929528
 21
31.4971831403
  0
LINE
  8
0
 62
7
  6
CONTINUOUS
 10
154.5456166972
 20
31.1100188581
 11
154.7768668074
 21
31.1422825445
  0
LINE
  8
0
 62
7
  6
CONTINUOUS
 10
157.840929528
 20
31.626237886
 11
157.6096790869
 21
31.5939741996
  0
LINE
  8
0
 62
7
  6
CONTINUOUS
 10
154.4299918074
 20
31.4649194539
 11
154.6612419177
 21
31.4971831403
  0
LINE
  8
0
 62
7
  6
CONTINUOUS
 10
159.8065543074
 20
31.626237886
 11
159.4596793074
 21
31.5939741996
  0
LINE
  8
0
 62
7
  6
CONTINUOUS
 10
154.7768668074
 20
31.2713373354
 11
154.4299918074
 21
31.2390736489
  0
LINE
  8
0
 62
7
  6
CONTINUOUS
 10
150.5565542799
 20
31.626237886
 11
150.2096793212
 21
31.5939741996
  0
LINE
  8
0
 62
7
  6
CONTINUOUS
 10
154.6612419177
 20
31.626237886
 11
154.2565543074
 21
31.5939741996
  0
LINE
  8
0
 62
7
  6
CONTINUOUS
 10
152.0327582009
 20
33.5446195022
 11
151.3770204959
 21
33.5446195022
  0
LINE
  8
0
 62
7
  6
CONTINUOUS
 10
157.4362415869
 20
31.400392081
 11
157.6096790869
 21
31.4649194539
  0
LINE
  8
0
 62
7
  6
CONTINUOUS
 10
159.4596793074
 20
31.4326557675
 11
159.575304528
 21
31.4649194539
  0
LINE
  8
0
 62
7
  6
CONTINUOUS
 10
159.4596793074
 20
31.5939741996
 11
159.228429528
 21
31.5294468267
  0
LINE
  8
0
 62
7
  6
CONTINUOUS
 10
155.1815540869
 20
30.7873819712
 11
154.8924916972
 21
30.7228545871
  0
LINE
  8
0
 62
7
  6
CONTINUOUS
 10
152.4643666972
 20
31.4649194539
 11
152.6956168074
 21
31.4971831403
  0
LINE
  8
0
 62
7
  6
CONTINUOUS
 10
152.6956168074
 20
31.626237886
 11
152.4643666972
 21
31.5939741996
  0
LINE
  8
0
 62
7
  6
CONTINUOUS
 10
150.2674918074
 20
31.4649194539
 11
150.498741835
 21
31.4971831403
  0
LINE
  8
0
 62
7
  6
CONTINUOUS
 10
156.7868565615
 20
35.0200293383
 11
157.4425942664
 21
35.0200293383
  0
LINE
  8
0
 62
7
  6
CONTINUOUS
 10
154.4299918074
 20
31.0777551716
 11
154.5456166972
 21
31.1100188581
  0
LINE
  8
0
 62
7
  6
CONTINUOUS
 10
154.4299918074
 20
31.2390736489
 11
154.1987416972
 21
31.1745462761
  0
LINE
  8
0
 62
7
  6
CONTINUOUS
 10
154.3143669177
 20
31.4326557675
 11
154.4299918074
 21
31.4649194539
  0
LINE
  8
0
 62
7
  6
CONTINUOUS
 10
150.9612418074
 20
30.6260635193
 11
151.1924917523
 21
30.6905909007
  0
LINE
  8
0
 62
7
  6
CONTINUOUS
 10
154.2565543074
 20
31.5939741996
 11
154.1409294177
 21
31.5617105132
  0
LINE
  8
0
 62
7
  6
CONTINUOUS
 10
150.2096793212
 20
31.5939741996
 11
150.0362418212
 21
31.5617105132
  0
LINE
  8
0
 62
7
  6
CONTINUOUS
 10
160.9671844304
 20
36.1675703219
 11
159.5737418074
 21
36.1675703219
  0
LINE
  8
0
 62
7
  6
CONTINUOUS
 10
157.6065286927
 20
36.1675703219
 11
157.1939573441
 21
36.1675703219
  0
LINE
  8
0
 62
7
  6
CONTINUOUS
 10
155.9671844304
 20
36.1675703219
 11
154.5737418074
 21
36.1675703219
  0
LINE
  8
0
 62
7
  6
CONTINUOUS
 10
154.245872955
 20
36.1675703219
 11
152.852430332
 21
36.1675703219
  0
LINE
  8
0
 62
7
  6
CONTINUOUS
 10
150.9671844304
 20
36.1675703219
 11
149.5737418074
 21
36.1675703219
  0
LINE
  8
0
 62
7
  6
CONTINUOUS
 10
150.1518667936
 20
31.4326557675
 11
150.2674918074
 21
31.4649194539
  0
CIRCLE
  8
0
 62
7
  6
CONTINUOUS
 10
160.2704631189
 20
38.5036358957
 40
2.0901639344
  0
ARC
  8
0
 62
7
  6
CONTINUOUS
 10
151.2130860697
 20
34.0364227809
 40
1.6393442623
 50
180.0
 51
270.0
  0
ARC
  8
0
 62
7
  6
CONTINUOUS
 10
157.6065286927
 20
34.5282260596
 40
1.6393442623
 50
0.0
 51
90.0
  0
ARC
  8
0
 62
7
  6
CONTINUOUS
 10
151.6256574183
 20
33.8724883547
 40
1.4754098361
 50
270.0
 51
326.2510114041
  0
ARC
  8
0
 62
7
  6
CONTINUOUS
 10
157.1939573441
 20
34.6921604858
 40
1.4754098361
 50
90.0
 51
146.2510114041
  0
ARC
  8
0
 62
7
  6
CONTINUOUS
 10
152.0327582009
 20
34.3642916334
 40
0.8196721311
 50
270.0
 51
360.0
  0
ARC
  8
0
 62
7
  6
CONTINUOUS
 10
156.7868565615
 20
34.2003572071
 40
0.8196721311
 50
90.0
 51
180.0
  0
ARC
  8
0
 62
7
  6
CONTINUOUS
 10
151.3770204959
 20
33.9544555678
 40
0.4098360656
 50
180.0
 51
270.0
  0
ARC
  8
0
 62
7
  6
CONTINUOUS
 10
157.4425942664
 20
34.6101932727
 40
0.4098360656
 50
0.0
 51
90.0
  0
SOLID
  8
0
 62
7
  6
CONTINUOUS
 10
156.279992028
 20
31.9488752009
 11
156.279992028
 21
32.1101936845
 12
156.5690540869
 22
31.9488752009
 13
156.5690540869
 23
32.1101936845
  0
SOLID
  8
0
 62
7
  6
CONTINUOUS
 10
150.5565542799
 20
31.6262382337
 11
150.9612418074
 21
31.5939740028
 12
150.2096793212
 22
31.5939740028
 13
150.2096793212
 23
31.5939740028
  0
SOLID
  8
0
 62
7
  6
CONTINUOUS
 10
150.0362418212
 20
31.5617111435
 11
150.2096793212
 21
31.5939740028
 12
150.9612418074
 22
31.5939740028
 13
150.9612418074
 23
31.5939740028
  0
SOLID
  8
0
 62
7
  6
CONTINUOUS
 10
150.9612418074
 20
31.5939740028
 11
151.1924917523
 21
31.5294468402
 12
150.0362418212
 22
31.5617111435
 13
150.0362418212
 23
31.5617111435
  0
SOLID
  8
0
 62
7
  6
CONTINUOUS
 10
149.8628043005
 20
31.49718259
 11
150.0362418212
 21
31.5617111435
 12
151.1924917523
 22
31.5294468402
 13
151.1924917523
 23
31.5294468402
  0
SOLID
  8
0
 62
7
  6
CONTINUOUS
 10
149.8628043005
 20
31.49718259
 11
151.1924917523
 21
31.5294468402
 12
150.498741835
 22
31.49718259
 13
150.498741835
 23
31.49718259
  0
SOLID
  8
0
 62
7
  6
CONTINUOUS
 10
150.498741835
 20
31.49718259
 11
151.1924917523
 21
31.5294468402
 12
150.9034292799
 22
31.4649197501
 13
150.9034292799
 23
31.4649197501
  0
SOLID
  8
0
 62
7
  6
CONTINUOUS
 10
151.1924917523
 20
31.5294468402
 11
151.3659292523
 21
31.4326554468
 12
150.9034292799
 22
31.4649197501
 13
150.9034292799
 23
31.4649197501
  0
SOLID
  8
0
 62
7
  6
CONTINUOUS
 10
151.0768668626
 20
31.4003926599
 11
150.9034292799
 21
31.4649197501
 12
151.3659292523
 22
31.4326554468
 13
151.3659292523
 23
31.4326554468
  0
SOLID
  8
0
 62
7
  6
CONTINUOUS
 10
151.0768668626
 20
31.4003926599
 11
151.3659292523
 21
31.4326554468
 12
151.1346793074
 22
31.3036013776
 13
151.1346793074
 23
31.3036013776
  0
SOLID
  8
0
 62
7
  6
CONTINUOUS
 10
151.3659292523
 20
31.4326554468
 11
151.4237418626
 21
31.3036013776
 12
151.1346793074
 22
31.3036013776
 13
151.1346793074
 23
31.3036013776
  0
SOLID
  8
0
 62
7
  6
CONTINUOUS
 10
152.4643666972
 20
31.5939739754
 11
152.6956168074
 21
31.6262382787
 12
152.9268669177
 22
31.6262382787
 13
152.9268669177
 23
31.6262382787
  0
SOLID
  8
0
 62
7
  6
CONTINUOUS
 10
152.9268669177
 20
31.6262382787
 11
153.1003044177
 21
31.5939739754
 12
152.4643666972
 22
31.5939739754
 13
152.4643666972
 23
31.5939739754
  0
SOLID
  8
0
 62
7
  6
CONTINUOUS
 10
152.2909293626
 20
31.5294468852
 11
152.4643666972
 21
31.5939739754
 12
153.1003044177
 22
31.5939739754
 13
153.1003044177
 23
31.5939739754
  0
SOLID
  8
0
 62
7
  6
CONTINUOUS
 10
153.1003044177
 20
31.5939739754
 11
153.2737419177
 21
31.5294468852
 12
152.2909293626
 22
31.5294468852
 13
152.2909293626
 23
31.5294468852
  0
SOLID
  8
0
 62
7
  6
CONTINUOUS
 10
153.2737419177
 20
31.5294468852
 11
152.6956168074
 21
31.4971825369
 12
152.2909293626
 22
31.5294468852
 13
152.2909293626
 23
31.5294468852
  0
SOLID
  8
0
 62
7
  6
CONTINUOUS
 10
152.1753043074
 20
31.4649197951
 11
152.2909293626
 21
31.5294468852
 12
152.6956168074
 22
31.4971825369
 13
152.6956168074
 23
31.4971825369
  0
SOLID
  8
0
 62
7
  6
CONTINUOUS
 10
152.6956168074
 20
31.4971825369
 11
152.4643666972
 21
31.4649197951
 12
152.1753043074
 22
31.4649197951
 13
152.1753043074
 23
31.4649197951
  0
SOLID
  8
0
 62
7
  6
CONTINUOUS
 10
152.6956168074
 20
31.4971825369
 11
153.2737419177
 21
31.5294468852
 12
152.9268669177
 22
31.4649197951
 13
152.9268669177
 23
31.4649197951
  0
SOLID
  8
0
 62
7
  6
CONTINUOUS
 10
153.2737419177
 20
31.5294468852
 11
153.3893668074
 21
31.4649197951
 12
152.9268669177
 22
31.4649197951
 13
152.9268669177
 23
31.4649197951
  0
SOLID
  8
0
 62
7
  6
CONTINUOUS
 10
153.0424918074
 20
31.4326554468
 11
152.9268669177
 21
31.4649197951
 12
153.3893668074
 22
31.4649197951
 13
153.3893668074
 23
31.4649197951
  0
SOLID
  8
0
 62
7
  6
CONTINUOUS
 10
153.3893668074
 20
31.4649197951
 11
153.4471794177
 21
31.4003927049
 12
153.0424918074
 22
31.4326554468
 13
153.0424918074
 23
31.4326554468
  0
SOLID
  8
0
 62
7
  6
CONTINUOUS
 10
153.1581166972
 20
31.3681283566
 11
153.0424918074
 21
31.4326554468
 12
153.4471794177
 22
31.4003927049
 13
153.4471794177
 23
31.4003927049
  0
SOLID
  8
0
 62
7
  6
CONTINUOUS
 10
153.1581166972
 20
31.3681283566
 11
153.4471794177
 21
31.4003927049
 12
153.2159293074
 22
31.2390742213
 13
153.2159293074
 23
31.2390742213
  0
SOLID
  8
0
 62
7
  6
CONTINUOUS
 10
153.4471794177
 20
31.4003927049
 11
153.5049916972
 21
31.2390742213
 12
153.2159293074
 22
31.2390742213
 13
153.2159293074
 23
31.2390742213
  0
SOLID
  8
0
 62
7
  6
CONTINUOUS
 10
152.4643666972
 20
31.4649197951
 11
152.2909293626
 21
31.4003927049
 12
152.1753043074
 22
31.4649197951
 13
152.1753043074
 23
31.4649197951
  0
SOLID
  8
0
 62
7
  6
CONTINUOUS
 10
152.2909293626
 20
31.4003927049
 11
152.1753043074
 21
31.3358640533
 12
152.1753043074
 22
31.4649197951
 13
152.1753043074
 23
31.4649197951
  0
SOLID
  8
0
 62
7
  6
CONTINUOUS
 10
152.1753043074
 20
31.3358640533
 11
151.8862417523
 21
30.5938002869
 12
152.1753043074
 22
31.4649197951
 13
152.1753043074
 23
31.4649197951
  0
SOLID
  8
0
 62
7
  6
CONTINUOUS
 10
152.1753043074
 20
31.4649197951
 11
151.8862417523
 21
30.5938002869
 12
152.1753043074
 22
32.1101937295
 13
152.1753043074
 23
32.1101937295
  0
SOLID
  8
0
 62
7
  6
CONTINUOUS
 10
151.8862417523
 20
30.5938002869
 11
151.8862417523
 21
32.1101937295
 12
152.1753043074
 22
32.1101937295
 13
152.1753043074
 23
32.1101937295
  0
SOLID
  8
0
 62
7
  6
CONTINUOUS
 10
152.1753043074
 20
31.3358640533
 11
152.1753043074
 21
30.5938002869
 12
151.8862417523
 22
30.5938002869
 13
151.8862417523
 23
30.5938002869
  0
SOLID
  8
0
 62
7
  6
CONTINUOUS
 10
153.2159293074
 20
30.5938002869
 11
153.2159293074
 21
31.2390742213
 12
153.5049916972
 22
31.2390742213
 13
153.5049916972
 23
31.2390742213
  0
SOLID
  8
0
 62
7
  6
CONTINUOUS
 10
153.5049916972
 20
31.2390742213
 11
153.5049916972
 21
30.5938002869
 12
153.2159293074
 22
30.5938002869
 13
153.2159293074
 23
30.5938002869
  0
SOLID
  8
0
 62
7
  6
CONTINUOUS
 10
154.2565543074
 20
31.5939738288
 11
154.6612419177
 21
31.6262385959
 12
155.0081169177
 22
31.6262385959
 13
155.0081169177
 23
31.6262385959
  0
SOLID
  8
0
 62
7
  6
CONTINUOUS
 10
155.0081169177
 20
31.6262385959
 11
155.3549915869
 21
31.5939738288
 12
154.2565543074
 22
31.5939738288
 13
154.2565543074
 23
31.5939738288
  0
SOLID
  8
0
 62
7
  6
CONTINUOUS
 10
154.1409294177
 20
31.5617111435
 11
154.2565543074
 21
31.5939738288
 12
155.3549915869
 22
31.5939738288
 13
155.3549915869
 23
31.5939738288
  0
SOLID
  8
0
 62
7
  6
CONTINUOUS
 10
155.3549915869
 20
31.5939738288
 11
155.5284290869
 21
31.5294468402
 12
154.1409294177
 22
31.5617111435
 13
154.1409294177
 23
31.5617111435
  0
SOLID
  8
0
 62
7
  6
CONTINUOUS
 10
154.0253041972
 20
31.4971826249
 11
154.1409294177
 21
31.5617111435
 12
155.5284290869
 22
31.5294468402
 13
155.5284290869
 23
31.5294468402
  0
SOLID
  8
0
 62
7
  6
CONTINUOUS
 10
154.0253041972
 20
31.4971826249
 11
155.5284290869
 21
31.5294468402
 12
154.6612419177
 22
31.4971826249
 13
154.6612419177
 23
31.4971826249
  0
SOLID
  8
0
 62
7
  6
CONTINUOUS
 10
154.6612419177
 20
31.4971826249
 11
155.5284290869
 21
31.5294468402
 12
155.0081169177
 22
31.4971826249
 13
155.0081169177
 23
31.4971826249
  0
SOLID
  8
0
 62
7
  6
CONTINUOUS
 10
155.0081169177
 20
31.4971826249
 11
155.5284290869
 21
31.5294468402
 12
155.239367028
 22
31.4649194065
 13
155.239367028
 23
31.4649194065
  0
SOLID
  8
0
 62
7
  6
CONTINUOUS
 10
155.5284290869
 20
31.5294468402
 11
155.6440543074
 21
31.4649194065
 12
155.239367028
 22
31.4649194065
 13
155.239367028
 23
31.4649194065
  0
SOLID
  8
0
 62
7
  6
CONTINUOUS
 10
153.9674919177
 20
31.4326554138
 11
154.0253041972
 21
31.4971826249
 12
154.6612419177
 22
31.4971826249
 13
154.6612419177
 23
31.4971826249
  0
SOLID
  8
0
 62
7
  6
CONTINUOUS
 10
155.3549915869
 20
31.4326554138
 11
155.239367028
 21
31.4649194065
 12
155.6440543074
 22
31.4649194065
 13
155.6440543074
 23
31.4649194065
  0
SOLID
  8
0
 62
7
  6
CONTINUOUS
 10
155.3549915869
 20
31.4326554138
 11
155.6440543074
 21
31.4649194065
 12
155.412804528
 22
31.3681282026
 13
155.412804528
 23
31.3681282026
  0
SOLID
  8
0
 62
7
  6
CONTINUOUS
 10
155.6440543074
 20
31.4649194065
 11
155.7018665869
 21
31.3681282026
 12
155.412804528
 22
31.3681282026
 13
155.412804528
 23
31.3681282026
  0
SOLID
  8
0
 62
7
  6
CONTINUOUS
 10
155.412804528
 20
31.2713369632
 11
155.412804528
 21
31.3681282026
 12
155.7018665869
 22
31.3681282026
 13
155.7018665869
 23
31.3681282026
  0
SOLID
  8
0
 62
7
  6
CONTINUOUS
 10
155.412804528
 20
31.2713369632
 11
155.7018665869
 21
31.3681282026
 12
155.412804528
 22
31.1422827828
 13
155.412804528
 23
31.1422827828
  0
SOLID
  8
0
 62
7
  6
CONTINUOUS
 10
155.412804528
 20
31.1422827828
 11
155.7018665869
 21
31.3681282026
 12
155.412804528
 22
30.9487004259
 13
155.412804528
 23
30.9487004259
  0
SOLID
  8
0
 62
7
  6
CONTINUOUS
 10
155.7018665869
 20
31.3681282026
 11
155.7018665869
 21
30.8519086025
 12
155.412804528
 22
30.9487004259
 13
155.412804528
 23
30.9487004259
  0
SOLID
  8
0
 62
7
  6
CONTINUOUS
 10
157.6096790869
 20
31.5939736268
 11
157.840929528
 21
31.6262383465
 12
158.0721793074
 22
31.6262383465
 13
158.0721793074
 23
31.6262383465
  0
SOLID
  8
0
 62
7
  6
CONTINUOUS
 10
158.0721793074
 20
31.6262383465
 11
158.2456168074
 21
31.5939736268
 12
157.6096790869
 22
31.5939736268
 13
157.6096790869
 23
31.5939736268
  0
SOLID
  8
0
 62
7
  6
CONTINUOUS
 10
157.4362415869
 20
31.5294472848
 11
157.6096790869
 21
31.5939736268
 12
158.2456168074
 22
31.5939736268
 13
158.2456168074
 23
31.5939736268
  0
SOLID
  8
0
 62
7
  6
CONTINUOUS
 10
158.2456168074
 20
31.5939736268
 11
158.4190543074
 21
31.5294472848
 12
157.4362415869
 22
31.5294472848
 13
157.4362415869
 23
31.5294472848
  0
SOLID
  8
0
 62
7
  6
CONTINUOUS
 10
158.4190543074
 20
31.5294472848
 11
157.840929528
 21
31.4971825369
 12
157.4362415869
 22
31.5294472848
 13
157.4362415869
 23
31.5294472848
  0
SOLID
  8
0
 62
7
  6
CONTINUOUS
 10
157.320617028
 20
31.4649199103
 11
157.4362415869
 21
31.5294472848
 12
157.840929528
 22
31.4971825369
 13
157.840929528
 23
31.4971825369
  0
SOLID
  8
0
 62
7
  6
CONTINUOUS
 10
157.840929528
 20
31.4971825369
 11
157.6096790869
 21
31.4649199103
 12
157.320617028
 22
31.4649199103
 13
157.320617028
 23
31.4649199103
  0
SOLID
  8
0
 62
7
  6
CONTINUOUS
 10
157.840929528
 20
31.4971825369
 11
158.4190543074
 21
31.5294472848
 12
158.0721793074
 22
31.4649199103
 13
158.0721793074
 23
31.4649199103
  0
SOLID
  8
0
 62
7
  6
CONTINUOUS
 10
158.4190543074
 20
31.5294472848
 11
158.534679528
 21
31.4649199103
 12
158.0721793074
 22
31.4649199103
 13
158.0721793074
 23
31.4649199103
  0
SOLID
  8
0
 62
7
  6
CONTINUOUS
 10
158.187804528
 20
31.4326554468
 11
158.0721793074
 21
31.4649199103
 12
158.534679528
 22
31.4649199103
 13
158.534679528
 23
31.4649199103
  0
SOLID
  8
0
 62
7
  6
CONTINUOUS
 10
158.187804528
 20
31.4326554468
 11
158.534679528
 21
31.4649199103
 12
158.3034290869
 22
31.3681288486
 13
158.3034290869
 23
31.3681288486
  0
SOLID
  8
0
 62
7
  6
CONTINUOUS
 10
158.534679528
 20
31.4649199103
 11
158.5924918074
 21
31.3681288486
 12
158.3034290869
 22
31.3681288486
 13
158.3034290869
 23
31.3681288486
  0
SOLID
  8
0
 62
7
  6
CONTINUOUS
 10
158.361242028
 20
31.2068093799
 11
158.3034290869
 21
31.3681288486
 12
158.5924918074
 22
31.3681288486
 13
158.5924918074
 23
31.3681288486
  0
SOLID
  8
0
 62
7
  6
CONTINUOUS
 10
158.5924918074
 20
31.3681288486
 11
158.6503040869
 21
31.2068093799
 12
158.361242028
 22
31.2068093799
 13
158.361242028
 23
31.2068093799
  0
SOLID
  8
0
 62
7
  6
CONTINUOUS
 10
157.6096790869
 20
31.4649199103
 11
157.4362415869
 21
31.4003926599
 12
157.320617028
 22
31.4649199103
 13
157.320617028
 23
31.4649199103
  0
SOLID
  8
0
 62
7
  6
CONTINUOUS
 10
157.4362415869
 20
31.4003926599
 11
157.320617028
 21
31.3358640533
 12
157.320617028
 22
31.4649199103
 13
157.320617028
 23
31.4649199103
  0
SOLID
  8
0
 62
7
  6
CONTINUOUS
 10
157.320617028
 20
31.3358640533
 11
157.0315543074
 21
30.5938003547
 12
157.320617028
 22
31.4649199103
 13
157.320617028
 23
31.4649199103
  0
SOLID
  8
0
 62
7
  6
CONTINUOUS
 10
157.320617028
 20
31.4649199103
 11
157.0315543074
 21
30.5938003547
 12
157.320617028
 22
31.6262383465
 13
157.320617028
 23
31.6262383465
  0
SOLID
  8
0
 62
7
  6
CONTINUOUS
 10
157.0315543074
 20
30.5938003547
 11
157.0315543074
 21
31.6262383465
 12
157.320617028
 22
31.6262383465
 13
157.320617028
 23
31.6262383465
  0
SOLID
  8
0
 62
7
  6
CONTINUOUS
 10
157.320617028
 20
31.3358640533
 11
157.320617028
 21
30.5938003547
 12
157.0315543074
 22
30.5938003547
 13
157.0315543074
 23
30.5938003547
  0
SOLID
  8
0
 62
7
  6
CONTINUOUS
 10
158.361242028
 20
30.5938003547
 11
158.361242028
 21
31.2068093799
 12
158.6503040869
 22
31.2068093799
 13
158.6503040869
 23
31.2068093799
  0
SOLID
  8
0
 62
7
  6
CONTINUOUS
 10
158.6503040869
 20
31.2068093799
 11
158.6503040869
 21
30.5938003547
 12
158.361242028
 22
30.5938003547
 13
158.361242028
 23
30.5938003547
  0
SOLID
  8
0
 62
7
  6
CONTINUOUS
 10
159.4596793074
 20
31.5939739474
 11
159.8065543074
 21
31.6262381969
 12
160.1534293074
 22
31.6262381969
 13
160.1534293074
 23
31.6262381969
  0
SOLID
  8
0
 62
7
  6
CONTINUOUS
 10
160.1534293074
 20
31.6262381969
 11
160.5003043074
 21
31.5939739474
 12
159.4596793074
 22
31.5939739474
 13
159.4596793074
 23
31.5939739474
  0
SOLID
  8
0
 62
7
  6
CONTINUOUS
 10
159.228429528
 20
31.5294468402
 11
159.4596793074
 21
31.5939739474
 12
160.5003043074
 22
31.5939739474
 13
160.5003043074
 23
31.5939739474
  0
SOLID
  8
0
 62
7
  6
CONTINUOUS
 10
159.228429528
 20
31.5294468402
 11
160.5003043074
 21
31.5939739304
 12
160.6737418074
 22
31.5617111435
 13
160.6737418074
 23
31.5617111435
  0
SOLID
  8
0
 62
7
  6
CONTINUOUS
 10
159.228429528
 20
31.5294468402
 11
160.6737418074
 21
31.5617111435
 12
159.8065543074
 22
31.4971825592
 13
159.8065543074
 23
31.4971825592
  0
SOLID
  8
0
 62
7
  6
CONTINUOUS
 10
159.8065543074
 20
31.4971825592
 11
160.6737418074
 21
31.5617111435
 12
160.1534293074
 22
31.4971825592
 13
160.1534293074
 23
31.4971825592
  0
SOLID
  8
0
 62
7
  6
CONTINUOUS
 10
160.6737418074
 20
31.5617111435
 11
160.8471793074
 21
31.4971825592
 12
160.1534293074
 22
31.4971825592
 13
160.1534293074
 23
31.4971825592
  0
SOLID
  8
0
 62
7
  6
CONTINUOUS
 10
160.5003043074
 20
31.4649197501
 11
160.1534293074
 21
31.4971825592
 12
160.8471793074
 22
31.4971825592
 13
160.8471793074
 23
31.4971825592
  0
SOLID
  8
0
 62
7
  6
CONTINUOUS
 10
159.1128043074
 20
31.4326555427
 11
159.228429528
 21
31.5294468402
 12
159.8065543074
 22
31.4971825592
 13
159.8065543074
 23
31.4971825592
  0
SOLID
  8
0
 62
7
  6
CONTINUOUS
 10
160.5003043074
 20
31.4649197501
 11
160.8471793074
 21
31.4971825592
 12
160.615929528
 22
31.4326555427
 13
160.615929528
 23
31.4326555427
  0
SOLID
  8
0
 62
7
  6
CONTINUOUS
 10
160.615929528
 20
31.4326555427
 11
160.8471793074
 21
31.4971825592
 12
160.6737418074
 22
31.3681283005
 13
160.6737418074
 23
31.3681283005
  0
SOLID
  8
0
 62
7
  6
CONTINUOUS
 10
160.8471793074
 20
31.4971825592
 11
160.9628038663
 21
31.3681283005
 12
160.6737418074
 22
31.3681283005
 13
160.6737418074
 23
31.3681283005
  0
SOLID
  8
0
 62
7
  6
CONTINUOUS
 10
150.2674918074
 20
31.4649197501
 11
149.7471793074
 21
31.4326554237
 12
150.498741835
 22
31.4971824493
 13
150.498741835
 23
31.4971824493
  0
SOLID
  8
0
 62
7
  6
CONTINUOUS
 10
149.7471793074
 20
31.4326554237
 11
149.8628043005
 21
31.4971824493
 12
150.498741835
 22
31.4971824493
 13
150.498741835
 23
31.4971824493
  0
SOLID
  8
0
 62
7
  6
CONTINUOUS
 10
150.2674918074
 20
31.4649197501
 11
150.1518667936
 21
31.4326554237
 12
149.7471793074
 22
31.4326554237
 13
149.7471793074
 23
31.4326554237
  0
SOLID
  8
0
 62
7
  6
CONTINUOUS
 10
149.6315543091
 20
31.3036012664
 11
149.7471793074
 21
31.4326554237
 12
150.1518667936
 22
31.4326554237
 13
150.1518667936
 23
31.4326554237
  0
SOLID
  8
0
 62
7
  6
CONTINUOUS
 10
153.9674919177
 20
31.4326554237
 11
154.6612419177
 21
31.4971825369
 12
154.4299918074
 22
31.4649197501
 13
154.4299918074
 23
31.4649197501
  0
SOLID
  8
0
 62
7
  6
CONTINUOUS
 10
154.4299918074
 20
31.4649197501
 11
154.3143669177
 21
31.4326554237
 12
153.9674919177
 22
31.4326554237
 13
153.9674919177
 23
31.4326554237
  0
SOLID
  8
0
 62
7
  6
CONTINUOUS
 10
153.9674919177
 20
31.3681283335
 11
153.9674919177
 21
31.4326554237
 12
154.3143669177
 22
31.4326554237
 13
154.3143669177
 23
31.4326554237
  0
SOLID
  8
0
 62
7
  6
CONTINUOUS
 10
154.3143669177
 20
31.4326554237
 11
154.2565543074
 21
31.3681283335
 12
153.9674919177
 22
31.3681283335
 13
153.9674919177
 23
31.3681283335
  0
SOLID
  8
0
 62
7
  6
CONTINUOUS
 10
159.1128043074
 20
31.4326555528
 11
159.8065543074
 21
31.4971825369
 12
159.575304528
 22
31.4649197501
 13
159.575304528
 23
31.4649197501
  0
SOLID
  8
0
 62
7
  6
CONTINUOUS
 10
159.575304528
 20
31.4649197501
 11
159.4596793074
 21
31.4326555528
 12
159.1128043074
 22
31.4326555528
 13
159.1128043074
 23
31.4326555528
  0
SOLID
  8
0
 62
7
  6
CONTINUOUS
 10
159.1128043074
 20
31.3681284626
 11
159.1128043074
 21
31.4326555528
 12
159.4596793074
 22
31.4326555528
 13
159.4596793074
 23
31.4326555528
  0
SOLID
  8
0
 62
7
  6
CONTINUOUS
 10
159.4596793074
 20
31.4326555528
 11
159.401867028
 21
31.3681284626
 12
159.1128043074
 22
31.3681284626
 13
159.1128043074
 23
31.3681284626
  0
SOLID
  8
0
 62
7
  6
CONTINUOUS
 10
159.228429528
 20
31.2390741763
 11
159.1128043074
 21
31.3681284626
 12
159.401867028
 22
31.3681284626
 13
159.401867028
 23
31.3681284626
  0
SOLID
  8
0
 62
7
  6
CONTINUOUS
 10
149.6315543091
 20
31.3036012664
 11
150.1518667936
 21
31.4326554468
 12
149.9784292936
 22
31.3358640533
 13
149.9784292936
 23
31.3358640533
  0
SOLID
  8
0
 62
7
  6
CONTINUOUS
 10
149.9784292936
 20
31.3358640533
 11
149.9206168074
 21
31.2713369632
 12
149.6315543091
 22
31.3036012664
 13
149.6315543091
 23
31.3036012664
  0
SOLID
  8
0
 62
7
  6
CONTINUOUS
 10
149.5737418074
 20
31.1100184796
 11
149.6315543091
 21
31.3036012664
 12
149.9206168074
 22
31.2713369632
 13
149.9206168074
 23
31.2713369632
  0
SOLID
  8
0
 62
7
  6
CONTINUOUS
 10
154.4299918074
 20
31.2390741763
 11
154.7768668074
 21
31.271336924
 12
155.412804528
 22
31.271336924
 13
155.412804528
 23
31.271336924
  0
SOLID
  8
0
 62
7
  6
CONTINUOUS
 10
154.4299918074
 20
31.2390741763
 11
155.412804528
 21
31.271336924
 12
154.1987416972
 22
31.1745462761
 13
154.1987416972
 23
31.1745462761
  0
SOLID
  8
0
 62
7
  6
CONTINUOUS
 10
154.1987416972
 20
31.1745462761
 11
155.412804528
 21
31.271336924
 12
154.7768668074
 22
31.1422827436
 13
154.7768668074
 23
31.1422827436
  0
SOLID
  8
0
 62
7
  6
CONTINUOUS
 10
155.412804528
 20
31.271336924
 11
155.412804528
 21
31.1422827436
 12
154.7768668074
 22
31.1422827436
 13
154.7768668074
 23
31.1422827436
  0
SOLID
  8
0
 62
7
  6
CONTINUOUS
 10
159.228429528
 20
31.2390745501
 11
159.401867028
 21
31.3681283566
 12
159.4596793074
 22
31.3036012664
 13
159.4596793074
 23
31.3036012664
  0
SOLID
  8
0
 62
7
  6
CONTINUOUS
 10
159.4596793074
 20
31.3036012664
 11
159.6331168074
 21
31.2390745501
 12
159.228429528
 22
31.2390745501
 13
159.228429528
 23
31.2390745501
  0
SOLID
  8
0
 62
7
  6
CONTINUOUS
 10
159.4596793074
 20
31.1422827828
 11
159.228429528
 21
31.2390745501
 12
159.6331168074
 22
31.2390745501
 13
159.6331168074
 23
31.2390745501
  0
SOLID
  8
0
 62
7
  6
CONTINUOUS
 10
159.6331168074
 20
31.2390745501
 11
160.615929528
 21
31.0777556927
 12
159.4596793074
 22
31.1422827828
 13
159.4596793074
 23
31.1422827828
  0
SOLID
  8
0
 62
7
  6
CONTINUOUS
 10
160.442492028
 20
30.9809646623
 11
159.4596793074
 21
31.1422827828
 12
160.615929528
 22
31.0777556927
 13
160.615929528
 23
31.0777556927
  0
SOLID
  8
0
 62
7
  6
CONTINUOUS
 10
160.615929528
 20
31.0777556927
 11
160.8471793074
 21
30.9809646623
 12
160.442492028
 22
30.9809646623
 13
160.442492028
 23
30.9809646623
  0
SOLID
  8
0
 62
7
  6
CONTINUOUS
 10
160.615929528
 20
30.9164372091
 11
160.442492028
 21
30.9809646623
 12
160.8471793074
 22
30.9809646623
 13
160.8471793074
 23
30.9809646623
  0
SOLID
  8
0
 62
7
  6
CONTINUOUS
 10
160.615929528
 20
30.9164372091
 11
160.8471793074
 21
30.9809646623
 12
160.6737418074
 22
30.8519089441
 13
160.6737418074
 23
30.8519089441
  0
SOLID
  8
0
 62
7
  6
CONTINUOUS
 10
160.8471793074
 20
30.9809646623
 11
160.9628038663
 21
30.8519089441
 12
160.6737418074
 22
30.8519089441
 13
160.6737418074
 23
30.8519089441
  0
SOLID
  8
0
 62
7
  6
CONTINUOUS
 10
160.615929528
 20
30.7873818593
 11
160.6737418074
 21
30.8519089441
 12
160.9628038663
 22
30.8519089441
 13
160.9628038663
 23
30.8519089441
  0
SOLID
  8
0
 62
7
  6
CONTINUOUS
 10
160.9628038663
 20
30.8519089441
 11
160.9628038663
 21
30.7873818593
 12
160.615929528
 22
30.7873818593
 13
160.615929528
 23
30.7873818593
  0
SOLID
  8
0
 62
7
  6
CONTINUOUS
 10
160.5003043074
 20
30.7551187255
 11
160.615929528
 21
30.7873818593
 12
160.9628038663
 22
30.7873818593
 13
160.9628038663
 23
30.7873818593
  0
SOLID
  8
0
 62
7
  6
CONTINUOUS
 10
160.5003043074
 20
30.7551187255
 11
160.9628038663
 21
30.7873818593
 12
160.269054528
 22
30.7228547745
 13
160.269054528
 23
30.7228547745
  0
SOLID
  8
0
 62
7
  6
CONTINUOUS
 10
160.9628038663
 20
30.7873818593
 11
160.8471793074
 21
30.6905916353
 12
160.269054528
 22
30.7228547745
 13
160.269054528
 23
30.7228547745
  0
SOLID
  8
0
 62
7
  6
CONTINUOUS
 10
160.8471793074
 20
30.6905916353
 11
159.401867028
 21
30.658327332
 12
160.269054528
 22
30.7228547745
 13
160.269054528
 23
30.7228547745
  0
SOLID
  8
0
 62
7
  6
CONTINUOUS
 10
160.269054528
 20
30.7228547745
 11
159.401867028
 21
30.658327332
 12
159.922179528
 22
30.7228547745
 13
159.922179528
 23
30.7228547745
  0
SOLID
  8
0
 62
7
  6
CONTINUOUS
 10
159.401867028
 20
30.658327332
 11
159.228429528
 21
30.7228547745
 12
159.922179528
 22
30.7228547745
 13
159.922179528
 23
30.7228547745
  0
SOLID
  8
0
 62
7
  6
CONTINUOUS
 10
159.401867028
 20
30.658327332
 11
160.8471793074
 21
30.6905916353
 12
159.575304528
 22
30.6260629858
 13
159.575304528
 23
30.6260629858
  0
SOLID
  8
0
 62
7
  6
CONTINUOUS
 10
160.8471793074
 20
30.6905916353
 11
160.615929528
 21
30.6260629858
 12
159.575304528
 22
30.6260629858
 13
159.575304528
 23
30.6260629858
  0
SOLID
  8
0
 62
7
  6
CONTINUOUS
 10
159.922179528
 20
30.5938006049
 11
159.575304528
 21
30.6260629858
 12
160.615929528
 22
30.6260629858
 13
160.615929528
 23
30.6260629858
  0
SOLID
  8
0
 62
7
  6
CONTINUOUS
 10
160.615929528
 20
30.6260629858
 11
160.269054528
 21
30.5938006049
 12
159.922179528
 22
30.5938006049
 13
159.922179528
 23
30.5938006049
  0
SOLID
  8
0
 62
7
  6
CONTINUOUS
 10
149.5737418074
 20
31.1100184796
 11
149.9206168074
 21
31.2713369632
 12
149.8628043005
 22
31.1422827828
 13
149.8628043005
 23
31.1422827828
  0
SOLID
  8
0
 62
7
  6
CONTINUOUS
 10
149.8628043005
 20
31.1422827828
 11
149.8628043005
 21
31.0454914852
 12
149.5737418074
 22
31.1100184796
 13
149.5737418074
 23
31.1100184796
  0
SOLID
  8
0
 62
7
  6
CONTINUOUS
 10
149.6315543091
 20
30.9164372091
 11
149.5737418074
 21
31.1100184796
 12
149.8628043005
 22
31.0454914852
 13
149.8628043005
 23
31.0454914852
  0
SOLID
  8
0
 62
7
  6
CONTINUOUS
 10
149.8628043005
 20
31.0454914852
 11
149.9784292936
 21
30.8841729058
 12
149.6315543091
 22
30.9164372091
 13
149.6315543091
 23
30.9164372091
  0
SOLID
  8
0
 62
7
  6
CONTINUOUS
 10
149.7471793074
 20
30.7873813202
 11
149.6315543091
 21
30.9164372091
 12
149.9784292936
 22
30.8841729058
 13
149.9784292936
 23
30.8841729058
  0
SOLID
  8
0
 62
7
  6
CONTINUOUS
 10
149.9784292936
 20
30.8841729058
 11
150.1518667936
 21
30.7873813202
 12
149.7471793074
 22
30.7873813202
 13
149.7471793074
 23
30.7873813202
  0
SOLID
  8
0
 62
7
  6
CONTINUOUS
 10
149.8628043005
 20
30.7228547004
 11
149.7471793074
 21
30.7873813202
 12
150.1518667936
 22
30.7873813202
 13
150.1518667936
 23
30.7873813202
  0
SOLID
  8
0
 62
7
  6
CONTINUOUS
 10
150.1518667936
 20
30.7873813202
 11
150.498741835
 21
30.7228547004
 12
149.8628043005
 22
30.7228547004
 13
149.8628043005
 23
30.7228547004
  0
SOLID
  8
0
 62
7
  6
CONTINUOUS
 10
150.0362418212
 20
30.658327332
 11
149.8628043005
 21
30.7228547004
 12
150.498741835
 22
30.7228547004
 13
150.498741835
 23
30.7228547004
  0
SOLID
  8
0
 62
7
  6
CONTINUOUS
 10
154.0831168074
 20
31.1100184386
 11
154.1987416972
 21
31.1745462761
 12
154.7768668074
 22
31.1422827828
 13
154.7768668074
 23
31.1422827828
  0
SOLID
  8
0
 62
7
  6
CONTINUOUS
 10
154.7768668074
 20
31.1422827828
 11
154.5456166972
 21
31.1100184386
 12
154.0831168074
 22
31.1100184386
 13
154.0831168074
 23
31.1100184386
  0
SOLID
  8
0
 62
7
  6
CONTINUOUS
 10
153.9674919177
 20
30.9809642992
 11
154.0831168074
 21
31.1100184386
 12
154.5456166972
 22
31.1100184386
 13
154.5456166972
 23
31.1100184386
  0
SOLID
  8
0
 62
7
  6
CONTINUOUS
 10
154.3143669177
 20
31.0132277988
 11
153.9674919177
 21
30.9809642992
 12
154.4299918074
 22
31.0777556927
 13
154.4299918074
 23
31.0777556927
  0
SOLID
  8
0
 62
7
  6
CONTINUOUS
 10
153.9674919177
 20
30.9809642992
 11
154.5456166972
 21
31.1100184796
 12
154.4299918074
 22
31.0777556927
 13
154.4299918074
 23
31.0777556927
  0
SOLID
  8
0
 62
7
  6
CONTINUOUS
 10
154.3143669177
 20
31.0132277988
 11
154.2565543074
 21
30.9164372091
 12
153.9674919177
 22
30.9809642992
 13
153.9674919177
 23
30.9809642992
  0
SOLID
  8
0
 62
7
  6
CONTINUOUS
 10
153.9674919177
 20
30.8841729058
 11
153.9674919177
 21
30.9809642992
 12
154.2565543074
 22
30.9164372091
 13
154.2565543074
 23
30.9164372091
  0
SOLID
  8
0
 62
7
  6
CONTINUOUS
 10
154.2565543074
 20
30.9164372091
 11
154.2565543074
 21
30.8519086025
 12
153.9674919177
 22
30.8841729058
 13
153.9674919177
 23
30.8841729058
  0
SOLID
  8
0
 62
7
  6
CONTINUOUS
 10
154.0253041972
 20
30.7551187255
 11
153.9674919177
 21
30.8841729058
 12
154.2565543074
 22
30.8519086025
 13
154.2565543074
 23
30.8519086025
  0
SOLID
  8
0
 62
7
  6
CONTINUOUS
 10
155.412804528
 20
30.9487004259
 11
155.7018665869
 21
30.8519086025
 12
155.3549915869
 22
30.8841729058
 13
155.3549915869
 23
30.8841729058
  0
SOLID
  8
0
 62
7
  6
CONTINUOUS
 10
155.1815540869
 20
30.7873815123
 11
155.3549915869
 21
30.8841729058
 12
155.7018665869
 22
30.8519086025
 13
155.7018665869
 23
30.8519086025
  0
SOLID
  8
0
 62
7
  6
CONTINUOUS
 10
155.1815540869
 20
30.7873815123
 11
155.7018665869
 21
30.8519086025
 12
155.412804528
 22
30.7551187255
 13
155.412804528
 23
30.7551187255
  0
SOLID
  8
0
 62
7
  6
CONTINUOUS
 10
155.7018665869
 20
30.8519086025
 11
155.759679528
 21
30.6905916353
 12
155.412804528
 22
30.7551187255
 13
155.412804528
 23
30.7551187255
  0
SOLID
  8
0
 62
7
  6
CONTINUOUS
 10
155.4706168074
 20
30.658327332
 11
155.412804528
 21
30.7551187255
 12
155.759679528
 22
30.6905916353
 13
155.759679528
 23
30.6905916353
  0
SOLID
  8
0
 62
7
  6
CONTINUOUS
 10
155.4706168074
 20
30.658327332
 11
155.759679528
 21
30.6905916353
 12
155.5284290869
 22
30.5938002079
 13
155.5284290869
 23
30.5938002079
  0
SOLID
  8
0
 62
7
  6
CONTINUOUS
 10
155.759679528
 20
30.6905916353
 11
155.8174918074
 21
30.5938002079
 12
155.5284290869
 22
30.5938002079
 13
155.5284290869
 23
30.5938002079
  0
SOLID
  8
0
 62
7
  6
CONTINUOUS
 10
151.0768668626
 20
30.8196456577
 11
151.1346793074
 21
30.9164373395
 12
151.4237418626
 22
30.9164373395
 13
151.4237418626
 23
30.9164373395
  0
SOLID
  8
0
 62
7
  6
CONTINUOUS
 10
151.4237418626
 20
30.9164373395
 11
151.3659292523
 21
30.7873815123
 12
151.0768668626
 22
30.8196456577
 13
151.0768668626
 23
30.8196456577
  0
SOLID
  8
0
 62
7
  6
CONTINUOUS
 10
150.9034292799
 20
30.7551187255
 11
151.0768668626
 21
30.8196456577
 12
151.3659292523
 22
30.7873815123
 13
151.3659292523
 23
30.7873815123
  0
SOLID
  8
0
 62
7
  6
CONTINUOUS
 10
150.9034292799
 20
30.7551187255
 11
151.3659292523
 21
30.7873815123
 12
150.498741835
 22
30.7228544222
 13
150.498741835
 23
30.7228544222
  0
SOLID
  8
0
 62
7
  6
CONTINUOUS
 10
151.3659292523
 20
30.7873815123
 11
151.1924917523
 21
30.6905916353
 12
150.498741835
 22
30.7228544222
 13
150.498741835
 23
30.7228544222
  0
SOLID
  8
0
 62
7
  6
CONTINUOUS
 10
150.0362418212
 20
30.658327332
 11
150.498741835
 21
30.7228544222
 12
151.1924917523
 22
30.6905916353
 13
151.1924917523
 23
30.6905916353
  0
SOLID
  8
0
 62
7
  6
CONTINUOUS
 10
150.0362418212
 20
30.658327332
 11
151.1924917523
 21
30.6905916353
 12
150.2096793212
 22
30.6260631011
 13
150.2096793212
 23
30.6260631011
  0
SOLID
  8
0
 62
7
  6
CONTINUOUS
 10
151.1924917523
 20
30.6905916353
 11
150.9612418074
 21
30.6260631011
 12
150.2096793212
 22
30.6260631011
 13
150.2096793212
 23
30.6260631011
  0
SOLID
  8
0
 62
7
  6
CONTINUOUS
 10
150.5565542799
 20
30.5938002419
 11
150.2096793212
 21
30.6260631011
 12
150.9612418074
 22
30.6260631011
 13
150.9612418074
 23
30.6260631011
  0
SOLID
  8
0
 62
7
  6
CONTINUOUS
 10
154.0253041972
 20
30.7551187255
 11
154.2565543074
 21
30.8519086025
 12
154.3143669177
 22
30.7873815123
 13
154.3143669177
 23
30.7873815123
  0
SOLID
  8
0
 62
7
  6
CONTINUOUS
 10
154.3143669177
 20
30.7873815123
 11
154.5456166972
 21
30.7228544222
 12
154.0253041972
 22
30.7551187255
 13
154.0253041972
 23
30.7551187255
  0
SOLID
  8
0
 62
7
  6
CONTINUOUS
 10
154.1987416972
 20
30.658327332
 11
154.0253041972
 21
30.7551187255
 12
154.5456166972
 22
30.7228544222
 13
154.5456166972
 23
30.7228544222
  0
SOLID
  8
0
 62
7
  6
CONTINUOUS
 10
154.8924916972
 20
30.7228544637
 11
155.1815540869
 21
30.7873815123
 12
155.412804528
 22
30.7551187255
 13
155.412804528
 23
30.7551187255
  0
SOLID
  8
0
 62
7
  6
CONTINUOUS
 10
155.412804528
 20
30.7551187255
 11
155.3549915869
 21
30.6905916353
 12
154.8924916972
 22
30.7228544637
 13
154.8924916972
 23
30.7228544637
  0
SOLID
  8
0
 62
7
  6
CONTINUOUS
 10
155.3549915869
 20
30.6905916353
 11
154.1987416972
 21
30.658327332
 12
154.8924916972
 22
30.7228544637
 13
154.8924916972
 23
30.7228544637
  0
SOLID
  8
0
 62
7
  6
CONTINUOUS
 10
154.1987416972
 20
30.658327332
 11
154.5456166972
 21
30.7228544637
 12
154.8924916972
 22
30.7228544637
 13
154.8924916972
 23
30.7228544637
  0
SOLID
  8
0
 62
7
  6
CONTINUOUS
 10
154.1987416972
 20
30.658327332
 11
155.3549915869
 21
30.6905916353
 12
154.3143669177
 22
30.6260630541
 13
154.3143669177
 23
30.6260630541
  0
SOLID
  8
0
 62
7
  6
CONTINUOUS
 10
155.3549915869
 20
30.6905916353
 11
155.1815540869
 21
30.6260630541
 12
154.3143669177
 22
30.6260630541
 13
154.3143669177
 23
30.6260630541
  0
SOLID
  8
0
 62
7
  6
CONTINUOUS
 10
154.5456166972
 20
30.5938002188
 11
154.3143669177
 21
30.6260630541
 12
155.1815540869
 22
30.6260630541
 13
155.1815540869
 23
30.6260630541
  0
SOLID
  8
0
 62
7
  6
CONTINUOUS
 10
155.1815540869
 20
30.6260630541
 11
154.8924916972
 21
30.5938002188
 12
154.5456166972
 22
30.5938002188
 13
154.5456166972
 23
30.5938002188
  0
SOLID
  8
0
 62
7
  6
CONTINUOUS
 10
159.575304528
 20
30.7551187255
 11
159.228429528
 21
30.7228544637
 12
159.4596793074
 22
30.7873815123
 13
159.4596793074
 23
30.7873815123
  0
SOLID
  8
0
 62
7
  6
CONTINUOUS
 10
159.4596793074
 20
30.7873815123
 11
159.228429528
 21
30.7228544637
 12
159.401867028
 22
30.851908644
 13
159.401867028
 23
30.851908644
  0
SOLID
  8
0
 62
7
  6
CONTINUOUS
 10
159.228429528
 20
30.7228544637
 11
159.1128043074
 21
30.851908644
 12
159.401867028
 22
30.851908644
 13
159.401867028
 23
30.851908644
  0
SOLID
  8
0
 62
7
  6
CONTINUOUS
 10
159.575304528
 20
30.7551187255
 11
159.922179528
 21
30.7228544637
 12
159.228429528
 22
30.7228544637
 13
159.228429528
 23
30.7228544637
  0
SOLID
  8
0
 62
7
  6
CONTINUOUS
 10
156.279992028
 20
30.5938002419
 11
156.279992028
 21
31.6262382337
 12
156.5690540869
 22
30.5938002419
 13
156.5690540869
 23
31.6262382337
  0
ENDBLK
  8
0
  6
BYBLOCK
 62
0
  0
BLOCK
  8
0
 62
2
  6
CONTINUOUS
  2
SYMBOL_3_BL0
 70
64
 10
32.1213064866
 20
19.8534310916
  0
TEXT
  8
0
 62
7
  6
CONTINUOUS
 10
18.3860103289
 20
19.2268451992
  7
TEXTSTYLE_3
 40
2.7338706658
  1
Ammeraal Beltech
 41
1.0
 51
15.0
 72
0
  0
TEXT
  8
0
 62
7
  6
CONTINUOUS
 10
29.1868111546
 20
16.9533085264
  7
TEXTSTYLE_4
 40
1.0935482663
  1
Innovation & Service in Belting
 41
1.0
 72
0
  0
LINE
  8
0
 62
7
  6
CONTINUOUS
 10
12.3614696776
 20
19.9934385078
 11
13.1396216709
 21
23.6543558055
  0
LINE
  8
0
 62
7
  6
CONTINUOUS
 10
23.2347899607
 20
27.3177497171
 11
13.6274394139
 21
24.1961322958
  0
LINE
  8
0
 62
7
  6
CONTINUOUS
 10
12.5867530099
 20
19.3000877048
 11
20.093828271
 21
12.5406867788
  0
LINE
  8
0
 62
7
  6
CONTINUOUS
 10
12.8492874206
 20
20.5352149982
 11
23.6575567857
 21
24.0470345971
  0
LINE
  8
0
 62
7
  6
CONTINUOUS
 10
23.6533516486
 20
13.6972460334
 11
15.2078919798
 21
21.3015720751
  0
LINE
  8
0
 62
7
  6
CONTINUOUS
 10
24.1731743684
 20
26.4728246013
 11
23.1966148312
 21
21.8784731989
  0
LINE
  8
0
 62
7
  6
CONTINUOUS
 10
22.4968128835
 20
18.5861638851
 11
21.810364672
 21
15.3566789607
  0
LINE
  8
0
 62
7
  6
CONTINUOUS
 10
24.8542704669
 20
14.087448211
 11
25.8105020025
 21
18.5861638851
  0
LINE
  8
0
 62
7
  6
CONTINUOUS
 10
26.5103039502
 20
21.8784731989
 11
26.9545457526
 21
23.9684665583
  0
LINE
  8
0
 62
7
  6
CONTINUOUS
 10
20.8069293463
 20
12.3891124661
 11
24.3664527239
 21
13.5456717207
  0
LINE
  8
0
 62
7
  6
CONTINUOUS
 10
23.9478910361
 20
27.1661754044
 11
26.7292624203
 21
24.6618173613
  0
ARC
  8
0
 62
7
  6
CONTINUOUS
 10
13.8527227462
 20
23.5027814928
 40
0.7290321776
 50
108.0
 51
168.0
  0
ARC
  8
0
 62
7
  6
CONTINUOUS
 10
23.4600732931
 20
26.624398914
 40
0.7290321776
 50
348.0
 51
108.0
  0
ARC
  8
0
 62
7
  6
CONTINUOUS
 10
26.2414446773
 20
24.120040871
 40
0.7290321776
 50
348.0
 51
48.0
  0
ARC
  8
0
 62
7
  6
CONTINUOUS
 10
20.581646014
 20
13.0824632691
 40
0.7290321776
 50
228.0
 51
288.0
  0
ARC
  8
0
 62
7
  6
CONTINUOUS
 10
13.0745707529
 20
19.8418641951
 40
0.7290321776
 50
108.0
 51
228.0
  0
ARC
  8
0
 62
7
  6
CONTINUOUS
 10
24.1411693916
 20
14.2390225237
 40
0.7290321776
 50
228.0
 51
348.0
  0
ENDBLK
  8
0
  6
BYBLOCK
 62
0
  0
ENDSEC
  0
SECTION
  2
ENTITIES
  0
TEXT
  8
0
 62
5
  6
CONTINUOUS
 10
96.0
 20
25.636
  7
TEXTSTYLE_2
 40
2.8
  1
Scale :
 41
0.6
 51
0.000019
 72
0
  0
TEXT
  8
0
 62
5
  6
CONTINUOUS
 10
116.0
 20
25.636
  7
TEXTSTYLE_2
 40
2.8
  1
Belt type:
 41
0.6
 51
0.000019
 72
0
  0
INSERT
  8
0
 62
2
  6
CONTINUOUS
  2
SYMBOL_3_BL0
 10
32.1213064866
 20
19.8534310916
  0
INSERT
  8
0
 62
2
  6
CONTINUOUS
  2
SYMBOL_8_BL1
 10
173.5956734183
 20
35.5937998301
  0
LINE
  8
0
 62
2
  6
CONTINUOUS
 10
10.0
 20
30.0
 11
200.0
 21
30.0
  0
LINE
  8
0
 62
2
  6
CONTINUOUS
 10
10.0
 20
30.0
 11
10.0
 21
10.0
  0
LINE
  8
0
 62
2
  6
CONTINUOUS
 10
10.0
 20
10.0
 11
200.0
 21
10.0
  0
LINE
  8
0
 62
2
  6
CONTINUOUS
 10
95.0
 20
30.0
 11
95.0
 21
10.0
  0
LINE
  8
0
 62
2
  6
CONTINUOUS
 10
115.0
 20
30.0
 11
115.0
 21
10.0
  0
LINE
  8
0
 62
2
  6
CONTINUOUS
 10
200.0
 20
30.0
 11
200.0
 21
10.0
  0
TEXT
  8
0
 62
5
  6
CONTINUOUS
 10
13.0
 20
23.303
  7
TEXTSTYLE_5
 40
1.52
  1
                                                                     Ammeraal Beltech Modular A/S
 41
1.0
 72
0
  0
TEXT
  8
0
 62
5
  6
CONTINUOUS
 10
13.0
 20
20.595
  7
TEXTSTYLE_5
 40
1.5
  1
                                                                      Hjulmagervej 21,  7100 Vejle,  DK
 41
1.0
 72
0
  0
TEXT
  8
0
 62
5
  6
CONTINUOUS
 10
13.0
 20
17.881
  7
TEXTSTYLE_5
 40
1.495
  1
                                                                      tel: 
 41
1.0
 72
0
  0
TEXT
  8
0
 62
5
  6
CONTINUOUS
 10
57.9869465649
 20
17.881
  7
TEXTSTYLE_5
 40
1.51
  1
+45 75723100     fax: +45 75723348
 41
1.0
 72
0
  0
TEXT
  8
0
 62
5
  6
CONTINUOUS
 10
13.0
 20
15.177
  7
TEXTSTYLE_5
 40
1.5
  1
                                                                      admin@unichains.dk  www.unichains.com
 41
1.0
 72
0
  0
TEXT
  8
0
 62
5
  6
CONTINUOUS
 10
99.75
 20
13.75
  7
TEXTSTYLE_6
 40
5.0
  1
1:1
 41
0.7
 72
1
 11
105.0
 21
13.75
  0
TEXT
  8
0
 62
5
  6
CONTINUOUS
 10
118.0
 20
13.75
  7
TEXTSTYLE_7
 40
7.5
  1
Sprocket Z09
 41
0.6694444444
 72
0
  0
LINE
  8
0
 62
7
  6
CONTINUOUS
 10
210.0
 20
0.0
 11
0.0
 21
0.0
  0
LINE
  8
0
 62
7
  6
CONTINUOUS
 10
10.0
 20
10.0
 11
200.0
 21
10.0
  0
LINE
  8
0
 62
7
  6
CONTINUOUS
 10
10.0
 20
30.0
 11
200.0
 21
30.0
  0
LINE
  8
0
 62
7
  6
CONTINUOUS
 10
0.0
 20
0.0
 11
0.0
 21
297.0
  0
LINE
  8
0
 62
7
  6
CONTINUOUS
 10
10.0
 20
10.0
 11
10.0
 21
287.0
  0
LINE
  8
0
 62
7
  6
CONTINUOUS
 10
200.0
 20
287.0
 11
200.0
 21
10.0
  0
LINE
  8
0
 62
7
  6
CONTINUOUS
 10
210.0
 20
0.0
 11
210.0
 21
297.0
  0
LINE
  8
0
 62
7
  6
CONTINUOUS
 10
10.0
 20
287.0
 11
200.0
 21
287.0
  0
LINE
  8
0
 62
7
  6
CONTINUOUS
 10
0.0
 20
297.0
 11
210.0
 21
297.0
  0
LINE
  8
0
 62
7
  6
CONTINUOUS
 10
117.9544737444
 20
149.5939674812
 11
120.5074964045
 21
150.1331584883
  0
LINE
  8
0
 62
7
  6
CONTINUOUS
 10
78.5387371363
 20
254.3998459234
 11
76.3240947675
 21
253.0199869367
  0
LINE
  8
0
 62
7
  6
CONTINUOUS
 10
79.5878043922
 20
155.9383460471
 11
81.8901185127
 21
154.7103389887
  0
LINE
  8
0
 62
7
  6
CONTINUOUS
 10
53.8610094509
 20
224.3455248888
 11
53.0514512305
 21
221.8649469052
  0
LINE
  8
0
 62
7
  6
CONTINUOUS
 10
54.2753184673
 20
185.4600416771
 11
55.2496456839
 21
183.0394347036
  0
LINE
  8
0
 62
7
  6
CONTINUOUS
 10
80.4730116525
 20
238.7545517754
 11
78.6520287578
 21
237.2265657001
  0
LINE
  8
0
 62
7
  6
CONTINUOUS
 10
68.9648212369
 20
229.0980334422
 11
66.9140250093
 21
227.377211084
  0
LINE
  8
0
 62
7
  6
CONTINUOUS
 10
92.169889316
 20
165.43612399
 11
94.4036601764
 21
164.6230978866
  0
LINE
  8
0
 62
7
  6
CONTINUOUS
 10
106.2867747125
 20
160.2979979051
 11
108.8024487039
 21
159.3823674531
  0
LINE
  8
0
 62
7
  6
CONTINUOUS
 10
95.8177620846
 20
164.6404957701
 11
105.2146882924
 21
161.2202943368
  0
LINE
  8
0
 62
7
  6
CONTINUOUS
 10
65.3993509237
 20
213.6038619385
 11
64.9865669623
 21
211.2628477622
  0
LINE
  8
0
 62
7
  6
CONTINUOUS
 10
62.7906559428
 20
198.8092175204
 11
62.325778179
 21
196.1727647102
  0
LINE
  8
0
 62
7
  6
CONTINUOUS
 10
65.2492565429
 20
209.8732491635
 11
63.5127747662
 21
200.0251716334
  0
LINE
  8
0
 62
7
  6
CONTINUOUS
 10
77.9600410178
 20
235.993215398
 11
70.2995965866
 21
229.5653393011
  0
LINE
  8
0
 62
7
  6
CONTINUOUS
 10
107.7533241602
 20
176.9386022832
 11
113.8866574935
 21
176.9386022832
  0
LINE
  8
0
 62
7
  6
CONTINUOUS
 10
70.0188086873
 20
184.6481533992
 11
71.2073708595
 21
182.5895033289
  0
LINE
  8
0
 62
7
  6
CONTINUOUS
 10
77.5302465151
 20
171.6379614436
 11
78.8688086873
 21
169.3195037522
  0
LINE
  8
0
 62
7
  6
CONTINUOUS
 10
72.3018213892
 20
181.6938594052
 11
77.3018213892
 21
173.0336053673
  0
LINE
  8
0
 62
7
  6
CONTINUOUS
 10
88.7291391866
 20
229.7787155212
 11
88.565073491
 21
229.6503205575
  0
LINE
  8
0
 62
7
  6
CONTINUOUS
 10
88.195925852
 20
229.361432027
 11
87.9908437912
 21
229.2009383683
  0
LINE
  8
0
 62
7
  6
CONTINUOUS
 10
89.2892893769
 20
231.1842429387
 11
89.0773462641
 21
231.0329257041
  0
LINE
  8
0
 62
7
  6
CONTINUOUS
 10
89.2318830548
 20
230.8164731066
 11
89.4438261676
 21
230.9677903412
  0
LINE
  8
0
 62
7
  6
CONTINUOUS
 10
89.7528998356
 20
230.5348850249
 11
89.5409567228
 21
230.3835677903
  0
LINE
  8
0
 62
7
  6
CONTINUOUS
 10
96.0370010539
 20
233.9592787648
 11
95.7671628717
 21
233.7929269109
  0
LINE
  8
0
 62
7
  6
CONTINUOUS
 10
93.6974182287
 20
233.8089394587
 11
92.0365911378
 21
232.9387220295
  0
LINE
  8
0
 62
7
  6
CONTINUOUS
 10
92.4615177509
 20
232.8010643285
 11
93.8455403266
 21
233.5262455194
  0
LINE
  8
0
 62
7
  6
CONTINUOUS
 10
93.9819349126
 20
232.8170508426
 11
92.7824490323
 21
232.1885606615
  0
LINE
  8
0
 62
7
  6
CONTINUOUS
 10
92.9305711302
 20
231.9058667223
 11
94.1300570106
 21
232.5343569034
  0
LINE
  8
0
 62
7
  6
CONTINUOUS
 10
93.1968810433
 20
230.7242859083
 11
93.4736855585
 21
230.8693221464
  0
LINE
  8
0
 62
7
  6
CONTINUOUS
 10
94.4319722195
 20
234.1397249738
 11
94.1954199756
 21
234.03082144
  0
LINE
  8
0
 62
7
  6
CONTINUOUS
 10
95.2408931022
 20
231.7599216313
 11
95.4774453461
 21
231.868825165
  0
LINE
  8
0
 62
7
  6
CONTINUOUS
 10
88.6962001843
 20
229.4827642023
 11
88.8930475532
 21
229.5692700772
  0
LINE
  8
0
 62
7
  6
CONTINUOUS
 10
102.6320962048
 20
236.2215378793
 11
102.8307067737
 21
236.3039157837
  0
LINE
  8
0
 62
7
  6
CONTINUOUS
 10
103.707398352
 20
234.6031078084
 11
103.5087877831
 21
234.520729904
  0
LINE
  8
0
 62
7
  6
CONTINUOUS
 10
96.7589735691
 20
233.5624837329
 11
95.7448191763
 21
233.152874248
  0
LINE
  8
0
 62
7
  6
CONTINUOUS
 10
95.7762077377
 20
232.936086973
 11
97.0801205284
 21
233.4627277394
  0
LINE
  8
0
 62
7
  6
CONTINUOUS
 10
97.1996418228
 20
233.1668043044
 11
96.9581757543
 21
233.0692779389
  0
LINE
  8
0
 62
7
  6
CONTINUOUS
 10
102.7851617444
 20
236.6197981502
 11
102.5350005287
 21
236.5299874925
  0
LINE
  8
0
 62
7
  6
CONTINUOUS
 10
103.5543328178
 20
234.2048475007
 11
103.8044928529
 21
234.2946579929
  0
LINE
  8
0
 62
7
  6
CONTINUOUS
 10
88.884970073
 20
229.8331226093
 11
88.7291391866
 21
229.7787155212
  0
LINE
  8
0
 62
7
  6
CONTINUOUS
 10
98.9573545079
 20
234.9788092754
 11
98.6597714874
 21
234.8834122317
  0
LINE
  8
0
 62
7
  6
CONTINUOUS
 10
97.5686333674
 20
234.5336229503
 11
97.2710503469
 21
234.4382259066
  0
LINE
  8
0
 62
7
  6
CONTINUOUS
 10
97.7906597599
 20
232.8173482295
 11
98.0882427803
 21
232.9127452732
  0
LINE
  8
0
 62
7
  6
CONTINUOUS
 10
99.1793809004
 20
233.2625345547
 11
99.4769639208
 21
233.3579315983
  0
LINE
  8
LAY0001
 62
7
  6
CONTINUOUS
 10
121.2506401612
 20
183.9776183587
 11
121.3283463047
 21
183.9996586558
  0
LINE
  8
LAY0001
 62
7
  6
CONTINUOUS
 10
121.3863430751
 20
184.1411541957
 11
121.308637217
 21
184.119114184
  0
LINE
  8
LAY0001
 62
7
  6
CONTINUOUS
 10
122.4974683854
 20
185.2244465828
 11
122.5751745288
 21
185.2464868799
  0
LINE
  8
LAY0001
 62
7
  6
CONTINUOUS
 10
123.469994326
 20
186.1969725234
 11
123.5477003268
 21
186.2190126779
  0
LINE
  8
LAY0001
 62
7
  6
CONTINUOUS
 10
123.6056972399
 20
186.3605083605
 11
123.5279912391
 21
186.3384682061
  0
LINE
  8
LAY0001
 62
7
  6
CONTINUOUS
 10
122.889530001
 20
186.2288325668
 11
122.7729709212
 21
186.1957722711
  0
LINE
  8
LAY0001
 62
7
  6
CONTINUOUS
 10
124.3288575785
 20
187.0836686991
 11
124.445416651
 21
187.1167290021
  0
LINE
  8
LAY0001
 62
7
  6
CONTINUOUS
 10
124.5741961139
 20
187.8856657565
 11
124.6907551961
 21
187.9187260497
  0
LINE
  8
LAY0001
 62
7
  6
CONTINUOUS
 10
124.748752046
 20
188.0602216886
 11
124.6710459957
 21
188.0381814944
  0
LINE
  8
0
 62
7
  6
CONTINUOUS
 10
113.8866574935
 20
178.0052689499
 11
107.7533241602
 21
178.0052689499
  0
LINE
  8
0
 62
7
  6
CONTINUOUS
 10
101.0866574935
 20
177.4719356165
 11
107.7533241602
 21
175.4971789835
  0
LINE
  8
0
 62
7
  6
CONTINUOUS
 10
82.6427326388
 20
219.5076621755
 11
79.5760659722
 21
214.196039699
  0
LINE
  8
0
 62
7
  6
CONTINUOUS
 10
80.4998264029
 20
213.6627063657
 11
83.5664930695
 21
218.9743288422
  0
LINE
  8
0
 62
7
  6
CONTINUOUS
 10
88.0753976258
 20
227.3749641448
 11
87.9560317243
 21
227.1961237844
  0
LINE
  8
0
 62
7
  6
CONTINUOUS
 10
88.0982795404
 20
227.0378995493
 11
88.2176454513
 21
227.2167398993
  0
LINE
  8
0
 62
7
  6
CONTINUOUS
 10
88.565073491
 20
229.6503205575
 11
88.4337894688
 21
229.480036505
  0
LINE
  8
0
 62
7
  6
CONTINUOUS
 10
88.564916162
 20
229.3124801498
 11
88.6962001843
 21
229.4827642023
  0
LINE
  8
0
 62
7
  6
CONTINUOUS
 10
95.8184705156
 20
233.526818686
 11
95.8951360641
 21
233.6151495368
  0
LINE
  8
0
 62
7
  6
CONTINUOUS
 10
86.4379461875
 20
225.0144982008
 11
81.3944234436
 21
220.2283738254
  0
LINE
  8
0
 62
7
  6
CONTINUOUS
 10
102.4926271209
 20
236.0939456672
 11
102.6320962048
 21
236.2215378793
  0
LINE
  8
0
 62
7
  6
CONTINUOUS
 10
87.5025446492
 20
228.7911885491
 11
87.308884735
 21
228.6170831105
  0
LINE
  8
0
 62
7
  6
CONTINUOUS
 10
86.5342452583
 20
227.9206615176
 11
86.3405853856
 21
227.7465561163
  0
LINE
  8
0
 62
7
  6
CONTINUOUS
 10
87.9560317243
 20
227.1961237844
 11
87.801103804
 21
227.0568394435
  0
LINE
  8
0
 62
7
  6
CONTINUOUS
 10
87.9433516201
 20
226.8986152083
 11
88.0982795404
 21
227.0378995493
  0
LINE
  8
0
 62
7
  6
CONTINUOUS
 10
88.5243312519
 20
227.4209314247
 11
88.7179911661
 21
227.5950368634
  0
LINE
  8
0
 62
7
  6
CONTINUOUS
 10
95.7671628717
 20
233.7929269109
 11
95.6422038885
 21
233.6850906977
  0
LINE
  8
0
 62
7
  6
CONTINUOUS
 10
89.0398574292
 20
227.8604874093
 11
89.24493949
 21
228.020981068
  0
LINE
  8
0
 62
7
  6
CONTINUOUS
 10
89.9832347681
 20
228.5987581291
 11
90.1883167115
 21
228.759251696
  0
LINE
  8
0
 62
7
  6
CONTINUOUS
 10
95.8951360641
 20
233.6151495368
 11
96.0683884821
 21
233.7424911124
  0
LINE
  8
0
 62
7
  6
CONTINUOUS
 10
90.5299922699
 20
228.998271045
 11
90.7419353827
 21
229.1495882795
  0
LINE
  8
0
 62
7
  6
CONTINUOUS
 10
102.5350005287
 20
236.5299874925
 11
102.3439819779
 21
236.3949626971
  0
LINE
  8
0
 62
7
  6
CONTINUOUS
 10
103.8044928529
 20
234.2946579929
 11
103.9955125816
 21
234.4296829722
  0
LINE
  8
0
 62
7
  6
CONTINUOUS
 10
96.8646053186
 20
232.7446544853
 11
96.5464737086
 21
232.5587972517
  0
LINE
  8
0
 62
7
  6
CONTINUOUS
 10
96.6744480133
 20
232.3810203069
 11
96.9925785232
 21
232.566877081
  0
LINE
  8
0
 62
7
  6
CONTINUOUS
 10
87.7528617735
 20
226.798886951
 11
87.9433516201
 21
226.8986152083
  0
LINE
  8
0
 62
7
  6
CONTINUOUS
 10
115.5857065454
 20
235.4752951976
 11
115.7650966992
 21
235.5348818628
  0
LINE
  8
0
 62
7
  6
CONTINUOUS
 10
115.9362235142
 20
233.6613019012
 11
115.7568333604
 21
233.601715236
  0
LINE
  8
LAY0001
 62
7
  6
CONTINUOUS
 10
120.1615554335
 20
182.9720324004
 11
120.2670942147
 21
182.966239489
  0
LINE
  8
LAY0001
 62
7
  6
CONTINUOUS
 10
120.3390074467
 20
183.0938185674
 11
120.2862380561
 21
183.0967150231
  0
LINE
  8
LAY0001
 62
7
  6
CONTINUOUS
 10
119.9388920188
 20
183.1946958151
 11
120.0444308098
 21
183.1889028939
  0
LINE
  8
LAY0001
 62
7
  6
CONTINUOUS
 10
120.1163440418
 20
183.3164819723
 11
120.0635746415
 21
183.3193784377
  0
LINE
  8
LAY0001
 62
7
  6
CONTINUOUS
 10
120.7820729471
 20
183.6482157604
 11
120.8348423378
 21
183.6453193047
  0
LINE
  8
LAY0001
 62
7
  6
CONTINUOUS
 10
120.9595252458
 20
183.7700022128
 11
120.8539861791
 21
183.7757948388
  0
LINE
  8
LAY0001
 62
7
  6
CONTINUOUS
 10
120.5594095325
 20
183.8708791751
 11
120.6121789231
 21
183.8679827194
  0
LINE
  8
LAY0001
 62
7
  6
CONTINUOUS
 10
120.7368618311
 20
183.9926656274
 11
120.6313227596
 21
183.9984582583
  0
LINE
  8
LAY0001
 62
7
  6
CONTINUOUS
 10
122.6082348318
 20
185.3630459524
 11
122.5554651558
 21
185.3659421228
  0
LINE
  8
LAY0001
 62
7
  6
CONTINUOUS
 10
122.2243664969
 20
185.6471678468
 11
122.1715971038
 21
185.6500643049
  0
LINE
  8
LAY0001
 62
7
  6
CONTINUOUS
 10
122.7787635546
 20
186.0902331972
 11
122.8315330879
 21
186.0873368841
  0
LINE
  8
LAY0001
 62
7
  6
CONTINUOUS
 10
123.4172247927
 20
186.1998688365
 11
123.469994326
 21
186.1969725234
  0
LINE
  8
0
 62
7
  6
CONTINUOUS
 10
84.8148022647
 20
218.2536171923
 11
86.4379461875
 21
225.0144982008
  0
LINE
  8
0
 62
7
  6
CONTINUOUS
 10
88.1204696503
 20
227.5585394987
 11
88.0753976258
 21
227.3749641448
  0
LINE
  8
0
 62
7
  6
CONTINUOUS
 10
88.4337894688
 20
229.480036505
 11
88.3763037197
 21
229.2999622424
  0
LINE
  8
0
 62
7
  6
CONTINUOUS
 10
88.507430413
 20
229.1324058872
 11
88.564916162
 21
229.3124801498
  0
LINE
  8
0
 62
7
  6
CONTINUOUS
 10
88.2176454513
 20
227.2167398993
 11
88.2595474851
 21
227.3259381534
  0
LINE
  8
0
 62
7
  6
CONTINUOUS
 10
95.6422038885
 20
233.6850906977
 11
95.537165121
 21
233.527933912
  0
LINE
  8
0
 62
7
  6
CONTINUOUS
 10
96.9696440861
 20
232.901811271
 11
96.8646053186
 21
232.7446544853
  0
LINE
  8
0
 62
7
  6
CONTINUOUS
 10
102.3439819779
 20
236.3949626971
 11
102.1681439237
 21
236.1546436095
  0
LINE
  8
0
 62
7
  6
CONTINUOUS
 10
96.9925785232
 20
232.566877081
 11
97.1459107202
 21
232.7435392421
  0
LINE
  8
0
 62
7
  6
CONTINUOUS
 10
103.8468674307
 20
234.7307000574
 11
103.707398352
 21
234.6031078084
  0
LINE
  8
0
 62
7
  6
CONTINUOUS
 10
112.4363962803
 20
234.3794478527
 11
114.523304585
 21
235.8117091766
  0
LINE
  8
0
 62
7
  6
CONTINUOUS
 10
114.2883505213
 20
235.9664062276
 11
112.1503411908
 21
234.544208501
  0
LINE
  8
0
 62
7
  6
CONTINUOUS
 10
117.7590114406
 20
235.0325208741
 11
117.5383914009
 21
234.8875719091
  0
LINE
  8
0
 62
7
  6
CONTINUOUS
 10
115.4936134659
 20
235.7226861212
 11
115.2996737996
 21
235.6119365245
  0
LINE
  8
0
 62
7
  6
CONTINUOUS
 10
116.0283165887
 20
233.4139109597
 11
116.22225626
 21
233.5246605743
  0
LINE
  8
0
 62
7
  6
CONTINUOUS
 10
123.2696848533
 20
231.3825971417
 11
123.5112369558
 21
231.4890677298
  0
LINE
  8
0
 62
7
  6
CONTINUOUS
 10
126.6830839444
 20
229.7114920247
 11
126.8649014723
 21
229.7685600073
  0
LINE
  8
0
 62
7
  6
CONTINUOUS
 10
126.7634790283
 20
227.9235123203
 11
126.5816614767
 21
227.866444309
  0
LINE
  8
0
 62
7
  6
CONTINUOUS
 10
159.2107394781
 20
203.282742348
 11
162.7834465713
 21
204.107566772
  0
LINE
  8
LAY0001
 62
7
  6
CONTINUOUS
 10
124.8542910265
 20
188.0544289569
 11
124.748752046
 21
188.0602216886
  0
LINE
  8
LAY0001
 62
7
  6
CONTINUOUS
 10
124.6907551961
 20
187.9187260497
 11
124.8102106262
 21
187.8990168639
  0
LINE
  8
LAY0001
 62
7
  6
CONTINUOUS
 10
121.183954309
 20
183.994431276
 11
121.2506401612
 21
183.9776183587
  0
LINE
  8
LAY0001
 62
7
  6
CONTINUOUS
 10
122.4307825331
 20
185.2412595001
 11
122.4974683854
 21
185.2244465828
  0
LINE
  8
LAY0001
 62
7
  6
CONTINUOUS
 10
122.0469141958
 20
185.5253813969
 11
122.1136000529
 21
185.5085684747
  0
LINE
  8
LAY0001
 62
7
  6
CONTINUOUS
 10
122.2910523564
 20
185.6303549222
 11
122.2243664969
 21
185.6471678468
  0
LINE
  8
LAY0001
 62
7
  6
CONTINUOUS
 10
124.4396238822
 20
187.222267926
 11
124.3729379587
 21
187.239080772
  0
LINE
  8
0
 62
7
  6
CONTINUOUS
 10
88.2595474851
 20
227.3259381534
 11
88.2690574846
 21
227.5490695336
  0
LINE
  8
0
 62
7
  6
CONTINUOUS
 10
88.3763037197
 20
229.2999622424
 11
88.3598342186
 21
229.151986583
  0
LINE
  8
0
 62
7
  6
CONTINUOUS
 10
88.4909609118
 20
228.9844302278
 11
88.507430413
 21
229.1324058872
  0
LINE
  8
0
 62
7
  6
CONTINUOUS
 10
98.6597714874
 20
234.8834122317
 11
98.3252931653
 21
234.0500359104
  0
LINE
  8
0
 62
7
  6
CONTINUOUS
 10
98.0882427803
 20
232.9127452732
 11
98.4227199445
 21
233.7461213016
  0
LINE
  8
0
 62
7
  6
CONTINUOUS
 10
95.537165121
 20
233.527933912
 11
95.4804186829
 21
233.3902820422
  0
LINE
  8
0
 62
7
  6
CONTINUOUS
 10
95.7333519639
 20
233.3203413279
 11
95.8184705156
 21
233.526818686
  0
LINE
  8
0
 62
7
  6
CONTINUOUS
 10
97.1459107202
 20
232.7435392421
 11
97.231029265
 21
232.9500166175
  0
LINE
  8
0
 62
7
  6
CONTINUOUS
 10
98.2252150561
 20
233.8503800487
 11
97.7906597599
 21
232.8173482295
  0
LINE
  8
0
 62
7
  6
CONTINUOUS
 10
98.5227980765
 20
233.9457770924
 11
98.9573545079
 21
234.9788092754
  0
LINE
  8
0
 62
7
  6
CONTINUOUS
 10
102.4122995432
 20
235.9211389999
 11
102.4926271209
 21
236.0939456672
  0
LINE
  8
0
 62
7
  6
CONTINUOUS
 10
103.9955125816
 20
234.4296829722
 11
104.1713506332
 21
234.6700020782
  0
LINE
  8
0
 62
7
  6
CONTINUOUS
 10
115.2996737996
 20
235.6119365245
 11
115.1412808996
 21
235.4357778146
  0
LINE
  8
0
 62
7
  6
CONTINUOUS
 10
115.2980220227
 20
235.2253028451
 11
115.5857065454
 21
235.4752951976
  0
LINE
  8
0
 62
7
  6
CONTINUOUS
 10
116.2239102996
 20
233.911293494
 11
115.9362235142
 21
233.6613019012
  0
LINE
  8
0
 62
7
  6
CONTINUOUS
 10
117.6780261567
 20
234.6653814809
 11
117.8312879102
 21
234.7786320868
  0
LINE
  8
0
 62
7
  6
CONTINUOUS
 10
118.6524532315
 20
233.8489406597
 11
118.4991914781
 21
233.7356900537
  0
LINE
  8
0
 62
7
  6
CONTINUOUS
 10
118.3372231189
 20
233.0014103663
 11
118.1839613525
 21
232.8881597255
  0
LINE
  8
0
 62
7
  6
CONTINUOUS
 10
118.2562378155
 20
232.6342709207
 11
118.4768578617
 21
232.7792199032
  0
LINE
  8
0
 62
7
  6
CONTINUOUS
 10
58.1331711401
 20
189.8384264427
 11
55.0580312162
 21
187.841407226
  0
LINE
  8
0
 62
7
  6
CONTINUOUS
 10
126.623557359
 20
229.9670776865
 11
126.3741592579
 21
229.8278499005
  0
LINE
  8
LAY0001
 62
7
  6
CONTINUOUS
 10
122.9701323246
 20
186.1981031781
 11
122.889530001
 21
186.2288325668
  0
LINE
  8
LAY0001
 62
7
  6
CONTINUOUS
 10
123.5279912391
 20
186.3384682061
 11
123.4473887826
 21
186.3691974423
  0
LINE
  8
LAY0001
 62
7
  6
CONTINUOUS
 10
124.248255122
 20
187.1143979353
 11
124.3288575785
 21
187.0836686991
  0
LINE
  8
LAY0001
 62
7
  6
CONTINUOUS
 10
121.0894355336
 20
184.0390771165
 11
121.183954309
 21
183.994431276
  0
LINE
  8
LAY0001
 62
7
  6
CONTINUOUS
 10
121.308637217
 20
184.119114184
 11
121.2141181563
 21
184.1637597391
  0
LINE
  8
LAY0001
 62
7
  6
CONTINUOUS
 10
122.1136000529
 20
185.5085684747
 11
122.2081191185
 21
185.4639229148
  0
LINE
  8
LAY0001
 62
7
  6
CONTINUOUS
 10
123.3227060173
 20
186.244514677
 11
123.4172247927
 21
186.1998688365
  0
LINE
  8
0
 62
7
  6
CONTINUOUS
 10
145.702416765
 20
170.5473172561
 11
148.9694561005
 21
168.8826775701
  0
LINE
  8
0
 62
7
  6
CONTINUOUS
 10
95.4804186829
 20
233.3902820422
 11
95.4635137817
 21
233.1539894739
  0
LINE
  8
0
 62
7
  6
CONTINUOUS
 10
95.7248989606
 20
233.2021948205
 11
95.7333519639
 21
233.3203413279
  0
LINE
  8
0
 62
7
  6
CONTINUOUS
 10
79.7287195168
 20
161.7721632647
 11
78.6566848751
 21
158.2656959498
  0
LINE
  8
0
 62
7
  6
CONTINUOUS
 10
102.1681439237
 20
236.1546436095
 11
102.095407163
 21
235.9291900286
  0
LINE
  8
0
 62
7
  6
CONTINUOUS
 10
104.1713506332
 20
234.6700020782
 11
104.2440873886
 21
234.895455696
  0
LINE
  8
0
 62
7
  6
CONTINUOUS
 10
103.9271950296
 20
234.9035065773
 11
103.8468674307
 21
234.7307000574
  0
LINE
  8
0
 62
7
  6
CONTINUOUS
 10
115.1412808996
 20
235.4357778146
 11
115.0475360431
 21
235.2965350587
  0
LINE
  8
0
 62
7
  6
CONTINUOUS
 10
117.573581926
 20
234.5339735441
 11
117.6780261567
 21
234.6653814809
  0
LINE
  8
0
 62
7
  6
CONTINUOUS
 10
118.7568974103
 20
233.9803484568
 11
118.6524532315
 21
233.8489406597
  0
LINE
  8
0
 62
7
  6
CONTINUOUS
 10
117.5383914009
 20
234.8875719091
 11
117.348043703
 21
234.6746117255
  0
LINE
  8
0
 62
7
  6
CONTINUOUS
 10
118.4768578617
 20
232.7792199032
 11
118.6672055207
 21
232.9921799821
  0
LINE
  8
0
 62
7
  6
CONTINUOUS
 10
116.22225626
 20
233.5246605743
 11
116.3806491702
 21
233.7008193201
  0
LINE
  8
0
 62
7
  6
CONTINUOUS
 10
123.3916560544
 20
231.8033717293
 11
123.2669195906
 21
231.6910444832
  0
LINE
  8
0
 62
7
  6
CONTINUOUS
 10
123.5112369558
 20
231.4890677298
 11
123.6359734197
 21
231.6013949759
  0
LINE
  8
0
 62
7
  6
CONTINUOUS
 10
124.097271521
 20
230.2790563353
 11
125.300322075
 21
231.1928292596
  0
LINE
  8
0
 62
7
  6
CONTINUOUS
 10
123.3986244338
 20
229.7276770663
 11
123.9333129014
 21
230.1337987981
  0
LINE
  8
0
 62
7
  6
CONTINUOUS
 10
125.2501923819
 20
231.4863591487
 11
123.1417215946
 21
229.9056017167
  0
LINE
  8
0
 62
7
  6
CONTINUOUS
 10
126.5414878855
 20
229.6213396667
 11
126.6830839444
 21
229.7114920247
  0
LINE
  8
0
 62
7
  6
CONTINUOUS
 10
126.0008440104
 20
228.9640621022
 11
126.1424400219
 21
229.0542144027
  0
LINE
  8
0
 62
7
  6
CONTINUOUS
 10
126.9050749925
 20
228.0136645633
 11
126.7634790283
 21
227.9235123203
  0
LINE
  8
0
 62
7
  6
CONTINUOUS
 10
128.9972490148
 20
225.2811648674
 11
128.0734885841
 21
224.7478315341
  0
LINE
  8
0
 62
7
  6
CONTINUOUS
 10
126.8230055901
 20
227.6679266298
 11
127.0724036202
 21
227.8071543295
  0
LINE
  8
DEFAULT_1
 62
2
  6
CENTER
 10
169.0142231947
 20
205.4719356165
 11
109.4867574935
 21
205.4719356165
  0
LINE
  8
0
 62
2
  6
CONTINUOUS
 10
108.3666574935
 20
205.4719356165
 11
106.6066574935
 21
205.4719356165
  0
LINE
  8
DEFAULT_1
 62
2
  6
CENTER
 10
56.2582056893
 20
205.4719356165
 11
105.4865574935
 21
205.4719356165
  0
LINE
  8
0
 62
7
  6
CONTINUOUS
 10
54.282457778
 20
219.4088506242
 11
64.1137757044
 21
215.8305435354
  0
LINE
  8
LAY0001
 62
7
  6
CONTINUOUS
 10
124.9627263593
 20
187.9958667507
 11
124.8542910265
 21
188.0544289569
  0
LINE
  8
0
 62
7
  6
CONTINUOUS
 10
79.5760659722
 20
214.196039699
 11
80.4998264029
 21
213.6627063657
  0
LINE
  8
0
 62
7
  6
CONTINUOUS
 10
114.3125155679
 20
154.153509239
 11
115.7452031316
 21
150.7783088525
  0
LINE
  8
0
 62
7
  6
CONTINUOUS
 10
88.0912477051
 20
227.746849838
 11
88.1204696503
 21
227.5585394987
  0
LINE
  8
0
 62
7
  6
CONTINUOUS
 10
96.9581757543
 20
233.0692779389
 11
96.9696440861
 21
232.901811271
  0
LINE
  8
0
 62
7
  6
CONTINUOUS
 10
102.095407163
 20
235.9291900286
 11
102.0818107286
 21
235.6585218223
  0
LINE
  8
0
 62
7
  6
CONTINUOUS
 10
102.3911122493
 20
235.7031180022
 11
102.4122995432
 21
235.9211389999
  0
LINE
  8
0
 62
7
  6
CONTINUOUS
 10
103.9483823235
 20
235.1215275749
 11
103.9271950296
 21
234.9035065773
  0
LINE
  8
0
 62
7
  6
CONTINUOUS
 10
111.9730271212
 20
260.2879638825
 11
110.1562729995
 21
249.9846392612
  0
LINE
  8
0
 62
7
  6
CONTINUOUS
 10
115.1606263765
 20
234.9325720904
 11
115.2980220227
 21
235.2253028451
  0
LINE
  8
0
 62
7
  6
CONTINUOUS
 10
115.0475360431
 20
235.2965350587
 11
114.9246922026
 21
235.0549665833
  0
LINE
  8
0
 62
7
  6
CONTINUOUS
 10
116.4743939859
 20
233.8400619326
 11
116.5972401401
 21
234.0816298276
  0
LINE
  8
0
 62
7
  6
CONTINUOUS
 10
118.6017425759
 20
233.4137893563
 11
118.4416672977
 21
233.1328181634
  0
LINE
  8
0
 62
7
  6
CONTINUOUS
 10
116.3806491702
 20
233.7008193201
 11
116.4743939859
 21
233.8400619326
  0
LINE
  8
0
 62
7
  6
CONTINUOUS
 10
118.4416672977
 20
233.1328181634
 11
118.3372231189
 21
233.0014103663
  0
LINE
  8
0
 62
7
  6
CONTINUOUS
 10
126.3741592579
 20
229.8278499005
 11
126.0974023368
 21
229.5733782808
  0
LINE
  8
0
 62
7
  6
CONTINUOUS
 10
126.2985212037
 20
229.4079478912
 11
126.5414878855
 21
229.6213396667
  0
LINE
  8
0
 62
7
  6
CONTINUOUS
 10
146.1584797982
 20
244.5796666543
 11
138.1439159936
 21
237.8546491218
  0
LINE
  8
0
 62
7
  6
CONTINUOUS
 10
133.3122248767
 20
220.6902540408
 11
132.0639156815
 21
219.9695423909
  0
LINE
  8
0
 62
7
  6
CONTINUOUS
 10
131.1401552508
 20
219.4362090576
 11
129.8918460556
 21
218.7154974077
  0
LINE
  8
0
 62
7
  6
CONTINUOUS
 10
162.2489570293
 20
210.5724274396
 11
151.786687018
 21
210.5724274396
  0
LINE
  8
0
 62
7
  6
CONTINUOUS
 10
81.3944234436
 20
220.2283738254
 11
82.6427326388
 21
219.5076621755
  0
LINE
  8
0
 62
7
  6
CONTINUOUS
 10
83.5664930695
 20
218.9743288422
 11
84.8148022647
 21
218.2536171923
  0
LINE
  8
LAY0001
 62
7
  6
CONTINUOUS
 10
120.6034882845
 20
182.526320567
 11
122.2298338812
 21
180.8999749703
  0
LINE
  8
LAY0001
 62
7
  6
CONTINUOUS
 10
119.9110590956
 20
183.2225287383
 11
119.9388920188
 21
183.1946958151
  0
LINE
  8
LAY0001
 62
7
  6
CONTINUOUS
 10
122.8308746452
 20
181.5010157343
 11
121.2045290485
 21
183.127361331
  0
LINE
  8
LAY0001
 62
7
  6
CONTINUOUS
 10
121.3459504047
 20
183.2687826873
 11
122.2651892203
 21
182.3495438717
  0
LINE
  8
LAY0001
 62
7
  6
CONTINUOUS
 10
120.987358169
 20
183.7421692896
 11
120.9595252458
 21
183.7700022128
  0
LINE
  8
LAY0001
 62
7
  6
CONTINUOUS
 10
120.8250227245
 20
184.3034899256
 11
121.0894355336
 21
184.0390771165
  0
LINE
  8
LAY0001
 62
7
  6
CONTINUOUS
 10
121.2141181563
 20
184.1637597391
 11
120.9497053471
 21
184.4281725483
  0
LINE
  8
LAY0001
 62
7
  6
CONTINUOUS
 10
122.9015853234
 20
182.9152292967
 11
121.9469911688
 21
183.8698234513
  0
LINE
  8
LAY0001
 62
7
  6
CONTINUOUS
 10
121.3985634736
 20
184.8770306747
 11
121.7186421291
 21
184.5569520192
  0
LINE
  8
LAY0001
 62
7
  6
CONTINUOUS
 10
121.7743079754
 20
184.5012861729
 11
121.8438902833
 21
184.4317038649
  0
LINE
  8
LAY0001
 62
7
  6
CONTINUOUS
 10
121.9685731914
 20
184.5563867729
 11
121.5232463816
 21
185.0017135827
  0
LINE
  8
LAY0001
 62
7
  6
CONTINUOUS
 10
121.7227389773
 20
185.2012061785
 11
122.1680657871
 21
184.7558793687
  0
LINE
  8
LAY0001
 62
7
  6
CONTINUOUS
 10
122.307230442
 20
184.6167147138
 11
122.3768127499
 21
184.5471324059
  0
LINE
  8
LAY0001
 62
7
  6
CONTINUOUS
 10
122.5014953726
 20
184.6718150286
 11
122.4319130647
 21
184.7413973365
  0
LINE
  8
LAY0001
 62
7
  6
CONTINUOUS
 10
122.2927484098
 20
184.8805619914
 11
121.8474216
 21
185.3258888012
  0
LINE
  8
LAY0001
 62
7
  6
CONTINUOUS
 10
122.7601639671
 20
184.6829962497
 11
123.5379814264
 21
183.9051787904
  0
LINE
  8
LAY0001
 62
7
  6
CONTINUOUS
 10
124.1036668514
 20
183.3394933654
 11
124.3865095638
 21
183.0566506529
  0
LINE
  8
LAY0001
 62
7
  6
CONTINUOUS
 10
122.2081191185
 20
185.4639229148
 11
122.4307825331
 21
185.2412595001
  0
LINE
  8
LAY0001
 62
7
  6
CONTINUOUS
 10
122.5554651558
 20
185.3659421228
 11
122.513715771
 21
185.4076915075
  0
LINE
  8
LAY0001
 62
7
  6
CONTINUOUS
 10
122.4580499052
 20
185.4633573734
 11
122.3745511357
 21
185.5468561429
  0
LINE
  8
LAY0001
 62
7
  6
CONTINUOUS
 10
124.9875503279
 20
183.6576914169
 11
123.3612047311
 21
185.2840370137
  0
LINE
  8
LAY0001
 62
7
  6
CONTINUOUS
 10
122.8315330879
 20
186.0873368841
 11
122.8593660208
 21
186.0595039512
  0
LINE
  8
LAY0001
 62
7
  6
CONTINUOUS
 10
123.5026260874
 20
185.4254583699
 11
125.1289716841
 21
183.7991127732
  0
LINE
  8
LAY0001
 62
7
  6
CONTINUOUS
 10
123.206712191
 20
185.9615233117
 11
123.1788792679
 21
185.9893562348
  0
LINE
  8
LAY0001
 62
7
  6
CONTINUOUS
 10
123.0118817093
 20
186.1563537934
 11
122.9701323246
 21
186.1981031781
  0
LINE
  8
LAY0001
 62
7
  6
CONTINUOUS
 10
123.0443767465
 20
186.5228439477
 11
123.3227060173
 21
186.244514677
  0
LINE
  8
LAY0001
 62
7
  6
CONTINUOUS
 10
123.4473887826
 20
186.3691974423
 11
123.1690595119
 21
186.647526713
  0
LINE
  8
LAY0001
 62
7
  6
CONTINUOUS
 10
125.7300124481
 20
184.4001535372
 11
124.9521949888
 21
185.1779709965
  0
LINE
  8
LAY0001
 62
7
  6
CONTINUOUS
 10
124.3865095638
 20
185.7436564214
 11
124.1036668514
 21
186.0264991339
  0
LINE
  8
LAY0001
 62
7
  6
CONTINUOUS
 10
123.6179176383
 20
187.0963848395
 11
123.9379962938
 21
186.776306184
  0
LINE
  8
LAY0001
 62
7
  6
CONTINUOUS
 10
123.9936621402
 20
186.7206403376
 11
124.2719914109
 21
186.4423110669
  0
LINE
  8
LAY0001
 62
7
  6
CONTINUOUS
 10
124.3966742476
 20
186.5669939036
 11
123.742600475
 21
187.2210676762
  0
LINE
  8
0
 62
7
  6
CONTINUOUS
 10
75.688352235
 20
250.3472322727
 11
80.9194872407
 21
241.2866406616
  0
LINE
  8
0
 62
7
  6
CONTINUOUS
 10
95.4635137817
 20
233.1539894739
 11
95.5347416692
 21
232.8385606075
  0
LINE
  8
0
 62
7
  6
CONTINUOUS
 10
97.231029265
 20
232.9500166175
 11
97.1996418228
 21
233.1668043044
  0
LINE
  8
0
 62
7
  6
CONTINUOUS
 10
104.6524758772
 20
236.8614638574
 11
104.7948732161
 21
234.3655225524
  0
LINE
  8
0
 62
7
  6
CONTINUOUS
 10
105.1068658792
 20
234.3833222198
 11
104.9826469219
 21
236.5606327578
  0
LINE
  8
0
 62
7
  6
CONTINUOUS
 10
106.4204335082
 20
236.9623285938
 11
106.5416227331
 21
234.8381232207
  0
LINE
  8
DEFAULT_1
 62
2
  6
CENTER
 10
107.4866574935
 20
261.9059080963
 11
107.4866574935
 21
207.4720356165
  0
LINE
  8
0
 62
2
  6
CONTINUOUS
 10
107.4866574935
 20
206.3519356165
 11
107.4866574935
 21
204.5919356165
  0
LINE
  8
DEFAULT_1
 62
2
  6
CENTER
 10
107.4866574935
 20
148.1750547046
 11
107.4866574935
 21
203.4718356165
  0
LINE
  8
0
 62
7
  6
CONTINUOUS
 10
107.7533241602
 20
175.4971789835
 11
107.7533241602
 21
176.9386022832
  0
LINE
  8
0
 62
7
  6
CONTINUOUS
 10
107.7533241602
 20
178.0052689499
 11
107.7533241602
 21
179.4466922496
  0
LINE
  8
0
 62
7
  6
CONTINUOUS
 10
107.3565700131
 20
236.9856149241
 11
107.292514082
 21
234.4864356913
  0
LINE
  8
0
 62
7
  6
CONTINUOUS
 10
107.613088839
 20
234.7974728565
 11
107.6348951136
 21
235.6482572864
  0
LINE
  8
0
 62
7
  6
CONTINUOUS
 10
107.6430724656
 20
235.9673014058
 11
107.6607900652
 21
236.6585638133
  0
LINE
  8
0
 62
7
  6
CONTINUOUS
 10
108.9886179925
 20
235.6135603034
 11
108.9967953445
 21
235.9326044227
  0
LINE
  8
0
 62
7
  6
CONTINUOUS
 10
104.2440873886
 20
234.895455696
 11
104.2576838442
 21
235.1661237548
  0
LINE
  8
0
 62
7
  6
CONTINUOUS
 10
112.5511782458
 20
236.5795825569
 11
112.4997888863
 21
236.3186371979
  0
LINE
  8
0
 62
7
  6
CONTINUOUS
 10
112.1503411908
 20
234.544208501
 11
112.0681182082
 21
234.1266958901
  0
LINE
  8
0
 62
7
  6
CONTINUOUS
 10
114.9246922026
 20
235.0549665833
 11
114.7937465912
 21
234.5945002002
  0
LINE
  8
0
 62
7
  6
CONTINUOUS
 10
115.0587797898
 20
234.5744315702
 11
115.1606263765
 21
234.9325720904
  0
LINE
  8
0
 62
7
  6
CONTINUOUS
 10
116.4631502596
 20
234.5621654928
 11
116.3613036729
 21
234.2040249726
  0
LINE
  8
0
 62
7
  6
CONTINUOUS
 10
116.5972401401
 20
234.0816298276
 11
116.7281857515
 21
234.5420962107
  0
LINE
  8
0
 62
7
  6
CONTINUOUS
 10
117.348043703
 20
234.6746117255
 11
117.2738719179
 21
234.4751928494
  0
LINE
  8
0
 62
7
  6
CONTINUOUS
 10
117.5364960334
 20
234.4342641061
 11
117.573581926
 21
234.5339735441
  0
LINE
  8
0
 62
7
  6
CONTINUOUS
 10
118.7939833028
 20
234.0800578948
 11
118.7568974103
 21
233.9803484568
  0
LINE
  8
0
 62
7
  6
CONTINUOUS
 10
118.6388284685
 20
233.5134987943
 11
118.6017425759
 21
233.4137893563
  0
LINE
  8
0
 62
7
  6
CONTINUOUS
 10
118.8458215105
 20
233.3230067251
 11
118.9756221344
 21
233.6719897583
  0
LINE
  8
0
 62
7
  6
CONTINUOUS
 10
116.3613036729
 20
234.2040249726
 11
116.2239102996
 21
233.911293494
  0
LINE
  8
0
 62
7
  6
CONTINUOUS
 10
118.6672055207
 20
232.9921799821
 11
118.8458215105
 21
233.3230067251
  0
LINE
  8
0
 62
7
  6
CONTINUOUS
 10
122.3637152919
 20
233.2541522855
 11
121.116717202
 21
231.087358395
  0
LINE
  8
0
 62
7
  6
CONTINUOUS
 10
121.3875664383
 20
230.9314836338
 11
121.9447358055
 21
231.8996255986
  0
LINE
  8
0
 62
7
  6
CONTINUOUS
 10
122.1039270321
 20
232.1762375516
 11
122.5019051728
 21
232.8677675634
  0
LINE
  8
0
 62
7
  6
CONTINUOUS
 10
123.471251742
 20
231.9416778349
 11
123.3916560544
 21
231.8033717293
  0
LINE
  8
0
 62
7
  6
CONTINUOUS
 10
123.6359734197
 20
231.6013949759
 11
123.7421009783
 21
231.7858030737
  0
LINE
  8
0
 62
7
  6
CONTINUOUS
 10
126.0974023368
 20
229.5733782808
 11
125.8608706621
 21
229.2858193715
  0
LINE
  8
0
 62
7
  6
CONTINUOUS
 10
126.2309407252
 20
229.3257882028
 11
126.2985212037
 21
229.4079478912
  0
LINE
  8
0
 62
7
  6
CONTINUOUS
 10
125.8994732927
 20
228.8408225697
 11
126.0008440104
 21
228.9640621022
  0
LINE
  8
0
 62
7
  6
CONTINUOUS
 10
127.0064457102
 20
228.1369040959
 11
126.9050749925
 21
228.0136645633
  0
LINE
  8
0
 62
7
  6
CONTINUOUS
 10
127.0724036202
 20
227.8071543295
 11
127.2413548637
 21
228.012553608
  0
LINE
  8
0
 62
7
  6
CONTINUOUS
 10
57.7713996667
 20
181.949231552
 11
67.6027175931
 21
185.5275386408
  0
LINE
  8
0
 62
7
  6
CONTINUOUS
 10
87.0518244538
 20
226.9554349545
 11
87.232804259
 21
226.8320317876
  0
LINE
  8
0
 62
7
  6
CONTINUOUS
 10
152.7155456925
 20
174.1786114152
 11
144.7009818879
 21
180.9036289477
  0
LINE
  8
LAY0001
 62
7
  6
CONTINUOUS
 10
125.5885910919
 20
186.1679204902
 11
126.5431852465
 21
185.2133263356
  0
LINE
  8
LAY0001
 62
7
  6
CONTINUOUS
 10
124.8102106262
 20
187.8990168639
 11
124.851960011
 21
187.8572674792
  0
LINE
  8
LAY0001
 62
7
  6
CONTINUOUS
 10
127.1442260105
 20
185.8143670996
 11
126.2249871949
 21
186.7336059151
  0
LINE
  8
0
 62
7
  6
CONTINUOUS
 10
86.3405853856
 20
227.7465561163
 11
87.0518244538
 21
226.9554349545
  0
LINE
  8
0
 62
7
  6
CONTINUOUS
 10
87.2454843265
 20
227.1295403558
 11
86.5342452583
 21
227.9206615176
  0
LINE
  8
0
 62
7
  6
CONTINUOUS
 10
87.308884735
 20
228.6170831105
 11
88.0912477051
 21
227.746849838
  0
LINE
  8
0
 62
7
  6
CONTINUOUS
 10
88.4271554479
 20
227.7627310276
 11
87.5025446492
 21
228.7911885491
  0
LINE
  8
0
 62
7
  6
CONTINUOUS
 10
87.9908437912
 20
229.2009383683
 11
89.0398574292
 21
227.8604874093
  0
LINE
  8
0
 62
7
  6
CONTINUOUS
 10
89.24493949
 20
228.020981068
 11
88.4909609118
 21
228.9844302278
  0
LINE
  8
0
 62
7
  6
CONTINUOUS
 10
88.3598342186
 20
229.151986583
 11
88.195925852
 21
229.361432027
  0
LINE
  8
0
 62
7
  6
CONTINUOUS
 10
89.3603828832
 20
229.3946509337
 11
89.9832347681
 21
228.5987581291
  0
LINE
  8
0
 62
7
  6
CONTINUOUS
 10
90.1883167115
 20
228.759251696
 11
89.5654648267
 21
229.5551445005
  0
LINE
  8
0
 62
7
  6
CONTINUOUS
 10
89.0773462641
 20
231.0329257041
 11
89.2318830548
 21
230.8164731066
  0
LINE
  8
0
 62
7
  6
CONTINUOUS
 10
89.5409567228
 20
230.3835677903
 11
90.5299922699
 21
228.998271045
  0
LINE
  8
0
 62
7
  6
CONTINUOUS
 10
90.7419353827
 20
229.1495882795
 11
89.7528998356
 21
230.5348850249
  0
LINE
  8
0
 62
7
  6
CONTINUOUS
 10
89.4438261676
 20
230.9677903412
 11
89.2892893769
 21
231.1842429387
  0
LINE
  8
0
 62
7
  6
CONTINUOUS
 10
92.0365911378
 20
232.9387220295
 11
93.1968810433
 21
230.7242859083
  0
LINE
  8
0
 62
7
  6
CONTINUOUS
 10
93.4736855585
 20
230.8693221464
 11
92.9305711302
 21
231.9058667223
  0
LINE
  8
0
 62
7
  6
CONTINUOUS
 10
92.7824490323
 20
232.1885606615
 11
92.4615177509
 21
232.8010643285
  0
LINE
  8
0
 62
7
  6
CONTINUOUS
 10
94.1300570106
 20
232.5343569034
 11
93.9819349126
 21
232.8170508426
  0
LINE
  8
0
 62
7
  6
CONTINUOUS
 10
93.8455403266
 20
233.5262455194
 11
93.6974182287
 21
233.8089394587
  0
LINE
  8
0
 62
7
  6
CONTINUOUS
 10
94.1954199756
 20
234.03082144
 11
95.2408931022
 21
231.7599216313
  0
LINE
  8
0
 62
7
  6
CONTINUOUS
 10
95.4774453461
 20
231.868825165
 11
94.4319722195
 21
234.1397249738
  0
LINE
  8
0
 62
7
  6
CONTINUOUS
 10
95.8160481692
 20
232.837445828
 11
95.7762077377
 21
232.936086973
  0
LINE
  8
0
 62
7
  6
CONTINUOUS
 10
95.7448191763
 20
233.152874248
 11
95.7248989606
 21
233.2021948205
  0
LINE
  8
0
 62
7
  6
CONTINUOUS
 10
96.7191331376
 20
233.6611248779
 11
96.7589735691
 21
233.5624837329
  0
LINE
  8
0
 62
7
  6
CONTINUOUS
 10
97.0801205284
 20
233.4627277394
 11
97.0004396376
 21
233.6600100984
  0
LINE
  8
0
 62
7
  6
CONTINUOUS
 10
102.0818107286
 20
235.6585218223
 11
102.1956733126
 21
234.8688158323
  0
LINE
  8
0
 62
7
  6
CONTINUOUS
 10
102.5049748333
 20
234.9134120121
 11
102.3911122493
 21
235.7031180022
  0
LINE
  8
0
 62
7
  6
CONTINUOUS
 10
103.8345197395
 20
235.911233565
 11
103.9483823235
 21
235.1215275749
  0
LINE
  8
0
 62
7
  6
CONTINUOUS
 10
106.8748235101
 20
234.4841869562
 11
106.7324261713
 21
236.9801282611
  0
LINE
  8
0
 62
7
  6
CONTINUOUS
 10
113.8866574935
 20
176.9386022832
 11
113.8866574935
 21
178.0052689499
  0
LINE
  8
0
 62
7
  6
CONTINUOUS
 10
109.1668985066
 20
234.4383937429
 11
109.1750758595
 21
234.7574378995
  0
LINE
  8
0
 62
7
  6
CONTINUOUS
 10
109.2227770858
 20
236.6185288564
 11
109.2309544377
 21
236.9375729757
  0
LINE
  8
0
 62
7
  6
CONTINUOUS
 10
114.7937465912
 20
234.5945002002
 11
114.7710952875
 21
234.3244392893
  0
LINE
  8
0
 62
7
  6
CONTINUOUS
 10
115.021581267
 20
234.2532070758
 11
115.0587797898
 21
234.5744315702
  0
LINE
  8
0
 62
7
  6
CONTINUOUS
 10
116.5003510553
 20
234.8833892634
 11
116.4631502596
 21
234.5621654928
  0
LINE
  8
0
 62
7
  6
CONTINUOUS
 10
114.1121896508
 20
233.7241460124
 11
114.1738568895
 21
234.0372804797
  0
LINE
  8
0
 62
7
  6
CONTINUOUS
 10
114.523304585
 20
235.8117091766
 11
114.5952496884
 21
236.1770326791
  0
LINE
  8
0
 62
7
  6
CONTINUOUS
 10
118.9756221344
 20
233.6719897583
 11
119.0566074183
 21
234.0391291515
  0
LINE
  8
0
 62
7
  6
CONTINUOUS
 10
84.5226632161
 20
155.4961471373
 11
89.7537982218
 21
164.5567387484
  0
LINE
  8
0
 62
7
  6
CONTINUOUS
 10
125.8608706621
 20
229.2858193715
 11
125.6645641865
 21
228.9651731151
  0
LINE
  8
0
 62
7
  6
CONTINUOUS
 10
123.2669195906
 20
231.6910444832
 11
123.1235720808
 21
231.650799149
  0
LINE
  8
0
 62
7
  6
CONTINUOUS
 10
126.5671725646
 20
227.6028660783
 11
126.8230055901
 21
227.6679266298
  0
LINE
  8
0
 62
7
  6
CONTINUOUS
 10
126.8793903726
 20
230.0321382236
 11
126.623557359
 21
229.9670776865
  0
LINE
  8
0
 62
7
  6
CONTINUOUS
 10
59.6306675311
 20
225.2197823103
 11
55.9913144717
 21
225.6666386776
  0
LINE
  8
0
 62
7
  6
CONTINUOUS
 10
87.5750519971
 20
226.9966672519
 11
87.3909021593
 21
227.0456932751
  0
LINE
  8
0
 62
7
  6
CONTINUOUS
 10
87.232804259
 20
226.8320317876
 11
87.3426601375
 21
226.7877407591
  0
LINE
  8
0
 62
7
  6
CONTINUOUS
 10
88.7179911661
 20
227.5950368634
 11
88.6081352087
 21
227.6393278335
  0
LINE
  8
0
 62
7
  6
CONTINUOUS
 10
88.2690574846
 20
227.5490695336
 11
88.5243312519
 21
227.4209314247
  0
LINE
  8
0
 62
7
  6
CONTINUOUS
 10
87.3909021593
 20
227.0456932751
 11
87.2454843265
 21
227.1295403558
  0
LINE
  8
0
 62
7
  6
CONTINUOUS
 10
89.3605402122
 20
229.7324913414
 11
89.2211787097
 21
229.8260598209
  0
LINE
  8
0
 62
7
  6
CONTINUOUS
 10
88.6081352087
 20
227.6393278335
 11
88.4271554479
 21
227.7627310276
  0
LINE
  8
0
 62
7
  6
CONTINUOUS
 10
89.1554580341
 20
229.5719975908
 11
89.3603828832
 21
229.3946509337
  0
LINE
  8
0
 62
7
  6
CONTINUOUS
 10
89.5654648267
 20
229.5551445005
 11
89.3605402122
 21
229.7324913414
  0
LINE
  8
0
 62
7
  6
CONTINUOUS
 10
95.9241011458
 20
232.7089890265
 11
95.8160481692
 21
232.837445828
  0
LINE
  8
0
 62
7
  6
CONTINUOUS
 10
97.0004396376
 20
233.6600100984
 11
96.8724653398
 21
233.837787026
  0
LINE
  8
0
 62
7
  6
CONTINUOUS
 10
95.5347416692
 20
232.8385606075
 11
95.7025563984
 21
232.562142535
  0
LINE
  8
LAY0001
 62
7
  6
CONTINUOUS
 10
125.021288585
 20
187.8874313984
 11
124.9627263593
 21
187.9958667507
  0
LINE
  8
0
 62
7
  6
CONTINUOUS
 10
102.586888833
 20
234.7102565211
 11
102.5049748333
 21
234.9134120121
  0
LINE
  8
0
 62
7
  6
CONTINUOUS
 10
102.1956733126
 20
234.8688158323
 11
102.2851781504
 21
234.6130132802
  0
LINE
  8
0
 62
7
  6
CONTINUOUS
 10
104.1438212602
 20
235.9558297449
 11
104.0543164011
 21
236.2116324444
  0
LINE
  8
0
 62
7
  6
CONTINUOUS
 10
122.0190349042
 20
152.4272895711
 11
120.2022807825
 21
162.7306141924
  0
LINE
  8
0
 62
7
  6
CONTINUOUS
 10
104.2576838442
 20
235.1661237548
 11
104.1438212602
 21
235.9558297449
  0
LINE
  8
LAY0001
 62
7
  6
CONTINUOUS
 10
120.0635746415
 20
183.3193784377
 11
120.0606781858
 21
183.3721478284
  0
LINE
  8
LAY0001
 62
7
  6
CONTINUOUS
 10
120.8348423378
 20
183.6453193047
 11
120.8377387935
 21
183.5925499141
  0
LINE
  8
0
 62
7
  6
CONTINUOUS
 10
114.7710952875
 20
234.3244392893
 11
114.777543029
 21
234.1567043131
  0
LINE
  8
0
 62
7
  6
CONTINUOUS
 10
116.7508347416
 20
234.812157702
 11
116.7443870409
 21
234.9798928215
  0
LINE
  8
0
 62
7
  6
CONTINUOUS
 10
117.2738719179
 20
234.4751928494
 11
117.2787901012
 21
234.1896057031
  0
LINE
  8
0
 62
7
  6
CONTINUOUS
 10
119.0566074183
 20
234.0391291515
 11
119.051689287
 21
234.3247164375
  0
LINE
  8
0
 62
7
  6
CONTINUOUS
 10
117.0191888274
 20
233.4916395668
 11
117.0123753156
 21
233.3239190148
  0
LINE
  8
0
 62
7
  6
CONTINUOUS
 10
117.5296825346
 20
234.266543589
 11
117.5364960334
 21
234.4342641061
  0
LINE
  8
0
 62
7
  6
CONTINUOUS
 10
118.8007968536
 20
234.2477785516
 11
118.7939833028
 21
234.0800578948
  0
LINE
  8
0
 62
7
  6
CONTINUOUS
 10
116.7281857515
 20
234.5420962107
 11
116.7508347416
 21
234.812157702
  0
LINE
  8
0
 62
7
  6
CONTINUOUS
 10
123.5057065047
 20
232.1059625419
 11
123.471251742
 21
231.9416778349
  0
LINE
  8
0
 62
7
  6
CONTINUOUS
 10
123.7421009783
 20
231.7858030737
 11
123.776555741
 21
231.9500877807
  0
LINE
  8
0
 62
7
  6
CONTINUOUS
 10
124.854408496
 20
228.7194364761
 11
125.5927301542
 21
231.2491258291
  0
LINE
  8
0
 62
7
  6
CONTINUOUS
 10
124.7896563522
 20
229.5407161778
 11
124.5975056568
 21
228.8973611264
  0
LINE
  8
0
 62
7
  6
CONTINUOUS
 10
125.300322075
 20
231.1928292596
 11
124.8679780786
 21
229.7452837417
  0
LINE
  8
0
 62
7
  6
CONTINUOUS
 10
125.6645641865
 20
228.9651731151
 11
125.5760597769
 21
228.6936023154
  0
LINE
  8
0
 62
7
  6
CONTINUOUS
 10
127.2413548637
 20
228.012553608
 11
127.3298592497
 21
228.2841243789
  0
LINE
  8
0
 62
7
  6
CONTINUOUS
 10
125.8383278214
 20
228.6844957475
 11
125.8994732927
 21
228.8408225697
  0
LINE
  8
0
 62
7
  6
CONTINUOUS
 10
127.0675912288
 20
228.2932309755
 11
127.0064457102
 21
228.1369040959
  0
LINE
  8
0
 62
7
  6
CONTINUOUS
 10
127.7691324544
 20
228.8181624684
 11
127.8302779257
 21
228.9744892905
  0
LINE
  8
0
 62
7
  6
CONTINUOUS
 10
148.5167893815
 20
237.0425153004
 11
150.7234548772
 21
239.9708593195
  0
LINE
  8
0
 62
7
  6
CONTINUOUS
 10
115.7341843614
 20
233.3316537133
 11
116.0283165887
 21
233.4139109597
  0
LINE
  8
0
 62
7
  6
CONTINUOUS
 10
115.7877479825
 20
235.804942702
 11
115.4936134659
 21
235.7226861212
  0
LINE
  8
0
 62
7
  6
CONTINUOUS
 10
87.801103804
 20
227.0568394435
 11
87.5750519971
 21
226.9966672519
  0
LINE
  8
0
 62
7
  6
CONTINUOUS
 10
118.1839613525
 20
232.8881597255
 11
118.0004272053
 21
232.8429201986
  0
LINE
  8
0
 62
7
  6
CONTINUOUS
 10
118.2717601742
 20
233.4230197405
 11
118.6388284685
 21
233.5134987943
  0
LINE
  8
0
 62
7
  6
CONTINUOUS
 10
118.4991914781
 20
233.7356900537
 11
118.3156573309
 21
233.6904505269
  0
LINE
  8
0
 62
7
  6
CONTINUOUS
 10
117.8312879102
 20
234.7786320868
 11
118.0148220573
 21
234.8238716137
  0
LINE
  8
0
 62
7
  6
CONTINUOUS
 10
117.9565300372
 20
232.5754893817
 11
118.2562378155
 21
232.6342709207
  0
LINE
  8
0
 62
7
  6
CONTINUOUS
 10
118.0587214487
 20
235.0913015689
 11
117.7590114406
 21
235.0325208741
  0
LINE
  8
0
 62
7
  6
CONTINUOUS
 10
87.5655419221
 20
226.7735358163
 11
87.7528617735
 21
226.798886951
  0
LINE
  8
0
 62
7
  6
CONTINUOUS
 10
123.0095237713
 20
231.3482072763
 11
123.2696848533
 21
231.3825971417
  0
LINE
  8
0
 62
7
  6
CONTINUOUS
 10
126.1424400219
 20
229.0542144027
 11
126.2904673106
 21
229.0702025411
  0
LINE
  8
0
 62
7
  6
CONTINUOUS
 10
89.0735826326
 20
229.8456406085
 11
88.884970073
 21
229.8331226093
  0
LINE
  8
0
 62
7
  6
CONTINUOUS
 10
87.3426601375
 20
226.7877407591
 11
87.5655419221
 21
226.7735358163
  0
LINE
  8
0
 62
7
  6
CONTINUOUS
 10
89.007861957
 20
229.5915783784
 11
89.1554580341
 21
229.5719975908
  0
LINE
  8
0
 62
7
  6
CONTINUOUS
 10
89.2211787097
 20
229.8260598209
 11
89.0735826326
 21
229.8456406085
  0
LINE
  8
0
 62
7
  6
CONTINUOUS
 10
95.8788230395
 20
232.4038704888
 11
96.0152503475
 21
232.3442400513
  0
LINE
  8
0
 62
7
  6
CONTINUOUS
 10
96.8724653398
 20
233.837787026
 11
96.6479052779
 21
233.9765536753
  0
LINE
  8
0
 62
7
  6
CONTINUOUS
 10
96.5627867262
 20
233.7700763171
 11
96.7191331376
 21
233.6611248779
  0
LINE
  8
0
 62
7
  6
CONTINUOUS
 10
95.7025563984
 20
232.562142535
 11
95.8788230395
 21
232.4038704888
  0
LINE
  8
0
 62
7
  6
CONTINUOUS
 10
96.0122350121
 20
232.6298532439
 11
95.9241011458
 21
232.7089890265
  0
LINE
  8
0
 62
7
  6
CONTINUOUS
 10
83.5205134856
 20
251.3609012369
 11
81.0198410341
 21
254.0425441279
  0
LINE
  8
0
 62
7
  6
CONTINUOUS
 10
102.7127614613
 20
234.5671806745
 11
102.586888833
 21
234.7102565211
  0
LINE
  8
0
 62
7
  6
CONTINUOUS
 10
102.2851781504
 20
234.6130132802
 11
102.4186416223
 21
234.4172903355
  0
LINE
  8
0
 62
7
  6
CONTINUOUS
 10
104.0543164011
 20
236.2116324444
 11
103.9208529346
 21
236.4073553522
  0
LINE
  8
0
 62
7
  6
CONTINUOUS
 10
103.7526057398
 20
236.114389056
 11
103.8345197395
 21
235.911233565
  0
LINE
  8
LAY0001
 62
7
  6
CONTINUOUS
 10
124.0505283175
 20
187.3619979601
 11
124.0812575635
 21
187.2813954939
  0
LINE
  8
LAY0001
 62
7
  6
CONTINUOUS
 10
124.851960011
 20
187.8572674792
 11
124.8826893113
 21
187.7766650478
  0
LINE
  8
LAY0001
 62
7
  6
CONTINUOUS
 10
122.8593660208
 20
186.0595039512
 11
122.8761787954
 21
185.9928179563
  0
LINE
  8
LAY0001
 62
7
  6
CONTINUOUS
 10
124.2059404001
 20
187.4060783306
 11
124.1891275444
 21
187.4727642639
  0
LINE
  8
0
 62
7
  6
CONTINUOUS
 10
114.777543029
 20
234.1567043131
 11
114.8195398197
 21
233.9235595356
  0
LINE
  8
LAY0001
 62
7
  6
CONTINUOUS
 10
122.2881561812
 20
185.6831246031
 11
122.2910523564
 21
185.6303549222
  0
LINE
  8
LAY0001
 62
7
  6
CONTINUOUS
 10
122.3745511357
 20
185.5468561429
 11
122.3716549653
 21
185.5996258189
  0
LINE
  8
LAY0001
 62
7
  6
CONTINUOUS
 10
123.0176744781
 20
186.0508148694
 11
123.0118817093
 21
186.1563537934
  0
LINE
  8
LAY0001
 62
7
  6
CONTINUOUS
 10
123.0541965025
 20
185.8646734695
 11
123.0570928156
 21
185.8119039362
  0
LINE
  8
LAY0001
 62
7
  6
CONTINUOUS
 10
123.2096086468
 20
185.908753921
 11
123.206712191
 21
185.9615233117
  0
LINE
  8
LAY0001
 62
7
  6
CONTINUOUS
 10
124.8826893113
 20
187.7766650478
 11
124.8855856778
 21
187.723895568
  0
LINE
  8
LAY0001
 62
7
  6
CONTINUOUS
 10
125.027081307
 20
187.7818924276
 11
125.021288585
 21
187.8874313984
  0
LINE
  8
0
 62
7
  6
CONTINUOUS
 10
118.6243845754
 20
256.0300631508
 11
118.4324851638
 21
259.6917220535
  0
LINE
  8
0
 62
7
  6
CONTINUOUS
 10
125.5760597769
 20
228.6936023154
 11
125.5615708648
 21
228.4300240847
  0
LINE
  8
LAY0001
 62
7
  6
CONTINUOUS
 10
119.9191826409
 20
183.3141510628
 11
119.9110590956
 21
183.2225287383
  0
LINE
  8
LAY0001
 62
7
  6
CONTINUOUS
 10
120.9792343334
 20
183.6505466845
 11
120.987358169
 21
183.7421692896
  0
LINE
  8
0
 62
7
  6
CONTINUOUS
 10
125.8174038903
 20
228.4950846362
 11
125.8383278214
 21
228.6844957475
  0
LINE
  8
0
 62
7
  6
CONTINUOUS
 10
127.5889338124
 20
229.1730069697
 11
127.5680099049
 21
228.9835958871
  0
LINE
  8
LAY0001
 62
7
  6
CONTINUOUS
 10
124.6710459957
 20
188.0381814944
 11
124.5684033735
 21
187.9912047234
  0
LINE
  8
LAY0001
 62
7
  6
CONTINUOUS
 10
124.5422665288
 20
187.2692447263
 11
124.4396238822
 21
187.222267926
  0
LINE
  8
LAY0001
 62
7
  6
CONTINUOUS
 10
123.5477003268
 20
186.2190126779
 11
123.6503429377
 21
186.2659894424
  0
LINE
  8
LAY0001
 62
7
  6
CONTINUOUS
 10
122.5751745288
 20
185.2464868799
 11
122.6778171397
 21
185.2934636445
  0
LINE
  8
LAY0001
 62
7
  6
CONTINUOUS
 10
120.6313227596
 20
183.9984582583
 11
120.5286801463
 21
183.9514814962
  0
LINE
  8
LAY0001
 62
7
  6
CONTINUOUS
 10
120.8539861791
 20
183.7757948388
 11
120.7124906197
 21
183.7177980879
  0
LINE
  8
LAY0001
 62
7
  6
CONTINUOUS
 10
120.0444308098
 20
183.1889028939
 11
120.1859263498
 21
183.2468996643
  0
LINE
  8
0
 62
7
  6
CONTINUOUS
 10
107.7533241602
 20
179.4466922496
 11
101.0866574935
 21
177.4719356165
  0
LINE
  8
0
 62
7
  6
CONTINUOUS
 10
96.3647693979
 20
232.3133096023
 11
96.6744480133
 21
232.3810203069
  0
LINE
  8
0
 62
7
  6
CONTINUOUS
 10
96.0683884821
 20
233.7424911124
 11
96.3780670957
 21
233.8102018213
  0
LINE
  8
0
 62
7
  6
CONTINUOUS
 10
96.3466796675
 20
234.0269894737
 11
96.0370010539
 21
233.9592787648
  0
LINE
  8
0
 62
7
  6
CONTINUOUS
 10
88.8930475532
 20
229.5692700772
 11
89.007861957
 21
229.5915783784
  0
LINE
  8
0
 62
7
  6
CONTINUOUS
 10
103.1419311834
 20
234.1453859842
 11
103.5543328178
 21
234.2048475007
  0
LINE
  8
0
 62
7
  6
CONTINUOUS
 10
103.5087877831
 20
234.520729904
 11
103.0963861488
 21
234.4612683876
  0
LINE
  8
0
 62
7
  6
CONTINUOUS
 10
102.8307067737
 20
236.3039157837
 11
103.2431084081
 21
236.3633773002
  0
LINE
  8
0
 62
7
  6
CONTINUOUS
 10
103.1975633787
 20
236.6792596667
 11
102.7851617444
 21
236.6197981502
  0
LINE
  8
0
 62
7
  6
CONTINUOUS
 10
96.5464737086
 20
232.5587972517
 11
96.3333808521
 21
232.5300968384
  0
LINE
  8
0
 62
7
  6
CONTINUOUS
 10
104.7948732161
 20
234.3655225524
 11
105.1068658792
 21
234.3833222198
  0
LINE
  8
0
 62
7
  6
CONTINUOUS
 10
106.4068345154
 20
234.4574874551
 11
106.8748235101
 21
234.4841869562
  0
LINE
  8
0
 62
7
  6
CONTINUOUS
 10
106.7324261713
 20
236.9801282611
 11
106.4204335082
 21
236.9623285938
  0
LINE
  8
0
 62
7
  6
CONTINUOUS
 10
105.1204648719
 20
236.8881633584
 11
104.6524758772
 21
236.8614638574
  0
LINE
  8
0
 62
7
  6
CONTINUOUS
 10
96.1999699814
 20
232.3041145384
 11
96.3647693979
 21
232.3133096023
  0
LINE
  8
0
 62
7
  6
CONTINUOUS
 10
107.292514082
 20
234.4864356913
 11
109.1668985066
 21
234.4383937429
  0
LINE
  8
0
 62
7
  6
CONTINUOUS
 10
109.1750758595
 20
234.7574378995
 11
107.613088839
 21
234.7974728565
  0
LINE
  8
0
 62
7
  6
CONTINUOUS
 10
107.6348951136
 20
235.6482572864
 11
108.9886179925
 21
235.6135603034
  0
LINE
  8
0
 62
7
  6
CONTINUOUS
 10
108.9967953445
 20
235.9326044227
 11
107.6430724656
 21
235.9673014058
  0
LINE
  8
0
 62
7
  6
CONTINUOUS
 10
118.0004272053
 20
232.8429201986
 11
117.8354360045
 21
232.8475353907
  0
LINE
  8
0
 62
7
  6
CONTINUOUS
 10
118.3156573309
 20
233.6904505269
 11
118.15066613
 21
233.695065719
  0
LINE
  8
0
 62
7
  6
CONTINUOUS
 10
118.0148220573
 20
234.8238716137
 11
118.1798132582
 21
234.8192564216
  0
LINE
  8
0
 62
7
  6
CONTINUOUS
 10
102.8765882906
 20
234.1608694532
 11
103.1419311834
 21
234.1453859842
  0
LINE
  8
0
 62
7
  6
CONTINUOUS
 10
115.7568333604
 20
233.601715236
 11
115.4918001617
 21
233.6217838659
  0
LINE
  8
0
 62
7
  6
CONTINUOUS
 10
96.3333808521
 20
232.5300968384
 11
96.2168748722
 21
232.5404071326
  0
LINE
  8
0
 62
7
  6
CONTINUOUS
 10
126.5816614767
 20
227.866444309
 11
126.3934089416
 21
227.8835434603
  0
LINE
  8
0
 62
7
  6
CONTINUOUS
 10
126.2904673106
 20
229.0702025411
 11
126.4787198457
 21
229.0531033899
  0
LINE
  8
0
 62
7
  6
CONTINUOUS
 10
126.6074457955
 20
229.2915899003
 11
126.2309407252
 21
229.3257882028
  0
LINE
  8
0
 62
7
  6
CONTINUOUS
 10
126.8649014723
 20
229.7685600073
 11
127.0531540075
 21
229.751460856
  0
LINE
  8
0
 62
7
  6
CONTINUOUS
 10
103.0963861488
 20
234.4612683876
 11
102.8825939034
 21
234.4841846054
  0
LINE
  8
0
 62
7
  6
CONTINUOUS
 10
115.4190525896
 20
233.3659691728
 11
115.7341843614
 21
233.3316537133
  0
LINE
  8
0
 62
7
  6
CONTINUOUS
 10
126.2646792885
 20
227.6450599537
 11
126.5671725646
 21
227.6028660783
  0
LINE
  8
0
 62
7
  6
CONTINUOUS
 10
127.1818799572
 20
229.9899473665
 11
126.8793903726
 21
230.0321382236
  0
LINE
  8
0
 62
7
  6
CONTINUOUS
 10
117.6939059201
 20
232.6164181207
 11
117.9565300372
 21
232.5754893817
  0
LINE
  8
0
 62
7
  6
CONTINUOUS
 10
96.6479052779
 20
233.9765536753
 11
96.3466796675
 21
234.0269894737
  0
LINE
  8
0
 62
7
  6
CONTINUOUS
 10
96.0152503475
 20
232.3442400513
 11
96.1999699814
 21
232.3041145384
  0
LINE
  8
0
 62
7
  6
CONTINUOUS
 10
96.3780670957
 20
233.8102018213
 11
96.5627867262
 21
233.7700763171
  0
LINE
  8
0
 62
7
  6
CONTINUOUS
 10
102.655206385
 20
234.2364329161
 11
102.8765882906
 21
234.1608694532
  0
LINE
  8
0
 62
7
  6
CONTINUOUS
 10
96.2168748722
 20
232.5404071326
 11
96.0122350121
 21
232.6298532439
  0
LINE
  8
0
 62
7
  6
CONTINUOUS
 10
102.8825939034
 20
234.4841846054
 11
102.7127614613
 21
234.5671806745
  0
LINE
  8
0
 62
7
  6
CONTINUOUS
 10
97.2710503469
 20
234.4382259066
 11
98.2252150561
 21
233.8503800487
  0
LINE
  8
0
 62
7
  6
CONTINUOUS
 10
99.4769639208
 20
233.3579315983
 11
98.5227980765
 21
233.9457770924
  0
LINE
  8
0
 62
7
  6
CONTINUOUS
 10
98.4227199445
 20
233.7461213016
 11
99.1793809004
 21
233.2625345547
  0
LINE
  8
0
 62
7
  6
CONTINUOUS
 10
98.3252931653
 20
234.0500359104
 11
97.5686333674
 21
234.5336229503
  0
LINE
  8
0
 62
7
  6
CONTINUOUS
 10
102.4186416223
 20
234.4172903355
 11
102.655206385
 21
234.2364329161
  0
LINE
  8
0
 62
7
  6
CONTINUOUS
 10
103.9208529346
 20
236.4073553522
 11
103.6842881745
 21
236.5882127532
  0
LINE
  8
0
 62
7
  6
CONTINUOUS
 10
103.6267330903
 20
236.2574650501
 11
103.7526057398
 21
236.114389056
  0
LINE
  8
0
 62
7
  6
CONTINUOUS
 10
106.5416227331
 20
234.8381232207
 11
105.1204648719
 21
236.8881633584
  0
LINE
  8
0
 62
7
  6
CONTINUOUS
 10
104.9826469219
 20
236.5606327578
 11
106.4068345154
 21
234.4574874551
  0
LINE
  8
0
 62
7
  6
CONTINUOUS
 10
114.8195398197
 20
233.9235595356
 11
114.9261824065
 21
233.7273315256
  0
LINE
  8
0
 62
7
  6
CONTINUOUS
 10
115.1346715902
 20
233.8892440716
 11
115.021581267
 21
234.2532070758
  0
LINE
  8
0
 62
7
  6
CONTINUOUS
 10
116.3872584694
 20
235.2473530272
 11
116.5003510553
 21
234.8833892634
  0
LINE
  8
0
 62
7
  6
CONTINUOUS
 10
117.0123753156
 20
233.3239190148
 11
117.0846517787
 21
233.0700302101
  0
LINE
  8
0
 62
7
  6
CONTINUOUS
 10
117.2787901012
 20
234.1896057031
 11
117.3510665707
 21
233.9357169158
  0
LINE
  8
0
 62
7
  6
CONTINUOUS
 10
119.051689287
 20
234.3247164375
 11
118.9794128175
 21
234.5786052248
  0
LINE
  8
0
 62
7
  6
CONTINUOUS
 10
117.3052718248
 20
233.2149791925
 11
117.2632699967
 21
233.4008561045
  0
LINE
  8
0
 62
7
  6
CONTINUOUS
 10
117.5716866104
 20
234.0806658807
 11
117.5296825346
 21
234.266543589
  0
LINE
  8
0
 62
7
  6
CONTINUOUS
 10
118.7587927778
 20
234.4336562598
 11
118.8007968536
 21
234.2477785516
  0
LINE
  8
0
 62
7
  6
CONTINUOUS
 10
116.7443870409
 20
234.9798928215
 11
116.7023902399
 21
235.2130375632
  0
LINE
  8
0
 62
7
  6
CONTINUOUS
 10
127.0547248971
 20
228.4415622139
 11
127.0675912288
 21
228.2932309755
  0
LINE
  8
0
 62
7
  6
CONTINUOUS
 10
127.3298592497
 20
228.2841243789
 11
127.3105579107
 21
228.5066227511
  0
LINE
  8
0
 62
7
  6
CONTINUOUS
 10
127.8302779257
 20
228.9744892905
 11
127.844766826
 21
229.2380675068
  0
LINE
  8
LAY0001
 62
7
  6
CONTINUOUS
 10
121.7186421291
 20
184.5569520192
 11
121.6966021173
 21
184.4792461611
  0
LINE
  8
LAY0001
 62
7
  6
CONTINUOUS
 10
121.7522679637
 20
184.4235803148
 11
121.7743079754
 21
184.5012861729
  0
LINE
  8
LAY0001
 62
7
  6
CONTINUOUS
 10
122.3716549653
 20
185.5996258189
 11
122.4047152585
 21
185.7161849012
  0
LINE
  8
LAY0001
 62
7
  6
CONTINUOUS
 10
122.8761787954
 20
185.9928179563
 11
122.854138641
 21
185.9151119555
  0
LINE
  8
LAY0001
 62
7
  6
CONTINUOUS
 10
122.9956343431
 20
185.9731088492
 11
123.0176744781
 21
186.0508148694
  0
LINE
  8
LAY0001
 62
7
  6
CONTINUOUS
 10
123.1875683497
 20
185.8310477776
 11
123.2096086468
 21
185.908753921
  0
LINE
  8
LAY0001
 62
7
  6
CONTINUOUS
 10
124.0835886156
 20
187.4785570375
 11
124.0505283175
 21
187.3619979601
  0
LINE
  8
LAY0001
 62
7
  6
CONTINUOUS
 10
123.9379962938
 20
186.776306184
 11
123.9159560681
 21
186.6986001119
  0
LINE
  8
LAY0001
 62
7
  6
CONTINUOUS
 10
123.9716219144
 20
186.6429342655
 11
123.9936621402
 21
186.7206403376
  0
LINE
  8
LAY0001
 62
7
  6
CONTINUOUS
 10
124.8855856778
 20
187.723895568
 11
124.8525253748
 21
187.6073364955
  0
LINE
  8
LAY0001
 62
7
  6
CONTINUOUS
 10
125.005041108
 20
187.7041863822
 11
125.027081307
 21
187.7818924276
  0
LINE
  8
LAY0001
 62
7
  6
CONTINUOUS
 10
121.6966021173
 20
184.4792461611
 11
121.6496253528
 21
184.3766035502
  0
LINE
  8
LAY0001
 62
7
  6
CONTINUOUS
 10
122.3351329421
 20
185.7857672176
 11
122.2881561812
 21
185.6831246031
  0
LINE
  8
LAY0001
 62
7
  6
CONTINUOUS
 10
121.7052911991
 20
184.3209377039
 11
121.7522679637
 21
184.4235803148
  0
LINE
  8
LAY0001
 62
7
  6
CONTINUOUS
 10
124.1891275444
 20
187.4727642639
 11
124.2361043447
 21
187.5754069105
  0
LINE
  8
LAY0001
 62
7
  6
CONTINUOUS
 10
123.9159560681
 20
186.6986001119
 11
123.8689793748
 21
186.5959575723
  0
LINE
  8
LAY0001
 62
7
  6
CONTINUOUS
 10
123.9246452212
 20
186.5402917259
 11
123.9716219144
 21
186.6429342655
  0
LINE
  8
LAY0001
 62
7
  6
CONTINUOUS
 10
124.9580643345
 20
187.6015437624
 11
125.005041108
 21
187.7041863822
  0
LINE
  8
LAY0001
 62
7
  6
CONTINUOUS
 10
119.9910958693
 20
183.4417301448
 11
119.9191826409
 21
183.3141510628
  0
LINE
  8
LAY0001
 62
7
  6
CONTINUOUS
 10
120.0606781858
 20
183.3721478284
 11
120.0966349444
 21
183.4359375102
  0
LINE
  8
LAY0001
 62
7
  6
CONTINUOUS
 10
120.8377387935
 20
183.5925499141
 11
120.8017820348
 21
183.5287602322
  0
LINE
  8
LAY0001
 62
7
  6
CONTINUOUS
 10
120.9073211014
 20
183.5229676062
 11
120.9792343334
 21
183.6505466845
  0
LINE
  8
LAY0001
 62
7
  6
CONTINUOUS
 10
122.854138641
 20
185.9151119555
 11
122.818182025
 21
185.8513224164
  0
LINE
  8
LAY0001
 62
7
  6
CONTINUOUS
 10
122.9237209684
 20
185.8455296281
 11
122.9956343431
 21
185.9731088492
  0
LINE
  8
LAY0001
 62
7
  6
CONTINUOUS
 10
123.0570928156
 20
185.8119039362
 11
123.0211361996
 21
185.748114397
  0
LINE
  8
LAY0001
 62
7
  6
CONTINUOUS
 10
124.1555019153
 20
187.6061361909
 11
124.0835886156
 21
187.4785570375
  0
LINE
  8
LAY0001
 62
7
  6
CONTINUOUS
 10
123.1516117336
 20
185.7672582384
 11
123.1875683497
 21
185.8310477776
  0
LINE
  8
LAY0001
 62
7
  6
CONTINUOUS
 10
124.8525253748
 20
187.6073364955
 11
124.8165687053
 21
187.5435469028
  0
LINE
  8
LAY0001
 62
7
  6
CONTINUOUS
 10
122.4047152585
 20
185.7161849012
 11
122.5015650958
 21
185.8687005945
  0
LINE
  8
LAY0001
 62
7
  6
CONTINUOUS
 10
124.8971711083
 20
187.5128176131
 11
124.9580643345
 21
187.6015437624
  0
LINE
  8
LAY0001
 62
7
  6
CONTINUOUS
 10
120.0966349444
 20
183.4359375102
 11
120.1824646332
 21
183.5496001319
  0
LINE
  8
LAY0001
 62
7
  6
CONTINUOUS
 10
120.8017820348
 20
183.5287602322
 11
120.7159523412
 21
183.4150976154
  0
LINE
  8
LAY0001
 62
7
  6
CONTINUOUS
 10
121.6496253528
 20
184.3766035502
 11
121.5637953738
 21
184.262940648
  0
LINE
  8
LAY0001
 62
7
  6
CONTINUOUS
 10
122.818182025
 20
185.8513224164
 11
122.7323521887
 21
185.7376596569
  0
LINE
  8
LAY0001
 62
7
  6
CONTINUOUS
 10
121.6194612201
 20
184.2072748017
 11
121.7052911991
 21
184.3209377039
  0
LINE
  8
LAY0001
 62
7
  6
CONTINUOUS
 10
123.0211361996
 20
185.748114397
 11
122.9353063633
 21
185.6344516375
  0
LINE
  8
LAY0001
 62
7
  6
CONTINUOUS
 10
123.8689793748
 20
186.5959575723
 11
123.7831495385
 21
186.4822948128
  0
LINE
  8
LAY0001
 62
7
  6
CONTINUOUS
 10
123.8388153849
 20
186.4266289665
 11
123.9246452212
 21
186.5402917259
  0
LINE
  8
LAY0001
 62
7
  6
CONTINUOUS
 10
124.8165687053
 20
187.5435469028
 11
124.7307389047
 21
187.429884179
  0
LINE
  8
LAY0001
 62
7
  6
CONTINUOUS
 10
122.4458992446
 20
185.9243664458
 11
122.3351329421
 21
185.7857672176
  0
LINE
  8
LAY0001
 62
7
  6
CONTINUOUS
 10
120.126798782
 20
183.6052659831
 11
119.9910958693
 21
183.4417301448
  0
LINE
  8
LAY0001
 62
7
  6
CONTINUOUS
 10
120.7716181875
 20
183.3594317691
 11
120.9073211014
 21
183.5229676062
  0
LINE
  8
LAY0001
 62
7
  6
CONTINUOUS
 10
122.7880180545
 20
185.681993791
 11
122.9237209684
 21
185.8455296281
  0
LINE
  8
LAY0001
 62
7
  6
CONTINUOUS
 10
124.7614682123
 20
187.3492817938
 11
124.8971711083
 21
187.5128176131
  0
LINE
  8
LAY0001
 62
7
  6
CONTINUOUS
 10
124.3161414025
 20
187.7946086036
 11
124.1555019153
 21
187.6061361909
  0
LINE
  8
LAY0001
 62
7
  6
CONTINUOUS
 10
124.2361043447
 20
187.5754069105
 11
124.3967437925
 21
187.7638792912
  0
LINE
  8
LAY0001
 62
7
  6
CONTINUOUS
 10
122.9909722096
 20
185.5787857912
 11
123.1516117336
 21
185.7672582384
  0
LINE
  8
LAY0001
 62
7
  6
CONTINUOUS
 10
123.742600475
 20
187.2210676762
 11
123.6179176383
 21
187.0963848395
  0
LINE
  8
LAY0001
 62
7
  6
CONTINUOUS
 10
123.1690595119
 20
186.647526713
 11
123.0443767465
 21
186.5228439477
  0
LINE
  8
LAY0001
 62
7
  6
CONTINUOUS
 10
122.5955186201
 20
186.0739858213
 11
122.4458992446
 21
185.9243664458
  0
LINE
  8
LAY0001
 62
7
  6
CONTINUOUS
 10
122.1715971038
 20
185.6500643049
 11
122.0469141958
 21
185.5253813969
  0
LINE
  8
LAY0001
 62
7
  6
CONTINUOUS
 10
121.8474216
 20
185.3258888012
 11
121.7227389773
 21
185.2012061785
  0
LINE
  8
LAY0001
 62
7
  6
CONTINUOUS
 10
121.5232463816
 20
185.0017135827
 11
121.3985634736
 21
184.8770306747
  0
LINE
  8
LAY0001
 62
7
  6
CONTINUOUS
 10
120.9497053471
 20
184.4281725483
 11
120.8250227245
 21
184.3034899256
  0
LINE
  8
LAY0001
 62
7
  6
CONTINUOUS
 10
120.2764181574
 20
183.7548853586
 11
120.126798782
 21
183.6052659831
  0
LINE
  8
LAY0001
 62
7
  6
CONTINUOUS
 10
120.1824646332
 20
183.5496001319
 11
120.3320840087
 21
183.6992195074
  0
LINE
  8
LAY0001
 62
7
  6
CONTINUOUS
 10
122.5015650958
 20
185.8687005945
 11
122.6511844713
 21
186.01831997
  0
LINE
  8
LAY0001
 62
7
  6
CONTINUOUS
 10
120.6121789231
 20
183.8679827194
 11
120.7368618311
 21
183.9926656274
  0
LINE
  8
LAY0001
 62
7
  6
CONTINUOUS
 10
124.0812575635
 20
187.2813954939
 11
124.2059404001
 21
187.4060783306
  0
LINE
  8
LAY0001
 62
7
  6
CONTINUOUS
 10
122.7323521887
 20
185.7376596569
 11
122.4580499052
 21
185.4633573734
  0
LINE
  8
LAY0001
 62
7
  6
CONTINUOUS
 10
122.513715771
 20
185.4076915075
 11
122.7880180545
 21
185.681993791
  0
LINE
  8
LAY0001
 62
7
  6
CONTINUOUS
 10
124.3729379587
 20
187.239080772
 11
124.248255122
 21
187.1143979353
  0
LINE
  8
LAY0001
 62
7
  6
CONTINUOUS
 10
123.1788792679
 20
185.9893562348
 11
123.0541965025
 21
185.8646734695
  0
LINE
  8
LAY0001
 62
7
  6
CONTINUOUS
 10
120.2862380561
 20
183.0967150231
 11
120.1615554335
 21
182.9720324004
  0
LINE
  8
LAY0001
 62
7
  6
CONTINUOUS
 10
122.9353063633
 20
185.6344516375
 11
122.7856869878
 21
185.484832262
  0
LINE
  8
LAY0001
 62
7
  6
CONTINUOUS
 10
120.7159523412
 20
183.4150976154
 11
120.5663329657
 21
183.26547824
  0
LINE
  8
LAY0001
 62
7
  6
CONTINUOUS
 10
120.621998812
 20
183.2098123936
 11
120.7716181875
 21
183.3594317691
  0
LINE
  8
LAY0001
 62
7
  6
CONTINUOUS
 10
121.5197150649
 20
184.1075286465
 11
121.6194612201
 21
184.2072748017
  0
LINE
  8
LAY0001
 62
7
  6
CONTINUOUS
 10
121.8438902833
 20
184.4317038649
 11
121.9685731914
 21
184.5563867729
  0
LINE
  8
LAY0001
 62
7
  6
CONTINUOUS
 10
122.1680657871
 20
184.7558793687
 11
122.2927484098
 21
184.8805619914
  0
LINE
  8
LAY0001
 62
7
  6
CONTINUOUS
 10
122.8413528341
 20
185.4291664157
 11
122.9909722096
 21
185.5787857912
  0
LINE
  8
LAY0001
 62
7
  6
CONTINUOUS
 10
123.739069087
 20
186.3268826686
 11
123.8388153849
 21
186.4266289665
  0
LINE
  8
LAY0001
 62
7
  6
CONTINUOUS
 10
122.4319130647
 20
184.7413973365
 11
122.307230442
 21
184.6167147138
  0
LINE
  8
LAY0001
 62
7
  6
CONTINUOUS
 10
122.3768127499
 20
184.5471324059
 11
122.5014953726
 21
184.6718150286
  0
LINE
  8
LAY0001
 62
7
  6
CONTINUOUS
 10
124.2719914109
 20
186.4423110669
 11
124.3966742476
 21
186.5669939036
  0
LINE
  8
LAY0001
 62
7
  6
CONTINUOUS
 10
124.8107736326
 20
186.7336059151
 11
124.6328171136
 21
186.5556493961
  0
LINE
  8
LAY0001
 62
7
  6
CONTINUOUS
 10
124.1036668514
 20
186.0264991339
 11
123.5026260874
 21
185.4254583699
  0
LINE
  8
LAY0001
 62
7
  6
CONTINUOUS
 10
123.3612047311
 20
185.2840370137
 11
122.7601639671
 21
184.6829962497
  0
LINE
  8
LAY0001
 62
7
  6
CONTINUOUS
 10
121.9469911688
 20
183.8698234513
 11
121.3459504047
 21
183.2687826873
  0
LINE
  8
LAY0001
 62
7
  6
CONTINUOUS
 10
121.2045290485
 20
183.127361331
 11
120.6034882845
 21
182.526320567
  0
LINE
  8
LAY0001
 62
7
  6
CONTINUOUS
 10
124.9521949888
 20
185.8850777777
 11
125.2350377013
 21
186.1679204902
  0
LINE
  8
LAY0001
 62
7
  6
CONTINUOUS
 10
123.5379814264
 20
183.1980720092
 11
123.2551387139
 21
182.9152292967
  0
LINE
  8
LAY0001
 62
7
  6
CONTINUOUS
 10
124.7307389047
 20
187.429884179
 11
124.5422665288
 21
187.2692447263
  0
LINE
  8
LAY0001
 62
7
  6
CONTINUOUS
 10
124.5729958007
 20
187.1886423055
 11
124.7614682123
 21
187.3492817938
  0
LINE
  8
LAY0001
 62
7
  6
CONTINUOUS
 10
124.4796772229
 20
187.9303114985
 11
124.3161414025
 21
187.7946086036
  0
LINE
  8
LAY0001
 62
7
  6
CONTINUOUS
 10
120.4399539957
 20
183.8905882713
 11
120.2764181574
 21
183.7548853586
  0
LINE
  8
LAY0001
 62
7
  6
CONTINUOUS
 10
120.3320840087
 20
183.6992195074
 11
120.4956198506
 21
183.8349224164
  0
LINE
  8
LAY0001
 62
7
  6
CONTINUOUS
 10
122.6778171397
 20
185.2934636445
 11
122.8413528341
 21
185.4291664157
  0
LINE
  8
LAY0001
 62
7
  6
CONTINUOUS
 10
120.5663329657
 20
183.26547824
 11
120.4027971286
 21
183.1297753261
  0
LINE
  8
LAY0001
 62
7
  6
CONTINUOUS
 10
120.458462975
 20
183.0741094797
 11
120.621998812
 21
183.2098123936
  0
LINE
  8
LAY0001
 62
7
  6
CONTINUOUS
 10
122.7091812381
 20
186.1598155136
 11
122.5955186201
 21
186.0739858213
  0
LINE
  8
LAY0001
 62
7
  6
CONTINUOUS
 10
123.7831495385
 20
186.4822948128
 11
123.6694867791
 21
186.3964649765
  0
LINE
  8
LAY0001
 62
7
  6
CONTINUOUS
 10
122.7856869878
 20
185.484832262
 11
122.6720242283
 21
185.3990024257
  0
LINE
  8
LAY0001
 62
7
  6
CONTINUOUS
 10
121.5637953738
 20
184.262940648
 11
121.450132757
 21
184.1771109544
  0
LINE
  8
LAY0001
 62
7
  6
CONTINUOUS
 10
120.7124906197
 20
183.7177980879
 11
120.2189866528
 21
183.3634587368
  0
LINE
  8
LAY0001
 62
7
  6
CONTINUOUS
 10
120.1859263498
 20
183.2468996643
 11
120.6794303362
 21
183.6012389959
  0
LINE
  8
LAY0001
 62
7
  6
CONTINUOUS
 10
124.5684033735
 20
187.9912047234
 11
124.4796772229
 21
187.9303114985
  0
LINE
  8
LAY0001
 62
7
  6
CONTINUOUS
 10
124.3967437925
 20
187.7638792912
 11
124.5741961139
 21
187.8856657565
  0
LINE
  8
LAY0001
 62
7
  6
CONTINUOUS
 10
123.6503429377
 20
186.2659894424
 11
123.739069087
 21
186.3268826686
  0
LINE
  8
LAY0001
 62
7
  6
CONTINUOUS
 10
120.5286801463
 20
183.9514814962
 11
120.4399539957
 21
183.8905882713
  0
LINE
  8
LAY0001
 62
7
  6
CONTINUOUS
 10
121.4309889156
 20
184.0466354203
 11
121.5197150649
 21
184.1075286465
  0
LINE
  8
LAY0001
 62
7
  6
CONTINUOUS
 10
120.3697368256
 20
183.0132162536
 11
120.458462975
 21
183.0741094797
  0
LINE
  8
LAY0001
 62
7
  6
CONTINUOUS
 10
122.7729709212
 20
186.1957722711
 11
122.7091812381
 21
186.1598155136
  0
LINE
  8
LAY0001
 62
7
  6
CONTINUOUS
 10
124.445416651
 20
187.1167290021
 11
124.5729958007
 21
187.1886423055
  0
LINE
  8
LAY0001
 62
7
  6
CONTINUOUS
 10
122.6511844713
 20
186.01831997
 11
122.7787635546
 21
186.0902331972
  0
LINE
  8
LAY0001
 62
7
  6
CONTINUOUS
 10
123.6694867791
 20
186.3964649765
 11
123.6056972399
 21
186.3605083605
  0
LINE
  8
LAY0001
 62
7
  6
CONTINUOUS
 10
122.6720242283
 20
185.3990024257
 11
122.6082348318
 21
185.3630459524
  0
LINE
  8
LAY0001
 62
7
  6
CONTINUOUS
 10
120.4956198506
 20
183.8349224164
 11
120.5594095325
 21
183.8708791751
  0
LINE
  8
LAY0001
 62
7
  6
CONTINUOUS
 10
121.450132757
 20
184.1771109544
 11
121.3863430751
 21
184.1411541957
  0
LINE
  8
LAY0001
 62
7
  6
CONTINUOUS
 10
120.4027971286
 20
183.1297753261
 11
120.3390074467
 21
183.0938185674
  0
LINE
  8
LAY0001
 62
7
  6
CONTINUOUS
 10
121.3283463047
 20
183.9996586558
 11
121.4309889156
 21
184.0466354203
  0
LINE
  8
LAY0001
 62
7
  6
CONTINUOUS
 10
120.6794303362
 20
183.6012389959
 11
120.7820729471
 21
183.6482157604
  0
LINE
  8
LAY0001
 62
7
  6
CONTINUOUS
 10
120.2189866528
 20
183.3634587368
 11
120.1163440418
 21
183.3164819723
  0
LINE
  8
LAY0001
 62
7
  6
CONTINUOUS
 10
120.2670942147
 20
182.966239489
 11
120.3697368256
 21
183.0132162536
  0
LINE
  8
0
 62
7
  6
CONTINUOUS
 10
107.6607900652
 20
236.6585638133
 11
109.2227770858
 21
236.6185288564
  0
LINE
  8
0
 62
7
  6
CONTINUOUS
 10
109.2309544377
 20
236.9375729757
 11
107.3565700131
 21
236.9856149241
  0
LINE
  8
0
 62
7
  6
CONTINUOUS
 10
103.462905091
 20
236.6637760321
 11
103.1975633787
 21
236.6792596667
  0
LINE
  8
0
 62
7
  6
CONTINUOUS
 10
115.7650966992
 20
235.5348818628
 11
116.0301321912
 21
235.5148125807
  0
LINE
  8
0
 62
7
  6
CONTINUOUS
 10
103.2431084081
 20
236.3633773002
 11
103.4569006534
 21
236.3404610824
  0
LINE
  8
0
 62
7
  6
CONTINUOUS
 10
116.1028797531
 20
235.770627238
 11
115.7877479825
 21
235.804942702
  0
LINE
  8
0
 62
7
  6
CONTINUOUS
 10
118.0091360327
 20
233.463948414
 11
118.2717601742
 21
233.4230197405
  0
LINE
  8
0
 62
7
  6
CONTINUOUS
 10
118.3213433295
 20
235.0503736567
 11
118.0587214487
 21
235.0913015689
  0
LINE
  8
0
 62
7
  6
CONTINUOUS
 10
123.1235720808
 20
231.650799149
 11
122.9616155916
 21
231.6826345375
  0
LINE
  8
0
 62
7
  6
CONTINUOUS
 10
112.0681182082
 20
234.1266958901
 11
114.1121896508
 21
233.7241460124
  0
LINE
  8
0
 62
7
  6
CONTINUOUS
 10
114.1738568895
 20
234.0372804797
 11
112.4363962803
 21
234.3794478527
  0
LINE
  8
0
 62
7
  6
CONTINUOUS
 10
112.4997888863
 20
236.3186371979
 11
114.2883505213
 21
235.9664062276
  0
LINE
  8
0
 62
7
  6
CONTINUOUS
 10
114.5952496884
 20
236.1770326791
 11
112.5511782458
 21
236.5795825569
  0
LINE
  8
0
 62
7
  6
CONTINUOUS
 10
122.7572835145
 20
231.4320013149
 11
123.0095237713
 21
231.3482072763
  0
LINE
  8
0
 62
7
  6
CONTINUOUS
 10
103.6842881745
 20
236.5882127532
 11
103.462905091
 21
236.6637760321
  0
LINE
  8
0
 62
7
  6
CONTINUOUS
 10
117.4986423255
 20
232.6890443918
 11
117.6939059201
 21
232.6164181207
  0
LINE
  8
0
 62
7
  6
CONTINUOUS
 10
117.8354360045
 20
232.8475353907
 11
117.5425394953
 21
232.9564752131
  0
LINE
  8
0
 62
7
  6
CONTINUOUS
 10
117.2632699967
 20
233.4008561045
 11
117.0191888274
 21
233.4916395668
  0
LINE
  8
0
 62
7
  6
CONTINUOUS
 10
117.7650548635
 20
233.5547318763
 11
118.0091360327
 21
233.463948414
  0
LINE
  8
0
 62
7
  6
CONTINUOUS
 10
118.15066613
 20
233.695065719
 11
117.8089542808
 21
233.8221619013
  0
LINE
  8
0
 62
7
  6
CONTINUOUS
 10
118.1798132582
 20
234.8192564216
 11
118.5215251074
 21
234.6921602392
  0
LINE
  8
0
 62
7
  6
CONTINUOUS
 10
118.5654244988
 20
234.9595901944
 11
118.3213433295
 21
235.0503736567
  0
LINE
  8
0
 62
7
  6
CONTINUOUS
 10
126.3934089416
 20
227.8835434603
 11
126.2389466457
 21
227.9417224557
  0
LINE
  8
0
 62
7
  6
CONTINUOUS
 10
126.4787198457
 20
229.0531033899
 11
126.6331821417
 21
228.9949243944
  0
LINE
  8
0
 62
7
  6
CONTINUOUS
 10
127.0531540075
 20
229.751460856
 11
127.2076163034
 21
229.6932818606
  0
LINE
  8
0
 62
7
  6
CONTINUOUS
 10
115.1330198451
 20
233.5026105042
 11
115.4190525896
 21
233.3659691728
  0
LINE
  8
0
 62
7
  6
CONTINUOUS
 10
116.3889124988
 20
235.6339859111
 11
116.1028797531
 21
235.770627238
  0
LINE
  8
0
 62
7
  6
CONTINUOUS
 10
103.4569006534
 20
236.3404610824
 11
103.6267330903
 21
236.2574650501
  0
LINE
  8
0
 62
7
  6
CONTINUOUS
 10
115.4918001617
 20
233.6217838659
 11
115.2558636946
 21
233.744179011
  0
LINE
  8
0
 62
7
  6
CONTINUOUS
 10
116.0301321912
 20
235.5148125807
 11
116.2660663651
 21
235.3924180878
  0
LINE
  8
0
 62
7
  6
CONTINUOUS
 10
126.0297701794
 20
227.7694104956
 11
126.2646792885
 21
227.6450599537
  0
LINE
  8
0
 62
7
  6
CONTINUOUS
 10
126.8423585843
 20
229.1672363258
 11
126.6074457955
 21
229.2915899003
  0
LINE
  8
0
 62
7
  6
CONTINUOUS
 10
127.416792746
 20
229.865593792
 11
127.1818799572
 21
229.9899473665
  0
LINE
  8
0
 62
7
  6
CONTINUOUS
 10
121.116717202
 20
231.087358395
 11
121.3875664383
 21
230.9314836338
  0
LINE
  8
0
 62
7
  6
CONTINUOUS
 10
121.9447358055
 20
231.8996255986
 11
122.7572835145
 21
231.4320013149
  0
LINE
  8
0
 62
7
  6
CONTINUOUS
 10
122.9616155916
 20
231.6826345375
 11
122.1039270321
 21
232.1762375516
  0
LINE
  8
0
 62
7
  6
CONTINUOUS
 10
117.2731041042
 20
232.8296825776
 11
117.4986423255
 21
232.6890443918
  0
LINE
  8
0
 62
7
  6
CONTINUOUS
 10
117.5395189011
 20
233.6953692964
 11
117.7650548635
 21
233.5547318763
  0
LINE
  8
0
 62
7
  6
CONTINUOUS
 10
123.1417215946
 20
229.9056017167
 11
123.3986244338
 21
229.7276770663
  0
LINE
  8
0
 62
7
  6
CONTINUOUS
 10
124.5975056568
 20
228.8973611264
 11
124.854408496
 21
228.7194364761
  0
LINE
  8
0
 62
7
  6
CONTINUOUS
 10
123.9333129014
 20
230.1337987981
 11
124.7896563522
 21
229.5407161778
  0
LINE
  8
0
 62
7
  6
CONTINUOUS
 10
124.8679780786
 20
229.7452837417
 11
124.097271521
 21
230.2790563353
  0
LINE
  8
0
 62
7
  6
CONTINUOUS
 10
117.5425394953
 20
232.9564752131
 11
117.4146341869
 21
233.0607998433
  0
LINE
  8
0
 62
7
  6
CONTINUOUS
 10
117.8089542808
 20
233.8221619013
 11
117.6810489725
 21
233.9264865315
  0
LINE
  8
0
 62
7
  6
CONTINUOUS
 10
125.8286513125
 20
227.9348408852
 11
126.0297701794
 21
227.7694104956
  0
LINE
  8
0
 62
7
  6
CONTINUOUS
 10
129.8918460556
 20
218.7154974077
 11
134.9353687995
 21
213.9293730323
  0
LINE
  8
0
 62
7
  6
CONTINUOUS
 10
114.9261824065
 20
233.7273315256
 11
115.1330198451
 21
233.5026105042
  0
LINE
  8
0
 62
7
  6
CONTINUOUS
 10
116.595747648
 20
235.4092655553
 11
116.3889124988
 21
235.6339859111
  0
LINE
  8
0
 62
7
  6
CONTINUOUS
 10
115.2558636946
 20
233.744179011
 11
115.1346715902
 21
233.8892440716
  0
LINE
  8
0
 62
7
  6
CONTINUOUS
 10
116.2660663651
 20
235.3924180878
 11
116.3872584694
 21
235.2473530272
  0
LINE
  8
0
 62
7
  6
CONTINUOUS
 10
117.0846517787
 20
233.0700302101
 11
117.2731041042
 21
232.8296825776
  0
LINE
  8
0
 62
7
  6
CONTINUOUS
 10
117.3510665707
 20
233.9357169158
 11
117.5395189011
 21
233.6953692964
  0
LINE
  8
0
 62
7
  6
CONTINUOUS
 10
118.9794128175
 20
234.5786052248
 11
118.7909627217
 21
234.818952013
  0
LINE
  8
0
 62
7
  6
CONTINUOUS
 10
117.4146341869
 20
233.0607998433
 11
117.3052718248
 21
233.2149791925
  0
LINE
  8
0
 62
7
  6
CONTINUOUS
 10
117.6810489725
 20
233.9264865315
 11
117.5716866104
 21
234.0806658807
  0
LINE
  8
0
 62
7
  6
CONTINUOUS
 10
118.6494304157
 20
234.5878356091
 11
118.7587927778
 21
234.4336562598
  0
LINE
  8
0
 62
7
  6
CONTINUOUS
 10
116.7023902399
 20
235.2130375632
 11
116.595747648
 21
235.4092655553
  0
LINE
  8
0
 62
7
  6
CONTINUOUS
 10
123.7472586072
 20
232.21243313
 11
123.6462887518
 21
232.4546552176
  0
LINE
  8
0
 62
7
  6
CONTINUOUS
 10
125.5615708648
 20
228.4300240847
 11
125.6613190051
 21
228.1413541517
  0
LINE
  8
0
 62
7
  6
CONTINUOUS
 10
125.8704954684
 20
228.3136661082
 11
125.8174038903
 21
228.4950846362
  0
LINE
  8
0
 62
7
  6
CONTINUOUS
 10
123.4684864793
 20
232.2501251764
 11
123.5057065047
 21
232.1059625419
  0
LINE
  8
0
 62
7
  6
CONTINUOUS
 10
123.776555741
 20
231.9500877807
 11
123.7472586072
 21
232.21243313
  0
LINE
  8
LAY0001
 62
7
  6
CONTINUOUS
 10
122.2298338812
 20
180.8999749703
 11
122.8308746452
 21
181.5010157343
  0
LINE
  8
LAY0001
 62
7
  6
CONTINUOUS
 10
123.6794027827
 20
182.3495438717
 11
123.8573593016
 21
182.5275003907
  0
LINE
  8
LAY0001
 62
7
  6
CONTINUOUS
 10
124.3865095638
 20
183.0566506529
 11
124.9875503279
 21
183.6576914169
  0
LINE
  8
LAY0001
 62
7
  6
CONTINUOUS
 10
125.1289716841
 20
183.7991127732
 11
125.7300124481
 21
184.4001535372
  0
LINE
  8
LAY0001
 62
7
  6
CONTINUOUS
 10
126.5431852465
 20
185.2133263356
 11
127.1442260105
 21
185.8143670996
  0
LINE
  8
0
 62
7
  6
CONTINUOUS
 10
104.4866574935
 20
247.8319356165
 11
94.4866574935
 21
247.8319356165
  0
LINE
  8
0
 62
7
  6
CONTINUOUS
 10
122.5019051728
 20
232.8677675634
 11
123.3595937323
 21
232.3741645492
  0
LINE
  8
0
 62
7
  6
CONTINUOUS
 10
123.4471122371
 20
232.6306532405
 11
122.3637152919
 21
233.2541522855
  0
LINE
  8
0
 62
7
  6
CONTINUOUS
 10
118.7909627217
 20
234.818952013
 11
118.5654244988
 21
234.9595901944
  0
LINE
  8
0
 62
7
  6
CONTINUOUS
 10
125.5927301542
 20
231.2491258291
 11
125.2501923819
 21
231.4863591487
  0
LINE
  8
0
 62
7
  6
CONTINUOUS
 10
118.5215251074
 20
234.6921602392
 11
118.6494304157
 21
234.5878356091
  0
LINE
  8
0
 62
7
  6
CONTINUOUS
 10
126.2389466457
 20
227.9417224557
 11
125.9573772859
 21
228.1733274245
  0
LINE
  8
0
 62
7
  6
CONTINUOUS
 10
126.6331821417
 20
228.9949243944
 11
126.9147515014
 21
228.7633194257
  0
LINE
  8
0
 62
7
  6
CONTINUOUS
 10
127.0434774512
 20
229.0018059362
 11
126.8423585843
 21
229.1672363258
  0
LINE
  8
0
 62
7
  6
CONTINUOUS
 10
127.5680099049
 20
228.9835958871
 11
127.7691324544
 21
228.8181624684
  0
LINE
  8
0
 62
7
  6
CONTINUOUS
 10
127.2076163034
 20
229.6932818606
 11
127.4489604167
 21
229.4947641814
  0
LINE
  8
0
 62
7
  6
CONTINUOUS
 10
127.5776863665
 20
229.7332506919
 11
127.416792746
 21
229.865593792
  0
LINE
  8
0
 62
7
  6
CONTINUOUS
 10
123.6462887518
 20
232.4546552176
 11
123.4471122371
 21
232.6306532405
  0
LINE
  8
0
 62
7
  6
CONTINUOUS
 10
123.3595937323
 20
232.3741645492
 11
123.4684864793
 21
232.2501251764
  0
LINE
  8
0
 62
7
  6
CONTINUOUS
 10
125.6613190051
 20
228.1413541517
 11
125.8286513125
 21
227.9348408852
  0
LINE
  8
0
 62
7
  6
CONTINUOUS
 10
127.2108060789
 20
228.7952957024
 11
127.0434774512
 21
229.0018059362
  0
LINE
  8
0
 62
7
  6
CONTINUOUS
 10
127.7450186768
 20
229.526737429
 11
127.5776863665
 21
229.7332506919
  0
LINE
  8
0
 62
7
  6
CONTINUOUS
 10
125.9573772859
 20
228.1733274245
 11
125.8704954684
 21
228.3136661082
  0
LINE
  8
0
 62
7
  6
CONTINUOUS
 10
126.9147515014
 20
228.7633194257
 11
127.0016333189
 21
228.6229807419
  0
LINE
  8
0
 62
7
  6
CONTINUOUS
 10
127.4489604167
 20
229.4947641814
 11
127.5358422342
 21
229.3544254977
  0
LINE
  8
0
 62
7
  6
CONTINUOUS
 10
128.0734885841
 20
224.7478315341
 11
131.1401552508
 21
219.4362090576
  0
LINE
  8
0
 62
7
  6
CONTINUOUS
 10
132.0639156815
 20
219.9695423909
 11
128.9972490148
 21
225.2811648674
  0
LINE
  8
0
 62
7
  6
CONTINUOUS
 10
127.3105579107
 20
228.5066227511
 11
127.2108060789
 21
228.7952957024
  0
LINE
  8
0
 62
7
  6
CONTINUOUS
 10
127.844766826
 20
229.2380675068
 11
127.7450186768
 21
229.526737429
  0
LINE
  8
0
 62
7
  6
CONTINUOUS
 10
127.0016333189
 20
228.6229807419
 11
127.0547248971
 21
228.4415622139
  0
LINE
  8
0
 62
7
  6
CONTINUOUS
 10
127.5358422342
 20
229.3544254977
 11
127.5889338124
 21
229.1730069697
  0
LINE
  8
0
 62
7
  6
CONTINUOUS
 10
134.9353687995
 20
213.9293730323
 11
133.3122248767
 21
220.6902540408
  0
LINE
  8
0
 62
7
  6
CONTINUOUS
 10
124.7937086271
 20
166.69261663
 11
134.190634835
 21
170.1128180633
  0
LINE
  8
0
 62
7
  6
CONTINUOUS
 10
121.4878560019
 20
164.9572957893
 11
123.7216222071
 21
165.7703201983
  0
LINE
  8
0
 62
7
  6
CONTINUOUS
 10
135.6047413984
 20
170.0954218742
 11
138.1204153898
 21
171.0110523262
  0
LINE
  8
0
 62
7
  6
CONTINUOUS
 10
108.1866574935
 20
248.3319356165
 11
105.809533149
 21
248.3319356165
  0
LINE
  8
0
 62
7
  6
CONTINUOUS
 10
93.163781838
 20
248.3319356165
 11
90.4866574935
 21
248.3319356165
  0
LINE
  8
0
 62
7
  6
CONTINUOUS
 10
145.6714935978
 20
186.8900118279
 11
150.6714935978
 21
195.5502658658
  0
LINE
  8
0
 62
7
  6
CONTINUOUS
 10
144.2545062997
 20
183.4357178339
 11
145.443071634
 21
185.4943733811
  0
LINE
  8
0
 62
7
  6
CONTINUOUS
 10
151.7659441275
 20
196.4459097895
 11
153.1045062997
 21
198.7643674809
  0
LINE
  8
0
 62
7
  6
CONTINUOUS
 10
132.4170073105
 20
239.8499410561
 11
124.7565628793
 21
246.277817153
  0
LINE
  8
0
 62
7
  6
CONTINUOUS
 10
135.5727655548
 20
237.8546491218
 11
133.7517826602
 21
239.3826351972
  0
LINE
  8
0
 62
7
  6
CONTINUOUS
 10
124.0645751392
 20
247.5111674551
 11
122.0137789116
 21
249.2319898133
  0
LINE
  8
0
 62
7
  6
CONTINUOUS
 10
148.6821693781
 20
215.7820956816
 11
146.9456876014
 21
225.6301732117
  0
LINE
  8
0
 62
7
  6
CONTINUOUS
 10
116.7615184772
 20
261.5602539523
 11
114.1780477373
 21
261.9267653179
  0
LINE
  8
0
 62
7
  6
CONTINUOUS
 10
149.817071512
 20
212.2251310842
 11
149.4042882015
 21
214.5661415685
  0
LINE
  8
0
 62
7
  6
CONTINUOUS
 10
147.2083765311
 20
227.0197755023
 11
146.7434987673
 21
229.6562283125
  0
LINE
  8
0
 62
7
  6
CONTINUOUS
 10
150.6444892851
 20
242.4763144797
 11
148.9010248454
 21
244.4177014562
  0
LINE
  8
0
 62
7
  6
CONTINUOUS
 10
164.3334309519
 20
206.0776148791
 11
164.2457592002
 21
208.6854809242
  0
LINE
  8
0
 62
7
  6
CONTINUOUS
 10
151.423135536
 20
169.3955112202
 11
153.0322790593
 21
171.4496068281
  0
POLYLINE
  8
0
 62
7
  6
CONTINUOUS
 66
1
 70
0
  0
VERTEX
  8
0
 62
7
  6
CONTINUOUS
 10
52.9664986111
 20
90.6470524708
  0
VERTEX
  8
0
 62
7
  6
CONTINUOUS
 10
52.9722439463
 20
90.5398740325
  0
VERTEX
  8
0
 62
7
  6
CONTINUOUS
 10
53.0008588419
 20
90.3868157532
  0
VERTEX
  8
0
 62
7
  6
CONTINUOUS
 10
53.0497220602
 20
90.2470652784
  0
VERTEX
  8
0
 62
7
  6
CONTINUOUS
 10
53.1147536744
 20
90.1222405697
  0
VERTEX
  8
0
 62
7
  6
CONTINUOUS
 10
53.1921695387
 20
90.0130901385
  0
VERTEX
  8
0
 62
7
  6
CONTINUOUS
 10
53.2780910693
 20
89.9201381876
  0
VERTEX
  8
0
 62
7
  6
CONTINUOUS
 10
53.3681418086
 20
89.8436856119
  0
VERTEX
  8
0
 62
7
  6
CONTINUOUS
 10
53.4586192762
 20
89.7827158645
  0
VERTEX
  8
0
 62
7
  6
CONTINUOUS
 10
53.5455107843
 20
89.7359321014
  0
VERTEX
  8
0
 62
7
  6
CONTINUOUS
 10
53.625190761
 20
89.7012846329
  0
VERTEX
  8
0
 62
7
  6
CONTINUOUS
 10
53.6960815072
 20
89.675776204
  0
VERTEX
  8
0
 62
7
  6
CONTINUOUS
 10
53.7629522936
 20
89.6551410267
  0
SEQEND
  0
LINE
  8
0
 62
7
  6
CONTINUOUS
 10
52.9664980647
 20
96.5289418227
 11
52.9664980647
 21
90.6469334509
  0
LINE
  8
0
 62
7
  6
CONTINUOUS
 10
72.4866574935
 20
111.5879376368
 11
72.4866574935
 21
99.5879376368
  0
LINE
  8
0
 62
7
  6
CONTINUOUS
 10
72.4866574935
 20
87.5879376368
 11
72.4866574935
 21
75.5879376368
  0
POLYLINE
  8
0
 62
7
  6
CONTINUOUS
 66
1
 70
0
  0
VERTEX
  8
0
 62
7
  6
CONTINUOUS
 10
75.420405641
 20
90.5758624996
  0
VERTEX
  8
0
 62
7
  6
CONTINUOUS
 10
75.4210203022
 20
90.5404198095
  0
VERTEX
  8
0
 62
7
  6
CONTINUOUS
 10
75.4491014958
 20
90.3353478895
  0
VERTEX
  8
0
 62
7
  6
CONTINUOUS
 10
75.5182112952
 20
90.1392172803
  0
VERTEX
  8
0
 62
7
  6
CONTINUOUS
 10
75.62086232
 20
89.9667302605
  0
VERTEX
  8
0
 62
7
  6
CONTINUOUS
 10
75.7435172629
 20
89.8271668176
  0
VERTEX
  8
0
 62
7
  6
CONTINUOUS
 10
75.8736598991
 20
89.7204565848
  0
VERTEX
  8
0
 62
7
  6
CONTINUOUS
 10
76.0040500735
 20
89.6407250156
  0
VERTEX
  8
0
 62
7
  6
CONTINUOUS
 10
76.1328178873
 20
89.5804614699
  0
VERTEX
  8
0
 62
7
  6
CONTINUOUS
 10
76.2229626239
 20
89.5461627142
  0
SEQEND
  0
LINE
  8
0
 62
7
  6
CONTINUOUS
 10
75.4204030426
 20
96.600310941
 11
75.4204030426
 21
90.5755643325
  0
LINE
  8
0
 62
7
  6
CONTINUOUS
 10
134.9353687995
 20
73.9379376368
 11
128.0734885841
 21
73.9379376368
  0
LINE
  8
0
 62
7
  6
CONTINUOUS
 10
127.844766826
 20
73.9379376368
 11
121.116717202
 21
73.9379376368
  0
LINE
  8
LAY0001
 62
7
  6
CONTINUOUS
 10
121.116717202
 20
73.9379376368
 11
119.9110590956
 21
73.9379376368
  0
LINE
  8
0
 62
7
  6
CONTINUOUS
 10
117.2632699967
 20
73.9379376368
 11
117.0191888274
 21
73.9379376368
  0
LINE
  8
0
 62
7
  6
CONTINUOUS
 10
119.0566074183
 20
73.9379376368
 11
117.2738719179
 21
73.9379376368
  0
LINE
  8
0
 62
7
  6
CONTINUOUS
 10
116.7508347416
 20
73.9379376368
 11
114.7710952875
 21
73.9379376368
  0
LINE
  8
0
 62
7
  6
CONTINUOUS
 10
114.5952496884
 20
73.9379376368
 11
101.0866574935
 21
73.9379376368
  0
LINE
  8
0
 62
7
  6
CONTINUOUS
 10
99.4769639208
 20
73.9379376368
 11
97.2710503469
 21
73.9379376368
  0
LINE
  8
0
 62
7
  6
CONTINUOUS
 10
97.231029265
 20
73.9379376368
 11
94.1954199756
 21
73.9379376368
  0
LINE
  8
0
 62
7
  6
CONTINUOUS
 10
94.1300570106
 20
73.9379376368
 11
92.0365911378
 21
73.9379376368
  0
LINE
  8
0
 62
7
  6
CONTINUOUS
 10
90.7419353827
 20
73.9379376368
 11
89.0773462641
 21
73.9379376368
  0
LINE
  8
0
 62
7
  6
CONTINUOUS
 10
89.0735826326
 20
73.9379376368
 11
79.5760659722
 21
73.9379376368
  0
LINE
  8
0
 62
7
  6
CONTINUOUS
 10
73.9867622023
 20
74.0879376368
 11
140.9866569338
 21
74.0879376368
  0
LINE
  8
0
 62
7
  6
CONTINUOUS
 10
79.5760659722
 20
113.2379376368
 11
79.5760659722
 21
113.0879376368
  0
LINE
  8
0
 62
7
  6
CONTINUOUS
 10
79.5760659722
 20
74.0879376368
 11
79.5760659722
 21
73.9379376368
  0
LINE
  8
0
 62
7
  6
CONTINUOUS
 10
81.3944234436
 20
113.2379376368
 11
81.3944234436
 21
113.0879376368
  0
LINE
  8
0
 62
7
  6
CONTINUOUS
 10
81.3944234436
 20
74.0879376368
 11
81.3944234436
 21
73.9379376368
  0
POLYLINE
  8
0
 62
7
  6
CONTINUOUS
 66
1
 70
0
  0
VERTEX
  8
0
 62
7
  6
CONTINUOUS
 10
53.7600489892
 20
97.5198924986
  0
VERTEX
  8
0
 62
7
  6
CONTINUOUS
 10
53.6923961294
 20
97.4988756607
  0
VERTEX
  8
0
 62
7
  6
CONTINUOUS
 10
53.6205446966
 20
97.4727584825
  0
VERTEX
  8
0
 62
7
  6
CONTINUOUS
 10
53.5404041978
 20
97.4374713187
  0
VERTEX
  8
0
 62
7
  6
CONTINUOUS
 10
53.4536476462
 20
97.3901579001
  0
VERTEX
  8
0
 62
7
  6
CONTINUOUS
 10
53.3637428551
 20
97.3288549152
  0
VERTEX
  8
0
 62
7
  6
CONTINUOUS
 10
53.274293756
 20
97.2520940965
  0
VERTEX
  8
0
 62
7
  6
CONTINUOUS
 10
53.1890711382
 20
97.1589610509
  0
VERTEX
  8
0
 62
7
  6
CONTINUOUS
 10
53.1124597492
 20
97.0498779499
  0
VERTEX
  8
0
 62
7
  6
CONTINUOUS
 10
53.0482447552
 20
96.9253953555
  0
VERTEX
  8
0
 62
7
  6
CONTINUOUS
 10
53.000107727
 20
96.7862481414
  0
VERTEX
  8
0
 62
7
  6
CONTINUOUS
 10
52.9720321346
 20
96.6340125682
  0
VERTEX
  8
0
 62
7
  6
CONTINUOUS
 10
52.9664986111
 20
96.528822789
  0
SEQEND
  0
LINE
  8
0
 62
7
  6
CONTINUOUS
 10
148.7737320386
 20
89.168560717
 11
149.170285993
 21
89.2628271353
  0
LINE
  8
0
 62
7
  6
CONTINUOUS
 10
163.4974776124
 20
89.6676505068
 11
163.5071260294
 21
89.6695982996
  0
POLYLINE
  8
0
 62
7
  6
CONTINUOUS
 66
1
 70
0
  0
VERTEX
  8
0
 62
7
  6
CONTINUOUS
 10
163.5162658003
 20
89.6711237387
  0
VERTEX
  8
0
 62
7
  6
CONTINUOUS
 10
163.5259234973
 20
89.6730056673
  0
VERTEX
  8
0
 62
7
  6
CONTINUOUS
 10
163.5410835511
 20
89.676126655
  0
VERTEX
  8
0
 62
7
  6
CONTINUOUS
 10
163.5671998986
 20
89.6820517984
  0
VERTEX
  8
0
 62
7
  6
CONTINUOUS
 10
163.6002683558
 20
89.6906073084
  0
SEQEND
  0
LINE
  8
0
 62
7
  6
CONTINUOUS
 10
163.5010518901
 20
89.6682743394
 11
163.5162658003
 21
89.6711237387
  0
LINE
  8
0
 62
7
  6
CONTINUOUS
 10
163.4614913177
 20
89.6611161041
 11
163.5010518901
 21
89.6682743394
  0
LINE
  8
0
 62
7
  6
CONTINUOUS
 10
163.465508825
 20
89.6618407766
 11
161.0731500014
 21
89.2398619989
  0
POLYLINE
  8
0
 62
7
  6
CONTINUOUS
 66
1
 70
0
  0
VERTEX
  8
0
 62
7
  6
CONTINUOUS
 10
53.7629522936
 20
89.6551410267
  0
VERTEX
  8
0
 62
7
  6
CONTINUOUS
 10
53.83217158
 20
89.636180684
  0
VERTEX
  8
0
 62
7
  6
CONTINUOUS
 10
53.9092681125
 20
89.6169383574
  0
SEQEND
  0
LINE
  8
0
 62
7
  6
CONTINUOUS
 10
86.3405853856
 20
74.0879376368
 11
86.3405853856
 21
73.9379376368
  0
LINE
  8
0
 62
7
  6
CONTINUOUS
 10
86.4379461875
 20
113.2379376368
 11
86.4379461875
 21
113.0879376368
  0
LINE
  8
0
 62
7
  6
CONTINUOUS
 10
86.5342452583
 20
74.0879376368
 11
86.5342452583
 21
73.9379376368
  0
POLYLINE
  8
0
 62
7
  6
CONTINUOUS
 66
1
 70
0
  0
VERTEX
  8
0
 62
7
  6
CONTINUOUS
 10
76.2229708504
 20
97.6297154477
  0
VERTEX
  8
0
 62
7
  6
CONTINUOUS
 10
76.1357630212
 20
97.5966243194
  0
VERTEX
  8
0
 62
7
  6
CONTINUOUS
 10
76.006616447
 20
97.5365091245
  0
VERTEX
  8
0
 62
7
  6
CONTINUOUS
 10
75.87597143
 20
97.457038004
  0
VERTEX
  8
0
 62
7
  6
CONTINUOUS
 10
75.7454615516
 20
97.3505627821
  0
VERTEX
  8
0
 62
7
  6
CONTINUOUS
 10
75.6222180558
 20
97.2109877796
  0
VERTEX
  8
0
 62
7
  6
CONTINUOUS
 10
75.5188678875
 20
97.0380502365
  0
VERTEX
  8
0
 62
7
  6
CONTINUOUS
 10
75.4492741119
 20
96.8412397528
  0
VERTEX
  8
0
 62
7
  6
CONTINUOUS
 10
75.4210244536
 20
96.6355748739
  0
VERTEX
  8
0
 62
7
  6
CONTINUOUS
 10
75.4204056412
 20
96.6000126558
  0
SEQEND
  0
LINE
  8
0
 62
7
  6
CONTINUOUS
 10
76.9762194878
 20
97.8945902654
 11
76.2226245128
 21
97.6295948136
  0
LINE
  8
0
 62
7
  6
CONTINUOUS
 10
77.3338318645
 20
97.9993698237
 11
76.9762867048
 21
97.8946137195
  0
POLYLINE
  8
0
 62
7
  6
CONTINUOUS
 66
1
 70
0
  0
VERTEX
  8
0
 62
7
  6
CONTINUOUS
 10
55.8567870078
 20
89.2417225832
  0
VERTEX
  8
0
 62
7
  6
CONTINUOUS
 10
56.3775920881
 20
89.1599412097
  0
VERTEX
  8
0
 62
7
  6
CONTINUOUS
 10
56.9807967625
 20
89.1037355707
  0
VERTEX
  8
0
 62
7
  6
CONTINUOUS
 10
57.5137447563
 20
89.0879378104
  0
SEQEND
  0
POLYLINE
  8
0
 62
7
  6
CONTINUOUS
 66
1
 70
0
  0
VERTEX
  8
0
 62
7
  6
CONTINUOUS
 10
53.9092681125
 20
89.6169383574
  0
VERTEX
  8
0
 62
7
  6
CONTINUOUS
 10
53.997756592
 20
89.5964426487
  0
VERTEX
  8
0
 62
7
  6
CONTINUOUS
 10
54.0992512521
 20
89.574345066
  0
VERTEX
  8
0
 62
7
  6
CONTINUOUS
 10
54.2144595429
 20
89.5505552897
  0
VERTEX
  8
0
 62
7
  6
CONTINUOUS
 10
54.3430141353
 20
89.5252275872
  0
VERTEX
  8
0
 62
7
  6
CONTINUOUS
 10
55.8567857001
 20
89.2417226615
  0
SEQEND
  0
POLYLINE
  8
0
 62
7
  6
CONTINUOUS
 66
1
 70
0
  0
VERTEX
  8
0
 62
7
  6
CONTINUOUS
 10
76.9762906738
 20
89.2812601488
  0
VERTEX
  8
0
 62
7
  6
CONTINUOUS
 10
77.3295235422
 20
89.177521994
  0
VERTEX
  8
0
 62
7
  6
CONTINUOUS
 10
77.7364844727
 20
89.1072965538
  0
VERTEX
  8
0
 62
7
  6
CONTINUOUS
 10
78.0916395348
 20
89.0879378148
  0
SEQEND
  0
LINE
  8
0
 62
7
  6
CONTINUOUS
 10
76.2226245191
 20
89.5462804577
 11
76.9762194879
 21
89.2812850081
  0
LINE
  8
0
 62
7
  6
CONTINUOUS
 10
87.2454843265
 20
74.0879376368
 11
87.2454843265
 21
73.9379376368
  0
LINE
  8
0
 62
7
  6
CONTINUOUS
 10
87.308884735
 20
74.0879376368
 11
87.308884735
 21
73.9379376368
  0
LINE
  8
0
 62
7
  6
CONTINUOUS
 10
87.5025446492
 20
74.0879376368
 11
87.5025446492
 21
73.9379376368
  0
LINE
  8
0
 62
7
  6
CONTINUOUS
 10
87.9908437912
 20
74.0879376368
 11
87.9908437912
 21
73.9379376368
  0
LINE
  8
0
 62
7
  6
CONTINUOUS
 10
88.195925852
 20
74.0879376368
 11
88.195925852
 21
73.9379376368
  0
LINE
  8
0
 62
7
  6
CONTINUOUS
 10
88.3598342186
 20
74.0879376368
 11
88.3598342186
 21
73.9379376368
  0
LINE
  8
0
 62
7
  6
CONTINUOUS
 10
88.3763037197
 20
74.0879376368
 11
88.3763037197
 21
73.9379376368
  0
LINE
  8
0
 62
7
  6
CONTINUOUS
 10
88.4337894688
 20
74.0879376368
 11
88.4337894688
 21
73.9379376368
  0
LINE
  8
0
 62
7
  6
CONTINUOUS
 10
88.565073491
 20
74.0879376368
 11
88.565073491
 21
73.9379376368
  0
LINE
  8
0
 62
7
  6
CONTINUOUS
 10
88.7291391866
 20
74.0879376368
 11
88.7291391866
 21
73.9379376368
  0
LINE
  8
0
 62
7
  6
CONTINUOUS
 10
88.884970073
 20
74.0879376368
 11
88.884970073
 21
73.9379376368
  0
LINE
  8
0
 62
7
  6
CONTINUOUS
 10
89.0773462641
 20
74.0879376368
 11
89.0773462641
 21
73.9379376368
  0
LINE
  8
0
 62
7
  6
CONTINUOUS
 10
89.2892893769
 20
74.0879376368
 11
89.2892893769
 21
73.9379376368
  0
LINE
  8
0
 62
7
  6
CONTINUOUS
 10
89.4438261676
 20
74.0879376368
 11
89.4438261676
 21
73.9379376368
  0
LINE
  8
0
 62
7
  6
CONTINUOUS
 10
89.5409567228
 20
74.0879376368
 11
89.5409567228
 21
73.9379376368
  0
LINE
  8
0
 62
7
  6
CONTINUOUS
 10
89.7528998356
 20
74.0879376368
 11
89.7528998356
 21
73.9379376368
  0
LINE
  8
0
 62
7
  6
CONTINUOUS
 10
90.7419353827
 20
74.0879376368
 11
90.7419353827
 21
73.9379376368
  0
POLYLINE
  8
0
 62
7
  6
CONTINUOUS
 66
1
 70
0
  0
VERTEX
  8
0
 62
7
  6
CONTINUOUS
 10
147.9272064315
 20
89.0879377895
  0
VERTEX
  8
0
 62
7
  6
CONTINUOUS
 10
148.3216418248
 20
89.1053692241
  0
VERTEX
  8
0
 62
7
  6
CONTINUOUS
 10
148.7737320386
 20
89.168560717
  0
SEQEND
  0
LINE
  8
0
 62
7
  6
CONTINUOUS
 10
159.3366526526
 20
89.0879376368
 11
57.5137630325
 21
89.0879376368
  0
LINE
  8
0
 62
7
  6
CONTINUOUS
 10
78.0917251187
 20
89.0879376368
 11
78.0916395348
 21
89.0879376416
  0
LINE
  8
0
 62
7
  6
CONTINUOUS
 10
92.0365911378
 20
74.0879376368
 11
92.0365911378
 21
73.9379376368
  0
LINE
  8
0
 62
7
  6
CONTINUOUS
 10
93.6974182287
 20
74.0879376368
 11
93.6974182287
 21
73.9379376368
  0
LINE
  8
0
 62
7
  6
CONTINUOUS
 10
93.8455403266
 20
74.0879376368
 11
93.8455403266
 21
73.9379376368
  0
LINE
  8
0
 62
7
  6
CONTINUOUS
 10
93.9819349126
 20
74.0879376368
 11
93.9819349126
 21
73.9379376368
  0
LINE
  8
0
 62
7
  6
CONTINUOUS
 10
94.1300570106
 20
74.0879376368
 11
94.1300570106
 21
73.9379376368
  0
LINE
  8
0
 62
7
  6
CONTINUOUS
 10
94.1954199756
 20
74.0879376368
 11
94.1954199756
 21
73.9379376368
  0
LINE
  8
0
 62
7
  6
CONTINUOUS
 10
94.4319722195
 20
74.0879376368
 11
94.4319722195
 21
73.9379376368
  0
LINE
  8
0
 62
7
  6
CONTINUOUS
 10
95.4635137817
 20
74.0879376368
 11
95.4635137817
 21
73.9379376368
  0
LINE
  8
0
 62
7
  6
CONTINUOUS
 10
95.4804186829
 20
74.0879376368
 11
95.4804186829
 21
73.9379376368
  0
LINE
  8
0
 62
7
  6
CONTINUOUS
 10
95.537165121
 20
74.0879376368
 11
95.537165121
 21
73.9379376368
  0
LINE
  8
0
 62
7
  6
CONTINUOUS
 10
95.6422038885
 20
74.0879376368
 11
95.6422038885
 21
73.9379376368
  0
LINE
  8
0
 62
7
  6
CONTINUOUS
 10
95.7671628717
 20
74.0879376368
 11
95.7671628717
 21
73.9379376368
  0
LINE
  8
0
 62
7
  6
CONTINUOUS
 10
96.0370010539
 20
74.0879376368
 11
96.0370010539
 21
73.9379376368
  0
LINE
  8
0
 62
7
  6
CONTINUOUS
 10
96.3466796675
 20
74.0879376368
 11
96.3466796675
 21
73.9379376368
  0
LINE
  8
0
 62
7
  6
CONTINUOUS
 10
96.6479052779
 20
74.0879376368
 11
96.6479052779
 21
73.9379376368
  0
LINE
  8
0
 62
7
  6
CONTINUOUS
 10
96.8724653398
 20
74.0879376368
 11
96.8724653398
 21
73.9379376368
  0
LINE
  8
0
 62
7
  6
CONTINUOUS
 10
97.0004396376
 20
74.0879376368
 11
97.0004396376
 21
73.9379376368
  0
LINE
  8
0
 62
7
  6
CONTINUOUS
 10
97.0801205284
 20
74.0879376368
 11
97.0801205284
 21
73.9379376368
  0
LINE
  8
0
 62
7
  6
CONTINUOUS
 10
97.1996418228
 20
74.0879376368
 11
97.1996418228
 21
73.9379376368
  0
LINE
  8
0
 62
7
  6
CONTINUOUS
 10
97.231029265
 20
74.0879376368
 11
97.231029265
 21
73.9379376368
  0
LINE
  8
0
 62
7
  6
CONTINUOUS
 10
97.2710503469
 20
74.0879376368
 11
97.2710503469
 21
73.9379376368
  0
LINE
  8
0
 62
7
  6
CONTINUOUS
 10
97.5686333674
 20
74.0879376368
 11
97.5686333674
 21
73.9379376368
  0
LINE
  8
0
 62
7
  6
CONTINUOUS
 10
98.3252931653
 20
74.0879376368
 11
98.3252931653
 21
73.9379376368
  0
LINE
  8
0
 62
7
  6
CONTINUOUS
 10
98.6597714874
 20
74.0879376368
 11
98.6597714874
 21
73.9379376368
  0
LINE
  8
0
 62
7
  6
CONTINUOUS
 10
98.9573545079
 20
74.0879376368
 11
98.9573545079
 21
73.9379376368
  0
LINE
  8
0
 62
7
  6
CONTINUOUS
 10
99.4769639208
 20
74.0879376368
 11
99.4769639208
 21
73.9379376368
  0
LINE
  8
0
 62
7
  6
CONTINUOUS
 10
57.5137460863
 20
98.0879376368
 11
159.3366526047
 21
98.0879376368
  0
LINE
  8
0
 62
7
  6
CONTINUOUS
 10
101.0866574935
 20
113.2379376368
 11
101.0866574935
 21
113.0879376368
  0
LINE
  8
0
 62
7
  6
CONTINUOUS
 10
101.0866574935
 20
74.0879376368
 11
101.0866574935
 21
73.9379376368
  0
LINE
  8
0
 62
7
  6
CONTINUOUS
 10
102.0818107286
 20
74.0879376368
 11
102.0818107286
 21
73.9379376368
  0
LINE
  8
0
 62
7
  6
CONTINUOUS
 10
102.095407163
 20
74.0879376368
 11
102.095407163
 21
73.9379376368
  0
LINE
  8
0
 62
7
  6
CONTINUOUS
 10
102.1681439237
 20
74.0879376368
 11
102.1681439237
 21
73.9379376368
  0
LINE
  8
0
 62
7
  6
CONTINUOUS
 10
102.3439819779
 20
74.0879376368
 11
102.3439819779
 21
73.9379376368
  0
LINE
  8
0
 62
7
  6
CONTINUOUS
 10
102.5350005287
 20
74.0879376368
 11
102.5350005287
 21
73.9379376368
  0
LINE
  8
0
 62
7
  6
CONTINUOUS
 10
102.7851617444
 20
74.0879376368
 11
102.7851617444
 21
73.9379376368
  0
LINE
  8
0
 62
7
  6
CONTINUOUS
 10
103.1975633787
 20
74.0879376368
 11
103.1975633787
 21
73.9379376368
  0
LINE
  8
0
 62
7
  6
CONTINUOUS
 10
103.462905091
 20
74.0879376368
 11
103.462905091
 21
73.9379376368
  0
LINE
  8
0
 62
7
  6
CONTINUOUS
 10
103.6842881745
 20
74.0879376368
 11
103.6842881745
 21
73.9379376368
  0
LINE
  8
0
 62
7
  6
CONTINUOUS
 10
103.9208529346
 20
74.0879376368
 11
103.9208529346
 21
73.9379376368
  0
LINE
  8
0
 62
7
  6
CONTINUOUS
 10
104.0543164011
 20
74.0879376368
 11
104.0543164011
 21
73.9379376368
  0
LINE
  8
0
 62
7
  6
CONTINUOUS
 10
104.1438212602
 20
74.0879376368
 11
104.1438212602
 21
73.9379376368
  0
LINE
  8
0
 62
7
  6
CONTINUOUS
 10
104.2576838442
 20
74.0879376368
 11
104.2576838442
 21
73.9379376368
  0
LINE
  8
0
 62
7
  6
CONTINUOUS
 10
104.6524758772
 20
74.0879376368
 11
104.6524758772
 21
73.9379376368
  0
LINE
  8
0
 62
7
  6
CONTINUOUS
 10
105.1204648719
 20
74.0879376368
 11
105.1204648719
 21
73.9379376368
  0
POLYLINE
  8
0
 62
7
  6
CONTINUOUS
 66
1
 70
0
  0
VERTEX
  8
0
 62
7
  6
CONTINUOUS
 10
78.0916343502
 20
98.087937468
  0
VERTEX
  8
0
 62
7
  6
CONTINUOUS
 10
77.7408774121
 20
98.0690551824
  0
VERTEX
  8
0
 62
7
  6
CONTINUOUS
 10
77.3338318645
 20
97.9993698237
  0
SEQEND
  0
POLYLINE
  8
0
 62
7
  6
CONTINUOUS
 66
1
 70
0
  0
VERTEX
  8
0
 62
7
  6
CONTINUOUS
 10
57.5137447338
 20
98.0879374732
  0
VERTEX
  8
0
 62
7
  6
CONTINUOUS
 10
56.9873384601
 20
98.0725254224
  0
VERTEX
  8
0
 62
7
  6
CONTINUOUS
 10
56.3840963468
 20
98.0167591455
  0
SEQEND
  0
LINE
  8
0
 62
7
  6
CONTINUOUS
 10
106.4204335082
 20
74.0879376368
 11
106.4204335082
 21
73.9379376368
  0
LINE
  8
0
 62
7
  6
CONTINUOUS
 10
106.7324261713
 20
74.0879376368
 11
106.7324261713
 21
73.9379376368
  0
LINE
  8
0
 62
7
  6
CONTINUOUS
 10
106.8748235101
 20
74.0879376368
 11
106.8748235101
 21
73.9379376368
  0
LINE
  8
0
 62
7
  6
CONTINUOUS
 10
107.292514082
 20
74.0879376368
 11
107.292514082
 21
73.9379376368
  0
LINE
  8
0
 62
7
  6
CONTINUOUS
 10
107.3565700131
 20
74.0879376368
 11
107.3565700131
 21
73.9379376368
  0
LINE
  8
DEFAULT_1
 62
2
  6
CENTER
 10
107.4866574935
 20
71.9379376368
 11
107.4866574935
 21
115.2379376368
  0
LINE
  8
0
 62
7
  6
CONTINUOUS
 10
107.7533241602
 20
113.2379376368
 11
107.7533241602
 21
113.0879376368
  0
LINE
  8
0
 62
7
  6
CONTINUOUS
 10
109.2309544377
 20
74.0879376368
 11
109.2309544377
 21
73.9379376368
  0
POLYLINE
  8
0
 62
7
  6
CONTINUOUS
 66
1
 70
0
  0
VERTEX
  8
0
 62
7
  6
CONTINUOUS
 10
53.9073840112
 20
97.5584843659
  0
VERTEX
  8
0
 62
7
  6
CONTINUOUS
 10
53.8298478857
 20
97.5390880136
  0
VERTEX
  8
0
 62
7
  6
CONTINUOUS
 10
53.7600489892
 20
97.5198924986
  0
SEQEND
  0
POLYLINE
  8
0
 62
7
  6
CONTINUOUS
 66
1
 70
0
  0
VERTEX
  8
0
 62
7
  6
CONTINUOUS
 10
54.344965802
 20
97.6510237771
  0
VERTEX
  8
0
 62
7
  6
CONTINUOUS
 10
54.2149356474
 20
97.6254159615
  0
VERTEX
  8
0
 62
7
  6
CONTINUOUS
 10
54.0986570596
 20
97.6014042993
  0
VERTEX
  8
0
 62
7
  6
CONTINUOUS
 10
53.9964058385
 20
97.5791295323
  0
VERTEX
  8
0
 62
7
  6
CONTINUOUS
 10
53.9073840112
 20
97.5584843659
  0
SEQEND
  0
LINE
  8
0
 62
7
  6
CONTINUOUS
 10
55.8567857001
 20
97.934152612
 11
54.344965802
 21
97.6510237771
  0
LINE
  8
0
 62
7
  6
CONTINUOUS
 10
56.3840963468
 20
98.0167591455
 11
55.8567869891
 21
97.9341526765
  0
LINE
  8
0
 62
7
  6
CONTINUOUS
 10
112.0681182082
 20
74.0879376368
 11
112.0681182082
 21
73.9379376368
  0
LINE
  8
0
 62
7
  6
CONTINUOUS
 10
112.1503411908
 20
74.0879376368
 11
112.1503411908
 21
73.9379376368
  0
LINE
  8
0
 62
7
  6
CONTINUOUS
 10
112.4997888863
 20
74.0879376368
 11
112.4997888863
 21
73.9379376368
  0
LINE
  8
0
 62
7
  6
CONTINUOUS
 10
112.5511782458
 20
74.0879376368
 11
112.5511782458
 21
73.9379376368
  0
LINE
  8
0
 62
7
  6
CONTINUOUS
 10
113.8866574935
 20
113.2379376368
 11
113.8866574935
 21
113.0879376368
  0
LINE
  8
0
 62
7
  6
CONTINUOUS
 10
114.5952496884
 20
74.0879376368
 11
114.5952496884
 21
73.9379376368
  0
LINE
  8
0
 62
7
  6
CONTINUOUS
 10
114.7710952875
 20
74.0879376368
 11
114.7710952875
 21
73.9379376368
  0
LINE
  8
0
 62
7
  6
CONTINUOUS
 10
114.7937465912
 20
74.0879376368
 11
114.7937465912
 21
73.9379376368
  0
LINE
  8
0
 62
7
  6
CONTINUOUS
 10
114.9246922026
 20
74.0879376368
 11
114.9246922026
 21
73.9379376368
  0
LINE
  8
0
 62
7
  6
CONTINUOUS
 10
115.0475360431
 20
74.0879376368
 11
115.0475360431
 21
73.9379376368
  0
LINE
  8
0
 62
7
  6
CONTINUOUS
 10
115.1412808996
 20
74.0879376368
 11
115.1412808996
 21
73.9379376368
  0
LINE
  8
0
 62
7
  6
CONTINUOUS
 10
115.2996737996
 20
74.0879376368
 11
115.2996737996
 21
73.9379376368
  0
POLYLINE
  8
0
 62
7
  6
CONTINUOUS
 66
1
 70
0
  0
VERTEX
  8
0
 62
7
  6
CONTINUOUS
 10
150.1988365523
 20
89.5557142486
  0
VERTEX
  8
0
 62
7
  6
CONTINUOUS
 10
150.2847702053
 20
89.5816417223
  0
VERTEX
  8
0
 62
7
  6
CONTINUOUS
 10
150.3925133817
 20
89.6192565664
  0
VERTEX
  8
0
 62
7
  6
CONTINUOUS
 10
150.4939602342
 20
89.6619875748
  0
VERTEX
  8
0
 62
7
  6
CONTINUOUS
 10
150.5990880197
 20
89.716737331
  0
VERTEX
  8
0
 62
7
  6
CONTINUOUS
 10
150.7127928666
 20
89.7922669963
  0
VERTEX
  8
0
 62
7
  6
CONTINUOUS
 10
150.8305700993
 20
89.8954656368
  0
VERTEX
  8
0
 62
7
  6
CONTINUOUS
 10
150.9412414606
 20
90.0282491677
  0
VERTEX
  8
0
 62
7
  6
CONTINUOUS
 10
151.0334886131
 20
90.188990463
  0
VERTEX
  8
0
 62
7
  6
CONTINUOUS
 10
151.0975602451
 20
90.3734525994
  0
VERTEX
  8
0
 62
7
  6
CONTINUOUS
 10
151.1254571049
 20
90.5742992504
  0
VERTEX
  8
0
 62
7
  6
CONTINUOUS
 10
151.1261815507
 20
90.6126037104
  0
SEQEND
  0
LINE
  8
0
 62
7
  6
CONTINUOUS
 10
149.170315179
 20
89.2628352896
 11
150.1989131265
 21
89.5557356158
  0
LINE
  8
0
 62
7
  6
CONTINUOUS
 10
140.9865527872
 20
113.0879376368
 11
73.9867622023
 21
113.0879376368
  0
LINE
  8
0
 62
7
  6
CONTINUOUS
 10
134.9353687995
 20
113.2379376368
 11
128.0734885841
 21
113.2379376368
  0
LINE
  8
0
 62
7
  6
CONTINUOUS
 10
113.8866574935
 20
113.2379376368
 11
101.0866574935
 21
113.2379376368
  0
LINE
  8
0
 62
7
  6
CONTINUOUS
 10
86.4379461875
 20
113.2379376368
 11
79.5760659722
 21
113.2379376368
  0
LINE
  8
0
 62
7
  6
CONTINUOUS
 10
163.4865670981
 20
97.510245614
 11
161.0731392661
 21
97.9360151676
  0
LINE
  8
0
 62
7
  6
CONTINUOUS
 10
163.5035659314
 20
97.5071367604
 11
163.465508825
 21
97.5140344969
  0
LINE
  8
0
 62
7
  6
CONTINUOUS
 10
163.5198861068
 20
97.5040544875
 11
163.5035659314
 21
97.5071367604
  0
LINE
  8
0
 62
7
  6
CONTINUOUS
 10
163.5071260294
 20
97.5062769739
 11
163.4974776127
 21
97.5082247666
  0
POLYLINE
  8
0
 62
7
  6
CONTINUOUS
 66
1
 70
0
  0
VERTEX
  8
0
 62
7
  6
CONTINUOUS
 10
149.170284147
 20
97.9130486542
  0
VERTEX
  8
0
 62
7
  6
CONTINUOUS
 10
148.778461477
 20
98.0064064179
  0
VERTEX
  8
0
 62
7
  6
CONTINUOUS
 10
148.3264214445
 20
98.0700805376
  0
VERTEX
  8
0
 62
7
  6
CONTINUOUS
 10
147.9272042084
 20
98.0879374928
  0
SEQEND
  0
LINE
  8
0
 62
7
  6
CONTINUOUS
 10
150.198913115
 20
97.620139661
 11
149.1703151791
 21
97.9130399839
  0
LINE
  8
0
 62
7
  6
CONTINUOUS
 10
115.4936134659
 20
74.0879376368
 11
115.4936134659
 21
73.9379376368
  0
LINE
  8
0
 62
7
  6
CONTINUOUS
 10
115.7877479825
 20
74.0879376368
 11
115.7877479825
 21
73.9379376368
  0
LINE
  8
0
 62
7
  6
CONTINUOUS
 10
116.1028797531
 20
74.0879376368
 11
116.1028797531
 21
73.9379376368
  0
LINE
  8
0
 62
7
  6
CONTINUOUS
 10
116.3889124988
 20
74.0879376368
 11
116.3889124988
 21
73.9379376368
  0
LINE
  8
0
 62
7
  6
CONTINUOUS
 10
116.595747648
 20
74.0879376368
 11
116.595747648
 21
73.9379376368
  0
LINE
  8
0
 62
7
  6
CONTINUOUS
 10
116.7023902399
 20
74.0879376368
 11
116.7023902399
 21
73.9379376368
  0
LINE
  8
0
 62
7
  6
CONTINUOUS
 10
116.7443870409
 20
74.0879376368
 11
116.7443870409
 21
73.9379376368
  0
LINE
  8
0
 62
7
  6
CONTINUOUS
 10
116.7508347416
 20
74.0879376368
 11
116.7508347416
 21
73.9379376368
  0
LINE
  8
0
 62
7
  6
CONTINUOUS
 10
117.0123753156
 20
74.0879376368
 11
117.0123753156
 21
73.9379376368
  0
LINE
  8
0
 62
7
  6
CONTINUOUS
 10
117.0191888274
 20
74.0879376368
 11
117.0191888274
 21
73.9379376368
  0
LINE
  8
0
 62
7
  6
CONTINUOUS
 10
117.2632699967
 20
74.0879376368
 11
117.2632699967
 21
73.9379376368
  0
LINE
  8
0
 62
7
  6
CONTINUOUS
 10
117.2738719179
 20
74.0879376368
 11
117.2738719179
 21
73.9379376368
  0
LINE
  8
0
 62
7
  6
CONTINUOUS
 10
117.348043703
 20
74.0879376368
 11
117.348043703
 21
73.9379376368
  0
LINE
  8
0
 62
7
  6
CONTINUOUS
 10
117.5383914009
 20
74.0879376368
 11
117.5383914009
 21
73.9379376368
  0
LINE
  8
0
 62
7
  6
CONTINUOUS
 10
117.7590114406
 20
74.0879376368
 11
117.7590114406
 21
73.9379376368
  0
LINE
  8
0
 62
7
  6
CONTINUOUS
 10
118.0587214487
 20
74.0879376368
 11
118.0587214487
 21
73.9379376368
  0
LINE
  8
0
 62
7
  6
CONTINUOUS
 10
118.3213433295
 20
74.0879376368
 11
118.3213433295
 21
73.9379376368
  0
LINE
  8
0
 62
7
  6
CONTINUOUS
 10
118.5654244988
 20
74.0879376368
 11
118.5654244988
 21
73.9379376368
  0
LINE
  8
0
 62
7
  6
CONTINUOUS
 10
118.7909627217
 20
74.0879376368
 11
118.7909627217
 21
73.9379376368
  0
LINE
  8
0
 62
7
  6
CONTINUOUS
 10
118.9794128175
 20
74.0879376368
 11
118.9794128175
 21
73.9379376368
  0
LINE
  8
0
 62
7
  6
CONTINUOUS
 10
119.051689287
 20
74.0879376368
 11
119.051689287
 21
73.9379376368
  0
LINE
  8
0
 62
7
  6
CONTINUOUS
 10
119.0566074183
 20
74.0879376368
 11
119.0566074183
 21
73.9379376368
  0
LINE
  8
LAY0001
 62
7
  6
CONTINUOUS
 10
119.9110590956
 20
74.0879376368
 11
119.9110590956
 21
73.9379376368
  0
LINE
  8
LAY0001
 62
7
  6
CONTINUOUS
 10
119.9191826409
 20
74.0879376368
 11
119.9191826409
 21
73.9379376368
  0
LINE
  8
LAY0001
 62
7
  6
CONTINUOUS
 10
119.9910958693
 20
74.0879376368
 11
119.9910958693
 21
73.9379376368
  0
POLYLINE
  8
0
 62
7
  6
CONTINUOUS
 66
1
 70
0
  0
VERTEX
  8
0
 62
7
  6
CONTINUOUS
 10
163.6002683558
 20
89.6906073084
  0
VERTEX
  8
0
 62
7
  6
CONTINUOUS
 10
163.6360879848
 20
89.7012495416
  0
VERTEX
  8
0
 62
7
  6
CONTINUOUS
 10
163.6728178224
 20
89.7137002222
  0
VERTEX
  8
0
 62
7
  6
CONTINUOUS
 10
163.710248769
 20
89.7280565157
  0
VERTEX
  8
0
 62
7
  6
CONTINUOUS
 10
163.7482251648
 20
89.7444246221
  0
VERTEX
  8
0
 62
7
  6
CONTINUOUS
 10
163.7865739568
 20
89.7628973188
  0
VERTEX
  8
0
 62
7
  6
CONTINUOUS
 10
163.8250945601
 20
89.7835446091
  0
VERTEX
  8
0
 62
7
  6
CONTINUOUS
 10
163.8636137041
 20
89.806440499
  0
VERTEX
  8
0
 62
7
  6
CONTINUOUS
 10
163.9020838898
 20
89.8317397386
  0
VERTEX
  8
0
 62
7
  6
CONTINUOUS
 10
163.9404544953
 20
89.8596260855
  0
VERTEX
  8
0
 62
7
  6
CONTINUOUS
 10
163.9786427532
 20
89.8902979089
  0
VERTEX
  8
0
 62
7
  6
CONTINUOUS
 10
164.0165285823
 20
89.9239652025
  0
VERTEX
  8
0
 62
7
  6
CONTINUOUS
 10
164.0538962509
 20
89.9607905117
  0
VERTEX
  8
0
 62
7
  6
CONTINUOUS
 10
164.0904040135
 20
90.000822932
  0
VERTEX
  8
0
 62
7
  6
CONTINUOUS
 10
164.1256901648
 20
90.0440696686
  0
VERTEX
  8
0
 62
7
  6
CONTINUOUS
 10
164.1593878509
 20
90.0905035464
  0
VERTEX
  8
0
 62
7
  6
CONTINUOUS
 10
164.1911426576
 20
90.1400844749
  0
VERTEX
  8
0
 62
7
  6
CONTINUOUS
 10
164.2206206119
 20
90.1927836334
  0
VERTEX
  8
0
 62
7
  6
CONTINUOUS
 10
164.2474786358
 20
90.2485468621
  0
VERTEX
  8
0
 62
7
  6
CONTINUOUS
 10
164.2713631674
 20
90.3072872764
  0
VERTEX
  8
0
 62
7
  6
CONTINUOUS
 10
164.2919127001
 20
90.3688824585
  0
VERTEX
  8
0
 62
7
  6
CONTINUOUS
 10
164.3087607719
 20
90.4331717425
  0
VERTEX
  8
0
 62
7
  6
CONTINUOUS
 10
164.3215394249
 20
90.4999536548
  0
VERTEX
  8
0
 62
7
  6
CONTINUOUS
 10
164.3298831471
 20
90.5689835734
  0
VERTEX
  8
0
 62
7
  6
CONTINUOUS
 10
164.3334333025
 20
90.6399716417
  0
VERTEX
  8
0
 62
7
  6
CONTINUOUS
 10
164.3335373174
 20
90.6543946199
  0
SEQEND
  0
POLYLINE
  8
0
 62
7
  6
CONTINUOUS
 66
1
 70
0
  0
VERTEX
  8
0
 62
7
  6
CONTINUOUS
 10
163.6005942987
 20
97.485177642
  0
VERTEX
  8
0
 62
7
  6
CONTINUOUS
 10
163.5730548097
 20
97.4923956155
  0
VERTEX
  8
0
 62
7
  6
CONTINUOUS
 10
163.5496719086
 20
97.4978790293
  0
VERTEX
  8
0
 62
7
  6
CONTINUOUS
 10
163.5317683025
 20
97.5016923447
  0
VERTEX
  8
0
 62
7
  6
CONTINUOUS
 10
163.5198861068
 20
97.5040544875
  0
SEQEND
  0
LINE
  8
LAY0001
 62
7
  6
CONTINUOUS
 10
120.126798782
 20
74.0879376368
 11
120.126798782
 21
73.9379376368
  0
LINE
  8
LAY0001
 62
7
  6
CONTINUOUS
 10
120.2764181574
 20
74.0879376368
 11
120.2764181574
 21
73.9379376368
  0
LINE
  8
LAY0001
 62
7
  6
CONTINUOUS
 10
120.4399539957
 20
74.0879376368
 11
120.4399539957
 21
73.9379376368
  0
LINE
  8
LAY0001
 62
7
  6
CONTINUOUS
 10
120.5286801463
 20
74.0879376368
 11
120.5286801463
 21
73.9379376368
  0
LINE
  8
LAY0001
 62
7
  6
CONTINUOUS
 10
120.6313227596
 20
74.0879376368
 11
120.6313227596
 21
73.9379376368
  0
LINE
  8
LAY0001
 62
7
  6
CONTINUOUS
 10
120.7368618311
 20
74.0879376368
 11
120.7368618311
 21
73.9379376368
  0
LINE
  8
LAY0001
 62
7
  6
CONTINUOUS
 10
120.8250227245
 20
74.0879376368
 11
120.8250227245
 21
73.9379376368
  0
LINE
  8
LAY0001
 62
7
  6
CONTINUOUS
 10
120.9497053471
 20
74.0879376368
 11
120.9497053471
 21
73.9379376368
  0
LINE
  8
0
 62
7
  6
CONTINUOUS
 10
121.116717202
 20
74.0879376368
 11
121.116717202
 21
73.9379376368
  0
LINE
  8
0
 62
7
  6
CONTINUOUS
 10
122.3637152919
 20
74.0879376368
 11
122.3637152919
 21
73.9379376368
  0
LINE
  8
0
 62
7
  6
CONTINUOUS
 10
123.4471122371
 20
74.0879376368
 11
123.4471122371
 21
73.9379376368
  0
LINE
  8
0
 62
7
  6
CONTINUOUS
 10
123.6462887518
 20
74.0879376368
 11
123.6462887518
 21
73.9379376368
  0
LINE
  8
0
 62
7
  6
CONTINUOUS
 10
123.7472586072
 20
74.0879376368
 11
123.7472586072
 21
73.9379376368
  0
LINE
  8
0
 62
7
  6
CONTINUOUS
 10
123.776555741
 20
74.0879376368
 11
123.776555741
 21
73.9379376368
  0
LINE
  8
0
 62
7
  6
CONTINUOUS
 10
125.2501923819
 20
74.0879376368
 11
125.2501923819
 21
73.9379376368
  0
LINE
  8
0
 62
7
  6
CONTINUOUS
 10
125.5927301542
 20
74.0879376368
 11
125.5927301542
 21
73.9379376368
  0
LINE
  8
0
 62
7
  6
CONTINUOUS
 10
125.6645641865
 20
74.0879376368
 11
125.6645641865
 21
73.9379376368
  0
LINE
  8
0
 62
7
  6
CONTINUOUS
 10
125.8608706621
 20
74.0879376368
 11
125.8608706621
 21
73.9379376368
  0
LINE
  8
0
 62
7
  6
CONTINUOUS
 10
126.0974023368
 20
74.0879376368
 11
126.0974023368
 21
73.9379376368
  0
LINE
  8
0
 62
7
  6
CONTINUOUS
 10
126.3741592579
 20
74.0879376368
 11
126.3741592579
 21
73.9379376368
  0
LINE
  8
0
 62
7
  6
CONTINUOUS
 10
126.623557359
 20
74.0879376368
 11
126.623557359
 21
73.9379376368
  0
LINE
  8
0
 62
7
  6
CONTINUOUS
 10
126.8793903726
 20
74.0879376368
 11
126.8793903726
 21
73.9379376368
  0
LINE
  8
0
 62
7
  6
CONTINUOUS
 10
127.1818799572
 20
74.0879376368
 11
127.1818799572
 21
73.9379376368
  0
LINE
  8
0
 62
7
  6
CONTINUOUS
 10
127.416792746
 20
74.0879376368
 11
127.416792746
 21
73.9379376368
  0
LINE
  8
0
 62
7
  6
CONTINUOUS
 10
127.5776863665
 20
74.0879376368
 11
127.5776863665
 21
73.9379376368
  0
LINE
  8
0
 62
7
  6
CONTINUOUS
 10
127.7450186768
 20
74.0879376368
 11
127.7450186768
 21
73.9379376368
  0
LINE
  8
0
 62
7
  6
CONTINUOUS
 10
127.844766826
 20
74.0879376368
 11
127.844766826
 21
73.9379376368
  0
LINE
  8
0
 62
7
  6
CONTINUOUS
 10
128.0734885841
 20
113.2379376368
 11
128.0734885841
 21
113.0879376368
  0
LINE
  8
0
 62
7
  6
CONTINUOUS
 10
128.0734885841
 20
74.0879376368
 11
128.0734885841
 21
73.9379376368
  0
LINE
  8
0
 62
7
  6
CONTINUOUS
 10
128.9972490148
 20
113.2379376368
 11
128.9972490148
 21
113.0879376368
  0
LINE
  8
0
 62
7
  6
CONTINUOUS
 10
128.9972490148
 20
74.0879376368
 11
128.9972490148
 21
73.9379376368
  0
LINE
  8
0
 62
7
  6
CONTINUOUS
 10
132.0639156815
 20
113.2379376368
 11
132.0639156815
 21
113.0879376368
  0
LINE
  8
0
 62
7
  6
CONTINUOUS
 10
132.0639156815
 20
74.0879376368
 11
132.0639156815
 21
73.9379376368
  0
LINE
  8
0
 62
7
  6
CONTINUOUS
 10
133.3122248767
 20
113.2379376368
 11
133.3122248767
 21
113.0879376368
  0
LINE
  8
0
 62
7
  6
CONTINUOUS
 10
133.3122248767
 20
74.0879376368
 11
133.3122248767
 21
73.9379376368
  0
LINE
  8
0
 62
7
  6
CONTINUOUS
 10
134.9353687995
 20
113.2379376368
 11
134.9353687995
 21
113.0879376368
  0
LINE
  8
0
 62
7
  6
CONTINUOUS
 10
134.9353687995
 20
74.0879376368
 11
134.9353687995
 21
73.9379376368
  0
LINE
  8
0
 62
7
  6
CONTINUOUS
 10
142.4866574935
 20
111.5879376368
 11
142.4866574935
 21
99.5879376368
  0
LINE
  8
0
 62
7
  6
CONTINUOUS
 10
142.4866574935
 20
87.5879376368
 11
142.4866574935
 21
75.5879376368
  0
POLYLINE
  8
0
 62
7
  6
CONTINUOUS
 66
1
 70
0
  0
VERTEX
  8
0
 62
7
  6
CONTINUOUS
 10
151.1261815506
 20
96.5632715193
  0
VERTEX
  8
0
 62
7
  6
CONTINUOUS
 10
151.125441048
 20
96.6019980267
  0
VERTEX
  8
0
 62
7
  6
CONTINUOUS
 10
151.0974778908
 20
96.8027616972
  0
VERTEX
  8
0
 62
7
  6
CONTINUOUS
 10
151.0335198545
 20
96.9868167417
  0
VERTEX
  8
0
 62
7
  6
CONTINUOUS
 10
150.9416425118
 20
97.1470535412
  0
VERTEX
  8
0
 62
7
  6
CONTINUOUS
 10
150.831541755
 20
97.2794216076
  0
VERTEX
  8
0
 62
7
  6
CONTINUOUS
 10
150.7144240475
 20
97.3823735815
  0
VERTEX
  8
0
 62
7
  6
CONTINUOUS
 10
150.6013189487
 20
97.4578353386
  0
VERTEX
  8
0
 62
7
  6
CONTINUOUS
 10
150.4965228027
 20
97.5126929943
  0
VERTEX
  8
0
 62
7
  6
CONTINUOUS
 10
150.3952739304
 20
97.5555615973
  0
VERTEX
  8
0
 62
7
  6
CONTINUOUS
 10
150.2877801394
 20
97.5932678455
  0
VERTEX
  8
0
 62
7
  6
CONTINUOUS
 10
150.198841059
 20
97.6201597411
  0
SEQEND
  0
LINE
  8
0
 62
7
  6
CONTINUOUS
 10
151.1261838571
 20
96.5635780302
 11
151.1261838571
 21
90.6122972434
  0
POLYLINE
  8
0
 62
7
  6
CONTINUOUS
 66
1
 70
0
  0
VERTEX
  8
0
 62
7
  6
CONTINUOUS
 10
164.3327634932
 20
96.5608133941
  0
VERTEX
  8
0
 62
7
  6
CONTINUOUS
 10
164.3296485994
 20
96.6095850007
  0
VERTEX
  8
0
 62
7
  6
CONTINUOUS
 10
164.3241903805
 20
96.6578868394
  0
VERTEX
  8
0
 62
7
  6
CONTINUOUS
 10
164.3164437564
 20
96.7055870812
  0
VERTEX
  8
0
 62
7
  6
CONTINUOUS
 10
164.3064726168
 20
96.7525591698
  0
VERTEX
  8
0
 62
7
  6
CONTINUOUS
 10
164.294349312
 20
96.7986824703
  0
VERTEX
  8
0
 62
7
  6
CONTINUOUS
 10
164.280154096
 20
96.8438428631
  0
VERTEX
  8
0
 62
7
  6
CONTINUOUS
 10
164.2639745254
 20
96.8879332813
  0
VERTEX
  8
0
 62
7
  6
CONTINUOUS
 10
164.2459048236
 20
96.930854186
  0
VERTEX
  8
0
 62
7
  6
CONTINUOUS
 10
164.2260452139
 20
96.9725139785
  0
VERTEX
  8
0
 62
7
  6
CONTINUOUS
 10
164.2045012304
 20
97.012829347
  0
VERTEX
  8
0
 62
7
  6
CONTINUOUS
 10
164.1813830116
 20
97.0517255463
  0
VERTEX
  8
0
 62
7
  6
CONTINUOUS
 10
164.1568045848
 20
97.0891366105
  0
VERTEX
  8
0
 62
7
  6
CONTINUOUS
 10
164.130883113
 20
97.1250055448
  0
VERTEX
  8
0
 62
7
  6
CONTINUOUS
 10
164.1037382013
 20
97.159284359
  0
VERTEX
  8
0
 62
7
  6
CONTINUOUS
 10
164.07549131
 20
97.19193395
  0
VERTEX
  8
0
 62
7
  6
CONTINUOUS
 10
164.0462649485
 20
97.2229242256
  0
VERTEX
  8
0
 62
7
  6
CONTINUOUS
 10
164.0161819896
 20
97.2522340035
  0
VERTEX
  8
0
 62
7
  6
CONTINUOUS
 10
163.9853650133
 20
97.2798508468
  0
VERTEX
  8
0
 62
7
  6
CONTINUOUS
 10
163.9539356859
 20
97.3057708424
  0
VERTEX
  8
0
 62
7
  6
CONTINUOUS
 10
163.9220141868
 20
97.3299983198
  0
VERTEX
  8
0
 62
7
  6
CONTINUOUS
 10
163.8897187084
 20
97.3525455091
  0
VERTEX
  8
0
 62
7
  6
CONTINUOUS
 10
163.857165074
 20
97.3734321241
  0
VERTEX
  8
0
 62
7
  6
CONTINUOUS
 10
163.8244637177
 20
97.3926864579
  0
VERTEX
  8
0
 62
7
  6
CONTINUOUS
 10
163.7917155668
 20
97.4103462921
  0
VERTEX
  8
0
 62
7
  6
CONTINUOUS
 10
163.759017443
 20
97.4264544206
  0
VERTEX
  8
0
 62
7
  6
CONTINUOUS
 10
163.726459025
 20
97.4410594767
  0
VERTEX
  8
0
 62
7
  6
CONTINUOUS
 10
163.6941233614
 20
97.4542147046
  0
VERTEX
  8
0
 62
7
  6
CONTINUOUS
 10
163.662094867
 20
97.4659743927
  0
VERTEX
  8
0
 62
7
  6
CONTINUOUS
 10
163.6305815722
 20
97.4763566696
  0
VERTEX
  8
0
 62
7
  6
CONTINUOUS
 10
163.6005942987
 20
97.485177642
  0
SEQEND
  0
LINE
  8
0
 62
7
  6
CONTINUOUS
 10
164.333537317
 20
96.5214806538
 11
164.3327634932
 21
96.5608133941
  0
LINE
  8
0
 62
7
  6
CONTINUOUS
 10
164.3335444626
 20
96.5216075006
 11
164.3335444626
 21
90.654267773
  0
ARC
  8
0
 62
7
  6
CONTINUOUS
 10
70.6199167162
 20
164.5570037522
 40
9.525
 50
343.0
 51
30.0
  0
ARC
  8
0
 62
7
  6
CONTINUOUS
 10
76.0027832835
 20
172.2836053673
 40
1.5
 50
348.5903720549
 51
30.0
  0
ARC
  8
0
 62
7
  6
CONTINUOUS
 10
77.9632592169
 20
171.8879614436
 40
0.5
 50
168.5903953981
 51
209.9992353149
  0
ARC
  8
0
 62
7
  6
CONTINUOUS
 10
52.9454843316
 20
197.8267636024
 40
9.525
 50
303.0
 51
350.0
  0
ARC
  8
0
 62
7
  6
CONTINUOUS
 10
68.2867578797
 20
183.6481533992
 40
2.0
 50
30.0
 51
110.0
  0
ARC
  8
0
 62
7
  6
CONTINUOUS
 10
57.0873593801
 20
183.8286167935
 40
2.0
 50
203.2404710346
 51
290.0
  0
ARC
  8
0
 62
7
  6
CONTINUOUS
 10
56.1473092862
 20
186.1640660901
 40
2.0
 50
123.0
 51
200.6104401411
  0
ARC
  8
0
 62
7
  6
CONTINUOUS
 10
71.0027832835
 20
180.9438594052
 40
1.5
 50
30.0
 51
71.4096221098
  0
ARC
  8
0
 62
7
  6
CONTINUOUS
 10
62.0355631367
 20
200.2856438999
 40
1.5
 50
308.5905189641
 51
350.0
  0
ARC
  8
0
 62
7
  6
CONTINUOUS
 10
71.6403835614
 20
182.8395033289
 40
0.5
 50
210.0
 51
251.4096221077
  0
ARC
  8
0
 62
7
  6
CONTINUOUS
 10
63.2830598194
 20
198.7223934315
 40
0.5
 50
128.5899546706
 51
170.0
  0
ARC
  8
0
 62
7
  6
CONTINUOUS
 10
105.5447068387
 20
150.4317952401
 40
9.525
 50
23.0
 51
70.0
  0
ARC
  8
0
 62
7
  6
CONTINUOUS
 10
91.4858490293
 20
163.5567387484
 40
2.0
 50
70.0
 51
150.0
  0
ARC
  8
0
 62
7
  6
CONTINUOUS
 10
82.7906124085
 20
156.4961471373
 40
2.0
 50
243.2404710346
 51
330.0
  0
ARC
  8
0
 62
7
  6
CONTINUOUS
 10
80.569294387
 20
157.6809525403
 40
2.0
 50
163.0
 51
240.6104401411
  0
ARC
  8
0
 62
7
  6
CONTINUOUS
 10
104.7016580774
 20
159.8107554056
 40
1.5
 50
28.5904817877
 51
70.0
  0
ARC
  8
0
 62
7
  6
CONTINUOUS
 10
95.3047318696
 20
163.2309568389
 40
1.5
 50
70.0
 51
111.409622109
  0
ARC
  8
0
 62
7
  6
CONTINUOUS
 10
106.4577847841
 20
160.7678442155
 40
0.5
 50
208.5900661998
 51
250.0
  0
ARC
  8
0
 62
7
  6
CONTINUOUS
 10
94.5746655928
 20
165.0929458914
 40
0.5
 50
250.0005676792
 51
291.40962211
  0
ARC
  8
0
 62
7
  6
CONTINUOUS
 10
63.4297354177
 20
213.9511582938
 40
2.0
 50
350.0
 51
70.0
  0
ARC
  8
0
 62
7
  6
CONTINUOUS
 10
54.9664980647
 20
221.2882358657
 40
2.0
 50
163.2404710346
 51
250.0
  0
ARC
  8
0
 62
7
  6
CONTINUOUS
 10
55.7475757849
 20
223.6815463744
 40
2.0
 50
83.0
 51
160.6104401411
  0
ARC
  8
0
 62
7
  6
CONTINUOUS
 10
63.7720449134
 20
210.13372143
 40
1.5
 50
350.0
 51
31.4096221088
  0
ARC
  8
0
 62
7
  6
CONTINUOUS
 10
69.3354151721
 20
230.7144059658
 40
1.5
 50
268.5903980923
 51
310.0
  0
ARC
  8
0
 62
7
  6
CONTINUOUS
 10
65.4789714898
 20
211.1760273653
 40
0.5
 50
170.0004295945
 51
211.4096221107
  0
ARC
  8
0
 62
7
  6
CONTINUOUS
 10
69.2862150418
 20
228.7150112206
 40
0.5
 50
88.5903778912
 51
130.0000000113
  0
ARC
  8
0
 62
7
  6
CONTINUOUS
 10
60.791473027
 20
234.6737844047
 40
9.525
 50
263.0
 51
310.0
  0
ARC
  8
0
 62
7
  6
CONTINUOUS
 10
79.5571336309
 20
252.6785474078
 40
2.0
 50
43.0
 51
120.6104401411
  0
ARC
  8
0
 62
7
  6
CONTINUOUS
 10
79.1874364331
 20
240.2866406616
 40
2.0
 50
310.0
 51
30.0
  0
ARC
  8
0
 62
7
  6
CONTINUOUS
 10
77.4204030426
 20
251.3472322727
 40
2.0
 50
123.2404710346
 51
210.0
  0
ARC
  8
0
 62
7
  6
CONTINUOUS
 10
76.9958596033
 20
237.1422820627
 40
1.5
 50
310.0
 51
351.4096221096
  0
ARC
  8
0
 62
7
  6
CONTINUOUS
 10
78.9734225627
 20
236.8435434785
 40
0.5
 50
130.0
 51
171.409755969
  0
ARC
  8
0
 62
7
  6
CONTINUOUS
 10
107.4866574935
 20
205.4719356165
 40
56.85
 50
80.6104401411
 51
83.2404710346
  0
ARC
  8
0
 62
7
  6
CONTINUOUS
 10
107.4866574935
 20
205.4719356165
 40
56.85
 50
0.6104401411
 51
3.2404710346
  0
ARC
  8
0
 62
7
  6
CONTINUOUS
 10
107.4866574935
 20
205.4719356165
 40
56.85
 50
320.6104401411
 51
323.2404710346
  0
ARC
  8
0
 62
7
  6
CONTINUOUS
 10
107.4866574935
 20
205.4719356165
 40
56.85
 50
280.6104401411
 51
283.2404710346
  0
ARC
  8
0
 62
7
  6
CONTINUOUS
 10
107.4866574935
 20
205.4719356165
 40
56.85
 50
240.6104401411
 51
243.2404710346
  0
ARC
  8
0
 62
7
  6
CONTINUOUS
 10
107.4866574935
 20
205.4719356165
 40
56.85
 50
200.6104401411
 51
203.2404710346
  0
ARC
  8
0
 62
7
  6
CONTINUOUS
 10
107.4866574935
 20
205.4719356165
 40
56.85
 50
160.6104401411
 51
163.2404710346
  0
ARC
  8
0
 62
7
  6
CONTINUOUS
 10
107.4866574935
 20
205.4719356165
 40
56.85
 50
120.6104401411
 51
123.2404710346
  0
ARC
  8
0
 62
7
  6
CONTINUOUS
 10
107.4866574935
 20
205.4719356165
 40
56.85
 50
40.6104401411
 51
43.2404710346
  0
ARC
  8
0
 62
7
  6
CONTINUOUS
 10
107.4866574935
 20
205.4719356165
 40
35.0
 50
97.022428729
 51
82.977571271
  0
CIRCLE
  8
0
 62
4
  6
CONTINUOUS
 10
107.4866574935
 20
205.4719356165
 40
9.525
  0
ARC
  8
0
 62
7
  6
CONTINUOUS
 10
90.4866574935
 20
257.8569356165
 40
9.525
 50
223.0
 51
270.0
  0
ARC
  8
0
 62
7
  6
CONTINUOUS
 10
107.4866574935
 20
236.9719356165
 40
5.0
 50
46.6443442704
 51
133.3556557296
  0
ARC
  8
0
 62
7
  6
CONTINUOUS
 10
94.4866574935
 20
249.3319356165
 40
1.5
 50
228.5902721234
 51
270.0
  0
ARC
  8
0
 62
7
  6
CONTINUOUS
 10
104.4866574935
 20
249.3319356165
 40
1.5
 50
270.0
 51
311.4096221085
  0
ARC
  8
0
 62
7
  6
CONTINUOUS
 10
103.0242451882
 20
241.6981260927
 40
1.5
 50
277.022428729
 51
313.3556557297
  0
ARC
  8
0
 62
7
  6
CONTINUOUS
 10
93.163781838
 20
247.8319356165
 40
0.5
 50
48.590377888
 51
90.0000000037
  0
ARC
  8
0
 62
7
  6
CONTINUOUS
 10
105.809533149
 20
247.8319356165
 40
0.5
 50
89.9999999969
 51
131.4096221115
  0
ARC
  8
0
 62
7
  6
CONTINUOUS
 10
122.1718962885
 20
163.0779105478
 40
2.0
 50
110.0
 51
190.0
  0
ARC
  8
0
 62
7
  6
CONTINUOUS
 10
120.0494193982
 20
152.0799932158
 40
2.0
 50
283.2404710346
 51
10.0
  0
ARC
  8
0
 62
7
  6
CONTINUOUS
 10
117.5862128385
 20
151.5597711095
 40
2.0
 50
203.0
 51
280.6104401411
  0
ARC
  8
0
 62
7
  6
CONTINUOUS
 10
134.70366505
 20
168.7032791321
 40
1.5
 50
68.5903440961
 51
110.0
  0
ARC
  8
0
 62
7
  6
CONTINUOUS
 10
125.3067388421
 20
165.2830776989
 40
1.5
 50
110.0
 51
151.40962211
  0
ARC
  8
0
 62
7
  6
CONTINUOUS
 10
135.4337313267
 20
170.5652681846
 40
0.5
 50
248.5904792746
 51
289.9994001356
  0
ARC
  8
0
 62
7
  6
CONTINUOUS
 10
123.5506121354
 20
166.2401665087
 40
0.5
 50
290.0
 51
331.409622107
  0
CIRCLE
  8
LAY0001
 62
7
  6
CONTINUOUS
 10
123.5379814264
 20
180.1928681891
 40
1.275
  0
ARC
  8
LAY0001
 62
7
  6
CONTINUOUS
 10
122.9722960015
 20
183.0566506529
 40
1.0
 50
225.0
 51
315.0
  0
ARC
  8
LAY0001
 62
7
  6
CONTINUOUS
 10
125.5178804137
 20
186.0264991339
 40
1.0
 50
45.0
 51
135.0
  0
ARC
  8
LAY0001
 62
7
  6
CONTINUOUS
 10
123.2209631986
 20
183.1638964938
 40
0.9
 50
315.0
 51
11.2510114041
  0
ARC
  8
LAY0001
 62
7
  6
CONTINUOUS
 10
125.2692132167
 20
185.9192532931
 40
0.9
 50
135.0
 51
191.2510114041
  0
ARC
  8
LAY0001
 62
7
  6
CONTINUOUS
 10
123.1844280358
 20
183.5516253998
 40
0.5
 50
315.0
 51
45.0
  0
ARC
  8
LAY0001
 62
7
  6
CONTINUOUS
 10
125.3057483794
 20
185.5315243871
 40
0.5
 50
135.0
 51
225.0
  0
ARC
  8
LAY0001
 62
7
  6
CONTINUOUS
 10
123.0783620186
 20
183.092005992
 40
0.25
 50
225.0
 51
315.0
  0
ARC
  8
LAY0001
 62
7
  6
CONTINUOUS
 10
125.4118143966
 20
185.9911437949
 40
0.25
 50
45.0
 51
135.0
  0
ARC
  8
0
 62
7
  6
CONTINUOUS
 10
141.378157255
 20
162.0604801132
 40
9.525
 50
63.0
 51
110.0
  0
ARC
  8
0
 62
7
  6
CONTINUOUS
 10
151.4299704731
 20
172.6465225289
 40
2.0
 50
323.2404710346
 51
50.0
  0
ARC
  8
0
 62
7
  6
CONTINUOUS
 10
149.8774371
 20
170.6646906185
 40
2.0
 50
243.0
 51
320.6104401411
  0
ARC
  8
0
 62
7
  6
CONTINUOUS
 10
161.3533982707
 20
194.0018674809
 40
9.525
 50
103.0
 51
150.0
  0
ARC
  8
0
 62
7
  6
CONTINUOUS
 10
145.9865571073
 20
182.4357178339
 40
2.0
 50
150.0
 51
230.0
  0
ARC
  8
0
 62
7
  6
CONTINUOUS
 10
151.9705317035
 20
194.8002658657
 40
1.5
 50
108.5904511298
 51
150.0
  0
ARC
  8
0
 62
7
  6
CONTINUOUS
 10
146.9705317035
 20
186.1400118279
 40
1.5
 50
150.0
 51
191.4096221092
  0
ARC
  8
0
 62
7
  6
CONTINUOUS
 10
151.3329314256
 20
196.6959097895
 40
0.5
 50
288.5901581734
 51
330.0
  0
ARC
  8
0
 62
7
  6
CONTINUOUS
 10
145.01005577
 20
185.7443679042
 40
0.5
 50
330.0007247017
 51
11.4096221094
  0
ARC
  8
0
 62
7
  6
CONTINUOUS
 10
128.1363308939
 20
256.528563134
 40
9.525
 50
183.0
 51
230.0
  0
ARC
  8
0
 62
7
  6
CONTINUOUS
 10
108.1866574935
 20
250.3319356165
 40
2.0
 50
270.0
 51
350.0
  0
ARC
  8
0
 62
7
  6
CONTINUOUS
 10
113.9426426273
 20
259.9406675272
 40
2.0
 50
83.2404710346
 51
170.0
  0
ARC
  8
0
 62
7
  6
CONTINUOUS
 10
116.4352260943
 20
259.587050141
 40
2.0
 50
3.0
 51
80.6104401411
  0
ARC
  8
0
 62
7
  6
CONTINUOUS
 10
125.7207442938
 20
247.4268838177
 40
1.5
 50
188.5904239047
 51
230.0
  0
ARC
  8
0
 62
7
  6
CONTINUOUS
 10
133.381188725
 20
240.9990077208
 40
1.5
 50
230.0
 51
271.4096221094
  0
ARC
  8
0
 62
7
  6
CONTINUOUS
 10
111.9490697988
 20
241.6981260927
 40
1.5
 50
226.6443442703
 51
262.977571271
  0
ARC
  8
0
 62
7
  6
CONTINUOUS
 10
123.7431813344
 20
247.1281452335
 40
0.5
 50
8.5902398487
 51
50.0
  0
ARC
  8
0
 62
7
  6
CONTINUOUS
 10
133.4303888553
 20
238.9996129756
 40
0.5
 50
50.0
 51
91.4096221088
  0
ARC
  8
0
 62
7
  6
CONTINUOUS
 10
156.1237926147
 20
231.3102272048
 40
9.525
 50
143.0
 51
190.0
  0
ARC
  8
0
 62
7
  6
CONTINUOUS
 10
151.786687018
 20
212.5724274396
 40
2.0
 50
190.0
 51
270.0
  0
ARC
  8
0
 62
7
  6
CONTINUOUS
 10
162.2489570293
 20
208.5724274396
 40
2.0
 50
3.2404710346
 51
90.0
  0
ARC
  8
0
 62
7
  6
CONTINUOUS
 10
162.3335444626
 20
206.0563069016
 40
2.0
 50
283.0
 51
0.6104401411
  0
ARC
  8
0
 62
7
  6
CONTINUOUS
 10
148.4228992309
 20
225.8906454782
 40
1.5
 50
148.5903119843
 51
190.0
  0
ARC
  8
0
 62
7
  6
CONTINUOUS
 10
150.1593810076
 20
216.0425679481
 40
1.5
 50
190.0
 51
231.4096221103
  0
ARC
  8
0
 62
7
  6
CONTINUOUS
 10
146.7159726546
 20
226.9329514135
 40
0.5
 50
328.5905756099
 51
9.9995450781
  0
ARC
  8
0
 62
7
  6
CONTINUOUS
 10
148.9118843249
 20
214.4793174797
 40
0.5
 50
10.0
 51
51.4096221063
  0
ARC
  8
0
 62
7
  6
CONTINUOUS
 10
136.8583407742
 20
239.3867380081
 40
2.0
 50
230.0
 51
310.0
  0
ARC
  8
0
 62
7
  6
CONTINUOUS
 10
147.4440550176
 20
243.0475777681
 40
2.0
 50
43.2404710346
 51
130.0
  0
ARC
  8
0
 62
7
  6
CONTINUOUS
 10
149.1261838571
 20
241.1744893658
 40
2.0
 50
323.0
 51
40.6104401411
  0
ARC
  8
0
 62
7
  6
CONTINUOUS
 10
159.3366574935
 20
88.0879376368
 40
10.0
 50
80.0000000235
 51
90.0
  0
ARC
  8
0
 62
7
  6
CONTINUOUS
 10
159.3366574935
 20
99.0879376368
 40
10.0
 50
270.0
 51
280.0000624342
  0
ARC
  8
0
 62
7
  6
CONTINUOUS
 10
140.9866574935
 20
111.5879376368
 40
1.5
 50
0.0
 51
90.0
  0
ARC
  8
0
 62
7
  6
CONTINUOUS
 10
73.9866574935
 20
111.5879376368
 40
1.5
 50
90.0
 51
180.0
  0
ARC
  8
0
 62
7
  6
CONTINUOUS
 10
143.9866574935
 20
99.5879376368
 40
1.5
 50
180.0
 51
270.0
  0
ARC
  8
0
 62
7
  6
CONTINUOUS
 10
70.9866574935
 20
99.5879376368
 40
1.5
 50
270.0
 51
360.0
  0
ARC
  8
0
 62
7
  6
CONTINUOUS
 10
143.9866574935
 20
87.5879376368
 40
1.5
 50
90.0
 51
180.0
  0
ARC
  8
0
 62
7
  6
CONTINUOUS
 10
70.9866574935
 20
87.5879376368
 40
1.5
 50
0.0
 51
90.0
  0
ARC
  8
0
 62
7
  6
CONTINUOUS
 10
140.9866574935
 20
75.5879376368
 40
1.5
 50
270.0
 51
360.0
  0
ARC
  8
0
 62
7
  6
CONTINUOUS
 10
73.9866574935
 20
75.5879376368
 40
1.5
 50
180.0
 51
270.0
  0
ENDSEC
  0
EOF
