  0
SECTION
  2
HEADER
  9
$EXTMAX
 10
420.0
 20
297.0
 30
0.0
  9
$EXTMIN
 10
0.0
 20
0.0
 30
0.0
  9
$LIMMIN
 10
0.0
 20
0.0
  9
$LIMMAX
 10
420.0
 20
297.0
  9
$VIEWCTR
 10
210.0
 20
148.5
  9
$VIEWSIZE
 40
297.0
  9
$CLAYER
  8
0
  9
$LTSCALE
 40
23.1
  9
$CELTYPE
  6
BYLAYER
  9
$DIMSCALE
 40
1.0
  9
$DIMASZ
 40
3.5
  9
$DIMEXO
 40
2.625
  9
$DIMDLI
 40
15.96
  9
$DIMEXE
 40
7.56
  9
$DIMCEN
 40
3.78
  9
$DIMLFAC
 40
1.0
  9
$DIMBLK
  1
_FILLED
  9
$DIMTXT
 40
3.5
  9
$PDMODE
 70
3
  9
$PDSIZE
 40
0.3125
  9
$TILEMODE
 70
1
  0
ENDSEC
  0
SECTION
  2
TABLES
  0
TABLE
  2
LTYPE
 70
6
  0
LTYPE
  2
BYBLOCK
 70
0
  3

 72
65
 73
0
 40
0.0
  0
LTYPE
  2
BYLAYER
 70
0
  3

 72
65
 73
0
 40
0.0
  0
LTYPE
  2
CONTINUOUS
 70
64
  3
Solid line
 72
65
 73
0
 40
0.0
  0
LTYPE
  2
CENTER
 70
64
  3
____ _ ____ _ ____ _ ____ _ ____ _ ____ _ ____
 72
65
 73
4
 40
0.6
 49
0.375
 49
-0.075
 49
0.075
 49
-0.075
  0
LTYPE
  2
HIDDEN
 70
64
  3
- - - - - - - - - - - - - - - - - - - -
 72
65
 73
2
 40
0.2
 49
0.1
 49
-0.1
  0
LTYPE
  2
PHANTOM
 70
64
  3
_____ _ _ _____ _ _ _____ _ _ _____
 72
65
 73
6
 40
0.8
 49
0.45
 49
-0.05
 49
0.1
 49
-0.05
 49
0.1
 49
-0.05
  0
LTYPE
  2
DOT
 70
64
  3
. . . . . . . . . . . . . . . . . . . .
 72
65
 73
2
 40
0.2
 49
0.1
 49
-0.1
  0
LTYPE
  2
DASHED
 70
64
  3
- - - - - - - - - - - - - - - - - - - -
 72
65
 73
2
 40
0.2
 49
0.1
 49
-0.1
  0
ENDTAB
  0
TABLE
  2
LAYER
 70
36
  0
LAYER
  2
0
 70
0
 62
7
  6
CONTINUOUS
  0
LAYER
  2
DEFAULT_1
 70
0
 62
7
  6
CENTER
  0
LAYER
  2
DEFAULT_2
 70
0
 62
8
  6
HIDDEN
  0
LAYER
  2
DEFAULT_3
 70
0
 62
7
  6
PHANTOM
  0
LAYER
  2
BLANK_CURVE
 70
0
 62
7
  6
CONTINUOUS
  0
LAYER
  2
HUB_SQ_NAV
 70
0
 62
7
  6
CONTINUOUS
  0
LAYER
  2
LAY0001
 70
0
 62
7
  6
CONTINUOUS
  0
ENDTAB
  0
TABLE
  2
STYLE
 70
1
  0
STYLE
  2
STANDARD
 70
0
 40
0.0
 41
0.8
 50
0.0
 71
0
 42
0.2
  3
txt
  4

  0
STYLE
  2
TEXTSTYLE_1
 70
0
 40
0.0
 41
0.8
 50
0.0
 71
0
 42
0.2
  3
gdt
  4

  0
STYLE
  2
TEXTSTYLE_2
 70
0
 40
0.0
 41
0.6
 50
0.0
 71
0
 42
0.2
  3
txt
  4

  0
STYLE
  2
TEXTSTYLE_3
 70
0
 40
0.0
 41
1.0
 50
0.0
 71
0
 42
0.2
  3
ftb_____.ttf
  4

  0
STYLE
  2
TEXTSTYLE_4
 70
0
 40
0.0
 41
1.0
 50
0.0
 71
0
 42
0.2
  3
fti_____.ttf
  4

  0
STYLE
  2
TEXTSTYLE_5
 70
0
 40
0.0
 41
1.0
 50
0.0
 71
0
 42
0.2
  3
frutiger light.ttf
  4

  0
STYLE
  2
TEXTSTYLE_6
 70
0
 40
0.0
 41
0.7
 50
0.0
 71
0
 42
0.2
  3
txt
  4

  0
STYLE
  2
TEXTSTYLE_7
 70
0
 40
0.0
 41
0.8
 50
0.0
 71
0
 42
0.2
  3
txt
  4

  0
ENDTAB
  0
ENDSEC
  0
SECTION
  2
BLOCKS
  0
BLOCK
  8
0
 62
2
  6
CONTINUOUS
  2
SYMBOL_5_BL1
 70
64
 10
382.7840918555
 20
35.5067593403
  0
TEXT
  8
0
 62
7
  6
CONTINUOUS
 10
373.842376864
 20
30.5995157174
  7
TEXTSTYLE_4
 40
1.0655737705
  1
The brand for plastic modular belts and chains
 41
1.0
 72
0
  0
LINE
  8
0
 62
7
  6
CONTINUOUS
 10
358.7621602445
 20
36.0805298321
 11
358.7621602445
 21
33.9493822911
  0
LINE
  8
0
 62
7
  6
CONTINUOUS
 10
359.0512227376
 20
30.9584509954
 11
359.0512227376
 21
31.0552420547
  0
LINE
  8
0
 62
7
  6
CONTINUOUS
 10
358.7621602445
 20
31.0229783683
 11
358.8199727462
 21
30.8293962497
  0
LINE
  8
0
 62
7
  6
CONTINUOUS
 10
360.1556028675
 20
33.867415078
 11
360.1556028675
 21
36.0805298321
  0
LINE
  8
0
 62
7
  6
CONTINUOUS
 10
361.0746601894
 20
32.0231527829
 11
361.0746601894
 21
30.5067593403
  0
LINE
  8
0
 62
7
  6
CONTINUOUS
 10
361.3637227445
 20
30.5067593403
 11
361.3637227445
 21
31.2488242184
  0
LINE
  8
0
 62
7
  6
CONTINUOUS
 10
361.3637227445
 20
31.3778789641
 11
361.3637227445
 21
32.0231527829
  0
LINE
  8
0
 62
7
  6
CONTINUOUS
 10
358.8199727462
 20
31.216560532
 11
358.7621602445
 21
31.0229783683
  0
LINE
  8
0
 62
7
  6
CONTINUOUS
 10
359.1668477307
 20
30.7971325633
 11
359.0512227376
 21
30.9584509954
  0
LINE
  8
0
 62
7
  6
CONTINUOUS
 10
360.2652852997
 20
31.3133515913
 11
360.3230977445
 21
31.216560532
  0
LINE
  8
0
 62
7
  6
CONTINUOUS
 10
360.6121602997
 20
31.216560532
 11
360.5543476894
 21
31.3456152777
  0
LINE
  8
0
 62
7
  6
CONTINUOUS
 10
362.0408487691
 20
36.0805298321
 11
362.0408487691
 21
34.2772511436
  0
LINE
  8
0
 62
7
  6
CONTINUOUS
 10
362.0408487691
 20
32.9657757338
 11
362.0408487691
 21
32.3100380288
  0
LINE
  8
0
 62
7
  6
CONTINUOUS
 10
362.4043477445
 20
31.1520331591
 11
362.4043477445
 21
30.5067593403
  0
LINE
  8
0
 62
7
  6
CONTINUOUS
 10
362.6934101343
 20
30.5067593403
 11
362.6934101343
 21
31.1520331591
  0
LINE
  8
0
 62
7
  6
CONTINUOUS
 10
359.0512227376
 20
31.0552420547
 11
359.1090352445
 21
31.1842968456
  0
LINE
  8
0
 62
7
  6
CONTINUOUS
 10
358.8199727462
 20
30.8293962497
 11
358.9355977445
 21
30.7003414814
  0
LINE
  8
0
 62
7
  6
CONTINUOUS
 10
362.3465351343
 20
31.2810879048
 11
362.4043477445
 21
31.1520331591
  0
LINE
  8
0
 62
7
  6
CONTINUOUS
 10
363.1559103548
 20
30.7971325633
 11
363.2137226343
 21
30.668077795
  0
LINE
  8
0
 62
7
  6
CONTINUOUS
 10
362.6934101343
 20
31.1520331591
 11
362.6355978548
 21
31.3133515913
  0
LINE
  8
0
 62
7
  6
CONTINUOUS
 10
363.1559103548
 20
31.3456152777
 11
363.1559103548
 21
31.2810879048
  0
LINE
  8
0
 62
7
  6
CONTINUOUS
 10
363.1559103548
 20
30.8939236226
 11
363.1559103548
 21
30.7971325633
  0
LINE
  8
0
 62
7
  6
CONTINUOUS
 10
363.4342913921
 20
32.3100380288
 11
363.4342913921
 21
36.0805298321
  0
LINE
  8
0
 62
7
  6
CONTINUOUS
 10
363.4449727445
 20
30.7648688543
 11
363.4449727445
 21
30.8293962497
  0
LINE
  8
0
 62
7
  6
CONTINUOUS
 10
363.7621602445
 20
36.0805298321
 11
363.7621602445
 21
32.3100380288
  0
LINE
  8
0
 62
7
  6
CONTINUOUS
 10
360.5543476894
 20
30.7003414814
 11
360.6121602997
 21
30.8293962497
  0
LINE
  8
0
 62
7
  6
CONTINUOUS
 10
364.9480979651
 20
30.6035504109
 11
364.890285024
 21
30.7648688543
  0
LINE
  8
0
 62
7
  6
CONTINUOUS
 10
364.6012229651
 20
31.2810879048
 11
364.6012229651
 21
31.1842968456
  0
LINE
  8
0
 62
7
  6
CONTINUOUS
 10
364.6012229651
 20
31.0552420547
 11
364.6012229651
 21
30.8616599362
  0
LINE
  8
0
 62
7
  6
CONTINUOUS
 10
364.890285024
 20
30.7648688543
 11
364.890285024
 21
31.2810879048
  0
LINE
  8
0
 62
7
  6
CONTINUOUS
 10
365.1556028675
 20
32.3100380288
 11
365.1556028675
 21
34.1133167174
  0
LINE
  8
0
 62
7
  6
CONTINUOUS
 10
365.1556028675
 20
35.4247921272
 11
365.1556028675
 21
36.0805298321
  0
LINE
  8
0
 62
7
  6
CONTINUOUS
 10
365.4684104651
 20
32.0231527829
 11
365.4684104651
 21
31.8618343508
  0
LINE
  8
0
 62
7
  6
CONTINUOUS
 10
365.4684104651
 20
31.5391973962
 11
365.4684104651
 21
30.5067593403
  0
LINE
  8
0
 62
7
  6
CONTINUOUS
 10
365.757472524
 20
30.5067593403
 11
365.757472524
 21
31.5391973962
  0
LINE
  8
0
 62
7
  6
CONTINUOUS
 10
365.757472524
 20
31.8618343508
 11
365.757472524
 21
32.0231527829
  0
LINE
  8
0
 62
7
  6
CONTINUOUS
 10
360.3230977445
 20
30.8293962497
 11
360.2652852997
 21
30.7326051679
  0
LINE
  8
0
 62
7
  6
CONTINUOUS
 10
362.6355978548
 20
31.3133515913
 11
362.5777852445
 21
31.3778789641
  0
LINE
  8
0
 62
7
  6
CONTINUOUS
 10
363.5027853548
 20
30.7003414814
 11
363.4449727445
 21
30.7648688543
  0
LINE
  8
0
 62
7
  6
CONTINUOUS
 10
364.6590352445
 20
30.5712867188
 11
364.716847524
 21
30.5067593403
  0
LINE
  8
0
 62
7
  6
CONTINUOUS
 10
364.6012229651
 20
30.668077795
 11
364.6590352445
 21
30.5712867188
  0
LINE
  8
0
 62
7
  6
CONTINUOUS
 10
365.0059102445
 20
30.5067593403
 11
364.9480979651
 21
30.6035504109
  0
LINE
  8
0
 62
7
  6
CONTINUOUS
 10
364.890285024
 20
31.2810879048
 11
364.8324727445
 21
31.3778789641
  0
LINE
  8
0
 62
7
  6
CONTINUOUS
 10
366.2199727445
 20
31.5391973962
 11
366.2199727445
 21
30.5067593403
  0
LINE
  8
0
 62
7
  6
CONTINUOUS
 10
366.5090354651
 20
30.5067593403
 11
366.5090354651
 21
31.2488242184
  0
LINE
  8
0
 62
7
  6
CONTINUOUS
 10
366.5090354651
 20
31.3778789641
 11
366.5090354651
 21
31.5391973962
  0
LINE
  8
0
 62
7
  6
CONTINUOUS
 10
367.0408487691
 20
34.5231527829
 11
367.0408487691
 21
32.3100380288
  0
LINE
  8
0
 62
7
  6
CONTINUOUS
 10
358.9355977445
 20
31.3456152777
 11
358.8199727462
 21
31.216560532
  0
LINE
  8
0
 62
7
  6
CONTINUOUS
 10
359.1090352445
 20
31.1842968456
 11
359.1668477307
 21
31.2488242184
  0
LINE
  8
0
 62
7
  6
CONTINUOUS
 10
358.9355977445
 20
30.7003414814
 11
359.0512227376
 21
30.6358140973
  0
LINE
  8
0
 62
7
  6
CONTINUOUS
 10
359.3402852307
 20
30.7003414814
 11
359.1668477307
 21
30.7971325633
  0
LINE
  8
0
 62
7
  6
CONTINUOUS
 10
364.543410024
 20
31.3456152777
 11
364.6012229651
 21
31.2810879048
  0
LINE
  8
0
 62
7
  6
CONTINUOUS
 10
367.491847524
 20
31.2810879048
 11
367.5496604651
 21
31.1197694727
  0
LINE
  8
0
 62
7
  6
CONTINUOUS
 10
367.838722524
 20
31.1197694727
 11
367.7809102445
 21
31.2810879048
  0
LINE
  8
0
 62
7
  6
CONTINUOUS
 10
367.5496604651
 20
31.1197694727
 11
367.5496604651
 21
30.5067593403
  0
LINE
  8
0
 62
7
  6
CONTINUOUS
 10
367.838722524
 20
30.5067593403
 11
367.838722524
 21
31.1197694727
  0
LINE
  8
0
 62
7
  6
CONTINUOUS
 10
368.3012227445
 20
31.3456152777
 11
368.3012227445
 21
31.2810879048
  0
LINE
  8
0
 62
7
  6
CONTINUOUS
 10
368.4342913921
 20
32.3100380288
 11
368.4342913921
 21
34.4411855698
  0
LINE
  8
0
 62
7
  6
CONTINUOUS
 10
368.7621602445
 20
36.0805298321
 11
368.7621602445
 21
32.3100380288
  0
LINE
  8
0
 62
7
  6
CONTINUOUS
 10
363.4449727445
 20
30.8293962497
 11
363.5027853548
 21
30.926187309
  0
LINE
  8
0
 62
7
  6
CONTINUOUS
 10
359.0512227376
 20
30.6358140973
 11
359.2246602583
 21
30.5712867188
  0
LINE
  8
0
 62
7
  6
CONTINUOUS
 10
360.5543476894
 20
31.3456152777
 11
360.3809101894
 21
31.4424063369
  0
LINE
  8
0
 62
7
  6
CONTINUOUS
 10
363.2137226343
 20
30.668077795
 11
363.3871601343
 21
30.5712867188
  0
LINE
  8
0
 62
7
  6
CONTINUOUS
 10
362.2309102445
 20
31.3456152777
 11
362.3465351343
 21
31.2810879048
  0
LINE
  8
0
 62
7
  6
CONTINUOUS
 10
362.5777852445
 20
31.3778789641
 11
362.4621603548
 21
31.4424063369
  0
LINE
  8
0
 62
7
  6
CONTINUOUS
 10
368.3012227445
 20
30.7648688543
 11
368.4168479651
 21
30.6358140973
  0
LINE
  8
0
 62
7
  6
CONTINUOUS
 10
368.6480977445
 20
30.7003414814
 11
368.5902854651
 21
30.7648688543
  0
LINE
  8
0
 62
7
  6
CONTINUOUS
 10
368.3012227445
 20
31.2810879048
 11
368.4168479651
 21
31.1520331591
  0
LINE
  8
0
 62
7
  6
CONTINUOUS
 10
367.7809102445
 20
31.2810879048
 11
367.7230979651
 21
31.3778789641
  0
LINE
  8
0
 62
7
  6
CONTINUOUS
 10
370.1512223035
 20
30.7003414814
 11
370.1512223035
 21
30.7648688543
  0
LINE
  8
0
 62
7
  6
CONTINUOUS
 10
370.1556028675
 20
32.3100380288
 11
370.1556028675
 21
36.0805298321
  0
LINE
  8
0
 62
7
  6
CONTINUOUS
 10
363.2137226343
 20
31.4101426505
 11
363.1559103548
 21
31.3456152777
  0
LINE
  8
0
 62
7
  6
CONTINUOUS
 10
360.091847717
 20
31.3778789641
 11
360.2652852997
 21
31.3133515913
  0
LINE
  8
0
 62
7
  6
CONTINUOUS
 10
364.8324727445
 20
31.3778789641
 11
364.716847524
 21
31.4424063369
  0
LINE
  8
0
 62
7
  6
CONTINUOUS
 10
368.6480977445
 20
31.216560532
 11
368.5902854651
 21
31.2810879048
  0
LINE
  8
0
 62
7
  6
CONTINUOUS
 10
369.8043479651
 20
30.8293962497
 11
369.8621602445
 21
30.7648688543
  0
LINE
  8
0
 62
7
  6
CONTINUOUS
 10
370.1512223035
 20
30.7648688543
 11
370.0355977445
 21
30.8939236226
  0
LINE
  8
0
 62
7
  6
CONTINUOUS
 10
369.8043479651
 20
31.3456152777
 11
369.8621602445
 21
31.2810879048
  0
LINE
  8
0
 62
7
  6
CONTINUOUS
 10
370.1512223035
 20
31.2810879048
 11
370.0355977445
 21
31.4101426505
  0
LINE
  8
0
 62
7
  6
CONTINUOUS
 10
363.4449727445
 20
31.2810879048
 11
363.5027853548
 21
31.3456152777
  0
LINE
  8
0
 62
7
  6
CONTINUOUS
 10
363.2715352445
 20
31.0229783683
 11
363.1559103548
 21
30.8939236226
  0
LINE
  8
0
 62
7
  6
CONTINUOUS
 10
364.6012229651
 20
30.8616599362
 11
364.543410024
 21
30.7971325633
  0
LINE
  8
0
 62
7
  6
CONTINUOUS
 10
364.543410024
 20
30.6035504109
 11
364.6012229651
 21
30.668077795
  0
LINE
  8
0
 62
7
  6
CONTINUOUS
 10
363.3871601343
 20
30.5712867188
 11
363.5027853548
 21
30.5390230296
  0
LINE
  8
0
 62
7
  6
CONTINUOUS
 10
360.3809101894
 20
31.4424063369
 11
360.1496602445
 21
31.5069337098
  0
LINE
  8
0
 62
7
  6
CONTINUOUS
 10
363.7340351343
 20
30.6358140973
 11
363.5027853548
 21
30.7003414814
  0
LINE
  8
0
 62
7
  6
CONTINUOUS
 10
362.4621603548
 20
31.4424063369
 11
362.2887228548
 21
31.5069337098
  0
LINE
  8
0
 62
7
  6
CONTINUOUS
 10
364.716847524
 20
31.4424063369
 11
364.543410024
 21
31.5069337098
  0
LINE
  8
0
 62
7
  6
CONTINUOUS
 10
367.3762229651
 20
31.3456152777
 11
367.491847524
 21
31.2810879048
  0
LINE
  8
0
 62
7
  6
CONTINUOUS
 10
367.7230979651
 20
31.3778789641
 11
367.6074727445
 21
31.4424063369
  0
LINE
  8
0
 62
7
  6
CONTINUOUS
 10
359.2246602583
 20
30.5712867188
 11
359.3980977583
 21
30.5390230296
  0
LINE
  8
0
 62
7
  6
CONTINUOUS
 10
359.6871602721
 20
30.6358140973
 11
359.3402852307
 21
30.7003414814
  0
LINE
  8
0
 62
7
  6
CONTINUOUS
 10
362.1152853548
 20
31.3778789641
 11
362.2309102445
 21
31.3456152777
  0
LINE
  8
0
 62
7
  6
CONTINUOUS
 10
364.4277854651
 20
31.3778789641
 11
364.543410024
 21
31.3456152777
  0
LINE
  8
0
 62
7
  6
CONTINUOUS
 10
368.7637229651
 20
30.668077795
 11
368.6480977445
 21
30.7003414814
  0
LINE
  8
0
 62
7
  6
CONTINUOUS
 10
367.2605977445
 20
31.3778789641
 11
367.3762229651
 21
31.3456152777
  0
LINE
  8
0
 62
7
  6
CONTINUOUS
 10
368.4168479651
 20
30.6358140973
 11
368.5902854651
 21
30.5712867188
  0
LINE
  8
0
 62
7
  6
CONTINUOUS
 10
367.6074727445
 20
31.4424063369
 11
367.4340352445
 21
31.5069337098
  0
LINE
  8
0
 62
7
  6
CONTINUOUS
 10
368.8215352445
 20
31.1520331591
 11
368.6480977445
 21
31.216560532
  0
LINE
  8
0
 62
7
  6
CONTINUOUS
 10
369.6309104651
 20
30.8939236226
 11
369.8043479651
 21
30.8293962497
  0
LINE
  8
0
 62
7
  6
CONTINUOUS
 10
370.0355977445
 20
31.4101426505
 11
369.8621602445
 21
31.4746700234
  0
LINE
  8
0
 62
7
  6
CONTINUOUS
 10
368.4168479651
 20
31.1520331591
 11
368.6480977445
 21
31.0552420547
  0
LINE
  8
0
 62
7
  6
CONTINUOUS
 10
370.0355977445
 20
30.8939236226
 11
369.8043479651
 21
30.9907146818
  0
LINE
  8
0
 62
7
  6
CONTINUOUS
 10
368.5902854651
 20
31.2810879048
 11
368.6480977445
 21
31.3456152777
  0
LINE
  8
0
 62
7
  6
CONTINUOUS
 10
359.0512227376
 20
31.4101426505
 11
358.9355977445
 21
31.3456152777
  0
LINE
  8
0
 62
7
  6
CONTINUOUS
 10
359.1668477307
 20
31.2488242184
 11
359.3402852307
 21
31.3456152777
  0
LINE
  8
0
 62
7
  6
CONTINUOUS
 10
361.4793477997
 20
31.4424063369
 11
361.3637227445
 21
31.3778789641
  0
LINE
  8
0
 62
7
  6
CONTINUOUS
 10
361.3637227445
 20
31.2488242184
 11
361.4793477997
 21
31.3133515913
  0
LINE
  8
0
 62
7
  6
CONTINUOUS
 10
360.3809101894
 20
30.6035504109
 11
360.5543476894
 21
30.7003414814
  0
LINE
  8
0
 62
7
  6
CONTINUOUS
 10
359.3980977583
 20
30.5390230296
 11
359.744972717
 21
30.5067593403
  0
LINE
  8
0
 62
7
  6
CONTINUOUS
 10
363.5027853548
 20
30.5390230296
 11
363.7340351343
 21
30.5067593403
  0
LINE
  8
0
 62
7
  6
CONTINUOUS
 10
361.8840352445
 20
31.4101426505
 11
362.1152853548
 21
31.3778789641
  0
LINE
  8
0
 62
7
  6
CONTINUOUS
 10
364.1965353548
 20
31.4101426505
 11
364.4277854651
 21
31.3778789641
  0
LINE
  8
0
 62
7
  6
CONTINUOUS
 10
368.6480977445
 20
31.0552420547
 11
369.6309104651
 21
30.8939236226
  0
LINE
  8
0
 62
7
  6
CONTINUOUS
 10
369.8043479651
 20
30.9907146818
 11
368.8215352445
 21
31.1520331591
  0
LINE
  8
0
 62
7
  6
CONTINUOUS
 10
362.2887228548
 20
31.5069337098
 11
362.1152853548
 21
31.5391973962
  0
LINE
  8
0
 62
7
  6
CONTINUOUS
 10
368.5902854651
 20
30.5712867188
 11
368.7637229651
 21
30.5390230296
  0
LINE
  8
0
 62
7
  6
CONTINUOUS
 10
367.4340352445
 20
31.5069337098
 11
367.2605977445
 21
31.5391973962
  0
LINE
  8
0
 62
7
  6
CONTINUOUS
 10
369.6887227445
 20
31.3778789641
 11
369.8043479651
 21
31.3456152777
  0
LINE
  8
0
 62
7
  6
CONTINUOUS
 10
369.8621602445
 20
30.7648688543
 11
369.8043479651
 21
30.7003414814
  0
LINE
  8
0
 62
7
  6
CONTINUOUS
 10
368.4168479651
 20
31.4424063369
 11
368.3012227445
 21
31.3456152777
  0
LINE
  8
0
 62
7
  6
CONTINUOUS
 10
363.3293478548
 20
31.4746700234
 11
363.2137226343
 21
31.4101426505
  0
LINE
  8
0
 62
7
  6
CONTINUOUS
 10
363.3871601343
 20
31.0875057863
 11
363.2715352445
 21
31.0229783683
  0
LINE
  8
0
 62
7
  6
CONTINUOUS
 10
363.5027853548
 20
30.926187309
 11
363.6184102445
 21
30.9907146818
  0
LINE
  8
0
 62
7
  6
CONTINUOUS
 10
361.0746601894
 20
30.5067593403
 11
361.3637227445
 21
30.5067593403
  0
LINE
  8
0
 62
7
  6
CONTINUOUS
 10
362.4043477445
 20
30.5067593403
 11
362.6934101343
 21
30.5067593403
  0
LINE
  8
0
 62
7
  6
CONTINUOUS
 10
363.7340351343
 20
30.5067593403
 11
364.0809101343
 21
30.5067593403
  0
LINE
  8
0
 62
7
  6
CONTINUOUS
 10
364.716847524
 20
30.5067593403
 11
365.0059102445
 21
30.5067593403
  0
LINE
  8
0
 62
7
  6
CONTINUOUS
 10
365.4684104651
 20
30.5067593403
 11
365.757472524
 21
30.5067593403
  0
LINE
  8
0
 62
7
  6
CONTINUOUS
 10
366.2199727445
 20
30.5067593403
 11
366.5090354651
 21
30.5067593403
  0
LINE
  8
0
 62
7
  6
CONTINUOUS
 10
367.5496604651
 20
30.5067593403
 11
367.838722524
 21
30.5067593403
  0
LINE
  8
0
 62
7
  6
CONTINUOUS
 10
369.1105979651
 20
30.5067593403
 11
369.4574729651
 21
30.5067593403
  0
LINE
  8
0
 62
7
  6
CONTINUOUS
 10
369.4574729651
 20
30.6358140973
 11
369.1105979651
 21
30.6358140973
  0
LINE
  8
0
 62
7
  6
CONTINUOUS
 10
364.0809101343
 20
30.6358140973
 11
363.7340351343
 21
30.6358140973
  0
LINE
  8
0
 62
7
  6
CONTINUOUS
 10
368.5902854651
 20
30.7648688543
 11
368.3012227445
 21
30.7648688543
  0
LINE
  8
0
 62
7
  6
CONTINUOUS
 10
360.6121602997
 20
30.8293962497
 11
360.3230977445
 21
30.8293962497
  0
LINE
  8
0
 62
7
  6
CONTINUOUS
 10
359.6871602721
 20
31.4101426505
 11
360.091847717
 21
31.3778789641
  0
LINE
  8
0
 62
7
  6
CONTINUOUS
 10
360.1496602445
 20
31.5069337098
 11
359.744972717
 21
31.5391973962
  0
LINE
  8
0
 62
7
  6
CONTINUOUS
 10
368.7637229651
 20
30.5390230296
 11
369.1105979651
 21
30.5067593403
  0
LINE
  8
0
 62
7
  6
CONTINUOUS
 10
369.1105979651
 20
30.6358140973
 11
368.7637229651
 21
30.668077795
  0
LINE
  8
0
 62
7
  6
CONTINUOUS
 10
364.543410024
 20
31.5069337098
 11
364.1965353548
 21
31.5391973962
  0
LINE
  8
0
 62
7
  6
CONTINUOUS
 10
369.3418477445
 20
31.4101426505
 11
369.6887227445
 21
31.3778789641
  0
LINE
  8
0
 62
7
  6
CONTINUOUS
 10
369.6887227445
 20
31.5069337098
 11
369.3418477445
 21
31.5391973962
  0
LINE
  8
0
 62
7
  6
CONTINUOUS
 10
367.0293479651
 20
31.4101426505
 11
367.2605977445
 21
31.3778789641
  0
LINE
  8
0
 62
7
  6
CONTINUOUS
 10
369.8621602445
 20
31.4746700234
 11
369.6887227445
 21
31.5069337098
  0
LINE
  8
0
 62
7
  6
CONTINUOUS
 10
370.0355977445
 20
30.6035504109
 11
370.1512223035
 21
30.7003414814
  0
LINE
  8
0
 62
7
  6
CONTINUOUS
 10
364.543410024
 20
30.7971325633
 11
364.369972524
 21
30.7003414814
  0
LINE
  8
0
 62
7
  6
CONTINUOUS
 10
366.624660024
 20
31.4424063369
 11
366.5090354651
 21
31.3778789641
  0
LINE
  8
0
 62
7
  6
CONTINUOUS
 10
366.5090354651
 20
31.2488242184
 11
366.624660024
 21
31.3133515913
  0
LINE
  8
0
 62
7
  6
CONTINUOUS
 10
359.2246602583
 20
31.4746700234
 11
359.0512227376
 21
31.4101426505
  0
LINE
  8
0
 62
7
  6
CONTINUOUS
 10
361.6527851343
 20
31.5069337098
 11
361.4793477997
 21
31.4424063369
  0
LINE
  8
0
 62
7
  6
CONTINUOUS
 10
361.4793477997
 20
31.3133515913
 11
361.6527851343
 21
31.3778789641
  0
LINE
  8
0
 62
7
  6
CONTINUOUS
 10
360.2652852997
 20
30.7326051679
 11
360.091847717
 21
30.668077795
  0
LINE
  8
0
 62
7
  6
CONTINUOUS
 10
369.6887227445
 20
30.668077795
 11
369.4574729651
 21
30.6358140973
  0
LINE
  8
0
 62
7
  6
CONTINUOUS
 10
364.0809101343
 20
30.5067593403
 11
364.369972524
 21
30.5390230296
  0
LINE
  8
0
 62
7
  6
CONTINUOUS
 10
369.4574729651
 20
30.5067593403
 11
369.8043479651
 21
30.5390230296
  0
LINE
  8
0
 62
7
  6
CONTINUOUS
 10
359.744972717
 20
30.5067593403
 11
360.1496602445
 21
30.5390230296
  0
LINE
  8
0
 62
7
  6
CONTINUOUS
 10
360.091847717
 20
30.668077795
 11
359.6871602721
 21
30.6358140973
  0
LINE
  8
0
 62
7
  6
CONTINUOUS
 10
363.9652852445
 20
31.0552420547
 11
364.6012229651
 21
31.0552420547
  0
LINE
  8
0
 62
7
  6
CONTINUOUS
 10
364.6012229651
 20
31.1842968456
 11
363.9652852445
 21
31.1842968456
  0
LINE
  8
0
 62
7
  6
CONTINUOUS
 10
360.3230977445
 20
31.216560532
 11
360.6121602997
 21
31.216560532
  0
LINE
  8
0
 62
7
  6
CONTINUOUS
 10
363.1559103548
 20
31.2810879048
 11
363.4449727445
 21
31.2810879048
  0
LINE
  8
0
 62
7
  6
CONTINUOUS
 10
369.8621602445
 20
31.2810879048
 11
370.1512223035
 21
31.2810879048
  0
LINE
  8
0
 62
7
  6
CONTINUOUS
 10
363.8496603548
 20
31.4101426505
 11
364.1965353548
 21
31.4101426505
  0
LINE
  8
0
 62
7
  6
CONTINUOUS
 10
368.9949727445
 20
31.4101426505
 11
369.3418477445
 21
31.4101426505
  0
LINE
  8
0
 62
7
  6
CONTINUOUS
 10
369.3418477445
 20
31.5391973962
 11
368.9949727445
 21
31.5391973962
  0
LINE
  8
0
 62
7
  6
CONTINUOUS
 10
367.2605977445
 20
31.5391973962
 11
367.0293479651
 21
31.5391973962
  0
LINE
  8
0
 62
7
  6
CONTINUOUS
 10
366.5090354651
 20
31.5391973962
 11
366.2199727445
 21
31.5391973962
  0
LINE
  8
0
 62
7
  6
CONTINUOUS
 10
365.757472524
 20
31.5391973962
 11
365.4684104651
 21
31.5391973962
  0
LINE
  8
0
 62
7
  6
CONTINUOUS
 10
364.1965353548
 20
31.5391973962
 11
363.8496603548
 21
31.5391973962
  0
LINE
  8
0
 62
7
  6
CONTINUOUS
 10
362.1152853548
 20
31.5391973962
 11
361.8840352445
 21
31.5391973962
  0
LINE
  8
0
 62
7
  6
CONTINUOUS
 10
365.4684104651
 20
31.8618343508
 11
365.757472524
 21
31.8618343508
  0
LINE
  8
0
 62
7
  6
CONTINUOUS
 10
365.757472524
 20
32.0231527829
 11
365.4684104651
 21
32.0231527829
  0
LINE
  8
0
 62
7
  6
CONTINUOUS
 10
361.3637227445
 20
32.0231527829
 11
361.0746601894
 21
32.0231527829
  0
LINE
  8
0
 62
7
  6
CONTINUOUS
 10
360.4015045068
 20
32.3100380288
 11
360.8140758554
 21
32.3100380288
  0
LINE
  8
0
 62
7
  6
CONTINUOUS
 10
362.0408487691
 20
32.3100380288
 11
363.4342913921
 21
32.3100380288
  0
LINE
  8
0
 62
7
  6
CONTINUOUS
 10
363.7621602445
 20
32.3100380288
 11
365.1556028675
 21
32.3100380288
  0
LINE
  8
0
 62
7
  6
CONTINUOUS
 10
367.0408487691
 20
32.3100380288
 11
368.4342913921
 21
32.3100380288
  0
LINE
  8
0
 62
7
  6
CONTINUOUS
 10
368.7621602445
 20
32.3100380288
 11
370.1556028675
 21
32.3100380288
  0
LINE
  8
0
 62
7
  6
CONTINUOUS
 10
366.798097524
 20
31.5069337098
 11
366.624660024
 21
31.4424063369
  0
LINE
  8
0
 62
7
  6
CONTINUOUS
 10
364.369972524
 20
30.5390230296
 11
364.543410024
 21
30.6035504109
  0
LINE
  8
0
 62
7
  6
CONTINUOUS
 10
369.8043479651
 20
30.5390230296
 11
370.0355977445
 21
30.6035504109
  0
LINE
  8
0
 62
7
  6
CONTINUOUS
 10
369.8043479651
 20
30.7003414814
 11
369.6887227445
 21
30.668077795
  0
LINE
  8
0
 62
7
  6
CONTINUOUS
 10
368.7637229651
 20
31.3778789641
 11
368.9949727445
 21
31.4101426505
  0
LINE
  8
0
 62
7
  6
CONTINUOUS
 10
366.798097524
 20
31.3778789641
 11
367.0293479651
 21
31.4101426505
  0
LINE
  8
0
 62
7
  6
CONTINUOUS
 10
363.7340351343
 20
31.0229783683
 11
363.9652852445
 21
31.0552420547
  0
LINE
  8
0
 62
7
  6
CONTINUOUS
 10
367.0293479651
 20
31.5391973962
 11
366.798097524
 21
31.5069337098
  0
LINE
  8
0
 62
7
  6
CONTINUOUS
 10
363.6184102445
 20
31.3778789641
 11
363.8496603548
 21
31.4101426505
  0
LINE
  8
0
 62
7
  6
CONTINUOUS
 10
368.9949727445
 20
31.5391973962
 11
368.6480977445
 21
31.5069337098
  0
LINE
  8
0
 62
7
  6
CONTINUOUS
 10
363.9652852445
 20
31.1842968456
 11
363.6184102445
 21
31.1520331591
  0
LINE
  8
0
 62
7
  6
CONTINUOUS
 10
359.744972717
 20
31.5391973962
 11
359.3980977583
 21
31.5069337098
  0
LINE
  8
0
 62
7
  6
CONTINUOUS
 10
363.8496603548
 20
31.5391973962
 11
363.4449727445
 21
31.5069337098
  0
LINE
  8
0
 62
7
  6
CONTINUOUS
 10
361.221176638
 20
33.4575790124
 11
360.565438933
 21
33.4575790124
  0
LINE
  8
0
 62
7
  6
CONTINUOUS
 10
366.624660024
 20
31.3133515913
 11
366.798097524
 21
31.3778789641
  0
LINE
  8
0
 62
7
  6
CONTINUOUS
 10
368.6480977445
 20
31.3456152777
 11
368.7637229651
 21
31.3778789641
  0
LINE
  8
0
 62
7
  6
CONTINUOUS
 10
368.6480977445
 20
31.5069337098
 11
368.4168479651
 21
31.4424063369
  0
LINE
  8
0
 62
7
  6
CONTINUOUS
 10
364.369972524
 20
30.7003414814
 11
364.0809101343
 21
30.6358140973
  0
LINE
  8
0
 62
7
  6
CONTINUOUS
 10
361.6527851343
 20
31.3778789641
 11
361.8840352445
 21
31.4101426505
  0
LINE
  8
0
 62
7
  6
CONTINUOUS
 10
361.8840352445
 20
31.5391973962
 11
361.6527851343
 21
31.5069337098
  0
LINE
  8
0
 62
7
  6
CONTINUOUS
 10
359.4559102445
 20
31.3778789641
 11
359.6871602721
 21
31.4101426505
  0
LINE
  8
0
 62
7
  6
CONTINUOUS
 10
365.9752749986
 20
34.9329888485
 11
366.6310127035
 21
34.9329888485
  0
LINE
  8
0
 62
7
  6
CONTINUOUS
 10
363.6184102445
 20
30.9907146818
 11
363.7340351343
 21
31.0229783683
  0
LINE
  8
0
 62
7
  6
CONTINUOUS
 10
363.6184102445
 20
31.1520331591
 11
363.3871601343
 21
31.0875057863
  0
LINE
  8
0
 62
7
  6
CONTINUOUS
 10
363.5027853548
 20
31.3456152777
 11
363.6184102445
 21
31.3778789641
  0
LINE
  8
0
 62
7
  6
CONTINUOUS
 10
360.1496602445
 20
30.5390230296
 11
360.3809101894
 21
30.6035504109
  0
LINE
  8
0
 62
7
  6
CONTINUOUS
 10
363.4449727445
 20
31.5069337098
 11
363.3293478548
 21
31.4746700234
  0
LINE
  8
0
 62
7
  6
CONTINUOUS
 10
359.3980977583
 20
31.5069337098
 11
359.2246602583
 21
31.4746700234
  0
LINE
  8
0
 62
7
  6
CONTINUOUS
 10
370.1556028675
 20
36.0805298321
 11
368.7621602445
 21
36.0805298321
  0
LINE
  8
0
 62
7
  6
CONTINUOUS
 10
366.7949471298
 20
36.0805298321
 11
366.3823757812
 21
36.0805298321
  0
LINE
  8
0
 62
7
  6
CONTINUOUS
 10
365.1556028675
 20
36.0805298321
 11
363.7621602445
 21
36.0805298321
  0
LINE
  8
0
 62
7
  6
CONTINUOUS
 10
363.4342913921
 20
36.0805298321
 11
362.0408487691
 21
36.0805298321
  0
LINE
  8
0
 62
7
  6
CONTINUOUS
 10
360.1556028675
 20
36.0805298321
 11
358.7621602445
 21
36.0805298321
  0
LINE
  8
0
 62
7
  6
CONTINUOUS
 10
359.3402852307
 20
31.3456152777
 11
359.4559102445
 21
31.3778789641
  0
CIRCLE
  8
0
 62
7
  6
CONTINUOUS
 10
369.458881556
 20
38.4165954059
 40
2.0901639344
  0
ARC
  8
0
 62
7
  6
CONTINUOUS
 10
360.4015045068
 20
33.9493822911
 40
1.6393442623
 50
180.0
 51
270.0
  0
ARC
  8
0
 62
7
  6
CONTINUOUS
 10
366.7949471298
 20
34.4411855698
 40
1.6393442623
 50
0.0
 51
90.0
  0
ARC
  8
0
 62
7
  6
CONTINUOUS
 10
360.8140758554
 20
33.7854478649
 40
1.4754098361
 50
270.0
 51
326.2510114041
  0
ARC
  8
0
 62
7
  6
CONTINUOUS
 10
366.3823757812
 20
34.6051199961
 40
1.4754098361
 50
90.0
 51
146.2510114041
  0
ARC
  8
0
 62
7
  6
CONTINUOUS
 10
361.221176638
 20
34.2772511436
 40
0.8196721311
 50
270.0
 51
360.0
  0
ARC
  8
0
 62
7
  6
CONTINUOUS
 10
365.9752749986
 20
34.1133167174
 40
0.8196721311
 50
90.0
 51
180.0
  0
ARC
  8
0
 62
7
  6
CONTINUOUS
 10
360.565438933
 20
33.867415078
 40
0.4098360656
 50
180.0
 51
270.0
  0
ARC
  8
0
 62
7
  6
CONTINUOUS
 10
366.6310127035
 20
34.5231527829
 40
0.4098360656
 50
0.0
 51
90.0
  0
SOLID
  8
0
 62
7
  6
CONTINUOUS
 10
365.4684104651
 20
31.8618347111
 11
365.4684104651
 21
32.0231531947
 12
365.757472524
 22
31.8618347111
 13
365.757472524
 23
32.0231531947
  0
SOLID
  8
0
 62
7
  6
CONTINUOUS
 10
359.744972717
 20
31.5391977439
 11
360.1496602445
 21
31.5069333244
 12
359.3980977583
 22
31.5069333244
 13
359.3980977583
 23
31.5069333244
  0
SOLID
  8
0
 62
7
  6
CONTINUOUS
 10
359.2246602583
 20
31.4746706537
 11
359.3980977583
 21
31.5069333244
 12
360.1496602445
 22
31.5069333244
 13
360.1496602445
 23
31.5069333244
  0
SOLID
  8
0
 62
7
  6
CONTINUOUS
 10
360.1496602445
 20
31.5069333244
 11
360.3809101894
 21
31.4424063504
 12
359.2246602583
 22
31.4746706537
 13
359.2246602583
 23
31.4746706537
  0
SOLID
  8
0
 62
7
  6
CONTINUOUS
 10
359.0512227376
 20
31.4101419116
 11
359.2246602583
 21
31.4746706537
 12
360.3809101894
 22
31.4424063504
 13
360.3809101894
 23
31.4424063504
  0
SOLID
  8
0
 62
7
  6
CONTINUOUS
 10
359.0512227376
 20
31.4101419116
 11
360.3809101894
 21
31.4424063504
 12
359.6871602721
 22
31.4101419116
 13
359.6871602721
 23
31.4101419116
  0
SOLID
  8
0
 62
7
  6
CONTINUOUS
 10
359.6871602721
 20
31.4101419116
 11
360.3809101894
 21
31.4424063504
 12
360.091847717
 22
31.3778792603
 13
360.091847717
 23
31.3778792603
  0
SOLID
  8
0
 62
7
  6
CONTINUOUS
 10
360.3809101894
 20
31.4424063504
 11
360.5543476894
 21
31.345614957
 12
360.091847717
 22
31.3778792603
 13
360.091847717
 23
31.3778792603
  0
SOLID
  8
0
 62
7
  6
CONTINUOUS
 10
360.2652852997
 20
31.3133521701
 11
360.091847717
 21
31.3778792603
 12
360.5543476894
 22
31.345614957
 13
360.5543476894
 23
31.345614957
  0
SOLID
  8
0
 62
7
  6
CONTINUOUS
 10
360.2652852997
 20
31.3133521701
 11
360.5543476894
 21
31.345614957
 12
360.3230977445
 22
31.2165606992
 13
360.3230977445
 23
31.2165606992
  0
SOLID
  8
0
 62
7
  6
CONTINUOUS
 10
360.5543476894
 20
31.345614957
 11
360.6121602997
 21
31.2165606992
 12
360.3230977445
 22
31.2165606992
 13
360.3230977445
 23
31.2165606992
  0
SOLID
  8
0
 62
7
  6
CONTINUOUS
 10
361.6527851343
 20
31.5069329918
 11
361.8840352445
 21
31.5391972951
 12
362.1152853548
 22
31.5391972951
 13
362.1152853548
 23
31.5391972951
  0
SOLID
  8
0
 62
7
  6
CONTINUOUS
 10
362.1152853548
 20
31.5391972951
 11
362.2887228548
 21
31.5069329918
 12
361.6527851343
 22
31.5069329918
 13
361.6527851343
 23
31.5069329918
  0
SOLID
  8
0
 62
7
  6
CONTINUOUS
 10
361.4793477997
 20
31.4424059016
 11
361.6527851343
 21
31.5069329918
 12
362.2887228548
 22
31.5069329918
 13
362.2887228548
 23
31.5069329918
  0
SOLID
  8
0
 62
7
  6
CONTINUOUS
 10
362.2887228548
 20
31.5069329918
 11
362.4621603548
 21
31.4424059016
 12
361.4793477997
 22
31.4424059016
 13
361.4793477997
 23
31.4424059016
  0
SOLID
  8
0
 62
7
  6
CONTINUOUS
 10
362.4621603548
 20
31.4424059016
 11
361.8840352445
 21
31.4101420472
 12
361.4793477997
 22
31.4424059016
 13
361.4793477997
 23
31.4424059016
  0
SOLID
  8
0
 62
7
  6
CONTINUOUS
 10
361.3637227445
 20
31.3778788115
 11
361.4793477997
 21
31.4424059016
 12
361.8840352445
 22
31.4101420472
 13
361.8840352445
 23
31.4101420472
  0
SOLID
  8
0
 62
7
  6
CONTINUOUS
 10
361.8840352445
 20
31.4101420472
 11
361.6527851343
 21
31.3778788115
 12
361.3637227445
 22
31.3778788115
 13
361.3637227445
 23
31.3778788115
  0
SOLID
  8
0
 62
7
  6
CONTINUOUS
 10
361.8840352445
 20
31.4101420472
 11
362.4621603548
 21
31.4424059016
 12
362.1152853548
 22
31.3778788115
 13
362.1152853548
 23
31.3778788115
  0
SOLID
  8
0
 62
7
  6
CONTINUOUS
 10
362.4621603548
 20
31.4424059016
 11
362.5777852445
 21
31.3778788115
 12
362.1152853548
 22
31.3778788115
 13
362.1152853548
 23
31.3778788115
  0
SOLID
  8
0
 62
7
  6
CONTINUOUS
 10
362.2309102445
 20
31.345614957
 11
362.1152853548
 21
31.3778788115
 12
362.5777852445
 22
31.3778788115
 13
362.5777852445
 23
31.3778788115
  0
SOLID
  8
0
 62
7
  6
CONTINUOUS
 10
362.5777852445
 20
31.3778788115
 11
362.6355978548
 21
31.3133517213
 12
362.2309102445
 22
31.345614957
 13
362.2309102445
 23
31.345614957
  0
SOLID
  8
0
 62
7
  6
CONTINUOUS
 10
362.3465351343
 20
31.2810878668
 11
362.2309102445
 21
31.345614957
 12
362.6355978548
 22
31.3133517213
 13
362.6355978548
 23
31.3133517213
  0
SOLID
  8
0
 62
7
  6
CONTINUOUS
 10
362.3465351343
 20
31.2810878668
 11
362.6355978548
 21
31.3133517213
 12
362.4043477445
 22
31.1520332377
 13
362.4043477445
 23
31.1520332377
  0
SOLID
  8
0
 62
7
  6
CONTINUOUS
 10
362.6355978548
 20
31.3133517213
 11
362.6934101343
 21
31.1520332377
 12
362.4043477445
 22
31.1520332377
 13
362.4043477445
 23
31.1520332377
  0
SOLID
  8
0
 62
7
  6
CONTINUOUS
 10
361.6527851343
 20
31.3778788115
 11
361.4793477997
 21
31.3133517213
 12
361.3637227445
 22
31.3778788115
 13
361.3637227445
 23
31.3778788115
  0
SOLID
  8
0
 62
7
  6
CONTINUOUS
 10
361.4793477997
 20
31.3133517213
 11
361.3637227445
 21
31.2488235635
 12
361.3637227445
 22
31.3778788115
 13
361.3637227445
 23
31.3778788115
  0
SOLID
  8
0
 62
7
  6
CONTINUOUS
 10
361.3637227445
 20
31.2488235635
 11
361.0746601894
 21
30.5067593033
 12
361.3637227445
 22
31.3778788115
 13
361.3637227445
 23
31.3778788115
  0
SOLID
  8
0
 62
7
  6
CONTINUOUS
 10
361.3637227445
 20
31.3778788115
 11
361.0746601894
 21
30.5067593033
 12
361.3637227445
 22
32.0231527459
 13
361.3637227445
 23
32.0231527459
  0
SOLID
  8
0
 62
7
  6
CONTINUOUS
 10
361.0746601894
 20
30.5067593033
 11
361.0746601894
 21
32.0231527459
 12
361.3637227445
 22
32.0231527459
 13
361.3637227445
 23
32.0231527459
  0
SOLID
  8
0
 62
7
  6
CONTINUOUS
 10
361.3637227445
 20
31.2488235635
 11
361.3637227445
 21
30.5067593033
 12
361.0746601894
 22
30.5067593033
 13
361.0746601894
 23
30.5067593033
  0
SOLID
  8
0
 62
7
  6
CONTINUOUS
 10
362.4043477445
 20
30.5067593033
 11
362.4043477445
 21
31.1520332377
 12
362.6934101343
 22
31.1520332377
 13
362.6934101343
 23
31.1520332377
  0
SOLID
  8
0
 62
7
  6
CONTINUOUS
 10
362.6934101343
 20
31.1520332377
 11
362.6934101343
 21
30.5067593033
 12
362.4043477445
 22
30.5067593033
 13
362.4043477445
 23
30.5067593033
  0
SOLID
  8
0
 62
7
  6
CONTINUOUS
 10
363.4449727445
 20
31.506933758
 11
363.8496603548
 21
31.5391977507
 12
364.1965353548
 22
31.5391977507
 13
364.1965353548
 23
31.5391977507
  0
SOLID
  8
0
 62
7
  6
CONTINUOUS
 10
364.1965353548
 20
31.5391977507
 11
364.543410024
 21
31.506933758
 12
363.4449727445
 22
31.506933758
 13
363.4449727445
 23
31.506933758
  0
SOLID
  8
0
 62
7
  6
CONTINUOUS
 10
363.3293478548
 20
31.4746706537
 11
363.4449727445
 21
31.506933758
 12
364.543410024
 22
31.506933758
 13
364.543410024
 23
31.506933758
  0
SOLID
  8
0
 62
7
  6
CONTINUOUS
 10
364.543410024
 20
31.506933758
 11
364.716847524
 21
31.4424063504
 12
363.3293478548
 22
31.4746706537
 13
363.3293478548
 23
31.4746706537
  0
SOLID
  8
0
 62
7
  6
CONTINUOUS
 10
363.2137226343
 20
31.4101417797
 11
363.3293478548
 21
31.4746706537
 12
364.716847524
 22
31.4424063504
 13
364.716847524
 23
31.4424063504
  0
SOLID
  8
0
 62
7
  6
CONTINUOUS
 10
363.2137226343
 20
31.4101417797
 11
364.716847524
 21
31.4424063504
 12
363.8496603548
 22
31.4101417797
 13
363.8496603548
 23
31.4101417797
  0
SOLID
  8
0
 62
7
  6
CONTINUOUS
 10
363.8496603548
 20
31.4101417797
 11
364.716847524
 21
31.4424063504
 12
364.1965353548
 22
31.4101417797
 13
364.1965353548
 23
31.4101417797
  0
SOLID
  8
0
 62
7
  6
CONTINUOUS
 10
364.1965353548
 20
31.4101417797
 11
364.716847524
 21
31.4424063504
 12
364.4277854651
 22
31.3778793357
 13
364.4277854651
 23
31.3778793357
  0
SOLID
  8
0
 62
7
  6
CONTINUOUS
 10
364.716847524
 20
31.4424063504
 11
364.8324727445
 21
31.3778793357
 12
364.4277854651
 22
31.3778793357
 13
364.4277854651
 23
31.3778793357
  0
SOLID
  8
0
 62
7
  6
CONTINUOUS
 10
363.1559103548
 20
31.3456153429
 11
363.2137226343
 21
31.4101417797
 12
363.8496603548
 22
31.4101417797
 13
363.8496603548
 23
31.4101417797
  0
SOLID
  8
0
 62
7
  6
CONTINUOUS
 10
364.543410024
 20
31.3456153429
 11
364.4277854651
 21
31.3778793357
 12
364.8324727445
 22
31.3778793357
 13
364.8324727445
 23
31.3778793357
  0
SOLID
  8
0
 62
7
  6
CONTINUOUS
 10
364.543410024
 20
31.3456153429
 11
364.8324727445
 21
31.3778793357
 12
364.6012229651
 22
31.2810881318
 13
364.6012229651
 23
31.2810881318
  0
SOLID
  8
0
 62
7
  6
CONTINUOUS
 10
364.8324727445
 20
31.3778793357
 11
364.890285024
 21
31.2810881318
 12
364.6012229651
 22
31.2810881318
 13
364.6012229651
 23
31.2810881318
  0
SOLID
  8
0
 62
7
  6
CONTINUOUS
 10
364.6012229651
 20
31.1842964734
 11
364.6012229651
 21
31.2810881318
 12
364.890285024
 22
31.2810881318
 13
364.890285024
 23
31.2810881318
  0
SOLID
  8
0
 62
7
  6
CONTINUOUS
 10
364.6012229651
 20
31.1842964734
 11
364.890285024
 21
31.2810881318
 12
364.6012229651
 22
31.0552422931
 13
364.6012229651
 23
31.0552422931
  0
SOLID
  8
0
 62
7
  6
CONTINUOUS
 10
364.6012229651
 20
31.0552422931
 11
364.890285024
 21
31.2810881318
 12
364.6012229651
 22
30.8616599362
 13
364.6012229651
 23
30.8616599362
  0
SOLID
  8
0
 62
7
  6
CONTINUOUS
 10
364.890285024
 20
31.2810881318
 11
364.890285024
 21
30.7648681127
 12
364.6012229651
 22
30.8616599362
 13
364.6012229651
 23
30.8616599362
  0
SOLID
  8
0
 62
7
  6
CONTINUOUS
 10
366.798097524
 20
31.5069339419
 11
367.0293479651
 21
31.5391976292
 12
367.2605977445
 22
31.5391976292
 13
367.2605977445
 23
31.5391976292
  0
SOLID
  8
0
 62
7
  6
CONTINUOUS
 10
367.2605977445
 20
31.5391976292
 11
367.4340352445
 21
31.5069339419
 12
366.798097524
 22
31.5069339419
 13
366.798097524
 23
31.5069339419
  0
SOLID
  8
0
 62
7
  6
CONTINUOUS
 10
366.624660024
 20
31.4424065674
 11
366.798097524
 21
31.5069339419
 12
367.4340352445
 22
31.5069339419
 13
367.4340352445
 23
31.5069339419
  0
SOLID
  8
0
 62
7
  6
CONTINUOUS
 10
367.4340352445
 20
31.5069339419
 11
367.6074727445
 21
31.4424065674
 12
366.624660024
 22
31.4424065674
 13
366.624660024
 23
31.4424065674
  0
SOLID
  8
0
 62
7
  6
CONTINUOUS
 10
367.6074727445
 20
31.4424065674
 11
367.0293479651
 21
31.4101420472
 12
366.624660024
 22
31.4424065674
 13
366.624660024
 23
31.4424065674
  0
SOLID
  8
0
 62
7
  6
CONTINUOUS
 10
366.5090354651
 20
31.377879193
 11
366.624660024
 21
31.4424065674
 12
367.0293479651
 22
31.4101420472
 13
367.0293479651
 23
31.4101420472
  0
SOLID
  8
0
 62
7
  6
CONTINUOUS
 10
367.0293479651
 20
31.4101420472
 11
366.798097524
 21
31.377879193
 12
366.5090354651
 22
31.377879193
 13
366.5090354651
 23
31.377879193
  0
SOLID
  8
0
 62
7
  6
CONTINUOUS
 10
367.0293479651
 20
31.4101420472
 11
367.6074727445
 21
31.4424065674
 12
367.2605977445
 22
31.377879193
 13
367.2605977445
 23
31.377879193
  0
SOLID
  8
0
 62
7
  6
CONTINUOUS
 10
367.6074727445
 20
31.4424065674
 11
367.7230979651
 21
31.377879193
 12
367.2605977445
 22
31.377879193
 13
367.2605977445
 23
31.377879193
  0
SOLID
  8
0
 62
7
  6
CONTINUOUS
 10
367.3762229651
 20
31.345614957
 11
367.2605977445
 21
31.377879193
 12
367.7230979651
 22
31.377879193
 13
367.7230979651
 23
31.377879193
  0
SOLID
  8
0
 62
7
  6
CONTINUOUS
 10
367.3762229651
 20
31.345614957
 11
367.7230979651
 21
31.377879193
 12
367.491847524
 22
31.2810881312
 13
367.491847524
 23
31.2810881312
  0
SOLID
  8
0
 62
7
  6
CONTINUOUS
 10
367.7230979651
 20
31.377879193
 11
367.7809102445
 21
31.2810881312
 12
367.491847524
 22
31.2810881312
 13
367.491847524
 23
31.2810881312
  0
SOLID
  8
0
 62
7
  6
CONTINUOUS
 10
367.5496604651
 20
31.119769695
 11
367.491847524
 21
31.2810881312
 12
367.7809102445
 22
31.2810881312
 13
367.7809102445
 23
31.2810881312
  0
SOLID
  8
0
 62
7
  6
CONTINUOUS
 10
367.7809102445
 20
31.2810881312
 11
367.838722524
 21
31.119769695
 12
367.5496604651
 22
31.119769695
 13
367.5496604651
 23
31.119769695
  0
SOLID
  8
0
 62
7
  6
CONTINUOUS
 10
366.798097524
 20
31.377879193
 11
366.624660024
 21
31.3133521701
 12
366.5090354651
 22
31.377879193
 13
366.5090354651
 23
31.377879193
  0
SOLID
  8
0
 62
7
  6
CONTINUOUS
 10
366.624660024
 20
31.3133521701
 11
366.5090354651
 21
31.2488235635
 12
366.5090354651
 22
31.377879193
 13
366.5090354651
 23
31.377879193
  0
SOLID
  8
0
 62
7
  6
CONTINUOUS
 10
366.5090354651
 20
31.2488235635
 11
366.2199727445
 21
30.5067596374
 12
366.5090354651
 22
31.377879193
 13
366.5090354651
 23
31.377879193
  0
SOLID
  8
0
 62
7
  6
CONTINUOUS
 10
366.5090354651
 20
31.377879193
 11
366.2199727445
 21
30.5067596374
 12
366.5090354651
 22
31.5391976292
 13
366.5090354651
 23
31.5391976292
  0
SOLID
  8
0
 62
7
  6
CONTINUOUS
 10
366.2199727445
 20
30.5067596374
 11
366.2199727445
 21
31.5391976292
 12
366.5090354651
 22
31.5391976292
 13
366.5090354651
 23
31.5391976292
  0
SOLID
  8
0
 62
7
  6
CONTINUOUS
 10
366.5090354651
 20
31.2488235635
 11
366.5090354651
 21
30.5067596374
 12
366.2199727445
 22
30.5067596374
 13
366.2199727445
 23
30.5067596374
  0
SOLID
  8
0
 62
7
  6
CONTINUOUS
 10
367.5496604651
 20
30.5067596374
 11
367.5496604651
 21
31.119769695
 12
367.838722524
 22
31.119769695
 13
367.838722524
 23
31.119769695
  0
SOLID
  8
0
 62
7
  6
CONTINUOUS
 10
367.838722524
 20
31.119769695
 11
367.838722524
 21
30.5067596374
 12
367.5496604651
 22
30.5067596374
 13
367.5496604651
 23
30.5067596374
  0
SOLID
  8
0
 62
7
  6
CONTINUOUS
 10
368.6480977445
 20
31.5069334157
 11
368.9949727445
 21
31.539197762
 12
369.3418477445
 22
31.539197762
 13
369.3418477445
 23
31.539197762
  0
SOLID
  8
0
 62
7
  6
CONTINUOUS
 10
369.3418477445
 20
31.539197762
 11
369.6887227445
 21
31.5069334157
 12
368.6480977445
 22
31.5069334157
 13
368.6480977445
 23
31.5069334157
  0
SOLID
  8
0
 62
7
  6
CONTINUOUS
 10
368.4168479651
 20
31.4424063504
 11
368.6480977445
 21
31.5069334157
 12
369.6887227445
 22
31.5069334157
 13
369.6887227445
 23
31.5069334157
  0
SOLID
  8
0
 62
7
  6
CONTINUOUS
 10
368.4168479651
 20
31.4424063504
 11
369.6887227445
 21
31.5069334406
 12
369.8621602445
 22
31.4746706537
 13
369.8621602445
 23
31.4746706537
  0
SOLID
  8
0
 62
7
  6
CONTINUOUS
 10
368.4168479651
 20
31.4424063504
 11
369.8621602445
 21
31.4746706537
 12
368.9949727445
 22
31.4101421267
 13
368.9949727445
 23
31.4101421267
  0
SOLID
  8
0
 62
7
  6
CONTINUOUS
 10
368.9949727445
 20
31.4101421267
 11
369.8621602445
 21
31.4746706537
 12
369.3418477445
 22
31.4101421267
 13
369.3418477445
 23
31.4101421267
  0
SOLID
  8
0
 62
7
  6
CONTINUOUS
 10
369.8621602445
 20
31.4746706537
 11
370.0355977445
 21
31.4101421267
 12
369.3418477445
 22
31.4101421267
 13
369.3418477445
 23
31.4101421267
  0
SOLID
  8
0
 62
7
  6
CONTINUOUS
 10
369.6887227445
 20
31.3778792603
 11
369.3418477445
 21
31.4101421267
 12
370.0355977445
 22
31.4101421267
 13
370.0355977445
 23
31.4101421267
  0
SOLID
  8
0
 62
7
  6
CONTINUOUS
 10
368.3012227445
 20
31.3456148845
 11
368.4168479651
 21
31.4424063504
 12
368.9949727445
 22
31.4101421267
 13
368.9949727445
 23
31.4101421267
  0
SOLID
  8
0
 62
7
  6
CONTINUOUS
 10
369.6887227445
 20
31.3778792603
 11
370.0355977445
 21
31.4101421267
 12
369.8043479651
 22
31.3456148845
 13
369.8043479651
 23
31.3456148845
  0
SOLID
  8
0
 62
7
  6
CONTINUOUS
 10
369.8043479651
 20
31.3456148845
 11
370.0355977445
 21
31.4101421267
 12
369.8621602445
 22
31.281087868
 13
369.8621602445
 23
31.281087868
  0
SOLID
  8
0
 62
7
  6
CONTINUOUS
 10
370.0355977445
 20
31.4101421267
 11
370.1512223035
 21
31.281087868
 12
369.8621602445
 22
31.281087868
 13
369.8621602445
 23
31.281087868
  0
SOLID
  8
0
 62
7
  6
CONTINUOUS
 10
359.4559102445
 20
31.3778792603
 11
358.9355977445
 21
31.3456148963
 12
359.6871602721
 22
31.4101421155
 13
359.6871602721
 23
31.4101421155
  0
SOLID
  8
0
 62
7
  6
CONTINUOUS
 10
358.9355977445
 20
31.3456148963
 11
359.0512227376
 21
31.4101421155
 12
359.6871602721
 22
31.4101421155
 13
359.6871602721
 23
31.4101421155
  0
SOLID
  8
0
 62
7
  6
CONTINUOUS
 10
359.4559102445
 20
31.3778792603
 11
359.3402852307
 21
31.3456148963
 12
358.9355977445
 22
31.3456148963
 13
358.9355977445
 23
31.3456148963
  0
SOLID
  8
0
 62
7
  6
CONTINUOUS
 10
358.8199727462
 20
31.2165607767
 11
358.9355977445
 21
31.3456148963
 12
359.3402852307
 22
31.3456148963
 13
359.3402852307
 23
31.3456148963
  0
SOLID
  8
0
 62
7
  6
CONTINUOUS
 10
363.1559103548
 20
31.3456149608
 11
363.8496603548
 21
31.4101420472
 12
363.6184102445
 22
31.3778792603
 13
363.6184102445
 23
31.3778792603
  0
SOLID
  8
0
 62
7
  6
CONTINUOUS
 10
363.6184102445
 20
31.3778792603
 11
363.5027853548
 21
31.3456149608
 12
363.1559103548
 22
31.3456149608
 13
363.1559103548
 23
31.3456149608
  0
SOLID
  8
0
 62
7
  6
CONTINUOUS
 10
363.1559103548
 20
31.2810878707
 11
363.1559103548
 21
31.3456149608
 12
363.5027853548
 22
31.3456149608
 13
363.5027853548
 23
31.3456149608
  0
SOLID
  8
0
 62
7
  6
CONTINUOUS
 10
363.5027853548
 20
31.3456149608
 11
363.4449727445
 21
31.2810878707
 12
363.1559103548
 22
31.2810878707
 13
363.1559103548
 23
31.2810878707
  0
SOLID
  8
0
 62
7
  6
CONTINUOUS
 10
368.3012227445
 20
31.3456149608
 11
368.9949727445
 21
31.4101420472
 12
368.7637229651
 22
31.3778792603
 13
368.7637229651
 23
31.3778792603
  0
SOLID
  8
0
 62
7
  6
CONTINUOUS
 10
368.7637229651
 20
31.3778792603
 11
368.6480977445
 21
31.3456149608
 12
368.3012227445
 22
31.3456149608
 13
368.3012227445
 23
31.3456149608
  0
SOLID
  8
0
 62
7
  6
CONTINUOUS
 10
368.3012227445
 20
31.2810878707
 11
368.3012227445
 21
31.3456149608
 12
368.6480977445
 22
31.3456149608
 13
368.6480977445
 23
31.3456149608
  0
SOLID
  8
0
 62
7
  6
CONTINUOUS
 10
368.6480977445
 20
31.3456149608
 11
368.5902854651
 21
31.2810878707
 12
368.3012227445
 22
31.2810878707
 13
368.3012227445
 23
31.2810878707
  0
SOLID
  8
0
 62
7
  6
CONTINUOUS
 10
368.4168479651
 20
31.1520336865
 11
368.3012227445
 21
31.2810878707
 12
368.5902854651
 22
31.2810878707
 13
368.5902854651
 23
31.2810878707
  0
SOLID
  8
0
 62
7
  6
CONTINUOUS
 10
358.8199727462
 20
31.2165607767
 11
359.3402852307
 21
31.345614957
 12
359.1668477307
 22
31.2488235635
 13
359.1668477307
 23
31.2488235635
  0
SOLID
  8
0
 62
7
  6
CONTINUOUS
 10
359.1668477307
 20
31.2488235635
 11
359.1090352445
 21
31.1842964734
 12
358.8199727462
 22
31.2165607767
 13
358.8199727462
 23
31.2165607767
  0
SOLID
  8
0
 62
7
  6
CONTINUOUS
 10
358.7621602445
 20
31.0229779898
 11
358.8199727462
 21
31.2165607767
 12
359.1090352445
 22
31.1842964734
 13
359.1090352445
 23
31.1842964734
  0
SOLID
  8
0
 62
7
  6
CONTINUOUS
 10
363.6184102445
 20
31.1520336865
 11
363.9652852445
 21
31.1842964611
 12
364.6012229651
 22
31.1842964611
 13
364.6012229651
 23
31.1842964611
  0
SOLID
  8
0
 62
7
  6
CONTINUOUS
 10
363.6184102445
 20
31.1520336865
 11
364.6012229651
 21
31.1842964611
 12
363.3871601343
 22
31.0875057863
 13
363.3871601343
 23
31.0875057863
  0
SOLID
  8
0
 62
7
  6
CONTINUOUS
 10
363.3871601343
 20
31.0875057863
 11
364.6012229651
 21
31.1842964611
 12
363.9652852445
 22
31.0552422808
 13
363.9652852445
 23
31.0552422808
  0
SOLID
  8
0
 62
7
  6
CONTINUOUS
 10
364.6012229651
 20
31.1842964611
 11
364.6012229651
 21
31.0552422808
 12
363.9652852445
 22
31.0552422808
 13
363.9652852445
 23
31.0552422808
  0
SOLID
  8
0
 62
7
  6
CONTINUOUS
 10
368.4168479651
 20
31.1520338754
 11
368.5902854651
 21
31.2810878668
 12
368.6480977445
 22
31.2165607767
 13
368.6480977445
 23
31.2165607767
  0
SOLID
  8
0
 62
7
  6
CONTINUOUS
 10
368.6480977445
 20
31.2165607767
 11
368.8215352445
 21
31.1520338754
 12
368.4168479651
 22
31.1520338754
 13
368.4168479651
 23
31.1520338754
  0
SOLID
  8
0
 62
7
  6
CONTINUOUS
 10
368.6480977445
 20
31.0552422931
 11
368.4168479651
 21
31.1520338754
 12
368.8215352445
 22
31.1520338754
 13
368.8215352445
 23
31.1520338754
  0
SOLID
  8
0
 62
7
  6
CONTINUOUS
 10
368.8215352445
 20
31.1520338754
 11
369.8043479651
 21
30.9907152029
 12
368.6480977445
 22
31.0552422931
 13
368.6480977445
 23
31.0552422931
  0
SOLID
  8
0
 62
7
  6
CONTINUOUS
 10
369.6309104651
 20
30.8939239876
 11
368.6480977445
 21
31.0552422931
 12
369.8043479651
 22
30.9907152029
 13
369.8043479651
 23
30.9907152029
  0
SOLID
  8
0
 62
7
  6
CONTINUOUS
 10
369.8043479651
 20
30.9907152029
 11
370.0355977445
 21
30.8939239876
 12
369.6309104651
 22
30.8939239876
 13
369.6309104651
 23
30.8939239876
  0
SOLID
  8
0
 62
7
  6
CONTINUOUS
 10
369.8043479651
 20
30.8293967193
 11
369.6309104651
 21
30.8939239876
 12
370.0355977445
 22
30.8939239876
 13
370.0355977445
 23
30.8939239876
  0
SOLID
  8
0
 62
7
  6
CONTINUOUS
 10
369.8043479651
 20
30.8293967193
 11
370.0355977445
 21
30.8939239876
 12
369.8621602445
 22
30.7648682694
 13
369.8621602445
 23
30.7648682694
  0
SOLID
  8
0
 62
7
  6
CONTINUOUS
 10
370.0355977445
 20
30.8939239876
 11
370.1512223035
 21
30.7648682694
 12
369.8621602445
 22
30.7648682694
 13
369.8621602445
 23
30.7648682694
  0
SOLID
  8
0
 62
7
  6
CONTINUOUS
 10
369.8043479651
 20
30.7003411846
 11
369.8621602445
 21
30.7648682694
 12
370.1512223035
 22
30.7648682694
 13
370.1512223035
 23
30.7648682694
  0
SOLID
  8
0
 62
7
  6
CONTINUOUS
 10
370.1512223035
 20
30.7648682694
 11
370.1512223035
 21
30.7003411846
 12
369.8043479651
 22
30.7003411846
 13
369.8043479651
 23
30.7003411846
  0
SOLID
  8
0
 62
7
  6
CONTINUOUS
 10
369.6887227445
 20
30.6680782357
 11
369.8043479651
 21
30.7003411846
 12
370.1512223035
 22
30.7003411846
 13
370.1512223035
 23
30.7003411846
  0
SOLID
  8
0
 62
7
  6
CONTINUOUS
 10
369.6887227445
 20
30.6680782357
 11
370.1512223035
 21
30.7003411846
 12
369.4574729651
 22
30.6358140998
 13
369.4574729651
 23
30.6358140998
  0
SOLID
  8
0
 62
7
  6
CONTINUOUS
 10
370.1512223035
 20
30.7003411846
 11
370.0355977445
 21
30.6035511455
 12
369.4574729651
 22
30.6358140998
 13
369.4574729651
 23
30.6358140998
  0
SOLID
  8
0
 62
7
  6
CONTINUOUS
 10
370.0355977445
 20
30.6035511455
 11
368.5902854651
 21
30.5712868422
 12
369.4574729651
 22
30.6358140998
 13
369.4574729651
 23
30.6358140998
  0
SOLID
  8
0
 62
7
  6
CONTINUOUS
 10
369.4574729651
 20
30.6358140998
 11
368.5902854651
 21
30.5712868422
 12
369.1105979651
 22
30.6358140998
 13
369.1105979651
 23
30.6358140998
  0
SOLID
  8
0
 62
7
  6
CONTINUOUS
 10
368.5902854651
 20
30.5712868422
 11
368.4168479651
 21
30.6358140998
 12
369.1105979651
 22
30.6358140998
 13
369.1105979651
 23
30.6358140998
  0
SOLID
  8
0
 62
7
  6
CONTINUOUS
 10
368.5902854651
 20
30.5712868422
 11
370.0355977445
 21
30.6035511455
 12
368.7637229651
 22
30.5390223111
 13
368.7637229651
 23
30.5390223111
  0
SOLID
  8
0
 62
7
  6
CONTINUOUS
 10
370.0355977445
 20
30.6035511455
 11
369.8043479651
 21
30.5390223111
 12
368.7637229651
 22
30.5390223111
 13
368.7637229651
 23
30.5390223111
  0
SOLID
  8
0
 62
7
  6
CONTINUOUS
 10
369.1105979651
 20
30.5067599302
 11
368.7637229651
 21
30.5390223111
 12
369.8043479651
 22
30.5390223111
 13
369.8043479651
 23
30.5390223111
  0
SOLID
  8
0
 62
7
  6
CONTINUOUS
 10
369.8043479651
 20
30.5390223111
 11
369.4574729651
 21
30.5067599302
 12
369.1105979651
 22
30.5067599302
 13
369.1105979651
 23
30.5067599302
  0
SOLID
  8
0
 62
7
  6
CONTINUOUS
 10
358.7621602445
 20
31.0229779898
 11
359.1090352445
 21
31.1842964734
 12
359.0512227376
 22
31.0552422931
 13
359.0512227376
 23
31.0552422931
  0
SOLID
  8
0
 62
7
  6
CONTINUOUS
 10
359.0512227376
 20
31.0552422931
 11
359.0512227376
 21
30.9584509954
 12
358.7621602445
 22
31.0229779898
 13
358.7621602445
 23
31.0229779898
  0
SOLID
  8
0
 62
7
  6
CONTINUOUS
 10
358.8199727462
 20
30.8293967193
 11
358.7621602445
 21
31.0229779898
 12
359.0512227376
 22
30.9584509954
 13
359.0512227376
 23
30.9584509954
  0
SOLID
  8
0
 62
7
  6
CONTINUOUS
 10
359.0512227376
 20
30.9584509954
 11
359.1668477307
 21
30.797132416
 12
358.8199727462
 22
30.8293967193
 13
358.8199727462
 23
30.8293967193
  0
SOLID
  8
0
 62
7
  6
CONTINUOUS
 10
358.9355977445
 20
30.7003413087
 11
358.8199727462
 21
30.8293967193
 12
359.1668477307
 22
30.797132416
 13
359.1668477307
 23
30.797132416
  0
SOLID
  8
0
 62
7
  6
CONTINUOUS
 10
359.1668477307
 20
30.797132416
 11
359.3402852307
 21
30.7003413087
 12
358.9355977445
 22
30.7003413087
 13
358.9355977445
 23
30.7003413087
  0
SOLID
  8
0
 62
7
  6
CONTINUOUS
 10
359.0512227376
 20
30.6358140759
 11
358.9355977445
 21
30.7003413087
 12
359.3402852307
 22
30.7003413087
 13
359.3402852307
 23
30.7003413087
  0
SOLID
  8
0
 62
7
  6
CONTINUOUS
 10
359.3402852307
 20
30.7003413087
 11
359.6871602721
 21
30.6358140759
 12
359.0512227376
 22
30.6358140759
 13
359.0512227376
 23
30.6358140759
  0
SOLID
  8
0
 62
7
  6
CONTINUOUS
 10
359.2246602583
 20
30.5712868422
 11
359.0512227376
 21
30.6358140759
 12
359.6871602721
 22
30.6358140759
 13
359.6871602721
 23
30.6358140759
  0
SOLID
  8
0
 62
7
  6
CONTINUOUS
 10
363.2715352445
 20
31.0229779808
 11
363.3871601343
 21
31.0875057863
 12
363.9652852445
 22
31.0552422931
 13
363.9652852445
 23
31.0552422931
  0
SOLID
  8
0
 62
7
  6
CONTINUOUS
 10
363.9652852445
 20
31.0552422931
 11
363.7340351343
 21
31.0229779808
 12
363.2715352445
 22
31.0229779808
 13
363.2715352445
 23
31.0229779808
  0
SOLID
  8
0
 62
7
  6
CONTINUOUS
 10
363.1559103548
 20
30.8939238094
 11
363.2715352445
 21
31.0229779808
 12
363.7340351343
 22
31.0229779808
 13
363.7340351343
 23
31.0229779808
  0
SOLID
  8
0
 62
7
  6
CONTINUOUS
 10
363.5027853548
 20
30.926187309
 11
363.1559103548
 21
30.8939238094
 12
363.6184102445
 22
30.9907152029
 13
363.6184102445
 23
30.9907152029
  0
SOLID
  8
0
 62
7
  6
CONTINUOUS
 10
363.1559103548
 20
30.8939238094
 11
363.7340351343
 21
31.0229779898
 12
363.6184102445
 22
30.9907152029
 13
363.6184102445
 23
30.9907152029
  0
SOLID
  8
0
 62
7
  6
CONTINUOUS
 10
363.5027853548
 20
30.926187309
 11
363.4449727445
 21
30.8293967193
 12
363.1559103548
 22
30.8939238094
 13
363.1559103548
 23
30.8939238094
  0
SOLID
  8
0
 62
7
  6
CONTINUOUS
 10
363.1559103548
 20
30.797132416
 11
363.1559103548
 21
30.8939238094
 12
363.4449727445
 22
30.8293967193
 13
363.4449727445
 23
30.8293967193
  0
SOLID
  8
0
 62
7
  6
CONTINUOUS
 10
363.4449727445
 20
30.8293967193
 11
363.4449727445
 21
30.7648681127
 12
363.1559103548
 22
30.797132416
 13
363.1559103548
 23
30.797132416
  0
SOLID
  8
0
 62
7
  6
CONTINUOUS
 10
363.2137226343
 20
30.6680782357
 11
363.1559103548
 21
30.797132416
 12
363.4449727445
 22
30.7648681127
 13
363.4449727445
 23
30.7648681127
  0
SOLID
  8
0
 62
7
  6
CONTINUOUS
 10
364.6012229651
 20
30.8616599362
 11
364.890285024
 21
30.7648681127
 12
364.543410024
 22
30.797132416
 13
364.543410024
 23
30.797132416
  0
SOLID
  8
0
 62
7
  6
CONTINUOUS
 10
364.369972524
 20
30.7003410226
 11
364.543410024
 21
30.797132416
 12
364.890285024
 22
30.7648681127
 13
364.890285024
 23
30.7648681127
  0
SOLID
  8
0
 62
7
  6
CONTINUOUS
 10
364.369972524
 20
30.7003410226
 11
364.890285024
 21
30.7648681127
 12
364.6012229651
 22
30.6680782357
 13
364.6012229651
 23
30.6680782357
  0
SOLID
  8
0
 62
7
  6
CONTINUOUS
 10
364.890285024
 20
30.7648681127
 11
364.9480979651
 21
30.6035511455
 12
364.6012229651
 22
30.6680782357
 13
364.6012229651
 23
30.6680782357
  0
SOLID
  8
0
 62
7
  6
CONTINUOUS
 10
364.6590352445
 20
30.5712868422
 11
364.6012229651
 21
30.6680782357
 12
364.9480979651
 22
30.6035511455
 13
364.9480979651
 23
30.6035511455
  0
SOLID
  8
0
 62
7
  6
CONTINUOUS
 10
364.6590352445
 20
30.5712868422
 11
364.9480979651
 21
30.6035511455
 12
364.716847524
 22
30.5067598731
 13
364.716847524
 23
30.5067598731
  0
SOLID
  8
0
 62
7
  6
CONTINUOUS
 10
364.9480979651
 20
30.6035511455
 11
365.0059102445
 21
30.5067598731
 12
364.716847524
 22
30.5067598731
 13
364.716847524
 23
30.5067598731
  0
SOLID
  8
0
 62
7
  6
CONTINUOUS
 10
360.2652852997
 20
30.7326051679
 11
360.3230977445
 21
30.8293966612
 12
360.6121602997
 22
30.8293966612
 13
360.6121602997
 23
30.8293966612
  0
SOLID
  8
0
 62
7
  6
CONTINUOUS
 10
360.6121602997
 20
30.8293966612
 11
360.5543476894
 21
30.7003410226
 12
360.2652852997
 22
30.7326051679
 13
360.2652852997
 23
30.7326051679
  0
SOLID
  8
0
 62
7
  6
CONTINUOUS
 10
360.091847717
 20
30.6680782357
 11
360.2652852997
 21
30.7326051679
 12
360.5543476894
 22
30.7003410226
 13
360.5543476894
 23
30.7003410226
  0
SOLID
  8
0
 62
7
  6
CONTINUOUS
 10
360.091847717
 20
30.6680782357
 11
360.5543476894
 21
30.7003410226
 12
359.6871602721
 22
30.6358139324
 13
359.6871602721
 23
30.6358139324
  0
SOLID
  8
0
 62
7
  6
CONTINUOUS
 10
360.5543476894
 20
30.7003410226
 11
360.3809101894
 21
30.6035511455
 12
359.6871602721
 22
30.6358139324
 13
359.6871602721
 23
30.6358139324
  0
SOLID
  8
0
 62
7
  6
CONTINUOUS
 10
359.2246602583
 20
30.5712868422
 11
359.6871602721
 21
30.6358139324
 12
360.3809101894
 22
30.6035511455
 13
360.3809101894
 23
30.6035511455
  0
SOLID
  8
0
 62
7
  6
CONTINUOUS
 10
359.2246602583
 20
30.5712868422
 11
360.3809101894
 21
30.6035511455
 12
359.3980977583
 22
30.5390224228
 13
359.3980977583
 23
30.5390224228
  0
SOLID
  8
0
 62
7
  6
CONTINUOUS
 10
360.3809101894
 20
30.6035511455
 11
360.1496602445
 21
30.5390224228
 12
359.3980977583
 22
30.5390224228
 13
359.3980977583
 23
30.5390224228
  0
SOLID
  8
0
 62
7
  6
CONTINUOUS
 10
359.744972717
 20
30.5067597521
 11
359.3980977583
 21
30.5390224228
 12
360.1496602445
 22
30.5390224228
 13
360.1496602445
 23
30.5390224228
  0
SOLID
  8
0
 62
7
  6
CONTINUOUS
 10
363.2137226343
 20
30.6680782357
 11
363.4449727445
 21
30.7648681127
 12
363.5027853548
 22
30.7003410226
 13
363.5027853548
 23
30.7003410226
  0
SOLID
  8
0
 62
7
  6
CONTINUOUS
 10
363.5027853548
 20
30.7003410226
 11
363.7340351343
 21
30.6358139324
 12
363.2137226343
 22
30.6680782357
 13
363.2137226343
 23
30.6680782357
  0
SOLID
  8
0
 62
7
  6
CONTINUOUS
 10
363.3871601343
 20
30.5712868422
 11
363.2137226343
 21
30.6680782357
 12
363.7340351343
 22
30.6358139324
 13
363.7340351343
 23
30.6358139324
  0
SOLID
  8
0
 62
7
  6
CONTINUOUS
 10
364.0809101343
 20
30.6358139363
 11
364.369972524
 21
30.7003410226
 12
364.6012229651
 22
30.6680782357
 13
364.6012229651
 23
30.6680782357
  0
SOLID
  8
0
 62
7
  6
CONTINUOUS
 10
364.6012229651
 20
30.6680782357
 11
364.543410024
 21
30.6035511455
 12
364.0809101343
 22
30.6358139363
 13
364.0809101343
 23
30.6358139363
  0
SOLID
  8
0
 62
7
  6
CONTINUOUS
 10
364.543410024
 20
30.6035511455
 11
363.3871601343
 21
30.5712868422
 12
364.0809101343
 22
30.6358139363
 13
364.0809101343
 23
30.6358139363
  0
SOLID
  8
0
 62
7
  6
CONTINUOUS
 10
363.3871601343
 20
30.5712868422
 11
363.7340351343
 21
30.6358139363
 12
364.0809101343
 22
30.6358139363
 13
364.0809101343
 23
30.6358139363
  0
SOLID
  8
0
 62
7
  6
CONTINUOUS
 10
363.3871601343
 20
30.5712868422
 11
364.543410024
 21
30.6035511455
 12
363.5027853548
 22
30.5390225267
 13
363.5027853548
 23
30.5390225267
  0
SOLID
  8
0
 62
7
  6
CONTINUOUS
 10
364.543410024
 20
30.6035511455
 11
364.369972524
 21
30.5390225267
 12
363.5027853548
 22
30.5390225267
 13
363.5027853548
 23
30.5390225267
  0
SOLID
  8
0
 62
7
  6
CONTINUOUS
 10
363.7340351343
 20
30.5067596914
 11
363.5027853548
 21
30.5390225267
 12
364.369972524
 22
30.5390225267
 13
364.369972524
 23
30.5390225267
  0
SOLID
  8
0
 62
7
  6
CONTINUOUS
 10
364.369972524
 20
30.5390225267
 11
364.0809101343
 21
30.5067596914
 12
363.7340351343
 22
30.5067596914
 13
363.7340351343
 23
30.5067596914
  0
SOLID
  8
0
 62
7
  6
CONTINUOUS
 10
368.7637229651
 20
30.6680782357
 11
368.4168479651
 21
30.6358138717
 12
368.6480977445
 22
30.7003410226
 13
368.6480977445
 23
30.7003410226
  0
SOLID
  8
0
 62
7
  6
CONTINUOUS
 10
368.6480977445
 20
30.7003410226
 11
368.4168479651
 21
30.6358138717
 12
368.5902854651
 22
30.7648680521
 13
368.5902854651
 23
30.7648680521
  0
SOLID
  8
0
 62
7
  6
CONTINUOUS
 10
368.4168479651
 20
30.6358138717
 11
368.3012227445
 21
30.7648680521
 12
368.5902854651
 22
30.7648680521
 13
368.5902854651
 23
30.7648680521
  0
SOLID
  8
0
 62
7
  6
CONTINUOUS
 10
368.7637229651
 20
30.6680782357
 11
369.1105979651
 21
30.6358138717
 12
368.4168479651
 22
30.6358138717
 13
368.4168479651
 23
30.6358138717
  0
SOLID
  8
0
 62
7
  6
CONTINUOUS
 10
365.4684104651
 20
30.5067597521
 11
365.4684104651
 21
31.5391977439
 12
365.757472524
 22
30.5067597521
 13
365.757472524
 23
31.5391977439
  0
ENDBLK
  8
0
  6
BYBLOCK
 62
0
  0
BLOCK
  8
0
 62
2
  6
CONTINUOUS
  2
SYMBOL_0_BL0
 70
64
 10
240.8592468615
 20
19.762288695
  0
TEXT
  8
0
 62
7
  6
CONTINUOUS
 10
227.1239507038
 20
19.1357028027
  7
TEXTSTYLE_3
 40
2.7338706658
  1
Ammeraal Beltech
 41
1.0
 51
15.0
 72
0
  0
TEXT
  8
0
 62
7
  6
CONTINUOUS
 10
237.9247515296
 20
16.8621661299
  7
TEXTSTYLE_4
 40
1.0935482663
  1
Innovation & Service in Belting
 41
1.0
 72
0
  0
LINE
  8
0
 62
7
  6
CONTINUOUS
 10
221.0994100525
 20
19.9022961113
 11
221.8775620458
 21
23.5632134089
  0
LINE
  8
0
 62
7
  6
CONTINUOUS
 10
231.9727303357
 20
27.2266073205
 11
222.3653797889
 21
24.1049898993
  0
LINE
  8
0
 62
7
  6
CONTINUOUS
 10
221.3246933848
 20
19.2089453082
 11
228.8317686459
 21
12.4495443822
  0
LINE
  8
0
 62
7
  6
CONTINUOUS
 10
221.5872277955
 20
20.4440726016
 11
232.3954971607
 21
23.9558922005
  0
LINE
  8
0
 62
7
  6
CONTINUOUS
 10
232.3912920235
 20
13.6061036368
 11
223.9458323548
 21
21.2104296785
  0
LINE
  8
0
 62
7
  6
CONTINUOUS
 10
232.9111147433
 20
26.3816822048
 11
231.9345552061
 21
21.7873308023
  0
LINE
  8
0
 62
7
  6
CONTINUOUS
 10
231.2347532584
 20
18.4950214885
 11
230.5483050469
 21
15.2655365641
  0
LINE
  8
0
 62
7
  6
CONTINUOUS
 10
233.5922108419
 20
13.9963058145
 11
234.5484423775
 21
18.4950214885
  0
LINE
  8
0
 62
7
  6
CONTINUOUS
 10
235.2482443252
 20
21.7873308023
 11
235.6924861276
 21
23.8773241617
  0
LINE
  8
0
 62
7
  6
CONTINUOUS
 10
229.5448697213
 20
12.2979700695
 11
233.1043930989
 21
13.4545293241
  0
LINE
  8
0
 62
7
  6
CONTINUOUS
 10
232.685831411
 20
27.0750330078
 11
235.4672027953
 21
24.5706749648
  0
ARC
  8
0
 62
7
  6
CONTINUOUS
 10
222.5906631212
 20
23.4116390962
 40
0.7290321776
 50
108.0
 51
168.0
  0
ARC
  8
0
 62
7
  6
CONTINUOUS
 10
232.198013668
 20
26.5332565175
 40
0.7290321776
 50
348.0
 51
108.0
  0
ARC
  8
0
 62
7
  6
CONTINUOUS
 10
234.9793850522
 20
24.0288984744
 40
0.7290321776
 50
348.0
 51
48.0
  0
ARC
  8
0
 62
7
  6
CONTINUOUS
 10
229.319586389
 20
12.9913208726
 40
0.7290321776
 50
228.0
 51
288.0
  0
ARC
  8
0
 62
7
  6
CONTINUOUS
 10
221.8125111278
 20
19.7507217986
 40
0.7290321776
 50
108.0
 51
228.0
  0
ARC
  8
0
 62
7
  6
CONTINUOUS
 10
232.8791097665
 20
14.1478801272
 40
0.7290321776
 50
228.0
 51
348.0
  0
ENDBLK
  8
0
  6
BYBLOCK
 62
0
  0
ENDSEC
  0
SECTION
  2
ENTITIES
  0
TEXT
  8
0
 62
5
  6
CONTINUOUS
 10
304.937007874
 20
25.636
  7
TEXTSTYLE_2
 40
2.8
  1
Scale :
 41
0.6
 51
0.000019
 72
0
  0
TEXT
  8
0
 62
5
  6
CONTINUOUS
 10
324.937007874
 20
25.636
  7
TEXTSTYLE_2
 40
2.8
  1
Belt type:
 41
0.6
 51
0.000019
 72
0
  0
INSERT
  8
0
 62
2
  6
CONTINUOUS
  2
SYMBOL_0_BL0
 10
240.8592468615
 20
19.762288695
  0
INSERT
  8
0
 62
2
  6
CONTINUOUS
  2
SYMBOL_5_BL1
 10
382.7840918555
 20
35.5067593403
  0
LINE
  8
0
 62
2
  6
CONTINUOUS
 10
218.937007874
 20
30.0
 11
408.937007874
 21
30.0
  0
LINE
  8
0
 62
2
  6
CONTINUOUS
 10
218.937007874
 20
30.0
 11
218.937007874
 21
10.0
  0
LINE
  8
0
 62
2
  6
CONTINUOUS
 10
218.937007874
 20
10.0
 11
408.937007874
 21
10.0
  0
LINE
  8
0
 62
2
  6
CONTINUOUS
 10
303.937007874
 20
30.0
 11
303.937007874
 21
10.0
  0
LINE
  8
0
 62
2
  6
CONTINUOUS
 10
323.937007874
 20
30.0
 11
323.937007874
 21
10.0
  0
LINE
  8
0
 62
2
  6
CONTINUOUS
 10
408.937007874
 20
30.0
 11
408.937007874
 21
10.0
  0
TEXT
  8
0
 62
5
  6
CONTINUOUS
 10
221.937007874
 20
23.303
  7
TEXTSTYLE_5
 40
1.52
  1
                                                                     Ammeraal Beltech Modular A/S
 41
1.0
 72
0
  0
TEXT
  8
0
 62
5
  6
CONTINUOUS
 10
221.937007874
 20
20.595
  7
TEXTSTYLE_5
 40
1.5
  1
                                                                      Hjulmagervej 21, 7100 Vejle,  DK
 41
1.0
 72
0
  0
TEXT
  8
0
 62
5
  6
CONTINUOUS
 10
221.937007874
 20
17.881
  7
TEXTSTYLE_5
 40
1.495
  1
                                                                      tel: 
 41
1.0
 72
0
  0
TEXT
  8
0
 62
5
  6
CONTINUOUS
 10
266.9239544389
 20
17.881
  7
TEXTSTYLE_5
 40
1.51
  1
+45 75723100     fax: +45 75723348
 41
1.0
 72
0
  0
TEXT
  8
0
 62
5
  6
CONTINUOUS
 10
221.937007874
 20
15.177
  7
TEXTSTYLE_5
 40
1.5
  1
                                                                      admin@unichains.dk  www.unichains.com
 41
1.0
 72
0
  0
TEXT
  8
0
 62
5
  6
CONTINUOUS
 10
308.687007874
 20
13.75
  7
TEXTSTYLE_6
 40
5.0
  1
1:1
 41
0.7
 72
1
 11
313.937007874
 21
13.75
  0
TEXT
  8
0
 62
5
  6
CONTINUOUS
 10
326.937007874
 20
13.75
  7
TEXTSTYLE_7
 40
7.5
  1
Sprocket Z16
 41
0.6361111111
 72
0
  0
LINE
  8
0
 62
7
  6
CONTINUOUS
 10
0.0
 20
0.0
 11
0.0
 21
297.0
  0
LINE
  8
0
 62
7
  6
CONTINUOUS
 10
8.937007874
 20
10.0
 11
8.937007874
 21
287.0
  0
LINE
  8
0
 62
7
  6
CONTINUOUS
 10
0.0
 20
0.0
 11
420.0
 21
0.0
  0
LINE
  8
0
 62
7
  6
CONTINUOUS
 10
408.937007874
 20
10.0
 11
8.937007874
 21
10.0
  0
LINE
  8
0
 62
7
  6
CONTINUOUS
 10
218.937007874
 20
30.0
 11
408.937007874
 21
30.0
  0
LINE
  8
0
 62
7
  6
CONTINUOUS
 10
210.0
 20
297.0
 11
210.0
 21
292.0
  0
LINE
  8
0
 62
7
  6
CONTINUOUS
 10
210.0
 20
0.0
 11
210.0
 21
5.0
  0
LINE
  8
0
 62
7
  6
CONTINUOUS
 10
8.937007874
 20
287.0
 11
408.937007874
 21
287.0
  0
LINE
  8
0
 62
7
  6
CONTINUOUS
 10
0.0
 20
297.0
 11
420.0
 21
297.0
  0
LINE
  8
0
 62
7
  6
CONTINUOUS
 10
408.937007874
 20
287.0
 11
408.937007874
 21
10.0
  0
LINE
  8
0
 62
7
  6
CONTINUOUS
 10
420.0
 20
0.0
 11
420.0
 21
297.0
  0
LINE
  8
0
 62
7
  6
CONTINUOUS
 10
27.9585086762
 20
174.0577365373
 11
27.7843590444
 21
171.8546576734
  0
LINE
  8
0
 62
7
  6
CONTINUOUS
 10
39.0033010576
 20
211.5816418888
 11
37.9993259958
 21
209.6129065968
  0
LINE
  8
0
 62
7
  6
CONTINUOUS
 10
63.5671355753
 20
242.0225509648
 11
61.8861811856
 21
240.5878813462
  0
LINE
  8
0
 62
7
  6
CONTINUOUS
 10
97.9103910957
 20
260.7461113058
 11
95.808367446
 21
260.0639228048
  0
LINE
  8
0
 62
7
  6
CONTINUOUS
 10
118.8026027184
 20
65.2116269253
 11
121.0056815823
 21
65.0374772936
  0
LINE
  8
0
 62
7
  6
CONTINUOUS
 10
81.2786973669
 20
76.2564193067
 11
83.2474326589
 21
75.252444245
  0
LINE
  8
0
 62
7
  6
CONTINUOUS
 10
50.8377882909
 20
100.8202538244
 11
52.2724579095
 21
99.1392994347
  0
LINE
  8
0
 62
7
  6
CONTINUOUS
 10
32.1142279499
 20
135.1635093448
 11
32.7964164509
 21
133.0614856951
  0
LINE
  8
0
 62
7
  6
CONTINUOUS
 10
42.5586105033
 20
165.7567287524
 11
42.5586105033
 21
163.3796031399
  0
LINE
  8
0
 62
7
  6
CONTINUOUS
 10
42.5586105033
 20
150.7338544012
 11
42.5586105033
 21
148.0567287524
  0
LINE
  8
0
 62
7
  6
CONTINUOUS
 10
43.0586105033
 20
162.0567287524
 11
43.0586105033
 21
152.0567287524
  0
LINE
  8
0
 62
7
  6
CONTINUOUS
 10
49.315378157
 20
198.3252936171
 11
48.4056910893
 21
196.1291147608
  0
LINE
  8
0
 62
7
  6
CONTINUOUS
 10
43.5663725466
 20
184.4459663023
 11
42.5418814042
 21
181.9726258917
  0
LINE
  8
0
 62
7
  6
CONTINUOUS
 10
48.3613892235
 20
194.7155976307
 11
44.5345548999
 21
185.4768023055
  0
LINE
  8
0
 62
7
  6
CONTINUOUS
 10
68.0212676879
 20
225.8290210615
 11
66.3403869442
 21
224.1481403178
  0
LINE
  8
0
 62
7
  6
CONTINUOUS
 10
57.3984904389
 20
215.2062438125
 11
55.5054776609
 21
213.3132310345
  0
LINE
  8
0
 62
7
  6
CONTINUOUS
 10
65.7585259881
 20
222.8591725805
 11
58.6874581762
 21
215.7881047686
  0
LINE
  8
0
 62
7
  6
CONTINUOUS
 10
95.8284769841
 20
244.080717904
 11
93.6323004412
 21
243.1710317946
  0
LINE
  8
0
 62
7
  6
CONTINUOUS
 10
81.9491520337
 20
238.331713273
 11
79.4758092586
 21
237.3072211511
  0
LINE
  8
0
 62
7
  6
CONTINUOUS
 10
92.60146443
 20
242.202849438
 11
83.3626691049
 21
238.3760151143
  0
LINE
  8
0
 62
7
  6
CONTINUOUS
 10
127.1036105033
 20
79.8117287524
 11
129.4807361158
 21
79.8117287524
  0
LINE
  8
0
 62
7
  6
CONTINUOUS
 10
142.1264848545
 20
79.8117287524
 11
144.8036105033
 21
79.8117287524
  0
LINE
  8
0
 62
7
  6
CONTINUOUS
 10
130.8036105033
 20
80.3117287524
 11
140.8036105033
 21
80.3117287524
  0
LINE
  8
0
 62
7
  6
CONTINUOUS
 10
94.5350456386
 20
86.5684964061
 11
96.7312244949
 21
85.6588093385
  0
LINE
  8
0
 62
7
  6
CONTINUOUS
 10
108.4143729534
 20
80.8194907957
 11
110.887713364
 21
79.7949996533
  0
LINE
  8
0
 62
7
  6
CONTINUOUS
 10
98.144741625
 20
85.6145074727
 11
107.3835369501
 21
81.787673149
  0
LINE
  8
0
 62
7
  6
CONTINUOUS
 10
67.0313181942
 20
105.274385937
 11
68.7121989379
 21
103.5935051933
  0
LINE
  8
0
 62
7
  6
CONTINUOUS
 10
77.6540954432
 20
94.651608688
 11
79.5471082212
 21
92.75859591
  0
LINE
  8
0
 62
7
  6
CONTINUOUS
 10
70.0011666752
 20
103.0116442372
 11
77.0722344871
 21
95.9405764253
  0
LINE
  8
0
 62
7
  6
CONTINUOUS
 10
48.7796213517
 20
133.0815952332
 11
49.6893074611
 21
130.8854186903
  0
LINE
  8
0
 62
7
  6
CONTINUOUS
 10
54.5286259827
 20
119.2022702828
 11
55.5531181046
 21
116.7289275078
  0
LINE
  8
0
 62
7
  6
CONTINUOUS
 10
50.6574898177
 20
129.8545826791
 11
54.4843241414
 21
120.615787354
  0
LINE
  8
0
 62
7
  6
CONTINUOUS
 10
61.7356798157
 20
202.6237160505
 11
55.9856798157
 21
192.664423907
  0
LINE
  8
0
 62
7
  6
CONTINUOUS
 10
87.7915657233
 20
232.4827141569
 11
87.487531537
 21
232.1785894692
  0
LINE
  8
0
 62
7
  6
CONTINUOUS
 10
87.7046932205
 20
231.8126411523
 11
88.0087274068
 21
232.11676584
  0
LINE
  8
0
 62
7
  6
CONTINUOUS
 10
68.8517052194
 20
212.9490335978
 11
59.3951000747
 21
203.975050394
  0
LINE
  8
0
 62
7
  6
CONTINUOUS
 10
85.5034662186
 20
231.0874168051
 11
85.0702059213
 21
230.7983614828
  0
LINE
  8
0
 62
7
  6
CONTINUOUS
 10
83.337165135
 20
229.6421404622
 11
82.9039049306
 21
229.3530852019
  0
LINE
  8
0
 62
7
  6
CONTINUOUS
 10
85.9434877304
 20
227.8001824672
 11
85.5968795174
 21
227.5689382258
  0
LINE
  8
0
 62
7
  6
CONTINUOUS
 10
85.8330438133
 20
227.2149554234
 11
86.1796520264
 21
227.4461996647
  0
LINE
  8
0
 62
7
  6
CONTINUOUS
 10
87.1328244573
 20
228.082121225
 11
87.5660847546
 21
228.3711765473
  0
LINE
  8
0
 62
7
  6
CONTINUOUS
 10
102.993107717
 20
238.8721333757
 11
103.3554133199
 21
239.1037877713
  0
LINE
  8
0
 62
7
  6
CONTINUOUS
 10
88.1498903304
 20
232.6953517655
 11
87.7915657233
 21
232.4827141569
  0
LINE
  8
0
 62
7
  6
CONTINUOUS
 10
86.9853357415
 20
232.0042797658
 11
86.5374301107
 21
231.7384828312
  0
LINE
  8
0
 62
7
  6
CONTINUOUS
 10
88.2747237312
 20
228.8108960399
 11
88.722629362
 21
229.0766929746
  0
LINE
  8
0
 62
7
  6
CONTINUOUS
 10
90.3350893254
 20
230.0335617568
 11
90.7829947
 21
230.2993585393
  0
LINE
  8
0
 62
7
  6
CONTINUOUS
 10
89.5697889536
 20
235.3293600287
 11
89.1131001371
 21
235.0789553979
  0
LINE
  8
0
 62
7
  6
CONTINUOUS
 10
89.3688325931
 20
234.6125496759
 11
89.8255214095
 21
234.8629543066
  0
LINE
  8
0
 62
7
  6
CONTINUOUS
 10
90.3369864647
 20
233.9301426012
 11
89.8802976482
 21
233.6797379704
  0
LINE
  8
0
 62
7
  6
CONTINUOUS
 10
91.5169855095
 20
230.6947410879
 11
91.9736743259
 21
230.9451457186
  0
LINE
  8
0
 62
7
  6
CONTINUOUS
 10
103.3209142585
 20
239.5405234375
 11
102.7607801825
 21
239.2435518021
  0
LINE
  8
0
 62
7
  6
CONTINUOUS
 10
104.8149494143
 20
237.0089581529
 11
104.1558999813
 21
236.6793274883
  0
LINE
  8
0
 62
7
  6
CONTINUOUS
 10
98.7278993405
 20
239.609519749
 11
95.2670818766
 21
238.1654828789
  0
LINE
  8
0
 62
7
  6
CONTINUOUS
 10
96.0896782678
 20
237.8170804478
 11
98.973692821
 21
239.0204445062
  0
LINE
  8
0
 62
7
  6
CONTINUOUS
 10
99.1217094696
 20
237.5836656913
 11
96.6222309236
 21
236.5407504801
  0
LINE
  8
0
 62
7
  6
CONTINUOUS
 10
96.8680244041
 20
235.9516752373
 11
99.3675029501
 21
236.9945904486
  0
LINE
  8
0
 62
7
  6
CONTINUOUS
 10
97.1924643701
 20
233.5510595938
 11
97.7692672807
 21
233.7917324055
  0
LINE
  8
0
 62
7
  6
CONTINUOUS
 10
116.4841457228
 20
243.5039708305
 11
116.8830597632
 21
243.6645843331
  0
LINE
  8
0
 62
7
  6
CONTINUOUS
 10
100.18744083
 20
240.1394497308
 11
99.6992110963
 21
239.9580675316
  0
LINE
  8
0
 62
7
  6
CONTINUOUS
 10
101.4404788801
 20
235.2710656642
 11
101.9287086138
 21
235.4524478634
  0
LINE
  8
0
 62
7
  6
CONTINUOUS
 10
116.7985486257
 20
244.2972627224
 11
116.296384187
 21
244.1228573649
  0
LINE
  8
0
 62
7
  6
CONTINUOUS
 10
104.7103021783
 20
238.6548803671
 11
102.6330952858
 21
237.9690467314
  0
LINE
  8
0
 62
7
  6
CONTINUOUS
 10
102.6675966579
 20
237.5323116711
 11
105.3382912339
 21
238.4140977741
  0
LINE
  8
0
 62
7
  6
CONTINUOUS
 10
105.5384128788
 20
237.8079827653
 11
105.0438382999
 21
237.6446885442
  0
LINE
  8
0
 62
7
  6
CONTINUOUS
 10
88.0087274068
 20
232.11676584
 11
88.4213424349
 21
232.2379163694
  0
LINE
  8
0
 62
7
  6
CONTINUOUS
 10
128.3036105033
 20
89.0567287524
 11
139.8036105033
 21
89.0567287524
  0
LINE
  8
0
 62
7
  6
CONTINUOUS
 10
115.8036105033
 20
90.0567287524
 11
128.3036105033
 21
86.3540600654
  0
LINE
  8
0
 62
7
  6
CONTINUOUS
 10
65.8083103642
 20
200.272381707
 11
68.8517052194
 21
212.9490335978
  0
LINE
  8
0
 62
7
  6
CONTINUOUS
 10
87.487531537
 20
232.1785894692
 11
87.3273693078
 21
231.8361373324
  0
LINE
  8
0
 62
7
  6
CONTINUOUS
 10
86.4672190415
 20
227.7659395239
 11
86.581482136
 21
227.9700573866
  0
LINE
  8
0
 62
7
  6
CONTINUOUS
 10
57.7177306232
 20
191.664423907
 11
63.4677306232
 21
201.6237160505
  0
LINE
  8
0
 62
7
  6
CONTINUOUS
 10
102.4973899482
 20
239.0445564002
 11
102.2673533213
 21
238.7445418303
  0
LINE
  8
0
 62
7
  6
CONTINUOUS
 10
86.23105473
 20
228.1199223496
 11
85.9434877304
 21
227.8001824672
  0
LINE
  8
0
 62
7
  6
CONTINUOUS
 10
86.1796520264
 20
227.4461996647
 11
86.4672190415
 21
227.7659395239
  0
LINE
  8
0
 62
7
  6
CONTINUOUS
 10
102.8286328513
 20
238.7057969676
 11
102.993107717
 21
238.8721333757
  0
LINE
  8
0
 62
7
  6
CONTINUOUS
 10
105.0472769693
 20
236.6375396646
 11
105.3762289559
 21
236.9702132548
  0
LINE
  8
0
 62
7
  6
CONTINUOUS
 10
116.2025672703
 20
243.2517027847
 11
116.4841457228
 21
243.5039708305
  0
LINE
  8
0
 62
7
  6
CONTINUOUS
 10
102.7607801825
 20
239.2435518021
 11
102.4973899482
 21
239.0445564002
  0
LINE
  8
0
 62
7
  6
CONTINUOUS
 10
116.296384187
 20
244.1228573649
 11
115.9115576994
 21
243.8567977798
  0
LINE
  8
0
 62
7
  6
CONTINUOUS
 10
118.7887107862
 20
239.6260203593
 11
119.1735396333
 21
239.8920802877
  0
LINE
  8
0
 62
7
  6
CONTINUOUS
 10
104.3882297915
 20
236.3079097741
 11
105.0472769693
 21
236.6375396646
  0
LINE
  8
0
 62
7
  6
CONTINUOUS
 10
118.6009516049
 20
240.2449072739
 11
118.2020375645
 21
240.0842937713
  0
LINE
  8
0
 62
7
  6
CONTINUOUS
 10
144.1603454228
 20
242.5027760496
 11
144.5117433976
 21
242.6422215772
  0
LINE
  8
0
 62
7
  6
CONTINUOUS
 10
144.1315137766
 20
241.4191218812
 11
143.428717827
 21
241.140230826
  0
LINE
  8
0
 62
7
  6
CONTINUOUS
 10
85.4273945883
 20
227.072206924
 11
85.8330438133
 21
227.2149554234
  0
LINE
  8
0
 62
7
  6
CONTINUOUS
 10
118.2865487119
 20
239.4516153081
 11
118.7887107862
 21
239.6260203593
  0
LINE
  8
0
 62
7
  6
CONTINUOUS
 10
144.5261615149
 20
243.1840479957
 11
143.9482348621
 21
242.9862455186
  0
LINE
  8
LAY0001
 62
7
  6
CONTINUOUS
 10
176.5693788398
 20
108.5606258258
 11
176.6470849832
 21
108.5826661229
  0
LINE
  8
LAY0001
 62
7
  6
CONTINUOUS
 10
176.7050817536
 20
108.7241616629
 11
176.6273758956
 21
108.7021216511
  0
LINE
  8
LAY0001
 62
7
  6
CONTINUOUS
 10
177.8162070639
 20
109.8074540499
 11
177.8939132074
 21
109.8294943471
  0
LINE
  8
LAY0001
 62
7
  6
CONTINUOUS
 10
178.7887330045
 20
110.7799799906
 11
178.8664390053
 21
110.802020145
  0
LINE
  8
LAY0001
 62
7
  6
CONTINUOUS
 10
178.9244359184
 20
110.9435158276
 11
178.8467299176
 21
110.9214756732
  0
LINE
  8
LAY0001
 62
7
  6
CONTINUOUS
 10
178.2082686795
 20
110.8118400339
 11
178.0917095997
 21
110.7787797383
  0
LINE
  8
LAY0001
 62
7
  6
CONTINUOUS
 10
179.647596257
 20
111.6666761663
 11
179.7641553295
 21
111.6997364692
  0
LINE
  8
LAY0001
 62
7
  6
CONTINUOUS
 10
179.8929347924
 20
112.4686732236
 11
180.0094938746
 21
112.5017335168
  0
LINE
  8
LAY0001
 62
7
  6
CONTINUOUS
 10
180.0674907245
 20
112.6432291557
 11
179.9897846743
 21
112.6211889616
  0
LINE
  8
0
 62
7
  6
CONTINUOUS
 10
139.8036105033
 20
91.0567287524
 11
128.3036105033
 21
91.0567287524
  0
LINE
  8
0
 62
7
  6
CONTINUOUS
 10
86.3729287212
 20
228.4703468957
 11
86.23105473
 21
228.1199223496
  0
LINE
  8
0
 62
7
  6
CONTINUOUS
 10
87.5445309913
 20
231.4701890156
 11
87.7046932205
 21
231.8126411523
  0
LINE
  8
0
 62
7
  6
CONTINUOUS
 10
115.9115576994
 20
243.8567977798
 11
115.5548992277
 21
243.3798450825
  0
LINE
  8
0
 62
7
  6
CONTINUOUS
 10
105.0449860411
 20
237.3089727228
 11
104.8149494143
 21
237.0089581529
  0
LINE
  8
0
 62
7
  6
CONTINUOUS
 10
118.8825300476
 20
240.4971753935
 11
118.6009516049
 21
240.2449072739
  0
LINE
  8
0
 62
7
  6
CONTINUOUS
 10
143.7656976845
 20
240.7378499351
 11
144.1170956593
 21
240.8772954627
  0
LINE
  8
0
 62
7
  6
CONTINUOUS
 10
145.3721660713
 20
238.8524929353
 11
145.0207680965
 21
238.7130474078
  0
LINE
  8
0
 62
7
  6
CONTINUOUS
 10
149.7396561796
 20
236.896654685
 11
150.2286356543
 21
237.087350508
  0
LINE
  8
0
 62
7
  6
CONTINUOUS
 10
145.0063499649
 20
238.1712209256
 11
145.5842766239
 21
238.36902343
  0
LINE
  8
0
 62
7
  6
CONTINUOUS
 10
154.1838990527
 20
235.3862775493
 11
154.6838345312
 21
235.5460597162
  0
LINE
  8
0
 62
7
  6
CONTINUOUS
 10
86.581482136
 20
227.9700573866
 11
86.6643149034
 21
228.4089775893
  0
LINE
  8
0
 62
7
  6
CONTINUOUS
 10
87.3273693078
 20
231.8361373324
 11
87.256787846
 21
231.5468443697
  0
LINE
  8
0
 62
7
  6
CONTINUOUS
 10
87.4739495295
 20
231.1808960529
 11
87.5445309913
 21
231.4701890156
  0
LINE
  8
0
 62
7
  6
CONTINUOUS
 10
108.6058747446
 20
241.0829552267
 11
107.8572823065
 21
239.4504183282
  0
LINE
  8
0
 62
7
  6
CONTINUOUS
 10
107.2739932814
 20
237.2013595413
 11
108.0225833781
 21
238.8338959663
  0
LINE
  8
0
 62
7
  6
CONTINUOUS
 10
107.6380938231
 20
239.0612284349
 11
106.6703152044
 21
237.0395022605
  0
LINE
  8
0
 62
7
  6
CONTINUOUS
 10
108.2417719001
 20
239.2230857157
 11
109.2095528216
 21
241.2448125076
  0
LINE
  8
0
 62
7
  6
CONTINUOUS
 10
102.2673533213
 20
238.7445418303
 11
102.1362297991
 21
238.4771855066
  0
LINE
  8
0
 62
7
  6
CONTINUOUS
 10
102.631949832
 20
238.3047632296
 11
102.8286328513
 21
238.7057969676
  0
LINE
  8
0
 62
7
  6
CONTINUOUS
 10
105.3762289559
 20
236.9702132548
 11
105.5729119636
 21
237.3712470283
  0
LINE
  8
0
 62
7
  6
CONTINUOUS
 10
119.1735396333
 20
239.8920802877
 11
119.5301981001
 21
240.3690330219
  0
LINE
  8
0
 62
7
  6
CONTINUOUS
 10
143.9482348621
 20
242.9862455186
 11
143.5504077493
 21
242.6391616588
  0
LINE
  8
0
 62
7
  6
CONTINUOUS
 10
141.7750074035
 20
243.8272820617
 11
141.0295595746
 21
243.203197154
  0
LINE
  8
0
 62
7
  6
CONTINUOUS
 10
140.8809276583
 20
242.3652123507
 11
141.6263755393
 21
242.989297552
  0
LINE
  8
0
 62
7
  6
CONTINUOUS
 10
136.036590408
 20
240.2597664601
 11
140.0120016569
 21
243.3938278012
  0
LINE
  8
0
 62
7
  6
CONTINUOUS
 10
139.5226762654
 20
243.6714949037
 11
135.4439563607
 21
240.5507634152
  0
LINE
  8
0
 62
7
  6
CONTINUOUS
 10
143.5159590909
 20
240.575672779
 11
143.7656976845
 21
240.7378499351
  0
LINE
  8
0
 62
7
  6
CONTINUOUS
 10
150.6976130108
 20
239.8311137458
 11
150.4383296061
 21
239.6846729797
  0
LINE
  8
0
 62
7
  6
CONTINUOUS
 10
150.0763749653
 20
237.6851852996
 11
149.8170915399
 21
237.538744462
  0
LINE
  8
0
 62
7
  6
CONTINUOUS
 10
155.3232697946
 20
238.2551737799
 11
155.0553460477
 21
238.1252136024
  0
LINE
  8
0
 62
7
  6
CONTINUOUS
 10
154.5692114829
 20
236.1522373406
 11
154.3012877108
 21
236.022277093
  0
LINE
  8
0
 62
7
  6
CONTINUOUS
 10
171.831199616
 20
231.3532586467
 11
171.3326722598
 21
231.1794654001
  0
LINE
  8
0
 62
7
  6
CONTINUOUS
 10
164.5225498723
 20
234.1006530894
 11
164.2401224001
 21
234.0062840372
  0
LINE
  8
LAY0001
 62
7
  6
CONTINUOUS
 10
175.480294112
 20
107.5550398676
 11
175.5858328933
 21
107.5492469561
  0
LINE
  8
LAY0001
 62
7
  6
CONTINUOUS
 10
175.6577461253
 20
107.6768260345
 11
175.6049767346
 21
107.6797224902
  0
LINE
  8
LAY0001
 62
7
  6
CONTINUOUS
 10
175.2576306974
 20
107.7777032822
 11
175.3631694884
 21
107.771910361
  0
LINE
  8
LAY0001
 62
7
  6
CONTINUOUS
 10
175.4350827204
 20
107.8994894394
 11
175.38231332
 21
107.9023859049
  0
LINE
  8
LAY0001
 62
7
  6
CONTINUOUS
 10
176.1008116257
 20
108.2312232276
 11
176.1535810163
 21
108.2283267719
  0
LINE
  8
LAY0001
 62
7
  6
CONTINUOUS
 10
176.2782639243
 20
108.3530096799
 11
176.1727248577
 21
108.358802306
  0
LINE
  8
LAY0001
 62
7
  6
CONTINUOUS
 10
175.878148211
 20
108.4538866422
 11
175.9309176016
 21
108.4509901865
  0
LINE
  8
LAY0001
 62
7
  6
CONTINUOUS
 10
176.0556005097
 20
108.5756730945
 11
175.9500614382
 21
108.5814657255
  0
LINE
  8
LAY0001
 62
7
  6
CONTINUOUS
 10
177.9269735103
 20
109.9460534196
 11
177.8742038343
 21
109.9489495899
  0
LINE
  8
LAY0001
 62
7
  6
CONTINUOUS
 10
177.5431051754
 20
110.2301753139
 11
177.4903357823
 21
110.2330717721
  0
LINE
  8
LAY0001
 62
7
  6
CONTINUOUS
 10
178.0975022331
 20
110.6732406643
 11
178.1502717664
 21
110.6703443513
  0
LINE
  8
LAY0001
 62
7
  6
CONTINUOUS
 10
178.7359634712
 20
110.7828763036
 11
178.7887330045
 21
110.7799799906
  0
LINE
  8
LAY0001
 62
7
  6
CONTINUOUS
 10
180.173029705
 20
112.637436424
 11
180.0674907245
 21
112.6432291557
  0
LINE
  8
0
 62
7
  6
CONTINUOUS
 10
86.369109518
 20
228.8514561156
 11
86.3729287212
 21
228.4703468957
  0
LINE
  8
0
 62
7
  6
CONTINUOUS
 10
116.0383244451
 20
242.9077799003
 11
116.2025672703
 21
243.2517027847
  0
LINE
  8
0
 62
7
  6
CONTINUOUS
 10
119.0467729123
 20
240.8410979825
 11
118.8825300476
 21
240.4971753935
  0
LINE
  8
0
 62
7
  6
CONTINUOUS
 10
143.8873922602
 20
242.2367797274
 11
144.1603454228
 21
242.5027760496
  0
LINE
  8
0
 62
7
  6
CONTINUOUS
 10
145.6451192501
 20
239.1184893303
 11
145.3721660713
 21
238.8524929353
  0
LINE
  8
0
 62
7
  6
CONTINUOUS
 10
145.5842766239
 20
238.36902343
 11
145.9821037448
 21
238.7161073261
  0
LINE
  8
0
 62
7
  6
CONTINUOUS
 10
150.8498737308
 20
239.2332790616
 11
151.2683793098
 21
239.5551279357
  0
LINE
  8
0
 62
7
  6
CONTINUOUS
 10
150.2286356543
 20
237.087350508
 11
150.6471412436
 21
237.409199418
  0
LINE
  8
0
 62
7
  6
CONTINUOUS
 10
155.4378928807
 20
237.6489962608
 11
155.8756837931
 21
237.9440771555
  0
LINE
  8
0
 62
7
  6
CONTINUOUS
 10
154.6838345312
 20
235.5460597162
 11
155.1216254562
 21
235.841140646
  0
LINE
  8
0
 62
7
  6
CONTINUOUS
 10
164.5581376899
 20
233.4847609366
 11
165.0302903464
 21
233.7209927854
  0
LINE
  8
0
 62
7
  6
CONTINUOUS
 10
171.4953962029
 20
230.6804757231
 11
171.8478244263
 21
230.8255681758
  0
LINE
  8
0
 62
7
  6
CONTINUOUS
 10
171.9641978449
 20
227.1317345108
 11
171.6117695793
 21
226.9866419968
  0
LINE
  8
0
 62
7
  6
CONTINUOUS
 10
171.6283943685
 20
226.4589514952
 11
172.1269217458
 21
226.6327447724
  0
LINE
  8
LAY0001
 62
7
  6
CONTINUOUS
 10
180.0094938746
 20
112.5017335168
 11
180.1289493048
 21
112.4820243311
  0
LINE
  8
LAY0001
 62
7
  6
CONTINUOUS
 10
176.5026929875
 20
108.5774387431
 11
176.5693788398
 21
108.5606258258
  0
LINE
  8
LAY0001
 62
7
  6
CONTINUOUS
 10
177.7495212117
 20
109.8242669673
 11
177.8162070639
 21
109.8074540499
  0
LINE
  8
LAY0001
 62
7
  6
CONTINUOUS
 10
177.3656528743
 20
110.1083888641
 11
177.4323387314
 21
110.0915759419
  0
LINE
  8
LAY0001
 62
7
  6
CONTINUOUS
 10
177.6097910349
 20
110.2133623893
 11
177.5431051754
 21
110.2301753139
  0
LINE
  8
LAY0001
 62
7
  6
CONTINUOUS
 10
179.7583625608
 20
111.8052753932
 11
179.6916766372
 21
111.8220882391
  0
LINE
  8
0
 62
7
  6
CONTINUOUS
 10
102.1362297991
 20
238.4771855066
 11
102.0718157559
 21
238.0077915941
  0
LINE
  8
0
 62
7
  6
CONTINUOUS
 10
102.5997416784
 20
238.0700658996
 11
102.631949832
 21
238.3047632296
  0
LINE
  8
0
 62
7
  6
CONTINUOUS
 10
115.5548992277
 20
243.3798450825
 11
115.4047415526
 21
242.9304760953
  0
LINE
  8
0
 62
7
  6
CONTINUOUS
 10
119.5301981001
 20
240.3690330219
 11
119.6803557653
 21
240.818402083
  0
LINE
  8
0
 62
7
  6
CONTINUOUS
 10
143.5504077493
 20
242.6391616588
 11
143.2310253836
 21
242.1655267136
  0
LINE
  8
0
 62
7
  6
CONTINUOUS
 10
171.3326722598
 20
231.1794654001
 11
170.8597682312
 21
230.8590017725
  0
LINE
  8
LAY0001
 62
7
  6
CONTINUOUS
 10
178.2888710031
 20
110.7811106453
 11
178.2082686795
 21
110.8118400339
  0
LINE
  8
LAY0001
 62
7
  6
CONTINUOUS
 10
178.8467299176
 20
110.9214756732
 11
178.7661274612
 21
110.9522049094
  0
LINE
  8
LAY0001
 62
7
  6
CONTINUOUS
 10
179.5669938005
 20
111.6974054025
 11
179.647596257
 21
111.6666761663
  0
LINE
  8
LAY0001
 62
7
  6
CONTINUOUS
 10
176.4081742121
 20
108.6220845836
 11
176.5026929875
 21
108.5774387431
  0
LINE
  8
LAY0001
 62
7
  6
CONTINUOUS
 10
176.6273758956
 20
108.7021216511
 11
176.5328568348
 21
108.7467672062
  0
LINE
  8
LAY0001
 62
7
  6
CONTINUOUS
 10
177.4323387314
 20
110.0915759419
 11
177.526857797
 21
110.0469303819
  0
LINE
  8
LAY0001
 62
7
  6
CONTINUOUS
 10
178.6414446958
 20
110.8275221441
 11
178.7359634712
 21
110.7828763036
  0
LINE
  8
0
 62
7
  6
CONTINUOUS
 10
105.0438382999
 20
237.6446885442
 11
105.0449860411
 21
237.3089727228
  0
LINE
  8
0
 62
7
  6
CONTINUOUS
 10
115.9914148051
 20
242.4722024525
 11
116.0383244451
 21
242.9077799003
  0
LINE
  8
0
 62
7
  6
CONTINUOUS
 10
143.7160891069
 20
241.9480535668
 11
143.8873922602
 21
242.2367797274
  0
LINE
  8
0
 62
7
  6
CONTINUOUS
 10
143.3446559701
 20
240.2869467638
 11
143.5159590909
 21
240.575672779
  0
LINE
  8
0
 62
7
  6
CONTINUOUS
 10
145.8164223384
 20
239.4072152
 11
145.6451192501
 21
239.1184893303
  0
LINE
  8
0
 62
7
  6
CONTINUOUS
 10
145.9821037448
 20
238.7161073261
 11
146.3014860617
 21
239.1897420533
  0
LINE
  8
0
 62
7
  6
CONTINUOUS
 10
150.8864179471
 20
240.108708916
 11
150.6976130108
 21
239.8311137458
  0
LINE
  8
0
 62
7
  6
CONTINUOUS
 10
151.2683793098
 20
239.5551279357
 11
151.4571842462
 21
239.8327231059
  0
LINE
  8
0
 62
7
  6
CONTINUOUS
 10
150.2651799017
 20
237.9627804698
 11
150.0763749653
 21
237.6851852996
  0
LINE
  8
0
 62
7
  6
CONTINUOUS
 10
150.6471412436
 20
237.409199418
 11
150.8359462007
 21
237.6867946597
  0
LINE
  8
0
 62
7
  6
CONTINUOUS
 10
155.5290444963
 20
238.5204343209
 11
155.3232697946
 21
238.2551737799
  0
LINE
  8
0
 62
7
  6
CONTINUOUS
 10
155.8756837931
 20
237.9440771555
 11
156.0814584948
 21
238.2093376965
  0
LINE
  8
0
 62
7
  6
CONTINUOUS
 10
154.7749861846
 20
236.4174978816
 11
154.5692114829
 21
236.1522373406
  0
LINE
  8
0
 62
7
  6
CONTINUOUS
 10
155.1216254562
 20
235.841140646
 11
155.3274001831
 21
236.1064012572
  0
LINE
  8
0
 62
7
  6
CONTINUOUS
 10
164.760782261
 20
234.3371963305
 11
164.5225498723
 21
234.1006530894
  0
LINE
  8
0
 62
7
  6
CONTINUOUS
 10
165.0302903464
 20
233.7209927854
 11
165.268522735
 21
233.9575360265
  0
LINE
  8
0
 62
7
  6
CONTINUOUS
 10
166.3050404467
 20
231.4023027325
 11
168.5820328489
 21
233.3883923507
  0
LINE
  8
0
 62
7
  6
CONTINUOUS
 10
164.985530842
 20
230.2075655903
 11
165.9975301695
 21
231.0902704155
  0
LINE
  8
0
 62
7
  6
CONTINUOUS
 10
168.4423074887
 20
233.9673224018
 11
164.4488349743
 21
230.5278506908
  0
LINE
  8
0
 62
7
  6
CONTINUOUS
 10
171.2288212648
 20
230.4764037542
 11
171.4953962029
 21
230.6804757231
  0
LINE
  8
0
 62
7
  6
CONTINUOUS
 10
170.2650160886
 20
229.0734361964
 11
170.5315909423
 21
229.2775080425
  0
LINE
  8
0
 62
7
  6
CONTINUOUS
 10
172.2307726142
 20
227.3358062341
 11
171.9641978449
 21
227.1317345108
  0
LINE
  8
0
 62
7
  6
CONTINUOUS
 10
172.1269217458
 20
226.6327447724
 11
172.5998256478
 21
226.9532082158
  0
LINE
  8
LAY0001
 62
7
  6
CONTINUOUS
 10
180.2814650379
 20
112.5788742178
 11
180.173029705
 21
112.637436424
  0
LINE
  8
0
 62
7
  6
CONTINUOUS
 10
105.5729119636
 20
237.3712470283
 11
105.5384128788
 21
237.8079827653
  0
LINE
  8
0
 62
7
  6
CONTINUOUS
 10
116.7545999893
 20
71.4935470893
 11
116.9849148766
 21
67.0988772438
  0
LINE
  8
0
 62
7
  6
CONTINUOUS
 10
115.4047415526
 20
242.9304760953
 11
115.3719171417
 21
242.3894519538
  0
LINE
  8
0
 62
7
  6
CONTINUOUS
 10
119.6803557653
 20
240.818402083
 11
119.7131802156
 21
241.3594259291
  0
LINE
  8
0
 62
7
  6
CONTINUOUS
 10
119.0936825522
 20
241.2766754304
 11
119.0467729123
 21
240.8410979825
  0
LINE
  8
0
 62
7
  6
CONTINUOUS
 10
132.4963043885
 20
263.4278800288
 11
130.4732260093
 21
251.9544323971
  0
LINE
  8
0
 62
7
  6
CONTINUOUS
 10
81.7905763331
 20
82.843893485
 11
80.3215922029
 21
78.695610271
  0
LINE
  8
0
 62
7
  6
CONTINUOUS
 10
143.2310253836
 20
242.1655267136
 11
142.9668640193
 21
241.4615241794
  0
LINE
  8
0
 62
7
  6
CONTINUOUS
 10
143.475146965
 20
241.3478691582
 11
143.7160891069
 21
241.9480535668
  0
LINE
  8
0
 62
7
  6
CONTINUOUS
 10
169.7841041523
 20
254.1440058032
 11
163.5243251244
 21
244.318120947
  0
LINE
  8
0
 62
7
  6
CONTINUOUS
 10
53.8316200201
 20
106.7103987889
 11
50.8869763898
 21
103.4400407215
  0
LINE
  8
0
 62
7
  6
CONTINUOUS
 10
170.8597682312
 20
230.8590017725
 11
170.3522421889
 21
230.3041881904
  0
LINE
  8
0
 62
7
  6
CONTINUOUS
 10
170.7815330408
 20
230.0092756368
 11
171.2288212648
 21
230.4764037542
  0
LINE
  8
0
 62
7
  6
CONTINUOUS
 10
200.6807543122
 20
231.2974012248
 11
191.1372692474
 21
224.6149810416
  0
LINE
  8
0
 62
7
  6
CONTINUOUS
 10
187.6215411909
 20
213.4490335978
 11
185.8894903833
 21
212.4490335978
  0
LINE
  8
0
 62
7
  6
CONTINUOUS
 10
37.1342287004
 20
139.459603919
 11
33.1622208696
 21
137.565053368
  0
LINE
  8
0
 62
7
  6
CONTINUOUS
 10
35.1247010465
 20
131.7472027692
 11
46.4989830588
 21
134.2688203827
  0
LINE
  8
0
 62
7
  6
CONTINUOUS
 10
221.3667921664
 20
154.0077182384
 11
225.7614620119
 21
154.2380331257
  0
LINE
  8
0
 62
7
  6
CONTINUOUS
 10
29.4324592269
 20
169.7494226377
 11
40.9059068586
 21
167.7263442584
  0
LINE
  8
0
 62
7
  6
CONTINUOUS
 10
210.0164457707
 20
119.0436945822
 11
214.1647289847
 21
117.574710452
  0
LINE
  8
0
 62
7
  6
CONTINUOUS
 10
55.9856798157
 20
192.664423907
 11
57.7177306232
 21
191.664423907
  0
LINE
  8
0
 62
7
  6
CONTINUOUS
 10
38.7163334525
 20
207.0372224015
 11
48.5422183087
 21
200.7774433735
  0
LINE
  8
0
 62
7
  6
CONTINUOUS
 10
186.1499404668
 20
91.0847382692
 11
189.4202985342
 21
88.140094639
  0
LINE
  8
0
 62
7
  6
CONTINUOUS
 10
61.5629380309
 20
237.9338725613
 11
68.2453582141
 21
228.3903874966
  0
LINE
  8
0
 62
7
  6
CONTINUOUS
 10
153.4007353367
 20
74.3873469495
 11
155.2952858877
 21
70.4153391187
  0
LINE
  8
0
 62
7
  6
CONTINUOUS
 10
94.4940845201
 20
257.7356382092
 11
97.0157021336
 21
246.3613561969
  0
LINE
  8
0
 62
7
  6
CONTINUOUS
 10
102.0718157559
 20
238.0077915941
 11
102.1730220789
 21
237.36901745
  0
LINE
  8
0
 62
7
  6
CONTINUOUS
 10
120.4387600775
 20
244.7442387692
 11
120.7691395025
 21
239.7551657656
  0
LINE
  8
0
 62
7
  6
CONTINUOUS
 10
121.3927736279
 20
239.7964631937
 11
121.1045702947
 21
244.1486333366
  0
LINE
  8
0
 62
7
  6
CONTINUOUS
 10
125.7498023997
 20
245.0523379899
 11
125.7609781989
 21
240.0523504797
  0
LINE
  8
0
 62
7
  6
CONTINUOUS
 10
126.3845499399
 20
240.692043731
 11
126.3807454124
 21
242.3941671593
  0
LINE
  8
0
 62
7
  6
CONTINUOUS
 10
126.3793187148
 20
243.0324633611
 11
126.376227536
 21
244.415438763
  0
LINE
  8
DEFAULT_1
 62
2
  6
CENTER
 10
127.8036105033
 20
266.7542396061
 11
127.8036105033
 21
167.0568287524
  0
LINE
  8
0
 62
2
  6
CONTINUOUS
 10
127.8036105033
 20
166.1067287524
 11
127.8036105033
 21
164.0067287524
  0
LINE
  8
DEFAULT_1
 62
2
  6
CENTER
 10
127.8036105033
 20
61.2632658643
 11
127.8036105033
 21
163.0566287524
  0
LINE
  8
0
 62
7
  6
CONTINUOUS
 10
128.3036105033
 20
86.3540600654
 11
128.3036105033
 21
89.0567287524
  0
LINE
  8
0
 62
7
  6
CONTINUOUS
 10
128.3036105033
 20
91.0567287524
 11
128.3036105033
 21
93.7593974394
  0
LINE
  8
0
 62
7
  6
CONTINUOUS
 10
135.9748896585
 20
244.6655880046
 11
135.9068212955
 21
244.1380464569
  0
LINE
  8
0
 62
7
  6
CONTINUOUS
 10
135.4439563607
 20
240.5507634152
 11
135.3350469704
 21
239.706696865
  0
LINE
  8
0
 62
7
  6
CONTINUOUS
 10
141.0295595746
 20
243.203197154
 11
140.8809276583
 21
242.3652123507
  0
LINE
  8
0
 62
7
  6
CONTINUOUS
 10
141.6263755393
 20
242.989297552
 11
140.9017950972
 21
238.9041224799
  0
LINE
  8
0
 62
7
  6
CONTINUOUS
 10
141.5171900449
 20
238.7949709416
 11
142.3904023512
 21
243.7181305235
  0
LINE
  8
0
 62
7
  6
CONTINUOUS
 10
142.9668640193
 20
241.4615241794
 11
142.8043620362
 21
240.7347900168
  0
LINE
  8
0
 62
7
  6
CONTINUOUS
 10
143.428717827
 20
241.140230826
 11
143.475146965
 21
241.3478691582
  0
LINE
  8
0
 62
7
  6
CONTINUOUS
 10
143.2750122631
 20
239.9754892655
 11
143.3446559701
 21
240.2869467638
  0
LINE
  8
0
 62
7
  6
CONTINUOUS
 10
148.1987747437
 20
242.4372878271
 11
146.8083847594
 21
237.6344953382
  0
LINE
  8
0
 62
7
  6
CONTINUOUS
 10
147.5862304138
 20
238.0738190341
 11
148.0299719074
 21
239.6066251795
  0
LINE
  8
0
 62
7
  6
CONTINUOUS
 10
148.20746848
 20
240.2197475518
 11
148.6216272322
 21
241.6503667068
  0
LINE
  8
0
 62
7
  6
CONTINUOUS
 10
152.9920903378
 20
241.0123350678
 11
151.3044359325
 21
236.3057627898
  0
LINE
  8
0
 62
7
  6
CONTINUOUS
 10
152.10820271
 20
236.6956450018
 11
152.6468158293
 21
238.1977425687
  0
LINE
  8
0
 62
7
  6
CONTINUOUS
 10
152.8622610468
 20
238.7985815113
 11
153.364966655
 21
240.2005393245
  0
LINE
  8
0
 62
7
  6
CONTINUOUS
 10
162.56593409
 20
237.1351202103
 11
160.2860952144
 21
232.6851387832
  0
LINE
  8
0
 62
7
  6
CONTINUOUS
 10
160.8423428928
 20
232.4001589237
 11
161.8609943198
 21
234.3884485257
  0
LINE
  8
0
 62
7
  6
CONTINUOUS
 10
162.1520375458
 20
234.9565311934
 11
162.8796457467
 21
236.3767381278
  0
LINE
  8
0
 62
7
  6
CONTINUOUS
 10
170.3522421889
 20
230.3041881904
 11
169.9305774612
 21
229.6903899376
  0
LINE
  8
0
 62
7
  6
CONTINUOUS
 10
170.6610574043
 20
229.8339047074
 11
170.7815330408
 21
230.0092756368
  0
LINE
  8
0
 62
7
  6
CONTINUOUS
 10
170.0843026338
 20
228.8103798023
 11
170.2650160886
 21
229.0734361964
  0
LINE
  8
0
 62
7
  6
CONTINUOUS
 10
195.7121209319
 20
204.8410757978
 11
193.3715411909
 21
203.4897414543
  0
LINE
  8
0
 62
7
  6
CONTINUOUS
 10
191.6394903833
 20
202.4897414543
 11
189.2989106424
 21
201.1384071108
  0
LINE
  8
DEFAULT_1
 62
2
  6
CENTER
 10
226.6719091904
 20
165.0567287524
 11
129.8037105033
 21
165.0567287524
  0
LINE
  8
0
 62
2
  6
CONTINUOUS
 10
128.8536105033
 20
165.0567287524
 11
126.7536105033
 21
165.0567287524
  0
LINE
  8
DEFAULT_1
 62
2
  6
CENTER
 10
31.6493435449
 20
165.0567287524
 11
125.8035105033
 21
165.0567287524
  0
LINE
  8
0
 62
7
  6
CONTINUOUS
 10
59.3951000747
 20
203.975050394
 11
61.7356798157
 21
202.6237160505
  0
LINE
  8
0
 62
7
  6
CONTINUOUS
 10
63.4677306232
 20
201.6237160505
 11
65.8083103642
 21
200.272381707
  0
LINE
  8
LAY0001
 62
7
  6
CONTINUOUS
 10
175.922226963
 20
107.1093280342
 11
177.5485725598
 21
105.4829824374
  0
LINE
  8
LAY0001
 62
7
  6
CONTINUOUS
 10
175.2297977742
 20
107.8055362054
 11
175.2576306974
 21
107.7777032822
  0
LINE
  8
LAY0001
 62
7
  6
CONTINUOUS
 10
178.1496133238
 20
106.0840232015
 11
176.523267727
 21
107.7103687982
  0
LINE
  8
LAY0001
 62
7
  6
CONTINUOUS
 10
176.6646890833
 20
107.8517901544
 11
177.5839278988
 21
106.9325513389
  0
LINE
  8
LAY0001
 62
7
  6
CONTINUOUS
 10
176.3060968475
 20
108.3251767567
 11
176.2782639243
 21
108.3530096799
  0
LINE
  8
LAY0001
 62
7
  6
CONTINUOUS
 10
176.143761403
 20
108.8864973928
 11
176.4081742121
 21
108.6220845836
  0
LINE
  8
LAY0001
 62
7
  6
CONTINUOUS
 10
176.5328568348
 20
108.7467672062
 11
176.2684440256
 21
109.0111800154
  0
LINE
  8
LAY0001
 62
7
  6
CONTINUOUS
 10
178.2203240019
 20
107.4982367638
 11
177.2657298473
 21
108.4528309184
  0
LINE
  8
LAY0001
 62
7
  6
CONTINUOUS
 10
176.7173021521
 20
109.4600381418
 11
177.0373808076
 21
109.1399594863
  0
LINE
  8
LAY0001
 62
7
  6
CONTINUOUS
 10
177.0930466539
 20
109.08429364
 11
177.1626289619
 21
109.0147113321
  0
LINE
  8
LAY0001
 62
7
  6
CONTINUOUS
 10
177.2873118699
 20
109.1393942401
 11
176.8419850601
 21
109.5847210499
  0
LINE
  8
LAY0001
 62
7
  6
CONTINUOUS
 10
177.0414776559
 20
109.7842136456
 11
177.4868044657
 21
109.3388868358
  0
LINE
  8
LAY0001
 62
7
  6
CONTINUOUS
 10
177.6259691205
 20
109.199722181
 11
177.6955514285
 21
109.130139873
  0
LINE
  8
LAY0001
 62
7
  6
CONTINUOUS
 10
177.8202340511
 20
109.2548224957
 11
177.7506517432
 21
109.3244048036
  0
LINE
  8
LAY0001
 62
7
  6
CONTINUOUS
 10
177.6114870883
 20
109.4635694585
 11
177.1661602785
 21
109.9088962683
  0
LINE
  8
LAY0001
 62
7
  6
CONTINUOUS
 10
178.0789026456
 20
109.2660037168
 11
178.856720105
 21
108.4881862575
  0
LINE
  8
LAY0001
 62
7
  6
CONTINUOUS
 10
179.4224055299
 20
107.9225008325
 11
179.7052482424
 21
107.6396581201
  0
LINE
  8
LAY0001
 62
7
  6
CONTINUOUS
 10
177.526857797
 20
110.0469303819
 11
177.7495212117
 21
109.8242669673
  0
LINE
  8
LAY0001
 62
7
  6
CONTINUOUS
 10
177.7767885837
 20
110.0463648405
 11
177.6932898142
 21
110.12986361
  0
LINE
  8
LAY0001
 62
7
  6
CONTINUOUS
 10
177.8742038343
 20
109.9489495899
 11
177.8324544496
 21
109.9906989747
  0
LINE
  8
LAY0001
 62
7
  6
CONTINUOUS
 10
180.3062890064
 20
108.2406988841
 11
178.6799434097
 21
109.8670444808
  0
LINE
  8
LAY0001
 62
7
  6
CONTINUOUS
 10
178.1502717664
 20
110.6703443513
 11
178.1781046993
 21
110.6425114184
  0
LINE
  8
LAY0001
 62
7
  6
CONTINUOUS
 10
178.8213647659
 20
110.008465837
 11
180.4477103626
 21
108.3821202403
  0
LINE
  8
LAY0001
 62
7
  6
CONTINUOUS
 10
178.5254508696
 20
110.5445307788
 11
178.4976179464
 21
110.572363702
  0
LINE
  8
LAY0001
 62
7
  6
CONTINUOUS
 10
178.3306203878
 20
110.7393612605
 11
178.2888710031
 21
110.7811106453
  0
LINE
  8
LAY0001
 62
7
  6
CONTINUOUS
 10
178.3631154251
 20
111.1058514148
 11
178.6414446958
 21
110.8275221441
  0
LINE
  8
LAY0001
 62
7
  6
CONTINUOUS
 10
178.7661274612
 20
110.9522049094
 11
178.4877981904
 21
111.2305341802
  0
LINE
  8
LAY0001
 62
7
  6
CONTINUOUS
 10
181.0487511266
 20
108.9831610043
 11
180.2709336673
 21
109.7609784636
  0
LINE
  8
LAY0001
 62
7
  6
CONTINUOUS
 10
179.7052482424
 20
110.3266638886
 11
179.4224055299
 21
110.6095066011
  0
LINE
  8
LAY0001
 62
7
  6
CONTINUOUS
 10
178.9366563169
 20
111.6793923066
 11
179.2567349724
 21
111.3593136511
  0
LINE
  8
LAY0001
 62
7
  6
CONTINUOUS
 10
179.3124008187
 20
111.3036478048
 11
179.5907300895
 21
111.025318534
  0
LINE
  8
LAY0001
 62
7
  6
CONTINUOUS
 10
179.7154129261
 20
111.1500013707
 11
179.0613391535
 21
111.8040751433
  0
LINE
  8
LAY0001
 62
7
  6
CONTINUOUS
 10
180.9073297704
 20
110.7509279573
 11
181.861923925
 21
109.7963338027
  0
LINE
  8
LAY0001
 62
7
  6
CONTINUOUS
 10
180.1289493048
 20
112.4820243311
 11
180.1706986895
 21
112.4402749463
  0
LINE
  8
LAY0001
 62
7
  6
CONTINUOUS
 10
182.462964689
 20
110.3973745667
 11
181.5437258735
 21
111.3166133822
  0
LINE
  8
0
 62
7
  6
CONTINUOUS
 10
82.9039049306
 20
229.3530852019
 11
84.0847263896
 21
227.5831712205
  0
LINE
  8
0
 62
7
  6
CONTINUOUS
 10
84.517986594
 20
227.8722264808
 11
83.337165135
 21
229.6421404622
  0
LINE
  8
0
 62
7
  6
CONTINUOUS
 10
85.0702059213
 20
230.7983614828
 11
86.369109518
 21
228.8514561156
  0
LINE
  8
0
 62
7
  6
CONTINUOUS
 10
86.5374301107
 20
231.7384828312
 11
88.2747237312
 21
228.8108960399
  0
LINE
  8
0
 62
7
  6
CONTINUOUS
 10
88.722629362
 20
229.0766929746
 11
87.4739495295
 21
231.1808960529
  0
LINE
  8
0
 62
7
  6
CONTINUOUS
 10
87.256787846
 20
231.5468443697
 11
86.9853357415
 21
232.0042797658
  0
LINE
  8
0
 62
7
  6
CONTINUOUS
 10
89.3035711765
 20
231.7718165182
 11
90.3350893254
 21
230.0335617568
  0
LINE
  8
0
 62
7
  6
CONTINUOUS
 10
89.1131001371
 20
235.0789553979
 11
89.3688325931
 21
234.6125496759
  0
LINE
  8
0
 62
7
  6
CONTINUOUS
 10
89.8802976482
 20
233.6797379704
 11
91.5169855095
 21
230.6947410879
  0
LINE
  8
0
 62
7
  6
CONTINUOUS
 10
91.9736743259
 20
230.9451457186
 11
90.3369864647
 21
233.9301426012
  0
LINE
  8
0
 62
7
  6
CONTINUOUS
 10
89.8255214095
 20
234.8629543066
 11
89.5697889536
 21
235.3293600287
  0
LINE
  8
0
 62
7
  6
CONTINUOUS
 10
95.2670818766
 20
238.1654828789
 11
97.1924643701
 21
233.5510595938
  0
LINE
  8
0
 62
7
  6
CONTINUOUS
 10
97.7692672807
 20
233.7917324055
 11
96.8680244041
 21
235.9516752373
  0
LINE
  8
0
 62
7
  6
CONTINUOUS
 10
96.6222309236
 20
236.5407504801
 11
96.0896782678
 21
237.8170804478
  0
LINE
  8
0
 62
7
  6
CONTINUOUS
 10
99.6992110963
 20
239.9580675316
 11
101.4404788801
 21
235.2710656642
  0
LINE
  8
0
 62
7
  6
CONTINUOUS
 10
101.9287086138
 20
235.4524478634
 11
100.18744083
 21
240.1394497308
  0
LINE
  8
0
 62
7
  6
CONTINUOUS
 10
102.7343038729
 20
237.3302733349
 11
102.6675966579
 21
237.5323116711
  0
LINE
  8
0
 62
7
  6
CONTINUOUS
 10
102.6330952858
 20
237.9690467314
 11
102.5997416784
 21
238.0700658996
  0
LINE
  8
0
 62
7
  6
CONTINUOUS
 10
104.6435949633
 20
238.8569187034
 11
104.7103021783
 21
238.6548803671
  0
LINE
  8
0
 62
7
  6
CONTINUOUS
 10
115.3719171417
 20
242.3894519538
 11
115.5831950052
 21
240.8077558327
  0
LINE
  8
0
 62
7
  6
CONTINUOUS
 10
116.2026926686
 20
240.8905063314
 11
115.9914148051
 21
242.4722024525
  0
LINE
  8
0
 62
7
  6
CONTINUOUS
 10
123.9726852024
 20
244.9782574236
 11
124.2538591821
 21
240.7322378318
  0
LINE
  8
0
 62
7
  6
CONTINUOUS
 10
124.9266987529
 20
240.0304818481
 11
124.5963193278
 21
245.0195548517
  0
LINE
  8
0
 62
7
  6
CONTINUOUS
 10
129.0890735699
 20
242.4002207207
 11
129.0876468723
 21
243.0385169225
  0
LINE
  8
0
 62
7
  6
CONTINUOUS
 10
129.5109688315
 20
240.0607323292
 11
129.5095421337
 21
240.6990286055
  0
LINE
  8
0
 62
7
  6
CONTINUOUS
 10
129.5012197299
 20
244.4224236375
 11
129.4997930323
 21
245.0607198393
  0
LINE
  8
0
 62
7
  6
CONTINUOUS
 10
142.8043620362
 20
240.7347900168
 11
142.7435194017
 21
239.9853240801
  0
LINE
  8
0
 62
7
  6
CONTINUOUS
 10
139.4674546771
 20
239.1734948284
 11
139.5491367221
 21
239.8065447595
  0
LINE
  8
0
 62
7
  6
CONTINUOUS
 10
140.0120016569
 20
243.3938278012
 11
140.1072973651
 21
244.132385968
  0
LINE
  8
0
 62
7
  6
CONTINUOUS
 10
145.8860660455
 20
239.7186726983
 11
145.8164223384
 21
239.4072152
  0
LINE
  8
0
 62
7
  6
CONTINUOUS
 10
146.3014860617
 20
239.1897420533
 11
146.4175589393
 21
239.7088380292
  0
LINE
  8
0
 62
7
  6
CONTINUOUS
 10
150.9455834713
 20
240.3130830401
 11
150.8864179471
 21
240.108708916
  0
LINE
  8
0
 62
7
  6
CONTINUOUS
 10
150.353928188
 20
238.2693416559
 11
150.2651799017
 21
237.9627804698
  0
LINE
  8
0
 62
7
  6
CONTINUOUS
 10
150.8359462007
 20
237.6867946597
 11
150.9838600112
 21
238.1977299699
  0
LINE
  8
0
 62
7
  6
CONTINUOUS
 10
151.4571842462
 20
239.8327231059
 11
151.5755153774
 21
240.2414716403
  0
LINE
  8
0
 62
7
  6
CONTINUOUS
 10
155.6008595688
 20
238.7207139685
 11
155.5290444963
 21
238.5204343209
  0
LINE
  8
0
 62
7
  6
CONTINUOUS
 10
154.8827087934
 20
236.7179173529
 11
154.7749861846
 21
236.4174978816
  0
LINE
  8
0
 62
7
  6
CONTINUOUS
 10
155.3274001831
 20
236.1064012572
 11
155.5069378644
 21
236.607100376
  0
LINE
  8
0
 62
7
  6
CONTINUOUS
 10
156.0814584948
 20
238.2093376965
 11
156.2250887404
 21
238.6098972721
  0
LINE
  8
0
 62
7
  6
CONTINUOUS
 10
169.9305774612
 20
229.6903899376
 11
169.5947739638
 21
229.0176068913
  0
LINE
  8
0
 62
7
  6
CONTINUOUS
 10
164.9063040099
 20
234.6212379296
 11
164.760782261
 21
234.3371963305
  0
LINE
  8
0
 62
7
  6
CONTINUOUS
 10
165.268522735
 20
233.9575360265
 11
165.4625516883
 21
234.3362580701
  0
LINE
  8
0
 62
7
  6
CONTINUOUS
 10
172.4114860689
 20
227.5988626282
 11
172.2307726142
 21
227.3358062341
  0
LINE
  8
0
 62
7
  6
CONTINUOUS
 10
172.5998256478
 20
226.9532082158
 11
172.9010148234
 21
227.3916356621
  0
LINE
  8
0
 62
7
  6
CONTINUOUS
 10
87.0385341319
 20
228.7865286045
 11
85.5034662186
 21
231.0874168051
  0
LINE
  8
0
 62
7
  6
CONTINUOUS
 10
90.7829947
 20
230.2993585393
 11
89.751476551
 21
232.0376133007
  0
LINE
  8
0
 62
7
  6
CONTINUOUS
 10
102.1730220789
 20
237.36901745
 11
102.4720590924
 21
236.7955614349
  0
LINE
  8
0
 62
7
  6
CONTINUOUS
 10
99.3675029501
 20
236.9945904486
 11
99.1217094696
 21
237.5836656913
  0
LINE
  8
0
 62
7
  6
CONTINUOUS
 10
98.973692821
 20
239.0204445062
 11
98.7278993405
 21
239.609519749
  0
LINE
  8
0
 62
7
  6
CONTINUOUS
 10
105.3382912339
 20
238.4140977741
 11
105.2048767573
 21
238.8181745882
  0
LINE
  8
0
 62
7
  6
CONTINUOUS
 10
118.8824046888
 20
242.8583715514
 11
119.0936825522
 21
241.2766754304
  0
LINE
  8
0
 62
7
  6
CONTINUOUS
 10
119.7131802156
 20
241.3594259291
 11
119.5019023522
 21
242.9411220501
  0
LINE
  8
0
 62
7
  6
CONTINUOUS
 10
138.8526210173
 20
258.6199104155
 11
138.62230613
 21
263.014580261
  0
LINE
  8
0
 62
7
  6
CONTINUOUS
 10
139.8036105033
 20
89.0567287524
 11
139.8036105033
 21
91.0567287524
  0
LINE
  8
0
 62
7
  6
CONTINUOUS
 10
123.110916618
 20
66.6855774761
 11
125.1339949973
 21
78.1590251077
  0
LINE
  8
0
 62
7
  6
CONTINUOUS
 10
173.8166446735
 20
247.2695640198
 11
175.2856288037
 21
251.4178472338
  0
LINE
  8
0
 62
7
  6
CONTINUOUS
 10
85.8231168542
 20
75.9694517017
 11
92.0828958822
 21
85.7953365578
  0
LINE
  8
0
 62
7
  6
CONTINUOUS
 10
201.7756009865
 20
223.4030587159
 11
204.7202446167
 21
226.6734167834
  0
LINE
  8
0
 62
7
  6
CONTINUOUS
 10
54.9264666944
 20
98.8160562801
 11
64.4699517591
 21
105.4984764632
  0
LINE
  8
0
 62
7
  6
CONTINUOUS
 10
218.4729923062
 20
190.6538535858
 11
222.445000137
 21
192.5484041368
  0
LINE
  8
0
 62
7
  6
CONTINUOUS
 10
220.4825199601
 20
198.3662547356
 11
209.1082379478
 21
195.8446371221
  0
LINE
  8
0
 62
7
  6
CONTINUOUS
 10
34.2404288402
 20
176.1057392664
 11
29.8457589947
 21
175.8754243791
  0
LINE
  8
0
 62
7
  6
CONTINUOUS
 10
226.1747617796
 20
160.3640348672
 11
214.7013141479
 21
162.3871132464
  0
LINE
  8
0
 62
7
  6
CONTINUOUS
 10
45.5907752359
 20
211.0697629226
 11
41.4424920219
 21
212.5387470528
  0
LINE
  8
0
 62
7
  6
CONTINUOUS
 10
216.890887554
 20
123.0762351034
 11
207.0650026979
 21
129.3360141313
  0
LINE
  8
0
 62
7
  6
CONTINUOUS
 10
69.4572805398
 20
239.0287192356
 11
66.1869224723
 21
241.9733628659
  0
LINE
  8
0
 62
7
  6
CONTINUOUS
 10
84.0847263896
 20
227.5831712205
 11
84.4075427518
 21
227.2869994422
  0
LINE
  8
0
 62
7
  6
CONTINUOUS
 10
87.3613503985
 20
228.4903567848
 11
87.0385341319
 21
228.7865286045
  0
LINE
  8
0
 62
7
  6
CONTINUOUS
 10
88.9425377921
 20
232.1760924361
 11
89.3035711765
 21
231.7718165182
  0
LINE
  8
0
 62
7
  6
CONTINUOUS
 10
89.751476551
 20
232.0376133007
 11
89.3904436792
 21
232.4418895228
  0
LINE
  8
0
 62
7
  6
CONTINUOUS
 10
194.0442829756
 20
92.1795849435
 11
187.3618627925
 21
101.7230700083
  0
LINE
  8
0
 62
7
  6
CONTINUOUS
 10
105.2048767573
 20
238.8181745882
 11
104.9725469587
 21
239.189592267
  0
LINE
  8
0
 62
7
  6
CONTINUOUS
 10
102.2064856698
 20
255.7261105553
 11
100.3119351189
 21
259.6981183861
  0
LINE
  8
0
 62
7
  6
CONTINUOUS
 10
116.3622838252
 20
240.4825125935
 11
116.2026926686
 21
240.8905063314
  0
LINE
  8
0
 62
7
  6
CONTINUOUS
 10
118.7228135321
 20
243.2663652893
 11
118.8824046888
 21
242.8583715514
  0
LINE
  8
0
 62
7
  6
CONTINUOUS
 10
115.5831950052
 20
240.8077558327
 11
115.7568713514
 21
240.2943156966
  0
LINE
  8
0
 62
7
  6
CONTINUOUS
 10
119.5019023522
 20
242.9411220501
 11
119.3282259665
 21
243.4545624816
  0
LINE
  8
0
 62
7
  6
CONTINUOUS
 10
161.1131364865
 20
72.3778192956
 11
158.591518873
 21
83.7521013079
  0
LINE
  8
0
 62
7
  6
CONTINUOUS
 10
143.3070279372
 20
239.6413001387
 11
143.2750122631
 21
239.9754892655
  0
LINE
  8
0
 62
7
  6
CONTINUOUS
 10
145.8540504038
 20
240.0528619706
 11
145.8860660455
 21
239.7186726983
  0
LINE
  8
0
 62
7
  6
CONTINUOUS
 10
146.6321117911
 20
241.6230444858
 11
146.6000961169
 21
241.9572336127
  0
LINE
  8
0
 62
7
  6
CONTINUOUS
 10
150.3426198656
 20
238.6048690012
 11
150.353928188
 21
238.2693416559
  0
LINE
  8
0
 62
7
  6
CONTINUOUS
 10
150.9838600112
 20
238.1977299699
 11
150.9725516888
 21
238.5332573152
  0
LINE
  8
0
 62
7
  6
CONTINUOUS
 10
150.9342751904
 20
240.6486105285
 11
150.9455834713
 21
240.3130830401
  0
LINE
  8
0
 62
7
  6
CONTINUOUS
 10
151.5755153774
 20
240.2414716403
 11
151.5642070136
 21
240.5769988425
  0
LINE
  8
0
 62
7
  6
CONTINUOUS
 10
154.8923793595
 20
237.0534958947
 11
154.8827087934
 21
236.7179173529
  0
LINE
  8
0
 62
7
  6
CONTINUOUS
 10
155.5069378644
 20
236.607100376
 11
155.5166084305
 21
236.9426789178
  0
LINE
  8
0
 62
7
  6
CONTINUOUS
 10
155.6105301853
 20
239.0562926506
 11
155.6008595688
 21
238.7207139685
  0
LINE
  8
0
 62
7
  6
CONTINUOUS
 10
156.2250887404
 20
238.6098972721
 11
156.2347592563
 21
238.9454756737
  0
LINE
  8
0
 62
7
  6
CONTINUOUS
 10
164.9591148473
 20
234.9527773561
 11
164.9063040099
 21
234.6212379296
  0
LINE
  8
0
 62
7
  6
CONTINUOUS
 10
165.4625516883
 20
234.3362580701
 11
165.5153625256
 21
234.6677974967
  0
LINE
  8
0
 62
7
  6
CONTINUOUS
 10
168.0268101553
 20
228.3926150583
 11
169.1578992492
 21
233.5402772302
  0
LINE
  8
0
 62
7
  6
CONTINUOUS
 10
167.7865136654
 20
230.0226550429
 11
167.4901142877
 21
228.7129001588
  0
LINE
  8
0
 62
7
  6
CONTINUOUS
 10
168.5820328489
 20
233.3883923507
 11
167.9151280497
 21
230.4414474309
  0
LINE
  8
0
 62
7
  6
CONTINUOUS
 10
169.5947739638
 20
229.0176068913
 11
169.465299599
 21
228.461215565
  0
LINE
  8
0
 62
7
  6
CONTINUOUS
 10
169.9894504937
 20
228.4883387375
 11
170.0843026338
 21
228.8103798023
  0
LINE
  8
0
 62
7
  6
CONTINUOUS
 10
172.5063382934
 20
227.9209038158
 11
172.4114860689
 21
227.5988626282
  0
LINE
  8
0
 62
7
  6
CONTINUOUS
 10
173.8135809519
 20
229.0879382135
 11
173.908433092
 21
229.4099792783
  0
LINE
  8
0
 62
7
  6
CONTINUOUS
 10
86.6643149034
 20
228.4089775893
 11
87.1328244573
 21
228.082121225
  0
LINE
  8
0
 62
7
  6
CONTINUOUS
 10
84.7817618537
 20
227.6645504625
 11
84.517986594
 21
227.8722264808
  0
LINE
  8
0
 62
7
  6
CONTINUOUS
 10
89.3904436792
 20
232.4418895228
 11
89.1379911366
 21
232.6631912823
  0
LINE
  8
0
 62
7
  6
CONTINUOUS
 10
102.9332777999
 20
237.0598740767
 11
102.7343038729
 21
237.3302733349
  0
LINE
  8
LAY0001
 62
7
  6
CONTINUOUS
 10
180.3400272636
 20
112.4704388655
 11
180.2814650379
 21
112.5788742178
  0
LINE
  8
LAY0001
 62
7
  6
CONTINUOUS
 10
179.369266996
 20
111.9450054272
 11
179.399996242
 21
111.864402961
  0
LINE
  8
0
 62
7
  6
CONTINUOUS
 10
142.7435194017
 20
239.9853240801
 11
142.8307559959
 21
239.4207670009
  0
LINE
  8
0
 62
7
  6
CONTINUOUS
 10
172.9010148234
 20
227.3916356621
 11
173.030489146
 21
227.9480269269
  0
LINE
  8
0
 62
7
  6
CONTINUOUS
 10
84.4075427518
 20
227.2869994422
 11
84.6122769349
 21
227.1678191116
  0
LINE
  8
0
 62
7
  6
CONTINUOUS
 10
87.5660847546
 20
228.3711765473
 11
87.3613503985
 21
228.4903567848
  0
LINE
  8
0
 62
7
  6
CONTINUOUS
 10
103.0989003835
 20
236.8904947341
 11
102.9332777999
 21
237.0598740767
  0
LINE
  8
0
 62
7
  6
CONTINUOUS
 10
102.4720590924
 20
236.7955614349
 11
102.8033020189
 21
236.4568019316
  0
LINE
  8
0
 62
7
  6
CONTINUOUS
 10
115.7568713514
 20
240.2943156966
 11
116.019710553
 21
239.9001134242
  0
LINE
  8
0
 62
7
  6
CONTINUOUS
 10
119.3282259665
 20
243.4545624816
 11
119.0653867748
 21
243.8487646802
  0
LINE
  8
LAY0001
 62
7
  6
CONTINUOUS
 10
180.1706986895
 20
112.4402749463
 11
180.2014279898
 21
112.3596725149
  0
LINE
  8
LAY0001
 62
7
  6
CONTINUOUS
 10
178.1781046993
 20
110.6425114184
 11
178.194917474
 21
110.5758254234
  0
LINE
  8
LAY0001
 62
7
  6
CONTINUOUS
 10
179.5246790787
 20
111.9890857977
 11
179.507866223
 21
112.055771731
  0
LINE
  8
0
 62
7
  6
CONTINUOUS
 10
146.4175589393
 20
239.7088380292
 11
146.3303223289
 21
240.2733950357
  0
LINE
  8
LAY0001
 62
7
  6
CONTINUOUS
 10
175.38231332
 20
107.9023859049
 11
175.3794168643
 21
107.9551552955
  0
LINE
  8
LAY0001
 62
7
  6
CONTINUOUS
 10
176.1535810163
 20
108.2283267719
 11
176.156477472
 21
108.1755573812
  0
LINE
  8
LAY0001
 62
7
  6
CONTINUOUS
 10
177.6068948597
 20
110.2661320702
 11
177.6097910349
 21
110.2133623893
  0
LINE
  8
LAY0001
 62
7
  6
CONTINUOUS
 10
177.6932898142
 20
110.12986361
 11
177.6903936438
 21
110.182633286
  0
LINE
  8
LAY0001
 62
7
  6
CONTINUOUS
 10
178.3364131566
 20
110.6338223366
 11
178.3306203878
 21
110.7393612605
  0
LINE
  8
LAY0001
 62
7
  6
CONTINUOUS
 10
178.3729351811
 20
110.4476809366
 11
178.3758314941
 21
110.3949114033
  0
LINE
  8
LAY0001
 62
7
  6
CONTINUOUS
 10
178.5283473253
 20
110.4917613882
 11
178.5254508696
 21
110.5445307788
  0
LINE
  8
0
 62
7
  6
CONTINUOUS
 10
169.465299599
 20
228.461215565
 11
169.4819243881
 21
227.9335250634
  0
LINE
  8
0
 62
7
  6
CONTINUOUS
 10
173.908433092
 20
229.4099792783
 11
173.8918082818
 21
229.9376697492
  0
LINE
  8
0
 62
7
  6
CONTINUOUS
 10
169.9804517654
 20
228.1073183406
 11
169.9894504937
 21
228.4883387375
  0
LINE
  8
0
 62
7
  6
CONTINUOUS
 10
173.3932809256
 20
229.7638765027
 11
173.3842822395
 21
229.3828561672
  0
LINE
  8
0
 62
7
  6
CONTINUOUS
 10
85.132189208
 20
227.5146854426
 11
84.7817618537
 21
227.6645504625
  0
LINE
  8
0
 62
7
  6
CONTINUOUS
 10
104.9725469587
 20
239.189592267
 11
104.542388687
 21
239.4956927059
  0
LINE
  8
0
 62
7
  6
CONTINUOUS
 10
104.3457056677
 20
239.0946589678
 11
104.6435949633
 21
238.8569187034
  0
LINE
  8
0
 62
7
  6
CONTINUOUS
 10
116.6110378274
 20
240.1937567932
 11
116.3622838252
 21
240.4825125935
  0
LINE
  8
0
 62
7
  6
CONTINUOUS
 10
118.4740594905
 20
243.5551213851
 11
118.7228135321
 21
243.2663652893
  0
LINE
  8
0
 62
7
  6
CONTINUOUS
 10
124.2538591821
 20
240.7322378318
 11
121.3742112656
 21
244.8061849114
  0
LINE
  8
0
 62
7
  6
CONTINUOUS
 10
121.1045702947
 20
244.1486333366
 11
123.9912475647
 21
239.9685357059
  0
LINE
  8
0
 62
7
  6
CONTINUOUS
 10
142.8307559959
 20
239.4207670009
 11
143.0428665485
 21
238.9372974955
  0
LINE
  8
0
 62
7
  6
CONTINUOUS
 10
146.6000961169
 20
241.9572336127
 11
146.3879855562
 21
242.4407030817
  0
LINE
  8
0
 62
7
  6
CONTINUOUS
 10
143.4406936695
 20
239.2843813916
 11
143.3070279372
 21
239.6413001387
  0
LINE
  8
0
 62
7
  6
CONTINUOUS
 10
145.9901584434
 20
242.0936192219
 11
146.1238288453
 21
241.736699507
  0
LINE
  8
0
 62
7
  6
CONTINUOUS
 10
150.9725516888
 20
238.5332573152
 11
150.7907082066
 21
239.0289049374
  0
LINE
  8
0
 62
7
  6
CONTINUOUS
 10
151.5642070136
 20
240.5769988425
 11
151.3823635315
 21
241.0726464647
  0
LINE
  8
0
 62
7
  6
CONTINUOUS
 10
155.5166084305
 20
236.9426789178
 11
155.3660778082
 21
237.4487166132
  0
LINE
  8
0
 62
7
  6
CONTINUOUS
 10
156.2347592563
 20
238.9454756737
 11
156.0842286339
 21
239.4515133691
  0
LINE
  8
0
 62
7
  6
CONTINUOUS
 10
165.5153625256
 20
234.6677974967
 11
165.4312675038
 21
235.1890092048
  0
LINE
  8
LAY0001
 62
7
  6
CONTINUOUS
 10
180.2014279898
 20
112.3596725149
 11
180.2043243564
 21
112.3069030351
  0
LINE
  8
LAY0001
 62
7
  6
CONTINUOUS
 10
180.3458199855
 20
112.3648998947
 11
180.3400272636
 21
112.4704388655
  0
LINE
  8
LAY0001
 62
7
  6
CONTINUOUS
 10
175.2379213194
 20
107.8971585299
 11
175.2297977742
 21
107.8055362054
  0
LINE
  8
LAY0001
 62
7
  6
CONTINUOUS
 10
176.297973012
 20
108.2335541517
 11
176.3060968475
 21
108.3251767567
  0
LINE
  8
0
 62
7
  6
CONTINUOUS
 10
170.5315909423
 20
229.2775080425
 11
170.8237813474
 21
229.3349150305
  0
LINE
  8
0
 62
7
  6
CONTINUOUS
 10
84.6122769349
 20
227.1678191116
 11
85.0493562753
 21
227.075765152
  0
LINE
  8
0
 62
7
  6
CONTINUOUS
 10
88.6547949031
 20
232.2527479423
 11
88.9425377921
 21
232.1760924361
  0
LINE
  8
0
 62
7
  6
CONTINUOUS
 10
89.1379911366
 20
232.6631912823
 11
88.8502482476
 21
232.7398467885
  0
LINE
  8
0
 62
7
  6
CONTINUOUS
 10
102.8033020189
 20
236.4568019316
 11
103.0678399828
 21
236.3200815473
  0
LINE
  8
0
 62
7
  6
CONTINUOUS
 10
103.4957050711
 20
236.6854133926
 11
103.0989003835
 21
236.8904947341
  0
LINE
  8
0
 62
7
  6
CONTINUOUS
 10
105.7887096177
 20
240.3276210438
 11
107.6380938231
 21
239.0612284349
  0
LINE
  8
0
 62
7
  6
CONTINUOUS
 10
110.0911584083
 20
237.9566937242
 11
108.2417719001
 21
239.2230857157
  0
LINE
  8
0
 62
7
  6
CONTINUOUS
 10
108.0225833781
 20
238.8338959663
 11
109.4874803313
 21
237.7948364434
  0
LINE
  8
0
 62
7
  6
CONTINUOUS
 10
107.8572823065
 20
239.4504183282
 11
106.3923876947
 21
240.4894783246
  0
LINE
  8
0
 62
7
  6
CONTINUOUS
 10
116.019710553
 20
239.9001134242
 11
116.4890505463
 21
239.5334948987
  0
LINE
  8
0
 62
7
  6
CONTINUOUS
 10
119.0653867748
 20
243.8487646802
 11
118.5960467864
 21
244.2153831687
  0
LINE
  8
0
 62
7
  6
CONTINUOUS
 10
145.6971700863
 20
240.3059614788
 11
145.8540504038
 21
240.0528619706
  0
LINE
  8
0
 62
7
  6
CONTINUOUS
 10
146.3303223289
 20
240.2733950357
 11
146.0949971991
 21
240.6530453386
  0
LINE
  8
0
 62
7
  6
CONTINUOUS
 10
150.2016675093
 20
238.8671764833
 11
150.3426198656
 21
238.6048690012
  0
LINE
  8
0
 62
7
  6
CONTINUOUS
 10
150.7933228341
 20
240.9109180106
 11
150.9342751904
 21
240.6486105285
  0
LINE
  8
0
 62
7
  6
CONTINUOUS
 10
154.7680857576
 20
237.3240950123
 11
154.8923793595
 21
237.0534958947
  0
LINE
  8
0
 62
7
  6
CONTINUOUS
 10
155.4862365834
 20
239.3268917681
 11
155.6105301853
 21
239.0562926506
  0
LINE
  8
0
 62
7
  6
CONTINUOUS
 10
164.8707161924
 20
235.2371300823
 11
164.9591148473
 21
234.9527773561
  0
LINE
  8
0
 62
7
  6
CONTINUOUS
 10
172.4550991613
 20
228.2142386866
 11
172.5063382934
 21
227.9209038158
  0
LINE
  8
0
 62
7
  6
CONTINUOUS
 10
173.030489146
 20
227.9480269269
 11
172.9536265175
 21
228.3880319332
  0
LINE
  8
LAY0001
 62
7
  6
CONTINUOUS
 10
177.0373808076
 20
109.1399594863
 11
177.0153407959
 21
109.0622536283
  0
LINE
  8
LAY0001
 62
7
  6
CONTINUOUS
 10
177.0710066422
 20
109.0065877819
 11
177.0930466539
 21
109.08429364
  0
LINE
  8
LAY0001
 62
7
  6
CONTINUOUS
 10
177.6903936438
 20
110.182633286
 11
177.7234539371
 21
110.2991923683
  0
LINE
  8
LAY0001
 62
7
  6
CONTINUOUS
 10
178.194917474
 20
110.5758254234
 11
178.1728773195
 21
110.4981194227
  0
LINE
  8
LAY0001
 62
7
  6
CONTINUOUS
 10
178.3143730217
 20
110.5561163163
 11
178.3364131566
 21
110.6338223366
  0
LINE
  8
LAY0001
 62
7
  6
CONTINUOUS
 10
178.5063070282
 20
110.4140552447
 11
178.5283473253
 21
110.4917613882
  0
LINE
  8
LAY0001
 62
7
  6
CONTINUOUS
 10
179.4023272941
 20
112.0615645046
 11
179.369266996
 21
111.9450054272
  0
LINE
  8
LAY0001
 62
7
  6
CONTINUOUS
 10
179.2567349724
 20
111.3593136511
 11
179.2346947466
 21
111.281607579
  0
LINE
  8
LAY0001
 62
7
  6
CONTINUOUS
 10
179.2903605929
 20
111.2259417326
 11
179.3124008187
 21
111.3036478048
  0
LINE
  8
LAY0001
 62
7
  6
CONTINUOUS
 10
180.2043243564
 20
112.3069030351
 11
180.1712640534
 21
112.1903439626
  0
LINE
  8
LAY0001
 62
7
  6
CONTINUOUS
 10
180.3237797865
 20
112.2871938494
 11
180.3458199855
 21
112.3648998947
  0
LINE
  8
0
 62
7
  6
CONTINUOUS
 10
164.041781462
 20
233.3907076253
 11
164.5581376899
 21
233.4847609366
  0
LINE
  8
0
 62
7
  6
CONTINUOUS
 10
85.5968795174
 20
227.5689382258
 11
85.132189208
 21
227.5146854426
  0
LINE
  8
0
 62
7
  6
CONTINUOUS
 10
171.6117695793
 20
226.9866419968
 11
171.2337178596
 21
226.9882196796
  0
LINE
  8
0
 62
7
  6
CONTINUOUS
 10
170.8237813474
 20
229.3349150305
 11
171.2018330671
 21
229.3333373476
  0
LINE
  8
0
 62
7
  6
CONTINUOUS
 10
171.4171608437
 20
229.8307493418
 11
170.6610574043
 21
229.8339047074
  0
LINE
  8
0
 62
7
  6
CONTINUOUS
 10
171.8478244263
 20
230.8255681758
 11
172.225876146
 21
230.823990493
  0
LINE
  8
0
 62
7
  6
CONTINUOUS
 10
85.0493562753
 20
227.075765152
 11
85.4273945883
 21
227.072206924
  0
LINE
  8
0
 62
7
  6
CONTINUOUS
 10
171.0183821855
 20
226.4908130317
 11
171.6283943685
 21
226.4589514952
  0
LINE
  8
0
 62
7
  6
CONTINUOUS
 10
88.8502482476
 20
232.7398467885
 11
88.4729240786
 21
232.7633428166
  0
LINE
  8
0
 62
7
  6
CONTINUOUS
 10
103.7268871518
 20
236.6497114644
 11
103.4957050711
 21
236.6854133926
  0
LINE
  8
0
 62
7
  6
CONTINUOUS
 10
104.542388687
 20
239.4956927059
 11
103.9477555496
 21
239.6354567367
  0
LINE
  8
0
 62
7
  6
CONTINUOUS
 10
103.0678399828
 20
236.3200815473
 11
103.4312910453
 21
236.216019427
  0
LINE
  8
0
 62
7
  6
CONTINUOUS
 10
103.9822546109
 20
239.1987210704
 11
104.3457056677
 21
239.0946589678
  0
LINE
  8
0
 62
7
  6
CONTINUOUS
 10
116.4890505463
 20
239.5334948987
 11
116.9302177959
 21
239.3777688633
  0
LINE
  8
0
 62
7
  6
CONTINUOUS
 10
116.9489570481
 20
240.0242391722
 11
116.6110378274
 21
240.1937567932
  0
LINE
  8
0
 62
7
  6
CONTINUOUS
 10
118.1361402796
 20
243.7246389322
 11
118.4740594905
 21
243.5551213851
  0
LINE
  8
0
 62
7
  6
CONTINUOUS
 10
143.0428665485
 20
238.9372974955
 11
143.4815057811
 21
238.5121849487
  0
LINE
  8
0
 62
7
  6
CONTINUOUS
 10
146.0949971991
 20
240.6530453386
 11
145.6563579604
 21
241.0781578581
  0
LINE
  8
0
 62
7
  6
CONTINUOUS
 10
143.6992333682
 20
239.0085502548
 11
143.4406936695
 21
239.2843813916
  0
LINE
  8
0
 62
7
  6
CONTINUOUS
 10
145.4386303876
 20
240.5817926157
 11
145.6971700863
 21
240.3059614788
  0
LINE
  8
0
 62
7
  6
CONTINUOUS
 10
145.7316187447
 20
242.3694503587
 11
145.9901584434
 21
242.0936192219
  0
LINE
  8
0
 62
7
  6
CONTINUOUS
 10
151.3823635315
 20
241.0726464647
 11
151.0708806371
 21
241.4950730409
  0
LINE
  8
0
 62
7
  6
CONTINUOUS
 10
156.0842286339
 20
239.4515133691
 11
155.7997383824
 21
239.892570171
  0
LINE
  8
0
 62
7
  6
CONTINUOUS
 10
165.4312675038
 20
235.1890092048
 11
165.205954502
 21
235.6630385611
  0
LINE
  8
0
 62
7
  6
CONTINUOUS
 10
169.4819243881
 20
227.9335250634
 11
169.7305017694
 21
227.3755560927
  0
LINE
  8
0
 62
7
  6
CONTINUOUS
 10
172.9536265175
 20
228.3880319332
 11
172.7050412598
 21
228.9460062809
  0
LINE
  8
0
 62
7
  6
CONTINUOUS
 10
170.1175522121
 20
227.7549987991
 11
169.9804517654
 21
228.1073183406
  0
LINE
  8
0
 62
7
  6
CONTINUOUS
 10
172.3179987146
 20
228.5665582282
 11
172.4550991613
 21
228.2142386866
  0
LINE
  8
0
 62
7
  6
CONTINUOUS
 10
173.2561804788
 20
230.1161960442
 11
173.3932809256
 21
229.7638765027
  0
LINE
  8
LAY0001
 62
7
  6
CONTINUOUS
 10
177.0153407959
 20
109.0622536283
 11
176.9683640313
 21
108.9596110173
  0
LINE
  8
LAY0001
 62
7
  6
CONTINUOUS
 10
177.6538716206
 20
110.3687746848
 11
177.6068948597
 21
110.2661320702
  0
LINE
  8
LAY0001
 62
7
  6
CONTINUOUS
 10
177.0240298776
 20
108.903945171
 11
177.0710066422
 21
109.0065877819
  0
LINE
  8
LAY0001
 62
7
  6
CONTINUOUS
 10
179.507866223
 20
112.055771731
 11
179.5548430232
 21
112.1584143776
  0
LINE
  8
LAY0001
 62
7
  6
CONTINUOUS
 10
179.2346947466
 20
111.281607579
 11
179.1877180534
 21
111.1789650394
  0
LINE
  8
LAY0001
 62
7
  6
CONTINUOUS
 10
179.2433838997
 20
111.1232991931
 11
179.2903605929
 21
111.2259417326
  0
LINE
  8
LAY0001
 62
7
  6
CONTINUOUS
 10
180.276803013
 20
112.1845512295
 11
180.3237797865
 21
112.2871938494
  0
LINE
  8
LAY0001
 62
7
  6
CONTINUOUS
 10
175.3098345478
 20
108.024737612
 11
175.2379213194
 21
107.8971585299
  0
LINE
  8
LAY0001
 62
7
  6
CONTINUOUS
 10
175.3794168643
 20
107.9551552955
 11
175.415373623
 21
108.0189449774
  0
LINE
  8
LAY0001
 62
7
  6
CONTINUOUS
 10
176.156477472
 20
108.1755573812
 11
176.1205207133
 21
108.1117676994
  0
LINE
  8
LAY0001
 62
7
  6
CONTINUOUS
 10
176.2260597799
 20
108.1059750733
 11
176.297973012
 21
108.2335541517
  0
LINE
  8
LAY0001
 62
7
  6
CONTINUOUS
 10
178.1728773195
 20
110.4981194227
 11
178.1369207035
 21
110.4343298835
  0
LINE
  8
LAY0001
 62
7
  6
CONTINUOUS
 10
178.242459647
 20
110.4285370952
 11
178.3143730217
 21
110.5561163163
  0
LINE
  8
LAY0001
 62
7
  6
CONTINUOUS
 10
178.3758314941
 20
110.3949114033
 11
178.3398748781
 21
110.3311218641
  0
LINE
  8
LAY0001
 62
7
  6
CONTINUOUS
 10
179.4742405938
 20
112.189143658
 11
179.4023272941
 21
112.0615645046
  0
LINE
  8
LAY0001
 62
7
  6
CONTINUOUS
 10
178.4703504122
 20
110.3502657055
 11
178.5063070282
 21
110.4140552447
  0
LINE
  8
LAY0001
 62
7
  6
CONTINUOUS
 10
180.1712640534
 20
112.1903439626
 11
180.1353073839
 21
112.1265543699
  0
LINE
  8
LAY0001
 62
7
  6
CONTINUOUS
 10
177.7234539371
 20
110.2991923683
 11
177.8203037744
 21
110.4517080617
  0
LINE
  8
LAY0001
 62
7
  6
CONTINUOUS
 10
180.2159097868
 20
112.0958250802
 11
180.276803013
 21
112.1845512295
  0
LINE
  8
LAY0001
 62
7
  6
CONTINUOUS
 10
175.415373623
 20
108.0189449774
 11
175.5012033117
 21
108.132607599
  0
LINE
  8
LAY0001
 62
7
  6
CONTINUOUS
 10
176.1205207133
 20
108.1117676994
 11
176.0346910197
 21
107.9981050826
  0
LINE
  8
LAY0001
 62
7
  6
CONTINUOUS
 10
176.9683640313
 20
108.9596110173
 11
176.8825340523
 21
108.8459481152
  0
LINE
  8
LAY0001
 62
7
  6
CONTINUOUS
 10
178.1369207035
 20
110.4343298835
 11
178.0510908672
 21
110.320667124
  0
LINE
  8
LAY0001
 62
7
  6
CONTINUOUS
 10
176.9381998987
 20
108.7902822688
 11
177.0240298776
 21
108.903945171
  0
LINE
  8
LAY0001
 62
7
  6
CONTINUOUS
 10
178.3398748781
 20
110.3311218641
 11
178.2540450418
 21
110.2174591047
  0
LINE
  8
LAY0001
 62
7
  6
CONTINUOUS
 10
179.1877180534
 20
111.1789650394
 11
179.1018882171
 21
111.06530228
  0
LINE
  8
LAY0001
 62
7
  6
CONTINUOUS
 10
179.1575540634
 20
111.0096364336
 11
179.2433838997
 21
111.1232991931
  0
LINE
  8
LAY0001
 62
7
  6
CONTINUOUS
 10
180.1353073839
 20
112.1265543699
 11
180.0494775832
 21
112.0128916461
  0
LINE
  8
LAY0001
 62
7
  6
CONTINUOUS
 10
177.7646379231
 20
110.5073739129
 11
177.6538716206
 21
110.3687746848
  0
LINE
  8
LAY0001
 62
7
  6
CONTINUOUS
 10
175.4455374605
 20
108.1882734503
 11
175.3098345478
 21
108.024737612
  0
LINE
  8
LAY0001
 62
7
  6
CONTINUOUS
 10
176.0903568661
 20
107.9424392362
 11
176.2260597799
 21
108.1059750733
  0
LINE
  8
LAY0001
 62
7
  6
CONTINUOUS
 10
178.1067567331
 20
110.2650012582
 11
178.242459647
 21
110.4285370952
  0
LINE
  8
LAY0001
 62
7
  6
CONTINUOUS
 10
180.0802068908
 20
111.932289261
 11
180.2159097868
 21
112.0958250802
  0
LINE
  8
LAY0001
 62
7
  6
CONTINUOUS
 10
179.634880081
 20
112.3776160708
 11
179.4742405938
 21
112.189143658
  0
LINE
  8
LAY0001
 62
7
  6
CONTINUOUS
 10
179.5548430232
 20
112.1584143776
 11
179.715482471
 21
112.3468867583
  0
LINE
  8
LAY0001
 62
7
  6
CONTINUOUS
 10
178.3097108881
 20
110.1617932583
 11
178.4703504122
 21
110.3502657055
  0
LINE
  8
LAY0001
 62
7
  6
CONTINUOUS
 10
179.0613391535
 20
111.8040751433
 11
178.9366563169
 21
111.6793923066
  0
LINE
  8
LAY0001
 62
7
  6
CONTINUOUS
 10
178.4877981904
 20
111.2305341802
 11
178.3631154251
 21
111.1058514148
  0
LINE
  8
LAY0001
 62
7
  6
CONTINUOUS
 10
177.9142572986
 20
110.6569932884
 11
177.7646379231
 21
110.5073739129
  0
LINE
  8
LAY0001
 62
7
  6
CONTINUOUS
 10
177.4903357823
 20
110.2330717721
 11
177.3656528743
 21
110.1083888641
  0
LINE
  8
LAY0001
 62
7
  6
CONTINUOUS
 10
177.1661602785
 20
109.9088962683
 11
177.0414776559
 21
109.7842136456
  0
LINE
  8
LAY0001
 62
7
  6
CONTINUOUS
 10
176.8419850601
 20
109.5847210499
 11
176.7173021521
 21
109.4600381418
  0
LINE
  8
LAY0001
 62
7
  6
CONTINUOUS
 10
176.2684440256
 20
109.0111800154
 11
176.143761403
 21
108.8864973928
  0
LINE
  8
LAY0001
 62
7
  6
CONTINUOUS
 10
175.595156836
 20
108.3378928257
 11
175.4455374605
 21
108.1882734503
  0
LINE
  8
LAY0001
 62
7
  6
CONTINUOUS
 10
175.5012033117
 20
108.132607599
 11
175.6508226872
 21
108.2822269745
  0
LINE
  8
LAY0001
 62
7
  6
CONTINUOUS
 10
177.8203037744
 20
110.4517080617
 11
177.9699231499
 21
110.6013274372
  0
LINE
  8
LAY0001
 62
7
  6
CONTINUOUS
 10
175.9309176016
 20
108.4509901865
 11
176.0556005097
 21
108.5756730945
  0
LINE
  8
LAY0001
 62
7
  6
CONTINUOUS
 10
179.399996242
 20
111.864402961
 11
179.5246790787
 21
111.9890857977
  0
LINE
  8
LAY0001
 62
7
  6
CONTINUOUS
 10
178.0510908672
 20
110.320667124
 11
177.7767885837
 21
110.0463648405
  0
LINE
  8
LAY0001
 62
7
  6
CONTINUOUS
 10
177.8324544496
 20
109.9906989747
 11
178.1067567331
 21
110.2650012582
  0
LINE
  8
LAY0001
 62
7
  6
CONTINUOUS
 10
179.6916766372
 20
111.8220882391
 11
179.5669938005
 21
111.6974054025
  0
LINE
  8
LAY0001
 62
7
  6
CONTINUOUS
 10
178.4976179464
 20
110.572363702
 11
178.3729351811
 21
110.4476809366
  0
LINE
  8
LAY0001
 62
7
  6
CONTINUOUS
 10
175.6049767346
 20
107.6797224902
 11
175.480294112
 21
107.5550398676
  0
LINE
  8
LAY0001
 62
7
  6
CONTINUOUS
 10
178.2540450418
 20
110.2174591047
 11
178.1044256663
 21
110.0678397292
  0
LINE
  8
LAY0001
 62
7
  6
CONTINUOUS
 10
176.0346910197
 20
107.9981050826
 11
175.8850716442
 21
107.8484857071
  0
LINE
  8
LAY0001
 62
7
  6
CONTINUOUS
 10
175.9407374906
 20
107.7928198607
 11
176.0903568661
 21
107.9424392362
  0
LINE
  8
LAY0001
 62
7
  6
CONTINUOUS
 10
176.8384537435
 20
108.6905361136
 11
176.9381998987
 21
108.7902822688
  0
LINE
  8
LAY0001
 62
7
  6
CONTINUOUS
 10
177.1626289619
 20
109.0147113321
 11
177.2873118699
 21
109.1393942401
  0
LINE
  8
LAY0001
 62
7
  6
CONTINUOUS
 10
177.4868044657
 20
109.3388868358
 11
177.6114870883
 21
109.4635694585
  0
LINE
  8
LAY0001
 62
7
  6
CONTINUOUS
 10
178.1600915127
 20
110.0121738828
 11
178.3097108881
 21
110.1617932583
  0
LINE
  8
LAY0001
 62
7
  6
CONTINUOUS
 10
179.0578077655
 20
110.9098901357
 11
179.1575540634
 21
111.0096364336
  0
LINE
  8
LAY0001
 62
7
  6
CONTINUOUS
 10
177.7506517432
 20
109.3244048036
 11
177.6259691205
 21
109.199722181
  0
LINE
  8
LAY0001
 62
7
  6
CONTINUOUS
 10
177.6955514285
 20
109.130139873
 11
177.8202340511
 21
109.2548224957
  0
LINE
  8
LAY0001
 62
7
  6
CONTINUOUS
 10
179.5907300895
 20
111.025318534
 11
179.7154129261
 21
111.1500013707
  0
LINE
  8
LAY0001
 62
7
  6
CONTINUOUS
 10
180.1295123111
 20
111.3166133822
 11
179.9515557921
 21
111.1386568633
  0
LINE
  8
LAY0001
 62
7
  6
CONTINUOUS
 10
179.4224055299
 20
110.6095066011
 11
178.8213647659
 21
110.008465837
  0
LINE
  8
LAY0001
 62
7
  6
CONTINUOUS
 10
178.6799434097
 20
109.8670444808
 11
178.0789026456
 21
109.2660037168
  0
LINE
  8
LAY0001
 62
7
  6
CONTINUOUS
 10
177.2657298473
 20
108.4528309184
 11
176.6646890833
 21
107.8517901544
  0
LINE
  8
LAY0001
 62
7
  6
CONTINUOUS
 10
176.523267727
 20
107.7103687982
 11
175.922226963
 21
107.1093280342
  0
LINE
  8
LAY0001
 62
7
  6
CONTINUOUS
 10
180.2709336673
 20
110.4680852448
 11
180.5537763798
 21
110.7509279573
  0
LINE
  8
LAY0001
 62
7
  6
CONTINUOUS
 10
178.856720105
 20
107.7810794763
 11
178.5738773925
 21
107.4982367638
  0
LINE
  8
LAY0001
 62
7
  6
CONTINUOUS
 10
180.0494775832
 20
112.0128916461
 11
179.8610052074
 21
111.8522521934
  0
LINE
  8
LAY0001
 62
7
  6
CONTINUOUS
 10
179.8917344792
 20
111.7716497726
 11
180.0802068908
 21
111.932289261
  0
LINE
  8
LAY0001
 62
7
  6
CONTINUOUS
 10
179.7984159014
 20
112.5133189656
 11
179.634880081
 21
112.3776160708
  0
LINE
  8
LAY0001
 62
7
  6
CONTINUOUS
 10
175.7586926743
 20
108.4735957384
 11
175.595156836
 21
108.3378928257
  0
LINE
  8
LAY0001
 62
7
  6
CONTINUOUS
 10
175.6508226872
 20
108.2822269745
 11
175.8143585291
 21
108.4179298835
  0
LINE
  8
LAY0001
 62
7
  6
CONTINUOUS
 10
177.9965558183
 20
109.8764711116
 11
178.1600915127
 21
110.0121738828
  0
LINE
  8
LAY0001
 62
7
  6
CONTINUOUS
 10
175.8850716442
 20
107.8484857071
 11
175.7215358072
 21
107.7127827932
  0
LINE
  8
LAY0001
 62
7
  6
CONTINUOUS
 10
175.7772016535
 20
107.6571169468
 11
175.9407374906
 21
107.7928198607
  0
LINE
  8
LAY0001
 62
7
  6
CONTINUOUS
 10
178.0279199166
 20
110.7428229808
 11
177.9142572986
 21
110.6569932884
  0
LINE
  8
LAY0001
 62
7
  6
CONTINUOUS
 10
179.1018882171
 20
111.06530228
 11
178.9882254576
 21
110.9794724437
  0
LINE
  8
LAY0001
 62
7
  6
CONTINUOUS
 10
178.1044256663
 20
110.0678397292
 11
177.9907629068
 21
109.9820098929
  0
LINE
  8
LAY0001
 62
7
  6
CONTINUOUS
 10
176.8825340523
 20
108.8459481152
 11
176.7688714355
 21
108.7601184216
  0
LINE
  8
LAY0001
 62
7
  6
CONTINUOUS
 10
176.0312292982
 20
108.300805555
 11
175.5377253313
 21
107.946466204
  0
LINE
  8
LAY0001
 62
7
  6
CONTINUOUS
 10
175.5046650283
 20
107.8299071315
 11
175.9981690147
 21
108.184246463
  0
LINE
  8
LAY0001
 62
7
  6
CONTINUOUS
 10
179.887142052
 20
112.5742121905
 11
179.7984159014
 21
112.5133189656
  0
LINE
  8
LAY0001
 62
7
  6
CONTINUOUS
 10
179.715482471
 20
112.3468867583
 11
179.8929347924
 21
112.4686732236
  0
LINE
  8
LAY0001
 62
7
  6
CONTINUOUS
 10
178.9690816162
 20
110.8489969096
 11
179.0578077655
 21
110.9098901357
  0
LINE
  8
LAY0001
 62
7
  6
CONTINUOUS
 10
175.8474188248
 20
108.5344889633
 11
175.7586926743
 21
108.4735957384
  0
LINE
  8
LAY0001
 62
7
  6
CONTINUOUS
 10
176.7497275941
 20
108.6296428875
 11
176.8384537435
 21
108.6905361136
  0
LINE
  8
LAY0001
 62
7
  6
CONTINUOUS
 10
175.6884755042
 20
107.5962237207
 11
175.7772016535
 21
107.6571169468
  0
LINE
  8
LAY0001
 62
7
  6
CONTINUOUS
 10
178.0917095997
 20
110.7787797383
 11
178.0279199166
 21
110.7428229808
  0
LINE
  8
LAY0001
 62
7
  6
CONTINUOUS
 10
179.7641553295
 20
111.6997364692
 11
179.8917344792
 21
111.7716497726
  0
LINE
  8
LAY0001
 62
7
  6
CONTINUOUS
 10
177.9699231499
 20
110.6013274372
 11
178.0975022331
 21
110.6732406643
  0
LINE
  8
LAY0001
 62
7
  6
CONTINUOUS
 10
178.9882254576
 20
110.9794724437
 11
178.9244359184
 21
110.9435158276
  0
LINE
  8
LAY0001
 62
7
  6
CONTINUOUS
 10
177.9907629068
 20
109.9820098929
 11
177.9269735103
 21
109.9460534196
  0
LINE
  8
LAY0001
 62
7
  6
CONTINUOUS
 10
175.8143585291
 20
108.4179298835
 11
175.878148211
 21
108.4538866422
  0
LINE
  8
LAY0001
 62
7
  6
CONTINUOUS
 10
176.7688714355
 20
108.7601184216
 11
176.7050817536
 21
108.7241616629
  0
LINE
  8
LAY0001
 62
7
  6
CONTINUOUS
 10
175.7215358072
 20
107.7127827932
 11
175.6577461253
 21
107.6768260345
  0
LINE
  8
LAY0001
 62
7
  6
CONTINUOUS
 10
179.9897846743
 20
112.6211889616
 11
179.887142052
 21
112.5742121905
  0
LINE
  8
LAY0001
 62
7
  6
CONTINUOUS
 10
179.8610052074
 20
111.8522521934
 11
179.7583625608
 21
111.8052753932
  0
LINE
  8
LAY0001
 62
7
  6
CONTINUOUS
 10
178.8664390053
 20
110.802020145
 11
178.9690816162
 21
110.8489969096
  0
LINE
  8
LAY0001
 62
7
  6
CONTINUOUS
 10
177.8939132074
 20
109.8294943471
 11
177.9965558183
 21
109.8764711116
  0
LINE
  8
LAY0001
 62
7
  6
CONTINUOUS
 10
175.9500614382
 20
108.5814657255
 11
175.8474188248
 21
108.5344889633
  0
LINE
  8
LAY0001
 62
7
  6
CONTINUOUS
 10
176.6470849832
 20
108.5826661229
 11
176.7497275941
 21
108.6296428875
  0
LINE
  8
LAY0001
 62
7
  6
CONTINUOUS
 10
175.9981690147
 20
108.184246463
 11
176.1008116257
 21
108.2312232276
  0
LINE
  8
LAY0001
 62
7
  6
CONTINUOUS
 10
175.5377253313
 20
107.946466204
 11
175.4350827204
 21
107.8994894394
  0
LINE
  8
LAY0001
 62
7
  6
CONTINUOUS
 10
175.5858328933
 20
107.5492469561
 11
175.6884755042
 21
107.5962237207
  0
LINE
  8
LAY0001
 62
7
  6
CONTINUOUS
 10
176.1727248577
 20
108.358802306
 11
176.0312292982
 21
108.300805555
  0
LINE
  8
LAY0001
 62
7
  6
CONTINUOUS
 10
175.3631694884
 20
107.771910361
 11
175.5046650283
 21
107.8299071315
  0
LINE
  8
0
 62
7
  6
CONTINUOUS
 10
128.3036105033
 20
93.7593974394
 11
115.8036105033
 21
90.0567287524
  0
LINE
  8
0
 62
7
  6
CONTINUOUS
 10
106.6703152044
 20
237.0395022605
 11
107.2739932814
 21
237.2013595413
  0
LINE
  8
0
 62
7
  6
CONTINUOUS
 10
109.4874803313
 20
237.7948364434
 11
110.0911584083
 21
237.9566937242
  0
LINE
  8
0
 62
7
  6
CONTINUOUS
 10
88.4729240786
 20
232.7633428166
 11
88.1498903304
 21
232.6953517655
  0
LINE
  8
0
 62
7
  6
CONTINUOUS
 10
150.6201730883
 20
239.1890253575
 11
150.8498737308
 21
239.2332790616
  0
LINE
  8
0
 62
7
  6
CONTINUOUS
 10
103.7613884975
 20
236.2129764837
 11
104.3882297915
 21
236.3079097741
  0
LINE
  8
0
 62
7
  6
CONTINUOUS
 10
117.4605526151
 20
239.3412814151
 11
118.2865487119
 21
239.4516153081
  0
LINE
  8
0
 62
7
  6
CONTINUOUS
 10
118.2020375645
 20
240.0842937713
 11
117.3760414677
 21
239.9739598783
  0
LINE
  8
0
 62
7
  6
CONTINUOUS
 10
155.20587667
 20
237.619175907
 11
155.4378928807
 21
237.6489962608
  0
LINE
  8
0
 62
7
  6
CONTINUOUS
 10
145.0207680965
 20
238.7130474078
 11
144.6925846907
 21
238.6774210463
  0
LINE
  8
0
 62
7
  6
CONTINUOUS
 10
144.1170956593
 20
240.8772954627
 11
144.4452790651
 21
240.9129218242
  0
LINE
  8
0
 62
7
  6
CONTINUOUS
 10
144.5117433976
 20
242.6422215772
 11
144.8399268034
 21
242.6778479387
  0
LINE
  8
0
 62
7
  6
CONTINUOUS
 10
104.1558999813
 20
236.6793274883
 11
103.7268871518
 21
236.6497114644
  0
LINE
  8
0
 62
7
  6
CONTINUOUS
 10
120.7691395025
 20
239.7551657656
 11
121.3927736279
 21
239.7964631937
  0
LINE
  8
0
 62
7
  6
CONTINUOUS
 10
123.9912475647
 20
239.9685357059
 11
124.9266987529
 21
240.0304818481
  0
LINE
  8
0
 62
7
  6
CONTINUOUS
 10
88.4213424349
 20
232.2379163694
 11
88.6547949031
 21
232.2527479423
  0
LINE
  8
0
 62
7
  6
CONTINUOUS
 10
149.8170915399
 20
237.538744462
 11
149.4873342473
 21
237.5234567739
  0
LINE
  8
0
 62
7
  6
CONTINUOUS
 10
150.4383296061
 20
239.6846729797
 11
150.1085723134
 21
239.6693852917
  0
LINE
  8
0
 62
7
  6
CONTINUOUS
 10
125.7609781989
 20
240.0523504797
 11
129.5109688315
 21
240.0607323292
  0
LINE
  8
0
 62
7
  6
CONTINUOUS
 10
129.5095421337
 20
240.6990286055
 11
126.3845499399
 21
240.692043731
  0
LINE
  8
0
 62
7
  6
CONTINUOUS
 10
103.4312910453
 20
236.216019427
 11
103.7613884975
 21
236.2129764837
  0
LINE
  8
0
 62
7
  6
CONTINUOUS
 10
154.3012877108
 20
236.022277093
 11
153.9712194072
 21
236.0276156695
  0
LINE
  8
0
 62
7
  6
CONTINUOUS
 10
155.0553460477
 20
238.1252136024
 11
154.725277744
 21
238.130552179
  0
LINE
  8
0
 62
7
  6
CONTINUOUS
 10
144.4748524481
 20
238.1810567717
 11
145.0063499649
 21
238.1712209256
  0
LINE
  8
0
 62
7
  6
CONTINUOUS
 10
144.6630112914
 20
241.4092860261
 11
144.1315137766
 21
241.4191218812
  0
LINE
  8
0
 62
7
  6
CONTINUOUS
 10
172.4412039226
 20
231.3214024871
 11
171.831199616
 21
231.3532586467
  0
LINE
  8
0
 62
7
  6
CONTINUOUS
 10
116.9302177959
 20
239.3777688633
 11
117.4605526151
 21
239.3412814151
  0
LINE
  8
0
 62
7
  6
CONTINUOUS
 10
149.2097810039
 20
236.9393003461
 11
149.7396561796
 21
236.896654685
  0
LINE
  8
0
 62
7
  6
CONTINUOUS
 10
117.3760414677
 20
239.9739598783
 11
116.9489570481
 21
240.0242391722
  0
LINE
  8
0
 62
7
  6
CONTINUOUS
 10
135.3350469704
 20
239.706696865
 11
139.4674546771
 21
239.1734948284
  0
LINE
  8
0
 62
7
  6
CONTINUOUS
 10
139.5491367221
 20
239.8065447595
 11
136.036590408
 21
240.2597664601
  0
LINE
  8
0
 62
7
  6
CONTINUOUS
 10
153.6577220715
 20
235.4619355871
 11
154.1838990527
 21
235.3862775493
  0
LINE
  8
0
 62
7
  6
CONTINUOUS
 10
164.2401224001
 20
234.0062840372
 11
163.9134913566
 21
234.0540935223
  0
LINE
  8
0
 62
7
  6
CONTINUOUS
 10
140.9017950972
 20
238.9041224799
 11
141.5171900449
 21
238.7949709416
  0
LINE
  8
0
 62
7
  6
CONTINUOUS
 10
143.9665741558
 20
238.2947107523
 11
144.4748524481
 21
238.1810567717
  0
LINE
  8
0
 62
7
  6
CONTINUOUS
 10
144.6925846907
 20
238.6774210463
 11
143.9809876359
 21
238.8365382841
  0
LINE
  8
0
 62
7
  6
CONTINUOUS
 10
163.5297373549
 20
233.5335089474
 11
164.041781462
 21
233.3907076253
  0
LINE
  8
0
 62
7
  6
CONTINUOUS
 10
171.2337178596
 20
226.9882196796
 11
170.9159039582
 21
227.0774828271
  0
LINE
  8
0
 62
7
  6
CONTINUOUS
 10
171.2018330671
 20
229.3333373476
 11
171.5196469685
 21
229.2440742002
  0
LINE
  8
0
 62
7
  6
CONTINUOUS
 10
172.225876146
 20
230.823990493
 11
172.5436900474
 21
230.7347273455
  0
LINE
  8
0
 62
7
  6
CONTINUOUS
 10
146.8083847594
 20
237.6344953382
 11
149.2097810039
 21
236.9393003461
  0
LINE
  8
0
 62
7
  6
CONTINUOUS
 10
149.4873342473
 20
237.5234567739
 11
147.5862304138
 21
238.0738190341
  0
LINE
  8
0
 62
7
  6
CONTINUOUS
 10
118.5960467864
 20
244.2153831687
 11
118.1548771773
 21
244.3711088609
  0
LINE
  8
0
 62
7
  6
CONTINUOUS
 10
151.3044359325
 20
236.3057627898
 11
153.6577220715
 21
235.4619355871
  0
LINE
  8
0
 62
7
  6
CONTINUOUS
 10
153.9712194072
 20
236.0276156695
 11
152.10820271
 21
236.6956450018
  0
LINE
  8
0
 62
7
  6
CONTINUOUS
 10
170.5288535102
 20
226.698040113
 11
171.0183821855
 21
226.4908130317
  0
LINE
  8
0
 62
7
  6
CONTINUOUS
 10
171.9066973744
 20
229.6235168528
 11
171.4171608437
 21
229.8307493418
  0
LINE
  8
0
 62
7
  6
CONTINUOUS
 10
143.4815057811
 20
238.5121849487
 11
143.9665741558
 21
238.2947107523
  0
LINE
  8
0
 62
7
  6
CONTINUOUS
 10
145.6563579604
 20
241.0781578581
 11
145.1712895837
 21
241.2956320454
  0
LINE
  8
0
 62
7
  6
CONTINUOUS
 10
160.2860952144
 20
232.6851387832
 11
160.8423428928
 21
232.4001589237
  0
LINE
  8
0
 62
7
  6
CONTINUOUS
 10
164.4488349743
 20
230.5278506908
 11
164.985530842
 21
230.2075655903
  0
LINE
  8
0
 62
7
  6
CONTINUOUS
 10
167.4901142877
 20
228.7129001588
 11
168.0268101553
 21
228.3926150583
  0
LINE
  8
0
 62
7
  6
CONTINUOUS
 10
165.9975301695
 20
231.0902704155
 11
167.7865136654
 21
230.0226550429
  0
LINE
  8
0
 62
7
  6
CONTINUOUS
 10
167.9151280497
 20
230.4414474309
 11
166.3050404467
 21
231.4023027325
  0
LINE
  8
0
 62
7
  6
CONTINUOUS
 10
143.9809876359
 20
238.8365382841
 11
143.6992333682
 21
239.0085502548
  0
LINE
  8
0
 62
7
  6
CONTINUOUS
 10
145.1568761198
 20
240.7538045864
 11
145.4386303876
 21
240.5817926157
  0
LINE
  8
0
 62
7
  6
CONTINUOUS
 10
145.4498644769
 20
242.5414623294
 11
145.7316187447
 21
242.3694503587
  0
LINE
  8
0
 62
7
  6
CONTINUOUS
 10
170.0995626583
 20
226.9929526666
 11
170.5288535102
 21
226.698040113
  0
LINE
  8
0
 62
7
  6
CONTINUOUS
 10
170.9159039582
 20
227.0774828271
 11
170.3148904771
 21
227.4903647222
  0
LINE
  8
0
 62
7
  6
CONTINUOUS
 10
149.9310757409
 20
239.0562629194
 11
150.2016675093
 21
238.8671764833
  0
LINE
  8
0
 62
7
  6
CONTINUOUS
 10
150.5227310657
 20
241.1000044467
 11
150.7933228341
 21
240.9109180106
  0
LINE
  8
0
 62
7
  6
CONTINUOUS
 10
154.5098325265
 20
237.5297132364
 11
154.7680857576
 21
237.3240950123
  0
LINE
  8
0
 62
7
  6
CONTINUOUS
 10
155.2279833522
 20
239.5325099922
 11
155.4862365834
 21
239.3268917681
  0
LINE
  8
0
 62
7
  6
CONTINUOUS
 10
150.7907082066
 20
239.0289049374
 11
150.6201730883
 21
239.1890253575
  0
LINE
  8
0
 62
7
  6
CONTINUOUS
 10
189.2989106424
 20
201.1384071108
 11
198.7555157871
 21
192.164423907
  0
LINE
  8
0
 62
7
  6
CONTINUOUS
 10
146.3879855562
 20
242.4407030817
 11
145.949350971
 21
242.8658145606
  0
LINE
  8
0
 62
7
  6
CONTINUOUS
 10
164.6410995575
 20
235.4743004567
 11
164.8707161924
 21
235.2371300823
  0
LINE
  8
0
 62
7
  6
CONTINUOUS
 10
169.7305017694
 20
227.3755560927
 11
170.0995626583
 21
226.9929526666
  0
LINE
  8
0
 62
7
  6
CONTINUOUS
 10
172.7050412598
 20
228.9460062809
 11
172.3359882262
 21
229.3286042992
  0
LINE
  8
0
 62
7
  6
CONTINUOUS
 10
155.3660778082
 20
237.4487166132
 11
155.20587667
 21
237.619175907
  0
LINE
  8
0
 62
7
  6
CONTINUOUS
 10
170.3148904771
 20
227.4903647222
 11
170.1175522121
 21
227.7549987991
  0
LINE
  8
0
 62
7
  6
CONTINUOUS
 10
172.1206604496
 20
228.831192305
 11
172.3179987146
 21
228.5665582282
  0
LINE
  8
0
 62
7
  6
CONTINUOUS
 10
173.0588422139
 20
230.3808301211
 11
173.2561804788
 21
230.1161960442
  0
LINE
  8
0
 62
7
  6
CONTINUOUS
 10
185.8894903833
 20
212.4490335978
 11
191.6394903833
 21
202.4897414543
  0
LINE
  8
0
 62
7
  6
CONTINUOUS
 10
193.3715411909
 20
203.4897414543
 11
187.6215411909
 21
213.4490335978
  0
LINE
  8
0
 62
7
  6
CONTINUOUS
 10
173.8918082818
 20
229.9376697492
 11
173.6432308847
 21
230.4956386969
  0
LINE
  8
0
 62
7
  6
CONTINUOUS
 10
198.7555157871
 20
192.164423907
 11
195.7121209319
 21
204.8410757978
  0
LINE
  8
0
 62
7
  6
CONTINUOUS
 10
212.5486105033
 20
168.0567287524
 11
212.5486105033
 21
178.0567287524
  0
LINE
  8
0
 62
7
  6
CONTINUOUS
 10
213.0486105033
 20
164.3567287524
 11
213.0486105033
 21
166.7338543649
  0
LINE
  8
0
 62
7
  6
CONTINUOUS
 10
213.0486105033
 20
179.3796031036
 11
213.0486105033
 21
182.0567287524
  0
LINE
  8
0
 62
7
  6
CONTINUOUS
 10
207.245831783
 20
135.3978598742
 11
211.0726661067
 21
144.6366551993
  0
LINE
  8
0
 62
7
  6
CONTINUOUS
 10
206.2918428496
 20
131.7881638877
 11
207.2015299172
 21
133.984342744
  0
LINE
  8
0
 62
7
  6
CONTINUOUS
 10
212.04084846
 20
145.6674912025
 11
213.0653396024
 21
148.1408316131
  0
LINE
  8
LAY0001
 62
7
  6
CONTINUOUS
 10
177.5485725598
 20
105.4829824374
 11
178.1496133238
 21
106.0840232015
  0
LINE
  8
LAY0001
 62
7
  6
CONTINUOUS
 10
178.9981414612
 20
106.9325513389
 11
179.1760979802
 21
107.1105078579
  0
LINE
  8
LAY0001
 62
7
  6
CONTINUOUS
 10
179.7052482424
 20
107.6396581201
 11
180.3062890064
 21
108.2406988841
  0
LINE
  8
LAY0001
 62
7
  6
CONTINUOUS
 10
180.4477103626
 20
108.3821202403
 11
181.0487511266
 21
108.9831610043
  0
LINE
  8
LAY0001
 62
7
  6
CONTINUOUS
 10
181.861923925
 20
109.7963338027
 11
182.462964689
 21
110.3973745667
  0
LINE
  8
0
 62
7
  6
CONTINUOUS
 10
189.8486950185
 20
107.2542849243
 11
196.9197628304
 21
114.3253527362
  0
LINE
  8
0
 62
7
  6
CONTINUOUS
 10
187.5859533187
 20
104.2844364433
 11
189.2668340624
 21
105.965317187
  0
LINE
  8
0
 62
7
  6
CONTINUOUS
 10
198.2087305676
 20
114.9072136923
 11
200.1017433457
 21
116.8002264703
  0
LINE
  8
0
 62
7
  6
CONTINUOUS
 10
163.0057565766
 20
87.9106080668
 11
172.2445519017
 21
91.7374423905
  0
LINE
  8
0
 62
7
  6
CONTINUOUS
 10
159.7787440225
 20
86.0327396008
 11
161.9749205654
 21
86.9424257103
  0
LINE
  8
0
 62
7
  6
CONTINUOUS
 10
173.6580689729
 20
91.7817442319
 11
176.1314117479
 21
92.8062363537
  0
LINE
  8
0
 62
7
  6
CONTINUOUS
 10
109.2095528216
 20
241.2448125076
 11
108.6058747446
 21
241.0829552267
  0
LINE
  8
0
 62
7
  6
CONTINUOUS
 10
106.3923876947
 20
240.4894783246
 11
105.7887096177
 21
240.3276210438
  0
LINE
  8
0
 62
7
  6
CONTINUOUS
 10
103.3554133199
 20
239.1037877713
 11
103.9822546109
 21
239.1987210704
  0
LINE
  8
0
 62
7
  6
CONTINUOUS
 10
103.9477555496
 20
239.6354567367
 11
103.3209142585
 21
239.5405234375
  0
LINE
  8
0
 62
7
  6
CONTINUOUS
 10
116.8830597632
 20
243.6645843331
 11
117.7090558601
 21
243.7749182261
  0
LINE
  8
0
 62
7
  6
CONTINUOUS
 10
117.6245447226
 20
244.4075966154
 11
116.7985486257
 21
244.2972627224
  0
LINE
  8
0
 62
7
  6
CONTINUOUS
 10
124.5963193278
 20
245.0195548517
 11
123.9726852024
 21
244.9782574236
  0
LINE
  8
0
 62
7
  6
CONTINUOUS
 10
121.3742112656
 20
244.8061849114
 11
120.4387600775
 21
244.7442387692
  0
LINE
  8
0
 62
7
  6
CONTINUOUS
 10
126.3807454124
 20
242.3941671593
 11
129.0890735699
 21
242.4002207207
  0
LINE
  8
0
 62
7
  6
CONTINUOUS
 10
129.0876468723
 20
243.0385169225
 11
126.3793187148
 21
243.0324633611
  0
LINE
  8
0
 62
7
  6
CONTINUOUS
 10
126.376227536
 20
244.415438763
 11
129.5012197299
 21
244.4224236375
  0
LINE
  8
0
 62
7
  6
CONTINUOUS
 10
129.4997930323
 20
245.0607198393
 11
125.7498023997
 21
245.0523379899
  0
LINE
  8
0
 62
7
  6
CONTINUOUS
 10
124.8036105033
 20
249.8017287524
 11
114.8036105033
 21
249.8017287524
  0
LINE
  8
0
 62
7
  6
CONTINUOUS
 10
128.5036105033
 20
250.3017287524
 11
126.1264848908
 21
250.3017287524
  0
LINE
  8
0
 62
7
  6
CONTINUOUS
 10
113.4807361521
 20
250.3017287524
 11
110.8036105033
 21
250.3017287524
  0
LINE
  8
0
 62
7
  6
CONTINUOUS
 10
145.0576590297
 20
243.1742121406
 11
144.5261615149
 21
243.1840479957
  0
LINE
  8
0
 62
7
  6
CONTINUOUS
 10
118.1548771773
 20
244.3711088609
 11
117.6245447226
 21
244.4075966154
  0
LINE
  8
0
 62
7
  6
CONTINUOUS
 10
117.7090558601
 20
243.7749182261
 11
118.1361402796
 21
243.7246389322
  0
LINE
  8
0
 62
7
  6
CONTINUOUS
 10
135.9068212955
 20
244.1380464569
 11
139.5226762654
 21
243.6714949037
  0
LINE
  8
0
 62
7
  6
CONTINUOUS
 10
140.1072973651
 20
244.132385968
 11
135.9748896585
 21
244.6655880046
  0
LINE
  8
0
 62
7
  6
CONTINUOUS
 10
142.3904023512
 20
243.7181305235
 11
141.7750074035
 21
243.8272820617
  0
LINE
  8
0
 62
7
  6
CONTINUOUS
 10
144.4452790651
 20
240.9129218242
 11
145.1568761198
 21
240.7538045864
  0
LINE
  8
0
 62
7
  6
CONTINUOUS
 10
145.1712895837
 20
241.2956320454
 11
144.6630112914
 21
241.4092860261
  0
LINE
  8
0
 62
7
  6
CONTINUOUS
 10
146.1238288453
 20
241.736699507
 11
146.6321117911
 21
241.6230444858
  0
LINE
  8
0
 62
7
  6
CONTINUOUS
 10
144.8399268034
 20
242.6778479387
 11
145.4498644769
 21
242.5414623294
  0
LINE
  8
0
 62
7
  6
CONTINUOUS
 10
145.4642825942
 20
243.0832887479
 11
145.0576590297
 21
243.1742121406
  0
LINE
  8
0
 62
7
  6
CONTINUOUS
 10
148.0299719074
 20
239.6066251795
 11
149.9310757409
 21
239.0562629194
  0
LINE
  8
0
 62
7
  6
CONTINUOUS
 10
150.1085723134
 20
239.6693852917
 11
148.20746848
 21
240.2197475518
  0
LINE
  8
0
 62
7
  6
CONTINUOUS
 10
148.6216272322
 20
241.6503667068
 11
150.5227310657
 21
241.1000044467
  0
LINE
  8
0
 62
7
  6
CONTINUOUS
 10
150.6001709882
 20
241.742092835
 11
148.1987747437
 21
242.4372878271
  0
LINE
  8
0
 62
7
  6
CONTINUOUS
 10
152.6468158293
 20
238.1977425687
 11
154.5098325265
 21
237.5297132364
  0
LINE
  8
0
 62
7
  6
CONTINUOUS
 10
154.725277744
 20
238.130552179
 11
152.8622610468
 21
238.7985815113
  0
LINE
  8
0
 62
7
  6
CONTINUOUS
 10
153.364966655
 20
240.2005393245
 11
155.2279833522
 21
239.5325099922
  0
LINE
  8
0
 62
7
  6
CONTINUOUS
 10
155.3453764768
 20
240.1685078651
 11
152.9920903378
 21
241.0123350678
  0
LINE
  8
0
 62
7
  6
CONTINUOUS
 10
157.4624793815
 20
244.4989500322
 11
148.2236840564
 21
248.3257843558
  0
LINE
  8
0
 62
7
  6
CONTINUOUS
 10
161.072175368
 20
243.5449610987
 11
158.8759965117
 21
244.4546481664
  0
LINE
  8
0
 62
7
  6
CONTINUOUS
 10
147.1928480304
 20
249.2939667185
 11
144.7195076426
 21
250.3184578515
  0
LINE
  8
0
 62
7
  6
CONTINUOUS
 10
172.9307404532
 20
231.1141699981
 11
172.4412039226
 21
231.3214024871
  0
LINE
  8
0
 62
7
  6
CONTINUOUS
 10
145.949350971
 20
242.8658145606
 11
145.4642825942
 21
243.0832887479
  0
LINE
  8
0
 62
7
  6
CONTINUOUS
 10
161.8609943198
 20
234.3884485257
 11
163.5297373549
 21
233.5335089474
  0
LINE
  8
0
 62
7
  6
CONTINUOUS
 10
163.9134913566
 20
234.0540935223
 11
162.1520375458
 21
234.9565311934
  0
LINE
  8
0
 62
7
  6
CONTINUOUS
 10
162.8796457467
 20
236.3767381278
 11
164.6410995575
 21
235.4743004567
  0
LINE
  8
0
 62
7
  6
CONTINUOUS
 10
164.7909248036
 20
235.9952007724
 11
162.56593409
 21
237.1351202103
  0
LINE
  8
0
 62
7
  6
CONTINUOUS
 10
151.0708806371
 20
241.4950730409
 11
150.6001709882
 21
241.742092835
  0
LINE
  8
0
 62
7
  6
CONTINUOUS
 10
169.1578992492
 20
233.5402772302
 11
168.4423074887
 21
233.9673224018
  0
LINE
  8
0
 62
7
  6
CONTINUOUS
 10
155.7997383824
 20
239.892570171
 11
155.3453764768
 21
240.1685078651
  0
LINE
  8
0
 62
7
  6
CONTINUOUS
 10
171.5196469685
 20
229.2440742002
 11
172.1206604496
 21
228.831192305
  0
LINE
  8
0
 62
7
  6
CONTINUOUS
 10
172.3359882262
 20
229.3286042992
 11
171.9066973744
 21
229.6235168528
  0
LINE
  8
0
 62
7
  6
CONTINUOUS
 10
173.3842822395
 20
229.3828561672
 11
173.8135809519
 21
229.0879382135
  0
LINE
  8
0
 62
7
  6
CONTINUOUS
 10
172.5436900474
 20
230.7347273455
 11
173.0588422139
 21
230.3808301211
  0
LINE
  8
0
 62
7
  6
CONTINUOUS
 10
173.2741699905
 20
230.8782421153
 11
172.9307404532
 21
231.1141699981
  0
LINE
  8
0
 62
7
  6
CONTINUOUS
 10
165.205954502
 20
235.6630385611
 11
164.7909248036
 21
235.9952007724
  0
LINE
  8
0
 62
7
  6
CONTINUOUS
 10
185.6060543314
 20
227.1018132676
 11
178.5349865195
 21
234.1728810795
  0
LINE
  8
0
 62
7
  6
CONTINUOUS
 10
188.5759028124
 20
224.8390715678
 11
186.8950220687
 21
226.5199523115
  0
LINE
  8
0
 62
7
  6
CONTINUOUS
 10
177.9531255634
 20
235.4618488168
 11
176.0601127854
 21
237.3548615948
  0
LINE
  8
0
 62
7
  6
CONTINUOUS
 10
173.6432308847
 20
230.4956386969
 11
173.2741699905
 21
230.8782421153
  0
LINE
  8
0
 62
7
  6
CONTINUOUS
 10
204.9497311889
 20
200.2588748257
 11
201.1228968652
 21
209.4976701508
  0
LINE
  8
0
 62
7
  6
CONTINUOUS
 10
206.8275996549
 20
197.0318622716
 11
205.9179135454
 21
199.2280388145
  0
LINE
  8
0
 62
7
  6
CONTINUOUS
 10
201.0785950238
 20
210.911187222
 11
200.054102902
 21
213.3845299971
  0
LINE
  8
0
 62
7
  6
CONTINUOUS
 10
227.6487123303
 20
156.0557209676
 11
227.8228619621
 21
158.2587998314
  0
LINE
  8
0
 62
7
  6
CONTINUOUS
 10
216.603919949
 20
118.531815616
 11
217.6078950107
 21
120.500550908
  0
LINE
  8
0
 62
7
  6
CONTINUOUS
 10
192.0400854313
 20
88.0909065401
 11
193.721039821
 21
89.5255761586
  0
LINE
  8
0
 62
7
  6
CONTINUOUS
 10
157.6968299109
 20
69.367346199
 11
159.7988535606
 21
70.0495347
  0
LINE
  8
0
 62
7
  6
CONTINUOUS
 10
136.8046182881
 20
264.9018305795
 11
134.6015394243
 21
265.0759802112
  0
LINE
  8
0
 62
7
  6
CONTINUOUS
 10
174.3285236397
 20
253.8570381981
 11
172.3597883477
 21
254.8610132599
  0
LINE
  8
0
 62
7
  6
CONTINUOUS
 10
204.7694327156
 20
229.2932036804
 11
203.3347630971
 21
230.9741580701
  0
LINE
  8
0
 62
7
  6
CONTINUOUS
 10
223.4929930567
 20
194.94994816
 11
222.8108045557
 21
197.0519718097
  0
POLYLINE
  8
0
 62
7
  6
CONTINUOUS
 66
1
 70
0
  0
VERTEX
  8
0
 62
7
  6
CONTINUOUS
 10
335.1169281176
 20
65.0342070856
  0
VERTEX
  8
0
 62
7
  6
CONTINUOUS
 10
335.2043142401
 20
65.0425762595
  0
VERTEX
  8
0
 62
7
  6
CONTINUOUS
 10
335.2882263941
 20
65.0580233816
  0
VERTEX
  8
0
 62
7
  6
CONTINUOUS
 10
335.3682838369
 20
65.0798536436
  0
VERTEX
  8
0
 62
7
  6
CONTINUOUS
 10
335.4442004986
 20
65.1074009882
  0
VERTEX
  8
0
 62
7
  6
CONTINUOUS
 10
335.5157727209
 20
65.1400352932
  0
VERTEX
  8
0
 62
7
  6
CONTINUOUS
 10
335.5828668904
 20
65.1771673088
  0
VERTEX
  8
0
 62
7
  6
CONTINUOUS
 10
335.6454074966
 20
65.2182514574
  0
VERTEX
  8
0
 62
7
  6
CONTINUOUS
 10
335.7033664804
 20
65.2627871295
  0
VERTEX
  8
0
 62
7
  6
CONTINUOUS
 10
335.7567030815
 20
65.3102703722
  0
VERTEX
  8
0
 62
7
  6
CONTINUOUS
 10
335.8053949914
 20
65.3602003269
  0
VERTEX
  8
0
 62
7
  6
CONTINUOUS
 10
335.8494722773
 20
65.4121108944
  0
VERTEX
  8
0
 62
7
  6
CONTINUOUS
 10
335.8890089519
 20
65.4655751472
  0
VERTEX
  8
0
 62
7
  6
CONTINUOUS
 10
335.9241047262
 20
65.5201912883
  0
VERTEX
  8
0
 62
7
  6
CONTINUOUS
 10
335.954928924
 20
65.5756701556
  0
VERTEX
  8
0
 62
7
  6
CONTINUOUS
 10
335.981266724
 20
65.6308787246
  0
VERTEX
  8
0
 62
7
  6
CONTINUOUS
 10
336.002742961
 20
65.6836279968
  0
VERTEX
  8
0
 62
7
  6
CONTINUOUS
 10
336.0194806856
 20
65.7318980099
  0
VERTEX
  8
0
 62
7
  6
CONTINUOUS
 10
336.0313021465
 20
65.7715269048
  0
SEQEND
  0
LINE
  8
0
 62
7
  6
CONTINUOUS
 10
335.0653635492
 20
65.0328769109
 11
335.1169281176
 21
65.0342070856
  0
LINE
  8
0
 62
7
  6
CONTINUOUS
 10
329.1971108618
 20
65.0328738314
 11
335.0657447181
 21
65.0328738314
  0
LINE
  8
0
 62
7
  6
CONTINUOUS
 10
329.149609204
 20
65.0340238132
 11
329.1974920312
 21
65.032876911
  0
POLYLINE
  8
0
 62
7
  6
CONTINUOUS
 66
1
 70
0
  0
VERTEX
  8
0
 62
7
  6
CONTINUOUS
 10
335.083158231
 20
75.0440529903
  0
VERTEX
  8
0
 62
7
  6
CONTINUOUS
 10
335.1991932261
 20
75.0507662417
  0
VERTEX
  8
0
 62
7
  6
CONTINUOUS
 10
335.3484168019
 20
75.0796387789
  0
VERTEX
  8
0
 62
7
  6
CONTINUOUS
 10
335.4848781217
 20
75.1276725506
  0
VERTEX
  8
0
 62
7
  6
CONTINUOUS
 10
335.6071590371
 20
75.1910868728
  0
VERTEX
  8
0
 62
7
  6
CONTINUOUS
 10
335.7146356721
 20
75.2664061149
  0
VERTEX
  8
0
 62
7
  6
CONTINUOUS
 10
335.8066566059
 20
75.3498719867
  0
VERTEX
  8
0
 62
7
  6
CONTINUOUS
 10
335.8821711525
 20
75.436316845
  0
VERTEX
  8
0
 62
7
  6
CONTINUOUS
 10
335.9418056692
 20
75.5209084124
  0
VERTEX
  8
0
 62
7
  6
CONTINUOUS
 10
335.9886856445
 20
75.6021252132
  0
VERTEX
  8
0
 62
7
  6
CONTINUOUS
 10
336.0262100363
 20
75.6805861588
  0
VERTEX
  8
0
 62
7
  6
CONTINUOUS
 10
336.057321186
 20
75.758065305
  0
VERTEX
  8
0
 62
7
  6
CONTINUOUS
 10
336.0842072726
 20
75.8363077618
  0
VERTEX
  8
0
 62
7
  6
CONTINUOUS
 10
336.1091852645
 20
75.9193119831
  0
SEQEND
  0
LINE
  8
0
 62
7
  6
CONTINUOUS
 10
329.1793551271
 20
75.0440509184
 11
335.0835004527
 21
75.0440509184
  0
LINE
  8
0
 62
7
  6
CONTINUOUS
 10
327.4814277899
 20
86.3540600654
 11
327.6314277899
 21
86.3540600654
  0
LINE
  8
0
 62
7
  6
CONTINUOUS
 10
336.6314277899
 20
86.3540600654
 11
336.7814277899
 21
86.3540600654
  0
LINE
  8
0
 62
7
  6
CONTINUOUS
 10
327.4814277899
 20
90.0567287524
 11
327.6314277899
 21
90.0567287524
  0
LINE
  8
0
 62
7
  6
CONTINUOUS
 10
336.6314277899
 20
90.0567287524
 11
336.7814277899
 21
90.0567287524
  0
LINE
  8
0
 62
7
  6
CONTINUOUS
 10
327.4814277899
 20
93.7593974394
 11
327.6314277899
 21
93.7593974394
  0
LINE
  8
0
 62
7
  6
CONTINUOUS
 10
336.6314277899
 20
93.7593974394
 11
336.7814277899
 21
93.7593974394
  0
POLYLINE
  8
0
 62
7
  6
CONTINUOUS
 66
1
 70
0
  0
VERTEX
  8
0
 62
7
  6
CONTINUOUS
 10
335.1248301801
 20
98.4543618425
  0
VERTEX
  8
0
 62
7
  6
CONTINUOUS
 10
335.3209723741
 20
98.4734351354
  0
VERTEX
  8
0
 62
7
  6
CONTINUOUS
 10
335.4972226403
 20
98.5248474915
  0
VERTEX
  8
0
 62
7
  6
CONTINUOUS
 10
335.6561095397
 20
98.6035889696
  0
VERTEX
  8
0
 62
7
  6
CONTINUOUS
 10
335.7912386656
 20
98.7014078408
  0
VERTEX
  8
0
 62
7
  6
CONTINUOUS
 10
335.9008643865
 20
98.8096372511
  0
VERTEX
  8
0
 62
7
  6
CONTINUOUS
 10
335.9872052277
 20
98.9217642801
  0
VERTEX
  8
0
 62
7
  6
CONTINUOUS
 10
336.0541735758
 20
99.0336485671
  0
VERTEX
  8
0
 62
7
  6
CONTINUOUS
 10
336.106898327
 20
99.1448398874
  0
VERTEX
  8
0
 62
7
  6
CONTINUOUS
 10
336.1505596316
 20
99.2587182353
  0
VERTEX
  8
0
 62
7
  6
CONTINUOUS
 10
336.1780988847
 20
99.3433862123
  0
SEQEND
  0
LINE
  8
0
 62
7
  6
CONTINUOUS
 10
329.13776585
 20
98.4543603686
 11
335.1250897299
 21
98.4543603686
  0
LINE
  8
LAY0001
 62
7
  6
CONTINUOUS
 10
336.6314277899
 20
103.5008756563
 11
336.7814277899
 21
103.5008756563
  0
LINE
  8
0
 62
7
  6
CONTINUOUS
 10
314.1314277899
 20
105.0567287524
 11
326.1314277899
 21
105.0567287524
  0
LINE
  8
0
 62
7
  6
CONTINUOUS
 10
338.1314277899
 20
105.0567287524
 11
350.1314277899
 21
105.0567287524
  0
POLYLINE
  8
0
 62
7
  6
CONTINUOUS
 66
1
 70
0
  0
VERTEX
  8
0
 62
7
  6
CONTINUOUS
 10
335.1841977603
 20
131.6997946215
  0
VERTEX
  8
0
 62
7
  6
CONTINUOUS
 10
335.2335451584
 20
131.7009794409
  0
VERTEX
  8
0
 62
7
  6
CONTINUOUS
 10
335.4008841357
 20
131.7228800245
  0
VERTEX
  8
0
 62
7
  6
CONTINUOUS
 10
335.5640778139
 20
131.7724462958
  0
VERTEX
  8
0
 62
7
  6
CONTINUOUS
 10
335.7162718349
 20
131.8476838477
  0
VERTEX
  8
0
 62
7
  6
CONTINUOUS
 10
335.8513161754
 20
131.9439504432
  0
VERTEX
  8
0
 62
7
  6
CONTINUOUS
 10
335.9651151251
 20
132.0545292732
  0
VERTEX
  8
0
 62
7
  6
CONTINUOUS
 10
335.9987369233
 20
132.0941368311
  0
SEQEND
  0
LINE
  8
0
 62
7
  6
CONTINUOUS
 10
329.0785318996
 20
131.6997947834
 11
335.1843236803
 21
131.6997947834
  0
POLYLINE
  8
0
 62
7
  6
CONTINUOUS
 66
1
 70
0
  0
VERTEX
  8
0
 62
7
  6
CONTINUOUS
 10
328.1966772773
 20
260.0388162406
  0
VERTEX
  8
0
 62
7
  6
CONTINUOUS
 10
328.1791835385
 20
259.9757392134
  0
VERTEX
  8
0
 62
7
  6
CONTINUOUS
 10
328.1617095997
 20
259.9071185246
  0
SEQEND
  0
POLYLINE
  8
0
 62
7
  6
CONTINUOUS
 66
1
 70
0
  0
VERTEX
  8
0
 62
7
  6
CONTINUOUS
 10
328.2335418779
 20
65.7644618386
  0
VERTEX
  8
0
 62
7
  6
CONTINUOUS
 10
328.2459850396
 20
65.7238389824
  0
VERTEX
  8
0
 62
7
  6
CONTINUOUS
 10
328.2635065325
 20
65.674700751
  0
VERTEX
  8
0
 62
7
  6
CONTINUOUS
 10
328.2861434055
 20
65.6206881372
  0
VERTEX
  8
0
 62
7
  6
CONTINUOUS
 10
328.3134826295
 20
65.5650370314
  0
VERTEX
  8
0
 62
7
  6
CONTINUOUS
 10
328.345009747
 20
65.5098622701
  0
VERTEX
  8
0
 62
7
  6
CONTINUOUS
 10
328.3807921454
 20
65.4556291564
  0
VERTEX
  8
0
 62
7
  6
CONTINUOUS
 10
328.4209274797
 20
65.4027044801
  0
VERTEX
  8
0
 62
7
  6
CONTINUOUS
 10
328.4655044534
 20
65.3514600363
  0
VERTEX
  8
0
 62
7
  6
CONTINUOUS
 10
328.5145692347
 20
65.3023136555
  0
VERTEX
  8
0
 62
7
  6
CONTINUOUS
 10
328.5681162027
 20
65.2557226871
  0
VERTEX
  8
0
 62
7
  6
CONTINUOUS
 10
328.6260851367
 20
65.2121716315
  0
VERTEX
  8
0
 62
7
  6
CONTINUOUS
 10
328.6884367978
 20
65.1721159562
  0
VERTEX
  8
0
 62
7
  6
CONTINUOUS
 10
328.7551500859
 20
65.136011969
  0
VERTEX
  8
0
 62
7
  6
CONTINUOUS
 10
328.8261549678
 20
65.1043668797
  0
VERTEX
  8
0
 62
7
  6
CONTINUOUS
 10
328.9013291262
 20
65.0777324679
  0
VERTEX
  8
0
 62
7
  6
CONTINUOUS
 10
328.9804861777
 20
65.0567030988
  0
VERTEX
  8
0
 62
7
  6
CONTINUOUS
 10
329.0633633944
 20
65.0419117288
  0
VERTEX
  8
0
 62
7
  6
CONTINUOUS
 10
329.149609204
 20
65.0340238132
  0
SEQEND
  0
POLYLINE
  8
0
 62
7
  6
CONTINUOUS
 66
1
 70
0
  0
VERTEX
  8
0
 62
7
  6
CONTINUOUS
 10
328.1530645177
 20
75.9214495218
  0
VERTEX
  8
0
 62
7
  6
CONTINUOUS
 10
328.1780076406
 20
75.838311048
  0
VERTEX
  8
0
 62
7
  6
CONTINUOUS
 10
328.2047961062
 20
75.7600661927
  0
VERTEX
  8
0
 62
7
  6
CONTINUOUS
 10
328.2357430448
 20
75.6826587397
  0
VERTEX
  8
0
 62
7
  6
CONTINUOUS
 10
328.2730616158
 20
75.604248313
  0
VERTEX
  8
0
 62
7
  6
CONTINUOUS
 10
328.3198106268
 20
75.5228644574
  0
VERTEX
  8
0
 62
7
  6
CONTINUOUS
 10
328.3793788254
 20
75.4379925926
  0
VERTEX
  8
0
 62
7
  6
CONTINUOUS
 10
328.4548636681
 20
75.3512420238
  0
VERTEX
  8
0
 62
7
  6
CONTINUOUS
 10
328.5469012649
 20
75.2674652433
  0
VERTEX
  8
0
 62
7
  6
CONTINUOUS
 10
328.6544517232
 20
75.1918453946
  0
VERTEX
  8
0
 62
7
  6
CONTINUOUS
 10
328.7768578129
 20
75.1281602682
  0
VERTEX
  8
0
 62
7
  6
CONTINUOUS
 10
328.913503398
 20
75.0798947625
  0
VERTEX
  8
0
 62
7
  6
CONTINUOUS
 10
329.0629761152
 20
75.0508461454
  0
VERTEX
  8
0
 62
7
  6
CONTINUOUS
 10
329.1796973409
 20
75.0440529903
  0
SEQEND
  0
LINE
  8
0
 62
7
  6
CONTINUOUS
 10
328.1286747875
 20
76.0122599614
 11
328.1530645177
 21
75.9214495218
  0
LINE
  8
0
 62
7
  6
CONTINUOUS
 10
312.6314277899
 20
106.5567287524
 11
312.6314277899
 21
225.0567287524
  0
LINE
  8
0
 62
7
  6
CONTINUOUS
 10
328.1230611534
 20
263.7980596836
 11
327.783597264
 21
261.8935135629
  0
LINE
  8
0
 62
7
  6
CONTINUOUS
 10
328.1572837916
 20
263.983437407
 11
328.1230611534
 21
263.7980596836
  0
LINE
  8
0
 62
7
  6
CONTINUOUS
 10
328.1832807751
 20
264.1203695032
 11
328.1572837916
 21
263.983437407
  0
POLYLINE
  8
0
 62
7
  6
CONTINUOUS
 66
1
 70
0
  0
VERTEX
  8
0
 62
7
  6
CONTINUOUS
 10
327.8004161442
 20
240.4096801166
  0
VERTEX
  8
0
 62
7
  6
CONTINUOUS
 10
327.7103201895
 20
239.9968557045
  0
VERTEX
  8
0
 62
7
  6
CONTINUOUS
 10
327.6486928872
 20
239.5198271558
  0
VERTEX
  8
0
 62
7
  6
CONTINUOUS
 10
327.631427946
 20
239.0991455843
  0
SEQEND
  0
POLYLINE
  8
0
 62
7
  6
CONTINUOUS
 66
1
 70
0
  0
VERTEX
  8
0
 62
7
  6
CONTINUOUS
 10
328.1617095997
 20
259.9071185246
  0
VERTEX
  8
0
 62
7
  6
CONTINUOUS
 10
328.1434438006
 20
259.8301773532
  0
VERTEX
  8
0
 62
7
  6
CONTINUOUS
 10
328.1240153075
 20
259.7433396542
  0
VERTEX
  8
0
 62
7
  6
CONTINUOUS
 10
328.103250641
 20
259.6456204062
  0
VERTEX
  8
0
 62
7
  6
CONTINUOUS
 10
328.0810723412
 20
259.5363074137
  0
VERTEX
  8
0
 62
7
  6
CONTINUOUS
 10
327.7862815926
 20
258.0104678569
  0
SEQEND
  0
LINE
  8
0
 62
7
  6
CONTINUOUS
 10
328.0797353513
 20
241.4822735339
 11
327.8004213306
 21
240.4097006871
  0
LINE
  8
0
 62
7
  6
CONTINUOUS
 10
327.8815085482
 20
211.5235224574
 11
327.7452858818
 21
211.2073381327
  0
LINE
  8
0
 62
7
  6
CONTINUOUS
 10
328.1609995998
 20
212.0589327407
 11
327.8816356557
 21
211.5237664174
  0
POLYLINE
  8
0
 62
7
  6
CONTINUOUS
 66
1
 70
0
  0
VERTEX
  8
0
 62
7
  6
CONTINUOUS
 10
328.2640782663
 20
132.0941867027
  0
VERTEX
  8
0
 62
7
  6
CONTINUOUS
 10
328.2926213352
 20
132.0603231603
  0
VERTEX
  8
0
 62
7
  6
CONTINUOUS
 10
328.4061638007
 20
131.9484858663
  0
VERTEX
  8
0
 62
7
  6
CONTINUOUS
 10
328.5415562598
 20
131.8507203635
  0
VERTEX
  8
0
 62
7
  6
CONTINUOUS
 10
328.694667977
 20
131.7740855967
  0
VERTEX
  8
0
 62
7
  6
CONTINUOUS
 10
328.8591808574
 20
131.7234852293
  0
VERTEX
  8
0
 62
7
  6
CONTINUOUS
 10
329.0279806094
 20
131.7010442084
  0
VERTEX
  8
0
 62
7
  6
CONTINUOUS
 10
329.0786583013
 20
131.699794622
  0
SEQEND
  0
LINE
  8
0
 62
7
  6
CONTINUOUS
 10
327.9906920643
 20
132.4321011718
 11
328.263831068
 21
132.0944893601
  0
POLYLINE
  8
0
 62
7
  6
CONTINUOUS
 66
1
 70
0
  0
VERTEX
  8
0
 62
7
  6
CONTINUOUS
 10
328.0847547775
 20
99.3433925
  0
VERTEX
  8
0
 62
7
  6
CONTINUOUS
 10
328.1113728489
 20
99.2613832453
  0
VERTEX
  8
0
 62
7
  6
CONTINUOUS
 10
328.1550608866
 20
99.1469570757
  0
VERTEX
  8
0
 62
7
  6
CONTINUOUS
 10
328.2077350882
 20
99.0354394139
  0
VERTEX
  8
0
 62
7
  6
CONTINUOUS
 10
328.2746033445
 20
98.9233183838
  0
VERTEX
  8
0
 62
7
  6
CONTINUOUS
 10
328.3608387623
 20
98.8109531556
  0
VERTEX
  8
0
 62
7
  6
CONTINUOUS
 10
328.4703884251
 20
98.7024578225
  0
VERTEX
  8
0
 62
7
  6
CONTINUOUS
 10
328.6055162917
 20
98.6043377724
  0
VERTEX
  8
0
 62
7
  6
CONTINUOUS
 10
328.7645401008
 20
98.5252767448
  0
VERTEX
  8
0
 62
7
  6
CONTINUOUS
 10
328.9410655433
 20
98.4735959647
  0
VERTEX
  8
0
 62
7
  6
CONTINUOUS
 10
329.1380254955
 20
98.4543618425
  0
SEQEND
  0
LINE
  8
0
 62
7
  6
CONTINUOUS
 10
327.8117261746
 20
100.23771817
 11
328.084815011
 21
99.3431933215
  0
LINE
  8
0
 62
7
  6
CONTINUOUS
 10
328.0847547775
 20
99.3433925
 11
328.0848155105
 21
99.3431934745
  0
LINE
  8
0
 62
7
  6
CONTINUOUS
 10
327.7143718436
 20
100.619651554
 11
327.8117143414
 21
100.2377575051
  0
POLYLINE
  8
0
 62
7
  6
CONTINUOUS
 66
1
 70
0
  0
VERTEX
  8
0
 62
7
  6
CONTINUOUS
 10
328.0621081571
 20
76.3034720066
  0
VERTEX
  8
0
 62
7
  6
CONTINUOUS
 10
328.0787704095
 20
76.2250080955
  0
VERTEX
  8
0
 62
7
  6
CONTINUOUS
 10
328.1040452141
 20
76.1129491482
  0
VERTEX
  8
0
 62
7
  6
CONTINUOUS
 10
328.1286747875
 20
76.0122599614
  0
SEQEND
  0
POLYLINE
  8
0
 62
7
  6
CONTINUOUS
 66
1
 70
0
  0
VERTEX
  8
0
 62
7
  6
CONTINUOUS
 10
328.2020089367
 20
65.8986744883
  0
VERTEX
  8
0
 62
7
  6
CONTINUOUS
 10
328.2075413857
 20
65.8721031203
  0
VERTEX
  8
0
 62
7
  6
CONTINUOUS
 10
328.2129285172
 20
65.8471840428
  0
VERTEX
  8
0
 62
7
  6
CONTINUOUS
 10
328.2185541167
 20
65.8224800588
  0
VERTEX
  8
0
 62
7
  6
CONTINUOUS
 10
328.2250231749
 20
65.7960447702
  0
VERTEX
  8
0
 62
7
  6
CONTINUOUS
 10
328.2335418779
 20
65.7644618386
  0
SEQEND
  0
LINE
  8
0
 62
7
  6
CONTINUOUS
 10
327.7890342562
 20
77.6187157038
 11
328.0621139741
 21
76.3034430274
  0
LINE
  8
0
 62
7
  6
CONTINUOUS
 10
328.1894918
 20
65.9612153018
 11
328.2020089367
 21
65.8986744883
  0
LINE
  8
0
 62
7
  6
CONTINUOUS
 10
328.1742486175
 20
66.0401171065
 11
328.1894918
 21
65.9612153018
  0
LINE
  8
0
 62
7
  6
CONTINUOUS
 10
328.1454802967
 20
66.1934560512
 11
328.1742486175
 21
66.0401171065
  0
LINE
  8
0
 62
7
  6
CONTINUOUS
 10
328.0950325622
 20
66.4698879612
 11
328.1454802967
 21
66.1934560512
  0
LINE
  8
0
 62
7
  6
CONTINUOUS
 10
327.783597264
 20
68.2199439419
 11
328.0950325622
 21
66.4698879612
  0
POLYLINE
  8
0
 62
7
  6
CONTINUOUS
 66
1
 70
0
  0
VERTEX
  8
0
 62
7
  6
CONTINUOUS
 10
327.7835973864
 20
261.8935132785
  0
VERTEX
  8
0
 62
7
  6
CONTINUOUS
 10
327.7018616266
 20
261.3444881827
  0
VERTEX
  8
0
 62
7
  6
CONTINUOUS
 10
327.6466905461
 20
260.7166016352
  0
VERTEX
  8
0
 62
7
  6
CONTINUOUS
 10
327.6314279499
 20
260.1683004843
  0
SEQEND
  0
POLYLINE
  8
0
 62
7
  6
CONTINUOUS
 66
1
 70
0
  0
VERTEX
  8
0
 62
7
  6
CONTINUOUS
 10
327.7862813145
 20
258.0104655402
  0
VERTEX
  8
0
 62
7
  6
CONTINUOUS
 10
327.7039127387
 20
257.5019805704
  0
VERTEX
  8
0
 62
7
  6
CONTINUOUS
 10
327.647350067
 20
256.913527699
  0
VERTEX
  8
0
 62
7
  6
CONTINUOUS
 10
327.6314279456
 20
256.3929916624
  0
SEQEND
  0
POLYLINE
  8
0
 62
7
  6
CONTINUOUS
 66
1
 70
0
  0
VERTEX
  8
0
 62
7
  6
CONTINUOUS
 10
327.7452858818
 20
211.2073381327
  0
VERTEX
  8
0
 62
7
  6
CONTINUOUS
 10
327.6552889528
 20
210.8435648337
  0
VERTEX
  8
0
 62
7
  6
CONTINUOUS
 10
327.6314280131
 20
210.5333202191
  0
SEQEND
  0
LINE
  8
0
 62
7
  6
CONTINUOUS
 10
327.7043409017
 20
78.1060457423
 11
327.7890334581
 21
77.6187203814
  0
LINE
  8
0
 62
7
  6
CONTINUOUS
 10
327.7018616266
 20
68.7689693221
 11
327.7835973864
 21
68.2199442263
  0
LINE
  8
0
 62
7
  6
CONTINUOUS
 10
327.6314282115
 20
133.4010141615
 11
327.6476947406
 21
133.186637707
  0
POLYLINE
  8
0
 62
7
  6
CONTINUOUS
 66
1
 70
0
  0
VERTEX
  8
0
 62
7
  6
CONTINUOUS
 10
327.6314279518
 20
101.4324808734
  0
VERTEX
  8
0
 62
7
  6
CONTINUOUS
 10
327.6492411102
 20
101.0550443174
  0
VERTEX
  8
0
 62
7
  6
CONTINUOUS
 10
327.7143718436
 20
100.619651554
  0
SEQEND
  0
POLYLINE
  8
0
 62
7
  6
CONTINUOUS
 66
1
 70
0
  0
VERTEX
  8
0
 62
7
  6
CONTINUOUS
 10
327.63142795
 20
79.1495444855
  0
VERTEX
  8
0
 62
7
  6
CONTINUOUS
 10
327.6472159632
 20
78.6632518273
  0
VERTEX
  8
0
 62
7
  6
CONTINUOUS
 10
327.7043409017
 20
78.1060457423
  0
SEQEND
  0
POLYLINE
  8
0
 62
7
  6
CONTINUOUS
 66
1
 70
0
  0
VERTEX
  8
0
 62
7
  6
CONTINUOUS
 10
327.6314279499
 20
69.9451570205
  0
VERTEX
  8
0
 62
7
  6
CONTINUOUS
 10
327.6466905461
 20
69.3968558696
  0
VERTEX
  8
0
 62
7
  6
CONTINUOUS
 10
327.7018616266
 20
68.7689693221
  0
SEQEND
  0
POLYLINE
  8
0
 62
7
  6
CONTINUOUS
 66
1
 70
0
  0
VERTEX
  8
0
 62
7
  6
CONTINUOUS
 10
327.6476947406
 20
133.186637707
  0
VERTEX
  8
0
 62
7
  6
CONTINUOUS
 10
327.7178710343
 20
132.9102032198
  0
VERTEX
  8
0
 62
7
  6
CONTINUOUS
 10
327.8431256081
 20
132.6442360026
  0
VERTEX
  8
0
 62
7
  6
CONTINUOUS
 10
327.9905105671
 20
132.4323258188
  0
SEQEND
  0
LINE
  8
0
 62
7
  6
CONTINUOUS
 10
327.4814277899
 20
212.9490335978
 11
327.4814277899
 21
191.664423907
  0
LINE
  8
0
 62
7
  6
CONTINUOUS
 10
327.4814277899
 20
93.7593974394
 11
327.4814277899
 21
86.3540600654
  0
LINE
  8
0
 62
7
  6
CONTINUOUS
 10
327.6314277899
 20
69.9451572876
 11
327.6314277899
 21
260.1682830911
  0
LINE
  8
DEFAULT_1
 62
2
  6
CENTER
 10
310.6314277899
 20
165.0567287524
 11
353.6314277899
 21
165.0567287524
  0
POLYLINE
  8
0
 62
7
  6
CONTINUOUS
 66
1
 70
0
  0
VERTEX
  8
0
 62
7
  6
CONTINUOUS
 10
336.631427624
 20
239.0991469784
  0
VERTEX
  8
0
 62
7
  6
CONTINUOUS
 10
336.6145809071
 20
239.51470542
  0
VERTEX
  8
0
 62
7
  6
CONTINUOUS
 10
336.5534289206
 20
239.9917800127
  0
SEQEND
  0
POLYLINE
  8
0
 62
7
  6
CONTINUOUS
 66
1
 70
0
  0
VERTEX
  8
0
 62
7
  6
CONTINUOUS
 10
336.6314276245
 20
256.3929917781
  0
VERTEX
  8
0
 62
7
  6
CONTINUOUS
 10
336.6158905077
 20
256.9072010919
  0
VERTEX
  8
0
 62
7
  6
CONTINUOUS
 10
336.5597658577
 20
257.4956903946
  0
SEQEND
  0
POLYLINE
  8
0
 62
7
  6
CONTINUOUS
 66
1
 70
0
  0
VERTEX
  8
0
 62
7
  6
CONTINUOUS
 10
336.6314276203
 20
260.1683004825
  0
VERTEX
  8
0
 62
7
  6
CONTINUOUS
 10
336.6157845811
 20
260.7233883576
  0
VERTEX
  8
0
 62
7
  6
CONTINUOUS
 10
336.5601802652
 20
261.3512377253
  0
VERTEX
  8
0
 62
7
  6
CONTINUOUS
 10
336.4792582034
 20
261.8935132785
  0
SEQEND
  0
LINE
  8
0
 62
7
  6
CONTINUOUS
 10
336.6314277899
 20
260.1682827682
 11
336.6314277899
 21
69.9451747366
  0
LINE
  8
0
 62
7
  6
CONTINUOUS
 10
336.7814277899
 20
245.0523379899
 11
336.7814277899
 21
227.072206924
  0
LINE
  8
0
 62
7
  6
CONTINUOUS
 10
336.7814277899
 20
212.9490335978
 11
336.7814277899
 21
191.664423907
  0
LINE
  8
LAY0001
 62
7
  6
CONTINUOUS
 10
336.7814277899
 20
104.2051462451
 11
336.7814277899
 21
103.5008756563
  0
LINE
  8
0
 62
7
  6
CONTINUOUS
 10
336.7814277899
 20
93.7593974394
 11
336.7814277899
 21
86.3540600654
  0
LINE
  8
0
 62
7
  6
CONTINUOUS
 10
336.6314275475
 20
210.5333435362
 11
336.6081574237
 21
210.8397078954
  0
POLYLINE
  8
0
 62
7
  6
CONTINUOUS
 66
1
 70
0
  0
VERTEX
  8
0
 62
7
  6
CONTINUOUS
 10
336.5435744714
 20
132.9062970285
  0
VERTEX
  8
0
 62
7
  6
CONTINUOUS
 10
336.6144995997
 20
133.1823275535
  0
VERTEX
  8
0
 62
7
  6
CONTINUOUS
 10
336.6314273854
 20
133.401051151
  0
SEQEND
  0
LINE
  8
0
 62
7
  6
CONTINUOUS
 10
351.6314277899
 20
106.5567287524
 11
351.6314277899
 21
225.0567158121
  0
POLYLINE
  8
0
 62
7
  6
CONTINUOUS
 66
1
 70
0
  0
VERTEX
  8
0
 62
7
  6
CONTINUOUS
 10
336.4792582034
 20
68.2199442264
  0
VERTEX
  8
0
 62
7
  6
CONTINUOUS
 10
336.5601802652
 20
68.7622197796
  0
VERTEX
  8
0
 62
7
  6
CONTINUOUS
 10
336.6157845811
 20
69.3900691473
  0
VERTEX
  8
0
 62
7
  6
CONTINUOUS
 10
336.6314276203
 20
69.9451570223
  0
SEQEND
  0
POLYLINE
  8
0
 62
7
  6
CONTINUOUS
 66
1
 70
0
  0
VERTEX
  8
0
 62
7
  6
CONTINUOUS
 10
336.4738221618
 20
77.6187205268
  0
VERTEX
  8
0
 62
7
  6
CONTINUOUS
 10
336.5576726714
 20
78.1000608989
  0
VERTEX
  8
0
 62
7
  6
CONTINUOUS
 10
336.6152458299
 20
78.6572291915
  0
VERTEX
  8
0
 62
7
  6
CONTINUOUS
 10
336.6314276202
 20
79.149544653
  0
SEQEND
  0
LINE
  8
0
 62
7
  6
CONTINUOUS
 10
336.1973787247
 20
66.6347199588
 11
336.4792583159
 21
68.2199439419
  0
POLYLINE
  8
0
 62
7
  6
CONTINUOUS
 66
1
 70
0
  0
VERTEX
  8
0
 62
7
  6
CONTINUOUS
 10
336.4511419108
 20
100.2377596759
  0
VERTEX
  8
0
 62
7
  6
CONTINUOUS
 10
336.5475306658
 20
100.6150194121
  0
VERTEX
  8
0
 62
7
  6
CONTINUOUS
 10
336.6131682304
 20
101.0503504602
  0
VERTEX
  8
0
 62
7
  6
CONTINUOUS
 10
336.6314276186
 20
101.432483609
  0
SEQEND
  0
POLYLINE
  8
0
 62
7
  6
CONTINUOUS
 66
1
 70
0
  0
VERTEX
  8
0
 62
7
  6
CONTINUOUS
 10
336.6081574237
 20
210.8397078954
  0
VERTEX
  8
0
 62
7
  6
CONTINUOUS
 10
336.5188129696
 20
211.2037017225
  0
VERTEX
  8
0
 62
7
  6
CONTINUOUS
 10
336.3813387745
 20
211.5235383094
  0
SEQEND
  0
LINE
  8
0
 62
7
  6
CONTINUOUS
 10
336.5534289206
 20
239.9917800127
 11
336.4624391385
 21
240.4096812966
  0
LINE
  8
0
 62
7
  6
CONTINUOUS
 10
336.4792583159
 20
261.8935135629
 11
336.1824653397
 21
263.5621339014
  0
LINE
  8
0
 62
7
  6
CONTINUOUS
 10
336.5597658577
 20
257.4956903946
 11
336.4765742543
 21
258.0104656492
  0
LINE
  8
0
 62
7
  6
CONTINUOUS
 10
336.1269643506
 20
66.2454049171
 11
336.1973787247
 21
66.6347199588
  0
LINE
  8
0
 62
7
  6
CONTINUOUS
 10
336.0956567329
 20
66.0772631566
 11
336.1269643506
 21
66.2454049171
  0
LINE
  8
0
 62
7
  6
CONTINUOUS
 10
336.0792755779
 20
65.9915427762
 11
336.0956567329
 21
66.0772631566
  0
LINE
  8
0
 62
7
  6
CONTINUOUS
 10
336.2007416064
 20
76.3034430305
 11
336.4738213236
 21
77.6187157037
  0
POLYLINE
  8
0
 62
7
  6
CONTINUOUS
 66
1
 70
0
  0
VERTEX
  8
0
 62
7
  6
CONTINUOUS
 10
336.1335631961
 20
76.0098483958
  0
VERTEX
  8
0
 62
7
  6
CONTINUOUS
 10
336.1581578632
 20
76.1101707203
  0
VERTEX
  8
0
 62
7
  6
CONTINUOUS
 10
336.1833835473
 20
76.2217828819
  0
VERTEX
  8
0
 62
7
  6
CONTINUOUS
 10
336.2007472906
 20
76.3034713693
  0
SEQEND
  0
LINE
  8
0
 62
7
  6
CONTINUOUS
 10
336.1091852645
 20
75.9193119831
 11
336.1335631961
 21
76.0098483958
  0
LINE
  8
0
 62
7
  6
CONTINUOUS
 10
336.1780405703
 20
99.3431933264
 11
336.4511294053
 21
100.23771817
  0
POLYLINE
  8
0
 62
7
  6
CONTINUOUS
 66
1
 70
0
  0
VERTEX
  8
0
 62
7
  6
CONTINUOUS
 10
336.2723547418
 20
132.4323378415
  0
VERTEX
  8
0
 62
7
  6
CONTINUOUS
 10
336.4177570997
 20
132.64089612
  0
VERTEX
  8
0
 62
7
  6
CONTINUOUS
 10
336.5435744714
 20
132.9062970285
  0
SEQEND
  0
LINE
  8
0
 62
7
  6
CONTINUOUS
 10
335.9990245148
 20
132.0944893638
 11
336.2721635156
 21
132.4321011718
  0
LINE
  8
0
 62
7
  6
CONTINUOUS
 10
327.4814277899
 20
191.664423907
 11
327.6314277899
 21
191.664423907
  0
LINE
  8
0
 62
7
  6
CONTINUOUS
 10
336.6314277899
 20
191.664423907
 11
336.7814277899
 21
191.664423907
  0
LINE
  8
0
 62
7
  6
CONTINUOUS
 10
327.4814277899
 20
192.664423907
 11
327.6314277899
 21
192.664423907
  0
LINE
  8
0
 62
7
  6
CONTINUOUS
 10
336.6314277899
 20
192.664423907
 11
336.7814277899
 21
192.664423907
  0
POLYLINE
  8
0
 62
7
  6
CONTINUOUS
 66
1
 70
0
  0
VERTEX
  8
0
 62
7
  6
CONTINUOUS
 10
336.1020168964
 20
212.05862233
  0
VERTEX
  8
0
 62
7
  6
CONTINUOUS
 10
336.0800828549
 20
212.0989344156
  0
VERTEX
  8
0
 62
7
  6
CONTINUOUS
 10
336.011467521
 20
212.2065285833
  0
VERTEX
  8
0
 62
7
  6
CONTINUOUS
 10
335.9207700996
 20
212.3177040864
  0
VERTEX
  8
0
 62
7
  6
CONTINUOUS
 10
335.8076495288
 20
212.4232093265
  0
VERTEX
  8
0
 62
7
  6
CONTINUOUS
 10
335.6737140695
 20
212.5150730215
  0
VERTEX
  8
0
 62
7
  6
CONTINUOUS
 10
335.5224347688
 20
212.5868301182
  0
VERTEX
  8
0
 62
7
  6
CONTINUOUS
 10
335.3594769962
 20
212.6336122681
  0
VERTEX
  8
0
 62
7
  6
CONTINUOUS
 10
335.1913249867
 20
212.6529427105
  0
VERTEX
  8
0
 62
7
  6
CONTINUOUS
 10
335.1587473984
 20
212.6534606856
  0
SEQEND
  0
LINE
  8
0
 62
7
  6
CONTINUOUS
 10
336.1020168964
 20
212.05862233
 11
336.1018551319
 21
212.058932307
  0
LINE
  8
0
 62
7
  6
CONTINUOUS
 10
336.3812199241
 20
211.5237664174
 11
336.1018559762
 21
212.0589327482
  0
POLYLINE
  8
0
 62
7
  6
CONTINUOUS
 66
1
 70
0
  0
VERTEX
  8
0
 62
7
  6
CONTINUOUS
 10
336.1831280974
 20
241.4822420061
  0
VERTEX
  8
0
 62
7
  6
CONTINUOUS
 10
336.1616766483
 20
241.5610136582
  0
VERTEX
  8
0
 62
7
  6
CONTINUOUS
 10
336.1308721137
 20
241.6619449014
  0
VERTEX
  8
0
 62
7
  6
CONTINUOUS
 10
336.0996501457
 20
241.7505772012
  0
VERTEX
  8
0
 62
7
  6
CONTINUOUS
 10
336.0651464728
 20
241.8345167202
  0
VERTEX
  8
0
 62
7
  6
CONTINUOUS
 10
336.0236322113
 20
241.9196986328
  0
VERTEX
  8
0
 62
7
  6
CONTINUOUS
 10
335.9708532268
 20
242.0092968959
  0
VERTEX
  8
0
 62
7
  6
CONTINUOUS
 10
335.9019954832
 20
242.1039809209
  0
VERTEX
  8
0
 62
7
  6
CONTINUOUS
 10
335.8136265653
 20
242.200162699
  0
VERTEX
  8
0
 62
7
  6
CONTINUOUS
 10
335.7051914343
 20
242.2911415185
  0
VERTEX
  8
0
 62
7
  6
CONTINUOUS
 10
335.5776457234
 20
242.3705178077
  0
VERTEX
  8
0
 62
7
  6
CONTINUOUS
 10
335.4322631275
 20
242.4329696975
  0
VERTEX
  8
0
 62
7
  6
CONTINUOUS
 10
335.2716217716
 20
242.4733662727
  0
VERTEX
  8
0
 62
7
  6
CONTINUOUS
 10
335.1055543589
 20
242.4870730154
  0
SEQEND
  0
LINE
  8
0
 62
7
  6
CONTINUOUS
 10
336.4624342493
 20
240.409700687
 11
336.1831202267
 21
241.4822735409
  0
POLYLINE
  8
0
 62
7
  6
CONTINUOUS
 66
1
 70
0
  0
VERTEX
  8
0
 62
7
  6
CONTINUOUS
 10
336.101635342
 20
259.9051229935
  0
VERTEX
  8
0
 62
7
  6
CONTINUOUS
 10
336.0841448394
 20
259.9739532855
  0
VERTEX
  8
0
 62
7
  6
CONTINUOUS
 10
336.0666615399
 20
260.0371549148
  0
SEQEND
  0
POLYLINE
  8
0
 62
7
  6
CONTINUOUS
 66
1
 70
0
  0
VERTEX
  8
0
 62
7
  6
CONTINUOUS
 10
336.0619240672
 20
264.2095162743
  0
VERTEX
  8
0
 62
7
  6
CONTINUOUS
 10
336.056419873
 20
264.2361141193
  0
VERTEX
  8
0
 62
7
  6
CONTINUOUS
 10
336.0511270771
 20
264.2608190069
  0
VERTEX
  8
0
 62
7
  6
CONTINUOUS
 10
336.0456751406
 20
264.2850854268
  0
VERTEX
  8
0
 62
7
  6
CONTINUOUS
 10
336.0395162736
 20
264.3107423865
  0
VERTEX
  8
0
 62
7
  6
CONTINUOUS
 10
336.0317005889
 20
264.3404934185
  0
VERTEX
  8
0
 62
7
  6
CONTINUOUS
 10
336.020778419
 20
264.3774680547
  0
VERTEX
  8
0
 62
7
  6
CONTINUOUS
 10
336.0057289541
 20
264.4217599628
  0
VERTEX
  8
0
 62
7
  6
CONTINUOUS
 10
335.9866517821
 20
264.4701226862
  0
VERTEX
  8
0
 62
7
  6
CONTINUOUS
 10
335.9634669063
 20
264.52081465
  0
VERTEX
  8
0
 62
7
  6
CONTINUOUS
 10
335.935797716
 20
264.5731797186
  0
VERTEX
  8
0
 62
7
  6
CONTINUOUS
 10
335.9037048484
 20
264.6259512001
  0
VERTEX
  8
0
 62
7
  6
CONTINUOUS
 10
335.8677386122
 20
264.6775650773
  0
VERTEX
  8
0
 62
7
  6
CONTINUOUS
 10
335.827898076
 20
264.7276498695
  0
VERTEX
  8
0
 62
7
  6
CONTINUOUS
 10
335.783958764
 20
264.776099861
  0
VERTEX
  8
0
 62
7
  6
CONTINUOUS
 10
335.7357826043
 20
264.8226307315
  0
VERTEX
  8
0
 62
7
  6
CONTINUOUS
 10
335.6832380168
 20
264.8669071487
  0
VERTEX
  8
0
 62
7
  6
CONTINUOUS
 10
335.6262114952
 20
264.9085356077
  0
VERTEX
  8
0
 62
7
  6
CONTINUOUS
 10
335.5646545694
 20
264.9470405878
  0
VERTEX
  8
0
 62
7
  6
CONTINUOUS
 10
335.4986202282
 20
264.9818686632
  0
VERTEX
  8
0
 62
7
  6
CONTINUOUS
 10
335.428225686
 20
265.0124346809
  0
VERTEX
  8
0
 62
7
  6
CONTINUOUS
 10
335.3536562959
 20
265.0381294976
  0
VERTEX
  8
0
 62
7
  6
CONTINUOUS
 10
335.2751736001
 20
265.0583260212
  0
VERTEX
  8
0
 62
7
  6
CONTINUOUS
 10
335.1931227559
 20
265.0723869395
  0
VERTEX
  8
0
 62
7
  6
CONTINUOUS
 10
335.1079392913
 20
265.0796739424
  0
VERTEX
  8
0
 62
7
  6
CONTINUOUS
 10
335.0653635478
 20
265.0805805939
  0
SEQEND
  0
POLYLINE
  8
0
 62
7
  6
CONTINUOUS
 66
1
 70
0
  0
VERTEX
  8
0
 62
7
  6
CONTINUOUS
 10
336.1824526215
 20
259.5329340759
  0
VERTEX
  8
0
 62
7
  6
CONTINUOUS
 10
336.160220548
 20
259.6426524924
  0
VERTEX
  8
0
 62
7
  6
CONTINUOUS
 10
336.139405596
 20
259.74074332
  0
VERTEX
  8
0
 62
7
  6
CONTINUOUS
 10
336.1199334578
 20
259.827909519
  0
VERTEX
  8
0
 62
7
  6
CONTINUOUS
 10
336.101635342
 20
259.9051229935
  0
SEQEND
  0
LINE
  8
0
 62
7
  6
CONTINUOUS
 10
336.074442527
 20
264.1467387922
 11
336.0619240672
 21
264.2095162743
  0
LINE
  8
0
 62
7
  6
CONTINUOUS
 10
336.4765739873
 20
258.0104678569
 11
336.1824526215
 21
259.5329340759
  0
LINE
  8
0
 62
7
  6
CONTINUOUS
 10
336.0896479128
 20
264.0678773304
 11
336.074442527
 21
264.1467387922
  0
LINE
  8
0
 62
7
  6
CONTINUOUS
 10
336.1181841046
 20
263.9156329784
 11
336.0896479128
 21
264.0678773304
  0
POLYLINE
  8
0
 62
7
  6
CONTINUOUS
 66
1
 70
0
  0
VERTEX
  8
0
 62
7
  6
CONTINUOUS
 10
336.1824653397
 20
263.5621339014
  0
VERTEX
  8
0
 62
7
  6
CONTINUOUS
 10
336.1679355823
 20
263.642945272
  0
VERTEX
  8
0
 62
7
  6
CONTINUOUS
 10
336.1181841046
 20
263.9156329784
  0
SEQEND
  0
POLYLINE
  8
0
 62
7
  6
CONTINUOUS
 66
1
 70
0
  0
VERTEX
  8
0
 62
7
  6
CONTINUOUS
 10
336.0313021465
 20
65.7715269048
  0
VERTEX
  8
0
 62
7
  6
CONTINUOUS
 10
336.0392619528
 20
65.801698199
  0
VERTEX
  8
0
 62
7
  6
CONTINUOUS
 10
336.0451639741
 20
65.8261685062
  0
VERTEX
  8
0
 62
7
  6
CONTINUOUS
 10
336.050216949
 20
65.8484961762
  0
VERTEX
  8
0
 62
7
  6
CONTINUOUS
 10
336.0551506926
 20
65.8713315208
  0
VERTEX
  8
0
 62
7
  6
CONTINUOUS
 10
336.0603533972
 20
65.8962724529
  0
VERTEX
  8
0
 62
7
  6
CONTINUOUS
 10
336.0660276831
 20
65.9242263384
  0
VERTEX
  8
0
 62
7
  6
CONTINUOUS
 10
336.0792755779
 20
65.9915427762
  0
SEQEND
  0
POLYLINE
  8
0
 62
7
  6
CONTINUOUS
 66
1
 70
0
  0
VERTEX
  8
0
 62
7
  6
CONTINUOUS
 10
336.0666615399
 20
260.0371549148
  0
VERTEX
  8
0
 62
7
  6
CONTINUOUS
 10
336.0479313548
 20
260.098071041
  0
VERTEX
  8
0
 62
7
  6
CONTINUOUS
 10
336.0266179132
 20
260.1589701291
  0
VERTEX
  8
0
 62
7
  6
CONTINUOUS
 10
336.001333417
 20
260.2212062661
  0
VERTEX
  8
0
 62
7
  6
CONTINUOUS
 10
335.9697727946
 20
260.287226702
  0
VERTEX
  8
0
 62
7
  6
CONTINUOUS
 10
335.9294375147
 20
260.3581472402
  0
VERTEX
  8
0
 62
7
  6
CONTINUOUS
 10
335.8788433131
 20
260.4322670903
  0
VERTEX
  8
0
 62
7
  6
CONTINUOUS
 10
335.8175946197
 20
260.5065461262
  0
VERTEX
  8
0
 62
7
  6
CONTINUOUS
 10
335.7456133558
 20
260.5783071664
  0
VERTEX
  8
0
 62
7
  6
CONTINUOUS
 10
335.6637963211
 20
260.6446651302
  0
VERTEX
  8
0
 62
7
  6
CONTINUOUS
 10
335.5731897742
 20
260.7034503614
  0
VERTEX
  8
0
 62
7
  6
CONTINUOUS
 10
335.4737817186
 20
260.7535021539
  0
VERTEX
  8
0
 62
7
  6
CONTINUOUS
 10
335.3657187193
 20
260.7933945321
  0
VERTEX
  8
0
 62
7
  6
CONTINUOUS
 10
335.2493720398
 20
260.821443182
  0
VERTEX
  8
0
 62
7
  6
CONTINUOUS
 10
335.1254046935
 20
260.8357170455
  0
VERTEX
  8
0
 62
7
  6
CONTINUOUS
 10
335.0728987947
 20
260.8370925776
  0
SEQEND
  0
LINE
  8
0
 62
7
  6
CONTINUOUS
 10
327.4814277899
 20
202.6237160505
 11
327.6314277899
 21
202.6237160505
  0
LINE
  8
0
 62
7
  6
CONTINUOUS
 10
336.6314277899
 20
202.6237160505
 11
336.7814277899
 21
202.6237160505
  0
LINE
  8
0
 62
7
  6
CONTINUOUS
 10
327.4814277899
 20
203.975050394
 11
327.6314277899
 21
203.975050394
  0
LINE
  8
0
 62
7
  6
CONTINUOUS
 10
336.6314277899
 20
203.975050394
 11
336.7814277899
 21
203.975050394
  0
POLYLINE
  8
0
 62
7
  6
CONTINUOUS
 66
1
 70
0
  0
VERTEX
  8
0
 62
7
  6
CONTINUOUS
 10
329.1041079112
 20
212.6534606855
  0
VERTEX
  8
0
 62
7
  6
CONTINUOUS
 10
329.0725478387
 20
212.6529745663
  0
VERTEX
  8
0
 62
7
  6
CONTINUOUS
 10
328.9052519368
 20
212.6339844394
  0
VERTEX
  8
0
 62
7
  6
CONTINUOUS
 10
328.7429388824
 20
212.5877797619
  0
VERTEX
  8
0
 62
7
  6
CONTINUOUS
 10
328.5920591273
 20
212.5167512634
  0
VERTEX
  8
0
 62
7
  6
CONTINUOUS
 10
328.4582768544
 20
212.4256745991
  0
VERTEX
  8
0
 62
7
  6
CONTINUOUS
 10
328.3451032976
 20
212.3209387079
  0
VERTEX
  8
0
 62
7
  6
CONTINUOUS
 10
328.2541748778
 20
212.2104061237
  0
VERTEX
  8
0
 62
7
  6
CONTINUOUS
 10
328.1852315902
 20
212.1032499028
  0
VERTEX
  8
0
 62
7
  6
CONTINUOUS
 10
328.1608325884
 20
212.0586106445
  0
SEQEND
  0
LINE
  8
0
 62
7
  6
CONTINUOUS
 10
329.1038958969
 20
212.6534640706
 11
335.1589596828
 21
212.6534640706
  0
LINE
  8
0
 62
7
  6
CONTINUOUS
 10
327.4814277899
 20
212.9490335978
 11
327.6314277899
 21
212.9490335978
  0
LINE
  8
0
 62
7
  6
CONTINUOUS
 10
336.6314277899
 20
212.9490335978
 11
336.7814277899
 21
212.9490335978
  0
LINE
  8
0
 62
7
  6
CONTINUOUS
 10
314.1314277899
 20
226.5567287524
 11
326.1314277899
 21
226.5567287524
  0
LINE
  8
0
 62
7
  6
CONTINUOUS
 10
338.1314277899
 20
226.5567287524
 11
350.1314277899
 21
226.5567287524
  0
LINE
  8
0
 62
7
  6
CONTINUOUS
 10
336.6314277899
 20
227.072206924
 11
336.7814277899
 21
227.072206924
  0
LINE
  8
0
 62
7
  6
CONTINUOUS
 10
336.6314277899
 20
227.075765152
 11
336.7814277899
 21
227.075765152
  0
LINE
  8
0
 62
7
  6
CONTINUOUS
 10
336.6314277899
 20
227.1678191116
 11
336.7814277899
 21
227.1678191116
  0
LINE
  8
0
 62
7
  6
CONTINUOUS
 10
336.6314277899
 20
227.2869994422
 11
336.7814277899
 21
227.2869994422
  0
LINE
  8
0
 62
7
  6
CONTINUOUS
 10
336.6314277899
 20
227.5831712205
 11
336.7814277899
 21
227.5831712205
  0
LINE
  8
0
 62
7
  6
CONTINUOUS
 10
336.6314277899
 20
229.3530852019
 11
336.7814277899
 21
229.3530852019
  0
LINE
  8
0
 62
7
  6
CONTINUOUS
 10
336.6314277899
 20
229.6421404622
 11
336.7814277899
 21
229.6421404622
  0
LINE
  8
0
 62
7
  6
CONTINUOUS
 10
336.6314277899
 20
230.7983614828
 11
336.7814277899
 21
230.7983614828
  0
LINE
  8
0
 62
7
  6
CONTINUOUS
 10
336.6314277899
 20
231.0874168051
 11
336.7814277899
 21
231.0874168051
  0
LINE
  8
0
 62
7
  6
CONTINUOUS
 10
336.6314277899
 20
231.7384828312
 11
336.7814277899
 21
231.7384828312
  0
LINE
  8
0
 62
7
  6
CONTINUOUS
 10
336.6314277899
 20
232.0042797658
 11
336.7814277899
 21
232.0042797658
  0
LINE
  8
0
 62
7
  6
CONTINUOUS
 10
336.6314277899
 20
232.1785894692
 11
336.7814277899
 21
232.1785894692
  0
LINE
  8
0
 62
7
  6
CONTINUOUS
 10
336.6314277899
 20
232.4827141569
 11
336.7814277899
 21
232.4827141569
  0
LINE
  8
0
 62
7
  6
CONTINUOUS
 10
336.6314277899
 20
232.6953517655
 11
336.7814277899
 21
232.6953517655
  0
LINE
  8
0
 62
7
  6
CONTINUOUS
 10
336.6314277899
 20
232.7633428166
 11
336.7814277899
 21
232.7633428166
  0
LINE
  8
0
 62
7
  6
CONTINUOUS
 10
336.6314277899
 20
233.6797379704
 11
336.7814277899
 21
233.6797379704
  0
LINE
  8
0
 62
7
  6
CONTINUOUS
 10
336.6314277899
 20
233.9301426012
 11
336.7814277899
 21
233.9301426012
  0
LINE
  8
0
 62
7
  6
CONTINUOUS
 10
336.6314277899
 20
234.6125496759
 11
336.7814277899
 21
234.6125496759
  0
LINE
  8
0
 62
7
  6
CONTINUOUS
 10
336.6314277899
 20
235.0789553979
 11
336.7814277899
 21
235.0789553979
  0
LINE
  8
0
 62
7
  6
CONTINUOUS
 10
336.6314277899
 20
235.3293600287
 11
336.7814277899
 21
235.3293600287
  0
LINE
  8
0
 62
7
  6
CONTINUOUS
 10
336.6314277899
 20
238.1654828789
 11
336.7814277899
 21
238.1654828789
  0
LINE
  8
0
 62
7
  6
CONTINUOUS
 10
336.6314277899
 20
239.609519749
 11
336.7814277899
 21
239.609519749
  0
LINE
  8
0
 62
7
  6
CONTINUOUS
 10
336.6314277899
 20
239.9580675316
 11
336.7814277899
 21
239.9580675316
  0
LINE
  8
0
 62
7
  6
CONTINUOUS
 10
336.6314277899
 20
240.1394497308
 11
336.7814277899
 21
240.1394497308
  0
LINE
  8
0
 62
7
  6
CONTINUOUS
 10
336.6314277899
 20
240.3276210438
 11
336.7814277899
 21
240.3276210438
  0
LINE
  8
0
 62
7
  6
CONTINUOUS
 10
336.6314277899
 20
240.4894783246
 11
336.7814277899
 21
240.4894783246
  0
POLYLINE
  8
0
 62
7
  6
CONTINUOUS
 66
1
 70
0
  0
VERTEX
  8
0
 62
7
  6
CONTINUOUS
 10
329.157301159
 20
242.4870730154
  0
VERTEX
  8
0
 62
7
  6
CONTINUOUS
 10
328.9928746834
 20
242.4736375449
  0
VERTEX
  8
0
 62
7
  6
CONTINUOUS
 10
328.8329902851
 20
242.4337822873
  0
VERTEX
  8
0
 62
7
  6
CONTINUOUS
 10
328.6881294351
 20
242.3720442222
  0
VERTEX
  8
0
 62
7
  6
CONTINUOUS
 10
328.560727466
 20
242.2933654387
  0
VERTEX
  8
0
 62
7
  6
CONTINUOUS
 10
328.4520254791
 20
242.2028427846
  0
VERTEX
  8
0
 62
7
  6
CONTINUOUS
 10
328.3631521675
 20
242.1067940664
  0
VERTEX
  8
0
 62
7
  6
CONTINUOUS
 10
328.2938148483
 20
242.0120756349
  0
VERTEX
  8
0
 62
7
  6
CONTINUOUS
 10
328.240688356
 20
241.9224402106
  0
VERTEX
  8
0
 62
7
  6
CONTINUOUS
 10
328.1989358755
 20
241.8372622985
  0
VERTEX
  8
0
 62
7
  6
CONTINUOUS
 10
328.1642756255
 20
241.7533895681
  0
VERTEX
  8
0
 62
7
  6
CONTINUOUS
 10
328.1329630538
 20
241.6649277327
  0
VERTEX
  8
0
 62
7
  6
CONTINUOUS
 10
328.1021054902
 20
241.5642563091
  0
VERTEX
  8
0
 62
7
  6
CONTINUOUS
 10
328.0797281062
 20
241.4822444015
  0
SEQEND
  0
LINE
  8
0
 62
7
  6
CONTINUOUS
 10
336.6314277899
 20
241.0829552267
 11
336.7814277899
 21
241.0829552267
  0
LINE
  8
0
 62
7
  6
CONTINUOUS
 10
336.6314277899
 20
241.2448125076
 11
336.7814277899
 21
241.2448125076
  0
LINE
  8
0
 62
7
  6
CONTINUOUS
 10
336.6314277899
 20
242.3894519538
 11
336.7814277899
 21
242.3894519538
  0
LINE
  8
0
 62
7
  6
CONTINUOUS
 10
329.1571540214
 20
242.4870732149
 11
335.1057015584
 21
242.4870732149
  0
LINE
  8
0
 62
7
  6
CONTINUOUS
 10
336.6314277899
 20
242.9304760953
 11
336.7814277899
 21
242.9304760953
  0
LINE
  8
0
 62
7
  6
CONTINUOUS
 10
336.6314277899
 20
243.3798450825
 11
336.7814277899
 21
243.3798450825
  0
LINE
  8
0
 62
7
  6
CONTINUOUS
 10
336.6314277899
 20
243.8567977798
 11
336.7814277899
 21
243.8567977798
  0
LINE
  8
0
 62
7
  6
CONTINUOUS
 10
336.6314277899
 20
244.1228573649
 11
336.7814277899
 21
244.1228573649
  0
LINE
  8
0
 62
7
  6
CONTINUOUS
 10
336.6314277899
 20
244.2972627224
 11
336.7814277899
 21
244.2972627224
  0
LINE
  8
0
 62
7
  6
CONTINUOUS
 10
336.6314277899
 20
244.4075966154
 11
336.7814277899
 21
244.4075966154
  0
LINE
  8
0
 62
7
  6
CONTINUOUS
 10
336.6314277899
 20
244.7442387692
 11
336.7814277899
 21
244.7442387692
  0
LINE
  8
0
 62
7
  6
CONTINUOUS
 10
336.6314277899
 20
244.8061849114
 11
336.7814277899
 21
244.8061849114
  0
LINE
  8
0
 62
7
  6
CONTINUOUS
 10
336.6314277899
 20
244.9782574236
 11
336.7814277899
 21
244.9782574236
  0
LINE
  8
0
 62
7
  6
CONTINUOUS
 10
336.6314277899
 20
245.0195548517
 11
336.7814277899
 21
245.0195548517
  0
LINE
  8
0
 62
7
  6
CONTINUOUS
 10
336.6314277899
 20
245.0523379899
 11
336.7814277899
 21
245.0523379899
  0
LINE
  8
0
 62
7
  6
CONTINUOUS
 10
336.6314277899
 20
245.0607198393
 11
336.7814277899
 21
245.0607198393
  0
POLYLINE
  8
0
 62
7
  6
CONTINUOUS
 66
1
 70
0
  0
VERTEX
  8
0
 62
7
  6
CONTINUOUS
 10
329.1974920306
 20
265.0805805939
  0
VERTEX
  8
0
 62
7
  6
CONTINUOUS
 10
329.1455408712
 20
265.0792303858
  0
VERTEX
  8
0
 62
7
  6
CONTINUOUS
 10
329.0580446321
 20
265.0708114346
  0
VERTEX
  8
0
 62
7
  6
CONTINUOUS
 10
328.9740349084
 20
265.055298095
  0
VERTEX
  8
0
 62
7
  6
CONTINUOUS
 10
328.89389346
 20
265.0333880381
  0
VERTEX
  8
0
 62
7
  6
CONTINUOUS
 10
328.8179069187
 20
265.0057499646
  0
VERTEX
  8
0
 62
7
  6
CONTINUOUS
 10
328.7462791296
 20
264.9730163853
  0
VERTEX
  8
0
 62
7
  6
CONTINUOUS
 10
328.6791436075
 20
264.9357786676
  0
VERTEX
  8
0
 62
7
  6
CONTINUOUS
 10
328.6165755572
 20
264.8945842369
  0
VERTEX
  8
0
 62
7
  6
CONTINUOUS
 10
328.5586027718
 20
264.8499354423
  0
VERTEX
  8
0
 62
7
  6
CONTINUOUS
 10
328.5052665299
 20
264.8023387832
  0
VERTEX
  8
0
 62
7
  6
CONTINUOUS
 10
328.4565882864
 20
264.752296742
  0
VERTEX
  8
0
 62
7
  6
CONTINUOUS
 10
328.4125369173
 20
264.7002766841
  0
VERTEX
  8
0
 62
7
  6
CONTINUOUS
 10
328.3730373352
 20
264.6467065785
  0
VERTEX
  8
0
 62
7
  6
CONTINUOUS
 10
328.3379892255
 20
264.5919899103
  0
VERTEX
  8
0
 62
7
  6
CONTINUOUS
 10
328.3072205067
 20
264.5364134315
  0
VERTEX
  8
0
 62
7
  6
CONTINUOUS
 10
328.2809667766
 20
264.481163048
  0
VERTEX
  8
0
 62
7
  6
CONTINUOUS
 10
328.2595881201
 20
264.4284270672
  0
VERTEX
  8
0
 62
7
  6
CONTINUOUS
 10
328.2429621788
 20
264.3802645547
  0
VERTEX
  8
0
 62
7
  6
CONTINUOUS
 10
328.2312643113
 20
264.3408884641
  0
VERTEX
  8
0
 62
7
  6
CONTINUOUS
 10
328.223382694
 20
264.3109161149
  0
VERTEX
  8
0
 62
7
  6
CONTINUOUS
 10
328.217514681
 20
264.2865277714
  0
VERTEX
  8
0
 62
7
  6
CONTINUOUS
 10
328.2124679929
 20
264.2641873026
  0
VERTEX
  8
0
 62
7
  6
CONTINUOUS
 10
328.2075216661
 20
264.2412612649
  0
VERTEX
  8
0
 62
7
  6
CONTINUOUS
 10
328.2022966361
 20
264.2161847816
  0
VERTEX
  8
0
 62
7
  6
CONTINUOUS
 10
328.1965944788
 20
264.1880675622
  0
VERTEX
  8
0
 62
7
  6
CONTINUOUS
 10
328.1832807751
 20
264.1203695032
  0
SEQEND
  0
POLYLINE
  8
0
 62
7
  6
CONTINUOUS
 66
1
 70
0
  0
VERTEX
  8
0
 62
7
  6
CONTINUOUS
 10
329.1899567876
 20
260.8370925775
  0
VERTEX
  8
0
 62
7
  6
CONTINUOUS
 10
329.1379480425
 20
260.8357429886
  0
VERTEX
  8
0
 62
7
  6
CONTINUOUS
 10
329.0141820541
 20
260.8215677879
  0
VERTEX
  8
0
 62
7
  6
CONTINUOUS
 10
328.8980018129
 20
260.7936581026
  0
VERTEX
  8
0
 62
7
  6
CONTINUOUS
 10
328.7900708146
 20
260.7539360401
  0
VERTEX
  8
0
 62
7
  6
CONTINUOUS
 10
328.6907623003
 20
260.7040799265
  0
VERTEX
  8
0
 62
7
  6
CONTINUOUS
 10
328.6002249173
 20
260.6455123112
  0
VERTEX
  8
0
 62
7
  6
CONTINUOUS
 10
328.5184516402
 20
260.5793956912
  0
VERTEX
  8
0
 62
7
  6
CONTINUOUS
 10
328.4464656051
 20
260.5078715964
  0
VERTEX
  8
0
 62
7
  6
CONTINUOUS
 10
328.3851667285
 20
260.4338067306
  0
VERTEX
  8
0
 62
7
  6
CONTINUOUS
 10
328.3344905786
 20
260.3598705529
  0
VERTEX
  8
0
 62
7
  6
CONTINUOUS
 10
328.2940491222
 20
260.2890831262
  0
VERTEX
  8
0
 62
7
  6
CONTINUOUS
 10
328.262349892
 20
260.2230873398
  0
VERTEX
  8
0
 62
7
  6
CONTINUOUS
 10
328.2369093159
 20
260.1607542285
  0
VERTEX
  8
0
 62
7
  6
CONTINUOUS
 10
328.2154687494
 20
260.0997356385
  0
VERTEX
  8
0
 62
7
  6
CONTINUOUS
 10
328.1966772773
 20
260.0388162406
  0
SEQEND
  0
LINE
  8
0
 62
7
  6
CONTINUOUS
 10
329.1897721015
 20
260.8370961925
 11
335.0730834784
 21
260.8370961925
  0
LINE
  8
0
 62
7
  6
CONTINUOUS
 10
329.1971108618
 20
265.0805836734
 11
335.0657447181
 21
265.0805836734
  0
ARC
  8
0
 62
7
  6
CONTINUOUS
 10
72.8119161304
 20
86.0234038192
 40
9.525
 50
340.5
 51
45.0
  0
ARC
  8
0
 62
7
  6
CONTINUOUS
 10
46.7531655574
 20
113.0838678145
 40
9.525
 50
318.0
 51
22.5
  0
ARC
  8
0
 62
7
  6
CONTINUOUS
 10
65.6171046318
 20
103.8601723746
 40
2.0
 50
45.0
 51
125.0
  0
ARC
  8
0
 62
7
  6
CONTINUOUS
 10
53.7793138217
 20
100.4543603686
 40
2.0
 50
221.1118030147
 51
305.0
  0
ARC
  8
0
 62
7
  6
CONTINUOUS
 10
52.3732660408
 20
102.1017795088
 40
2.0
 50
138.0
 51
219.8487262651
  0
ARC
  8
0
 62
7
  6
CONTINUOUS
 10
76.0115743153
 20
94.8799162536
 40
1.5
 50
3.5903929576
 51
45.0
  0
ARC
  8
0
 62
7
  6
CONTINUOUS
 10
68.9405065034
 20
101.9509840654
 40
1.5
 50
45.0
 51
86.4096073479
  0
ARC
  8
0
 62
7
  6
CONTINUOUS
 10
78.0076488337
 20
95.0051620786
 40
0.5
 50
183.5903191532
 51
225.0
  0
ARC
  8
0
 62
7
  6
CONTINUOUS
 10
69.0657523285
 20
103.9470585839
 40
0.5
 50
225.0
 51
266.4096666669
  0
ARC
  8
0
 62
7
  6
CONTINUOUS
 10
33.0336105033
 20
148.0567287524
 40
9.525
 50
295.5
 51
360.0
  0
ARC
  8
0
 62
7
  6
CONTINUOUS
 10
46.9318622867
 20
132.3162283685
 40
2.0
 50
22.5
 51
102.5
  0
ARC
  8
0
 62
7
  6
CONTINUOUS
 10
34.6918218186
 20
133.6997947834
 40
2.0
 50
198.6118030147
 51
282.5
  0
ARC
  8
0
 62
7
  6
CONTINUOUS
 10
34.0232430632
 20
135.7598827993
 40
2.0
 50
115.5
 51
197.3487262651
  0
ARC
  8
0
 62
7
  6
CONTINUOUS
 10
53.0985048426
 20
120.0417622054
 40
1.5
 50
341.0903658021
 51
22.5
  0
ARC
  8
0
 62
7
  6
CONTINUOUS
 10
49.2716705189
 20
129.2805575306
 40
1.5
 50
22.5
 51
63.9095793194
  0
ARC
  8
0
 62
7
  6
CONTINUOUS
 10
41.5586105033
 20
152.0567287524
 40
1.5
 50
318.5903296659
 51
360.0
  0
ARC
  8
0
 62
7
  6
CONTINUOUS
 10
41.5586105033
 20
162.0567287524
 40
1.5
 50
0.0
 51
41.4096693646
  0
ARC
  8
0
 62
7
  6
CONTINUOUS
 10
54.9905667378
 20
119.3936096118
 40
0.5
 50
161.0904248999
 51
202.4996258977
  0
ARC
  8
0
 62
7
  6
CONTINUOUS
 10
50.1512472213
 20
131.0767604213
 40
0.5
 50
202.5000018335
 51
243.9097504788
  0
ARC
  8
0
 62
7
  6
CONTINUOUS
 10
43.0586105033
 20
150.7338530969
 40
0.5
 50
138.5905225653
 51
179.9998505375
  0
ARC
  8
0
 62
7
  6
CONTINUOUS
 10
43.0586105033
 20
163.3796044079
 40
0.5
 50
180.0001453049
 51
221.4094803431
  0
ARC
  8
0
 62
7
  6
CONTINUOUS
 10
107.2426536707
 20
70.9950471061
 40
9.525
 50
3.0
 51
67.5
  0
ARC
  8
0
 62
7
  6
CONTINUOUS
 10
127.1036105033
 20
77.8117287524
 40
2.0
 50
90.0
 51
170.0
  0
ARC
  8
0
 62
7
  6
CONTINUOUS
 10
121.141301112
 20
67.0328738314
 40
2.0
 50
266.1118030147
 51
350.0
  0
ARC
  8
0
 62
7
  6
CONTINUOUS
 10
118.9821739461
 20
67.2035491563
 40
2.0
 50
183.0
 51
264.8487262651
  0
ARC
  8
0
 62
7
  6
CONTINUOUS
 10
93.7696787738
 20
84.7207373411
 40
2.0
 50
67.5
 51
147.5
  0
ARC
  8
0
 62
7
  6
CONTINUOUS
 10
84.1363339626
 20
77.0440509184
 40
2.0
 50
243.6118030147
 51
327.5
  0
ARC
  8
0
 62
7
  6
CONTINUOUS
 10
82.206875185
 20
78.0279965525
 40
2.0
 50
160.5
 51
242.3487262651
  0
ARC
  8
0
 62
7
  6
CONTINUOUS
 10
106.8095118016
 20
80.4018538502
 40
1.5
 50
26.0904215624
 51
67.5
  0
ARC
  8
0
 62
7
  6
CONTINUOUS
 10
97.5707164765
 20
84.2286881739
 40
1.5
 50
67.5
 51
108.9096339564
  0
ARC
  8
0
 62
7
  6
CONTINUOUS
 10
108.6057146924
 20
81.2814305525
 40
0.5
 50
206.0902077633
 51
247.5000034583
  0
ARC
  8
0
 62
7
  6
CONTINUOUS
 10
96.9225638828
 20
86.1207500691
 40
0.5
 50
247.5002910686
 51
288.9095863503
  0
ARC
  8
0
 62
7
  6
CONTINUOUS
 10
33.741928857
 20
185.617685585
 40
9.525
 50
273.0
 51
337.5
  0
ARC
  8
0
 62
7
  6
CONTINUOUS
 10
40.5586105033
 20
165.7567287524
 40
2.0
 50
0.0
 51
80.0
  0
ARC
  8
0
 62
7
  6
CONTINUOUS
 10
29.7797555823
 20
171.7190381437
 40
2.0
 50
176.1118030147
 51
260.0
  0
ARC
  8
0
 62
7
  6
CONTINUOUS
 10
29.9504309072
 20
173.8781653096
 40
2.0
 50
93.0
 51
174.8487262651
  0
ARC
  8
0
 62
7
  6
CONTINUOUS
 10
47.467619092
 20
199.0906604819
 40
2.0
 50
337.5
 51
57.5
  0
ARC
  8
0
 62
7
  6
CONTINUOUS
 10
39.7909326692
 20
208.7240052931
 40
2.0
 50
153.6118030147
 51
237.5
  0
ARC
  8
0
 62
7
  6
CONTINUOUS
 10
40.7748783034
 20
210.6534640706
 40
2.0
 50
70.5
 51
152.3487262651
  0
ARC
  8
0
 62
7
  6
CONTINUOUS
 10
43.1487356011
 20
186.0508274541
 40
1.5
 50
296.0904215624
 51
337.5
  0
ARC
  8
0
 62
7
  6
CONTINUOUS
 10
46.9755699248
 20
195.2896227792
 40
1.5
 50
337.5
 51
18.9096339564
  0
ARC
  8
0
 62
7
  6
CONTINUOUS
 10
44.0283123034
 20
184.2546245633
 40
0.5
 50
116.0902468759
 51
157.4999971718
  0
ARC
  8
0
 62
7
  6
CONTINUOUS
 10
48.86763182
 20
195.9377753729
 40
0.5
 50
157.5002887758
 51
198.9095865679
  0
ARC
  8
0
 62
7
  6
CONTINUOUS
 10
75.8307495654
 20
246.1071736983
 40
9.525
 50
228.0
 51
292.5
  0
ARC
  8
0
 62
7
  6
CONTINUOUS
 10
48.7702855701
 20
220.0484231253
 40
9.525
 50
250.5
 51
315.0
  0
ARC
  8
0
 62
7
  6
CONTINUOUS
 10
64.8486612596
 20
240.4870732149
 40
2.0
 50
48.0
 51
129.8487262651
  0
ARC
  8
0
 62
7
  6
CONTINUOUS
 10
63.2012421195
 20
239.081025434
 40
2.0
 50
131.1118030147
 51
215.0
  0
ARC
  8
0
 62
7
  6
CONTINUOUS
 10
66.6070541255
 20
227.2432346239
 40
2.0
 50
315.0
 51
35.0
  0
ARC
  8
0
 62
7
  6
CONTINUOUS
 10
64.6978658163
 20
223.9198327523
 40
1.5
 50
315.0
 51
356.4096073479
  0
ARC
  8
0
 62
7
  6
CONTINUOUS
 10
57.6267980044
 20
216.8487649404
 40
1.5
 50
273.5903929576
 51
315.0
  0
ARC
  8
0
 62
7
  6
CONTINUOUS
 10
66.6939403348
 20
223.7945869272
 40
0.5
 50
135.0
 51
176.4096666669
  0
ARC
  8
0
 62
7
  6
CONTINUOUS
 10
57.7520438295
 20
214.852690422
 40
0.5
 50
93.5903191532
 51
135.0
  0
ARC
  8
0
 62
7
  6
CONTINUOUS
 10
110.8036105033
 20
259.8267287524
 40
9.525
 50
205.5
 51
270.0
  0
ARC
  8
0
 62
7
  6
CONTINUOUS
 10
98.5067645502
 20
258.8370961925
 40
2.0
 50
25.5
 51
107.3487262651
  0
ARC
  8
0
 62
7
  6
CONTINUOUS
 10
96.4466765343
 20
258.1685174371
 40
2.0
 50
108.6118030147
 51
192.5
  0
ARC
  8
0
 62
7
  6
CONTINUOUS
 10
95.0631101193
 20
245.928476969
 40
2.0
 50
292.5
 51
12.5
  0
ARC
  8
0
 62
7
  6
CONTINUOUS
 10
123.4731087813
 20
226.4040738852
 40
1.5
 50
274.0378043799
 51
311.7768364162
  0
ARC
  8
0
 62
7
  6
CONTINUOUS
 10
114.8036105033
 20
251.3017287524
 40
1.5
 50
228.5903296659
 51
270.0
  0
ARC
  8
0
 62
7
  6
CONTINUOUS
 10
124.8036105033
 20
251.3017287524
 40
1.5
 50
270.0
 51
311.4096693646
  0
ARC
  8
0
 62
7
  6
CONTINUOUS
 10
92.0274392814
 20
243.5886687368
 40
1.5
 50
292.5
 51
333.9095793194
  0
ARC
  8
0
 62
7
  6
CONTINUOUS
 10
82.7886439563
 20
239.7618344131
 40
1.5
 50
251.0903658021
 51
292.5
  0
ARC
  8
0
 62
7
  6
CONTINUOUS
 10
113.4807348478
 20
249.8017287524
 40
0.5
 50
48.5905656183
 51
89.9998146775
  0
ARC
  8
0
 62
7
  6
CONTINUOUS
 10
126.1264861588
 20
249.8017287524
 40
0.5
 50
90.0001453049
 51
131.4094803431
  0
ARC
  8
0
 62
7
  6
CONTINUOUS
 10
93.8236421722
 20
242.7090920344
 40
0.5
 50
112.5000022023
 51
153.9097512696
  0
ARC
  8
0
 62
7
  6
CONTINUOUS
 10
82.1404913627
 20
237.8697725179
 40
0.5
 50
71.0904248999
 51
112.4996258977
  0
ARC
  8
0
 62
7
  6
CONTINUOUS
 10
144.8036105033
 20
70.2867287524
 40
9.525
 50
25.5
 51
90.0
  0
ARC
  8
0
 62
7
  6
CONTINUOUS
 10
160.5441108872
 20
84.1849805358
 40
2.0
 50
112.5
 51
192.5
  0
ARC
  8
0
 62
7
  6
CONTINUOUS
 10
159.1605444723
 20
71.9449400677
 40
2.0
 50
288.6118030147
 51
12.5
  0
ARC
  8
0
 62
7
  6
CONTINUOUS
 10
157.1004564564
 20
71.2763613123
 40
2.0
 50
205.5
 51
287.3487262651
  0
ARC
  8
0
 62
7
  6
CONTINUOUS
 10
172.8185770503
 20
90.3516230917
 40
1.5
 50
71.0903658021
 51
112.5
  0
ARC
  8
0
 62
7
  6
CONTINUOUS
 10
163.5797817251
 20
86.5247887681
 40
1.5
 50
112.5
 51
153.9095793194
  0
ARC
  8
0
 62
7
  6
CONTINUOUS
 10
140.8036105033
 20
78.8117287524
 40
1.5
 50
48.5903296659
 51
90.0
  0
ARC
  8
0
 62
7
  6
CONTINUOUS
 10
130.8036105033
 20
78.8117287524
 40
1.5
 50
90.0
 51
131.4096693646
  0
ARC
  8
0
 62
7
  6
CONTINUOUS
 10
173.4667296439
 20
92.2436849869
 40
0.5
 50
251.0904141567
 51
292.4997039038
  0
ARC
  8
0
 62
7
  6
CONTINUOUS
 10
161.7835788344
 20
87.4043654704
 40
0.5
 50
292.5000018335
 51
333.9097504788
  0
ARC
  8
0
 62
7
  6
CONTINUOUS
 10
142.1264861588
 20
80.3117287524
 40
0.5
 50
228.5905225653
 51
269.9998505375
  0
ARC
  8
0
 62
7
  6
CONTINUOUS
 10
129.4807348477
 20
80.3117287524
 40
0.5
 50
270.0001453049
 51
311.4094803431
  0
ARC
  8
0
 62
7
  6
CONTINUOUS
 10
206.8369354365
 20
110.0650343795
 40
9.525
 50
70.5
 51
135.0
  0
ARC
  8
0
 62
7
  6
CONTINUOUS
 10
179.7764714412
 20
84.0062838065
 40
9.525
 50
48.0
 51
112.5
  0
ARC
  8
0
 62
7
  6
CONTINUOUS
 10
189.0001668811
 20
102.870222881
 40
2.0
 50
135.0
 51
215.0
  0
ARC
  8
0
 62
7
  6
CONTINUOUS
 10
192.4059788871
 20
91.0324320708
 40
2.0
 50
311.1118030147
 51
35.0
  0
ARC
  8
0
 62
7
  6
CONTINUOUS
 10
190.7585597469
 20
89.6263842899
 40
2.0
 50
228.0
 51
309.8487262651
  0
ARC
  8
0
 62
7
  6
CONTINUOUS
 10
197.9804230021
 20
113.2646925644
 40
1.5
 50
93.5903929576
 51
135.0
  0
ARC
  8
0
 62
7
  6
CONTINUOUS
 10
190.9093551903
 20
106.1936247525
 40
1.5
 50
135.0
 51
176.4096073479
  0
CIRCLE
  8
LAY0001
 62
7
  6
CONTINUOUS
 10
178.856720105
 20
104.7758756563
 40
1.275
  0
ARC
  8
LAY0001
 62
7
  6
CONTINUOUS
 10
178.29103468
 20
107.6396581201
 40
1.0
 50
225.0
 51
315.0
  0
ARC
  8
LAY0001
 62
7
  6
CONTINUOUS
 10
180.8366190923
 20
110.6095066011
 40
1.0
 50
45.0
 51
135.0
  0
ARC
  8
LAY0001
 62
7
  6
CONTINUOUS
 10
178.5397018771
 20
107.7469039609
 40
0.9
 50
315.0
 51
11.2510114041
  0
ARC
  8
LAY0001
 62
7
  6
CONTINUOUS
 10
180.5879518952
 20
110.5022607602
 40
0.9
 50
135.0
 51
191.2510114041
  0
ARC
  8
LAY0001
 62
7
  6
CONTINUOUS
 10
178.5031667144
 20
108.1346328669
 40
0.5
 50
315.0
 51
45.0
  0
ARC
  8
LAY0001
 62
7
  6
CONTINUOUS
 10
180.6244870579
 20
110.1145318542
 40
0.5
 50
135.0
 51
225.0
  0
ARC
  8
0
 62
7
  6
CONTINUOUS
 10
197.8551771771
 20
115.2607670829
 40
0.5
 50
273.59033269
 51
315.0
  0
ARC
  8
0
 62
7
  6
CONTINUOUS
 10
188.9132806718
 20
106.3188705776
 40
0.5
 50
315.0
 51
356.4096663934
  0
ARC
  8
LAY0001
 62
7
  6
CONTINUOUS
 10
178.3971006972
 20
107.6750134591
 40
0.25
 50
225.0
 51
315.0
  0
ARC
  8
LAY0001
 62
7
  6
CONTINUOUS
 10
180.7305530751
 20
110.574151262
 40
0.25
 50
45.0
 51
135.0
  0
ARC
  8
0
 62
7
  6
CONTINUOUS
 10
221.8652921496
 20
144.4957719199
 40
9.525
 50
93.0
 51
157.5
  0
ARC
  8
0
 62
7
  6
CONTINUOUS
 10
215.0486105033
 20
164.3567287524
 40
2.0
 50
180.0
 51
260.0
  0
ARC
  8
0
 62
7
  6
CONTINUOUS
 10
225.8274654243
 20
158.3944193612
 40
2.0
 50
356.1118030147
 51
80.0
  0
ARC
  8
0
 62
7
  6
CONTINUOUS
 10
225.6567900994
 20
156.2352921952
 40
2.0
 50
273.0
 51
354.8487262651
  0
ARC
  8
0
 62
7
  6
CONTINUOUS
 10
208.1396019146
 20
131.022797023
 40
2.0
 50
157.5
 51
237.5
  0
ARC
  8
0
 62
7
  6
CONTINUOUS
 10
215.8162883373
 20
121.3894522117
 40
2.0
 50
333.6118030147
 51
57.5
  0
ARC
  8
0
 62
7
  6
CONTINUOUS
 10
214.8323427032
 20
119.4599934342
 40
2.0
 50
250.5
 51
332.3487262651
  0
ARC
  8
0
 62
7
  6
CONTINUOUS
 10
212.4584854055
 20
144.0626300507
 40
1.5
 50
116.0904215624
 51
157.5
  0
ARC
  8
0
 62
7
  6
CONTINUOUS
 10
208.6316510818
 20
134.8238347256
 40
1.5
 50
157.5
 51
198.9096339564
  0
ARC
  8
0
 62
7
  6
CONTINUOUS
 10
211.5789087031
 20
145.8588329415
 40
0.5
 50
296.0902468759
 51
337.4999971718
  0
ARC
  8
0
 62
7
  6
CONTINUOUS
 10
206.7395891866
 20
134.175682132
 40
0.5
 50
337.5002887758
 51
18.9095865679
  0
ARC
  8
0
 62
7
  6
CONTINUOUS
 10
127.8036105033
 20
165.0567287524
 40
100.25
 50
84.8487262651
 51
86.1118030147
  0
ARC
  8
0
 62
7
  6
CONTINUOUS
 10
127.8036105033
 20
165.0567287524
 40
100.25
 50
242.3487262651
 51
243.6118030147
  0
ARC
  8
0
 62
7
  6
CONTINUOUS
 10
127.8036105033
 20
165.0567287524
 40
100.25
 50
219.8487262651
 51
221.1118030147
  0
ARC
  8
0
 62
7
  6
CONTINUOUS
 10
127.8036105033
 20
165.0567287524
 40
100.25
 50
197.3487262651
 51
198.6118030147
  0
ARC
  8
0
 62
7
  6
CONTINUOUS
 10
127.8036105033
 20
165.0567287524
 40
100.25
 50
174.8487262651
 51
176.1118030147
  0
ARC
  8
0
 62
7
  6
CONTINUOUS
 10
127.8036105033
 20
165.0567287524
 40
100.25
 50
152.3487262651
 51
153.6118030147
  0
ARC
  8
0
 62
7
  6
CONTINUOUS
 10
127.8036105033
 20
165.0567287524
 40
100.25
 50
129.8487262651
 51
131.1118030147
  0
ARC
  8
0
 62
7
  6
CONTINUOUS
 10
127.8036105033
 20
165.0567287524
 40
100.25
 50
107.3487262651
 51
108.6118030147
  0
ARC
  8
0
 62
7
  6
CONTINUOUS
 10
127.8036105033
 20
165.0567287524
 40
100.25
 50
62.3487262651
 51
63.6118030147
  0
ARC
  8
0
 62
7
  6
CONTINUOUS
 10
127.8036105033
 20
165.0567287524
 40
100.25
 50
39.8487262651
 51
41.1118030147
  0
ARC
  8
0
 62
7
  6
CONTINUOUS
 10
127.8036105033
 20
165.0567287524
 40
100.25
 50
17.3487262651
 51
18.6118030147
  0
ARC
  8
0
 62
7
  6
CONTINUOUS
 10
127.8036105033
 20
165.0567287524
 40
100.25
 50
354.8487262651
 51
356.1118030147
  0
ARC
  8
0
 62
7
  6
CONTINUOUS
 10
127.8036105033
 20
165.0567287524
 40
100.25
 50
332.3487262651
 51
333.6118030147
  0
ARC
  8
0
 62
7
  6
CONTINUOUS
 10
127.8036105033
 20
165.0567287524
 40
100.25
 50
309.8487262651
 51
311.1118030147
  0
ARC
  8
0
 62
7
  6
CONTINUOUS
 10
127.8036105033
 20
165.0567287524
 40
100.25
 50
287.3487262651
 51
288.6118030147
  0
ARC
  8
0
 62
7
  6
CONTINUOUS
 10
127.8036105033
 20
165.0567287524
 40
100.25
 50
264.8487262651
 51
266.1118030147
  0
ARC
  8
0
 62
7
  6
CONTINUOUS
 10
127.8036105033
 20
165.0567287524
 40
60.0
 50
94.0378043799
 51
85.9621956201
  0
CIRCLE
  8
0
 62
4
  6
CONTINUOUS
 10
127.8036105033
 20
165.0567287524
 40
9.525
  0
ARC
  8
0
 62
7
  6
CONTINUOUS
 10
148.3645673358
 20
259.1184103987
 40
9.525
 50
183.0
 51
247.5
  0
ARC
  8
0
 62
7
  6
CONTINUOUS
 10
127.8036105033
 20
221.5567287524
 40
5.0
 50
48.2231635838
 51
131.7768364162
  0
ARC
  8
0
 62
7
  6
CONTINUOUS
 10
128.5036105033
 20
252.3017287524
 40
2.0
 50
270.0
 51
350.0
  0
ARC
  8
0
 62
7
  6
CONTINUOUS
 10
134.4659198945
 20
263.0805836734
 40
2.0
 50
86.1118030147
 51
170.0
  0
ARC
  8
0
 62
7
  6
CONTINUOUS
 10
136.6250470605
 20
262.9099083485
 40
2.0
 50
3.0
 51
84.8487262651
  0
ARC
  8
0
 62
7
  6
CONTINUOUS
 10
161.8375422327
 20
245.3927201637
 40
2.0
 50
247.5
 51
327.5
  0
ARC
  8
0
 62
7
  6
CONTINUOUS
 10
171.470887044
 20
253.0694065865
 40
2.0
 50
63.6118030147
 51
147.5
  0
ARC
  8
0
 62
7
  6
CONTINUOUS
 10
173.4003458215
 20
252.0854609523
 40
2.0
 50
340.5
 51
62.3487262651
  0
ARC
  8
0
 62
7
  6
CONTINUOUS
 10
132.1341122253
 20
226.4040738852
 40
1.5
 50
228.2231635838
 51
265.9621956201
  0
ARC
  8
0
 62
7
  6
CONTINUOUS
 10
148.797709205
 20
249.7116036546
 40
1.5
 50
206.0904215624
 51
247.5
  0
ARC
  8
0
 62
7
  6
CONTINUOUS
 10
158.0365045301
 20
245.8847693309
 40
1.5
 50
247.5
 51
288.9096339564
  0
ARC
  8
0
 62
7
  6
CONTINUOUS
 10
147.0015063142
 20
248.8320269523
 40
0.5
 50
26.0902468759
 51
67.4999971718
  0
ARC
  8
0
 62
7
  6
CONTINUOUS
 10
158.6846571237
 20
243.9927074357
 40
0.5
 50
67.5002887758
 51
108.9095865679
  0
ARC
  8
0
 62
7
  6
CONTINUOUS
 10
222.5736105033
 20
182.0567287524
 40
9.525
 50
115.5
 51
180.0
  0
ARC
  8
0
 62
7
  6
CONTINUOUS
 10
208.6753587199
 20
197.7972291363
 40
2.0
 50
202.5
 51
282.5
  0
ARC
  8
0
 62
7
  6
CONTINUOUS
 10
220.915399188
 20
196.4136627214
 40
2.0
 50
18.6118030147
 51
102.5
  0
ARC
  8
0
 62
7
  6
CONTINUOUS
 10
221.5839779434
 20
194.3535747055
 40
2.0
 50
295.5
 51
17.3487262651
  0
ARC
  8
0
 62
7
  6
CONTINUOUS
 10
202.508716164
 20
210.0716952994
 40
1.5
 50
161.0903658021
 51
202.5
  0
ARC
  8
0
 62
7
  6
CONTINUOUS
 10
206.3355504876
 20
200.8328999743
 40
1.5
 50
202.5
 51
243.9095793194
  0
ARC
  8
0
 62
7
  6
CONTINUOUS
 10
214.0486105033
 20
178.0567287524
 40
1.5
 50
138.5903296659
 51
180.0
  0
ARC
  8
0
 62
7
  6
CONTINUOUS
 10
214.0486105033
 20
168.0567287524
 40
1.5
 50
180.0
 51
221.4096693646
  0
ARC
  8
0
 62
7
  6
CONTINUOUS
 10
200.6166542688
 20
210.719847893
 40
0.5
 50
341.0904141567
 51
22.4997039038
  0
ARC
  8
0
 62
7
  6
CONTINUOUS
 10
205.4559737853
 20
199.0366970835
 40
0.5
 50
22.5000018335
 51
63.9097504788
  0
ARC
  8
0
 62
7
  6
CONTINUOUS
 10
212.5486105033
 20
179.3796044079
 40
0.5
 50
318.5905225653
 51
359.9998505375
  0
ARC
  8
0
 62
7
  6
CONTINUOUS
 10
212.5486105033
 20
166.7338530969
 40
0.5
 50
0.0001453049
 51
41.4094803431
  0
ARC
  8
0
 62
7
  6
CONTINUOUS
 10
182.7953048762
 20
244.0900536856
 40
9.525
 50
160.5
 51
225.0
  0
ARC
  8
0
 62
7
  6
CONTINUOUS
 10
208.8540554492
 20
217.0295896903
 40
9.525
 50
138.0
 51
202.5
  0
ARC
  8
0
 62
7
  6
CONTINUOUS
 10
189.9901163747
 20
226.2532851302
 40
2.0
 50
225.0
 51
305.0
  0
ARC
  8
0
 62
7
  6
CONTINUOUS
 10
201.8279071849
 20
229.6590971362
 40
2.0
 50
41.1118030147
 51
125.0
  0
ARC
  8
0
 62
7
  6
CONTINUOUS
 10
203.2339549658
 20
228.0116779961
 40
2.0
 50
318.0
 51
39.8487262651
  0
ARC
  8
0
 62
7
  6
CONTINUOUS
 10
179.5956466913
 20
235.2335412513
 40
1.5
 50
183.5903929576
 51
225.0
  0
ARC
  8
0
 62
7
  6
CONTINUOUS
 10
186.6667145032
 20
228.1624734394
 40
1.5
 50
225.0
 51
266.4096073479
  0
ARC
  8
0
 62
7
  6
CONTINUOUS
 10
177.5995721728
 20
235.1082954262
 40
0.5
 50
3.59033269
 51
45.0
  0
ARC
  8
0
 62
7
  6
CONTINUOUS
 10
186.5414686781
 20
226.1663989209
 40
0.5
 50
45.0
 51
86.4096663934
  0
ARC
  8
0
 62
7
  6
CONTINUOUS
 10
314.1314277899
 20
225.0567287524
 40
1.5
 50
90.0
 51
180.0
  0
ARC
  8
0
 62
7
  6
CONTINUOUS
 10
326.1314277899
 20
228.0567287524
 40
1.5
 50
270.0
 51
360.0
  0
ARC
  8
0
 62
7
  6
CONTINUOUS
 10
314.1314277899
 20
106.5567287524
 40
1.5
 50
180.0
 51
270.0
  0
ARC
  8
0
 62
7
  6
CONTINUOUS
 10
326.1314277899
 20
103.5567287524
 40
1.5
 50
0.0
 51
90.0
  0
ARC
  8
0
 62
7
  6
CONTINUOUS
 10
338.1314277899
 20
228.0567287524
 40
1.5
 50
207.0
 51
270.0
  0
ARC
  8
0
 62
7
  6
CONTINUOUS
 10
350.1314277899
 20
225.0567287524
 40
1.5
 50
0.0
 51
90.0
  0
ARC
  8
0
 62
7
  6
CONTINUOUS
 10
338.1314277899
 20
103.5567287524
 40
1.5
 50
90.0
 51
173.8239357504
  0
ARC
  8
0
 62
7
  6
CONTINUOUS
 10
350.1314277899
 20
106.5567287524
 40
1.5
 50
270.0
 51
360.0
  0
ENDSEC
  0
EOF
