  0
SECTION
  2
HEADER
  9
$EXTMAX
 10
210.0
 20
297.0
 30
0.0
  9
$EXTMIN
 10
0.0
 20
0.0
 30
0.0
  9
$LIMMIN
 10
0.0
 20
0.0
  9
$LIMMAX
 10
210.0
 20
297.0
  9
$VIEWCTR
 10
105.0
 20
148.5
  9
$VIEWSIZE
 40
297.0
  9
$CLAYER
  8
0
  9
$LTSCALE
 40
19.36
  9
$CELTYPE
  6
BYLAYER
  9
$DIMSCALE
 40
1.0
  9
$DIMASZ
 40
3.5
  9
$DIMEXO
 40
2.2
  9
$DIMDLI
 40
13.376
  9
$DIMEXE
 40
6.336
  9
$DIMCEN
 40
3.168
  9
$DIMLFAC
 40
1.0
  9
$DIMBLK
  1
_FILLED
  9
$DIMTXT
 40
3.5
  9
$PDMODE
 70
3
  9
$PDSIZE
 40
0.3125
  9
$TILEMODE
 70
1
  0
ENDSEC
  0
SECTION
  2
TABLES
  0
TABLE
  2
LTYPE
 70
6
  0
LTYPE
  2
BYBLOCK
 70
0
  3

 72
65
 73
0
 40
0.0
  0
LTYPE
  2
BYLAYER
 70
0
  3

 72
65
 73
0
 40
0.0
  0
LTYPE
  2
CONTINUOUS
 70
64
  3
Solid line
 72
65
 73
0
 40
0.0
  0
LTYPE
  2
CENTER
 70
64
  3
____ _ ____ _ ____ _ ____ _ ____ _ ____ _ ____
 72
65
 73
4
 40
0.6
 49
0.375
 49
-0.075
 49
0.075
 49
-0.075
  0
LTYPE
  2
HIDDEN
 70
64
  3
- - - - - - - - - - - - - - - - - - - -
 72
65
 73
2
 40
0.2
 49
0.1
 49
-0.1
  0
LTYPE
  2
PHANTOM
 70
64
  3
_____ _ _ _____ _ _ _____ _ _ _____
 72
65
 73
6
 40
0.8
 49
0.45
 49
-0.05
 49
0.1
 49
-0.05
 49
0.1
 49
-0.05
  0
LTYPE
  2
DOT
 70
64
  3
. . . . . . . . . . . . . . . . . . . .
 72
65
 73
2
 40
0.2
 49
0.1
 49
-0.1
  0
LTYPE
  2
DASHED
 70
64
  3
- - - - - - - - - - - - - - - - - - - -
 72
65
 73
2
 40
0.2
 49
0.1
 49
-0.1
  0
ENDTAB
  0
TABLE
  2
LAYER
 70
36
  0
LAYER
  2
0
 70
0
 62
7
  6
CONTINUOUS
  0
LAYER
  2
DEFAULT_1
 70
0
 62
7
  6
CENTER
  0
LAYER
  2
DEFAULT_2
 70
0
 62
8
  6
HIDDEN
  0
LAYER
  2
DEFAULT_3
 70
0
 62
7
  6
PHANTOM
  0
LAYER
  2
1_DATUMPLANE
 70
0
 62
7
  6
CONTINUOUS
  0
LAYER
  2
AXES
 70
0
 62
7
  6
CONTINUOUS
  0
LAYER
  2
CURVE
 70
0
 62
7
  6
CONTINUOUS
  0
LAYER
  2
NOTES
 70
0
 62
7
  6
CONTINUOUS
  0
LAYER
  2
SURFACE
 70
0
 62
7
  6
CONTINUOUS
  0
ENDTAB
  0
TABLE
  2
STYLE
 70
1
  0
STYLE
  2
STANDARD
 70
0
 40
0.0
 41
0.8
 50
0.0
 71
0
 42
0.2
  3
txt
  4

  0
STYLE
  2
TEXTSTYLE_1
 70
0
 40
0.0
 41
0.8
 50
0.0
 71
0
 42
0.2
  3
gdt
  4

  0
STYLE
  2
TEXTSTYLE_2
 70
0
 40
0.0
 41
0.6
 50
0.0
 71
0
 42
0.2
  3
txt
  4

  0
STYLE
  2
TEXTSTYLE_3
 70
0
 40
0.0
 41
1.0
 50
0.0
 71
0
 42
0.2
  3
ftb_____.ttf
  4

  0
STYLE
  2
TEXTSTYLE_4
 70
0
 40
0.0
 41
1.0
 50
0.0
 71
0
 42
0.2
  3
fti_____.ttf
  4

  0
STYLE
  2
TEXTSTYLE_5
 70
0
 40
0.0
 41
1.0
 50
0.0
 71
0
 42
0.2
  3
frutiger light.ttf
  4

  0
STYLE
  2
TEXTSTYLE_6
 70
0
 40
0.0
 41
0.7
 50
0.0
 71
0
 42
0.2
  3
txt
  4

  0
STYLE
  2
TEXTSTYLE_7
 70
0
 40
0.0
 41
0.6
 50
0.0
 71
0
 42
0.2
  3
txt
  4

  0
ENDTAB
  0
ENDSEC
  0
SECTION
  2
BLOCKS
  0
BLOCK
  8
0
 62
2
  6
CONTINUOUS
  2
SYMBOL_8_BL1
 70
64
 10
173.5956734183
 20
35.5937998301
  0
TEXT
  8
0
 62
7
  6
CONTINUOUS
 10
164.6539584268
 20
30.6865562072
  7
TEXTSTYLE_4
 40
1.0655737705
  1
The brand for plastic modular belts and chains
 41
1.0
 72
0
  0
LINE
  8
0
 62
7
  6
CONTINUOUS
 10
149.5737418074
 20
36.1675703219
 11
149.5737418074
 21
34.0364227809
  0
LINE
  8
0
 62
7
  6
CONTINUOUS
 10
149.8628043005
 20
31.0454914852
 11
149.8628043005
 21
31.1422825445
  0
LINE
  8
0
 62
7
  6
CONTINUOUS
 10
149.5737418074
 20
31.1100188581
 11
149.6315543091
 21
30.9164367395
  0
LINE
  8
0
 62
7
  6
CONTINUOUS
 10
150.9671844304
 20
33.9544555678
 11
150.9671844304
 21
36.1675703219
  0
LINE
  8
0
 62
7
  6
CONTINUOUS
 10
151.8862417523
 20
32.1101932727
 11
151.8862417523
 21
30.5937998301
  0
LINE
  8
0
 62
7
  6
CONTINUOUS
 10
152.1753043074
 20
30.5937998301
 11
152.1753043074
 21
31.3358647082
  0
LINE
  8
0
 62
7
  6
CONTINUOUS
 10
152.1753043074
 20
31.4649194539
 11
152.1753043074
 21
32.1101932727
  0
LINE
  8
0
 62
7
  6
CONTINUOUS
 10
149.6315543091
 20
31.3036010218
 11
149.5737418074
 21
31.1100188581
  0
LINE
  8
0
 62
7
  6
CONTINUOUS
 10
149.9784292936
 20
30.8841730531
 11
149.8628043005
 21
31.0454914852
  0
LINE
  8
0
 62
7
  6
CONTINUOUS
 10
151.0768668626
 20
31.400392081
 11
151.1346793074
 21
31.3036010218
  0
LINE
  8
0
 62
7
  6
CONTINUOUS
 10
151.4237418626
 20
31.3036010218
 11
151.3659292523
 21
31.4326557675
  0
LINE
  8
0
 62
7
  6
CONTINUOUS
 10
152.852430332
 20
36.1675703219
 11
152.852430332
 21
34.3642916334
  0
LINE
  8
0
 62
7
  6
CONTINUOUS
 10
152.852430332
 20
33.0528162235
 11
152.852430332
 21
32.3970785186
  0
LINE
  8
0
 62
7
  6
CONTINUOUS
 10
153.2159293074
 20
31.2390736489
 11
153.2159293074
 21
30.5937998301
  0
LINE
  8
0
 62
7
  6
CONTINUOUS
 10
153.5049916972
 20
30.5937998301
 11
153.5049916972
 21
31.2390736489
  0
LINE
  8
0
 62
7
  6
CONTINUOUS
 10
149.8628043005
 20
31.1422825445
 11
149.9206168074
 21
31.2713373354
  0
LINE
  8
0
 62
7
  6
CONTINUOUS
 10
149.6315543091
 20
30.9164367395
 11
149.7471793074
 21
30.7873819712
  0
LINE
  8
0
 62
7
  6
CONTINUOUS
 10
153.1581166972
 20
31.3681283946
 11
153.2159293074
 21
31.2390736489
  0
LINE
  8
0
 62
7
  6
CONTINUOUS
 10
153.9674919177
 20
30.8841730531
 11
154.0253041972
 21
30.7551182848
  0
LINE
  8
0
 62
7
  6
CONTINUOUS
 10
153.5049916972
 20
31.2390736489
 11
153.4471794177
 21
31.400392081
  0
LINE
  8
0
 62
7
  6
CONTINUOUS
 10
153.9674919177
 20
31.4326557675
 11
153.9674919177
 21
31.3681283946
  0
LINE
  8
0
 62
7
  6
CONTINUOUS
 10
153.9674919177
 20
30.9809641124
 11
153.9674919177
 21
30.8841730531
  0
LINE
  8
0
 62
7
  6
CONTINUOUS
 10
154.245872955
 20
32.3970785186
 11
154.245872955
 21
36.1675703219
  0
LINE
  8
0
 62
7
  6
CONTINUOUS
 10
154.2565543074
 20
30.8519093441
 11
154.2565543074
 21
30.9164367395
  0
LINE
  8
0
 62
7
  6
CONTINUOUS
 10
154.5737418074
 20
36.1675703219
 11
154.5737418074
 21
32.3970785186
  0
LINE
  8
0
 62
7
  6
CONTINUOUS
 10
151.3659292523
 20
30.7873819712
 11
151.4237418626
 21
30.9164367395
  0
LINE
  8
0
 62
7
  6
CONTINUOUS
 10
155.759679528
 20
30.6905909007
 11
155.7018665869
 21
30.8519093441
  0
LINE
  8
0
 62
7
  6
CONTINUOUS
 10
155.412804528
 20
31.3681283946
 11
155.412804528
 21
31.2713373354
  0
LINE
  8
0
 62
7
  6
CONTINUOUS
 10
155.412804528
 20
31.1422825445
 11
155.412804528
 21
30.9487004259
  0
LINE
  8
0
 62
7
  6
CONTINUOUS
 10
155.7018665869
 20
30.8519093441
 11
155.7018665869
 21
31.3681283946
  0
LINE
  8
0
 62
7
  6
CONTINUOUS
 10
155.9671844304
 20
32.3970785186
 11
155.9671844304
 21
34.2003572071
  0
LINE
  8
0
 62
7
  6
CONTINUOUS
 10
155.9671844304
 20
35.511832617
 11
155.9671844304
 21
36.1675703219
  0
LINE
  8
0
 62
7
  6
CONTINUOUS
 10
156.279992028
 20
32.1101932727
 11
156.279992028
 21
31.9488748406
  0
LINE
  8
0
 62
7
  6
CONTINUOUS
 10
156.279992028
 20
31.626237886
 11
156.279992028
 21
30.5937998301
  0
LINE
  8
0
 62
7
  6
CONTINUOUS
 10
156.5690540869
 20
30.5937998301
 11
156.5690540869
 21
31.626237886
  0
LINE
  8
0
 62
7
  6
CONTINUOUS
 10
156.5690540869
 20
31.9488748406
 11
156.5690540869
 21
32.1101932727
  0
LINE
  8
0
 62
7
  6
CONTINUOUS
 10
151.1346793074
 20
30.9164367395
 11
151.0768668626
 21
30.8196456577
  0
LINE
  8
0
 62
7
  6
CONTINUOUS
 10
153.4471794177
 20
31.400392081
 11
153.3893668074
 21
31.4649194539
  0
LINE
  8
0
 62
7
  6
CONTINUOUS
 10
154.3143669177
 20
30.7873819712
 11
154.2565543074
 21
30.8519093441
  0
LINE
  8
0
 62
7
  6
CONTINUOUS
 10
155.4706168074
 20
30.6583272086
 11
155.5284290869
 21
30.5937998301
  0
LINE
  8
0
 62
7
  6
CONTINUOUS
 10
155.412804528
 20
30.7551182848
 11
155.4706168074
 21
30.6583272086
  0
LINE
  8
0
 62
7
  6
CONTINUOUS
 10
155.8174918074
 20
30.5937998301
 11
155.759679528
 21
30.6905909007
  0
LINE
  8
0
 62
7
  6
CONTINUOUS
 10
155.7018665869
 20
31.3681283946
 11
155.6440543074
 21
31.4649194539
  0
LINE
  8
0
 62
7
  6
CONTINUOUS
 10
157.0315543074
 20
31.626237886
 11
157.0315543074
 21
30.5937998301
  0
LINE
  8
0
 62
7
  6
CONTINUOUS
 10
157.320617028
 20
30.5937998301
 11
157.320617028
 21
31.3358647082
  0
LINE
  8
0
 62
7
  6
CONTINUOUS
 10
157.320617028
 20
31.4649194539
 11
157.320617028
 21
31.626237886
  0
LINE
  8
0
 62
7
  6
CONTINUOUS
 10
157.852430332
 20
34.6101932727
 11
157.852430332
 21
32.3970785186
  0
LINE
  8
0
 62
7
  6
CONTINUOUS
 10
149.7471793074
 20
31.4326557675
 11
149.6315543091
 21
31.3036010218
  0
LINE
  8
0
 62
7
  6
CONTINUOUS
 10
149.9206168074
 20
31.2713373354
 11
149.9784292936
 21
31.3358647082
  0
LINE
  8
0
 62
7
  6
CONTINUOUS
 10
149.7471793074
 20
30.7873819712
 11
149.8628043005
 21
30.7228545871
  0
LINE
  8
0
 62
7
  6
CONTINUOUS
 10
150.1518667936
 20
30.7873819712
 11
149.9784292936
 21
30.8841730531
  0
LINE
  8
0
 62
7
  6
CONTINUOUS
 10
155.3549915869
 20
31.4326557675
 11
155.412804528
 21
31.3681283946
  0
LINE
  8
0
 62
7
  6
CONTINUOUS
 10
158.3034290869
 20
31.3681283946
 11
158.361242028
 21
31.2068099625
  0
LINE
  8
0
 62
7
  6
CONTINUOUS
 10
158.6503040869
 20
31.2068099625
 11
158.5924918074
 21
31.3681283946
  0
LINE
  8
0
 62
7
  6
CONTINUOUS
 10
158.361242028
 20
31.2068099625
 11
158.361242028
 21
30.5937998301
  0
LINE
  8
0
 62
7
  6
CONTINUOUS
 10
158.6503040869
 20
30.5937998301
 11
158.6503040869
 21
31.2068099625
  0
LINE
  8
0
 62
7
  6
CONTINUOUS
 10
159.1128043074
 20
31.4326557675
 11
159.1128043074
 21
31.3681283946
  0
LINE
  8
0
 62
7
  6
CONTINUOUS
 10
159.245872955
 20
32.3970785186
 11
159.245872955
 21
34.5282260596
  0
LINE
  8
0
 62
7
  6
CONTINUOUS
 10
159.5737418074
 20
36.1675703219
 11
159.5737418074
 21
32.3970785186
  0
LINE
  8
0
 62
7
  6
CONTINUOUS
 10
154.2565543074
 20
30.9164367395
 11
154.3143669177
 21
31.0132277988
  0
LINE
  8
0
 62
7
  6
CONTINUOUS
 10
149.8628043005
 20
30.7228545871
 11
150.0362418212
 21
30.6583272086
  0
LINE
  8
0
 62
7
  6
CONTINUOUS
 10
151.3659292523
 20
31.4326557675
 11
151.1924917523
 21
31.5294468267
  0
LINE
  8
0
 62
7
  6
CONTINUOUS
 10
154.0253041972
 20
30.7551182848
 11
154.1987416972
 21
30.6583272086
  0
LINE
  8
0
 62
7
  6
CONTINUOUS
 10
153.0424918074
 20
31.4326557675
 11
153.1581166972
 21
31.3681283946
  0
LINE
  8
0
 62
7
  6
CONTINUOUS
 10
153.3893668074
 20
31.4649194539
 11
153.2737419177
 21
31.5294468267
  0
LINE
  8
0
 62
7
  6
CONTINUOUS
 10
159.1128043074
 20
30.8519093441
 11
159.228429528
 21
30.7228545871
  0
LINE
  8
0
 62
7
  6
CONTINUOUS
 10
159.4596793074
 20
30.7873819712
 11
159.401867028
 21
30.8519093441
  0
LINE
  8
0
 62
7
  6
CONTINUOUS
 10
159.1128043074
 20
31.3681283946
 11
159.228429528
 21
31.2390736489
  0
LINE
  8
0
 62
7
  6
CONTINUOUS
 10
158.5924918074
 20
31.3681283946
 11
158.534679528
 21
31.4649194539
  0
LINE
  8
0
 62
7
  6
CONTINUOUS
 10
160.9628038663
 20
30.7873819712
 11
160.9628038663
 21
30.8519093441
  0
LINE
  8
0
 62
7
  6
CONTINUOUS
 10
160.9671844304
 20
32.3970785186
 11
160.9671844304
 21
36.1675703219
  0
LINE
  8
0
 62
7
  6
CONTINUOUS
 10
154.0253041972
 20
31.4971831403
 11
153.9674919177
 21
31.4326557675
  0
LINE
  8
0
 62
7
  6
CONTINUOUS
 10
150.9034292799
 20
31.4649194539
 11
151.0768668626
 21
31.400392081
  0
LINE
  8
0
 62
7
  6
CONTINUOUS
 10
155.6440543074
 20
31.4649194539
 11
155.5284290869
 21
31.5294468267
  0
LINE
  8
0
 62
7
  6
CONTINUOUS
 10
159.4596793074
 20
31.3036010218
 11
159.401867028
 21
31.3681283946
  0
LINE
  8
0
 62
7
  6
CONTINUOUS
 10
160.615929528
 20
30.9164367395
 11
160.6737418074
 21
30.8519093441
  0
LINE
  8
0
 62
7
  6
CONTINUOUS
 10
160.9628038663
 20
30.8519093441
 11
160.8471793074
 21
30.9809641124
  0
LINE
  8
0
 62
7
  6
CONTINUOUS
 10
160.615929528
 20
31.4326557675
 11
160.6737418074
 21
31.3681283946
  0
LINE
  8
0
 62
7
  6
CONTINUOUS
 10
160.9628038663
 20
31.3681283946
 11
160.8471793074
 21
31.4971831403
  0
LINE
  8
0
 62
7
  6
CONTINUOUS
 10
154.2565543074
 20
31.3681283946
 11
154.3143669177
 21
31.4326557675
  0
LINE
  8
0
 62
7
  6
CONTINUOUS
 10
154.0831168074
 20
31.1100188581
 11
153.9674919177
 21
30.9809641124
  0
LINE
  8
0
 62
7
  6
CONTINUOUS
 10
155.412804528
 20
30.9487004259
 11
155.3549915869
 21
30.8841730531
  0
LINE
  8
0
 62
7
  6
CONTINUOUS
 10
155.3549915869
 20
30.6905909007
 11
155.412804528
 21
30.7551182848
  0
LINE
  8
0
 62
7
  6
CONTINUOUS
 10
154.1987416972
 20
30.6583272086
 11
154.3143669177
 21
30.6260635193
  0
LINE
  8
0
 62
7
  6
CONTINUOUS
 10
151.1924917523
 20
31.5294468267
 11
150.9612418074
 21
31.5939741996
  0
LINE
  8
0
 62
7
  6
CONTINUOUS
 10
154.5456166972
 20
30.7228545871
 11
154.3143669177
 21
30.7873819712
  0
LINE
  8
0
 62
7
  6
CONTINUOUS
 10
153.2737419177
 20
31.5294468267
 11
153.1003044177
 21
31.5939741996
  0
LINE
  8
0
 62
7
  6
CONTINUOUS
 10
155.5284290869
 20
31.5294468267
 11
155.3549915869
 21
31.5939741996
  0
LINE
  8
0
 62
7
  6
CONTINUOUS
 10
158.187804528
 20
31.4326557675
 11
158.3034290869
 21
31.3681283946
  0
LINE
  8
0
 62
7
  6
CONTINUOUS
 10
158.534679528
 20
31.4649194539
 11
158.4190543074
 21
31.5294468267
  0
LINE
  8
0
 62
7
  6
CONTINUOUS
 10
150.0362418212
 20
30.6583272086
 11
150.2096793212
 21
30.6260635193
  0
LINE
  8
0
 62
7
  6
CONTINUOUS
 10
150.498741835
 20
30.7228545871
 11
150.1518667936
 21
30.7873819712
  0
LINE
  8
0
 62
7
  6
CONTINUOUS
 10
152.9268669177
 20
31.4649194539
 11
153.0424918074
 21
31.4326557675
  0
LINE
  8
0
 62
7
  6
CONTINUOUS
 10
155.239367028
 20
31.4649194539
 11
155.3549915869
 21
31.4326557675
  0
LINE
  8
0
 62
7
  6
CONTINUOUS
 10
159.575304528
 20
30.7551182848
 11
159.4596793074
 21
30.7873819712
  0
LINE
  8
0
 62
7
  6
CONTINUOUS
 10
158.0721793074
 20
31.4649194539
 11
158.187804528
 21
31.4326557675
  0
LINE
  8
0
 62
7
  6
CONTINUOUS
 10
159.228429528
 20
30.7228545871
 11
159.401867028
 21
30.6583272086
  0
LINE
  8
0
 62
7
  6
CONTINUOUS
 10
158.4190543074
 20
31.5294468267
 11
158.2456168074
 21
31.5939741996
  0
LINE
  8
0
 62
7
  6
CONTINUOUS
 10
159.6331168074
 20
31.2390736489
 11
159.4596793074
 21
31.3036010218
  0
LINE
  8
0
 62
7
  6
CONTINUOUS
 10
160.442492028
 20
30.9809641124
 11
160.615929528
 21
30.9164367395
  0
LINE
  8
0
 62
7
  6
CONTINUOUS
 10
160.8471793074
 20
31.4971831403
 11
160.6737418074
 21
31.5617105132
  0
LINE
  8
0
 62
7
  6
CONTINUOUS
 10
159.228429528
 20
31.2390736489
 11
159.4596793074
 21
31.1422825445
  0
LINE
  8
0
 62
7
  6
CONTINUOUS
 10
160.8471793074
 20
30.9809641124
 11
160.615929528
 21
31.0777551716
  0
LINE
  8
0
 62
7
  6
CONTINUOUS
 10
159.401867028
 20
31.3681283946
 11
159.4596793074
 21
31.4326557675
  0
LINE
  8
0
 62
7
  6
CONTINUOUS
 10
149.8628043005
 20
31.4971831403
 11
149.7471793074
 21
31.4326557675
  0
LINE
  8
0
 62
7
  6
CONTINUOUS
 10
149.9784292936
 20
31.3358647082
 11
150.1518667936
 21
31.4326557675
  0
LINE
  8
0
 62
7
  6
CONTINUOUS
 10
152.2909293626
 20
31.5294468267
 11
152.1753043074
 21
31.4649194539
  0
LINE
  8
0
 62
7
  6
CONTINUOUS
 10
152.1753043074
 20
31.3358647082
 11
152.2909293626
 21
31.400392081
  0
LINE
  8
0
 62
7
  6
CONTINUOUS
 10
151.1924917523
 20
30.6905909007
 11
151.3659292523
 21
30.7873819712
  0
LINE
  8
0
 62
7
  6
CONTINUOUS
 10
150.2096793212
 20
30.6260635193
 11
150.5565542799
 21
30.5937998301
  0
LINE
  8
0
 62
7
  6
CONTINUOUS
 10
154.3143669177
 20
30.6260635193
 11
154.5456166972
 21
30.5937998301
  0
LINE
  8
0
 62
7
  6
CONTINUOUS
 10
152.6956168074
 20
31.4971831403
 11
152.9268669177
 21
31.4649194539
  0
LINE
  8
0
 62
7
  6
CONTINUOUS
 10
155.0081169177
 20
31.4971831403
 11
155.239367028
 21
31.4649194539
  0
LINE
  8
0
 62
7
  6
CONTINUOUS
 10
159.4596793074
 20
31.1422825445
 11
160.442492028
 21
30.9809641124
  0
LINE
  8
0
 62
7
  6
CONTINUOUS
 10
160.615929528
 20
31.0777551716
 11
159.6331168074
 21
31.2390736489
  0
LINE
  8
0
 62
7
  6
CONTINUOUS
 10
153.1003044177
 20
31.5939741996
 11
152.9268669177
 21
31.626237886
  0
LINE
  8
0
 62
7
  6
CONTINUOUS
 10
159.401867028
 20
30.6583272086
 11
159.575304528
 21
30.6260635193
  0
LINE
  8
0
 62
7
  6
CONTINUOUS
 10
158.2456168074
 20
31.5939741996
 11
158.0721793074
 21
31.626237886
  0
LINE
  8
0
 62
7
  6
CONTINUOUS
 10
160.5003043074
 20
31.4649194539
 11
160.615929528
 21
31.4326557675
  0
LINE
  8
0
 62
7
  6
CONTINUOUS
 10
160.6737418074
 20
30.8519093441
 11
160.615929528
 21
30.7873819712
  0
LINE
  8
0
 62
7
  6
CONTINUOUS
 10
159.228429528
 20
31.5294468267
 11
159.1128043074
 21
31.4326557675
  0
LINE
  8
0
 62
7
  6
CONTINUOUS
 10
154.1409294177
 20
31.5617105132
 11
154.0253041972
 21
31.4971831403
  0
LINE
  8
0
 62
7
  6
CONTINUOUS
 10
154.1987416972
 20
31.1745462761
 11
154.0831168074
 21
31.1100188581
  0
LINE
  8
0
 62
7
  6
CONTINUOUS
 10
154.3143669177
 20
31.0132277988
 11
154.4299918074
 21
31.0777551716
  0
LINE
  8
0
 62
7
  6
CONTINUOUS
 10
151.8862417523
 20
30.5937998301
 11
152.1753043074
 21
30.5937998301
  0
LINE
  8
0
 62
7
  6
CONTINUOUS
 10
153.2159293074
 20
30.5937998301
 11
153.5049916972
 21
30.5937998301
  0
LINE
  8
0
 62
7
  6
CONTINUOUS
 10
154.5456166972
 20
30.5937998301
 11
154.8924916972
 21
30.5937998301
  0
LINE
  8
0
 62
7
  6
CONTINUOUS
 10
155.5284290869
 20
30.5937998301
 11
155.8174918074
 21
30.5937998301
  0
LINE
  8
0
 62
7
  6
CONTINUOUS
 10
156.279992028
 20
30.5937998301
 11
156.5690540869
 21
30.5937998301
  0
LINE
  8
0
 62
7
  6
CONTINUOUS
 10
157.0315543074
 20
30.5937998301
 11
157.320617028
 21
30.5937998301
  0
LINE
  8
0
 62
7
  6
CONTINUOUS
 10
158.361242028
 20
30.5937998301
 11
158.6503040869
 21
30.5937998301
  0
LINE
  8
0
 62
7
  6
CONTINUOUS
 10
159.922179528
 20
30.5937998301
 11
160.269054528
 21
30.5937998301
  0
LINE
  8
0
 62
7
  6
CONTINUOUS
 10
160.269054528
 20
30.7228545871
 11
159.922179528
 21
30.7228545871
  0
LINE
  8
0
 62
7
  6
CONTINUOUS
 10
154.8924916972
 20
30.7228545871
 11
154.5456166972
 21
30.7228545871
  0
LINE
  8
0
 62
7
  6
CONTINUOUS
 10
159.401867028
 20
30.8519093441
 11
159.1128043074
 21
30.8519093441
  0
LINE
  8
0
 62
7
  6
CONTINUOUS
 10
151.4237418626
 20
30.9164367395
 11
151.1346793074
 21
30.9164367395
  0
LINE
  8
0
 62
7
  6
CONTINUOUS
 10
150.498741835
 20
31.4971831403
 11
150.9034292799
 21
31.4649194539
  0
LINE
  8
0
 62
7
  6
CONTINUOUS
 10
150.9612418074
 20
31.5939741996
 11
150.5565542799
 21
31.626237886
  0
LINE
  8
0
 62
7
  6
CONTINUOUS
 10
159.575304528
 20
30.6260635193
 11
159.922179528
 21
30.5937998301
  0
LINE
  8
0
 62
7
  6
CONTINUOUS
 10
159.922179528
 20
30.7228545871
 11
159.575304528
 21
30.7551182848
  0
LINE
  8
0
 62
7
  6
CONTINUOUS
 10
155.3549915869
 20
31.5939741996
 11
155.0081169177
 21
31.626237886
  0
LINE
  8
0
 62
7
  6
CONTINUOUS
 10
160.1534293074
 20
31.4971831403
 11
160.5003043074
 21
31.4649194539
  0
LINE
  8
0
 62
7
  6
CONTINUOUS
 10
160.5003043074
 20
31.5939741996
 11
160.1534293074
 21
31.626237886
  0
LINE
  8
0
 62
7
  6
CONTINUOUS
 10
157.840929528
 20
31.4971831403
 11
158.0721793074
 21
31.4649194539
  0
LINE
  8
0
 62
7
  6
CONTINUOUS
 10
160.6737418074
 20
31.5617105132
 11
160.5003043074
 21
31.5939741996
  0
LINE
  8
0
 62
7
  6
CONTINUOUS
 10
160.8471793074
 20
30.6905909007
 11
160.9628038663
 21
30.7873819712
  0
LINE
  8
0
 62
7
  6
CONTINUOUS
 10
155.3549915869
 20
30.8841730531
 11
155.1815540869
 21
30.7873819712
  0
LINE
  8
0
 62
7
  6
CONTINUOUS
 10
157.4362415869
 20
31.5294468267
 11
157.320617028
 21
31.4649194539
  0
LINE
  8
0
 62
7
  6
CONTINUOUS
 10
157.320617028
 20
31.3358647082
 11
157.4362415869
 21
31.400392081
  0
LINE
  8
0
 62
7
  6
CONTINUOUS
 10
150.0362418212
 20
31.5617105132
 11
149.8628043005
 21
31.4971831403
  0
LINE
  8
0
 62
7
  6
CONTINUOUS
 10
152.4643666972
 20
31.5939741996
 11
152.2909293626
 21
31.5294468267
  0
LINE
  8
0
 62
7
  6
CONTINUOUS
 10
152.2909293626
 20
31.400392081
 11
152.4643666972
 21
31.4649194539
  0
LINE
  8
0
 62
7
  6
CONTINUOUS
 10
151.0768668626
 20
30.8196456577
 11
150.9034292799
 21
30.7551182848
  0
LINE
  8
0
 62
7
  6
CONTINUOUS
 10
160.5003043074
 20
30.7551182848
 11
160.269054528
 21
30.7228545871
  0
LINE
  8
0
 62
7
  6
CONTINUOUS
 10
154.8924916972
 20
30.5937998301
 11
155.1815540869
 21
30.6260635193
  0
LINE
  8
0
 62
7
  6
CONTINUOUS
 10
160.269054528
 20
30.5937998301
 11
160.615929528
 21
30.6260635193
  0
LINE
  8
0
 62
7
  6
CONTINUOUS
 10
150.5565542799
 20
30.5937998301
 11
150.9612418074
 21
30.6260635193
  0
LINE
  8
0
 62
7
  6
CONTINUOUS
 10
150.9034292799
 20
30.7551182848
 11
150.498741835
 21
30.7228545871
  0
LINE
  8
0
 62
7
  6
CONTINUOUS
 10
154.7768668074
 20
31.1422825445
 11
155.412804528
 21
31.1422825445
  0
LINE
  8
0
 62
7
  6
CONTINUOUS
 10
155.412804528
 20
31.2713373354
 11
154.7768668074
 21
31.2713373354
  0
LINE
  8
0
 62
7
  6
CONTINUOUS
 10
151.1346793074
 20
31.3036010218
 11
151.4237418626
 21
31.3036010218
  0
LINE
  8
0
 62
7
  6
CONTINUOUS
 10
153.9674919177
 20
31.3681283946
 11
154.2565543074
 21
31.3681283946
  0
LINE
  8
0
 62
7
  6
CONTINUOUS
 10
160.6737418074
 20
31.3681283946
 11
160.9628038663
 21
31.3681283946
  0
LINE
  8
0
 62
7
  6
CONTINUOUS
 10
154.6612419177
 20
31.4971831403
 11
155.0081169177
 21
31.4971831403
  0
LINE
  8
0
 62
7
  6
CONTINUOUS
 10
159.8065543074
 20
31.4971831403
 11
160.1534293074
 21
31.4971831403
  0
LINE
  8
0
 62
7
  6
CONTINUOUS
 10
160.1534293074
 20
31.626237886
 11
159.8065543074
 21
31.626237886
  0
LINE
  8
0
 62
7
  6
CONTINUOUS
 10
158.0721793074
 20
31.626237886
 11
157.840929528
 21
31.626237886
  0
LINE
  8
0
 62
7
  6
CONTINUOUS
 10
157.320617028
 20
31.626237886
 11
157.0315543074
 21
31.626237886
  0
LINE
  8
0
 62
7
  6
CONTINUOUS
 10
156.5690540869
 20
31.626237886
 11
156.279992028
 21
31.626237886
  0
LINE
  8
0
 62
7
  6
CONTINUOUS
 10
155.0081169177
 20
31.626237886
 11
154.6612419177
 21
31.626237886
  0
LINE
  8
0
 62
7
  6
CONTINUOUS
 10
152.9268669177
 20
31.626237886
 11
152.6956168074
 21
31.626237886
  0
LINE
  8
0
 62
7
  6
CONTINUOUS
 10
156.279992028
 20
31.9488748406
 11
156.5690540869
 21
31.9488748406
  0
LINE
  8
0
 62
7
  6
CONTINUOUS
 10
156.5690540869
 20
32.1101932727
 11
156.279992028
 21
32.1101932727
  0
LINE
  8
0
 62
7
  6
CONTINUOUS
 10
152.1753043074
 20
32.1101932727
 11
151.8862417523
 21
32.1101932727
  0
LINE
  8
0
 62
7
  6
CONTINUOUS
 10
151.2130860697
 20
32.3970785186
 11
151.6256574183
 21
32.3970785186
  0
LINE
  8
0
 62
7
  6
CONTINUOUS
 10
152.852430332
 20
32.3970785186
 11
154.245872955
 21
32.3970785186
  0
LINE
  8
0
 62
7
  6
CONTINUOUS
 10
154.5737418074
 20
32.3970785186
 11
155.9671844304
 21
32.3970785186
  0
LINE
  8
0
 62
7
  6
CONTINUOUS
 10
157.852430332
 20
32.3970785186
 11
159.245872955
 21
32.3970785186
  0
LINE
  8
0
 62
7
  6
CONTINUOUS
 10
159.5737418074
 20
32.3970785186
 11
160.9671844304
 21
32.3970785186
  0
LINE
  8
0
 62
7
  6
CONTINUOUS
 10
157.6096790869
 20
31.5939741996
 11
157.4362415869
 21
31.5294468267
  0
LINE
  8
0
 62
7
  6
CONTINUOUS
 10
155.1815540869
 20
30.6260635193
 11
155.3549915869
 21
30.6905909007
  0
LINE
  8
0
 62
7
  6
CONTINUOUS
 10
160.615929528
 20
30.6260635193
 11
160.8471793074
 21
30.6905909007
  0
LINE
  8
0
 62
7
  6
CONTINUOUS
 10
160.615929528
 20
30.7873819712
 11
160.5003043074
 21
30.7551182848
  0
LINE
  8
0
 62
7
  6
CONTINUOUS
 10
159.575304528
 20
31.4649194539
 11
159.8065543074
 21
31.4971831403
  0
LINE
  8
0
 62
7
  6
CONTINUOUS
 10
157.6096790869
 20
31.4649194539
 11
157.840929528
 21
31.4971831403
  0
LINE
  8
0
 62
7
  6
CONTINUOUS
 10
154.5456166972
 20
31.1100188581
 11
154.7768668074
 21
31.1422825445
  0
LINE
  8
0
 62
7
  6
CONTINUOUS
 10
157.840929528
 20
31.626237886
 11
157.6096790869
 21
31.5939741996
  0
LINE
  8
0
 62
7
  6
CONTINUOUS
 10
154.4299918074
 20
31.4649194539
 11
154.6612419177
 21
31.4971831403
  0
LINE
  8
0
 62
7
  6
CONTINUOUS
 10
159.8065543074
 20
31.626237886
 11
159.4596793074
 21
31.5939741996
  0
LINE
  8
0
 62
7
  6
CONTINUOUS
 10
154.7768668074
 20
31.2713373354
 11
154.4299918074
 21
31.2390736489
  0
LINE
  8
0
 62
7
  6
CONTINUOUS
 10
150.5565542799
 20
31.626237886
 11
150.2096793212
 21
31.5939741996
  0
LINE
  8
0
 62
7
  6
CONTINUOUS
 10
154.6612419177
 20
31.626237886
 11
154.2565543074
 21
31.5939741996
  0
LINE
  8
0
 62
7
  6
CONTINUOUS
 10
152.0327582009
 20
33.5446195022
 11
151.3770204959
 21
33.5446195022
  0
LINE
  8
0
 62
7
  6
CONTINUOUS
 10
157.4362415869
 20
31.400392081
 11
157.6096790869
 21
31.4649194539
  0
LINE
  8
0
 62
7
  6
CONTINUOUS
 10
159.4596793074
 20
31.4326557675
 11
159.575304528
 21
31.4649194539
  0
LINE
  8
0
 62
7
  6
CONTINUOUS
 10
159.4596793074
 20
31.5939741996
 11
159.228429528
 21
31.5294468267
  0
LINE
  8
0
 62
7
  6
CONTINUOUS
 10
155.1815540869
 20
30.7873819712
 11
154.8924916972
 21
30.7228545871
  0
LINE
  8
0
 62
7
  6
CONTINUOUS
 10
152.4643666972
 20
31.4649194539
 11
152.6956168074
 21
31.4971831403
  0
LINE
  8
0
 62
7
  6
CONTINUOUS
 10
152.6956168074
 20
31.626237886
 11
152.4643666972
 21
31.5939741996
  0
LINE
  8
0
 62
7
  6
CONTINUOUS
 10
150.2674918074
 20
31.4649194539
 11
150.498741835
 21
31.4971831403
  0
LINE
  8
0
 62
7
  6
CONTINUOUS
 10
156.7868565615
 20
35.0200293383
 11
157.4425942664
 21
35.0200293383
  0
LINE
  8
0
 62
7
  6
CONTINUOUS
 10
154.4299918074
 20
31.0777551716
 11
154.5456166972
 21
31.1100188581
  0
LINE
  8
0
 62
7
  6
CONTINUOUS
 10
154.4299918074
 20
31.2390736489
 11
154.1987416972
 21
31.1745462761
  0
LINE
  8
0
 62
7
  6
CONTINUOUS
 10
154.3143669177
 20
31.4326557675
 11
154.4299918074
 21
31.4649194539
  0
LINE
  8
0
 62
7
  6
CONTINUOUS
 10
150.9612418074
 20
30.6260635193
 11
151.1924917523
 21
30.6905909007
  0
LINE
  8
0
 62
7
  6
CONTINUOUS
 10
154.2565543074
 20
31.5939741996
 11
154.1409294177
 21
31.5617105132
  0
LINE
  8
0
 62
7
  6
CONTINUOUS
 10
150.2096793212
 20
31.5939741996
 11
150.0362418212
 21
31.5617105132
  0
LINE
  8
0
 62
7
  6
CONTINUOUS
 10
160.9671844304
 20
36.1675703219
 11
159.5737418074
 21
36.1675703219
  0
LINE
  8
0
 62
7
  6
CONTINUOUS
 10
157.6065286927
 20
36.1675703219
 11
157.1939573441
 21
36.1675703219
  0
LINE
  8
0
 62
7
  6
CONTINUOUS
 10
155.9671844304
 20
36.1675703219
 11
154.5737418074
 21
36.1675703219
  0
LINE
  8
0
 62
7
  6
CONTINUOUS
 10
154.245872955
 20
36.1675703219
 11
152.852430332
 21
36.1675703219
  0
LINE
  8
0
 62
7
  6
CONTINUOUS
 10
150.9671844304
 20
36.1675703219
 11
149.5737418074
 21
36.1675703219
  0
LINE
  8
0
 62
7
  6
CONTINUOUS
 10
150.1518667936
 20
31.4326557675
 11
150.2674918074
 21
31.4649194539
  0
CIRCLE
  8
0
 62
7
  6
CONTINUOUS
 10
160.2704631189
 20
38.5036358957
 40
2.0901639344
  0
ARC
  8
0
 62
7
  6
CONTINUOUS
 10
151.2130860697
 20
34.0364227809
 40
1.6393442623
 50
180.0
 51
270.0
  0
ARC
  8
0
 62
7
  6
CONTINUOUS
 10
157.6065286927
 20
34.5282260596
 40
1.6393442623
 50
0.0
 51
90.0
  0
ARC
  8
0
 62
7
  6
CONTINUOUS
 10
151.6256574183
 20
33.8724883547
 40
1.4754098361
 50
270.0
 51
326.2510114041
  0
ARC
  8
0
 62
7
  6
CONTINUOUS
 10
157.1939573441
 20
34.6921604858
 40
1.4754098361
 50
90.0
 51
146.2510114041
  0
ARC
  8
0
 62
7
  6
CONTINUOUS
 10
152.0327582009
 20
34.3642916334
 40
0.8196721311
 50
270.0
 51
360.0
  0
ARC
  8
0
 62
7
  6
CONTINUOUS
 10
156.7868565615
 20
34.2003572071
 40
0.8196721311
 50
90.0
 51
180.0
  0
ARC
  8
0
 62
7
  6
CONTINUOUS
 10
151.3770204959
 20
33.9544555678
 40
0.4098360656
 50
180.0
 51
270.0
  0
ARC
  8
0
 62
7
  6
CONTINUOUS
 10
157.4425942664
 20
34.6101932727
 40
0.4098360656
 50
0.0
 51
90.0
  0
SOLID
  8
0
 62
7
  6
CONTINUOUS
 10
156.279992028
 20
31.9488752009
 11
156.279992028
 21
32.1101936845
 12
156.5690540869
 22
31.9488752009
 13
156.5690540869
 23
32.1101936845
  0
SOLID
  8
0
 62
7
  6
CONTINUOUS
 10
150.5565542799
 20
31.6262382337
 11
150.9612418074
 21
31.5939740028
 12
150.2096793212
 22
31.5939740028
 13
150.2096793212
 23
31.5939740028
  0
SOLID
  8
0
 62
7
  6
CONTINUOUS
 10
150.0362418212
 20
31.5617111435
 11
150.2096793212
 21
31.5939740028
 12
150.9612418074
 22
31.5939740028
 13
150.9612418074
 23
31.5939740028
  0
SOLID
  8
0
 62
7
  6
CONTINUOUS
 10
150.9612418074
 20
31.5939740028
 11
151.1924917523
 21
31.5294468402
 12
150.0362418212
 22
31.5617111435
 13
150.0362418212
 23
31.5617111435
  0
SOLID
  8
0
 62
7
  6
CONTINUOUS
 10
149.8628043005
 20
31.49718259
 11
150.0362418212
 21
31.5617111435
 12
151.1924917523
 22
31.5294468402
 13
151.1924917523
 23
31.5294468402
  0
SOLID
  8
0
 62
7
  6
CONTINUOUS
 10
149.8628043005
 20
31.49718259
 11
151.1924917523
 21
31.5294468402
 12
150.498741835
 22
31.49718259
 13
150.498741835
 23
31.49718259
  0
SOLID
  8
0
 62
7
  6
CONTINUOUS
 10
150.498741835
 20
31.49718259
 11
151.1924917523
 21
31.5294468402
 12
150.9034292799
 22
31.4649197501
 13
150.9034292799
 23
31.4649197501
  0
SOLID
  8
0
 62
7
  6
CONTINUOUS
 10
151.1924917523
 20
31.5294468402
 11
151.3659292523
 21
31.4326554468
 12
150.9034292799
 22
31.4649197501
 13
150.9034292799
 23
31.4649197501
  0
SOLID
  8
0
 62
7
  6
CONTINUOUS
 10
151.0768668626
 20
31.4003926599
 11
150.9034292799
 21
31.4649197501
 12
151.3659292523
 22
31.4326554468
 13
151.3659292523
 23
31.4326554468
  0
SOLID
  8
0
 62
7
  6
CONTINUOUS
 10
151.0768668626
 20
31.4003926599
 11
151.3659292523
 21
31.4326554468
 12
151.1346793074
 22
31.3036013776
 13
151.1346793074
 23
31.3036013776
  0
SOLID
  8
0
 62
7
  6
CONTINUOUS
 10
151.3659292523
 20
31.4326554468
 11
151.4237418626
 21
31.3036013776
 12
151.1346793074
 22
31.3036013776
 13
151.1346793074
 23
31.3036013776
  0
SOLID
  8
0
 62
7
  6
CONTINUOUS
 10
152.4643666972
 20
31.5939739754
 11
152.6956168074
 21
31.6262382787
 12
152.9268669177
 22
31.6262382787
 13
152.9268669177
 23
31.6262382787
  0
SOLID
  8
0
 62
7
  6
CONTINUOUS
 10
152.9268669177
 20
31.6262382787
 11
153.1003044177
 21
31.5939739754
 12
152.4643666972
 22
31.5939739754
 13
152.4643666972
 23
31.5939739754
  0
SOLID
  8
0
 62
7
  6
CONTINUOUS
 10
152.2909293626
 20
31.5294468852
 11
152.4643666972
 21
31.5939739754
 12
153.1003044177
 22
31.5939739754
 13
153.1003044177
 23
31.5939739754
  0
SOLID
  8
0
 62
7
  6
CONTINUOUS
 10
153.1003044177
 20
31.5939739754
 11
153.2737419177
 21
31.5294468852
 12
152.2909293626
 22
31.5294468852
 13
152.2909293626
 23
31.5294468852
  0
SOLID
  8
0
 62
7
  6
CONTINUOUS
 10
153.2737419177
 20
31.5294468852
 11
152.6956168074
 21
31.4971825369
 12
152.2909293626
 22
31.5294468852
 13
152.2909293626
 23
31.5294468852
  0
SOLID
  8
0
 62
7
  6
CONTINUOUS
 10
152.1753043074
 20
31.4649197951
 11
152.2909293626
 21
31.5294468852
 12
152.6956168074
 22
31.4971825369
 13
152.6956168074
 23
31.4971825369
  0
SOLID
  8
0
 62
7
  6
CONTINUOUS
 10
152.6956168074
 20
31.4971825369
 11
152.4643666972
 21
31.4649197951
 12
152.1753043074
 22
31.4649197951
 13
152.1753043074
 23
31.4649197951
  0
SOLID
  8
0
 62
7
  6
CONTINUOUS
 10
152.6956168074
 20
31.4971825369
 11
153.2737419177
 21
31.5294468852
 12
152.9268669177
 22
31.4649197951
 13
152.9268669177
 23
31.4649197951
  0
SOLID
  8
0
 62
7
  6
CONTINUOUS
 10
153.2737419177
 20
31.5294468852
 11
153.3893668074
 21
31.4649197951
 12
152.9268669177
 22
31.4649197951
 13
152.9268669177
 23
31.4649197951
  0
SOLID
  8
0
 62
7
  6
CONTINUOUS
 10
153.0424918074
 20
31.4326554468
 11
152.9268669177
 21
31.4649197951
 12
153.3893668074
 22
31.4649197951
 13
153.3893668074
 23
31.4649197951
  0
SOLID
  8
0
 62
7
  6
CONTINUOUS
 10
153.3893668074
 20
31.4649197951
 11
153.4471794177
 21
31.4003927049
 12
153.0424918074
 22
31.4326554468
 13
153.0424918074
 23
31.4326554468
  0
SOLID
  8
0
 62
7
  6
CONTINUOUS
 10
153.1581166972
 20
31.3681283566
 11
153.0424918074
 21
31.4326554468
 12
153.4471794177
 22
31.4003927049
 13
153.4471794177
 23
31.4003927049
  0
SOLID
  8
0
 62
7
  6
CONTINUOUS
 10
153.1581166972
 20
31.3681283566
 11
153.4471794177
 21
31.4003927049
 12
153.2159293074
 22
31.2390742213
 13
153.2159293074
 23
31.2390742213
  0
SOLID
  8
0
 62
7
  6
CONTINUOUS
 10
153.4471794177
 20
31.4003927049
 11
153.5049916972
 21
31.2390742213
 12
153.2159293074
 22
31.2390742213
 13
153.2159293074
 23
31.2390742213
  0
SOLID
  8
0
 62
7
  6
CONTINUOUS
 10
152.4643666972
 20
31.4649197951
 11
152.2909293626
 21
31.4003927049
 12
152.1753043074
 22
31.4649197951
 13
152.1753043074
 23
31.4649197951
  0
SOLID
  8
0
 62
7
  6
CONTINUOUS
 10
152.2909293626
 20
31.4003927049
 11
152.1753043074
 21
31.3358640533
 12
152.1753043074
 22
31.4649197951
 13
152.1753043074
 23
31.4649197951
  0
SOLID
  8
0
 62
7
  6
CONTINUOUS
 10
152.1753043074
 20
31.3358640533
 11
151.8862417523
 21
30.5938002869
 12
152.1753043074
 22
31.4649197951
 13
152.1753043074
 23
31.4649197951
  0
SOLID
  8
0
 62
7
  6
CONTINUOUS
 10
152.1753043074
 20
31.4649197951
 11
151.8862417523
 21
30.5938002869
 12
152.1753043074
 22
32.1101937295
 13
152.1753043074
 23
32.1101937295
  0
SOLID
  8
0
 62
7
  6
CONTINUOUS
 10
151.8862417523
 20
30.5938002869
 11
151.8862417523
 21
32.1101937295
 12
152.1753043074
 22
32.1101937295
 13
152.1753043074
 23
32.1101937295
  0
SOLID
  8
0
 62
7
  6
CONTINUOUS
 10
152.1753043074
 20
31.3358640533
 11
152.1753043074
 21
30.5938002869
 12
151.8862417523
 22
30.5938002869
 13
151.8862417523
 23
30.5938002869
  0
SOLID
  8
0
 62
7
  6
CONTINUOUS
 10
153.2159293074
 20
30.5938002869
 11
153.2159293074
 21
31.2390742213
 12
153.5049916972
 22
31.2390742213
 13
153.5049916972
 23
31.2390742213
  0
SOLID
  8
0
 62
7
  6
CONTINUOUS
 10
153.5049916972
 20
31.2390742213
 11
153.5049916972
 21
30.5938002869
 12
153.2159293074
 22
30.5938002869
 13
153.2159293074
 23
30.5938002869
  0
SOLID
  8
0
 62
7
  6
CONTINUOUS
 10
154.2565543074
 20
31.5939738288
 11
154.6612419177
 21
31.6262385959
 12
155.0081169177
 22
31.6262385959
 13
155.0081169177
 23
31.6262385959
  0
SOLID
  8
0
 62
7
  6
CONTINUOUS
 10
155.0081169177
 20
31.6262385959
 11
155.3549915869
 21
31.5939738288
 12
154.2565543074
 22
31.5939738288
 13
154.2565543074
 23
31.5939738288
  0
SOLID
  8
0
 62
7
  6
CONTINUOUS
 10
154.1409294177
 20
31.5617111435
 11
154.2565543074
 21
31.5939738288
 12
155.3549915869
 22
31.5939738288
 13
155.3549915869
 23
31.5939738288
  0
SOLID
  8
0
 62
7
  6
CONTINUOUS
 10
155.3549915869
 20
31.5939738288
 11
155.5284290869
 21
31.5294468402
 12
154.1409294177
 22
31.5617111435
 13
154.1409294177
 23
31.5617111435
  0
SOLID
  8
0
 62
7
  6
CONTINUOUS
 10
154.0253041972
 20
31.4971826249
 11
154.1409294177
 21
31.5617111435
 12
155.5284290869
 22
31.5294468402
 13
155.5284290869
 23
31.5294468402
  0
SOLID
  8
0
 62
7
  6
CONTINUOUS
 10
154.0253041972
 20
31.4971826249
 11
155.5284290869
 21
31.5294468402
 12
154.6612419177
 22
31.4971826249
 13
154.6612419177
 23
31.4971826249
  0
SOLID
  8
0
 62
7
  6
CONTINUOUS
 10
154.6612419177
 20
31.4971826249
 11
155.5284290869
 21
31.5294468402
 12
155.0081169177
 22
31.4971826249
 13
155.0081169177
 23
31.4971826249
  0
SOLID
  8
0
 62
7
  6
CONTINUOUS
 10
155.0081169177
 20
31.4971826249
 11
155.5284290869
 21
31.5294468402
 12
155.239367028
 22
31.4649194065
 13
155.239367028
 23
31.4649194065
  0
SOLID
  8
0
 62
7
  6
CONTINUOUS
 10
155.5284290869
 20
31.5294468402
 11
155.6440543074
 21
31.4649194065
 12
155.239367028
 22
31.4649194065
 13
155.239367028
 23
31.4649194065
  0
SOLID
  8
0
 62
7
  6
CONTINUOUS
 10
153.9674919177
 20
31.4326554138
 11
154.0253041972
 21
31.4971826249
 12
154.6612419177
 22
31.4971826249
 13
154.6612419177
 23
31.4971826249
  0
SOLID
  8
0
 62
7
  6
CONTINUOUS
 10
155.3549915869
 20
31.4326554138
 11
155.239367028
 21
31.4649194065
 12
155.6440543074
 22
31.4649194065
 13
155.6440543074
 23
31.4649194065
  0
SOLID
  8
0
 62
7
  6
CONTINUOUS
 10
155.3549915869
 20
31.4326554138
 11
155.6440543074
 21
31.4649194065
 12
155.412804528
 22
31.3681282026
 13
155.412804528
 23
31.3681282026
  0
SOLID
  8
0
 62
7
  6
CONTINUOUS
 10
155.6440543074
 20
31.4649194065
 11
155.7018665869
 21
31.3681282026
 12
155.412804528
 22
31.3681282026
 13
155.412804528
 23
31.3681282026
  0
SOLID
  8
0
 62
7
  6
CONTINUOUS
 10
155.412804528
 20
31.2713369632
 11
155.412804528
 21
31.3681282026
 12
155.7018665869
 22
31.3681282026
 13
155.7018665869
 23
31.3681282026
  0
SOLID
  8
0
 62
7
  6
CONTINUOUS
 10
155.412804528
 20
31.2713369632
 11
155.7018665869
 21
31.3681282026
 12
155.412804528
 22
31.1422827828
 13
155.412804528
 23
31.1422827828
  0
SOLID
  8
0
 62
7
  6
CONTINUOUS
 10
155.412804528
 20
31.1422827828
 11
155.7018665869
 21
31.3681282026
 12
155.412804528
 22
30.9487004259
 13
155.412804528
 23
30.9487004259
  0
SOLID
  8
0
 62
7
  6
CONTINUOUS
 10
155.7018665869
 20
31.3681282026
 11
155.7018665869
 21
30.8519086025
 12
155.412804528
 22
30.9487004259
 13
155.412804528
 23
30.9487004259
  0
SOLID
  8
0
 62
7
  6
CONTINUOUS
 10
157.6096790869
 20
31.5939736268
 11
157.840929528
 21
31.6262383465
 12
158.0721793074
 22
31.6262383465
 13
158.0721793074
 23
31.6262383465
  0
SOLID
  8
0
 62
7
  6
CONTINUOUS
 10
158.0721793074
 20
31.6262383465
 11
158.2456168074
 21
31.5939736268
 12
157.6096790869
 22
31.5939736268
 13
157.6096790869
 23
31.5939736268
  0
SOLID
  8
0
 62
7
  6
CONTINUOUS
 10
157.4362415869
 20
31.5294472848
 11
157.6096790869
 21
31.5939736268
 12
158.2456168074
 22
31.5939736268
 13
158.2456168074
 23
31.5939736268
  0
SOLID
  8
0
 62
7
  6
CONTINUOUS
 10
158.2456168074
 20
31.5939736268
 11
158.4190543074
 21
31.5294472848
 12
157.4362415869
 22
31.5294472848
 13
157.4362415869
 23
31.5294472848
  0
SOLID
  8
0
 62
7
  6
CONTINUOUS
 10
158.4190543074
 20
31.5294472848
 11
157.840929528
 21
31.4971825369
 12
157.4362415869
 22
31.5294472848
 13
157.4362415869
 23
31.5294472848
  0
SOLID
  8
0
 62
7
  6
CONTINUOUS
 10
157.320617028
 20
31.4649199103
 11
157.4362415869
 21
31.5294472848
 12
157.840929528
 22
31.4971825369
 13
157.840929528
 23
31.4971825369
  0
SOLID
  8
0
 62
7
  6
CONTINUOUS
 10
157.840929528
 20
31.4971825369
 11
157.6096790869
 21
31.4649199103
 12
157.320617028
 22
31.4649199103
 13
157.320617028
 23
31.4649199103
  0
SOLID
  8
0
 62
7
  6
CONTINUOUS
 10
157.840929528
 20
31.4971825369
 11
158.4190543074
 21
31.5294472848
 12
158.0721793074
 22
31.4649199103
 13
158.0721793074
 23
31.4649199103
  0
SOLID
  8
0
 62
7
  6
CONTINUOUS
 10
158.4190543074
 20
31.5294472848
 11
158.534679528
 21
31.4649199103
 12
158.0721793074
 22
31.4649199103
 13
158.0721793074
 23
31.4649199103
  0
SOLID
  8
0
 62
7
  6
CONTINUOUS
 10
158.187804528
 20
31.4326554468
 11
158.0721793074
 21
31.4649199103
 12
158.534679528
 22
31.4649199103
 13
158.534679528
 23
31.4649199103
  0
SOLID
  8
0
 62
7
  6
CONTINUOUS
 10
158.187804528
 20
31.4326554468
 11
158.534679528
 21
31.4649199103
 12
158.3034290869
 22
31.3681288486
 13
158.3034290869
 23
31.3681288486
  0
SOLID
  8
0
 62
7
  6
CONTINUOUS
 10
158.534679528
 20
31.4649199103
 11
158.5924918074
 21
31.3681288486
 12
158.3034290869
 22
31.3681288486
 13
158.3034290869
 23
31.3681288486
  0
SOLID
  8
0
 62
7
  6
CONTINUOUS
 10
158.361242028
 20
31.2068093799
 11
158.3034290869
 21
31.3681288486
 12
158.5924918074
 22
31.3681288486
 13
158.5924918074
 23
31.3681288486
  0
SOLID
  8
0
 62
7
  6
CONTINUOUS
 10
158.5924918074
 20
31.3681288486
 11
158.6503040869
 21
31.2068093799
 12
158.361242028
 22
31.2068093799
 13
158.361242028
 23
31.2068093799
  0
SOLID
  8
0
 62
7
  6
CONTINUOUS
 10
157.6096790869
 20
31.4649199103
 11
157.4362415869
 21
31.4003926599
 12
157.320617028
 22
31.4649199103
 13
157.320617028
 23
31.4649199103
  0
SOLID
  8
0
 62
7
  6
CONTINUOUS
 10
157.4362415869
 20
31.4003926599
 11
157.320617028
 21
31.3358640533
 12
157.320617028
 22
31.4649199103
 13
157.320617028
 23
31.4649199103
  0
SOLID
  8
0
 62
7
  6
CONTINUOUS
 10
157.320617028
 20
31.3358640533
 11
157.0315543074
 21
30.5938003547
 12
157.320617028
 22
31.4649199103
 13
157.320617028
 23
31.4649199103
  0
SOLID
  8
0
 62
7
  6
CONTINUOUS
 10
157.320617028
 20
31.4649199103
 11
157.0315543074
 21
30.5938003547
 12
157.320617028
 22
31.6262383465
 13
157.320617028
 23
31.6262383465
  0
SOLID
  8
0
 62
7
  6
CONTINUOUS
 10
157.0315543074
 20
30.5938003547
 11
157.0315543074
 21
31.6262383465
 12
157.320617028
 22
31.6262383465
 13
157.320617028
 23
31.6262383465
  0
SOLID
  8
0
 62
7
  6
CONTINUOUS
 10
157.320617028
 20
31.3358640533
 11
157.320617028
 21
30.5938003547
 12
157.0315543074
 22
30.5938003547
 13
157.0315543074
 23
30.5938003547
  0
SOLID
  8
0
 62
7
  6
CONTINUOUS
 10
158.361242028
 20
30.5938003547
 11
158.361242028
 21
31.2068093799
 12
158.6503040869
 22
31.2068093799
 13
158.6503040869
 23
31.2068093799
  0
SOLID
  8
0
 62
7
  6
CONTINUOUS
 10
158.6503040869
 20
31.2068093799
 11
158.6503040869
 21
30.5938003547
 12
158.361242028
 22
30.5938003547
 13
158.361242028
 23
30.5938003547
  0
SOLID
  8
0
 62
7
  6
CONTINUOUS
 10
159.4596793074
 20
31.5939739474
 11
159.8065543074
 21
31.6262381969
 12
160.1534293074
 22
31.6262381969
 13
160.1534293074
 23
31.6262381969
  0
SOLID
  8
0
 62
7
  6
CONTINUOUS
 10
160.1534293074
 20
31.6262381969
 11
160.5003043074
 21
31.5939739474
 12
159.4596793074
 22
31.5939739474
 13
159.4596793074
 23
31.5939739474
  0
SOLID
  8
0
 62
7
  6
CONTINUOUS
 10
159.228429528
 20
31.5294468402
 11
159.4596793074
 21
31.5939739474
 12
160.5003043074
 22
31.5939739474
 13
160.5003043074
 23
31.5939739474
  0
SOLID
  8
0
 62
7
  6
CONTINUOUS
 10
159.228429528
 20
31.5294468402
 11
160.5003043074
 21
31.5939739304
 12
160.6737418074
 22
31.5617111435
 13
160.6737418074
 23
31.5617111435
  0
SOLID
  8
0
 62
7
  6
CONTINUOUS
 10
159.228429528
 20
31.5294468402
 11
160.6737418074
 21
31.5617111435
 12
159.8065543074
 22
31.4971825592
 13
159.8065543074
 23
31.4971825592
  0
SOLID
  8
0
 62
7
  6
CONTINUOUS
 10
159.8065543074
 20
31.4971825592
 11
160.6737418074
 21
31.5617111435
 12
160.1534293074
 22
31.4971825592
 13
160.1534293074
 23
31.4971825592
  0
SOLID
  8
0
 62
7
  6
CONTINUOUS
 10
160.6737418074
 20
31.5617111435
 11
160.8471793074
 21
31.4971825592
 12
160.1534293074
 22
31.4971825592
 13
160.1534293074
 23
31.4971825592
  0
SOLID
  8
0
 62
7
  6
CONTINUOUS
 10
160.5003043074
 20
31.4649197501
 11
160.1534293074
 21
31.4971825592
 12
160.8471793074
 22
31.4971825592
 13
160.8471793074
 23
31.4971825592
  0
SOLID
  8
0
 62
7
  6
CONTINUOUS
 10
159.1128043074
 20
31.4326555427
 11
159.228429528
 21
31.5294468402
 12
159.8065543074
 22
31.4971825592
 13
159.8065543074
 23
31.4971825592
  0
SOLID
  8
0
 62
7
  6
CONTINUOUS
 10
160.5003043074
 20
31.4649197501
 11
160.8471793074
 21
31.4971825592
 12
160.615929528
 22
31.4326555427
 13
160.615929528
 23
31.4326555427
  0
SOLID
  8
0
 62
7
  6
CONTINUOUS
 10
160.615929528
 20
31.4326555427
 11
160.8471793074
 21
31.4971825592
 12
160.6737418074
 22
31.3681283005
 13
160.6737418074
 23
31.3681283005
  0
SOLID
  8
0
 62
7
  6
CONTINUOUS
 10
160.8471793074
 20
31.4971825592
 11
160.9628038663
 21
31.3681283005
 12
160.6737418074
 22
31.3681283005
 13
160.6737418074
 23
31.3681283005
  0
SOLID
  8
0
 62
7
  6
CONTINUOUS
 10
150.2674918074
 20
31.4649197501
 11
149.7471793074
 21
31.4326554237
 12
150.498741835
 22
31.4971824493
 13
150.498741835
 23
31.4971824493
  0
SOLID
  8
0
 62
7
  6
CONTINUOUS
 10
149.7471793074
 20
31.4326554237
 11
149.8628043005
 21
31.4971824493
 12
150.498741835
 22
31.4971824493
 13
150.498741835
 23
31.4971824493
  0
SOLID
  8
0
 62
7
  6
CONTINUOUS
 10
150.2674918074
 20
31.4649197501
 11
150.1518667936
 21
31.4326554237
 12
149.7471793074
 22
31.4326554237
 13
149.7471793074
 23
31.4326554237
  0
SOLID
  8
0
 62
7
  6
CONTINUOUS
 10
149.6315543091
 20
31.3036012664
 11
149.7471793074
 21
31.4326554237
 12
150.1518667936
 22
31.4326554237
 13
150.1518667936
 23
31.4326554237
  0
SOLID
  8
0
 62
7
  6
CONTINUOUS
 10
153.9674919177
 20
31.4326554237
 11
154.6612419177
 21
31.4971825369
 12
154.4299918074
 22
31.4649197501
 13
154.4299918074
 23
31.4649197501
  0
SOLID
  8
0
 62
7
  6
CONTINUOUS
 10
154.4299918074
 20
31.4649197501
 11
154.3143669177
 21
31.4326554237
 12
153.9674919177
 22
31.4326554237
 13
153.9674919177
 23
31.4326554237
  0
SOLID
  8
0
 62
7
  6
CONTINUOUS
 10
153.9674919177
 20
31.3681283335
 11
153.9674919177
 21
31.4326554237
 12
154.3143669177
 22
31.4326554237
 13
154.3143669177
 23
31.4326554237
  0
SOLID
  8
0
 62
7
  6
CONTINUOUS
 10
154.3143669177
 20
31.4326554237
 11
154.2565543074
 21
31.3681283335
 12
153.9674919177
 22
31.3681283335
 13
153.9674919177
 23
31.3681283335
  0
SOLID
  8
0
 62
7
  6
CONTINUOUS
 10
159.1128043074
 20
31.4326555528
 11
159.8065543074
 21
31.4971825369
 12
159.575304528
 22
31.4649197501
 13
159.575304528
 23
31.4649197501
  0
SOLID
  8
0
 62
7
  6
CONTINUOUS
 10
159.575304528
 20
31.4649197501
 11
159.4596793074
 21
31.4326555528
 12
159.1128043074
 22
31.4326555528
 13
159.1128043074
 23
31.4326555528
  0
SOLID
  8
0
 62
7
  6
CONTINUOUS
 10
159.1128043074
 20
31.3681284626
 11
159.1128043074
 21
31.4326555528
 12
159.4596793074
 22
31.4326555528
 13
159.4596793074
 23
31.4326555528
  0
SOLID
  8
0
 62
7
  6
CONTINUOUS
 10
159.4596793074
 20
31.4326555528
 11
159.401867028
 21
31.3681284626
 12
159.1128043074
 22
31.3681284626
 13
159.1128043074
 23
31.3681284626
  0
SOLID
  8
0
 62
7
  6
CONTINUOUS
 10
159.228429528
 20
31.2390741763
 11
159.1128043074
 21
31.3681284626
 12
159.401867028
 22
31.3681284626
 13
159.401867028
 23
31.3681284626
  0
SOLID
  8
0
 62
7
  6
CONTINUOUS
 10
149.6315543091
 20
31.3036012664
 11
150.1518667936
 21
31.4326554468
 12
149.9784292936
 22
31.3358640533
 13
149.9784292936
 23
31.3358640533
  0
SOLID
  8
0
 62
7
  6
CONTINUOUS
 10
149.9784292936
 20
31.3358640533
 11
149.9206168074
 21
31.2713369632
 12
149.6315543091
 22
31.3036012664
 13
149.6315543091
 23
31.3036012664
  0
SOLID
  8
0
 62
7
  6
CONTINUOUS
 10
149.5737418074
 20
31.1100184796
 11
149.6315543091
 21
31.3036012664
 12
149.9206168074
 22
31.2713369632
 13
149.9206168074
 23
31.2713369632
  0
SOLID
  8
0
 62
7
  6
CONTINUOUS
 10
154.4299918074
 20
31.2390741763
 11
154.7768668074
 21
31.271336924
 12
155.412804528
 22
31.271336924
 13
155.412804528
 23
31.271336924
  0
SOLID
  8
0
 62
7
  6
CONTINUOUS
 10
154.4299918074
 20
31.2390741763
 11
155.412804528
 21
31.271336924
 12
154.1987416972
 22
31.1745462761
 13
154.1987416972
 23
31.1745462761
  0
SOLID
  8
0
 62
7
  6
CONTINUOUS
 10
154.1987416972
 20
31.1745462761
 11
155.412804528
 21
31.271336924
 12
154.7768668074
 22
31.1422827436
 13
154.7768668074
 23
31.1422827436
  0
SOLID
  8
0
 62
7
  6
CONTINUOUS
 10
155.412804528
 20
31.271336924
 11
155.412804528
 21
31.1422827436
 12
154.7768668074
 22
31.1422827436
 13
154.7768668074
 23
31.1422827436
  0
SOLID
  8
0
 62
7
  6
CONTINUOUS
 10
159.228429528
 20
31.2390745501
 11
159.401867028
 21
31.3681283566
 12
159.4596793074
 22
31.3036012664
 13
159.4596793074
 23
31.3036012664
  0
SOLID
  8
0
 62
7
  6
CONTINUOUS
 10
159.4596793074
 20
31.3036012664
 11
159.6331168074
 21
31.2390745501
 12
159.228429528
 22
31.2390745501
 13
159.228429528
 23
31.2390745501
  0
SOLID
  8
0
 62
7
  6
CONTINUOUS
 10
159.4596793074
 20
31.1422827828
 11
159.228429528
 21
31.2390745501
 12
159.6331168074
 22
31.2390745501
 13
159.6331168074
 23
31.2390745501
  0
SOLID
  8
0
 62
7
  6
CONTINUOUS
 10
159.6331168074
 20
31.2390745501
 11
160.615929528
 21
31.0777556927
 12
159.4596793074
 22
31.1422827828
 13
159.4596793074
 23
31.1422827828
  0
SOLID
  8
0
 62
7
  6
CONTINUOUS
 10
160.442492028
 20
30.9809646623
 11
159.4596793074
 21
31.1422827828
 12
160.615929528
 22
31.0777556927
 13
160.615929528
 23
31.0777556927
  0
SOLID
  8
0
 62
7
  6
CONTINUOUS
 10
160.615929528
 20
31.0777556927
 11
160.8471793074
 21
30.9809646623
 12
160.442492028
 22
30.9809646623
 13
160.442492028
 23
30.9809646623
  0
SOLID
  8
0
 62
7
  6
CONTINUOUS
 10
160.615929528
 20
30.9164372091
 11
160.442492028
 21
30.9809646623
 12
160.8471793074
 22
30.9809646623
 13
160.8471793074
 23
30.9809646623
  0
SOLID
  8
0
 62
7
  6
CONTINUOUS
 10
160.615929528
 20
30.9164372091
 11
160.8471793074
 21
30.9809646623
 12
160.6737418074
 22
30.8519089441
 13
160.6737418074
 23
30.8519089441
  0
SOLID
  8
0
 62
7
  6
CONTINUOUS
 10
160.8471793074
 20
30.9809646623
 11
160.9628038663
 21
30.8519089441
 12
160.6737418074
 22
30.8519089441
 13
160.6737418074
 23
30.8519089441
  0
SOLID
  8
0
 62
7
  6
CONTINUOUS
 10
160.615929528
 20
30.7873818593
 11
160.6737418074
 21
30.8519089441
 12
160.9628038663
 22
30.8519089441
 13
160.9628038663
 23
30.8519089441
  0
SOLID
  8
0
 62
7
  6
CONTINUOUS
 10
160.9628038663
 20
30.8519089441
 11
160.9628038663
 21
30.7873818593
 12
160.615929528
 22
30.7873818593
 13
160.615929528
 23
30.7873818593
  0
SOLID
  8
0
 62
7
  6
CONTINUOUS
 10
160.5003043074
 20
30.7551187255
 11
160.615929528
 21
30.7873818593
 12
160.9628038663
 22
30.7873818593
 13
160.9628038663
 23
30.7873818593
  0
SOLID
  8
0
 62
7
  6
CONTINUOUS
 10
160.5003043074
 20
30.7551187255
 11
160.9628038663
 21
30.7873818593
 12
160.269054528
 22
30.7228547745
 13
160.269054528
 23
30.7228547745
  0
SOLID
  8
0
 62
7
  6
CONTINUOUS
 10
160.9628038663
 20
30.7873818593
 11
160.8471793074
 21
30.6905916353
 12
160.269054528
 22
30.7228547745
 13
160.269054528
 23
30.7228547745
  0
SOLID
  8
0
 62
7
  6
CONTINUOUS
 10
160.8471793074
 20
30.6905916353
 11
159.401867028
 21
30.658327332
 12
160.269054528
 22
30.7228547745
 13
160.269054528
 23
30.7228547745
  0
SOLID
  8
0
 62
7
  6
CONTINUOUS
 10
160.269054528
 20
30.7228547745
 11
159.401867028
 21
30.658327332
 12
159.922179528
 22
30.7228547745
 13
159.922179528
 23
30.7228547745
  0
SOLID
  8
0
 62
7
  6
CONTINUOUS
 10
159.401867028
 20
30.658327332
 11
159.228429528
 21
30.7228547745
 12
159.922179528
 22
30.7228547745
 13
159.922179528
 23
30.7228547745
  0
SOLID
  8
0
 62
7
  6
CONTINUOUS
 10
159.401867028
 20
30.658327332
 11
160.8471793074
 21
30.6905916353
 12
159.575304528
 22
30.6260629858
 13
159.575304528
 23
30.6260629858
  0
SOLID
  8
0
 62
7
  6
CONTINUOUS
 10
160.8471793074
 20
30.6905916353
 11
160.615929528
 21
30.6260629858
 12
159.575304528
 22
30.6260629858
 13
159.575304528
 23
30.6260629858
  0
SOLID
  8
0
 62
7
  6
CONTINUOUS
 10
159.922179528
 20
30.5938006049
 11
159.575304528
 21
30.6260629858
 12
160.615929528
 22
30.6260629858
 13
160.615929528
 23
30.6260629858
  0
SOLID
  8
0
 62
7
  6
CONTINUOUS
 10
160.615929528
 20
30.6260629858
 11
160.269054528
 21
30.5938006049
 12
159.922179528
 22
30.5938006049
 13
159.922179528
 23
30.5938006049
  0
SOLID
  8
0
 62
7
  6
CONTINUOUS
 10
149.5737418074
 20
31.1100184796
 11
149.9206168074
 21
31.2713369632
 12
149.8628043005
 22
31.1422827828
 13
149.8628043005
 23
31.1422827828
  0
SOLID
  8
0
 62
7
  6
CONTINUOUS
 10
149.8628043005
 20
31.1422827828
 11
149.8628043005
 21
31.0454914852
 12
149.5737418074
 22
31.1100184796
 13
149.5737418074
 23
31.1100184796
  0
SOLID
  8
0
 62
7
  6
CONTINUOUS
 10
149.6315543091
 20
30.9164372091
 11
149.5737418074
 21
31.1100184796
 12
149.8628043005
 22
31.0454914852
 13
149.8628043005
 23
31.0454914852
  0
SOLID
  8
0
 62
7
  6
CONTINUOUS
 10
149.8628043005
 20
31.0454914852
 11
149.9784292936
 21
30.8841729058
 12
149.6315543091
 22
30.9164372091
 13
149.6315543091
 23
30.9164372091
  0
SOLID
  8
0
 62
7
  6
CONTINUOUS
 10
149.7471793074
 20
30.7873813202
 11
149.6315543091
 21
30.9164372091
 12
149.9784292936
 22
30.8841729058
 13
149.9784292936
 23
30.8841729058
  0
SOLID
  8
0
 62
7
  6
CONTINUOUS
 10
149.9784292936
 20
30.8841729058
 11
150.1518667936
 21
30.7873813202
 12
149.7471793074
 22
30.7873813202
 13
149.7471793074
 23
30.7873813202
  0
SOLID
  8
0
 62
7
  6
CONTINUOUS
 10
149.8628043005
 20
30.7228547004
 11
149.7471793074
 21
30.7873813202
 12
150.1518667936
 22
30.7873813202
 13
150.1518667936
 23
30.7873813202
  0
SOLID
  8
0
 62
7
  6
CONTINUOUS
 10
150.1518667936
 20
30.7873813202
 11
150.498741835
 21
30.7228547004
 12
149.8628043005
 22
30.7228547004
 13
149.8628043005
 23
30.7228547004
  0
SOLID
  8
0
 62
7
  6
CONTINUOUS
 10
150.0362418212
 20
30.658327332
 11
149.8628043005
 21
30.7228547004
 12
150.498741835
 22
30.7228547004
 13
150.498741835
 23
30.7228547004
  0
SOLID
  8
0
 62
7
  6
CONTINUOUS
 10
154.0831168074
 20
31.1100184386
 11
154.1987416972
 21
31.1745462761
 12
154.7768668074
 22
31.1422827828
 13
154.7768668074
 23
31.1422827828
  0
SOLID
  8
0
 62
7
  6
CONTINUOUS
 10
154.7768668074
 20
31.1422827828
 11
154.5456166972
 21
31.1100184386
 12
154.0831168074
 22
31.1100184386
 13
154.0831168074
 23
31.1100184386
  0
SOLID
  8
0
 62
7
  6
CONTINUOUS
 10
153.9674919177
 20
30.9809642992
 11
154.0831168074
 21
31.1100184386
 12
154.5456166972
 22
31.1100184386
 13
154.5456166972
 23
31.1100184386
  0
SOLID
  8
0
 62
7
  6
CONTINUOUS
 10
154.3143669177
 20
31.0132277988
 11
153.9674919177
 21
30.9809642992
 12
154.4299918074
 22
31.0777556927
 13
154.4299918074
 23
31.0777556927
  0
SOLID
  8
0
 62
7
  6
CONTINUOUS
 10
153.9674919177
 20
30.9809642992
 11
154.5456166972
 21
31.1100184796
 12
154.4299918074
 22
31.0777556927
 13
154.4299918074
 23
31.0777556927
  0
SOLID
  8
0
 62
7
  6
CONTINUOUS
 10
154.3143669177
 20
31.0132277988
 11
154.2565543074
 21
30.9164372091
 12
153.9674919177
 22
30.9809642992
 13
153.9674919177
 23
30.9809642992
  0
SOLID
  8
0
 62
7
  6
CONTINUOUS
 10
153.9674919177
 20
30.8841729058
 11
153.9674919177
 21
30.9809642992
 12
154.2565543074
 22
30.9164372091
 13
154.2565543074
 23
30.9164372091
  0
SOLID
  8
0
 62
7
  6
CONTINUOUS
 10
154.2565543074
 20
30.9164372091
 11
154.2565543074
 21
30.8519086025
 12
153.9674919177
 22
30.8841729058
 13
153.9674919177
 23
30.8841729058
  0
SOLID
  8
0
 62
7
  6
CONTINUOUS
 10
154.0253041972
 20
30.7551187255
 11
153.9674919177
 21
30.8841729058
 12
154.2565543074
 22
30.8519086025
 13
154.2565543074
 23
30.8519086025
  0
SOLID
  8
0
 62
7
  6
CONTINUOUS
 10
155.412804528
 20
30.9487004259
 11
155.7018665869
 21
30.8519086025
 12
155.3549915869
 22
30.8841729058
 13
155.3549915869
 23
30.8841729058
  0
SOLID
  8
0
 62
7
  6
CONTINUOUS
 10
155.1815540869
 20
30.7873815123
 11
155.3549915869
 21
30.8841729058
 12
155.7018665869
 22
30.8519086025
 13
155.7018665869
 23
30.8519086025
  0
SOLID
  8
0
 62
7
  6
CONTINUOUS
 10
155.1815540869
 20
30.7873815123
 11
155.7018665869
 21
30.8519086025
 12
155.412804528
 22
30.7551187255
 13
155.412804528
 23
30.7551187255
  0
SOLID
  8
0
 62
7
  6
CONTINUOUS
 10
155.7018665869
 20
30.8519086025
 11
155.759679528
 21
30.6905916353
 12
155.412804528
 22
30.7551187255
 13
155.412804528
 23
30.7551187255
  0
SOLID
  8
0
 62
7
  6
CONTINUOUS
 10
155.4706168074
 20
30.658327332
 11
155.412804528
 21
30.7551187255
 12
155.759679528
 22
30.6905916353
 13
155.759679528
 23
30.6905916353
  0
SOLID
  8
0
 62
7
  6
CONTINUOUS
 10
155.4706168074
 20
30.658327332
 11
155.759679528
 21
30.6905916353
 12
155.5284290869
 22
30.5938002079
 13
155.5284290869
 23
30.5938002079
  0
SOLID
  8
0
 62
7
  6
CONTINUOUS
 10
155.759679528
 20
30.6905916353
 11
155.8174918074
 21
30.5938002079
 12
155.5284290869
 22
30.5938002079
 13
155.5284290869
 23
30.5938002079
  0
SOLID
  8
0
 62
7
  6
CONTINUOUS
 10
151.0768668626
 20
30.8196456577
 11
151.1346793074
 21
30.9164373395
 12
151.4237418626
 22
30.9164373395
 13
151.4237418626
 23
30.9164373395
  0
SOLID
  8
0
 62
7
  6
CONTINUOUS
 10
151.4237418626
 20
30.9164373395
 11
151.3659292523
 21
30.7873815123
 12
151.0768668626
 22
30.8196456577
 13
151.0768668626
 23
30.8196456577
  0
SOLID
  8
0
 62
7
  6
CONTINUOUS
 10
150.9034292799
 20
30.7551187255
 11
151.0768668626
 21
30.8196456577
 12
151.3659292523
 22
30.7873815123
 13
151.3659292523
 23
30.7873815123
  0
SOLID
  8
0
 62
7
  6
CONTINUOUS
 10
150.9034292799
 20
30.7551187255
 11
151.3659292523
 21
30.7873815123
 12
150.498741835
 22
30.7228544222
 13
150.498741835
 23
30.7228544222
  0
SOLID
  8
0
 62
7
  6
CONTINUOUS
 10
151.3659292523
 20
30.7873815123
 11
151.1924917523
 21
30.6905916353
 12
150.498741835
 22
30.7228544222
 13
150.498741835
 23
30.7228544222
  0
SOLID
  8
0
 62
7
  6
CONTINUOUS
 10
150.0362418212
 20
30.658327332
 11
150.498741835
 21
30.7228544222
 12
151.1924917523
 22
30.6905916353
 13
151.1924917523
 23
30.6905916353
  0
SOLID
  8
0
 62
7
  6
CONTINUOUS
 10
150.0362418212
 20
30.658327332
 11
151.1924917523
 21
30.6905916353
 12
150.2096793212
 22
30.6260631011
 13
150.2096793212
 23
30.6260631011
  0
SOLID
  8
0
 62
7
  6
CONTINUOUS
 10
151.1924917523
 20
30.6905916353
 11
150.9612418074
 21
30.6260631011
 12
150.2096793212
 22
30.6260631011
 13
150.2096793212
 23
30.6260631011
  0
SOLID
  8
0
 62
7
  6
CONTINUOUS
 10
150.5565542799
 20
30.5938002419
 11
150.2096793212
 21
30.6260631011
 12
150.9612418074
 22
30.6260631011
 13
150.9612418074
 23
30.6260631011
  0
SOLID
  8
0
 62
7
  6
CONTINUOUS
 10
154.0253041972
 20
30.7551187255
 11
154.2565543074
 21
30.8519086025
 12
154.3143669177
 22
30.7873815123
 13
154.3143669177
 23
30.7873815123
  0
SOLID
  8
0
 62
7
  6
CONTINUOUS
 10
154.3143669177
 20
30.7873815123
 11
154.5456166972
 21
30.7228544222
 12
154.0253041972
 22
30.7551187255
 13
154.0253041972
 23
30.7551187255
  0
SOLID
  8
0
 62
7
  6
CONTINUOUS
 10
154.1987416972
 20
30.658327332
 11
154.0253041972
 21
30.7551187255
 12
154.5456166972
 22
30.7228544222
 13
154.5456166972
 23
30.7228544222
  0
SOLID
  8
0
 62
7
  6
CONTINUOUS
 10
154.8924916972
 20
30.7228544637
 11
155.1815540869
 21
30.7873815123
 12
155.412804528
 22
30.7551187255
 13
155.412804528
 23
30.7551187255
  0
SOLID
  8
0
 62
7
  6
CONTINUOUS
 10
155.412804528
 20
30.7551187255
 11
155.3549915869
 21
30.6905916353
 12
154.8924916972
 22
30.7228544637
 13
154.8924916972
 23
30.7228544637
  0
SOLID
  8
0
 62
7
  6
CONTINUOUS
 10
155.3549915869
 20
30.6905916353
 11
154.1987416972
 21
30.658327332
 12
154.8924916972
 22
30.7228544637
 13
154.8924916972
 23
30.7228544637
  0
SOLID
  8
0
 62
7
  6
CONTINUOUS
 10
154.1987416972
 20
30.658327332
 11
154.5456166972
 21
30.7228544637
 12
154.8924916972
 22
30.7228544637
 13
154.8924916972
 23
30.7228544637
  0
SOLID
  8
0
 62
7
  6
CONTINUOUS
 10
154.1987416972
 20
30.658327332
 11
155.3549915869
 21
30.6905916353
 12
154.3143669177
 22
30.6260630541
 13
154.3143669177
 23
30.6260630541
  0
SOLID
  8
0
 62
7
  6
CONTINUOUS
 10
155.3549915869
 20
30.6905916353
 11
155.1815540869
 21
30.6260630541
 12
154.3143669177
 22
30.6260630541
 13
154.3143669177
 23
30.6260630541
  0
SOLID
  8
0
 62
7
  6
CONTINUOUS
 10
154.5456166972
 20
30.5938002188
 11
154.3143669177
 21
30.6260630541
 12
155.1815540869
 22
30.6260630541
 13
155.1815540869
 23
30.6260630541
  0
SOLID
  8
0
 62
7
  6
CONTINUOUS
 10
155.1815540869
 20
30.6260630541
 11
154.8924916972
 21
30.5938002188
 12
154.5456166972
 22
30.5938002188
 13
154.5456166972
 23
30.5938002188
  0
SOLID
  8
0
 62
7
  6
CONTINUOUS
 10
159.575304528
 20
30.7551187255
 11
159.228429528
 21
30.7228544637
 12
159.4596793074
 22
30.7873815123
 13
159.4596793074
 23
30.7873815123
  0
SOLID
  8
0
 62
7
  6
CONTINUOUS
 10
159.4596793074
 20
30.7873815123
 11
159.228429528
 21
30.7228544637
 12
159.401867028
 22
30.851908644
 13
159.401867028
 23
30.851908644
  0
SOLID
  8
0
 62
7
  6
CONTINUOUS
 10
159.228429528
 20
30.7228544637
 11
159.1128043074
 21
30.851908644
 12
159.401867028
 22
30.851908644
 13
159.401867028
 23
30.851908644
  0
SOLID
  8
0
 62
7
  6
CONTINUOUS
 10
159.575304528
 20
30.7551187255
 11
159.922179528
 21
30.7228544637
 12
159.228429528
 22
30.7228544637
 13
159.228429528
 23
30.7228544637
  0
SOLID
  8
0
 62
7
  6
CONTINUOUS
 10
156.279992028
 20
30.5938002419
 11
156.279992028
 21
31.6262382337
 12
156.5690540869
 22
30.5938002419
 13
156.5690540869
 23
31.6262382337
  0
ENDBLK
  8
0
  6
BYBLOCK
 62
0
  0
BLOCK
  8
0
 62
2
  6
CONTINUOUS
  2
SYMBOL_3_BL0
 70
64
 10
32.1213064866
 20
19.8534310916
  0
TEXT
  8
0
 62
7
  6
CONTINUOUS
 10
18.3860103289
 20
19.2268451992
  7
TEXTSTYLE_3
 40
2.7338706658
  1
Ammeraal Beltech
 41
1.0
 51
15.0
 72
0
  0
TEXT
  8
0
 62
7
  6
CONTINUOUS
 10
29.1868111546
 20
16.9533085264
  7
TEXTSTYLE_4
 40
1.0935482663
  1
Innovation & Service in Belting
 41
1.0
 72
0
  0
LINE
  8
0
 62
7
  6
CONTINUOUS
 10
12.3614696776
 20
19.9934385078
 11
13.1396216709
 21
23.6543558055
  0
LINE
  8
0
 62
7
  6
CONTINUOUS
 10
23.2347899607
 20
27.3177497171
 11
13.6274394139
 21
24.1961322958
  0
LINE
  8
0
 62
7
  6
CONTINUOUS
 10
12.5867530099
 20
19.3000877048
 11
20.093828271
 21
12.5406867788
  0
LINE
  8
0
 62
7
  6
CONTINUOUS
 10
12.8492874206
 20
20.5352149982
 11
23.6575567857
 21
24.0470345971
  0
LINE
  8
0
 62
7
  6
CONTINUOUS
 10
23.6533516486
 20
13.6972460334
 11
15.2078919798
 21
21.3015720751
  0
LINE
  8
0
 62
7
  6
CONTINUOUS
 10
24.1731743684
 20
26.4728246013
 11
23.1966148312
 21
21.8784731989
  0
LINE
  8
0
 62
7
  6
CONTINUOUS
 10
22.4968128835
 20
18.5861638851
 11
21.810364672
 21
15.3566789607
  0
LINE
  8
0
 62
7
  6
CONTINUOUS
 10
24.8542704669
 20
14.087448211
 11
25.8105020025
 21
18.5861638851
  0
LINE
  8
0
 62
7
  6
CONTINUOUS
 10
26.5103039502
 20
21.8784731989
 11
26.9545457526
 21
23.9684665583
  0
LINE
  8
0
 62
7
  6
CONTINUOUS
 10
20.8069293463
 20
12.3891124661
 11
24.3664527239
 21
13.5456717207
  0
LINE
  8
0
 62
7
  6
CONTINUOUS
 10
23.9478910361
 20
27.1661754044
 11
26.7292624203
 21
24.6618173613
  0
ARC
  8
0
 62
7
  6
CONTINUOUS
 10
13.8527227462
 20
23.5027814928
 40
0.7290321776
 50
108.0
 51
168.0
  0
ARC
  8
0
 62
7
  6
CONTINUOUS
 10
23.4600732931
 20
26.624398914
 40
0.7290321776
 50
348.0
 51
108.0
  0
ARC
  8
0
 62
7
  6
CONTINUOUS
 10
26.2414446773
 20
24.120040871
 40
0.7290321776
 50
348.0
 51
48.0
  0
ARC
  8
0
 62
7
  6
CONTINUOUS
 10
20.581646014
 20
13.0824632691
 40
0.7290321776
 50
228.0
 51
288.0
  0
ARC
  8
0
 62
7
  6
CONTINUOUS
 10
13.0745707529
 20
19.8418641951
 40
0.7290321776
 50
108.0
 51
228.0
  0
ARC
  8
0
 62
7
  6
CONTINUOUS
 10
24.1411693916
 20
14.2390225237
 40
0.7290321776
 50
228.0
 51
348.0
  0
ENDBLK
  8
0
  6
BYBLOCK
 62
0
  0
ENDSEC
  0
SECTION
  2
ENTITIES
  0
TEXT
  8
0
 62
5
  6
CONTINUOUS
 10
96.0
 20
25.636
  7
TEXTSTYLE_2
 40
2.8
  1
Scale :
 41
0.6
 51
0.000019
 72
0
  0
TEXT
  8
0
 62
5
  6
CONTINUOUS
 10
116.0
 20
25.636
  7
TEXTSTYLE_2
 40
2.8
  1
Belt type:
 41
0.6
 51
0.000019
 72
0
  0
INSERT
  8
0
 62
2
  6
CONTINUOUS
  2
SYMBOL_3_BL0
 10
32.1213064866
 20
19.8534310916
  0
INSERT
  8
0
 62
2
  6
CONTINUOUS
  2
SYMBOL_8_BL1
 10
173.5956734183
 20
35.5937998301
  0
LINE
  8
0
 62
2
  6
CONTINUOUS
 10
10.0
 20
30.0
 11
200.0
 21
30.0
  0
LINE
  8
0
 62
2
  6
CONTINUOUS
 10
10.0
 20
30.0
 11
10.0
 21
10.0
  0
LINE
  8
0
 62
2
  6
CONTINUOUS
 10
10.0
 20
10.0
 11
200.0
 21
10.0
  0
LINE
  8
0
 62
2
  6
CONTINUOUS
 10
95.0
 20
30.0
 11
95.0
 21
10.0
  0
LINE
  8
0
 62
2
  6
CONTINUOUS
 10
115.0
 20
30.0
 11
115.0
 21
10.0
  0
LINE
  8
0
 62
2
  6
CONTINUOUS
 10
200.0
 20
30.0
 11
200.0
 21
10.0
  0
TEXT
  8
0
 62
5
  6
CONTINUOUS
 10
13.0
 20
23.303
  7
TEXTSTYLE_5
 40
1.52
  1
                                                                     Ammeraal Beltech Modular A/S
 41
1.0
 72
0
  0
TEXT
  8
0
 62
5
  6
CONTINUOUS
 10
13.0
 20
20.595
  7
TEXTSTYLE_5
 40
1.5
  1
                                                                      Hjulmagervej 21,  7100 Vejle,  DK
 41
1.0
 72
0
  0
TEXT
  8
0
 62
5
  6
CONTINUOUS
 10
13.0
 20
17.881
  7
TEXTSTYLE_5
 40
1.495
  1
                                                                      tel: 
 41
1.0
 72
0
  0
TEXT
  8
0
 62
5
  6
CONTINUOUS
 10
57.9869465649
 20
17.881
  7
TEXTSTYLE_5
 40
1.51
  1
+45 75723100     fax: +45 75723348
 41
1.0
 72
0
  0
TEXT
  8
0
 62
5
  6
CONTINUOUS
 10
13.0
 20
15.177
  7
TEXTSTYLE_5
 40
1.5
  1
                                                                      admin@unichains.dk  www.unichains.com
 41
1.0
 72
0
  0
TEXT
  8
0
 62
5
  6
CONTINUOUS
 10
99.75
 20
13.75
  7
TEXTSTYLE_6
 40
5.0
  1
1:1
 41
0.7
 72
1
 11
105.0
 21
13.75
  0
TEXT
  8
0
 62
5
  6
CONTINUOUS
 10
118.0
 20
13.75
  7
TEXTSTYLE_7
 40
7.5
  1
uni FLEX SNB C K300
 41
0.5401315789
 72
0
  0
LINE
  8
0
 62
7
  6
CONTINUOUS
 10
210.0
 20
0.0
 11
0.0
 21
0.0
  0
LINE
  8
0
 62
7
  6
CONTINUOUS
 10
10.0
 20
10.0
 11
200.0
 21
10.0
  0
LINE
  8
0
 62
7
  6
CONTINUOUS
 10
10.0
 20
30.0
 11
200.0
 21
30.0
  0
LINE
  8
0
 62
7
  6
CONTINUOUS
 10
0.0
 20
0.0
 11
0.0
 21
297.0
  0
LINE
  8
0
 62
7
  6
CONTINUOUS
 10
10.0
 20
10.0
 11
10.0
 21
287.0
  0
LINE
  8
0
 62
7
  6
CONTINUOUS
 10
200.0
 20
287.0
 11
200.0
 21
10.0
  0
LINE
  8
0
 62
7
  6
CONTINUOUS
 10
210.0
 20
0.0
 11
210.0
 21
297.0
  0
LINE
  8
0
 62
7
  6
CONTINUOUS
 10
10.0
 20
287.0
 11
200.0
 21
287.0
  0
LINE
  8
0
 62
7
  6
CONTINUOUS
 10
0.0
 20
297.0
 11
210.0
 21
297.0
  0
LINE
  8
0
 62
7
  6
CONTINUOUS
 10
36.8334603856
 20
171.0721568357
 11
37.4363511753
 21
168.8221377774
  0
LINE
  8
0
 62
7
  6
CONTINUOUS
 10
37.3694222958
 20
169.0719232216
 11
37.3701843988
 21
169.0690755332
  0
POLYLINE
  8
SURFACE
 62
7
  6
CONTINUOUS
 66
1
 70
0
  0
VERTEX
  8
SURFACE
 62
7
  6
CONTINUOUS
 10
38.4955501626
 20
172.9042520612
  0
VERTEX
  8
SURFACE
 62
7
  6
CONTINUOUS
 10
38.5023899203
 20
172.7888477231
  0
VERTEX
  8
SURFACE
 62
7
  6
CONTINUOUS
 10
38.523036585
 20
172.6739862885
  0
VERTEX
  8
SURFACE
 62
7
  6
CONTINUOUS
 10
38.5575301071
 20
172.5614753137
  0
VERTEX
  8
SURFACE
 62
7
  6
CONTINUOUS
 10
38.6059921591
 20
172.4524563514
  0
VERTEX
  8
SURFACE
 62
7
  6
CONTINUOUS
 10
38.6680950952
 20
172.3489579394
  0
VERTEX
  8
SURFACE
 62
7
  6
CONTINUOUS
 10
38.7434904445
 20
172.252590391
  0
VERTEX
  8
SURFACE
 62
7
  6
CONTINUOUS
 10
38.830528711
 20
172.1660217281
  0
VERTEX
  8
SURFACE
 62
7
  6
CONTINUOUS
 10
38.9277618712
 20
172.0907897408
  0
VERTEX
  8
SURFACE
 62
7
  6
CONTINUOUS
 10
39.0323970144
 20
172.0287461871
  0
VERTEX
  8
SURFACE
 62
7
  6
CONTINUOUS
 10
39.1425940597
 20
171.980387107
  0
VERTEX
  8
SURFACE
 62
7
  6
CONTINUOUS
 10
39.2562481655
 20
171.9460287278
  0
VERTEX
  8
SURFACE
 62
7
  6
CONTINUOUS
 10
39.3720544121
 20
171.9255325426
  0
VERTEX
  8
SURFACE
 62
7
  6
CONTINUOUS
 10
39.4880895171
 20
171.9187777169
  0
SEQEND
  0
LINE
  8
0
 62
7
  6
CONTINUOUS
 10
36.6630895171
 20
182.7142520612
 11
36.6630895171
 21
172.3662520612
  0
LINE
  8
SURFACE
 62
7
  6
CONTINUOUS
 10
38.4955501626
 20
172.9042520612
 11
38.4955494779
 21
181.6042520612
  0
LINE
  8
SURFACE
 62
7
  6
CONTINUOUS
 10
40.6806288715
 20
172.9042520612
 11
40.6806295562
 21
181.6042520612
  0
LINE
  8
0
 62
7
  6
CONTINUOUS
 10
44.0363511753
 20
202.4063663451
 11
43.4334603856
 21
200.1563472868
  0
POLYLINE
  8
SURFACE
 62
7
  6
CONTINUOUS
 66
1
 70
0
  0
VERTEX
  8
SURFACE
 62
7
  6
CONTINUOUS
 10
40.6581594781
 20
181.8142520612
  0
VERTEX
  8
SURFACE
 62
7
  6
CONTINUOUS
 10
40.6294583484
 20
181.9185964696
  0
VERTEX
  8
SURFACE
 62
7
  6
CONTINUOUS
 10
40.5887192126
 20
182.0206914324
  0
VERTEX
  8
SURFACE
 62
7
  6
CONTINUOUS
 10
40.5363110301
 20
182.1184447843
  0
VERTEX
  8
SURFACE
 62
7
  6
CONTINUOUS
 10
40.472365855
 20
182.2107972708
  0
VERTEX
  8
SURFACE
 62
7
  6
CONTINUOUS
 10
40.3978047839
 20
182.2958168177
  0
VERTEX
  8
SURFACE
 62
7
  6
CONTINUOUS
 10
40.3133000596
 20
182.3723449398
  0
VERTEX
  8
SURFACE
 62
7
  6
CONTINUOUS
 10
40.2204186856
 20
182.4387494186
  0
VERTEX
  8
SURFACE
 62
7
  6
CONTINUOUS
 10
40.1211238785
 20
182.4937663651
  0
VERTEX
  8
SURFACE
 62
7
  6
CONTINUOUS
 10
40.0165807184
 20
182.5369868161
  0
VERTEX
  8
SURFACE
 62
7
  6
CONTINUOUS
 10
39.9087571828
 20
182.5678709558
  0
VERTEX
  8
SURFACE
 62
7
  6
CONTINUOUS
 10
39.7986054288
 20
182.5864131873
  0
VERTEX
  8
SURFACE
 62
7
  6
CONTINUOUS
 10
39.6880895171
 20
182.592543121
  0
SEQEND
  0
LINE
  8
0
 62
7
  6
CONTINUOUS
 10
42.6130895171
 20
172.3662520612
 11
42.6130895171
 21
180.2642520612
  0
LINE
  8
0
 62
7
  6
CONTINUOUS
 10
43.2630895171
 20
198.8622520612
 11
43.2630895171
 21
190.9642520612
  0
LINE
  8
0
 62
7
  6
CONTINUOUS
 10
43.0927186485
 20
189.6701568357
 11
42.097361401
 21
185.9554330161
  0
LINE
  8
0
 62
7
  6
CONTINUOUS
 10
42.7834603856
 20
181.5583472868
 11
43.7788176332
 21
185.2730711064
  0
LINE
  8
0
 62
7
  6
CONTINUOUS
 10
49.7834603856
 20
171.0721568357
 11
50.3863511753
 21
168.8221377774
  0
LINE
  8
0
 62
7
  6
CONTINUOUS
 10
50.3194222958
 20
169.0719232216
 11
50.3201843988
 21
169.0690755332
  0
LINE
  8
0
 62
7
  6
CONTINUOUS
 10
48.9630895171
 20
190.9642520612
 11
48.9630895171
 21
198.8622520612
  0
LINE
  8
0
 62
7
  6
CONTINUOUS
 10
49.6130895171
 20
180.2642520612
 11
49.6130895171
 21
172.3662520612
  0
LINE
  8
0
 62
7
  6
CONTINUOUS
 10
41.8398278589
 20
168.8221377774
 11
42.4427186485
 21
171.0721568357
  0
LINE
  8
0
 62
7
  6
CONTINUOUS
 10
48.447361401
 20
185.2730711064
 11
49.4427186485
 21
181.5583472868
  0
LINE
  8
0
 62
7
  6
CONTINUOUS
 10
50.1288176332
 20
185.9554330161
 11
49.1334603856
 21
189.6701568357
  0
LINE
  8
0
 62
7
  6
CONTINUOUS
 10
55.3130895171
 20
172.3662520612
 11
55.3130895171
 21
180.2642520612
  0
LINE
  8
0
 62
7
  6
CONTINUOUS
 10
56.7363511753
 20
202.4063663451
 11
56.1334603856
 21
200.1563472868
  0
LINE
  8
0
 62
7
  6
CONTINUOUS
 10
55.7927186485
 20
189.6701568357
 11
54.797361401
 21
185.9554330161
  0
LINE
  8
0
 62
7
  6
CONTINUOUS
 10
48.7927186485
 20
200.1563472868
 11
48.1898278589
 21
202.4063663451
  0
LINE
  8
0
 62
7
  6
CONTINUOUS
 10
48.2521380735
 20
202.1738214584
 11
48.2504273423
 21
202.1802034308
  0
LINE
  8
0
 62
7
  6
CONTINUOUS
 10
48.2567354676
 20
202.1566602935
 11
48.2559250347
 21
202.1596883267
  0
LINE
  8
0
 62
7
  6
CONTINUOUS
 10
55.9630895171
 20
198.8622520612
 11
55.9630895171
 21
190.9642520612
  0
LINE
  8
0
 62
7
  6
CONTINUOUS
 10
55.4834603856
 20
181.5583472868
 11
56.4788176332
 21
185.2730711064
  0
LINE
  8
0
 62
7
  6
CONTINUOUS
 10
38.160795543
 20
168.2662520612
 11
41.1153834912
 21
168.2662520612
  0
LINE
  8
0
 62
7
  6
CONTINUOUS
 10
51.110795543
 20
168.2662520612
 11
53.8153834912
 21
168.2662520612
  0
LINE
  8
0
 62
7
  6
CONTINUOUS
 10
63.810795543
 20
168.2662520612
 11
66.5153834912
 21
168.2662520612
  0
LINE
  8
0
 62
7
  6
CONTINUOUS
 10
76.486795543
 20
168.2662520612
 11
79.1913834912
 21
168.2662520612
  0
LINE
  8
0
 62
7
  6
CONTINUOUS
 10
89.186795543
 20
168.2662520612
 11
91.8913834912
 21
168.2662520612
  0
LINE
  8
0
 62
7
  6
CONTINUOUS
 10
101.886795543
 20
168.2662520612
 11
104.5913834912
 21
168.2662520612
  0
LINE
  8
0
 62
7
  6
CONTINUOUS
 10
54.5398278589
 20
168.8221377774
 11
55.1427186485
 21
171.0721568357
  0
LINE
  8
SURFACE
 62
7
  6
CONTINUOUS
 10
39.6880895171
 20
171.9187777169
 11
39.4880895171
 21
171.9187777169
  0
LINE
  8
0
 62
7
  6
CONTINUOUS
 10
62.4834603856
 20
171.0721568357
 11
63.0863511753
 21
168.8221377774
  0
LINE
  8
0
 62
7
  6
CONTINUOUS
 10
63.0194222958
 20
169.0719232216
 11
63.0201843988
 21
169.0690755332
  0
LINE
  8
0
 62
7
  6
CONTINUOUS
 10
61.6630895171
 20
190.9642520612
 11
61.6630895171
 21
198.8622520612
  0
LINE
  8
0
 62
7
  6
CONTINUOUS
 10
62.3130895171
 20
180.2642520612
 11
62.3130895171
 21
172.3662520612
  0
POLYLINE
  8
SURFACE
 62
7
  6
CONTINUOUS
 66
1
 70
0
  0
VERTEX
  8
SURFACE
 62
7
  6
CONTINUOUS
 10
39.6880895171
 20
171.9187777169
  0
VERTEX
  8
SURFACE
 62
7
  6
CONTINUOUS
 10
39.8041239697
 20
171.9255324664
  0
VERTEX
  8
SURFACE
 62
7
  6
CONTINUOUS
 10
39.9199284621
 20
171.946028154
  0
VERTEX
  8
SURFACE
 62
7
  6
CONTINUOUS
 10
40.0335827921
 20
171.9803863027
  0
VERTEX
  8
SURFACE
 62
7
  6
CONTINUOUS
 10
40.1437796735
 20
172.0287449835
  0
VERTEX
  8
SURFACE
 62
7
  6
CONTINUOUS
 10
40.2484152558
 20
172.0907884458
  0
VERTEX
  8
SURFACE
 62
7
  6
CONTINUOUS
 10
40.3456484927
 20
172.1660201208
  0
VERTEX
  8
SURFACE
 62
7
  6
CONTINUOUS
 10
40.4326869746
 20
172.2525885717
  0
VERTEX
  8
SURFACE
 62
7
  6
CONTINUOUS
 10
40.5080826398
 20
172.3489560478
  0
VERTEX
  8
SURFACE
 62
7
  6
CONTINUOUS
 10
40.5701857378
 20
172.4524541618
  0
VERTEX
  8
SURFACE
 62
7
  6
CONTINUOUS
 10
40.618648136
 20
172.5614731961
  0
VERTEX
  8
SURFACE
 62
7
  6
CONTINUOUS
 10
40.653141869
 20
172.6739838909
  0
VERTEX
  8
SURFACE
 62
7
  6
CONTINUOUS
 10
40.6737890212
 20
172.7888469434
  0
VERTEX
  8
SURFACE
 62
7
  6
CONTINUOUS
 10
40.6806288715
 20
172.9042520612
  0
SEQEND
  0
LINE
  8
DEFAULT_1
 62
7
  6
CENTER
 10
34.6630895171
 20
172.9142520612
 11
107.6630895171
 21
172.9142520612
  0
LINE
  8
0
 62
7
  6
CONTINUOUS
 10
61.147361401
 20
185.2730711064
 11
62.1427186485
 21
181.5583472868
  0
LINE
  8
0
 62
7
  6
CONTINUOUS
 10
62.8288176332
 20
185.9554330161
 11
61.8334603856
 21
189.6701568357
  0
LINE
  8
0
 62
7
  6
CONTINUOUS
 10
69.4363511753
 20
202.4063663451
 11
68.8334603856
 21
200.1563472868
  0
LINE
  8
0
 62
7
  6
CONTINUOUS
 10
61.4927186485
 20
200.1563472868
 11
60.8898278589
 21
202.4063663451
  0
LINE
  8
0
 62
7
  6
CONTINUOUS
 10
60.9521380735
 20
202.1738214585
 11
60.9504273423
 21
202.1802034308
  0
LINE
  8
0
 62
7
  6
CONTINUOUS
 10
60.9567354676
 20
202.1566602935
 11
60.9559250347
 21
202.1596883266
  0
LINE
  8
0
 62
7
  6
CONTINUOUS
 10
68.0130895171
 20
172.3662520612
 11
68.0130895171
 21
180.2642520612
  0
LINE
  8
0
 62
7
  6
CONTINUOUS
 10
68.6630895171
 20
198.8622520612
 11
68.6630895171
 21
190.9642520612
  0
LINE
  8
0
 62
7
  6
CONTINUOUS
 10
68.4927186485
 20
189.6701568357
 11
67.497361401
 21
185.9554330161
  0
LINE
  8
0
 62
7
  6
CONTINUOUS
 10
68.1834603856
 20
181.5583472868
 11
69.1788176332
 21
185.2730711064
  0
LINE
  8
0
 62
7
  6
CONTINUOUS
 10
67.2398278589
 20
168.8221377774
 11
67.8427186485
 21
171.0721568357
  0
LINE
  8
SURFACE
 62
7
  6
CONTINUOUS
 10
39.6880895171
 20
182.592543121
 11
39.4880895171
 21
182.592543121
  0
LINE
  8
0
 62
7
  6
CONTINUOUS
 10
75.1594603856
 20
171.0721568357
 11
75.7623511753
 21
168.8221377774
  0
LINE
  8
0
 62
7
  6
CONTINUOUS
 10
75.6954222958
 20
169.0719232216
 11
75.6961843988
 21
169.0690755332
  0
LINE
  8
0
 62
7
  6
CONTINUOUS
 10
74.3630895171
 20
190.9642520612
 11
74.3630895171
 21
198.8622520612
  0
LINE
  8
CURVE
 62
40
  6
CONTINUOUS
 10
74.6760895171
 20
200.8642520612
 11
74.6760895171
 21
189.1378272637
  0
LINE
  8
CURVE
 62
40
  6
CONTINUOUS
 10
74.6760895171
 20
182.0906768676
 11
74.6760895171
 21
170.3642520612
  0
LINE
  8
0
 62
7
  6
CONTINUOUS
 10
74.9890895171
 20
180.2642520612
 11
74.9890895171
 21
172.3662520612
  0
POLYLINE
  8
SURFACE
 62
7
  6
CONTINUOUS
 66
1
 70
0
  0
VERTEX
  8
SURFACE
 62
7
  6
CONTINUOUS
 10
39.4880895171
 20
182.592543121
  0
VERTEX
  8
SURFACE
 62
7
  6
CONTINUOUS
 10
39.3775737602
 20
182.5864132045
  0
VERTEX
  8
SURFACE
 62
7
  6
CONTINUOUS
 10
39.267422651
 20
182.5678711369
  0
VERTEX
  8
SURFACE
 62
7
  6
CONTINUOUS
 10
39.1595991527
 20
182.5369871077
  0
VERTEX
  8
SURFACE
 62
7
  6
CONTINUOUS
 10
39.0550558984
 20
182.4937667228
  0
VERTEX
  8
SURFACE
 62
7
  6
CONTINUOUS
 10
38.9557611707
 20
182.4387499376
  0
VERTEX
  8
SURFACE
 62
7
  6
CONTINUOUS
 10
38.8628794672
 20
182.3723453367
  0
VERTEX
  8
SURFACE
 62
7
  6
CONTINUOUS
 10
38.7783747636
 20
182.2958173394
  0
VERTEX
  8
SURFACE
 62
7
  6
CONTINUOUS
 10
38.7038136121
 20
182.2107978256
  0
VERTEX
  8
SURFACE
 62
7
  6
CONTINUOUS
 10
38.6398683404
 20
182.1184453346
  0
VERTEX
  8
SURFACE
 62
7
  6
CONTINUOUS
 10
38.5874599998
 20
182.0206918153
  0
VERTEX
  8
SURFACE
 62
7
  6
CONTINUOUS
 10
38.546720692
 20
181.9185964884
  0
VERTEX
  8
SURFACE
 62
7
  6
CONTINUOUS
 10
38.518019556
 20
181.8142520612
  0
SEQEND
  0
LINE
  8
0
 62
7
  6
CONTINUOUS
 10
104.6074355747
 20
185.2142520612
 11
101.8707434595
 21
185.2142520612
  0
LINE
  8
0
 62
7
  6
CONTINUOUS
 10
91.9074355747
 20
185.2142520612
 11
89.1707434595
 21
185.2142520612
  0
LINE
  8
0
 62
7
  6
CONTINUOUS
 10
79.2074355747
 20
185.2142520612
 11
76.4947434595
 21
185.2142520612
  0
LINE
  8
0
 62
7
  6
CONTINUOUS
 10
66.5314355747
 20
185.2142520612
 11
63.7947434595
 21
185.2142520612
  0
LINE
  8
0
 62
7
  6
CONTINUOUS
 10
53.8314355747
 20
185.2142520612
 11
51.0947434595
 21
185.2142520612
  0
LINE
  8
0
 62
7
  6
CONTINUOUS
 10
41.1314355747
 20
185.2142520612
 11
39.1630895171
 21
185.2142520612
  0
LINE
  8
0
 62
7
  6
CONTINUOUS
 10
73.823361401
 20
185.2730711064
 11
74.8187186485
 21
181.5583472868
  0
LINE
  8
0
 62
7
  6
CONTINUOUS
 10
82.1123511753
 20
202.4063663451
 11
81.5094603856
 21
200.1563472868
  0
POLYLINE
  8
0
 62
7
  6
CONTINUOUS
 66
1
 70
0
  0
VERTEX
  8
0
 62
7
  6
CONTINUOUS
 10
109.8640895171
 20
188.6359610015
  0
VERTEX
  8
0
 62
7
  6
CONTINUOUS
 10
109.9746052739
 20
188.642090918
  0
VERTEX
  8
0
 62
7
  6
CONTINUOUS
 10
110.0847563832
 20
188.6606329856
  0
VERTEX
  8
0
 62
7
  6
CONTINUOUS
 10
110.1925798815
 20
188.6915170148
  0
VERTEX
  8
0
 62
7
  6
CONTINUOUS
 10
110.2971231357
 20
188.7347373997
  0
VERTEX
  8
0
 62
7
  6
CONTINUOUS
 10
110.3964178634
 20
188.7897541849
  0
VERTEX
  8
0
 62
7
  6
CONTINUOUS
 10
110.4892995669
 20
188.8561587858
  0
VERTEX
  8
0
 62
7
  6
CONTINUOUS
 10
110.5738042706
 20
188.9326867831
  0
VERTEX
  8
0
 62
7
  6
CONTINUOUS
 10
110.648365422
 20
189.0177062969
  0
VERTEX
  8
0
 62
7
  6
CONTINUOUS
 10
110.7123106938
 20
189.1100587878
  0
VERTEX
  8
0
 62
7
  6
CONTINUOUS
 10
110.7647190344
 20
189.2078123072
  0
VERTEX
  8
0
 62
7
  6
CONTINUOUS
 10
110.8054583421
 20
189.3099076341
  0
VERTEX
  8
0
 62
7
  6
CONTINUOUS
 10
110.8341594781
 20
189.4142520612
  0
SEQEND
  0
LINE
  8
0
 62
7
  6
CONTINUOUS
 10
44.7447434595
 20
186.0142520612
 11
47.4814355747
 21
186.0142520612
  0
LINE
  8
0
 62
7
  6
CONTINUOUS
 10
57.4447434595
 20
186.0142520612
 11
60.1814355747
 21
186.0142520612
  0
LINE
  8
0
 62
7
  6
CONTINUOUS
 10
70.1447434595
 20
186.0142520612
 11
72.8574355747
 21
186.0142520612
  0
LINE
  8
0
 62
7
  6
CONTINUOUS
 10
82.8207434595
 20
186.0142520612
 11
85.5574355747
 21
186.0142520612
  0
LINE
  8
0
 62
7
  6
CONTINUOUS
 10
95.5207434595
 20
186.0142520612
 11
98.2574355747
 21
186.0142520612
  0
LINE
  8
0
 62
7
  6
CONTINUOUS
 10
108.2207434595
 20
186.0142520612
 11
110.1890895171
 21
186.0142520612
  0
LINE
  8
0
 62
7
  6
CONTINUOUS
 10
109.6640895171
 20
188.6359610015
 11
109.8640895171
 21
188.6359610015
  0
LINE
  8
0
 62
7
  6
CONTINUOUS
 10
75.5288176332
 20
185.9554330161
 11
74.5334603856
 21
189.6701568357
  0
LINE
  8
0
 62
7
  6
CONTINUOUS
 10
81.1687186485
 20
189.6701568357
 11
80.173361401
 21
185.9554330161
  0
LINE
  8
0
 62
7
  6
CONTINUOUS
 10
74.1927186485
 20
200.1563472868
 11
73.5898278589
 21
202.4063663451
  0
LINE
  8
0
 62
7
  6
CONTINUOUS
 10
73.6521380734
 20
202.1738214586
 11
73.6504273423
 21
202.1802034308
  0
LINE
  8
0
 62
7
  6
CONTINUOUS
 10
73.6567354676
 20
202.1566602935
 11
73.6559250347
 21
202.1596883265
  0
LINE
  8
0
 62
7
  6
CONTINUOUS
 10
80.6890895171
 20
172.3662520612
 11
80.6890895171
 21
180.2642520612
  0
LINE
  8
0
 62
7
  6
CONTINUOUS
 10
81.3390895171
 20
198.8622520612
 11
81.3390895171
 21
190.9642520612
  0
LINE
  8
0
 62
7
  6
CONTINUOUS
 10
80.8594603856
 20
181.5583472868
 11
81.8548176332
 21
185.2730711064
  0
LINE
  8
0
 62
7
  6
CONTINUOUS
 10
79.9158278589
 20
168.8221377774
 11
80.5187186485
 21
171.0721568357
  0
LINE
  8
0
 62
7
  6
CONTINUOUS
 10
87.8594603856
 20
171.0721568357
 11
88.4623511753
 21
168.8221377774
  0
LINE
  8
0
 62
7
  6
CONTINUOUS
 10
86.523361401
 20
185.2730711064
 11
87.5187186485
 21
181.5583472868
  0
LINE
  8
0
 62
7
  6
CONTINUOUS
 10
88.3954222958
 20
169.0719232216
 11
88.3961843988
 21
169.0690755332
  0
LINE
  8
0
 62
7
  6
CONTINUOUS
 10
87.0390895171
 20
190.9642520612
 11
87.0390895171
 21
198.8622520612
  0
LINE
  8
0
 62
7
  6
CONTINUOUS
 10
87.6890895171
 20
180.2642520612
 11
87.6890895171
 21
172.3662520612
  0
POLYLINE
  8
0
 62
7
  6
CONTINUOUS
 66
1
 70
0
  0
VERTEX
  8
0
 62
7
  6
CONTINUOUS
 10
109.6640895171
 20
199.3097264056
  0
VERTEX
  8
0
 62
7
  6
CONTINUOUS
 10
109.5480550644
 20
199.3029716561
  0
VERTEX
  8
0
 62
7
  6
CONTINUOUS
 10
109.4322505721
 20
199.2824759685
  0
VERTEX
  8
0
 62
7
  6
CONTINUOUS
 10
109.3185962421
 20
199.2481178198
  0
VERTEX
  8
0
 62
7
  6
CONTINUOUS
 10
109.2083993607
 20
199.199759139
  0
VERTEX
  8
0
 62
7
  6
CONTINUOUS
 10
109.1037637784
 20
199.1377156767
  0
VERTEX
  8
0
 62
7
  6
CONTINUOUS
 10
109.0065305415
 20
199.0624840017
  0
VERTEX
  8
0
 62
7
  6
CONTINUOUS
 10
108.9194920595
 20
198.9759155508
  0
VERTEX
  8
0
 62
7
  6
CONTINUOUS
 10
108.8440963944
 20
198.8795480747
  0
VERTEX
  8
0
 62
7
  6
CONTINUOUS
 10
108.7819932963
 20
198.7760499607
  0
VERTEX
  8
0
 62
7
  6
CONTINUOUS
 10
108.7335308981
 20
198.6670309264
  0
VERTEX
  8
0
 62
7
  6
CONTINUOUS
 10
108.6990371652
 20
198.5545202316
  0
VERTEX
  8
0
 62
7
  6
CONTINUOUS
 10
108.678390013
 20
198.4396571791
  0
VERTEX
  8
0
 62
7
  6
CONTINUOUS
 10
108.6715501626
 20
198.3242520612
  0
SEQEND
  0
LINE
  8
DEFAULT_1
 62
7
  6
CENTER
 10
41.2630895171
 20
198.3142520612
 11
114.6890895171
 21
198.3142520612
  0
LINE
  8
0
 62
7
  6
CONTINUOUS
 10
109.6640895171
 20
199.3097264056
 11
109.8640895171
 21
199.3097264056
  0
LINE
  8
0
 62
7
  6
CONTINUOUS
 10
88.2048176332
 20
185.9554330161
 11
87.2094603856
 21
189.6701568357
  0
LINE
  8
0
 62
7
  6
CONTINUOUS
 10
94.8123511753
 20
202.4063663451
 11
94.2094603856
 21
200.1563472868
  0
LINE
  8
0
 62
7
  6
CONTINUOUS
 10
86.8687186485
 20
200.1563472868
 11
86.2658278589
 21
202.4063663451
  0
LINE
  8
0
 62
7
  6
CONTINUOUS
 10
86.3281380735
 20
202.1738214584
 11
86.3264273423
 21
202.1802034308
  0
LINE
  8
0
 62
7
  6
CONTINUOUS
 10
86.3327354676
 20
202.1566602935
 11
86.3319250347
 21
202.1596883266
  0
LINE
  8
0
 62
7
  6
CONTINUOUS
 10
93.3890895171
 20
172.3662520612
 11
93.3890895171
 21
180.2642520612
  0
LINE
  8
0
 62
7
  6
CONTINUOUS
 10
94.0390895171
 20
198.8622520612
 11
94.0390895171
 21
190.9642520612
  0
LINE
  8
0
 62
7
  6
CONTINUOUS
 10
93.8687186485
 20
189.6701568357
 11
92.873361401
 21
185.9554330161
  0
LINE
  8
0
 62
7
  6
CONTINUOUS
 10
93.5594603856
 20
181.5583472868
 11
94.5548176332
 21
185.2730711064
  0
LINE
  8
0
 62
7
  6
CONTINUOUS
 10
44.760795543
 20
202.9622520612
 11
47.4653834912
 21
202.9622520612
  0
LINE
  8
0
 62
7
  6
CONTINUOUS
 10
57.460795543
 20
202.9622520612
 11
60.1653834912
 21
202.9622520612
  0
LINE
  8
0
 62
7
  6
CONTINUOUS
 10
70.160795543
 20
202.9622520612
 11
72.8653834912
 21
202.9622520612
  0
LINE
  8
0
 62
7
  6
CONTINUOUS
 10
82.836795543
 20
202.9622520612
 11
85.5413834912
 21
202.9622520612
  0
LINE
  8
0
 62
7
  6
CONTINUOUS
 10
95.536795543
 20
202.9622520612
 11
98.2413834912
 21
202.9622520612
  0
LINE
  8
0
 62
7
  6
CONTINUOUS
 10
108.236795543
 20
202.9622520612
 11
111.1913834912
 21
202.9622520612
  0
LINE
  8
0
 62
7
  6
CONTINUOUS
 10
92.6158278589
 20
168.8221377774
 11
93.2187186485
 21
171.0721568357
  0
LINE
  8
0
 62
7
  6
CONTINUOUS
 10
100.5594603856
 20
171.0721568357
 11
101.1623511753
 21
168.8221377774
  0
LINE
  8
0
 62
7
  6
CONTINUOUS
 10
101.0954222958
 20
169.0719232216
 11
101.0961843988
 21
169.0690755332
  0
LINE
  8
0
 62
7
  6
CONTINUOUS
 10
99.7390895171
 20
190.9642520612
 11
99.7390895171
 21
198.8622520612
  0
LINE
  8
0
 62
7
  6
CONTINUOUS
 10
99.223361401
 20
185.2730711064
 11
100.2187186485
 21
181.5583472868
  0
LINE
  8
0
 62
7
  6
CONTINUOUS
 10
100.9048176332
 20
185.9554330161
 11
99.9094603856
 21
189.6701568357
  0
LINE
  8
0
 62
7
  6
CONTINUOUS
 10
100.3890895171
 20
180.2642520612
 11
100.3890895171
 21
172.3662520612
  0
LINE
  8
0
 62
7
  6
CONTINUOUS
 10
107.454080903
 20
202.188896228
 11
107.4500720361
 21
202.1739374334
  0
LINE
  8
0
 62
7
  6
CONTINUOUS
 10
107.5123511753
 20
202.4063663451
 11
106.9094603856
 21
200.1563472868
  0
LINE
  8
0
 62
7
  6
CONTINUOUS
 10
99.5687186485
 20
200.1563472868
 11
98.9658278589
 21
202.4063663451
  0
LINE
  8
0
 62
7
  6
CONTINUOUS
 10
99.0327354676
 20
202.1566602935
 11
99.0319250347
 21
202.1596883265
  0
LINE
  8
0
 62
7
  6
CONTINUOUS
 10
106.5687186485
 20
189.6701568357
 11
105.573361401
 21
185.9554330161
  0
LINE
  8
0
 62
7
  6
CONTINUOUS
 10
106.0890895171
 20
172.3662520612
 11
106.0890895171
 21
180.2642520612
  0
LINE
  8
0
 62
7
  6
CONTINUOUS
 10
106.7390895171
 20
198.8622520612
 11
106.7390895171
 21
190.9642520612
  0
LINE
  8
0
 62
7
  6
CONTINUOUS
 10
106.2594603856
 20
181.5583472868
 11
107.2548176332
 21
185.2730711064
  0
LINE
  8
0
 62
7
  6
CONTINUOUS
 10
110.8566288715
 20
198.3242520612
 11
110.8566295562
 21
189.6242520612
  0
LINE
  8
0
 62
7
  6
CONTINUOUS
 10
108.6715501626
 20
198.3242520612
 11
108.6715494779
 21
189.6242520612
  0
LINE
  8
0
 62
7
  6
CONTINUOUS
 10
105.3158278589
 20
168.8221377774
 11
105.9187186485
 21
171.0721568357
  0
POLYLINE
  8
0
 62
7
  6
CONTINUOUS
 66
1
 70
0
  0
VERTEX
  8
0
 62
7
  6
CONTINUOUS
 10
108.694019556
 20
189.4142520612
  0
VERTEX
  8
0
 62
7
  6
CONTINUOUS
 10
108.7227206858
 20
189.3099076529
  0
VERTEX
  8
0
 62
7
  6
CONTINUOUS
 10
108.7634598216
 20
189.2078126901
  0
VERTEX
  8
0
 62
7
  6
CONTINUOUS
 10
108.8158680041
 20
189.1100593382
  0
VERTEX
  8
0
 62
7
  6
CONTINUOUS
 10
108.8798131792
 20
189.0177068517
  0
VERTEX
  8
0
 62
7
  6
CONTINUOUS
 10
108.9543742503
 20
188.9326873048
  0
VERTEX
  8
0
 62
7
  6
CONTINUOUS
 10
109.0388789746
 20
188.8561591827
  0
VERTEX
  8
0
 62
7
  6
CONTINUOUS
 10
109.1317603485
 20
188.7897547039
  0
VERTEX
  8
0
 62
7
  6
CONTINUOUS
 10
109.2310551557
 20
188.7347377574
  0
VERTEX
  8
0
 62
7
  6
CONTINUOUS
 10
109.3355983158
 20
188.6915173064
  0
VERTEX
  8
0
 62
7
  6
CONTINUOUS
 10
109.4434218513
 20
188.6606331667
  0
VERTEX
  8
0
 62
7
  6
CONTINUOUS
 10
109.5535736053
 20
188.6420909352
  0
VERTEX
  8
0
 62
7
  6
CONTINUOUS
 10
109.6640895171
 20
188.6359610015
  0
SEQEND
  0
POLYLINE
  8
0
 62
7
  6
CONTINUOUS
 66
1
 70
0
  0
VERTEX
  8
0
 62
7
  6
CONTINUOUS
 10
110.8566288715
 20
198.3242520612
  0
VERTEX
  8
0
 62
7
  6
CONTINUOUS
 10
110.8497891138
 20
198.4396563994
  0
VERTEX
  8
0
 62
7
  6
CONTINUOUS
 10
110.8291424492
 20
198.554517834
  0
VERTEX
  8
0
 62
7
  6
CONTINUOUS
 10
110.7946489271
 20
198.6670288088
  0
VERTEX
  8
0
 62
7
  6
CONTINUOUS
 10
110.7461868751
 20
198.7760477711
  0
VERTEX
  8
0
 62
7
  6
CONTINUOUS
 10
110.6840839389
 20
198.8795461831
  0
VERTEX
  8
0
 62
7
  6
CONTINUOUS
 10
110.6086885896
 20
198.9759137315
  0
VERTEX
  8
0
 62
7
  6
CONTINUOUS
 10
110.5216503231
 20
199.0624823944
  0
VERTEX
  8
0
 62
7
  6
CONTINUOUS
 10
110.424417163
 20
199.1377143817
  0
VERTEX
  8
0
 62
7
  6
CONTINUOUS
 10
110.3197820198
 20
199.1997579354
  0
VERTEX
  8
0
 62
7
  6
CONTINUOUS
 10
110.2095849745
 20
199.2481170155
  0
VERTEX
  8
0
 62
7
  6
CONTINUOUS
 10
110.0959308687
 20
199.2824753947
  0
VERTEX
  8
0
 62
7
  6
CONTINUOUS
 10
109.9801246221
 20
199.3029715799
  0
VERTEX
  8
0
 62
7
  6
CONTINUOUS
 10
109.8640895171
 20
199.3097264056
  0
SEQEND
  0
LINE
  8
0
 62
7
  6
CONTINUOUS
 10
112.6890895171
 20
188.5142520612
 11
112.6890895171
 21
198.8622520612
  0
LINE
  8
0
 62
7
  6
CONTINUOUS
 10
112.5187186485
 20
200.1563472868
 11
111.9158278589
 21
202.4063663451
  0
LINE
  8
0
 62
7
  6
CONTINUOUS
 10
111.9827354676
 20
202.1566602935
 11
111.9819250347
 21
202.1596883266
  0
LINE
  8
SURFACE
 62
7
  6
CONTINUOUS
 10
155.7409893993
 20
170.3642520612
 11
155.9409893993
 21
170.3642520612
  0
LINE
  8
DEFAULT_1
 62
7
  6
CENTER
 10
160.1409893993
 20
172.9142520612
 11
157.7410893993
 21
172.9142520612
  0
LINE
  8
0
 62
2
  6
CONTINUOUS
 10
156.6209893993
 20
172.9142520612
 11
154.8609893993
 21
172.9142520612
  0
LINE
  8
DEFAULT_1
 62
7
  6
CENTER
 10
151.3409893993
 20
172.9142520612
 11
153.7408893993
 21
172.9142520612
  0
LINE
  8
0
 62
7
  6
CONTINUOUS
 10
149.3409893993
 20
172.9161637411
 11
149.3409893993
 21
198.3123403814
  0
LINE
  8
SURFACE
 62
7
  6
CONTINUOUS
 10
153.1909893993
 20
181.8142520612
 11
153.1909893993
 21
172.9142520612
  0
LINE
  8
SURFACE
 62
7
  6
CONTINUOUS
 10
153.1909893993
 20
189.4142520612
 11
153.1909893993
 21
198.3142520612
  0
LINE
  8
SURFACE
 62
7
  6
CONTINUOUS
 10
155.7409893993
 20
184.3642520612
 11
155.9409893993
 21
184.3642520612
  0
LINE
  8
DEFAULT_1
 62
7
  6
CENTER
 10
155.7409893993
 20
202.7142520612
 11
155.7409893993
 21
200.3143520612
  0
LINE
  8
0
 62
2
  6
CONTINUOUS
 10
155.7409893993
 20
199.1942520612
 11
155.7409893993
 21
197.4342520612
  0
LINE
  8
DEFAULT_1
 62
7
  6
CENTER
 10
155.7409893993
 20
177.3142520612
 11
155.7409893993
 21
174.9143520612
  0
LINE
  8
0
 62
2
  6
CONTINUOUS
 10
155.7409893993
 20
173.7942520612
 11
155.7409893993
 21
172.0342520612
  0
LINE
  8
DEFAULT_1
 62
7
  6
CENTER
 10
155.7409893993
 20
168.5142520612
 11
155.7409893993
 21
170.9141520612
  0
LINE
  8
DEFAULT_1
 62
7
  6
CENTER
 10
155.7409893993
 20
193.9142520612
 11
155.7409893993
 21
196.3141520612
  0
LINE
  8
SURFACE
 62
7
  6
CONTINUOUS
 10
150.0909893993
 20
185.2142520612
 11
161.5909893993
 21
185.2142520612
  0
LINE
  8
0
 62
7
  6
CONTINUOUS
 10
150.0909893993
 20
185.2142520612
 11
161.5909893993
 21
185.2142520612
  0
LINE
  8
SURFACE
 62
7
  6
CONTINUOUS
 10
155.7409893993
 20
186.8642520612
 11
155.9409893993
 21
186.8642520612
  0
LINE
  8
SURFACE
 62
7
  6
CONTINUOUS
 10
158.4909893993
 20
172.9142520612
 11
158.4909893993
 21
181.8142520612
  0
LINE
  8
SURFACE
 62
7
  6
CONTINUOUS
 10
158.4909893993
 20
189.4142520612
 11
158.4909893993
 21
198.3142520612
  0
LINE
  8
0
 62
7
  6
CONTINUOUS
 10
162.3409893993
 20
198.3123403814
 11
162.3409893993
 21
172.9161637411
  0
LINE
  8
DEFAULT_1
 62
7
  6
CENTER
 10
160.1409893993
 20
198.3142520612
 11
157.7410893993
 21
198.3142520612
  0
LINE
  8
0
 62
2
  6
CONTINUOUS
 10
156.6209893993
 20
198.3142520612
 11
154.8609893993
 21
198.3142520612
  0
LINE
  8
DEFAULT_1
 62
7
  6
CENTER
 10
151.3409893993
 20
198.3142520612
 11
153.7408893993
 21
198.3142520612
  0
LINE
  8
SURFACE
 62
7
  6
CONTINUOUS
 10
155.9409893993
 20
200.8642520612
 11
155.7409893993
 21
200.8642520612
  0
POLYLINE
  8
SURFACE
 62
7
  6
CONTINUOUS
 66
1
 70
0
  0
VERTEX
  8
SURFACE
 62
7
  6
CONTINUOUS
 10
36.6630895171
 20
111.3133401099
  0
VERTEX
  8
SURFACE
 62
7
  6
CONTINUOUS
 10
36.6690819929
 20
111.2407072658
  0
VERTEX
  8
SURFACE
 62
7
  6
CONTINUOUS
 10
36.6871788758
 20
111.1521782298
  0
VERTEX
  8
SURFACE
 62
7
  6
CONTINUOUS
 10
36.7172154809
 20
111.0472280633
  0
VERTEX
  8
SURFACE
 62
7
  6
CONTINUOUS
 10
36.7589450885
 20
110.924510658
  0
VERTEX
  8
SURFACE
 62
7
  6
CONTINUOUS
 10
36.811772577
 20
110.7828289999
  0
SEQEND
  0
LINE
  8
0
 62
7
  6
CONTINUOUS
 10
36.6630895171
 20
114.5774440518
 11
36.6630895171
 21
111.3133401099
  0
LINE
  8
0
 62
7
  6
CONTINUOUS
 10
36.6630895171
 20
106.3415479937
 11
36.6630895171
 21
103.0774440518
  0
LINE
  8
SURFACE
 62
7
  6
CONTINUOUS
 10
37.0231428983
 20
108.9274440518
 11
37.0231428983
 21
108.7274440518
  0
LINE
  8
SURFACE
 62
7
  6
CONTINUOUS
 10
37.28492552
 20
108.9274440518
 11
37.28492552
 21
108.7274440518
  0
POLYLINE
  8
SURFACE
 62
7
  6
CONTINUOUS
 66
1
 70
0
  0
VERTEX
  8
SURFACE
 62
7
  6
CONTINUOUS
 10
37.0231428983
 20
108.7274440518
  0
VERTEX
  8
SURFACE
 62
7
  6
CONTINUOUS
 10
37.0207212858
 20
108.5129446705
  0
VERTEX
  8
SURFACE
 62
7
  6
CONTINUOUS
 10
37.0134683519
 20
108.299850265
  0
VERTEX
  8
SURFACE
 62
7
  6
CONTINUOUS
 10
37.0014178918
 20
108.0895347738
  0
VERTEX
  8
SURFACE
 62
7
  6
CONTINUOUS
 10
36.9846274674
 20
107.8833941436
  0
VERTEX
  8
SURFACE
 62
7
  6
CONTINUOUS
 10
36.9631794387
 20
107.6828237475
  0
VERTEX
  8
SURFACE
 62
7
  6
CONTINUOUS
 10
36.9371830445
 20
107.4892209196
  0
VERTEX
  8
SURFACE
 62
7
  6
CONTINUOUS
 10
36.9067766373
 20
107.3039802535
  0
VERTEX
  8
SURFACE
 62
7
  6
CONTINUOUS
 10
36.8721301429
 20
107.128486739
  0
VERTEX
  8
SURFACE
 62
7
  6
CONTINUOUS
 10
36.8334603506
 20
106.9641557548
  0
SEQEND
  0
POLYLINE
  8
SURFACE
 62
7
  6
CONTINUOUS
 66
1
 70
0
  0
VERTEX
  8
SURFACE
 62
7
  6
CONTINUOUS
 10
37.28492552
 20
108.7274440518
  0
VERTEX
  8
SURFACE
 62
7
  6
CONTINUOUS
 10
37.2787796425
 20
108.5383315752
  0
VERTEX
  8
SURFACE
 62
7
  6
CONTINUOUS
 10
37.2604453551
 20
108.3486620959
  0
VERTEX
  8
SURFACE
 62
7
  6
CONTINUOUS
 10
37.2307931909
 20
108.1608795363
  0
VERTEX
  8
SURFACE
 62
7
  6
CONTINUOUS
 10
37.1907072443
 20
107.9739519584
  0
VERTEX
  8
SURFACE
 62
7
  6
CONTINUOUS
 10
37.1407779057
 20
107.7858290968
  0
VERTEX
  8
SURFACE
 62
7
  6
CONTINUOUS
 10
37.0818323763
 20
107.5956146036
  0
VERTEX
  8
SURFACE
 62
7
  6
CONTINUOUS
 10
37.0154179398
 20
107.4039557356
  0
VERTEX
  8
SURFACE
 62
7
  6
CONTINUOUS
 10
36.9445942206
 20
107.2142672903
  0
SEQEND
  0
LINE
  8
SURFACE
 62
7
  6
CONTINUOUS
 10
36.8334602382
 20
106.9641552897
 11
36.8037764601
 21
106.8506100344
  0
LINE
  8
SURFACE
 62
7
  6
CONTINUOUS
 10
36.803779715
 20
110.8042656037
 11
36.833460466
 21
110.6907319034
  0
POLYLINE
  8
SURFACE
 62
7
  6
CONTINUOUS
 66
1
 70
0
  0
VERTEX
  8
SURFACE
 62
7
  6
CONTINUOUS
 10
36.8334604047
 20
110.6907321569
  0
VERTEX
  8
SURFACE
 62
7
  6
CONTINUOUS
 10
36.8721302386
 20
110.5264009211
  0
VERTEX
  8
SURFACE
 62
7
  6
CONTINUOUS
 10
36.906776776
 20
110.3509070808
  0
VERTEX
  8
SURFACE
 62
7
  6
CONTINUOUS
 10
36.9371832244
 20
110.1656659754
  0
VERTEX
  8
SURFACE
 62
7
  6
CONTINUOUS
 10
36.9631796262
 20
109.9720627978
  0
VERTEX
  8
SURFACE
 62
7
  6
CONTINUOUS
 10
36.9846276287
 20
109.7714922438
  0
VERTEX
  8
SURFACE
 62
7
  6
CONTINUOUS
 10
37.0014180081
 20
109.5653516499
  0
VERTEX
  8
SURFACE
 62
7
  6
CONTINUOUS
 10
37.0134684162
 20
109.3550364292
  0
VERTEX
  8
SURFACE
 62
7
  6
CONTINUOUS
 10
37.0207213052
 20
109.1419425725
  0
VERTEX
  8
SURFACE
 62
7
  6
CONTINUOUS
 10
37.0231428983
 20
108.9274440518
  0
SEQEND
  0
POLYLINE
  8
SURFACE
 62
7
  6
CONTINUOUS
 66
1
 70
0
  0
VERTEX
  8
SURFACE
 62
7
  6
CONTINUOUS
 10
36.9445942206
 20
107.2142672903
  0
VERTEX
  8
SURFACE
 62
7
  6
CONTINUOUS
 10
36.8118465909
 20
106.8722522929
  0
VERTEX
  8
SURFACE
 62
7
  6
CONTINUOUS
 10
36.7589943122
 20
106.7305144814
  0
VERTEX
  8
SURFACE
 62
7
  6
CONTINUOUS
 10
36.7172443875
 20
106.6077514049
  0
VERTEX
  8
SURFACE
 62
7
  6
CONTINUOUS
 10
36.6871918278
 20
106.502761754
  0
VERTEX
  8
SURFACE
 62
7
  6
CONTINUOUS
 10
36.669085139
 20
106.4142018745
  0
VERTEX
  8
SURFACE
 62
7
  6
CONTINUOUS
 10
36.6630895171
 20
106.3415479937
  0
SEQEND
  0
POLYLINE
  8
SURFACE
 62
7
  6
CONTINUOUS
 66
1
 70
0
  0
VERTEX
  8
SURFACE
 62
7
  6
CONTINUOUS
 10
36.811772577
 20
110.7828289999
  0
VERTEX
  8
SURFACE
 62
7
  6
CONTINUOUS
 10
36.9444605311
 20
110.4409698661
  0
VERTEX
  8
SURFACE
 62
7
  6
CONTINUOUS
 10
37.0152761054
 20
110.2513243731
  0
VERTEX
  8
SURFACE
 62
7
  6
CONTINUOUS
 10
37.0817174048
 20
110.0596222552
  0
VERTEX
  8
SURFACE
 62
7
  6
CONTINUOUS
 10
37.1407097897
 20
109.869294858
  0
VERTEX
  8
SURFACE
 62
7
  6
CONTINUOUS
 10
37.1906831054
 20
109.6810363473
  0
VERTEX
  8
SURFACE
 62
7
  6
CONTINUOUS
 10
37.2307965551
 20
109.4939905832
  0
VERTEX
  8
SURFACE
 62
7
  6
CONTINUOUS
 10
37.2604552419
 20
109.3061487772
  0
VERTEX
  8
SURFACE
 62
7
  6
CONTINUOUS
 10
37.2787837889
 20
109.1164925729
  0
VERTEX
  8
SURFACE
 62
7
  6
CONTINUOUS
 10
37.28492552
 20
108.9274440518
  0
SEQEND
  0
POLYLINE
  8
SURFACE
 62
7
  6
CONTINUOUS
 66
1
 70
0
  0
VERTEX
  8
SURFACE
 62
7
  6
CONTINUOUS
 10
42.3408787302
 20
108.7274440518
  0
VERTEX
  8
SURFACE
 62
7
  6
CONTINUOUS
 10
42.3431141065
 20
108.5213437208
  0
VERTEX
  8
SURFACE
 62
7
  6
CONTINUOUS
 10
42.349810783
 20
108.3164736778
  0
VERTEX
  8
SURFACE
 62
7
  6
CONTINUOUS
 10
42.3609401463
 20
108.1140660335
  0
VERTEX
  8
SURFACE
 62
7
  6
CONTINUOUS
 10
42.3764536494
 20
107.915356257
  0
VERTEX
  8
SURFACE
 62
7
  6
CONTINUOUS
 10
42.3962815208
 20
107.7215839427
  0
VERTEX
  8
SURFACE
 62
7
  6
CONTINUOUS
 10
42.4203314656
 20
107.5339888553
  0
VERTEX
  8
SURFACE
 62
7
  6
CONTINUOUS
 10
42.4484865597
 20
107.3538107815
  0
VERTEX
  8
SURFACE
 62
7
  6
CONTINUOUS
 10
42.4806032641
 20
107.1822833308
  0
VERTEX
  8
SURFACE
 62
7
  6
CONTINUOUS
 10
42.5165095107
 20
107.0206255079
  0
VERTEX
  8
SURFACE
 62
7
  6
CONTINUOUS
 10
42.5560034084
 20
106.8700295467
  0
VERTEX
  8
SURFACE
 62
7
  6
CONTINUOUS
 10
42.598851383
 20
106.7316505871
  0
VERTEX
  8
SURFACE
 62
7
  6
CONTINUOUS
 10
42.6447874575
 20
106.606590846
  0
VERTEX
  8
SURFACE
 62
7
  6
CONTINUOUS
 10
42.6935135823
 20
106.4958817468
  0
VERTEX
  8
SURFACE
 62
7
  6
CONTINUOUS
 10
42.7447005912
 20
106.4004662701
  0
VERTEX
  8
SURFACE
 62
7
  6
CONTINUOUS
 10
42.7979897043
 20
106.3211816372
  0
VERTEX
  8
SURFACE
 62
7
  6
CONTINUOUS
 10
42.8529954247
 20
106.2587414131
  0
VERTEX
  8
SURFACE
 62
7
  6
CONTINUOUS
 10
42.9093098596
 20
106.2137189442
  0
VERTEX
  8
SURFACE
 62
7
  6
CONTINUOUS
 10
42.9665071908
 20
106.1865343364
  0
VERTEX
  8
SURFACE
 62
7
  6
CONTINUOUS
 10
43.0241491709
 20
106.1774440518
  0
SEQEND
  0
POLYLINE
  8
SURFACE
 62
7
  6
CONTINUOUS
 66
1
 70
0
  0
VERTEX
  8
SURFACE
 62
7
  6
CONTINUOUS
 10
43.6231428983
 20
108.9274440518
  0
VERTEX
  8
SURFACE
 62
7
  6
CONTINUOUS
 10
43.6211814433
 20
109.1205235337
  0
VERTEX
  8
SURFACE
 62
7
  6
CONTINUOUS
 10
43.6153048745
 20
109.3125791347
  0
VERTEX
  8
SURFACE
 62
7
  6
CONTINUOUS
 10
43.605535295
 20
109.5026096523
  0
VERTEX
  8
SURFACE
 62
7
  6
CONTINUOUS
 10
43.5919101963
 20
109.6895986619
  0
VERTEX
  8
SURFACE
 62
7
  6
CONTINUOUS
 10
43.5744830315
 20
109.8725295652
  0
VERTEX
  8
SURFACE
 62
7
  6
CONTINUOUS
 10
43.5533242508
 20
110.0503845427
  0
VERTEX
  8
SURFACE
 62
7
  6
CONTINUOUS
 10
43.5285227108
 20
110.2221450009
  0
VERTEX
  8
SURFACE
 62
7
  6
CONTINUOUS
 10
43.5001869771
 20
110.3867958649
  0
VERTEX
  8
SURFACE
 62
7
  6
CONTINUOUS
 10
43.4684467421
 20
110.5433303461
  0
VERTEX
  8
SURFACE
 62
7
  6
CONTINUOUS
 10
43.4334603856
 20
110.6907322246
  0
SEQEND
  0
LINE
  8
SURFACE
 62
7
  6
CONTINUOUS
 10
42.3408787302
 20
108.9274440518
 11
42.3408787302
 21
108.7274440518
  0
LINE
  8
0
 62
7
  6
CONTINUOUS
 10
43.2630895171
 20
103.0774440518
 11
43.2630895171
 21
106.2370231886
  0
LINE
  8
0
 62
7
  6
CONTINUOUS
 10
43.2630895171
 20
111.417864915
 11
43.2630895171
 21
114.5774440518
  0
LINE
  8
SURFACE
 62
7
  6
CONTINUOUS
 10
43.6231428983
 20
108.7274440518
 11
43.6231428983
 21
108.9274440518
  0
POLYLINE
  8
SURFACE
 62
7
  6
CONTINUOUS
 66
1
 70
0
  0
VERTEX
  8
SURFACE
 62
7
  6
CONTINUOUS
 10
43.2630895171
 20
106.2370232039
  0
VERTEX
  8
SURFACE
 62
7
  6
CONTINUOUS
 10
43.2661581536
 20
106.2821308925
  0
VERTEX
  8
SURFACE
 62
7
  6
CONTINUOUS
 10
43.2752399279
 20
106.3401790574
  0
VERTEX
  8
SURFACE
 62
7
  6
CONTINUOUS
 10
43.2901043843
 20
106.411436273
  0
VERTEX
  8
SURFACE
 62
7
  6
CONTINUOUS
 10
43.3103679271
 20
106.4958910472
  0
VERTEX
  8
SURFACE
 62
7
  6
CONTINUOUS
 10
43.3355731968
 20
106.593692508
  0
SEQEND
  0
POLYLINE
  8
SURFACE
 62
7
  6
CONTINUOUS
 66
1
 70
0
  0
VERTEX
  8
SURFACE
 62
7
  6
CONTINUOUS
 10
43.4334603856
 20
106.9641558791
  0
VERTEX
  8
SURFACE
 62
7
  6
CONTINUOUS
 10
43.4684467463
 20
107.1115577768
  0
VERTEX
  8
SURFACE
 62
7
  6
CONTINUOUS
 10
43.5001870243
 20
107.2680924913
  0
VERTEX
  8
SURFACE
 62
7
  6
CONTINUOUS
 10
43.5285228049
 20
107.4327436988
  0
VERTEX
  8
SURFACE
 62
7
  6
CONTINUOUS
 10
43.5533243715
 20
107.6045044788
  0
VERTEX
  8
SURFACE
 62
7
  6
CONTINUOUS
 10
43.5744831525
 20
107.7823596705
  0
VERTEX
  8
SURFACE
 62
7
  6
CONTINUOUS
 10
43.5919102989
 20
107.9652906649
  0
VERTEX
  8
SURFACE
 62
7
  6
CONTINUOUS
 10
43.6055353684
 20
108.1522796337
  0
VERTEX
  8
SURFACE
 62
7
  6
CONTINUOUS
 10
43.6153049147
 20
108.3423099518
  0
VERTEX
  8
SURFACE
 62
7
  6
CONTINUOUS
 10
43.6211814554
 20
108.5343651634
  0
VERTEX
  8
SURFACE
 62
7
  6
CONTINUOUS
 10
43.6231428983
 20
108.7274440518
  0
SEQEND
  0
POLYLINE
  8
SURFACE
 62
7
  6
CONTINUOUS
 66
1
 70
0
  0
VERTEX
  8
SURFACE
 62
7
  6
CONTINUOUS
 10
43.3355731968
 20
106.593692508
  0
VERTEX
  8
SURFACE
 62
7
  6
CONTINUOUS
 10
43.3980040334
 20
106.828276924
  0
VERTEX
  8
SURFACE
 62
7
  6
CONTINUOUS
 10
43.4334603856
 20
106.9641558791
  0
SEQEND
  0
POLYLINE
  8
SURFACE
 62
7
  6
CONTINUOUS
 66
1
 70
0
  0
VERTEX
  8
SURFACE
 62
7
  6
CONTINUOUS
 10
43.3980036791
 20
110.8266125181
  0
VERTEX
  8
SURFACE
 62
7
  6
CONTINUOUS
 10
43.3355727925
 20
111.0611971326
  0
VERTEX
  8
SURFACE
 62
7
  6
CONTINUOUS
 10
43.3103673726
 20
111.1589992703
  0
VERTEX
  8
SURFACE
 62
7
  6
CONTINUOUS
 10
43.2901040543
 20
111.2434532871
  0
VERTEX
  8
SURFACE
 62
7
  6
CONTINUOUS
 10
43.2752399308
 20
111.3147090308
  0
VERTEX
  8
SURFACE
 62
7
  6
CONTINUOUS
 10
43.2661582176
 20
111.372756671
  0
VERTEX
  8
SURFACE
 62
7
  6
CONTINUOUS
 10
43.2630895171
 20
111.4178648998
  0
SEQEND
  0
LINE
  8
SURFACE
 62
7
  6
CONTINUOUS
 10
43.4334603856
 20
110.6907322246
 11
43.3980036791
 21
110.8266125181
  0
LINE
  8
SURFACE
 62
7
  6
CONTINUOUS
 10
48.6030361359
 20
108.7274440518
 11
48.6030361359
 21
108.9274440518
  0
LINE
  8
SURFACE
 62
7
  6
CONTINUOUS
 10
48.9630895171
 20
114.5357812235
 11
48.9630895171
 21
111.4178648998
  0
LINE
  8
SURFACE
 62
7
  6
CONTINUOUS
 10
48.9630895171
 20
106.2370232039
 11
48.9630895171
 21
103.1191068802
  0
LINE
  8
0
 62
7
  6
CONTINUOUS
 10
48.9630895171
 20
103.0774440518
 11
48.9630895171
 21
106.2370232039
  0
LINE
  8
0
 62
7
  6
CONTINUOUS
 10
48.9630895171
 20
111.4178648998
 11
48.9630895171
 21
114.5774440518
  0
POLYLINE
  8
SURFACE
 62
7
  6
CONTINUOUS
 66
1
 70
0
  0
VERTEX
  8
SURFACE
 62
7
  6
CONTINUOUS
 10
48.6030361359
 20
108.9274440518
  0
VERTEX
  8
SURFACE
 62
7
  6
CONTINUOUS
 10
48.6049975908
 20
109.1205235337
  0
VERTEX
  8
SURFACE
 62
7
  6
CONTINUOUS
 10
48.6108741597
 20
109.3125791347
  0
VERTEX
  8
SURFACE
 62
7
  6
CONTINUOUS
 10
48.6206437391
 20
109.5026096523
  0
VERTEX
  8
SURFACE
 62
7
  6
CONTINUOUS
 10
48.6342688379
 20
109.6895986619
  0
VERTEX
  8
SURFACE
 62
7
  6
CONTINUOUS
 10
48.6516960027
 20
109.8725295652
  0
VERTEX
  8
SURFACE
 62
7
  6
CONTINUOUS
 10
48.6728547833
 20
110.0503845427
  0
VERTEX
  8
SURFACE
 62
7
  6
CONTINUOUS
 10
48.6976563234
 20
110.2221450009
  0
VERTEX
  8
SURFACE
 62
7
  6
CONTINUOUS
 10
48.7259920571
 20
110.3867958649
  0
VERTEX
  8
SURFACE
 62
7
  6
CONTINUOUS
 10
48.7577322921
 20
110.5433303461
  0
VERTEX
  8
SURFACE
 62
7
  6
CONTINUOUS
 10
48.7927186485
 20
110.6907322246
  0
SEQEND
  0
POLYLINE
  8
SURFACE
 62
7
  6
CONTINUOUS
 66
1
 70
0
  0
VERTEX
  8
SURFACE
 62
7
  6
CONTINUOUS
 10
48.9630895171
 20
111.4178648998
  0
VERTEX
  8
SURFACE
 62
7
  6
CONTINUOUS
 10
48.9600214838
 20
111.3727623007
  0
VERTEX
  8
SURFACE
 62
7
  6
CONTINUOUS
 10
48.9509401073
 20
111.3147144282
  0
VERTEX
  8
SURFACE
 62
7
  6
CONTINUOUS
 10
48.9360741477
 20
111.2434496138
  0
VERTEX
  8
SURFACE
 62
7
  6
CONTINUOUS
 10
48.9158087425
 20
111.1589876161
  0
VERTEX
  8
SURFACE
 62
7
  6
CONTINUOUS
 10
48.890602531
 20
111.0611830277
  0
SEQEND
  0
POLYLINE
  8
SURFACE
 62
7
  6
CONTINUOUS
 66
1
 70
0
  0
VERTEX
  8
SURFACE
 62
7
  6
CONTINUOUS
 10
48.890602531
 20
111.0611830277
  0
VERTEX
  8
SURFACE
 62
7
  6
CONTINUOUS
 10
48.8281696869
 20
110.826591101
  0
VERTEX
  8
SURFACE
 62
7
  6
CONTINUOUS
 10
48.7927186485
 20
110.6907322246
  0
SEQEND
  0
POLYLINE
  8
SURFACE
 62
7
  6
CONTINUOUS
 66
1
 70
0
  0
VERTEX
  8
SURFACE
 62
7
  6
CONTINUOUS
 10
48.8281693452
 20
106.8282982938
  0
VERTEX
  8
SURFACE
 62
7
  6
CONTINUOUS
 10
48.8906021298
 20
106.5937066008
  0
VERTEX
  8
SURFACE
 62
7
  6
CONTINUOUS
 10
48.9158081797
 20
106.4959027344
  0
VERTEX
  8
SURFACE
 62
7
  6
CONTINUOUS
 10
48.936073813
 20
106.4114399671
  0
VERTEX
  8
SURFACE
 62
7
  6
CONTINUOUS
 10
48.9509401053
 20
106.3401736861
  0
VERTEX
  8
SURFACE
 62
7
  6
CONTINUOUS
 10
48.9600215518
 20
106.2821252288
  0
VERTEX
  8
SURFACE
 62
7
  6
CONTINUOUS
 10
48.9630895171
 20
106.2370232039
  0
SEQEND
  0
LINE
  8
SURFACE
 62
7
  6
CONTINUOUS
 10
48.7927186213
 20
106.9641559898
 11
48.8281693452
 21
106.8282982938
  0
POLYLINE
  8
SURFACE
 62
7
  6
CONTINUOUS
 66
1
 70
0
  0
VERTEX
  8
SURFACE
 62
7
  6
CONTINUOUS
 10
48.7927186624
 20
106.9641558208
  0
VERTEX
  8
SURFACE
 62
7
  6
CONTINUOUS
 10
48.7577322879
 20
107.1115577768
  0
VERTEX
  8
SURFACE
 62
7
  6
CONTINUOUS
 10
48.7259920098
 20
107.2680924913
  0
VERTEX
  8
SURFACE
 62
7
  6
CONTINUOUS
 10
48.6976562293
 20
107.4327436988
  0
VERTEX
  8
SURFACE
 62
7
  6
CONTINUOUS
 10
48.6728546627
 20
107.6045044788
  0
VERTEX
  8
SURFACE
 62
7
  6
CONTINUOUS
 10
48.6516958816
 20
107.7823596705
  0
VERTEX
  8
SURFACE
 62
7
  6
CONTINUOUS
 10
48.6342687352
 20
107.9652906649
  0
VERTEX
  8
SURFACE
 62
7
  6
CONTINUOUS
 10
48.6206436658
 20
108.1522796337
  0
VERTEX
  8
SURFACE
 62
7
  6
CONTINUOUS
 10
48.6108741195
 20
108.3423099518
  0
VERTEX
  8
SURFACE
 62
7
  6
CONTINUOUS
 10
48.6049975787
 20
108.5343651634
  0
VERTEX
  8
SURFACE
 62
7
  6
CONTINUOUS
 10
48.6030361359
 20
108.7274440518
  0
SEQEND
  0
LINE
  8
SURFACE
 62
7
  6
CONTINUOUS
 10
49.885300304
 20
108.9274440518
 11
49.885300304
 21
108.7274440518
  0
POLYLINE
  8
SURFACE
 62
7
  6
CONTINUOUS
 66
1
 70
0
  0
VERTEX
  8
SURFACE
 62
7
  6
CONTINUOUS
 10
49.885300304
 20
108.7274440518
  0
VERTEX
  8
SURFACE
 62
7
  6
CONTINUOUS
 10
49.8830649276
 20
108.5213437208
  0
VERTEX
  8
SURFACE
 62
7
  6
CONTINUOUS
 10
49.8763682512
 20
108.3164736778
  0
VERTEX
  8
SURFACE
 62
7
  6
CONTINUOUS
 10
49.8652388879
 20
108.1140660335
  0
VERTEX
  8
SURFACE
 62
7
  6
CONTINUOUS
 10
49.8497253848
 20
107.915356257
  0
VERTEX
  8
SURFACE
 62
7
  6
CONTINUOUS
 10
49.8298975134
 20
107.7215839427
  0
VERTEX
  8
SURFACE
 62
7
  6
CONTINUOUS
 10
49.8058475685
 20
107.5339888553
  0
VERTEX
  8
SURFACE
 62
7
  6
CONTINUOUS
 10
49.7776924745
 20
107.3538107815
  0
VERTEX
  8
SURFACE
 62
7
  6
CONTINUOUS
 10
49.74557577
 20
107.1822833308
  0
VERTEX
  8
SURFACE
 62
7
  6
CONTINUOUS
 10
49.7096695235
 20
107.0206255079
  0
VERTEX
  8
SURFACE
 62
7
  6
CONTINUOUS
 10
49.6701756258
 20
106.8700295467
  0
VERTEX
  8
SURFACE
 62
7
  6
CONTINUOUS
 10
49.6273276512
 20
106.7316505871
  0
VERTEX
  8
SURFACE
 62
7
  6
CONTINUOUS
 10
49.5813915766
 20
106.606590846
  0
VERTEX
  8
SURFACE
 62
7
  6
CONTINUOUS
 10
49.5326654519
 20
106.4958817468
  0
VERTEX
  8
SURFACE
 62
7
  6
CONTINUOUS
 10
49.4814784429
 20
106.4004662701
  0
VERTEX
  8
SURFACE
 62
7
  6
CONTINUOUS
 10
49.4281893299
 20
106.3211816372
  0
VERTEX
  8
SURFACE
 62
7
  6
CONTINUOUS
 10
49.3731836095
 20
106.2587414131
  0
VERTEX
  8
SURFACE
 62
7
  6
CONTINUOUS
 10
49.3168691746
 20
106.2137189442
  0
VERTEX
  8
SURFACE
 62
7
  6
CONTINUOUS
 10
49.2596718433
 20
106.1865343364
  0
VERTEX
  8
SURFACE
 62
7
  6
CONTINUOUS
 10
49.2020298633
 20
106.1774440518
  0
SEQEND
  0
POLYLINE
  8
SURFACE
 62
7
  6
CONTINUOUS
 66
1
 70
0
  0
VERTEX
  8
SURFACE
 62
7
  6
CONTINUOUS
 10
55.0408787302
 20
108.7274440518
  0
VERTEX
  8
SURFACE
 62
7
  6
CONTINUOUS
 10
55.0431141065
 20
108.5213437208
  0
VERTEX
  8
SURFACE
 62
7
  6
CONTINUOUS
 10
55.049810783
 20
108.3164736778
  0
VERTEX
  8
SURFACE
 62
7
  6
CONTINUOUS
 10
55.0609401463
 20
108.1140660335
  0
VERTEX
  8
SURFACE
 62
7
  6
CONTINUOUS
 10
55.0764536494
 20
107.915356257
  0
VERTEX
  8
SURFACE
 62
7
  6
CONTINUOUS
 10
55.0962815208
 20
107.7215839427
  0
VERTEX
  8
SURFACE
 62
7
  6
CONTINUOUS
 10
55.1203314656
 20
107.5339888553
  0
VERTEX
  8
SURFACE
 62
7
  6
CONTINUOUS
 10
55.1484865597
 20
107.3538107815
  0
VERTEX
  8
SURFACE
 62
7
  6
CONTINUOUS
 10
55.1806032641
 20
107.1822833308
  0
VERTEX
  8
SURFACE
 62
7
  6
CONTINUOUS
 10
55.2165095107
 20
107.0206255079
  0
VERTEX
  8
SURFACE
 62
7
  6
CONTINUOUS
 10
55.2560034084
 20
106.8700295467
  0
VERTEX
  8
SURFACE
 62
7
  6
CONTINUOUS
 10
55.298851383
 20
106.7316505871
  0
VERTEX
  8
SURFACE
 62
7
  6
CONTINUOUS
 10
55.3447874575
 20
106.606590846
  0
VERTEX
  8
SURFACE
 62
7
  6
CONTINUOUS
 10
55.3935135823
 20
106.4958817468
  0
VERTEX
  8
SURFACE
 62
7
  6
CONTINUOUS
 10
55.4447005912
 20
106.4004662701
  0
VERTEX
  8
SURFACE
 62
7
  6
CONTINUOUS
 10
55.4979897043
 20
106.3211816372
  0
VERTEX
  8
SURFACE
 62
7
  6
CONTINUOUS
 10
55.5529954247
 20
106.2587414131
  0
VERTEX
  8
SURFACE
 62
7
  6
CONTINUOUS
 10
55.6093098596
 20
106.2137189442
  0
VERTEX
  8
SURFACE
 62
7
  6
CONTINUOUS
 10
55.6665071908
 20
106.1865343364
  0
VERTEX
  8
SURFACE
 62
7
  6
CONTINUOUS
 10
55.7241491709
 20
106.1774440518
  0
SEQEND
  0
POLYLINE
  8
SURFACE
 62
7
  6
CONTINUOUS
 66
1
 70
0
  0
VERTEX
  8
SURFACE
 62
7
  6
CONTINUOUS
 10
56.3231428983
 20
108.9274440518
  0
VERTEX
  8
SURFACE
 62
7
  6
CONTINUOUS
 10
56.3211814433
 20
109.1205235337
  0
VERTEX
  8
SURFACE
 62
7
  6
CONTINUOUS
 10
56.3153048745
 20
109.3125791347
  0
VERTEX
  8
SURFACE
 62
7
  6
CONTINUOUS
 10
56.305535295
 20
109.5026096523
  0
VERTEX
  8
SURFACE
 62
7
  6
CONTINUOUS
 10
56.2919101963
 20
109.6895986619
  0
VERTEX
  8
SURFACE
 62
7
  6
CONTINUOUS
 10
56.2744830315
 20
109.8725295652
  0
VERTEX
  8
SURFACE
 62
7
  6
CONTINUOUS
 10
56.2533242508
 20
110.0503845427
  0
VERTEX
  8
SURFACE
 62
7
  6
CONTINUOUS
 10
56.2285227108
 20
110.2221450009
  0
VERTEX
  8
SURFACE
 62
7
  6
CONTINUOUS
 10
56.2001869771
 20
110.3867958649
  0
VERTEX
  8
SURFACE
 62
7
  6
CONTINUOUS
 10
56.1684467421
 20
110.5433303461
  0
VERTEX
  8
SURFACE
 62
7
  6
CONTINUOUS
 10
56.1334603856
 20
110.6907322246
  0
SEQEND
  0
LINE
  8
SURFACE
 62
7
  6
CONTINUOUS
 10
55.0408787302
 20
108.9274440518
 11
55.0408787302
 21
108.7274440518
  0
LINE
  8
0
 62
7
  6
CONTINUOUS
 10
55.9630895171
 20
103.0774440518
 11
55.9630895171
 21
106.2370232039
  0
LINE
  8
0
 62
7
  6
CONTINUOUS
 10
55.9630895171
 20
111.4178648998
 11
55.9630895171
 21
114.5774440518
  0
LINE
  8
SURFACE
 62
7
  6
CONTINUOUS
 10
56.3231428983
 20
108.7274440518
 11
56.3231428983
 21
108.9274440518
  0
POLYLINE
  8
SURFACE
 62
7
  6
CONTINUOUS
 66
1
 70
0
  0
VERTEX
  8
SURFACE
 62
7
  6
CONTINUOUS
 10
55.9630895171
 20
106.2370232039
  0
VERTEX
  8
SURFACE
 62
7
  6
CONTINUOUS
 10
55.9661581536
 20
106.2821308925
  0
VERTEX
  8
SURFACE
 62
7
  6
CONTINUOUS
 10
55.9752399279
 20
106.3401790574
  0
VERTEX
  8
SURFACE
 62
7
  6
CONTINUOUS
 10
55.9901043843
 20
106.411436273
  0
VERTEX
  8
SURFACE
 62
7
  6
CONTINUOUS
 10
56.0103679271
 20
106.4958910472
  0
VERTEX
  8
SURFACE
 62
7
  6
CONTINUOUS
 10
56.0355731968
 20
106.593692508
  0
SEQEND
  0
POLYLINE
  8
SURFACE
 62
7
  6
CONTINUOUS
 66
1
 70
0
  0
VERTEX
  8
SURFACE
 62
7
  6
CONTINUOUS
 10
56.1334603856
 20
106.9641558791
  0
VERTEX
  8
SURFACE
 62
7
  6
CONTINUOUS
 10
56.1684467463
 20
107.1115577768
  0
VERTEX
  8
SURFACE
 62
7
  6
CONTINUOUS
 10
56.2001870243
 20
107.2680924913
  0
VERTEX
  8
SURFACE
 62
7
  6
CONTINUOUS
 10
56.2285228049
 20
107.4327436988
  0
VERTEX
  8
SURFACE
 62
7
  6
CONTINUOUS
 10
56.2533243715
 20
107.6045044788
  0
VERTEX
  8
SURFACE
 62
7
  6
CONTINUOUS
 10
56.2744831525
 20
107.7823596705
  0
VERTEX
  8
SURFACE
 62
7
  6
CONTINUOUS
 10
56.2919102989
 20
107.9652906649
  0
VERTEX
  8
SURFACE
 62
7
  6
CONTINUOUS
 10
56.3055353684
 20
108.1522796337
  0
VERTEX
  8
SURFACE
 62
7
  6
CONTINUOUS
 10
56.3153049147
 20
108.3423099518
  0
VERTEX
  8
SURFACE
 62
7
  6
CONTINUOUS
 10
56.3211814554
 20
108.5343651634
  0
VERTEX
  8
SURFACE
 62
7
  6
CONTINUOUS
 10
56.3231428983
 20
108.7274440518
  0
SEQEND
  0
POLYLINE
  8
SURFACE
 62
7
  6
CONTINUOUS
 66
1
 70
0
  0
VERTEX
  8
SURFACE
 62
7
  6
CONTINUOUS
 10
56.0355731968
 20
106.593692508
  0
VERTEX
  8
SURFACE
 62
7
  6
CONTINUOUS
 10
56.0980040334
 20
106.828276924
  0
VERTEX
  8
SURFACE
 62
7
  6
CONTINUOUS
 10
56.1334603856
 20
106.9641558791
  0
SEQEND
  0
POLYLINE
  8
SURFACE
 62
7
  6
CONTINUOUS
 66
1
 70
0
  0
VERTEX
  8
SURFACE
 62
7
  6
CONTINUOUS
 10
56.0980036791
 20
110.8266125181
  0
VERTEX
  8
SURFACE
 62
7
  6
CONTINUOUS
 10
56.0355727925
 20
111.0611971326
  0
VERTEX
  8
SURFACE
 62
7
  6
CONTINUOUS
 10
56.0103673726
 20
111.1589992703
  0
VERTEX
  8
SURFACE
 62
7
  6
CONTINUOUS
 10
55.9901040543
 20
111.2434532871
  0
VERTEX
  8
SURFACE
 62
7
  6
CONTINUOUS
 10
55.9752399308
 20
111.3147090308
  0
VERTEX
  8
SURFACE
 62
7
  6
CONTINUOUS
 10
55.9661582176
 20
111.372756671
  0
VERTEX
  8
SURFACE
 62
7
  6
CONTINUOUS
 10
55.9630895171
 20
111.4178648998
  0
SEQEND
  0
LINE
  8
SURFACE
 62
7
  6
CONTINUOUS
 10
56.1334603856
 20
110.6907322246
 11
56.0980036791
 21
110.8266125181
  0
LINE
  8
SURFACE
 62
7
  6
CONTINUOUS
 10
61.3030361359
 20
108.7274440518
 11
61.3030361359
 21
108.9274440518
  0
LINE
  8
SURFACE
 62
7
  6
CONTINUOUS
 10
61.6630895171
 20
114.5357812235
 11
61.6630895171
 21
111.4178648998
  0
LINE
  8
SURFACE
 62
7
  6
CONTINUOUS
 10
61.6630895171
 20
106.2370232039
 11
61.6630895171
 21
103.1191068802
  0
LINE
  8
0
 62
7
  6
CONTINUOUS
 10
61.6630895171
 20
103.0774440518
 11
61.6630895171
 21
106.2370232039
  0
LINE
  8
0
 62
7
  6
CONTINUOUS
 10
61.6630895171
 20
111.4178648998
 11
61.6630895171
 21
114.5774440518
  0
POLYLINE
  8
SURFACE
 62
7
  6
CONTINUOUS
 66
1
 70
0
  0
VERTEX
  8
SURFACE
 62
7
  6
CONTINUOUS
 10
61.3030361359
 20
108.9274440518
  0
VERTEX
  8
SURFACE
 62
7
  6
CONTINUOUS
 10
61.3049975908
 20
109.1205235337
  0
VERTEX
  8
SURFACE
 62
7
  6
CONTINUOUS
 10
61.3108741597
 20
109.3125791347
  0
VERTEX
  8
SURFACE
 62
7
  6
CONTINUOUS
 10
61.3206437391
 20
109.5026096523
  0
VERTEX
  8
SURFACE
 62
7
  6
CONTINUOUS
 10
61.3342688379
 20
109.6895986619
  0
VERTEX
  8
SURFACE
 62
7
  6
CONTINUOUS
 10
61.3516960027
 20
109.8725295652
  0
VERTEX
  8
SURFACE
 62
7
  6
CONTINUOUS
 10
61.3728547833
 20
110.0503845427
  0
VERTEX
  8
SURFACE
 62
7
  6
CONTINUOUS
 10
61.3976563234
 20
110.2221450009
  0
VERTEX
  8
SURFACE
 62
7
  6
CONTINUOUS
 10
61.4259920571
 20
110.3867958649
  0
VERTEX
  8
SURFACE
 62
7
  6
CONTINUOUS
 10
61.4577322921
 20
110.5433303461
  0
VERTEX
  8
SURFACE
 62
7
  6
CONTINUOUS
 10
61.4927186485
 20
110.6907322246
  0
SEQEND
  0
POLYLINE
  8
SURFACE
 62
7
  6
CONTINUOUS
 66
1
 70
0
  0
VERTEX
  8
SURFACE
 62
7
  6
CONTINUOUS
 10
61.6630895171
 20
111.4178648998
  0
VERTEX
  8
SURFACE
 62
7
  6
CONTINUOUS
 10
61.6600214838
 20
111.3727623007
  0
VERTEX
  8
SURFACE
 62
7
  6
CONTINUOUS
 10
61.6509401073
 20
111.3147144282
  0
VERTEX
  8
SURFACE
 62
7
  6
CONTINUOUS
 10
61.6360741477
 20
111.2434496138
  0
VERTEX
  8
SURFACE
 62
7
  6
CONTINUOUS
 10
61.6158087425
 20
111.1589876161
  0
VERTEX
  8
SURFACE
 62
7
  6
CONTINUOUS
 10
61.590602531
 20
111.0611830277
  0
SEQEND
  0
POLYLINE
  8
SURFACE
 62
7
  6
CONTINUOUS
 66
1
 70
0
  0
VERTEX
  8
SURFACE
 62
7
  6
CONTINUOUS
 10
61.590602531
 20
111.0611830277
  0
VERTEX
  8
SURFACE
 62
7
  6
CONTINUOUS
 10
61.5281696869
 20
110.826591101
  0
VERTEX
  8
SURFACE
 62
7
  6
CONTINUOUS
 10
61.4927186485
 20
110.6907322246
  0
SEQEND
  0
POLYLINE
  8
SURFACE
 62
7
  6
CONTINUOUS
 66
1
 70
0
  0
VERTEX
  8
SURFACE
 62
7
  6
CONTINUOUS
 10
61.5281693223
 20
106.8282983802
  0
VERTEX
  8
SURFACE
 62
7
  6
CONTINUOUS
 10
61.5906021167
 20
106.5937066504
  0
VERTEX
  8
SURFACE
 62
7
  6
CONTINUOUS
 10
61.615808171
 20
106.4959027691
  0
VERTEX
  8
SURFACE
 62
7
  6
CONTINUOUS
 10
61.636073808
 20
106.4114399893
  0
VERTEX
  8
SURFACE
 62
7
  6
CONTINUOUS
 10
61.650940103
 20
106.3401736984
  0
VERTEX
  8
SURFACE
 62
7
  6
CONTINUOUS
 10
61.6600215513
 20
106.2821252337
  0
VERTEX
  8
SURFACE
 62
7
  6
CONTINUOUS
 10
61.6630895171
 20
106.2370232039
  0
SEQEND
  0
LINE
  8
SURFACE
 62
7
  6
CONTINUOUS
 10
61.4927186485
 20
106.9641558791
 11
61.5281693223
 21
106.8282983802
  0
POLYLINE
  8
SURFACE
 62
7
  6
CONTINUOUS
 66
1
 70
0
  0
VERTEX
  8
SURFACE
 62
7
  6
CONTINUOUS
 10
61.4927186485
 20
106.9641558791
  0
VERTEX
  8
SURFACE
 62
7
  6
CONTINUOUS
 10
61.4577322879
 20
107.1115577768
  0
VERTEX
  8
SURFACE
 62
7
  6
CONTINUOUS
 10
61.4259920098
 20
107.2680924913
  0
VERTEX
  8
SURFACE
 62
7
  6
CONTINUOUS
 10
61.3976562293
 20
107.4327436988
  0
VERTEX
  8
SURFACE
 62
7
  6
CONTINUOUS
 10
61.3728546627
 20
107.6045044788
  0
VERTEX
  8
SURFACE
 62
7
  6
CONTINUOUS
 10
61.3516958816
 20
107.7823596705
  0
VERTEX
  8
SURFACE
 62
7
  6
CONTINUOUS
 10
61.3342687352
 20
107.9652906649
  0
VERTEX
  8
SURFACE
 62
7
  6
CONTINUOUS
 10
61.3206436658
 20
108.1522796337
  0
VERTEX
  8
SURFACE
 62
7
  6
CONTINUOUS
 10
61.3108741195
 20
108.3423099518
  0
VERTEX
  8
SURFACE
 62
7
  6
CONTINUOUS
 10
61.3049975787
 20
108.5343651634
  0
VERTEX
  8
SURFACE
 62
7
  6
CONTINUOUS
 10
61.3030361359
 20
108.7274440518
  0
SEQEND
  0
LINE
  8
SURFACE
 62
7
  6
CONTINUOUS
 10
62.585300304
 20
108.9274440518
 11
62.585300304
 21
108.7274440518
  0
POLYLINE
  8
SURFACE
 62
7
  6
CONTINUOUS
 66
1
 70
0
  0
VERTEX
  8
SURFACE
 62
7
  6
CONTINUOUS
 10
62.585300304
 20
108.7274440518
  0
VERTEX
  8
SURFACE
 62
7
  6
CONTINUOUS
 10
62.5830649276
 20
108.5213437208
  0
VERTEX
  8
SURFACE
 62
7
  6
CONTINUOUS
 10
62.5763682512
 20
108.3164736778
  0
VERTEX
  8
SURFACE
 62
7
  6
CONTINUOUS
 10
62.5652388879
 20
108.1140660335
  0
VERTEX
  8
SURFACE
 62
7
  6
CONTINUOUS
 10
62.5497253848
 20
107.915356257
  0
VERTEX
  8
SURFACE
 62
7
  6
CONTINUOUS
 10
62.5298975134
 20
107.7215839427
  0
VERTEX
  8
SURFACE
 62
7
  6
CONTINUOUS
 10
62.5058475685
 20
107.5339888553
  0
VERTEX
  8
SURFACE
 62
7
  6
CONTINUOUS
 10
62.4776924745
 20
107.3538107815
  0
VERTEX
  8
SURFACE
 62
7
  6
CONTINUOUS
 10
62.44557577
 20
107.1822833308
  0
VERTEX
  8
SURFACE
 62
7
  6
CONTINUOUS
 10
62.4096695235
 20
107.0206255079
  0
VERTEX
  8
SURFACE
 62
7
  6
CONTINUOUS
 10
62.3701756258
 20
106.8700295467
  0
VERTEX
  8
SURFACE
 62
7
  6
CONTINUOUS
 10
62.3273276512
 20
106.7316505871
  0
VERTEX
  8
SURFACE
 62
7
  6
CONTINUOUS
 10
62.2813915766
 20
106.606590846
  0
VERTEX
  8
SURFACE
 62
7
  6
CONTINUOUS
 10
62.2326654519
 20
106.4958817468
  0
VERTEX
  8
SURFACE
 62
7
  6
CONTINUOUS
 10
62.1814784429
 20
106.4004662701
  0
VERTEX
  8
SURFACE
 62
7
  6
CONTINUOUS
 10
62.1281893299
 20
106.3211816372
  0
VERTEX
  8
SURFACE
 62
7
  6
CONTINUOUS
 10
62.0731836095
 20
106.2587414131
  0
VERTEX
  8
SURFACE
 62
7
  6
CONTINUOUS
 10
62.0168691746
 20
106.2137189442
  0
VERTEX
  8
SURFACE
 62
7
  6
CONTINUOUS
 10
61.9596718433
 20
106.1865343364
  0
VERTEX
  8
SURFACE
 62
7
  6
CONTINUOUS
 10
61.9020298633
 20
106.1774440518
  0
SEQEND
  0
POLYLINE
  8
0
 62
7
  6
CONTINUOUS
 66
1
 70
0
  0
VERTEX
  8
0
 62
7
  6
CONTINUOUS
 10
107.812838613
 20
102.3274681282
  0
VERTEX
  8
0
 62
7
  6
CONTINUOUS
 10
107.908569852
 20
102.333602752
  0
VERTEX
  8
0
 62
7
  6
CONTINUOUS
 10
108.002735
 20
102.3519064228
  0
VERTEX
  8
0
 62
7
  6
CONTINUOUS
 10
108.0937935807
 20
102.3820797055
  0
SEQEND
  0
POLYLINE
  8
SURFACE
 62
7
  6
CONTINUOUS
 66
1
 70
0
  0
VERTEX
  8
SURFACE
 62
7
  6
CONTINUOUS
 10
67.7408787302
 20
108.7274440518
  0
VERTEX
  8
SURFACE
 62
7
  6
CONTINUOUS
 10
67.7431141065
 20
108.5213437208
  0
VERTEX
  8
SURFACE
 62
7
  6
CONTINUOUS
 10
67.749810783
 20
108.3164736778
  0
VERTEX
  8
SURFACE
 62
7
  6
CONTINUOUS
 10
67.7609401463
 20
108.1140660335
  0
VERTEX
  8
SURFACE
 62
7
  6
CONTINUOUS
 10
67.7764536494
 20
107.915356257
  0
VERTEX
  8
SURFACE
 62
7
  6
CONTINUOUS
 10
67.7962815208
 20
107.7215839427
  0
VERTEX
  8
SURFACE
 62
7
  6
CONTINUOUS
 10
67.8203314656
 20
107.5339888553
  0
VERTEX
  8
SURFACE
 62
7
  6
CONTINUOUS
 10
67.8484865597
 20
107.3538107815
  0
VERTEX
  8
SURFACE
 62
7
  6
CONTINUOUS
 10
67.8806032641
 20
107.1822833308
  0
VERTEX
  8
SURFACE
 62
7
  6
CONTINUOUS
 10
67.9165095107
 20
107.0206255079
  0
VERTEX
  8
SURFACE
 62
7
  6
CONTINUOUS
 10
67.9560034084
 20
106.8700295467
  0
VERTEX
  8
SURFACE
 62
7
  6
CONTINUOUS
 10
67.998851383
 20
106.7316505871
  0
VERTEX
  8
SURFACE
 62
7
  6
CONTINUOUS
 10
68.0447874575
 20
106.606590846
  0
VERTEX
  8
SURFACE
 62
7
  6
CONTINUOUS
 10
68.0935135823
 20
106.4958817468
  0
VERTEX
  8
SURFACE
 62
7
  6
CONTINUOUS
 10
68.1447005912
 20
106.4004662701
  0
VERTEX
  8
SURFACE
 62
7
  6
CONTINUOUS
 10
68.1979897043
 20
106.3211816372
  0
VERTEX
  8
SURFACE
 62
7
  6
CONTINUOUS
 10
68.2529954247
 20
106.2587414131
  0
VERTEX
  8
SURFACE
 62
7
  6
CONTINUOUS
 10
68.3093098596
 20
106.2137189442
  0
VERTEX
  8
SURFACE
 62
7
  6
CONTINUOUS
 10
68.3665071908
 20
106.1865343364
  0
VERTEX
  8
SURFACE
 62
7
  6
CONTINUOUS
 10
68.4241491709
 20
106.1774440518
  0
SEQEND
  0
POLYLINE
  8
SURFACE
 62
7
  6
CONTINUOUS
 66
1
 70
0
  0
VERTEX
  8
SURFACE
 62
7
  6
CONTINUOUS
 10
69.0231428983
 20
108.9274440518
  0
VERTEX
  8
SURFACE
 62
7
  6
CONTINUOUS
 10
69.0211814433
 20
109.1205235337
  0
VERTEX
  8
SURFACE
 62
7
  6
CONTINUOUS
 10
69.0153048745
 20
109.3125791347
  0
VERTEX
  8
SURFACE
 62
7
  6
CONTINUOUS
 10
69.005535295
 20
109.5026096523
  0
VERTEX
  8
SURFACE
 62
7
  6
CONTINUOUS
 10
68.9919101963
 20
109.6895986619
  0
VERTEX
  8
SURFACE
 62
7
  6
CONTINUOUS
 10
68.9744830315
 20
109.8725295652
  0
VERTEX
  8
SURFACE
 62
7
  6
CONTINUOUS
 10
68.9533242508
 20
110.0503845427
  0
VERTEX
  8
SURFACE
 62
7
  6
CONTINUOUS
 10
68.9285227108
 20
110.2221450009
  0
VERTEX
  8
SURFACE
 62
7
  6
CONTINUOUS
 10
68.9001869771
 20
110.3867958649
  0
VERTEX
  8
SURFACE
 62
7
  6
CONTINUOUS
 10
68.8684467421
 20
110.5433303461
  0
VERTEX
  8
SURFACE
 62
7
  6
CONTINUOUS
 10
68.8334603856
 20
110.6907322246
  0
SEQEND
  0
LINE
  8
SURFACE
 62
7
  6
CONTINUOUS
 10
67.7408787302
 20
108.9274440518
 11
67.7408787302
 21
108.7274440518
  0
LINE
  8
0
 62
7
  6
CONTINUOUS
 10
68.6630895171
 20
103.0774440518
 11
68.6630895171
 21
106.2370232039
  0
LINE
  8
0
 62
7
  6
CONTINUOUS
 10
68.6630895171
 20
111.4178648998
 11
68.6630895171
 21
114.5774440518
  0
LINE
  8
SURFACE
 62
7
  6
CONTINUOUS
 10
69.0231428983
 20
108.7274440518
 11
69.0231428983
 21
108.9274440518
  0
POLYLINE
  8
SURFACE
 62
7
  6
CONTINUOUS
 66
1
 70
0
  0
VERTEX
  8
SURFACE
 62
7
  6
CONTINUOUS
 10
68.6630895171
 20
106.2370232039
  0
VERTEX
  8
SURFACE
 62
7
  6
CONTINUOUS
 10
68.6661581536
 20
106.2821308925
  0
VERTEX
  8
SURFACE
 62
7
  6
CONTINUOUS
 10
68.6752399279
 20
106.3401790574
  0
VERTEX
  8
SURFACE
 62
7
  6
CONTINUOUS
 10
68.6901043843
 20
106.411436273
  0
VERTEX
  8
SURFACE
 62
7
  6
CONTINUOUS
 10
68.7103679271
 20
106.4958910472
  0
VERTEX
  8
SURFACE
 62
7
  6
CONTINUOUS
 10
68.7355731968
 20
106.593692508
  0
SEQEND
  0
POLYLINE
  8
SURFACE
 62
7
  6
CONTINUOUS
 66
1
 70
0
  0
VERTEX
  8
SURFACE
 62
7
  6
CONTINUOUS
 10
68.8334603856
 20
106.9641558791
  0
VERTEX
  8
SURFACE
 62
7
  6
CONTINUOUS
 10
68.8684467463
 20
107.1115577768
  0
VERTEX
  8
SURFACE
 62
7
  6
CONTINUOUS
 10
68.9001870243
 20
107.2680924913
  0
VERTEX
  8
SURFACE
 62
7
  6
CONTINUOUS
 10
68.9285228049
 20
107.4327436988
  0
VERTEX
  8
SURFACE
 62
7
  6
CONTINUOUS
 10
68.9533243715
 20
107.6045044788
  0
VERTEX
  8
SURFACE
 62
7
  6
CONTINUOUS
 10
68.9744831525
 20
107.7823596705
  0
VERTEX
  8
SURFACE
 62
7
  6
CONTINUOUS
 10
68.9919102989
 20
107.9652906649
  0
VERTEX
  8
SURFACE
 62
7
  6
CONTINUOUS
 10
69.0055353684
 20
108.1522796337
  0
VERTEX
  8
SURFACE
 62
7
  6
CONTINUOUS
 10
69.0153049147
 20
108.3423099518
  0
VERTEX
  8
SURFACE
 62
7
  6
CONTINUOUS
 10
69.0211814554
 20
108.5343651634
  0
VERTEX
  8
SURFACE
 62
7
  6
CONTINUOUS
 10
69.0231428983
 20
108.7274440518
  0
SEQEND
  0
POLYLINE
  8
SURFACE
 62
7
  6
CONTINUOUS
 66
1
 70
0
  0
VERTEX
  8
SURFACE
 62
7
  6
CONTINUOUS
 10
68.7355731968
 20
106.593692508
  0
VERTEX
  8
SURFACE
 62
7
  6
CONTINUOUS
 10
68.7980040334
 20
106.828276924
  0
VERTEX
  8
SURFACE
 62
7
  6
CONTINUOUS
 10
68.8334603856
 20
106.9641558791
  0
SEQEND
  0
POLYLINE
  8
0
 62
7
  6
CONTINUOUS
 66
1
 70
0
  0
VERTEX
  8
0
 62
7
  6
CONTINUOUS
 10
99.9780298633
 20
106.1774440518
  0
VERTEX
  8
0
 62
7
  6
CONTINUOUS
 10
100.0356716211
 20
106.1865342662
  0
VERTEX
  8
0
 62
7
  6
CONTINUOUS
 10
100.0928688077
 20
106.2137187107
  0
VERTEX
  8
0
 62
7
  6
CONTINUOUS
 10
100.1491831662
 20
106.2587409851
  0
VERTEX
  8
0
 62
7
  6
CONTINUOUS
 10
100.2041888677
 20
106.3211810321
  0
VERTEX
  8
0
 62
7
  6
CONTINUOUS
 10
100.2574780123
 20
106.4004655498
  0
VERTEX
  8
0
 62
7
  6
CONTINUOUS
 10
100.3086650962
 20
106.4958810127
  0
VERTEX
  8
0
 62
7
  6
CONTINUOUS
 10
100.3573913265
 20
106.6065902228
  0
VERTEX
  8
0
 62
7
  6
CONTINUOUS
 10
100.4033275208
 20
106.7316502001
  0
VERTEX
  8
0
 62
7
  6
CONTINUOUS
 10
100.4461756232
 20
106.8700295377
  0
VERTEX
  8
0
 62
7
  6
CONTINUOUS
 10
100.4856696388
 20
107.0206259859
  0
VERTEX
  8
0
 62
7
  6
CONTINUOUS
 10
100.5215759787
 20
107.182284353
  0
VERTEX
  8
0
 62
7
  6
CONTINUOUS
 10
100.5536927476
 20
107.3538123757
  0
VERTEX
  8
0
 62
7
  6
CONTINUOUS
 10
100.5818478669
 20
107.5339909582
  0
VERTEX
  8
0
 62
7
  6
CONTINUOUS
 10
100.6058977982
 20
107.7215864192
  0
VERTEX
  8
0
 62
7
  6
CONTINUOUS
 10
100.6257256224
 20
107.9153588966
  0
VERTEX
  8
0
 62
7
  6
CONTINUOUS
 10
100.6412390581
 20
108.1140685965
  0
VERTEX
  8
0
 62
7
  6
CONTINUOUS
 10
100.6523683441
 20
108.316475802
  0
VERTEX
  8
0
 62
7
  6
CONTINUOUS
 10
100.6590649554
 20
108.5213450004
  0
VERTEX
  8
0
 62
7
  6
CONTINUOUS
 10
100.661300304
 20
108.7274440518
  0
SEQEND
  0
LINE
  8
0
 62
7
  6
CONTINUOUS
 10
37.4130895171
 20
102.3274440518
 11
111.9390895171
 21
102.3274440518
  0
LINE
  8
0
 62
7
  6
CONTINUOUS
 10
109.6640895171
 20
102.8284738032
 11
109.8640895358
 21
102.8284738032
  0
POLYLINE
  8
0
 62
7
  6
CONTINUOUS
 66
1
 70
0
  0
VERTEX
  8
0
 62
7
  6
CONTINUOUS
 10
109.8640895359
 20
102.8284741652
  0
VERTEX
  8
0
 62
7
  6
CONTINUOUS
 10
109.9102038208
 20
102.8280392465
  0
VERTEX
  8
0
 62
7
  6
CONTINUOUS
 10
109.9712613432
 20
102.8261245884
  0
VERTEX
  8
0
 62
7
  6
CONTINUOUS
 10
110.0313982946
 20
102.8227548982
  0
VERTEX
  8
0
 62
7
  6
CONTINUOUS
 10
110.0903500953
 20
102.8180300636
  0
VERTEX
  8
0
 62
7
  6
CONTINUOUS
 10
110.1478719258
 20
102.8120761867
  0
VERTEX
  8
0
 62
7
  6
CONTINUOUS
 10
110.2037461912
 20
102.8050352251
  0
VERTEX
  8
0
 62
7
  6
CONTINUOUS
 10
110.2577848883
 20
102.7970627939
  0
VERTEX
  8
0
 62
7
  6
CONTINUOUS
 10
110.3098508826
 20
102.788314476
  0
VERTEX
  8
0
 62
7
  6
CONTINUOUS
 10
110.3598716656
 20
102.77893902
  0
VERTEX
  8
0
 62
7
  6
CONTINUOUS
 10
110.4077850226
 20
102.7690812506
  0
VERTEX
  8
0
 62
7
  6
CONTINUOUS
 10
110.4535468531
 20
102.7588768175
  0
VERTEX
  8
0
 62
7
  6
CONTINUOUS
 10
110.4971317781
 20
102.7484537387
  0
VERTEX
  8
0
 62
7
  6
CONTINUOUS
 10
110.538507627
 20
102.7379340934
  0
VERTEX
  8
0
 62
7
  6
CONTINUOUS
 10
110.5776645372
 20
102.7274259713
  0
VERTEX
  8
0
 62
7
  6
CONTINUOUS
 10
110.6146086681
 20
102.7170279832
  0
VERTEX
  8
0
 62
7
  6
CONTINUOUS
 10
110.6494928242
 20
102.706785827
  0
VERTEX
  8
0
 62
7
  6
CONTINUOUS
 10
110.6826416683
 20
102.6966761983
  0
VERTEX
  8
0
 62
7
  6
CONTINUOUS
 10
110.7142189506
 20
102.6867091303
  0
VERTEX
  8
0
 62
7
  6
CONTINUOUS
 10
110.7443443163
 20
102.6768993912
  0
VERTEX
  8
0
 62
7
  6
CONTINUOUS
 10
110.7731256413
 20
102.6672564964
  0
VERTEX
  8
0
 62
7
  6
CONTINUOUS
 10
110.8006678082
 20
102.6577833478
  0
VERTEX
  8
0
 62
7
  6
CONTINUOUS
 10
110.8270915472
 20
102.648471943
  0
VERTEX
  8
0
 62
7
  6
CONTINUOUS
 10
110.8524920141
 20
102.639318525
  0
VERTEX
  8
0
 62
7
  6
CONTINUOUS
 10
110.8769533967
 20
102.6303181781
  0
VERTEX
  8
0
 62
7
  6
CONTINUOUS
 10
110.9005541754
 20
102.6214637346
  0
VERTEX
  8
0
 62
7
  6
CONTINUOUS
 10
110.923375311
 20
102.6127434311
  0
VERTEX
  8
0
 62
7
  6
CONTINUOUS
 10
110.9455024268
 20
102.6041413385
  0
VERTEX
  8
0
 62
7
  6
CONTINUOUS
 10
110.966974118
 20
102.5956574435
  0
VERTEX
  8
0
 62
7
  6
CONTINUOUS
 10
110.9877921166
 20
102.5873046846
  0
VERTEX
  8
0
 62
7
  6
CONTINUOUS
 10
111.0079559298
 20
102.5790959757
  0
VERTEX
  8
0
 62
7
  6
CONTINUOUS
 10
111.0274691357
 20
102.5710417679
  0
VERTEX
  8
0
 62
7
  6
CONTINUOUS
 10
111.0463449398
 20
102.5631481409
  0
SEQEND
  0
POLYLINE
  8
SURFACE
 62
7
  6
CONTINUOUS
 66
1
 70
0
  0
VERTEX
  8
SURFACE
 62
7
  6
CONTINUOUS
 10
68.7980036791
 20
110.8266125181
  0
VERTEX
  8
SURFACE
 62
7
  6
CONTINUOUS
 10
68.7355727925
 20
111.0611971326
  0
VERTEX
  8
SURFACE
 62
7
  6
CONTINUOUS
 10
68.7103673726
 20
111.1589992703
  0
VERTEX
  8
SURFACE
 62
7
  6
CONTINUOUS
 10
68.6901040543
 20
111.2434532871
  0
VERTEX
  8
SURFACE
 62
7
  6
CONTINUOUS
 10
68.6752399308
 20
111.3147090308
  0
VERTEX
  8
SURFACE
 62
7
  6
CONTINUOUS
 10
68.6661582176
 20
111.372756671
  0
VERTEX
  8
SURFACE
 62
7
  6
CONTINUOUS
 10
68.6630895171
 20
111.4178648998
  0
SEQEND
  0
LINE
  8
SURFACE
 62
7
  6
CONTINUOUS
 10
68.8334603856
 20
110.6907322246
 11
68.7980036791
 21
110.8266125181
  0
POLYLINE
  8
0
 62
7
  6
CONTINUOUS
 66
1
 70
0
  0
VERTEX
  8
0
 62
7
  6
CONTINUOUS
 10
87.2780298633
 20
106.1774440518
  0
VERTEX
  8
0
 62
7
  6
CONTINUOUS
 10
87.3356716211
 20
106.1865342662
  0
VERTEX
  8
0
 62
7
  6
CONTINUOUS
 10
87.3928688077
 20
106.2137187107
  0
VERTEX
  8
0
 62
7
  6
CONTINUOUS
 10
87.4491831662
 20
106.2587409851
  0
VERTEX
  8
0
 62
7
  6
CONTINUOUS
 10
87.5041888677
 20
106.3211810321
  0
VERTEX
  8
0
 62
7
  6
CONTINUOUS
 10
87.5574780123
 20
106.4004655498
  0
VERTEX
  8
0
 62
7
  6
CONTINUOUS
 10
87.6086650962
 20
106.4958810127
  0
VERTEX
  8
0
 62
7
  6
CONTINUOUS
 10
87.6573913265
 20
106.6065902228
  0
VERTEX
  8
0
 62
7
  6
CONTINUOUS
 10
87.7033275208
 20
106.7316502001
  0
VERTEX
  8
0
 62
7
  6
CONTINUOUS
 10
87.7461756232
 20
106.8700295377
  0
VERTEX
  8
0
 62
7
  6
CONTINUOUS
 10
87.7856696388
 20
107.0206259859
  0
VERTEX
  8
0
 62
7
  6
CONTINUOUS
 10
87.8215759787
 20
107.182284353
  0
VERTEX
  8
0
 62
7
  6
CONTINUOUS
 10
87.8536927476
 20
107.3538123757
  0
VERTEX
  8
0
 62
7
  6
CONTINUOUS
 10
87.8818478669
 20
107.5339909582
  0
VERTEX
  8
0
 62
7
  6
CONTINUOUS
 10
87.9058977982
 20
107.7215864192
  0
VERTEX
  8
0
 62
7
  6
CONTINUOUS
 10
87.9257256224
 20
107.9153588966
  0
VERTEX
  8
0
 62
7
  6
CONTINUOUS
 10
87.9412390581
 20
108.1140685965
  0
VERTEX
  8
0
 62
7
  6
CONTINUOUS
 10
87.9523683441
 20
108.316475802
  0
VERTEX
  8
0
 62
7
  6
CONTINUOUS
 10
87.9590649554
 20
108.5213450004
  0
VERTEX
  8
0
 62
7
  6
CONTINUOUS
 10
87.961300304
 20
108.7274440518
  0
SEQEND
  0
LINE
  8
SURFACE
 62
7
  6
CONTINUOUS
 10
43.0241491709
 20
106.1774440518
 11
43.2630895171
 21
106.1774440518
  0
LINE
  8
SURFACE
 62
7
  6
CONTINUOUS
 10
48.9630895171
 20
106.1774440518
 11
49.2020298633
 21
106.1774440518
  0
LINE
  8
SURFACE
 62
7
  6
CONTINUOUS
 10
55.7241491709
 20
106.1774440518
 11
55.9630895171
 21
106.1774440518
  0
LINE
  8
SURFACE
 62
7
  6
CONTINUOUS
 10
61.6630895171
 20
106.1774440518
 11
61.9020298633
 21
106.1774440518
  0
LINE
  8
SURFACE
 62
7
  6
CONTINUOUS
 10
68.4241491709
 20
106.1774440518
 11
68.6630895171
 21
106.1774440518
  0
LINE
  8
SURFACE
 62
7
  6
CONTINUOUS
 10
74.3630895171
 20
106.1774440518
 11
74.6020298633
 21
106.1774440518
  0
LINE
  8
0
 62
7
  6
CONTINUOUS
 10
81.1001491709
 20
106.1774440518
 11
81.3390895171
 21
106.1774440518
  0
LINE
  8
0
 62
7
  6
CONTINUOUS
 10
87.0390895171
 20
106.1774440518
 11
87.2780298633
 21
106.1774440518
  0
LINE
  8
0
 62
7
  6
CONTINUOUS
 10
93.8001491709
 20
106.1774440518
 11
94.0390895171
 21
106.1774440518
  0
LINE
  8
0
 62
7
  6
CONTINUOUS
 10
99.7390895171
 20
106.1774440518
 11
99.9780298633
 21
106.1774440518
  0
LINE
  8
0
 62
7
  6
CONTINUOUS
 10
106.5001491709
 20
106.1774440518
 11
106.7390895171
 21
106.1774440518
  0
POLYLINE
  8
0
 62
7
  6
CONTINUOUS
 66
1
 70
0
  0
VERTEX
  8
0
 62
7
  6
CONTINUOUS
 10
111.7153404211
 20
102.3274674825
  0
VERTEX
  8
0
 62
7
  6
CONTINUOUS
 10
111.6196091743
 20
102.333602152
  0
VERTEX
  8
0
 62
7
  6
CONTINUOUS
 10
111.5254440238
 20
102.351905873
  0
VERTEX
  8
0
 62
7
  6
CONTINUOUS
 10
111.4343854456
 20
102.3820792093
  0
SEQEND
  0
LINE
  8
SURFACE
 62
7
  6
CONTINUOUS
 10
74.0030361359
 20
108.7274440518
 11
74.0030361359
 21
108.9274440518
  0
LINE
  8
SURFACE
 62
7
  6
CONTINUOUS
 10
74.3630895171
 20
114.5357812235
 11
74.3630895171
 21
111.4178648998
  0
LINE
  8
SURFACE
 62
7
  6
CONTINUOUS
 10
74.3630895171
 20
106.2370232039
 11
74.3630895171
 21
103.1191068802
  0
LINE
  8
0
 62
7
  6
CONTINUOUS
 10
74.3630895171
 20
103.0774440518
 11
74.3630895171
 21
106.2370232039
  0
LINE
  8
0
 62
7
  6
CONTINUOUS
 10
74.3630895171
 20
111.4178648998
 11
74.3630895171
 21
114.5774440518
  0
LINE
  8
CURVE
 62
40
  6
CONTINUOUS
 10
74.6760895171
 20
111.4774440518
 11
74.6760895171
 21
106.1774440518
  0
POLYLINE
  8
SURFACE
 62
7
  6
CONTINUOUS
 66
1
 70
0
  0
VERTEX
  8
SURFACE
 62
7
  6
CONTINUOUS
 10
74.0030361359
 20
108.9274440518
  0
VERTEX
  8
SURFACE
 62
7
  6
CONTINUOUS
 10
74.0049975908
 20
109.1205235337
  0
VERTEX
  8
SURFACE
 62
7
  6
CONTINUOUS
 10
74.0108741597
 20
109.3125791347
  0
VERTEX
  8
SURFACE
 62
7
  6
CONTINUOUS
 10
74.0206437391
 20
109.5026096523
  0
VERTEX
  8
SURFACE
 62
7
  6
CONTINUOUS
 10
74.0342688379
 20
109.6895986619
  0
VERTEX
  8
SURFACE
 62
7
  6
CONTINUOUS
 10
74.0516960027
 20
109.8725295652
  0
VERTEX
  8
SURFACE
 62
7
  6
CONTINUOUS
 10
74.0728547833
 20
110.0503845427
  0
VERTEX
  8
SURFACE
 62
7
  6
CONTINUOUS
 10
74.0976563234
 20
110.2221450009
  0
VERTEX
  8
SURFACE
 62
7
  6
CONTINUOUS
 10
74.1259920571
 20
110.3867958649
  0
VERTEX
  8
SURFACE
 62
7
  6
CONTINUOUS
 10
74.1577322921
 20
110.5433303461
  0
VERTEX
  8
SURFACE
 62
7
  6
CONTINUOUS
 10
74.1927186485
 20
110.6907322246
  0
SEQEND
  0
POLYLINE
  8
SURFACE
 62
7
  6
CONTINUOUS
 66
1
 70
0
  0
VERTEX
  8
SURFACE
 62
7
  6
CONTINUOUS
 10
74.3630895171
 20
111.4178648998
  0
VERTEX
  8
SURFACE
 62
7
  6
CONTINUOUS
 10
74.3600214838
 20
111.3727623007
  0
VERTEX
  8
SURFACE
 62
7
  6
CONTINUOUS
 10
74.3509401073
 20
111.3147144282
  0
VERTEX
  8
SURFACE
 62
7
  6
CONTINUOUS
 10
74.3360741477
 20
111.2434496138
  0
VERTEX
  8
SURFACE
 62
7
  6
CONTINUOUS
 10
74.3158087425
 20
111.1589876161
  0
VERTEX
  8
SURFACE
 62
7
  6
CONTINUOUS
 10
74.290602531
 20
111.0611830277
  0
SEQEND
  0
POLYLINE
  8
SURFACE
 62
7
  6
CONTINUOUS
 66
1
 70
0
  0
VERTEX
  8
SURFACE
 62
7
  6
CONTINUOUS
 10
74.290602531
 20
111.0611830277
  0
VERTEX
  8
SURFACE
 62
7
  6
CONTINUOUS
 10
74.2281696869
 20
110.826591101
  0
VERTEX
  8
SURFACE
 62
7
  6
CONTINUOUS
 10
74.1927186485
 20
110.6907322246
  0
SEQEND
  0
LINE
  8
DEFAULT_1
 62
7
  6
CENTER
 10
41.2630895171
 20
108.9274440518
 11
114.6890895171
 21
108.9274440518
  0
POLYLINE
  8
0
 62
7
  6
CONTINUOUS
 66
1
 70
0
  0
VERTEX
  8
0
 62
7
  6
CONTINUOUS
 10
81.1001491709
 20
106.1774440518
  0
VERTEX
  8
0
 62
7
  6
CONTINUOUS
 10
81.042507413
 20
106.1865342662
  0
VERTEX
  8
0
 62
7
  6
CONTINUOUS
 10
80.9853102265
 20
106.2137187107
  0
VERTEX
  8
0
 62
7
  6
CONTINUOUS
 10
80.9289958679
 20
106.2587409851
  0
VERTEX
  8
0
 62
7
  6
CONTINUOUS
 10
80.8739901665
 20
106.3211810321
  0
VERTEX
  8
0
 62
7
  6
CONTINUOUS
 10
80.8207010219
 20
106.4004655498
  0
VERTEX
  8
0
 62
7
  6
CONTINUOUS
 10
80.769513938
 20
106.4958810127
  0
VERTEX
  8
0
 62
7
  6
CONTINUOUS
 10
80.7207877077
 20
106.6065902228
  0
VERTEX
  8
0
 62
7
  6
CONTINUOUS
 10
80.6748515134
 20
106.7316502001
  0
VERTEX
  8
0
 62
7
  6
CONTINUOUS
 10
80.632003411
 20
106.8700295377
  0
VERTEX
  8
0
 62
7
  6
CONTINUOUS
 10
80.5925093953
 20
107.0206259859
  0
VERTEX
  8
0
 62
7
  6
CONTINUOUS
 10
80.5566030555
 20
107.182284353
  0
VERTEX
  8
0
 62
7
  6
CONTINUOUS
 10
80.5244862866
 20
107.3538123757
  0
VERTEX
  8
0
 62
7
  6
CONTINUOUS
 10
80.4963311672
 20
107.5339909582
  0
VERTEX
  8
0
 62
7
  6
CONTINUOUS
 10
80.4722812359
 20
107.7215864192
  0
VERTEX
  8
0
 62
7
  6
CONTINUOUS
 10
80.4524534118
 20
107.9153588966
  0
VERTEX
  8
0
 62
7
  6
CONTINUOUS
 10
80.4369399761
 20
108.1140685965
  0
VERTEX
  8
0
 62
7
  6
CONTINUOUS
 10
80.42581069
 20
108.316475802
  0
VERTEX
  8
0
 62
7
  6
CONTINUOUS
 10
80.4191140787
 20
108.5213450004
  0
VERTEX
  8
0
 62
7
  6
CONTINUOUS
 10
80.4168787302
 20
108.7274440518
  0
SEQEND
  0
POLYLINE
  8
SURFACE
 62
7
  6
CONTINUOUS
 66
1
 70
0
  0
VERTEX
  8
SURFACE
 62
7
  6
CONTINUOUS
 10
49.2020298633
 20
111.4774440518
  0
VERTEX
  8
SURFACE
 62
7
  6
CONTINUOUS
 10
49.2596716211
 20
111.4683538374
  0
VERTEX
  8
SURFACE
 62
7
  6
CONTINUOUS
 10
49.3168688077
 20
111.4411693929
  0
VERTEX
  8
SURFACE
 62
7
  6
CONTINUOUS
 10
49.3731831662
 20
111.3961471186
  0
VERTEX
  8
SURFACE
 62
7
  6
CONTINUOUS
 10
49.4281888677
 20
111.3337070716
  0
VERTEX
  8
SURFACE
 62
7
  6
CONTINUOUS
 10
49.4814780123
 20
111.2544225539
  0
VERTEX
  8
SURFACE
 62
7
  6
CONTINUOUS
 10
49.5326650962
 20
111.1590070909
  0
VERTEX
  8
SURFACE
 62
7
  6
CONTINUOUS
 10
49.5813913265
 20
111.0482978808
  0
VERTEX
  8
SURFACE
 62
7
  6
CONTINUOUS
 10
49.6273275208
 20
110.9232379035
  0
VERTEX
  8
SURFACE
 62
7
  6
CONTINUOUS
 10
49.6701756232
 20
110.784858566
  0
VERTEX
  8
SURFACE
 62
7
  6
CONTINUOUS
 10
49.7096696388
 20
110.6342621178
  0
VERTEX
  8
SURFACE
 62
7
  6
CONTINUOUS
 10
49.7455759787
 20
110.4726037506
  0
VERTEX
  8
SURFACE
 62
7
  6
CONTINUOUS
 10
49.7776927476
 20
110.301075728
  0
VERTEX
  8
SURFACE
 62
7
  6
CONTINUOUS
 10
49.8058478669
 20
110.1208971455
  0
VERTEX
  8
SURFACE
 62
7
  6
CONTINUOUS
 10
49.8298977982
 20
109.9333016845
  0
VERTEX
  8
SURFACE
 62
7
  6
CONTINUOUS
 10
49.8497256224
 20
109.739529207
  0
VERTEX
  8
SURFACE
 62
7
  6
CONTINUOUS
 10
49.8652390581
 20
109.5408195071
  0
VERTEX
  8
SURFACE
 62
7
  6
CONTINUOUS
 10
49.8763683441
 20
109.3384123017
  0
VERTEX
  8
SURFACE
 62
7
  6
CONTINUOUS
 10
49.8830649554
 20
109.1335431032
  0
VERTEX
  8
SURFACE
 62
7
  6
CONTINUOUS
 10
49.885300304
 20
108.9274440518
  0
SEQEND
  0
POLYLINE
  8
SURFACE
 62
7
  6
CONTINUOUS
 66
1
 70
0
  0
VERTEX
  8
SURFACE
 62
7
  6
CONTINUOUS
 10
74.2281693223
 20
106.8282983802
  0
VERTEX
  8
SURFACE
 62
7
  6
CONTINUOUS
 10
74.2906021167
 20
106.5937066504
  0
VERTEX
  8
SURFACE
 62
7
  6
CONTINUOUS
 10
74.315808171
 20
106.4959027691
  0
VERTEX
  8
SURFACE
 62
7
  6
CONTINUOUS
 10
74.336073808
 20
106.4114399893
  0
VERTEX
  8
SURFACE
 62
7
  6
CONTINUOUS
 10
74.350940103
 20
106.3401736984
  0
VERTEX
  8
SURFACE
 62
7
  6
CONTINUOUS
 10
74.3600215513
 20
106.2821252337
  0
VERTEX
  8
SURFACE
 62
7
  6
CONTINUOUS
 10
74.3630895171
 20
106.2370232039
  0
SEQEND
  0
LINE
  8
SURFACE
 62
7
  6
CONTINUOUS
 10
74.1927186485
 20
106.9641558791
 11
74.2281693223
 21
106.8282983802
  0
POLYLINE
  8
SURFACE
 62
7
  6
CONTINUOUS
 66
1
 70
0
  0
VERTEX
  8
SURFACE
 62
7
  6
CONTINUOUS
 10
74.1927186485
 20
106.9641558791
  0
VERTEX
  8
SURFACE
 62
7
  6
CONTINUOUS
 10
74.1577322879
 20
107.1115577768
  0
VERTEX
  8
SURFACE
 62
7
  6
CONTINUOUS
 10
74.1259920098
 20
107.2680924913
  0
VERTEX
  8
SURFACE
 62
7
  6
CONTINUOUS
 10
74.0976562293
 20
107.4327436988
  0
VERTEX
  8
SURFACE
 62
7
  6
CONTINUOUS
 10
74.0728546627
 20
107.6045044788
  0
VERTEX
  8
SURFACE
 62
7
  6
CONTINUOUS
 10
74.0516958816
 20
107.7823596705
  0
VERTEX
  8
SURFACE
 62
7
  6
CONTINUOUS
 10
74.0342687352
 20
107.9652906649
  0
VERTEX
  8
SURFACE
 62
7
  6
CONTINUOUS
 10
74.0206436658
 20
108.1522796337
  0
VERTEX
  8
SURFACE
 62
7
  6
CONTINUOUS
 10
74.0108741195
 20
108.3423099518
  0
VERTEX
  8
SURFACE
 62
7
  6
CONTINUOUS
 10
74.0049975787
 20
108.5343651634
  0
VERTEX
  8
SURFACE
 62
7
  6
CONTINUOUS
 10
74.0030361359
 20
108.7274440518
  0
SEQEND
  0
LINE
  8
SURFACE
 62
7
  6
CONTINUOUS
 10
75.285300304
 20
108.9274440518
 11
75.285300304
 21
108.7274440518
  0
POLYLINE
  8
SURFACE
 62
7
  6
CONTINUOUS
 66
1
 70
0
  0
VERTEX
  8
SURFACE
 62
7
  6
CONTINUOUS
 10
75.285300304
 20
108.7274440518
  0
VERTEX
  8
SURFACE
 62
7
  6
CONTINUOUS
 10
75.2830649276
 20
108.5213437208
  0
VERTEX
  8
SURFACE
 62
7
  6
CONTINUOUS
 10
75.2763682512
 20
108.3164736778
  0
VERTEX
  8
SURFACE
 62
7
  6
CONTINUOUS
 10
75.2652388879
 20
108.1140660335
  0
VERTEX
  8
SURFACE
 62
7
  6
CONTINUOUS
 10
75.2497253848
 20
107.915356257
  0
VERTEX
  8
SURFACE
 62
7
  6
CONTINUOUS
 10
75.2298975134
 20
107.7215839427
  0
VERTEX
  8
SURFACE
 62
7
  6
CONTINUOUS
 10
75.2058475685
 20
107.5339888553
  0
VERTEX
  8
SURFACE
 62
7
  6
CONTINUOUS
 10
75.1776924745
 20
107.3538107815
  0
VERTEX
  8
SURFACE
 62
7
  6
CONTINUOUS
 10
75.14557577
 20
107.1822833308
  0
VERTEX
  8
SURFACE
 62
7
  6
CONTINUOUS
 10
75.1096695235
 20
107.0206255079
  0
VERTEX
  8
SURFACE
 62
7
  6
CONTINUOUS
 10
75.0701756258
 20
106.8700295467
  0
VERTEX
  8
SURFACE
 62
7
  6
CONTINUOUS
 10
75.0273276512
 20
106.7316505871
  0
VERTEX
  8
SURFACE
 62
7
  6
CONTINUOUS
 10
74.9813915766
 20
106.606590846
  0
VERTEX
  8
SURFACE
 62
7
  6
CONTINUOUS
 10
74.9326654519
 20
106.4958817468
  0
VERTEX
  8
SURFACE
 62
7
  6
CONTINUOUS
 10
74.8814784429
 20
106.4004662701
  0
VERTEX
  8
SURFACE
 62
7
  6
CONTINUOUS
 10
74.8281893299
 20
106.3211816372
  0
VERTEX
  8
SURFACE
 62
7
  6
CONTINUOUS
 10
74.7731836095
 20
106.2587414131
  0
VERTEX
  8
SURFACE
 62
7
  6
CONTINUOUS
 10
74.7168691746
 20
106.2137189442
  0
VERTEX
  8
SURFACE
 62
7
  6
CONTINUOUS
 10
74.6596718433
 20
106.1865343364
  0
VERTEX
  8
SURFACE
 62
7
  6
CONTINUOUS
 10
74.6020298633
 20
106.1774440518
  0
SEQEND
  0
LINE
  8
SURFACE
 62
7
  6
CONTINUOUS
 10
43.0241491709
 20
111.4774440518
 11
43.2630895171
 21
111.4774440518
  0
LINE
  8
SURFACE
 62
7
  6
CONTINUOUS
 10
48.9630895171
 20
111.4774440518
 11
49.2020298633
 21
111.4774440518
  0
LINE
  8
SURFACE
 62
7
  6
CONTINUOUS
 10
55.7241491709
 20
111.4774440518
 11
55.9630895171
 21
111.4774440518
  0
LINE
  8
SURFACE
 62
7
  6
CONTINUOUS
 10
61.6630895171
 20
111.4774440518
 11
61.9020298633
 21
111.4774440518
  0
LINE
  8
SURFACE
 62
7
  6
CONTINUOUS
 10
68.4241491709
 20
111.4774440518
 11
68.6630895171
 21
111.4774440518
  0
LINE
  8
SURFACE
 62
7
  6
CONTINUOUS
 10
74.3630895171
 20
111.4774440518
 11
74.6020298633
 21
111.4774440518
  0
LINE
  8
0
 62
7
  6
CONTINUOUS
 10
81.1001491709
 20
111.4774440518
 11
81.3390895171
 21
111.4774440518
  0
LINE
  8
0
 62
7
  6
CONTINUOUS
 10
87.0390895171
 20
111.4774440518
 11
87.2780298633
 21
111.4774440518
  0
LINE
  8
0
 62
7
  6
CONTINUOUS
 10
93.8001491709
 20
111.4774440518
 11
94.0390895171
 21
111.4774440518
  0
LINE
  8
0
 62
7
  6
CONTINUOUS
 10
99.7390895171
 20
111.4774440518
 11
99.9780298633
 21
111.4774440518
  0
LINE
  8
0
 62
7
  6
CONTINUOUS
 10
106.5001491709
 20
111.4774440518
 11
106.7390895171
 21
111.4774440518
  0
POLYLINE
  8
0
 62
7
  6
CONTINUOUS
 66
1
 70
0
  0
VERTEX
  8
0
 62
7
  6
CONTINUOUS
 10
93.8001491709
 20
106.1774440518
  0
VERTEX
  8
0
 62
7
  6
CONTINUOUS
 10
93.742507413
 20
106.1865342662
  0
VERTEX
  8
0
 62
7
  6
CONTINUOUS
 10
93.6853102265
 20
106.2137187107
  0
VERTEX
  8
0
 62
7
  6
CONTINUOUS
 10
93.6289958679
 20
106.2587409851
  0
VERTEX
  8
0
 62
7
  6
CONTINUOUS
 10
93.5739901665
 20
106.3211810321
  0
VERTEX
  8
0
 62
7
  6
CONTINUOUS
 10
93.5207010219
 20
106.4004655498
  0
VERTEX
  8
0
 62
7
  6
CONTINUOUS
 10
93.469513938
 20
106.4958810127
  0
VERTEX
  8
0
 62
7
  6
CONTINUOUS
 10
93.4207877077
 20
106.6065902228
  0
VERTEX
  8
0
 62
7
  6
CONTINUOUS
 10
93.3748515134
 20
106.7316502001
  0
VERTEX
  8
0
 62
7
  6
CONTINUOUS
 10
93.332003411
 20
106.8700295377
  0
VERTEX
  8
0
 62
7
  6
CONTINUOUS
 10
93.2925093953
 20
107.0206259859
  0
VERTEX
  8
0
 62
7
  6
CONTINUOUS
 10
93.2566030555
 20
107.182284353
  0
VERTEX
  8
0
 62
7
  6
CONTINUOUS
 10
93.2244862866
 20
107.3538123757
  0
VERTEX
  8
0
 62
7
  6
CONTINUOUS
 10
93.1963311672
 20
107.5339909582
  0
VERTEX
  8
0
 62
7
  6
CONTINUOUS
 10
93.1722812359
 20
107.7215864192
  0
VERTEX
  8
0
 62
7
  6
CONTINUOUS
 10
93.1524534118
 20
107.9153588966
  0
VERTEX
  8
0
 62
7
  6
CONTINUOUS
 10
93.1369399761
 20
108.1140685965
  0
VERTEX
  8
0
 62
7
  6
CONTINUOUS
 10
93.12581069
 20
108.316475802
  0
VERTEX
  8
0
 62
7
  6
CONTINUOUS
 10
93.1191140787
 20
108.5213450004
  0
VERTEX
  8
0
 62
7
  6
CONTINUOUS
 10
93.1168787302
 20
108.7274440518
  0
SEQEND
  0
POLYLINE
  8
SURFACE
 62
7
  6
CONTINUOUS
 66
1
 70
0
  0
VERTEX
  8
SURFACE
 62
7
  6
CONTINUOUS
 10
61.9020298633
 20
111.4774440518
  0
VERTEX
  8
SURFACE
 62
7
  6
CONTINUOUS
 10
61.9596716211
 20
111.4683538374
  0
VERTEX
  8
SURFACE
 62
7
  6
CONTINUOUS
 10
62.0168688077
 20
111.4411693929
  0
VERTEX
  8
SURFACE
 62
7
  6
CONTINUOUS
 10
62.0731831662
 20
111.3961471186
  0
VERTEX
  8
SURFACE
 62
7
  6
CONTINUOUS
 10
62.1281888677
 20
111.3337070716
  0
VERTEX
  8
SURFACE
 62
7
  6
CONTINUOUS
 10
62.1814780123
 20
111.2544225539
  0
VERTEX
  8
SURFACE
 62
7
  6
CONTINUOUS
 10
62.2326650962
 20
111.1590070909
  0
VERTEX
  8
SURFACE
 62
7
  6
CONTINUOUS
 10
62.2813913265
 20
111.0482978808
  0
VERTEX
  8
SURFACE
 62
7
  6
CONTINUOUS
 10
62.3273275208
 20
110.9232379035
  0
VERTEX
  8
SURFACE
 62
7
  6
CONTINUOUS
 10
62.3701756232
 20
110.784858566
  0
VERTEX
  8
SURFACE
 62
7
  6
CONTINUOUS
 10
62.4096696388
 20
110.6342621178
  0
VERTEX
  8
SURFACE
 62
7
  6
CONTINUOUS
 10
62.4455759787
 20
110.4726037506
  0
VERTEX
  8
SURFACE
 62
7
  6
CONTINUOUS
 10
62.4776927476
 20
110.301075728
  0
VERTEX
  8
SURFACE
 62
7
  6
CONTINUOUS
 10
62.5058478669
 20
110.1208971455
  0
VERTEX
  8
SURFACE
 62
7
  6
CONTINUOUS
 10
62.5298977982
 20
109.9333016845
  0
VERTEX
  8
SURFACE
 62
7
  6
CONTINUOUS
 10
62.5497256224
 20
109.739529207
  0
VERTEX
  8
SURFACE
 62
7
  6
CONTINUOUS
 10
62.5652390581
 20
109.5408195071
  0
VERTEX
  8
SURFACE
 62
7
  6
CONTINUOUS
 10
62.5763683441
 20
109.3384123017
  0
VERTEX
  8
SURFACE
 62
7
  6
CONTINUOUS
 10
62.5830649554
 20
109.1335431032
  0
VERTEX
  8
SURFACE
 62
7
  6
CONTINUOUS
 10
62.585300304
 20
108.9274440518
  0
SEQEND
  0
POLYLINE
  8
0
 62
7
  6
CONTINUOUS
 66
1
 70
0
  0
VERTEX
  8
0
 62
7
  6
CONTINUOUS
 10
106.5001491709
 20
106.1774440518
  0
VERTEX
  8
0
 62
7
  6
CONTINUOUS
 10
106.442507413
 20
106.1865342662
  0
VERTEX
  8
0
 62
7
  6
CONTINUOUS
 10
106.3853102265
 20
106.2137187107
  0
VERTEX
  8
0
 62
7
  6
CONTINUOUS
 10
106.3289958679
 20
106.2587409851
  0
VERTEX
  8
0
 62
7
  6
CONTINUOUS
 10
106.2739901665
 20
106.3211810321
  0
VERTEX
  8
0
 62
7
  6
CONTINUOUS
 10
106.2207010219
 20
106.4004655498
  0
VERTEX
  8
0
 62
7
  6
CONTINUOUS
 10
106.169513938
 20
106.4958810127
  0
VERTEX
  8
0
 62
7
  6
CONTINUOUS
 10
106.1207877077
 20
106.6065902228
  0
VERTEX
  8
0
 62
7
  6
CONTINUOUS
 10
106.0748515134
 20
106.7316502001
  0
VERTEX
  8
0
 62
7
  6
CONTINUOUS
 10
106.032003411
 20
106.8700295377
  0
VERTEX
  8
0
 62
7
  6
CONTINUOUS
 10
105.9925093953
 20
107.0206259859
  0
VERTEX
  8
0
 62
7
  6
CONTINUOUS
 10
105.9566030555
 20
107.182284353
  0
VERTEX
  8
0
 62
7
  6
CONTINUOUS
 10
105.9244862866
 20
107.3538123757
  0
VERTEX
  8
0
 62
7
  6
CONTINUOUS
 10
105.8963311672
 20
107.5339909582
  0
VERTEX
  8
0
 62
7
  6
CONTINUOUS
 10
105.8722812359
 20
107.7215864192
  0
VERTEX
  8
0
 62
7
  6
CONTINUOUS
 10
105.8524534118
 20
107.9153588966
  0
VERTEX
  8
0
 62
7
  6
CONTINUOUS
 10
105.8369399761
 20
108.1140685965
  0
VERTEX
  8
0
 62
7
  6
CONTINUOUS
 10
105.82581069
 20
108.316475802
  0
VERTEX
  8
0
 62
7
  6
CONTINUOUS
 10
105.8191140787
 20
108.5213450004
  0
VERTEX
  8
0
 62
7
  6
CONTINUOUS
 10
105.8168787302
 20
108.7274440518
  0
SEQEND
  0
POLYLINE
  8
SURFACE
 62
7
  6
CONTINUOUS
 66
1
 70
0
  0
VERTEX
  8
SURFACE
 62
7
  6
CONTINUOUS
 10
74.6020298633
 20
111.4774440518
  0
VERTEX
  8
SURFACE
 62
7
  6
CONTINUOUS
 10
74.6596716211
 20
111.4683538374
  0
VERTEX
  8
SURFACE
 62
7
  6
CONTINUOUS
 10
74.7168688077
 20
111.4411693929
  0
VERTEX
  8
SURFACE
 62
7
  6
CONTINUOUS
 10
74.7731831662
 20
111.3961471186
  0
VERTEX
  8
SURFACE
 62
7
  6
CONTINUOUS
 10
74.8281888677
 20
111.3337070716
  0
VERTEX
  8
SURFACE
 62
7
  6
CONTINUOUS
 10
74.8814780123
 20
111.2544225539
  0
VERTEX
  8
SURFACE
 62
7
  6
CONTINUOUS
 10
74.9326650962
 20
111.1590070909
  0
VERTEX
  8
SURFACE
 62
7
  6
CONTINUOUS
 10
74.9813913265
 20
111.0482978808
  0
VERTEX
  8
SURFACE
 62
7
  6
CONTINUOUS
 10
75.0273275208
 20
110.9232379035
  0
VERTEX
  8
SURFACE
 62
7
  6
CONTINUOUS
 10
75.0701756232
 20
110.784858566
  0
VERTEX
  8
SURFACE
 62
7
  6
CONTINUOUS
 10
75.1096696388
 20
110.6342621178
  0
VERTEX
  8
SURFACE
 62
7
  6
CONTINUOUS
 10
75.1455759787
 20
110.4726037506
  0
VERTEX
  8
SURFACE
 62
7
  6
CONTINUOUS
 10
75.1776927476
 20
110.301075728
  0
VERTEX
  8
SURFACE
 62
7
  6
CONTINUOUS
 10
75.2058478669
 20
110.1208971455
  0
VERTEX
  8
SURFACE
 62
7
  6
CONTINUOUS
 10
75.2298977982
 20
109.9333016845
  0
VERTEX
  8
SURFACE
 62
7
  6
CONTINUOUS
 10
75.2497256224
 20
109.739529207
  0
VERTEX
  8
SURFACE
 62
7
  6
CONTINUOUS
 10
75.2652390581
 20
109.5408195071
  0
VERTEX
  8
SURFACE
 62
7
  6
CONTINUOUS
 10
75.2763683441
 20
109.3384123017
  0
VERTEX
  8
SURFACE
 62
7
  6
CONTINUOUS
 10
75.2830649554
 20
109.1335431032
  0
VERTEX
  8
SURFACE
 62
7
  6
CONTINUOUS
 10
75.285300304
 20
108.9274440518
  0
SEQEND
  0
POLYLINE
  8
SURFACE
 62
7
  6
CONTINUOUS
 66
1
 70
0
  0
VERTEX
  8
SURFACE
 62
7
  6
CONTINUOUS
 10
68.4241491709
 20
111.4774440518
  0
VERTEX
  8
SURFACE
 62
7
  6
CONTINUOUS
 10
68.366507413
 20
111.4683538374
  0
VERTEX
  8
SURFACE
 62
7
  6
CONTINUOUS
 10
68.3093102265
 20
111.4411693929
  0
VERTEX
  8
SURFACE
 62
7
  6
CONTINUOUS
 10
68.2529958679
 20
111.3961471186
  0
VERTEX
  8
SURFACE
 62
7
  6
CONTINUOUS
 10
68.1979901665
 20
111.3337070716
  0
VERTEX
  8
SURFACE
 62
7
  6
CONTINUOUS
 10
68.1447010219
 20
111.2544225539
  0
VERTEX
  8
SURFACE
 62
7
  6
CONTINUOUS
 10
68.093513938
 20
111.1590070909
  0
VERTEX
  8
SURFACE
 62
7
  6
CONTINUOUS
 10
68.0447877077
 20
111.0482978808
  0
VERTEX
  8
SURFACE
 62
7
  6
CONTINUOUS
 10
67.9988515134
 20
110.9232379035
  0
VERTEX
  8
SURFACE
 62
7
  6
CONTINUOUS
 10
67.956003411
 20
110.784858566
  0
VERTEX
  8
SURFACE
 62
7
  6
CONTINUOUS
 10
67.9165093953
 20
110.6342621178
  0
VERTEX
  8
SURFACE
 62
7
  6
CONTINUOUS
 10
67.8806030555
 20
110.4726037506
  0
VERTEX
  8
SURFACE
 62
7
  6
CONTINUOUS
 10
67.8484862866
 20
110.301075728
  0
VERTEX
  8
SURFACE
 62
7
  6
CONTINUOUS
 10
67.8203311672
 20
110.1208971455
  0
VERTEX
  8
SURFACE
 62
7
  6
CONTINUOUS
 10
67.7962812359
 20
109.9333016845
  0
VERTEX
  8
SURFACE
 62
7
  6
CONTINUOUS
 10
67.7764534118
 20
109.739529207
  0
VERTEX
  8
SURFACE
 62
7
  6
CONTINUOUS
 10
67.7609399761
 20
109.5408195071
  0
VERTEX
  8
SURFACE
 62
7
  6
CONTINUOUS
 10
67.74981069
 20
109.3384123017
  0
VERTEX
  8
SURFACE
 62
7
  6
CONTINUOUS
 10
67.7431140787
 20
109.1335431032
  0
VERTEX
  8
SURFACE
 62
7
  6
CONTINUOUS
 10
67.7408787302
 20
108.9274440518
  0
SEQEND
  0
POLYLINE
  8
0
 62
7
  6
CONTINUOUS
 66
1
 70
0
  0
VERTEX
  8
0
 62
7
  6
CONTINUOUS
 10
111.7153404211
 20
115.3274199158
  0
VERTEX
  8
0
 62
7
  6
CONTINUOUS
 10
111.6196091828
 20
115.3212852959
  0
VERTEX
  8
0
 62
7
  6
CONTINUOUS
 10
111.5254440352
 20
115.3029816295
  0
VERTEX
  8
0
 62
7
  6
CONTINUOUS
 10
111.4343854543
 20
115.2728083515
  0
SEQEND
  0
LINE
  8
0
 62
7
  6
CONTINUOUS
 10
80.4168787302
 20
108.7274440518
 11
80.4168787302
 21
108.9274440518
  0
LINE
  8
0
 62
7
  6
CONTINUOUS
 10
81.3390895171
 20
103.0774440518
 11
81.3390895171
 21
106.2370232039
  0
LINE
  8
0
 62
7
  6
CONTINUOUS
 10
81.3390895171
 20
111.4178648998
 11
81.3390895171
 21
114.5774440518
  0
LINE
  8
0
 62
7
  6
CONTINUOUS
 10
81.6991428983
 20
108.9274440518
 11
81.6991428983
 21
108.7274440518
  0
POLYLINE
  8
0
 62
7
  6
CONTINUOUS
 66
1
 70
0
  0
VERTEX
  8
0
 62
7
  6
CONTINUOUS
 10
81.6991428983
 20
108.7274440518
  0
VERTEX
  8
0
 62
7
  6
CONTINUOUS
 10
81.6971814433
 20
108.53436457
  0
VERTEX
  8
0
 62
7
  6
CONTINUOUS
 10
81.6913048745
 20
108.342308969
  0
VERTEX
  8
0
 62
7
  6
CONTINUOUS
 10
81.681535295
 20
108.1522784514
  0
VERTEX
  8
0
 62
7
  6
CONTINUOUS
 10
81.6679101963
 20
107.9652894418
  0
VERTEX
  8
0
 62
7
  6
CONTINUOUS
 10
81.6504830315
 20
107.7823585385
  0
VERTEX
  8
0
 62
7
  6
CONTINUOUS
 10
81.6293242508
 20
107.604503561
  0
VERTEX
  8
0
 62
7
  6
CONTINUOUS
 10
81.6045227108
 20
107.4327431027
  0
VERTEX
  8
0
 62
7
  6
CONTINUOUS
 10
81.5761869771
 20
107.2680922388
  0
VERTEX
  8
0
 62
7
  6
CONTINUOUS
 10
81.5444467421
 20
107.1115577576
  0
VERTEX
  8
0
 62
7
  6
CONTINUOUS
 10
81.5094603856
 20
106.9641558791
  0
SEQEND
  0
POLYLINE
  8
0
 62
7
  6
CONTINUOUS
 66
1
 70
0
  0
VERTEX
  8
0
 62
7
  6
CONTINUOUS
 10
80.4168787302
 20
108.9274440518
  0
VERTEX
  8
0
 62
7
  6
CONTINUOUS
 10
80.4191141065
 20
109.1335443828
  0
VERTEX
  8
0
 62
7
  6
CONTINUOUS
 10
80.425810783
 20
109.3384144258
  0
VERTEX
  8
0
 62
7
  6
CONTINUOUS
 10
80.4369401463
 20
109.5408220702
  0
VERTEX
  8
0
 62
7
  6
CONTINUOUS
 10
80.4524536494
 20
109.7395318467
  0
VERTEX
  8
0
 62
7
  6
CONTINUOUS
 10
80.4722815208
 20
109.933304161
  0
VERTEX
  8
0
 62
7
  6
CONTINUOUS
 10
80.4963314656
 20
110.1208992483
  0
VERTEX
  8
0
 62
7
  6
CONTINUOUS
 10
80.5244865597
 20
110.3010773221
  0
VERTEX
  8
0
 62
7
  6
CONTINUOUS
 10
80.5566032641
 20
110.4726047729
  0
VERTEX
  8
0
 62
7
  6
CONTINUOUS
 10
80.5925095107
 20
110.6342625957
  0
VERTEX
  8
0
 62
7
  6
CONTINUOUS
 10
80.6320034084
 20
110.7848585569
  0
VERTEX
  8
0
 62
7
  6
CONTINUOUS
 10
80.674851383
 20
110.9232375165
  0
VERTEX
  8
0
 62
7
  6
CONTINUOUS
 10
80.7207874575
 20
111.0482972576
  0
VERTEX
  8
0
 62
7
  6
CONTINUOUS
 10
80.7695135823
 20
111.1590063568
  0
VERTEX
  8
0
 62
7
  6
CONTINUOUS
 10
80.8207005912
 20
111.2544218336
  0
VERTEX
  8
0
 62
7
  6
CONTINUOUS
 10
80.8739897043
 20
111.3337064665
  0
VERTEX
  8
0
 62
7
  6
CONTINUOUS
 10
80.9289954247
 20
111.3961466906
  0
VERTEX
  8
0
 62
7
  6
CONTINUOUS
 10
80.9853098596
 20
111.4411691595
  0
VERTEX
  8
0
 62
7
  6
CONTINUOUS
 10
81.0425071908
 20
111.4683537672
  0
VERTEX
  8
0
 62
7
  6
CONTINUOUS
 10
81.1001491709
 20
111.4774440518
  0
SEQEND
  0
POLYLINE
  8
0
 62
7
  6
CONTINUOUS
 66
1
 70
0
  0
VERTEX
  8
0
 62
7
  6
CONTINUOUS
 10
81.3390895171
 20
106.2370232039
  0
VERTEX
  8
0
 62
7
  6
CONTINUOUS
 10
81.3421582176
 20
106.2821314327
  0
VERTEX
  8
0
 62
7
  6
CONTINUOUS
 10
81.3512399308
 20
106.3401790728
  0
VERTEX
  8
0
 62
7
  6
CONTINUOUS
 10
81.3661040543
 20
106.4114348165
  0
VERTEX
  8
0
 62
7
  6
CONTINUOUS
 10
81.3863673726
 20
106.4958888333
  0
VERTEX
  8
0
 62
7
  6
CONTINUOUS
 10
81.4115727925
 20
106.5936909711
  0
SEQEND
  0
POLYLINE
  8
0
 62
7
  6
CONTINUOUS
 66
1
 70
0
  0
VERTEX
  8
0
 62
7
  6
CONTINUOUS
 10
81.4115727925
 20
106.5936909711
  0
VERTEX
  8
0
 62
7
  6
CONTINUOUS
 10
81.4740036791
 20
106.8282755856
  0
VERTEX
  8
0
 62
7
  6
CONTINUOUS
 10
81.5094603856
 20
106.9641558791
  0
SEQEND
  0
POLYLINE
  8
SURFACE
 62
7
  6
CONTINUOUS
 66
1
 70
0
  0
VERTEX
  8
SURFACE
 62
7
  6
CONTINUOUS
 10
55.7241491709
 20
111.4774440518
  0
VERTEX
  8
SURFACE
 62
7
  6
CONTINUOUS
 10
55.666507413
 20
111.4683538374
  0
VERTEX
  8
SURFACE
 62
7
  6
CONTINUOUS
 10
55.6093102265
 20
111.4411693929
  0
VERTEX
  8
SURFACE
 62
7
  6
CONTINUOUS
 10
55.5529958679
 20
111.3961471186
  0
VERTEX
  8
SURFACE
 62
7
  6
CONTINUOUS
 10
55.4979901665
 20
111.3337070716
  0
VERTEX
  8
SURFACE
 62
7
  6
CONTINUOUS
 10
55.4447010219
 20
111.2544225539
  0
VERTEX
  8
SURFACE
 62
7
  6
CONTINUOUS
 10
55.393513938
 20
111.1590070909
  0
VERTEX
  8
SURFACE
 62
7
  6
CONTINUOUS
 10
55.3447877077
 20
111.0482978808
  0
VERTEX
  8
SURFACE
 62
7
  6
CONTINUOUS
 10
55.2988515134
 20
110.9232379035
  0
VERTEX
  8
SURFACE
 62
7
  6
CONTINUOUS
 10
55.256003411
 20
110.784858566
  0
VERTEX
  8
SURFACE
 62
7
  6
CONTINUOUS
 10
55.2165093953
 20
110.6342621178
  0
VERTEX
  8
SURFACE
 62
7
  6
CONTINUOUS
 10
55.1806030555
 20
110.4726037506
  0
VERTEX
  8
SURFACE
 62
7
  6
CONTINUOUS
 10
55.1484862866
 20
110.301075728
  0
VERTEX
  8
SURFACE
 62
7
  6
CONTINUOUS
 10
55.1203311672
 20
110.1208971455
  0
VERTEX
  8
SURFACE
 62
7
  6
CONTINUOUS
 10
55.0962812359
 20
109.9333016845
  0
VERTEX
  8
SURFACE
 62
7
  6
CONTINUOUS
 10
55.0764534118
 20
109.739529207
  0
VERTEX
  8
SURFACE
 62
7
  6
CONTINUOUS
 10
55.0609399761
 20
109.5408195071
  0
VERTEX
  8
SURFACE
 62
7
  6
CONTINUOUS
 10
55.04981069
 20
109.3384123017
  0
VERTEX
  8
SURFACE
 62
7
  6
CONTINUOUS
 10
55.0431140787
 20
109.1335431032
  0
VERTEX
  8
SURFACE
 62
7
  6
CONTINUOUS
 10
55.0408787302
 20
108.9274440518
  0
SEQEND
  0
POLYLINE
  8
SURFACE
 62
7
  6
CONTINUOUS
 66
1
 70
0
  0
VERTEX
  8
SURFACE
 62
7
  6
CONTINUOUS
 10
43.0241491709
 20
111.4774440518
  0
VERTEX
  8
SURFACE
 62
7
  6
CONTINUOUS
 10
42.966507413
 20
111.4683538374
  0
VERTEX
  8
SURFACE
 62
7
  6
CONTINUOUS
 10
42.9093102265
 20
111.4411693929
  0
VERTEX
  8
SURFACE
 62
7
  6
CONTINUOUS
 10
42.8529958679
 20
111.3961471186
  0
VERTEX
  8
SURFACE
 62
7
  6
CONTINUOUS
 10
42.7979901665
 20
111.3337070716
  0
VERTEX
  8
SURFACE
 62
7
  6
CONTINUOUS
 10
42.7447010219
 20
111.2544225539
  0
VERTEX
  8
SURFACE
 62
7
  6
CONTINUOUS
 10
42.693513938
 20
111.1590070909
  0
VERTEX
  8
SURFACE
 62
7
  6
CONTINUOUS
 10
42.6447877077
 20
111.0482978808
  0
VERTEX
  8
SURFACE
 62
7
  6
CONTINUOUS
 10
42.5988515134
 20
110.9232379035
  0
VERTEX
  8
SURFACE
 62
7
  6
CONTINUOUS
 10
42.556003411
 20
110.784858566
  0
VERTEX
  8
SURFACE
 62
7
  6
CONTINUOUS
 10
42.5165093953
 20
110.6342621178
  0
VERTEX
  8
SURFACE
 62
7
  6
CONTINUOUS
 10
42.4806030555
 20
110.4726037506
  0
VERTEX
  8
SURFACE
 62
7
  6
CONTINUOUS
 10
42.4484862866
 20
110.301075728
  0
VERTEX
  8
SURFACE
 62
7
  6
CONTINUOUS
 10
42.4203311672
 20
110.1208971455
  0
VERTEX
  8
SURFACE
 62
7
  6
CONTINUOUS
 10
42.3962812359
 20
109.9333016845
  0
VERTEX
  8
SURFACE
 62
7
  6
CONTINUOUS
 10
42.3764534118
 20
109.739529207
  0
VERTEX
  8
SURFACE
 62
7
  6
CONTINUOUS
 10
42.3609399761
 20
109.5408195071
  0
VERTEX
  8
SURFACE
 62
7
  6
CONTINUOUS
 10
42.34981069
 20
109.3384123017
  0
VERTEX
  8
SURFACE
 62
7
  6
CONTINUOUS
 10
42.3431140787
 20
109.1335431032
  0
VERTEX
  8
SURFACE
 62
7
  6
CONTINUOUS
 10
42.3408787302
 20
108.9274440518
  0
SEQEND
  0
LINE
  8
0
 62
7
  6
CONTINUOUS
 10
109.8640895171
 20
114.8264143005
 11
109.6640894964
 21
114.8264143005
  0
LINE
  8
0
 62
7
  6
CONTINUOUS
 10
37.4130895171
 20
115.3274440518
 11
111.9390895171
 21
115.3274440518
  0
POLYLINE
  8
0
 62
7
  6
CONTINUOUS
 66
1
 70
0
  0
VERTEX
  8
0
 62
7
  6
CONTINUOUS
 10
109.6640894963
 20
114.8264141061
  0
VERTEX
  8
0
 62
7
  6
CONTINUOUS
 10
109.6179752251
 20
114.8268488175
  0
VERTEX
  8
0
 62
7
  6
CONTINUOUS
 10
109.5569175133
 20
114.8287635842
  0
VERTEX
  8
0
 62
7
  6
CONTINUOUS
 10
109.4967809775
 20
114.8321331491
  0
VERTEX
  8
0
 62
7
  6
CONTINUOUS
 10
109.4378315751
 20
114.8368578606
  0
VERTEX
  8
0
 62
7
  6
CONTINUOUS
 10
109.3803119625
 20
114.8428113363
  0
VERTEX
  8
0
 62
7
  6
CONTINUOUS
 10
109.324440224
 20
114.849851866
  0
VERTEX
  8
0
 62
7
  6
CONTINUOUS
 10
109.2704027681
 20
114.8578239835
  0
VERTEX
  8
0
 62
7
  6
CONTINUOUS
 10
109.2183379681
 20
114.8665718244
  0
VERTEX
  8
0
 62
7
  6
CONTINUOUS
 10
109.1683183823
 20
114.875946946
  0
VERTEX
  8
0
 62
7
  6
CONTINUOUS
 10
109.1204050257
 20
114.8858045156
  0
VERTEX
  8
0
 62
7
  6
CONTINUOUS
 10
109.0746444428
 20
114.896008369
  0
VERTEX
  8
0
 62
7
  6
CONTINUOUS
 10
109.0310600773
 20
114.9064312588
  0
VERTEX
  8
0
 62
7
  6
CONTINUOUS
 10
108.989683031
 20
114.9169509981
  0
VERTEX
  8
0
 62
7
  6
CONTINUOUS
 10
108.9505276889
 20
114.9274583982
  0
VERTEX
  8
0
 62
7
  6
CONTINUOUS
 10
108.9135843077
 20
114.9378561399
  0
VERTEX
  8
0
 62
7
  6
CONTINUOUS
 10
108.8786992831
 20
114.9480984555
  0
VERTEX
  8
0
 62
7
  6
CONTINUOUS
 10
108.8455503923
 20
114.9582077719
  0
VERTEX
  8
0
 62
7
  6
CONTINUOUS
 10
108.8139752403
 20
114.9681740332
  0
VERTEX
  8
0
 62
7
  6
CONTINUOUS
 10
108.7838503491
 20
114.9779835936
  0
VERTEX
  8
0
 62
7
  6
CONTINUOUS
 10
108.7550678184
 20
114.9876267993
  0
VERTEX
  8
0
 62
7
  6
CONTINUOUS
 10
108.7275249932
 20
114.9970999038
  0
VERTEX
  8
0
 62
7
  6
CONTINUOUS
 10
108.701103272
 20
115.0064104421
  0
VERTEX
  8
0
 62
7
  6
CONTINUOUS
 10
108.6757036096
 20
115.0155635233
  0
VERTEX
  8
0
 62
7
  6
CONTINUOUS
 10
108.6512417678
 20
115.0245639993
  0
VERTEX
  8
0
 62
7
  6
CONTINUOUS
 10
108.6276392248
 20
115.0334189837
  0
VERTEX
  8
0
 62
7
  6
CONTINUOUS
 10
108.604818527
 20
115.0421389131
  0
VERTEX
  8
0
 62
7
  6
CONTINUOUS
 10
108.5826927031
 20
115.0507403903
  0
VERTEX
  8
0
 62
7
  6
CONTINUOUS
 10
108.5612215731
 20
115.0592240086
  0
VERTEX
  8
0
 62
7
  6
CONTINUOUS
 10
108.5404033245
 20
115.0675768235
  0
VERTEX
  8
0
 62
7
  6
CONTINUOUS
 10
108.5202383664
 20
115.0757859181
  0
VERTEX
  8
0
 62
7
  6
CONTINUOUS
 10
108.5007248663
 20
115.0838401089
  0
VERTEX
  8
0
 62
7
  6
CONTINUOUS
 10
108.4818497602
 20
115.0917333348
  0
SEQEND
  0
POLYLINE
  8
0
 62
7
  6
CONTINUOUS
 66
1
 70
0
  0
VERTEX
  8
0
 62
7
  6
CONTINUOUS
 10
81.4740040334
 20
110.8266111797
  0
VERTEX
  8
0
 62
7
  6
CONTINUOUS
 10
81.4115731968
 20
111.0611955957
  0
VERTEX
  8
0
 62
7
  6
CONTINUOUS
 10
81.3863679271
 20
111.1589970565
  0
VERTEX
  8
0
 62
7
  6
CONTINUOUS
 10
81.3661043843
 20
111.2434518306
  0
VERTEX
  8
0
 62
7
  6
CONTINUOUS
 10
81.3512399279
 20
111.3147090463
  0
VERTEX
  8
0
 62
7
  6
CONTINUOUS
 10
81.3421581536
 20
111.3727572111
  0
VERTEX
  8
0
 62
7
  6
CONTINUOUS
 10
81.3390895171
 20
111.4178648998
  0
SEQEND
  0
LINE
  8
0
 62
7
  6
CONTINUOUS
 10
81.5094603856
 20
110.6907322246
 11
81.4740040334
 21
110.8266111797
  0
POLYLINE
  8
0
 62
7
  6
CONTINUOUS
 66
1
 70
0
  0
VERTEX
  8
0
 62
7
  6
CONTINUOUS
 10
81.5094603856
 20
110.6907322246
  0
VERTEX
  8
0
 62
7
  6
CONTINUOUS
 10
81.5444467463
 20
110.5433303268
  0
VERTEX
  8
0
 62
7
  6
CONTINUOUS
 10
81.5761870243
 20
110.3867956123
  0
VERTEX
  8
0
 62
7
  6
CONTINUOUS
 10
81.6045228049
 20
110.2221444049
  0
VERTEX
  8
0
 62
7
  6
CONTINUOUS
 10
81.6293243715
 20
110.0503836249
  0
VERTEX
  8
0
 62
7
  6
CONTINUOUS
 10
81.6504831525
 20
109.8725284332
  0
VERTEX
  8
0
 62
7
  6
CONTINUOUS
 10
81.6679102989
 20
109.6895974387
  0
VERTEX
  8
0
 62
7
  6
CONTINUOUS
 10
81.6815353684
 20
109.50260847
  0
VERTEX
  8
0
 62
7
  6
CONTINUOUS
 10
81.6913049147
 20
109.3125781519
  0
VERTEX
  8
0
 62
7
  6
CONTINUOUS
 10
81.6971814554
 20
109.1205229403
  0
VERTEX
  8
0
 62
7
  6
CONTINUOUS
 10
81.6991428983
 20
108.9274440518
  0
SEQEND
  0
LINE
  8
0
 62
7
  6
CONTINUOUS
 10
111.3233153714
 20
115.2189008625
 11
111.3037115382
 21
115.2091777376
  0
LINE
  8
0
 62
7
  6
CONTINUOUS
 10
111.3037115382
 20
115.2091777376
 11
111.2794963474
 21
115.1973384884
  0
LINE
  8
0
 62
7
  6
CONTINUOUS
 10
111.2794963474
 20
115.1973384884
 11
111.2603205607
 21
115.1880884692
  0
LINE
  8
0
 62
7
  6
CONTINUOUS
 10
111.4343854543
 20
115.2728083515
 11
111.3479230952
 21
115.231259076
  0
LINE
  8
0
 62
7
  6
CONTINUOUS
 10
111.2603205607
 20
115.1880884692
 11
111.2384113611
 21
115.1776461154
  0
LINE
  8
0
 62
7
  6
CONTINUOUS
 10
111.2384113611
 20
115.1776461154
 11
111.2134542015
 21
115.1659137473
  0
LINE
  8
0
 62
7
  6
CONTINUOUS
 10
111.2134542015
 20
115.1659137473
 11
111.1849897302
 21
115.15274117
  0
LINE
  8
0
 62
7
  6
CONTINUOUS
 10
111.1849897302
 20
115.15274117
 11
111.1526536985
 21
115.1380432417
  0
POLYLINE
  8
0
 62
7
  6
CONTINUOUS
 66
1
 70
0
  0
VERTEX
  8
0
 62
7
  6
CONTINUOUS
 10
111.1526536985
 20
115.1380432417
  0
VERTEX
  8
0
 62
7
  6
CONTINUOUS
 10
111.1160631762
 20
115.1217552598
  0
VERTEX
  8
0
 62
7
  6
CONTINUOUS
 10
111.0960608951
 20
115.1130065094
  0
VERTEX
  8
0
 62
7
  6
CONTINUOUS
 10
111.074865665
 20
115.1038562
  0
VERTEX
  8
0
 62
7
  6
CONTINUOUS
 10
111.0524380865
 20
115.0943094291
  0
VERTEX
  8
0
 62
7
  6
CONTINUOUS
 10
111.0287388775
 20
115.0843741841
  0
VERTEX
  8
0
 62
7
  6
CONTINUOUS
 10
111.0037287729
 20
115.0740615993
  0
VERTEX
  8
0
 62
7
  6
CONTINUOUS
 10
110.9773644288
 20
115.0633839535
  0
VERTEX
  8
0
 62
7
  6
CONTINUOUS
 10
110.9496265841
 20
115.0523659459
  0
VERTEX
  8
0
 62
7
  6
CONTINUOUS
 10
110.9205047214
 20
115.0410393037
  0
VERTEX
  8
0
 62
7
  6
CONTINUOUS
 10
110.8899867037
 20
115.0294390089
  0
VERTEX
  8
0
 62
7
  6
CONTINUOUS
 10
110.8580335415
 20
115.0175926647
  0
VERTEX
  8
0
 62
7
  6
CONTINUOUS
 10
110.8246242892
 20
115.0055376479
  0
VERTEX
  8
0
 62
7
  6
CONTINUOUS
 10
110.7895297961
 20
114.9932450624
  0
VERTEX
  8
0
 62
7
  6
CONTINUOUS
 10
110.7522969967
 20
114.9806267881
  0
VERTEX
  8
0
 62
7
  6
CONTINUOUS
 10
110.7124120624
 20
114.9675999336
  0
VERTEX
  8
0
 62
7
  6
CONTINUOUS
 10
110.6693498788
 20
114.9541143898
  0
VERTEX
  8
0
 62
7
  6
CONTINUOUS
 10
110.6225121626
 20
114.9401447004
  0
VERTEX
  8
0
 62
7
  6
CONTINUOUS
 10
110.5714797251
 20
114.9257671052
  0
VERTEX
  8
0
 62
7
  6
CONTINUOUS
 10
110.516247585
 20
114.9112193285
  0
VERTEX
  8
0
 62
7
  6
CONTINUOUS
 10
110.4568113369
 20
114.8967683787
  0
VERTEX
  8
0
 62
7
  6
CONTINUOUS
 10
110.3932324821
 20
114.8827227856
  0
VERTEX
  8
0
 62
7
  6
CONTINUOUS
 10
110.3255864797
 20
114.8694212306
  0
VERTEX
  8
0
 62
7
  6
CONTINUOUS
 10
110.2540071657
 20
114.8572310918
  0
VERTEX
  8
0
 62
7
  6
CONTINUOUS
 10
110.1786898297
 20
114.8465433207
  0
VERTEX
  8
0
 62
7
  6
CONTINUOUS
 10
110.1000248483
 20
114.8377667971
  0
VERTEX
  8
0
 62
7
  6
CONTINUOUS
 10
110.0185494515
 20
114.83128975
  0
VERTEX
  8
0
 62
7
  6
CONTINUOUS
 10
109.9349036826
 20
114.827440338
  0
VERTEX
  8
0
 62
7
  6
CONTINUOUS
 10
109.8640895171
 20
114.8264139977
  0
SEQEND
  0
POLYLINE
  8
0
 62
7
  6
CONTINUOUS
 66
1
 70
0
  0
VERTEX
  8
0
 62
7
  6
CONTINUOUS
 10
107.812838613
 20
115.3274206212
  0
VERTEX
  8
0
 62
7
  6
CONTINUOUS
 10
107.9085698598
 20
115.3212859516
  0
VERTEX
  8
0
 62
7
  6
CONTINUOUS
 10
108.0027350104
 20
115.3029822307
  0
VERTEX
  8
0
 62
7
  6
CONTINUOUS
 10
108.0937935886
 20
115.2728088944
  0
SEQEND
  0
LINE
  8
0
 62
7
  6
CONTINUOUS
 10
111.0463449398
 20
102.5631481409
 11
111.0821985324
 21
102.5478802316
  0
LINE
  8
0
 62
7
  6
CONTINUOUS
 10
111.0821985324
 20
102.5478802316
 11
111.1155453372
 21
102.5333607089
  0
LINE
  8
0
 62
7
  6
CONTINUOUS
 10
111.1155453372
 20
102.5333607089
 11
111.1464228179
 21
102.5196443474
  0
LINE
  8
0
 62
7
  6
CONTINUOUS
 10
111.1464228179
 20
102.5196443474
 11
111.1748916461
 21
102.5067673768
  0
LINE
  8
0
 62
7
  6
CONTINUOUS
 10
111.1748916461
 20
102.5067673768
 11
111.2010332706
 21
102.4947494374
  0
LINE
  8
0
 62
7
  6
CONTINUOUS
 10
111.2010332706
 20
102.4947494374
 11
111.224889817
 21
102.4836198929
  0
LINE
  8
0
 62
7
  6
CONTINUOUS
 10
111.224889817
 20
102.4836198929
 11
111.2465683759
 21
102.4733698396
  0
LINE
  8
0
 62
7
  6
CONTINUOUS
 10
111.4343854456
 20
102.3820792093
 11
111.3479230943
 21
102.4236285462
  0
LINE
  8
0
 62
7
  6
CONTINUOUS
 10
111.2465683759
 20
102.4733698396
 11
111.2752513004
 21
102.4596064868
  0
LINE
  8
0
 62
7
  6
CONTINUOUS
 10
111.2752513004
 20
102.4596064868
 11
111.2993675313
 21
102.4478478762
  0
LINE
  8
0
 62
7
  6
CONTINUOUS
 10
111.2993675313
 20
102.4478478762
 11
111.3193617333
 21
102.4379587881
  0
POLYLINE
  8
0
 62
7
  6
CONTINUOUS
 66
1
 70
0
  0
VERTEX
  8
0
 62
7
  6
CONTINUOUS
 10
86.6790361359
 20
108.7274440518
  0
VERTEX
  8
0
 62
7
  6
CONTINUOUS
 10
86.6809975908
 20
108.53436457
  0
VERTEX
  8
0
 62
7
  6
CONTINUOUS
 10
86.6868741597
 20
108.342308969
  0
VERTEX
  8
0
 62
7
  6
CONTINUOUS
 10
86.6966437391
 20
108.1522784514
  0
VERTEX
  8
0
 62
7
  6
CONTINUOUS
 10
86.7102688379
 20
107.9652894418
  0
VERTEX
  8
0
 62
7
  6
CONTINUOUS
 10
86.7276960027
 20
107.7823585385
  0
VERTEX
  8
0
 62
7
  6
CONTINUOUS
 10
86.7488547833
 20
107.604503561
  0
VERTEX
  8
0
 62
7
  6
CONTINUOUS
 10
86.7736563234
 20
107.4327431027
  0
VERTEX
  8
0
 62
7
  6
CONTINUOUS
 10
86.8019920571
 20
107.2680922388
  0
VERTEX
  8
0
 62
7
  6
CONTINUOUS
 10
86.8337322921
 20
107.1115577576
  0
VERTEX
  8
0
 62
7
  6
CONTINUOUS
 10
86.8687186485
 20
106.9641558791
  0
SEQEND
  0
LINE
  8
0
 62
7
  6
CONTINUOUS
 10
86.6790361359
 20
108.9274440518
 11
86.6790361359
 21
108.7274440518
  0
LINE
  8
0
 62
7
  6
CONTINUOUS
 10
87.0390895171
 20
103.0774440518
 11
87.0390895171
 21
106.2370232039
  0
LINE
  8
0
 62
7
  6
CONTINUOUS
 10
87.0390895171
 20
111.4178648998
 11
87.0390895171
 21
114.5774440518
  0
POLYLINE
  8
0
 62
7
  6
CONTINUOUS
 66
1
 70
0
  0
VERTEX
  8
0
 62
7
  6
CONTINUOUS
 10
87.0390895171
 20
111.4178648998
  0
VERTEX
  8
0
 62
7
  6
CONTINUOUS
 10
87.0360215513
 20
111.37276287
  0
VERTEX
  8
0
 62
7
  6
CONTINUOUS
 10
87.026940103
 20
111.3147144052
  0
VERTEX
  8
0
 62
7
  6
CONTINUOUS
 10
87.012073808
 20
111.2434481143
  0
VERTEX
  8
0
 62
7
  6
CONTINUOUS
 10
86.991808171
 20
111.1589853346
  0
VERTEX
  8
0
 62
7
  6
CONTINUOUS
 10
86.9666021167
 20
111.0611814532
  0
SEQEND
  0
POLYLINE
  8
0
 62
7
  6
CONTINUOUS
 66
1
 70
0
  0
VERTEX
  8
0
 62
7
  6
CONTINUOUS
 10
86.8687186485
 20
110.6907322246
  0
VERTEX
  8
0
 62
7
  6
CONTINUOUS
 10
86.8337322879
 20
110.5433303268
  0
VERTEX
  8
0
 62
7
  6
CONTINUOUS
 10
86.8019920098
 20
110.3867956123
  0
VERTEX
  8
0
 62
7
  6
CONTINUOUS
 10
86.7736562293
 20
110.2221444049
  0
VERTEX
  8
0
 62
7
  6
CONTINUOUS
 10
86.7488546627
 20
110.0503836249
  0
VERTEX
  8
0
 62
7
  6
CONTINUOUS
 10
86.7276958816
 20
109.8725284332
  0
VERTEX
  8
0
 62
7
  6
CONTINUOUS
 10
86.7102687352
 20
109.6895974387
  0
VERTEX
  8
0
 62
7
  6
CONTINUOUS
 10
86.6966436658
 20
109.50260847
  0
VERTEX
  8
0
 62
7
  6
CONTINUOUS
 10
86.6868741195
 20
109.3125781519
  0
VERTEX
  8
0
 62
7
  6
CONTINUOUS
 10
86.6809975787
 20
109.1205229403
  0
VERTEX
  8
0
 62
7
  6
CONTINUOUS
 10
86.6790361359
 20
108.9274440518
  0
SEQEND
  0
POLYLINE
  8
0
 62
7
  6
CONTINUOUS
 66
1
 70
0
  0
VERTEX
  8
0
 62
7
  6
CONTINUOUS
 10
86.9666021167
 20
111.0611814532
  0
VERTEX
  8
0
 62
7
  6
CONTINUOUS
 10
86.9041693223
 20
110.8265897234
  0
VERTEX
  8
0
 62
7
  6
CONTINUOUS
 10
86.8687186485
 20
110.6907322246
  0
SEQEND
  0
LINE
  8
0
 62
7
  6
CONTINUOUS
 10
111.3553967017
 20
115.2351931322
 11
111.3555522983
 21
115.2352758473
  0
LINE
  8
0
 62
7
  6
CONTINUOUS
 10
111.3555139124
 20
115.2352558267
 11
111.353476627
 21
115.2341932557
  0
LINE
  8
0
 62
7
  6
CONTINUOUS
 10
111.353476627
 20
115.2341932557
 11
111.3458946241
 21
115.2302955801
  0
LINE
  8
0
 62
7
  6
CONTINUOUS
 10
111.3458946241
 20
115.2302955801
 11
111.3337525823
 21
115.2241365546
  0
LINE
  8
0
 62
7
  6
CONTINUOUS
 10
111.3337525823
 20
115.2241365546
 11
111.3233153714
 21
115.2189008625
  0
LINE
  8
0
 62
7
  6
CONTINUOUS
 10
111.3193617333
 20
102.4379587881
 11
111.3350246051
 21
102.4301100266
  0
LINE
  8
0
 62
7
  6
CONTINUOUS
 10
111.3350246051
 20
102.4301100266
 11
111.3466632148
 21
102.4241997448
  0
POLYLINE
  8
0
 62
7
  6
CONTINUOUS
 66
1
 70
0
  0
VERTEX
  8
0
 62
7
  6
CONTINUOUS
 10
111.3466632148
 20
102.4241997448
  0
VERTEX
  8
0
 62
7
  6
CONTINUOUS
 10
111.3537768792
 20
102.4205389648
  0
VERTEX
  8
0
 62
7
  6
CONTINUOUS
 10
111.354980776
 20
102.4199117619
  0
SEQEND
  0
POLYLINE
  8
0
 62
7
  6
CONTINUOUS
 66
1
 70
0
  0
VERTEX
  8
0
 62
7
  6
CONTINUOUS
 10
86.9041696869
 20
106.8282970026
  0
VERTEX
  8
0
 62
7
  6
CONTINUOUS
 10
86.966602531
 20
106.5937050759
  0
VERTEX
  8
0
 62
7
  6
CONTINUOUS
 10
86.9918087425
 20
106.4959004876
  0
VERTEX
  8
0
 62
7
  6
CONTINUOUS
 10
87.0120741477
 20
106.4114384899
  0
VERTEX
  8
0
 62
7
  6
CONTINUOUS
 10
87.0269401073
 20
106.3401736754
  0
VERTEX
  8
0
 62
7
  6
CONTINUOUS
 10
87.0360214838
 20
106.282125803
  0
VERTEX
  8
0
 62
7
  6
CONTINUOUS
 10
87.0390895171
 20
106.2370232039
  0
SEQEND
  0
LINE
  8
0
 62
7
  6
CONTINUOUS
 10
86.8687186485
 20
106.9641558791
 11
86.9041696869
 21
106.8282970026
  0
POLYLINE
  8
0
 62
7
  6
CONTINUOUS
 66
1
 70
0
  0
VERTEX
  8
0
 62
7
  6
CONTINUOUS
 10
87.961300304
 20
108.9274440518
  0
VERTEX
  8
0
 62
7
  6
CONTINUOUS
 10
87.9590649276
 20
109.1335443828
  0
VERTEX
  8
0
 62
7
  6
CONTINUOUS
 10
87.9523682512
 20
109.3384144258
  0
VERTEX
  8
0
 62
7
  6
CONTINUOUS
 10
87.9412388879
 20
109.5408220702
  0
VERTEX
  8
0
 62
7
  6
CONTINUOUS
 10
87.9257253848
 20
109.7395318467
  0
VERTEX
  8
0
 62
7
  6
CONTINUOUS
 10
87.9058975134
 20
109.933304161
  0
VERTEX
  8
0
 62
7
  6
CONTINUOUS
 10
87.8818475685
 20
110.1208992483
  0
VERTEX
  8
0
 62
7
  6
CONTINUOUS
 10
87.8536924745
 20
110.3010773221
  0
VERTEX
  8
0
 62
7
  6
CONTINUOUS
 10
87.82157577
 20
110.4726047729
  0
VERTEX
  8
0
 62
7
  6
CONTINUOUS
 10
87.7856695235
 20
110.6342625957
  0
VERTEX
  8
0
 62
7
  6
CONTINUOUS
 10
87.7461756258
 20
110.7848585569
  0
VERTEX
  8
0
 62
7
  6
CONTINUOUS
 10
87.7033276512
 20
110.9232375165
  0
VERTEX
  8
0
 62
7
  6
CONTINUOUS
 10
87.6573915766
 20
111.0482972576
  0
VERTEX
  8
0
 62
7
  6
CONTINUOUS
 10
87.6086654519
 20
111.1590063568
  0
VERTEX
  8
0
 62
7
  6
CONTINUOUS
 10
87.5574784429
 20
111.2544218336
  0
VERTEX
  8
0
 62
7
  6
CONTINUOUS
 10
87.5041893299
 20
111.3337064665
  0
VERTEX
  8
0
 62
7
  6
CONTINUOUS
 10
87.4491836095
 20
111.3961466906
  0
VERTEX
  8
0
 62
7
  6
CONTINUOUS
 10
87.3928691746
 20
111.4411691595
  0
VERTEX
  8
0
 62
7
  6
CONTINUOUS
 10
87.3356718433
 20
111.4683537672
  0
VERTEX
  8
0
 62
7
  6
CONTINUOUS
 10
87.2780298633
 20
111.4774440518
  0
SEQEND
  0
LINE
  8
0
 62
7
  6
CONTINUOUS
 10
87.961300304
 20
108.7274440518
 11
87.961300304
 21
108.9274440518
  0
LINE
  8
0
 62
7
  6
CONTINUOUS
 10
93.1168787302
 20
108.7274440518
 11
93.1168787302
 21
108.9274440518
  0
LINE
  8
0
 62
7
  6
CONTINUOUS
 10
94.0390895171
 20
103.0774440518
 11
94.0390895171
 21
106.2370232039
  0
LINE
  8
0
 62
7
  6
CONTINUOUS
 10
94.0390895171
 20
111.4178648998
 11
94.0390895171
 21
114.5774440518
  0
LINE
  8
0
 62
7
  6
CONTINUOUS
 10
94.3991428983
 20
108.9274440518
 11
94.3991428983
 21
108.7274440518
  0
POLYLINE
  8
0
 62
7
  6
CONTINUOUS
 66
1
 70
0
  0
VERTEX
  8
0
 62
7
  6
CONTINUOUS
 10
94.3991428983
 20
108.7274440518
  0
VERTEX
  8
0
 62
7
  6
CONTINUOUS
 10
94.3971814433
 20
108.53436457
  0
VERTEX
  8
0
 62
7
  6
CONTINUOUS
 10
94.3913048745
 20
108.342308969
  0
VERTEX
  8
0
 62
7
  6
CONTINUOUS
 10
94.381535295
 20
108.1522784514
  0
VERTEX
  8
0
 62
7
  6
CONTINUOUS
 10
94.3679101963
 20
107.9652894418
  0
VERTEX
  8
0
 62
7
  6
CONTINUOUS
 10
94.3504830315
 20
107.7823585385
  0
VERTEX
  8
0
 62
7
  6
CONTINUOUS
 10
94.3293242508
 20
107.604503561
  0
VERTEX
  8
0
 62
7
  6
CONTINUOUS
 10
94.3045227108
 20
107.4327431027
  0
VERTEX
  8
0
 62
7
  6
CONTINUOUS
 10
94.2761869771
 20
107.2680922388
  0
VERTEX
  8
0
 62
7
  6
CONTINUOUS
 10
94.2444467421
 20
107.1115577576
  0
VERTEX
  8
0
 62
7
  6
CONTINUOUS
 10
94.2094603619
 20
106.9641557791
  0
SEQEND
  0
POLYLINE
  8
0
 62
7
  6
CONTINUOUS
 66
1
 70
0
  0
VERTEX
  8
0
 62
7
  6
CONTINUOUS
 10
93.1168787302
 20
108.9274440518
  0
VERTEX
  8
0
 62
7
  6
CONTINUOUS
 10
93.1191141065
 20
109.1335443828
  0
VERTEX
  8
0
 62
7
  6
CONTINUOUS
 10
93.125810783
 20
109.3384144258
  0
VERTEX
  8
0
 62
7
  6
CONTINUOUS
 10
93.1369401463
 20
109.5408220702
  0
VERTEX
  8
0
 62
7
  6
CONTINUOUS
 10
93.1524536494
 20
109.7395318467
  0
VERTEX
  8
0
 62
7
  6
CONTINUOUS
 10
93.1722815208
 20
109.933304161
  0
VERTEX
  8
0
 62
7
  6
CONTINUOUS
 10
93.1963314656
 20
110.1208992483
  0
VERTEX
  8
0
 62
7
  6
CONTINUOUS
 10
93.2244865597
 20
110.3010773221
  0
VERTEX
  8
0
 62
7
  6
CONTINUOUS
 10
93.2566032641
 20
110.4726047729
  0
VERTEX
  8
0
 62
7
  6
CONTINUOUS
 10
93.2925095107
 20
110.6342625957
  0
VERTEX
  8
0
 62
7
  6
CONTINUOUS
 10
93.3320034084
 20
110.7848585569
  0
VERTEX
  8
0
 62
7
  6
CONTINUOUS
 10
93.374851383
 20
110.9232375165
  0
VERTEX
  8
0
 62
7
  6
CONTINUOUS
 10
93.4207874575
 20
111.0482972576
  0
VERTEX
  8
0
 62
7
  6
CONTINUOUS
 10
93.4695135823
 20
111.1590063568
  0
VERTEX
  8
0
 62
7
  6
CONTINUOUS
 10
93.5207005912
 20
111.2544218336
  0
VERTEX
  8
0
 62
7
  6
CONTINUOUS
 10
93.5739897043
 20
111.3337064665
  0
VERTEX
  8
0
 62
7
  6
CONTINUOUS
 10
93.6289954247
 20
111.3961466906
  0
VERTEX
  8
0
 62
7
  6
CONTINUOUS
 10
93.6853098596
 20
111.4411691595
  0
VERTEX
  8
0
 62
7
  6
CONTINUOUS
 10
93.7425071908
 20
111.4683537672
  0
VERTEX
  8
0
 62
7
  6
CONTINUOUS
 10
93.8001491709
 20
111.4774440518
  0
SEQEND
  0
POLYLINE
  8
0
 62
7
  6
CONTINUOUS
 66
1
 70
0
  0
VERTEX
  8
0
 62
7
  6
CONTINUOUS
 10
94.0390895171
 20
106.2370232039
  0
VERTEX
  8
0
 62
7
  6
CONTINUOUS
 10
94.0421582166
 20
106.2821314243
  0
VERTEX
  8
0
 62
7
  6
CONTINUOUS
 10
94.0512399269
 20
106.3401790517
  0
VERTEX
  8
0
 62
7
  6
CONTINUOUS
 10
94.0661040457
 20
106.4114347785
  0
VERTEX
  8
0
 62
7
  6
CONTINUOUS
 10
94.0863673577
 20
106.4958887739
  0
VERTEX
  8
0
 62
7
  6
CONTINUOUS
 10
94.1115727701
 20
106.593690886
  0
SEQEND
  0
POLYLINE
  8
0
 62
7
  6
CONTINUOUS
 66
1
 70
0
  0
VERTEX
  8
0
 62
7
  6
CONTINUOUS
 10
94.1115727701
 20
106.593690886
  0
VERTEX
  8
0
 62
7
  6
CONTINUOUS
 10
94.1740036399
 20
106.8282754373
  0
VERTEX
  8
0
 62
7
  6
CONTINUOUS
 10
94.2094604323
 20
106.964156069
  0
SEQEND
  0
LINE
  8
0
 62
7
  6
CONTINUOUS
 10
108.1858823595
 20
102.4264263355
 11
108.1993584824
 21
102.4332315147
  0
LINE
  8
0
 62
7
  6
CONTINUOUS
 10
108.1993584824
 20
102.4332315147
 11
108.2173958495
 21
102.4422177027
  0
LINE
  8
0
 62
7
  6
CONTINUOUS
 10
108.2173958495
 20
102.4422177027
 11
108.2400079612
 21
102.4533294094
  0
LINE
  8
0
 62
7
  6
CONTINUOUS
 10
108.2400079612
 20
102.4533294094
 11
108.2578920431
 21
102.4620051214
  0
LINE
  8
0
 62
7
  6
CONTINUOUS
 10
108.0937935807
 20
102.3820797055
 11
108.1802559393
 21
102.4236289862
  0
LINE
  8
0
 62
7
  6
CONTINUOUS
 10
108.2578920431
 20
102.4620051214
 11
108.2784140905
 21
102.4718473952
  0
LINE
  8
0
 62
7
  6
CONTINUOUS
 10
108.2784140905
 20
102.4718473952
 11
108.3017821878
 21
102.4829115647
  0
LINE
  8
0
 62
7
  6
CONTINUOUS
 10
108.3017821878
 20
102.4829115647
 11
108.3284382512
 21
102.4953479196
  0
LINE
  8
0
 62
7
  6
CONTINUOUS
 10
108.3284382512
 20
102.4953479196
 11
108.358791207
 21
102.5092740718
  0
POLYLINE
  8
0
 62
7
  6
CONTINUOUS
 66
1
 70
0
  0
VERTEX
  8
0
 62
7
  6
CONTINUOUS
 10
108.358791207
 20
102.5092740718
  0
VERTEX
  8
0
 62
7
  6
CONTINUOUS
 10
108.3932039275
 20
102.5247600561
  0
VERTEX
  8
0
 62
7
  6
CONTINUOUS
 10
108.4120529046
 20
102.5331050923
  0
VERTEX
  8
0
 62
7
  6
CONTINUOUS
 10
108.4320547193
 20
102.5418540071
  0
VERTEX
  8
0
 62
7
  6
CONTINUOUS
 10
108.4532487295
 20
102.5510042129
  0
VERTEX
  8
0
 62
7
  6
CONTINUOUS
 10
108.4756745946
 20
102.5605506905
  0
VERTEX
  8
0
 62
7
  6
CONTINUOUS
 10
108.4993718504
 20
102.5704855305
  0
VERTEX
  8
0
 62
7
  6
CONTINUOUS
 10
108.5243820975
 20
102.5807985679
  0
VERTEX
  8
0
 62
7
  6
CONTINUOUS
 10
108.5507477612
 20
102.5914773126
  0
VERTEX
  8
0
 62
7
  6
CONTINUOUS
 10
108.5784850006
 20
102.6024957251
  0
VERTEX
  8
0
 62
7
  6
CONTINUOUS
 10
108.6076045736
 20
102.6138220483
  0
VERTEX
  8
0
 62
7
  6
CONTINUOUS
 10
108.6381238128
 20
102.6254232473
  0
VERTEX
  8
0
 62
7
  6
CONTINUOUS
 10
108.6700799758
 20
102.637271448
  0
VERTEX
  8
0
 62
7
  6
CONTINUOUS
 10
108.7034892298
 20
102.6493273007
  0
VERTEX
  8
0
 62
7
  6
CONTINUOUS
 10
108.7385805196
 20
102.6616193451
  0
VERTEX
  8
0
 62
7
  6
CONTINUOUS
 10
108.7758179075
 20
102.6742398349
  0
VERTEX
  8
0
 62
7
  6
CONTINUOUS
 10
108.8157030749
 20
102.6872678313
  0
VERTEX
  8
0
 62
7
  6
CONTINUOUS
 10
108.8587607979
 20
102.7007528279
  0
VERTEX
  8
0
 62
7
  6
CONTINUOUS
 10
108.9056018476
 20
102.7147244106
  0
VERTEX
  8
0
 62
7
  6
CONTINUOUS
 10
108.9566342182
 20
102.7291033955
  0
VERTEX
  8
0
 62
7
  6
CONTINUOUS
 10
109.0118680394
 20
102.7436525554
  0
VERTEX
  8
0
 62
7
  6
CONTINUOUS
 10
109.0713082907
 20
102.7581060243
  0
VERTEX
  8
0
 62
7
  6
CONTINUOUS
 10
109.1348904964
 20
102.772153507
  0
VERTEX
  8
0
 62
7
  6
CONTINUOUS
 10
109.2025422237
 20
102.785457692
  0
VERTEX
  8
0
 62
7
  6
CONTINUOUS
 10
109.2741268093
 20
102.7976498879
  0
VERTEX
  8
0
 62
7
  6
CONTINUOUS
 10
109.3494502879
 20
102.8083399437
  0
VERTEX
  8
0
 62
7
  6
CONTINUOUS
 10
109.4281204863
 20
102.8171179087
  0
VERTEX
  8
0
 62
7
  6
CONTINUOUS
 10
109.5096017404
 20
102.8235965939
  0
VERTEX
  8
0
 62
7
  6
CONTINUOUS
 10
109.5932610667
 20
102.8274476502
  0
VERTEX
  8
0
 62
7
  6
CONTINUOUS
 10
109.6640895171
 20
102.8284739976
  0
SEQEND
  0
LINE
  8
0
 62
7
  6
CONTINUOUS
 10
108.4818497602
 20
115.0917333348
 11
108.4459968333
 21
115.1070008289
  0
LINE
  8
0
 62
7
  6
CONTINUOUS
 10
108.4459968333
 20
115.1070008289
 11
108.412649149
 21
115.1215206277
  0
LINE
  8
0
 62
7
  6
CONTINUOUS
 10
108.412649149
 20
115.1215206277
 11
108.3817706924
 21
115.1352372513
  0
LINE
  8
0
 62
7
  6
CONTINUOUS
 10
108.3817706924
 20
115.1352372513
 11
108.3533024983
 21
115.1481138043
  0
LINE
  8
0
 62
7
  6
CONTINUOUS
 10
108.3533024983
 20
115.1481138043
 11
108.3271604765
 21
115.1601319078
  0
LINE
  8
0
 62
7
  6
CONTINUOUS
 10
108.3271604765
 20
115.1601319078
 11
108.3033001598
 21
115.1712630779
  0
LINE
  8
0
 62
7
  6
CONTINUOUS
 10
108.3033001598
 20
115.1712630779
 11
108.2816225958
 21
115.1815125265
  0
LINE
  8
0
 62
7
  6
CONTINUOUS
 10
108.0937935886
 20
115.2728088944
 11
108.1802559398
 21
115.2312595574
  0
LINE
  8
0
 62
7
  6
CONTINUOUS
 10
108.2816225958
 20
115.1815125265
 11
108.2529372838
 21
115.1952770784
  0
LINE
  8
0
 62
7
  6
CONTINUOUS
 10
108.2529372838
 20
115.1952770784
 11
108.228819284
 21
115.2070363423
  0
LINE
  8
0
 62
7
  6
CONTINUOUS
 10
108.228819284
 20
115.2070363423
 11
108.2088274885
 21
115.2169243404
  0
LINE
  8
0
 62
7
  6
CONTINUOUS
 10
108.2088274885
 20
115.2169243404
 11
108.1931561462
 21
115.2247771887
  0
LINE
  8
0
 62
7
  6
CONTINUOUS
 10
108.1931561462
 20
115.2247771887
 11
108.1849959394
 21
115.2289128051
  0
POLYLINE
  8
0
 62
7
  6
CONTINUOUS
 66
1
 70
0
  0
VERTEX
  8
0
 62
7
  6
CONTINUOUS
 10
94.1740040334
 20
110.8266111797
  0
VERTEX
  8
0
 62
7
  6
CONTINUOUS
 10
94.1115731968
 20
111.0611955957
  0
VERTEX
  8
0
 62
7
  6
CONTINUOUS
 10
94.0863679271
 20
111.1589970565
  0
VERTEX
  8
0
 62
7
  6
CONTINUOUS
 10
94.0661043843
 20
111.2434518306
  0
VERTEX
  8
0
 62
7
  6
CONTINUOUS
 10
94.0512399279
 20
111.3147090463
  0
VERTEX
  8
0
 62
7
  6
CONTINUOUS
 10
94.0421581536
 20
111.3727572111
  0
VERTEX
  8
0
 62
7
  6
CONTINUOUS
 10
94.0390895171
 20
111.4178648998
  0
SEQEND
  0
LINE
  8
0
 62
7
  6
CONTINUOUS
 10
94.2094603856
 20
110.6907322246
 11
94.1740040334
 21
110.8266111797
  0
POLYLINE
  8
0
 62
7
  6
CONTINUOUS
 66
1
 70
0
  0
VERTEX
  8
0
 62
7
  6
CONTINUOUS
 10
94.2094603856
 20
110.6907322246
  0
VERTEX
  8
0
 62
7
  6
CONTINUOUS
 10
94.2444467463
 20
110.5433303268
  0
VERTEX
  8
0
 62
7
  6
CONTINUOUS
 10
94.2761870243
 20
110.3867956123
  0
VERTEX
  8
0
 62
7
  6
CONTINUOUS
 10
94.3045228049
 20
110.2221444049
  0
VERTEX
  8
0
 62
7
  6
CONTINUOUS
 10
94.3293243715
 20
110.0503836249
  0
VERTEX
  8
0
 62
7
  6
CONTINUOUS
 10
94.3504831525
 20
109.8725284332
  0
VERTEX
  8
0
 62
7
  6
CONTINUOUS
 10
94.3679102989
 20
109.6895974387
  0
VERTEX
  8
0
 62
7
  6
CONTINUOUS
 10
94.3815353684
 20
109.50260847
  0
VERTEX
  8
0
 62
7
  6
CONTINUOUS
 10
94.3913049147
 20
109.3125781519
  0
VERTEX
  8
0
 62
7
  6
CONTINUOUS
 10
94.3971814554
 20
109.1205229403
  0
VERTEX
  8
0
 62
7
  6
CONTINUOUS
 10
94.3991428983
 20
108.9274440518
  0
SEQEND
  0
LINE
  8
0
 62
7
  6
CONTINUOUS
 10
108.1727852605
 20
102.4196965315
 11
108.1726266604
 21
102.419612215
  0
LINE
  8
0
 62
7
  6
CONTINUOUS
 10
108.1726588045
 20
102.4196289372
 11
108.1746897117
 21
102.4206882052
  0
POLYLINE
  8
0
 62
7
  6
CONTINUOUS
 66
1
 70
0
  0
VERTEX
  8
0
 62
7
  6
CONTINUOUS
 10
108.1746897117
 20
102.4206882052
  0
VERTEX
  8
0
 62
7
  6
CONTINUOUS
 10
108.1822717864
 20
102.4245860731
  0
VERTEX
  8
0
 62
7
  6
CONTINUOUS
 10
108.1858823595
 20
102.4264263355
  0
SEQEND
  0
LINE
  8
0
 62
7
  6
CONTINUOUS
 10
108.1849959394
 20
115.2289128051
 11
108.1761968491
 21
115.2334199422
  0
POLYLINE
  8
0
 62
7
  6
CONTINUOUS
 66
1
 70
0
  0
VERTEX
  8
0
 62
7
  6
CONTINUOUS
 10
108.1761968491
 20
115.2334199422
  0
VERTEX
  8
0
 62
7
  6
CONTINUOUS
 10
108.173193053
 20
115.2349790563
  0
VERTEX
  8
0
 62
7
  6
CONTINUOUS
 10
108.1729186049
 20
115.2351227274
  0
SEQEND
  0
POLYLINE
  8
0
 62
7
  6
CONTINUOUS
 66
1
 70
0
  0
VERTEX
  8
0
 62
7
  6
CONTINUOUS
 10
100.661300304
 20
108.9274440518
  0
VERTEX
  8
0
 62
7
  6
CONTINUOUS
 10
100.6590649276
 20
109.1335443828
  0
VERTEX
  8
0
 62
7
  6
CONTINUOUS
 10
100.6523682512
 20
109.3384144258
  0
VERTEX
  8
0
 62
7
  6
CONTINUOUS
 10
100.6412388879
 20
109.5408220702
  0
VERTEX
  8
0
 62
7
  6
CONTINUOUS
 10
100.6257253848
 20
109.7395318467
  0
VERTEX
  8
0
 62
7
  6
CONTINUOUS
 10
100.6058975134
 20
109.933304161
  0
VERTEX
  8
0
 62
7
  6
CONTINUOUS
 10
100.5818475685
 20
110.1208992483
  0
VERTEX
  8
0
 62
7
  6
CONTINUOUS
 10
100.5536924745
 20
110.3010773221
  0
VERTEX
  8
0
 62
7
  6
CONTINUOUS
 10
100.52157577
 20
110.4726047729
  0
VERTEX
  8
0
 62
7
  6
CONTINUOUS
 10
100.4856695235
 20
110.6342625957
  0
VERTEX
  8
0
 62
7
  6
CONTINUOUS
 10
100.4461756258
 20
110.7848585569
  0
VERTEX
  8
0
 62
7
  6
CONTINUOUS
 10
100.4033276512
 20
110.9232375165
  0
VERTEX
  8
0
 62
7
  6
CONTINUOUS
 10
100.3573915766
 20
111.0482972576
  0
VERTEX
  8
0
 62
7
  6
CONTINUOUS
 10
100.3086654519
 20
111.1590063568
  0
VERTEX
  8
0
 62
7
  6
CONTINUOUS
 10
100.2574784429
 20
111.2544218336
  0
VERTEX
  8
0
 62
7
  6
CONTINUOUS
 10
100.2041893299
 20
111.3337064665
  0
VERTEX
  8
0
 62
7
  6
CONTINUOUS
 10
100.1491836095
 20
111.3961466906
  0
VERTEX
  8
0
 62
7
  6
CONTINUOUS
 10
100.0928691746
 20
111.4411691595
  0
VERTEX
  8
0
 62
7
  6
CONTINUOUS
 10
100.0356718433
 20
111.4683537672
  0
VERTEX
  8
0
 62
7
  6
CONTINUOUS
 10
99.9780298633
 20
111.4774440518
  0
SEQEND
  0
POLYLINE
  8
0
 62
7
  6
CONTINUOUS
 66
1
 70
0
  0
VERTEX
  8
0
 62
7
  6
CONTINUOUS
 10
99.3790361359
 20
108.7274440518
  0
VERTEX
  8
0
 62
7
  6
CONTINUOUS
 10
99.3809975908
 20
108.53436457
  0
VERTEX
  8
0
 62
7
  6
CONTINUOUS
 10
99.3868741597
 20
108.342308969
  0
VERTEX
  8
0
 62
7
  6
CONTINUOUS
 10
99.3966437391
 20
108.1522784514
  0
VERTEX
  8
0
 62
7
  6
CONTINUOUS
 10
99.4102688379
 20
107.9652894418
  0
VERTEX
  8
0
 62
7
  6
CONTINUOUS
 10
99.4276960027
 20
107.7823585385
  0
VERTEX
  8
0
 62
7
  6
CONTINUOUS
 10
99.4488547833
 20
107.604503561
  0
VERTEX
  8
0
 62
7
  6
CONTINUOUS
 10
99.4736563234
 20
107.4327431027
  0
VERTEX
  8
0
 62
7
  6
CONTINUOUS
 10
99.5019920571
 20
107.2680922388
  0
VERTEX
  8
0
 62
7
  6
CONTINUOUS
 10
99.5337322921
 20
107.1115577576
  0
VERTEX
  8
0
 62
7
  6
CONTINUOUS
 10
99.5687186485
 20
106.9641558791
  0
SEQEND
  0
LINE
  8
0
 62
7
  6
CONTINUOUS
 10
99.3790361359
 20
108.9274440518
 11
99.3790361359
 21
108.7274440518
  0
LINE
  8
0
 62
7
  6
CONTINUOUS
 10
99.7390895171
 20
103.0774440518
 11
99.7390895171
 21
106.2370232039
  0
LINE
  8
0
 62
7
  6
CONTINUOUS
 10
99.7390895171
 20
111.4178648998
 11
99.7390895171
 21
114.5774440518
  0
LINE
  8
0
 62
7
  6
CONTINUOUS
 10
100.661300304
 20
108.7274440518
 11
100.661300304
 21
108.9274440518
  0
POLYLINE
  8
0
 62
7
  6
CONTINUOUS
 66
1
 70
0
  0
VERTEX
  8
0
 62
7
  6
CONTINUOUS
 10
99.7390895171
 20
111.4178648998
  0
VERTEX
  8
0
 62
7
  6
CONTINUOUS
 10
99.7360215513
 20
111.37276287
  0
VERTEX
  8
0
 62
7
  6
CONTINUOUS
 10
99.726940103
 20
111.3147144052
  0
VERTEX
  8
0
 62
7
  6
CONTINUOUS
 10
99.712073808
 20
111.2434481143
  0
VERTEX
  8
0
 62
7
  6
CONTINUOUS
 10
99.691808171
 20
111.1589853346
  0
VERTEX
  8
0
 62
7
  6
CONTINUOUS
 10
99.6666021167
 20
111.0611814532
  0
SEQEND
  0
POLYLINE
  8
0
 62
7
  6
CONTINUOUS
 66
1
 70
0
  0
VERTEX
  8
0
 62
7
  6
CONTINUOUS
 10
99.5687186485
 20
110.6907322246
  0
VERTEX
  8
0
 62
7
  6
CONTINUOUS
 10
99.5337322879
 20
110.5433303268
  0
VERTEX
  8
0
 62
7
  6
CONTINUOUS
 10
99.5019920098
 20
110.3867956123
  0
VERTEX
  8
0
 62
7
  6
CONTINUOUS
 10
99.4736562293
 20
110.2221444049
  0
VERTEX
  8
0
 62
7
  6
CONTINUOUS
 10
99.4488546627
 20
110.0503836249
  0
VERTEX
  8
0
 62
7
  6
CONTINUOUS
 10
99.4276958816
 20
109.8725284332
  0
VERTEX
  8
0
 62
7
  6
CONTINUOUS
 10
99.4102687352
 20
109.6895974387
  0
VERTEX
  8
0
 62
7
  6
CONTINUOUS
 10
99.3966436658
 20
109.50260847
  0
VERTEX
  8
0
 62
7
  6
CONTINUOUS
 10
99.3868741195
 20
109.3125781519
  0
VERTEX
  8
0
 62
7
  6
CONTINUOUS
 10
99.3809975787
 20
109.1205229403
  0
VERTEX
  8
0
 62
7
  6
CONTINUOUS
 10
99.3790361359
 20
108.9274440518
  0
SEQEND
  0
POLYLINE
  8
0
 62
7
  6
CONTINUOUS
 66
1
 70
0
  0
VERTEX
  8
0
 62
7
  6
CONTINUOUS
 10
99.6666021167
 20
111.0611814532
  0
VERTEX
  8
0
 62
7
  6
CONTINUOUS
 10
99.6041693223
 20
110.8265897234
  0
VERTEX
  8
0
 62
7
  6
CONTINUOUS
 10
99.5687186485
 20
110.6907322246
  0
SEQEND
  0
POLYLINE
  8
0
 62
7
  6
CONTINUOUS
 66
1
 70
0
  0
VERTEX
  8
0
 62
7
  6
CONTINUOUS
 10
99.6041696869
 20
106.8282970026
  0
VERTEX
  8
0
 62
7
  6
CONTINUOUS
 10
99.666602531
 20
106.5937050759
  0
VERTEX
  8
0
 62
7
  6
CONTINUOUS
 10
99.6918087425
 20
106.4959004876
  0
VERTEX
  8
0
 62
7
  6
CONTINUOUS
 10
99.7120741477
 20
106.4114384899
  0
VERTEX
  8
0
 62
7
  6
CONTINUOUS
 10
99.7269401073
 20
106.3401736754
  0
VERTEX
  8
0
 62
7
  6
CONTINUOUS
 10
99.7360214838
 20
106.282125803
  0
VERTEX
  8
0
 62
7
  6
CONTINUOUS
 10
99.7390895171
 20
106.2370232039
  0
SEQEND
  0
LINE
  8
0
 62
7
  6
CONTINUOUS
 10
99.5687186485
 20
106.9641558791
 11
99.6041696869
 21
106.8282970026
  0
LINE
  8
0
 62
7
  6
CONTINUOUS
 10
105.8168787302
 20
108.7274440518
 11
105.8168787302
 21
108.9274440518
  0
POLYLINE
  8
0
 62
7
  6
CONTINUOUS
 66
1
 70
0
  0
VERTEX
  8
0
 62
7
  6
CONTINUOUS
 10
105.8168787302
 20
108.9274440518
  0
VERTEX
  8
0
 62
7
  6
CONTINUOUS
 10
105.8191141065
 20
109.1335443828
  0
VERTEX
  8
0
 62
7
  6
CONTINUOUS
 10
105.825810783
 20
109.3384144258
  0
VERTEX
  8
0
 62
7
  6
CONTINUOUS
 10
105.8369401463
 20
109.5408220702
  0
VERTEX
  8
0
 62
7
  6
CONTINUOUS
 10
105.8524536494
 20
109.7395318467
  0
VERTEX
  8
0
 62
7
  6
CONTINUOUS
 10
105.8722815208
 20
109.933304161
  0
VERTEX
  8
0
 62
7
  6
CONTINUOUS
 10
105.8963314656
 20
110.1208992483
  0
VERTEX
  8
0
 62
7
  6
CONTINUOUS
 10
105.9244865597
 20
110.3010773221
  0
VERTEX
  8
0
 62
7
  6
CONTINUOUS
 10
105.9566032641
 20
110.4726047729
  0
VERTEX
  8
0
 62
7
  6
CONTINUOUS
 10
105.9925095107
 20
110.6342625957
  0
VERTEX
  8
0
 62
7
  6
CONTINUOUS
 10
106.0320034084
 20
110.7848585569
  0
VERTEX
  8
0
 62
7
  6
CONTINUOUS
 10
106.074851383
 20
110.9232375165
  0
VERTEX
  8
0
 62
7
  6
CONTINUOUS
 10
106.1207874575
 20
111.0482972576
  0
VERTEX
  8
0
 62
7
  6
CONTINUOUS
 10
106.1695135823
 20
111.1590063568
  0
VERTEX
  8
0
 62
7
  6
CONTINUOUS
 10
106.2207005912
 20
111.2544218336
  0
VERTEX
  8
0
 62
7
  6
CONTINUOUS
 10
106.2739897043
 20
111.3337064665
  0
VERTEX
  8
0
 62
7
  6
CONTINUOUS
 10
106.3289954247
 20
111.3961466906
  0
VERTEX
  8
0
 62
7
  6
CONTINUOUS
 10
106.3853098596
 20
111.4411691595
  0
VERTEX
  8
0
 62
7
  6
CONTINUOUS
 10
106.4425071908
 20
111.4683537672
  0
VERTEX
  8
0
 62
7
  6
CONTINUOUS
 10
106.5001491709
 20
111.4774440518
  0
SEQEND
  0
LINE
  8
0
 62
7
  6
CONTINUOUS
 10
106.7390895171
 20
103.0774440518
 11
106.7390895171
 21
106.2370232039
  0
LINE
  8
0
 62
7
  6
CONTINUOUS
 10
106.7390895171
 20
111.4178648998
 11
106.7390895171
 21
114.5774440518
  0
LINE
  8
0
 62
7
  6
CONTINUOUS
 10
107.0991428983
 20
108.9274440518
 11
107.0991428983
 21
108.7274440518
  0
POLYLINE
  8
0
 62
7
  6
CONTINUOUS
 66
1
 70
0
  0
VERTEX
  8
0
 62
7
  6
CONTINUOUS
 10
107.0991428983
 20
108.7274440518
  0
VERTEX
  8
0
 62
7
  6
CONTINUOUS
 10
107.0971814433
 20
108.53436457
  0
VERTEX
  8
0
 62
7
  6
CONTINUOUS
 10
107.0913048745
 20
108.342308969
  0
VERTEX
  8
0
 62
7
  6
CONTINUOUS
 10
107.081535295
 20
108.1522784514
  0
VERTEX
  8
0
 62
7
  6
CONTINUOUS
 10
107.0679101963
 20
107.9652894418
  0
VERTEX
  8
0
 62
7
  6
CONTINUOUS
 10
107.0504830315
 20
107.7823585385
  0
VERTEX
  8
0
 62
7
  6
CONTINUOUS
 10
107.0293242508
 20
107.604503561
  0
VERTEX
  8
0
 62
7
  6
CONTINUOUS
 10
107.0045227108
 20
107.4327431027
  0
VERTEX
  8
0
 62
7
  6
CONTINUOUS
 10
106.9761869771
 20
107.2680922388
  0
VERTEX
  8
0
 62
7
  6
CONTINUOUS
 10
106.9444467421
 20
107.1115577576
  0
VERTEX
  8
0
 62
7
  6
CONTINUOUS
 10
106.9094603856
 20
106.9641558791
  0
SEQEND
  0
POLYLINE
  8
0
 62
7
  6
CONTINUOUS
 66
1
 70
0
  0
VERTEX
  8
0
 62
7
  6
CONTINUOUS
 10
106.7390895171
 20
106.2370232039
  0
VERTEX
  8
0
 62
7
  6
CONTINUOUS
 10
106.7421582176
 20
106.2821314327
  0
VERTEX
  8
0
 62
7
  6
CONTINUOUS
 10
106.7512399308
 20
106.3401790728
  0
VERTEX
  8
0
 62
7
  6
CONTINUOUS
 10
106.7661040543
 20
106.4114348165
  0
VERTEX
  8
0
 62
7
  6
CONTINUOUS
 10
106.7863673726
 20
106.4958888333
  0
VERTEX
  8
0
 62
7
  6
CONTINUOUS
 10
106.8115727925
 20
106.5936909711
  0
SEQEND
  0
POLYLINE
  8
0
 62
7
  6
CONTINUOUS
 66
1
 70
0
  0
VERTEX
  8
0
 62
7
  6
CONTINUOUS
 10
106.8115727925
 20
106.5936909711
  0
VERTEX
  8
0
 62
7
  6
CONTINUOUS
 10
106.8740036791
 20
106.8282755856
  0
VERTEX
  8
0
 62
7
  6
CONTINUOUS
 10
106.9094603856
 20
106.9641558791
  0
SEQEND
  0
POLYLINE
  8
0
 62
7
  6
CONTINUOUS
 66
1
 70
0
  0
VERTEX
  8
0
 62
7
  6
CONTINUOUS
 10
106.8740040606
 20
110.8266110766
  0
VERTEX
  8
0
 62
7
  6
CONTINUOUS
 10
106.8115732124
 20
111.0611955365
  0
VERTEX
  8
0
 62
7
  6
CONTINUOUS
 10
106.7863679374
 20
111.1589970152
  0
VERTEX
  8
0
 62
7
  6
CONTINUOUS
 10
106.7661043903
 20
111.2434518041
  0
VERTEX
  8
0
 62
7
  6
CONTINUOUS
 10
106.7512399307
 20
111.3147090316
  0
VERTEX
  8
0
 62
7
  6
CONTINUOUS
 10
106.7421581543
 20
111.3727572053
  0
VERTEX
  8
0
 62
7
  6
CONTINUOUS
 10
106.7390895171
 20
111.4178648998
  0
SEQEND
  0
LINE
  8
0
 62
7
  6
CONTINUOUS
 10
106.9094603532
 20
110.6907323566
 11
106.8740040606
 21
110.8266110766
  0
POLYLINE
  8
0
 62
7
  6
CONTINUOUS
 66
1
 70
0
  0
VERTEX
  8
0
 62
7
  6
CONTINUOUS
 10
106.9094604021
 20
110.6907321551
  0
VERTEX
  8
0
 62
7
  6
CONTINUOUS
 10
106.9444467463
 20
110.5433303268
  0
VERTEX
  8
0
 62
7
  6
CONTINUOUS
 10
106.9761870243
 20
110.3867956123
  0
VERTEX
  8
0
 62
7
  6
CONTINUOUS
 10
107.0045228049
 20
110.2221444049
  0
VERTEX
  8
0
 62
7
  6
CONTINUOUS
 10
107.0293243715
 20
110.0503836249
  0
VERTEX
  8
0
 62
7
  6
CONTINUOUS
 10
107.0504831525
 20
109.8725284332
  0
VERTEX
  8
0
 62
7
  6
CONTINUOUS
 10
107.0679102989
 20
109.6895974387
  0
VERTEX
  8
0
 62
7
  6
CONTINUOUS
 10
107.0815353684
 20
109.50260847
  0
VERTEX
  8
0
 62
7
  6
CONTINUOUS
 10
107.0913049147
 20
109.3125781519
  0
VERTEX
  8
0
 62
7
  6
CONTINUOUS
 10
107.0971814554
 20
109.1205229403
  0
VERTEX
  8
0
 62
7
  6
CONTINUOUS
 10
107.0991428983
 20
108.9274440518
  0
SEQEND
  0
POLYLINE
  8
0
 62
7
  6
CONTINUOUS
 66
1
 70
0
  0
VERTEX
  8
0
 62
7
  6
CONTINUOUS
 10
112.3290361359
 20
108.7274440518
  0
VERTEX
  8
0
 62
7
  6
CONTINUOUS
 10
112.3314577484
 20
108.5129446705
  0
VERTEX
  8
0
 62
7
  6
CONTINUOUS
 10
112.3387106822
 20
108.299850265
  0
VERTEX
  8
0
 62
7
  6
CONTINUOUS
 10
112.3507611424
 20
108.0895347738
  0
VERTEX
  8
0
 62
7
  6
CONTINUOUS
 10
112.3675515668
 20
107.8833941436
  0
VERTEX
  8
0
 62
7
  6
CONTINUOUS
 10
112.3889995955
 20
107.6828237475
  0
VERTEX
  8
0
 62
7
  6
CONTINUOUS
 10
112.4149959896
 20
107.4892209196
  0
VERTEX
  8
0
 62
7
  6
CONTINUOUS
 10
112.4454023969
 20
107.3039802535
  0
VERTEX
  8
0
 62
7
  6
CONTINUOUS
 10
112.4800488912
 20
107.128486739
  0
VERTEX
  8
0
 62
7
  6
CONTINUOUS
 10
112.5187186835
 20
106.9641557548
  0
SEQEND
  0
LINE
  8
0
 62
7
  6
CONTINUOUS
 10
112.3290361359
 20
108.9274440518
 11
112.3290361359
 21
108.7274440518
  0
LINE
  8
0
 62
7
  6
CONTINUOUS
 10
112.6890895171
 20
103.0774440518
 11
112.6890895171
 21
106.3415479937
  0
LINE
  8
0
 62
7
  6
CONTINUOUS
 10
112.6890895171
 20
111.3133401099
 11
112.6890895171
 21
114.5774440518
  0
POLYLINE
  8
0
 62
7
  6
CONTINUOUS
 66
1
 70
0
  0
VERTEX
  8
0
 62
7
  6
CONTINUOUS
 10
112.6890895171
 20
111.4178648998
  0
VERTEX
  8
0
 62
7
  6
CONTINUOUS
 10
112.6850769312
 20
111.3651859807
  0
VERTEX
  8
0
 62
7
  6
CONTINUOUS
 10
112.673230294
 20
111.2955095972
  0
VERTEX
  8
0
 62
7
  6
CONTINUOUS
 10
112.6540115532
 20
111.20881693
  0
VERTEX
  8
0
 62
7
  6
CONTINUOUS
 10
112.6280040959
 20
111.1048487032
  0
VERTEX
  8
0
 62
7
  6
CONTINUOUS
 10
112.595955167
 20
110.9833516811
  0
VERTEX
  8
0
 62
7
  6
CONTINUOUS
 10
112.5590375363
 20
110.8449585146
  0
VERTEX
  8
0
 62
7
  6
CONTINUOUS
 10
112.5187185682
 20
110.6907319034
  0
SEQEND
  0
POLYLINE
  8
0
 62
7
  6
CONTINUOUS
 66
1
 70
0
  0
VERTEX
  8
0
 62
7
  6
CONTINUOUS
 10
112.6890895171
 20
111.3133401099
  0
VERTEX
  8
0
 62
7
  6
CONTINUOUS
 10
112.6830970413
 20
111.2407072658
  0
VERTEX
  8
0
 62
7
  6
CONTINUOUS
 10
112.6650001584
 20
111.1521782298
  0
VERTEX
  8
0
 62
7
  6
CONTINUOUS
 10
112.6349635533
 20
111.0472280633
  0
VERTEX
  8
0
 62
7
  6
CONTINUOUS
 10
112.5932339457
 20
110.924510658
  0
VERTEX
  8
0
 62
7
  6
CONTINUOUS
 10
112.5483993192
 20
110.8042656037
  0
SEQEND
  0
POLYLINE
  8
0
 62
7
  6
CONTINUOUS
 66
1
 70
0
  0
VERTEX
  8
0
 62
7
  6
CONTINUOUS
 10
112.5187186294
 20
110.6907321569
  0
VERTEX
  8
0
 62
7
  6
CONTINUOUS
 10
112.4800487956
 20
110.5264009211
  0
VERTEX
  8
0
 62
7
  6
CONTINUOUS
 10
112.4454022582
 20
110.3509070808
  0
VERTEX
  8
0
 62
7
  6
CONTINUOUS
 10
112.4149958097
 20
110.1656659754
  0
VERTEX
  8
0
 62
7
  6
CONTINUOUS
 10
112.388999408
 20
109.9720627978
  0
VERTEX
  8
0
 62
7
  6
CONTINUOUS
 10
112.3675514055
 20
109.7714922438
  0
VERTEX
  8
0
 62
7
  6
CONTINUOUS
 10
112.3507610261
 20
109.5653516499
  0
VERTEX
  8
0
 62
7
  6
CONTINUOUS
 10
112.338710618
 20
109.3550364292
  0
VERTEX
  8
0
 62
7
  6
CONTINUOUS
 10
112.3314577289
 20
109.1419425725
  0
VERTEX
  8
0
 62
7
  6
CONTINUOUS
 10
112.3290361359
 20
108.9274440518
  0
SEQEND
  0
POLYLINE
  8
0
 62
7
  6
CONTINUOUS
 66
1
 70
0
  0
VERTEX
  8
0
 62
7
  6
CONTINUOUS
 10
112.548402574
 20
106.8506100344
  0
VERTEX
  8
0
 62
7
  6
CONTINUOUS
 10
112.5931847219
 20
106.7305144814
  0
VERTEX
  8
0
 62
7
  6
CONTINUOUS
 10
112.6349346466
 20
106.6077514049
  0
VERTEX
  8
0
 62
7
  6
CONTINUOUS
 10
112.6649872064
 20
106.502761754
  0
VERTEX
  8
0
 62
7
  6
CONTINUOUS
 10
112.6830938951
 20
106.4142018745
  0
VERTEX
  8
0
 62
7
  6
CONTINUOUS
 10
112.6890895171
 20
106.3415479937
  0
SEQEND
  0
POLYLINE
  8
0
 62
7
  6
CONTINUOUS
 66
1
 70
0
  0
VERTEX
  8
0
 62
7
  6
CONTINUOUS
 10
112.518718796
 20
106.9641552897
  0
VERTEX
  8
0
 62
7
  6
CONTINUOUS
 10
112.559037424
 20
106.8099300122
  0
VERTEX
  8
0
 62
7
  6
CONTINUOUS
 10
112.5959548896
 20
106.671537462
  0
VERTEX
  8
0
 62
7
  6
CONTINUOUS
 10
112.6280034683
 20
106.5500418252
  0
VERTEX
  8
0
 62
7
  6
CONTINUOUS
 10
112.6540108145
 20
106.4460742714
  0
VERTEX
  8
0
 62
7
  6
CONTINUOUS
 10
112.6732297494
 20
106.3593812313
  0
VERTEX
  8
0
 62
7
  6
CONTINUOUS
 10
112.6850768725
 20
106.2897025722
  0
VERTEX
  8
0
 62
7
  6
CONTINUOUS
 10
112.6890895171
 20
106.2370232039
  0
SEQEND
  0
ARC
  8
0
 62
7
  6
CONTINUOUS
 10
54.6130895171
 20
172.3662520612
 40
5.0
 50
180.0
 51
195.0
  0
ARC
  8
0
 62
7
  6
CONTINUOUS
 10
37.6130895171
 20
172.3662520612
 40
5.0
 50
345.0
 51
360.0
  0
ARC
  8
0
 62
7
  6
CONTINUOUS
 10
50.3130895171
 20
172.3662520612
 40
5.0
 50
345.0
 51
360.0
  0
ARC
  8
0
 62
7
  6
CONTINUOUS
 10
41.6630895171
 20
172.3662520612
 40
5.0
 50
180.0
 51
195.0
  0
ARC
  8
0
 62
7
  6
CONTINUOUS
 10
38.160795545
 20
169.0162520613
 40
0.75
 50
195.0
 51
270.0
  0
ARC
  8
0
 62
7
  6
CONTINUOUS
 10
41.1153834892
 20
169.0162520613
 40
0.75
 50
270.0
 51
345.0
  0
ARC
  8
0
 62
7
  6
CONTINUOUS
 10
51.110795545
 20
169.0162520613
 40
0.75
 50
195.0
 51
270.0
  0
ARC
  8
0
 62
7
  6
CONTINUOUS
 10
53.8153834892
 20
169.0162520613
 40
0.75
 50
270.0
 51
345.0
  0
ARC
  8
SURFACE
 62
7
  6
CONTINUOUS
 10
47.6130895171
 20
180.2642520612
 40
5.0
 50
165.0
 51
172.3942429935
  0
ARC
  8
SURFACE
 62
7
  6
CONTINUOUS
 10
47.6130895171
 20
180.2642520612
 40
5.0
 50
172.4999091736
 51
180.0
  0
ARC
  8
0
 62
7
  6
CONTINUOUS
 10
44.6130895171
 20
180.2642520612
 40
5.0
 50
0.0
 51
15.0
  0
ARC
  8
SURFACE
 62
7
  6
CONTINUOUS
 10
44.6130895171
 20
180.2642520612
 40
5.0
 50
0.0
 51
7.3942429912
  0
ARC
  8
SURFACE
 62
7
  6
CONTINUOUS
 10
44.6130895171
 20
180.2642520612
 40
5.0
 50
7.4999091736
 51
15.0
  0
ARC
  8
0
 62
7
  6
CONTINUOUS
 10
47.6130895171
 20
180.2642520612
 40
5.0
 50
165.0
 51
180.0
  0
ARC
  8
0
 62
7
  6
CONTINUOUS
 10
39.1630895171
 20
182.7142520612
 40
2.5
 50
90.0
 51
180.0
  0
ARC
  8
0
 62
7
  6
CONTINUOUS
 10
47.4814355747
 20
185.0142520612
 40
1.0
 50
15.0
 51
90.0
  0
ARC
  8
0
 62
7
  6
CONTINUOUS
 10
44.7447434595
 20
185.0142520612
 40
1.0
 50
90.0
 51
165.0
  0
ARC
  8
SURFACE
 62
7
  6
CONTINUOUS
 10
39.4880895171
 20
181.6042520612
 40
0.9925400392
 50
167.7851354052
 51
180.0
  0
ARC
  8
SURFACE
 62
7
  6
CONTINUOUS
 10
39.6880895171
 20
181.6042520612
 40
0.9925400392
 50
0.0
 51
12.2148645948
  0
ARC
  8
0
 62
7
  6
CONTINUOUS
 10
67.3130895171
 20
172.3662520612
 40
5.0
 50
180.0
 51
195.0
  0
ARC
  8
0
 62
7
  6
CONTINUOUS
 10
63.0130895171
 20
172.3662520612
 40
5.0
 50
345.0
 51
360.0
  0
ARC
  8
0
 62
7
  6
CONTINUOUS
 10
63.810795545
 20
169.0162520613
 40
0.75
 50
195.0
 51
270.0
  0
ARC
  8
0
 62
7
  6
CONTINUOUS
 10
66.5153834892
 20
169.0162520613
 40
0.75
 50
270.0
 51
345.0
  0
ARC
  8
0
 62
7
  6
CONTINUOUS
 10
69.9890895171
 20
180.2642520612
 40
5.0
 50
0.0
 51
15.0
  0
ARC
  8
SURFACE
 62
7
  6
CONTINUOUS
 10
60.3130895171
 20
180.2642520612
 40
5.0
 50
165.0
 51
172.3942429898
  0
ARC
  8
SURFACE
 62
7
  6
CONTINUOUS
 10
60.3130895171
 20
180.2642520612
 40
5.0
 50
172.4999091736
 51
180.0
  0
ARC
  8
SURFACE
 62
7
  6
CONTINUOUS
 10
73.0130895171
 20
180.2642520612
 40
5.0
 50
165.0
 51
172.3942429923
  0
ARC
  8
SURFACE
 62
7
  6
CONTINUOUS
 10
73.0130895171
 20
180.2642520612
 40
5.0
 50
172.4999091736
 51
180.0
  0
ARC
  8
SURFACE
 62
7
  6
CONTINUOUS
 10
57.3130895171
 20
180.2642520612
 40
5.0
 50
0.0
 51
7.3942429919
  0
ARC
  8
SURFACE
 62
7
  6
CONTINUOUS
 10
57.3130895171
 20
180.2642520612
 40
5.0
 50
7.4999091736
 51
15.0
  0
ARC
  8
0
 62
7
  6
CONTINUOUS
 10
57.3130895171
 20
180.2642520612
 40
5.0
 50
0.0
 51
15.0
  0
ARC
  8
0
 62
7
  6
CONTINUOUS
 10
60.3130895171
 20
180.2642520612
 40
5.0
 50
165.0
 51
180.0
  0
ARC
  8
0
 62
7
  6
CONTINUOUS
 10
73.0130895171
 20
180.2642520612
 40
5.0
 50
165.0
 51
180.0
  0
ARC
  8
0
 62
7
  6
CONTINUOUS
 10
72.8574355747
 20
185.0142520612
 40
1.0
 50
15.0
 51
90.0
  0
ARC
  8
0
 62
7
  6
CONTINUOUS
 10
60.1814355747
 20
185.0142520612
 40
1.0
 50
15.0
 51
90.0
  0
ARC
  8
0
 62
7
  6
CONTINUOUS
 10
57.4447434595
 20
185.0142520612
 40
1.0
 50
90.0
 51
165.0
  0
ARC
  8
0
 62
7
  6
CONTINUOUS
 10
70.1447434595
 20
185.0142520612
 40
1.0
 50
90.0
 51
165.0
  0
ARC
  8
0
 62
7
  6
CONTINUOUS
 10
38.2630895171
 20
190.9642520612
 40
5.0
 50
345.0
 51
360.0
  0
ARC
  8
SURFACE
 62
7
  6
CONTINUOUS
 10
50.9630895171
 20
190.9642520612
 40
5.0
 50
345.0
 51
352.3942429897
  0
ARC
  8
SURFACE
 62
7
  6
CONTINUOUS
 10
50.9630895171
 20
190.9642520612
 40
5.0
 50
352.4999091736
 51
360.0
  0
ARC
  8
SURFACE
 62
7
  6
CONTINUOUS
 10
38.2630895171
 20
190.9642520612
 40
5.0
 50
345.0
 51
352.3942429949
  0
ARC
  8
SURFACE
 62
7
  6
CONTINUOUS
 10
38.2630895171
 20
190.9642520612
 40
5.0
 50
352.4999091736
 51
360.0
  0
ARC
  8
SURFACE
 62
7
  6
CONTINUOUS
 10
53.9630895171
 20
190.9642520612
 40
5.0
 50
180.0
 51
187.3942429942
  0
ARC
  8
SURFACE
 62
7
  6
CONTINUOUS
 10
53.9630895171
 20
190.9642520612
 40
5.0
 50
187.4999091736
 51
195.0
  0
ARC
  8
0
 62
7
  6
CONTINUOUS
 10
53.9630895171
 20
190.9642520612
 40
5.0
 50
180.0
 51
195.0
  0
ARC
  8
0
 62
7
  6
CONTINUOUS
 10
50.9630895171
 20
190.9642520612
 40
5.0
 50
345.0
 51
360.0
  0
ARC
  8
0
 62
7
  6
CONTINUOUS
 10
41.1314355747
 20
186.2142520612
 40
1.0
 50
270.0
 51
345.0
  0
ARC
  8
0
 62
7
  6
CONTINUOUS
 10
51.0947434595
 20
186.2142520612
 40
1.0
 50
195.0
 51
270.0
  0
ARC
  8
0
 62
7
  6
CONTINUOUS
 10
53.8314355747
 20
186.2142520612
 40
1.0
 50
270.0
 51
345.0
  0
ARC
  8
0
 62
7
  6
CONTINUOUS
 10
48.2630895171
 20
198.8622520612
 40
5.0
 50
165.0
 51
180.0
  0
ARC
  8
0
 62
7
  6
CONTINUOUS
 10
43.9630895171
 20
198.8622520612
 40
5.0
 50
0.0
 51
15.0
  0
ARC
  8
0
 62
7
  6
CONTINUOUS
 10
44.760795545
 20
202.2122520612
 40
0.75
 50
90.0
 51
165.0
  0
ARC
  8
0
 62
7
  6
CONTINUOUS
 10
47.4653834892
 20
202.2122520612
 40
0.75
 50
15.0
 51
90.0
  0
ARC
  8
SURFACE
 62
7
  6
CONTINUOUS
 10
63.6630895171
 20
190.9642520612
 40
5.0
 50
345.0
 51
352.3942429937
  0
ARC
  8
SURFACE
 62
7
  6
CONTINUOUS
 10
63.6630895171
 20
190.9642520612
 40
5.0
 50
352.4999091736
 51
360.0
  0
ARC
  8
SURFACE
 62
7
  6
CONTINUOUS
 10
66.6630895171
 20
190.9642520612
 40
5.0
 50
180.0
 51
187.3942429913
  0
ARC
  8
SURFACE
 62
7
  6
CONTINUOUS
 10
66.6630895171
 20
190.9642520612
 40
5.0
 50
187.4999091736
 51
195.0
  0
ARC
  8
0
 62
7
  6
CONTINUOUS
 10
66.6630895171
 20
190.9642520612
 40
5.0
 50
180.0
 51
195.0
  0
ARC
  8
0
 62
7
  6
CONTINUOUS
 10
63.6630895171
 20
190.9642520612
 40
5.0
 50
345.0
 51
360.0
  0
ARC
  8
0
 62
7
  6
CONTINUOUS
 10
63.7947434595
 20
186.2142520612
 40
1.0
 50
195.0
 51
270.0
  0
ARC
  8
0
 62
7
  6
CONTINUOUS
 10
66.5314355747
 20
186.2142520612
 40
1.0
 50
270.0
 51
345.0
  0
ARC
  8
0
 62
7
  6
CONTINUOUS
 10
60.9630895171
 20
198.8622520612
 40
5.0
 50
165.0
 51
180.0
  0
ARC
  8
0
 62
7
  6
CONTINUOUS
 10
56.6630895171
 20
198.8622520612
 40
5.0
 50
0.0
 51
15.0
  0
ARC
  8
0
 62
7
  6
CONTINUOUS
 10
73.6630895171
 20
198.8622520612
 40
5.0
 50
165.0
 51
180.0
  0
ARC
  8
0
 62
7
  6
CONTINUOUS
 10
69.3630895171
 20
198.8622520612
 40
5.0
 50
0.0
 51
15.0
  0
ARC
  8
0
 62
7
  6
CONTINUOUS
 10
57.460795545
 20
202.2122520612
 40
0.75
 50
90.0
 51
165.0
  0
ARC
  8
0
 62
7
  6
CONTINUOUS
 10
70.160795545
 20
202.2122520612
 40
0.75
 50
90.0
 51
165.0
  0
ARC
  8
0
 62
7
  6
CONTINUOUS
 10
60.1653834892
 20
202.2122520612
 40
0.75
 50
15.0
 51
90.0
  0
ARC
  8
0
 62
7
  6
CONTINUOUS
 10
72.8653834892
 20
202.2122520612
 40
0.75
 50
15.0
 51
90.0
  0
ARC
  8
0
 62
7
  6
CONTINUOUS
 10
88.3890895171
 20
172.3662520612
 40
5.0
 50
345.0
 51
360.0
  0
ARC
  8
0
 62
7
  6
CONTINUOUS
 10
92.6890895171
 20
172.3662520612
 40
5.0
 50
180.0
 51
195.0
  0
ARC
  8
0
 62
7
  6
CONTINUOUS
 10
75.6890895171
 20
172.3662520612
 40
5.0
 50
345.0
 51
360.0
  0
ARC
  8
0
 62
7
  6
CONTINUOUS
 10
79.9890895171
 20
172.3662520612
 40
5.0
 50
180.0
 51
195.0
  0
ARC
  8
0
 62
7
  6
CONTINUOUS
 10
76.486795545
 20
169.0162520613
 40
0.75
 50
195.0
 51
270.0
  0
ARC
  8
0
 62
7
  6
CONTINUOUS
 10
79.1913834892
 20
169.0162520613
 40
0.75
 50
270.0
 51
345.0
  0
ARC
  8
0
 62
7
  6
CONTINUOUS
 10
89.186795545
 20
169.0162520613
 40
0.75
 50
195.0
 51
270.0
  0
ARC
  8
0
 62
7
  6
CONTINUOUS
 10
91.8913834892
 20
169.0162520613
 40
0.75
 50
270.0
 51
345.0
  0
ARC
  8
0
 62
7
  6
CONTINUOUS
 10
82.6890895171
 20
180.2642520612
 40
5.0
 50
0.0
 51
15.0
  0
ARC
  8
0
 62
7
  6
CONTINUOUS
 10
85.6890895171
 20
180.2642520612
 40
5.0
 50
165.0
 51
180.0
  0
ARC
  8
0
 62
7
  6
CONTINUOUS
 10
85.5574355747
 20
185.0142520612
 40
1.0
 50
15.0
 51
90.0
  0
ARC
  8
0
 62
7
  6
CONTINUOUS
 10
82.8207434595
 20
185.0142520612
 40
1.0
 50
90.0
 51
165.0
  0
ARC
  8
0
 62
7
  6
CONTINUOUS
 10
101.0890895171
 20
172.3662520612
 40
5.0
 50
345.0
 51
360.0
  0
ARC
  8
0
 62
7
  6
CONTINUOUS
 10
105.3890895171
 20
172.3662520612
 40
5.0
 50
180.0
 51
195.0
  0
ARC
  8
0
 62
7
  6
CONTINUOUS
 10
101.886795545
 20
169.0162520613
 40
0.75
 50
195.0
 51
270.0
  0
ARC
  8
0
 62
7
  6
CONTINUOUS
 10
104.5913834892
 20
169.0162520613
 40
0.75
 50
270.0
 51
345.0
  0
ARC
  8
0
 62
7
  6
CONTINUOUS
 10
95.3890895171
 20
180.2642520612
 40
5.0
 50
0.0
 51
15.0
  0
ARC
  8
0
 62
7
  6
CONTINUOUS
 10
111.0890895171
 20
180.2642520612
 40
5.0
 50
165.0
 51
180.0
  0
ARC
  8
0
 62
7
  6
CONTINUOUS
 10
98.3890895171
 20
180.2642520612
 40
5.0
 50
165.0
 51
180.0
  0
ARC
  8
0
 62
7
  6
CONTINUOUS
 10
108.2207434595
 20
185.0142520612
 40
1.0
 50
90.0
 51
165.0
  0
ARC
  8
0
 62
7
  6
CONTINUOUS
 10
98.2574355747
 20
185.0142520612
 40
1.0
 50
15.0
 51
90.0
  0
ARC
  8
0
 62
7
  6
CONTINUOUS
 10
95.5207434595
 20
185.0142520612
 40
1.0
 50
90.0
 51
165.0
  0
ARC
  8
SURFACE
 62
7
  6
CONTINUOUS
 10
79.3630895171
 20
190.9642520612
 40
5.0
 50
180.0
 51
187.394242992
  0
ARC
  8
SURFACE
 62
7
  6
CONTINUOUS
 10
79.3630895171
 20
190.9642520612
 40
5.0
 50
187.4999091736
 51
195.0
  0
ARC
  8
0
 62
7
  6
CONTINUOUS
 10
76.3390895171
 20
190.9642520612
 40
5.0
 50
345.0
 51
360.0
  0
ARC
  8
0
 62
7
  6
CONTINUOUS
 10
92.0390895171
 20
190.9642520612
 40
5.0
 50
180.0
 51
195.0
  0
ARC
  8
0
 62
7
  6
CONTINUOUS
 10
89.0390895171
 20
190.9642520612
 40
5.0
 50
345.0
 51
360.0
  0
ARC
  8
0
 62
7
  6
CONTINUOUS
 10
79.3630895171
 20
190.9642520612
 40
5.0
 50
180.0
 51
195.0
  0
ARC
  8
0
 62
7
  6
CONTINUOUS
 10
89.1707434595
 20
186.2142520612
 40
1.0
 50
195.0
 51
270.0
  0
ARC
  8
0
 62
7
  6
CONTINUOUS
 10
91.9074355747
 20
186.2142520612
 40
1.0
 50
270.0
 51
345.0
  0
ARC
  8
0
 62
7
  6
CONTINUOUS
 10
79.2074355747
 20
186.2142520612
 40
1.0
 50
270.0
 51
345.0
  0
ARC
  8
0
 62
7
  6
CONTINUOUS
 10
76.4947434595
 20
186.2142520612
 40
1.0
 50
195.0
 51
270.0
  0
ARC
  8
0
 62
7
  6
CONTINUOUS
 10
82.0390895171
 20
198.8622520612
 40
5.0
 50
0.0
 51
15.0
  0
ARC
  8
0
 62
7
  6
CONTINUOUS
 10
86.3390895171
 20
198.8622520612
 40
5.0
 50
165.0
 51
180.0
  0
ARC
  8
0
 62
7
  6
CONTINUOUS
 10
82.836795545
 20
202.2122520612
 40
0.75
 50
90.0
 51
165.0
  0
ARC
  8
0
 62
7
  6
CONTINUOUS
 10
85.5413834892
 20
202.2122520612
 40
0.75
 50
15.0
 51
90.0
  0
ARC
  8
0
 62
7
  6
CONTINUOUS
 10
104.7390895171
 20
190.9642520612
 40
5.0
 50
180.0
 51
195.0
  0
ARC
  8
0
 62
7
  6
CONTINUOUS
 10
101.7390895171
 20
190.9642520612
 40
5.0
 50
345.0
 51
360.0
  0
ARC
  8
0
 62
7
  6
CONTINUOUS
 10
110.1890895171
 20
188.5142520612
 40
2.5
 50
270.0
 51
360.0
  0
ARC
  8
0
 62
7
  6
CONTINUOUS
 10
101.8707434595
 20
186.2142520612
 40
1.0
 50
195.0
 51
270.0
  0
ARC
  8
0
 62
7
  6
CONTINUOUS
 10
104.6074355747
 20
186.2142520612
 40
1.0
 50
270.0
 51
345.0
  0
ARC
  8
0
 62
7
  6
CONTINUOUS
 10
109.6640895171
 20
189.6242520612
 40
0.9925400392
 50
180.0
 51
192.2148645948
  0
ARC
  8
0
 62
7
  6
CONTINUOUS
 10
109.8640895171
 20
189.6242520612
 40
0.9925400392
 50
347.7851354052
 51
360.0
  0
ARC
  8
0
 62
7
  6
CONTINUOUS
 10
94.7390895171
 20
198.8622520612
 40
5.0
 50
0.0
 51
15.0
  0
ARC
  8
0
 62
7
  6
CONTINUOUS
 10
111.7390895171
 20
198.8622520612
 40
5.0
 50
165.0
 51
180.0
  0
ARC
  8
0
 62
7
  6
CONTINUOUS
 10
99.0390895171
 20
198.8622520612
 40
5.0
 50
165.0
 51
180.0
  0
ARC
  8
0
 62
7
  6
CONTINUOUS
 10
107.6890895171
 20
198.8622520612
 40
5.0
 50
0.0
 51
15.0
  0
ARC
  8
0
 62
7
  6
CONTINUOUS
 10
95.536795545
 20
202.2122520612
 40
0.75
 50
90.0
 51
165.0
  0
ARC
  8
0
 62
7
  6
CONTINUOUS
 10
108.236795545
 20
202.2122520612
 40
0.75
 50
90.0
 51
165.0
  0
ARC
  8
0
 62
7
  6
CONTINUOUS
 10
98.2413834892
 20
202.2122520612
 40
0.75
 50
15.0
 51
90.0
  0
ARC
  8
0
 62
7
  6
CONTINUOUS
 10
111.1913834892
 20
202.2122520612
 40
0.75
 50
15.0
 51
90.0
  0
ARC
  8
0
 62
7
  6
CONTINUOUS
 10
150.0909893993
 20
184.4642520612
 40
0.75
 50
90.0
 51
180.0
  0
ARC
  8
0
 62
7
  6
CONTINUOUS
 10
153.6743688141
 20
168.0166166501
 40
0.5
 50
76.8168039604
 51
89.2209804147
  0
ARC
  8
SURFACE
 62
7
  6
CONTINUOUS
 10
153.7409893993
 20
172.9161637411
 40
4.4
 50
185.6416587738
 51
188.4506814641
  0
ARC
  8
SURFACE
 62
7
  6
CONTINUOUS
 10
153.7409893993
 20
172.9161637411
 40
4.4
 50
180.1869836152
 51
183.4774708771
  0
ARC
  8
SURFACE
 62
7
  6
CONTINUOUS
 10
153.7409893993
 20
172.9161637411
 40
4.4
 50
188.6658113371
 51
191.7435502973
  0
ARC
  8
SURFACE
 62
7
  6
CONTINUOUS
 10
153.7409893993
 20
172.9161637411
 40
4.4
 50
192.7389301592
 51
195.3394501212
  0
ARC
  8
SURFACE
 62
7
  6
CONTINUOUS
 10
153.7409893993
 20
172.9161637411
 40
4.4
 50
195.9652153903
 51
199.1867774658
  0
ARC
  8
SURFACE
 62
7
  6
CONTINUOUS
 10
153.7409893993
 20
172.9161637411
 40
4.4
 50
199.857677765
 51
203.1031725073
  0
ARC
  8
SURFACE
 62
7
  6
CONTINUOUS
 10
153.7409893993
 20
172.9161637411
 40
4.4
 50
203.1863596059
 51
210.3753185117
  0
ARC
  8
0
 62
7
  6
CONTINUOUS
 10
153.7409893993
 20
172.9161637411
 40
4.4
 50
180.0
 51
269.2209804147
  0
ARC
  8
SURFACE
 62
7
  6
CONTINUOUS
 10
155.7409893993
 20
172.9142520612
 40
2.55
 50
180.0
 51
270.0
  0
ARC
  8
SURFACE
 62
7
  6
CONTINUOUS
 10
155.7409893993
 20
181.8142520612
 40
2.55
 50
90.0
 51
180.0
  0
ARC
  8
0
 62
7
  6
CONTINUOUS
 10
153.7409893993
 20
198.3123403814
 40
4.4
 50
90.7790195853
 51
180.0
  0
ARC
  8
0
 62
7
  6
CONTINUOUS
 10
153.6743688141
 20
203.2118874724
 40
0.5
 50
270.7790195853
 51
283.1831960396
  0
ARC
  8
SURFACE
 62
7
  6
CONTINUOUS
 10
155.7409893993
 20
189.4142520612
 40
2.55
 50
180.0
 51
270.0
  0
ARC
  8
SURFACE
 62
7
  6
CONTINUOUS
 10
155.7409893993
 20
198.3142520612
 40
2.55
 50
90.0
 51
180.0
  0
ARC
  8
SURFACE
 62
7
  6
CONTINUOUS
 10
155.9409893993
 20
172.9142520612
 40
2.55
 50
270.0
 51
360.0
  0
ARC
  8
0
 62
7
  6
CONTINUOUS
 10
158.0076099845
 20
168.0166166501
 40
0.5
 50
90.7790195853
 51
103.1831960396
  0
ARC
  8
SURFACE
 62
7
  6
CONTINUOUS
 10
157.9409893993
 20
172.9161637411
 40
4.4
 50
344.6618423463
 51
347.2602356602
  0
ARC
  8
SURFACE
 62
7
  6
CONTINUOUS
 10
157.9409893993
 20
172.9161637411
 40
4.4
 50
348.2622702824
 51
360.0
  0
ARC
  8
SURFACE
 62
7
  6
CONTINUOUS
 10
157.9409893993
 20
172.9161637411
 40
4.4
 50
340.8232898959
 51
344.0345836983
  0
ARC
  8
SURFACE
 62
7
  6
CONTINUOUS
 10
157.9409893993
 20
172.9161637411
 40
4.4
 50
336.9075621302
 51
340.1436949114
  0
ARC
  8
SURFACE
 62
7
  6
CONTINUOUS
 10
157.9409893993
 20
172.9161637411
 40
4.4
 50
329.6246814883
 51
336.7817409358
  0
ARC
  8
0
 62
7
  6
CONTINUOUS
 10
157.9409893993
 20
172.9161637411
 40
4.4
 50
270.7790195853
 51
360.0
  0
ARC
  8
0
 62
7
  6
CONTINUOUS
 10
155.8409893993
 20
177.2662520612
 40
9.0
 50
256.8168039604
 51
283.1831960396
  0
ARC
  8
SURFACE
 62
7
  6
CONTINUOUS
 10
155.9409893993
 20
181.8142520612
 40
2.55
 50
0.0
 51
90.0
  0
ARC
  8
0
 62
7
  6
CONTINUOUS
 10
161.5909893993
 20
184.4642520612
 40
0.75
 50
0.0
 51
90.0
  0
ARC
  8
0
 62
7
  6
CONTINUOUS
 10
155.8409893993
 20
193.9622520612
 40
9.0
 50
76.8168039604
 51
103.1831960396
  0
ARC
  8
SURFACE
 62
7
  6
CONTINUOUS
 10
155.9409893993
 20
189.4142520612
 40
2.55
 50
270.0
 51
360.0
  0
ARC
  8
SURFACE
 62
7
  6
CONTINUOUS
 10
155.9409893993
 20
198.3142520612
 40
2.55
 50
0.0
 51
90.0
  0
ARC
  8
0
 62
7
  6
CONTINUOUS
 10
157.9409893993
 20
198.3123403814
 40
4.4
 50
0.0
 51
89.2209804147
  0
ARC
  8
0
 62
7
  6
CONTINUOUS
 10
158.0076099845
 20
203.2118874724
 40
0.5
 50
256.8168039604
 51
269.2209804147
  0
ARC
  8
0
 62
7
  6
CONTINUOUS
 10
37.4130895171
 20
103.0774440518
 40
0.75
 50
180.0
 51
270.0
  0
ARC
  8
0
 62
7
  6
CONTINUOUS
 10
44.0130895171
 20
103.0774440518
 40
0.75
 50
180.0
 51
270.0
  0
ARC
  8
0
 62
7
  6
CONTINUOUS
 10
48.2130895171
 20
103.0774440518
 40
0.75
 50
270.0
 51
360.0
  0
ARC
  8
0
 62
7
  6
CONTINUOUS
 10
56.7130895171
 20
103.0774440518
 40
0.75
 50
180.0
 51
270.0
  0
ARC
  8
0
 62
7
  6
CONTINUOUS
 10
60.9130895171
 20
103.0774440518
 40
0.75
 50
270.0
 51
360.0
  0
ARC
  8
0
 62
7
  6
CONTINUOUS
 10
69.4130895171
 20
103.0774440518
 40
0.75
 50
180.0
 51
270.0
  0
ARC
  8
0
 62
7
  6
CONTINUOUS
 10
73.6130895171
 20
103.0774440518
 40
0.75
 50
270.0
 51
360.0
  0
ARC
  8
0
 62
7
  6
CONTINUOUS
 10
37.4130895171
 20
114.5774440518
 40
0.75
 50
90.0
 51
180.0
  0
ARC
  8
0
 62
7
  6
CONTINUOUS
 10
44.0130895171
 20
114.5774440518
 40
0.75
 50
90.0
 51
180.0
  0
ARC
  8
0
 62
7
  6
CONTINUOUS
 10
56.7130895171
 20
114.5774440518
 40
0.75
 50
90.0
 51
180.0
  0
ARC
  8
0
 62
7
  6
CONTINUOUS
 10
48.2130895171
 20
114.5774440518
 40
0.75
 50
0.0
 51
90.0
  0
ARC
  8
0
 62
7
  6
CONTINUOUS
 10
69.4130895171
 20
114.5774440518
 40
0.75
 50
90.0
 51
180.0
  0
ARC
  8
0
 62
7
  6
CONTINUOUS
 10
60.9130895171
 20
114.5774440518
 40
0.75
 50
0.0
 51
90.0
  0
ARC
  8
0
 62
7
  6
CONTINUOUS
 10
73.6130895171
 20
114.5774440518
 40
0.75
 50
0.0
 51
90.0
  0
ARC
  8
0
 62
7
  6
CONTINUOUS
 10
82.0890895171
 20
103.0774440518
 40
0.75
 50
180.0
 51
270.0
  0
ARC
  8
0
 62
7
  6
CONTINUOUS
 10
94.7890895171
 20
103.0774440518
 40
0.75
 50
180.0
 51
270.0
  0
ARC
  8
0
 62
7
  6
CONTINUOUS
 10
86.2890895171
 20
103.0774440518
 40
0.75
 50
270.0
 51
360.0
  0
ARC
  8
0
 62
7
  6
CONTINUOUS
 10
107.4890895171
 20
103.0774440518
 40
0.75
 50
180.0
 51
270.0
  0
ARC
  8
0
 62
7
  6
CONTINUOUS
 10
98.9890895171
 20
103.0774440518
 40
0.75
 50
270.0
 51
360.0
  0
ARC
  8
0
 62
7
  6
CONTINUOUS
 10
111.9390895171
 20
103.0774440518
 40
0.75
 50
270.0
 51
360.0
  0
ARC
  8
0
 62
7
  6
CONTINUOUS
 10
111.7153410999
 20
103.0774440518
 40
0.75
 50
240.6666666667
 51
270.0
  0
ARC
  8
0
 62
7
  6
CONTINUOUS
 10
107.8128379343
 20
103.0774440518
 40
0.75
 50
270.0
 51
299.3333333332
  0
ARC
  8
0
 62
7
  6
CONTINUOUS
 10
82.0890895171
 20
114.5774440518
 40
0.75
 50
90.0
 51
180.0
  0
ARC
  8
0
 62
7
  6
CONTINUOUS
 10
94.7890895171
 20
114.5774440518
 40
0.75
 50
90.0
 51
180.0
  0
ARC
  8
0
 62
7
  6
CONTINUOUS
 10
86.2890895171
 20
114.5774440518
 40
0.75
 50
0.0
 51
90.0
  0
ARC
  8
0
 62
7
  6
CONTINUOUS
 10
107.4890895171
 20
114.5774440518
 40
0.75
 50
90.0
 51
180.0
  0
ARC
  8
0
 62
7
  6
CONTINUOUS
 10
98.9890895171
 20
114.5774440518
 40
0.75
 50
0.0
 51
90.0
  0
ARC
  8
0
 62
7
  6
CONTINUOUS
 10
111.9390895171
 20
114.5774440518
 40
0.75
 50
0.0
 51
90.0
  0
ARC
  8
0
 62
7
  6
CONTINUOUS
 10
107.8128379343
 20
114.5774440518
 40
0.75
 50
60.6666666667
 51
90.0
  0
ARC
  8
0
 62
7
  6
CONTINUOUS
 10
111.7153410999
 20
114.5774440518
 40
0.75
 50
90.0
 51
119.3333333333
  0
ENDSEC
  0
EOF
