  0
SECTION
  2
HEADER
  9
$EXTMAX
 10
210.0
 20
297.0
 30
0.0
  9
$EXTMIN
 10
0.0
 20
0.0
 30
0.0
  9
$LIMMIN
 10
0.0
 20
0.0
  9
$LIMMAX
 10
210.0
 20
297.0
  9
$VIEWCTR
 10
105.0
 20
148.5
  9
$VIEWSIZE
 40
297.0
  9
$CLAYER
  8
0
  9
$LTSCALE
 40
19.36
  9
$CELTYPE
  6
BYLAYER
  9
$DIMSCALE
 40
1.0
  9
$DIMASZ
 40
3.5
  9
$DIMEXO
 40
2.2
  9
$DIMDLI
 40
13.376
  9
$DIMEXE
 40
6.336
  9
$DIMCEN
 40
3.168
  9
$DIMLFAC
 40
1.0
  9
$DIMBLK
  1
_FILLED
  9
$DIMTXT
 40
3.5
  9
$PDMODE
 70
3
  9
$PDSIZE
 40
0.3125
  9
$TILEMODE
 70
1
  0
ENDSEC
  0
SECTION
  2
TABLES
  0
TABLE
  2
LTYPE
 70
6
  0
LTYPE
  2
BYBLOCK
 70
0
  3

 72
65
 73
0
 40
0.0
  0
LTYPE
  2
BYLAYER
 70
0
  3

 72
65
 73
0
 40
0.0
  0
LTYPE
  2
CONTINUOUS
 70
64
  3
Solid line
 72
65
 73
0
 40
0.0
  0
LTYPE
  2
CENTER
 70
64
  3
____ _ ____ _ ____ _ ____ _ ____ _ ____ _ ____
 72
65
 73
4
 40
0.6
 49
0.375
 49
-0.075
 49
0.075
 49
-0.075
  0
LTYPE
  2
HIDDEN
 70
64
  3
- - - - - - - - - - - - - - - - - - - -
 72
65
 73
2
 40
0.2
 49
0.1
 49
-0.1
  0
LTYPE
  2
PHANTOM
 70
64
  3
_____ _ _ _____ _ _ _____ _ _ _____
 72
65
 73
6
 40
0.8
 49
0.45
 49
-0.05
 49
0.1
 49
-0.05
 49
0.1
 49
-0.05
  0
LTYPE
  2
DOT
 70
64
  3
. . . . . . . . . . . . . . . . . . . .
 72
65
 73
2
 40
0.2
 49
0.1
 49
-0.1
  0
LTYPE
  2
DASHED
 70
64
  3
- - - - - - - - - - - - - - - - - - - -
 72
65
 73
2
 40
0.2
 49
0.1
 49
-0.1
  0
ENDTAB
  0
TABLE
  2
LAYER
 70
36
  0
LAYER
  2
0
 70
0
 62
7
  6
CONTINUOUS
  0
LAYER
  2
DEFAULT_1
 70
0
 62
7
  6
CENTER
  0
LAYER
  2
DEFAULT_2
 70
0
 62
8
  6
HIDDEN
  0
LAYER
  2
DEFAULT_3
 70
0
 62
7
  6
PHANTOM
  0
LAYER
  2
1_DATUMPLANE
 70
0
 62
7
  6
CONTINUOUS
  0
LAYER
  2
AXES
 70
0
 62
7
  6
CONTINUOUS
  0
LAYER
  2
CURVE
 70
0
 62
7
  6
CONTINUOUS
  0
LAYER
  2
NOTES
 70
0
 62
7
  6
CONTINUOUS
  0
LAYER
  2
SURFACE
 70
0
 62
7
  6
CONTINUOUS
  0
ENDTAB
  0
TABLE
  2
STYLE
 70
1
  0
STYLE
  2
STANDARD
 70
0
 40
0.0
 41
0.8
 50
0.0
 71
0
 42
0.2
  3
txt
  4

  0
STYLE
  2
TEXTSTYLE_1
 70
0
 40
0.0
 41
0.8
 50
0.0
 71
0
 42
0.2
  3
gdt
  4

  0
STYLE
  2
TEXTSTYLE_2
 70
0
 40
0.0
 41
0.6
 50
0.0
 71
0
 42
0.2
  3
txt
  4

  0
STYLE
  2
TEXTSTYLE_3
 70
0
 40
0.0
 41
1.0
 50
0.0
 71
0
 42
0.2
  3
ftb_____.ttf
  4

  0
STYLE
  2
TEXTSTYLE_4
 70
0
 40
0.0
 41
1.0
 50
0.0
 71
0
 42
0.2
  3
fti_____.ttf
  4

  0
STYLE
  2
TEXTSTYLE_5
 70
0
 40
0.0
 41
1.0
 50
0.0
 71
0
 42
0.2
  3
frutiger light.ttf
  4

  0
STYLE
  2
TEXTSTYLE_6
 70
0
 40
0.0
 41
0.7
 50
0.0
 71
0
 42
0.2
  3
txt
  4

  0
STYLE
  2
TEXTSTYLE_7
 70
0
 40
0.0
 41
0.6
 50
0.0
 71
0
 42
0.2
  3
txt
  4

  0
ENDTAB
  0
ENDSEC
  0
SECTION
  2
BLOCKS
  0
BLOCK
  8
0
 62
2
  6
CONTINUOUS
  2
SYMBOL_8_BL1
 70
64
 10
173.5956734183
 20
35.5937998301
  0
TEXT
  8
0
 62
7
  6
CONTINUOUS
 10
164.6539584268
 20
30.6865562072
  7
TEXTSTYLE_4
 40
1.0655737705
  1
The brand for plastic modular belts and chains
 41
1.0
 72
0
  0
LINE
  8
0
 62
7
  6
CONTINUOUS
 10
149.5737418074
 20
36.1675703219
 11
149.5737418074
 21
34.0364227809
  0
LINE
  8
0
 62
7
  6
CONTINUOUS
 10
149.8628043005
 20
31.0454914852
 11
149.8628043005
 21
31.1422825445
  0
LINE
  8
0
 62
7
  6
CONTINUOUS
 10
149.5737418074
 20
31.1100188581
 11
149.6315543091
 21
30.9164367395
  0
LINE
  8
0
 62
7
  6
CONTINUOUS
 10
150.9671844304
 20
33.9544555678
 11
150.9671844304
 21
36.1675703219
  0
LINE
  8
0
 62
7
  6
CONTINUOUS
 10
151.8862417523
 20
32.1101932727
 11
151.8862417523
 21
30.5937998301
  0
LINE
  8
0
 62
7
  6
CONTINUOUS
 10
152.1753043074
 20
30.5937998301
 11
152.1753043074
 21
31.3358647082
  0
LINE
  8
0
 62
7
  6
CONTINUOUS
 10
152.1753043074
 20
31.4649194539
 11
152.1753043074
 21
32.1101932727
  0
LINE
  8
0
 62
7
  6
CONTINUOUS
 10
149.6315543091
 20
31.3036010218
 11
149.5737418074
 21
31.1100188581
  0
LINE
  8
0
 62
7
  6
CONTINUOUS
 10
149.9784292936
 20
30.8841730531
 11
149.8628043005
 21
31.0454914852
  0
LINE
  8
0
 62
7
  6
CONTINUOUS
 10
151.0768668626
 20
31.400392081
 11
151.1346793074
 21
31.3036010218
  0
LINE
  8
0
 62
7
  6
CONTINUOUS
 10
151.4237418626
 20
31.3036010218
 11
151.3659292523
 21
31.4326557675
  0
LINE
  8
0
 62
7
  6
CONTINUOUS
 10
152.852430332
 20
36.1675703219
 11
152.852430332
 21
34.3642916334
  0
LINE
  8
0
 62
7
  6
CONTINUOUS
 10
152.852430332
 20
33.0528162235
 11
152.852430332
 21
32.3970785186
  0
LINE
  8
0
 62
7
  6
CONTINUOUS
 10
153.2159293074
 20
31.2390736489
 11
153.2159293074
 21
30.5937998301
  0
LINE
  8
0
 62
7
  6
CONTINUOUS
 10
153.5049916972
 20
30.5937998301
 11
153.5049916972
 21
31.2390736489
  0
LINE
  8
0
 62
7
  6
CONTINUOUS
 10
149.8628043005
 20
31.1422825445
 11
149.9206168074
 21
31.2713373354
  0
LINE
  8
0
 62
7
  6
CONTINUOUS
 10
149.6315543091
 20
30.9164367395
 11
149.7471793074
 21
30.7873819712
  0
LINE
  8
0
 62
7
  6
CONTINUOUS
 10
153.1581166972
 20
31.3681283946
 11
153.2159293074
 21
31.2390736489
  0
LINE
  8
0
 62
7
  6
CONTINUOUS
 10
153.9674919177
 20
30.8841730531
 11
154.0253041972
 21
30.7551182848
  0
LINE
  8
0
 62
7
  6
CONTINUOUS
 10
153.5049916972
 20
31.2390736489
 11
153.4471794177
 21
31.400392081
  0
LINE
  8
0
 62
7
  6
CONTINUOUS
 10
153.9674919177
 20
31.4326557675
 11
153.9674919177
 21
31.3681283946
  0
LINE
  8
0
 62
7
  6
CONTINUOUS
 10
153.9674919177
 20
30.9809641124
 11
153.9674919177
 21
30.8841730531
  0
LINE
  8
0
 62
7
  6
CONTINUOUS
 10
154.245872955
 20
32.3970785186
 11
154.245872955
 21
36.1675703219
  0
LINE
  8
0
 62
7
  6
CONTINUOUS
 10
154.2565543074
 20
30.8519093441
 11
154.2565543074
 21
30.9164367395
  0
LINE
  8
0
 62
7
  6
CONTINUOUS
 10
154.5737418074
 20
36.1675703219
 11
154.5737418074
 21
32.3970785186
  0
LINE
  8
0
 62
7
  6
CONTINUOUS
 10
151.3659292523
 20
30.7873819712
 11
151.4237418626
 21
30.9164367395
  0
LINE
  8
0
 62
7
  6
CONTINUOUS
 10
155.759679528
 20
30.6905909007
 11
155.7018665869
 21
30.8519093441
  0
LINE
  8
0
 62
7
  6
CONTINUOUS
 10
155.412804528
 20
31.3681283946
 11
155.412804528
 21
31.2713373354
  0
LINE
  8
0
 62
7
  6
CONTINUOUS
 10
155.412804528
 20
31.1422825445
 11
155.412804528
 21
30.9487004259
  0
LINE
  8
0
 62
7
  6
CONTINUOUS
 10
155.7018665869
 20
30.8519093441
 11
155.7018665869
 21
31.3681283946
  0
LINE
  8
0
 62
7
  6
CONTINUOUS
 10
155.9671844304
 20
32.3970785186
 11
155.9671844304
 21
34.2003572071
  0
LINE
  8
0
 62
7
  6
CONTINUOUS
 10
155.9671844304
 20
35.511832617
 11
155.9671844304
 21
36.1675703219
  0
LINE
  8
0
 62
7
  6
CONTINUOUS
 10
156.279992028
 20
32.1101932727
 11
156.279992028
 21
31.9488748406
  0
LINE
  8
0
 62
7
  6
CONTINUOUS
 10
156.279992028
 20
31.626237886
 11
156.279992028
 21
30.5937998301
  0
LINE
  8
0
 62
7
  6
CONTINUOUS
 10
156.5690540869
 20
30.5937998301
 11
156.5690540869
 21
31.626237886
  0
LINE
  8
0
 62
7
  6
CONTINUOUS
 10
156.5690540869
 20
31.9488748406
 11
156.5690540869
 21
32.1101932727
  0
LINE
  8
0
 62
7
  6
CONTINUOUS
 10
151.1346793074
 20
30.9164367395
 11
151.0768668626
 21
30.8196456577
  0
LINE
  8
0
 62
7
  6
CONTINUOUS
 10
153.4471794177
 20
31.400392081
 11
153.3893668074
 21
31.4649194539
  0
LINE
  8
0
 62
7
  6
CONTINUOUS
 10
154.3143669177
 20
30.7873819712
 11
154.2565543074
 21
30.8519093441
  0
LINE
  8
0
 62
7
  6
CONTINUOUS
 10
155.4706168074
 20
30.6583272086
 11
155.5284290869
 21
30.5937998301
  0
LINE
  8
0
 62
7
  6
CONTINUOUS
 10
155.412804528
 20
30.7551182848
 11
155.4706168074
 21
30.6583272086
  0
LINE
  8
0
 62
7
  6
CONTINUOUS
 10
155.8174918074
 20
30.5937998301
 11
155.759679528
 21
30.6905909007
  0
LINE
  8
0
 62
7
  6
CONTINUOUS
 10
155.7018665869
 20
31.3681283946
 11
155.6440543074
 21
31.4649194539
  0
LINE
  8
0
 62
7
  6
CONTINUOUS
 10
157.0315543074
 20
31.626237886
 11
157.0315543074
 21
30.5937998301
  0
LINE
  8
0
 62
7
  6
CONTINUOUS
 10
157.320617028
 20
30.5937998301
 11
157.320617028
 21
31.3358647082
  0
LINE
  8
0
 62
7
  6
CONTINUOUS
 10
157.320617028
 20
31.4649194539
 11
157.320617028
 21
31.626237886
  0
LINE
  8
0
 62
7
  6
CONTINUOUS
 10
157.852430332
 20
34.6101932727
 11
157.852430332
 21
32.3970785186
  0
LINE
  8
0
 62
7
  6
CONTINUOUS
 10
149.7471793074
 20
31.4326557675
 11
149.6315543091
 21
31.3036010218
  0
LINE
  8
0
 62
7
  6
CONTINUOUS
 10
149.9206168074
 20
31.2713373354
 11
149.9784292936
 21
31.3358647082
  0
LINE
  8
0
 62
7
  6
CONTINUOUS
 10
149.7471793074
 20
30.7873819712
 11
149.8628043005
 21
30.7228545871
  0
LINE
  8
0
 62
7
  6
CONTINUOUS
 10
150.1518667936
 20
30.7873819712
 11
149.9784292936
 21
30.8841730531
  0
LINE
  8
0
 62
7
  6
CONTINUOUS
 10
155.3549915869
 20
31.4326557675
 11
155.412804528
 21
31.3681283946
  0
LINE
  8
0
 62
7
  6
CONTINUOUS
 10
158.3034290869
 20
31.3681283946
 11
158.361242028
 21
31.2068099625
  0
LINE
  8
0
 62
7
  6
CONTINUOUS
 10
158.6503040869
 20
31.2068099625
 11
158.5924918074
 21
31.3681283946
  0
LINE
  8
0
 62
7
  6
CONTINUOUS
 10
158.361242028
 20
31.2068099625
 11
158.361242028
 21
30.5937998301
  0
LINE
  8
0
 62
7
  6
CONTINUOUS
 10
158.6503040869
 20
30.5937998301
 11
158.6503040869
 21
31.2068099625
  0
LINE
  8
0
 62
7
  6
CONTINUOUS
 10
159.1128043074
 20
31.4326557675
 11
159.1128043074
 21
31.3681283946
  0
LINE
  8
0
 62
7
  6
CONTINUOUS
 10
159.245872955
 20
32.3970785186
 11
159.245872955
 21
34.5282260596
  0
LINE
  8
0
 62
7
  6
CONTINUOUS
 10
159.5737418074
 20
36.1675703219
 11
159.5737418074
 21
32.3970785186
  0
LINE
  8
0
 62
7
  6
CONTINUOUS
 10
154.2565543074
 20
30.9164367395
 11
154.3143669177
 21
31.0132277988
  0
LINE
  8
0
 62
7
  6
CONTINUOUS
 10
149.8628043005
 20
30.7228545871
 11
150.0362418212
 21
30.6583272086
  0
LINE
  8
0
 62
7
  6
CONTINUOUS
 10
151.3659292523
 20
31.4326557675
 11
151.1924917523
 21
31.5294468267
  0
LINE
  8
0
 62
7
  6
CONTINUOUS
 10
154.0253041972
 20
30.7551182848
 11
154.1987416972
 21
30.6583272086
  0
LINE
  8
0
 62
7
  6
CONTINUOUS
 10
153.0424918074
 20
31.4326557675
 11
153.1581166972
 21
31.3681283946
  0
LINE
  8
0
 62
7
  6
CONTINUOUS
 10
153.3893668074
 20
31.4649194539
 11
153.2737419177
 21
31.5294468267
  0
LINE
  8
0
 62
7
  6
CONTINUOUS
 10
159.1128043074
 20
30.8519093441
 11
159.228429528
 21
30.7228545871
  0
LINE
  8
0
 62
7
  6
CONTINUOUS
 10
159.4596793074
 20
30.7873819712
 11
159.401867028
 21
30.8519093441
  0
LINE
  8
0
 62
7
  6
CONTINUOUS
 10
159.1128043074
 20
31.3681283946
 11
159.228429528
 21
31.2390736489
  0
LINE
  8
0
 62
7
  6
CONTINUOUS
 10
158.5924918074
 20
31.3681283946
 11
158.534679528
 21
31.4649194539
  0
LINE
  8
0
 62
7
  6
CONTINUOUS
 10
160.9628038663
 20
30.7873819712
 11
160.9628038663
 21
30.8519093441
  0
LINE
  8
0
 62
7
  6
CONTINUOUS
 10
160.9671844304
 20
32.3970785186
 11
160.9671844304
 21
36.1675703219
  0
LINE
  8
0
 62
7
  6
CONTINUOUS
 10
154.0253041972
 20
31.4971831403
 11
153.9674919177
 21
31.4326557675
  0
LINE
  8
0
 62
7
  6
CONTINUOUS
 10
150.9034292799
 20
31.4649194539
 11
151.0768668626
 21
31.400392081
  0
LINE
  8
0
 62
7
  6
CONTINUOUS
 10
155.6440543074
 20
31.4649194539
 11
155.5284290869
 21
31.5294468267
  0
LINE
  8
0
 62
7
  6
CONTINUOUS
 10
159.4596793074
 20
31.3036010218
 11
159.401867028
 21
31.3681283946
  0
LINE
  8
0
 62
7
  6
CONTINUOUS
 10
160.615929528
 20
30.9164367395
 11
160.6737418074
 21
30.8519093441
  0
LINE
  8
0
 62
7
  6
CONTINUOUS
 10
160.9628038663
 20
30.8519093441
 11
160.8471793074
 21
30.9809641124
  0
LINE
  8
0
 62
7
  6
CONTINUOUS
 10
160.615929528
 20
31.4326557675
 11
160.6737418074
 21
31.3681283946
  0
LINE
  8
0
 62
7
  6
CONTINUOUS
 10
160.9628038663
 20
31.3681283946
 11
160.8471793074
 21
31.4971831403
  0
LINE
  8
0
 62
7
  6
CONTINUOUS
 10
154.2565543074
 20
31.3681283946
 11
154.3143669177
 21
31.4326557675
  0
LINE
  8
0
 62
7
  6
CONTINUOUS
 10
154.0831168074
 20
31.1100188581
 11
153.9674919177
 21
30.9809641124
  0
LINE
  8
0
 62
7
  6
CONTINUOUS
 10
155.412804528
 20
30.9487004259
 11
155.3549915869
 21
30.8841730531
  0
LINE
  8
0
 62
7
  6
CONTINUOUS
 10
155.3549915869
 20
30.6905909007
 11
155.412804528
 21
30.7551182848
  0
LINE
  8
0
 62
7
  6
CONTINUOUS
 10
154.1987416972
 20
30.6583272086
 11
154.3143669177
 21
30.6260635193
  0
LINE
  8
0
 62
7
  6
CONTINUOUS
 10
151.1924917523
 20
31.5294468267
 11
150.9612418074
 21
31.5939741996
  0
LINE
  8
0
 62
7
  6
CONTINUOUS
 10
154.5456166972
 20
30.7228545871
 11
154.3143669177
 21
30.7873819712
  0
LINE
  8
0
 62
7
  6
CONTINUOUS
 10
153.2737419177
 20
31.5294468267
 11
153.1003044177
 21
31.5939741996
  0
LINE
  8
0
 62
7
  6
CONTINUOUS
 10
155.5284290869
 20
31.5294468267
 11
155.3549915869
 21
31.5939741996
  0
LINE
  8
0
 62
7
  6
CONTINUOUS
 10
158.187804528
 20
31.4326557675
 11
158.3034290869
 21
31.3681283946
  0
LINE
  8
0
 62
7
  6
CONTINUOUS
 10
158.534679528
 20
31.4649194539
 11
158.4190543074
 21
31.5294468267
  0
LINE
  8
0
 62
7
  6
CONTINUOUS
 10
150.0362418212
 20
30.6583272086
 11
150.2096793212
 21
30.6260635193
  0
LINE
  8
0
 62
7
  6
CONTINUOUS
 10
150.498741835
 20
30.7228545871
 11
150.1518667936
 21
30.7873819712
  0
LINE
  8
0
 62
7
  6
CONTINUOUS
 10
152.9268669177
 20
31.4649194539
 11
153.0424918074
 21
31.4326557675
  0
LINE
  8
0
 62
7
  6
CONTINUOUS
 10
155.239367028
 20
31.4649194539
 11
155.3549915869
 21
31.4326557675
  0
LINE
  8
0
 62
7
  6
CONTINUOUS
 10
159.575304528
 20
30.7551182848
 11
159.4596793074
 21
30.7873819712
  0
LINE
  8
0
 62
7
  6
CONTINUOUS
 10
158.0721793074
 20
31.4649194539
 11
158.187804528
 21
31.4326557675
  0
LINE
  8
0
 62
7
  6
CONTINUOUS
 10
159.228429528
 20
30.7228545871
 11
159.401867028
 21
30.6583272086
  0
LINE
  8
0
 62
7
  6
CONTINUOUS
 10
158.4190543074
 20
31.5294468267
 11
158.2456168074
 21
31.5939741996
  0
LINE
  8
0
 62
7
  6
CONTINUOUS
 10
159.6331168074
 20
31.2390736489
 11
159.4596793074
 21
31.3036010218
  0
LINE
  8
0
 62
7
  6
CONTINUOUS
 10
160.442492028
 20
30.9809641124
 11
160.615929528
 21
30.9164367395
  0
LINE
  8
0
 62
7
  6
CONTINUOUS
 10
160.8471793074
 20
31.4971831403
 11
160.6737418074
 21
31.5617105132
  0
LINE
  8
0
 62
7
  6
CONTINUOUS
 10
159.228429528
 20
31.2390736489
 11
159.4596793074
 21
31.1422825445
  0
LINE
  8
0
 62
7
  6
CONTINUOUS
 10
160.8471793074
 20
30.9809641124
 11
160.615929528
 21
31.0777551716
  0
LINE
  8
0
 62
7
  6
CONTINUOUS
 10
159.401867028
 20
31.3681283946
 11
159.4596793074
 21
31.4326557675
  0
LINE
  8
0
 62
7
  6
CONTINUOUS
 10
149.8628043005
 20
31.4971831403
 11
149.7471793074
 21
31.4326557675
  0
LINE
  8
0
 62
7
  6
CONTINUOUS
 10
149.9784292936
 20
31.3358647082
 11
150.1518667936
 21
31.4326557675
  0
LINE
  8
0
 62
7
  6
CONTINUOUS
 10
152.2909293626
 20
31.5294468267
 11
152.1753043074
 21
31.4649194539
  0
LINE
  8
0
 62
7
  6
CONTINUOUS
 10
152.1753043074
 20
31.3358647082
 11
152.2909293626
 21
31.400392081
  0
LINE
  8
0
 62
7
  6
CONTINUOUS
 10
151.1924917523
 20
30.6905909007
 11
151.3659292523
 21
30.7873819712
  0
LINE
  8
0
 62
7
  6
CONTINUOUS
 10
150.2096793212
 20
30.6260635193
 11
150.5565542799
 21
30.5937998301
  0
LINE
  8
0
 62
7
  6
CONTINUOUS
 10
154.3143669177
 20
30.6260635193
 11
154.5456166972
 21
30.5937998301
  0
LINE
  8
0
 62
7
  6
CONTINUOUS
 10
152.6956168074
 20
31.4971831403
 11
152.9268669177
 21
31.4649194539
  0
LINE
  8
0
 62
7
  6
CONTINUOUS
 10
155.0081169177
 20
31.4971831403
 11
155.239367028
 21
31.4649194539
  0
LINE
  8
0
 62
7
  6
CONTINUOUS
 10
159.4596793074
 20
31.1422825445
 11
160.442492028
 21
30.9809641124
  0
LINE
  8
0
 62
7
  6
CONTINUOUS
 10
160.615929528
 20
31.0777551716
 11
159.6331168074
 21
31.2390736489
  0
LINE
  8
0
 62
7
  6
CONTINUOUS
 10
153.1003044177
 20
31.5939741996
 11
152.9268669177
 21
31.626237886
  0
LINE
  8
0
 62
7
  6
CONTINUOUS
 10
159.401867028
 20
30.6583272086
 11
159.575304528
 21
30.6260635193
  0
LINE
  8
0
 62
7
  6
CONTINUOUS
 10
158.2456168074
 20
31.5939741996
 11
158.0721793074
 21
31.626237886
  0
LINE
  8
0
 62
7
  6
CONTINUOUS
 10
160.5003043074
 20
31.4649194539
 11
160.615929528
 21
31.4326557675
  0
LINE
  8
0
 62
7
  6
CONTINUOUS
 10
160.6737418074
 20
30.8519093441
 11
160.615929528
 21
30.7873819712
  0
LINE
  8
0
 62
7
  6
CONTINUOUS
 10
159.228429528
 20
31.5294468267
 11
159.1128043074
 21
31.4326557675
  0
LINE
  8
0
 62
7
  6
CONTINUOUS
 10
154.1409294177
 20
31.5617105132
 11
154.0253041972
 21
31.4971831403
  0
LINE
  8
0
 62
7
  6
CONTINUOUS
 10
154.1987416972
 20
31.1745462761
 11
154.0831168074
 21
31.1100188581
  0
LINE
  8
0
 62
7
  6
CONTINUOUS
 10
154.3143669177
 20
31.0132277988
 11
154.4299918074
 21
31.0777551716
  0
LINE
  8
0
 62
7
  6
CONTINUOUS
 10
151.8862417523
 20
30.5937998301
 11
152.1753043074
 21
30.5937998301
  0
LINE
  8
0
 62
7
  6
CONTINUOUS
 10
153.2159293074
 20
30.5937998301
 11
153.5049916972
 21
30.5937998301
  0
LINE
  8
0
 62
7
  6
CONTINUOUS
 10
154.5456166972
 20
30.5937998301
 11
154.8924916972
 21
30.5937998301
  0
LINE
  8
0
 62
7
  6
CONTINUOUS
 10
155.5284290869
 20
30.5937998301
 11
155.8174918074
 21
30.5937998301
  0
LINE
  8
0
 62
7
  6
CONTINUOUS
 10
156.279992028
 20
30.5937998301
 11
156.5690540869
 21
30.5937998301
  0
LINE
  8
0
 62
7
  6
CONTINUOUS
 10
157.0315543074
 20
30.5937998301
 11
157.320617028
 21
30.5937998301
  0
LINE
  8
0
 62
7
  6
CONTINUOUS
 10
158.361242028
 20
30.5937998301
 11
158.6503040869
 21
30.5937998301
  0
LINE
  8
0
 62
7
  6
CONTINUOUS
 10
159.922179528
 20
30.5937998301
 11
160.269054528
 21
30.5937998301
  0
LINE
  8
0
 62
7
  6
CONTINUOUS
 10
160.269054528
 20
30.7228545871
 11
159.922179528
 21
30.7228545871
  0
LINE
  8
0
 62
7
  6
CONTINUOUS
 10
154.8924916972
 20
30.7228545871
 11
154.5456166972
 21
30.7228545871
  0
LINE
  8
0
 62
7
  6
CONTINUOUS
 10
159.401867028
 20
30.8519093441
 11
159.1128043074
 21
30.8519093441
  0
LINE
  8
0
 62
7
  6
CONTINUOUS
 10
151.4237418626
 20
30.9164367395
 11
151.1346793074
 21
30.9164367395
  0
LINE
  8
0
 62
7
  6
CONTINUOUS
 10
150.498741835
 20
31.4971831403
 11
150.9034292799
 21
31.4649194539
  0
LINE
  8
0
 62
7
  6
CONTINUOUS
 10
150.9612418074
 20
31.5939741996
 11
150.5565542799
 21
31.626237886
  0
LINE
  8
0
 62
7
  6
CONTINUOUS
 10
159.575304528
 20
30.6260635193
 11
159.922179528
 21
30.5937998301
  0
LINE
  8
0
 62
7
  6
CONTINUOUS
 10
159.922179528
 20
30.7228545871
 11
159.575304528
 21
30.7551182848
  0
LINE
  8
0
 62
7
  6
CONTINUOUS
 10
155.3549915869
 20
31.5939741996
 11
155.0081169177
 21
31.626237886
  0
LINE
  8
0
 62
7
  6
CONTINUOUS
 10
160.1534293074
 20
31.4971831403
 11
160.5003043074
 21
31.4649194539
  0
LINE
  8
0
 62
7
  6
CONTINUOUS
 10
160.5003043074
 20
31.5939741996
 11
160.1534293074
 21
31.626237886
  0
LINE
  8
0
 62
7
  6
CONTINUOUS
 10
157.840929528
 20
31.4971831403
 11
158.0721793074
 21
31.4649194539
  0
LINE
  8
0
 62
7
  6
CONTINUOUS
 10
160.6737418074
 20
31.5617105132
 11
160.5003043074
 21
31.5939741996
  0
LINE
  8
0
 62
7
  6
CONTINUOUS
 10
160.8471793074
 20
30.6905909007
 11
160.9628038663
 21
30.7873819712
  0
LINE
  8
0
 62
7
  6
CONTINUOUS
 10
155.3549915869
 20
30.8841730531
 11
155.1815540869
 21
30.7873819712
  0
LINE
  8
0
 62
7
  6
CONTINUOUS
 10
157.4362415869
 20
31.5294468267
 11
157.320617028
 21
31.4649194539
  0
LINE
  8
0
 62
7
  6
CONTINUOUS
 10
157.320617028
 20
31.3358647082
 11
157.4362415869
 21
31.400392081
  0
LINE
  8
0
 62
7
  6
CONTINUOUS
 10
150.0362418212
 20
31.5617105132
 11
149.8628043005
 21
31.4971831403
  0
LINE
  8
0
 62
7
  6
CONTINUOUS
 10
152.4643666972
 20
31.5939741996
 11
152.2909293626
 21
31.5294468267
  0
LINE
  8
0
 62
7
  6
CONTINUOUS
 10
152.2909293626
 20
31.400392081
 11
152.4643666972
 21
31.4649194539
  0
LINE
  8
0
 62
7
  6
CONTINUOUS
 10
151.0768668626
 20
30.8196456577
 11
150.9034292799
 21
30.7551182848
  0
LINE
  8
0
 62
7
  6
CONTINUOUS
 10
160.5003043074
 20
30.7551182848
 11
160.269054528
 21
30.7228545871
  0
LINE
  8
0
 62
7
  6
CONTINUOUS
 10
154.8924916972
 20
30.5937998301
 11
155.1815540869
 21
30.6260635193
  0
LINE
  8
0
 62
7
  6
CONTINUOUS
 10
160.269054528
 20
30.5937998301
 11
160.615929528
 21
30.6260635193
  0
LINE
  8
0
 62
7
  6
CONTINUOUS
 10
150.5565542799
 20
30.5937998301
 11
150.9612418074
 21
30.6260635193
  0
LINE
  8
0
 62
7
  6
CONTINUOUS
 10
150.9034292799
 20
30.7551182848
 11
150.498741835
 21
30.7228545871
  0
LINE
  8
0
 62
7
  6
CONTINUOUS
 10
154.7768668074
 20
31.1422825445
 11
155.412804528
 21
31.1422825445
  0
LINE
  8
0
 62
7
  6
CONTINUOUS
 10
155.412804528
 20
31.2713373354
 11
154.7768668074
 21
31.2713373354
  0
LINE
  8
0
 62
7
  6
CONTINUOUS
 10
151.1346793074
 20
31.3036010218
 11
151.4237418626
 21
31.3036010218
  0
LINE
  8
0
 62
7
  6
CONTINUOUS
 10
153.9674919177
 20
31.3681283946
 11
154.2565543074
 21
31.3681283946
  0
LINE
  8
0
 62
7
  6
CONTINUOUS
 10
160.6737418074
 20
31.3681283946
 11
160.9628038663
 21
31.3681283946
  0
LINE
  8
0
 62
7
  6
CONTINUOUS
 10
154.6612419177
 20
31.4971831403
 11
155.0081169177
 21
31.4971831403
  0
LINE
  8
0
 62
7
  6
CONTINUOUS
 10
159.8065543074
 20
31.4971831403
 11
160.1534293074
 21
31.4971831403
  0
LINE
  8
0
 62
7
  6
CONTINUOUS
 10
160.1534293074
 20
31.626237886
 11
159.8065543074
 21
31.626237886
  0
LINE
  8
0
 62
7
  6
CONTINUOUS
 10
158.0721793074
 20
31.626237886
 11
157.840929528
 21
31.626237886
  0
LINE
  8
0
 62
7
  6
CONTINUOUS
 10
157.320617028
 20
31.626237886
 11
157.0315543074
 21
31.626237886
  0
LINE
  8
0
 62
7
  6
CONTINUOUS
 10
156.5690540869
 20
31.626237886
 11
156.279992028
 21
31.626237886
  0
LINE
  8
0
 62
7
  6
CONTINUOUS
 10
155.0081169177
 20
31.626237886
 11
154.6612419177
 21
31.626237886
  0
LINE
  8
0
 62
7
  6
CONTINUOUS
 10
152.9268669177
 20
31.626237886
 11
152.6956168074
 21
31.626237886
  0
LINE
  8
0
 62
7
  6
CONTINUOUS
 10
156.279992028
 20
31.9488748406
 11
156.5690540869
 21
31.9488748406
  0
LINE
  8
0
 62
7
  6
CONTINUOUS
 10
156.5690540869
 20
32.1101932727
 11
156.279992028
 21
32.1101932727
  0
LINE
  8
0
 62
7
  6
CONTINUOUS
 10
152.1753043074
 20
32.1101932727
 11
151.8862417523
 21
32.1101932727
  0
LINE
  8
0
 62
7
  6
CONTINUOUS
 10
151.2130860697
 20
32.3970785186
 11
151.6256574183
 21
32.3970785186
  0
LINE
  8
0
 62
7
  6
CONTINUOUS
 10
152.852430332
 20
32.3970785186
 11
154.245872955
 21
32.3970785186
  0
LINE
  8
0
 62
7
  6
CONTINUOUS
 10
154.5737418074
 20
32.3970785186
 11
155.9671844304
 21
32.3970785186
  0
LINE
  8
0
 62
7
  6
CONTINUOUS
 10
157.852430332
 20
32.3970785186
 11
159.245872955
 21
32.3970785186
  0
LINE
  8
0
 62
7
  6
CONTINUOUS
 10
159.5737418074
 20
32.3970785186
 11
160.9671844304
 21
32.3970785186
  0
LINE
  8
0
 62
7
  6
CONTINUOUS
 10
157.6096790869
 20
31.5939741996
 11
157.4362415869
 21
31.5294468267
  0
LINE
  8
0
 62
7
  6
CONTINUOUS
 10
155.1815540869
 20
30.6260635193
 11
155.3549915869
 21
30.6905909007
  0
LINE
  8
0
 62
7
  6
CONTINUOUS
 10
160.615929528
 20
30.6260635193
 11
160.8471793074
 21
30.6905909007
  0
LINE
  8
0
 62
7
  6
CONTINUOUS
 10
160.615929528
 20
30.7873819712
 11
160.5003043074
 21
30.7551182848
  0
LINE
  8
0
 62
7
  6
CONTINUOUS
 10
159.575304528
 20
31.4649194539
 11
159.8065543074
 21
31.4971831403
  0
LINE
  8
0
 62
7
  6
CONTINUOUS
 10
157.6096790869
 20
31.4649194539
 11
157.840929528
 21
31.4971831403
  0
LINE
  8
0
 62
7
  6
CONTINUOUS
 10
154.5456166972
 20
31.1100188581
 11
154.7768668074
 21
31.1422825445
  0
LINE
  8
0
 62
7
  6
CONTINUOUS
 10
157.840929528
 20
31.626237886
 11
157.6096790869
 21
31.5939741996
  0
LINE
  8
0
 62
7
  6
CONTINUOUS
 10
154.4299918074
 20
31.4649194539
 11
154.6612419177
 21
31.4971831403
  0
LINE
  8
0
 62
7
  6
CONTINUOUS
 10
159.8065543074
 20
31.626237886
 11
159.4596793074
 21
31.5939741996
  0
LINE
  8
0
 62
7
  6
CONTINUOUS
 10
154.7768668074
 20
31.2713373354
 11
154.4299918074
 21
31.2390736489
  0
LINE
  8
0
 62
7
  6
CONTINUOUS
 10
150.5565542799
 20
31.626237886
 11
150.2096793212
 21
31.5939741996
  0
LINE
  8
0
 62
7
  6
CONTINUOUS
 10
154.6612419177
 20
31.626237886
 11
154.2565543074
 21
31.5939741996
  0
LINE
  8
0
 62
7
  6
CONTINUOUS
 10
152.0327582009
 20
33.5446195022
 11
151.3770204959
 21
33.5446195022
  0
LINE
  8
0
 62
7
  6
CONTINUOUS
 10
157.4362415869
 20
31.400392081
 11
157.6096790869
 21
31.4649194539
  0
LINE
  8
0
 62
7
  6
CONTINUOUS
 10
159.4596793074
 20
31.4326557675
 11
159.575304528
 21
31.4649194539
  0
LINE
  8
0
 62
7
  6
CONTINUOUS
 10
159.4596793074
 20
31.5939741996
 11
159.228429528
 21
31.5294468267
  0
LINE
  8
0
 62
7
  6
CONTINUOUS
 10
155.1815540869
 20
30.7873819712
 11
154.8924916972
 21
30.7228545871
  0
LINE
  8
0
 62
7
  6
CONTINUOUS
 10
152.4643666972
 20
31.4649194539
 11
152.6956168074
 21
31.4971831403
  0
LINE
  8
0
 62
7
  6
CONTINUOUS
 10
152.6956168074
 20
31.626237886
 11
152.4643666972
 21
31.5939741996
  0
LINE
  8
0
 62
7
  6
CONTINUOUS
 10
150.2674918074
 20
31.4649194539
 11
150.498741835
 21
31.4971831403
  0
LINE
  8
0
 62
7
  6
CONTINUOUS
 10
156.7868565615
 20
35.0200293383
 11
157.4425942664
 21
35.0200293383
  0
LINE
  8
0
 62
7
  6
CONTINUOUS
 10
154.4299918074
 20
31.0777551716
 11
154.5456166972
 21
31.1100188581
  0
LINE
  8
0
 62
7
  6
CONTINUOUS
 10
154.4299918074
 20
31.2390736489
 11
154.1987416972
 21
31.1745462761
  0
LINE
  8
0
 62
7
  6
CONTINUOUS
 10
154.3143669177
 20
31.4326557675
 11
154.4299918074
 21
31.4649194539
  0
LINE
  8
0
 62
7
  6
CONTINUOUS
 10
150.9612418074
 20
30.6260635193
 11
151.1924917523
 21
30.6905909007
  0
LINE
  8
0
 62
7
  6
CONTINUOUS
 10
154.2565543074
 20
31.5939741996
 11
154.1409294177
 21
31.5617105132
  0
LINE
  8
0
 62
7
  6
CONTINUOUS
 10
150.2096793212
 20
31.5939741996
 11
150.0362418212
 21
31.5617105132
  0
LINE
  8
0
 62
7
  6
CONTINUOUS
 10
160.9671844304
 20
36.1675703219
 11
159.5737418074
 21
36.1675703219
  0
LINE
  8
0
 62
7
  6
CONTINUOUS
 10
157.6065286927
 20
36.1675703219
 11
157.1939573441
 21
36.1675703219
  0
LINE
  8
0
 62
7
  6
CONTINUOUS
 10
155.9671844304
 20
36.1675703219
 11
154.5737418074
 21
36.1675703219
  0
LINE
  8
0
 62
7
  6
CONTINUOUS
 10
154.245872955
 20
36.1675703219
 11
152.852430332
 21
36.1675703219
  0
LINE
  8
0
 62
7
  6
CONTINUOUS
 10
150.9671844304
 20
36.1675703219
 11
149.5737418074
 21
36.1675703219
  0
LINE
  8
0
 62
7
  6
CONTINUOUS
 10
150.1518667936
 20
31.4326557675
 11
150.2674918074
 21
31.4649194539
  0
CIRCLE
  8
0
 62
7
  6
CONTINUOUS
 10
160.2704631189
 20
38.5036358957
 40
2.0901639344
  0
ARC
  8
0
 62
7
  6
CONTINUOUS
 10
151.2130860697
 20
34.0364227809
 40
1.6393442623
 50
180.0
 51
270.0
  0
ARC
  8
0
 62
7
  6
CONTINUOUS
 10
157.6065286927
 20
34.5282260596
 40
1.6393442623
 50
0.0
 51
90.0
  0
ARC
  8
0
 62
7
  6
CONTINUOUS
 10
151.6256574183
 20
33.8724883547
 40
1.4754098361
 50
270.0
 51
326.2510114041
  0
ARC
  8
0
 62
7
  6
CONTINUOUS
 10
157.1939573441
 20
34.6921604858
 40
1.4754098361
 50
90.0
 51
146.2510114041
  0
ARC
  8
0
 62
7
  6
CONTINUOUS
 10
152.0327582009
 20
34.3642916334
 40
0.8196721311
 50
270.0
 51
360.0
  0
ARC
  8
0
 62
7
  6
CONTINUOUS
 10
156.7868565615
 20
34.2003572071
 40
0.8196721311
 50
90.0
 51
180.0
  0
ARC
  8
0
 62
7
  6
CONTINUOUS
 10
151.3770204959
 20
33.9544555678
 40
0.4098360656
 50
180.0
 51
270.0
  0
ARC
  8
0
 62
7
  6
CONTINUOUS
 10
157.4425942664
 20
34.6101932727
 40
0.4098360656
 50
0.0
 51
90.0
  0
SOLID
  8
0
 62
7
  6
CONTINUOUS
 10
156.279992028
 20
31.9488752009
 11
156.279992028
 21
32.1101936845
 12
156.5690540869
 22
31.9488752009
 13
156.5690540869
 23
32.1101936845
  0
SOLID
  8
0
 62
7
  6
CONTINUOUS
 10
150.5565542799
 20
31.6262382337
 11
150.9612418074
 21
31.5939740028
 12
150.2096793212
 22
31.5939740028
 13
150.2096793212
 23
31.5939740028
  0
SOLID
  8
0
 62
7
  6
CONTINUOUS
 10
150.0362418212
 20
31.5617111435
 11
150.2096793212
 21
31.5939740028
 12
150.9612418074
 22
31.5939740028
 13
150.9612418074
 23
31.5939740028
  0
SOLID
  8
0
 62
7
  6
CONTINUOUS
 10
150.9612418074
 20
31.5939740028
 11
151.1924917523
 21
31.5294468402
 12
150.0362418212
 22
31.5617111435
 13
150.0362418212
 23
31.5617111435
  0
SOLID
  8
0
 62
7
  6
CONTINUOUS
 10
149.8628043005
 20
31.49718259
 11
150.0362418212
 21
31.5617111435
 12
151.1924917523
 22
31.5294468402
 13
151.1924917523
 23
31.5294468402
  0
SOLID
  8
0
 62
7
  6
CONTINUOUS
 10
149.8628043005
 20
31.49718259
 11
151.1924917523
 21
31.5294468402
 12
150.498741835
 22
31.49718259
 13
150.498741835
 23
31.49718259
  0
SOLID
  8
0
 62
7
  6
CONTINUOUS
 10
150.498741835
 20
31.49718259
 11
151.1924917523
 21
31.5294468402
 12
150.9034292799
 22
31.4649197501
 13
150.9034292799
 23
31.4649197501
  0
SOLID
  8
0
 62
7
  6
CONTINUOUS
 10
151.1924917523
 20
31.5294468402
 11
151.3659292523
 21
31.4326554468
 12
150.9034292799
 22
31.4649197501
 13
150.9034292799
 23
31.4649197501
  0
SOLID
  8
0
 62
7
  6
CONTINUOUS
 10
151.0768668626
 20
31.4003926599
 11
150.9034292799
 21
31.4649197501
 12
151.3659292523
 22
31.4326554468
 13
151.3659292523
 23
31.4326554468
  0
SOLID
  8
0
 62
7
  6
CONTINUOUS
 10
151.0768668626
 20
31.4003926599
 11
151.3659292523
 21
31.4326554468
 12
151.1346793074
 22
31.3036013776
 13
151.1346793074
 23
31.3036013776
  0
SOLID
  8
0
 62
7
  6
CONTINUOUS
 10
151.3659292523
 20
31.4326554468
 11
151.4237418626
 21
31.3036013776
 12
151.1346793074
 22
31.3036013776
 13
151.1346793074
 23
31.3036013776
  0
SOLID
  8
0
 62
7
  6
CONTINUOUS
 10
152.4643666972
 20
31.5939739754
 11
152.6956168074
 21
31.6262382787
 12
152.9268669177
 22
31.6262382787
 13
152.9268669177
 23
31.6262382787
  0
SOLID
  8
0
 62
7
  6
CONTINUOUS
 10
152.9268669177
 20
31.6262382787
 11
153.1003044177
 21
31.5939739754
 12
152.4643666972
 22
31.5939739754
 13
152.4643666972
 23
31.5939739754
  0
SOLID
  8
0
 62
7
  6
CONTINUOUS
 10
152.2909293626
 20
31.5294468852
 11
152.4643666972
 21
31.5939739754
 12
153.1003044177
 22
31.5939739754
 13
153.1003044177
 23
31.5939739754
  0
SOLID
  8
0
 62
7
  6
CONTINUOUS
 10
153.1003044177
 20
31.5939739754
 11
153.2737419177
 21
31.5294468852
 12
152.2909293626
 22
31.5294468852
 13
152.2909293626
 23
31.5294468852
  0
SOLID
  8
0
 62
7
  6
CONTINUOUS
 10
153.2737419177
 20
31.5294468852
 11
152.6956168074
 21
31.4971825369
 12
152.2909293626
 22
31.5294468852
 13
152.2909293626
 23
31.5294468852
  0
SOLID
  8
0
 62
7
  6
CONTINUOUS
 10
152.1753043074
 20
31.4649197951
 11
152.2909293626
 21
31.5294468852
 12
152.6956168074
 22
31.4971825369
 13
152.6956168074
 23
31.4971825369
  0
SOLID
  8
0
 62
7
  6
CONTINUOUS
 10
152.6956168074
 20
31.4971825369
 11
152.4643666972
 21
31.4649197951
 12
152.1753043074
 22
31.4649197951
 13
152.1753043074
 23
31.4649197951
  0
SOLID
  8
0
 62
7
  6
CONTINUOUS
 10
152.6956168074
 20
31.4971825369
 11
153.2737419177
 21
31.5294468852
 12
152.9268669177
 22
31.4649197951
 13
152.9268669177
 23
31.4649197951
  0
SOLID
  8
0
 62
7
  6
CONTINUOUS
 10
153.2737419177
 20
31.5294468852
 11
153.3893668074
 21
31.4649197951
 12
152.9268669177
 22
31.4649197951
 13
152.9268669177
 23
31.4649197951
  0
SOLID
  8
0
 62
7
  6
CONTINUOUS
 10
153.0424918074
 20
31.4326554468
 11
152.9268669177
 21
31.4649197951
 12
153.3893668074
 22
31.4649197951
 13
153.3893668074
 23
31.4649197951
  0
SOLID
  8
0
 62
7
  6
CONTINUOUS
 10
153.3893668074
 20
31.4649197951
 11
153.4471794177
 21
31.4003927049
 12
153.0424918074
 22
31.4326554468
 13
153.0424918074
 23
31.4326554468
  0
SOLID
  8
0
 62
7
  6
CONTINUOUS
 10
153.1581166972
 20
31.3681283566
 11
153.0424918074
 21
31.4326554468
 12
153.4471794177
 22
31.4003927049
 13
153.4471794177
 23
31.4003927049
  0
SOLID
  8
0
 62
7
  6
CONTINUOUS
 10
153.1581166972
 20
31.3681283566
 11
153.4471794177
 21
31.4003927049
 12
153.2159293074
 22
31.2390742213
 13
153.2159293074
 23
31.2390742213
  0
SOLID
  8
0
 62
7
  6
CONTINUOUS
 10
153.4471794177
 20
31.4003927049
 11
153.5049916972
 21
31.2390742213
 12
153.2159293074
 22
31.2390742213
 13
153.2159293074
 23
31.2390742213
  0
SOLID
  8
0
 62
7
  6
CONTINUOUS
 10
152.4643666972
 20
31.4649197951
 11
152.2909293626
 21
31.4003927049
 12
152.1753043074
 22
31.4649197951
 13
152.1753043074
 23
31.4649197951
  0
SOLID
  8
0
 62
7
  6
CONTINUOUS
 10
152.2909293626
 20
31.4003927049
 11
152.1753043074
 21
31.3358640533
 12
152.1753043074
 22
31.4649197951
 13
152.1753043074
 23
31.4649197951
  0
SOLID
  8
0
 62
7
  6
CONTINUOUS
 10
152.1753043074
 20
31.3358640533
 11
151.8862417523
 21
30.5938002869
 12
152.1753043074
 22
31.4649197951
 13
152.1753043074
 23
31.4649197951
  0
SOLID
  8
0
 62
7
  6
CONTINUOUS
 10
152.1753043074
 20
31.4649197951
 11
151.8862417523
 21
30.5938002869
 12
152.1753043074
 22
32.1101937295
 13
152.1753043074
 23
32.1101937295
  0
SOLID
  8
0
 62
7
  6
CONTINUOUS
 10
151.8862417523
 20
30.5938002869
 11
151.8862417523
 21
32.1101937295
 12
152.1753043074
 22
32.1101937295
 13
152.1753043074
 23
32.1101937295
  0
SOLID
  8
0
 62
7
  6
CONTINUOUS
 10
152.1753043074
 20
31.3358640533
 11
152.1753043074
 21
30.5938002869
 12
151.8862417523
 22
30.5938002869
 13
151.8862417523
 23
30.5938002869
  0
SOLID
  8
0
 62
7
  6
CONTINUOUS
 10
153.2159293074
 20
30.5938002869
 11
153.2159293074
 21
31.2390742213
 12
153.5049916972
 22
31.2390742213
 13
153.5049916972
 23
31.2390742213
  0
SOLID
  8
0
 62
7
  6
CONTINUOUS
 10
153.5049916972
 20
31.2390742213
 11
153.5049916972
 21
30.5938002869
 12
153.2159293074
 22
30.5938002869
 13
153.2159293074
 23
30.5938002869
  0
SOLID
  8
0
 62
7
  6
CONTINUOUS
 10
154.2565543074
 20
31.5939738288
 11
154.6612419177
 21
31.6262385959
 12
155.0081169177
 22
31.6262385959
 13
155.0081169177
 23
31.6262385959
  0
SOLID
  8
0
 62
7
  6
CONTINUOUS
 10
155.0081169177
 20
31.6262385959
 11
155.3549915869
 21
31.5939738288
 12
154.2565543074
 22
31.5939738288
 13
154.2565543074
 23
31.5939738288
  0
SOLID
  8
0
 62
7
  6
CONTINUOUS
 10
154.1409294177
 20
31.5617111435
 11
154.2565543074
 21
31.5939738288
 12
155.3549915869
 22
31.5939738288
 13
155.3549915869
 23
31.5939738288
  0
SOLID
  8
0
 62
7
  6
CONTINUOUS
 10
155.3549915869
 20
31.5939738288
 11
155.5284290869
 21
31.5294468402
 12
154.1409294177
 22
31.5617111435
 13
154.1409294177
 23
31.5617111435
  0
SOLID
  8
0
 62
7
  6
CONTINUOUS
 10
154.0253041972
 20
31.4971826249
 11
154.1409294177
 21
31.5617111435
 12
155.5284290869
 22
31.5294468402
 13
155.5284290869
 23
31.5294468402
  0
SOLID
  8
0
 62
7
  6
CONTINUOUS
 10
154.0253041972
 20
31.4971826249
 11
155.5284290869
 21
31.5294468402
 12
154.6612419177
 22
31.4971826249
 13
154.6612419177
 23
31.4971826249
  0
SOLID
  8
0
 62
7
  6
CONTINUOUS
 10
154.6612419177
 20
31.4971826249
 11
155.5284290869
 21
31.5294468402
 12
155.0081169177
 22
31.4971826249
 13
155.0081169177
 23
31.4971826249
  0
SOLID
  8
0
 62
7
  6
CONTINUOUS
 10
155.0081169177
 20
31.4971826249
 11
155.5284290869
 21
31.5294468402
 12
155.239367028
 22
31.4649194065
 13
155.239367028
 23
31.4649194065
  0
SOLID
  8
0
 62
7
  6
CONTINUOUS
 10
155.5284290869
 20
31.5294468402
 11
155.6440543074
 21
31.4649194065
 12
155.239367028
 22
31.4649194065
 13
155.239367028
 23
31.4649194065
  0
SOLID
  8
0
 62
7
  6
CONTINUOUS
 10
153.9674919177
 20
31.4326554138
 11
154.0253041972
 21
31.4971826249
 12
154.6612419177
 22
31.4971826249
 13
154.6612419177
 23
31.4971826249
  0
SOLID
  8
0
 62
7
  6
CONTINUOUS
 10
155.3549915869
 20
31.4326554138
 11
155.239367028
 21
31.4649194065
 12
155.6440543074
 22
31.4649194065
 13
155.6440543074
 23
31.4649194065
  0
SOLID
  8
0
 62
7
  6
CONTINUOUS
 10
155.3549915869
 20
31.4326554138
 11
155.6440543074
 21
31.4649194065
 12
155.412804528
 22
31.3681282026
 13
155.412804528
 23
31.3681282026
  0
SOLID
  8
0
 62
7
  6
CONTINUOUS
 10
155.6440543074
 20
31.4649194065
 11
155.7018665869
 21
31.3681282026
 12
155.412804528
 22
31.3681282026
 13
155.412804528
 23
31.3681282026
  0
SOLID
  8
0
 62
7
  6
CONTINUOUS
 10
155.412804528
 20
31.2713369632
 11
155.412804528
 21
31.3681282026
 12
155.7018665869
 22
31.3681282026
 13
155.7018665869
 23
31.3681282026
  0
SOLID
  8
0
 62
7
  6
CONTINUOUS
 10
155.412804528
 20
31.2713369632
 11
155.7018665869
 21
31.3681282026
 12
155.412804528
 22
31.1422827828
 13
155.412804528
 23
31.1422827828
  0
SOLID
  8
0
 62
7
  6
CONTINUOUS
 10
155.412804528
 20
31.1422827828
 11
155.7018665869
 21
31.3681282026
 12
155.412804528
 22
30.9487004259
 13
155.412804528
 23
30.9487004259
  0
SOLID
  8
0
 62
7
  6
CONTINUOUS
 10
155.7018665869
 20
31.3681282026
 11
155.7018665869
 21
30.8519086025
 12
155.412804528
 22
30.9487004259
 13
155.412804528
 23
30.9487004259
  0
SOLID
  8
0
 62
7
  6
CONTINUOUS
 10
157.6096790869
 20
31.5939736268
 11
157.840929528
 21
31.6262383465
 12
158.0721793074
 22
31.6262383465
 13
158.0721793074
 23
31.6262383465
  0
SOLID
  8
0
 62
7
  6
CONTINUOUS
 10
158.0721793074
 20
31.6262383465
 11
158.2456168074
 21
31.5939736268
 12
157.6096790869
 22
31.5939736268
 13
157.6096790869
 23
31.5939736268
  0
SOLID
  8
0
 62
7
  6
CONTINUOUS
 10
157.4362415869
 20
31.5294472848
 11
157.6096790869
 21
31.5939736268
 12
158.2456168074
 22
31.5939736268
 13
158.2456168074
 23
31.5939736268
  0
SOLID
  8
0
 62
7
  6
CONTINUOUS
 10
158.2456168074
 20
31.5939736268
 11
158.4190543074
 21
31.5294472848
 12
157.4362415869
 22
31.5294472848
 13
157.4362415869
 23
31.5294472848
  0
SOLID
  8
0
 62
7
  6
CONTINUOUS
 10
158.4190543074
 20
31.5294472848
 11
157.840929528
 21
31.4971825369
 12
157.4362415869
 22
31.5294472848
 13
157.4362415869
 23
31.5294472848
  0
SOLID
  8
0
 62
7
  6
CONTINUOUS
 10
157.320617028
 20
31.4649199103
 11
157.4362415869
 21
31.5294472848
 12
157.840929528
 22
31.4971825369
 13
157.840929528
 23
31.4971825369
  0
SOLID
  8
0
 62
7
  6
CONTINUOUS
 10
157.840929528
 20
31.4971825369
 11
157.6096790869
 21
31.4649199103
 12
157.320617028
 22
31.4649199103
 13
157.320617028
 23
31.4649199103
  0
SOLID
  8
0
 62
7
  6
CONTINUOUS
 10
157.840929528
 20
31.4971825369
 11
158.4190543074
 21
31.5294472848
 12
158.0721793074
 22
31.4649199103
 13
158.0721793074
 23
31.4649199103
  0
SOLID
  8
0
 62
7
  6
CONTINUOUS
 10
158.4190543074
 20
31.5294472848
 11
158.534679528
 21
31.4649199103
 12
158.0721793074
 22
31.4649199103
 13
158.0721793074
 23
31.4649199103
  0
SOLID
  8
0
 62
7
  6
CONTINUOUS
 10
158.187804528
 20
31.4326554468
 11
158.0721793074
 21
31.4649199103
 12
158.534679528
 22
31.4649199103
 13
158.534679528
 23
31.4649199103
  0
SOLID
  8
0
 62
7
  6
CONTINUOUS
 10
158.187804528
 20
31.4326554468
 11
158.534679528
 21
31.4649199103
 12
158.3034290869
 22
31.3681288486
 13
158.3034290869
 23
31.3681288486
  0
SOLID
  8
0
 62
7
  6
CONTINUOUS
 10
158.534679528
 20
31.4649199103
 11
158.5924918074
 21
31.3681288486
 12
158.3034290869
 22
31.3681288486
 13
158.3034290869
 23
31.3681288486
  0
SOLID
  8
0
 62
7
  6
CONTINUOUS
 10
158.361242028
 20
31.2068093799
 11
158.3034290869
 21
31.3681288486
 12
158.5924918074
 22
31.3681288486
 13
158.5924918074
 23
31.3681288486
  0
SOLID
  8
0
 62
7
  6
CONTINUOUS
 10
158.5924918074
 20
31.3681288486
 11
158.6503040869
 21
31.2068093799
 12
158.361242028
 22
31.2068093799
 13
158.361242028
 23
31.2068093799
  0
SOLID
  8
0
 62
7
  6
CONTINUOUS
 10
157.6096790869
 20
31.4649199103
 11
157.4362415869
 21
31.4003926599
 12
157.320617028
 22
31.4649199103
 13
157.320617028
 23
31.4649199103
  0
SOLID
  8
0
 62
7
  6
CONTINUOUS
 10
157.4362415869
 20
31.4003926599
 11
157.320617028
 21
31.3358640533
 12
157.320617028
 22
31.4649199103
 13
157.320617028
 23
31.4649199103
  0
SOLID
  8
0
 62
7
  6
CONTINUOUS
 10
157.320617028
 20
31.3358640533
 11
157.0315543074
 21
30.5938003547
 12
157.320617028
 22
31.4649199103
 13
157.320617028
 23
31.4649199103
  0
SOLID
  8
0
 62
7
  6
CONTINUOUS
 10
157.320617028
 20
31.4649199103
 11
157.0315543074
 21
30.5938003547
 12
157.320617028
 22
31.6262383465
 13
157.320617028
 23
31.6262383465
  0
SOLID
  8
0
 62
7
  6
CONTINUOUS
 10
157.0315543074
 20
30.5938003547
 11
157.0315543074
 21
31.6262383465
 12
157.320617028
 22
31.6262383465
 13
157.320617028
 23
31.6262383465
  0
SOLID
  8
0
 62
7
  6
CONTINUOUS
 10
157.320617028
 20
31.3358640533
 11
157.320617028
 21
30.5938003547
 12
157.0315543074
 22
30.5938003547
 13
157.0315543074
 23
30.5938003547
  0
SOLID
  8
0
 62
7
  6
CONTINUOUS
 10
158.361242028
 20
30.5938003547
 11
158.361242028
 21
31.2068093799
 12
158.6503040869
 22
31.2068093799
 13
158.6503040869
 23
31.2068093799
  0
SOLID
  8
0
 62
7
  6
CONTINUOUS
 10
158.6503040869
 20
31.2068093799
 11
158.6503040869
 21
30.5938003547
 12
158.361242028
 22
30.5938003547
 13
158.361242028
 23
30.5938003547
  0
SOLID
  8
0
 62
7
  6
CONTINUOUS
 10
159.4596793074
 20
31.5939739474
 11
159.8065543074
 21
31.6262381969
 12
160.1534293074
 22
31.6262381969
 13
160.1534293074
 23
31.6262381969
  0
SOLID
  8
0
 62
7
  6
CONTINUOUS
 10
160.1534293074
 20
31.6262381969
 11
160.5003043074
 21
31.5939739474
 12
159.4596793074
 22
31.5939739474
 13
159.4596793074
 23
31.5939739474
  0
SOLID
  8
0
 62
7
  6
CONTINUOUS
 10
159.228429528
 20
31.5294468402
 11
159.4596793074
 21
31.5939739474
 12
160.5003043074
 22
31.5939739474
 13
160.5003043074
 23
31.5939739474
  0
SOLID
  8
0
 62
7
  6
CONTINUOUS
 10
159.228429528
 20
31.5294468402
 11
160.5003043074
 21
31.5939739304
 12
160.6737418074
 22
31.5617111435
 13
160.6737418074
 23
31.5617111435
  0
SOLID
  8
0
 62
7
  6
CONTINUOUS
 10
159.228429528
 20
31.5294468402
 11
160.6737418074
 21
31.5617111435
 12
159.8065543074
 22
31.4971825592
 13
159.8065543074
 23
31.4971825592
  0
SOLID
  8
0
 62
7
  6
CONTINUOUS
 10
159.8065543074
 20
31.4971825592
 11
160.6737418074
 21
31.5617111435
 12
160.1534293074
 22
31.4971825592
 13
160.1534293074
 23
31.4971825592
  0
SOLID
  8
0
 62
7
  6
CONTINUOUS
 10
160.6737418074
 20
31.5617111435
 11
160.8471793074
 21
31.4971825592
 12
160.1534293074
 22
31.4971825592
 13
160.1534293074
 23
31.4971825592
  0
SOLID
  8
0
 62
7
  6
CONTINUOUS
 10
160.5003043074
 20
31.4649197501
 11
160.1534293074
 21
31.4971825592
 12
160.8471793074
 22
31.4971825592
 13
160.8471793074
 23
31.4971825592
  0
SOLID
  8
0
 62
7
  6
CONTINUOUS
 10
159.1128043074
 20
31.4326555427
 11
159.228429528
 21
31.5294468402
 12
159.8065543074
 22
31.4971825592
 13
159.8065543074
 23
31.4971825592
  0
SOLID
  8
0
 62
7
  6
CONTINUOUS
 10
160.5003043074
 20
31.4649197501
 11
160.8471793074
 21
31.4971825592
 12
160.615929528
 22
31.4326555427
 13
160.615929528
 23
31.4326555427
  0
SOLID
  8
0
 62
7
  6
CONTINUOUS
 10
160.615929528
 20
31.4326555427
 11
160.8471793074
 21
31.4971825592
 12
160.6737418074
 22
31.3681283005
 13
160.6737418074
 23
31.3681283005
  0
SOLID
  8
0
 62
7
  6
CONTINUOUS
 10
160.8471793074
 20
31.4971825592
 11
160.9628038663
 21
31.3681283005
 12
160.6737418074
 22
31.3681283005
 13
160.6737418074
 23
31.3681283005
  0
SOLID
  8
0
 62
7
  6
CONTINUOUS
 10
150.2674918074
 20
31.4649197501
 11
149.7471793074
 21
31.4326554237
 12
150.498741835
 22
31.4971824493
 13
150.498741835
 23
31.4971824493
  0
SOLID
  8
0
 62
7
  6
CONTINUOUS
 10
149.7471793074
 20
31.4326554237
 11
149.8628043005
 21
31.4971824493
 12
150.498741835
 22
31.4971824493
 13
150.498741835
 23
31.4971824493
  0
SOLID
  8
0
 62
7
  6
CONTINUOUS
 10
150.2674918074
 20
31.4649197501
 11
150.1518667936
 21
31.4326554237
 12
149.7471793074
 22
31.4326554237
 13
149.7471793074
 23
31.4326554237
  0
SOLID
  8
0
 62
7
  6
CONTINUOUS
 10
149.6315543091
 20
31.3036012664
 11
149.7471793074
 21
31.4326554237
 12
150.1518667936
 22
31.4326554237
 13
150.1518667936
 23
31.4326554237
  0
SOLID
  8
0
 62
7
  6
CONTINUOUS
 10
153.9674919177
 20
31.4326554237
 11
154.6612419177
 21
31.4971825369
 12
154.4299918074
 22
31.4649197501
 13
154.4299918074
 23
31.4649197501
  0
SOLID
  8
0
 62
7
  6
CONTINUOUS
 10
154.4299918074
 20
31.4649197501
 11
154.3143669177
 21
31.4326554237
 12
153.9674919177
 22
31.4326554237
 13
153.9674919177
 23
31.4326554237
  0
SOLID
  8
0
 62
7
  6
CONTINUOUS
 10
153.9674919177
 20
31.3681283335
 11
153.9674919177
 21
31.4326554237
 12
154.3143669177
 22
31.4326554237
 13
154.3143669177
 23
31.4326554237
  0
SOLID
  8
0
 62
7
  6
CONTINUOUS
 10
154.3143669177
 20
31.4326554237
 11
154.2565543074
 21
31.3681283335
 12
153.9674919177
 22
31.3681283335
 13
153.9674919177
 23
31.3681283335
  0
SOLID
  8
0
 62
7
  6
CONTINUOUS
 10
159.1128043074
 20
31.4326555528
 11
159.8065543074
 21
31.4971825369
 12
159.575304528
 22
31.4649197501
 13
159.575304528
 23
31.4649197501
  0
SOLID
  8
0
 62
7
  6
CONTINUOUS
 10
159.575304528
 20
31.4649197501
 11
159.4596793074
 21
31.4326555528
 12
159.1128043074
 22
31.4326555528
 13
159.1128043074
 23
31.4326555528
  0
SOLID
  8
0
 62
7
  6
CONTINUOUS
 10
159.1128043074
 20
31.3681284626
 11
159.1128043074
 21
31.4326555528
 12
159.4596793074
 22
31.4326555528
 13
159.4596793074
 23
31.4326555528
  0
SOLID
  8
0
 62
7
  6
CONTINUOUS
 10
159.4596793074
 20
31.4326555528
 11
159.401867028
 21
31.3681284626
 12
159.1128043074
 22
31.3681284626
 13
159.1128043074
 23
31.3681284626
  0
SOLID
  8
0
 62
7
  6
CONTINUOUS
 10
159.228429528
 20
31.2390741763
 11
159.1128043074
 21
31.3681284626
 12
159.401867028
 22
31.3681284626
 13
159.401867028
 23
31.3681284626
  0
SOLID
  8
0
 62
7
  6
CONTINUOUS
 10
149.6315543091
 20
31.3036012664
 11
150.1518667936
 21
31.4326554468
 12
149.9784292936
 22
31.3358640533
 13
149.9784292936
 23
31.3358640533
  0
SOLID
  8
0
 62
7
  6
CONTINUOUS
 10
149.9784292936
 20
31.3358640533
 11
149.9206168074
 21
31.2713369632
 12
149.6315543091
 22
31.3036012664
 13
149.6315543091
 23
31.3036012664
  0
SOLID
  8
0
 62
7
  6
CONTINUOUS
 10
149.5737418074
 20
31.1100184796
 11
149.6315543091
 21
31.3036012664
 12
149.9206168074
 22
31.2713369632
 13
149.9206168074
 23
31.2713369632
  0
SOLID
  8
0
 62
7
  6
CONTINUOUS
 10
154.4299918074
 20
31.2390741763
 11
154.7768668074
 21
31.271336924
 12
155.412804528
 22
31.271336924
 13
155.412804528
 23
31.271336924
  0
SOLID
  8
0
 62
7
  6
CONTINUOUS
 10
154.4299918074
 20
31.2390741763
 11
155.412804528
 21
31.271336924
 12
154.1987416972
 22
31.1745462761
 13
154.1987416972
 23
31.1745462761
  0
SOLID
  8
0
 62
7
  6
CONTINUOUS
 10
154.1987416972
 20
31.1745462761
 11
155.412804528
 21
31.271336924
 12
154.7768668074
 22
31.1422827436
 13
154.7768668074
 23
31.1422827436
  0
SOLID
  8
0
 62
7
  6
CONTINUOUS
 10
155.412804528
 20
31.271336924
 11
155.412804528
 21
31.1422827436
 12
154.7768668074
 22
31.1422827436
 13
154.7768668074
 23
31.1422827436
  0
SOLID
  8
0
 62
7
  6
CONTINUOUS
 10
159.228429528
 20
31.2390745501
 11
159.401867028
 21
31.3681283566
 12
159.4596793074
 22
31.3036012664
 13
159.4596793074
 23
31.3036012664
  0
SOLID
  8
0
 62
7
  6
CONTINUOUS
 10
159.4596793074
 20
31.3036012664
 11
159.6331168074
 21
31.2390745501
 12
159.228429528
 22
31.2390745501
 13
159.228429528
 23
31.2390745501
  0
SOLID
  8
0
 62
7
  6
CONTINUOUS
 10
159.4596793074
 20
31.1422827828
 11
159.228429528
 21
31.2390745501
 12
159.6331168074
 22
31.2390745501
 13
159.6331168074
 23
31.2390745501
  0
SOLID
  8
0
 62
7
  6
CONTINUOUS
 10
159.6331168074
 20
31.2390745501
 11
160.615929528
 21
31.0777556927
 12
159.4596793074
 22
31.1422827828
 13
159.4596793074
 23
31.1422827828
  0
SOLID
  8
0
 62
7
  6
CONTINUOUS
 10
160.442492028
 20
30.9809646623
 11
159.4596793074
 21
31.1422827828
 12
160.615929528
 22
31.0777556927
 13
160.615929528
 23
31.0777556927
  0
SOLID
  8
0
 62
7
  6
CONTINUOUS
 10
160.615929528
 20
31.0777556927
 11
160.8471793074
 21
30.9809646623
 12
160.442492028
 22
30.9809646623
 13
160.442492028
 23
30.9809646623
  0
SOLID
  8
0
 62
7
  6
CONTINUOUS
 10
160.615929528
 20
30.9164372091
 11
160.442492028
 21
30.9809646623
 12
160.8471793074
 22
30.9809646623
 13
160.8471793074
 23
30.9809646623
  0
SOLID
  8
0
 62
7
  6
CONTINUOUS
 10
160.615929528
 20
30.9164372091
 11
160.8471793074
 21
30.9809646623
 12
160.6737418074
 22
30.8519089441
 13
160.6737418074
 23
30.8519089441
  0
SOLID
  8
0
 62
7
  6
CONTINUOUS
 10
160.8471793074
 20
30.9809646623
 11
160.9628038663
 21
30.8519089441
 12
160.6737418074
 22
30.8519089441
 13
160.6737418074
 23
30.8519089441
  0
SOLID
  8
0
 62
7
  6
CONTINUOUS
 10
160.615929528
 20
30.7873818593
 11
160.6737418074
 21
30.8519089441
 12
160.9628038663
 22
30.8519089441
 13
160.9628038663
 23
30.8519089441
  0
SOLID
  8
0
 62
7
  6
CONTINUOUS
 10
160.9628038663
 20
30.8519089441
 11
160.9628038663
 21
30.7873818593
 12
160.615929528
 22
30.7873818593
 13
160.615929528
 23
30.7873818593
  0
SOLID
  8
0
 62
7
  6
CONTINUOUS
 10
160.5003043074
 20
30.7551187255
 11
160.615929528
 21
30.7873818593
 12
160.9628038663
 22
30.7873818593
 13
160.9628038663
 23
30.7873818593
  0
SOLID
  8
0
 62
7
  6
CONTINUOUS
 10
160.5003043074
 20
30.7551187255
 11
160.9628038663
 21
30.7873818593
 12
160.269054528
 22
30.7228547745
 13
160.269054528
 23
30.7228547745
  0
SOLID
  8
0
 62
7
  6
CONTINUOUS
 10
160.9628038663
 20
30.7873818593
 11
160.8471793074
 21
30.6905916353
 12
160.269054528
 22
30.7228547745
 13
160.269054528
 23
30.7228547745
  0
SOLID
  8
0
 62
7
  6
CONTINUOUS
 10
160.8471793074
 20
30.6905916353
 11
159.401867028
 21
30.658327332
 12
160.269054528
 22
30.7228547745
 13
160.269054528
 23
30.7228547745
  0
SOLID
  8
0
 62
7
  6
CONTINUOUS
 10
160.269054528
 20
30.7228547745
 11
159.401867028
 21
30.658327332
 12
159.922179528
 22
30.7228547745
 13
159.922179528
 23
30.7228547745
  0
SOLID
  8
0
 62
7
  6
CONTINUOUS
 10
159.401867028
 20
30.658327332
 11
159.228429528
 21
30.7228547745
 12
159.922179528
 22
30.7228547745
 13
159.922179528
 23
30.7228547745
  0
SOLID
  8
0
 62
7
  6
CONTINUOUS
 10
159.401867028
 20
30.658327332
 11
160.8471793074
 21
30.6905916353
 12
159.575304528
 22
30.6260629858
 13
159.575304528
 23
30.6260629858
  0
SOLID
  8
0
 62
7
  6
CONTINUOUS
 10
160.8471793074
 20
30.6905916353
 11
160.615929528
 21
30.6260629858
 12
159.575304528
 22
30.6260629858
 13
159.575304528
 23
30.6260629858
  0
SOLID
  8
0
 62
7
  6
CONTINUOUS
 10
159.922179528
 20
30.5938006049
 11
159.575304528
 21
30.6260629858
 12
160.615929528
 22
30.6260629858
 13
160.615929528
 23
30.6260629858
  0
SOLID
  8
0
 62
7
  6
CONTINUOUS
 10
160.615929528
 20
30.6260629858
 11
160.269054528
 21
30.5938006049
 12
159.922179528
 22
30.5938006049
 13
159.922179528
 23
30.5938006049
  0
SOLID
  8
0
 62
7
  6
CONTINUOUS
 10
149.5737418074
 20
31.1100184796
 11
149.9206168074
 21
31.2713369632
 12
149.8628043005
 22
31.1422827828
 13
149.8628043005
 23
31.1422827828
  0
SOLID
  8
0
 62
7
  6
CONTINUOUS
 10
149.8628043005
 20
31.1422827828
 11
149.8628043005
 21
31.0454914852
 12
149.5737418074
 22
31.1100184796
 13
149.5737418074
 23
31.1100184796
  0
SOLID
  8
0
 62
7
  6
CONTINUOUS
 10
149.6315543091
 20
30.9164372091
 11
149.5737418074
 21
31.1100184796
 12
149.8628043005
 22
31.0454914852
 13
149.8628043005
 23
31.0454914852
  0
SOLID
  8
0
 62
7
  6
CONTINUOUS
 10
149.8628043005
 20
31.0454914852
 11
149.9784292936
 21
30.8841729058
 12
149.6315543091
 22
30.9164372091
 13
149.6315543091
 23
30.9164372091
  0
SOLID
  8
0
 62
7
  6
CONTINUOUS
 10
149.7471793074
 20
30.7873813202
 11
149.6315543091
 21
30.9164372091
 12
149.9784292936
 22
30.8841729058
 13
149.9784292936
 23
30.8841729058
  0
SOLID
  8
0
 62
7
  6
CONTINUOUS
 10
149.9784292936
 20
30.8841729058
 11
150.1518667936
 21
30.7873813202
 12
149.7471793074
 22
30.7873813202
 13
149.7471793074
 23
30.7873813202
  0
SOLID
  8
0
 62
7
  6
CONTINUOUS
 10
149.8628043005
 20
30.7228547004
 11
149.7471793074
 21
30.7873813202
 12
150.1518667936
 22
30.7873813202
 13
150.1518667936
 23
30.7873813202
  0
SOLID
  8
0
 62
7
  6
CONTINUOUS
 10
150.1518667936
 20
30.7873813202
 11
150.498741835
 21
30.7228547004
 12
149.8628043005
 22
30.7228547004
 13
149.8628043005
 23
30.7228547004
  0
SOLID
  8
0
 62
7
  6
CONTINUOUS
 10
150.0362418212
 20
30.658327332
 11
149.8628043005
 21
30.7228547004
 12
150.498741835
 22
30.7228547004
 13
150.498741835
 23
30.7228547004
  0
SOLID
  8
0
 62
7
  6
CONTINUOUS
 10
154.0831168074
 20
31.1100184386
 11
154.1987416972
 21
31.1745462761
 12
154.7768668074
 22
31.1422827828
 13
154.7768668074
 23
31.1422827828
  0
SOLID
  8
0
 62
7
  6
CONTINUOUS
 10
154.7768668074
 20
31.1422827828
 11
154.5456166972
 21
31.1100184386
 12
154.0831168074
 22
31.1100184386
 13
154.0831168074
 23
31.1100184386
  0
SOLID
  8
0
 62
7
  6
CONTINUOUS
 10
153.9674919177
 20
30.9809642992
 11
154.0831168074
 21
31.1100184386
 12
154.5456166972
 22
31.1100184386
 13
154.5456166972
 23
31.1100184386
  0
SOLID
  8
0
 62
7
  6
CONTINUOUS
 10
154.3143669177
 20
31.0132277988
 11
153.9674919177
 21
30.9809642992
 12
154.4299918074
 22
31.0777556927
 13
154.4299918074
 23
31.0777556927
  0
SOLID
  8
0
 62
7
  6
CONTINUOUS
 10
153.9674919177
 20
30.9809642992
 11
154.5456166972
 21
31.1100184796
 12
154.4299918074
 22
31.0777556927
 13
154.4299918074
 23
31.0777556927
  0
SOLID
  8
0
 62
7
  6
CONTINUOUS
 10
154.3143669177
 20
31.0132277988
 11
154.2565543074
 21
30.9164372091
 12
153.9674919177
 22
30.9809642992
 13
153.9674919177
 23
30.9809642992
  0
SOLID
  8
0
 62
7
  6
CONTINUOUS
 10
153.9674919177
 20
30.8841729058
 11
153.9674919177
 21
30.9809642992
 12
154.2565543074
 22
30.9164372091
 13
154.2565543074
 23
30.9164372091
  0
SOLID
  8
0
 62
7
  6
CONTINUOUS
 10
154.2565543074
 20
30.9164372091
 11
154.2565543074
 21
30.8519086025
 12
153.9674919177
 22
30.8841729058
 13
153.9674919177
 23
30.8841729058
  0
SOLID
  8
0
 62
7
  6
CONTINUOUS
 10
154.0253041972
 20
30.7551187255
 11
153.9674919177
 21
30.8841729058
 12
154.2565543074
 22
30.8519086025
 13
154.2565543074
 23
30.8519086025
  0
SOLID
  8
0
 62
7
  6
CONTINUOUS
 10
155.412804528
 20
30.9487004259
 11
155.7018665869
 21
30.8519086025
 12
155.3549915869
 22
30.8841729058
 13
155.3549915869
 23
30.8841729058
  0
SOLID
  8
0
 62
7
  6
CONTINUOUS
 10
155.1815540869
 20
30.7873815123
 11
155.3549915869
 21
30.8841729058
 12
155.7018665869
 22
30.8519086025
 13
155.7018665869
 23
30.8519086025
  0
SOLID
  8
0
 62
7
  6
CONTINUOUS
 10
155.1815540869
 20
30.7873815123
 11
155.7018665869
 21
30.8519086025
 12
155.412804528
 22
30.7551187255
 13
155.412804528
 23
30.7551187255
  0
SOLID
  8
0
 62
7
  6
CONTINUOUS
 10
155.7018665869
 20
30.8519086025
 11
155.759679528
 21
30.6905916353
 12
155.412804528
 22
30.7551187255
 13
155.412804528
 23
30.7551187255
  0
SOLID
  8
0
 62
7
  6
CONTINUOUS
 10
155.4706168074
 20
30.658327332
 11
155.412804528
 21
30.7551187255
 12
155.759679528
 22
30.6905916353
 13
155.759679528
 23
30.6905916353
  0
SOLID
  8
0
 62
7
  6
CONTINUOUS
 10
155.4706168074
 20
30.658327332
 11
155.759679528
 21
30.6905916353
 12
155.5284290869
 22
30.5938002079
 13
155.5284290869
 23
30.5938002079
  0
SOLID
  8
0
 62
7
  6
CONTINUOUS
 10
155.759679528
 20
30.6905916353
 11
155.8174918074
 21
30.5938002079
 12
155.5284290869
 22
30.5938002079
 13
155.5284290869
 23
30.5938002079
  0
SOLID
  8
0
 62
7
  6
CONTINUOUS
 10
151.0768668626
 20
30.8196456577
 11
151.1346793074
 21
30.9164373395
 12
151.4237418626
 22
30.9164373395
 13
151.4237418626
 23
30.9164373395
  0
SOLID
  8
0
 62
7
  6
CONTINUOUS
 10
151.4237418626
 20
30.9164373395
 11
151.3659292523
 21
30.7873815123
 12
151.0768668626
 22
30.8196456577
 13
151.0768668626
 23
30.8196456577
  0
SOLID
  8
0
 62
7
  6
CONTINUOUS
 10
150.9034292799
 20
30.7551187255
 11
151.0768668626
 21
30.8196456577
 12
151.3659292523
 22
30.7873815123
 13
151.3659292523
 23
30.7873815123
  0
SOLID
  8
0
 62
7
  6
CONTINUOUS
 10
150.9034292799
 20
30.7551187255
 11
151.3659292523
 21
30.7873815123
 12
150.498741835
 22
30.7228544222
 13
150.498741835
 23
30.7228544222
  0
SOLID
  8
0
 62
7
  6
CONTINUOUS
 10
151.3659292523
 20
30.7873815123
 11
151.1924917523
 21
30.6905916353
 12
150.498741835
 22
30.7228544222
 13
150.498741835
 23
30.7228544222
  0
SOLID
  8
0
 62
7
  6
CONTINUOUS
 10
150.0362418212
 20
30.658327332
 11
150.498741835
 21
30.7228544222
 12
151.1924917523
 22
30.6905916353
 13
151.1924917523
 23
30.6905916353
  0
SOLID
  8
0
 62
7
  6
CONTINUOUS
 10
150.0362418212
 20
30.658327332
 11
151.1924917523
 21
30.6905916353
 12
150.2096793212
 22
30.6260631011
 13
150.2096793212
 23
30.6260631011
  0
SOLID
  8
0
 62
7
  6
CONTINUOUS
 10
151.1924917523
 20
30.6905916353
 11
150.9612418074
 21
30.6260631011
 12
150.2096793212
 22
30.6260631011
 13
150.2096793212
 23
30.6260631011
  0
SOLID
  8
0
 62
7
  6
CONTINUOUS
 10
150.5565542799
 20
30.5938002419
 11
150.2096793212
 21
30.6260631011
 12
150.9612418074
 22
30.6260631011
 13
150.9612418074
 23
30.6260631011
  0
SOLID
  8
0
 62
7
  6
CONTINUOUS
 10
154.0253041972
 20
30.7551187255
 11
154.2565543074
 21
30.8519086025
 12
154.3143669177
 22
30.7873815123
 13
154.3143669177
 23
30.7873815123
  0
SOLID
  8
0
 62
7
  6
CONTINUOUS
 10
154.3143669177
 20
30.7873815123
 11
154.5456166972
 21
30.7228544222
 12
154.0253041972
 22
30.7551187255
 13
154.0253041972
 23
30.7551187255
  0
SOLID
  8
0
 62
7
  6
CONTINUOUS
 10
154.1987416972
 20
30.658327332
 11
154.0253041972
 21
30.7551187255
 12
154.5456166972
 22
30.7228544222
 13
154.5456166972
 23
30.7228544222
  0
SOLID
  8
0
 62
7
  6
CONTINUOUS
 10
154.8924916972
 20
30.7228544637
 11
155.1815540869
 21
30.7873815123
 12
155.412804528
 22
30.7551187255
 13
155.412804528
 23
30.7551187255
  0
SOLID
  8
0
 62
7
  6
CONTINUOUS
 10
155.412804528
 20
30.7551187255
 11
155.3549915869
 21
30.6905916353
 12
154.8924916972
 22
30.7228544637
 13
154.8924916972
 23
30.7228544637
  0
SOLID
  8
0
 62
7
  6
CONTINUOUS
 10
155.3549915869
 20
30.6905916353
 11
154.1987416972
 21
30.658327332
 12
154.8924916972
 22
30.7228544637
 13
154.8924916972
 23
30.7228544637
  0
SOLID
  8
0
 62
7
  6
CONTINUOUS
 10
154.1987416972
 20
30.658327332
 11
154.5456166972
 21
30.7228544637
 12
154.8924916972
 22
30.7228544637
 13
154.8924916972
 23
30.7228544637
  0
SOLID
  8
0
 62
7
  6
CONTINUOUS
 10
154.1987416972
 20
30.658327332
 11
155.3549915869
 21
30.6905916353
 12
154.3143669177
 22
30.6260630541
 13
154.3143669177
 23
30.6260630541
  0
SOLID
  8
0
 62
7
  6
CONTINUOUS
 10
155.3549915869
 20
30.6905916353
 11
155.1815540869
 21
30.6260630541
 12
154.3143669177
 22
30.6260630541
 13
154.3143669177
 23
30.6260630541
  0
SOLID
  8
0
 62
7
  6
CONTINUOUS
 10
154.5456166972
 20
30.5938002188
 11
154.3143669177
 21
30.6260630541
 12
155.1815540869
 22
30.6260630541
 13
155.1815540869
 23
30.6260630541
  0
SOLID
  8
0
 62
7
  6
CONTINUOUS
 10
155.1815540869
 20
30.6260630541
 11
154.8924916972
 21
30.5938002188
 12
154.5456166972
 22
30.5938002188
 13
154.5456166972
 23
30.5938002188
  0
SOLID
  8
0
 62
7
  6
CONTINUOUS
 10
159.575304528
 20
30.7551187255
 11
159.228429528
 21
30.7228544637
 12
159.4596793074
 22
30.7873815123
 13
159.4596793074
 23
30.7873815123
  0
SOLID
  8
0
 62
7
  6
CONTINUOUS
 10
159.4596793074
 20
30.7873815123
 11
159.228429528
 21
30.7228544637
 12
159.401867028
 22
30.851908644
 13
159.401867028
 23
30.851908644
  0
SOLID
  8
0
 62
7
  6
CONTINUOUS
 10
159.228429528
 20
30.7228544637
 11
159.1128043074
 21
30.851908644
 12
159.401867028
 22
30.851908644
 13
159.401867028
 23
30.851908644
  0
SOLID
  8
0
 62
7
  6
CONTINUOUS
 10
159.575304528
 20
30.7551187255
 11
159.922179528
 21
30.7228544637
 12
159.228429528
 22
30.7228544637
 13
159.228429528
 23
30.7228544637
  0
SOLID
  8
0
 62
7
  6
CONTINUOUS
 10
156.279992028
 20
30.5938002419
 11
156.279992028
 21
31.6262382337
 12
156.5690540869
 22
30.5938002419
 13
156.5690540869
 23
31.6262382337
  0
ENDBLK
  8
0
  6
BYBLOCK
 62
0
  0
BLOCK
  8
0
 62
2
  6
CONTINUOUS
  2
SYMBOL_3_BL0
 70
64
 10
32.1213064866
 20
19.8534310916
  0
TEXT
  8
0
 62
7
  6
CONTINUOUS
 10
18.3860103289
 20
19.2268451992
  7
TEXTSTYLE_3
 40
2.7338706658
  1
Ammeraal Beltech
 41
1.0
 51
15.0
 72
0
  0
TEXT
  8
0
 62
7
  6
CONTINUOUS
 10
29.1868111546
 20
16.9533085264
  7
TEXTSTYLE_4
 40
1.0935482663
  1
Innovation & Service in Belting
 41
1.0
 72
0
  0
LINE
  8
0
 62
7
  6
CONTINUOUS
 10
12.3614696776
 20
19.9934385078
 11
13.1396216709
 21
23.6543558055
  0
LINE
  8
0
 62
7
  6
CONTINUOUS
 10
23.2347899607
 20
27.3177497171
 11
13.6274394139
 21
24.1961322958
  0
LINE
  8
0
 62
7
  6
CONTINUOUS
 10
12.5867530099
 20
19.3000877048
 11
20.093828271
 21
12.5406867788
  0
LINE
  8
0
 62
7
  6
CONTINUOUS
 10
12.8492874206
 20
20.5352149982
 11
23.6575567857
 21
24.0470345971
  0
LINE
  8
0
 62
7
  6
CONTINUOUS
 10
23.6533516486
 20
13.6972460334
 11
15.2078919798
 21
21.3015720751
  0
LINE
  8
0
 62
7
  6
CONTINUOUS
 10
24.1731743684
 20
26.4728246013
 11
23.1966148312
 21
21.8784731989
  0
LINE
  8
0
 62
7
  6
CONTINUOUS
 10
22.4968128835
 20
18.5861638851
 11
21.810364672
 21
15.3566789607
  0
LINE
  8
0
 62
7
  6
CONTINUOUS
 10
24.8542704669
 20
14.087448211
 11
25.8105020025
 21
18.5861638851
  0
LINE
  8
0
 62
7
  6
CONTINUOUS
 10
26.5103039502
 20
21.8784731989
 11
26.9545457526
 21
23.9684665583
  0
LINE
  8
0
 62
7
  6
CONTINUOUS
 10
20.8069293463
 20
12.3891124661
 11
24.3664527239
 21
13.5456717207
  0
LINE
  8
0
 62
7
  6
CONTINUOUS
 10
23.9478910361
 20
27.1661754044
 11
26.7292624203
 21
24.6618173613
  0
ARC
  8
0
 62
7
  6
CONTINUOUS
 10
13.8527227462
 20
23.5027814928
 40
0.7290321776
 50
108.0
 51
168.0
  0
ARC
  8
0
 62
7
  6
CONTINUOUS
 10
23.4600732931
 20
26.624398914
 40
0.7290321776
 50
348.0
 51
108.0
  0
ARC
  8
0
 62
7
  6
CONTINUOUS
 10
26.2414446773
 20
24.120040871
 40
0.7290321776
 50
348.0
 51
48.0
  0
ARC
  8
0
 62
7
  6
CONTINUOUS
 10
20.581646014
 20
13.0824632691
 40
0.7290321776
 50
228.0
 51
288.0
  0
ARC
  8
0
 62
7
  6
CONTINUOUS
 10
13.0745707529
 20
19.8418641951
 40
0.7290321776
 50
108.0
 51
228.0
  0
ARC
  8
0
 62
7
  6
CONTINUOUS
 10
24.1411693916
 20
14.2390225237
 40
0.7290321776
 50
228.0
 51
348.0
  0
ENDBLK
  8
0
  6
BYBLOCK
 62
0
  0
ENDSEC
  0
SECTION
  2
ENTITIES
  0
TEXT
  8
0
 62
5
  6
CONTINUOUS
 10
96.0
 20
25.636
  7
TEXTSTYLE_2
 40
2.8
  1
Scale :
 41
0.6
 51
0.000019
 72
0
  0
TEXT
  8
0
 62
5
  6
CONTINUOUS
 10
116.0
 20
25.636
  7
TEXTSTYLE_2
 40
2.8
  1
Belt type:
 41
0.6
 51
0.000019
 72
0
  0
INSERT
  8
0
 62
2
  6
CONTINUOUS
  2
SYMBOL_3_BL0
 10
32.1213064866
 20
19.8534310916
  0
INSERT
  8
0
 62
2
  6
CONTINUOUS
  2
SYMBOL_8_BL1
 10
173.5956734183
 20
35.5937998301
  0
LINE
  8
0
 62
2
  6
CONTINUOUS
 10
10.0
 20
30.0
 11
200.0
 21
30.0
  0
LINE
  8
0
 62
2
  6
CONTINUOUS
 10
10.0
 20
30.0
 11
10.0
 21
10.0
  0
LINE
  8
0
 62
2
  6
CONTINUOUS
 10
10.0
 20
10.0
 11
200.0
 21
10.0
  0
LINE
  8
0
 62
2
  6
CONTINUOUS
 10
95.0
 20
30.0
 11
95.0
 21
10.0
  0
LINE
  8
0
 62
2
  6
CONTINUOUS
 10
115.0
 20
30.0
 11
115.0
 21
10.0
  0
LINE
  8
0
 62
2
  6
CONTINUOUS
 10
200.0
 20
30.0
 11
200.0
 21
10.0
  0
TEXT
  8
0
 62
5
  6
CONTINUOUS
 10
13.0
 20
23.303
  7
TEXTSTYLE_5
 40
1.52
  1
                                                                     Ammeraal Beltech Modular A/S
 41
1.0
 72
0
  0
TEXT
  8
0
 62
5
  6
CONTINUOUS
 10
13.0
 20
20.595
  7
TEXTSTYLE_5
 40
1.5
  1
                                                                      Hjulmagervej 21,  7100 Vejle,  DK
 41
1.0
 72
0
  0
TEXT
  8
0
 62
5
  6
CONTINUOUS
 10
13.0
 20
17.881
  7
TEXTSTYLE_5
 40
1.495
  1
                                                                      tel: 
 41
1.0
 72
0
  0
TEXT
  8
0
 62
5
  6
CONTINUOUS
 10
57.9869465649
 20
17.881
  7
TEXTSTYLE_5
 40
1.51
  1
+45 75723100     fax: +45 75723348
 41
1.0
 72
0
  0
TEXT
  8
0
 62
5
  6
CONTINUOUS
 10
13.0
 20
15.177
  7
TEXTSTYLE_5
 40
1.5
  1
                                                                      admin@unichains.dk  www.unichains.com
 41
1.0
 72
0
  0
TEXT
  8
0
 62
5
  6
CONTINUOUS
 10
99.75
 20
13.75
  7
TEXTSTYLE_6
 40
5.0
  1
1:1
 41
0.7
 72
1
 11
105.0
 21
13.75
  0
TEXT
  8
0
 62
5
  6
CONTINUOUS
 10
118.0
 20
13.75
  7
TEXTSTYLE_7
 40
7.5
  1
uni Flex SNB C K600
 41
0.5131578947
 72
0
  0
LINE
  8
0
 62
7
  6
CONTINUOUS
 10
210.0
 20
0.0
 11
0.0
 21
0.0
  0
LINE
  8
0
 62
7
  6
CONTINUOUS
 10
10.0
 20
10.0
 11
200.0
 21
10.0
  0
LINE
  8
0
 62
7
  6
CONTINUOUS
 10
10.0
 20
30.0
 11
200.0
 21
30.0
  0
LINE
  8
0
 62
7
  6
CONTINUOUS
 10
0.0
 20
0.0
 11
0.0
 21
297.0
  0
LINE
  8
0
 62
7
  6
CONTINUOUS
 10
10.0
 20
10.0
 11
10.0
 21
287.0
  0
LINE
  8
0
 62
7
  6
CONTINUOUS
 10
200.0
 20
287.0
 11
200.0
 21
10.0
  0
LINE
  8
0
 62
7
  6
CONTINUOUS
 10
210.0
 20
0.0
 11
210.0
 21
297.0
  0
LINE
  8
0
 62
7
  6
CONTINUOUS
 10
10.0
 20
287.0
 11
200.0
 21
287.0
  0
LINE
  8
0
 62
7
  6
CONTINUOUS
 10
0.0
 20
297.0
 11
210.0
 21
297.0
  0
POLYLINE
  8
SURFACE
 62
7
  6
CONTINUOUS
 66
1
 70
0
  0
VERTEX
  8
SURFACE
 62
7
  6
CONTINUOUS
 10
20.6994128758
 20
160.3697544684
  0
VERTEX
  8
SURFACE
 62
7
  6
CONTINUOUS
 10
20.7045500592
 20
160.269714347
  0
VERTEX
  8
SURFACE
 62
7
  6
CONTINUOUS
 10
20.7200121649
 20
160.1700803425
  0
VERTEX
  8
SURFACE
 62
7
  6
CONTINUOUS
 10
20.7458438344
 20
160.0718919781
  0
VERTEX
  8
SURFACE
 62
7
  6
CONTINUOUS
 10
20.7821628844
 20
159.9758148305
  0
VERTEX
  8
SURFACE
 62
7
  6
CONTINUOUS
 10
20.8288826747
 20
159.8830677322
  0
VERTEX
  8
SURFACE
 62
7
  6
CONTINUOUS
 10
20.8859469329
 20
159.7946195697
  0
VERTEX
  8
SURFACE
 62
7
  6
CONTINUOUS
 10
20.9526521232
 20
159.7121713248
  0
VERTEX
  8
SURFACE
 62
7
  6
CONTINUOUS
 10
21.0283502276
 20
159.636872804
  0
VERTEX
  8
SURFACE
 62
7
  6
CONTINUOUS
 10
21.111512916
 20
159.57031393
  0
VERTEX
  8
SURFACE
 62
7
  6
CONTINUOUS
 10
21.2009358828
 20
159.5132796761
  0
VERTEX
  8
SURFACE
 62
7
  6
CONTINUOUS
 10
21.2947780236
 20
159.4665931057
  0
VERTEX
  8
SURFACE
 62
7
  6
CONTINUOUS
 10
21.3918699249
 20
159.4303824692
  0
VERTEX
  8
SURFACE
 62
7
  6
CONTINUOUS
 10
21.4909727853
 20
159.4046868945
  0
VERTEX
  8
SURFACE
 62
7
  6
CONTINUOUS
 10
21.5913554386
 20
159.3893527285
  0
VERTEX
  8
SURFACE
 62
7
  6
CONTINUOUS
 10
21.6919522302
 20
159.384280124
  0
SEQEND
  0
LINE
  8
0
 62
7
  6
CONTINUOUS
 10
18.8669522302
 20
170.1797544684
 11
18.8669522302
 21
159.8317544684
  0
LINE
  8
SURFACE
 62
7
  6
CONTINUOUS
 10
20.6994128758
 20
160.3697544684
 11
20.699412191
 21
169.0697544684
  0
LINE
  8
0
 62
7
  6
CONTINUOUS
 10
19.0373230987
 20
158.5376592429
 11
19.65014362
 21
156.2505819217
  0
LINE
  8
0
 62
7
  6
CONTINUOUS
 10
24.7169522302
 20
159.8317544684
 11
24.7169522302
 21
167.7297544684
  0
LINE
  8
0
 62
7
  6
CONTINUOUS
 10
25.3669522302
 20
186.3277544684
 11
25.3669522302
 21
178.4297544684
  0
LINE
  8
SURFACE
 62
7
  6
CONTINUOUS
 10
22.8844915846
 20
160.3697544684
 11
22.8844922693
 21
169.0697544684
  0
LINE
  8
0
 62
7
  6
CONTINUOUS
 10
26.1402138884
 20
189.8718687522
 11
25.5373230987
 21
187.6218496939
  0
LINE
  8
0
 62
7
  6
CONTINUOUS
 10
25.1965813616
 20
177.1356592429
 11
24.2012241141
 21
173.4209354233
  0
POLYLINE
  8
SURFACE
 62
7
  6
CONTINUOUS
 66
1
 70
0
  0
VERTEX
  8
SURFACE
 62
7
  6
CONTINUOUS
 10
22.8620221912
 20
169.2797544684
  0
VERTEX
  8
SURFACE
 62
7
  6
CONTINUOUS
 10
22.8359271456
 20
169.3762190918
  0
VERTEX
  8
SURFACE
 62
7
  6
CONTINUOUS
 10
22.799658668
 20
169.4706395591
  0
VERTEX
  8
SURFACE
 62
7
  6
CONTINUOUS
 10
22.7533853122
 20
169.5616746368
  0
VERTEX
  8
SURFACE
 62
7
  6
CONTINUOUS
 10
22.6972162449
 20
169.6483990445
  0
VERTEX
  8
SURFACE
 62
7
  6
CONTINUOUS
 10
22.6316777995
 20
169.7294313373
  0
VERTEX
  8
SURFACE
 62
7
  6
CONTINUOUS
 10
22.5572413782
 20
169.803755365
  0
VERTEX
  8
SURFACE
 62
7
  6
CONTINUOUS
 10
22.4752162073
 20
169.8698461201
  0
VERTEX
  8
SURFACE
 62
7
  6
CONTINUOUS
 10
22.3865745625
 20
169.9269042602
  0
VERTEX
  8
SURFACE
 62
7
  6
CONTINUOUS
 10
22.2930189691
 20
169.9739755276
  0
VERTEX
  8
SURFACE
 62
7
  6
CONTINUOUS
 10
22.1956021456
 20
170.0107789437
  0
VERTEX
  8
SURFACE
 62
7
  6
CONTINUOUS
 10
22.0956571425
 20
170.03706049
  0
VERTEX
  8
SURFACE
 62
7
  6
CONTINUOUS
 10
21.9940363485
 20
170.0528176809
  0
VERTEX
  8
SURFACE
 62
7
  6
CONTINUOUS
 10
21.8919522302
 20
170.0580455281
  0
SEQEND
  0
LINE
  8
0
 62
7
  6
CONTINUOUS
 10
31.0669522302
 20
178.4297544684
 11
31.0669522302
 21
186.3277544684
  0
LINE
  8
0
 62
7
  6
CONTINUOUS
 10
31.7169522302
 20
167.7297544684
 11
31.7169522302
 21
159.8317544684
  0
LINE
  8
0
 62
7
  6
CONTINUOUS
 10
24.8873230987
 20
169.0238496939
 11
25.8826803463
 21
172.7385735135
  0
LINE
  8
0
 62
7
  6
CONTINUOUS
 10
24.0001691868
 20
156.4984213097
 11
24.0007936984
 21
156.5007529174
  0
LINE
  8
0
 62
7
  6
CONTINUOUS
 10
23.9337608404
 20
156.2505819217
 11
24.5465813616
 21
158.5376592429
  0
LINE
  8
0
 62
7
  6
CONTINUOUS
 10
31.8873230987
 20
158.5376592429
 11
32.50014362
 21
156.2505819217
  0
LINE
  8
0
 62
7
  6
CONTINUOUS
 10
30.5512241141
 20
172.7385735135
 11
31.5465813616
 21
169.0238496939
  0
LINE
  8
0
 62
7
  6
CONTINUOUS
 10
37.4169522302
 20
159.8317544684
 11
37.4169522302
 21
167.7297544684
  0
LINE
  8
0
 62
7
  6
CONTINUOUS
 10
38.0669522302
 20
186.3277544684
 11
38.0669522302
 21
178.4297544684
  0
LINE
  8
0
 62
7
  6
CONTINUOUS
 10
38.8402138884
 20
189.8718687522
 11
38.2373230987
 21
187.6218496939
  0
LINE
  8
0
 62
7
  6
CONTINUOUS
 10
32.2326803463
 20
173.4209354233
 11
31.2373230987
 21
177.1356592429
  0
LINE
  8
0
 62
7
  6
CONTINUOUS
 10
30.8965813616
 20
187.6218496939
 11
30.293690572
 21
189.8718687522
  0
LINE
  8
0
 62
7
  6
CONTINUOUS
 10
37.8965813616
 20
177.1356592429
 11
36.9012241141
 21
173.4209354233
  0
LINE
  8
0
 62
7
  6
CONTINUOUS
 10
37.5873230987
 20
169.0238496939
 11
38.5826803463
 21
172.7385735135
  0
LINE
  8
0
 62
7
  6
CONTINUOUS
 10
36.7001691868
 20
156.4984213097
 11
36.7007936984
 21
156.5007529174
  0
LINE
  8
0
 62
7
  6
CONTINUOUS
 10
36.6337608404
 20
156.2505819217
 11
37.2465813616
 21
158.5376592429
  0
LINE
  8
0
 62
7
  6
CONTINUOUS
 10
44.5873230987
 20
158.5376592429
 11
45.20014362
 21
156.2505819217
  0
LINE
  8
0
 62
7
  6
CONTINUOUS
 10
43.7669522302
 20
178.4297544684
 11
43.7669522302
 21
186.3277544684
  0
LINE
  8
0
 62
7
  6
CONTINUOUS
 10
44.4169522302
 20
167.7297544684
 11
44.4169522302
 21
159.8317544684
  0
LINE
  8
0
 62
7
  6
CONTINUOUS
 10
51.5402138884
 20
189.8718687522
 11
50.9373230987
 21
187.6218496939
  0
LINE
  8
0
 62
7
  6
CONTINUOUS
 10
43.2512241141
 20
172.7385735135
 11
44.2465813616
 21
169.0238496939
  0
LINE
  8
0
 62
7
  6
CONTINUOUS
 10
44.9326803463
 20
173.4209354233
 11
43.9373230987
 21
177.1356592429
  0
LINE
  8
0
 62
7
  6
CONTINUOUS
 10
50.1169522302
 20
159.8317544684
 11
50.1169522302
 21
167.7297544684
  0
LINE
  8
0
 62
7
  6
CONTINUOUS
 10
50.7669522302
 20
186.3277544684
 11
50.7669522302
 21
178.4297544684
  0
LINE
  8
0
 62
7
  6
CONTINUOUS
 10
50.5965813616
 20
177.1356592429
 11
49.6012241141
 21
173.4209354233
  0
LINE
  8
0
 62
7
  6
CONTINUOUS
 10
50.2873230987
 20
169.0238496939
 11
51.2826803463
 21
172.7385735135
  0
LINE
  8
0
 62
7
  6
CONTINUOUS
 10
43.5965813616
 20
187.6218496939
 11
42.993690572
 21
189.8718687522
  0
LINE
  8
0
 62
7
  6
CONTINUOUS
 10
56.4669522302
 20
178.4297544684
 11
56.4669522302
 21
186.3277544684
  0
LINE
  8
0
 62
7
  6
CONTINUOUS
 10
57.1169522302
 20
167.7297544684
 11
57.1169522302
 21
159.8317544684
  0
LINE
  8
0
 62
7
  6
CONTINUOUS
 10
49.4001691868
 20
156.4984213097
 11
49.4007936984
 21
156.5007529174
  0
LINE
  8
0
 62
7
  6
CONTINUOUS
 10
49.3337608404
 20
156.2505819217
 11
49.9465813616
 21
158.5376592429
  0
LINE
  8
0
 62
7
  6
CONTINUOUS
 10
57.2873230987
 20
158.5376592429
 11
57.90014362
 21
156.2505819217
  0
LINE
  8
0
 62
7
  6
CONTINUOUS
 10
55.9512241141
 20
172.7385735135
 11
56.9465813616
 21
169.0238496939
  0
LINE
  8
0
 62
7
  6
CONTINUOUS
 10
57.6326803463
 20
173.4209354233
 11
56.6373230987
 21
177.1356592429
  0
LINE
  8
0
 62
7
  6
CONTINUOUS
 10
62.8169522302
 20
159.8317544684
 11
62.8169522302
 21
167.7297544684
  0
LINE
  8
0
 62
7
  6
CONTINUOUS
 10
63.4669522302
 20
186.3277544684
 11
63.4669522302
 21
178.4297544684
  0
LINE
  8
0
 62
7
  6
CONTINUOUS
 10
64.2402138884
 20
189.8718687522
 11
63.6373230987
 21
187.6218496939
  0
LINE
  8
0
 62
7
  6
CONTINUOUS
 10
63.2965813616
 20
177.1356592429
 11
62.3012241141
 21
173.4209354233
  0
LINE
  8
0
 62
7
  6
CONTINUOUS
 10
56.2965813616
 20
187.6218496939
 11
55.693690572
 21
189.8718687522
  0
LINE
  8
0
 62
7
  6
CONTINUOUS
 10
69.1669522302
 20
178.4297544684
 11
69.1669522302
 21
186.3277544684
  0
LINE
  8
0
 62
7
  6
CONTINUOUS
 10
62.9873230987
 20
169.0238496939
 11
63.9826803463
 21
172.7385735135
  0
LINE
  8
0
 62
7
  6
CONTINUOUS
 10
62.1001691868
 20
156.4984213097
 11
62.1007936984
 21
156.5007529174
  0
LINE
  8
0
 62
7
  6
CONTINUOUS
 10
62.0337608404
 20
156.2505819217
 11
62.6465813616
 21
158.5376592429
  0
LINE
  8
0
 62
7
  6
CONTINUOUS
 10
69.9873230987
 20
158.5376592429
 11
70.60014362
 21
156.2505819217
  0
LINE
  8
0
 62
7
  6
CONTINUOUS
 10
68.6512241141
 20
172.7385735135
 11
69.6465813616
 21
169.0238496939
  0
LINE
  8
0
 62
7
  6
CONTINUOUS
 10
69.8169522302
 20
167.7297544684
 11
69.8169522302
 21
159.8317544684
  0
LINE
  8
0
 62
7
  6
CONTINUOUS
 10
76.9402138884
 20
189.8718687522
 11
76.3373230987
 21
187.6218496939
  0
LINE
  8
0
 62
7
  6
CONTINUOUS
 10
70.3326803463
 20
173.4209354233
 11
69.3373230987
 21
177.1356592429
  0
LINE
  8
0
 62
7
  6
CONTINUOUS
 10
68.9965813616
 20
187.6218496939
 11
68.393690572
 21
189.8718687522
  0
LINE
  8
0
 62
7
  6
CONTINUOUS
 10
75.5169522302
 20
159.8317544684
 11
75.5169522302
 21
167.7297544684
  0
LINE
  8
0
 62
7
  6
CONTINUOUS
 10
76.1669522302
 20
186.3277544684
 11
76.1669522302
 21
178.4297544684
  0
LINE
  8
0
 62
7
  6
CONTINUOUS
 10
75.9965813616
 20
177.1356592429
 11
75.0012241141
 21
173.4209354233
  0
LINE
  8
0
 62
7
  6
CONTINUOUS
 10
75.6873230987
 20
169.0238496939
 11
76.6826803463
 21
172.7385735135
  0
LINE
  8
0
 62
7
  6
CONTINUOUS
 10
74.8001691868
 20
156.4984213097
 11
74.8007936984
 21
156.5007529174
  0
LINE
  8
0
 62
7
  6
CONTINUOUS
 10
74.7337608404
 20
156.2505819217
 11
75.3465813616
 21
158.5376592429
  0
LINE
  8
0
 62
7
  6
CONTINUOUS
 10
20.325566093
 20
155.7317544684
 11
23.2583383674
 21
155.7317544684
  0
LINE
  8
0
 62
7
  6
CONTINUOUS
 10
33.175566093
 20
155.7317544684
 11
35.9583383674
 21
155.7317544684
  0
LINE
  8
0
 62
7
  6
CONTINUOUS
 10
45.875566093
 20
155.7317544684
 11
48.6583383674
 21
155.7317544684
  0
LINE
  8
0
 62
7
  6
CONTINUOUS
 10
58.575566093
 20
155.7317544684
 11
61.3583383674
 21
155.7317544684
  0
LINE
  8
0
 62
7
  6
CONTINUOUS
 10
71.275566093
 20
155.7317544684
 11
74.0583383674
 21
155.7317544684
  0
LINE
  8
0
 62
7
  6
CONTINUOUS
 10
83.975566093
 20
155.7317544684
 11
86.7583383669
 21
155.7317544684
  0
LINE
  8
0
 62
7
  6
CONTINUOUS
 10
96.6755660935
 20
155.7317544684
 11
99.4192462023
 21
155.7317544684
  0
LINE
  8
0
 62
7
  6
CONTINUOUS
 10
109.4146582581
 20
155.7317544684
 11
112.1192462023
 21
155.7317544684
  0
LINE
  8
0
 62
7
  6
CONTINUOUS
 10
122.1146582581
 20
155.7317544684
 11
124.8192462023
 21
155.7317544684
  0
LINE
  8
0
 62
7
  6
CONTINUOUS
 10
134.814658298
 20
155.7317544684
 11
137.5192462023
 21
155.7317544684
  0
LINE
  8
0
 62
7
  6
CONTINUOUS
 10
147.5146582581
 20
155.7317544684
 11
150.2192462023
 21
155.7317544684
  0
LINE
  8
0
 62
7
  6
CONTINUOUS
 10
160.2146582581
 20
155.7317544684
 11
162.9192462023
 21
155.7317544684
  0
LINE
  8
0
 62
7
  6
CONTINUOUS
 10
82.6873230987
 20
158.5376592429
 11
83.30014362
 21
156.2505819217
  0
LINE
  8
0
 62
7
  6
CONTINUOUS
 10
81.8669522302
 20
178.4297544684
 11
81.8669522302
 21
186.3277544684
  0
LINE
  8
0
 62
7
  6
CONTINUOUS
 10
82.5169522302
 20
167.7297544684
 11
82.5169522302
 21
159.8317544684
  0
POLYLINE
  8
SURFACE
 62
7
  6
CONTINUOUS
 66
1
 70
0
  0
VERTEX
  8
SURFACE
 62
7
  6
CONTINUOUS
 10
21.8919522302
 20
159.384280124
  0
VERTEX
  8
SURFACE
 62
7
  6
CONTINUOUS
 10
21.9925485164
 20
159.3893526774
  0
VERTEX
  8
SURFACE
 62
7
  6
CONTINUOUS
 10
22.0929303302
 20
159.4046866185
  0
VERTEX
  8
SURFACE
 62
7
  6
CONTINUOUS
 10
22.1920334731
 20
159.4303821347
  0
VERTEX
  8
SURFACE
 62
7
  6
CONTINUOUS
 10
22.2891254989
 20
159.4665926992
  0
VERTEX
  8
SURFACE
 62
7
  6
CONTINUOUS
 10
22.382967768
 20
159.5132792186
  0
VERTEX
  8
SURFACE
 62
7
  6
CONTINUOUS
 10
22.4723907313
 20
159.570313348
  0
VERTEX
  8
SURFACE
 62
7
  6
CONTINUOUS
 10
22.5555535288
 20
159.6368721755
  0
VERTEX
  8
SURFACE
 62
7
  6
CONTINUOUS
 10
22.631251706
 20
159.7121706252
  0
VERTEX
  8
SURFACE
 62
7
  6
CONTINUOUS
 10
22.6979570045
 20
159.7946188471
  0
VERTEX
  8
SURFACE
 62
7
  6
CONTINUOUS
 10
22.7550213728
 20
159.8830670101
  0
VERTEX
  8
SURFACE
 62
7
  6
CONTINUOUS
 10
22.8017411617
 20
159.9758138873
  0
VERTEX
  8
SURFACE
 62
7
  6
CONTINUOUS
 10
22.8380603146
 20
160.071891003
  0
VERTEX
  8
SURFACE
 62
7
  6
CONTINUOUS
 10
22.863892047
 20
160.1700791501
  0
VERTEX
  8
SURFACE
 62
7
  6
CONTINUOUS
 10
22.8793543583
 20
160.2697139303
  0
VERTEX
  8
SURFACE
 62
7
  6
CONTINUOUS
 10
22.8844915846
 20
160.3697544684
  0
SEQEND
  0
LINE
  8
SURFACE
 62
7
  6
CONTINUOUS
 10
21.8919522302
 20
159.384280124
 11
21.6919522302
 21
159.384280124
  0
LINE
  8
DEFAULT_1
 62
7
  6
CENTER
 10
88.2169522302
 20
160.3797544684
 11
165.8103243683
 21
160.3797544684
  0
LINE
  8
0
 62
7
  6
CONTINUOUS
 10
81.3512241141
 20
172.7385735135
 11
82.3465813616
 21
169.0238496939
  0
LINE
  8
0
 62
7
  6
CONTINUOUS
 10
83.0326803463
 20
173.4209354233
 11
82.0373230987
 21
177.1356592429
  0
LINE
  8
0
 62
7
  6
CONTINUOUS
 10
88.2169522302
 20
167.7297544684
 11
88.2169522302
 21
159.8317544684
  0
LINE
  8
0
 62
7
  6
CONTINUOUS
 10
88.8669522302
 20
186.3277544684
 11
88.8669522302
 21
178.4297544684
  0
LINE
  8
0
 62
7
  6
CONTINUOUS
 10
89.6402138884
 20
189.8718687522
 11
89.0373230987
 21
187.6218496939
  0
LINE
  8
0
 62
7
  6
CONTINUOUS
 10
88.6965813616
 20
177.1356592429
 11
87.7012241141
 21
173.4209354233
  0
LINE
  8
0
 62
7
  6
CONTINUOUS
 10
89.3826803463
 20
172.7385735135
 11
88.3873230987
 21
169.0238496939
  0
LINE
  8
0
 62
7
  6
CONTINUOUS
 10
81.6965813616
 20
187.6218496939
 11
81.093690572
 21
189.8718687522
  0
LINE
  8
0
 62
7
  6
CONTINUOUS
 10
94.5669522302
 20
178.4297544684
 11
94.5669522302
 21
186.3277544684
  0
LINE
  8
CURVE
 62
40
  6
CONTINUOUS
 10
94.8919522302
 20
188.3297544684
 11
94.8919522302
 21
176.5585461077
  0
LINE
  8
CURVE
 62
40
  6
CONTINUOUS
 10
94.8919522302
 20
169.6009628366
 11
94.8919522302
 21
157.8297544684
  0
LINE
  8
0
 62
7
  6
CONTINUOUS
 10
95.2169522302
 20
159.8317544684
 11
95.2169522302
 21
167.7297544684
  0
LINE
  8
0
 62
7
  6
CONTINUOUS
 10
88.0465813616
 20
158.5376592429
 11
87.4337608403
 21
156.2505819214
  0
POLYLINE
  8
0
 62
7
  6
CONTINUOUS
 66
1
 70
0
  0
VERTEX
  8
0
 62
7
  6
CONTINUOUS
 10
168.0919522302
 20
176.1014634087
  0
VERTEX
  8
0
 62
7
  6
CONTINUOUS
 10
168.1940361074
 20
176.1066912311
  0
VERTEX
  8
0
 62
7
  6
CONTINUOUS
 10
168.295656198
 20
176.12244825
  0
VERTEX
  8
0
 62
7
  6
CONTINUOUS
 10
168.3956014283
 20
176.1487297641
  0
VERTEX
  8
0
 62
7
  6
CONTINUOUS
 10
168.4930182495
 20
176.1855330934
  0
VERTEX
  8
0
 62
7
  6
CONTINUOUS
 10
168.5865740731
 20
176.232604397
  0
VERTEX
  8
0
 62
7
  6
CONTINUOUS
 10
168.6752157568
 20
176.2896624915
  0
VERTEX
  8
0
 62
7
  6
CONTINUOUS
 10
168.7572409729
 20
176.355753208
  0
VERTEX
  8
0
 62
7
  6
CONTINUOUS
 10
168.831677495
 20
176.4300772611
  0
VERTEX
  8
0
 62
7
  6
CONTINUOUS
 10
168.8972159533
 20
176.51110949
  0
VERTEX
  8
0
 62
7
  6
CONTINUOUS
 10
168.9533851364
 20
176.5978339944
  0
VERTEX
  8
0
 62
7
  6
CONTINUOUS
 10
168.9996585503
 20
176.6888691129
  0
VERTEX
  8
0
 62
7
  6
CONTINUOUS
 10
169.0359271262
 20
176.7832897853
  0
VERTEX
  8
0
 62
7
  6
CONTINUOUS
 10
169.0620221912
 20
176.8797544684
  0
SEQEND
  0
LINE
  8
SURFACE
 62
7
  6
CONTINUOUS
 10
21.8919522302
 20
170.0580455281
 11
21.6919522302
 21
170.0580455281
  0
LINE
  8
0
 62
7
  6
CONTINUOUS
 10
162.9352982878
 20
172.6797544684
 11
160.1986061726
 21
172.6797544684
  0
LINE
  8
0
 62
7
  6
CONTINUOUS
 10
150.2352982878
 20
172.6797544684
 11
147.4986061726
 21
172.6797544684
  0
LINE
  8
0
 62
7
  6
CONTINUOUS
 10
137.5352982878
 20
172.6797544684
 11
134.7986061726
 21
172.6797544684
  0
LINE
  8
0
 62
7
  6
CONTINUOUS
 10
124.8352982878
 20
172.6797544684
 11
122.0986061726
 21
172.6797544684
  0
LINE
  8
0
 62
7
  6
CONTINUOUS
 10
112.1352982878
 20
172.6797544684
 11
109.3986061726
 21
172.6797544684
  0
LINE
  8
0
 62
7
  6
CONTINUOUS
 10
99.4352982878
 20
172.6797544684
 11
96.6986061726
 21
172.6797544684
  0
LINE
  8
0
 62
7
  6
CONTINUOUS
 10
86.7352982878
 20
172.6797544684
 11
83.9986061726
 21
172.6797544684
  0
LINE
  8
0
 62
7
  6
CONTINUOUS
 10
74.0352982878
 20
172.6797544684
 11
71.2986061726
 21
172.6797544684
  0
LINE
  8
0
 62
7
  6
CONTINUOUS
 10
61.3352982878
 20
172.6797544684
 11
58.5986061726
 21
172.6797544684
  0
LINE
  8
0
 62
7
  6
CONTINUOUS
 10
48.6352982878
 20
172.6797544684
 11
45.8986061726
 21
172.6797544684
  0
LINE
  8
0
 62
7
  6
CONTINUOUS
 10
35.9352982878
 20
172.6797544684
 11
33.1986061726
 21
172.6797544684
  0
LINE
  8
0
 62
7
  6
CONTINUOUS
 10
23.2352982878
 20
172.6797544684
 11
21.3669522302
 21
172.6797544684
  0
LINE
  8
0
 62
7
  6
CONTINUOUS
 10
93.0852982878
 20
173.4797544684
 11
90.3486061726
 21
173.4797544684
  0
LINE
  8
0
 62
7
  6
CONTINUOUS
 10
26.8486061726
 20
173.4797544684
 11
29.5852982878
 21
173.4797544684
  0
LINE
  8
0
 62
7
  6
CONTINUOUS
 10
39.5486061726
 20
173.4797544684
 11
42.2852982878
 21
173.4797544684
  0
LINE
  8
0
 62
7
  6
CONTINUOUS
 10
52.2486061726
 20
173.4797544684
 11
54.9852982878
 21
173.4797544684
  0
LINE
  8
0
 62
7
  6
CONTINUOUS
 10
64.9486061726
 20
173.4797544684
 11
67.6852982878
 21
173.4797544684
  0
LINE
  8
0
 62
7
  6
CONTINUOUS
 10
77.6486061726
 20
173.4797544684
 11
80.3852982878
 21
173.4797544684
  0
LINE
  8
0
 62
7
  6
CONTINUOUS
 10
103.0486061726
 20
173.4797544684
 11
105.7852982878
 21
173.4797544684
  0
LINE
  8
0
 62
7
  6
CONTINUOUS
 10
115.7486061726
 20
173.4797544684
 11
118.4852982878
 21
173.4797544684
  0
LINE
  8
0
 62
7
  6
CONTINUOUS
 10
128.4486061726
 20
173.4797544684
 11
131.1852982878
 21
173.4797544684
  0
LINE
  8
0
 62
7
  6
CONTINUOUS
 10
141.1486061726
 20
173.4797544684
 11
143.8852982878
 21
173.4797544684
  0
LINE
  8
0
 62
7
  6
CONTINUOUS
 10
153.8486061726
 20
173.4797544684
 11
156.5852982878
 21
173.4797544684
  0
LINE
  8
0
 62
7
  6
CONTINUOUS
 10
166.5486061726
 20
173.4797544684
 11
168.4169522302
 21
173.4797544684
  0
LINE
  8
0
 62
7
  6
CONTINUOUS
 10
96.00014362
 20
156.2505819214
 11
95.3873230987
 21
158.5376592429
  0
LINE
  8
0
 62
7
  6
CONTINUOUS
 10
95.0465813616
 20
169.0238496939
 11
94.0512241141
 21
172.7385735135
  0
LINE
  8
0
 62
7
  6
CONTINUOUS
 10
102.35014362
 20
189.9089270151
 11
101.7373230987
 21
187.6218496939
  0
LINE
  8
0
 62
7
  6
CONTINUOUS
 10
101.3965813616
 20
177.1356592429
 11
100.4012241141
 21
173.4209354233
  0
POLYLINE
  8
SURFACE
 62
7
  6
CONTINUOUS
 66
1
 70
0
  0
VERTEX
  8
SURFACE
 62
7
  6
CONTINUOUS
 10
21.6919522302
 20
170.0580455281
  0
VERTEX
  8
SURFACE
 62
7
  6
CONTINUOUS
 10
21.589868353
 20
170.0528177057
  0
VERTEX
  8
SURFACE
 62
7
  6
CONTINUOUS
 10
21.4882482624
 20
170.0370606867
  0
VERTEX
  8
SURFACE
 62
7
  6
CONTINUOUS
 10
21.388303032
 20
170.0107791726
  0
VERTEX
  8
SURFACE
 62
7
  6
CONTINUOUS
 10
21.2908862109
 20
169.9739758434
  0
VERTEX
  8
SURFACE
 62
7
  6
CONTINUOUS
 10
21.1973303873
 20
169.9269045397
  0
VERTEX
  8
SURFACE
 62
7
  6
CONTINUOUS
 10
21.1086887036
 20
169.8698464453
  0
VERTEX
  8
SURFACE
 62
7
  6
CONTINUOUS
 10
21.0266634875
 20
169.8037557288
  0
VERTEX
  8
SURFACE
 62
7
  6
CONTINUOUS
 10
20.9522269654
 20
169.7294316756
  0
VERTEX
  8
SURFACE
 62
7
  6
CONTINUOUS
 10
20.886688507
 20
169.6483994467
  0
VERTEX
  8
SURFACE
 62
7
  6
CONTINUOUS
 10
20.830519324
 20
169.5616749423
  0
VERTEX
  8
SURFACE
 62
7
  6
CONTINUOUS
 10
20.78424591
 20
169.4706398238
  0
VERTEX
  8
SURFACE
 62
7
  6
CONTINUOUS
 10
20.7479773342
 20
169.3762191514
  0
VERTEX
  8
SURFACE
 62
7
  6
CONTINUOUS
 10
20.7218822691
 20
169.2797544684
  0
SEQEND
  0
LINE
  8
0
 62
7
  6
CONTINUOUS
 10
167.8919522302
 20
176.1014634087
 11
168.0919522302
 21
176.1014634087
  0
LINE
  8
0
 62
7
  6
CONTINUOUS
 10
95.7326803463
 20
173.4209354233
 11
94.7373230987
 21
177.1356592429
  0
LINE
  8
0
 62
7
  6
CONTINUOUS
 10
94.3965813616
 20
187.6218496939
 11
93.7837608404
 21
189.9089270151
  0
LINE
  8
0
 62
7
  6
CONTINUOUS
 10
100.9169522302
 20
159.8317544684
 11
100.9169522302
 21
167.7297544684
  0
LINE
  8
0
 62
7
  6
CONTINUOUS
 10
101.5669522302
 20
186.3277544684
 11
101.5669522302
 21
178.4297544684
  0
LINE
  8
0
 62
7
  6
CONTINUOUS
 10
101.0873230987
 20
169.0238496939
 11
102.0826803463
 21
172.7385735135
  0
LINE
  8
0
 62
7
  6
CONTINUOUS
 10
100.143690572
 20
156.2876401845
 11
100.7465813616
 21
158.5376592429
  0
POLYLINE
  8
0
 62
7
  6
CONTINUOUS
 66
1
 70
0
  0
VERTEX
  8
0
 62
7
  6
CONTINUOUS
 10
167.8919522302
 20
186.7752288127
  0
VERTEX
  8
0
 62
7
  6
CONTINUOUS
 10
167.791355944
 20
186.7701562594
  0
VERTEX
  8
0
 62
7
  6
CONTINUOUS
 10
167.6909741301
 20
186.7548223182
  0
VERTEX
  8
0
 62
7
  6
CONTINUOUS
 10
167.5918709873
 20
186.729126802
  0
VERTEX
  8
0
 62
7
  6
CONTINUOUS
 10
167.4947789615
 20
186.6929162375
  0
VERTEX
  8
0
 62
7
  6
CONTINUOUS
 10
167.4009366924
 20
186.6462297181
  0
VERTEX
  8
0
 62
7
  6
CONTINUOUS
 10
167.3115137291
 20
186.5891955887
  0
VERTEX
  8
0
 62
7
  6
CONTINUOUS
 10
167.2283509316
 20
186.5226367612
  0
VERTEX
  8
0
 62
7
  6
CONTINUOUS
 10
167.1526527544
 20
186.4473383115
  0
VERTEX
  8
0
 62
7
  6
CONTINUOUS
 10
167.0859474559
 20
186.3648900896
  0
VERTEX
  8
0
 62
7
  6
CONTINUOUS
 10
167.0288830876
 20
186.2764419266
  0
VERTEX
  8
0
 62
7
  6
CONTINUOUS
 10
166.9821632986
 20
186.1836950494
  0
VERTEX
  8
0
 62
7
  6
CONTINUOUS
 10
166.9458441457
 20
186.0876179337
  0
VERTEX
  8
0
 62
7
  6
CONTINUOUS
 10
166.9200124134
 20
185.9894297867
  0
VERTEX
  8
0
 62
7
  6
CONTINUOUS
 10
166.904550102
 20
185.8897950064
  0
VERTEX
  8
0
 62
7
  6
CONTINUOUS
 10
166.8994128758
 20
185.7897544684
  0
SEQEND
  0
LINE
  8
0
 62
7
  6
CONTINUOUS
 10
108.0873230987
 20
158.5376592429
 11
108.6902138884
 21
156.2876401845
  0
LINE
  8
0
 62
7
  6
CONTINUOUS
 10
107.2669522302
 20
178.4297544684
 11
107.2669522302
 21
186.3277544684
  0
LINE
  8
0
 62
7
  6
CONTINUOUS
 10
107.9169522302
 20
167.7297544684
 11
107.9169522302
 21
159.8317544684
  0
LINE
  8
0
 62
7
  6
CONTINUOUS
 10
115.05014362
 20
189.9089270151
 11
114.4373230987
 21
187.6218496939
  0
LINE
  8
DEFAULT_1
 62
7
  6
CENTER
 10
23.3669522302
 20
185.7797544684
 11
172.9169522302
 21
185.7797544684
  0
LINE
  8
0
 62
7
  6
CONTINUOUS
 10
167.8919522302
 20
186.7752288127
 11
168.0919522302
 21
186.7752288127
  0
LINE
  8
0
 62
7
  6
CONTINUOUS
 10
106.7512241141
 20
172.7385735135
 11
107.7465813616
 21
169.0238496939
  0
LINE
  8
0
 62
7
  6
CONTINUOUS
 10
108.4326803463
 20
173.4209354233
 11
107.4373230987
 21
177.1356592429
  0
LINE
  8
0
 62
7
  6
CONTINUOUS
 10
107.0965813616
 20
187.6218496939
 11
106.4837608404
 21
189.9089270151
  0
LINE
  8
0
 62
7
  6
CONTINUOUS
 10
113.6169522302
 20
159.8317544684
 11
113.6169522302
 21
167.7297544684
  0
LINE
  8
0
 62
7
  6
CONTINUOUS
 10
114.2669522302
 20
186.3277544684
 11
114.2669522302
 21
178.4297544684
  0
LINE
  8
0
 62
7
  6
CONTINUOUS
 10
114.0965813616
 20
177.1356592429
 11
113.1012241141
 21
173.4209354233
  0
LINE
  8
0
 62
7
  6
CONTINUOUS
 10
113.7873230987
 20
169.0238496939
 11
114.7826803463
 21
172.7385735135
  0
LINE
  8
0
 62
7
  6
CONTINUOUS
 10
26.8646582581
 20
190.4277544684
 11
29.5692462023
 21
190.4277544684
  0
LINE
  8
0
 62
7
  6
CONTINUOUS
 10
39.5646582581
 20
190.4277544684
 11
42.2692462023
 21
190.4277544684
  0
LINE
  8
0
 62
7
  6
CONTINUOUS
 10
52.2646582581
 20
190.4277544684
 11
54.9692461623
 21
190.4277544684
  0
LINE
  8
0
 62
7
  6
CONTINUOUS
 10
64.9646582581
 20
190.4277544684
 11
67.6692462023
 21
190.4277544684
  0
LINE
  8
0
 62
7
  6
CONTINUOUS
 10
77.6646582581
 20
190.4277544684
 11
80.3692462023
 21
190.4277544684
  0
LINE
  8
0
 62
7
  6
CONTINUOUS
 10
90.3646582581
 20
190.4277544684
 11
93.1083383674
 21
190.4277544684
  0
LINE
  8
0
 62
7
  6
CONTINUOUS
 10
103.025566093
 20
190.4277544684
 11
105.8083383674
 21
190.4277544684
  0
LINE
  8
0
 62
7
  6
CONTINUOUS
 10
115.725566093
 20
190.4277544684
 11
118.5083383674
 21
190.4277544684
  0
LINE
  8
0
 62
7
  6
CONTINUOUS
 10
128.425566093
 20
190.4277544684
 11
131.2083383674
 21
190.4277544684
  0
LINE
  8
0
 62
7
  6
CONTINUOUS
 10
141.125566093
 20
190.4277544684
 11
143.9083383674
 21
190.4277544684
  0
LINE
  8
0
 62
7
  6
CONTINUOUS
 10
153.825566093
 20
190.4277544684
 11
156.6083383674
 21
190.4277544684
  0
LINE
  8
0
 62
7
  6
CONTINUOUS
 10
166.525566093
 20
190.4277544684
 11
169.4583383674
 21
190.4277544684
  0
LINE
  8
0
 62
7
  6
CONTINUOUS
 10
120.7873230987
 20
158.5376592429
 11
121.3902138884
 21
156.2876401845
  0
LINE
  8
0
 62
7
  6
CONTINUOUS
 10
119.9669522302
 20
178.4297544684
 11
119.9669522302
 21
186.3277544684
  0
LINE
  8
0
 62
7
  6
CONTINUOUS
 10
120.6169522302
 20
167.7297544684
 11
120.6169522302
 21
159.8317544684
  0
LINE
  8
0
 62
7
  6
CONTINUOUS
 10
112.843690572
 20
156.2876401845
 11
113.4465813616
 21
158.5376592429
  0
LINE
  8
0
 62
7
  6
CONTINUOUS
 10
119.4512241141
 20
172.7385735135
 11
120.4465813616
 21
169.0238496939
  0
LINE
  8
0
 62
7
  6
CONTINUOUS
 10
121.1326803463
 20
173.4209354233
 11
120.1373230987
 21
177.1356592429
  0
LINE
  8
0
 62
7
  6
CONTINUOUS
 10
126.3169522302
 20
159.8317544684
 11
126.3169522302
 21
167.7297544684
  0
LINE
  8
0
 62
7
  6
CONTINUOUS
 10
127.75014362
 20
189.9089270151
 11
127.1373230987
 21
187.6218496939
  0
LINE
  8
0
 62
7
  6
CONTINUOUS
 10
126.7965813616
 20
177.1356592429
 11
125.8012241141
 21
173.4209354233
  0
LINE
  8
0
 62
7
  6
CONTINUOUS
 10
126.4873230987
 20
169.0238496939
 11
127.4826803463
 21
172.7385735135
  0
LINE
  8
0
 62
7
  6
CONTINUOUS
 10
119.7965813616
 20
187.6218496939
 11
119.1837608404
 21
189.9089270151
  0
LINE
  8
0
 62
7
  6
CONTINUOUS
 10
126.9669522302
 20
186.3277544684
 11
126.9669522302
 21
178.4297544684
  0
LINE
  8
0
 62
7
  6
CONTINUOUS
 10
125.543690572
 20
156.2876401845
 11
126.1465813616
 21
158.5376592429
  0
LINE
  8
0
 62
7
  6
CONTINUOUS
 10
133.4873230987
 20
158.5376592429
 11
134.0902138884
 21
156.2876401845
  0
LINE
  8
0
 62
7
  6
CONTINUOUS
 10
132.1512241141
 20
172.7385735135
 11
133.1465813616
 21
169.0238496939
  0
LINE
  8
0
 62
7
  6
CONTINUOUS
 10
132.6669522302
 20
178.4297544684
 11
132.6669522302
 21
186.3277544684
  0
LINE
  8
0
 62
7
  6
CONTINUOUS
 10
133.3169522302
 20
167.7297544684
 11
133.3169522302
 21
159.8317544684
  0
LINE
  8
0
 62
7
  6
CONTINUOUS
 10
140.45014362
 20
189.9089270151
 11
139.8373230987
 21
187.6218496939
  0
LINE
  8
0
 62
7
  6
CONTINUOUS
 10
139.4965813616
 20
177.1356592429
 11
138.5012241141
 21
173.4209354233
  0
LINE
  8
0
 62
7
  6
CONTINUOUS
 10
133.8326803463
 20
173.4209354233
 11
132.8373230987
 21
177.1356592429
  0
LINE
  8
0
 62
7
  6
CONTINUOUS
 10
132.4965813616
 20
187.6218496939
 11
131.8837608404
 21
189.9089270151
  0
LINE
  8
0
 62
7
  6
CONTINUOUS
 10
139.0169522302
 20
159.8317544684
 11
139.0169522302
 21
167.7297544684
  0
LINE
  8
0
 62
7
  6
CONTINUOUS
 10
139.6669522302
 20
186.3277544684
 11
139.6669522302
 21
178.4297544684
  0
LINE
  8
0
 62
7
  6
CONTINUOUS
 10
139.1873230987
 20
169.0238496939
 11
140.1826803463
 21
172.7385735135
  0
LINE
  8
0
 62
7
  6
CONTINUOUS
 10
138.243690572
 20
156.2876401845
 11
138.8465813616
 21
158.5376592429
  0
LINE
  8
0
 62
7
  6
CONTINUOUS
 10
146.1873230987
 20
158.5376592429
 11
146.7902138884
 21
156.2876401845
  0
LINE
  8
0
 62
7
  6
CONTINUOUS
 10
145.3669522302
 20
178.4297544684
 11
145.3669522302
 21
186.3277544684
  0
LINE
  8
0
 62
7
  6
CONTINUOUS
 10
146.0169522302
 20
167.7297544684
 11
146.0169522302
 21
159.8317544684
  0
LINE
  8
0
 62
7
  6
CONTINUOUS
 10
153.15014362
 20
189.9089270151
 11
152.5373230987
 21
187.6218496939
  0
LINE
  8
0
 62
7
  6
CONTINUOUS
 10
144.8512241141
 20
172.7385735135
 11
145.8465813616
 21
169.0238496939
  0
LINE
  8
0
 62
7
  6
CONTINUOUS
 10
146.5326803463
 20
173.4209354233
 11
145.5373230987
 21
177.1356592429
  0
LINE
  8
0
 62
7
  6
CONTINUOUS
 10
145.1965813616
 20
187.6218496939
 11
144.5837608404
 21
189.9089270151
  0
LINE
  8
0
 62
7
  6
CONTINUOUS
 10
151.7169522302
 20
159.8317544684
 11
151.7169522302
 21
167.7297544684
  0
LINE
  8
0
 62
7
  6
CONTINUOUS
 10
152.3669522302
 20
186.3277544684
 11
152.3669522302
 21
178.4297544684
  0
LINE
  8
0
 62
7
  6
CONTINUOUS
 10
152.1965813616
 20
177.1356592429
 11
151.2012241141
 21
173.4209354233
  0
LINE
  8
0
 62
7
  6
CONTINUOUS
 10
151.8873230987
 20
169.0238496939
 11
152.8826803463
 21
172.7385735135
  0
LINE
  8
0
 62
7
  6
CONTINUOUS
 10
150.943690572
 20
156.2876401845
 11
151.5465813616
 21
158.5376592429
  0
LINE
  8
0
 62
7
  6
CONTINUOUS
 10
158.8873230987
 20
158.5376592429
 11
159.4902138884
 21
156.2876401845
  0
LINE
  8
0
 62
7
  6
CONTINUOUS
 10
157.5512241141
 20
172.7385735135
 11
158.5465813616
 21
169.0238496939
  0
LINE
  8
0
 62
7
  6
CONTINUOUS
 10
159.2326803463
 20
173.4209354233
 11
158.2373230987
 21
177.1356592429
  0
LINE
  8
0
 62
7
  6
CONTINUOUS
 10
158.0669522302
 20
178.4297544684
 11
158.0669522302
 21
186.3277544684
  0
LINE
  8
0
 62
7
  6
CONTINUOUS
 10
158.7169522302
 20
167.7297544684
 11
158.7169522302
 21
159.8317544684
  0
LINE
  8
0
 62
7
  6
CONTINUOUS
 10
165.85014362
 20
189.9089270151
 11
165.2373230987
 21
187.6218496939
  0
LINE
  8
0
 62
7
  6
CONTINUOUS
 10
164.8965813616
 20
177.1356592429
 11
163.9012241141
 21
173.4209354233
  0
LINE
  8
0
 62
7
  6
CONTINUOUS
 10
157.8965813616
 20
187.6218496939
 11
157.2837608404
 21
189.9089270151
  0
POLYLINE
  8
0
 62
7
  6
CONTINUOUS
 66
1
 70
0
  0
VERTEX
  8
0
 62
7
  6
CONTINUOUS
 10
169.0844915846
 20
185.7897544684
  0
VERTEX
  8
0
 62
7
  6
CONTINUOUS
 10
169.0793544012
 20
185.8897945898
  0
VERTEX
  8
0
 62
7
  6
CONTINUOUS
 10
169.0638922955
 20
185.9894285942
  0
VERTEX
  8
0
 62
7
  6
CONTINUOUS
 10
169.038060626
 20
186.0876169586
  0
VERTEX
  8
0
 62
7
  6
CONTINUOUS
 10
169.0017415759
 20
186.1836941062
  0
VERTEX
  8
0
 62
7
  6
CONTINUOUS
 10
168.9550217857
 20
186.2764412045
  0
VERTEX
  8
0
 62
7
  6
CONTINUOUS
 10
168.8979575274
 20
186.364889367
  0
VERTEX
  8
0
 62
7
  6
CONTINUOUS
 10
168.8312523372
 20
186.4473376119
  0
VERTEX
  8
0
 62
7
  6
CONTINUOUS
 10
168.7555542328
 20
186.5226361328
  0
VERTEX
  8
0
 62
7
  6
CONTINUOUS
 10
168.6723915444
 20
186.5891950067
  0
VERTEX
  8
0
 62
7
  6
CONTINUOUS
 10
168.5829685776
 20
186.6462292607
  0
VERTEX
  8
0
 62
7
  6
CONTINUOUS
 10
168.4891264368
 20
186.692915831
  0
VERTEX
  8
0
 62
7
  6
CONTINUOUS
 10
168.3920345355
 20
186.7291264675
  0
VERTEX
  8
0
 62
7
  6
CONTINUOUS
 10
168.2929316751
 20
186.7548220422
  0
VERTEX
  8
0
 62
7
  6
CONTINUOUS
 10
168.1925490218
 20
186.7701562083
  0
VERTEX
  8
0
 62
7
  6
CONTINUOUS
 10
168.0919522302
 20
186.7752288127
  0
SEQEND
  0
LINE
  8
0
 62
7
  6
CONTINUOUS
 10
164.4169522302
 20
159.8317544684
 11
164.4169522302
 21
167.7297544684
  0
LINE
  8
0
 62
7
  6
CONTINUOUS
 10
165.0669522302
 20
186.3277544684
 11
165.0669522302
 21
178.4297544684
  0
LINE
  8
0
 62
7
  6
CONTINUOUS
 10
169.0844915846
 20
185.7897544684
 11
169.0844922693
 21
177.0897544684
  0
LINE
  8
0
 62
7
  6
CONTINUOUS
 10
170.9169522302
 20
175.9797544684
 11
170.9169522302
 21
186.3277544684
  0
LINE
  8
0
 62
7
  6
CONTINUOUS
 10
166.8994128758
 20
185.7897544684
 11
166.899412191
 21
177.0897544684
  0
LINE
  8
0
 62
7
  6
CONTINUOUS
 10
164.5873230987
 20
169.0238496939
 11
165.5826803463
 21
172.7385735135
  0
LINE
  8
0
 62
7
  6
CONTINUOUS
 10
163.643690572
 20
156.2876401845
 11
164.2465813616
 21
158.5376592429
  0
POLYLINE
  8
0
 62
7
  6
CONTINUOUS
 66
1
 70
0
  0
VERTEX
  8
0
 62
7
  6
CONTINUOUS
 10
166.9218822691
 20
176.8797544684
  0
VERTEX
  8
0
 62
7
  6
CONTINUOUS
 10
166.9479773148
 20
176.783289845
  0
VERTEX
  8
0
 62
7
  6
CONTINUOUS
 10
166.9842457924
 20
176.6888693776
  0
VERTEX
  8
0
 62
7
  6
CONTINUOUS
 10
167.0305191482
 20
176.5978342999
  0
VERTEX
  8
0
 62
7
  6
CONTINUOUS
 10
167.0866882155
 20
176.5111098922
  0
VERTEX
  8
0
 62
7
  6
CONTINUOUS
 10
167.1522266608
 20
176.4300775995
  0
VERTEX
  8
0
 62
7
  6
CONTINUOUS
 10
167.2266630822
 20
176.3557535717
  0
VERTEX
  8
0
 62
7
  6
CONTINUOUS
 10
167.308688253
 20
176.2896628166
  0
VERTEX
  8
0
 62
7
  6
CONTINUOUS
 10
167.3973298979
 20
176.2326046765
  0
VERTEX
  8
0
 62
7
  6
CONTINUOUS
 10
167.4908854912
 20
176.1855334091
  0
VERTEX
  8
0
 62
7
  6
CONTINUOUS
 10
167.5883023148
 20
176.148729993
  0
VERTEX
  8
0
 62
7
  6
CONTINUOUS
 10
167.6882473179
 20
176.1224484468
  0
VERTEX
  8
0
 62
7
  6
CONTINUOUS
 10
167.7898681119
 20
176.1066912558
  0
VERTEX
  8
0
 62
7
  6
CONTINUOUS
 10
167.8919522302
 20
176.1014634087
  0
SEQEND
  0
LINE
  8
0
 62
7
  6
CONTINUOUS
 10
170.7465813616
 20
187.6218496939
 11
170.1337608404
 21
189.9089270151
  0
LINE
  8
0
 62
7
  6
CONTINUOUS
 10
18.8669522302
 20
114.9713780919
 11
18.8669522302
 21
111.65727415
  0
LINE
  8
0
 62
7
  6
CONTINUOUS
 10
18.8669522302
 20
106.6854820338
 11
18.8669522302
 21
103.3713780919
  0
LINE
  8
SURFACE
 62
7
  6
CONTINUOUS
 10
19.2270056114
 20
109.2713780919
 11
19.2270056114
 21
109.0713780919
  0
POLYLINE
  8
SURFACE
 62
7
  6
CONTINUOUS
 66
1
 70
0
  0
VERTEX
  8
SURFACE
 62
7
  6
CONTINUOUS
 10
19.2270056114
 20
109.0713780919
  0
VERTEX
  8
SURFACE
 62
7
  6
CONTINUOUS
 10
19.2250441564
 20
108.87829861
  0
VERTEX
  8
SURFACE
 62
7
  6
CONTINUOUS
 10
19.2191675876
 20
108.686243009
  0
VERTEX
  8
SURFACE
 62
7
  6
CONTINUOUS
 10
19.2093980081
 20
108.4962124914
  0
VERTEX
  8
SURFACE
 62
7
  6
CONTINUOUS
 10
19.1957729094
 20
108.3092234818
  0
VERTEX
  8
SURFACE
 62
7
  6
CONTINUOUS
 10
19.1783457446
 20
108.1262925785
  0
VERTEX
  8
SURFACE
 62
7
  6
CONTINUOUS
 10
19.1571869639
 20
107.948437601
  0
VERTEX
  8
SURFACE
 62
7
  6
CONTINUOUS
 10
19.1323854239
 20
107.7766771428
  0
VERTEX
  8
SURFACE
 62
7
  6
CONTINUOUS
 10
19.1040496902
 20
107.6120262788
  0
VERTEX
  8
SURFACE
 62
7
  6
CONTINUOUS
 10
19.0723094552
 20
107.4554917976
  0
VERTEX
  8
SURFACE
 62
7
  6
CONTINUOUS
 10
19.0373230987
 20
107.3080899191
  0
SEQEND
  0
POLYLINE
  8
SURFACE
 62
7
  6
CONTINUOUS
 66
1
 70
0
  0
VERTEX
  8
SURFACE
 62
7
  6
CONTINUOUS
 10
18.8669522302
 20
111.65727415
  0
VERTEX
  8
SURFACE
 62
7
  6
CONTINUOUS
 10
18.8719927911
 20
111.5912293015
  0
VERTEX
  8
SURFACE
 62
7
  6
CONTINUOUS
 10
18.8871972842
 20
111.5119491426
  0
VERTEX
  8
SURFACE
 62
7
  6
CONTINUOUS
 10
18.9125294235
 20
111.4187819542
  0
VERTEX
  8
SURFACE
 62
7
  6
CONTINUOUS
 10
18.9478836229
 20
111.3106597902
  0
VERTEX
  8
SURFACE
 62
7
  6
CONTINUOUS
 10
18.9929149934
 20
111.1866239537
  0
VERTEX
  8
SURFACE
 62
7
  6
CONTINUOUS
 10
19.0468434764
 20
111.0459995794
  0
VERTEX
  8
SURFACE
 62
7
  6
CONTINUOUS
 10
19.1079025283
 20
110.8894932919
  0
VERTEX
  8
SURFACE
 62
7
  6
CONTINUOUS
 10
19.1730641345
 20
110.7198272618
  0
VERTEX
  8
SURFACE
 62
7
  6
CONTINUOUS
 10
19.2388978092
 20
110.5400340413
  0
VERTEX
  8
SURFACE
 62
7
  6
CONTINUOUS
 10
19.3018528632
 20
110.3534510994
  0
VERTEX
  8
SURFACE
 62
7
  6
CONTINUOUS
 10
19.3582540131
 20
110.1648943659
  0
VERTEX
  8
SURFACE
 62
7
  6
CONTINUOUS
 10
19.4052789315
 20
109.9792245587
  0
VERTEX
  8
SURFACE
 62
7
  6
CONTINUOUS
 10
19.4419277035
 20
109.797757444
  0
VERTEX
  8
SURFACE
 62
7
  6
CONTINUOUS
 10
19.468097586
 20
109.6193522777
  0
VERTEX
  8
SURFACE
 62
7
  6
CONTINUOUS
 10
19.4836815585
 20
109.4437274178
  0
VERTEX
  8
SURFACE
 62
7
  6
CONTINUOUS
 10
19.4887882331
 20
109.2713780919
  0
SEQEND
  0
LINE
  8
SURFACE
 62
7
  6
CONTINUOUS
 10
19.4887882331
 20
109.2713780919
 11
19.4887882331
 21
109.0713780919
  0
POLYLINE
  8
SURFACE
 62
7
  6
CONTINUOUS
 66
1
 70
0
  0
VERTEX
  8
SURFACE
 62
7
  6
CONTINUOUS
 10
19.4887882331
 20
109.0713780919
  0
VERTEX
  8
SURFACE
 62
7
  6
CONTINUOUS
 10
19.4837029542
 20
108.8993909097
  0
VERTEX
  8
SURFACE
 62
7
  6
CONTINUOUS
 10
19.4683368847
 20
108.7254382039
  0
VERTEX
  8
SURFACE
 62
7
  6
CONTINUOUS
 10
19.4424324207
 20
108.5478933927
  0
VERTEX
  8
SURFACE
 62
7
  6
CONTINUOUS
 10
19.4057907363
 20
108.365776787
  0
VERTEX
  8
SURFACE
 62
7
  6
CONTINUOUS
 10
19.3586859136
 20
108.1794209795
  0
VERTEX
  8
SURFACE
 62
7
  6
CONTINUOUS
 10
19.3022783936
 20
107.9906364869
  0
VERTEX
  8
SURFACE
 62
7
  6
CONTINUOUS
 10
19.2393179681
 20
107.8039106895
  0
VERTEX
  8
SURFACE
 62
7
  6
CONTINUOUS
 10
19.1734433723
 20
107.62393475
  0
VERTEX
  8
SURFACE
 62
7
  6
CONTINUOUS
 10
19.1082193852
 20
107.4540770778
  0
VERTEX
  8
SURFACE
 62
7
  6
CONTINUOUS
 10
19.0470889651
 20
107.2973877301
  0
VERTEX
  8
SURFACE
 62
7
  6
CONTINUOUS
 10
18.9930903624
 20
107.1565992484
  0
VERTEX
  8
SURFACE
 62
7
  6
CONTINUOUS
 10
18.9479969136
 20
107.032422429
  0
VERTEX
  8
SURFACE
 62
7
  6
CONTINUOUS
 10
18.912593047
 20
106.9241846382
  0
VERTEX
  8
SURFACE
 62
7
  6
CONTINUOUS
 10
18.8872252819
 20
106.8309258315
  0
VERTEX
  8
SURFACE
 62
7
  6
CONTINUOUS
 10
18.8719998148
 20
106.7515772675
  0
VERTEX
  8
SURFACE
 62
7
  6
CONTINUOUS
 10
18.8669522302
 20
106.6854820338
  0
SEQEND
  0
LINE
  8
SURFACE
 62
7
  6
CONTINUOUS
 10
19.0373230987
 20
107.3080899191
 11
19.0078020069
 21
107.1949563536
  0
LINE
  8
SURFACE
 62
7
  6
CONTINUOUS
 10
19.007798248
 20
111.1478142516
 11
19.0373230987
 21
111.0346662646
  0
POLYLINE
  8
SURFACE
 62
7
  6
CONTINUOUS
 66
1
 70
0
  0
VERTEX
  8
SURFACE
 62
7
  6
CONTINUOUS
 10
19.0373230987
 20
111.0346662646
  0
VERTEX
  8
SURFACE
 62
7
  6
CONTINUOUS
 10
19.0723094594
 20
110.8872643669
  0
VERTEX
  8
SURFACE
 62
7
  6
CONTINUOUS
 10
19.1040497374
 20
110.7307296524
  0
VERTEX
  8
SURFACE
 62
7
  6
CONTINUOUS
 10
19.132385518
 20
110.5660784449
  0
VERTEX
  8
SURFACE
 62
7
  6
CONTINUOUS
 10
19.1571870846
 20
110.3943176649
  0
VERTEX
  8
SURFACE
 62
7
  6
CONTINUOUS
 10
19.1783458656
 20
110.2164624732
  0
VERTEX
  8
SURFACE
 62
7
  6
CONTINUOUS
 10
19.195773012
 20
110.0335314788
  0
VERTEX
  8
SURFACE
 62
7
  6
CONTINUOUS
 10
19.2093980815
 20
109.84654251
  0
VERTEX
  8
SURFACE
 62
7
  6
CONTINUOUS
 10
19.2191676278
 20
109.6565121919
  0
VERTEX
  8
SURFACE
 62
7
  6
CONTINUOUS
 10
19.2250441685
 20
109.4644569803
  0
VERTEX
  8
SURFACE
 62
7
  6
CONTINUOUS
 10
19.2270056114
 20
109.2713780919
  0
SEQEND
  0
POLYLINE
  8
SURFACE
 62
7
  6
CONTINUOUS
 66
1
 70
0
  0
VERTEX
  8
SURFACE
 62
7
  6
CONTINUOUS
 10
24.4447414433
 20
109.0713780919
  0
VERTEX
  8
SURFACE
 62
7
  6
CONTINUOUS
 10
24.4469768196
 20
108.8652777609
  0
VERTEX
  8
SURFACE
 62
7
  6
CONTINUOUS
 10
24.4536734961
 20
108.6604077179
  0
VERTEX
  8
SURFACE
 62
7
  6
CONTINUOUS
 10
24.4648028594
 20
108.4580000735
  0
VERTEX
  8
SURFACE
 62
7
  6
CONTINUOUS
 10
24.4803163625
 20
108.259290297
  0
VERTEX
  8
SURFACE
 62
7
  6
CONTINUOUS
 10
24.5001442339
 20
108.0655179827
  0
VERTEX
  8
SURFACE
 62
7
  6
CONTINUOUS
 10
24.5241941787
 20
107.8779228954
  0
VERTEX
  8
SURFACE
 62
7
  6
CONTINUOUS
 10
24.5523492728
 20
107.6977448216
  0
VERTEX
  8
SURFACE
 62
7
  6
CONTINUOUS
 10
24.5844659772
 20
107.5262173708
  0
VERTEX
  8
SURFACE
 62
7
  6
CONTINUOUS
 10
24.6203722238
 20
107.364559548
  0
VERTEX
  8
SURFACE
 62
7
  6
CONTINUOUS
 10
24.6598661215
 20
107.2139635868
  0
VERTEX
  8
SURFACE
 62
7
  6
CONTINUOUS
 10
24.7027140961
 20
107.0755846272
  0
VERTEX
  8
SURFACE
 62
7
  6
CONTINUOUS
 10
24.7486501706
 20
106.9505248861
  0
VERTEX
  8
SURFACE
 62
7
  6
CONTINUOUS
 10
24.7973762954
 20
106.8398157869
  0
VERTEX
  8
SURFACE
 62
7
  6
CONTINUOUS
 10
24.8485633043
 20
106.7444003101
  0
VERTEX
  8
SURFACE
 62
7
  6
CONTINUOUS
 10
24.9018524174
 20
106.6651156772
  0
VERTEX
  8
SURFACE
 62
7
  6
CONTINUOUS
 10
24.9568581378
 20
106.6026754531
  0
VERTEX
  8
SURFACE
 62
7
  6
CONTINUOUS
 10
25.0131725727
 20
106.5576529842
  0
VERTEX
  8
SURFACE
 62
7
  6
CONTINUOUS
 10
25.0703699039
 20
106.5304683765
  0
VERTEX
  8
SURFACE
 62
7
  6
CONTINUOUS
 10
25.128011884
 20
106.5213780919
  0
SEQEND
  0
POLYLINE
  8
SURFACE
 62
7
  6
CONTINUOUS
 66
1
 70
0
  0
VERTEX
  8
SURFACE
 62
7
  6
CONTINUOUS
 10
25.7270056114
 20
109.2713780919
  0
VERTEX
  8
SURFACE
 62
7
  6
CONTINUOUS
 10
25.7250441564
 20
109.4644575737
  0
VERTEX
  8
SURFACE
 62
7
  6
CONTINUOUS
 10
25.7191675876
 20
109.6565131747
  0
VERTEX
  8
SURFACE
 62
7
  6
CONTINUOUS
 10
25.7093980081
 20
109.8465436923
  0
VERTEX
  8
SURFACE
 62
7
  6
CONTINUOUS
 10
25.6957729094
 20
110.0335327019
  0
VERTEX
  8
SURFACE
 62
7
  6
CONTINUOUS
 10
25.6783457446
 20
110.2164636052
  0
VERTEX
  8
SURFACE
 62
7
  6
CONTINUOUS
 10
25.6571869639
 20
110.3943185827
  0
VERTEX
  8
SURFACE
 62
7
  6
CONTINUOUS
 10
25.6323854239
 20
110.566079041
  0
VERTEX
  8
SURFACE
 62
7
  6
CONTINUOUS
 10
25.6040496902
 20
110.7307299049
  0
VERTEX
  8
SURFACE
 62
7
  6
CONTINUOUS
 10
25.5723094552
 20
110.8872643861
  0
VERTEX
  8
SURFACE
 62
7
  6
CONTINUOUS
 10
25.5373230987
 20
111.0346662646
  0
SEQEND
  0
LINE
  8
SURFACE
 62
7
  6
CONTINUOUS
 10
24.4447414433
 20
109.2713780919
 11
24.4447414433
 21
109.0713780919
  0
LINE
  8
0
 62
7
  6
CONTINUOUS
 10
25.3669522302
 20
103.3713780919
 11
25.3669522302
 21
106.5809572439
  0
LINE
  8
0
 62
7
  6
CONTINUOUS
 10
25.3669522302
 20
111.7617989398
 11
25.3669522302
 21
114.9713780919
  0
LINE
  8
SURFACE
 62
7
  6
CONTINUOUS
 10
25.7270056114
 20
109.0713780919
 11
25.7270056114
 21
109.2713780919
  0
POLYLINE
  8
SURFACE
 62
7
  6
CONTINUOUS
 66
1
 70
0
  0
VERTEX
  8
SURFACE
 62
7
  6
CONTINUOUS
 10
25.3669522302
 20
106.5809572439
  0
VERTEX
  8
SURFACE
 62
7
  6
CONTINUOUS
 10
25.3700208667
 20
106.6260649326
  0
VERTEX
  8
SURFACE
 62
7
  6
CONTINUOUS
 10
25.379102641
 20
106.6841130974
  0
VERTEX
  8
SURFACE
 62
7
  6
CONTINUOUS
 10
25.3939670974
 20
106.7553703131
  0
VERTEX
  8
SURFACE
 62
7
  6
CONTINUOUS
 10
25.4142306402
 20
106.8398250872
  0
VERTEX
  8
SURFACE
 62
7
  6
CONTINUOUS
 10
25.4394359099
 20
106.937626548
  0
SEQEND
  0
POLYLINE
  8
SURFACE
 62
7
  6
CONTINUOUS
 66
1
 70
0
  0
VERTEX
  8
SURFACE
 62
7
  6
CONTINUOUS
 10
25.5373230987
 20
107.3080899191
  0
VERTEX
  8
SURFACE
 62
7
  6
CONTINUOUS
 10
25.5723094594
 20
107.4554918169
  0
VERTEX
  8
SURFACE
 62
7
  6
CONTINUOUS
 10
25.6040497374
 20
107.6120265314
  0
VERTEX
  8
SURFACE
 62
7
  6
CONTINUOUS
 10
25.632385518
 20
107.7766777388
  0
VERTEX
  8
SURFACE
 62
7
  6
CONTINUOUS
 10
25.6571870846
 20
107.9484385188
  0
VERTEX
  8
SURFACE
 62
7
  6
CONTINUOUS
 10
25.6783458656
 20
108.1262937105
  0
VERTEX
  8
SURFACE
 62
7
  6
CONTINUOUS
 10
25.695773012
 20
108.309224705
  0
VERTEX
  8
SURFACE
 62
7
  6
CONTINUOUS
 10
25.7093980815
 20
108.4962136737
  0
VERTEX
  8
SURFACE
 62
7
  6
CONTINUOUS
 10
25.7191676278
 20
108.6862439918
  0
VERTEX
  8
SURFACE
 62
7
  6
CONTINUOUS
 10
25.7250441685
 20
108.8782992034
  0
VERTEX
  8
SURFACE
 62
7
  6
CONTINUOUS
 10
25.7270056114
 20
109.0713780919
  0
SEQEND
  0
POLYLINE
  8
SURFACE
 62
7
  6
CONTINUOUS
 66
1
 70
0
  0
VERTEX
  8
SURFACE
 62
7
  6
CONTINUOUS
 10
25.4394359099
 20
106.937626548
  0
VERTEX
  8
SURFACE
 62
7
  6
CONTINUOUS
 10
25.5018667465
 20
107.172210964
  0
VERTEX
  8
SURFACE
 62
7
  6
CONTINUOUS
 10
25.5373230987
 20
107.3080899191
  0
SEQEND
  0
POLYLINE
  8
SURFACE
 62
7
  6
CONTINUOUS
 66
1
 70
0
  0
VERTEX
  8
SURFACE
 62
7
  6
CONTINUOUS
 10
25.5018663923
 20
111.1705465581
  0
VERTEX
  8
SURFACE
 62
7
  6
CONTINUOUS
 10
25.4394355056
 20
111.4051311726
  0
VERTEX
  8
SURFACE
 62
7
  6
CONTINUOUS
 10
25.4142300857
 20
111.5029333104
  0
VERTEX
  8
SURFACE
 62
7
  6
CONTINUOUS
 10
25.3939667674
 20
111.5873873272
  0
VERTEX
  8
SURFACE
 62
7
  6
CONTINUOUS
 10
25.3791026439
 20
111.6586430709
  0
VERTEX
  8
SURFACE
 62
7
  6
CONTINUOUS
 10
25.3700209307
 20
111.716690711
  0
VERTEX
  8
SURFACE
 62
7
  6
CONTINUOUS
 10
25.3669522302
 20
111.7617989398
  0
SEQEND
  0
LINE
  8
SURFACE
 62
7
  6
CONTINUOUS
 10
25.5373230987
 20
111.0346662646
 11
25.5018663923
 21
111.1705465581
  0
LINE
  8
SURFACE
 62
7
  6
CONTINUOUS
 10
30.706898849
 20
109.0713780919
 11
30.706898849
 21
109.2713780919
  0
LINE
  8
SURFACE
 62
7
  6
CONTINUOUS
 10
31.0669522302
 20
106.5809572551
 11
31.0669522302
 21
103.4124715415
  0
LINE
  8
0
 62
7
  6
CONTINUOUS
 10
31.0669522302
 20
103.3713780919
 11
31.0669522302
 21
106.5809572485
  0
LINE
  8
0
 62
7
  6
CONTINUOUS
 10
31.0669522302
 20
111.7617989259
 11
31.0669522302
 21
114.9713780919
  0
LINE
  8
SURFACE
 62
7
  6
CONTINUOUS
 10
31.9891630171
 20
109.2713780919
 11
31.9891630171
 21
109.0713780919
  0
POLYLINE
  8
SURFACE
 62
7
  6
CONTINUOUS
 66
1
 70
0
  0
VERTEX
  8
SURFACE
 62
7
  6
CONTINUOUS
 10
30.706898849
 20
109.2713780919
  0
VERTEX
  8
SURFACE
 62
7
  6
CONTINUOUS
 10
30.7088603039
 20
109.4644575737
  0
VERTEX
  8
SURFACE
 62
7
  6
CONTINUOUS
 10
30.7147368728
 20
109.6565131747
  0
VERTEX
  8
SURFACE
 62
7
  6
CONTINUOUS
 10
30.7245064522
 20
109.8465436923
  0
VERTEX
  8
SURFACE
 62
7
  6
CONTINUOUS
 10
30.738131551
 20
110.0335327019
  0
VERTEX
  8
SURFACE
 62
7
  6
CONTINUOUS
 10
30.7555587158
 20
110.2164636052
  0
VERTEX
  8
SURFACE
 62
7
  6
CONTINUOUS
 10
30.7767174964
 20
110.3943185827
  0
VERTEX
  8
SURFACE
 62
7
  6
CONTINUOUS
 10
30.8015190365
 20
110.566079041
  0
VERTEX
  8
SURFACE
 62
7
  6
CONTINUOUS
 10
30.8298547702
 20
110.7307299049
  0
VERTEX
  8
SURFACE
 62
7
  6
CONTINUOUS
 10
30.8615950052
 20
110.8872643861
  0
VERTEX
  8
SURFACE
 62
7
  6
CONTINUOUS
 10
30.8965813616
 20
111.0346662646
  0
SEQEND
  0
POLYLINE
  8
SURFACE
 62
7
  6
CONTINUOUS
 66
1
 70
0
  0
VERTEX
  8
SURFACE
 62
7
  6
CONTINUOUS
 10
31.9891630171
 20
109.0713780919
  0
VERTEX
  8
SURFACE
 62
7
  6
CONTINUOUS
 10
31.9869276408
 20
108.8652777609
  0
VERTEX
  8
SURFACE
 62
7
  6
CONTINUOUS
 10
31.9802309643
 20
108.6604077179
  0
VERTEX
  8
SURFACE
 62
7
  6
CONTINUOUS
 10
31.969101601
 20
108.4580000735
  0
VERTEX
  8
SURFACE
 62
7
  6
CONTINUOUS
 10
31.9535880979
 20
108.259290297
  0
VERTEX
  8
SURFACE
 62
7
  6
CONTINUOUS
 10
31.9337602265
 20
108.0655179827
  0
VERTEX
  8
SURFACE
 62
7
  6
CONTINUOUS
 10
31.9097102816
 20
107.8779228954
  0
VERTEX
  8
SURFACE
 62
7
  6
CONTINUOUS
 10
31.8815551876
 20
107.6977448216
  0
VERTEX
  8
SURFACE
 62
7
  6
CONTINUOUS
 10
31.8494384831
 20
107.5262173708
  0
VERTEX
  8
SURFACE
 62
7
  6
CONTINUOUS
 10
31.8135322366
 20
107.364559548
  0
VERTEX
  8
SURFACE
 62
7
  6
CONTINUOUS
 10
31.7740383389
 20
107.2139635868
  0
VERTEX
  8
SURFACE
 62
7
  6
CONTINUOUS
 10
31.7311903643
 20
107.0755846272
  0
VERTEX
  8
SURFACE
 62
7
  6
CONTINUOUS
 10
31.6852542897
 20
106.9505248861
  0
VERTEX
  8
SURFACE
 62
7
  6
CONTINUOUS
 10
31.636528165
 20
106.8398157869
  0
VERTEX
  8
SURFACE
 62
7
  6
CONTINUOUS
 10
31.5853411561
 20
106.7444003101
  0
VERTEX
  8
SURFACE
 62
7
  6
CONTINUOUS
 10
31.532052043
 20
106.6651156772
  0
VERTEX
  8
SURFACE
 62
7
  6
CONTINUOUS
 10
31.4770463226
 20
106.6026754531
  0
VERTEX
  8
SURFACE
 62
7
  6
CONTINUOUS
 10
31.4207318877
 20
106.5576529842
  0
VERTEX
  8
SURFACE
 62
7
  6
CONTINUOUS
 10
31.3635345564
 20
106.5304683765
  0
VERTEX
  8
SURFACE
 62
7
  6
CONTINUOUS
 10
31.3058925764
 20
106.5213780919
  0
SEQEND
  0
POLYLINE
  8
SURFACE
 62
7
  6
CONTINUOUS
 66
1
 70
0
  0
VERTEX
  8
SURFACE
 62
7
  6
CONTINUOUS
 10
31.0669522302
 20
111.7617989839
  0
VERTEX
  8
SURFACE
 62
7
  6
CONTINUOUS
 10
31.063884203
 20
111.7166963921
  0
VERTEX
  8
SURFACE
 62
7
  6
CONTINUOUS
 10
31.0548028307
 20
111.6586485235
  0
VERTEX
  8
SURFACE
 62
7
  6
CONTINUOUS
 10
31.0399368733
 20
111.5873837092
  0
VERTEX
  8
SURFACE
 62
7
  6
CONTINUOUS
 10
31.0196714686
 20
111.502921708
  0
VERTEX
  8
SURFACE
 62
7
  6
CONTINUOUS
 10
30.9944652558
 20
111.4051171123
  0
SEQEND
  0
POLYLINE
  8
SURFACE
 62
7
  6
CONTINUOUS
 66
1
 70
0
  0
VERTEX
  8
SURFACE
 62
7
  6
CONTINUOUS
 10
30.9944652558
 20
111.4051171123
  0
VERTEX
  8
SURFACE
 62
7
  6
CONTINUOUS
 10
30.9320324049
 20
111.1705251596
  0
VERTEX
  8
SURFACE
 62
7
  6
CONTINUOUS
 10
30.8965813616
 20
111.0346662646
  0
SEQEND
  0
POLYLINE
  8
SURFACE
 62
7
  6
CONTINUOUS
 66
1
 70
0
  0
VERTEX
  8
SURFACE
 62
7
  6
CONTINUOUS
 10
30.9320320427
 20
107.1722323927
  0
VERTEX
  8
SURFACE
 62
7
  6
CONTINUOUS
 10
30.9944648473
 20
106.937640624
  0
VERTEX
  8
SURFACE
 62
7
  6
CONTINUOUS
 10
31.0196709035
 20
106.8398367317
  0
VERTEX
  8
SURFACE
 62
7
  6
CONTINUOUS
 10
31.0399365398
 20
106.7553739467
  0
VERTEX
  8
SURFACE
 62
7
  6
CONTINUOUS
 10
31.0548028314
 20
106.6841076561
  0
VERTEX
  8
SURFACE
 62
7
  6
CONTINUOUS
 10
31.0638842734
 20
106.6260591971
  0
VERTEX
  8
SURFACE
 62
7
  6
CONTINUOUS
 10
31.0669522302
 20
106.5809571817
  0
SEQEND
  0
LINE
  8
SURFACE
 62
7
  6
CONTINUOUS
 10
30.8965813616
 20
107.3080899191
 11
30.9320320427
 21
107.1722323927
  0
POLYLINE
  8
SURFACE
 62
7
  6
CONTINUOUS
 66
1
 70
0
  0
VERTEX
  8
SURFACE
 62
7
  6
CONTINUOUS
 10
30.8965813616
 20
107.3080899191
  0
VERTEX
  8
SURFACE
 62
7
  6
CONTINUOUS
 10
30.861595001
 20
107.4554918169
  0
VERTEX
  8
SURFACE
 62
7
  6
CONTINUOUS
 10
30.8298547229
 20
107.6120265314
  0
VERTEX
  8
SURFACE
 62
7
  6
CONTINUOUS
 10
30.8015189424
 20
107.7766777388
  0
VERTEX
  8
SURFACE
 62
7
  6
CONTINUOUS
 10
30.7767173758
 20
107.9484385188
  0
VERTEX
  8
SURFACE
 62
7
  6
CONTINUOUS
 10
30.7555585947
 20
108.1262937105
  0
VERTEX
  8
SURFACE
 62
7
  6
CONTINUOUS
 10
30.7381314483
 20
108.309224705
  0
VERTEX
  8
SURFACE
 62
7
  6
CONTINUOUS
 10
30.7245063789
 20
108.4962136737
  0
VERTEX
  8
SURFACE
 62
7
  6
CONTINUOUS
 10
30.7147368326
 20
108.6862439918
  0
VERTEX
  8
SURFACE
 62
7
  6
CONTINUOUS
 10
30.7088602919
 20
108.8782992034
  0
VERTEX
  8
SURFACE
 62
7
  6
CONTINUOUS
 10
30.706898849
 20
109.0713780919
  0
SEQEND
  0
POLYLINE
  8
SURFACE
 62
7
  6
CONTINUOUS
 66
1
 70
0
  0
VERTEX
  8
SURFACE
 62
7
  6
CONTINUOUS
 10
37.1447414433
 20
109.0713780919
  0
VERTEX
  8
SURFACE
 62
7
  6
CONTINUOUS
 10
37.1469768196
 20
108.8652777609
  0
VERTEX
  8
SURFACE
 62
7
  6
CONTINUOUS
 10
37.1536734961
 20
108.6604077179
  0
VERTEX
  8
SURFACE
 62
7
  6
CONTINUOUS
 10
37.1648028594
 20
108.4580000735
  0
VERTEX
  8
SURFACE
 62
7
  6
CONTINUOUS
 10
37.1803163625
 20
108.259290297
  0
VERTEX
  8
SURFACE
 62
7
  6
CONTINUOUS
 10
37.2001442339
 20
108.0655179827
  0
VERTEX
  8
SURFACE
 62
7
  6
CONTINUOUS
 10
37.2241941787
 20
107.8779228954
  0
VERTEX
  8
SURFACE
 62
7
  6
CONTINUOUS
 10
37.2523492728
 20
107.6977448216
  0
VERTEX
  8
SURFACE
 62
7
  6
CONTINUOUS
 10
37.2844659772
 20
107.5262173708
  0
VERTEX
  8
SURFACE
 62
7
  6
CONTINUOUS
 10
37.3203722238
 20
107.364559548
  0
VERTEX
  8
SURFACE
 62
7
  6
CONTINUOUS
 10
37.3598661215
 20
107.2139635868
  0
VERTEX
  8
SURFACE
 62
7
  6
CONTINUOUS
 10
37.4027140961
 20
107.0755846272
  0
VERTEX
  8
SURFACE
 62
7
  6
CONTINUOUS
 10
37.4486501706
 20
106.9505248861
  0
VERTEX
  8
SURFACE
 62
7
  6
CONTINUOUS
 10
37.4973762954
 20
106.8398157869
  0
VERTEX
  8
SURFACE
 62
7
  6
CONTINUOUS
 10
37.5485633043
 20
106.7444003101
  0
VERTEX
  8
SURFACE
 62
7
  6
CONTINUOUS
 10
37.6018524174
 20
106.6651156772
  0
VERTEX
  8
SURFACE
 62
7
  6
CONTINUOUS
 10
37.6568581378
 20
106.6026754531
  0
VERTEX
  8
SURFACE
 62
7
  6
CONTINUOUS
 10
37.7131725727
 20
106.5576529842
  0
VERTEX
  8
SURFACE
 62
7
  6
CONTINUOUS
 10
37.7703699039
 20
106.5304683765
  0
VERTEX
  8
SURFACE
 62
7
  6
CONTINUOUS
 10
37.828011884
 20
106.5213780919
  0
SEQEND
  0
POLYLINE
  8
SURFACE
 62
7
  6
CONTINUOUS
 66
1
 70
0
  0
VERTEX
  8
SURFACE
 62
7
  6
CONTINUOUS
 10
38.4270056114
 20
109.2713780919
  0
VERTEX
  8
SURFACE
 62
7
  6
CONTINUOUS
 10
38.4250441564
 20
109.4644575737
  0
VERTEX
  8
SURFACE
 62
7
  6
CONTINUOUS
 10
38.4191675876
 20
109.6565131747
  0
VERTEX
  8
SURFACE
 62
7
  6
CONTINUOUS
 10
38.4093980081
 20
109.8465436923
  0
VERTEX
  8
SURFACE
 62
7
  6
CONTINUOUS
 10
38.3957729094
 20
110.0335327019
  0
VERTEX
  8
SURFACE
 62
7
  6
CONTINUOUS
 10
38.3783457446
 20
110.2164636052
  0
VERTEX
  8
SURFACE
 62
7
  6
CONTINUOUS
 10
38.3571869639
 20
110.3943185827
  0
VERTEX
  8
SURFACE
 62
7
  6
CONTINUOUS
 10
38.3323854239
 20
110.566079041
  0
VERTEX
  8
SURFACE
 62
7
  6
CONTINUOUS
 10
38.3040496902
 20
110.7307299049
  0
VERTEX
  8
SURFACE
 62
7
  6
CONTINUOUS
 10
38.2723094552
 20
110.8872643861
  0
VERTEX
  8
SURFACE
 62
7
  6
CONTINUOUS
 10
38.2373230987
 20
111.0346662646
  0
SEQEND
  0
LINE
  8
SURFACE
 62
7
  6
CONTINUOUS
 10
37.1447414433
 20
109.2713780919
 11
37.1447414433
 21
109.0713780919
  0
LINE
  8
0
 62
7
  6
CONTINUOUS
 10
38.0669522302
 20
103.3713780919
 11
38.0669522302
 21
106.5809572439
  0
LINE
  8
0
 62
7
  6
CONTINUOUS
 10
38.0669522302
 20
111.7617989398
 11
38.0669522302
 21
114.9713780919
  0
LINE
  8
SURFACE
 62
7
  6
CONTINUOUS
 10
38.4270056114
 20
109.0713780919
 11
38.4270056114
 21
109.2713780919
  0
POLYLINE
  8
SURFACE
 62
7
  6
CONTINUOUS
 66
1
 70
0
  0
VERTEX
  8
SURFACE
 62
7
  6
CONTINUOUS
 10
38.0669522302
 20
106.5809572439
  0
VERTEX
  8
SURFACE
 62
7
  6
CONTINUOUS
 10
38.0700208667
 20
106.6260649326
  0
VERTEX
  8
SURFACE
 62
7
  6
CONTINUOUS
 10
38.079102641
 20
106.6841130974
  0
VERTEX
  8
SURFACE
 62
7
  6
CONTINUOUS
 10
38.0939670974
 20
106.7553703131
  0
VERTEX
  8
SURFACE
 62
7
  6
CONTINUOUS
 10
38.1142306402
 20
106.8398250872
  0
VERTEX
  8
SURFACE
 62
7
  6
CONTINUOUS
 10
38.1394359099
 20
106.937626548
  0
SEQEND
  0
LINE
  8
SURFACE
 62
7
  6
CONTINUOUS
 10
43.406898849
 20
109.0713780919
 11
43.406898849
 21
109.2713780919
  0
LINE
  8
SURFACE
 62
7
  6
CONTINUOUS
 10
43.7669522302
 20
114.9302846422
 11
43.7669522302
 21
111.7617989398
  0
LINE
  8
SURFACE
 62
7
  6
CONTINUOUS
 10
43.7669522302
 20
106.5809572439
 11
43.7669522302
 21
103.4124715415
  0
LINE
  8
0
 62
7
  6
CONTINUOUS
 10
43.7669522302
 20
103.3713780919
 11
43.7669522302
 21
106.5809572439
  0
LINE
  8
0
 62
7
  6
CONTINUOUS
 10
43.7669522302
 20
111.7617989398
 11
43.7669522302
 21
114.9713780919
  0
LINE
  8
SURFACE
 62
7
  6
CONTINUOUS
 10
44.6891630171
 20
109.2713780919
 11
44.6891630171
 21
109.0713780919
  0
POLYLINE
  8
SURFACE
 62
7
  6
CONTINUOUS
 66
1
 70
0
  0
VERTEX
  8
SURFACE
 62
7
  6
CONTINUOUS
 10
43.406898849
 20
109.2713780919
  0
VERTEX
  8
SURFACE
 62
7
  6
CONTINUOUS
 10
43.4088603039
 20
109.4644575737
  0
VERTEX
  8
SURFACE
 62
7
  6
CONTINUOUS
 10
43.4147368728
 20
109.6565131747
  0
VERTEX
  8
SURFACE
 62
7
  6
CONTINUOUS
 10
43.4245064522
 20
109.8465436923
  0
VERTEX
  8
SURFACE
 62
7
  6
CONTINUOUS
 10
43.438131551
 20
110.0335327019
  0
VERTEX
  8
SURFACE
 62
7
  6
CONTINUOUS
 10
43.4555587158
 20
110.2164636052
  0
VERTEX
  8
SURFACE
 62
7
  6
CONTINUOUS
 10
43.4767174964
 20
110.3943185827
  0
VERTEX
  8
SURFACE
 62
7
  6
CONTINUOUS
 10
43.5015190365
 20
110.566079041
  0
VERTEX
  8
SURFACE
 62
7
  6
CONTINUOUS
 10
43.5298547702
 20
110.7307299049
  0
VERTEX
  8
SURFACE
 62
7
  6
CONTINUOUS
 10
43.5615950052
 20
110.8872643861
  0
VERTEX
  8
SURFACE
 62
7
  6
CONTINUOUS
 10
43.5965813616
 20
111.0346662646
  0
SEQEND
  0
POLYLINE
  8
SURFACE
 62
7
  6
CONTINUOUS
 66
1
 70
0
  0
VERTEX
  8
SURFACE
 62
7
  6
CONTINUOUS
 10
44.6891630171
 20
109.0713780919
  0
VERTEX
  8
SURFACE
 62
7
  6
CONTINUOUS
 10
44.6869276408
 20
108.8652777609
  0
VERTEX
  8
SURFACE
 62
7
  6
CONTINUOUS
 10
44.6802309643
 20
108.6604077179
  0
VERTEX
  8
SURFACE
 62
7
  6
CONTINUOUS
 10
44.669101601
 20
108.4580000735
  0
VERTEX
  8
SURFACE
 62
7
  6
CONTINUOUS
 10
44.6535880979
 20
108.259290297
  0
VERTEX
  8
SURFACE
 62
7
  6
CONTINUOUS
 10
44.6337602265
 20
108.0655179827
  0
VERTEX
  8
SURFACE
 62
7
  6
CONTINUOUS
 10
44.6097102816
 20
107.8779228954
  0
VERTEX
  8
SURFACE
 62
7
  6
CONTINUOUS
 10
44.5815551876
 20
107.6977448216
  0
VERTEX
  8
SURFACE
 62
7
  6
CONTINUOUS
 10
44.5494384831
 20
107.5262173708
  0
VERTEX
  8
SURFACE
 62
7
  6
CONTINUOUS
 10
44.5135322366
 20
107.364559548
  0
VERTEX
  8
SURFACE
 62
7
  6
CONTINUOUS
 10
44.4740383389
 20
107.2139635868
  0
VERTEX
  8
SURFACE
 62
7
  6
CONTINUOUS
 10
44.4311903643
 20
107.0755846272
  0
VERTEX
  8
SURFACE
 62
7
  6
CONTINUOUS
 10
44.3852542897
 20
106.9505248861
  0
VERTEX
  8
SURFACE
 62
7
  6
CONTINUOUS
 10
44.336528165
 20
106.8398157869
  0
VERTEX
  8
SURFACE
 62
7
  6
CONTINUOUS
 10
44.2853411561
 20
106.7444003101
  0
VERTEX
  8
SURFACE
 62
7
  6
CONTINUOUS
 10
44.232052043
 20
106.6651156772
  0
VERTEX
  8
SURFACE
 62
7
  6
CONTINUOUS
 10
44.1770463226
 20
106.6026754531
  0
VERTEX
  8
SURFACE
 62
7
  6
CONTINUOUS
 10
44.1207318877
 20
106.5576529842
  0
VERTEX
  8
SURFACE
 62
7
  6
CONTINUOUS
 10
44.0635345564
 20
106.5304683765
  0
VERTEX
  8
SURFACE
 62
7
  6
CONTINUOUS
 10
44.0058925764
 20
106.5213780919
  0
SEQEND
  0
POLYLINE
  8
SURFACE
 62
7
  6
CONTINUOUS
 66
1
 70
0
  0
VERTEX
  8
SURFACE
 62
7
  6
CONTINUOUS
 10
43.7669522302
 20
111.7617989398
  0
VERTEX
  8
SURFACE
 62
7
  6
CONTINUOUS
 10
43.7638841969
 20
111.7166963407
  0
VERTEX
  8
SURFACE
 62
7
  6
CONTINUOUS
 10
43.7548028204
 20
111.6586484683
  0
VERTEX
  8
SURFACE
 62
7
  6
CONTINUOUS
 10
43.7399368608
 20
111.5873836538
  0
VERTEX
  8
SURFACE
 62
7
  6
CONTINUOUS
 10
43.7196714556
 20
111.5029216561
  0
VERTEX
  8
SURFACE
 62
7
  6
CONTINUOUS
 10
43.6944652441
 20
111.4051170678
  0
SEQEND
  0
POLYLINE
  8
SURFACE
 62
7
  6
CONTINUOUS
 66
1
 70
0
  0
VERTEX
  8
SURFACE
 62
7
  6
CONTINUOUS
 10
38.2373230987
 20
107.3080899191
  0
VERTEX
  8
SURFACE
 62
7
  6
CONTINUOUS
 10
38.2723094594
 20
107.4554918169
  0
VERTEX
  8
SURFACE
 62
7
  6
CONTINUOUS
 10
38.3040497374
 20
107.6120265314
  0
VERTEX
  8
SURFACE
 62
7
  6
CONTINUOUS
 10
38.332385518
 20
107.7766777388
  0
VERTEX
  8
SURFACE
 62
7
  6
CONTINUOUS
 10
38.3571870846
 20
107.9484385188
  0
VERTEX
  8
SURFACE
 62
7
  6
CONTINUOUS
 10
38.3783458656
 20
108.1262937105
  0
VERTEX
  8
SURFACE
 62
7
  6
CONTINUOUS
 10
38.395773012
 20
108.309224705
  0
VERTEX
  8
SURFACE
 62
7
  6
CONTINUOUS
 10
38.4093980815
 20
108.4962136737
  0
VERTEX
  8
SURFACE
 62
7
  6
CONTINUOUS
 10
38.4191676278
 20
108.6862439918
  0
VERTEX
  8
SURFACE
 62
7
  6
CONTINUOUS
 10
38.4250441685
 20
108.8782992034
  0
VERTEX
  8
SURFACE
 62
7
  6
CONTINUOUS
 10
38.4270056114
 20
109.0713780919
  0
SEQEND
  0
POLYLINE
  8
SURFACE
 62
7
  6
CONTINUOUS
 66
1
 70
0
  0
VERTEX
  8
SURFACE
 62
7
  6
CONTINUOUS
 10
38.1394359099
 20
106.937626548
  0
VERTEX
  8
SURFACE
 62
7
  6
CONTINUOUS
 10
38.2018667465
 20
107.172210964
  0
VERTEX
  8
SURFACE
 62
7
  6
CONTINUOUS
 10
38.2373230987
 20
107.3080899191
  0
SEQEND
  0
POLYLINE
  8
SURFACE
 62
7
  6
CONTINUOUS
 66
1
 70
0
  0
VERTEX
  8
SURFACE
 62
7
  6
CONTINUOUS
 10
38.2018663923
 20
111.1705465581
  0
VERTEX
  8
SURFACE
 62
7
  6
CONTINUOUS
 10
38.1394355056
 20
111.4051311726
  0
VERTEX
  8
SURFACE
 62
7
  6
CONTINUOUS
 10
38.1142300857
 20
111.5029333104
  0
VERTEX
  8
SURFACE
 62
7
  6
CONTINUOUS
 10
38.0939667674
 20
111.5873873272
  0
VERTEX
  8
SURFACE
 62
7
  6
CONTINUOUS
 10
38.0791026439
 20
111.6586430709
  0
VERTEX
  8
SURFACE
 62
7
  6
CONTINUOUS
 10
38.0700209307
 20
111.716690711
  0
VERTEX
  8
SURFACE
 62
7
  6
CONTINUOUS
 10
38.0669522302
 20
111.7617989398
  0
SEQEND
  0
LINE
  8
SURFACE
 62
7
  6
CONTINUOUS
 10
38.2373230987
 20
111.0346662646
 11
38.2018663923
 21
111.1705465581
  0
POLYLINE
  8
SURFACE
 62
7
  6
CONTINUOUS
 66
1
 70
0
  0
VERTEX
  8
SURFACE
 62
7
  6
CONTINUOUS
 10
43.5965813616
 20
107.3080899191
  0
VERTEX
  8
SURFACE
 62
7
  6
CONTINUOUS
 10
43.561595001
 20
107.4554918169
  0
VERTEX
  8
SURFACE
 62
7
  6
CONTINUOUS
 10
43.5298547229
 20
107.6120265314
  0
VERTEX
  8
SURFACE
 62
7
  6
CONTINUOUS
 10
43.5015189424
 20
107.7766777388
  0
VERTEX
  8
SURFACE
 62
7
  6
CONTINUOUS
 10
43.4767173758
 20
107.9484385188
  0
VERTEX
  8
SURFACE
 62
7
  6
CONTINUOUS
 10
43.4555585947
 20
108.1262937105
  0
VERTEX
  8
SURFACE
 62
7
  6
CONTINUOUS
 10
43.4381314483
 20
108.309224705
  0
VERTEX
  8
SURFACE
 62
7
  6
CONTINUOUS
 10
43.4245063789
 20
108.4962136737
  0
VERTEX
  8
SURFACE
 62
7
  6
CONTINUOUS
 10
43.4147368326
 20
108.6862439918
  0
VERTEX
  8
SURFACE
 62
7
  6
CONTINUOUS
 10
43.4088602919
 20
108.8782992034
  0
VERTEX
  8
SURFACE
 62
7
  6
CONTINUOUS
 10
43.406898849
 20
109.0713780919
  0
SEQEND
  0
POLYLINE
  8
SURFACE
 62
7
  6
CONTINUOUS
 66
1
 70
0
  0
VERTEX
  8
SURFACE
 62
7
  6
CONTINUOUS
 10
43.6944652441
 20
111.4051170678
  0
VERTEX
  8
SURFACE
 62
7
  6
CONTINUOUS
 10
43.6320324
 20
111.1705251411
  0
VERTEX
  8
SURFACE
 62
7
  6
CONTINUOUS
 10
43.5965813616
 20
111.0346662646
  0
SEQEND
  0
POLYLINE
  8
SURFACE
 62
7
  6
CONTINUOUS
 66
1
 70
0
  0
VERTEX
  8
SURFACE
 62
7
  6
CONTINUOUS
 10
43.6320320354
 20
107.1722324203
  0
VERTEX
  8
SURFACE
 62
7
  6
CONTINUOUS
 10
43.6944648299
 20
106.9376406905
  0
VERTEX
  8
SURFACE
 62
7
  6
CONTINUOUS
 10
43.7196708842
 20
106.8398368091
  0
VERTEX
  8
SURFACE
 62
7
  6
CONTINUOUS
 10
43.7399365211
 20
106.7553740294
  0
VERTEX
  8
SURFACE
 62
7
  6
CONTINUOUS
 10
43.7548028161
 20
106.6841077385
  0
VERTEX
  8
SURFACE
 62
7
  6
CONTINUOUS
 10
43.7638842644
 20
106.6260592737
  0
VERTEX
  8
SURFACE
 62
7
  6
CONTINUOUS
 10
43.7669522302
 20
106.5809572439
  0
SEQEND
  0
LINE
  8
SURFACE
 62
7
  6
CONTINUOUS
 10
43.5965813616
 20
107.3080899191
 11
43.6320320354
 21
107.1722324203
  0
POLYLINE
  8
SURFACE
 62
7
  6
CONTINUOUS
 66
1
 70
0
  0
VERTEX
  8
SURFACE
 62
7
  6
CONTINUOUS
 10
49.8447414433
 20
109.0713780919
  0
VERTEX
  8
SURFACE
 62
7
  6
CONTINUOUS
 10
49.8469768196
 20
108.8652777609
  0
VERTEX
  8
SURFACE
 62
7
  6
CONTINUOUS
 10
49.8536734961
 20
108.6604077179
  0
VERTEX
  8
SURFACE
 62
7
  6
CONTINUOUS
 10
49.8648028594
 20
108.4580000735
  0
VERTEX
  8
SURFACE
 62
7
  6
CONTINUOUS
 10
49.8803163625
 20
108.259290297
  0
VERTEX
  8
SURFACE
 62
7
  6
CONTINUOUS
 10
49.9001442339
 20
108.0655179827
  0
VERTEX
  8
SURFACE
 62
7
  6
CONTINUOUS
 10
49.9241941787
 20
107.8779228954
  0
VERTEX
  8
SURFACE
 62
7
  6
CONTINUOUS
 10
49.9523492728
 20
107.6977448216
  0
VERTEX
  8
SURFACE
 62
7
  6
CONTINUOUS
 10
49.9844659772
 20
107.5262173708
  0
VERTEX
  8
SURFACE
 62
7
  6
CONTINUOUS
 10
50.0203722238
 20
107.364559548
  0
VERTEX
  8
SURFACE
 62
7
  6
CONTINUOUS
 10
50.0598661215
 20
107.2139635868
  0
VERTEX
  8
SURFACE
 62
7
  6
CONTINUOUS
 10
50.1027140961
 20
107.0755846272
  0
VERTEX
  8
SURFACE
 62
7
  6
CONTINUOUS
 10
50.1486501706
 20
106.9505248861
  0
VERTEX
  8
SURFACE
 62
7
  6
CONTINUOUS
 10
50.1973762954
 20
106.8398157869
  0
VERTEX
  8
SURFACE
 62
7
  6
CONTINUOUS
 10
50.2485633043
 20
106.7444003101
  0
VERTEX
  8
SURFACE
 62
7
  6
CONTINUOUS
 10
50.3018524174
 20
106.6651156772
  0
VERTEX
  8
SURFACE
 62
7
  6
CONTINUOUS
 10
50.3568581378
 20
106.6026754531
  0
VERTEX
  8
SURFACE
 62
7
  6
CONTINUOUS
 10
50.4131725727
 20
106.5576529842
  0
VERTEX
  8
SURFACE
 62
7
  6
CONTINUOUS
 10
50.4703699039
 20
106.5304683765
  0
VERTEX
  8
SURFACE
 62
7
  6
CONTINUOUS
 10
50.528011884
 20
106.5213780919
  0
SEQEND
  0
POLYLINE
  8
SURFACE
 62
7
  6
CONTINUOUS
 66
1
 70
0
  0
VERTEX
  8
SURFACE
 62
7
  6
CONTINUOUS
 10
51.1270056114
 20
109.2713780919
  0
VERTEX
  8
SURFACE
 62
7
  6
CONTINUOUS
 10
51.1250441564
 20
109.4644575737
  0
VERTEX
  8
SURFACE
 62
7
  6
CONTINUOUS
 10
51.1191675876
 20
109.6565131747
  0
VERTEX
  8
SURFACE
 62
7
  6
CONTINUOUS
 10
51.1093980081
 20
109.8465436923
  0
VERTEX
  8
SURFACE
 62
7
  6
CONTINUOUS
 10
51.0957729094
 20
110.0335327019
  0
VERTEX
  8
SURFACE
 62
7
  6
CONTINUOUS
 10
51.0783457446
 20
110.2164636052
  0
VERTEX
  8
SURFACE
 62
7
  6
CONTINUOUS
 10
51.0571869639
 20
110.3943185827
  0
VERTEX
  8
SURFACE
 62
7
  6
CONTINUOUS
 10
51.0323854239
 20
110.566079041
  0
VERTEX
  8
SURFACE
 62
7
  6
CONTINUOUS
 10
51.0040496902
 20
110.7307299049
  0
VERTEX
  8
SURFACE
 62
7
  6
CONTINUOUS
 10
50.9723094552
 20
110.8872643861
  0
VERTEX
  8
SURFACE
 62
7
  6
CONTINUOUS
 10
50.9373230987
 20
111.0346662646
  0
SEQEND
  0
LINE
  8
SURFACE
 62
7
  6
CONTINUOUS
 10
49.8447414433
 20
109.2713780919
 11
49.8447414433
 21
109.0713780919
  0
LINE
  8
0
 62
7
  6
CONTINUOUS
 10
50.7669522302
 20
103.3713780919
 11
50.7669522302
 21
106.5809572439
  0
LINE
  8
0
 62
7
  6
CONTINUOUS
 10
50.7669522302
 20
111.7617989398
 11
50.7669522302
 21
114.9713780919
  0
LINE
  8
SURFACE
 62
7
  6
CONTINUOUS
 10
51.1270056114
 20
109.0713780919
 11
51.1270056114
 21
109.2713780919
  0
POLYLINE
  8
SURFACE
 62
7
  6
CONTINUOUS
 66
1
 70
0
  0
VERTEX
  8
SURFACE
 62
7
  6
CONTINUOUS
 10
50.7669522302
 20
106.5809572439
  0
VERTEX
  8
SURFACE
 62
7
  6
CONTINUOUS
 10
50.7700208667
 20
106.6260649326
  0
VERTEX
  8
SURFACE
 62
7
  6
CONTINUOUS
 10
50.779102641
 20
106.6841130974
  0
VERTEX
  8
SURFACE
 62
7
  6
CONTINUOUS
 10
50.7939670974
 20
106.7553703131
  0
VERTEX
  8
SURFACE
 62
7
  6
CONTINUOUS
 10
50.8142306402
 20
106.8398250872
  0
VERTEX
  8
SURFACE
 62
7
  6
CONTINUOUS
 10
50.8394359099
 20
106.937626548
  0
SEQEND
  0
POLYLINE
  8
SURFACE
 62
7
  6
CONTINUOUS
 66
1
 70
0
  0
VERTEX
  8
SURFACE
 62
7
  6
CONTINUOUS
 10
50.9373230987
 20
107.3080899191
  0
VERTEX
  8
SURFACE
 62
7
  6
CONTINUOUS
 10
50.9723094594
 20
107.4554918169
  0
VERTEX
  8
SURFACE
 62
7
  6
CONTINUOUS
 10
51.0040497374
 20
107.6120265314
  0
VERTEX
  8
SURFACE
 62
7
  6
CONTINUOUS
 10
51.032385518
 20
107.7766777388
  0
VERTEX
  8
SURFACE
 62
7
  6
CONTINUOUS
 10
51.0571870846
 20
107.9484385188
  0
VERTEX
  8
SURFACE
 62
7
  6
CONTINUOUS
 10
51.0783458656
 20
108.1262937105
  0
VERTEX
  8
SURFACE
 62
7
  6
CONTINUOUS
 10
51.095773012
 20
108.309224705
  0
VERTEX
  8
SURFACE
 62
7
  6
CONTINUOUS
 10
51.1093980815
 20
108.4962136737
  0
VERTEX
  8
SURFACE
 62
7
  6
CONTINUOUS
 10
51.1191676278
 20
108.6862439918
  0
VERTEX
  8
SURFACE
 62
7
  6
CONTINUOUS
 10
51.1250441685
 20
108.8782992034
  0
VERTEX
  8
SURFACE
 62
7
  6
CONTINUOUS
 10
51.1270056114
 20
109.0713780919
  0
SEQEND
  0
POLYLINE
  8
SURFACE
 62
7
  6
CONTINUOUS
 66
1
 70
0
  0
VERTEX
  8
SURFACE
 62
7
  6
CONTINUOUS
 10
50.8394359099
 20
106.937626548
  0
VERTEX
  8
SURFACE
 62
7
  6
CONTINUOUS
 10
50.9018667465
 20
107.172210964
  0
VERTEX
  8
SURFACE
 62
7
  6
CONTINUOUS
 10
50.9373230987
 20
107.3080899191
  0
SEQEND
  0
POLYLINE
  8
SURFACE
 62
7
  6
CONTINUOUS
 66
1
 70
0
  0
VERTEX
  8
SURFACE
 62
7
  6
CONTINUOUS
 10
50.9018663923
 20
111.1705465581
  0
VERTEX
  8
SURFACE
 62
7
  6
CONTINUOUS
 10
50.8394355056
 20
111.4051311726
  0
VERTEX
  8
SURFACE
 62
7
  6
CONTINUOUS
 10
50.8142300857
 20
111.5029333104
  0
VERTEX
  8
SURFACE
 62
7
  6
CONTINUOUS
 10
50.7939667674
 20
111.5873873272
  0
VERTEX
  8
SURFACE
 62
7
  6
CONTINUOUS
 10
50.7791026439
 20
111.6586430709
  0
VERTEX
  8
SURFACE
 62
7
  6
CONTINUOUS
 10
50.7700209307
 20
111.716690711
  0
VERTEX
  8
SURFACE
 62
7
  6
CONTINUOUS
 10
50.7669522302
 20
111.7617989398
  0
SEQEND
  0
LINE
  8
SURFACE
 62
7
  6
CONTINUOUS
 10
50.9373230987
 20
111.0346662646
 11
50.9018663923
 21
111.1705465581
  0
LINE
  8
SURFACE
 62
7
  6
CONTINUOUS
 10
56.106898849
 20
109.0713780919
 11
56.106898849
 21
109.2713780919
  0
LINE
  8
SURFACE
 62
7
  6
CONTINUOUS
 10
56.4669522302
 20
114.9302846422
 11
56.4669522302
 21
111.7617989398
  0
LINE
  8
SURFACE
 62
7
  6
CONTINUOUS
 10
56.4669522302
 20
106.5809572439
 11
56.4669522302
 21
103.4124715415
  0
LINE
  8
0
 62
7
  6
CONTINUOUS
 10
56.4669522302
 20
103.3713780919
 11
56.4669522302
 21
106.5809572439
  0
LINE
  8
0
 62
7
  6
CONTINUOUS
 10
56.4669522302
 20
111.7617989398
 11
56.4669522302
 21
114.9713780919
  0
LINE
  8
SURFACE
 62
7
  6
CONTINUOUS
 10
57.3891630171
 20
109.2713780919
 11
57.3891630171
 21
109.0713780919
  0
POLYLINE
  8
SURFACE
 62
7
  6
CONTINUOUS
 66
1
 70
0
  0
VERTEX
  8
SURFACE
 62
7
  6
CONTINUOUS
 10
56.106898849
 20
109.2713780919
  0
VERTEX
  8
SURFACE
 62
7
  6
CONTINUOUS
 10
56.1088603039
 20
109.4644575737
  0
VERTEX
  8
SURFACE
 62
7
  6
CONTINUOUS
 10
56.1147368728
 20
109.6565131747
  0
VERTEX
  8
SURFACE
 62
7
  6
CONTINUOUS
 10
56.1245064522
 20
109.8465436923
  0
VERTEX
  8
SURFACE
 62
7
  6
CONTINUOUS
 10
56.138131551
 20
110.0335327019
  0
VERTEX
  8
SURFACE
 62
7
  6
CONTINUOUS
 10
56.1555587158
 20
110.2164636052
  0
VERTEX
  8
SURFACE
 62
7
  6
CONTINUOUS
 10
56.1767174964
 20
110.3943185827
  0
VERTEX
  8
SURFACE
 62
7
  6
CONTINUOUS
 10
56.2015190365
 20
110.566079041
  0
VERTEX
  8
SURFACE
 62
7
  6
CONTINUOUS
 10
56.2298547702
 20
110.7307299049
  0
VERTEX
  8
SURFACE
 62
7
  6
CONTINUOUS
 10
56.2615950052
 20
110.8872643861
  0
VERTEX
  8
SURFACE
 62
7
  6
CONTINUOUS
 10
56.2965813616
 20
111.0346662646
  0
SEQEND
  0
POLYLINE
  8
SURFACE
 62
7
  6
CONTINUOUS
 66
1
 70
0
  0
VERTEX
  8
SURFACE
 62
7
  6
CONTINUOUS
 10
57.3891630171
 20
109.0713780919
  0
VERTEX
  8
SURFACE
 62
7
  6
CONTINUOUS
 10
57.3869276408
 20
108.8652777609
  0
VERTEX
  8
SURFACE
 62
7
  6
CONTINUOUS
 10
57.3802309643
 20
108.6604077179
  0
VERTEX
  8
SURFACE
 62
7
  6
CONTINUOUS
 10
57.369101601
 20
108.4580000735
  0
VERTEX
  8
SURFACE
 62
7
  6
CONTINUOUS
 10
57.3535880979
 20
108.259290297
  0
VERTEX
  8
SURFACE
 62
7
  6
CONTINUOUS
 10
57.3337602265
 20
108.0655179827
  0
VERTEX
  8
SURFACE
 62
7
  6
CONTINUOUS
 10
57.3097102816
 20
107.8779228954
  0
VERTEX
  8
SURFACE
 62
7
  6
CONTINUOUS
 10
57.2815551876
 20
107.6977448216
  0
VERTEX
  8
SURFACE
 62
7
  6
CONTINUOUS
 10
57.2494384831
 20
107.5262173708
  0
VERTEX
  8
SURFACE
 62
7
  6
CONTINUOUS
 10
57.2135322366
 20
107.364559548
  0
VERTEX
  8
SURFACE
 62
7
  6
CONTINUOUS
 10
57.1740383389
 20
107.2139635868
  0
VERTEX
  8
SURFACE
 62
7
  6
CONTINUOUS
 10
57.1311903643
 20
107.0755846272
  0
VERTEX
  8
SURFACE
 62
7
  6
CONTINUOUS
 10
57.0852542897
 20
106.9505248861
  0
VERTEX
  8
SURFACE
 62
7
  6
CONTINUOUS
 10
57.036528165
 20
106.8398157869
  0
VERTEX
  8
SURFACE
 62
7
  6
CONTINUOUS
 10
56.9853411561
 20
106.7444003101
  0
VERTEX
  8
SURFACE
 62
7
  6
CONTINUOUS
 10
56.932052043
 20
106.6651156772
  0
VERTEX
  8
SURFACE
 62
7
  6
CONTINUOUS
 10
56.8770463226
 20
106.6026754531
  0
VERTEX
  8
SURFACE
 62
7
  6
CONTINUOUS
 10
56.8207318877
 20
106.5576529842
  0
VERTEX
  8
SURFACE
 62
7
  6
CONTINUOUS
 10
56.7635345564
 20
106.5304683765
  0
VERTEX
  8
SURFACE
 62
7
  6
CONTINUOUS
 10
56.7058925764
 20
106.5213780919
  0
SEQEND
  0
POLYLINE
  8
SURFACE
 62
7
  6
CONTINUOUS
 66
1
 70
0
  0
VERTEX
  8
SURFACE
 62
7
  6
CONTINUOUS
 10
56.4669522302
 20
111.7617989398
  0
VERTEX
  8
SURFACE
 62
7
  6
CONTINUOUS
 10
56.4638841969
 20
111.7166963407
  0
VERTEX
  8
SURFACE
 62
7
  6
CONTINUOUS
 10
56.4548028204
 20
111.6586484683
  0
VERTEX
  8
SURFACE
 62
7
  6
CONTINUOUS
 10
56.4399368608
 20
111.5873836538
  0
VERTEX
  8
SURFACE
 62
7
  6
CONTINUOUS
 10
56.4196714556
 20
111.5029216561
  0
VERTEX
  8
SURFACE
 62
7
  6
CONTINUOUS
 10
56.3944652441
 20
111.4051170678
  0
SEQEND
  0
POLYLINE
  8
SURFACE
 62
7
  6
CONTINUOUS
 66
1
 70
0
  0
VERTEX
  8
SURFACE
 62
7
  6
CONTINUOUS
 10
56.3944652441
 20
111.4051170678
  0
VERTEX
  8
SURFACE
 62
7
  6
CONTINUOUS
 10
56.3320324
 20
111.1705251411
  0
VERTEX
  8
SURFACE
 62
7
  6
CONTINUOUS
 10
56.2965813616
 20
111.0346662646
  0
SEQEND
  0
POLYLINE
  8
SURFACE
 62
7
  6
CONTINUOUS
 66
1
 70
0
  0
VERTEX
  8
SURFACE
 62
7
  6
CONTINUOUS
 10
56.3320320354
 20
107.1722324203
  0
VERTEX
  8
SURFACE
 62
7
  6
CONTINUOUS
 10
56.3944648299
 20
106.9376406905
  0
VERTEX
  8
SURFACE
 62
7
  6
CONTINUOUS
 10
56.4196708842
 20
106.8398368091
  0
VERTEX
  8
SURFACE
 62
7
  6
CONTINUOUS
 10
56.4399365211
 20
106.7553740294
  0
VERTEX
  8
SURFACE
 62
7
  6
CONTINUOUS
 10
56.4548028161
 20
106.6841077385
  0
VERTEX
  8
SURFACE
 62
7
  6
CONTINUOUS
 10
56.4638842644
 20
106.6260592737
  0
VERTEX
  8
SURFACE
 62
7
  6
CONTINUOUS
 10
56.4669522302
 20
106.5809572439
  0
SEQEND
  0
LINE
  8
SURFACE
 62
7
  6
CONTINUOUS
 10
56.2965813616
 20
107.3080899191
 11
56.3320320354
 21
107.1722324203
  0
POLYLINE
  8
SURFACE
 62
7
  6
CONTINUOUS
 66
1
 70
0
  0
VERTEX
  8
SURFACE
 62
7
  6
CONTINUOUS
 10
56.2965813616
 20
107.3080899191
  0
VERTEX
  8
SURFACE
 62
7
  6
CONTINUOUS
 10
56.261595001
 20
107.4554918169
  0
VERTEX
  8
SURFACE
 62
7
  6
CONTINUOUS
 10
56.2298547229
 20
107.6120265314
  0
VERTEX
  8
SURFACE
 62
7
  6
CONTINUOUS
 10
56.2015189424
 20
107.7766777388
  0
VERTEX
  8
SURFACE
 62
7
  6
CONTINUOUS
 10
56.1767173758
 20
107.9484385188
  0
VERTEX
  8
SURFACE
 62
7
  6
CONTINUOUS
 10
56.1555585947
 20
108.1262937105
  0
VERTEX
  8
SURFACE
 62
7
  6
CONTINUOUS
 10
56.1381314483
 20
108.309224705
  0
VERTEX
  8
SURFACE
 62
7
  6
CONTINUOUS
 10
56.1245063789
 20
108.4962136737
  0
VERTEX
  8
SURFACE
 62
7
  6
CONTINUOUS
 10
56.1147368326
 20
108.6862439918
  0
VERTEX
  8
SURFACE
 62
7
  6
CONTINUOUS
 10
56.1088602919
 20
108.8782992034
  0
VERTEX
  8
SURFACE
 62
7
  6
CONTINUOUS
 10
56.106898849
 20
109.0713780919
  0
SEQEND
  0
POLYLINE
  8
SURFACE
 62
7
  6
CONTINUOUS
 66
1
 70
0
  0
VERTEX
  8
SURFACE
 62
7
  6
CONTINUOUS
 10
62.5447414433
 20
109.0713780919
  0
VERTEX
  8
SURFACE
 62
7
  6
CONTINUOUS
 10
62.5469768196
 20
108.8652777609
  0
VERTEX
  8
SURFACE
 62
7
  6
CONTINUOUS
 10
62.5536734961
 20
108.6604077179
  0
VERTEX
  8
SURFACE
 62
7
  6
CONTINUOUS
 10
62.5648028594
 20
108.4580000735
  0
VERTEX
  8
SURFACE
 62
7
  6
CONTINUOUS
 10
62.5803163625
 20
108.259290297
  0
VERTEX
  8
SURFACE
 62
7
  6
CONTINUOUS
 10
62.6001442339
 20
108.0655179827
  0
VERTEX
  8
SURFACE
 62
7
  6
CONTINUOUS
 10
62.6241941787
 20
107.8779228954
  0
VERTEX
  8
SURFACE
 62
7
  6
CONTINUOUS
 10
62.6523492728
 20
107.6977448216
  0
VERTEX
  8
SURFACE
 62
7
  6
CONTINUOUS
 10
62.6844659772
 20
107.5262173708
  0
VERTEX
  8
SURFACE
 62
7
  6
CONTINUOUS
 10
62.7203722238
 20
107.364559548
  0
VERTEX
  8
SURFACE
 62
7
  6
CONTINUOUS
 10
62.7598661215
 20
107.2139635868
  0
VERTEX
  8
SURFACE
 62
7
  6
CONTINUOUS
 10
62.8027140961
 20
107.0755846272
  0
VERTEX
  8
SURFACE
 62
7
  6
CONTINUOUS
 10
62.8486501706
 20
106.9505248861
  0
VERTEX
  8
SURFACE
 62
7
  6
CONTINUOUS
 10
62.8973762954
 20
106.8398157869
  0
VERTEX
  8
SURFACE
 62
7
  6
CONTINUOUS
 10
62.9485633043
 20
106.7444003101
  0
VERTEX
  8
SURFACE
 62
7
  6
CONTINUOUS
 10
63.0018524174
 20
106.6651156772
  0
VERTEX
  8
SURFACE
 62
7
  6
CONTINUOUS
 10
63.0568581378
 20
106.6026754531
  0
VERTEX
  8
SURFACE
 62
7
  6
CONTINUOUS
 10
63.1131725727
 20
106.5576529842
  0
VERTEX
  8
SURFACE
 62
7
  6
CONTINUOUS
 10
63.1703699039
 20
106.5304683765
  0
VERTEX
  8
SURFACE
 62
7
  6
CONTINUOUS
 10
63.228011884
 20
106.5213780919
  0
SEQEND
  0
POLYLINE
  8
SURFACE
 62
7
  6
CONTINUOUS
 66
1
 70
0
  0
VERTEX
  8
SURFACE
 62
7
  6
CONTINUOUS
 10
63.8270056114
 20
109.2713780919
  0
VERTEX
  8
SURFACE
 62
7
  6
CONTINUOUS
 10
63.8250441564
 20
109.4644575737
  0
VERTEX
  8
SURFACE
 62
7
  6
CONTINUOUS
 10
63.8191675876
 20
109.6565131747
  0
VERTEX
  8
SURFACE
 62
7
  6
CONTINUOUS
 10
63.8093980081
 20
109.8465436923
  0
VERTEX
  8
SURFACE
 62
7
  6
CONTINUOUS
 10
63.7957729094
 20
110.0335327019
  0
VERTEX
  8
SURFACE
 62
7
  6
CONTINUOUS
 10
63.7783457446
 20
110.2164636052
  0
VERTEX
  8
SURFACE
 62
7
  6
CONTINUOUS
 10
63.7571869639
 20
110.3943185827
  0
VERTEX
  8
SURFACE
 62
7
  6
CONTINUOUS
 10
63.7323854239
 20
110.566079041
  0
VERTEX
  8
SURFACE
 62
7
  6
CONTINUOUS
 10
63.7040496902
 20
110.7307299049
  0
VERTEX
  8
SURFACE
 62
7
  6
CONTINUOUS
 10
63.6723094552
 20
110.8872643861
  0
VERTEX
  8
SURFACE
 62
7
  6
CONTINUOUS
 10
63.6373230987
 20
111.0346662646
  0
SEQEND
  0
LINE
  8
SURFACE
 62
7
  6
CONTINUOUS
 10
62.5447414433
 20
109.2713780919
 11
62.5447414433
 21
109.0713780919
  0
LINE
  8
0
 62
7
  6
CONTINUOUS
 10
63.4669522302
 20
103.3713780919
 11
63.4669522302
 21
106.5809572204
  0
LINE
  8
0
 62
7
  6
CONTINUOUS
 10
63.4669522302
 20
111.7617989633
 11
63.4669522302
 21
114.9713780919
  0
LINE
  8
SURFACE
 62
7
  6
CONTINUOUS
 10
63.8270056114
 20
109.0713780919
 11
63.8270056114
 21
109.2713780919
  0
POLYLINE
  8
SURFACE
 62
7
  6
CONTINUOUS
 66
1
 70
0
  0
VERTEX
  8
SURFACE
 62
7
  6
CONTINUOUS
 10
63.4669522302
 20
106.5809572439
  0
VERTEX
  8
SURFACE
 62
7
  6
CONTINUOUS
 10
63.4700208667
 20
106.6260649326
  0
VERTEX
  8
SURFACE
 62
7
  6
CONTINUOUS
 10
63.479102641
 20
106.6841130974
  0
VERTEX
  8
SURFACE
 62
7
  6
CONTINUOUS
 10
63.4939670974
 20
106.7553703131
  0
VERTEX
  8
SURFACE
 62
7
  6
CONTINUOUS
 10
63.5142306402
 20
106.8398250872
  0
VERTEX
  8
SURFACE
 62
7
  6
CONTINUOUS
 10
63.5394359099
 20
106.937626548
  0
SEQEND
  0
POLYLINE
  8
SURFACE
 62
7
  6
CONTINUOUS
 66
1
 70
0
  0
VERTEX
  8
SURFACE
 62
7
  6
CONTINUOUS
 10
63.6373230987
 20
107.3080899191
  0
VERTEX
  8
SURFACE
 62
7
  6
CONTINUOUS
 10
63.6723094594
 20
107.4554918169
  0
VERTEX
  8
SURFACE
 62
7
  6
CONTINUOUS
 10
63.7040497374
 20
107.6120265314
  0
VERTEX
  8
SURFACE
 62
7
  6
CONTINUOUS
 10
63.732385518
 20
107.7766777388
  0
VERTEX
  8
SURFACE
 62
7
  6
CONTINUOUS
 10
63.7571870846
 20
107.9484385188
  0
VERTEX
  8
SURFACE
 62
7
  6
CONTINUOUS
 10
63.7783458656
 20
108.1262937105
  0
VERTEX
  8
SURFACE
 62
7
  6
CONTINUOUS
 10
63.795773012
 20
108.309224705
  0
VERTEX
  8
SURFACE
 62
7
  6
CONTINUOUS
 10
63.8093980815
 20
108.4962136737
  0
VERTEX
  8
SURFACE
 62
7
  6
CONTINUOUS
 10
63.8191676278
 20
108.6862439918
  0
VERTEX
  8
SURFACE
 62
7
  6
CONTINUOUS
 10
63.8250441685
 20
108.8782992034
  0
VERTEX
  8
SURFACE
 62
7
  6
CONTINUOUS
 10
63.8270056114
 20
109.0713780919
  0
SEQEND
  0
LINE
  8
SURFACE
 62
7
  6
CONTINUOUS
 10
68.806898849
 20
109.0713780919
 11
68.806898849
 21
109.2713780919
  0
LINE
  8
SURFACE
 62
7
  6
CONTINUOUS
 10
69.1669522302
 20
114.9302846422
 11
69.1669522302
 21
111.7617989398
  0
LINE
  8
SURFACE
 62
7
  6
CONTINUOUS
 10
69.1669522302
 20
106.5809572439
 11
69.1669522302
 21
103.4124715415
  0
LINE
  8
0
 62
7
  6
CONTINUOUS
 10
69.1669522302
 20
103.3713780919
 11
69.1669522302
 21
106.5809572439
  0
LINE
  8
0
 62
7
  6
CONTINUOUS
 10
69.1669522302
 20
111.7617989398
 11
69.1669522302
 21
114.9713780919
  0
LINE
  8
SURFACE
 62
7
  6
CONTINUOUS
 10
70.0891630171
 20
109.2713780919
 11
70.0891630171
 21
109.0713780919
  0
POLYLINE
  8
SURFACE
 62
7
  6
CONTINUOUS
 66
1
 70
0
  0
VERTEX
  8
SURFACE
 62
7
  6
CONTINUOUS
 10
68.806898849
 20
109.2713780919
  0
VERTEX
  8
SURFACE
 62
7
  6
CONTINUOUS
 10
68.8088603039
 20
109.4644575737
  0
VERTEX
  8
SURFACE
 62
7
  6
CONTINUOUS
 10
68.8147368728
 20
109.6565131747
  0
VERTEX
  8
SURFACE
 62
7
  6
CONTINUOUS
 10
68.8245064522
 20
109.8465436923
  0
VERTEX
  8
SURFACE
 62
7
  6
CONTINUOUS
 10
68.838131551
 20
110.0335327019
  0
VERTEX
  8
SURFACE
 62
7
  6
CONTINUOUS
 10
68.8555587158
 20
110.2164636052
  0
VERTEX
  8
SURFACE
 62
7
  6
CONTINUOUS
 10
68.8767174964
 20
110.3943185827
  0
VERTEX
  8
SURFACE
 62
7
  6
CONTINUOUS
 10
68.9015190365
 20
110.566079041
  0
VERTEX
  8
SURFACE
 62
7
  6
CONTINUOUS
 10
68.9298547702
 20
110.7307299049
  0
VERTEX
  8
SURFACE
 62
7
  6
CONTINUOUS
 10
68.9615950052
 20
110.8872643861
  0
VERTEX
  8
SURFACE
 62
7
  6
CONTINUOUS
 10
68.9965813616
 20
111.0346662646
  0
SEQEND
  0
POLYLINE
  8
SURFACE
 62
7
  6
CONTINUOUS
 66
1
 70
0
  0
VERTEX
  8
SURFACE
 62
7
  6
CONTINUOUS
 10
70.0891630171
 20
109.0713780919
  0
VERTEX
  8
SURFACE
 62
7
  6
CONTINUOUS
 10
70.0869276408
 20
108.8652777609
  0
VERTEX
  8
SURFACE
 62
7
  6
CONTINUOUS
 10
70.0802309643
 20
108.6604077179
  0
VERTEX
  8
SURFACE
 62
7
  6
CONTINUOUS
 10
70.069101601
 20
108.4580000735
  0
VERTEX
  8
SURFACE
 62
7
  6
CONTINUOUS
 10
70.0535880979
 20
108.259290297
  0
VERTEX
  8
SURFACE
 62
7
  6
CONTINUOUS
 10
70.0337602265
 20
108.0655179827
  0
VERTEX
  8
SURFACE
 62
7
  6
CONTINUOUS
 10
70.0097102816
 20
107.8779228954
  0
VERTEX
  8
SURFACE
 62
7
  6
CONTINUOUS
 10
69.9815551876
 20
107.6977448216
  0
VERTEX
  8
SURFACE
 62
7
  6
CONTINUOUS
 10
69.9494384831
 20
107.5262173708
  0
VERTEX
  8
SURFACE
 62
7
  6
CONTINUOUS
 10
69.9135322366
 20
107.364559548
  0
VERTEX
  8
SURFACE
 62
7
  6
CONTINUOUS
 10
69.8740383389
 20
107.2139635868
  0
VERTEX
  8
SURFACE
 62
7
  6
CONTINUOUS
 10
69.8311903643
 20
107.0755846272
  0
VERTEX
  8
SURFACE
 62
7
  6
CONTINUOUS
 10
69.7852542897
 20
106.9505248861
  0
VERTEX
  8
SURFACE
 62
7
  6
CONTINUOUS
 10
69.736528165
 20
106.8398157869
  0
VERTEX
  8
SURFACE
 62
7
  6
CONTINUOUS
 10
69.6853411561
 20
106.7444003101
  0
VERTEX
  8
SURFACE
 62
7
  6
CONTINUOUS
 10
69.632052043
 20
106.6651156772
  0
VERTEX
  8
SURFACE
 62
7
  6
CONTINUOUS
 10
69.5770463226
 20
106.6026754531
  0
VERTEX
  8
SURFACE
 62
7
  6
CONTINUOUS
 10
69.5207318877
 20
106.5576529842
  0
VERTEX
  8
SURFACE
 62
7
  6
CONTINUOUS
 10
69.4635345564
 20
106.5304683765
  0
VERTEX
  8
SURFACE
 62
7
  6
CONTINUOUS
 10
69.4058925764
 20
106.5213780919
  0
SEQEND
  0
POLYLINE
  8
SURFACE
 62
7
  6
CONTINUOUS
 66
1
 70
0
  0
VERTEX
  8
SURFACE
 62
7
  6
CONTINUOUS
 10
69.1669522302
 20
111.7617989398
  0
VERTEX
  8
SURFACE
 62
7
  6
CONTINUOUS
 10
69.1638841969
 20
111.7166963407
  0
VERTEX
  8
SURFACE
 62
7
  6
CONTINUOUS
 10
69.1548028204
 20
111.6586484683
  0
VERTEX
  8
SURFACE
 62
7
  6
CONTINUOUS
 10
69.1399368608
 20
111.5873836538
  0
VERTEX
  8
SURFACE
 62
7
  6
CONTINUOUS
 10
69.1196714556
 20
111.5029216561
  0
VERTEX
  8
SURFACE
 62
7
  6
CONTINUOUS
 10
69.0944652441
 20
111.4051170678
  0
SEQEND
  0
POLYLINE
  8
SURFACE
 62
7
  6
CONTINUOUS
 66
1
 70
0
  0
VERTEX
  8
SURFACE
 62
7
  6
CONTINUOUS
 10
63.5394359099
 20
106.937626548
  0
VERTEX
  8
SURFACE
 62
7
  6
CONTINUOUS
 10
63.6018667465
 20
107.172210964
  0
VERTEX
  8
SURFACE
 62
7
  6
CONTINUOUS
 10
63.6373230987
 20
107.3080899191
  0
SEQEND
  0
POLYLINE
  8
SURFACE
 62
7
  6
CONTINUOUS
 66
1
 70
0
  0
VERTEX
  8
SURFACE
 62
7
  6
CONTINUOUS
 10
69.0944652441
 20
111.4051170678
  0
VERTEX
  8
SURFACE
 62
7
  6
CONTINUOUS
 10
69.0320324
 20
111.1705251411
  0
VERTEX
  8
SURFACE
 62
7
  6
CONTINUOUS
 10
68.9965813616
 20
111.0346662646
  0
SEQEND
  0
POLYLINE
  8
SURFACE
 62
7
  6
CONTINUOUS
 66
1
 70
0
  0
VERTEX
  8
SURFACE
 62
7
  6
CONTINUOUS
 10
63.6018663923
 20
111.1705465581
  0
VERTEX
  8
SURFACE
 62
7
  6
CONTINUOUS
 10
63.5394355056
 20
111.4051311726
  0
VERTEX
  8
SURFACE
 62
7
  6
CONTINUOUS
 10
63.5142300857
 20
111.5029333104
  0
VERTEX
  8
SURFACE
 62
7
  6
CONTINUOUS
 10
63.4939667674
 20
111.5873873272
  0
VERTEX
  8
SURFACE
 62
7
  6
CONTINUOUS
 10
63.4791026439
 20
111.6586430709
  0
VERTEX
  8
SURFACE
 62
7
  6
CONTINUOUS
 10
63.4700209307
 20
111.716690711
  0
VERTEX
  8
SURFACE
 62
7
  6
CONTINUOUS
 10
63.4669522302
 20
111.7617989398
  0
SEQEND
  0
POLYLINE
  8
SURFACE
 62
7
  6
CONTINUOUS
 66
1
 70
0
  0
VERTEX
  8
SURFACE
 62
7
  6
CONTINUOUS
 10
69.0320320354
 20
107.1722324203
  0
VERTEX
  8
SURFACE
 62
7
  6
CONTINUOUS
 10
69.0944648299
 20
106.9376406905
  0
VERTEX
  8
SURFACE
 62
7
  6
CONTINUOUS
 10
69.1196708842
 20
106.8398368091
  0
VERTEX
  8
SURFACE
 62
7
  6
CONTINUOUS
 10
69.1399365211
 20
106.7553740294
  0
VERTEX
  8
SURFACE
 62
7
  6
CONTINUOUS
 10
69.1548028161
 20
106.6841077385
  0
VERTEX
  8
SURFACE
 62
7
  6
CONTINUOUS
 10
69.1638842644
 20
106.6260592737
  0
VERTEX
  8
SURFACE
 62
7
  6
CONTINUOUS
 10
69.1669522302
 20
106.5809572439
  0
SEQEND
  0
LINE
  8
SURFACE
 62
7
  6
CONTINUOUS
 10
63.6373230987
 20
111.0346662646
 11
63.6018663923
 21
111.1705465581
  0
LINE
  8
SURFACE
 62
7
  6
CONTINUOUS
 10
68.9965813616
 20
107.3080899191
 11
69.0320320354
 21
107.1722324203
  0
POLYLINE
  8
SURFACE
 62
7
  6
CONTINUOUS
 66
1
 70
0
  0
VERTEX
  8
SURFACE
 62
7
  6
CONTINUOUS
 10
68.9965813616
 20
107.3080899191
  0
VERTEX
  8
SURFACE
 62
7
  6
CONTINUOUS
 10
68.961595001
 20
107.4554918169
  0
VERTEX
  8
SURFACE
 62
7
  6
CONTINUOUS
 10
68.9298547229
 20
107.6120265314
  0
VERTEX
  8
SURFACE
 62
7
  6
CONTINUOUS
 10
68.9015189424
 20
107.7766777388
  0
VERTEX
  8
SURFACE
 62
7
  6
CONTINUOUS
 10
68.8767173758
 20
107.9484385188
  0
VERTEX
  8
SURFACE
 62
7
  6
CONTINUOUS
 10
68.8555585947
 20
108.1262937105
  0
VERTEX
  8
SURFACE
 62
7
  6
CONTINUOUS
 10
68.8381314483
 20
108.309224705
  0
VERTEX
  8
SURFACE
 62
7
  6
CONTINUOUS
 10
68.8245063789
 20
108.4962136737
  0
VERTEX
  8
SURFACE
 62
7
  6
CONTINUOUS
 10
68.8147368326
 20
108.6862439918
  0
VERTEX
  8
SURFACE
 62
7
  6
CONTINUOUS
 10
68.8088602919
 20
108.8782992034
  0
VERTEX
  8
SURFACE
 62
7
  6
CONTINUOUS
 10
68.806898849
 20
109.0713780919
  0
SEQEND
  0
POLYLINE
  8
SURFACE
 62
7
  6
CONTINUOUS
 66
1
 70
0
  0
VERTEX
  8
SURFACE
 62
7
  6
CONTINUOUS
 10
75.2447414433
 20
109.0713780919
  0
VERTEX
  8
SURFACE
 62
7
  6
CONTINUOUS
 10
75.2469768196
 20
108.8652777609
  0
VERTEX
  8
SURFACE
 62
7
  6
CONTINUOUS
 10
75.2536734961
 20
108.6604077179
  0
VERTEX
  8
SURFACE
 62
7
  6
CONTINUOUS
 10
75.2648028594
 20
108.4580000735
  0
VERTEX
  8
SURFACE
 62
7
  6
CONTINUOUS
 10
75.2803163625
 20
108.259290297
  0
VERTEX
  8
SURFACE
 62
7
  6
CONTINUOUS
 10
75.3001442339
 20
108.0655179827
  0
VERTEX
  8
SURFACE
 62
7
  6
CONTINUOUS
 10
75.3241941787
 20
107.8779228954
  0
VERTEX
  8
SURFACE
 62
7
  6
CONTINUOUS
 10
75.3523492728
 20
107.6977448216
  0
VERTEX
  8
SURFACE
 62
7
  6
CONTINUOUS
 10
75.3844659772
 20
107.5262173708
  0
VERTEX
  8
SURFACE
 62
7
  6
CONTINUOUS
 10
75.4203722238
 20
107.364559548
  0
VERTEX
  8
SURFACE
 62
7
  6
CONTINUOUS
 10
75.4598661215
 20
107.2139635868
  0
VERTEX
  8
SURFACE
 62
7
  6
CONTINUOUS
 10
75.5027140961
 20
107.0755846272
  0
VERTEX
  8
SURFACE
 62
7
  6
CONTINUOUS
 10
75.5486501706
 20
106.9505248861
  0
VERTEX
  8
SURFACE
 62
7
  6
CONTINUOUS
 10
75.5973762954
 20
106.8398157869
  0
VERTEX
  8
SURFACE
 62
7
  6
CONTINUOUS
 10
75.6485633043
 20
106.7444003101
  0
VERTEX
  8
SURFACE
 62
7
  6
CONTINUOUS
 10
75.7018524174
 20
106.6651156772
  0
VERTEX
  8
SURFACE
 62
7
  6
CONTINUOUS
 10
75.7568581378
 20
106.6026754531
  0
VERTEX
  8
SURFACE
 62
7
  6
CONTINUOUS
 10
75.8131725727
 20
106.5576529842
  0
VERTEX
  8
SURFACE
 62
7
  6
CONTINUOUS
 10
75.8703699039
 20
106.5304683765
  0
VERTEX
  8
SURFACE
 62
7
  6
CONTINUOUS
 10
75.928011884
 20
106.5213780919
  0
SEQEND
  0
POLYLINE
  8
SURFACE
 62
7
  6
CONTINUOUS
 66
1
 70
0
  0
VERTEX
  8
SURFACE
 62
7
  6
CONTINUOUS
 10
76.5270056114
 20
109.2713780919
  0
VERTEX
  8
SURFACE
 62
7
  6
CONTINUOUS
 10
76.5250441564
 20
109.4644575737
  0
VERTEX
  8
SURFACE
 62
7
  6
CONTINUOUS
 10
76.5191675876
 20
109.6565131747
  0
VERTEX
  8
SURFACE
 62
7
  6
CONTINUOUS
 10
76.5093980081
 20
109.8465436923
  0
VERTEX
  8
SURFACE
 62
7
  6
CONTINUOUS
 10
76.4957729094
 20
110.0335327019
  0
VERTEX
  8
SURFACE
 62
7
  6
CONTINUOUS
 10
76.4783457446
 20
110.2164636052
  0
VERTEX
  8
SURFACE
 62
7
  6
CONTINUOUS
 10
76.4571869639
 20
110.3943185827
  0
VERTEX
  8
SURFACE
 62
7
  6
CONTINUOUS
 10
76.4323854239
 20
110.566079041
  0
VERTEX
  8
SURFACE
 62
7
  6
CONTINUOUS
 10
76.4040496902
 20
110.7307299049
  0
VERTEX
  8
SURFACE
 62
7
  6
CONTINUOUS
 10
76.3723094552
 20
110.8872643861
  0
VERTEX
  8
SURFACE
 62
7
  6
CONTINUOUS
 10
76.3373230987
 20
111.0346662646
  0
SEQEND
  0
LINE
  8
SURFACE
 62
7
  6
CONTINUOUS
 10
75.2447414433
 20
109.2713780919
 11
75.2447414433
 21
109.0713780919
  0
LINE
  8
0
 62
7
  6
CONTINUOUS
 10
76.1669522302
 20
103.3713780919
 11
76.1669522302
 21
106.5809572439
  0
LINE
  8
0
 62
7
  6
CONTINUOUS
 10
76.1669522302
 20
111.7617989398
 11
76.1669522302
 21
114.9713780919
  0
LINE
  8
SURFACE
 62
7
  6
CONTINUOUS
 10
76.5270056114
 20
109.0713780919
 11
76.5270056114
 21
109.2713780919
  0
POLYLINE
  8
SURFACE
 62
7
  6
CONTINUOUS
 66
1
 70
0
  0
VERTEX
  8
SURFACE
 62
7
  6
CONTINUOUS
 10
76.1669522302
 20
106.5809572439
  0
VERTEX
  8
SURFACE
 62
7
  6
CONTINUOUS
 10
76.170020866
 20
106.6260649268
  0
VERTEX
  8
SURFACE
 62
7
  6
CONTINUOUS
 10
76.1791026383
 20
106.684113083
  0
VERTEX
  8
SURFACE
 62
7
  6
CONTINUOUS
 10
76.1939670915
 20
106.755370287
  0
VERTEX
  8
SURFACE
 62
7
  6
CONTINUOUS
 10
76.21423063
 20
106.8398250465
  0
VERTEX
  8
SURFACE
 62
7
  6
CONTINUOUS
 10
76.2394358946
 20
106.9376264897
  0
SEQEND
  0
POLYLINE
  8
SURFACE
 62
7
  6
CONTINUOUS
 66
1
 70
0
  0
VERTEX
  8
SURFACE
 62
7
  6
CONTINUOUS
 10
76.3373230825
 20
107.3080898506
  0
VERTEX
  8
SURFACE
 62
7
  6
CONTINUOUS
 10
76.3723094594
 20
107.4554918169
  0
VERTEX
  8
SURFACE
 62
7
  6
CONTINUOUS
 10
76.4040497374
 20
107.6120265314
  0
VERTEX
  8
SURFACE
 62
7
  6
CONTINUOUS
 10
76.432385518
 20
107.7766777388
  0
VERTEX
  8
SURFACE
 62
7
  6
CONTINUOUS
 10
76.4571870846
 20
107.9484385188
  0
VERTEX
  8
SURFACE
 62
7
  6
CONTINUOUS
 10
76.4783458656
 20
108.1262937105
  0
VERTEX
  8
SURFACE
 62
7
  6
CONTINUOUS
 10
76.495773012
 20
108.309224705
  0
VERTEX
  8
SURFACE
 62
7
  6
CONTINUOUS
 10
76.5093980815
 20
108.4962136737
  0
VERTEX
  8
SURFACE
 62
7
  6
CONTINUOUS
 10
76.5191676278
 20
108.6862439918
  0
VERTEX
  8
SURFACE
 62
7
  6
CONTINUOUS
 10
76.5250441685
 20
108.8782992034
  0
VERTEX
  8
SURFACE
 62
7
  6
CONTINUOUS
 10
76.5270056114
 20
109.0713780919
  0
SEQEND
  0
POLYLINE
  8
SURFACE
 62
7
  6
CONTINUOUS
 66
1
 70
0
  0
VERTEX
  8
SURFACE
 62
7
  6
CONTINUOUS
 10
76.2394358946
 20
106.9376264897
  0
VERTEX
  8
SURFACE
 62
7
  6
CONTINUOUS
 10
76.3018667196
 20
107.1722108624
  0
VERTEX
  8
SURFACE
 62
7
  6
CONTINUOUS
 10
76.3373231308
 20
107.3080900494
  0
SEQEND
  0
POLYLINE
  8
SURFACE
 62
7
  6
CONTINUOUS
 66
1
 70
0
  0
VERTEX
  8
SURFACE
 62
7
  6
CONTINUOUS
 10
76.3018663923
 20
111.1705465581
  0
VERTEX
  8
SURFACE
 62
7
  6
CONTINUOUS
 10
76.2394355056
 20
111.4051311726
  0
VERTEX
  8
SURFACE
 62
7
  6
CONTINUOUS
 10
76.2142300857
 20
111.5029333104
  0
VERTEX
  8
SURFACE
 62
7
  6
CONTINUOUS
 10
76.1939667674
 20
111.5873873272
  0
VERTEX
  8
SURFACE
 62
7
  6
CONTINUOUS
 10
76.1791026439
 20
111.6586430709
  0
VERTEX
  8
SURFACE
 62
7
  6
CONTINUOUS
 10
76.1700209307
 20
111.716690711
  0
VERTEX
  8
SURFACE
 62
7
  6
CONTINUOUS
 10
76.1669522302
 20
111.7617989398
  0
SEQEND
  0
LINE
  8
SURFACE
 62
7
  6
CONTINUOUS
 10
76.3373230987
 20
111.0346662646
 11
76.3018663923
 21
111.1705465581
  0
LINE
  8
SURFACE
 62
7
  6
CONTINUOUS
 10
81.506898849
 20
109.0713780919
 11
81.506898849
 21
109.2713780919
  0
LINE
  8
SURFACE
 62
7
  6
CONTINUOUS
 10
81.8669522302
 20
114.9302846422
 11
81.8669522302
 21
111.7617989398
  0
LINE
  8
SURFACE
 62
7
  6
CONTINUOUS
 10
81.8669522302
 20
106.5809572439
 11
81.8669522302
 21
103.4124715415
  0
LINE
  8
0
 62
7
  6
CONTINUOUS
 10
81.8669522302
 20
103.3713780919
 11
81.8669522302
 21
106.5809572439
  0
LINE
  8
0
 62
7
  6
CONTINUOUS
 10
81.8669522302
 20
111.7617989398
 11
81.8669522302
 21
114.9713780919
  0
LINE
  8
SURFACE
 62
7
  6
CONTINUOUS
 10
82.7891630171
 20
109.2713780919
 11
82.7891630171
 21
109.0713780919
  0
POLYLINE
  8
SURFACE
 62
7
  6
CONTINUOUS
 66
1
 70
0
  0
VERTEX
  8
SURFACE
 62
7
  6
CONTINUOUS
 10
81.506898849
 20
109.2713780919
  0
VERTEX
  8
SURFACE
 62
7
  6
CONTINUOUS
 10
81.5088603039
 20
109.4644575737
  0
VERTEX
  8
SURFACE
 62
7
  6
CONTINUOUS
 10
81.5147368728
 20
109.6565131747
  0
VERTEX
  8
SURFACE
 62
7
  6
CONTINUOUS
 10
81.5245064522
 20
109.8465436923
  0
VERTEX
  8
SURFACE
 62
7
  6
CONTINUOUS
 10
81.538131551
 20
110.0335327019
  0
VERTEX
  8
SURFACE
 62
7
  6
CONTINUOUS
 10
81.5555587158
 20
110.2164636052
  0
VERTEX
  8
SURFACE
 62
7
  6
CONTINUOUS
 10
81.5767174964
 20
110.3943185827
  0
VERTEX
  8
SURFACE
 62
7
  6
CONTINUOUS
 10
81.6015190365
 20
110.566079041
  0
VERTEX
  8
SURFACE
 62
7
  6
CONTINUOUS
 10
81.6298547702
 20
110.7307299049
  0
VERTEX
  8
SURFACE
 62
7
  6
CONTINUOUS
 10
81.6615950052
 20
110.8872643861
  0
VERTEX
  8
SURFACE
 62
7
  6
CONTINUOUS
 10
81.6965813616
 20
111.0346662646
  0
SEQEND
  0
POLYLINE
  8
SURFACE
 62
7
  6
CONTINUOUS
 66
1
 70
0
  0
VERTEX
  8
SURFACE
 62
7
  6
CONTINUOUS
 10
82.7891630171
 20
109.0713780919
  0
VERTEX
  8
SURFACE
 62
7
  6
CONTINUOUS
 10
82.7869276408
 20
108.8652777609
  0
VERTEX
  8
SURFACE
 62
7
  6
CONTINUOUS
 10
82.7802309643
 20
108.6604077179
  0
VERTEX
  8
SURFACE
 62
7
  6
CONTINUOUS
 10
82.769101601
 20
108.4580000735
  0
VERTEX
  8
SURFACE
 62
7
  6
CONTINUOUS
 10
82.7535880979
 20
108.259290297
  0
VERTEX
  8
SURFACE
 62
7
  6
CONTINUOUS
 10
82.7337602265
 20
108.0655179827
  0
VERTEX
  8
SURFACE
 62
7
  6
CONTINUOUS
 10
82.7097102816
 20
107.8779228954
  0
VERTEX
  8
SURFACE
 62
7
  6
CONTINUOUS
 10
82.6815551876
 20
107.6977448216
  0
VERTEX
  8
SURFACE
 62
7
  6
CONTINUOUS
 10
82.6494384831
 20
107.5262173708
  0
VERTEX
  8
SURFACE
 62
7
  6
CONTINUOUS
 10
82.6135322366
 20
107.364559548
  0
VERTEX
  8
SURFACE
 62
7
  6
CONTINUOUS
 10
82.5740383389
 20
107.2139635868
  0
VERTEX
  8
SURFACE
 62
7
  6
CONTINUOUS
 10
82.5311903643
 20
107.0755846272
  0
VERTEX
  8
SURFACE
 62
7
  6
CONTINUOUS
 10
82.4852542897
 20
106.9505248861
  0
VERTEX
  8
SURFACE
 62
7
  6
CONTINUOUS
 10
82.436528165
 20
106.8398157869
  0
VERTEX
  8
SURFACE
 62
7
  6
CONTINUOUS
 10
82.3853411561
 20
106.7444003101
  0
VERTEX
  8
SURFACE
 62
7
  6
CONTINUOUS
 10
82.332052043
 20
106.6651156772
  0
VERTEX
  8
SURFACE
 62
7
  6
CONTINUOUS
 10
82.2770463226
 20
106.6026754531
  0
VERTEX
  8
SURFACE
 62
7
  6
CONTINUOUS
 10
82.2207318877
 20
106.5576529842
  0
VERTEX
  8
SURFACE
 62
7
  6
CONTINUOUS
 10
82.1635345564
 20
106.5304683765
  0
VERTEX
  8
SURFACE
 62
7
  6
CONTINUOUS
 10
82.1058925764
 20
106.5213780919
  0
SEQEND
  0
POLYLINE
  8
SURFACE
 62
7
  6
CONTINUOUS
 66
1
 70
0
  0
VERTEX
  8
SURFACE
 62
7
  6
CONTINUOUS
 10
81.8669522302
 20
111.7617989398
  0
VERTEX
  8
SURFACE
 62
7
  6
CONTINUOUS
 10
81.8638841969
 20
111.7166963407
  0
VERTEX
  8
SURFACE
 62
7
  6
CONTINUOUS
 10
81.8548028204
 20
111.6586484683
  0
VERTEX
  8
SURFACE
 62
7
  6
CONTINUOUS
 10
81.8399368608
 20
111.5873836538
  0
VERTEX
  8
SURFACE
 62
7
  6
CONTINUOUS
 10
81.8196714556
 20
111.5029216561
  0
VERTEX
  8
SURFACE
 62
7
  6
CONTINUOUS
 10
81.7944652441
 20
111.4051170678
  0
SEQEND
  0
POLYLINE
  8
SURFACE
 62
7
  6
CONTINUOUS
 66
1
 70
0
  0
VERTEX
  8
SURFACE
 62
7
  6
CONTINUOUS
 10
81.7944652441
 20
111.4051170678
  0
VERTEX
  8
SURFACE
 62
7
  6
CONTINUOUS
 10
81.7320324
 20
111.1705251411
  0
VERTEX
  8
SURFACE
 62
7
  6
CONTINUOUS
 10
81.6965813616
 20
111.0346662646
  0
SEQEND
  0
POLYLINE
  8
0
 62
7
  6
CONTINUOUS
 66
1
 70
0
  0
VERTEX
  8
0
 62
7
  6
CONTINUOUS
 10
158.3058925764
 20
106.5213780919
  0
VERTEX
  8
0
 62
7
  6
CONTINUOUS
 10
158.3635343342
 20
106.5304683063
  0
VERTEX
  8
0
 62
7
  6
CONTINUOUS
 10
158.4207315208
 20
106.5576527508
  0
VERTEX
  8
0
 62
7
  6
CONTINUOUS
 10
158.4770458793
 20
106.6026750251
  0
VERTEX
  8
0
 62
7
  6
CONTINUOUS
 10
158.5320515808
 20
106.6651150721
  0
VERTEX
  8
0
 62
7
  6
CONTINUOUS
 10
158.5853407254
 20
106.7443995898
  0
VERTEX
  8
0
 62
7
  6
CONTINUOUS
 10
158.6365278093
 20
106.8398150528
  0
VERTEX
  8
0
 62
7
  6
CONTINUOUS
 10
158.6852540396
 20
106.9505242629
  0
VERTEX
  8
0
 62
7
  6
CONTINUOUS
 10
158.7311902339
 20
107.0755842402
  0
VERTEX
  8
0
 62
7
  6
CONTINUOUS
 10
158.7740383363
 20
107.2139635777
  0
VERTEX
  8
0
 62
7
  6
CONTINUOUS
 10
158.8135323519
 20
107.3645600259
  0
VERTEX
  8
0
 62
7
  6
CONTINUOUS
 10
158.8494386918
 20
107.5262183931
  0
VERTEX
  8
0
 62
7
  6
CONTINUOUS
 10
158.8815554607
 20
107.6977464157
  0
VERTEX
  8
0
 62
7
  6
CONTINUOUS
 10
158.90971058
 20
107.8779249982
  0
VERTEX
  8
0
 62
7
  6
CONTINUOUS
 10
158.9337605113
 20
108.0655204592
  0
VERTEX
  8
0
 62
7
  6
CONTINUOUS
 10
158.9535883355
 20
108.2592929367
  0
VERTEX
  8
0
 62
7
  6
CONTINUOUS
 10
158.9691017712
 20
108.4580026366
  0
VERTEX
  8
0
 62
7
  6
CONTINUOUS
 10
158.9802310572
 20
108.660409842
  0
VERTEX
  8
0
 62
7
  6
CONTINUOUS
 10
158.9869276686
 20
108.8652790405
  0
VERTEX
  8
0
 62
7
  6
CONTINUOUS
 10
158.9891630171
 20
109.0713780919
  0
SEQEND
  0
POLYLINE
  8
0
 62
7
  6
CONTINUOUS
 66
1
 70
0
  0
VERTEX
  8
0
 62
7
  6
CONTINUOUS
 10
145.6058925764
 20
106.5213780919
  0
VERTEX
  8
0
 62
7
  6
CONTINUOUS
 10
145.6635343342
 20
106.5304683063
  0
VERTEX
  8
0
 62
7
  6
CONTINUOUS
 10
145.7207315208
 20
106.5576527508
  0
VERTEX
  8
0
 62
7
  6
CONTINUOUS
 10
145.7770458793
 20
106.6026750251
  0
VERTEX
  8
0
 62
7
  6
CONTINUOUS
 10
145.8320515808
 20
106.6651150721
  0
VERTEX
  8
0
 62
7
  6
CONTINUOUS
 10
145.8853407254
 20
106.7443995898
  0
VERTEX
  8
0
 62
7
  6
CONTINUOUS
 10
145.9365278093
 20
106.8398150528
  0
VERTEX
  8
0
 62
7
  6
CONTINUOUS
 10
145.9852540396
 20
106.9505242629
  0
VERTEX
  8
0
 62
7
  6
CONTINUOUS
 10
146.0311902339
 20
107.0755842402
  0
VERTEX
  8
0
 62
7
  6
CONTINUOUS
 10
146.0740383363
 20
107.2139635777
  0
VERTEX
  8
0
 62
7
  6
CONTINUOUS
 10
146.1135323519
 20
107.3645600259
  0
VERTEX
  8
0
 62
7
  6
CONTINUOUS
 10
146.1494386918
 20
107.5262183931
  0
VERTEX
  8
0
 62
7
  6
CONTINUOUS
 10
146.1815554607
 20
107.6977464157
  0
VERTEX
  8
0
 62
7
  6
CONTINUOUS
 10
146.20971058
 20
107.8779249982
  0
VERTEX
  8
0
 62
7
  6
CONTINUOUS
 10
146.2337605113
 20
108.0655204592
  0
VERTEX
  8
0
 62
7
  6
CONTINUOUS
 10
146.2535883355
 20
108.2592929367
  0
VERTEX
  8
0
 62
7
  6
CONTINUOUS
 10
146.2691017712
 20
108.4580026366
  0
VERTEX
  8
0
 62
7
  6
CONTINUOUS
 10
146.2802310572
 20
108.660409842
  0
VERTEX
  8
0
 62
7
  6
CONTINUOUS
 10
146.2869276686
 20
108.8652790405
  0
VERTEX
  8
0
 62
7
  6
CONTINUOUS
 10
146.2891630171
 20
109.0713780919
  0
SEQEND
  0
POLYLINE
  8
0
 62
7
  6
CONTINUOUS
 66
1
 70
0
  0
VERTEX
  8
0
 62
7
  6
CONTINUOUS
 10
166.0407013261
 20
102.6714020203
  0
VERTEX
  8
0
 62
7
  6
CONTINUOUS
 10
166.129104359
 20
102.6766302158
  0
VERTEX
  8
0
 62
7
  6
CONTINUOUS
 10
166.216274871
 20
102.6922420366
  0
VERTEX
  8
0
 62
7
  6
CONTINUOUS
 10
166.3009975219
 20
102.7180198212
  0
VERTEX
  8
0
 62
7
  6
CONTINUOUS
 10
166.3820910998
 20
102.7536041729
  0
VERTEX
  8
0
 62
7
  6
CONTINUOUS
 10
166.4000668066
 20
102.7641763542
  0
SEQEND
  0
POLYLINE
  8
SURFACE
 62
7
  6
CONTINUOUS
 66
1
 70
0
  0
VERTEX
  8
SURFACE
 62
7
  6
CONTINUOUS
 10
81.7320320354
 20
107.1722324203
  0
VERTEX
  8
SURFACE
 62
7
  6
CONTINUOUS
 10
81.7944648299
 20
106.9376406905
  0
VERTEX
  8
SURFACE
 62
7
  6
CONTINUOUS
 10
81.8196708842
 20
106.8398368091
  0
VERTEX
  8
SURFACE
 62
7
  6
CONTINUOUS
 10
81.8399365211
 20
106.7553740294
  0
VERTEX
  8
SURFACE
 62
7
  6
CONTINUOUS
 10
81.8548028161
 20
106.6841077385
  0
VERTEX
  8
SURFACE
 62
7
  6
CONTINUOUS
 10
81.8638842644
 20
106.6260592737
  0
VERTEX
  8
SURFACE
 62
7
  6
CONTINUOUS
 10
81.8669522302
 20
106.5809572439
  0
SEQEND
  0
LINE
  8
SURFACE
 62
7
  6
CONTINUOUS
 10
81.6965813616
 20
107.3080899191
 11
81.7320320354
 21
107.1722324203
  0
POLYLINE
  8
SURFACE
 62
7
  6
CONTINUOUS
 66
1
 70
0
  0
VERTEX
  8
SURFACE
 62
7
  6
CONTINUOUS
 10
81.6965813616
 20
107.3080899191
  0
VERTEX
  8
SURFACE
 62
7
  6
CONTINUOUS
 10
81.661595001
 20
107.4554918169
  0
VERTEX
  8
SURFACE
 62
7
  6
CONTINUOUS
 10
81.6298547229
 20
107.6120265314
  0
VERTEX
  8
SURFACE
 62
7
  6
CONTINUOUS
 10
81.6015189424
 20
107.7766777388
  0
VERTEX
  8
SURFACE
 62
7
  6
CONTINUOUS
 10
81.5767173758
 20
107.9484385188
  0
VERTEX
  8
SURFACE
 62
7
  6
CONTINUOUS
 10
81.5555585947
 20
108.1262937105
  0
VERTEX
  8
SURFACE
 62
7
  6
CONTINUOUS
 10
81.5381314483
 20
108.309224705
  0
VERTEX
  8
SURFACE
 62
7
  6
CONTINUOUS
 10
81.5245063789
 20
108.4962136737
  0
VERTEX
  8
SURFACE
 62
7
  6
CONTINUOUS
 10
81.5147368326
 20
108.6862439918
  0
VERTEX
  8
SURFACE
 62
7
  6
CONTINUOUS
 10
81.5088602919
 20
108.8782992034
  0
VERTEX
  8
SURFACE
 62
7
  6
CONTINUOUS
 10
81.506898849
 20
109.0713780919
  0
SEQEND
  0
POLYLINE
  8
SURFACE
 62
7
  6
CONTINUOUS
 66
1
 70
0
  0
VERTEX
  8
SURFACE
 62
7
  6
CONTINUOUS
 10
87.9447414433
 20
109.0713780919
  0
VERTEX
  8
SURFACE
 62
7
  6
CONTINUOUS
 10
87.9469768196
 20
108.8652777609
  0
VERTEX
  8
SURFACE
 62
7
  6
CONTINUOUS
 10
87.9536734961
 20
108.6604077179
  0
VERTEX
  8
SURFACE
 62
7
  6
CONTINUOUS
 10
87.9648028594
 20
108.4580000735
  0
VERTEX
  8
SURFACE
 62
7
  6
CONTINUOUS
 10
87.9803163625
 20
108.259290297
  0
VERTEX
  8
SURFACE
 62
7
  6
CONTINUOUS
 10
88.0001442339
 20
108.0655179827
  0
VERTEX
  8
SURFACE
 62
7
  6
CONTINUOUS
 10
88.0241941787
 20
107.8779228954
  0
VERTEX
  8
SURFACE
 62
7
  6
CONTINUOUS
 10
88.0523492728
 20
107.6977448216
  0
VERTEX
  8
SURFACE
 62
7
  6
CONTINUOUS
 10
88.0844659772
 20
107.5262173708
  0
VERTEX
  8
SURFACE
 62
7
  6
CONTINUOUS
 10
88.1203722238
 20
107.364559548
  0
VERTEX
  8
SURFACE
 62
7
  6
CONTINUOUS
 10
88.1598661215
 20
107.2139635868
  0
VERTEX
  8
SURFACE
 62
7
  6
CONTINUOUS
 10
88.2027140961
 20
107.0755846272
  0
VERTEX
  8
SURFACE
 62
7
  6
CONTINUOUS
 10
88.2486501706
 20
106.9505248861
  0
VERTEX
  8
SURFACE
 62
7
  6
CONTINUOUS
 10
88.2973762954
 20
106.8398157869
  0
VERTEX
  8
SURFACE
 62
7
  6
CONTINUOUS
 10
88.3485633043
 20
106.7444003101
  0
VERTEX
  8
SURFACE
 62
7
  6
CONTINUOUS
 10
88.4018524174
 20
106.6651156772
  0
VERTEX
  8
SURFACE
 62
7
  6
CONTINUOUS
 10
88.4568581378
 20
106.6026754531
  0
VERTEX
  8
SURFACE
 62
7
  6
CONTINUOUS
 10
88.5131725727
 20
106.5576529842
  0
VERTEX
  8
SURFACE
 62
7
  6
CONTINUOUS
 10
88.5703699039
 20
106.5304683765
  0
VERTEX
  8
SURFACE
 62
7
  6
CONTINUOUS
 10
88.628011884
 20
106.5213780919
  0
SEQEND
  0
POLYLINE
  8
SURFACE
 62
7
  6
CONTINUOUS
 66
1
 70
0
  0
VERTEX
  8
SURFACE
 62
7
  6
CONTINUOUS
 10
89.2270056114
 20
109.2713780919
  0
VERTEX
  8
SURFACE
 62
7
  6
CONTINUOUS
 10
89.2250441564
 20
109.4644575737
  0
VERTEX
  8
SURFACE
 62
7
  6
CONTINUOUS
 10
89.2191675876
 20
109.6565131747
  0
VERTEX
  8
SURFACE
 62
7
  6
CONTINUOUS
 10
89.2093980081
 20
109.8465436923
  0
VERTEX
  8
SURFACE
 62
7
  6
CONTINUOUS
 10
89.1957729094
 20
110.0335327019
  0
VERTEX
  8
SURFACE
 62
7
  6
CONTINUOUS
 10
89.1783457446
 20
110.2164636052
  0
VERTEX
  8
SURFACE
 62
7
  6
CONTINUOUS
 10
89.1571869639
 20
110.3943185827
  0
VERTEX
  8
SURFACE
 62
7
  6
CONTINUOUS
 10
89.1323854239
 20
110.566079041
  0
VERTEX
  8
SURFACE
 62
7
  6
CONTINUOUS
 10
89.1040496902
 20
110.7307299049
  0
VERTEX
  8
SURFACE
 62
7
  6
CONTINUOUS
 10
89.0723094552
 20
110.8872643861
  0
VERTEX
  8
SURFACE
 62
7
  6
CONTINUOUS
 10
89.0373230987
 20
111.0346662646
  0
SEQEND
  0
LINE
  8
SURFACE
 62
7
  6
CONTINUOUS
 10
87.9447414433
 20
109.2713780919
 11
87.9447414433
 21
109.0713780919
  0
LINE
  8
0
 62
7
  6
CONTINUOUS
 10
88.8669522302
 20
103.3713780919
 11
88.8669522302
 21
106.5809572439
  0
LINE
  8
0
 62
7
  6
CONTINUOUS
 10
88.8669522302
 20
111.7617989398
 11
88.8669522302
 21
114.9713780919
  0
LINE
  8
SURFACE
 62
7
  6
CONTINUOUS
 10
89.2270056114
 20
109.0713780919
 11
89.2270056114
 21
109.2713780919
  0
POLYLINE
  8
SURFACE
 62
7
  6
CONTINUOUS
 66
1
 70
0
  0
VERTEX
  8
SURFACE
 62
7
  6
CONTINUOUS
 10
88.8669522302
 20
106.5809572439
  0
VERTEX
  8
SURFACE
 62
7
  6
CONTINUOUS
 10
88.8700208667
 20
106.6260649326
  0
VERTEX
  8
SURFACE
 62
7
  6
CONTINUOUS
 10
88.879102641
 20
106.6841130974
  0
VERTEX
  8
SURFACE
 62
7
  6
CONTINUOUS
 10
88.8939670974
 20
106.7553703131
  0
VERTEX
  8
SURFACE
 62
7
  6
CONTINUOUS
 10
88.9142306402
 20
106.8398250872
  0
VERTEX
  8
SURFACE
 62
7
  6
CONTINUOUS
 10
88.9394359099
 20
106.937626548
  0
SEQEND
  0
POLYLINE
  8
SURFACE
 62
7
  6
CONTINUOUS
 66
1
 70
0
  0
VERTEX
  8
SURFACE
 62
7
  6
CONTINUOUS
 10
89.0373230987
 20
107.3080899191
  0
VERTEX
  8
SURFACE
 62
7
  6
CONTINUOUS
 10
89.0723094594
 20
107.4554918169
  0
VERTEX
  8
SURFACE
 62
7
  6
CONTINUOUS
 10
89.1040497374
 20
107.6120265314
  0
VERTEX
  8
SURFACE
 62
7
  6
CONTINUOUS
 10
89.132385518
 20
107.7766777388
  0
VERTEX
  8
SURFACE
 62
7
  6
CONTINUOUS
 10
89.1571870846
 20
107.9484385188
  0
VERTEX
  8
SURFACE
 62
7
  6
CONTINUOUS
 10
89.1783458656
 20
108.1262937105
  0
VERTEX
  8
SURFACE
 62
7
  6
CONTINUOUS
 10
89.195773012
 20
108.309224705
  0
VERTEX
  8
SURFACE
 62
7
  6
CONTINUOUS
 10
89.2093980815
 20
108.4962136737
  0
VERTEX
  8
SURFACE
 62
7
  6
CONTINUOUS
 10
89.2191676278
 20
108.6862439918
  0
VERTEX
  8
SURFACE
 62
7
  6
CONTINUOUS
 10
89.2250441685
 20
108.8782992034
  0
VERTEX
  8
SURFACE
 62
7
  6
CONTINUOUS
 10
89.2270056114
 20
109.0713780919
  0
SEQEND
  0
POLYLINE
  8
SURFACE
 62
7
  6
CONTINUOUS
 66
1
 70
0
  0
VERTEX
  8
SURFACE
 62
7
  6
CONTINUOUS
 10
88.9394359099
 20
106.937626548
  0
VERTEX
  8
SURFACE
 62
7
  6
CONTINUOUS
 10
89.0018667465
 20
107.172210964
  0
VERTEX
  8
SURFACE
 62
7
  6
CONTINUOUS
 10
89.0373230987
 20
107.3080899191
  0
SEQEND
  0
POLYLINE
  8
0
 62
7
  6
CONTINUOUS
 66
1
 70
0
  0
VERTEX
  8
0
 62
7
  6
CONTINUOUS
 10
132.9058925764
 20
106.5213780919
  0
VERTEX
  8
0
 62
7
  6
CONTINUOUS
 10
132.9635343342
 20
106.5304683063
  0
VERTEX
  8
0
 62
7
  6
CONTINUOUS
 10
133.0207315208
 20
106.5576527508
  0
VERTEX
  8
0
 62
7
  6
CONTINUOUS
 10
133.0770458793
 20
106.6026750251
  0
VERTEX
  8
0
 62
7
  6
CONTINUOUS
 10
133.1320515808
 20
106.6651150721
  0
VERTEX
  8
0
 62
7
  6
CONTINUOUS
 10
133.1853407254
 20
106.7443995898
  0
VERTEX
  8
0
 62
7
  6
CONTINUOUS
 10
133.2365278093
 20
106.8398150528
  0
VERTEX
  8
0
 62
7
  6
CONTINUOUS
 10
133.2852540396
 20
106.9505242629
  0
VERTEX
  8
0
 62
7
  6
CONTINUOUS
 10
133.3311902339
 20
107.0755842402
  0
VERTEX
  8
0
 62
7
  6
CONTINUOUS
 10
133.3740383363
 20
107.2139635777
  0
VERTEX
  8
0
 62
7
  6
CONTINUOUS
 10
133.4135323519
 20
107.3645600259
  0
VERTEX
  8
0
 62
7
  6
CONTINUOUS
 10
133.4494386918
 20
107.5262183931
  0
VERTEX
  8
0
 62
7
  6
CONTINUOUS
 10
133.4815554607
 20
107.6977464157
  0
VERTEX
  8
0
 62
7
  6
CONTINUOUS
 10
133.50971058
 20
107.8779249982
  0
VERTEX
  8
0
 62
7
  6
CONTINUOUS
 10
133.5337605113
 20
108.0655204592
  0
VERTEX
  8
0
 62
7
  6
CONTINUOUS
 10
133.5535883355
 20
108.2592929367
  0
VERTEX
  8
0
 62
7
  6
CONTINUOUS
 10
133.5691017712
 20
108.4580026366
  0
VERTEX
  8
0
 62
7
  6
CONTINUOUS
 10
133.5802310572
 20
108.660409842
  0
VERTEX
  8
0
 62
7
  6
CONTINUOUS
 10
133.5869276686
 20
108.8652790405
  0
VERTEX
  8
0
 62
7
  6
CONTINUOUS
 10
133.5891630171
 20
109.0713780919
  0
SEQEND
  0
POLYLINE
  8
0
 62
7
  6
CONTINUOUS
 66
1
 70
0
  0
VERTEX
  8
0
 62
7
  6
CONTINUOUS
 10
120.2058925764
 20
106.5213780919
  0
VERTEX
  8
0
 62
7
  6
CONTINUOUS
 10
120.2635343342
 20
106.5304683063
  0
VERTEX
  8
0
 62
7
  6
CONTINUOUS
 10
120.3207315208
 20
106.5576527508
  0
VERTEX
  8
0
 62
7
  6
CONTINUOUS
 10
120.3770458793
 20
106.6026750251
  0
VERTEX
  8
0
 62
7
  6
CONTINUOUS
 10
120.4320515808
 20
106.6651150721
  0
VERTEX
  8
0
 62
7
  6
CONTINUOUS
 10
120.4853407254
 20
106.7443995898
  0
VERTEX
  8
0
 62
7
  6
CONTINUOUS
 10
120.5365278093
 20
106.8398150528
  0
VERTEX
  8
0
 62
7
  6
CONTINUOUS
 10
120.5852540396
 20
106.9505242629
  0
VERTEX
  8
0
 62
7
  6
CONTINUOUS
 10
120.6311902339
 20
107.0755842402
  0
VERTEX
  8
0
 62
7
  6
CONTINUOUS
 10
120.6740383363
 20
107.2139635777
  0
VERTEX
  8
0
 62
7
  6
CONTINUOUS
 10
120.7135323519
 20
107.3645600259
  0
VERTEX
  8
0
 62
7
  6
CONTINUOUS
 10
120.7494386918
 20
107.5262183931
  0
VERTEX
  8
0
 62
7
  6
CONTINUOUS
 10
120.7815554607
 20
107.6977464157
  0
VERTEX
  8
0
 62
7
  6
CONTINUOUS
 10
120.80971058
 20
107.8779249982
  0
VERTEX
  8
0
 62
7
  6
CONTINUOUS
 10
120.8337605113
 20
108.0655204592
  0
VERTEX
  8
0
 62
7
  6
CONTINUOUS
 10
120.8535883355
 20
108.2592929367
  0
VERTEX
  8
0
 62
7
  6
CONTINUOUS
 10
120.8691017712
 20
108.4580026366
  0
VERTEX
  8
0
 62
7
  6
CONTINUOUS
 10
120.8802310572
 20
108.660409842
  0
VERTEX
  8
0
 62
7
  6
CONTINUOUS
 10
120.8869276686
 20
108.8652790405
  0
VERTEX
  8
0
 62
7
  6
CONTINUOUS
 10
120.8891630171
 20
109.0713780919
  0
SEQEND
  0
POLYLINE
  8
0
 62
7
  6
CONTINUOUS
 66
1
 70
0
  0
VERTEX
  8
0
 62
7
  6
CONTINUOUS
 10
107.5058925764
 20
106.5213780919
  0
VERTEX
  8
0
 62
7
  6
CONTINUOUS
 10
107.5635343342
 20
106.5304683063
  0
VERTEX
  8
0
 62
7
  6
CONTINUOUS
 10
107.6207315208
 20
106.5576527508
  0
VERTEX
  8
0
 62
7
  6
CONTINUOUS
 10
107.6770458793
 20
106.6026750251
  0
VERTEX
  8
0
 62
7
  6
CONTINUOUS
 10
107.7320515808
 20
106.6651150721
  0
VERTEX
  8
0
 62
7
  6
CONTINUOUS
 10
107.7853407254
 20
106.7443995898
  0
VERTEX
  8
0
 62
7
  6
CONTINUOUS
 10
107.8365278093
 20
106.8398150528
  0
VERTEX
  8
0
 62
7
  6
CONTINUOUS
 10
107.8852540396
 20
106.9505242629
  0
VERTEX
  8
0
 62
7
  6
CONTINUOUS
 10
107.9311902339
 20
107.0755842402
  0
VERTEX
  8
0
 62
7
  6
CONTINUOUS
 10
107.9740383363
 20
107.2139635777
  0
VERTEX
  8
0
 62
7
  6
CONTINUOUS
 10
108.0135323519
 20
107.3645600259
  0
VERTEX
  8
0
 62
7
  6
CONTINUOUS
 10
108.0494386918
 20
107.5262183931
  0
VERTEX
  8
0
 62
7
  6
CONTINUOUS
 10
108.0815554607
 20
107.6977464157
  0
VERTEX
  8
0
 62
7
  6
CONTINUOUS
 10
108.10971058
 20
107.8779249982
  0
VERTEX
  8
0
 62
7
  6
CONTINUOUS
 10
108.1337605113
 20
108.0655204592
  0
VERTEX
  8
0
 62
7
  6
CONTINUOUS
 10
108.1535883355
 20
108.2592929367
  0
VERTEX
  8
0
 62
7
  6
CONTINUOUS
 10
108.1691017712
 20
108.4580026366
  0
VERTEX
  8
0
 62
7
  6
CONTINUOUS
 10
108.1802310572
 20
108.660409842
  0
VERTEX
  8
0
 62
7
  6
CONTINUOUS
 10
108.1869276686
 20
108.8652790405
  0
VERTEX
  8
0
 62
7
  6
CONTINUOUS
 10
108.1891630171
 20
109.0713780919
  0
SEQEND
  0
LINE
  8
0
 62
7
  6
CONTINUOUS
 10
19.5669522302
 20
102.6713780919
 11
170.2169522302
 21
102.6713780919
  0
LINE
  8
0
 62
7
  6
CONTINUOUS
 10
167.8919522302
 20
103.1724078432
 11
168.0919522331
 21
103.1724078432
  0
POLYLINE
  8
0
 62
7
  6
CONTINUOUS
 66
1
 70
0
  0
VERTEX
  8
0
 62
7
  6
CONTINUOUS
 10
168.0919522331
 20
103.1724080688
  0
VERTEX
  8
0
 62
7
  6
CONTINUOUS
 10
168.1417817613
 20
103.1718998357
  0
VERTEX
  8
0
 62
7
  6
CONTINUOUS
 10
168.2037306043
 20
103.1698527079
  0
VERTEX
  8
0
 62
7
  6
CONTINUOUS
 10
168.2624476295
 20
103.1664690859
  0
VERTEX
  8
0
 62
7
  6
CONTINUOUS
 10
168.3182072629
 20
103.1619647897
  0
VERTEX
  8
0
 62
7
  6
CONTINUOUS
 10
168.3713248982
 20
103.1565130276
  0
VERTEX
  8
0
 62
7
  6
CONTINUOUS
 10
168.4221498312
 20
103.1502478084
  0
VERTEX
  8
0
 62
7
  6
CONTINUOUS
 10
168.4710326924
 20
103.1432648827
  0
VERTEX
  8
0
 62
7
  6
CONTINUOUS
 10
168.5182769495
 20
103.1356357054
  0
VERTEX
  8
0
 62
7
  6
CONTINUOUS
 10
168.5639141144
 20
103.1274555979
  0
VERTEX
  8
0
 62
7
  6
CONTINUOUS
 10
168.607893559
 20
103.118829254
  0
VERTEX
  8
0
 62
7
  6
CONTINUOUS
 10
168.6501766034
 20
103.1098583061
  0
VERTEX
  8
0
 62
7
  6
CONTINUOUS
 10
168.6907250562
 20
103.1006408559
  0
VERTEX
  8
0
 62
7
  6
CONTINUOUS
 10
168.7295189666
 20
103.0912669503
  0
VERTEX
  8
0
 62
7
  6
CONTINUOUS
 10
168.7665408302
 20
103.0818233048
  0
VERTEX
  8
0
 62
7
  6
CONTINUOUS
 10
168.8017701926
 20
103.0723917167
  0
VERTEX
  8
0
 62
7
  6
CONTINUOUS
 10
168.8352076066
 20
103.0630434228
  0
VERTEX
  8
0
 62
7
  6
CONTINUOUS
 10
168.8669280135
 20
103.0538241449
  0
VERTEX
  8
0
 62
7
  6
CONTINUOUS
 10
168.8971996262
 20
103.0447116838
  0
VERTEX
  8
0
 62
7
  6
CONTINUOUS
 10
168.9261513455
 20
103.0357124429
  0
VERTEX
  8
0
 62
7
  6
CONTINUOUS
 10
168.9538883799
 20
103.0268336304
  0
VERTEX
  8
0
 62
7
  6
CONTINUOUS
 10
168.9804940267
 20
103.0180840719
  0
VERTEX
  8
0
 62
7
  6
CONTINUOUS
 10
169.0060445514
 20
103.0094693651
  0
VERTEX
  8
0
 62
7
  6
CONTINUOUS
 10
169.030614665
 20
103.0009909034
  0
VERTEX
  8
0
 62
7
  6
CONTINUOUS
 10
169.0542907895
 20
102.9926426117
  0
VERTEX
  8
0
 62
7
  6
CONTINUOUS
 10
169.0771412784
 20
102.9844217294
  0
VERTEX
  8
0
 62
7
  6
CONTINUOUS
 10
169.0992271621
 20
102.9763248202
  0
VERTEX
  8
0
 62
7
  6
CONTINUOUS
 10
169.1206057719
 20
102.9683469406
  0
VERTEX
  8
0
 62
7
  6
CONTINUOUS
 10
169.1413373547
 20
102.9604796208
  0
VERTEX
  8
0
 62
7
  6
CONTINUOUS
 10
169.1614853728
 20
102.9527115604
  0
VERTEX
  8
0
 62
7
  6
CONTINUOUS
 10
169.1810935218
 20
102.94503729
  0
VERTEX
  8
0
 62
7
  6
CONTINUOUS
 10
169.200173654
 20
102.9374623835
  0
VERTEX
  8
0
 62
7
  6
CONTINUOUS
 10
169.2187250382
 20
102.9299966391
  0
SEQEND
  0
POLYLINE
  8
SURFACE
 62
7
  6
CONTINUOUS
 66
1
 70
0
  0
VERTEX
  8
SURFACE
 62
7
  6
CONTINUOUS
 10
31.3058925764
 20
111.8213780919
  0
VERTEX
  8
SURFACE
 62
7
  6
CONTINUOUS
 10
31.3635343342
 20
111.8122878775
  0
VERTEX
  8
SURFACE
 62
7
  6
CONTINUOUS
 10
31.4207315208
 20
111.785103433
  0
VERTEX
  8
SURFACE
 62
7
  6
CONTINUOUS
 10
31.4770458793
 20
111.7400811586
  0
VERTEX
  8
SURFACE
 62
7
  6
CONTINUOUS
 10
31.5320515808
 20
111.6776411116
  0
VERTEX
  8
SURFACE
 62
7
  6
CONTINUOUS
 10
31.5853407254
 20
111.5983565939
  0
VERTEX
  8
SURFACE
 62
7
  6
CONTINUOUS
 10
31.6365278093
 20
111.5029411309
  0
VERTEX
  8
SURFACE
 62
7
  6
CONTINUOUS
 10
31.6852540396
 20
111.3922319209
  0
VERTEX
  8
SURFACE
 62
7
  6
CONTINUOUS
 10
31.7311902339
 20
111.2671719436
  0
VERTEX
  8
SURFACE
 62
7
  6
CONTINUOUS
 10
31.7740383363
 20
111.128792606
  0
VERTEX
  8
SURFACE
 62
7
  6
CONTINUOUS
 10
31.8135323519
 20
110.9781961578
  0
VERTEX
  8
SURFACE
 62
7
  6
CONTINUOUS
 10
31.8494386918
 20
110.8165377907
  0
VERTEX
  8
SURFACE
 62
7
  6
CONTINUOUS
 10
31.8815554607
 20
110.645009768
  0
VERTEX
  8
SURFACE
 62
7
  6
CONTINUOUS
 10
31.90971058
 20
110.4648311855
  0
VERTEX
  8
SURFACE
 62
7
  6
CONTINUOUS
 10
31.9337605113
 20
110.2772357245
  0
VERTEX
  8
SURFACE
 62
7
  6
CONTINUOUS
 10
31.9535883355
 20
110.0834632471
  0
VERTEX
  8
SURFACE
 62
7
  6
CONTINUOUS
 10
31.9691017712
 20
109.8847535471
  0
VERTEX
  8
SURFACE
 62
7
  6
CONTINUOUS
 10
31.9802310572
 20
109.6823463417
  0
VERTEX
  8
SURFACE
 62
7
  6
CONTINUOUS
 10
31.9869276686
 20
109.4774771433
  0
VERTEX
  8
SURFACE
 62
7
  6
CONTINUOUS
 10
31.9891630171
 20
109.2713780919
  0
SEQEND
  0
POLYLINE
  8
SURFACE
 62
7
  6
CONTINUOUS
 66
1
 70
0
  0
VERTEX
  8
SURFACE
 62
7
  6
CONTINUOUS
 10
44.0058925764
 20
111.8213780919
  0
VERTEX
  8
SURFACE
 62
7
  6
CONTINUOUS
 10
44.0635343342
 20
111.8122878775
  0
VERTEX
  8
SURFACE
 62
7
  6
CONTINUOUS
 10
44.1207315208
 20
111.785103433
  0
VERTEX
  8
SURFACE
 62
7
  6
CONTINUOUS
 10
44.1770458793
 20
111.7400811586
  0
VERTEX
  8
SURFACE
 62
7
  6
CONTINUOUS
 10
44.2320515808
 20
111.6776411116
  0
VERTEX
  8
SURFACE
 62
7
  6
CONTINUOUS
 10
44.2853407254
 20
111.5983565939
  0
VERTEX
  8
SURFACE
 62
7
  6
CONTINUOUS
 10
44.3365278093
 20
111.5029411309
  0
VERTEX
  8
SURFACE
 62
7
  6
CONTINUOUS
 10
44.3852540396
 20
111.3922319209
  0
VERTEX
  8
SURFACE
 62
7
  6
CONTINUOUS
 10
44.4311902339
 20
111.2671719436
  0
VERTEX
  8
SURFACE
 62
7
  6
CONTINUOUS
 10
44.4740383363
 20
111.128792606
  0
VERTEX
  8
SURFACE
 62
7
  6
CONTINUOUS
 10
44.5135323519
 20
110.9781961578
  0
VERTEX
  8
SURFACE
 62
7
  6
CONTINUOUS
 10
44.5494386918
 20
110.8165377907
  0
VERTEX
  8
SURFACE
 62
7
  6
CONTINUOUS
 10
44.5815554607
 20
110.645009768
  0
VERTEX
  8
SURFACE
 62
7
  6
CONTINUOUS
 10
44.60971058
 20
110.4648311855
  0
VERTEX
  8
SURFACE
 62
7
  6
CONTINUOUS
 10
44.6337605113
 20
110.2772357245
  0
VERTEX
  8
SURFACE
 62
7
  6
CONTINUOUS
 10
44.6535883355
 20
110.0834632471
  0
VERTEX
  8
SURFACE
 62
7
  6
CONTINUOUS
 10
44.6691017712
 20
109.8847535471
  0
VERTEX
  8
SURFACE
 62
7
  6
CONTINUOUS
 10
44.6802310572
 20
109.6823463417
  0
VERTEX
  8
SURFACE
 62
7
  6
CONTINUOUS
 10
44.6869276686
 20
109.4774771433
  0
VERTEX
  8
SURFACE
 62
7
  6
CONTINUOUS
 10
44.6891630171
 20
109.2713780919
  0
SEQEND
  0
POLYLINE
  8
SURFACE
 62
7
  6
CONTINUOUS
 66
1
 70
0
  0
VERTEX
  8
SURFACE
 62
7
  6
CONTINUOUS
 10
89.0018663923
 20
111.1705465581
  0
VERTEX
  8
SURFACE
 62
7
  6
CONTINUOUS
 10
88.9394355056
 20
111.4051311726
  0
VERTEX
  8
SURFACE
 62
7
  6
CONTINUOUS
 10
88.9142300857
 20
111.5029333104
  0
VERTEX
  8
SURFACE
 62
7
  6
CONTINUOUS
 10
88.8939667674
 20
111.5873873272
  0
VERTEX
  8
SURFACE
 62
7
  6
CONTINUOUS
 10
88.8791026439
 20
111.6586430709
  0
VERTEX
  8
SURFACE
 62
7
  6
CONTINUOUS
 10
88.8700209307
 20
111.716690711
  0
VERTEX
  8
SURFACE
 62
7
  6
CONTINUOUS
 10
88.8669522302
 20
111.7617989398
  0
SEQEND
  0
LINE
  8
SURFACE
 62
7
  6
CONTINUOUS
 10
89.0373230987
 20
111.0346662646
 11
89.0018663923
 21
111.1705465581
  0
POLYLINE
  8
0
 62
7
  6
CONTINUOUS
 66
1
 70
0
  0
VERTEX
  8
0
 62
7
  6
CONTINUOUS
 10
95.4891630171
 20
109.2713780919
  0
VERTEX
  8
0
 62
7
  6
CONTINUOUS
 10
95.4869276408
 20
109.4774784229
  0
VERTEX
  8
0
 62
7
  6
CONTINUOUS
 10
95.4802309643
 20
109.6823484659
  0
VERTEX
  8
0
 62
7
  6
CONTINUOUS
 10
95.469101601
 20
109.8847561102
  0
VERTEX
  8
0
 62
7
  6
CONTINUOUS
 10
95.4535880979
 20
110.0834658867
  0
VERTEX
  8
0
 62
7
  6
CONTINUOUS
 10
95.4337602265
 20
110.277238201
  0
VERTEX
  8
0
 62
7
  6
CONTINUOUS
 10
95.4097102816
 20
110.4648332884
  0
VERTEX
  8
0
 62
7
  6
CONTINUOUS
 10
95.3815551876
 20
110.6450113622
  0
VERTEX
  8
0
 62
7
  6
CONTINUOUS
 10
95.3494384831
 20
110.8165388129
  0
VERTEX
  8
0
 62
7
  6
CONTINUOUS
 10
95.3135322366
 20
110.9781966358
  0
VERTEX
  8
0
 62
7
  6
CONTINUOUS
 10
95.2740383389
 20
111.128792597
  0
VERTEX
  8
0
 62
7
  6
CONTINUOUS
 10
95.2311903643
 20
111.2671715566
  0
VERTEX
  8
0
 62
7
  6
CONTINUOUS
 10
95.1852542897
 20
111.3922312977
  0
VERTEX
  8
0
 62
7
  6
CONTINUOUS
 10
95.136528165
 20
111.5029403969
  0
VERTEX
  8
0
 62
7
  6
CONTINUOUS
 10
95.0853411561
 20
111.5983558736
  0
VERTEX
  8
0
 62
7
  6
CONTINUOUS
 10
95.032052043
 20
111.6776405065
  0
VERTEX
  8
0
 62
7
  6
CONTINUOUS
 10
94.9770463226
 20
111.7400807306
  0
VERTEX
  8
0
 62
7
  6
CONTINUOUS
 10
94.9207318877
 20
111.7851031995
  0
VERTEX
  8
0
 62
7
  6
CONTINUOUS
 10
94.8635345564
 20
111.8122878073
  0
VERTEX
  8
0
 62
7
  6
CONTINUOUS
 10
94.8058925764
 20
111.8213780919
  0
SEQEND
  0
POLYLINE
  8
0
 62
7
  6
CONTINUOUS
 66
1
 70
0
  0
VERTEX
  8
0
 62
7
  6
CONTINUOUS
 10
94.206898849
 20
109.0713780919
  0
VERTEX
  8
0
 62
7
  6
CONTINUOUS
 10
94.2088603039
 20
108.87829861
  0
VERTEX
  8
0
 62
7
  6
CONTINUOUS
 10
94.2147368728
 20
108.686243009
  0
VERTEX
  8
0
 62
7
  6
CONTINUOUS
 10
94.2245064522
 20
108.4962124914
  0
VERTEX
  8
0
 62
7
  6
CONTINUOUS
 10
94.238131551
 20
108.3092234818
  0
VERTEX
  8
0
 62
7
  6
CONTINUOUS
 10
94.2555587158
 20
108.1262925785
  0
VERTEX
  8
0
 62
7
  6
CONTINUOUS
 10
94.2767174964
 20
107.948437601
  0
VERTEX
  8
0
 62
7
  6
CONTINUOUS
 10
94.3015190365
 20
107.7766771428
  0
VERTEX
  8
0
 62
7
  6
CONTINUOUS
 10
94.3298547702
 20
107.6120262788
  0
VERTEX
  8
0
 62
7
  6
CONTINUOUS
 10
94.3615950052
 20
107.4554917976
  0
VERTEX
  8
0
 62
7
  6
CONTINUOUS
 10
94.3965813616
 20
107.3080899191
  0
SEQEND
  0
LINE
  8
0
 62
7
  6
CONTINUOUS
 10
94.206898849
 20
109.2713780919
 11
94.206898849
 21
109.0713780919
  0
LINE
  8
0
 62
7
  6
CONTINUOUS
 10
94.5669522302
 20
103.3713780919
 11
94.5669522302
 21
106.5809572439
  0
LINE
  8
0
 62
7
  6
CONTINUOUS
 10
94.5669522302
 20
111.7617989398
 11
94.5669522302
 21
114.9713780919
  0
LINE
  8
CURVE
 62
40
  6
CONTINUOUS
 10
94.8919522302
 20
111.8213780919
 11
94.8919522302
 21
106.5213780919
  0
LINE
  8
0
 62
7
  6
CONTINUOUS
 10
95.4891630171
 20
109.0713780919
 11
95.4891630171
 21
109.2713780919
  0
POLYLINE
  8
0
 62
7
  6
CONTINUOUS
 66
1
 70
0
  0
VERTEX
  8
0
 62
7
  6
CONTINUOUS
 10
94.5669522302
 20
111.7617989398
  0
VERTEX
  8
0
 62
7
  6
CONTINUOUS
 10
94.5638842644
 20
111.71669691
  0
VERTEX
  8
0
 62
7
  6
CONTINUOUS
 10
94.5548028161
 20
111.6586484453
  0
VERTEX
  8
0
 62
7
  6
CONTINUOUS
 10
94.5399365211
 20
111.5873821544
  0
VERTEX
  8
0
 62
7
  6
CONTINUOUS
 10
94.5196708842
 20
111.5029193746
  0
VERTEX
  8
0
 62
7
  6
CONTINUOUS
 10
94.4944648299
 20
111.4051154933
  0
SEQEND
  0
POLYLINE
  8
0
 62
7
  6
CONTINUOUS
 66
1
 70
0
  0
VERTEX
  8
0
 62
7
  6
CONTINUOUS
 10
94.3965813616
 20
111.0346662646
  0
VERTEX
  8
0
 62
7
  6
CONTINUOUS
 10
94.361595001
 20
110.8872643669
  0
VERTEX
  8
0
 62
7
  6
CONTINUOUS
 10
94.3298547229
 20
110.7307296524
  0
VERTEX
  8
0
 62
7
  6
CONTINUOUS
 10
94.3015189424
 20
110.5660784449
  0
VERTEX
  8
0
 62
7
  6
CONTINUOUS
 10
94.2767173758
 20
110.3943176649
  0
VERTEX
  8
0
 62
7
  6
CONTINUOUS
 10
94.2555585947
 20
110.2164624732
  0
VERTEX
  8
0
 62
7
  6
CONTINUOUS
 10
94.2381314483
 20
110.0335314788
  0
VERTEX
  8
0
 62
7
  6
CONTINUOUS
 10
94.2245063789
 20
109.84654251
  0
VERTEX
  8
0
 62
7
  6
CONTINUOUS
 10
94.2147368326
 20
109.6565121919
  0
VERTEX
  8
0
 62
7
  6
CONTINUOUS
 10
94.2088602919
 20
109.4644569803
  0
VERTEX
  8
0
 62
7
  6
CONTINUOUS
 10
94.206898849
 20
109.2713780919
  0
SEQEND
  0
POLYLINE
  8
0
 62
7
  6
CONTINUOUS
 66
1
 70
0
  0
VERTEX
  8
0
 62
7
  6
CONTINUOUS
 10
94.4944648299
 20
111.4051154933
  0
VERTEX
  8
0
 62
7
  6
CONTINUOUS
 10
94.4320320354
 20
111.1705237635
  0
VERTEX
  8
0
 62
7
  6
CONTINUOUS
 10
94.3965813616
 20
111.0346662646
  0
SEQEND
  0
POLYLINE
  8
0
 62
7
  6
CONTINUOUS
 66
1
 70
0
  0
VERTEX
  8
0
 62
7
  6
CONTINUOUS
 10
94.8058925764
 20
106.5213780919
  0
VERTEX
  8
0
 62
7
  6
CONTINUOUS
 10
94.8635343342
 20
106.5304683063
  0
VERTEX
  8
0
 62
7
  6
CONTINUOUS
 10
94.9207315208
 20
106.5576527508
  0
VERTEX
  8
0
 62
7
  6
CONTINUOUS
 10
94.9770458793
 20
106.6026750251
  0
VERTEX
  8
0
 62
7
  6
CONTINUOUS
 10
95.0320515808
 20
106.6651150721
  0
VERTEX
  8
0
 62
7
  6
CONTINUOUS
 10
95.0853407254
 20
106.7443995898
  0
VERTEX
  8
0
 62
7
  6
CONTINUOUS
 10
95.1365278093
 20
106.8398150528
  0
VERTEX
  8
0
 62
7
  6
CONTINUOUS
 10
95.1852540396
 20
106.9505242629
  0
VERTEX
  8
0
 62
7
  6
CONTINUOUS
 10
95.2311902339
 20
107.0755842402
  0
VERTEX
  8
0
 62
7
  6
CONTINUOUS
 10
95.2740383363
 20
107.2139635777
  0
VERTEX
  8
0
 62
7
  6
CONTINUOUS
 10
95.3135323519
 20
107.3645600259
  0
VERTEX
  8
0
 62
7
  6
CONTINUOUS
 10
95.3494386918
 20
107.5262183931
  0
VERTEX
  8
0
 62
7
  6
CONTINUOUS
 10
95.3815554607
 20
107.6977464157
  0
VERTEX
  8
0
 62
7
  6
CONTINUOUS
 10
95.40971058
 20
107.8779249982
  0
VERTEX
  8
0
 62
7
  6
CONTINUOUS
 10
95.4337605113
 20
108.0655204592
  0
VERTEX
  8
0
 62
7
  6
CONTINUOUS
 10
95.4535883355
 20
108.2592929367
  0
VERTEX
  8
0
 62
7
  6
CONTINUOUS
 10
95.4691017712
 20
108.4580026366
  0
VERTEX
  8
0
 62
7
  6
CONTINUOUS
 10
95.4802310572
 20
108.660409842
  0
VERTEX
  8
0
 62
7
  6
CONTINUOUS
 10
95.4869276686
 20
108.8652790405
  0
VERTEX
  8
0
 62
7
  6
CONTINUOUS
 10
95.4891630171
 20
109.0713780919
  0
SEQEND
  0
LINE
  8
SURFACE
 62
7
  6
CONTINUOUS
 10
25.128011884
 20
106.5213780919
 11
25.3669522302
 21
106.5213780919
  0
LINE
  8
SURFACE
 62
7
  6
CONTINUOUS
 10
31.0669522302
 20
106.5213780919
 11
31.3058925764
 21
106.5213780919
  0
LINE
  8
SURFACE
 62
7
  6
CONTINUOUS
 10
37.828011884
 20
106.5213780919
 11
38.0669522302
 21
106.5213780919
  0
LINE
  8
SURFACE
 62
7
  6
CONTINUOUS
 10
43.7669522302
 20
106.5213780919
 11
44.0058925764
 21
106.5213780919
  0
LINE
  8
SURFACE
 62
7
  6
CONTINUOUS
 10
50.528011884
 20
106.5213780919
 11
50.7669522302
 21
106.5213780919
  0
LINE
  8
SURFACE
 62
7
  6
CONTINUOUS
 10
56.4669522302
 20
106.5213780919
 11
56.7058925764
 21
106.5213780919
  0
LINE
  8
SURFACE
 62
7
  6
CONTINUOUS
 10
63.228011884
 20
106.5213780919
 11
63.4669522302
 21
106.5213780919
  0
LINE
  8
SURFACE
 62
7
  6
CONTINUOUS
 10
69.1669522302
 20
106.5213780919
 11
69.4058925764
 21
106.5213780919
  0
LINE
  8
SURFACE
 62
7
  6
CONTINUOUS
 10
75.928011884
 20
106.5213780919
 11
76.1669522302
 21
106.5213780919
  0
LINE
  8
SURFACE
 62
7
  6
CONTINUOUS
 10
81.8669522302
 20
106.5213780919
 11
82.1058925764
 21
106.5213780919
  0
LINE
  8
SURFACE
 62
7
  6
CONTINUOUS
 10
88.628011884
 20
106.5213780919
 11
88.8669522302
 21
106.5213780919
  0
LINE
  8
0
 62
7
  6
CONTINUOUS
 10
94.5669522302
 20
106.5213780919
 11
94.8058925764
 21
106.5213780919
  0
LINE
  8
0
 62
7
  6
CONTINUOUS
 10
101.328011884
 20
106.5213780919
 11
101.5669522302
 21
106.5213780919
  0
LINE
  8
0
 62
7
  6
CONTINUOUS
 10
107.2669522302
 20
106.5213780919
 11
107.5058925764
 21
106.5213780919
  0
LINE
  8
0
 62
7
  6
CONTINUOUS
 10
114.028011884
 20
106.5213780919
 11
114.2669522302
 21
106.5213780919
  0
LINE
  8
0
 62
7
  6
CONTINUOUS
 10
119.9669522302
 20
106.5213780919
 11
120.2058925764
 21
106.5213780919
  0
LINE
  8
0
 62
7
  6
CONTINUOUS
 10
126.728011884
 20
106.5213780919
 11
126.9669522302
 21
106.5213780919
  0
LINE
  8
0
 62
7
  6
CONTINUOUS
 10
132.6669522302
 20
106.5213780919
 11
132.9058925764
 21
106.5213780919
  0
LINE
  8
0
 62
7
  6
CONTINUOUS
 10
139.428011884
 20
106.5213780919
 11
139.6669522302
 21
106.5213780919
  0
LINE
  8
0
 62
7
  6
CONTINUOUS
 10
145.3669522302
 20
106.5213780919
 11
145.6058925764
 21
106.5213780919
  0
LINE
  8
0
 62
7
  6
CONTINUOUS
 10
152.128011884
 20
106.5213780919
 11
152.3669522302
 21
106.5213780919
  0
LINE
  8
0
 62
7
  6
CONTINUOUS
 10
158.0669522302
 20
106.5213780919
 11
158.3058925764
 21
106.5213780919
  0
LINE
  8
0
 62
7
  6
CONTINUOUS
 10
164.828011884
 20
106.5213780919
 11
165.0669522302
 21
106.5213780919
  0
LINE
  8
DEFAULT_1
 62
7
  6
CENTER
 10
23.3669522302
 20
109.2713780919
 11
172.9169522302
 21
109.2713780919
  0
POLYLINE
  8
0
 62
7
  6
CONTINUOUS
 66
1
 70
0
  0
VERTEX
  8
0
 62
7
  6
CONTINUOUS
 10
169.9432031342
 20
102.6714015225
  0
VERTEX
  8
0
 62
7
  6
CONTINUOUS
 10
169.8548000957
 20
102.67662975
  0
VERTEX
  8
0
 62
7
  6
CONTINUOUS
 10
169.7676295814
 20
102.6922416058
  0
VERTEX
  8
0
 62
7
  6
CONTINUOUS
 10
169.6829069314
 20
102.7180194277
  0
VERTEX
  8
0
 62
7
  6
CONTINUOUS
 10
169.6018133576
 20
102.7536038188
  0
VERTEX
  8
0
 62
7
  6
CONTINUOUS
 10
169.5835963178
 20
102.7643179478
  0
SEQEND
  0
POLYLINE
  8
SURFACE
 62
7
  6
CONTINUOUS
 66
1
 70
0
  0
VERTEX
  8
SURFACE
 62
7
  6
CONTINUOUS
 10
56.7058925764
 20
111.8213780919
  0
VERTEX
  8
SURFACE
 62
7
  6
CONTINUOUS
 10
56.7635343342
 20
111.8122878775
  0
VERTEX
  8
SURFACE
 62
7
  6
CONTINUOUS
 10
56.8207315208
 20
111.785103433
  0
VERTEX
  8
SURFACE
 62
7
  6
CONTINUOUS
 10
56.8770458793
 20
111.7400811586
  0
VERTEX
  8
SURFACE
 62
7
  6
CONTINUOUS
 10
56.9320515808
 20
111.6776411116
  0
VERTEX
  8
SURFACE
 62
7
  6
CONTINUOUS
 10
56.9853407254
 20
111.5983565939
  0
VERTEX
  8
SURFACE
 62
7
  6
CONTINUOUS
 10
57.0365278093
 20
111.5029411309
  0
VERTEX
  8
SURFACE
 62
7
  6
CONTINUOUS
 10
57.0852540396
 20
111.3922319209
  0
VERTEX
  8
SURFACE
 62
7
  6
CONTINUOUS
 10
57.1311902339
 20
111.2671719436
  0
VERTEX
  8
SURFACE
 62
7
  6
CONTINUOUS
 10
57.1740383363
 20
111.128792606
  0
VERTEX
  8
SURFACE
 62
7
  6
CONTINUOUS
 10
57.2135323519
 20
110.9781961578
  0
VERTEX
  8
SURFACE
 62
7
  6
CONTINUOUS
 10
57.2494386918
 20
110.8165377907
  0
VERTEX
  8
SURFACE
 62
7
  6
CONTINUOUS
 10
57.2815554607
 20
110.645009768
  0
VERTEX
  8
SURFACE
 62
7
  6
CONTINUOUS
 10
57.30971058
 20
110.4648311855
  0
VERTEX
  8
SURFACE
 62
7
  6
CONTINUOUS
 10
57.3337605113
 20
110.2772357245
  0
VERTEX
  8
SURFACE
 62
7
  6
CONTINUOUS
 10
57.3535883355
 20
110.0834632471
  0
VERTEX
  8
SURFACE
 62
7
  6
CONTINUOUS
 10
57.3691017712
 20
109.8847535471
  0
VERTEX
  8
SURFACE
 62
7
  6
CONTINUOUS
 10
57.3802310572
 20
109.6823463417
  0
VERTEX
  8
SURFACE
 62
7
  6
CONTINUOUS
 10
57.3869276686
 20
109.4774771433
  0
VERTEX
  8
SURFACE
 62
7
  6
CONTINUOUS
 10
57.3891630171
 20
109.2713780919
  0
SEQEND
  0
POLYLINE
  8
0
 62
7
  6
CONTINUOUS
 66
1
 70
0
  0
VERTEX
  8
0
 62
7
  6
CONTINUOUS
 10
101.328011884
 20
106.5213780919
  0
VERTEX
  8
0
 62
7
  6
CONTINUOUS
 10
101.2703701261
 20
106.5304683063
  0
VERTEX
  8
0
 62
7
  6
CONTINUOUS
 10
101.2131729396
 20
106.5576527508
  0
VERTEX
  8
0
 62
7
  6
CONTINUOUS
 10
101.156858581
 20
106.6026750251
  0
VERTEX
  8
0
 62
7
  6
CONTINUOUS
 10
101.1018528796
 20
106.6651150721
  0
VERTEX
  8
0
 62
7
  6
CONTINUOUS
 10
101.048563735
 20
106.7443995898
  0
VERTEX
  8
0
 62
7
  6
CONTINUOUS
 10
100.9973766511
 20
106.8398150528
  0
VERTEX
  8
0
 62
7
  6
CONTINUOUS
 10
100.9486504208
 20
106.9505242629
  0
VERTEX
  8
0
 62
7
  6
CONTINUOUS
 10
100.9027142265
 20
107.0755842402
  0
VERTEX
  8
0
 62
7
  6
CONTINUOUS
 10
100.8598661241
 20
107.2139635777
  0
VERTEX
  8
0
 62
7
  6
CONTINUOUS
 10
100.8203721084
 20
107.3645600259
  0
VERTEX
  8
0
 62
7
  6
CONTINUOUS
 10
100.7844657686
 20
107.5262183931
  0
VERTEX
  8
0
 62
7
  6
CONTINUOUS
 10
100.7523489997
 20
107.6977464157
  0
VERTEX
  8
0
 62
7
  6
CONTINUOUS
 10
100.7241938803
 20
107.8779249982
  0
VERTEX
  8
0
 62
7
  6
CONTINUOUS
 10
100.700143949
 20
108.0655204592
  0
VERTEX
  8
0
 62
7
  6
CONTINUOUS
 10
100.6803161249
 20
108.2592929367
  0
VERTEX
  8
0
 62
7
  6
CONTINUOUS
 10
100.6648026892
 20
108.4580026366
  0
VERTEX
  8
0
 62
7
  6
CONTINUOUS
 10
100.6536734031
 20
108.660409842
  0
VERTEX
  8
0
 62
7
  6
CONTINUOUS
 10
100.6469767918
 20
108.8652790405
  0
VERTEX
  8
0
 62
7
  6
CONTINUOUS
 10
100.6447414433
 20
109.0713780919
  0
SEQEND
  0
POLYLINE
  8
SURFACE
 62
7
  6
CONTINUOUS
 66
1
 70
0
  0
VERTEX
  8
SURFACE
 62
7
  6
CONTINUOUS
 10
69.4058925764
 20
111.8213780919
  0
VERTEX
  8
SURFACE
 62
7
  6
CONTINUOUS
 10
69.4635343342
 20
111.8122878775
  0
VERTEX
  8
SURFACE
 62
7
  6
CONTINUOUS
 10
69.5207315208
 20
111.785103433
  0
VERTEX
  8
SURFACE
 62
7
  6
CONTINUOUS
 10
69.5770458793
 20
111.7400811586
  0
VERTEX
  8
SURFACE
 62
7
  6
CONTINUOUS
 10
69.6320515808
 20
111.6776411116
  0
VERTEX
  8
SURFACE
 62
7
  6
CONTINUOUS
 10
69.6853407254
 20
111.5983565939
  0
VERTEX
  8
SURFACE
 62
7
  6
CONTINUOUS
 10
69.7365278093
 20
111.5029411309
  0
VERTEX
  8
SURFACE
 62
7
  6
CONTINUOUS
 10
69.7852540396
 20
111.3922319209
  0
VERTEX
  8
SURFACE
 62
7
  6
CONTINUOUS
 10
69.8311902339
 20
111.2671719436
  0
VERTEX
  8
SURFACE
 62
7
  6
CONTINUOUS
 10
69.8740383363
 20
111.128792606
  0
VERTEX
  8
SURFACE
 62
7
  6
CONTINUOUS
 10
69.9135323519
 20
110.9781961578
  0
VERTEX
  8
SURFACE
 62
7
  6
CONTINUOUS
 10
69.9494386918
 20
110.8165377907
  0
VERTEX
  8
SURFACE
 62
7
  6
CONTINUOUS
 10
69.9815554607
 20
110.645009768
  0
VERTEX
  8
SURFACE
 62
7
  6
CONTINUOUS
 10
70.00971058
 20
110.4648311855
  0
VERTEX
  8
SURFACE
 62
7
  6
CONTINUOUS
 10
70.0337605113
 20
110.2772357245
  0
VERTEX
  8
SURFACE
 62
7
  6
CONTINUOUS
 10
70.0535883355
 20
110.0834632471
  0
VERTEX
  8
SURFACE
 62
7
  6
CONTINUOUS
 10
70.0691017712
 20
109.8847535471
  0
VERTEX
  8
SURFACE
 62
7
  6
CONTINUOUS
 10
70.0802310572
 20
109.6823463417
  0
VERTEX
  8
SURFACE
 62
7
  6
CONTINUOUS
 10
70.0869276686
 20
109.4774771433
  0
VERTEX
  8
SURFACE
 62
7
  6
CONTINUOUS
 10
70.0891630171
 20
109.2713780919
  0
SEQEND
  0
POLYLINE
  8
0
 62
7
  6
CONTINUOUS
 66
1
 70
0
  0
VERTEX
  8
0
 62
7
  6
CONTINUOUS
 10
114.028011884
 20
106.5213780919
  0
VERTEX
  8
0
 62
7
  6
CONTINUOUS
 10
113.9703701261
 20
106.5304683063
  0
VERTEX
  8
0
 62
7
  6
CONTINUOUS
 10
113.9131729396
 20
106.5576527508
  0
VERTEX
  8
0
 62
7
  6
CONTINUOUS
 10
113.856858581
 20
106.6026750251
  0
VERTEX
  8
0
 62
7
  6
CONTINUOUS
 10
113.8018528796
 20
106.6651150721
  0
VERTEX
  8
0
 62
7
  6
CONTINUOUS
 10
113.748563735
 20
106.7443995898
  0
VERTEX
  8
0
 62
7
  6
CONTINUOUS
 10
113.6973766511
 20
106.8398150528
  0
VERTEX
  8
0
 62
7
  6
CONTINUOUS
 10
113.6486504208
 20
106.9505242629
  0
VERTEX
  8
0
 62
7
  6
CONTINUOUS
 10
113.6027142265
 20
107.0755842402
  0
VERTEX
  8
0
 62
7
  6
CONTINUOUS
 10
113.5598661241
 20
107.2139635777
  0
VERTEX
  8
0
 62
7
  6
CONTINUOUS
 10
113.5203721084
 20
107.3645600259
  0
VERTEX
  8
0
 62
7
  6
CONTINUOUS
 10
113.4844657686
 20
107.5262183931
  0
VERTEX
  8
0
 62
7
  6
CONTINUOUS
 10
113.4523489997
 20
107.6977464157
  0
VERTEX
  8
0
 62
7
  6
CONTINUOUS
 10
113.4241938803
 20
107.8779249982
  0
VERTEX
  8
0
 62
7
  6
CONTINUOUS
 10
113.400143949
 20
108.0655204592
  0
VERTEX
  8
0
 62
7
  6
CONTINUOUS
 10
113.3803161249
 20
108.2592929367
  0
VERTEX
  8
0
 62
7
  6
CONTINUOUS
 10
113.3648026892
 20
108.4580026366
  0
VERTEX
  8
0
 62
7
  6
CONTINUOUS
 10
113.3536734031
 20
108.660409842
  0
VERTEX
  8
0
 62
7
  6
CONTINUOUS
 10
113.3469767918
 20
108.8652790405
  0
VERTEX
  8
0
 62
7
  6
CONTINUOUS
 10
113.3447414433
 20
109.0713780919
  0
SEQEND
  0
POLYLINE
  8
SURFACE
 62
7
  6
CONTINUOUS
 66
1
 70
0
  0
VERTEX
  8
SURFACE
 62
7
  6
CONTINUOUS
 10
82.1058925764
 20
111.8213780919
  0
VERTEX
  8
SURFACE
 62
7
  6
CONTINUOUS
 10
82.1635343342
 20
111.8122878775
  0
VERTEX
  8
SURFACE
 62
7
  6
CONTINUOUS
 10
82.2207315208
 20
111.785103433
  0
VERTEX
  8
SURFACE
 62
7
  6
CONTINUOUS
 10
82.2770458793
 20
111.7400811586
  0
VERTEX
  8
SURFACE
 62
7
  6
CONTINUOUS
 10
82.3320515808
 20
111.6776411116
  0
VERTEX
  8
SURFACE
 62
7
  6
CONTINUOUS
 10
82.3853407254
 20
111.5983565939
  0
VERTEX
  8
SURFACE
 62
7
  6
CONTINUOUS
 10
82.4365278093
 20
111.5029411309
  0
VERTEX
  8
SURFACE
 62
7
  6
CONTINUOUS
 10
82.4852540396
 20
111.3922319209
  0
VERTEX
  8
SURFACE
 62
7
  6
CONTINUOUS
 10
82.5311902339
 20
111.2671719436
  0
VERTEX
  8
SURFACE
 62
7
  6
CONTINUOUS
 10
82.5740383363
 20
111.128792606
  0
VERTEX
  8
SURFACE
 62
7
  6
CONTINUOUS
 10
82.6135323519
 20
110.9781961578
  0
VERTEX
  8
SURFACE
 62
7
  6
CONTINUOUS
 10
82.6494386918
 20
110.8165377907
  0
VERTEX
  8
SURFACE
 62
7
  6
CONTINUOUS
 10
82.6815554607
 20
110.645009768
  0
VERTEX
  8
SURFACE
 62
7
  6
CONTINUOUS
 10
82.70971058
 20
110.4648311855
  0
VERTEX
  8
SURFACE
 62
7
  6
CONTINUOUS
 10
82.7337605113
 20
110.2772357245
  0
VERTEX
  8
SURFACE
 62
7
  6
CONTINUOUS
 10
82.7535883355
 20
110.0834632471
  0
VERTEX
  8
SURFACE
 62
7
  6
CONTINUOUS
 10
82.7691017712
 20
109.8847535471
  0
VERTEX
  8
SURFACE
 62
7
  6
CONTINUOUS
 10
82.7802310572
 20
109.6823463417
  0
VERTEX
  8
SURFACE
 62
7
  6
CONTINUOUS
 10
82.7869276686
 20
109.4774771433
  0
VERTEX
  8
SURFACE
 62
7
  6
CONTINUOUS
 10
82.7891630171
 20
109.2713780919
  0
SEQEND
  0
POLYLINE
  8
0
 62
7
  6
CONTINUOUS
 66
1
 70
0
  0
VERTEX
  8
0
 62
7
  6
CONTINUOUS
 10
94.4320324
 20
107.1722310427
  0
VERTEX
  8
0
 62
7
  6
CONTINUOUS
 10
94.4944652441
 20
106.937639116
  0
VERTEX
  8
0
 62
7
  6
CONTINUOUS
 10
94.5196714556
 20
106.8398345276
  0
VERTEX
  8
0
 62
7
  6
CONTINUOUS
 10
94.5399368608
 20
106.7553725299
  0
VERTEX
  8
0
 62
7
  6
CONTINUOUS
 10
94.5548028204
 20
106.6841077155
  0
VERTEX
  8
0
 62
7
  6
CONTINUOUS
 10
94.5638841969
 20
106.626059843
  0
VERTEX
  8
0
 62
7
  6
CONTINUOUS
 10
94.5669522302
 20
106.5809572439
  0
SEQEND
  0
LINE
  8
0
 62
7
  6
CONTINUOUS
 10
94.3965813616
 20
107.3080899191
 11
94.4320324
 21
107.1722310427
  0
LINE
  8
0
 62
7
  6
CONTINUOUS
 10
100.6447414433
 20
109.0713780919
 11
100.6447414433
 21
109.2713780919
  0
POLYLINE
  8
0
 62
7
  6
CONTINUOUS
 66
1
 70
0
  0
VERTEX
  8
0
 62
7
  6
CONTINUOUS
 10
100.6447414433
 20
109.2713780919
  0
VERTEX
  8
0
 62
7
  6
CONTINUOUS
 10
100.6469768196
 20
109.4774784229
  0
VERTEX
  8
0
 62
7
  6
CONTINUOUS
 10
100.6536734961
 20
109.6823484659
  0
VERTEX
  8
0
 62
7
  6
CONTINUOUS
 10
100.6648028594
 20
109.8847561102
  0
VERTEX
  8
0
 62
7
  6
CONTINUOUS
 10
100.6803163625
 20
110.0834658867
  0
VERTEX
  8
0
 62
7
  6
CONTINUOUS
 10
100.7001442339
 20
110.277238201
  0
VERTEX
  8
0
 62
7
  6
CONTINUOUS
 10
100.7241941787
 20
110.4648332884
  0
VERTEX
  8
0
 62
7
  6
CONTINUOUS
 10
100.7523492728
 20
110.6450113622
  0
VERTEX
  8
0
 62
7
  6
CONTINUOUS
 10
100.7844659772
 20
110.8165388129
  0
VERTEX
  8
0
 62
7
  6
CONTINUOUS
 10
100.8203722238
 20
110.9781966358
  0
VERTEX
  8
0
 62
7
  6
CONTINUOUS
 10
100.8598661215
 20
111.128792597
  0
VERTEX
  8
0
 62
7
  6
CONTINUOUS
 10
100.9027140961
 20
111.2671715566
  0
VERTEX
  8
0
 62
7
  6
CONTINUOUS
 10
100.9486501706
 20
111.3922312977
  0
VERTEX
  8
0
 62
7
  6
CONTINUOUS
 10
100.9973762954
 20
111.5029403969
  0
VERTEX
  8
0
 62
7
  6
CONTINUOUS
 10
101.0485633043
 20
111.5983558736
  0
VERTEX
  8
0
 62
7
  6
CONTINUOUS
 10
101.1018524174
 20
111.6776405065
  0
VERTEX
  8
0
 62
7
  6
CONTINUOUS
 10
101.1568581378
 20
111.7400807306
  0
VERTEX
  8
0
 62
7
  6
CONTINUOUS
 10
101.2131725727
 20
111.7851031995
  0
VERTEX
  8
0
 62
7
  6
CONTINUOUS
 10
101.2703699039
 20
111.8122878073
  0
VERTEX
  8
0
 62
7
  6
CONTINUOUS
 10
101.328011884
 20
111.8213780919
  0
SEQEND
  0
POLYLINE
  8
SURFACE
 62
7
  6
CONTINUOUS
 66
1
 70
0
  0
VERTEX
  8
SURFACE
 62
7
  6
CONTINUOUS
 10
88.628011884
 20
111.8213780919
  0
VERTEX
  8
SURFACE
 62
7
  6
CONTINUOUS
 10
88.5703701261
 20
111.8122878775
  0
VERTEX
  8
SURFACE
 62
7
  6
CONTINUOUS
 10
88.5131729396
 20
111.785103433
  0
VERTEX
  8
SURFACE
 62
7
  6
CONTINUOUS
 10
88.456858581
 20
111.7400811586
  0
VERTEX
  8
SURFACE
 62
7
  6
CONTINUOUS
 10
88.4018528796
 20
111.6776411116
  0
VERTEX
  8
SURFACE
 62
7
  6
CONTINUOUS
 10
88.348563735
 20
111.5983565939
  0
VERTEX
  8
SURFACE
 62
7
  6
CONTINUOUS
 10
88.2973766511
 20
111.5029411309
  0
VERTEX
  8
SURFACE
 62
7
  6
CONTINUOUS
 10
88.2486504208
 20
111.3922319209
  0
VERTEX
  8
SURFACE
 62
7
  6
CONTINUOUS
 10
88.2027142265
 20
111.2671719436
  0
VERTEX
  8
SURFACE
 62
7
  6
CONTINUOUS
 10
88.1598661241
 20
111.128792606
  0
VERTEX
  8
SURFACE
 62
7
  6
CONTINUOUS
 10
88.1203721084
 20
110.9781961578
  0
VERTEX
  8
SURFACE
 62
7
  6
CONTINUOUS
 10
88.0844657686
 20
110.8165377907
  0
VERTEX
  8
SURFACE
 62
7
  6
CONTINUOUS
 10
88.0523489997
 20
110.645009768
  0
VERTEX
  8
SURFACE
 62
7
  6
CONTINUOUS
 10
88.0241938803
 20
110.4648311855
  0
VERTEX
  8
SURFACE
 62
7
  6
CONTINUOUS
 10
88.000143949
 20
110.2772357245
  0
VERTEX
  8
SURFACE
 62
7
  6
CONTINUOUS
 10
87.9803161249
 20
110.0834632471
  0
VERTEX
  8
SURFACE
 62
7
  6
CONTINUOUS
 10
87.9648026892
 20
109.8847535471
  0
VERTEX
  8
SURFACE
 62
7
  6
CONTINUOUS
 10
87.9536734031
 20
109.6823463417
  0
VERTEX
  8
SURFACE
 62
7
  6
CONTINUOUS
 10
87.9469767918
 20
109.4774771433
  0
VERTEX
  8
SURFACE
 62
7
  6
CONTINUOUS
 10
87.9447414433
 20
109.2713780919
  0
SEQEND
  0
POLYLINE
  8
SURFACE
 62
7
  6
CONTINUOUS
 66
1
 70
0
  0
VERTEX
  8
SURFACE
 62
7
  6
CONTINUOUS
 10
75.928011884
 20
111.8213780919
  0
VERTEX
  8
SURFACE
 62
7
  6
CONTINUOUS
 10
75.8703701261
 20
111.8122878775
  0
VERTEX
  8
SURFACE
 62
7
  6
CONTINUOUS
 10
75.8131729396
 20
111.785103433
  0
VERTEX
  8
SURFACE
 62
7
  6
CONTINUOUS
 10
75.756858581
 20
111.7400811586
  0
VERTEX
  8
SURFACE
 62
7
  6
CONTINUOUS
 10
75.7018528796
 20
111.6776411116
  0
VERTEX
  8
SURFACE
 62
7
  6
CONTINUOUS
 10
75.648563735
 20
111.5983565939
  0
VERTEX
  8
SURFACE
 62
7
  6
CONTINUOUS
 10
75.5973766511
 20
111.5029411309
  0
VERTEX
  8
SURFACE
 62
7
  6
CONTINUOUS
 10
75.5486504208
 20
111.3922319209
  0
VERTEX
  8
SURFACE
 62
7
  6
CONTINUOUS
 10
75.5027142265
 20
111.2671719436
  0
VERTEX
  8
SURFACE
 62
7
  6
CONTINUOUS
 10
75.4598661241
 20
111.128792606
  0
VERTEX
  8
SURFACE
 62
7
  6
CONTINUOUS
 10
75.4203721084
 20
110.9781961578
  0
VERTEX
  8
SURFACE
 62
7
  6
CONTINUOUS
 10
75.3844657686
 20
110.8165377907
  0
VERTEX
  8
SURFACE
 62
7
  6
CONTINUOUS
 10
75.3523489997
 20
110.645009768
  0
VERTEX
  8
SURFACE
 62
7
  6
CONTINUOUS
 10
75.3241938803
 20
110.4648311855
  0
VERTEX
  8
SURFACE
 62
7
  6
CONTINUOUS
 10
75.300143949
 20
110.2772357245
  0
VERTEX
  8
SURFACE
 62
7
  6
CONTINUOUS
 10
75.2803161249
 20
110.0834632471
  0
VERTEX
  8
SURFACE
 62
7
  6
CONTINUOUS
 10
75.2648026892
 20
109.8847535471
  0
VERTEX
  8
SURFACE
 62
7
  6
CONTINUOUS
 10
75.2536734031
 20
109.6823463417
  0
VERTEX
  8
SURFACE
 62
7
  6
CONTINUOUS
 10
75.2469767918
 20
109.4774771433
  0
VERTEX
  8
SURFACE
 62
7
  6
CONTINUOUS
 10
75.2447414433
 20
109.2713780919
  0
SEQEND
  0
POLYLINE
  8
0
 62
7
  6
CONTINUOUS
 66
1
 70
0
  0
VERTEX
  8
0
 62
7
  6
CONTINUOUS
 10
169.9432031342
 20
115.6713541221
  0
VERTEX
  8
0
 62
7
  6
CONTINUOUS
 10
169.8548001019
 20
115.666125929
  0
VERTEX
  8
0
 62
7
  6
CONTINUOUS
 10
169.7676295901
 20
115.6505141109
  0
VERTEX
  8
0
 62
7
  6
CONTINUOUS
 10
169.6829069391
 20
115.6247363293
  0
VERTEX
  8
0
 62
7
  6
CONTINUOUS
 10
169.6018133609
 20
115.5891519808
  0
VERTEX
  8
0
 62
7
  6
CONTINUOUS
 10
169.5838382398
 20
115.5785801447
  0
SEQEND
  0
LINE
  8
SURFACE
 62
7
  6
CONTINUOUS
 10
25.128011884
 20
111.8213780919
 11
25.3669522302
 21
111.8213780919
  0
LINE
  8
SURFACE
 62
7
  6
CONTINUOUS
 10
31.0669522302
 20
111.8213780919
 11
31.3058925764
 21
111.8213780919
  0
LINE
  8
SURFACE
 62
7
  6
CONTINUOUS
 10
37.828011884
 20
111.8213780919
 11
38.0669522302
 21
111.8213780919
  0
LINE
  8
SURFACE
 62
7
  6
CONTINUOUS
 10
43.7669522302
 20
111.8213780919
 11
44.0058925764
 21
111.8213780919
  0
LINE
  8
SURFACE
 62
7
  6
CONTINUOUS
 10
50.528011884
 20
111.8213780919
 11
50.7669522302
 21
111.8213780919
  0
LINE
  8
SURFACE
 62
7
  6
CONTINUOUS
 10
56.4669522302
 20
111.8213780919
 11
56.7058925764
 21
111.8213780919
  0
LINE
  8
SURFACE
 62
7
  6
CONTINUOUS
 10
63.228011884
 20
111.8213780919
 11
63.4669522302
 21
111.8213780919
  0
LINE
  8
SURFACE
 62
7
  6
CONTINUOUS
 10
69.1669522302
 20
111.8213780919
 11
69.4058925764
 21
111.8213780919
  0
LINE
  8
SURFACE
 62
7
  6
CONTINUOUS
 10
75.928011884
 20
111.8213780919
 11
76.1669522302
 21
111.8213780919
  0
LINE
  8
SURFACE
 62
7
  6
CONTINUOUS
 10
81.8669522302
 20
111.8213780919
 11
82.1058925764
 21
111.8213780919
  0
LINE
  8
SURFACE
 62
7
  6
CONTINUOUS
 10
88.628011884
 20
111.8213780919
 11
88.8669522302
 21
111.8213780919
  0
LINE
  8
0
 62
7
  6
CONTINUOUS
 10
94.5669522302
 20
111.8213780919
 11
94.8058925764
 21
111.8213780919
  0
LINE
  8
0
 62
7
  6
CONTINUOUS
 10
101.328011884
 20
111.8213780919
 11
101.5669522302
 21
111.8213780919
  0
LINE
  8
0
 62
7
  6
CONTINUOUS
 10
107.2669522302
 20
111.8213780919
 11
107.5058925764
 21
111.8213780919
  0
LINE
  8
0
 62
7
  6
CONTINUOUS
 10
114.028011884
 20
111.8213780919
 11
114.2669522302
 21
111.8213780919
  0
LINE
  8
0
 62
7
  6
CONTINUOUS
 10
119.9669522302
 20
111.8213780919
 11
120.2058925764
 21
111.8213780919
  0
LINE
  8
0
 62
7
  6
CONTINUOUS
 10
126.728011884
 20
111.8213780919
 11
126.9669522302
 21
111.8213780919
  0
LINE
  8
0
 62
7
  6
CONTINUOUS
 10
132.6669522302
 20
111.8213780919
 11
132.9058925764
 21
111.8213780919
  0
LINE
  8
0
 62
7
  6
CONTINUOUS
 10
139.428011884
 20
111.8213780919
 11
139.6669522302
 21
111.8213780919
  0
LINE
  8
0
 62
7
  6
CONTINUOUS
 10
145.3669522302
 20
111.8213780919
 11
145.6058925764
 21
111.8213780919
  0
LINE
  8
0
 62
7
  6
CONTINUOUS
 10
152.128011884
 20
111.8213780919
 11
152.3669522302
 21
111.8213780919
  0
LINE
  8
0
 62
7
  6
CONTINUOUS
 10
158.0669522302
 20
111.8213780919
 11
158.3058925764
 21
111.8213780919
  0
LINE
  8
0
 62
7
  6
CONTINUOUS
 10
164.828011884
 20
111.8213780919
 11
165.0669522302
 21
111.8213780919
  0
POLYLINE
  8
0
 62
7
  6
CONTINUOUS
 66
1
 70
0
  0
VERTEX
  8
0
 62
7
  6
CONTINUOUS
 10
126.728011884
 20
106.5213780919
  0
VERTEX
  8
0
 62
7
  6
CONTINUOUS
 10
126.6703701261
 20
106.5304683063
  0
VERTEX
  8
0
 62
7
  6
CONTINUOUS
 10
126.6131729396
 20
106.5576527508
  0
VERTEX
  8
0
 62
7
  6
CONTINUOUS
 10
126.556858581
 20
106.6026750251
  0
VERTEX
  8
0
 62
7
  6
CONTINUOUS
 10
126.5018528796
 20
106.6651150721
  0
VERTEX
  8
0
 62
7
  6
CONTINUOUS
 10
126.448563735
 20
106.7443995898
  0
VERTEX
  8
0
 62
7
  6
CONTINUOUS
 10
126.3973766511
 20
106.8398150528
  0
VERTEX
  8
0
 62
7
  6
CONTINUOUS
 10
126.3486504208
 20
106.9505242629
  0
VERTEX
  8
0
 62
7
  6
CONTINUOUS
 10
126.3027142265
 20
107.0755842402
  0
VERTEX
  8
0
 62
7
  6
CONTINUOUS
 10
126.2598661241
 20
107.2139635777
  0
VERTEX
  8
0
 62
7
  6
CONTINUOUS
 10
126.2203721084
 20
107.3645600259
  0
VERTEX
  8
0
 62
7
  6
CONTINUOUS
 10
126.1844657686
 20
107.5262183931
  0
VERTEX
  8
0
 62
7
  6
CONTINUOUS
 10
126.1523489997
 20
107.6977464157
  0
VERTEX
  8
0
 62
7
  6
CONTINUOUS
 10
126.1241938803
 20
107.8779249982
  0
VERTEX
  8
0
 62
7
  6
CONTINUOUS
 10
126.100143949
 20
108.0655204592
  0
VERTEX
  8
0
 62
7
  6
CONTINUOUS
 10
126.0803161249
 20
108.2592929367
  0
VERTEX
  8
0
 62
7
  6
CONTINUOUS
 10
126.0648026892
 20
108.4580026366
  0
VERTEX
  8
0
 62
7
  6
CONTINUOUS
 10
126.0536734031
 20
108.660409842
  0
VERTEX
  8
0
 62
7
  6
CONTINUOUS
 10
126.0469767918
 20
108.8652790405
  0
VERTEX
  8
0
 62
7
  6
CONTINUOUS
 10
126.0447414433
 20
109.0713780919
  0
SEQEND
  0
POLYLINE
  8
0
 62
7
  6
CONTINUOUS
 66
1
 70
0
  0
VERTEX
  8
0
 62
7
  6
CONTINUOUS
 10
139.428011884
 20
106.5213780919
  0
VERTEX
  8
0
 62
7
  6
CONTINUOUS
 10
139.3703701261
 20
106.5304683063
  0
VERTEX
  8
0
 62
7
  6
CONTINUOUS
 10
139.3131729396
 20
106.5576527508
  0
VERTEX
  8
0
 62
7
  6
CONTINUOUS
 10
139.256858581
 20
106.6026750251
  0
VERTEX
  8
0
 62
7
  6
CONTINUOUS
 10
139.2018528796
 20
106.6651150721
  0
VERTEX
  8
0
 62
7
  6
CONTINUOUS
 10
139.148563735
 20
106.7443995898
  0
VERTEX
  8
0
 62
7
  6
CONTINUOUS
 10
139.0973766511
 20
106.8398150528
  0
VERTEX
  8
0
 62
7
  6
CONTINUOUS
 10
139.0486504208
 20
106.9505242629
  0
VERTEX
  8
0
 62
7
  6
CONTINUOUS
 10
139.0027142265
 20
107.0755842402
  0
VERTEX
  8
0
 62
7
  6
CONTINUOUS
 10
138.9598661241
 20
107.2139635777
  0
VERTEX
  8
0
 62
7
  6
CONTINUOUS
 10
138.9203721084
 20
107.3645600259
  0
VERTEX
  8
0
 62
7
  6
CONTINUOUS
 10
138.8844657686
 20
107.5262183931
  0
VERTEX
  8
0
 62
7
  6
CONTINUOUS
 10
138.8523489997
 20
107.6977464157
  0
VERTEX
  8
0
 62
7
  6
CONTINUOUS
 10
138.8241938803
 20
107.8779249982
  0
VERTEX
  8
0
 62
7
  6
CONTINUOUS
 10
138.800143949
 20
108.0655204592
  0
VERTEX
  8
0
 62
7
  6
CONTINUOUS
 10
138.7803161249
 20
108.2592929367
  0
VERTEX
  8
0
 62
7
  6
CONTINUOUS
 10
138.7648026892
 20
108.4580026366
  0
VERTEX
  8
0
 62
7
  6
CONTINUOUS
 10
138.7536734031
 20
108.660409842
  0
VERTEX
  8
0
 62
7
  6
CONTINUOUS
 10
138.7469767918
 20
108.8652790405
  0
VERTEX
  8
0
 62
7
  6
CONTINUOUS
 10
138.7447414433
 20
109.0713780919
  0
SEQEND
  0
LINE
  8
0
 62
7
  6
CONTINUOUS
 10
101.5669522302
 20
103.3713780919
 11
101.5669522302
 21
106.5809572439
  0
LINE
  8
0
 62
7
  6
CONTINUOUS
 10
101.5669522302
 20
111.7617989398
 11
101.5669522302
 21
114.9713780919
  0
LINE
  8
0
 62
7
  6
CONTINUOUS
 10
101.9270056114
 20
109.2713780919
 11
101.9270056114
 21
109.0713780919
  0
POLYLINE
  8
0
 62
7
  6
CONTINUOUS
 66
1
 70
0
  0
VERTEX
  8
0
 62
7
  6
CONTINUOUS
 10
101.9270056114
 20
109.0713780919
  0
VERTEX
  8
0
 62
7
  6
CONTINUOUS
 10
101.9250441564
 20
108.87829861
  0
VERTEX
  8
0
 62
7
  6
CONTINUOUS
 10
101.9191675876
 20
108.686243009
  0
VERTEX
  8
0
 62
7
  6
CONTINUOUS
 10
101.9093980081
 20
108.4962124914
  0
VERTEX
  8
0
 62
7
  6
CONTINUOUS
 10
101.8957729094
 20
108.3092234818
  0
VERTEX
  8
0
 62
7
  6
CONTINUOUS
 10
101.8783457446
 20
108.1262925785
  0
VERTEX
  8
0
 62
7
  6
CONTINUOUS
 10
101.8571869639
 20
107.948437601
  0
VERTEX
  8
0
 62
7
  6
CONTINUOUS
 10
101.8323854239
 20
107.7766771428
  0
VERTEX
  8
0
 62
7
  6
CONTINUOUS
 10
101.8040496902
 20
107.6120262788
  0
VERTEX
  8
0
 62
7
  6
CONTINUOUS
 10
101.7723094552
 20
107.4554917976
  0
VERTEX
  8
0
 62
7
  6
CONTINUOUS
 10
101.7373230987
 20
107.3080899191
  0
SEQEND
  0
POLYLINE
  8
0
 62
7
  6
CONTINUOUS
 66
1
 70
0
  0
VERTEX
  8
0
 62
7
  6
CONTINUOUS
 10
101.5669522302
 20
106.5809572439
  0
VERTEX
  8
0
 62
7
  6
CONTINUOUS
 10
101.5700209307
 20
106.6260654727
  0
VERTEX
  8
0
 62
7
  6
CONTINUOUS
 10
101.5791026439
 20
106.6841131129
  0
VERTEX
  8
0
 62
7
  6
CONTINUOUS
 10
101.5939667674
 20
106.7553688566
  0
VERTEX
  8
0
 62
7
  6
CONTINUOUS
 10
101.6142300857
 20
106.8398228734
  0
VERTEX
  8
0
 62
7
  6
CONTINUOUS
 10
101.6394355056
 20
106.9376250111
  0
SEQEND
  0
POLYLINE
  8
0
 62
7
  6
CONTINUOUS
 66
1
 70
0
  0
VERTEX
  8
0
 62
7
  6
CONTINUOUS
 10
101.6394355056
 20
106.9376250111
  0
VERTEX
  8
0
 62
7
  6
CONTINUOUS
 10
101.7018663923
 20
107.1722096256
  0
VERTEX
  8
0
 62
7
  6
CONTINUOUS
 10
101.7373230987
 20
107.3080899191
  0
SEQEND
  0
POLYLINE
  8
SURFACE
 62
7
  6
CONTINUOUS
 66
1
 70
0
  0
VERTEX
  8
SURFACE
 62
7
  6
CONTINUOUS
 10
63.228011884
 20
111.8213780919
  0
VERTEX
  8
SURFACE
 62
7
  6
CONTINUOUS
 10
63.1703701261
 20
111.8122878775
  0
VERTEX
  8
SURFACE
 62
7
  6
CONTINUOUS
 10
63.1131729396
 20
111.785103433
  0
VERTEX
  8
SURFACE
 62
7
  6
CONTINUOUS
 10
63.056858581
 20
111.7400811586
  0
VERTEX
  8
SURFACE
 62
7
  6
CONTINUOUS
 10
63.0018528796
 20
111.6776411116
  0
VERTEX
  8
SURFACE
 62
7
  6
CONTINUOUS
 10
62.948563735
 20
111.5983565939
  0
VERTEX
  8
SURFACE
 62
7
  6
CONTINUOUS
 10
62.8973766511
 20
111.5029411309
  0
VERTEX
  8
SURFACE
 62
7
  6
CONTINUOUS
 10
62.8486504208
 20
111.3922319209
  0
VERTEX
  8
SURFACE
 62
7
  6
CONTINUOUS
 10
62.8027142265
 20
111.2671719436
  0
VERTEX
  8
SURFACE
 62
7
  6
CONTINUOUS
 10
62.7598661241
 20
111.128792606
  0
VERTEX
  8
SURFACE
 62
7
  6
CONTINUOUS
 10
62.7203721084
 20
110.9781961578
  0
VERTEX
  8
SURFACE
 62
7
  6
CONTINUOUS
 10
62.6844657686
 20
110.8165377907
  0
VERTEX
  8
SURFACE
 62
7
  6
CONTINUOUS
 10
62.6523489997
 20
110.645009768
  0
VERTEX
  8
SURFACE
 62
7
  6
CONTINUOUS
 10
62.6241938803
 20
110.4648311855
  0
VERTEX
  8
SURFACE
 62
7
  6
CONTINUOUS
 10
62.600143949
 20
110.2772357245
  0
VERTEX
  8
SURFACE
 62
7
  6
CONTINUOUS
 10
62.5803161249
 20
110.0834632471
  0
VERTEX
  8
SURFACE
 62
7
  6
CONTINUOUS
 10
62.5648026892
 20
109.8847535471
  0
VERTEX
  8
SURFACE
 62
7
  6
CONTINUOUS
 10
62.5536734031
 20
109.6823463417
  0
VERTEX
  8
SURFACE
 62
7
  6
CONTINUOUS
 10
62.5469767918
 20
109.4774771433
  0
VERTEX
  8
SURFACE
 62
7
  6
CONTINUOUS
 10
62.5447414433
 20
109.2713780919
  0
SEQEND
  0
POLYLINE
  8
SURFACE
 62
7
  6
CONTINUOUS
 66
1
 70
0
  0
VERTEX
  8
SURFACE
 62
7
  6
CONTINUOUS
 10
50.528011884
 20
111.8213780919
  0
VERTEX
  8
SURFACE
 62
7
  6
CONTINUOUS
 10
50.4703701261
 20
111.8122878775
  0
VERTEX
  8
SURFACE
 62
7
  6
CONTINUOUS
 10
50.4131729396
 20
111.785103433
  0
VERTEX
  8
SURFACE
 62
7
  6
CONTINUOUS
 10
50.356858581
 20
111.7400811586
  0
VERTEX
  8
SURFACE
 62
7
  6
CONTINUOUS
 10
50.3018528796
 20
111.6776411116
  0
VERTEX
  8
SURFACE
 62
7
  6
CONTINUOUS
 10
50.248563735
 20
111.5983565939
  0
VERTEX
  8
SURFACE
 62
7
  6
CONTINUOUS
 10
50.1973766511
 20
111.5029411309
  0
VERTEX
  8
SURFACE
 62
7
  6
CONTINUOUS
 10
50.1486504208
 20
111.3922319209
  0
VERTEX
  8
SURFACE
 62
7
  6
CONTINUOUS
 10
50.1027142265
 20
111.2671719436
  0
VERTEX
  8
SURFACE
 62
7
  6
CONTINUOUS
 10
50.0598661241
 20
111.128792606
  0
VERTEX
  8
SURFACE
 62
7
  6
CONTINUOUS
 10
50.0203721084
 20
110.9781961578
  0
VERTEX
  8
SURFACE
 62
7
  6
CONTINUOUS
 10
49.9844657686
 20
110.8165377907
  0
VERTEX
  8
SURFACE
 62
7
  6
CONTINUOUS
 10
49.9523489997
 20
110.645009768
  0
VERTEX
  8
SURFACE
 62
7
  6
CONTINUOUS
 10
49.9241938803
 20
110.4648311855
  0
VERTEX
  8
SURFACE
 62
7
  6
CONTINUOUS
 10
49.900143949
 20
110.2772357245
  0
VERTEX
  8
SURFACE
 62
7
  6
CONTINUOUS
 10
49.8803161249
 20
110.0834632471
  0
VERTEX
  8
SURFACE
 62
7
  6
CONTINUOUS
 10
49.8648026892
 20
109.8847535471
  0
VERTEX
  8
SURFACE
 62
7
  6
CONTINUOUS
 10
49.8536734031
 20
109.6823463417
  0
VERTEX
  8
SURFACE
 62
7
  6
CONTINUOUS
 10
49.8469767918
 20
109.4774771433
  0
VERTEX
  8
SURFACE
 62
7
  6
CONTINUOUS
 10
49.8447414433
 20
109.2713780919
  0
SEQEND
  0
LINE
  8
0
 62
7
  6
CONTINUOUS
 10
168.0919522302
 20
115.1703483405
 11
167.891952222
 21
115.1703483405
  0
LINE
  8
0
 62
7
  6
CONTINUOUS
 10
19.5669522302
 20
115.6713780919
 11
170.2169522302
 21
115.6713780919
  0
POLYLINE
  8
0
 62
7
  6
CONTINUOUS
 66
1
 70
0
  0
VERTEX
  8
0
 62
7
  6
CONTINUOUS
 10
167.891952222
 20
115.1703482081
  0
VERTEX
  8
0
 62
7
  6
CONTINUOUS
 10
167.8421227422
 20
115.1708562614
  0
VERTEX
  8
0
 62
7
  6
CONTINUOUS
 10
167.7801741791
 20
115.1729035189
  0
VERTEX
  8
0
 62
7
  6
CONTINUOUS
 10
167.721458293
 20
115.1762869638
  0
VERTEX
  8
0
 62
7
  6
CONTINUOUS
 10
167.6656992124
 20
115.1807912333
  0
VERTEX
  8
0
 62
7
  6
CONTINUOUS
 10
167.6125825074
 20
115.1862427964
  0
VERTEX
  8
0
 62
7
  6
CONTINUOUS
 10
167.5617579776
 20
115.1925079608
  0
VERTEX
  8
0
 62
7
  6
CONTINUOUS
 10
167.5128755885
 20
115.1994906851
  0
VERTEX
  8
0
 62
7
  6
CONTINUOUS
 10
167.4656317923
 20
115.2071197668
  0
VERTEX
  8
0
 62
7
  6
CONTINUOUS
 10
167.4199946792
 20
115.2152997831
  0
VERTEX
  8
0
 62
7
  6
CONTINUOUS
 10
167.3760160874
 20
115.2239258285
  0
VERTEX
  8
0
 62
7
  6
CONTINUOUS
 10
167.3337334996
 20
115.2328966811
  0
VERTEX
  8
0
 62
7
  6
CONTINUOUS
 10
167.2931845793
 20
115.2421140928
  0
VERTEX
  8
0
 62
7
  6
CONTINUOUS
 10
167.2543923167
 20
115.2514874956
  0
VERTEX
  8
0
 62
7
  6
CONTINUOUS
 10
167.217370595
 20
115.2609311191
  0
VERTEX
  8
0
 62
7
  6
CONTINUOUS
 10
167.1821399077
 20
115.2703629089
  0
VERTEX
  8
0
 62
7
  6
CONTINUOUS
 10
167.1487042759
 20
115.2797105704
  0
VERTEX
  8
0
 62
7
  6
CONTINUOUS
 10
167.1169843176
 20
115.288929742
  0
VERTEX
  8
0
 62
7
  6
CONTINUOUS
 10
167.0867117298
 20
115.2980424586
  0
VERTEX
  8
0
 62
7
  6
CONTINUOUS
 10
167.0577600038
 20
115.3070414987
  0
VERTEX
  8
0
 62
7
  6
CONTINUOUS
 10
167.0300245998
 20
115.3159197316
  0
VERTEX
  8
0
 62
7
  6
CONTINUOUS
 10
167.0034192633
 20
115.3246692051
  0
VERTEX
  8
0
 62
7
  6
CONTINUOUS
 10
166.9778677055
 20
115.3332842257
  0
VERTEX
  8
0
 62
7
  6
CONTINUOUS
 10
166.9532970234
 20
115.3417627174
  0
VERTEX
  8
0
 62
7
  6
CONTINUOUS
 10
166.9296225751
 20
115.3501103337
  0
VERTEX
  8
0
 62
7
  6
CONTINUOUS
 10
166.9067727557
 20
115.3583309689
  0
VERTEX
  8
0
 62
7
  6
CONTINUOUS
 10
166.8846864947
 20
115.3664280125
  0
VERTEX
  8
0
 62
7
  6
CONTINUOUS
 10
166.8633064279
 20
115.3744063678
  0
VERTEX
  8
0
 62
7
  6
CONTINUOUS
 10
166.8425753701
 20
115.3822733583
  0
VERTEX
  8
0
 62
7
  6
CONTINUOUS
 10
166.8224284477
 20
115.3900409393
  0
VERTEX
  8
0
 62
7
  6
CONTINUOUS
 10
166.8028207094
 20
115.3977150338
  0
VERTEX
  8
0
 62
7
  6
CONTINUOUS
 10
166.7837402542
 20
115.4052900563
  0
VERTEX
  8
0
 62
7
  6
CONTINUOUS
 10
166.7651877589
 20
115.4127562008
  0
SEQEND
  0
POLYLINE
  8
0
 62
7
  6
CONTINUOUS
 66
1
 70
0
  0
VERTEX
  8
0
 62
7
  6
CONTINUOUS
 10
166.0407013261
 20
115.6713546612
  0
VERTEX
  8
0
 62
7
  6
CONTINUOUS
 10
166.1291043646
 20
115.6661264337
  0
VERTEX
  8
0
 62
7
  6
CONTINUOUS
 10
166.216274879
 20
115.650514578
  0
VERTEX
  8
0
 62
7
  6
CONTINUOUS
 10
166.3009975289
 20
115.6247367561
  0
VERTEX
  8
0
 62
7
  6
CONTINUOUS
 10
166.3820911027
 20
115.589152365
  0
VERTEX
  8
0
 62
7
  6
CONTINUOUS
 10
166.4003030469
 20
115.5784412329
  0
SEQEND
  0
POLYLINE
  8
0
 62
7
  6
CONTINUOUS
 66
1
 70
0
  0
VERTEX
  8
0
 62
7
  6
CONTINUOUS
 10
152.128011884
 20
106.5213780919
  0
VERTEX
  8
0
 62
7
  6
CONTINUOUS
 10
152.0703701261
 20
106.5304683063
  0
VERTEX
  8
0
 62
7
  6
CONTINUOUS
 10
152.0131729396
 20
106.5576527508
  0
VERTEX
  8
0
 62
7
  6
CONTINUOUS
 10
151.956858581
 20
106.6026750251
  0
VERTEX
  8
0
 62
7
  6
CONTINUOUS
 10
151.9018528796
 20
106.6651150721
  0
VERTEX
  8
0
 62
7
  6
CONTINUOUS
 10
151.848563735
 20
106.7443995898
  0
VERTEX
  8
0
 62
7
  6
CONTINUOUS
 10
151.7973766511
 20
106.8398150528
  0
VERTEX
  8
0
 62
7
  6
CONTINUOUS
 10
151.7486504208
 20
106.9505242629
  0
VERTEX
  8
0
 62
7
  6
CONTINUOUS
 10
151.7027142265
 20
107.0755842402
  0
VERTEX
  8
0
 62
7
  6
CONTINUOUS
 10
151.6598661241
 20
107.2139635777
  0
VERTEX
  8
0
 62
7
  6
CONTINUOUS
 10
151.6203721084
 20
107.3645600259
  0
VERTEX
  8
0
 62
7
  6
CONTINUOUS
 10
151.5844657686
 20
107.5262183931
  0
VERTEX
  8
0
 62
7
  6
CONTINUOUS
 10
151.5523489997
 20
107.6977464157
  0
VERTEX
  8
0
 62
7
  6
CONTINUOUS
 10
151.5241938803
 20
107.8779249982
  0
VERTEX
  8
0
 62
7
  6
CONTINUOUS
 10
151.500143949
 20
108.0655204592
  0
VERTEX
  8
0
 62
7
  6
CONTINUOUS
 10
151.4803161249
 20
108.2592929367
  0
VERTEX
  8
0
 62
7
  6
CONTINUOUS
 10
151.4648026892
 20
108.4580026366
  0
VERTEX
  8
0
 62
7
  6
CONTINUOUS
 10
151.4536734031
 20
108.660409842
  0
VERTEX
  8
0
 62
7
  6
CONTINUOUS
 10
151.4469767918
 20
108.8652790405
  0
VERTEX
  8
0
 62
7
  6
CONTINUOUS
 10
151.4447414433
 20
109.0713780919
  0
SEQEND
  0
POLYLINE
  8
0
 62
7
  6
CONTINUOUS
 66
1
 70
0
  0
VERTEX
  8
0
 62
7
  6
CONTINUOUS
 10
164.828011884
 20
106.5213780919
  0
VERTEX
  8
0
 62
7
  6
CONTINUOUS
 10
164.7703701261
 20
106.5304683063
  0
VERTEX
  8
0
 62
7
  6
CONTINUOUS
 10
164.7131729396
 20
106.5576527508
  0
VERTEX
  8
0
 62
7
  6
CONTINUOUS
 10
164.656858581
 20
106.6026750251
  0
VERTEX
  8
0
 62
7
  6
CONTINUOUS
 10
164.6018528796
 20
106.6651150721
  0
VERTEX
  8
0
 62
7
  6
CONTINUOUS
 10
164.548563735
 20
106.7443995898
  0
VERTEX
  8
0
 62
7
  6
CONTINUOUS
 10
164.4973766511
 20
106.8398150528
  0
VERTEX
  8
0
 62
7
  6
CONTINUOUS
 10
164.4486504208
 20
106.9505242629
  0
VERTEX
  8
0
 62
7
  6
CONTINUOUS
 10
164.4027142265
 20
107.0755842402
  0
VERTEX
  8
0
 62
7
  6
CONTINUOUS
 10
164.3598661241
 20
107.2139635777
  0
VERTEX
  8
0
 62
7
  6
CONTINUOUS
 10
164.3203721084
 20
107.3645600259
  0
VERTEX
  8
0
 62
7
  6
CONTINUOUS
 10
164.2844657686
 20
107.5262183931
  0
VERTEX
  8
0
 62
7
  6
CONTINUOUS
 10
164.2523489997
 20
107.6977464157
  0
VERTEX
  8
0
 62
7
  6
CONTINUOUS
 10
164.2241938803
 20
107.8779249982
  0
VERTEX
  8
0
 62
7
  6
CONTINUOUS
 10
164.200143949
 20
108.0655204592
  0
VERTEX
  8
0
 62
7
  6
CONTINUOUS
 10
164.1803161249
 20
108.2592929367
  0
VERTEX
  8
0
 62
7
  6
CONTINUOUS
 10
164.1648026892
 20
108.4580026366
  0
VERTEX
  8
0
 62
7
  6
CONTINUOUS
 10
164.1536734031
 20
108.660409842
  0
VERTEX
  8
0
 62
7
  6
CONTINUOUS
 10
164.1469767918
 20
108.8652790405
  0
VERTEX
  8
0
 62
7
  6
CONTINUOUS
 10
164.1447414433
 20
109.0713780919
  0
SEQEND
  0
POLYLINE
  8
0
 62
7
  6
CONTINUOUS
 66
1
 70
0
  0
VERTEX
  8
0
 62
7
  6
CONTINUOUS
 10
101.7018667465
 20
111.1705452197
  0
VERTEX
  8
0
 62
7
  6
CONTINUOUS
 10
101.6394359099
 20
111.4051296357
  0
VERTEX
  8
0
 62
7
  6
CONTINUOUS
 10
101.6142306402
 20
111.5029310965
  0
VERTEX
  8
0
 62
7
  6
CONTINUOUS
 10
101.5939670974
 20
111.5873858707
  0
VERTEX
  8
0
 62
7
  6
CONTINUOUS
 10
101.579102641
 20
111.6586430863
  0
VERTEX
  8
0
 62
7
  6
CONTINUOUS
 10
101.5700208667
 20
111.7166912512
  0
VERTEX
  8
0
 62
7
  6
CONTINUOUS
 10
101.5669522302
 20
111.7617989398
  0
SEQEND
  0
LINE
  8
0
 62
7
  6
CONTINUOUS
 10
101.7373230987
 20
111.0346662646
 11
101.7018667465
 21
111.1705452197
  0
POLYLINE
  8
0
 62
7
  6
CONTINUOUS
 66
1
 70
0
  0
VERTEX
  8
0
 62
7
  6
CONTINUOUS
 10
101.7373230987
 20
111.0346662646
  0
VERTEX
  8
0
 62
7
  6
CONTINUOUS
 10
101.7723094594
 20
110.8872643669
  0
VERTEX
  8
0
 62
7
  6
CONTINUOUS
 10
101.8040497374
 20
110.7307296524
  0
VERTEX
  8
0
 62
7
  6
CONTINUOUS
 10
101.832385518
 20
110.5660784449
  0
VERTEX
  8
0
 62
7
  6
CONTINUOUS
 10
101.8571870846
 20
110.3943176649
  0
VERTEX
  8
0
 62
7
  6
CONTINUOUS
 10
101.8783458656
 20
110.2164624732
  0
VERTEX
  8
0
 62
7
  6
CONTINUOUS
 10
101.895773012
 20
110.0335314788
  0
VERTEX
  8
0
 62
7
  6
CONTINUOUS
 10
101.9093980815
 20
109.84654251
  0
VERTEX
  8
0
 62
7
  6
CONTINUOUS
 10
101.9191676278
 20
109.6565121919
  0
VERTEX
  8
0
 62
7
  6
CONTINUOUS
 10
101.9250441685
 20
109.4644569803
  0
VERTEX
  8
0
 62
7
  6
CONTINUOUS
 10
101.9270056114
 20
109.2713780919
  0
SEQEND
  0
POLYLINE
  8
0
 62
7
  6
CONTINUOUS
 66
1
 70
0
  0
VERTEX
  8
0
 62
7
  6
CONTINUOUS
 10
108.1891630171
 20
109.2713780919
  0
VERTEX
  8
0
 62
7
  6
CONTINUOUS
 10
108.1869276408
 20
109.4774784229
  0
VERTEX
  8
0
 62
7
  6
CONTINUOUS
 10
108.1802309643
 20
109.6823484659
  0
VERTEX
  8
0
 62
7
  6
CONTINUOUS
 10
108.169101601
 20
109.8847561102
  0
VERTEX
  8
0
 62
7
  6
CONTINUOUS
 10
108.1535880979
 20
110.0834658867
  0
VERTEX
  8
0
 62
7
  6
CONTINUOUS
 10
108.1337602265
 20
110.277238201
  0
VERTEX
  8
0
 62
7
  6
CONTINUOUS
 10
108.1097102816
 20
110.4648332884
  0
VERTEX
  8
0
 62
7
  6
CONTINUOUS
 10
108.0815551876
 20
110.6450113622
  0
VERTEX
  8
0
 62
7
  6
CONTINUOUS
 10
108.0494384831
 20
110.8165388129
  0
VERTEX
  8
0
 62
7
  6
CONTINUOUS
 10
108.0135322366
 20
110.9781966358
  0
VERTEX
  8
0
 62
7
  6
CONTINUOUS
 10
107.9740383389
 20
111.128792597
  0
VERTEX
  8
0
 62
7
  6
CONTINUOUS
 10
107.9311903643
 20
111.2671715566
  0
VERTEX
  8
0
 62
7
  6
CONTINUOUS
 10
107.8852542897
 20
111.3922312977
  0
VERTEX
  8
0
 62
7
  6
CONTINUOUS
 10
107.836528165
 20
111.5029403969
  0
VERTEX
  8
0
 62
7
  6
CONTINUOUS
 10
107.7853411561
 20
111.5983558736
  0
VERTEX
  8
0
 62
7
  6
CONTINUOUS
 10
107.732052043
 20
111.6776405065
  0
VERTEX
  8
0
 62
7
  6
CONTINUOUS
 10
107.6770463226
 20
111.7400807306
  0
VERTEX
  8
0
 62
7
  6
CONTINUOUS
 10
107.6207318877
 20
111.7851031995
  0
VERTEX
  8
0
 62
7
  6
CONTINUOUS
 10
107.5635345564
 20
111.8122878073
  0
VERTEX
  8
0
 62
7
  6
CONTINUOUS
 10
107.5058925764
 20
111.8213780919
  0
SEQEND
  0
POLYLINE
  8
0
 62
7
  6
CONTINUOUS
 66
1
 70
0
  0
VERTEX
  8
0
 62
7
  6
CONTINUOUS
 10
106.906898849
 20
109.0713780919
  0
VERTEX
  8
0
 62
7
  6
CONTINUOUS
 10
106.9088603039
 20
108.87829861
  0
VERTEX
  8
0
 62
7
  6
CONTINUOUS
 10
106.9147368728
 20
108.686243009
  0
VERTEX
  8
0
 62
7
  6
CONTINUOUS
 10
106.9245064522
 20
108.4962124914
  0
VERTEX
  8
0
 62
7
  6
CONTINUOUS
 10
106.938131551
 20
108.3092234818
  0
VERTEX
  8
0
 62
7
  6
CONTINUOUS
 10
106.9555587158
 20
108.1262925785
  0
VERTEX
  8
0
 62
7
  6
CONTINUOUS
 10
106.9767174964
 20
107.948437601
  0
VERTEX
  8
0
 62
7
  6
CONTINUOUS
 10
107.0015190365
 20
107.7766771428
  0
VERTEX
  8
0
 62
7
  6
CONTINUOUS
 10
107.0298547702
 20
107.6120262788
  0
VERTEX
  8
0
 62
7
  6
CONTINUOUS
 10
107.0615950052
 20
107.4554917976
  0
VERTEX
  8
0
 62
7
  6
CONTINUOUS
 10
107.0965813616
 20
107.3080899191
  0
SEQEND
  0
LINE
  8
0
 62
7
  6
CONTINUOUS
 10
106.906898849
 20
109.2713780919
 11
106.906898849
 21
109.0713780919
  0
LINE
  8
0
 62
7
  6
CONTINUOUS
 10
107.2669522302
 20
103.3713780919
 11
107.2669522302
 21
106.5809572439
  0
LINE
  8
0
 62
7
  6
CONTINUOUS
 10
107.2669522302
 20
111.7617989398
 11
107.2669522302
 21
114.9713780919
  0
LINE
  8
0
 62
7
  6
CONTINUOUS
 10
108.1891630171
 20
109.0713780919
 11
108.1891630171
 21
109.2713780919
  0
POLYLINE
  8
0
 62
7
  6
CONTINUOUS
 66
1
 70
0
  0
VERTEX
  8
0
 62
7
  6
CONTINUOUS
 10
107.2669522302
 20
111.7617989398
  0
VERTEX
  8
0
 62
7
  6
CONTINUOUS
 10
107.2638842644
 20
111.71669691
  0
VERTEX
  8
0
 62
7
  6
CONTINUOUS
 10
107.2548028161
 20
111.6586484453
  0
VERTEX
  8
0
 62
7
  6
CONTINUOUS
 10
107.2399365211
 20
111.5873821544
  0
VERTEX
  8
0
 62
7
  6
CONTINUOUS
 10
107.2196708842
 20
111.5029193746
  0
VERTEX
  8
0
 62
7
  6
CONTINUOUS
 10
107.1944648299
 20
111.4051154933
  0
SEQEND
  0
POLYLINE
  8
0
 62
7
  6
CONTINUOUS
 66
1
 70
0
  0
VERTEX
  8
0
 62
7
  6
CONTINUOUS
 10
107.0965813616
 20
111.0346662646
  0
VERTEX
  8
0
 62
7
  6
CONTINUOUS
 10
107.061595001
 20
110.8872643669
  0
VERTEX
  8
0
 62
7
  6
CONTINUOUS
 10
107.0298547229
 20
110.7307296524
  0
VERTEX
  8
0
 62
7
  6
CONTINUOUS
 10
107.0015189424
 20
110.5660784449
  0
VERTEX
  8
0
 62
7
  6
CONTINUOUS
 10
106.9767173758
 20
110.3943176649
  0
VERTEX
  8
0
 62
7
  6
CONTINUOUS
 10
106.9555585947
 20
110.2164624732
  0
VERTEX
  8
0
 62
7
  6
CONTINUOUS
 10
106.9381314483
 20
110.0335314788
  0
VERTEX
  8
0
 62
7
  6
CONTINUOUS
 10
106.9245063789
 20
109.84654251
  0
VERTEX
  8
0
 62
7
  6
CONTINUOUS
 10
106.9147368326
 20
109.6565121919
  0
VERTEX
  8
0
 62
7
  6
CONTINUOUS
 10
106.9088602919
 20
109.4644569803
  0
VERTEX
  8
0
 62
7
  6
CONTINUOUS
 10
106.906898849
 20
109.2713780919
  0
SEQEND
  0
POLYLINE
  8
0
 62
7
  6
CONTINUOUS
 66
1
 70
0
  0
VERTEX
  8
0
 62
7
  6
CONTINUOUS
 10
107.1944648299
 20
111.4051154933
  0
VERTEX
  8
0
 62
7
  6
CONTINUOUS
 10
107.1320320354
 20
111.1705237635
  0
VERTEX
  8
0
 62
7
  6
CONTINUOUS
 10
107.0965813616
 20
111.0346662646
  0
SEQEND
  0
POLYLINE
  8
SURFACE
 62
7
  6
CONTINUOUS
 66
1
 70
0
  0
VERTEX
  8
SURFACE
 62
7
  6
CONTINUOUS
 10
37.828011884
 20
111.8213780919
  0
VERTEX
  8
SURFACE
 62
7
  6
CONTINUOUS
 10
37.7703701261
 20
111.8122878775
  0
VERTEX
  8
SURFACE
 62
7
  6
CONTINUOUS
 10
37.7131729396
 20
111.785103433
  0
VERTEX
  8
SURFACE
 62
7
  6
CONTINUOUS
 10
37.656858581
 20
111.7400811586
  0
VERTEX
  8
SURFACE
 62
7
  6
CONTINUOUS
 10
37.6018528796
 20
111.6776411116
  0
VERTEX
  8
SURFACE
 62
7
  6
CONTINUOUS
 10
37.548563735
 20
111.5983565939
  0
VERTEX
  8
SURFACE
 62
7
  6
CONTINUOUS
 10
37.4973766511
 20
111.5029411309
  0
VERTEX
  8
SURFACE
 62
7
  6
CONTINUOUS
 10
37.4486504208
 20
111.3922319209
  0
VERTEX
  8
SURFACE
 62
7
  6
CONTINUOUS
 10
37.4027142265
 20
111.2671719436
  0
VERTEX
  8
SURFACE
 62
7
  6
CONTINUOUS
 10
37.3598661241
 20
111.128792606
  0
VERTEX
  8
SURFACE
 62
7
  6
CONTINUOUS
 10
37.3203721084
 20
110.9781961578
  0
VERTEX
  8
SURFACE
 62
7
  6
CONTINUOUS
 10
37.2844657686
 20
110.8165377907
  0
VERTEX
  8
SURFACE
 62
7
  6
CONTINUOUS
 10
37.2523489997
 20
110.645009768
  0
VERTEX
  8
SURFACE
 62
7
  6
CONTINUOUS
 10
37.2241938803
 20
110.4648311855
  0
VERTEX
  8
SURFACE
 62
7
  6
CONTINUOUS
 10
37.200143949
 20
110.2772357245
  0
VERTEX
  8
SURFACE
 62
7
  6
CONTINUOUS
 10
37.1803161249
 20
110.0834632471
  0
VERTEX
  8
SURFACE
 62
7
  6
CONTINUOUS
 10
37.1648026892
 20
109.8847535471
  0
VERTEX
  8
SURFACE
 62
7
  6
CONTINUOUS
 10
37.1536734031
 20
109.6823463417
  0
VERTEX
  8
SURFACE
 62
7
  6
CONTINUOUS
 10
37.1469767918
 20
109.4774771433
  0
VERTEX
  8
SURFACE
 62
7
  6
CONTINUOUS
 10
37.1447414433
 20
109.2713780919
  0
SEQEND
  0
POLYLINE
  8
SURFACE
 62
7
  6
CONTINUOUS
 66
1
 70
0
  0
VERTEX
  8
SURFACE
 62
7
  6
CONTINUOUS
 10
25.128011884
 20
111.8213780919
  0
VERTEX
  8
SURFACE
 62
7
  6
CONTINUOUS
 10
25.0703701261
 20
111.8122878775
  0
VERTEX
  8
SURFACE
 62
7
  6
CONTINUOUS
 10
25.0131729396
 20
111.785103433
  0
VERTEX
  8
SURFACE
 62
7
  6
CONTINUOUS
 10
24.956858581
 20
111.7400811586
  0
VERTEX
  8
SURFACE
 62
7
  6
CONTINUOUS
 10
24.9018528796
 20
111.6776411116
  0
VERTEX
  8
SURFACE
 62
7
  6
CONTINUOUS
 10
24.848563735
 20
111.5983565939
  0
VERTEX
  8
SURFACE
 62
7
  6
CONTINUOUS
 10
24.7973766511
 20
111.5029411309
  0
VERTEX
  8
SURFACE
 62
7
  6
CONTINUOUS
 10
24.7486504208
 20
111.3922319209
  0
VERTEX
  8
SURFACE
 62
7
  6
CONTINUOUS
 10
24.7027142265
 20
111.2671719436
  0
VERTEX
  8
SURFACE
 62
7
  6
CONTINUOUS
 10
24.6598661241
 20
111.128792606
  0
VERTEX
  8
SURFACE
 62
7
  6
CONTINUOUS
 10
24.6203721084
 20
110.9781961578
  0
VERTEX
  8
SURFACE
 62
7
  6
CONTINUOUS
 10
24.5844657686
 20
110.8165377907
  0
VERTEX
  8
SURFACE
 62
7
  6
CONTINUOUS
 10
24.5523489997
 20
110.645009768
  0
VERTEX
  8
SURFACE
 62
7
  6
CONTINUOUS
 10
24.5241938803
 20
110.4648311855
  0
VERTEX
  8
SURFACE
 62
7
  6
CONTINUOUS
 10
24.500143949
 20
110.2772357245
  0
VERTEX
  8
SURFACE
 62
7
  6
CONTINUOUS
 10
24.4803161249
 20
110.0834632471
  0
VERTEX
  8
SURFACE
 62
7
  6
CONTINUOUS
 10
24.4648026892
 20
109.8847535471
  0
VERTEX
  8
SURFACE
 62
7
  6
CONTINUOUS
 10
24.4536734031
 20
109.6823463417
  0
VERTEX
  8
SURFACE
 62
7
  6
CONTINUOUS
 10
24.4469767918
 20
109.4774771433
  0
VERTEX
  8
SURFACE
 62
7
  6
CONTINUOUS
 10
24.4447414433
 20
109.2713780919
  0
SEQEND
  0
POLYLINE
  8
0
 62
7
  6
CONTINUOUS
 66
1
 70
0
  0
VERTEX
  8
0
 62
7
  6
CONTINUOUS
 10
107.1320324
 20
107.1722310427
  0
VERTEX
  8
0
 62
7
  6
CONTINUOUS
 10
107.1944652441
 20
106.937639116
  0
VERTEX
  8
0
 62
7
  6
CONTINUOUS
 10
107.2196714556
 20
106.8398345276
  0
VERTEX
  8
0
 62
7
  6
CONTINUOUS
 10
107.2399368608
 20
106.7553725299
  0
VERTEX
  8
0
 62
7
  6
CONTINUOUS
 10
107.2548028204
 20
106.6841077155
  0
VERTEX
  8
0
 62
7
  6
CONTINUOUS
 10
107.2638841969
 20
106.626059843
  0
VERTEX
  8
0
 62
7
  6
CONTINUOUS
 10
107.2669522302
 20
106.5809572439
  0
SEQEND
  0
LINE
  8
0
 62
7
  6
CONTINUOUS
 10
107.0965813616
 20
107.3080899191
 11
107.1320324
 21
107.1722310427
  0
LINE
  8
0
 62
7
  6
CONTINUOUS
 10
113.3447414433
 20
109.0713780919
 11
113.3447414433
 21
109.2713780919
  0
LINE
  8
0
 62
7
  6
CONTINUOUS
 10
114.2669522302
 20
103.3713780919
 11
114.2669522302
 21
106.5809572439
  0
LINE
  8
0
 62
7
  6
CONTINUOUS
 10
114.2669522302
 20
111.7617989398
 11
114.2669522302
 21
114.9713780919
  0
LINE
  8
0
 62
7
  6
CONTINUOUS
 10
114.6270056114
 20
109.2713780919
 11
114.6270056114
 21
109.0713780919
  0
POLYLINE
  8
0
 62
7
  6
CONTINUOUS
 66
1
 70
0
  0
VERTEX
  8
0
 62
7
  6
CONTINUOUS
 10
114.6270056114
 20
109.0713780919
  0
VERTEX
  8
0
 62
7
  6
CONTINUOUS
 10
114.6250441564
 20
108.87829861
  0
VERTEX
  8
0
 62
7
  6
CONTINUOUS
 10
114.6191675876
 20
108.686243009
  0
VERTEX
  8
0
 62
7
  6
CONTINUOUS
 10
114.6093980081
 20
108.4962124914
  0
VERTEX
  8
0
 62
7
  6
CONTINUOUS
 10
114.5957729094
 20
108.3092234818
  0
VERTEX
  8
0
 62
7
  6
CONTINUOUS
 10
114.5783457446
 20
108.1262925785
  0
VERTEX
  8
0
 62
7
  6
CONTINUOUS
 10
114.5571869639
 20
107.948437601
  0
VERTEX
  8
0
 62
7
  6
CONTINUOUS
 10
114.5323854239
 20
107.7766771428
  0
VERTEX
  8
0
 62
7
  6
CONTINUOUS
 10
114.5040496902
 20
107.6120262788
  0
VERTEX
  8
0
 62
7
  6
CONTINUOUS
 10
114.4723094552
 20
107.4554917976
  0
VERTEX
  8
0
 62
7
  6
CONTINUOUS
 10
114.4373230987
 20
107.3080899191
  0
SEQEND
  0
POLYLINE
  8
0
 62
7
  6
CONTINUOUS
 66
1
 70
0
  0
VERTEX
  8
0
 62
7
  6
CONTINUOUS
 10
113.3447414433
 20
109.2713780919
  0
VERTEX
  8
0
 62
7
  6
CONTINUOUS
 10
113.3469768196
 20
109.4774784229
  0
VERTEX
  8
0
 62
7
  6
CONTINUOUS
 10
113.3536734961
 20
109.6823484659
  0
VERTEX
  8
0
 62
7
  6
CONTINUOUS
 10
113.3648028594
 20
109.8847561102
  0
VERTEX
  8
0
 62
7
  6
CONTINUOUS
 10
113.3803163625
 20
110.0834658867
  0
VERTEX
  8
0
 62
7
  6
CONTINUOUS
 10
113.4001442339
 20
110.277238201
  0
VERTEX
  8
0
 62
7
  6
CONTINUOUS
 10
113.4241941787
 20
110.4648332884
  0
VERTEX
  8
0
 62
7
  6
CONTINUOUS
 10
113.4523492728
 20
110.6450113622
  0
VERTEX
  8
0
 62
7
  6
CONTINUOUS
 10
113.4844659772
 20
110.8165388129
  0
VERTEX
  8
0
 62
7
  6
CONTINUOUS
 10
113.5203722238
 20
110.9781966358
  0
VERTEX
  8
0
 62
7
  6
CONTINUOUS
 10
113.5598661215
 20
111.128792597
  0
VERTEX
  8
0
 62
7
  6
CONTINUOUS
 10
113.6027140961
 20
111.2671715566
  0
VERTEX
  8
0
 62
7
  6
CONTINUOUS
 10
113.6486501706
 20
111.3922312977
  0
VERTEX
  8
0
 62
7
  6
CONTINUOUS
 10
113.6973762954
 20
111.5029403969
  0
VERTEX
  8
0
 62
7
  6
CONTINUOUS
 10
113.7485633043
 20
111.5983558736
  0
VERTEX
  8
0
 62
7
  6
CONTINUOUS
 10
113.8018524174
 20
111.6776405065
  0
VERTEX
  8
0
 62
7
  6
CONTINUOUS
 10
113.8568581378
 20
111.7400807306
  0
VERTEX
  8
0
 62
7
  6
CONTINUOUS
 10
113.9131725727
 20
111.7851031995
  0
VERTEX
  8
0
 62
7
  6
CONTINUOUS
 10
113.9703699039
 20
111.8122878073
  0
VERTEX
  8
0
 62
7
  6
CONTINUOUS
 10
114.028011884
 20
111.8213780919
  0
SEQEND
  0
POLYLINE
  8
0
 62
7
  6
CONTINUOUS
 66
1
 70
0
  0
VERTEX
  8
0
 62
7
  6
CONTINUOUS
 10
114.2669522302
 20
106.5809572439
  0
VERTEX
  8
0
 62
7
  6
CONTINUOUS
 10
114.2700209307
 20
106.6260654727
  0
VERTEX
  8
0
 62
7
  6
CONTINUOUS
 10
114.2791026439
 20
106.6841131129
  0
VERTEX
  8
0
 62
7
  6
CONTINUOUS
 10
114.2939667674
 20
106.7553688566
  0
VERTEX
  8
0
 62
7
  6
CONTINUOUS
 10
114.3142300857
 20
106.8398228734
  0
VERTEX
  8
0
 62
7
  6
CONTINUOUS
 10
114.3394355056
 20
106.9376250111
  0
SEQEND
  0
POLYLINE
  8
0
 62
7
  6
CONTINUOUS
 66
1
 70
0
  0
VERTEX
  8
0
 62
7
  6
CONTINUOUS
 10
114.3394355056
 20
106.9376250111
  0
VERTEX
  8
0
 62
7
  6
CONTINUOUS
 10
114.4018663923
 20
107.1722096256
  0
VERTEX
  8
0
 62
7
  6
CONTINUOUS
 10
114.4373230987
 20
107.3080899191
  0
SEQEND
  0
POLYLINE
  8
0
 62
7
  6
CONTINUOUS
 66
1
 70
0
  0
VERTEX
  8
0
 62
7
  6
CONTINUOUS
 10
114.4018667465
 20
111.1705452197
  0
VERTEX
  8
0
 62
7
  6
CONTINUOUS
 10
114.3394359099
 20
111.4051296357
  0
VERTEX
  8
0
 62
7
  6
CONTINUOUS
 10
114.3142306402
 20
111.5029310965
  0
VERTEX
  8
0
 62
7
  6
CONTINUOUS
 10
114.2939670974
 20
111.5873858707
  0
VERTEX
  8
0
 62
7
  6
CONTINUOUS
 10
114.279102641
 20
111.6586430863
  0
VERTEX
  8
0
 62
7
  6
CONTINUOUS
 10
114.2700208667
 20
111.7166912512
  0
VERTEX
  8
0
 62
7
  6
CONTINUOUS
 10
114.2669522302
 20
111.7617989398
  0
SEQEND
  0
LINE
  8
0
 62
7
  6
CONTINUOUS
 10
114.4373230987
 20
111.0346662646
 11
114.4018667465
 21
111.1705452197
  0
POLYLINE
  8
0
 62
7
  6
CONTINUOUS
 66
1
 70
0
  0
VERTEX
  8
0
 62
7
  6
CONTINUOUS
 10
114.4373230987
 20
111.0346662646
  0
VERTEX
  8
0
 62
7
  6
CONTINUOUS
 10
114.4723094594
 20
110.8872643669
  0
VERTEX
  8
0
 62
7
  6
CONTINUOUS
 10
114.5040497374
 20
110.7307296524
  0
VERTEX
  8
0
 62
7
  6
CONTINUOUS
 10
114.532385518
 20
110.5660784449
  0
VERTEX
  8
0
 62
7
  6
CONTINUOUS
 10
114.5571870846
 20
110.3943176649
  0
VERTEX
  8
0
 62
7
  6
CONTINUOUS
 10
114.5783458656
 20
110.2164624732
  0
VERTEX
  8
0
 62
7
  6
CONTINUOUS
 10
114.595773012
 20
110.0335314788
  0
VERTEX
  8
0
 62
7
  6
CONTINUOUS
 10
114.6093980815
 20
109.84654251
  0
VERTEX
  8
0
 62
7
  6
CONTINUOUS
 10
114.6191676278
 20
109.6565121919
  0
VERTEX
  8
0
 62
7
  6
CONTINUOUS
 10
114.6250441685
 20
109.4644569803
  0
VERTEX
  8
0
 62
7
  6
CONTINUOUS
 10
114.6270056114
 20
109.2713780919
  0
SEQEND
  0
POLYLINE
  8
0
 62
7
  6
CONTINUOUS
 66
1
 70
0
  0
VERTEX
  8
0
 62
7
  6
CONTINUOUS
 10
120.8891630171
 20
109.2713780919
  0
VERTEX
  8
0
 62
7
  6
CONTINUOUS
 10
120.8869276408
 20
109.4774784229
  0
VERTEX
  8
0
 62
7
  6
CONTINUOUS
 10
120.8802309643
 20
109.6823484659
  0
VERTEX
  8
0
 62
7
  6
CONTINUOUS
 10
120.869101601
 20
109.8847561102
  0
VERTEX
  8
0
 62
7
  6
CONTINUOUS
 10
120.8535880979
 20
110.0834658867
  0
VERTEX
  8
0
 62
7
  6
CONTINUOUS
 10
120.8337602265
 20
110.277238201
  0
VERTEX
  8
0
 62
7
  6
CONTINUOUS
 10
120.8097102816
 20
110.4648332884
  0
VERTEX
  8
0
 62
7
  6
CONTINUOUS
 10
120.7815551876
 20
110.6450113622
  0
VERTEX
  8
0
 62
7
  6
CONTINUOUS
 10
120.7494384831
 20
110.8165388129
  0
VERTEX
  8
0
 62
7
  6
CONTINUOUS
 10
120.7135322366
 20
110.9781966358
  0
VERTEX
  8
0
 62
7
  6
CONTINUOUS
 10
120.6740383389
 20
111.128792597
  0
VERTEX
  8
0
 62
7
  6
CONTINUOUS
 10
120.6311903643
 20
111.2671715566
  0
VERTEX
  8
0
 62
7
  6
CONTINUOUS
 10
120.5852542897
 20
111.3922312977
  0
VERTEX
  8
0
 62
7
  6
CONTINUOUS
 10
120.536528165
 20
111.5029403969
  0
VERTEX
  8
0
 62
7
  6
CONTINUOUS
 10
120.4853411561
 20
111.5983558736
  0
VERTEX
  8
0
 62
7
  6
CONTINUOUS
 10
120.432052043
 20
111.6776405065
  0
VERTEX
  8
0
 62
7
  6
CONTINUOUS
 10
120.3770463226
 20
111.7400807306
  0
VERTEX
  8
0
 62
7
  6
CONTINUOUS
 10
120.3207318877
 20
111.7851031995
  0
VERTEX
  8
0
 62
7
  6
CONTINUOUS
 10
120.2635345564
 20
111.8122878073
  0
VERTEX
  8
0
 62
7
  6
CONTINUOUS
 10
120.2058925764
 20
111.8213780919
  0
SEQEND
  0
POLYLINE
  8
0
 62
7
  6
CONTINUOUS
 66
1
 70
0
  0
VERTEX
  8
0
 62
7
  6
CONTINUOUS
 10
119.606898849
 20
109.0713780919
  0
VERTEX
  8
0
 62
7
  6
CONTINUOUS
 10
119.6088603039
 20
108.87829861
  0
VERTEX
  8
0
 62
7
  6
CONTINUOUS
 10
119.6147368728
 20
108.686243009
  0
VERTEX
  8
0
 62
7
  6
CONTINUOUS
 10
119.6245064522
 20
108.4962124914
  0
VERTEX
  8
0
 62
7
  6
CONTINUOUS
 10
119.638131551
 20
108.3092234818
  0
VERTEX
  8
0
 62
7
  6
CONTINUOUS
 10
119.6555587158
 20
108.1262925785
  0
VERTEX
  8
0
 62
7
  6
CONTINUOUS
 10
119.6767174964
 20
107.948437601
  0
VERTEX
  8
0
 62
7
  6
CONTINUOUS
 10
119.7015190365
 20
107.7766771428
  0
VERTEX
  8
0
 62
7
  6
CONTINUOUS
 10
119.7298547702
 20
107.6120262788
  0
VERTEX
  8
0
 62
7
  6
CONTINUOUS
 10
119.7615950052
 20
107.4554917976
  0
VERTEX
  8
0
 62
7
  6
CONTINUOUS
 10
119.7965813616
 20
107.3080899191
  0
SEQEND
  0
LINE
  8
0
 62
7
  6
CONTINUOUS
 10
119.606898849
 20
109.2713780919
 11
119.606898849
 21
109.0713780919
  0
LINE
  8
0
 62
7
  6
CONTINUOUS
 10
119.9669522302
 20
103.3713780919
 11
119.9669522302
 21
106.5809572439
  0
LINE
  8
0
 62
7
  6
CONTINUOUS
 10
119.9669522302
 20
111.7617989398
 11
119.9669522302
 21
114.9713780919
  0
LINE
  8
0
 62
7
  6
CONTINUOUS
 10
120.8891630171
 20
109.0713780919
 11
120.8891630171
 21
109.2713780919
  0
POLYLINE
  8
0
 62
7
  6
CONTINUOUS
 66
1
 70
0
  0
VERTEX
  8
0
 62
7
  6
CONTINUOUS
 10
119.9669522302
 20
111.7617989398
  0
VERTEX
  8
0
 62
7
  6
CONTINUOUS
 10
119.9638842644
 20
111.71669691
  0
VERTEX
  8
0
 62
7
  6
CONTINUOUS
 10
119.9548028161
 20
111.6586484453
  0
VERTEX
  8
0
 62
7
  6
CONTINUOUS
 10
119.9399365211
 20
111.5873821544
  0
VERTEX
  8
0
 62
7
  6
CONTINUOUS
 10
119.9196708842
 20
111.5029193746
  0
VERTEX
  8
0
 62
7
  6
CONTINUOUS
 10
119.8944648299
 20
111.4051154933
  0
SEQEND
  0
POLYLINE
  8
0
 62
7
  6
CONTINUOUS
 66
1
 70
0
  0
VERTEX
  8
0
 62
7
  6
CONTINUOUS
 10
119.7965813616
 20
111.0346662646
  0
VERTEX
  8
0
 62
7
  6
CONTINUOUS
 10
119.761595001
 20
110.8872643669
  0
VERTEX
  8
0
 62
7
  6
CONTINUOUS
 10
119.7298547229
 20
110.7307296524
  0
VERTEX
  8
0
 62
7
  6
CONTINUOUS
 10
119.7015189424
 20
110.5660784449
  0
VERTEX
  8
0
 62
7
  6
CONTINUOUS
 10
119.6767173758
 20
110.3943176649
  0
VERTEX
  8
0
 62
7
  6
CONTINUOUS
 10
119.6555585947
 20
110.2164624732
  0
VERTEX
  8
0
 62
7
  6
CONTINUOUS
 10
119.6381314483
 20
110.0335314788
  0
VERTEX
  8
0
 62
7
  6
CONTINUOUS
 10
119.6245063789
 20
109.84654251
  0
VERTEX
  8
0
 62
7
  6
CONTINUOUS
 10
119.6147368326
 20
109.6565121919
  0
VERTEX
  8
0
 62
7
  6
CONTINUOUS
 10
119.6088602919
 20
109.4644569803
  0
VERTEX
  8
0
 62
7
  6
CONTINUOUS
 10
119.606898849
 20
109.2713780919
  0
SEQEND
  0
POLYLINE
  8
0
 62
7
  6
CONTINUOUS
 66
1
 70
0
  0
VERTEX
  8
0
 62
7
  6
CONTINUOUS
 10
119.8944648299
 20
111.4051154933
  0
VERTEX
  8
0
 62
7
  6
CONTINUOUS
 10
119.8320320354
 20
111.1705237635
  0
VERTEX
  8
0
 62
7
  6
CONTINUOUS
 10
119.7965813616
 20
111.0346662646
  0
SEQEND
  0
LINE
  8
0
 62
7
  6
CONTINUOUS
 10
169.458372731
 20
115.5178477362
 11
169.4366506544
 21
115.507673511
  0
LINE
  8
0
 62
7
  6
CONTINUOUS
 10
169.4366506544
 20
115.507673511
 11
169.4123901722
 21
115.4964627553
  0
LINE
  8
0
 62
7
  6
CONTINUOUS
 10
169.4123901722
 20
115.4964627553
 11
169.3851435779
 21
115.4840632617
  0
LINE
  8
0
 62
7
  6
CONTINUOUS
 10
169.3851435779
 20
115.4840632617
 11
169.3545682949
 21
115.4703890385
  0
POLYLINE
  8
0
 62
7
  6
CONTINUOUS
 66
1
 70
0
  0
VERTEX
  8
0
 62
7
  6
CONTINUOUS
 10
169.3545682949
 20
115.4703890385
  0
VERTEX
  8
0
 62
7
  6
CONTINUOUS
 10
169.320524698
 20
115.4554646244
  0
VERTEX
  8
0
 62
7
  6
CONTINUOUS
 10
169.3021680689
 20
115.4475498656
  0
VERTEX
  8
0
 62
7
  6
CONTINUOUS
 10
169.2829054974
 20
115.4393450359
  0
VERTEX
  8
0
 62
7
  6
CONTINUOUS
 10
169.262731256
 20
115.4308629102
  0
VERTEX
  8
0
 62
7
  6
CONTINUOUS
 10
169.2416388073
 20
115.4221171712
  0
VERTEX
  8
0
 62
7
  6
CONTINUOUS
 10
169.2196176014
 20
115.4131212427
  0
VERTEX
  8
0
 62
7
  6
CONTINUOUS
 10
169.1966456641
 20
115.4038852374
  0
VERTEX
  8
0
 62
7
  6
CONTINUOUS
 10
169.1727096588
 20
115.3944238702
  0
VERTEX
  8
0
 62
7
  6
CONTINUOUS
 10
169.1478044836
 20
115.3847569017
  0
VERTEX
  8
0
 62
7
  6
CONTINUOUS
 10
169.1219259239
 20
115.3749063908
  0
VERTEX
  8
0
 62
7
  6
CONTINUOUS
 10
169.0950530202
 20
115.3648897672
  0
VERTEX
  8
0
 62
7
  6
CONTINUOUS
 10
169.0671734357
 20
115.3547286924
  0
VERTEX
  8
0
 62
7
  6
CONTINUOUS
 10
169.0382858295
 20
115.3444511141
  0
VERTEX
  8
0
 62
7
  6
CONTINUOUS
 10
169.0082567776
 20
115.334042418
  0
VERTEX
  8
0
 62
7
  6
CONTINUOUS
 10
168.9767188314
 20
115.3234168274
  0
VERTEX
  8
0
 62
7
  6
CONTINUOUS
 10
168.9432781572
 20
115.3124966874
  0
VERTEX
  8
0
 62
7
  6
CONTINUOUS
 10
168.9075147221
 20
115.3012190953
  0
VERTEX
  8
0
 62
7
  6
CONTINUOUS
 10
168.8689478658
 20
115.2895305507
  0
VERTEX
  8
0
 62
7
  6
CONTINUOUS
 10
168.8271782897
 20
115.2774330788
  0
VERTEX
  8
0
 62
7
  6
CONTINUOUS
 10
168.7823314711
 20
115.2651069722
  0
VERTEX
  8
0
 62
7
  6
CONTINUOUS
 10
168.7344354667
 20
115.2527155191
  0
VERTEX
  8
0
 62
7
  6
CONTINUOUS
 10
168.683516881
 20
115.2404331505
  0
VERTEX
  8
0
 62
7
  6
CONTINUOUS
 10
168.6296071288
 20
115.2284514995
  0
VERTEX
  8
0
 62
7
  6
CONTINUOUS
 10
168.5727594169
 20
115.216977269
  0
VERTEX
  8
0
 62
7
  6
CONTINUOUS
 10
168.5130519648
 20
115.2062345456
  0
VERTEX
  8
0
 62
7
  6
CONTINUOUS
 10
168.4505752639
 20
115.1964554944
  0
VERTEX
  8
0
 62
7
  6
CONTINUOUS
 10
168.3850527134
 20
115.1878347578
  0
VERTEX
  8
0
 62
7
  6
CONTINUOUS
 10
168.3157266583
 20
115.1805643965
  0
VERTEX
  8
0
 62
7
  6
CONTINUOUS
 10
168.2418210434
 20
115.174938928
  0
VERTEX
  8
0
 62
7
  6
CONTINUOUS
 10
168.1626515708
 20
115.1713711401
  0
VERTEX
  8
0
 62
7
  6
CONTINUOUS
 10
168.0919522302
 20
115.1703481153
  0
SEQEND
  0
LINE
  8
0
 62
7
  6
CONTINUOUS
 10
169.2187250382
 20
102.9299966391
 11
169.2542614195
 21
102.9154202932
  0
LINE
  8
0
 62
7
  6
CONTINUOUS
 10
169.2542614195
 20
102.9154202932
 11
169.2877417791
 21
102.9013608592
  0
LINE
  8
0
 62
7
  6
CONTINUOUS
 10
169.2877417791
 20
102.9013608592
 11
169.3191803873
 21
102.8878743465
  0
LINE
  8
0
 62
7
  6
CONTINUOUS
 10
169.3191803873
 20
102.8878743465
 11
169.3486078623
 21
102.8750031214
  0
LINE
  8
0
 62
7
  6
CONTINUOUS
 10
169.3486078623
 20
102.8750031214
 11
169.3760637037
 21
102.8627802889
  0
LINE
  8
0
 62
7
  6
CONTINUOUS
 10
169.3760637037
 20
102.8627802889
 11
169.401587056
 21
102.8512338768
  0
LINE
  8
0
 62
7
  6
CONTINUOUS
 10
169.401587056
 20
102.8512338768
 11
169.4252062534
 21
102.8403911592
  0
LINE
  8
0
 62
7
  6
CONTINUOUS
 10
169.4252062534
 20
102.8403911592
 11
169.4470025745
 21
102.830250081
  0
LINE
  8
0
 62
7
  6
CONTINUOUS
 10
169.4470025745
 20
102.830250081
 11
169.4670582433
 21
102.8208043038
  0
POLYLINE
  8
0
 62
7
  6
CONTINUOUS
 66
1
 70
0
  0
VERTEX
  8
0
 62
7
  6
CONTINUOUS
 10
119.8320324
 20
107.1722310427
  0
VERTEX
  8
0
 62
7
  6
CONTINUOUS
 10
119.8944652441
 20
106.937639116
  0
VERTEX
  8
0
 62
7
  6
CONTINUOUS
 10
119.9196714556
 20
106.8398345276
  0
VERTEX
  8
0
 62
7
  6
CONTINUOUS
 10
119.9399368608
 20
106.7553725299
  0
VERTEX
  8
0
 62
7
  6
CONTINUOUS
 10
119.9548028204
 20
106.6841077155
  0
VERTEX
  8
0
 62
7
  6
CONTINUOUS
 10
119.9638841969
 20
106.626059843
  0
VERTEX
  8
0
 62
7
  6
CONTINUOUS
 10
119.9669522302
 20
106.5809572439
  0
SEQEND
  0
LINE
  8
0
 62
7
  6
CONTINUOUS
 10
119.7965813616
 20
107.3080899191
 11
119.8320324
 21
107.1722310427
  0
LINE
  8
0
 62
7
  6
CONTINUOUS
 10
126.0447414433
 20
109.0713780919
 11
126.0447414433
 21
109.2713780919
  0
POLYLINE
  8
0
 62
7
  6
CONTINUOUS
 66
1
 70
0
  0
VERTEX
  8
0
 62
7
  6
CONTINUOUS
 10
126.0447414433
 20
109.2713780919
  0
VERTEX
  8
0
 62
7
  6
CONTINUOUS
 10
126.0469768196
 20
109.4774784229
  0
VERTEX
  8
0
 62
7
  6
CONTINUOUS
 10
126.0536734961
 20
109.6823484659
  0
VERTEX
  8
0
 62
7
  6
CONTINUOUS
 10
126.0648028594
 20
109.8847561102
  0
VERTEX
  8
0
 62
7
  6
CONTINUOUS
 10
126.0803163625
 20
110.0834658867
  0
VERTEX
  8
0
 62
7
  6
CONTINUOUS
 10
126.1001442339
 20
110.277238201
  0
VERTEX
  8
0
 62
7
  6
CONTINUOUS
 10
126.1241941787
 20
110.4648332884
  0
VERTEX
  8
0
 62
7
  6
CONTINUOUS
 10
126.1523492728
 20
110.6450113622
  0
VERTEX
  8
0
 62
7
  6
CONTINUOUS
 10
126.1844659772
 20
110.8165388129
  0
VERTEX
  8
0
 62
7
  6
CONTINUOUS
 10
126.2203722238
 20
110.9781966358
  0
VERTEX
  8
0
 62
7
  6
CONTINUOUS
 10
126.2598661215
 20
111.128792597
  0
VERTEX
  8
0
 62
7
  6
CONTINUOUS
 10
126.3027140961
 20
111.2671715566
  0
VERTEX
  8
0
 62
7
  6
CONTINUOUS
 10
126.3486501706
 20
111.3922312977
  0
VERTEX
  8
0
 62
7
  6
CONTINUOUS
 10
126.3973762954
 20
111.5029403969
  0
VERTEX
  8
0
 62
7
  6
CONTINUOUS
 10
126.4485633043
 20
111.5983558736
  0
VERTEX
  8
0
 62
7
  6
CONTINUOUS
 10
126.5018524174
 20
111.6776405065
  0
VERTEX
  8
0
 62
7
  6
CONTINUOUS
 10
126.5568581378
 20
111.7400807306
  0
VERTEX
  8
0
 62
7
  6
CONTINUOUS
 10
126.6131725727
 20
111.7851031995
  0
VERTEX
  8
0
 62
7
  6
CONTINUOUS
 10
126.6703699039
 20
111.8122878073
  0
VERTEX
  8
0
 62
7
  6
CONTINUOUS
 10
126.728011884
 20
111.8213780919
  0
SEQEND
  0
LINE
  8
0
 62
7
  6
CONTINUOUS
 10
169.5834554095
 20
115.5792310648
 11
169.5835347169
 21
115.5792730822
  0
LINE
  8
0
 62
7
  6
CONTINUOUS
 10
169.5833720334
 20
115.5791875208
 11
169.5815085437
 21
115.5782159592
  0
LINE
  8
0
 62
7
  6
CONTINUOUS
 10
169.5815085437
 20
115.5782159592
 11
169.5752690354
 21
115.5750024029
  0
LINE
  8
0
 62
7
  6
CONTINUOUS
 10
169.5752690354
 20
115.5750024029
 11
169.5658483636
 21
115.5702086289
  0
LINE
  8
0
 62
7
  6
CONTINUOUS
 10
169.5658483636
 20
115.5702086289
 11
169.5531401751
 21
115.5638169587
  0
LINE
  8
0
 62
7
  6
CONTINUOUS
 10
169.5531401751
 20
115.5638169587
 11
169.5372047804
 21
115.5558906016
  0
LINE
  8
0
 62
7
  6
CONTINUOUS
 10
169.5372047804
 20
115.5558906016
 11
169.5180508647
 21
115.5464782673
  0
LINE
  8
0
 62
7
  6
CONTINUOUS
 10
169.5180508647
 20
115.5464782673
 11
169.4952424561
 21
115.5354152605
  0
POLYLINE
  8
0
 62
7
  6
CONTINUOUS
 66
1
 70
0
  0
VERTEX
  8
0
 62
7
  6
CONTINUOUS
 10
169.4952424561
 20
115.5354152605
  0
VERTEX
  8
0
 62
7
  6
CONTINUOUS
 10
169.4683770777
 20
115.5225768914
  0
VERTEX
  8
0
 62
7
  6
CONTINUOUS
 10
169.458372731
 20
115.5178477362
  0
SEQEND
  0
LINE
  8
0
 62
7
  6
CONTINUOUS
 10
169.4670582433
 20
102.8208043038
 11
169.4939073154
 21
102.807983825
  0
LINE
  8
0
 62
7
  6
CONTINUOUS
 10
169.4939073154
 20
102.807983825
 11
169.5171605732
 21
102.7967126085
  0
LINE
  8
0
 62
7
  6
CONTINUOUS
 10
169.5171605732
 20
102.7967126085
 11
169.5368509537
 21
102.7870405458
  0
LINE
  8
0
 62
7
  6
CONTINUOUS
 10
169.5368509537
 20
102.7870405458
 11
169.5532289451
 21
102.7788948179
  0
LINE
  8
0
 62
7
  6
CONTINUOUS
 10
169.5532289451
 20
102.7788948179
 11
169.5662367476
 21
102.7723510008
  0
LINE
  8
0
 62
7
  6
CONTINUOUS
 10
169.5662367476
 20
102.7723510008
 11
169.5757907717
 21
102.7674864634
  0
POLYLINE
  8
0
 62
7
  6
CONTINUOUS
 66
1
 70
0
  0
VERTEX
  8
0
 62
7
  6
CONTINUOUS
 10
169.5757907717
 20
102.7674864634
  0
VERTEX
  8
0
 62
7
  6
CONTINUOUS
 10
169.581893655
 20
102.7643402362
  0
VERTEX
  8
0
 62
7
  6
CONTINUOUS
 10
169.5829532031
 20
102.7637880708
  0
SEQEND
  0
LINE
  8
0
 62
7
  6
CONTINUOUS
 10
126.9669522302
 20
103.3713780919
 11
126.9669522302
 21
106.5809572439
  0
LINE
  8
0
 62
7
  6
CONTINUOUS
 10
126.9669522302
 20
111.7617989398
 11
126.9669522302
 21
114.9713780919
  0
LINE
  8
0
 62
7
  6
CONTINUOUS
 10
127.3270056114
 20
109.2713780919
 11
127.3270056114
 21
109.0713780919
  0
POLYLINE
  8
0
 62
7
  6
CONTINUOUS
 66
1
 70
0
  0
VERTEX
  8
0
 62
7
  6
CONTINUOUS
 10
127.3270056114
 20
109.0713780919
  0
VERTEX
  8
0
 62
7
  6
CONTINUOUS
 10
127.3250441564
 20
108.87829861
  0
VERTEX
  8
0
 62
7
  6
CONTINUOUS
 10
127.3191675876
 20
108.686243009
  0
VERTEX
  8
0
 62
7
  6
CONTINUOUS
 10
127.3093980081
 20
108.4962124914
  0
VERTEX
  8
0
 62
7
  6
CONTINUOUS
 10
127.2957729094
 20
108.3092234818
  0
VERTEX
  8
0
 62
7
  6
CONTINUOUS
 10
127.2783457446
 20
108.1262925785
  0
VERTEX
  8
0
 62
7
  6
CONTINUOUS
 10
127.2571869639
 20
107.948437601
  0
VERTEX
  8
0
 62
7
  6
CONTINUOUS
 10
127.2323854239
 20
107.7766771428
  0
VERTEX
  8
0
 62
7
  6
CONTINUOUS
 10
127.2040496902
 20
107.6120262788
  0
VERTEX
  8
0
 62
7
  6
CONTINUOUS
 10
127.1723094552
 20
107.4554917976
  0
VERTEX
  8
0
 62
7
  6
CONTINUOUS
 10
127.1373230767
 20
107.3080898262
  0
SEQEND
  0
POLYLINE
  8
0
 62
7
  6
CONTINUOUS
 66
1
 70
0
  0
VERTEX
  8
0
 62
7
  6
CONTINUOUS
 10
126.9669522302
 20
106.5809572439
  0
VERTEX
  8
0
 62
7
  6
CONTINUOUS
 10
126.9700209298
 20
106.6260654649
  0
VERTEX
  8
0
 62
7
  6
CONTINUOUS
 10
126.9791026403
 20
106.6841130933
  0
VERTEX
  8
0
 62
7
  6
CONTINUOUS
 10
126.9939667594
 20
106.7553688212
  0
VERTEX
  8
0
 62
7
  6
CONTINUOUS
 10
127.0142300718
 20
106.8398228182
  0
VERTEX
  8
0
 62
7
  6
CONTINUOUS
 10
127.0394354848
 20
106.9376249321
  0
SEQEND
  0
POLYLINE
  8
0
 62
7
  6
CONTINUOUS
 66
1
 70
0
  0
VERTEX
  8
0
 62
7
  6
CONTINUOUS
 10
132.4965813616
 20
111.0346662646
  0
VERTEX
  8
0
 62
7
  6
CONTINUOUS
 10
132.461595001
 20
110.8872643669
  0
VERTEX
  8
0
 62
7
  6
CONTINUOUS
 10
132.4298547229
 20
110.7307296524
  0
VERTEX
  8
0
 62
7
  6
CONTINUOUS
 10
132.4015189424
 20
110.5660784449
  0
VERTEX
  8
0
 62
7
  6
CONTINUOUS
 10
132.3767173758
 20
110.3943176649
  0
VERTEX
  8
0
 62
7
  6
CONTINUOUS
 10
132.3555585947
 20
110.2164624732
  0
VERTEX
  8
0
 62
7
  6
CONTINUOUS
 10
132.3381314483
 20
110.0335314788
  0
VERTEX
  8
0
 62
7
  6
CONTINUOUS
 10
132.3245063789
 20
109.84654251
  0
VERTEX
  8
0
 62
7
  6
CONTINUOUS
 10
132.3147368326
 20
109.6565121919
  0
VERTEX
  8
0
 62
7
  6
CONTINUOUS
 10
132.3088602919
 20
109.4644569803
  0
VERTEX
  8
0
 62
7
  6
CONTINUOUS
 10
132.306898849
 20
109.2713780919
  0
SEQEND
  0
POLYLINE
  8
0
 62
7
  6
CONTINUOUS
 66
1
 70
0
  0
VERTEX
  8
0
 62
7
  6
CONTINUOUS
 10
127.0394354848
 20
106.9376249321
  0
VERTEX
  8
0
 62
7
  6
CONTINUOUS
 10
127.1018663558
 20
107.1722094878
  0
VERTEX
  8
0
 62
7
  6
CONTINUOUS
 10
127.1373231421
 20
107.3080900956
  0
SEQEND
  0
POLYLINE
  8
0
 62
7
  6
CONTINUOUS
 66
1
 70
0
  0
VERTEX
  8
0
 62
7
  6
CONTINUOUS
 10
132.5944648299
 20
111.4051154933
  0
VERTEX
  8
0
 62
7
  6
CONTINUOUS
 10
132.5320320354
 20
111.1705237635
  0
VERTEX
  8
0
 62
7
  6
CONTINUOUS
 10
132.4965813616
 20
111.0346662646
  0
SEQEND
  0
LINE
  8
0
 62
7
  6
CONTINUOUS
 10
166.5254969927
 20
102.8248920649
 11
166.5472155343
 21
102.8350648791
  0
LINE
  8
0
 62
7
  6
CONTINUOUS
 10
166.5472155343
 20
102.8350648791
 11
166.5714740667
 21
102.8462749587
  0
LINE
  8
0
 62
7
  6
CONTINUOUS
 10
166.5714740667
 20
102.8462749587
 11
166.5987193451
 21
102.8586741699
  0
LINE
  8
0
 62
7
  6
CONTINUOUS
 10
166.5987193451
 20
102.8586741699
 11
166.6292911457
 21
102.8723472115
  0
POLYLINE
  8
0
 62
7
  6
CONTINUOUS
 66
1
 70
0
  0
VERTEX
  8
0
 62
7
  6
CONTINUOUS
 10
166.6292911457
 20
102.8723472115
  0
VERTEX
  8
0
 62
7
  6
CONTINUOUS
 10
166.6633316898
 20
102.8872706981
  0
VERTEX
  8
0
 62
7
  6
CONTINUOUS
 10
166.6816874127
 20
102.8951853098
  0
VERTEX
  8
0
 62
7
  6
CONTINUOUS
 10
166.7009489544
 20
102.9033899847
  0
VERTEX
  8
0
 62
7
  6
CONTINUOUS
 10
166.7211219413
 20
102.9118718876
  0
VERTEX
  8
0
 62
7
  6
CONTINUOUS
 10
166.7422129862
 20
102.9206173498
  0
VERTEX
  8
0
 62
7
  6
CONTINUOUS
 10
166.7642333231
 20
102.9296132146
  0
VERTEX
  8
0
 62
7
  6
CONTINUOUS
 10
166.7872058378
 20
102.9388498088
  0
VERTEX
  8
0
 62
7
  6
CONTINUOUS
 10
166.8111417055
 20
102.9483115345
  0
VERTEX
  8
0
 62
7
  6
CONTINUOUS
 10
166.8360461103
 20
102.9579786139
  0
VERTEX
  8
0
 62
7
  6
CONTINUOUS
 10
166.861924128
 20
102.9678292655
  0
VERTEX
  8
0
 62
7
  6
CONTINUOUS
 10
166.888799069
 20
102.9778470729
  0
VERTEX
  8
0
 62
7
  6
CONTINUOUS
 10
166.9166796086
 20
102.9880090044
  0
VERTEX
  8
0
 62
7
  6
CONTINUOUS
 10
166.94556718
 20
102.9982870487
  0
VERTEX
  8
0
 62
7
  6
CONTINUOUS
 10
166.9755975287
 20
103.0086965636
  0
VERTEX
  8
0
 62
7
  6
CONTINUOUS
 10
167.007138011
 20
103.0193235344
  0
VERTEX
  8
0
 62
7
  6
CONTINUOUS
 10
167.0405792984
 20
103.0302444703
  0
VERTEX
  8
0
 62
7
  6
CONTINUOUS
 10
167.076342124
 20
103.0415223249
  0
VERTEX
  8
0
 62
7
  6
CONTINUOUS
 10
167.1149108651
 20
103.0532120341
  0
VERTEX
  8
0
 62
7
  6
CONTINUOUS
 10
167.1566799967
 20
103.0653101355
  0
VERTEX
  8
0
 62
7
  6
CONTINUOUS
 10
167.2015272142
 20
103.0776369273
  0
VERTEX
  8
0
 62
7
  6
CONTINUOUS
 10
167.2494251682
 20
103.0900297219
  0
VERTEX
  8
0
 62
7
  6
CONTINUOUS
 10
167.300344506
 20
103.1023130264
  0
VERTEX
  8
0
 62
7
  6
CONTINUOUS
 10
167.3542574474
 20
103.1142962102
  0
VERTEX
  8
0
 62
7
  6
CONTINUOUS
 10
167.411107637
 20
103.1257717676
  0
VERTEX
  8
0
 62
7
  6
CONTINUOUS
 10
167.4708192503
 20
103.1365160231
  0
VERTEX
  8
0
 62
7
  6
CONTINUOUS
 10
167.5333000864
 20
103.1462964964
  0
VERTEX
  8
0
 62
7
  6
CONTINUOUS
 10
167.5988273403
 20
103.1549185162
  0
VERTEX
  8
0
 62
7
  6
CONTINUOUS
 10
167.6681579117
 20
103.1621899451
  0
VERTEX
  8
0
 62
7
  6
CONTINUOUS
 10
167.7420687532
 20
103.1678164201
  0
VERTEX
  8
0
 62
7
  6
CONTINUOUS
 10
167.821244687
 20
103.1713848421
  0
VERTEX
  8
0
 62
7
  6
CONTINUOUS
 10
167.8919522302
 20
103.1724079752
  0
SEQEND
  0
LINE
  8
0
 62
7
  6
CONTINUOUS
 10
166.7651877589
 20
115.4127562008
 11
166.7296520596
 21
115.4273321147
  0
LINE
  8
0
 62
7
  6
CONTINUOUS
 10
166.7296520596
 20
115.4273321147
 11
166.6961721286
 21
115.4413913166
  0
LINE
  8
0
 62
7
  6
CONTINUOUS
 10
166.6961721286
 20
115.4413913166
 11
166.6647325447
 21
115.4548781829
  0
LINE
  8
0
 62
7
  6
CONTINUOUS
 10
166.6647325447
 20
115.4548781829
 11
166.6353050188
 21
115.4677493302
  0
LINE
  8
0
 62
7
  6
CONTINUOUS
 10
166.6353050188
 20
115.4677493302
 11
166.6078497057
 21
115.4799718668
  0
LINE
  8
0
 62
7
  6
CONTINUOUS
 10
166.6078497057
 20
115.4799718668
 11
166.5823256721
 21
115.4915185711
  0
LINE
  8
0
 62
7
  6
CONTINUOUS
 10
166.5823256721
 20
115.4915185711
 11
166.5587053195
 21
115.502361727
  0
POLYLINE
  8
0
 62
7
  6
CONTINUOUS
 66
1
 70
0
  0
VERTEX
  8
0
 62
7
  6
CONTINUOUS
 10
166.5587053195
 20
115.502361727
  0
VERTEX
  8
0
 62
7
  6
CONTINUOUS
 10
166.5369106346
 20
115.5125019773
  0
VERTEX
  8
0
 62
7
  6
CONTINUOUS
 10
166.5266684324
 20
115.5173121413
  0
SEQEND
  0
POLYLINE
  8
0
 62
7
  6
CONTINUOUS
 66
1
 70
0
  0
VERTEX
  8
0
 62
7
  6
CONTINUOUS
 10
127.1018667738
 20
111.1705451166
  0
VERTEX
  8
0
 62
7
  6
CONTINUOUS
 10
127.0394359255
 20
111.4051295766
  0
VERTEX
  8
0
 62
7
  6
CONTINUOUS
 10
127.0142306505
 20
111.5029310552
  0
VERTEX
  8
0
 62
7
  6
CONTINUOUS
 10
126.9939671034
 20
111.5873858442
  0
VERTEX
  8
0
 62
7
  6
CONTINUOUS
 10
126.9791026438
 20
111.6586430717
  0
VERTEX
  8
0
 62
7
  6
CONTINUOUS
 10
126.9700208674
 20
111.7166912453
  0
VERTEX
  8
0
 62
7
  6
CONTINUOUS
 10
126.9669522302
 20
111.7617989398
  0
SEQEND
  0
POLYLINE
  8
0
 62
7
  6
CONTINUOUS
 66
1
 70
0
  0
VERTEX
  8
0
 62
7
  6
CONTINUOUS
 10
132.5320324
 20
107.1722310427
  0
VERTEX
  8
0
 62
7
  6
CONTINUOUS
 10
132.5944652441
 20
106.937639116
  0
VERTEX
  8
0
 62
7
  6
CONTINUOUS
 10
132.6196714556
 20
106.8398345276
  0
VERTEX
  8
0
 62
7
  6
CONTINUOUS
 10
132.6399368608
 20
106.7553725299
  0
VERTEX
  8
0
 62
7
  6
CONTINUOUS
 10
132.6548028204
 20
106.6841077155
  0
VERTEX
  8
0
 62
7
  6
CONTINUOUS
 10
132.6638841969
 20
106.626059843
  0
VERTEX
  8
0
 62
7
  6
CONTINUOUS
 10
132.6669522302
 20
106.5809572439
  0
SEQEND
  0
LINE
  8
0
 62
7
  6
CONTINUOUS
 10
127.1373230663
 20
111.0346663967
 11
127.1018667738
 21
111.1705451166
  0
LINE
  8
0
 62
7
  6
CONTINUOUS
 10
132.4965813616
 20
107.3080899191
 11
132.5320324
 21
107.1722310427
  0
POLYLINE
  8
0
 62
7
  6
CONTINUOUS
 66
1
 70
0
  0
VERTEX
  8
0
 62
7
  6
CONTINUOUS
 10
127.1373231152
 20
111.0346661951
  0
VERTEX
  8
0
 62
7
  6
CONTINUOUS
 10
127.1723094594
 20
110.8872643669
  0
VERTEX
  8
0
 62
7
  6
CONTINUOUS
 10
127.2040497374
 20
110.7307296524
  0
VERTEX
  8
0
 62
7
  6
CONTINUOUS
 10
127.232385518
 20
110.5660784449
  0
VERTEX
  8
0
 62
7
  6
CONTINUOUS
 10
127.2571870846
 20
110.3943176649
  0
VERTEX
  8
0
 62
7
  6
CONTINUOUS
 10
127.2783458656
 20
110.2164624732
  0
VERTEX
  8
0
 62
7
  6
CONTINUOUS
 10
127.295773012
 20
110.0335314788
  0
VERTEX
  8
0
 62
7
  6
CONTINUOUS
 10
127.3093980815
 20
109.84654251
  0
VERTEX
  8
0
 62
7
  6
CONTINUOUS
 10
127.3191676278
 20
109.6565121919
  0
VERTEX
  8
0
 62
7
  6
CONTINUOUS
 10
127.3250441685
 20
109.4644569803
  0
VERTEX
  8
0
 62
7
  6
CONTINUOUS
 10
127.3270056114
 20
109.2713780919
  0
SEQEND
  0
POLYLINE
  8
0
 62
7
  6
CONTINUOUS
 66
1
 70
0
  0
VERTEX
  8
0
 62
7
  6
CONTINUOUS
 10
133.5891630171
 20
109.2713780919
  0
VERTEX
  8
0
 62
7
  6
CONTINUOUS
 10
133.5869276408
 20
109.4774784229
  0
VERTEX
  8
0
 62
7
  6
CONTINUOUS
 10
133.5802309643
 20
109.6823484659
  0
VERTEX
  8
0
 62
7
  6
CONTINUOUS
 10
133.569101601
 20
109.8847561102
  0
VERTEX
  8
0
 62
7
  6
CONTINUOUS
 10
133.5535880979
 20
110.0834658867
  0
VERTEX
  8
0
 62
7
  6
CONTINUOUS
 10
133.5337602265
 20
110.277238201
  0
VERTEX
  8
0
 62
7
  6
CONTINUOUS
 10
133.5097102816
 20
110.4648332884
  0
VERTEX
  8
0
 62
7
  6
CONTINUOUS
 10
133.4815551876
 20
110.6450113622
  0
VERTEX
  8
0
 62
7
  6
CONTINUOUS
 10
133.4494384831
 20
110.8165388129
  0
VERTEX
  8
0
 62
7
  6
CONTINUOUS
 10
133.4135322366
 20
110.9781966358
  0
VERTEX
  8
0
 62
7
  6
CONTINUOUS
 10
133.3740383389
 20
111.128792597
  0
VERTEX
  8
0
 62
7
  6
CONTINUOUS
 10
133.3311903643
 20
111.2671715566
  0
VERTEX
  8
0
 62
7
  6
CONTINUOUS
 10
133.2852542897
 20
111.3922312977
  0
VERTEX
  8
0
 62
7
  6
CONTINUOUS
 10
133.236528165
 20
111.5029403969
  0
VERTEX
  8
0
 62
7
  6
CONTINUOUS
 10
133.1853411561
 20
111.5983558736
  0
VERTEX
  8
0
 62
7
  6
CONTINUOUS
 10
133.132052043
 20
111.6776405065
  0
VERTEX
  8
0
 62
7
  6
CONTINUOUS
 10
133.0770463226
 20
111.7400807306
  0
VERTEX
  8
0
 62
7
  6
CONTINUOUS
 10
133.0207318877
 20
111.7851031995
  0
VERTEX
  8
0
 62
7
  6
CONTINUOUS
 10
132.9635345564
 20
111.8122878073
  0
VERTEX
  8
0
 62
7
  6
CONTINUOUS
 10
132.9058925764
 20
111.8213780919
  0
SEQEND
  0
POLYLINE
  8
0
 62
7
  6
CONTINUOUS
 66
1
 70
0
  0
VERTEX
  8
0
 62
7
  6
CONTINUOUS
 10
132.306898849
 20
109.0713780919
  0
VERTEX
  8
0
 62
7
  6
CONTINUOUS
 10
132.3088603039
 20
108.87829861
  0
VERTEX
  8
0
 62
7
  6
CONTINUOUS
 10
132.3147368728
 20
108.686243009
  0
VERTEX
  8
0
 62
7
  6
CONTINUOUS
 10
132.3245064522
 20
108.4962124914
  0
VERTEX
  8
0
 62
7
  6
CONTINUOUS
 10
132.338131551
 20
108.3092234818
  0
VERTEX
  8
0
 62
7
  6
CONTINUOUS
 10
132.3555587158
 20
108.1262925785
  0
VERTEX
  8
0
 62
7
  6
CONTINUOUS
 10
132.3767174964
 20
107.948437601
  0
VERTEX
  8
0
 62
7
  6
CONTINUOUS
 10
132.4015190365
 20
107.7766771428
  0
VERTEX
  8
0
 62
7
  6
CONTINUOUS
 10
132.4298547702
 20
107.6120262788
  0
VERTEX
  8
0
 62
7
  6
CONTINUOUS
 10
132.4615950052
 20
107.4554917976
  0
VERTEX
  8
0
 62
7
  6
CONTINUOUS
 10
132.4965813616
 20
107.3080899191
  0
SEQEND
  0
LINE
  8
0
 62
7
  6
CONTINUOUS
 10
132.306898849
 20
109.2713780919
 11
132.306898849
 21
109.0713780919
  0
LINE
  8
0
 62
7
  6
CONTINUOUS
 10
132.6669522302
 20
103.3713780919
 11
132.6669522302
 21
106.5809572439
  0
LINE
  8
0
 62
7
  6
CONTINUOUS
 10
132.6669522302
 20
111.7617989398
 11
132.6669522302
 21
114.9713780919
  0
LINE
  8
0
 62
7
  6
CONTINUOUS
 10
133.5891630171
 20
109.0713780919
 11
133.5891630171
 21
109.2713780919
  0
POLYLINE
  8
0
 62
7
  6
CONTINUOUS
 66
1
 70
0
  0
VERTEX
  8
0
 62
7
  6
CONTINUOUS
 10
132.6669522302
 20
111.7617989398
  0
VERTEX
  8
0
 62
7
  6
CONTINUOUS
 10
132.6638842644
 20
111.71669691
  0
VERTEX
  8
0
 62
7
  6
CONTINUOUS
 10
132.6548028161
 20
111.6586484453
  0
VERTEX
  8
0
 62
7
  6
CONTINUOUS
 10
132.6399365211
 20
111.5873821544
  0
VERTEX
  8
0
 62
7
  6
CONTINUOUS
 10
132.6196708842
 20
111.5029193746
  0
VERTEX
  8
0
 62
7
  6
CONTINUOUS
 10
132.5944648299
 20
111.4051154933
  0
SEQEND
  0
LINE
  8
0
 62
7
  6
CONTINUOUS
 10
166.4004496454
 20
102.7635254196
 11
166.4003693947
 21
102.7634829008
  0
LINE
  8
0
 62
7
  6
CONTINUOUS
 10
166.4005296784
 20
102.7635672007
 11
166.4023889403
 21
102.7645365883
  0
LINE
  8
0
 62
7
  6
CONTINUOUS
 10
166.4023889403
 20
102.7645365883
 11
166.4086212232
 21
102.7677465127
  0
LINE
  8
0
 62
7
  6
CONTINUOUS
 10
166.4086212232
 20
102.7677465127
 11
166.4180363174
 21
102.7725375204
  0
LINE
  8
0
 62
7
  6
CONTINUOUS
 10
166.4180363174
 20
102.7725375204
 11
166.4307442652
 21
102.7789292035
  0
LINE
  8
0
 62
7
  6
CONTINUOUS
 10
166.4307442652
 20
102.7789292035
 11
166.4466716337
 21
102.7868517091
  0
LINE
  8
0
 62
7
  6
CONTINUOUS
 10
166.4466716337
 20
102.7868517091
 11
166.4658249393
 21
102.7962638903
  0
LINE
  8
0
 62
7
  6
CONTINUOUS
 10
166.4658249393
 20
102.7962638903
 11
166.4886283411
 21
102.8073247232
  0
POLYLINE
  8
0
 62
7
  6
CONTINUOUS
 66
1
 70
0
  0
VERTEX
  8
0
 62
7
  6
CONTINUOUS
 10
166.4886283411
 20
102.8073247232
  0
VERTEX
  8
0
 62
7
  6
CONTINUOUS
 10
166.5154920684
 20
102.820162514
  0
VERTEX
  8
0
 62
7
  6
CONTINUOUS
 10
166.5254969927
 20
102.8248920649
  0
SEQEND
  0
LINE
  8
0
 62
7
  6
CONTINUOUS
 10
166.5266684324
 20
115.5173121413
 11
166.4985349472
 21
115.5306733016
  0
LINE
  8
0
 62
7
  6
CONTINUOUS
 10
166.4985349472
 20
115.5306733016
 11
166.4741243237
 21
115.5424491123
  0
LINE
  8
0
 62
7
  6
CONTINUOUS
 10
166.4741243237
 20
115.5424491123
 11
166.4532300639
 21
115.5526681317
  0
LINE
  8
0
 62
7
  6
CONTINUOUS
 10
166.4532300639
 20
115.5526681317
 11
166.4358030237
 21
115.5613007116
  0
LINE
  8
0
 62
7
  6
CONTINUOUS
 10
166.4358030237
 20
115.5613007116
 11
166.4216029135
 21
115.5684173488
  0
LINE
  8
0
 62
7
  6
CONTINUOUS
 10
166.4216029135
 20
115.5684173488
 11
166.4109412118
 21
115.5738235701
  0
LINE
  8
0
 62
7
  6
CONTINUOUS
 10
166.4109412118
 20
115.5738235701
 11
166.4035780298
 21
115.5776037127
  0
LINE
  8
0
 62
7
  6
CONTINUOUS
 10
166.4035780298
 20
115.5776037127
 11
166.4009467377
 21
115.5789705005
  0
LINE
  8
0
 62
7
  6
CONTINUOUS
 10
138.7447414433
 20
109.0713780919
 11
138.7447414433
 21
109.2713780919
  0
LINE
  8
0
 62
7
  6
CONTINUOUS
 10
139.6669522302
 20
103.3713780919
 11
139.6669522302
 21
106.5809572439
  0
LINE
  8
0
 62
7
  6
CONTINUOUS
 10
139.6669522302
 20
111.7617989398
 11
139.6669522302
 21
114.9713780919
  0
LINE
  8
0
 62
7
  6
CONTINUOUS
 10
140.0270056114
 20
109.2713780919
 11
140.0270056114
 21
109.0713780919
  0
POLYLINE
  8
0
 62
7
  6
CONTINUOUS
 66
1
 70
0
  0
VERTEX
  8
0
 62
7
  6
CONTINUOUS
 10
140.0270056114
 20
109.0713780919
  0
VERTEX
  8
0
 62
7
  6
CONTINUOUS
 10
140.0250441564
 20
108.87829861
  0
VERTEX
  8
0
 62
7
  6
CONTINUOUS
 10
140.0191675876
 20
108.686243009
  0
VERTEX
  8
0
 62
7
  6
CONTINUOUS
 10
140.0093980081
 20
108.4962124914
  0
VERTEX
  8
0
 62
7
  6
CONTINUOUS
 10
139.9957729094
 20
108.3092234818
  0
VERTEX
  8
0
 62
7
  6
CONTINUOUS
 10
139.9783457446
 20
108.1262925785
  0
VERTEX
  8
0
 62
7
  6
CONTINUOUS
 10
139.9571869639
 20
107.948437601
  0
VERTEX
  8
0
 62
7
  6
CONTINUOUS
 10
139.9323854239
 20
107.7766771428
  0
VERTEX
  8
0
 62
7
  6
CONTINUOUS
 10
139.9040496902
 20
107.6120262788
  0
VERTEX
  8
0
 62
7
  6
CONTINUOUS
 10
139.8723094552
 20
107.4554917976
  0
VERTEX
  8
0
 62
7
  6
CONTINUOUS
 10
139.8373230767
 20
107.3080898262
  0
SEQEND
  0
POLYLINE
  8
0
 62
7
  6
CONTINUOUS
 66
1
 70
0
  0
VERTEX
  8
0
 62
7
  6
CONTINUOUS
 10
138.7447414433
 20
109.2713780919
  0
VERTEX
  8
0
 62
7
  6
CONTINUOUS
 10
138.7469768196
 20
109.4774784229
  0
VERTEX
  8
0
 62
7
  6
CONTINUOUS
 10
138.7536734961
 20
109.6823484659
  0
VERTEX
  8
0
 62
7
  6
CONTINUOUS
 10
138.7648028594
 20
109.8847561102
  0
VERTEX
  8
0
 62
7
  6
CONTINUOUS
 10
138.7803163625
 20
110.0834658867
  0
VERTEX
  8
0
 62
7
  6
CONTINUOUS
 10
138.8001442339
 20
110.277238201
  0
VERTEX
  8
0
 62
7
  6
CONTINUOUS
 10
138.8241941787
 20
110.4648332884
  0
VERTEX
  8
0
 62
7
  6
CONTINUOUS
 10
138.8523492728
 20
110.6450113622
  0
VERTEX
  8
0
 62
7
  6
CONTINUOUS
 10
138.8844659772
 20
110.8165388129
  0
VERTEX
  8
0
 62
7
  6
CONTINUOUS
 10
138.9203722238
 20
110.9781966358
  0
VERTEX
  8
0
 62
7
  6
CONTINUOUS
 10
138.9598661215
 20
111.128792597
  0
VERTEX
  8
0
 62
7
  6
CONTINUOUS
 10
139.0027140961
 20
111.2671715566
  0
VERTEX
  8
0
 62
7
  6
CONTINUOUS
 10
139.0486501706
 20
111.3922312977
  0
VERTEX
  8
0
 62
7
  6
CONTINUOUS
 10
139.0973762954
 20
111.5029403969
  0
VERTEX
  8
0
 62
7
  6
CONTINUOUS
 10
139.1485633043
 20
111.5983558736
  0
VERTEX
  8
0
 62
7
  6
CONTINUOUS
 10
139.2018524174
 20
111.6776405065
  0
VERTEX
  8
0
 62
7
  6
CONTINUOUS
 10
139.2568581378
 20
111.7400807306
  0
VERTEX
  8
0
 62
7
  6
CONTINUOUS
 10
139.3131725727
 20
111.7851031995
  0
VERTEX
  8
0
 62
7
  6
CONTINUOUS
 10
139.3703699039
 20
111.8122878073
  0
VERTEX
  8
0
 62
7
  6
CONTINUOUS
 10
139.428011884
 20
111.8213780919
  0
SEQEND
  0
POLYLINE
  8
0
 62
7
  6
CONTINUOUS
 66
1
 70
0
  0
VERTEX
  8
0
 62
7
  6
CONTINUOUS
 10
139.6669522302
 20
106.5809572439
  0
VERTEX
  8
0
 62
7
  6
CONTINUOUS
 10
139.6700209298
 20
106.6260654649
  0
VERTEX
  8
0
 62
7
  6
CONTINUOUS
 10
139.6791026403
 20
106.6841130933
  0
VERTEX
  8
0
 62
7
  6
CONTINUOUS
 10
139.6939667594
 20
106.7553688212
  0
VERTEX
  8
0
 62
7
  6
CONTINUOUS
 10
139.7142300718
 20
106.8398228182
  0
VERTEX
  8
0
 62
7
  6
CONTINUOUS
 10
139.7394354848
 20
106.9376249321
  0
SEQEND
  0
POLYLINE
  8
0
 62
7
  6
CONTINUOUS
 66
1
 70
0
  0
VERTEX
  8
0
 62
7
  6
CONTINUOUS
 10
139.7394354848
 20
106.9376249321
  0
VERTEX
  8
0
 62
7
  6
CONTINUOUS
 10
139.8018663558
 20
107.1722094878
  0
VERTEX
  8
0
 62
7
  6
CONTINUOUS
 10
139.8373231421
 20
107.3080900956
  0
SEQEND
  0
POLYLINE
  8
0
 62
7
  6
CONTINUOUS
 66
1
 70
0
  0
VERTEX
  8
0
 62
7
  6
CONTINUOUS
 10
139.8018667465
 20
111.1705452197
  0
VERTEX
  8
0
 62
7
  6
CONTINUOUS
 10
139.7394359099
 20
111.4051296357
  0
VERTEX
  8
0
 62
7
  6
CONTINUOUS
 10
139.7142306402
 20
111.5029310965
  0
VERTEX
  8
0
 62
7
  6
CONTINUOUS
 10
139.6939670974
 20
111.5873858707
  0
VERTEX
  8
0
 62
7
  6
CONTINUOUS
 10
139.679102641
 20
111.6586430863
  0
VERTEX
  8
0
 62
7
  6
CONTINUOUS
 10
139.6700208667
 20
111.7166912512
  0
VERTEX
  8
0
 62
7
  6
CONTINUOUS
 10
139.6669522302
 20
111.7617989398
  0
SEQEND
  0
LINE
  8
0
 62
7
  6
CONTINUOUS
 10
139.8373230987
 20
111.0346662646
 11
139.8018667465
 21
111.1705452197
  0
POLYLINE
  8
0
 62
7
  6
CONTINUOUS
 66
1
 70
0
  0
VERTEX
  8
0
 62
7
  6
CONTINUOUS
 10
139.8373230987
 20
111.0346662646
  0
VERTEX
  8
0
 62
7
  6
CONTINUOUS
 10
139.8723094594
 20
110.8872643669
  0
VERTEX
  8
0
 62
7
  6
CONTINUOUS
 10
139.9040497374
 20
110.7307296524
  0
VERTEX
  8
0
 62
7
  6
CONTINUOUS
 10
139.932385518
 20
110.5660784449
  0
VERTEX
  8
0
 62
7
  6
CONTINUOUS
 10
139.9571870846
 20
110.3943176649
  0
VERTEX
  8
0
 62
7
  6
CONTINUOUS
 10
139.9783458656
 20
110.2164624732
  0
VERTEX
  8
0
 62
7
  6
CONTINUOUS
 10
139.995773012
 20
110.0335314788
  0
VERTEX
  8
0
 62
7
  6
CONTINUOUS
 10
140.0093980815
 20
109.84654251
  0
VERTEX
  8
0
 62
7
  6
CONTINUOUS
 10
140.0191676278
 20
109.6565121919
  0
VERTEX
  8
0
 62
7
  6
CONTINUOUS
 10
140.0250441685
 20
109.4644569803
  0
VERTEX
  8
0
 62
7
  6
CONTINUOUS
 10
140.0270056114
 20
109.2713780919
  0
SEQEND
  0
POLYLINE
  8
0
 62
7
  6
CONTINUOUS
 66
1
 70
0
  0
VERTEX
  8
0
 62
7
  6
CONTINUOUS
 10
146.2891630171
 20
109.2713780919
  0
VERTEX
  8
0
 62
7
  6
CONTINUOUS
 10
146.2869276408
 20
109.4774784229
  0
VERTEX
  8
0
 62
7
  6
CONTINUOUS
 10
146.2802309643
 20
109.6823484659
  0
VERTEX
  8
0
 62
7
  6
CONTINUOUS
 10
146.269101601
 20
109.8847561102
  0
VERTEX
  8
0
 62
7
  6
CONTINUOUS
 10
146.2535880979
 20
110.0834658867
  0
VERTEX
  8
0
 62
7
  6
CONTINUOUS
 10
146.2337602265
 20
110.277238201
  0
VERTEX
  8
0
 62
7
  6
CONTINUOUS
 10
146.2097102816
 20
110.4648332884
  0
VERTEX
  8
0
 62
7
  6
CONTINUOUS
 10
146.1815551876
 20
110.6450113622
  0
VERTEX
  8
0
 62
7
  6
CONTINUOUS
 10
146.1494384831
 20
110.8165388129
  0
VERTEX
  8
0
 62
7
  6
CONTINUOUS
 10
146.1135322366
 20
110.9781966358
  0
VERTEX
  8
0
 62
7
  6
CONTINUOUS
 10
146.0740383389
 20
111.128792597
  0
VERTEX
  8
0
 62
7
  6
CONTINUOUS
 10
146.0311903643
 20
111.2671715566
  0
VERTEX
  8
0
 62
7
  6
CONTINUOUS
 10
145.9852542897
 20
111.3922312977
  0
VERTEX
  8
0
 62
7
  6
CONTINUOUS
 10
145.936528165
 20
111.5029403969
  0
VERTEX
  8
0
 62
7
  6
CONTINUOUS
 10
145.8853411561
 20
111.5983558736
  0
VERTEX
  8
0
 62
7
  6
CONTINUOUS
 10
145.832052043
 20
111.6776405065
  0
VERTEX
  8
0
 62
7
  6
CONTINUOUS
 10
145.7770463226
 20
111.7400807306
  0
VERTEX
  8
0
 62
7
  6
CONTINUOUS
 10
145.7207318877
 20
111.7851031995
  0
VERTEX
  8
0
 62
7
  6
CONTINUOUS
 10
145.6635345564
 20
111.8122878073
  0
VERTEX
  8
0
 62
7
  6
CONTINUOUS
 10
145.6058925764
 20
111.8213780919
  0
SEQEND
  0
POLYLINE
  8
0
 62
7
  6
CONTINUOUS
 66
1
 70
0
  0
VERTEX
  8
0
 62
7
  6
CONTINUOUS
 10
145.006898849
 20
109.0713780919
  0
VERTEX
  8
0
 62
7
  6
CONTINUOUS
 10
145.0088603039
 20
108.87829861
  0
VERTEX
  8
0
 62
7
  6
CONTINUOUS
 10
145.0147368728
 20
108.686243009
  0
VERTEX
  8
0
 62
7
  6
CONTINUOUS
 10
145.0245064522
 20
108.4962124914
  0
VERTEX
  8
0
 62
7
  6
CONTINUOUS
 10
145.038131551
 20
108.3092234818
  0
VERTEX
  8
0
 62
7
  6
CONTINUOUS
 10
145.0555587158
 20
108.1262925785
  0
VERTEX
  8
0
 62
7
  6
CONTINUOUS
 10
145.0767174964
 20
107.948437601
  0
VERTEX
  8
0
 62
7
  6
CONTINUOUS
 10
145.1015190365
 20
107.7766771428
  0
VERTEX
  8
0
 62
7
  6
CONTINUOUS
 10
145.1298547702
 20
107.6120262788
  0
VERTEX
  8
0
 62
7
  6
CONTINUOUS
 10
145.1615950052
 20
107.4554917976
  0
VERTEX
  8
0
 62
7
  6
CONTINUOUS
 10
145.1965813616
 20
107.3080899191
  0
SEQEND
  0
LINE
  8
0
 62
7
  6
CONTINUOUS
 10
145.006898849
 20
109.2713780919
 11
145.006898849
 21
109.0713780919
  0
LINE
  8
0
 62
7
  6
CONTINUOUS
 10
145.3669522302
 20
103.3713780919
 11
145.3669522302
 21
106.5809572439
  0
LINE
  8
0
 62
7
  6
CONTINUOUS
 10
145.3669522302
 20
111.7617989398
 11
145.3669522302
 21
114.9713780919
  0
LINE
  8
0
 62
7
  6
CONTINUOUS
 10
146.2891630171
 20
109.0713780919
 11
146.2891630171
 21
109.2713780919
  0
POLYLINE
  8
0
 62
7
  6
CONTINUOUS
 66
1
 70
0
  0
VERTEX
  8
0
 62
7
  6
CONTINUOUS
 10
145.3669522302
 20
111.7617989398
  0
VERTEX
  8
0
 62
7
  6
CONTINUOUS
 10
145.3638842644
 20
111.71669691
  0
VERTEX
  8
0
 62
7
  6
CONTINUOUS
 10
145.3548028161
 20
111.6586484453
  0
VERTEX
  8
0
 62
7
  6
CONTINUOUS
 10
145.3399365211
 20
111.5873821544
  0
VERTEX
  8
0
 62
7
  6
CONTINUOUS
 10
145.3196708842
 20
111.5029193746
  0
VERTEX
  8
0
 62
7
  6
CONTINUOUS
 10
145.2944648299
 20
111.4051154933
  0
SEQEND
  0
POLYLINE
  8
0
 62
7
  6
CONTINUOUS
 66
1
 70
0
  0
VERTEX
  8
0
 62
7
  6
CONTINUOUS
 10
145.1965813616
 20
111.0346662646
  0
VERTEX
  8
0
 62
7
  6
CONTINUOUS
 10
145.161595001
 20
110.8872643669
  0
VERTEX
  8
0
 62
7
  6
CONTINUOUS
 10
145.1298547229
 20
110.7307296524
  0
VERTEX
  8
0
 62
7
  6
CONTINUOUS
 10
145.1015189424
 20
110.5660784449
  0
VERTEX
  8
0
 62
7
  6
CONTINUOUS
 10
145.0767173758
 20
110.3943176649
  0
VERTEX
  8
0
 62
7
  6
CONTINUOUS
 10
145.0555585947
 20
110.2164624732
  0
VERTEX
  8
0
 62
7
  6
CONTINUOUS
 10
145.0381314483
 20
110.0335314788
  0
VERTEX
  8
0
 62
7
  6
CONTINUOUS
 10
145.0245063789
 20
109.84654251
  0
VERTEX
  8
0
 62
7
  6
CONTINUOUS
 10
145.0147368326
 20
109.6565121919
  0
VERTEX
  8
0
 62
7
  6
CONTINUOUS
 10
145.0088602919
 20
109.4644569803
  0
VERTEX
  8
0
 62
7
  6
CONTINUOUS
 10
145.006898849
 20
109.2713780919
  0
SEQEND
  0
POLYLINE
  8
0
 62
7
  6
CONTINUOUS
 66
1
 70
0
  0
VERTEX
  8
0
 62
7
  6
CONTINUOUS
 10
145.2944648299
 20
111.4051154933
  0
VERTEX
  8
0
 62
7
  6
CONTINUOUS
 10
145.2320320354
 20
111.1705237635
  0
VERTEX
  8
0
 62
7
  6
CONTINUOUS
 10
145.1965813616
 20
111.0346662646
  0
SEQEND
  0
POLYLINE
  8
0
 62
7
  6
CONTINUOUS
 66
1
 70
0
  0
VERTEX
  8
0
 62
7
  6
CONTINUOUS
 10
145.2320324
 20
107.1722310427
  0
VERTEX
  8
0
 62
7
  6
CONTINUOUS
 10
145.2944652441
 20
106.937639116
  0
VERTEX
  8
0
 62
7
  6
CONTINUOUS
 10
145.3196714556
 20
106.8398345276
  0
VERTEX
  8
0
 62
7
  6
CONTINUOUS
 10
145.3399368608
 20
106.7553725299
  0
VERTEX
  8
0
 62
7
  6
CONTINUOUS
 10
145.3548028204
 20
106.6841077155
  0
VERTEX
  8
0
 62
7
  6
CONTINUOUS
 10
145.3638841969
 20
106.626059843
  0
VERTEX
  8
0
 62
7
  6
CONTINUOUS
 10
145.3669522302
 20
106.5809572439
  0
SEQEND
  0
LINE
  8
0
 62
7
  6
CONTINUOUS
 10
145.1965813616
 20
107.3080899191
 11
145.2320324
 21
107.1722310427
  0
LINE
  8
0
 62
7
  6
CONTINUOUS
 10
151.4447414433
 20
109.0713780919
 11
151.4447414433
 21
109.2713780919
  0
POLYLINE
  8
0
 62
7
  6
CONTINUOUS
 66
1
 70
0
  0
VERTEX
  8
0
 62
7
  6
CONTINUOUS
 10
151.4447414433
 20
109.2713780919
  0
VERTEX
  8
0
 62
7
  6
CONTINUOUS
 10
151.4469768196
 20
109.4774784229
  0
VERTEX
  8
0
 62
7
  6
CONTINUOUS
 10
151.4536734961
 20
109.6823484659
  0
VERTEX
  8
0
 62
7
  6
CONTINUOUS
 10
151.4648028594
 20
109.8847561102
  0
VERTEX
  8
0
 62
7
  6
CONTINUOUS
 10
151.4803163625
 20
110.0834658867
  0
VERTEX
  8
0
 62
7
  6
CONTINUOUS
 10
151.5001442339
 20
110.277238201
  0
VERTEX
  8
0
 62
7
  6
CONTINUOUS
 10
151.5241941787
 20
110.4648332884
  0
VERTEX
  8
0
 62
7
  6
CONTINUOUS
 10
151.5523492728
 20
110.6450113622
  0
VERTEX
  8
0
 62
7
  6
CONTINUOUS
 10
151.5844659772
 20
110.8165388129
  0
VERTEX
  8
0
 62
7
  6
CONTINUOUS
 10
151.6203722238
 20
110.9781966358
  0
VERTEX
  8
0
 62
7
  6
CONTINUOUS
 10
151.6598661215
 20
111.128792597
  0
VERTEX
  8
0
 62
7
  6
CONTINUOUS
 10
151.7027140961
 20
111.2671715566
  0
VERTEX
  8
0
 62
7
  6
CONTINUOUS
 10
151.7486501706
 20
111.3922312977
  0
VERTEX
  8
0
 62
7
  6
CONTINUOUS
 10
151.7973762954
 20
111.5029403969
  0
VERTEX
  8
0
 62
7
  6
CONTINUOUS
 10
151.8485633043
 20
111.5983558736
  0
VERTEX
  8
0
 62
7
  6
CONTINUOUS
 10
151.9018524174
 20
111.6776405065
  0
VERTEX
  8
0
 62
7
  6
CONTINUOUS
 10
151.9568581378
 20
111.7400807306
  0
VERTEX
  8
0
 62
7
  6
CONTINUOUS
 10
152.0131725727
 20
111.7851031995
  0
VERTEX
  8
0
 62
7
  6
CONTINUOUS
 10
152.0703699039
 20
111.8122878073
  0
VERTEX
  8
0
 62
7
  6
CONTINUOUS
 10
152.128011884
 20
111.8213780919
  0
SEQEND
  0
POLYLINE
  8
0
 62
7
  6
CONTINUOUS
 66
1
 70
0
  0
VERTEX
  8
0
 62
7
  6
CONTINUOUS
 10
152.4394354848
 20
106.9376249321
  0
VERTEX
  8
0
 62
7
  6
CONTINUOUS
 10
152.5018663558
 20
107.1722094878
  0
VERTEX
  8
0
 62
7
  6
CONTINUOUS
 10
152.5373231421
 20
107.3080900956
  0
SEQEND
  0
POLYLINE
  8
0
 62
7
  6
CONTINUOUS
 66
1
 70
0
  0
VERTEX
  8
0
 62
7
  6
CONTINUOUS
 10
152.5018667465
 20
111.1705452197
  0
VERTEX
  8
0
 62
7
  6
CONTINUOUS
 10
152.4394359099
 20
111.4051296357
  0
VERTEX
  8
0
 62
7
  6
CONTINUOUS
 10
152.4142306402
 20
111.5029310965
  0
VERTEX
  8
0
 62
7
  6
CONTINUOUS
 10
152.3939670974
 20
111.5873858707
  0
VERTEX
  8
0
 62
7
  6
CONTINUOUS
 10
152.379102641
 20
111.6586430863
  0
VERTEX
  8
0
 62
7
  6
CONTINUOUS
 10
152.3700208667
 20
111.7166912512
  0
VERTEX
  8
0
 62
7
  6
CONTINUOUS
 10
152.3669522302
 20
111.7617989398
  0
SEQEND
  0
LINE
  8
0
 62
7
  6
CONTINUOUS
 10
152.5373230987
 20
111.0346662646
 11
152.5018667465
 21
111.1705452197
  0
POLYLINE
  8
0
 62
7
  6
CONTINUOUS
 66
1
 70
0
  0
VERTEX
  8
0
 62
7
  6
CONTINUOUS
 10
152.5373230987
 20
111.0346662646
  0
VERTEX
  8
0
 62
7
  6
CONTINUOUS
 10
152.5723094594
 20
110.8872643669
  0
VERTEX
  8
0
 62
7
  6
CONTINUOUS
 10
152.6040497374
 20
110.7307296524
  0
VERTEX
  8
0
 62
7
  6
CONTINUOUS
 10
152.632385518
 20
110.5660784449
  0
VERTEX
  8
0
 62
7
  6
CONTINUOUS
 10
152.6571870846
 20
110.3943176649
  0
VERTEX
  8
0
 62
7
  6
CONTINUOUS
 10
152.6783458656
 20
110.2164624732
  0
VERTEX
  8
0
 62
7
  6
CONTINUOUS
 10
152.695773012
 20
110.0335314788
  0
VERTEX
  8
0
 62
7
  6
CONTINUOUS
 10
152.7093980815
 20
109.84654251
  0
VERTEX
  8
0
 62
7
  6
CONTINUOUS
 10
152.7191676278
 20
109.6565121919
  0
VERTEX
  8
0
 62
7
  6
CONTINUOUS
 10
152.7250441685
 20
109.4644569803
  0
VERTEX
  8
0
 62
7
  6
CONTINUOUS
 10
152.7270056114
 20
109.2713780919
  0
SEQEND
  0
LINE
  8
0
 62
7
  6
CONTINUOUS
 10
152.3669522302
 20
103.3713780919
 11
152.3669522302
 21
106.5809572439
  0
LINE
  8
0
 62
7
  6
CONTINUOUS
 10
152.3669522302
 20
111.7617989398
 11
152.3669522302
 21
114.9713780919
  0
LINE
  8
0
 62
7
  6
CONTINUOUS
 10
152.7270056114
 20
109.2713780919
 11
152.7270056114
 21
109.0713780919
  0
POLYLINE
  8
0
 62
7
  6
CONTINUOUS
 66
1
 70
0
  0
VERTEX
  8
0
 62
7
  6
CONTINUOUS
 10
152.7270056114
 20
109.0713780919
  0
VERTEX
  8
0
 62
7
  6
CONTINUOUS
 10
152.7250441564
 20
108.87829861
  0
VERTEX
  8
0
 62
7
  6
CONTINUOUS
 10
152.7191675876
 20
108.686243009
  0
VERTEX
  8
0
 62
7
  6
CONTINUOUS
 10
152.7093980081
 20
108.4962124914
  0
VERTEX
  8
0
 62
7
  6
CONTINUOUS
 10
152.6957729094
 20
108.3092234818
  0
VERTEX
  8
0
 62
7
  6
CONTINUOUS
 10
152.6783457446
 20
108.1262925785
  0
VERTEX
  8
0
 62
7
  6
CONTINUOUS
 10
152.6571869639
 20
107.948437601
  0
VERTEX
  8
0
 62
7
  6
CONTINUOUS
 10
152.6323854239
 20
107.7766771428
  0
VERTEX
  8
0
 62
7
  6
CONTINUOUS
 10
152.6040496902
 20
107.6120262788
  0
VERTEX
  8
0
 62
7
  6
CONTINUOUS
 10
152.5723094552
 20
107.4554917976
  0
VERTEX
  8
0
 62
7
  6
CONTINUOUS
 10
152.5373230767
 20
107.3080898262
  0
SEQEND
  0
POLYLINE
  8
0
 62
7
  6
CONTINUOUS
 66
1
 70
0
  0
VERTEX
  8
0
 62
7
  6
CONTINUOUS
 10
152.3669522302
 20
106.5809572439
  0
VERTEX
  8
0
 62
7
  6
CONTINUOUS
 10
152.3700209298
 20
106.6260654649
  0
VERTEX
  8
0
 62
7
  6
CONTINUOUS
 10
152.3791026403
 20
106.6841130933
  0
VERTEX
  8
0
 62
7
  6
CONTINUOUS
 10
152.3939667594
 20
106.7553688212
  0
VERTEX
  8
0
 62
7
  6
CONTINUOUS
 10
152.4142300718
 20
106.8398228182
  0
VERTEX
  8
0
 62
7
  6
CONTINUOUS
 10
152.4394354848
 20
106.9376249321
  0
SEQEND
  0
POLYLINE
  8
0
 62
7
  6
CONTINUOUS
 66
1
 70
0
  0
VERTEX
  8
0
 62
7
  6
CONTINUOUS
 10
157.8965813616
 20
111.0346662646
  0
VERTEX
  8
0
 62
7
  6
CONTINUOUS
 10
157.861595001
 20
110.8872643669
  0
VERTEX
  8
0
 62
7
  6
CONTINUOUS
 10
157.8298547229
 20
110.7307296524
  0
VERTEX
  8
0
 62
7
  6
CONTINUOUS
 10
157.8015189424
 20
110.5660784449
  0
VERTEX
  8
0
 62
7
  6
CONTINUOUS
 10
157.7767173758
 20
110.3943176649
  0
VERTEX
  8
0
 62
7
  6
CONTINUOUS
 10
157.7555585947
 20
110.2164624732
  0
VERTEX
  8
0
 62
7
  6
CONTINUOUS
 10
157.7381314483
 20
110.0335314788
  0
VERTEX
  8
0
 62
7
  6
CONTINUOUS
 10
157.7245063789
 20
109.84654251
  0
VERTEX
  8
0
 62
7
  6
CONTINUOUS
 10
157.7147368326
 20
109.6565121919
  0
VERTEX
  8
0
 62
7
  6
CONTINUOUS
 10
157.7088602919
 20
109.4644569803
  0
VERTEX
  8
0
 62
7
  6
CONTINUOUS
 10
157.706898849
 20
109.2713780919
  0
SEQEND
  0
POLYLINE
  8
0
 62
7
  6
CONTINUOUS
 66
1
 70
0
  0
VERTEX
  8
0
 62
7
  6
CONTINUOUS
 10
157.9944648299
 20
111.4051154933
  0
VERTEX
  8
0
 62
7
  6
CONTINUOUS
 10
157.9320320354
 20
111.1705237635
  0
VERTEX
  8
0
 62
7
  6
CONTINUOUS
 10
157.8965813616
 20
111.0346662646
  0
SEQEND
  0
POLYLINE
  8
0
 62
7
  6
CONTINUOUS
 66
1
 70
0
  0
VERTEX
  8
0
 62
7
  6
CONTINUOUS
 10
157.9320324
 20
107.1722310427
  0
VERTEX
  8
0
 62
7
  6
CONTINUOUS
 10
157.9944652441
 20
106.937639116
  0
VERTEX
  8
0
 62
7
  6
CONTINUOUS
 10
158.0196714556
 20
106.8398345276
  0
VERTEX
  8
0
 62
7
  6
CONTINUOUS
 10
158.0399368608
 20
106.7553725299
  0
VERTEX
  8
0
 62
7
  6
CONTINUOUS
 10
158.0548028204
 20
106.6841077155
  0
VERTEX
  8
0
 62
7
  6
CONTINUOUS
 10
158.0638841969
 20
106.626059843
  0
VERTEX
  8
0
 62
7
  6
CONTINUOUS
 10
158.0669522302
 20
106.5809572439
  0
SEQEND
  0
LINE
  8
0
 62
7
  6
CONTINUOUS
 10
157.8965813616
 20
107.3080899191
 11
157.9320324
 21
107.1722310427
  0
POLYLINE
  8
0
 62
7
  6
CONTINUOUS
 66
1
 70
0
  0
VERTEX
  8
0
 62
7
  6
CONTINUOUS
 10
158.9891630171
 20
109.2713780919
  0
VERTEX
  8
0
 62
7
  6
CONTINUOUS
 10
158.9869276408
 20
109.4774784229
  0
VERTEX
  8
0
 62
7
  6
CONTINUOUS
 10
158.9802309643
 20
109.6823484659
  0
VERTEX
  8
0
 62
7
  6
CONTINUOUS
 10
158.969101601
 20
109.8847561102
  0
VERTEX
  8
0
 62
7
  6
CONTINUOUS
 10
158.9535880979
 20
110.0834658867
  0
VERTEX
  8
0
 62
7
  6
CONTINUOUS
 10
158.9337602265
 20
110.277238201
  0
VERTEX
  8
0
 62
7
  6
CONTINUOUS
 10
158.9097102816
 20
110.4648332884
  0
VERTEX
  8
0
 62
7
  6
CONTINUOUS
 10
158.8815551876
 20
110.6450113622
  0
VERTEX
  8
0
 62
7
  6
CONTINUOUS
 10
158.8494384831
 20
110.8165388129
  0
VERTEX
  8
0
 62
7
  6
CONTINUOUS
 10
158.8135322366
 20
110.9781966358
  0
VERTEX
  8
0
 62
7
  6
CONTINUOUS
 10
158.7740383389
 20
111.128792597
  0
VERTEX
  8
0
 62
7
  6
CONTINUOUS
 10
158.7311903643
 20
111.2671715566
  0
VERTEX
  8
0
 62
7
  6
CONTINUOUS
 10
158.6852542897
 20
111.3922312977
  0
VERTEX
  8
0
 62
7
  6
CONTINUOUS
 10
158.636528165
 20
111.5029403969
  0
VERTEX
  8
0
 62
7
  6
CONTINUOUS
 10
158.5853411561
 20
111.5983558736
  0
VERTEX
  8
0
 62
7
  6
CONTINUOUS
 10
158.532052043
 20
111.6776405065
  0
VERTEX
  8
0
 62
7
  6
CONTINUOUS
 10
158.4770463226
 20
111.7400807306
  0
VERTEX
  8
0
 62
7
  6
CONTINUOUS
 10
158.4207318877
 20
111.7851031995
  0
VERTEX
  8
0
 62
7
  6
CONTINUOUS
 10
158.3635345564
 20
111.8122878073
  0
VERTEX
  8
0
 62
7
  6
CONTINUOUS
 10
158.3058925764
 20
111.8213780919
  0
SEQEND
  0
POLYLINE
  8
0
 62
7
  6
CONTINUOUS
 66
1
 70
0
  0
VERTEX
  8
0
 62
7
  6
CONTINUOUS
 10
157.706898849
 20
109.0713780919
  0
VERTEX
  8
0
 62
7
  6
CONTINUOUS
 10
157.7088603039
 20
108.87829861
  0
VERTEX
  8
0
 62
7
  6
CONTINUOUS
 10
157.7147368728
 20
108.686243009
  0
VERTEX
  8
0
 62
7
  6
CONTINUOUS
 10
157.7245064522
 20
108.4962124914
  0
VERTEX
  8
0
 62
7
  6
CONTINUOUS
 10
157.738131551
 20
108.3092234818
  0
VERTEX
  8
0
 62
7
  6
CONTINUOUS
 10
157.7555587158
 20
108.1262925785
  0
VERTEX
  8
0
 62
7
  6
CONTINUOUS
 10
157.7767174964
 20
107.948437601
  0
VERTEX
  8
0
 62
7
  6
CONTINUOUS
 10
157.8015190365
 20
107.7766771428
  0
VERTEX
  8
0
 62
7
  6
CONTINUOUS
 10
157.8298547702
 20
107.6120262788
  0
VERTEX
  8
0
 62
7
  6
CONTINUOUS
 10
157.8615950052
 20
107.4554917976
  0
VERTEX
  8
0
 62
7
  6
CONTINUOUS
 10
157.8965813616
 20
107.3080899191
  0
SEQEND
  0
LINE
  8
0
 62
7
  6
CONTINUOUS
 10
157.706898849
 20
109.2713780919
 11
157.706898849
 21
109.0713780919
  0
LINE
  8
0
 62
7
  6
CONTINUOUS
 10
158.0669522302
 20
103.3713780919
 11
158.0669522302
 21
106.5809572439
  0
LINE
  8
0
 62
7
  6
CONTINUOUS
 10
158.0669522302
 20
111.7617989398
 11
158.0669522302
 21
114.9713780919
  0
LINE
  8
0
 62
7
  6
CONTINUOUS
 10
158.9891630171
 20
109.0713780919
 11
158.9891630171
 21
109.2713780919
  0
POLYLINE
  8
0
 62
7
  6
CONTINUOUS
 66
1
 70
0
  0
VERTEX
  8
0
 62
7
  6
CONTINUOUS
 10
158.0669522302
 20
111.7617989398
  0
VERTEX
  8
0
 62
7
  6
CONTINUOUS
 10
158.0638842644
 20
111.71669691
  0
VERTEX
  8
0
 62
7
  6
CONTINUOUS
 10
158.0548028161
 20
111.6586484453
  0
VERTEX
  8
0
 62
7
  6
CONTINUOUS
 10
158.0399365211
 20
111.5873821544
  0
VERTEX
  8
0
 62
7
  6
CONTINUOUS
 10
158.0196708842
 20
111.5029193746
  0
VERTEX
  8
0
 62
7
  6
CONTINUOUS
 10
157.9944648299
 20
111.4051154933
  0
SEQEND
  0
POLYLINE
  8
0
 62
7
  6
CONTINUOUS
 66
1
 70
0
  0
VERTEX
  8
0
 62
7
  6
CONTINUOUS
 10
170.556898849
 20
109.0713780919
  0
VERTEX
  8
0
 62
7
  6
CONTINUOUS
 10
170.5588603039
 20
108.87829861
  0
VERTEX
  8
0
 62
7
  6
CONTINUOUS
 10
170.5647368728
 20
108.686243009
  0
VERTEX
  8
0
 62
7
  6
CONTINUOUS
 10
170.5745064522
 20
108.4962124914
  0
VERTEX
  8
0
 62
7
  6
CONTINUOUS
 10
170.588131551
 20
108.3092234818
  0
VERTEX
  8
0
 62
7
  6
CONTINUOUS
 10
170.6055587158
 20
108.1262925785
  0
VERTEX
  8
0
 62
7
  6
CONTINUOUS
 10
170.6267174964
 20
107.948437601
  0
VERTEX
  8
0
 62
7
  6
CONTINUOUS
 10
170.6515190365
 20
107.7766771428
  0
VERTEX
  8
0
 62
7
  6
CONTINUOUS
 10
170.6798547702
 20
107.6120262788
  0
VERTEX
  8
0
 62
7
  6
CONTINUOUS
 10
170.7115950052
 20
107.4554917976
  0
VERTEX
  8
0
 62
7
  6
CONTINUOUS
 10
170.7465813616
 20
107.3080899191
  0
SEQEND
  0
LINE
  8
0
 62
7
  6
CONTINUOUS
 10
164.1447414433
 20
109.0713780919
 11
164.1447414433
 21
109.2713780919
  0
LINE
  8
0
 62
7
  6
CONTINUOUS
 10
165.0669522302
 20
103.3713780919
 11
165.0669522302
 21
106.5809572439
  0
LINE
  8
0
 62
7
  6
CONTINUOUS
 10
165.0669522302
 20
111.7617989398
 11
165.0669522302
 21
114.9713780919
  0
LINE
  8
0
 62
7
  6
CONTINUOUS
 10
165.4270056114
 20
109.2713780919
 11
165.4270056114
 21
109.0713780919
  0
LINE
  8
0
 62
7
  6
CONTINUOUS
 10
170.556898849
 20
109.2713780919
 11
170.556898849
 21
109.0713780919
  0
LINE
  8
0
 62
7
  6
CONTINUOUS
 10
170.9169522302
 20
103.3713780919
 11
170.9169522302
 21
106.6854820338
  0
LINE
  8
0
 62
7
  6
CONTINUOUS
 10
170.9169522302
 20
111.65727415
 11
170.9169522302
 21
114.9713780919
  0
POLYLINE
  8
0
 62
7
  6
CONTINUOUS
 66
1
 70
0
  0
VERTEX
  8
0
 62
7
  6
CONTINUOUS
 10
165.4270056114
 20
109.0713780919
  0
VERTEX
  8
0
 62
7
  6
CONTINUOUS
 10
165.4250441564
 20
108.87829861
  0
VERTEX
  8
0
 62
7
  6
CONTINUOUS
 10
165.4191675876
 20
108.686243009
  0
VERTEX
  8
0
 62
7
  6
CONTINUOUS
 10
165.4093980081
 20
108.4962124914
  0
VERTEX
  8
0
 62
7
  6
CONTINUOUS
 10
165.3957729094
 20
108.3092234818
  0
VERTEX
  8
0
 62
7
  6
CONTINUOUS
 10
165.3783457446
 20
108.1262925785
  0
VERTEX
  8
0
 62
7
  6
CONTINUOUS
 10
165.3571869639
 20
107.948437601
  0
VERTEX
  8
0
 62
7
  6
CONTINUOUS
 10
165.3323854239
 20
107.7766771428
  0
VERTEX
  8
0
 62
7
  6
CONTINUOUS
 10
165.3040496902
 20
107.6120262788
  0
VERTEX
  8
0
 62
7
  6
CONTINUOUS
 10
165.2723094552
 20
107.4554917976
  0
VERTEX
  8
0
 62
7
  6
CONTINUOUS
 10
165.2373230785
 20
107.3080898339
  0
SEQEND
  0
POLYLINE
  8
0
 62
7
  6
CONTINUOUS
 66
1
 70
0
  0
VERTEX
  8
0
 62
7
  6
CONTINUOUS
 10
164.1447414433
 20
109.2713780919
  0
VERTEX
  8
0
 62
7
  6
CONTINUOUS
 10
164.1469768196
 20
109.4774784229
  0
VERTEX
  8
0
 62
7
  6
CONTINUOUS
 10
164.1536734961
 20
109.6823484659
  0
VERTEX
  8
0
 62
7
  6
CONTINUOUS
 10
164.1648028594
 20
109.8847561102
  0
VERTEX
  8
0
 62
7
  6
CONTINUOUS
 10
164.1803163625
 20
110.0834658867
  0
VERTEX
  8
0
 62
7
  6
CONTINUOUS
 10
164.2001442339
 20
110.277238201
  0
VERTEX
  8
0
 62
7
  6
CONTINUOUS
 10
164.2241941787
 20
110.4648332884
  0
VERTEX
  8
0
 62
7
  6
CONTINUOUS
 10
164.2523492728
 20
110.6450113622
  0
VERTEX
  8
0
 62
7
  6
CONTINUOUS
 10
164.2844659772
 20
110.8165388129
  0
VERTEX
  8
0
 62
7
  6
CONTINUOUS
 10
164.3203722238
 20
110.9781966358
  0
VERTEX
  8
0
 62
7
  6
CONTINUOUS
 10
164.3598661215
 20
111.128792597
  0
VERTEX
  8
0
 62
7
  6
CONTINUOUS
 10
164.4027140961
 20
111.2671715566
  0
VERTEX
  8
0
 62
7
  6
CONTINUOUS
 10
164.4486501706
 20
111.3922312977
  0
VERTEX
  8
0
 62
7
  6
CONTINUOUS
 10
164.4973762954
 20
111.5029403969
  0
VERTEX
  8
0
 62
7
  6
CONTINUOUS
 10
164.5485633043
 20
111.5983558736
  0
VERTEX
  8
0
 62
7
  6
CONTINUOUS
 10
164.6018524174
 20
111.6776405065
  0
VERTEX
  8
0
 62
7
  6
CONTINUOUS
 10
164.6568581378
 20
111.7400807306
  0
VERTEX
  8
0
 62
7
  6
CONTINUOUS
 10
164.7131725727
 20
111.7851031995
  0
VERTEX
  8
0
 62
7
  6
CONTINUOUS
 10
164.7703699039
 20
111.8122878073
  0
VERTEX
  8
0
 62
7
  6
CONTINUOUS
 10
164.828011884
 20
111.8213780919
  0
SEQEND
  0
POLYLINE
  8
0
 62
7
  6
CONTINUOUS
 66
1
 70
0
  0
VERTEX
  8
0
 62
7
  6
CONTINUOUS
 10
165.0669522302
 20
106.5809572439
  0
VERTEX
  8
0
 62
7
  6
CONTINUOUS
 10
165.0700209299
 20
106.6260654656
  0
VERTEX
  8
0
 62
7
  6
CONTINUOUS
 10
165.0791026406
 20
106.6841130949
  0
VERTEX
  8
0
 62
7
  6
CONTINUOUS
 10
165.0939667601
 20
106.7553688241
  0
VERTEX
  8
0
 62
7
  6
CONTINUOUS
 10
165.114230073
 20
106.8398228227
  0
VERTEX
  8
0
 62
7
  6
CONTINUOUS
 10
165.1394354865
 20
106.9376249386
  0
SEQEND
  0
POLYLINE
  8
0
 62
7
  6
CONTINUOUS
 66
1
 70
0
  0
VERTEX
  8
0
 62
7
  6
CONTINUOUS
 10
170.9169522302
 20
111.7617989398
  0
VERTEX
  8
0
 62
7
  6
CONTINUOUS
 10
170.9138842644
 20
111.71669691
  0
VERTEX
  8
0
 62
7
  6
CONTINUOUS
 10
170.9048028161
 20
111.6586484453
  0
VERTEX
  8
0
 62
7
  6
CONTINUOUS
 10
170.8899365211
 20
111.5873821544
  0
VERTEX
  8
0
 62
7
  6
CONTINUOUS
 10
170.8696708842
 20
111.5029193746
  0
VERTEX
  8
0
 62
7
  6
CONTINUOUS
 10
170.8444648299
 20
111.4051154933
  0
SEQEND
  0
POLYLINE
  8
0
 62
7
  6
CONTINUOUS
 66
1
 70
0
  0
VERTEX
  8
0
 62
7
  6
CONTINUOUS
 10
170.9169522302
 20
111.65727415
  0
VERTEX
  8
0
 62
7
  6
CONTINUOUS
 10
170.9119116693
 20
111.5912293015
  0
VERTEX
  8
0
 62
7
  6
CONTINUOUS
 10
170.8967071762
 20
111.5119491426
  0
VERTEX
  8
0
 62
7
  6
CONTINUOUS
 10
170.8713750369
 20
111.4187819542
  0
VERTEX
  8
0
 62
7
  6
CONTINUOUS
 10
170.8360208374
 20
111.3106597902
  0
VERTEX
  8
0
 62
7
  6
CONTINUOUS
 10
170.7909894669
 20
111.1866239537
  0
VERTEX
  8
0
 62
7
  6
CONTINUOUS
 10
170.7761062124
 20
111.1478142516
  0
SEQEND
  0
POLYLINE
  8
0
 62
7
  6
CONTINUOUS
 66
1
 70
0
  0
VERTEX
  8
0
 62
7
  6
CONTINUOUS
 10
170.7465813616
 20
111.0346662646
  0
VERTEX
  8
0
 62
7
  6
CONTINUOUS
 10
170.711595001
 20
110.8872643669
  0
VERTEX
  8
0
 62
7
  6
CONTINUOUS
 10
170.6798547229
 20
110.7307296524
  0
VERTEX
  8
0
 62
7
  6
CONTINUOUS
 10
170.6515189424
 20
110.5660784449
  0
VERTEX
  8
0
 62
7
  6
CONTINUOUS
 10
170.6267173758
 20
110.3943176649
  0
VERTEX
  8
0
 62
7
  6
CONTINUOUS
 10
170.6055585947
 20
110.2164624732
  0
VERTEX
  8
0
 62
7
  6
CONTINUOUS
 10
170.5881314483
 20
110.0335314788
  0
VERTEX
  8
0
 62
7
  6
CONTINUOUS
 10
170.5745063789
 20
109.84654251
  0
VERTEX
  8
0
 62
7
  6
CONTINUOUS
 10
170.5647368326
 20
109.6565121919
  0
VERTEX
  8
0
 62
7
  6
CONTINUOUS
 10
170.5588602919
 20
109.4644569803
  0
VERTEX
  8
0
 62
7
  6
CONTINUOUS
 10
170.556898849
 20
109.2713780919
  0
SEQEND
  0
POLYLINE
  8
0
 62
7
  6
CONTINUOUS
 66
1
 70
0
  0
VERTEX
  8
0
 62
7
  6
CONTINUOUS
 10
165.1394354865
 20
106.9376249386
  0
VERTEX
  8
0
 62
7
  6
CONTINUOUS
 10
165.2018663588
 20
107.1722094992
  0
VERTEX
  8
0
 62
7
  6
CONTINUOUS
 10
165.2373231386
 20
107.308090081
  0
SEQEND
  0
POLYLINE
  8
0
 62
7
  6
CONTINUOUS
 66
1
 70
0
  0
VERTEX
  8
0
 62
7
  6
CONTINUOUS
 10
170.8444648299
 20
111.4051154933
  0
VERTEX
  8
0
 62
7
  6
CONTINUOUS
 10
170.7820320354
 20
111.1705237635
  0
VERTEX
  8
0
 62
7
  6
CONTINUOUS
 10
170.7465813616
 20
111.0346662646
  0
SEQEND
  0
POLYLINE
  8
0
 62
7
  6
CONTINUOUS
 66
1
 70
0
  0
VERTEX
  8
0
 62
7
  6
CONTINUOUS
 10
170.7761024535
 20
107.1949563536
  0
VERTEX
  8
0
 62
7
  6
CONTINUOUS
 10
170.7908140979
 20
107.1565992484
  0
VERTEX
  8
0
 62
7
  6
CONTINUOUS
 10
170.8359075468
 20
107.032422429
  0
VERTEX
  8
0
 62
7
  6
CONTINUOUS
 10
170.8713114134
 20
106.9241846382
  0
VERTEX
  8
0
 62
7
  6
CONTINUOUS
 10
170.8966791785
 20
106.8309258315
  0
VERTEX
  8
0
 62
7
  6
CONTINUOUS
 10
170.9119046455
 20
106.7515772675
  0
VERTEX
  8
0
 62
7
  6
CONTINUOUS
 10
170.9169522302
 20
106.6854820338
  0
SEQEND
  0
POLYLINE
  8
0
 62
7
  6
CONTINUOUS
 66
1
 70
0
  0
VERTEX
  8
0
 62
7
  6
CONTINUOUS
 10
165.2018667465
 20
111.1705452197
  0
VERTEX
  8
0
 62
7
  6
CONTINUOUS
 10
165.1394359099
 20
111.4051296357
  0
VERTEX
  8
0
 62
7
  6
CONTINUOUS
 10
165.1142306402
 20
111.5029310965
  0
VERTEX
  8
0
 62
7
  6
CONTINUOUS
 10
165.0939670974
 20
111.5873858707
  0
VERTEX
  8
0
 62
7
  6
CONTINUOUS
 10
165.079102641
 20
111.6586430863
  0
VERTEX
  8
0
 62
7
  6
CONTINUOUS
 10
165.0700208667
 20
111.7166912512
  0
VERTEX
  8
0
 62
7
  6
CONTINUOUS
 10
165.0669522302
 20
111.7617989398
  0
SEQEND
  0
POLYLINE
  8
0
 62
7
  6
CONTINUOUS
 66
1
 70
0
  0
VERTEX
  8
0
 62
7
  6
CONTINUOUS
 10
170.7820324
 20
107.1722310427
  0
VERTEX
  8
0
 62
7
  6
CONTINUOUS
 10
170.8444652441
 20
106.937639116
  0
VERTEX
  8
0
 62
7
  6
CONTINUOUS
 10
170.8696714556
 20
106.8398345276
  0
VERTEX
  8
0
 62
7
  6
CONTINUOUS
 10
170.8899368608
 20
106.7553725299
  0
VERTEX
  8
0
 62
7
  6
CONTINUOUS
 10
170.9048028204
 20
106.6841077155
  0
VERTEX
  8
0
 62
7
  6
CONTINUOUS
 10
170.9138841969
 20
106.626059843
  0
VERTEX
  8
0
 62
7
  6
CONTINUOUS
 10
170.9169522302
 20
106.5809572439
  0
SEQEND
  0
LINE
  8
0
 62
7
  6
CONTINUOUS
 10
165.2373230987
 20
111.0346662646
 11
165.2018667465
 21
111.1705452197
  0
LINE
  8
0
 62
7
  6
CONTINUOUS
 10
170.7465813616
 20
107.3080899191
 11
170.7820324
 21
107.1722310427
  0
POLYLINE
  8
0
 62
7
  6
CONTINUOUS
 66
1
 70
0
  0
VERTEX
  8
0
 62
7
  6
CONTINUOUS
 10
165.2373230987
 20
111.0346662646
  0
VERTEX
  8
0
 62
7
  6
CONTINUOUS
 10
165.2723094594
 20
110.8872643669
  0
VERTEX
  8
0
 62
7
  6
CONTINUOUS
 10
165.3040497374
 20
110.7307296524
  0
VERTEX
  8
0
 62
7
  6
CONTINUOUS
 10
165.332385518
 20
110.5660784449
  0
VERTEX
  8
0
 62
7
  6
CONTINUOUS
 10
165.3571870846
 20
110.3943176649
  0
VERTEX
  8
0
 62
7
  6
CONTINUOUS
 10
165.3783458656
 20
110.2164624732
  0
VERTEX
  8
0
 62
7
  6
CONTINUOUS
 10
165.395773012
 20
110.0335314788
  0
VERTEX
  8
0
 62
7
  6
CONTINUOUS
 10
165.4093980815
 20
109.84654251
  0
VERTEX
  8
0
 62
7
  6
CONTINUOUS
 10
165.4191676278
 20
109.6565121919
  0
VERTEX
  8
0
 62
7
  6
CONTINUOUS
 10
165.4250441685
 20
109.4644569803
  0
VERTEX
  8
0
 62
7
  6
CONTINUOUS
 10
165.4270056114
 20
109.2713780919
  0
SEQEND
  0
LINE
  8
SURFACE
 62
7
  6
CONTINUOUS
 10
188.087083768
 20
157.8297544684
 11
188.287083768
 21
157.8297544684
  0
LINE
  8
DEFAULT_1
 62
7
  6
CENTER
 10
192.487083768
 20
160.3797544684
 11
190.087183768
 21
160.3797544684
  0
LINE
  8
0
 62
2
  6
CONTINUOUS
 10
188.967083768
 20
160.3797544684
 11
187.207083768
 21
160.3797544684
  0
LINE
  8
DEFAULT_1
 62
7
  6
CENTER
 10
183.687083768
 20
160.3797544684
 11
186.086983768
 21
160.3797544684
  0
LINE
  8
0
 62
7
  6
CONTINUOUS
 10
181.687083768
 20
160.3816661482
 11
181.687083768
 21
185.7778427885
  0
LINE
  8
SURFACE
 62
7
  6
CONTINUOUS
 10
185.537083768
 20
169.2797544684
 11
185.537083768
 21
160.3797544684
  0
LINE
  8
SURFACE
 62
7
  6
CONTINUOUS
 10
185.537083768
 20
176.8797544684
 11
185.537083768
 21
185.7797544684
  0
LINE
  8
SURFACE
 62
7
  6
CONTINUOUS
 10
188.087083768
 20
171.8297544684
 11
188.287083768
 21
171.8297544684
  0
LINE
  8
DEFAULT_1
 62
7
  6
CENTER
 10
188.087083768
 20
190.1797544684
 11
188.087083768
 21
187.7798544684
  0
LINE
  8
0
 62
2
  6
CONTINUOUS
 10
188.087083768
 20
186.6597544684
 11
188.087083768
 21
184.8997544684
  0
LINE
  8
DEFAULT_1
 62
7
  6
CENTER
 10
188.087083768
 20
164.7797544684
 11
188.087083768
 21
162.3798544684
  0
LINE
  8
0
 62
2
  6
CONTINUOUS
 10
188.087083768
 20
161.2597544684
 11
188.087083768
 21
159.4997544684
  0
LINE
  8
DEFAULT_1
 62
7
  6
CENTER
 10
188.087083768
 20
155.9797544684
 11
188.087083768
 21
158.3796544684
  0
LINE
  8
DEFAULT_1
 62
7
  6
CENTER
 10
188.087083768
 20
181.3797544684
 11
188.087083768
 21
183.7796544684
  0
LINE
  8
0
 62
7
  6
CONTINUOUS
 10
182.387083768
 20
172.6797544684
 11
193.987083768
 21
172.6797544684
  0
LINE
  8
SURFACE
 62
7
  6
CONTINUOUS
 10
188.087083768
 20
174.3297544684
 11
188.287083768
 21
174.3297544684
  0
LINE
  8
SURFACE
 62
7
  6
CONTINUOUS
 10
190.837083768
 20
160.3797544684
 11
190.837083768
 21
169.2797544684
  0
LINE
  8
SURFACE
 62
7
  6
CONTINUOUS
 10
190.837083768
 20
176.8797544684
 11
190.837083768
 21
185.7797544684
  0
LINE
  8
0
 62
7
  6
CONTINUOUS
 10
194.687083768
 20
185.7778427885
 11
194.687083768
 21
160.3816661482
  0
LINE
  8
DEFAULT_1
 62
7
  6
CENTER
 10
192.487083768
 20
185.7797544684
 11
190.087183768
 21
185.7797544684
  0
LINE
  8
0
 62
2
  6
CONTINUOUS
 10
188.967083768
 20
185.7797544684
 11
187.207083768
 21
185.7797544684
  0
LINE
  8
DEFAULT_1
 62
7
  6
CENTER
 10
183.687083768
 20
185.7797544684
 11
186.086983768
 21
185.7797544684
  0
LINE
  8
SURFACE
 62
7
  6
CONTINUOUS
 10
188.287083768
 20
188.3297544684
 11
188.087083768
 21
188.3297544684
  0
ARC
  8
0
 62
7
  6
CONTINUOUS
 10
36.7169522302
 20
159.8317544684
 40
5.0
 50
180.0
 51
195.0
  0
ARC
  8
0
 62
7
  6
CONTINUOUS
 10
19.7169522302
 20
159.8317544684
 40
5.0
 50
345.0
 51
360.0
  0
ARC
  8
0
 62
7
  6
CONTINUOUS
 10
49.4169522302
 20
159.8317544684
 40
5.0
 50
180.0
 51
195.0
  0
ARC
  8
0
 62
7
  6
CONTINUOUS
 10
32.4169522302
 20
159.8317544684
 40
5.0
 50
345.0
 51
360.0
  0
ARC
  8
0
 62
7
  6
CONTINUOUS
 10
45.1169522302
 20
159.8317544684
 40
5.0
 50
345.0
 51
360.0
  0
ARC
  8
0
 62
7
  6
CONTINUOUS
 10
23.8669522302
 20
159.8317544684
 40
5.0
 50
180.0
 51
195.0
  0
ARC
  8
0
 62
7
  6
CONTINUOUS
 10
20.326291853
 20
156.4317546761
 40
0.7
 50
195.0
 51
269.9999988693
  0
ARC
  8
0
 62
7
  6
CONTINUOUS
 10
23.2576126073
 20
156.4317546761
 40
0.7
 50
270.0000011307
 51
345.0
  0
ARC
  8
0
 62
7
  6
CONTINUOUS
 10
33.176291853
 20
156.4317546761
 40
0.7
 50
195.0
 51
269.9999988693
  0
ARC
  8
0
 62
7
  6
CONTINUOUS
 10
35.9576126073
 20
156.4317546761
 40
0.7
 50
270.0000011307
 51
345.0
  0
ARC
  8
0
 62
7
  6
CONTINUOUS
 10
45.876291853
 20
156.4317546761
 40
0.7
 50
195.0
 51
269.9999988693
  0
ARC
  8
0
 62
7
  6
CONTINUOUS
 10
48.6576126073
 20
156.4317546761
 40
0.7
 50
270.0000011307
 51
345.0
  0
ARC
  8
0
 62
7
  6
CONTINUOUS
 10
26.7169522302
 20
167.7297544684
 40
5.0
 50
0.0
 51
15.0
  0
ARC
  8
0
 62
7
  6
CONTINUOUS
 10
29.7169522302
 20
167.7297544684
 40
5.0
 50
165.0
 51
180.0
  0
ARC
  8
SURFACE
 62
7
  6
CONTINUOUS
 10
29.7169522302
 20
167.7297544684
 40
5.0
 50
165.0
 51
168.4258086778
  0
ARC
  8
SURFACE
 62
7
  6
CONTINUOUS
 10
29.7169522302
 20
167.7297544684
 40
5.0
 50
169.5018939261
 51
171.8975185402
  0
ARC
  8
SURFACE
 62
7
  6
CONTINUOUS
 10
29.7169522302
 20
167.7297544684
 40
5.0
 50
173.1023570154
 51
175.4980062367
  0
ARC
  8
SURFACE
 62
7
  6
CONTINUOUS
 10
29.7169522302
 20
167.7297544684
 40
5.0
 50
176.5741055897
 51
180.0
  0
ARC
  8
SURFACE
 62
7
  6
CONTINUOUS
 10
26.7169522302
 20
167.7297544684
 40
5.0
 50
0.0
 51
3.4258086777
  0
ARC
  8
SURFACE
 62
7
  6
CONTINUOUS
 10
26.7169522302
 20
167.7297544684
 40
5.0
 50
4.5018939261
 51
6.8975185402
  0
ARC
  8
SURFACE
 62
7
  6
CONTINUOUS
 10
26.7169522302
 20
167.7297544684
 40
5.0
 50
8.1023570154
 51
10.4980062367
  0
ARC
  8
SURFACE
 62
7
  6
CONTINUOUS
 10
26.7169522302
 20
167.7297544684
 40
5.0
 50
11.5741055897
 51
15.0
  0
ARC
  8
SURFACE
 62
7
  6
CONTINUOUS
 10
21.6919522302
 20
169.0697544684
 40
0.9925400392
 50
167.7851354052
 51
180.0
  0
ARC
  8
SURFACE
 62
7
  6
CONTINUOUS
 10
21.8919522302
 20
169.0697544684
 40
0.9925400392
 50
0.0
 51
12.2148645948
  0
ARC
  8
0
 62
7
  6
CONTINUOUS
 10
21.3669522302
 20
170.1797544684
 40
2.5
 50
90.0
 51
180.0
  0
ARC
  8
0
 62
7
  6
CONTINUOUS
 10
29.5852982878
 20
172.4797544684
 40
1.0
 50
15.0
 51
90.0
  0
ARC
  8
0
 62
7
  6
CONTINUOUS
 10
26.8486061726
 20
172.4797544684
 40
1.0
 50
90.0
 51
165.0
  0
ARC
  8
0
 62
7
  6
CONTINUOUS
 10
39.4169522302
 20
167.7297544684
 40
5.0
 50
0.0
 51
15.0
  0
ARC
  8
0
 62
7
  6
CONTINUOUS
 10
42.4169522302
 20
167.7297544684
 40
5.0
 50
165.0
 51
180.0
  0
ARC
  8
0
 62
7
  6
CONTINUOUS
 10
52.1169522302
 20
167.7297544684
 40
5.0
 50
0.0
 51
15.0
  0
ARC
  8
0
 62
7
  6
CONTINUOUS
 10
55.1169522302
 20
167.7297544684
 40
5.0
 50
165.0
 51
180.0
  0
ARC
  8
SURFACE
 62
7
  6
CONTINUOUS
 10
52.1169522302
 20
167.7297544684
 40
5.0
 50
0.0
 51
3.4258086777
  0
ARC
  8
SURFACE
 62
7
  6
CONTINUOUS
 10
52.1169522302
 20
167.7297544684
 40
5.0
 50
4.5018939261
 51
6.8975185402
  0
ARC
  8
SURFACE
 62
7
  6
CONTINUOUS
 10
52.1169522302
 20
167.7297544684
 40
5.0
 50
8.1023570154
 51
10.4980062367
  0
ARC
  8
SURFACE
 62
7
  6
CONTINUOUS
 10
52.1169522302
 20
167.7297544684
 40
5.0
 50
11.5741055897
 51
15.0
  0
ARC
  8
SURFACE
 62
7
  6
CONTINUOUS
 10
42.4169522302
 20
167.7297544684
 40
5.0
 50
165.0
 51
168.4258086777
  0
ARC
  8
SURFACE
 62
7
  6
CONTINUOUS
 10
42.4169522302
 20
167.7297544684
 40
5.0
 50
169.5018939262
 51
171.8975185402
  0
ARC
  8
SURFACE
 62
7
  6
CONTINUOUS
 10
42.4169522302
 20
167.7297544684
 40
5.0
 50
173.1023570154
 51
175.4980062367
  0
ARC
  8
SURFACE
 62
7
  6
CONTINUOUS
 10
42.4169522302
 20
167.7297544684
 40
5.0
 50
176.5741055897
 51
180.0
  0
ARC
  8
SURFACE
 62
7
  6
CONTINUOUS
 10
55.1169522302
 20
167.7297544684
 40
5.0
 50
165.0
 51
168.4258086777
  0
ARC
  8
SURFACE
 62
7
  6
CONTINUOUS
 10
55.1169522302
 20
167.7297544684
 40
5.0
 50
169.5018939261
 51
171.8975185402
  0
ARC
  8
SURFACE
 62
7
  6
CONTINUOUS
 10
55.1169522302
 20
167.7297544684
 40
5.0
 50
173.1023570154
 51
175.4980062367
  0
ARC
  8
SURFACE
 62
7
  6
CONTINUOUS
 10
55.1169522302
 20
167.7297544684
 40
5.0
 50
176.5741055897
 51
180.0
  0
ARC
  8
SURFACE
 62
7
  6
CONTINUOUS
 10
39.4169522302
 20
167.7297544684
 40
5.0
 50
0.0
 51
3.4258086777
  0
ARC
  8
SURFACE
 62
7
  6
CONTINUOUS
 10
39.4169522302
 20
167.7297544684
 40
5.0
 50
4.5018939261
 51
6.8975185402
  0
ARC
  8
SURFACE
 62
7
  6
CONTINUOUS
 10
39.4169522302
 20
167.7297544684
 40
5.0
 50
8.1023570154
 51
10.4980062367
  0
ARC
  8
SURFACE
 62
7
  6
CONTINUOUS
 10
39.4169522302
 20
167.7297544684
 40
5.0
 50
11.5741055897
 51
15.0
  0
ARC
  8
0
 62
7
  6
CONTINUOUS
 10
42.2852982878
 20
172.4797544684
 40
1.0
 50
15.0
 51
90.0
  0
ARC
  8
0
 62
7
  6
CONTINUOUS
 10
39.5486061726
 20
172.4797544684
 40
1.0
 50
90.0
 51
165.0
  0
ARC
  8
0
 62
7
  6
CONTINUOUS
 10
54.9852982878
 20
172.4797544684
 40
1.0
 50
15.0
 51
90.0
  0
ARC
  8
0
 62
7
  6
CONTINUOUS
 10
52.2486061726
 20
172.4797544684
 40
1.0
 50
90.0
 51
165.0
  0
ARC
  8
0
 62
7
  6
CONTINUOUS
 10
62.1169522302
 20
159.8317544684
 40
5.0
 50
180.0
 51
195.0
  0
ARC
  8
0
 62
7
  6
CONTINUOUS
 10
74.8169522302
 20
159.8317544684
 40
5.0
 50
180.0
 51
195.0
  0
ARC
  8
0
 62
7
  6
CONTINUOUS
 10
57.8169522302
 20
159.8317544684
 40
5.0
 50
345.0
 51
360.0
  0
ARC
  8
0
 62
7
  6
CONTINUOUS
 10
87.5169522302
 20
159.8317544684
 40
5.0
 50
180.0
 51
195.0
  0
ARC
  8
0
 62
7
  6
CONTINUOUS
 10
70.5169522302
 20
159.8317544684
 40
5.0
 50
345.0
 51
360.0
  0
ARC
  8
0
 62
7
  6
CONTINUOUS
 10
83.2169522302
 20
159.8317544684
 40
5.0
 50
345.0
 51
360.0
  0
ARC
  8
0
 62
7
  6
CONTINUOUS
 10
58.576291853
 20
156.4317546761
 40
0.7
 50
195.0
 51
269.9999988693
  0
ARC
  8
0
 62
7
  6
CONTINUOUS
 10
61.3576126073
 20
156.4317546761
 40
0.7
 50
270.0000011307
 51
345.0
  0
ARC
  8
0
 62
7
  6
CONTINUOUS
 10
71.276291853
 20
156.4317546761
 40
0.7
 50
195.0
 51
269.9999988693
  0
ARC
  8
0
 62
7
  6
CONTINUOUS
 10
74.0576126073
 20
156.4317546761
 40
0.7
 50
270.0000011307
 51
345.0
  0
ARC
  8
0
 62
7
  6
CONTINUOUS
 10
83.976291853
 20
156.4317546761
 40
0.7
 50
195.0
 51
269.9999988693
  0
ARC
  8
0
 62
7
  6
CONTINUOUS
 10
86.7576126077
 20
156.4317546773
 40
0.7
 50
270.0000011372
 51
345.0
  0
ARC
  8
0
 62
7
  6
CONTINUOUS
 10
64.8169522302
 20
167.7297544684
 40
5.0
 50
0.0
 51
15.0
  0
ARC
  8
0
 62
7
  6
CONTINUOUS
 10
67.8169522302
 20
167.7297544684
 40
5.0
 50
165.0
 51
180.0
  0
ARC
  8
0
 62
7
  6
CONTINUOUS
 10
77.5169522302
 20
167.7297544684
 40
5.0
 50
0.0
 51
15.0
  0
ARC
  8
0
 62
7
  6
CONTINUOUS
 10
80.5169522302
 20
167.7297544684
 40
5.0
 50
165.0
 51
180.0
  0
ARC
  8
SURFACE
 62
7
  6
CONTINUOUS
 10
93.2169522302
 20
167.7297544684
 40
5.0
 50
165.0
 51
168.425868808
  0
ARC
  8
SURFACE
 62
7
  6
CONTINUOUS
 10
93.2169522302
 20
167.7297544684
 40
5.0
 50
169.5019461039
 51
171.8975984647
  0
ARC
  8
SURFACE
 62
7
  6
CONTINUOUS
 10
93.2169522302
 20
167.7297544684
 40
5.0
 50
173.1024270993
 51
175.4980745724
  0
ARC
  8
SURFACE
 62
7
  6
CONTINUOUS
 10
93.2169522302
 20
167.7297544684
 40
5.0
 50
176.5741486792
 51
180.0
  0
ARC
  8
0
 62
7
  6
CONTINUOUS
 10
93.2169522302
 20
167.7297544684
 40
5.0
 50
165.0
 51
180.0
  0
ARC
  8
SURFACE
 62
7
  6
CONTINUOUS
 10
77.5169522302
 20
167.7297544684
 40
5.0
 50
0.0
 51
3.4258086777
  0
ARC
  8
SURFACE
 62
7
  6
CONTINUOUS
 10
77.5169522302
 20
167.7297544684
 40
5.0
 50
4.5018939261
 51
6.8975185402
  0
ARC
  8
SURFACE
 62
7
  6
CONTINUOUS
 10
77.5169522302
 20
167.7297544684
 40
5.0
 50
8.1023570154
 51
10.4980062368
  0
ARC
  8
SURFACE
 62
7
  6
CONTINUOUS
 10
77.5169522302
 20
167.7297544684
 40
5.0
 50
11.5741055897
 51
15.0
  0
ARC
  8
SURFACE
 62
7
  6
CONTINUOUS
 10
80.5169522302
 20
167.7297544684
 40
5.0
 50
165.0
 51
168.4258086777
  0
ARC
  8
SURFACE
 62
7
  6
CONTINUOUS
 10
80.5169522302
 20
167.7297544684
 40
5.0
 50
169.5018939262
 51
171.8975185402
  0
ARC
  8
SURFACE
 62
7
  6
CONTINUOUS
 10
80.5169522302
 20
167.7297544684
 40
5.0
 50
173.1023570154
 51
175.4980062367
  0
ARC
  8
SURFACE
 62
7
  6
CONTINUOUS
 10
80.5169522302
 20
167.7297544684
 40
5.0
 50
176.5741055897
 51
180.0
  0
ARC
  8
SURFACE
 62
7
  6
CONTINUOUS
 10
64.8169522302
 20
167.7297544684
 40
5.0
 50
0.0
 51
3.4258086777
  0
ARC
  8
SURFACE
 62
7
  6
CONTINUOUS
 10
64.8169522302
 20
167.7297544684
 40
5.0
 50
4.5018939261
 51
6.8975185402
  0
ARC
  8
SURFACE
 62
7
  6
CONTINUOUS
 10
64.8169522302
 20
167.7297544684
 40
5.0
 50
8.1023570154
 51
10.4980062367
  0
ARC
  8
SURFACE
 62
7
  6
CONTINUOUS
 10
64.8169522302
 20
167.7297544684
 40
5.0
 50
11.5741055897
 51
15.0
  0
ARC
  8
SURFACE
 62
7
  6
CONTINUOUS
 10
67.8169522302
 20
167.7297544684
 40
5.0
 50
165.0
 51
168.4258086777
  0
ARC
  8
SURFACE
 62
7
  6
CONTINUOUS
 10
67.8169522302
 20
167.7297544684
 40
5.0
 50
169.5018939261
 51
171.8975185402
  0
ARC
  8
SURFACE
 62
7
  6
CONTINUOUS
 10
67.8169522302
 20
167.7297544684
 40
5.0
 50
173.1023570154
 51
175.4980062367
  0
ARC
  8
SURFACE
 62
7
  6
CONTINUOUS
 10
67.8169522302
 20
167.7297544684
 40
5.0
 50
176.5741055897
 51
180.0
  0
ARC
  8
0
 62
7
  6
CONTINUOUS
 10
90.2169522302
 20
167.7297544684
 40
5.0
 50
0.0
 51
15.0
  0
ARC
  8
0
 62
7
  6
CONTINUOUS
 10
93.0852982878
 20
172.4797544684
 40
1.0
 50
15.0
 51
90.0
  0
ARC
  8
0
 62
7
  6
CONTINUOUS
 10
67.6852982878
 20
172.4797544684
 40
1.0
 50
15.0
 51
90.0
  0
ARC
  8
0
 62
7
  6
CONTINUOUS
 10
64.9486061726
 20
172.4797544684
 40
1.0
 50
90.0
 51
165.0
  0
ARC
  8
0
 62
7
  6
CONTINUOUS
 10
80.3852982878
 20
172.4797544684
 40
1.0
 50
15.0
 51
90.0
  0
ARC
  8
0
 62
7
  6
CONTINUOUS
 10
77.6486061726
 20
172.4797544684
 40
1.0
 50
90.0
 51
165.0
  0
ARC
  8
0
 62
7
  6
CONTINUOUS
 10
90.3486061726
 20
172.4797544684
 40
1.0
 50
90.0
 51
165.0
  0
ARC
  8
SURFACE
 62
7
  6
CONTINUOUS
 10
45.7669522302
 20
178.4297544684
 40
5.0
 50
345.0
 51
348.4258086777
  0
ARC
  8
SURFACE
 62
7
  6
CONTINUOUS
 10
45.7669522302
 20
178.4297544684
 40
5.0
 50
349.5018939261
 51
351.8975185402
  0
ARC
  8
SURFACE
 62
7
  6
CONTINUOUS
 10
45.7669522302
 20
178.4297544684
 40
5.0
 50
353.1023570154
 51
355.4980062368
  0
ARC
  8
SURFACE
 62
7
  6
CONTINUOUS
 10
45.7669522302
 20
178.4297544684
 40
5.0
 50
356.5741055897
 51
360.0
  0
ARC
  8
SURFACE
 62
7
  6
CONTINUOUS
 10
48.7669522302
 20
178.4297544684
 40
5.0
 50
180.0
 51
183.4258086777
  0
ARC
  8
SURFACE
 62
7
  6
CONTINUOUS
 10
48.7669522302
 20
178.4297544684
 40
5.0
 50
184.5018939261
 51
186.8975185402
  0
ARC
  8
SURFACE
 62
7
  6
CONTINUOUS
 10
48.7669522302
 20
178.4297544684
 40
5.0
 50
188.1023570154
 51
190.4980062367
  0
ARC
  8
SURFACE
 62
7
  6
CONTINUOUS
 10
48.7669522302
 20
178.4297544684
 40
5.0
 50
191.5741055897
 51
195.0
  0
ARC
  8
SURFACE
 62
7
  6
CONTINUOUS
 10
33.0669522302
 20
178.4297544684
 40
5.0
 50
345.0
 51
348.4258086777
  0
ARC
  8
SURFACE
 62
7
  6
CONTINUOUS
 10
33.0669522302
 20
178.4297544684
 40
5.0
 50
349.5018939261
 51
351.8975185402
  0
ARC
  8
SURFACE
 62
7
  6
CONTINUOUS
 10
33.0669522302
 20
178.4297544684
 40
5.0
 50
353.1023570154
 51
355.4980062367
  0
ARC
  8
SURFACE
 62
7
  6
CONTINUOUS
 10
33.0669522302
 20
178.4297544684
 40
5.0
 50
356.5741055897
 51
360.0
  0
ARC
  8
SURFACE
 62
7
  6
CONTINUOUS
 10
20.3669522302
 20
178.4297544684
 40
5.0
 50
345.0
 51
348.4258086777
  0
ARC
  8
SURFACE
 62
7
  6
CONTINUOUS
 10
20.3669522302
 20
178.4297544684
 40
5.0
 50
349.5018939261
 51
351.8975185402
  0
ARC
  8
SURFACE
 62
7
  6
CONTINUOUS
 10
20.3669522302
 20
178.4297544684
 40
5.0
 50
353.1023570154
 51
355.4980062367
  0
ARC
  8
SURFACE
 62
7
  6
CONTINUOUS
 10
20.3669522302
 20
178.4297544684
 40
5.0
 50
356.5741055897
 51
360.0
  0
ARC
  8
SURFACE
 62
7
  6
CONTINUOUS
 10
36.0669522302
 20
178.4297544684
 40
5.0
 50
180.0
 51
183.4258086777
  0
ARC
  8
SURFACE
 62
7
  6
CONTINUOUS
 10
36.0669522302
 20
178.4297544684
 40
5.0
 50
184.5018939261
 51
186.8975185402
  0
ARC
  8
SURFACE
 62
7
  6
CONTINUOUS
 10
36.0669522302
 20
178.4297544684
 40
5.0
 50
188.1023570154
 51
190.4980062367
  0
ARC
  8
SURFACE
 62
7
  6
CONTINUOUS
 10
36.0669522302
 20
178.4297544684
 40
5.0
 50
191.5741055897
 51
195.0
  0
ARC
  8
0
 62
7
  6
CONTINUOUS
 10
20.3669522302
 20
178.4297544684
 40
5.0
 50
345.0
 51
360.0
  0
ARC
  8
0
 62
7
  6
CONTINUOUS
 10
36.0669522302
 20
178.4297544684
 40
5.0
 50
180.0
 51
195.0
  0
ARC
  8
0
 62
7
  6
CONTINUOUS
 10
33.0669522302
 20
178.4297544684
 40
5.0
 50
345.0
 51
360.0
  0
ARC
  8
0
 62
7
  6
CONTINUOUS
 10
48.7669522302
 20
178.4297544684
 40
5.0
 50
180.0
 51
195.0
  0
ARC
  8
0
 62
7
  6
CONTINUOUS
 10
45.7669522302
 20
178.4297544684
 40
5.0
 50
345.0
 51
360.0
  0
ARC
  8
0
 62
7
  6
CONTINUOUS
 10
23.2352982878
 20
173.6797544684
 40
1.0
 50
270.0
 51
345.0
  0
ARC
  8
0
 62
7
  6
CONTINUOUS
 10
33.1986061726
 20
173.6797544684
 40
1.0
 50
195.0
 51
270.0
  0
ARC
  8
0
 62
7
  6
CONTINUOUS
 10
35.9352982878
 20
173.6797544684
 40
1.0
 50
270.0
 51
345.0
  0
ARC
  8
0
 62
7
  6
CONTINUOUS
 10
45.8986061726
 20
173.6797544684
 40
1.0
 50
195.0
 51
270.0
  0
ARC
  8
0
 62
7
  6
CONTINUOUS
 10
48.6352982878
 20
173.6797544684
 40
1.0
 50
270.0
 51
345.0
  0
ARC
  8
0
 62
7
  6
CONTINUOUS
 10
30.3669522302
 20
186.3277544684
 40
5.0
 50
165.0
 51
180.0
  0
ARC
  8
0
 62
7
  6
CONTINUOUS
 10
26.0669522302
 20
186.3277544684
 40
5.0
 50
0.0
 51
15.0
  0
ARC
  8
0
 62
7
  6
CONTINUOUS
 10
43.0669522302
 20
186.3277544684
 40
5.0
 50
165.0
 51
180.0
  0
ARC
  8
0
 62
7
  6
CONTINUOUS
 10
38.7669522302
 20
186.3277544684
 40
5.0
 50
0.0
 51
15.0
  0
ARC
  8
0
 62
7
  6
CONTINUOUS
 10
55.7669522302
 20
186.3277544684
 40
5.0
 50
165.0
 51
180.0
  0
ARC
  8
0
 62
7
  6
CONTINUOUS
 10
51.4669522302
 20
186.3277544684
 40
5.0
 50
0.0
 51
15.0
  0
ARC
  8
0
 62
7
  6
CONTINUOUS
 10
42.2692462023
 20
189.6777544684
 40
0.75
 50
15.0
 51
90.0
  0
ARC
  8
0
 62
7
  6
CONTINUOUS
 10
29.5692462023
 20
189.6777544684
 40
0.75
 50
15.0
 51
90.0
  0
ARC
  8
0
 62
7
  6
CONTINUOUS
 10
52.2646582581
 20
189.6777544684
 40
0.75
 50
90.0
 51
165.0
  0
ARC
  8
0
 62
7
  6
CONTINUOUS
 10
39.5646582581
 20
189.6777544684
 40
0.75
 50
90.0
 51
165.0
  0
ARC
  8
0
 62
7
  6
CONTINUOUS
 10
26.8646582581
 20
189.6777544684
 40
0.75
 50
90.0
 51
165.0
  0
ARC
  8
0
 62
7
  6
CONTINUOUS
 10
54.9692462023
 20
189.6777544684
 40
0.75
 50
15.0
 51
90.000004095
  0
ARC
  8
SURFACE
 62
7
  6
CONTINUOUS
 10
83.8669522302
 20
178.4297544684
 40
5.0
 50
345.0
 51
348.4258086777
  0
ARC
  8
SURFACE
 62
7
  6
CONTINUOUS
 10
83.8669522302
 20
178.4297544684
 40
5.0
 50
349.5018939261
 51
351.8975185402
  0
ARC
  8
SURFACE
 62
7
  6
CONTINUOUS
 10
83.8669522302
 20
178.4297544684
 40
5.0
 50
353.1023570154
 51
355.4980062367
  0
ARC
  8
SURFACE
 62
7
  6
CONTINUOUS
 10
83.8669522302
 20
178.4297544684
 40
5.0
 50
356.5741055897
 51
360.0
  0
ARC
  8
SURFACE
 62
7
  6
CONTINUOUS
 10
86.8669522302
 20
178.4297544684
 40
5.0
 50
180.0
 51
183.4258086777
  0
ARC
  8
SURFACE
 62
7
  6
CONTINUOUS
 10
86.8669522302
 20
178.4297544684
 40
5.0
 50
184.5018939261
 51
186.8975185402
  0
ARC
  8
SURFACE
 62
7
  6
CONTINUOUS
 10
86.8669522302
 20
178.4297544684
 40
5.0
 50
188.1023570154
 51
190.4980062367
  0
ARC
  8
SURFACE
 62
7
  6
CONTINUOUS
 10
86.8669522302
 20
178.4297544684
 40
5.0
 50
191.5741055897
 51
195.0
  0
ARC
  8
SURFACE
 62
7
  6
CONTINUOUS
 10
71.1669522302
 20
178.4297544684
 40
5.0
 50
345.0
 51
348.4258086777
  0
ARC
  8
SURFACE
 62
7
  6
CONTINUOUS
 10
71.1669522302
 20
178.4297544684
 40
5.0
 50
349.5018939261
 51
351.8975185402
  0
ARC
  8
SURFACE
 62
7
  6
CONTINUOUS
 10
71.1669522302
 20
178.4297544684
 40
5.0
 50
353.1023570154
 51
355.4980062367
  0
ARC
  8
SURFACE
 62
7
  6
CONTINUOUS
 10
71.1669522302
 20
178.4297544684
 40
5.0
 50
356.5741055897
 51
360.0
  0
ARC
  8
SURFACE
 62
7
  6
CONTINUOUS
 10
74.1669522302
 20
178.4297544684
 40
5.0
 50
180.0
 51
183.4258086777
  0
ARC
  8
SURFACE
 62
7
  6
CONTINUOUS
 10
74.1669522302
 20
178.4297544684
 40
5.0
 50
184.5018939261
 51
186.8975185402
  0
ARC
  8
SURFACE
 62
7
  6
CONTINUOUS
 10
74.1669522302
 20
178.4297544684
 40
5.0
 50
188.1023570154
 51
190.4980062367
  0
ARC
  8
SURFACE
 62
7
  6
CONTINUOUS
 10
74.1669522302
 20
178.4297544684
 40
5.0
 50
191.5741055897
 51
195.0
  0
ARC
  8
SURFACE
 62
7
  6
CONTINUOUS
 10
58.4669522302
 20
178.4297544684
 40
5.0
 50
345.0
 51
348.4258086777
  0
ARC
  8
SURFACE
 62
7
  6
CONTINUOUS
 10
58.4669522302
 20
178.4297544684
 40
5.0
 50
349.5018939261
 51
351.8975185402
  0
ARC
  8
SURFACE
 62
7
  6
CONTINUOUS
 10
58.4669522302
 20
178.4297544684
 40
5.0
 50
353.1023570154
 51
355.4980062367
  0
ARC
  8
SURFACE
 62
7
  6
CONTINUOUS
 10
58.4669522302
 20
178.4297544684
 40
5.0
 50
356.5741055897
 51
360.0
  0
ARC
  8
SURFACE
 62
7
  6
CONTINUOUS
 10
61.4669522302
 20
178.4297544684
 40
5.0
 50
180.0
 51
183.4258086777
  0
ARC
  8
SURFACE
 62
7
  6
CONTINUOUS
 10
61.4669522302
 20
178.4297544684
 40
5.0
 50
184.5018939261
 51
186.8975185402
  0
ARC
  8
SURFACE
 62
7
  6
CONTINUOUS
 10
61.4669522302
 20
178.4297544684
 40
5.0
 50
188.1023570154
 51
190.4980062367
  0
ARC
  8
SURFACE
 62
7
  6
CONTINUOUS
 10
61.4669522302
 20
178.4297544684
 40
5.0
 50
191.5741055897
 51
195.0
  0
ARC
  8
0
 62
7
  6
CONTINUOUS
 10
61.4669522302
 20
178.4297544684
 40
5.0
 50
180.0
 51
195.0
  0
ARC
  8
0
 62
7
  6
CONTINUOUS
 10
58.4669522302
 20
178.4297544684
 40
5.0
 50
345.0
 51
360.0
  0
ARC
  8
0
 62
7
  6
CONTINUOUS
 10
74.1669522302
 20
178.4297544684
 40
5.0
 50
180.0
 51
195.0
  0
ARC
  8
0
 62
7
  6
CONTINUOUS
 10
71.1669522302
 20
178.4297544684
 40
5.0
 50
345.0
 51
360.0
  0
ARC
  8
0
 62
7
  6
CONTINUOUS
 10
86.8669522302
 20
178.4297544684
 40
5.0
 50
180.0
 51
195.0
  0
ARC
  8
0
 62
7
  6
CONTINUOUS
 10
83.8669522302
 20
178.4297544684
 40
5.0
 50
345.0
 51
360.0
  0
ARC
  8
0
 62
7
  6
CONTINUOUS
 10
58.5986061726
 20
173.6797544684
 40
1.0
 50
195.0
 51
270.0
  0
ARC
  8
0
 62
7
  6
CONTINUOUS
 10
61.3352982878
 20
173.6797544684
 40
1.0
 50
270.0
 51
345.0
  0
ARC
  8
0
 62
7
  6
CONTINUOUS
 10
71.2986061726
 20
173.6797544684
 40
1.0
 50
195.0
 51
270.0
  0
ARC
  8
0
 62
7
  6
CONTINUOUS
 10
74.0352982878
 20
173.6797544684
 40
1.0
 50
270.0
 51
345.0
  0
ARC
  8
0
 62
7
  6
CONTINUOUS
 10
83.9986061726
 20
173.6797544684
 40
1.0
 50
195.0
 51
270.0
  0
ARC
  8
0
 62
7
  6
CONTINUOUS
 10
86.7352982878
 20
173.6797544684
 40
1.0
 50
270.0
 51
345.0
  0
ARC
  8
0
 62
7
  6
CONTINUOUS
 10
89.5669522302
 20
186.3277544684
 40
5.0
 50
0.0
 51
15.0
  0
ARC
  8
0
 62
7
  6
CONTINUOUS
 10
68.4669522302
 20
186.3277544684
 40
5.0
 50
165.0
 51
180.0
  0
ARC
  8
0
 62
7
  6
CONTINUOUS
 10
64.1669522302
 20
186.3277544684
 40
5.0
 50
0.0
 51
15.0
  0
ARC
  8
0
 62
7
  6
CONTINUOUS
 10
81.1669522302
 20
186.3277544684
 40
5.0
 50
165.0
 51
180.0
  0
ARC
  8
0
 62
7
  6
CONTINUOUS
 10
76.8669522302
 20
186.3277544684
 40
5.0
 50
0.0
 51
15.0
  0
ARC
  8
0
 62
7
  6
CONTINUOUS
 10
93.8669522302
 20
186.3277544684
 40
5.0
 50
165.0
 51
180.0
  0
ARC
  8
0
 62
7
  6
CONTINUOUS
 10
80.3692462023
 20
189.6777544684
 40
0.75
 50
15.0
 51
90.0
  0
ARC
  8
0
 62
7
  6
CONTINUOUS
 10
67.6692462023
 20
189.6777544684
 40
0.75
 50
15.0
 51
90.0
  0
ARC
  8
0
 62
7
  6
CONTINUOUS
 10
90.3646582581
 20
189.6777544684
 40
0.75
 50
90.0
 51
165.0
  0
ARC
  8
0
 62
7
  6
CONTINUOUS
 10
77.6646582581
 20
189.6777544684
 40
0.75
 50
90.0
 51
165.0
  0
ARC
  8
0
 62
7
  6
CONTINUOUS
 10
64.9646582581
 20
189.6777544684
 40
0.75
 50
90.0
 51
165.0
  0
ARC
  8
0
 62
7
  6
CONTINUOUS
 10
93.1076126073
 20
189.7277542606
 40
0.7
 50
15.0
 51
89.9999988693
  0
ARC
  8
0
 62
7
  6
CONTINUOUS
 10
121.3169522302
 20
159.8317544684
 40
5.0
 50
345.0
 51
360.0
  0
ARC
  8
0
 62
7
  6
CONTINUOUS
 10
125.6169522302
 20
159.8317544684
 40
5.0
 50
180.0
 51
195.0
  0
ARC
  8
0
 62
7
  6
CONTINUOUS
 10
108.6169522302
 20
159.8317544684
 40
5.0
 50
345.0
 51
360.0
  0
ARC
  8
0
 62
7
  6
CONTINUOUS
 10
112.9169522302
 20
159.8317544684
 40
5.0
 50
180.0
 51
195.0
  0
ARC
  8
0
 62
7
  6
CONTINUOUS
 10
95.9169522302
 20
159.8317544684
 40
5.0
 50
345.0
 51
360.0
  0
ARC
  8
0
 62
7
  6
CONTINUOUS
 10
100.2169522302
 20
159.8317544684
 40
5.0
 50
180.0
 51
195.0
  0
ARC
  8
0
 62
7
  6
CONTINUOUS
 10
124.8192462023
 20
156.4817544684
 40
0.75
 50
270.0
 51
345.0
  0
ARC
  8
0
 62
7
  6
CONTINUOUS
 10
112.1192462023
 20
156.4817544684
 40
0.75
 50
270.0
 51
345.0
  0
ARC
  8
0
 62
7
  6
CONTINUOUS
 10
122.1146582581
 20
156.4817544684
 40
0.75
 50
195.0
 51
270.0
  0
ARC
  8
0
 62
7
  6
CONTINUOUS
 10
99.4192462023
 20
156.4817544684
 40
0.75
 50
270.0
 51
345.0
  0
ARC
  8
0
 62
7
  6
CONTINUOUS
 10
109.4146582581
 20
156.4817544684
 40
0.75
 50
195.0
 51
270.0
  0
ARC
  8
0
 62
7
  6
CONTINUOUS
 10
96.6762918527
 20
156.4317546773
 40
0.7
 50
195.0
 51
269.9999988628
  0
ARC
  8
0
 62
7
  6
CONTINUOUS
 10
105.9169522302
 20
167.7297544684
 40
5.0
 50
165.0
 51
180.0
  0
ARC
  8
0
 62
7
  6
CONTINUOUS
 10
102.9169522302
 20
167.7297544684
 40
5.0
 50
0.0
 51
15.0
  0
ARC
  8
0
 62
7
  6
CONTINUOUS
 10
118.6169522302
 20
167.7297544684
 40
5.0
 50
165.0
 51
180.0
  0
ARC
  8
0
 62
7
  6
CONTINUOUS
 10
115.6169522302
 20
167.7297544684
 40
5.0
 50
0.0
 51
15.0
  0
ARC
  8
0
 62
7
  6
CONTINUOUS
 10
131.3169522302
 20
167.7297544684
 40
5.0
 50
165.0
 51
180.0
  0
ARC
  8
0
 62
7
  6
CONTINUOUS
 10
128.3169522302
 20
167.7297544684
 40
5.0
 50
0.0
 51
15.0
  0
ARC
  8
0
 62
7
  6
CONTINUOUS
 10
131.1852982878
 20
172.4797544684
 40
1.0
 50
15.0
 51
90.0
  0
ARC
  8
0
 62
7
  6
CONTINUOUS
 10
128.4486061726
 20
172.4797544684
 40
1.0
 50
90.0
 51
165.0
  0
ARC
  8
0
 62
7
  6
CONTINUOUS
 10
118.4852982878
 20
172.4797544684
 40
1.0
 50
15.0
 51
90.0
  0
ARC
  8
0
 62
7
  6
CONTINUOUS
 10
115.7486061726
 20
172.4797544684
 40
1.0
 50
90.0
 51
165.0
  0
ARC
  8
0
 62
7
  6
CONTINUOUS
 10
105.7852982878
 20
172.4797544684
 40
1.0
 50
15.0
 51
90.0
  0
ARC
  8
0
 62
7
  6
CONTINUOUS
 10
103.0486061726
 20
172.4797544684
 40
1.0
 50
90.0
 51
165.0
  0
ARC
  8
0
 62
7
  6
CONTINUOUS
 10
159.4169522302
 20
159.8317544684
 40
5.0
 50
345.0
 51
360.0
  0
ARC
  8
0
 62
7
  6
CONTINUOUS
 10
163.7169522302
 20
159.8317544684
 40
5.0
 50
180.0
 51
195.0
  0
ARC
  8
0
 62
7
  6
CONTINUOUS
 10
146.7169522302
 20
159.8317544684
 40
5.0
 50
345.0
 51
360.0
  0
ARC
  8
0
 62
7
  6
CONTINUOUS
 10
151.0169522302
 20
159.8317544684
 40
5.0
 50
180.0
 51
195.0
  0
ARC
  8
0
 62
7
  6
CONTINUOUS
 10
134.0169522302
 20
159.8317544684
 40
5.0
 50
345.0
 51
360.0
  0
ARC
  8
0
 62
7
  6
CONTINUOUS
 10
138.3169522302
 20
159.8317544684
 40
5.0
 50
180.0
 51
195.0
  0
ARC
  8
0
 62
7
  6
CONTINUOUS
 10
134.8146582581
 20
156.4817544684
 40
0.75
 50
195.0
 51
270.000004095
  0
ARC
  8
0
 62
7
  6
CONTINUOUS
 10
147.5146582581
 20
156.4817544684
 40
0.75
 50
195.0
 51
270.0
  0
ARC
  8
0
 62
7
  6
CONTINUOUS
 10
137.5192462023
 20
156.4817544684
 40
0.75
 50
270.0
 51
345.0
  0
ARC
  8
0
 62
7
  6
CONTINUOUS
 10
160.2146582581
 20
156.4817544684
 40
0.75
 50
195.0
 51
270.0
  0
ARC
  8
0
 62
7
  6
CONTINUOUS
 10
150.2192462023
 20
156.4817544684
 40
0.75
 50
270.0
 51
345.0
  0
ARC
  8
0
 62
7
  6
CONTINUOUS
 10
162.9192462023
 20
156.4817544684
 40
0.75
 50
270.0
 51
345.0
  0
ARC
  8
0
 62
7
  6
CONTINUOUS
 10
144.0169522302
 20
167.7297544684
 40
5.0
 50
165.0
 51
180.0
  0
ARC
  8
0
 62
7
  6
CONTINUOUS
 10
141.0169522302
 20
167.7297544684
 40
5.0
 50
0.0
 51
15.0
  0
ARC
  8
0
 62
7
  6
CONTINUOUS
 10
156.7169522302
 20
167.7297544684
 40
5.0
 50
165.0
 51
180.0
  0
ARC
  8
0
 62
7
  6
CONTINUOUS
 10
169.4169522302
 20
167.7297544684
 40
5.0
 50
165.0
 51
180.0
  0
ARC
  8
0
 62
7
  6
CONTINUOUS
 10
153.7169522302
 20
167.7297544684
 40
5.0
 50
0.0
 51
15.0
  0
ARC
  8
0
 62
7
  6
CONTINUOUS
 10
166.5486061726
 20
172.4797544684
 40
1.0
 50
90.0
 51
165.0
  0
ARC
  8
0
 62
7
  6
CONTINUOUS
 10
156.5852982878
 20
172.4797544684
 40
1.0
 50
15.0
 51
90.0
  0
ARC
  8
0
 62
7
  6
CONTINUOUS
 10
153.8486061726
 20
172.4797544684
 40
1.0
 50
90.0
 51
165.0
  0
ARC
  8
0
 62
7
  6
CONTINUOUS
 10
143.8852982878
 20
172.4797544684
 40
1.0
 50
15.0
 51
90.0
  0
ARC
  8
0
 62
7
  6
CONTINUOUS
 10
141.1486061726
 20
172.4797544684
 40
1.0
 50
90.0
 51
165.0
  0
ARC
  8
0
 62
7
  6
CONTINUOUS
 10
99.5669522302
 20
178.4297544684
 40
5.0
 50
180.0
 51
195.0
  0
ARC
  8
0
 62
7
  6
CONTINUOUS
 10
121.9669522302
 20
178.4297544684
 40
5.0
 50
345.0
 51
360.0
  0
ARC
  8
0
 62
7
  6
CONTINUOUS
 10
109.2669522302
 20
178.4297544684
 40
5.0
 50
345.0
 51
360.0
  0
ARC
  8
0
 62
7
  6
CONTINUOUS
 10
124.9669522302
 20
178.4297544684
 40
5.0
 50
180.0
 51
195.0
  0
ARC
  8
0
 62
7
  6
CONTINUOUS
 10
96.5669522302
 20
178.4297544684
 40
5.0
 50
345.0
 51
360.0
  0
ARC
  8
0
 62
7
  6
CONTINUOUS
 10
112.2669522302
 20
178.4297544684
 40
5.0
 50
180.0
 51
195.0
  0
ARC
  8
0
 62
7
  6
CONTINUOUS
 10
122.0986061726
 20
173.6797544684
 40
1.0
 50
195.0
 51
270.0
  0
ARC
  8
0
 62
7
  6
CONTINUOUS
 10
124.8352982878
 20
173.6797544684
 40
1.0
 50
270.0
 51
345.0
  0
ARC
  8
0
 62
7
  6
CONTINUOUS
 10
109.3986061726
 20
173.6797544684
 40
1.0
 50
195.0
 51
270.0
  0
ARC
  8
0
 62
7
  6
CONTINUOUS
 10
112.1352982878
 20
173.6797544684
 40
1.0
 50
270.0
 51
345.0
  0
ARC
  8
0
 62
7
  6
CONTINUOUS
 10
96.6986061726
 20
173.6797544684
 40
1.0
 50
195.0
 51
270.0
  0
ARC
  8
0
 62
7
  6
CONTINUOUS
 10
99.4352982878
 20
173.6797544684
 40
1.0
 50
270.0
 51
345.0
  0
ARC
  8
0
 62
7
  6
CONTINUOUS
 10
127.6669522302
 20
186.3277544684
 40
5.0
 50
0.0
 51
15.0
  0
ARC
  8
0
 62
7
  6
CONTINUOUS
 10
114.9669522302
 20
186.3277544684
 40
5.0
 50
0.0
 51
15.0
  0
ARC
  8
0
 62
7
  6
CONTINUOUS
 10
131.9669522302
 20
186.3277544684
 40
5.0
 50
165.0
 51
180.0
  0
ARC
  8
0
 62
7
  6
CONTINUOUS
 10
102.2669522302
 20
186.3277544684
 40
5.0
 50
0.0
 51
15.0
  0
ARC
  8
0
 62
7
  6
CONTINUOUS
 10
119.2669522302
 20
186.3277544684
 40
5.0
 50
165.0
 51
180.0
  0
ARC
  8
0
 62
7
  6
CONTINUOUS
 10
106.5669522302
 20
186.3277544684
 40
5.0
 50
165.0
 51
180.0
  0
ARC
  8
0
 62
7
  6
CONTINUOUS
 10
103.026291853
 20
189.7277542606
 40
0.7
 50
90.0000011307
 51
165.0
  0
ARC
  8
0
 62
7
  6
CONTINUOUS
 10
115.726291853
 20
189.7277542606
 40
0.7
 50
90.0000011307
 51
165.0
  0
ARC
  8
0
 62
7
  6
CONTINUOUS
 10
105.8076126073
 20
189.7277542606
 40
0.7
 50
15.0
 51
89.9999988693
  0
ARC
  8
0
 62
7
  6
CONTINUOUS
 10
128.426291853
 20
189.7277542606
 40
0.7
 50
90.0000011307
 51
165.0
  0
ARC
  8
0
 62
7
  6
CONTINUOUS
 10
118.5076126073
 20
189.7277542606
 40
0.7
 50
15.0
 51
89.9999988693
  0
ARC
  8
0
 62
7
  6
CONTINUOUS
 10
131.2076126073
 20
189.7277542606
 40
0.7
 50
15.0
 51
89.9999988693
  0
ARC
  8
0
 62
7
  6
CONTINUOUS
 10
147.4986061726
 20
173.6797544684
 40
1.0
 50
195.0
 51
270.0
  0
ARC
  8
0
 62
7
  6
CONTINUOUS
 10
150.2352982878
 20
173.6797544684
 40
1.0
 50
270.0
 51
345.0
  0
ARC
  8
0
 62
7
  6
CONTINUOUS
 10
134.7986061726
 20
173.6797544684
 40
1.0
 50
195.0
 51
270.0
  0
ARC
  8
0
 62
7
  6
CONTINUOUS
 10
137.5352982878
 20
173.6797544684
 40
1.0
 50
270.0
 51
345.0
  0
ARC
  8
0
 62
7
  6
CONTINUOUS
 10
134.6669522302
 20
178.4297544684
 40
5.0
 50
345.0
 51
360.0
  0
ARC
  8
0
 62
7
  6
CONTINUOUS
 10
150.3669522302
 20
178.4297544684
 40
5.0
 50
180.0
 51
195.0
  0
ARC
  8
0
 62
7
  6
CONTINUOUS
 10
147.3669522302
 20
178.4297544684
 40
5.0
 50
345.0
 51
360.0
  0
ARC
  8
0
 62
7
  6
CONTINUOUS
 10
137.6669522302
 20
178.4297544684
 40
5.0
 50
180.0
 51
195.0
  0
ARC
  8
0
 62
7
  6
CONTINUOUS
 10
168.4169522302
 20
175.9797544684
 40
2.5
 50
270.0
 51
360.0
  0
ARC
  8
0
 62
7
  6
CONTINUOUS
 10
160.1986061726
 20
173.6797544684
 40
1.0
 50
195.0
 51
270.0
  0
ARC
  8
0
 62
7
  6
CONTINUOUS
 10
162.9352982878
 20
173.6797544684
 40
1.0
 50
270.0
 51
345.0
  0
ARC
  8
0
 62
7
  6
CONTINUOUS
 10
163.0669522302
 20
178.4297544684
 40
5.0
 50
180.0
 51
195.0
  0
ARC
  8
0
 62
7
  6
CONTINUOUS
 10
160.0669522302
 20
178.4297544684
 40
5.0
 50
345.0
 51
360.0
  0
ARC
  8
0
 62
7
  6
CONTINUOUS
 10
167.8919522302
 20
177.0897544684
 40
0.9925400392
 50
180.0
 51
192.2148645948
  0
ARC
  8
0
 62
7
  6
CONTINUOUS
 10
168.0919522302
 20
177.0897544684
 40
0.9925400392
 50
347.7851354052
 51
360.0
  0
ARC
  8
0
 62
7
  6
CONTINUOUS
 10
153.0669522302
 20
186.3277544684
 40
5.0
 50
0.0
 51
15.0
  0
ARC
  8
0
 62
7
  6
CONTINUOUS
 10
170.0669522302
 20
186.3277544684
 40
5.0
 50
165.0
 51
180.0
  0
ARC
  8
0
 62
7
  6
CONTINUOUS
 10
140.3669522302
 20
186.3277544684
 40
5.0
 50
0.0
 51
15.0
  0
ARC
  8
0
 62
7
  6
CONTINUOUS
 10
157.3669522302
 20
186.3277544684
 40
5.0
 50
165.0
 51
180.0
  0
ARC
  8
0
 62
7
  6
CONTINUOUS
 10
144.6669522302
 20
186.3277544684
 40
5.0
 50
165.0
 51
180.0
  0
ARC
  8
0
 62
7
  6
CONTINUOUS
 10
165.9169522302
 20
186.3277544684
 40
5.0
 50
0.0
 51
15.0
  0
ARC
  8
0
 62
7
  6
CONTINUOUS
 10
141.126291853
 20
189.7277542606
 40
0.7
 50
90.0000011307
 51
165.0
  0
ARC
  8
0
 62
7
  6
CONTINUOUS
 10
153.826291853
 20
189.7277542606
 40
0.7
 50
90.0000011307
 51
165.0
  0
ARC
  8
0
 62
7
  6
CONTINUOUS
 10
143.9076126073
 20
189.7277542606
 40
0.7
 50
15.0
 51
89.9999988693
  0
ARC
  8
0
 62
7
  6
CONTINUOUS
 10
166.526291853
 20
189.7277542606
 40
0.7
 50
90.0000011307
 51
165.0
  0
ARC
  8
0
 62
7
  6
CONTINUOUS
 10
156.6076126073
 20
189.7277542606
 40
0.7
 50
15.0
 51
89.9999988693
  0
ARC
  8
0
 62
7
  6
CONTINUOUS
 10
169.4576126073
 20
189.7277542606
 40
0.7
 50
15.0
 51
89.9999988693
  0
ARC
  8
0
 62
7
  6
CONTINUOUS
 10
26.0669522302
 20
103.3713780919
 40
0.7
 50
180.0
 51
270.0
  0
ARC
  8
0
 62
7
  6
CONTINUOUS
 10
19.5669522302
 20
103.3713780919
 40
0.7
 50
180.0
 51
270.0
  0
ARC
  8
0
 62
7
  6
CONTINUOUS
 10
38.7669522302
 20
103.3713780919
 40
0.7
 50
180.0
 51
270.0
  0
ARC
  8
0
 62
7
  6
CONTINUOUS
 10
30.3669522302
 20
103.3713780919
 40
0.7
 50
270.0
 51
360.0
  0
ARC
  8
0
 62
7
  6
CONTINUOUS
 10
43.0669522302
 20
103.3713780919
 40
0.7
 50
270.0
 51
360.0
  0
ARC
  8
0
 62
7
  6
CONTINUOUS
 10
51.4669522302
 20
103.3713780919
 40
0.7
 50
180.0
 51
270.0
  0
ARC
  8
0
 62
7
  6
CONTINUOUS
 10
64.1669522302
 20
103.3713780919
 40
0.7
 50
180.0
 51
270.0
  0
ARC
  8
0
 62
7
  6
CONTINUOUS
 10
55.7669522302
 20
103.3713780919
 40
0.7
 50
270.0
 51
360.0
  0
ARC
  8
0
 62
7
  6
CONTINUOUS
 10
76.8669522302
 20
103.3713780919
 40
0.7
 50
180.0
 51
270.0
  0
ARC
  8
0
 62
7
  6
CONTINUOUS
 10
68.4669522302
 20
103.3713780919
 40
0.7
 50
270.0
 51
360.0
  0
ARC
  8
0
 62
7
  6
CONTINUOUS
 10
89.5669522302
 20
103.3713780919
 40
0.7
 50
180.0
 51
270.0
  0
ARC
  8
0
 62
7
  6
CONTINUOUS
 10
81.1669522302
 20
103.3713780919
 40
0.7
 50
270.0
 51
360.0
  0
ARC
  8
0
 62
7
  6
CONTINUOUS
 10
93.8669522302
 20
103.3713780919
 40
0.7
 50
270.0
 51
360.0
  0
ARC
  8
0
 62
7
  6
CONTINUOUS
 10
68.4669522302
 20
114.9713780919
 40
0.7
 50
0.0
 51
90.0
  0
ARC
  8
0
 62
7
  6
CONTINUOUS
 10
76.8669522302
 20
114.9713780919
 40
0.7
 50
90.0
 51
180.0
  0
ARC
  8
0
 62
7
  6
CONTINUOUS
 10
81.1669522302
 20
114.9713780919
 40
0.7
 50
0.0
 51
90.0
  0
ARC
  8
0
 62
7
  6
CONTINUOUS
 10
89.5669522302
 20
114.9713780919
 40
0.7
 50
90.0
 51
180.0
  0
ARC
  8
0
 62
7
  6
CONTINUOUS
 10
55.7669522302
 20
114.9713780919
 40
0.7
 50
0.0
 51
90.0
  0
ARC
  8
0
 62
7
  6
CONTINUOUS
 10
64.1669522302
 20
114.9713780919
 40
0.7
 50
90.0
 51
180.0
  0
ARC
  8
0
 62
7
  6
CONTINUOUS
 10
30.3669522302
 20
114.9713780919
 40
0.7
 50
0.0
 51
90.0
  0
ARC
  8
0
 62
7
  6
CONTINUOUS
 10
38.7669522302
 20
114.9713780919
 40
0.7
 50
90.0
 51
180.0
  0
ARC
  8
0
 62
7
  6
CONTINUOUS
 10
19.5669522302
 20
114.9713780919
 40
0.7
 50
90.0
 51
180.0
  0
ARC
  8
0
 62
7
  6
CONTINUOUS
 10
26.0669522302
 20
114.9713780919
 40
0.7
 50
90.0
 51
180.0
  0
ARC
  8
0
 62
7
  6
CONTINUOUS
 10
43.0669522302
 20
114.9713780919
 40
0.7
 50
0.0
 51
90.0
  0
ARC
  8
0
 62
7
  6
CONTINUOUS
 10
51.4669522302
 20
114.9713780919
 40
0.7
 50
90.0
 51
180.0
  0
ARC
  8
0
 62
7
  6
CONTINUOUS
 10
93.8669522302
 20
114.9713780919
 40
0.7
 50
0.0
 51
90.0
  0
ARC
  8
0
 62
7
  6
CONTINUOUS
 10
166.0407006474
 20
103.4213780919
 40
0.75
 50
270.0
 51
298.6719397343
  0
ARC
  8
0
 62
7
  6
CONTINUOUS
 10
169.943203813
 20
103.4213780919
 40
0.75
 50
241.3066721601
 51
270.0
  0
ARC
  8
0
 62
7
  6
CONTINUOUS
 10
102.2669522302
 20
103.3713780919
 40
0.7
 50
180.0
 51
270.0
  0
ARC
  8
0
 62
7
  6
CONTINUOUS
 10
114.9669522302
 20
103.3713780919
 40
0.7
 50
180.0
 51
270.0
  0
ARC
  8
0
 62
7
  6
CONTINUOUS
 10
106.5669522302
 20
103.3713780919
 40
0.7
 50
270.0
 51
360.0
  0
ARC
  8
0
 62
7
  6
CONTINUOUS
 10
127.6669522302
 20
103.3713780919
 40
0.7
 50
180.0
 51
270.0
  0
ARC
  8
0
 62
7
  6
CONTINUOUS
 10
119.2669522302
 20
103.3713780919
 40
0.7
 50
270.0
 51
360.0
  0
ARC
  8
0
 62
7
  6
CONTINUOUS
 10
131.9669522302
 20
103.3713780919
 40
0.7
 50
270.0
 51
360.0
  0
ARC
  8
0
 62
7
  6
CONTINUOUS
 10
140.3669522302
 20
103.3713780919
 40
0.7
 50
180.0
 51
270.0
  0
ARC
  8
0
 62
7
  6
CONTINUOUS
 10
153.0669522302
 20
103.3713780919
 40
0.7
 50
180.0
 51
270.0
  0
ARC
  8
0
 62
7
  6
CONTINUOUS
 10
144.6669522302
 20
103.3713780919
 40
0.7
 50
270.0
 51
360.0
  0
ARC
  8
0
 62
7
  6
CONTINUOUS
 10
165.7669522302
 20
103.3713780919
 40
0.7
 50
180.0
 51
270.0
  0
ARC
  8
0
 62
7
  6
CONTINUOUS
 10
157.3669522302
 20
103.3713780919
 40
0.7
 50
270.0
 51
360.0
  0
ARC
  8
0
 62
7
  6
CONTINUOUS
 10
170.2169522302
 20
103.3713780919
 40
0.7
 50
270.0
 51
360.0
  0
ARC
  8
0
 62
7
  6
CONTINUOUS
 10
169.943203813
 20
114.9213780919
 40
0.75
 50
90.0
 51
118.6718889102
  0
ARC
  8
0
 62
7
  6
CONTINUOUS
 10
166.0407006474
 20
114.9213780919
 40
0.75
 50
61.3071240376
 51
90.0
  0
ARC
  8
0
 62
7
  6
CONTINUOUS
 10
102.2669522302
 20
114.9713780919
 40
0.7
 50
90.0
 51
180.0
  0
ARC
  8
0
 62
7
  6
CONTINUOUS
 10
114.9669522302
 20
114.9713780919
 40
0.7
 50
90.0
 51
180.0
  0
ARC
  8
0
 62
7
  6
CONTINUOUS
 10
106.5669522302
 20
114.9713780919
 40
0.7
 50
0.0
 51
90.0
  0
ARC
  8
0
 62
7
  6
CONTINUOUS
 10
127.6669522302
 20
114.9713780919
 40
0.7
 50
90.0
 51
180.0
  0
ARC
  8
0
 62
7
  6
CONTINUOUS
 10
119.2669522302
 20
114.9713780919
 40
0.7
 50
0.0
 51
90.0
  0
ARC
  8
0
 62
7
  6
CONTINUOUS
 10
131.9669522302
 20
114.9713780919
 40
0.7
 50
0.0
 51
90.0
  0
ARC
  8
0
 62
7
  6
CONTINUOUS
 10
140.3669522302
 20
114.9713780919
 40
0.7
 50
90.0
 51
180.0
  0
ARC
  8
0
 62
7
  6
CONTINUOUS
 10
153.0669522302
 20
114.9713780919
 40
0.7
 50
90.0
 51
180.0
  0
ARC
  8
0
 62
7
  6
CONTINUOUS
 10
144.6669522302
 20
114.9713780919
 40
0.7
 50
0.0
 51
90.0
  0
ARC
  8
0
 62
7
  6
CONTINUOUS
 10
165.7669522302
 20
114.9713780919
 40
0.7
 50
90.0
 51
180.0
  0
ARC
  8
0
 62
7
  6
CONTINUOUS
 10
157.3669522302
 20
114.9713780919
 40
0.7
 50
0.0
 51
90.0
  0
ARC
  8
0
 62
7
  6
CONTINUOUS
 10
170.2169522302
 20
114.9713780919
 40
0.7
 50
0.0
 51
90.0
  0
ARC
  8
0
 62
7
  6
CONTINUOUS
 10
182.387083768
 20
171.9797544684
 40
0.7
 50
90.0
 51
180.0
  0
ARC
  8
0
 62
7
  6
CONTINUOUS
 10
186.0204631829
 20
155.4821190572
 40
0.5
 50
76.8168039604
 51
89.2209804147
  0
ARC
  8
SURFACE
 62
7
  6
CONTINUOUS
 10
186.087083768
 20
160.3816661482
 40
4.4
 50
191.8258337341
 51
194.127486483
  0
ARC
  8
SURFACE
 62
7
  6
CONTINUOUS
 10
186.087083768
 20
160.3816661482
 40
4.4
 50
194.5301216716
 51
197.245088198
  0
ARC
  8
SURFACE
 62
7
  6
CONTINUOUS
 10
186.087083768
 20
160.3816661482
 40
4.4
 50
197.9415656605
 51
200.1373769715
  0
ARC
  8
SURFACE
 62
7
  6
CONTINUOUS
 10
186.087083768
 20
160.3816661482
 40
4.4
 50
203.8413053238
 51
206.6119931314
  0
ARC
  8
SURFACE
 62
7
  6
CONTINUOUS
 10
186.087083768
 20
160.3816661482
 40
4.4
 50
206.8272882022
 51
210.3753185117
  0
ARC
  8
SURFACE
 62
7
  6
CONTINUOUS
 10
186.087083768
 20
160.3816661482
 40
4.4
 50
180.0
 51
190.8896363493
  0
ARC
  8
0
 62
7
  6
CONTINUOUS
 10
186.087083768
 20
160.3816661482
 40
4.4
 50
180.0
 51
269.2209804147
  0
ARC
  8
SURFACE
 62
7
  6
CONTINUOUS
 10
188.087083768
 20
160.3797544684
 40
2.55
 50
180.0
 51
270.0
  0
ARC
  8
SURFACE
 62
7
  6
CONTINUOUS
 10
188.087083768
 20
169.2797544684
 40
2.55
 50
90.0
 51
180.0
  0
ARC
  8
0
 62
7
  6
CONTINUOUS
 10
186.087083768
 20
185.7778427885
 40
4.4
 50
90.7790195853
 51
180.0
  0
ARC
  8
0
 62
7
  6
CONTINUOUS
 10
186.0204631829
 20
190.6773898796
 40
0.5
 50
270.7790195853
 51
283.1831960396
  0
ARC
  8
SURFACE
 62
7
  6
CONTINUOUS
 10
188.087083768
 20
176.8797544684
 40
2.55
 50
180.0
 51
270.0
  0
ARC
  8
SURFACE
 62
7
  6
CONTINUOUS
 10
188.087083768
 20
185.7797544684
 40
2.55
 50
90.0
 51
180.0
  0
ARC
  8
SURFACE
 62
7
  6
CONTINUOUS
 10
188.287083768
 20
160.3797544684
 40
2.55
 50
270.0
 51
360.0
  0
ARC
  8
0
 62
7
  6
CONTINUOUS
 10
190.3537043532
 20
155.4821190572
 40
0.5
 50
90.7790195853
 51
103.1831960396
  0
ARC
  8
SURFACE
 62
7
  6
CONTINUOUS
 10
190.287083768
 20
160.3816661482
 40
4.4
 50
329.6246814883
 51
333.1727003669
  0
ARC
  8
SURFACE
 62
7
  6
CONTINUOUS
 10
190.287083768
 20
160.3816661482
 40
4.4
 50
333.3880169072
 51
336.1587201065
  0
ARC
  8
SURFACE
 62
7
  6
CONTINUOUS
 10
190.287083768
 20
160.3816661482
 40
4.4
 50
349.110246994
 51
351.4520979909
  0
ARC
  8
SURFACE
 62
7
  6
CONTINUOUS
 10
190.287083768
 20
160.3816661482
 40
4.4
 50
345.8746197616
 51
348.1737080835
  0
ARC
  8
SURFACE
 62
7
  6
CONTINUOUS
 10
190.287083768
 20
160.3816661482
 40
4.4
 50
342.7543253721
 51
345.469299329
  0
ARC
  8
SURFACE
 62
7
  6
CONTINUOUS
 10
190.287083768
 20
160.3816661482
 40
4.4
 50
339.8628655766
 51
342.0583440396
  0
ARC
  8
0
 62
7
  6
CONTINUOUS
 10
190.287083768
 20
160.3816661482
 40
4.4
 50
270.7790195853
 51
360.0
  0
ARC
  8
0
 62
7
  6
CONTINUOUS
 10
188.187083768
 20
164.7317544684
 40
9.0
 50
256.8168039604
 51
283.1831960396
  0
ARC
  8
SURFACE
 62
7
  6
CONTINUOUS
 10
188.287083768
 20
169.2797544684
 40
2.55
 50
0.0
 51
90.0
  0
ARC
  8
0
 62
7
  6
CONTINUOUS
 10
193.987083768
 20
171.9797544684
 40
0.7
 50
0.0
 51
90.0
  0
ARC
  8
0
 62
7
  6
CONTINUOUS
 10
188.187083768
 20
181.4277544684
 40
9.0
 50
76.8168039604
 51
103.1831960396
  0
ARC
  8
SURFACE
 62
7
  6
CONTINUOUS
 10
188.287083768
 20
176.8797544684
 40
2.55
 50
270.0
 51
360.0
  0
ARC
  8
SURFACE
 62
7
  6
CONTINUOUS
 10
188.287083768
 20
185.7797544684
 40
2.55
 50
0.0
 51
90.0
  0
ARC
  8
0
 62
7
  6
CONTINUOUS
 10
190.287083768
 20
185.7778427885
 40
4.4
 50
0.0
 51
89.2209804147
  0
ARC
  8
0
 62
7
  6
CONTINUOUS
 10
190.3537043532
 20
190.6773898796
 40
0.5
 50
256.8168039604
 51
269.2209804147
  0
ENDSEC
  0
EOF
