  0
SECTION
  2
HEADER
  9
$EXTMAX
 10
210.0
 20
297.0
 30
0.0
  9
$EXTMIN
 10
0.0
 20
0.0
 30
0.0
  9
$LIMMIN
 10
0.0
 20
0.0
  9
$LIMMAX
 10
210.0
 20
297.0
  9
$VIEWCTR
 10
105.0
 20
148.5
  9
$VIEWSIZE
 40
297.0
  9
$CLAYER
  8
0
  9
$LTSCALE
 40
19.36
  9
$CELTYPE
  6
BYLAYER
  9
$DIMSCALE
 40
1.0
  9
$DIMASZ
 40
3.5
  9
$DIMEXO
 40
2.2
  9
$DIMDLI
 40
13.376
  9
$DIMEXE
 40
6.336
  9
$DIMCEN
 40
3.168
  9
$DIMLFAC
 40
1.0
  9
$DIMBLK
  1
_FILLED
  9
$DIMTXT
 40
3.5
  9
$PDMODE
 70
3
  9
$PDSIZE
 40
0.3125
  9
$TILEMODE
 70
1
  0
ENDSEC
  0
SECTION
  2
TABLES
  0
TABLE
  2
LTYPE
 70
6
  0
LTYPE
  2
BYBLOCK
 70
0
  3

 72
65
 73
0
 40
0.0
  0
LTYPE
  2
BYLAYER
 70
0
  3

 72
65
 73
0
 40
0.0
  0
LTYPE
  2
CONTINUOUS
 70
64
  3
Solid line
 72
65
 73
0
 40
0.0
  0
LTYPE
  2
CENTER
 70
64
  3
____ _ ____ _ ____ _ ____ _ ____ _ ____ _ ____
 72
65
 73
4
 40
0.6
 49
0.375
 49
-0.075
 49
0.075
 49
-0.075
  0
LTYPE
  2
HIDDEN
 70
64
  3
- - - - - - - - - - - - - - - - - - - -
 72
65
 73
2
 40
0.2
 49
0.1
 49
-0.1
  0
LTYPE
  2
PHANTOM
 70
64
  3
_____ _ _ _____ _ _ _____ _ _ _____
 72
65
 73
6
 40
0.8
 49
0.45
 49
-0.05
 49
0.1
 49
-0.05
 49
0.1
 49
-0.05
  0
LTYPE
  2
DOT
 70
64
  3
. . . . . . . . . . . . . . . . . . . .
 72
65
 73
2
 40
0.2
 49
0.1
 49
-0.1
  0
LTYPE
  2
DASHED
 70
64
  3
- - - - - - - - - - - - - - - - - - - -
 72
65
 73
2
 40
0.2
 49
0.1
 49
-0.1
  0
ENDTAB
  0
TABLE
  2
LAYER
 70
36
  0
LAYER
  2
0
 70
0
 62
7
  6
CONTINUOUS
  0
LAYER
  2
DEFAULT_1
 70
0
 62
7
  6
CENTER
  0
LAYER
  2
DEFAULT_2
 70
0
 62
8
  6
HIDDEN
  0
LAYER
  2
DEFAULT_3
 70
0
 62
7
  6
PHANTOM
  0
LAYER
  2
1_DATUMPLANE
 70
0
 62
7
  6
CONTINUOUS
  0
LAYER
  2
CURVE
 70
0
 62
7
  6
CONTINUOUS
  0
LAYER
  2
NOTES
 70
0
 62
7
  6
CONTINUOUS
  0
LAYER
  2
SURFACE
 70
0
 62
7
  6
CONTINUOUS
  0
ENDTAB
  0
TABLE
  2
STYLE
 70
1
  0
STYLE
  2
STANDARD
 70
0
 40
0.0
 41
0.8
 50
0.0
 71
0
 42
0.2
  3
txt
  4

  0
STYLE
  2
TEXTSTYLE_1
 70
0
 40
0.0
 41
0.8
 50
0.0
 71
0
 42
0.2
  3
gdt
  4

  0
STYLE
  2
TEXTSTYLE_2
 70
0
 40
0.0
 41
0.6
 50
0.0
 71
0
 42
0.2
  3
txt
  4

  0
STYLE
  2
TEXTSTYLE_3
 70
0
 40
0.0
 41
1.0
 50
0.0
 71
0
 42
0.2
  3
ftb_____.ttf
  4

  0
STYLE
  2
TEXTSTYLE_4
 70
0
 40
0.0
 41
1.0
 50
0.0
 71
0
 42
0.2
  3
fti_____.ttf
  4

  0
STYLE
  2
TEXTSTYLE_5
 70
0
 40
0.0
 41
1.0
 50
0.0
 71
0
 42
0.2
  3
frutiger light.ttf
  4

  0
STYLE
  2
TEXTSTYLE_6
 70
0
 40
0.0
 41
0.7
 50
0.0
 71
0
 42
0.2
  3
txt
  4

  0
STYLE
  2
TEXTSTYLE_7
 70
0
 40
0.0
 41
0.6
 50
0.0
 71
0
 42
0.2
  3
txt
  4

  0
ENDTAB
  0
ENDSEC
  0
SECTION
  2
BLOCKS
  0
BLOCK
  8
0
 62
2
  6
CONTINUOUS
  2
SYMBOL_8_BL1
 70
64
 10
173.5956734183
 20
35.5937998301
  0
TEXT
  8
0
 62
7
  6
CONTINUOUS
 10
164.6539584268
 20
30.6865562072
  7
TEXTSTYLE_4
 40
1.0655737705
  1
The brand for plastic modular belts and chains
 41
1.0
 72
0
  0
LINE
  8
0
 62
7
  6
CONTINUOUS
 10
149.5737418074
 20
36.1675703219
 11
149.5737418074
 21
34.0364227809
  0
LINE
  8
0
 62
7
  6
CONTINUOUS
 10
149.8628043005
 20
31.0454914852
 11
149.8628043005
 21
31.1422825445
  0
LINE
  8
0
 62
7
  6
CONTINUOUS
 10
149.5737418074
 20
31.1100188581
 11
149.6315543091
 21
30.9164367395
  0
LINE
  8
0
 62
7
  6
CONTINUOUS
 10
150.9671844304
 20
33.9544555678
 11
150.9671844304
 21
36.1675703219
  0
LINE
  8
0
 62
7
  6
CONTINUOUS
 10
151.8862417523
 20
32.1101932727
 11
151.8862417523
 21
30.5937998301
  0
LINE
  8
0
 62
7
  6
CONTINUOUS
 10
152.1753043074
 20
30.5937998301
 11
152.1753043074
 21
31.3358647082
  0
LINE
  8
0
 62
7
  6
CONTINUOUS
 10
152.1753043074
 20
31.4649194539
 11
152.1753043074
 21
32.1101932727
  0
LINE
  8
0
 62
7
  6
CONTINUOUS
 10
149.6315543091
 20
31.3036010218
 11
149.5737418074
 21
31.1100188581
  0
LINE
  8
0
 62
7
  6
CONTINUOUS
 10
149.9784292936
 20
30.8841730531
 11
149.8628043005
 21
31.0454914852
  0
LINE
  8
0
 62
7
  6
CONTINUOUS
 10
151.0768668626
 20
31.400392081
 11
151.1346793074
 21
31.3036010218
  0
LINE
  8
0
 62
7
  6
CONTINUOUS
 10
151.4237418626
 20
31.3036010218
 11
151.3659292523
 21
31.4326557675
  0
LINE
  8
0
 62
7
  6
CONTINUOUS
 10
152.852430332
 20
36.1675703219
 11
152.852430332
 21
34.3642916334
  0
LINE
  8
0
 62
7
  6
CONTINUOUS
 10
152.852430332
 20
33.0528162235
 11
152.852430332
 21
32.3970785186
  0
LINE
  8
0
 62
7
  6
CONTINUOUS
 10
153.2159293074
 20
31.2390736489
 11
153.2159293074
 21
30.5937998301
  0
LINE
  8
0
 62
7
  6
CONTINUOUS
 10
153.5049916972
 20
30.5937998301
 11
153.5049916972
 21
31.2390736489
  0
LINE
  8
0
 62
7
  6
CONTINUOUS
 10
149.8628043005
 20
31.1422825445
 11
149.9206168074
 21
31.2713373354
  0
LINE
  8
0
 62
7
  6
CONTINUOUS
 10
149.6315543091
 20
30.9164367395
 11
149.7471793074
 21
30.7873819712
  0
LINE
  8
0
 62
7
  6
CONTINUOUS
 10
153.1581166972
 20
31.3681283946
 11
153.2159293074
 21
31.2390736489
  0
LINE
  8
0
 62
7
  6
CONTINUOUS
 10
153.9674919177
 20
30.8841730531
 11
154.0253041972
 21
30.7551182848
  0
LINE
  8
0
 62
7
  6
CONTINUOUS
 10
153.5049916972
 20
31.2390736489
 11
153.4471794177
 21
31.400392081
  0
LINE
  8
0
 62
7
  6
CONTINUOUS
 10
153.9674919177
 20
31.4326557675
 11
153.9674919177
 21
31.3681283946
  0
LINE
  8
0
 62
7
  6
CONTINUOUS
 10
153.9674919177
 20
30.9809641124
 11
153.9674919177
 21
30.8841730531
  0
LINE
  8
0
 62
7
  6
CONTINUOUS
 10
154.245872955
 20
32.3970785186
 11
154.245872955
 21
36.1675703219
  0
LINE
  8
0
 62
7
  6
CONTINUOUS
 10
154.2565543074
 20
30.8519093441
 11
154.2565543074
 21
30.9164367395
  0
LINE
  8
0
 62
7
  6
CONTINUOUS
 10
154.5737418074
 20
36.1675703219
 11
154.5737418074
 21
32.3970785186
  0
LINE
  8
0
 62
7
  6
CONTINUOUS
 10
151.3659292523
 20
30.7873819712
 11
151.4237418626
 21
30.9164367395
  0
LINE
  8
0
 62
7
  6
CONTINUOUS
 10
155.759679528
 20
30.6905909007
 11
155.7018665869
 21
30.8519093441
  0
LINE
  8
0
 62
7
  6
CONTINUOUS
 10
155.412804528
 20
31.3681283946
 11
155.412804528
 21
31.2713373354
  0
LINE
  8
0
 62
7
  6
CONTINUOUS
 10
155.412804528
 20
31.1422825445
 11
155.412804528
 21
30.9487004259
  0
LINE
  8
0
 62
7
  6
CONTINUOUS
 10
155.7018665869
 20
30.8519093441
 11
155.7018665869
 21
31.3681283946
  0
LINE
  8
0
 62
7
  6
CONTINUOUS
 10
155.9671844304
 20
32.3970785186
 11
155.9671844304
 21
34.2003572071
  0
LINE
  8
0
 62
7
  6
CONTINUOUS
 10
155.9671844304
 20
35.511832617
 11
155.9671844304
 21
36.1675703219
  0
LINE
  8
0
 62
7
  6
CONTINUOUS
 10
156.279992028
 20
32.1101932727
 11
156.279992028
 21
31.9488748406
  0
LINE
  8
0
 62
7
  6
CONTINUOUS
 10
156.279992028
 20
31.626237886
 11
156.279992028
 21
30.5937998301
  0
LINE
  8
0
 62
7
  6
CONTINUOUS
 10
156.5690540869
 20
30.5937998301
 11
156.5690540869
 21
31.626237886
  0
LINE
  8
0
 62
7
  6
CONTINUOUS
 10
156.5690540869
 20
31.9488748406
 11
156.5690540869
 21
32.1101932727
  0
LINE
  8
0
 62
7
  6
CONTINUOUS
 10
151.1346793074
 20
30.9164367395
 11
151.0768668626
 21
30.8196456577
  0
LINE
  8
0
 62
7
  6
CONTINUOUS
 10
153.4471794177
 20
31.400392081
 11
153.3893668074
 21
31.4649194539
  0
LINE
  8
0
 62
7
  6
CONTINUOUS
 10
154.3143669177
 20
30.7873819712
 11
154.2565543074
 21
30.8519093441
  0
LINE
  8
0
 62
7
  6
CONTINUOUS
 10
155.4706168074
 20
30.6583272086
 11
155.5284290869
 21
30.5937998301
  0
LINE
  8
0
 62
7
  6
CONTINUOUS
 10
155.412804528
 20
30.7551182848
 11
155.4706168074
 21
30.6583272086
  0
LINE
  8
0
 62
7
  6
CONTINUOUS
 10
155.8174918074
 20
30.5937998301
 11
155.759679528
 21
30.6905909007
  0
LINE
  8
0
 62
7
  6
CONTINUOUS
 10
155.7018665869
 20
31.3681283946
 11
155.6440543074
 21
31.4649194539
  0
LINE
  8
0
 62
7
  6
CONTINUOUS
 10
157.0315543074
 20
31.626237886
 11
157.0315543074
 21
30.5937998301
  0
LINE
  8
0
 62
7
  6
CONTINUOUS
 10
157.320617028
 20
30.5937998301
 11
157.320617028
 21
31.3358647082
  0
LINE
  8
0
 62
7
  6
CONTINUOUS
 10
157.320617028
 20
31.4649194539
 11
157.320617028
 21
31.626237886
  0
LINE
  8
0
 62
7
  6
CONTINUOUS
 10
157.852430332
 20
34.6101932727
 11
157.852430332
 21
32.3970785186
  0
LINE
  8
0
 62
7
  6
CONTINUOUS
 10
149.7471793074
 20
31.4326557675
 11
149.6315543091
 21
31.3036010218
  0
LINE
  8
0
 62
7
  6
CONTINUOUS
 10
149.9206168074
 20
31.2713373354
 11
149.9784292936
 21
31.3358647082
  0
LINE
  8
0
 62
7
  6
CONTINUOUS
 10
149.7471793074
 20
30.7873819712
 11
149.8628043005
 21
30.7228545871
  0
LINE
  8
0
 62
7
  6
CONTINUOUS
 10
150.1518667936
 20
30.7873819712
 11
149.9784292936
 21
30.8841730531
  0
LINE
  8
0
 62
7
  6
CONTINUOUS
 10
155.3549915869
 20
31.4326557675
 11
155.412804528
 21
31.3681283946
  0
LINE
  8
0
 62
7
  6
CONTINUOUS
 10
158.3034290869
 20
31.3681283946
 11
158.361242028
 21
31.2068099625
  0
LINE
  8
0
 62
7
  6
CONTINUOUS
 10
158.6503040869
 20
31.2068099625
 11
158.5924918074
 21
31.3681283946
  0
LINE
  8
0
 62
7
  6
CONTINUOUS
 10
158.361242028
 20
31.2068099625
 11
158.361242028
 21
30.5937998301
  0
LINE
  8
0
 62
7
  6
CONTINUOUS
 10
158.6503040869
 20
30.5937998301
 11
158.6503040869
 21
31.2068099625
  0
LINE
  8
0
 62
7
  6
CONTINUOUS
 10
159.1128043074
 20
31.4326557675
 11
159.1128043074
 21
31.3681283946
  0
LINE
  8
0
 62
7
  6
CONTINUOUS
 10
159.245872955
 20
32.3970785186
 11
159.245872955
 21
34.5282260596
  0
LINE
  8
0
 62
7
  6
CONTINUOUS
 10
159.5737418074
 20
36.1675703219
 11
159.5737418074
 21
32.3970785186
  0
LINE
  8
0
 62
7
  6
CONTINUOUS
 10
154.2565543074
 20
30.9164367395
 11
154.3143669177
 21
31.0132277988
  0
LINE
  8
0
 62
7
  6
CONTINUOUS
 10
149.8628043005
 20
30.7228545871
 11
150.0362418212
 21
30.6583272086
  0
LINE
  8
0
 62
7
  6
CONTINUOUS
 10
151.3659292523
 20
31.4326557675
 11
151.1924917523
 21
31.5294468267
  0
LINE
  8
0
 62
7
  6
CONTINUOUS
 10
154.0253041972
 20
30.7551182848
 11
154.1987416972
 21
30.6583272086
  0
LINE
  8
0
 62
7
  6
CONTINUOUS
 10
153.0424918074
 20
31.4326557675
 11
153.1581166972
 21
31.3681283946
  0
LINE
  8
0
 62
7
  6
CONTINUOUS
 10
153.3893668074
 20
31.4649194539
 11
153.2737419177
 21
31.5294468267
  0
LINE
  8
0
 62
7
  6
CONTINUOUS
 10
159.1128043074
 20
30.8519093441
 11
159.228429528
 21
30.7228545871
  0
LINE
  8
0
 62
7
  6
CONTINUOUS
 10
159.4596793074
 20
30.7873819712
 11
159.401867028
 21
30.8519093441
  0
LINE
  8
0
 62
7
  6
CONTINUOUS
 10
159.1128043074
 20
31.3681283946
 11
159.228429528
 21
31.2390736489
  0
LINE
  8
0
 62
7
  6
CONTINUOUS
 10
158.5924918074
 20
31.3681283946
 11
158.534679528
 21
31.4649194539
  0
LINE
  8
0
 62
7
  6
CONTINUOUS
 10
160.9628038663
 20
30.7873819712
 11
160.9628038663
 21
30.8519093441
  0
LINE
  8
0
 62
7
  6
CONTINUOUS
 10
160.9671844304
 20
32.3970785186
 11
160.9671844304
 21
36.1675703219
  0
LINE
  8
0
 62
7
  6
CONTINUOUS
 10
154.0253041972
 20
31.4971831403
 11
153.9674919177
 21
31.4326557675
  0
LINE
  8
0
 62
7
  6
CONTINUOUS
 10
150.9034292799
 20
31.4649194539
 11
151.0768668626
 21
31.400392081
  0
LINE
  8
0
 62
7
  6
CONTINUOUS
 10
155.6440543074
 20
31.4649194539
 11
155.5284290869
 21
31.5294468267
  0
LINE
  8
0
 62
7
  6
CONTINUOUS
 10
159.4596793074
 20
31.3036010218
 11
159.401867028
 21
31.3681283946
  0
LINE
  8
0
 62
7
  6
CONTINUOUS
 10
160.615929528
 20
30.9164367395
 11
160.6737418074
 21
30.8519093441
  0
LINE
  8
0
 62
7
  6
CONTINUOUS
 10
160.9628038663
 20
30.8519093441
 11
160.8471793074
 21
30.9809641124
  0
LINE
  8
0
 62
7
  6
CONTINUOUS
 10
160.615929528
 20
31.4326557675
 11
160.6737418074
 21
31.3681283946
  0
LINE
  8
0
 62
7
  6
CONTINUOUS
 10
160.9628038663
 20
31.3681283946
 11
160.8471793074
 21
31.4971831403
  0
LINE
  8
0
 62
7
  6
CONTINUOUS
 10
154.2565543074
 20
31.3681283946
 11
154.3143669177
 21
31.4326557675
  0
LINE
  8
0
 62
7
  6
CONTINUOUS
 10
154.0831168074
 20
31.1100188581
 11
153.9674919177
 21
30.9809641124
  0
LINE
  8
0
 62
7
  6
CONTINUOUS
 10
155.412804528
 20
30.9487004259
 11
155.3549915869
 21
30.8841730531
  0
LINE
  8
0
 62
7
  6
CONTINUOUS
 10
155.3549915869
 20
30.6905909007
 11
155.412804528
 21
30.7551182848
  0
LINE
  8
0
 62
7
  6
CONTINUOUS
 10
154.1987416972
 20
30.6583272086
 11
154.3143669177
 21
30.6260635193
  0
LINE
  8
0
 62
7
  6
CONTINUOUS
 10
151.1924917523
 20
31.5294468267
 11
150.9612418074
 21
31.5939741996
  0
LINE
  8
0
 62
7
  6
CONTINUOUS
 10
154.5456166972
 20
30.7228545871
 11
154.3143669177
 21
30.7873819712
  0
LINE
  8
0
 62
7
  6
CONTINUOUS
 10
153.2737419177
 20
31.5294468267
 11
153.1003044177
 21
31.5939741996
  0
LINE
  8
0
 62
7
  6
CONTINUOUS
 10
155.5284290869
 20
31.5294468267
 11
155.3549915869
 21
31.5939741996
  0
LINE
  8
0
 62
7
  6
CONTINUOUS
 10
158.187804528
 20
31.4326557675
 11
158.3034290869
 21
31.3681283946
  0
LINE
  8
0
 62
7
  6
CONTINUOUS
 10
158.534679528
 20
31.4649194539
 11
158.4190543074
 21
31.5294468267
  0
LINE
  8
0
 62
7
  6
CONTINUOUS
 10
150.0362418212
 20
30.6583272086
 11
150.2096793212
 21
30.6260635193
  0
LINE
  8
0
 62
7
  6
CONTINUOUS
 10
150.498741835
 20
30.7228545871
 11
150.1518667936
 21
30.7873819712
  0
LINE
  8
0
 62
7
  6
CONTINUOUS
 10
152.9268669177
 20
31.4649194539
 11
153.0424918074
 21
31.4326557675
  0
LINE
  8
0
 62
7
  6
CONTINUOUS
 10
155.239367028
 20
31.4649194539
 11
155.3549915869
 21
31.4326557675
  0
LINE
  8
0
 62
7
  6
CONTINUOUS
 10
159.575304528
 20
30.7551182848
 11
159.4596793074
 21
30.7873819712
  0
LINE
  8
0
 62
7
  6
CONTINUOUS
 10
158.0721793074
 20
31.4649194539
 11
158.187804528
 21
31.4326557675
  0
LINE
  8
0
 62
7
  6
CONTINUOUS
 10
159.228429528
 20
30.7228545871
 11
159.401867028
 21
30.6583272086
  0
LINE
  8
0
 62
7
  6
CONTINUOUS
 10
158.4190543074
 20
31.5294468267
 11
158.2456168074
 21
31.5939741996
  0
LINE
  8
0
 62
7
  6
CONTINUOUS
 10
159.6331168074
 20
31.2390736489
 11
159.4596793074
 21
31.3036010218
  0
LINE
  8
0
 62
7
  6
CONTINUOUS
 10
160.442492028
 20
30.9809641124
 11
160.615929528
 21
30.9164367395
  0
LINE
  8
0
 62
7
  6
CONTINUOUS
 10
160.8471793074
 20
31.4971831403
 11
160.6737418074
 21
31.5617105132
  0
LINE
  8
0
 62
7
  6
CONTINUOUS
 10
159.228429528
 20
31.2390736489
 11
159.4596793074
 21
31.1422825445
  0
LINE
  8
0
 62
7
  6
CONTINUOUS
 10
160.8471793074
 20
30.9809641124
 11
160.615929528
 21
31.0777551716
  0
LINE
  8
0
 62
7
  6
CONTINUOUS
 10
159.401867028
 20
31.3681283946
 11
159.4596793074
 21
31.4326557675
  0
LINE
  8
0
 62
7
  6
CONTINUOUS
 10
149.8628043005
 20
31.4971831403
 11
149.7471793074
 21
31.4326557675
  0
LINE
  8
0
 62
7
  6
CONTINUOUS
 10
149.9784292936
 20
31.3358647082
 11
150.1518667936
 21
31.4326557675
  0
LINE
  8
0
 62
7
  6
CONTINUOUS
 10
152.2909293626
 20
31.5294468267
 11
152.1753043074
 21
31.4649194539
  0
LINE
  8
0
 62
7
  6
CONTINUOUS
 10
152.1753043074
 20
31.3358647082
 11
152.2909293626
 21
31.400392081
  0
LINE
  8
0
 62
7
  6
CONTINUOUS
 10
151.1924917523
 20
30.6905909007
 11
151.3659292523
 21
30.7873819712
  0
LINE
  8
0
 62
7
  6
CONTINUOUS
 10
150.2096793212
 20
30.6260635193
 11
150.5565542799
 21
30.5937998301
  0
LINE
  8
0
 62
7
  6
CONTINUOUS
 10
154.3143669177
 20
30.6260635193
 11
154.5456166972
 21
30.5937998301
  0
LINE
  8
0
 62
7
  6
CONTINUOUS
 10
152.6956168074
 20
31.4971831403
 11
152.9268669177
 21
31.4649194539
  0
LINE
  8
0
 62
7
  6
CONTINUOUS
 10
155.0081169177
 20
31.4971831403
 11
155.239367028
 21
31.4649194539
  0
LINE
  8
0
 62
7
  6
CONTINUOUS
 10
159.4596793074
 20
31.1422825445
 11
160.442492028
 21
30.9809641124
  0
LINE
  8
0
 62
7
  6
CONTINUOUS
 10
160.615929528
 20
31.0777551716
 11
159.6331168074
 21
31.2390736489
  0
LINE
  8
0
 62
7
  6
CONTINUOUS
 10
153.1003044177
 20
31.5939741996
 11
152.9268669177
 21
31.626237886
  0
LINE
  8
0
 62
7
  6
CONTINUOUS
 10
159.401867028
 20
30.6583272086
 11
159.575304528
 21
30.6260635193
  0
LINE
  8
0
 62
7
  6
CONTINUOUS
 10
158.2456168074
 20
31.5939741996
 11
158.0721793074
 21
31.626237886
  0
LINE
  8
0
 62
7
  6
CONTINUOUS
 10
160.5003043074
 20
31.4649194539
 11
160.615929528
 21
31.4326557675
  0
LINE
  8
0
 62
7
  6
CONTINUOUS
 10
160.6737418074
 20
30.8519093441
 11
160.615929528
 21
30.7873819712
  0
LINE
  8
0
 62
7
  6
CONTINUOUS
 10
159.228429528
 20
31.5294468267
 11
159.1128043074
 21
31.4326557675
  0
LINE
  8
0
 62
7
  6
CONTINUOUS
 10
154.1409294177
 20
31.5617105132
 11
154.0253041972
 21
31.4971831403
  0
LINE
  8
0
 62
7
  6
CONTINUOUS
 10
154.1987416972
 20
31.1745462761
 11
154.0831168074
 21
31.1100188581
  0
LINE
  8
0
 62
7
  6
CONTINUOUS
 10
154.3143669177
 20
31.0132277988
 11
154.4299918074
 21
31.0777551716
  0
LINE
  8
0
 62
7
  6
CONTINUOUS
 10
151.8862417523
 20
30.5937998301
 11
152.1753043074
 21
30.5937998301
  0
LINE
  8
0
 62
7
  6
CONTINUOUS
 10
153.2159293074
 20
30.5937998301
 11
153.5049916972
 21
30.5937998301
  0
LINE
  8
0
 62
7
  6
CONTINUOUS
 10
154.5456166972
 20
30.5937998301
 11
154.8924916972
 21
30.5937998301
  0
LINE
  8
0
 62
7
  6
CONTINUOUS
 10
155.5284290869
 20
30.5937998301
 11
155.8174918074
 21
30.5937998301
  0
LINE
  8
0
 62
7
  6
CONTINUOUS
 10
156.279992028
 20
30.5937998301
 11
156.5690540869
 21
30.5937998301
  0
LINE
  8
0
 62
7
  6
CONTINUOUS
 10
157.0315543074
 20
30.5937998301
 11
157.320617028
 21
30.5937998301
  0
LINE
  8
0
 62
7
  6
CONTINUOUS
 10
158.361242028
 20
30.5937998301
 11
158.6503040869
 21
30.5937998301
  0
LINE
  8
0
 62
7
  6
CONTINUOUS
 10
159.922179528
 20
30.5937998301
 11
160.269054528
 21
30.5937998301
  0
LINE
  8
0
 62
7
  6
CONTINUOUS
 10
160.269054528
 20
30.7228545871
 11
159.922179528
 21
30.7228545871
  0
LINE
  8
0
 62
7
  6
CONTINUOUS
 10
154.8924916972
 20
30.7228545871
 11
154.5456166972
 21
30.7228545871
  0
LINE
  8
0
 62
7
  6
CONTINUOUS
 10
159.401867028
 20
30.8519093441
 11
159.1128043074
 21
30.8519093441
  0
LINE
  8
0
 62
7
  6
CONTINUOUS
 10
151.4237418626
 20
30.9164367395
 11
151.1346793074
 21
30.9164367395
  0
LINE
  8
0
 62
7
  6
CONTINUOUS
 10
150.498741835
 20
31.4971831403
 11
150.9034292799
 21
31.4649194539
  0
LINE
  8
0
 62
7
  6
CONTINUOUS
 10
150.9612418074
 20
31.5939741996
 11
150.5565542799
 21
31.626237886
  0
LINE
  8
0
 62
7
  6
CONTINUOUS
 10
159.575304528
 20
30.6260635193
 11
159.922179528
 21
30.5937998301
  0
LINE
  8
0
 62
7
  6
CONTINUOUS
 10
159.922179528
 20
30.7228545871
 11
159.575304528
 21
30.7551182848
  0
LINE
  8
0
 62
7
  6
CONTINUOUS
 10
155.3549915869
 20
31.5939741996
 11
155.0081169177
 21
31.626237886
  0
LINE
  8
0
 62
7
  6
CONTINUOUS
 10
160.1534293074
 20
31.4971831403
 11
160.5003043074
 21
31.4649194539
  0
LINE
  8
0
 62
7
  6
CONTINUOUS
 10
160.5003043074
 20
31.5939741996
 11
160.1534293074
 21
31.626237886
  0
LINE
  8
0
 62
7
  6
CONTINUOUS
 10
157.840929528
 20
31.4971831403
 11
158.0721793074
 21
31.4649194539
  0
LINE
  8
0
 62
7
  6
CONTINUOUS
 10
160.6737418074
 20
31.5617105132
 11
160.5003043074
 21
31.5939741996
  0
LINE
  8
0
 62
7
  6
CONTINUOUS
 10
160.8471793074
 20
30.6905909007
 11
160.9628038663
 21
30.7873819712
  0
LINE
  8
0
 62
7
  6
CONTINUOUS
 10
155.3549915869
 20
30.8841730531
 11
155.1815540869
 21
30.7873819712
  0
LINE
  8
0
 62
7
  6
CONTINUOUS
 10
157.4362415869
 20
31.5294468267
 11
157.320617028
 21
31.4649194539
  0
LINE
  8
0
 62
7
  6
CONTINUOUS
 10
157.320617028
 20
31.3358647082
 11
157.4362415869
 21
31.400392081
  0
LINE
  8
0
 62
7
  6
CONTINUOUS
 10
150.0362418212
 20
31.5617105132
 11
149.8628043005
 21
31.4971831403
  0
LINE
  8
0
 62
7
  6
CONTINUOUS
 10
152.4643666972
 20
31.5939741996
 11
152.2909293626
 21
31.5294468267
  0
LINE
  8
0
 62
7
  6
CONTINUOUS
 10
152.2909293626
 20
31.400392081
 11
152.4643666972
 21
31.4649194539
  0
LINE
  8
0
 62
7
  6
CONTINUOUS
 10
151.0768668626
 20
30.8196456577
 11
150.9034292799
 21
30.7551182848
  0
LINE
  8
0
 62
7
  6
CONTINUOUS
 10
160.5003043074
 20
30.7551182848
 11
160.269054528
 21
30.7228545871
  0
LINE
  8
0
 62
7
  6
CONTINUOUS
 10
154.8924916972
 20
30.5937998301
 11
155.1815540869
 21
30.6260635193
  0
LINE
  8
0
 62
7
  6
CONTINUOUS
 10
160.269054528
 20
30.5937998301
 11
160.615929528
 21
30.6260635193
  0
LINE
  8
0
 62
7
  6
CONTINUOUS
 10
150.5565542799
 20
30.5937998301
 11
150.9612418074
 21
30.6260635193
  0
LINE
  8
0
 62
7
  6
CONTINUOUS
 10
150.9034292799
 20
30.7551182848
 11
150.498741835
 21
30.7228545871
  0
LINE
  8
0
 62
7
  6
CONTINUOUS
 10
154.7768668074
 20
31.1422825445
 11
155.412804528
 21
31.1422825445
  0
LINE
  8
0
 62
7
  6
CONTINUOUS
 10
155.412804528
 20
31.2713373354
 11
154.7768668074
 21
31.2713373354
  0
LINE
  8
0
 62
7
  6
CONTINUOUS
 10
151.1346793074
 20
31.3036010218
 11
151.4237418626
 21
31.3036010218
  0
LINE
  8
0
 62
7
  6
CONTINUOUS
 10
153.9674919177
 20
31.3681283946
 11
154.2565543074
 21
31.3681283946
  0
LINE
  8
0
 62
7
  6
CONTINUOUS
 10
160.6737418074
 20
31.3681283946
 11
160.9628038663
 21
31.3681283946
  0
LINE
  8
0
 62
7
  6
CONTINUOUS
 10
154.6612419177
 20
31.4971831403
 11
155.0081169177
 21
31.4971831403
  0
LINE
  8
0
 62
7
  6
CONTINUOUS
 10
159.8065543074
 20
31.4971831403
 11
160.1534293074
 21
31.4971831403
  0
LINE
  8
0
 62
7
  6
CONTINUOUS
 10
160.1534293074
 20
31.626237886
 11
159.8065543074
 21
31.626237886
  0
LINE
  8
0
 62
7
  6
CONTINUOUS
 10
158.0721793074
 20
31.626237886
 11
157.840929528
 21
31.626237886
  0
LINE
  8
0
 62
7
  6
CONTINUOUS
 10
157.320617028
 20
31.626237886
 11
157.0315543074
 21
31.626237886
  0
LINE
  8
0
 62
7
  6
CONTINUOUS
 10
156.5690540869
 20
31.626237886
 11
156.279992028
 21
31.626237886
  0
LINE
  8
0
 62
7
  6
CONTINUOUS
 10
155.0081169177
 20
31.626237886
 11
154.6612419177
 21
31.626237886
  0
LINE
  8
0
 62
7
  6
CONTINUOUS
 10
152.9268669177
 20
31.626237886
 11
152.6956168074
 21
31.626237886
  0
LINE
  8
0
 62
7
  6
CONTINUOUS
 10
156.279992028
 20
31.9488748406
 11
156.5690540869
 21
31.9488748406
  0
LINE
  8
0
 62
7
  6
CONTINUOUS
 10
156.5690540869
 20
32.1101932727
 11
156.279992028
 21
32.1101932727
  0
LINE
  8
0
 62
7
  6
CONTINUOUS
 10
152.1753043074
 20
32.1101932727
 11
151.8862417523
 21
32.1101932727
  0
LINE
  8
0
 62
7
  6
CONTINUOUS
 10
151.2130860697
 20
32.3970785186
 11
151.6256574183
 21
32.3970785186
  0
LINE
  8
0
 62
7
  6
CONTINUOUS
 10
152.852430332
 20
32.3970785186
 11
154.245872955
 21
32.3970785186
  0
LINE
  8
0
 62
7
  6
CONTINUOUS
 10
154.5737418074
 20
32.3970785186
 11
155.9671844304
 21
32.3970785186
  0
LINE
  8
0
 62
7
  6
CONTINUOUS
 10
157.852430332
 20
32.3970785186
 11
159.245872955
 21
32.3970785186
  0
LINE
  8
0
 62
7
  6
CONTINUOUS
 10
159.5737418074
 20
32.3970785186
 11
160.9671844304
 21
32.3970785186
  0
LINE
  8
0
 62
7
  6
CONTINUOUS
 10
157.6096790869
 20
31.5939741996
 11
157.4362415869
 21
31.5294468267
  0
LINE
  8
0
 62
7
  6
CONTINUOUS
 10
155.1815540869
 20
30.6260635193
 11
155.3549915869
 21
30.6905909007
  0
LINE
  8
0
 62
7
  6
CONTINUOUS
 10
160.615929528
 20
30.6260635193
 11
160.8471793074
 21
30.6905909007
  0
LINE
  8
0
 62
7
  6
CONTINUOUS
 10
160.615929528
 20
30.7873819712
 11
160.5003043074
 21
30.7551182848
  0
LINE
  8
0
 62
7
  6
CONTINUOUS
 10
159.575304528
 20
31.4649194539
 11
159.8065543074
 21
31.4971831403
  0
LINE
  8
0
 62
7
  6
CONTINUOUS
 10
157.6096790869
 20
31.4649194539
 11
157.840929528
 21
31.4971831403
  0
LINE
  8
0
 62
7
  6
CONTINUOUS
 10
154.5456166972
 20
31.1100188581
 11
154.7768668074
 21
31.1422825445
  0
LINE
  8
0
 62
7
  6
CONTINUOUS
 10
157.840929528
 20
31.626237886
 11
157.6096790869
 21
31.5939741996
  0
LINE
  8
0
 62
7
  6
CONTINUOUS
 10
154.4299918074
 20
31.4649194539
 11
154.6612419177
 21
31.4971831403
  0
LINE
  8
0
 62
7
  6
CONTINUOUS
 10
159.8065543074
 20
31.626237886
 11
159.4596793074
 21
31.5939741996
  0
LINE
  8
0
 62
7
  6
CONTINUOUS
 10
154.7768668074
 20
31.2713373354
 11
154.4299918074
 21
31.2390736489
  0
LINE
  8
0
 62
7
  6
CONTINUOUS
 10
150.5565542799
 20
31.626237886
 11
150.2096793212
 21
31.5939741996
  0
LINE
  8
0
 62
7
  6
CONTINUOUS
 10
154.6612419177
 20
31.626237886
 11
154.2565543074
 21
31.5939741996
  0
LINE
  8
0
 62
7
  6
CONTINUOUS
 10
152.0327582009
 20
33.5446195022
 11
151.3770204959
 21
33.5446195022
  0
LINE
  8
0
 62
7
  6
CONTINUOUS
 10
157.4362415869
 20
31.400392081
 11
157.6096790869
 21
31.4649194539
  0
LINE
  8
0
 62
7
  6
CONTINUOUS
 10
159.4596793074
 20
31.4326557675
 11
159.575304528
 21
31.4649194539
  0
LINE
  8
0
 62
7
  6
CONTINUOUS
 10
159.4596793074
 20
31.5939741996
 11
159.228429528
 21
31.5294468267
  0
LINE
  8
0
 62
7
  6
CONTINUOUS
 10
155.1815540869
 20
30.7873819712
 11
154.8924916972
 21
30.7228545871
  0
LINE
  8
0
 62
7
  6
CONTINUOUS
 10
152.4643666972
 20
31.4649194539
 11
152.6956168074
 21
31.4971831403
  0
LINE
  8
0
 62
7
  6
CONTINUOUS
 10
152.6956168074
 20
31.626237886
 11
152.4643666972
 21
31.5939741996
  0
LINE
  8
0
 62
7
  6
CONTINUOUS
 10
150.2674918074
 20
31.4649194539
 11
150.498741835
 21
31.4971831403
  0
LINE
  8
0
 62
7
  6
CONTINUOUS
 10
156.7868565615
 20
35.0200293383
 11
157.4425942664
 21
35.0200293383
  0
LINE
  8
0
 62
7
  6
CONTINUOUS
 10
154.4299918074
 20
31.0777551716
 11
154.5456166972
 21
31.1100188581
  0
LINE
  8
0
 62
7
  6
CONTINUOUS
 10
154.4299918074
 20
31.2390736489
 11
154.1987416972
 21
31.1745462761
  0
LINE
  8
0
 62
7
  6
CONTINUOUS
 10
154.3143669177
 20
31.4326557675
 11
154.4299918074
 21
31.4649194539
  0
LINE
  8
0
 62
7
  6
CONTINUOUS
 10
150.9612418074
 20
30.6260635193
 11
151.1924917523
 21
30.6905909007
  0
LINE
  8
0
 62
7
  6
CONTINUOUS
 10
154.2565543074
 20
31.5939741996
 11
154.1409294177
 21
31.5617105132
  0
LINE
  8
0
 62
7
  6
CONTINUOUS
 10
150.2096793212
 20
31.5939741996
 11
150.0362418212
 21
31.5617105132
  0
LINE
  8
0
 62
7
  6
CONTINUOUS
 10
160.9671844304
 20
36.1675703219
 11
159.5737418074
 21
36.1675703219
  0
LINE
  8
0
 62
7
  6
CONTINUOUS
 10
157.6065286927
 20
36.1675703219
 11
157.1939573441
 21
36.1675703219
  0
LINE
  8
0
 62
7
  6
CONTINUOUS
 10
155.9671844304
 20
36.1675703219
 11
154.5737418074
 21
36.1675703219
  0
LINE
  8
0
 62
7
  6
CONTINUOUS
 10
154.245872955
 20
36.1675703219
 11
152.852430332
 21
36.1675703219
  0
LINE
  8
0
 62
7
  6
CONTINUOUS
 10
150.9671844304
 20
36.1675703219
 11
149.5737418074
 21
36.1675703219
  0
LINE
  8
0
 62
7
  6
CONTINUOUS
 10
150.1518667936
 20
31.4326557675
 11
150.2674918074
 21
31.4649194539
  0
CIRCLE
  8
0
 62
7
  6
CONTINUOUS
 10
160.2704631189
 20
38.5036358957
 40
2.0901639344
  0
ARC
  8
0
 62
7
  6
CONTINUOUS
 10
151.2130860697
 20
34.0364227809
 40
1.6393442623
 50
180.0
 51
270.0
  0
ARC
  8
0
 62
7
  6
CONTINUOUS
 10
157.6065286927
 20
34.5282260596
 40
1.6393442623
 50
0.0
 51
90.0
  0
ARC
  8
0
 62
7
  6
CONTINUOUS
 10
151.6256574183
 20
33.8724883547
 40
1.4754098361
 50
270.0
 51
326.2510114041
  0
ARC
  8
0
 62
7
  6
CONTINUOUS
 10
157.1939573441
 20
34.6921604858
 40
1.4754098361
 50
90.0
 51
146.2510114041
  0
ARC
  8
0
 62
7
  6
CONTINUOUS
 10
152.0327582009
 20
34.3642916334
 40
0.8196721311
 50
270.0
 51
360.0
  0
ARC
  8
0
 62
7
  6
CONTINUOUS
 10
156.7868565615
 20
34.2003572071
 40
0.8196721311
 50
90.0
 51
180.0
  0
ARC
  8
0
 62
7
  6
CONTINUOUS
 10
151.3770204959
 20
33.9544555678
 40
0.4098360656
 50
180.0
 51
270.0
  0
ARC
  8
0
 62
7
  6
CONTINUOUS
 10
157.4425942664
 20
34.6101932727
 40
0.4098360656
 50
0.0
 51
90.0
  0
SOLID
  8
0
 62
7
  6
CONTINUOUS
 10
156.279992028
 20
31.9488752009
 11
156.279992028
 21
32.1101936845
 12
156.5690540869
 22
31.9488752009
 13
156.5690540869
 23
32.1101936845
  0
SOLID
  8
0
 62
7
  6
CONTINUOUS
 10
150.5565542799
 20
31.6262382337
 11
150.9612418074
 21
31.5939740028
 12
150.2096793212
 22
31.5939740028
 13
150.2096793212
 23
31.5939740028
  0
SOLID
  8
0
 62
7
  6
CONTINUOUS
 10
150.0362418212
 20
31.5617111435
 11
150.2096793212
 21
31.5939740028
 12
150.9612418074
 22
31.5939740028
 13
150.9612418074
 23
31.5939740028
  0
SOLID
  8
0
 62
7
  6
CONTINUOUS
 10
150.9612418074
 20
31.5939740028
 11
151.1924917523
 21
31.5294468402
 12
150.0362418212
 22
31.5617111435
 13
150.0362418212
 23
31.5617111435
  0
SOLID
  8
0
 62
7
  6
CONTINUOUS
 10
149.8628043005
 20
31.49718259
 11
150.0362418212
 21
31.5617111435
 12
151.1924917523
 22
31.5294468402
 13
151.1924917523
 23
31.5294468402
  0
SOLID
  8
0
 62
7
  6
CONTINUOUS
 10
149.8628043005
 20
31.49718259
 11
151.1924917523
 21
31.5294468402
 12
150.498741835
 22
31.49718259
 13
150.498741835
 23
31.49718259
  0
SOLID
  8
0
 62
7
  6
CONTINUOUS
 10
150.498741835
 20
31.49718259
 11
151.1924917523
 21
31.5294468402
 12
150.9034292799
 22
31.4649197501
 13
150.9034292799
 23
31.4649197501
  0
SOLID
  8
0
 62
7
  6
CONTINUOUS
 10
151.1924917523
 20
31.5294468402
 11
151.3659292523
 21
31.4326554468
 12
150.9034292799
 22
31.4649197501
 13
150.9034292799
 23
31.4649197501
  0
SOLID
  8
0
 62
7
  6
CONTINUOUS
 10
151.0768668626
 20
31.4003926599
 11
150.9034292799
 21
31.4649197501
 12
151.3659292523
 22
31.4326554468
 13
151.3659292523
 23
31.4326554468
  0
SOLID
  8
0
 62
7
  6
CONTINUOUS
 10
151.0768668626
 20
31.4003926599
 11
151.3659292523
 21
31.4326554468
 12
151.1346793074
 22
31.3036013776
 13
151.1346793074
 23
31.3036013776
  0
SOLID
  8
0
 62
7
  6
CONTINUOUS
 10
151.3659292523
 20
31.4326554468
 11
151.4237418626
 21
31.3036013776
 12
151.1346793074
 22
31.3036013776
 13
151.1346793074
 23
31.3036013776
  0
SOLID
  8
0
 62
7
  6
CONTINUOUS
 10
152.4643666972
 20
31.5939739754
 11
152.6956168074
 21
31.6262382787
 12
152.9268669177
 22
31.6262382787
 13
152.9268669177
 23
31.6262382787
  0
SOLID
  8
0
 62
7
  6
CONTINUOUS
 10
152.9268669177
 20
31.6262382787
 11
153.1003044177
 21
31.5939739754
 12
152.4643666972
 22
31.5939739754
 13
152.4643666972
 23
31.5939739754
  0
SOLID
  8
0
 62
7
  6
CONTINUOUS
 10
152.2909293626
 20
31.5294468852
 11
152.4643666972
 21
31.5939739754
 12
153.1003044177
 22
31.5939739754
 13
153.1003044177
 23
31.5939739754
  0
SOLID
  8
0
 62
7
  6
CONTINUOUS
 10
153.1003044177
 20
31.5939739754
 11
153.2737419177
 21
31.5294468852
 12
152.2909293626
 22
31.5294468852
 13
152.2909293626
 23
31.5294468852
  0
SOLID
  8
0
 62
7
  6
CONTINUOUS
 10
153.2737419177
 20
31.5294468852
 11
152.6956168074
 21
31.4971825369
 12
152.2909293626
 22
31.5294468852
 13
152.2909293626
 23
31.5294468852
  0
SOLID
  8
0
 62
7
  6
CONTINUOUS
 10
152.1753043074
 20
31.4649197951
 11
152.2909293626
 21
31.5294468852
 12
152.6956168074
 22
31.4971825369
 13
152.6956168074
 23
31.4971825369
  0
SOLID
  8
0
 62
7
  6
CONTINUOUS
 10
152.6956168074
 20
31.4971825369
 11
152.4643666972
 21
31.4649197951
 12
152.1753043074
 22
31.4649197951
 13
152.1753043074
 23
31.4649197951
  0
SOLID
  8
0
 62
7
  6
CONTINUOUS
 10
152.6956168074
 20
31.4971825369
 11
153.2737419177
 21
31.5294468852
 12
152.9268669177
 22
31.4649197951
 13
152.9268669177
 23
31.4649197951
  0
SOLID
  8
0
 62
7
  6
CONTINUOUS
 10
153.2737419177
 20
31.5294468852
 11
153.3893668074
 21
31.4649197951
 12
152.9268669177
 22
31.4649197951
 13
152.9268669177
 23
31.4649197951
  0
SOLID
  8
0
 62
7
  6
CONTINUOUS
 10
153.0424918074
 20
31.4326554468
 11
152.9268669177
 21
31.4649197951
 12
153.3893668074
 22
31.4649197951
 13
153.3893668074
 23
31.4649197951
  0
SOLID
  8
0
 62
7
  6
CONTINUOUS
 10
153.3893668074
 20
31.4649197951
 11
153.4471794177
 21
31.4003927049
 12
153.0424918074
 22
31.4326554468
 13
153.0424918074
 23
31.4326554468
  0
SOLID
  8
0
 62
7
  6
CONTINUOUS
 10
153.1581166972
 20
31.3681283566
 11
153.0424918074
 21
31.4326554468
 12
153.4471794177
 22
31.4003927049
 13
153.4471794177
 23
31.4003927049
  0
SOLID
  8
0
 62
7
  6
CONTINUOUS
 10
153.1581166972
 20
31.3681283566
 11
153.4471794177
 21
31.4003927049
 12
153.2159293074
 22
31.2390742213
 13
153.2159293074
 23
31.2390742213
  0
SOLID
  8
0
 62
7
  6
CONTINUOUS
 10
153.4471794177
 20
31.4003927049
 11
153.5049916972
 21
31.2390742213
 12
153.2159293074
 22
31.2390742213
 13
153.2159293074
 23
31.2390742213
  0
SOLID
  8
0
 62
7
  6
CONTINUOUS
 10
152.4643666972
 20
31.4649197951
 11
152.2909293626
 21
31.4003927049
 12
152.1753043074
 22
31.4649197951
 13
152.1753043074
 23
31.4649197951
  0
SOLID
  8
0
 62
7
  6
CONTINUOUS
 10
152.2909293626
 20
31.4003927049
 11
152.1753043074
 21
31.3358640533
 12
152.1753043074
 22
31.4649197951
 13
152.1753043074
 23
31.4649197951
  0
SOLID
  8
0
 62
7
  6
CONTINUOUS
 10
152.1753043074
 20
31.3358640533
 11
151.8862417523
 21
30.5938002869
 12
152.1753043074
 22
31.4649197951
 13
152.1753043074
 23
31.4649197951
  0
SOLID
  8
0
 62
7
  6
CONTINUOUS
 10
152.1753043074
 20
31.4649197951
 11
151.8862417523
 21
30.5938002869
 12
152.1753043074
 22
32.1101937295
 13
152.1753043074
 23
32.1101937295
  0
SOLID
  8
0
 62
7
  6
CONTINUOUS
 10
151.8862417523
 20
30.5938002869
 11
151.8862417523
 21
32.1101937295
 12
152.1753043074
 22
32.1101937295
 13
152.1753043074
 23
32.1101937295
  0
SOLID
  8
0
 62
7
  6
CONTINUOUS
 10
152.1753043074
 20
31.3358640533
 11
152.1753043074
 21
30.5938002869
 12
151.8862417523
 22
30.5938002869
 13
151.8862417523
 23
30.5938002869
  0
SOLID
  8
0
 62
7
  6
CONTINUOUS
 10
153.2159293074
 20
30.5938002869
 11
153.2159293074
 21
31.2390742213
 12
153.5049916972
 22
31.2390742213
 13
153.5049916972
 23
31.2390742213
  0
SOLID
  8
0
 62
7
  6
CONTINUOUS
 10
153.5049916972
 20
31.2390742213
 11
153.5049916972
 21
30.5938002869
 12
153.2159293074
 22
30.5938002869
 13
153.2159293074
 23
30.5938002869
  0
SOLID
  8
0
 62
7
  6
CONTINUOUS
 10
154.2565543074
 20
31.5939738288
 11
154.6612419177
 21
31.6262385959
 12
155.0081169177
 22
31.6262385959
 13
155.0081169177
 23
31.6262385959
  0
SOLID
  8
0
 62
7
  6
CONTINUOUS
 10
155.0081169177
 20
31.6262385959
 11
155.3549915869
 21
31.5939738288
 12
154.2565543074
 22
31.5939738288
 13
154.2565543074
 23
31.5939738288
  0
SOLID
  8
0
 62
7
  6
CONTINUOUS
 10
154.1409294177
 20
31.5617111435
 11
154.2565543074
 21
31.5939738288
 12
155.3549915869
 22
31.5939738288
 13
155.3549915869
 23
31.5939738288
  0
SOLID
  8
0
 62
7
  6
CONTINUOUS
 10
155.3549915869
 20
31.5939738288
 11
155.5284290869
 21
31.5294468402
 12
154.1409294177
 22
31.5617111435
 13
154.1409294177
 23
31.5617111435
  0
SOLID
  8
0
 62
7
  6
CONTINUOUS
 10
154.0253041972
 20
31.4971826249
 11
154.1409294177
 21
31.5617111435
 12
155.5284290869
 22
31.5294468402
 13
155.5284290869
 23
31.5294468402
  0
SOLID
  8
0
 62
7
  6
CONTINUOUS
 10
154.0253041972
 20
31.4971826249
 11
155.5284290869
 21
31.5294468402
 12
154.6612419177
 22
31.4971826249
 13
154.6612419177
 23
31.4971826249
  0
SOLID
  8
0
 62
7
  6
CONTINUOUS
 10
154.6612419177
 20
31.4971826249
 11
155.5284290869
 21
31.5294468402
 12
155.0081169177
 22
31.4971826249
 13
155.0081169177
 23
31.4971826249
  0
SOLID
  8
0
 62
7
  6
CONTINUOUS
 10
155.0081169177
 20
31.4971826249
 11
155.5284290869
 21
31.5294468402
 12
155.239367028
 22
31.4649194065
 13
155.239367028
 23
31.4649194065
  0
SOLID
  8
0
 62
7
  6
CONTINUOUS
 10
155.5284290869
 20
31.5294468402
 11
155.6440543074
 21
31.4649194065
 12
155.239367028
 22
31.4649194065
 13
155.239367028
 23
31.4649194065
  0
SOLID
  8
0
 62
7
  6
CONTINUOUS
 10
153.9674919177
 20
31.4326554138
 11
154.0253041972
 21
31.4971826249
 12
154.6612419177
 22
31.4971826249
 13
154.6612419177
 23
31.4971826249
  0
SOLID
  8
0
 62
7
  6
CONTINUOUS
 10
155.3549915869
 20
31.4326554138
 11
155.239367028
 21
31.4649194065
 12
155.6440543074
 22
31.4649194065
 13
155.6440543074
 23
31.4649194065
  0
SOLID
  8
0
 62
7
  6
CONTINUOUS
 10
155.3549915869
 20
31.4326554138
 11
155.6440543074
 21
31.4649194065
 12
155.412804528
 22
31.3681282026
 13
155.412804528
 23
31.3681282026
  0
SOLID
  8
0
 62
7
  6
CONTINUOUS
 10
155.6440543074
 20
31.4649194065
 11
155.7018665869
 21
31.3681282026
 12
155.412804528
 22
31.3681282026
 13
155.412804528
 23
31.3681282026
  0
SOLID
  8
0
 62
7
  6
CONTINUOUS
 10
155.412804528
 20
31.2713369632
 11
155.412804528
 21
31.3681282026
 12
155.7018665869
 22
31.3681282026
 13
155.7018665869
 23
31.3681282026
  0
SOLID
  8
0
 62
7
  6
CONTINUOUS
 10
155.412804528
 20
31.2713369632
 11
155.7018665869
 21
31.3681282026
 12
155.412804528
 22
31.1422827828
 13
155.412804528
 23
31.1422827828
  0
SOLID
  8
0
 62
7
  6
CONTINUOUS
 10
155.412804528
 20
31.1422827828
 11
155.7018665869
 21
31.3681282026
 12
155.412804528
 22
30.9487004259
 13
155.412804528
 23
30.9487004259
  0
SOLID
  8
0
 62
7
  6
CONTINUOUS
 10
155.7018665869
 20
31.3681282026
 11
155.7018665869
 21
30.8519086025
 12
155.412804528
 22
30.9487004259
 13
155.412804528
 23
30.9487004259
  0
SOLID
  8
0
 62
7
  6
CONTINUOUS
 10
157.6096790869
 20
31.5939736268
 11
157.840929528
 21
31.6262383465
 12
158.0721793074
 22
31.6262383465
 13
158.0721793074
 23
31.6262383465
  0
SOLID
  8
0
 62
7
  6
CONTINUOUS
 10
158.0721793074
 20
31.6262383465
 11
158.2456168074
 21
31.5939736268
 12
157.6096790869
 22
31.5939736268
 13
157.6096790869
 23
31.5939736268
  0
SOLID
  8
0
 62
7
  6
CONTINUOUS
 10
157.4362415869
 20
31.5294472848
 11
157.6096790869
 21
31.5939736268
 12
158.2456168074
 22
31.5939736268
 13
158.2456168074
 23
31.5939736268
  0
SOLID
  8
0
 62
7
  6
CONTINUOUS
 10
158.2456168074
 20
31.5939736268
 11
158.4190543074
 21
31.5294472848
 12
157.4362415869
 22
31.5294472848
 13
157.4362415869
 23
31.5294472848
  0
SOLID
  8
0
 62
7
  6
CONTINUOUS
 10
158.4190543074
 20
31.5294472848
 11
157.840929528
 21
31.4971825369
 12
157.4362415869
 22
31.5294472848
 13
157.4362415869
 23
31.5294472848
  0
SOLID
  8
0
 62
7
  6
CONTINUOUS
 10
157.320617028
 20
31.4649199103
 11
157.4362415869
 21
31.5294472848
 12
157.840929528
 22
31.4971825369
 13
157.840929528
 23
31.4971825369
  0
SOLID
  8
0
 62
7
  6
CONTINUOUS
 10
157.840929528
 20
31.4971825369
 11
157.6096790869
 21
31.4649199103
 12
157.320617028
 22
31.4649199103
 13
157.320617028
 23
31.4649199103
  0
SOLID
  8
0
 62
7
  6
CONTINUOUS
 10
157.840929528
 20
31.4971825369
 11
158.4190543074
 21
31.5294472848
 12
158.0721793074
 22
31.4649199103
 13
158.0721793074
 23
31.4649199103
  0
SOLID
  8
0
 62
7
  6
CONTINUOUS
 10
158.4190543074
 20
31.5294472848
 11
158.534679528
 21
31.4649199103
 12
158.0721793074
 22
31.4649199103
 13
158.0721793074
 23
31.4649199103
  0
SOLID
  8
0
 62
7
  6
CONTINUOUS
 10
158.187804528
 20
31.4326554468
 11
158.0721793074
 21
31.4649199103
 12
158.534679528
 22
31.4649199103
 13
158.534679528
 23
31.4649199103
  0
SOLID
  8
0
 62
7
  6
CONTINUOUS
 10
158.187804528
 20
31.4326554468
 11
158.534679528
 21
31.4649199103
 12
158.3034290869
 22
31.3681288486
 13
158.3034290869
 23
31.3681288486
  0
SOLID
  8
0
 62
7
  6
CONTINUOUS
 10
158.534679528
 20
31.4649199103
 11
158.5924918074
 21
31.3681288486
 12
158.3034290869
 22
31.3681288486
 13
158.3034290869
 23
31.3681288486
  0
SOLID
  8
0
 62
7
  6
CONTINUOUS
 10
158.361242028
 20
31.2068093799
 11
158.3034290869
 21
31.3681288486
 12
158.5924918074
 22
31.3681288486
 13
158.5924918074
 23
31.3681288486
  0
SOLID
  8
0
 62
7
  6
CONTINUOUS
 10
158.5924918074
 20
31.3681288486
 11
158.6503040869
 21
31.2068093799
 12
158.361242028
 22
31.2068093799
 13
158.361242028
 23
31.2068093799
  0
SOLID
  8
0
 62
7
  6
CONTINUOUS
 10
157.6096790869
 20
31.4649199103
 11
157.4362415869
 21
31.4003926599
 12
157.320617028
 22
31.4649199103
 13
157.320617028
 23
31.4649199103
  0
SOLID
  8
0
 62
7
  6
CONTINUOUS
 10
157.4362415869
 20
31.4003926599
 11
157.320617028
 21
31.3358640533
 12
157.320617028
 22
31.4649199103
 13
157.320617028
 23
31.4649199103
  0
SOLID
  8
0
 62
7
  6
CONTINUOUS
 10
157.320617028
 20
31.3358640533
 11
157.0315543074
 21
30.5938003547
 12
157.320617028
 22
31.4649199103
 13
157.320617028
 23
31.4649199103
  0
SOLID
  8
0
 62
7
  6
CONTINUOUS
 10
157.320617028
 20
31.4649199103
 11
157.0315543074
 21
30.5938003547
 12
157.320617028
 22
31.6262383465
 13
157.320617028
 23
31.6262383465
  0
SOLID
  8
0
 62
7
  6
CONTINUOUS
 10
157.0315543074
 20
30.5938003547
 11
157.0315543074
 21
31.6262383465
 12
157.320617028
 22
31.6262383465
 13
157.320617028
 23
31.6262383465
  0
SOLID
  8
0
 62
7
  6
CONTINUOUS
 10
157.320617028
 20
31.3358640533
 11
157.320617028
 21
30.5938003547
 12
157.0315543074
 22
30.5938003547
 13
157.0315543074
 23
30.5938003547
  0
SOLID
  8
0
 62
7
  6
CONTINUOUS
 10
158.361242028
 20
30.5938003547
 11
158.361242028
 21
31.2068093799
 12
158.6503040869
 22
31.2068093799
 13
158.6503040869
 23
31.2068093799
  0
SOLID
  8
0
 62
7
  6
CONTINUOUS
 10
158.6503040869
 20
31.2068093799
 11
158.6503040869
 21
30.5938003547
 12
158.361242028
 22
30.5938003547
 13
158.361242028
 23
30.5938003547
  0
SOLID
  8
0
 62
7
  6
CONTINUOUS
 10
159.4596793074
 20
31.5939739474
 11
159.8065543074
 21
31.6262381969
 12
160.1534293074
 22
31.6262381969
 13
160.1534293074
 23
31.6262381969
  0
SOLID
  8
0
 62
7
  6
CONTINUOUS
 10
160.1534293074
 20
31.6262381969
 11
160.5003043074
 21
31.5939739474
 12
159.4596793074
 22
31.5939739474
 13
159.4596793074
 23
31.5939739474
  0
SOLID
  8
0
 62
7
  6
CONTINUOUS
 10
159.228429528
 20
31.5294468402
 11
159.4596793074
 21
31.5939739474
 12
160.5003043074
 22
31.5939739474
 13
160.5003043074
 23
31.5939739474
  0
SOLID
  8
0
 62
7
  6
CONTINUOUS
 10
159.228429528
 20
31.5294468402
 11
160.5003043074
 21
31.5939739304
 12
160.6737418074
 22
31.5617111435
 13
160.6737418074
 23
31.5617111435
  0
SOLID
  8
0
 62
7
  6
CONTINUOUS
 10
159.228429528
 20
31.5294468402
 11
160.6737418074
 21
31.5617111435
 12
159.8065543074
 22
31.4971825592
 13
159.8065543074
 23
31.4971825592
  0
SOLID
  8
0
 62
7
  6
CONTINUOUS
 10
159.8065543074
 20
31.4971825592
 11
160.6737418074
 21
31.5617111435
 12
160.1534293074
 22
31.4971825592
 13
160.1534293074
 23
31.4971825592
  0
SOLID
  8
0
 62
7
  6
CONTINUOUS
 10
160.6737418074
 20
31.5617111435
 11
160.8471793074
 21
31.4971825592
 12
160.1534293074
 22
31.4971825592
 13
160.1534293074
 23
31.4971825592
  0
SOLID
  8
0
 62
7
  6
CONTINUOUS
 10
160.5003043074
 20
31.4649197501
 11
160.1534293074
 21
31.4971825592
 12
160.8471793074
 22
31.4971825592
 13
160.8471793074
 23
31.4971825592
  0
SOLID
  8
0
 62
7
  6
CONTINUOUS
 10
159.1128043074
 20
31.4326555427
 11
159.228429528
 21
31.5294468402
 12
159.8065543074
 22
31.4971825592
 13
159.8065543074
 23
31.4971825592
  0
SOLID
  8
0
 62
7
  6
CONTINUOUS
 10
160.5003043074
 20
31.4649197501
 11
160.8471793074
 21
31.4971825592
 12
160.615929528
 22
31.4326555427
 13
160.615929528
 23
31.4326555427
  0
SOLID
  8
0
 62
7
  6
CONTINUOUS
 10
160.615929528
 20
31.4326555427
 11
160.8471793074
 21
31.4971825592
 12
160.6737418074
 22
31.3681283005
 13
160.6737418074
 23
31.3681283005
  0
SOLID
  8
0
 62
7
  6
CONTINUOUS
 10
160.8471793074
 20
31.4971825592
 11
160.9628038663
 21
31.3681283005
 12
160.6737418074
 22
31.3681283005
 13
160.6737418074
 23
31.3681283005
  0
SOLID
  8
0
 62
7
  6
CONTINUOUS
 10
150.2674918074
 20
31.4649197501
 11
149.7471793074
 21
31.4326554237
 12
150.498741835
 22
31.4971824493
 13
150.498741835
 23
31.4971824493
  0
SOLID
  8
0
 62
7
  6
CONTINUOUS
 10
149.7471793074
 20
31.4326554237
 11
149.8628043005
 21
31.4971824493
 12
150.498741835
 22
31.4971824493
 13
150.498741835
 23
31.4971824493
  0
SOLID
  8
0
 62
7
  6
CONTINUOUS
 10
150.2674918074
 20
31.4649197501
 11
150.1518667936
 21
31.4326554237
 12
149.7471793074
 22
31.4326554237
 13
149.7471793074
 23
31.4326554237
  0
SOLID
  8
0
 62
7
  6
CONTINUOUS
 10
149.6315543091
 20
31.3036012664
 11
149.7471793074
 21
31.4326554237
 12
150.1518667936
 22
31.4326554237
 13
150.1518667936
 23
31.4326554237
  0
SOLID
  8
0
 62
7
  6
CONTINUOUS
 10
153.9674919177
 20
31.4326554237
 11
154.6612419177
 21
31.4971825369
 12
154.4299918074
 22
31.4649197501
 13
154.4299918074
 23
31.4649197501
  0
SOLID
  8
0
 62
7
  6
CONTINUOUS
 10
154.4299918074
 20
31.4649197501
 11
154.3143669177
 21
31.4326554237
 12
153.9674919177
 22
31.4326554237
 13
153.9674919177
 23
31.4326554237
  0
SOLID
  8
0
 62
7
  6
CONTINUOUS
 10
153.9674919177
 20
31.3681283335
 11
153.9674919177
 21
31.4326554237
 12
154.3143669177
 22
31.4326554237
 13
154.3143669177
 23
31.4326554237
  0
SOLID
  8
0
 62
7
  6
CONTINUOUS
 10
154.3143669177
 20
31.4326554237
 11
154.2565543074
 21
31.3681283335
 12
153.9674919177
 22
31.3681283335
 13
153.9674919177
 23
31.3681283335
  0
SOLID
  8
0
 62
7
  6
CONTINUOUS
 10
159.1128043074
 20
31.4326555528
 11
159.8065543074
 21
31.4971825369
 12
159.575304528
 22
31.4649197501
 13
159.575304528
 23
31.4649197501
  0
SOLID
  8
0
 62
7
  6
CONTINUOUS
 10
159.575304528
 20
31.4649197501
 11
159.4596793074
 21
31.4326555528
 12
159.1128043074
 22
31.4326555528
 13
159.1128043074
 23
31.4326555528
  0
SOLID
  8
0
 62
7
  6
CONTINUOUS
 10
159.1128043074
 20
31.3681284626
 11
159.1128043074
 21
31.4326555528
 12
159.4596793074
 22
31.4326555528
 13
159.4596793074
 23
31.4326555528
  0
SOLID
  8
0
 62
7
  6
CONTINUOUS
 10
159.4596793074
 20
31.4326555528
 11
159.401867028
 21
31.3681284626
 12
159.1128043074
 22
31.3681284626
 13
159.1128043074
 23
31.3681284626
  0
SOLID
  8
0
 62
7
  6
CONTINUOUS
 10
159.228429528
 20
31.2390741763
 11
159.1128043074
 21
31.3681284626
 12
159.401867028
 22
31.3681284626
 13
159.401867028
 23
31.3681284626
  0
SOLID
  8
0
 62
7
  6
CONTINUOUS
 10
149.6315543091
 20
31.3036012664
 11
150.1518667936
 21
31.4326554468
 12
149.9784292936
 22
31.3358640533
 13
149.9784292936
 23
31.3358640533
  0
SOLID
  8
0
 62
7
  6
CONTINUOUS
 10
149.9784292936
 20
31.3358640533
 11
149.9206168074
 21
31.2713369632
 12
149.6315543091
 22
31.3036012664
 13
149.6315543091
 23
31.3036012664
  0
SOLID
  8
0
 62
7
  6
CONTINUOUS
 10
149.5737418074
 20
31.1100184796
 11
149.6315543091
 21
31.3036012664
 12
149.9206168074
 22
31.2713369632
 13
149.9206168074
 23
31.2713369632
  0
SOLID
  8
0
 62
7
  6
CONTINUOUS
 10
154.4299918074
 20
31.2390741763
 11
154.7768668074
 21
31.271336924
 12
155.412804528
 22
31.271336924
 13
155.412804528
 23
31.271336924
  0
SOLID
  8
0
 62
7
  6
CONTINUOUS
 10
154.4299918074
 20
31.2390741763
 11
155.412804528
 21
31.271336924
 12
154.1987416972
 22
31.1745462761
 13
154.1987416972
 23
31.1745462761
  0
SOLID
  8
0
 62
7
  6
CONTINUOUS
 10
154.1987416972
 20
31.1745462761
 11
155.412804528
 21
31.271336924
 12
154.7768668074
 22
31.1422827436
 13
154.7768668074
 23
31.1422827436
  0
SOLID
  8
0
 62
7
  6
CONTINUOUS
 10
155.412804528
 20
31.271336924
 11
155.412804528
 21
31.1422827436
 12
154.7768668074
 22
31.1422827436
 13
154.7768668074
 23
31.1422827436
  0
SOLID
  8
0
 62
7
  6
CONTINUOUS
 10
159.228429528
 20
31.2390745501
 11
159.401867028
 21
31.3681283566
 12
159.4596793074
 22
31.3036012664
 13
159.4596793074
 23
31.3036012664
  0
SOLID
  8
0
 62
7
  6
CONTINUOUS
 10
159.4596793074
 20
31.3036012664
 11
159.6331168074
 21
31.2390745501
 12
159.228429528
 22
31.2390745501
 13
159.228429528
 23
31.2390745501
  0
SOLID
  8
0
 62
7
  6
CONTINUOUS
 10
159.4596793074
 20
31.1422827828
 11
159.228429528
 21
31.2390745501
 12
159.6331168074
 22
31.2390745501
 13
159.6331168074
 23
31.2390745501
  0
SOLID
  8
0
 62
7
  6
CONTINUOUS
 10
159.6331168074
 20
31.2390745501
 11
160.615929528
 21
31.0777556927
 12
159.4596793074
 22
31.1422827828
 13
159.4596793074
 23
31.1422827828
  0
SOLID
  8
0
 62
7
  6
CONTINUOUS
 10
160.442492028
 20
30.9809646623
 11
159.4596793074
 21
31.1422827828
 12
160.615929528
 22
31.0777556927
 13
160.615929528
 23
31.0777556927
  0
SOLID
  8
0
 62
7
  6
CONTINUOUS
 10
160.615929528
 20
31.0777556927
 11
160.8471793074
 21
30.9809646623
 12
160.442492028
 22
30.9809646623
 13
160.442492028
 23
30.9809646623
  0
SOLID
  8
0
 62
7
  6
CONTINUOUS
 10
160.615929528
 20
30.9164372091
 11
160.442492028
 21
30.9809646623
 12
160.8471793074
 22
30.9809646623
 13
160.8471793074
 23
30.9809646623
  0
SOLID
  8
0
 62
7
  6
CONTINUOUS
 10
160.615929528
 20
30.9164372091
 11
160.8471793074
 21
30.9809646623
 12
160.6737418074
 22
30.8519089441
 13
160.6737418074
 23
30.8519089441
  0
SOLID
  8
0
 62
7
  6
CONTINUOUS
 10
160.8471793074
 20
30.9809646623
 11
160.9628038663
 21
30.8519089441
 12
160.6737418074
 22
30.8519089441
 13
160.6737418074
 23
30.8519089441
  0
SOLID
  8
0
 62
7
  6
CONTINUOUS
 10
160.615929528
 20
30.7873818593
 11
160.6737418074
 21
30.8519089441
 12
160.9628038663
 22
30.8519089441
 13
160.9628038663
 23
30.8519089441
  0
SOLID
  8
0
 62
7
  6
CONTINUOUS
 10
160.9628038663
 20
30.8519089441
 11
160.9628038663
 21
30.7873818593
 12
160.615929528
 22
30.7873818593
 13
160.615929528
 23
30.7873818593
  0
SOLID
  8
0
 62
7
  6
CONTINUOUS
 10
160.5003043074
 20
30.7551187255
 11
160.615929528
 21
30.7873818593
 12
160.9628038663
 22
30.7873818593
 13
160.9628038663
 23
30.7873818593
  0
SOLID
  8
0
 62
7
  6
CONTINUOUS
 10
160.5003043074
 20
30.7551187255
 11
160.9628038663
 21
30.7873818593
 12
160.269054528
 22
30.7228547745
 13
160.269054528
 23
30.7228547745
  0
SOLID
  8
0
 62
7
  6
CONTINUOUS
 10
160.9628038663
 20
30.7873818593
 11
160.8471793074
 21
30.6905916353
 12
160.269054528
 22
30.7228547745
 13
160.269054528
 23
30.7228547745
  0
SOLID
  8
0
 62
7
  6
CONTINUOUS
 10
160.8471793074
 20
30.6905916353
 11
159.401867028
 21
30.658327332
 12
160.269054528
 22
30.7228547745
 13
160.269054528
 23
30.7228547745
  0
SOLID
  8
0
 62
7
  6
CONTINUOUS
 10
160.269054528
 20
30.7228547745
 11
159.401867028
 21
30.658327332
 12
159.922179528
 22
30.7228547745
 13
159.922179528
 23
30.7228547745
  0
SOLID
  8
0
 62
7
  6
CONTINUOUS
 10
159.401867028
 20
30.658327332
 11
159.228429528
 21
30.7228547745
 12
159.922179528
 22
30.7228547745
 13
159.922179528
 23
30.7228547745
  0
SOLID
  8
0
 62
7
  6
CONTINUOUS
 10
159.401867028
 20
30.658327332
 11
160.8471793074
 21
30.6905916353
 12
159.575304528
 22
30.6260629858
 13
159.575304528
 23
30.6260629858
  0
SOLID
  8
0
 62
7
  6
CONTINUOUS
 10
160.8471793074
 20
30.6905916353
 11
160.615929528
 21
30.6260629858
 12
159.575304528
 22
30.6260629858
 13
159.575304528
 23
30.6260629858
  0
SOLID
  8
0
 62
7
  6
CONTINUOUS
 10
159.922179528
 20
30.5938006049
 11
159.575304528
 21
30.6260629858
 12
160.615929528
 22
30.6260629858
 13
160.615929528
 23
30.6260629858
  0
SOLID
  8
0
 62
7
  6
CONTINUOUS
 10
160.615929528
 20
30.6260629858
 11
160.269054528
 21
30.5938006049
 12
159.922179528
 22
30.5938006049
 13
159.922179528
 23
30.5938006049
  0
SOLID
  8
0
 62
7
  6
CONTINUOUS
 10
149.5737418074
 20
31.1100184796
 11
149.9206168074
 21
31.2713369632
 12
149.8628043005
 22
31.1422827828
 13
149.8628043005
 23
31.1422827828
  0
SOLID
  8
0
 62
7
  6
CONTINUOUS
 10
149.8628043005
 20
31.1422827828
 11
149.8628043005
 21
31.0454914852
 12
149.5737418074
 22
31.1100184796
 13
149.5737418074
 23
31.1100184796
  0
SOLID
  8
0
 62
7
  6
CONTINUOUS
 10
149.6315543091
 20
30.9164372091
 11
149.5737418074
 21
31.1100184796
 12
149.8628043005
 22
31.0454914852
 13
149.8628043005
 23
31.0454914852
  0
SOLID
  8
0
 62
7
  6
CONTINUOUS
 10
149.8628043005
 20
31.0454914852
 11
149.9784292936
 21
30.8841729058
 12
149.6315543091
 22
30.9164372091
 13
149.6315543091
 23
30.9164372091
  0
SOLID
  8
0
 62
7
  6
CONTINUOUS
 10
149.7471793074
 20
30.7873813202
 11
149.6315543091
 21
30.9164372091
 12
149.9784292936
 22
30.8841729058
 13
149.9784292936
 23
30.8841729058
  0
SOLID
  8
0
 62
7
  6
CONTINUOUS
 10
149.9784292936
 20
30.8841729058
 11
150.1518667936
 21
30.7873813202
 12
149.7471793074
 22
30.7873813202
 13
149.7471793074
 23
30.7873813202
  0
SOLID
  8
0
 62
7
  6
CONTINUOUS
 10
149.8628043005
 20
30.7228547004
 11
149.7471793074
 21
30.7873813202
 12
150.1518667936
 22
30.7873813202
 13
150.1518667936
 23
30.7873813202
  0
SOLID
  8
0
 62
7
  6
CONTINUOUS
 10
150.1518667936
 20
30.7873813202
 11
150.498741835
 21
30.7228547004
 12
149.8628043005
 22
30.7228547004
 13
149.8628043005
 23
30.7228547004
  0
SOLID
  8
0
 62
7
  6
CONTINUOUS
 10
150.0362418212
 20
30.658327332
 11
149.8628043005
 21
30.7228547004
 12
150.498741835
 22
30.7228547004
 13
150.498741835
 23
30.7228547004
  0
SOLID
  8
0
 62
7
  6
CONTINUOUS
 10
154.0831168074
 20
31.1100184386
 11
154.1987416972
 21
31.1745462761
 12
154.7768668074
 22
31.1422827828
 13
154.7768668074
 23
31.1422827828
  0
SOLID
  8
0
 62
7
  6
CONTINUOUS
 10
154.7768668074
 20
31.1422827828
 11
154.5456166972
 21
31.1100184386
 12
154.0831168074
 22
31.1100184386
 13
154.0831168074
 23
31.1100184386
  0
SOLID
  8
0
 62
7
  6
CONTINUOUS
 10
153.9674919177
 20
30.9809642992
 11
154.0831168074
 21
31.1100184386
 12
154.5456166972
 22
31.1100184386
 13
154.5456166972
 23
31.1100184386
  0
SOLID
  8
0
 62
7
  6
CONTINUOUS
 10
154.3143669177
 20
31.0132277988
 11
153.9674919177
 21
30.9809642992
 12
154.4299918074
 22
31.0777556927
 13
154.4299918074
 23
31.0777556927
  0
SOLID
  8
0
 62
7
  6
CONTINUOUS
 10
153.9674919177
 20
30.9809642992
 11
154.5456166972
 21
31.1100184796
 12
154.4299918074
 22
31.0777556927
 13
154.4299918074
 23
31.0777556927
  0
SOLID
  8
0
 62
7
  6
CONTINUOUS
 10
154.3143669177
 20
31.0132277988
 11
154.2565543074
 21
30.9164372091
 12
153.9674919177
 22
30.9809642992
 13
153.9674919177
 23
30.9809642992
  0
SOLID
  8
0
 62
7
  6
CONTINUOUS
 10
153.9674919177
 20
30.8841729058
 11
153.9674919177
 21
30.9809642992
 12
154.2565543074
 22
30.9164372091
 13
154.2565543074
 23
30.9164372091
  0
SOLID
  8
0
 62
7
  6
CONTINUOUS
 10
154.2565543074
 20
30.9164372091
 11
154.2565543074
 21
30.8519086025
 12
153.9674919177
 22
30.8841729058
 13
153.9674919177
 23
30.8841729058
  0
SOLID
  8
0
 62
7
  6
CONTINUOUS
 10
154.0253041972
 20
30.7551187255
 11
153.9674919177
 21
30.8841729058
 12
154.2565543074
 22
30.8519086025
 13
154.2565543074
 23
30.8519086025
  0
SOLID
  8
0
 62
7
  6
CONTINUOUS
 10
155.412804528
 20
30.9487004259
 11
155.7018665869
 21
30.8519086025
 12
155.3549915869
 22
30.8841729058
 13
155.3549915869
 23
30.8841729058
  0
SOLID
  8
0
 62
7
  6
CONTINUOUS
 10
155.1815540869
 20
30.7873815123
 11
155.3549915869
 21
30.8841729058
 12
155.7018665869
 22
30.8519086025
 13
155.7018665869
 23
30.8519086025
  0
SOLID
  8
0
 62
7
  6
CONTINUOUS
 10
155.1815540869
 20
30.7873815123
 11
155.7018665869
 21
30.8519086025
 12
155.412804528
 22
30.7551187255
 13
155.412804528
 23
30.7551187255
  0
SOLID
  8
0
 62
7
  6
CONTINUOUS
 10
155.7018665869
 20
30.8519086025
 11
155.759679528
 21
30.6905916353
 12
155.412804528
 22
30.7551187255
 13
155.412804528
 23
30.7551187255
  0
SOLID
  8
0
 62
7
  6
CONTINUOUS
 10
155.4706168074
 20
30.658327332
 11
155.412804528
 21
30.7551187255
 12
155.759679528
 22
30.6905916353
 13
155.759679528
 23
30.6905916353
  0
SOLID
  8
0
 62
7
  6
CONTINUOUS
 10
155.4706168074
 20
30.658327332
 11
155.759679528
 21
30.6905916353
 12
155.5284290869
 22
30.5938002079
 13
155.5284290869
 23
30.5938002079
  0
SOLID
  8
0
 62
7
  6
CONTINUOUS
 10
155.759679528
 20
30.6905916353
 11
155.8174918074
 21
30.5938002079
 12
155.5284290869
 22
30.5938002079
 13
155.5284290869
 23
30.5938002079
  0
SOLID
  8
0
 62
7
  6
CONTINUOUS
 10
151.0768668626
 20
30.8196456577
 11
151.1346793074
 21
30.9164373395
 12
151.4237418626
 22
30.9164373395
 13
151.4237418626
 23
30.9164373395
  0
SOLID
  8
0
 62
7
  6
CONTINUOUS
 10
151.4237418626
 20
30.9164373395
 11
151.3659292523
 21
30.7873815123
 12
151.0768668626
 22
30.8196456577
 13
151.0768668626
 23
30.8196456577
  0
SOLID
  8
0
 62
7
  6
CONTINUOUS
 10
150.9034292799
 20
30.7551187255
 11
151.0768668626
 21
30.8196456577
 12
151.3659292523
 22
30.7873815123
 13
151.3659292523
 23
30.7873815123
  0
SOLID
  8
0
 62
7
  6
CONTINUOUS
 10
150.9034292799
 20
30.7551187255
 11
151.3659292523
 21
30.7873815123
 12
150.498741835
 22
30.7228544222
 13
150.498741835
 23
30.7228544222
  0
SOLID
  8
0
 62
7
  6
CONTINUOUS
 10
151.3659292523
 20
30.7873815123
 11
151.1924917523
 21
30.6905916353
 12
150.498741835
 22
30.7228544222
 13
150.498741835
 23
30.7228544222
  0
SOLID
  8
0
 62
7
  6
CONTINUOUS
 10
150.0362418212
 20
30.658327332
 11
150.498741835
 21
30.7228544222
 12
151.1924917523
 22
30.6905916353
 13
151.1924917523
 23
30.6905916353
  0
SOLID
  8
0
 62
7
  6
CONTINUOUS
 10
150.0362418212
 20
30.658327332
 11
151.1924917523
 21
30.6905916353
 12
150.2096793212
 22
30.6260631011
 13
150.2096793212
 23
30.6260631011
  0
SOLID
  8
0
 62
7
  6
CONTINUOUS
 10
151.1924917523
 20
30.6905916353
 11
150.9612418074
 21
30.6260631011
 12
150.2096793212
 22
30.6260631011
 13
150.2096793212
 23
30.6260631011
  0
SOLID
  8
0
 62
7
  6
CONTINUOUS
 10
150.5565542799
 20
30.5938002419
 11
150.2096793212
 21
30.6260631011
 12
150.9612418074
 22
30.6260631011
 13
150.9612418074
 23
30.6260631011
  0
SOLID
  8
0
 62
7
  6
CONTINUOUS
 10
154.0253041972
 20
30.7551187255
 11
154.2565543074
 21
30.8519086025
 12
154.3143669177
 22
30.7873815123
 13
154.3143669177
 23
30.7873815123
  0
SOLID
  8
0
 62
7
  6
CONTINUOUS
 10
154.3143669177
 20
30.7873815123
 11
154.5456166972
 21
30.7228544222
 12
154.0253041972
 22
30.7551187255
 13
154.0253041972
 23
30.7551187255
  0
SOLID
  8
0
 62
7
  6
CONTINUOUS
 10
154.1987416972
 20
30.658327332
 11
154.0253041972
 21
30.7551187255
 12
154.5456166972
 22
30.7228544222
 13
154.5456166972
 23
30.7228544222
  0
SOLID
  8
0
 62
7
  6
CONTINUOUS
 10
154.8924916972
 20
30.7228544637
 11
155.1815540869
 21
30.7873815123
 12
155.412804528
 22
30.7551187255
 13
155.412804528
 23
30.7551187255
  0
SOLID
  8
0
 62
7
  6
CONTINUOUS
 10
155.412804528
 20
30.7551187255
 11
155.3549915869
 21
30.6905916353
 12
154.8924916972
 22
30.7228544637
 13
154.8924916972
 23
30.7228544637
  0
SOLID
  8
0
 62
7
  6
CONTINUOUS
 10
155.3549915869
 20
30.6905916353
 11
154.1987416972
 21
30.658327332
 12
154.8924916972
 22
30.7228544637
 13
154.8924916972
 23
30.7228544637
  0
SOLID
  8
0
 62
7
  6
CONTINUOUS
 10
154.1987416972
 20
30.658327332
 11
154.5456166972
 21
30.7228544637
 12
154.8924916972
 22
30.7228544637
 13
154.8924916972
 23
30.7228544637
  0
SOLID
  8
0
 62
7
  6
CONTINUOUS
 10
154.1987416972
 20
30.658327332
 11
155.3549915869
 21
30.6905916353
 12
154.3143669177
 22
30.6260630541
 13
154.3143669177
 23
30.6260630541
  0
SOLID
  8
0
 62
7
  6
CONTINUOUS
 10
155.3549915869
 20
30.6905916353
 11
155.1815540869
 21
30.6260630541
 12
154.3143669177
 22
30.6260630541
 13
154.3143669177
 23
30.6260630541
  0
SOLID
  8
0
 62
7
  6
CONTINUOUS
 10
154.5456166972
 20
30.5938002188
 11
154.3143669177
 21
30.6260630541
 12
155.1815540869
 22
30.6260630541
 13
155.1815540869
 23
30.6260630541
  0
SOLID
  8
0
 62
7
  6
CONTINUOUS
 10
155.1815540869
 20
30.6260630541
 11
154.8924916972
 21
30.5938002188
 12
154.5456166972
 22
30.5938002188
 13
154.5456166972
 23
30.5938002188
  0
SOLID
  8
0
 62
7
  6
CONTINUOUS
 10
159.575304528
 20
30.7551187255
 11
159.228429528
 21
30.7228544637
 12
159.4596793074
 22
30.7873815123
 13
159.4596793074
 23
30.7873815123
  0
SOLID
  8
0
 62
7
  6
CONTINUOUS
 10
159.4596793074
 20
30.7873815123
 11
159.228429528
 21
30.7228544637
 12
159.401867028
 22
30.851908644
 13
159.401867028
 23
30.851908644
  0
SOLID
  8
0
 62
7
  6
CONTINUOUS
 10
159.228429528
 20
30.7228544637
 11
159.1128043074
 21
30.851908644
 12
159.401867028
 22
30.851908644
 13
159.401867028
 23
30.851908644
  0
SOLID
  8
0
 62
7
  6
CONTINUOUS
 10
159.575304528
 20
30.7551187255
 11
159.922179528
 21
30.7228544637
 12
159.228429528
 22
30.7228544637
 13
159.228429528
 23
30.7228544637
  0
SOLID
  8
0
 62
7
  6
CONTINUOUS
 10
156.279992028
 20
30.5938002419
 11
156.279992028
 21
31.6262382337
 12
156.5690540869
 22
30.5938002419
 13
156.5690540869
 23
31.6262382337
  0
ENDBLK
  8
0
  6
BYBLOCK
 62
0
  0
BLOCK
  8
0
 62
2
  6
CONTINUOUS
  2
SYMBOL_3_BL0
 70
64
 10
32.1213064866
 20
19.8534310916
  0
TEXT
  8
0
 62
7
  6
CONTINUOUS
 10
18.3860103289
 20
19.2268451992
  7
TEXTSTYLE_3
 40
2.7338706658
  1
Ammeraal Beltech
 41
1.0
 51
15.0
 72
0
  0
TEXT
  8
0
 62
7
  6
CONTINUOUS
 10
29.1868111546
 20
16.9533085264
  7
TEXTSTYLE_4
 40
1.0935482663
  1
Innovation & Service in Belting
 41
1.0
 72
0
  0
LINE
  8
0
 62
7
  6
CONTINUOUS
 10
12.3614696776
 20
19.9934385078
 11
13.1396216709
 21
23.6543558055
  0
LINE
  8
0
 62
7
  6
CONTINUOUS
 10
23.2347899607
 20
27.3177497171
 11
13.6274394139
 21
24.1961322958
  0
LINE
  8
0
 62
7
  6
CONTINUOUS
 10
12.5867530099
 20
19.3000877048
 11
20.093828271
 21
12.5406867788
  0
LINE
  8
0
 62
7
  6
CONTINUOUS
 10
12.8492874206
 20
20.5352149982
 11
23.6575567857
 21
24.0470345971
  0
LINE
  8
0
 62
7
  6
CONTINUOUS
 10
23.6533516486
 20
13.6972460334
 11
15.2078919798
 21
21.3015720751
  0
LINE
  8
0
 62
7
  6
CONTINUOUS
 10
24.1731743684
 20
26.4728246013
 11
23.1966148312
 21
21.8784731989
  0
LINE
  8
0
 62
7
  6
CONTINUOUS
 10
22.4968128835
 20
18.5861638851
 11
21.810364672
 21
15.3566789607
  0
LINE
  8
0
 62
7
  6
CONTINUOUS
 10
24.8542704669
 20
14.087448211
 11
25.8105020025
 21
18.5861638851
  0
LINE
  8
0
 62
7
  6
CONTINUOUS
 10
26.5103039502
 20
21.8784731989
 11
26.9545457526
 21
23.9684665583
  0
LINE
  8
0
 62
7
  6
CONTINUOUS
 10
20.8069293463
 20
12.3891124661
 11
24.3664527239
 21
13.5456717207
  0
LINE
  8
0
 62
7
  6
CONTINUOUS
 10
23.9478910361
 20
27.1661754044
 11
26.7292624203
 21
24.6618173613
  0
ARC
  8
0
 62
7
  6
CONTINUOUS
 10
13.8527227462
 20
23.5027814928
 40
0.7290321776
 50
108.0
 51
168.0
  0
ARC
  8
0
 62
7
  6
CONTINUOUS
 10
23.4600732931
 20
26.624398914
 40
0.7290321776
 50
348.0
 51
108.0
  0
ARC
  8
0
 62
7
  6
CONTINUOUS
 10
26.2414446773
 20
24.120040871
 40
0.7290321776
 50
348.0
 51
48.0
  0
ARC
  8
0
 62
7
  6
CONTINUOUS
 10
20.581646014
 20
13.0824632691
 40
0.7290321776
 50
228.0
 51
288.0
  0
ARC
  8
0
 62
7
  6
CONTINUOUS
 10
13.0745707529
 20
19.8418641951
 40
0.7290321776
 50
108.0
 51
228.0
  0
ARC
  8
0
 62
7
  6
CONTINUOUS
 10
24.1411693916
 20
14.2390225237
 40
0.7290321776
 50
228.0
 51
348.0
  0
ENDBLK
  8
0
  6
BYBLOCK
 62
0
  0
ENDSEC
  0
SECTION
  2
ENTITIES
  0
TEXT
  8
0
 62
5
  6
CONTINUOUS
 10
96.0
 20
25.636
  7
TEXTSTYLE_2
 40
2.8
  1
Scale :
 41
0.6
 51
0.000019
 72
0
  0
TEXT
  8
0
 62
5
  6
CONTINUOUS
 10
116.0
 20
25.636
  7
TEXTSTYLE_2
 40
2.8
  1
Belt type:
 41
0.6
 51
0.000019
 72
0
  0
INSERT
  8
0
 62
2
  6
CONTINUOUS
  2
SYMBOL_3_BL0
 10
32.1213064866
 20
19.8534310916
  0
INSERT
  8
0
 62
2
  6
CONTINUOUS
  2
SYMBOL_8_BL1
 10
173.5956734183
 20
35.5937998301
  0
LINE
  8
0
 62
2
  6
CONTINUOUS
 10
10.0
 20
30.0
 11
200.0
 21
30.0
  0
LINE
  8
0
 62
2
  6
CONTINUOUS
 10
10.0
 20
30.0
 11
10.0
 21
10.0
  0
LINE
  8
0
 62
2
  6
CONTINUOUS
 10
10.0
 20
10.0
 11
200.0
 21
10.0
  0
LINE
  8
0
 62
2
  6
CONTINUOUS
 10
95.0
 20
30.0
 11
95.0
 21
10.0
  0
LINE
  8
0
 62
2
  6
CONTINUOUS
 10
115.0
 20
30.0
 11
115.0
 21
10.0
  0
LINE
  8
0
 62
2
  6
CONTINUOUS
 10
200.0
 20
30.0
 11
200.0
 21
10.0
  0
TEXT
  8
0
 62
5
  6
CONTINUOUS
 10
13.0
 20
23.303
  7
TEXTSTYLE_5
 40
1.52
  1
                                                                     Ammeraal Beltech Modular A/S
 41
1.0
 72
0
  0
TEXT
  8
0
 62
5
  6
CONTINUOUS
 10
13.0
 20
20.595
  7
TEXTSTYLE_5
 40
1.5
  1
                                                                      Hjulmagervej 21,  7100 Vejle,  DK
 41
1.0
 72
0
  0
TEXT
  8
0
 62
5
  6
CONTINUOUS
 10
13.0
 20
17.881
  7
TEXTSTYLE_5
 40
1.495
  1
                                                                      tel: 
 41
1.0
 72
0
  0
TEXT
  8
0
 62
5
  6
CONTINUOUS
 10
57.9869465649
 20
17.881
  7
TEXTSTYLE_5
 40
1.51
  1
+45 75723100     fax: +45 75723348
 41
1.0
 72
0
  0
TEXT
  8
0
 62
5
  6
CONTINUOUS
 10
13.0
 20
15.177
  7
TEXTSTYLE_5
 40
1.5
  1
                                                                      admin@unichains.dk  www.unichains.com
 41
1.0
 72
0
  0
TEXT
  8
0
 62
5
  6
CONTINUOUS
 10
99.75
 20
13.75
  7
TEXTSTYLE_6
 40
5.0
  1
1:1
 41
0.7
 72
1
 11
105.0
 21
13.75
  0
TEXT
  8
0
 62
5
  6
CONTINUOUS
 10
118.0
 20
13.75
  7
TEXTSTYLE_7
 40
7.5
  1
uni Flex SNB CR K300
 41
0.51625
 72
0
  0
LINE
  8
0
 62
7
  6
CONTINUOUS
 10
210.0
 20
0.0
 11
0.0
 21
0.0
  0
LINE
  8
0
 62
7
  6
CONTINUOUS
 10
10.0
 20
10.0
 11
200.0
 21
10.0
  0
LINE
  8
0
 62
7
  6
CONTINUOUS
 10
10.0
 20
30.0
 11
200.0
 21
30.0
  0
LINE
  8
0
 62
7
  6
CONTINUOUS
 10
0.0
 20
0.0
 11
0.0
 21
297.0
  0
LINE
  8
0
 62
7
  6
CONTINUOUS
 10
10.0
 20
10.0
 11
10.0
 21
287.0
  0
LINE
  8
0
 62
7
  6
CONTINUOUS
 10
200.0
 20
287.0
 11
200.0
 21
10.0
  0
LINE
  8
0
 62
7
  6
CONTINUOUS
 10
210.0
 20
0.0
 11
210.0
 21
297.0
  0
LINE
  8
0
 62
7
  6
CONTINUOUS
 10
10.0
 20
287.0
 11
200.0
 21
287.0
  0
LINE
  8
0
 62
7
  6
CONTINUOUS
 10
0.0
 20
297.0
 11
210.0
 21
297.0
  0
LINE
  8
0
 62
7
  6
CONTINUOUS
 10
38.7567814307
 20
174.7380966169
 11
39.3726384328
 21
172.4239747128
  0
LINE
  8
0
 62
7
  6
CONTINUOUS
 10
38.6054192559
 20
185.8168496279
 11
38.6054192559
 21
175.8953991121
  0
LINE
  8
0
 62
7
  6
CONTINUOUS
 10
45.7226384328
 20
206.0097245429
 11
45.1067814307
 21
203.6956026388
  0
LINE
  8
0
 62
7
  6
CONTINUOUS
 10
44.3054192559
 20
175.8953991121
 11
44.3054192559
 21
184.3639592404
  0
LINE
  8
0
 62
7
  6
CONTINUOUS
 10
44.9554192559
 20
202.5383001436
 11
44.9554192559
 21
194.0697400154
  0
LINE
  8
0
 62
7
  6
CONTINUOUS
 10
44.7877714147
 20
192.7858503732
 11
43.7485171834
 21
188.8742661815
  0
LINE
  8
0
 62
7
  6
CONTINUOUS
 10
44.4730670971
 20
185.6478488826
 11
45.5123213284
 21
189.5594330742
  0
LINE
  8
0
 62
7
  6
CONTINUOUS
 10
43.5382000791
 20
172.4239747128
 11
44.1540570811
 21
174.7380966169
  0
LINE
  8
0
 62
7
  6
CONTINUOUS
 10
51.4567814307
 20
174.7380966169
 11
52.0726384328
 21
172.4239747128
  0
LINE
  8
0
 62
7
  6
CONTINUOUS
 10
50.6554192559
 20
194.0697400154
 11
50.6554192559
 21
202.5383001436
  0
LINE
  8
0
 62
7
  6
CONTINUOUS
 10
51.3054192559
 20
184.3639592404
 11
51.3054192559
 21
175.8953991121
  0
LINE
  8
0
 62
7
  6
CONTINUOUS
 10
50.0985171834
 20
189.5594330742
 11
51.1377714147
 21
185.6478488826
  0
LINE
  8
0
 62
7
  6
CONTINUOUS
 10
58.4226384328
 20
206.0097245429
 11
57.8067814307
 21
203.6956026388
  0
LINE
  8
0
 62
7
  6
CONTINUOUS
 10
51.8623213284
 20
188.8742661815
 11
50.8230670971
 21
192.7858503732
  0
LINE
  8
0
 62
7
  6
CONTINUOUS
 10
57.0054192559
 20
175.8953991121
 11
57.0054192559
 21
184.3639592404
  0
LINE
  8
0
 62
7
  6
CONTINUOUS
 10
57.4877714147
 20
192.7858503732
 11
56.4485171834
 21
188.8742661815
  0
LINE
  8
0
 62
7
  6
CONTINUOUS
 10
50.5040570811
 20
203.6956026388
 11
49.8882000791
 21
206.0097245429
  0
LINE
  8
0
 62
7
  6
CONTINUOUS
 10
57.6554192559
 20
202.5383001436
 11
57.6554192559
 21
194.0697400154
  0
LINE
  8
0
 62
7
  6
CONTINUOUS
 10
57.1730670971
 20
185.6478488826
 11
58.2123213284
 21
189.5594330742
  0
LINE
  8
0
 62
7
  6
CONTINUOUS
 10
68.2153336149
 20
171.8668496279
 11
65.495504897
 21
171.8668496279
  0
LINE
  8
0
 62
7
  6
CONTINUOUS
 10
55.5153336149
 20
171.8668496279
 11
52.795504897
 21
171.8668496279
  0
LINE
  8
0
 62
7
  6
CONTINUOUS
 10
42.8153336149
 20
171.8668496279
 11
40.095504897
 21
171.8668496279
  0
LINE
  8
0
 62
7
  6
CONTINUOUS
 10
78.563193977
 20
172.1168496279
 11
80.5476445348
 21
172.1168496279
  0
LINE
  8
0
 62
7
  6
CONTINUOUS
 10
91.2875300097
 20
172.1168496279
 11
93.2233085022
 21
172.1168496279
  0
LINE
  8
0
 62
7
  6
CONTINUOUS
 10
104.1292465214
 20
172.1168496279
 11
105.8229281033
 21
172.1168496279
  0
LINE
  8
0
 62
7
  6
CONTINUOUS
 10
56.2382000791
 20
172.4239747128
 11
56.8540570811
 21
174.7380966169
  0
LINE
  8
0
 62
7
  6
CONTINUOUS
 10
64.1567814307
 20
174.7380966169
 11
64.7726384328
 21
172.4239747128
  0
LINE
  8
0
 62
7
  6
CONTINUOUS
 10
63.3554192559
 20
194.0697400154
 11
63.3554192559
 21
202.5383001436
  0
LINE
  8
0
 62
7
  6
CONTINUOUS
 10
64.0054192559
 20
184.3639592404
 11
64.0054192559
 21
175.8953991121
  0
LINE
  8
SURFACE
 62
6
  6
CONTINUOUS
 10
102.1024677215
 20
183.4654440891
 11
101.96505721
 21
183.4267229759
  0
LINE
  8
SURFACE
 62
6
  6
CONTINUOUS
 10
102.2695819111
 20
183.5116150336
 11
102.1024677215
 21
183.4654440891
  0
LINE
  8
SURFACE
 62
6
  6
CONTINUOUS
 10
102.4773748875
 20
183.5677043006
 11
102.2695819111
 21
183.5116150336
  0
LINE
  8
SURFACE
 62
6
  6
CONTINUOUS
 10
102.7054192559
 20
183.6276936295
 11
102.4773748875
 21
183.5677043006
  0
LINE
  8
0
 62
7
  6
CONTINUOUS
 10
62.7985171834
 20
189.5594330742
 11
63.8377714147
 21
185.6478488826
  0
LINE
  8
0
 62
7
  6
CONTINUOUS
 10
64.5623213284
 20
188.8742661815
 11
63.5230670971
 21
192.7858503732
  0
LINE
  8
0
 62
7
  6
CONTINUOUS
 10
71.1226384328
 20
206.0097245429
 11
70.5067814307
 21
203.6956026388
  0
LINE
  8
0
 62
7
  6
CONTINUOUS
 10
63.2040570811
 20
203.6956026388
 11
62.5882000791
 21
206.0097245429
  0
LINE
  8
0
 62
7
  6
CONTINUOUS
 10
69.7054192559
 20
175.8953991121
 11
69.7054192559
 21
184.3639592404
  0
LINE
  8
0
 62
7
  6
CONTINUOUS
 10
70.3554192559
 20
202.5383001436
 11
70.3554192559
 21
194.0697400154
  0
LINE
  8
0
 62
7
  6
CONTINUOUS
 10
70.1877714147
 20
192.7858503732
 11
69.1485171834
 21
188.8742661815
  0
LINE
  8
0
 62
7
  6
CONTINUOUS
 10
69.8730670971
 20
185.6478488826
 11
70.9123213284
 21
189.5594330742
  0
LINE
  8
0
 62
7
  6
CONTINUOUS
 10
68.9382000791
 20
172.4239747128
 11
69.5540570811
 21
174.7380966169
  0
LINE
  8
0
 62
7
  6
CONTINUOUS
 10
76.7772741469
 20
175.3122124003
 11
77.8668364588
 21
172.5883066206
  0
LINE
  8
0
 62
7
  6
CONTINUOUS
 10
76.0554192559
 20
192.866260815
 11
76.0554192559
 21
201.7665658007
  0
LINE
  8
DEFAULT_1
 62
7
  6
CENTER
 10
76.3754192559
 20
169.8668496279
 11
76.3754192559
 21
208.5668496279
  0
LINE
  8
0
 62
7
  6
CONTINUOUS
 10
76.4554192559
 20
184.2415763717
 11
76.4554192559
 21
176.9834704439
  0
LINE
  8
0
 62
7
  6
CONTINUOUS
 10
84.2106076019
 20
205.8622891018
 11
83.2692666208
 21
203.6658268127
  0
LINE
  8
SURFACE
 62
6
  6
CONTINUOUS
 10
101.45935669
 20
195.3382979758
 11
101.6054192559
 21
195.3736187687
  0
POLYLINE
  8
SURFACE
 62
6
  6
CONTINUOUS
 66
1
 70
0
  0
VERTEX
  8
SURFACE
 62
6
  6
CONTINUOUS
 10
101.1924053031
 20
195.2754036313
  0
VERTEX
  8
SURFACE
 62
6
  6
CONTINUOUS
 10
101.2925306165
 20
195.2987516701
  0
VERTEX
  8
SURFACE
 62
6
  6
CONTINUOUS
 10
101.45935669
 20
195.3382979758
  0
SEQEND
  0
LINE
  8
0
 62
7
  6
CONTINUOUS
 10
93.2106678301
 20
188.0668496279
 11
91.3001706818
 21
188.0668496279
  0
LINE
  8
0
 62
7
  6
CONTINUOUS
 10
80.5106678301
 20
188.0668496279
 11
78.0267325721
 21
188.0668496279
  0
LINE
  8
0
 62
7
  6
CONTINUOUS
 10
68.4236643596
 20
188.3168496279
 11
65.2871741522
 21
188.3168496279
  0
LINE
  8
0
 62
7
  6
CONTINUOUS
 10
55.7236643596
 20
188.3168496279
 11
52.5871741522
 21
188.3168496279
  0
LINE
  8
0
 62
7
  6
CONTINUOUS
 10
43.0236643596
 20
188.3168496279
 11
41.1054192559
 21
188.3168496279
  0
LINE
  8
DEFAULT_1
 62
7
  6
CENTER
 10
36.6054192559
 20
189.2168496279
 11
116.7754192559
 21
189.2168496279
  0
LINE
  8
SURFACE
 62
6
  6
CONTINUOUS
 10
94.4054192559
 20
183.6276936295
 11
94.6334636243
 21
183.5677043006
  0
LINE
  8
SURFACE
 62
6
  6
CONTINUOUS
 10
94.6334636243
 20
183.5677043006
 11
94.8412566008
 21
183.5116150336
  0
LINE
  8
SURFACE
 62
6
  6
CONTINUOUS
 10
94.8412566008
 20
183.5116150336
 11
95.0083707903
 21
183.4654440891
  0
LINE
  8
SURFACE
 62
6
  6
CONTINUOUS
 10
95.0083707903
 20
183.4654440891
 11
95.1554192559
 21
183.4239803784
  0
LINE
  8
0
 62
7
  6
CONTINUOUS
 10
74.7870908084
 20
189.628215797
 11
76.1419850473
 21
185.9840174993
  0
LINE
  8
0
 62
7
  6
CONTINUOUS
 10
77.3237477034
 20
188.5554834587
 11
76.3688534645
 21
191.1238196874
  0
POLYLINE
  8
SURFACE
 62
6
  6
CONTINUOUS
 66
1
 70
0
  0
VERTEX
  8
SURFACE
 62
6
  6
CONTINUOUS
 10
100.8554192559
 20
195.1988060208
  0
VERTEX
  8
SURFACE
 62
6
  6
CONTINUOUS
 10
100.9711630691
 20
195.2247827193
  0
VERTEX
  8
SURFACE
 62
6
  6
CONTINUOUS
 10
101.1924053031
 20
195.2754036313
  0
SEQEND
  0
LINE
  8
0
 62
7
  6
CONTINUOUS
 10
46.2371741522
 20
190.1168496279
 11
49.3736643596
 21
190.1168496279
  0
LINE
  8
0
 62
7
  6
CONTINUOUS
 10
58.9371741522
 20
190.1168496279
 11
62.0736643596
 21
190.1168496279
  0
LINE
  8
0
 62
7
  6
CONTINUOUS
 10
71.6371741522
 20
190.1168496279
 11
74.0841059397
 21
190.1168496279
  0
LINE
  8
0
 62
7
  6
CONTINUOUS
 10
84.9501706818
 20
190.3668496279
 11
86.8606678301
 21
190.3668496279
  0
LINE
  8
0
 62
7
  6
CONTINUOUS
 10
110.3754886324
 20
190.3668496279
 11
112.2054192559
 21
190.3668496279
  0
LINE
  8
0
 62
7
  6
CONTINUOUS
 10
111.3657366601
 20
192.3276239118
 11
112.0451018517
 21
192.3276239118
  0
LINE
  8
0
 62
7
  6
CONTINUOUS
 10
82.2926596706
 20
190.5130211181
 11
81.1687538923
 21
188.4570959139
  0
LINE
  8
SURFACE
 62
6
  6
CONTINUOUS
 10
111.4549623762
 20
192.4168496279
 11
111.9558761357
 21
192.4168496279
  0
POLYLINE
  8
0
 62
7
  6
CONTINUOUS
 66
1
 70
0
  0
VERTEX
  8
0
 62
7
  6
CONTINUOUS
 10
111.3657366601
 20
192.3276239118
  0
VERTEX
  8
0
 62
7
  6
CONTINUOUS
 10
111.254185051
 20
192.3358701558
  0
VERTEX
  8
0
 62
7
  6
CONTINUOUS
 10
111.1435947821
 20
192.3608525971
  0
VERTEX
  8
0
 62
7
  6
CONTINUOUS
 10
111.03820332
 20
192.4018973095
  0
VERTEX
  8
0
 62
7
  6
CONTINUOUS
 10
110.9409885999
 20
192.4575708534
  0
VERTEX
  8
0
 62
7
  6
CONTINUOUS
 10
110.8523416547
 20
192.5277289203
  0
VERTEX
  8
0
 62
7
  6
CONTINUOUS
 10
110.775240821
 20
192.6104409159
  0
VERTEX
  8
0
 62
7
  6
CONTINUOUS
 10
110.7122808848
 20
192.7025924096
  0
VERTEX
  8
0
 62
7
  6
CONTINUOUS
 10
110.6640436879
 20
192.8026864955
  0
VERTEX
  8
0
 62
7
  6
CONTINUOUS
 10
110.6313666093
 20
192.9087613391
  0
VERTEX
  8
0
 62
7
  6
CONTINUOUS
 10
110.6150474674
 20
193.0168496279
  0
SEQEND
  0
POLYLINE
  8
SURFACE
 62
6
  6
CONTINUOUS
 66
1
 70
0
  0
VERTEX
  8
SURFACE
 62
6
  6
CONTINUOUS
 10
111.4549623762
 20
192.4168496279
  0
VERTEX
  8
SURFACE
 62
6
  6
CONTINUOUS
 10
111.3377140401
 20
192.4260672021
  0
VERTEX
  8
SURFACE
 62
6
  6
CONTINUOUS
 10
111.223053537
 20
192.4535957828
  0
VERTEX
  8
SURFACE
 62
6
  6
CONTINUOUS
 10
111.1147267917
 20
192.4984586162
  0
VERTEX
  8
SURFACE
 62
6
  6
CONTINUOUS
 10
111.0142306497
 20
192.5600280557
  0
VERTEX
  8
SURFACE
 62
6
  6
CONTINUOUS
 10
110.9249000057
 20
192.6363303776
  0
VERTEX
  8
SURFACE
 62
6
  6
CONTINUOUS
 10
110.8485976837
 20
192.7256610217
  0
VERTEX
  8
SURFACE
 62
6
  6
CONTINUOUS
 10
110.7870282442
 20
192.8261571636
  0
VERTEX
  8
SURFACE
 62
6
  6
CONTINUOUS
 10
110.7421654108
 20
192.9344839089
  0
VERTEX
  8
SURFACE
 62
6
  6
CONTINUOUS
 10
110.7146368302
 20
193.049144412
  0
VERTEX
  8
SURFACE
 62
6
  6
CONTINUOUS
 10
110.7054192559
 20
193.1663927481
  0
SEQEND
  0
LINE
  8
0
 62
7
  6
CONTINUOUS
 10
75.7451704273
 20
203.4085113302
 11
74.6941143209
 21
206.0904904056
  0
LINE
  8
0
 62
7
  6
CONTINUOUS
 10
82.6554192559
 20
176.9834704439
 11
82.6554192559
 21
185.7052468735
  0
LINE
  8
0
 62
7
  6
CONTINUOUS
 10
82.9054192559
 20
201.8931899691
 11
82.9054192559
 21
192.9113792114
  0
LINE
  8
0
 62
7
  6
CONTINUOUS
 10
83.2681788413
 20
188.1036049669
 11
84.2920846196
 21
189.9766033419
  0
LINE
  8
0
 62
7
  6
CONTINUOUS
 10
89.6080566523
 20
175.3950284954
 11
90.5796362424
 21
172.6190868093
  0
LINE
  8
0
 62
7
  6
CONTINUOUS
 10
81.244002053
 20
172.5883066206
 11
82.3335643649
 21
175.3122124003
  0
LINE
  8
0
 62
7
  6
CONTINUOUS
 10
96.99365455
 20
205.9197908043
 11
96.1348310206
 21
204.3094966867
  0
LINE
  8
0
 62
7
  6
CONTINUOUS
 10
87.5187538923
 20
189.9766033419
 11
88.7426596706
 21
187.7377513084
  0
LINE
  8
0
 62
7
  6
CONTINUOUS
 10
88.9054192559
 20
192.9113792114
 11
88.9054192559
 21
201.8931899691
  0
LINE
  8
0
 62
7
  6
CONTINUOUS
 10
89.3554192559
 20
185.339393215
 11
89.3554192559
 21
176.8816054067
  0
LINE
  8
SURFACE
 62
6
  6
CONTINUOUS
 10
101.96505721
 20
183.4267229759
 11
101.9554192559
 21
183.4239803784
  0
LINE
  8
SURFACE
 62
6
  6
CONTINUOUS
 10
111.9558761357
 20
202.9168496279
 11
111.4549623762
 21
202.9168496279
  0
LINE
  8
0
 62
7
  6
CONTINUOUS
 10
111.370870286
 20
203.0009417181
 11
112.0399682259
 21
203.0009417181
  0
LINE
  8
SURFACE
 62
6
  6
CONTINUOUS
 10
109.4554192559
 20
195.1988060208
 11
109.2264369874
 21
195.250529217
  0
LINE
  8
SURFACE
 62
6
  6
CONTINUOUS
 10
109.2264369874
 20
195.250529217
 11
109.0183078954
 21
195.2987516701
  0
LINE
  8
SURFACE
 62
6
  6
CONTINUOUS
 10
109.0183078954
 20
195.2987516701
 11
108.7891087614
 21
195.353299104
  0
LINE
  8
SURFACE
 62
6
  6
CONTINUOUS
 10
108.7891087614
 20
195.353299104
 11
108.7054192559
 21
195.3736187687
  0
LINE
  8
0
 62
7
  6
CONTINUOUS
 10
90.6420846196
 20
188.4570959139
 11
89.5181788413
 21
190.5130211181
  0
LINE
  8
0
 62
7
  6
CONTINUOUS
 10
94.9926596706
 20
190.5130211181
 11
93.8687538923
 21
188.4570959139
  0
LINE
  8
0
 62
7
  6
CONTINUOUS
 10
99.5554192559
 20
206.3168496279
 11
97.6554192559
 21
206.3168496279
  0
LINE
  8
0
 62
7
  6
CONTINUOUS
 10
84.8999663744
 20
206.3168496279
 11
86.9108721374
 21
206.3168496279
  0
LINE
  8
0
 62
7
  6
CONTINUOUS
 10
111.0181833011
 20
206.3168496279
 11
113.2883961645
 21
206.3168496279
  0
POLYLINE
  8
0
 62
7
  6
CONTINUOUS
 66
1
 70
0
  0
VERTEX
  8
0
 62
7
  6
CONTINUOUS
 10
112.0399682259
 20
203.0009417181
  0
VERTEX
  8
0
 62
7
  6
CONTINUOUS
 10
112.1524567004
 20
202.9926180928
  0
VERTEX
  8
0
 62
7
  6
CONTINUOUS
 10
112.2668133776
 20
202.9665506058
  0
VERTEX
  8
0
 62
7
  6
CONTINUOUS
 10
112.3771258417
 20
202.9227344289
  0
VERTEX
  8
0
 62
7
  6
CONTINUOUS
 10
112.4788320929
 20
202.8627189518
  0
VERTEX
  8
0
 62
7
  6
CONTINUOUS
 10
112.5706776566
 20
202.7870085555
  0
VERTEX
  8
0
 62
7
  6
CONTINUOUS
 10
112.6496930462
 20
202.6974207408
  0
VERTEX
  8
0
 62
7
  6
CONTINUOUS
 10
112.7128202773
 20
202.5974400522
  0
VERTEX
  8
0
 62
7
  6
CONTINUOUS
 10
112.7593377941
 20
202.4882896503
  0
VERTEX
  8
0
 62
7
  6
CONTINUOUS
 10
112.7876103629
 20
202.3736825419
  0
VERTEX
  8
0
 62
7
  6
CONTINUOUS
 10
112.7971538785
 20
202.2590411302
  0
SEQEND
  0
POLYLINE
  8
SURFACE
 62
6
  6
CONTINUOUS
 66
1
 70
0
  0
VERTEX
  8
SURFACE
 62
6
  6
CONTINUOUS
 10
111.9558761357
 20
202.9168496279
  0
VERTEX
  8
SURFACE
 62
6
  6
CONTINUOUS
 10
112.0731244717
 20
202.9076320536
  0
VERTEX
  8
SURFACE
 62
6
  6
CONTINUOUS
 10
112.1877849749
 20
202.8801034729
  0
VERTEX
  8
SURFACE
 62
6
  6
CONTINUOUS
 10
112.2961117202
 20
202.8352406395
  0
VERTEX
  8
SURFACE
 62
6
  6
CONTINUOUS
 10
112.3966078621
 20
202.7736712001
  0
VERTEX
  8
SURFACE
 62
6
  6
CONTINUOUS
 10
112.4859385061
 20
202.6973688781
  0
VERTEX
  8
SURFACE
 62
6
  6
CONTINUOUS
 10
112.5622408281
 20
202.6080382341
  0
VERTEX
  8
SURFACE
 62
6
  6
CONTINUOUS
 10
112.6238102676
 20
202.5075420921
  0
VERTEX
  8
SURFACE
 62
6
  6
CONTINUOUS
 10
112.668673101
 20
202.3992153468
  0
VERTEX
  8
SURFACE
 62
6
  6
CONTINUOUS
 10
112.6962016817
 20
202.2845548437
  0
VERTEX
  8
SURFACE
 62
6
  6
CONTINUOUS
 10
112.7054192559
 20
202.1673065076
  0
SEQEND
  0
LINE
  8
0
 62
7
  6
CONTINUOUS
 10
88.541571891
 20
203.6658268127
 11
87.6002309099
 21
205.8622891018
  0
LINE
  8
0
 62
7
  6
CONTINUOUS
 10
95.1554192559
 20
176.8816054067
 11
95.1554192559
 21
183.4239803784
  0
LINE
  8
0
 62
7
  6
CONTINUOUS
 10
95.6054192559
 20
202.1918496279
 11
95.6054192559
 21
192.9113792114
  0
LINE
  8
0
 62
7
  6
CONTINUOUS
 10
110.3845689945
 20
205.9681386887
 11
109.4037334159
 21
204.4194509331
  0
LINE
  8
0
 62
7
  6
CONTINUOUS
 10
73.9986350807
 20
206.5668496279
 11
71.845504897
 21
206.5668496279
  0
LINE
  8
0
 62
7
  6
CONTINUOUS
 10
61.8653336149
 20
206.5668496279
 11
59.145504897
 21
206.5668496279
  0
LINE
  8
0
 62
7
  6
CONTINUOUS
 10
49.1653336149
 20
206.5668496279
 11
46.445504897
 21
206.5668496279
  0
LINE
  8
0
 62
7
  6
CONTINUOUS
 10
102.2304758344
 20
175.8666953228
 11
103.4250892844
 21
172.608658641
  0
LINE
  8
0
 62
7
  6
CONTINUOUS
 10
93.9312022694
 20
172.6190868093
 11
94.9027818596
 21
175.3950284954
  0
LINE
  8
0
 62
7
  6
CONTINUOUS
 10
101.6054192559
 20
195.3736187687
 11
101.6054192559
 21
202.1918496278
  0
LINE
  8
0
 62
7
  6
CONTINUOUS
 10
101.9554192559
 20
183.4239803784
 11
101.9554192559
 21
177.415841244
  0
LINE
  8
0
 62
7
  6
CONTINUOUS
 10
108.8555126368
 20
188.1993004787
 11
109.7005026395
 21
189.9437959682
  0
LINE
  8
0
 62
7
  6
CONTINUOUS
 10
101.0760074912
 20
204.3094966867
 11
100.2171839618
 21
205.9197908043
  0
LINE
  8
0
 62
7
  6
CONTINUOUS
 10
108.3554192559
 20
177.5935623698
 11
108.3554192559
 21
186.0196582101
  0
LINE
  8
0
 62
7
  6
CONTINUOUS
 10
108.7054192559
 20
202.0117165678
 11
108.7054192559
 21
195.3736187687
  0
POLYLINE
  8
SURFACE
 62
6
  6
CONTINUOUS
 66
1
 70
0
  0
VERTEX
  8
SURFACE
 62
6
  6
CONTINUOUS
 10
110.7054192559
 20
202.1673065076
  0
VERTEX
  8
SURFACE
 62
6
  6
CONTINUOUS
 10
110.7146368302
 20
202.2845548437
  0
VERTEX
  8
SURFACE
 62
6
  6
CONTINUOUS
 10
110.7421654108
 20
202.3992153468
  0
VERTEX
  8
SURFACE
 62
6
  6
CONTINUOUS
 10
110.7870282442
 20
202.5075420921
  0
VERTEX
  8
SURFACE
 62
6
  6
CONTINUOUS
 10
110.8485976837
 20
202.6080382341
  0
VERTEX
  8
SURFACE
 62
6
  6
CONTINUOUS
 10
110.9249000057
 20
202.6973688781
  0
VERTEX
  8
SURFACE
 62
6
  6
CONTINUOUS
 10
111.0142306497
 20
202.7736712001
  0
VERTEX
  8
SURFACE
 62
6
  6
CONTINUOUS
 10
111.1147267917
 20
202.8352406395
  0
VERTEX
  8
SURFACE
 62
6
  6
CONTINUOUS
 10
111.223053537
 20
202.8801034729
  0
VERTEX
  8
SURFACE
 62
6
  6
CONTINUOUS
 10
111.3377140401
 20
202.9076320536
  0
VERTEX
  8
SURFACE
 62
6
  6
CONTINUOUS
 10
111.4549623762
 20
202.9168496279
  0
SEQEND
  0
POLYLINE
  8
0
 62
7
  6
CONTINUOUS
 66
1
 70
0
  0
VERTEX
  8
0
 62
7
  6
CONTINUOUS
 10
110.6136846333
 20
202.2590411302
  0
VERTEX
  8
0
 62
7
  6
CONTINUOUS
 10
110.6232437679
 20
202.3737784145
  0
VERTEX
  8
0
 62
7
  6
CONTINUOUS
 10
110.6515364338
 20
202.4883965923
  0
VERTEX
  8
0
 62
7
  6
CONTINUOUS
 10
110.6980525564
 20
202.5975054355
  0
VERTEX
  8
0
 62
7
  6
CONTINUOUS
 10
110.761178941
 20
202.6974654354
  0
VERTEX
  8
0
 62
7
  6
CONTINUOUS
 10
110.840199297
 20
202.787045703
  0
VERTEX
  8
0
 62
7
  6
CONTINUOUS
 10
110.9320692457
 20
202.8627629255
  0
VERTEX
  8
0
 62
7
  6
CONTINUOUS
 10
111.0338080477
 20
202.9227811603
  0
VERTEX
  8
0
 62
7
  6
CONTINUOUS
 10
111.1441863477
 20
202.9666005641
  0
VERTEX
  8
0
 62
7
  6
CONTINUOUS
 10
111.258527476
 20
202.9926397359
  0
VERTEX
  8
0
 62
7
  6
CONTINUOUS
 10
111.370870286
 20
203.0009417181
  0
SEQEND
  0
POLYLINE
  8
0
 62
7
  6
CONTINUOUS
 66
1
 70
0
  0
VERTEX
  8
0
 62
7
  6
CONTINUOUS
 10
110.6150474674
 20
193.0168496279
  0
VERTEX
  8
0
 62
7
  6
CONTINUOUS
 10
110.6134235011
 20
193.0452766911
  0
VERTEX
  8
0
 62
7
  6
CONTINUOUS
 10
110.6128792168
 20
193.073852709
  0
SEQEND
  0
LINE
  8
0
 62
7
  6
CONTINUOUS
 10
112.7971538785
 20
202.2590411302
 11
112.7979592951
 21
201.9168496279
  0
LINE
  8
SURFACE
 62
6
  6
CONTINUOUS
 10
110.7054192559
 20
202.1673065076
 11
110.7054192559
 21
193.1663927481
  0
LINE
  8
SURFACE
 62
6
  6
CONTINUOUS
 10
112.7054192559
 20
193.1663927481
 11
112.7054192559
 21
202.1673065076
  0
LINE
  8
0
 62
7
  6
CONTINUOUS
 10
112.7979592951
 20
201.9168496279
 11
112.7979592951
 21
193.073852709
  0
LINE
  8
0
 62
7
  6
CONTINUOUS
 10
110.6136846333
 20
202.2590411302
 11
110.6128792168
 21
193.073852709
  0
POLYLINE
  8
0
 62
7
  6
CONTINUOUS
 66
1
 70
0
  0
VERTEX
  8
0
 62
7
  6
CONTINUOUS
 10
112.7979592951
 20
193.073852709
  0
VERTEX
  8
0
 62
7
  6
CONTINUOUS
 10
112.7974150108
 20
193.0452766913
  0
VERTEX
  8
0
 62
7
  6
CONTINUOUS
 10
112.7957910444
 20
193.0168496279
  0
SEQEND
  0
POLYLINE
  8
SURFACE
 62
6
  6
CONTINUOUS
 66
1
 70
0
  0
VERTEX
  8
SURFACE
 62
6
  6
CONTINUOUS
 10
112.7054192559
 20
193.1663927481
  0
VERTEX
  8
SURFACE
 62
6
  6
CONTINUOUS
 10
112.6962016817
 20
193.049144412
  0
VERTEX
  8
SURFACE
 62
6
  6
CONTINUOUS
 10
112.668673101
 20
192.9344839089
  0
VERTEX
  8
SURFACE
 62
6
  6
CONTINUOUS
 10
112.6238102676
 20
192.8261571636
  0
VERTEX
  8
SURFACE
 62
6
  6
CONTINUOUS
 10
112.5622408281
 20
192.7256610217
  0
VERTEX
  8
SURFACE
 62
6
  6
CONTINUOUS
 10
112.4859385061
 20
192.6363303776
  0
VERTEX
  8
SURFACE
 62
6
  6
CONTINUOUS
 10
112.3966078621
 20
192.5600280557
  0
VERTEX
  8
SURFACE
 62
6
  6
CONTINUOUS
 10
112.2961117202
 20
192.4984586162
  0
VERTEX
  8
SURFACE
 62
6
  6
CONTINUOUS
 10
112.1877849749
 20
192.4535957828
  0
VERTEX
  8
SURFACE
 62
6
  6
CONTINUOUS
 10
112.0731244717
 20
192.4260672021
  0
VERTEX
  8
SURFACE
 62
6
  6
CONTINUOUS
 10
111.9558761357
 20
192.4168496279
  0
SEQEND
  0
POLYLINE
  8
0
 62
7
  6
CONTINUOUS
 66
1
 70
0
  0
VERTEX
  8
0
 62
7
  6
CONTINUOUS
 10
112.7957910444
 20
193.0168496279
  0
VERTEX
  8
0
 62
7
  6
CONTINUOUS
 10
112.7794738785
 20
192.9087700234
  0
VERTEX
  8
0
 62
7
  6
CONTINUOUS
 10
112.7468068579
 20
192.8027171646
  0
VERTEX
  8
0
 62
7
  6
CONTINUOUS
 10
112.6985867445
 20
192.7026427827
  0
VERTEX
  8
0
 62
7
  6
CONTINUOUS
 10
112.635610236
 20
192.610456606
  0
VERTEX
  8
0
 62
7
  6
CONTINUOUS
 10
112.5585001932
 20
192.5277319961
  0
VERTEX
  8
0
 62
7
  6
CONTINUOUS
 10
112.4698616241
 20
192.4575787689
  0
VERTEX
  8
0
 62
7
  6
CONTINUOUS
 10
112.3726473615
 20
192.4019031283
  0
VERTEX
  8
0
 62
7
  6
CONTINUOUS
 10
112.2672252025
 20
192.3608469305
  0
VERTEX
  8
0
 62
7
  6
CONTINUOUS
 10
112.1566289953
 20
192.3358665208
  0
VERTEX
  8
0
 62
7
  6
CONTINUOUS
 10
112.0451018517
 20
192.3276239118
  0
SEQEND
  0
LINE
  8
0
 62
7
  6
CONTINUOUS
 10
106.5054430135
 20
172.5559261688
 11
107.9505087169
 21
175.7280216154
  0
LINE
  8
0
 62
7
  6
CONTINUOUS
 10
114.7054192559
 20
192.8668496279
 11
114.7054192559
 21
202.6916547515
  0
LINE
  8
0
 62
7
  6
CONTINUOUS
 10
114.5349895243
 20
203.9183663276
 11
114.0099912093
 21
205.7713015572
  0
POLYLINE
  8
0
 62
7
  6
CONTINUOUS
 66
1
 70
0
  0
VERTEX
  8
0
 62
7
  6
CONTINUOUS
 10
38.9620333052
 20
107.8195724702
  0
VERTEX
  8
0
 62
7
  6
CONTINUOUS
 10
38.9576883734
 20
108.1076659866
  0
VERTEX
  8
0
 62
7
  6
CONTINUOUS
 10
38.9446901019
 20
108.3923821065
  0
VERTEX
  8
0
 62
7
  6
CONTINUOUS
 10
38.9231498386
 20
108.6703362056
  0
VERTEX
  8
0
 62
7
  6
CONTINUOUS
 10
38.8932591541
 20
108.9381322626
  0
VERTEX
  8
0
 62
7
  6
CONTINUOUS
 10
38.8552976653
 20
109.192373442
  0
VERTEX
  8
0
 62
7
  6
CONTINUOUS
 10
38.8096432492
 20
109.4296811331
  0
VERTEX
  8
0
 62
7
  6
CONTINUOUS
 10
38.7567814307
 20
109.6467390543
  0
SEQEND
  0
LINE
  8
0
 62
7
  6
CONTINUOUS
 10
38.6054192559
 20
101.9695724702
 11
38.6054192559
 21
105.153806869
  0
LINE
  8
0
 62
7
  6
CONTINUOUS
 10
38.6054192559
 20
110.2853380714
 11
38.6054192559
 21
113.4695724702
  0
LINE
  8
0
 62
7
  6
CONTINUOUS
 10
38.9620333052
 20
107.6195724702
 11
38.9620333052
 21
107.8195724702
  0
LINE
  8
0
 62
7
  6
CONTINUOUS
 10
39.480611575
 20
107.6195724702
 11
39.480611575
 21
107.8195723784
  0
POLYLINE
  8
0
 62
7
  6
CONTINUOUS
 66
1
 70
0
  0
VERTEX
  8
0
 62
7
  6
CONTINUOUS
 10
39.480611575
 20
107.6195724702
  0
VERTEX
  8
0
 62
7
  6
CONTINUOUS
 10
39.4709602428
 20
107.4140459153
  0
VERTEX
  8
0
 62
7
  6
CONTINUOUS
 10
39.436837376
 20
107.1791320721
  0
VERTEX
  8
0
 62
7
  6
CONTINUOUS
 10
39.3751987352
 20
106.928362651
  0
VERTEX
  8
0
 62
7
  6
CONTINUOUS
 10
39.2899100374
 20
106.6752393652
  0
VERTEX
  8
0
 62
7
  6
CONTINUOUS
 10
39.1873114826
 20
106.42595227
  0
VERTEX
  8
0
 62
7
  6
CONTINUOUS
 10
39.0750104392
 20
106.1855526286
  0
VERTEX
  8
0
 62
7
  6
CONTINUOUS
 10
38.9617966208
 20
105.9604253455
  0
VERTEX
  8
0
 62
7
  6
CONTINUOUS
 10
38.8560311241
 20
105.7563860516
  0
VERTEX
  8
0
 62
7
  6
CONTINUOUS
 10
38.7652506716
 20
105.5792362385
  0
VERTEX
  8
0
 62
7
  6
CONTINUOUS
 10
38.6945264863
 20
105.4326933279
  0
VERTEX
  8
0
 62
7
  6
CONTINUOUS
 10
38.6446373673
 20
105.3147856836
  0
VERTEX
  8
0
 62
7
  6
CONTINUOUS
 10
38.6151797977
 20
105.2228276673
  0
VERTEX
  8
0
 62
7
  6
CONTINUOUS
 10
38.6054192559
 20
105.153806869
  0
SEQEND
  0
POLYLINE
  8
0
 62
7
  6
CONTINUOUS
 66
1
 70
0
  0
VERTEX
  8
0
 62
7
  6
CONTINUOUS
 10
38.6072194866
 20
105.1665370392
  0
VERTEX
  8
0
 62
7
  6
CONTINUOUS
 10
38.6121784765
 20
105.221849861
  0
VERTEX
  8
0
 62
7
  6
CONTINUOUS
 10
38.6319981387
 20
105.3237496555
  0
VERTEX
  8
0
 62
7
  6
CONTINUOUS
 10
38.6638495312
 20
105.452672364
  0
VERTEX
  8
0
 62
7
  6
CONTINUOUS
 10
38.7062720303
 20
105.6092708747
  0
VERTEX
  8
0
 62
7
  6
CONTINUOUS
 10
38.7567814307
 20
105.7924058861
  0
SEQEND
  0
POLYLINE
  8
0
 62
7
  6
CONTINUOUS
 66
1
 70
0
  0
VERTEX
  8
0
 62
7
  6
CONTINUOUS
 10
38.7567814307
 20
105.7924058861
  0
VERTEX
  8
0
 62
7
  6
CONTINUOUS
 10
38.8096433584
 20
106.0094643112
  0
VERTEX
  8
0
 62
7
  6
CONTINUOUS
 10
38.8552979275
 20
106.2467730406
  0
VERTEX
  8
0
 62
7
  6
CONTINUOUS
 10
38.8932594719
 20
106.5010151244
  0
VERTEX
  8
0
 62
7
  6
CONTINUOUS
 10
38.9231501109
 20
106.7688116251
  0
VERTEX
  8
0
 62
7
  6
CONTINUOUS
 10
38.9446902708
 20
107.0467655872
  0
VERTEX
  8
0
 62
7
  6
CONTINUOUS
 10
38.9576884292
 20
107.3314807951
  0
VERTEX
  8
0
 62
7
  6
CONTINUOUS
 10
38.9620333052
 20
107.6195724702
  0
SEQEND
  0
POLYLINE
  8
0
 62
7
  6
CONTINUOUS
 66
1
 70
0
  0
VERTEX
  8
0
 62
7
  6
CONTINUOUS
 10
38.7567814307
 20
109.6467390543
  0
VERTEX
  8
0
 62
7
  6
CONTINUOUS
 10
38.7062721774
 20
109.8298735326
  0
VERTEX
  8
0
 62
7
  6
CONTINUOUS
 10
38.6638442342
 20
109.9864927688
  0
VERTEX
  8
0
 62
7
  6
CONTINUOUS
 10
38.6319917337
 20
110.1154236469
  0
VERTEX
  8
0
 62
7
  6
CONTINUOUS
 10
38.6121766094
 20
110.2173073982
  0
VERTEX
  8
0
 62
7
  6
CONTINUOUS
 10
38.6072205708
 20
110.2725935403
  0
SEQEND
  0
POLYLINE
  8
0
 62
7
  6
CONTINUOUS
 66
1
 70
0
  0
VERTEX
  8
0
 62
7
  6
CONTINUOUS
 10
38.6054192559
 20
110.2853380714
  0
VERTEX
  8
0
 62
7
  6
CONTINUOUS
 10
38.6151676056
 20
110.216367261
  0
VERTEX
  8
0
 62
7
  6
CONTINUOUS
 10
38.6445599912
 20
110.124563667
  0
VERTEX
  8
0
 62
7
  6
CONTINUOUS
 10
38.6943060831
 20
110.0069334593
  0
VERTEX
  8
0
 62
7
  6
CONTINUOUS
 10
38.7648475345
 20
109.8607129043
  0
VERTEX
  8
0
 62
7
  6
CONTINUOUS
 10
38.8554938605
 20
109.6837939953
  0
VERTEX
  8
0
 62
7
  6
CONTINUOUS
 10
38.961112787
 20
109.4800494074
  0
VERTEX
  8
0
 62
7
  6
CONTINUOUS
 10
39.074137212
 20
109.2553791885
  0
VERTEX
  8
0
 62
7
  6
CONTINUOUS
 10
39.1862699331
 20
109.0155435103
  0
VERTEX
  8
0
 62
7
  6
CONTINUOUS
 10
39.2887872385
 20
108.7668770903
  0
VERTEX
  8
0
 62
7
  6
CONTINUOUS
 10
39.3741781749
 20
108.514249703
  0
VERTEX
  8
0
 62
7
  6
CONTINUOUS
 10
39.4361585021
 20
108.2634699897
  0
VERTEX
  8
0
 62
7
  6
CONTINUOUS
 10
39.4707386988
 20
108.0274529531
  0
VERTEX
  8
0
 62
7
  6
CONTINUOUS
 10
39.480611575
 20
107.8195722867
  0
SEQEND
  0
POLYLINE
  8
0
 62
7
  6
CONTINUOUS
 66
1
 70
0
  0
VERTEX
  8
0
 62
7
  6
CONTINUOUS
 10
44.9554192559
 20
110.292687764
  0
VERTEX
  8
0
 62
7
  6
CONTINUOUS
 10
44.9621779338
 20
110.2172986603
  0
VERTEX
  8
0
 62
7
  6
CONTINUOUS
 10
44.9820019623
 20
110.1153783544
  0
VERTEX
  8
0
 62
7
  6
CONTINUOUS
 10
45.0138381417
 20
109.986515994
  0
VERTEX
  8
0
 62
7
  6
CONTINUOUS
 10
45.0562319134
 20
109.8300194415
  0
VERTEX
  8
0
 62
7
  6
CONTINUOUS
 10
45.1067814307
 20
109.6467390543
  0
SEQEND
  0
LINE
  8
0
 62
7
  6
CONTINUOUS
 10
44.2380663147
 20
107.6195724702
 11
44.2380663147
 21
107.8195726516
  0
LINE
  8
0
 62
7
  6
CONTINUOUS
 10
44.9554192559
 20
101.9695724702
 11
44.9554192559
 21
105.1464571764
  0
LINE
  8
0
 62
7
  6
CONTINUOUS
 10
44.9554192559
 20
110.292687764
 11
44.9554192559
 21
113.4695724702
  0
LINE
  8
0
 62
7
  6
CONTINUOUS
 10
45.3120333052
 20
107.8195724702
 11
45.3120333052
 21
107.6195724702
  0
POLYLINE
  8
0
 62
7
  6
CONTINUOUS
 66
1
 70
0
  0
VERTEX
  8
0
 62
7
  6
CONTINUOUS
 10
44.2380663147
 20
107.8195726516
  0
VERTEX
  8
0
 62
7
  6
CONTINUOUS
 10
44.2423899296
 20
108.1071997237
  0
VERTEX
  8
0
 62
7
  6
CONTINUOUS
 10
44.2553229008
 20
108.3914390706
  0
VERTEX
  8
0
 62
7
  6
CONTINUOUS
 10
44.2767541654
 20
108.6689438576
  0
VERTEX
  8
0
 62
7
  6
CONTINUOUS
 10
44.3064925264
 20
108.9363315154
  0
VERTEX
  8
0
 62
7
  6
CONTINUOUS
 10
44.3442598393
 20
109.1902253081
  0
VERTEX
  8
0
 62
7
  6
CONTINUOUS
 10
44.3896804738
 20
109.427265801
  0
VERTEX
  8
0
 62
7
  6
CONTINUOUS
 10
44.4422729826
 20
109.6441591866
  0
VERTEX
  8
0
 62
7
  6
CONTINUOUS
 10
44.5014407561
 20
109.8377275822
  0
VERTEX
  8
0
 62
7
  6
CONTINUOUS
 10
44.5664677696
 20
110.004986563
  0
VERTEX
  8
0
 62
7
  6
CONTINUOUS
 10
44.6365193769
 20
110.14323261
  0
VERTEX
  8
0
 62
7
  6
CONTINUOUS
 10
44.7106481814
 20
110.2501339994
  0
VERTEX
  8
0
 62
7
  6
CONTINUOUS
 10
44.7877714147
 20
110.3237968445
  0
SEQEND
  0
POLYLINE
  8
0
 62
7
  6
CONTINUOUS
 66
1
 70
0
  0
VERTEX
  8
0
 62
7
  6
CONTINUOUS
 10
45.3120333052
 20
107.6195724702
  0
VERTEX
  8
0
 62
7
  6
CONTINUOUS
 10
45.3076883734
 20
107.3314789538
  0
VERTEX
  8
0
 62
7
  6
CONTINUOUS
 10
45.2946901019
 20
107.046762834
  0
VERTEX
  8
0
 62
7
  6
CONTINUOUS
 10
45.2731498386
 20
106.7688087348
  0
VERTEX
  8
0
 62
7
  6
CONTINUOUS
 10
45.2432591541
 20
106.5010126778
  0
VERTEX
  8
0
 62
7
  6
CONTINUOUS
 10
45.2052976653
 20
106.2467714984
  0
VERTEX
  8
0
 62
7
  6
CONTINUOUS
 10
45.1596432492
 20
106.0094638073
  0
VERTEX
  8
0
 62
7
  6
CONTINUOUS
 10
45.1067814307
 20
105.7924058861
  0
SEQEND
  0
POLYLINE
  8
0
 62
7
  6
CONTINUOUS
 66
1
 70
0
  0
VERTEX
  8
0
 62
7
  6
CONTINUOUS
 10
45.1067814307
 20
105.7924058861
  0
VERTEX
  8
0
 62
7
  6
CONTINUOUS
 10
45.0562685502
 20
105.6092582635
  0
VERTEX
  8
0
 62
7
  6
CONTINUOUS
 10
45.0138417598
 20
105.452642739
  0
VERTEX
  8
0
 62
7
  6
CONTINUOUS
 10
44.9819910765
 20
105.3237183832
  0
VERTEX
  8
0
 62
7
  6
CONTINUOUS
 10
44.9621766614
 20
105.2218378851
  0
VERTEX
  8
0
 62
7
  6
CONTINUOUS
 10
44.9554192559
 20
105.1464571764
  0
SEQEND
  0
POLYLINE
  8
0
 62
7
  6
CONTINUOUS
 66
1
 70
0
  0
VERTEX
  8
0
 62
7
  6
CONTINUOUS
 10
45.1067814307
 20
109.6467390543
  0
VERTEX
  8
0
 62
7
  6
CONTINUOUS
 10
45.1596433584
 20
109.4296806292
  0
VERTEX
  8
0
 62
7
  6
CONTINUOUS
 10
45.2052979275
 20
109.1923718998
  0
VERTEX
  8
0
 62
7
  6
CONTINUOUS
 10
45.2432594719
 20
108.938129816
  0
VERTEX
  8
0
 62
7
  6
CONTINUOUS
 10
45.2731501109
 20
108.6703333153
  0
VERTEX
  8
0
 62
7
  6
CONTINUOUS
 10
45.2946902708
 20
108.3923793532
  0
VERTEX
  8
0
 62
7
  6
CONTINUOUS
 10
45.3076884292
 20
108.1076641453
  0
VERTEX
  8
0
 62
7
  6
CONTINUOUS
 10
45.3120333052
 20
107.8195724702
  0
SEQEND
  0
POLYLINE
  8
0
 62
7
  6
CONTINUOUS
 66
1
 70
0
  0
VERTEX
  8
0
 62
7
  6
CONTINUOUS
 10
50.6554192559
 20
105.1464571764
  0
VERTEX
  8
0
 62
7
  6
CONTINUOUS
 10
50.6486619024
 20
105.2218375422
  0
VERTEX
  8
0
 62
7
  6
CONTINUOUS
 10
50.6288467781
 20
105.3237212935
  0
VERTEX
  8
0
 62
7
  6
CONTINUOUS
 10
50.5969942776
 20
105.4526521716
  0
VERTEX
  8
0
 62
7
  6
CONTINUOUS
 10
50.5545663344
 20
105.6092714078
  0
VERTEX
  8
0
 62
7
  6
CONTINUOUS
 10
50.5040570811
 20
105.7924058861
  0
SEQEND
  0
POLYLINE
  8
0
 62
7
  6
CONTINUOUS
 66
1
 70
0
  0
VERTEX
  8
0
 62
7
  6
CONTINUOUS
 10
50.2988052067
 20
107.6195724702
  0
VERTEX
  8
0
 62
7
  6
CONTINUOUS
 10
50.3031501384
 20
107.3314789538
  0
VERTEX
  8
0
 62
7
  6
CONTINUOUS
 10
50.3161484099
 20
107.046762834
  0
VERTEX
  8
0
 62
7
  6
CONTINUOUS
 10
50.3376886732
 20
106.7688087348
  0
VERTEX
  8
0
 62
7
  6
CONTINUOUS
 10
50.3675793577
 20
106.5010126778
  0
VERTEX
  8
0
 62
7
  6
CONTINUOUS
 10
50.4055408465
 20
106.2467714984
  0
VERTEX
  8
0
 62
7
  6
CONTINUOUS
 10
50.4511952627
 20
106.0094638073
  0
VERTEX
  8
0
 62
7
  6
CONTINUOUS
 10
50.5040570811
 20
105.7924058861
  0
SEQEND
  0
LINE
  8
0
 62
7
  6
CONTINUOUS
 10
50.2988052067
 20
107.8195724702
 11
50.2988052067
 21
107.6195724702
  0
LINE
  8
0
 62
7
  6
CONTINUOUS
 10
50.6554192559
 20
101.9695724702
 11
50.6554192559
 21
105.1464571764
  0
LINE
  8
0
 62
7
  6
CONTINUOUS
 10
50.6554192559
 20
110.292687764
 11
50.6554192559
 21
113.4695724702
  0
POLYLINE
  8
0
 62
7
  6
CONTINUOUS
 66
1
 70
0
  0
VERTEX
  8
0
 62
7
  6
CONTINUOUS
 10
50.5040570811
 20
109.6467390543
  0
VERTEX
  8
0
 62
7
  6
CONTINUOUS
 10
50.4511951535
 20
109.4296806292
  0
VERTEX
  8
0
 62
7
  6
CONTINUOUS
 10
50.4055405843
 20
109.1923718998
  0
VERTEX
  8
0
 62
7
  6
CONTINUOUS
 10
50.3675790399
 20
108.938129816
  0
VERTEX
  8
0
 62
7
  6
CONTINUOUS
 10
50.337688401
 20
108.6703333153
  0
VERTEX
  8
0
 62
7
  6
CONTINUOUS
 10
50.316148241
 20
108.3923793532
  0
VERTEX
  8
0
 62
7
  6
CONTINUOUS
 10
50.3031500827
 20
108.1076641453
  0
VERTEX
  8
0
 62
7
  6
CONTINUOUS
 10
50.2988052067
 20
107.8195724702
  0
SEQEND
  0
POLYLINE
  8
0
 62
7
  6
CONTINUOUS
 66
1
 70
0
  0
VERTEX
  8
0
 62
7
  6
CONTINUOUS
 10
50.5040570811
 20
109.6467390543
  0
VERTEX
  8
0
 62
7
  6
CONTINUOUS
 10
50.5545664815
 20
109.8298740657
  0
VERTEX
  8
0
 62
7
  6
CONTINUOUS
 10
50.5969889807
 20
109.9864725765
  0
VERTEX
  8
0
 62
7
  6
CONTINUOUS
 10
50.6288403731
 20
110.1153952849
  0
VERTEX
  8
0
 62
7
  6
CONTINUOUS
 10
50.6486600353
 20
110.2172950794
  0
VERTEX
  8
0
 62
7
  6
CONTINUOUS
 10
50.6554192559
 20
110.292687764
  0
SEQEND
  0
POLYLINE
  8
0
 62
7
  6
CONTINUOUS
 66
1
 70
0
  0
VERTEX
  8
0
 62
7
  6
CONTINUOUS
 10
51.3727721971
 20
107.8195726516
  0
VERTEX
  8
0
 62
7
  6
CONTINUOUS
 10
51.3684485822
 20
108.1071997237
  0
VERTEX
  8
0
 62
7
  6
CONTINUOUS
 10
51.355515611
 20
108.3914390706
  0
VERTEX
  8
0
 62
7
  6
CONTINUOUS
 10
51.3340843465
 20
108.6689438576
  0
VERTEX
  8
0
 62
7
  6
CONTINUOUS
 10
51.3043459854
 20
108.9363315154
  0
VERTEX
  8
0
 62
7
  6
CONTINUOUS
 10
51.2665786725
 20
109.1902253081
  0
VERTEX
  8
0
 62
7
  6
CONTINUOUS
 10
51.2211580381
 20
109.427265801
  0
VERTEX
  8
0
 62
7
  6
CONTINUOUS
 10
51.1685655292
 20
109.6441591866
  0
VERTEX
  8
0
 62
7
  6
CONTINUOUS
 10
51.1093977557
 20
109.8377275822
  0
VERTEX
  8
0
 62
7
  6
CONTINUOUS
 10
51.0443707423
 20
110.004986563
  0
VERTEX
  8
0
 62
7
  6
CONTINUOUS
 10
50.974319135
 20
110.14323261
  0
VERTEX
  8
0
 62
7
  6
CONTINUOUS
 10
50.9001903304
 20
110.2501339994
  0
VERTEX
  8
0
 62
7
  6
CONTINUOUS
 10
50.8230670971
 20
110.3237968445
  0
SEQEND
  0
LINE
  8
0
 62
7
  6
CONTINUOUS
 10
51.3727721971
 20
107.6195724702
 11
51.3727721971
 21
107.8195726516
  0
POLYLINE
  8
0
 62
7
  6
CONTINUOUS
 66
1
 70
0
  0
VERTEX
  8
0
 62
7
  6
CONTINUOUS
 10
44.7877714147
 20
105.1153480959
  0
VERTEX
  8
0
 62
7
  6
CONTINUOUS
 10
44.7106484964
 20
105.1890105647
  0
VERTEX
  8
0
 62
7
  6
CONTINUOUS
 10
44.6365197368
 20
105.295911718
  0
VERTEX
  8
0
 62
7
  6
CONTINUOUS
 10
44.5664679749
 20
105.4341579129
  0
VERTEX
  8
0
 62
7
  6
CONTINUOUS
 10
44.5014406925
 20
105.6014175432
  0
VERTEX
  8
0
 62
7
  6
CONTINUOUS
 10
44.4422726254
 20
105.7949870666
  0
VERTEX
  8
0
 62
7
  6
CONTINUOUS
 10
44.3896798758
 20
106.0118819103
  0
VERTEX
  8
0
 62
7
  6
CONTINUOUS
 10
44.3442591111
 20
106.2489239327
  0
VERTEX
  8
0
 62
7
  6
CONTINUOUS
 10
44.3064918034
 20
106.5028190116
  0
VERTEX
  8
0
 62
7
  6
CONTINUOUS
 10
44.2767535868
 20
106.7702072476
  0
VERTEX
  8
0
 62
7
  6
CONTINUOUS
 10
44.255322552
 20
107.047711575
  0
VERTEX
  8
0
 62
7
  6
CONTINUOUS
 10
44.2423898157
 20
107.331948992
  0
VERTEX
  8
0
 62
7
  6
CONTINUOUS
 10
44.2380663147
 20
107.6195724702
  0
SEQEND
  0
POLYLINE
  8
0
 62
7
  6
CONTINUOUS
 66
1
 70
0
  0
VERTEX
  8
0
 62
7
  6
CONTINUOUS
 10
57.6554192559
 20
110.292687764
  0
VERTEX
  8
0
 62
7
  6
CONTINUOUS
 10
57.6621779338
 20
110.2172986603
  0
VERTEX
  8
0
 62
7
  6
CONTINUOUS
 10
57.6820019623
 20
110.1153783544
  0
VERTEX
  8
0
 62
7
  6
CONTINUOUS
 10
57.7138381417
 20
109.986515994
  0
VERTEX
  8
0
 62
7
  6
CONTINUOUS
 10
57.7562319134
 20
109.8300194415
  0
VERTEX
  8
0
 62
7
  6
CONTINUOUS
 10
57.8067814307
 20
109.6467390543
  0
SEQEND
  0
LINE
  8
0
 62
7
  6
CONTINUOUS
 10
56.9380663147
 20
107.6195724702
 11
56.9380663147
 21
107.8195726516
  0
LINE
  8
0
 62
7
  6
CONTINUOUS
 10
57.6554192559
 20
101.9695724702
 11
57.6554192559
 21
105.1464571764
  0
LINE
  8
0
 62
7
  6
CONTINUOUS
 10
57.6554192559
 20
110.292687764
 11
57.6554192559
 21
113.4695724702
  0
LINE
  8
0
 62
7
  6
CONTINUOUS
 10
58.0120333052
 20
107.8195724702
 11
58.0120333052
 21
107.6195724702
  0
POLYLINE
  8
0
 62
7
  6
CONTINUOUS
 66
1
 70
0
  0
VERTEX
  8
0
 62
7
  6
CONTINUOUS
 10
56.9380663147
 20
107.8195726516
  0
VERTEX
  8
0
 62
7
  6
CONTINUOUS
 10
56.9423899296
 20
108.1071997237
  0
VERTEX
  8
0
 62
7
  6
CONTINUOUS
 10
56.9553229008
 20
108.3914390706
  0
VERTEX
  8
0
 62
7
  6
CONTINUOUS
 10
56.9767541654
 20
108.6689438576
  0
VERTEX
  8
0
 62
7
  6
CONTINUOUS
 10
57.0064925264
 20
108.9363315154
  0
VERTEX
  8
0
 62
7
  6
CONTINUOUS
 10
57.0442598393
 20
109.1902253081
  0
VERTEX
  8
0
 62
7
  6
CONTINUOUS
 10
57.0896804738
 20
109.427265801
  0
VERTEX
  8
0
 62
7
  6
CONTINUOUS
 10
57.1422729826
 20
109.6441591866
  0
VERTEX
  8
0
 62
7
  6
CONTINUOUS
 10
57.2014407561
 20
109.8377275822
  0
VERTEX
  8
0
 62
7
  6
CONTINUOUS
 10
57.2664677696
 20
110.004986563
  0
VERTEX
  8
0
 62
7
  6
CONTINUOUS
 10
57.3365193769
 20
110.14323261
  0
VERTEX
  8
0
 62
7
  6
CONTINUOUS
 10
57.4106481814
 20
110.2501339994
  0
VERTEX
  8
0
 62
7
  6
CONTINUOUS
 10
57.4877714147
 20
110.3237968445
  0
SEQEND
  0
POLYLINE
  8
0
 62
7
  6
CONTINUOUS
 66
1
 70
0
  0
VERTEX
  8
0
 62
7
  6
CONTINUOUS
 10
58.0120333052
 20
107.6195724702
  0
VERTEX
  8
0
 62
7
  6
CONTINUOUS
 10
58.0076883734
 20
107.3314789538
  0
VERTEX
  8
0
 62
7
  6
CONTINUOUS
 10
57.9946901019
 20
107.046762834
  0
VERTEX
  8
0
 62
7
  6
CONTINUOUS
 10
57.9731498386
 20
106.7688087348
  0
VERTEX
  8
0
 62
7
  6
CONTINUOUS
 10
57.9432591541
 20
106.5010126778
  0
VERTEX
  8
0
 62
7
  6
CONTINUOUS
 10
57.9052976653
 20
106.2467714984
  0
VERTEX
  8
0
 62
7
  6
CONTINUOUS
 10
57.8596432492
 20
106.0094638073
  0
VERTEX
  8
0
 62
7
  6
CONTINUOUS
 10
57.8067814307
 20
105.7924058861
  0
SEQEND
  0
POLYLINE
  8
0
 62
7
  6
CONTINUOUS
 66
1
 70
0
  0
VERTEX
  8
0
 62
7
  6
CONTINUOUS
 10
57.8067814307
 20
105.7924058861
  0
VERTEX
  8
0
 62
7
  6
CONTINUOUS
 10
57.7562685502
 20
105.6092582635
  0
VERTEX
  8
0
 62
7
  6
CONTINUOUS
 10
57.7138417598
 20
105.452642739
  0
VERTEX
  8
0
 62
7
  6
CONTINUOUS
 10
57.6819910765
 20
105.3237183832
  0
VERTEX
  8
0
 62
7
  6
CONTINUOUS
 10
57.6621766614
 20
105.2218378851
  0
VERTEX
  8
0
 62
7
  6
CONTINUOUS
 10
57.6554192559
 20
105.1464571764
  0
SEQEND
  0
POLYLINE
  8
0
 62
7
  6
CONTINUOUS
 66
1
 70
0
  0
VERTEX
  8
0
 62
7
  6
CONTINUOUS
 10
44.7877714147
 20
110.3237968445
  0
VERTEX
  8
0
 62
7
  6
CONTINUOUS
 10
44.8275703278
 20
110.3493432869
  0
VERTEX
  8
0
 62
7
  6
CONTINUOUS
 10
44.8618415765
 20
110.3645524127
  0
VERTEX
  8
0
 62
7
  6
CONTINUOUS
 10
44.8905349613
 20
110.3695724702
  0
SEQEND
  0
POLYLINE
  8
0
 62
7
  6
CONTINUOUS
 66
1
 70
0
  0
VERTEX
  8
0
 62
7
  6
CONTINUOUS
 10
57.8067814307
 20
109.6467390543
  0
VERTEX
  8
0
 62
7
  6
CONTINUOUS
 10
57.8596433584
 20
109.4296806292
  0
VERTEX
  8
0
 62
7
  6
CONTINUOUS
 10
57.9052979275
 20
109.1923718998
  0
VERTEX
  8
0
 62
7
  6
CONTINUOUS
 10
57.9432594719
 20
108.938129816
  0
VERTEX
  8
0
 62
7
  6
CONTINUOUS
 10
57.9731501109
 20
108.6703333153
  0
VERTEX
  8
0
 62
7
  6
CONTINUOUS
 10
57.9946902708
 20
108.3923793532
  0
VERTEX
  8
0
 62
7
  6
CONTINUOUS
 10
58.0076884292
 20
108.1076641453
  0
VERTEX
  8
0
 62
7
  6
CONTINUOUS
 10
58.0120333052
 20
107.8195724702
  0
SEQEND
  0
POLYLINE
  8
0
 62
7
  6
CONTINUOUS
 66
1
 70
0
  0
VERTEX
  8
0
 62
7
  6
CONTINUOUS
 10
50.8230670971
 20
105.1153480959
  0
VERTEX
  8
0
 62
7
  6
CONTINUOUS
 10
50.9001900154
 20
105.1890105647
  0
VERTEX
  8
0
 62
7
  6
CONTINUOUS
 10
50.974318775
 20
105.295911718
  0
VERTEX
  8
0
 62
7
  6
CONTINUOUS
 10
51.044370537
 20
105.4341579129
  0
VERTEX
  8
0
 62
7
  6
CONTINUOUS
 10
51.1093978194
 20
105.6014175432
  0
VERTEX
  8
0
 62
7
  6
CONTINUOUS
 10
51.1685658865
 20
105.7949870666
  0
VERTEX
  8
0
 62
7
  6
CONTINUOUS
 10
51.221158636
 20
106.0118819103
  0
VERTEX
  8
0
 62
7
  6
CONTINUOUS
 10
51.2665794008
 20
106.2489239327
  0
VERTEX
  8
0
 62
7
  6
CONTINUOUS
 10
51.3043467085
 20
106.5028190116
  0
VERTEX
  8
0
 62
7
  6
CONTINUOUS
 10
51.3340849251
 20
106.7702072476
  0
VERTEX
  8
0
 62
7
  6
CONTINUOUS
 10
51.3555159598
 20
107.047711575
  0
VERTEX
  8
0
 62
7
  6
CONTINUOUS
 10
51.3684486961
 20
107.331948992
  0
VERTEX
  8
0
 62
7
  6
CONTINUOUS
 10
51.3727721971
 20
107.6195724702
  0
SEQEND
  0
POLYLINE
  8
0
 62
7
  6
CONTINUOUS
 66
1
 70
0
  0
VERTEX
  8
0
 62
7
  6
CONTINUOUS
 10
57.4877714147
 20
105.1153480959
  0
VERTEX
  8
0
 62
7
  6
CONTINUOUS
 10
57.4106484964
 20
105.1890105647
  0
VERTEX
  8
0
 62
7
  6
CONTINUOUS
 10
57.3365197368
 20
105.295911718
  0
VERTEX
  8
0
 62
7
  6
CONTINUOUS
 10
57.2664679749
 20
105.4341579129
  0
VERTEX
  8
0
 62
7
  6
CONTINUOUS
 10
57.2014406925
 20
105.6014175432
  0
VERTEX
  8
0
 62
7
  6
CONTINUOUS
 10
57.1422726254
 20
105.7949870666
  0
VERTEX
  8
0
 62
7
  6
CONTINUOUS
 10
57.0896798758
 20
106.0118819103
  0
VERTEX
  8
0
 62
7
  6
CONTINUOUS
 10
57.0442591111
 20
106.2489239327
  0
VERTEX
  8
0
 62
7
  6
CONTINUOUS
 10
57.0064918034
 20
106.5028190116
  0
VERTEX
  8
0
 62
7
  6
CONTINUOUS
 10
56.9767535868
 20
106.7702072476
  0
VERTEX
  8
0
 62
7
  6
CONTINUOUS
 10
56.955322552
 20
107.047711575
  0
VERTEX
  8
0
 62
7
  6
CONTINUOUS
 10
56.9423898157
 20
107.331948992
  0
VERTEX
  8
0
 62
7
  6
CONTINUOUS
 10
56.9380663147
 20
107.6195724702
  0
SEQEND
  0
POLYLINE
  8
0
 62
7
  6
CONTINUOUS
 66
1
 70
0
  0
VERTEX
  8
0
 62
7
  6
CONTINUOUS
 10
63.3554192559
 20
105.1464571764
  0
VERTEX
  8
0
 62
7
  6
CONTINUOUS
 10
63.3486619024
 20
105.2218375422
  0
VERTEX
  8
0
 62
7
  6
CONTINUOUS
 10
63.3288467781
 20
105.3237212935
  0
VERTEX
  8
0
 62
7
  6
CONTINUOUS
 10
63.2969942776
 20
105.4526521716
  0
VERTEX
  8
0
 62
7
  6
CONTINUOUS
 10
63.2545663344
 20
105.6092714078
  0
VERTEX
  8
0
 62
7
  6
CONTINUOUS
 10
63.2040570811
 20
105.7924058861
  0
SEQEND
  0
POLYLINE
  8
0
 62
7
  6
CONTINUOUS
 66
1
 70
0
  0
VERTEX
  8
0
 62
7
  6
CONTINUOUS
 10
62.9988052067
 20
107.6195724702
  0
VERTEX
  8
0
 62
7
  6
CONTINUOUS
 10
63.0031501384
 20
107.3314789538
  0
VERTEX
  8
0
 62
7
  6
CONTINUOUS
 10
63.0161484099
 20
107.046762834
  0
VERTEX
  8
0
 62
7
  6
CONTINUOUS
 10
63.0376886732
 20
106.7688087348
  0
VERTEX
  8
0
 62
7
  6
CONTINUOUS
 10
63.0675793577
 20
106.5010126778
  0
VERTEX
  8
0
 62
7
  6
CONTINUOUS
 10
63.1055408465
 20
106.2467714984
  0
VERTEX
  8
0
 62
7
  6
CONTINUOUS
 10
63.1511952627
 20
106.0094638073
  0
VERTEX
  8
0
 62
7
  6
CONTINUOUS
 10
63.2040570811
 20
105.7924058861
  0
SEQEND
  0
POLYLINE
  8
0
 62
7
  6
CONTINUOUS
 66
1
 70
0
  0
VERTEX
  8
0
 62
7
  6
CONTINUOUS
 10
64.0727721971
 20
107.8195726516
  0
VERTEX
  8
0
 62
7
  6
CONTINUOUS
 10
64.0684485822
 20
108.1071997237
  0
VERTEX
  8
0
 62
7
  6
CONTINUOUS
 10
64.055515611
 20
108.3914390706
  0
VERTEX
  8
0
 62
7
  6
CONTINUOUS
 10
64.0340843465
 20
108.6689438576
  0
VERTEX
  8
0
 62
7
  6
CONTINUOUS
 10
64.0043459854
 20
108.9363315154
  0
VERTEX
  8
0
 62
7
  6
CONTINUOUS
 10
63.9665786725
 20
109.1902253081
  0
VERTEX
  8
0
 62
7
  6
CONTINUOUS
 10
63.9211580381
 20
109.427265801
  0
VERTEX
  8
0
 62
7
  6
CONTINUOUS
 10
63.8685655292
 20
109.6441591866
  0
VERTEX
  8
0
 62
7
  6
CONTINUOUS
 10
63.8093977557
 20
109.8377275822
  0
VERTEX
  8
0
 62
7
  6
CONTINUOUS
 10
63.7443707423
 20
110.004986563
  0
VERTEX
  8
0
 62
7
  6
CONTINUOUS
 10
63.674319135
 20
110.14323261
  0
VERTEX
  8
0
 62
7
  6
CONTINUOUS
 10
63.6001903304
 20
110.2501339994
  0
VERTEX
  8
0
 62
7
  6
CONTINUOUS
 10
63.5230670971
 20
110.3237968445
  0
SEQEND
  0
LINE
  8
0
 62
7
  6
CONTINUOUS
 10
62.9988052067
 20
107.8195724702
 11
62.9988052067
 21
107.6195724702
  0
LINE
  8
0
 62
7
  6
CONTINUOUS
 10
63.3554192559
 20
101.9695724702
 11
63.3554192559
 21
105.1464571764
  0
LINE
  8
0
 62
7
  6
CONTINUOUS
 10
63.3554192559
 20
110.292687764
 11
63.3554192559
 21
113.4695724702
  0
LINE
  8
0
 62
7
  6
CONTINUOUS
 10
64.0727721971
 20
107.6195724702
 11
64.0727721971
 21
107.8195726516
  0
POLYLINE
  8
0
 62
7
  6
CONTINUOUS
 66
1
 70
0
  0
VERTEX
  8
0
 62
7
  6
CONTINUOUS
 10
63.2040570811
 20
109.6467390543
  0
VERTEX
  8
0
 62
7
  6
CONTINUOUS
 10
63.1511951535
 20
109.4296806292
  0
VERTEX
  8
0
 62
7
  6
CONTINUOUS
 10
63.1055405843
 20
109.1923718998
  0
VERTEX
  8
0
 62
7
  6
CONTINUOUS
 10
63.0675790399
 20
108.938129816
  0
VERTEX
  8
0
 62
7
  6
CONTINUOUS
 10
63.037688401
 20
108.6703333153
  0
VERTEX
  8
0
 62
7
  6
CONTINUOUS
 10
63.016148241
 20
108.3923793532
  0
VERTEX
  8
0
 62
7
  6
CONTINUOUS
 10
63.0031500827
 20
108.1076641453
  0
VERTEX
  8
0
 62
7
  6
CONTINUOUS
 10
62.9988052067
 20
107.8195724702
  0
SEQEND
  0
POLYLINE
  8
0
 62
7
  6
CONTINUOUS
 66
1
 70
0
  0
VERTEX
  8
0
 62
7
  6
CONTINUOUS
 10
63.2040570811
 20
109.6467390543
  0
VERTEX
  8
0
 62
7
  6
CONTINUOUS
 10
63.2545664815
 20
109.8298740657
  0
VERTEX
  8
0
 62
7
  6
CONTINUOUS
 10
63.2969889807
 20
109.9864725765
  0
VERTEX
  8
0
 62
7
  6
CONTINUOUS
 10
63.3288403731
 20
110.1153952849
  0
VERTEX
  8
0
 62
7
  6
CONTINUOUS
 10
63.3486600353
 20
110.2172950794
  0
VERTEX
  8
0
 62
7
  6
CONTINUOUS
 10
63.3554192559
 20
110.292687764
  0
SEQEND
  0
POLYLINE
  8
0
 62
7
  6
CONTINUOUS
 66
1
 70
0
  0
VERTEX
  8
0
 62
7
  6
CONTINUOUS
 10
57.4877714147
 20
110.3237968445
  0
VERTEX
  8
0
 62
7
  6
CONTINUOUS
 10
57.5275703278
 20
110.3493432869
  0
VERTEX
  8
0
 62
7
  6
CONTINUOUS
 10
57.5618415765
 20
110.3645524127
  0
VERTEX
  8
0
 62
7
  6
CONTINUOUS
 10
57.5905349613
 20
110.3695724702
  0
SEQEND
  0
POLYLINE
  8
0
 62
7
  6
CONTINUOUS
 66
1
 70
0
  0
VERTEX
  8
0
 62
7
  6
CONTINUOUS
 10
50.8230670971
 20
105.1153480959
  0
VERTEX
  8
0
 62
7
  6
CONTINUOUS
 10
50.7832641553
 20
105.0897994396
  0
VERTEX
  8
0
 62
7
  6
CONTINUOUS
 10
50.748995129
 20
105.0745919493
  0
VERTEX
  8
0
 62
7
  6
CONTINUOUS
 10
50.7203035505
 20
105.0695724702
  0
SEQEND
  0
POLYLINE
  8
0
 62
7
  6
CONTINUOUS
 66
1
 70
0
  0
VERTEX
  8
0
 62
7
  6
CONTINUOUS
 10
44.8905349613
 20
105.0695724702
  0
VERTEX
  8
0
 62
7
  6
CONTINUOUS
 10
44.8618439402
 20
105.0745917708
  0
VERTEX
  8
0
 62
7
  6
CONTINUOUS
 10
44.8275746656
 20
105.0897992698
  0
VERTEX
  8
0
 62
7
  6
CONTINUOUS
 10
44.7877714147
 20
105.1153480959
  0
SEQEND
  0
POLYLINE
  8
0
 62
7
  6
CONTINUOUS
 66
1
 70
0
  0
VERTEX
  8
0
 62
7
  6
CONTINUOUS
 10
70.3554192559
 20
110.292687764
  0
VERTEX
  8
0
 62
7
  6
CONTINUOUS
 10
70.3621779338
 20
110.2172986603
  0
VERTEX
  8
0
 62
7
  6
CONTINUOUS
 10
70.3820019623
 20
110.1153783544
  0
VERTEX
  8
0
 62
7
  6
CONTINUOUS
 10
70.4138381417
 20
109.986515994
  0
VERTEX
  8
0
 62
7
  6
CONTINUOUS
 10
70.4562319134
 20
109.8300194415
  0
VERTEX
  8
0
 62
7
  6
CONTINUOUS
 10
70.5067814307
 20
109.6467390543
  0
SEQEND
  0
LINE
  8
0
 62
7
  6
CONTINUOUS
 10
69.6380663147
 20
107.6195724702
 11
69.6380663147
 21
107.8195726516
  0
LINE
  8
0
 62
7
  6
CONTINUOUS
 10
70.3554192559
 20
101.9695724702
 11
70.3554192559
 21
105.1464571764
  0
LINE
  8
0
 62
7
  6
CONTINUOUS
 10
70.3554192559
 20
110.292687764
 11
70.3554192559
 21
113.4695724702
  0
LINE
  8
0
 62
7
  6
CONTINUOUS
 10
70.7120333052
 20
107.8195724702
 11
70.7120333052
 21
107.6195724702
  0
POLYLINE
  8
0
 62
7
  6
CONTINUOUS
 66
1
 70
0
  0
VERTEX
  8
0
 62
7
  6
CONTINUOUS
 10
69.6380663147
 20
107.8195726516
  0
VERTEX
  8
0
 62
7
  6
CONTINUOUS
 10
69.6423899296
 20
108.1071997237
  0
VERTEX
  8
0
 62
7
  6
CONTINUOUS
 10
69.6553229008
 20
108.3914390706
  0
VERTEX
  8
0
 62
7
  6
CONTINUOUS
 10
69.6767541654
 20
108.6689438576
  0
VERTEX
  8
0
 62
7
  6
CONTINUOUS
 10
69.7064925264
 20
108.9363315154
  0
VERTEX
  8
0
 62
7
  6
CONTINUOUS
 10
69.7442598393
 20
109.1902253081
  0
VERTEX
  8
0
 62
7
  6
CONTINUOUS
 10
69.7896804738
 20
109.427265801
  0
VERTEX
  8
0
 62
7
  6
CONTINUOUS
 10
69.8422729826
 20
109.6441591866
  0
VERTEX
  8
0
 62
7
  6
CONTINUOUS
 10
69.9014407561
 20
109.8377275822
  0
VERTEX
  8
0
 62
7
  6
CONTINUOUS
 10
69.9664677696
 20
110.004986563
  0
VERTEX
  8
0
 62
7
  6
CONTINUOUS
 10
70.0365193769
 20
110.14323261
  0
VERTEX
  8
0
 62
7
  6
CONTINUOUS
 10
70.1106481814
 20
110.2501339994
  0
VERTEX
  8
0
 62
7
  6
CONTINUOUS
 10
70.1877714147
 20
110.3237968445
  0
SEQEND
  0
POLYLINE
  8
0
 62
7
  6
CONTINUOUS
 66
1
 70
0
  0
VERTEX
  8
0
 62
7
  6
CONTINUOUS
 10
70.7120333052
 20
107.6195724702
  0
VERTEX
  8
0
 62
7
  6
CONTINUOUS
 10
70.7076883734
 20
107.3314789538
  0
VERTEX
  8
0
 62
7
  6
CONTINUOUS
 10
70.6946901019
 20
107.046762834
  0
VERTEX
  8
0
 62
7
  6
CONTINUOUS
 10
70.6731498386
 20
106.7688087348
  0
VERTEX
  8
0
 62
7
  6
CONTINUOUS
 10
70.6432591541
 20
106.5010126778
  0
VERTEX
  8
0
 62
7
  6
CONTINUOUS
 10
70.6052976653
 20
106.2467714984
  0
VERTEX
  8
0
 62
7
  6
CONTINUOUS
 10
70.5596432492
 20
106.0094638073
  0
VERTEX
  8
0
 62
7
  6
CONTINUOUS
 10
70.5067814307
 20
105.7924058861
  0
SEQEND
  0
POLYLINE
  8
0
 62
7
  6
CONTINUOUS
 66
1
 70
0
  0
VERTEX
  8
0
 62
7
  6
CONTINUOUS
 10
70.5067814307
 20
105.7924058861
  0
VERTEX
  8
0
 62
7
  6
CONTINUOUS
 10
70.4562685502
 20
105.6092582635
  0
VERTEX
  8
0
 62
7
  6
CONTINUOUS
 10
70.4138417598
 20
105.452642739
  0
VERTEX
  8
0
 62
7
  6
CONTINUOUS
 10
70.3819910765
 20
105.3237183832
  0
VERTEX
  8
0
 62
7
  6
CONTINUOUS
 10
70.3621766614
 20
105.2218378851
  0
VERTEX
  8
0
 62
7
  6
CONTINUOUS
 10
70.3554192559
 20
105.1464571764
  0
SEQEND
  0
POLYLINE
  8
0
 62
7
  6
CONTINUOUS
 66
1
 70
0
  0
VERTEX
  8
0
 62
7
  6
CONTINUOUS
 10
63.5230670971
 20
105.1153480959
  0
VERTEX
  8
0
 62
7
  6
CONTINUOUS
 10
63.6001900154
 20
105.1890105647
  0
VERTEX
  8
0
 62
7
  6
CONTINUOUS
 10
63.674318775
 20
105.295911718
  0
VERTEX
  8
0
 62
7
  6
CONTINUOUS
 10
63.744370537
 20
105.4341579129
  0
VERTEX
  8
0
 62
7
  6
CONTINUOUS
 10
63.8093978194
 20
105.6014175432
  0
VERTEX
  8
0
 62
7
  6
CONTINUOUS
 10
63.8685658865
 20
105.7949870666
  0
VERTEX
  8
0
 62
7
  6
CONTINUOUS
 10
63.921158636
 20
106.0118819103
  0
VERTEX
  8
0
 62
7
  6
CONTINUOUS
 10
63.9665794008
 20
106.2489239327
  0
VERTEX
  8
0
 62
7
  6
CONTINUOUS
 10
64.0043467085
 20
106.5028190116
  0
VERTEX
  8
0
 62
7
  6
CONTINUOUS
 10
64.0340849251
 20
106.7702072476
  0
VERTEX
  8
0
 62
7
  6
CONTINUOUS
 10
64.0555159598
 20
107.047711575
  0
VERTEX
  8
0
 62
7
  6
CONTINUOUS
 10
64.0684486961
 20
107.331948992
  0
VERTEX
  8
0
 62
7
  6
CONTINUOUS
 10
64.0727721971
 20
107.6195724702
  0
SEQEND
  0
POLYLINE
  8
0
 62
7
  6
CONTINUOUS
 66
1
 70
0
  0
VERTEX
  8
0
 62
7
  6
CONTINUOUS
 10
70.1877714147
 20
110.3237968445
  0
VERTEX
  8
0
 62
7
  6
CONTINUOUS
 10
70.2275703278
 20
110.3493432869
  0
VERTEX
  8
0
 62
7
  6
CONTINUOUS
 10
70.2618415765
 20
110.3645524127
  0
VERTEX
  8
0
 62
7
  6
CONTINUOUS
 10
70.2905349613
 20
110.3695724702
  0
SEQEND
  0
POLYLINE
  8
0
 62
7
  6
CONTINUOUS
 66
1
 70
0
  0
VERTEX
  8
0
 62
7
  6
CONTINUOUS
 10
63.5230670971
 20
105.1153480959
  0
VERTEX
  8
0
 62
7
  6
CONTINUOUS
 10
63.4832641553
 20
105.0897994396
  0
VERTEX
  8
0
 62
7
  6
CONTINUOUS
 10
63.448995129
 20
105.0745919493
  0
VERTEX
  8
0
 62
7
  6
CONTINUOUS
 10
63.4203035505
 20
105.0695724702
  0
SEQEND
  0
LINE
  8
0
 62
7
  6
CONTINUOUS
 10
39.3554192559
 20
101.2195724702
 11
113.9554192559
 21
101.2195724702
  0
LINE
  8
0
 62
7
  6
CONTINUOUS
 10
111.2725722872
 20
101.7727783093
 11
112.138266297
 21
101.7727783093
  0
LINE
  8
SURFACE
 62
6
  6
CONTINUOUS
 10
101.2054192559
 20
102.4195724702
 11
95.9054191994
 21
102.4195724702
  0
LINE
  8
0
 62
7
  6
CONTINUOUS
 10
102.3554192559
 20
102.4195724702
 11
107.9554192559
 21
102.4195724702
  0
LINE
  8
SURFACE
 62
6
  6
CONTINUOUS
 10
102.3554192559
 20
102.4195724702
 11
107.9554191584
 21
102.4195724702
  0
LINE
  8
0
 62
7
  6
CONTINUOUS
 10
100.8554192559
 20
102.8195724702
 11
96.3554192559
 21
102.8195724702
  0
POLYLINE
  8
0
 62
7
  6
CONTINUOUS
 66
1
 70
0
  0
VERTEX
  8
0
 62
7
  6
CONTINUOUS
 10
112.1382662974
 20
101.7727804894
  0
VERTEX
  8
0
 62
7
  6
CONTINUOUS
 10
112.2374597488
 20
101.7699086131
  0
VERTEX
  8
0
 62
7
  6
CONTINUOUS
 10
112.3566886633
 20
101.7589286574
  0
VERTEX
  8
0
 62
7
  6
CONTINUOUS
 10
112.4647710227
 20
101.7419903611
  0
VERTEX
  8
0
 62
7
  6
CONTINUOUS
 10
112.5616751841
 20
101.7212586713
  0
VERTEX
  8
0
 62
7
  6
CONTINUOUS
 10
112.6479926171
 20
101.6984263556
  0
VERTEX
  8
0
 62
7
  6
CONTINUOUS
 10
112.7250419797
 20
101.6745767315
  0
VERTEX
  8
0
 62
7
  6
CONTINUOUS
 10
112.7938899098
 20
101.6504675892
  0
VERTEX
  8
0
 62
7
  6
CONTINUOUS
 10
112.8553156339
 20
101.6266539889
  0
VERTEX
  8
0
 62
7
  6
CONTINUOUS
 10
112.9100403013
 20
101.6035227688
  0
VERTEX
  8
0
 62
7
  6
CONTINUOUS
 10
112.9585133112
 20
101.5813994066
  0
VERTEX
  8
0
 62
7
  6
CONTINUOUS
 10
113.0011268124
 20
101.5605447177
  0
VERTEX
  8
0
 62
7
  6
CONTINUOUS
 10
113.0379083441
 20
101.5413150618
  0
VERTEX
  8
0
 62
7
  6
CONTINUOUS
 10
113.0688855816
 20
101.5240404288
  0
VERTEX
  8
0
 62
7
  6
CONTINUOUS
 10
113.0936800834
 20
101.5092815892
  0
VERTEX
  8
0
 62
7
  6
CONTINUOUS
 10
113.1115261164
 20
101.4979058423
  0
VERTEX
  8
0
 62
7
  6
CONTINUOUS
 10
113.1214886771
 20
101.4910768265
  0
VERTEX
  8
0
 62
7
  6
CONTINUOUS
 10
113.1230300518
 20
101.4899558015
  0
SEQEND
  0
POLYLINE
  8
0
 62
7
  6
CONTINUOUS
 66
1
 70
0
  0
VERTEX
  8
0
 62
7
  6
CONTINUOUS
 10
57.5905349613
 20
105.0695724702
  0
VERTEX
  8
0
 62
7
  6
CONTINUOUS
 10
57.5618439402
 20
105.0745917708
  0
VERTEX
  8
0
 62
7
  6
CONTINUOUS
 10
57.5275746656
 20
105.0897992698
  0
VERTEX
  8
0
 62
7
  6
CONTINUOUS
 10
57.4877714147
 20
105.1153480959
  0
SEQEND
  0
POLYLINE
  8
0
 62
7
  6
CONTINUOUS
 66
1
 70
0
  0
VERTEX
  8
0
 62
7
  6
CONTINUOUS
 10
70.1877714147
 20
105.1153480959
  0
VERTEX
  8
0
 62
7
  6
CONTINUOUS
 10
70.1106484964
 20
105.1890105647
  0
VERTEX
  8
0
 62
7
  6
CONTINUOUS
 10
70.0365197368
 20
105.295911718
  0
VERTEX
  8
0
 62
7
  6
CONTINUOUS
 10
69.9664679749
 20
105.4341579129
  0
VERTEX
  8
0
 62
7
  6
CONTINUOUS
 10
69.9014406925
 20
105.6014175432
  0
VERTEX
  8
0
 62
7
  6
CONTINUOUS
 10
69.8422726254
 20
105.7949870666
  0
VERTEX
  8
0
 62
7
  6
CONTINUOUS
 10
69.7896798758
 20
106.0118819103
  0
VERTEX
  8
0
 62
7
  6
CONTINUOUS
 10
69.7442591111
 20
106.2489239327
  0
VERTEX
  8
0
 62
7
  6
CONTINUOUS
 10
69.7064918034
 20
106.5028190116
  0
VERTEX
  8
0
 62
7
  6
CONTINUOUS
 10
69.6767535868
 20
106.7702072476
  0
VERTEX
  8
0
 62
7
  6
CONTINUOUS
 10
69.655322552
 20
107.047711575
  0
VERTEX
  8
0
 62
7
  6
CONTINUOUS
 10
69.6423898157
 20
107.331948992
  0
VERTEX
  8
0
 62
7
  6
CONTINUOUS
 10
69.6380663147
 20
107.6195724702
  0
SEQEND
  0
POLYLINE
  8
0
 62
7
  6
CONTINUOUS
 66
1
 70
0
  0
VERTEX
  8
0
 62
7
  6
CONTINUOUS
 10
70.5067814307
 20
109.6467390543
  0
VERTEX
  8
0
 62
7
  6
CONTINUOUS
 10
70.5596433584
 20
109.4296806292
  0
VERTEX
  8
0
 62
7
  6
CONTINUOUS
 10
70.6052979275
 20
109.1923718998
  0
VERTEX
  8
0
 62
7
  6
CONTINUOUS
 10
70.6432594719
 20
108.938129816
  0
VERTEX
  8
0
 62
7
  6
CONTINUOUS
 10
70.6731501109
 20
108.6703333153
  0
VERTEX
  8
0
 62
7
  6
CONTINUOUS
 10
70.6946902708
 20
108.3923793532
  0
VERTEX
  8
0
 62
7
  6
CONTINUOUS
 10
70.7076884292
 20
108.1076641453
  0
VERTEX
  8
0
 62
7
  6
CONTINUOUS
 10
70.7120333052
 20
107.8195724702
  0
SEQEND
  0
LINE
  8
0
 62
7
  6
CONTINUOUS
 10
76.0370732038
 20
110.356725567
 11
76.052909086
 21
110.3695724702
  0
LINE
  8
0
 62
7
  6
CONTINUOUS
 10
108.7054192559
 20
105.0695724702
 11
108.6049712024
 21
105.0695724702
  0
LINE
  8
0
 62
7
  6
CONTINUOUS
 10
44.8905349613
 20
105.0695724702
 11
44.9554192559
 21
105.0695724702
  0
LINE
  8
0
 62
7
  6
CONTINUOUS
 10
50.6554192559
 20
105.0695724702
 11
50.7203035505
 21
105.0695724702
  0
LINE
  8
0
 62
7
  6
CONTINUOUS
 10
57.5905349613
 20
105.0695724702
 11
57.6554192559
 21
105.0695724702
  0
LINE
  8
0
 62
7
  6
CONTINUOUS
 10
63.3554192559
 20
105.0695724702
 11
63.4203035505
 21
105.0695724702
  0
LINE
  8
0
 62
7
  6
CONTINUOUS
 10
70.2905349613
 20
105.0695724702
 11
70.3554192559
 21
105.0695724702
  0
POLYLINE
  8
0
 62
7
  6
CONTINUOUS
 66
1
 70
0
  0
VERTEX
  8
0
 62
7
  6
CONTINUOUS
 10
70.2905349613
 20
105.0695724702
  0
VERTEX
  8
0
 62
7
  6
CONTINUOUS
 10
70.2618439402
 20
105.0745917708
  0
VERTEX
  8
0
 62
7
  6
CONTINUOUS
 10
70.2275746656
 20
105.0897992698
  0
VERTEX
  8
0
 62
7
  6
CONTINUOUS
 10
70.1877714147
 20
105.1153480959
  0
SEQEND
  0
POLYLINE
  8
0
 62
7
  6
CONTINUOUS
 66
1
 70
0
  0
VERTEX
  8
0
 62
7
  6
CONTINUOUS
 10
76.052909086
 20
105.0695724702
  0
VERTEX
  8
0
 62
7
  6
CONTINUOUS
 10
76.0370597406
 20
105.0824343522
  0
VERTEX
  8
0
 62
7
  6
CONTINUOUS
 10
76.0064423244
 20
105.1214670114
  0
VERTEX
  8
0
 62
7
  6
CONTINUOUS
 10
75.9614225256
 20
105.1869228374
  0
VERTEX
  8
0
 62
7
  6
CONTINUOUS
 10
75.902404046
 20
105.2795081895
  0
VERTEX
  8
0
 62
7
  6
CONTINUOUS
 10
75.8298539877
 20
105.4006631432
  0
VERTEX
  8
0
 62
7
  6
CONTINUOUS
 10
75.7451704273
 20
105.5513738904
  0
SEQEND
  0
POLYLINE
  8
0
 62
7
  6
CONTINUOUS
 66
1
 70
0
  0
VERTEX
  8
0
 62
7
  6
CONTINUOUS
 10
75.3304121838
 20
107.6195724702
  0
VERTEX
  8
0
 62
7
  6
CONTINUOUS
 10
75.3356878241
 20
107.3578967175
  0
VERTEX
  8
0
 62
7
  6
CONTINUOUS
 10
75.3514969666
 20
107.0985200104
  0
VERTEX
  8
0
 62
7
  6
CONTINUOUS
 10
75.3777930485
 20
106.8436977826
  0
VERTEX
  8
0
 62
7
  6
CONTINUOUS
 10
75.4144854264
 20
106.5958155898
  0
VERTEX
  8
0
 62
7
  6
CONTINUOUS
 10
75.4614237641
 20
106.357358922
  0
VERTEX
  8
0
 62
7
  6
CONTINUOUS
 10
75.5183749021
 20
106.1309339745
  0
VERTEX
  8
0
 62
7
  6
CONTINUOUS
 10
75.5849970385
 20
105.9192575022
  0
VERTEX
  8
0
 62
7
  6
CONTINUOUS
 10
75.6608124983
 20
105.7251248622
  0
VERTEX
  8
0
 62
7
  6
CONTINUOUS
 10
75.7451704273
 20
105.5513738904
  0
SEQEND
  0
POLYLINE
  8
0
 62
7
  6
CONTINUOUS
 66
1
 70
0
  0
VERTEX
  8
0
 62
7
  6
CONTINUOUS
 10
76.5201628457
 20
107.8195726536
  0
VERTEX
  8
0
 62
7
  6
CONTINUOUS
 10
76.5159172005
 20
108.0606287688
  0
VERTEX
  8
0
 62
7
  6
CONTINUOUS
 10
76.5031938395
 20
108.2998691217
  0
VERTEX
  8
0
 62
7
  6
CONTINUOUS
 10
76.4820318668
 20
108.5354868887
  0
VERTEX
  8
0
 62
7
  6
CONTINUOUS
 10
76.4525033006
 20
108.7656090888
  0
VERTEX
  8
0
 62
7
  6
CONTINUOUS
 10
76.4147215207
 20
108.9883045562
  0
VERTEX
  8
0
 62
7
  6
CONTINUOUS
 10
76.3688534645
 20
109.2015719906
  0
SEQEND
  0
LINE
  8
0
 62
7
  6
CONTINUOUS
 10
75.3304121838
 20
107.8195724702
 11
75.3304121838
 21
107.6195724702
  0
LINE
  8
0
 62
7
  6
CONTINUOUS
 10
76.0554192559
 20
101.9695724702
 11
76.0554192559
 21
105.1012340094
  0
LINE
  8
0
 62
7
  6
CONTINUOUS
 10
76.0554192559
 20
110.337910931
 11
76.0554192559
 21
113.4695724702
  0
LINE
  8
DEFAULT_1
 62
7
  6
CENTER
 10
76.3754192559
 20
99.2195724161
 11
76.3754192559
 21
116.2195725233
  0
LINE
  8
0
 62
7
  6
CONTINUOUS
 10
76.5201628457
 20
107.6195726535
 11
76.5201628457
 21
107.8195726536
  0
POLYLINE
  8
0
 62
7
  6
CONTINUOUS
 66
1
 70
0
  0
VERTEX
  8
0
 62
7
  6
CONTINUOUS
 10
76.3688534645
 20
106.2375729498
  0
VERTEX
  8
0
 62
7
  6
CONTINUOUS
 10
76.4147197179
 20
106.4508309813
  0
VERTEX
  8
0
 62
7
  6
CONTINUOUS
 10
76.4525004889
 20
106.6735169221
  0
VERTEX
  8
0
 62
7
  6
CONTINUOUS
 10
76.4820286663
 20
106.9036286236
  0
VERTEX
  8
0
 62
7
  6
CONTINUOUS
 10
76.5031914882
 20
107.1392428447
  0
VERTEX
  8
0
 62
7
  6
CONTINUOUS
 10
76.5159163574
 20
107.3784922928
  0
VERTEX
  8
0
 62
7
  6
CONTINUOUS
 10
76.5201628457
 20
107.6195726535
  0
SEQEND
  0
POLYLINE
  8
0
 62
7
  6
CONTINUOUS
 66
1
 70
0
  0
VERTEX
  8
0
 62
7
  6
CONTINUOUS
 10
76.3688534645
 20
106.2375729498
  0
VERTEX
  8
0
 62
7
  6
CONTINUOUS
 10
76.3117631953
 20
106.0139248342
  0
VERTEX
  8
0
 62
7
  6
CONTINUOUS
 10
76.2540227323
 20
105.8091493842
  0
VERTEX
  8
0
 62
7
  6
CONTINUOUS
 10
76.1991327141
 20
105.62658026
  0
VERTEX
  8
0
 62
7
  6
CONTINUOUS
 10
76.1100115202
 20
105.3373057059
  0
SEQEND
  0
POLYLINE
  8
0
 62
7
  6
CONTINUOUS
 66
1
 70
0
  0
VERTEX
  8
0
 62
7
  6
CONTINUOUS
 10
76.1100115202
 20
105.3373057059
  0
VERTEX
  8
0
 62
7
  6
CONTINUOUS
 10
76.0801469682
 20
105.2326383509
  0
VERTEX
  8
0
 62
7
  6
CONTINUOUS
 10
76.0616708011
 20
105.1539496902
  0
VERTEX
  8
0
 62
7
  6
CONTINUOUS
 10
76.0554192559
 20
105.1012340094
  0
SEQEND
  0
POLYLINE
  8
0
 62
7
  6
CONTINUOUS
 66
1
 70
0
  0
VERTEX
  8
0
 62
7
  6
CONTINUOUS
 10
75.7451704273
 20
109.88777105
  0
VERTEX
  8
0
 62
7
  6
CONTINUOUS
 10
75.6608123578
 20
109.7140197551
  0
VERTEX
  8
0
 62
7
  6
CONTINUOUS
 10
75.5849963677
 20
109.519885525
  0
VERTEX
  8
0
 62
7
  6
CONTINUOUS
 10
75.5183736964
 20
109.3082066874
  0
VERTEX
  8
0
 62
7
  6
CONTINUOUS
 10
75.4614222906
 20
109.081779418
  0
VERTEX
  8
0
 62
7
  6
CONTINUOUS
 10
75.4144839972
 20
108.8433210306
  0
VERTEX
  8
0
 62
7
  6
CONTINUOUS
 10
75.3777919147
 20
108.5954380999
  0
VERTEX
  8
0
 62
7
  6
CONTINUOUS
 10
75.3514962953
 20
108.3406167242
  0
VERTEX
  8
0
 62
7
  6
CONTINUOUS
 10
75.3356876091
 20
108.0812429057
  0
VERTEX
  8
0
 62
7
  6
CONTINUOUS
 10
75.3304121838
 20
107.8195724702
  0
SEQEND
  0
POLYLINE
  8
0
 62
7
  6
CONTINUOUS
 66
1
 70
0
  0
VERTEX
  8
0
 62
7
  6
CONTINUOUS
 10
75.7451704273
 20
109.88777105
  0
VERTEX
  8
0
 62
7
  6
CONTINUOUS
 10
75.8298602909
 20
110.0384926423
  0
VERTEX
  8
0
 62
7
  6
CONTINUOUS
 10
75.9024160568
 20
110.1596561806
  0
VERTEX
  8
0
 62
7
  6
CONTINUOUS
 10
75.9614523873
 20
110.2522673036
  0
VERTEX
  8
0
 62
7
  6
CONTINUOUS
 10
76.0064706754
 20
110.3177169762
  0
VERTEX
  8
0
 62
7
  6
CONTINUOUS
 10
76.0370732038
 20
110.356725567
  0
SEQEND
  0
LINE
  8
SURFACE
 62
6
  6
CONTINUOUS
 10
112.7054192559
 20
107.7195724702
 11
110.7054192559
 21
107.7195724702
  0
LINE
  8
DEFAULT_1
 62
7
  6
CENTER
 10
36.6054192559
 20
107.7195724702
 11
116.7754192559
 21
107.7195724702
  0
POLYLINE
  8
0
 62
7
  6
CONTINUOUS
 66
1
 70
0
  0
VERTEX
  8
0
 62
7
  6
CONTINUOUS
 10
50.7203035505
 20
110.3695724702
  0
VERTEX
  8
0
 62
7
  6
CONTINUOUS
 10
50.7489975416
 20
110.3645522186
  0
VERTEX
  8
0
 62
7
  6
CONTINUOUS
 10
50.7832684327
 20
110.3493431502
  0
VERTEX
  8
0
 62
7
  6
CONTINUOUS
 10
50.8230670971
 20
110.3237968445
  0
SEQEND
  0
POLYLINE
  8
0
 62
7
  6
CONTINUOUS
 66
1
 70
0
  0
VERTEX
  8
0
 62
7
  6
CONTINUOUS
 10
63.4203035505
 20
110.3695724702
  0
VERTEX
  8
0
 62
7
  6
CONTINUOUS
 10
63.4489975416
 20
110.3645522186
  0
VERTEX
  8
0
 62
7
  6
CONTINUOUS
 10
63.4832684327
 20
110.3493431502
  0
VERTEX
  8
0
 62
7
  6
CONTINUOUS
 10
63.5230670971
 20
110.3237968445
  0
SEQEND
  0
POLYLINE
  8
0
 62
7
  6
CONTINUOUS
 66
1
 70
0
  0
VERTEX
  8
0
 62
7
  6
CONTINUOUS
 10
76.199123321
 20
109.8125952719
  0
VERTEX
  8
0
 62
7
  6
CONTINUOUS
 10
76.2540096569
 20
109.6300401894
  0
VERTEX
  8
0
 62
7
  6
CONTINUOUS
 10
76.3117663829
 20
109.425208302
  0
VERTEX
  8
0
 62
7
  6
CONTINUOUS
 10
76.3688534645
 20
109.2015719906
  0
SEQEND
  0
POLYLINE
  8
0
 62
7
  6
CONTINUOUS
 66
1
 70
0
  0
VERTEX
  8
0
 62
7
  6
CONTINUOUS
 10
76.0554192559
 20
110.337910931
  0
VERTEX
  8
0
 62
7
  6
CONTINUOUS
 10
76.0616689438
 20
110.2852050414
  0
VERTEX
  8
0
 62
7
  6
CONTINUOUS
 10
76.0801358677
 20
110.2065483913
  0
VERTEX
  8
0
 62
7
  6
CONTINUOUS
 10
76.1099962188
 20
110.1018904171
  0
VERTEX
  8
0
 62
7
  6
CONTINUOUS
 10
76.199123321
 20
109.8125952719
  0
SEQEND
  0
LINE
  8
0
 62
7
  6
CONTINUOUS
 10
44.8905349613
 20
110.3695724702
 11
44.9554192559
 21
110.3695724702
  0
LINE
  8
0
 62
7
  6
CONTINUOUS
 10
50.6554192559
 20
110.3695724702
 11
50.7203035505
 21
110.3695724702
  0
LINE
  8
0
 62
7
  6
CONTINUOUS
 10
57.5905349613
 20
110.3695724702
 11
57.6554192559
 21
110.3695724702
  0
LINE
  8
0
 62
7
  6
CONTINUOUS
 10
63.3554192559
 20
110.3695724702
 11
63.4203035505
 21
110.3695724702
  0
LINE
  8
0
 62
7
  6
CONTINUOUS
 10
70.2905349613
 20
110.3695724702
 11
70.3554192559
 21
110.3695724702
  0
LINE
  8
0
 62
7
  6
CONTINUOUS
 10
108.6049712024
 20
110.3695724702
 11
108.7054192559
 21
110.3695724702
  0
POLYLINE
  8
0
 62
7
  6
CONTINUOUS
 66
1
 70
0
  0
VERTEX
  8
0
 62
7
  6
CONTINUOUS
 10
82.7455786483
 20
109.7973660005
  0
VERTEX
  8
0
 62
7
  6
CONTINUOUS
 10
82.8446165443
 20
110.1041150193
  0
VERTEX
  8
0
 62
7
  6
CONTINUOUS
 10
82.8778962157
 20
110.2131482178
  0
VERTEX
  8
0
 62
7
  6
CONTINUOUS
 10
82.8984740279
 20
110.2933230407
  0
VERTEX
  8
0
 62
7
  6
CONTINUOUS
 10
82.9054192559
 20
110.3446746034
  0
SEQEND
  0
POLYLINE
  8
0
 62
7
  6
CONTINUOUS
 66
1
 70
0
  0
VERTEX
  8
0
 62
7
  6
CONTINUOUS
 10
108.6049712024
 20
105.0695724702
  0
VERTEX
  8
0
 62
7
  6
CONTINUOUS
 10
108.5508699205
 20
105.080548671
  0
VERTEX
  8
0
 62
7
  6
CONTINUOUS
 10
108.4836322608
 20
105.1142890929
  0
VERTEX
  8
0
 62
7
  6
CONTINUOUS
 10
108.4031909742
 20
105.1718081857
  0
VERTEX
  8
0
 62
7
  6
CONTINUOUS
 10
108.3102117767
 20
105.253587233
  0
VERTEX
  8
0
 62
7
  6
CONTINUOUS
 10
108.205325875
 20
105.3603004668
  0
SEQEND
  0
POLYLINE
  8
0
 62
7
  6
CONTINUOUS
 66
1
 70
0
  0
VERTEX
  8
0
 62
7
  6
CONTINUOUS
 10
82.8446065717
 20
105.3350613405
  0
VERTEX
  8
0
 62
7
  6
CONTINUOUS
 10
82.7455924305
 20
105.6417356517
  0
VERTEX
  8
0
 62
7
  6
CONTINUOUS
 10
82.6849889279
 20
105.8372709011
  0
VERTEX
  8
0
 62
7
  6
CONTINUOUS
 10
82.6222633189
 20
106.0557628656
  0
VERTEX
  8
0
 62
7
  6
CONTINUOUS
 10
82.5614401879
 20
106.2933035365
  0
VERTEX
  8
0
 62
7
  6
CONTINUOUS
 10
82.506507252
 20
106.5449493522
  0
VERTEX
  8
0
 62
7
  6
CONTINUOUS
 10
82.4606950831
 20
106.8064738801
  0
VERTEX
  8
0
 62
7
  6
CONTINUOUS
 10
82.4261681905
 20
107.0767219698
  0
VERTEX
  8
0
 62
7
  6
CONTINUOUS
 10
82.4050352782
 20
107.3500135884
  0
VERTEX
  8
0
 62
7
  6
CONTINUOUS
 10
82.3980843788
 20
107.6195726506
  0
SEQEND
  0
LINE
  8
0
 62
7
  6
CONTINUOUS
 10
82.3980843788
 20
107.8195724702
 11
82.3980843788
 21
107.6195725604
  0
LINE
  8
0
 62
7
  6
CONTINUOUS
 10
82.9054192559
 20
101.9695724702
 11
82.9054192559
 21
105.094470337
  0
LINE
  8
0
 62
7
  6
CONTINUOUS
 10
82.9054192559
 20
110.3446746034
 11
82.9054192559
 21
113.4695724702
  0
LINE
  8
0
 62
7
  6
CONTINUOUS
 10
83.6125621131
 20
107.8195724702
 11
83.6125621131
 21
107.6195724702
  0
POLYLINE
  8
0
 62
7
  6
CONTINUOUS
 66
1
 70
0
  0
VERTEX
  8
0
 62
7
  6
CONTINUOUS
 10
83.6125621131
 20
107.6195724702
  0
VERTEX
  8
0
 62
7
  6
CONTINUOUS
 10
83.6071242458
 20
107.3655062859
  0
VERTEX
  8
0
 62
7
  6
CONTINUOUS
 10
83.5908217987
 20
107.1134731992
  0
VERTEX
  8
0
 62
7
  6
CONTINUOUS
 10
83.5636764217
 20
106.865431545
  0
VERTEX
  8
0
 62
7
  6
CONTINUOUS
 10
83.525739565
 20
106.6235065808
  0
VERTEX
  8
0
 62
7
  6
CONTINUOUS
 10
83.4771077926
 20
106.3899333205
  0
VERTEX
  8
0
 62
7
  6
CONTINUOUS
 10
83.417949391
 20
106.1670960003
  0
VERTEX
  8
0
 62
7
  6
CONTINUOUS
 10
83.3485343226
 20
105.9575270997
  0
VERTEX
  8
0
 62
7
  6
CONTINUOUS
 10
83.2692666208
 20
105.7638842402
  0
SEQEND
  0
POLYLINE
  8
0
 62
7
  6
CONTINUOUS
 66
1
 70
0
  0
VERTEX
  8
0
 62
7
  6
CONTINUOUS
 10
82.3980843788
 20
107.8195724702
  0
VERTEX
  8
0
 62
7
  6
CONTINUOUS
 10
82.4050232445
 20
108.0888976266
  0
VERTEX
  8
0
 62
7
  6
CONTINUOUS
 10
82.426134437
 20
108.3620950039
  0
VERTEX
  8
0
 62
7
  6
CONTINUOUS
 10
82.4606603062
 20
108.6324425993
  0
VERTEX
  8
0
 62
7
  6
CONTINUOUS
 10
82.506477622
 20
108.894045672
  0
VERTEX
  8
0
 62
7
  6
CONTINUOUS
 10
82.5614087436
 20
109.145709478
  0
VERTEX
  8
0
 62
7
  6
CONTINUOUS
 10
82.6222388364
 20
109.3832924024
  0
VERTEX
  8
0
 62
7
  6
CONTINUOUS
 10
82.6849760668
 20
109.6018311993
  0
VERTEX
  8
0
 62
7
  6
CONTINUOUS
 10
82.7455786483
 20
109.7973660005
  0
SEQEND
  0
POLYLINE
  8
0
 62
7
  6
CONTINUOUS
 66
1
 70
0
  0
VERTEX
  8
0
 62
7
  6
CONTINUOUS
 10
83.2692666208
 20
105.7638842402
  0
VERTEX
  8
0
 62
7
  6
CONTINUOUS
 10
83.1807916996
 20
105.5768381535
  0
VERTEX
  8
0
 62
7
  6
CONTINUOUS
 10
83.1012231742
 20
105.4195331341
  0
VERTEX
  8
0
 62
7
  6
CONTINUOUS
 10
83.0334962828
 20
105.2923226726
  0
VERTEX
  8
0
 62
7
  6
CONTINUOUS
 10
82.979331392
 20
105.1945716447
  0
VERTEX
  8
0
 62
7
  6
CONTINUOUS
 10
82.9393246967
 20
105.1247717011
  0
VERTEX
  8
0
 62
7
  6
CONTINUOUS
 10
82.9145775998
 20
105.0832015678
  0
VERTEX
  8
0
 62
7
  6
CONTINUOUS
 10
82.9054814541
 20
105.0695724702
  0
SEQEND
  0
LINE
  8
0
 62
7
  6
CONTINUOUS
 10
112.1382662246
 20
113.6663666311
 11
111.2725723998
 21
113.6663666311
  0
LINE
  8
0
 62
7
  6
CONTINUOUS
 10
39.3554192559
 20
114.2195724702
 11
75.302406682
 21
114.2195724702
  0
LINE
  8
0
 62
7
  6
CONTINUOUS
 10
75.3054192559
 20
114.2195724702
 11
113.9554192559
 21
114.2195724702
  0
POLYLINE
  8
0
 62
7
  6
CONTINUOUS
 66
1
 70
0
  0
VERTEX
  8
0
 62
7
  6
CONTINUOUS
 10
111.2725724004
 20
113.6663641139
  0
VERTEX
  8
0
 62
7
  6
CONTINUOUS
 10
111.1733989754
 20
113.6692344264
  0
VERTEX
  8
0
 62
7
  6
CONTINUOUS
 10
111.054172439
 20
113.6802126732
  0
VERTEX
  8
0
 62
7
  6
CONTINUOUS
 10
110.9460808835
 20
113.6971519618
  0
VERTEX
  8
0
 62
7
  6
CONTINUOUS
 10
110.8491743709
 20
113.7178844963
  0
VERTEX
  8
0
 62
7
  6
CONTINUOUS
 10
110.7628556201
 20
113.7407149302
  0
VERTEX
  8
0
 62
7
  6
CONTINUOUS
 10
110.6857929448
 20
113.7645695769
  0
VERTEX
  8
0
 62
7
  6
CONTINUOUS
 10
110.616983062
 20
113.7886649046
  0
VERTEX
  8
0
 62
7
  6
CONTINUOUS
 10
110.555525899
 20
113.8124894985
  0
VERTEX
  8
0
 62
7
  6
CONTINUOUS
 10
110.500840143
 20
113.8356039115
  0
VERTEX
  8
0
 62
7
  6
CONTINUOUS
 10
110.4523301125
 20
113.8577435077
  0
VERTEX
  8
0
 62
7
  6
CONTINUOUS
 10
110.4097440622
 20
113.8785831478
  0
VERTEX
  8
0
 62
7
  6
CONTINUOUS
 10
110.3729437346
 20
113.8978231369
  0
VERTEX
  8
0
 62
7
  6
CONTINUOUS
 10
110.3419573847
 20
113.915101641
  0
VERTEX
  8
0
 62
7
  6
CONTINUOUS
 10
110.3171798328
 20
113.9298500412
  0
VERTEX
  8
0
 62
7
  6
CONTINUOUS
 10
110.2993147471
 20
113.9412381639
  0
VERTEX
  8
0
 62
7
  6
CONTINUOUS
 10
110.2893288735
 20
113.9480821711
  0
VERTEX
  8
0
 62
7
  6
CONTINUOUS
 10
110.2878084733
 20
113.949188087
  0
SEQEND
  0
POLYLINE
  8
0
 62
7
  6
CONTINUOUS
 66
1
 70
0
  0
VERTEX
  8
0
 62
7
  6
CONTINUOUS
 10
82.9054814541
 20
110.3695724702
  0
VERTEX
  8
0
 62
7
  6
CONTINUOUS
 10
82.9145621868
 20
110.3559684114
  0
VERTEX
  8
0
 62
7
  6
CONTINUOUS
 10
82.9392827362
 20
110.3144451304
  0
VERTEX
  8
0
 62
7
  6
CONTINUOUS
 10
82.979276566
 20
110.2446704467
  0
VERTEX
  8
0
 62
7
  6
CONTINUOUS
 10
83.0334490534
 20
110.1469090214
  0
VERTEX
  8
0
 62
7
  6
CONTINUOUS
 10
83.1011847629
 20
110.0196855998
  0
VERTEX
  8
0
 62
7
  6
CONTINUOUS
 10
83.1807706028
 20
109.8623497513
  0
VERTEX
  8
0
 62
7
  6
CONTINUOUS
 10
83.2692666208
 20
109.6752607002
  0
SEQEND
  0
POLYLINE
  8
0
 62
7
  6
CONTINUOUS
 66
1
 70
0
  0
VERTEX
  8
0
 62
7
  6
CONTINUOUS
 10
83.2692666208
 20
109.6752607002
  0
VERTEX
  8
0
 62
7
  6
CONTINUOUS
 10
83.3485346905
 20
109.481616842
  0
VERTEX
  8
0
 62
7
  6
CONTINUOUS
 10
83.4179503993
 20
109.2720455455
  0
VERTEX
  8
0
 62
7
  6
CONTINUOUS
 10
83.4771092278
 20
109.0492055359
  0
VERTEX
  8
0
 62
7
  6
CONTINUOUS
 10
83.5257410461
 20
108.8156302155
  0
VERTEX
  8
0
 62
7
  6
CONTINUOUS
 10
83.5636776182
 20
108.5737043774
  0
VERTEX
  8
0
 62
7
  6
CONTINUOUS
 10
83.5908225174
 20
108.3256634598
  0
VERTEX
  8
0
 62
7
  6
CONTINUOUS
 10
83.6071244784
 20
108.073633235
  0
VERTEX
  8
0
 62
7
  6
CONTINUOUS
 10
83.6125621131
 20
107.8195724702
  0
SEQEND
  0
POLYLINE
  8
0
 62
7
  6
CONTINUOUS
 66
1
 70
0
  0
VERTEX
  8
0
 62
7
  6
CONTINUOUS
 10
82.9054192559
 20
105.094470337
  0
VERTEX
  8
0
 62
7
  6
CONTINUOUS
 10
82.8984727256
 20
105.145828075
  0
VERTEX
  8
0
 62
7
  6
CONTINUOUS
 10
82.8778864409
 20
105.226030806
  0
VERTEX
  8
0
 62
7
  6
CONTINUOUS
 10
82.8446065717
 20
105.3350613405
  0
SEQEND
  0
POLYLINE
  8
0
 62
7
  6
CONTINUOUS
 66
1
 70
0
  0
VERTEX
  8
0
 62
7
  6
CONTINUOUS
 10
88.541571891
 20
109.6752607002
  0
VERTEX
  8
0
 62
7
  6
CONTINUOUS
 10
88.4623038214
 20
109.481616842
  0
VERTEX
  8
0
 62
7
  6
CONTINUOUS
 10
88.3928881126
 20
109.2720455455
  0
VERTEX
  8
0
 62
7
  6
CONTINUOUS
 10
88.333729284
 20
109.0492055359
  0
VERTEX
  8
0
 62
7
  6
CONTINUOUS
 10
88.2850974658
 20
108.8156302155
  0
VERTEX
  8
0
 62
7
  6
CONTINUOUS
 10
88.2471608936
 20
108.5737043774
  0
VERTEX
  8
0
 62
7
  6
CONTINUOUS
 10
88.2200159945
 20
108.3256634598
  0
VERTEX
  8
0
 62
7
  6
CONTINUOUS
 10
88.2037140335
 20
108.073633235
  0
VERTEX
  8
0
 62
7
  6
CONTINUOUS
 10
88.1982763988
 20
107.8195724702
  0
SEQEND
  0
POLYLINE
  8
0
 62
7
  6
CONTINUOUS
 66
1
 70
0
  0
VERTEX
  8
0
 62
7
  6
CONTINUOUS
 10
88.541571891
 20
109.6752607002
  0
VERTEX
  8
0
 62
7
  6
CONTINUOUS
 10
88.6300483029
 20
109.8623098227
  0
VERTEX
  8
0
 62
7
  6
CONTINUOUS
 10
88.7096295329
 20
110.0196390776
  0
VERTEX
  8
0
 62
7
  6
CONTINUOUS
 10
88.777368392
 20
110.1468703256
  0
VERTEX
  8
0
 62
7
  6
CONTINUOUS
 10
88.8315485097
 20
110.2446466384
  0
VERTEX
  8
0
 62
7
  6
CONTINUOUS
 10
88.8715513555
 20
110.3144375574
  0
VERTEX
  8
0
 62
7
  6
CONTINUOUS
 10
88.896275916
 20
110.355967747
  0
VERTEX
  8
0
 62
7
  6
CONTINUOUS
 10
88.9053570578
 20
110.3695724702
  0
SEQEND
  0
POLYLINE
  8
0
 62
7
  6
CONTINUOUS
 66
1
 70
0
  0
VERTEX
  8
0
 62
7
  6
CONTINUOUS
 10
88.9053570578
 20
105.0695724702
  0
VERTEX
  8
0
 62
7
  6
CONTINUOUS
 10
88.8962604389
 20
105.0832023364
  0
VERTEX
  8
0
 62
7
  6
CONTINUOUS
 10
88.8715091592
 20
105.1247796784
  0
VERTEX
  8
0
 62
7
  6
CONTINUOUS
 10
88.831493181
 20
105.1945963448
  0
VERTEX
  8
0
 62
7
  6
CONTINUOUS
 10
88.777320579
 20
105.2923624414
  0
VERTEX
  8
0
 62
7
  6
CONTINUOUS
 10
88.7095904798
 20
105.4195808904
  0
VERTEX
  8
0
 62
7
  6
CONTINUOUS
 10
88.6300267515
 20
105.5768790088
  0
VERTEX
  8
0
 62
7
  6
CONTINUOUS
 10
88.541571891
 20
105.7638842402
  0
SEQEND
  0
POLYLINE
  8
0
 62
7
  6
CONTINUOUS
 66
1
 70
0
  0
VERTEX
  8
0
 62
7
  6
CONTINUOUS
 10
88.1982763988
 20
107.6195724702
  0
VERTEX
  8
0
 62
7
  6
CONTINUOUS
 10
88.203714266
 20
107.3655062859
  0
VERTEX
  8
0
 62
7
  6
CONTINUOUS
 10
88.2200167132
 20
107.1134731992
  0
VERTEX
  8
0
 62
7
  6
CONTINUOUS
 10
88.2471620901
 20
106.865431545
  0
VERTEX
  8
0
 62
7
  6
CONTINUOUS
 10
88.2850989468
 20
106.6235065808
  0
VERTEX
  8
0
 62
7
  6
CONTINUOUS
 10
88.3337307192
 20
106.3899333205
  0
VERTEX
  8
0
 62
7
  6
CONTINUOUS
 10
88.3928891208
 20
106.1670960003
  0
VERTEX
  8
0
 62
7
  6
CONTINUOUS
 10
88.4623041892
 20
105.9575270997
  0
VERTEX
  8
0
 62
7
  6
CONTINUOUS
 10
88.541571891
 20
105.7638842402
  0
SEQEND
  0
LINE
  8
0
 62
7
  6
CONTINUOUS
 10
88.1982763988
 20
107.8195724702
 11
88.1982763988
 21
107.6195724702
  0
LINE
  8
0
 62
7
  6
CONTINUOUS
 10
88.9054192559
 20
101.9695724702
 11
88.9054192559
 21
105.094470337
  0
LINE
  8
0
 62
7
  6
CONTINUOUS
 10
88.9054192559
 20
110.3446746034
 11
88.9054192559
 21
113.4695724702
  0
LINE
  8
0
 62
7
  6
CONTINUOUS
 10
89.412754133
 20
107.8195724702
 11
89.412754133
 21
107.6195725615
  0
POLYLINE
  8
0
 62
7
  6
CONTINUOUS
 66
1
 70
0
  0
VERTEX
  8
0
 62
7
  6
CONTINUOUS
 10
89.412754133
 20
107.6195726527
  0
VERTEX
  8
0
 62
7
  6
CONTINUOUS
 10
89.4058039609
 20
107.3500277074
  0
VERTEX
  8
0
 62
7
  6
CONTINUOUS
 10
89.3846719063
 20
107.076737366
  0
VERTEX
  8
0
 62
7
  6
CONTINUOUS
 10
89.350144807
 20
106.8064829334
  0
VERTEX
  8
0
 62
7
  6
CONTINUOUS
 10
89.3043321087
 20
106.5449536467
  0
VERTEX
  8
0
 62
7
  6
CONTINUOUS
 10
89.2493978596
 20
106.2933015886
  0
VERTEX
  8
0
 62
7
  6
CONTINUOUS
 10
89.1885749827
 20
106.0557620954
  0
VERTEX
  8
0
 62
7
  6
CONTINUOUS
 10
89.1258524874
 20
105.8372805724
  0
VERTEX
  8
0
 62
7
  6
CONTINUOUS
 10
89.065249921
 20
105.6417477114
  0
SEQEND
  0
POLYLINE
  8
0
 62
7
  6
CONTINUOUS
 66
1
 70
0
  0
VERTEX
  8
0
 62
7
  6
CONTINUOUS
 10
89.065249921
 20
105.6417477114
  0
VERTEX
  8
0
 62
7
  6
CONTINUOUS
 10
88.9662369971
 20
105.3350772728
  0
VERTEX
  8
0
 62
7
  6
CONTINUOUS
 10
88.932955589
 20
105.2260430725
  0
VERTEX
  8
0
 62
7
  6
CONTINUOUS
 10
88.9123668727
 20
105.1458332267
  0
VERTEX
  8
0
 62
7
  6
CONTINUOUS
 10
88.9054192559
 20
105.094470337
  0
SEQEND
  0
POLYLINE
  8
0
 62
7
  6
CONTINUOUS
 66
1
 70
0
  0
VERTEX
  8
0
 62
7
  6
CONTINUOUS
 10
88.9662268736
 20
110.1040995623
  0
VERTEX
  8
0
 62
7
  6
CONTINUOUS
 10
89.0652635613
 20
109.7973543861
  0
VERTEX
  8
0
 62
7
  6
CONTINUOUS
 10
89.1258649303
 20
109.6018229209
  0
VERTEX
  8
0
 62
7
  6
CONTINUOUS
 10
89.1885991525
 20
109.3832943178
  0
VERTEX
  8
0
 62
7
  6
CONTINUOUS
 10
89.2494291501
 20
109.1457120719
  0
VERTEX
  8
0
 62
7
  6
CONTINUOUS
 10
89.3043617272
 20
108.8940414354
  0
VERTEX
  8
0
 62
7
  6
CONTINUOUS
 10
89.3501796405
 20
108.6324331725
  0
VERTEX
  8
0
 62
7
  6
CONTINUOUS
 10
89.384705659
 20
108.3620796066
  0
VERTEX
  8
0
 62
7
  6
CONTINUOUS
 10
89.4058159912
 20
108.0888835628
  0
VERTEX
  8
0
 62
7
  6
CONTINUOUS
 10
89.412754133
 20
107.8195724702
  0
SEQEND
  0
POLYLINE
  8
0
 62
7
  6
CONTINUOUS
 66
1
 70
0
  0
VERTEX
  8
0
 62
7
  6
CONTINUOUS
 10
88.9054192559
 20
110.3446746034
  0
VERTEX
  8
0
 62
7
  6
CONTINUOUS
 10
88.9123655425
 20
110.2933180209
  0
VERTEX
  8
0
 62
7
  6
CONTINUOUS
 10
88.9329457662
 20
110.2131361179
  0
VERTEX
  8
0
 62
7
  6
CONTINUOUS
 10
88.9662268736
 20
110.1040995623
  0
SEQEND
  0
POLYLINE
  8
0
 62
7
  6
CONTINUOUS
 66
1
 70
0
  0
VERTEX
  8
0
 62
7
  6
CONTINUOUS
 10
95.4455786483
 20
109.7973660005
  0
VERTEX
  8
0
 62
7
  6
CONTINUOUS
 10
95.5446165443
 20
110.1041150193
  0
VERTEX
  8
0
 62
7
  6
CONTINUOUS
 10
95.5778962157
 20
110.2131482178
  0
VERTEX
  8
0
 62
7
  6
CONTINUOUS
 10
95.5984740279
 20
110.2933230407
  0
VERTEX
  8
0
 62
7
  6
CONTINUOUS
 10
95.6054192559
 20
110.3446746034
  0
SEQEND
  0
POLYLINE
  8
0
 62
7
  6
CONTINUOUS
 66
1
 70
0
  0
VERTEX
  8
0
 62
7
  6
CONTINUOUS
 10
113.1226457382
 20
113.9488816824
  0
VERTEX
  8
0
 62
7
  6
CONTINUOUS
 10
113.1233330389
 20
113.949415335
  0
VERTEX
  8
0
 62
7
  6
CONTINUOUS
 10
113.1186724922
 20
113.9460814189
  0
VERTEX
  8
0
 62
7
  6
CONTINUOUS
 10
113.1051091607
 20
113.9370527887
  0
VERTEX
  8
0
 62
7
  6
CONTINUOUS
 10
113.0834575976
 20
113.9236578799
  0
VERTEX
  8
0
 62
7
  6
CONTINUOUS
 10
113.0546872953
 20
113.9070479664
  0
VERTEX
  8
0
 62
7
  6
CONTINUOUS
 10
113.0194169598
 20
113.888006096
  0
VERTEX
  8
0
 62
7
  6
CONTINUOUS
 10
112.9778355331
 20
113.8670280722
  0
VERTEX
  8
0
 62
7
  6
CONTINUOUS
 10
112.9298544786
 20
113.8444714229
  0
VERTEX
  8
0
 62
7
  6
CONTINUOUS
 10
112.8752999029
 20
113.8207223175
  0
VERTEX
  8
0
 62
7
  6
CONTINUOUS
 10
112.8135853491
 20
113.7960718854
  0
VERTEX
  8
0
 62
7
  6
CONTINUOUS
 10
112.7441471721
 20
113.7709916769
  0
VERTEX
  8
0
 62
7
  6
CONTINUOUS
 10
112.6660494081
 20
113.7460124827
  0
VERTEX
  8
0
 62
7
  6
CONTINUOUS
 10
112.5782738412
 20
113.7219590925
  0
VERTEX
  8
0
 62
7
  6
CONTINUOUS
 10
112.4792819708
 20
113.699927449
  0
VERTEX
  8
0
 62
7
  6
CONTINUOUS
 10
112.3682212852
 20
113.6817089945
  0
VERTEX
  8
0
 62
7
  6
CONTINUOUS
 10
112.2449975306
 20
113.6696879138
  0
VERTEX
  8
0
 62
7
  6
CONTINUOUS
 10
112.1382662245
 20
113.6663644566
  0
SEQEND
  0
POLYLINE
  8
0
 62
7
  6
CONTINUOUS
 66
1
 70
0
  0
VERTEX
  8
0
 62
7
  6
CONTINUOUS
 10
95.5446065718
 20
105.3350613405
  0
VERTEX
  8
0
 62
7
  6
CONTINUOUS
 10
95.4455924305
 20
105.6417356516
  0
VERTEX
  8
0
 62
7
  6
CONTINUOUS
 10
95.384988928
 20
105.837270901
  0
VERTEX
  8
0
 62
7
  6
CONTINUOUS
 10
95.3222633189
 20
106.0557628654
  0
VERTEX
  8
0
 62
7
  6
CONTINUOUS
 10
95.261440188
 20
106.2933035363
  0
VERTEX
  8
0
 62
7
  6
CONTINUOUS
 10
95.2065072521
 20
106.5449493519
  0
VERTEX
  8
0
 62
7
  6
CONTINUOUS
 10
95.1606950832
 20
106.8064738798
  0
VERTEX
  8
0
 62
7
  6
CONTINUOUS
 10
95.1261681906
 20
107.0767219694
  0
VERTEX
  8
0
 62
7
  6
CONTINUOUS
 10
95.1050352782
 20
107.350013588
  0
VERTEX
  8
0
 62
7
  6
CONTINUOUS
 10
95.0980843788
 20
107.6195726502
  0
SEQEND
  0
LINE
  8
0
 62
7
  6
CONTINUOUS
 10
95.0980843788
 20
107.8195724702
 11
95.0980843788
 21
107.6195725602
  0
LINE
  8
SURFACE
 62
6
  6
CONTINUOUS
 10
95.1554192559
 20
103.1695724702
 11
95.1554192559
 21
101.9695724702
  0
LINE
  8
0
 62
7
  6
CONTINUOUS
 10
95.6054192559
 20
101.9695724702
 11
95.6054192559
 21
105.0844442683
  0
LINE
  8
0
 62
7
  6
CONTINUOUS
 10
95.6054192559
 20
110.3547006721
 11
95.6054192559
 21
113.4695724702
  0
LINE
  8
0
 62
7
  6
CONTINUOUS
 10
96.2187525893
 20
107.8195724702
 11
96.2187525893
 21
107.6195724702
  0
POLYLINE
  8
0
 62
7
  6
CONTINUOUS
 66
1
 70
0
  0
VERTEX
  8
0
 62
7
  6
CONTINUOUS
 10
96.2187525893
 20
107.6195724702
  0
VERTEX
  8
0
 62
7
  6
CONTINUOUS
 10
96.2135220072
 20
107.3961418163
  0
VERTEX
  8
0
 62
7
  6
CONTINUOUS
 10
96.1978237369
 20
107.1739355688
  0
VERTEX
  8
0
 62
7
  6
CONTINUOUS
 10
96.171613438
 20
106.9540230244
  0
VERTEX
  8
0
 62
7
  6
CONTINUOUS
 10
96.1348310206
 20
106.7376767553
  0
SEQEND
  0
POLYLINE
  8
0
 62
7
  6
CONTINUOUS
 66
1
 70
0
  0
VERTEX
  8
0
 62
7
  6
CONTINUOUS
 10
95.0980843788
 20
107.8195724702
  0
VERTEX
  8
0
 62
7
  6
CONTINUOUS
 10
95.1050232445
 20
108.0888976266
  0
VERTEX
  8
0
 62
7
  6
CONTINUOUS
 10
95.126134437
 20
108.3620950039
  0
VERTEX
  8
0
 62
7
  6
CONTINUOUS
 10
95.1606603062
 20
108.6324425993
  0
VERTEX
  8
0
 62
7
  6
CONTINUOUS
 10
95.206477622
 20
108.894045672
  0
VERTEX
  8
0
 62
7
  6
CONTINUOUS
 10
95.2614087436
 20
109.145709478
  0
VERTEX
  8
0
 62
7
  6
CONTINUOUS
 10
95.3222388364
 20
109.3832924024
  0
VERTEX
  8
0
 62
7
  6
CONTINUOUS
 10
95.3849760668
 20
109.6018311993
  0
VERTEX
  8
0
 62
7
  6
CONTINUOUS
 10
95.4455786483
 20
109.7973660005
  0
SEQEND
  0
POLYLINE
  8
0
 62
7
  6
CONTINUOUS
 66
1
 70
0
  0
VERTEX
  8
0
 62
7
  6
CONTINUOUS
 10
96.1348310206
 20
106.7376767553
  0
VERTEX
  8
0
 62
7
  6
CONTINUOUS
 10
96.0771450761
 20
106.4790862042
  0
VERTEX
  8
0
 62
7
  6
CONTINUOUS
 10
96.0089382622
 20
106.2290093463
  0
VERTEX
  8
0
 62
7
  6
CONTINUOUS
 10
95.9346911233
 20
105.9939886369
  0
VERTEX
  8
0
 62
7
  6
CONTINUOUS
 10
95.859487781
 20
105.7797501055
  0
VERTEX
  8
0
 62
7
  6
CONTINUOUS
 10
95.7879636953
 20
105.5899130575
  0
SEQEND
  0
POLYLINE
  8
0
 62
7
  6
CONTINUOUS
 66
1
 70
0
  0
VERTEX
  8
0
 62
7
  6
CONTINUOUS
 10
95.7879636953
 20
105.5899130575
  0
VERTEX
  8
0
 62
7
  6
CONTINUOUS
 10
95.6737981571
 20
105.2987281599
  0
VERTEX
  8
0
 62
7
  6
CONTINUOUS
 10
95.6362358171
 20
105.1985561006
  0
VERTEX
  8
0
 62
7
  6
CONTINUOUS
 10
95.6131681257
 20
105.127181628
  0
VERTEX
  8
0
 62
7
  6
CONTINUOUS
 10
95.6054192559
 20
105.0844442683
  0
SEQEND
  0
POLYLINE
  8
0
 62
7
  6
CONTINUOUS
 66
1
 70
0
  0
VERTEX
  8
0
 62
7
  6
CONTINUOUS
 10
108.205325875
 20
110.0788444736
  0
VERTEX
  8
0
 62
7
  6
CONTINUOUS
 10
108.3102253343
 20
110.1855705885
  0
VERTEX
  8
0
 62
7
  6
CONTINUOUS
 10
108.4031737513
 20
110.2673229532
  0
VERTEX
  8
0
 62
7
  6
CONTINUOUS
 10
108.4836030624
 20
110.3248378668
  0
VERTEX
  8
0
 62
7
  6
CONTINUOUS
 10
108.5508454784
 20
110.3585873308
  0
VERTEX
  8
0
 62
7
  6
CONTINUOUS
 10
108.6049712024
 20
110.3695724702
  0
SEQEND
  0
POLYLINE
  8
0
 62
7
  6
CONTINUOUS
 66
1
 70
0
  0
VERTEX
  8
0
 62
7
  6
CONTINUOUS
 10
95.6738336223
 20
110.1403252317
  0
VERTEX
  8
0
 62
7
  6
CONTINUOUS
 10
95.7879915701
 20
109.8491597349
  0
VERTEX
  8
0
 62
7
  6
CONTINUOUS
 10
95.8595298602
 20
109.6592798075
  0
VERTEX
  8
0
 62
7
  6
CONTINUOUS
 10
95.9347133776
 20
109.4450899122
  0
VERTEX
  8
0
 62
7
  6
CONTINUOUS
 10
96.0089461251
 20
109.2101090104
  0
VERTEX
  8
0
 62
7
  6
CONTINUOUS
 10
96.0771522255
 20
108.9600300214
  0
VERTEX
  8
0
 62
7
  6
CONTINUOUS
 10
96.1348310206
 20
108.7014681851
  0
SEQEND
  0
POLYLINE
  8
0
 62
7
  6
CONTINUOUS
 66
1
 70
0
  0
VERTEX
  8
0
 62
7
  6
CONTINUOUS
 10
95.6054192559
 20
110.3547006721
  0
VERTEX
  8
0
 62
7
  6
CONTINUOUS
 10
95.6131720268
 20
110.3119489568
  0
VERTEX
  8
0
 62
7
  6
CONTINUOUS
 10
95.6362544841
 20
110.240536358
  0
VERTEX
  8
0
 62
7
  6
CONTINUOUS
 10
95.6738336223
 20
110.1403252317
  0
SEQEND
  0
POLYLINE
  8
0
 62
7
  6
CONTINUOUS
 66
1
 70
0
  0
VERTEX
  8
0
 62
7
  6
CONTINUOUS
 10
96.1348310206
 20
108.7014681851
  0
VERTEX
  8
0
 62
7
  6
CONTINUOUS
 10
96.1716137667
 20
108.4851196364
  0
VERTEX
  8
0
 62
7
  6
CONTINUOUS
 10
96.1978240416
 20
108.2652061526
  0
VERTEX
  8
0
 62
7
  6
CONTINUOUS
 10
96.2135221258
 20
108.0430005952
  0
VERTEX
  8
0
 62
7
  6
CONTINUOUS
 10
96.2187525893
 20
107.8195724702
  0
SEQEND
  0
POLYLINE
  8
0
 62
7
  6
CONTINUOUS
 66
1
 70
0
  0
VERTEX
  8
0
 62
7
  6
CONTINUOUS
 10
95.6054192559
 20
105.094470337
  0
VERTEX
  8
0
 62
7
  6
CONTINUOUS
 10
95.5984727256
 20
105.145828075
  0
VERTEX
  8
0
 62
7
  6
CONTINUOUS
 10
95.5778864409
 20
105.226030806
  0
VERTEX
  8
0
 62
7
  6
CONTINUOUS
 10
95.5446065718
 20
105.3350613405
  0
SEQEND
  0
POLYLINE
  8
0
 62
7
  6
CONTINUOUS
 66
1
 70
0
  0
VERTEX
  8
0
 62
7
  6
CONTINUOUS
 10
101.4228495451
 20
109.8491664733
  0
VERTEX
  8
0
 62
7
  6
CONTINUOUS
 10
101.5370112157
 20
110.1403415617
  0
VERTEX
  8
0
 62
7
  6
CONTINUOUS
 10
101.5745885566
 20
110.2405490904
  0
VERTEX
  8
0
 62
7
  6
CONTINUOUS
 10
101.5976683243
 20
110.311955725
  0
VERTEX
  8
0
 62
7
  6
CONTINUOUS
 10
101.6054192559
 20
110.3547006721
  0
SEQEND
  0
POLYLINE
  8
0
 62
7
  6
CONTINUOUS
 66
1
 70
0
  0
VERTEX
  8
0
 62
7
  6
CONTINUOUS
 10
108.205325875
 20
105.3603004668
  0
VERTEX
  8
0
 62
7
  6
CONTINUOUS
 10
108.0834212495
 20
105.5110692751
  0
VERTEX
  8
0
 62
7
  6
CONTINUOUS
 10
107.9720819065
 20
105.6873074841
  0
VERTEX
  8
0
 62
7
  6
CONTINUOUS
 10
107.8724889723
 20
105.8854723288
  0
VERTEX
  8
0
 62
7
  6
CONTINUOUS
 10
107.7854325541
 20
106.1020886082
  0
VERTEX
  8
0
 62
7
  6
CONTINUOUS
 10
107.7114231438
 20
106.3338185762
  0
VERTEX
  8
0
 62
7
  6
CONTINUOUS
 10
107.6507512062
 20
106.5775522869
  0
VERTEX
  8
0
 62
7
  6
CONTINUOUS
 10
107.603548884
 20
106.8304567822
  0
VERTEX
  8
0
 62
7
  6
CONTINUOUS
 10
107.5698529294
 20
107.0899560048
  0
VERTEX
  8
0
 62
7
  6
CONTINUOUS
 10
107.5496505706
 20
107.3537132873
  0
VERTEX
  8
0
 62
7
  6
CONTINUOUS
 10
107.5429192559
 20
107.6195724702
  0
SEQEND
  0
POLYLINE
  8
0
 62
7
  6
CONTINUOUS
 66
1
 70
0
  0
VERTEX
  8
0
 62
7
  6
CONTINUOUS
 10
101.5370461822
 20
105.2987131166
  0
VERTEX
  8
0
 62
7
  6
CONTINUOUS
 10
101.4228767421
 20
105.5899080736
  0
VERTEX
  8
0
 62
7
  6
CONTINUOUS
 10
101.3513562741
 20
105.7797349528
  0
VERTEX
  8
0
 62
7
  6
CONTINUOUS
 10
101.2761411816
 20
105.9940071541
  0
VERTEX
  8
0
 62
7
  6
CONTINUOUS
 10
101.2018940183
 20
106.2290304138
  0
VERTEX
  8
0
 62
7
  6
CONTINUOUS
 10
101.1336906296
 20
106.4790974745
  0
VERTEX
  8
0
 62
7
  6
CONTINUOUS
 10
101.0760074912
 20
106.7376767553
  0
SEQEND
  0
POLYLINE
  8
0
 62
7
  6
CONTINUOUS
 66
1
 70
0
  0
VERTEX
  8
0
 62
7
  6
CONTINUOUS
 10
100.9920859226
 20
107.6195724702
  0
VERTEX
  8
0
 62
7
  6
CONTINUOUS
 10
100.9973165047
 20
107.3961418163
  0
VERTEX
  8
0
 62
7
  6
CONTINUOUS
 10
101.013014775
 20
107.1739355688
  0
VERTEX
  8
0
 62
7
  6
CONTINUOUS
 10
101.0392250738
 20
106.9540230244
  0
VERTEX
  8
0
 62
7
  6
CONTINUOUS
 10
101.0760074912
 20
106.7376767553
  0
SEQEND
  0
LINE
  8
0
 62
7
  6
CONTINUOUS
 10
100.9920859226
 20
107.8195724702
 11
100.9920859226
 21
107.6195724702
  0
LINE
  8
SURFACE
 62
6
  6
CONTINUOUS
 10
101.6054192559
 20
101.9695724702
 11
101.6054192559
 21
103.1695724702
  0
LINE
  8
0
 62
7
  6
CONTINUOUS
 10
101.6054192559
 20
101.9695724702
 11
101.6054192559
 21
105.0844442683
  0
LINE
  8
0
 62
7
  6
CONTINUOUS
 10
101.6054192559
 20
110.3547006721
 11
101.6054192559
 21
113.4695724702
  0
LINE
  8
SURFACE
 62
6
  6
CONTINUOUS
 10
101.9554192559
 20
101.9695724702
 11
101.9554192559
 21
103.1695724702
  0
LINE
  8
0
 62
7
  6
CONTINUOUS
 10
102.1000819271
 20
107.8195724702
 11
102.1000819271
 21
107.6195725614
  0
POLYLINE
  8
0
 62
7
  6
CONTINUOUS
 66
1
 70
0
  0
VERTEX
  8
0
 62
7
  6
CONTINUOUS
 10
102.1000819271
 20
107.6195726527
  0
VERTEX
  8
0
 62
7
  6
CONTINUOUS
 10
102.0933101922
 20
107.3515329374
  0
VERTEX
  8
0
 62
7
  6
CONTINUOUS
 10
102.0727404013
 20
107.0799537919
  0
VERTEX
  8
0
 62
7
  6
CONTINUOUS
 10
102.0391479776
 20
106.8114334464
  0
VERTEX
  8
0
 62
7
  6
CONTINUOUS
 10
101.9945819566
 20
106.5515446056
  0
VERTEX
  8
0
 62
7
  6
CONTINUOUS
 10
101.941145481
 20
106.3013980381
  0
VERTEX
  8
0
 62
7
  6
CONTINUOUS
 10
101.8819469208
 20
106.0650349386
  0
VERTEX
  8
0
 62
7
  6
CONTINUOUS
 10
101.8208442904
 20
105.8472930034
  0
VERTEX
  8
0
 62
7
  6
CONTINUOUS
 10
101.7617582186
 20
105.6520527616
  0
VERTEX
  8
0
 62
7
  6
CONTINUOUS
 10
101.664988825
 20
105.344175519
  0
SEQEND
  0
POLYLINE
  8
0
 62
7
  6
CONTINUOUS
 66
1
 70
0
  0
VERTEX
  8
0
 62
7
  6
CONTINUOUS
 10
101.0760074912
 20
108.7014681851
  0
VERTEX
  8
0
 62
7
  6
CONTINUOUS
 10
101.0392247451
 20
108.4851196364
  0
VERTEX
  8
0
 62
7
  6
CONTINUOUS
 10
101.0130144703
 20
108.2652061526
  0
VERTEX
  8
0
 62
7
  6
CONTINUOUS
 10
100.997316386
 20
108.0430005952
  0
VERTEX
  8
0
 62
7
  6
CONTINUOUS
 10
100.9920859226
 20
107.8195724702
  0
SEQEND
  0
POLYLINE
  8
0
 62
7
  6
CONTINUOUS
 66
1
 70
0
  0
VERTEX
  8
0
 62
7
  6
CONTINUOUS
 10
101.0760074912
 20
108.7014681851
  0
VERTEX
  8
0
 62
7
  6
CONTINUOUS
 10
101.133683576
 20
108.9600191356
  0
VERTEX
  8
0
 62
7
  6
CONTINUOUS
 10
101.2018865941
 20
109.2100894256
  0
VERTEX
  8
0
 62
7
  6
CONTINUOUS
 10
101.2761192937
 20
109.4450724879
  0
VERTEX
  8
0
 62
7
  6
CONTINUOUS
 10
101.3513144461
 20
109.6592956475
  0
VERTEX
  8
0
 62
7
  6
CONTINUOUS
 10
101.4228495451
 20
109.8491664733
  0
SEQEND
  0
POLYLINE
  8
0
 62
7
  6
CONTINUOUS
 66
1
 70
0
  0
VERTEX
  8
0
 62
7
  6
CONTINUOUS
 10
101.664988825
 20
105.344175519
  0
VERTEX
  8
0
 62
7
  6
CONTINUOUS
 10
101.6324027263
 20
105.2338123001
  0
VERTEX
  8
0
 62
7
  6
CONTINUOUS
 10
101.6122339411
 20
105.1518591332
  0
VERTEX
  8
0
 62
7
  6
CONTINUOUS
 10
101.6054192559
 20
105.0982876011
  0
SEQEND
  0
POLYLINE
  8
0
 62
7
  6
CONTINUOUS
 66
1
 70
0
  0
VERTEX
  8
0
 62
7
  6
CONTINUOUS
 10
110.2882205242
 20
101.4902848951
  0
VERTEX
  8
0
 62
7
  6
CONTINUOUS
 10
110.2875339423
 20
101.4897518533
  0
VERTEX
  8
0
 62
7
  6
CONTINUOUS
 10
110.292142292
 20
101.4930471279
  0
VERTEX
  8
0
 62
7
  6
CONTINUOUS
 10
110.3057461235
 20
101.5021024191
  0
VERTEX
  8
0
 62
7
  6
CONTINUOUS
 10
110.3273982133
 20
101.5154979056
  0
VERTEX
  8
0
 62
7
  6
CONTINUOUS
 10
110.3561594173
 20
101.5321013418
  0
VERTEX
  8
0
 62
7
  6
CONTINUOUS
 10
110.3914530908
 20
101.5511550141
  0
VERTEX
  8
0
 62
7
  6
CONTINUOUS
 10
110.4330148823
 20
101.5721232837
  0
VERTEX
  8
0
 62
7
  6
CONTINUOUS
 10
110.481008642
 20
101.5946836159
  0
VERTEX
  8
0
 62
7
  6
CONTINUOUS
 10
110.5355544971
 20
101.6184303404
  0
VERTEX
  8
0
 62
7
  6
CONTINUOUS
 10
110.5972742276
 20
101.6430798586
  0
VERTEX
  8
0
 62
7
  6
CONTINUOUS
 10
110.666694902
 20
101.6681552163
  0
VERTEX
  8
0
 62
7
  6
CONTINUOUS
 10
110.7448104881
 20
101.6931388081
  0
VERTEX
  8
0
 62
7
  6
CONTINUOUS
 10
110.8325724756
 20
101.7171870843
  0
VERTEX
  8
0
 62
7
  6
CONTINUOUS
 10
110.9315715394
 20
101.7392208489
  0
VERTEX
  8
0
 62
7
  6
CONTINUOUS
 10
111.0426409837
 20
101.7574396647
  0
VERTEX
  8
0
 62
7
  6
CONTINUOUS
 10
111.1658620419
 20
101.7694588449
  0
VERTEX
  8
0
 62
7
  6
CONTINUOUS
 10
111.2725722872
 20
101.772780825
  0
SEQEND
  0
POLYLINE
  8
0
 62
7
  6
CONTINUOUS
 66
1
 70
0
  0
VERTEX
  8
0
 62
7
  6
CONTINUOUS
 10
101.6749524658
 20
110.0628248919
  0
VERTEX
  8
0
 62
7
  6
CONTINUOUS
 10
101.7858839419
 20
109.7087035159
  0
VERTEX
  8
0
 62
7
  6
CONTINUOUS
 10
101.8514025462
 20
109.4855129633
  0
VERTEX
  8
0
 62
7
  6
CONTINUOUS
 10
101.9169993381
 20
109.2380651494
  0
VERTEX
  8
0
 62
7
  6
CONTINUOUS
 10
101.9776630385
 20
108.972031566
  0
VERTEX
  8
0
 62
7
  6
CONTINUOUS
 10
102.0289724801
 20
108.6934419635
  0
VERTEX
  8
0
 62
7
  6
CONTINUOUS
 10
102.0680422169
 20
108.4039730457
  0
VERTEX
  8
0
 62
7
  6
CONTINUOUS
 10
102.092138043
 20
108.1099159534
  0
VERTEX
  8
0
 62
7
  6
CONTINUOUS
 10
102.1000819271
 20
107.8195724702
  0
SEQEND
  0
POLYLINE
  8
0
 62
7
  6
CONTINUOUS
 66
1
 70
0
  0
VERTEX
  8
0
 62
7
  6
CONTINUOUS
 10
101.6054192559
 20
105.0844442683
  0
VERTEX
  8
0
 62
7
  6
CONTINUOUS
 10
101.5976721577
 20
105.1271751081
  0
VERTEX
  8
0
 62
7
  6
CONTINUOUS
 10
101.574607079
 20
105.1985437739
  0
VERTEX
  8
0
 62
7
  6
CONTINUOUS
 10
101.5370461822
 20
105.2987131166
  0
SEQEND
  0
POLYLINE
  8
0
 62
7
  6
CONTINUOUS
 66
1
 70
0
  0
VERTEX
  8
0
 62
7
  6
CONTINUOUS
 10
101.6054192559
 20
110.3408573393
  0
VERTEX
  8
0
 62
7
  6
CONTINUOUS
 10
101.6134102731
 20
110.2815574346
  0
VERTEX
  8
0
 62
7
  6
CONTINUOUS
 10
101.6369858469
 20
110.1889778469
  0
VERTEX
  8
0
 62
7
  6
CONTINUOUS
 10
101.6749524658
 20
110.0628248919
  0
SEQEND
  0
LINE
  8
0
 62
7
  6
CONTINUOUS
 10
107.5429192559
 20
107.6195724702
 11
107.5429192559
 21
107.8195724702
  0
POLYLINE
  8
0
 62
7
  6
CONTINUOUS
 66
1
 70
0
  0
VERTEX
  8
0
 62
7
  6
CONTINUOUS
 10
107.5429192559
 20
107.8195724702
  0
VERTEX
  8
0
 62
7
  6
CONTINUOUS
 10
107.5496511088
 20
108.085442253
  0
VERTEX
  8
0
 62
7
  6
CONTINUOUS
 10
107.5698546054
 20
108.3492052315
  0
VERTEX
  8
0
 62
7
  6
CONTINUOUS
 10
107.6035516473
 20
108.6087056884
  0
VERTEX
  8
0
 62
7
  6
CONTINUOUS
 10
107.6507546342
 20
108.8616084603
  0
VERTEX
  8
0
 62
7
  6
CONTINUOUS
 10
107.7114266421
 20
109.1053387338
  0
VERTEX
  8
0
 62
7
  6
CONTINUOUS
 10
107.7854355085
 20
109.3370645693
  0
VERTEX
  8
0
 62
7
  6
CONTINUOUS
 10
107.8724909064
 20
109.5536769165
  0
VERTEX
  8
0
 62
7
  6
CONTINUOUS
 10
107.9720827212
 20
109.7518389047
  0
VERTEX
  8
0
 62
7
  6
CONTINUOUS
 10
108.0834212931
 20
109.9280757265
  0
VERTEX
  8
0
 62
7
  6
CONTINUOUS
 10
108.205325875
 20
110.0788444736
  0
SEQEND
  0
POLYLINE
  8
0
 62
7
  6
CONTINUOUS
 66
1
 70
0
  0
VERTEX
  8
0
 62
7
  6
CONTINUOUS
 10
108.7379370603
 20
105.1498679049
  0
VERTEX
  8
0
 62
7
  6
CONTINUOUS
 10
108.7135481303
 20
105.0958628434
  0
VERTEX
  8
0
 62
7
  6
CONTINUOUS
 10
108.7054192559
 20
105.0713377354
  0
SEQEND
  0
POLYLINE
  8
0
 62
7
  6
CONTINUOUS
 66
1
 70
0
  0
VERTEX
  8
0
 62
7
  6
CONTINUOUS
 10
108.8327140051
 20
110.0916663924
  0
VERTEX
  8
0
 62
7
  6
CONTINUOUS
 10
108.9009827036
 20
109.9462385463
  0
VERTEX
  8
0
 62
7
  6
CONTINUOUS
 10
108.9803976628
 20
109.76903976
  0
VERTEX
  8
0
 62
7
  6
CONTINUOUS
 10
109.065725253
 20
109.5647972663
  0
VERTEX
  8
0
 62
7
  6
CONTINUOUS
 10
109.1518223362
 20
109.3375964462
  0
VERTEX
  8
0
 62
7
  6
CONTINUOUS
 10
109.2332665813
 20
109.0924686909
  0
VERTEX
  8
0
 62
7
  6
CONTINUOUS
 10
109.3047698659
 20
108.8358541918
  0
VERTEX
  8
0
 62
7
  6
CONTINUOUS
 10
109.3625086654
 20
108.5727151225
  0
VERTEX
  8
0
 62
7
  6
CONTINUOUS
 10
109.4037334159
 20
108.3089462607
  0
SEQEND
  0
POLYLINE
  8
0
 62
7
  6
CONTINUOUS
 66
1
 70
0
  0
VERTEX
  8
0
 62
7
  6
CONTINUOUS
 10
108.7054192559
 20
110.367807205
  0
VERTEX
  8
0
 62
7
  6
CONTINUOUS
 10
108.7135538416
 20
110.3432683652
  0
VERTEX
  8
0
 62
7
  6
CONTINUOUS
 10
108.7379639222
 20
110.2892199094
  0
VERTEX
  8
0
 62
7
  6
CONTINUOUS
 10
108.8327140051
 20
110.0916663924
  0
SEQEND
  0
POLYLINE
  8
0
 62
7
  6
CONTINUOUS
 66
1
 70
0
  0
VERTEX
  8
0
 62
7
  6
CONTINUOUS
 10
109.4037334159
 20
108.3089462607
  0
VERTEX
  8
0
 62
7
  6
CONTINUOUS
 10
109.4204320125
 20
108.1464108569
  0
VERTEX
  8
0
 62
7
  6
CONTINUOUS
 10
109.4304242537
 20
107.9832008363
  0
VERTEX
  8
0
 62
7
  6
CONTINUOUS
 10
109.4337525893
 20
107.8195724702
  0
SEQEND
  0
LINE
  8
SURFACE
 62
6
  6
CONTINUOUS
 10
108.7054192559
 20
103.1695724702
 11
108.7054192559
 21
101.9695724702
  0
LINE
  8
0
 62
7
  6
CONTINUOUS
 10
108.7054192559
 20
101.9708055191
 11
108.7054192559
 21
105.0713377354
  0
LINE
  8
0
 62
7
  6
CONTINUOUS
 10
108.7054192559
 20
110.367807205
 11
108.7054192559
 21
113.4683394213
  0
LINE
  8
0
 62
7
  6
CONTINUOUS
 10
109.4337525893
 20
107.8195724702
 11
109.4337525893
 21
107.6195724702
  0
POLYLINE
  8
0
 62
7
  6
CONTINUOUS
 66
1
 70
0
  0
VERTEX
  8
0
 62
7
  6
CONTINUOUS
 10
109.4337525893
 20
107.6195724702
  0
VERTEX
  8
0
 62
7
  6
CONTINUOUS
 10
109.4304242164
 20
107.4559431883
  0
VERTEX
  8
0
 62
7
  6
CONTINUOUS
 10
109.4204319397
 20
107.2927331933
  0
VERTEX
  8
0
 62
7
  6
CONTINUOUS
 10
109.4037334159
 20
107.1301986797
  0
SEQEND
  0
POLYLINE
  8
0
 62
7
  6
CONTINUOUS
 66
1
 70
0
  0
VERTEX
  8
0
 62
7
  6
CONTINUOUS
 10
109.4037334159
 20
107.1301986797
  0
VERTEX
  8
0
 62
7
  6
CONTINUOUS
 10
109.3624869118
 20
106.8663143311
  0
VERTEX
  8
0
 62
7
  6
CONTINUOUS
 10
109.304716663
 20
106.603077935
  0
VERTEX
  8
0
 62
7
  6
CONTINUOUS
 10
109.2331982075
 20
106.3464533307
  0
VERTEX
  8
0
 62
7
  6
CONTINUOUS
 10
109.1517353965
 20
106.1013050836
  0
VERTEX
  8
0
 62
7
  6
CONTINUOUS
 10
109.0656178685
 20
105.8740792773
  0
VERTEX
  8
0
 62
7
  6
CONTINUOUS
 10
108.9802932859
 20
105.6698651233
  0
VERTEX
  8
0
 62
7
  6
CONTINUOUS
 10
108.9008892763
 20
105.4927036289
  0
VERTEX
  8
0
 62
7
  6
CONTINUOUS
 10
108.8326265009
 20
105.3472951143
  0
VERTEX
  8
0
 62
7
  6
CONTINUOUS
 10
108.7379370603
 20
105.1498679049
  0
SEQEND
  0
POLYLINE
  8
0
 62
7
  6
CONTINUOUS
 66
1
 70
0
  0
VERTEX
  8
0
 62
7
  6
CONTINUOUS
 10
114.7054192559
 20
105.1901328187
  0
VERTEX
  8
0
 62
7
  6
CONTINUOUS
 10
114.6997461337
 20
105.2741277498
  0
VERTEX
  8
0
 62
7
  6
CONTINUOUS
 10
114.6831446261
 20
105.3814399514
  0
VERTEX
  8
0
 62
7
  6
CONTINUOUS
 10
114.6566234337
 20
105.5121411038
  0
VERTEX
  8
0
 62
7
  6
CONTINUOUS
 10
114.6215882453
 20
105.6663684966
  0
VERTEX
  8
0
 62
7
  6
CONTINUOUS
 10
114.5801820769
 20
105.8427649772
  0
VERTEX
  8
0
 62
7
  6
CONTINUOUS
 10
114.5349895243
 20
106.0395626915
  0
SEQEND
  0
POLYLINE
  8
0
 62
7
  6
CONTINUOUS
 66
1
 70
0
  0
VERTEX
  8
0
 62
7
  6
CONTINUOUS
 10
114.3795859226
 20
107.6195724702
  0
VERTEX
  8
0
 62
7
  6
CONTINUOUS
 10
114.3840049601
 20
107.3379709411
  0
VERTEX
  8
0
 62
7
  6
CONTINUOUS
 10
114.3972288065
 20
107.0594881184
  0
VERTEX
  8
0
 62
7
  6
CONTINUOUS
 10
114.4191565102
 20
106.7872471667
  0
VERTEX
  8
0
 62
7
  6
CONTINUOUS
 10
114.44961319
 20
106.5243988818
  0
VERTEX
  8
0
 62
7
  6
CONTINUOUS
 10
114.4883412692
 20
106.2741129759
  0
VERTEX
  8
0
 62
7
  6
CONTINUOUS
 10
114.5349895243
 20
106.0395626915
  0
SEQEND
  0
LINE
  8
0
 62
7
  6
CONTINUOUS
 10
114.3795859226
 20
107.8195724702
 11
114.3795859226
 21
107.6195724702
  0
LINE
  8
0
 62
7
  6
CONTINUOUS
 10
114.7054192559
 20
105.1901328187
 11
114.7054192559
 21
101.9695724702
  0
LINE
  8
0
 62
7
  6
CONTINUOUS
 10
114.7054192559
 20
110.2490121217
 11
114.7054192559
 21
113.4695724702
  0
POLYLINE
  8
0
 62
7
  6
CONTINUOUS
 66
1
 70
0
  0
VERTEX
  8
0
 62
7
  6
CONTINUOUS
 10
114.5349895243
 20
109.3995822489
  0
VERTEX
  8
0
 62
7
  6
CONTINUOUS
 10
114.4883411241
 20
109.1650311404
  0
VERTEX
  8
0
 62
7
  6
CONTINUOUS
 10
114.4496129363
 20
108.9147441756
  0
VERTEX
  8
0
 62
7
  6
CONTINUOUS
 10
114.419156272
 20
108.6518953393
  0
VERTEX
  8
0
 62
7
  6
CONTINUOUS
 10
114.3972286524
 20
108.3796544061
  0
VERTEX
  8
0
 62
7
  6
CONTINUOUS
 10
114.384004908
 20
108.1011723448
  0
VERTEX
  8
0
 62
7
  6
CONTINUOUS
 10
114.3795859226
 20
107.8195724702
  0
SEQEND
  0
POLYLINE
  8
0
 62
7
  6
CONTINUOUS
 66
1
 70
0
  0
VERTEX
  8
0
 62
7
  6
CONTINUOUS
 10
114.5349895243
 20
109.3995822489
  0
VERTEX
  8
0
 62
7
  6
CONTINUOUS
 10
114.5801846555
 20
109.5963909783
  0
VERTEX
  8
0
 62
7
  6
CONTINUOUS
 10
114.6215947775
 20
109.7728044493
  0
VERTEX
  8
0
 62
7
  6
CONTINUOUS
 10
114.6566296388
 20
109.9270323083
  0
VERTEX
  8
0
 62
7
  6
CONTINUOUS
 10
114.6831473782
 20
110.0577200351
  0
VERTEX
  8
0
 62
7
  6
CONTINUOUS
 10
114.6997454287
 20
110.1650112059
  0
VERTEX
  8
0
 62
7
  6
CONTINUOUS
 10
114.7054192559
 20
110.2490121217
  0
SEQEND
  0
LINE
  8
0
 62
7
  6
CONTINUOUS
 10
159.488437463
 20
173.9668496279
 11
159.288437463
 21
173.9668496279
  0
LINE
  8
0
 62
7
  6
CONTINUOUS
 10
152.888437463
 20
176.5168496279
 11
152.888437463
 21
201.9168496279
  0
POLYLINE
  8
SURFACE
 62
6
  6
CONTINUOUS
 66
1
 70
0
  0
VERTEX
  8
SURFACE
 62
6
  6
CONTINUOUS
 10
163.938437463
 20
183.4239803784
  0
VERTEX
  8
SURFACE
 62
6
  6
CONTINUOUS
 10
164.010505157
 20
183.4295700469
  0
VERTEX
  8
SURFACE
 62
6
  6
CONTINUOUS
 10
164.0864965818
 20
183.4476117443
  0
VERTEX
  8
SURFACE
 62
6
  6
CONTINUOUS
 10
164.1653113174
 20
183.4796489745
  0
VERTEX
  8
SURFACE
 62
6
  6
CONTINUOUS
 10
164.2444985998
 20
183.5258573411
  0
VERTEX
  8
SURFACE
 62
6
  6
CONTINUOUS
 10
164.3213839484
 20
183.5848573226
  0
VERTEX
  8
SURFACE
 62
6
  6
CONTINUOUS
 10
164.3959725164
 20
183.6566542636
  0
VERTEX
  8
SURFACE
 62
6
  6
CONTINUOUS
 10
164.4691727125
 20
183.7433861428
  0
VERTEX
  8
SURFACE
 62
6
  6
CONTINUOUS
 10
164.5388877652
 20
183.8454314482
  0
VERTEX
  8
SURFACE
 62
6
  6
CONTINUOUS
 10
164.6008893552
 20
183.9607292124
  0
VERTEX
  8
SURFACE
 62
6
  6
CONTINUOUS
 10
164.6485111569
 20
184.080823193
  0
VERTEX
  8
SURFACE
 62
6
  6
CONTINUOUS
 10
164.6783427229
 20
184.1999860524
  0
VERTEX
  8
SURFACE
 62
6
  6
CONTINUOUS
 10
164.688437463
 20
184.3130972812
  0
SEQEND
  0
LINE
  8
SURFACE
 62
6
  6
CONTINUOUS
 10
165.138437463
 20
183.4239803784
 11
163.938437463
 21
183.4239803784
  0
LINE
  8
0
 62
7
  6
CONTINUOUS
 10
156.738437463
 20
176.5168496279
 11
156.738437463
 21
185.1668496279
  0
LINE
  8
0
 62
7
  6
CONTINUOUS
 10
156.738437463
 20
193.2668496279
 11
156.738437463
 21
201.9168496279
  0
LINE
  8
0
 62
7
  6
CONTINUOUS
 10
159.488437463
 20
187.7168496279
 11
159.2884375548
 21
187.7168496279
  0
LINE
  8
SURFACE
 62
6
  6
CONTINUOUS
 10
159.388437463
 20
202.9168496279
 11
159.388437463
 21
192.4168496279
  0
LINE
  8
DEFAULT_1
 62
7
  6
CENTER
 10
159.388437463
 20
169.8668496279
 11
159.388437463
 21
208.5668496279
  0
LINE
  8
0
 62
7
  6
CONTINUOUS
 10
153.638437463
 20
188.3168496279
 11
165.138437463
 21
188.3168496279
  0
LINE
  8
DEFAULT_1
 62
7
  6
CENTER
 10
150.8884374099
 20
189.2168496279
 11
167.8884375172
 21
189.2168496279
  0
LINE
  8
0
 62
7
  6
CONTINUOUS
 10
159.488437463
 20
190.7168496279
 11
159.2884372817
 21
190.7168496279
  0
LINE
  8
0
 62
7
  6
CONTINUOUS
 10
162.038437463
 20
185.1668496279
 11
162.038437463
 21
176.5168496279
  0
LINE
  8
0
 62
7
  6
CONTINUOUS
 10
162.038437463
 20
193.2668496279
 11
162.038437463
 21
201.9168496279
  0
LINE
  8
SURFACE
 62
6
  6
CONTINUOUS
 10
164.688437463
 20
194.3602782564
 11
164.688437463
 21
193.2400426095
  0
LINE
  8
SURFACE
 62
6
  6
CONTINUOUS
 10
164.688437463
 20
184.3130972312
 11
164.688437463
 21
185.2955949445
  0
POLYLINE
  8
SURFACE
 62
6
  6
CONTINUOUS
 66
1
 70
0
  0
VERTEX
  8
SURFACE
 62
6
  6
CONTINUOUS
 10
164.6783057609
 20
184.1997717823
  0
VERTEX
  8
SURFACE
 62
6
  6
CONTINUOUS
 10
164.6527351371
 20
184.0941503367
  0
VERTEX
  8
SURFACE
 62
6
  6
CONTINUOUS
 10
164.6156989599
 20
183.9937863159
  0
VERTEX
  8
SURFACE
 62
6
  6
CONTINUOUS
 10
164.567588765
 20
183.8950471798
  0
VERTEX
  8
SURFACE
 62
6
  6
CONTINUOUS
 10
164.5072819887
 20
183.7963648596
  0
VERTEX
  8
SURFACE
 62
6
  6
CONTINUOUS
 10
164.4349457356
 20
183.7006032736
  0
VERTEX
  8
SURFACE
 62
6
  6
CONTINUOUS
 10
164.3528876748
 20
183.6133294286
  0
VERTEX
  8
SURFACE
 62
6
  6
CONTINUOUS
 10
164.2670347715
 20
183.5416646766
  0
VERTEX
  8
SURFACE
 62
6
  6
CONTINUOUS
 10
164.1801335328
 20
183.4872137458
  0
VERTEX
  8
SURFACE
 62
6
  6
CONTINUOUS
 10
164.0954328307
 20
183.4505579101
  0
VERTEX
  8
SURFACE
 62
6
  6
CONTINUOUS
 10
164.0149853907
 20
183.4302870303
  0
VERTEX
  8
SURFACE
 62
6
  6
CONTINUOUS
 10
163.938437463
 20
183.4239803784
  0
SEQEND
  0
LINE
  8
SURFACE
 62
6
  6
CONTINUOUS
 10
165.138437463
 20
195.3736187687
 11
163.938437463
 21
195.3736187687
  0
LINE
  8
0
 62
7
  6
CONTINUOUS
 10
165.888437463
 20
201.9168496279
 11
165.888437463
 21
176.5168496279
  0
POLYLINE
  8
SURFACE
 62
6
  6
CONTINUOUS
 66
1
 70
0
  0
VERTEX
  8
SURFACE
 62
6
  6
CONTINUOUS
 10
163.938437463
 20
195.3736187687
  0
VERTEX
  8
SURFACE
 62
6
  6
CONTINUOUS
 10
164.0037839593
 20
195.3681358904
  0
VERTEX
  8
SURFACE
 62
6
  6
CONTINUOUS
 10
164.0730239008
 20
195.3503580997
  0
VERTEX
  8
SURFACE
 62
6
  6
CONTINUOUS
 10
164.1446716555
 20
195.3189714775
  0
VERTEX
  8
SURFACE
 62
6
  6
CONTINUOUS
 10
164.2171955192
 20
195.2736342828
  0
VERTEX
  8
SURFACE
 62
6
  6
CONTINUOUS
 10
164.289669442
 20
195.2143780047
  0
VERTEX
  8
SURFACE
 62
6
  6
CONTINUOUS
 10
164.3601537584
 20
195.1426771282
  0
VERTEX
  8
SURFACE
 62
6
  6
CONTINUOUS
 10
164.4282967364
 20
195.0588212197
  0
VERTEX
  8
SURFACE
 62
6
  6
CONTINUOUS
 10
164.4932897262
 20
194.9630745213
  0
SEQEND
  0
LINE
  8
SURFACE
 62
6
  6
CONTINUOUS
 10
164.5535874924
 20
194.8560898167
 11
164.4933327905
 21
194.9630050876
  0
POLYLINE
  8
SURFACE
 62
6
  6
CONTINUOUS
 66
1
 70
0
  0
VERTEX
  8
SURFACE
 62
6
  6
CONTINUOUS
 10
164.5535723397
 20
194.856119531
  0
VERTEX
  8
SURFACE
 62
6
  6
CONTINUOUS
 10
164.6067852862
 20
194.7392599892
  0
VERTEX
  8
SURFACE
 62
6
  6
CONTINUOUS
 10
164.6499613037
 20
194.6138128358
  0
VERTEX
  8
SURFACE
 62
6
  6
CONTINUOUS
 10
164.6784451331
 20
194.4852192209
  0
VERTEX
  8
SURFACE
 62
6
  6
CONTINUOUS
 10
164.688437463
 20
194.3602782564
  0
SEQEND
  0
POLYLINE
  8
SURFACE
 62
6
  6
CONTINUOUS
 66
1
 70
0
  0
VERTEX
  8
SURFACE
 62
6
  6
CONTINUOUS
 10
165.888437463
 20
183.6276936295
  0
VERTEX
  8
SURFACE
 62
6
  6
CONTINUOUS
 10
165.8795355189
 20
183.5975833463
  0
VERTEX
  8
SURFACE
 62
6
  6
CONTINUOUS
 10
165.8529273272
 20
183.5677043006
  0
VERTEX
  8
SURFACE
 62
6
  6
CONTINUOUS
 10
165.8090643884
 20
183.5387955713
  0
VERTEX
  8
SURFACE
 62
6
  6
CONTINUOUS
 10
165.7488027707
 20
183.5116150336
  0
VERTEX
  8
SURFACE
 62
6
  6
CONTINUOUS
 10
165.6733944871
 20
183.4869199246
  0
VERTEX
  8
SURFACE
 62
6
  6
CONTINUOUS
 10
165.5844749583
 20
183.4654440891
  0
VERTEX
  8
SURFACE
 62
6
  6
CONTINUOUS
 10
165.484044502
 20
183.4478706931
  0
VERTEX
  8
SURFACE
 62
6
  6
CONTINUOUS
 10
165.3744398998
 20
183.434801222
  0
VERTEX
  8
SURFACE
 62
6
  6
CONTINUOUS
 10
165.2582875401
 20
183.4267229759
  0
VERTEX
  8
SURFACE
 62
6
  6
CONTINUOUS
 10
165.138437463
 20
183.4239803784
  0
SEQEND
  0
POLYLINE
  8
SURFACE
 62
6
  6
CONTINUOUS
 66
1
 70
0
  0
VERTEX
  8
SURFACE
 62
6
  6
CONTINUOUS
 10
165.888437463
 20
195.1988060208
  0
VERTEX
  8
SURFACE
 62
6
  6
CONTINUOUS
 10
165.8794525572
 20
195.2247827193
  0
VERTEX
  8
SURFACE
 62
6
  6
CONTINUOUS
 10
165.8526272982
 20
195.250529217
  0
VERTEX
  8
SURFACE
 62
6
  6
CONTINUOUS
 10
165.8084676146
 20
195.2754036313
  0
VERTEX
  8
SURFACE
 62
6
  6
CONTINUOUS
 10
165.7478910367
 20
195.2987516701
  0
VERTEX
  8
SURFACE
 62
6
  6
CONTINUOUS
 10
165.6722149881
 20
195.319924242
  0
VERTEX
  8
SURFACE
 62
6
  6
CONTINUOUS
 10
165.5831391335
 20
195.3382979758
  0
VERTEX
  8
SURFACE
 62
6
  6
CONTINUOUS
 10
165.4827197961
 20
195.353299104
  0
VERTEX
  8
SURFACE
 62
6
  6
CONTINUOUS
 10
165.3733336153
 20
195.3644295879
  0
VERTEX
  8
SURFACE
 62
6
  6
CONTINUOUS
 10
165.2576248727
 20
195.3712933738
  0
VERTEX
  8
SURFACE
 62
6
  6
CONTINUOUS
 10
165.138437463
 20
195.3736187687
  0
SEQEND
  0
LINE
  8
0
 62
7
  6
CONTINUOUS
 10
159.288437463
 20
204.4668496279
 11
159.488437463
 21
204.4668496279
  0
ARC
  8
0
 62
7
  6
CONTINUOUS
 10
43.1054192559
 20
175.8953991121
 40
4.5
 50
180.0
 51
194.9027
  0
ARC
  8
0
 62
7
  6
CONTINUOUS
 10
39.8054192559
 20
175.8953991121
 40
4.5
 50
345.0973
 51
360.0
  0
ARC
  8
0
 62
7
  6
CONTINUOUS
 10
55.8054192559
 20
175.8953991121
 40
4.5
 50
180.0
 51
194.9027
  0
ARC
  8
0
 62
7
  6
CONTINUOUS
 10
52.5054192559
 20
175.8953991121
 40
4.5
 50
345.0973
 51
360.0
  0
ARC
  8
0
 62
7
  6
CONTINUOUS
 10
40.0974131565
 20
172.6168518755
 40
0.75
 50
194.9027
 51
269.9999893567
  0
ARC
  8
0
 62
7
  6
CONTINUOUS
 10
52.7974131565
 20
172.6168518755
 40
0.75
 50
194.9027
 51
269.9999893567
  0
ARC
  8
0
 62
7
  6
CONTINUOUS
 10
42.8134253554
 20
172.6168518755
 40
0.75
 50
270.0000106433
 51
345.0973
  0
ARC
  8
0
 62
7
  6
CONTINUOUS
 10
55.5134253554
 20
172.6168518755
 40
0.75
 50
270.0000106433
 51
345.0973
  0
ARC
  8
0
 62
7
  6
CONTINUOUS
 10
49.3054192559
 20
184.3639592404
 40
5.0
 50
165.12103866
 51
180.0
  0
ARC
  8
0
 62
7
  6
CONTINUOUS
 10
46.3054192559
 20
184.3639592404
 40
5.0
 50
0.0
 51
14.87896134
  0
ARC
  8
0
 62
7
  6
CONTINUOUS
 10
41.1054192559
 20
185.8168496279
 40
2.5
 50
90.0
 51
180.0
  0
ARC
  8
0
 62
7
  6
CONTINUOUS
 10
55.7236643596
 20
189.0668496279
 40
0.75
 50
270.0
 51
345.12103866
  0
ARC
  8
0
 62
7
  6
CONTINUOUS
 10
52.5871741522
 20
189.0668496279
 40
0.75
 50
194.87896134
 51
270.0
  0
ARC
  8
0
 62
7
  6
CONTINUOUS
 10
43.0236643596
 20
189.0668496279
 40
0.75
 50
270.0
 51
345.12103866
  0
ARC
  8
0
 62
7
  6
CONTINUOUS
 10
68.5054192559
 20
175.8953991121
 40
4.5
 50
180.0
 51
194.9027
  0
ARC
  8
0
 62
7
  6
CONTINUOUS
 10
65.2054192559
 20
175.8953991121
 40
4.5
 50
345.0973
 51
360.0
  0
ARC
  8
0
 62
7
  6
CONTINUOUS
 10
65.4974131565
 20
172.6168518755
 40
0.75
 50
194.9027
 51
269.9999893567
  0
ARC
  8
0
 62
7
  6
CONTINUOUS
 10
68.2134253554
 20
172.6168518755
 40
0.75
 50
270.0000106433
 51
345.0973
  0
ARC
  8
0
 62
7
  6
CONTINUOUS
 10
62.0054192559
 20
184.3639592404
 40
5.0
 50
165.12103866
 51
180.0
  0
ARC
  8
0
 62
7
  6
CONTINUOUS
 10
59.0054192559
 20
184.3639592404
 40
5.0
 50
0.0
 51
14.87896134
  0
ARC
  8
0
 62
7
  6
CONTINUOUS
 10
74.7054192559
 20
184.3639592404
 40
5.0
 50
165.12103866
 51
180.0
  0
ARC
  8
0
 62
7
  6
CONTINUOUS
 10
71.4554192559
 20
184.2415763717
 40
5.0
 50
0.0
 51
20.394876082
  0
ARC
  8
0
 62
7
  6
CONTINUOUS
 10
68.4236643596
 20
189.0668496279
 40
0.75
 50
270.0
 51
345.12103866
  0
ARC
  8
0
 62
7
  6
CONTINUOUS
 10
65.2871741522
 20
189.0668496279
 40
0.75
 50
194.87896134
 51
270.0
  0
ARC
  8
0
 62
7
  6
CONTINUOUS
 10
52.6554192559
 20
194.0697400154
 40
5.0
 50
345.12103866
 51
360.0
  0
ARC
  8
0
 62
7
  6
CONTINUOUS
 10
55.6554192559
 20
194.0697400154
 40
5.0
 50
180.0
 51
194.87896134
  0
ARC
  8
0
 62
7
  6
CONTINUOUS
 10
39.9554192559
 20
194.0697400154
 40
5.0
 50
345.12103866
 51
360.0
  0
ARC
  8
0
 62
7
  6
CONTINUOUS
 10
46.2371741522
 20
189.3668496279
 40
0.75
 50
90.0
 51
165.12103866
  0
ARC
  8
0
 62
7
  6
CONTINUOUS
 10
49.3736643596
 20
189.3668496279
 40
0.75
 50
14.87896134
 51
90.0
  0
ARC
  8
0
 62
7
  6
CONTINUOUS
 10
46.1554192559
 20
202.5383001436
 40
4.5
 50
0.0
 51
14.9027
  0
ARC
  8
0
 62
7
  6
CONTINUOUS
 10
49.4554192559
 20
202.5383001436
 40
4.5
 50
165.0973
 51
180.0
  0
ARC
  8
0
 62
7
  6
CONTINUOUS
 10
49.1634253554
 20
205.8168473802
 40
0.75
 50
14.9027
 51
89.9999893567
  0
ARC
  8
0
 62
7
  6
CONTINUOUS
 10
46.4474131565
 20
205.8168473802
 40
0.75
 50
90.0000106433
 51
165.0973
  0
ARC
  8
0
 62
7
  6
CONTINUOUS
 10
65.3554192559
 20
194.0697400154
 40
5.0
 50
345.12103866
 51
360.0
  0
ARC
  8
0
 62
7
  6
CONTINUOUS
 10
68.3554192559
 20
194.0697400154
 40
5.0
 50
180.0
 51
194.87896134
  0
ARC
  8
0
 62
7
  6
CONTINUOUS
 10
58.9371741522
 20
189.3668496279
 40
0.75
 50
90.0
 51
165.12103866
  0
ARC
  8
0
 62
7
  6
CONTINUOUS
 10
62.0736643596
 20
189.3668496279
 40
0.75
 50
14.87896134
 51
90.0
  0
ARC
  8
0
 62
7
  6
CONTINUOUS
 10
74.0841059397
 20
189.3668496279
 40
0.75
 50
20.394876082
 51
90.0
  0
ARC
  8
0
 62
7
  6
CONTINUOUS
 10
71.6371741522
 20
189.3668496279
 40
0.75
 50
90.0
 51
165.12103866
  0
ARC
  8
0
 62
7
  6
CONTINUOUS
 10
71.5554192559
 20
201.7665658007
 40
4.5
 50
0.0
 51
21.4
  0
ARC
  8
0
 62
7
  6
CONTINUOUS
 10
74.8554192559
 20
202.5383001436
 40
4.5
 50
165.0973
 51
180.0
  0
ARC
  8
0
 62
7
  6
CONTINUOUS
 10
58.8554192559
 20
202.5383001436
 40
4.5
 50
0.0
 51
14.9027
  0
ARC
  8
0
 62
7
  6
CONTINUOUS
 10
62.1554192559
 20
202.5383001436
 40
4.5
 50
165.0973
 51
180.0
  0
ARC
  8
0
 62
7
  6
CONTINUOUS
 10
73.9958169137
 20
205.8168469673
 40
0.75
 50
21.4
 51
89.7849163593
  0
ARC
  8
0
 62
7
  6
CONTINUOUS
 10
61.8634253554
 20
205.8168473802
 40
0.75
 50
14.9027
 51
89.9999893567
  0
ARC
  8
0
 62
7
  6
CONTINUOUS
 10
71.8474131565
 20
205.8168473802
 40
0.75
 50
90.0000106433
 51
165.0973
  0
ARC
  8
0
 62
7
  6
CONTINUOUS
 10
59.1474131565
 20
205.8168473802
 40
0.75
 50
90.0000106433
 51
165.0973
  0
ARC
  8
0
 62
7
  6
CONTINUOUS
 10
78.5631938578
 20
172.8668499259
 40
0.75
 50
201.8014340079
 51
270.0000091071
  0
ARC
  8
0
 62
7
  6
CONTINUOUS
 10
80.5476446548
 20
172.8668499278
 40
0.75
 50
269.9999908333
 51
338.1985658314
  0
ARC
  8
0
 62
7
  6
CONTINUOUS
 10
80.9554192559
 20
176.9834704439
 40
4.5
 50
180.0
 51
201.8014094864
  0
ARC
  8
0
 62
7
  6
CONTINUOUS
 10
78.1554192559
 20
176.9834704439
 40
4.5
 50
338.1985905136
 51
360.0
  0
ARC
  8
0
 62
7
  6
CONTINUOUS
 10
91.2875299054
 20
172.8668499258
 40
0.75
 50
199.2900703347
 51
270.0000079666
  0
ARC
  8
0
 62
7
  6
CONTINUOUS
 10
93.2233086071
 20
172.8668499278
 40
0.75
 50
269.9999919805
 51
340.7099295051
  0
ARC
  8
0
 62
7
  6
CONTINUOUS
 10
93.8554192559
 20
176.8816054067
 40
4.5
 50
180.0
 51
199.2900462192
  0
ARC
  8
0
 62
7
  6
CONTINUOUS
 10
90.6554192559
 20
176.8816054067
 40
4.5
 50
340.7099537808
 51
360.0
  0
ARC
  8
0
 62
7
  6
CONTINUOUS
 10
87.6554192559
 20
185.7052468735
 40
5.0
 50
151.3360428897
 51
180.0
  0
ARC
  8
0
 62
7
  6
CONTINUOUS
 10
84.3554192559
 20
185.339393215
 40
5.0
 50
0.0
 51
28.6639571103
  0
ARC
  8
0
 62
7
  6
CONTINUOUS
 10
93.2106678301
 20
188.8168496279
 40
0.75
 50
270.0
 51
331.3360428897
  0
ARC
  8
0
 62
7
  6
CONTINUOUS
 10
91.3001706818
 20
188.8168496279
 40
0.75
 50
208.6639571103
 51
270.0
  0
ARC
  8
0
 62
7
  6
CONTINUOUS
 10
80.5106678301
 20
188.8168496279
 40
0.75
 50
270.0
 51
331.3360428897
  0
ARC
  8
0
 62
7
  6
CONTINUOUS
 10
78.0267325721
 20
188.8168496279
 40
0.75
 50
200.394876082
 51
270.0
  0
ARC
  8
0
 62
7
  6
CONTINUOUS
 10
106.4554192559
 20
177.415841244
 40
4.5
 50
180.0
 51
200.1363034282
  0
ARC
  8
0
 62
7
  6
CONTINUOUS
 10
103.8554192559
 20
177.5935623698
 40
4.5
 50
335.5080989718
 51
360.0
  0
ARC
  8
0
 62
7
  6
CONTINUOUS
 10
104.1292464056
 20
172.8668499435
 40
0.75
 50
200.1363291134
 51
270.0000088422
  0
ARC
  8
0
 62
7
  6
CONTINUOUS
 10
105.8229282489
 20
172.8668499475
 40
0.75
 50
269.9999888764
 51
335.5080721397
  0
ARC
  8
0
 62
7
  6
CONTINUOUS
 10
113.3554192559
 20
186.0196582101
 40
5.0
 50
154.1556124454
 51
180.0
  0
ARC
  8
0
 62
7
  6
CONTINUOUS
 10
98.5554192559
 20
181.3168496279
 40
4.0
 50
31.7883306171
 51
148.2116693829
  0
ARC
  8
SURFACE
 62
6
  6
CONTINUOUS
 10
98.5554192559
 20
181.3168496279
 40
4.0
 50
31.7883306171
 51
148.2116693829
  0
ARC
  8
0
 62
7
  6
CONTINUOUS
 10
90.6054192559
 20
192.9113792114
 40
5.0
 50
331.3360428897
 51
360.0
  0
ARC
  8
0
 62
7
  6
CONTINUOUS
 10
93.9054192559
 20
192.9113792114
 40
5.0
 50
180.0
 51
208.6639571103
  0
ARC
  8
0
 62
7
  6
CONTINUOUS
 10
77.9054192559
 20
192.9113792114
 40
5.0
 50
331.3360428897
 51
360.0
  0
ARC
  8
0
 62
7
  6
CONTINUOUS
 10
81.0554192559
 20
192.866260815
 40
5.0
 50
180.0
 51
200.394876082
  0
ARC
  8
0
 62
7
  6
CONTINUOUS
 10
86.8606678301
 20
189.6168496279
 40
0.75
 50
28.6639571103
 51
90.0
  0
ARC
  8
0
 62
7
  6
CONTINUOUS
 10
84.9501706818
 20
189.6168496279
 40
0.75
 50
90.0
 51
151.3360428897
  0
ARC
  8
0
 62
7
  6
CONTINUOUS
 10
84.4054192559
 20
201.8931899691
 40
4.5
 50
0.0
 51
23.1985905136
  0
ARC
  8
0
 62
7
  6
CONTINUOUS
 10
87.4054192559
 20
201.8931899691
 40
4.5
 50
156.8014094864
 51
180.0
  0
ARC
  8
0
 62
7
  6
CONTINUOUS
 10
86.91087227
 20
205.5668493184
 40
0.75
 50
23.1986162315
 51
90.0000101307
  0
ARC
  8
0
 62
7
  6
CONTINUOUS
 10
84.8999662408
 20
205.5668493161
 40
0.75
 50
89.9999897918
 51
156.8013835719
  0
ARC
  8
0
 62
7
  6
CONTINUOUS
 10
105.1554192559
 20
197.2168496279
 40
4.0
 50
207.4392401507
 51
332.5607598493
  0
ARC
  8
SURFACE
 62
6
  6
CONTINUOUS
 10
105.1554192559
 20
197.2168496279
 40
4.0
 50
207.4392401507
 51
332.5607598493
  0
ARC
  8
0
 62
7
  6
CONTINUOUS
 10
112.2054192559
 20
192.8668496279
 40
2.5
 50
270.0
 51
360.0
  0
ARC
  8
0
 62
7
  6
CONTINUOUS
 10
110.3754886324
 20
189.6168496279
 40
0.75
 50
90.0
 51
154.1556124454
  0
ARC
  8
0
 62
7
  6
CONTINUOUS
 10
97.1054192559
 20
202.1918496279
 40
4.5
 50
0.0
 51
28.0724869359
  0
ARC
  8
0
 62
7
  6
CONTINUOUS
 10
100.1054192559
 20
202.1918496279
 40
4.5
 50
151.9275130641
 51
180.0
  0
ARC
  8
0
 62
7
  6
CONTINUOUS
 10
99.555419442
 20
205.5668492789
 40
0.75
 50
28.0725171514
 51
90.0000142191
  0
ARC
  8
0
 62
7
  6
CONTINUOUS
 10
97.6554190894
 20
205.5668493156
 40
0.75
 50
89.9999872795
 51
151.927486033
  0
ARC
  8
0
 62
7
  6
CONTINUOUS
 10
110.2054192559
 20
202.6916547515
 40
4.5
 50
0.0
 51
15.8191939475
  0
ARC
  8
0
 62
7
  6
CONTINUOUS
 10
113.2054192559
 20
202.0117165678
 40
4.5
 50
147.6525565006
 51
180.0
  0
ARC
  8
0
 62
7
  6
CONTINUOUS
 10
111.0181830747
 20
205.5668492703
 40
0.75
 50
89.9999826999
 51
147.6525241671
  0
ARC
  8
0
 62
7
  6
CONTINUOUS
 10
113.2883962436
 20
205.5668493488
 40
0.75
 50
15.8192161045
 51
90.00000604
  0
ARC
  8
0
 62
7
  6
CONTINUOUS
 10
75.3054192559
 20
101.9695724702
 40
0.75
 50
270.0
 51
360.0
  0
ARC
  8
0
 62
7
  6
CONTINUOUS
 10
39.3554192559
 20
101.9695724702
 40
0.75
 50
180.0
 51
270.0
  0
ARC
  8
0
 62
7
  6
CONTINUOUS
 10
62.6054192559
 20
101.9695724702
 40
0.75
 50
270.0
 51
360.0
  0
ARC
  8
0
 62
7
  6
CONTINUOUS
 10
71.1054192559
 20
101.9695724702
 40
0.75
 50
180.0
 51
270.0
  0
ARC
  8
0
 62
7
  6
CONTINUOUS
 10
49.9054192559
 20
101.9695724702
 40
0.75
 50
270.0
 51
360.0
  0
ARC
  8
0
 62
7
  6
CONTINUOUS
 10
58.4054192559
 20
101.9695724702
 40
0.75
 50
180.0
 51
270.0
  0
ARC
  8
0
 62
7
  6
CONTINUOUS
 10
45.7054192559
 20
101.9695724702
 40
0.75
 50
180.0
 51
270.0
  0
ARC
  8
0
 62
7
  6
CONTINUOUS
 10
75.3054192559
 20
113.4695724702
 40
0.75
 50
0.0
 51
90.0
  0
ARC
  8
0
 62
7
  6
CONTINUOUS
 10
62.6054192559
 20
113.4695724702
 40
0.75
 50
0.0
 51
90.0
  0
ARC
  8
0
 62
7
  6
CONTINUOUS
 10
71.1054192559
 20
113.4695724702
 40
0.75
 50
90.0
 51
180.0
  0
ARC
  8
0
 62
7
  6
CONTINUOUS
 10
49.9054192559
 20
113.4695724702
 40
0.75
 50
0.0
 51
90.0
  0
ARC
  8
0
 62
7
  6
CONTINUOUS
 10
58.4054192559
 20
113.4695724702
 40
0.75
 50
90.0
 51
180.0
  0
ARC
  8
0
 62
7
  6
CONTINUOUS
 10
39.3554192559
 20
113.4695724702
 40
0.75
 50
90.0
 51
180.0
  0
ARC
  8
0
 62
7
  6
CONTINUOUS
 10
45.7054192559
 20
113.4695724702
 40
0.75
 50
90.0
 51
180.0
  0
ARC
  8
0
 62
7
  6
CONTINUOUS
 10
88.1554192559
 20
101.9695724702
 40
0.75
 50
270.0
 51
360.0
  0
ARC
  8
0
 62
7
  6
CONTINUOUS
 10
100.8554192559
 20
103.5695724702
 40
0.75
 50
270.0
 51
360.0
  0
ARC
  8
0
 62
7
  6
CONTINUOUS
 10
100.8554192559
 20
101.9695727057
 40
0.75
 50
270.0
 51
359.9999820125
  0
ARC
  8
0
 62
7
  6
CONTINUOUS
 10
109.4554192559
 20
101.9695724702
 40
0.75
 50
180.0
 51
270.0
  0
ARC
  8
0
 62
7
  6
CONTINUOUS
 10
96.3554192559
 20
103.5695724702
 40
0.75
 50
180.0
 51
270.0
  0
ARC
  8
0
 62
7
  6
CONTINUOUS
 10
96.3554192559
 20
101.9695724702
 40
0.75
 50
180.0
 51
270.0
  0
ARC
  8
0
 62
7
  6
CONTINUOUS
 10
83.6554192559
 20
101.9695724702
 40
0.75
 50
180.0
 51
270.0
  0
ARC
  8
0
 62
7
  6
CONTINUOUS
 10
113.9554192559
 20
101.9695724702
 40
0.75
 50
270.0
 51
360.0
  0
ARC
  8
0
 62
7
  6
CONTINUOUS
 10
109.7541676742
 20
101.9695725002
 40
0.75
 50
269.99999992
 51
324.4940383895
  0
ARC
  8
0
 62
7
  6
CONTINUOUS
 10
107.9554192559
 20
103.1695724702
 40
0.75
 50
270.0
 51
360.0
  0
ARC
  8
0
 62
7
  6
CONTINUOUS
 10
102.3554192559
 20
103.1695724702
 40
0.75
 50
180.0
 51
270.0
  0
ARC
  8
SURFACE
 62
6
  6
CONTINUOUS
 10
95.9054192559
 20
103.1695724702
 40
0.75
 50
180.0
 51
270.0
  0
ARC
  8
SURFACE
 62
6
  6
CONTINUOUS
 10
101.2054192559
 20
103.1695724702
 40
0.75
 50
270.0
 51
360.0
  0
ARC
  8
SURFACE
 62
6
  6
CONTINUOUS
 10
102.3554192559
 20
103.1695724702
 40
0.75
 50
180.0
 51
270.0
  0
ARC
  8
SURFACE
 62
6
  6
CONTINUOUS
 10
107.9554192559
 20
103.1695724702
 40
0.75
 50
270.0
 51
360.0
  0
ARC
  8
SURFACE
 62
6
  6
CONTINUOUS
 10
94.4054192559
 20
101.9695724702
 40
0.75
 50
270.0
 51
360.0
  0
ARC
  8
SURFACE
 62
6
  6
CONTINUOUS
 10
102.7054192559
 20
101.9695724702
 40
0.75
 50
180.0
 51
270.0
  0
ARC
  8
SURFACE
 62
6
  6
CONTINUOUS
 10
109.4554192559
 20
101.9695724702
 40
0.75
 50
180.0
 51
270.0
  0
ARC
  8
SURFACE
 62
6
  6
CONTINUOUS
 10
100.8554192559
 20
101.9695724702
 40
0.75
 50
270.0
 51
360.0
  0
ARC
  8
0
 62
7
  6
CONTINUOUS
 10
113.6566685488
 20
101.9695724702
 40
0.7499988557
 50
215.510051091
 51
270.000174939
  0
ARC
  8
0
 62
7
  6
CONTINUOUS
 10
109.4554192559
 20
113.4695724702
 40
0.75
 50
90.0
 51
180.0
  0
ARC
  8
0
 62
7
  6
CONTINUOUS
 10
96.3554192559
 20
113.4695724702
 40
0.75
 50
90.0
 51
180.0
  0
ARC
  8
0
 62
7
  6
CONTINUOUS
 10
100.8554192559
 20
113.4695724702
 40
0.75
 50
0.0
 51
90.0
  0
ARC
  8
0
 62
7
  6
CONTINUOUS
 10
88.1554192559
 20
113.4695724702
 40
0.75
 50
0.0
 51
90.0
  0
ARC
  8
0
 62
7
  6
CONTINUOUS
 10
83.6554192559
 20
113.4695724702
 40
0.75
 50
90.0
 51
180.0
  0
ARC
  8
0
 62
7
  6
CONTINUOUS
 10
113.9554192559
 20
113.4695724702
 40
0.75
 50
0.0
 51
90.0
  0
ARC
  8
0
 62
7
  6
CONTINUOUS
 10
113.6566708387
 20
113.4695724702
 40
0.75
 50
90.0
 51
144.4940723195
  0
ARC
  8
0
 62
7
  6
CONTINUOUS
 10
109.7541706705
 20
113.4695724702
 40
0.7499985022
 50
35.5101492485
 51
90.0002289861
  0
ARC
  8
0
 62
7
  6
CONTINUOUS
 10
153.638437463
 20
187.5668496279
 40
0.75
 50
90.0
 51
180.0
  0
ARC
  8
0
 62
7
  6
CONTINUOUS
 10
156.9040535888
 20
169.1268395442
 40
3.0
 50
78.0515242911
 51
87.0225014072
  0
ARC
  8
0
 62
7
  6
CONTINUOUS
 10
157.288437463
 20
176.5168496279
 40
4.4
 50
180.0
 51
267.0248894424
  0
ARC
  8
0
 62
7
  6
CONTINUOUS
 10
159.288437463
 20
176.5168496279
 40
2.55
 50
180.0
 51
270.0
  0
ARC
  8
0
 62
7
  6
CONTINUOUS
 10
159.288437463
 20
185.1668496279
 40
2.55
 50
89.9999979383
 51
180.0
  0
ARC
  8
0
 62
7
  6
CONTINUOUS
 10
156.9040535888
 20
209.3068597116
 40
3.0
 50
272.9774985928
 51
281.9484757089
  0
ARC
  8
0
 62
7
  6
CONTINUOUS
 10
157.288437463
 20
201.9168496279
 40
4.4
 50
92.9769106236
 51
180.0
  0
ARC
  8
0
 62
7
  6
CONTINUOUS
 10
159.288437463
 20
193.2668496279
 40
2.55
 50
180.0
 51
269.9999979625
  0
ARC
  8
0
 62
7
  6
CONTINUOUS
 10
159.288437463
 20
201.9168496279
 40
2.55
 50
90.0
 51
180.0
  0
ARC
  8
0
 62
7
  6
CONTINUOUS
 10
159.488437463
 20
176.5168496279
 40
2.55
 50
270.0
 51
360.0
  0
ARC
  8
0
 62
7
  6
CONTINUOUS
 10
161.8728213373
 20
169.1268395442
 40
3.0
 50
92.9774985928
 51
101.9484757089
  0
ARC
  8
0
 62
7
  6
CONTINUOUS
 10
161.488437463
 20
176.5168496279
 40
4.4
 50
272.9774985928
 51
360.0
  0
ARC
  8
0
 62
7
  6
CONTINUOUS
 10
159.388437463
 20
180.8668496279
 40
9.0
 50
258.0515242911
 51
281.9484757089
  0
ARC
  8
0
 62
7
  6
CONTINUOUS
 10
159.488437463
 20
185.1668496279
 40
2.55
 50
0.0
 51
90.0
  0
ARC
  8
0
 62
7
  6
CONTINUOUS
 10
165.138437463
 20
187.5668496279
 40
0.75
 50
0.0
 51
90.0
  0
ARC
  8
0
 62
7
  6
CONTINUOUS
 10
159.388437463
 20
197.5668496279
 40
9.0
 50
78.0515242911
 51
101.9484757089
  0
ARC
  8
0
 62
7
  6
CONTINUOUS
 10
159.488437463
 20
193.2668496279
 40
2.55
 50
270.0
 51
360.0
  0
ARC
  8
0
 62
7
  6
CONTINUOUS
 10
159.488437463
 20
201.9168496279
 40
2.55
 50
0.0
 51
90.0
  0
ARC
  8
0
 62
7
  6
CONTINUOUS
 10
161.488437463
 20
201.9168496279
 40
4.4
 50
0.0
 51
87.0241182325
  0
ARC
  8
0
 62
7
  6
CONTINUOUS
 10
161.8728213373
 20
209.3068597116
 40
3.0
 50
258.0515242911
 51
267.0225014072
  0
ENDSEC
  0
EOF
