  0
SECTION
  2
HEADER
  9
$EXTMAX
 10
210.0
 20
297.0
 30
0.0
  9
$EXTMIN
 10
0.0
 20
0.0
 30
0.0
  9
$LIMMIN
 10
0.0
 20
0.0
  9
$LIMMAX
 10
210.0
 20
297.0
  9
$VIEWCTR
 10
105.0
 20
148.5
  9
$VIEWSIZE
 40
297.0
  9
$CLAYER
  8
0
  9
$LTSCALE
 40
19.36
  9
$CELTYPE
  6
BYLAYER
  9
$DIMSCALE
 40
1.0
  9
$DIMASZ
 40
3.5
  9
$DIMEXO
 40
2.2
  9
$DIMDLI
 40
13.376
  9
$DIMEXE
 40
6.336
  9
$DIMCEN
 40
3.168
  9
$DIMLFAC
 40
1.0
  9
$DIMBLK
  1
_FILLED
  9
$DIMTXT
 40
3.5
  9
$PDMODE
 70
3
  9
$PDSIZE
 40
0.3125
  9
$TILEMODE
 70
1
  0
ENDSEC
  0
SECTION
  2
TABLES
  0
TABLE
  2
LTYPE
 70
6
  0
LTYPE
  2
BYBLOCK
 70
0
  3

 72
65
 73
0
 40
0.0
  0
LTYPE
  2
BYLAYER
 70
0
  3

 72
65
 73
0
 40
0.0
  0
LTYPE
  2
CONTINUOUS
 70
64
  3
Solid line
 72
65
 73
0
 40
0.0
  0
LTYPE
  2
CENTER
 70
64
  3
____ _ ____ _ ____ _ ____ _ ____ _ ____ _ ____
 72
65
 73
4
 40
0.6
 49
0.375
 49
-0.075
 49
0.075
 49
-0.075
  0
LTYPE
  2
HIDDEN
 70
64
  3
- - - - - - - - - - - - - - - - - - - -
 72
65
 73
2
 40
0.2
 49
0.1
 49
-0.1
  0
LTYPE
  2
PHANTOM
 70
64
  3
_____ _ _ _____ _ _ _____ _ _ _____
 72
65
 73
6
 40
0.8
 49
0.45
 49
-0.05
 49
0.1
 49
-0.05
 49
0.1
 49
-0.05
  0
LTYPE
  2
DOT
 70
64
  3
. . . . . . . . . . . . . . . . . . . .
 72
65
 73
2
 40
0.2
 49
0.1
 49
-0.1
  0
LTYPE
  2
DASHED
 70
64
  3
- - - - - - - - - - - - - - - - - - - -
 72
65
 73
2
 40
0.2
 49
0.1
 49
-0.1
  0
ENDTAB
  0
TABLE
  2
LAYER
 70
36
  0
LAYER
  2
0
 70
0
 62
7
  6
CONTINUOUS
  0
LAYER
  2
DEFAULT_1
 70
0
 62
7
  6
CENTER
  0
LAYER
  2
DEFAULT_2
 70
0
 62
8
  6
HIDDEN
  0
LAYER
  2
DEFAULT_3
 70
0
 62
7
  6
PHANTOM
  0
LAYER
  2
1_DATUMPLANE
 70
0
 62
7
  6
CONTINUOUS
  0
LAYER
  2
CURVE
 70
0
 62
7
  6
CONTINUOUS
  0
LAYER
  2
NOTES
 70
0
 62
7
  6
CONTINUOUS
  0
LAYER
  2
SURFACE
 70
0
 62
7
  6
CONTINUOUS
  0
ENDTAB
  0
TABLE
  2
STYLE
 70
1
  0
STYLE
  2
STANDARD
 70
0
 40
0.0
 41
0.8
 50
0.0
 71
0
 42
0.2
  3
txt
  4

  0
STYLE
  2
TEXTSTYLE_1
 70
0
 40
0.0
 41
0.8
 50
0.0
 71
0
 42
0.2
  3
gdt
  4

  0
STYLE
  2
TEXTSTYLE_2
 70
0
 40
0.0
 41
0.6
 50
0.0
 71
0
 42
0.2
  3
txt
  4

  0
STYLE
  2
TEXTSTYLE_3
 70
0
 40
0.0
 41
1.0
 50
0.0
 71
0
 42
0.2
  3
ftb_____.ttf
  4

  0
STYLE
  2
TEXTSTYLE_4
 70
0
 40
0.0
 41
1.0
 50
0.0
 71
0
 42
0.2
  3
fti_____.ttf
  4

  0
STYLE
  2
TEXTSTYLE_5
 70
0
 40
0.0
 41
1.0
 50
0.0
 71
0
 42
0.2
  3
frutiger light.ttf
  4

  0
STYLE
  2
TEXTSTYLE_6
 70
0
 40
0.0
 41
0.7
 50
0.0
 71
0
 42
0.2
  3
txt
  4

  0
STYLE
  2
TEXTSTYLE_7
 70
0
 40
0.0
 41
0.6
 50
0.0
 71
0
 42
0.2
  3
txt
  4

  0
ENDTAB
  0
ENDSEC
  0
SECTION
  2
BLOCKS
  0
BLOCK
  8
0
 62
2
  6
CONTINUOUS
  2
SYMBOL_8_BL1
 70
64
 10
173.5956734183
 20
35.5937998301
  0
TEXT
  8
0
 62
7
  6
CONTINUOUS
 10
164.6539584268
 20
30.6865562072
  7
TEXTSTYLE_4
 40
1.0655737705
  1
The brand for plastic modular belts and chains
 41
1.0
 72
0
  0
LINE
  8
0
 62
7
  6
CONTINUOUS
 10
149.5737418074
 20
36.1675703219
 11
149.5737418074
 21
34.0364227809
  0
LINE
  8
0
 62
7
  6
CONTINUOUS
 10
149.8628043005
 20
31.0454914852
 11
149.8628043005
 21
31.1422825445
  0
LINE
  8
0
 62
7
  6
CONTINUOUS
 10
149.5737418074
 20
31.1100188581
 11
149.6315543091
 21
30.9164367395
  0
LINE
  8
0
 62
7
  6
CONTINUOUS
 10
150.9671844304
 20
33.9544555678
 11
150.9671844304
 21
36.1675703219
  0
LINE
  8
0
 62
7
  6
CONTINUOUS
 10
151.8862417523
 20
32.1101932727
 11
151.8862417523
 21
30.5937998301
  0
LINE
  8
0
 62
7
  6
CONTINUOUS
 10
152.1753043074
 20
30.5937998301
 11
152.1753043074
 21
31.3358647082
  0
LINE
  8
0
 62
7
  6
CONTINUOUS
 10
152.1753043074
 20
31.4649194539
 11
152.1753043074
 21
32.1101932727
  0
LINE
  8
0
 62
7
  6
CONTINUOUS
 10
149.6315543091
 20
31.3036010218
 11
149.5737418074
 21
31.1100188581
  0
LINE
  8
0
 62
7
  6
CONTINUOUS
 10
149.9784292936
 20
30.8841730531
 11
149.8628043005
 21
31.0454914852
  0
LINE
  8
0
 62
7
  6
CONTINUOUS
 10
151.0768668626
 20
31.400392081
 11
151.1346793074
 21
31.3036010218
  0
LINE
  8
0
 62
7
  6
CONTINUOUS
 10
151.4237418626
 20
31.3036010218
 11
151.3659292523
 21
31.4326557675
  0
LINE
  8
0
 62
7
  6
CONTINUOUS
 10
152.852430332
 20
36.1675703219
 11
152.852430332
 21
34.3642916334
  0
LINE
  8
0
 62
7
  6
CONTINUOUS
 10
152.852430332
 20
33.0528162235
 11
152.852430332
 21
32.3970785186
  0
LINE
  8
0
 62
7
  6
CONTINUOUS
 10
153.2159293074
 20
31.2390736489
 11
153.2159293074
 21
30.5937998301
  0
LINE
  8
0
 62
7
  6
CONTINUOUS
 10
153.5049916972
 20
30.5937998301
 11
153.5049916972
 21
31.2390736489
  0
LINE
  8
0
 62
7
  6
CONTINUOUS
 10
149.8628043005
 20
31.1422825445
 11
149.9206168074
 21
31.2713373354
  0
LINE
  8
0
 62
7
  6
CONTINUOUS
 10
149.6315543091
 20
30.9164367395
 11
149.7471793074
 21
30.7873819712
  0
LINE
  8
0
 62
7
  6
CONTINUOUS
 10
153.1581166972
 20
31.3681283946
 11
153.2159293074
 21
31.2390736489
  0
LINE
  8
0
 62
7
  6
CONTINUOUS
 10
153.9674919177
 20
30.8841730531
 11
154.0253041972
 21
30.7551182848
  0
LINE
  8
0
 62
7
  6
CONTINUOUS
 10
153.5049916972
 20
31.2390736489
 11
153.4471794177
 21
31.400392081
  0
LINE
  8
0
 62
7
  6
CONTINUOUS
 10
153.9674919177
 20
31.4326557675
 11
153.9674919177
 21
31.3681283946
  0
LINE
  8
0
 62
7
  6
CONTINUOUS
 10
153.9674919177
 20
30.9809641124
 11
153.9674919177
 21
30.8841730531
  0
LINE
  8
0
 62
7
  6
CONTINUOUS
 10
154.245872955
 20
32.3970785186
 11
154.245872955
 21
36.1675703219
  0
LINE
  8
0
 62
7
  6
CONTINUOUS
 10
154.2565543074
 20
30.8519093441
 11
154.2565543074
 21
30.9164367395
  0
LINE
  8
0
 62
7
  6
CONTINUOUS
 10
154.5737418074
 20
36.1675703219
 11
154.5737418074
 21
32.3970785186
  0
LINE
  8
0
 62
7
  6
CONTINUOUS
 10
151.3659292523
 20
30.7873819712
 11
151.4237418626
 21
30.9164367395
  0
LINE
  8
0
 62
7
  6
CONTINUOUS
 10
155.759679528
 20
30.6905909007
 11
155.7018665869
 21
30.8519093441
  0
LINE
  8
0
 62
7
  6
CONTINUOUS
 10
155.412804528
 20
31.3681283946
 11
155.412804528
 21
31.2713373354
  0
LINE
  8
0
 62
7
  6
CONTINUOUS
 10
155.412804528
 20
31.1422825445
 11
155.412804528
 21
30.9487004259
  0
LINE
  8
0
 62
7
  6
CONTINUOUS
 10
155.7018665869
 20
30.8519093441
 11
155.7018665869
 21
31.3681283946
  0
LINE
  8
0
 62
7
  6
CONTINUOUS
 10
155.9671844304
 20
32.3970785186
 11
155.9671844304
 21
34.2003572071
  0
LINE
  8
0
 62
7
  6
CONTINUOUS
 10
155.9671844304
 20
35.511832617
 11
155.9671844304
 21
36.1675703219
  0
LINE
  8
0
 62
7
  6
CONTINUOUS
 10
156.279992028
 20
32.1101932727
 11
156.279992028
 21
31.9488748406
  0
LINE
  8
0
 62
7
  6
CONTINUOUS
 10
156.279992028
 20
31.626237886
 11
156.279992028
 21
30.5937998301
  0
LINE
  8
0
 62
7
  6
CONTINUOUS
 10
156.5690540869
 20
30.5937998301
 11
156.5690540869
 21
31.626237886
  0
LINE
  8
0
 62
7
  6
CONTINUOUS
 10
156.5690540869
 20
31.9488748406
 11
156.5690540869
 21
32.1101932727
  0
LINE
  8
0
 62
7
  6
CONTINUOUS
 10
151.1346793074
 20
30.9164367395
 11
151.0768668626
 21
30.8196456577
  0
LINE
  8
0
 62
7
  6
CONTINUOUS
 10
153.4471794177
 20
31.400392081
 11
153.3893668074
 21
31.4649194539
  0
LINE
  8
0
 62
7
  6
CONTINUOUS
 10
154.3143669177
 20
30.7873819712
 11
154.2565543074
 21
30.8519093441
  0
LINE
  8
0
 62
7
  6
CONTINUOUS
 10
155.4706168074
 20
30.6583272086
 11
155.5284290869
 21
30.5937998301
  0
LINE
  8
0
 62
7
  6
CONTINUOUS
 10
155.412804528
 20
30.7551182848
 11
155.4706168074
 21
30.6583272086
  0
LINE
  8
0
 62
7
  6
CONTINUOUS
 10
155.8174918074
 20
30.5937998301
 11
155.759679528
 21
30.6905909007
  0
LINE
  8
0
 62
7
  6
CONTINUOUS
 10
155.7018665869
 20
31.3681283946
 11
155.6440543074
 21
31.4649194539
  0
LINE
  8
0
 62
7
  6
CONTINUOUS
 10
157.0315543074
 20
31.626237886
 11
157.0315543074
 21
30.5937998301
  0
LINE
  8
0
 62
7
  6
CONTINUOUS
 10
157.320617028
 20
30.5937998301
 11
157.320617028
 21
31.3358647082
  0
LINE
  8
0
 62
7
  6
CONTINUOUS
 10
157.320617028
 20
31.4649194539
 11
157.320617028
 21
31.626237886
  0
LINE
  8
0
 62
7
  6
CONTINUOUS
 10
157.852430332
 20
34.6101932727
 11
157.852430332
 21
32.3970785186
  0
LINE
  8
0
 62
7
  6
CONTINUOUS
 10
149.7471793074
 20
31.4326557675
 11
149.6315543091
 21
31.3036010218
  0
LINE
  8
0
 62
7
  6
CONTINUOUS
 10
149.9206168074
 20
31.2713373354
 11
149.9784292936
 21
31.3358647082
  0
LINE
  8
0
 62
7
  6
CONTINUOUS
 10
149.7471793074
 20
30.7873819712
 11
149.8628043005
 21
30.7228545871
  0
LINE
  8
0
 62
7
  6
CONTINUOUS
 10
150.1518667936
 20
30.7873819712
 11
149.9784292936
 21
30.8841730531
  0
LINE
  8
0
 62
7
  6
CONTINUOUS
 10
155.3549915869
 20
31.4326557675
 11
155.412804528
 21
31.3681283946
  0
LINE
  8
0
 62
7
  6
CONTINUOUS
 10
158.3034290869
 20
31.3681283946
 11
158.361242028
 21
31.2068099625
  0
LINE
  8
0
 62
7
  6
CONTINUOUS
 10
158.6503040869
 20
31.2068099625
 11
158.5924918074
 21
31.3681283946
  0
LINE
  8
0
 62
7
  6
CONTINUOUS
 10
158.361242028
 20
31.2068099625
 11
158.361242028
 21
30.5937998301
  0
LINE
  8
0
 62
7
  6
CONTINUOUS
 10
158.6503040869
 20
30.5937998301
 11
158.6503040869
 21
31.2068099625
  0
LINE
  8
0
 62
7
  6
CONTINUOUS
 10
159.1128043074
 20
31.4326557675
 11
159.1128043074
 21
31.3681283946
  0
LINE
  8
0
 62
7
  6
CONTINUOUS
 10
159.245872955
 20
32.3970785186
 11
159.245872955
 21
34.5282260596
  0
LINE
  8
0
 62
7
  6
CONTINUOUS
 10
159.5737418074
 20
36.1675703219
 11
159.5737418074
 21
32.3970785186
  0
LINE
  8
0
 62
7
  6
CONTINUOUS
 10
154.2565543074
 20
30.9164367395
 11
154.3143669177
 21
31.0132277988
  0
LINE
  8
0
 62
7
  6
CONTINUOUS
 10
149.8628043005
 20
30.7228545871
 11
150.0362418212
 21
30.6583272086
  0
LINE
  8
0
 62
7
  6
CONTINUOUS
 10
151.3659292523
 20
31.4326557675
 11
151.1924917523
 21
31.5294468267
  0
LINE
  8
0
 62
7
  6
CONTINUOUS
 10
154.0253041972
 20
30.7551182848
 11
154.1987416972
 21
30.6583272086
  0
LINE
  8
0
 62
7
  6
CONTINUOUS
 10
153.0424918074
 20
31.4326557675
 11
153.1581166972
 21
31.3681283946
  0
LINE
  8
0
 62
7
  6
CONTINUOUS
 10
153.3893668074
 20
31.4649194539
 11
153.2737419177
 21
31.5294468267
  0
LINE
  8
0
 62
7
  6
CONTINUOUS
 10
159.1128043074
 20
30.8519093441
 11
159.228429528
 21
30.7228545871
  0
LINE
  8
0
 62
7
  6
CONTINUOUS
 10
159.4596793074
 20
30.7873819712
 11
159.401867028
 21
30.8519093441
  0
LINE
  8
0
 62
7
  6
CONTINUOUS
 10
159.1128043074
 20
31.3681283946
 11
159.228429528
 21
31.2390736489
  0
LINE
  8
0
 62
7
  6
CONTINUOUS
 10
158.5924918074
 20
31.3681283946
 11
158.534679528
 21
31.4649194539
  0
LINE
  8
0
 62
7
  6
CONTINUOUS
 10
160.9628038663
 20
30.7873819712
 11
160.9628038663
 21
30.8519093441
  0
LINE
  8
0
 62
7
  6
CONTINUOUS
 10
160.9671844304
 20
32.3970785186
 11
160.9671844304
 21
36.1675703219
  0
LINE
  8
0
 62
7
  6
CONTINUOUS
 10
154.0253041972
 20
31.4971831403
 11
153.9674919177
 21
31.4326557675
  0
LINE
  8
0
 62
7
  6
CONTINUOUS
 10
150.9034292799
 20
31.4649194539
 11
151.0768668626
 21
31.400392081
  0
LINE
  8
0
 62
7
  6
CONTINUOUS
 10
155.6440543074
 20
31.4649194539
 11
155.5284290869
 21
31.5294468267
  0
LINE
  8
0
 62
7
  6
CONTINUOUS
 10
159.4596793074
 20
31.3036010218
 11
159.401867028
 21
31.3681283946
  0
LINE
  8
0
 62
7
  6
CONTINUOUS
 10
160.615929528
 20
30.9164367395
 11
160.6737418074
 21
30.8519093441
  0
LINE
  8
0
 62
7
  6
CONTINUOUS
 10
160.9628038663
 20
30.8519093441
 11
160.8471793074
 21
30.9809641124
  0
LINE
  8
0
 62
7
  6
CONTINUOUS
 10
160.615929528
 20
31.4326557675
 11
160.6737418074
 21
31.3681283946
  0
LINE
  8
0
 62
7
  6
CONTINUOUS
 10
160.9628038663
 20
31.3681283946
 11
160.8471793074
 21
31.4971831403
  0
LINE
  8
0
 62
7
  6
CONTINUOUS
 10
154.2565543074
 20
31.3681283946
 11
154.3143669177
 21
31.4326557675
  0
LINE
  8
0
 62
7
  6
CONTINUOUS
 10
154.0831168074
 20
31.1100188581
 11
153.9674919177
 21
30.9809641124
  0
LINE
  8
0
 62
7
  6
CONTINUOUS
 10
155.412804528
 20
30.9487004259
 11
155.3549915869
 21
30.8841730531
  0
LINE
  8
0
 62
7
  6
CONTINUOUS
 10
155.3549915869
 20
30.6905909007
 11
155.412804528
 21
30.7551182848
  0
LINE
  8
0
 62
7
  6
CONTINUOUS
 10
154.1987416972
 20
30.6583272086
 11
154.3143669177
 21
30.6260635193
  0
LINE
  8
0
 62
7
  6
CONTINUOUS
 10
151.1924917523
 20
31.5294468267
 11
150.9612418074
 21
31.5939741996
  0
LINE
  8
0
 62
7
  6
CONTINUOUS
 10
154.5456166972
 20
30.7228545871
 11
154.3143669177
 21
30.7873819712
  0
LINE
  8
0
 62
7
  6
CONTINUOUS
 10
153.2737419177
 20
31.5294468267
 11
153.1003044177
 21
31.5939741996
  0
LINE
  8
0
 62
7
  6
CONTINUOUS
 10
155.5284290869
 20
31.5294468267
 11
155.3549915869
 21
31.5939741996
  0
LINE
  8
0
 62
7
  6
CONTINUOUS
 10
158.187804528
 20
31.4326557675
 11
158.3034290869
 21
31.3681283946
  0
LINE
  8
0
 62
7
  6
CONTINUOUS
 10
158.534679528
 20
31.4649194539
 11
158.4190543074
 21
31.5294468267
  0
LINE
  8
0
 62
7
  6
CONTINUOUS
 10
150.0362418212
 20
30.6583272086
 11
150.2096793212
 21
30.6260635193
  0
LINE
  8
0
 62
7
  6
CONTINUOUS
 10
150.498741835
 20
30.7228545871
 11
150.1518667936
 21
30.7873819712
  0
LINE
  8
0
 62
7
  6
CONTINUOUS
 10
152.9268669177
 20
31.4649194539
 11
153.0424918074
 21
31.4326557675
  0
LINE
  8
0
 62
7
  6
CONTINUOUS
 10
155.239367028
 20
31.4649194539
 11
155.3549915869
 21
31.4326557675
  0
LINE
  8
0
 62
7
  6
CONTINUOUS
 10
159.575304528
 20
30.7551182848
 11
159.4596793074
 21
30.7873819712
  0
LINE
  8
0
 62
7
  6
CONTINUOUS
 10
158.0721793074
 20
31.4649194539
 11
158.187804528
 21
31.4326557675
  0
LINE
  8
0
 62
7
  6
CONTINUOUS
 10
159.228429528
 20
30.7228545871
 11
159.401867028
 21
30.6583272086
  0
LINE
  8
0
 62
7
  6
CONTINUOUS
 10
158.4190543074
 20
31.5294468267
 11
158.2456168074
 21
31.5939741996
  0
LINE
  8
0
 62
7
  6
CONTINUOUS
 10
159.6331168074
 20
31.2390736489
 11
159.4596793074
 21
31.3036010218
  0
LINE
  8
0
 62
7
  6
CONTINUOUS
 10
160.442492028
 20
30.9809641124
 11
160.615929528
 21
30.9164367395
  0
LINE
  8
0
 62
7
  6
CONTINUOUS
 10
160.8471793074
 20
31.4971831403
 11
160.6737418074
 21
31.5617105132
  0
LINE
  8
0
 62
7
  6
CONTINUOUS
 10
159.228429528
 20
31.2390736489
 11
159.4596793074
 21
31.1422825445
  0
LINE
  8
0
 62
7
  6
CONTINUOUS
 10
160.8471793074
 20
30.9809641124
 11
160.615929528
 21
31.0777551716
  0
LINE
  8
0
 62
7
  6
CONTINUOUS
 10
159.401867028
 20
31.3681283946
 11
159.4596793074
 21
31.4326557675
  0
LINE
  8
0
 62
7
  6
CONTINUOUS
 10
149.8628043005
 20
31.4971831403
 11
149.7471793074
 21
31.4326557675
  0
LINE
  8
0
 62
7
  6
CONTINUOUS
 10
149.9784292936
 20
31.3358647082
 11
150.1518667936
 21
31.4326557675
  0
LINE
  8
0
 62
7
  6
CONTINUOUS
 10
152.2909293626
 20
31.5294468267
 11
152.1753043074
 21
31.4649194539
  0
LINE
  8
0
 62
7
  6
CONTINUOUS
 10
152.1753043074
 20
31.3358647082
 11
152.2909293626
 21
31.400392081
  0
LINE
  8
0
 62
7
  6
CONTINUOUS
 10
151.1924917523
 20
30.6905909007
 11
151.3659292523
 21
30.7873819712
  0
LINE
  8
0
 62
7
  6
CONTINUOUS
 10
150.2096793212
 20
30.6260635193
 11
150.5565542799
 21
30.5937998301
  0
LINE
  8
0
 62
7
  6
CONTINUOUS
 10
154.3143669177
 20
30.6260635193
 11
154.5456166972
 21
30.5937998301
  0
LINE
  8
0
 62
7
  6
CONTINUOUS
 10
152.6956168074
 20
31.4971831403
 11
152.9268669177
 21
31.4649194539
  0
LINE
  8
0
 62
7
  6
CONTINUOUS
 10
155.0081169177
 20
31.4971831403
 11
155.239367028
 21
31.4649194539
  0
LINE
  8
0
 62
7
  6
CONTINUOUS
 10
159.4596793074
 20
31.1422825445
 11
160.442492028
 21
30.9809641124
  0
LINE
  8
0
 62
7
  6
CONTINUOUS
 10
160.615929528
 20
31.0777551716
 11
159.6331168074
 21
31.2390736489
  0
LINE
  8
0
 62
7
  6
CONTINUOUS
 10
153.1003044177
 20
31.5939741996
 11
152.9268669177
 21
31.626237886
  0
LINE
  8
0
 62
7
  6
CONTINUOUS
 10
159.401867028
 20
30.6583272086
 11
159.575304528
 21
30.6260635193
  0
LINE
  8
0
 62
7
  6
CONTINUOUS
 10
158.2456168074
 20
31.5939741996
 11
158.0721793074
 21
31.626237886
  0
LINE
  8
0
 62
7
  6
CONTINUOUS
 10
160.5003043074
 20
31.4649194539
 11
160.615929528
 21
31.4326557675
  0
LINE
  8
0
 62
7
  6
CONTINUOUS
 10
160.6737418074
 20
30.8519093441
 11
160.615929528
 21
30.7873819712
  0
LINE
  8
0
 62
7
  6
CONTINUOUS
 10
159.228429528
 20
31.5294468267
 11
159.1128043074
 21
31.4326557675
  0
LINE
  8
0
 62
7
  6
CONTINUOUS
 10
154.1409294177
 20
31.5617105132
 11
154.0253041972
 21
31.4971831403
  0
LINE
  8
0
 62
7
  6
CONTINUOUS
 10
154.1987416972
 20
31.1745462761
 11
154.0831168074
 21
31.1100188581
  0
LINE
  8
0
 62
7
  6
CONTINUOUS
 10
154.3143669177
 20
31.0132277988
 11
154.4299918074
 21
31.0777551716
  0
LINE
  8
0
 62
7
  6
CONTINUOUS
 10
151.8862417523
 20
30.5937998301
 11
152.1753043074
 21
30.5937998301
  0
LINE
  8
0
 62
7
  6
CONTINUOUS
 10
153.2159293074
 20
30.5937998301
 11
153.5049916972
 21
30.5937998301
  0
LINE
  8
0
 62
7
  6
CONTINUOUS
 10
154.5456166972
 20
30.5937998301
 11
154.8924916972
 21
30.5937998301
  0
LINE
  8
0
 62
7
  6
CONTINUOUS
 10
155.5284290869
 20
30.5937998301
 11
155.8174918074
 21
30.5937998301
  0
LINE
  8
0
 62
7
  6
CONTINUOUS
 10
156.279992028
 20
30.5937998301
 11
156.5690540869
 21
30.5937998301
  0
LINE
  8
0
 62
7
  6
CONTINUOUS
 10
157.0315543074
 20
30.5937998301
 11
157.320617028
 21
30.5937998301
  0
LINE
  8
0
 62
7
  6
CONTINUOUS
 10
158.361242028
 20
30.5937998301
 11
158.6503040869
 21
30.5937998301
  0
LINE
  8
0
 62
7
  6
CONTINUOUS
 10
159.922179528
 20
30.5937998301
 11
160.269054528
 21
30.5937998301
  0
LINE
  8
0
 62
7
  6
CONTINUOUS
 10
160.269054528
 20
30.7228545871
 11
159.922179528
 21
30.7228545871
  0
LINE
  8
0
 62
7
  6
CONTINUOUS
 10
154.8924916972
 20
30.7228545871
 11
154.5456166972
 21
30.7228545871
  0
LINE
  8
0
 62
7
  6
CONTINUOUS
 10
159.401867028
 20
30.8519093441
 11
159.1128043074
 21
30.8519093441
  0
LINE
  8
0
 62
7
  6
CONTINUOUS
 10
151.4237418626
 20
30.9164367395
 11
151.1346793074
 21
30.9164367395
  0
LINE
  8
0
 62
7
  6
CONTINUOUS
 10
150.498741835
 20
31.4971831403
 11
150.9034292799
 21
31.4649194539
  0
LINE
  8
0
 62
7
  6
CONTINUOUS
 10
150.9612418074
 20
31.5939741996
 11
150.5565542799
 21
31.626237886
  0
LINE
  8
0
 62
7
  6
CONTINUOUS
 10
159.575304528
 20
30.6260635193
 11
159.922179528
 21
30.5937998301
  0
LINE
  8
0
 62
7
  6
CONTINUOUS
 10
159.922179528
 20
30.7228545871
 11
159.575304528
 21
30.7551182848
  0
LINE
  8
0
 62
7
  6
CONTINUOUS
 10
155.3549915869
 20
31.5939741996
 11
155.0081169177
 21
31.626237886
  0
LINE
  8
0
 62
7
  6
CONTINUOUS
 10
160.1534293074
 20
31.4971831403
 11
160.5003043074
 21
31.4649194539
  0
LINE
  8
0
 62
7
  6
CONTINUOUS
 10
160.5003043074
 20
31.5939741996
 11
160.1534293074
 21
31.626237886
  0
LINE
  8
0
 62
7
  6
CONTINUOUS
 10
157.840929528
 20
31.4971831403
 11
158.0721793074
 21
31.4649194539
  0
LINE
  8
0
 62
7
  6
CONTINUOUS
 10
160.6737418074
 20
31.5617105132
 11
160.5003043074
 21
31.5939741996
  0
LINE
  8
0
 62
7
  6
CONTINUOUS
 10
160.8471793074
 20
30.6905909007
 11
160.9628038663
 21
30.7873819712
  0
LINE
  8
0
 62
7
  6
CONTINUOUS
 10
155.3549915869
 20
30.8841730531
 11
155.1815540869
 21
30.7873819712
  0
LINE
  8
0
 62
7
  6
CONTINUOUS
 10
157.4362415869
 20
31.5294468267
 11
157.320617028
 21
31.4649194539
  0
LINE
  8
0
 62
7
  6
CONTINUOUS
 10
157.320617028
 20
31.3358647082
 11
157.4362415869
 21
31.400392081
  0
LINE
  8
0
 62
7
  6
CONTINUOUS
 10
150.0362418212
 20
31.5617105132
 11
149.8628043005
 21
31.4971831403
  0
LINE
  8
0
 62
7
  6
CONTINUOUS
 10
152.4643666972
 20
31.5939741996
 11
152.2909293626
 21
31.5294468267
  0
LINE
  8
0
 62
7
  6
CONTINUOUS
 10
152.2909293626
 20
31.400392081
 11
152.4643666972
 21
31.4649194539
  0
LINE
  8
0
 62
7
  6
CONTINUOUS
 10
151.0768668626
 20
30.8196456577
 11
150.9034292799
 21
30.7551182848
  0
LINE
  8
0
 62
7
  6
CONTINUOUS
 10
160.5003043074
 20
30.7551182848
 11
160.269054528
 21
30.7228545871
  0
LINE
  8
0
 62
7
  6
CONTINUOUS
 10
154.8924916972
 20
30.5937998301
 11
155.1815540869
 21
30.6260635193
  0
LINE
  8
0
 62
7
  6
CONTINUOUS
 10
160.269054528
 20
30.5937998301
 11
160.615929528
 21
30.6260635193
  0
LINE
  8
0
 62
7
  6
CONTINUOUS
 10
150.5565542799
 20
30.5937998301
 11
150.9612418074
 21
30.6260635193
  0
LINE
  8
0
 62
7
  6
CONTINUOUS
 10
150.9034292799
 20
30.7551182848
 11
150.498741835
 21
30.7228545871
  0
LINE
  8
0
 62
7
  6
CONTINUOUS
 10
154.7768668074
 20
31.1422825445
 11
155.412804528
 21
31.1422825445
  0
LINE
  8
0
 62
7
  6
CONTINUOUS
 10
155.412804528
 20
31.2713373354
 11
154.7768668074
 21
31.2713373354
  0
LINE
  8
0
 62
7
  6
CONTINUOUS
 10
151.1346793074
 20
31.3036010218
 11
151.4237418626
 21
31.3036010218
  0
LINE
  8
0
 62
7
  6
CONTINUOUS
 10
153.9674919177
 20
31.3681283946
 11
154.2565543074
 21
31.3681283946
  0
LINE
  8
0
 62
7
  6
CONTINUOUS
 10
160.6737418074
 20
31.3681283946
 11
160.9628038663
 21
31.3681283946
  0
LINE
  8
0
 62
7
  6
CONTINUOUS
 10
154.6612419177
 20
31.4971831403
 11
155.0081169177
 21
31.4971831403
  0
LINE
  8
0
 62
7
  6
CONTINUOUS
 10
159.8065543074
 20
31.4971831403
 11
160.1534293074
 21
31.4971831403
  0
LINE
  8
0
 62
7
  6
CONTINUOUS
 10
160.1534293074
 20
31.626237886
 11
159.8065543074
 21
31.626237886
  0
LINE
  8
0
 62
7
  6
CONTINUOUS
 10
158.0721793074
 20
31.626237886
 11
157.840929528
 21
31.626237886
  0
LINE
  8
0
 62
7
  6
CONTINUOUS
 10
157.320617028
 20
31.626237886
 11
157.0315543074
 21
31.626237886
  0
LINE
  8
0
 62
7
  6
CONTINUOUS
 10
156.5690540869
 20
31.626237886
 11
156.279992028
 21
31.626237886
  0
LINE
  8
0
 62
7
  6
CONTINUOUS
 10
155.0081169177
 20
31.626237886
 11
154.6612419177
 21
31.626237886
  0
LINE
  8
0
 62
7
  6
CONTINUOUS
 10
152.9268669177
 20
31.626237886
 11
152.6956168074
 21
31.626237886
  0
LINE
  8
0
 62
7
  6
CONTINUOUS
 10
156.279992028
 20
31.9488748406
 11
156.5690540869
 21
31.9488748406
  0
LINE
  8
0
 62
7
  6
CONTINUOUS
 10
156.5690540869
 20
32.1101932727
 11
156.279992028
 21
32.1101932727
  0
LINE
  8
0
 62
7
  6
CONTINUOUS
 10
152.1753043074
 20
32.1101932727
 11
151.8862417523
 21
32.1101932727
  0
LINE
  8
0
 62
7
  6
CONTINUOUS
 10
151.2130860697
 20
32.3970785186
 11
151.6256574183
 21
32.3970785186
  0
LINE
  8
0
 62
7
  6
CONTINUOUS
 10
152.852430332
 20
32.3970785186
 11
154.245872955
 21
32.3970785186
  0
LINE
  8
0
 62
7
  6
CONTINUOUS
 10
154.5737418074
 20
32.3970785186
 11
155.9671844304
 21
32.3970785186
  0
LINE
  8
0
 62
7
  6
CONTINUOUS
 10
157.852430332
 20
32.3970785186
 11
159.245872955
 21
32.3970785186
  0
LINE
  8
0
 62
7
  6
CONTINUOUS
 10
159.5737418074
 20
32.3970785186
 11
160.9671844304
 21
32.3970785186
  0
LINE
  8
0
 62
7
  6
CONTINUOUS
 10
157.6096790869
 20
31.5939741996
 11
157.4362415869
 21
31.5294468267
  0
LINE
  8
0
 62
7
  6
CONTINUOUS
 10
155.1815540869
 20
30.6260635193
 11
155.3549915869
 21
30.6905909007
  0
LINE
  8
0
 62
7
  6
CONTINUOUS
 10
160.615929528
 20
30.6260635193
 11
160.8471793074
 21
30.6905909007
  0
LINE
  8
0
 62
7
  6
CONTINUOUS
 10
160.615929528
 20
30.7873819712
 11
160.5003043074
 21
30.7551182848
  0
LINE
  8
0
 62
7
  6
CONTINUOUS
 10
159.575304528
 20
31.4649194539
 11
159.8065543074
 21
31.4971831403
  0
LINE
  8
0
 62
7
  6
CONTINUOUS
 10
157.6096790869
 20
31.4649194539
 11
157.840929528
 21
31.4971831403
  0
LINE
  8
0
 62
7
  6
CONTINUOUS
 10
154.5456166972
 20
31.1100188581
 11
154.7768668074
 21
31.1422825445
  0
LINE
  8
0
 62
7
  6
CONTINUOUS
 10
157.840929528
 20
31.626237886
 11
157.6096790869
 21
31.5939741996
  0
LINE
  8
0
 62
7
  6
CONTINUOUS
 10
154.4299918074
 20
31.4649194539
 11
154.6612419177
 21
31.4971831403
  0
LINE
  8
0
 62
7
  6
CONTINUOUS
 10
159.8065543074
 20
31.626237886
 11
159.4596793074
 21
31.5939741996
  0
LINE
  8
0
 62
7
  6
CONTINUOUS
 10
154.7768668074
 20
31.2713373354
 11
154.4299918074
 21
31.2390736489
  0
LINE
  8
0
 62
7
  6
CONTINUOUS
 10
150.5565542799
 20
31.626237886
 11
150.2096793212
 21
31.5939741996
  0
LINE
  8
0
 62
7
  6
CONTINUOUS
 10
154.6612419177
 20
31.626237886
 11
154.2565543074
 21
31.5939741996
  0
LINE
  8
0
 62
7
  6
CONTINUOUS
 10
152.0327582009
 20
33.5446195022
 11
151.3770204959
 21
33.5446195022
  0
LINE
  8
0
 62
7
  6
CONTINUOUS
 10
157.4362415869
 20
31.400392081
 11
157.6096790869
 21
31.4649194539
  0
LINE
  8
0
 62
7
  6
CONTINUOUS
 10
159.4596793074
 20
31.4326557675
 11
159.575304528
 21
31.4649194539
  0
LINE
  8
0
 62
7
  6
CONTINUOUS
 10
159.4596793074
 20
31.5939741996
 11
159.228429528
 21
31.5294468267
  0
LINE
  8
0
 62
7
  6
CONTINUOUS
 10
155.1815540869
 20
30.7873819712
 11
154.8924916972
 21
30.7228545871
  0
LINE
  8
0
 62
7
  6
CONTINUOUS
 10
152.4643666972
 20
31.4649194539
 11
152.6956168074
 21
31.4971831403
  0
LINE
  8
0
 62
7
  6
CONTINUOUS
 10
152.6956168074
 20
31.626237886
 11
152.4643666972
 21
31.5939741996
  0
LINE
  8
0
 62
7
  6
CONTINUOUS
 10
150.2674918074
 20
31.4649194539
 11
150.498741835
 21
31.4971831403
  0
LINE
  8
0
 62
7
  6
CONTINUOUS
 10
156.7868565615
 20
35.0200293383
 11
157.4425942664
 21
35.0200293383
  0
LINE
  8
0
 62
7
  6
CONTINUOUS
 10
154.4299918074
 20
31.0777551716
 11
154.5456166972
 21
31.1100188581
  0
LINE
  8
0
 62
7
  6
CONTINUOUS
 10
154.4299918074
 20
31.2390736489
 11
154.1987416972
 21
31.1745462761
  0
LINE
  8
0
 62
7
  6
CONTINUOUS
 10
154.3143669177
 20
31.4326557675
 11
154.4299918074
 21
31.4649194539
  0
LINE
  8
0
 62
7
  6
CONTINUOUS
 10
150.9612418074
 20
30.6260635193
 11
151.1924917523
 21
30.6905909007
  0
LINE
  8
0
 62
7
  6
CONTINUOUS
 10
154.2565543074
 20
31.5939741996
 11
154.1409294177
 21
31.5617105132
  0
LINE
  8
0
 62
7
  6
CONTINUOUS
 10
150.2096793212
 20
31.5939741996
 11
150.0362418212
 21
31.5617105132
  0
LINE
  8
0
 62
7
  6
CONTINUOUS
 10
160.9671844304
 20
36.1675703219
 11
159.5737418074
 21
36.1675703219
  0
LINE
  8
0
 62
7
  6
CONTINUOUS
 10
157.6065286927
 20
36.1675703219
 11
157.1939573441
 21
36.1675703219
  0
LINE
  8
0
 62
7
  6
CONTINUOUS
 10
155.9671844304
 20
36.1675703219
 11
154.5737418074
 21
36.1675703219
  0
LINE
  8
0
 62
7
  6
CONTINUOUS
 10
154.245872955
 20
36.1675703219
 11
152.852430332
 21
36.1675703219
  0
LINE
  8
0
 62
7
  6
CONTINUOUS
 10
150.9671844304
 20
36.1675703219
 11
149.5737418074
 21
36.1675703219
  0
LINE
  8
0
 62
7
  6
CONTINUOUS
 10
150.1518667936
 20
31.4326557675
 11
150.2674918074
 21
31.4649194539
  0
CIRCLE
  8
0
 62
7
  6
CONTINUOUS
 10
160.2704631189
 20
38.5036358957
 40
2.0901639344
  0
ARC
  8
0
 62
7
  6
CONTINUOUS
 10
151.2130860697
 20
34.0364227809
 40
1.6393442623
 50
180.0
 51
270.0
  0
ARC
  8
0
 62
7
  6
CONTINUOUS
 10
157.6065286927
 20
34.5282260596
 40
1.6393442623
 50
0.0
 51
90.0
  0
ARC
  8
0
 62
7
  6
CONTINUOUS
 10
151.6256574183
 20
33.8724883547
 40
1.4754098361
 50
270.0
 51
326.2510114041
  0
ARC
  8
0
 62
7
  6
CONTINUOUS
 10
157.1939573441
 20
34.6921604858
 40
1.4754098361
 50
90.0
 51
146.2510114041
  0
ARC
  8
0
 62
7
  6
CONTINUOUS
 10
152.0327582009
 20
34.3642916334
 40
0.8196721311
 50
270.0
 51
360.0
  0
ARC
  8
0
 62
7
  6
CONTINUOUS
 10
156.7868565615
 20
34.2003572071
 40
0.8196721311
 50
90.0
 51
180.0
  0
ARC
  8
0
 62
7
  6
CONTINUOUS
 10
151.3770204959
 20
33.9544555678
 40
0.4098360656
 50
180.0
 51
270.0
  0
ARC
  8
0
 62
7
  6
CONTINUOUS
 10
157.4425942664
 20
34.6101932727
 40
0.4098360656
 50
0.0
 51
90.0
  0
SOLID
  8
0
 62
7
  6
CONTINUOUS
 10
156.279992028
 20
31.9488752009
 11
156.279992028
 21
32.1101936845
 12
156.5690540869
 22
31.9488752009
 13
156.5690540869
 23
32.1101936845
  0
SOLID
  8
0
 62
7
  6
CONTINUOUS
 10
150.5565542799
 20
31.6262382337
 11
150.9612418074
 21
31.5939740028
 12
150.2096793212
 22
31.5939740028
 13
150.2096793212
 23
31.5939740028
  0
SOLID
  8
0
 62
7
  6
CONTINUOUS
 10
150.0362418212
 20
31.5617111435
 11
150.2096793212
 21
31.5939740028
 12
150.9612418074
 22
31.5939740028
 13
150.9612418074
 23
31.5939740028
  0
SOLID
  8
0
 62
7
  6
CONTINUOUS
 10
150.9612418074
 20
31.5939740028
 11
151.1924917523
 21
31.5294468402
 12
150.0362418212
 22
31.5617111435
 13
150.0362418212
 23
31.5617111435
  0
SOLID
  8
0
 62
7
  6
CONTINUOUS
 10
149.8628043005
 20
31.49718259
 11
150.0362418212
 21
31.5617111435
 12
151.1924917523
 22
31.5294468402
 13
151.1924917523
 23
31.5294468402
  0
SOLID
  8
0
 62
7
  6
CONTINUOUS
 10
149.8628043005
 20
31.49718259
 11
151.1924917523
 21
31.5294468402
 12
150.498741835
 22
31.49718259
 13
150.498741835
 23
31.49718259
  0
SOLID
  8
0
 62
7
  6
CONTINUOUS
 10
150.498741835
 20
31.49718259
 11
151.1924917523
 21
31.5294468402
 12
150.9034292799
 22
31.4649197501
 13
150.9034292799
 23
31.4649197501
  0
SOLID
  8
0
 62
7
  6
CONTINUOUS
 10
151.1924917523
 20
31.5294468402
 11
151.3659292523
 21
31.4326554468
 12
150.9034292799
 22
31.4649197501
 13
150.9034292799
 23
31.4649197501
  0
SOLID
  8
0
 62
7
  6
CONTINUOUS
 10
151.0768668626
 20
31.4003926599
 11
150.9034292799
 21
31.4649197501
 12
151.3659292523
 22
31.4326554468
 13
151.3659292523
 23
31.4326554468
  0
SOLID
  8
0
 62
7
  6
CONTINUOUS
 10
151.0768668626
 20
31.4003926599
 11
151.3659292523
 21
31.4326554468
 12
151.1346793074
 22
31.3036013776
 13
151.1346793074
 23
31.3036013776
  0
SOLID
  8
0
 62
7
  6
CONTINUOUS
 10
151.3659292523
 20
31.4326554468
 11
151.4237418626
 21
31.3036013776
 12
151.1346793074
 22
31.3036013776
 13
151.1346793074
 23
31.3036013776
  0
SOLID
  8
0
 62
7
  6
CONTINUOUS
 10
152.4643666972
 20
31.5939739754
 11
152.6956168074
 21
31.6262382787
 12
152.9268669177
 22
31.6262382787
 13
152.9268669177
 23
31.6262382787
  0
SOLID
  8
0
 62
7
  6
CONTINUOUS
 10
152.9268669177
 20
31.6262382787
 11
153.1003044177
 21
31.5939739754
 12
152.4643666972
 22
31.5939739754
 13
152.4643666972
 23
31.5939739754
  0
SOLID
  8
0
 62
7
  6
CONTINUOUS
 10
152.2909293626
 20
31.5294468852
 11
152.4643666972
 21
31.5939739754
 12
153.1003044177
 22
31.5939739754
 13
153.1003044177
 23
31.5939739754
  0
SOLID
  8
0
 62
7
  6
CONTINUOUS
 10
153.1003044177
 20
31.5939739754
 11
153.2737419177
 21
31.5294468852
 12
152.2909293626
 22
31.5294468852
 13
152.2909293626
 23
31.5294468852
  0
SOLID
  8
0
 62
7
  6
CONTINUOUS
 10
153.2737419177
 20
31.5294468852
 11
152.6956168074
 21
31.4971825369
 12
152.2909293626
 22
31.5294468852
 13
152.2909293626
 23
31.5294468852
  0
SOLID
  8
0
 62
7
  6
CONTINUOUS
 10
152.1753043074
 20
31.4649197951
 11
152.2909293626
 21
31.5294468852
 12
152.6956168074
 22
31.4971825369
 13
152.6956168074
 23
31.4971825369
  0
SOLID
  8
0
 62
7
  6
CONTINUOUS
 10
152.6956168074
 20
31.4971825369
 11
152.4643666972
 21
31.4649197951
 12
152.1753043074
 22
31.4649197951
 13
152.1753043074
 23
31.4649197951
  0
SOLID
  8
0
 62
7
  6
CONTINUOUS
 10
152.6956168074
 20
31.4971825369
 11
153.2737419177
 21
31.5294468852
 12
152.9268669177
 22
31.4649197951
 13
152.9268669177
 23
31.4649197951
  0
SOLID
  8
0
 62
7
  6
CONTINUOUS
 10
153.2737419177
 20
31.5294468852
 11
153.3893668074
 21
31.4649197951
 12
152.9268669177
 22
31.4649197951
 13
152.9268669177
 23
31.4649197951
  0
SOLID
  8
0
 62
7
  6
CONTINUOUS
 10
153.0424918074
 20
31.4326554468
 11
152.9268669177
 21
31.4649197951
 12
153.3893668074
 22
31.4649197951
 13
153.3893668074
 23
31.4649197951
  0
SOLID
  8
0
 62
7
  6
CONTINUOUS
 10
153.3893668074
 20
31.4649197951
 11
153.4471794177
 21
31.4003927049
 12
153.0424918074
 22
31.4326554468
 13
153.0424918074
 23
31.4326554468
  0
SOLID
  8
0
 62
7
  6
CONTINUOUS
 10
153.1581166972
 20
31.3681283566
 11
153.0424918074
 21
31.4326554468
 12
153.4471794177
 22
31.4003927049
 13
153.4471794177
 23
31.4003927049
  0
SOLID
  8
0
 62
7
  6
CONTINUOUS
 10
153.1581166972
 20
31.3681283566
 11
153.4471794177
 21
31.4003927049
 12
153.2159293074
 22
31.2390742213
 13
153.2159293074
 23
31.2390742213
  0
SOLID
  8
0
 62
7
  6
CONTINUOUS
 10
153.4471794177
 20
31.4003927049
 11
153.5049916972
 21
31.2390742213
 12
153.2159293074
 22
31.2390742213
 13
153.2159293074
 23
31.2390742213
  0
SOLID
  8
0
 62
7
  6
CONTINUOUS
 10
152.4643666972
 20
31.4649197951
 11
152.2909293626
 21
31.4003927049
 12
152.1753043074
 22
31.4649197951
 13
152.1753043074
 23
31.4649197951
  0
SOLID
  8
0
 62
7
  6
CONTINUOUS
 10
152.2909293626
 20
31.4003927049
 11
152.1753043074
 21
31.3358640533
 12
152.1753043074
 22
31.4649197951
 13
152.1753043074
 23
31.4649197951
  0
SOLID
  8
0
 62
7
  6
CONTINUOUS
 10
152.1753043074
 20
31.3358640533
 11
151.8862417523
 21
30.5938002869
 12
152.1753043074
 22
31.4649197951
 13
152.1753043074
 23
31.4649197951
  0
SOLID
  8
0
 62
7
  6
CONTINUOUS
 10
152.1753043074
 20
31.4649197951
 11
151.8862417523
 21
30.5938002869
 12
152.1753043074
 22
32.1101937295
 13
152.1753043074
 23
32.1101937295
  0
SOLID
  8
0
 62
7
  6
CONTINUOUS
 10
151.8862417523
 20
30.5938002869
 11
151.8862417523
 21
32.1101937295
 12
152.1753043074
 22
32.1101937295
 13
152.1753043074
 23
32.1101937295
  0
SOLID
  8
0
 62
7
  6
CONTINUOUS
 10
152.1753043074
 20
31.3358640533
 11
152.1753043074
 21
30.5938002869
 12
151.8862417523
 22
30.5938002869
 13
151.8862417523
 23
30.5938002869
  0
SOLID
  8
0
 62
7
  6
CONTINUOUS
 10
153.2159293074
 20
30.5938002869
 11
153.2159293074
 21
31.2390742213
 12
153.5049916972
 22
31.2390742213
 13
153.5049916972
 23
31.2390742213
  0
SOLID
  8
0
 62
7
  6
CONTINUOUS
 10
153.5049916972
 20
31.2390742213
 11
153.5049916972
 21
30.5938002869
 12
153.2159293074
 22
30.5938002869
 13
153.2159293074
 23
30.5938002869
  0
SOLID
  8
0
 62
7
  6
CONTINUOUS
 10
154.2565543074
 20
31.5939738288
 11
154.6612419177
 21
31.6262385959
 12
155.0081169177
 22
31.6262385959
 13
155.0081169177
 23
31.6262385959
  0
SOLID
  8
0
 62
7
  6
CONTINUOUS
 10
155.0081169177
 20
31.6262385959
 11
155.3549915869
 21
31.5939738288
 12
154.2565543074
 22
31.5939738288
 13
154.2565543074
 23
31.5939738288
  0
SOLID
  8
0
 62
7
  6
CONTINUOUS
 10
154.1409294177
 20
31.5617111435
 11
154.2565543074
 21
31.5939738288
 12
155.3549915869
 22
31.5939738288
 13
155.3549915869
 23
31.5939738288
  0
SOLID
  8
0
 62
7
  6
CONTINUOUS
 10
155.3549915869
 20
31.5939738288
 11
155.5284290869
 21
31.5294468402
 12
154.1409294177
 22
31.5617111435
 13
154.1409294177
 23
31.5617111435
  0
SOLID
  8
0
 62
7
  6
CONTINUOUS
 10
154.0253041972
 20
31.4971826249
 11
154.1409294177
 21
31.5617111435
 12
155.5284290869
 22
31.5294468402
 13
155.5284290869
 23
31.5294468402
  0
SOLID
  8
0
 62
7
  6
CONTINUOUS
 10
154.0253041972
 20
31.4971826249
 11
155.5284290869
 21
31.5294468402
 12
154.6612419177
 22
31.4971826249
 13
154.6612419177
 23
31.4971826249
  0
SOLID
  8
0
 62
7
  6
CONTINUOUS
 10
154.6612419177
 20
31.4971826249
 11
155.5284290869
 21
31.5294468402
 12
155.0081169177
 22
31.4971826249
 13
155.0081169177
 23
31.4971826249
  0
SOLID
  8
0
 62
7
  6
CONTINUOUS
 10
155.0081169177
 20
31.4971826249
 11
155.5284290869
 21
31.5294468402
 12
155.239367028
 22
31.4649194065
 13
155.239367028
 23
31.4649194065
  0
SOLID
  8
0
 62
7
  6
CONTINUOUS
 10
155.5284290869
 20
31.5294468402
 11
155.6440543074
 21
31.4649194065
 12
155.239367028
 22
31.4649194065
 13
155.239367028
 23
31.4649194065
  0
SOLID
  8
0
 62
7
  6
CONTINUOUS
 10
153.9674919177
 20
31.4326554138
 11
154.0253041972
 21
31.4971826249
 12
154.6612419177
 22
31.4971826249
 13
154.6612419177
 23
31.4971826249
  0
SOLID
  8
0
 62
7
  6
CONTINUOUS
 10
155.3549915869
 20
31.4326554138
 11
155.239367028
 21
31.4649194065
 12
155.6440543074
 22
31.4649194065
 13
155.6440543074
 23
31.4649194065
  0
SOLID
  8
0
 62
7
  6
CONTINUOUS
 10
155.3549915869
 20
31.4326554138
 11
155.6440543074
 21
31.4649194065
 12
155.412804528
 22
31.3681282026
 13
155.412804528
 23
31.3681282026
  0
SOLID
  8
0
 62
7
  6
CONTINUOUS
 10
155.6440543074
 20
31.4649194065
 11
155.7018665869
 21
31.3681282026
 12
155.412804528
 22
31.3681282026
 13
155.412804528
 23
31.3681282026
  0
SOLID
  8
0
 62
7
  6
CONTINUOUS
 10
155.412804528
 20
31.2713369632
 11
155.412804528
 21
31.3681282026
 12
155.7018665869
 22
31.3681282026
 13
155.7018665869
 23
31.3681282026
  0
SOLID
  8
0
 62
7
  6
CONTINUOUS
 10
155.412804528
 20
31.2713369632
 11
155.7018665869
 21
31.3681282026
 12
155.412804528
 22
31.1422827828
 13
155.412804528
 23
31.1422827828
  0
SOLID
  8
0
 62
7
  6
CONTINUOUS
 10
155.412804528
 20
31.1422827828
 11
155.7018665869
 21
31.3681282026
 12
155.412804528
 22
30.9487004259
 13
155.412804528
 23
30.9487004259
  0
SOLID
  8
0
 62
7
  6
CONTINUOUS
 10
155.7018665869
 20
31.3681282026
 11
155.7018665869
 21
30.8519086025
 12
155.412804528
 22
30.9487004259
 13
155.412804528
 23
30.9487004259
  0
SOLID
  8
0
 62
7
  6
CONTINUOUS
 10
157.6096790869
 20
31.5939736268
 11
157.840929528
 21
31.6262383465
 12
158.0721793074
 22
31.6262383465
 13
158.0721793074
 23
31.6262383465
  0
SOLID
  8
0
 62
7
  6
CONTINUOUS
 10
158.0721793074
 20
31.6262383465
 11
158.2456168074
 21
31.5939736268
 12
157.6096790869
 22
31.5939736268
 13
157.6096790869
 23
31.5939736268
  0
SOLID
  8
0
 62
7
  6
CONTINUOUS
 10
157.4362415869
 20
31.5294472848
 11
157.6096790869
 21
31.5939736268
 12
158.2456168074
 22
31.5939736268
 13
158.2456168074
 23
31.5939736268
  0
SOLID
  8
0
 62
7
  6
CONTINUOUS
 10
158.2456168074
 20
31.5939736268
 11
158.4190543074
 21
31.5294472848
 12
157.4362415869
 22
31.5294472848
 13
157.4362415869
 23
31.5294472848
  0
SOLID
  8
0
 62
7
  6
CONTINUOUS
 10
158.4190543074
 20
31.5294472848
 11
157.840929528
 21
31.4971825369
 12
157.4362415869
 22
31.5294472848
 13
157.4362415869
 23
31.5294472848
  0
SOLID
  8
0
 62
7
  6
CONTINUOUS
 10
157.320617028
 20
31.4649199103
 11
157.4362415869
 21
31.5294472848
 12
157.840929528
 22
31.4971825369
 13
157.840929528
 23
31.4971825369
  0
SOLID
  8
0
 62
7
  6
CONTINUOUS
 10
157.840929528
 20
31.4971825369
 11
157.6096790869
 21
31.4649199103
 12
157.320617028
 22
31.4649199103
 13
157.320617028
 23
31.4649199103
  0
SOLID
  8
0
 62
7
  6
CONTINUOUS
 10
157.840929528
 20
31.4971825369
 11
158.4190543074
 21
31.5294472848
 12
158.0721793074
 22
31.4649199103
 13
158.0721793074
 23
31.4649199103
  0
SOLID
  8
0
 62
7
  6
CONTINUOUS
 10
158.4190543074
 20
31.5294472848
 11
158.534679528
 21
31.4649199103
 12
158.0721793074
 22
31.4649199103
 13
158.0721793074
 23
31.4649199103
  0
SOLID
  8
0
 62
7
  6
CONTINUOUS
 10
158.187804528
 20
31.4326554468
 11
158.0721793074
 21
31.4649199103
 12
158.534679528
 22
31.4649199103
 13
158.534679528
 23
31.4649199103
  0
SOLID
  8
0
 62
7
  6
CONTINUOUS
 10
158.187804528
 20
31.4326554468
 11
158.534679528
 21
31.4649199103
 12
158.3034290869
 22
31.3681288486
 13
158.3034290869
 23
31.3681288486
  0
SOLID
  8
0
 62
7
  6
CONTINUOUS
 10
158.534679528
 20
31.4649199103
 11
158.5924918074
 21
31.3681288486
 12
158.3034290869
 22
31.3681288486
 13
158.3034290869
 23
31.3681288486
  0
SOLID
  8
0
 62
7
  6
CONTINUOUS
 10
158.361242028
 20
31.2068093799
 11
158.3034290869
 21
31.3681288486
 12
158.5924918074
 22
31.3681288486
 13
158.5924918074
 23
31.3681288486
  0
SOLID
  8
0
 62
7
  6
CONTINUOUS
 10
158.5924918074
 20
31.3681288486
 11
158.6503040869
 21
31.2068093799
 12
158.361242028
 22
31.2068093799
 13
158.361242028
 23
31.2068093799
  0
SOLID
  8
0
 62
7
  6
CONTINUOUS
 10
157.6096790869
 20
31.4649199103
 11
157.4362415869
 21
31.4003926599
 12
157.320617028
 22
31.4649199103
 13
157.320617028
 23
31.4649199103
  0
SOLID
  8
0
 62
7
  6
CONTINUOUS
 10
157.4362415869
 20
31.4003926599
 11
157.320617028
 21
31.3358640533
 12
157.320617028
 22
31.4649199103
 13
157.320617028
 23
31.4649199103
  0
SOLID
  8
0
 62
7
  6
CONTINUOUS
 10
157.320617028
 20
31.3358640533
 11
157.0315543074
 21
30.5938003547
 12
157.320617028
 22
31.4649199103
 13
157.320617028
 23
31.4649199103
  0
SOLID
  8
0
 62
7
  6
CONTINUOUS
 10
157.320617028
 20
31.4649199103
 11
157.0315543074
 21
30.5938003547
 12
157.320617028
 22
31.6262383465
 13
157.320617028
 23
31.6262383465
  0
SOLID
  8
0
 62
7
  6
CONTINUOUS
 10
157.0315543074
 20
30.5938003547
 11
157.0315543074
 21
31.6262383465
 12
157.320617028
 22
31.6262383465
 13
157.320617028
 23
31.6262383465
  0
SOLID
  8
0
 62
7
  6
CONTINUOUS
 10
157.320617028
 20
31.3358640533
 11
157.320617028
 21
30.5938003547
 12
157.0315543074
 22
30.5938003547
 13
157.0315543074
 23
30.5938003547
  0
SOLID
  8
0
 62
7
  6
CONTINUOUS
 10
158.361242028
 20
30.5938003547
 11
158.361242028
 21
31.2068093799
 12
158.6503040869
 22
31.2068093799
 13
158.6503040869
 23
31.2068093799
  0
SOLID
  8
0
 62
7
  6
CONTINUOUS
 10
158.6503040869
 20
31.2068093799
 11
158.6503040869
 21
30.5938003547
 12
158.361242028
 22
30.5938003547
 13
158.361242028
 23
30.5938003547
  0
SOLID
  8
0
 62
7
  6
CONTINUOUS
 10
159.4596793074
 20
31.5939739474
 11
159.8065543074
 21
31.6262381969
 12
160.1534293074
 22
31.6262381969
 13
160.1534293074
 23
31.6262381969
  0
SOLID
  8
0
 62
7
  6
CONTINUOUS
 10
160.1534293074
 20
31.6262381969
 11
160.5003043074
 21
31.5939739474
 12
159.4596793074
 22
31.5939739474
 13
159.4596793074
 23
31.5939739474
  0
SOLID
  8
0
 62
7
  6
CONTINUOUS
 10
159.228429528
 20
31.5294468402
 11
159.4596793074
 21
31.5939739474
 12
160.5003043074
 22
31.5939739474
 13
160.5003043074
 23
31.5939739474
  0
SOLID
  8
0
 62
7
  6
CONTINUOUS
 10
159.228429528
 20
31.5294468402
 11
160.5003043074
 21
31.5939739304
 12
160.6737418074
 22
31.5617111435
 13
160.6737418074
 23
31.5617111435
  0
SOLID
  8
0
 62
7
  6
CONTINUOUS
 10
159.228429528
 20
31.5294468402
 11
160.6737418074
 21
31.5617111435
 12
159.8065543074
 22
31.4971825592
 13
159.8065543074
 23
31.4971825592
  0
SOLID
  8
0
 62
7
  6
CONTINUOUS
 10
159.8065543074
 20
31.4971825592
 11
160.6737418074
 21
31.5617111435
 12
160.1534293074
 22
31.4971825592
 13
160.1534293074
 23
31.4971825592
  0
SOLID
  8
0
 62
7
  6
CONTINUOUS
 10
160.6737418074
 20
31.5617111435
 11
160.8471793074
 21
31.4971825592
 12
160.1534293074
 22
31.4971825592
 13
160.1534293074
 23
31.4971825592
  0
SOLID
  8
0
 62
7
  6
CONTINUOUS
 10
160.5003043074
 20
31.4649197501
 11
160.1534293074
 21
31.4971825592
 12
160.8471793074
 22
31.4971825592
 13
160.8471793074
 23
31.4971825592
  0
SOLID
  8
0
 62
7
  6
CONTINUOUS
 10
159.1128043074
 20
31.4326555427
 11
159.228429528
 21
31.5294468402
 12
159.8065543074
 22
31.4971825592
 13
159.8065543074
 23
31.4971825592
  0
SOLID
  8
0
 62
7
  6
CONTINUOUS
 10
160.5003043074
 20
31.4649197501
 11
160.8471793074
 21
31.4971825592
 12
160.615929528
 22
31.4326555427
 13
160.615929528
 23
31.4326555427
  0
SOLID
  8
0
 62
7
  6
CONTINUOUS
 10
160.615929528
 20
31.4326555427
 11
160.8471793074
 21
31.4971825592
 12
160.6737418074
 22
31.3681283005
 13
160.6737418074
 23
31.3681283005
  0
SOLID
  8
0
 62
7
  6
CONTINUOUS
 10
160.8471793074
 20
31.4971825592
 11
160.9628038663
 21
31.3681283005
 12
160.6737418074
 22
31.3681283005
 13
160.6737418074
 23
31.3681283005
  0
SOLID
  8
0
 62
7
  6
CONTINUOUS
 10
150.2674918074
 20
31.4649197501
 11
149.7471793074
 21
31.4326554237
 12
150.498741835
 22
31.4971824493
 13
150.498741835
 23
31.4971824493
  0
SOLID
  8
0
 62
7
  6
CONTINUOUS
 10
149.7471793074
 20
31.4326554237
 11
149.8628043005
 21
31.4971824493
 12
150.498741835
 22
31.4971824493
 13
150.498741835
 23
31.4971824493
  0
SOLID
  8
0
 62
7
  6
CONTINUOUS
 10
150.2674918074
 20
31.4649197501
 11
150.1518667936
 21
31.4326554237
 12
149.7471793074
 22
31.4326554237
 13
149.7471793074
 23
31.4326554237
  0
SOLID
  8
0
 62
7
  6
CONTINUOUS
 10
149.6315543091
 20
31.3036012664
 11
149.7471793074
 21
31.4326554237
 12
150.1518667936
 22
31.4326554237
 13
150.1518667936
 23
31.4326554237
  0
SOLID
  8
0
 62
7
  6
CONTINUOUS
 10
153.9674919177
 20
31.4326554237
 11
154.6612419177
 21
31.4971825369
 12
154.4299918074
 22
31.4649197501
 13
154.4299918074
 23
31.4649197501
  0
SOLID
  8
0
 62
7
  6
CONTINUOUS
 10
154.4299918074
 20
31.4649197501
 11
154.3143669177
 21
31.4326554237
 12
153.9674919177
 22
31.4326554237
 13
153.9674919177
 23
31.4326554237
  0
SOLID
  8
0
 62
7
  6
CONTINUOUS
 10
153.9674919177
 20
31.3681283335
 11
153.9674919177
 21
31.4326554237
 12
154.3143669177
 22
31.4326554237
 13
154.3143669177
 23
31.4326554237
  0
SOLID
  8
0
 62
7
  6
CONTINUOUS
 10
154.3143669177
 20
31.4326554237
 11
154.2565543074
 21
31.3681283335
 12
153.9674919177
 22
31.3681283335
 13
153.9674919177
 23
31.3681283335
  0
SOLID
  8
0
 62
7
  6
CONTINUOUS
 10
159.1128043074
 20
31.4326555528
 11
159.8065543074
 21
31.4971825369
 12
159.575304528
 22
31.4649197501
 13
159.575304528
 23
31.4649197501
  0
SOLID
  8
0
 62
7
  6
CONTINUOUS
 10
159.575304528
 20
31.4649197501
 11
159.4596793074
 21
31.4326555528
 12
159.1128043074
 22
31.4326555528
 13
159.1128043074
 23
31.4326555528
  0
SOLID
  8
0
 62
7
  6
CONTINUOUS
 10
159.1128043074
 20
31.3681284626
 11
159.1128043074
 21
31.4326555528
 12
159.4596793074
 22
31.4326555528
 13
159.4596793074
 23
31.4326555528
  0
SOLID
  8
0
 62
7
  6
CONTINUOUS
 10
159.4596793074
 20
31.4326555528
 11
159.401867028
 21
31.3681284626
 12
159.1128043074
 22
31.3681284626
 13
159.1128043074
 23
31.3681284626
  0
SOLID
  8
0
 62
7
  6
CONTINUOUS
 10
159.228429528
 20
31.2390741763
 11
159.1128043074
 21
31.3681284626
 12
159.401867028
 22
31.3681284626
 13
159.401867028
 23
31.3681284626
  0
SOLID
  8
0
 62
7
  6
CONTINUOUS
 10
149.6315543091
 20
31.3036012664
 11
150.1518667936
 21
31.4326554468
 12
149.9784292936
 22
31.3358640533
 13
149.9784292936
 23
31.3358640533
  0
SOLID
  8
0
 62
7
  6
CONTINUOUS
 10
149.9784292936
 20
31.3358640533
 11
149.9206168074
 21
31.2713369632
 12
149.6315543091
 22
31.3036012664
 13
149.6315543091
 23
31.3036012664
  0
SOLID
  8
0
 62
7
  6
CONTINUOUS
 10
149.5737418074
 20
31.1100184796
 11
149.6315543091
 21
31.3036012664
 12
149.9206168074
 22
31.2713369632
 13
149.9206168074
 23
31.2713369632
  0
SOLID
  8
0
 62
7
  6
CONTINUOUS
 10
154.4299918074
 20
31.2390741763
 11
154.7768668074
 21
31.271336924
 12
155.412804528
 22
31.271336924
 13
155.412804528
 23
31.271336924
  0
SOLID
  8
0
 62
7
  6
CONTINUOUS
 10
154.4299918074
 20
31.2390741763
 11
155.412804528
 21
31.271336924
 12
154.1987416972
 22
31.1745462761
 13
154.1987416972
 23
31.1745462761
  0
SOLID
  8
0
 62
7
  6
CONTINUOUS
 10
154.1987416972
 20
31.1745462761
 11
155.412804528
 21
31.271336924
 12
154.7768668074
 22
31.1422827436
 13
154.7768668074
 23
31.1422827436
  0
SOLID
  8
0
 62
7
  6
CONTINUOUS
 10
155.412804528
 20
31.271336924
 11
155.412804528
 21
31.1422827436
 12
154.7768668074
 22
31.1422827436
 13
154.7768668074
 23
31.1422827436
  0
SOLID
  8
0
 62
7
  6
CONTINUOUS
 10
159.228429528
 20
31.2390745501
 11
159.401867028
 21
31.3681283566
 12
159.4596793074
 22
31.3036012664
 13
159.4596793074
 23
31.3036012664
  0
SOLID
  8
0
 62
7
  6
CONTINUOUS
 10
159.4596793074
 20
31.3036012664
 11
159.6331168074
 21
31.2390745501
 12
159.228429528
 22
31.2390745501
 13
159.228429528
 23
31.2390745501
  0
SOLID
  8
0
 62
7
  6
CONTINUOUS
 10
159.4596793074
 20
31.1422827828
 11
159.228429528
 21
31.2390745501
 12
159.6331168074
 22
31.2390745501
 13
159.6331168074
 23
31.2390745501
  0
SOLID
  8
0
 62
7
  6
CONTINUOUS
 10
159.6331168074
 20
31.2390745501
 11
160.615929528
 21
31.0777556927
 12
159.4596793074
 22
31.1422827828
 13
159.4596793074
 23
31.1422827828
  0
SOLID
  8
0
 62
7
  6
CONTINUOUS
 10
160.442492028
 20
30.9809646623
 11
159.4596793074
 21
31.1422827828
 12
160.615929528
 22
31.0777556927
 13
160.615929528
 23
31.0777556927
  0
SOLID
  8
0
 62
7
  6
CONTINUOUS
 10
160.615929528
 20
31.0777556927
 11
160.8471793074
 21
30.9809646623
 12
160.442492028
 22
30.9809646623
 13
160.442492028
 23
30.9809646623
  0
SOLID
  8
0
 62
7
  6
CONTINUOUS
 10
160.615929528
 20
30.9164372091
 11
160.442492028
 21
30.9809646623
 12
160.8471793074
 22
30.9809646623
 13
160.8471793074
 23
30.9809646623
  0
SOLID
  8
0
 62
7
  6
CONTINUOUS
 10
160.615929528
 20
30.9164372091
 11
160.8471793074
 21
30.9809646623
 12
160.6737418074
 22
30.8519089441
 13
160.6737418074
 23
30.8519089441
  0
SOLID
  8
0
 62
7
  6
CONTINUOUS
 10
160.8471793074
 20
30.9809646623
 11
160.9628038663
 21
30.8519089441
 12
160.6737418074
 22
30.8519089441
 13
160.6737418074
 23
30.8519089441
  0
SOLID
  8
0
 62
7
  6
CONTINUOUS
 10
160.615929528
 20
30.7873818593
 11
160.6737418074
 21
30.8519089441
 12
160.9628038663
 22
30.8519089441
 13
160.9628038663
 23
30.8519089441
  0
SOLID
  8
0
 62
7
  6
CONTINUOUS
 10
160.9628038663
 20
30.8519089441
 11
160.9628038663
 21
30.7873818593
 12
160.615929528
 22
30.7873818593
 13
160.615929528
 23
30.7873818593
  0
SOLID
  8
0
 62
7
  6
CONTINUOUS
 10
160.5003043074
 20
30.7551187255
 11
160.615929528
 21
30.7873818593
 12
160.9628038663
 22
30.7873818593
 13
160.9628038663
 23
30.7873818593
  0
SOLID
  8
0
 62
7
  6
CONTINUOUS
 10
160.5003043074
 20
30.7551187255
 11
160.9628038663
 21
30.7873818593
 12
160.269054528
 22
30.7228547745
 13
160.269054528
 23
30.7228547745
  0
SOLID
  8
0
 62
7
  6
CONTINUOUS
 10
160.9628038663
 20
30.7873818593
 11
160.8471793074
 21
30.6905916353
 12
160.269054528
 22
30.7228547745
 13
160.269054528
 23
30.7228547745
  0
SOLID
  8
0
 62
7
  6
CONTINUOUS
 10
160.8471793074
 20
30.6905916353
 11
159.401867028
 21
30.658327332
 12
160.269054528
 22
30.7228547745
 13
160.269054528
 23
30.7228547745
  0
SOLID
  8
0
 62
7
  6
CONTINUOUS
 10
160.269054528
 20
30.7228547745
 11
159.401867028
 21
30.658327332
 12
159.922179528
 22
30.7228547745
 13
159.922179528
 23
30.7228547745
  0
SOLID
  8
0
 62
7
  6
CONTINUOUS
 10
159.401867028
 20
30.658327332
 11
159.228429528
 21
30.7228547745
 12
159.922179528
 22
30.7228547745
 13
159.922179528
 23
30.7228547745
  0
SOLID
  8
0
 62
7
  6
CONTINUOUS
 10
159.401867028
 20
30.658327332
 11
160.8471793074
 21
30.6905916353
 12
159.575304528
 22
30.6260629858
 13
159.575304528
 23
30.6260629858
  0
SOLID
  8
0
 62
7
  6
CONTINUOUS
 10
160.8471793074
 20
30.6905916353
 11
160.615929528
 21
30.6260629858
 12
159.575304528
 22
30.6260629858
 13
159.575304528
 23
30.6260629858
  0
SOLID
  8
0
 62
7
  6
CONTINUOUS
 10
159.922179528
 20
30.5938006049
 11
159.575304528
 21
30.6260629858
 12
160.615929528
 22
30.6260629858
 13
160.615929528
 23
30.6260629858
  0
SOLID
  8
0
 62
7
  6
CONTINUOUS
 10
160.615929528
 20
30.6260629858
 11
160.269054528
 21
30.5938006049
 12
159.922179528
 22
30.5938006049
 13
159.922179528
 23
30.5938006049
  0
SOLID
  8
0
 62
7
  6
CONTINUOUS
 10
149.5737418074
 20
31.1100184796
 11
149.9206168074
 21
31.2713369632
 12
149.8628043005
 22
31.1422827828
 13
149.8628043005
 23
31.1422827828
  0
SOLID
  8
0
 62
7
  6
CONTINUOUS
 10
149.8628043005
 20
31.1422827828
 11
149.8628043005
 21
31.0454914852
 12
149.5737418074
 22
31.1100184796
 13
149.5737418074
 23
31.1100184796
  0
SOLID
  8
0
 62
7
  6
CONTINUOUS
 10
149.6315543091
 20
30.9164372091
 11
149.5737418074
 21
31.1100184796
 12
149.8628043005
 22
31.0454914852
 13
149.8628043005
 23
31.0454914852
  0
SOLID
  8
0
 62
7
  6
CONTINUOUS
 10
149.8628043005
 20
31.0454914852
 11
149.9784292936
 21
30.8841729058
 12
149.6315543091
 22
30.9164372091
 13
149.6315543091
 23
30.9164372091
  0
SOLID
  8
0
 62
7
  6
CONTINUOUS
 10
149.7471793074
 20
30.7873813202
 11
149.6315543091
 21
30.9164372091
 12
149.9784292936
 22
30.8841729058
 13
149.9784292936
 23
30.8841729058
  0
SOLID
  8
0
 62
7
  6
CONTINUOUS
 10
149.9784292936
 20
30.8841729058
 11
150.1518667936
 21
30.7873813202
 12
149.7471793074
 22
30.7873813202
 13
149.7471793074
 23
30.7873813202
  0
SOLID
  8
0
 62
7
  6
CONTINUOUS
 10
149.8628043005
 20
30.7228547004
 11
149.7471793074
 21
30.7873813202
 12
150.1518667936
 22
30.7873813202
 13
150.1518667936
 23
30.7873813202
  0
SOLID
  8
0
 62
7
  6
CONTINUOUS
 10
150.1518667936
 20
30.7873813202
 11
150.498741835
 21
30.7228547004
 12
149.8628043005
 22
30.7228547004
 13
149.8628043005
 23
30.7228547004
  0
SOLID
  8
0
 62
7
  6
CONTINUOUS
 10
150.0362418212
 20
30.658327332
 11
149.8628043005
 21
30.7228547004
 12
150.498741835
 22
30.7228547004
 13
150.498741835
 23
30.7228547004
  0
SOLID
  8
0
 62
7
  6
CONTINUOUS
 10
154.0831168074
 20
31.1100184386
 11
154.1987416972
 21
31.1745462761
 12
154.7768668074
 22
31.1422827828
 13
154.7768668074
 23
31.1422827828
  0
SOLID
  8
0
 62
7
  6
CONTINUOUS
 10
154.7768668074
 20
31.1422827828
 11
154.5456166972
 21
31.1100184386
 12
154.0831168074
 22
31.1100184386
 13
154.0831168074
 23
31.1100184386
  0
SOLID
  8
0
 62
7
  6
CONTINUOUS
 10
153.9674919177
 20
30.9809642992
 11
154.0831168074
 21
31.1100184386
 12
154.5456166972
 22
31.1100184386
 13
154.5456166972
 23
31.1100184386
  0
SOLID
  8
0
 62
7
  6
CONTINUOUS
 10
154.3143669177
 20
31.0132277988
 11
153.9674919177
 21
30.9809642992
 12
154.4299918074
 22
31.0777556927
 13
154.4299918074
 23
31.0777556927
  0
SOLID
  8
0
 62
7
  6
CONTINUOUS
 10
153.9674919177
 20
30.9809642992
 11
154.5456166972
 21
31.1100184796
 12
154.4299918074
 22
31.0777556927
 13
154.4299918074
 23
31.0777556927
  0
SOLID
  8
0
 62
7
  6
CONTINUOUS
 10
154.3143669177
 20
31.0132277988
 11
154.2565543074
 21
30.9164372091
 12
153.9674919177
 22
30.9809642992
 13
153.9674919177
 23
30.9809642992
  0
SOLID
  8
0
 62
7
  6
CONTINUOUS
 10
153.9674919177
 20
30.8841729058
 11
153.9674919177
 21
30.9809642992
 12
154.2565543074
 22
30.9164372091
 13
154.2565543074
 23
30.9164372091
  0
SOLID
  8
0
 62
7
  6
CONTINUOUS
 10
154.2565543074
 20
30.9164372091
 11
154.2565543074
 21
30.8519086025
 12
153.9674919177
 22
30.8841729058
 13
153.9674919177
 23
30.8841729058
  0
SOLID
  8
0
 62
7
  6
CONTINUOUS
 10
154.0253041972
 20
30.7551187255
 11
153.9674919177
 21
30.8841729058
 12
154.2565543074
 22
30.8519086025
 13
154.2565543074
 23
30.8519086025
  0
SOLID
  8
0
 62
7
  6
CONTINUOUS
 10
155.412804528
 20
30.9487004259
 11
155.7018665869
 21
30.8519086025
 12
155.3549915869
 22
30.8841729058
 13
155.3549915869
 23
30.8841729058
  0
SOLID
  8
0
 62
7
  6
CONTINUOUS
 10
155.1815540869
 20
30.7873815123
 11
155.3549915869
 21
30.8841729058
 12
155.7018665869
 22
30.8519086025
 13
155.7018665869
 23
30.8519086025
  0
SOLID
  8
0
 62
7
  6
CONTINUOUS
 10
155.1815540869
 20
30.7873815123
 11
155.7018665869
 21
30.8519086025
 12
155.412804528
 22
30.7551187255
 13
155.412804528
 23
30.7551187255
  0
SOLID
  8
0
 62
7
  6
CONTINUOUS
 10
155.7018665869
 20
30.8519086025
 11
155.759679528
 21
30.6905916353
 12
155.412804528
 22
30.7551187255
 13
155.412804528
 23
30.7551187255
  0
SOLID
  8
0
 62
7
  6
CONTINUOUS
 10
155.4706168074
 20
30.658327332
 11
155.412804528
 21
30.7551187255
 12
155.759679528
 22
30.6905916353
 13
155.759679528
 23
30.6905916353
  0
SOLID
  8
0
 62
7
  6
CONTINUOUS
 10
155.4706168074
 20
30.658327332
 11
155.759679528
 21
30.6905916353
 12
155.5284290869
 22
30.5938002079
 13
155.5284290869
 23
30.5938002079
  0
SOLID
  8
0
 62
7
  6
CONTINUOUS
 10
155.759679528
 20
30.6905916353
 11
155.8174918074
 21
30.5938002079
 12
155.5284290869
 22
30.5938002079
 13
155.5284290869
 23
30.5938002079
  0
SOLID
  8
0
 62
7
  6
CONTINUOUS
 10
151.0768668626
 20
30.8196456577
 11
151.1346793074
 21
30.9164373395
 12
151.4237418626
 22
30.9164373395
 13
151.4237418626
 23
30.9164373395
  0
SOLID
  8
0
 62
7
  6
CONTINUOUS
 10
151.4237418626
 20
30.9164373395
 11
151.3659292523
 21
30.7873815123
 12
151.0768668626
 22
30.8196456577
 13
151.0768668626
 23
30.8196456577
  0
SOLID
  8
0
 62
7
  6
CONTINUOUS
 10
150.9034292799
 20
30.7551187255
 11
151.0768668626
 21
30.8196456577
 12
151.3659292523
 22
30.7873815123
 13
151.3659292523
 23
30.7873815123
  0
SOLID
  8
0
 62
7
  6
CONTINUOUS
 10
150.9034292799
 20
30.7551187255
 11
151.3659292523
 21
30.7873815123
 12
150.498741835
 22
30.7228544222
 13
150.498741835
 23
30.7228544222
  0
SOLID
  8
0
 62
7
  6
CONTINUOUS
 10
151.3659292523
 20
30.7873815123
 11
151.1924917523
 21
30.6905916353
 12
150.498741835
 22
30.7228544222
 13
150.498741835
 23
30.7228544222
  0
SOLID
  8
0
 62
7
  6
CONTINUOUS
 10
150.0362418212
 20
30.658327332
 11
150.498741835
 21
30.7228544222
 12
151.1924917523
 22
30.6905916353
 13
151.1924917523
 23
30.6905916353
  0
SOLID
  8
0
 62
7
  6
CONTINUOUS
 10
150.0362418212
 20
30.658327332
 11
151.1924917523
 21
30.6905916353
 12
150.2096793212
 22
30.6260631011
 13
150.2096793212
 23
30.6260631011
  0
SOLID
  8
0
 62
7
  6
CONTINUOUS
 10
151.1924917523
 20
30.6905916353
 11
150.9612418074
 21
30.6260631011
 12
150.2096793212
 22
30.6260631011
 13
150.2096793212
 23
30.6260631011
  0
SOLID
  8
0
 62
7
  6
CONTINUOUS
 10
150.5565542799
 20
30.5938002419
 11
150.2096793212
 21
30.6260631011
 12
150.9612418074
 22
30.6260631011
 13
150.9612418074
 23
30.6260631011
  0
SOLID
  8
0
 62
7
  6
CONTINUOUS
 10
154.0253041972
 20
30.7551187255
 11
154.2565543074
 21
30.8519086025
 12
154.3143669177
 22
30.7873815123
 13
154.3143669177
 23
30.7873815123
  0
SOLID
  8
0
 62
7
  6
CONTINUOUS
 10
154.3143669177
 20
30.7873815123
 11
154.5456166972
 21
30.7228544222
 12
154.0253041972
 22
30.7551187255
 13
154.0253041972
 23
30.7551187255
  0
SOLID
  8
0
 62
7
  6
CONTINUOUS
 10
154.1987416972
 20
30.658327332
 11
154.0253041972
 21
30.7551187255
 12
154.5456166972
 22
30.7228544222
 13
154.5456166972
 23
30.7228544222
  0
SOLID
  8
0
 62
7
  6
CONTINUOUS
 10
154.8924916972
 20
30.7228544637
 11
155.1815540869
 21
30.7873815123
 12
155.412804528
 22
30.7551187255
 13
155.412804528
 23
30.7551187255
  0
SOLID
  8
0
 62
7
  6
CONTINUOUS
 10
155.412804528
 20
30.7551187255
 11
155.3549915869
 21
30.6905916353
 12
154.8924916972
 22
30.7228544637
 13
154.8924916972
 23
30.7228544637
  0
SOLID
  8
0
 62
7
  6
CONTINUOUS
 10
155.3549915869
 20
30.6905916353
 11
154.1987416972
 21
30.658327332
 12
154.8924916972
 22
30.7228544637
 13
154.8924916972
 23
30.7228544637
  0
SOLID
  8
0
 62
7
  6
CONTINUOUS
 10
154.1987416972
 20
30.658327332
 11
154.5456166972
 21
30.7228544637
 12
154.8924916972
 22
30.7228544637
 13
154.8924916972
 23
30.7228544637
  0
SOLID
  8
0
 62
7
  6
CONTINUOUS
 10
154.1987416972
 20
30.658327332
 11
155.3549915869
 21
30.6905916353
 12
154.3143669177
 22
30.6260630541
 13
154.3143669177
 23
30.6260630541
  0
SOLID
  8
0
 62
7
  6
CONTINUOUS
 10
155.3549915869
 20
30.6905916353
 11
155.1815540869
 21
30.6260630541
 12
154.3143669177
 22
30.6260630541
 13
154.3143669177
 23
30.6260630541
  0
SOLID
  8
0
 62
7
  6
CONTINUOUS
 10
154.5456166972
 20
30.5938002188
 11
154.3143669177
 21
30.6260630541
 12
155.1815540869
 22
30.6260630541
 13
155.1815540869
 23
30.6260630541
  0
SOLID
  8
0
 62
7
  6
CONTINUOUS
 10
155.1815540869
 20
30.6260630541
 11
154.8924916972
 21
30.5938002188
 12
154.5456166972
 22
30.5938002188
 13
154.5456166972
 23
30.5938002188
  0
SOLID
  8
0
 62
7
  6
CONTINUOUS
 10
159.575304528
 20
30.7551187255
 11
159.228429528
 21
30.7228544637
 12
159.4596793074
 22
30.7873815123
 13
159.4596793074
 23
30.7873815123
  0
SOLID
  8
0
 62
7
  6
CONTINUOUS
 10
159.4596793074
 20
30.7873815123
 11
159.228429528
 21
30.7228544637
 12
159.401867028
 22
30.851908644
 13
159.401867028
 23
30.851908644
  0
SOLID
  8
0
 62
7
  6
CONTINUOUS
 10
159.228429528
 20
30.7228544637
 11
159.1128043074
 21
30.851908644
 12
159.401867028
 22
30.851908644
 13
159.401867028
 23
30.851908644
  0
SOLID
  8
0
 62
7
  6
CONTINUOUS
 10
159.575304528
 20
30.7551187255
 11
159.922179528
 21
30.7228544637
 12
159.228429528
 22
30.7228544637
 13
159.228429528
 23
30.7228544637
  0
SOLID
  8
0
 62
7
  6
CONTINUOUS
 10
156.279992028
 20
30.5938002419
 11
156.279992028
 21
31.6262382337
 12
156.5690540869
 22
30.5938002419
 13
156.5690540869
 23
31.6262382337
  0
ENDBLK
  8
0
  6
BYBLOCK
 62
0
  0
BLOCK
  8
0
 62
2
  6
CONTINUOUS
  2
SYMBOL_3_BL0
 70
64
 10
32.1213064866
 20
19.8534310916
  0
TEXT
  8
0
 62
7
  6
CONTINUOUS
 10
18.3860103289
 20
19.2268451992
  7
TEXTSTYLE_3
 40
2.7338706658
  1
Ammeraal Beltech
 41
1.0
 51
15.0
 72
0
  0
TEXT
  8
0
 62
7
  6
CONTINUOUS
 10
29.1868111546
 20
16.9533085264
  7
TEXTSTYLE_4
 40
1.0935482663
  1
Innovation & Service in Belting
 41
1.0
 72
0
  0
LINE
  8
0
 62
7
  6
CONTINUOUS
 10
12.3614696776
 20
19.9934385078
 11
13.1396216709
 21
23.6543558055
  0
LINE
  8
0
 62
7
  6
CONTINUOUS
 10
23.2347899607
 20
27.3177497171
 11
13.6274394139
 21
24.1961322958
  0
LINE
  8
0
 62
7
  6
CONTINUOUS
 10
12.5867530099
 20
19.3000877048
 11
20.093828271
 21
12.5406867788
  0
LINE
  8
0
 62
7
  6
CONTINUOUS
 10
12.8492874206
 20
20.5352149982
 11
23.6575567857
 21
24.0470345971
  0
LINE
  8
0
 62
7
  6
CONTINUOUS
 10
23.6533516486
 20
13.6972460334
 11
15.2078919798
 21
21.3015720751
  0
LINE
  8
0
 62
7
  6
CONTINUOUS
 10
24.1731743684
 20
26.4728246013
 11
23.1966148312
 21
21.8784731989
  0
LINE
  8
0
 62
7
  6
CONTINUOUS
 10
22.4968128835
 20
18.5861638851
 11
21.810364672
 21
15.3566789607
  0
LINE
  8
0
 62
7
  6
CONTINUOUS
 10
24.8542704669
 20
14.087448211
 11
25.8105020025
 21
18.5861638851
  0
LINE
  8
0
 62
7
  6
CONTINUOUS
 10
26.5103039502
 20
21.8784731989
 11
26.9545457526
 21
23.9684665583
  0
LINE
  8
0
 62
7
  6
CONTINUOUS
 10
20.8069293463
 20
12.3891124661
 11
24.3664527239
 21
13.5456717207
  0
LINE
  8
0
 62
7
  6
CONTINUOUS
 10
23.9478910361
 20
27.1661754044
 11
26.7292624203
 21
24.6618173613
  0
ARC
  8
0
 62
7
  6
CONTINUOUS
 10
13.8527227462
 20
23.5027814928
 40
0.7290321776
 50
108.0
 51
168.0
  0
ARC
  8
0
 62
7
  6
CONTINUOUS
 10
23.4600732931
 20
26.624398914
 40
0.7290321776
 50
348.0
 51
108.0
  0
ARC
  8
0
 62
7
  6
CONTINUOUS
 10
26.2414446773
 20
24.120040871
 40
0.7290321776
 50
348.0
 51
48.0
  0
ARC
  8
0
 62
7
  6
CONTINUOUS
 10
20.581646014
 20
13.0824632691
 40
0.7290321776
 50
228.0
 51
288.0
  0
ARC
  8
0
 62
7
  6
CONTINUOUS
 10
13.0745707529
 20
19.8418641951
 40
0.7290321776
 50
108.0
 51
228.0
  0
ARC
  8
0
 62
7
  6
CONTINUOUS
 10
24.1411693916
 20
14.2390225237
 40
0.7290321776
 50
228.0
 51
348.0
  0
ENDBLK
  8
0
  6
BYBLOCK
 62
0
  0
ENDSEC
  0
SECTION
  2
ENTITIES
  0
TEXT
  8
0
 62
5
  6
CONTINUOUS
 10
96.0
 20
25.636
  7
TEXTSTYLE_2
 40
2.8
  1
Scale :
 41
0.6
 51
0.000019
 72
0
  0
TEXT
  8
0
 62
5
  6
CONTINUOUS
 10
116.0
 20
25.636
  7
TEXTSTYLE_2
 40
2.8
  1
Belt type:
 41
0.6
 51
0.000019
 72
0
  0
INSERT
  8
0
 62
2
  6
CONTINUOUS
  2
SYMBOL_3_BL0
 10
32.1213064866
 20
19.8534310916
  0
INSERT
  8
0
 62
2
  6
CONTINUOUS
  2
SYMBOL_8_BL1
 10
173.5956734183
 20
35.5937998301
  0
LINE
  8
0
 62
2
  6
CONTINUOUS
 10
10.0
 20
30.0
 11
200.0
 21
30.0
  0
LINE
  8
0
 62
2
  6
CONTINUOUS
 10
10.0
 20
30.0
 11
10.0
 21
10.0
  0
LINE
  8
0
 62
2
  6
CONTINUOUS
 10
10.0
 20
10.0
 11
200.0
 21
10.0
  0
LINE
  8
0
 62
2
  6
CONTINUOUS
 10
95.0
 20
30.0
 11
95.0
 21
10.0
  0
LINE
  8
0
 62
2
  6
CONTINUOUS
 10
115.0
 20
30.0
 11
115.0
 21
10.0
  0
LINE
  8
0
 62
2
  6
CONTINUOUS
 10
200.0
 20
30.0
 11
200.0
 21
10.0
  0
TEXT
  8
0
 62
5
  6
CONTINUOUS
 10
13.0
 20
23.303
  7
TEXTSTYLE_5
 40
1.52
  1
                                                                     Ammeraal Beltech Modular A/S
 41
1.0
 72
0
  0
TEXT
  8
0
 62
5
  6
CONTINUOUS
 10
13.0
 20
20.595
  7
TEXTSTYLE_5
 40
1.5
  1
                                                                      Hjulmagervej 21,  7100 Vejle,  DK
 41
1.0
 72
0
  0
TEXT
  8
0
 62
5
  6
CONTINUOUS
 10
13.0
 20
17.881
  7
TEXTSTYLE_5
 40
1.495
  1
                                                                      tel: 
 41
1.0
 72
0
  0
TEXT
  8
0
 62
5
  6
CONTINUOUS
 10
57.9869465649
 20
17.881
  7
TEXTSTYLE_5
 40
1.51
  1
+45 75723100     fax: +45 75723348
 41
1.0
 72
0
  0
TEXT
  8
0
 62
5
  6
CONTINUOUS
 10
13.0
 20
15.177
  7
TEXTSTYLE_5
 40
1.5
  1
                                                                      admin@unichains.dk  www.unichains.com
 41
1.0
 72
0
  0
TEXT
  8
0
 62
5
  6
CONTINUOUS
 10
99.75
 20
13.75
  7
TEXTSTYLE_6
 40
5.0
  1
1:1
 41
0.7
 72
1
 11
105.0
 21
13.75
  0
TEXT
  8
0
 62
5
  6
CONTINUOUS
 10
118.0
 20
13.75
  7
TEXTSTYLE_7
 40
7.5
  1
uni Flex SNB CR K600
 41
0.51625
 72
0
  0
LINE
  8
0
 62
7
  6
CONTINUOUS
 10
210.0
 20
0.0
 11
0.0
 21
0.0
  0
LINE
  8
0
 62
7
  6
CONTINUOUS
 10
10.0
 20
10.0
 11
200.0
 21
10.0
  0
LINE
  8
0
 62
7
  6
CONTINUOUS
 10
10.0
 20
30.0
 11
200.0
 21
30.0
  0
LINE
  8
0
 62
7
  6
CONTINUOUS
 10
0.0
 20
0.0
 11
0.0
 21
297.0
  0
LINE
  8
0
 62
7
  6
CONTINUOUS
 10
10.0
 20
10.0
 11
10.0
 21
287.0
  0
LINE
  8
0
 62
7
  6
CONTINUOUS
 10
200.0
 20
287.0
 11
200.0
 21
10.0
  0
LINE
  8
0
 62
7
  6
CONTINUOUS
 10
210.0
 20
0.0
 11
210.0
 21
297.0
  0
LINE
  8
0
 62
7
  6
CONTINUOUS
 10
10.0
 20
287.0
 11
200.0
 21
287.0
  0
LINE
  8
0
 62
7
  6
CONTINUOUS
 10
0.0
 20
297.0
 11
210.0
 21
297.0
  0
LINE
  8
0
 62
7
  6
CONTINUOUS
 10
19.4590915351
 20
163.1801922573
 11
19.4598073157
 21
162.9523873255
  0
LINE
  8
0
 62
7
  6
CONTINUOUS
 10
17.5515419383
 20
162.5197737042
 11
17.5515419383
 21
172.3445788278
  0
LINE
  8
0
 62
7
  6
CONTINUOUS
 10
19.4590915351
 20
163.1801922573
 11
19.4590018991
 21
172.1375757467
  0
POLYLINE
  8
0
 62
7
  6
CONTINUOUS
 66
1
 70
0
  0
VERTEX
  8
0
 62
7
  6
CONTINUOUS
 10
19.4590018991
 20
172.1375757467
  0
VERTEX
  8
0
 62
7
  6
CONTINUOUS
 10
19.4595450406
 20
172.1661217583
  0
VERTEX
  8
0
 62
7
  6
CONTINUOUS
 10
19.4611701498
 20
172.1945788278
  0
SEQEND
  0
POLYLINE
  8
0
 62
7
  6
CONTINUOUS
 66
1
 70
0
  0
VERTEX
  8
0
 62
7
  6
CONTINUOUS
 10
19.4611701498
 20
172.1945788278
  0
VERTEX
  8
0
 62
7
  6
CONTINUOUS
 10
19.4694476322
 20
172.2621222369
  0
VERTEX
  8
0
 62
7
  6
CONTINUOUS
 10
19.4840724584
 20
172.3293056475
  0
VERTEX
  8
0
 62
7
  6
CONTINUOUS
 10
19.5049575469
 20
172.3950718609
  0
VERTEX
  8
0
 62
7
  6
CONTINUOUS
 10
19.5319550512
 20
172.4587607029
  0
VERTEX
  8
0
 62
7
  6
CONTINUOUS
 10
19.5651283319
 20
172.5202329118
  0
VERTEX
  8
0
 62
7
  6
CONTINUOUS
 10
19.6041952844
 20
172.5786631287
  0
VERTEX
  8
0
 62
7
  6
CONTINUOUS
 10
19.6486649855
 20
172.6332163146
  0
VERTEX
  8
0
 62
7
  6
CONTINUOUS
 10
19.6979621036
 20
172.6832360598
  0
VERTEX
  8
0
 62
7
  6
CONTINUOUS
 10
19.752116542
 20
172.7287205359
  0
VERTEX
  8
0
 62
7
  6
CONTINUOUS
 10
19.8106281824
 20
172.7691220489
  0
VERTEX
  8
0
 62
7
  6
CONTINUOUS
 10
19.8726608407
 20
172.8038304328
  0
VERTEX
  8
0
 62
7
  6
CONTINUOUS
 10
19.9372645265
 20
172.8324112539
  0
VERTEX
  8
0
 62
7
  6
CONTINUOUS
 10
20.004252486
 20
172.8548636248
  0
VERTEX
  8
0
 62
7
  6
CONTINUOUS
 10
20.0730582731
 20
172.8710015022
  0
VERTEX
  8
0
 62
7
  6
CONTINUOUS
 10
20.1426338475
 20
172.8806383546
  0
VERTEX
  8
0
 62
7
  6
CONTINUOUS
 10
20.2118593425
 20
172.8838045439
  0
SEQEND
  0
LINE
  8
0
 62
7
  6
CONTINUOUS
 10
18.2469699849
 20
159.4401268985
 11
17.7219735116
 21
161.2930556279
  0
POLYLINE
  8
0
 62
7
  6
CONTINUOUS
 66
1
 70
0
  0
VERTEX
  8
0
 62
7
  6
CONTINUOUS
 10
21.6419137268
 20
172.1945788278
  0
VERTEX
  8
0
 62
7
  6
CONTINUOUS
 10
21.643538836
 20
172.1661217589
  0
VERTEX
  8
0
 62
7
  6
CONTINUOUS
 10
21.6440819774
 20
172.1375757467
  0
SEQEND
  0
LINE
  8
0
 62
7
  6
CONTINUOUS
 10
23.5515419383
 20
163.1997237845
 11
23.5515419383
 21
169.8378096869
  0
LINE
  8
0
 62
7
  6
CONTINUOUS
 10
23.9015419383
 20
179.1917702456
 11
23.9015419383
 21
187.6178630704
  0
LINE
  8
0
 62
7
  6
CONTINUOUS
 10
21.6440819774
 20
172.1375757467
 11
21.6439923415
 21
163.1801922576
  0
LINE
  8
0
 62
7
  6
CONTINUOUS
 10
21.6439923415
 20
163.1801922576
 11
21.6432765609
 21
162.9523873255
  0
POLYLINE
  8
0
 62
7
  6
CONTINUOUS
 66
1
 70
0
  0
VERTEX
  8
0
 62
7
  6
CONTINUOUS
 10
21.6432765609
 20
162.9523873255
  0
VERTEX
  8
0
 62
7
  6
CONTINUOUS
 10
21.6398400913
 20
162.8847728624
  0
VERTEX
  8
0
 62
7
  6
CONTINUOUS
 10
21.6301146115
 20
162.8173444297
  0
VERTEX
  8
0
 62
7
  6
CONTINUOUS
 10
21.614069197
 20
162.7507133027
  0
VERTEX
  8
0
 62
7
  6
CONTINUOUS
 10
21.5916735953
 20
162.6853227465
  0
VERTEX
  8
0
 62
7
  6
CONTINUOUS
 10
21.5629969739
 20
162.6218255502
  0
VERTEX
  8
0
 62
7
  6
CONTINUOUS
 10
21.5280670761
 20
162.5606777728
  0
VERTEX
  8
0
 62
7
  6
CONTINUOUS
 10
21.4872285172
 20
162.5027654726
  0
VERTEX
  8
0
 62
7
  6
CONTINUOUS
 10
21.4408328248
 20
162.4487254129
  0
VERTEX
  8
0
 62
7
  6
CONTINUOUS
 10
21.3896336376
 20
162.3994239413
  0
VERTEX
  8
0
 62
7
  6
CONTINUOUS
 10
21.3340834566
 20
162.3552003888
  0
VERTEX
  8
0
 62
7
  6
CONTINUOUS
 10
21.2749563827
 20
162.3165472004
  0
VERTEX
  8
0
 62
7
  6
CONTINUOUS
 10
21.2131666587
 20
162.2838445372
  0
VERTEX
  8
0
 62
7
  6
CONTINUOUS
 10
21.1496287261
 20
162.2572764111
  0
VERTEX
  8
0
 62
7
  6
CONTINUOUS
 10
21.0846192669
 20
162.2366920143
  0
VERTEX
  8
0
 62
7
  6
CONTINUOUS
 10
21.0187512739
 20
162.2220848457
  0
VERTEX
  8
0
 62
7
  6
CONTINUOUS
 10
20.9523835166
 20
162.2133694244
  0
VERTEX
  8
0
 62
7
  6
CONTINUOUS
 10
20.8860909082
 20
162.2104867376
  0
SEQEND
  0
LINE
  8
0
 62
7
  6
CONTINUOUS
 10
24.3064559451
 20
189.4834144526
 11
25.7515181808
 21
192.6555022869
  0
LINE
  8
0
 62
7
  6
CONTINUOUS
 10
30.3015419383
 20
181.7874480773
 11
30.3015419383
 21
187.7955872116
  0
LINE
  8
0
 62
7
  6
CONTINUOUS
 10
30.6515419383
 20
169.8378096869
 11
30.6515419383
 21
163.0195878928
  0
LINE
  8
0
 62
7
  6
CONTINUOUS
 10
22.5564585547
 20
175.2676324875
 11
23.4014485574
 21
177.012127977
  0
LINE
  8
0
 62
7
  6
CONTINUOUS
 10
31.1809566971
 20
160.901926155
 11
32.0397772324
 21
159.2916376514
  0
LINE
  8
0
 62
7
  6
CONTINUOUS
 10
36.6515419383
 20
163.0195788278
 11
36.6515419383
 21
172.303584937
  0
LINE
  8
0
 62
7
  6
CONTINUOUS
 10
38.3257589248
 20
192.5923416464
 11
37.3541818276
 21
189.8164070831
  0
LINE
  8
0
 62
7
  6
CONTINUOUS
 10
37.1015419383
 20
188.329823049
 11
37.1015419383
 21
181.7874480773
  0
LINE
  8
0
 62
7
  6
CONTINUOUS
 10
21.8723921997
 20
159.2432897669
 11
22.8532248063
 21
160.7919728299
  0
LINE
  8
0
 62
7
  6
CONTINUOUS
 10
43.7153924968
 20
161.5455941913
 11
44.6567302843
 21
159.3491393539
  0
LINE
  8
0
 62
7
  6
CONTINUOUS
 10
30.0264829151
 20
189.3447398002
 11
28.8318719098
 21
192.6027698147
  0
LINE
  8
0
 62
7
  6
CONTINUOUS
 10
42.9015419383
 20
188.329823049
 11
42.9015419383
 21
179.8720352407
  0
LINE
  8
0
 62
7
  6
CONTINUOUS
 10
43.3515419383
 20
172.303584937
 11
43.3516315039
 21
163.2898468961
  0
LINE
  8
0
 62
7
  6
CONTINUOUS
 10
37.2643015236
 20
174.7019430304
 11
38.3862744566
 21
176.7543325418
  0
LINE
  8
0
 62
7
  6
CONTINUOUS
 10
49.6015419383
 20
179.5168043592
 11
49.6015419383
 21
188.2279580118
  0
LINE
  8
0
 62
7
  6
CONTINUOUS
 10
49.3514523727
 20
163.2898468961
 11
49.3515419383
 21
172.2885695127
  0
LINE
  8
0
 62
7
  6
CONTINUOUS
 10
49.9234000027
 20
189.8992239888
 11
51.0129591412
 21
192.6231218351
  0
LINE
  8
0
 62
7
  6
CONTINUOUS
 10
35.2633066442
 20
159.2916376514
 11
36.1221274844
 21
160.9019267267
  0
LINE
  8
0
 62
7
  6
CONTINUOUS
 10
41.61680942
 20
176.7543325418
 11
42.7387823529
 21
174.7019430304
  0
LINE
  8
0
 62
7
  6
CONTINUOUS
 10
43.5143015236
 20
177.4736771473
 11
44.7382073019
 21
175.2348251138
  0
LINE
  8
0
 62
7
  6
CONTINUOUS
 10
41.6773249518
 20
192.5923416464
 11
42.6489020619
 21
189.8164070461
  0
LINE
  8
0
 62
7
  6
CONTINUOUS
 10
56.2015419383
 20
163.4448549327
 11
56.2051566553
 21
163.2645236069
  0
LINE
  8
0
 62
7
  6
CONTINUOUS
 10
55.8015419383
 20
180.9867377445
 11
55.8015419383
 21
188.2279580118
  0
LINE
  8
0
 62
7
  6
CONTINUOUS
 10
56.2015419383
 20
172.3186054952
 11
56.2015419383
 21
163.4448549327
  0
LINE
  8
0
 62
7
  6
CONTINUOUS
 10
47.9645856953
 20
175.2361187055
 11
48.9934857789
 21
177.1270702106
  0
LINE
  8
0
 62
7
  6
CONTINUOUS
 10
49.9595980977
 20
174.6783036613
 11
51.0884981813
 21
176.7530389501
  0
LINE
  8
0
 62
7
  6
CONTINUOUS
 10
56.5117882001
 20
161.8029159527
 11
57.5628391114
 21
159.1209239722
  0
LINE
  8
0
 62
7
  6
CONTINUOUS
 10
54.9323805571
 20
176.653968093
 11
55.8929866772
 21
174.0478672631
  0
LINE
  8
0
 62
7
  6
CONTINUOUS
 10
61.9015419383
 20
162.6830292299
 11
61.9015419383
 21
171.140754781
  0
LINE
  8
0
 62
7
  6
CONTINUOUS
 10
62.5515419383
 20
189.3061371857
 11
62.5515419383
 21
180.8484028747
  0
LINE
  8
0
 62
7
  6
CONTINUOUS
 10
63.3212697
 20
192.7874284227
 11
62.7028511537
 21
190.4632406643
  0
LINE
  8
0
 62
7
  6
CONTINUOUS
 10
62.3834223349
 20
179.5627389089
 11
61.3427831225
 21
175.651729233
  0
LINE
  8
0
 62
7
  6
CONTINUOUS
 10
48.0463535923
 20
159.3491393539
 11
48.9876917731
 21
161.5455951091
  0
LINE
  8
0
 62
7
  6
CONTINUOUS
 10
57.4636982434
 20
175.5851895626
 11
56.1100971994
 21
179.2574759766
  0
LINE
  8
0
 62
7
  6
CONTINUOUS
 10
68.2515419383
 20
180.8484028747
 11
68.2515419383
 21
189.3061297556
  0
LINE
  8
0
 62
7
  6
CONTINUOUS
 10
62.0696615417
 20
172.4264187468
 11
63.110300754
 21
176.3374284227
  0
LINE
  8
0
 62
7
  6
CONTINUOUS
 10
61.1318141766
 20
159.201729233
 11
61.7502327228
 21
161.5259169912
  0
LINE
  8
0
 62
7
  6
CONTINUOUS
 10
55.479683431
 20
189.899225096
 11
54.3901247354
 21
192.6231218351
  0
LINE
  8
0
 62
7
  6
CONTINUOUS
 10
69.0528513716
 20
161.5259161727
 11
69.6712697
 21
159.201729233
  0
LINE
  8
0
 62
7
  6
CONTINUOUS
 10
68.9015419383
 20
171.140754781
 11
68.9015419383
 21
162.6830279011
  0
LINE
  8
0
 62
7
  6
CONTINUOUS
 10
76.0212697
 20
192.7874284227
 11
75.4028511537
 21
190.4632406643
  0
LINE
  8
0
 62
7
  6
CONTINUOUS
 10
67.6927831225
 20
176.3374284227
 11
68.7334223349
 21
172.4264187468
  0
LINE
  8
0
 62
7
  6
CONTINUOUS
 10
69.460300754
 20
175.651729233
 11
68.4196615417
 21
179.5627389089
  0
LINE
  8
0
 62
7
  6
CONTINUOUS
 10
68.1002325051
 20
190.4632414828
 11
67.4818141766
 21
192.7874284227
  0
LINE
  8
0
 62
7
  6
CONTINUOUS
 10
74.6015419383
 20
162.6830292299
 11
74.6015419383
 21
171.140754781
  0
LINE
  8
0
 62
7
  6
CONTINUOUS
 10
75.2515419383
 20
189.3061371857
 11
75.2515419383
 21
180.8484028747
  0
LINE
  8
0
 62
7
  6
CONTINUOUS
 10
75.0834223349
 20
179.5627389089
 11
74.0427831225
 21
175.651729233
  0
LINE
  8
0
 62
7
  6
CONTINUOUS
 10
74.7696615417
 20
172.4264187468
 11
75.810300754
 21
176.3374284227
  0
LINE
  8
0
 62
7
  6
CONTINUOUS
 10
58.2602657307
 20
158.6445788278
 11
60.4070321182
 21
158.6445788278
  0
LINE
  8
0
 62
7
  6
CONTINUOUS
 10
70.3960517584
 20
158.6445788278
 11
73.1070321182
 21
158.6445788278
  0
LINE
  8
0
 62
7
  6
CONTINUOUS
 10
83.0960517584
 20
158.6445788278
 11
85.8070321182
 21
158.6445788278
  0
LINE
  8
0
 62
7
  6
CONTINUOUS
 10
95.7960517584
 20
158.6445788278
 11
98.5070321182
 21
158.6445788278
  0
LINE
  8
0
 62
7
  6
CONTINUOUS
 10
108.4960517584
 20
158.6445788278
 11
111.2070321182
 21
158.6445788278
  0
LINE
  8
0
 62
7
  6
CONTINUOUS
 10
121.1960517584
 20
158.6445788278
 11
123.9070321182
 21
158.6445788278
  0
LINE
  8
0
 62
7
  6
CONTINUOUS
 10
133.8960517584
 20
158.6445788278
 11
136.6070321182
 21
158.6445788278
  0
LINE
  8
0
 62
7
  6
CONTINUOUS
 10
146.5960517584
 20
158.6445788278
 11
149.3070321182
 21
158.6445788278
  0
LINE
  8
0
 62
7
  6
CONTINUOUS
 10
159.2960517584
 20
158.6445788278
 11
162.0070321182
 21
158.6445788278
  0
LINE
  8
0
 62
7
  6
CONTINUOUS
 10
34.6015419383
 20
158.8945788278
 11
32.7015419383
 21
158.8945788278
  0
LINE
  8
0
 62
7
  6
CONTINUOUS
 10
18.9685650297
 20
158.8945788278
 11
21.2387778931
 21
158.8945788278
  0
LINE
  8
0
 62
7
  6
CONTINUOUS
 10
45.3460890568
 20
158.8945788278
 11
47.3569948198
 21
158.8945788278
  0
POLYLINE
  8
0
 62
7
  6
CONTINUOUS
 66
1
 70
0
  0
VERTEX
  8
0
 62
7
  6
CONTINUOUS
 10
20.2169929683
 20
162.2104867376
  0
VERTEX
  8
0
 62
7
  6
CONTINUOUS
 10
20.1466801406
 20
162.2137302043
  0
VERTEX
  8
0
 62
7
  6
CONTINUOUS
 10
20.0763345586
 20
162.2235365218
  0
VERTEX
  8
0
 62
7
  6
CONTINUOUS
 10
20.0065879803
 20
162.2399819519
  0
VERTEX
  8
0
 62
7
  6
CONTINUOUS
 10
19.9379469964
 20
162.2631477233
  0
VERTEX
  8
0
 62
7
  6
CONTINUOUS
 10
19.8710139105
 20
162.293087678
  0
VERTEX
  8
0
 62
7
  6
CONTINUOUS
 10
19.8063185532
 20
162.3298992226
  0
VERTEX
  8
0
 62
7
  6
CONTINUOUS
 10
19.7450015081
 20
162.3732665395
  0
VERTEX
  8
0
 62
7
  6
CONTINUOUS
 10
19.6881122697
 20
162.4226585678
  0
VERTEX
  8
0
 62
7
  6
CONTINUOUS
 10
19.6363422977
 20
162.4776116679
  0
VERTEX
  8
0
 62
7
  6
CONTINUOUS
 10
19.5904866372
 20
162.5373402937
  0
VERTEX
  8
0
 62
7
  6
CONTINUOUS
 10
19.5511230128
 20
162.6010020745
  0
VERTEX
  8
0
 62
7
  6
CONTINUOUS
 10
19.5186581313
 20
162.6676844298
  0
VERTEX
  8
0
 62
7
  6
CONTINUOUS
 10
19.4931752684
 20
162.7369105269
  0
VERTEX
  8
0
 62
7
  6
CONTINUOUS
 10
19.4747871908
 20
162.8081882756
  0
VERTEX
  8
0
 62
7
  6
CONTINUOUS
 10
19.4636807969
 20
162.8804102488
  0
VERTEX
  8
0
 62
7
  6
CONTINUOUS
 10
19.4598073157
 20
162.9523873255
  0
SEQEND
  0
LINE
  8
0
 62
7
  6
CONTINUOUS
 10
81.7528513716
 20
161.5259161727
 11
82.3712697
 21
159.201729233
  0
LINE
  8
0
 62
7
  6
CONTINUOUS
 10
80.9515419383
 20
180.8484028747
 11
80.9515419383
 21
189.3061297556
  0
LINE
  8
0
 62
7
  6
CONTINUOUS
 10
81.6015419383
 20
171.140754781
 11
81.6015419383
 21
162.6830279011
  0
LINE
  8
0
 62
7
  6
CONTINUOUS
 10
73.8318141766
 20
159.201729233
 11
74.4502327228
 21
161.5259169912
  0
LINE
  8
0
 62
7
  6
CONTINUOUS
 10
20.2169929683
 20
162.2104867376
 11
20.8860909082
 21
162.2104867376
  0
LINE
  8
DEFAULT_1
 62
7
  6
CENTER
 10
15.5515419383
 20
163.2945788278
 11
165.5015419383
 21
163.2945788278
  0
LINE
  8
0
 62
7
  6
CONTINUOUS
 10
80.3927831225
 20
176.3374284227
 11
81.4334223349
 21
172.4264187468
  0
LINE
  8
0
 62
7
  6
CONTINUOUS
 10
82.160300754
 20
175.651729233
 11
81.1196615417
 21
179.5627389089
  0
LINE
  8
0
 62
7
  6
CONTINUOUS
 10
87.3015419383
 20
162.6830292299
 11
87.3015419383
 21
171.140754781
  0
LINE
  8
0
 62
7
  6
CONTINUOUS
 10
87.9515419383
 20
189.306128427
 11
87.9515419383
 21
180.8484028747
  0
LINE
  8
0
 62
7
  6
CONTINUOUS
 10
88.7212697
 20
192.7874284227
 11
88.1028511537
 21
190.4632406643
  0
LINE
  8
0
 62
7
  6
CONTINUOUS
 10
87.7834223349
 20
179.5627389089
 11
86.7427831225
 21
175.651729233
  0
LINE
  8
0
 62
7
  6
CONTINUOUS
 10
87.4696615417
 20
172.4264187468
 11
88.510300754
 21
176.3374284227
  0
POLYLINE
  8
0
 62
7
  6
CONTINUOUS
 66
1
 70
0
  0
VERTEX
  8
0
 62
7
  6
CONTINUOUS
 10
20.8912245341
 20
172.8838045439
  0
VERTEX
  8
0
 62
7
  6
CONTINUOUS
 10
20.9604644204
 20
172.8806370357
  0
VERTEX
  8
0
 62
7
  6
CONTINUOUS
 10
21.0300461594
 20
172.8709976791
  0
VERTEX
  8
0
 62
7
  6
CONTINUOUS
 10
21.0988480065
 20
172.8548589026
  0
VERTEX
  8
0
 62
7
  6
CONTINUOUS
 10
21.1658284363
 20
172.8324077302
  0
VERTEX
  8
0
 62
7
  6
CONTINUOUS
 10
21.230433032
 20
172.8038254411
  0
VERTEX
  8
0
 62
7
  6
CONTINUOUS
 10
21.2924651039
 20
172.7691161866
  0
VERTEX
  8
0
 62
7
  6
CONTINUOUS
 10
21.3509710388
 20
172.728717711
  0
VERTEX
  8
0
 62
7
  6
CONTINUOUS
 10
21.4051174847
 20
172.6832400207
  0
VERTEX
  8
0
 62
7
  6
CONTINUOUS
 10
21.4544140698
 20
172.6332216896
  0
VERTEX
  8
0
 62
7
  6
CONTINUOUS
 10
21.4988867636
 20
172.5786656018
  0
VERTEX
  8
0
 62
7
  6
CONTINUOUS
 10
21.5379537727
 20
172.5202358545
  0
VERTEX
  8
0
 62
7
  6
CONTINUOUS
 10
21.5711249034
 20
172.4587688699
  0
VERTEX
  8
0
 62
7
  6
CONTINUOUS
 10
21.5981226407
 20
172.3950818376
  0
VERTEX
  8
0
 62
7
  6
CONTINUOUS
 10
21.6190105037
 20
172.3293090735
  0
VERTEX
  8
0
 62
7
  6
CONTINUOUS
 10
21.6336364051
 20
172.2621212885
  0
VERTEX
  8
0
 62
7
  6
CONTINUOUS
 10
21.6419137268
 20
172.1945788278
  0
SEQEND
  0
LINE
  8
0
 62
7
  6
CONTINUOUS
 10
80.8002325051
 20
190.4632414828
 11
80.1818141766
 21
192.7874284227
  0
LINE
  8
0
 62
7
  6
CONTINUOUS
 10
93.6515419383
 20
180.8484028747
 11
93.6515419383
 21
189.3061297556
  0
LINE
  8
0
 62
7
  6
CONTINUOUS
 10
94.3015419383
 20
171.140754781
 11
94.3015419383
 21
162.6830279011
  0
LINE
  8
0
 62
7
  6
CONTINUOUS
 10
86.5318141766
 20
159.201729233
 11
87.1502327228
 21
161.5259169912
  0
LINE
  8
0
 62
7
  6
CONTINUOUS
 10
20.8912245341
 20
172.8838045439
 11
20.2118593425
 21
172.8838045439
  0
LINE
  8
0
 62
7
  6
CONTINUOUS
 10
20.0515419383
 20
174.8445788278
 11
21.8814725618
 21
174.8445788278
  0
LINE
  8
0
 62
7
  6
CONTINUOUS
 10
45.3962933641
 20
174.8445788278
 11
47.3057941192
 21
174.8445788278
  0
LINE
  8
0
 62
7
  6
CONTINUOUS
 10
162.218001063
 20
175.0945788278
 11
159.0850828135
 21
175.0945788278
  0
LINE
  8
0
 62
7
  6
CONTINUOUS
 10
149.518001063
 20
175.0945788278
 11
146.3850828135
 21
175.0945788278
  0
LINE
  8
0
 62
7
  6
CONTINUOUS
 10
136.818001063
 20
175.0945788278
 11
133.6850828135
 21
175.0945788278
  0
LINE
  8
0
 62
7
  6
CONTINUOUS
 10
124.118001063
 20
175.0945788278
 11
120.9850828135
 21
175.0945788278
  0
LINE
  8
0
 62
7
  6
CONTINUOUS
 10
111.418001063
 20
175.0945788278
 11
108.2850828135
 21
175.0945788278
  0
LINE
  8
0
 62
7
  6
CONTINUOUS
 10
98.718001063
 20
175.0945788278
 11
95.5850828135
 21
175.0945788278
  0
LINE
  8
0
 62
7
  6
CONTINUOUS
 10
86.018001063
 20
175.0945788278
 11
82.8850828135
 21
175.0945788278
  0
LINE
  8
0
 62
7
  6
CONTINUOUS
 10
73.318001063
 20
175.0945788278
 11
70.1850828135
 21
175.0945788278
  0
LINE
  8
0
 62
7
  6
CONTINUOUS
 10
60.618001063
 20
175.0945788278
 11
58.1674149542
 21
175.0945788278
  0
LINE
  8
0
 62
7
  6
CONTINUOUS
 10
94.4528513716
 20
161.5259161727
 11
95.0712697
 21
159.201729233
  0
LINE
  8
0
 62
7
  6
CONTINUOUS
 10
93.0927831225
 20
176.3374284227
 11
94.1334223349
 21
172.4264187468
  0
LINE
  8
0
 62
7
  6
CONTINUOUS
 10
101.4212697
 20
192.7874284227
 11
100.8028511537
 21
190.4632406643
  0
LINE
  8
0
 62
7
  6
CONTINUOUS
 10
100.4834223349
 20
179.5627389089
 11
99.4427831225
 21
175.651729233
  0
LINE
  8
0
 62
7
  6
CONTINUOUS
 10
63.8350828135
 20
176.8945788278
 11
66.968001063
 21
176.8945788278
  0
LINE
  8
0
 62
7
  6
CONTINUOUS
 10
76.5350828135
 20
176.8945788278
 11
79.668001063
 21
176.8945788278
  0
LINE
  8
0
 62
7
  6
CONTINUOUS
 10
89.2350828135
 20
176.8945788278
 11
92.368001063
 21
176.8945788278
  0
LINE
  8
0
 62
7
  6
CONTINUOUS
 10
101.9350828135
 20
176.8945788278
 11
105.068001063
 21
176.8945788278
  0
LINE
  8
0
 62
7
  6
CONTINUOUS
 10
114.6350828135
 20
176.8945788278
 11
117.768001063
 21
176.8945788278
  0
LINE
  8
0
 62
7
  6
CONTINUOUS
 10
127.3350828135
 20
176.8945788278
 11
130.468001063
 21
176.8945788278
  0
LINE
  8
0
 62
7
  6
CONTINUOUS
 10
140.0350828135
 20
176.8945788278
 11
143.168001063
 21
176.8945788278
  0
LINE
  8
0
 62
7
  6
CONTINUOUS
 10
152.7350828135
 20
176.8945788278
 11
155.868001063
 21
176.8945788278
  0
LINE
  8
0
 62
7
  6
CONTINUOUS
 10
165.4350828135
 20
176.8945788278
 11
167.3515419383
 21
176.8945788278
  0
LINE
  8
0
 62
7
  6
CONTINUOUS
 10
39.0443605188
 20
177.1445788278
 11
40.9587233578
 21
177.1445788278
  0
LINE
  8
0
 62
7
  6
CONTINUOUS
 10
51.7472897574
 20
177.1445788278
 11
54.2286638462
 21
177.1445788278
  0
LINE
  8
0
 62
7
  6
CONTINUOUS
 10
94.860300754
 20
175.651729233
 11
93.8196615417
 21
179.5627389089
  0
LINE
  8
0
 62
7
  6
CONTINUOUS
 10
93.5002325051
 20
190.4632414828
 11
92.8818141766
 21
192.7874284227
  0
LINE
  8
0
 62
7
  6
CONTINUOUS
 10
100.0015419383
 20
162.68302047
 11
100.0015419383
 21
171.140754781
  0
LINE
  8
0
 62
7
  6
CONTINUOUS
 10
100.6515419383
 20
189.3061371857
 11
100.6515419383
 21
180.8484028747
  0
LINE
  8
0
 62
7
  6
CONTINUOUS
 10
100.1696615417
 20
172.4264187468
 11
101.210300754
 21
176.3374284227
  0
LINE
  8
0
 62
7
  6
CONTINUOUS
 10
99.2318141766
 20
159.201729233
 11
99.8502327228
 21
161.5259169912
  0
LINE
  8
0
 62
7
  6
CONTINUOUS
 10
107.1528513716
 20
161.5259161727
 11
107.7712697
 21
159.201729233
  0
LINE
  8
0
 62
7
  6
CONTINUOUS
 10
106.3515419383
 20
180.8484028747
 11
106.3515419383
 21
189.3061297556
  0
LINE
  8
0
 62
7
  6
CONTINUOUS
 10
107.0015419383
 20
171.140754781
 11
107.0015419383
 21
162.6830279011
  0
LINE
  8
0
 62
7
  6
CONTINUOUS
 10
114.1212697
 20
192.7874284227
 11
113.5028511537
 21
190.4632406643
  0
LINE
  8
DEFAULT_1
 62
7
  6
CENTER
 10
22.03225256
 20
188.6945788278
 11
171.8515419383
 21
188.6945788278
  0
LINE
  8
0
 62
7
  6
CONTINUOUS
 10
105.7927831225
 20
176.3374284227
 11
106.8334223349
 21
172.4264187468
  0
LINE
  8
0
 62
7
  6
CONTINUOUS
 10
107.560300754
 20
175.651729233
 11
106.5196615417
 21
179.5627389089
  0
LINE
  8
0
 62
7
  6
CONTINUOUS
 10
106.2002325051
 20
190.4632414828
 11
105.5818141766
 21
192.7874284227
  0
LINE
  8
0
 62
7
  6
CONTINUOUS
 10
112.7015419383
 20
162.6830292299
 11
112.7015419383
 21
171.140754781
  0
LINE
  8
0
 62
7
  6
CONTINUOUS
 10
113.3515419383
 20
189.3061371857
 11
113.3515419383
 21
180.8484028747
  0
LINE
  8
0
 62
7
  6
CONTINUOUS
 10
113.1834223349
 20
179.5627389089
 11
112.1427831225
 21
175.651729233
  0
LINE
  8
0
 62
7
  6
CONTINUOUS
 10
112.8696615417
 20
172.4264187468
 11
113.910300754
 21
176.3374284227
  0
LINE
  8
0
 62
7
  6
CONTINUOUS
 10
26.4340330909
 20
193.0945788278
 11
28.1277146729
 21
193.0945788278
  0
LINE
  8
0
 62
7
  6
CONTINUOUS
 10
39.033652692
 20
193.0945788278
 11
40.9694311845
 21
193.0945788278
  0
LINE
  8
0
 62
7
  6
CONTINUOUS
 10
51.7093166594
 20
193.0945788278
 11
53.6937672172
 21
193.0945788278
  0
LINE
  8
0
 62
7
  6
CONTINUOUS
 10
64.0460517584
 20
193.3445788278
 11
66.7570321182
 21
193.3445788278
  0
LINE
  8
0
 62
7
  6
CONTINUOUS
 10
76.7460517584
 20
193.3445788278
 11
79.4570321182
 21
193.3445788278
  0
LINE
  8
0
 62
7
  6
CONTINUOUS
 10
89.4460517584
 20
193.3445788278
 11
92.1570321182
 21
193.3445788278
  0
LINE
  8
0
 62
7
  6
CONTINUOUS
 10
102.1460517584
 20
193.3445788278
 11
104.8570321182
 21
193.3445788278
  0
LINE
  8
0
 62
7
  6
CONTINUOUS
 10
114.8460517584
 20
193.3445788278
 11
117.5570321182
 21
193.3445788278
  0
LINE
  8
0
 62
7
  6
CONTINUOUS
 10
127.5460517584
 20
193.3445788278
 11
130.2570321182
 21
193.3445788278
  0
LINE
  8
0
 62
7
  6
CONTINUOUS
 10
140.2460517584
 20
193.3445788278
 11
142.9570321182
 21
193.3445788278
  0
LINE
  8
0
 62
7
  6
CONTINUOUS
 10
152.9460517584
 20
193.3445788278
 11
155.6570321182
 21
193.3445788278
  0
LINE
  8
0
 62
7
  6
CONTINUOUS
 10
165.6460517584
 20
193.3445788278
 11
168.363685515
 21
193.3445788278
  0
LINE
  8
0
 62
7
  6
CONTINUOUS
 10
119.0515419383
 20
180.8484028747
 11
119.0515419383
 21
189.3061297556
  0
LINE
  8
0
 62
7
  6
CONTINUOUS
 10
119.7015419383
 20
171.140754781
 11
119.7015419383
 21
162.6830279011
  0
LINE
  8
0
 62
7
  6
CONTINUOUS
 10
111.9318141766
 20
159.201729233
 11
112.5502327228
 21
161.5259169912
  0
LINE
  8
0
 62
7
  6
CONTINUOUS
 10
119.8528513716
 20
161.5259161727
 11
120.4712697
 21
159.201729233
  0
LINE
  8
0
 62
7
  6
CONTINUOUS
 10
118.4927831225
 20
176.3374284227
 11
119.5334223349
 21
172.4264187468
  0
LINE
  8
0
 62
7
  6
CONTINUOUS
 10
120.260300754
 20
175.651729233
 11
119.2196615417
 21
179.5627389089
  0
LINE
  8
0
 62
7
  6
CONTINUOUS
 10
125.4015419383
 20
162.6830292299
 11
125.4015419383
 21
171.140754781
  0
LINE
  8
0
 62
7
  6
CONTINUOUS
 10
126.8212697
 20
192.7874284227
 11
126.2028511537
 21
190.4632406643
  0
LINE
  8
0
 62
7
  6
CONTINUOUS
 10
125.8834223349
 20
179.5627389089
 11
124.8427831225
 21
175.651729233
  0
LINE
  8
0
 62
7
  6
CONTINUOUS
 10
125.5696615417
 20
172.4264187468
 11
126.610300754
 21
176.3374284227
  0
LINE
  8
0
 62
7
  6
CONTINUOUS
 10
118.9002325051
 20
190.4632414828
 11
118.2818141766
 21
192.7874284227
  0
LINE
  8
0
 62
7
  6
CONTINUOUS
 10
126.0515419383
 20
189.306128427
 11
126.0515419383
 21
180.8484028747
  0
LINE
  8
0
 62
7
  6
CONTINUOUS
 10
124.6318141766
 20
159.201729233
 11
125.2502327228
 21
161.5259169912
  0
LINE
  8
0
 62
7
  6
CONTINUOUS
 10
132.5528513716
 20
161.5259161727
 11
133.1712697
 21
159.201729233
  0
LINE
  8
0
 62
7
  6
CONTINUOUS
 10
131.1927831225
 20
176.3374284227
 11
132.2334223349
 21
172.4264187468
  0
LINE
  8
0
 62
7
  6
CONTINUOUS
 10
131.7515419383
 20
180.8484028747
 11
131.7515419383
 21
189.3061297556
  0
LINE
  8
0
 62
7
  6
CONTINUOUS
 10
132.4015419383
 20
171.140754781
 11
132.4015419383
 21
162.6830279011
  0
LINE
  8
0
 62
7
  6
CONTINUOUS
 10
139.5212697
 20
192.7874284227
 11
138.9028511537
 21
190.4632406643
  0
LINE
  8
0
 62
7
  6
CONTINUOUS
 10
132.960300754
 20
175.651729233
 11
131.9196615417
 21
179.5627389089
  0
LINE
  8
0
 62
7
  6
CONTINUOUS
 10
131.6002325051
 20
190.4632414828
 11
130.9818141766
 21
192.7874284227
  0
LINE
  8
0
 62
7
  6
CONTINUOUS
 10
138.1015419383
 20
162.6830292299
 11
138.1015419383
 21
171.140754781
  0
LINE
  8
0
 62
7
  6
CONTINUOUS
 10
138.7515419383
 20
189.306128427
 11
138.7515419383
 21
180.8484028747
  0
LINE
  8
0
 62
7
  6
CONTINUOUS
 10
138.5834223349
 20
179.5627389089
 11
137.5427831225
 21
175.651729233
  0
LINE
  8
0
 62
7
  6
CONTINUOUS
 10
138.2696615417
 20
172.4264187468
 11
139.310300754
 21
176.3374284227
  0
LINE
  8
0
 62
7
  6
CONTINUOUS
 10
137.3318141766
 20
159.201729233
 11
137.9502327228
 21
161.5259169912
  0
LINE
  8
0
 62
7
  6
CONTINUOUS
 10
145.2528513716
 20
161.5259161727
 11
145.8712697
 21
159.201729233
  0
LINE
  8
0
 62
7
  6
CONTINUOUS
 10
144.4515419383
 20
180.8484028747
 11
144.4515419383
 21
189.3061297556
  0
LINE
  8
0
 62
7
  6
CONTINUOUS
 10
145.1015419383
 20
171.140754781
 11
145.1015419383
 21
162.6830279011
  0
LINE
  8
0
 62
7
  6
CONTINUOUS
 10
152.2212697
 20
192.7874284227
 11
151.6028511537
 21
190.4632406643
  0
LINE
  8
0
 62
7
  6
CONTINUOUS
 10
143.8927831225
 20
176.3374284227
 11
144.9334223349
 21
172.4264187468
  0
LINE
  8
0
 62
7
  6
CONTINUOUS
 10
145.660300754
 20
175.651729233
 11
144.6196615417
 21
179.5627389089
  0
LINE
  8
0
 62
7
  6
CONTINUOUS
 10
144.3002325051
 20
190.4632414828
 11
143.6818141766
 21
192.7874284227
  0
LINE
  8
0
 62
7
  6
CONTINUOUS
 10
150.8015419383
 20
162.68302047
 11
150.8015419383
 21
171.140754781
  0
LINE
  8
0
 62
7
  6
CONTINUOUS
 10
151.4515419383
 20
189.306128427
 11
151.4515419383
 21
180.8484028747
  0
LINE
  8
0
 62
7
  6
CONTINUOUS
 10
151.2834223349
 20
179.5627389089
 11
150.2427831225
 21
175.651729233
  0
LINE
  8
0
 62
7
  6
CONTINUOUS
 10
150.9696615417
 20
172.4264187468
 11
152.010300754
 21
176.3374284227
  0
LINE
  8
0
 62
7
  6
CONTINUOUS
 10
150.0318141766
 20
159.201729233
 11
150.6502327228
 21
161.5259169912
  0
LINE
  8
0
 62
7
  6
CONTINUOUS
 10
157.9528513716
 20
161.5259161727
 11
158.5712697
 21
159.201729233
  0
LINE
  8
0
 62
7
  6
CONTINUOUS
 10
156.5927831225
 20
176.3374284227
 11
157.6334223349
 21
172.4264187468
  0
LINE
  8
0
 62
7
  6
CONTINUOUS
 10
158.360300754
 20
175.651729233
 11
157.3196615417
 21
179.5627389089
  0
LINE
  8
0
 62
7
  6
CONTINUOUS
 10
157.1515419383
 20
180.8484028747
 11
157.1515419383
 21
189.3061371857
  0
LINE
  8
0
 62
7
  6
CONTINUOUS
 10
157.8015419383
 20
171.140754781
 11
157.8015419383
 21
162.68302047
  0
LINE
  8
0
 62
7
  6
CONTINUOUS
 10
164.9212697
 20
192.7874284227
 11
164.3028511537
 21
190.4632406643
  0
LINE
  8
0
 62
7
  6
CONTINUOUS
 10
163.9834223349
 20
179.5627389089
 11
162.9427831225
 21
175.651729233
  0
LINE
  8
0
 62
7
  6
CONTINUOUS
 10
157.0002325051
 20
190.4632414828
 11
156.3818141766
 21
192.7874284227
  0
LINE
  8
0
 62
7
  6
CONTINUOUS
 10
163.5015419383
 20
162.68302047
 11
163.5015419383
 21
171.140754781
  0
LINE
  8
0
 62
7
  6
CONTINUOUS
 10
164.1515419383
 20
189.306128427
 11
164.1515419383
 21
180.8484028747
  0
LINE
  8
0
 62
7
  6
CONTINUOUS
 10
169.8515419383
 20
179.3945788278
 11
169.8515419383
 21
189.4693754012
  0
LINE
  8
0
 62
7
  6
CONTINUOUS
 10
163.6696615417
 20
172.4264187468
 11
164.710300754
 21
176.3374284227
  0
LINE
  8
0
 62
7
  6
CONTINUOUS
 10
162.7318141766
 20
159.201729233
 11
163.3502327228
 21
161.5259169912
  0
LINE
  8
0
 62
7
  6
CONTINUOUS
 10
169.6811100513
 20
190.696103135
 11
169.0852805583
 21
192.7990307572
  0
POLYLINE
  8
0
 62
7
  6
CONTINUOUS
 66
1
 70
0
  0
VERTEX
  8
0
 62
7
  6
CONTINUOUS
 10
17.8773752716
 20
114.6337692748
  0
VERTEX
  8
0
 62
7
  6
CONTINUOUS
 10
17.8757839933
 20
114.8029185188
  0
VERTEX
  8
0
 62
7
  6
CONTINUOUS
 10
17.8710143826
 20
114.9713962749
  0
VERTEX
  8
0
 62
7
  6
CONTINUOUS
 10
17.8630792146
 20
115.1385297637
  0
VERTEX
  8
0
 62
7
  6
CONTINUOUS
 10
17.8520000833
 20
115.3036442535
  0
VERTEX
  8
0
 62
7
  6
CONTINUOUS
 10
17.8378078949
 20
115.4660617594
  0
VERTEX
  8
0
 62
7
  6
CONTINUOUS
 10
17.8205434596
 20
115.6251012727
  0
VERTEX
  8
0
 62
7
  6
CONTINUOUS
 10
17.8002582705
 20
115.7800787209
  0
VERTEX
  8
0
 62
7
  6
CONTINUOUS
 10
17.7770153695
 20
115.9303079396
  0
VERTEX
  8
0
 62
7
  6
CONTINUOUS
 10
17.7508902006
 20
116.0751028027
  0
VERTEX
  8
0
 62
7
  6
CONTINUOUS
 10
17.7219716699
 20
116.2137790535
  0
SEQEND
  0
LINE
  8
0
 62
7
  6
CONTINUOUS
 10
17.5515419383
 20
108.7837692748
 11
17.5515419383
 21
111.8881848625
  0
LINE
  8
0
 62
7
  6
CONTINUOUS
 10
17.5515419383
 20
111.8886304829
 11
17.5515419383
 21
112.0043296233
  0
LINE
  8
0
 62
7
  6
CONTINUOUS
 10
17.5515419383
 20
117.0632089263
 11
17.5515419383
 21
117.1643465117
  0
LINE
  8
0
 62
7
  6
CONTINUOUS
 10
17.5515419383
 20
117.1793536871
 11
17.5515419383
 21
120.2837692748
  0
LINE
  8
0
 62
7
  6
CONTINUOUS
 10
17.8773752716
 20
114.4337692748
 11
17.8773752716
 21
114.6337692748
  0
POLYLINE
  8
0
 62
7
  6
CONTINUOUS
 66
1
 70
0
  0
VERTEX
  8
0
 62
7
  6
CONTINUOUS
 10
17.5515419383
 20
112.0043296233
  0
VERTEX
  8
0
 62
7
  6
CONTINUOUS
 10
17.5540840372
 20
112.0578595073
  0
VERTEX
  8
0
 62
7
  6
CONTINUOUS
 10
17.561625062
 20
112.1218477952
  0
VERTEX
  8
0
 62
7
  6
CONTINUOUS
 10
17.5739360214
 20
112.1962893444
  0
VERTEX
  8
0
 62
7
  6
CONTINUOUS
 10
17.5906556086
 20
112.2810323088
  0
VERTEX
  8
0
 62
7
  6
CONTINUOUS
 10
17.611336724
 20
112.3759537681
  0
VERTEX
  8
0
 62
7
  6
CONTINUOUS
 10
17.6355310325
 20
112.4812430033
  0
VERTEX
  8
0
 62
7
  6
CONTINUOUS
 10
17.6917166648
 20
112.7210688952
  0
SEQEND
  0
LINE
  8
0
 62
7
  6
CONTINUOUS
 10
19.3515419383
 20
114.4337692748
 11
19.3515419383
 21
114.6337692748
  0
POLYLINE
  8
0
 62
7
  6
CONTINUOUS
 66
1
 70
0
  0
VERTEX
  8
0
 62
7
  6
CONTINUOUS
 10
19.3515419383
 20
114.4337692748
  0
VERTEX
  8
0
 62
7
  6
CONTINUOUS
 10
19.3476040016
 20
114.3571256815
  0
VERTEX
  8
0
 62
7
  6
CONTINUOUS
 10
19.3351094656
 20
114.2765061879
  0
VERTEX
  8
0
 62
7
  6
CONTINUOUS
 10
19.3131568168
 20
114.1915468903
  0
VERTEX
  8
0
 62
7
  6
CONTINUOUS
 10
19.2812080298
 20
114.1022470276
  0
VERTEX
  8
0
 62
7
  6
CONTINUOUS
 10
19.2387846396
 20
114.0079577603
  0
VERTEX
  8
0
 62
7
  6
CONTINUOUS
 10
19.1850579765
 20
113.9071926825
  0
VERTEX
  8
0
 62
7
  6
CONTINUOUS
 10
19.1194915955
 20
113.7991117929
  0
VERTEX
  8
0
 62
7
  6
CONTINUOUS
 10
19.0418383238
 20
113.6831742521
  0
VERTEX
  8
0
 62
7
  6
CONTINUOUS
 10
18.9519740224
 20
113.5588476933
  0
VERTEX
  8
0
 62
7
  6
CONTINUOUS
 10
18.8488910975
 20
113.4243865781
  0
VERTEX
  8
0
 62
7
  6
CONTINUOUS
 10
18.7319558208
 20
113.2786515042
  0
VERTEX
  8
0
 62
7
  6
CONTINUOUS
 10
18.6011622922
 20
113.121245039
  0
VERTEX
  8
0
 62
7
  6
CONTINUOUS
 10
18.4600972838
 20
112.9558360019
  0
VERTEX
  8
0
 62
7
  6
CONTINUOUS
 10
18.325284801
 20
112.8005312476
  0
VERTEX
  8
0
 62
7
  6
CONTINUOUS
 10
18.2028097804
 20
112.6609361485
  0
VERTEX
  8
0
 62
7
  6
CONTINUOUS
 10
18.0920053603
 20
112.5353390151
  0
VERTEX
  8
0
 62
7
  6
CONTINUOUS
 10
17.9922303918
 20
112.422421099
  0
VERTEX
  8
0
 62
7
  6
CONTINUOUS
 10
17.8255174312
 20
112.2329023306
  0
SEQEND
  0
POLYLINE
  8
0
 62
7
  6
CONTINUOUS
 66
1
 70
0
  0
VERTEX
  8
0
 62
7
  6
CONTINUOUS
 10
17.7219716699
 20
112.8537594961
  0
VERTEX
  8
0
 62
7
  6
CONTINUOUS
 10
17.7508902097
 20
112.9924357938
  0
VERTEX
  8
0
 62
7
  6
CONTINUOUS
 10
17.7770154038
 20
113.1372308156
  0
VERTEX
  8
0
 62
7
  6
CONTINUOUS
 10
17.8002583292
 20
113.2874602405
  0
VERTEX
  8
0
 62
7
  6
CONTINUOUS
 10
17.8205435297
 20
113.4424378635
  0
VERTEX
  8
0
 62
7
  6
CONTINUOUS
 10
17.8378079621
 20
113.6014774775
  0
VERTEX
  8
0
 62
7
  6
CONTINUOUS
 10
17.852000139
 20
113.763895017
  0
VERTEX
  8
0
 62
7
  6
CONTINUOUS
 10
17.8630792535
 20
113.9290094665
  0
VERTEX
  8
0
 62
7
  6
CONTINUOUS
 10
17.8710144036
 20
114.0961428302
  0
VERTEX
  8
0
 62
7
  6
CONTINUOUS
 10
17.8757839996
 20
114.2646203617
  0
VERTEX
  8
0
 62
7
  6
CONTINUOUS
 10
17.8773752716
 20
114.4337692748
  0
SEQEND
  0
LINE
  8
0
 62
7
  6
CONTINUOUS
 10
17.6917166648
 20
112.7210688952
 11
17.7219716699
 21
112.8537594961
  0
POLYLINE
  8
0
 62
7
  6
CONTINUOUS
 66
1
 70
0
  0
VERTEX
  8
0
 62
7
  6
CONTINUOUS
 10
17.5515419383
 20
117.1793536871
  0
VERTEX
  8
0
 62
7
  6
CONTINUOUS
 10
17.5555814116
 20
117.1669887569
  0
VERTEX
  8
0
 62
7
  6
CONTINUOUS
 10
17.5677612176
 20
117.1465114142
  0
VERTEX
  8
0
 62
7
  6
CONTINUOUS
 10
17.5882119246
 20
117.1177194633
  0
VERTEX
  8
0
 62
7
  6
CONTINUOUS
 10
17.6172018961
 20
117.0802466326
  0
VERTEX
  8
0
 62
7
  6
CONTINUOUS
 10
17.6549680954
 20
117.0337846277
  0
VERTEX
  8
0
 62
7
  6
CONTINUOUS
 10
17.7019387825
 20
116.9777885541
  0
VERTEX
  8
0
 62
7
  6
CONTINUOUS
 10
17.7587494753
 20
116.9114728684
  0
VERTEX
  8
0
 62
7
  6
CONTINUOUS
 10
17.8259272687
 20
116.8341670661
  0
VERTEX
  8
0
 62
7
  6
CONTINUOUS
 10
17.9928904286
 20
116.6443701675
  0
SEQEND
  0
POLYLINE
  8
0
 62
7
  6
CONTINUOUS
 66
1
 70
0
  0
VERTEX
  8
0
 62
7
  6
CONTINUOUS
 10
17.6355417811
 20
116.5862494703
  0
VERTEX
  8
0
 62
7
  6
CONTINUOUS
 10
17.6113460703
 20
116.6915432444
  0
VERTEX
  8
0
 62
7
  6
CONTINUOUS
 10
17.5906651675
 20
116.7864605108
  0
VERTEX
  8
0
 62
7
  6
CONTINUOUS
 10
17.5739432229
 20
116.8712098922
  0
VERTEX
  8
0
 62
7
  6
CONTINUOUS
 10
17.5616287913
 20
116.9456648751
  0
VERTEX
  8
0
 62
7
  6
CONTINUOUS
 10
17.554084982
 20
117.009668092
  0
VERTEX
  8
0
 62
7
  6
CONTINUOUS
 10
17.5515419383
 20
117.0632089263
  0
SEQEND
  0
POLYLINE
  8
0
 62
7
  6
CONTINUOUS
 66
1
 70
0
  0
VERTEX
  8
0
 62
7
  6
CONTINUOUS
 10
17.7219716699
 20
116.2137790535
  0
VERTEX
  8
0
 62
7
  6
CONTINUOUS
 10
17.6917224608
 20
116.3464446422
  0
VERTEX
  8
0
 62
7
  6
CONTINUOUS
 10
17.6355417811
 20
116.5862494703
  0
SEQEND
  0
POLYLINE
  8
0
 62
7
  6
CONTINUOUS
 66
1
 70
0
  0
VERTEX
  8
0
 62
7
  6
CONTINUOUS
 10
23.9015419383
 20
112.0306010489
  0
VERTEX
  8
0
 62
7
  6
CONTINUOUS
 10
23.8988340897
 20
112.0954973005
  0
VERTEX
  8
0
 62
7
  6
CONTINUOUS
 10
23.8908896845
 20
112.1727011057
  0
VERTEX
  8
0
 62
7
  6
CONTINUOUS
 10
23.8780845565
 20
112.2621144008
  0
VERTEX
  8
0
 62
7
  6
CONTINUOUS
 10
23.8609046385
 20
112.3636434513
  0
VERTEX
  8
0
 62
7
  6
CONTINUOUS
 10
23.8399516417
 20
112.4770687805
  0
VERTEX
  8
0
 62
7
  6
CONTINUOUS
 10
23.7896470083
 20
112.7382745016
  0
SEQEND
  0
LINE
  8
0
 62
7
  6
CONTINUOUS
 10
23.6046835789
 20
114.4337692748
 11
23.6046835789
 21
114.6337692748
  0
LINE
  8
0
 62
7
  6
CONTINUOUS
 10
23.9015419383
 20
108.7837692748
 11
23.9015419383
 21
112.0306010489
  0
LINE
  8
0
 62
7
  6
CONTINUOUS
 10
23.9015419383
 20
117.0369375007
 11
23.9015419383
 21
120.2837692748
  0
LINE
  8
0
 62
7
  6
CONTINUOUS
 10
25.1087641605
 20
114.6337692748
 11
25.1087641605
 21
114.4337692748
  0
POLYLINE
  8
0
 62
7
  6
CONTINUOUS
 66
1
 70
0
  0
VERTEX
  8
0
 62
7
  6
CONTINUOUS
 10
23.6046835789
 20
114.6337692748
  0
VERTEX
  8
0
 62
7
  6
CONTINUOUS
 10
23.6069863489
 20
114.8142493109
  0
VERTEX
  8
0
 62
7
  6
CONTINUOUS
 10
23.6138594947
 20
114.9945159248
  0
VERTEX
  8
0
 62
7
  6
CONTINUOUS
 10
23.6251516906
 20
115.1737516954
  0
VERTEX
  8
0
 62
7
  6
CONTINUOUS
 10
23.640623876
 20
115.351556749
  0
VERTEX
  8
0
 62
7
  6
CONTINUOUS
 10
23.6598815208
 20
115.5269608962
  0
VERTEX
  8
0
 62
7
  6
CONTINUOUS
 10
23.6824301853
 20
115.6992251352
  0
VERTEX
  8
0
 62
7
  6
CONTINUOUS
 10
23.7075407289
 20
115.8667905887
  0
VERTEX
  8
0
 62
7
  6
CONTINUOUS
 10
23.7344368527
 20
116.028672084
  0
VERTEX
  8
0
 62
7
  6
CONTINUOUS
 10
23.7621555551
 20
116.1833432826
  0
VERTEX
  8
0
 62
7
  6
CONTINUOUS
 10
23.7896494998
 20
116.329277055
  0
VERTEX
  8
0
 62
7
  6
CONTINUOUS
 10
23.8399539619
 20
116.5904820081
  0
SEQEND
  0
POLYLINE
  8
0
 62
7
  6
CONTINUOUS
 66
1
 70
0
  0
VERTEX
  8
0
 62
7
  6
CONTINUOUS
 10
25.1087641605
 20
114.4337692748
  0
VERTEX
  8
0
 62
7
  6
CONTINUOUS
 10
25.1061831144
 20
114.2638780567
  0
VERTEX
  8
0
 62
7
  6
CONTINUOUS
 10
25.0984397501
 20
114.0945504569
  0
VERTEX
  8
0
 62
7
  6
CONTINUOUS
 10
25.0855336188
 20
113.9263558609
  0
VERTEX
  8
0
 62
7
  6
CONTINUOUS
 10
25.0674655274
 20
113.7598814443
  0
VERTEX
  8
0
 62
7
  6
CONTINUOUS
 10
25.0442397681
 20
113.5957377355
  0
VERTEX
  8
0
 62
7
  6
CONTINUOUS
 10
25.0158667024
 20
113.4345623411
  0
VERTEX
  8
0
 62
7
  6
CONTINUOUS
 10
24.9823669318
 20
113.2770282411
  0
VERTEX
  8
0
 62
7
  6
CONTINUOUS
 10
24.9437760937
 20
113.1238474464
  0
VERTEX
  8
0
 62
7
  6
CONTINUOUS
 10
24.9001492281
 20
112.9757689504
  0
VERTEX
  8
0
 62
7
  6
CONTINUOUS
 10
24.8515661012
 20
112.8335780941
  0
VERTEX
  8
0
 62
7
  6
CONTINUOUS
 10
24.7981371798
 20
112.6980941111
  0
VERTEX
  8
0
 62
7
  6
CONTINUOUS
 10
24.7400097172
 20
112.5701641944
  0
VERTEX
  8
0
 62
7
  6
CONTINUOUS
 10
24.6773713881
 20
112.4506500301
  0
VERTEX
  8
0
 62
7
  6
CONTINUOUS
 10
24.6104552488
 20
112.340416994
  0
VERTEX
  8
0
 62
7
  6
CONTINUOUS
 10
24.5395437436
 20
112.2403196715
  0
VERTEX
  8
0
 62
7
  6
CONTINUOUS
 10
24.4649701814
 20
112.1511830062
  0
VERTEX
  8
0
 62
7
  6
CONTINUOUS
 10
24.3871187014
 20
112.0737826687
  0
VERTEX
  8
0
 62
7
  6
CONTINUOUS
 10
24.3064524773
 20
112.00884652
  0
SEQEND
  0
POLYLINE
  8
0
 62
7
  6
CONTINUOUS
 66
1
 70
0
  0
VERTEX
  8
0
 62
7
  6
CONTINUOUS
 10
23.8399539619
 20
116.5904820081
  0
VERTEX
  8
0
 62
7
  6
CONTINUOUS
 10
23.8609073587
 20
116.7039103506
  0
VERTEX
  8
0
 62
7
  6
CONTINUOUS
 10
23.8780853949
 20
116.8054294569
  0
VERTEX
  8
0
 62
7
  6
CONTINUOUS
 10
23.8908901459
 20
116.8948411238
  0
VERTEX
  8
0
 62
7
  6
CONTINUOUS
 10
23.8988341259
 20
116.9720417279
  0
VERTEX
  8
0
 62
7
  6
CONTINUOUS
 10
23.9015419383
 20
117.0369375007
  0
SEQEND
  0
POLYLINE
  8
0
 62
7
  6
CONTINUOUS
 66
1
 70
0
  0
VERTEX
  8
0
 62
7
  6
CONTINUOUS
 10
23.7896470083
 20
112.7382745016
  0
VERTEX
  8
0
 62
7
  6
CONTINUOUS
 10
23.7621533504
 20
112.8842072132
  0
VERTEX
  8
0
 62
7
  6
CONTINUOUS
 10
23.7344351447
 20
113.0388763201
  0
VERTEX
  8
0
 62
7
  6
CONTINUOUS
 10
23.707538502
 20
113.2007620073
  0
VERTEX
  8
0
 62
7
  6
CONTINUOUS
 10
23.6824283943
 20
113.3683261323
  0
VERTEX
  8
0
 62
7
  6
CONTINUOUS
 10
23.659880606
 20
113.5405852336
  0
VERTEX
  8
0
 62
7
  6
CONTINUOUS
 10
23.6406230928
 20
113.7159897379
  0
VERTEX
  8
0
 62
7
  6
CONTINUOUS
 10
23.6251514272
 20
113.8937903572
  0
VERTEX
  8
0
 62
7
  6
CONTINUOUS
 10
23.6138594053
 20
114.0730243875
  0
VERTEX
  8
0
 62
7
  6
CONTINUOUS
 10
23.6069864246
 20
114.2532862676
  0
VERTEX
  8
0
 62
7
  6
CONTINUOUS
 10
23.6046835789
 20
114.4337692748
  0
SEQEND
  0
POLYLINE
  8
0
 62
7
  6
CONTINUOUS
 66
1
 70
0
  0
VERTEX
  8
0
 62
7
  6
CONTINUOUS
 10
30.3015419383
 20
117.1619575591
  0
VERTEX
  8
0
 62
7
  6
CONTINUOUS
 10
30.3045413118
 20
117.1330673846
  0
VERTEX
  8
0
 62
7
  6
CONTINUOUS
 10
30.3134764629
 20
117.0919639906
  0
VERTEX
  8
0
 62
7
  6
CONTINUOUS
 10
30.328164885
 20
117.0386035015
  0
VERTEX
  8
0
 62
7
  6
CONTINUOUS
 10
30.3484158594
 20
116.972689231
  0
VERTEX
  8
0
 62
7
  6
CONTINUOUS
 10
30.3739134183
 20
116.8940912221
  0
VERTEX
  8
0
 62
7
  6
CONTINUOUS
 10
30.438823777
 20
116.6985310506
  0
SEQEND
  0
POLYLINE
  8
0
 62
7
  6
CONTINUOUS
 66
1
 70
0
  0
VERTEX
  8
0
 62
7
  6
CONTINUOUS
 10
29.3298752716
 20
114.4337692748
  0
VERTEX
  8
0
 62
7
  6
CONTINUOUS
 10
29.3319679663
 20
114.2632556183
  0
VERTEX
  8
0
 62
7
  6
CONTINUOUS
 10
29.3382428465
 20
114.0933804126
  0
VERTEX
  8
0
 62
7
  6
CONTINUOUS
 10
29.34869025
 20
113.9247838517
  0
VERTEX
  8
0
 62
7
  6
CONTINUOUS
 10
29.3632932658
 20
113.7581159444
  0
VERTEX
  8
0
 62
7
  6
CONTINUOUS
 10
29.3820265013
 20
113.594039173
  0
VERTEX
  8
0
 62
7
  6
CONTINUOUS
 10
29.4048548335
 20
113.4332286714
  0
VERTEX
  8
0
 62
7
  6
CONTINUOUS
 10
29.4317312229
 20
113.2763769555
  0
VERTEX
  8
0
 62
7
  6
CONTINUOUS
 10
29.4625944479
 20
113.1241941373
  0
VERTEX
  8
0
 62
7
  6
CONTINUOUS
 10
29.4973665662
 20
112.9774072036
  0
VERTEX
  8
0
 62
7
  6
CONTINUOUS
 10
29.5359508956
 20
112.8367554585
  0
VERTEX
  8
0
 62
7
  6
CONTINUOUS
 10
29.5782290327
 20
112.7029887498
  0
VERTEX
  8
0
 62
7
  6
CONTINUOUS
 10
29.6240582473
 20
112.5768619391
  0
VERTEX
  8
0
 62
7
  6
CONTINUOUS
 10
29.6732695582
 20
112.4591264849
  0
VERTEX
  8
0
 62
7
  6
CONTINUOUS
 10
29.7256663084
 20
112.3505208091
  0
VERTEX
  8
0
 62
7
  6
CONTINUOUS
 10
29.7810227324
 20
112.251760669
  0
VERTEX
  8
0
 62
7
  6
CONTINUOUS
 10
29.8390832113
 20
112.1635278903
  0
VERTEX
  8
0
 62
7
  6
CONTINUOUS
 10
29.8995630134
 20
112.0864571869
  0
VERTEX
  8
0
 62
7
  6
CONTINUOUS
 10
29.9621496714
 20
112.0211235444
  0
VERTEX
  8
0
 62
7
  6
CONTINUOUS
 10
30.0264853598
 20
111.9680443551
  0
SEQEND
  0
LINE
  8
0
 62
7
  6
CONTINUOUS
 10
29.3298752716
 20
114.6337692748
 11
29.3298752716
 21
114.4337692748
  0
LINE
  8
0
 62
7
  6
CONTINUOUS
 10
30.3015419383
 20
108.7837692748
 11
30.3015419383
 21
111.9055809906
  0
LINE
  8
0
 62
7
  6
CONTINUOUS
 10
30.3015419383
 20
117.1619575591
 11
30.3015419383
 21
120.2837692748
  0
LINE
  8
0
 62
7
  6
CONTINUOUS
 10
30.8200155779
 20
114.4337692748
 11
30.8200155779
 21
114.6337692748
  0
POLYLINE
  8
0
 62
7
  6
CONTINUOUS
 66
1
 70
0
  0
VERTEX
  8
0
 62
7
  6
CONTINUOUS
 10
30.8200155779
 20
114.4337692748
  0
VERTEX
  8
0
 62
7
  6
CONTINUOUS
 10
30.8173094411
 20
114.2667093389
  0
VERTEX
  8
0
 62
7
  6
CONTINUOUS
 10
30.8091984728
 20
114.0995315063
  0
VERTEX
  8
0
 62
7
  6
CONTINUOUS
 10
30.7957706422
 20
113.9327955962
  0
VERTEX
  8
0
 62
7
  6
CONTINUOUS
 10
30.7771448467
 20
113.7665138594
  0
VERTEX
  8
0
 62
7
  6
CONTINUOUS
 10
30.7535776833
 20
113.6013766113
  0
VERTEX
  8
0
 62
7
  6
CONTINUOUS
 10
30.725381334
 20
113.4377816055
  0
VERTEX
  8
0
 62
7
  6
CONTINUOUS
 10
30.6931134754
 20
113.2769436923
  0
VERTEX
  8
0
 62
7
  6
CONTINUOUS
 10
30.6574483138
 20
113.1199361297
  0
VERTEX
  8
0
 62
7
  6
CONTINUOUS
 10
30.6191989687
 20
112.9679152929
  0
VERTEX
  8
0
 62
7
  6
CONTINUOUS
 10
30.5793906633
 20
112.8224172753
  0
VERTEX
  8
0
 62
7
  6
CONTINUOUS
 10
30.539214508
 20
112.6851705175
  0
VERTEX
  8
0
 62
7
  6
CONTINUOUS
 10
30.4997335029
 20
112.5572397672
  0
VERTEX
  8
0
 62
7
  6
CONTINUOUS
 10
30.4619847963
 20
112.4395977446
  0
SEQEND
  0
LINE
  8
0
 62
7
  6
CONTINUOUS
 10
36.5001441032
 20
114.4337692748
 11
36.5001441032
 21
114.6337692748
  0
LINE
  8
0
 62
7
  6
CONTINUOUS
 10
37.1015419383
 20
108.7837692748
 11
37.1015419383
 21
111.8896134796
  0
LINE
  8
0
 62
7
  6
CONTINUOUS
 10
37.1015419383
 20
117.1779250701
 11
37.1015419383
 21
120.2837692748
  0
LINE
  8
0
 62
7
  6
CONTINUOUS
 10
37.8540419383
 20
114.6337692748
 11
37.8540419383
 21
114.4337692748
  0
POLYLINE
  8
0
 62
7
  6
CONTINUOUS
 66
1
 70
0
  0
VERTEX
  8
0
 62
7
  6
CONTINUOUS
 10
37.8540419383
 20
114.4337692748
  0
VERTEX
  8
0
 62
7
  6
CONTINUOUS
 10
37.8519741354
 20
114.2602874677
  0
VERTEX
  8
0
 62
7
  6
CONTINUOUS
 10
37.8457746157
 20
114.0874908422
  0
VERTEX
  8
0
 62
7
  6
CONTINUOUS
 10
37.8354549582
 20
113.9160641057
  0
VERTEX
  8
0
 62
7
  6
CONTINUOUS
 10
37.8210353069
 20
113.7467027554
  0
VERTEX
  8
0
 62
7
  6
CONTINUOUS
 10
37.8025452736
 20
113.5801114075
  0
VERTEX
  8
0
 62
7
  6
CONTINUOUS
 10
37.7800254789
 20
113.4170079346
  0
VERTEX
  8
0
 62
7
  6
CONTINUOUS
 10
37.7535295362
 20
113.258125657
  0
VERTEX
  8
0
 62
7
  6
CONTINUOUS
 10
37.723126004
 20
113.1042121572
  0
VERTEX
  8
0
 62
7
  6
CONTINUOUS
 10
37.6889005343
 20
112.9560276917
  0
VERTEX
  8
0
 62
7
  6
CONTINUOUS
 10
37.6509584899
 20
112.8143436563
  0
VERTEX
  8
0
 62
7
  6
CONTINUOUS
 10
37.6094273257
 20
112.6799378429
  0
VERTEX
  8
0
 62
7
  6
CONTINUOUS
 10
37.564458337
 20
112.5535867691
  0
VERTEX
  8
0
 62
7
  6
CONTINUOUS
 10
37.5162287076
 20
112.436058671
  0
VERTEX
  8
0
 62
7
  6
CONTINUOUS
 10
37.4649432842
 20
112.3281047379
  0
VERTEX
  8
0
 62
7
  6
CONTINUOUS
 10
37.4108349273
 20
112.2304469967
  0
VERTEX
  8
0
 62
7
  6
CONTINUOUS
 10
37.3541793346
 20
112.1437873214
  0
SEQEND
  0
POLYLINE
  8
0
 62
7
  6
CONTINUOUS
 66
1
 70
0
  0
VERTEX
  8
0
 62
7
  6
CONTINUOUS
 10
36.5001441032
 20
114.6337692748
  0
VERTEX
  8
0
 62
7
  6
CONTINUOUS
 10
36.5032971999
 20
114.8062937396
  0
VERTEX
  8
0
 62
7
  6
CONTINUOUS
 10
36.5127573688
 20
114.979059241
  0
VERTEX
  8
0
 62
7
  6
CONTINUOUS
 10
36.5284419072
 20
115.1515260768
  0
VERTEX
  8
0
 62
7
  6
CONTINUOUS
 10
36.550237651
 20
115.3237067225
  0
VERTEX
  8
0
 62
7
  6
CONTINUOUS
 10
36.5778703368
 20
115.4948770418
  0
VERTEX
  8
0
 62
7
  6
CONTINUOUS
 10
36.6109997878
 20
115.6646015719
  0
VERTEX
  8
0
 62
7
  6
CONTINUOUS
 10
36.648965401
 20
115.8314589757
  0
VERTEX
  8
0
 62
7
  6
CONTINUOUS
 10
36.6909860438
 20
115.9942868272
  0
VERTEX
  8
0
 62
7
  6
CONTINUOUS
 10
36.7359398414
 20
116.1512392296
  0
VERTEX
  8
0
 62
7
  6
CONTINUOUS
 10
36.7826063251
 20
116.3007175872
  0
VERTEX
  8
0
 62
7
  6
CONTINUOUS
 10
36.8295874813
 20
116.4409356378
  0
VERTEX
  8
0
 62
7
  6
CONTINUOUS
 10
36.8755552502
 20
116.5705352661
  0
VERTEX
  8
0
 62
7
  6
CONTINUOUS
 10
36.9192590868
 20
116.6883941699
  0
VERTEX
  8
0
 62
7
  6
CONTINUOUS
 10
36.959644828
 20
116.793803876
  0
SEQEND
  0
POLYLINE
  8
0
 62
7
  6
CONTINUOUS
 66
1
 70
0
  0
VERTEX
  8
0
 62
7
  6
CONTINUOUS
 10
30.3673912299
 20
112.1535889371
  0
VERTEX
  8
0
 62
7
  6
CONTINUOUS
 10
30.3441458512
 20
112.0813292247
  0
VERTEX
  8
0
 62
7
  6
CONTINUOUS
 10
30.325725969
 20
112.0205679354
  0
VERTEX
  8
0
 62
7
  6
CONTINUOUS
 10
30.3123765627
 20
111.9711428383
  0
VERTEX
  8
0
 62
7
  6
CONTINUOUS
 10
30.3042635419
 20
111.9328229836
  0
VERTEX
  8
0
 62
7
  6
CONTINUOUS
 10
30.3015419383
 20
111.9055809906
  0
SEQEND
  0
LINE
  8
0
 62
7
  6
CONTINUOUS
 10
30.4619847963
 20
112.4395977446
 11
30.3673912299
 21
112.1535889371
  0
POLYLINE
  8
0
 62
7
  6
CONTINUOUS
 66
1
 70
0
  0
VERTEX
  8
0
 62
7
  6
CONTINUOUS
 10
17.8255174312
 20
112.2329023306
  0
VERTEX
  8
0
 62
7
  6
CONTINUOUS
 10
17.7584453873
 20
112.155713492
  0
VERTEX
  8
0
 62
7
  6
CONTINUOUS
 10
17.7017241646
 20
112.0894970705
  0
VERTEX
  8
0
 62
7
  6
CONTINUOUS
 10
17.6548259575
 20
112.0335820619
  0
VERTEX
  8
0
 62
7
  6
CONTINUOUS
 10
17.6171133619
 20
111.9871805994
  0
VERTEX
  8
0
 62
7
  6
CONTINUOUS
 10
17.5881624457
 20
111.9497527603
  0
VERTEX
  8
0
 62
7
  6
CONTINUOUS
 10
17.5677398752
 20
111.9209949052
  0
VERTEX
  8
0
 62
7
  6
CONTINUOUS
 10
17.5555759152
 20
111.9005386569
  0
VERTEX
  8
0
 62
7
  6
CONTINUOUS
 10
17.5515419383
 20
111.8881848625
  0
SEQEND
  0
POLYLINE
  8
0
 62
7
  6
CONTINUOUS
 66
1
 70
0
  0
VERTEX
  8
0
 62
7
  6
CONTINUOUS
 10
30.438823777
 20
116.6985310506
  0
VERTEX
  8
0
 62
7
  6
CONTINUOUS
 10
30.476806968
 20
116.5821929726
  0
VERTEX
  8
0
 62
7
  6
CONTINUOUS
 10
30.5173380563
 20
116.4539748038
  0
VERTEX
  8
0
 62
7
  6
CONTINUOUS
 10
30.5592737549
 20
116.3148726327
  0
VERTEX
  8
0
 62
7
  6
CONTINUOUS
 10
30.6014066376
 20
116.1660178318
  0
VERTEX
  8
0
 62
7
  6
CONTINUOUS
 10
30.6423973552
 20
116.0091221827
  0
VERTEX
  8
0
 62
7
  6
CONTINUOUS
 10
30.6809790227
 20
115.8460375675
  0
VERTEX
  8
0
 62
7
  6
CONTINUOUS
 10
30.7160926797
 20
115.6783855036
  0
VERTEX
  8
0
 62
7
  6
CONTINUOUS
 10
30.7469442629
 20
115.5072483421
  0
VERTEX
  8
0
 62
7
  6
CONTINUOUS
 10
30.7728150518
 20
115.3341768449
  0
VERTEX
  8
0
 62
7
  6
CONTINUOUS
 10
30.7933031923
 20
115.1597307113
  0
VERTEX
  8
0
 62
7
  6
CONTINUOUS
 10
30.8080931877
 20
114.9847013096
  0
VERTEX
  8
0
 62
7
  6
CONTINUOUS
 10
30.8170322622
 20
114.8091804891
  0
VERTEX
  8
0
 62
7
  6
CONTINUOUS
 10
30.8200155779
 20
114.6337692748
  0
SEQEND
  0
POLYLINE
  8
0
 62
7
  6
CONTINUOUS
 66
1
 70
0
  0
VERTEX
  8
0
 62
7
  6
CONTINUOUS
 10
37.1015419383
 20
111.8896134796
  0
VERTEX
  8
0
 62
7
  6
CONTINUOUS
 10
37.0984994936
 20
111.9074813883
  0
VERTEX
  8
0
 62
7
  6
CONTINUOUS
 10
37.0894042637
 20
111.9375027063
  0
VERTEX
  8
0
 62
7
  6
CONTINUOUS
 10
37.0743883884
 20
111.979720962
  0
VERTEX
  8
0
 62
7
  6
CONTINUOUS
 10
37.0536769197
 20
112.0341454198
  0
SEQEND
  0
POLYLINE
  8
0
 62
7
  6
CONTINUOUS
 66
1
 70
0
  0
VERTEX
  8
0
 62
7
  6
CONTINUOUS
 10
42.1490419383
 20
114.4337692748
  0
VERTEX
  8
0
 62
7
  6
CONTINUOUS
 10
42.1511097412
 20
114.2602874677
  0
VERTEX
  8
0
 62
7
  6
CONTINUOUS
 10
42.1573092609
 20
114.0874908422
  0
VERTEX
  8
0
 62
7
  6
CONTINUOUS
 10
42.1676289184
 20
113.9160641057
  0
VERTEX
  8
0
 62
7
  6
CONTINUOUS
 10
42.1820485696
 20
113.7467027554
  0
VERTEX
  8
0
 62
7
  6
CONTINUOUS
 10
42.2005386029
 20
113.5801114075
  0
VERTEX
  8
0
 62
7
  6
CONTINUOUS
 10
42.2230583977
 20
113.4170079347
  0
VERTEX
  8
0
 62
7
  6
CONTINUOUS
 10
42.2495543403
 20
113.258125657
  0
VERTEX
  8
0
 62
7
  6
CONTINUOUS
 10
42.2799578725
 20
113.1042121572
  0
VERTEX
  8
0
 62
7
  6
CONTINUOUS
 10
42.3141833423
 20
112.9560276918
  0
VERTEX
  8
0
 62
7
  6
CONTINUOUS
 10
42.3521253867
 20
112.8143436564
  0
VERTEX
  8
0
 62
7
  6
CONTINUOUS
 10
42.3936565508
 20
112.679937843
  0
VERTEX
  8
0
 62
7
  6
CONTINUOUS
 10
42.4386255396
 20
112.5535867692
  0
VERTEX
  8
0
 62
7
  6
CONTINUOUS
 10
42.4868551689
 20
112.4360586711
  0
VERTEX
  8
0
 62
7
  6
CONTINUOUS
 10
42.5381405923
 20
112.3281047379
  0
VERTEX
  8
0
 62
7
  6
CONTINUOUS
 10
42.5922489492
 20
112.2304469968
  0
VERTEX
  8
0
 62
7
  6
CONTINUOUS
 10
42.6489045419
 20
112.1437873214
  0
SEQEND
  0
LINE
  8
0
 62
7
  6
CONTINUOUS
 10
42.1490419383
 20
114.6337692748
 11
42.1490419383
 21
114.4337692748
  0
LINE
  8
0
 62
7
  6
CONTINUOUS
 10
42.9015419383
 20
108.7837692748
 11
42.9015419383
 21
111.8896134796
  0
LINE
  8
0
 62
7
  6
CONTINUOUS
 10
42.9015419383
 20
117.1779250701
 11
42.9015419383
 21
120.2837692748
  0
POLYLINE
  8
0
 62
7
  6
CONTINUOUS
 66
1
 70
0
  0
VERTEX
  8
0
 62
7
  6
CONTINUOUS
 10
37.0536900875
 20
117.0334270982
  0
VERTEX
  8
0
 62
7
  6
CONTINUOUS
 10
37.0743972403
 20
117.0878414728
  0
VERTEX
  8
0
 62
7
  6
CONTINUOUS
 10
37.0894080617
 20
117.1300471932
  0
VERTEX
  8
0
 62
7
  6
CONTINUOUS
 10
37.0985004013
 20
117.1600607329
  0
VERTEX
  8
0
 62
7
  6
CONTINUOUS
 10
37.1015419383
 20
117.1779250701
  0
SEQEND
  0
LINE
  8
0
 62
7
  6
CONTINUOUS
 10
36.959644828
 20
116.793803876
 11
37.0536900875
 21
117.0334270982
  0
POLYLINE
  8
0
 62
7
  6
CONTINUOUS
 66
1
 70
0
  0
VERTEX
  8
0
 62
7
  6
CONTINUOUS
 10
17.9928904286
 20
116.6443701675
  0
VERTEX
  8
0
 62
7
  6
CONTINUOUS
 10
18.0928187178
 20
116.531278876
  0
VERTEX
  8
0
 62
7
  6
CONTINUOUS
 10
18.2038094038
 20
116.4054670431
  0
VERTEX
  8
0
 62
7
  6
CONTINUOUS
 10
18.3265329803
 20
116.2655785288
  0
VERTEX
  8
0
 62
7
  6
CONTINUOUS
 10
18.4615413958
 20
116.1100263889
  0
VERTEX
  8
0
 62
7
  6
CONTINUOUS
 10
18.602678417
 20
115.9444944718
  0
VERTEX
  8
0
 62
7
  6
CONTINUOUS
 10
18.7333123825
 20
115.7872275402
  0
VERTEX
  8
0
 62
7
  6
CONTINUOUS
 10
18.8501682886
 20
115.6415256575
  0
VERTEX
  8
0
 62
7
  6
CONTINUOUS
 10
18.9532167966
 20
115.5070240063
  0
VERTEX
  8
0
 62
7
  6
CONTINUOUS
 10
19.0430330433
 20
115.3826508172
  0
VERTEX
  8
0
 62
7
  6
CONTINUOUS
 10
19.1205914834
 20
115.2667057185
  0
VERTEX
  8
0
 62
7
  6
CONTINUOUS
 10
19.185973088
 20
115.1587421387
  0
VERTEX
  8
0
 62
7
  6
CONTINUOUS
 10
19.2394731552
 20
115.0581815186
  0
VERTEX
  8
0
 62
7
  6
CONTINUOUS
 10
19.2816738498
 20
114.9641392126
  0
VERTEX
  8
0
 62
7
  6
CONTINUOUS
 10
19.3134194042
 20
114.875139577
  0
VERTEX
  8
0
 62
7
  6
CONTINUOUS
 10
19.3352199948
 20
114.7904964252
  0
VERTEX
  8
0
 62
7
  6
CONTINUOUS
 10
19.3476274566
 20
114.7101836345
  0
VERTEX
  8
0
 62
7
  6
CONTINUOUS
 10
19.3515419383
 20
114.6337692748
  0
SEQEND
  0
POLYLINE
  8
0
 62
7
  6
CONTINUOUS
 66
1
 70
0
  0
VERTEX
  8
0
 62
7
  6
CONTINUOUS
 10
37.0536769197
 20
112.0341454198
  0
VERTEX
  8
0
 62
7
  6
CONTINUOUS
 10
36.9596267399
 20
112.2737812906
  0
VERTEX
  8
0
 62
7
  6
CONTINUOUS
 10
36.9192377221
 20
112.379200938
  0
VERTEX
  8
0
 62
7
  6
CONTINUOUS
 10
36.8755335233
 20
112.4970630573
  0
VERTEX
  8
0
 62
7
  6
CONTINUOUS
 10
36.8295655869
 20
112.6266662709
  0
VERTEX
  8
0
 62
7
  6
CONTINUOUS
 10
36.7825861998
 20
112.766883028
  0
VERTEX
  8
0
 62
7
  6
CONTINUOUS
 10
36.73592436
 20
112.916350948
  0
VERTEX
  8
0
 62
7
  6
CONTINUOUS
 10
36.6909752835
 20
113.0732911772
  0
VERTEX
  8
0
 62
7
  6
CONTINUOUS
 10
36.6489561167
 20
113.2361177515
  0
VERTEX
  8
0
 62
7
  6
CONTINUOUS
 10
36.6109927694
 20
113.4029701334
  0
VERTEX
  8
0
 62
7
  6
CONTINUOUS
 10
36.5778658935
 20
113.5726863949
  0
VERTEX
  8
0
 62
7
  6
CONTINUOUS
 10
36.5502348569
 20
113.7438512058
  0
VERTEX
  8
0
 62
7
  6
CONTINUOUS
 10
36.5284409157
 20
113.9160215802
  0
VERTEX
  8
0
 62
7
  6
CONTINUOUS
 10
36.5127572141
 20
114.0884814303
  0
VERTEX
  8
0
 62
7
  6
CONTINUOUS
 10
36.5032974905
 20
114.2612368556
  0
VERTEX
  8
0
 62
7
  6
CONTINUOUS
 10
36.5001441032
 20
114.4337692748
  0
SEQEND
  0
LINE
  8
0
 62
7
  6
CONTINUOUS
 10
43.5029397734
 20
114.4337692748
 11
43.5029397734
 21
114.6337692748
  0
POLYLINE
  8
0
 62
7
  6
CONTINUOUS
 66
1
 70
0
  0
VERTEX
  8
0
 62
7
  6
CONTINUOUS
 10
43.5029397734
 20
114.4337692748
  0
VERTEX
  8
0
 62
7
  6
CONTINUOUS
 10
43.4997863444
 20
114.2612357159
  0
VERTEX
  8
0
 62
7
  6
CONTINUOUS
 10
43.4903265114
 20
114.0884793585
  0
VERTEX
  8
0
 62
7
  6
CONTINUOUS
 10
43.4746426379
 20
113.9160186135
  0
VERTEX
  8
0
 62
7
  6
CONTINUOUS
 10
43.4528484573
 20
113.7438473052
  0
VERTEX
  8
0
 62
7
  6
CONTINUOUS
 10
43.4252170601
 20
113.5726812255
  0
VERTEX
  8
0
 62
7
  6
CONTINUOUS
 10
43.3920898446
 20
113.4029641686
  0
VERTEX
  8
0
 62
7
  6
CONTINUOUS
 10
43.354126196
 20
113.2361113205
  0
VERTEX
  8
0
 62
7
  6
CONTINUOUS
 10
43.3121069998
 20
113.0732853353
  0
VERTEX
  8
0
 62
7
  6
CONTINUOUS
 10
43.2671570376
 20
112.9163426811
  0
VERTEX
  8
0
 62
7
  6
CONTINUOUS
 10
43.2204942232
 20
112.7668723773
  0
VERTEX
  8
0
 62
7
  6
CONTINUOUS
 10
43.1735145446
 20
112.6266554332
  0
VERTEX
  8
0
 62
7
  6
CONTINUOUS
 10
43.1275465791
 20
112.4970526739
  0
VERTEX
  8
0
 62
7
  6
CONTINUOUS
 10
43.0838426069
 20
112.3791915466
  0
VERTEX
  8
0
 62
7
  6
CONTINUOUS
 10
43.0434542347
 20
112.2737738116
  0
SEQEND
  0
POLYLINE
  8
0
 62
7
  6
CONTINUOUS
 66
1
 70
0
  0
VERTEX
  8
0
 62
7
  6
CONTINUOUS
 10
42.9494051435
 20
112.034140742
  0
VERTEX
  8
0
 62
7
  6
CONTINUOUS
 10
42.9286939643
 20
111.9797168502
  0
VERTEX
  8
0
 62
7
  6
CONTINUOUS
 10
42.9136786384
 20
111.9374997944
  0
VERTEX
  8
0
 62
7
  6
CONTINUOUS
 10
42.9045840669
 20
111.9074801446
  0
VERTEX
  8
0
 62
7
  6
CONTINUOUS
 10
42.9015419383
 20
111.8896134796
  0
SEQEND
  0
LINE
  8
0
 62
7
  6
CONTINUOUS
 10
43.0434542347
 20
112.2737738116
 11
42.9494051435
 21
112.034140742
  0
POLYLINE
  8
0
 62
7
  6
CONTINUOUS
 66
1
 70
0
  0
VERTEX
  8
0
 62
7
  6
CONTINUOUS
 10
37.3541793346
 20
116.9237512282
  0
VERTEX
  8
0
 62
7
  6
CONTINUOUS
 10
37.4108348368
 20
116.8370917036
  0
VERTEX
  8
0
 62
7
  6
CONTINUOUS
 10
37.464943197
 20
116.739433982
  0
VERTEX
  8
0
 62
7
  6
CONTINUOUS
 10
37.516228687
 20
116.6314799254
  0
VERTEX
  8
0
 62
7
  6
CONTINUOUS
 10
37.5644584256
 20
116.5139515484
  0
VERTEX
  8
0
 62
7
  6
CONTINUOUS
 10
37.609427539
 20
116.3876000637
  0
VERTEX
  8
0
 62
7
  6
CONTINUOUS
 10
37.6509588166
 20
116.253193758
  0
VERTEX
  8
0
 62
7
  6
CONTINUOUS
 10
37.688900946
 20
116.1115092037
  0
VERTEX
  8
0
 62
7
  6
CONTINUOUS
 10
37.72312646
 20
115.9633242602
  0
VERTEX
  8
0
 62
7
  6
CONTINUOUS
 10
37.7535299991
 20
115.809410347
  0
VERTEX
  8
0
 62
7
  6
CONTINUOUS
 10
37.7800259173
 20
115.650527734
  0
VERTEX
  8
0
 62
7
  6
CONTINUOUS
 10
37.802545653
 20
115.4874240916
  0
VERTEX
  8
0
 62
7
  6
CONTINUOUS
 10
37.8210356024
 20
115.3208327774
  0
VERTEX
  8
0
 62
7
  6
CONTINUOUS
 10
37.8354551575
 20
115.1514716979
  0
VERTEX
  8
0
 62
7
  6
CONTINUOUS
 10
37.8457747197
 20
114.9800455386
  0
VERTEX
  8
0
 62
7
  6
CONTINUOUS
 10
37.8519741655
 20
114.8072498227
  0
VERTEX
  8
0
 62
7
  6
CONTINUOUS
 10
37.8540419383
 20
114.6337692748
  0
SEQEND
  0
POLYLINE
  8
0
 62
7
  6
CONTINUOUS
 66
1
 70
0
  0
VERTEX
  8
0
 62
7
  6
CONTINUOUS
 10
42.9493920347
 20
117.0334316238
  0
VERTEX
  8
0
 62
7
  6
CONTINUOUS
 10
43.0434362386
 20
116.7938111176
  0
VERTEX
  8
0
 62
7
  6
CONTINUOUS
 10
43.0838213358
 20
116.6884033134
  0
VERTEX
  8
0
 62
7
  6
CONTINUOUS
 10
43.127524937
 20
116.5705454158
  0
VERTEX
  8
0
 62
7
  6
CONTINUOUS
 10
43.1734927517
 20
116.4409461817
  0
VERTEX
  8
0
 62
7
  6
CONTINUOUS
 10
43.2204742075
 20
116.3007278996
  0
VERTEX
  8
0
 62
7
  6
CONTINUOUS
 10
43.2671416499
 20
116.1512471841
  0
VERTEX
  8
0
 62
7
  6
CONTINUOUS
 10
43.3120962911
 20
115.9942924799
  0
VERTEX
  8
0
 62
7
  6
CONTINUOUS
 10
43.354116947
 20
115.8314652613
  0
VERTEX
  8
0
 62
7
  6
CONTINUOUS
 10
43.3920828511
 20
115.6646074187
  0
VERTEX
  8
0
 62
7
  6
CONTINUOUS
 10
43.4252126403
 20
115.4948820795
  0
VERTEX
  8
0
 62
7
  6
CONTINUOUS
 10
43.452845671
 20
115.3237105686
  0
VERTEX
  8
0
 62
7
  6
CONTINUOUS
 10
43.474641652
 20
115.1515289916
  0
VERTEX
  8
0
 62
7
  6
CONTINUOUS
 10
43.4903263573
 20
114.9790613035
  0
VERTEX
  8
0
 62
7
  6
CONTINUOUS
 10
43.4997866357
 20
114.8062948596
  0
VERTEX
  8
0
 62
7
  6
CONTINUOUS
 10
43.5029397734
 20
114.6337692748
  0
SEQEND
  0
POLYLINE
  8
0
 62
7
  6
CONTINUOUS
 66
1
 70
0
  0
VERTEX
  8
0
 62
7
  6
CONTINUOUS
 10
42.9015419383
 20
117.1779250701
  0
VERTEX
  8
0
 62
7
  6
CONTINUOUS
 10
42.9045831635
 20
117.1600619601
  0
VERTEX
  8
0
 62
7
  6
CONTINUOUS
 10
42.9136748564
 20
117.1300500577
  0
VERTEX
  8
0
 62
7
  6
CONTINUOUS
 10
42.928685141
 20
117.0878455078
  0
VERTEX
  8
0
 62
7
  6
CONTINUOUS
 10
42.9493920347
 20
117.0334316238
  0
SEQEND
  0
POLYLINE
  8
0
 62
7
  6
CONTINUOUS
 66
1
 70
0
  0
VERTEX
  8
0
 62
7
  6
CONTINUOUS
 10
49.6015419383
 20
111.9389838912
  0
VERTEX
  8
0
 62
7
  6
CONTINUOUS
 10
49.5986749874
 20
111.9808950164
  0
VERTEX
  8
0
 62
7
  6
CONTINUOUS
 10
49.5901691803
 20
112.0348966048
  0
VERTEX
  8
0
 62
7
  6
CONTINUOUS
 10
49.5761985597
 20
112.1012921027
  0
VERTEX
  8
0
 62
7
  6
CONTINUOUS
 10
49.5570689796
 20
112.1801401123
  0
VERTEX
  8
0
 62
7
  6
CONTINUOUS
 10
49.5332482755
 20
112.2712800085
  0
VERTEX
  8
0
 62
7
  6
CONTINUOUS
 10
49.4737926251
 20
112.4902213297
  0
SEQEND
  0
LINE
  8
0
 62
7
  6
CONTINUOUS
 10
49.1743533165
 20
114.4337692748
 11
49.1743533165
 21
114.6337692748
  0
LINE
  8
0
 62
7
  6
CONTINUOUS
 10
49.6015419383
 20
108.7837692748
 11
49.6015419383
 21
111.9389838912
  0
LINE
  8
0
 62
7
  6
CONTINUOUS
 10
49.6015419383
 20
117.1285546584
 11
49.6015419383
 21
120.2837692748
  0
LINE
  8
0
 62
7
  6
CONTINUOUS
 10
50.4615419383
 20
114.6337692748
 11
50.4615419383
 21
114.4337692748
  0
POLYLINE
  8
0
 62
7
  6
CONTINUOUS
 66
1
 70
0
  0
VERTEX
  8
0
 62
7
  6
CONTINUOUS
 10
50.4615419383
 20
114.4337692748
  0
VERTEX
  8
0
 62
7
  6
CONTINUOUS
 10
50.4593547435
 20
114.2668656069
  0
VERTEX
  8
0
 62
7
  6
CONTINUOUS
 10
50.452795222
 20
114.1005389106
  0
VERTEX
  8
0
 62
7
  6
CONTINUOUS
 10
50.4418695256
 20
113.9353673403
  0
VERTEX
  8
0
 62
7
  6
CONTINUOUS
 10
50.4265889242
 20
113.7719420906
  0
VERTEX
  8
0
 62
7
  6
CONTINUOUS
 10
50.4069709123
 20
113.6108670325
  0
VERTEX
  8
0
 62
7
  6
CONTINUOUS
 10
50.3830410859
 20
113.4527641935
  0
VERTEX
  8
0
 62
7
  6
CONTINUOUS
 10
50.3548356054
 20
113.2982774275
  0
VERTEX
  8
0
 62
7
  6
CONTINUOUS
 10
50.3224036779
 20
113.1480724897
  0
VERTEX
  8
0
 62
7
  6
CONTINUOUS
 10
50.2858102921
 20
113.002836566
  0
VERTEX
  8
0
 62
7
  6
CONTINUOUS
 10
50.245139658
 20
112.8632782989
  0
VERTEX
  8
0
 62
7
  6
CONTINUOUS
 10
50.2004984997
 20
112.7301243993
  0
VERTEX
  8
0
 62
7
  6
CONTINUOUS
 10
50.1520186046
 20
112.6041127041
  0
VERTEX
  8
0
 62
7
  6
CONTINUOUS
 10
50.0998598771
 20
112.4859860935
  0
VERTEX
  8
0
 62
7
  6
CONTINUOUS
 10
50.0442132565
 20
112.3764845319
  0
VERTEX
  8
0
 62
7
  6
CONTINUOUS
 10
49.985301942
 20
112.2763329223
  0
VERTEX
  8
0
 62
7
  6
CONTINUOUS
 10
49.9233968293
 20
112.1862486075
  0
SEQEND
  0
POLYLINE
  8
0
 62
7
  6
CONTINUOUS
 66
1
 70
0
  0
VERTEX
  8
0
 62
7
  6
CONTINUOUS
 10
49.1743533165
 20
114.6337692748
  0
VERTEX
  8
0
 62
7
  6
CONTINUOUS
 10
49.1770487043
 20
114.810131066
  0
VERTEX
  8
0
 62
7
  6
CONTINUOUS
 10
49.1851216971
 20
114.986600255
  0
VERTEX
  8
0
 62
7
  6
CONTINUOUS
 10
49.1984509966
 20
115.1623899733
  0
VERTEX
  8
0
 62
7
  6
CONTINUOUS
 10
49.2168411837
 20
115.3372059643
  0
VERTEX
  8
0
 62
7
  6
CONTINUOUS
 10
49.2399351623
 20
115.5101502231
  0
VERTEX
  8
0
 62
7
  6
CONTINUOUS
 10
49.2673338827
 20
115.6808612601
  0
VERTEX
  8
0
 62
7
  6
CONTINUOUS
 10
49.2983605427
 20
115.8479364902
  0
VERTEX
  8
0
 62
7
  6
CONTINUOUS
 10
49.332147146
 20
116.0098421136
  0
VERTEX
  8
0
 62
7
  6
CONTINUOUS
 10
49.367741389
 20
116.1653042568
  0
VERTEX
  8
0
 62
7
  6
CONTINUOUS
 10
49.4039855538
 20
116.3126149106
  0
VERTEX
  8
0
 62
7
  6
CONTINUOUS
 10
49.4396860087
 20
116.4502514123
  0
VERTEX
  8
0
 62
7
  6
CONTINUOUS
 10
49.4737829219
 20
116.5772814634
  0
VERTEX
  8
0
 62
7
  6
CONTINUOUS
 10
49.5332395986
 20
116.7962260722
  0
SEQEND
  0
POLYLINE
  8
0
 62
7
  6
CONTINUOUS
 66
1
 70
0
  0
VERTEX
  8
0
 62
7
  6
CONTINUOUS
 10
49.5332395986
 20
116.7962260722
  0
VERTEX
  8
0
 62
7
  6
CONTINUOUS
 10
49.5570629393
 20
116.8873746204
  0
VERTEX
  8
0
 62
7
  6
CONTINUOUS
 10
49.5761957173
 20
116.9662340215
  0
VERTEX
  8
0
 62
7
  6
CONTINUOUS
 10
49.5901690979
 20
117.0326415055
  0
VERTEX
  8
0
 62
7
  6
CONTINUOUS
 10
49.5986752482
 20
117.0866457213
  0
VERTEX
  8
0
 62
7
  6
CONTINUOUS
 10
49.6015419383
 20
117.1285546584
  0
SEQEND
  0
POLYLINE
  8
0
 62
7
  6
CONTINUOUS
 66
1
 70
0
  0
VERTEX
  8
0
 62
7
  6
CONTINUOUS
 10
42.6489045419
 20
116.9237512282
  0
VERTEX
  8
0
 62
7
  6
CONTINUOUS
 10
42.5922490397
 20
116.8370917035
  0
VERTEX
  8
0
 62
7
  6
CONTINUOUS
 10
42.5381406796
 20
116.739433982
  0
VERTEX
  8
0
 62
7
  6
CONTINUOUS
 10
42.4868551896
 20
116.6314799253
  0
VERTEX
  8
0
 62
7
  6
CONTINUOUS
 10
42.4386254509
 20
116.5139515483
  0
VERTEX
  8
0
 62
7
  6
CONTINUOUS
 10
42.3936563376
 20
116.3876000636
  0
VERTEX
  8
0
 62
7
  6
CONTINUOUS
 10
42.35212506
 20
116.253193758
  0
VERTEX
  8
0
 62
7
  6
CONTINUOUS
 10
42.3141829306
 20
116.1115092037
  0
VERTEX
  8
0
 62
7
  6
CONTINUOUS
 10
42.2799574165
 20
115.9633242601
  0
VERTEX
  8
0
 62
7
  6
CONTINUOUS
 10
42.2495538774
 20
115.809410347
  0
VERTEX
  8
0
 62
7
  6
CONTINUOUS
 10
42.2230579593
 20
115.6505277339
  0
VERTEX
  8
0
 62
7
  6
CONTINUOUS
 10
42.2005382236
 20
115.4874240916
  0
VERTEX
  8
0
 62
7
  6
CONTINUOUS
 10
42.1820482742
 20
115.3208327774
  0
VERTEX
  8
0
 62
7
  6
CONTINUOUS
 10
42.1676287191
 20
115.1514716979
  0
VERTEX
  8
0
 62
7
  6
CONTINUOUS
 10
42.1573091568
 20
114.9800455386
  0
VERTEX
  8
0
 62
7
  6
CONTINUOUS
 10
42.1511097111
 20
114.8072498227
  0
VERTEX
  8
0
 62
7
  6
CONTINUOUS
 10
42.1490419383
 20
114.6337692748
  0
SEQEND
  0
POLYLINE
  8
0
 62
7
  6
CONTINUOUS
 66
1
 70
0
  0
VERTEX
  8
0
 62
7
  6
CONTINUOUS
 10
37.3541793346
 20
112.1437873214
  0
VERTEX
  8
0
 62
7
  6
CONTINUOUS
 10
37.3023315245
 20
112.0731899221
  0
VERTEX
  8
0
 62
7
  6
CONTINUOUS
 10
37.2563460686
 20
112.0143013328
  0
VERTEX
  8
0
 62
7
  6
CONTINUOUS
 10
37.2163509142
 20
111.9667548651
  0
VERTEX
  8
0
 62
7
  6
CONTINUOUS
 10
37.1823415664
 20
111.9301552173
  0
VERTEX
  8
0
 62
7
  6
CONTINUOUS
 10
37.1543842814
 20
111.9042883103
  0
VERTEX
  8
0
 62
7
  6
CONTINUOUS
 10
37.1323900614
 20
111.8888726925
  0
VERTEX
  8
0
 62
7
  6
CONTINUOUS
 10
37.1163492756
 20
111.8837692748
  0
SEQEND
  0
POLYLINE
  8
0
 62
7
  6
CONTINUOUS
 66
1
 70
0
  0
VERTEX
  8
0
 62
7
  6
CONTINUOUS
 10
42.6489045419
 20
116.9237512282
  0
VERTEX
  8
0
 62
7
  6
CONTINUOUS
 10
42.7007501183
 20
116.9943456756
  0
VERTEX
  8
0
 62
7
  6
CONTINUOUS
 10
42.7467350059
 20
117.0532337531
  0
VERTEX
  8
0
 62
7
  6
CONTINUOUS
 10
42.7867364726
 20
117.1007876707
  0
VERTEX
  8
0
 62
7
  6
CONTINUOUS
 10
42.8207505827
 20
117.1373916602
  0
VERTEX
  8
0
 62
7
  6
CONTINUOUS
 10
42.8487076729
 20
117.1632569069
  0
VERTEX
  8
0
 62
7
  6
CONTINUOUS
 10
42.870697999
 20
117.1786681093
  0
VERTEX
  8
0
 62
7
  6
CONTINUOUS
 10
42.886734601
 20
117.1837692748
  0
SEQEND
  0
POLYLINE
  8
0
 62
7
  6
CONTINUOUS
 66
1
 70
0
  0
VERTEX
  8
0
 62
7
  6
CONTINUOUS
 10
30.0264853598
 20
117.0994941945
  0
VERTEX
  8
0
 62
7
  6
CONTINUOUS
 10
29.9621498266
 20
117.04641515
  0
VERTEX
  8
0
 62
7
  6
CONTINUOUS
 10
29.8995632321
 20
116.9810816159
  0
VERTEX
  8
0
 62
7
  6
CONTINUOUS
 10
29.8390834246
 20
116.9040109569
  0
VERTEX
  8
0
 62
7
  6
CONTINUOUS
 10
29.7810228832
 20
116.8157781293
  0
VERTEX
  8
0
 62
7
  6
CONTINUOUS
 10
29.7256663504
 20
116.7170178215
  0
VERTEX
  8
0
 62
7
  6
CONTINUOUS
 10
29.6732694639
 20
116.6084118545
  0
VERTEX
  8
0
 62
7
  6
CONTINUOUS
 10
29.6240580105
 20
116.4906760025
  0
VERTEX
  8
0
 62
7
  6
CONTINUOUS
 10
29.5782286613
 20
116.3645487039
  0
VERTEX
  8
0
 62
7
  6
CONTINUOUS
 10
29.535950411
 20
116.2307814457
  0
VERTEX
  8
0
 62
7
  6
CONTINUOUS
 10
29.497366004
 20
116.0901291424
  0
VERTEX
  8
0
 62
7
  6
CONTINUOUS
 10
29.4625938456
 20
115.9433416679
  0
VERTEX
  8
0
 62
7
  6
CONTINUOUS
 10
29.4317306111
 20
115.7911583185
  0
VERTEX
  8
0
 62
7
  6
CONTINUOUS
 10
29.4048542626
 20
115.6343062284
  0
VERTEX
  8
0
 62
7
  6
CONTINUOUS
 10
29.3820260121
 20
115.4734955512
  0
VERTEX
  8
0
 62
7
  6
CONTINUOUS
 10
29.3632928883
 20
115.309418858
  0
VERTEX
  8
0
 62
7
  6
CONTINUOUS
 10
29.3486899948
 20
115.1427512811
  0
VERTEX
  8
0
 62
7
  6
CONTINUOUS
 10
29.3382427137
 20
114.9741554469
  0
VERTEX
  8
0
 62
7
  6
CONTINUOUS
 10
29.3319679281
 20
114.8042813746
  0
VERTEX
  8
0
 62
7
  6
CONTINUOUS
 10
29.3298752716
 20
114.6337692748
  0
SEQEND
  0
POLYLINE
  8
0
 62
7
  6
CONTINUOUS
 66
1
 70
0
  0
VERTEX
  8
0
 62
7
  6
CONTINUOUS
 10
24.3064524773
 20
117.0586920296
  0
VERTEX
  8
0
 62
7
  6
CONTINUOUS
 10
24.3871185447
 20
116.9937560217
  0
VERTEX
  8
0
 62
7
  6
CONTINUOUS
 10
24.4649699953
 20
116.9163557469
  0
VERTEX
  8
0
 62
7
  6
CONTINUOUS
 10
24.5395436124
 20
116.8272190489
  0
VERTEX
  8
0
 62
7
  6
CONTINUOUS
 10
24.6104552556
 20
116.7271215452
  0
VERTEX
  8
0
 62
7
  6
CONTINUOUS
 10
24.6773716053
 20
116.616888134
  0
VERTEX
  8
0
 62
7
  6
CONTINUOUS
 10
24.7400101762
 20
116.4973734142
  0
VERTEX
  8
0
 62
7
  6
CONTINUOUS
 10
24.7981378796
 20
116.3694427853
  0
VERTEX
  8
0
 62
7
  6
CONTINUOUS
 10
24.8515670181
 20
116.2339579581
  0
VERTEX
  8
0
 62
7
  6
CONTINUOUS
 10
24.9001502996
 20
116.0917662241
  0
VERTEX
  8
0
 62
7
  6
CONTINUOUS
 10
24.9437772509
 20
115.9436868607
  0
VERTEX
  8
0
 62
7
  6
CONTINUOUS
 10
24.9823681164
 20
115.7905051998
  0
VERTEX
  8
0
 62
7
  6
CONTINUOUS
 10
25.0158678235
 20
115.6329704304
  0
VERTEX
  8
0
 62
7
  6
CONTINUOUS
 10
25.0442407401
 20
115.4717946824
  0
VERTEX
  8
0
 62
7
  6
CONTINUOUS
 10
25.0674662847
 20
115.3076510386
  0
VERTEX
  8
0
 62
7
  6
CONTINUOUS
 10
25.0855341362
 20
115.1411770944
  0
VERTEX
  8
0
 62
7
  6
CONTINUOUS
 10
25.0984400215
 20
114.9729836541
  0
VERTEX
  8
0
 62
7
  6
CONTINUOUS
 10
25.106183193
 20
114.8036579088
  0
VERTEX
  8
0
 62
7
  6
CONTINUOUS
 10
25.1087641605
 20
114.6337692748
  0
SEQEND
  0
POLYLINE
  8
0
 62
7
  6
CONTINUOUS
 66
1
 70
0
  0
VERTEX
  8
0
 62
7
  6
CONTINUOUS
 10
49.4737926251
 20
112.4902213297
  0
VERTEX
  8
0
 62
7
  6
CONTINUOUS
 10
49.4396939474
 20
112.6172571495
  0
VERTEX
  8
0
 62
7
  6
CONTINUOUS
 10
49.4039946859
 20
112.754887609
  0
VERTEX
  8
0
 62
7
  6
CONTINUOUS
 10
49.3677505653
 20
112.9021957619
  0
VERTEX
  8
0
 62
7
  6
CONTINUOUS
 10
49.3321555336
 20
113.0576582024
  0
VERTEX
  8
0
 62
7
  6
CONTINUOUS
 10
49.2983670215
 20
113.2195692832
  0
VERTEX
  8
0
 62
7
  6
CONTINUOUS
 10
49.2673386942
 20
113.3866495546
  0
VERTEX
  8
0
 62
7
  6
CONTINUOUS
 10
49.2399377031
 20
113.5573710777
  0
VERTEX
  8
0
 62
7
  6
CONTINUOUS
 10
49.2168427519
 20
113.7303194724
  0
VERTEX
  8
0
 62
7
  6
CONTINUOUS
 10
49.1984526808
 20
113.9051299999
  0
VERTEX
  8
0
 62
7
  6
CONTINUOUS
 10
49.1851227692
 20
114.0809206884
  0
VERTEX
  8
0
 62
7
  6
CONTINUOUS
 10
49.1770491944
 20
114.2573914416
  0
VERTEX
  8
0
 62
7
  6
CONTINUOUS
 10
49.1743533165
 20
114.4337692748
  0
SEQEND
  0
POLYLINE
  8
0
 62
7
  6
CONTINUOUS
 66
1
 70
0
  0
VERTEX
  8
0
 62
7
  6
CONTINUOUS
 10
54.9415419383
 20
114.4337692748
  0
VERTEX
  8
0
 62
7
  6
CONTINUOUS
 10
54.943729133
 20
114.2668656069
  0
VERTEX
  8
0
 62
7
  6
CONTINUOUS
 10
54.9502886545
 20
114.1005389107
  0
VERTEX
  8
0
 62
7
  6
CONTINUOUS
 10
54.961214351
 20
113.9353673403
  0
VERTEX
  8
0
 62
7
  6
CONTINUOUS
 10
54.9764949523
 20
113.7719420906
  0
VERTEX
  8
0
 62
7
  6
CONTINUOUS
 10
54.9961129642
 20
113.6108670324
  0
VERTEX
  8
0
 62
7
  6
CONTINUOUS
 10
55.0200427907
 20
113.4527641934
  0
VERTEX
  8
0
 62
7
  6
CONTINUOUS
 10
55.0482482712
 20
113.2982774272
  0
VERTEX
  8
0
 62
7
  6
CONTINUOUS
 10
55.0806801988
 20
113.1480724894
  0
VERTEX
  8
0
 62
7
  6
CONTINUOUS
 10
55.1172735846
 20
113.0028365656
  0
VERTEX
  8
0
 62
7
  6
CONTINUOUS
 10
55.1579442187
 20
112.8632782984
  0
VERTEX
  8
0
 62
7
  6
CONTINUOUS
 10
55.2025853771
 20
112.7301243988
  0
VERTEX
  8
0
 62
7
  6
CONTINUOUS
 10
55.2510652722
 20
112.6041127035
  0
VERTEX
  8
0
 62
7
  6
CONTINUOUS
 10
55.3032239997
 20
112.4859860929
  0
VERTEX
  8
0
 62
7
  6
CONTINUOUS
 10
55.3588706204
 20
112.3764845313
  0
VERTEX
  8
0
 62
7
  6
CONTINUOUS
 10
55.417781935
 20
112.2763329217
  0
VERTEX
  8
0
 62
7
  6
CONTINUOUS
 10
55.4796870473
 20
112.1862486075
  0
SEQEND
  0
POLYLINE
  8
0
 62
7
  6
CONTINUOUS
 66
1
 70
0
  0
VERTEX
  8
0
 62
7
  6
CONTINUOUS
 10
56.7598992987
 20
114.6337692748
  0
VERTEX
  8
0
 62
7
  6
CONTINUOUS
 10
56.7577446863
 20
114.8063306427
  0
VERTEX
  8
0
 62
7
  6
CONTINUOUS
 10
56.7512841681
 20
114.9782314247
  0
VERTEX
  8
0
 62
7
  6
CONTINUOUS
 10
56.7405277396
 20
115.1488093667
  0
VERTEX
  8
0
 62
7
  6
CONTINUOUS
 10
56.7254929711
 20
115.3173912102
  0
VERTEX
  8
0
 62
7
  6
CONTINUOUS
 10
56.7062062376
 20
115.4832911563
  0
VERTEX
  8
0
 62
7
  6
CONTINUOUS
 10
56.6827042441
 20
115.6458088314
  0
VERTEX
  8
0
 62
7
  6
CONTINUOUS
 10
56.6550363042
 20
115.8042254897
  0
VERTEX
  8
0
 62
7
  6
CONTINUOUS
 10
56.623266981
 20
115.9578028401
  0
VERTEX
  8
0
 62
7
  6
CONTINUOUS
 10
56.5874783243
 20
116.1057863781
  0
VERTEX
  8
0
 62
7
  6
CONTINUOUS
 10
56.5477727012
 20
116.2474071078
  0
VERTEX
  8
0
 62
7
  6
CONTINUOUS
 10
56.504275745
 20
116.3818852146
  0
VERTEX
  8
0
 62
7
  6
CONTINUOUS
 10
56.4571393028
 20
116.5084357553
  0
VERTEX
  8
0
 62
7
  6
CONTINUOUS
 10
56.4065428584
 20
116.6262794369
  0
VERTEX
  8
0
 62
7
  6
CONTINUOUS
 10
56.352695656
 20
116.7346511643
  0
VERTEX
  8
0
 62
7
  6
CONTINUOUS
 10
56.2958383186
 20
116.8328106529
  0
VERTEX
  8
0
 62
7
  6
CONTINUOUS
 10
56.2362428519
 20
116.9200560409
  0
VERTEX
  8
0
 62
7
  6
CONTINUOUS
 10
56.1742119001
 20
116.9957374254
  0
VERTEX
  8
0
 62
7
  6
CONTINUOUS
 10
56.1100971994
 20
117.0592525466
  0
SEQEND
  0
LINE
  8
0
 62
7
  6
CONTINUOUS
 10
54.9415419383
 20
114.6337692748
 11
54.9415419383
 21
114.4337692748
  0
LINE
  8
0
 62
7
  6
CONTINUOUS
 10
55.8015419383
 20
120.2837692748
 11
55.8015419383
 21
117.1837692748
  0
LINE
  8
0
 62
7
  6
CONTINUOUS
 10
55.8015419383
 20
111.8837692748
 11
55.8015419383
 21
108.7837692748
  0
LINE
  8
0
 62
7
  6
CONTINUOUS
 10
56.7598992987
 20
114.4337692748
 11
56.7598992987
 21
114.6337692748
  0
POLYLINE
  8
0
 62
7
  6
CONTINUOUS
 66
1
 70
0
  0
VERTEX
  8
0
 62
7
  6
CONTINUOUS
 10
24.3064524773
 20
112.00884652
  0
VERTEX
  8
0
 62
7
  6
CONTINUOUS
 10
24.2380684772
 20
111.9630138489
  0
VERTEX
  8
0
 62
7
  6
CONTINUOUS
 10
24.1766079646
 20
111.9279196096
  0
VERTEX
  8
0
 62
7
  6
CONTINUOUS
 10
24.1219940041
 20
111.903237607
  0
VERTEX
  8
0
 62
7
  6
CONTINUOUS
 10
24.0739149142
 20
111.8885969359
  0
VERTEX
  8
0
 62
7
  6
CONTINUOUS
 10
24.03225256
 20
111.8837692748
  0
SEQEND
  0
POLYLINE
  8
0
 62
7
  6
CONTINUOUS
 66
1
 70
0
  0
VERTEX
  8
0
 62
7
  6
CONTINUOUS
 10
30.0264853598
 20
117.0994941945
  0
VERTEX
  8
0
 62
7
  6
CONTINUOUS
 10
30.0826069709
 20
117.1367276117
  0
VERTEX
  8
0
 62
7
  6
CONTINUOUS
 10
30.1320619233
 20
117.16305546
  0
VERTEX
  8
0
 62
7
  6
CONTINUOUS
 10
30.1747943862
 20
117.1786493543
  0
VERTEX
  8
0
 62
7
  6
CONTINUOUS
 10
30.2108291907
 20
117.1837692748
  0
SEQEND
  0
POLYLINE
  8
0
 62
7
  6
CONTINUOUS
 66
1
 70
0
  0
VERTEX
  8
0
 62
7
  6
CONTINUOUS
 10
62.5515419383
 20
117.1093492826
  0
VERTEX
  8
0
 62
7
  6
CONTINUOUS
 10
62.5541781065
 20
117.0661359523
  0
VERTEX
  8
0
 62
7
  6
CONTINUOUS
 10
62.5620086067
 20
117.0126818458
  0
VERTEX
  8
0
 62
7
  6
CONTINUOUS
 10
62.5748797973
 20
116.9487575496
  0
VERTEX
  8
0
 62
7
  6
CONTINUOUS
 10
62.592525536
 20
116.8743448216
  0
VERTEX
  8
0
 62
7
  6
CONTINUOUS
 10
62.6146431483
 20
116.7892425694
  0
VERTEX
  8
0
 62
7
  6
CONTINUOUS
 10
62.6407830349
 20
116.6935227774
  0
SEQEND
  0
LINE
  8
0
 62
7
  6
CONTINUOUS
 10
61.8331274862
 20
114.4337692748
 11
61.8331274862
 21
114.6337692748
  0
LINE
  8
0
 62
7
  6
CONTINUOUS
 10
62.5515419383
 20
120.2837692748
 11
62.5515419383
 21
117.1093492826
  0
LINE
  8
0
 62
7
  6
CONTINUOUS
 10
62.5515419383
 20
111.958189267
 11
62.5515419383
 21
108.7837692748
  0
LINE
  8
0
 62
7
  6
CONTINUOUS
 10
62.9107491643
 20
114.6337692748
 11
62.9107491643
 21
114.4337692748
  0
POLYLINE
  8
0
 62
7
  6
CONTINUOUS
 66
1
 70
0
  0
VERTEX
  8
0
 62
7
  6
CONTINUOUS
 10
62.9107491643
 20
114.4337692748
  0
VERTEX
  8
0
 62
7
  6
CONTINUOUS
 10
62.909250025
 20
114.2643509402
  0
VERTEX
  8
0
 62
7
  6
CONTINUOUS
 10
62.9047571703
 20
114.0956233434
  0
VERTEX
  8
0
 62
7
  6
CONTINUOUS
 10
62.8972836461
 20
113.9282642602
  0
VERTEX
  8
0
 62
7
  6
CONTINUOUS
 10
62.8868515056
 20
113.7629601627
  0
VERTEX
  8
0
 62
7
  6
CONTINUOUS
 10
62.8734920121
 20
113.6003970429
  0
VERTEX
  8
0
 62
7
  6
CONTINUOUS
 10
62.8572462084
 20
113.4412625386
  0
VERTEX
  8
0
 62
7
  6
CONTINUOUS
 10
62.8381654517
 20
113.2862445455
  0
VERTEX
  8
0
 62
7
  6
CONTINUOUS
 10
62.8163121549
 20
113.1360306909
  0
VERTEX
  8
0
 62
7
  6
CONTINUOUS
 10
62.7917604835
 20
112.9913061261
  0
VERTEX
  8
0
 62
7
  6
CONTINUOUS
 10
62.7645970161
 20
112.8527505863
  0
VERTEX
  8
0
 62
7
  6
CONTINUOUS
 10
62.7349215191
 20
112.7210355323
  0
VERTEX
  8
0
 62
7
  6
CONTINUOUS
 10
62.7028495813
 20
112.5968271931
  0
SEQEND
  0
POLYLINE
  8
0
 62
7
  6
CONTINUOUS
 66
1
 70
0
  0
VERTEX
  8
0
 62
7
  6
CONTINUOUS
 10
61.8331274862
 20
114.6337692748
  0
VERTEX
  8
0
 62
7
  6
CONTINUOUS
 10
61.8346851576
 20
114.8064595831
  0
VERTEX
  8
0
 62
7
  6
CONTINUOUS
 10
61.8393534713
 20
114.9784245301
  0
VERTEX
  8
0
 62
7
  6
CONTINUOUS
 10
61.847118386
 20
115.1489407699
  0
VERTEX
  8
0
 62
7
  6
CONTINUOUS
 10
61.8579562017
 20
115.3172821373
  0
VERTEX
  8
0
 62
7
  6
CONTINUOUS
 10
61.8718331141
 20
115.4827206133
  0
VERTEX
  8
0
 62
7
  6
CONTINUOUS
 10
61.8887047855
 20
115.6445279074
  0
VERTEX
  8
0
 62
7
  6
CONTINUOUS
 10
61.9085155779
 20
115.8019746654
  0
VERTEX
  8
0
 62
7
  6
CONTINUOUS
 10
61.9311978156
 20
115.9543322936
  0
VERTEX
  8
0
 62
7
  6
CONTINUOUS
 10
61.9566708543
 20
116.1008744812
  0
VERTEX
  8
0
 62
7
  6
CONTINUOUS
 10
61.9848406008
 20
116.2408822079
  0
VERTEX
  8
0
 62
7
  6
CONTINUOUS
 10
62.0155986077
 20
116.3736463375
  0
VERTEX
  8
0
 62
7
  6
CONTINUOUS
 10
62.0488214212
 20
116.4984724015
  0
VERTEX
  8
0
 62
7
  6
CONTINUOUS
 10
62.0843699932
 20
116.6146859387
  0
VERTEX
  8
0
 62
7
  6
CONTINUOUS
 10
62.1220897352
 20
116.7216399384
  0
VERTEX
  8
0
 62
7
  6
CONTINUOUS
 10
62.1618104323
 20
116.8187211732
  0
VERTEX
  8
0
 62
7
  6
CONTINUOUS
 10
62.2033464024
 20
116.9053570943
  0
VERTEX
  8
0
 62
7
  6
CONTINUOUS
 10
62.2464970936
 20
116.9810233585
  0
VERTEX
  8
0
 62
7
  6
CONTINUOUS
 10
62.2910482223
 20
117.0452515584
  0
VERTEX
  8
0
 62
7
  6
CONTINUOUS
 10
62.3367731356
 20
117.0976361705
  0
VERTEX
  8
0
 62
7
  6
CONTINUOUS
 10
62.3834223349
 20
117.1378320321
  0
SEQEND
  0
POLYLINE
  8
0
 62
7
  6
CONTINUOUS
 66
1
 70
0
  0
VERTEX
  8
0
 62
7
  6
CONTINUOUS
 10
55.4796870473
 20
116.8812899421
  0
VERTEX
  8
0
 62
7
  6
CONTINUOUS
 10
55.4177820259
 20
116.791205771
  0
VERTEX
  8
0
 62
7
  6
CONTINUOUS
 10
55.3588706939
 20
116.6910541529
  0
VERTEX
  8
0
 62
7
  6
CONTINUOUS
 10
55.3032239826
 20
116.5815524204
  0
VERTEX
  8
0
 62
7
  6
CONTINUOUS
 10
55.2510651126
 20
116.4634254586
  0
VERTEX
  8
0
 62
7
  6
CONTINUOUS
 10
55.202585058
 20
116.3374132625
  0
VERTEX
  8
0
 62
7
  6
CONTINUOUS
 10
55.1579437554
 20
116.2042587696
  0
VERTEX
  8
0
 62
7
  6
CONTINUOUS
 10
55.1172730143
 20
116.0646998812
  0
VERTEX
  8
0
 62
7
  6
CONTINUOUS
 10
55.0806795767
 20
115.9194633967
  0
VERTEX
  8
0
 62
7
  6
CONTINUOUS
 10
55.0482476458
 20
115.7692579785
  0
VERTEX
  8
0
 62
7
  6
CONTINUOUS
 10
55.020042201
 20
115.6147708189
  0
VERTEX
  8
0
 62
7
  6
CONTINUOUS
 10
54.9961124562
 20
115.456667792
  0
VERTEX
  8
0
 62
7
  6
CONTINUOUS
 10
54.9764945578
 20
115.2955927887
  0
VERTEX
  8
0
 62
7
  6
CONTINUOUS
 10
54.9612140852
 20
115.1321678749
  0
VERTEX
  8
0
 62
7
  6
CONTINUOUS
 10
54.950288516
 20
114.966997012
  0
VERTEX
  8
0
 62
7
  6
CONTINUOUS
 10
54.9437290931
 20
114.8006714203
  0
VERTEX
  8
0
 62
7
  6
CONTINUOUS
 10
54.9415419383
 20
114.6337692748
  0
SEQEND
  0
POLYLINE
  8
0
 62
7
  6
CONTINUOUS
 66
1
 70
0
  0
VERTEX
  8
0
 62
7
  6
CONTINUOUS
 10
49.9233968293
 20
112.1862486075
  0
VERTEX
  8
0
 62
7
  6
CONTINUOUS
 10
49.8674793143
 20
112.1133482517
  0
VERTEX
  8
0
 62
7
  6
CONTINUOUS
 10
49.816750458
 20
112.0510420772
  0
VERTEX
  8
0
 62
7
  6
CONTINUOUS
 10
49.7714317979
 20
111.9990911782
  0
VERTEX
  8
0
 62
7
  6
CONTINUOUS
 10
49.7315063764
 20
111.9570821942
  0
VERTEX
  8
0
 62
7
  6
CONTINUOUS
 10
49.6969964542
 20
111.9247492234
  0
VERTEX
  8
0
 62
7
  6
CONTINUOUS
 10
49.6679272824
 20
111.901892975
  0
VERTEX
  8
0
 62
7
  6
CONTINUOUS
 10
49.6441996887
 20
111.8882749812
  0
VERTEX
  8
0
 62
7
  6
CONTINUOUS
 10
49.6258000988
 20
111.8837692748
  0
SEQEND
  0
POLYLINE
  8
0
 62
7
  6
CONTINUOUS
 66
1
 70
0
  0
VERTEX
  8
0
 62
7
  6
CONTINUOUS
 10
55.4796870473
 20
116.8812899421
  0
VERTEX
  8
0
 62
7
  6
CONTINUOUS
 10
55.5356019629
 20
116.954187007
  0
VERTEX
  8
0
 62
7
  6
CONTINUOUS
 10
55.5863294069
 20
117.0164917065
  0
VERTEX
  8
0
 62
7
  6
CONTINUOUS
 10
55.6316493421
 20
117.0684443586
  0
VERTEX
  8
0
 62
7
  6
CONTINUOUS
 10
55.6715825316
 20
117.1104613749
  0
VERTEX
  8
0
 62
7
  6
CONTINUOUS
 10
55.7060971019
 20
117.142797718
  0
VERTEX
  8
0
 62
7
  6
CONTINUOUS
 10
55.7351652163
 20
117.1656515243
  0
VERTEX
  8
0
 62
7
  6
CONTINUOUS
 10
55.7588888541
 20
117.1792655712
  0
VERTEX
  8
0
 62
7
  6
CONTINUOUS
 10
55.7772837778
 20
117.1837692748
  0
SEQEND
  0
POLYLINE
  8
0
 62
7
  6
CONTINUOUS
 66
1
 70
0
  0
VERTEX
  8
0
 62
7
  6
CONTINUOUS
 10
49.9233968293
 20
116.8812899421
  0
VERTEX
  8
0
 62
7
  6
CONTINUOUS
 10
49.9853018511
 20
116.7912057704
  0
VERTEX
  8
0
 62
7
  6
CONTINUOUS
 10
50.044213183
 20
116.6910541523
  0
VERTEX
  8
0
 62
7
  6
CONTINUOUS
 10
50.0998598943
 20
116.5815524198
  0
VERTEX
  8
0
 62
7
  6
CONTINUOUS
 10
50.1520187642
 20
116.463425458
  0
VERTEX
  8
0
 62
7
  6
CONTINUOUS
 10
50.2004988188
 20
116.3374132619
  0
VERTEX
  8
0
 62
7
  6
CONTINUOUS
 10
50.2451401213
 20
116.2042587692
  0
VERTEX
  8
0
 62
7
  6
CONTINUOUS
 10
50.2858108624
 20
116.0646998808
  0
VERTEX
  8
0
 62
7
  6
CONTINUOUS
 10
50.3224042999
 20
115.9194633964
  0
VERTEX
  8
0
 62
7
  6
CONTINUOUS
 10
50.3548362308
 20
115.7692579783
  0
VERTEX
  8
0
 62
7
  6
CONTINUOUS
 10
50.3830416756
 20
115.6147708187
  0
VERTEX
  8
0
 62
7
  6
CONTINUOUS
 10
50.4069714204
 20
115.4566677919
  0
VERTEX
  8
0
 62
7
  6
CONTINUOUS
 10
50.4265893188
 20
115.2955927887
  0
VERTEX
  8
0
 62
7
  6
CONTINUOUS
 10
50.4418697914
 20
115.1321678749
  0
VERTEX
  8
0
 62
7
  6
CONTINUOUS
 10
50.4527953605
 20
114.966997012
  0
VERTEX
  8
0
 62
7
  6
CONTINUOUS
 10
50.4593547835
 20
114.8006714203
  0
VERTEX
  8
0
 62
7
  6
CONTINUOUS
 10
50.4615419383
 20
114.6337692748
  0
SEQEND
  0
POLYLINE
  8
0
 62
7
  6
CONTINUOUS
 66
1
 70
0
  0
VERTEX
  8
0
 62
7
  6
CONTINUOUS
 10
68.2515419383
 20
111.958189267
  0
VERTEX
  8
0
 62
7
  6
CONTINUOUS
 10
68.2489059245
 20
112.0014011779
  0
VERTEX
  8
0
 62
7
  6
CONTINUOUS
 10
68.2410745704
 20
112.0548606555
  0
VERTEX
  8
0
 62
7
  6
CONTINUOUS
 10
68.2282019539
 20
112.1187906014
  0
VERTEX
  8
0
 62
7
  6
CONTINUOUS
 10
68.2105553621
 20
112.193205638
  0
VERTEX
  8
0
 62
7
  6
CONTINUOUS
 10
68.1884384219
 20
112.278304594
  0
VERTEX
  8
0
 62
7
  6
CONTINUOUS
 10
68.1623009487
 20
112.3740153858
  0
SEQEND
  0
POLYLINE
  8
0
 62
7
  6
CONTINUOUS
 66
1
 70
0
  0
VERTEX
  8
0
 62
7
  6
CONTINUOUS
 10
67.8923347123
 20
114.4337692748
  0
VERTEX
  8
0
 62
7
  6
CONTINUOUS
 10
67.8938338515
 20
114.2643509402
  0
VERTEX
  8
0
 62
7
  6
CONTINUOUS
 10
67.8983267063
 20
114.0956233433
  0
VERTEX
  8
0
 62
7
  6
CONTINUOUS
 10
67.9058002304
 20
113.92826426
  0
VERTEX
  8
0
 62
7
  6
CONTINUOUS
 10
67.916232371
 20
113.7629601624
  0
VERTEX
  8
0
 62
7
  6
CONTINUOUS
 10
67.9295918645
 20
113.6003970425
  0
VERTEX
  8
0
 62
7
  6
CONTINUOUS
 10
67.9458376682
 20
113.4412625381
  0
VERTEX
  8
0
 62
7
  6
CONTINUOUS
 10
67.964918425
 20
113.2862445449
  0
VERTEX
  8
0
 62
7
  6
CONTINUOUS
 10
67.9867717218
 20
113.1360306903
  0
VERTEX
  8
0
 62
7
  6
CONTINUOUS
 10
68.0113233932
 20
112.9913061254
  0
VERTEX
  8
0
 62
7
  6
CONTINUOUS
 10
68.0384868606
 20
112.8527505856
  0
VERTEX
  8
0
 62
7
  6
CONTINUOUS
 10
68.0681623576
 20
112.7210355317
  0
VERTEX
  8
0
 62
7
  6
CONTINUOUS
 10
68.1002342952
 20
112.5968271931
  0
SEQEND
  0
LINE
  8
0
 62
7
  6
CONTINUOUS
 10
67.8923347123
 20
114.6337692748
 11
67.8923347123
 21
114.4337692748
  0
LINE
  8
0
 62
7
  6
CONTINUOUS
 10
68.2515419383
 20
108.7837692748
 11
68.2515419383
 21
111.958189267
  0
LINE
  8
0
 62
7
  6
CONTINUOUS
 10
68.2515419383
 20
117.1093492826
 11
68.2515419383
 21
120.2837692748
  0
POLYLINE
  8
0
 62
7
  6
CONTINUOUS
 66
1
 70
0
  0
VERTEX
  8
0
 62
7
  6
CONTINUOUS
 10
68.1002342952
 20
116.4707113566
  0
VERTEX
  8
0
 62
7
  6
CONTINUOUS
 10
68.0681623605
 20
116.3465030302
  0
VERTEX
  8
0
 62
7
  6
CONTINUOUS
 10
68.038486839
 20
116.2147878612
  0
VERTEX
  8
0
 62
7
  6
CONTINUOUS
 10
68.0113233366
 20
116.0762321142
  0
VERTEX
  8
0
 62
7
  6
CONTINUOUS
 10
67.986771635
 20
115.9315073075
  0
VERTEX
  8
0
 62
7
  6
CONTINUOUS
 10
67.9649183226
 20
115.7812932408
  0
VERTEX
  8
0
 62
7
  6
CONTINUOUS
 10
67.9458375658
 20
115.6262751006
  0
VERTEX
  8
0
 62
7
  6
CONTINUOUS
 10
67.9295917733
 20
115.4671405165
  0
VERTEX
  8
0
 62
7
  6
CONTINUOUS
 10
67.9162322985
 20
115.3045773882
  0
VERTEX
  8
0
 62
7
  6
CONTINUOUS
 10
67.9058001811
 20
115.1392733732
  0
VERTEX
  8
0
 62
7
  6
CONTINUOUS
 10
67.8983266802
 20
114.9719144748
  0
VERTEX
  8
0
 62
7
  6
CONTINUOUS
 10
67.893833844
 20
114.8031871814
  0
VERTEX
  8
0
 62
7
  6
CONTINUOUS
 10
67.8923347123
 20
114.6337692748
  0
SEQEND
  0
POLYLINE
  8
0
 62
7
  6
CONTINUOUS
 66
1
 70
0
  0
VERTEX
  8
0
 62
7
  6
CONTINUOUS
 10
62.7028495813
 20
112.5968271931
  0
VERTEX
  8
0
 62
7
  6
CONTINUOUS
 10
62.6407839916
 20
112.3740192259
  0
VERTEX
  8
0
 62
7
  6
CONTINUOUS
 10
62.6146466105
 20
112.2783089107
  0
VERTEX
  8
0
 62
7
  6
CONTINUOUS
 10
62.5925294126
 20
112.1932092294
  0
VERTEX
  8
0
 62
7
  6
CONTINUOUS
 10
62.5748823282
 20
112.1187924335
  0
VERTEX
  8
0
 62
7
  6
CONTINUOUS
 10
62.5620092978
 20
112.0548606082
  0
VERTEX
  8
0
 62
7
  6
CONTINUOUS
 10
62.5541778696
 20
112.0014004201
  0
VERTEX
  8
0
 62
7
  6
CONTINUOUS
 10
62.5515419383
 20
111.958189267
  0
SEQEND
  0
POLYLINE
  8
0
 62
7
  6
CONTINUOUS
 66
1
 70
0
  0
VERTEX
  8
0
 62
7
  6
CONTINUOUS
 10
68.1002342952
 20
116.4707113566
  0
VERTEX
  8
0
 62
7
  6
CONTINUOUS
 10
68.1623018553
 20
116.6935264363
  0
VERTEX
  8
0
 62
7
  6
CONTINUOUS
 10
68.1884418643
 20
116.7892468122
  0
VERTEX
  8
0
 62
7
  6
CONTINUOUS
 10
68.2105592209
 20
116.8743483415
  0
VERTEX
  8
0
 62
7
  6
CONTINUOUS
 10
68.2282044754
 20
116.948759339
  0
VERTEX
  8
0
 62
7
  6
CONTINUOUS
 10
68.2410752575
 20
117.012681776
  0
VERTEX
  8
0
 62
7
  6
CONTINUOUS
 10
68.2489056931
 20
117.0661352444
  0
VERTEX
  8
0
 62
7
  6
CONTINUOUS
 10
68.2515419383
 20
117.1093492826
  0
SEQEND
  0
LINE
  8
0
 62
7
  6
CONTINUOUS
 10
62.6407830349
 20
116.6935227774
 11
62.7028495813
 21
116.4707113566
  0
LINE
  8
0
 62
7
  6
CONTINUOUS
 10
68.1623009487
 20
112.3740153858
 11
68.1002342952
 21
112.5968271931
  0
POLYLINE
  8
0
 62
7
  6
CONTINUOUS
 66
1
 70
0
  0
VERTEX
  8
0
 62
7
  6
CONTINUOUS
 10
62.7028495813
 20
116.4707113566
  0
VERTEX
  8
0
 62
7
  6
CONTINUOUS
 10
62.7349215162
 20
116.3465030296
  0
VERTEX
  8
0
 62
7
  6
CONTINUOUS
 10
62.7645970377
 20
116.2147878606
  0
VERTEX
  8
0
 62
7
  6
CONTINUOUS
 10
62.7917605401
 20
116.0762321135
  0
VERTEX
  8
0
 62
7
  6
CONTINUOUS
 10
62.8163122417
 20
115.9315073068
  0
VERTEX
  8
0
 62
7
  6
CONTINUOUS
 10
62.8381655541
 20
115.7812932402
  0
VERTEX
  8
0
 62
7
  6
CONTINUOUS
 10
62.8572463108
 20
115.6262751001
  0
VERTEX
  8
0
 62
7
  6
CONTINUOUS
 10
62.8734921033
 20
115.4671405161
  0
VERTEX
  8
0
 62
7
  6
CONTINUOUS
 10
62.8868515781
 20
115.3045773879
  0
VERTEX
  8
0
 62
7
  6
CONTINUOUS
 10
62.8972836955
 20
115.1392733731
  0
VERTEX
  8
0
 62
7
  6
CONTINUOUS
 10
62.9047571963
 20
114.9719144747
  0
VERTEX
  8
0
 62
7
  6
CONTINUOUS
 10
62.9092500326
 20
114.8031871814
  0
VERTEX
  8
0
 62
7
  6
CONTINUOUS
 10
62.9107491643
 20
114.6337692748
  0
SEQEND
  0
POLYLINE
  8
0
 62
7
  6
CONTINUOUS
 66
1
 70
0
  0
VERTEX
  8
0
 62
7
  6
CONTINUOUS
 10
68.9699563904
 20
114.6337692748
  0
VERTEX
  8
0
 62
7
  6
CONTINUOUS
 10
68.9683987189
 20
114.8064595831
  0
VERTEX
  8
0
 62
7
  6
CONTINUOUS
 10
68.9637304053
 20
114.9784245301
  0
VERTEX
  8
0
 62
7
  6
CONTINUOUS
 10
68.9559654906
 20
115.1489407699
  0
VERTEX
  8
0
 62
7
  6
CONTINUOUS
 10
68.9451276748
 20
115.3172821373
  0
VERTEX
  8
0
 62
7
  6
CONTINUOUS
 10
68.9312507625
 20
115.4827206133
  0
VERTEX
  8
0
 62
7
  6
CONTINUOUS
 10
68.9143790911
 20
115.6445279074
  0
VERTEX
  8
0
 62
7
  6
CONTINUOUS
 10
68.8945682987
 20
115.8019746654
  0
VERTEX
  8
0
 62
7
  6
CONTINUOUS
 10
68.8718860609
 20
115.9543322936
  0
VERTEX
  8
0
 62
7
  6
CONTINUOUS
 10
68.8464130222
 20
116.1008744812
  0
VERTEX
  8
0
 62
7
  6
CONTINUOUS
 10
68.8182432758
 20
116.2408822079
  0
VERTEX
  8
0
 62
7
  6
CONTINUOUS
 10
68.7874852688
 20
116.3736463375
  0
VERTEX
  8
0
 62
7
  6
CONTINUOUS
 10
68.7542624553
 20
116.4984724015
  0
VERTEX
  8
0
 62
7
  6
CONTINUOUS
 10
68.7187138833
 20
116.6146859387
  0
VERTEX
  8
0
 62
7
  6
CONTINUOUS
 10
68.6809941413
 20
116.7216399384
  0
VERTEX
  8
0
 62
7
  6
CONTINUOUS
 10
68.6412734443
 20
116.8187211732
  0
VERTEX
  8
0
 62
7
  6
CONTINUOUS
 10
68.5997374742
 20
116.9053570943
  0
VERTEX
  8
0
 62
7
  6
CONTINUOUS
 10
68.556586783
 20
116.9810233585
  0
VERTEX
  8
0
 62
7
  6
CONTINUOUS
 10
68.5120356542
 20
117.0452515584
  0
VERTEX
  8
0
 62
7
  6
CONTINUOUS
 10
68.4663107409
 20
117.0976361705
  0
VERTEX
  8
0
 62
7
  6
CONTINUOUS
 10
68.4196615417
 20
117.1378320321
  0
SEQEND
  0
LINE
  8
0
 62
7
  6
CONTINUOUS
 10
68.9699563904
 20
114.4337692748
 11
68.9699563904
 21
114.6337692748
  0
POLYLINE
  8
0
 62
7
  6
CONTINUOUS
 66
1
 70
0
  0
VERTEX
  8
0
 62
7
  6
CONTINUOUS
 10
56.1100971994
 20
112.008286003
  0
VERTEX
  8
0
 62
7
  6
CONTINUOUS
 10
56.1742117568
 20
112.071800966
  0
VERTEX
  8
0
 62
7
  6
CONTINUOUS
 10
56.2362426653
 20
112.1474822587
  0
VERTEX
  8
0
 62
7
  6
CONTINUOUS
 10
56.295838161
 20
112.2347276457
  0
VERTEX
  8
0
 62
7
  6
CONTINUOUS
 10
56.3526955867
 20
112.3328872559
  0
VERTEX
  8
0
 62
7
  6
CONTINUOUS
 10
56.4065429207
 20
112.4412592477
  0
VERTEX
  8
0
 62
7
  6
CONTINUOUS
 10
56.4571395124
 20
112.5591033186
  0
VERTEX
  8
0
 62
7
  6
CONTINUOUS
 10
56.5042760974
 20
112.6856543502
  0
VERTEX
  8
0
 62
7
  6
CONTINUOUS
 10
56.5477731778
 20
112.820133024
  0
VERTEX
  8
0
 62
7
  6
CONTINUOUS
 10
56.5874788871
 20
112.9617543313
  0
VERTEX
  8
0
 62
7
  6
CONTINUOUS
 10
56.6232675896
 20
113.1097384271
  0
VERTEX
  8
0
 62
7
  6
CONTINUOUS
 10
56.6550369214
 20
113.263316301
  0
VERTEX
  8
0
 62
7
  6
CONTINUOUS
 10
56.6827048237
 20
113.421733355
  0
VERTEX
  8
0
 62
7
  6
CONTINUOUS
 10
56.7062067367
 20
113.5842512256
  0
VERTEX
  8
0
 62
7
  6
CONTINUOUS
 10
56.7254933581
 20
113.7501511116
  0
VERTEX
  8
0
 62
7
  6
CONTINUOUS
 10
56.7405280012
 20
113.9187326243
  0
VERTEX
  8
0
 62
7
  6
CONTINUOUS
 10
56.7512843046
 20
114.0893098403
  0
VERTEX
  8
0
 62
7
  6
CONTINUOUS
 10
56.7577447256
 20
114.2612094814
  0
VERTEX
  8
0
 62
7
  6
CONTINUOUS
 10
56.7598992987
 20
114.4337692748
  0
SEQEND
  0
POLYLINE
  8
0
 62
7
  6
CONTINUOUS
 66
1
 70
0
  0
VERTEX
  8
0
 62
7
  6
CONTINUOUS
 10
56.1100971994
 20
112.008286003
  0
VERTEX
  8
0
 62
7
  6
CONTINUOUS
 10
56.0551607515
 20
111.9628327968
  0
VERTEX
  8
0
 62
7
  6
CONTINUOUS
 10
56.0058023442
 20
111.9279021542
  0
VERTEX
  8
0
 62
7
  6
CONTINUOUS
 10
55.9620817931
 20
111.9032592187
  0
VERTEX
  8
0
 62
7
  6
CONTINUOUS
 10
55.9238553177
 20
111.8886076438
  0
VERTEX
  8
0
 62
7
  6
CONTINUOUS
 10
55.891110534
 20
111.8837692748
  0
SEQEND
  0
POLYLINE
  8
0
 62
7
  6
CONTINUOUS
 66
1
 70
0
  0
VERTEX
  8
0
 62
7
  6
CONTINUOUS
 10
62.3834223349
 20
111.9297065175
  0
VERTEX
  8
0
 62
7
  6
CONTINUOUS
 10
62.3367732288
 20
111.9699022858
  0
VERTEX
  8
0
 62
7
  6
CONTINUOUS
 10
62.2910483648
 20
112.0222868072
  0
VERTEX
  8
0
 62
7
  6
CONTINUOUS
 10
62.2464972493
 20
112.0865149427
  0
VERTEX
  8
0
 62
7
  6
CONTINUOUS
 10
62.2033465427
 20
112.1621811864
  0
VERTEX
  8
0
 62
7
  6
CONTINUOUS
 10
62.1618105344
 20
112.2488171453
  0
VERTEX
  8
0
 62
7
  6
CONTINUOUS
 10
62.1220897832
 20
112.3458984847
  0
VERTEX
  8
0
 62
7
  6
CONTINUOUS
 10
62.0843699798
 20
112.4528526517
  0
VERTEX
  8
0
 62
7
  6
CONTINUOUS
 10
62.0488213461
 20
112.5690664116
  0
VERTEX
  8
0
 62
7
  6
CONTINUOUS
 10
62.0155984753
 20
112.6938927453
  0
VERTEX
  8
0
 62
7
  6
CONTINUOUS
 10
61.9848404216
 20
112.8266571715
  0
VERTEX
  8
0
 62
7
  6
CONTINUOUS
 10
61.9566706423
 20
112.9666652014
  0
VERTEX
  8
0
 62
7
  6
CONTINUOUS
 10
61.9311975859
 20
113.1132076821
  0
VERTEX
  8
0
 62
7
  6
CONTINUOUS
 10
61.9085153471
 20
113.2655655667
  0
VERTEX
  8
0
 62
7
  6
CONTINUOUS
 10
61.8887045713
 20
113.4230125071
  0
VERTEX
  8
0
 62
7
  6
CONTINUOUS
 10
61.8718329312
 20
113.5848198826
  0
VERTEX
  8
0
 62
7
  6
CONTINUOUS
 10
61.8579560605
 20
113.7502583202
  0
VERTEX
  8
0
 62
7
  6
CONTINUOUS
 10
61.8471182918
 20
113.9185994953
  0
VERTEX
  8
0
 62
7
  6
CONTINUOUS
 10
61.8393534224
 20
114.0891153641
  0
VERTEX
  8
0
 62
7
  6
CONTINUOUS
 10
61.8346851436
 20
114.2610797423
  0
VERTEX
  8
0
 62
7
  6
CONTINUOUS
 10
61.8331274862
 20
114.4337692748
  0
SEQEND
  0
POLYLINE
  8
0
 62
7
  6
CONTINUOUS
 66
1
 70
0
  0
VERTEX
  8
0
 62
7
  6
CONTINUOUS
 10
75.2515419383
 20
117.1093492826
  0
VERTEX
  8
0
 62
7
  6
CONTINUOUS
 10
75.2541781065
 20
117.0661359523
  0
VERTEX
  8
0
 62
7
  6
CONTINUOUS
 10
75.2620086067
 20
117.0126818458
  0
VERTEX
  8
0
 62
7
  6
CONTINUOUS
 10
75.2748797973
 20
116.9487575496
  0
VERTEX
  8
0
 62
7
  6
CONTINUOUS
 10
75.292525536
 20
116.8743448216
  0
VERTEX
  8
0
 62
7
  6
CONTINUOUS
 10
75.3146431483
 20
116.7892425694
  0
VERTEX
  8
0
 62
7
  6
CONTINUOUS
 10
75.3407830349
 20
116.6935227774
  0
SEQEND
  0
LINE
  8
0
 62
7
  6
CONTINUOUS
 10
74.5331274862
 20
114.4337692748
 11
74.5331274862
 21
114.6337692748
  0
LINE
  8
0
 62
7
  6
CONTINUOUS
 10
75.2515419383
 20
120.2837692748
 11
75.2515419383
 21
117.1093492826
  0
LINE
  8
0
 62
7
  6
CONTINUOUS
 10
75.2515419383
 20
111.958189267
 11
75.2515419383
 21
108.7837692748
  0
LINE
  8
0
 62
7
  6
CONTINUOUS
 10
75.6107491643
 20
114.6337692748
 11
75.6107491643
 21
114.4337692748
  0
POLYLINE
  8
0
 62
7
  6
CONTINUOUS
 66
1
 70
0
  0
VERTEX
  8
0
 62
7
  6
CONTINUOUS
 10
75.6107491643
 20
114.4337692748
  0
VERTEX
  8
0
 62
7
  6
CONTINUOUS
 10
75.609250025
 20
114.2643509402
  0
VERTEX
  8
0
 62
7
  6
CONTINUOUS
 10
75.6047571703
 20
114.0956233434
  0
VERTEX
  8
0
 62
7
  6
CONTINUOUS
 10
75.5972836461
 20
113.9282642602
  0
VERTEX
  8
0
 62
7
  6
CONTINUOUS
 10
75.5868515056
 20
113.7629601627
  0
VERTEX
  8
0
 62
7
  6
CONTINUOUS
 10
75.5734920121
 20
113.6003970429
  0
VERTEX
  8
0
 62
7
  6
CONTINUOUS
 10
75.5572462084
 20
113.4412625386
  0
VERTEX
  8
0
 62
7
  6
CONTINUOUS
 10
75.5381654517
 20
113.2862445455
  0
VERTEX
  8
0
 62
7
  6
CONTINUOUS
 10
75.5163121549
 20
113.1360306909
  0
VERTEX
  8
0
 62
7
  6
CONTINUOUS
 10
75.4917604835
 20
112.9913061261
  0
VERTEX
  8
0
 62
7
  6
CONTINUOUS
 10
75.4645970161
 20
112.8527505863
  0
VERTEX
  8
0
 62
7
  6
CONTINUOUS
 10
75.4349215191
 20
112.7210355323
  0
VERTEX
  8
0
 62
7
  6
CONTINUOUS
 10
75.4028495813
 20
112.5968271931
  0
SEQEND
  0
POLYLINE
  8
0
 62
7
  6
CONTINUOUS
 66
1
 70
0
  0
VERTEX
  8
0
 62
7
  6
CONTINUOUS
 10
74.5331274862
 20
114.6337692748
  0
VERTEX
  8
0
 62
7
  6
CONTINUOUS
 10
74.5346851576
 20
114.8064595831
  0
VERTEX
  8
0
 62
7
  6
CONTINUOUS
 10
74.5393534713
 20
114.9784245301
  0
VERTEX
  8
0
 62
7
  6
CONTINUOUS
 10
74.547118386
 20
115.1489407699
  0
VERTEX
  8
0
 62
7
  6
CONTINUOUS
 10
74.5579562017
 20
115.3172821373
  0
VERTEX
  8
0
 62
7
  6
CONTINUOUS
 10
74.5718331141
 20
115.4827206133
  0
VERTEX
  8
0
 62
7
  6
CONTINUOUS
 10
74.5887047855
 20
115.6445279074
  0
VERTEX
  8
0
 62
7
  6
CONTINUOUS
 10
74.6085155779
 20
115.8019746654
  0
VERTEX
  8
0
 62
7
  6
CONTINUOUS
 10
74.6311978156
 20
115.9543322936
  0
VERTEX
  8
0
 62
7
  6
CONTINUOUS
 10
74.6566708543
 20
116.1008744812
  0
VERTEX
  8
0
 62
7
  6
CONTINUOUS
 10
74.6848406008
 20
116.2408822079
  0
VERTEX
  8
0
 62
7
  6
CONTINUOUS
 10
74.7155986077
 20
116.3736463375
  0
VERTEX
  8
0
 62
7
  6
CONTINUOUS
 10
74.7488214212
 20
116.4984724015
  0
VERTEX
  8
0
 62
7
  6
CONTINUOUS
 10
74.7843699932
 20
116.6146859387
  0
VERTEX
  8
0
 62
7
  6
CONTINUOUS
 10
74.8220897352
 20
116.7216399384
  0
VERTEX
  8
0
 62
7
  6
CONTINUOUS
 10
74.8618104323
 20
116.8187211732
  0
VERTEX
  8
0
 62
7
  6
CONTINUOUS
 10
74.9033464024
 20
116.9053570943
  0
VERTEX
  8
0
 62
7
  6
CONTINUOUS
 10
74.9464970936
 20
116.9810233585
  0
VERTEX
  8
0
 62
7
  6
CONTINUOUS
 10
74.9910482223
 20
117.0452515584
  0
VERTEX
  8
0
 62
7
  6
CONTINUOUS
 10
75.0367731356
 20
117.0976361705
  0
VERTEX
  8
0
 62
7
  6
CONTINUOUS
 10
75.0834223349
 20
117.1378320321
  0
SEQEND
  0
POLYLINE
  8
0
 62
7
  6
CONTINUOUS
 66
1
 70
0
  0
VERTEX
  8
0
 62
7
  6
CONTINUOUS
 10
75.4028495813
 20
112.5968271931
  0
VERTEX
  8
0
 62
7
  6
CONTINUOUS
 10
75.3407839916
 20
112.3740192259
  0
VERTEX
  8
0
 62
7
  6
CONTINUOUS
 10
75.3146466105
 20
112.2783089107
  0
VERTEX
  8
0
 62
7
  6
CONTINUOUS
 10
75.2925294126
 20
112.1932092294
  0
VERTEX
  8
0
 62
7
  6
CONTINUOUS
 10
75.2748823282
 20
112.1187924335
  0
VERTEX
  8
0
 62
7
  6
CONTINUOUS
 10
75.2620092978
 20
112.0548606082
  0
VERTEX
  8
0
 62
7
  6
CONTINUOUS
 10
75.2541778696
 20
112.0014004201
  0
VERTEX
  8
0
 62
7
  6
CONTINUOUS
 10
75.2515419383
 20
111.958189267
  0
SEQEND
  0
POLYLINE
  8
0
 62
7
  6
CONTINUOUS
 66
1
 70
0
  0
VERTEX
  8
0
 62
7
  6
CONTINUOUS
 10
62.3834223349
 20
117.1378320321
  0
VERTEX
  8
0
 62
7
  6
CONTINUOUS
 10
62.4233531205
 20
117.1634716894
  0
VERTEX
  8
0
 62
7
  6
CONTINUOUS
 10
62.4577261297
 20
117.1787316676
  0
VERTEX
  8
0
 62
7
  6
CONTINUOUS
 10
62.4865056567
 20
117.1837692748
  0
SEQEND
  0
POLYLINE
  8
0
 62
7
  6
CONTINUOUS
 66
1
 70
0
  0
VERTEX
  8
0
 62
7
  6
CONTINUOUS
 10
42.886734601
 20
111.8837692748
  0
VERTEX
  8
0
 62
7
  6
CONTINUOUS
 10
42.8706942679
 20
111.8888724488
  0
VERTEX
  8
0
 62
7
  6
CONTINUOUS
 10
42.8487007349
 20
111.9042873695
  0
VERTEX
  8
0
 62
7
  6
CONTINUOUS
 10
42.8207435814
 20
111.9301539376
  0
VERTEX
  8
0
 62
7
  6
CONTINUOUS
 10
42.7867336981
 20
111.9667540295
  0
VERTEX
  8
0
 62
7
  6
CONTINUOUS
 10
42.7467378237
 20
112.0143013133
  0
VERTEX
  8
0
 62
7
  6
CONTINUOUS
 10
42.7007524139
 20
112.0731898405
  0
VERTEX
  8
0
 62
7
  6
CONTINUOUS
 10
42.6489045419
 20
112.1437873214
  0
SEQEND
  0
POLYLINE
  8
0
 62
7
  6
CONTINUOUS
 66
1
 70
0
  0
VERTEX
  8
0
 62
7
  6
CONTINUOUS
 10
37.1163492756
 20
117.1837692748
  0
VERTEX
  8
0
 62
7
  6
CONTINUOUS
 10
37.1323863293
 20
117.1786678661
  0
VERTEX
  8
0
 62
7
  6
CONTINUOUS
 10
37.1543773385
 20
117.1632559702
  0
VERTEX
  8
0
 62
7
  6
CONTINUOUS
 10
37.1823345519
 20
117.1373903937
  0
VERTEX
  8
0
 62
7
  6
CONTINUOUS
 10
37.2163481119
 20
117.1007868669
  0
VERTEX
  8
0
 62
7
  6
CONTINUOUS
 10
37.2563488468
 20
117.0532337826
  0
VERTEX
  8
0
 62
7
  6
CONTINUOUS
 10
37.3023337984
 20
116.9943456226
  0
VERTEX
  8
0
 62
7
  6
CONTINUOUS
 10
37.3541793346
 20
116.9237512282
  0
SEQEND
  0
LINE
  8
0
 62
7
  6
CONTINUOUS
 10
75.3407830349
 20
116.6935227774
 11
75.4028495813
 21
116.4707113566
  0
POLYLINE
  8
0
 62
7
  6
CONTINUOUS
 66
1
 70
0
  0
VERTEX
  8
0
 62
7
  6
CONTINUOUS
 10
75.4028495813
 20
116.4707113566
  0
VERTEX
  8
0
 62
7
  6
CONTINUOUS
 10
75.4349215162
 20
116.3465030296
  0
VERTEX
  8
0
 62
7
  6
CONTINUOUS
 10
75.4645970377
 20
116.2147878606
  0
VERTEX
  8
0
 62
7
  6
CONTINUOUS
 10
75.4917605401
 20
116.0762321135
  0
VERTEX
  8
0
 62
7
  6
CONTINUOUS
 10
75.5163122417
 20
115.9315073068
  0
VERTEX
  8
0
 62
7
  6
CONTINUOUS
 10
75.5381655541
 20
115.7812932402
  0
VERTEX
  8
0
 62
7
  6
CONTINUOUS
 10
75.5572463108
 20
115.6262751001
  0
VERTEX
  8
0
 62
7
  6
CONTINUOUS
 10
75.5734921033
 20
115.4671405161
  0
VERTEX
  8
0
 62
7
  6
CONTINUOUS
 10
75.5868515781
 20
115.3045773879
  0
VERTEX
  8
0
 62
7
  6
CONTINUOUS
 10
75.5972836955
 20
115.1392733731
  0
VERTEX
  8
0
 62
7
  6
CONTINUOUS
 10
75.6047571963
 20
114.9719144747
  0
VERTEX
  8
0
 62
7
  6
CONTINUOUS
 10
75.6092500326
 20
114.8031871814
  0
VERTEX
  8
0
 62
7
  6
CONTINUOUS
 10
75.6107491643
 20
114.6337692748
  0
SEQEND
  0
POLYLINE
  8
0
 62
7
  6
CONTINUOUS
 66
1
 70
0
  0
VERTEX
  8
0
 62
7
  6
CONTINUOUS
 10
80.9515419383
 20
111.958189267
  0
VERTEX
  8
0
 62
7
  6
CONTINUOUS
 10
80.9489059245
 20
112.0014011779
  0
VERTEX
  8
0
 62
7
  6
CONTINUOUS
 10
80.9410745704
 20
112.0548606555
  0
VERTEX
  8
0
 62
7
  6
CONTINUOUS
 10
80.9282019539
 20
112.1187906014
  0
VERTEX
  8
0
 62
7
  6
CONTINUOUS
 10
80.9105553621
 20
112.193205638
  0
VERTEX
  8
0
 62
7
  6
CONTINUOUS
 10
80.8884384219
 20
112.278304594
  0
VERTEX
  8
0
 62
7
  6
CONTINUOUS
 10
80.8623009487
 20
112.3740153858
  0
SEQEND
  0
POLYLINE
  8
0
 62
7
  6
CONTINUOUS
 66
1
 70
0
  0
VERTEX
  8
0
 62
7
  6
CONTINUOUS
 10
81.6699563904
 20
114.6337692748
  0
VERTEX
  8
0
 62
7
  6
CONTINUOUS
 10
81.6683987189
 20
114.8064595831
  0
VERTEX
  8
0
 62
7
  6
CONTINUOUS
 10
81.6637304053
 20
114.9784245301
  0
VERTEX
  8
0
 62
7
  6
CONTINUOUS
 10
81.6559654906
 20
115.1489407699
  0
VERTEX
  8
0
 62
7
  6
CONTINUOUS
 10
81.6451276748
 20
115.3172821373
  0
VERTEX
  8
0
 62
7
  6
CONTINUOUS
 10
81.6312507625
 20
115.4827206133
  0
VERTEX
  8
0
 62
7
  6
CONTINUOUS
 10
81.6143790911
 20
115.6445279074
  0
VERTEX
  8
0
 62
7
  6
CONTINUOUS
 10
81.5945682987
 20
115.8019746654
  0
VERTEX
  8
0
 62
7
  6
CONTINUOUS
 10
81.5718860609
 20
115.9543322936
  0
VERTEX
  8
0
 62
7
  6
CONTINUOUS
 10
81.5464130222
 20
116.1008744812
  0
VERTEX
  8
0
 62
7
  6
CONTINUOUS
 10
81.5182432758
 20
116.2408822079
  0
VERTEX
  8
0
 62
7
  6
CONTINUOUS
 10
81.4874852688
 20
116.3736463375
  0
VERTEX
  8
0
 62
7
  6
CONTINUOUS
 10
81.4542624553
 20
116.4984724015
  0
VERTEX
  8
0
 62
7
  6
CONTINUOUS
 10
81.4187138833
 20
116.6146859387
  0
VERTEX
  8
0
 62
7
  6
CONTINUOUS
 10
81.3809941413
 20
116.7216399384
  0
VERTEX
  8
0
 62
7
  6
CONTINUOUS
 10
81.3412734443
 20
116.8187211732
  0
VERTEX
  8
0
 62
7
  6
CONTINUOUS
 10
81.2997374742
 20
116.9053570943
  0
VERTEX
  8
0
 62
7
  6
CONTINUOUS
 10
81.256586783
 20
116.9810233585
  0
VERTEX
  8
0
 62
7
  6
CONTINUOUS
 10
81.2120356542
 20
117.0452515584
  0
VERTEX
  8
0
 62
7
  6
CONTINUOUS
 10
81.1663107409
 20
117.0976361705
  0
VERTEX
  8
0
 62
7
  6
CONTINUOUS
 10
81.1196615417
 20
117.1378320321
  0
SEQEND
  0
POLYLINE
  8
0
 62
7
  6
CONTINUOUS
 66
1
 70
0
  0
VERTEX
  8
0
 62
7
  6
CONTINUOUS
 10
80.5923347123
 20
114.4337692748
  0
VERTEX
  8
0
 62
7
  6
CONTINUOUS
 10
80.5938338515
 20
114.2643509402
  0
VERTEX
  8
0
 62
7
  6
CONTINUOUS
 10
80.5983267063
 20
114.0956233433
  0
VERTEX
  8
0
 62
7
  6
CONTINUOUS
 10
80.6058002304
 20
113.92826426
  0
VERTEX
  8
0
 62
7
  6
CONTINUOUS
 10
80.616232371
 20
113.7629601624
  0
VERTEX
  8
0
 62
7
  6
CONTINUOUS
 10
80.6295918645
 20
113.6003970425
  0
VERTEX
  8
0
 62
7
  6
CONTINUOUS
 10
80.6458376682
 20
113.4412625381
  0
VERTEX
  8
0
 62
7
  6
CONTINUOUS
 10
80.664918425
 20
113.2862445449
  0
VERTEX
  8
0
 62
7
  6
CONTINUOUS
 10
80.6867717218
 20
113.1360306903
  0
VERTEX
  8
0
 62
7
  6
CONTINUOUS
 10
80.7113233932
 20
112.9913061254
  0
VERTEX
  8
0
 62
7
  6
CONTINUOUS
 10
80.7384868606
 20
112.8527505856
  0
VERTEX
  8
0
 62
7
  6
CONTINUOUS
 10
80.7681623576
 20
112.7210355317
  0
VERTEX
  8
0
 62
7
  6
CONTINUOUS
 10
80.8002342952
 20
112.5968271931
  0
SEQEND
  0
LINE
  8
0
 62
7
  6
CONTINUOUS
 10
80.5923347123
 20
114.6337692748
 11
80.5923347123
 21
114.4337692748
  0
LINE
  8
0
 62
7
  6
CONTINUOUS
 10
80.9515419383
 20
108.7837692748
 11
80.9515419383
 21
111.958189267
  0
LINE
  8
0
 62
7
  6
CONTINUOUS
 10
80.9515419383
 20
117.1093492826
 11
80.9515419383
 21
120.2837692748
  0
LINE
  8
0
 62
7
  6
CONTINUOUS
 10
81.6699563904
 20
114.4337692748
 11
81.6699563904
 21
114.6337692748
  0
POLYLINE
  8
0
 62
7
  6
CONTINUOUS
 66
1
 70
0
  0
VERTEX
  8
0
 62
7
  6
CONTINUOUS
 10
80.8002342952
 20
116.4707113566
  0
VERTEX
  8
0
 62
7
  6
CONTINUOUS
 10
80.7681623605
 20
116.3465030302
  0
VERTEX
  8
0
 62
7
  6
CONTINUOUS
 10
80.738486839
 20
116.2147878612
  0
VERTEX
  8
0
 62
7
  6
CONTINUOUS
 10
80.7113233366
 20
116.0762321142
  0
VERTEX
  8
0
 62
7
  6
CONTINUOUS
 10
80.686771635
 20
115.9315073075
  0
VERTEX
  8
0
 62
7
  6
CONTINUOUS
 10
80.6649183226
 20
115.7812932408
  0
VERTEX
  8
0
 62
7
  6
CONTINUOUS
 10
80.6458375658
 20
115.6262751006
  0
VERTEX
  8
0
 62
7
  6
CONTINUOUS
 10
80.6295917733
 20
115.4671405165
  0
VERTEX
  8
0
 62
7
  6
CONTINUOUS
 10
80.6162322985
 20
115.3045773882
  0
VERTEX
  8
0
 62
7
  6
CONTINUOUS
 10
80.6058001811
 20
115.1392733732
  0
VERTEX
  8
0
 62
7
  6
CONTINUOUS
 10
80.5983266802
 20
114.9719144748
  0
VERTEX
  8
0
 62
7
  6
CONTINUOUS
 10
80.593833844
 20
114.8031871814
  0
VERTEX
  8
0
 62
7
  6
CONTINUOUS
 10
80.5923347123
 20
114.6337692748
  0
SEQEND
  0
POLYLINE
  8
0
 62
7
  6
CONTINUOUS
 66
1
 70
0
  0
VERTEX
  8
0
 62
7
  6
CONTINUOUS
 10
80.8002342952
 20
116.4707113566
  0
VERTEX
  8
0
 62
7
  6
CONTINUOUS
 10
80.8623018553
 20
116.6935264363
  0
VERTEX
  8
0
 62
7
  6
CONTINUOUS
 10
80.8884418643
 20
116.7892468122
  0
VERTEX
  8
0
 62
7
  6
CONTINUOUS
 10
80.9105592209
 20
116.8743483415
  0
VERTEX
  8
0
 62
7
  6
CONTINUOUS
 10
80.9282044754
 20
116.948759339
  0
VERTEX
  8
0
 62
7
  6
CONTINUOUS
 10
80.9410752575
 20
117.012681776
  0
VERTEX
  8
0
 62
7
  6
CONTINUOUS
 10
80.9489056931
 20
117.0661352444
  0
VERTEX
  8
0
 62
7
  6
CONTINUOUS
 10
80.9515419383
 20
117.1093492826
  0
SEQEND
  0
POLYLINE
  8
0
 62
7
  6
CONTINUOUS
 66
1
 70
0
  0
VERTEX
  8
0
 62
7
  6
CONTINUOUS
 10
68.4196615417
 20
111.9297065175
  0
VERTEX
  8
0
 62
7
  6
CONTINUOUS
 10
68.4663106478
 20
111.9699022858
  0
VERTEX
  8
0
 62
7
  6
CONTINUOUS
 10
68.5120355118
 20
112.0222868072
  0
VERTEX
  8
0
 62
7
  6
CONTINUOUS
 10
68.5565866273
 20
112.0865149427
  0
VERTEX
  8
0
 62
7
  6
CONTINUOUS
 10
68.5997373339
 20
112.1621811864
  0
VERTEX
  8
0
 62
7
  6
CONTINUOUS
 10
68.6412733421
 20
112.2488171453
  0
VERTEX
  8
0
 62
7
  6
CONTINUOUS
 10
68.6809940933
 20
112.3458984847
  0
VERTEX
  8
0
 62
7
  6
CONTINUOUS
 10
68.7187138967
 20
112.4528526517
  0
VERTEX
  8
0
 62
7
  6
CONTINUOUS
 10
68.7542625305
 20
112.5690664116
  0
VERTEX
  8
0
 62
7
  6
CONTINUOUS
 10
68.7874854012
 20
112.6938927453
  0
VERTEX
  8
0
 62
7
  6
CONTINUOUS
 10
68.818243455
 20
112.8266571715
  0
VERTEX
  8
0
 62
7
  6
CONTINUOUS
 10
68.8464132343
 20
112.9666652014
  0
VERTEX
  8
0
 62
7
  6
CONTINUOUS
 10
68.8718862906
 20
113.1132076821
  0
VERTEX
  8
0
 62
7
  6
CONTINUOUS
 10
68.8945685294
 20
113.2655655667
  0
VERTEX
  8
0
 62
7
  6
CONTINUOUS
 10
68.9143793053
 20
113.4230125071
  0
VERTEX
  8
0
 62
7
  6
CONTINUOUS
 10
68.9312509453
 20
113.5848198826
  0
VERTEX
  8
0
 62
7
  6
CONTINUOUS
 10
68.9451278161
 20
113.7502583202
  0
VERTEX
  8
0
 62
7
  6
CONTINUOUS
 10
68.9559655847
 20
113.9185994953
  0
VERTEX
  8
0
 62
7
  6
CONTINUOUS
 10
68.9637304541
 20
114.0891153641
  0
VERTEX
  8
0
 62
7
  6
CONTINUOUS
 10
68.9683987329
 20
114.2610797423
  0
VERTEX
  8
0
 62
7
  6
CONTINUOUS
 10
68.9699563904
 20
114.4337692748
  0
SEQEND
  0
POLYLINE
  8
0
 62
7
  6
CONTINUOUS
 66
1
 70
0
  0
VERTEX
  8
0
 62
7
  6
CONTINUOUS
 10
75.0834223349
 20
117.1378320321
  0
VERTEX
  8
0
 62
7
  6
CONTINUOUS
 10
75.1233531205
 20
117.1634716894
  0
VERTEX
  8
0
 62
7
  6
CONTINUOUS
 10
75.1577261297
 20
117.1787316676
  0
VERTEX
  8
0
 62
7
  6
CONTINUOUS
 10
75.1865056567
 20
117.1837692748
  0
SEQEND
  0
POLYLINE
  8
0
 62
7
  6
CONTINUOUS
 66
1
 70
0
  0
VERTEX
  8
0
 62
7
  6
CONTINUOUS
 10
68.4196615417
 20
111.9297065175
  0
VERTEX
  8
0
 62
7
  6
CONTINUOUS
 10
68.3797286587
 20
111.9040657073
  0
VERTEX
  8
0
 62
7
  6
CONTINUOUS
 10
68.3453565233
 20
111.88880649
  0
VERTEX
  8
0
 62
7
  6
CONTINUOUS
 10
68.3165782199
 20
111.8837692748
  0
SEQEND
  0
POLYLINE
  8
0
 62
7
  6
CONTINUOUS
 66
1
 70
0
  0
VERTEX
  8
0
 62
7
  6
CONTINUOUS
 10
30.2108291907
 20
111.8837692748
  0
VERTEX
  8
0
 62
7
  6
CONTINUOUS
 10
30.1747901492
 20
111.8888903042
  0
VERTEX
  8
0
 62
7
  6
CONTINUOUS
 10
30.1320541098
 20
111.9044866368
  0
VERTEX
  8
0
 62
7
  6
CONTINUOUS
 10
30.0826000063
 20
111.9308151267
  0
VERTEX
  8
0
 62
7
  6
CONTINUOUS
 10
30.0264853598
 20
111.9680443551
  0
SEQEND
  0
POLYLINE
  8
0
 62
7
  6
CONTINUOUS
 66
1
 70
0
  0
VERTEX
  8
0
 62
7
  6
CONTINUOUS
 10
55.7772837778
 20
111.8837692748
  0
VERTEX
  8
0
 62
7
  6
CONTINUOUS
 10
55.7588846515
 20
111.8882747822
  0
VERTEX
  8
0
 62
7
  6
CONTINUOUS
 10
55.7351577837
 20
111.9018921541
  0
VERTEX
  8
0
 62
7
  6
CONTINUOUS
 10
55.7060889358
 20
111.9247479113
  0
VERTEX
  8
0
 62
7
  6
CONTINUOUS
 10
55.6715785403
 20
111.9570811566
  0
VERTEX
  8
0
 62
7
  6
CONTINUOUS
 10
55.631652315
 20
111.999090918
  0
VERTEX
  8
0
 62
7
  6
CONTINUOUS
 10
55.586333566
 20
112.0510419022
  0
VERTEX
  8
0
 62
7
  6
CONTINUOUS
 10
55.5356046104
 20
112.1133481908
  0
VERTEX
  8
0
 62
7
  6
CONTINUOUS
 10
55.4796870473
 20
112.1862486075
  0
SEQEND
  0
POLYLINE
  8
0
 62
7
  6
CONTINUOUS
 66
1
 70
0
  0
VERTEX
  8
0
 62
7
  6
CONTINUOUS
 10
75.0834223349
 20
111.9297065175
  0
VERTEX
  8
0
 62
7
  6
CONTINUOUS
 10
75.0367732288
 20
111.9699022858
  0
VERTEX
  8
0
 62
7
  6
CONTINUOUS
 10
74.9910483648
 20
112.0222868072
  0
VERTEX
  8
0
 62
7
  6
CONTINUOUS
 10
74.9464972493
 20
112.0865149427
  0
VERTEX
  8
0
 62
7
  6
CONTINUOUS
 10
74.9033465427
 20
112.1621811864
  0
VERTEX
  8
0
 62
7
  6
CONTINUOUS
 10
74.8618105344
 20
112.2488171453
  0
VERTEX
  8
0
 62
7
  6
CONTINUOUS
 10
74.8220897832
 20
112.3458984847
  0
VERTEX
  8
0
 62
7
  6
CONTINUOUS
 10
74.7843699798
 20
112.4528526517
  0
VERTEX
  8
0
 62
7
  6
CONTINUOUS
 10
74.7488213461
 20
112.5690664116
  0
VERTEX
  8
0
 62
7
  6
CONTINUOUS
 10
74.7155984753
 20
112.6938927453
  0
VERTEX
  8
0
 62
7
  6
CONTINUOUS
 10
74.6848404216
 20
112.8266571715
  0
VERTEX
  8
0
 62
7
  6
CONTINUOUS
 10
74.6566706423
 20
112.9666652014
  0
VERTEX
  8
0
 62
7
  6
CONTINUOUS
 10
74.6311975859
 20
113.1132076821
  0
VERTEX
  8
0
 62
7
  6
CONTINUOUS
 10
74.6085153471
 20
113.2655655667
  0
VERTEX
  8
0
 62
7
  6
CONTINUOUS
 10
74.5887045713
 20
113.4230125071
  0
VERTEX
  8
0
 62
7
  6
CONTINUOUS
 10
74.5718329312
 20
113.5848198826
  0
VERTEX
  8
0
 62
7
  6
CONTINUOUS
 10
74.5579560605
 20
113.7502583202
  0
VERTEX
  8
0
 62
7
  6
CONTINUOUS
 10
74.5471182918
 20
113.9185994953
  0
VERTEX
  8
0
 62
7
  6
CONTINUOUS
 10
74.5393534224
 20
114.0891153641
  0
VERTEX
  8
0
 62
7
  6
CONTINUOUS
 10
74.5346851436
 20
114.2610797423
  0
VERTEX
  8
0
 62
7
  6
CONTINUOUS
 10
74.5331274862
 20
114.4337692748
  0
SEQEND
  0
LINE
  8
0
 62
7
  6
CONTINUOUS
 10
80.8623009487
 20
112.3740153858
 11
80.8002342952
 21
112.5968271931
  0
POLYLINE
  8
0
 62
7
  6
CONTINUOUS
 66
1
 70
0
  0
VERTEX
  8
0
 62
7
  6
CONTINUOUS
 10
87.9515419383
 20
117.1093492826
  0
VERTEX
  8
0
 62
7
  6
CONTINUOUS
 10
87.9541781065
 20
117.0661359523
  0
VERTEX
  8
0
 62
7
  6
CONTINUOUS
 10
87.9620086067
 20
117.0126818458
  0
VERTEX
  8
0
 62
7
  6
CONTINUOUS
 10
87.9748797973
 20
116.9487575496
  0
VERTEX
  8
0
 62
7
  6
CONTINUOUS
 10
87.992525536
 20
116.8743448216
  0
VERTEX
  8
0
 62
7
  6
CONTINUOUS
 10
88.0146431483
 20
116.7892425694
  0
VERTEX
  8
0
 62
7
  6
CONTINUOUS
 10
88.0407830349
 20
116.6935227774
  0
SEQEND
  0
LINE
  8
0
 62
7
  6
CONTINUOUS
 10
87.2331274862
 20
114.4337692748
 11
87.2331274862
 21
114.6337692748
  0
LINE
  8
0
 62
7
  6
CONTINUOUS
 10
87.9515419383
 20
120.2837692748
 11
87.9515419383
 21
117.1093492826
  0
LINE
  8
0
 62
7
  6
CONTINUOUS
 10
87.9515419383
 20
111.958189267
 11
87.9515419383
 21
108.7837692748
  0
LINE
  8
0
 62
7
  6
CONTINUOUS
 10
88.3107491643
 20
114.6337692748
 11
88.3107491643
 21
114.4337692748
  0
POLYLINE
  8
0
 62
7
  6
CONTINUOUS
 66
1
 70
0
  0
VERTEX
  8
0
 62
7
  6
CONTINUOUS
 10
88.3107491643
 20
114.4337692748
  0
VERTEX
  8
0
 62
7
  6
CONTINUOUS
 10
88.309250025
 20
114.2643509402
  0
VERTEX
  8
0
 62
7
  6
CONTINUOUS
 10
88.3047571703
 20
114.0956233434
  0
VERTEX
  8
0
 62
7
  6
CONTINUOUS
 10
88.2972836461
 20
113.9282642602
  0
VERTEX
  8
0
 62
7
  6
CONTINUOUS
 10
88.2868515056
 20
113.7629601627
  0
VERTEX
  8
0
 62
7
  6
CONTINUOUS
 10
88.2734920121
 20
113.6003970429
  0
VERTEX
  8
0
 62
7
  6
CONTINUOUS
 10
88.2572462084
 20
113.4412625386
  0
VERTEX
  8
0
 62
7
  6
CONTINUOUS
 10
88.2381654517
 20
113.2862445455
  0
VERTEX
  8
0
 62
7
  6
CONTINUOUS
 10
88.2163121549
 20
113.1360306909
  0
VERTEX
  8
0
 62
7
  6
CONTINUOUS
 10
88.1917604835
 20
112.9913061261
  0
VERTEX
  8
0
 62
7
  6
CONTINUOUS
 10
88.1645970161
 20
112.8527505863
  0
VERTEX
  8
0
 62
7
  6
CONTINUOUS
 10
88.1349215191
 20
112.7210355323
  0
VERTEX
  8
0
 62
7
  6
CONTINUOUS
 10
88.1028495813
 20
112.5968271931
  0
SEQEND
  0
POLYLINE
  8
0
 62
7
  6
CONTINUOUS
 66
1
 70
0
  0
VERTEX
  8
0
 62
7
  6
CONTINUOUS
 10
87.2331274862
 20
114.6337692748
  0
VERTEX
  8
0
 62
7
  6
CONTINUOUS
 10
87.2346851576
 20
114.8064595831
  0
VERTEX
  8
0
 62
7
  6
CONTINUOUS
 10
87.2393534713
 20
114.9784245301
  0
VERTEX
  8
0
 62
7
  6
CONTINUOUS
 10
87.247118386
 20
115.1489407699
  0
VERTEX
  8
0
 62
7
  6
CONTINUOUS
 10
87.2579562017
 20
115.3172821373
  0
VERTEX
  8
0
 62
7
  6
CONTINUOUS
 10
87.2718331141
 20
115.4827206133
  0
VERTEX
  8
0
 62
7
  6
CONTINUOUS
 10
87.2887047855
 20
115.6445279074
  0
VERTEX
  8
0
 62
7
  6
CONTINUOUS
 10
87.3085155779
 20
115.8019746654
  0
VERTEX
  8
0
 62
7
  6
CONTINUOUS
 10
87.3311978156
 20
115.9543322936
  0
VERTEX
  8
0
 62
7
  6
CONTINUOUS
 10
87.3566708543
 20
116.1008744812
  0
VERTEX
  8
0
 62
7
  6
CONTINUOUS
 10
87.3848406008
 20
116.2408822079
  0
VERTEX
  8
0
 62
7
  6
CONTINUOUS
 10
87.4155986077
 20
116.3736463375
  0
VERTEX
  8
0
 62
7
  6
CONTINUOUS
 10
87.4488214212
 20
116.4984724015
  0
VERTEX
  8
0
 62
7
  6
CONTINUOUS
 10
87.4843699932
 20
116.6146859387
  0
VERTEX
  8
0
 62
7
  6
CONTINUOUS
 10
87.5220897352
 20
116.7216399384
  0
VERTEX
  8
0
 62
7
  6
CONTINUOUS
 10
87.5618104323
 20
116.8187211732
  0
VERTEX
  8
0
 62
7
  6
CONTINUOUS
 10
87.6033464024
 20
116.9053570943
  0
VERTEX
  8
0
 62
7
  6
CONTINUOUS
 10
87.6464970936
 20
116.9810233585
  0
VERTEX
  8
0
 62
7
  6
CONTINUOUS
 10
87.6910482223
 20
117.0452515584
  0
VERTEX
  8
0
 62
7
  6
CONTINUOUS
 10
87.7367731356
 20
117.0976361705
  0
VERTEX
  8
0
 62
7
  6
CONTINUOUS
 10
87.7834223349
 20
117.1378320321
  0
SEQEND
  0
POLYLINE
  8
0
 62
7
  6
CONTINUOUS
 66
1
 70
0
  0
VERTEX
  8
0
 62
7
  6
CONTINUOUS
 10
88.1028495813
 20
112.5968271931
  0
VERTEX
  8
0
 62
7
  6
CONTINUOUS
 10
88.0407839916
 20
112.3740192259
  0
VERTEX
  8
0
 62
7
  6
CONTINUOUS
 10
88.0146466105
 20
112.2783089107
  0
VERTEX
  8
0
 62
7
  6
CONTINUOUS
 10
87.9925294126
 20
112.1932092294
  0
VERTEX
  8
0
 62
7
  6
CONTINUOUS
 10
87.9748823282
 20
112.1187924335
  0
VERTEX
  8
0
 62
7
  6
CONTINUOUS
 10
87.9620092978
 20
112.0548606082
  0
VERTEX
  8
0
 62
7
  6
CONTINUOUS
 10
87.9541778696
 20
112.0014004201
  0
VERTEX
  8
0
 62
7
  6
CONTINUOUS
 10
87.9515419383
 20
111.958189267
  0
SEQEND
  0
POLYLINE
  8
0
 62
7
  6
CONTINUOUS
 66
1
 70
0
  0
VERTEX
  8
0
 62
7
  6
CONTINUOUS
 10
81.1196615417
 20
111.9297065175
  0
VERTEX
  8
0
 62
7
  6
CONTINUOUS
 10
81.1663106478
 20
111.9699022858
  0
VERTEX
  8
0
 62
7
  6
CONTINUOUS
 10
81.2120355118
 20
112.0222868072
  0
VERTEX
  8
0
 62
7
  6
CONTINUOUS
 10
81.2565866273
 20
112.0865149427
  0
VERTEX
  8
0
 62
7
  6
CONTINUOUS
 10
81.2997373339
 20
112.1621811864
  0
VERTEX
  8
0
 62
7
  6
CONTINUOUS
 10
81.3412733421
 20
112.2488171453
  0
VERTEX
  8
0
 62
7
  6
CONTINUOUS
 10
81.3809940933
 20
112.3458984847
  0
VERTEX
  8
0
 62
7
  6
CONTINUOUS
 10
81.4187138967
 20
112.4528526517
  0
VERTEX
  8
0
 62
7
  6
CONTINUOUS
 10
81.4542625305
 20
112.5690664116
  0
VERTEX
  8
0
 62
7
  6
CONTINUOUS
 10
81.4874854012
 20
112.6938927453
  0
VERTEX
  8
0
 62
7
  6
CONTINUOUS
 10
81.518243455
 20
112.8266571715
  0
VERTEX
  8
0
 62
7
  6
CONTINUOUS
 10
81.5464132343
 20
112.9666652014
  0
VERTEX
  8
0
 62
7
  6
CONTINUOUS
 10
81.5718862906
 20
113.1132076821
  0
VERTEX
  8
0
 62
7
  6
CONTINUOUS
 10
81.5945685294
 20
113.2655655667
  0
VERTEX
  8
0
 62
7
  6
CONTINUOUS
 10
81.6143793053
 20
113.4230125071
  0
VERTEX
  8
0
 62
7
  6
CONTINUOUS
 10
81.6312509453
 20
113.5848198826
  0
VERTEX
  8
0
 62
7
  6
CONTINUOUS
 10
81.6451278161
 20
113.7502583202
  0
VERTEX
  8
0
 62
7
  6
CONTINUOUS
 10
81.6559655847
 20
113.9185994953
  0
VERTEX
  8
0
 62
7
  6
CONTINUOUS
 10
81.6637304541
 20
114.0891153641
  0
VERTEX
  8
0
 62
7
  6
CONTINUOUS
 10
81.6683987329
 20
114.2610797423
  0
VERTEX
  8
0
 62
7
  6
CONTINUOUS
 10
81.6699563904
 20
114.4337692748
  0
SEQEND
  0
POLYLINE
  8
0
 62
7
  6
CONTINUOUS
 66
1
 70
0
  0
VERTEX
  8
0
 62
7
  6
CONTINUOUS
 10
87.7834223349
 20
117.1378320321
  0
VERTEX
  8
0
 62
7
  6
CONTINUOUS
 10
87.8233531205
 20
117.1634716894
  0
VERTEX
  8
0
 62
7
  6
CONTINUOUS
 10
87.8577261297
 20
117.1787316676
  0
VERTEX
  8
0
 62
7
  6
CONTINUOUS
 10
87.8865056567
 20
117.1837692748
  0
SEQEND
  0
POLYLINE
  8
0
 62
7
  6
CONTINUOUS
 66
1
 70
0
  0
VERTEX
  8
0
 62
7
  6
CONTINUOUS
 10
81.1196615417
 20
111.9297065175
  0
VERTEX
  8
0
 62
7
  6
CONTINUOUS
 10
81.0797286587
 20
111.9040657073
  0
VERTEX
  8
0
 62
7
  6
CONTINUOUS
 10
81.0453565233
 20
111.88880649
  0
VERTEX
  8
0
 62
7
  6
CONTINUOUS
 10
81.0165782199
 20
111.8837692748
  0
SEQEND
  0
LINE
  8
0
 62
7
  6
CONTINUOUS
 10
18.3015419383
 20
108.0337692748
 11
169.1015419383
 21
108.0337692748
  0
LINE
  8
0
 62
7
  6
CONTINUOUS
 10
36.3515419383
 20
109.2337692748
 11
31.0515419383
 21
109.2337692748
  0
LINE
  8
0
 62
7
  6
CONTINUOUS
 10
24.8094387098
 20
109.6337692748
 11
29.5515419383
 21
109.6337692748
  0
POLYLINE
  8
0
 62
7
  6
CONTINUOUS
 66
1
 70
0
  0
VERTEX
  8
0
 62
7
  6
CONTINUOUS
 10
24.03225256
 20
117.1837692748
  0
VERTEX
  8
0
 62
7
  6
CONTINUOUS
 10
24.0739122479
 20
117.1789421902
  0
VERTEX
  8
0
 62
7
  6
CONTINUOUS
 10
24.1219916851
 20
117.1643018292
  0
VERTEX
  8
0
 62
7
  6
CONTINUOUS
 10
24.176605604
 20
117.1396201538
  0
VERTEX
  8
0
 62
7
  6
CONTINUOUS
 10
24.2380645699
 20
117.1045271331
  0
VERTEX
  8
0
 62
7
  6
CONTINUOUS
 10
24.3064524773
 20
117.0586920296
  0
SEQEND
  0
POLYLINE
  8
0
 62
7
  6
CONTINUOUS
 66
1
 70
0
  0
VERTEX
  8
0
 62
7
  6
CONTINUOUS
 10
62.4865056567
 20
111.8837692748
  0
VERTEX
  8
0
 62
7
  6
CONTINUOUS
 10
62.4577270981
 20
111.8888065718
  0
VERTEX
  8
0
 62
7
  6
CONTINUOUS
 10
62.423355091
 20
111.904065777
  0
VERTEX
  8
0
 62
7
  6
CONTINUOUS
 10
62.3834223349
 20
111.9297065175
  0
SEQEND
  0
POLYLINE
  8
0
 62
7
  6
CONTINUOUS
 66
1
 70
0
  0
VERTEX
  8
0
 62
7
  6
CONTINUOUS
 10
75.1865056567
 20
111.8837692748
  0
VERTEX
  8
0
 62
7
  6
CONTINUOUS
 10
75.1577270981
 20
111.8888065718
  0
VERTEX
  8
0
 62
7
  6
CONTINUOUS
 10
75.123355091
 20
111.904065777
  0
VERTEX
  8
0
 62
7
  6
CONTINUOUS
 10
75.0834223349
 20
111.9297065175
  0
SEQEND
  0
POLYLINE
  8
0
 62
7
  6
CONTINUOUS
 66
1
 70
0
  0
VERTEX
  8
0
 62
7
  6
CONTINUOUS
 10
49.6258000988
 20
117.1837692748
  0
VERTEX
  8
0
 62
7
  6
CONTINUOUS
 10
49.6441954827
 20
117.1792653737
  0
VERTEX
  8
0
 62
7
  6
CONTINUOUS
 10
49.6679198385
 20
117.1656507113
  0
VERTEX
  8
0
 62
7
  6
CONTINUOUS
 10
49.6969882624
 20
117.1427964282
  0
VERTEX
  8
0
 62
7
  6
CONTINUOUS
 10
49.7315023545
 20
117.1104603678
  0
VERTEX
  8
0
 62
7
  6
CONTINUOUS
 10
49.771434745
 20
117.0684441268
  0
VERTEX
  8
0
 62
7
  6
CONTINUOUS
 10
49.8167545823
 20
117.0164915727
  0
VERTEX
  8
0
 62
7
  6
CONTINUOUS
 10
49.8674819303
 20
116.9541869861
  0
VERTEX
  8
0
 62
7
  6
CONTINUOUS
 10
49.9233968293
 20
116.8812899421
  0
SEQEND
  0
POLYLINE
  8
0
 62
7
  6
CONTINUOUS
 66
1
 70
0
  0
VERTEX
  8
0
 62
7
  6
CONTINUOUS
 10
87.7834223349
 20
111.9297065175
  0
VERTEX
  8
0
 62
7
  6
CONTINUOUS
 10
87.7367732288
 20
111.9699022858
  0
VERTEX
  8
0
 62
7
  6
CONTINUOUS
 10
87.6910483648
 20
112.0222868072
  0
VERTEX
  8
0
 62
7
  6
CONTINUOUS
 10
87.6464972493
 20
112.0865149427
  0
VERTEX
  8
0
 62
7
  6
CONTINUOUS
 10
87.6033465427
 20
112.1621811864
  0
VERTEX
  8
0
 62
7
  6
CONTINUOUS
 10
87.5618105344
 20
112.2488171453
  0
VERTEX
  8
0
 62
7
  6
CONTINUOUS
 10
87.5220897832
 20
112.3458984847
  0
VERTEX
  8
0
 62
7
  6
CONTINUOUS
 10
87.4843699798
 20
112.4528526517
  0
VERTEX
  8
0
 62
7
  6
CONTINUOUS
 10
87.4488213461
 20
112.5690664116
  0
VERTEX
  8
0
 62
7
  6
CONTINUOUS
 10
87.4155984753
 20
112.6938927453
  0
VERTEX
  8
0
 62
7
  6
CONTINUOUS
 10
87.3848404216
 20
112.8266571715
  0
VERTEX
  8
0
 62
7
  6
CONTINUOUS
 10
87.3566706423
 20
112.9666652014
  0
VERTEX
  8
0
 62
7
  6
CONTINUOUS
 10
87.3311975859
 20
113.1132076821
  0
VERTEX
  8
0
 62
7
  6
CONTINUOUS
 10
87.3085153471
 20
113.2655655667
  0
VERTEX
  8
0
 62
7
  6
CONTINUOUS
 10
87.2887045713
 20
113.4230125071
  0
VERTEX
  8
0
 62
7
  6
CONTINUOUS
 10
87.2718329312
 20
113.5848198826
  0
VERTEX
  8
0
 62
7
  6
CONTINUOUS
 10
87.2579560605
 20
113.7502583202
  0
VERTEX
  8
0
 62
7
  6
CONTINUOUS
 10
87.2471182918
 20
113.9185994953
  0
VERTEX
  8
0
 62
7
  6
CONTINUOUS
 10
87.2393534224
 20
114.0891153641
  0
VERTEX
  8
0
 62
7
  6
CONTINUOUS
 10
87.2346851436
 20
114.2610797423
  0
VERTEX
  8
0
 62
7
  6
CONTINUOUS
 10
87.2331274862
 20
114.4337692748
  0
SEQEND
  0
LINE
  8
0
 62
7
  6
CONTINUOUS
 10
88.0407830349
 20
116.6935227774
 11
88.1028495813
 21
116.4707113566
  0
POLYLINE
  8
0
 62
7
  6
CONTINUOUS
 66
1
 70
0
  0
VERTEX
  8
0
 62
7
  6
CONTINUOUS
 10
88.1028495813
 20
116.4707113566
  0
VERTEX
  8
0
 62
7
  6
CONTINUOUS
 10
88.1349215162
 20
116.3465030296
  0
VERTEX
  8
0
 62
7
  6
CONTINUOUS
 10
88.1645970377
 20
116.2147878606
  0
VERTEX
  8
0
 62
7
  6
CONTINUOUS
 10
88.1917605401
 20
116.0762321135
  0
VERTEX
  8
0
 62
7
  6
CONTINUOUS
 10
88.2163122417
 20
115.9315073068
  0
VERTEX
  8
0
 62
7
  6
CONTINUOUS
 10
88.2381655541
 20
115.7812932402
  0
VERTEX
  8
0
 62
7
  6
CONTINUOUS
 10
88.2572463108
 20
115.6262751001
  0
VERTEX
  8
0
 62
7
  6
CONTINUOUS
 10
88.2734921033
 20
115.4671405161
  0
VERTEX
  8
0
 62
7
  6
CONTINUOUS
 10
88.2868515781
 20
115.3045773879
  0
VERTEX
  8
0
 62
7
  6
CONTINUOUS
 10
88.2972836955
 20
115.1392733731
  0
VERTEX
  8
0
 62
7
  6
CONTINUOUS
 10
88.3047571963
 20
114.9719144747
  0
VERTEX
  8
0
 62
7
  6
CONTINUOUS
 10
88.3092500326
 20
114.8031871814
  0
VERTEX
  8
0
 62
7
  6
CONTINUOUS
 10
88.3107491643
 20
114.6337692748
  0
SEQEND
  0
POLYLINE
  8
0
 62
7
  6
CONTINUOUS
 66
1
 70
0
  0
VERTEX
  8
0
 62
7
  6
CONTINUOUS
 10
93.6515419383
 20
111.958189267
  0
VERTEX
  8
0
 62
7
  6
CONTINUOUS
 10
93.6489059245
 20
112.0014011779
  0
VERTEX
  8
0
 62
7
  6
CONTINUOUS
 10
93.6410745704
 20
112.0548606555
  0
VERTEX
  8
0
 62
7
  6
CONTINUOUS
 10
93.6282019539
 20
112.1187906014
  0
VERTEX
  8
0
 62
7
  6
CONTINUOUS
 10
93.6105553621
 20
112.193205638
  0
VERTEX
  8
0
 62
7
  6
CONTINUOUS
 10
93.5884384219
 20
112.278304594
  0
VERTEX
  8
0
 62
7
  6
CONTINUOUS
 10
93.5623009487
 20
112.3740153858
  0
SEQEND
  0
POLYLINE
  8
0
 62
7
  6
CONTINUOUS
 66
1
 70
0
  0
VERTEX
  8
0
 62
7
  6
CONTINUOUS
 10
94.3699563904
 20
114.6337692748
  0
VERTEX
  8
0
 62
7
  6
CONTINUOUS
 10
94.3683987189
 20
114.8064595831
  0
VERTEX
  8
0
 62
7
  6
CONTINUOUS
 10
94.3637304053
 20
114.9784245301
  0
VERTEX
  8
0
 62
7
  6
CONTINUOUS
 10
94.3559654906
 20
115.1489407699
  0
VERTEX
  8
0
 62
7
  6
CONTINUOUS
 10
94.3451276748
 20
115.3172821373
  0
VERTEX
  8
0
 62
7
  6
CONTINUOUS
 10
94.3312507625
 20
115.4827206133
  0
VERTEX
  8
0
 62
7
  6
CONTINUOUS
 10
94.3143790911
 20
115.6445279074
  0
VERTEX
  8
0
 62
7
  6
CONTINUOUS
 10
94.2945682987
 20
115.8019746654
  0
VERTEX
  8
0
 62
7
  6
CONTINUOUS
 10
94.2718860609
 20
115.9543322936
  0
VERTEX
  8
0
 62
7
  6
CONTINUOUS
 10
94.2464130222
 20
116.1008744812
  0
VERTEX
  8
0
 62
7
  6
CONTINUOUS
 10
94.2182432758
 20
116.2408822079
  0
VERTEX
  8
0
 62
7
  6
CONTINUOUS
 10
94.1874852688
 20
116.3736463375
  0
VERTEX
  8
0
 62
7
  6
CONTINUOUS
 10
94.1542624553
 20
116.4984724015
  0
VERTEX
  8
0
 62
7
  6
CONTINUOUS
 10
94.1187138833
 20
116.6146859387
  0
VERTEX
  8
0
 62
7
  6
CONTINUOUS
 10
94.0809941413
 20
116.7216399384
  0
VERTEX
  8
0
 62
7
  6
CONTINUOUS
 10
94.0412734443
 20
116.8187211732
  0
VERTEX
  8
0
 62
7
  6
CONTINUOUS
 10
93.9997374742
 20
116.9053570943
  0
VERTEX
  8
0
 62
7
  6
CONTINUOUS
 10
93.956586783
 20
116.9810233585
  0
VERTEX
  8
0
 62
7
  6
CONTINUOUS
 10
93.9120356542
 20
117.0452515584
  0
VERTEX
  8
0
 62
7
  6
CONTINUOUS
 10
93.8663107409
 20
117.0976361705
  0
VERTEX
  8
0
 62
7
  6
CONTINUOUS
 10
93.8196615417
 20
117.1378320321
  0
SEQEND
  0
POLYLINE
  8
0
 62
7
  6
CONTINUOUS
 66
1
 70
0
  0
VERTEX
  8
0
 62
7
  6
CONTINUOUS
 10
93.2923347123
 20
114.4337692748
  0
VERTEX
  8
0
 62
7
  6
CONTINUOUS
 10
93.2938338515
 20
114.2643509402
  0
VERTEX
  8
0
 62
7
  6
CONTINUOUS
 10
93.2983267063
 20
114.0956233433
  0
VERTEX
  8
0
 62
7
  6
CONTINUOUS
 10
93.3058002304
 20
113.92826426
  0
VERTEX
  8
0
 62
7
  6
CONTINUOUS
 10
93.316232371
 20
113.7629601624
  0
VERTEX
  8
0
 62
7
  6
CONTINUOUS
 10
93.3295918645
 20
113.6003970425
  0
VERTEX
  8
0
 62
7
  6
CONTINUOUS
 10
93.3458376682
 20
113.4412625381
  0
VERTEX
  8
0
 62
7
  6
CONTINUOUS
 10
93.364918425
 20
113.2862445449
  0
VERTEX
  8
0
 62
7
  6
CONTINUOUS
 10
93.3867717218
 20
113.1360306903
  0
VERTEX
  8
0
 62
7
  6
CONTINUOUS
 10
93.4113233932
 20
112.9913061254
  0
VERTEX
  8
0
 62
7
  6
CONTINUOUS
 10
93.4384868606
 20
112.8527505856
  0
VERTEX
  8
0
 62
7
  6
CONTINUOUS
 10
93.4681623576
 20
112.7210355317
  0
VERTEX
  8
0
 62
7
  6
CONTINUOUS
 10
93.5002342952
 20
112.5968271931
  0
SEQEND
  0
LINE
  8
0
 62
7
  6
CONTINUOUS
 10
93.2923347123
 20
114.6337692748
 11
93.2923347123
 21
114.4337692748
  0
LINE
  8
0
 62
7
  6
CONTINUOUS
 10
93.6515419383
 20
108.7837692748
 11
93.6515419383
 21
111.958189267
  0
LINE
  8
0
 62
7
  6
CONTINUOUS
 10
93.6515419383
 20
117.1093492826
 11
93.6515419383
 21
120.2837692748
  0
LINE
  8
DEFAULT_1
 62
7
  6
CENTER
 10
93.7015419383
 20
118.9337692748
 11
93.7015419383
 21
116.5338692748
  0
LINE
  8
0
 62
2
  6
CONTINUOUS
 10
93.7015419383
 20
115.4137692748
 11
93.7015419383
 21
113.6537692748
  0
LINE
  8
DEFAULT_1
 62
7
  6
CENTER
 10
93.7015419383
 20
110.1337692748
 11
93.7015419383
 21
112.5336692748
  0
LINE
  8
0
 62
7
  6
CONTINUOUS
 10
94.3699563904
 20
114.4337692748
 11
94.3699563904
 21
114.6337692748
  0
POLYLINE
  8
0
 62
7
  6
CONTINUOUS
 66
1
 70
0
  0
VERTEX
  8
0
 62
7
  6
CONTINUOUS
 10
93.5002342952
 20
116.4707113566
  0
VERTEX
  8
0
 62
7
  6
CONTINUOUS
 10
93.4681623605
 20
116.3465030302
  0
VERTEX
  8
0
 62
7
  6
CONTINUOUS
 10
93.438486839
 20
116.2147878612
  0
VERTEX
  8
0
 62
7
  6
CONTINUOUS
 10
93.4113233366
 20
116.0762321142
  0
VERTEX
  8
0
 62
7
  6
CONTINUOUS
 10
93.386771635
 20
115.9315073075
  0
VERTEX
  8
0
 62
7
  6
CONTINUOUS
 10
93.3649183226
 20
115.7812932408
  0
VERTEX
  8
0
 62
7
  6
CONTINUOUS
 10
93.3458375658
 20
115.6262751006
  0
VERTEX
  8
0
 62
7
  6
CONTINUOUS
 10
93.3295917733
 20
115.4671405165
  0
VERTEX
  8
0
 62
7
  6
CONTINUOUS
 10
93.3162322985
 20
115.3045773882
  0
VERTEX
  8
0
 62
7
  6
CONTINUOUS
 10
93.3058001811
 20
115.1392733732
  0
VERTEX
  8
0
 62
7
  6
CONTINUOUS
 10
93.2983266802
 20
114.9719144748
  0
VERTEX
  8
0
 62
7
  6
CONTINUOUS
 10
93.293833844
 20
114.8031871814
  0
VERTEX
  8
0
 62
7
  6
CONTINUOUS
 10
93.2923347123
 20
114.6337692748
  0
SEQEND
  0
POLYLINE
  8
0
 62
7
  6
CONTINUOUS
 66
1
 70
0
  0
VERTEX
  8
0
 62
7
  6
CONTINUOUS
 10
93.5002342952
 20
116.4707113566
  0
VERTEX
  8
0
 62
7
  6
CONTINUOUS
 10
93.5623018553
 20
116.6935264363
  0
VERTEX
  8
0
 62
7
  6
CONTINUOUS
 10
93.5884418643
 20
116.7892468122
  0
VERTEX
  8
0
 62
7
  6
CONTINUOUS
 10
93.6105592209
 20
116.8743483415
  0
VERTEX
  8
0
 62
7
  6
CONTINUOUS
 10
93.6282044754
 20
116.948759339
  0
VERTEX
  8
0
 62
7
  6
CONTINUOUS
 10
93.6410752575
 20
117.012681776
  0
VERTEX
  8
0
 62
7
  6
CONTINUOUS
 10
93.6489056931
 20
117.0661352444
  0
VERTEX
  8
0
 62
7
  6
CONTINUOUS
 10
93.6515419383
 20
117.1093492826
  0
SEQEND
  0
LINE
  8
0
 62
7
  6
CONTINUOUS
 10
164.1515419383
 20
111.8837692748
 11
164.0865056567
 21
111.8837692748
  0
LINE
  8
0
 62
7
  6
CONTINUOUS
 10
157.2165782199
 20
111.8837692748
 11
157.1515419383
 21
111.8837692748
  0
LINE
  8
0
 62
7
  6
CONTINUOUS
 10
151.4515419383
 20
111.8837692748
 11
151.3865056567
 21
111.8837692748
  0
LINE
  8
0
 62
7
  6
CONTINUOUS
 10
144.5165782199
 20
111.8837692748
 11
144.4515419383
 21
111.8837692748
  0
LINE
  8
0
 62
7
  6
CONTINUOUS
 10
138.7515419383
 20
111.8837692748
 11
138.6865056567
 21
111.8837692748
  0
LINE
  8
0
 62
7
  6
CONTINUOUS
 10
131.8165782199
 20
111.8837692748
 11
131.7515419383
 21
111.8837692748
  0
LINE
  8
0
 62
7
  6
CONTINUOUS
 10
126.0515419383
 20
111.8837692748
 11
125.9865056567
 21
111.8837692748
  0
LINE
  8
0
 62
7
  6
CONTINUOUS
 10
119.1165782199
 20
111.8837692748
 11
119.0515419383
 21
111.8837692748
  0
LINE
  8
0
 62
7
  6
CONTINUOUS
 10
113.3515419383
 20
111.8837692748
 11
113.2865056567
 21
111.8837692748
  0
LINE
  8
0
 62
7
  6
CONTINUOUS
 10
106.4165782199
 20
111.8837692748
 11
106.3515419383
 21
111.8837692748
  0
LINE
  8
0
 62
7
  6
CONTINUOUS
 10
100.6515419383
 20
111.8837692748
 11
100.5865056567
 21
111.8837692748
  0
LINE
  8
0
 62
7
  6
CONTINUOUS
 10
93.7165782199
 20
111.8837692748
 11
93.6515419383
 21
111.8837692748
  0
LINE
  8
0
 62
7
  6
CONTINUOUS
 10
87.9515419383
 20
111.8837692748
 11
87.8865056567
 21
111.8837692748
  0
LINE
  8
0
 62
7
  6
CONTINUOUS
 10
81.0165782199
 20
111.8837692748
 11
80.9515419383
 21
111.8837692748
  0
LINE
  8
0
 62
7
  6
CONTINUOUS
 10
75.2515419383
 20
111.8837692748
 11
75.1865056567
 21
111.8837692748
  0
LINE
  8
0
 62
7
  6
CONTINUOUS
 10
68.3165782199
 20
111.8837692748
 11
68.2515419383
 21
111.8837692748
  0
LINE
  8
0
 62
7
  6
CONTINUOUS
 10
62.5515419383
 20
111.8837692748
 11
62.4865056567
 21
111.8837692748
  0
LINE
  8
0
 62
7
  6
CONTINUOUS
 10
55.891110534
 20
111.8837692748
 11
55.7772837778
 21
111.8837692748
  0
LINE
  8
0
 62
7
  6
CONTINUOUS
 10
49.6258000988
 20
111.8837692748
 11
49.6015419383
 21
111.8837692748
  0
LINE
  8
0
 62
7
  6
CONTINUOUS
 10
42.9015419383
 20
111.8837692748
 11
42.886734601
 21
111.8837692748
  0
LINE
  8
0
 62
7
  6
CONTINUOUS
 10
37.1163492756
 20
111.8837692748
 11
37.1015419383
 21
111.8837692748
  0
LINE
  8
0
 62
7
  6
CONTINUOUS
 10
30.3015419383
 20
111.8837692748
 11
30.2108291907
 21
111.8837692748
  0
LINE
  8
0
 62
7
  6
CONTINUOUS
 10
24.03225256
 20
111.8837692748
 11
23.9015419383
 21
111.8837692748
  0
LINE
  8
DEFAULT_1
 62
7
  6
CENTER
 10
174.0668467411
 20
114.5337692748
 11
95.7016419383
 21
114.5337692748
  0
LINE
  8
0
 62
2
  6
CONTINUOUS
 10
94.5815419383
 20
114.5337692748
 11
92.8215419383
 21
114.5337692748
  0
LINE
  8
DEFAULT_1
 62
7
  6
CENTER
 10
13.5467053984
 20
114.5337692748
 11
91.7014419383
 21
114.5337692748
  0
POLYLINE
  8
0
 62
7
  6
CONTINUOUS
 66
1
 70
0
  0
VERTEX
  8
0
 62
7
  6
CONTINUOUS
 10
55.891110534
 20
117.1837692748
  0
VERTEX
  8
0
 62
7
  6
CONTINUOUS
 10
55.9238572533
 20
117.1789303759
  0
VERTEX
  8
0
 62
7
  6
CONTINUOUS
 10
55.962083643
 20
117.1642784452
  0
VERTEX
  8
0
 62
7
  6
CONTINUOUS
 10
56.0058043232
 20
117.1396351307
  0
VERTEX
  8
0
 62
7
  6
CONTINUOUS
 10
56.0551638755
 20
117.104703348
  0
VERTEX
  8
0
 62
7
  6
CONTINUOUS
 10
56.1100971994
 20
117.0592525466
  0
SEQEND
  0
POLYLINE
  8
0
 62
7
  6
CONTINUOUS
 66
1
 70
0
  0
VERTEX
  8
0
 62
7
  6
CONTINUOUS
 10
87.8865056567
 20
111.8837692748
  0
VERTEX
  8
0
 62
7
  6
CONTINUOUS
 10
87.8577270981
 20
111.8888065718
  0
VERTEX
  8
0
 62
7
  6
CONTINUOUS
 10
87.823355091
 20
111.904065777
  0
VERTEX
  8
0
 62
7
  6
CONTINUOUS
 10
87.7834223349
 20
111.9297065175
  0
SEQEND
  0
POLYLINE
  8
0
 62
7
  6
CONTINUOUS
 66
1
 70
0
  0
VERTEX
  8
0
 62
7
  6
CONTINUOUS
 10
68.3165782199
 20
117.1837692748
  0
VERTEX
  8
0
 62
7
  6
CONTINUOUS
 10
68.3453574789
 20
117.1787317535
  0
VERTEX
  8
0
 62
7
  6
CONTINUOUS
 10
68.3797306442
 20
117.1634717509
  0
VERTEX
  8
0
 62
7
  6
CONTINUOUS
 10
68.4196615417
 20
117.1378320321
  0
SEQEND
  0
POLYLINE
  8
0
 62
7
  6
CONTINUOUS
 66
1
 70
0
  0
VERTEX
  8
0
 62
7
  6
CONTINUOUS
 10
100.5865056567
 20
111.8837692748
  0
VERTEX
  8
0
 62
7
  6
CONTINUOUS
 10
100.5577270981
 20
111.8888065718
  0
VERTEX
  8
0
 62
7
  6
CONTINUOUS
 10
100.523355091
 20
111.904065777
  0
VERTEX
  8
0
 62
7
  6
CONTINUOUS
 10
100.4834223349
 20
111.9297065175
  0
SEQEND
  0
POLYLINE
  8
0
 62
7
  6
CONTINUOUS
 66
1
 70
0
  0
VERTEX
  8
0
 62
7
  6
CONTINUOUS
 10
81.0165782199
 20
117.1837692748
  0
VERTEX
  8
0
 62
7
  6
CONTINUOUS
 10
81.0453574789
 20
117.1787317535
  0
VERTEX
  8
0
 62
7
  6
CONTINUOUS
 10
81.0797306442
 20
117.1634717509
  0
VERTEX
  8
0
 62
7
  6
CONTINUOUS
 10
81.1196615417
 20
117.1378320321
  0
SEQEND
  0
LINE
  8
0
 62
7
  6
CONTINUOUS
 10
93.5623009487
 20
112.3740153858
 11
93.5002342952
 21
112.5968271931
  0
POLYLINE
  8
0
 62
7
  6
CONTINUOUS
 66
1
 70
0
  0
VERTEX
  8
0
 62
7
  6
CONTINUOUS
 10
93.8196615417
 20
111.9297065175
  0
VERTEX
  8
0
 62
7
  6
CONTINUOUS
 10
93.8663106478
 20
111.9699022858
  0
VERTEX
  8
0
 62
7
  6
CONTINUOUS
 10
93.9120355118
 20
112.0222868072
  0
VERTEX
  8
0
 62
7
  6
CONTINUOUS
 10
93.9565866273
 20
112.0865149427
  0
VERTEX
  8
0
 62
7
  6
CONTINUOUS
 10
93.9997373339
 20
112.1621811864
  0
VERTEX
  8
0
 62
7
  6
CONTINUOUS
 10
94.0412733421
 20
112.2488171453
  0
VERTEX
  8
0
 62
7
  6
CONTINUOUS
 10
94.0809940933
 20
112.3458984847
  0
VERTEX
  8
0
 62
7
  6
CONTINUOUS
 10
94.1187138967
 20
112.4528526517
  0
VERTEX
  8
0
 62
7
  6
CONTINUOUS
 10
94.1542625305
 20
112.5690664116
  0
VERTEX
  8
0
 62
7
  6
CONTINUOUS
 10
94.1874854012
 20
112.6938927453
  0
VERTEX
  8
0
 62
7
  6
CONTINUOUS
 10
94.218243455
 20
112.8266571715
  0
VERTEX
  8
0
 62
7
  6
CONTINUOUS
 10
94.2464132343
 20
112.9666652014
  0
VERTEX
  8
0
 62
7
  6
CONTINUOUS
 10
94.2718862906
 20
113.1132076821
  0
VERTEX
  8
0
 62
7
  6
CONTINUOUS
 10
94.2945685294
 20
113.2655655667
  0
VERTEX
  8
0
 62
7
  6
CONTINUOUS
 10
94.3143793053
 20
113.4230125071
  0
VERTEX
  8
0
 62
7
  6
CONTINUOUS
 10
94.3312509453
 20
113.5848198826
  0
VERTEX
  8
0
 62
7
  6
CONTINUOUS
 10
94.3451278161
 20
113.7502583202
  0
VERTEX
  8
0
 62
7
  6
CONTINUOUS
 10
94.3559655847
 20
113.9185994953
  0
VERTEX
  8
0
 62
7
  6
CONTINUOUS
 10
94.3637304541
 20
114.0891153641
  0
VERTEX
  8
0
 62
7
  6
CONTINUOUS
 10
94.3683987329
 20
114.2610797423
  0
VERTEX
  8
0
 62
7
  6
CONTINUOUS
 10
94.3699563904
 20
114.4337692748
  0
SEQEND
  0
POLYLINE
  8
0
 62
7
  6
CONTINUOUS
 66
1
 70
0
  0
VERTEX
  8
0
 62
7
  6
CONTINUOUS
 10
100.4834223349
 20
117.1378320321
  0
VERTEX
  8
0
 62
7
  6
CONTINUOUS
 10
100.5233531205
 20
117.1634716894
  0
VERTEX
  8
0
 62
7
  6
CONTINUOUS
 10
100.5577261297
 20
117.1787316676
  0
VERTEX
  8
0
 62
7
  6
CONTINUOUS
 10
100.5865056567
 20
117.1837692748
  0
SEQEND
  0
POLYLINE
  8
0
 62
7
  6
CONTINUOUS
 66
1
 70
0
  0
VERTEX
  8
0
 62
7
  6
CONTINUOUS
 10
93.8196615417
 20
111.9297065175
  0
VERTEX
  8
0
 62
7
  6
CONTINUOUS
 10
93.7797286587
 20
111.9040657073
  0
VERTEX
  8
0
 62
7
  6
CONTINUOUS
 10
93.7453565233
 20
111.88880649
  0
VERTEX
  8
0
 62
7
  6
CONTINUOUS
 10
93.7165782199
 20
111.8837692748
  0
SEQEND
  0
LINE
  8
0
 62
7
  6
CONTINUOUS
 10
164.1515419383
 20
117.1837692748
 11
164.0865056567
 21
117.1837692748
  0
LINE
  8
0
 62
7
  6
CONTINUOUS
 10
157.2165782199
 20
117.1837692748
 11
157.1515419383
 21
117.1837692748
  0
LINE
  8
0
 62
7
  6
CONTINUOUS
 10
151.4515419383
 20
117.1837692748
 11
151.3865056567
 21
117.1837692748
  0
LINE
  8
0
 62
7
  6
CONTINUOUS
 10
144.5165782199
 20
117.1837692748
 11
144.4515419383
 21
117.1837692748
  0
LINE
  8
0
 62
7
  6
CONTINUOUS
 10
138.7515419383
 20
117.1837692748
 11
138.6865056567
 21
117.1837692748
  0
LINE
  8
0
 62
7
  6
CONTINUOUS
 10
131.8165782199
 20
117.1837692748
 11
131.7515419383
 21
117.1837692748
  0
LINE
  8
0
 62
7
  6
CONTINUOUS
 10
126.0515419383
 20
117.1837692748
 11
125.9865056567
 21
117.1837692748
  0
LINE
  8
0
 62
7
  6
CONTINUOUS
 10
119.1165782199
 20
117.1837692748
 11
119.0515419383
 21
117.1837692748
  0
LINE
  8
0
 62
7
  6
CONTINUOUS
 10
113.3515419383
 20
117.1837692748
 11
113.2865056567
 21
117.1837692748
  0
LINE
  8
0
 62
7
  6
CONTINUOUS
 10
106.4165782199
 20
117.1837692748
 11
106.3515419383
 21
117.1837692748
  0
LINE
  8
0
 62
7
  6
CONTINUOUS
 10
100.6515419383
 20
117.1837692748
 11
100.5865056567
 21
117.1837692748
  0
LINE
  8
0
 62
7
  6
CONTINUOUS
 10
93.7165782199
 20
117.1837692748
 11
93.6515419383
 21
117.1837692748
  0
LINE
  8
0
 62
7
  6
CONTINUOUS
 10
87.9515419383
 20
117.1837692748
 11
87.8865056567
 21
117.1837692748
  0
LINE
  8
0
 62
7
  6
CONTINUOUS
 10
81.0165782199
 20
117.1837692748
 11
80.9515419383
 21
117.1837692748
  0
LINE
  8
0
 62
7
  6
CONTINUOUS
 10
75.2515419383
 20
117.1837692748
 11
75.1865056567
 21
117.1837692748
  0
LINE
  8
0
 62
7
  6
CONTINUOUS
 10
68.3165782199
 20
117.1837692748
 11
68.2515419383
 21
117.1837692748
  0
LINE
  8
0
 62
7
  6
CONTINUOUS
 10
62.5515419383
 20
117.1837692748
 11
62.4865056567
 21
117.1837692748
  0
LINE
  8
0
 62
7
  6
CONTINUOUS
 10
55.891110534
 20
117.1837692748
 11
55.7772837778
 21
117.1837692748
  0
LINE
  8
0
 62
7
  6
CONTINUOUS
 10
49.6258000988
 20
117.1837692748
 11
49.6015419383
 21
117.1837692748
  0
LINE
  8
0
 62
7
  6
CONTINUOUS
 10
42.9015419383
 20
117.1837692748
 11
42.886734601
 21
117.1837692748
  0
LINE
  8
0
 62
7
  6
CONTINUOUS
 10
37.1163492756
 20
117.1837692748
 11
37.1015419383
 21
117.1837692748
  0
LINE
  8
0
 62
7
  6
CONTINUOUS
 10
30.3015419383
 20
117.1837692748
 11
30.2108291907
 21
117.1837692748
  0
LINE
  8
0
 62
7
  6
CONTINUOUS
 10
24.03225256
 20
117.1837692748
 11
23.9015419383
 21
117.1837692748
  0
POLYLINE
  8
0
 62
7
  6
CONTINUOUS
 66
1
 70
0
  0
VERTEX
  8
0
 62
7
  6
CONTINUOUS
 10
113.2865056567
 20
111.8837692748
  0
VERTEX
  8
0
 62
7
  6
CONTINUOUS
 10
113.2577270981
 20
111.8888065718
  0
VERTEX
  8
0
 62
7
  6
CONTINUOUS
 10
113.223355091
 20
111.904065777
  0
VERTEX
  8
0
 62
7
  6
CONTINUOUS
 10
113.1834223349
 20
111.9297065175
  0
SEQEND
  0
POLYLINE
  8
0
 62
7
  6
CONTINUOUS
 66
1
 70
0
  0
VERTEX
  8
0
 62
7
  6
CONTINUOUS
 10
93.7165782199
 20
117.1837692748
  0
VERTEX
  8
0
 62
7
  6
CONTINUOUS
 10
93.7453574789
 20
117.1787317535
  0
VERTEX
  8
0
 62
7
  6
CONTINUOUS
 10
93.7797306442
 20
117.1634717509
  0
VERTEX
  8
0
 62
7
  6
CONTINUOUS
 10
93.8196615417
 20
117.1378320321
  0
SEQEND
  0
POLYLINE
  8
0
 62
7
  6
CONTINUOUS
 66
1
 70
0
  0
VERTEX
  8
0
 62
7
  6
CONTINUOUS
 10
125.9865056567
 20
111.8837692748
  0
VERTEX
  8
0
 62
7
  6
CONTINUOUS
 10
125.9577270981
 20
111.8888065718
  0
VERTEX
  8
0
 62
7
  6
CONTINUOUS
 10
125.923355091
 20
111.904065777
  0
VERTEX
  8
0
 62
7
  6
CONTINUOUS
 10
125.8834223349
 20
111.9297065175
  0
SEQEND
  0
POLYLINE
  8
0
 62
7
  6
CONTINUOUS
 66
1
 70
0
  0
VERTEX
  8
0
 62
7
  6
CONTINUOUS
 10
106.4165782199
 20
117.1837692748
  0
VERTEX
  8
0
 62
7
  6
CONTINUOUS
 10
106.4453574789
 20
117.1787317535
  0
VERTEX
  8
0
 62
7
  6
CONTINUOUS
 10
106.4797306442
 20
117.1634717509
  0
VERTEX
  8
0
 62
7
  6
CONTINUOUS
 10
106.5196615417
 20
117.1378320321
  0
SEQEND
  0
POLYLINE
  8
0
 62
7
  6
CONTINUOUS
 66
1
 70
0
  0
VERTEX
  8
0
 62
7
  6
CONTINUOUS
 10
138.6865056567
 20
111.8837692748
  0
VERTEX
  8
0
 62
7
  6
CONTINUOUS
 10
138.6577270981
 20
111.8888065718
  0
VERTEX
  8
0
 62
7
  6
CONTINUOUS
 10
138.623355091
 20
111.904065777
  0
VERTEX
  8
0
 62
7
  6
CONTINUOUS
 10
138.5834223349
 20
111.9297065175
  0
SEQEND
  0
POLYLINE
  8
0
 62
7
  6
CONTINUOUS
 66
1
 70
0
  0
VERTEX
  8
0
 62
7
  6
CONTINUOUS
 10
100.4834223349
 20
111.9297065175
  0
VERTEX
  8
0
 62
7
  6
CONTINUOUS
 10
100.4367732288
 20
111.9699022858
  0
VERTEX
  8
0
 62
7
  6
CONTINUOUS
 10
100.3910483648
 20
112.0222868072
  0
VERTEX
  8
0
 62
7
  6
CONTINUOUS
 10
100.3464972493
 20
112.0865149427
  0
VERTEX
  8
0
 62
7
  6
CONTINUOUS
 10
100.3033465427
 20
112.1621811864
  0
VERTEX
  8
0
 62
7
  6
CONTINUOUS
 10
100.2618105344
 20
112.2488171453
  0
VERTEX
  8
0
 62
7
  6
CONTINUOUS
 10
100.2220897832
 20
112.3458984847
  0
VERTEX
  8
0
 62
7
  6
CONTINUOUS
 10
100.1843699798
 20
112.4528526517
  0
VERTEX
  8
0
 62
7
  6
CONTINUOUS
 10
100.1488213461
 20
112.5690664116
  0
VERTEX
  8
0
 62
7
  6
CONTINUOUS
 10
100.1155984753
 20
112.6938927453
  0
VERTEX
  8
0
 62
7
  6
CONTINUOUS
 10
100.0848404216
 20
112.8266571715
  0
VERTEX
  8
0
 62
7
  6
CONTINUOUS
 10
100.0566706423
 20
112.9666652014
  0
VERTEX
  8
0
 62
7
  6
CONTINUOUS
 10
100.0311975859
 20
113.1132076821
  0
VERTEX
  8
0
 62
7
  6
CONTINUOUS
 10
100.0085153471
 20
113.2655655667
  0
VERTEX
  8
0
 62
7
  6
CONTINUOUS
 10
99.9887045713
 20
113.4230125071
  0
VERTEX
  8
0
 62
7
  6
CONTINUOUS
 10
99.9718329312
 20
113.5848198826
  0
VERTEX
  8
0
 62
7
  6
CONTINUOUS
 10
99.9579560605
 20
113.7502583202
  0
VERTEX
  8
0
 62
7
  6
CONTINUOUS
 10
99.9471182918
 20
113.9185994953
  0
VERTEX
  8
0
 62
7
  6
CONTINUOUS
 10
99.9393534224
 20
114.0891153641
  0
VERTEX
  8
0
 62
7
  6
CONTINUOUS
 10
99.9346851436
 20
114.2610797423
  0
VERTEX
  8
0
 62
7
  6
CONTINUOUS
 10
99.9331274862
 20
114.4337692748
  0
SEQEND
  0
POLYLINE
  8
0
 62
7
  6
CONTINUOUS
 66
1
 70
0
  0
VERTEX
  8
0
 62
7
  6
CONTINUOUS
 10
100.6515419383
 20
117.1093492826
  0
VERTEX
  8
0
 62
7
  6
CONTINUOUS
 10
100.6541781065
 20
117.0661359523
  0
VERTEX
  8
0
 62
7
  6
CONTINUOUS
 10
100.6620086067
 20
117.0126818458
  0
VERTEX
  8
0
 62
7
  6
CONTINUOUS
 10
100.6748797973
 20
116.9487575496
  0
VERTEX
  8
0
 62
7
  6
CONTINUOUS
 10
100.692525536
 20
116.8743448216
  0
VERTEX
  8
0
 62
7
  6
CONTINUOUS
 10
100.7146431483
 20
116.7892425694
  0
VERTEX
  8
0
 62
7
  6
CONTINUOUS
 10
100.7407830349
 20
116.6935227774
  0
SEQEND
  0
LINE
  8
0
 62
7
  6
CONTINUOUS
 10
99.9331274862
 20
114.4337692748
 11
99.9331274862
 21
114.6337692748
  0
LINE
  8
0
 62
7
  6
CONTINUOUS
 10
100.6515419383
 20
120.2837692748
 11
100.6515419383
 21
117.1093492826
  0
LINE
  8
0
 62
7
  6
CONTINUOUS
 10
100.6515419383
 20
111.958189267
 11
100.6515419383
 21
108.7837692748
  0
LINE
  8
0
 62
7
  6
CONTINUOUS
 10
101.0107491643
 20
114.6337692748
 11
101.0107491643
 21
114.4337692748
  0
POLYLINE
  8
0
 62
7
  6
CONTINUOUS
 66
1
 70
0
  0
VERTEX
  8
0
 62
7
  6
CONTINUOUS
 10
101.0107491643
 20
114.4337692748
  0
VERTEX
  8
0
 62
7
  6
CONTINUOUS
 10
101.009250025
 20
114.2643509402
  0
VERTEX
  8
0
 62
7
  6
CONTINUOUS
 10
101.0047571703
 20
114.0956233434
  0
VERTEX
  8
0
 62
7
  6
CONTINUOUS
 10
100.9972836461
 20
113.9282642602
  0
VERTEX
  8
0
 62
7
  6
CONTINUOUS
 10
100.9868515056
 20
113.7629601627
  0
VERTEX
  8
0
 62
7
  6
CONTINUOUS
 10
100.9734920121
 20
113.6003970429
  0
VERTEX
  8
0
 62
7
  6
CONTINUOUS
 10
100.9572462084
 20
113.4412625386
  0
VERTEX
  8
0
 62
7
  6
CONTINUOUS
 10
100.9381654517
 20
113.2862445455
  0
VERTEX
  8
0
 62
7
  6
CONTINUOUS
 10
100.9163121549
 20
113.1360306909
  0
VERTEX
  8
0
 62
7
  6
CONTINUOUS
 10
100.8917604835
 20
112.9913061261
  0
VERTEX
  8
0
 62
7
  6
CONTINUOUS
 10
100.8645970161
 20
112.8527505863
  0
VERTEX
  8
0
 62
7
  6
CONTINUOUS
 10
100.8349215191
 20
112.7210355323
  0
VERTEX
  8
0
 62
7
  6
CONTINUOUS
 10
100.8028495813
 20
112.5968271931
  0
SEQEND
  0
POLYLINE
  8
0
 62
7
  6
CONTINUOUS
 66
1
 70
0
  0
VERTEX
  8
0
 62
7
  6
CONTINUOUS
 10
99.9331274862
 20
114.6337692748
  0
VERTEX
  8
0
 62
7
  6
CONTINUOUS
 10
99.9346851576
 20
114.8064595831
  0
VERTEX
  8
0
 62
7
  6
CONTINUOUS
 10
99.9393534713
 20
114.9784245301
  0
VERTEX
  8
0
 62
7
  6
CONTINUOUS
 10
99.947118386
 20
115.1489407699
  0
VERTEX
  8
0
 62
7
  6
CONTINUOUS
 10
99.9579562017
 20
115.3172821373
  0
VERTEX
  8
0
 62
7
  6
CONTINUOUS
 10
99.9718331141
 20
115.4827206133
  0
VERTEX
  8
0
 62
7
  6
CONTINUOUS
 10
99.9887047855
 20
115.6445279074
  0
VERTEX
  8
0
 62
7
  6
CONTINUOUS
 10
100.0085155779
 20
115.8019746654
  0
VERTEX
  8
0
 62
7
  6
CONTINUOUS
 10
100.0311978156
 20
115.9543322936
  0
VERTEX
  8
0
 62
7
  6
CONTINUOUS
 10
100.0566708543
 20
116.1008744812
  0
VERTEX
  8
0
 62
7
  6
CONTINUOUS
 10
100.0848406008
 20
116.2408822079
  0
VERTEX
  8
0
 62
7
  6
CONTINUOUS
 10
100.1155986077
 20
116.3736463375
  0
VERTEX
  8
0
 62
7
  6
CONTINUOUS
 10
100.1488214212
 20
116.4984724015
  0
VERTEX
  8
0
 62
7
  6
CONTINUOUS
 10
100.1843699932
 20
116.6146859387
  0
VERTEX
  8
0
 62
7
  6
CONTINUOUS
 10
100.2220897352
 20
116.7216399384
  0
VERTEX
  8
0
 62
7
  6
CONTINUOUS
 10
100.2618104323
 20
116.8187211732
  0
VERTEX
  8
0
 62
7
  6
CONTINUOUS
 10
100.3033464024
 20
116.9053570943
  0
VERTEX
  8
0
 62
7
  6
CONTINUOUS
 10
100.3464970936
 20
116.9810233585
  0
VERTEX
  8
0
 62
7
  6
CONTINUOUS
 10
100.3910482223
 20
117.0452515584
  0
VERTEX
  8
0
 62
7
  6
CONTINUOUS
 10
100.4367731356
 20
117.0976361705
  0
VERTEX
  8
0
 62
7
  6
CONTINUOUS
 10
100.4834223349
 20
117.1378320321
  0
SEQEND
  0
POLYLINE
  8
0
 62
7
  6
CONTINUOUS
 66
1
 70
0
  0
VERTEX
  8
0
 62
7
  6
CONTINUOUS
 10
100.8028495813
 20
112.5968271931
  0
VERTEX
  8
0
 62
7
  6
CONTINUOUS
 10
100.7407839916
 20
112.3740192259
  0
VERTEX
  8
0
 62
7
  6
CONTINUOUS
 10
100.7146466105
 20
112.2783089107
  0
VERTEX
  8
0
 62
7
  6
CONTINUOUS
 10
100.6925294126
 20
112.1932092294
  0
VERTEX
  8
0
 62
7
  6
CONTINUOUS
 10
100.6748823282
 20
112.1187924335
  0
VERTEX
  8
0
 62
7
  6
CONTINUOUS
 10
100.6620092978
 20
112.0548606082
  0
VERTEX
  8
0
 62
7
  6
CONTINUOUS
 10
100.6541778696
 20
112.0014004201
  0
VERTEX
  8
0
 62
7
  6
CONTINUOUS
 10
100.6515419383
 20
111.958189267
  0
SEQEND
  0
POLYLINE
  8
0
 62
7
  6
CONTINUOUS
 66
1
 70
0
  0
VERTEX
  8
0
 62
7
  6
CONTINUOUS
 10
106.5196615417
 20
111.9297065175
  0
VERTEX
  8
0
 62
7
  6
CONTINUOUS
 10
106.5663106478
 20
111.9699022858
  0
VERTEX
  8
0
 62
7
  6
CONTINUOUS
 10
106.6120355118
 20
112.0222868072
  0
VERTEX
  8
0
 62
7
  6
CONTINUOUS
 10
106.6565866273
 20
112.0865149427
  0
VERTEX
  8
0
 62
7
  6
CONTINUOUS
 10
106.6997373339
 20
112.1621811864
  0
VERTEX
  8
0
 62
7
  6
CONTINUOUS
 10
106.7412733421
 20
112.2488171453
  0
VERTEX
  8
0
 62
7
  6
CONTINUOUS
 10
106.7809940933
 20
112.3458984847
  0
VERTEX
  8
0
 62
7
  6
CONTINUOUS
 10
106.8187138967
 20
112.4528526517
  0
VERTEX
  8
0
 62
7
  6
CONTINUOUS
 10
106.8542625305
 20
112.5690664116
  0
VERTEX
  8
0
 62
7
  6
CONTINUOUS
 10
106.8874854012
 20
112.6938927453
  0
VERTEX
  8
0
 62
7
  6
CONTINUOUS
 10
106.918243455
 20
112.8266571715
  0
VERTEX
  8
0
 62
7
  6
CONTINUOUS
 10
106.9464132343
 20
112.9666652014
  0
VERTEX
  8
0
 62
7
  6
CONTINUOUS
 10
106.9718862906
 20
113.1132076821
  0
VERTEX
  8
0
 62
7
  6
CONTINUOUS
 10
106.9945685294
 20
113.2655655667
  0
VERTEX
  8
0
 62
7
  6
CONTINUOUS
 10
107.0143793053
 20
113.4230125071
  0
VERTEX
  8
0
 62
7
  6
CONTINUOUS
 10
107.0312509453
 20
113.5848198826
  0
VERTEX
  8
0
 62
7
  6
CONTINUOUS
 10
107.0451278161
 20
113.7502583202
  0
VERTEX
  8
0
 62
7
  6
CONTINUOUS
 10
107.0559655847
 20
113.9185994953
  0
VERTEX
  8
0
 62
7
  6
CONTINUOUS
 10
107.0637304541
 20
114.0891153641
  0
VERTEX
  8
0
 62
7
  6
CONTINUOUS
 10
107.0683987329
 20
114.2610797423
  0
VERTEX
  8
0
 62
7
  6
CONTINUOUS
 10
107.0699563904
 20
114.4337692748
  0
SEQEND
  0
POLYLINE
  8
0
 62
7
  6
CONTINUOUS
 66
1
 70
0
  0
VERTEX
  8
0
 62
7
  6
CONTINUOUS
 10
113.1834223349
 20
117.1378320321
  0
VERTEX
  8
0
 62
7
  6
CONTINUOUS
 10
113.2233531205
 20
117.1634716894
  0
VERTEX
  8
0
 62
7
  6
CONTINUOUS
 10
113.2577261297
 20
117.1787316676
  0
VERTEX
  8
0
 62
7
  6
CONTINUOUS
 10
113.2865056567
 20
117.1837692748
  0
SEQEND
  0
POLYLINE
  8
0
 62
7
  6
CONTINUOUS
 66
1
 70
0
  0
VERTEX
  8
0
 62
7
  6
CONTINUOUS
 10
106.5196615417
 20
111.9297065175
  0
VERTEX
  8
0
 62
7
  6
CONTINUOUS
 10
106.4797286587
 20
111.9040657073
  0
VERTEX
  8
0
 62
7
  6
CONTINUOUS
 10
106.4453565233
 20
111.88880649
  0
VERTEX
  8
0
 62
7
  6
CONTINUOUS
 10
106.4165782199
 20
111.8837692748
  0
SEQEND
  0
LINE
  8
0
 62
7
  6
CONTINUOUS
 10
18.3015419383
 20
121.0337692748
 11
169.1015419383
 21
121.0337692748
  0
POLYLINE
  8
0
 62
7
  6
CONTINUOUS
 66
1
 70
0
  0
VERTEX
  8
0
 62
7
  6
CONTINUOUS
 10
119.1165782199
 20
117.1837692748
  0
VERTEX
  8
0
 62
7
  6
CONTINUOUS
 10
119.1453574789
 20
117.1787317535
  0
VERTEX
  8
0
 62
7
  6
CONTINUOUS
 10
119.1797306442
 20
117.1634717509
  0
VERTEX
  8
0
 62
7
  6
CONTINUOUS
 10
119.2196615417
 20
117.1378320321
  0
SEQEND
  0
POLYLINE
  8
0
 62
7
  6
CONTINUOUS
 66
1
 70
0
  0
VERTEX
  8
0
 62
7
  6
CONTINUOUS
 10
151.3865056567
 20
111.8837692748
  0
VERTEX
  8
0
 62
7
  6
CONTINUOUS
 10
151.3577270981
 20
111.8888065718
  0
VERTEX
  8
0
 62
7
  6
CONTINUOUS
 10
151.323355091
 20
111.904065777
  0
VERTEX
  8
0
 62
7
  6
CONTINUOUS
 10
151.2834223349
 20
111.9297065175
  0
SEQEND
  0
POLYLINE
  8
0
 62
7
  6
CONTINUOUS
 66
1
 70
0
  0
VERTEX
  8
0
 62
7
  6
CONTINUOUS
 10
131.8165782199
 20
117.1837692748
  0
VERTEX
  8
0
 62
7
  6
CONTINUOUS
 10
131.8453574789
 20
117.1787317535
  0
VERTEX
  8
0
 62
7
  6
CONTINUOUS
 10
131.8797306442
 20
117.1634717509
  0
VERTEX
  8
0
 62
7
  6
CONTINUOUS
 10
131.9196615417
 20
117.1378320321
  0
SEQEND
  0
POLYLINE
  8
0
 62
7
  6
CONTINUOUS
 66
1
 70
0
  0
VERTEX
  8
0
 62
7
  6
CONTINUOUS
 10
164.0865056567
 20
111.8837692748
  0
VERTEX
  8
0
 62
7
  6
CONTINUOUS
 10
164.0577270981
 20
111.8888065718
  0
VERTEX
  8
0
 62
7
  6
CONTINUOUS
 10
164.023355091
 20
111.904065777
  0
VERTEX
  8
0
 62
7
  6
CONTINUOUS
 10
163.9834223349
 20
111.9297065175
  0
SEQEND
  0
POLYLINE
  8
0
 62
7
  6
CONTINUOUS
 66
1
 70
0
  0
VERTEX
  8
0
 62
7
  6
CONTINUOUS
 10
113.1834223349
 20
111.9297065175
  0
VERTEX
  8
0
 62
7
  6
CONTINUOUS
 10
113.1367732288
 20
111.9699022858
  0
VERTEX
  8
0
 62
7
  6
CONTINUOUS
 10
113.0910483648
 20
112.0222868072
  0
VERTEX
  8
0
 62
7
  6
CONTINUOUS
 10
113.0464972493
 20
112.0865149427
  0
VERTEX
  8
0
 62
7
  6
CONTINUOUS
 10
113.0033465427
 20
112.1621811864
  0
VERTEX
  8
0
 62
7
  6
CONTINUOUS
 10
112.9618105344
 20
112.2488171453
  0
VERTEX
  8
0
 62
7
  6
CONTINUOUS
 10
112.9220897832
 20
112.3458984847
  0
VERTEX
  8
0
 62
7
  6
CONTINUOUS
 10
112.8843699798
 20
112.4528526517
  0
VERTEX
  8
0
 62
7
  6
CONTINUOUS
 10
112.8488213461
 20
112.5690664116
  0
VERTEX
  8
0
 62
7
  6
CONTINUOUS
 10
112.8155984753
 20
112.6938927453
  0
VERTEX
  8
0
 62
7
  6
CONTINUOUS
 10
112.7848404216
 20
112.8266571715
  0
VERTEX
  8
0
 62
7
  6
CONTINUOUS
 10
112.7566706423
 20
112.9666652014
  0
VERTEX
  8
0
 62
7
  6
CONTINUOUS
 10
112.7311975859
 20
113.1132076821
  0
VERTEX
  8
0
 62
7
  6
CONTINUOUS
 10
112.7085153471
 20
113.2655655667
  0
VERTEX
  8
0
 62
7
  6
CONTINUOUS
 10
112.6887045713
 20
113.4230125071
  0
VERTEX
  8
0
 62
7
  6
CONTINUOUS
 10
112.6718329312
 20
113.5848198826
  0
VERTEX
  8
0
 62
7
  6
CONTINUOUS
 10
112.6579560605
 20
113.7502583202
  0
VERTEX
  8
0
 62
7
  6
CONTINUOUS
 10
112.6471182918
 20
113.9185994953
  0
VERTEX
  8
0
 62
7
  6
CONTINUOUS
 10
112.6393534224
 20
114.0891153641
  0
VERTEX
  8
0
 62
7
  6
CONTINUOUS
 10
112.6346851436
 20
114.2610797423
  0
VERTEX
  8
0
 62
7
  6
CONTINUOUS
 10
112.6331274862
 20
114.4337692748
  0
SEQEND
  0
LINE
  8
0
 62
7
  6
CONTINUOUS
 10
100.7407830349
 20
116.6935227774
 11
100.8028495813
 21
116.4707113566
  0
POLYLINE
  8
0
 62
7
  6
CONTINUOUS
 66
1
 70
0
  0
VERTEX
  8
0
 62
7
  6
CONTINUOUS
 10
100.8028495813
 20
116.4707113566
  0
VERTEX
  8
0
 62
7
  6
CONTINUOUS
 10
100.8349215162
 20
116.3465030296
  0
VERTEX
  8
0
 62
7
  6
CONTINUOUS
 10
100.8645970377
 20
116.2147878606
  0
VERTEX
  8
0
 62
7
  6
CONTINUOUS
 10
100.8917605401
 20
116.0762321135
  0
VERTEX
  8
0
 62
7
  6
CONTINUOUS
 10
100.9163122417
 20
115.9315073068
  0
VERTEX
  8
0
 62
7
  6
CONTINUOUS
 10
100.9381655541
 20
115.7812932402
  0
VERTEX
  8
0
 62
7
  6
CONTINUOUS
 10
100.9572463108
 20
115.6262751001
  0
VERTEX
  8
0
 62
7
  6
CONTINUOUS
 10
100.9734921033
 20
115.4671405161
  0
VERTEX
  8
0
 62
7
  6
CONTINUOUS
 10
100.9868515781
 20
115.3045773879
  0
VERTEX
  8
0
 62
7
  6
CONTINUOUS
 10
100.9972836955
 20
115.1392733731
  0
VERTEX
  8
0
 62
7
  6
CONTINUOUS
 10
101.0047571963
 20
114.9719144747
  0
VERTEX
  8
0
 62
7
  6
CONTINUOUS
 10
101.0092500326
 20
114.8031871814
  0
VERTEX
  8
0
 62
7
  6
CONTINUOUS
 10
101.0107491643
 20
114.6337692748
  0
SEQEND
  0
POLYLINE
  8
0
 62
7
  6
CONTINUOUS
 66
1
 70
0
  0
VERTEX
  8
0
 62
7
  6
CONTINUOUS
 10
106.3515419383
 20
111.958189267
  0
VERTEX
  8
0
 62
7
  6
CONTINUOUS
 10
106.3489059245
 20
112.0014011779
  0
VERTEX
  8
0
 62
7
  6
CONTINUOUS
 10
106.3410745704
 20
112.0548606555
  0
VERTEX
  8
0
 62
7
  6
CONTINUOUS
 10
106.3282019539
 20
112.1187906014
  0
VERTEX
  8
0
 62
7
  6
CONTINUOUS
 10
106.3105553621
 20
112.193205638
  0
VERTEX
  8
0
 62
7
  6
CONTINUOUS
 10
106.2884384219
 20
112.278304594
  0
VERTEX
  8
0
 62
7
  6
CONTINUOUS
 10
106.2623009487
 20
112.3740153858
  0
SEQEND
  0
POLYLINE
  8
0
 62
7
  6
CONTINUOUS
 66
1
 70
0
  0
VERTEX
  8
0
 62
7
  6
CONTINUOUS
 10
107.0699563904
 20
114.6337692748
  0
VERTEX
  8
0
 62
7
  6
CONTINUOUS
 10
107.0683987189
 20
114.8064595831
  0
VERTEX
  8
0
 62
7
  6
CONTINUOUS
 10
107.0637304053
 20
114.9784245301
  0
VERTEX
  8
0
 62
7
  6
CONTINUOUS
 10
107.0559654906
 20
115.1489407699
  0
VERTEX
  8
0
 62
7
  6
CONTINUOUS
 10
107.0451276748
 20
115.3172821373
  0
VERTEX
  8
0
 62
7
  6
CONTINUOUS
 10
107.0312507625
 20
115.4827206133
  0
VERTEX
  8
0
 62
7
  6
CONTINUOUS
 10
107.0143790911
 20
115.6445279074
  0
VERTEX
  8
0
 62
7
  6
CONTINUOUS
 10
106.9945682987
 20
115.8019746654
  0
VERTEX
  8
0
 62
7
  6
CONTINUOUS
 10
106.9718860609
 20
115.9543322936
  0
VERTEX
  8
0
 62
7
  6
CONTINUOUS
 10
106.9464130222
 20
116.1008744812
  0
VERTEX
  8
0
 62
7
  6
CONTINUOUS
 10
106.9182432758
 20
116.2408822079
  0
VERTEX
  8
0
 62
7
  6
CONTINUOUS
 10
106.8874852688
 20
116.3736463375
  0
VERTEX
  8
0
 62
7
  6
CONTINUOUS
 10
106.8542624553
 20
116.4984724015
  0
VERTEX
  8
0
 62
7
  6
CONTINUOUS
 10
106.8187138833
 20
116.6146859387
  0
VERTEX
  8
0
 62
7
  6
CONTINUOUS
 10
106.7809941413
 20
116.7216399384
  0
VERTEX
  8
0
 62
7
  6
CONTINUOUS
 10
106.7412734443
 20
116.8187211732
  0
VERTEX
  8
0
 62
7
  6
CONTINUOUS
 10
106.6997374742
 20
116.9053570943
  0
VERTEX
  8
0
 62
7
  6
CONTINUOUS
 10
106.656586783
 20
116.9810233585
  0
VERTEX
  8
0
 62
7
  6
CONTINUOUS
 10
106.6120356542
 20
117.0452515584
  0
VERTEX
  8
0
 62
7
  6
CONTINUOUS
 10
106.5663107409
 20
117.0976361705
  0
VERTEX
  8
0
 62
7
  6
CONTINUOUS
 10
106.5196615417
 20
117.1378320321
  0
SEQEND
  0
POLYLINE
  8
0
 62
7
  6
CONTINUOUS
 66
1
 70
0
  0
VERTEX
  8
0
 62
7
  6
CONTINUOUS
 10
105.9923347123
 20
114.4337692748
  0
VERTEX
  8
0
 62
7
  6
CONTINUOUS
 10
105.9938338515
 20
114.2643509402
  0
VERTEX
  8
0
 62
7
  6
CONTINUOUS
 10
105.9983267063
 20
114.0956233433
  0
VERTEX
  8
0
 62
7
  6
CONTINUOUS
 10
106.0058002304
 20
113.92826426
  0
VERTEX
  8
0
 62
7
  6
CONTINUOUS
 10
106.016232371
 20
113.7629601624
  0
VERTEX
  8
0
 62
7
  6
CONTINUOUS
 10
106.0295918645
 20
113.6003970425
  0
VERTEX
  8
0
 62
7
  6
CONTINUOUS
 10
106.0458376682
 20
113.4412625381
  0
VERTEX
  8
0
 62
7
  6
CONTINUOUS
 10
106.064918425
 20
113.2862445449
  0
VERTEX
  8
0
 62
7
  6
CONTINUOUS
 10
106.0867717218
 20
113.1360306903
  0
VERTEX
  8
0
 62
7
  6
CONTINUOUS
 10
106.1113233932
 20
112.9913061254
  0
VERTEX
  8
0
 62
7
  6
CONTINUOUS
 10
106.1384868606
 20
112.8527505856
  0
VERTEX
  8
0
 62
7
  6
CONTINUOUS
 10
106.1681623576
 20
112.7210355317
  0
VERTEX
  8
0
 62
7
  6
CONTINUOUS
 10
106.2002342952
 20
112.5968271931
  0
SEQEND
  0
LINE
  8
0
 62
7
  6
CONTINUOUS
 10
105.9923347123
 20
114.6337692748
 11
105.9923347123
 21
114.4337692748
  0
LINE
  8
0
 62
7
  6
CONTINUOUS
 10
106.3515419383
 20
108.7837692748
 11
106.3515419383
 21
111.958189267
  0
LINE
  8
0
 62
7
  6
CONTINUOUS
 10
106.3515419383
 20
117.1093492826
 11
106.3515419383
 21
120.2837692748
  0
LINE
  8
0
 62
7
  6
CONTINUOUS
 10
107.0699563904
 20
114.4337692748
 11
107.0699563904
 21
114.6337692748
  0
POLYLINE
  8
0
 62
7
  6
CONTINUOUS
 66
1
 70
0
  0
VERTEX
  8
0
 62
7
  6
CONTINUOUS
 10
106.2002342952
 20
116.4707113566
  0
VERTEX
  8
0
 62
7
  6
CONTINUOUS
 10
106.1681623605
 20
116.3465030302
  0
VERTEX
  8
0
 62
7
  6
CONTINUOUS
 10
106.138486839
 20
116.2147878612
  0
VERTEX
  8
0
 62
7
  6
CONTINUOUS
 10
106.1113233366
 20
116.0762321142
  0
VERTEX
  8
0
 62
7
  6
CONTINUOUS
 10
106.086771635
 20
115.9315073075
  0
VERTEX
  8
0
 62
7
  6
CONTINUOUS
 10
106.0649183226
 20
115.7812932408
  0
VERTEX
  8
0
 62
7
  6
CONTINUOUS
 10
106.0458375658
 20
115.6262751006
  0
VERTEX
  8
0
 62
7
  6
CONTINUOUS
 10
106.0295917733
 20
115.4671405165
  0
VERTEX
  8
0
 62
7
  6
CONTINUOUS
 10
106.0162322985
 20
115.3045773882
  0
VERTEX
  8
0
 62
7
  6
CONTINUOUS
 10
106.0058001811
 20
115.1392733732
  0
VERTEX
  8
0
 62
7
  6
CONTINUOUS
 10
105.9983266802
 20
114.9719144748
  0
VERTEX
  8
0
 62
7
  6
CONTINUOUS
 10
105.993833844
 20
114.8031871814
  0
VERTEX
  8
0
 62
7
  6
CONTINUOUS
 10
105.9923347123
 20
114.6337692748
  0
SEQEND
  0
POLYLINE
  8
0
 62
7
  6
CONTINUOUS
 66
1
 70
0
  0
VERTEX
  8
0
 62
7
  6
CONTINUOUS
 10
106.2002342952
 20
116.4707113566
  0
VERTEX
  8
0
 62
7
  6
CONTINUOUS
 10
106.2623018553
 20
116.6935264363
  0
VERTEX
  8
0
 62
7
  6
CONTINUOUS
 10
106.2884418643
 20
116.7892468122
  0
VERTEX
  8
0
 62
7
  6
CONTINUOUS
 10
106.3105592209
 20
116.8743483415
  0
VERTEX
  8
0
 62
7
  6
CONTINUOUS
 10
106.3282044754
 20
116.948759339
  0
VERTEX
  8
0
 62
7
  6
CONTINUOUS
 10
106.3410752575
 20
117.012681776
  0
VERTEX
  8
0
 62
7
  6
CONTINUOUS
 10
106.3489056931
 20
117.0661352444
  0
VERTEX
  8
0
 62
7
  6
CONTINUOUS
 10
106.3515419383
 20
117.1093492826
  0
SEQEND
  0
POLYLINE
  8
0
 62
7
  6
CONTINUOUS
 66
1
 70
0
  0
VERTEX
  8
0
 62
7
  6
CONTINUOUS
 10
125.8834223349
 20
117.1378320321
  0
VERTEX
  8
0
 62
7
  6
CONTINUOUS
 10
125.9233531205
 20
117.1634716894
  0
VERTEX
  8
0
 62
7
  6
CONTINUOUS
 10
125.9577261297
 20
117.1787316676
  0
VERTEX
  8
0
 62
7
  6
CONTINUOUS
 10
125.9865056567
 20
117.1837692748
  0
SEQEND
  0
POLYLINE
  8
0
 62
7
  6
CONTINUOUS
 66
1
 70
0
  0
VERTEX
  8
0
 62
7
  6
CONTINUOUS
 10
144.5165782199
 20
117.1837692748
  0
VERTEX
  8
0
 62
7
  6
CONTINUOUS
 10
144.5453574789
 20
117.1787317535
  0
VERTEX
  8
0
 62
7
  6
CONTINUOUS
 10
144.5797306442
 20
117.1634717509
  0
VERTEX
  8
0
 62
7
  6
CONTINUOUS
 10
144.6196615417
 20
117.1378320321
  0
SEQEND
  0
POLYLINE
  8
0
 62
7
  6
CONTINUOUS
 66
1
 70
0
  0
VERTEX
  8
0
 62
7
  6
CONTINUOUS
 10
157.2165782199
 20
117.1837692748
  0
VERTEX
  8
0
 62
7
  6
CONTINUOUS
 10
157.2453574789
 20
117.1787317535
  0
VERTEX
  8
0
 62
7
  6
CONTINUOUS
 10
157.2797306442
 20
117.1634717509
  0
VERTEX
  8
0
 62
7
  6
CONTINUOUS
 10
157.3196615417
 20
117.1378320321
  0
SEQEND
  0
LINE
  8
0
 62
7
  6
CONTINUOUS
 10
106.2623009487
 20
112.3740153858
 11
106.2002342952
 21
112.5968271931
  0
POLYLINE
  8
0
 62
7
  6
CONTINUOUS
 66
1
 70
0
  0
VERTEX
  8
0
 62
7
  6
CONTINUOUS
 10
113.3515419383
 20
117.1093492826
  0
VERTEX
  8
0
 62
7
  6
CONTINUOUS
 10
113.3541781065
 20
117.0661359523
  0
VERTEX
  8
0
 62
7
  6
CONTINUOUS
 10
113.3620086067
 20
117.0126818458
  0
VERTEX
  8
0
 62
7
  6
CONTINUOUS
 10
113.3748797973
 20
116.9487575496
  0
VERTEX
  8
0
 62
7
  6
CONTINUOUS
 10
113.392525536
 20
116.8743448216
  0
VERTEX
  8
0
 62
7
  6
CONTINUOUS
 10
113.4146431483
 20
116.7892425694
  0
VERTEX
  8
0
 62
7
  6
CONTINUOUS
 10
113.4407830349
 20
116.6935227774
  0
SEQEND
  0
LINE
  8
0
 62
7
  6
CONTINUOUS
 10
112.6331274862
 20
114.4337692748
 11
112.6331274862
 21
114.6337692748
  0
LINE
  8
0
 62
7
  6
CONTINUOUS
 10
113.3515419383
 20
120.2837692748
 11
113.3515419383
 21
117.1093492826
  0
LINE
  8
0
 62
7
  6
CONTINUOUS
 10
113.3515419383
 20
111.958189267
 11
113.3515419383
 21
108.7837692748
  0
LINE
  8
0
 62
7
  6
CONTINUOUS
 10
113.7107491643
 20
114.6337692748
 11
113.7107491643
 21
114.4337692748
  0
POLYLINE
  8
0
 62
7
  6
CONTINUOUS
 66
1
 70
0
  0
VERTEX
  8
0
 62
7
  6
CONTINUOUS
 10
113.7107491643
 20
114.4337692748
  0
VERTEX
  8
0
 62
7
  6
CONTINUOUS
 10
113.709250025
 20
114.2643509402
  0
VERTEX
  8
0
 62
7
  6
CONTINUOUS
 10
113.7047571703
 20
114.0956233434
  0
VERTEX
  8
0
 62
7
  6
CONTINUOUS
 10
113.6972836461
 20
113.9282642602
  0
VERTEX
  8
0
 62
7
  6
CONTINUOUS
 10
113.6868515056
 20
113.7629601627
  0
VERTEX
  8
0
 62
7
  6
CONTINUOUS
 10
113.6734920121
 20
113.6003970429
  0
VERTEX
  8
0
 62
7
  6
CONTINUOUS
 10
113.6572462084
 20
113.4412625386
  0
VERTEX
  8
0
 62
7
  6
CONTINUOUS
 10
113.6381654517
 20
113.2862445455
  0
VERTEX
  8
0
 62
7
  6
CONTINUOUS
 10
113.6163121549
 20
113.1360306909
  0
VERTEX
  8
0
 62
7
  6
CONTINUOUS
 10
113.5917604835
 20
112.9913061261
  0
VERTEX
  8
0
 62
7
  6
CONTINUOUS
 10
113.5645970161
 20
112.8527505863
  0
VERTEX
  8
0
 62
7
  6
CONTINUOUS
 10
113.5349215191
 20
112.7210355323
  0
VERTEX
  8
0
 62
7
  6
CONTINUOUS
 10
113.5028495813
 20
112.5968271931
  0
SEQEND
  0
POLYLINE
  8
0
 62
7
  6
CONTINUOUS
 66
1
 70
0
  0
VERTEX
  8
0
 62
7
  6
CONTINUOUS
 10
112.6331274862
 20
114.6337692748
  0
VERTEX
  8
0
 62
7
  6
CONTINUOUS
 10
112.6346851576
 20
114.8064595831
  0
VERTEX
  8
0
 62
7
  6
CONTINUOUS
 10
112.6393534713
 20
114.9784245301
  0
VERTEX
  8
0
 62
7
  6
CONTINUOUS
 10
112.647118386
 20
115.1489407699
  0
VERTEX
  8
0
 62
7
  6
CONTINUOUS
 10
112.6579562017
 20
115.3172821373
  0
VERTEX
  8
0
 62
7
  6
CONTINUOUS
 10
112.6718331141
 20
115.4827206133
  0
VERTEX
  8
0
 62
7
  6
CONTINUOUS
 10
112.6887047855
 20
115.6445279074
  0
VERTEX
  8
0
 62
7
  6
CONTINUOUS
 10
112.7085155779
 20
115.8019746654
  0
VERTEX
  8
0
 62
7
  6
CONTINUOUS
 10
112.7311978156
 20
115.9543322936
  0
VERTEX
  8
0
 62
7
  6
CONTINUOUS
 10
112.7566708543
 20
116.1008744812
  0
VERTEX
  8
0
 62
7
  6
CONTINUOUS
 10
112.7848406008
 20
116.2408822079
  0
VERTEX
  8
0
 62
7
  6
CONTINUOUS
 10
112.8155986077
 20
116.3736463375
  0
VERTEX
  8
0
 62
7
  6
CONTINUOUS
 10
112.8488214212
 20
116.4984724015
  0
VERTEX
  8
0
 62
7
  6
CONTINUOUS
 10
112.8843699932
 20
116.6146859387
  0
VERTEX
  8
0
 62
7
  6
CONTINUOUS
 10
112.9220897352
 20
116.7216399384
  0
VERTEX
  8
0
 62
7
  6
CONTINUOUS
 10
112.9618104323
 20
116.8187211732
  0
VERTEX
  8
0
 62
7
  6
CONTINUOUS
 10
113.0033464024
 20
116.9053570943
  0
VERTEX
  8
0
 62
7
  6
CONTINUOUS
 10
113.0464970936
 20
116.9810233585
  0
VERTEX
  8
0
 62
7
  6
CONTINUOUS
 10
113.0910482223
 20
117.0452515584
  0
VERTEX
  8
0
 62
7
  6
CONTINUOUS
 10
113.1367731356
 20
117.0976361705
  0
VERTEX
  8
0
 62
7
  6
CONTINUOUS
 10
113.1834223349
 20
117.1378320321
  0
SEQEND
  0
POLYLINE
  8
0
 62
7
  6
CONTINUOUS
 66
1
 70
0
  0
VERTEX
  8
0
 62
7
  6
CONTINUOUS
 10
113.5028495813
 20
112.5968271931
  0
VERTEX
  8
0
 62
7
  6
CONTINUOUS
 10
113.4407839916
 20
112.3740192259
  0
VERTEX
  8
0
 62
7
  6
CONTINUOUS
 10
113.4146466105
 20
112.2783089107
  0
VERTEX
  8
0
 62
7
  6
CONTINUOUS
 10
113.3925294126
 20
112.1932092294
  0
VERTEX
  8
0
 62
7
  6
CONTINUOUS
 10
113.3748823282
 20
112.1187924335
  0
VERTEX
  8
0
 62
7
  6
CONTINUOUS
 10
113.3620092978
 20
112.0548606082
  0
VERTEX
  8
0
 62
7
  6
CONTINUOUS
 10
113.3541778696
 20
112.0014004201
  0
VERTEX
  8
0
 62
7
  6
CONTINUOUS
 10
113.3515419383
 20
111.958189267
  0
SEQEND
  0
POLYLINE
  8
0
 62
7
  6
CONTINUOUS
 66
1
 70
0
  0
VERTEX
  8
0
 62
7
  6
CONTINUOUS
 10
119.2196615417
 20
111.9297065175
  0
VERTEX
  8
0
 62
7
  6
CONTINUOUS
 10
119.2663106478
 20
111.9699022858
  0
VERTEX
  8
0
 62
7
  6
CONTINUOUS
 10
119.3120355118
 20
112.0222868072
  0
VERTEX
  8
0
 62
7
  6
CONTINUOUS
 10
119.3565866273
 20
112.0865149427
  0
VERTEX
  8
0
 62
7
  6
CONTINUOUS
 10
119.3997373339
 20
112.1621811864
  0
VERTEX
  8
0
 62
7
  6
CONTINUOUS
 10
119.4412733421
 20
112.2488171453
  0
VERTEX
  8
0
 62
7
  6
CONTINUOUS
 10
119.4809940933
 20
112.3458984847
  0
VERTEX
  8
0
 62
7
  6
CONTINUOUS
 10
119.5187138967
 20
112.4528526517
  0
VERTEX
  8
0
 62
7
  6
CONTINUOUS
 10
119.5542625305
 20
112.5690664116
  0
VERTEX
  8
0
 62
7
  6
CONTINUOUS
 10
119.5874854012
 20
112.6938927453
  0
VERTEX
  8
0
 62
7
  6
CONTINUOUS
 10
119.618243455
 20
112.8266571715
  0
VERTEX
  8
0
 62
7
  6
CONTINUOUS
 10
119.6464132343
 20
112.9666652014
  0
VERTEX
  8
0
 62
7
  6
CONTINUOUS
 10
119.6718862906
 20
113.1132076821
  0
VERTEX
  8
0
 62
7
  6
CONTINUOUS
 10
119.6945685294
 20
113.2655655667
  0
VERTEX
  8
0
 62
7
  6
CONTINUOUS
 10
119.7143793053
 20
113.4230125071
  0
VERTEX
  8
0
 62
7
  6
CONTINUOUS
 10
119.7312509453
 20
113.5848198826
  0
VERTEX
  8
0
 62
7
  6
CONTINUOUS
 10
119.7451278161
 20
113.7502583202
  0
VERTEX
  8
0
 62
7
  6
CONTINUOUS
 10
119.7559655847
 20
113.9185994953
  0
VERTEX
  8
0
 62
7
  6
CONTINUOUS
 10
119.7637304541
 20
114.0891153641
  0
VERTEX
  8
0
 62
7
  6
CONTINUOUS
 10
119.7683987329
 20
114.2610797423
  0
VERTEX
  8
0
 62
7
  6
CONTINUOUS
 10
119.7699563904
 20
114.4337692748
  0
SEQEND
  0
POLYLINE
  8
0
 62
7
  6
CONTINUOUS
 66
1
 70
0
  0
VERTEX
  8
0
 62
7
  6
CONTINUOUS
 10
119.2196615417
 20
111.9297065175
  0
VERTEX
  8
0
 62
7
  6
CONTINUOUS
 10
119.1797286587
 20
111.9040657073
  0
VERTEX
  8
0
 62
7
  6
CONTINUOUS
 10
119.1453565233
 20
111.88880649
  0
VERTEX
  8
0
 62
7
  6
CONTINUOUS
 10
119.1165782199
 20
111.8837692748
  0
SEQEND
  0
POLYLINE
  8
0
 62
7
  6
CONTINUOUS
 66
1
 70
0
  0
VERTEX
  8
0
 62
7
  6
CONTINUOUS
 10
125.8834223349
 20
111.9297065175
  0
VERTEX
  8
0
 62
7
  6
CONTINUOUS
 10
125.8367732288
 20
111.9699022858
  0
VERTEX
  8
0
 62
7
  6
CONTINUOUS
 10
125.7910483648
 20
112.0222868072
  0
VERTEX
  8
0
 62
7
  6
CONTINUOUS
 10
125.7464972493
 20
112.0865149427
  0
VERTEX
  8
0
 62
7
  6
CONTINUOUS
 10
125.7033465427
 20
112.1621811864
  0
VERTEX
  8
0
 62
7
  6
CONTINUOUS
 10
125.6618105344
 20
112.2488171453
  0
VERTEX
  8
0
 62
7
  6
CONTINUOUS
 10
125.6220897832
 20
112.3458984847
  0
VERTEX
  8
0
 62
7
  6
CONTINUOUS
 10
125.5843699798
 20
112.4528526517
  0
VERTEX
  8
0
 62
7
  6
CONTINUOUS
 10
125.5488213461
 20
112.5690664116
  0
VERTEX
  8
0
 62
7
  6
CONTINUOUS
 10
125.5155984753
 20
112.6938927453
  0
VERTEX
  8
0
 62
7
  6
CONTINUOUS
 10
125.4848404216
 20
112.8266571715
  0
VERTEX
  8
0
 62
7
  6
CONTINUOUS
 10
125.4566706423
 20
112.9666652014
  0
VERTEX
  8
0
 62
7
  6
CONTINUOUS
 10
125.4311975859
 20
113.1132076821
  0
VERTEX
  8
0
 62
7
  6
CONTINUOUS
 10
125.4085153471
 20
113.2655655667
  0
VERTEX
  8
0
 62
7
  6
CONTINUOUS
 10
125.3887045713
 20
113.4230125071
  0
VERTEX
  8
0
 62
7
  6
CONTINUOUS
 10
125.3718329312
 20
113.5848198826
  0
VERTEX
  8
0
 62
7
  6
CONTINUOUS
 10
125.3579560605
 20
113.7502583202
  0
VERTEX
  8
0
 62
7
  6
CONTINUOUS
 10
125.3471182918
 20
113.9185994953
  0
VERTEX
  8
0
 62
7
  6
CONTINUOUS
 10
125.3393534224
 20
114.0891153641
  0
VERTEX
  8
0
 62
7
  6
CONTINUOUS
 10
125.3346851436
 20
114.2610797423
  0
VERTEX
  8
0
 62
7
  6
CONTINUOUS
 10
125.3331274862
 20
114.4337692748
  0
SEQEND
  0
LINE
  8
0
 62
7
  6
CONTINUOUS
 10
113.4407830349
 20
116.6935227774
 11
113.5028495813
 21
116.4707113566
  0
POLYLINE
  8
0
 62
7
  6
CONTINUOUS
 66
1
 70
0
  0
VERTEX
  8
0
 62
7
  6
CONTINUOUS
 10
113.5028495813
 20
116.4707113566
  0
VERTEX
  8
0
 62
7
  6
CONTINUOUS
 10
113.5349215162
 20
116.3465030296
  0
VERTEX
  8
0
 62
7
  6
CONTINUOUS
 10
113.5645970377
 20
116.2147878606
  0
VERTEX
  8
0
 62
7
  6
CONTINUOUS
 10
113.5917605401
 20
116.0762321135
  0
VERTEX
  8
0
 62
7
  6
CONTINUOUS
 10
113.6163122417
 20
115.9315073068
  0
VERTEX
  8
0
 62
7
  6
CONTINUOUS
 10
113.6381655541
 20
115.7812932402
  0
VERTEX
  8
0
 62
7
  6
CONTINUOUS
 10
113.6572463108
 20
115.6262751001
  0
VERTEX
  8
0
 62
7
  6
CONTINUOUS
 10
113.6734921033
 20
115.4671405161
  0
VERTEX
  8
0
 62
7
  6
CONTINUOUS
 10
113.6868515781
 20
115.3045773879
  0
VERTEX
  8
0
 62
7
  6
CONTINUOUS
 10
113.6972836955
 20
115.1392733731
  0
VERTEX
  8
0
 62
7
  6
CONTINUOUS
 10
113.7047571963
 20
114.9719144747
  0
VERTEX
  8
0
 62
7
  6
CONTINUOUS
 10
113.7092500326
 20
114.8031871814
  0
VERTEX
  8
0
 62
7
  6
CONTINUOUS
 10
113.7107491643
 20
114.6337692748
  0
SEQEND
  0
POLYLINE
  8
0
 62
7
  6
CONTINUOUS
 66
1
 70
0
  0
VERTEX
  8
0
 62
7
  6
CONTINUOUS
 10
119.0515419383
 20
111.958189267
  0
VERTEX
  8
0
 62
7
  6
CONTINUOUS
 10
119.0489059245
 20
112.0014011779
  0
VERTEX
  8
0
 62
7
  6
CONTINUOUS
 10
119.0410745704
 20
112.0548606555
  0
VERTEX
  8
0
 62
7
  6
CONTINUOUS
 10
119.0282019539
 20
112.1187906014
  0
VERTEX
  8
0
 62
7
  6
CONTINUOUS
 10
119.0105553621
 20
112.193205638
  0
VERTEX
  8
0
 62
7
  6
CONTINUOUS
 10
118.9884384219
 20
112.278304594
  0
VERTEX
  8
0
 62
7
  6
CONTINUOUS
 10
118.9623009487
 20
112.3740153858
  0
SEQEND
  0
POLYLINE
  8
0
 62
7
  6
CONTINUOUS
 66
1
 70
0
  0
VERTEX
  8
0
 62
7
  6
CONTINUOUS
 10
119.7699563904
 20
114.6337692748
  0
VERTEX
  8
0
 62
7
  6
CONTINUOUS
 10
119.7683987189
 20
114.8064595831
  0
VERTEX
  8
0
 62
7
  6
CONTINUOUS
 10
119.7637304053
 20
114.9784245301
  0
VERTEX
  8
0
 62
7
  6
CONTINUOUS
 10
119.7559654906
 20
115.1489407699
  0
VERTEX
  8
0
 62
7
  6
CONTINUOUS
 10
119.7451276748
 20
115.3172821373
  0
VERTEX
  8
0
 62
7
  6
CONTINUOUS
 10
119.7312507625
 20
115.4827206133
  0
VERTEX
  8
0
 62
7
  6
CONTINUOUS
 10
119.7143790911
 20
115.6445279074
  0
VERTEX
  8
0
 62
7
  6
CONTINUOUS
 10
119.6945682987
 20
115.8019746654
  0
VERTEX
  8
0
 62
7
  6
CONTINUOUS
 10
119.6718860609
 20
115.9543322936
  0
VERTEX
  8
0
 62
7
  6
CONTINUOUS
 10
119.6464130222
 20
116.1008744812
  0
VERTEX
  8
0
 62
7
  6
CONTINUOUS
 10
119.6182432758
 20
116.2408822079
  0
VERTEX
  8
0
 62
7
  6
CONTINUOUS
 10
119.5874852688
 20
116.3736463375
  0
VERTEX
  8
0
 62
7
  6
CONTINUOUS
 10
119.5542624553
 20
116.4984724015
  0
VERTEX
  8
0
 62
7
  6
CONTINUOUS
 10
119.5187138833
 20
116.6146859387
  0
VERTEX
  8
0
 62
7
  6
CONTINUOUS
 10
119.4809941413
 20
116.7216399384
  0
VERTEX
  8
0
 62
7
  6
CONTINUOUS
 10
119.4412734443
 20
116.8187211732
  0
VERTEX
  8
0
 62
7
  6
CONTINUOUS
 10
119.3997374742
 20
116.9053570943
  0
VERTEX
  8
0
 62
7
  6
CONTINUOUS
 10
119.356586783
 20
116.9810233585
  0
VERTEX
  8
0
 62
7
  6
CONTINUOUS
 10
119.3120356542
 20
117.0452515584
  0
VERTEX
  8
0
 62
7
  6
CONTINUOUS
 10
119.2663107409
 20
117.0976361705
  0
VERTEX
  8
0
 62
7
  6
CONTINUOUS
 10
119.2196615417
 20
117.1378320321
  0
SEQEND
  0
POLYLINE
  8
0
 62
7
  6
CONTINUOUS
 66
1
 70
0
  0
VERTEX
  8
0
 62
7
  6
CONTINUOUS
 10
118.6923347123
 20
114.4337692748
  0
VERTEX
  8
0
 62
7
  6
CONTINUOUS
 10
118.6938338515
 20
114.2643509402
  0
VERTEX
  8
0
 62
7
  6
CONTINUOUS
 10
118.6983267063
 20
114.0956233433
  0
VERTEX
  8
0
 62
7
  6
CONTINUOUS
 10
118.7058002304
 20
113.92826426
  0
VERTEX
  8
0
 62
7
  6
CONTINUOUS
 10
118.716232371
 20
113.7629601624
  0
VERTEX
  8
0
 62
7
  6
CONTINUOUS
 10
118.7295918645
 20
113.6003970425
  0
VERTEX
  8
0
 62
7
  6
CONTINUOUS
 10
118.7458376682
 20
113.4412625381
  0
VERTEX
  8
0
 62
7
  6
CONTINUOUS
 10
118.764918425
 20
113.2862445449
  0
VERTEX
  8
0
 62
7
  6
CONTINUOUS
 10
118.7867717218
 20
113.1360306903
  0
VERTEX
  8
0
 62
7
  6
CONTINUOUS
 10
118.8113233932
 20
112.9913061254
  0
VERTEX
  8
0
 62
7
  6
CONTINUOUS
 10
118.8384868606
 20
112.8527505856
  0
VERTEX
  8
0
 62
7
  6
CONTINUOUS
 10
118.8681623576
 20
112.7210355317
  0
VERTEX
  8
0
 62
7
  6
CONTINUOUS
 10
118.9002342952
 20
112.5968271931
  0
SEQEND
  0
LINE
  8
0
 62
7
  6
CONTINUOUS
 10
118.6923347123
 20
114.6337692748
 11
118.6923347123
 21
114.4337692748
  0
LINE
  8
0
 62
7
  6
CONTINUOUS
 10
119.0515419383
 20
108.7837692748
 11
119.0515419383
 21
111.958189267
  0
LINE
  8
0
 62
7
  6
CONTINUOUS
 10
119.0515419383
 20
117.1093492826
 11
119.0515419383
 21
120.2837692748
  0
LINE
  8
0
 62
7
  6
CONTINUOUS
 10
119.7699563904
 20
114.4337692748
 11
119.7699563904
 21
114.6337692748
  0
POLYLINE
  8
0
 62
7
  6
CONTINUOUS
 66
1
 70
0
  0
VERTEX
  8
0
 62
7
  6
CONTINUOUS
 10
118.9002342952
 20
116.4707113566
  0
VERTEX
  8
0
 62
7
  6
CONTINUOUS
 10
118.8681623605
 20
116.3465030302
  0
VERTEX
  8
0
 62
7
  6
CONTINUOUS
 10
118.838486839
 20
116.2147878612
  0
VERTEX
  8
0
 62
7
  6
CONTINUOUS
 10
118.8113233366
 20
116.0762321142
  0
VERTEX
  8
0
 62
7
  6
CONTINUOUS
 10
118.786771635
 20
115.9315073075
  0
VERTEX
  8
0
 62
7
  6
CONTINUOUS
 10
118.7649183226
 20
115.7812932408
  0
VERTEX
  8
0
 62
7
  6
CONTINUOUS
 10
118.7458375658
 20
115.6262751006
  0
VERTEX
  8
0
 62
7
  6
CONTINUOUS
 10
118.7295917733
 20
115.4671405165
  0
VERTEX
  8
0
 62
7
  6
CONTINUOUS
 10
118.7162322985
 20
115.3045773882
  0
VERTEX
  8
0
 62
7
  6
CONTINUOUS
 10
118.7058001811
 20
115.1392733732
  0
VERTEX
  8
0
 62
7
  6
CONTINUOUS
 10
118.6983266802
 20
114.9719144748
  0
VERTEX
  8
0
 62
7
  6
CONTINUOUS
 10
118.693833844
 20
114.8031871814
  0
VERTEX
  8
0
 62
7
  6
CONTINUOUS
 10
118.6923347123
 20
114.6337692748
  0
SEQEND
  0
POLYLINE
  8
0
 62
7
  6
CONTINUOUS
 66
1
 70
0
  0
VERTEX
  8
0
 62
7
  6
CONTINUOUS
 10
118.9002342952
 20
116.4707113566
  0
VERTEX
  8
0
 62
7
  6
CONTINUOUS
 10
118.9623018553
 20
116.6935264363
  0
VERTEX
  8
0
 62
7
  6
CONTINUOUS
 10
118.9884418643
 20
116.7892468122
  0
VERTEX
  8
0
 62
7
  6
CONTINUOUS
 10
119.0105592209
 20
116.8743483415
  0
VERTEX
  8
0
 62
7
  6
CONTINUOUS
 10
119.0282044754
 20
116.948759339
  0
VERTEX
  8
0
 62
7
  6
CONTINUOUS
 10
119.0410752575
 20
117.012681776
  0
VERTEX
  8
0
 62
7
  6
CONTINUOUS
 10
119.0489056931
 20
117.0661352444
  0
VERTEX
  8
0
 62
7
  6
CONTINUOUS
 10
119.0515419383
 20
117.1093492826
  0
SEQEND
  0
POLYLINE
  8
0
 62
7
  6
CONTINUOUS
 66
1
 70
0
  0
VERTEX
  8
0
 62
7
  6
CONTINUOUS
 10
138.5834223349
 20
117.1378320321
  0
VERTEX
  8
0
 62
7
  6
CONTINUOUS
 10
138.6233531205
 20
117.1634716894
  0
VERTEX
  8
0
 62
7
  6
CONTINUOUS
 10
138.6577261297
 20
117.1787316676
  0
VERTEX
  8
0
 62
7
  6
CONTINUOUS
 10
138.6865056567
 20
117.1837692748
  0
SEQEND
  0
POLYLINE
  8
0
 62
7
  6
CONTINUOUS
 66
1
 70
0
  0
VERTEX
  8
0
 62
7
  6
CONTINUOUS
 10
131.9196615417
 20
111.9297065175
  0
VERTEX
  8
0
 62
7
  6
CONTINUOUS
 10
131.8797286587
 20
111.9040657073
  0
VERTEX
  8
0
 62
7
  6
CONTINUOUS
 10
131.8453565233
 20
111.88880649
  0
VERTEX
  8
0
 62
7
  6
CONTINUOUS
 10
131.8165782199
 20
111.8837692748
  0
SEQEND
  0
LINE
  8
0
 62
7
  6
CONTINUOUS
 10
118.9623009487
 20
112.3740153858
 11
118.9002342952
 21
112.5968271931
  0
POLYLINE
  8
0
 62
7
  6
CONTINUOUS
 66
1
 70
0
  0
VERTEX
  8
0
 62
7
  6
CONTINUOUS
 10
131.9196615417
 20
111.9297065175
  0
VERTEX
  8
0
 62
7
  6
CONTINUOUS
 10
131.9663106478
 20
111.9699022858
  0
VERTEX
  8
0
 62
7
  6
CONTINUOUS
 10
132.0120355118
 20
112.0222868072
  0
VERTEX
  8
0
 62
7
  6
CONTINUOUS
 10
132.0565866273
 20
112.0865149427
  0
VERTEX
  8
0
 62
7
  6
CONTINUOUS
 10
132.0997373339
 20
112.1621811864
  0
VERTEX
  8
0
 62
7
  6
CONTINUOUS
 10
132.1412733421
 20
112.2488171453
  0
VERTEX
  8
0
 62
7
  6
CONTINUOUS
 10
132.1809940933
 20
112.3458984847
  0
VERTEX
  8
0
 62
7
  6
CONTINUOUS
 10
132.2187138967
 20
112.4528526517
  0
VERTEX
  8
0
 62
7
  6
CONTINUOUS
 10
132.2542625305
 20
112.5690664116
  0
VERTEX
  8
0
 62
7
  6
CONTINUOUS
 10
132.2874854012
 20
112.6938927453
  0
VERTEX
  8
0
 62
7
  6
CONTINUOUS
 10
132.318243455
 20
112.8266571715
  0
VERTEX
  8
0
 62
7
  6
CONTINUOUS
 10
132.3464132343
 20
112.9666652014
  0
VERTEX
  8
0
 62
7
  6
CONTINUOUS
 10
132.3718862906
 20
113.1132076821
  0
VERTEX
  8
0
 62
7
  6
CONTINUOUS
 10
132.3945685294
 20
113.2655655667
  0
VERTEX
  8
0
 62
7
  6
CONTINUOUS
 10
132.4143793053
 20
113.4230125071
  0
VERTEX
  8
0
 62
7
  6
CONTINUOUS
 10
132.4312509453
 20
113.5848198826
  0
VERTEX
  8
0
 62
7
  6
CONTINUOUS
 10
132.4451278161
 20
113.7502583202
  0
VERTEX
  8
0
 62
7
  6
CONTINUOUS
 10
132.4559655847
 20
113.9185994953
  0
VERTEX
  8
0
 62
7
  6
CONTINUOUS
 10
132.4637304541
 20
114.0891153641
  0
VERTEX
  8
0
 62
7
  6
CONTINUOUS
 10
132.4683987329
 20
114.2610797423
  0
VERTEX
  8
0
 62
7
  6
CONTINUOUS
 10
132.4699563904
 20
114.4337692748
  0
SEQEND
  0
POLYLINE
  8
0
 62
7
  6
CONTINUOUS
 66
1
 70
0
  0
VERTEX
  8
0
 62
7
  6
CONTINUOUS
 10
151.2834223349
 20
117.1378320321
  0
VERTEX
  8
0
 62
7
  6
CONTINUOUS
 10
151.3233531205
 20
117.1634716894
  0
VERTEX
  8
0
 62
7
  6
CONTINUOUS
 10
151.3577261297
 20
117.1787316676
  0
VERTEX
  8
0
 62
7
  6
CONTINUOUS
 10
151.3865056567
 20
117.1837692748
  0
SEQEND
  0
POLYLINE
  8
0
 62
7
  6
CONTINUOUS
 66
1
 70
0
  0
VERTEX
  8
0
 62
7
  6
CONTINUOUS
 10
144.6196615417
 20
111.9297065175
  0
VERTEX
  8
0
 62
7
  6
CONTINUOUS
 10
144.5797286587
 20
111.9040657073
  0
VERTEX
  8
0
 62
7
  6
CONTINUOUS
 10
144.5453565233
 20
111.88880649
  0
VERTEX
  8
0
 62
7
  6
CONTINUOUS
 10
144.5165782199
 20
111.8837692748
  0
SEQEND
  0
POLYLINE
  8
0
 62
7
  6
CONTINUOUS
 66
1
 70
0
  0
VERTEX
  8
0
 62
7
  6
CONTINUOUS
 10
138.5834223349
 20
111.9297065175
  0
VERTEX
  8
0
 62
7
  6
CONTINUOUS
 10
138.5367732288
 20
111.9699022858
  0
VERTEX
  8
0
 62
7
  6
CONTINUOUS
 10
138.4910483648
 20
112.0222868072
  0
VERTEX
  8
0
 62
7
  6
CONTINUOUS
 10
138.4464972493
 20
112.0865149427
  0
VERTEX
  8
0
 62
7
  6
CONTINUOUS
 10
138.4033465427
 20
112.1621811864
  0
VERTEX
  8
0
 62
7
  6
CONTINUOUS
 10
138.3618105344
 20
112.2488171453
  0
VERTEX
  8
0
 62
7
  6
CONTINUOUS
 10
138.3220897832
 20
112.3458984847
  0
VERTEX
  8
0
 62
7
  6
CONTINUOUS
 10
138.2843699798
 20
112.4528526517
  0
VERTEX
  8
0
 62
7
  6
CONTINUOUS
 10
138.2488213461
 20
112.5690664116
  0
VERTEX
  8
0
 62
7
  6
CONTINUOUS
 10
138.2155984753
 20
112.6938927453
  0
VERTEX
  8
0
 62
7
  6
CONTINUOUS
 10
138.1848404216
 20
112.8266571715
  0
VERTEX
  8
0
 62
7
  6
CONTINUOUS
 10
138.1566706423
 20
112.9666652014
  0
VERTEX
  8
0
 62
7
  6
CONTINUOUS
 10
138.1311975859
 20
113.1132076821
  0
VERTEX
  8
0
 62
7
  6
CONTINUOUS
 10
138.1085153471
 20
113.2655655667
  0
VERTEX
  8
0
 62
7
  6
CONTINUOUS
 10
138.0887045713
 20
113.4230125071
  0
VERTEX
  8
0
 62
7
  6
CONTINUOUS
 10
138.0718329312
 20
113.5848198826
  0
VERTEX
  8
0
 62
7
  6
CONTINUOUS
 10
138.0579560605
 20
113.7502583202
  0
VERTEX
  8
0
 62
7
  6
CONTINUOUS
 10
138.0471182918
 20
113.9185994953
  0
VERTEX
  8
0
 62
7
  6
CONTINUOUS
 10
138.0393534224
 20
114.0891153641
  0
VERTEX
  8
0
 62
7
  6
CONTINUOUS
 10
138.0346851436
 20
114.2610797423
  0
VERTEX
  8
0
 62
7
  6
CONTINUOUS
 10
138.0331274862
 20
114.4337692748
  0
SEQEND
  0
POLYLINE
  8
0
 62
7
  6
CONTINUOUS
 66
1
 70
0
  0
VERTEX
  8
0
 62
7
  6
CONTINUOUS
 10
126.0515419383
 20
117.1093492826
  0
VERTEX
  8
0
 62
7
  6
CONTINUOUS
 10
126.0541781065
 20
117.0661359523
  0
VERTEX
  8
0
 62
7
  6
CONTINUOUS
 10
126.0620086067
 20
117.0126818458
  0
VERTEX
  8
0
 62
7
  6
CONTINUOUS
 10
126.0748797973
 20
116.9487575496
  0
VERTEX
  8
0
 62
7
  6
CONTINUOUS
 10
126.092525536
 20
116.8743448216
  0
VERTEX
  8
0
 62
7
  6
CONTINUOUS
 10
126.1146431483
 20
116.7892425694
  0
VERTEX
  8
0
 62
7
  6
CONTINUOUS
 10
126.1407830349
 20
116.6935227774
  0
SEQEND
  0
LINE
  8
0
 62
7
  6
CONTINUOUS
 10
125.3331274862
 20
114.4337692748
 11
125.3331274862
 21
114.6337692748
  0
LINE
  8
0
 62
7
  6
CONTINUOUS
 10
126.0515419383
 20
120.2837692748
 11
126.0515419383
 21
117.1093492826
  0
LINE
  8
0
 62
7
  6
CONTINUOUS
 10
126.0515419383
 20
111.958189267
 11
126.0515419383
 21
108.7837692748
  0
LINE
  8
0
 62
7
  6
CONTINUOUS
 10
126.4107491643
 20
114.6337692748
 11
126.4107491643
 21
114.4337692748
  0
POLYLINE
  8
0
 62
7
  6
CONTINUOUS
 66
1
 70
0
  0
VERTEX
  8
0
 62
7
  6
CONTINUOUS
 10
126.4107491643
 20
114.4337692748
  0
VERTEX
  8
0
 62
7
  6
CONTINUOUS
 10
126.409250025
 20
114.2643509402
  0
VERTEX
  8
0
 62
7
  6
CONTINUOUS
 10
126.4047571703
 20
114.0956233434
  0
VERTEX
  8
0
 62
7
  6
CONTINUOUS
 10
126.3972836461
 20
113.9282642602
  0
VERTEX
  8
0
 62
7
  6
CONTINUOUS
 10
126.3868515056
 20
113.7629601627
  0
VERTEX
  8
0
 62
7
  6
CONTINUOUS
 10
126.3734920121
 20
113.6003970429
  0
VERTEX
  8
0
 62
7
  6
CONTINUOUS
 10
126.3572462084
 20
113.4412625386
  0
VERTEX
  8
0
 62
7
  6
CONTINUOUS
 10
126.3381654517
 20
113.2862445455
  0
VERTEX
  8
0
 62
7
  6
CONTINUOUS
 10
126.3163121549
 20
113.1360306909
  0
VERTEX
  8
0
 62
7
  6
CONTINUOUS
 10
126.2917604835
 20
112.9913061261
  0
VERTEX
  8
0
 62
7
  6
CONTINUOUS
 10
126.2645970161
 20
112.8527505863
  0
VERTEX
  8
0
 62
7
  6
CONTINUOUS
 10
126.2349215191
 20
112.7210355323
  0
VERTEX
  8
0
 62
7
  6
CONTINUOUS
 10
126.2028495813
 20
112.5968271931
  0
SEQEND
  0
POLYLINE
  8
0
 62
7
  6
CONTINUOUS
 66
1
 70
0
  0
VERTEX
  8
0
 62
7
  6
CONTINUOUS
 10
125.3331274862
 20
114.6337692748
  0
VERTEX
  8
0
 62
7
  6
CONTINUOUS
 10
125.3346851576
 20
114.8064595831
  0
VERTEX
  8
0
 62
7
  6
CONTINUOUS
 10
125.3393534713
 20
114.9784245301
  0
VERTEX
  8
0
 62
7
  6
CONTINUOUS
 10
125.347118386
 20
115.1489407699
  0
VERTEX
  8
0
 62
7
  6
CONTINUOUS
 10
125.3579562017
 20
115.3172821373
  0
VERTEX
  8
0
 62
7
  6
CONTINUOUS
 10
125.3718331141
 20
115.4827206133
  0
VERTEX
  8
0
 62
7
  6
CONTINUOUS
 10
125.3887047855
 20
115.6445279074
  0
VERTEX
  8
0
 62
7
  6
CONTINUOUS
 10
125.4085155779
 20
115.8019746654
  0
VERTEX
  8
0
 62
7
  6
CONTINUOUS
 10
125.4311978156
 20
115.9543322936
  0
VERTEX
  8
0
 62
7
  6
CONTINUOUS
 10
125.4566708543
 20
116.1008744812
  0
VERTEX
  8
0
 62
7
  6
CONTINUOUS
 10
125.4848406008
 20
116.2408822079
  0
VERTEX
  8
0
 62
7
  6
CONTINUOUS
 10
125.5155986077
 20
116.3736463375
  0
VERTEX
  8
0
 62
7
  6
CONTINUOUS
 10
125.5488214212
 20
116.4984724015
  0
VERTEX
  8
0
 62
7
  6
CONTINUOUS
 10
125.5843699932
 20
116.6146859387
  0
VERTEX
  8
0
 62
7
  6
CONTINUOUS
 10
125.6220897352
 20
116.7216399384
  0
VERTEX
  8
0
 62
7
  6
CONTINUOUS
 10
125.6618104323
 20
116.8187211732
  0
VERTEX
  8
0
 62
7
  6
CONTINUOUS
 10
125.7033464024
 20
116.9053570943
  0
VERTEX
  8
0
 62
7
  6
CONTINUOUS
 10
125.7464970936
 20
116.9810233585
  0
VERTEX
  8
0
 62
7
  6
CONTINUOUS
 10
125.7910482223
 20
117.0452515584
  0
VERTEX
  8
0
 62
7
  6
CONTINUOUS
 10
125.8367731356
 20
117.0976361705
  0
VERTEX
  8
0
 62
7
  6
CONTINUOUS
 10
125.8834223349
 20
117.1378320321
  0
SEQEND
  0
POLYLINE
  8
0
 62
7
  6
CONTINUOUS
 66
1
 70
0
  0
VERTEX
  8
0
 62
7
  6
CONTINUOUS
 10
131.6002342952
 20
116.4707113566
  0
VERTEX
  8
0
 62
7
  6
CONTINUOUS
 10
131.5681623605
 20
116.3465030302
  0
VERTEX
  8
0
 62
7
  6
CONTINUOUS
 10
131.538486839
 20
116.2147878612
  0
VERTEX
  8
0
 62
7
  6
CONTINUOUS
 10
131.5113233366
 20
116.0762321142
  0
VERTEX
  8
0
 62
7
  6
CONTINUOUS
 10
131.486771635
 20
115.9315073075
  0
VERTEX
  8
0
 62
7
  6
CONTINUOUS
 10
131.4649183226
 20
115.7812932408
  0
VERTEX
  8
0
 62
7
  6
CONTINUOUS
 10
131.4458375658
 20
115.6262751006
  0
VERTEX
  8
0
 62
7
  6
CONTINUOUS
 10
131.4295917733
 20
115.4671405165
  0
VERTEX
  8
0
 62
7
  6
CONTINUOUS
 10
131.4162322985
 20
115.3045773882
  0
VERTEX
  8
0
 62
7
  6
CONTINUOUS
 10
131.4058001811
 20
115.1392733732
  0
VERTEX
  8
0
 62
7
  6
CONTINUOUS
 10
131.3983266802
 20
114.9719144748
  0
VERTEX
  8
0
 62
7
  6
CONTINUOUS
 10
131.393833844
 20
114.8031871814
  0
VERTEX
  8
0
 62
7
  6
CONTINUOUS
 10
131.3923347123
 20
114.6337692748
  0
SEQEND
  0
POLYLINE
  8
0
 62
7
  6
CONTINUOUS
 66
1
 70
0
  0
VERTEX
  8
0
 62
7
  6
CONTINUOUS
 10
126.2028495813
 20
112.5968271931
  0
VERTEX
  8
0
 62
7
  6
CONTINUOUS
 10
126.1407839916
 20
112.3740192259
  0
VERTEX
  8
0
 62
7
  6
CONTINUOUS
 10
126.1146466105
 20
112.2783089107
  0
VERTEX
  8
0
 62
7
  6
CONTINUOUS
 10
126.0925294126
 20
112.1932092294
  0
VERTEX
  8
0
 62
7
  6
CONTINUOUS
 10
126.0748823282
 20
112.1187924335
  0
VERTEX
  8
0
 62
7
  6
CONTINUOUS
 10
126.0620092978
 20
112.0548606082
  0
VERTEX
  8
0
 62
7
  6
CONTINUOUS
 10
126.0541778696
 20
112.0014004201
  0
VERTEX
  8
0
 62
7
  6
CONTINUOUS
 10
126.0515419383
 20
111.958189267
  0
SEQEND
  0
POLYLINE
  8
0
 62
7
  6
CONTINUOUS
 66
1
 70
0
  0
VERTEX
  8
0
 62
7
  6
CONTINUOUS
 10
131.6002342952
 20
116.4707113566
  0
VERTEX
  8
0
 62
7
  6
CONTINUOUS
 10
131.6623018553
 20
116.6935264363
  0
VERTEX
  8
0
 62
7
  6
CONTINUOUS
 10
131.6884418643
 20
116.7892468122
  0
VERTEX
  8
0
 62
7
  6
CONTINUOUS
 10
131.7105592209
 20
116.8743483415
  0
VERTEX
  8
0
 62
7
  6
CONTINUOUS
 10
131.7282044754
 20
116.948759339
  0
VERTEX
  8
0
 62
7
  6
CONTINUOUS
 10
131.7410752575
 20
117.012681776
  0
VERTEX
  8
0
 62
7
  6
CONTINUOUS
 10
131.7489056931
 20
117.0661352444
  0
VERTEX
  8
0
 62
7
  6
CONTINUOUS
 10
131.7515419383
 20
117.1093492826
  0
SEQEND
  0
POLYLINE
  8
0
 62
7
  6
CONTINUOUS
 66
1
 70
0
  0
VERTEX
  8
0
 62
7
  6
CONTINUOUS
 10
144.6196615417
 20
111.9297065175
  0
VERTEX
  8
0
 62
7
  6
CONTINUOUS
 10
144.6663106478
 20
111.9699022858
  0
VERTEX
  8
0
 62
7
  6
CONTINUOUS
 10
144.7120355118
 20
112.0222868072
  0
VERTEX
  8
0
 62
7
  6
CONTINUOUS
 10
144.7565866273
 20
112.0865149427
  0
VERTEX
  8
0
 62
7
  6
CONTINUOUS
 10
144.7997373339
 20
112.1621811864
  0
VERTEX
  8
0
 62
7
  6
CONTINUOUS
 10
144.8412733421
 20
112.2488171453
  0
VERTEX
  8
0
 62
7
  6
CONTINUOUS
 10
144.8809940933
 20
112.3458984847
  0
VERTEX
  8
0
 62
7
  6
CONTINUOUS
 10
144.9187138967
 20
112.4528526517
  0
VERTEX
  8
0
 62
7
  6
CONTINUOUS
 10
144.9542625305
 20
112.5690664116
  0
VERTEX
  8
0
 62
7
  6
CONTINUOUS
 10
144.9874854012
 20
112.6938927453
  0
VERTEX
  8
0
 62
7
  6
CONTINUOUS
 10
145.018243455
 20
112.8266571715
  0
VERTEX
  8
0
 62
7
  6
CONTINUOUS
 10
145.0464132343
 20
112.9666652014
  0
VERTEX
  8
0
 62
7
  6
CONTINUOUS
 10
145.0718862906
 20
113.1132076821
  0
VERTEX
  8
0
 62
7
  6
CONTINUOUS
 10
145.0945685294
 20
113.2655655667
  0
VERTEX
  8
0
 62
7
  6
CONTINUOUS
 10
145.1143793053
 20
113.4230125071
  0
VERTEX
  8
0
 62
7
  6
CONTINUOUS
 10
145.1312509453
 20
113.5848198826
  0
VERTEX
  8
0
 62
7
  6
CONTINUOUS
 10
145.1451278161
 20
113.7502583202
  0
VERTEX
  8
0
 62
7
  6
CONTINUOUS
 10
145.1559655847
 20
113.9185994953
  0
VERTEX
  8
0
 62
7
  6
CONTINUOUS
 10
145.1637304541
 20
114.0891153641
  0
VERTEX
  8
0
 62
7
  6
CONTINUOUS
 10
145.1683987329
 20
114.2610797423
  0
VERTEX
  8
0
 62
7
  6
CONTINUOUS
 10
145.1699563904
 20
114.4337692748
  0
SEQEND
  0
POLYLINE
  8
0
 62
7
  6
CONTINUOUS
 66
1
 70
0
  0
VERTEX
  8
0
 62
7
  6
CONTINUOUS
 10
163.9834223349
 20
117.1378320321
  0
VERTEX
  8
0
 62
7
  6
CONTINUOUS
 10
164.0233531205
 20
117.1634716894
  0
VERTEX
  8
0
 62
7
  6
CONTINUOUS
 10
164.0577261297
 20
117.1787316676
  0
VERTEX
  8
0
 62
7
  6
CONTINUOUS
 10
164.0865056567
 20
117.1837692748
  0
SEQEND
  0
POLYLINE
  8
0
 62
7
  6
CONTINUOUS
 66
1
 70
0
  0
VERTEX
  8
0
 62
7
  6
CONTINUOUS
 10
151.2834223349
 20
111.9297065175
  0
VERTEX
  8
0
 62
7
  6
CONTINUOUS
 10
151.2367732288
 20
111.9699022858
  0
VERTEX
  8
0
 62
7
  6
CONTINUOUS
 10
151.1910483648
 20
112.0222868072
  0
VERTEX
  8
0
 62
7
  6
CONTINUOUS
 10
151.1464972493
 20
112.0865149427
  0
VERTEX
  8
0
 62
7
  6
CONTINUOUS
 10
151.1033465427
 20
112.1621811864
  0
VERTEX
  8
0
 62
7
  6
CONTINUOUS
 10
151.0618105344
 20
112.2488171453
  0
VERTEX
  8
0
 62
7
  6
CONTINUOUS
 10
151.0220897832
 20
112.3458984847
  0
VERTEX
  8
0
 62
7
  6
CONTINUOUS
 10
150.9843699798
 20
112.4528526517
  0
VERTEX
  8
0
 62
7
  6
CONTINUOUS
 10
150.9488213461
 20
112.5690664116
  0
VERTEX
  8
0
 62
7
  6
CONTINUOUS
 10
150.9155984753
 20
112.6938927453
  0
VERTEX
  8
0
 62
7
  6
CONTINUOUS
 10
150.8848404216
 20
112.8266571715
  0
VERTEX
  8
0
 62
7
  6
CONTINUOUS
 10
150.8566706423
 20
112.9666652014
  0
VERTEX
  8
0
 62
7
  6
CONTINUOUS
 10
150.8311975859
 20
113.1132076821
  0
VERTEX
  8
0
 62
7
  6
CONTINUOUS
 10
150.8085153471
 20
113.2655655667
  0
VERTEX
  8
0
 62
7
  6
CONTINUOUS
 10
150.7887045713
 20
113.4230125071
  0
VERTEX
  8
0
 62
7
  6
CONTINUOUS
 10
150.7718329312
 20
113.5848198826
  0
VERTEX
  8
0
 62
7
  6
CONTINUOUS
 10
150.7579560605
 20
113.7502583202
  0
VERTEX
  8
0
 62
7
  6
CONTINUOUS
 10
150.7471182918
 20
113.9185994953
  0
VERTEX
  8
0
 62
7
  6
CONTINUOUS
 10
150.7393534224
 20
114.0891153641
  0
VERTEX
  8
0
 62
7
  6
CONTINUOUS
 10
150.7346851436
 20
114.2610797423
  0
VERTEX
  8
0
 62
7
  6
CONTINUOUS
 10
150.7331274862
 20
114.4337692748
  0
SEQEND
  0
LINE
  8
0
 62
7
  6
CONTINUOUS
 10
126.1407830349
 20
116.6935227774
 11
126.2028495813
 21
116.4707113566
  0
LINE
  8
0
 62
7
  6
CONTINUOUS
 10
131.6623009487
 20
112.3740153858
 11
131.6002342952
 21
112.5968271931
  0
POLYLINE
  8
0
 62
7
  6
CONTINUOUS
 66
1
 70
0
  0
VERTEX
  8
0
 62
7
  6
CONTINUOUS
 10
126.2028495813
 20
116.4707113566
  0
VERTEX
  8
0
 62
7
  6
CONTINUOUS
 10
126.2349215162
 20
116.3465030296
  0
VERTEX
  8
0
 62
7
  6
CONTINUOUS
 10
126.2645970377
 20
116.2147878606
  0
VERTEX
  8
0
 62
7
  6
CONTINUOUS
 10
126.2917605401
 20
116.0762321135
  0
VERTEX
  8
0
 62
7
  6
CONTINUOUS
 10
126.3163122417
 20
115.9315073068
  0
VERTEX
  8
0
 62
7
  6
CONTINUOUS
 10
126.3381655541
 20
115.7812932402
  0
VERTEX
  8
0
 62
7
  6
CONTINUOUS
 10
126.3572463108
 20
115.6262751001
  0
VERTEX
  8
0
 62
7
  6
CONTINUOUS
 10
126.3734921033
 20
115.4671405161
  0
VERTEX
  8
0
 62
7
  6
CONTINUOUS
 10
126.3868515781
 20
115.3045773879
  0
VERTEX
  8
0
 62
7
  6
CONTINUOUS
 10
126.3972836955
 20
115.1392733731
  0
VERTEX
  8
0
 62
7
  6
CONTINUOUS
 10
126.4047571963
 20
114.9719144747
  0
VERTEX
  8
0
 62
7
  6
CONTINUOUS
 10
126.4092500326
 20
114.8031871814
  0
VERTEX
  8
0
 62
7
  6
CONTINUOUS
 10
126.4107491643
 20
114.6337692748
  0
SEQEND
  0
POLYLINE
  8
0
 62
7
  6
CONTINUOUS
 66
1
 70
0
  0
VERTEX
  8
0
 62
7
  6
CONTINUOUS
 10
131.7515419383
 20
111.958189267
  0
VERTEX
  8
0
 62
7
  6
CONTINUOUS
 10
131.7489059245
 20
112.0014011779
  0
VERTEX
  8
0
 62
7
  6
CONTINUOUS
 10
131.7410745704
 20
112.0548606555
  0
VERTEX
  8
0
 62
7
  6
CONTINUOUS
 10
131.7282019539
 20
112.1187906014
  0
VERTEX
  8
0
 62
7
  6
CONTINUOUS
 10
131.7105553621
 20
112.193205638
  0
VERTEX
  8
0
 62
7
  6
CONTINUOUS
 10
131.6884384219
 20
112.278304594
  0
VERTEX
  8
0
 62
7
  6
CONTINUOUS
 10
131.6623009487
 20
112.3740153858
  0
SEQEND
  0
POLYLINE
  8
0
 62
7
  6
CONTINUOUS
 66
1
 70
0
  0
VERTEX
  8
0
 62
7
  6
CONTINUOUS
 10
132.4699563904
 20
114.6337692748
  0
VERTEX
  8
0
 62
7
  6
CONTINUOUS
 10
132.4683987189
 20
114.8064595831
  0
VERTEX
  8
0
 62
7
  6
CONTINUOUS
 10
132.4637304053
 20
114.9784245301
  0
VERTEX
  8
0
 62
7
  6
CONTINUOUS
 10
132.4559654906
 20
115.1489407699
  0
VERTEX
  8
0
 62
7
  6
CONTINUOUS
 10
132.4451276748
 20
115.3172821373
  0
VERTEX
  8
0
 62
7
  6
CONTINUOUS
 10
132.4312507625
 20
115.4827206133
  0
VERTEX
  8
0
 62
7
  6
CONTINUOUS
 10
132.4143790911
 20
115.6445279074
  0
VERTEX
  8
0
 62
7
  6
CONTINUOUS
 10
132.3945682987
 20
115.8019746654
  0
VERTEX
  8
0
 62
7
  6
CONTINUOUS
 10
132.3718860609
 20
115.9543322936
  0
VERTEX
  8
0
 62
7
  6
CONTINUOUS
 10
132.3464130222
 20
116.1008744812
  0
VERTEX
  8
0
 62
7
  6
CONTINUOUS
 10
132.3182432758
 20
116.2408822079
  0
VERTEX
  8
0
 62
7
  6
CONTINUOUS
 10
132.2874852688
 20
116.3736463375
  0
VERTEX
  8
0
 62
7
  6
CONTINUOUS
 10
132.2542624553
 20
116.4984724015
  0
VERTEX
  8
0
 62
7
  6
CONTINUOUS
 10
132.2187138833
 20
116.6146859387
  0
VERTEX
  8
0
 62
7
  6
CONTINUOUS
 10
132.1809941413
 20
116.7216399384
  0
VERTEX
  8
0
 62
7
  6
CONTINUOUS
 10
132.1412734443
 20
116.8187211732
  0
VERTEX
  8
0
 62
7
  6
CONTINUOUS
 10
132.0997374742
 20
116.9053570943
  0
VERTEX
  8
0
 62
7
  6
CONTINUOUS
 10
132.056586783
 20
116.9810233585
  0
VERTEX
  8
0
 62
7
  6
CONTINUOUS
 10
132.0120356542
 20
117.0452515584
  0
VERTEX
  8
0
 62
7
  6
CONTINUOUS
 10
131.9663107409
 20
117.0976361705
  0
VERTEX
  8
0
 62
7
  6
CONTINUOUS
 10
131.9196615417
 20
117.1378320321
  0
SEQEND
  0
POLYLINE
  8
0
 62
7
  6
CONTINUOUS
 66
1
 70
0
  0
VERTEX
  8
0
 62
7
  6
CONTINUOUS
 10
131.3923347123
 20
114.4337692748
  0
VERTEX
  8
0
 62
7
  6
CONTINUOUS
 10
131.3938338515
 20
114.2643509402
  0
VERTEX
  8
0
 62
7
  6
CONTINUOUS
 10
131.3983267063
 20
114.0956233433
  0
VERTEX
  8
0
 62
7
  6
CONTINUOUS
 10
131.4058002304
 20
113.92826426
  0
VERTEX
  8
0
 62
7
  6
CONTINUOUS
 10
131.416232371
 20
113.7629601624
  0
VERTEX
  8
0
 62
7
  6
CONTINUOUS
 10
131.4295918645
 20
113.6003970425
  0
VERTEX
  8
0
 62
7
  6
CONTINUOUS
 10
131.4458376682
 20
113.4412625381
  0
VERTEX
  8
0
 62
7
  6
CONTINUOUS
 10
131.464918425
 20
113.2862445449
  0
VERTEX
  8
0
 62
7
  6
CONTINUOUS
 10
131.4867717218
 20
113.1360306903
  0
VERTEX
  8
0
 62
7
  6
CONTINUOUS
 10
131.5113233932
 20
112.9913061254
  0
VERTEX
  8
0
 62
7
  6
CONTINUOUS
 10
131.5384868606
 20
112.8527505856
  0
VERTEX
  8
0
 62
7
  6
CONTINUOUS
 10
131.5681623576
 20
112.7210355317
  0
VERTEX
  8
0
 62
7
  6
CONTINUOUS
 10
131.6002342952
 20
112.5968271931
  0
SEQEND
  0
LINE
  8
0
 62
7
  6
CONTINUOUS
 10
131.3923347123
 20
114.6337692748
 11
131.3923347123
 21
114.4337692748
  0
LINE
  8
0
 62
7
  6
CONTINUOUS
 10
131.7515419383
 20
120.2837692748
 11
131.7515419383
 21
117.1093492826
  0
LINE
  8
0
 62
7
  6
CONTINUOUS
 10
131.7515419383
 20
108.7837692748
 11
131.7515419383
 21
111.958189267
  0
LINE
  8
0
 62
7
  6
CONTINUOUS
 10
132.4699563904
 20
114.4337692748
 11
132.4699563904
 21
114.6337692748
  0
POLYLINE
  8
0
 62
7
  6
CONTINUOUS
 66
1
 70
0
  0
VERTEX
  8
0
 62
7
  6
CONTINUOUS
 10
157.3196615417
 20
111.9297065175
  0
VERTEX
  8
0
 62
7
  6
CONTINUOUS
 10
157.2797286587
 20
111.9040657073
  0
VERTEX
  8
0
 62
7
  6
CONTINUOUS
 10
157.2453565233
 20
111.88880649
  0
VERTEX
  8
0
 62
7
  6
CONTINUOUS
 10
157.2165782199
 20
111.8837692748
  0
SEQEND
  0
POLYLINE
  8
0
 62
7
  6
CONTINUOUS
 66
1
 70
0
  0
VERTEX
  8
0
 62
7
  6
CONTINUOUS
 10
138.7515419383
 20
117.1093492826
  0
VERTEX
  8
0
 62
7
  6
CONTINUOUS
 10
138.7541781065
 20
117.0661359523
  0
VERTEX
  8
0
 62
7
  6
CONTINUOUS
 10
138.7620086067
 20
117.0126818458
  0
VERTEX
  8
0
 62
7
  6
CONTINUOUS
 10
138.7748797973
 20
116.9487575496
  0
VERTEX
  8
0
 62
7
  6
CONTINUOUS
 10
138.792525536
 20
116.8743448216
  0
VERTEX
  8
0
 62
7
  6
CONTINUOUS
 10
138.8146431483
 20
116.7892425694
  0
VERTEX
  8
0
 62
7
  6
CONTINUOUS
 10
138.8407830349
 20
116.6935227774
  0
SEQEND
  0
LINE
  8
0
 62
7
  6
CONTINUOUS
 10
138.0331274862
 20
114.4337692748
 11
138.0331274862
 21
114.6337692748
  0
LINE
  8
0
 62
7
  6
CONTINUOUS
 10
138.7515419383
 20
120.2837692748
 11
138.7515419383
 21
117.1093492826
  0
LINE
  8
0
 62
7
  6
CONTINUOUS
 10
138.7515419383
 20
111.958189267
 11
138.7515419383
 21
108.7837692748
  0
LINE
  8
0
 62
7
  6
CONTINUOUS
 10
139.1107491643
 20
114.6337692748
 11
139.1107491643
 21
114.4337692748
  0
POLYLINE
  8
0
 62
7
  6
CONTINUOUS
 66
1
 70
0
  0
VERTEX
  8
0
 62
7
  6
CONTINUOUS
 10
139.1107491643
 20
114.4337692748
  0
VERTEX
  8
0
 62
7
  6
CONTINUOUS
 10
139.109250025
 20
114.2643509402
  0
VERTEX
  8
0
 62
7
  6
CONTINUOUS
 10
139.1047571703
 20
114.0956233434
  0
VERTEX
  8
0
 62
7
  6
CONTINUOUS
 10
139.0972836461
 20
113.9282642602
  0
VERTEX
  8
0
 62
7
  6
CONTINUOUS
 10
139.0868515056
 20
113.7629601627
  0
VERTEX
  8
0
 62
7
  6
CONTINUOUS
 10
139.0734920121
 20
113.6003970429
  0
VERTEX
  8
0
 62
7
  6
CONTINUOUS
 10
139.0572462084
 20
113.4412625386
  0
VERTEX
  8
0
 62
7
  6
CONTINUOUS
 10
139.0381654517
 20
113.2862445455
  0
VERTEX
  8
0
 62
7
  6
CONTINUOUS
 10
139.0163121549
 20
113.1360306909
  0
VERTEX
  8
0
 62
7
  6
CONTINUOUS
 10
138.9917604835
 20
112.9913061261
  0
VERTEX
  8
0
 62
7
  6
CONTINUOUS
 10
138.9645970161
 20
112.8527505863
  0
VERTEX
  8
0
 62
7
  6
CONTINUOUS
 10
138.9349215191
 20
112.7210355323
  0
VERTEX
  8
0
 62
7
  6
CONTINUOUS
 10
138.9028495813
 20
112.5968271931
  0
SEQEND
  0
POLYLINE
  8
0
 62
7
  6
CONTINUOUS
 66
1
 70
0
  0
VERTEX
  8
0
 62
7
  6
CONTINUOUS
 10
138.0331274862
 20
114.6337692748
  0
VERTEX
  8
0
 62
7
  6
CONTINUOUS
 10
138.0346851576
 20
114.8064595831
  0
VERTEX
  8
0
 62
7
  6
CONTINUOUS
 10
138.0393534713
 20
114.9784245301
  0
VERTEX
  8
0
 62
7
  6
CONTINUOUS
 10
138.047118386
 20
115.1489407699
  0
VERTEX
  8
0
 62
7
  6
CONTINUOUS
 10
138.0579562017
 20
115.3172821373
  0
VERTEX
  8
0
 62
7
  6
CONTINUOUS
 10
138.0718331141
 20
115.4827206133
  0
VERTEX
  8
0
 62
7
  6
CONTINUOUS
 10
138.0887047855
 20
115.6445279074
  0
VERTEX
  8
0
 62
7
  6
CONTINUOUS
 10
138.1085155779
 20
115.8019746654
  0
VERTEX
  8
0
 62
7
  6
CONTINUOUS
 10
138.1311978156
 20
115.9543322936
  0
VERTEX
  8
0
 62
7
  6
CONTINUOUS
 10
138.1566708543
 20
116.1008744812
  0
VERTEX
  8
0
 62
7
  6
CONTINUOUS
 10
138.1848406008
 20
116.2408822079
  0
VERTEX
  8
0
 62
7
  6
CONTINUOUS
 10
138.2155986077
 20
116.3736463375
  0
VERTEX
  8
0
 62
7
  6
CONTINUOUS
 10
138.2488214212
 20
116.4984724015
  0
VERTEX
  8
0
 62
7
  6
CONTINUOUS
 10
138.2843699932
 20
116.6146859387
  0
VERTEX
  8
0
 62
7
  6
CONTINUOUS
 10
138.3220897352
 20
116.7216399384
  0
VERTEX
  8
0
 62
7
  6
CONTINUOUS
 10
138.3618104323
 20
116.8187211732
  0
VERTEX
  8
0
 62
7
  6
CONTINUOUS
 10
138.4033464024
 20
116.9053570943
  0
VERTEX
  8
0
 62
7
  6
CONTINUOUS
 10
138.4464970936
 20
116.9810233585
  0
VERTEX
  8
0
 62
7
  6
CONTINUOUS
 10
138.4910482223
 20
117.0452515584
  0
VERTEX
  8
0
 62
7
  6
CONTINUOUS
 10
138.5367731356
 20
117.0976361705
  0
VERTEX
  8
0
 62
7
  6
CONTINUOUS
 10
138.5834223349
 20
117.1378320321
  0
SEQEND
  0
POLYLINE
  8
0
 62
7
  6
CONTINUOUS
 66
1
 70
0
  0
VERTEX
  8
0
 62
7
  6
CONTINUOUS
 10
138.9028495813
 20
112.5968271931
  0
VERTEX
  8
0
 62
7
  6
CONTINUOUS
 10
138.8407839916
 20
112.3740192259
  0
VERTEX
  8
0
 62
7
  6
CONTINUOUS
 10
138.8146466105
 20
112.2783089107
  0
VERTEX
  8
0
 62
7
  6
CONTINUOUS
 10
138.7925294126
 20
112.1932092294
  0
VERTEX
  8
0
 62
7
  6
CONTINUOUS
 10
138.7748823282
 20
112.1187924335
  0
VERTEX
  8
0
 62
7
  6
CONTINUOUS
 10
138.7620092978
 20
112.0548606082
  0
VERTEX
  8
0
 62
7
  6
CONTINUOUS
 10
138.7541778696
 20
112.0014004201
  0
VERTEX
  8
0
 62
7
  6
CONTINUOUS
 10
138.7515419383
 20
111.958189267
  0
SEQEND
  0
POLYLINE
  8
0
 62
7
  6
CONTINUOUS
 66
1
 70
0
  0
VERTEX
  8
0
 62
7
  6
CONTINUOUS
 10
157.3196615417
 20
111.9297065175
  0
VERTEX
  8
0
 62
7
  6
CONTINUOUS
 10
157.3663106478
 20
111.9699022858
  0
VERTEX
  8
0
 62
7
  6
CONTINUOUS
 10
157.4120355118
 20
112.0222868072
  0
VERTEX
  8
0
 62
7
  6
CONTINUOUS
 10
157.4565866273
 20
112.0865149427
  0
VERTEX
  8
0
 62
7
  6
CONTINUOUS
 10
157.4997373339
 20
112.1621811864
  0
VERTEX
  8
0
 62
7
  6
CONTINUOUS
 10
157.5412733421
 20
112.2488171453
  0
VERTEX
  8
0
 62
7
  6
CONTINUOUS
 10
157.5809940933
 20
112.3458984847
  0
VERTEX
  8
0
 62
7
  6
CONTINUOUS
 10
157.6187138967
 20
112.4528526517
  0
VERTEX
  8
0
 62
7
  6
CONTINUOUS
 10
157.6542625305
 20
112.5690664116
  0
VERTEX
  8
0
 62
7
  6
CONTINUOUS
 10
157.6874854012
 20
112.6938927453
  0
VERTEX
  8
0
 62
7
  6
CONTINUOUS
 10
157.718243455
 20
112.8266571715
  0
VERTEX
  8
0
 62
7
  6
CONTINUOUS
 10
157.7464132343
 20
112.9666652014
  0
VERTEX
  8
0
 62
7
  6
CONTINUOUS
 10
157.7718862906
 20
113.1132076821
  0
VERTEX
  8
0
 62
7
  6
CONTINUOUS
 10
157.7945685294
 20
113.2655655667
  0
VERTEX
  8
0
 62
7
  6
CONTINUOUS
 10
157.8143793053
 20
113.4230125071
  0
VERTEX
  8
0
 62
7
  6
CONTINUOUS
 10
157.8312509453
 20
113.5848198826
  0
VERTEX
  8
0
 62
7
  6
CONTINUOUS
 10
157.8451278161
 20
113.7502583202
  0
VERTEX
  8
0
 62
7
  6
CONTINUOUS
 10
157.8559655847
 20
113.9185994953
  0
VERTEX
  8
0
 62
7
  6
CONTINUOUS
 10
157.8637304541
 20
114.0891153641
  0
VERTEX
  8
0
 62
7
  6
CONTINUOUS
 10
157.8683987329
 20
114.2610797423
  0
VERTEX
  8
0
 62
7
  6
CONTINUOUS
 10
157.8699563904
 20
114.4337692748
  0
SEQEND
  0
POLYLINE
  8
0
 62
7
  6
CONTINUOUS
 66
1
 70
0
  0
VERTEX
  8
0
 62
7
  6
CONTINUOUS
 10
163.9834223349
 20
111.9297065175
  0
VERTEX
  8
0
 62
7
  6
CONTINUOUS
 10
163.9367732288
 20
111.9699022858
  0
VERTEX
  8
0
 62
7
  6
CONTINUOUS
 10
163.8910483648
 20
112.0222868072
  0
VERTEX
  8
0
 62
7
  6
CONTINUOUS
 10
163.8464972493
 20
112.0865149427
  0
VERTEX
  8
0
 62
7
  6
CONTINUOUS
 10
163.8033465427
 20
112.1621811864
  0
VERTEX
  8
0
 62
7
  6
CONTINUOUS
 10
163.7618105344
 20
112.2488171453
  0
VERTEX
  8
0
 62
7
  6
CONTINUOUS
 10
163.7220897832
 20
112.3458984847
  0
VERTEX
  8
0
 62
7
  6
CONTINUOUS
 10
163.6843699798
 20
112.4528526517
  0
VERTEX
  8
0
 62
7
  6
CONTINUOUS
 10
163.6488213461
 20
112.5690664116
  0
VERTEX
  8
0
 62
7
  6
CONTINUOUS
 10
163.6155984753
 20
112.6938927453
  0
VERTEX
  8
0
 62
7
  6
CONTINUOUS
 10
163.5848404216
 20
112.8266571715
  0
VERTEX
  8
0
 62
7
  6
CONTINUOUS
 10
163.5566706423
 20
112.9666652014
  0
VERTEX
  8
0
 62
7
  6
CONTINUOUS
 10
163.5311975859
 20
113.1132076821
  0
VERTEX
  8
0
 62
7
  6
CONTINUOUS
 10
163.5085153471
 20
113.2655655667
  0
VERTEX
  8
0
 62
7
  6
CONTINUOUS
 10
163.4887045713
 20
113.4230125071
  0
VERTEX
  8
0
 62
7
  6
CONTINUOUS
 10
163.4718329312
 20
113.5848198826
  0
VERTEX
  8
0
 62
7
  6
CONTINUOUS
 10
163.4579560605
 20
113.7502583202
  0
VERTEX
  8
0
 62
7
  6
CONTINUOUS
 10
163.4471182918
 20
113.9185994953
  0
VERTEX
  8
0
 62
7
  6
CONTINUOUS
 10
163.4393534224
 20
114.0891153641
  0
VERTEX
  8
0
 62
7
  6
CONTINUOUS
 10
163.4346851436
 20
114.2610797423
  0
VERTEX
  8
0
 62
7
  6
CONTINUOUS
 10
163.4331274862
 20
114.4337692748
  0
SEQEND
  0
LINE
  8
0
 62
7
  6
CONTINUOUS
 10
138.8407830349
 20
116.6935227774
 11
138.9028495813
 21
116.4707113566
  0
POLYLINE
  8
0
 62
7
  6
CONTINUOUS
 66
1
 70
0
  0
VERTEX
  8
0
 62
7
  6
CONTINUOUS
 10
138.9028495813
 20
116.4707113566
  0
VERTEX
  8
0
 62
7
  6
CONTINUOUS
 10
138.9349215162
 20
116.3465030296
  0
VERTEX
  8
0
 62
7
  6
CONTINUOUS
 10
138.9645970377
 20
116.2147878606
  0
VERTEX
  8
0
 62
7
  6
CONTINUOUS
 10
138.9917605401
 20
116.0762321135
  0
VERTEX
  8
0
 62
7
  6
CONTINUOUS
 10
139.0163122417
 20
115.9315073068
  0
VERTEX
  8
0
 62
7
  6
CONTINUOUS
 10
139.0381655541
 20
115.7812932402
  0
VERTEX
  8
0
 62
7
  6
CONTINUOUS
 10
139.0572463108
 20
115.6262751001
  0
VERTEX
  8
0
 62
7
  6
CONTINUOUS
 10
139.0734921033
 20
115.4671405161
  0
VERTEX
  8
0
 62
7
  6
CONTINUOUS
 10
139.0868515781
 20
115.3045773879
  0
VERTEX
  8
0
 62
7
  6
CONTINUOUS
 10
139.0972836955
 20
115.1392733731
  0
VERTEX
  8
0
 62
7
  6
CONTINUOUS
 10
139.1047571963
 20
114.9719144747
  0
VERTEX
  8
0
 62
7
  6
CONTINUOUS
 10
139.1092500326
 20
114.8031871814
  0
VERTEX
  8
0
 62
7
  6
CONTINUOUS
 10
139.1107491643
 20
114.6337692748
  0
SEQEND
  0
POLYLINE
  8
0
 62
7
  6
CONTINUOUS
 66
1
 70
0
  0
VERTEX
  8
0
 62
7
  6
CONTINUOUS
 10
144.4515419383
 20
111.958189267
  0
VERTEX
  8
0
 62
7
  6
CONTINUOUS
 10
144.4489059245
 20
112.0014011779
  0
VERTEX
  8
0
 62
7
  6
CONTINUOUS
 10
144.4410745704
 20
112.0548606555
  0
VERTEX
  8
0
 62
7
  6
CONTINUOUS
 10
144.4282019539
 20
112.1187906014
  0
VERTEX
  8
0
 62
7
  6
CONTINUOUS
 10
144.4105553621
 20
112.193205638
  0
VERTEX
  8
0
 62
7
  6
CONTINUOUS
 10
144.3884384219
 20
112.278304594
  0
VERTEX
  8
0
 62
7
  6
CONTINUOUS
 10
144.3623009487
 20
112.3740153858
  0
SEQEND
  0
POLYLINE
  8
0
 62
7
  6
CONTINUOUS
 66
1
 70
0
  0
VERTEX
  8
0
 62
7
  6
CONTINUOUS
 10
145.1699563904
 20
114.6337692748
  0
VERTEX
  8
0
 62
7
  6
CONTINUOUS
 10
145.1683987189
 20
114.8064595831
  0
VERTEX
  8
0
 62
7
  6
CONTINUOUS
 10
145.1637304053
 20
114.9784245301
  0
VERTEX
  8
0
 62
7
  6
CONTINUOUS
 10
145.1559654906
 20
115.1489407699
  0
VERTEX
  8
0
 62
7
  6
CONTINUOUS
 10
145.1451276748
 20
115.3172821373
  0
VERTEX
  8
0
 62
7
  6
CONTINUOUS
 10
145.1312507625
 20
115.4827206133
  0
VERTEX
  8
0
 62
7
  6
CONTINUOUS
 10
145.1143790911
 20
115.6445279074
  0
VERTEX
  8
0
 62
7
  6
CONTINUOUS
 10
145.0945682987
 20
115.8019746654
  0
VERTEX
  8
0
 62
7
  6
CONTINUOUS
 10
145.0718860609
 20
115.9543322936
  0
VERTEX
  8
0
 62
7
  6
CONTINUOUS
 10
145.0464130222
 20
116.1008744812
  0
VERTEX
  8
0
 62
7
  6
CONTINUOUS
 10
145.0182432758
 20
116.2408822079
  0
VERTEX
  8
0
 62
7
  6
CONTINUOUS
 10
144.9874852688
 20
116.3736463375
  0
VERTEX
  8
0
 62
7
  6
CONTINUOUS
 10
144.9542624553
 20
116.4984724015
  0
VERTEX
  8
0
 62
7
  6
CONTINUOUS
 10
144.9187138833
 20
116.6146859387
  0
VERTEX
  8
0
 62
7
  6
CONTINUOUS
 10
144.8809941413
 20
116.7216399384
  0
VERTEX
  8
0
 62
7
  6
CONTINUOUS
 10
144.8412734443
 20
116.8187211732
  0
VERTEX
  8
0
 62
7
  6
CONTINUOUS
 10
144.7997374742
 20
116.9053570943
  0
VERTEX
  8
0
 62
7
  6
CONTINUOUS
 10
144.756586783
 20
116.9810233585
  0
VERTEX
  8
0
 62
7
  6
CONTINUOUS
 10
144.7120356542
 20
117.0452515584
  0
VERTEX
  8
0
 62
7
  6
CONTINUOUS
 10
144.6663107409
 20
117.0976361705
  0
VERTEX
  8
0
 62
7
  6
CONTINUOUS
 10
144.6196615417
 20
117.1378320321
  0
SEQEND
  0
POLYLINE
  8
0
 62
7
  6
CONTINUOUS
 66
1
 70
0
  0
VERTEX
  8
0
 62
7
  6
CONTINUOUS
 10
144.0923347123
 20
114.4337692748
  0
VERTEX
  8
0
 62
7
  6
CONTINUOUS
 10
144.0938338515
 20
114.2643509402
  0
VERTEX
  8
0
 62
7
  6
CONTINUOUS
 10
144.0983267063
 20
114.0956233433
  0
VERTEX
  8
0
 62
7
  6
CONTINUOUS
 10
144.1058002304
 20
113.92826426
  0
VERTEX
  8
0
 62
7
  6
CONTINUOUS
 10
144.116232371
 20
113.7629601624
  0
VERTEX
  8
0
 62
7
  6
CONTINUOUS
 10
144.1295918645
 20
113.6003970425
  0
VERTEX
  8
0
 62
7
  6
CONTINUOUS
 10
144.1458376682
 20
113.4412625381
  0
VERTEX
  8
0
 62
7
  6
CONTINUOUS
 10
144.164918425
 20
113.2862445449
  0
VERTEX
  8
0
 62
7
  6
CONTINUOUS
 10
144.1867717218
 20
113.1360306903
  0
VERTEX
  8
0
 62
7
  6
CONTINUOUS
 10
144.2113233932
 20
112.9913061254
  0
VERTEX
  8
0
 62
7
  6
CONTINUOUS
 10
144.2384868606
 20
112.8527505856
  0
VERTEX
  8
0
 62
7
  6
CONTINUOUS
 10
144.2681623576
 20
112.7210355317
  0
VERTEX
  8
0
 62
7
  6
CONTINUOUS
 10
144.3002342952
 20
112.5968271931
  0
SEQEND
  0
LINE
  8
0
 62
7
  6
CONTINUOUS
 10
144.0923347123
 20
114.6337692748
 11
144.0923347123
 21
114.4337692748
  0
LINE
  8
0
 62
7
  6
CONTINUOUS
 10
144.4515419383
 20
108.7837692748
 11
144.4515419383
 21
111.958189267
  0
LINE
  8
0
 62
7
  6
CONTINUOUS
 10
144.4515419383
 20
117.1093492826
 11
144.4515419383
 21
120.2837692748
  0
LINE
  8
0
 62
7
  6
CONTINUOUS
 10
145.1699563904
 20
114.4337692748
 11
145.1699563904
 21
114.6337692748
  0
POLYLINE
  8
0
 62
7
  6
CONTINUOUS
 66
1
 70
0
  0
VERTEX
  8
0
 62
7
  6
CONTINUOUS
 10
144.3002342952
 20
116.4707113566
  0
VERTEX
  8
0
 62
7
  6
CONTINUOUS
 10
144.2681623605
 20
116.3465030302
  0
VERTEX
  8
0
 62
7
  6
CONTINUOUS
 10
144.238486839
 20
116.2147878612
  0
VERTEX
  8
0
 62
7
  6
CONTINUOUS
 10
144.2113233366
 20
116.0762321142
  0
VERTEX
  8
0
 62
7
  6
CONTINUOUS
 10
144.186771635
 20
115.9315073075
  0
VERTEX
  8
0
 62
7
  6
CONTINUOUS
 10
144.1649183226
 20
115.7812932408
  0
VERTEX
  8
0
 62
7
  6
CONTINUOUS
 10
144.1458375658
 20
115.6262751006
  0
VERTEX
  8
0
 62
7
  6
CONTINUOUS
 10
144.1295917733
 20
115.4671405165
  0
VERTEX
  8
0
 62
7
  6
CONTINUOUS
 10
144.1162322985
 20
115.3045773882
  0
VERTEX
  8
0
 62
7
  6
CONTINUOUS
 10
144.1058001811
 20
115.1392733732
  0
VERTEX
  8
0
 62
7
  6
CONTINUOUS
 10
144.0983266802
 20
114.9719144748
  0
VERTEX
  8
0
 62
7
  6
CONTINUOUS
 10
144.093833844
 20
114.8031871814
  0
VERTEX
  8
0
 62
7
  6
CONTINUOUS
 10
144.0923347123
 20
114.6337692748
  0
SEQEND
  0
POLYLINE
  8
0
 62
7
  6
CONTINUOUS
 66
1
 70
0
  0
VERTEX
  8
0
 62
7
  6
CONTINUOUS
 10
144.3002342952
 20
116.4707113566
  0
VERTEX
  8
0
 62
7
  6
CONTINUOUS
 10
144.3623018553
 20
116.6935264363
  0
VERTEX
  8
0
 62
7
  6
CONTINUOUS
 10
144.3884418643
 20
116.7892468122
  0
VERTEX
  8
0
 62
7
  6
CONTINUOUS
 10
144.4105592209
 20
116.8743483415
  0
VERTEX
  8
0
 62
7
  6
CONTINUOUS
 10
144.4282044754
 20
116.948759339
  0
VERTEX
  8
0
 62
7
  6
CONTINUOUS
 10
144.4410752575
 20
117.012681776
  0
VERTEX
  8
0
 62
7
  6
CONTINUOUS
 10
144.4489056931
 20
117.0661352444
  0
VERTEX
  8
0
 62
7
  6
CONTINUOUS
 10
144.4515419383
 20
117.1093492826
  0
SEQEND
  0
LINE
  8
0
 62
7
  6
CONTINUOUS
 10
144.3623009487
 20
112.3740153858
 11
144.3002342952
 21
112.5968271931
  0
POLYLINE
  8
0
 62
7
  6
CONTINUOUS
 66
1
 70
0
  0
VERTEX
  8
0
 62
7
  6
CONTINUOUS
 10
151.6028495813
 20
112.5968271931
  0
VERTEX
  8
0
 62
7
  6
CONTINUOUS
 10
151.5407839916
 20
112.3740192259
  0
VERTEX
  8
0
 62
7
  6
CONTINUOUS
 10
151.5146466105
 20
112.2783089107
  0
VERTEX
  8
0
 62
7
  6
CONTINUOUS
 10
151.4925294126
 20
112.1932092294
  0
VERTEX
  8
0
 62
7
  6
CONTINUOUS
 10
151.4748823282
 20
112.1187924335
  0
VERTEX
  8
0
 62
7
  6
CONTINUOUS
 10
151.4620092978
 20
112.0548606082
  0
VERTEX
  8
0
 62
7
  6
CONTINUOUS
 10
151.4541778696
 20
112.0014004201
  0
VERTEX
  8
0
 62
7
  6
CONTINUOUS
 10
151.4515419383
 20
111.958189267
  0
SEQEND
  0
LINE
  8
0
 62
7
  6
CONTINUOUS
 10
151.5407830349
 20
116.6935227774
 11
151.6028495813
 21
116.4707113566
  0
POLYLINE
  8
0
 62
7
  6
CONTINUOUS
 66
1
 70
0
  0
VERTEX
  8
0
 62
7
  6
CONTINUOUS
 10
151.6028495813
 20
116.4707113566
  0
VERTEX
  8
0
 62
7
  6
CONTINUOUS
 10
151.6349215162
 20
116.3465030296
  0
VERTEX
  8
0
 62
7
  6
CONTINUOUS
 10
151.6645970377
 20
116.2147878606
  0
VERTEX
  8
0
 62
7
  6
CONTINUOUS
 10
151.6917605401
 20
116.0762321135
  0
VERTEX
  8
0
 62
7
  6
CONTINUOUS
 10
151.7163122417
 20
115.9315073068
  0
VERTEX
  8
0
 62
7
  6
CONTINUOUS
 10
151.7381655541
 20
115.7812932402
  0
VERTEX
  8
0
 62
7
  6
CONTINUOUS
 10
151.7572463108
 20
115.6262751001
  0
VERTEX
  8
0
 62
7
  6
CONTINUOUS
 10
151.7734921033
 20
115.4671405161
  0
VERTEX
  8
0
 62
7
  6
CONTINUOUS
 10
151.7868515781
 20
115.3045773879
  0
VERTEX
  8
0
 62
7
  6
CONTINUOUS
 10
151.7972836955
 20
115.1392733731
  0
VERTEX
  8
0
 62
7
  6
CONTINUOUS
 10
151.8047571963
 20
114.9719144747
  0
VERTEX
  8
0
 62
7
  6
CONTINUOUS
 10
151.8092500326
 20
114.8031871814
  0
VERTEX
  8
0
 62
7
  6
CONTINUOUS
 10
151.8107491643
 20
114.6337692748
  0
SEQEND
  0
POLYLINE
  8
0
 62
7
  6
CONTINUOUS
 66
1
 70
0
  0
VERTEX
  8
0
 62
7
  6
CONTINUOUS
 10
151.4515419383
 20
117.1093492826
  0
VERTEX
  8
0
 62
7
  6
CONTINUOUS
 10
151.4541781065
 20
117.0661359523
  0
VERTEX
  8
0
 62
7
  6
CONTINUOUS
 10
151.4620086067
 20
117.0126818458
  0
VERTEX
  8
0
 62
7
  6
CONTINUOUS
 10
151.4748797973
 20
116.9487575496
  0
VERTEX
  8
0
 62
7
  6
CONTINUOUS
 10
151.492525536
 20
116.8743448216
  0
VERTEX
  8
0
 62
7
  6
CONTINUOUS
 10
151.5146431483
 20
116.7892425694
  0
VERTEX
  8
0
 62
7
  6
CONTINUOUS
 10
151.5407830349
 20
116.6935227774
  0
SEQEND
  0
LINE
  8
0
 62
7
  6
CONTINUOUS
 10
150.7331274862
 20
114.4337692748
 11
150.7331274862
 21
114.6337692748
  0
LINE
  8
0
 62
7
  6
CONTINUOUS
 10
151.4515419383
 20
120.2837692748
 11
151.4515419383
 21
117.1093492826
  0
LINE
  8
0
 62
7
  6
CONTINUOUS
 10
151.4515419383
 20
111.958189267
 11
151.4515419383
 21
108.7837692748
  0
LINE
  8
0
 62
7
  6
CONTINUOUS
 10
151.8107491643
 20
114.6337692748
 11
151.8107491643
 21
114.4337692748
  0
POLYLINE
  8
0
 62
7
  6
CONTINUOUS
 66
1
 70
0
  0
VERTEX
  8
0
 62
7
  6
CONTINUOUS
 10
151.8107491643
 20
114.4337692748
  0
VERTEX
  8
0
 62
7
  6
CONTINUOUS
 10
151.809250025
 20
114.2643509402
  0
VERTEX
  8
0
 62
7
  6
CONTINUOUS
 10
151.8047571703
 20
114.0956233434
  0
VERTEX
  8
0
 62
7
  6
CONTINUOUS
 10
151.7972836461
 20
113.9282642602
  0
VERTEX
  8
0
 62
7
  6
CONTINUOUS
 10
151.7868515056
 20
113.7629601627
  0
VERTEX
  8
0
 62
7
  6
CONTINUOUS
 10
151.7734920121
 20
113.6003970429
  0
VERTEX
  8
0
 62
7
  6
CONTINUOUS
 10
151.7572462084
 20
113.4412625386
  0
VERTEX
  8
0
 62
7
  6
CONTINUOUS
 10
151.7381654517
 20
113.2862445455
  0
VERTEX
  8
0
 62
7
  6
CONTINUOUS
 10
151.7163121549
 20
113.1360306909
  0
VERTEX
  8
0
 62
7
  6
CONTINUOUS
 10
151.6917604835
 20
112.9913061261
  0
VERTEX
  8
0
 62
7
  6
CONTINUOUS
 10
151.6645970161
 20
112.8527505863
  0
VERTEX
  8
0
 62
7
  6
CONTINUOUS
 10
151.6349215191
 20
112.7210355323
  0
VERTEX
  8
0
 62
7
  6
CONTINUOUS
 10
151.6028495813
 20
112.5968271931
  0
SEQEND
  0
POLYLINE
  8
0
 62
7
  6
CONTINUOUS
 66
1
 70
0
  0
VERTEX
  8
0
 62
7
  6
CONTINUOUS
 10
150.7331274862
 20
114.6337692748
  0
VERTEX
  8
0
 62
7
  6
CONTINUOUS
 10
150.7346851576
 20
114.8064595831
  0
VERTEX
  8
0
 62
7
  6
CONTINUOUS
 10
150.7393534713
 20
114.9784245301
  0
VERTEX
  8
0
 62
7
  6
CONTINUOUS
 10
150.747118386
 20
115.1489407699
  0
VERTEX
  8
0
 62
7
  6
CONTINUOUS
 10
150.7579562017
 20
115.3172821373
  0
VERTEX
  8
0
 62
7
  6
CONTINUOUS
 10
150.7718331141
 20
115.4827206133
  0
VERTEX
  8
0
 62
7
  6
CONTINUOUS
 10
150.7887047855
 20
115.6445279074
  0
VERTEX
  8
0
 62
7
  6
CONTINUOUS
 10
150.8085155779
 20
115.8019746654
  0
VERTEX
  8
0
 62
7
  6
CONTINUOUS
 10
150.8311978156
 20
115.9543322936
  0
VERTEX
  8
0
 62
7
  6
CONTINUOUS
 10
150.8566708543
 20
116.1008744812
  0
VERTEX
  8
0
 62
7
  6
CONTINUOUS
 10
150.8848406008
 20
116.2408822079
  0
VERTEX
  8
0
 62
7
  6
CONTINUOUS
 10
150.9155986077
 20
116.3736463375
  0
VERTEX
  8
0
 62
7
  6
CONTINUOUS
 10
150.9488214212
 20
116.4984724015
  0
VERTEX
  8
0
 62
7
  6
CONTINUOUS
 10
150.9843699932
 20
116.6146859387
  0
VERTEX
  8
0
 62
7
  6
CONTINUOUS
 10
151.0220897352
 20
116.7216399384
  0
VERTEX
  8
0
 62
7
  6
CONTINUOUS
 10
151.0618104323
 20
116.8187211732
  0
VERTEX
  8
0
 62
7
  6
CONTINUOUS
 10
151.1033464024
 20
116.9053570943
  0
VERTEX
  8
0
 62
7
  6
CONTINUOUS
 10
151.1464970936
 20
116.9810233585
  0
VERTEX
  8
0
 62
7
  6
CONTINUOUS
 10
151.1910482223
 20
117.0452515584
  0
VERTEX
  8
0
 62
7
  6
CONTINUOUS
 10
151.2367731356
 20
117.0976361705
  0
VERTEX
  8
0
 62
7
  6
CONTINUOUS
 10
151.2834223349
 20
117.1378320321
  0
SEQEND
  0
POLYLINE
  8
0
 62
7
  6
CONTINUOUS
 66
1
 70
0
  0
VERTEX
  8
0
 62
7
  6
CONTINUOUS
 10
157.0002342952
 20
116.4707113566
  0
VERTEX
  8
0
 62
7
  6
CONTINUOUS
 10
156.9681623605
 20
116.3465030302
  0
VERTEX
  8
0
 62
7
  6
CONTINUOUS
 10
156.938486839
 20
116.2147878612
  0
VERTEX
  8
0
 62
7
  6
CONTINUOUS
 10
156.9113233366
 20
116.0762321142
  0
VERTEX
  8
0
 62
7
  6
CONTINUOUS
 10
156.886771635
 20
115.9315073075
  0
VERTEX
  8
0
 62
7
  6
CONTINUOUS
 10
156.8649183226
 20
115.7812932408
  0
VERTEX
  8
0
 62
7
  6
CONTINUOUS
 10
156.8458375658
 20
115.6262751006
  0
VERTEX
  8
0
 62
7
  6
CONTINUOUS
 10
156.8295917733
 20
115.4671405165
  0
VERTEX
  8
0
 62
7
  6
CONTINUOUS
 10
156.8162322985
 20
115.3045773882
  0
VERTEX
  8
0
 62
7
  6
CONTINUOUS
 10
156.8058001811
 20
115.1392733732
  0
VERTEX
  8
0
 62
7
  6
CONTINUOUS
 10
156.7983266802
 20
114.9719144748
  0
VERTEX
  8
0
 62
7
  6
CONTINUOUS
 10
156.793833844
 20
114.8031871814
  0
VERTEX
  8
0
 62
7
  6
CONTINUOUS
 10
156.7923347123
 20
114.6337692748
  0
SEQEND
  0
POLYLINE
  8
0
 62
7
  6
CONTINUOUS
 66
1
 70
0
  0
VERTEX
  8
0
 62
7
  6
CONTINUOUS
 10
157.0002342952
 20
116.4707113566
  0
VERTEX
  8
0
 62
7
  6
CONTINUOUS
 10
157.0623018553
 20
116.6935264363
  0
VERTEX
  8
0
 62
7
  6
CONTINUOUS
 10
157.0884418643
 20
116.7892468122
  0
VERTEX
  8
0
 62
7
  6
CONTINUOUS
 10
157.1105592209
 20
116.8743483415
  0
VERTEX
  8
0
 62
7
  6
CONTINUOUS
 10
157.1282044754
 20
116.948759339
  0
VERTEX
  8
0
 62
7
  6
CONTINUOUS
 10
157.1410752575
 20
117.012681776
  0
VERTEX
  8
0
 62
7
  6
CONTINUOUS
 10
157.1489056931
 20
117.0661352444
  0
VERTEX
  8
0
 62
7
  6
CONTINUOUS
 10
157.1515419383
 20
117.1093492826
  0
SEQEND
  0
LINE
  8
0
 62
7
  6
CONTINUOUS
 10
157.0623009487
 20
112.3740153858
 11
157.0002342952
 21
112.5968271931
  0
POLYLINE
  8
0
 62
7
  6
CONTINUOUS
 66
1
 70
0
  0
VERTEX
  8
0
 62
7
  6
CONTINUOUS
 10
157.1515419383
 20
111.958189267
  0
VERTEX
  8
0
 62
7
  6
CONTINUOUS
 10
157.1489059245
 20
112.0014011779
  0
VERTEX
  8
0
 62
7
  6
CONTINUOUS
 10
157.1410745704
 20
112.0548606555
  0
VERTEX
  8
0
 62
7
  6
CONTINUOUS
 10
157.1282019539
 20
112.1187906014
  0
VERTEX
  8
0
 62
7
  6
CONTINUOUS
 10
157.1105553621
 20
112.193205638
  0
VERTEX
  8
0
 62
7
  6
CONTINUOUS
 10
157.0884384219
 20
112.278304594
  0
VERTEX
  8
0
 62
7
  6
CONTINUOUS
 10
157.0623009487
 20
112.3740153858
  0
SEQEND
  0
POLYLINE
  8
0
 62
7
  6
CONTINUOUS
 66
1
 70
0
  0
VERTEX
  8
0
 62
7
  6
CONTINUOUS
 10
157.8699563904
 20
114.6337692748
  0
VERTEX
  8
0
 62
7
  6
CONTINUOUS
 10
157.8683987189
 20
114.8064595831
  0
VERTEX
  8
0
 62
7
  6
CONTINUOUS
 10
157.8637304053
 20
114.9784245301
  0
VERTEX
  8
0
 62
7
  6
CONTINUOUS
 10
157.8559654906
 20
115.1489407699
  0
VERTEX
  8
0
 62
7
  6
CONTINUOUS
 10
157.8451276748
 20
115.3172821373
  0
VERTEX
  8
0
 62
7
  6
CONTINUOUS
 10
157.8312507625
 20
115.4827206133
  0
VERTEX
  8
0
 62
7
  6
CONTINUOUS
 10
157.8143790911
 20
115.6445279074
  0
VERTEX
  8
0
 62
7
  6
CONTINUOUS
 10
157.7945682987
 20
115.8019746654
  0
VERTEX
  8
0
 62
7
  6
CONTINUOUS
 10
157.7718860609
 20
115.9543322936
  0
VERTEX
  8
0
 62
7
  6
CONTINUOUS
 10
157.7464130222
 20
116.1008744812
  0
VERTEX
  8
0
 62
7
  6
CONTINUOUS
 10
157.7182432758
 20
116.2408822079
  0
VERTEX
  8
0
 62
7
  6
CONTINUOUS
 10
157.6874852688
 20
116.3736463375
  0
VERTEX
  8
0
 62
7
  6
CONTINUOUS
 10
157.6542624553
 20
116.4984724015
  0
VERTEX
  8
0
 62
7
  6
CONTINUOUS
 10
157.6187138833
 20
116.6146859387
  0
VERTEX
  8
0
 62
7
  6
CONTINUOUS
 10
157.5809941413
 20
116.7216399384
  0
VERTEX
  8
0
 62
7
  6
CONTINUOUS
 10
157.5412734443
 20
116.8187211732
  0
VERTEX
  8
0
 62
7
  6
CONTINUOUS
 10
157.4997374742
 20
116.9053570943
  0
VERTEX
  8
0
 62
7
  6
CONTINUOUS
 10
157.456586783
 20
116.9810233585
  0
VERTEX
  8
0
 62
7
  6
CONTINUOUS
 10
157.4120356542
 20
117.0452515584
  0
VERTEX
  8
0
 62
7
  6
CONTINUOUS
 10
157.3663107409
 20
117.0976361705
  0
VERTEX
  8
0
 62
7
  6
CONTINUOUS
 10
157.3196615417
 20
117.1378320321
  0
SEQEND
  0
POLYLINE
  8
0
 62
7
  6
CONTINUOUS
 66
1
 70
0
  0
VERTEX
  8
0
 62
7
  6
CONTINUOUS
 10
156.7923347123
 20
114.4337692748
  0
VERTEX
  8
0
 62
7
  6
CONTINUOUS
 10
156.7938338515
 20
114.2643509402
  0
VERTEX
  8
0
 62
7
  6
CONTINUOUS
 10
156.7983267063
 20
114.0956233433
  0
VERTEX
  8
0
 62
7
  6
CONTINUOUS
 10
156.8058002304
 20
113.92826426
  0
VERTEX
  8
0
 62
7
  6
CONTINUOUS
 10
156.816232371
 20
113.7629601624
  0
VERTEX
  8
0
 62
7
  6
CONTINUOUS
 10
156.8295918645
 20
113.6003970425
  0
VERTEX
  8
0
 62
7
  6
CONTINUOUS
 10
156.8458376682
 20
113.4412625381
  0
VERTEX
  8
0
 62
7
  6
CONTINUOUS
 10
156.864918425
 20
113.2862445449
  0
VERTEX
  8
0
 62
7
  6
CONTINUOUS
 10
156.8867717218
 20
113.1360306903
  0
VERTEX
  8
0
 62
7
  6
CONTINUOUS
 10
156.9113233932
 20
112.9913061254
  0
VERTEX
  8
0
 62
7
  6
CONTINUOUS
 10
156.9384868606
 20
112.8527505856
  0
VERTEX
  8
0
 62
7
  6
CONTINUOUS
 10
156.9681623576
 20
112.7210355317
  0
VERTEX
  8
0
 62
7
  6
CONTINUOUS
 10
157.0002342952
 20
112.5968271931
  0
SEQEND
  0
LINE
  8
0
 62
7
  6
CONTINUOUS
 10
156.7923347123
 20
114.6337692748
 11
156.7923347123
 21
114.4337692748
  0
LINE
  8
0
 62
7
  6
CONTINUOUS
 10
157.1515419383
 20
111.958189267
 11
157.1515419383
 21
108.7837692748
  0
LINE
  8
0
 62
7
  6
CONTINUOUS
 10
157.1515419383
 20
117.1093492826
 11
157.1515419383
 21
120.2837692748
  0
LINE
  8
0
 62
7
  6
CONTINUOUS
 10
157.8699563904
 20
114.4337692748
 11
157.8699563904
 21
114.6337692748
  0
POLYLINE
  8
0
 62
7
  6
CONTINUOUS
 66
1
 70
0
  0
VERTEX
  8
0
 62
7
  6
CONTINUOUS
 10
164.1515419383
 20
117.1093492826
  0
VERTEX
  8
0
 62
7
  6
CONTINUOUS
 10
164.1541781065
 20
117.0661359523
  0
VERTEX
  8
0
 62
7
  6
CONTINUOUS
 10
164.1620086067
 20
117.0126818458
  0
VERTEX
  8
0
 62
7
  6
CONTINUOUS
 10
164.1748797973
 20
116.9487575496
  0
VERTEX
  8
0
 62
7
  6
CONTINUOUS
 10
164.192525536
 20
116.8743448216
  0
VERTEX
  8
0
 62
7
  6
CONTINUOUS
 10
164.2146431483
 20
116.7892425694
  0
VERTEX
  8
0
 62
7
  6
CONTINUOUS
 10
164.2407830349
 20
116.6935227774
  0
SEQEND
  0
POLYLINE
  8
0
 62
7
  6
CONTINUOUS
 66
1
 70
0
  0
VERTEX
  8
0
 62
7
  6
CONTINUOUS
 10
169.8515419383
 20
112.0043296233
  0
VERTEX
  8
0
 62
7
  6
CONTINUOUS
 10
169.8489988945
 20
112.0578704576
  0
VERTEX
  8
0
 62
7
  6
CONTINUOUS
 10
169.8414550852
 20
112.1218736751
  0
VERTEX
  8
0
 62
7
  6
CONTINUOUS
 10
169.8291406533
 20
112.1963286594
  0
VERTEX
  8
0
 62
7
  6
CONTINUOUS
 10
169.8124187083
 20
112.2810780424
  0
VERTEX
  8
0
 62
7
  6
CONTINUOUS
 10
169.7917378053
 20
112.3759953097
  0
VERTEX
  8
0
 62
7
  6
CONTINUOUS
 10
169.767542094
 20
112.4812890858
  0
SEQEND
  0
POLYLINE
  8
0
 62
7
  6
CONTINUOUS
 66
1
 70
0
  0
VERTEX
  8
0
 62
7
  6
CONTINUOUS
 10
169.525708605
 20
114.4337692748
  0
VERTEX
  8
0
 62
7
  6
CONTINUOUS
 10
169.5272998832
 20
114.2646200308
  0
VERTEX
  8
0
 62
7
  6
CONTINUOUS
 10
169.532069494
 20
114.0961422747
  0
VERTEX
  8
0
 62
7
  6
CONTINUOUS
 10
169.540004662
 20
113.929008786
  0
VERTEX
  8
0
 62
7
  6
CONTINUOUS
 10
169.5510837932
 20
113.7638942962
  0
VERTEX
  8
0
 62
7
  6
CONTINUOUS
 10
169.5652759817
 20
113.6014767903
  0
VERTEX
  8
0
 62
7
  6
CONTINUOUS
 10
169.582540417
 20
113.442437277
  0
VERTEX
  8
0
 62
7
  6
CONTINUOUS
 10
169.6028256061
 20
113.2874598287
  0
VERTEX
  8
0
 62
7
  6
CONTINUOUS
 10
169.6260685071
 20
113.1372306101
  0
VERTEX
  8
0
 62
7
  6
CONTINUOUS
 10
169.6521936759
 20
112.992435747
  0
VERTEX
  8
0
 62
7
  6
CONTINUOUS
 10
169.6811122067
 20
112.8537594961
  0
SEQEND
  0
LINE
  8
0
 62
7
  6
CONTINUOUS
 10
163.4331274862
 20
114.4337692748
 11
163.4331274862
 21
114.6337692748
  0
LINE
  8
0
 62
7
  6
CONTINUOUS
 10
164.1515419383
 20
120.2837692748
 11
164.1515419383
 21
117.1093492826
  0
LINE
  8
0
 62
7
  6
CONTINUOUS
 10
164.1515419383
 20
111.958189267
 11
164.1515419383
 21
108.7837692748
  0
LINE
  8
0
 62
7
  6
CONTINUOUS
 10
164.5107491643
 20
114.6337692748
 11
164.5107491643
 21
114.4337692748
  0
LINE
  8
0
 62
7
  6
CONTINUOUS
 10
169.525708605
 20
114.6337692748
 11
169.525708605
 21
114.4337692748
  0
LINE
  8
0
 62
7
  6
CONTINUOUS
 10
169.8515419383
 20
108.7837692748
 11
169.8515419383
 21
112.0043296233
  0
LINE
  8
0
 62
7
  6
CONTINUOUS
 10
169.8515419383
 20
117.0632089263
 11
169.8515419383
 21
120.2837692748
  0
POLYLINE
  8
0
 62
7
  6
CONTINUOUS
 66
1
 70
0
  0
VERTEX
  8
0
 62
7
  6
CONTINUOUS
 10
164.5107491643
 20
114.4337692748
  0
VERTEX
  8
0
 62
7
  6
CONTINUOUS
 10
164.509250025
 20
114.2643509402
  0
VERTEX
  8
0
 62
7
  6
CONTINUOUS
 10
164.5047571703
 20
114.0956233434
  0
VERTEX
  8
0
 62
7
  6
CONTINUOUS
 10
164.4972836461
 20
113.9282642602
  0
VERTEX
  8
0
 62
7
  6
CONTINUOUS
 10
164.4868515056
 20
113.7629601627
  0
VERTEX
  8
0
 62
7
  6
CONTINUOUS
 10
164.4734920121
 20
113.6003970429
  0
VERTEX
  8
0
 62
7
  6
CONTINUOUS
 10
164.4572462084
 20
113.4412625386
  0
VERTEX
  8
0
 62
7
  6
CONTINUOUS
 10
164.4381654517
 20
113.2862445455
  0
VERTEX
  8
0
 62
7
  6
CONTINUOUS
 10
164.4163121549
 20
113.1360306909
  0
VERTEX
  8
0
 62
7
  6
CONTINUOUS
 10
164.3917604835
 20
112.9913061261
  0
VERTEX
  8
0
 62
7
  6
CONTINUOUS
 10
164.3645970161
 20
112.8527505863
  0
VERTEX
  8
0
 62
7
  6
CONTINUOUS
 10
164.3349215191
 20
112.7210355323
  0
VERTEX
  8
0
 62
7
  6
CONTINUOUS
 10
164.3028495813
 20
112.5968271931
  0
SEQEND
  0
POLYLINE
  8
0
 62
7
  6
CONTINUOUS
 66
1
 70
0
  0
VERTEX
  8
0
 62
7
  6
CONTINUOUS
 10
163.4331274862
 20
114.6337692748
  0
VERTEX
  8
0
 62
7
  6
CONTINUOUS
 10
163.4346851576
 20
114.8064595831
  0
VERTEX
  8
0
 62
7
  6
CONTINUOUS
 10
163.4393534713
 20
114.9784245301
  0
VERTEX
  8
0
 62
7
  6
CONTINUOUS
 10
163.447118386
 20
115.1489407699
  0
VERTEX
  8
0
 62
7
  6
CONTINUOUS
 10
163.4579562017
 20
115.3172821373
  0
VERTEX
  8
0
 62
7
  6
CONTINUOUS
 10
163.4718331141
 20
115.4827206133
  0
VERTEX
  8
0
 62
7
  6
CONTINUOUS
 10
163.4887047855
 20
115.6445279074
  0
VERTEX
  8
0
 62
7
  6
CONTINUOUS
 10
163.5085155779
 20
115.8019746654
  0
VERTEX
  8
0
 62
7
  6
CONTINUOUS
 10
163.5311978156
 20
115.9543322936
  0
VERTEX
  8
0
 62
7
  6
CONTINUOUS
 10
163.5566708543
 20
116.1008744812
  0
VERTEX
  8
0
 62
7
  6
CONTINUOUS
 10
163.5848406008
 20
116.2408822079
  0
VERTEX
  8
0
 62
7
  6
CONTINUOUS
 10
163.6155986077
 20
116.3736463375
  0
VERTEX
  8
0
 62
7
  6
CONTINUOUS
 10
163.6488214212
 20
116.4984724015
  0
VERTEX
  8
0
 62
7
  6
CONTINUOUS
 10
163.6843699932
 20
116.6146859387
  0
VERTEX
  8
0
 62
7
  6
CONTINUOUS
 10
163.7220897352
 20
116.7216399384
  0
VERTEX
  8
0
 62
7
  6
CONTINUOUS
 10
163.7618104323
 20
116.8187211732
  0
VERTEX
  8
0
 62
7
  6
CONTINUOUS
 10
163.8033464024
 20
116.9053570943
  0
VERTEX
  8
0
 62
7
  6
CONTINUOUS
 10
163.8464970936
 20
116.9810233585
  0
VERTEX
  8
0
 62
7
  6
CONTINUOUS
 10
163.8910482223
 20
117.0452515584
  0
VERTEX
  8
0
 62
7
  6
CONTINUOUS
 10
163.9367731356
 20
117.0976361705
  0
VERTEX
  8
0
 62
7
  6
CONTINUOUS
 10
163.9834223349
 20
117.1378320321
  0
SEQEND
  0
POLYLINE
  8
0
 62
7
  6
CONTINUOUS
 66
1
 70
0
  0
VERTEX
  8
0
 62
7
  6
CONTINUOUS
 10
169.6811122067
 20
116.2137790535
  0
VERTEX
  8
0
 62
7
  6
CONTINUOUS
 10
169.6521936668
 20
116.0751027558
  0
VERTEX
  8
0
 62
7
  6
CONTINUOUS
 10
169.6260684727
 20
115.930307734
  0
VERTEX
  8
0
 62
7
  6
CONTINUOUS
 10
169.6028255473
 20
115.7800783091
  0
VERTEX
  8
0
 62
7
  6
CONTINUOUS
 10
169.5825403468
 20
115.6251006861
  0
VERTEX
  8
0
 62
7
  6
CONTINUOUS
 10
169.5652759144
 20
115.4660610721
  0
VERTEX
  8
0
 62
7
  6
CONTINUOUS
 10
169.5510837376
 20
115.3036435326
  0
VERTEX
  8
0
 62
7
  6
CONTINUOUS
 10
169.5400046231
 20
115.1385290831
  0
VERTEX
  8
0
 62
7
  6
CONTINUOUS
 10
169.532069473
 20
114.9713957194
  0
VERTEX
  8
0
 62
7
  6
CONTINUOUS
 10
169.527299877
 20
114.8029181879
  0
VERTEX
  8
0
 62
7
  6
CONTINUOUS
 10
169.525708605
 20
114.6337692748
  0
SEQEND
  0
LINE
  8
0
 62
7
  6
CONTINUOUS
 10
169.6811122067
 20
116.2137790535
 11
169.71136721
 21
116.3464696469
  0
POLYLINE
  8
0
 62
7
  6
CONTINUOUS
 66
1
 70
0
  0
VERTEX
  8
0
 62
7
  6
CONTINUOUS
 10
169.71136721
 20
116.3464696469
  0
VERTEX
  8
0
 62
7
  6
CONTINUOUS
 10
169.7675528426
 20
116.5862955399
  0
VERTEX
  8
0
 62
7
  6
CONTINUOUS
 10
169.7917471516
 20
116.6915847772
  0
VERTEX
  8
0
 62
7
  6
CONTINUOUS
 10
169.8124282672
 20
116.7865062373
  0
VERTEX
  8
0
 62
7
  6
CONTINUOUS
 10
169.8291478548
 20
116.8712492033
  0
VERTEX
  8
0
 62
7
  6
CONTINUOUS
 10
169.8414588145
 20
116.9456907539
  0
VERTEX
  8
0
 62
7
  6
CONTINUOUS
 10
169.8489998394
 20
117.0096790423
  0
VERTEX
  8
0
 62
7
  6
CONTINUOUS
 10
169.8515419383
 20
117.0632089263
  0
SEQEND
  0
POLYLINE
  8
0
 62
7
  6
CONTINUOUS
 66
1
 70
0
  0
VERTEX
  8
0
 62
7
  6
CONTINUOUS
 10
164.3028495813
 20
112.5968271931
  0
VERTEX
  8
0
 62
7
  6
CONTINUOUS
 10
164.2407839916
 20
112.3740192259
  0
VERTEX
  8
0
 62
7
  6
CONTINUOUS
 10
164.2146466105
 20
112.2783089107
  0
VERTEX
  8
0
 62
7
  6
CONTINUOUS
 10
164.1925294126
 20
112.1932092294
  0
VERTEX
  8
0
 62
7
  6
CONTINUOUS
 10
164.1748823282
 20
112.1187924335
  0
VERTEX
  8
0
 62
7
  6
CONTINUOUS
 10
164.1620092978
 20
112.0548606082
  0
VERTEX
  8
0
 62
7
  6
CONTINUOUS
 10
164.1541778696
 20
112.0014004201
  0
VERTEX
  8
0
 62
7
  6
CONTINUOUS
 10
164.1515419383
 20
111.958189267
  0
SEQEND
  0
LINE
  8
0
 62
7
  6
CONTINUOUS
 10
164.2407830349
 20
116.6935227774
 11
164.3028495813
 21
116.4707113566
  0
POLYLINE
  8
0
 62
7
  6
CONTINUOUS
 66
1
 70
0
  0
VERTEX
  8
0
 62
7
  6
CONTINUOUS
 10
164.3028495813
 20
116.4707113566
  0
VERTEX
  8
0
 62
7
  6
CONTINUOUS
 10
164.3349215162
 20
116.3465030296
  0
VERTEX
  8
0
 62
7
  6
CONTINUOUS
 10
164.3645970377
 20
116.2147878606
  0
VERTEX
  8
0
 62
7
  6
CONTINUOUS
 10
164.3917605401
 20
116.0762321135
  0
VERTEX
  8
0
 62
7
  6
CONTINUOUS
 10
164.4163122417
 20
115.9315073068
  0
VERTEX
  8
0
 62
7
  6
CONTINUOUS
 10
164.4381655541
 20
115.7812932402
  0
VERTEX
  8
0
 62
7
  6
CONTINUOUS
 10
164.4572463108
 20
115.6262751001
  0
VERTEX
  8
0
 62
7
  6
CONTINUOUS
 10
164.4734921033
 20
115.4671405161
  0
VERTEX
  8
0
 62
7
  6
CONTINUOUS
 10
164.4868515781
 20
115.3045773879
  0
VERTEX
  8
0
 62
7
  6
CONTINUOUS
 10
164.4972836955
 20
115.1392733731
  0
VERTEX
  8
0
 62
7
  6
CONTINUOUS
 10
164.5047571963
 20
114.9719144747
  0
VERTEX
  8
0
 62
7
  6
CONTINUOUS
 10
164.5092500326
 20
114.8031871814
  0
VERTEX
  8
0
 62
7
  6
CONTINUOUS
 10
164.5107491643
 20
114.6337692748
  0
SEQEND
  0
POLYLINE
  8
0
 62
7
  6
CONTINUOUS
 66
1
 70
0
  0
VERTEX
  8
0
 62
7
  6
CONTINUOUS
 10
169.767542094
 20
112.4812890858
  0
VERTEX
  8
0
 62
7
  6
CONTINUOUS
 10
169.711361414
 20
112.7210939151
  0
VERTEX
  8
0
 62
7
  6
CONTINUOUS
 10
169.6811122067
 20
112.8537594961
  0
SEQEND
  0
LINE
  8
0
 62
7
  6
CONTINUOUS
 10
186.0801510587
 20
158.8945788278
 11
190.2801362452
 21
158.8945788278
  0
LINE
  8
0
 62
7
  6
CONTINUOUS
 10
188.2801442809
 20
160.7445788278
 11
188.0801442809
 21
160.7445788278
  0
LINE
  8
DEFAULT_1
 62
7
  6
CENTER
 10
192.4801442809
 20
163.2945788278
 11
190.0802442809
 21
163.2945788278
  0
LINE
  8
0
 62
2
  6
CONTINUOUS
 10
188.9601442809
 20
163.2945788278
 11
187.2001442809
 21
163.2945788278
  0
LINE
  8
DEFAULT_1
 62
7
  6
CENTER
 10
183.6801442809
 20
163.2945788278
 11
186.0800442809
 21
163.2945788278
  0
LINE
  8
0
 62
7
  6
CONTINUOUS
 10
181.6801442809
 20
188.6945724509
 11
181.6801442809
 21
163.2945788278
  0
LINE
  8
0
 62
7
  6
CONTINUOUS
 10
185.5301442809
 20
188.6945788278
 11
185.5301442809
 21
180.0445788278
  0
LINE
  8
0
 62
7
  6
CONTINUOUS
 10
185.5301442809
 20
163.2945788278
 11
185.5301442809
 21
172.1945788278
  0
LINE
  8
0
 62
7
  6
CONTINUOUS
 10
188.2801442809
 20
174.4945788278
 11
188.0801442809
 21
174.4945788278
  0
LINE
  8
0
 62
7
  6
CONTINUOUS
 10
188.2801442809
 20
174.7445788278
 11
188.0801442809
 21
174.7445788278
  0
LINE
  8
DEFAULT_1
 62
7
  6
CENTER
 10
188.0801442809
 20
193.0945788278
 11
188.0801442809
 21
190.6946788278
  0
LINE
  8
0
 62
2
  6
CONTINUOUS
 10
188.0801442809
 20
189.5745788278
 11
188.0801442809
 21
187.8145788278
  0
LINE
  8
DEFAULT_1
 62
7
  6
CENTER
 10
188.0801442809
 20
167.6945788278
 11
188.0801442809
 21
165.2946788278
  0
LINE
  8
0
 62
2
  6
CONTINUOUS
 10
188.0801442809
 20
164.1745788278
 11
188.0801442809
 21
162.4145788278
  0
LINE
  8
DEFAULT_1
 62
7
  6
CENTER
 10
188.0801442809
 20
158.8945788278
 11
188.0801442809
 21
161.2944788278
  0
LINE
  8
DEFAULT_1
 62
7
  6
CENTER
 10
188.0801442809
 20
184.2945788278
 11
188.0801442809
 21
186.6944788278
  0
LINE
  8
0
 62
7
  6
CONTINUOUS
 10
193.9301442809
 20
174.8445788278
 11
182.4301442809
 21
174.8445788278
  0
LINE
  8
0
 62
7
  6
CONTINUOUS
 10
190.8301442809
 20
188.6945788278
 11
190.8301442809
 21
180.0445788278
  0
LINE
  8
0
 62
7
  6
CONTINUOUS
 10
190.8301442809
 20
172.1945788278
 11
190.8301442809
 21
163.2945788278
  0
LINE
  8
0
 62
7
  6
CONTINUOUS
 10
188.2801442809
 20
177.4945788278
 11
188.0801442809
 21
177.4945788278
  0
LINE
  8
0
 62
7
  6
CONTINUOUS
 10
193.0801442809
 20
187.7449054847
 11
193.0801442809
 21
188.6945706713
  0
LINE
  8
0
 62
7
  6
CONTINUOUS
 10
194.6801442809
 20
163.2945788278
 11
194.6801442809
 21
188.6945656274
  0
LINE
  8
DEFAULT_1
 62
7
  6
CENTER
 10
192.4801442809
 20
188.6945788278
 11
190.0802442809
 21
188.6945788278
  0
LINE
  8
0
 62
2
  6
CONTINUOUS
 10
188.9601442809
 20
188.6945788278
 11
187.2001442809
 21
188.6945788278
  0
LINE
  8
DEFAULT_1
 62
7
  6
CENTER
 10
183.6801442809
 20
188.6945788278
 11
186.0800442809
 21
188.6945788278
  0
LINE
  8
0
 62
7
  6
CONTINUOUS
 10
193.4551442809
 20
187.6780724769
 11
194.3051442809
 21
187.1873247481
  0
LINE
  8
0
 62
7
  6
CONTINUOUS
 10
188.0801442809
 20
191.2445788278
 11
188.2801442809
 21
191.2445788278
  0
LINE
  8
0
 62
7
  6
CONTINUOUS
 10
186.0801538861
 20
193.0945788278
 11
190.2801366536
 21
193.0945788278
  0
ARC
  8
0
 62
7
  6
CONTINUOUS
 10
44.8515419383
 20
163.3182384866
 40
4.5
 50
336.8013189762
 51
360.0
  0
ARC
  8
0
 62
7
  6
CONTINUOUS
 10
47.8515419383
 20
163.3182384866
 40
4.5
 50
180.0
 51
203.1986937387
  0
ARC
  8
0
 62
7
  6
CONTINUOUS
 10
32.1515419383
 20
163.0195788278
 40
4.5
 50
331.9274403037
 51
0.0001370701
  0
ARC
  8
0
 62
7
  6
CONTINUOUS
 10
35.1515419383
 20
163.0195788278
 40
4.5
 50
179.9998845812
 51
208.072567946
  0
ARC
  8
0
 62
7
  6
CONTINUOUS
 10
19.0515419383
 20
163.1997118879
 40
4.5
 50
327.652485777
 51
0.0001514727
  0
ARC
  8
0
 62
7
  6
CONTINUOUS
 10
22.0515419383
 20
162.5197737042
 40
4.5
 50
179.9998897107
 51
195.8192799685
  0
ARC
  8
0
 62
7
  6
CONTINUOUS
 10
47.3569948198
 20
159.6445788278
 40
0.75
 50
270.0
 51
336.8014094864
  0
ARC
  8
0
 62
7
  6
CONTINUOUS
 10
34.6015419383
 20
159.6445788278
 40
0.75
 50
270.0
 51
331.9275130641
  0
ARC
  8
0
 62
7
  6
CONTINUOUS
 10
45.3460890568
 20
159.6445788278
 40
0.75
 50
203.1985905136
 51
270.0
  0
ARC
  8
0
 62
7
  6
CONTINUOUS
 10
32.7015419173
 20
159.6445788671
 40
0.75
 50
208.0724903381
 51
270.0000016011
  0
ARC
  8
0
 62
7
  6
CONTINUOUS
 10
21.2387779155
 20
159.6445788633
 40
0.75
 50
269.9999982826
 51
327.6525532907
  0
ARC
  8
0
 62
7
  6
CONTINUOUS
 10
18.9685650297
 20
159.6445788278
 40
0.75
 50
195.8191939475
 51
270.0
  0
ARC
  8
0
 62
7
  6
CONTINUOUS
 10
27.1015419383
 20
167.9945788278
 40
4.0
 50
27.4392401507
 51
152.5607598493
  0
ARC
  8
0
 62
7
  6
CONTINUOUS
 10
20.0515419383
 20
172.3445788278
 40
2.5
 50
90.0
 51
180.0
  0
ARC
  8
0
 62
7
  6
CONTINUOUS
 10
21.8814725618
 20
175.5945788278
 40
0.75
 50
270.0
 51
334.1556124454
  0
ARC
  8
0
 62
7
  6
CONTINUOUS
 10
41.6515419383
 20
172.303584937
 40
5.0
 50
151.3360428897
 51
180.0
  0
ARC
  8
0
 62
7
  6
CONTINUOUS
 10
38.3515419383
 20
172.303584937
 40
5.0
 50
0.0
 51
28.6639571103
  0
ARC
  8
0
 62
7
  6
CONTINUOUS
 10
54.3515419383
 20
172.2885695127
 40
5.0
 50
151.448608127
 51
180.0
  0
ARC
  8
0
 62
7
  6
CONTINUOUS
 10
51.2015419383
 20
172.3186054952
 40
5.0
 50
0.0
 51
20.2338352756
  0
ARC
  8
0
 62
7
  6
CONTINUOUS
 10
47.3057941192
 20
175.5945788278
 40
0.75
 50
270.0
 51
331.448608127
  0
ARC
  8
0
 62
7
  6
CONTINUOUS
 10
45.3962933641
 20
175.5945788278
 40
0.75
 50
208.6639571103
 51
270.0
  0
ARC
  8
0
 62
7
  6
CONTINUOUS
 10
82.8015419383
 20
162.68302047
 40
4.5
 50
345.0999221386
 51
0.0001115353
  0
ARC
  8
0
 62
7
  6
CONTINUOUS
 10
86.1015419383
 20
162.68302047
 40
4.5
 50
179.9999053839
 51
194.9000886457
  0
ARC
  8
0
 62
7
  6
CONTINUOUS
 10
70.1015419383
 20
162.68302047
 40
4.5
 50
345.0999221386
 51
0.0001115353
  0
ARC
  8
0
 62
7
  6
CONTINUOUS
 10
73.4015419383
 20
162.68302047
 40
4.5
 50
179.9999053839
 51
194.9000886457
  0
ARC
  8
0
 62
7
  6
CONTINUOUS
 10
57.4015419383
 20
162.68302047
 40
4.5
 50
345.0999221386
 51
0.0001115353
  0
ARC
  8
0
 62
7
  6
CONTINUOUS
 10
60.7015419383
 20
163.4448549327
 40
4.5
 50
180.0
 51
201.3999104328
  0
ARC
  8
0
 62
7
  6
CONTINUOUS
 10
85.8070321171
 20
159.3945788278
 40
0.75
 50
270.0
 51
345.1
  0
ARC
  8
0
 62
7
  6
CONTINUOUS
 10
73.1070321171
 20
159.3945788278
 40
0.75
 50
270.0
 51
345.1
  0
ARC
  8
0
 62
7
  6
CONTINUOUS
 10
83.0960517595
 20
159.3945788278
 40
0.75
 50
194.9
 51
270.0
  0
ARC
  8
0
 62
7
  6
CONTINUOUS
 10
60.4070321171
 20
159.3945788278
 40
0.75
 50
270.0
 51
345.1
  0
ARC
  8
0
 62
7
  6
CONTINUOUS
 10
70.3960517595
 20
159.3945788278
 40
0.75
 50
194.9
 51
270.0
  0
ARC
  8
0
 62
7
  6
CONTINUOUS
 10
58.2611319769
 20
159.3945789996
 40
0.75
 50
201.3998101321
 51
269.9999982952
  0
ARC
  8
0
 62
7
  6
CONTINUOUS
 10
66.9015419383
 20
171.140754781
 40
5.0
 50
165.1
 51
180.0
  0
ARC
  8
0
 62
7
  6
CONTINUOUS
 10
63.9015419383
 20
171.140754781
 40
5.0
 50
0.0
 51
14.9
  0
ARC
  8
0
 62
7
  6
CONTINUOUS
 10
70.1850828135
 20
175.8445788278
 40
0.75
 50
194.9
 51
270.0
  0
ARC
  8
0
 62
7
  6
CONTINUOUS
 10
73.318001063
 20
175.8445788278
 40
0.75
 50
270.0
 51
345.1
  0
ARC
  8
0
 62
7
  6
CONTINUOUS
 10
60.618001063
 20
175.8445788278
 40
0.75
 50
270.0
 51
345.1
  0
ARC
  8
0
 62
7
  6
CONTINUOUS
 10
58.1674149542
 20
175.8445788278
 40
0.75
 50
200.2338352756
 51
270.0
  0
ARC
  8
0
 62
7
  6
CONTINUOUS
 10
89.3015419383
 20
171.140754781
 40
5.0
 50
0.0
 51
14.9
  0
ARC
  8
0
 62
7
  6
CONTINUOUS
 10
79.6015419383
 20
171.140754781
 40
5.0
 50
165.1
 51
180.0
  0
ARC
  8
0
 62
7
  6
CONTINUOUS
 10
76.6015419383
 20
171.140754781
 40
5.0
 50
0.0
 51
14.9
  0
ARC
  8
0
 62
7
  6
CONTINUOUS
 10
92.3015419383
 20
171.140754781
 40
5.0
 50
165.1
 51
180.0
  0
ARC
  8
0
 62
7
  6
CONTINUOUS
 10
86.018001063
 20
175.8445788278
 40
0.75
 50
270.0
 51
345.1
  0
ARC
  8
0
 62
7
  6
CONTINUOUS
 10
82.8850828135
 20
175.8445788278
 40
0.75
 50
194.9
 51
270.0
  0
ARC
  8
0
 62
7
  6
CONTINUOUS
 10
18.9015419383
 20
179.1917702456
 40
5.0
 50
334.1556124454
 51
360.0
  0
ARC
  8
0
 62
7
  6
CONTINUOUS
 10
33.7015419383
 20
183.8945788278
 40
4.0
 50
211.7883306171
 51
328.2116693829
  0
ARC
  8
0
 62
7
  6
CONTINUOUS
 10
44.6015419383
 20
179.5168043592
 40
5.0
 50
331.448608127
 51
360.0
  0
ARC
  8
0
 62
7
  6
CONTINUOUS
 10
47.9015419383
 20
179.8720352407
 40
5.0
 50
180.0
 51
208.6639571103
  0
ARC
  8
0
 62
7
  6
CONTINUOUS
 10
51.7472897574
 20
176.3945788278
 40
0.75
 50
90.0
 51
151.448608127
  0
ARC
  8
0
 62
7
  6
CONTINUOUS
 10
40.9587233578
 20
176.3945788278
 40
0.75
 50
28.6639571103
 51
90.0
  0
ARC
  8
0
 62
7
  6
CONTINUOUS
 10
39.0443605188
 20
176.3945788278
 40
0.75
 50
90.0
 51
151.3360428897
  0
ARC
  8
0
 62
7
  6
CONTINUOUS
 10
54.2286638462
 20
176.3945788278
 40
0.75
 50
20.2338352756
 51
90.0
  0
ARC
  8
0
 62
7
  6
CONTINUOUS
 10
28.4015419383
 20
187.6178660858
 40
4.5
 50
155.5079924656
 51
180.0000383936
  0
ARC
  8
0
 62
7
  6
CONTINUOUS
 10
25.8015419383
 20
187.7955872116
 40
4.5
 50
0.0
 51
20.1363938462
  0
ARC
  8
0
 62
7
  6
CONTINUOUS
 10
38.4015419383
 20
188.329823049
 40
4.5
 50
0.0
 51
19.2901418053
  0
ARC
  8
0
 62
7
  6
CONTINUOUS
 10
28.127714685
 20
192.3445787947
 40
0.75
 50
20.1363061251
 51
90.0000009284
  0
ARC
  8
0
 62
7
  6
CONTINUOUS
 10
39.0336526793
 20
192.3445787913
 40
0.75
 50
89.9999990234
 51
160.7099508245
  0
ARC
  8
0
 62
7
  6
CONTINUOUS
 10
26.4340330909
 20
192.3445788278
 40
0.75
 50
90.0
 51
155.5080989718
  0
ARC
  8
0
 62
7
  6
CONTINUOUS
 10
41.6015419383
 20
188.329823049
 40
4.5
 50
160.7098576953
 51
180.0
  0
ARC
  8
0
 62
7
  6
CONTINUOUS
 10
54.1015419383
 20
188.2279580118
 40
4.5
 50
158.1984817209
 51
180.0
  0
ARC
  8
0
 62
7
  6
CONTINUOUS
 10
51.3015419383
 20
188.2279580118
 40
4.5
 50
0.0
 51
21.8015334623
  0
ARC
  8
0
 62
7
  6
CONTINUOUS
 10
53.6937672172
 20
192.3445788278
 40
0.75
 50
21.8014094864
 51
90.0
  0
ARC
  8
0
 62
7
  6
CONTINUOUS
 10
40.9694311845
 20
192.3445788278
 40
0.75
 50
19.2900462192
 51
90.0
  0
ARC
  8
0
 62
7
  6
CONTINUOUS
 10
51.7093166594
 20
192.3445788278
 40
0.75
 50
90.0
 51
158.1985905136
  0
ARC
  8
0
 62
7
  6
CONTINUOUS
 10
66.968001063
 20
176.1445788278
 40
0.75
 50
14.9
 51
90.0
  0
ARC
  8
0
 62
7
  6
CONTINUOUS
 10
63.8350828135
 20
176.1445788278
 40
0.75
 50
90.0
 51
165.1
  0
ARC
  8
0
 62
7
  6
CONTINUOUS
 10
57.5515419383
 20
180.8484028747
 40
5.0
 50
345.1
 51
360.0
  0
ARC
  8
0
 62
7
  6
CONTINUOUS
 10
60.8015419383
 20
180.9867377445
 40
5.0
 50
180.0
 51
200.2338352756
  0
ARC
  8
0
 62
7
  6
CONTINUOUS
 10
70.2515419383
 20
180.8484028747
 40
5.0
 50
345.1
 51
360.0
  0
ARC
  8
0
 62
7
  6
CONTINUOUS
 10
73.2515419383
 20
180.8484028747
 40
5.0
 50
180.0
 51
194.9
  0
ARC
  8
0
 62
7
  6
CONTINUOUS
 10
92.368001063
 20
176.1445788278
 40
0.75
 50
14.9
 51
90.0
  0
ARC
  8
0
 62
7
  6
CONTINUOUS
 10
89.2350828135
 20
176.1445788278
 40
0.75
 50
90.0
 51
165.1
  0
ARC
  8
0
 62
7
  6
CONTINUOUS
 10
79.668001063
 20
176.1445788278
 40
0.75
 50
14.9
 51
90.0
  0
ARC
  8
0
 62
7
  6
CONTINUOUS
 10
76.5350828135
 20
176.1445788278
 40
0.75
 50
90.0
 51
165.1
  0
ARC
  8
0
 62
7
  6
CONTINUOUS
 10
82.9515419383
 20
180.8484028747
 40
5.0
 50
345.1
 51
360.0
  0
ARC
  8
0
 62
7
  6
CONTINUOUS
 10
85.9515419383
 20
180.8484028747
 40
5.0
 50
180.0
 51
194.9
  0
ARC
  8
0
 62
7
  6
CONTINUOUS
 10
67.0515419383
 20
189.3061371857
 40
4.5
 50
165.0999221404
 51
180.0001115189
  0
ARC
  8
0
 62
7
  6
CONTINUOUS
 10
63.7515419383
 20
189.3061371857
 40
4.5
 50
359.9999053977
 51
14.9000886434
  0
ARC
  8
0
 62
7
  6
CONTINUOUS
 10
79.7515419383
 20
189.3061371857
 40
4.5
 50
165.0999221404
 51
180.0001115189
  0
ARC
  8
0
 62
7
  6
CONTINUOUS
 10
76.4515419383
 20
189.3061371857
 40
4.5
 50
359.9999053977
 51
14.9000886434
  0
ARC
  8
0
 62
7
  6
CONTINUOUS
 10
92.4515419383
 20
189.3061371857
 40
4.5
 50
165.0999221404
 51
180.0001115189
  0
ARC
  8
0
 62
7
  6
CONTINUOUS
 10
89.1515419383
 20
189.3061371857
 40
4.5
 50
359.9999053977
 51
14.9000886434
  0
ARC
  8
0
 62
7
  6
CONTINUOUS
 10
89.4460517595
 20
192.5945788278
 40
0.75
 50
90.0
 51
165.1
  0
ARC
  8
0
 62
7
  6
CONTINUOUS
 10
79.4570321171
 20
192.5945788278
 40
0.75
 50
14.9
 51
90.0
  0
ARC
  8
0
 62
7
  6
CONTINUOUS
 10
76.7460517595
 20
192.5945788278
 40
0.75
 50
90.0
 51
165.1
  0
ARC
  8
0
 62
7
  6
CONTINUOUS
 10
66.7570321171
 20
192.5945788278
 40
0.75
 50
14.9
 51
90.0
  0
ARC
  8
0
 62
7
  6
CONTINUOUS
 10
64.0460517595
 20
192.5945788278
 40
0.75
 50
90.0
 51
165.1
  0
ARC
  8
0
 62
7
  6
CONTINUOUS
 10
92.1570321171
 20
192.5945788278
 40
0.75
 50
14.9
 51
90.0
  0
ARC
  8
0
 62
7
  6
CONTINUOUS
 10
120.9015419383
 20
162.68302047
 40
4.5
 50
345.0999221386
 51
0.0001115353
  0
ARC
  8
0
 62
7
  6
CONTINUOUS
 10
124.2015419383
 20
162.68302047
 40
4.5
 50
179.9999053839
 51
194.9000886457
  0
ARC
  8
0
 62
7
  6
CONTINUOUS
 10
108.2015419383
 20
162.68302047
 40
4.5
 50
345.0999221386
 51
0.0001115353
  0
ARC
  8
0
 62
7
  6
CONTINUOUS
 10
111.5015419383
 20
162.68302047
 40
4.5
 50
179.9999053839
 51
194.9000886457
  0
ARC
  8
0
 62
7
  6
CONTINUOUS
 10
95.5015419383
 20
162.68302047
 40
4.5
 50
345.0999221386
 51
0.0001115353
  0
ARC
  8
0
 62
7
  6
CONTINUOUS
 10
98.8015419383
 20
162.68302047
 40
4.5
 50
179.9999053839
 51
194.9000886457
  0
ARC
  8
0
 62
7
  6
CONTINUOUS
 10
95.7960517595
 20
159.3945788278
 40
0.75
 50
194.9
 51
270.0
  0
ARC
  8
0
 62
7
  6
CONTINUOUS
 10
111.2070321171
 20
159.3945788278
 40
0.75
 50
270.0
 51
345.1
  0
ARC
  8
0
 62
7
  6
CONTINUOUS
 10
121.1960517595
 20
159.3945788278
 40
0.75
 50
194.9
 51
270.0
  0
ARC
  8
0
 62
7
  6
CONTINUOUS
 10
123.9070321171
 20
159.3945788278
 40
0.75
 50
270.0
 51
345.1
  0
ARC
  8
0
 62
7
  6
CONTINUOUS
 10
98.5070321171
 20
159.3945788278
 40
0.75
 50
270.0
 51
345.1
  0
ARC
  8
0
 62
7
  6
CONTINUOUS
 10
108.4960517595
 20
159.3945788278
 40
0.75
 50
194.9
 51
270.0
  0
ARC
  8
0
 62
7
  6
CONTINUOUS
 10
105.0015419383
 20
171.140754781
 40
5.0
 50
165.1
 51
180.0
  0
ARC
  8
0
 62
7
  6
CONTINUOUS
 10
102.0015419383
 20
171.140754781
 40
5.0
 50
0.0
 51
14.9
  0
ARC
  8
0
 62
7
  6
CONTINUOUS
 10
111.418001063
 20
175.8445788278
 40
0.75
 50
270.0
 51
345.1
  0
ARC
  8
0
 62
7
  6
CONTINUOUS
 10
108.2850828135
 20
175.8445788278
 40
0.75
 50
194.9
 51
270.0
  0
ARC
  8
0
 62
7
  6
CONTINUOUS
 10
98.718001063
 20
175.8445788278
 40
0.75
 50
270.0
 51
345.1
  0
ARC
  8
0
 62
7
  6
CONTINUOUS
 10
95.5850828135
 20
175.8445788278
 40
0.75
 50
194.9
 51
270.0
  0
ARC
  8
0
 62
7
  6
CONTINUOUS
 10
117.7015419383
 20
171.140754781
 40
5.0
 50
165.1
 51
180.0
  0
ARC
  8
0
 62
7
  6
CONTINUOUS
 10
114.7015419383
 20
171.140754781
 40
5.0
 50
0.0
 51
14.9
  0
ARC
  8
0
 62
7
  6
CONTINUOUS
 10
130.4015419383
 20
171.140754781
 40
5.0
 50
165.1
 51
180.0
  0
ARC
  8
0
 62
7
  6
CONTINUOUS
 10
127.4015419383
 20
171.140754781
 40
5.0
 50
0.0
 51
14.9
  0
ARC
  8
0
 62
7
  6
CONTINUOUS
 10
124.118001063
 20
175.8445788278
 40
0.75
 50
270.0
 51
345.1
  0
ARC
  8
0
 62
7
  6
CONTINUOUS
 10
120.9850828135
 20
175.8445788278
 40
0.75
 50
194.9
 51
270.0
  0
ARC
  8
0
 62
7
  6
CONTINUOUS
 10
159.0015419383
 20
162.68302047
 40
4.5
 50
345.0999221386
 51
0.0001115353
  0
ARC
  8
0
 62
7
  6
CONTINUOUS
 10
162.3015419383
 20
162.68302047
 40
4.5
 50
179.9999053839
 51
194.9000886457
  0
ARC
  8
0
 62
7
  6
CONTINUOUS
 10
146.3015419383
 20
162.68302047
 40
4.5
 50
345.0999221386
 51
0.0001115353
  0
ARC
  8
0
 62
7
  6
CONTINUOUS
 10
149.6015419383
 20
162.68302047
 40
4.5
 50
179.9999053839
 51
194.9000886457
  0
ARC
  8
0
 62
7
  6
CONTINUOUS
 10
133.6015419383
 20
162.68302047
 40
4.5
 50
345.0999221386
 51
0.0001115353
  0
ARC
  8
0
 62
7
  6
CONTINUOUS
 10
136.9015419383
 20
162.68302047
 40
4.5
 50
179.9999053839
 51
194.9000886457
  0
ARC
  8
0
 62
7
  6
CONTINUOUS
 10
162.0070321171
 20
159.3945788278
 40
0.75
 50
270.0
 51
345.1
  0
ARC
  8
0
 62
7
  6
CONTINUOUS
 10
149.3070321171
 20
159.3945788278
 40
0.75
 50
270.0
 51
345.1
  0
ARC
  8
0
 62
7
  6
CONTINUOUS
 10
159.2960517595
 20
159.3945788278
 40
0.75
 50
194.9
 51
270.0
  0
ARC
  8
0
 62
7
  6
CONTINUOUS
 10
136.6070321171
 20
159.3945788278
 40
0.75
 50
270.0
 51
345.1
  0
ARC
  8
0
 62
7
  6
CONTINUOUS
 10
146.5960517595
 20
159.3945788278
 40
0.75
 50
194.9
 51
270.0
  0
ARC
  8
0
 62
7
  6
CONTINUOUS
 10
133.8960517595
 20
159.3945788278
 40
0.75
 50
194.9
 51
270.0
  0
ARC
  8
0
 62
7
  6
CONTINUOUS
 10
143.1015419383
 20
171.140754781
 40
5.0
 50
165.1
 51
180.0
  0
ARC
  8
0
 62
7
  6
CONTINUOUS
 10
140.1015419383
 20
171.140754781
 40
5.0
 50
0.0
 51
14.9
  0
ARC
  8
0
 62
7
  6
CONTINUOUS
 10
149.518001063
 20
175.8445788278
 40
0.75
 50
270.0
 51
345.1
  0
ARC
  8
0
 62
7
  6
CONTINUOUS
 10
146.3850828135
 20
175.8445788278
 40
0.75
 50
194.9
 51
270.0
  0
ARC
  8
0
 62
7
  6
CONTINUOUS
 10
136.818001063
 20
175.8445788278
 40
0.75
 50
270.0
 51
345.1
  0
ARC
  8
0
 62
7
  6
CONTINUOUS
 10
133.6850828135
 20
175.8445788278
 40
0.75
 50
194.9
 51
270.0
  0
ARC
  8
0
 62
7
  6
CONTINUOUS
 10
155.8015419383
 20
171.140754781
 40
5.0
 50
165.1
 51
180.0
  0
ARC
  8
0
 62
7
  6
CONTINUOUS
 10
152.8015419383
 20
171.140754781
 40
5.0
 50
0.0
 51
14.9
  0
ARC
  8
0
 62
7
  6
CONTINUOUS
 10
168.5015419383
 20
171.140754781
 40
5.0
 50
165.1
 51
180.0
  0
ARC
  8
0
 62
7
  6
CONTINUOUS
 10
162.218001063
 20
175.8445788278
 40
0.75
 50
270.0
 51
345.1
  0
ARC
  8
0
 62
7
  6
CONTINUOUS
 10
159.0850828135
 20
175.8445788278
 40
0.75
 50
194.9
 51
270.0
  0
ARC
  8
0
 62
7
  6
CONTINUOUS
 10
105.068001063
 20
176.1445788278
 40
0.75
 50
14.9
 51
90.0
  0
ARC
  8
0
 62
7
  6
CONTINUOUS
 10
101.9350828135
 20
176.1445788278
 40
0.75
 50
90.0
 51
165.1
  0
ARC
  8
0
 62
7
  6
CONTINUOUS
 10
98.6515419383
 20
180.8484028747
 40
5.0
 50
180.0
 51
194.9
  0
ARC
  8
0
 62
7
  6
CONTINUOUS
 10
108.3515419383
 20
180.8484028747
 40
5.0
 50
345.1
 51
360.0
  0
ARC
  8
0
 62
7
  6
CONTINUOUS
 10
111.3515419383
 20
180.8484028747
 40
5.0
 50
180.0
 51
194.9
  0
ARC
  8
0
 62
7
  6
CONTINUOUS
 10
95.6515419383
 20
180.8484028747
 40
5.0
 50
345.1
 51
360.0
  0
ARC
  8
0
 62
7
  6
CONTINUOUS
 10
127.3350828135
 20
176.1445788278
 40
0.75
 50
90.0
 51
165.1
  0
ARC
  8
0
 62
7
  6
CONTINUOUS
 10
117.768001063
 20
176.1445788278
 40
0.75
 50
14.9
 51
90.0
  0
ARC
  8
0
 62
7
  6
CONTINUOUS
 10
114.6350828135
 20
176.1445788278
 40
0.75
 50
90.0
 51
165.1
  0
ARC
  8
0
 62
7
  6
CONTINUOUS
 10
130.468001063
 20
176.1445788278
 40
0.75
 50
14.9
 51
90.0
  0
ARC
  8
0
 62
7
  6
CONTINUOUS
 10
121.0515419383
 20
180.8484028747
 40
5.0
 50
345.1
 51
360.0
  0
ARC
  8
0
 62
7
  6
CONTINUOUS
 10
124.0515419383
 20
180.8484028747
 40
5.0
 50
180.0
 51
194.9
  0
ARC
  8
0
 62
7
  6
CONTINUOUS
 10
105.1515419383
 20
189.3061371857
 40
4.5
 50
165.0999221404
 51
180.0001115189
  0
ARC
  8
0
 62
7
  6
CONTINUOUS
 10
101.8515419383
 20
189.3061371857
 40
4.5
 50
359.9999053977
 51
14.9000886434
  0
ARC
  8
0
 62
7
  6
CONTINUOUS
 10
117.8515419383
 20
189.3061371857
 40
4.5
 50
165.0999221404
 51
180.0001115189
  0
ARC
  8
0
 62
7
  6
CONTINUOUS
 10
114.5515419383
 20
189.3061371857
 40
4.5
 50
359.9999053977
 51
14.9000886434
  0
ARC
  8
0
 62
7
  6
CONTINUOUS
 10
130.5515419383
 20
189.3061371857
 40
4.5
 50
165.0999221404
 51
180.0001115189
  0
ARC
  8
0
 62
7
  6
CONTINUOUS
 10
127.2515419383
 20
189.3061371857
 40
4.5
 50
359.9999053977
 51
14.9000886434
  0
ARC
  8
0
 62
7
  6
CONTINUOUS
 10
130.2570321171
 20
192.5945788278
 40
0.75
 50
14.9
 51
90.0
  0
ARC
  8
0
 62
7
  6
CONTINUOUS
 10
127.5460517595
 20
192.5945788278
 40
0.75
 50
90.0
 51
165.1
  0
ARC
  8
0
 62
7
  6
CONTINUOUS
 10
117.5570321171
 20
192.5945788278
 40
0.75
 50
14.9
 51
90.0
  0
ARC
  8
0
 62
7
  6
CONTINUOUS
 10
114.8460517595
 20
192.5945788278
 40
0.75
 50
90.0
 51
165.1
  0
ARC
  8
0
 62
7
  6
CONTINUOUS
 10
104.8570321171
 20
192.5945788278
 40
0.75
 50
14.9
 51
90.0
  0
ARC
  8
0
 62
7
  6
CONTINUOUS
 10
102.1460517595
 20
192.5945788278
 40
0.75
 50
90.0
 51
165.1
  0
ARC
  8
0
 62
7
  6
CONTINUOUS
 10
143.168001063
 20
176.1445788278
 40
0.75
 50
14.9
 51
90.0
  0
ARC
  8
0
 62
7
  6
CONTINUOUS
 10
140.0350828135
 20
176.1445788278
 40
0.75
 50
90.0
 51
165.1
  0
ARC
  8
0
 62
7
  6
CONTINUOUS
 10
149.4515419383
 20
180.8484028747
 40
5.0
 50
180.0
 51
194.9
  0
ARC
  8
0
 62
7
  6
CONTINUOUS
 10
146.4515419383
 20
180.8484028747
 40
5.0
 50
345.1
 51
360.0
  0
ARC
  8
0
 62
7
  6
CONTINUOUS
 10
133.7515419383
 20
180.8484028747
 40
5.0
 50
345.1
 51
360.0
  0
ARC
  8
0
 62
7
  6
CONTINUOUS
 10
136.7515419383
 20
180.8484028747
 40
5.0
 50
180.0
 51
194.9
  0
ARC
  8
0
 62
7
  6
CONTINUOUS
 10
165.4350828135
 20
176.1445788278
 40
0.75
 50
90.0
 51
165.1
  0
ARC
  8
0
 62
7
  6
CONTINUOUS
 10
155.868001063
 20
176.1445788278
 40
0.75
 50
14.9
 51
90.0
  0
ARC
  8
0
 62
7
  6
CONTINUOUS
 10
152.7350828135
 20
176.1445788278
 40
0.75
 50
90.0
 51
165.1
  0
ARC
  8
0
 62
7
  6
CONTINUOUS
 10
159.1515419383
 20
180.8484028747
 40
5.0
 50
345.1
 51
360.0
  0
ARC
  8
0
 62
7
  6
CONTINUOUS
 10
162.1515419383
 20
180.8484028747
 40
5.0
 50
180.0
 51
194.9
  0
ARC
  8
0
 62
7
  6
CONTINUOUS
 10
167.3515419383
 20
179.3945788278
 40
2.5
 50
270.0
 51
360.0
  0
ARC
  8
0
 62
7
  6
CONTINUOUS
 10
143.2515419383
 20
189.3061371857
 40
4.5
 50
165.0999221404
 51
180.0001115189
  0
ARC
  8
0
 62
7
  6
CONTINUOUS
 10
139.9515419383
 20
189.3061371857
 40
4.5
 50
359.9999053977
 51
14.9000886434
  0
ARC
  8
0
 62
7
  6
CONTINUOUS
 10
155.9515419383
 20
189.3061371857
 40
4.5
 50
165.0999221404
 51
180.0001115189
  0
ARC
  8
0
 62
7
  6
CONTINUOUS
 10
152.6515419383
 20
189.3061371857
 40
4.5
 50
359.9999053977
 51
14.9000886434
  0
ARC
  8
0
 62
7
  6
CONTINUOUS
 10
168.6515419383
 20
189.3061371857
 40
4.5
 50
165.0999221404
 51
180.0001115189
  0
ARC
  8
0
 62
7
  6
CONTINUOUS
 10
165.3515419383
 20
189.4693839515
 40
4.5
 50
359.9998911343
 51
15.8192946214
  0
ARC
  8
0
 62
7
  6
CONTINUOUS
 10
152.9460517595
 20
192.5945788278
 40
0.75
 50
90.0
 51
165.1
  0
ARC
  8
0
 62
7
  6
CONTINUOUS
 10
142.9570321171
 20
192.5945788278
 40
0.75
 50
14.9
 51
90.0
  0
ARC
  8
0
 62
7
  6
CONTINUOUS
 10
165.6460517595
 20
192.5945788278
 40
0.75
 50
90.0
 51
165.1
  0
ARC
  8
0
 62
7
  6
CONTINUOUS
 10
155.6570321171
 20
192.5945788278
 40
0.75
 50
14.9
 51
90.0
  0
ARC
  8
0
 62
7
  6
CONTINUOUS
 10
168.3636855136
 20
192.5945788278
 40
0.75
 50
15.8191939475
 51
90.0
  0
ARC
  8
0
 62
7
  6
CONTINUOUS
 10
140.2460517595
 20
192.5945788278
 40
0.75
 50
90.0
 51
165.1
  0
ARC
  8
0
 62
7
  6
CONTINUOUS
 10
29.5515419383
 20
110.3837692748
 40
0.75
 50
270.0
 51
360.0
  0
ARC
  8
0
 62
7
  6
CONTINUOUS
 10
88.7015419383
 20
108.7837692748
 40
0.75
 50
180.0
 51
270.0
  0
ARC
  8
0
 62
7
  6
CONTINUOUS
 10
80.2015419383
 20
108.7837692748
 40
0.75
 50
270.0
 51
360.0
  0
ARC
  8
0
 62
7
  6
CONTINUOUS
 10
76.0015419383
 20
108.7837692748
 40
0.75
 50
180.0
 51
270.0
  0
ARC
  8
0
 62
7
  6
CONTINUOUS
 10
67.5015419383
 20
108.7837692748
 40
0.75
 50
270.0
 51
360.0
  0
ARC
  8
0
 62
7
  6
CONTINUOUS
 10
63.3015419383
 20
108.7837692748
 40
0.75
 50
180.0
 51
270.0
  0
ARC
  8
0
 62
7
  6
CONTINUOUS
 10
55.0515419383
 20
108.7837692748
 40
0.75
 50
270.0
 51
360.0
  0
ARC
  8
0
 62
7
  6
CONTINUOUS
 10
42.1515419383
 20
108.7837692748
 40
0.75
 50
270.0
 51
360.0
  0
ARC
  8
0
 62
7
  6
CONTINUOUS
 10
50.3515419383
 20
108.7837692748
 40
0.75
 50
180.0
 51
270.0
  0
ARC
  8
0
 62
7
  6
CONTINUOUS
 10
29.5515419383
 20
108.7837692748
 40
0.75
 50
270.0
 51
360.0
  0
ARC
  8
0
 62
7
  6
CONTINUOUS
 10
37.8515419383
 20
108.7837692748
 40
0.75
 50
180.0
 51
270.0
  0
ARC
  8
0
 62
7
  6
CONTINUOUS
 10
24.6515419383
 20
108.7837692748
 40
0.75
 50
180.0
 51
270.0
  0
ARC
  8
0
 62
7
  6
CONTINUOUS
 10
18.3015419383
 20
108.7837692748
 40
0.75
 50
180.0
 51
270.0
  0
ARC
  8
0
 62
7
  6
CONTINUOUS
 10
92.9015419383
 20
108.7837692748
 40
0.75
 50
270.0
 51
360.0
  0
ARC
  8
0
 62
7
  6
CONTINUOUS
 10
36.3515419383
 20
109.9837692748
 40
0.75
 50
270.0
 51
360.0
  0
ARC
  8
0
 62
7
  6
CONTINUOUS
 10
31.0515419383
 20
109.9837692748
 40
0.75
 50
180.0
 51
270.0
  0
ARC
  8
0
 62
7
  6
CONTINUOUS
 10
37.8515419383
 20
120.2837692748
 40
0.75
 50
90.0
 51
180.0
  0
ARC
  8
0
 62
7
  6
CONTINUOUS
 10
88.7015419383
 20
120.2837692748
 40
0.75
 50
90.0
 51
180.0
  0
ARC
  8
0
 62
7
  6
CONTINUOUS
 10
80.2015419383
 20
120.2837692748
 40
0.75
 50
0.0
 51
90.0
  0
ARC
  8
0
 62
7
  6
CONTINUOUS
 10
76.0015419383
 20
120.2837692748
 40
0.75
 50
90.0
 51
180.0
  0
ARC
  8
0
 62
7
  6
CONTINUOUS
 10
67.5015419383
 20
120.2837692748
 40
0.75
 50
0.0
 51
90.0
  0
ARC
  8
0
 62
7
  6
CONTINUOUS
 10
63.3015419383
 20
120.2837692748
 40
0.75
 50
90.0
 51
180.0
  0
ARC
  8
0
 62
7
  6
CONTINUOUS
 10
55.0515419383
 20
120.2837692748
 40
0.75
 50
0.0
 51
90.0
  0
ARC
  8
0
 62
7
  6
CONTINUOUS
 10
42.1515419383
 20
120.2837692748
 40
0.75
 50
0.0
 51
90.0
  0
ARC
  8
0
 62
7
  6
CONTINUOUS
 10
50.3515419383
 20
120.2837692748
 40
0.75
 50
90.0
 51
180.0
  0
ARC
  8
0
 62
7
  6
CONTINUOUS
 10
29.5515419383
 20
120.2837692748
 40
0.75
 50
0.0
 51
90.0
  0
ARC
  8
0
 62
7
  6
CONTINUOUS
 10
18.3015419383
 20
120.2837692748
 40
0.75
 50
90.0
 51
180.0
  0
ARC
  8
0
 62
7
  6
CONTINUOUS
 10
24.6515419383
 20
120.2837692748
 40
0.75
 50
90.0
 51
180.0
  0
ARC
  8
0
 62
7
  6
CONTINUOUS
 10
92.9015419383
 20
120.2837692748
 40
0.75
 50
0.0
 51
90.0
  0
ARC
  8
0
 62
7
  6
CONTINUOUS
 10
152.2015419383
 20
108.7837692748
 40
0.75
 50
180.0
 51
270.0
  0
ARC
  8
0
 62
7
  6
CONTINUOUS
 10
143.7015419383
 20
108.7837692748
 40
0.75
 50
270.0
 51
360.0
  0
ARC
  8
0
 62
7
  6
CONTINUOUS
 10
164.9015419383
 20
108.7837692748
 40
0.75
 50
180.0
 51
270.0
  0
ARC
  8
0
 62
7
  6
CONTINUOUS
 10
156.4015419383
 20
108.7837692748
 40
0.75
 50
270.0
 51
360.0
  0
ARC
  8
0
 62
7
  6
CONTINUOUS
 10
169.1015419383
 20
108.7837692748
 40
0.75
 50
270.0
 51
360.0
  0
ARC
  8
0
 62
7
  6
CONTINUOUS
 10
139.5015419383
 20
108.7837692748
 40
0.75
 50
180.0
 51
270.0
  0
ARC
  8
0
 62
7
  6
CONTINUOUS
 10
131.0015419383
 20
108.7837692748
 40
0.75
 50
270.0
 51
360.0
  0
ARC
  8
0
 62
7
  6
CONTINUOUS
 10
126.8015419383
 20
108.7837692748
 40
0.75
 50
180.0
 51
270.0
  0
ARC
  8
0
 62
7
  6
CONTINUOUS
 10
118.3015419383
 20
108.7837692748
 40
0.75
 50
270.0
 51
360.0
  0
ARC
  8
0
 62
7
  6
CONTINUOUS
 10
114.1015419383
 20
108.7837692748
 40
0.75
 50
180.0
 51
270.0
  0
ARC
  8
0
 62
7
  6
CONTINUOUS
 10
105.6015419383
 20
108.7837692748
 40
0.75
 50
270.0
 51
360.0
  0
ARC
  8
0
 62
7
  6
CONTINUOUS
 10
101.4015419383
 20
108.7837692748
 40
0.75
 50
180.0
 51
270.0
  0
ARC
  8
0
 62
7
  6
CONTINUOUS
 10
152.2015419383
 20
120.2837692748
 40
0.75
 50
90.0
 51
180.0
  0
ARC
  8
0
 62
7
  6
CONTINUOUS
 10
143.7015419383
 20
120.2837692748
 40
0.75
 50
0.0
 51
90.0
  0
ARC
  8
0
 62
7
  6
CONTINUOUS
 10
164.9015419383
 20
120.2837692748
 40
0.75
 50
90.0
 51
180.0
  0
ARC
  8
0
 62
7
  6
CONTINUOUS
 10
156.4015419383
 20
120.2837692748
 40
0.75
 50
0.0
 51
90.0
  0
ARC
  8
0
 62
7
  6
CONTINUOUS
 10
169.1015419383
 20
120.2837692748
 40
0.75
 50
0.0
 51
90.0
  0
ARC
  8
0
 62
7
  6
CONTINUOUS
 10
139.5015419383
 20
120.2837692748
 40
0.75
 50
90.0
 51
180.0
  0
ARC
  8
0
 62
7
  6
CONTINUOUS
 10
131.0015419383
 20
120.2837692748
 40
0.75
 50
0.0
 51
90.0
  0
ARC
  8
0
 62
7
  6
CONTINUOUS
 10
126.8015419383
 20
120.2837692748
 40
0.75
 50
90.0
 51
180.0
  0
ARC
  8
0
 62
7
  6
CONTINUOUS
 10
118.3015419383
 20
120.2837692748
 40
0.75
 50
0.0
 51
90.0
  0
ARC
  8
0
 62
7
  6
CONTINUOUS
 10
114.1015419383
 20
120.2837692748
 40
0.75
 50
90.0
 51
180.0
  0
ARC
  8
0
 62
7
  6
CONTINUOUS
 10
105.6015419383
 20
120.2837692748
 40
0.75
 50
0.0
 51
90.0
  0
ARC
  8
0
 62
7
  6
CONTINUOUS
 10
101.4015419383
 20
120.2837692748
 40
0.75
 50
90.0
 51
180.0
  0
ARC
  8
0
 62
7
  6
CONTINUOUS
 10
182.4301442809
 20
174.0945788278
 40
0.75
 50
90.0
 51
180.0
  0
ARC
  8
0
 62
7
  6
CONTINUOUS
 10
185.6957604067
 20
155.9045687441
 40
3.0
 50
78.0514891617
 51
87.0226333731
  0
ARC
  8
0
 62
7
  6
CONTINUOUS
 10
186.0801442809
 20
163.2945788278
 40
4.4
 50
180.0
 51
270.0001242616
  0
ARC
  8
0
 62
7
  6
CONTINUOUS
 10
188.0801442809
 20
163.2945788278
 40
2.55
 50
180.0
 51
270.0
  0
ARC
  8
0
 62
7
  6
CONTINUOUS
 10
188.0801442809
 20
171.9445788278
 40
2.55
 50
90.0
 51
180.0
  0
ARC
  8
0
 62
7
  6
CONTINUOUS
 10
188.0801442809
 20
172.1945788278
 40
2.55
 50
90.0
 51
180.0
  0
ARC
  8
0
 62
7
  6
CONTINUOUS
 10
185.6957604067
 20
196.0845889115
 40
3.0
 50
272.9773739011
 51
281.9484953442
  0
ARC
  8
0
 62
7
  6
CONTINUOUS
 10
186.0801442809
 20
188.6945788278
 40
4.4
 50
89.9999023498
 51
180.0002095764
  0
ARC
  8
0
 62
7
  6
CONTINUOUS
 10
188.0801442809
 20
180.0445788278
 40
2.55
 50
180.0
 51
270.0
  0
ARC
  8
0
 62
7
  6
CONTINUOUS
 10
188.0801442809
 20
188.6945788278
 40
2.55
 50
90.0
 51
180.0
  0
ARC
  8
0
 62
7
  6
CONTINUOUS
 10
188.2801442809
 20
163.2945788278
 40
2.55
 50
270.0
 51
360.0
  0
ARC
  8
0
 62
7
  6
CONTINUOUS
 10
190.6645281552
 20
155.9045687441
 40
3.0
 50
92.9773652524
 51
101.948509782
  0
ARC
  8
0
 62
7
  6
CONTINUOUS
 10
190.2801442809
 20
163.2945788278
 40
4.4
 50
269.9999037831
 51
360.0
  0
ARC
  8
0
 62
7
  6
CONTINUOUS
 10
188.1801442809
 20
167.6445788278
 40
9.0
 50
258.0515311904
 51
281.9484691437
  0
ARC
  8
0
 62
7
  6
CONTINUOUS
 10
188.2801442809
 20
171.9445788278
 40
2.55
 50
0.0
 51
90.0
  0
ARC
  8
0
 62
7
  6
CONTINUOUS
 10
188.2801442809
 20
172.1945788278
 40
2.55
 50
0.0
 51
90.0
  0
ARC
  8
0
 62
7
  6
CONTINUOUS
 10
193.9301442809
 20
174.0945788278
 40
0.75
 50
0.0
 51
90.0
  0
ARC
  8
0
 62
7
  6
CONTINUOUS
 10
188.1801442809
 20
184.3445788278
 40
9.0
 50
78.0515312106
 51
101.9484691638
  0
ARC
  8
0
 62
7
  6
CONTINUOUS
 10
188.2801442809
 20
180.0445788278
 40
2.55
 50
270.0
 51
360.0
  0
ARC
  8
0
 62
7
  6
CONTINUOUS
 10
188.6801442809
 20
188.6945788278
 40
4.4
 50
359.9998937877
 51
90.0001017683
  0
ARC
  8
0
 62
7
  6
CONTINUOUS
 10
188.2801442809
 20
188.6945788278
 40
2.55
 50
0.0
 51
90.0
  0
ARC
  8
0
 62
7
  6
CONTINUOUS
 10
190.2801442809
 20
188.6945788278
 40
4.4
 50
0.0
 51
90.0001020865
  0
ARC
  8
0
 62
7
  6
CONTINUOUS
 10
190.6645281552
 20
196.0845889115
 40
3.0
 50
258.0515035325
 51
267.0226253748
  0
ARC
  8
0
 62
7
  6
CONTINUOUS
 10
193.9301442809
 20
186.5378056952
 40
0.75
 50
0.0
 51
60.0
  0
ARC
  8
0
 62
7
  6
CONTINUOUS
 10
193.8301442809
 20
188.3275915297
 40
0.75
 50
180.0
 51
240.0
  0
ENDSEC
  0
EOF
