  0
SECTION
  2
HEADER
  9
$EXTMAX
 10
210.0
 20
297.0
 30
0.0
  9
$EXTMIN
 10
0.0
 20
0.0
 30
0.0
  9
$LIMMIN
 10
0.0
 20
0.0
  9
$LIMMAX
 10
210.0
 20
297.0
  9
$VIEWCTR
 10
105.0
 20
148.5
  9
$VIEWSIZE
 40
297.0
  9
$CLAYER
  8
0
  9
$LTSCALE
 40
19.36
  9
$CELTYPE
  6
BYLAYER
  9
$DIMSCALE
 40
1.0
  9
$DIMASZ
 40
3.5
  9
$DIMEXO
 40
2.2
  9
$DIMDLI
 40
13.376
  9
$DIMEXE
 40
6.336
  9
$DIMCEN
 40
3.168
  9
$DIMLFAC
 40
1.0
  9
$DIMBLK
  1
_FILLED
  9
$DIMTXT
 40
3.5
  9
$PDMODE
 70
3
  9
$PDSIZE
 40
0.3125
  9
$TILEMODE
 70
1
  0
ENDSEC
  0
SECTION
  2
TABLES
  0
TABLE
  2
LTYPE
 70
6
  0
LTYPE
  2
BYBLOCK
 70
0
  3

 72
65
 73
0
 40
0.0
  0
LTYPE
  2
BYLAYER
 70
0
  3

 72
65
 73
0
 40
0.0
  0
LTYPE
  2
CONTINUOUS
 70
64
  3
Solid line
 72
65
 73
0
 40
0.0
  0
LTYPE
  2
CENTER
 70
64
  3
____ _ ____ _ ____ _ ____ _ ____ _ ____ _ ____
 72
65
 73
4
 40
0.6
 49
0.375
 49
-0.075
 49
0.075
 49
-0.075
  0
LTYPE
  2
HIDDEN
 70
64
  3
- - - - - - - - - - - - - - - - - - - -
 72
65
 73
2
 40
0.2
 49
0.1
 49
-0.1
  0
LTYPE
  2
PHANTOM
 70
64
  3
_____ _ _ _____ _ _ _____ _ _ _____
 72
65
 73
6
 40
0.8
 49
0.45
 49
-0.05
 49
0.1
 49
-0.05
 49
0.1
 49
-0.05
  0
LTYPE
  2
DOT
 70
64
  3
. . . . . . . . . . . . . . . . . . . .
 72
65
 73
2
 40
0.2
 49
0.1
 49
-0.1
  0
LTYPE
  2
DASHED
 70
64
  3
- - - - - - - - - - - - - - - - - - - -
 72
65
 73
2
 40
0.2
 49
0.1
 49
-0.1
  0
ENDTAB
  0
TABLE
  2
LAYER
 70
36
  0
LAYER
  2
0
 70
0
 62
7
  6
CONTINUOUS
  0
LAYER
  2
DEFAULT_1
 70
0
 62
7
  6
CENTER
  0
LAYER
  2
DEFAULT_2
 70
0
 62
8
  6
HIDDEN
  0
LAYER
  2
DEFAULT_3
 70
0
 62
7
  6
PHANTOM
  0
LAYER
  2
CURVE
 70
0
 62
7
  6
CONTINUOUS
  0
LAYER
  2
SURFACE
 70
0
 62
7
  6
CONTINUOUS
  0
ENDTAB
  0
TABLE
  2
STYLE
 70
1
  0
STYLE
  2
STANDARD
 70
0
 40
0.0
 41
0.8
 50
0.0
 71
0
 42
0.2
  3
txt
  4

  0
STYLE
  2
TEXTSTYLE_1
 70
0
 40
0.0
 41
0.8
 50
0.0
 71
0
 42
0.2
  3
gdt
  4

  0
STYLE
  2
TEXTSTYLE_2
 70
0
 40
0.0
 41
0.6
 50
0.0
 71
0
 42
0.2
  3
txt
  4

  0
STYLE
  2
TEXTSTYLE_3
 70
0
 40
0.0
 41
1.0
 50
0.0
 71
0
 42
0.2
  3
ftb_____.ttf
  4

  0
STYLE
  2
TEXTSTYLE_4
 70
0
 40
0.0
 41
1.0
 50
0.0
 71
0
 42
0.2
  3
fti_____.ttf
  4

  0
STYLE
  2
TEXTSTYLE_5
 70
0
 40
0.0
 41
1.0
 50
0.0
 71
0
 42
0.2
  3
frutiger light.ttf
  4

  0
STYLE
  2
TEXTSTYLE_6
 70
0
 40
0.0
 41
0.7
 50
0.0
 71
0
 42
0.2
  3
txt
  4

  0
STYLE
  2
TEXTSTYLE_7
 70
0
 40
0.0
 41
0.8
 50
0.0
 71
0
 42
0.2
  3
txt
  4

  0
ENDTAB
  0
ENDSEC
  0
SECTION
  2
BLOCKS
  0
BLOCK
  8
0
 62
2
  6
CONTINUOUS
  2
SYMBOL_8_BL1
 70
64
 10
173.5956734183
 20
35.5937998301
  0
TEXT
  8
0
 62
7
  6
CONTINUOUS
 10
164.6539584268
 20
30.6865562072
  7
TEXTSTYLE_4
 40
1.0655737705
  1
The brand for plastic modular belts and chains
 41
1.0
 72
0
  0
LINE
  8
0
 62
7
  6
CONTINUOUS
 10
149.5737418074
 20
36.1675703219
 11
149.5737418074
 21
34.0364227809
  0
LINE
  8
0
 62
7
  6
CONTINUOUS
 10
149.8628043005
 20
31.0454914852
 11
149.8628043005
 21
31.1422825445
  0
LINE
  8
0
 62
7
  6
CONTINUOUS
 10
149.5737418074
 20
31.1100188581
 11
149.6315543091
 21
30.9164367395
  0
LINE
  8
0
 62
7
  6
CONTINUOUS
 10
150.9671844304
 20
33.9544555678
 11
150.9671844304
 21
36.1675703219
  0
LINE
  8
0
 62
7
  6
CONTINUOUS
 10
151.8862417523
 20
32.1101932727
 11
151.8862417523
 21
30.5937998301
  0
LINE
  8
0
 62
7
  6
CONTINUOUS
 10
152.1753043074
 20
30.5937998301
 11
152.1753043074
 21
31.3358647082
  0
LINE
  8
0
 62
7
  6
CONTINUOUS
 10
152.1753043074
 20
31.4649194539
 11
152.1753043074
 21
32.1101932727
  0
LINE
  8
0
 62
7
  6
CONTINUOUS
 10
149.6315543091
 20
31.3036010218
 11
149.5737418074
 21
31.1100188581
  0
LINE
  8
0
 62
7
  6
CONTINUOUS
 10
149.9784292936
 20
30.8841730531
 11
149.8628043005
 21
31.0454914852
  0
LINE
  8
0
 62
7
  6
CONTINUOUS
 10
151.0768668626
 20
31.400392081
 11
151.1346793074
 21
31.3036010218
  0
LINE
  8
0
 62
7
  6
CONTINUOUS
 10
151.4237418626
 20
31.3036010218
 11
151.3659292523
 21
31.4326557675
  0
LINE
  8
0
 62
7
  6
CONTINUOUS
 10
152.852430332
 20
36.1675703219
 11
152.852430332
 21
34.3642916334
  0
LINE
  8
0
 62
7
  6
CONTINUOUS
 10
152.852430332
 20
33.0528162235
 11
152.852430332
 21
32.3970785186
  0
LINE
  8
0
 62
7
  6
CONTINUOUS
 10
153.2159293074
 20
31.2390736489
 11
153.2159293074
 21
30.5937998301
  0
LINE
  8
0
 62
7
  6
CONTINUOUS
 10
153.5049916972
 20
30.5937998301
 11
153.5049916972
 21
31.2390736489
  0
LINE
  8
0
 62
7
  6
CONTINUOUS
 10
149.8628043005
 20
31.1422825445
 11
149.9206168074
 21
31.2713373354
  0
LINE
  8
0
 62
7
  6
CONTINUOUS
 10
149.6315543091
 20
30.9164367395
 11
149.7471793074
 21
30.7873819712
  0
LINE
  8
0
 62
7
  6
CONTINUOUS
 10
153.1581166972
 20
31.3681283946
 11
153.2159293074
 21
31.2390736489
  0
LINE
  8
0
 62
7
  6
CONTINUOUS
 10
153.9674919177
 20
30.8841730531
 11
154.0253041972
 21
30.7551182848
  0
LINE
  8
0
 62
7
  6
CONTINUOUS
 10
153.5049916972
 20
31.2390736489
 11
153.4471794177
 21
31.400392081
  0
LINE
  8
0
 62
7
  6
CONTINUOUS
 10
153.9674919177
 20
31.4326557675
 11
153.9674919177
 21
31.3681283946
  0
LINE
  8
0
 62
7
  6
CONTINUOUS
 10
153.9674919177
 20
30.9809641124
 11
153.9674919177
 21
30.8841730531
  0
LINE
  8
0
 62
7
  6
CONTINUOUS
 10
154.245872955
 20
32.3970785186
 11
154.245872955
 21
36.1675703219
  0
LINE
  8
0
 62
7
  6
CONTINUOUS
 10
154.2565543074
 20
30.8519093441
 11
154.2565543074
 21
30.9164367395
  0
LINE
  8
0
 62
7
  6
CONTINUOUS
 10
154.5737418074
 20
36.1675703219
 11
154.5737418074
 21
32.3970785186
  0
LINE
  8
0
 62
7
  6
CONTINUOUS
 10
151.3659292523
 20
30.7873819712
 11
151.4237418626
 21
30.9164367395
  0
LINE
  8
0
 62
7
  6
CONTINUOUS
 10
155.759679528
 20
30.6905909007
 11
155.7018665869
 21
30.8519093441
  0
LINE
  8
0
 62
7
  6
CONTINUOUS
 10
155.412804528
 20
31.3681283946
 11
155.412804528
 21
31.2713373354
  0
LINE
  8
0
 62
7
  6
CONTINUOUS
 10
155.412804528
 20
31.1422825445
 11
155.412804528
 21
30.9487004259
  0
LINE
  8
0
 62
7
  6
CONTINUOUS
 10
155.7018665869
 20
30.8519093441
 11
155.7018665869
 21
31.3681283946
  0
LINE
  8
0
 62
7
  6
CONTINUOUS
 10
155.9671844304
 20
32.3970785186
 11
155.9671844304
 21
34.2003572071
  0
LINE
  8
0
 62
7
  6
CONTINUOUS
 10
155.9671844304
 20
35.511832617
 11
155.9671844304
 21
36.1675703219
  0
LINE
  8
0
 62
7
  6
CONTINUOUS
 10
156.279992028
 20
32.1101932727
 11
156.279992028
 21
31.9488748406
  0
LINE
  8
0
 62
7
  6
CONTINUOUS
 10
156.279992028
 20
31.626237886
 11
156.279992028
 21
30.5937998301
  0
LINE
  8
0
 62
7
  6
CONTINUOUS
 10
156.5690540869
 20
30.5937998301
 11
156.5690540869
 21
31.626237886
  0
LINE
  8
0
 62
7
  6
CONTINUOUS
 10
156.5690540869
 20
31.9488748406
 11
156.5690540869
 21
32.1101932727
  0
LINE
  8
0
 62
7
  6
CONTINUOUS
 10
151.1346793074
 20
30.9164367395
 11
151.0768668626
 21
30.8196456577
  0
LINE
  8
0
 62
7
  6
CONTINUOUS
 10
153.4471794177
 20
31.400392081
 11
153.3893668074
 21
31.4649194539
  0
LINE
  8
0
 62
7
  6
CONTINUOUS
 10
154.3143669177
 20
30.7873819712
 11
154.2565543074
 21
30.8519093441
  0
LINE
  8
0
 62
7
  6
CONTINUOUS
 10
155.4706168074
 20
30.6583272086
 11
155.5284290869
 21
30.5937998301
  0
LINE
  8
0
 62
7
  6
CONTINUOUS
 10
155.412804528
 20
30.7551182848
 11
155.4706168074
 21
30.6583272086
  0
LINE
  8
0
 62
7
  6
CONTINUOUS
 10
155.8174918074
 20
30.5937998301
 11
155.759679528
 21
30.6905909007
  0
LINE
  8
0
 62
7
  6
CONTINUOUS
 10
155.7018665869
 20
31.3681283946
 11
155.6440543074
 21
31.4649194539
  0
LINE
  8
0
 62
7
  6
CONTINUOUS
 10
157.0315543074
 20
31.626237886
 11
157.0315543074
 21
30.5937998301
  0
LINE
  8
0
 62
7
  6
CONTINUOUS
 10
157.320617028
 20
30.5937998301
 11
157.320617028
 21
31.3358647082
  0
LINE
  8
0
 62
7
  6
CONTINUOUS
 10
157.320617028
 20
31.4649194539
 11
157.320617028
 21
31.626237886
  0
LINE
  8
0
 62
7
  6
CONTINUOUS
 10
157.852430332
 20
34.6101932727
 11
157.852430332
 21
32.3970785186
  0
LINE
  8
0
 62
7
  6
CONTINUOUS
 10
149.7471793074
 20
31.4326557675
 11
149.6315543091
 21
31.3036010218
  0
LINE
  8
0
 62
7
  6
CONTINUOUS
 10
149.9206168074
 20
31.2713373354
 11
149.9784292936
 21
31.3358647082
  0
LINE
  8
0
 62
7
  6
CONTINUOUS
 10
149.7471793074
 20
30.7873819712
 11
149.8628043005
 21
30.7228545871
  0
LINE
  8
0
 62
7
  6
CONTINUOUS
 10
150.1518667936
 20
30.7873819712
 11
149.9784292936
 21
30.8841730531
  0
LINE
  8
0
 62
7
  6
CONTINUOUS
 10
155.3549915869
 20
31.4326557675
 11
155.412804528
 21
31.3681283946
  0
LINE
  8
0
 62
7
  6
CONTINUOUS
 10
158.3034290869
 20
31.3681283946
 11
158.361242028
 21
31.2068099625
  0
LINE
  8
0
 62
7
  6
CONTINUOUS
 10
158.6503040869
 20
31.2068099625
 11
158.5924918074
 21
31.3681283946
  0
LINE
  8
0
 62
7
  6
CONTINUOUS
 10
158.361242028
 20
31.2068099625
 11
158.361242028
 21
30.5937998301
  0
LINE
  8
0
 62
7
  6
CONTINUOUS
 10
158.6503040869
 20
30.5937998301
 11
158.6503040869
 21
31.2068099625
  0
LINE
  8
0
 62
7
  6
CONTINUOUS
 10
159.1128043074
 20
31.4326557675
 11
159.1128043074
 21
31.3681283946
  0
LINE
  8
0
 62
7
  6
CONTINUOUS
 10
159.245872955
 20
32.3970785186
 11
159.245872955
 21
34.5282260596
  0
LINE
  8
0
 62
7
  6
CONTINUOUS
 10
159.5737418074
 20
36.1675703219
 11
159.5737418074
 21
32.3970785186
  0
LINE
  8
0
 62
7
  6
CONTINUOUS
 10
154.2565543074
 20
30.9164367395
 11
154.3143669177
 21
31.0132277988
  0
LINE
  8
0
 62
7
  6
CONTINUOUS
 10
149.8628043005
 20
30.7228545871
 11
150.0362418212
 21
30.6583272086
  0
LINE
  8
0
 62
7
  6
CONTINUOUS
 10
151.3659292523
 20
31.4326557675
 11
151.1924917523
 21
31.5294468267
  0
LINE
  8
0
 62
7
  6
CONTINUOUS
 10
154.0253041972
 20
30.7551182848
 11
154.1987416972
 21
30.6583272086
  0
LINE
  8
0
 62
7
  6
CONTINUOUS
 10
153.0424918074
 20
31.4326557675
 11
153.1581166972
 21
31.3681283946
  0
LINE
  8
0
 62
7
  6
CONTINUOUS
 10
153.3893668074
 20
31.4649194539
 11
153.2737419177
 21
31.5294468267
  0
LINE
  8
0
 62
7
  6
CONTINUOUS
 10
159.1128043074
 20
30.8519093441
 11
159.228429528
 21
30.7228545871
  0
LINE
  8
0
 62
7
  6
CONTINUOUS
 10
159.4596793074
 20
30.7873819712
 11
159.401867028
 21
30.8519093441
  0
LINE
  8
0
 62
7
  6
CONTINUOUS
 10
159.1128043074
 20
31.3681283946
 11
159.228429528
 21
31.2390736489
  0
LINE
  8
0
 62
7
  6
CONTINUOUS
 10
158.5924918074
 20
31.3681283946
 11
158.534679528
 21
31.4649194539
  0
LINE
  8
0
 62
7
  6
CONTINUOUS
 10
160.9628038663
 20
30.7873819712
 11
160.9628038663
 21
30.8519093441
  0
LINE
  8
0
 62
7
  6
CONTINUOUS
 10
160.9671844304
 20
32.3970785186
 11
160.9671844304
 21
36.1675703219
  0
LINE
  8
0
 62
7
  6
CONTINUOUS
 10
154.0253041972
 20
31.4971831403
 11
153.9674919177
 21
31.4326557675
  0
LINE
  8
0
 62
7
  6
CONTINUOUS
 10
150.9034292799
 20
31.4649194539
 11
151.0768668626
 21
31.400392081
  0
LINE
  8
0
 62
7
  6
CONTINUOUS
 10
155.6440543074
 20
31.4649194539
 11
155.5284290869
 21
31.5294468267
  0
LINE
  8
0
 62
7
  6
CONTINUOUS
 10
159.4596793074
 20
31.3036010218
 11
159.401867028
 21
31.3681283946
  0
LINE
  8
0
 62
7
  6
CONTINUOUS
 10
160.615929528
 20
30.9164367395
 11
160.6737418074
 21
30.8519093441
  0
LINE
  8
0
 62
7
  6
CONTINUOUS
 10
160.9628038663
 20
30.8519093441
 11
160.8471793074
 21
30.9809641124
  0
LINE
  8
0
 62
7
  6
CONTINUOUS
 10
160.615929528
 20
31.4326557675
 11
160.6737418074
 21
31.3681283946
  0
LINE
  8
0
 62
7
  6
CONTINUOUS
 10
160.9628038663
 20
31.3681283946
 11
160.8471793074
 21
31.4971831403
  0
LINE
  8
0
 62
7
  6
CONTINUOUS
 10
154.2565543074
 20
31.3681283946
 11
154.3143669177
 21
31.4326557675
  0
LINE
  8
0
 62
7
  6
CONTINUOUS
 10
154.0831168074
 20
31.1100188581
 11
153.9674919177
 21
30.9809641124
  0
LINE
  8
0
 62
7
  6
CONTINUOUS
 10
155.412804528
 20
30.9487004259
 11
155.3549915869
 21
30.8841730531
  0
LINE
  8
0
 62
7
  6
CONTINUOUS
 10
155.3549915869
 20
30.6905909007
 11
155.412804528
 21
30.7551182848
  0
LINE
  8
0
 62
7
  6
CONTINUOUS
 10
154.1987416972
 20
30.6583272086
 11
154.3143669177
 21
30.6260635193
  0
LINE
  8
0
 62
7
  6
CONTINUOUS
 10
151.1924917523
 20
31.5294468267
 11
150.9612418074
 21
31.5939741996
  0
LINE
  8
0
 62
7
  6
CONTINUOUS
 10
154.5456166972
 20
30.7228545871
 11
154.3143669177
 21
30.7873819712
  0
LINE
  8
0
 62
7
  6
CONTINUOUS
 10
153.2737419177
 20
31.5294468267
 11
153.1003044177
 21
31.5939741996
  0
LINE
  8
0
 62
7
  6
CONTINUOUS
 10
155.5284290869
 20
31.5294468267
 11
155.3549915869
 21
31.5939741996
  0
LINE
  8
0
 62
7
  6
CONTINUOUS
 10
158.187804528
 20
31.4326557675
 11
158.3034290869
 21
31.3681283946
  0
LINE
  8
0
 62
7
  6
CONTINUOUS
 10
158.534679528
 20
31.4649194539
 11
158.4190543074
 21
31.5294468267
  0
LINE
  8
0
 62
7
  6
CONTINUOUS
 10
150.0362418212
 20
30.6583272086
 11
150.2096793212
 21
30.6260635193
  0
LINE
  8
0
 62
7
  6
CONTINUOUS
 10
150.498741835
 20
30.7228545871
 11
150.1518667936
 21
30.7873819712
  0
LINE
  8
0
 62
7
  6
CONTINUOUS
 10
152.9268669177
 20
31.4649194539
 11
153.0424918074
 21
31.4326557675
  0
LINE
  8
0
 62
7
  6
CONTINUOUS
 10
155.239367028
 20
31.4649194539
 11
155.3549915869
 21
31.4326557675
  0
LINE
  8
0
 62
7
  6
CONTINUOUS
 10
159.575304528
 20
30.7551182848
 11
159.4596793074
 21
30.7873819712
  0
LINE
  8
0
 62
7
  6
CONTINUOUS
 10
158.0721793074
 20
31.4649194539
 11
158.187804528
 21
31.4326557675
  0
LINE
  8
0
 62
7
  6
CONTINUOUS
 10
159.228429528
 20
30.7228545871
 11
159.401867028
 21
30.6583272086
  0
LINE
  8
0
 62
7
  6
CONTINUOUS
 10
158.4190543074
 20
31.5294468267
 11
158.2456168074
 21
31.5939741996
  0
LINE
  8
0
 62
7
  6
CONTINUOUS
 10
159.6331168074
 20
31.2390736489
 11
159.4596793074
 21
31.3036010218
  0
LINE
  8
0
 62
7
  6
CONTINUOUS
 10
160.442492028
 20
30.9809641124
 11
160.615929528
 21
30.9164367395
  0
LINE
  8
0
 62
7
  6
CONTINUOUS
 10
160.8471793074
 20
31.4971831403
 11
160.6737418074
 21
31.5617105132
  0
LINE
  8
0
 62
7
  6
CONTINUOUS
 10
159.228429528
 20
31.2390736489
 11
159.4596793074
 21
31.1422825445
  0
LINE
  8
0
 62
7
  6
CONTINUOUS
 10
160.8471793074
 20
30.9809641124
 11
160.615929528
 21
31.0777551716
  0
LINE
  8
0
 62
7
  6
CONTINUOUS
 10
159.401867028
 20
31.3681283946
 11
159.4596793074
 21
31.4326557675
  0
LINE
  8
0
 62
7
  6
CONTINUOUS
 10
149.8628043005
 20
31.4971831403
 11
149.7471793074
 21
31.4326557675
  0
LINE
  8
0
 62
7
  6
CONTINUOUS
 10
149.9784292936
 20
31.3358647082
 11
150.1518667936
 21
31.4326557675
  0
LINE
  8
0
 62
7
  6
CONTINUOUS
 10
152.2909293626
 20
31.5294468267
 11
152.1753043074
 21
31.4649194539
  0
LINE
  8
0
 62
7
  6
CONTINUOUS
 10
152.1753043074
 20
31.3358647082
 11
152.2909293626
 21
31.400392081
  0
LINE
  8
0
 62
7
  6
CONTINUOUS
 10
151.1924917523
 20
30.6905909007
 11
151.3659292523
 21
30.7873819712
  0
LINE
  8
0
 62
7
  6
CONTINUOUS
 10
150.2096793212
 20
30.6260635193
 11
150.5565542799
 21
30.5937998301
  0
LINE
  8
0
 62
7
  6
CONTINUOUS
 10
154.3143669177
 20
30.6260635193
 11
154.5456166972
 21
30.5937998301
  0
LINE
  8
0
 62
7
  6
CONTINUOUS
 10
152.6956168074
 20
31.4971831403
 11
152.9268669177
 21
31.4649194539
  0
LINE
  8
0
 62
7
  6
CONTINUOUS
 10
155.0081169177
 20
31.4971831403
 11
155.239367028
 21
31.4649194539
  0
LINE
  8
0
 62
7
  6
CONTINUOUS
 10
159.4596793074
 20
31.1422825445
 11
160.442492028
 21
30.9809641124
  0
LINE
  8
0
 62
7
  6
CONTINUOUS
 10
160.615929528
 20
31.0777551716
 11
159.6331168074
 21
31.2390736489
  0
LINE
  8
0
 62
7
  6
CONTINUOUS
 10
153.1003044177
 20
31.5939741996
 11
152.9268669177
 21
31.626237886
  0
LINE
  8
0
 62
7
  6
CONTINUOUS
 10
159.401867028
 20
30.6583272086
 11
159.575304528
 21
30.6260635193
  0
LINE
  8
0
 62
7
  6
CONTINUOUS
 10
158.2456168074
 20
31.5939741996
 11
158.0721793074
 21
31.626237886
  0
LINE
  8
0
 62
7
  6
CONTINUOUS
 10
160.5003043074
 20
31.4649194539
 11
160.615929528
 21
31.4326557675
  0
LINE
  8
0
 62
7
  6
CONTINUOUS
 10
160.6737418074
 20
30.8519093441
 11
160.615929528
 21
30.7873819712
  0
LINE
  8
0
 62
7
  6
CONTINUOUS
 10
159.228429528
 20
31.5294468267
 11
159.1128043074
 21
31.4326557675
  0
LINE
  8
0
 62
7
  6
CONTINUOUS
 10
154.1409294177
 20
31.5617105132
 11
154.0253041972
 21
31.4971831403
  0
LINE
  8
0
 62
7
  6
CONTINUOUS
 10
154.1987416972
 20
31.1745462761
 11
154.0831168074
 21
31.1100188581
  0
LINE
  8
0
 62
7
  6
CONTINUOUS
 10
154.3143669177
 20
31.0132277988
 11
154.4299918074
 21
31.0777551716
  0
LINE
  8
0
 62
7
  6
CONTINUOUS
 10
151.8862417523
 20
30.5937998301
 11
152.1753043074
 21
30.5937998301
  0
LINE
  8
0
 62
7
  6
CONTINUOUS
 10
153.2159293074
 20
30.5937998301
 11
153.5049916972
 21
30.5937998301
  0
LINE
  8
0
 62
7
  6
CONTINUOUS
 10
154.5456166972
 20
30.5937998301
 11
154.8924916972
 21
30.5937998301
  0
LINE
  8
0
 62
7
  6
CONTINUOUS
 10
155.5284290869
 20
30.5937998301
 11
155.8174918074
 21
30.5937998301
  0
LINE
  8
0
 62
7
  6
CONTINUOUS
 10
156.279992028
 20
30.5937998301
 11
156.5690540869
 21
30.5937998301
  0
LINE
  8
0
 62
7
  6
CONTINUOUS
 10
157.0315543074
 20
30.5937998301
 11
157.320617028
 21
30.5937998301
  0
LINE
  8
0
 62
7
  6
CONTINUOUS
 10
158.361242028
 20
30.5937998301
 11
158.6503040869
 21
30.5937998301
  0
LINE
  8
0
 62
7
  6
CONTINUOUS
 10
159.922179528
 20
30.5937998301
 11
160.269054528
 21
30.5937998301
  0
LINE
  8
0
 62
7
  6
CONTINUOUS
 10
160.269054528
 20
30.7228545871
 11
159.922179528
 21
30.7228545871
  0
LINE
  8
0
 62
7
  6
CONTINUOUS
 10
154.8924916972
 20
30.7228545871
 11
154.5456166972
 21
30.7228545871
  0
LINE
  8
0
 62
7
  6
CONTINUOUS
 10
159.401867028
 20
30.8519093441
 11
159.1128043074
 21
30.8519093441
  0
LINE
  8
0
 62
7
  6
CONTINUOUS
 10
151.4237418626
 20
30.9164367395
 11
151.1346793074
 21
30.9164367395
  0
LINE
  8
0
 62
7
  6
CONTINUOUS
 10
150.498741835
 20
31.4971831403
 11
150.9034292799
 21
31.4649194539
  0
LINE
  8
0
 62
7
  6
CONTINUOUS
 10
150.9612418074
 20
31.5939741996
 11
150.5565542799
 21
31.626237886
  0
LINE
  8
0
 62
7
  6
CONTINUOUS
 10
159.575304528
 20
30.6260635193
 11
159.922179528
 21
30.5937998301
  0
LINE
  8
0
 62
7
  6
CONTINUOUS
 10
159.922179528
 20
30.7228545871
 11
159.575304528
 21
30.7551182848
  0
LINE
  8
0
 62
7
  6
CONTINUOUS
 10
155.3549915869
 20
31.5939741996
 11
155.0081169177
 21
31.626237886
  0
LINE
  8
0
 62
7
  6
CONTINUOUS
 10
160.1534293074
 20
31.4971831403
 11
160.5003043074
 21
31.4649194539
  0
LINE
  8
0
 62
7
  6
CONTINUOUS
 10
160.5003043074
 20
31.5939741996
 11
160.1534293074
 21
31.626237886
  0
LINE
  8
0
 62
7
  6
CONTINUOUS
 10
157.840929528
 20
31.4971831403
 11
158.0721793074
 21
31.4649194539
  0
LINE
  8
0
 62
7
  6
CONTINUOUS
 10
160.6737418074
 20
31.5617105132
 11
160.5003043074
 21
31.5939741996
  0
LINE
  8
0
 62
7
  6
CONTINUOUS
 10
160.8471793074
 20
30.6905909007
 11
160.9628038663
 21
30.7873819712
  0
LINE
  8
0
 62
7
  6
CONTINUOUS
 10
155.3549915869
 20
30.8841730531
 11
155.1815540869
 21
30.7873819712
  0
LINE
  8
0
 62
7
  6
CONTINUOUS
 10
157.4362415869
 20
31.5294468267
 11
157.320617028
 21
31.4649194539
  0
LINE
  8
0
 62
7
  6
CONTINUOUS
 10
157.320617028
 20
31.3358647082
 11
157.4362415869
 21
31.400392081
  0
LINE
  8
0
 62
7
  6
CONTINUOUS
 10
150.0362418212
 20
31.5617105132
 11
149.8628043005
 21
31.4971831403
  0
LINE
  8
0
 62
7
  6
CONTINUOUS
 10
152.4643666972
 20
31.5939741996
 11
152.2909293626
 21
31.5294468267
  0
LINE
  8
0
 62
7
  6
CONTINUOUS
 10
152.2909293626
 20
31.400392081
 11
152.4643666972
 21
31.4649194539
  0
LINE
  8
0
 62
7
  6
CONTINUOUS
 10
151.0768668626
 20
30.8196456577
 11
150.9034292799
 21
30.7551182848
  0
LINE
  8
0
 62
7
  6
CONTINUOUS
 10
160.5003043074
 20
30.7551182848
 11
160.269054528
 21
30.7228545871
  0
LINE
  8
0
 62
7
  6
CONTINUOUS
 10
154.8924916972
 20
30.5937998301
 11
155.1815540869
 21
30.6260635193
  0
LINE
  8
0
 62
7
  6
CONTINUOUS
 10
160.269054528
 20
30.5937998301
 11
160.615929528
 21
30.6260635193
  0
LINE
  8
0
 62
7
  6
CONTINUOUS
 10
150.5565542799
 20
30.5937998301
 11
150.9612418074
 21
30.6260635193
  0
LINE
  8
0
 62
7
  6
CONTINUOUS
 10
150.9034292799
 20
30.7551182848
 11
150.498741835
 21
30.7228545871
  0
LINE
  8
0
 62
7
  6
CONTINUOUS
 10
154.7768668074
 20
31.1422825445
 11
155.412804528
 21
31.1422825445
  0
LINE
  8
0
 62
7
  6
CONTINUOUS
 10
155.412804528
 20
31.2713373354
 11
154.7768668074
 21
31.2713373354
  0
LINE
  8
0
 62
7
  6
CONTINUOUS
 10
151.1346793074
 20
31.3036010218
 11
151.4237418626
 21
31.3036010218
  0
LINE
  8
0
 62
7
  6
CONTINUOUS
 10
153.9674919177
 20
31.3681283946
 11
154.2565543074
 21
31.3681283946
  0
LINE
  8
0
 62
7
  6
CONTINUOUS
 10
160.6737418074
 20
31.3681283946
 11
160.9628038663
 21
31.3681283946
  0
LINE
  8
0
 62
7
  6
CONTINUOUS
 10
154.6612419177
 20
31.4971831403
 11
155.0081169177
 21
31.4971831403
  0
LINE
  8
0
 62
7
  6
CONTINUOUS
 10
159.8065543074
 20
31.4971831403
 11
160.1534293074
 21
31.4971831403
  0
LINE
  8
0
 62
7
  6
CONTINUOUS
 10
160.1534293074
 20
31.626237886
 11
159.8065543074
 21
31.626237886
  0
LINE
  8
0
 62
7
  6
CONTINUOUS
 10
158.0721793074
 20
31.626237886
 11
157.840929528
 21
31.626237886
  0
LINE
  8
0
 62
7
  6
CONTINUOUS
 10
157.320617028
 20
31.626237886
 11
157.0315543074
 21
31.626237886
  0
LINE
  8
0
 62
7
  6
CONTINUOUS
 10
156.5690540869
 20
31.626237886
 11
156.279992028
 21
31.626237886
  0
LINE
  8
0
 62
7
  6
CONTINUOUS
 10
155.0081169177
 20
31.626237886
 11
154.6612419177
 21
31.626237886
  0
LINE
  8
0
 62
7
  6
CONTINUOUS
 10
152.9268669177
 20
31.626237886
 11
152.6956168074
 21
31.626237886
  0
LINE
  8
0
 62
7
  6
CONTINUOUS
 10
156.279992028
 20
31.9488748406
 11
156.5690540869
 21
31.9488748406
  0
LINE
  8
0
 62
7
  6
CONTINUOUS
 10
156.5690540869
 20
32.1101932727
 11
156.279992028
 21
32.1101932727
  0
LINE
  8
0
 62
7
  6
CONTINUOUS
 10
152.1753043074
 20
32.1101932727
 11
151.8862417523
 21
32.1101932727
  0
LINE
  8
0
 62
7
  6
CONTINUOUS
 10
151.2130860697
 20
32.3970785186
 11
151.6256574183
 21
32.3970785186
  0
LINE
  8
0
 62
7
  6
CONTINUOUS
 10
152.852430332
 20
32.3970785186
 11
154.245872955
 21
32.3970785186
  0
LINE
  8
0
 62
7
  6
CONTINUOUS
 10
154.5737418074
 20
32.3970785186
 11
155.9671844304
 21
32.3970785186
  0
LINE
  8
0
 62
7
  6
CONTINUOUS
 10
157.852430332
 20
32.3970785186
 11
159.245872955
 21
32.3970785186
  0
LINE
  8
0
 62
7
  6
CONTINUOUS
 10
159.5737418074
 20
32.3970785186
 11
160.9671844304
 21
32.3970785186
  0
LINE
  8
0
 62
7
  6
CONTINUOUS
 10
157.6096790869
 20
31.5939741996
 11
157.4362415869
 21
31.5294468267
  0
LINE
  8
0
 62
7
  6
CONTINUOUS
 10
155.1815540869
 20
30.6260635193
 11
155.3549915869
 21
30.6905909007
  0
LINE
  8
0
 62
7
  6
CONTINUOUS
 10
160.615929528
 20
30.6260635193
 11
160.8471793074
 21
30.6905909007
  0
LINE
  8
0
 62
7
  6
CONTINUOUS
 10
160.615929528
 20
30.7873819712
 11
160.5003043074
 21
30.7551182848
  0
LINE
  8
0
 62
7
  6
CONTINUOUS
 10
159.575304528
 20
31.4649194539
 11
159.8065543074
 21
31.4971831403
  0
LINE
  8
0
 62
7
  6
CONTINUOUS
 10
157.6096790869
 20
31.4649194539
 11
157.840929528
 21
31.4971831403
  0
LINE
  8
0
 62
7
  6
CONTINUOUS
 10
154.5456166972
 20
31.1100188581
 11
154.7768668074
 21
31.1422825445
  0
LINE
  8
0
 62
7
  6
CONTINUOUS
 10
157.840929528
 20
31.626237886
 11
157.6096790869
 21
31.5939741996
  0
LINE
  8
0
 62
7
  6
CONTINUOUS
 10
154.4299918074
 20
31.4649194539
 11
154.6612419177
 21
31.4971831403
  0
LINE
  8
0
 62
7
  6
CONTINUOUS
 10
159.8065543074
 20
31.626237886
 11
159.4596793074
 21
31.5939741996
  0
LINE
  8
0
 62
7
  6
CONTINUOUS
 10
154.7768668074
 20
31.2713373354
 11
154.4299918074
 21
31.2390736489
  0
LINE
  8
0
 62
7
  6
CONTINUOUS
 10
150.5565542799
 20
31.626237886
 11
150.2096793212
 21
31.5939741996
  0
LINE
  8
0
 62
7
  6
CONTINUOUS
 10
154.6612419177
 20
31.626237886
 11
154.2565543074
 21
31.5939741996
  0
LINE
  8
0
 62
7
  6
CONTINUOUS
 10
152.0327582009
 20
33.5446195022
 11
151.3770204959
 21
33.5446195022
  0
LINE
  8
0
 62
7
  6
CONTINUOUS
 10
157.4362415869
 20
31.400392081
 11
157.6096790869
 21
31.4649194539
  0
LINE
  8
0
 62
7
  6
CONTINUOUS
 10
159.4596793074
 20
31.4326557675
 11
159.575304528
 21
31.4649194539
  0
LINE
  8
0
 62
7
  6
CONTINUOUS
 10
159.4596793074
 20
31.5939741996
 11
159.228429528
 21
31.5294468267
  0
LINE
  8
0
 62
7
  6
CONTINUOUS
 10
155.1815540869
 20
30.7873819712
 11
154.8924916972
 21
30.7228545871
  0
LINE
  8
0
 62
7
  6
CONTINUOUS
 10
152.4643666972
 20
31.4649194539
 11
152.6956168074
 21
31.4971831403
  0
LINE
  8
0
 62
7
  6
CONTINUOUS
 10
152.6956168074
 20
31.626237886
 11
152.4643666972
 21
31.5939741996
  0
LINE
  8
0
 62
7
  6
CONTINUOUS
 10
150.2674918074
 20
31.4649194539
 11
150.498741835
 21
31.4971831403
  0
LINE
  8
0
 62
7
  6
CONTINUOUS
 10
156.7868565615
 20
35.0200293383
 11
157.4425942664
 21
35.0200293383
  0
LINE
  8
0
 62
7
  6
CONTINUOUS
 10
154.4299918074
 20
31.0777551716
 11
154.5456166972
 21
31.1100188581
  0
LINE
  8
0
 62
7
  6
CONTINUOUS
 10
154.4299918074
 20
31.2390736489
 11
154.1987416972
 21
31.1745462761
  0
LINE
  8
0
 62
7
  6
CONTINUOUS
 10
154.3143669177
 20
31.4326557675
 11
154.4299918074
 21
31.4649194539
  0
LINE
  8
0
 62
7
  6
CONTINUOUS
 10
150.9612418074
 20
30.6260635193
 11
151.1924917523
 21
30.6905909007
  0
LINE
  8
0
 62
7
  6
CONTINUOUS
 10
154.2565543074
 20
31.5939741996
 11
154.1409294177
 21
31.5617105132
  0
LINE
  8
0
 62
7
  6
CONTINUOUS
 10
150.2096793212
 20
31.5939741996
 11
150.0362418212
 21
31.5617105132
  0
LINE
  8
0
 62
7
  6
CONTINUOUS
 10
160.9671844304
 20
36.1675703219
 11
159.5737418074
 21
36.1675703219
  0
LINE
  8
0
 62
7
  6
CONTINUOUS
 10
157.6065286927
 20
36.1675703219
 11
157.1939573441
 21
36.1675703219
  0
LINE
  8
0
 62
7
  6
CONTINUOUS
 10
155.9671844304
 20
36.1675703219
 11
154.5737418074
 21
36.1675703219
  0
LINE
  8
0
 62
7
  6
CONTINUOUS
 10
154.245872955
 20
36.1675703219
 11
152.852430332
 21
36.1675703219
  0
LINE
  8
0
 62
7
  6
CONTINUOUS
 10
150.9671844304
 20
36.1675703219
 11
149.5737418074
 21
36.1675703219
  0
LINE
  8
0
 62
7
  6
CONTINUOUS
 10
150.1518667936
 20
31.4326557675
 11
150.2674918074
 21
31.4649194539
  0
CIRCLE
  8
0
 62
7
  6
CONTINUOUS
 10
160.2704631189
 20
38.5036358957
 40
2.0901639344
  0
ARC
  8
0
 62
7
  6
CONTINUOUS
 10
151.2130860697
 20
34.0364227809
 40
1.6393442623
 50
180.0
 51
270.0
  0
ARC
  8
0
 62
7
  6
CONTINUOUS
 10
157.6065286927
 20
34.5282260596
 40
1.6393442623
 50
0.0
 51
90.0
  0
ARC
  8
0
 62
7
  6
CONTINUOUS
 10
151.6256574183
 20
33.8724883547
 40
1.4754098361
 50
270.0
 51
326.2510114041
  0
ARC
  8
0
 62
7
  6
CONTINUOUS
 10
157.1939573441
 20
34.6921604858
 40
1.4754098361
 50
90.0
 51
146.2510114041
  0
ARC
  8
0
 62
7
  6
CONTINUOUS
 10
152.0327582009
 20
34.3642916334
 40
0.8196721311
 50
270.0
 51
360.0
  0
ARC
  8
0
 62
7
  6
CONTINUOUS
 10
156.7868565615
 20
34.2003572071
 40
0.8196721311
 50
90.0
 51
180.0
  0
ARC
  8
0
 62
7
  6
CONTINUOUS
 10
151.3770204959
 20
33.9544555678
 40
0.4098360656
 50
180.0
 51
270.0
  0
ARC
  8
0
 62
7
  6
CONTINUOUS
 10
157.4425942664
 20
34.6101932727
 40
0.4098360656
 50
0.0
 51
90.0
  0
SOLID
  8
0
 62
7
  6
CONTINUOUS
 10
156.279992028
 20
31.9488752009
 11
156.279992028
 21
32.1101936845
 12
156.5690540869
 22
31.9488752009
 13
156.5690540869
 23
32.1101936845
  0
SOLID
  8
0
 62
7
  6
CONTINUOUS
 10
150.5565542799
 20
31.6262382337
 11
150.9612418074
 21
31.5939740028
 12
150.2096793212
 22
31.5939740028
 13
150.2096793212
 23
31.5939740028
  0
SOLID
  8
0
 62
7
  6
CONTINUOUS
 10
150.0362418212
 20
31.5617111435
 11
150.2096793212
 21
31.5939740028
 12
150.9612418074
 22
31.5939740028
 13
150.9612418074
 23
31.5939740028
  0
SOLID
  8
0
 62
7
  6
CONTINUOUS
 10
150.9612418074
 20
31.5939740028
 11
151.1924917523
 21
31.5294468402
 12
150.0362418212
 22
31.5617111435
 13
150.0362418212
 23
31.5617111435
  0
SOLID
  8
0
 62
7
  6
CONTINUOUS
 10
149.8628043005
 20
31.49718259
 11
150.0362418212
 21
31.5617111435
 12
151.1924917523
 22
31.5294468402
 13
151.1924917523
 23
31.5294468402
  0
SOLID
  8
0
 62
7
  6
CONTINUOUS
 10
149.8628043005
 20
31.49718259
 11
151.1924917523
 21
31.5294468402
 12
150.498741835
 22
31.49718259
 13
150.498741835
 23
31.49718259
  0
SOLID
  8
0
 62
7
  6
CONTINUOUS
 10
150.498741835
 20
31.49718259
 11
151.1924917523
 21
31.5294468402
 12
150.9034292799
 22
31.4649197501
 13
150.9034292799
 23
31.4649197501
  0
SOLID
  8
0
 62
7
  6
CONTINUOUS
 10
151.1924917523
 20
31.5294468402
 11
151.3659292523
 21
31.4326554468
 12
150.9034292799
 22
31.4649197501
 13
150.9034292799
 23
31.4649197501
  0
SOLID
  8
0
 62
7
  6
CONTINUOUS
 10
151.0768668626
 20
31.4003926599
 11
150.9034292799
 21
31.4649197501
 12
151.3659292523
 22
31.4326554468
 13
151.3659292523
 23
31.4326554468
  0
SOLID
  8
0
 62
7
  6
CONTINUOUS
 10
151.0768668626
 20
31.4003926599
 11
151.3659292523
 21
31.4326554468
 12
151.1346793074
 22
31.3036013776
 13
151.1346793074
 23
31.3036013776
  0
SOLID
  8
0
 62
7
  6
CONTINUOUS
 10
151.3659292523
 20
31.4326554468
 11
151.4237418626
 21
31.3036013776
 12
151.1346793074
 22
31.3036013776
 13
151.1346793074
 23
31.3036013776
  0
SOLID
  8
0
 62
7
  6
CONTINUOUS
 10
152.4643666972
 20
31.5939739754
 11
152.6956168074
 21
31.6262382787
 12
152.9268669177
 22
31.6262382787
 13
152.9268669177
 23
31.6262382787
  0
SOLID
  8
0
 62
7
  6
CONTINUOUS
 10
152.9268669177
 20
31.6262382787
 11
153.1003044177
 21
31.5939739754
 12
152.4643666972
 22
31.5939739754
 13
152.4643666972
 23
31.5939739754
  0
SOLID
  8
0
 62
7
  6
CONTINUOUS
 10
152.2909293626
 20
31.5294468852
 11
152.4643666972
 21
31.5939739754
 12
153.1003044177
 22
31.5939739754
 13
153.1003044177
 23
31.5939739754
  0
SOLID
  8
0
 62
7
  6
CONTINUOUS
 10
153.1003044177
 20
31.5939739754
 11
153.2737419177
 21
31.5294468852
 12
152.2909293626
 22
31.5294468852
 13
152.2909293626
 23
31.5294468852
  0
SOLID
  8
0
 62
7
  6
CONTINUOUS
 10
153.2737419177
 20
31.5294468852
 11
152.6956168074
 21
31.4971825369
 12
152.2909293626
 22
31.5294468852
 13
152.2909293626
 23
31.5294468852
  0
SOLID
  8
0
 62
7
  6
CONTINUOUS
 10
152.1753043074
 20
31.4649197951
 11
152.2909293626
 21
31.5294468852
 12
152.6956168074
 22
31.4971825369
 13
152.6956168074
 23
31.4971825369
  0
SOLID
  8
0
 62
7
  6
CONTINUOUS
 10
152.6956168074
 20
31.4971825369
 11
152.4643666972
 21
31.4649197951
 12
152.1753043074
 22
31.4649197951
 13
152.1753043074
 23
31.4649197951
  0
SOLID
  8
0
 62
7
  6
CONTINUOUS
 10
152.6956168074
 20
31.4971825369
 11
153.2737419177
 21
31.5294468852
 12
152.9268669177
 22
31.4649197951
 13
152.9268669177
 23
31.4649197951
  0
SOLID
  8
0
 62
7
  6
CONTINUOUS
 10
153.2737419177
 20
31.5294468852
 11
153.3893668074
 21
31.4649197951
 12
152.9268669177
 22
31.4649197951
 13
152.9268669177
 23
31.4649197951
  0
SOLID
  8
0
 62
7
  6
CONTINUOUS
 10
153.0424918074
 20
31.4326554468
 11
152.9268669177
 21
31.4649197951
 12
153.3893668074
 22
31.4649197951
 13
153.3893668074
 23
31.4649197951
  0
SOLID
  8
0
 62
7
  6
CONTINUOUS
 10
153.3893668074
 20
31.4649197951
 11
153.4471794177
 21
31.4003927049
 12
153.0424918074
 22
31.4326554468
 13
153.0424918074
 23
31.4326554468
  0
SOLID
  8
0
 62
7
  6
CONTINUOUS
 10
153.1581166972
 20
31.3681283566
 11
153.0424918074
 21
31.4326554468
 12
153.4471794177
 22
31.4003927049
 13
153.4471794177
 23
31.4003927049
  0
SOLID
  8
0
 62
7
  6
CONTINUOUS
 10
153.1581166972
 20
31.3681283566
 11
153.4471794177
 21
31.4003927049
 12
153.2159293074
 22
31.2390742213
 13
153.2159293074
 23
31.2390742213
  0
SOLID
  8
0
 62
7
  6
CONTINUOUS
 10
153.4471794177
 20
31.4003927049
 11
153.5049916972
 21
31.2390742213
 12
153.2159293074
 22
31.2390742213
 13
153.2159293074
 23
31.2390742213
  0
SOLID
  8
0
 62
7
  6
CONTINUOUS
 10
152.4643666972
 20
31.4649197951
 11
152.2909293626
 21
31.4003927049
 12
152.1753043074
 22
31.4649197951
 13
152.1753043074
 23
31.4649197951
  0
SOLID
  8
0
 62
7
  6
CONTINUOUS
 10
152.2909293626
 20
31.4003927049
 11
152.1753043074
 21
31.3358640533
 12
152.1753043074
 22
31.4649197951
 13
152.1753043074
 23
31.4649197951
  0
SOLID
  8
0
 62
7
  6
CONTINUOUS
 10
152.1753043074
 20
31.3358640533
 11
151.8862417523
 21
30.5938002869
 12
152.1753043074
 22
31.4649197951
 13
152.1753043074
 23
31.4649197951
  0
SOLID
  8
0
 62
7
  6
CONTINUOUS
 10
152.1753043074
 20
31.4649197951
 11
151.8862417523
 21
30.5938002869
 12
152.1753043074
 22
32.1101937295
 13
152.1753043074
 23
32.1101937295
  0
SOLID
  8
0
 62
7
  6
CONTINUOUS
 10
151.8862417523
 20
30.5938002869
 11
151.8862417523
 21
32.1101937295
 12
152.1753043074
 22
32.1101937295
 13
152.1753043074
 23
32.1101937295
  0
SOLID
  8
0
 62
7
  6
CONTINUOUS
 10
152.1753043074
 20
31.3358640533
 11
152.1753043074
 21
30.5938002869
 12
151.8862417523
 22
30.5938002869
 13
151.8862417523
 23
30.5938002869
  0
SOLID
  8
0
 62
7
  6
CONTINUOUS
 10
153.2159293074
 20
30.5938002869
 11
153.2159293074
 21
31.2390742213
 12
153.5049916972
 22
31.2390742213
 13
153.5049916972
 23
31.2390742213
  0
SOLID
  8
0
 62
7
  6
CONTINUOUS
 10
153.5049916972
 20
31.2390742213
 11
153.5049916972
 21
30.5938002869
 12
153.2159293074
 22
30.5938002869
 13
153.2159293074
 23
30.5938002869
  0
SOLID
  8
0
 62
7
  6
CONTINUOUS
 10
154.2565543074
 20
31.5939738288
 11
154.6612419177
 21
31.6262385959
 12
155.0081169177
 22
31.6262385959
 13
155.0081169177
 23
31.6262385959
  0
SOLID
  8
0
 62
7
  6
CONTINUOUS
 10
155.0081169177
 20
31.6262385959
 11
155.3549915869
 21
31.5939738288
 12
154.2565543074
 22
31.5939738288
 13
154.2565543074
 23
31.5939738288
  0
SOLID
  8
0
 62
7
  6
CONTINUOUS
 10
154.1409294177
 20
31.5617111435
 11
154.2565543074
 21
31.5939738288
 12
155.3549915869
 22
31.5939738288
 13
155.3549915869
 23
31.5939738288
  0
SOLID
  8
0
 62
7
  6
CONTINUOUS
 10
155.3549915869
 20
31.5939738288
 11
155.5284290869
 21
31.5294468402
 12
154.1409294177
 22
31.5617111435
 13
154.1409294177
 23
31.5617111435
  0
SOLID
  8
0
 62
7
  6
CONTINUOUS
 10
154.0253041972
 20
31.4971826249
 11
154.1409294177
 21
31.5617111435
 12
155.5284290869
 22
31.5294468402
 13
155.5284290869
 23
31.5294468402
  0
SOLID
  8
0
 62
7
  6
CONTINUOUS
 10
154.0253041972
 20
31.4971826249
 11
155.5284290869
 21
31.5294468402
 12
154.6612419177
 22
31.4971826249
 13
154.6612419177
 23
31.4971826249
  0
SOLID
  8
0
 62
7
  6
CONTINUOUS
 10
154.6612419177
 20
31.4971826249
 11
155.5284290869
 21
31.5294468402
 12
155.0081169177
 22
31.4971826249
 13
155.0081169177
 23
31.4971826249
  0
SOLID
  8
0
 62
7
  6
CONTINUOUS
 10
155.0081169177
 20
31.4971826249
 11
155.5284290869
 21
31.5294468402
 12
155.239367028
 22
31.4649194065
 13
155.239367028
 23
31.4649194065
  0
SOLID
  8
0
 62
7
  6
CONTINUOUS
 10
155.5284290869
 20
31.5294468402
 11
155.6440543074
 21
31.4649194065
 12
155.239367028
 22
31.4649194065
 13
155.239367028
 23
31.4649194065
  0
SOLID
  8
0
 62
7
  6
CONTINUOUS
 10
153.9674919177
 20
31.4326554138
 11
154.0253041972
 21
31.4971826249
 12
154.6612419177
 22
31.4971826249
 13
154.6612419177
 23
31.4971826249
  0
SOLID
  8
0
 62
7
  6
CONTINUOUS
 10
155.3549915869
 20
31.4326554138
 11
155.239367028
 21
31.4649194065
 12
155.6440543074
 22
31.4649194065
 13
155.6440543074
 23
31.4649194065
  0
SOLID
  8
0
 62
7
  6
CONTINUOUS
 10
155.3549915869
 20
31.4326554138
 11
155.6440543074
 21
31.4649194065
 12
155.412804528
 22
31.3681282026
 13
155.412804528
 23
31.3681282026
  0
SOLID
  8
0
 62
7
  6
CONTINUOUS
 10
155.6440543074
 20
31.4649194065
 11
155.7018665869
 21
31.3681282026
 12
155.412804528
 22
31.3681282026
 13
155.412804528
 23
31.3681282026
  0
SOLID
  8
0
 62
7
  6
CONTINUOUS
 10
155.412804528
 20
31.2713369632
 11
155.412804528
 21
31.3681282026
 12
155.7018665869
 22
31.3681282026
 13
155.7018665869
 23
31.3681282026
  0
SOLID
  8
0
 62
7
  6
CONTINUOUS
 10
155.412804528
 20
31.2713369632
 11
155.7018665869
 21
31.3681282026
 12
155.412804528
 22
31.1422827828
 13
155.412804528
 23
31.1422827828
  0
SOLID
  8
0
 62
7
  6
CONTINUOUS
 10
155.412804528
 20
31.1422827828
 11
155.7018665869
 21
31.3681282026
 12
155.412804528
 22
30.9487004259
 13
155.412804528
 23
30.9487004259
  0
SOLID
  8
0
 62
7
  6
CONTINUOUS
 10
155.7018665869
 20
31.3681282026
 11
155.7018665869
 21
30.8519086025
 12
155.412804528
 22
30.9487004259
 13
155.412804528
 23
30.9487004259
  0
SOLID
  8
0
 62
7
  6
CONTINUOUS
 10
157.6096790869
 20
31.5939736268
 11
157.840929528
 21
31.6262383465
 12
158.0721793074
 22
31.6262383465
 13
158.0721793074
 23
31.6262383465
  0
SOLID
  8
0
 62
7
  6
CONTINUOUS
 10
158.0721793074
 20
31.6262383465
 11
158.2456168074
 21
31.5939736268
 12
157.6096790869
 22
31.5939736268
 13
157.6096790869
 23
31.5939736268
  0
SOLID
  8
0
 62
7
  6
CONTINUOUS
 10
157.4362415869
 20
31.5294472848
 11
157.6096790869
 21
31.5939736268
 12
158.2456168074
 22
31.5939736268
 13
158.2456168074
 23
31.5939736268
  0
SOLID
  8
0
 62
7
  6
CONTINUOUS
 10
158.2456168074
 20
31.5939736268
 11
158.4190543074
 21
31.5294472848
 12
157.4362415869
 22
31.5294472848
 13
157.4362415869
 23
31.5294472848
  0
SOLID
  8
0
 62
7
  6
CONTINUOUS
 10
158.4190543074
 20
31.5294472848
 11
157.840929528
 21
31.4971825369
 12
157.4362415869
 22
31.5294472848
 13
157.4362415869
 23
31.5294472848
  0
SOLID
  8
0
 62
7
  6
CONTINUOUS
 10
157.320617028
 20
31.4649199103
 11
157.4362415869
 21
31.5294472848
 12
157.840929528
 22
31.4971825369
 13
157.840929528
 23
31.4971825369
  0
SOLID
  8
0
 62
7
  6
CONTINUOUS
 10
157.840929528
 20
31.4971825369
 11
157.6096790869
 21
31.4649199103
 12
157.320617028
 22
31.4649199103
 13
157.320617028
 23
31.4649199103
  0
SOLID
  8
0
 62
7
  6
CONTINUOUS
 10
157.840929528
 20
31.4971825369
 11
158.4190543074
 21
31.5294472848
 12
158.0721793074
 22
31.4649199103
 13
158.0721793074
 23
31.4649199103
  0
SOLID
  8
0
 62
7
  6
CONTINUOUS
 10
158.4190543074
 20
31.5294472848
 11
158.534679528
 21
31.4649199103
 12
158.0721793074
 22
31.4649199103
 13
158.0721793074
 23
31.4649199103
  0
SOLID
  8
0
 62
7
  6
CONTINUOUS
 10
158.187804528
 20
31.4326554468
 11
158.0721793074
 21
31.4649199103
 12
158.534679528
 22
31.4649199103
 13
158.534679528
 23
31.4649199103
  0
SOLID
  8
0
 62
7
  6
CONTINUOUS
 10
158.187804528
 20
31.4326554468
 11
158.534679528
 21
31.4649199103
 12
158.3034290869
 22
31.3681288486
 13
158.3034290869
 23
31.3681288486
  0
SOLID
  8
0
 62
7
  6
CONTINUOUS
 10
158.534679528
 20
31.4649199103
 11
158.5924918074
 21
31.3681288486
 12
158.3034290869
 22
31.3681288486
 13
158.3034290869
 23
31.3681288486
  0
SOLID
  8
0
 62
7
  6
CONTINUOUS
 10
158.361242028
 20
31.2068093799
 11
158.3034290869
 21
31.3681288486
 12
158.5924918074
 22
31.3681288486
 13
158.5924918074
 23
31.3681288486
  0
SOLID
  8
0
 62
7
  6
CONTINUOUS
 10
158.5924918074
 20
31.3681288486
 11
158.6503040869
 21
31.2068093799
 12
158.361242028
 22
31.2068093799
 13
158.361242028
 23
31.2068093799
  0
SOLID
  8
0
 62
7
  6
CONTINUOUS
 10
157.6096790869
 20
31.4649199103
 11
157.4362415869
 21
31.4003926599
 12
157.320617028
 22
31.4649199103
 13
157.320617028
 23
31.4649199103
  0
SOLID
  8
0
 62
7
  6
CONTINUOUS
 10
157.4362415869
 20
31.4003926599
 11
157.320617028
 21
31.3358640533
 12
157.320617028
 22
31.4649199103
 13
157.320617028
 23
31.4649199103
  0
SOLID
  8
0
 62
7
  6
CONTINUOUS
 10
157.320617028
 20
31.3358640533
 11
157.0315543074
 21
30.5938003547
 12
157.320617028
 22
31.4649199103
 13
157.320617028
 23
31.4649199103
  0
SOLID
  8
0
 62
7
  6
CONTINUOUS
 10
157.320617028
 20
31.4649199103
 11
157.0315543074
 21
30.5938003547
 12
157.320617028
 22
31.6262383465
 13
157.320617028
 23
31.6262383465
  0
SOLID
  8
0
 62
7
  6
CONTINUOUS
 10
157.0315543074
 20
30.5938003547
 11
157.0315543074
 21
31.6262383465
 12
157.320617028
 22
31.6262383465
 13
157.320617028
 23
31.6262383465
  0
SOLID
  8
0
 62
7
  6
CONTINUOUS
 10
157.320617028
 20
31.3358640533
 11
157.320617028
 21
30.5938003547
 12
157.0315543074
 22
30.5938003547
 13
157.0315543074
 23
30.5938003547
  0
SOLID
  8
0
 62
7
  6
CONTINUOUS
 10
158.361242028
 20
30.5938003547
 11
158.361242028
 21
31.2068093799
 12
158.6503040869
 22
31.2068093799
 13
158.6503040869
 23
31.2068093799
  0
SOLID
  8
0
 62
7
  6
CONTINUOUS
 10
158.6503040869
 20
31.2068093799
 11
158.6503040869
 21
30.5938003547
 12
158.361242028
 22
30.5938003547
 13
158.361242028
 23
30.5938003547
  0
SOLID
  8
0
 62
7
  6
CONTINUOUS
 10
159.4596793074
 20
31.5939739474
 11
159.8065543074
 21
31.6262381969
 12
160.1534293074
 22
31.6262381969
 13
160.1534293074
 23
31.6262381969
  0
SOLID
  8
0
 62
7
  6
CONTINUOUS
 10
160.1534293074
 20
31.6262381969
 11
160.5003043074
 21
31.5939739474
 12
159.4596793074
 22
31.5939739474
 13
159.4596793074
 23
31.5939739474
  0
SOLID
  8
0
 62
7
  6
CONTINUOUS
 10
159.228429528
 20
31.5294468402
 11
159.4596793074
 21
31.5939739474
 12
160.5003043074
 22
31.5939739474
 13
160.5003043074
 23
31.5939739474
  0
SOLID
  8
0
 62
7
  6
CONTINUOUS
 10
159.228429528
 20
31.5294468402
 11
160.5003043074
 21
31.5939739304
 12
160.6737418074
 22
31.5617111435
 13
160.6737418074
 23
31.5617111435
  0
SOLID
  8
0
 62
7
  6
CONTINUOUS
 10
159.228429528
 20
31.5294468402
 11
160.6737418074
 21
31.5617111435
 12
159.8065543074
 22
31.4971825592
 13
159.8065543074
 23
31.4971825592
  0
SOLID
  8
0
 62
7
  6
CONTINUOUS
 10
159.8065543074
 20
31.4971825592
 11
160.6737418074
 21
31.5617111435
 12
160.1534293074
 22
31.4971825592
 13
160.1534293074
 23
31.4971825592
  0
SOLID
  8
0
 62
7
  6
CONTINUOUS
 10
160.6737418074
 20
31.5617111435
 11
160.8471793074
 21
31.4971825592
 12
160.1534293074
 22
31.4971825592
 13
160.1534293074
 23
31.4971825592
  0
SOLID
  8
0
 62
7
  6
CONTINUOUS
 10
160.5003043074
 20
31.4649197501
 11
160.1534293074
 21
31.4971825592
 12
160.8471793074
 22
31.4971825592
 13
160.8471793074
 23
31.4971825592
  0
SOLID
  8
0
 62
7
  6
CONTINUOUS
 10
159.1128043074
 20
31.4326555427
 11
159.228429528
 21
31.5294468402
 12
159.8065543074
 22
31.4971825592
 13
159.8065543074
 23
31.4971825592
  0
SOLID
  8
0
 62
7
  6
CONTINUOUS
 10
160.5003043074
 20
31.4649197501
 11
160.8471793074
 21
31.4971825592
 12
160.615929528
 22
31.4326555427
 13
160.615929528
 23
31.4326555427
  0
SOLID
  8
0
 62
7
  6
CONTINUOUS
 10
160.615929528
 20
31.4326555427
 11
160.8471793074
 21
31.4971825592
 12
160.6737418074
 22
31.3681283005
 13
160.6737418074
 23
31.3681283005
  0
SOLID
  8
0
 62
7
  6
CONTINUOUS
 10
160.8471793074
 20
31.4971825592
 11
160.9628038663
 21
31.3681283005
 12
160.6737418074
 22
31.3681283005
 13
160.6737418074
 23
31.3681283005
  0
SOLID
  8
0
 62
7
  6
CONTINUOUS
 10
150.2674918074
 20
31.4649197501
 11
149.7471793074
 21
31.4326554237
 12
150.498741835
 22
31.4971824493
 13
150.498741835
 23
31.4971824493
  0
SOLID
  8
0
 62
7
  6
CONTINUOUS
 10
149.7471793074
 20
31.4326554237
 11
149.8628043005
 21
31.4971824493
 12
150.498741835
 22
31.4971824493
 13
150.498741835
 23
31.4971824493
  0
SOLID
  8
0
 62
7
  6
CONTINUOUS
 10
150.2674918074
 20
31.4649197501
 11
150.1518667936
 21
31.4326554237
 12
149.7471793074
 22
31.4326554237
 13
149.7471793074
 23
31.4326554237
  0
SOLID
  8
0
 62
7
  6
CONTINUOUS
 10
149.6315543091
 20
31.3036012664
 11
149.7471793074
 21
31.4326554237
 12
150.1518667936
 22
31.4326554237
 13
150.1518667936
 23
31.4326554237
  0
SOLID
  8
0
 62
7
  6
CONTINUOUS
 10
153.9674919177
 20
31.4326554237
 11
154.6612419177
 21
31.4971825369
 12
154.4299918074
 22
31.4649197501
 13
154.4299918074
 23
31.4649197501
  0
SOLID
  8
0
 62
7
  6
CONTINUOUS
 10
154.4299918074
 20
31.4649197501
 11
154.3143669177
 21
31.4326554237
 12
153.9674919177
 22
31.4326554237
 13
153.9674919177
 23
31.4326554237
  0
SOLID
  8
0
 62
7
  6
CONTINUOUS
 10
153.9674919177
 20
31.3681283335
 11
153.9674919177
 21
31.4326554237
 12
154.3143669177
 22
31.4326554237
 13
154.3143669177
 23
31.4326554237
  0
SOLID
  8
0
 62
7
  6
CONTINUOUS
 10
154.3143669177
 20
31.4326554237
 11
154.2565543074
 21
31.3681283335
 12
153.9674919177
 22
31.3681283335
 13
153.9674919177
 23
31.3681283335
  0
SOLID
  8
0
 62
7
  6
CONTINUOUS
 10
159.1128043074
 20
31.4326555528
 11
159.8065543074
 21
31.4971825369
 12
159.575304528
 22
31.4649197501
 13
159.575304528
 23
31.4649197501
  0
SOLID
  8
0
 62
7
  6
CONTINUOUS
 10
159.575304528
 20
31.4649197501
 11
159.4596793074
 21
31.4326555528
 12
159.1128043074
 22
31.4326555528
 13
159.1128043074
 23
31.4326555528
  0
SOLID
  8
0
 62
7
  6
CONTINUOUS
 10
159.1128043074
 20
31.3681284626
 11
159.1128043074
 21
31.4326555528
 12
159.4596793074
 22
31.4326555528
 13
159.4596793074
 23
31.4326555528
  0
SOLID
  8
0
 62
7
  6
CONTINUOUS
 10
159.4596793074
 20
31.4326555528
 11
159.401867028
 21
31.3681284626
 12
159.1128043074
 22
31.3681284626
 13
159.1128043074
 23
31.3681284626
  0
SOLID
  8
0
 62
7
  6
CONTINUOUS
 10
159.228429528
 20
31.2390741763
 11
159.1128043074
 21
31.3681284626
 12
159.401867028
 22
31.3681284626
 13
159.401867028
 23
31.3681284626
  0
SOLID
  8
0
 62
7
  6
CONTINUOUS
 10
149.6315543091
 20
31.3036012664
 11
150.1518667936
 21
31.4326554468
 12
149.9784292936
 22
31.3358640533
 13
149.9784292936
 23
31.3358640533
  0
SOLID
  8
0
 62
7
  6
CONTINUOUS
 10
149.9784292936
 20
31.3358640533
 11
149.9206168074
 21
31.2713369632
 12
149.6315543091
 22
31.3036012664
 13
149.6315543091
 23
31.3036012664
  0
SOLID
  8
0
 62
7
  6
CONTINUOUS
 10
149.5737418074
 20
31.1100184796
 11
149.6315543091
 21
31.3036012664
 12
149.9206168074
 22
31.2713369632
 13
149.9206168074
 23
31.2713369632
  0
SOLID
  8
0
 62
7
  6
CONTINUOUS
 10
154.4299918074
 20
31.2390741763
 11
154.7768668074
 21
31.271336924
 12
155.412804528
 22
31.271336924
 13
155.412804528
 23
31.271336924
  0
SOLID
  8
0
 62
7
  6
CONTINUOUS
 10
154.4299918074
 20
31.2390741763
 11
155.412804528
 21
31.271336924
 12
154.1987416972
 22
31.1745462761
 13
154.1987416972
 23
31.1745462761
  0
SOLID
  8
0
 62
7
  6
CONTINUOUS
 10
154.1987416972
 20
31.1745462761
 11
155.412804528
 21
31.271336924
 12
154.7768668074
 22
31.1422827436
 13
154.7768668074
 23
31.1422827436
  0
SOLID
  8
0
 62
7
  6
CONTINUOUS
 10
155.412804528
 20
31.271336924
 11
155.412804528
 21
31.1422827436
 12
154.7768668074
 22
31.1422827436
 13
154.7768668074
 23
31.1422827436
  0
SOLID
  8
0
 62
7
  6
CONTINUOUS
 10
159.228429528
 20
31.2390745501
 11
159.401867028
 21
31.3681283566
 12
159.4596793074
 22
31.3036012664
 13
159.4596793074
 23
31.3036012664
  0
SOLID
  8
0
 62
7
  6
CONTINUOUS
 10
159.4596793074
 20
31.3036012664
 11
159.6331168074
 21
31.2390745501
 12
159.228429528
 22
31.2390745501
 13
159.228429528
 23
31.2390745501
  0
SOLID
  8
0
 62
7
  6
CONTINUOUS
 10
159.4596793074
 20
31.1422827828
 11
159.228429528
 21
31.2390745501
 12
159.6331168074
 22
31.2390745501
 13
159.6331168074
 23
31.2390745501
  0
SOLID
  8
0
 62
7
  6
CONTINUOUS
 10
159.6331168074
 20
31.2390745501
 11
160.615929528
 21
31.0777556927
 12
159.4596793074
 22
31.1422827828
 13
159.4596793074
 23
31.1422827828
  0
SOLID
  8
0
 62
7
  6
CONTINUOUS
 10
160.442492028
 20
30.9809646623
 11
159.4596793074
 21
31.1422827828
 12
160.615929528
 22
31.0777556927
 13
160.615929528
 23
31.0777556927
  0
SOLID
  8
0
 62
7
  6
CONTINUOUS
 10
160.615929528
 20
31.0777556927
 11
160.8471793074
 21
30.9809646623
 12
160.442492028
 22
30.9809646623
 13
160.442492028
 23
30.9809646623
  0
SOLID
  8
0
 62
7
  6
CONTINUOUS
 10
160.615929528
 20
30.9164372091
 11
160.442492028
 21
30.9809646623
 12
160.8471793074
 22
30.9809646623
 13
160.8471793074
 23
30.9809646623
  0
SOLID
  8
0
 62
7
  6
CONTINUOUS
 10
160.615929528
 20
30.9164372091
 11
160.8471793074
 21
30.9809646623
 12
160.6737418074
 22
30.8519089441
 13
160.6737418074
 23
30.8519089441
  0
SOLID
  8
0
 62
7
  6
CONTINUOUS
 10
160.8471793074
 20
30.9809646623
 11
160.9628038663
 21
30.8519089441
 12
160.6737418074
 22
30.8519089441
 13
160.6737418074
 23
30.8519089441
  0
SOLID
  8
0
 62
7
  6
CONTINUOUS
 10
160.615929528
 20
30.7873818593
 11
160.6737418074
 21
30.8519089441
 12
160.9628038663
 22
30.8519089441
 13
160.9628038663
 23
30.8519089441
  0
SOLID
  8
0
 62
7
  6
CONTINUOUS
 10
160.9628038663
 20
30.8519089441
 11
160.9628038663
 21
30.7873818593
 12
160.615929528
 22
30.7873818593
 13
160.615929528
 23
30.7873818593
  0
SOLID
  8
0
 62
7
  6
CONTINUOUS
 10
160.5003043074
 20
30.7551187255
 11
160.615929528
 21
30.7873818593
 12
160.9628038663
 22
30.7873818593
 13
160.9628038663
 23
30.7873818593
  0
SOLID
  8
0
 62
7
  6
CONTINUOUS
 10
160.5003043074
 20
30.7551187255
 11
160.9628038663
 21
30.7873818593
 12
160.269054528
 22
30.7228547745
 13
160.269054528
 23
30.7228547745
  0
SOLID
  8
0
 62
7
  6
CONTINUOUS
 10
160.9628038663
 20
30.7873818593
 11
160.8471793074
 21
30.6905916353
 12
160.269054528
 22
30.7228547745
 13
160.269054528
 23
30.7228547745
  0
SOLID
  8
0
 62
7
  6
CONTINUOUS
 10
160.8471793074
 20
30.6905916353
 11
159.401867028
 21
30.658327332
 12
160.269054528
 22
30.7228547745
 13
160.269054528
 23
30.7228547745
  0
SOLID
  8
0
 62
7
  6
CONTINUOUS
 10
160.269054528
 20
30.7228547745
 11
159.401867028
 21
30.658327332
 12
159.922179528
 22
30.7228547745
 13
159.922179528
 23
30.7228547745
  0
SOLID
  8
0
 62
7
  6
CONTINUOUS
 10
159.401867028
 20
30.658327332
 11
159.228429528
 21
30.7228547745
 12
159.922179528
 22
30.7228547745
 13
159.922179528
 23
30.7228547745
  0
SOLID
  8
0
 62
7
  6
CONTINUOUS
 10
159.401867028
 20
30.658327332
 11
160.8471793074
 21
30.6905916353
 12
159.575304528
 22
30.6260629858
 13
159.575304528
 23
30.6260629858
  0
SOLID
  8
0
 62
7
  6
CONTINUOUS
 10
160.8471793074
 20
30.6905916353
 11
160.615929528
 21
30.6260629858
 12
159.575304528
 22
30.6260629858
 13
159.575304528
 23
30.6260629858
  0
SOLID
  8
0
 62
7
  6
CONTINUOUS
 10
159.922179528
 20
30.5938006049
 11
159.575304528
 21
30.6260629858
 12
160.615929528
 22
30.6260629858
 13
160.615929528
 23
30.6260629858
  0
SOLID
  8
0
 62
7
  6
CONTINUOUS
 10
160.615929528
 20
30.6260629858
 11
160.269054528
 21
30.5938006049
 12
159.922179528
 22
30.5938006049
 13
159.922179528
 23
30.5938006049
  0
SOLID
  8
0
 62
7
  6
CONTINUOUS
 10
149.5737418074
 20
31.1100184796
 11
149.9206168074
 21
31.2713369632
 12
149.8628043005
 22
31.1422827828
 13
149.8628043005
 23
31.1422827828
  0
SOLID
  8
0
 62
7
  6
CONTINUOUS
 10
149.8628043005
 20
31.1422827828
 11
149.8628043005
 21
31.0454914852
 12
149.5737418074
 22
31.1100184796
 13
149.5737418074
 23
31.1100184796
  0
SOLID
  8
0
 62
7
  6
CONTINUOUS
 10
149.6315543091
 20
30.9164372091
 11
149.5737418074
 21
31.1100184796
 12
149.8628043005
 22
31.0454914852
 13
149.8628043005
 23
31.0454914852
  0
SOLID
  8
0
 62
7
  6
CONTINUOUS
 10
149.8628043005
 20
31.0454914852
 11
149.9784292936
 21
30.8841729058
 12
149.6315543091
 22
30.9164372091
 13
149.6315543091
 23
30.9164372091
  0
SOLID
  8
0
 62
7
  6
CONTINUOUS
 10
149.7471793074
 20
30.7873813202
 11
149.6315543091
 21
30.9164372091
 12
149.9784292936
 22
30.8841729058
 13
149.9784292936
 23
30.8841729058
  0
SOLID
  8
0
 62
7
  6
CONTINUOUS
 10
149.9784292936
 20
30.8841729058
 11
150.1518667936
 21
30.7873813202
 12
149.7471793074
 22
30.7873813202
 13
149.7471793074
 23
30.7873813202
  0
SOLID
  8
0
 62
7
  6
CONTINUOUS
 10
149.8628043005
 20
30.7228547004
 11
149.7471793074
 21
30.7873813202
 12
150.1518667936
 22
30.7873813202
 13
150.1518667936
 23
30.7873813202
  0
SOLID
  8
0
 62
7
  6
CONTINUOUS
 10
150.1518667936
 20
30.7873813202
 11
150.498741835
 21
30.7228547004
 12
149.8628043005
 22
30.7228547004
 13
149.8628043005
 23
30.7228547004
  0
SOLID
  8
0
 62
7
  6
CONTINUOUS
 10
150.0362418212
 20
30.658327332
 11
149.8628043005
 21
30.7228547004
 12
150.498741835
 22
30.7228547004
 13
150.498741835
 23
30.7228547004
  0
SOLID
  8
0
 62
7
  6
CONTINUOUS
 10
154.0831168074
 20
31.1100184386
 11
154.1987416972
 21
31.1745462761
 12
154.7768668074
 22
31.1422827828
 13
154.7768668074
 23
31.1422827828
  0
SOLID
  8
0
 62
7
  6
CONTINUOUS
 10
154.7768668074
 20
31.1422827828
 11
154.5456166972
 21
31.1100184386
 12
154.0831168074
 22
31.1100184386
 13
154.0831168074
 23
31.1100184386
  0
SOLID
  8
0
 62
7
  6
CONTINUOUS
 10
153.9674919177
 20
30.9809642992
 11
154.0831168074
 21
31.1100184386
 12
154.5456166972
 22
31.1100184386
 13
154.5456166972
 23
31.1100184386
  0
SOLID
  8
0
 62
7
  6
CONTINUOUS
 10
154.3143669177
 20
31.0132277988
 11
153.9674919177
 21
30.9809642992
 12
154.4299918074
 22
31.0777556927
 13
154.4299918074
 23
31.0777556927
  0
SOLID
  8
0
 62
7
  6
CONTINUOUS
 10
153.9674919177
 20
30.9809642992
 11
154.5456166972
 21
31.1100184796
 12
154.4299918074
 22
31.0777556927
 13
154.4299918074
 23
31.0777556927
  0
SOLID
  8
0
 62
7
  6
CONTINUOUS
 10
154.3143669177
 20
31.0132277988
 11
154.2565543074
 21
30.9164372091
 12
153.9674919177
 22
30.9809642992
 13
153.9674919177
 23
30.9809642992
  0
SOLID
  8
0
 62
7
  6
CONTINUOUS
 10
153.9674919177
 20
30.8841729058
 11
153.9674919177
 21
30.9809642992
 12
154.2565543074
 22
30.9164372091
 13
154.2565543074
 23
30.9164372091
  0
SOLID
  8
0
 62
7
  6
CONTINUOUS
 10
154.2565543074
 20
30.9164372091
 11
154.2565543074
 21
30.8519086025
 12
153.9674919177
 22
30.8841729058
 13
153.9674919177
 23
30.8841729058
  0
SOLID
  8
0
 62
7
  6
CONTINUOUS
 10
154.0253041972
 20
30.7551187255
 11
153.9674919177
 21
30.8841729058
 12
154.2565543074
 22
30.8519086025
 13
154.2565543074
 23
30.8519086025
  0
SOLID
  8
0
 62
7
  6
CONTINUOUS
 10
155.412804528
 20
30.9487004259
 11
155.7018665869
 21
30.8519086025
 12
155.3549915869
 22
30.8841729058
 13
155.3549915869
 23
30.8841729058
  0
SOLID
  8
0
 62
7
  6
CONTINUOUS
 10
155.1815540869
 20
30.7873815123
 11
155.3549915869
 21
30.8841729058
 12
155.7018665869
 22
30.8519086025
 13
155.7018665869
 23
30.8519086025
  0
SOLID
  8
0
 62
7
  6
CONTINUOUS
 10
155.1815540869
 20
30.7873815123
 11
155.7018665869
 21
30.8519086025
 12
155.412804528
 22
30.7551187255
 13
155.412804528
 23
30.7551187255
  0
SOLID
  8
0
 62
7
  6
CONTINUOUS
 10
155.7018665869
 20
30.8519086025
 11
155.759679528
 21
30.6905916353
 12
155.412804528
 22
30.7551187255
 13
155.412804528
 23
30.7551187255
  0
SOLID
  8
0
 62
7
  6
CONTINUOUS
 10
155.4706168074
 20
30.658327332
 11
155.412804528
 21
30.7551187255
 12
155.759679528
 22
30.6905916353
 13
155.759679528
 23
30.6905916353
  0
SOLID
  8
0
 62
7
  6
CONTINUOUS
 10
155.4706168074
 20
30.658327332
 11
155.759679528
 21
30.6905916353
 12
155.5284290869
 22
30.5938002079
 13
155.5284290869
 23
30.5938002079
  0
SOLID
  8
0
 62
7
  6
CONTINUOUS
 10
155.759679528
 20
30.6905916353
 11
155.8174918074
 21
30.5938002079
 12
155.5284290869
 22
30.5938002079
 13
155.5284290869
 23
30.5938002079
  0
SOLID
  8
0
 62
7
  6
CONTINUOUS
 10
151.0768668626
 20
30.8196456577
 11
151.1346793074
 21
30.9164373395
 12
151.4237418626
 22
30.9164373395
 13
151.4237418626
 23
30.9164373395
  0
SOLID
  8
0
 62
7
  6
CONTINUOUS
 10
151.4237418626
 20
30.9164373395
 11
151.3659292523
 21
30.7873815123
 12
151.0768668626
 22
30.8196456577
 13
151.0768668626
 23
30.8196456577
  0
SOLID
  8
0
 62
7
  6
CONTINUOUS
 10
150.9034292799
 20
30.7551187255
 11
151.0768668626
 21
30.8196456577
 12
151.3659292523
 22
30.7873815123
 13
151.3659292523
 23
30.7873815123
  0
SOLID
  8
0
 62
7
  6
CONTINUOUS
 10
150.9034292799
 20
30.7551187255
 11
151.3659292523
 21
30.7873815123
 12
150.498741835
 22
30.7228544222
 13
150.498741835
 23
30.7228544222
  0
SOLID
  8
0
 62
7
  6
CONTINUOUS
 10
151.3659292523
 20
30.7873815123
 11
151.1924917523
 21
30.6905916353
 12
150.498741835
 22
30.7228544222
 13
150.498741835
 23
30.7228544222
  0
SOLID
  8
0
 62
7
  6
CONTINUOUS
 10
150.0362418212
 20
30.658327332
 11
150.498741835
 21
30.7228544222
 12
151.1924917523
 22
30.6905916353
 13
151.1924917523
 23
30.6905916353
  0
SOLID
  8
0
 62
7
  6
CONTINUOUS
 10
150.0362418212
 20
30.658327332
 11
151.1924917523
 21
30.6905916353
 12
150.2096793212
 22
30.6260631011
 13
150.2096793212
 23
30.6260631011
  0
SOLID
  8
0
 62
7
  6
CONTINUOUS
 10
151.1924917523
 20
30.6905916353
 11
150.9612418074
 21
30.6260631011
 12
150.2096793212
 22
30.6260631011
 13
150.2096793212
 23
30.6260631011
  0
SOLID
  8
0
 62
7
  6
CONTINUOUS
 10
150.5565542799
 20
30.5938002419
 11
150.2096793212
 21
30.6260631011
 12
150.9612418074
 22
30.6260631011
 13
150.9612418074
 23
30.6260631011
  0
SOLID
  8
0
 62
7
  6
CONTINUOUS
 10
154.0253041972
 20
30.7551187255
 11
154.2565543074
 21
30.8519086025
 12
154.3143669177
 22
30.7873815123
 13
154.3143669177
 23
30.7873815123
  0
SOLID
  8
0
 62
7
  6
CONTINUOUS
 10
154.3143669177
 20
30.7873815123
 11
154.5456166972
 21
30.7228544222
 12
154.0253041972
 22
30.7551187255
 13
154.0253041972
 23
30.7551187255
  0
SOLID
  8
0
 62
7
  6
CONTINUOUS
 10
154.1987416972
 20
30.658327332
 11
154.0253041972
 21
30.7551187255
 12
154.5456166972
 22
30.7228544222
 13
154.5456166972
 23
30.7228544222
  0
SOLID
  8
0
 62
7
  6
CONTINUOUS
 10
154.8924916972
 20
30.7228544637
 11
155.1815540869
 21
30.7873815123
 12
155.412804528
 22
30.7551187255
 13
155.412804528
 23
30.7551187255
  0
SOLID
  8
0
 62
7
  6
CONTINUOUS
 10
155.412804528
 20
30.7551187255
 11
155.3549915869
 21
30.6905916353
 12
154.8924916972
 22
30.7228544637
 13
154.8924916972
 23
30.7228544637
  0
SOLID
  8
0
 62
7
  6
CONTINUOUS
 10
155.3549915869
 20
30.6905916353
 11
154.1987416972
 21
30.658327332
 12
154.8924916972
 22
30.7228544637
 13
154.8924916972
 23
30.7228544637
  0
SOLID
  8
0
 62
7
  6
CONTINUOUS
 10
154.1987416972
 20
30.658327332
 11
154.5456166972
 21
30.7228544637
 12
154.8924916972
 22
30.7228544637
 13
154.8924916972
 23
30.7228544637
  0
SOLID
  8
0
 62
7
  6
CONTINUOUS
 10
154.1987416972
 20
30.658327332
 11
155.3549915869
 21
30.6905916353
 12
154.3143669177
 22
30.6260630541
 13
154.3143669177
 23
30.6260630541
  0
SOLID
  8
0
 62
7
  6
CONTINUOUS
 10
155.3549915869
 20
30.6905916353
 11
155.1815540869
 21
30.6260630541
 12
154.3143669177
 22
30.6260630541
 13
154.3143669177
 23
30.6260630541
  0
SOLID
  8
0
 62
7
  6
CONTINUOUS
 10
154.5456166972
 20
30.5938002188
 11
154.3143669177
 21
30.6260630541
 12
155.1815540869
 22
30.6260630541
 13
155.1815540869
 23
30.6260630541
  0
SOLID
  8
0
 62
7
  6
CONTINUOUS
 10
155.1815540869
 20
30.6260630541
 11
154.8924916972
 21
30.5938002188
 12
154.5456166972
 22
30.5938002188
 13
154.5456166972
 23
30.5938002188
  0
SOLID
  8
0
 62
7
  6
CONTINUOUS
 10
159.575304528
 20
30.7551187255
 11
159.228429528
 21
30.7228544637
 12
159.4596793074
 22
30.7873815123
 13
159.4596793074
 23
30.7873815123
  0
SOLID
  8
0
 62
7
  6
CONTINUOUS
 10
159.4596793074
 20
30.7873815123
 11
159.228429528
 21
30.7228544637
 12
159.401867028
 22
30.851908644
 13
159.401867028
 23
30.851908644
  0
SOLID
  8
0
 62
7
  6
CONTINUOUS
 10
159.228429528
 20
30.7228544637
 11
159.1128043074
 21
30.851908644
 12
159.401867028
 22
30.851908644
 13
159.401867028
 23
30.851908644
  0
SOLID
  8
0
 62
7
  6
CONTINUOUS
 10
159.575304528
 20
30.7551187255
 11
159.922179528
 21
30.7228544637
 12
159.228429528
 22
30.7228544637
 13
159.228429528
 23
30.7228544637
  0
SOLID
  8
0
 62
7
  6
CONTINUOUS
 10
156.279992028
 20
30.5938002419
 11
156.279992028
 21
31.6262382337
 12
156.5690540869
 22
30.5938002419
 13
156.5690540869
 23
31.6262382337
  0
ENDBLK
  8
0
  6
BYBLOCK
 62
0
  0
BLOCK
  8
0
 62
2
  6
CONTINUOUS
  2
SYMBOL_3_BL0
 70
64
 10
32.1213064866
 20
19.8534310916
  0
TEXT
  8
0
 62
7
  6
CONTINUOUS
 10
18.3860103289
 20
19.2268451992
  7
TEXTSTYLE_3
 40
2.7338706658
  1
Ammeraal Beltech
 41
1.0
 51
15.0
 72
0
  0
TEXT
  8
0
 62
7
  6
CONTINUOUS
 10
29.1868111546
 20
16.9533085264
  7
TEXTSTYLE_4
 40
1.0935482663
  1
Innovation & Service in Belting
 41
1.0
 72
0
  0
LINE
  8
0
 62
7
  6
CONTINUOUS
 10
12.3614696776
 20
19.9934385078
 11
13.1396216709
 21
23.6543558055
  0
LINE
  8
0
 62
7
  6
CONTINUOUS
 10
23.2347899607
 20
27.3177497171
 11
13.6274394139
 21
24.1961322958
  0
LINE
  8
0
 62
7
  6
CONTINUOUS
 10
12.5867530099
 20
19.3000877048
 11
20.093828271
 21
12.5406867788
  0
LINE
  8
0
 62
7
  6
CONTINUOUS
 10
12.8492874206
 20
20.5352149982
 11
23.6575567857
 21
24.0470345971
  0
LINE
  8
0
 62
7
  6
CONTINUOUS
 10
23.6533516486
 20
13.6972460334
 11
15.2078919798
 21
21.3015720751
  0
LINE
  8
0
 62
7
  6
CONTINUOUS
 10
24.1731743684
 20
26.4728246013
 11
23.1966148312
 21
21.8784731989
  0
LINE
  8
0
 62
7
  6
CONTINUOUS
 10
22.4968128835
 20
18.5861638851
 11
21.810364672
 21
15.3566789607
  0
LINE
  8
0
 62
7
  6
CONTINUOUS
 10
24.8542704669
 20
14.087448211
 11
25.8105020025
 21
18.5861638851
  0
LINE
  8
0
 62
7
  6
CONTINUOUS
 10
26.5103039502
 20
21.8784731989
 11
26.9545457526
 21
23.9684665583
  0
LINE
  8
0
 62
7
  6
CONTINUOUS
 10
20.8069293463
 20
12.3891124661
 11
24.3664527239
 21
13.5456717207
  0
LINE
  8
0
 62
7
  6
CONTINUOUS
 10
23.9478910361
 20
27.1661754044
 11
26.7292624203
 21
24.6618173613
  0
ARC
  8
0
 62
7
  6
CONTINUOUS
 10
13.8527227462
 20
23.5027814928
 40
0.7290321776
 50
108.0
 51
168.0
  0
ARC
  8
0
 62
7
  6
CONTINUOUS
 10
23.4600732931
 20
26.624398914
 40
0.7290321776
 50
348.0
 51
108.0
  0
ARC
  8
0
 62
7
  6
CONTINUOUS
 10
26.2414446773
 20
24.120040871
 40
0.7290321776
 50
348.0
 51
48.0
  0
ARC
  8
0
 62
7
  6
CONTINUOUS
 10
20.581646014
 20
13.0824632691
 40
0.7290321776
 50
228.0
 51
288.0
  0
ARC
  8
0
 62
7
  6
CONTINUOUS
 10
13.0745707529
 20
19.8418641951
 40
0.7290321776
 50
108.0
 51
228.0
  0
ARC
  8
0
 62
7
  6
CONTINUOUS
 10
24.1411693916
 20
14.2390225237
 40
0.7290321776
 50
228.0
 51
348.0
  0
ENDBLK
  8
0
  6
BYBLOCK
 62
0
  0
ENDSEC
  0
SECTION
  2
ENTITIES
  0
TEXT
  8
0
 62
5
  6
CONTINUOUS
 10
96.0
 20
25.636
  7
TEXTSTYLE_2
 40
2.8
  1
Scale :
 41
0.6
 51
0.000019
 72
0
  0
TEXT
  8
0
 62
5
  6
CONTINUOUS
 10
116.0
 20
25.636
  7
TEXTSTYLE_2
 40
2.8
  1
Belt type:
 41
0.6
 51
0.000019
 72
0
  0
INSERT
  8
0
 62
2
  6
CONTINUOUS
  2
SYMBOL_3_BL0
 10
32.1213064866
 20
19.8534310916
  0
INSERT
  8
0
 62
2
  6
CONTINUOUS
  2
SYMBOL_8_BL1
 10
173.5956734183
 20
35.5937998301
  0
LINE
  8
0
 62
2
  6
CONTINUOUS
 10
10.0
 20
30.0
 11
200.0
 21
30.0
  0
LINE
  8
0
 62
2
  6
CONTINUOUS
 10
10.0
 20
30.0
 11
10.0
 21
10.0
  0
LINE
  8
0
 62
2
  6
CONTINUOUS
 10
10.0
 20
10.0
 11
200.0
 21
10.0
  0
LINE
  8
0
 62
2
  6
CONTINUOUS
 10
95.0
 20
30.0
 11
95.0
 21
10.0
  0
LINE
  8
0
 62
2
  6
CONTINUOUS
 10
115.0
 20
30.0
 11
115.0
 21
10.0
  0
LINE
  8
0
 62
2
  6
CONTINUOUS
 10
200.0
 20
30.0
 11
200.0
 21
10.0
  0
TEXT
  8
0
 62
5
  6
CONTINUOUS
 10
13.0
 20
23.303
  7
TEXTSTYLE_5
 40
1.52
  1
                                                                     Ammeraal Beltech Modular A/S
 41
1.0
 72
0
  0
TEXT
  8
0
 62
5
  6
CONTINUOUS
 10
13.0
 20
20.595
  7
TEXTSTYLE_5
 40
1.5
  1
                                                                      Hjulmagervej 21,  7100 Vejle,  DK
 41
1.0
 72
0
  0
TEXT
  8
0
 62
5
  6
CONTINUOUS
 10
13.0
 20
17.881
  7
TEXTSTYLE_5
 40
1.495
  1
                                                                      tel: 
 41
1.0
 72
0
  0
TEXT
  8
0
 62
5
  6
CONTINUOUS
 10
57.9869465649
 20
17.881
  7
TEXTSTYLE_5
 40
1.51
  1
+45 75723100     fax: +45 75723348
 41
1.0
 72
0
  0
TEXT
  8
0
 62
5
  6
CONTINUOUS
 10
13.0
 20
15.177
  7
TEXTSTYLE_5
 40
1.5
  1
                                                                      admin@unichains.dk  www.unichains.com
 41
1.0
 72
0
  0
TEXT
  8
0
 62
5
  6
CONTINUOUS
 10
99.75
 20
13.75
  7
TEXTSTYLE_6
 40
5.0
  1
1:1
 41
0.7
 72
1
 11
105.0
 21
13.75
  0
TEXT
  8
0
 62
5
  6
CONTINUOUS
 10
118.0
 20
13.75
  7
TEXTSTYLE_7
 40
7.5
  1
Sprocket Z18
 41
0.6361111111
 72
0
  0
LINE
  8
0
 62
7
  6
CONTINUOUS
 10
210.0
 20
0.0
 11
0.0
 21
0.0
  0
LINE
  8
0
 62
7
  6
CONTINUOUS
 10
10.0
 20
10.0
 11
200.0
 21
10.0
  0
LINE
  8
0
 62
7
  6
CONTINUOUS
 10
10.0
 20
30.0
 11
200.0
 21
30.0
  0
LINE
  8
0
 62
7
  6
CONTINUOUS
 10
0.0
 20
0.0
 11
0.0
 21
297.0
  0
LINE
  8
0
 62
7
  6
CONTINUOUS
 10
10.0
 20
10.0
 11
10.0
 21
287.0
  0
LINE
  8
0
 62
7
  6
CONTINUOUS
 10
200.0
 20
287.0
 11
200.0
 21
10.0
  0
LINE
  8
0
 62
7
  6
CONTINUOUS
 10
210.0
 20
0.0
 11
210.0
 21
297.0
  0
LINE
  8
0
 62
7
  6
CONTINUOUS
 10
10.0
 20
287.0
 11
200.0
 21
287.0
  0
LINE
  8
0
 62
7
  6
CONTINUOUS
 10
0.0
 20
297.0
 11
210.0
 21
297.0
  0
LINE
  8
0
 62
7
  6
CONTINUOUS
 10
26.908965292
 20
213.8317680411
 11
26.8192329294
 21
213.3228705246
  0
LINE
  8
0
 62
7
  6
CONTINUOUS
 10
35.7890655491
 20
237.9672831034
 11
35.5306915086
 21
237.519766138
  0
LINE
  8
0
 62
7
  6
CONTINUOUS
 10
52.3884625534
 20
257.6100753437
 11
51.9926105575
 21
257.27791608
  0
LINE
  8
0
 62
7
  6
CONTINUOUS
 10
74.7050240452
 20
270.390934121
 11
74.2194396867
 21
270.2141958683
  0
LINE
  8
0
 62
7
  6
CONTINUOUS
 10
99.5302952702
 20
126.6692007586
 11
100.0470433512
 21
126.6692007586
  0
LINE
  8
0
 62
7
  6
CONTINUOUS
 10
74.2194396867
 20
131.2233041317
 11
74.7050240452
 21
131.046565879
  0
LINE
  8
0
 62
7
  6
CONTINUOUS
 10
51.9926105575
 20
144.15958392
 11
52.3884625534
 21
143.8274246563
  0
LINE
  8
0
 62
7
  6
CONTINUOUS
 10
35.5306915086
 20
163.917733862
 11
35.7890655491
 21
163.4702168966
  0
LINE
  8
0
 62
7
  6
CONTINUOUS
 10
26.8192329294
 20
188.1146294754
 11
26.908965292
 21
187.6057319589
  0
LINE
  8
0
 62
7
  6
CONTINUOUS
 10
46.9392980786
 20
190.2335873124
 11
46.9460656703
 21
189.5957225976
  0
LINE
  8
0
 62
7
  6
CONTINUOUS
 10
49.0345669158
 20
190.8126368201
 11
49.0413345075
 21
190.1747721053
  0
LINE
  8
0
 62
7
  6
CONTINUOUS
 10
47.5437463225
 20
189.8522920197
 11
47.5896048802
 21
190.2457624198
  0
LINE
  8
0
 62
7
  6
CONTINUOUS
 10
49.6390175688
 20
190.4313303397
 11
49.6848761265
 21
190.8248007398
  0
LINE
  8
0
 62
7
  6
CONTINUOUS
 10
126.121932083
 20
154.5857103197
 11
126.5091205542
 21
154.6694184487
  0
LINE
  8
0
 62
7
  6
CONTINUOUS
 10
124.8069725924
 20
156.7742414689
 11
125.1941610635
 21
156.8579495979
  0
LINE
  8
0
 62
7
  6
CONTINUOUS
 10
63.9749165183
 20
161.3258457253
 11
63.5225301799
 21
161.5741346268
  0
LINE
  8
0
 62
7
  6
CONTINUOUS
 10
64.1001305103
 20
163.6557657874
 11
64.5525084903
 21
163.4074847028
  0
LINE
  8
0
 62
7
  6
CONTINUOUS
 10
65.7188748855
 20
163.1906235315
 11
65.2664885471
 21
163.438912433
  0
LINE
  8
0
 62
7
  6
CONTINUOUS
 10
63.0865406491
 20
161.1079402406
 11
63.6302178267
 21
160.774275257
  0
LINE
  8
0
 62
7
  6
CONTINUOUS
 10
68.1017625865
 20
156.9216045246
 11
72.2839253717
 21
154.1812482366
  0
LINE
  8
0
 62
7
  6
CONTINUOUS
 10
72.6337577807
 20
154.7151408871
 11
68.9743713263
 21
157.1129487191
  0
LINE
  8
0
 62
7
  6
CONTINUOUS
 10
70.9703886835
 20
161.2995247825
 11
74.5252275295
 21
158.970221624
  0
LINE
  8
0
 62
7
  6
CONTINUOUS
 10
75.5723504085
 20
159.1998397498
 11
71.3901876234
 21
161.9401960379
  0
LINE
  8
0
 62
7
  6
CONTINUOUS
 10
65.726294427
 20
158.8103126958
 11
66.3148132044
 21
158.3453980276
  0
LINE
  8
0
 62
7
  6
CONTINUOUS
 10
70.0341305495
 20
163.0535482468
 11
69.4456117721
 21
163.5184629149
  0
LINE
  8
0
 62
7
  6
CONTINUOUS
 10
62.7213522169
 20
161.4494680193
 11
63.0865406491
 21
161.1079402406
  0
LINE
  8
0
 62
7
  6
CONTINUOUS
 10
63.5225301799
 20
161.5741346268
 11
63.1573417476
 21
161.9156624056
  0
LINE
  8
0
 62
7
  6
CONTINUOUS
 10
64.5525084903
 20
163.4074847028
 11
64.9176969225
 21
163.065956924
  0
LINE
  8
0
 62
7
  6
CONTINUOUS
 10
65.2664885471
 20
163.438912433
 11
64.9013001149
 21
163.7804402118
  0
LINE
  8
0
 62
7
  6
CONTINUOUS
 10
66.3836647027
 20
165.3655013209
 11
66.7488531349
 21
165.0239735422
  0
LINE
  8
0
 62
7
  6
CONTINUOUS
 10
67.2761419244
 20
165.4047840948
 11
66.7283634552
 21
165.9170718545
  0
LINE
  8
0
 62
7
  6
CONTINUOUS
 10
52.8959390958
 20
179.2150816763
 11
53.1748413582
 21
178.9337713653
  0
LINE
  8
0
 62
7
  6
CONTINUOUS
 10
53.9182521017
 20
179.1566036556
 11
53.5299398038
 21
179.6626972774
  0
LINE
  8
0
 62
7
  6
CONTINUOUS
 10
62.3520708515
 20
161.9696107574
 11
62.7213522169
 21
161.4494680193
  0
LINE
  8
0
 62
7
  6
CONTINUOUS
 10
63.1573417476
 20
161.9156624056
 11
62.87935958
 21
162.3504212447
  0
LINE
  8
0
 62
7
  6
CONTINUOUS
 10
64.9176969225
 20
163.065956924
 11
65.1956874486
 21
162.631190268
  0
LINE
  8
0
 62
7
  6
CONTINUOUS
 10
64.9013001149
 20
163.7804402118
 11
64.6233179472
 21
164.2151990509
  0
LINE
  8
0
 62
7
  6
CONTINUOUS
 10
47.9053665946
 20
188.7793741562
 11
47.7016271797
 21
189.1190978879
  0
LINE
  8
0
 62
7
  6
CONTINUOUS
 10
50.026949711
 20
189.2362209127
 11
49.8232102961
 21
189.5759446444
  0
LINE
  8
0
 62
7
  6
CONTINUOUS
 10
50.9338494502
 20
177.7039886958
 11
52.2467899097
 21
175.0065478068
  0
LINE
  8
0
 62
7
  6
CONTINUOUS
 10
52.4924783198
 20
175.9602570296
 11
51.4530704617
 21
178.0957242068
  0
LINE
  8
0
 62
7
  6
CONTINUOUS
 10
53.1748413582
 20
178.9337713653
 11
54.2142492164
 21
176.7983041881
  0
LINE
  8
0
 62
7
  6
CONTINUOUS
 10
54.9029574463
 20
177.1335229888
 11
53.9182521017
 21
179.1566036556
  0
LINE
  8
0
 62
7
  6
CONTINUOUS
 10
57.6416716878
 20
177.6324287258
 11
57.3134365729
 21
178.306788948
  0
LINE
  8
0
 62
7
  6
CONTINUOUS
 10
47.0513203781
 20
189.1069227805
 11
47.3076859424
 21
188.522804734
  0
LINE
  8
0
 62
7
  6
CONTINUOUS
 10
49.1729034946
 20
189.563769537
 11
49.4292690588
 21
188.9796514905
  0
LINE
  8
0
 62
7
  6
CONTINUOUS
 10
48.5725630097
 20
183.5968208104
 11
48.8983923017
 21
182.6513841222
  0
LINE
  8
0
 62
7
  6
CONTINUOUS
 10
52.1104094188
 20
185.4771529011
 11
52.8435197327
 21
183.3499365821
  0
LINE
  8
0
 62
7
  6
CONTINUOUS
 10
53.3670217668
 20
183.3981339171
 11
52.5524522654
 21
185.7617148179
  0
LINE
  8
0
 62
7
  6
CONTINUOUS
 10
55.2226202788
 20
182.7154932222
 11
54.9782501741
 21
183.4245653285
  0
LINE
  8
0
 62
7
  6
CONTINUOUS
 10
53.8378588384
 20
186.7335612782
 11
53.5934887337
 21
187.4426333846
  0
LINE
  8
0
 62
7
  6
CONTINUOUS
 10
50.7751065623
 20
178.3218219178
 11
50.9338494502
 21
177.7039886958
  0
LINE
  8
0
 62
7
  6
CONTINUOUS
 10
46.9460656703
 20
189.5957225976
 11
47.0513203781
 21
189.1069227805
  0
LINE
  8
0
 62
7
  6
CONTINUOUS
 10
47.7016271797
 20
189.1190978879
 11
47.5437463225
 21
189.8522920197
  0
LINE
  8
0
 62
7
  6
CONTINUOUS
 10
48.0820332337
 20
190.9911204714
 11
47.9504666557
 21
191.602111852
  0
LINE
  8
0
 62
7
  6
CONTINUOUS
 10
49.0413345075
 20
190.1747721053
 11
49.1729034946
 21
189.563769537
  0
LINE
  8
0
 62
7
  6
CONTINUOUS
 10
49.8232102961
 20
189.5759446444
 11
49.6390175688
 21
190.4313303397
  0
LINE
  8
0
 62
7
  6
CONTINUOUS
 10
52.1349975567
 20
190.96879708
 11
52.319190284
 21
190.1134113846
  0
LINE
  8
0
 62
7
  6
CONTINUOUS
 10
52.9168734327
 20
190.3699696379
 11
52.7853044456
 21
190.9809722062
  0
LINE
  8
0
 62
7
  6
CONTINUOUS
 10
51.4530704617
 20
178.0957242068
 11
51.4037376092
 21
178.4887741181
  0
LINE
  8
0
 62
7
  6
CONTINUOUS
 10
52.9236410134
 20
189.7321049208
 11
52.9168734327
 21
190.3699696379
  0
LINE
  8
0
 62
7
  6
CONTINUOUS
 10
52.319190284
 20
190.1134113846
 11
52.2733317263
 21
189.7199409845
  0
LINE
  8
0
 62
7
  6
CONTINUOUS
 10
50.9006355979
 20
178.9390082297
 11
50.7751065623
 21
178.3218219178
  0
LINE
  8
0
 62
7
  6
CONTINUOUS
 10
47.1821260504
 20
190.9252098833
 11
46.9392980786
 21
190.2335873124
  0
LINE
  8
0
 62
7
  6
CONTINUOUS
 10
49.2773972967
 20
191.5042482033
 11
49.0345669158
 21
190.8126368201
  0
LINE
  8
0
 62
7
  6
CONTINUOUS
 10
47.5896048802
 20
190.2457624198
 11
47.7602624242
 21
190.6661061541
  0
LINE
  8
0
 62
7
  6
CONTINUOUS
 10
49.6848761265
 20
190.8248007398
 11
49.8555336705
 21
191.2451444741
  0
LINE
  8
0
 62
7
  6
CONTINUOUS
 10
134.347177632
 20
164.1495262525
 11
134.7930633938
 21
164.2331847229
  0
LINE
  8
0
 62
7
  6
CONTINUOUS
 10
137.1110710542
 20
164.7396718044
 11
136.6651852924
 21
164.6560133339
  0
LINE
  8
0
 62
7
  6
CONTINUOUS
 10
137.1349506356
 20
161.8810976594
 11
136.5104114186
 21
161.7997073183
  0
LINE
  8
0
 62
7
  6
CONTINUOUS
 10
124.7485239478
 20
156.1434006292
 11
124.468480677
 21
156.1240697416
  0
LINE
  8
0
 62
7
  6
CONTINUOUS
 10
64.6016903105
 20
161.2640423952
 11
63.9749165183
 21
161.3258457253
  0
LINE
  8
0
 62
7
  6
CONTINUOUS
 10
66.0922575424
 20
162.4918580173
 11
66.7190313346
 21
162.4300546872
  0
LINE
  8
0
 62
7
  6
CONTINUOUS
 10
126.4092697698
 20
153.8647708785
 11
125.7834401677
 21
153.9355385923
  0
LINE
  8
0
 62
7
  6
CONTINUOUS
 10
63.6302178267
 20
160.774275257
 11
64.3482991751
 21
160.6270802111
  0
LINE
  8
0
 62
7
  6
CONTINUOUS
 10
65.8224612409
 20
162.5693869379
 11
66.0922575424
 21
162.4918580173
  0
LINE
  8
0
 62
7
  6
CONTINUOUS
 10
66.2584507716
 20
163.0355813241
 11
65.7188748855
 21
163.1906235315
  0
LINE
  8
0
 62
7
  6
CONTINUOUS
 10
63.9965357965
 20
164.2770101979
 11
63.7267478535
 21
164.3545313016
  0
LINE
  8
0
 62
7
  6
CONTINUOUS
 10
65.3917024782
 20
165.7688324298
 11
65.9312867227
 21
165.6137824056
  0
LINE
  8
0
 62
7
  6
CONTINUOUS
 10
65.9312867227
 20
165.6137824056
 11
66.3836647027
 21
165.3655013209
  0
LINE
  8
0
 62
7
  6
CONTINUOUS
 10
66.7283634552
 20
165.9170718545
 11
66.1846779115
 21
166.2507446468
  0
LINE
  8
0
 62
7
  6
CONTINUOUS
 10
48.2339049957
 20
188.4665237586
 11
47.9053665946
 21
188.7793741562
  0
LINE
  8
0
 62
7
  6
CONTINUOUS
 10
49.4292690588
 20
188.9796514905
 11
50.0863458611
 21
188.3539506955
  0
LINE
  8
0
 62
7
  6
CONTINUOUS
 10
50.3554881122
 20
188.9233705151
 11
50.026949711
 21
189.2362209127
  0
LINE
  8
0
 62
7
  6
CONTINUOUS
 10
47.3076859424
 20
188.522804734
 11
47.8136494792
 21
187.992433356
  0
LINE
  8
0
 62
7
  6
CONTINUOUS
 10
67.6454232821
 20
164.8846413486
 11
67.2761419244
 21
165.4047840948
  0
LINE
  8
0
 62
7
  6
CONTINUOUS
 10
66.7488531349
 20
165.0239735422
 11
67.026843661
 21
164.5892068862
  0
LINE
  8
0
 62
7
  6
CONTINUOUS
 10
51.9312581418
 20
191.3085208117
 11
52.1349975567
 21
190.96879708
  0
LINE
  8
0
 62
7
  6
CONTINUOUS
 10
52.7853044456
 20
190.9809722062
 11
52.5289388705
 21
191.5650902503
  0
LINE
  8
0
 62
7
  6
CONTINUOUS
 10
65.9178617301
 20
162.3053802628
 11
65.8224612409
 21
162.5693869379
  0
LINE
  8
0
 62
7
  6
CONTINUOUS
 10
63.9011436658
 20
164.5410090561
 11
63.9965357965
 21
164.2770101979
  0
LINE
  8
0
 62
7
  6
CONTINUOUS
 10
64.6233179472
 20
164.2151990509
 11
64.4325253273
 21
164.7432045842
  0
LINE
  8
0
 62
7
  6
CONTINUOUS
 10
67.026843661
 20
164.5892068862
 11
67.2176279225
 21
164.0612091698
  0
LINE
  8
0
 62
7
  6
CONTINUOUS
 10
62.1571852985
 20
162.6762312499
 11
62.3520708515
 21
161.9696107574
  0
LINE
  8
0
 62
7
  6
CONTINUOUS
 10
62.87935958
 20
162.3504212447
 11
62.7757648662
 21
162.9716656552
  0
LINE
  8
0
 62
7
  6
CONTINUOUS
 10
63.797548952
 20
165.1622534666
 11
63.9011436658
 21
164.5410090561
  0
LINE
  8
0
 62
7
  6
CONTINUOUS
 10
62.1448897824
 20
163.2120917615
 11
62.1571852985
 21
162.6762312499
  0
LINE
  8
0
 62
7
  6
CONTINUOUS
 10
65.9301572462
 20
161.7695197512
 11
65.9178617301
 21
162.3053802628
  0
LINE
  8
0
 62
7
  6
CONTINUOUS
 10
52.6808105998
 20
189.0404935305
 11
52.9236410134
 21
189.7321049208
  0
LINE
  8
0
 62
7
  6
CONTINUOUS
 10
51.4037376092
 20
178.4887741181
 11
51.5238919753
 21
178.8253073191
  0
LINE
  8
0
 62
7
  6
CONTINUOUS
 10
52.2733317263
 20
189.7199409845
 11
52.1026741823
 21
189.2995972503
  0
LINE
  8
0
 62
7
  6
CONTINUOUS
 10
49.572853827
 20
191.9514652718
 11
49.2773972967
 21
191.5042482033
  0
LINE
  8
0
 62
7
  6
CONTINUOUS
 10
49.8555336705
 20
191.2451444741
 11
50.0525030846
 21
191.5432966449
  0
LINE
  8
0
 62
7
  6
CONTINUOUS
 10
134.5875469694
 20
167.4513502398
 11
135.3006650615
 21
167.6209352864
  0
LINE
  8
0
 62
7
  6
CONTINUOUS
 10
74.5252275295
 20
158.970221624
 11
68.5915279592
 21
157.6690542354
  0
LINE
  8
0
 62
7
  6
CONTINUOUS
 10
66.3148132044
 20
158.3453980276
 11
67.4572727969
 21
158.5816971383
  0
LINE
  8
0
 62
7
  6
CONTINUOUS
 10
68.090348236
 20
159.3830845948
 11
66.9478884217
 21
159.1467852035
  0
LINE
  8
0
 62
7
  6
CONTINUOUS
 10
68.9743713263
 20
157.1129487191
 11
75.0126185051
 21
158.3456114342
  0
LINE
  8
0
 62
7
  6
CONTINUOUS
 10
64.3482991751
 20
160.6270802111
 11
64.8837821281
 21
160.650652963
  0
LINE
  8
0
 62
7
  6
CONTINUOUS
 10
63.7267478535
 20
164.3545313016
 11
63.1912649005
 21
164.3309585497
  0
LINE
  8
0
 62
7
  6
CONTINUOUS
 10
136.3257891447
 20
162.5166199299
 11
136.6830940278
 21
162.5120816525
  0
LINE
  8
0
 62
7
  6
CONTINUOUS
 10
134.7104513336
 20
163.4303434928
 11
133.9958415675
 21
163.4394200477
  0
LINE
  8
0
 62
7
  6
CONTINUOUS
 10
136.7477973526
 20
165.4588545641
 11
137.4624071187
 21
165.4497780091
  0
LINE
  8
0
 62
7
  6
CONTINUOUS
 10
63.4733483596
 20
163.7175769344
 11
64.1001305103
 21
163.6557657874
  0
LINE
  8
0
 62
7
  6
CONTINUOUS
 10
66.1846779115
 20
166.2507446468
 11
65.4666048987
 21
166.3979318513
  0
LINE
  8
0
 62
7
  6
CONTINUOUS
 10
125.7761408469
 20
154.6758059742
 11
126.121932083
 21
154.5857103197
  0
LINE
  8
0
 62
7
  6
CONTINUOUS
 10
124.4611813562
 20
156.8643371234
 11
124.8069725924
 21
156.7742414689
  0
LINE
  8
0
 62
7
  6
CONTINUOUS
 10
52.5569546418
 20
179.3281356767
 11
52.8959390958
 21
179.2150816763
  0
LINE
  8
0
 62
7
  6
CONTINUOUS
 10
53.5299398038
 20
179.6626972774
 11
52.9667606094
 21
179.9446647885
  0
LINE
  8
0
 62
7
  6
CONTINUOUS
 10
50.6577146432
 20
188.7327116811
 11
50.3554881122
 21
188.9233705151
  0
LINE
  8
0
 62
7
  6
CONTINUOUS
 10
51.6027197406
 20
191.6213712092
 11
51.9312581418
 21
191.3085208117
  0
LINE
  8
0
 62
7
  6
CONTINUOUS
 10
52.5289388705
 20
191.5650902503
 11
52.0229753009
 21
192.0954616213
  0
LINE
  8
0
 62
7
  6
CONTINUOUS
 10
67.8403088122
 20
164.1780208316
 11
67.6454232821
 21
164.8846413486
  0
LINE
  8
0
 62
7
  6
CONTINUOUS
 10
65.1956874486
 20
162.631190268
 11
65.299273804
 21
162.0099536744
  0
LINE
  8
0
 62
7
  6
CONTINUOUS
 10
67.8526042978
 20
163.6421602873
 11
67.8403088122
 21
164.1780208316
  0
LINE
  8
0
 62
7
  6
CONTINUOUS
 10
64.4325253273
 20
164.7432045842
 11
64.5074278395
 21
165.3723041036
  0
LINE
  8
0
 62
7
  6
CONTINUOUS
 10
67.2176279225
 20
164.0612091698
 11
67.1427254714
 21
163.4321097156
  0
LINE
  8
0
 62
7
  6
CONTINUOUS
 10
62.7757648662
 20
162.9716656552
 11
62.854768792
 21
163.4221425291
  0
LINE
  8
0
 62
7
  6
CONTINUOUS
 10
65.299273804
 20
162.0099536744
 11
65.2202784809
 21
161.5594692448
  0
LINE
  8
0
 62
7
  6
CONTINUOUS
 10
51.1956568604
 20
179.4996675413
 11
50.9006355979
 21
178.9390082297
  0
LINE
  8
0
 62
7
  6
CONTINUOUS
 10
47.602381567
 20
191.3993002859
 11
47.1821260504
 21
190.9252098833
  0
LINE
  8
0
 62
7
  6
CONTINUOUS
 10
52.2605550395
 20
188.5664031184
 11
52.6808105998
 21
189.0404935305
  0
LINE
  8
0
 62
7
  6
CONTINUOUS
 10
47.7602624242
 20
190.6661061541
 11
48.0820332337
 21
190.9911204714
  0
LINE
  8
0
 62
7
  6
CONTINUOUS
 10
65.0458826686
 20
161.3729914903
 11
64.6016903105
 21
161.2640423952
  0
LINE
  8
0
 62
7
  6
CONTINUOUS
 10
63.0291646043
 20
163.6086202836
 11
63.4733483596
 21
163.7175769344
  0
LINE
  8
0
 62
7
  6
CONTINUOUS
 10
145.7529442418
 20
177.27816167
 11
145.1309113517
 21
177.1579473086
  0
LINE
  8
0
 62
7
  6
CONTINUOUS
 10
66.881131753
 20
163.1523930839
 11
66.2584507716
 21
163.0355813241
  0
LINE
  8
0
 62
7
  6
CONTINUOUS
 10
64.7690215579
 20
165.6520207354
 11
65.3917024782
 21
165.7688324298
  0
LINE
  8
0
 62
7
  6
CONTINUOUS
 10
142.2739569217
 20
174.272614479
 11
139.6182286256
 21
173.8464253553
  0
LINE
  8
0
 62
7
  6
CONTINUOUS
 10
142.6655181926
 20
174.912286091
 11
145.3212449949
 21
175.3384727745
  0
LINE
  8
0
 62
7
  6
CONTINUOUS
 10
144.929683724
 20
174.6988011626
 11
142.7963784938
 21
174.3925040346
  0
LINE
  8
0
 62
7
  6
CONTINUOUS
 10
140.0097898965
 20
174.4860969673
 11
142.1430967729
 21
174.7923964421
  0
LINE
  8
0
 62
7
  6
CONTINUOUS
 10
145.1142946438
 20
177.7191181302
 11
145.5674371153
 21
177.7810381694
  0
LINE
  8
0
 62
7
  6
CONTINUOUS
 10
65.4666048987
 20
166.3979318513
 11
64.9311219152
 21
166.3743590668
  0
LINE
  8
0
 62
7
  6
CONTINUOUS
 10
135.5753600064
 20
166.8135577024
 11
135.039401605
 21
166.8203641726
  0
LINE
  8
0
 62
7
  6
CONTINUOUS
 10
136.5104114186
 20
161.7997073183
 11
135.8843805037
 21
161.8969786025
  0
LINE
  8
0
 62
7
  6
CONTINUOUS
 10
52.9667606094
 20
179.9446647885
 11
52.343504232
 21
180.0583656991
  0
LINE
  8
0
 62
7
  6
CONTINUOUS
 10
133.8997980188
 20
164.2445275153
 11
134.347177632
 21
164.1495262525
  0
LINE
  8
0
 62
7
  6
CONTINUOUS
 10
134.0722715156
 20
158.9751847206
 11
128.4682360381
 21
161.0812584959
  0
LINE
  8
0
 62
7
  6
CONTINUOUS
 10
48.660930513
 20
188.3027382588
 11
48.2339049957
 21
188.4665237586
  0
LINE
  8
0
 62
7
  6
CONTINUOUS
 10
125.7834401677
 20
153.9355385923
 11
125.1990078005
 21
154.1801100897
  0
LINE
  8
0
 62
7
  6
CONTINUOUS
 10
124.468480677
 20
156.1240697416
 11
123.8840483099
 21
156.368641239
  0
LINE
  8
0
 62
7
  6
CONTINUOUS
 10
47.8136494792
 20
187.992433356
 11
48.3917858529
 21
187.7333296268
  0
LINE
  8
0
 62
7
  6
CONTINUOUS
 10
52.0229753009
 20
192.0954616213
 11
51.4448388835
 21
192.3545653411
  0
LINE
  8
0
 62
7
  6
CONTINUOUS
 10
65.7639556585
 20
161.2258042613
 11
65.9301572462
 21
161.7695197512
  0
LINE
  8
0
 62
7
  6
CONTINUOUS
 10
62.3982811621
 20
163.8490542068
 11
62.1448897824
 21
163.2120917615
  0
LINE
  8
0
 62
7
  6
CONTINUOUS
 10
64.050948568
 20
165.7992079644
 11
63.797548952
 21
165.1622534666
  0
LINE
  8
0
 62
7
  6
CONTINUOUS
 10
52.1026741823
 20
189.2995972503
 11
51.7809056945
 21
188.9745717265
  0
LINE
  8
0
 62
4
  6
CONTINUOUS
 10
88.7032407442
 20
220.1803343807
 11
80.32708493
 21
211.8041785665
  0
LINE
  8
0
 62
4
  6
CONTINUOUS
 10
78.4651298705
 20
207.6794818072
 11
75.6367027457
 21
204.8510546825
  0
LINE
  8
0
 62
4
  6
CONTINUOUS
 10
92.8279375035
 20
222.0422894403
 11
95.6563646283
 21
224.870716565
  0
LINE
  8
0
 62
7
  6
CONTINUOUS
 10
50.1442202
 20
192.3302374451
 11
49.572853827
 21
191.9514652718
  0
LINE
  8
0
 62
7
  6
CONTINUOUS
 10
144.9693731919
 20
180.6925935052
 11
144.6851199138
 21
180.6889652028
  0
LINE
  8
0
 62
7
  6
CONTINUOUS
 10
144.5531402656
 20
181.3048020824
 11
145.1216456774
 21
181.3120560635
  0
LINE
  8
0
 62
7
  6
CONTINUOUS
 10
48.3917858529
 20
187.7333296268
 11
49.0684096924
 21
187.6232908707
  0
LINE
  8
0
 62
7
  6
CONTINUOUS
 10
135.3006650615
 20
167.6209352864
 11
136.0167686475
 21
167.4331990298
  0
LINE
  8
0
 62
7
  6
CONTINUOUS
 10
136.057063113
 20
162.6093529367
 11
136.3257891447
 21
162.5166199299
  0
LINE
  8
0
 62
7
  6
CONTINUOUS
 10
133.9958415675
 20
163.4394200477
 11
133.4583893777
 21
163.6248861878
  0
LINE
  8
0
 62
7
  6
CONTINUOUS
 10
51.1756941359
 20
191.7851566902
 11
51.6027197406
 21
191.6213712092
  0
LINE
  8
0
 62
7
  6
CONTINUOUS
 10
128.2145972614
 20
162.0165893042
 11
133.8971178034
 21
159.8098324592
  0
LINE
  8
0
 62
4
  6
CONTINUOUS
 10
88.7032407442
 20
181.2571656193
 11
80.32708493
 21
189.6333214335
  0
LINE
  8
0
 62
4
  6
CONTINUOUS
 10
75.6367027457
 20
196.5864453175
 11
78.4651298705
 21
193.7580181928
  0
LINE
  8
0
 62
4
  6
CONTINUOUS
 10
95.6563646283
 20
176.566783435
 11
92.8279375035
 21
179.3952105597
  0
LINE
  8
0
 62
7
  6
CONTINUOUS
 10
67.5992131013
 20
163.005198038
 11
67.8526042978
 21
163.6421602873
  0
LINE
  8
0
 62
7
  6
CONTINUOUS
 10
51.4853084619
 20
179.7796634521
 11
51.1956568604
 21
179.4996675413
  0
LINE
  8
0
 62
7
  6
CONTINUOUS
 10
51.5238919753
 20
178.8253073191
 11
51.8135435768
 21
179.1053032299
  0
LINE
  8
0
 62
7
  6
CONTINUOUS
 10
53.5934887337
 20
187.4426333846
 11
48.5725630097
 21
183.5968208104
  0
LINE
  8
0
 62
7
  6
CONTINUOUS
 10
49.2182500961
 20
183.2904820922
 11
52.1104094188
 21
185.4771529011
  0
LINE
  8
0
 62
7
  6
CONTINUOUS
 10
52.5524522654
 20
185.7617148179
 11
53.8378588384
 21
186.7335612782
  0
LINE
  8
0
 62
7
  6
CONTINUOUS
 10
51.6891885791
 20
188.1876309263
 11
52.2605550395
 21
188.5664031184
  0
LINE
  8
0
 62
7
  6
CONTINUOUS
 10
47.9504666557
 20
191.602111852
 11
47.602381567
 21
191.3993002859
  0
LINE
  8
0
 62
7
  6
CONTINUOUS
 10
50.0525030846
 20
191.5432966449
 11
50.4005883481
 21
191.7461082486
  0
LINE
  8
0
 62
7
  6
CONTINUOUS
 10
51.7809056945
 20
188.9745717265
 11
51.4328206058
 21
188.7717601604
  0
LINE
  8
0
 62
7
  6
CONTINUOUS
 10
52.1578980134
 20
179.2729127868
 11
52.5569546418
 21
179.3281356767
  0
LINE
  8
0
 62
7
  6
CONTINUOUS
 10
52.343504232
 20
180.0583656991
 11
51.9444476035
 21
180.0031428091
  0
LINE
  8
0
 62
7
  6
CONTINUOUS
 10
52.8435197327
 20
183.3499365821
 11
49.2182500961
 21
183.2904820922
  0
LINE
  8
0
 62
7
  6
CONTINUOUS
 10
54.9782501741
 20
183.4245653285
 11
53.3670217668
 21
183.3981339171
  0
LINE
  8
0
 62
7
  6
CONTINUOUS
 10
48.8983923017
 20
182.6513841222
 11
55.2226202788
 21
182.7154932222
  0
LINE
  8
0
 62
7
  6
CONTINUOUS
 10
49.0616396916
 20
188.2611667732
 11
48.660930513
 21
188.3027382588
  0
LINE
  8
0
 62
7
  6
CONTINUOUS
 10
51.058423647
 20
188.6911401578
 11
50.6577146432
 21
188.7327116811
  0
LINE
  8
0
 62
7
  6
CONTINUOUS
 10
50.7749853069
 20
191.8267282512
 11
51.1756941359
 21
191.7851566902
  0
LINE
  8
0
 62
7
  6
CONTINUOUS
 10
145.3689881044
 20
180.6415532026
 11
144.9693731919
 21
180.6925935052
  0
LINE
  8
0
 62
7
  6
CONTINUOUS
 10
51.4448388835
 20
192.3545653411
 11
50.7682153062
 21
192.4646041537
  0
LINE
  8
0
 62
7
  6
CONTINUOUS
 10
145.1309113517
 20
177.1579473086
 11
144.6159323545
 21
177.2636510456
  0
LINE
  8
0
 62
7
  6
CONTINUOUS
 10
135.8843805037
 20
161.8969786025
 11
135.5255818954
 21
162.0801764865
  0
LINE
  8
0
 62
7
  6
CONTINUOUS
 10
137.4698696625
 20
164.5564739203
 11
137.1110710542
 21
164.7396718044
  0
LINE
  8
0
 62
7
  6
CONTINUOUS
 10
135.9341586147
 20
166.6303598184
 11
135.5753600064
 21
166.8135577024
  0
LINE
  8
0
 62
7
  6
CONTINUOUS
 10
125.1990078005
 20
154.1801100897
 11
124.8946187042
 21
154.4440124747
  0
LINE
  8
0
 62
7
  6
CONTINUOUS
 10
125.4717515664
 20
154.9397086657
 11
125.7761408469
 21
154.6758059742
  0
LINE
  8
0
 62
7
  6
CONTINUOUS
 10
123.8840483099
 20
156.368641239
 11
123.5796591214
 21
156.6325437772
  0
LINE
  8
0
 62
7
  6
CONTINUOUS
 10
124.1567921678
 20
157.1282396617
 11
124.4611813562
 21
156.8643371234
  0
LINE
  8
0
 62
7
  6
CONTINUOUS
 10
96.855128043
 20
133.4751381519
 11
97.1434579117
 21
128.9176528067
  0
LINE
  8
0
 62
7
  6
CONTINUOUS
 10
97.1434579117
 20
272.5198471933
 11
96.855128043
 21
267.9623618481
  0
LINE
  8
0
 62
7
  6
CONTINUOUS
 10
74.0333724667
 20
138.5337543562
 11
72.7455621256
 21
134.1525043849
  0
LINE
  8
0
 62
7
  6
CONTINUOUS
 10
121.8604052316
 20
269.0944267787
 11
120.0307119907
 21
264.9104060535
  0
LINE
  8
0
 62
7
  6
CONTINUOUS
 10
54.3180857974
 20
151.0927987879
 11
51.6094641798
 21
147.4162275975
  0
LINE
  8
0
 62
7
  6
CONTINUOUS
 10
143.9151754554
 20
257.4218906271
 11
140.7648068504
 21
254.1159891709
  0
LINE
  8
0
 62
7
  6
CONTINUOUS
 10
40.0872225742
 20
169.6374653369
 11
36.2844894222
 21
167.1090216733
  0
LINE
  8
0
 62
7
  6
CONTINUOUS
 10
160.6476378002
 20
238.9101188666
 11
156.5565747795
 21
236.8810771849
  0
LINE
  8
0
 62
7
  6
CONTINUOUS
 10
166.5201036945
 20
209.5065064729
 11
170.9582826405
 21
210.581854988
  0
LINE
  8
0
 62
7
  6
CONTINUOUS
 10
150.7599927586
 20
197.2431890249
 11
150.1175821214
 21
197.1414170703
  0
LINE
  8
0
 62
7
  6
CONTINUOUS
 10
150.1402452831
 20
197.7660058014
 11
150.7826559462
 21
197.8677784709
  0
LINE
  8
0
 62
7
  6
CONTINUOUS
 10
29.5377282589
 20
185.6455956238
 11
34.0760431175
 21
186.1530451586
  0
LINE
  8
0
 62
7
  6
CONTINUOUS
 10
49.0684096924
 20
187.6232908707
 11
49.9683144665
 21
187.6892126465
  0
LINE
  8
0
 62
7
  6
CONTINUOUS
 10
49.8367478886
 20
188.3002040271
 11
49.0616396916
 21
188.2611667732
  0
LINE
  8
0
 62
7
  6
CONTINUOUS
 10
165.501295504
 20
186.1530451586
 11
170.0396103625
 21
185.6455956238
  0
LINE
  8
0
 62
7
  6
CONTINUOUS
 10
28.619055981
 20
210.581854988
 11
33.057234927
 21
209.5065064729
  0
LINE
  8
0
 62
7
  6
CONTINUOUS
 10
145.1216456774
 20
181.3120560635
 11
145.8673503936
 21
181.0970202871
  0
LINE
  8
0
 62
7
  6
CONTINUOUS
 10
156.5565747795
 20
164.5564228151
 11
160.6476378002
 21
162.5273811334
  0
LINE
  8
0
 62
7
  6
CONTINUOUS
 10
137.4624071187
 20
165.4497780091
 11
137.9112783035
 21
165.1761152478
  0
LINE
  8
0
 62
7
  6
CONTINUOUS
 10
136.0167686475
 20
167.4331990298
 11
136.4656398323
 21
167.1595362685
  0
LINE
  8
0
 62
7
  6
CONTINUOUS
 10
36.2844894222
 20
234.3284783267
 11
40.0872225742
 21
231.8000346631
  0
LINE
  8
0
 62
7
  6
CONTINUOUS
 10
140.7648068504
 20
147.3215108291
 11
143.9151754554
 21
144.0156093729
  0
LINE
  8
0
 62
7
  6
CONTINUOUS
 10
51.6094641798
 20
254.0212724025
 11
54.3180857974
 21
250.3447012121
  0
LINE
  8
0
 62
7
  6
CONTINUOUS
 10
120.0307119907
 20
136.5270939465
 11
121.8604052316
 21
132.3430732213
  0
LINE
  8
0
 62
7
  6
CONTINUOUS
 10
72.7455621256
 20
267.2849956151
 11
74.0333724667
 21
262.9037456438
  0
LINE
  8
0
 62
2
  6
CONTINUOUS
 10
99.7886693107
 20
201.59875
 11
99.7886693107
 21
199.83875
  0
LINE
  8
DEFAULT_1
 62
2
  6
CENTER
 10
99.7886693107
 20
196.31875
 11
99.7886693107
 21
124.66875
  0
LINE
  8
DEFAULT_1
 62
2
  6
CENTER
 10
99.7886693107
 20
205.11875
 11
99.7886693107
 21
276.76875
  0
LINE
  8
0
 62
7
  6
CONTINUOUS
 10
71.3901876234
 20
161.9401960379
 11
70.9703886835
 21
161.2995247825
  0
LINE
  8
0
 62
7
  6
CONTINUOUS
 10
68.5915279592
 20
157.6690542354
 11
68.1017625865
 21
156.9216045246
  0
LINE
  8
0
 62
7
  6
CONTINUOUS
 10
69.4456117721
 20
163.5184629149
 11
65.726294427
 21
158.8103126958
  0
LINE
  8
0
 62
7
  6
CONTINUOUS
 10
66.9478884217
 20
159.1467852035
 11
70.0341305495
 21
163.0535482468
  0
LINE
  8
0
 62
7
  6
CONTINUOUS
 10
67.4572727969
 20
158.5816971383
 11
68.090348236
 21
159.3830845948
  0
LINE
  8
0
 62
7
  6
CONTINUOUS
 10
64.3125422864
 20
166.0789245962
 11
64.050948568
 21
165.7992079644
  0
LINE
  8
0
 62
7
  6
CONTINUOUS
 10
62.6598748805
 20
164.1287708385
 11
62.3982811621
 21
163.8490542068
  0
LINE
  8
0
 62
7
  6
CONTINUOUS
 10
64.5074278395
 20
165.3723041036
 11
64.7690215579
 21
165.6520207354
  0
LINE
  8
0
 62
7
  6
CONTINUOUS
 10
62.854768792
 20
163.4221425291
 11
63.0291646043
 21
163.6086202836
  0
LINE
  8
0
 62
7
  6
CONTINUOUS
 10
51.9444476035
 20
180.0031428091
 11
51.4853084619
 21
179.7796634521
  0
LINE
  8
0
 62
7
  6
CONTINUOUS
 10
51.8135435768
 20
179.1053032299
 11
52.1578980134
 21
179.2729127868
  0
LINE
  8
0
 62
7
  6
CONTINUOUS
 10
50.8419073705
 20
187.8773259858
 11
51.6891885791
 21
188.1876309263
  0
LINE
  8
0
 62
7
  6
CONTINUOUS
 10
49.9683144665
 20
187.6892126465
 11
50.8419073705
 21
187.8773259858
  0
LINE
  8
0
 62
7
  6
CONTINUOUS
 10
50.0863458611
 20
188.3539506955
 11
49.8367478886
 21
188.3002040271
  0
LINE
  8
0
 62
7
  6
CONTINUOUS
 10
51.4328206058
 20
188.7717601604
 11
51.058423647
 21
188.6911401578
  0
LINE
  8
0
 62
7
  6
CONTINUOUS
 10
151.8810976111
 20
202.2352284897
 11
148.5684687094
 21
202.0272896194
  0
LINE
  8
0
 62
7
  6
CONTINUOUS
 10
149.0389488083
 20
202.6830526299
 11
151.8419424463
 21
202.8590009018
  0
LINE
  8
0
 62
2
  6
CONTINUOUS
 10
100.6686693107
 20
200.71875
 11
98.9086693107
 21
200.71875
  0
LINE
  8
DEFAULT_1
 62
2
  6
CENTER
 10
95.3886693107
 20
200.71875
 11
23.7386693107
 21
200.71875
  0
LINE
  8
DEFAULT_1
 62
2
  6
CENTER
 10
104.1886693107
 20
200.71875
 11
175.8386693107
 21
200.71875
  0
LINE
  8
0
 62
7
  6
CONTINUOUS
 10
150.1175821214
 20
197.1414170703
 11
147.6936452866
 21
197.2293694616
  0
LINE
  8
0
 62
7
  6
CONTINUOUS
 10
147.7163084483
 20
197.8539581927
 11
150.1402452831
 21
197.7660058014
  0
LINE
  8
0
 62
7
  6
CONTINUOUS
 10
153.4872906856
 20
195.0129881213
 11
152.8521862528
 21
195.0767567356
  0
LINE
  8
0
 62
7
  6
CONTINUOUS
 10
151.5819770314
 20
195.204294
 11
147.5173083059
 21
195.6124131674
  0
LINE
  8
0
 62
7
  6
CONTINUOUS
 10
147.579748391
 20
196.2342860947
 11
151.6444171166
 21
195.8261669273
  0
LINE
  8
0
 62
7
  6
CONTINUOUS
 10
152.9146263379
 20
195.6986296629
 11
153.5497307707
 21
195.6348610486
  0
LINE
  8
0
 62
7
  6
CONTINUOUS
 10
150.724765154
 20
182.6473183953
 11
149.9928575858
 21
182.8731545793
  0
LINE
  8
0
 62
7
  6
CONTINUOUS
 10
148.5544786539
 20
183.8402403808
 11
147.8225710856
 21
184.0660765647
  0
LINE
  8
0
 62
7
  6
CONTINUOUS
 10
149.9514964129
 20
180.7240398617
 11
144.3651793513
 21
182.9133460732
  0
LINE
  8
0
 62
7
  6
CONTINUOUS
 10
144.5932322557
 20
183.4952545444
 11
150.1795493173
 21
181.305948333
  0
LINE
  8
0
 62
7
  6
CONTINUOUS
 10
144.6159323545
 20
177.2636510456
 11
144.1544807549
 21
177.482315201
  0
LINE
  8
0
 62
7
  6
CONTINUOUS
 10
144.8835689247
 20
177.8284501696
 11
145.1142946438
 21
177.7191181302
  0
LINE
  8
0
 62
7
  6
CONTINUOUS
 10
133.4583893777
 20
163.6248861878
 11
133.0080264951
 21
164.0772105744
  0
LINE
  8
0
 62
7
  6
CONTINUOUS
 10
133.6295802892
 20
164.5159221472
 11
133.8997980188
 21
164.2445275153
  0
LINE
  8
0
 62
7
  6
CONTINUOUS
 10
131.0161241164
 20
156.5928385466
 11
127.3273282249
 21
161.3249400746
  0
LINE
  8
0
 62
7
  6
CONTINUOUS
 10
128.4682360381
 20
161.0812584959
 11
131.6076368074
 21
157.053938033
  0
LINE
  8
0
 62
7
  6
CONTINUOUS
 10
124.8946187042
 20
154.4440124747
 11
124.6316266587
 21
154.8817189498
  0
LINE
  8
0
 62
7
  6
CONTINUOUS
 10
123.5796591214
 20
156.6325437772
 11
123.2509192948
 21
157.1796764879
  0
LINE
  8
0
 62
7
  6
CONTINUOUS
 10
123.9595482718
 20
157.4565192881
 11
124.1567921678
 21
157.1282396617
  0
LINE
  8
0
 62
7
  6
CONTINUOUS
 10
125.3402556357
 20
155.15856175
 11
125.4717515664
 21
154.9397086657
  0
LINE
  8
0
 62
7
  6
CONTINUOUS
 10
102.7222105785
 20
267.9623618481
 11
102.4338807098
 21
272.5198471933
  0
LINE
  8
0
 62
7
  6
CONTINUOUS
 10
102.4338807098
 20
128.9176528067
 11
102.7222105785
 21
133.4751381519
  0
LINE
  8
0
 62
7
  6
CONTINUOUS
 10
125.5439661548
 20
262.9037456438
 11
126.8317764958
 21
267.2849956151
  0
LINE
  8
0
 62
7
  6
CONTINUOUS
 10
77.7169333898
 20
132.3430732213
 11
79.5466266308
 21
136.5270939465
  0
LINE
  8
0
 62
7
  6
CONTINUOUS
 10
72.2839253717
 20
154.1812482366
 11
72.6337577807
 21
154.7151408871
  0
LINE
  8
0
 62
7
  6
CONTINUOUS
 10
75.0126185051
 20
158.3456114342
 11
75.5723504085
 21
159.1998397498
  0
LINE
  8
0
 62
7
  6
CONTINUOUS
 10
145.259252824
 20
250.3447012121
 11
147.9678744416
 21
254.0212724025
  0
LINE
  8
0
 62
7
  6
CONTINUOUS
 10
65.2202784809
 20
161.5594692448
 11
65.0458826686
 21
161.3729914903
  0
LINE
  8
0
 62
7
  6
CONTINUOUS
 10
67.1427254714
 20
163.4321097156
 11
66.881131753
 21
163.1523930839
  0
LINE
  8
0
 62
7
  6
CONTINUOUS
 10
65.5023619401
 20
160.9460876295
 11
65.7639556585
 21
161.2258042613
  0
LINE
  8
0
 62
7
  6
CONTINUOUS
 10
67.3376193829
 20
162.7254814062
 11
67.5992131013
 21
163.005198038
  0
LINE
  8
0
 62
7
  6
CONTINUOUS
 10
55.6621631661
 20
144.0156093729
 11
58.812531771
 21
147.3215108291
  0
LINE
  8
0
 62
7
  6
CONTINUOUS
 10
159.4901160472
 20
231.8000346631
 11
163.2928491993
 21
234.3284783267
  0
LINE
  8
0
 62
7
  6
CONTINUOUS
 10
38.9297008212
 20
162.5273811334
 11
43.0207638419
 21
164.5564228151
  0
LINE
  8
0
 62
7
  6
CONTINUOUS
 10
57.3134365729
 20
178.306788948
 11
54.9029574463
 21
177.1335229888
  0
LINE
  8
0
 62
7
  6
CONTINUOUS
 10
54.2142492164
 20
176.7983041881
 11
52.4924783198
 21
175.9602570296
  0
LINE
  8
0
 62
7
  6
CONTINUOUS
 10
52.2467899097
 20
175.0065478068
 11
57.6416716878
 21
177.6324287258
  0
LINE
  8
0
 62
7
  6
CONTINUOUS
 10
33.057234927
 20
191.9309935271
 11
28.619055981
 21
190.855645012
  0
LINE
  8
0
 62
7
  6
CONTINUOUS
 10
50.4005883481
 20
191.7461082486
 11
50.7749853069
 21
191.8267282512
  0
LINE
  8
0
 62
7
  6
CONTINUOUS
 10
50.7682153062
 20
192.4646041537
 11
50.1442202
 21
192.3302374451
  0
LINE
  8
0
 62
7
  6
CONTINUOUS
 10
170.0396103625
 20
215.7919043762
 11
165.501295504
 21
215.2844548414
  0
LINE
  8
0
 62
7
  6
CONTINUOUS
 10
151.6853218234
 20
205.3540899701
 11
149.1371457726
 21
205.1941369947
  0
LINE
  8
0
 62
7
  6
CONTINUOUS
 10
149.0979906161
 20
205.8179092729
 11
151.6461666669
 21
205.9778622484
  0
LINE
  8
0
 62
7
  6
CONTINUOUS
 10
151.8803155494
 20
199.9543481483
 11
151.242437529
 21
199.977493511
  0
LINE
  8
0
 62
7
  6
CONTINUOUS
 10
150.7321351127
 20
199.9960098011
 11
147.7978958616
 21
200.1024784826
  0
LINE
  8
0
 62
7
  6
CONTINUOUS
 10
147.8205590363
 20
200.7270675711
 11
151.9029787241
 21
200.5789372368
  0
LINE
  8
0
 62
7
  6
CONTINUOUS
 10
34.0760431175
 20
215.2844548414
 11
29.5377282589
 21
215.7919043762
  0
LINE
  8
0
 62
7
  6
CONTINUOUS
 10
170.9582826405
 20
190.855645012
 11
166.5201036945
 21
191.9309935271
  0
LINE
  8
0
 62
7
  6
CONTINUOUS
 10
151.0985140348
 20
186.456452476
 11
149.5127139619
 21
186.9457643133
  0
LINE
  8
0
 62
7
  6
CONTINUOUS
 10
148.7808063937
 20
187.1716004973
 11
146.0971449683
 21
187.9996666105
  0
LINE
  8
0
 62
7
  6
CONTINUOUS
 10
146.3182762582
 20
188.7163261899
 11
152.0515528929
 21
186.9472758714
  0
LINE
  8
0
 62
7
  6
CONTINUOUS
 10
146.1230019487
 20
180.1459332315
 11
146.0076390892
 21
180.2005992512
  0
LINE
  8
0
 62
7
  6
CONTINUOUS
 10
145.5997138234
 20
180.5322211631
 11
145.3689881044
 21
180.6415532026
  0
LINE
  8
0
 62
7
  6
CONTINUOUS
 10
43.0207638419
 20
236.8810771849
 11
38.9297008212
 21
238.9101188666
  0
LINE
  8
0
 62
7
  6
CONTINUOUS
 10
163.2928491993
 20
167.1090216733
 11
159.4901160472
 21
169.6374653369
  0
LINE
  8
0
 62
7
  6
CONTINUOUS
 10
137.6500148155
 20
164.3755441657
 11
137.4698696625
 21
164.5564739203
  0
LINE
  8
0
 62
7
  6
CONTINUOUS
 10
137.9112783035
 20
165.1761152478
 11
138.271568862
 21
164.8142554851
  0
LINE
  8
0
 62
7
  6
CONTINUOUS
 10
58.812531771
 20
254.1159891709
 11
55.6621631661
 21
257.4218906271
  0
LINE
  8
0
 62
7
  6
CONTINUOUS
 10
133.8971178034
 20
159.8098324592
 11
130.6792319696
 21
163.9378359917
  0
LINE
  8
0
 62
7
  6
CONTINUOUS
 10
131.2707446605
 20
164.3989354782
 11
134.959540552
 21
159.6668339502
  0
LINE
  8
0
 62
7
  6
CONTINUOUS
 10
147.9678744416
 20
147.4162275975
 11
145.259252824
 21
151.0927987879
  0
LINE
  8
0
 62
7
  6
CONTINUOUS
 10
128.5449087896
 20
155.892603717
 11
127.6244370909
 21
157.4245756135
  0
LINE
  8
0
 62
7
  6
CONTINUOUS
 10
127.2299492989
 20
158.0811348663
 11
126.2437296809
 21
159.7225332282
  0
LINE
  8
0
 62
7
  6
CONTINUOUS
 10
126.4921228546
 20
160.7653619
 11
129.5822775932
 21
155.6223138066
  0
LINE
  8
0
 62
7
  6
CONTINUOUS
 10
79.5466266308
 20
264.9104060535
 11
77.7169333898
 21
269.0944267787
  0
LINE
  8
0
 62
7
  6
CONTINUOUS
 10
126.8317764958
 20
134.1525043849
 11
125.5439661548
 21
138.5337543562
  0
LINE
  8
0
 62
7
  6
CONTINUOUS
 10
149.1371457726
 20
205.1941369947
 11
148.7627504241
 21
205.0453895766
  0
LINE
  8
0
 62
7
  6
CONTINUOUS
 10
148.5961863841
 20
205.6611642122
 11
149.0979906161
 21
205.8179092729
  0
LINE
  8
0
 62
7
  6
CONTINUOUS
 10
148.5684687094
 20
202.0272896194
 11
148.066664492
 21
201.8705446827
  0
LINE
  8
0
 62
7
  6
CONTINUOUS
 10
145.8673503936
 20
181.0970202871
 11
146.5060001533
 21
180.6560637504
  0
LINE
  8
0
 62
7
  6
CONTINUOUS
 10
143.4623035978
 20
177.8103113193
 11
143.054379638
 21
178.1419357784
  0
LINE
  8
0
 62
7
  6
CONTINUOUS
 10
143.4373778425
 20
178.6520662972
 11
143.729940168
 21
178.3751104433
  0
LINE
  8
0
 62
7
  6
CONTINUOUS
 10
138.271568862
 20
164.8142554851
 11
138.5432782893
 21
164.364199228
  0
LINE
  8
0
 62
7
  6
CONTINUOUS
 10
123.2509192948
 20
157.1796764879
 11
123.1608205532
 21
157.5723334324
  0
LINE
  8
0
 62
7
  6
CONTINUOUS
 10
123.8694495762
 20
157.8491761559
 11
123.9595482718
 21
157.4565192881
  0
LINE
  8
0
 62
7
  6
CONTINUOUS
 10
124.6316266587
 20
154.8817189498
 11
124.5415279631
 21
155.2743758176
  0
LINE
  8
0
 62
7
  6
CONTINUOUS
 10
125.2501569401
 20
155.5512186178
 11
125.3402556357
 21
155.15856175
  0
LINE
  8
0
 62
4
  6
CONTINUOUS
 10
106.7494011179
 20
179.3952105597
 11
103.9209739932
 21
176.566783435
  0
LINE
  8
0
 62
4
  6
CONTINUOUS
 10
121.112208751
 20
193.7580181928
 11
123.9406358757
 21
196.5864453175
  0
LINE
  8
0
 62
4
  6
CONTINUOUS
 10
119.2502536915
 20
189.6333214335
 11
110.8740978772
 21
181.2571656193
  0
LINE
  8
0
 62
7
  6
CONTINUOUS
 10
148.3491998286
 20
205.5204144534
 11
148.5961863841
 21
205.6611642122
  0
LINE
  8
0
 62
7
  6
CONTINUOUS
 10
64.9311219152
 20
166.3743590668
 11
64.3125422864
 21
166.0789245962
  0
LINE
  8
0
 62
7
  6
CONTINUOUS
 10
66.7190313346
 20
162.4300546872
 11
67.3376193829
 21
162.7254814062
  0
LINE
  8
0
 62
7
  6
CONTINUOUS
 10
64.8837821281
 20
160.650652963
 11
65.5023619401
 21
160.9460876295
  0
LINE
  8
0
 62
7
  6
CONTINUOUS
 10
147.780522764
 20
202.3535671004
 11
148.4019047509
 21
202.6430643833
  0
LINE
  8
0
 62
7
  6
CONTINUOUS
 10
63.1912649005
 20
164.3309585497
 11
62.6598748805
 21
164.1287708385
  0
LINE
  8
0
 62
7
  6
CONTINUOUS
 10
151.1472522135
 20
197.3542198394
 11
150.7599927586
 21
197.2431890249
  0
LINE
  8
0
 62
4
  6
CONTINUOUS
 10
103.9209739932
 20
224.870716565
 11
106.7494011179
 21
222.0422894403
  0
LINE
  8
0
 62
4
  6
CONTINUOUS
 10
123.9406358757
 20
204.8510546825
 11
121.112208751
 21
207.6794818072
  0
LINE
  8
0
 62
4
  6
CONTINUOUS
 10
119.2502536915
 20
211.8041785665
 11
110.8740978772
 21
220.1803343807
  0
LINE
  8
0
 62
7
  6
CONTINUOUS
 10
137.8316519187
 20
164.0159525324
 11
137.6500148155
 21
164.3755441657
  0
LINE
  8
0
 62
7
  6
CONTINUOUS
 10
133.0080264951
 20
164.0772105744
 11
132.8248978835
 21
164.6154636428
  0
LINE
  8
0
 62
7
  6
CONTINUOUS
 10
123.1608205532
 20
157.5723334324
 11
123.2192691747
 21
158.2031743104
  0
LINE
  8
0
 62
7
  6
CONTINUOUS
 10
148.7627504241
 20
205.0453895766
 11
148.3961860188
 21
204.7718876794
  0
LINE
  8
0
 62
7
  6
CONTINUOUS
 10
148.066664492
 20
201.8705446827
 11
147.8196779289
 21
201.7297946883
  0
LINE
  8
0
 62
7
  6
CONTINUOUS
 10
148.641060279
 20
202.9085685375
 11
149.0389488083
 21
202.6830526299
  0
LINE
  8
0
 62
7
  6
CONTINUOUS
 10
146.3002001086
 20
179.9236408502
 11
146.1230019487
 21
180.1459332315
  0
LINE
  8
0
 62
7
  6
CONTINUOUS
 10
146.5060001533
 20
180.6560637504
 11
146.8603976983
 21
180.2114815732
  0
LINE
  8
0
 62
7
  6
CONTINUOUS
 10
133.5365243171
 20
164.963710275
 11
133.6295802892
 21
164.5159221472
  0
LINE
  8
0
 62
7
  6
CONTINUOUS
 10
132.8248978835
 20
164.6154636428
 11
132.8189270059
 21
165.3301061381
  0
LINE
  8
0
 62
7
  6
CONTINUOUS
 10
124.5415279631
 20
155.2743758176
 11
124.5999766076
 21
155.9052166573
  0
LINE
  8
0
 62
7
  6
CONTINUOUS
 10
123.952248905
 20
158.1967867466
 11
123.8694495762
 21
157.8491761559
  0
LINE
  8
0
 62
7
  6
CONTINUOUS
 10
125.3329563149
 20
155.8988291318
 11
125.2501569401
 21
155.5512186178
  0
LINE
  8
0
 62
7
  6
CONTINUOUS
 10
147.9904664962
 20
205.1221581524
 11
148.3491998286
 21
205.5204144534
  0
LINE
  8
0
 62
7
  6
CONTINUOUS
 10
144.215359388
 20
181.1882134571
 11
144.5531402656
 21
181.3048020824
  0
LINE
  8
0
 62
7
  6
CONTINUOUS
 10
144.6851199138
 20
180.6889652028
 11
144.1784498024
 21
180.51408486
  0
LINE
  8
0
 62
7
  6
CONTINUOUS
 10
148.4019047509
 20
202.6430643833
 11
147.9961852199
 21
202.9933346319
  0
LINE
  8
0
 62
7
  6
CONTINUOUS
 10
143.054379638
 20
178.1419357784
 11
142.8688724711
 21
178.6448122969
  0
LINE
  8
0
 62
7
  6
CONTINUOUS
 10
142.1430967729
 20
174.7923964421
 11
141.4455150544
 21
176.8315603578
  0
LINE
  8
0
 62
7
  6
CONTINUOUS
 10
142.7963784938
 20
174.3925040346
 11
143.4939585662
 21
172.3533377721
  0
LINE
  8
0
 62
7
  6
CONTINUOUS
 10
143.1023972953
 20
171.7136661601
 11
142.2739569217
 21
174.272614479
  0
LINE
  8
0
 62
7
  6
CONTINUOUS
 10
141.8370763253
 20
177.4712319698
 11
142.6655181926
 21
174.912286091
  0
LINE
  8
0
 62
7
  6
CONTINUOUS
 10
142.8688724711
 20
178.6448122969
 11
142.8522557329
 21
179.2059831328
  0
LINE
  8
0
 62
7
  6
CONTINUOUS
 10
138.5432782893
 20
164.364199228
 11
138.5492491353
 21
163.6495567644
  0
LINE
  8
0
 62
7
  6
CONTINUOUS
 10
133.6221197098
 20
165.409228318
 11
133.5365243171
 21
164.963710275
  0
LINE
  8
0
 62
7
  6
CONTINUOUS
 10
132.8189270059
 20
165.3301061381
 11
132.9931033167
 21
165.8638208894
  0
LINE
  8
0
 62
7
  6
CONTINUOUS
 10
123.2192691747
 20
158.2031743104
 11
123.4506109676
 21
158.7889658781
  0
LINE
  8
0
 62
7
  6
CONTINUOUS
 10
147.7591419727
 20
204.7318994334
 11
147.9904664962
 21
205.1221581524
  0
LINE
  8
0
 62
7
  6
CONTINUOUS
 10
150.7826559462
 20
197.8677784709
 11
151.0468724139
 21
198.1083556753
  0
LINE
  8
0
 62
7
  6
CONTINUOUS
 10
151.4114686812
 20
197.5947970439
 11
151.1472522135
 21
197.3542198394
  0
LINE
  8
0
 62
7
  6
CONTINUOUS
 10
143.8240521967
 20
180.9586670659
 11
144.215359388
 21
181.1882134571
  0
LINE
  8
0
 62
7
  6
CONTINUOUS
 10
150.9782210484
 20
199.7369159492
 11
150.7321351127
 21
199.9960098011
  0
LINE
  8
0
 62
7
  6
CONTINUOUS
 10
151.242437529
 20
199.977493511
 11
151.4885234647
 21
199.718399659
  0
LINE
  8
0
 62
7
  6
CONTINUOUS
 10
148.3627495973
 20
203.2668366169
 11
148.641060279
 21
202.9085685375
  0
LINE
  8
0
 62
7
  6
CONTINUOUS
 10
146.4857072351
 20
179.4207643508
 11
146.3002001086
 21
179.9236408502
  0
LINE
  8
0
 62
7
  6
CONTINUOUS
 10
146.8603976983
 20
180.2114815732
 11
146.9840682992
 21
179.8762288499
  0
LINE
  8
0
 62
7
  6
CONTINUOUS
 10
143.3672335756
 20
179.1002767769
 11
143.4373778425
 21
178.6520662972
  0
LINE
  8
0
 62
7
  6
CONTINUOUS
 10
147.8196779289
 20
201.7297946883
 11
147.780522764
 21
202.3535671004
  0
LINE
  8
0
 62
7
  6
CONTINUOUS
 10
147.6943814216
 20
203.7258660858
 11
147.6630572919
 21
204.2248839797
  0
LINE
  8
0
 62
7
  6
CONTINUOUS
 10
148.172692511
 20
204.2568745754
 11
148.2040166406
 21
203.7578566814
  0
LINE
  8
0
 62
7
  6
CONTINUOUS
 10
146.4940162017
 20
179.1401802327
 11
146.4857072351
 21
179.4207643508
  0
LINE
  8
0
 62
7
  6
CONTINUOUS
 10
147.6936452866
 20
197.2293694616
 11
147.7163084483
 21
197.8539581927
  0
LINE
  8
0
 62
7
  6
CONTINUOUS
 10
147.7978958616
 20
200.1024784826
 11
147.8205590363
 21
200.7270675711
  0
LINE
  8
0
 62
7
  6
CONTINUOUS
 10
147.5173083059
 20
195.6124131674
 11
147.579748391
 21
196.2342860947
  0
LINE
  8
0
 62
7
  6
CONTINUOUS
 10
147.0542125662
 20
179.4280183703
 11
147.0089939737
 21
179.0344739103
  0
LINE
  8
0
 62
7
  6
CONTINUOUS
 10
147.6630572919
 20
204.2248839797
 11
147.7591419727
 21
204.7318994334
  0
LINE
  8
0
 62
7
  6
CONTINUOUS
 10
137.7460564629
 20
163.5704345528
 11
137.8316519187
 21
164.0159525324
  0
LINE
  8
0
 62
7
  6
CONTINUOUS
 10
142.8522557329
 20
179.2059831328
 11
143.1115821013
 21
180.0513637942
  0
LINE
  8
0
 62
7
  6
CONTINUOUS
 10
143.6265611388
 20
179.9456600381
 11
143.3672335756
 21
179.1002767769
  0
LINE
  8
0
 62
7
  6
CONTINUOUS
 10
146.0971449683
 20
187.9996666105
 11
146.3182762582
 21
188.7163261899
  0
LINE
  8
0
 62
7
  6
CONTINUOUS
 10
138.5492491353
 20
163.6495567644
 11
138.3750728008
 21
163.1158420368
  0
LINE
  8
0
 62
7
  6
CONTINUOUS
 10
144.3651793513
 20
182.9133460732
 11
144.5932322557
 21
183.4952545444
  0
LINE
  8
0
 62
7
  6
CONTINUOUS
 10
148.3961860188
 20
204.7718876794
 11
148.172692511
 21
204.2568745754
  0
LINE
  8
0
 62
7
  6
CONTINUOUS
 10
143.729940168
 20
178.3751104433
 11
143.4623035978
 21
177.8103113193
  0
LINE
  8
0
 62
7
  6
CONTINUOUS
 10
151.0468724139
 20
198.1083556753
 11
151.1835132775
 21
198.3535619522
  0
LINE
  8
0
 62
7
  6
CONTINUOUS
 10
133.8863665934
 20
165.8524761497
 11
133.6221197098
 21
165.409228318
  0
LINE
  8
0
 62
7
  6
CONTINUOUS
 10
139.6182286256
 20
173.8464253553
 11
140.0097898965
 21
174.4860969673
  0
LINE
  8
0
 62
7
  6
CONTINUOUS
 10
141.4455150544
 20
176.8315603578
 11
141.8370763253
 21
177.4712319698
  0
LINE
  8
0
 62
7
  6
CONTINUOUS
 10
124.5999766076
 20
155.9052166573
 11
124.7485239478
 21
156.1434006292
  0
LINE
  8
0
 62
7
  6
CONTINUOUS
 10
132.9931033167
 20
165.8638208894
 11
133.3459310712
 21
166.3952654769
  0
LINE
  8
0
 62
7
  6
CONTINUOUS
 10
143.1115821013
 20
180.0513637942
 11
143.548107875
 21
180.6744546502
  0
LINE
  8
0
 62
7
  6
CONTINUOUS
 10
151.6802177916
 20
197.9602922804
 11
151.4114686812
 21
197.5947970439
  0
LINE
  8
0
 62
7
  6
CONTINUOUS
 10
143.9560330499
 20
180.3428327814
 11
143.6265611388
 21
179.9456600381
  0
LINE
  8
0
 62
7
  6
CONTINUOUS
 10
124.2079414455
 20
158.4993479599
 11
123.952248905
 21
158.1967867466
  0
LINE
  8
0
 62
7
  6
CONTINUOUS
 10
125.5886488555
 20
156.2013903451
 11
125.3329563149
 21
155.8988291318
  0
LINE
  8
0
 62
7
  6
CONTINUOUS
 10
143.548107875
 20
180.6744546502
 11
143.8240521967
 21
180.9586670659
  0
LINE
  8
0
 62
7
  6
CONTINUOUS
 10
133.3459310712
 20
166.3952654769
 11
134.0545740462
 21
167.1008354228
  0
LINE
  8
0
 62
7
  6
CONTINUOUS
 10
134.5950095684
 20
166.5580460956
 11
133.8863665934
 21
165.8524761497
  0
LINE
  8
0
 62
7
  6
CONTINUOUS
 10
123.4506109676
 20
158.7889658781
 11
123.9205988079
 21
159.2202845307
  0
LINE
  8
0
 62
7
  6
CONTINUOUS
 10
127.3273282249
 20
161.3249400746
 11
128.2145972614
 21
162.0165893042
  0
LINE
  8
0
 62
7
  6
CONTINUOUS
 10
130.6792319696
 20
163.9378359917
 11
131.2707446605
 21
164.3989354782
  0
LINE
  8
0
 62
7
  6
CONTINUOUS
 10
144.1784498024
 20
180.51408486
 11
143.9560330499
 21
180.3428327814
  0
LINE
  8
0
 62
7
  6
CONTINUOUS
 10
134.0545740462
 20
167.1008354228
 11
134.5875469694
 21
167.4513502398
  0
LINE
  8
0
 62
7
  6
CONTINUOUS
 10
146.3666681654
 20
177.6789601494
 11
145.7529442418
 21
177.27816167
  0
LINE
  8
0
 62
7
  6
CONTINUOUS
 10
123.9205988079
 20
159.2202845307
 11
126.4921228546
 21
160.7653619
  0
LINE
  8
0
 62
7
  6
CONTINUOUS
 10
126.2437296809
 20
159.7225332282
 11
124.2079414455
 21
158.4993479599
  0
LINE
  8
0
 62
7
  6
CONTINUOUS
 10
135.039401605
 20
166.8203641726
 11
134.5950095684
 21
166.5580460956
  0
LINE
  8
0
 62
7
  6
CONTINUOUS
 10
135.768936648
 20
165.02467925
 11
136.213330712
 21
165.2869993457
  0
LINE
  8
0
 62
7
  6
CONTINUOUS
 10
134.7930633938
 20
164.2331847229
 11
135.2374554304
 21
164.4955027999
  0
LINE
  8
0
 62
7
  6
CONTINUOUS
 10
145.5674371153
 20
177.7810381694
 11
145.9587442864
 21
178.0105845702
  0
LINE
  8
0
 62
7
  6
CONTINUOUS
 10
136.6651852924
 20
164.6560133339
 11
136.3093721071
 21
164.4818899862
  0
LINE
  8
0
 62
7
  6
CONTINUOUS
 10
136.213330712
 20
165.2869993457
 11
136.7477973526
 21
165.4588545641
  0
LINE
  8
0
 62
7
  6
CONTINUOUS
 10
135.2449179742
 20
163.6021987111
 11
134.7104513336
 21
163.4303434928
  0
LINE
  8
0
 62
7
  6
CONTINUOUS
 10
151.2197743673
 20
199.3529047798
 11
150.9782210484
 21
199.7369159492
  0
LINE
  8
0
 62
7
  6
CONTINUOUS
 10
151.4885234647
 20
199.718399659
 11
151.7300767836
 21
199.3343884896
  0
LINE
  8
0
 62
7
  6
CONTINUOUS
 10
147.9961852199
 20
202.9933346319
 11
147.8531143448
 21
203.2348460192
  0
LINE
  8
0
 62
7
  6
CONTINUOUS
 10
147.8531143448
 20
203.2348460192
 11
147.6943814216
 21
203.7258660858
  0
LINE
  8
0
 62
7
  6
CONTINUOUS
 10
148.2040166406
 20
203.7578566814
 11
148.3627495973
 21
203.2668366169
  0
LINE
  8
0
 62
7
  6
CONTINUOUS
 10
146.9840682992
 20
179.8762288499
 11
147.0542125662
 21
179.4280183703
  0
LINE
  8
0
 62
7
  6
CONTINUOUS
 10
151.6461666669
 20
205.9778622484
 11
151.6853218234
 21
205.3540899701
  0
LINE
  8
0
 62
7
  6
CONTINUOUS
 10
151.8419424463
 20
202.8590009018
 11
151.8810976111
 21
202.2352284897
  0
LINE
  8
0
 62
7
  6
CONTINUOUS
 10
151.9029787241
 20
200.5789372368
 11
151.8803155494
 21
199.9543481483
  0
LINE
  8
0
 62
7
  6
CONTINUOUS
 10
151.8395218428
 20
198.8300880033
 11
151.8213912978
 21
198.3304165895
  0
LINE
  8
0
 62
7
  6
CONTINUOUS
 10
151.6444171166
 20
195.8261669273
 11
151.5819770314
 21
195.204294
  0
LINE
  8
0
 62
7
  6
CONTINUOUS
 10
152.8521862528
 20
195.0767567356
 11
152.9146263379
 21
195.6986296629
  0
LINE
  8
0
 62
7
  6
CONTINUOUS
 10
153.5497307707
 20
195.6348610486
 11
153.4872906856
 21
195.0129881213
  0
LINE
  8
0
 62
7
  6
CONTINUOUS
 10
146.3952700501
 20
178.6336754309
 11
146.4940162017
 21
179.1401802327
  0
LINE
  8
0
 62
7
  6
CONTINUOUS
 10
147.0089939737
 20
179.0344739103
 11
146.8031939291
 21
178.3020510101
  0
LINE
  8
0
 62
7
  6
CONTINUOUS
 10
151.1835132775
 20
198.3535619522
 11
151.3292194265
 21
198.8486042935
  0
LINE
  8
0
 62
7
  6
CONTINUOUS
 10
147.8225710856
 20
184.0660765647
 11
148.7808063937
 21
187.1716004973
  0
LINE
  8
0
 62
7
  6
CONTINUOUS
 10
149.5127139619
 20
186.9457643133
 11
148.5544786539
 21
183.8402403808
  0
LINE
  8
0
 62
7
  6
CONTINUOUS
 10
149.9928575858
 20
182.8731545793
 11
151.0985140348
 21
186.456452476
  0
LINE
  8
0
 62
7
  6
CONTINUOUS
 10
152.0515528929
 20
186.9472758714
 11
150.724765154
 21
182.6473183953
  0
LINE
  8
0
 62
7
  6
CONTINUOUS
 10
151.8213912978
 20
198.3304165895
 11
151.6802177916
 21
197.9602922804
  0
LINE
  8
0
 62
7
  6
CONTINUOUS
 10
150.1795493173
 20
181.305948333
 11
149.9514964129
 21
180.7240398617
  0
LINE
  8
0
 62
7
  6
CONTINUOUS
 10
144.1544807549
 20
177.482315201
 11
145.5997138234
 21
180.5322211631
  0
LINE
  8
0
 62
7
  6
CONTINUOUS
 10
146.0076390892
 20
180.2005992512
 11
144.8835689247
 21
177.8284501696
  0
LINE
  8
0
 62
7
  6
CONTINUOUS
 10
137.5703884307
 20
163.2153814504
 11
137.7460564629
 21
163.5704345528
  0
LINE
  8
0
 62
7
  6
CONTINUOUS
 10
138.3750728008
 20
163.1158420368
 11
138.1108238898
 21
162.6725921865
  0
LINE
  8
0
 62
7
  6
CONTINUOUS
 10
145.3212449949
 20
175.3384727745
 11
144.929683724
 21
174.6988011626
  0
LINE
  8
0
 62
7
  6
CONTINUOUS
 10
143.4939585662
 20
172.3533377721
 11
143.1023972953
 21
171.7136661601
  0
LINE
  8
0
 62
7
  6
CONTINUOUS
 10
145.9587442864
 20
178.0105845702
 11
146.3952700501
 21
178.6336754309
  0
LINE
  8
0
 62
7
  6
CONTINUOUS
 10
146.8031939291
 20
178.3020510101
 11
146.3666681654
 21
177.6789601494
  0
LINE
  8
0
 62
7
  6
CONTINUOUS
 10
136.4656398323
 20
167.1595362685
 11
135.9341586147
 21
166.6303598184
  0
LINE
  8
0
 62
7
  6
CONTINUOUS
 10
135.2374554304
 20
164.4955027999
 11
135.768936648
 21
165.02467925
  0
LINE
  8
0
 62
7
  6
CONTINUOUS
 10
136.3093721071
 20
164.4818899862
 11
135.7778908895
 21
163.952713536
  0
LINE
  8
0
 62
7
  6
CONTINUOUS
 10
135.5255818954
 20
162.0801764865
 11
136.057063113
 21
162.6093529367
  0
LINE
  8
0
 62
7
  6
CONTINUOUS
 10
137.0389072131
 20
162.6862050002
 11
137.5703884307
 21
163.2153814504
  0
LINE
  8
0
 62
7
  6
CONTINUOUS
 10
138.1108238898
 20
162.6725921865
 11
137.667923551
 21
162.2316124843
  0
LINE
  8
0
 62
7
  6
CONTINUOUS
 10
134.959540552
 20
159.6668339502
 11
134.0722715156
 21
158.9751847206
  0
LINE
  8
0
 62
7
  6
CONTINUOUS
 10
131.6076368074
 20
157.053938033
 11
131.0161241164
 21
156.5928385466
  0
LINE
  8
0
 62
7
  6
CONTINUOUS
 10
135.7778908895
 20
163.952713536
 11
135.2449179742
 21
163.6021987111
  0
LINE
  8
0
 62
7
  6
CONTINUOUS
 10
137.667923551
 20
162.2316124843
 11
137.1349506356
 21
161.8810976594
  0
LINE
  8
0
 62
7
  6
CONTINUOUS
 10
125.1941610635
 20
156.8579495979
 11
127.2299492989
 21
158.0811348663
  0
LINE
  8
0
 62
7
  6
CONTINUOUS
 10
127.6244370909
 20
157.4245756135
 11
125.5886488555
 21
156.2013903451
  0
LINE
  8
0
 62
7
  6
CONTINUOUS
 10
126.5091205542
 20
154.6694184487
 11
128.5449087896
 21
155.892603717
  0
LINE
  8
0
 62
7
  6
CONTINUOUS
 10
129.5822775932
 20
155.6223138066
 11
127.0107535465
 21
154.0772364373
  0
LINE
  8
0
 62
7
  6
CONTINUOUS
 10
136.6830940278
 20
162.5120816525
 11
137.0389072131
 21
162.6862050002
  0
LINE
  8
0
 62
7
  6
CONTINUOUS
 10
127.0107535465
 20
154.0772364373
 11
126.4092697698
 21
153.8647708785
  0
LINE
  8
0
 62
7
  6
CONTINUOUS
 10
151.3292194265
 20
198.8486042935
 11
151.2197743673
 21
199.3529047798
  0
LINE
  8
0
 62
7
  6
CONTINUOUS
 10
151.7300767836
 20
199.3343884896
 11
151.8395218428
 21
198.8300880033
  0
LINE
  8
0
 62
7
  6
CONTINUOUS
 10
172.6683733294
 20
187.6057319589
 11
172.758105692
 21
188.1146294754
  0
LINE
  8
0
 62
7
  6
CONTINUOUS
 10
163.7882730723
 20
163.4702168966
 11
164.0466471128
 21
163.917733862
  0
LINE
  8
0
 62
7
  6
CONTINUOUS
 10
147.188876068
 20
143.8274246563
 11
147.5847280639
 21
144.15958392
  0
LINE
  8
0
 62
7
  6
CONTINUOUS
 10
124.8723145762
 20
131.046565879
 11
125.3578989347
 21
131.2233041317
  0
LINE
  8
0
 62
7
  6
CONTINUOUS
 10
100.0470433512
 20
274.7682992414
 11
99.5302952703
 21
274.7682992414
  0
LINE
  8
0
 62
7
  6
CONTINUOUS
 10
125.3578989347
 20
270.2141958683
 11
124.8723145762
 21
270.390934121
  0
LINE
  8
0
 62
7
  6
CONTINUOUS
 10
147.5847280639
 20
257.27791608
 11
147.188876068
 21
257.6100753437
  0
LINE
  8
0
 62
7
  6
CONTINUOUS
 10
164.0466471128
 20
237.519766138
 11
163.7882730723
 21
237.9672831034
  0
LINE
  8
0
 62
7
  6
CONTINUOUS
 10
172.758105692
 20
213.3228705246
 11
172.6683733294
 21
213.8317680411
  0
LINE
  8
0
 62
7
  6
CONTINUOUS
 10
26.7842112862
 20
85.0614059081
 11
26.7842112862
 21
88.0614059081
  0
LINE
  8
0
 62
7
  6
CONTINUOUS
 10
34.2386693107
 20
93.5614059081
 11
34.2386693107
 21
88.5614059081
  0
LINE
  8
0
 62
7
  6
CONTINUOUS
 10
34.2386693107
 20
84.5614059081
 11
34.2386693107
 21
79.5614059081
  0
LINE
  8
0
 62
7
  6
CONTINUOUS
 10
35.2133268459
 20
85.0614059081
 11
35.2133268459
 21
88.0614059081
  0
POLYLINE
  8
0
 62
7
  6
CONTINUOUS
 66
1
 70
0
  0
VERTEX
  8
0
 62
7
  6
CONTINUOUS
 10
34.7054411226
 20
88.7909028934
  0
VERTEX
  8
0
 62
7
  6
CONTINUOUS
 10
34.7060975233
 20
88.7926376432
  0
VERTEX
  8
0
 62
7
  6
CONTINUOUS
 10
34.7050391908
 20
88.7902171018
  0
VERTEX
  8
0
 62
7
  6
CONTINUOUS
 10
34.700325806
 20
88.7806305223
  0
VERTEX
  8
0
 62
7
  6
CONTINUOUS
 10
34.6910454759
 20
88.7643612499
  0
VERTEX
  8
0
 62
7
  6
CONTINUOUS
 10
34.6760585707
 20
88.7420156793
  0
VERTEX
  8
0
 62
7
  6
CONTINUOUS
 10
34.6542695804
 20
88.7147656335
  0
VERTEX
  8
0
 62
7
  6
CONTINUOUS
 10
34.6247569185
 20
88.6843096394
  0
VERTEX
  8
0
 62
7
  6
CONTINUOUS
 10
34.5867629386
 20
88.6526574428
  0
VERTEX
  8
0
 62
7
  6
CONTINUOUS
 10
34.539938167
 20
88.6221779253
  0
VERTEX
  8
0
 62
7
  6
CONTINUOUS
 10
34.4843041618
 20
88.5953783178
  0
VERTEX
  8
0
 62
7
  6
CONTINUOUS
 10
34.4207861028
 20
88.5749528508
  0
VERTEX
  8
0
 62
7
  6
CONTINUOUS
 10
34.3510254827
 20
88.5633310199
  0
VERTEX
  8
0
 62
7
  6
CONTINUOUS
 10
34.3083434349
 20
88.5614055088
  0
SEQEND
  0
LINE
  8
0
 62
7
  6
CONTINUOUS
 10
51.1417063172
 20
85.0614059081
 11
51.1417063172
 21
88.0614059081
  0
LINE
  8
0
 62
7
  6
CONTINUOUS
 10
64.7886693107
 20
97.0614059081
 11
64.7886693107
 21
94.5614059081
  0
LINE
  8
0
 62
7
  6
CONTINUOUS
 10
64.7886693107
 20
78.5614059081
 11
64.7886693107
 21
76.0614059081
  0
POLYLINE
  8
0
 62
7
  6
CONTINUOUS
 66
1
 70
0
  0
VERTEX
  8
0
 62
7
  6
CONTINUOUS
 10
41.2615642833
 20
88.5664471285
  0
VERTEX
  8
0
 62
7
  6
CONTINUOUS
 10
41.2669024575
 20
88.569605673
  0
VERTEX
  8
0
 62
7
  6
CONTINUOUS
 10
41.2623005855
 20
88.567885863
  0
VERTEX
  8
0
 62
7
  6
CONTINUOUS
 10
41.2416277666
 20
88.5630973851
  0
VERTEX
  8
0
 62
7
  6
CONTINUOUS
 10
41.2182124173
 20
88.5614056115
  0
SEQEND
  0
LINE
  8
0
 62
7
  6
CONTINUOUS
 10
72.6481520581
 20
85.0614059081
 11
72.6481520581
 21
88.0614059081
  0
LINE
  8
0
 62
7
  6
CONTINUOUS
 10
132.7886693107
 20
74.0614059081
 11
66.7886693107
 21
74.0614059081
  0
LINE
  8
0
 62
7
  6
CONTINUOUS
 10
164.3386693107
 20
78.5614059081
 11
35.2386693107
 21
78.5614059081
  0
POLYLINE
  8
0
 62
7
  6
CONTINUOUS
 66
1
 70
0
  0
VERTEX
  8
0
 62
7
  6
CONTINUOUS
 10
34.3083451753
 20
84.5614063339
  0
VERTEX
  8
0
 62
7
  6
CONTINUOUS
 10
34.3512240581
 20
84.5594626207
  0
VERTEX
  8
0
 62
7
  6
CONTINUOUS
 10
34.4215861815
 20
84.5476620026
  0
VERTEX
  8
0
 62
7
  6
CONTINUOUS
 10
34.4858571513
 20
84.5268054564
  0
VERTEX
  8
0
 62
7
  6
CONTINUOUS
 10
34.5422781829
 20
84.4992982565
  0
VERTEX
  8
0
 62
7
  6
CONTINUOUS
 10
34.5895307371
 20
84.4680822297
  0
VERTEX
  8
0
 62
7
  6
CONTINUOUS
 10
34.6271232502
 20
84.436275831
  0
VERTEX
  8
0
 62
7
  6
CONTINUOUS
 10
34.6556848537
 20
84.4064194223
  0
VERTEX
  8
0
 62
7
  6
CONTINUOUS
 10
34.67642364
 20
84.3802939716
  0
VERTEX
  8
0
 62
7
  6
CONTINUOUS
 10
34.690787447
 20
84.3588699842
  0
VERTEX
  8
0
 62
7
  6
CONTINUOUS
 10
34.7001547162
 20
84.3425063275
  0
VERTEX
  8
0
 62
7
  6
CONTINUOUS
 10
34.7050210375
 20
84.3326361173
  0
VERTEX
  8
0
 62
7
  6
CONTINUOUS
 10
34.7060237912
 20
84.3303491427
  0
SEQEND
  0
POLYLINE
  8
0
 62
7
  6
CONTINUOUS
 66
1
 70
0
  0
VERTEX
  8
0
 62
7
  6
CONTINUOUS
 10
41.2181924611
 20
84.5614062441
  0
VERTEX
  8
0
 62
7
  6
CONTINUOUS
 10
41.2421334082
 20
84.5596389218
  0
VERTEX
  8
0
 62
7
  6
CONTINUOUS
 10
41.2625122786
 20
84.5548541998
  0
VERTEX
  8
0
 62
7
  6
CONTINUOUS
 10
41.2673102076
 20
84.5529961786
  0
SEQEND
  0
LINE
  8
DEFAULT_1
 62
2
  6
CENTER
 10
99.7886693107
 20
72.0614059081
 11
99.7886693107
 21
101.0614059081
  0
LINE
  8
0
 62
7
  6
CONTINUOUS
 10
172.2931258943
 20
84.5614059081
 11
164.2806610821
 21
84.5614059081
  0
LINE
  8
0
 62
7
  6
CONTINUOUS
 10
163.8640083084
 20
84.5614059081
 11
155.513656378
 21
84.5614059081
  0
LINE
  8
0
 62
7
  6
CONTINUOUS
 10
147.9356303748
 20
84.5614059081
 11
140.0253958204
 21
84.5614059081
  0
LINE
  8
0
 62
7
  6
CONTINUOUS
 10
126.4291864282
 20
84.5614059081
 11
119.6839922149
 21
84.5614059081
  0
LINE
  8
0
 62
7
  6
CONTINUOUS
 10
102.6344195779
 20
84.5614059081
 11
96.9429190434
 21
84.5614059081
  0
LINE
  8
0
 62
7
  6
CONTINUOUS
 10
79.8933464065
 20
84.5614059081
 11
73.1481521516
 21
84.5614059081
  0
LINE
  8
0
 62
7
  6
CONTINUOUS
 10
59.551942801
 20
84.5614059081
 11
51.6417082404
 21
84.5614059081
  0
LINE
  8
0
 62
7
  6
CONTINUOUS
 10
44.0636822434
 20
84.5614059081
 11
35.7133303427
 21
84.5614059081
  0
LINE
  8
0
 62
7
  6
CONTINUOUS
 10
35.2966775394
 20
84.5614059081
 11
27.2842128559
 21
84.5614059081
  0
LINE
  8
0
 62
7
  6
CONTINUOUS
 10
27.2842128559
 20
88.5614059081
 11
35.2966775233
 21
88.5614059081
  0
LINE
  8
0
 62
7
  6
CONTINUOUS
 10
35.7133303427
 20
88.5614059081
 11
44.0636822018
 21
88.5614059081
  0
LINE
  8
0
 62
7
  6
CONTINUOUS
 10
51.6417082404
 20
88.5614059081
 11
59.5519427387
 21
88.5614059081
  0
LINE
  8
0
 62
7
  6
CONTINUOUS
 10
73.1481521516
 20
88.5614059081
 11
79.8933463312
 21
88.5614059081
  0
LINE
  8
0
 62
7
  6
CONTINUOUS
 10
96.9429191234
 20
88.5614059081
 11
102.6344194986
 21
88.5614059081
  0
LINE
  8
0
 62
7
  6
CONTINUOUS
 10
119.6839922908
 20
88.5614059081
 11
126.4291864282
 21
88.5614059081
  0
LINE
  8
0
 62
7
  6
CONTINUOUS
 10
140.0253958831
 20
88.5614059081
 11
147.9356303748
 21
88.5614059081
  0
LINE
  8
0
 62
7
  6
CONTINUOUS
 10
155.51365642
 20
88.5614059081
 11
163.8636783643
 21
88.5614059081
  0
LINE
  8
0
 62
7
  6
CONTINUOUS
 10
164.2806610982
 20
88.5614059081
 11
172.2931258943
 21
88.5614059081
  0
POLYLINE
  8
0
 62
7
  6
CONTINUOUS
 66
1
 70
0
  0
VERTEX
  8
0
 62
7
  6
CONTINUOUS
 10
165.2689957105
 20
88.5614055086
  0
VERTEX
  8
0
 62
7
  6
CONTINUOUS
 10
165.2259224327
 20
88.5633665267
  0
VERTEX
  8
0
 62
7
  6
CONTINUOUS
 10
165.1553979641
 20
88.5752370152
  0
VERTEX
  8
0
 62
7
  6
CONTINUOUS
 10
165.0909983545
 20
88.5962028289
  0
VERTEX
  8
0
 62
7
  6
CONTINUOUS
 10
165.0344787508
 20
88.6238485393
  0
VERTEX
  8
0
 62
7
  6
CONTINUOUS
 10
164.98717214
 20
88.6552103387
  0
VERTEX
  8
0
 62
7
  6
CONTINUOUS
 10
164.9495771559
 20
88.6871419237
  0
VERTEX
  8
0
 62
7
  6
CONTINUOUS
 10
164.9210877149
 20
88.7170480155
  0
VERTEX
  8
0
 62
7
  6
CONTINUOUS
 10
164.9004634877
 20
88.7431426335
  0
VERTEX
  8
0
 62
7
  6
CONTINUOUS
 10
164.8862524624
 20
88.7644275381
  0
VERTEX
  8
0
 62
7
  6
CONTINUOUS
 10
164.8770323346
 20
88.78059331
  0
VERTEX
  8
0
 62
7
  6
CONTINUOUS
 10
164.8722567863
 20
88.7903113993
  0
VERTEX
  8
0
 62
7
  6
CONTINUOUS
 10
164.8712923902
 20
88.7925169102
  0
SEQEND
  0
LINE
  8
0
 62
7
  6
CONTINUOUS
 10
164.3386693107
 20
94.5614059081
 11
35.2386693107
 21
94.5614059081
  0
POLYLINE
  8
0
 62
7
  6
CONTINUOUS
 66
1
 70
0
  0
VERTEX
  8
0
 62
7
  6
CONTINUOUS
 10
158.3591415852
 20
88.5614056008
  0
VERTEX
  8
0
 62
7
  6
CONTINUOUS
 10
158.335210782
 20
88.5631719825
  0
VERTEX
  8
0
 62
7
  6
CONTINUOUS
 10
158.3148274935
 20
88.5679572644
  0
VERTEX
  8
0
 62
7
  6
CONTINUOUS
 10
158.3100270589
 20
88.5698162905
  0
SEQEND
  0
LINE
  8
0
 62
7
  6
CONTINUOUS
 10
132.7886693107
 20
99.0614059081
 11
66.7886693107
 21
99.0614059081
  0
LINE
  8
0
 62
7
  6
CONTINUOUS
 10
126.9291865634
 20
85.0614059081
 11
126.9291865634
 21
88.0614059081
  0
LINE
  8
0
 62
7
  6
CONTINUOUS
 10
134.7886693107
 20
97.0614059081
 11
134.7886693107
 21
94.5614059081
  0
LINE
  8
0
 62
7
  6
CONTINUOUS
 10
134.7886693107
 20
78.5614059081
 11
134.7886693107
 21
76.0614059081
  0
POLYLINE
  8
0
 62
7
  6
CONTINUOUS
 66
1
 70
0
  0
VERTEX
  8
0
 62
7
  6
CONTINUOUS
 10
158.3157752717
 20
84.5563653429
  0
VERTEX
  8
0
 62
7
  6
CONTINUOUS
 10
158.310437956
 20
84.553206956
  0
VERTEX
  8
0
 62
7
  6
CONTINUOUS
 10
158.3150369594
 20
84.5549256275
  0
VERTEX
  8
0
 62
7
  6
CONTINUOUS
 10
158.335704859
 20
84.5597134572
  0
VERTEX
  8
0
 62
7
  6
CONTINUOUS
 10
158.3591297488
 20
84.5614062359
  0
SEQEND
  0
LINE
  8
0
 62
7
  6
CONTINUOUS
 10
148.4356323042
 20
85.0614059081
 11
148.4356323042
 21
88.0614059081
  0
LINE
  8
0
 62
7
  6
CONTINUOUS
 10
164.3640117755
 20
85.0614059081
 11
164.3640117755
 21
88.0614059081
  0
POLYLINE
  8
0
 62
7
  6
CONTINUOUS
 66
1
 70
0
  0
VERTEX
  8
0
 62
7
  6
CONTINUOUS
 10
164.8719027225
 20
84.3319216781
  0
VERTEX
  8
0
 62
7
  6
CONTINUOUS
 10
164.8712504083
 20
84.3301972168
  0
VERTEX
  8
0
 62
7
  6
CONTINUOUS
 10
164.8722880355
 20
84.3325708634
  0
VERTEX
  8
0
 62
7
  6
CONTINUOUS
 10
164.8769713214
 20
84.3421016313
  0
VERTEX
  8
0
 62
7
  6
CONTINUOUS
 10
164.886241541
 20
84.3583662785
  0
VERTEX
  8
0
 62
7
  6
CONTINUOUS
 10
164.901186696
 20
84.3806683155
  0
VERTEX
  8
0
 62
7
  6
CONTINUOUS
 10
164.9229272683
 20
84.4078840012
  0
VERTEX
  8
0
 62
7
  6
CONTINUOUS
 10
164.9524298844
 20
84.4383601283
  0
VERTEX
  8
0
 62
7
  6
CONTINUOUS
 10
164.9904079695
 20
84.4700298236
  0
VERTEX
  8
0
 62
7
  6
CONTINUOUS
 10
165.0372128628
 20
84.5005275767
  0
VERTEX
  8
0
 62
7
  6
CONTINUOUS
 10
165.0928322344
 20
84.5273519205
  0
VERTEX
  8
0
 62
7
  6
CONTINUOUS
 10
165.1563684654
 20
84.5478134995
  0
VERTEX
  8
0
 62
7
  6
CONTINUOUS
 10
165.2261914461
 20
84.559469605
  0
VERTEX
  8
0
 62
7
  6
CONTINUOUS
 10
165.2689930679
 20
84.5614063371
  0
SEQEND
  0
LINE
  8
0
 62
7
  6
CONTINUOUS
 10
165.3386693107
 20
93.5614059081
 11
165.3386693107
 21
88.5614059081
  0
LINE
  8
0
 62
7
  6
CONTINUOUS
 10
165.3386693107
 20
84.5614059081
 11
165.3386693107
 21
79.5614059081
  0
LINE
  8
0
 62
7
  6
CONTINUOUS
 10
172.7931273353
 20
85.0614059081
 11
172.7931273353
 21
88.0614059081
  0
ARC
  8
0
 62
4
  6
CONTINUOUS
 10
73.3739610459
 20
194.3237036177
 40
3.2
 50
45.0
 51
87.7455692247
  0
ARC
  8
0
 62
4
  6
CONTINUOUS
 10
90.965982444
 20
183.5199073191
 40
3.2
 50
225.0
 51
266.4096221093
  0
ARC
  8
0
 62
4
  6
CONTINUOUS
 10
90.5651958037
 20
177.1324688599
 40
3.2
 50
45.0
 51
86.4096221093
  0
ARC
  8
0
 62
4
  6
CONTINUOUS
 10
93.3936229285
 20
174.3040417352
 40
3.2
 50
2.2544307753
 51
45.0
  0
ARC
  8
0
 62
4
  6
CONTINUOUS
 10
76.2023881707
 20
191.495276493
 40
3.2
 50
3.5903778907
 51
45.0
  0
ARC
  8
0
 62
4
  6
CONTINUOUS
 10
82.5898266298
 20
191.8960631333
 40
3.2
 50
183.5903778907
 51
225.0
  0
ARC
  8
0
 62
7
  6
CONTINUOUS
 10
29.271035375
 20
188.0307318684
 40
2.4
 50
190.1999158959
 51
276.38
  0
ARC
  8
0
 62
7
  6
CONTINUOUS
 10
29.1842112862
 20
188.5231357449
 40
2.4
 50
103.62
 51
189.8000841041
  0
ARC
  8
0
 62
7
  6
CONTINUOUS
 10
37.8633268459
 20
164.6774617237
 40
2.4
 50
210.1999158959
 51
296.38
  0
ARC
  8
0
 62
7
  6
CONTINUOUS
 10
37.6133268459
 20
165.1104744256
 40
2.4
 50
123.62
 51
209.8000841041
  0
ARC
  8
0
 62
7
  6
CONTINUOUS
 10
53.9247285388
 20
145.6713028578
 40
2.4
 50
230.1999158959
 51
316.38
  0
ARC
  8
0
 62
7
  6
CONTINUOUS
 10
53.5417063172
 20
145.9926966627
 40
2.4
 50
143.62
 51
229.8000841041
  0
ARC
  8
0
 62
7
  6
CONTINUOUS
 10
75.5179983685
 20
133.3046785311
 40
2.4
 50
250.1999158959
 51
336.38
  0
ARC
  8
0
 62
7
  6
CONTINUOUS
 10
75.0481520581
 20
133.4756886028
 40
2.4
 50
163.62
 51
249.8000841041
  0
ARC
  8
0
 62
7
  6
CONTINUOUS
 10
99.5386693107
 20
129.0691861493
 40
2.4
 50
183.62
 51
269.8000841041
  0
ARC
  8
0
 62
7
  6
CONTINUOUS
 10
34.2982871874
 20
184.1654316214
 40
2.0
 50
14.1849555859
 51
96.38
  0
ARC
  8
0
 62
7
  6
CONTINUOUS
 10
32.5862721726
 20
193.8747512496
 40
2.0
 50
283.62
 51
5.8150444141
  0
ARC
  8
0
 62
7
  6
CONTINUOUS
 10
43.9094088214
 20
162.7646889898
 40
2.0
 50
34.1849555859
 51
116.38
  0
ARC
  8
0
 62
7
  6
CONTINUOUS
 10
38.9798580545
 20
171.3029213766
 40
2.0
 50
303.62
 51
25.8150444141
  0
ARC
  8
0
 62
7
  6
CONTINUOUS
 10
60.2603939604
 20
145.9417662584
 40
2.0
 50
54.1849555859
 51
136.38
  0
ARC
  8
0
 62
7
  6
CONTINUOUS
 10
52.7078840163
 20
152.279074567
 40
2.0
 50
323.62
 51
45.8150444141
  0
ARC
  8
0
 62
7
  6
CONTINUOUS
 10
81.3790724819
 20
135.7257561884
 40
2.0
 50
74.1849555859
 51
156.38
  0
ARC
  8
0
 62
7
  6
CONTINUOUS
 10
72.114547523
 20
139.097767508
 40
2.0
 50
343.62
 51
65.8150444141
  0
ARC
  8
0
 62
7
  6
CONTINUOUS
 10
94.8591185438
 20
133.3488603665
 40
2.0
 50
3.62
 51
85.8150444141
  0
ARC
  8
0
 62
7
  6
CONTINUOUS
 10
37.6133268459
 20
236.3270255744
 40
2.4
 50
150.1999158959
 51
236.38
  0
ARC
  8
0
 62
7
  6
CONTINUOUS
 10
29.1842112862
 20
212.9143642551
 40
2.4
 50
170.1999158959
 51
256.38
  0
ARC
  8
0
 62
7
  6
CONTINUOUS
 10
29.271035375
 20
213.4067681316
 40
2.4
 50
83.62
 51
169.8000841041
  0
ARC
  8
0
 62
7
  6
CONTINUOUS
 10
38.9798580545
 20
230.1345786234
 40
2.0
 50
334.1849555859
 51
56.38
  0
ARC
  8
0
 62
7
  6
CONTINUOUS
 10
32.5862721726
 20
207.5627487504
 40
2.0
 50
354.1849555859
 51
76.38
  0
ARC
  8
0
 62
7
  6
CONTINUOUS
 10
34.2982871874
 20
217.2720683786
 40
2.0
 50
263.62
 51
345.8150444141
  0
ARC
  8
0
 62
7
  6
CONTINUOUS
 10
53.5417063172
 20
255.4448033373
 40
2.4
 50
130.1999158959
 51
216.38
  0
ARC
  8
0
 62
7
  6
CONTINUOUS
 10
53.9247285388
 20
255.7661971422
 40
2.4
 50
43.62
 51
129.8000841041
  0
ARC
  8
0
 62
7
  6
CONTINUOUS
 10
37.8633268459
 20
236.7600382763
 40
2.4
 50
63.62
 51
149.8000841041
  0
ARC
  8
0
 62
7
  6
CONTINUOUS
 10
52.7078840163
 20
249.158425433
 40
2.0
 50
314.1849555859
 51
36.38
  0
ARC
  8
0
 62
7
  6
CONTINUOUS
 10
60.2603939604
 20
255.4957337416
 40
2.0
 50
223.62
 51
305.8150444141
  0
ARC
  8
0
 62
7
  6
CONTINUOUS
 10
43.9094088214
 20
238.6728110102
 40
2.0
 50
243.62
 51
325.8150444141
  0
ARC
  8
0
 62
4
  6
CONTINUOUS
 10
73.3739610459
 20
207.1137963823
 40
3.2
 50
272.2544307753
 51
315.0
  0
ARC
  8
0
 62
4
  6
CONTINUOUS
 10
93.3936229285
 20
227.1334582648
 40
3.2
 50
315.0
 51
357.7455692247
  0
ARC
  8
0
 62
4
  6
CONTINUOUS
 10
90.5651958037
 20
224.3050311401
 40
3.2
 50
273.5903778907
 51
315.0
  0
ARC
  8
0
 62
4
  6
CONTINUOUS
 10
90.965982444
 20
217.9175926809
 40
3.2
 50
93.5903778907
 51
135.0
  0
ARC
  8
0
 62
4
  6
CONTINUOUS
 10
82.5898266298
 20
209.5414368667
 40
3.2
 50
135.0
 51
176.4096221093
  0
ARC
  8
0
 62
4
  6
CONTINUOUS
 10
76.2023881707
 20
209.942223507
 40
3.2
 50
315.0
 51
356.4096221093
  0
ARC
  8
0
 62
4
  6
CONTINUOUS
 10
73.6257184068
 20
200.71875
 40
3.2
 50
92.2544307753
 51
267.7455692247
  0
ARC
  8
0
 62
7
  6
CONTINUOUS
 10
99.5386693107
 20
272.3683138507
 40
2.4
 50
90.1999158959
 51
176.38
  0
ARC
  8
0
 62
7
  6
CONTINUOUS
 10
75.0481520581
 20
267.9618113972
 40
2.4
 50
110.1999158959
 51
196.38
  0
ARC
  8
0
 62
7
  6
CONTINUOUS
 10
75.5179983685
 20
268.1328214689
 40
2.4
 50
23.62
 51
109.8000841041
  0
ARC
  8
0
 62
7
  6
CONTINUOUS
 10
94.8591185438
 20
268.0886396335
 40
2.0
 50
274.1849555859
 51
356.38
  0
ARC
  8
0
 62
7
  6
CONTINUOUS
 10
72.114547523
 20
262.339732492
 40
2.0
 50
294.1849555859
 51
16.38
  0
ARC
  8
0
 62
7
  6
CONTINUOUS
 10
81.3790724819
 20
265.7117438116
 40
2.0
 50
203.62
 51
285.8150444141
  0
ARC
  8
0
 62
4
  6
CONTINUOUS
 10
123.3749504508
 20
191.495276493
 40
3.2
 50
135.0
 51
176.4096221093
  0
ARC
  8
0
 62
4
  6
CONTINUOUS
 10
126.2033775755
 20
194.3237036177
 40
3.2
 50
92.2544307753
 51
135.0
  0
ARC
  8
0
 62
4
  6
CONTINUOUS
 10
109.0121428177
 20
177.1324688599
 40
3.2
 50
93.5903778907
 51
135.0
  0
ARC
  8
0
 62
4
  6
CONTINUOUS
 10
108.6113561775
 20
183.5199073191
 40
3.2
 50
273.5903778907
 51
315.0
  0
ARC
  8
0
 62
4
  6
CONTINUOUS
 10
99.7886693107
 20
174.5557990961
 40
3.2
 50
182.2544307753
 51
357.7455692247
  0
ARC
  8
0
 62
4
  6
CONTINUOUS
 10
116.9875119917
 20
191.8960631333
 40
3.2
 50
315.0
 51
356.4096221093
  0
ARC
  8
0
 62
4
  6
CONTINUOUS
 10
106.183715693
 20
174.3040417352
 40
3.2
 50
135.0
 51
177.7455692247
  0
ARC
  8
0
 62
7
  6
CONTINUOUS
 10
100.0386693107
 20
129.0691861493
 40
2.4
 50
270.1999158959
 51
356.38
  0
ARC
  8
0
 62
7
  6
CONTINUOUS
 10
124.5291865634
 20
133.4756886028
 40
2.4
 50
290.1999158959
 51
16.38
  0
ARC
  8
0
 62
7
  6
CONTINUOUS
 10
124.059340253
 20
133.3046785311
 40
2.4
 50
203.62
 51
289.8000841041
  0
ARC
  8
0
 62
7
  6
CONTINUOUS
 10
146.0356323042
 20
145.9926966627
 40
2.4
 50
310.1999158959
 51
36.38
  0
ARC
  8
0
 62
7
  6
CONTINUOUS
 10
145.6526100826
 20
145.6713028578
 40
2.4
 50
223.62
 51
309.8000841041
  0
ARC
  8
0
 62
7
  6
CONTINUOUS
 10
161.9640117755
 20
165.1104744256
 40
2.4
 50
330.1999158959
 51
56.38
  0
ARC
  8
0
 62
7
  6
CONTINUOUS
 10
161.7140117755
 20
164.6774617237
 40
2.4
 50
243.62
 51
329.8000841041
  0
ARC
  8
0
 62
7
  6
CONTINUOUS
 10
170.3931273353
 20
188.5231357449
 40
2.4
 50
350.1999158959
 51
76.38
  0
ARC
  8
0
 62
7
  6
CONTINUOUS
 10
170.3063032464
 20
188.0307318684
 40
2.4
 50
263.62
 51
349.8000841041
  0
ARC
  8
0
 62
7
  6
CONTINUOUS
 10
104.7182200776
 20
133.3488603665
 40
2.0
 50
94.1849555859
 51
176.38
  0
ARC
  8
0
 62
7
  6
CONTINUOUS
 10
127.4627910985
 20
139.097767508
 40
2.0
 50
114.1849555859
 51
196.38
  0
ARC
  8
0
 62
7
  6
CONTINUOUS
 10
118.1982661396
 20
135.7257561884
 40
2.0
 50
23.62
 51
105.8150444141
  0
ARC
  8
0
 62
7
  6
CONTINUOUS
 10
146.8694546052
 20
152.279074567
 40
2.0
 50
134.1849555859
 51
216.38
  0
ARC
  8
0
 62
7
  6
CONTINUOUS
 10
139.316944661
 20
145.9417662584
 40
2.0
 50
43.62
 51
125.8150444141
  0
ARC
  8
0
 62
7
  6
CONTINUOUS
 10
160.597480567
 20
171.3029213766
 40
2.0
 50
154.1849555859
 51
236.38
  0
ARC
  8
0
 62
7
  6
CONTINUOUS
 10
155.6679298001
 20
162.7646889898
 40
2.0
 50
63.62
 51
145.8150444141
  0
ARC
  8
0
 62
7
  6
CONTINUOUS
 10
166.9910664488
 20
193.8747512496
 40
2.0
 50
174.1849555859
 51
256.38
  0
ARC
  8
0
 62
7
  6
CONTINUOUS
 10
165.279051434
 20
184.1654316214
 40
2.0
 50
83.62
 51
165.8150444141
  0
ARC
  8
0
 62
7
  6
CONTINUOUS
 10
99.7886693107
 20
200.71875
 40
74.05
 50
89.8000841041
 51
90.1999158959
  0
ARC
  8
0
 62
7
  6
CONTINUOUS
 10
99.7886693107
 20
200.71875
 40
74.05
 50
109.8000841041
 51
110.1999158959
  0
ARC
  8
0
 62
7
  6
CONTINUOUS
 10
99.7886693107
 20
200.71875
 40
74.05
 50
129.8000841041
 51
130.1999158959
  0
ARC
  8
0
 62
7
  6
CONTINUOUS
 10
99.7886693107
 20
200.71875
 40
74.05
 50
149.8000841041
 51
150.1999158959
  0
ARC
  8
0
 62
7
  6
CONTINUOUS
 10
99.7886693107
 20
200.71875
 40
74.05
 50
169.8000841041
 51
170.1999158959
  0
ARC
  8
0
 62
7
  6
CONTINUOUS
 10
99.7886693107
 20
200.71875
 40
74.05
 50
189.8000841041
 51
190.1999158959
  0
ARC
  8
0
 62
7
  6
CONTINUOUS
 10
99.7886693107
 20
200.71875
 40
74.05
 50
209.8000841041
 51
210.1999158959
  0
ARC
  8
0
 62
7
  6
CONTINUOUS
 10
99.7886693107
 20
200.71875
 40
74.05
 50
229.8000841041
 51
230.1999158959
  0
ARC
  8
0
 62
7
  6
CONTINUOUS
 10
99.7886693107
 20
200.71875
 40
74.05
 50
249.8000841041
 51
250.1999158959
  0
ARC
  8
0
 62
7
  6
CONTINUOUS
 10
99.7886693107
 20
200.71875
 40
74.05
 50
269.8000841041
 51
270.1999158959
  0
ARC
  8
0
 62
7
  6
CONTINUOUS
 10
99.7886693107
 20
200.71875
 40
74.05
 50
289.8000841041
 51
290.1999158959
  0
ARC
  8
0
 62
7
  6
CONTINUOUS
 10
99.7886693107
 20
200.71875
 40
74.05
 50
309.8000841041
 51
310.1999158959
  0
ARC
  8
0
 62
7
  6
CONTINUOUS
 10
99.7886693107
 20
200.71875
 40
74.05
 50
329.8000841041
 51
330.1999158959
  0
ARC
  8
0
 62
7
  6
CONTINUOUS
 10
99.7886693107
 20
200.71875
 40
74.05
 50
349.8000841041
 51
350.1999158959
  0
ARC
  8
0
 62
7
  6
CONTINUOUS
 10
99.7886693107
 20
200.71875
 40
74.05
 50
9.8000841041
 51
10.1999158959
  0
ARC
  8
0
 62
7
  6
CONTINUOUS
 10
99.7886693107
 20
200.71875
 40
74.05
 50
29.8000841041
 51
30.1999158959
  0
ARC
  8
0
 62
7
  6
CONTINUOUS
 10
99.7886693107
 20
200.71875
 40
74.05
 50
49.8000841041
 51
50.1999158959
  0
ARC
  8
0
 62
7
  6
CONTINUOUS
 10
99.7886693107
 20
200.71875
 40
74.05
 50
69.8000841041
 51
70.1999158959
  0
CIRCLE
  8
0
 62
7
  6
CONTINUOUS
 10
99.7886693107
 20
200.71875
 40
65.55
  0
CIRCLE
  8
0
 62
7
  6
CONTINUOUS
 10
99.7886693107
 20
200.71875
 40
35.0
  0
CIRCLE
  8
0
 62
4
  6
CONTINUOUS
 10
99.7886693107
 20
200.71875
 40
8.5934513786
  0
ARC
  8
0
 62
4
  6
CONTINUOUS
 10
108.6113561775
 20
217.9175926809
 40
3.2
 50
45.0
 51
86.4096221093
  0
ARC
  8
0
 62
4
  6
CONTINUOUS
 10
109.0121428177
 20
224.3050311401
 40
3.2
 50
225.0
 51
266.4096221093
  0
ARC
  8
0
 62
4
  6
CONTINUOUS
 10
106.183715693
 20
227.1334582648
 40
3.2
 50
182.2544307753
 51
225.0
  0
ARC
  8
0
 62
4
  6
CONTINUOUS
 10
99.7886693107
 20
226.8817009039
 40
3.2
 50
2.2544307753
 51
177.7455692247
  0
ARC
  8
0
 62
4
  6
CONTINUOUS
 10
125.9516202146
 20
200.71875
 40
3.2
 50
272.2544307753
 51
87.7455692247
  0
ARC
  8
0
 62
4
  6
CONTINUOUS
 10
126.2033775755
 20
207.1137963823
 40
3.2
 50
225.0
 51
267.7455692247
  0
ARC
  8
0
 62
4
  6
CONTINUOUS
 10
123.3749504508
 20
209.942223507
 40
3.2
 50
183.5903778907
 51
225.0
  0
ARC
  8
0
 62
4
  6
CONTINUOUS
 10
116.9875119917
 20
209.5414368667
 40
3.2
 50
3.5903778907
 51
45.0
  0
ARC
  8
0
 62
7
  6
CONTINUOUS
 10
100.0386693107
 20
272.3683138507
 40
2.4
 50
3.62
 51
89.8000841041
  0
ARC
  8
0
 62
7
  6
CONTINUOUS
 10
124.059340253
 20
268.1328214689
 40
2.4
 50
70.1999158959
 51
156.38
  0
ARC
  8
0
 62
7
  6
CONTINUOUS
 10
124.5291865634
 20
267.9618113972
 40
2.4
 50
343.62
 51
69.8000841041
  0
ARC
  8
0
 62
7
  6
CONTINUOUS
 10
104.7182200776
 20
268.0886396335
 40
2.0
 50
183.62
 51
265.8150444141
  0
ARC
  8
0
 62
7
  6
CONTINUOUS
 10
118.1982661396
 20
265.7117438116
 40
2.0
 50
254.1849555859
 51
336.38
  0
ARC
  8
0
 62
7
  6
CONTINUOUS
 10
127.4627910985
 20
262.339732492
 40
2.0
 50
163.62
 51
245.8150444141
  0
CIRCLE
  8
0
 62
7
  6
CONTINUOUS
 10
99.7886693107
 20
255.71875
 40
1.7320508076
  0
ARC
  8
0
 62
7
  6
CONTINUOUS
 10
170.3063032464
 20
213.4067681316
 40
2.4
 50
10.1999158959
 51
96.38
  0
ARC
  8
0
 62
7
  6
CONTINUOUS
 10
170.3931273353
 20
212.9143642551
 40
2.4
 50
283.62
 51
9.8000841041
  0
ARC
  8
0
 62
7
  6
CONTINUOUS
 10
161.9640117755
 20
236.3270255744
 40
2.4
 50
303.62
 51
29.8000841041
  0
ARC
  8
0
 62
7
  6
CONTINUOUS
 10
165.279051434
 20
217.2720683786
 40
2.0
 50
194.1849555859
 51
276.38
  0
ARC
  8
0
 62
7
  6
CONTINUOUS
 10
166.9910664488
 20
207.5627487504
 40
2.0
 50
103.62
 51
185.8150444141
  0
ARC
  8
0
 62
7
  6
CONTINUOUS
 10
160.597480567
 20
230.1345786234
 40
2.0
 50
123.62
 51
205.8150444141
  0
ARC
  8
0
 62
7
  6
CONTINUOUS
 10
161.7140117755
 20
236.7600382763
 40
2.4
 50
30.1999158959
 51
116.38
  0
ARC
  8
0
 62
7
  6
CONTINUOUS
 10
145.6526100826
 20
255.7661971422
 40
2.4
 50
50.1999158959
 51
136.38
  0
ARC
  8
0
 62
7
  6
CONTINUOUS
 10
146.0356323042
 20
255.4448033373
 40
2.4
 50
323.62
 51
49.8000841041
  0
ARC
  8
0
 62
7
  6
CONTINUOUS
 10
155.6679298001
 20
238.6728110102
 40
2.0
 50
214.1849555859
 51
296.38
  0
ARC
  8
0
 62
7
  6
CONTINUOUS
 10
139.316944661
 20
255.4957337416
 40
2.0
 50
234.1849555859
 51
316.38
  0
ARC
  8
0
 62
7
  6
CONTINUOUS
 10
146.8694546052
 20
249.158425433
 40
2.0
 50
143.62
 51
225.8150444141
  0
ARC
  8
0
 62
7
  6
CONTINUOUS
 10
132.7886693107
 20
76.0614059081
 40
2.0
 50
270.0
 51
360.0
  0
ARC
  8
0
 62
7
  6
CONTINUOUS
 10
132.7886693107
 20
97.0614059081
 40
2.0
 50
0.0
 51
90.0
  0
ARC
  8
0
 62
7
  6
CONTINUOUS
 10
66.7886693107
 20
76.0614059081
 40
2.0
 50
180.0
 51
270.0
  0
ARC
  8
0
 62
7
  6
CONTINUOUS
 10
66.7886693107
 20
97.0614059081
 40
2.0
 50
90.0
 51
180.0
  0
ARC
  8
0
 62
7
  6
CONTINUOUS
 10
164.3386693107
 20
79.5614059081
 40
1.0
 50
270.0
 51
360.0
  0
ARC
  8
0
 62
7
  6
CONTINUOUS
 10
164.3386693107
 20
93.5614059081
 40
1.0
 50
0.0
 51
90.0
  0
ARC
  8
0
 62
7
  6
CONTINUOUS
 10
35.2386693107
 20
79.5614059081
 40
1.0
 50
180.0
 51
270.0
  0
ARC
  8
0
 62
7
  6
CONTINUOUS
 10
35.2386693107
 20
93.5614059081
 40
1.0
 50
90.0
 51
180.0
  0
ARC
  8
0
 62
7
  6
CONTINUOUS
 10
126.4291865634
 20
88.0614059081
 40
0.5
 50
0.0
 51
90.0000061649
  0
ARC
  8
0
 62
7
  6
CONTINUOUS
 10
126.4291865634
 20
85.0614059081
 40
0.5
 50
269.9999938351
 51
360.0
  0
ARC
  8
0
 62
7
  6
CONTINUOUS
 10
147.9356323042
 20
88.0614059081
 40
0.5
 50
0.0
 51
90.0000019912
  0
ARC
  8
0
 62
7
  6
CONTINUOUS
 10
147.9356323042
 20
85.0614059081
 40
0.5
 50
269.9999980088
 51
360.0
  0
ARC
  8
0
 62
7
  6
CONTINUOUS
 10
163.8640117755
 20
88.0614059081
 40
0.5
 50
0.0
 51
90.0000003656
  0
ARC
  8
0
 62
7
  6
CONTINUOUS
 10
163.8640117755
 20
85.0614059081
 40
0.5
 50
269.9999996344
 51
360.0
  0
ARC
  8
0
 62
7
  6
CONTINUOUS
 10
172.2931273353
 20
88.0614059081
 40
0.5
 50
0.0
 51
90.000008512
  0
ARC
  8
0
 62
7
  6
CONTINUOUS
 10
172.2931273353
 20
85.0614059081
 40
0.5
 50
269.999991488
 51
360.0
  0
ARC
  8
0
 62
7
  6
CONTINUOUS
 10
27.2842112862
 20
88.0614059081
 40
0.5
 50
89.9999829735
 51
180.0
  0
ARC
  8
0
 62
7
  6
CONTINUOUS
 10
27.2842112862
 20
85.0614059081
 40
0.5
 50
180.0
 51
270.0000170265
  0
ARC
  8
0
 62
7
  6
CONTINUOUS
 10
35.7133268459
 20
88.0614059081
 40
0.5
 50
89.9999961027
 51
180.0
  0
ARC
  8
0
 62
7
  6
CONTINUOUS
 10
35.7133268459
 20
85.0614059081
 40
0.5
 50
180.0
 51
270.0000038973
  0
ARC
  8
0
 62
7
  6
CONTINUOUS
 10
51.6417063172
 20
88.0614059081
 40
0.5
 50
89.9999999313
 51
180.0
  0
ARC
  8
0
 62
7
  6
CONTINUOUS
 10
51.6417063172
 20
85.0614059081
 40
0.5
 50
180.0
 51
270.0000000687
  0
ARC
  8
0
 62
7
  6
CONTINUOUS
 10
73.1481520581
 20
88.0614059081
 40
0.5
 50
89.9999986847
 51
180.0
  0
ARC
  8
0
 62
7
  6
CONTINUOUS
 10
73.1481520581
 20
85.0614059081
 40
0.5
 50
180.0
 51
270.0000013152
  0
ENDSEC
  0
EOF
