  0
SECTION
  2
HEADER
  9
$EXTMAX
 10
210.0
 20
297.0
 30
0.0
  9
$EXTMIN
 10
0.0
 20
0.0
 30
0.0
  9
$LIMMIN
 10
0.0
 20
0.0
  9
$LIMMAX
 10
210.0
 20
297.0
  9
$VIEWCTR
 10
105.0
 20
148.5
  9
$VIEWSIZE
 40
297.0
  9
$CLAYER
  8
0
  9
$LTSCALE
 40
19.36
  9
$CELTYPE
  6
BYLAYER
  9
$DIMSCALE
 40
1.0
  9
$DIMASZ
 40
3.5
  9
$DIMEXO
 40
2.2
  9
$DIMDLI
 40
13.376
  9
$DIMEXE
 40
6.336
  9
$DIMCEN
 40
3.168
  9
$DIMLFAC
 40
1.0
  9
$DIMBLK
  1
_FILLED
  9
$DIMTXT
 40
3.5
  9
$PDMODE
 70
3
  9
$PDSIZE
 40
0.3125
  9
$TILEMODE
 70
1
  0
ENDSEC
  0
SECTION
  2
TABLES
  0
TABLE
  2
LTYPE
 70
6
  0
LTYPE
  2
BYBLOCK
 70
0
  3

 72
65
 73
0
 40
0.0
  0
LTYPE
  2
BYLAYER
 70
0
  3

 72
65
 73
0
 40
0.0
  0
LTYPE
  2
CONTINUOUS
 70
64
  3
Solid line
 72
65
 73
0
 40
0.0
  0
LTYPE
  2
CENTER
 70
64
  3
____ _ ____ _ ____ _ ____ _ ____ _ ____ _ ____
 72
65
 73
4
 40
0.6
 49
0.375
 49
-0.075
 49
0.075
 49
-0.075
  0
LTYPE
  2
HIDDEN
 70
64
  3
- - - - - - - - - - - - - - - - - - - -
 72
65
 73
2
 40
0.2
 49
0.1
 49
-0.1
  0
LTYPE
  2
PHANTOM
 70
64
  3
_____ _ _ _____ _ _ _____ _ _ _____
 72
65
 73
6
 40
0.8
 49
0.45
 49
-0.05
 49
0.1
 49
-0.05
 49
0.1
 49
-0.05
  0
LTYPE
  2
DOT
 70
64
  3
. . . . . . . . . . . . . . . . . . . .
 72
65
 73
2
 40
0.2
 49
0.1
 49
-0.1
  0
LTYPE
  2
DASHED
 70
64
  3
- - - - - - - - - - - - - - - - - - - -
 72
65
 73
2
 40
0.2
 49
0.1
 49
-0.1
  0
ENDTAB
  0
TABLE
  2
LAYER
 70
36
  0
LAYER
  2
0
 70
0
 62
7
  6
CONTINUOUS
  0
LAYER
  2
DEFAULT_1
 70
0
 62
7
  6
CENTER
  0
LAYER
  2
DEFAULT_2
 70
0
 62
8
  6
HIDDEN
  0
LAYER
  2
DEFAULT_3
 70
0
 62
7
  6
PHANTOM
  0
LAYER
  2
CURVE
 70
0
 62
7
  6
CONTINUOUS
  0
LAYER
  2
SURFACE
 70
0
 62
7
  6
CONTINUOUS
  0
ENDTAB
  0
TABLE
  2
STYLE
 70
1
  0
STYLE
  2
STANDARD
 70
0
 40
0.0
 41
0.8
 50
0.0
 71
0
 42
0.2
  3
txt
  4

  0
STYLE
  2
TEXTSTYLE_1
 70
0
 40
0.0
 41
0.8
 50
0.0
 71
0
 42
0.2
  3
gdt
  4

  0
STYLE
  2
TEXTSTYLE_2
 70
0
 40
0.0
 41
0.6
 50
0.0
 71
0
 42
0.2
  3
txt
  4

  0
STYLE
  2
TEXTSTYLE_3
 70
0
 40
0.0
 41
1.0
 50
0.0
 71
0
 42
0.2
  3
ftb_____.ttf
  4

  0
STYLE
  2
TEXTSTYLE_4
 70
0
 40
0.0
 41
1.0
 50
0.0
 71
0
 42
0.2
  3
fti_____.ttf
  4

  0
STYLE
  2
TEXTSTYLE_5
 70
0
 40
0.0
 41
1.0
 50
0.0
 71
0
 42
0.2
  3
frutiger light.ttf
  4

  0
STYLE
  2
TEXTSTYLE_6
 70
0
 40
0.0
 41
0.7
 50
0.0
 71
0
 42
0.2
  3
txt
  4

  0
STYLE
  2
TEXTSTYLE_7
 70
0
 40
0.0
 41
0.8
 50
0.0
 71
0
 42
0.2
  3
txt
  4

  0
ENDTAB
  0
ENDSEC
  0
SECTION
  2
BLOCKS
  0
BLOCK
  8
0
 62
2
  6
CONTINUOUS
  2
SYMBOL_8_BL1
 70
64
 10
173.5956734183
 20
35.5937998301
  0
TEXT
  8
0
 62
7
  6
CONTINUOUS
 10
164.6539584268
 20
30.6865562072
  7
TEXTSTYLE_4
 40
1.0655737705
  1
The brand for plastic modular belts and chains
 41
1.0
 72
0
  0
LINE
  8
0
 62
7
  6
CONTINUOUS
 10
149.5737418074
 20
36.1675703219
 11
149.5737418074
 21
34.0364227809
  0
LINE
  8
0
 62
7
  6
CONTINUOUS
 10
149.8628043005
 20
31.0454914852
 11
149.8628043005
 21
31.1422825445
  0
LINE
  8
0
 62
7
  6
CONTINUOUS
 10
149.5737418074
 20
31.1100188581
 11
149.6315543091
 21
30.9164367395
  0
LINE
  8
0
 62
7
  6
CONTINUOUS
 10
150.9671844304
 20
33.9544555678
 11
150.9671844304
 21
36.1675703219
  0
LINE
  8
0
 62
7
  6
CONTINUOUS
 10
151.8862417523
 20
32.1101932727
 11
151.8862417523
 21
30.5937998301
  0
LINE
  8
0
 62
7
  6
CONTINUOUS
 10
152.1753043074
 20
30.5937998301
 11
152.1753043074
 21
31.3358647082
  0
LINE
  8
0
 62
7
  6
CONTINUOUS
 10
152.1753043074
 20
31.4649194539
 11
152.1753043074
 21
32.1101932727
  0
LINE
  8
0
 62
7
  6
CONTINUOUS
 10
149.6315543091
 20
31.3036010218
 11
149.5737418074
 21
31.1100188581
  0
LINE
  8
0
 62
7
  6
CONTINUOUS
 10
149.9784292936
 20
30.8841730531
 11
149.8628043005
 21
31.0454914852
  0
LINE
  8
0
 62
7
  6
CONTINUOUS
 10
151.0768668626
 20
31.400392081
 11
151.1346793074
 21
31.3036010218
  0
LINE
  8
0
 62
7
  6
CONTINUOUS
 10
151.4237418626
 20
31.3036010218
 11
151.3659292523
 21
31.4326557675
  0
LINE
  8
0
 62
7
  6
CONTINUOUS
 10
152.852430332
 20
36.1675703219
 11
152.852430332
 21
34.3642916334
  0
LINE
  8
0
 62
7
  6
CONTINUOUS
 10
152.852430332
 20
33.0528162235
 11
152.852430332
 21
32.3970785186
  0
LINE
  8
0
 62
7
  6
CONTINUOUS
 10
153.2159293074
 20
31.2390736489
 11
153.2159293074
 21
30.5937998301
  0
LINE
  8
0
 62
7
  6
CONTINUOUS
 10
153.5049916972
 20
30.5937998301
 11
153.5049916972
 21
31.2390736489
  0
LINE
  8
0
 62
7
  6
CONTINUOUS
 10
149.8628043005
 20
31.1422825445
 11
149.9206168074
 21
31.2713373354
  0
LINE
  8
0
 62
7
  6
CONTINUOUS
 10
149.6315543091
 20
30.9164367395
 11
149.7471793074
 21
30.7873819712
  0
LINE
  8
0
 62
7
  6
CONTINUOUS
 10
153.1581166972
 20
31.3681283946
 11
153.2159293074
 21
31.2390736489
  0
LINE
  8
0
 62
7
  6
CONTINUOUS
 10
153.9674919177
 20
30.8841730531
 11
154.0253041972
 21
30.7551182848
  0
LINE
  8
0
 62
7
  6
CONTINUOUS
 10
153.5049916972
 20
31.2390736489
 11
153.4471794177
 21
31.400392081
  0
LINE
  8
0
 62
7
  6
CONTINUOUS
 10
153.9674919177
 20
31.4326557675
 11
153.9674919177
 21
31.3681283946
  0
LINE
  8
0
 62
7
  6
CONTINUOUS
 10
153.9674919177
 20
30.9809641124
 11
153.9674919177
 21
30.8841730531
  0
LINE
  8
0
 62
7
  6
CONTINUOUS
 10
154.245872955
 20
32.3970785186
 11
154.245872955
 21
36.1675703219
  0
LINE
  8
0
 62
7
  6
CONTINUOUS
 10
154.2565543074
 20
30.8519093441
 11
154.2565543074
 21
30.9164367395
  0
LINE
  8
0
 62
7
  6
CONTINUOUS
 10
154.5737418074
 20
36.1675703219
 11
154.5737418074
 21
32.3970785186
  0
LINE
  8
0
 62
7
  6
CONTINUOUS
 10
151.3659292523
 20
30.7873819712
 11
151.4237418626
 21
30.9164367395
  0
LINE
  8
0
 62
7
  6
CONTINUOUS
 10
155.759679528
 20
30.6905909007
 11
155.7018665869
 21
30.8519093441
  0
LINE
  8
0
 62
7
  6
CONTINUOUS
 10
155.412804528
 20
31.3681283946
 11
155.412804528
 21
31.2713373354
  0
LINE
  8
0
 62
7
  6
CONTINUOUS
 10
155.412804528
 20
31.1422825445
 11
155.412804528
 21
30.9487004259
  0
LINE
  8
0
 62
7
  6
CONTINUOUS
 10
155.7018665869
 20
30.8519093441
 11
155.7018665869
 21
31.3681283946
  0
LINE
  8
0
 62
7
  6
CONTINUOUS
 10
155.9671844304
 20
32.3970785186
 11
155.9671844304
 21
34.2003572071
  0
LINE
  8
0
 62
7
  6
CONTINUOUS
 10
155.9671844304
 20
35.511832617
 11
155.9671844304
 21
36.1675703219
  0
LINE
  8
0
 62
7
  6
CONTINUOUS
 10
156.279992028
 20
32.1101932727
 11
156.279992028
 21
31.9488748406
  0
LINE
  8
0
 62
7
  6
CONTINUOUS
 10
156.279992028
 20
31.626237886
 11
156.279992028
 21
30.5937998301
  0
LINE
  8
0
 62
7
  6
CONTINUOUS
 10
156.5690540869
 20
30.5937998301
 11
156.5690540869
 21
31.626237886
  0
LINE
  8
0
 62
7
  6
CONTINUOUS
 10
156.5690540869
 20
31.9488748406
 11
156.5690540869
 21
32.1101932727
  0
LINE
  8
0
 62
7
  6
CONTINUOUS
 10
151.1346793074
 20
30.9164367395
 11
151.0768668626
 21
30.8196456577
  0
LINE
  8
0
 62
7
  6
CONTINUOUS
 10
153.4471794177
 20
31.400392081
 11
153.3893668074
 21
31.4649194539
  0
LINE
  8
0
 62
7
  6
CONTINUOUS
 10
154.3143669177
 20
30.7873819712
 11
154.2565543074
 21
30.8519093441
  0
LINE
  8
0
 62
7
  6
CONTINUOUS
 10
155.4706168074
 20
30.6583272086
 11
155.5284290869
 21
30.5937998301
  0
LINE
  8
0
 62
7
  6
CONTINUOUS
 10
155.412804528
 20
30.7551182848
 11
155.4706168074
 21
30.6583272086
  0
LINE
  8
0
 62
7
  6
CONTINUOUS
 10
155.8174918074
 20
30.5937998301
 11
155.759679528
 21
30.6905909007
  0
LINE
  8
0
 62
7
  6
CONTINUOUS
 10
155.7018665869
 20
31.3681283946
 11
155.6440543074
 21
31.4649194539
  0
LINE
  8
0
 62
7
  6
CONTINUOUS
 10
157.0315543074
 20
31.626237886
 11
157.0315543074
 21
30.5937998301
  0
LINE
  8
0
 62
7
  6
CONTINUOUS
 10
157.320617028
 20
30.5937998301
 11
157.320617028
 21
31.3358647082
  0
LINE
  8
0
 62
7
  6
CONTINUOUS
 10
157.320617028
 20
31.4649194539
 11
157.320617028
 21
31.626237886
  0
LINE
  8
0
 62
7
  6
CONTINUOUS
 10
157.852430332
 20
34.6101932727
 11
157.852430332
 21
32.3970785186
  0
LINE
  8
0
 62
7
  6
CONTINUOUS
 10
149.7471793074
 20
31.4326557675
 11
149.6315543091
 21
31.3036010218
  0
LINE
  8
0
 62
7
  6
CONTINUOUS
 10
149.9206168074
 20
31.2713373354
 11
149.9784292936
 21
31.3358647082
  0
LINE
  8
0
 62
7
  6
CONTINUOUS
 10
149.7471793074
 20
30.7873819712
 11
149.8628043005
 21
30.7228545871
  0
LINE
  8
0
 62
7
  6
CONTINUOUS
 10
150.1518667936
 20
30.7873819712
 11
149.9784292936
 21
30.8841730531
  0
LINE
  8
0
 62
7
  6
CONTINUOUS
 10
155.3549915869
 20
31.4326557675
 11
155.412804528
 21
31.3681283946
  0
LINE
  8
0
 62
7
  6
CONTINUOUS
 10
158.3034290869
 20
31.3681283946
 11
158.361242028
 21
31.2068099625
  0
LINE
  8
0
 62
7
  6
CONTINUOUS
 10
158.6503040869
 20
31.2068099625
 11
158.5924918074
 21
31.3681283946
  0
LINE
  8
0
 62
7
  6
CONTINUOUS
 10
158.361242028
 20
31.2068099625
 11
158.361242028
 21
30.5937998301
  0
LINE
  8
0
 62
7
  6
CONTINUOUS
 10
158.6503040869
 20
30.5937998301
 11
158.6503040869
 21
31.2068099625
  0
LINE
  8
0
 62
7
  6
CONTINUOUS
 10
159.1128043074
 20
31.4326557675
 11
159.1128043074
 21
31.3681283946
  0
LINE
  8
0
 62
7
  6
CONTINUOUS
 10
159.245872955
 20
32.3970785186
 11
159.245872955
 21
34.5282260596
  0
LINE
  8
0
 62
7
  6
CONTINUOUS
 10
159.5737418074
 20
36.1675703219
 11
159.5737418074
 21
32.3970785186
  0
LINE
  8
0
 62
7
  6
CONTINUOUS
 10
154.2565543074
 20
30.9164367395
 11
154.3143669177
 21
31.0132277988
  0
LINE
  8
0
 62
7
  6
CONTINUOUS
 10
149.8628043005
 20
30.7228545871
 11
150.0362418212
 21
30.6583272086
  0
LINE
  8
0
 62
7
  6
CONTINUOUS
 10
151.3659292523
 20
31.4326557675
 11
151.1924917523
 21
31.5294468267
  0
LINE
  8
0
 62
7
  6
CONTINUOUS
 10
154.0253041972
 20
30.7551182848
 11
154.1987416972
 21
30.6583272086
  0
LINE
  8
0
 62
7
  6
CONTINUOUS
 10
153.0424918074
 20
31.4326557675
 11
153.1581166972
 21
31.3681283946
  0
LINE
  8
0
 62
7
  6
CONTINUOUS
 10
153.3893668074
 20
31.4649194539
 11
153.2737419177
 21
31.5294468267
  0
LINE
  8
0
 62
7
  6
CONTINUOUS
 10
159.1128043074
 20
30.8519093441
 11
159.228429528
 21
30.7228545871
  0
LINE
  8
0
 62
7
  6
CONTINUOUS
 10
159.4596793074
 20
30.7873819712
 11
159.401867028
 21
30.8519093441
  0
LINE
  8
0
 62
7
  6
CONTINUOUS
 10
159.1128043074
 20
31.3681283946
 11
159.228429528
 21
31.2390736489
  0
LINE
  8
0
 62
7
  6
CONTINUOUS
 10
158.5924918074
 20
31.3681283946
 11
158.534679528
 21
31.4649194539
  0
LINE
  8
0
 62
7
  6
CONTINUOUS
 10
160.9628038663
 20
30.7873819712
 11
160.9628038663
 21
30.8519093441
  0
LINE
  8
0
 62
7
  6
CONTINUOUS
 10
160.9671844304
 20
32.3970785186
 11
160.9671844304
 21
36.1675703219
  0
LINE
  8
0
 62
7
  6
CONTINUOUS
 10
154.0253041972
 20
31.4971831403
 11
153.9674919177
 21
31.4326557675
  0
LINE
  8
0
 62
7
  6
CONTINUOUS
 10
150.9034292799
 20
31.4649194539
 11
151.0768668626
 21
31.400392081
  0
LINE
  8
0
 62
7
  6
CONTINUOUS
 10
155.6440543074
 20
31.4649194539
 11
155.5284290869
 21
31.5294468267
  0
LINE
  8
0
 62
7
  6
CONTINUOUS
 10
159.4596793074
 20
31.3036010218
 11
159.401867028
 21
31.3681283946
  0
LINE
  8
0
 62
7
  6
CONTINUOUS
 10
160.615929528
 20
30.9164367395
 11
160.6737418074
 21
30.8519093441
  0
LINE
  8
0
 62
7
  6
CONTINUOUS
 10
160.9628038663
 20
30.8519093441
 11
160.8471793074
 21
30.9809641124
  0
LINE
  8
0
 62
7
  6
CONTINUOUS
 10
160.615929528
 20
31.4326557675
 11
160.6737418074
 21
31.3681283946
  0
LINE
  8
0
 62
7
  6
CONTINUOUS
 10
160.9628038663
 20
31.3681283946
 11
160.8471793074
 21
31.4971831403
  0
LINE
  8
0
 62
7
  6
CONTINUOUS
 10
154.2565543074
 20
31.3681283946
 11
154.3143669177
 21
31.4326557675
  0
LINE
  8
0
 62
7
  6
CONTINUOUS
 10
154.0831168074
 20
31.1100188581
 11
153.9674919177
 21
30.9809641124
  0
LINE
  8
0
 62
7
  6
CONTINUOUS
 10
155.412804528
 20
30.9487004259
 11
155.3549915869
 21
30.8841730531
  0
LINE
  8
0
 62
7
  6
CONTINUOUS
 10
155.3549915869
 20
30.6905909007
 11
155.412804528
 21
30.7551182848
  0
LINE
  8
0
 62
7
  6
CONTINUOUS
 10
154.1987416972
 20
30.6583272086
 11
154.3143669177
 21
30.6260635193
  0
LINE
  8
0
 62
7
  6
CONTINUOUS
 10
151.1924917523
 20
31.5294468267
 11
150.9612418074
 21
31.5939741996
  0
LINE
  8
0
 62
7
  6
CONTINUOUS
 10
154.5456166972
 20
30.7228545871
 11
154.3143669177
 21
30.7873819712
  0
LINE
  8
0
 62
7
  6
CONTINUOUS
 10
153.2737419177
 20
31.5294468267
 11
153.1003044177
 21
31.5939741996
  0
LINE
  8
0
 62
7
  6
CONTINUOUS
 10
155.5284290869
 20
31.5294468267
 11
155.3549915869
 21
31.5939741996
  0
LINE
  8
0
 62
7
  6
CONTINUOUS
 10
158.187804528
 20
31.4326557675
 11
158.3034290869
 21
31.3681283946
  0
LINE
  8
0
 62
7
  6
CONTINUOUS
 10
158.534679528
 20
31.4649194539
 11
158.4190543074
 21
31.5294468267
  0
LINE
  8
0
 62
7
  6
CONTINUOUS
 10
150.0362418212
 20
30.6583272086
 11
150.2096793212
 21
30.6260635193
  0
LINE
  8
0
 62
7
  6
CONTINUOUS
 10
150.498741835
 20
30.7228545871
 11
150.1518667936
 21
30.7873819712
  0
LINE
  8
0
 62
7
  6
CONTINUOUS
 10
152.9268669177
 20
31.4649194539
 11
153.0424918074
 21
31.4326557675
  0
LINE
  8
0
 62
7
  6
CONTINUOUS
 10
155.239367028
 20
31.4649194539
 11
155.3549915869
 21
31.4326557675
  0
LINE
  8
0
 62
7
  6
CONTINUOUS
 10
159.575304528
 20
30.7551182848
 11
159.4596793074
 21
30.7873819712
  0
LINE
  8
0
 62
7
  6
CONTINUOUS
 10
158.0721793074
 20
31.4649194539
 11
158.187804528
 21
31.4326557675
  0
LINE
  8
0
 62
7
  6
CONTINUOUS
 10
159.228429528
 20
30.7228545871
 11
159.401867028
 21
30.6583272086
  0
LINE
  8
0
 62
7
  6
CONTINUOUS
 10
158.4190543074
 20
31.5294468267
 11
158.2456168074
 21
31.5939741996
  0
LINE
  8
0
 62
7
  6
CONTINUOUS
 10
159.6331168074
 20
31.2390736489
 11
159.4596793074
 21
31.3036010218
  0
LINE
  8
0
 62
7
  6
CONTINUOUS
 10
160.442492028
 20
30.9809641124
 11
160.615929528
 21
30.9164367395
  0
LINE
  8
0
 62
7
  6
CONTINUOUS
 10
160.8471793074
 20
31.4971831403
 11
160.6737418074
 21
31.5617105132
  0
LINE
  8
0
 62
7
  6
CONTINUOUS
 10
159.228429528
 20
31.2390736489
 11
159.4596793074
 21
31.1422825445
  0
LINE
  8
0
 62
7
  6
CONTINUOUS
 10
160.8471793074
 20
30.9809641124
 11
160.615929528
 21
31.0777551716
  0
LINE
  8
0
 62
7
  6
CONTINUOUS
 10
159.401867028
 20
31.3681283946
 11
159.4596793074
 21
31.4326557675
  0
LINE
  8
0
 62
7
  6
CONTINUOUS
 10
149.8628043005
 20
31.4971831403
 11
149.7471793074
 21
31.4326557675
  0
LINE
  8
0
 62
7
  6
CONTINUOUS
 10
149.9784292936
 20
31.3358647082
 11
150.1518667936
 21
31.4326557675
  0
LINE
  8
0
 62
7
  6
CONTINUOUS
 10
152.2909293626
 20
31.5294468267
 11
152.1753043074
 21
31.4649194539
  0
LINE
  8
0
 62
7
  6
CONTINUOUS
 10
152.1753043074
 20
31.3358647082
 11
152.2909293626
 21
31.400392081
  0
LINE
  8
0
 62
7
  6
CONTINUOUS
 10
151.1924917523
 20
30.6905909007
 11
151.3659292523
 21
30.7873819712
  0
LINE
  8
0
 62
7
  6
CONTINUOUS
 10
150.2096793212
 20
30.6260635193
 11
150.5565542799
 21
30.5937998301
  0
LINE
  8
0
 62
7
  6
CONTINUOUS
 10
154.3143669177
 20
30.6260635193
 11
154.5456166972
 21
30.5937998301
  0
LINE
  8
0
 62
7
  6
CONTINUOUS
 10
152.6956168074
 20
31.4971831403
 11
152.9268669177
 21
31.4649194539
  0
LINE
  8
0
 62
7
  6
CONTINUOUS
 10
155.0081169177
 20
31.4971831403
 11
155.239367028
 21
31.4649194539
  0
LINE
  8
0
 62
7
  6
CONTINUOUS
 10
159.4596793074
 20
31.1422825445
 11
160.442492028
 21
30.9809641124
  0
LINE
  8
0
 62
7
  6
CONTINUOUS
 10
160.615929528
 20
31.0777551716
 11
159.6331168074
 21
31.2390736489
  0
LINE
  8
0
 62
7
  6
CONTINUOUS
 10
153.1003044177
 20
31.5939741996
 11
152.9268669177
 21
31.626237886
  0
LINE
  8
0
 62
7
  6
CONTINUOUS
 10
159.401867028
 20
30.6583272086
 11
159.575304528
 21
30.6260635193
  0
LINE
  8
0
 62
7
  6
CONTINUOUS
 10
158.2456168074
 20
31.5939741996
 11
158.0721793074
 21
31.626237886
  0
LINE
  8
0
 62
7
  6
CONTINUOUS
 10
160.5003043074
 20
31.4649194539
 11
160.615929528
 21
31.4326557675
  0
LINE
  8
0
 62
7
  6
CONTINUOUS
 10
160.6737418074
 20
30.8519093441
 11
160.615929528
 21
30.7873819712
  0
LINE
  8
0
 62
7
  6
CONTINUOUS
 10
159.228429528
 20
31.5294468267
 11
159.1128043074
 21
31.4326557675
  0
LINE
  8
0
 62
7
  6
CONTINUOUS
 10
154.1409294177
 20
31.5617105132
 11
154.0253041972
 21
31.4971831403
  0
LINE
  8
0
 62
7
  6
CONTINUOUS
 10
154.1987416972
 20
31.1745462761
 11
154.0831168074
 21
31.1100188581
  0
LINE
  8
0
 62
7
  6
CONTINUOUS
 10
154.3143669177
 20
31.0132277988
 11
154.4299918074
 21
31.0777551716
  0
LINE
  8
0
 62
7
  6
CONTINUOUS
 10
151.8862417523
 20
30.5937998301
 11
152.1753043074
 21
30.5937998301
  0
LINE
  8
0
 62
7
  6
CONTINUOUS
 10
153.2159293074
 20
30.5937998301
 11
153.5049916972
 21
30.5937998301
  0
LINE
  8
0
 62
7
  6
CONTINUOUS
 10
154.5456166972
 20
30.5937998301
 11
154.8924916972
 21
30.5937998301
  0
LINE
  8
0
 62
7
  6
CONTINUOUS
 10
155.5284290869
 20
30.5937998301
 11
155.8174918074
 21
30.5937998301
  0
LINE
  8
0
 62
7
  6
CONTINUOUS
 10
156.279992028
 20
30.5937998301
 11
156.5690540869
 21
30.5937998301
  0
LINE
  8
0
 62
7
  6
CONTINUOUS
 10
157.0315543074
 20
30.5937998301
 11
157.320617028
 21
30.5937998301
  0
LINE
  8
0
 62
7
  6
CONTINUOUS
 10
158.361242028
 20
30.5937998301
 11
158.6503040869
 21
30.5937998301
  0
LINE
  8
0
 62
7
  6
CONTINUOUS
 10
159.922179528
 20
30.5937998301
 11
160.269054528
 21
30.5937998301
  0
LINE
  8
0
 62
7
  6
CONTINUOUS
 10
160.269054528
 20
30.7228545871
 11
159.922179528
 21
30.7228545871
  0
LINE
  8
0
 62
7
  6
CONTINUOUS
 10
154.8924916972
 20
30.7228545871
 11
154.5456166972
 21
30.7228545871
  0
LINE
  8
0
 62
7
  6
CONTINUOUS
 10
159.401867028
 20
30.8519093441
 11
159.1128043074
 21
30.8519093441
  0
LINE
  8
0
 62
7
  6
CONTINUOUS
 10
151.4237418626
 20
30.9164367395
 11
151.1346793074
 21
30.9164367395
  0
LINE
  8
0
 62
7
  6
CONTINUOUS
 10
150.498741835
 20
31.4971831403
 11
150.9034292799
 21
31.4649194539
  0
LINE
  8
0
 62
7
  6
CONTINUOUS
 10
150.9612418074
 20
31.5939741996
 11
150.5565542799
 21
31.626237886
  0
LINE
  8
0
 62
7
  6
CONTINUOUS
 10
159.575304528
 20
30.6260635193
 11
159.922179528
 21
30.5937998301
  0
LINE
  8
0
 62
7
  6
CONTINUOUS
 10
159.922179528
 20
30.7228545871
 11
159.575304528
 21
30.7551182848
  0
LINE
  8
0
 62
7
  6
CONTINUOUS
 10
155.3549915869
 20
31.5939741996
 11
155.0081169177
 21
31.626237886
  0
LINE
  8
0
 62
7
  6
CONTINUOUS
 10
160.1534293074
 20
31.4971831403
 11
160.5003043074
 21
31.4649194539
  0
LINE
  8
0
 62
7
  6
CONTINUOUS
 10
160.5003043074
 20
31.5939741996
 11
160.1534293074
 21
31.626237886
  0
LINE
  8
0
 62
7
  6
CONTINUOUS
 10
157.840929528
 20
31.4971831403
 11
158.0721793074
 21
31.4649194539
  0
LINE
  8
0
 62
7
  6
CONTINUOUS
 10
160.6737418074
 20
31.5617105132
 11
160.5003043074
 21
31.5939741996
  0
LINE
  8
0
 62
7
  6
CONTINUOUS
 10
160.8471793074
 20
30.6905909007
 11
160.9628038663
 21
30.7873819712
  0
LINE
  8
0
 62
7
  6
CONTINUOUS
 10
155.3549915869
 20
30.8841730531
 11
155.1815540869
 21
30.7873819712
  0
LINE
  8
0
 62
7
  6
CONTINUOUS
 10
157.4362415869
 20
31.5294468267
 11
157.320617028
 21
31.4649194539
  0
LINE
  8
0
 62
7
  6
CONTINUOUS
 10
157.320617028
 20
31.3358647082
 11
157.4362415869
 21
31.400392081
  0
LINE
  8
0
 62
7
  6
CONTINUOUS
 10
150.0362418212
 20
31.5617105132
 11
149.8628043005
 21
31.4971831403
  0
LINE
  8
0
 62
7
  6
CONTINUOUS
 10
152.4643666972
 20
31.5939741996
 11
152.2909293626
 21
31.5294468267
  0
LINE
  8
0
 62
7
  6
CONTINUOUS
 10
152.2909293626
 20
31.400392081
 11
152.4643666972
 21
31.4649194539
  0
LINE
  8
0
 62
7
  6
CONTINUOUS
 10
151.0768668626
 20
30.8196456577
 11
150.9034292799
 21
30.7551182848
  0
LINE
  8
0
 62
7
  6
CONTINUOUS
 10
160.5003043074
 20
30.7551182848
 11
160.269054528
 21
30.7228545871
  0
LINE
  8
0
 62
7
  6
CONTINUOUS
 10
154.8924916972
 20
30.5937998301
 11
155.1815540869
 21
30.6260635193
  0
LINE
  8
0
 62
7
  6
CONTINUOUS
 10
160.269054528
 20
30.5937998301
 11
160.615929528
 21
30.6260635193
  0
LINE
  8
0
 62
7
  6
CONTINUOUS
 10
150.5565542799
 20
30.5937998301
 11
150.9612418074
 21
30.6260635193
  0
LINE
  8
0
 62
7
  6
CONTINUOUS
 10
150.9034292799
 20
30.7551182848
 11
150.498741835
 21
30.7228545871
  0
LINE
  8
0
 62
7
  6
CONTINUOUS
 10
154.7768668074
 20
31.1422825445
 11
155.412804528
 21
31.1422825445
  0
LINE
  8
0
 62
7
  6
CONTINUOUS
 10
155.412804528
 20
31.2713373354
 11
154.7768668074
 21
31.2713373354
  0
LINE
  8
0
 62
7
  6
CONTINUOUS
 10
151.1346793074
 20
31.3036010218
 11
151.4237418626
 21
31.3036010218
  0
LINE
  8
0
 62
7
  6
CONTINUOUS
 10
153.9674919177
 20
31.3681283946
 11
154.2565543074
 21
31.3681283946
  0
LINE
  8
0
 62
7
  6
CONTINUOUS
 10
160.6737418074
 20
31.3681283946
 11
160.9628038663
 21
31.3681283946
  0
LINE
  8
0
 62
7
  6
CONTINUOUS
 10
154.6612419177
 20
31.4971831403
 11
155.0081169177
 21
31.4971831403
  0
LINE
  8
0
 62
7
  6
CONTINUOUS
 10
159.8065543074
 20
31.4971831403
 11
160.1534293074
 21
31.4971831403
  0
LINE
  8
0
 62
7
  6
CONTINUOUS
 10
160.1534293074
 20
31.626237886
 11
159.8065543074
 21
31.626237886
  0
LINE
  8
0
 62
7
  6
CONTINUOUS
 10
158.0721793074
 20
31.626237886
 11
157.840929528
 21
31.626237886
  0
LINE
  8
0
 62
7
  6
CONTINUOUS
 10
157.320617028
 20
31.626237886
 11
157.0315543074
 21
31.626237886
  0
LINE
  8
0
 62
7
  6
CONTINUOUS
 10
156.5690540869
 20
31.626237886
 11
156.279992028
 21
31.626237886
  0
LINE
  8
0
 62
7
  6
CONTINUOUS
 10
155.0081169177
 20
31.626237886
 11
154.6612419177
 21
31.626237886
  0
LINE
  8
0
 62
7
  6
CONTINUOUS
 10
152.9268669177
 20
31.626237886
 11
152.6956168074
 21
31.626237886
  0
LINE
  8
0
 62
7
  6
CONTINUOUS
 10
156.279992028
 20
31.9488748406
 11
156.5690540869
 21
31.9488748406
  0
LINE
  8
0
 62
7
  6
CONTINUOUS
 10
156.5690540869
 20
32.1101932727
 11
156.279992028
 21
32.1101932727
  0
LINE
  8
0
 62
7
  6
CONTINUOUS
 10
152.1753043074
 20
32.1101932727
 11
151.8862417523
 21
32.1101932727
  0
LINE
  8
0
 62
7
  6
CONTINUOUS
 10
151.2130860697
 20
32.3970785186
 11
151.6256574183
 21
32.3970785186
  0
LINE
  8
0
 62
7
  6
CONTINUOUS
 10
152.852430332
 20
32.3970785186
 11
154.245872955
 21
32.3970785186
  0
LINE
  8
0
 62
7
  6
CONTINUOUS
 10
154.5737418074
 20
32.3970785186
 11
155.9671844304
 21
32.3970785186
  0
LINE
  8
0
 62
7
  6
CONTINUOUS
 10
157.852430332
 20
32.3970785186
 11
159.245872955
 21
32.3970785186
  0
LINE
  8
0
 62
7
  6
CONTINUOUS
 10
159.5737418074
 20
32.3970785186
 11
160.9671844304
 21
32.3970785186
  0
LINE
  8
0
 62
7
  6
CONTINUOUS
 10
157.6096790869
 20
31.5939741996
 11
157.4362415869
 21
31.5294468267
  0
LINE
  8
0
 62
7
  6
CONTINUOUS
 10
155.1815540869
 20
30.6260635193
 11
155.3549915869
 21
30.6905909007
  0
LINE
  8
0
 62
7
  6
CONTINUOUS
 10
160.615929528
 20
30.6260635193
 11
160.8471793074
 21
30.6905909007
  0
LINE
  8
0
 62
7
  6
CONTINUOUS
 10
160.615929528
 20
30.7873819712
 11
160.5003043074
 21
30.7551182848
  0
LINE
  8
0
 62
7
  6
CONTINUOUS
 10
159.575304528
 20
31.4649194539
 11
159.8065543074
 21
31.4971831403
  0
LINE
  8
0
 62
7
  6
CONTINUOUS
 10
157.6096790869
 20
31.4649194539
 11
157.840929528
 21
31.4971831403
  0
LINE
  8
0
 62
7
  6
CONTINUOUS
 10
154.5456166972
 20
31.1100188581
 11
154.7768668074
 21
31.1422825445
  0
LINE
  8
0
 62
7
  6
CONTINUOUS
 10
157.840929528
 20
31.626237886
 11
157.6096790869
 21
31.5939741996
  0
LINE
  8
0
 62
7
  6
CONTINUOUS
 10
154.4299918074
 20
31.4649194539
 11
154.6612419177
 21
31.4971831403
  0
LINE
  8
0
 62
7
  6
CONTINUOUS
 10
159.8065543074
 20
31.626237886
 11
159.4596793074
 21
31.5939741996
  0
LINE
  8
0
 62
7
  6
CONTINUOUS
 10
154.7768668074
 20
31.2713373354
 11
154.4299918074
 21
31.2390736489
  0
LINE
  8
0
 62
7
  6
CONTINUOUS
 10
150.5565542799
 20
31.626237886
 11
150.2096793212
 21
31.5939741996
  0
LINE
  8
0
 62
7
  6
CONTINUOUS
 10
154.6612419177
 20
31.626237886
 11
154.2565543074
 21
31.5939741996
  0
LINE
  8
0
 62
7
  6
CONTINUOUS
 10
152.0327582009
 20
33.5446195022
 11
151.3770204959
 21
33.5446195022
  0
LINE
  8
0
 62
7
  6
CONTINUOUS
 10
157.4362415869
 20
31.400392081
 11
157.6096790869
 21
31.4649194539
  0
LINE
  8
0
 62
7
  6
CONTINUOUS
 10
159.4596793074
 20
31.4326557675
 11
159.575304528
 21
31.4649194539
  0
LINE
  8
0
 62
7
  6
CONTINUOUS
 10
159.4596793074
 20
31.5939741996
 11
159.228429528
 21
31.5294468267
  0
LINE
  8
0
 62
7
  6
CONTINUOUS
 10
155.1815540869
 20
30.7873819712
 11
154.8924916972
 21
30.7228545871
  0
LINE
  8
0
 62
7
  6
CONTINUOUS
 10
152.4643666972
 20
31.4649194539
 11
152.6956168074
 21
31.4971831403
  0
LINE
  8
0
 62
7
  6
CONTINUOUS
 10
152.6956168074
 20
31.626237886
 11
152.4643666972
 21
31.5939741996
  0
LINE
  8
0
 62
7
  6
CONTINUOUS
 10
150.2674918074
 20
31.4649194539
 11
150.498741835
 21
31.4971831403
  0
LINE
  8
0
 62
7
  6
CONTINUOUS
 10
156.7868565615
 20
35.0200293383
 11
157.4425942664
 21
35.0200293383
  0
LINE
  8
0
 62
7
  6
CONTINUOUS
 10
154.4299918074
 20
31.0777551716
 11
154.5456166972
 21
31.1100188581
  0
LINE
  8
0
 62
7
  6
CONTINUOUS
 10
154.4299918074
 20
31.2390736489
 11
154.1987416972
 21
31.1745462761
  0
LINE
  8
0
 62
7
  6
CONTINUOUS
 10
154.3143669177
 20
31.4326557675
 11
154.4299918074
 21
31.4649194539
  0
LINE
  8
0
 62
7
  6
CONTINUOUS
 10
150.9612418074
 20
30.6260635193
 11
151.1924917523
 21
30.6905909007
  0
LINE
  8
0
 62
7
  6
CONTINUOUS
 10
154.2565543074
 20
31.5939741996
 11
154.1409294177
 21
31.5617105132
  0
LINE
  8
0
 62
7
  6
CONTINUOUS
 10
150.2096793212
 20
31.5939741996
 11
150.0362418212
 21
31.5617105132
  0
LINE
  8
0
 62
7
  6
CONTINUOUS
 10
160.9671844304
 20
36.1675703219
 11
159.5737418074
 21
36.1675703219
  0
LINE
  8
0
 62
7
  6
CONTINUOUS
 10
157.6065286927
 20
36.1675703219
 11
157.1939573441
 21
36.1675703219
  0
LINE
  8
0
 62
7
  6
CONTINUOUS
 10
155.9671844304
 20
36.1675703219
 11
154.5737418074
 21
36.1675703219
  0
LINE
  8
0
 62
7
  6
CONTINUOUS
 10
154.245872955
 20
36.1675703219
 11
152.852430332
 21
36.1675703219
  0
LINE
  8
0
 62
7
  6
CONTINUOUS
 10
150.9671844304
 20
36.1675703219
 11
149.5737418074
 21
36.1675703219
  0
LINE
  8
0
 62
7
  6
CONTINUOUS
 10
150.1518667936
 20
31.4326557675
 11
150.2674918074
 21
31.4649194539
  0
CIRCLE
  8
0
 62
7
  6
CONTINUOUS
 10
160.2704631189
 20
38.5036358957
 40
2.0901639344
  0
ARC
  8
0
 62
7
  6
CONTINUOUS
 10
151.2130860697
 20
34.0364227809
 40
1.6393442623
 50
180.0
 51
270.0
  0
ARC
  8
0
 62
7
  6
CONTINUOUS
 10
157.6065286927
 20
34.5282260596
 40
1.6393442623
 50
0.0
 51
90.0
  0
ARC
  8
0
 62
7
  6
CONTINUOUS
 10
151.6256574183
 20
33.8724883547
 40
1.4754098361
 50
270.0
 51
326.2510114041
  0
ARC
  8
0
 62
7
  6
CONTINUOUS
 10
157.1939573441
 20
34.6921604858
 40
1.4754098361
 50
90.0
 51
146.2510114041
  0
ARC
  8
0
 62
7
  6
CONTINUOUS
 10
152.0327582009
 20
34.3642916334
 40
0.8196721311
 50
270.0
 51
360.0
  0
ARC
  8
0
 62
7
  6
CONTINUOUS
 10
156.7868565615
 20
34.2003572071
 40
0.8196721311
 50
90.0
 51
180.0
  0
ARC
  8
0
 62
7
  6
CONTINUOUS
 10
151.3770204959
 20
33.9544555678
 40
0.4098360656
 50
180.0
 51
270.0
  0
ARC
  8
0
 62
7
  6
CONTINUOUS
 10
157.4425942664
 20
34.6101932727
 40
0.4098360656
 50
0.0
 51
90.0
  0
SOLID
  8
0
 62
7
  6
CONTINUOUS
 10
156.279992028
 20
31.9488752009
 11
156.279992028
 21
32.1101936845
 12
156.5690540869
 22
31.9488752009
 13
156.5690540869
 23
32.1101936845
  0
SOLID
  8
0
 62
7
  6
CONTINUOUS
 10
150.5565542799
 20
31.6262382337
 11
150.9612418074
 21
31.5939740028
 12
150.2096793212
 22
31.5939740028
 13
150.2096793212
 23
31.5939740028
  0
SOLID
  8
0
 62
7
  6
CONTINUOUS
 10
150.0362418212
 20
31.5617111435
 11
150.2096793212
 21
31.5939740028
 12
150.9612418074
 22
31.5939740028
 13
150.9612418074
 23
31.5939740028
  0
SOLID
  8
0
 62
7
  6
CONTINUOUS
 10
150.9612418074
 20
31.5939740028
 11
151.1924917523
 21
31.5294468402
 12
150.0362418212
 22
31.5617111435
 13
150.0362418212
 23
31.5617111435
  0
SOLID
  8
0
 62
7
  6
CONTINUOUS
 10
149.8628043005
 20
31.49718259
 11
150.0362418212
 21
31.5617111435
 12
151.1924917523
 22
31.5294468402
 13
151.1924917523
 23
31.5294468402
  0
SOLID
  8
0
 62
7
  6
CONTINUOUS
 10
149.8628043005
 20
31.49718259
 11
151.1924917523
 21
31.5294468402
 12
150.498741835
 22
31.49718259
 13
150.498741835
 23
31.49718259
  0
SOLID
  8
0
 62
7
  6
CONTINUOUS
 10
150.498741835
 20
31.49718259
 11
151.1924917523
 21
31.5294468402
 12
150.9034292799
 22
31.4649197501
 13
150.9034292799
 23
31.4649197501
  0
SOLID
  8
0
 62
7
  6
CONTINUOUS
 10
151.1924917523
 20
31.5294468402
 11
151.3659292523
 21
31.4326554468
 12
150.9034292799
 22
31.4649197501
 13
150.9034292799
 23
31.4649197501
  0
SOLID
  8
0
 62
7
  6
CONTINUOUS
 10
151.0768668626
 20
31.4003926599
 11
150.9034292799
 21
31.4649197501
 12
151.3659292523
 22
31.4326554468
 13
151.3659292523
 23
31.4326554468
  0
SOLID
  8
0
 62
7
  6
CONTINUOUS
 10
151.0768668626
 20
31.4003926599
 11
151.3659292523
 21
31.4326554468
 12
151.1346793074
 22
31.3036013776
 13
151.1346793074
 23
31.3036013776
  0
SOLID
  8
0
 62
7
  6
CONTINUOUS
 10
151.3659292523
 20
31.4326554468
 11
151.4237418626
 21
31.3036013776
 12
151.1346793074
 22
31.3036013776
 13
151.1346793074
 23
31.3036013776
  0
SOLID
  8
0
 62
7
  6
CONTINUOUS
 10
152.4643666972
 20
31.5939739754
 11
152.6956168074
 21
31.6262382787
 12
152.9268669177
 22
31.6262382787
 13
152.9268669177
 23
31.6262382787
  0
SOLID
  8
0
 62
7
  6
CONTINUOUS
 10
152.9268669177
 20
31.6262382787
 11
153.1003044177
 21
31.5939739754
 12
152.4643666972
 22
31.5939739754
 13
152.4643666972
 23
31.5939739754
  0
SOLID
  8
0
 62
7
  6
CONTINUOUS
 10
152.2909293626
 20
31.5294468852
 11
152.4643666972
 21
31.5939739754
 12
153.1003044177
 22
31.5939739754
 13
153.1003044177
 23
31.5939739754
  0
SOLID
  8
0
 62
7
  6
CONTINUOUS
 10
153.1003044177
 20
31.5939739754
 11
153.2737419177
 21
31.5294468852
 12
152.2909293626
 22
31.5294468852
 13
152.2909293626
 23
31.5294468852
  0
SOLID
  8
0
 62
7
  6
CONTINUOUS
 10
153.2737419177
 20
31.5294468852
 11
152.6956168074
 21
31.4971825369
 12
152.2909293626
 22
31.5294468852
 13
152.2909293626
 23
31.5294468852
  0
SOLID
  8
0
 62
7
  6
CONTINUOUS
 10
152.1753043074
 20
31.4649197951
 11
152.2909293626
 21
31.5294468852
 12
152.6956168074
 22
31.4971825369
 13
152.6956168074
 23
31.4971825369
  0
SOLID
  8
0
 62
7
  6
CONTINUOUS
 10
152.6956168074
 20
31.4971825369
 11
152.4643666972
 21
31.4649197951
 12
152.1753043074
 22
31.4649197951
 13
152.1753043074
 23
31.4649197951
  0
SOLID
  8
0
 62
7
  6
CONTINUOUS
 10
152.6956168074
 20
31.4971825369
 11
153.2737419177
 21
31.5294468852
 12
152.9268669177
 22
31.4649197951
 13
152.9268669177
 23
31.4649197951
  0
SOLID
  8
0
 62
7
  6
CONTINUOUS
 10
153.2737419177
 20
31.5294468852
 11
153.3893668074
 21
31.4649197951
 12
152.9268669177
 22
31.4649197951
 13
152.9268669177
 23
31.4649197951
  0
SOLID
  8
0
 62
7
  6
CONTINUOUS
 10
153.0424918074
 20
31.4326554468
 11
152.9268669177
 21
31.4649197951
 12
153.3893668074
 22
31.4649197951
 13
153.3893668074
 23
31.4649197951
  0
SOLID
  8
0
 62
7
  6
CONTINUOUS
 10
153.3893668074
 20
31.4649197951
 11
153.4471794177
 21
31.4003927049
 12
153.0424918074
 22
31.4326554468
 13
153.0424918074
 23
31.4326554468
  0
SOLID
  8
0
 62
7
  6
CONTINUOUS
 10
153.1581166972
 20
31.3681283566
 11
153.0424918074
 21
31.4326554468
 12
153.4471794177
 22
31.4003927049
 13
153.4471794177
 23
31.4003927049
  0
SOLID
  8
0
 62
7
  6
CONTINUOUS
 10
153.1581166972
 20
31.3681283566
 11
153.4471794177
 21
31.4003927049
 12
153.2159293074
 22
31.2390742213
 13
153.2159293074
 23
31.2390742213
  0
SOLID
  8
0
 62
7
  6
CONTINUOUS
 10
153.4471794177
 20
31.4003927049
 11
153.5049916972
 21
31.2390742213
 12
153.2159293074
 22
31.2390742213
 13
153.2159293074
 23
31.2390742213
  0
SOLID
  8
0
 62
7
  6
CONTINUOUS
 10
152.4643666972
 20
31.4649197951
 11
152.2909293626
 21
31.4003927049
 12
152.1753043074
 22
31.4649197951
 13
152.1753043074
 23
31.4649197951
  0
SOLID
  8
0
 62
7
  6
CONTINUOUS
 10
152.2909293626
 20
31.4003927049
 11
152.1753043074
 21
31.3358640533
 12
152.1753043074
 22
31.4649197951
 13
152.1753043074
 23
31.4649197951
  0
SOLID
  8
0
 62
7
  6
CONTINUOUS
 10
152.1753043074
 20
31.3358640533
 11
151.8862417523
 21
30.5938002869
 12
152.1753043074
 22
31.4649197951
 13
152.1753043074
 23
31.4649197951
  0
SOLID
  8
0
 62
7
  6
CONTINUOUS
 10
152.1753043074
 20
31.4649197951
 11
151.8862417523
 21
30.5938002869
 12
152.1753043074
 22
32.1101937295
 13
152.1753043074
 23
32.1101937295
  0
SOLID
  8
0
 62
7
  6
CONTINUOUS
 10
151.8862417523
 20
30.5938002869
 11
151.8862417523
 21
32.1101937295
 12
152.1753043074
 22
32.1101937295
 13
152.1753043074
 23
32.1101937295
  0
SOLID
  8
0
 62
7
  6
CONTINUOUS
 10
152.1753043074
 20
31.3358640533
 11
152.1753043074
 21
30.5938002869
 12
151.8862417523
 22
30.5938002869
 13
151.8862417523
 23
30.5938002869
  0
SOLID
  8
0
 62
7
  6
CONTINUOUS
 10
153.2159293074
 20
30.5938002869
 11
153.2159293074
 21
31.2390742213
 12
153.5049916972
 22
31.2390742213
 13
153.5049916972
 23
31.2390742213
  0
SOLID
  8
0
 62
7
  6
CONTINUOUS
 10
153.5049916972
 20
31.2390742213
 11
153.5049916972
 21
30.5938002869
 12
153.2159293074
 22
30.5938002869
 13
153.2159293074
 23
30.5938002869
  0
SOLID
  8
0
 62
7
  6
CONTINUOUS
 10
154.2565543074
 20
31.5939738288
 11
154.6612419177
 21
31.6262385959
 12
155.0081169177
 22
31.6262385959
 13
155.0081169177
 23
31.6262385959
  0
SOLID
  8
0
 62
7
  6
CONTINUOUS
 10
155.0081169177
 20
31.6262385959
 11
155.3549915869
 21
31.5939738288
 12
154.2565543074
 22
31.5939738288
 13
154.2565543074
 23
31.5939738288
  0
SOLID
  8
0
 62
7
  6
CONTINUOUS
 10
154.1409294177
 20
31.5617111435
 11
154.2565543074
 21
31.5939738288
 12
155.3549915869
 22
31.5939738288
 13
155.3549915869
 23
31.5939738288
  0
SOLID
  8
0
 62
7
  6
CONTINUOUS
 10
155.3549915869
 20
31.5939738288
 11
155.5284290869
 21
31.5294468402
 12
154.1409294177
 22
31.5617111435
 13
154.1409294177
 23
31.5617111435
  0
SOLID
  8
0
 62
7
  6
CONTINUOUS
 10
154.0253041972
 20
31.4971826249
 11
154.1409294177
 21
31.5617111435
 12
155.5284290869
 22
31.5294468402
 13
155.5284290869
 23
31.5294468402
  0
SOLID
  8
0
 62
7
  6
CONTINUOUS
 10
154.0253041972
 20
31.4971826249
 11
155.5284290869
 21
31.5294468402
 12
154.6612419177
 22
31.4971826249
 13
154.6612419177
 23
31.4971826249
  0
SOLID
  8
0
 62
7
  6
CONTINUOUS
 10
154.6612419177
 20
31.4971826249
 11
155.5284290869
 21
31.5294468402
 12
155.0081169177
 22
31.4971826249
 13
155.0081169177
 23
31.4971826249
  0
SOLID
  8
0
 62
7
  6
CONTINUOUS
 10
155.0081169177
 20
31.4971826249
 11
155.5284290869
 21
31.5294468402
 12
155.239367028
 22
31.4649194065
 13
155.239367028
 23
31.4649194065
  0
SOLID
  8
0
 62
7
  6
CONTINUOUS
 10
155.5284290869
 20
31.5294468402
 11
155.6440543074
 21
31.4649194065
 12
155.239367028
 22
31.4649194065
 13
155.239367028
 23
31.4649194065
  0
SOLID
  8
0
 62
7
  6
CONTINUOUS
 10
153.9674919177
 20
31.4326554138
 11
154.0253041972
 21
31.4971826249
 12
154.6612419177
 22
31.4971826249
 13
154.6612419177
 23
31.4971826249
  0
SOLID
  8
0
 62
7
  6
CONTINUOUS
 10
155.3549915869
 20
31.4326554138
 11
155.239367028
 21
31.4649194065
 12
155.6440543074
 22
31.4649194065
 13
155.6440543074
 23
31.4649194065
  0
SOLID
  8
0
 62
7
  6
CONTINUOUS
 10
155.3549915869
 20
31.4326554138
 11
155.6440543074
 21
31.4649194065
 12
155.412804528
 22
31.3681282026
 13
155.412804528
 23
31.3681282026
  0
SOLID
  8
0
 62
7
  6
CONTINUOUS
 10
155.6440543074
 20
31.4649194065
 11
155.7018665869
 21
31.3681282026
 12
155.412804528
 22
31.3681282026
 13
155.412804528
 23
31.3681282026
  0
SOLID
  8
0
 62
7
  6
CONTINUOUS
 10
155.412804528
 20
31.2713369632
 11
155.412804528
 21
31.3681282026
 12
155.7018665869
 22
31.3681282026
 13
155.7018665869
 23
31.3681282026
  0
SOLID
  8
0
 62
7
  6
CONTINUOUS
 10
155.412804528
 20
31.2713369632
 11
155.7018665869
 21
31.3681282026
 12
155.412804528
 22
31.1422827828
 13
155.412804528
 23
31.1422827828
  0
SOLID
  8
0
 62
7
  6
CONTINUOUS
 10
155.412804528
 20
31.1422827828
 11
155.7018665869
 21
31.3681282026
 12
155.412804528
 22
30.9487004259
 13
155.412804528
 23
30.9487004259
  0
SOLID
  8
0
 62
7
  6
CONTINUOUS
 10
155.7018665869
 20
31.3681282026
 11
155.7018665869
 21
30.8519086025
 12
155.412804528
 22
30.9487004259
 13
155.412804528
 23
30.9487004259
  0
SOLID
  8
0
 62
7
  6
CONTINUOUS
 10
157.6096790869
 20
31.5939736268
 11
157.840929528
 21
31.6262383465
 12
158.0721793074
 22
31.6262383465
 13
158.0721793074
 23
31.6262383465
  0
SOLID
  8
0
 62
7
  6
CONTINUOUS
 10
158.0721793074
 20
31.6262383465
 11
158.2456168074
 21
31.5939736268
 12
157.6096790869
 22
31.5939736268
 13
157.6096790869
 23
31.5939736268
  0
SOLID
  8
0
 62
7
  6
CONTINUOUS
 10
157.4362415869
 20
31.5294472848
 11
157.6096790869
 21
31.5939736268
 12
158.2456168074
 22
31.5939736268
 13
158.2456168074
 23
31.5939736268
  0
SOLID
  8
0
 62
7
  6
CONTINUOUS
 10
158.2456168074
 20
31.5939736268
 11
158.4190543074
 21
31.5294472848
 12
157.4362415869
 22
31.5294472848
 13
157.4362415869
 23
31.5294472848
  0
SOLID
  8
0
 62
7
  6
CONTINUOUS
 10
158.4190543074
 20
31.5294472848
 11
157.840929528
 21
31.4971825369
 12
157.4362415869
 22
31.5294472848
 13
157.4362415869
 23
31.5294472848
  0
SOLID
  8
0
 62
7
  6
CONTINUOUS
 10
157.320617028
 20
31.4649199103
 11
157.4362415869
 21
31.5294472848
 12
157.840929528
 22
31.4971825369
 13
157.840929528
 23
31.4971825369
  0
SOLID
  8
0
 62
7
  6
CONTINUOUS
 10
157.840929528
 20
31.4971825369
 11
157.6096790869
 21
31.4649199103
 12
157.320617028
 22
31.4649199103
 13
157.320617028
 23
31.4649199103
  0
SOLID
  8
0
 62
7
  6
CONTINUOUS
 10
157.840929528
 20
31.4971825369
 11
158.4190543074
 21
31.5294472848
 12
158.0721793074
 22
31.4649199103
 13
158.0721793074
 23
31.4649199103
  0
SOLID
  8
0
 62
7
  6
CONTINUOUS
 10
158.4190543074
 20
31.5294472848
 11
158.534679528
 21
31.4649199103
 12
158.0721793074
 22
31.4649199103
 13
158.0721793074
 23
31.4649199103
  0
SOLID
  8
0
 62
7
  6
CONTINUOUS
 10
158.187804528
 20
31.4326554468
 11
158.0721793074
 21
31.4649199103
 12
158.534679528
 22
31.4649199103
 13
158.534679528
 23
31.4649199103
  0
SOLID
  8
0
 62
7
  6
CONTINUOUS
 10
158.187804528
 20
31.4326554468
 11
158.534679528
 21
31.4649199103
 12
158.3034290869
 22
31.3681288486
 13
158.3034290869
 23
31.3681288486
  0
SOLID
  8
0
 62
7
  6
CONTINUOUS
 10
158.534679528
 20
31.4649199103
 11
158.5924918074
 21
31.3681288486
 12
158.3034290869
 22
31.3681288486
 13
158.3034290869
 23
31.3681288486
  0
SOLID
  8
0
 62
7
  6
CONTINUOUS
 10
158.361242028
 20
31.2068093799
 11
158.3034290869
 21
31.3681288486
 12
158.5924918074
 22
31.3681288486
 13
158.5924918074
 23
31.3681288486
  0
SOLID
  8
0
 62
7
  6
CONTINUOUS
 10
158.5924918074
 20
31.3681288486
 11
158.6503040869
 21
31.2068093799
 12
158.361242028
 22
31.2068093799
 13
158.361242028
 23
31.2068093799
  0
SOLID
  8
0
 62
7
  6
CONTINUOUS
 10
157.6096790869
 20
31.4649199103
 11
157.4362415869
 21
31.4003926599
 12
157.320617028
 22
31.4649199103
 13
157.320617028
 23
31.4649199103
  0
SOLID
  8
0
 62
7
  6
CONTINUOUS
 10
157.4362415869
 20
31.4003926599
 11
157.320617028
 21
31.3358640533
 12
157.320617028
 22
31.4649199103
 13
157.320617028
 23
31.4649199103
  0
SOLID
  8
0
 62
7
  6
CONTINUOUS
 10
157.320617028
 20
31.3358640533
 11
157.0315543074
 21
30.5938003547
 12
157.320617028
 22
31.4649199103
 13
157.320617028
 23
31.4649199103
  0
SOLID
  8
0
 62
7
  6
CONTINUOUS
 10
157.320617028
 20
31.4649199103
 11
157.0315543074
 21
30.5938003547
 12
157.320617028
 22
31.6262383465
 13
157.320617028
 23
31.6262383465
  0
SOLID
  8
0
 62
7
  6
CONTINUOUS
 10
157.0315543074
 20
30.5938003547
 11
157.0315543074
 21
31.6262383465
 12
157.320617028
 22
31.6262383465
 13
157.320617028
 23
31.6262383465
  0
SOLID
  8
0
 62
7
  6
CONTINUOUS
 10
157.320617028
 20
31.3358640533
 11
157.320617028
 21
30.5938003547
 12
157.0315543074
 22
30.5938003547
 13
157.0315543074
 23
30.5938003547
  0
SOLID
  8
0
 62
7
  6
CONTINUOUS
 10
158.361242028
 20
30.5938003547
 11
158.361242028
 21
31.2068093799
 12
158.6503040869
 22
31.2068093799
 13
158.6503040869
 23
31.2068093799
  0
SOLID
  8
0
 62
7
  6
CONTINUOUS
 10
158.6503040869
 20
31.2068093799
 11
158.6503040869
 21
30.5938003547
 12
158.361242028
 22
30.5938003547
 13
158.361242028
 23
30.5938003547
  0
SOLID
  8
0
 62
7
  6
CONTINUOUS
 10
159.4596793074
 20
31.5939739474
 11
159.8065543074
 21
31.6262381969
 12
160.1534293074
 22
31.6262381969
 13
160.1534293074
 23
31.6262381969
  0
SOLID
  8
0
 62
7
  6
CONTINUOUS
 10
160.1534293074
 20
31.6262381969
 11
160.5003043074
 21
31.5939739474
 12
159.4596793074
 22
31.5939739474
 13
159.4596793074
 23
31.5939739474
  0
SOLID
  8
0
 62
7
  6
CONTINUOUS
 10
159.228429528
 20
31.5294468402
 11
159.4596793074
 21
31.5939739474
 12
160.5003043074
 22
31.5939739474
 13
160.5003043074
 23
31.5939739474
  0
SOLID
  8
0
 62
7
  6
CONTINUOUS
 10
159.228429528
 20
31.5294468402
 11
160.5003043074
 21
31.5939739304
 12
160.6737418074
 22
31.5617111435
 13
160.6737418074
 23
31.5617111435
  0
SOLID
  8
0
 62
7
  6
CONTINUOUS
 10
159.228429528
 20
31.5294468402
 11
160.6737418074
 21
31.5617111435
 12
159.8065543074
 22
31.4971825592
 13
159.8065543074
 23
31.4971825592
  0
SOLID
  8
0
 62
7
  6
CONTINUOUS
 10
159.8065543074
 20
31.4971825592
 11
160.6737418074
 21
31.5617111435
 12
160.1534293074
 22
31.4971825592
 13
160.1534293074
 23
31.4971825592
  0
SOLID
  8
0
 62
7
  6
CONTINUOUS
 10
160.6737418074
 20
31.5617111435
 11
160.8471793074
 21
31.4971825592
 12
160.1534293074
 22
31.4971825592
 13
160.1534293074
 23
31.4971825592
  0
SOLID
  8
0
 62
7
  6
CONTINUOUS
 10
160.5003043074
 20
31.4649197501
 11
160.1534293074
 21
31.4971825592
 12
160.8471793074
 22
31.4971825592
 13
160.8471793074
 23
31.4971825592
  0
SOLID
  8
0
 62
7
  6
CONTINUOUS
 10
159.1128043074
 20
31.4326555427
 11
159.228429528
 21
31.5294468402
 12
159.8065543074
 22
31.4971825592
 13
159.8065543074
 23
31.4971825592
  0
SOLID
  8
0
 62
7
  6
CONTINUOUS
 10
160.5003043074
 20
31.4649197501
 11
160.8471793074
 21
31.4971825592
 12
160.615929528
 22
31.4326555427
 13
160.615929528
 23
31.4326555427
  0
SOLID
  8
0
 62
7
  6
CONTINUOUS
 10
160.615929528
 20
31.4326555427
 11
160.8471793074
 21
31.4971825592
 12
160.6737418074
 22
31.3681283005
 13
160.6737418074
 23
31.3681283005
  0
SOLID
  8
0
 62
7
  6
CONTINUOUS
 10
160.8471793074
 20
31.4971825592
 11
160.9628038663
 21
31.3681283005
 12
160.6737418074
 22
31.3681283005
 13
160.6737418074
 23
31.3681283005
  0
SOLID
  8
0
 62
7
  6
CONTINUOUS
 10
150.2674918074
 20
31.4649197501
 11
149.7471793074
 21
31.4326554237
 12
150.498741835
 22
31.4971824493
 13
150.498741835
 23
31.4971824493
  0
SOLID
  8
0
 62
7
  6
CONTINUOUS
 10
149.7471793074
 20
31.4326554237
 11
149.8628043005
 21
31.4971824493
 12
150.498741835
 22
31.4971824493
 13
150.498741835
 23
31.4971824493
  0
SOLID
  8
0
 62
7
  6
CONTINUOUS
 10
150.2674918074
 20
31.4649197501
 11
150.1518667936
 21
31.4326554237
 12
149.7471793074
 22
31.4326554237
 13
149.7471793074
 23
31.4326554237
  0
SOLID
  8
0
 62
7
  6
CONTINUOUS
 10
149.6315543091
 20
31.3036012664
 11
149.7471793074
 21
31.4326554237
 12
150.1518667936
 22
31.4326554237
 13
150.1518667936
 23
31.4326554237
  0
SOLID
  8
0
 62
7
  6
CONTINUOUS
 10
153.9674919177
 20
31.4326554237
 11
154.6612419177
 21
31.4971825369
 12
154.4299918074
 22
31.4649197501
 13
154.4299918074
 23
31.4649197501
  0
SOLID
  8
0
 62
7
  6
CONTINUOUS
 10
154.4299918074
 20
31.4649197501
 11
154.3143669177
 21
31.4326554237
 12
153.9674919177
 22
31.4326554237
 13
153.9674919177
 23
31.4326554237
  0
SOLID
  8
0
 62
7
  6
CONTINUOUS
 10
153.9674919177
 20
31.3681283335
 11
153.9674919177
 21
31.4326554237
 12
154.3143669177
 22
31.4326554237
 13
154.3143669177
 23
31.4326554237
  0
SOLID
  8
0
 62
7
  6
CONTINUOUS
 10
154.3143669177
 20
31.4326554237
 11
154.2565543074
 21
31.3681283335
 12
153.9674919177
 22
31.3681283335
 13
153.9674919177
 23
31.3681283335
  0
SOLID
  8
0
 62
7
  6
CONTINUOUS
 10
159.1128043074
 20
31.4326555528
 11
159.8065543074
 21
31.4971825369
 12
159.575304528
 22
31.4649197501
 13
159.575304528
 23
31.4649197501
  0
SOLID
  8
0
 62
7
  6
CONTINUOUS
 10
159.575304528
 20
31.4649197501
 11
159.4596793074
 21
31.4326555528
 12
159.1128043074
 22
31.4326555528
 13
159.1128043074
 23
31.4326555528
  0
SOLID
  8
0
 62
7
  6
CONTINUOUS
 10
159.1128043074
 20
31.3681284626
 11
159.1128043074
 21
31.4326555528
 12
159.4596793074
 22
31.4326555528
 13
159.4596793074
 23
31.4326555528
  0
SOLID
  8
0
 62
7
  6
CONTINUOUS
 10
159.4596793074
 20
31.4326555528
 11
159.401867028
 21
31.3681284626
 12
159.1128043074
 22
31.3681284626
 13
159.1128043074
 23
31.3681284626
  0
SOLID
  8
0
 62
7
  6
CONTINUOUS
 10
159.228429528
 20
31.2390741763
 11
159.1128043074
 21
31.3681284626
 12
159.401867028
 22
31.3681284626
 13
159.401867028
 23
31.3681284626
  0
SOLID
  8
0
 62
7
  6
CONTINUOUS
 10
149.6315543091
 20
31.3036012664
 11
150.1518667936
 21
31.4326554468
 12
149.9784292936
 22
31.3358640533
 13
149.9784292936
 23
31.3358640533
  0
SOLID
  8
0
 62
7
  6
CONTINUOUS
 10
149.9784292936
 20
31.3358640533
 11
149.9206168074
 21
31.2713369632
 12
149.6315543091
 22
31.3036012664
 13
149.6315543091
 23
31.3036012664
  0
SOLID
  8
0
 62
7
  6
CONTINUOUS
 10
149.5737418074
 20
31.1100184796
 11
149.6315543091
 21
31.3036012664
 12
149.9206168074
 22
31.2713369632
 13
149.9206168074
 23
31.2713369632
  0
SOLID
  8
0
 62
7
  6
CONTINUOUS
 10
154.4299918074
 20
31.2390741763
 11
154.7768668074
 21
31.271336924
 12
155.412804528
 22
31.271336924
 13
155.412804528
 23
31.271336924
  0
SOLID
  8
0
 62
7
  6
CONTINUOUS
 10
154.4299918074
 20
31.2390741763
 11
155.412804528
 21
31.271336924
 12
154.1987416972
 22
31.1745462761
 13
154.1987416972
 23
31.1745462761
  0
SOLID
  8
0
 62
7
  6
CONTINUOUS
 10
154.1987416972
 20
31.1745462761
 11
155.412804528
 21
31.271336924
 12
154.7768668074
 22
31.1422827436
 13
154.7768668074
 23
31.1422827436
  0
SOLID
  8
0
 62
7
  6
CONTINUOUS
 10
155.412804528
 20
31.271336924
 11
155.412804528
 21
31.1422827436
 12
154.7768668074
 22
31.1422827436
 13
154.7768668074
 23
31.1422827436
  0
SOLID
  8
0
 62
7
  6
CONTINUOUS
 10
159.228429528
 20
31.2390745501
 11
159.401867028
 21
31.3681283566
 12
159.4596793074
 22
31.3036012664
 13
159.4596793074
 23
31.3036012664
  0
SOLID
  8
0
 62
7
  6
CONTINUOUS
 10
159.4596793074
 20
31.3036012664
 11
159.6331168074
 21
31.2390745501
 12
159.228429528
 22
31.2390745501
 13
159.228429528
 23
31.2390745501
  0
SOLID
  8
0
 62
7
  6
CONTINUOUS
 10
159.4596793074
 20
31.1422827828
 11
159.228429528
 21
31.2390745501
 12
159.6331168074
 22
31.2390745501
 13
159.6331168074
 23
31.2390745501
  0
SOLID
  8
0
 62
7
  6
CONTINUOUS
 10
159.6331168074
 20
31.2390745501
 11
160.615929528
 21
31.0777556927
 12
159.4596793074
 22
31.1422827828
 13
159.4596793074
 23
31.1422827828
  0
SOLID
  8
0
 62
7
  6
CONTINUOUS
 10
160.442492028
 20
30.9809646623
 11
159.4596793074
 21
31.1422827828
 12
160.615929528
 22
31.0777556927
 13
160.615929528
 23
31.0777556927
  0
SOLID
  8
0
 62
7
  6
CONTINUOUS
 10
160.615929528
 20
31.0777556927
 11
160.8471793074
 21
30.9809646623
 12
160.442492028
 22
30.9809646623
 13
160.442492028
 23
30.9809646623
  0
SOLID
  8
0
 62
7
  6
CONTINUOUS
 10
160.615929528
 20
30.9164372091
 11
160.442492028
 21
30.9809646623
 12
160.8471793074
 22
30.9809646623
 13
160.8471793074
 23
30.9809646623
  0
SOLID
  8
0
 62
7
  6
CONTINUOUS
 10
160.615929528
 20
30.9164372091
 11
160.8471793074
 21
30.9809646623
 12
160.6737418074
 22
30.8519089441
 13
160.6737418074
 23
30.8519089441
  0
SOLID
  8
0
 62
7
  6
CONTINUOUS
 10
160.8471793074
 20
30.9809646623
 11
160.9628038663
 21
30.8519089441
 12
160.6737418074
 22
30.8519089441
 13
160.6737418074
 23
30.8519089441
  0
SOLID
  8
0
 62
7
  6
CONTINUOUS
 10
160.615929528
 20
30.7873818593
 11
160.6737418074
 21
30.8519089441
 12
160.9628038663
 22
30.8519089441
 13
160.9628038663
 23
30.8519089441
  0
SOLID
  8
0
 62
7
  6
CONTINUOUS
 10
160.9628038663
 20
30.8519089441
 11
160.9628038663
 21
30.7873818593
 12
160.615929528
 22
30.7873818593
 13
160.615929528
 23
30.7873818593
  0
SOLID
  8
0
 62
7
  6
CONTINUOUS
 10
160.5003043074
 20
30.7551187255
 11
160.615929528
 21
30.7873818593
 12
160.9628038663
 22
30.7873818593
 13
160.9628038663
 23
30.7873818593
  0
SOLID
  8
0
 62
7
  6
CONTINUOUS
 10
160.5003043074
 20
30.7551187255
 11
160.9628038663
 21
30.7873818593
 12
160.269054528
 22
30.7228547745
 13
160.269054528
 23
30.7228547745
  0
SOLID
  8
0
 62
7
  6
CONTINUOUS
 10
160.9628038663
 20
30.7873818593
 11
160.8471793074
 21
30.6905916353
 12
160.269054528
 22
30.7228547745
 13
160.269054528
 23
30.7228547745
  0
SOLID
  8
0
 62
7
  6
CONTINUOUS
 10
160.8471793074
 20
30.6905916353
 11
159.401867028
 21
30.658327332
 12
160.269054528
 22
30.7228547745
 13
160.269054528
 23
30.7228547745
  0
SOLID
  8
0
 62
7
  6
CONTINUOUS
 10
160.269054528
 20
30.7228547745
 11
159.401867028
 21
30.658327332
 12
159.922179528
 22
30.7228547745
 13
159.922179528
 23
30.7228547745
  0
SOLID
  8
0
 62
7
  6
CONTINUOUS
 10
159.401867028
 20
30.658327332
 11
159.228429528
 21
30.7228547745
 12
159.922179528
 22
30.7228547745
 13
159.922179528
 23
30.7228547745
  0
SOLID
  8
0
 62
7
  6
CONTINUOUS
 10
159.401867028
 20
30.658327332
 11
160.8471793074
 21
30.6905916353
 12
159.575304528
 22
30.6260629858
 13
159.575304528
 23
30.6260629858
  0
SOLID
  8
0
 62
7
  6
CONTINUOUS
 10
160.8471793074
 20
30.6905916353
 11
160.615929528
 21
30.6260629858
 12
159.575304528
 22
30.6260629858
 13
159.575304528
 23
30.6260629858
  0
SOLID
  8
0
 62
7
  6
CONTINUOUS
 10
159.922179528
 20
30.5938006049
 11
159.575304528
 21
30.6260629858
 12
160.615929528
 22
30.6260629858
 13
160.615929528
 23
30.6260629858
  0
SOLID
  8
0
 62
7
  6
CONTINUOUS
 10
160.615929528
 20
30.6260629858
 11
160.269054528
 21
30.5938006049
 12
159.922179528
 22
30.5938006049
 13
159.922179528
 23
30.5938006049
  0
SOLID
  8
0
 62
7
  6
CONTINUOUS
 10
149.5737418074
 20
31.1100184796
 11
149.9206168074
 21
31.2713369632
 12
149.8628043005
 22
31.1422827828
 13
149.8628043005
 23
31.1422827828
  0
SOLID
  8
0
 62
7
  6
CONTINUOUS
 10
149.8628043005
 20
31.1422827828
 11
149.8628043005
 21
31.0454914852
 12
149.5737418074
 22
31.1100184796
 13
149.5737418074
 23
31.1100184796
  0
SOLID
  8
0
 62
7
  6
CONTINUOUS
 10
149.6315543091
 20
30.9164372091
 11
149.5737418074
 21
31.1100184796
 12
149.8628043005
 22
31.0454914852
 13
149.8628043005
 23
31.0454914852
  0
SOLID
  8
0
 62
7
  6
CONTINUOUS
 10
149.8628043005
 20
31.0454914852
 11
149.9784292936
 21
30.8841729058
 12
149.6315543091
 22
30.9164372091
 13
149.6315543091
 23
30.9164372091
  0
SOLID
  8
0
 62
7
  6
CONTINUOUS
 10
149.7471793074
 20
30.7873813202
 11
149.6315543091
 21
30.9164372091
 12
149.9784292936
 22
30.8841729058
 13
149.9784292936
 23
30.8841729058
  0
SOLID
  8
0
 62
7
  6
CONTINUOUS
 10
149.9784292936
 20
30.8841729058
 11
150.1518667936
 21
30.7873813202
 12
149.7471793074
 22
30.7873813202
 13
149.7471793074
 23
30.7873813202
  0
SOLID
  8
0
 62
7
  6
CONTINUOUS
 10
149.8628043005
 20
30.7228547004
 11
149.7471793074
 21
30.7873813202
 12
150.1518667936
 22
30.7873813202
 13
150.1518667936
 23
30.7873813202
  0
SOLID
  8
0
 62
7
  6
CONTINUOUS
 10
150.1518667936
 20
30.7873813202
 11
150.498741835
 21
30.7228547004
 12
149.8628043005
 22
30.7228547004
 13
149.8628043005
 23
30.7228547004
  0
SOLID
  8
0
 62
7
  6
CONTINUOUS
 10
150.0362418212
 20
30.658327332
 11
149.8628043005
 21
30.7228547004
 12
150.498741835
 22
30.7228547004
 13
150.498741835
 23
30.7228547004
  0
SOLID
  8
0
 62
7
  6
CONTINUOUS
 10
154.0831168074
 20
31.1100184386
 11
154.1987416972
 21
31.1745462761
 12
154.7768668074
 22
31.1422827828
 13
154.7768668074
 23
31.1422827828
  0
SOLID
  8
0
 62
7
  6
CONTINUOUS
 10
154.7768668074
 20
31.1422827828
 11
154.5456166972
 21
31.1100184386
 12
154.0831168074
 22
31.1100184386
 13
154.0831168074
 23
31.1100184386
  0
SOLID
  8
0
 62
7
  6
CONTINUOUS
 10
153.9674919177
 20
30.9809642992
 11
154.0831168074
 21
31.1100184386
 12
154.5456166972
 22
31.1100184386
 13
154.5456166972
 23
31.1100184386
  0
SOLID
  8
0
 62
7
  6
CONTINUOUS
 10
154.3143669177
 20
31.0132277988
 11
153.9674919177
 21
30.9809642992
 12
154.4299918074
 22
31.0777556927
 13
154.4299918074
 23
31.0777556927
  0
SOLID
  8
0
 62
7
  6
CONTINUOUS
 10
153.9674919177
 20
30.9809642992
 11
154.5456166972
 21
31.1100184796
 12
154.4299918074
 22
31.0777556927
 13
154.4299918074
 23
31.0777556927
  0
SOLID
  8
0
 62
7
  6
CONTINUOUS
 10
154.3143669177
 20
31.0132277988
 11
154.2565543074
 21
30.9164372091
 12
153.9674919177
 22
30.9809642992
 13
153.9674919177
 23
30.9809642992
  0
SOLID
  8
0
 62
7
  6
CONTINUOUS
 10
153.9674919177
 20
30.8841729058
 11
153.9674919177
 21
30.9809642992
 12
154.2565543074
 22
30.9164372091
 13
154.2565543074
 23
30.9164372091
  0
SOLID
  8
0
 62
7
  6
CONTINUOUS
 10
154.2565543074
 20
30.9164372091
 11
154.2565543074
 21
30.8519086025
 12
153.9674919177
 22
30.8841729058
 13
153.9674919177
 23
30.8841729058
  0
SOLID
  8
0
 62
7
  6
CONTINUOUS
 10
154.0253041972
 20
30.7551187255
 11
153.9674919177
 21
30.8841729058
 12
154.2565543074
 22
30.8519086025
 13
154.2565543074
 23
30.8519086025
  0
SOLID
  8
0
 62
7
  6
CONTINUOUS
 10
155.412804528
 20
30.9487004259
 11
155.7018665869
 21
30.8519086025
 12
155.3549915869
 22
30.8841729058
 13
155.3549915869
 23
30.8841729058
  0
SOLID
  8
0
 62
7
  6
CONTINUOUS
 10
155.1815540869
 20
30.7873815123
 11
155.3549915869
 21
30.8841729058
 12
155.7018665869
 22
30.8519086025
 13
155.7018665869
 23
30.8519086025
  0
SOLID
  8
0
 62
7
  6
CONTINUOUS
 10
155.1815540869
 20
30.7873815123
 11
155.7018665869
 21
30.8519086025
 12
155.412804528
 22
30.7551187255
 13
155.412804528
 23
30.7551187255
  0
SOLID
  8
0
 62
7
  6
CONTINUOUS
 10
155.7018665869
 20
30.8519086025
 11
155.759679528
 21
30.6905916353
 12
155.412804528
 22
30.7551187255
 13
155.412804528
 23
30.7551187255
  0
SOLID
  8
0
 62
7
  6
CONTINUOUS
 10
155.4706168074
 20
30.658327332
 11
155.412804528
 21
30.7551187255
 12
155.759679528
 22
30.6905916353
 13
155.759679528
 23
30.6905916353
  0
SOLID
  8
0
 62
7
  6
CONTINUOUS
 10
155.4706168074
 20
30.658327332
 11
155.759679528
 21
30.6905916353
 12
155.5284290869
 22
30.5938002079
 13
155.5284290869
 23
30.5938002079
  0
SOLID
  8
0
 62
7
  6
CONTINUOUS
 10
155.759679528
 20
30.6905916353
 11
155.8174918074
 21
30.5938002079
 12
155.5284290869
 22
30.5938002079
 13
155.5284290869
 23
30.5938002079
  0
SOLID
  8
0
 62
7
  6
CONTINUOUS
 10
151.0768668626
 20
30.8196456577
 11
151.1346793074
 21
30.9164373395
 12
151.4237418626
 22
30.9164373395
 13
151.4237418626
 23
30.9164373395
  0
SOLID
  8
0
 62
7
  6
CONTINUOUS
 10
151.4237418626
 20
30.9164373395
 11
151.3659292523
 21
30.7873815123
 12
151.0768668626
 22
30.8196456577
 13
151.0768668626
 23
30.8196456577
  0
SOLID
  8
0
 62
7
  6
CONTINUOUS
 10
150.9034292799
 20
30.7551187255
 11
151.0768668626
 21
30.8196456577
 12
151.3659292523
 22
30.7873815123
 13
151.3659292523
 23
30.7873815123
  0
SOLID
  8
0
 62
7
  6
CONTINUOUS
 10
150.9034292799
 20
30.7551187255
 11
151.3659292523
 21
30.7873815123
 12
150.498741835
 22
30.7228544222
 13
150.498741835
 23
30.7228544222
  0
SOLID
  8
0
 62
7
  6
CONTINUOUS
 10
151.3659292523
 20
30.7873815123
 11
151.1924917523
 21
30.6905916353
 12
150.498741835
 22
30.7228544222
 13
150.498741835
 23
30.7228544222
  0
SOLID
  8
0
 62
7
  6
CONTINUOUS
 10
150.0362418212
 20
30.658327332
 11
150.498741835
 21
30.7228544222
 12
151.1924917523
 22
30.6905916353
 13
151.1924917523
 23
30.6905916353
  0
SOLID
  8
0
 62
7
  6
CONTINUOUS
 10
150.0362418212
 20
30.658327332
 11
151.1924917523
 21
30.6905916353
 12
150.2096793212
 22
30.6260631011
 13
150.2096793212
 23
30.6260631011
  0
SOLID
  8
0
 62
7
  6
CONTINUOUS
 10
151.1924917523
 20
30.6905916353
 11
150.9612418074
 21
30.6260631011
 12
150.2096793212
 22
30.6260631011
 13
150.2096793212
 23
30.6260631011
  0
SOLID
  8
0
 62
7
  6
CONTINUOUS
 10
150.5565542799
 20
30.5938002419
 11
150.2096793212
 21
30.6260631011
 12
150.9612418074
 22
30.6260631011
 13
150.9612418074
 23
30.6260631011
  0
SOLID
  8
0
 62
7
  6
CONTINUOUS
 10
154.0253041972
 20
30.7551187255
 11
154.2565543074
 21
30.8519086025
 12
154.3143669177
 22
30.7873815123
 13
154.3143669177
 23
30.7873815123
  0
SOLID
  8
0
 62
7
  6
CONTINUOUS
 10
154.3143669177
 20
30.7873815123
 11
154.5456166972
 21
30.7228544222
 12
154.0253041972
 22
30.7551187255
 13
154.0253041972
 23
30.7551187255
  0
SOLID
  8
0
 62
7
  6
CONTINUOUS
 10
154.1987416972
 20
30.658327332
 11
154.0253041972
 21
30.7551187255
 12
154.5456166972
 22
30.7228544222
 13
154.5456166972
 23
30.7228544222
  0
SOLID
  8
0
 62
7
  6
CONTINUOUS
 10
154.8924916972
 20
30.7228544637
 11
155.1815540869
 21
30.7873815123
 12
155.412804528
 22
30.7551187255
 13
155.412804528
 23
30.7551187255
  0
SOLID
  8
0
 62
7
  6
CONTINUOUS
 10
155.412804528
 20
30.7551187255
 11
155.3549915869
 21
30.6905916353
 12
154.8924916972
 22
30.7228544637
 13
154.8924916972
 23
30.7228544637
  0
SOLID
  8
0
 62
7
  6
CONTINUOUS
 10
155.3549915869
 20
30.6905916353
 11
154.1987416972
 21
30.658327332
 12
154.8924916972
 22
30.7228544637
 13
154.8924916972
 23
30.7228544637
  0
SOLID
  8
0
 62
7
  6
CONTINUOUS
 10
154.1987416972
 20
30.658327332
 11
154.5456166972
 21
30.7228544637
 12
154.8924916972
 22
30.7228544637
 13
154.8924916972
 23
30.7228544637
  0
SOLID
  8
0
 62
7
  6
CONTINUOUS
 10
154.1987416972
 20
30.658327332
 11
155.3549915869
 21
30.6905916353
 12
154.3143669177
 22
30.6260630541
 13
154.3143669177
 23
30.6260630541
  0
SOLID
  8
0
 62
7
  6
CONTINUOUS
 10
155.3549915869
 20
30.6905916353
 11
155.1815540869
 21
30.6260630541
 12
154.3143669177
 22
30.6260630541
 13
154.3143669177
 23
30.6260630541
  0
SOLID
  8
0
 62
7
  6
CONTINUOUS
 10
154.5456166972
 20
30.5938002188
 11
154.3143669177
 21
30.6260630541
 12
155.1815540869
 22
30.6260630541
 13
155.1815540869
 23
30.6260630541
  0
SOLID
  8
0
 62
7
  6
CONTINUOUS
 10
155.1815540869
 20
30.6260630541
 11
154.8924916972
 21
30.5938002188
 12
154.5456166972
 22
30.5938002188
 13
154.5456166972
 23
30.5938002188
  0
SOLID
  8
0
 62
7
  6
CONTINUOUS
 10
159.575304528
 20
30.7551187255
 11
159.228429528
 21
30.7228544637
 12
159.4596793074
 22
30.7873815123
 13
159.4596793074
 23
30.7873815123
  0
SOLID
  8
0
 62
7
  6
CONTINUOUS
 10
159.4596793074
 20
30.7873815123
 11
159.228429528
 21
30.7228544637
 12
159.401867028
 22
30.851908644
 13
159.401867028
 23
30.851908644
  0
SOLID
  8
0
 62
7
  6
CONTINUOUS
 10
159.228429528
 20
30.7228544637
 11
159.1128043074
 21
30.851908644
 12
159.401867028
 22
30.851908644
 13
159.401867028
 23
30.851908644
  0
SOLID
  8
0
 62
7
  6
CONTINUOUS
 10
159.575304528
 20
30.7551187255
 11
159.922179528
 21
30.7228544637
 12
159.228429528
 22
30.7228544637
 13
159.228429528
 23
30.7228544637
  0
SOLID
  8
0
 62
7
  6
CONTINUOUS
 10
156.279992028
 20
30.5938002419
 11
156.279992028
 21
31.6262382337
 12
156.5690540869
 22
30.5938002419
 13
156.5690540869
 23
31.6262382337
  0
ENDBLK
  8
0
  6
BYBLOCK
 62
0
  0
BLOCK
  8
0
 62
2
  6
CONTINUOUS
  2
SYMBOL_3_BL0
 70
64
 10
32.1213064866
 20
19.8534310916
  0
TEXT
  8
0
 62
7
  6
CONTINUOUS
 10
18.3860103289
 20
19.2268451992
  7
TEXTSTYLE_3
 40
2.7338706658
  1
Ammeraal Beltech
 41
1.0
 51
15.0
 72
0
  0
TEXT
  8
0
 62
7
  6
CONTINUOUS
 10
29.1868111546
 20
16.9533085264
  7
TEXTSTYLE_4
 40
1.0935482663
  1
Innovation & Service in Belting
 41
1.0
 72
0
  0
LINE
  8
0
 62
7
  6
CONTINUOUS
 10
12.3614696776
 20
19.9934385078
 11
13.1396216709
 21
23.6543558055
  0
LINE
  8
0
 62
7
  6
CONTINUOUS
 10
23.2347899607
 20
27.3177497171
 11
13.6274394139
 21
24.1961322958
  0
LINE
  8
0
 62
7
  6
CONTINUOUS
 10
12.5867530099
 20
19.3000877048
 11
20.093828271
 21
12.5406867788
  0
LINE
  8
0
 62
7
  6
CONTINUOUS
 10
12.8492874206
 20
20.5352149982
 11
23.6575567857
 21
24.0470345971
  0
LINE
  8
0
 62
7
  6
CONTINUOUS
 10
23.6533516486
 20
13.6972460334
 11
15.2078919798
 21
21.3015720751
  0
LINE
  8
0
 62
7
  6
CONTINUOUS
 10
24.1731743684
 20
26.4728246013
 11
23.1966148312
 21
21.8784731989
  0
LINE
  8
0
 62
7
  6
CONTINUOUS
 10
22.4968128835
 20
18.5861638851
 11
21.810364672
 21
15.3566789607
  0
LINE
  8
0
 62
7
  6
CONTINUOUS
 10
24.8542704669
 20
14.087448211
 11
25.8105020025
 21
18.5861638851
  0
LINE
  8
0
 62
7
  6
CONTINUOUS
 10
26.5103039502
 20
21.8784731989
 11
26.9545457526
 21
23.9684665583
  0
LINE
  8
0
 62
7
  6
CONTINUOUS
 10
20.8069293463
 20
12.3891124661
 11
24.3664527239
 21
13.5456717207
  0
LINE
  8
0
 62
7
  6
CONTINUOUS
 10
23.9478910361
 20
27.1661754044
 11
26.7292624203
 21
24.6618173613
  0
ARC
  8
0
 62
7
  6
CONTINUOUS
 10
13.8527227462
 20
23.5027814928
 40
0.7290321776
 50
108.0
 51
168.0
  0
ARC
  8
0
 62
7
  6
CONTINUOUS
 10
23.4600732931
 20
26.624398914
 40
0.7290321776
 50
348.0
 51
108.0
  0
ARC
  8
0
 62
7
  6
CONTINUOUS
 10
26.2414446773
 20
24.120040871
 40
0.7290321776
 50
348.0
 51
48.0
  0
ARC
  8
0
 62
7
  6
CONTINUOUS
 10
20.581646014
 20
13.0824632691
 40
0.7290321776
 50
228.0
 51
288.0
  0
ARC
  8
0
 62
7
  6
CONTINUOUS
 10
13.0745707529
 20
19.8418641951
 40
0.7290321776
 50
108.0
 51
228.0
  0
ARC
  8
0
 62
7
  6
CONTINUOUS
 10
24.1411693916
 20
14.2390225237
 40
0.7290321776
 50
228.0
 51
348.0
  0
ENDBLK
  8
0
  6
BYBLOCK
 62
0
  0
ENDSEC
  0
SECTION
  2
ENTITIES
  0
TEXT
  8
0
 62
5
  6
CONTINUOUS
 10
96.0
 20
25.636
  7
TEXTSTYLE_2
 40
2.8
  1
Scale :
 41
0.6
 51
0.000019
 72
0
  0
TEXT
  8
0
 62
5
  6
CONTINUOUS
 10
116.0
 20
25.636
  7
TEXTSTYLE_2
 40
2.8
  1
Belt type:
 41
0.6
 51
0.000019
 72
0
  0
INSERT
  8
0
 62
2
  6
CONTINUOUS
  2
SYMBOL_3_BL0
 10
32.1213064866
 20
19.8534310916
  0
INSERT
  8
0
 62
2
  6
CONTINUOUS
  2
SYMBOL_8_BL1
 10
173.5956734183
 20
35.5937998301
  0
LINE
  8
0
 62
2
  6
CONTINUOUS
 10
10.0
 20
30.0
 11
200.0
 21
30.0
  0
LINE
  8
0
 62
2
  6
CONTINUOUS
 10
10.0
 20
30.0
 11
10.0
 21
10.0
  0
LINE
  8
0
 62
2
  6
CONTINUOUS
 10
10.0
 20
10.0
 11
200.0
 21
10.0
  0
LINE
  8
0
 62
2
  6
CONTINUOUS
 10
95.0
 20
30.0
 11
95.0
 21
10.0
  0
LINE
  8
0
 62
2
  6
CONTINUOUS
 10
115.0
 20
30.0
 11
115.0
 21
10.0
  0
LINE
  8
0
 62
2
  6
CONTINUOUS
 10
200.0
 20
30.0
 11
200.0
 21
10.0
  0
TEXT
  8
0
 62
5
  6
CONTINUOUS
 10
13.0
 20
23.303
  7
TEXTSTYLE_5
 40
1.52
  1
                                                                     Ammeraal Beltech Modular A/S
 41
1.0
 72
0
  0
TEXT
  8
0
 62
5
  6
CONTINUOUS
 10
13.0
 20
20.595
  7
TEXTSTYLE_5
 40
1.5
  1
                                                                      Hjulmagervej 21,  7100 Vejle,  DK
 41
1.0
 72
0
  0
TEXT
  8
0
 62
5
  6
CONTINUOUS
 10
13.0
 20
17.881
  7
TEXTSTYLE_5
 40
1.495
  1
                                                                      tel: 
 41
1.0
 72
0
  0
TEXT
  8
0
 62
5
  6
CONTINUOUS
 10
57.9869465649
 20
17.881
  7
TEXTSTYLE_5
 40
1.51
  1
+45 75723100     fax: +45 75723348
 41
1.0
 72
0
  0
TEXT
  8
0
 62
5
  6
CONTINUOUS
 10
13.0
 20
15.177
  7
TEXTSTYLE_5
 40
1.5
  1
                                                                      admin@unichains.dk  www.unichains.com
 41
1.0
 72
0
  0
TEXT
  8
0
 62
5
  6
CONTINUOUS
 10
99.75
 20
13.75
  7
TEXTSTYLE_6
 40
5.0
  1
1:1
 41
0.7
 72
1
 11
105.0
 21
13.75
  0
TEXT
  8
0
 62
5
  6
CONTINUOUS
 10
118.0
 20
13.75
  7
TEXTSTYLE_7
 40
7.5
  1
Sprocket Z10
 41
0.6361111111
 72
0
  0
LINE
  8
0
 62
7
  6
CONTINUOUS
 10
210.0
 20
0.0
 11
0.0
 21
0.0
  0
LINE
  8
0
 62
7
  6
CONTINUOUS
 10
10.0
 20
10.0
 11
200.0
 21
10.0
  0
LINE
  8
0
 62
7
  6
CONTINUOUS
 10
10.0
 20
30.0
 11
200.0
 21
30.0
  0
LINE
  8
0
 62
7
  6
CONTINUOUS
 10
0.0
 20
0.0
 11
0.0
 21
297.0
  0
LINE
  8
0
 62
7
  6
CONTINUOUS
 10
10.0
 20
10.0
 11
10.0
 21
287.0
  0
LINE
  8
0
 62
7
  6
CONTINUOUS
 10
200.0
 20
287.0
 11
200.0
 21
10.0
  0
LINE
  8
0
 62
7
  6
CONTINUOUS
 10
210.0
 20
0.0
 11
210.0
 21
297.0
  0
LINE
  8
0
 62
7
  6
CONTINUOUS
 10
10.0
 20
287.0
 11
200.0
 21
287.0
  0
LINE
  8
0
 62
7
  6
CONTINUOUS
 10
0.0
 20
297.0
 11
210.0
 21
297.0
  0
LINE
  8
0
 62
7
  6
CONTINUOUS
 10
61.9449874388
 20
224.813162897
 11
61.7808937995
 21
224.3081346048
  0
LINE
  8
0
 62
7
  6
CONTINUOUS
 10
77.003156761
 20
245.2597821335
 11
76.5735540359
 21
244.9476574836
  0
LINE
  8
0
 62
7
  6
CONTINUOUS
 10
100.6726747217
 20
170.7781904886
 11
101.2036928932
 21
170.7781904886
  0
LINE
  8
0
 62
7
  6
CONTINUOUS
 10
76.5735540359
 20
178.7810077242
 11
77.0031567609
 21
178.4688830744
  0
LINE
  8
0
 62
7
  6
CONTINUOUS
 10
61.7808937995
 20
199.4205306031
 11
61.9449874388
 21
198.9155023109
  0
LINE
  8
0
 62
7
  6
CONTINUOUS
 10
80.8420368988
 20
230.8112418807
 11
80.9266574684
 21
230.9903224491
  0
LINE
  8
0
 62
7
  6
CONTINUOUS
 10
77.0741251786
 20
226.5144133283
 11
76.3051129875
 21
225.2265456783
  0
LINE
  8
0
 62
7
  6
CONTINUOUS
 10
76.7713792413
 20
225.3848886864
 11
77.3801867931
 21
226.4044610158
  0
LINE
  8
0
 62
7
  6
CONTINUOUS
 10
78.2022331653
 20
225.9136002647
 11
77.5934256135
 21
224.8940279354
  0
LINE
  8
0
 62
7
  6
CONTINUOUS
 10
77.922244101
 20
224.6976836716
 11
78.4990054445
 21
225.6635880938
  0
LINE
  8
0
 62
7
  6
CONTINUOUS
 10
80.7409304869
 20
231.2572844525
 11
80.5693308148
 21
230.9884230988
  0
LINE
  8
0
 62
7
  6
CONTINUOUS
 10
81.5202803638
 20
230.5022548245
 11
81.3486806916
 21
230.2333934708
  0
LINE
  8
0
 62
7
  6
CONTINUOUS
 10
78.8773570127
 20
229.1091120814
 11
78.5729607303
 21
228.7124569744
  0
LINE
  8
0
 62
7
  6
CONTINUOUS
 10
80.6373753803
 20
228.1523778348
 11
79.9524732941
 21
227.2598902258
  0
LINE
  8
0
 62
7
  6
CONTINUOUS
 10
77.2891416998
 20
226.7499993435
 11
77.0741251786
 21
226.5144133283
  0
LINE
  8
0
 62
7
  6
CONTINUOUS
 10
80.9148807292
 20
231.4368378036
 11
80.7409304869
 21
231.2572844525
  0
LINE
  8
0
 62
7
  6
CONTINUOUS
 10
80.9266574684
 20
230.9903224491
 11
81.1875868132
 21
231.2596565854
  0
LINE
  8
0
 62
7
  6
CONTINUOUS
 10
81.8105598778
 20
231.3522905058
 11
82.0280036528
 21
231.5767383592
  0
LINE
  8
0
 62
7
  6
CONTINUOUS
 10
81.7377161759
 20
230.7266944585
 11
81.5202803638
 21
230.5022548245
  0
LINE
  8
0
 62
7
  6
CONTINUOUS
 10
81.7060073453
 20
230.2352928211
 11
82.0104302229
 21
230.5495214598
  0
LINE
  8
0
 62
7
  6
CONTINUOUS
 10
77.3801867931
 20
226.4044610158
 11
77.5311167649
 21
226.5327210422
  0
LINE
  8
0
 62
7
  6
CONTINUOUS
 10
81.178168607
 20
231.6168721568
 11
80.9148807292
 21
231.4368378036
  0
LINE
  8
0
 62
7
  6
CONTINUOUS
 10
82.0010040537
 20
230.9067288117
 11
81.7377161759
 21
230.7266944585
  0
LINE
  8
0
 62
7
  6
CONTINUOUS
 10
81.1875868132
 20
231.2596565854
 11
81.3638955885
 21
231.3499101534
  0
LINE
  8
0
 62
7
  6
CONTINUOUS
 10
83.8625089352
 20
190.1567567506
 11
83.5790674874
 21
190.3030107912
  0
LINE
  8
0
 62
7
  6
CONTINUOUS
 10
83.3789239721
 20
190.0544175643
 11
83.7110497516
 21
189.8689675512
  0
LINE
  8
0
 62
7
  6
CONTINUOUS
 10
86.1105437038
 20
188.0798084056
 11
88.2889246791
 21
186.8531601826
  0
LINE
  8
0
 62
7
  6
CONTINUOUS
 10
88.4455179311
 20
187.1312511256
 11
86.5394376939
 21
188.204566566
  0
LINE
  8
0
 62
7
  6
CONTINUOUS
 10
84.8680582829
 20
188.9320040997
 11
85.1780145624
 21
188.7209304045
  0
LINE
  8
0
 62
7
  6
CONTINUOUS
 10
83.1268555988
 20
190.3393048682
 11
83.3789239721
 21
190.0544175643
  0
LINE
  8
0
 62
7
  6
CONTINUOUS
 10
83.5790674874
 20
190.3030107912
 11
83.3756789888
 21
190.5487057109
  0
LINE
  8
0
 62
7
  6
CONTINUOUS
 10
80.8032604321
 20
230.5877478121
 11
80.8420368988
 21
230.8112418807
  0
LINE
  8
0
 62
7
  6
CONTINUOUS
 10
81.3486806916
 20
230.2333934708
 11
81.2711277582
 21
229.7864053337
  0
LINE
  8
0
 62
7
  6
CONTINUOUS
 10
78.2435569746
 20
226.107308379
 11
78.2022331653
 21
225.9136002647
  0
LINE
  8
0
 62
7
  6
CONTINUOUS
 10
80.5693308148
 20
230.9884230988
 11
80.4894193483
 21
230.6307347448
  0
LINE
  8
0
 62
7
  6
CONTINUOUS
 10
78.4990054445
 20
225.6635880938
 11
78.6044158033
 21
225.9646221969
  0
LINE
  8
0
 62
7
  6
CONTINUOUS
 10
81.6213867757
 20
230.0562122527
 11
81.7060073453
 21
230.2352928211
  0
LINE
  8
0
 62
7
  6
CONTINUOUS
 10
83.0119329458
 20
229.8403319307
 11
82.9273123762
 21
229.6612513623
  0
LINE
  8
0
 62
7
  6
CONTINUOUS
 10
78.8808581131
 20
223.688515429
 11
79.0731089607
 21
224.0104786569
  0
LINE
  8
0
 62
7
  6
CONTINUOUS
 10
83.1130393898
 20
229.3942893278
 11
83.2846390579
 21
229.6631506853
  0
LINE
  8
0
 62
7
  6
CONTINUOUS
 10
80.1169758558
 20
227.0548718543
 11
80.877973529
 21
228.0465187007
  0
LINE
  8
0
 62
7
  6
CONTINUOUS
 10
80.3441211885
 20
226.0927230394
 11
80.5724218839
 21
226.3902189091
  0
LINE
  8
0
 62
7
  6
CONTINUOUS
 10
81.637829774
 20
227.7785390202
 11
81.8661304694
 21
228.0760348898
  0
LINE
  8
0
 62
7
  6
CONTINUOUS
 10
82.9273123762
 20
229.6612513623
 11
82.6228894986
 21
229.3470227236
  0
LINE
  8
0
 62
7
  6
CONTINUOUS
 10
82.8956035777
 20
229.1698496938
 11
83.1130393898
 21
229.3942893278
  0
LINE
  8
0
 62
7
  6
CONTINUOUS
 10
82.6323156959
 20
228.9898153445
 11
82.8956035777
 21
229.1698496938
  0
LINE
  8
0
 62
7
  6
CONTINUOUS
 10
82.0104302229
 20
230.5495214598
 11
82.1867389982
 21
230.6397750278
  0
LINE
  8
0
 62
7
  6
CONTINUOUS
 10
82.6228894986
 20
229.3470227236
 11
82.4465807233
 21
229.2567691556
  0
LINE
  8
0
 62
7
  6
CONTINUOUS
 10
77.5817181753
 20
226.8664693635
 11
77.2891416998
 21
226.7499993435
  0
LINE
  8
0
 62
7
  6
CONTINUOUS
 10
122.8092391359
 20
194.4773756737
 11
122.50509762
 21
194.3957279935
  0
LINE
  8
0
 62
7
  6
CONTINUOUS
 10
117.0855992257
 20
190.7974430887
 11
116.9483655826
 21
190.7680083067
  0
LINE
  8
0
 62
7
  6
CONTINUOUS
 10
118.0692241885
 20
189.7874730451
 11
117.754454672
 21
189.7781006629
  0
LINE
  8
0
 62
7
  6
CONTINUOUS
 10
84.0886148795
 20
190.1386097121
 11
83.8625089352
 21
190.1567567506
  0
LINE
  8
0
 62
7
  6
CONTINUOUS
 10
83.7110497516
 20
189.8689675512
 11
84.0745486055
 21
189.8221508014
  0
LINE
  8
0
 62
7
  6
CONTINUOUS
 10
84.7766837921
 20
192.288858543
 11
85.0601296969
 21
192.142600914
  0
LINE
  8
0
 62
7
  6
CONTINUOUS
 10
85.2602732402
 20
192.3911941757
 11
84.9281474572
 21
192.5766441845
  0
LINE
  8
0
 62
7
  6
CONTINUOUS
 10
87.394608524
 20
190.3601544111
 11
89.2462326023
 21
189.3175032812
  0
LINE
  8
0
 62
7
  6
CONTINUOUS
 10
89.7609014237
 20
189.4672153587
 11
87.5825204483
 21
190.6938635817
  0
LINE
  8
0
 62
7
  6
CONTINUOUS
 10
86.8666041243
 20
191.2005806401
 11
86.5566478449
 21
191.4116543354
  0
LINE
  8
0
 62
7
  6
CONTINUOUS
 10
85.5123416101
 20
192.1063068675
 11
85.2602732402
 21
192.3911941757
  0
LINE
  8
0
 62
7
  6
CONTINUOUS
 10
85.0601296969
 20
192.142600914
 11
85.2635137385
 21
191.8969095826
  0
LINE
  8
0
 62
7
  6
CONTINUOUS
 10
83.0035245062
 20
190.6844370787
 11
83.1268555988
 21
190.3393048682
  0
LINE
  8
0
 62
7
  6
CONTINUOUS
 10
83.3756789888
 20
190.5487057109
 11
83.3096878567
 21
190.7657273309
  0
LINE
  8
0
 62
7
  6
CONTINUOUS
 10
82.9775620772
 20
190.9511773441
 11
83.0035245062
 21
190.6844370787
  0
LINE
  8
0
 62
7
  6
CONTINUOUS
 10
81.587327375
 20
229.6541186179
 11
81.582610309
 21
229.8327181841
  0
LINE
  8
0
 62
7
  6
CONTINUOUS
 10
81.582610309
 20
229.8327181841
 11
81.6213867757
 21
230.0562122527
  0
LINE
  8
0
 62
7
  6
CONTINUOUS
 10
83.0507094125
 20
230.0638259993
 11
83.0119329458
 21
229.8403319307
  0
LINE
  8
0
 62
7
  6
CONTINUOUS
 10
83.2846390579
 20
229.6631506853
 11
83.3645505124
 21
230.0208390511
  0
LINE
  8
0
 62
7
  6
CONTINUOUS
 10
86.5394376939
 20
188.204566566
 11
89.5103521985
 21
189.0222698109
  0
LINE
  8
0
 62
7
  6
CONTINUOUS
 10
122.3661775812
 20
194.7388219923
 11
122.5435600385
 21
194.7602067463
  0
LINE
  8
0
 62
7
  6
CONTINUOUS
 10
121.5051689531
 20
195.0848218341
 11
121.1504040385
 21
195.0420523261
  0
LINE
  8
0
 62
7
  6
CONTINUOUS
 10
84.0745486055
 20
189.8221508014
 11
84.3406832528
 21
189.8537224082
  0
LINE
  8
0
 62
7
  6
CONTINUOUS
 10
84.5505778478
 20
192.3070055814
 11
84.7766837921
 21
192.288858543
  0
LINE
  8
0
 62
7
  6
CONTINUOUS
 10
117.69832511
 20
190.1439718718
 11
117.875863202
 21
190.1239112785
  0
LINE
  8
0
 62
7
  6
CONTINUOUS
 10
116.8922360206
 20
191.1338795155
 11
117.0697741125
 21
191.1138189222
  0
LINE
  8
0
 62
7
  6
CONTINUOUS
 10
84.9281474572
 20
192.5766441845
 11
84.5646441358
 21
192.6234645096
  0
LINE
  8
0
 62
7
  6
CONTINUOUS
 10
85.635668235
 20
191.7611782323
 11
85.5123416101
 21
192.1063068675
  0
LINE
  8
0
 62
7
  6
CONTINUOUS
 10
85.2635137385
 20
191.8969095826
 11
85.3295048706
 21
191.6798879626
  0
LINE
  8
0
 62
7
  6
CONTINUOUS
 10
78.6044158033
 20
225.9646221969
 11
78.5681737913
 21
226.2774364806
  0
LINE
  8
0
 62
7
  6
CONTINUOUS
 10
85.6616306501
 20
191.4944379495
 11
85.635668235
 21
191.7611782323
  0
LINE
  8
0
 62
7
  6
CONTINUOUS
 10
83.3096878567
 20
190.7657273309
 11
83.3551317742
 21
191.2208160559
  0
LINE
  8
0
 62
4
  6
CONTINUOUS
 10
89.8527552409
 20
224.2548491728
 11
88.5476672386
 21
222.9497611705
  0
LINE
  8
0
 62
4
  6
CONTINUOUS
 10
86.6857121791
 20
218.8250644111
 11
83.8572850543
 21
215.9966372864
  0
LINE
  8
0
 62
4
  6
CONTINUOUS
 10
93.9774520002
 20
226.1168042323
 11
96.805879125
 21
228.9452313571
  0
LINE
  8
0
 62
7
  6
CONTINUOUS
 10
85.1780145624
 20
188.7209304045
 11
85.7394628743
 21
188.8791662748
  0
LINE
  8
0
 62
7
  6
CONTINUOUS
 10
86.0268824406
 20
189.3012344975
 11
85.465434028
 21
189.1429984794
  0
LINE
  8
0
 62
7
  6
CONTINUOUS
 10
125.8464323393
 20
201.3120109983
 11
124.8066698744
 21
201.0289981002
  0
LINE
  8
0
 62
7
  6
CONTINUOUS
 10
123.4181788208
 20
200.9042924225
 11
124.4579419584
 21
201.1873065862
  0
LINE
  8
0
 62
7
  6
CONTINUOUS
 10
125.7529815215
 20
202.8154006468
 11
125.9742819498
 21
202.8730128689
  0
LINE
  8
0
 62
7
  6
CONTINUOUS
 10
122.3807129216
 20
196.2249234748
 11
122.7354778362
 21
196.2676929828
  0
LINE
  8
0
 62
7
  6
CONTINUOUS
 10
121.710039593
 20
196.8187709023
 11
121.443965436
 21
196.7866932312
  0
LINE
  8
0
 62
7
  6
CONTINUOUS
 10
84.5646441358
 20
192.6234645096
 11
84.2985094744
 21
192.5918928853
  0
LINE
  8
0
 62
7
  6
CONTINUOUS
 10
122.50509762
 20
194.3957279935
 11
122.1883992284
 21
194.4025273327
  0
LINE
  8
0
 62
7
  6
CONTINUOUS
 10
121.0495504517
 20
195.4347152266
 11
121.2775581213
 21
195.4172240232
  0
LINE
  8
0
 62
7
  6
CONTINUOUS
 10
117.754454672
 20
189.7781006629
 11
117.4478441946
 21
189.8576878314
  0
LINE
  8
0
 62
7
  6
CONTINUOUS
 10
116.9483655826
 20
190.7680083067
 11
116.6417551051
 21
190.8475954752
  0
LINE
  8
0
 62
4
  6
CONTINUOUS
 10
89.8527552409
 20
199.4738160351
 11
88.5476672386
 21
200.7789040374
  0
LINE
  8
0
 62
4
  6
CONTINUOUS
 10
83.8572850543
 20
207.7320279215
 11
86.6857121791
 21
204.9036007967
  0
LINE
  8
0
 62
4
  6
CONTINUOUS
 10
96.805879125
 20
194.7834338508
 11
93.9774520002
 21
197.6118609755
  0
LINE
  8
0
 62
7
  6
CONTINUOUS
 10
78.5681737913
 20
226.2774364806
 11
78.4450883569
 21
226.5693167268
  0
LINE
  8
0
 62
7
  6
CONTINUOUS
 10
78.1980314944
 20
226.2800726301
 11
78.2435569746
 21
226.107308379
  0
LINE
  8
0
 62
7
  6
CONTINUOUS
 10
80.853821601
 20
230.3647347456
 11
80.8032604321
 21
230.5877478121
  0
LINE
  8
0
 62
7
  6
CONTINUOUS
 10
80.4894193483
 20
230.6307347448
 11
80.5423310873
 21
230.3184136758
  0
LINE
  8
0
 62
7
  6
CONTINUOUS
 10
85.3295048706
 20
191.6798879626
 11
85.2840654941
 21
191.2247957537
  0
LINE
  8
0
 62
7
  6
CONTINUOUS
 10
83.040312683
 20
191.2284402823
 11
82.9775620772
 21
190.9511773441
  0
LINE
  8
0
 62
7
  6
CONTINUOUS
 10
121.520495231
 20
197.2007419795
 11
121.8878179458
 21
197.1550655618
  0
LINE
  8
0
 62
7
  6
CONTINUOUS
 10
122.2268616469
 20
194.7670060855
 11
122.3661775812
 21
194.7388219923
  0
LINE
  8
0
 62
7
  6
CONTINUOUS
 10
121.1504040385
 20
195.0420523261
 11
120.8717720989
 21
195.098420567
  0
LINE
  8
0
 62
7
  6
CONTINUOUS
 10
121.4965646709
 20
192.8426178582
 11
118.5766412821
 21
193.5015848514
  0
LINE
  8
0
 62
7
  6
CONTINUOUS
 10
118.3869071285
 20
193.9474492237
 11
121.3526038529
 21
193.2439957356
  0
LINE
  8
0
 62
7
  6
CONTINUOUS
 10
80.5423310873
 20
230.3184136758
 11
80.6845805903
 21
230.0065734844
  0
LINE
  8
0
 62
7
  6
CONTINUOUS
 10
83.0001482115
 20
230.2868390968
 11
83.0507094125
 21
230.0638259993
  0
LINE
  8
0
 62
7
  6
CONTINUOUS
 10
83.3645505124
 20
230.0208390511
 11
83.3116387573
 21
230.3331601356
  0
LINE
  8
0
 62
7
  6
CONTINUOUS
 10
85.5988800162
 20
191.2171749765
 11
85.6616306501
 21
191.4944379495
  0
LINE
  8
0
 62
7
  6
CONTINUOUS
 10
83.1117145725
 20
191.4167923303
 11
83.040312683
 21
191.2284402823
  0
LINE
  8
0
 62
7
  6
CONTINUOUS
 10
125.5047093284
 20
204.2830519768
 11
125.363800908
 21
204.2643948138
  0
LINE
  8
0
 62
7
  6
CONTINUOUS
 10
125.2617585588
 20
204.5623138992
 11
125.543574987
 21
204.5996268547
  0
LINE
  8
0
 62
7
  6
CONTINUOUS
 10
125.7061332515
 20
204.2814085313
 11
125.5047093284
 21
204.2830519768
  0
LINE
  8
0
 62
7
  6
CONTINUOUS
 10
125.7945078708
 20
202.537780828
 11
125.5325675352
 21
202.5597221696
  0
LINE
  8
0
 62
7
  6
CONTINUOUS
 10
122.1883992284
 20
194.4025273327
 11
121.998459024
 21
194.4695884635
  0
LINE
  8
0
 62
7
  6
CONTINUOUS
 10
122.7982639578
 20
195.8254601549
 11
122.6083237534
 21
195.8925212857
  0
LINE
  8
0
 62
7
  6
CONTINUOUS
 10
121.8999797974
 20
196.7517097715
 11
121.710039593
 21
196.8187709023
  0
LINE
  8
0
 62
7
  6
CONTINUOUS
 10
117.4478441946
 20
189.8576878314
 11
117.2784673602
 21
189.9667097819
  0
LINE
  8
0
 62
7
  6
CONTINUOUS
 10
117.5289481628
 20
190.2529939609
 11
117.69832511
 21
190.1439718718
  0
LINE
  8
0
 62
7
  6
CONTINUOUS
 10
116.6417551051
 20
190.8475954752
 11
116.4723782143
 21
190.956617495
  0
LINE
  8
0
 62
7
  6
CONTINUOUS
 10
116.7228591298
 20
191.2429015353
 11
116.8922360206
 21
191.1338795155
  0
LINE
  8
0
 62
7
  6
CONTINUOUS
 10
78.065668459
 20
226.4319126692
 11
78.1980314944
 21
226.2800726301
  0
LINE
  8
0
 62
7
  6
CONTINUOUS
 10
78.4450883569
 20
226.5693167268
 11
78.3127253214
 21
226.7211567659
  0
LINE
  8
0
 62
7
  6
CONTINUOUS
 10
79.9524732941
 20
227.2598902258
 11
78.9277092267
 21
228.7553457751
  0
LINE
  8
0
 62
7
  6
CONTINUOUS
 10
80.5724218839
 20
226.3902189091
 11
80.1169758558
 21
227.0548718543
  0
LINE
  8
0
 62
7
  6
CONTINUOUS
 10
78.5729607303
 20
228.7124569744
 11
80.3441211885
 21
226.0927230394
  0
LINE
  8
0
 62
7
  6
CONTINUOUS
 10
80.9478605052
 20
230.1865996182
 11
80.853821601
 21
230.3647347456
  0
LINE
  8
0
 62
7
  6
CONTINUOUS
 10
81.681366215
 20
229.4759835527
 11
81.587327375
 21
229.6541186179
  0
LINE
  8
0
 62
7
  6
CONTINUOUS
 10
82.9061094357
 20
230.4649740998
 11
83.0001482115
 21
230.2868390968
  0
LINE
  8
0
 62
7
  6
CONTINUOUS
 10
83.3116387573
 20
230.3331601356
 11
83.1693893506
 21
230.6450002336
  0
LINE
  8
0
 62
7
  6
CONTINUOUS
 10
97.9936214993
 20
177.7582964271
 11
98.2929724084
 21
173.0266070347
  0
LINE
  8
0
 62
7
  6
CONTINUOUS
 10
98.2929724084
 20
250.7020581732
 11
97.9936214993
 21
245.9703687808
  0
LINE
  8
0
 62
7
  6
CONTINUOUS
 10
85.5274782388
 20
191.0288230678
 11
85.5988800162
 21
191.2171749765
  0
LINE
  8
0
 62
7
  6
CONTINUOUS
 10
83.2631782131
 20
191.7045779413
 11
83.1117145725
 21
191.4167923303
  0
LINE
  8
0
 62
7
  6
CONTINUOUS
 10
85.3760189992
 20
190.7410337987
 11
85.5274782388
 21
191.0288230678
  0
LINE
  8
0
 62
7
  6
CONTINUOUS
 10
83.3551317742
 20
191.2208160559
 11
83.5466196609
 21
191.5583239007
  0
LINE
  8
0
 62
7
  6
CONTINUOUS
 10
85.2840654941
 20
191.2247957537
 11
85.0925730944
 21
190.8872914277
  0
LINE
  8
0
 62
7
  6
CONTINUOUS
 10
78.5089577803
 20
186.0027400253
 11
75.9699205097
 21
181.9987688451
  0
LINE
  8
0
 62
7
  6
CONTINUOUS
 10
121.6264051541
 20
244.8395288619
 11
118.6030079381
 21
241.1874657809
  0
LINE
  8
0
 62
7
  6
CONTINUOUS
 10
67.5914960622
 20
204.1254329853
 11
63.1838965507
 21
202.3785609182
  0
LINE
  8
0
 62
7
  6
CONTINUOUS
 10
127.4655814231
 20
212.8129315974
 11
127.1512792446
 21
212.7294068709
  0
LINE
  8
0
 62
7
  6
CONTINUOUS
 10
127.1305576164
 20
213.0412189771
 11
127.4448597713
 21
213.1247440605
  0
LINE
  8
0
 62
7
  6
CONTINUOUS
 10
64.8187271027
 20
197.3470698421
 11
69.4113356506
 21
198.5245426438
  0
LINE
  8
0
 62
7
  6
CONTINUOUS
 10
132.4650319642
 20
198.5245426438
 11
137.0576405122
 21
197.3470698421
  0
LINE
  8
0
 62
7
  6
CONTINUOUS
 10
63.1838965507
 20
221.3501042897
 11
67.5914960622
 21
219.6032322226
  0
LINE
  8
0
 62
7
  6
CONTINUOUS
 10
122.7354778362
 20
196.2676929828
 11
122.9760423106
 21
196.1617548144
  0
LINE
  8
0
 62
7
  6
CONTINUOUS
 10
121.8878179458
 20
197.1550655618
 11
122.1283824202
 21
197.0491273935
  0
LINE
  8
0
 62
7
  6
CONTINUOUS
 10
118.6030079381
 20
182.5411994269
 11
121.6264051541
 21
178.889136346
  0
LINE
  8
0
 62
7
  6
CONTINUOUS
 10
80.6845805903
 20
230.0065734844
 11
80.9619957775
 21
229.6507844806
  0
LINE
  8
0
 62
7
  6
CONTINUOUS
 10
81.1794395525
 20
229.8752323341
 11
80.9478605052
 21
230.1865996182
  0
LINE
  8
0
 62
7
  6
CONTINUOUS
 10
75.9699205097
 20
241.7298963628
 11
78.5089577803
 21
237.7259251826
  0
LINE
  8
0
 62
2
  6
CONTINUOUS
 10
100.9381838074
 20
212.7443326039
 11
100.9381838074
 21
210.9843326039
  0
LINE
  8
DEFAULT_1
 62
2
  6
CENTER
 10
100.9381838074
 20
207.4643326039
 11
100.9381838074
 21
168.7773326039
  0
LINE
  8
DEFAULT_1
 62
2
  6
CENTER
 10
100.9381838074
 20
216.2643326039
 11
100.9381838074
 21
254.9513326039
  0
LINE
  8
0
 62
7
  6
CONTINUOUS
 10
87.5825204483
 20
190.6938635817
 11
87.394608524
 21
190.3601544111
  0
LINE
  8
0
 62
7
  6
CONTINUOUS
 10
86.3297742566
 20
188.4691357259
 11
86.1105437038
 21
188.0798084056
  0
LINE
  8
0
 62
7
  6
CONTINUOUS
 10
86.5566478449
 20
191.4116543354
 11
84.8680582829
 21
188.9320040997
  0
LINE
  8
0
 62
7
  6
CONTINUOUS
 10
85.465434028
 20
189.1429984794
 11
86.8666041243
 21
191.2005806401
  0
LINE
  8
0
 62
7
  6
CONTINUOUS
 10
85.7394628743
 20
188.8791662748
 11
86.0268824406
 21
189.3012344975
  0
LINE
  8
0
 62
7
  6
CONTINUOUS
 10
83.6234365407
 20
192.1520457497
 11
83.2631782131
 21
191.7045779413
  0
LINE
  8
0
 62
7
  6
CONTINUOUS
 10
83.5466196609
 20
191.5583239007
 11
83.8268205823
 21
191.9063544184
  0
LINE
  8
0
 62
7
  6
CONTINUOUS
 10
127.7700313331
 20
215.3453185166
 11
126.1320147473
 21
215.0786935588
  0
LINE
  8
0
 62
7
  6
CONTINUOUS
 10
126.3338114898
 20
215.4281534808
 11
127.7198255002
 21
215.6537592104
  0
LINE
  8
0
 62
7
  6
CONTINUOUS
 10
127.1512792446
 20
212.7294068709
 11
125.9411824044
 21
212.6489892854
  0
LINE
  8
0
 62
7
  6
CONTINUOUS
 10
125.9204607763
 20
212.9608013917
 11
127.1305576164
 21
213.0412189771
  0
LINE
  8
0
 62
7
  6
CONTINUOUS
 10
128.9386166451
 20
211.8511057953
 11
128.6194719104
 21
211.8494756159
  0
LINE
  8
0
 62
7
  6
CONTINUOUS
 10
127.9811822622
 20
211.8462152561
 11
125.9386557812
 21
211.8357821067
  0
LINE
  8
0
 62
7
  6
CONTINUOUS
 10
125.9370595643
 20
212.1482779109
 11
127.9795860452
 21
212.1587110602
  0
LINE
  8
0
 62
7
  6
CONTINUOUS
 10
128.6178756934
 20
212.16197142
 11
128.9370204281
 21
212.1636015994
  0
LINE
  8
0
 62
2
  6
CONTINUOUS
 10
101.8181838074
 20
211.8643326039
 11
100.0581838074
 21
211.8643326039
  0
LINE
  8
DEFAULT_1
 62
2
  6
CENTER
 10
96.5381838074
 20
211.8643326039
 11
57.8511838074
 21
211.8643326039
  0
LINE
  8
DEFAULT_1
 62
2
  6
CENTER
 10
105.3381838074
 20
211.8643326039
 11
144.0251838074
 21
211.8643326039
  0
LINE
  8
0
 62
7
  6
CONTINUOUS
 10
125.543574987
 20
204.5996268547
 11
125.9265472378
 21
204.5370870086
  0
LINE
  8
0
 62
7
  6
CONTINUOUS
 10
128.2462959049
 20
205.5768340019
 11
127.8699329823
 21
205.647711488
  0
LINE
  8
0
 62
7
  6
CONTINUOUS
 10
127.1007471491
 20
206.046961258
 11
126.7243842264
 21
206.1178387442
  0
LINE
  8
0
 62
7
  6
CONTINUOUS
 10
127.976008733
 20
204.585566404
 11
125.0748373191
 21
205.3492446261
  0
LINE
  8
0
 62
7
  6
CONTINUOUS
 10
125.1543871946
 20
205.6514502123
 11
128.0555586085
 21
204.8877719902
  0
LINE
  8
0
 62
7
  6
CONTINUOUS
 10
125.5325675352
 20
202.5597221696
 11
125.2905036201
 21
202.6409192072
  0
LINE
  8
0
 62
7
  6
CONTINUOUS
 10
125.6319496064
 20
202.8559991514
 11
125.7529815215
 21
202.8154006468
  0
LINE
  8
0
 62
7
  6
CONTINUOUS
 10
76.3051129875
 20
225.2265456783
 11
78.8808581131
 21
223.688515429
  0
LINE
  8
0
 62
7
  6
CONTINUOUS
 10
79.0731089607
 20
224.0104786569
 11
77.922244101
 21
224.6976836716
  0
LINE
  8
0
 62
7
  6
CONTINUOUS
 10
77.5934256135
 20
224.8940279354
 11
76.7713792413
 21
225.3848886864
  0
LINE
  8
0
 62
7
  6
CONTINUOUS
 10
120.8717720989
 20
195.098420567
 11
120.6186507487
 21
195.2928057548
  0
LINE
  8
0
 62
7
  6
CONTINUOUS
 10
120.8976776416
 20
195.5513463393
 11
121.0495504517
 21
195.4347152266
  0
LINE
  8
0
 62
7
  6
CONTINUOUS
 10
80.9619957775
 20
229.6507844806
 11
81.2829044974
 21
229.3398899792
  0
LINE
  8
0
 62
7
  6
CONTINUOUS
 10
81.2711277582
 20
229.7864053337
 11
81.1794395525
 21
229.8752323341
  0
LINE
  8
0
 62
7
  6
CONTINUOUS
 10
81.8188985236
 20
229.3427430521
 11
81.681366215
 21
229.4759835527
  0
LINE
  8
0
 62
7
  6
CONTINUOUS
 10
120.1462156399
 20
191.4532078939
 11
117.9948701201
 21
193.5440719387
  0
LINE
  8
0
 62
7
  6
CONTINUOUS
 10
118.5766412821
 20
193.5015848514
 11
120.4075736455
 21
191.7221260839
  0
LINE
  8
0
 62
7
  6
CONTINUOUS
 10
117.2784673602
 20
189.9667097819
 11
117.117249452
 21
190.1646914215
  0
LINE
  8
0
 62
7
  6
CONTINUOUS
 10
116.4723782143
 20
190.956617495
 11
116.2708559702
 21
191.2040943712
  0
LINE
  8
0
 62
7
  6
CONTINUOUS
 10
116.6019457833
 20
191.3913876611
 11
116.7228591298
 21
191.2429015353
  0
LINE
  8
0
 62
7
  6
CONTINUOUS
 10
117.4483392651
 20
190.3519847114
 11
117.5289481628
 21
190.2529939609
  0
LINE
  8
0
 62
7
  6
CONTINUOUS
 10
88.2889246791
 20
186.8531601826
 11
88.4455179311
 21
187.1312511256
  0
LINE
  8
0
 62
7
  6
CONTINUOUS
 10
89.5103521985
 20
189.0222698109
 11
89.7609014237
 21
189.4672153587
  0
LINE
  8
0
 62
7
  6
CONTINUOUS
 10
85.0925730944
 20
190.8872914277
 11
84.812372173
 21
190.53926091
  0
LINE
  8
0
 62
7
  6
CONTINUOUS
 10
85.0157606717
 20
190.2935659903
 11
85.3760189992
 21
190.7410337987
  0
LINE
  8
0
 62
7
  6
CONTINUOUS
 10
83.8268205823
 20
191.9063544184
 11
84.1156771884
 21
192.1654703878
  0
LINE
  8
0
 62
7
  6
CONTINUOUS
 10
83.8722599867
 20
192.3614466621
 11
83.6234365407
 21
192.1520457497
  0
LINE
  8
0
 62
7
  6
CONTINUOUS
 10
127.5190022153
 20
216.8875216989
 11
126.2589894706
 21
216.6824255797
  0
LINE
  8
0
 62
7
  6
CONTINUOUS
 10
126.2087836485
 20
216.9908662073
 11
127.4687963932
 21
217.1959623265
  0
LINE
  8
0
 62
7
  6
CONTINUOUS
 10
127.8839206005
 20
214.2187655383
 11
127.5654741106
 21
214.197603019
  0
LINE
  8
0
 62
7
  6
CONTINUOUS
 10
127.3107169187
 20
214.1806730035
 11
125.8458628866
 21
214.0833254025
  0
LINE
  8
0
 62
7
  6
CONTINUOUS
 10
125.8251412466
 20
214.3951376872
 11
127.8631989606
 21
214.530577823
  0
LINE
  8
0
 62
7
  6
CONTINUOUS
 10
128.216937383
 20
207.49032185
 11
127.4014842082
 21
207.6438897698
  0
LINE
  8
0
 62
7
  6
CONTINUOUS
 10
127.0251212855
 20
207.7147672559
 11
125.6451237266
 21
207.974651405
  0
LINE
  8
0
 62
7
  6
CONTINUOUS
 10
125.7145246068
 20
208.3431734774
 11
128.6627011859
 21
207.7879664362
  0
LINE
  8
0
 62
7
  6
CONTINUOUS
 10
126.1098689891
 20
204.0800594254
 11
126.0493530315
 21
204.1003586777
  0
LINE
  8
0
 62
7
  6
CONTINUOUS
 10
125.8271651666
 20
204.2408100267
 11
125.7061332515
 21
204.2814085313
  0
LINE
  8
0
 62
7
  6
CONTINUOUS
 10
77.9012590617
 20
226.5300848927
 11
78.065668459
 21
226.4319126692
  0
LINE
  8
0
 62
7
  6
CONTINUOUS
 10
78.3127253214
 20
226.7211567659
 11
78.0935128429
 21
226.8520530334
  0
LINE
  8
0
 62
7
  6
CONTINUOUS
 10
81.2829044974
 20
229.3398899792
 11
81.6473068144
 21
229.0738899178
  0
LINE
  8
0
 62
7
  6
CONTINUOUS
 10
122.8995124979
 20
195.7477060798
 11
122.7982639578
 21
195.8254601549
  0
LINE
  8
0
 62
7
  6
CONTINUOUS
 10
122.9760423106
 20
196.1617548144
 11
123.1785395326
 21
196.0062465553
  0
LINE
  8
0
 62
7
  6
CONTINUOUS
 10
82.7685771272
 20
230.5982146004
 11
82.9061094357
 21
230.4649740998
  0
LINE
  8
0
 62
7
  6
CONTINUOUS
 10
83.1693893506
 20
230.6450002336
 11
82.9401687722
 21
230.8670677969
  0
LINE
  8
0
 62
7
  6
CONTINUOUS
 10
121.3526038529
 20
193.2439957356
 11
119.4758981538
 21
195.0679409981
  0
LINE
  8
0
 62
7
  6
CONTINUOUS
 10
119.7372561594
 20
195.3368591881
 11
121.8886016793
 21
193.2459951432
  0
LINE
  8
0
 62
7
  6
CONTINUOUS
 10
118.9823799137
 20
190.9426404064
 11
118.4181175172
 21
191.6355757986
  0
LINE
  8
0
 62
7
  6
CONTINUOUS
 10
118.1762908242
 20
191.9325480501
 11
117.5717240071
 21
192.6749787829
  0
LINE
  8
0
 62
7
  6
CONTINUOUS
 10
117.6206826502
 20
193.2087397342
 11
119.5149919709
 21
190.8824568199
  0
LINE
  8
0
 62
7
  6
CONTINUOUS
 10
103.8827461156
 20
245.9703687808
 11
103.5833952065
 21
250.7020581732
  0
LINE
  8
0
 62
7
  6
CONTINUOUS
 10
103.5833952065
 20
173.0266070347
 11
103.8827461156
 21
177.7582964271
  0
LINE
  8
0
 62
7
  6
CONTINUOUS
 10
123.3674098346
 20
237.7259251826
 11
125.9064471052
 21
241.7298963628
  0
LINE
  8
0
 62
7
  6
CONTINUOUS
 10
80.2499624608
 20
178.889136346
 11
83.2733596768
 21
182.5411994269
  0
LINE
  8
0
 62
7
  6
CONTINUOUS
 10
84.812372173
 20
190.53926091
 11
84.5235200799
 21
190.2801414219
  0
LINE
  8
0
 62
7
  6
CONTINUOUS
 10
84.7669328246
 20
190.0841687359
 11
85.0157606717
 21
190.2935659903
  0
LINE
  8
0
 62
7
  6
CONTINUOUS
 10
84.0410304277
 20
192.4714066257
 11
83.8722599867
 21
192.3614466621
  0
LINE
  8
0
 62
7
  6
CONTINUOUS
 10
126.2589894706
 20
216.6824255797
 11
126.080028738
 21
216.5899730296
  0
LINE
  8
0
 62
7
  6
CONTINUOUS
 10
125.966822238
 20
216.8881588503
 11
126.2087836485
 21
216.9908662073
  0
LINE
  8
0
 62
7
  6
CONTINUOUS
 10
126.1320147473
 20
215.0786935588
 11
125.8900533379
 21
214.9759862643
  0
LINE
  8
0
 62
7
  6
CONTINUOUS
 10
134.2848715526
 20
219.6032322226
 11
138.6924710642
 21
221.3501042897
  0
LINE
  8
0
 62
7
  6
CONTINUOUS
 10
137.0576405122
 20
226.3815953657
 11
132.4650319642
 21
225.2041225641
  0
LINE
  8
0
 62
7
  6
CONTINUOUS
 10
69.4113356506
 20
225.2041225641
 11
64.8187271027
 21
226.3815953657
  0
LINE
  8
0
 62
7
  6
CONTINUOUS
 10
138.6924710642
 20
202.3785609182
 11
134.2848715526
 21
204.1254329853
  0
LINE
  8
0
 62
7
  6
CONTINUOUS
 10
81.9999243649
 20
229.2543970538
 11
81.8188985236
 21
229.3427430521
  0
LINE
  8
0
 62
7
  6
CONTINUOUS
 10
125.9265472378
 20
204.5370870086
 11
126.2697665629
 21
204.3560357987
  0
LINE
  8
0
 62
7
  6
CONTINUOUS
 10
124.9274078745
 20
202.762714721
 11
124.705220507
 21
202.903167412
  0
LINE
  8
0
 62
7
  6
CONTINUOUS
 10
124.8651180808
 20
203.1791437853
 11
125.0267899457
 21
203.0589917028
  0
LINE
  8
0
 62
7
  6
CONTINUOUS
 10
83.2733596768
 20
241.1874657809
 11
80.2499624608
 21
244.8395288619
  0
LINE
  8
0
 62
7
  6
CONTINUOUS
 10
123.1785395326
 20
196.0062465553
 11
123.3429692186
 21
195.8011684232
  0
LINE
  8
0
 62
7
  6
CONTINUOUS
 10
125.9064471052
 20
181.9987688451
 11
123.3674098346
 21
186.0027400253
  0
LINE
  8
0
 62
7
  6
CONTINUOUS
 10
116.2708559702
 20
191.2040943712
 11
116.1984060833
 21
191.392044707
  0
LINE
  8
0
 62
7
  6
CONTINUOUS
 10
116.5294959247
 20
191.5793379622
 11
116.6019457833
 21
191.3913876611
  0
LINE
  8
0
 62
7
  6
CONTINUOUS
 10
117.117249452
 20
190.1646914215
 11
117.0447995934
 21
190.3526417226
  0
LINE
  8
0
 62
7
  6
CONTINUOUS
 10
117.3758894065
 20
190.5399350125
 11
117.4483392651
 21
190.3519847114
  0
LINE
  8
0
 62
7
  6
CONTINUOUS
 10
125.8508621373
 20
216.805961111
 11
125.966822238
 21
216.8881588503
  0
LINE
  8
0
 62
7
  6
CONTINUOUS
 10
84.5981622715
 20
189.974208633
 11
84.7669328246
 21
190.0841687359
  0
LINE
  8
0
 62
7
  6
CONTINUOUS
 10
125.7238874122
 20
215.2022291012
 11
126.0188082815
 21
215.3768794474
  0
LINE
  8
0
 62
7
  6
CONTINUOUS
 10
84.2985094744
 20
192.5918928853
 11
84.0410304277
 21
192.4714066257
  0
LINE
  8
0
 62
7
  6
CONTINUOUS
 10
127.6525049819
 20
212.887991673
 11
127.4655814231
 21
212.8129315974
  0
LINE
  8
0
 62
7
  6
CONTINUOUS
 10
77.7048036097
 20
226.5745891174
 11
77.9012590617
 21
226.5300848927
  0
LINE
  8
0
 62
7
  6
CONTINUOUS
 10
78.0935128429
 20
226.8520530334
 11
77.8970573909
 21
226.8965572581
  0
LINE
  8
0
 62
7
  6
CONTINUOUS
 10
81.8661304694
 20
228.0760348898
 11
78.8773570127
 21
229.1091120814
  0
LINE
  8
0
 62
7
  6
CONTINUOUS
 10
80.877973529
 20
228.0465187007
 11
81.637829774
 21
227.7785390202
  0
LINE
  8
0
 62
7
  6
CONTINUOUS
 10
78.9277092267
 20
228.7553457751
 11
80.6373753803
 21
228.1523778348
  0
LINE
  8
0
 62
7
  6
CONTINUOUS
 10
81.6473068144
 20
229.0738899178
 11
81.9634985004
 21
228.9415949515
  0
LINE
  8
0
 62
7
  6
CONTINUOUS
 10
82.9401687722
 20
230.8670677969
 11
82.6239771183
 21
230.9993627321
  0
LINE
  8
0
 62
7
  6
CONTINUOUS
 10
82.5875512216
 20
230.6865606609
 11
82.7685771272
 21
230.5982146004
  0
LINE
  8
0
 62
7
  6
CONTINUOUS
 10
82.0280036528
 20
231.5767383592
 11
81.8469778115
 21
231.6650843575
  0
LINE
  8
0
 62
7
  6
CONTINUOUS
 10
123.0133180556
 20
195.5815048764
 11
122.8995124979
 21
195.7477060798
  0
LINE
  8
0
 62
7
  6
CONTINUOUS
 10
120.6186507487
 20
195.2928057548
 11
120.4922884215
 21
195.547453896
  0
LINE
  8
0
 62
7
  6
CONTINUOUS
 10
116.1984060833
 20
191.392044707
 11
116.1825809561
 21
191.7084205579
  0
LINE
  8
0
 62
7
  6
CONTINUOUS
 10
117.0447995934
 20
190.3526417226
 11
117.0289744802
 21
190.6690175562
  0
LINE
  8
0
 62
4
  6
CONTINUOUS
 10
107.8989156146
 20
197.6118609755
 11
105.0704884899
 21
194.7834338508
  0
LINE
  8
0
 62
4
  6
CONTINUOUS
 10
115.1906554358
 20
204.9036007967
 11
118.0190825606
 21
207.7320279215
  0
LINE
  8
0
 62
7
  6
CONTINUOUS
 10
126.080028738
 20
216.5899730296
 11
125.9111091271
 21
216.435832338
  0
LINE
  8
0
 62
7
  6
CONTINUOUS
 10
125.8900533379
 20
214.9759862643
 11
125.7740932451
 21
214.8937884074
  0
LINE
  8
0
 62
7
  6
CONTINUOUS
 10
84.3406832528
 20
189.8537224082
 11
84.5981622715
 21
189.974208633
  0
LINE
  8
0
 62
7
  6
CONTINUOUS
 10
84.1156771884
 20
192.1654703878
 11
84.5505778478
 21
192.3070055814
  0
LINE
  8
0
 62
7
  6
CONTINUOUS
 10
84.5235200799
 20
190.2801414219
 11
84.0886148795
 21
190.1386097121
  0
LINE
  8
0
 62
7
  6
CONTINUOUS
 10
81.9634985004
 20
228.9415949515
 11
82.2773396003
 21
228.8986080033
  0
LINE
  8
0
 62
7
  6
CONTINUOUS
 10
82.2244278452
 20
229.2109290879
 11
81.9999243649
 21
229.2543970538
  0
LINE
  8
0
 62
7
  6
CONTINUOUS
 10
81.5860484666
 20
231.3957502212
 11
81.8105598778
 21
231.3522905058
  0
LINE
  8
0
 62
7
  6
CONTINUOUS
 10
126.1247272227
 20
215.5207652824
 11
126.3338114898
 21
215.4281534808
  0
LINE
  8
0
 62
7
  6
CONTINUOUS
 10
126.211024399
 20
203.9802052532
 11
126.1098689891
 21
204.0800594254
  0
LINE
  8
0
 62
7
  6
CONTINUOUS
 10
126.2697665629
 20
204.3560357987
 11
126.4720778378
 21
204.1563288106
  0
LINE
  8
0
 62
4
  6
CONTINUOUS
 10
105.0704884899
 20
228.9452313571
 11
107.8989156146
 21
226.1168042323
  0
LINE
  8
0
 62
4
  6
CONTINUOUS
 10
118.0190825606
 20
215.9966372864
 11
115.1906554358
 21
218.8250644111
  0
LINE
  8
0
 62
7
  6
CONTINUOUS
 10
120.8219396199
 20
195.7671174156
 11
120.8976776416
 21
195.5513463393
  0
LINE
  8
0
 62
7
  6
CONTINUOUS
 10
116.5458161931
 20
191.7572589045
 11
116.5294959247
 21
191.5793379622
  0
LINE
  8
0
 62
7
  6
CONTINUOUS
 10
117.3922097031
 20
190.7178559202
 11
117.3758894065
 21
190.5399350125
  0
LINE
  8
0
 62
7
  6
CONTINUOUS
 10
125.691983709
 20
216.5901323218
 11
125.8508621373
 21
216.805961111
  0
LINE
  8
0
 62
7
  6
CONTINUOUS
 10
127.4448597713
 20
213.1247440605
 11
127.5639497207
 21
213.2579338394
  0
LINE
  8
0
 62
7
  6
CONTINUOUS
 10
127.7715949314
 20
213.0211814519
 11
127.6525049819
 21
212.887991673
  0
LINE
  8
0
 62
4
  6
CONTINUOUS
 10
113.3287003763
 20
200.7789040374
 11
112.023612374
 21
199.4738160351
  0
LINE
  8
0
 62
7
  6
CONTINUOUS
 10
125.100973612
 20
204.4844010756
 11
125.2617585588
 21
204.5623138992
  0
LINE
  8
0
 62
7
  6
CONTINUOUS
 10
125.363800908
 20
204.2643948138
 11
125.1226239321
 21
204.1475269383
  0
LINE
  8
0
 62
7
  6
CONTINUOUS
 10
126.0962007619
 20
202.6343494654
 11
125.7945078708
 21
202.537780828
  0
LINE
  8
0
 62
7
  6
CONTINUOUS
 10
89.2462326023
 20
189.3175032812
 11
86.3297742566
 21
188.4691357259
  0
LINE
  8
0
 62
7
  6
CONTINUOUS
 10
124.7098110631
 20
201.2788837177
 11
126.0014427142
 21
201.6534737103
  0
LINE
  8
0
 62
7
  6
CONTINUOUS
 10
124.5548006883
 20
200.9374210057
 11
123.2631684459
 21
200.5628297106
  0
LINE
  8
0
 62
7
  6
CONTINUOUS
 10
77.8970573909
 20
226.8965572581
 11
77.5817181753
 21
226.8664693635
  0
LINE
  8
0
 62
7
  6
CONTINUOUS
 10
82.4088918763
 20
230.6856150955
 11
82.5875512216
 21
230.6865606609
  0
LINE
  8
0
 62
7
  6
CONTINUOUS
 10
82.6239771183
 20
230.9993627321
 11
82.3559801373
 21
230.9979361645
  0
LINE
  8
0
 62
7
  6
CONTINUOUS
 10
81.8469778115
 20
231.6650843575
 11
81.5331367276
 21
231.7080712902
  0
LINE
  8
0
 62
7
  6
CONTINUOUS
 10
126.0188082815
 20
215.3768794474
 11
125.7996828704
 21
215.531179319
  0
LINE
  8
0
 62
7
  6
CONTINUOUS
 10
127.446384173
 20
214.0644130617
 11
127.3107169187
 21
214.1806730035
  0
LINE
  8
0
 62
7
  6
CONTINUOUS
 10
127.5654741106
 20
214.197603019
 11
127.701141365
 21
214.0813430772
  0
LINE
  8
0
 62
4
  6
CONTINUOUS
 10
113.3287003763
 20
222.9497611705
 11
112.023612374
 21
224.2548491728
  0
LINE
  8
0
 62
7
  6
CONTINUOUS
 10
124.705220507
 20
202.903167412
 11
124.5833016737
 21
203.1418308226
  0
LINE
  8
0
 62
7
  6
CONTINUOUS
 10
126.3329432111
 20
203.7415418497
 11
126.211024399
 21
203.9802052532
  0
LINE
  8
0
 62
7
  6
CONTINUOUS
 10
126.4720778378
 20
204.1563288106
 11
126.5533567425
 21
203.9972189707
  0
LINE
  8
0
 62
7
  6
CONTINUOUS
 10
124.4579419584
 20
201.1873065862
 11
123.9865503925
 21
202.1563228007
  0
LINE
  8
0
 62
7
  6
CONTINUOUS
 10
124.8066698744
 20
201.0289981002
 11
125.2780607676
 21
200.0599806201
  0
LINE
  8
0
 62
7
  6
CONTINUOUS
 10
125.1230503927
 20
199.7185179081
 11
124.5548006883
 21
200.9374210057
  0
LINE
  8
0
 62
7
  6
CONTINUOUS
 10
124.1415607674
 20
202.4977855127
 11
124.7098110631
 21
201.2788837177
  0
LINE
  8
0
 62
7
  6
CONTINUOUS
 10
120.4922884215
 20
195.547453896
 11
120.442059158
 21
195.9012397181
  0
LINE
  8
0
 62
7
  6
CONTINUOUS
 10
120.8348923558
 20
195.993580329
 11
120.8219396199
 21
195.7671174156
  0
LINE
  8
0
 62
7
  6
CONTINUOUS
 10
123.0003652843
 20
195.3550419903
 11
123.0133180556
 21
195.5815048764
  0
LINE
  8
0
 62
7
  6
CONTINUOUS
 10
120.442059158
 20
195.9012397181
 11
120.4930793103
 21
196.1772725963
  0
LINE
  8
0
 62
7
  6
CONTINUOUS
 10
116.1825809561
 20
191.7084205579
 11
116.255523769
 21
192.0147652045
  0
LINE
  8
0
 62
7
  6
CONTINUOUS
 10
125.9111091271
 20
216.435832338
 11
125.8252724956
 21
216.1685702307
  0
LINE
  8
0
 62
7
  6
CONTINUOUS
 10
125.5961059244
 20
216.3845583055
 11
125.691983709
 21
216.5901323218
  0
LINE
  8
0
 62
7
  6
CONTINUOUS
 10
127.8865405458
 20
213.2167337948
 11
127.7715949314
 21
213.0211814519
  0
LINE
  8
0
 62
7
  6
CONTINUOUS
 10
125.1226239321
 20
204.1475269383
 11
125.022355419
 21
204.0493162116
  0
LINE
  8
0
 62
7
  6
CONTINUOUS
 10
126.3771302509
 20
202.8697273341
 11
126.0962007619
 21
202.6343494654
  0
LINE
  8
0
 62
7
  6
CONTINUOUS
 10
124.9203126255
 20
204.3472339371
 11
125.100973612
 21
204.4844010756
  0
LINE
  8
0
 62
7
  6
CONTINUOUS
 10
125.9742819498
 20
202.8730128689
 11
126.1549429257
 21
203.010180011
  0
LINE
  8
0
 62
7
  6
CONTINUOUS
 10
121.1782871789
 20
197.0695254622
 11
121.520495231
 21
197.2007419795
  0
LINE
  8
0
 62
7
  6
CONTINUOUS
 10
122.6083237534
 20
195.8925212857
 11
122.3928739019
 21
195.8215665498
  0
LINE
  8
0
 62
7
  6
CONTINUOUS
 10
121.2775581213
 20
195.4172240232
 11
121.4930079728
 21
195.488178759
  0
LINE
  8
0
 62
7
  6
CONTINUOUS
 10
82.2773396003
 20
228.8986080033
 11
82.6323156959
 21
228.9898153445
  0
LINE
  8
0
 62
7
  6
CONTINUOUS
 10
82.3559801373
 20
230.9979361645
 11
82.0010040537
 21
230.9067288117
  0
LINE
  8
0
 62
7
  6
CONTINUOUS
 10
77.5311167649
 20
226.5327210422
 11
77.7048036097
 21
226.5745891174
  0
LINE
  8
0
 62
7
  6
CONTINUOUS
 10
82.4465807233
 20
229.2567691556
 11
82.2244278452
 21
229.2109290879
  0
LINE
  8
0
 62
7
  6
CONTINUOUS
 10
82.1867389982
 20
230.6397750278
 11
82.4088918763
 21
230.6856150955
  0
LINE
  8
0
 62
7
  6
CONTINUOUS
 10
81.3638955885
 20
231.3499101534
 11
81.5860484666
 21
231.3957502212
  0
LINE
  8
0
 62
7
  6
CONTINUOUS
 10
125.968602463
 20
215.685320053
 11
126.1247272227
 21
215.5207652824
  0
LINE
  8
0
 62
7
  6
CONTINUOUS
 10
127.5861957387
 20
213.8857909127
 11
127.446384173
 21
214.0644130617
  0
LINE
  8
0
 62
7
  6
CONTINUOUS
 10
127.701141365
 20
214.0813430772
 11
127.8409529307
 21
213.9027209282
  0
LINE
  8
0
 62
7
  6
CONTINUOUS
 10
125.7996828704
 20
215.531179319
 11
125.7165998931
 21
215.6443008257
  0
LINE
  8
0
 62
7
  6
CONTINUOUS
 10
124.8037152264
 20
203.3975079365
 11
124.8651180808
 21
203.1791437853
  0
LINE
  8
0
 62
7
  6
CONTINUOUS
 10
126.5533567425
 20
203.9972189707
 11
126.6147595969
 21
203.7788548195
  0
LINE
  8
0
 62
7
  6
CONTINUOUS
 10
124.5833016737
 20
203.1418308226
 11
124.5417753086
 21
203.4194506468
  0
LINE
  8
0
 62
7
  6
CONTINUOUS
 10
123.3429692186
 20
195.8011684232
 11
123.3931984644
 21
195.4473826147
  0
LINE
  8
0
 62
7
  6
CONTINUOUS
 10
125.9411824044
 20
212.6489892854
 11
125.9204607763
 21
212.9608013917
  0
LINE
  8
0
 62
7
  6
CONTINUOUS
 10
125.8458628866
 20
214.0833254025
 11
125.8251412466
 21
214.3951376872
  0
LINE
  8
0
 62
7
  6
CONTINUOUS
 10
125.9386557812
 20
211.8357821067
 11
125.9370595643
 21
212.1482779109
  0
LINE
  8
0
 62
7
  6
CONTINUOUS
 10
126.6147595969
 20
203.7788548195
 11
126.6156464938
 21
203.5807899206
  0
LINE
  8
0
 62
7
  6
CONTINUOUS
 10
126.3347170048
 20
203.3454120519
 11
126.3537066131
 21
203.6027326184
  0
LINE
  8
0
 62
7
  6
CONTINUOUS
 10
125.5732699423
 20
216.1275510061
 11
125.5961059244
 21
216.3845583055
  0
LINE
  8
0
 62
7
  6
CONTINUOUS
 10
126.6156464938
 20
203.5807899206
 11
126.5569043299
 21
203.2049593751
  0
LINE
  8
0
 62
7
  6
CONTINUOUS
 10
124.5417753086
 20
203.4194506468
 11
124.6203935175
 21
203.8545355055
  0
LINE
  8
0
 62
7
  6
CONTINUOUS
 10
124.8823338743
 20
203.8325941568
 11
124.8037152264
 21
203.3975079365
  0
LINE
  8
0
 62
7
  6
CONTINUOUS
 10
123.3931984644
 20
195.4473826147
 11
123.3421782988
 21
195.1713497468
  0
LINE
  8
0
 62
7
  6
CONTINUOUS
 10
127.6193503722
 20
213.3868911144
 11
127.6664623535
 21
213.6405735174
  0
LINE
  8
0
 62
7
  6
CONTINUOUS
 10
125.6451237266
 20
207.974651405
 11
125.7145246068
 21
208.3431734774
  0
LINE
  8
0
 62
7
  6
CONTINUOUS
 10
126.7243842264
 20
206.1178387442
 11
127.0251212855
 21
207.7147672559
  0
LINE
  8
0
 62
7
  6
CONTINUOUS
 10
127.4014842082
 20
207.6438897698
 11
127.1007471491
 21
206.046961258
  0
LINE
  8
0
 62
7
  6
CONTINUOUS
 10
125.0748373191
 20
205.3492446261
 11
125.1543871946
 21
205.6514502123
  0
LINE
  8
0
 62
7
  6
CONTINUOUS
 10
127.9377968621
 20
213.4080536338
 11
127.8865405458
 21
213.2167337948
  0
LINE
  8
0
 62
7
  6
CONTINUOUS
 10
125.0267899457
 20
203.0589917028
 11
124.9274078745
 21
202.762714721
  0
LINE
  8
0
 62
7
  6
CONTINUOUS
 10
125.2905036201
 20
202.6409192072
 11
125.8271651666
 21
204.2408100267
  0
LINE
  8
0
 62
7
  6
CONTINUOUS
 10
126.0493530315
 20
204.1003586777
 11
125.6319496064
 21
202.8559991514
  0
LINE
  8
0
 62
7
  6
CONTINUOUS
 10
122.9367882429
 20
195.1674561417
 11
123.0003652843
 21
195.3550419903
  0
LINE
  8
0
 62
7
  6
CONTINUOUS
 10
120.9365359202
 20
196.2307350248
 11
120.8348923558
 21
195.993580329
  0
LINE
  8
0
 62
7
  6
CONTINUOUS
 10
127.5639497207
 20
213.2579338394
 11
127.6193503722
 21
213.3868911144
  0
LINE
  8
0
 62
7
  6
CONTINUOUS
 10
117.0289744802
 20
190.6690175562
 11
117.0855992257
 21
190.7974430887
  0
LINE
  8
0
 62
7
  6
CONTINUOUS
 10
123.2631684459
 20
200.5628297106
 11
123.4181788208
 21
200.9042924225
  0
LINE
  8
0
 62
7
  6
CONTINUOUS
 10
123.9865503925
 20
202.1563228007
 11
124.1415607674
 21
202.4977855127
  0
LINE
  8
0
 62
7
  6
CONTINUOUS
 10
120.4930793103
 20
196.1772725963
 11
120.6327902644
 21
196.4639972774
  0
LINE
  8
0
 62
7
  6
CONTINUOUS
 10
124.6203935175
 20
203.8545355055
 11
124.8001676018
 21
204.1897675446
  0
LINE
  8
0
 62
7
  6
CONTINUOUS
 10
126.1549429257
 20
203.010180011
 11
126.3347170048
 21
203.3454120519
  0
LINE
  8
0
 62
7
  6
CONTINUOUS
 10
126.5569043299
 20
203.2049593751
 11
126.3771302509
 21
202.8697273341
  0
LINE
  8
0
 62
7
  6
CONTINUOUS
 10
116.6509044264
 20
191.9251486123
 11
116.5458161931
 21
191.7572589045
  0
LINE
  8
0
 62
7
  6
CONTINUOUS
 10
117.4972979364
 20
190.885745628
 11
117.3922097031
 21
190.7178559202
  0
LINE
  8
0
 62
7
  6
CONTINUOUS
 10
125.022355419
 20
204.0493162116
 11
124.8823338743
 21
203.8325941568
  0
LINE
  8
0
 62
7
  6
CONTINUOUS
 10
124.8001676018
 20
204.1897675446
 11
124.9203126255
 21
204.3472339371
  0
LINE
  8
0
 62
7
  6
CONTINUOUS
 10
120.6327902644
 20
196.4639972774
 11
120.9373276758
 21
196.860554863
  0
LINE
  8
0
 62
7
  6
CONTINUOUS
 10
121.2410733315
 20
196.6272926105
 11
120.9365359202
 21
196.2307350248
  0
LINE
  8
0
 62
7
  6
CONTINUOUS
 10
122.1283824202
 20
197.0491273935
 11
121.8999797974
 21
196.7517097715
  0
LINE
  8
0
 62
7
  6
CONTINUOUS
 10
121.6959000772
 20
195.6475793798
 11
121.9243027001
 21
195.9449970017
  0
LINE
  8
0
 62
7
  6
CONTINUOUS
 10
122.2280483204
 20
195.7117347764
 11
121.9996456975
 21
195.4143171544
  0
LINE
  8
0
 62
7
  6
CONTINUOUS
 10
116.255523769
 20
192.0147652045
 11
116.4575411931
 21
192.2615850739
  0
LINE
  8
0
 62
7
  6
CONTINUOUS
 10
117.9948701201
 20
193.5440719387
 11
118.3869071285
 21
193.9474492237
  0
LINE
  8
0
 62
7
  6
CONTINUOUS
 10
119.4758981538
 20
195.0679409981
 11
119.7372561594
 21
195.3368591881
  0
LINE
  8
0
 62
7
  6
CONTINUOUS
 10
120.9373276758
 20
196.860554863
 11
121.1782871789
 21
197.0695254622
  0
LINE
  8
0
 62
7
  6
CONTINUOUS
 10
121.9996456975
 20
195.4143171544
 11
121.7586861988
 21
195.2053465519
  0
LINE
  8
0
 62
7
  6
CONTINUOUS
 10
116.4575411931
 20
192.2615850739
 11
117.6206826502
 21
193.2087397342
  0
LINE
  8
0
 62
7
  6
CONTINUOUS
 10
117.5717240071
 20
192.6749787829
 11
116.6509044264
 21
191.9251486123
  0
LINE
  8
0
 62
7
  6
CONTINUOUS
 10
117.2554712435
 20
191.1827178795
 11
118.1762908242
 21
191.9325480501
  0
LINE
  8
0
 62
7
  6
CONTINUOUS
 10
118.4181175172
 20
191.6355757986
 11
117.4972979364
 21
190.885745628
  0
LINE
  8
0
 62
7
  6
CONTINUOUS
 10
121.443965436
 20
196.7866932312
 11
121.2410733315
 21
196.6272926105
  0
LINE
  8
0
 62
7
  6
CONTINUOUS
 10
121.9243027001
 20
195.9449970017
 11
122.1271956758
 21
196.104398757
  0
LINE
  8
0
 62
7
  6
CONTINUOUS
 10
121.4930079728
 20
195.488178759
 11
121.6959000772
 21
195.6475793798
  0
LINE
  8
0
 62
7
  6
CONTINUOUS
 10
122.3928739019
 20
195.8215665498
 11
122.2280483204
 21
195.7117347764
  0
LINE
  8
0
 62
7
  6
CONTINUOUS
 10
122.5435600385
 20
194.7602067463
 11
122.70838562
 21
194.8700385197
  0
LINE
  8
0
 62
7
  6
CONTINUOUS
 10
122.1271956758
 20
196.104398757
 11
122.3807129216
 21
196.2249234748
  0
LINE
  8
0
 62
7
  6
CONTINUOUS
 10
121.7586861988
 20
195.2053465519
 11
121.5051689531
 21
195.0848218341
  0
LINE
  8
0
 62
7
  6
CONTINUOUS
 10
117.0697741125
 20
191.1138189222
 11
117.2554712435
 21
191.1827178795
  0
LINE
  8
0
 62
7
  6
CONTINUOUS
 10
117.875863202
 20
190.1239112785
 11
118.0615603329
 21
190.1928102358
  0
LINE
  8
0
 62
7
  6
CONTINUOUS
 10
81.5331367276
 20
231.7080712902
 11
81.178168607
 21
231.6168721568
  0
LINE
  8
0
 62
7
  6
CONTINUOUS
 10
125.7165998931
 20
215.6443008257
 11
125.6134346057
 21
215.8807984687
  0
LINE
  8
0
 62
7
  6
CONTINUOUS
 10
125.8654371591
 20
215.9218176933
 11
125.968602463
 21
215.685320053
  0
LINE
  8
0
 62
7
  6
CONTINUOUS
 10
127.6664623535
 20
213.6405735174
 11
127.5861957387
 21
213.8857909127
  0
LINE
  8
0
 62
7
  6
CONTINUOUS
 10
127.8409529307
 20
213.9027209282
 11
127.9212195454
 21
213.6575035329
  0
LINE
  8
0
 62
7
  6
CONTINUOUS
 10
125.7740932451
 20
214.8937884074
 11
125.7238874122
 21
215.2022291012
  0
LINE
  8
0
 62
7
  6
CONTINUOUS
 10
125.6134346057
 20
215.8807984687
 11
125.5732699423
 21
216.1275510061
  0
LINE
  8
0
 62
7
  6
CONTINUOUS
 10
125.8252724956
 20
216.1685702307
 11
125.8654371591
 21
215.9218176933
  0
LINE
  8
0
 62
7
  6
CONTINUOUS
 10
126.3537066131
 20
203.6027326184
 11
126.3329432111
 21
203.7415418497
  0
LINE
  8
0
 62
7
  6
CONTINUOUS
 10
127.8631989606
 20
214.530577823
 11
127.8839206005
 21
214.2187655383
  0
LINE
  8
0
 62
7
  6
CONTINUOUS
 10
127.9212195454
 20
213.6575035329
 11
127.9377968621
 21
213.4080536338
  0
LINE
  8
0
 62
7
  6
CONTINUOUS
 10
127.9795860452
 20
212.1587110602
 11
127.9811822622
 21
211.8462152561
  0
LINE
  8
0
 62
7
  6
CONTINUOUS
 10
128.6194719104
 20
211.8494756159
 11
128.6178756934
 21
212.16197142
  0
LINE
  8
0
 62
7
  6
CONTINUOUS
 10
128.9370204281
 20
212.1636015994
 11
128.9386166451
 21
211.8511057953
  0
LINE
  8
0
 62
7
  6
CONTINUOUS
 10
127.8699329823
 20
205.647711488
 11
128.216937383
 21
207.49032185
  0
LINE
  8
0
 62
7
  6
CONTINUOUS
 10
128.6627011859
 20
207.7879664362
 11
128.2462959049
 21
205.5768340019
  0
LINE
  8
0
 62
7
  6
CONTINUOUS
 10
128.0555586085
 20
204.8877719902
 11
127.976008733
 21
204.585566404
  0
LINE
  8
0
 62
7
  6
CONTINUOUS
 10
123.3421782988
 20
195.1713497468
 11
123.2405338632
 21
194.9341939164
  0
LINE
  8
0
 62
7
  6
CONTINUOUS
 10
126.0014427142
 20
201.6534737103
 11
125.8464323393
 21
201.3120109983
  0
LINE
  8
0
 62
7
  6
CONTINUOUS
 10
125.2780607676
 20
200.0599806201
 11
125.1230503927
 21
199.7185179081
  0
LINE
  8
0
 62
7
  6
CONTINUOUS
 10
121.998459024
 20
194.4695884635
 11
122.2268616469
 21
194.7670060855
  0
LINE
  8
0
 62
7
  6
CONTINUOUS
 10
122.70838562
 20
194.8700385197
 11
122.9367882429
 21
195.1674561417
  0
LINE
  8
0
 62
7
  6
CONTINUOUS
 10
123.2405338632
 20
194.9341939164
 11
123.0501986345
 21
194.6863462762
  0
LINE
  8
0
 62
7
  6
CONTINUOUS
 10
121.8886016793
 20
193.2459951432
 11
121.4965646709
 21
192.8426178582
  0
LINE
  8
0
 62
7
  6
CONTINUOUS
 10
120.4075736455
 20
191.7221260839
 11
120.1462156399
 21
191.4532078939
  0
LINE
  8
0
 62
7
  6
CONTINUOUS
 10
123.0501986345
 20
194.6863462762
 11
122.8092391359
 21
194.4773756737
  0
LINE
  8
0
 62
7
  6
CONTINUOUS
 10
118.0615603329
 20
190.1928102358
 11
118.9823799137
 21
190.9426404064
  0
LINE
  8
0
 62
7
  6
CONTINUOUS
 10
119.5149919709
 20
190.8824568199
 11
118.3518505138
 21
189.9353021596
  0
LINE
  8
0
 62
7
  6
CONTINUOUS
 10
118.3518505138
 20
189.9353021596
 11
118.0692241885
 21
189.7874730451
  0
LINE
  8
0
 62
7
  6
CONTINUOUS
 10
127.4687963932
 20
217.1959623265
 11
127.5190022153
 21
216.8875216989
  0
LINE
  8
0
 62
7
  6
CONTINUOUS
 10
127.7198255002
 20
215.6537592104
 11
127.7700313331
 21
215.3453185166
  0
LINE
  8
0
 62
7
  6
CONTINUOUS
 10
139.931380176
 20
198.9155023109
 11
140.0954738154
 21
199.4205306031
  0
LINE
  8
0
 62
7
  6
CONTINUOUS
 10
124.8732108539
 20
178.4688830743
 11
125.302813579
 21
178.7810077242
  0
LINE
  8
0
 62
7
  6
CONTINUOUS
 10
101.2036928932
 20
252.9504747193
 11
100.6726747217
 21
252.9504747193
  0
LINE
  8
0
 62
7
  6
CONTINUOUS
 10
125.302813579
 20
244.9476574836
 11
124.8732108539
 21
245.2597821335
  0
LINE
  8
0
 62
7
  6
CONTINUOUS
 10
140.0954738154
 20
224.3081346048
 11
139.9313801761
 21
224.813162897
  0
LINE
  8
0
 62
7
  6
CONTINUOUS
 10
61.668174351
 20
111.1061269147
 11
61.668174351
 21
114.1061269147
  0
LINE
  8
0
 62
7
  6
CONTINUOUS
 10
68.3511838074
 20
123.1061269147
 11
68.3511838074
 21
114.6061269147
  0
LINE
  8
0
 62
7
  6
CONTINUOUS
 10
68.3511838074
 20
110.6061269147
 11
68.3511838074
 21
102.1061269147
  0
POLYLINE
  8
0
 62
7
  6
CONTINUOUS
 66
1
 70
0
  0
VERTEX
  8
0
 62
7
  6
CONTINUOUS
 10
69.0199926033
 20
114.7390829484
  0
VERTEX
  8
0
 62
7
  6
CONTINUOUS
 10
69.0217597874
 20
114.7421616701
  0
VERTEX
  8
0
 62
7
  6
CONTINUOUS
 10
69.0193352007
 20
114.7386843775
  0
VERTEX
  8
0
 62
7
  6
CONTINUOUS
 10
69.0076237967
 20
114.7242887208
  0
VERTEX
  8
0
 62
7
  6
CONTINUOUS
 10
68.9849133127
 20
114.701691677
  0
VERTEX
  8
0
 62
7
  6
CONTINUOUS
 10
68.9504690591
 20
114.6748534266
  0
VERTEX
  8
0
 62
7
  6
CONTINUOUS
 10
68.9038618611
 20
114.6477644904
  0
VERTEX
  8
0
 62
7
  6
CONTINUOUS
 10
68.8449866876
 20
114.6244892982
  0
VERTEX
  8
0
 62
7
  6
CONTINUOUS
 10
68.7739034293
 20
114.6093144239
  0
VERTEX
  8
0
 62
7
  6
CONTINUOUS
 10
68.722482982
 20
114.6061263797
  0
SEQEND
  0
LINE
  8
0
 62
7
  6
CONTINUOUS
 10
75.5967563006
 20
111.1061269147
 11
75.5967563006
 21
114.1061269147
  0
LINE
  8
0
 62
7
  6
CONTINUOUS
 10
76.3051129875
 20
100.1061269147
 11
76.3051129875
 21
99.8061269147
  0
LINE
  8
0
 62
7
  6
CONTINUOUS
 10
77.0741251786
 20
100.1061269147
 11
77.0741251786
 21
99.8061269147
  0
LINE
  8
0
 62
7
  6
CONTINUOUS
 10
77.2891416998
 20
100.1061269147
 11
77.2891416998
 21
99.8061269147
  0
LINE
  8
0
 62
7
  6
CONTINUOUS
 10
77.5817181753
 20
100.1061269147
 11
77.5817181753
 21
99.8061269147
  0
LINE
  8
0
 62
7
  6
CONTINUOUS
 10
77.8970573909
 20
100.1061269147
 11
77.8970573909
 21
99.8061269147
  0
LINE
  8
0
 62
7
  6
CONTINUOUS
 10
78.0935128429
 20
100.1061269147
 11
78.0935128429
 21
99.8061269147
  0
LINE
  8
0
 62
7
  6
CONTINUOUS
 10
78.3127253214
 20
100.1061269147
 11
78.3127253214
 21
99.8061269147
  0
LINE
  8
0
 62
7
  6
CONTINUOUS
 10
78.4450883569
 20
100.1061269147
 11
78.4450883569
 21
99.8061269147
  0
LINE
  8
0
 62
7
  6
CONTINUOUS
 10
78.5681737913
 20
100.1061269147
 11
78.5681737913
 21
99.8061269147
  0
LINE
  8
0
 62
7
  6
CONTINUOUS
 10
78.5729607303
 20
100.1061269147
 11
78.5729607303
 21
99.8061269147
  0
LINE
  8
0
 62
7
  6
CONTINUOUS
 10
78.8773570127
 20
100.1061269147
 11
78.8773570127
 21
99.8061269147
  0
LINE
  8
0
 62
7
  6
CONTINUOUS
 10
80.4894193483
 20
100.1061269147
 11
80.4894193483
 21
99.8061269147
  0
LINE
  8
0
 62
7
  6
CONTINUOUS
 10
80.5693308148
 20
100.1061269147
 11
80.5693308148
 21
99.8061269147
  0
LINE
  8
0
 62
7
  6
CONTINUOUS
 10
80.7409304869
 20
100.1061269147
 11
80.7409304869
 21
99.8061269147
  0
LINE
  8
0
 62
7
  6
CONTINUOUS
 10
80.9148807292
 20
100.1061269147
 11
80.9148807292
 21
99.8061269147
  0
LINE
  8
0
 62
7
  6
CONTINUOUS
 10
81.178168607
 20
100.1061269147
 11
81.178168607
 21
99.8061269147
  0
LINE
  8
0
 62
7
  6
CONTINUOUS
 10
81.5331367276
 20
100.1061269147
 11
81.5331367276
 21
99.8061269147
  0
LINE
  8
0
 62
7
  6
CONTINUOUS
 10
81.8469778115
 20
100.1061269147
 11
81.8469778115
 21
99.8061269147
  0
LINE
  8
0
 62
7
  6
CONTINUOUS
 10
82.0280036528
 20
100.1061269147
 11
82.0280036528
 21
99.8061269147
  0
LINE
  8
0
 62
7
  6
CONTINUOUS
 10
82.3559801373
 20
100.1061269147
 11
82.3559801373
 21
99.8061269147
  0
LINE
  8
0
 62
7
  6
CONTINUOUS
 10
82.6239771183
 20
100.1061269147
 11
82.6239771183
 21
99.8061269147
  0
LINE
  8
0
 62
7
  6
CONTINUOUS
 10
82.9401687722
 20
100.1061269147
 11
82.9401687722
 21
99.8061269147
  0
LINE
  8
0
 62
7
  6
CONTINUOUS
 10
83.1693893506
 20
100.1061269147
 11
83.1693893506
 21
99.8061269147
  0
LINE
  8
0
 62
7
  6
CONTINUOUS
 10
83.3116387573
 20
100.1061269147
 11
83.3116387573
 21
99.8061269147
  0
LINE
  8
0
 62
7
  6
CONTINUOUS
 10
83.3645505124
 20
100.1061269147
 11
83.3645505124
 21
99.8061269147
  0
LINE
  8
0
 62
7
  6
CONTINUOUS
 10
83.6234365407
 20
100.1061269147
 11
83.6234365407
 21
99.8061269147
  0
LINE
  8
0
 62
7
  6
CONTINUOUS
 10
83.8722599867
 20
100.1061269147
 11
83.8722599867
 21
99.8061269147
  0
LINE
  8
0
 62
7
  6
CONTINUOUS
 10
84.0410304277
 20
100.1061269147
 11
84.0410304277
 21
99.8061269147
  0
LINE
  8
0
 62
7
  6
CONTINUOUS
 10
84.2985094744
 20
100.1061269147
 11
84.2985094744
 21
99.8061269147
  0
LINE
  8
0
 62
7
  6
CONTINUOUS
 10
84.5646441358
 20
100.1061269147
 11
84.5646441358
 21
99.8061269147
  0
LINE
  8
0
 62
7
  6
CONTINUOUS
 10
84.9281474572
 20
100.1061269147
 11
84.9281474572
 21
99.8061269147
  0
LINE
  8
0
 62
7
  6
CONTINUOUS
 10
85.2602732402
 20
100.1061269147
 11
85.2602732402
 21
99.8061269147
  0
LINE
  8
0
 62
7
  6
CONTINUOUS
 10
85.5123416101
 20
100.1061269147
 11
85.5123416101
 21
99.8061269147
  0
LINE
  8
0
 62
7
  6
CONTINUOUS
 10
85.635668235
 20
100.1061269147
 11
85.635668235
 21
99.8061269147
  0
LINE
  8
0
 62
7
  6
CONTINUOUS
 10
85.6616306501
 20
100.1061269147
 11
85.6616306501
 21
99.8061269147
  0
LINE
  8
0
 62
7
  6
CONTINUOUS
 10
86.5566478449
 20
100.1061269147
 11
86.5566478449
 21
99.8061269147
  0
LINE
  8
0
 62
7
  6
CONTINUOUS
 10
86.8666041243
 20
100.1061269147
 11
86.8666041243
 21
99.8061269147
  0
LINE
  8
0
 62
7
  6
CONTINUOUS
 10
87.394608524
 20
100.1061269147
 11
87.394608524
 21
99.8061269147
  0
LINE
  8
0
 62
7
  6
CONTINUOUS
 10
87.5825204483
 20
100.1061269147
 11
87.5825204483
 21
99.8061269147
  0
LINE
  8
0
 62
7
  6
CONTINUOUS
 10
89.7609014237
 20
100.1061269147
 11
89.7609014237
 21
99.8061269147
  0
LINE
  8
0
 62
7
  6
CONTINUOUS
 10
89.7609014237
 20
99.8061269147
 11
76.3051129875
 21
99.8061269147
  0
LINE
  8
0
 62
7
  6
CONTINUOUS
 10
116.1825809561
 20
99.8061269147
 11
128.9370204281
 21
99.8061269147
  0
LINE
  8
0
 62
7
  6
CONTINUOUS
 10
131.5251838074
 20
100.1061269147
 11
70.3511941263
 21
100.1061269147
  0
LINE
  8
0
 62
7
  6
CONTINUOUS
 10
99.2061329999
 20
100.1061269147
 11
100.9381838074
 21
99.1061269147
  0
POLYLINE
  8
0
 62
7
  6
CONTINUOUS
 66
1
 70
0
  0
VERTEX
  8
0
 62
7
  6
CONTINUOUS
 10
68.7224769443
 20
110.6061277382
  0
VERTEX
  8
0
 62
7
  6
CONTINUOUS
 10
68.7744792449
 20
110.6028673487
  0
VERTEX
  8
0
 62
7
  6
CONTINUOUS
 10
68.8473995997
 20
110.5870144099
  0
VERTEX
  8
0
 62
7
  6
CONTINUOUS
 10
68.9077312644
 20
110.5625651251
  0
VERTEX
  8
0
 62
7
  6
CONTINUOUS
 10
68.954572024
 20
110.5345576473
  0
VERTEX
  8
0
 62
7
  6
CONTINUOUS
 10
68.9878259996
 20
110.5079337169
  0
VERTEX
  8
0
 62
7
  6
CONTINUOUS
 10
69.0087372973
 20
110.4867061396
  0
VERTEX
  8
0
 62
7
  6
CONTINUOUS
 10
69.0195574924
 20
110.4732624806
  0
VERTEX
  8
0
 62
7
  6
CONTINUOUS
 10
69.021787953
 20
110.4700368202
  0
SEQEND
  0
LINE
  8
DEFAULT_1
 62
2
  6
CENTER
 10
100.9381838074
 20
102.6061269147
 11
100.9381838074
 21
122.6061269147
  0
LINE
  8
0
 62
7
  6
CONTINUOUS
 10
139.7081920054
 20
110.6061269147
 11
131.4343636961
 21
110.6061269147
  0
LINE
  8
0
 62
7
  6
CONTINUOUS
 10
125.7796075755
 20
110.6061269147
 11
118.065994219
 21
110.6061269147
  0
LINE
  8
0
 62
7
  6
CONTINUOUS
 10
103.7209842971
 20
110.6061269147
 11
98.1553833178
 21
110.6061269147
  0
LINE
  8
0
 62
7
  6
CONTINUOUS
 10
83.8103733958
 20
110.6061269147
 11
76.0967600116
 21
110.6061269147
  0
LINE
  8
0
 62
7
  6
CONTINUOUS
 10
70.4420039188
 20
110.6061269147
 11
62.1681756641
 21
110.6061269147
  0
LINE
  8
0
 62
7
  6
CONTINUOUS
 10
62.1681756641
 20
114.6061269147
 11
70.4420038779
 21
114.6061269147
  0
LINE
  8
0
 62
7
  6
CONTINUOUS
 10
76.0967600116
 20
114.6061269147
 11
83.810373301
 21
114.6061269147
  0
LINE
  8
0
 62
7
  6
CONTINUOUS
 10
98.1553834318
 20
114.6061269147
 11
103.7209841845
 21
114.6061269147
  0
LINE
  8
0
 62
7
  6
CONTINUOUS
 10
118.0659943151
 20
114.6061269147
 11
125.7796075755
 21
114.6061269147
  0
LINE
  8
0
 62
7
  6
CONTINUOUS
 10
131.4343637375
 20
114.6061269147
 11
139.7081920054
 21
114.6061269147
  0
POLYLINE
  8
0
 62
7
  6
CONTINUOUS
 66
1
 70
0
  0
VERTEX
  8
0
 62
7
  6
CONTINUOUS
 10
133.1538468608
 20
114.6061264129
  0
VERTEX
  8
0
 62
7
  6
CONTINUOUS
 10
133.1017945511
 20
114.6093978604
  0
VERTEX
  8
0
 62
7
  6
CONTINUOUS
 10
133.0287235397
 20
114.6253159661
  0
VERTEX
  8
0
 62
7
  6
CONTINUOUS
 10
132.9682290544
 20
114.6498945149
  0
VERTEX
  8
0
 62
7
  6
CONTINUOUS
 10
132.9213528156
 20
114.6780078771
  0
VERTEX
  8
0
 62
7
  6
CONTINUOUS
 10
132.8881898057
 20
114.7046427169
  0
VERTEX
  8
0
 62
7
  6
CONTINUOUS
 10
132.8674215484
 20
114.7257856238
  0
VERTEX
  8
0
 62
7
  6
CONTINUOUS
 10
132.8567497246
 20
114.7390752245
  0
VERTEX
  8
0
 62
7
  6
CONTINUOUS
 10
132.8545668159
 20
114.7422377086
  0
SEQEND
  0
LINE
  8
0
 62
7
  6
CONTINUOUS
 10
102.670234615
 20
100.1061269147
 11
100.9381838074
 21
99.1061269147
  0
LINE
  8
0
 62
7
  6
CONTINUOUS
 10
131.5251734886
 20
125.1061269147
 11
70.3511941263
 21
125.1061269147
  0
LINE
  8
0
 62
7
  6
CONTINUOUS
 10
116.1825809561
 20
99.8061269147
 11
116.1825809561
 21
100.1061269147
  0
LINE
  8
0
 62
7
  6
CONTINUOUS
 10
116.255523769
 20
99.8061269147
 11
116.255523769
 21
100.1061269147
  0
LINE
  8
0
 62
7
  6
CONTINUOUS
 10
116.4575411931
 20
99.8061269147
 11
116.4575411931
 21
100.1061269147
  0
LINE
  8
0
 62
7
  6
CONTINUOUS
 10
117.6206826502
 20
99.8061269147
 11
117.6206826502
 21
100.1061269147
  0
LINE
  8
0
 62
7
  6
CONTINUOUS
 10
117.9948701201
 20
99.8061269147
 11
117.9948701201
 21
100.1061269147
  0
LINE
  8
0
 62
7
  6
CONTINUOUS
 10
118.3869071285
 20
99.8061269147
 11
118.3869071285
 21
100.1061269147
  0
LINE
  8
0
 62
7
  6
CONTINUOUS
 10
119.4758981538
 20
99.8061269147
 11
119.4758981538
 21
100.1061269147
  0
LINE
  8
0
 62
7
  6
CONTINUOUS
 10
119.7372561594
 20
99.8061269147
 11
119.7372561594
 21
100.1061269147
  0
LINE
  8
0
 62
7
  6
CONTINUOUS
 10
120.442059158
 20
99.8061269147
 11
120.442059158
 21
100.1061269147
  0
LINE
  8
0
 62
7
  6
CONTINUOUS
 10
120.4930793103
 20
99.8061269147
 11
120.4930793103
 21
100.1061269147
  0
LINE
  8
0
 62
7
  6
CONTINUOUS
 10
120.6327902644
 20
99.8061269147
 11
120.6327902644
 21
100.1061269147
  0
LINE
  8
0
 62
7
  6
CONTINUOUS
 10
120.9373276758
 20
99.8061269147
 11
120.9373276758
 21
100.1061269147
  0
LINE
  8
0
 62
7
  6
CONTINUOUS
 10
121.1782871789
 20
99.8061269147
 11
121.1782871789
 21
100.1061269147
  0
LINE
  8
0
 62
7
  6
CONTINUOUS
 10
121.520495231
 20
99.8061269147
 11
121.520495231
 21
100.1061269147
  0
LINE
  8
0
 62
7
  6
CONTINUOUS
 10
121.8878179458
 20
99.8061269147
 11
121.8878179458
 21
100.1061269147
  0
LINE
  8
0
 62
7
  6
CONTINUOUS
 10
122.1283824202
 20
99.8061269147
 11
122.1283824202
 21
100.1061269147
  0
LINE
  8
0
 62
7
  6
CONTINUOUS
 10
122.3807129216
 20
99.8061269147
 11
122.3807129216
 21
100.1061269147
  0
LINE
  8
0
 62
7
  6
CONTINUOUS
 10
122.7354778362
 20
99.8061269147
 11
122.7354778362
 21
100.1061269147
  0
LINE
  8
0
 62
7
  6
CONTINUOUS
 10
122.9760423106
 20
99.8061269147
 11
122.9760423106
 21
100.1061269147
  0
LINE
  8
0
 62
7
  6
CONTINUOUS
 10
123.1785395326
 20
99.8061269147
 11
123.1785395326
 21
100.1061269147
  0
LINE
  8
0
 62
7
  6
CONTINUOUS
 10
123.2631684459
 20
99.8061269147
 11
123.2631684459
 21
100.1061269147
  0
LINE
  8
0
 62
7
  6
CONTINUOUS
 10
123.4181788208
 20
99.8061269147
 11
123.4181788208
 21
100.1061269147
  0
LINE
  8
0
 62
7
  6
CONTINUOUS
 10
123.9865503925
 20
99.8061269147
 11
123.9865503925
 21
100.1061269147
  0
LINE
  8
0
 62
7
  6
CONTINUOUS
 10
124.1415607674
 20
99.8061269147
 11
124.1415607674
 21
100.1061269147
  0
LINE
  8
0
 62
7
  6
CONTINUOUS
 10
124.5417753086
 20
99.8061269147
 11
124.5417753086
 21
100.1061269147
  0
LINE
  8
0
 62
7
  6
CONTINUOUS
 10
124.6203935175
 20
99.8061269147
 11
124.6203935175
 21
100.1061269147
  0
LINE
  8
0
 62
7
  6
CONTINUOUS
 10
124.8001676018
 20
99.8061269147
 11
124.8001676018
 21
100.1061269147
  0
LINE
  8
0
 62
7
  6
CONTINUOUS
 10
124.9203126255
 20
99.8061269147
 11
124.9203126255
 21
100.1061269147
  0
LINE
  8
0
 62
7
  6
CONTINUOUS
 10
125.0748373191
 20
99.8061269147
 11
125.0748373191
 21
100.1061269147
  0
LINE
  8
0
 62
7
  6
CONTINUOUS
 10
125.1543871946
 20
99.8061269147
 11
125.1543871946
 21
100.1061269147
  0
LINE
  8
0
 62
7
  6
CONTINUOUS
 10
125.5732699423
 20
99.8061269147
 11
125.5732699423
 21
100.1061269147
  0
LINE
  8
0
 62
7
  6
CONTINUOUS
 10
125.5961059244
 20
99.8061269147
 11
125.5961059244
 21
100.1061269147
  0
LINE
  8
0
 62
7
  6
CONTINUOUS
 10
125.691983709
 20
99.8061269147
 11
125.691983709
 21
100.1061269147
  0
LINE
  8
0
 62
7
  6
CONTINUOUS
 10
125.8508621373
 20
99.8061269147
 11
125.8508621373
 21
100.1061269147
  0
LINE
  8
0
 62
7
  6
CONTINUOUS
 10
125.966822238
 20
99.8061269147
 11
125.966822238
 21
100.1061269147
  0
LINE
  8
0
 62
7
  6
CONTINUOUS
 10
126.2087836485
 20
99.8061269147
 11
126.2087836485
 21
100.1061269147
  0
LINE
  8
0
 62
7
  6
CONTINUOUS
 10
126.2796113142
 20
111.1061269147
 11
126.2796113142
 21
114.1061269147
  0
LINE
  8
0
 62
7
  6
CONTINUOUS
 10
127.4687963932
 20
99.8061269147
 11
127.4687963932
 21
100.1061269147
  0
LINE
  8
0
 62
7
  6
CONTINUOUS
 10
127.5190022153
 20
99.8061269147
 11
127.5190022153
 21
100.1061269147
  0
LINE
  8
0
 62
7
  6
CONTINUOUS
 10
127.7198255002
 20
99.8061269147
 11
127.7198255002
 21
100.1061269147
  0
LINE
  8
0
 62
7
  6
CONTINUOUS
 10
127.7700313331
 20
99.8061269147
 11
127.7700313331
 21
100.1061269147
  0
LINE
  8
0
 62
7
  6
CONTINUOUS
 10
127.8631989606
 20
99.8061269147
 11
127.8631989606
 21
100.1061269147
  0
LINE
  8
0
 62
7
  6
CONTINUOUS
 10
127.8839206005
 20
99.8061269147
 11
127.8839206005
 21
100.1061269147
  0
LINE
  8
0
 62
7
  6
CONTINUOUS
 10
127.9212195454
 20
99.8061269147
 11
127.9212195454
 21
100.1061269147
  0
LINE
  8
0
 62
7
  6
CONTINUOUS
 10
127.9377968621
 20
99.8061269147
 11
127.9377968621
 21
100.1061269147
  0
LINE
  8
0
 62
7
  6
CONTINUOUS
 10
127.9795860452
 20
99.8061269147
 11
127.9795860452
 21
100.1061269147
  0
LINE
  8
0
 62
7
  6
CONTINUOUS
 10
128.6178756934
 20
99.8061269147
 11
128.6178756934
 21
100.1061269147
  0
LINE
  8
0
 62
7
  6
CONTINUOUS
 10
128.9370204281
 20
99.8061269147
 11
128.9370204281
 21
100.1061269147
  0
POLYLINE
  8
0
 62
7
  6
CONTINUOUS
 66
1
 70
0
  0
VERTEX
  8
0
 62
7
  6
CONTINUOUS
 10
132.8563452528
 20
110.4731165754
  0
VERTEX
  8
0
 62
7
  6
CONTINUOUS
 10
132.8546034077
 20
110.4700853414
  0
VERTEX
  8
0
 62
7
  6
CONTINUOUS
 10
132.8570702302
 20
110.4736214813
  0
VERTEX
  8
0
 62
7
  6
CONTINUOUS
 10
132.868892161
 20
110.4881314169
  0
VERTEX
  8
0
 62
7
  6
CONTINUOUS
 10
132.8916774679
 20
110.5107612683
  0
VERTEX
  8
0
 62
7
  6
CONTINUOUS
 10
132.9261737942
 20
110.5375879512
  0
VERTEX
  8
0
 62
7
  6
CONTINUOUS
 10
132.972761043
 20
110.5646145658
  0
VERTEX
  8
0
 62
7
  6
CONTINUOUS
 10
133.0315502983
 20
110.5878161781
  0
VERTEX
  8
0
 62
7
  6
CONTINUOUS
 10
133.1025565829
 20
110.6029504532
  0
VERTEX
  8
0
 62
7
  6
CONTINUOUS
 10
133.1542504875
 20
110.6061278724
  0
SEQEND
  0
LINE
  8
0
 62
7
  6
CONTINUOUS
 10
133.5251838074
 20
123.1061269147
 11
133.5251838074
 21
114.6061269147
  0
LINE
  8
0
 62
7
  6
CONTINUOUS
 10
133.5251838074
 20
110.6061269147
 11
133.5251838074
 21
102.1061269147
  0
LINE
  8
0
 62
7
  6
CONTINUOUS
 10
140.2081932639
 20
111.1061269147
 11
140.2081932639
 21
114.1061269147
  0
ARC
  8
0
 62
4
  6
CONTINUOUS
 10
81.5945433545
 20
205.4692862217
 40
3.2
 50
45.0
 51
87.7455692247
  0
ARC
  8
0
 62
4
  6
CONTINUOUS
 10
84.4229704793
 20
202.6408590969
 40
3.2
 50
3.5903778907
 51
45.0
  0
ARC
  8
0
 62
4
  6
CONTINUOUS
 10
90.8104089384
 20
203.0416457372
 40
3.2
 50
183.5903778907
 51
225.0
  0
ARC
  8
0
 62
4
  6
CONTINUOUS
 10
92.1154969407
 20
201.7365577349
 40
3.2
 50
225.0
 51
266.4096221093
  0
ARC
  8
0
 62
4
  6
CONTINUOUS
 10
91.7147103004
 20
195.3491192758
 40
3.2
 50
45.0
 51
86.4096221093
  0
ARC
  8
0
 62
4
  6
CONTINUOUS
 10
94.5431374252
 20
192.520692151
 40
3.2
 50
2.2544307753
 51
45.0
  0
ARC
  8
0
 62
7
  6
CONTINUOUS
 10
64.2226828482
 20
199.6718776292
 40
2.4
 50
198.3702547257
 51
284.38
  0
ARC
  8
0
 62
7
  6
CONTINUOUS
 10
64.068174351
 20
200.1474058873
 40
2.4
 50
111.62
 51
197.6297452743
  0
ARC
  8
0
 62
7
  6
CONTINUOUS
 10
78.4012647978
 20
180.4195993318
 40
2.4
 50
234.3702547257
 51
320.38
  0
ARC
  8
0
 62
7
  6
CONTINUOUS
 10
77.9967563006
 20
180.713491958
 40
2.4
 50
147.62
 51
233.6297452743
  0
ARC
  8
0
 62
7
  6
CONTINUOUS
 10
100.6881838074
 20
173.1781403773
 40
2.4
 50
183.62
 51
269.6297452743
  0
ARC
  8
0
 62
7
  6
CONTINUOUS
 10
69.9080391961
 20
196.5872028212
 40
2.0
 50
26.2124940205
 51
104.38
  0
ARC
  8
0
 62
7
  6
CONTINUOUS
 10
66.8545978953
 20
205.9847288444
 40
2.0
 50
291.62
 51
9.7875059795
  0
ARC
  8
0
 62
7
  6
CONTINUOUS
 10
84.8139410626
 20
181.2658136054
 40
2.0
 50
62.2124940205
 51
140.38
  0
ARC
  8
0
 62
7
  6
CONTINUOUS
 10
76.8199279545
 20
187.0738040978
 40
2.0
 50
327.62
 51
45.7875059795
  0
ARC
  8
0
 62
7
  6
CONTINUOUS
 10
95.9976120001
 20
177.6320186416
 40
2.0
 50
3.62
 51
81.7875059795
  0
ARC
  8
0
 62
4
  6
CONTINUOUS
 10
81.5945433545
 20
218.2593789862
 40
3.2
 50
272.2544307753
 51
315.0
  0
ARC
  8
0
 62
4
  6
CONTINUOUS
 10
81.8463007154
 20
211.8643326039
 40
3.2
 50
92.2544307753
 51
267.7455692247
  0
ARC
  8
0
 62
4
  6
CONTINUOUS
 10
94.5431374252
 20
231.2079730569
 40
3.2
 50
315.0
 51
357.7455692247
  0
ARC
  8
0
 62
4
  6
CONTINUOUS
 10
91.7147103004
 20
228.3795459321
 40
3.2
 50
273.5903778907
 51
315.0
  0
ARC
  8
0
 62
4
  6
CONTINUOUS
 10
92.1154969407
 20
221.992107473
 40
3.2
 50
93.5903778907
 51
135.0
  0
ARC
  8
0
 62
4
  6
CONTINUOUS
 10
90.8104089384
 20
220.6870194707
 40
3.2
 50
135.0
 51
176.4096221093
  0
ARC
  8
0
 62
4
  6
CONTINUOUS
 10
84.4229704793
 20
221.0878061109
 40
3.2
 50
315.0
 51
356.4096221093
  0
ARC
  8
0
 62
7
  6
CONTINUOUS
 10
100.6881838074
 20
250.5505248306
 40
2.4
 50
90.3702547257
 51
176.38
  0
ARC
  8
0
 62
7
  6
CONTINUOUS
 10
77.9967563006
 20
243.0151732499
 40
2.4
 50
126.3702547257
 51
212.38
  0
ARC
  8
0
 62
7
  6
CONTINUOUS
 10
78.4012647978
 20
243.3090658761
 40
2.4
 50
39.62
 51
125.6297452743
  0
ARC
  8
0
 62
7
  6
CONTINUOUS
 10
64.068174351
 20
223.5812593206
 40
2.4
 50
162.3702547257
 51
248.38
  0
ARC
  8
0
 62
7
  6
CONTINUOUS
 10
64.2226828482
 20
224.0567875787
 40
2.4
 50
75.62
 51
161.6297452743
  0
ARC
  8
0
 62
7
  6
CONTINUOUS
 10
95.9976120001
 20
246.0966465663
 40
2.0
 50
278.2124940205
 51
356.38
  0
ARC
  8
0
 62
7
  6
CONTINUOUS
 10
76.8199279545
 20
236.65486111
 40
2.0
 50
314.2124940205
 51
32.38
  0
ARC
  8
0
 62
7
  6
CONTINUOUS
 10
84.8139410626
 20
242.4628516025
 40
2.0
 50
219.62
 51
297.7875059795
  0
ARC
  8
0
 62
7
  6
CONTINUOUS
 10
66.8545978953
 20
217.7439363635
 40
2.0
 50
350.2124940205
 51
68.38
  0
ARC
  8
0
 62
7
  6
CONTINUOUS
 10
69.9080391961
 20
227.1414623867
 40
2.0
 50
255.62
 51
333.7875059795
  0
ARC
  8
0
 62
4
  6
CONTINUOUS
 10
100.9381838074
 20
192.7724495119
 40
3.2
 50
182.2544307753
 51
357.7455692247
  0
ARC
  8
0
 62
4
  6
CONTINUOUS
 10
107.3332301897
 20
192.520692151
 40
3.2
 50
135.0
 51
177.7455692247
  0
ARC
  8
0
 62
4
  6
CONTINUOUS
 10
110.1616573144
 20
195.3491192758
 40
3.2
 50
93.5903778907
 51
135.0
  0
ARC
  8
0
 62
4
  6
CONTINUOUS
 10
109.7608706742
 20
201.7365577349
 40
3.2
 50
273.5903778907
 51
315.0
  0
ARC
  8
0
 62
4
  6
CONTINUOUS
 10
111.0659586765
 20
203.0416457372
 40
3.2
 50
315.0
 51
356.4096221093
  0
ARC
  8
0
 62
4
  6
CONTINUOUS
 10
117.4533971356
 20
202.6408590969
 40
3.2
 50
135.0
 51
176.4096221093
  0
ARC
  8
0
 62
4
  6
CONTINUOUS
 10
120.2818242604
 20
205.4692862217
 40
3.2
 50
92.2544307753
 51
135.0
  0
ARC
  8
0
 62
7
  6
CONTINUOUS
 10
101.1881838074
 20
173.1781403773
 40
2.4
 50
270.3702547257
 51
356.38
  0
ARC
  8
0
 62
7
  6
CONTINUOUS
 10
123.8796113142
 20
180.713491958
 40
2.4
 50
306.3702547257
 51
32.38
  0
ARC
  8
0
 62
7
  6
CONTINUOUS
 10
123.475102817
 20
180.4195993318
 40
2.4
 50
219.62
 51
305.6297452743
  0
ARC
  8
0
 62
7
  6
CONTINUOUS
 10
137.8081932639
 20
200.1474058873
 40
2.4
 50
342.3702547257
 51
68.38
  0
ARC
  8
0
 62
7
  6
CONTINUOUS
 10
137.6536847667
 20
199.6718776292
 40
2.4
 50
255.62
 51
341.6297452743
  0
ARC
  8
0
 62
7
  6
CONTINUOUS
 10
105.8787556148
 20
177.6320186416
 40
2.0
 50
98.2124940205
 51
176.38
  0
ARC
  8
0
 62
7
  6
CONTINUOUS
 10
125.0564396604
 20
187.0738040978
 40
2.0
 50
134.2124940205
 51
212.38
  0
ARC
  8
0
 62
7
  6
CONTINUOUS
 10
117.0624265523
 20
181.2658136054
 40
2.0
 50
39.62
 51
117.7875059795
  0
ARC
  8
0
 62
7
  6
CONTINUOUS
 10
135.0217697196
 20
205.9847288444
 40
2.0
 50
170.2124940205
 51
248.38
  0
ARC
  8
0
 62
7
  6
CONTINUOUS
 10
131.9683284188
 20
196.5872028212
 40
2.0
 50
75.62
 51
153.7875059795
  0
ARC
  8
0
 62
7
  6
CONTINUOUS
 10
100.9381838074
 20
211.8643326039
 40
41.087
 50
89.6297452743
 51
90.3702547257
  0
ARC
  8
0
 62
7
  6
CONTINUOUS
 10
100.9381838074
 20
211.8643326039
 40
41.087
 50
125.6297452743
 51
126.3702547257
  0
ARC
  8
0
 62
7
  6
CONTINUOUS
 10
100.9381838074
 20
211.8643326039
 40
41.087
 50
161.6297452743
 51
162.3702547257
  0
ARC
  8
0
 62
7
  6
CONTINUOUS
 10
100.9381838074
 20
211.8643326039
 40
41.087
 50
197.6297452743
 51
198.3702547257
  0
ARC
  8
0
 62
7
  6
CONTINUOUS
 10
100.9381838074
 20
211.8643326039
 40
41.087
 50
233.6297452743
 51
234.3702547257
  0
ARC
  8
0
 62
7
  6
CONTINUOUS
 10
100.9381838074
 20
211.8643326039
 40
41.087
 50
269.6297452743
 51
270.3702547257
  0
ARC
  8
0
 62
7
  6
CONTINUOUS
 10
100.9381838074
 20
211.8643326039
 40
41.087
 50
305.6297452743
 51
306.3702547257
  0
ARC
  8
0
 62
7
  6
CONTINUOUS
 10
100.9381838074
 20
211.8643326039
 40
41.087
 50
341.6297452743
 51
342.3702547257
  0
ARC
  8
0
 62
7
  6
CONTINUOUS
 10
100.9381838074
 20
211.8643326039
 40
41.087
 50
17.6297452743
 51
18.3702547257
  0
ARC
  8
0
 62
7
  6
CONTINUOUS
 10
100.9381838074
 20
211.8643326039
 40
41.087
 50
53.6297452743
 51
54.3702547257
  0
CIRCLE
  8
0
 62
7
  6
CONTINUOUS
 10
100.9381838074
 20
211.8643326039
 40
32.587
  0
CIRCLE
  8
0
 62
4
  6
CONTINUOUS
 10
100.9381838074
 20
211.8643326039
 40
8.5934513786
  0
ARC
  8
0
 62
4
  6
CONTINUOUS
 10
100.9381838074
 20
230.956215696
 40
3.2
 50
2.2544307753
 51
177.7455692247
  0
ARC
  8
0
 62
4
  6
CONTINUOUS
 10
117.4533971356
 20
221.0878061109
 40
3.2
 50
183.5903778907
 51
225.0
  0
ARC
  8
0
 62
4
  6
CONTINUOUS
 10
111.0659586765
 20
220.6870194707
 40
3.2
 50
3.5903778907
 51
45.0
  0
ARC
  8
0
 62
4
  6
CONTINUOUS
 10
109.7608706742
 20
221.992107473
 40
3.2
 50
45.0
 51
86.4096221093
  0
ARC
  8
0
 62
4
  6
CONTINUOUS
 10
110.1616573144
 20
228.3795459321
 40
3.2
 50
225.0
 51
266.4096221093
  0
ARC
  8
0
 62
4
  6
CONTINUOUS
 10
107.3332301897
 20
231.2079730569
 40
3.2
 50
182.2544307753
 51
225.0
  0
ARC
  8
0
 62
7
  6
CONTINUOUS
 10
101.1881838074
 20
250.5505248306
 40
2.4
 50
3.62
 51
89.6297452743
  0
ARC
  8
0
 62
7
  6
CONTINUOUS
 10
105.8787556148
 20
246.0966465663
 40
2.0
 50
183.62
 51
261.7875059795
  0
ARC
  8
0
 62
7
  6
CONTINUOUS
 10
117.0624265523
 20
242.4628516025
 40
2.0
 50
242.2124940205
 51
320.38
  0
CIRCLE
  8
0
 62
7
  6
CONTINUOUS
 10
100.9381838074
 20
239.8643326039
 40
1.7320508076
  0
ARC
  8
0
 62
4
  6
CONTINUOUS
 10
120.0300668995
 20
211.8643326039
 40
3.2
 50
272.2544307753
 51
87.7455692247
  0
ARC
  8
0
 62
4
  6
CONTINUOUS
 10
120.2818242604
 20
218.2593789862
 40
3.2
 50
225.0
 51
267.7455692247
  0
ARC
  8
0
 62
7
  6
CONTINUOUS
 10
137.6536847667
 20
224.0567875787
 40
2.4
 50
18.3702547257
 51
104.38
  0
ARC
  8
0
 62
7
  6
CONTINUOUS
 10
137.8081932639
 20
223.5812593206
 40
2.4
 50
291.62
 51
17.6297452743
  0
ARC
  8
0
 62
7
  6
CONTINUOUS
 10
131.9683284188
 20
227.1414623867
 40
2.0
 50
206.2124940205
 51
284.38
  0
ARC
  8
0
 62
7
  6
CONTINUOUS
 10
135.0217697196
 20
217.7439363635
 40
2.0
 50
111.62
 51
189.7875059795
  0
ARC
  8
0
 62
7
  6
CONTINUOUS
 10
123.475102817
 20
243.3090658761
 40
2.4
 50
54.3702547257
 51
140.38
  0
ARC
  8
0
 62
7
  6
CONTINUOUS
 10
123.8796113142
 20
243.0151732499
 40
2.4
 50
327.62
 51
53.6297452743
  0
ARC
  8
0
 62
7
  6
CONTINUOUS
 10
125.0564396604
 20
236.65486111
 40
2.0
 50
147.62
 51
225.7875059795
  0
ARC
  8
0
 62
7
  6
CONTINUOUS
 10
131.5251838074
 20
102.1061269147
 40
2.0
 50
270.0
 51
360.0
  0
ARC
  8
0
 62
7
  6
CONTINUOUS
 10
131.5251838074
 20
123.1061269147
 40
2.0
 50
0.0
 51
90.0
  0
ARC
  8
0
 62
7
  6
CONTINUOUS
 10
70.3511838074
 20
102.1061269147
 40
2.0
 50
180.0
 51
270.0
  0
ARC
  8
0
 62
7
  6
CONTINUOUS
 10
70.3511838074
 20
123.1061269147
 40
2.0
 50
90.0
 51
180.0
  0
ARC
  8
0
 62
7
  6
CONTINUOUS
 10
125.7796113142
 20
114.1061269147
 40
0.5
 50
0.0
 51
90.0000038843
  0
ARC
  8
0
 62
7
  6
CONTINUOUS
 10
125.7796113142
 20
111.1061269147
 40
0.5
 50
269.9999961157
 51
360.0
  0
ARC
  8
0
 62
7
  6
CONTINUOUS
 10
139.7081932639
 20
114.1061269147
 40
0.5
 50
0.0
 51
90.0000027681
  0
ARC
  8
0
 62
7
  6
CONTINUOUS
 10
139.7081932639
 20
111.1061269147
 40
0.5
 50
269.9999972319
 51
360.0
  0
ARC
  8
0
 62
7
  6
CONTINUOUS
 10
62.168174351
 20
114.1061269147
 40
0.5
 50
89.9999903706
 51
180.0
  0
ARC
  8
0
 62
7
  6
CONTINUOUS
 10
62.168174351
 20
111.1061269147
 40
0.5
 50
180.0
 51
270.0000096294
  0
ARC
  8
0
 62
7
  6
CONTINUOUS
 10
76.0967563006
 20
114.1061269147
 40
0.5
 50
89.9999998385
 51
180.0
  0
ARC
  8
0
 62
7
  6
CONTINUOUS
 10
76.0967563006
 20
111.1061269147
 40
0.5
 50
180.0
 51
270.0000001615
  0
ENDSEC
  0
EOF
