  0
SECTION
  2
HEADER
  9
$EXTMAX
 10
420.0
 20
297.0
 30
0.0
  9
$EXTMIN
 10
0.0
 20
0.0
 30
0.0
  9
$LIMMIN
 10
0.0
 20
0.0
  9
$LIMMAX
 10
420.0
 20
297.0
  9
$VIEWCTR
 10
210.0
 20
148.5
  9
$VIEWSIZE
 40
297.0
  9
$CLAYER
  8
0
  9
$LTSCALE
 40
23.1
  9
$CELTYPE
  6
BYLAYER
  9
$DIMSCALE
 40
1.0
  9
$DIMASZ
 40
3.5
  9
$DIMEXO
 40
1.0
  9
$DIMDLI
 40
15.96
  9
$DIMEXE
 40
2.0
  9
$DIMCEN
 40
3.78
  9
$DIMLFAC
 40
1.0
  9
$DIMBLK
  1
_FILLED
  9
$DIMTXT
 40
3.5
  9
$PDMODE
 70
3
  9
$PDSIZE
 40
0.3125
  9
$TILEMODE
 70
1
  0
ENDSEC
  0
SECTION
  2
TABLES
  0
TABLE
  2
LTYPE
 70
6
  0
LTYPE
  2
BYBLOCK
 70
0
  3

 72
65
 73
0
 40
0.0
  0
LTYPE
  2
BYLAYER
 70
0
  3

 72
65
 73
0
 40
0.0
  0
LTYPE
  2
CONTINUOUS
 70
64
  3
Solid line
 72
65
 73
0
 40
0.0
  0
LTYPE
  2
CENTER
 70
64
  3
____ _ ____ _ ____ _ ____ _ ____ _ ____ _ ____
 72
65
 73
4
 40
0.6
 49
0.375
 49
-0.075
 49
0.075
 49
-0.075
  0
LTYPE
  2
HIDDEN
 70
64
  3
- - - - - - - - - - - - - - - - - - - -
 72
65
 73
2
 40
0.2
 49
0.1
 49
-0.1
  0
LTYPE
  2
PHANTOM
 70
64
  3
_____ _ _ _____ _ _ _____ _ _ _____
 72
65
 73
6
 40
0.8
 49
0.45
 49
-0.05
 49
0.1
 49
-0.05
 49
0.1
 49
-0.05
  0
LTYPE
  2
DOT
 70
64
  3
. . . . . . . . . . . . . . . . . . . .
 72
65
 73
2
 40
0.2
 49
0.1
 49
-0.1
  0
LTYPE
  2
DASHED
 70
64
  3
- - - - - - - - - - - - - - - - - - - -
 72
65
 73
2
 40
0.2
 49
0.1
 49
-0.1
  0
ENDTAB
  0
TABLE
  2
LAYER
 70
36
  0
LAYER
  2
0
 70
0
 62
7
  6
CONTINUOUS
  0
LAYER
  2
DEFAULT_1
 70
0
 62
7
  6
CENTER
  0
LAYER
  2
DEFAULT_2
 70
0
 62
8
  6
HIDDEN
  0
LAYER
  2
DEFAULT_3
 70
0
 62
7
  6
PHANTOM
  0
LAYER
  2
BLANK_LUKKEFLADE
 70
0
 62
7
  6
CONTINUOUS
  0
LAYER
  2
BLANK_QUILTS
 70
0
 62
7
  6
CONTINUOUS
  0
LAYER
  2
BLANK_UDST_PLACERING
 70
0
 62
7
  6
CONTINUOUS
  0
ENDTAB
  0
TABLE
  2
STYLE
 70
1
  0
STYLE
  2
STANDARD
 70
0
 40
0.0
 41
0.8
 50
0.0
 71
0
 42
0.2
  3
txt
  4

  0
STYLE
  2
TEXTSTYLE_1
 70
0
 40
0.0
 41
0.8
 50
0.0
 71
0
 42
0.2
  3
gdt
  4

  0
STYLE
  2
TEXTSTYLE_2
 70
0
 40
0.0
 41
0.6
 50
0.0
 71
0
 42
0.2
  3
txt
  4

  0
STYLE
  2
TEXTSTYLE_3
 70
0
 40
0.0
 41
1.0
 50
0.0
 71
0
 42
0.2
  3
ftb_____.ttf
  4

  0
STYLE
  2
TEXTSTYLE_4
 70
0
 40
0.0
 41
1.0
 50
0.0
 71
0
 42
0.2
  3
fti_____.ttf
  4

  0
STYLE
  2
TEXTSTYLE_5
 70
0
 40
0.0
 41
1.0
 50
0.0
 71
0
 42
0.2
  3
frutiger light.ttf
  4

  0
STYLE
  2
TEXTSTYLE_6
 70
0
 40
0.0
 41
0.7
 50
0.0
 71
0
 42
0.2
  3
txt
  4

  0
STYLE
  2
TEXTSTYLE_7
 70
0
 40
0.0
 41
0.4
 50
0.0
 71
0
 42
0.2
  3
txt
  4

  0
ENDTAB
  0
ENDSEC
  0
SECTION
  2
BLOCKS
  0
BLOCK
  8
0
 62
2
  6
CONTINUOUS
  2
SYMBOL_5_BL1
 70
64
 10
382.7840918555
 20
35.5067593403
  0
TEXT
  8
0
 62
7
  6
CONTINUOUS
 10
373.842376864
 20
30.5995157174
  7
TEXTSTYLE_4
 40
1.0655737705
  1
The brand for plastic modular belts and chains
 41
1.0
 72
0
  0
LINE
  8
0
 62
7
  6
CONTINUOUS
 10
358.7621602445
 20
36.0805298321
 11
358.7621602445
 21
33.9493822911
  0
LINE
  8
0
 62
7
  6
CONTINUOUS
 10
359.0512227376
 20
30.9584509954
 11
359.0512227376
 21
31.0552420547
  0
LINE
  8
0
 62
7
  6
CONTINUOUS
 10
358.7621602445
 20
31.0229783683
 11
358.8199727462
 21
30.8293962497
  0
LINE
  8
0
 62
7
  6
CONTINUOUS
 10
360.1556028675
 20
33.867415078
 11
360.1556028675
 21
36.0805298321
  0
LINE
  8
0
 62
7
  6
CONTINUOUS
 10
361.0746601894
 20
32.0231527829
 11
361.0746601894
 21
30.5067593403
  0
LINE
  8
0
 62
7
  6
CONTINUOUS
 10
361.3637227445
 20
30.5067593403
 11
361.3637227445
 21
31.2488242184
  0
LINE
  8
0
 62
7
  6
CONTINUOUS
 10
361.3637227445
 20
31.3778789641
 11
361.3637227445
 21
32.0231527829
  0
LINE
  8
0
 62
7
  6
CONTINUOUS
 10
358.8199727462
 20
31.216560532
 11
358.7621602445
 21
31.0229783683
  0
LINE
  8
0
 62
7
  6
CONTINUOUS
 10
359.1668477307
 20
30.7971325633
 11
359.0512227376
 21
30.9584509954
  0
LINE
  8
0
 62
7
  6
CONTINUOUS
 10
360.2652852997
 20
31.3133515913
 11
360.3230977445
 21
31.216560532
  0
LINE
  8
0
 62
7
  6
CONTINUOUS
 10
360.6121602997
 20
31.216560532
 11
360.5543476894
 21
31.3456152777
  0
LINE
  8
0
 62
7
  6
CONTINUOUS
 10
362.0408487691
 20
36.0805298321
 11
362.0408487691
 21
34.2772511436
  0
LINE
  8
0
 62
7
  6
CONTINUOUS
 10
362.0408487691
 20
32.9657757338
 11
362.0408487691
 21
32.3100380288
  0
LINE
  8
0
 62
7
  6
CONTINUOUS
 10
362.4043477445
 20
31.1520331591
 11
362.4043477445
 21
30.5067593403
  0
LINE
  8
0
 62
7
  6
CONTINUOUS
 10
362.6934101343
 20
30.5067593403
 11
362.6934101343
 21
31.1520331591
  0
LINE
  8
0
 62
7
  6
CONTINUOUS
 10
359.0512227376
 20
31.0552420547
 11
359.1090352445
 21
31.1842968456
  0
LINE
  8
0
 62
7
  6
CONTINUOUS
 10
358.8199727462
 20
30.8293962497
 11
358.9355977445
 21
30.7003414814
  0
LINE
  8
0
 62
7
  6
CONTINUOUS
 10
362.3465351343
 20
31.2810879048
 11
362.4043477445
 21
31.1520331591
  0
LINE
  8
0
 62
7
  6
CONTINUOUS
 10
363.1559103548
 20
30.7971325633
 11
363.2137226343
 21
30.668077795
  0
LINE
  8
0
 62
7
  6
CONTINUOUS
 10
362.6934101343
 20
31.1520331591
 11
362.6355978548
 21
31.3133515913
  0
LINE
  8
0
 62
7
  6
CONTINUOUS
 10
363.1559103548
 20
31.3456152777
 11
363.1559103548
 21
31.2810879048
  0
LINE
  8
0
 62
7
  6
CONTINUOUS
 10
363.1559103548
 20
30.8939236226
 11
363.1559103548
 21
30.7971325633
  0
LINE
  8
0
 62
7
  6
CONTINUOUS
 10
363.4342913921
 20
32.3100380288
 11
363.4342913921
 21
36.0805298321
  0
LINE
  8
0
 62
7
  6
CONTINUOUS
 10
363.4449727445
 20
30.7648688543
 11
363.4449727445
 21
30.8293962497
  0
LINE
  8
0
 62
7
  6
CONTINUOUS
 10
363.7621602445
 20
36.0805298321
 11
363.7621602445
 21
32.3100380288
  0
LINE
  8
0
 62
7
  6
CONTINUOUS
 10
360.5543476894
 20
30.7003414814
 11
360.6121602997
 21
30.8293962497
  0
LINE
  8
0
 62
7
  6
CONTINUOUS
 10
364.9480979651
 20
30.6035504109
 11
364.890285024
 21
30.7648688543
  0
LINE
  8
0
 62
7
  6
CONTINUOUS
 10
364.6012229651
 20
31.2810879048
 11
364.6012229651
 21
31.1842968456
  0
LINE
  8
0
 62
7
  6
CONTINUOUS
 10
364.6012229651
 20
31.0552420547
 11
364.6012229651
 21
30.8616599362
  0
LINE
  8
0
 62
7
  6
CONTINUOUS
 10
364.890285024
 20
30.7648688543
 11
364.890285024
 21
31.2810879048
  0
LINE
  8
0
 62
7
  6
CONTINUOUS
 10
365.1556028675
 20
32.3100380288
 11
365.1556028675
 21
34.1133167174
  0
LINE
  8
0
 62
7
  6
CONTINUOUS
 10
365.1556028675
 20
35.4247921272
 11
365.1556028675
 21
36.0805298321
  0
LINE
  8
0
 62
7
  6
CONTINUOUS
 10
365.4684104651
 20
32.0231527829
 11
365.4684104651
 21
31.8618343508
  0
LINE
  8
0
 62
7
  6
CONTINUOUS
 10
365.4684104651
 20
31.5391973962
 11
365.4684104651
 21
30.5067593403
  0
LINE
  8
0
 62
7
  6
CONTINUOUS
 10
365.757472524
 20
30.5067593403
 11
365.757472524
 21
31.5391973962
  0
LINE
  8
0
 62
7
  6
CONTINUOUS
 10
365.757472524
 20
31.8618343508
 11
365.757472524
 21
32.0231527829
  0
LINE
  8
0
 62
7
  6
CONTINUOUS
 10
360.3230977445
 20
30.8293962497
 11
360.2652852997
 21
30.7326051679
  0
LINE
  8
0
 62
7
  6
CONTINUOUS
 10
362.6355978548
 20
31.3133515913
 11
362.5777852445
 21
31.3778789641
  0
LINE
  8
0
 62
7
  6
CONTINUOUS
 10
363.5027853548
 20
30.7003414814
 11
363.4449727445
 21
30.7648688543
  0
LINE
  8
0
 62
7
  6
CONTINUOUS
 10
364.6590352445
 20
30.5712867188
 11
364.716847524
 21
30.5067593403
  0
LINE
  8
0
 62
7
  6
CONTINUOUS
 10
364.6012229651
 20
30.668077795
 11
364.6590352445
 21
30.5712867188
  0
LINE
  8
0
 62
7
  6
CONTINUOUS
 10
365.0059102445
 20
30.5067593403
 11
364.9480979651
 21
30.6035504109
  0
LINE
  8
0
 62
7
  6
CONTINUOUS
 10
364.890285024
 20
31.2810879048
 11
364.8324727445
 21
31.3778789641
  0
LINE
  8
0
 62
7
  6
CONTINUOUS
 10
366.2199727445
 20
31.5391973962
 11
366.2199727445
 21
30.5067593403
  0
LINE
  8
0
 62
7
  6
CONTINUOUS
 10
366.5090354651
 20
30.5067593403
 11
366.5090354651
 21
31.2488242184
  0
LINE
  8
0
 62
7
  6
CONTINUOUS
 10
366.5090354651
 20
31.3778789641
 11
366.5090354651
 21
31.5391973962
  0
LINE
  8
0
 62
7
  6
CONTINUOUS
 10
367.0408487691
 20
34.5231527829
 11
367.0408487691
 21
32.3100380288
  0
LINE
  8
0
 62
7
  6
CONTINUOUS
 10
358.9355977445
 20
31.3456152777
 11
358.8199727462
 21
31.216560532
  0
LINE
  8
0
 62
7
  6
CONTINUOUS
 10
359.1090352445
 20
31.1842968456
 11
359.1668477307
 21
31.2488242184
  0
LINE
  8
0
 62
7
  6
CONTINUOUS
 10
358.9355977445
 20
30.7003414814
 11
359.0512227376
 21
30.6358140973
  0
LINE
  8
0
 62
7
  6
CONTINUOUS
 10
359.3402852307
 20
30.7003414814
 11
359.1668477307
 21
30.7971325633
  0
LINE
  8
0
 62
7
  6
CONTINUOUS
 10
364.543410024
 20
31.3456152777
 11
364.6012229651
 21
31.2810879048
  0
LINE
  8
0
 62
7
  6
CONTINUOUS
 10
367.491847524
 20
31.2810879048
 11
367.5496604651
 21
31.1197694727
  0
LINE
  8
0
 62
7
  6
CONTINUOUS
 10
367.838722524
 20
31.1197694727
 11
367.7809102445
 21
31.2810879048
  0
LINE
  8
0
 62
7
  6
CONTINUOUS
 10
367.5496604651
 20
31.1197694727
 11
367.5496604651
 21
30.5067593403
  0
LINE
  8
0
 62
7
  6
CONTINUOUS
 10
367.838722524
 20
30.5067593403
 11
367.838722524
 21
31.1197694727
  0
LINE
  8
0
 62
7
  6
CONTINUOUS
 10
368.3012227445
 20
31.3456152777
 11
368.3012227445
 21
31.2810879048
  0
LINE
  8
0
 62
7
  6
CONTINUOUS
 10
368.4342913921
 20
32.3100380288
 11
368.4342913921
 21
34.4411855698
  0
LINE
  8
0
 62
7
  6
CONTINUOUS
 10
368.7621602445
 20
36.0805298321
 11
368.7621602445
 21
32.3100380288
  0
LINE
  8
0
 62
7
  6
CONTINUOUS
 10
363.4449727445
 20
30.8293962497
 11
363.5027853548
 21
30.926187309
  0
LINE
  8
0
 62
7
  6
CONTINUOUS
 10
359.0512227376
 20
30.6358140973
 11
359.2246602583
 21
30.5712867188
  0
LINE
  8
0
 62
7
  6
CONTINUOUS
 10
360.5543476894
 20
31.3456152777
 11
360.3809101894
 21
31.4424063369
  0
LINE
  8
0
 62
7
  6
CONTINUOUS
 10
363.2137226343
 20
30.668077795
 11
363.3871601343
 21
30.5712867188
  0
LINE
  8
0
 62
7
  6
CONTINUOUS
 10
362.2309102445
 20
31.3456152777
 11
362.3465351343
 21
31.2810879048
  0
LINE
  8
0
 62
7
  6
CONTINUOUS
 10
362.5777852445
 20
31.3778789641
 11
362.4621603548
 21
31.4424063369
  0
LINE
  8
0
 62
7
  6
CONTINUOUS
 10
368.3012227445
 20
30.7648688543
 11
368.4168479651
 21
30.6358140973
  0
LINE
  8
0
 62
7
  6
CONTINUOUS
 10
368.6480977445
 20
30.7003414814
 11
368.5902854651
 21
30.7648688543
  0
LINE
  8
0
 62
7
  6
CONTINUOUS
 10
368.3012227445
 20
31.2810879048
 11
368.4168479651
 21
31.1520331591
  0
LINE
  8
0
 62
7
  6
CONTINUOUS
 10
367.7809102445
 20
31.2810879048
 11
367.7230979651
 21
31.3778789641
  0
LINE
  8
0
 62
7
  6
CONTINUOUS
 10
370.1512223035
 20
30.7003414814
 11
370.1512223035
 21
30.7648688543
  0
LINE
  8
0
 62
7
  6
CONTINUOUS
 10
370.1556028675
 20
32.3100380288
 11
370.1556028675
 21
36.0805298321
  0
LINE
  8
0
 62
7
  6
CONTINUOUS
 10
363.2137226343
 20
31.4101426505
 11
363.1559103548
 21
31.3456152777
  0
LINE
  8
0
 62
7
  6
CONTINUOUS
 10
360.091847717
 20
31.3778789641
 11
360.2652852997
 21
31.3133515913
  0
LINE
  8
0
 62
7
  6
CONTINUOUS
 10
364.8324727445
 20
31.3778789641
 11
364.716847524
 21
31.4424063369
  0
LINE
  8
0
 62
7
  6
CONTINUOUS
 10
368.6480977445
 20
31.216560532
 11
368.5902854651
 21
31.2810879048
  0
LINE
  8
0
 62
7
  6
CONTINUOUS
 10
369.8043479651
 20
30.8293962497
 11
369.8621602445
 21
30.7648688543
  0
LINE
  8
0
 62
7
  6
CONTINUOUS
 10
370.1512223035
 20
30.7648688543
 11
370.0355977445
 21
30.8939236226
  0
LINE
  8
0
 62
7
  6
CONTINUOUS
 10
369.8043479651
 20
31.3456152777
 11
369.8621602445
 21
31.2810879048
  0
LINE
  8
0
 62
7
  6
CONTINUOUS
 10
370.1512223035
 20
31.2810879048
 11
370.0355977445
 21
31.4101426505
  0
LINE
  8
0
 62
7
  6
CONTINUOUS
 10
363.4449727445
 20
31.2810879048
 11
363.5027853548
 21
31.3456152777
  0
LINE
  8
0
 62
7
  6
CONTINUOUS
 10
363.2715352445
 20
31.0229783683
 11
363.1559103548
 21
30.8939236226
  0
LINE
  8
0
 62
7
  6
CONTINUOUS
 10
364.6012229651
 20
30.8616599362
 11
364.543410024
 21
30.7971325633
  0
LINE
  8
0
 62
7
  6
CONTINUOUS
 10
364.543410024
 20
30.6035504109
 11
364.6012229651
 21
30.668077795
  0
LINE
  8
0
 62
7
  6
CONTINUOUS
 10
363.3871601343
 20
30.5712867188
 11
363.5027853548
 21
30.5390230296
  0
LINE
  8
0
 62
7
  6
CONTINUOUS
 10
360.3809101894
 20
31.4424063369
 11
360.1496602445
 21
31.5069337098
  0
LINE
  8
0
 62
7
  6
CONTINUOUS
 10
363.7340351343
 20
30.6358140973
 11
363.5027853548
 21
30.7003414814
  0
LINE
  8
0
 62
7
  6
CONTINUOUS
 10
362.4621603548
 20
31.4424063369
 11
362.2887228548
 21
31.5069337098
  0
LINE
  8
0
 62
7
  6
CONTINUOUS
 10
364.716847524
 20
31.4424063369
 11
364.543410024
 21
31.5069337098
  0
LINE
  8
0
 62
7
  6
CONTINUOUS
 10
367.3762229651
 20
31.3456152777
 11
367.491847524
 21
31.2810879048
  0
LINE
  8
0
 62
7
  6
CONTINUOUS
 10
367.7230979651
 20
31.3778789641
 11
367.6074727445
 21
31.4424063369
  0
LINE
  8
0
 62
7
  6
CONTINUOUS
 10
359.2246602583
 20
30.5712867188
 11
359.3980977583
 21
30.5390230296
  0
LINE
  8
0
 62
7
  6
CONTINUOUS
 10
359.6871602721
 20
30.6358140973
 11
359.3402852307
 21
30.7003414814
  0
LINE
  8
0
 62
7
  6
CONTINUOUS
 10
362.1152853548
 20
31.3778789641
 11
362.2309102445
 21
31.3456152777
  0
LINE
  8
0
 62
7
  6
CONTINUOUS
 10
364.4277854651
 20
31.3778789641
 11
364.543410024
 21
31.3456152777
  0
LINE
  8
0
 62
7
  6
CONTINUOUS
 10
368.7637229651
 20
30.668077795
 11
368.6480977445
 21
30.7003414814
  0
LINE
  8
0
 62
7
  6
CONTINUOUS
 10
367.2605977445
 20
31.3778789641
 11
367.3762229651
 21
31.3456152777
  0
LINE
  8
0
 62
7
  6
CONTINUOUS
 10
368.4168479651
 20
30.6358140973
 11
368.5902854651
 21
30.5712867188
  0
LINE
  8
0
 62
7
  6
CONTINUOUS
 10
367.6074727445
 20
31.4424063369
 11
367.4340352445
 21
31.5069337098
  0
LINE
  8
0
 62
7
  6
CONTINUOUS
 10
368.8215352445
 20
31.1520331591
 11
368.6480977445
 21
31.216560532
  0
LINE
  8
0
 62
7
  6
CONTINUOUS
 10
369.6309104651
 20
30.8939236226
 11
369.8043479651
 21
30.8293962497
  0
LINE
  8
0
 62
7
  6
CONTINUOUS
 10
370.0355977445
 20
31.4101426505
 11
369.8621602445
 21
31.4746700234
  0
LINE
  8
0
 62
7
  6
CONTINUOUS
 10
368.4168479651
 20
31.1520331591
 11
368.6480977445
 21
31.0552420547
  0
LINE
  8
0
 62
7
  6
CONTINUOUS
 10
370.0355977445
 20
30.8939236226
 11
369.8043479651
 21
30.9907146818
  0
LINE
  8
0
 62
7
  6
CONTINUOUS
 10
368.5902854651
 20
31.2810879048
 11
368.6480977445
 21
31.3456152777
  0
LINE
  8
0
 62
7
  6
CONTINUOUS
 10
359.0512227376
 20
31.4101426505
 11
358.9355977445
 21
31.3456152777
  0
LINE
  8
0
 62
7
  6
CONTINUOUS
 10
359.1668477307
 20
31.2488242184
 11
359.3402852307
 21
31.3456152777
  0
LINE
  8
0
 62
7
  6
CONTINUOUS
 10
361.4793477997
 20
31.4424063369
 11
361.3637227445
 21
31.3778789641
  0
LINE
  8
0
 62
7
  6
CONTINUOUS
 10
361.3637227445
 20
31.2488242184
 11
361.4793477997
 21
31.3133515913
  0
LINE
  8
0
 62
7
  6
CONTINUOUS
 10
360.3809101894
 20
30.6035504109
 11
360.5543476894
 21
30.7003414814
  0
LINE
  8
0
 62
7
  6
CONTINUOUS
 10
359.3980977583
 20
30.5390230296
 11
359.744972717
 21
30.5067593403
  0
LINE
  8
0
 62
7
  6
CONTINUOUS
 10
363.5027853548
 20
30.5390230296
 11
363.7340351343
 21
30.5067593403
  0
LINE
  8
0
 62
7
  6
CONTINUOUS
 10
361.8840352445
 20
31.4101426505
 11
362.1152853548
 21
31.3778789641
  0
LINE
  8
0
 62
7
  6
CONTINUOUS
 10
364.1965353548
 20
31.4101426505
 11
364.4277854651
 21
31.3778789641
  0
LINE
  8
0
 62
7
  6
CONTINUOUS
 10
368.6480977445
 20
31.0552420547
 11
369.6309104651
 21
30.8939236226
  0
LINE
  8
0
 62
7
  6
CONTINUOUS
 10
369.8043479651
 20
30.9907146818
 11
368.8215352445
 21
31.1520331591
  0
LINE
  8
0
 62
7
  6
CONTINUOUS
 10
362.2887228548
 20
31.5069337098
 11
362.1152853548
 21
31.5391973962
  0
LINE
  8
0
 62
7
  6
CONTINUOUS
 10
368.5902854651
 20
30.5712867188
 11
368.7637229651
 21
30.5390230296
  0
LINE
  8
0
 62
7
  6
CONTINUOUS
 10
367.4340352445
 20
31.5069337098
 11
367.2605977445
 21
31.5391973962
  0
LINE
  8
0
 62
7
  6
CONTINUOUS
 10
369.6887227445
 20
31.3778789641
 11
369.8043479651
 21
31.3456152777
  0
LINE
  8
0
 62
7
  6
CONTINUOUS
 10
369.8621602445
 20
30.7648688543
 11
369.8043479651
 21
30.7003414814
  0
LINE
  8
0
 62
7
  6
CONTINUOUS
 10
368.4168479651
 20
31.4424063369
 11
368.3012227445
 21
31.3456152777
  0
LINE
  8
0
 62
7
  6
CONTINUOUS
 10
363.3293478548
 20
31.4746700234
 11
363.2137226343
 21
31.4101426505
  0
LINE
  8
0
 62
7
  6
CONTINUOUS
 10
363.3871601343
 20
31.0875057863
 11
363.2715352445
 21
31.0229783683
  0
LINE
  8
0
 62
7
  6
CONTINUOUS
 10
363.5027853548
 20
30.926187309
 11
363.6184102445
 21
30.9907146818
  0
LINE
  8
0
 62
7
  6
CONTINUOUS
 10
361.0746601894
 20
30.5067593403
 11
361.3637227445
 21
30.5067593403
  0
LINE
  8
0
 62
7
  6
CONTINUOUS
 10
362.4043477445
 20
30.5067593403
 11
362.6934101343
 21
30.5067593403
  0
LINE
  8
0
 62
7
  6
CONTINUOUS
 10
363.7340351343
 20
30.5067593403
 11
364.0809101343
 21
30.5067593403
  0
LINE
  8
0
 62
7
  6
CONTINUOUS
 10
364.716847524
 20
30.5067593403
 11
365.0059102445
 21
30.5067593403
  0
LINE
  8
0
 62
7
  6
CONTINUOUS
 10
365.4684104651
 20
30.5067593403
 11
365.757472524
 21
30.5067593403
  0
LINE
  8
0
 62
7
  6
CONTINUOUS
 10
366.2199727445
 20
30.5067593403
 11
366.5090354651
 21
30.5067593403
  0
LINE
  8
0
 62
7
  6
CONTINUOUS
 10
367.5496604651
 20
30.5067593403
 11
367.838722524
 21
30.5067593403
  0
LINE
  8
0
 62
7
  6
CONTINUOUS
 10
369.1105979651
 20
30.5067593403
 11
369.4574729651
 21
30.5067593403
  0
LINE
  8
0
 62
7
  6
CONTINUOUS
 10
369.4574729651
 20
30.6358140973
 11
369.1105979651
 21
30.6358140973
  0
LINE
  8
0
 62
7
  6
CONTINUOUS
 10
364.0809101343
 20
30.6358140973
 11
363.7340351343
 21
30.6358140973
  0
LINE
  8
0
 62
7
  6
CONTINUOUS
 10
368.5902854651
 20
30.7648688543
 11
368.3012227445
 21
30.7648688543
  0
LINE
  8
0
 62
7
  6
CONTINUOUS
 10
360.6121602997
 20
30.8293962497
 11
360.3230977445
 21
30.8293962497
  0
LINE
  8
0
 62
7
  6
CONTINUOUS
 10
359.6871602721
 20
31.4101426505
 11
360.091847717
 21
31.3778789641
  0
LINE
  8
0
 62
7
  6
CONTINUOUS
 10
360.1496602445
 20
31.5069337098
 11
359.744972717
 21
31.5391973962
  0
LINE
  8
0
 62
7
  6
CONTINUOUS
 10
368.7637229651
 20
30.5390230296
 11
369.1105979651
 21
30.5067593403
  0
LINE
  8
0
 62
7
  6
CONTINUOUS
 10
369.1105979651
 20
30.6358140973
 11
368.7637229651
 21
30.668077795
  0
LINE
  8
0
 62
7
  6
CONTINUOUS
 10
364.543410024
 20
31.5069337098
 11
364.1965353548
 21
31.5391973962
  0
LINE
  8
0
 62
7
  6
CONTINUOUS
 10
369.3418477445
 20
31.4101426505
 11
369.6887227445
 21
31.3778789641
  0
LINE
  8
0
 62
7
  6
CONTINUOUS
 10
369.6887227445
 20
31.5069337098
 11
369.3418477445
 21
31.5391973962
  0
LINE
  8
0
 62
7
  6
CONTINUOUS
 10
367.0293479651
 20
31.4101426505
 11
367.2605977445
 21
31.3778789641
  0
LINE
  8
0
 62
7
  6
CONTINUOUS
 10
369.8621602445
 20
31.4746700234
 11
369.6887227445
 21
31.5069337098
  0
LINE
  8
0
 62
7
  6
CONTINUOUS
 10
370.0355977445
 20
30.6035504109
 11
370.1512223035
 21
30.7003414814
  0
LINE
  8
0
 62
7
  6
CONTINUOUS
 10
364.543410024
 20
30.7971325633
 11
364.369972524
 21
30.7003414814
  0
LINE
  8
0
 62
7
  6
CONTINUOUS
 10
366.624660024
 20
31.4424063369
 11
366.5090354651
 21
31.3778789641
  0
LINE
  8
0
 62
7
  6
CONTINUOUS
 10
366.5090354651
 20
31.2488242184
 11
366.624660024
 21
31.3133515913
  0
LINE
  8
0
 62
7
  6
CONTINUOUS
 10
359.2246602583
 20
31.4746700234
 11
359.0512227376
 21
31.4101426505
  0
LINE
  8
0
 62
7
  6
CONTINUOUS
 10
361.6527851343
 20
31.5069337098
 11
361.4793477997
 21
31.4424063369
  0
LINE
  8
0
 62
7
  6
CONTINUOUS
 10
361.4793477997
 20
31.3133515913
 11
361.6527851343
 21
31.3778789641
  0
LINE
  8
0
 62
7
  6
CONTINUOUS
 10
360.2652852997
 20
30.7326051679
 11
360.091847717
 21
30.668077795
  0
LINE
  8
0
 62
7
  6
CONTINUOUS
 10
369.6887227445
 20
30.668077795
 11
369.4574729651
 21
30.6358140973
  0
LINE
  8
0
 62
7
  6
CONTINUOUS
 10
364.0809101343
 20
30.5067593403
 11
364.369972524
 21
30.5390230296
  0
LINE
  8
0
 62
7
  6
CONTINUOUS
 10
369.4574729651
 20
30.5067593403
 11
369.8043479651
 21
30.5390230296
  0
LINE
  8
0
 62
7
  6
CONTINUOUS
 10
359.744972717
 20
30.5067593403
 11
360.1496602445
 21
30.5390230296
  0
LINE
  8
0
 62
7
  6
CONTINUOUS
 10
360.091847717
 20
30.668077795
 11
359.6871602721
 21
30.6358140973
  0
LINE
  8
0
 62
7
  6
CONTINUOUS
 10
363.9652852445
 20
31.0552420547
 11
364.6012229651
 21
31.0552420547
  0
LINE
  8
0
 62
7
  6
CONTINUOUS
 10
364.6012229651
 20
31.1842968456
 11
363.9652852445
 21
31.1842968456
  0
LINE
  8
0
 62
7
  6
CONTINUOUS
 10
360.3230977445
 20
31.216560532
 11
360.6121602997
 21
31.216560532
  0
LINE
  8
0
 62
7
  6
CONTINUOUS
 10
363.1559103548
 20
31.2810879048
 11
363.4449727445
 21
31.2810879048
  0
LINE
  8
0
 62
7
  6
CONTINUOUS
 10
369.8621602445
 20
31.2810879048
 11
370.1512223035
 21
31.2810879048
  0
LINE
  8
0
 62
7
  6
CONTINUOUS
 10
363.8496603548
 20
31.4101426505
 11
364.1965353548
 21
31.4101426505
  0
LINE
  8
0
 62
7
  6
CONTINUOUS
 10
368.9949727445
 20
31.4101426505
 11
369.3418477445
 21
31.4101426505
  0
LINE
  8
0
 62
7
  6
CONTINUOUS
 10
369.3418477445
 20
31.5391973962
 11
368.9949727445
 21
31.5391973962
  0
LINE
  8
0
 62
7
  6
CONTINUOUS
 10
367.2605977445
 20
31.5391973962
 11
367.0293479651
 21
31.5391973962
  0
LINE
  8
0
 62
7
  6
CONTINUOUS
 10
366.5090354651
 20
31.5391973962
 11
366.2199727445
 21
31.5391973962
  0
LINE
  8
0
 62
7
  6
CONTINUOUS
 10
365.757472524
 20
31.5391973962
 11
365.4684104651
 21
31.5391973962
  0
LINE
  8
0
 62
7
  6
CONTINUOUS
 10
364.1965353548
 20
31.5391973962
 11
363.8496603548
 21
31.5391973962
  0
LINE
  8
0
 62
7
  6
CONTINUOUS
 10
362.1152853548
 20
31.5391973962
 11
361.8840352445
 21
31.5391973962
  0
LINE
  8
0
 62
7
  6
CONTINUOUS
 10
365.4684104651
 20
31.8618343508
 11
365.757472524
 21
31.8618343508
  0
LINE
  8
0
 62
7
  6
CONTINUOUS
 10
365.757472524
 20
32.0231527829
 11
365.4684104651
 21
32.0231527829
  0
LINE
  8
0
 62
7
  6
CONTINUOUS
 10
361.3637227445
 20
32.0231527829
 11
361.0746601894
 21
32.0231527829
  0
LINE
  8
0
 62
7
  6
CONTINUOUS
 10
360.4015045068
 20
32.3100380288
 11
360.8140758554
 21
32.3100380288
  0
LINE
  8
0
 62
7
  6
CONTINUOUS
 10
362.0408487691
 20
32.3100380288
 11
363.4342913921
 21
32.3100380288
  0
LINE
  8
0
 62
7
  6
CONTINUOUS
 10
363.7621602445
 20
32.3100380288
 11
365.1556028675
 21
32.3100380288
  0
LINE
  8
0
 62
7
  6
CONTINUOUS
 10
367.0408487691
 20
32.3100380288
 11
368.4342913921
 21
32.3100380288
  0
LINE
  8
0
 62
7
  6
CONTINUOUS
 10
368.7621602445
 20
32.3100380288
 11
370.1556028675
 21
32.3100380288
  0
LINE
  8
0
 62
7
  6
CONTINUOUS
 10
366.798097524
 20
31.5069337098
 11
366.624660024
 21
31.4424063369
  0
LINE
  8
0
 62
7
  6
CONTINUOUS
 10
364.369972524
 20
30.5390230296
 11
364.543410024
 21
30.6035504109
  0
LINE
  8
0
 62
7
  6
CONTINUOUS
 10
369.8043479651
 20
30.5390230296
 11
370.0355977445
 21
30.6035504109
  0
LINE
  8
0
 62
7
  6
CONTINUOUS
 10
369.8043479651
 20
30.7003414814
 11
369.6887227445
 21
30.668077795
  0
LINE
  8
0
 62
7
  6
CONTINUOUS
 10
368.7637229651
 20
31.3778789641
 11
368.9949727445
 21
31.4101426505
  0
LINE
  8
0
 62
7
  6
CONTINUOUS
 10
366.798097524
 20
31.3778789641
 11
367.0293479651
 21
31.4101426505
  0
LINE
  8
0
 62
7
  6
CONTINUOUS
 10
363.7340351343
 20
31.0229783683
 11
363.9652852445
 21
31.0552420547
  0
LINE
  8
0
 62
7
  6
CONTINUOUS
 10
367.0293479651
 20
31.5391973962
 11
366.798097524
 21
31.5069337098
  0
LINE
  8
0
 62
7
  6
CONTINUOUS
 10
363.6184102445
 20
31.3778789641
 11
363.8496603548
 21
31.4101426505
  0
LINE
  8
0
 62
7
  6
CONTINUOUS
 10
368.9949727445
 20
31.5391973962
 11
368.6480977445
 21
31.5069337098
  0
LINE
  8
0
 62
7
  6
CONTINUOUS
 10
363.9652852445
 20
31.1842968456
 11
363.6184102445
 21
31.1520331591
  0
LINE
  8
0
 62
7
  6
CONTINUOUS
 10
359.744972717
 20
31.5391973962
 11
359.3980977583
 21
31.5069337098
  0
LINE
  8
0
 62
7
  6
CONTINUOUS
 10
363.8496603548
 20
31.5391973962
 11
363.4449727445
 21
31.5069337098
  0
LINE
  8
0
 62
7
  6
CONTINUOUS
 10
361.221176638
 20
33.4575790124
 11
360.565438933
 21
33.4575790124
  0
LINE
  8
0
 62
7
  6
CONTINUOUS
 10
366.624660024
 20
31.3133515913
 11
366.798097524
 21
31.3778789641
  0
LINE
  8
0
 62
7
  6
CONTINUOUS
 10
368.6480977445
 20
31.3456152777
 11
368.7637229651
 21
31.3778789641
  0
LINE
  8
0
 62
7
  6
CONTINUOUS
 10
368.6480977445
 20
31.5069337098
 11
368.4168479651
 21
31.4424063369
  0
LINE
  8
0
 62
7
  6
CONTINUOUS
 10
364.369972524
 20
30.7003414814
 11
364.0809101343
 21
30.6358140973
  0
LINE
  8
0
 62
7
  6
CONTINUOUS
 10
361.6527851343
 20
31.3778789641
 11
361.8840352445
 21
31.4101426505
  0
LINE
  8
0
 62
7
  6
CONTINUOUS
 10
361.8840352445
 20
31.5391973962
 11
361.6527851343
 21
31.5069337098
  0
LINE
  8
0
 62
7
  6
CONTINUOUS
 10
359.4559102445
 20
31.3778789641
 11
359.6871602721
 21
31.4101426505
  0
LINE
  8
0
 62
7
  6
CONTINUOUS
 10
365.9752749986
 20
34.9329888485
 11
366.6310127035
 21
34.9329888485
  0
LINE
  8
0
 62
7
  6
CONTINUOUS
 10
363.6184102445
 20
30.9907146818
 11
363.7340351343
 21
31.0229783683
  0
LINE
  8
0
 62
7
  6
CONTINUOUS
 10
363.6184102445
 20
31.1520331591
 11
363.3871601343
 21
31.0875057863
  0
LINE
  8
0
 62
7
  6
CONTINUOUS
 10
363.5027853548
 20
31.3456152777
 11
363.6184102445
 21
31.3778789641
  0
LINE
  8
0
 62
7
  6
CONTINUOUS
 10
360.1496602445
 20
30.5390230296
 11
360.3809101894
 21
30.6035504109
  0
LINE
  8
0
 62
7
  6
CONTINUOUS
 10
363.4449727445
 20
31.5069337098
 11
363.3293478548
 21
31.4746700234
  0
LINE
  8
0
 62
7
  6
CONTINUOUS
 10
359.3980977583
 20
31.5069337098
 11
359.2246602583
 21
31.4746700234
  0
LINE
  8
0
 62
7
  6
CONTINUOUS
 10
370.1556028675
 20
36.0805298321
 11
368.7621602445
 21
36.0805298321
  0
LINE
  8
0
 62
7
  6
CONTINUOUS
 10
366.7949471298
 20
36.0805298321
 11
366.3823757812
 21
36.0805298321
  0
LINE
  8
0
 62
7
  6
CONTINUOUS
 10
365.1556028675
 20
36.0805298321
 11
363.7621602445
 21
36.0805298321
  0
LINE
  8
0
 62
7
  6
CONTINUOUS
 10
363.4342913921
 20
36.0805298321
 11
362.0408487691
 21
36.0805298321
  0
LINE
  8
0
 62
7
  6
CONTINUOUS
 10
360.1556028675
 20
36.0805298321
 11
358.7621602445
 21
36.0805298321
  0
LINE
  8
0
 62
7
  6
CONTINUOUS
 10
359.3402852307
 20
31.3456152777
 11
359.4559102445
 21
31.3778789641
  0
CIRCLE
  8
0
 62
7
  6
CONTINUOUS
 10
369.458881556
 20
38.4165954059
 40
2.0901639344
  0
ARC
  8
0
 62
7
  6
CONTINUOUS
 10
360.4015045068
 20
33.9493822911
 40
1.6393442623
 50
180.0
 51
270.0
  0
ARC
  8
0
 62
7
  6
CONTINUOUS
 10
366.7949471298
 20
34.4411855698
 40
1.6393442623
 50
0.0
 51
90.0
  0
ARC
  8
0
 62
7
  6
CONTINUOUS
 10
360.8140758554
 20
33.7854478649
 40
1.4754098361
 50
270.0
 51
326.2510114041
  0
ARC
  8
0
 62
7
  6
CONTINUOUS
 10
366.3823757812
 20
34.6051199961
 40
1.4754098361
 50
90.0
 51
146.2510114041
  0
ARC
  8
0
 62
7
  6
CONTINUOUS
 10
361.221176638
 20
34.2772511436
 40
0.8196721311
 50
270.0
 51
360.0
  0
ARC
  8
0
 62
7
  6
CONTINUOUS
 10
365.9752749986
 20
34.1133167174
 40
0.8196721311
 50
90.0
 51
180.0
  0
ARC
  8
0
 62
7
  6
CONTINUOUS
 10
360.565438933
 20
33.867415078
 40
0.4098360656
 50
180.0
 51
270.0
  0
ARC
  8
0
 62
7
  6
CONTINUOUS
 10
366.6310127035
 20
34.5231527829
 40
0.4098360656
 50
0.0
 51
90.0
  0
SOLID
  8
0
 62
7
  6
CONTINUOUS
 10
365.4684104651
 20
31.8618347111
 11
365.4684104651
 21
32.0231531947
 12
365.757472524
 22
31.8618347111
 13
365.757472524
 23
32.0231531947
  0
SOLID
  8
0
 62
7
  6
CONTINUOUS
 10
359.744972717
 20
31.5391977439
 11
360.1496602445
 21
31.5069333244
 12
359.3980977583
 22
31.5069333244
 13
359.3980977583
 23
31.5069333244
  0
SOLID
  8
0
 62
7
  6
CONTINUOUS
 10
359.2246602583
 20
31.4746706537
 11
359.3980977583
 21
31.5069333244
 12
360.1496602445
 22
31.5069333244
 13
360.1496602445
 23
31.5069333244
  0
SOLID
  8
0
 62
7
  6
CONTINUOUS
 10
360.1496602445
 20
31.5069333244
 11
360.3809101894
 21
31.4424063504
 12
359.2246602583
 22
31.4746706537
 13
359.2246602583
 23
31.4746706537
  0
SOLID
  8
0
 62
7
  6
CONTINUOUS
 10
359.0512227376
 20
31.4101419116
 11
359.2246602583
 21
31.4746706537
 12
360.3809101894
 22
31.4424063504
 13
360.3809101894
 23
31.4424063504
  0
SOLID
  8
0
 62
7
  6
CONTINUOUS
 10
359.0512227376
 20
31.4101419116
 11
360.3809101894
 21
31.4424063504
 12
359.6871602721
 22
31.4101419116
 13
359.6871602721
 23
31.4101419116
  0
SOLID
  8
0
 62
7
  6
CONTINUOUS
 10
359.6871602721
 20
31.4101419116
 11
360.3809101894
 21
31.4424063504
 12
360.091847717
 22
31.3778792603
 13
360.091847717
 23
31.3778792603
  0
SOLID
  8
0
 62
7
  6
CONTINUOUS
 10
360.3809101894
 20
31.4424063504
 11
360.5543476894
 21
31.345614957
 12
360.091847717
 22
31.3778792603
 13
360.091847717
 23
31.3778792603
  0
SOLID
  8
0
 62
7
  6
CONTINUOUS
 10
360.2652852997
 20
31.3133521701
 11
360.091847717
 21
31.3778792603
 12
360.5543476894
 22
31.345614957
 13
360.5543476894
 23
31.345614957
  0
SOLID
  8
0
 62
7
  6
CONTINUOUS
 10
360.2652852997
 20
31.3133521701
 11
360.5543476894
 21
31.345614957
 12
360.3230977445
 22
31.2165606992
 13
360.3230977445
 23
31.2165606992
  0
SOLID
  8
0
 62
7
  6
CONTINUOUS
 10
360.5543476894
 20
31.345614957
 11
360.6121602997
 21
31.2165606992
 12
360.3230977445
 22
31.2165606992
 13
360.3230977445
 23
31.2165606992
  0
SOLID
  8
0
 62
7
  6
CONTINUOUS
 10
361.6527851343
 20
31.5069329918
 11
361.8840352445
 21
31.5391972951
 12
362.1152853548
 22
31.5391972951
 13
362.1152853548
 23
31.5391972951
  0
SOLID
  8
0
 62
7
  6
CONTINUOUS
 10
362.1152853548
 20
31.5391972951
 11
362.2887228548
 21
31.5069329918
 12
361.6527851343
 22
31.5069329918
 13
361.6527851343
 23
31.5069329918
  0
SOLID
  8
0
 62
7
  6
CONTINUOUS
 10
361.4793477997
 20
31.4424059016
 11
361.6527851343
 21
31.5069329918
 12
362.2887228548
 22
31.5069329918
 13
362.2887228548
 23
31.5069329918
  0
SOLID
  8
0
 62
7
  6
CONTINUOUS
 10
362.2887228548
 20
31.5069329918
 11
362.4621603548
 21
31.4424059016
 12
361.4793477997
 22
31.4424059016
 13
361.4793477997
 23
31.4424059016
  0
SOLID
  8
0
 62
7
  6
CONTINUOUS
 10
362.4621603548
 20
31.4424059016
 11
361.8840352445
 21
31.4101420472
 12
361.4793477997
 22
31.4424059016
 13
361.4793477997
 23
31.4424059016
  0
SOLID
  8
0
 62
7
  6
CONTINUOUS
 10
361.3637227445
 20
31.3778788115
 11
361.4793477997
 21
31.4424059016
 12
361.8840352445
 22
31.4101420472
 13
361.8840352445
 23
31.4101420472
  0
SOLID
  8
0
 62
7
  6
CONTINUOUS
 10
361.8840352445
 20
31.4101420472
 11
361.6527851343
 21
31.3778788115
 12
361.3637227445
 22
31.3778788115
 13
361.3637227445
 23
31.3778788115
  0
SOLID
  8
0
 62
7
  6
CONTINUOUS
 10
361.8840352445
 20
31.4101420472
 11
362.4621603548
 21
31.4424059016
 12
362.1152853548
 22
31.3778788115
 13
362.1152853548
 23
31.3778788115
  0
SOLID
  8
0
 62
7
  6
CONTINUOUS
 10
362.4621603548
 20
31.4424059016
 11
362.5777852445
 21
31.3778788115
 12
362.1152853548
 22
31.3778788115
 13
362.1152853548
 23
31.3778788115
  0
SOLID
  8
0
 62
7
  6
CONTINUOUS
 10
362.2309102445
 20
31.345614957
 11
362.1152853548
 21
31.3778788115
 12
362.5777852445
 22
31.3778788115
 13
362.5777852445
 23
31.3778788115
  0
SOLID
  8
0
 62
7
  6
CONTINUOUS
 10
362.5777852445
 20
31.3778788115
 11
362.6355978548
 21
31.3133517213
 12
362.2309102445
 22
31.345614957
 13
362.2309102445
 23
31.345614957
  0
SOLID
  8
0
 62
7
  6
CONTINUOUS
 10
362.3465351343
 20
31.2810878668
 11
362.2309102445
 21
31.345614957
 12
362.6355978548
 22
31.3133517213
 13
362.6355978548
 23
31.3133517213
  0
SOLID
  8
0
 62
7
  6
CONTINUOUS
 10
362.3465351343
 20
31.2810878668
 11
362.6355978548
 21
31.3133517213
 12
362.4043477445
 22
31.1520332377
 13
362.4043477445
 23
31.1520332377
  0
SOLID
  8
0
 62
7
  6
CONTINUOUS
 10
362.6355978548
 20
31.3133517213
 11
362.6934101343
 21
31.1520332377
 12
362.4043477445
 22
31.1520332377
 13
362.4043477445
 23
31.1520332377
  0
SOLID
  8
0
 62
7
  6
CONTINUOUS
 10
361.6527851343
 20
31.3778788115
 11
361.4793477997
 21
31.3133517213
 12
361.3637227445
 22
31.3778788115
 13
361.3637227445
 23
31.3778788115
  0
SOLID
  8
0
 62
7
  6
CONTINUOUS
 10
361.4793477997
 20
31.3133517213
 11
361.3637227445
 21
31.2488235635
 12
361.3637227445
 22
31.3778788115
 13
361.3637227445
 23
31.3778788115
  0
SOLID
  8
0
 62
7
  6
CONTINUOUS
 10
361.3637227445
 20
31.2488235635
 11
361.0746601894
 21
30.5067593033
 12
361.3637227445
 22
31.3778788115
 13
361.3637227445
 23
31.3778788115
  0
SOLID
  8
0
 62
7
  6
CONTINUOUS
 10
361.3637227445
 20
31.3778788115
 11
361.0746601894
 21
30.5067593033
 12
361.3637227445
 22
32.0231527459
 13
361.3637227445
 23
32.0231527459
  0
SOLID
  8
0
 62
7
  6
CONTINUOUS
 10
361.0746601894
 20
30.5067593033
 11
361.0746601894
 21
32.0231527459
 12
361.3637227445
 22
32.0231527459
 13
361.3637227445
 23
32.0231527459
  0
SOLID
  8
0
 62
7
  6
CONTINUOUS
 10
361.3637227445
 20
31.2488235635
 11
361.3637227445
 21
30.5067593033
 12
361.0746601894
 22
30.5067593033
 13
361.0746601894
 23
30.5067593033
  0
SOLID
  8
0
 62
7
  6
CONTINUOUS
 10
362.4043477445
 20
30.5067593033
 11
362.4043477445
 21
31.1520332377
 12
362.6934101343
 22
31.1520332377
 13
362.6934101343
 23
31.1520332377
  0
SOLID
  8
0
 62
7
  6
CONTINUOUS
 10
362.6934101343
 20
31.1520332377
 11
362.6934101343
 21
30.5067593033
 12
362.4043477445
 22
30.5067593033
 13
362.4043477445
 23
30.5067593033
  0
SOLID
  8
0
 62
7
  6
CONTINUOUS
 10
363.4449727445
 20
31.506933758
 11
363.8496603548
 21
31.5391977507
 12
364.1965353548
 22
31.5391977507
 13
364.1965353548
 23
31.5391977507
  0
SOLID
  8
0
 62
7
  6
CONTINUOUS
 10
364.1965353548
 20
31.5391977507
 11
364.543410024
 21
31.506933758
 12
363.4449727445
 22
31.506933758
 13
363.4449727445
 23
31.506933758
  0
SOLID
  8
0
 62
7
  6
CONTINUOUS
 10
363.3293478548
 20
31.4746706537
 11
363.4449727445
 21
31.506933758
 12
364.543410024
 22
31.506933758
 13
364.543410024
 23
31.506933758
  0
SOLID
  8
0
 62
7
  6
CONTINUOUS
 10
364.543410024
 20
31.506933758
 11
364.716847524
 21
31.4424063504
 12
363.3293478548
 22
31.4746706537
 13
363.3293478548
 23
31.4746706537
  0
SOLID
  8
0
 62
7
  6
CONTINUOUS
 10
363.2137226343
 20
31.4101417797
 11
363.3293478548
 21
31.4746706537
 12
364.716847524
 22
31.4424063504
 13
364.716847524
 23
31.4424063504
  0
SOLID
  8
0
 62
7
  6
CONTINUOUS
 10
363.2137226343
 20
31.4101417797
 11
364.716847524
 21
31.4424063504
 12
363.8496603548
 22
31.4101417797
 13
363.8496603548
 23
31.4101417797
  0
SOLID
  8
0
 62
7
  6
CONTINUOUS
 10
363.8496603548
 20
31.4101417797
 11
364.716847524
 21
31.4424063504
 12
364.1965353548
 22
31.4101417797
 13
364.1965353548
 23
31.4101417797
  0
SOLID
  8
0
 62
7
  6
CONTINUOUS
 10
364.1965353548
 20
31.4101417797
 11
364.716847524
 21
31.4424063504
 12
364.4277854651
 22
31.3778793357
 13
364.4277854651
 23
31.3778793357
  0
SOLID
  8
0
 62
7
  6
CONTINUOUS
 10
364.716847524
 20
31.4424063504
 11
364.8324727445
 21
31.3778793357
 12
364.4277854651
 22
31.3778793357
 13
364.4277854651
 23
31.3778793357
  0
SOLID
  8
0
 62
7
  6
CONTINUOUS
 10
363.1559103548
 20
31.3456153429
 11
363.2137226343
 21
31.4101417797
 12
363.8496603548
 22
31.4101417797
 13
363.8496603548
 23
31.4101417797
  0
SOLID
  8
0
 62
7
  6
CONTINUOUS
 10
364.543410024
 20
31.3456153429
 11
364.4277854651
 21
31.3778793357
 12
364.8324727445
 22
31.3778793357
 13
364.8324727445
 23
31.3778793357
  0
SOLID
  8
0
 62
7
  6
CONTINUOUS
 10
364.543410024
 20
31.3456153429
 11
364.8324727445
 21
31.3778793357
 12
364.6012229651
 22
31.2810881318
 13
364.6012229651
 23
31.2810881318
  0
SOLID
  8
0
 62
7
  6
CONTINUOUS
 10
364.8324727445
 20
31.3778793357
 11
364.890285024
 21
31.2810881318
 12
364.6012229651
 22
31.2810881318
 13
364.6012229651
 23
31.2810881318
  0
SOLID
  8
0
 62
7
  6
CONTINUOUS
 10
364.6012229651
 20
31.1842964734
 11
364.6012229651
 21
31.2810881318
 12
364.890285024
 22
31.2810881318
 13
364.890285024
 23
31.2810881318
  0
SOLID
  8
0
 62
7
  6
CONTINUOUS
 10
364.6012229651
 20
31.1842964734
 11
364.890285024
 21
31.2810881318
 12
364.6012229651
 22
31.0552422931
 13
364.6012229651
 23
31.0552422931
  0
SOLID
  8
0
 62
7
  6
CONTINUOUS
 10
364.6012229651
 20
31.0552422931
 11
364.890285024
 21
31.2810881318
 12
364.6012229651
 22
30.8616599362
 13
364.6012229651
 23
30.8616599362
  0
SOLID
  8
0
 62
7
  6
CONTINUOUS
 10
364.890285024
 20
31.2810881318
 11
364.890285024
 21
30.7648681127
 12
364.6012229651
 22
30.8616599362
 13
364.6012229651
 23
30.8616599362
  0
SOLID
  8
0
 62
7
  6
CONTINUOUS
 10
366.798097524
 20
31.5069339419
 11
367.0293479651
 21
31.5391976292
 12
367.2605977445
 22
31.5391976292
 13
367.2605977445
 23
31.5391976292
  0
SOLID
  8
0
 62
7
  6
CONTINUOUS
 10
367.2605977445
 20
31.5391976292
 11
367.4340352445
 21
31.5069339419
 12
366.798097524
 22
31.5069339419
 13
366.798097524
 23
31.5069339419
  0
SOLID
  8
0
 62
7
  6
CONTINUOUS
 10
366.624660024
 20
31.4424065674
 11
366.798097524
 21
31.5069339419
 12
367.4340352445
 22
31.5069339419
 13
367.4340352445
 23
31.5069339419
  0
SOLID
  8
0
 62
7
  6
CONTINUOUS
 10
367.4340352445
 20
31.5069339419
 11
367.6074727445
 21
31.4424065674
 12
366.624660024
 22
31.4424065674
 13
366.624660024
 23
31.4424065674
  0
SOLID
  8
0
 62
7
  6
CONTINUOUS
 10
367.6074727445
 20
31.4424065674
 11
367.0293479651
 21
31.4101420472
 12
366.624660024
 22
31.4424065674
 13
366.624660024
 23
31.4424065674
  0
SOLID
  8
0
 62
7
  6
CONTINUOUS
 10
366.5090354651
 20
31.377879193
 11
366.624660024
 21
31.4424065674
 12
367.0293479651
 22
31.4101420472
 13
367.0293479651
 23
31.4101420472
  0
SOLID
  8
0
 62
7
  6
CONTINUOUS
 10
367.0293479651
 20
31.4101420472
 11
366.798097524
 21
31.377879193
 12
366.5090354651
 22
31.377879193
 13
366.5090354651
 23
31.377879193
  0
SOLID
  8
0
 62
7
  6
CONTINUOUS
 10
367.0293479651
 20
31.4101420472
 11
367.6074727445
 21
31.4424065674
 12
367.2605977445
 22
31.377879193
 13
367.2605977445
 23
31.377879193
  0
SOLID
  8
0
 62
7
  6
CONTINUOUS
 10
367.6074727445
 20
31.4424065674
 11
367.7230979651
 21
31.377879193
 12
367.2605977445
 22
31.377879193
 13
367.2605977445
 23
31.377879193
  0
SOLID
  8
0
 62
7
  6
CONTINUOUS
 10
367.3762229651
 20
31.345614957
 11
367.2605977445
 21
31.377879193
 12
367.7230979651
 22
31.377879193
 13
367.7230979651
 23
31.377879193
  0
SOLID
  8
0
 62
7
  6
CONTINUOUS
 10
367.3762229651
 20
31.345614957
 11
367.7230979651
 21
31.377879193
 12
367.491847524
 22
31.2810881312
 13
367.491847524
 23
31.2810881312
  0
SOLID
  8
0
 62
7
  6
CONTINUOUS
 10
367.7230979651
 20
31.377879193
 11
367.7809102445
 21
31.2810881312
 12
367.491847524
 22
31.2810881312
 13
367.491847524
 23
31.2810881312
  0
SOLID
  8
0
 62
7
  6
CONTINUOUS
 10
367.5496604651
 20
31.119769695
 11
367.491847524
 21
31.2810881312
 12
367.7809102445
 22
31.2810881312
 13
367.7809102445
 23
31.2810881312
  0
SOLID
  8
0
 62
7
  6
CONTINUOUS
 10
367.7809102445
 20
31.2810881312
 11
367.838722524
 21
31.119769695
 12
367.5496604651
 22
31.119769695
 13
367.5496604651
 23
31.119769695
  0
SOLID
  8
0
 62
7
  6
CONTINUOUS
 10
366.798097524
 20
31.377879193
 11
366.624660024
 21
31.3133521701
 12
366.5090354651
 22
31.377879193
 13
366.5090354651
 23
31.377879193
  0
SOLID
  8
0
 62
7
  6
CONTINUOUS
 10
366.624660024
 20
31.3133521701
 11
366.5090354651
 21
31.2488235635
 12
366.5090354651
 22
31.377879193
 13
366.5090354651
 23
31.377879193
  0
SOLID
  8
0
 62
7
  6
CONTINUOUS
 10
366.5090354651
 20
31.2488235635
 11
366.2199727445
 21
30.5067596374
 12
366.5090354651
 22
31.377879193
 13
366.5090354651
 23
31.377879193
  0
SOLID
  8
0
 62
7
  6
CONTINUOUS
 10
366.5090354651
 20
31.377879193
 11
366.2199727445
 21
30.5067596374
 12
366.5090354651
 22
31.5391976292
 13
366.5090354651
 23
31.5391976292
  0
SOLID
  8
0
 62
7
  6
CONTINUOUS
 10
366.2199727445
 20
30.5067596374
 11
366.2199727445
 21
31.5391976292
 12
366.5090354651
 22
31.5391976292
 13
366.5090354651
 23
31.5391976292
  0
SOLID
  8
0
 62
7
  6
CONTINUOUS
 10
366.5090354651
 20
31.2488235635
 11
366.5090354651
 21
30.5067596374
 12
366.2199727445
 22
30.5067596374
 13
366.2199727445
 23
30.5067596374
  0
SOLID
  8
0
 62
7
  6
CONTINUOUS
 10
367.5496604651
 20
30.5067596374
 11
367.5496604651
 21
31.119769695
 12
367.838722524
 22
31.119769695
 13
367.838722524
 23
31.119769695
  0
SOLID
  8
0
 62
7
  6
CONTINUOUS
 10
367.838722524
 20
31.119769695
 11
367.838722524
 21
30.5067596374
 12
367.5496604651
 22
30.5067596374
 13
367.5496604651
 23
30.5067596374
  0
SOLID
  8
0
 62
7
  6
CONTINUOUS
 10
368.6480977445
 20
31.5069334157
 11
368.9949727445
 21
31.539197762
 12
369.3418477445
 22
31.539197762
 13
369.3418477445
 23
31.539197762
  0
SOLID
  8
0
 62
7
  6
CONTINUOUS
 10
369.3418477445
 20
31.539197762
 11
369.6887227445
 21
31.5069334157
 12
368.6480977445
 22
31.5069334157
 13
368.6480977445
 23
31.5069334157
  0
SOLID
  8
0
 62
7
  6
CONTINUOUS
 10
368.4168479651
 20
31.4424063504
 11
368.6480977445
 21
31.5069334157
 12
369.6887227445
 22
31.5069334157
 13
369.6887227445
 23
31.5069334157
  0
SOLID
  8
0
 62
7
  6
CONTINUOUS
 10
368.4168479651
 20
31.4424063504
 11
369.6887227445
 21
31.5069334406
 12
369.8621602445
 22
31.4746706537
 13
369.8621602445
 23
31.4746706537
  0
SOLID
  8
0
 62
7
  6
CONTINUOUS
 10
368.4168479651
 20
31.4424063504
 11
369.8621602445
 21
31.4746706537
 12
368.9949727445
 22
31.4101421267
 13
368.9949727445
 23
31.4101421267
  0
SOLID
  8
0
 62
7
  6
CONTINUOUS
 10
368.9949727445
 20
31.4101421267
 11
369.8621602445
 21
31.4746706537
 12
369.3418477445
 22
31.4101421267
 13
369.3418477445
 23
31.4101421267
  0
SOLID
  8
0
 62
7
  6
CONTINUOUS
 10
369.8621602445
 20
31.4746706537
 11
370.0355977445
 21
31.4101421267
 12
369.3418477445
 22
31.4101421267
 13
369.3418477445
 23
31.4101421267
  0
SOLID
  8
0
 62
7
  6
CONTINUOUS
 10
369.6887227445
 20
31.3778792603
 11
369.3418477445
 21
31.4101421267
 12
370.0355977445
 22
31.4101421267
 13
370.0355977445
 23
31.4101421267
  0
SOLID
  8
0
 62
7
  6
CONTINUOUS
 10
368.3012227445
 20
31.3456148845
 11
368.4168479651
 21
31.4424063504
 12
368.9949727445
 22
31.4101421267
 13
368.9949727445
 23
31.4101421267
  0
SOLID
  8
0
 62
7
  6
CONTINUOUS
 10
369.6887227445
 20
31.3778792603
 11
370.0355977445
 21
31.4101421267
 12
369.8043479651
 22
31.3456148845
 13
369.8043479651
 23
31.3456148845
  0
SOLID
  8
0
 62
7
  6
CONTINUOUS
 10
369.8043479651
 20
31.3456148845
 11
370.0355977445
 21
31.4101421267
 12
369.8621602445
 22
31.281087868
 13
369.8621602445
 23
31.281087868
  0
SOLID
  8
0
 62
7
  6
CONTINUOUS
 10
370.0355977445
 20
31.4101421267
 11
370.1512223035
 21
31.281087868
 12
369.8621602445
 22
31.281087868
 13
369.8621602445
 23
31.281087868
  0
SOLID
  8
0
 62
7
  6
CONTINUOUS
 10
359.4559102445
 20
31.3778792603
 11
358.9355977445
 21
31.3456148963
 12
359.6871602721
 22
31.4101421155
 13
359.6871602721
 23
31.4101421155
  0
SOLID
  8
0
 62
7
  6
CONTINUOUS
 10
358.9355977445
 20
31.3456148963
 11
359.0512227376
 21
31.4101421155
 12
359.6871602721
 22
31.4101421155
 13
359.6871602721
 23
31.4101421155
  0
SOLID
  8
0
 62
7
  6
CONTINUOUS
 10
359.4559102445
 20
31.3778792603
 11
359.3402852307
 21
31.3456148963
 12
358.9355977445
 22
31.3456148963
 13
358.9355977445
 23
31.3456148963
  0
SOLID
  8
0
 62
7
  6
CONTINUOUS
 10
358.8199727462
 20
31.2165607767
 11
358.9355977445
 21
31.3456148963
 12
359.3402852307
 22
31.3456148963
 13
359.3402852307
 23
31.3456148963
  0
SOLID
  8
0
 62
7
  6
CONTINUOUS
 10
363.1559103548
 20
31.3456149608
 11
363.8496603548
 21
31.4101420472
 12
363.6184102445
 22
31.3778792603
 13
363.6184102445
 23
31.3778792603
  0
SOLID
  8
0
 62
7
  6
CONTINUOUS
 10
363.6184102445
 20
31.3778792603
 11
363.5027853548
 21
31.3456149608
 12
363.1559103548
 22
31.3456149608
 13
363.1559103548
 23
31.3456149608
  0
SOLID
  8
0
 62
7
  6
CONTINUOUS
 10
363.1559103548
 20
31.2810878707
 11
363.1559103548
 21
31.3456149608
 12
363.5027853548
 22
31.3456149608
 13
363.5027853548
 23
31.3456149608
  0
SOLID
  8
0
 62
7
  6
CONTINUOUS
 10
363.5027853548
 20
31.3456149608
 11
363.4449727445
 21
31.2810878707
 12
363.1559103548
 22
31.2810878707
 13
363.1559103548
 23
31.2810878707
  0
SOLID
  8
0
 62
7
  6
CONTINUOUS
 10
368.3012227445
 20
31.3456149608
 11
368.9949727445
 21
31.4101420472
 12
368.7637229651
 22
31.3778792603
 13
368.7637229651
 23
31.3778792603
  0
SOLID
  8
0
 62
7
  6
CONTINUOUS
 10
368.7637229651
 20
31.3778792603
 11
368.6480977445
 21
31.3456149608
 12
368.3012227445
 22
31.3456149608
 13
368.3012227445
 23
31.3456149608
  0
SOLID
  8
0
 62
7
  6
CONTINUOUS
 10
368.3012227445
 20
31.2810878707
 11
368.3012227445
 21
31.3456149608
 12
368.6480977445
 22
31.3456149608
 13
368.6480977445
 23
31.3456149608
  0
SOLID
  8
0
 62
7
  6
CONTINUOUS
 10
368.6480977445
 20
31.3456149608
 11
368.5902854651
 21
31.2810878707
 12
368.3012227445
 22
31.2810878707
 13
368.3012227445
 23
31.2810878707
  0
SOLID
  8
0
 62
7
  6
CONTINUOUS
 10
368.4168479651
 20
31.1520336865
 11
368.3012227445
 21
31.2810878707
 12
368.5902854651
 22
31.2810878707
 13
368.5902854651
 23
31.2810878707
  0
SOLID
  8
0
 62
7
  6
CONTINUOUS
 10
358.8199727462
 20
31.2165607767
 11
359.3402852307
 21
31.345614957
 12
359.1668477307
 22
31.2488235635
 13
359.1668477307
 23
31.2488235635
  0
SOLID
  8
0
 62
7
  6
CONTINUOUS
 10
359.1668477307
 20
31.2488235635
 11
359.1090352445
 21
31.1842964734
 12
358.8199727462
 22
31.2165607767
 13
358.8199727462
 23
31.2165607767
  0
SOLID
  8
0
 62
7
  6
CONTINUOUS
 10
358.7621602445
 20
31.0229779898
 11
358.8199727462
 21
31.2165607767
 12
359.1090352445
 22
31.1842964734
 13
359.1090352445
 23
31.1842964734
  0
SOLID
  8
0
 62
7
  6
CONTINUOUS
 10
363.6184102445
 20
31.1520336865
 11
363.9652852445
 21
31.1842964611
 12
364.6012229651
 22
31.1842964611
 13
364.6012229651
 23
31.1842964611
  0
SOLID
  8
0
 62
7
  6
CONTINUOUS
 10
363.6184102445
 20
31.1520336865
 11
364.6012229651
 21
31.1842964611
 12
363.3871601343
 22
31.0875057863
 13
363.3871601343
 23
31.0875057863
  0
SOLID
  8
0
 62
7
  6
CONTINUOUS
 10
363.3871601343
 20
31.0875057863
 11
364.6012229651
 21
31.1842964611
 12
363.9652852445
 22
31.0552422808
 13
363.9652852445
 23
31.0552422808
  0
SOLID
  8
0
 62
7
  6
CONTINUOUS
 10
364.6012229651
 20
31.1842964611
 11
364.6012229651
 21
31.0552422808
 12
363.9652852445
 22
31.0552422808
 13
363.9652852445
 23
31.0552422808
  0
SOLID
  8
0
 62
7
  6
CONTINUOUS
 10
368.4168479651
 20
31.1520338754
 11
368.5902854651
 21
31.2810878668
 12
368.6480977445
 22
31.2165607767
 13
368.6480977445
 23
31.2165607767
  0
SOLID
  8
0
 62
7
  6
CONTINUOUS
 10
368.6480977445
 20
31.2165607767
 11
368.8215352445
 21
31.1520338754
 12
368.4168479651
 22
31.1520338754
 13
368.4168479651
 23
31.1520338754
  0
SOLID
  8
0
 62
7
  6
CONTINUOUS
 10
368.6480977445
 20
31.0552422931
 11
368.4168479651
 21
31.1520338754
 12
368.8215352445
 22
31.1520338754
 13
368.8215352445
 23
31.1520338754
  0
SOLID
  8
0
 62
7
  6
CONTINUOUS
 10
368.8215352445
 20
31.1520338754
 11
369.8043479651
 21
30.9907152029
 12
368.6480977445
 22
31.0552422931
 13
368.6480977445
 23
31.0552422931
  0
SOLID
  8
0
 62
7
  6
CONTINUOUS
 10
369.6309104651
 20
30.8939239876
 11
368.6480977445
 21
31.0552422931
 12
369.8043479651
 22
30.9907152029
 13
369.8043479651
 23
30.9907152029
  0
SOLID
  8
0
 62
7
  6
CONTINUOUS
 10
369.8043479651
 20
30.9907152029
 11
370.0355977445
 21
30.8939239876
 12
369.6309104651
 22
30.8939239876
 13
369.6309104651
 23
30.8939239876
  0
SOLID
  8
0
 62
7
  6
CONTINUOUS
 10
369.8043479651
 20
30.8293967193
 11
369.6309104651
 21
30.8939239876
 12
370.0355977445
 22
30.8939239876
 13
370.0355977445
 23
30.8939239876
  0
SOLID
  8
0
 62
7
  6
CONTINUOUS
 10
369.8043479651
 20
30.8293967193
 11
370.0355977445
 21
30.8939239876
 12
369.8621602445
 22
30.7648682694
 13
369.8621602445
 23
30.7648682694
  0
SOLID
  8
0
 62
7
  6
CONTINUOUS
 10
370.0355977445
 20
30.8939239876
 11
370.1512223035
 21
30.7648682694
 12
369.8621602445
 22
30.7648682694
 13
369.8621602445
 23
30.7648682694
  0
SOLID
  8
0
 62
7
  6
CONTINUOUS
 10
369.8043479651
 20
30.7003411846
 11
369.8621602445
 21
30.7648682694
 12
370.1512223035
 22
30.7648682694
 13
370.1512223035
 23
30.7648682694
  0
SOLID
  8
0
 62
7
  6
CONTINUOUS
 10
370.1512223035
 20
30.7648682694
 11
370.1512223035
 21
30.7003411846
 12
369.8043479651
 22
30.7003411846
 13
369.8043479651
 23
30.7003411846
  0
SOLID
  8
0
 62
7
  6
CONTINUOUS
 10
369.6887227445
 20
30.6680782357
 11
369.8043479651
 21
30.7003411846
 12
370.1512223035
 22
30.7003411846
 13
370.1512223035
 23
30.7003411846
  0
SOLID
  8
0
 62
7
  6
CONTINUOUS
 10
369.6887227445
 20
30.6680782357
 11
370.1512223035
 21
30.7003411846
 12
369.4574729651
 22
30.6358140998
 13
369.4574729651
 23
30.6358140998
  0
SOLID
  8
0
 62
7
  6
CONTINUOUS
 10
370.1512223035
 20
30.7003411846
 11
370.0355977445
 21
30.6035511455
 12
369.4574729651
 22
30.6358140998
 13
369.4574729651
 23
30.6358140998
  0
SOLID
  8
0
 62
7
  6
CONTINUOUS
 10
370.0355977445
 20
30.6035511455
 11
368.5902854651
 21
30.5712868422
 12
369.4574729651
 22
30.6358140998
 13
369.4574729651
 23
30.6358140998
  0
SOLID
  8
0
 62
7
  6
CONTINUOUS
 10
369.4574729651
 20
30.6358140998
 11
368.5902854651
 21
30.5712868422
 12
369.1105979651
 22
30.6358140998
 13
369.1105979651
 23
30.6358140998
  0
SOLID
  8
0
 62
7
  6
CONTINUOUS
 10
368.5902854651
 20
30.5712868422
 11
368.4168479651
 21
30.6358140998
 12
369.1105979651
 22
30.6358140998
 13
369.1105979651
 23
30.6358140998
  0
SOLID
  8
0
 62
7
  6
CONTINUOUS
 10
368.5902854651
 20
30.5712868422
 11
370.0355977445
 21
30.6035511455
 12
368.7637229651
 22
30.5390223111
 13
368.7637229651
 23
30.5390223111
  0
SOLID
  8
0
 62
7
  6
CONTINUOUS
 10
370.0355977445
 20
30.6035511455
 11
369.8043479651
 21
30.5390223111
 12
368.7637229651
 22
30.5390223111
 13
368.7637229651
 23
30.5390223111
  0
SOLID
  8
0
 62
7
  6
CONTINUOUS
 10
369.1105979651
 20
30.5067599302
 11
368.7637229651
 21
30.5390223111
 12
369.8043479651
 22
30.5390223111
 13
369.8043479651
 23
30.5390223111
  0
SOLID
  8
0
 62
7
  6
CONTINUOUS
 10
369.8043479651
 20
30.5390223111
 11
369.4574729651
 21
30.5067599302
 12
369.1105979651
 22
30.5067599302
 13
369.1105979651
 23
30.5067599302
  0
SOLID
  8
0
 62
7
  6
CONTINUOUS
 10
358.7621602445
 20
31.0229779898
 11
359.1090352445
 21
31.1842964734
 12
359.0512227376
 22
31.0552422931
 13
359.0512227376
 23
31.0552422931
  0
SOLID
  8
0
 62
7
  6
CONTINUOUS
 10
359.0512227376
 20
31.0552422931
 11
359.0512227376
 21
30.9584509954
 12
358.7621602445
 22
31.0229779898
 13
358.7621602445
 23
31.0229779898
  0
SOLID
  8
0
 62
7
  6
CONTINUOUS
 10
358.8199727462
 20
30.8293967193
 11
358.7621602445
 21
31.0229779898
 12
359.0512227376
 22
30.9584509954
 13
359.0512227376
 23
30.9584509954
  0
SOLID
  8
0
 62
7
  6
CONTINUOUS
 10
359.0512227376
 20
30.9584509954
 11
359.1668477307
 21
30.797132416
 12
358.8199727462
 22
30.8293967193
 13
358.8199727462
 23
30.8293967193
  0
SOLID
  8
0
 62
7
  6
CONTINUOUS
 10
358.9355977445
 20
30.7003413087
 11
358.8199727462
 21
30.8293967193
 12
359.1668477307
 22
30.797132416
 13
359.1668477307
 23
30.797132416
  0
SOLID
  8
0
 62
7
  6
CONTINUOUS
 10
359.1668477307
 20
30.797132416
 11
359.3402852307
 21
30.7003413087
 12
358.9355977445
 22
30.7003413087
 13
358.9355977445
 23
30.7003413087
  0
SOLID
  8
0
 62
7
  6
CONTINUOUS
 10
359.0512227376
 20
30.6358140759
 11
358.9355977445
 21
30.7003413087
 12
359.3402852307
 22
30.7003413087
 13
359.3402852307
 23
30.7003413087
  0
SOLID
  8
0
 62
7
  6
CONTINUOUS
 10
359.3402852307
 20
30.7003413087
 11
359.6871602721
 21
30.6358140759
 12
359.0512227376
 22
30.6358140759
 13
359.0512227376
 23
30.6358140759
  0
SOLID
  8
0
 62
7
  6
CONTINUOUS
 10
359.2246602583
 20
30.5712868422
 11
359.0512227376
 21
30.6358140759
 12
359.6871602721
 22
30.6358140759
 13
359.6871602721
 23
30.6358140759
  0
SOLID
  8
0
 62
7
  6
CONTINUOUS
 10
363.2715352445
 20
31.0229779808
 11
363.3871601343
 21
31.0875057863
 12
363.9652852445
 22
31.0552422931
 13
363.9652852445
 23
31.0552422931
  0
SOLID
  8
0
 62
7
  6
CONTINUOUS
 10
363.9652852445
 20
31.0552422931
 11
363.7340351343
 21
31.0229779808
 12
363.2715352445
 22
31.0229779808
 13
363.2715352445
 23
31.0229779808
  0
SOLID
  8
0
 62
7
  6
CONTINUOUS
 10
363.1559103548
 20
30.8939238094
 11
363.2715352445
 21
31.0229779808
 12
363.7340351343
 22
31.0229779808
 13
363.7340351343
 23
31.0229779808
  0
SOLID
  8
0
 62
7
  6
CONTINUOUS
 10
363.5027853548
 20
30.926187309
 11
363.1559103548
 21
30.8939238094
 12
363.6184102445
 22
30.9907152029
 13
363.6184102445
 23
30.9907152029
  0
SOLID
  8
0
 62
7
  6
CONTINUOUS
 10
363.1559103548
 20
30.8939238094
 11
363.7340351343
 21
31.0229779898
 12
363.6184102445
 22
30.9907152029
 13
363.6184102445
 23
30.9907152029
  0
SOLID
  8
0
 62
7
  6
CONTINUOUS
 10
363.5027853548
 20
30.926187309
 11
363.4449727445
 21
30.8293967193
 12
363.1559103548
 22
30.8939238094
 13
363.1559103548
 23
30.8939238094
  0
SOLID
  8
0
 62
7
  6
CONTINUOUS
 10
363.1559103548
 20
30.797132416
 11
363.1559103548
 21
30.8939238094
 12
363.4449727445
 22
30.8293967193
 13
363.4449727445
 23
30.8293967193
  0
SOLID
  8
0
 62
7
  6
CONTINUOUS
 10
363.4449727445
 20
30.8293967193
 11
363.4449727445
 21
30.7648681127
 12
363.1559103548
 22
30.797132416
 13
363.1559103548
 23
30.797132416
  0
SOLID
  8
0
 62
7
  6
CONTINUOUS
 10
363.2137226343
 20
30.6680782357
 11
363.1559103548
 21
30.797132416
 12
363.4449727445
 22
30.7648681127
 13
363.4449727445
 23
30.7648681127
  0
SOLID
  8
0
 62
7
  6
CONTINUOUS
 10
364.6012229651
 20
30.8616599362
 11
364.890285024
 21
30.7648681127
 12
364.543410024
 22
30.797132416
 13
364.543410024
 23
30.797132416
  0
SOLID
  8
0
 62
7
  6
CONTINUOUS
 10
364.369972524
 20
30.7003410226
 11
364.543410024
 21
30.797132416
 12
364.890285024
 22
30.7648681127
 13
364.890285024
 23
30.7648681127
  0
SOLID
  8
0
 62
7
  6
CONTINUOUS
 10
364.369972524
 20
30.7003410226
 11
364.890285024
 21
30.7648681127
 12
364.6012229651
 22
30.6680782357
 13
364.6012229651
 23
30.6680782357
  0
SOLID
  8
0
 62
7
  6
CONTINUOUS
 10
364.890285024
 20
30.7648681127
 11
364.9480979651
 21
30.6035511455
 12
364.6012229651
 22
30.6680782357
 13
364.6012229651
 23
30.6680782357
  0
SOLID
  8
0
 62
7
  6
CONTINUOUS
 10
364.6590352445
 20
30.5712868422
 11
364.6012229651
 21
30.6680782357
 12
364.9480979651
 22
30.6035511455
 13
364.9480979651
 23
30.6035511455
  0
SOLID
  8
0
 62
7
  6
CONTINUOUS
 10
364.6590352445
 20
30.5712868422
 11
364.9480979651
 21
30.6035511455
 12
364.716847524
 22
30.5067598731
 13
364.716847524
 23
30.5067598731
  0
SOLID
  8
0
 62
7
  6
CONTINUOUS
 10
364.9480979651
 20
30.6035511455
 11
365.0059102445
 21
30.5067598731
 12
364.716847524
 22
30.5067598731
 13
364.716847524
 23
30.5067598731
  0
SOLID
  8
0
 62
7
  6
CONTINUOUS
 10
360.2652852997
 20
30.7326051679
 11
360.3230977445
 21
30.8293966612
 12
360.6121602997
 22
30.8293966612
 13
360.6121602997
 23
30.8293966612
  0
SOLID
  8
0
 62
7
  6
CONTINUOUS
 10
360.6121602997
 20
30.8293966612
 11
360.5543476894
 21
30.7003410226
 12
360.2652852997
 22
30.7326051679
 13
360.2652852997
 23
30.7326051679
  0
SOLID
  8
0
 62
7
  6
CONTINUOUS
 10
360.091847717
 20
30.6680782357
 11
360.2652852997
 21
30.7326051679
 12
360.5543476894
 22
30.7003410226
 13
360.5543476894
 23
30.7003410226
  0
SOLID
  8
0
 62
7
  6
CONTINUOUS
 10
360.091847717
 20
30.6680782357
 11
360.5543476894
 21
30.7003410226
 12
359.6871602721
 22
30.6358139324
 13
359.6871602721
 23
30.6358139324
  0
SOLID
  8
0
 62
7
  6
CONTINUOUS
 10
360.5543476894
 20
30.7003410226
 11
360.3809101894
 21
30.6035511455
 12
359.6871602721
 22
30.6358139324
 13
359.6871602721
 23
30.6358139324
  0
SOLID
  8
0
 62
7
  6
CONTINUOUS
 10
359.2246602583
 20
30.5712868422
 11
359.6871602721
 21
30.6358139324
 12
360.3809101894
 22
30.6035511455
 13
360.3809101894
 23
30.6035511455
  0
SOLID
  8
0
 62
7
  6
CONTINUOUS
 10
359.2246602583
 20
30.5712868422
 11
360.3809101894
 21
30.6035511455
 12
359.3980977583
 22
30.5390224228
 13
359.3980977583
 23
30.5390224228
  0
SOLID
  8
0
 62
7
  6
CONTINUOUS
 10
360.3809101894
 20
30.6035511455
 11
360.1496602445
 21
30.5390224228
 12
359.3980977583
 22
30.5390224228
 13
359.3980977583
 23
30.5390224228
  0
SOLID
  8
0
 62
7
  6
CONTINUOUS
 10
359.744972717
 20
30.5067597521
 11
359.3980977583
 21
30.5390224228
 12
360.1496602445
 22
30.5390224228
 13
360.1496602445
 23
30.5390224228
  0
SOLID
  8
0
 62
7
  6
CONTINUOUS
 10
363.2137226343
 20
30.6680782357
 11
363.4449727445
 21
30.7648681127
 12
363.5027853548
 22
30.7003410226
 13
363.5027853548
 23
30.7003410226
  0
SOLID
  8
0
 62
7
  6
CONTINUOUS
 10
363.5027853548
 20
30.7003410226
 11
363.7340351343
 21
30.6358139324
 12
363.2137226343
 22
30.6680782357
 13
363.2137226343
 23
30.6680782357
  0
SOLID
  8
0
 62
7
  6
CONTINUOUS
 10
363.3871601343
 20
30.5712868422
 11
363.2137226343
 21
30.6680782357
 12
363.7340351343
 22
30.6358139324
 13
363.7340351343
 23
30.6358139324
  0
SOLID
  8
0
 62
7
  6
CONTINUOUS
 10
364.0809101343
 20
30.6358139363
 11
364.369972524
 21
30.7003410226
 12
364.6012229651
 22
30.6680782357
 13
364.6012229651
 23
30.6680782357
  0
SOLID
  8
0
 62
7
  6
CONTINUOUS
 10
364.6012229651
 20
30.6680782357
 11
364.543410024
 21
30.6035511455
 12
364.0809101343
 22
30.6358139363
 13
364.0809101343
 23
30.6358139363
  0
SOLID
  8
0
 62
7
  6
CONTINUOUS
 10
364.543410024
 20
30.6035511455
 11
363.3871601343
 21
30.5712868422
 12
364.0809101343
 22
30.6358139363
 13
364.0809101343
 23
30.6358139363
  0
SOLID
  8
0
 62
7
  6
CONTINUOUS
 10
363.3871601343
 20
30.5712868422
 11
363.7340351343
 21
30.6358139363
 12
364.0809101343
 22
30.6358139363
 13
364.0809101343
 23
30.6358139363
  0
SOLID
  8
0
 62
7
  6
CONTINUOUS
 10
363.3871601343
 20
30.5712868422
 11
364.543410024
 21
30.6035511455
 12
363.5027853548
 22
30.5390225267
 13
363.5027853548
 23
30.5390225267
  0
SOLID
  8
0
 62
7
  6
CONTINUOUS
 10
364.543410024
 20
30.6035511455
 11
364.369972524
 21
30.5390225267
 12
363.5027853548
 22
30.5390225267
 13
363.5027853548
 23
30.5390225267
  0
SOLID
  8
0
 62
7
  6
CONTINUOUS
 10
363.7340351343
 20
30.5067596914
 11
363.5027853548
 21
30.5390225267
 12
364.369972524
 22
30.5390225267
 13
364.369972524
 23
30.5390225267
  0
SOLID
  8
0
 62
7
  6
CONTINUOUS
 10
364.369972524
 20
30.5390225267
 11
364.0809101343
 21
30.5067596914
 12
363.7340351343
 22
30.5067596914
 13
363.7340351343
 23
30.5067596914
  0
SOLID
  8
0
 62
7
  6
CONTINUOUS
 10
368.7637229651
 20
30.6680782357
 11
368.4168479651
 21
30.6358138717
 12
368.6480977445
 22
30.7003410226
 13
368.6480977445
 23
30.7003410226
  0
SOLID
  8
0
 62
7
  6
CONTINUOUS
 10
368.6480977445
 20
30.7003410226
 11
368.4168479651
 21
30.6358138717
 12
368.5902854651
 22
30.7648680521
 13
368.5902854651
 23
30.7648680521
  0
SOLID
  8
0
 62
7
  6
CONTINUOUS
 10
368.4168479651
 20
30.6358138717
 11
368.3012227445
 21
30.7648680521
 12
368.5902854651
 22
30.7648680521
 13
368.5902854651
 23
30.7648680521
  0
SOLID
  8
0
 62
7
  6
CONTINUOUS
 10
368.7637229651
 20
30.6680782357
 11
369.1105979651
 21
30.6358138717
 12
368.4168479651
 22
30.6358138717
 13
368.4168479651
 23
30.6358138717
  0
SOLID
  8
0
 62
7
  6
CONTINUOUS
 10
365.4684104651
 20
30.5067597521
 11
365.4684104651
 21
31.5391977439
 12
365.757472524
 22
30.5067597521
 13
365.757472524
 23
31.5391977439
  0
ENDBLK
  8
0
  6
BYBLOCK
 62
0
  0
BLOCK
  8
0
 62
2
  6
CONTINUOUS
  2
SYMBOL_0_BL0
 70
64
 10
240.8592468615
 20
19.762288695
  0
TEXT
  8
0
 62
7
  6
CONTINUOUS
 10
227.1239507038
 20
19.1357028027
  7
TEXTSTYLE_3
 40
2.7338706658
  1
Ammeraal Beltech
 41
1.0
 51
15.0
 72
0
  0
TEXT
  8
0
 62
7
  6
CONTINUOUS
 10
237.9247515296
 20
16.8621661299
  7
TEXTSTYLE_4
 40
1.0935482663
  1
Innovation & Service in Belting
 41
1.0
 72
0
  0
LINE
  8
0
 62
7
  6
CONTINUOUS
 10
221.0994100525
 20
19.9022961113
 11
221.8775620458
 21
23.5632134089
  0
LINE
  8
0
 62
7
  6
CONTINUOUS
 10
231.9727303357
 20
27.2266073205
 11
222.3653797889
 21
24.1049898993
  0
LINE
  8
0
 62
7
  6
CONTINUOUS
 10
221.3246933848
 20
19.2089453082
 11
228.8317686459
 21
12.4495443822
  0
LINE
  8
0
 62
7
  6
CONTINUOUS
 10
221.5872277955
 20
20.4440726016
 11
232.3954971607
 21
23.9558922005
  0
LINE
  8
0
 62
7
  6
CONTINUOUS
 10
232.3912920235
 20
13.6061036368
 11
223.9458323548
 21
21.2104296785
  0
LINE
  8
0
 62
7
  6
CONTINUOUS
 10
232.9111147433
 20
26.3816822048
 11
231.9345552061
 21
21.7873308023
  0
LINE
  8
0
 62
7
  6
CONTINUOUS
 10
231.2347532584
 20
18.4950214885
 11
230.5483050469
 21
15.2655365641
  0
LINE
  8
0
 62
7
  6
CONTINUOUS
 10
233.5922108419
 20
13.9963058145
 11
234.5484423775
 21
18.4950214885
  0
LINE
  8
0
 62
7
  6
CONTINUOUS
 10
235.2482443252
 20
21.7873308023
 11
235.6924861276
 21
23.8773241617
  0
LINE
  8
0
 62
7
  6
CONTINUOUS
 10
229.5448697213
 20
12.2979700695
 11
233.1043930989
 21
13.4545293241
  0
LINE
  8
0
 62
7
  6
CONTINUOUS
 10
232.685831411
 20
27.0750330078
 11
235.4672027953
 21
24.5706749648
  0
ARC
  8
0
 62
7
  6
CONTINUOUS
 10
222.5906631212
 20
23.4116390962
 40
0.7290321776
 50
108.0
 51
168.0
  0
ARC
  8
0
 62
7
  6
CONTINUOUS
 10
232.198013668
 20
26.5332565175
 40
0.7290321776
 50
348.0
 51
108.0
  0
ARC
  8
0
 62
7
  6
CONTINUOUS
 10
234.9793850522
 20
24.0288984744
 40
0.7290321776
 50
348.0
 51
48.0
  0
ARC
  8
0
 62
7
  6
CONTINUOUS
 10
229.319586389
 20
12.9913208726
 40
0.7290321776
 50
228.0
 51
288.0
  0
ARC
  8
0
 62
7
  6
CONTINUOUS
 10
221.8125111278
 20
19.7507217986
 40
0.7290321776
 50
108.0
 51
228.0
  0
ARC
  8
0
 62
7
  6
CONTINUOUS
 10
232.8791097665
 20
14.1478801272
 40
0.7290321776
 50
228.0
 51
348.0
  0
ENDBLK
  8
0
  6
BYBLOCK
 62
0
  0
ENDSEC
  0
SECTION
  2
ENTITIES
  0
TEXT
  8
0
 62
5
  6
CONTINUOUS
 10
304.937007874
 20
25.636
  7
TEXTSTYLE_2
 40
2.8
  1
Scale :
 41
0.6
 51
0.000019
 72
0
  0
TEXT
  8
0
 62
5
  6
CONTINUOUS
 10
324.937007874
 20
25.636
  7
TEXTSTYLE_2
 40
2.8
  1
Belt type:
 41
0.6
 51
0.000019
 72
0
  0
INSERT
  8
0
 62
2
  6
CONTINUOUS
  2
SYMBOL_0_BL0
 10
240.8592468615
 20
19.762288695
  0
INSERT
  8
0
 62
2
  6
CONTINUOUS
  2
SYMBOL_5_BL1
 10
382.7840918555
 20
35.5067593403
  0
LINE
  8
0
 62
2
  6
CONTINUOUS
 10
218.937007874
 20
30.0
 11
408.937007874
 21
30.0
  0
LINE
  8
0
 62
2
  6
CONTINUOUS
 10
218.937007874
 20
30.0
 11
218.937007874
 21
10.0
  0
LINE
  8
0
 62
2
  6
CONTINUOUS
 10
218.937007874
 20
10.0
 11
408.937007874
 21
10.0
  0
LINE
  8
0
 62
2
  6
CONTINUOUS
 10
303.937007874
 20
30.0
 11
303.937007874
 21
10.0
  0
LINE
  8
0
 62
2
  6
CONTINUOUS
 10
323.937007874
 20
30.0
 11
323.937007874
 21
10.0
  0
LINE
  8
0
 62
2
  6
CONTINUOUS
 10
408.937007874
 20
30.0
 11
408.937007874
 21
10.0
  0
TEXT
  8
0
 62
5
  6
CONTINUOUS
 10
221.937007874
 20
23.303
  7
TEXTSTYLE_5
 40
1.52
  1
                                                                     Ammeraal Beltech Modular A/S
 41
1.0
 72
0
  0
TEXT
  8
0
 62
5
  6
CONTINUOUS
 10
221.937007874
 20
20.595
  7
TEXTSTYLE_5
 40
1.5
  1
                                                                      Hjulmagervej 21, 7100 Vejle,  DK
 41
1.0
 72
0
  0
TEXT
  8
0
 62
5
  6
CONTINUOUS
 10
221.937007874
 20
17.881
  7
TEXTSTYLE_5
 40
1.495
  1
                                                                      tel: 
 41
1.0
 72
0
  0
TEXT
  8
0
 62
5
  6
CONTINUOUS
 10
266.9239544389
 20
17.881
  7
TEXTSTYLE_5
 40
1.51
  1
+45 75723100     fax: +45 75723348
 41
1.0
 72
0
  0
TEXT
  8
0
 62
5
  6
CONTINUOUS
 10
221.937007874
 20
15.177
  7
TEXTSTYLE_5
 40
1.5
  1
                                                                      admin@unichains.dk  www.unichains.com
 41
1.0
 72
0
  0
TEXT
  8
0
 62
5
  6
CONTINUOUS
 10
308.687007874
 20
13.75
  7
TEXTSTYLE_6
 40
5.0
  1
1:1
 41
0.7
 72
1
 11
313.937007874
 21
13.75
  0
TEXT
  8
0
 62
5
  6
CONTINUOUS
 10
326.937007874
 20
13.75
  7
TEXTSTYLE_7
 40
7.5
  1
uni JCB-Y K300 (Radius on bottom)
 41
0.3199494949
 72
0
  0
LINE
  8
0
 62
7
  6
CONTINUOUS
 10
0.0
 20
0.0
 11
0.0
 21
297.0
  0
LINE
  8
0
 62
7
  6
CONTINUOUS
 10
8.937007874
 20
10.0
 11
8.937007874
 21
287.0
  0
LINE
  8
0
 62
7
  6
CONTINUOUS
 10
0.0
 20
0.0
 11
420.0
 21
0.0
  0
LINE
  8
0
 62
7
  6
CONTINUOUS
 10
408.937007874
 20
10.0
 11
8.937007874
 21
10.0
  0
LINE
  8
0
 62
7
  6
CONTINUOUS
 10
218.937007874
 20
30.0
 11
408.937007874
 21
30.0
  0
LINE
  8
0
 62
7
  6
CONTINUOUS
 10
210.0
 20
297.0
 11
210.0
 21
292.0
  0
LINE
  8
0
 62
7
  6
CONTINUOUS
 10
210.0
 20
0.0
 11
210.0
 21
5.0
  0
LINE
  8
0
 62
7
  6
CONTINUOUS
 10
8.937007874
 20
287.0
 11
408.937007874
 21
287.0
  0
LINE
  8
0
 62
7
  6
CONTINUOUS
 10
0.0
 20
297.0
 11
420.0
 21
297.0
  0
LINE
  8
0
 62
7
  6
CONTINUOUS
 10
408.937007874
 20
287.0
 11
408.937007874
 21
10.0
  0
LINE
  8
0
 62
7
  6
CONTINUOUS
 10
420.0
 20
0.0
 11
420.0
 21
297.0
  0
LINE
  8
0
 62
7
  6
CONTINUOUS
 10
106.0590361354
 20
113.2242313664
 11
106.0590361354
 21
138.2156067638
  0
LINE
  8
0
 62
7
  6
CONTINUOUS
 10
109.1870481578
 20
105.286047719
 11
109.1715361354
 21
105.4323286218
  0
LINE
  8
0
 62
7
  6
CONTINUOUS
 10
108.9240361354
 20
130.3990354323
 11
108.9240361354
 21
138.0936683273
  0
LINE
  8
0
 62
7
  6
CONTINUOUS
 10
109.1542959232
 20
112.3370463389
 11
109.1719005079
 21
112.201596154
  0
POLYLINE
  8
0
 62
7
  6
CONTINUOUS
 66
1
 70
0
  0
VERTEX
  8
0
 62
7
  6
CONTINUOUS
 10
108.9278572164
 20
130.3990354443
  0
VERTEX
  8
0
 62
7
  6
CONTINUOUS
 10
108.9260366035
 20
130.4219897745
  0
VERTEX
  8
0
 62
7
  6
CONTINUOUS
 10
108.9243374126
 20
130.4592336298
  0
VERTEX
  8
0
 62
7
  6
CONTINUOUS
 10
108.9240361205
 20
130.4831265868
  0
SEQEND
  0
LINE
  8
0
 62
7
  6
CONTINUOUS
 10
109.1715361354
 20
105.4323286218
 11
109.1715361354
 21
112.4339182294
  0
LINE
  8
0
 62
7
  6
CONTINUOUS
 10
109.1740361354
 20
105.4087532137
 11
109.1740361354
 21
104.5375520622
  0
LINE
  8
0
 62
7
  6
CONTINUOUS
 10
112.0990361354
 20
112.1405325542
 11
112.0990361354
 21
104.5375520622
  0
POLYLINE
  8
0
 62
7
  6
CONTINUOUS
 66
1
 70
0
  0
VERTEX
  8
0
 62
7
  6
CONTINUOUS
 10
109.5477573622
 20
115.5617278501
  0
VERTEX
  8
0
 62
7
  6
CONTINUOUS
 10
109.5517506453
 20
115.6910900125
  0
VERTEX
  8
0
 62
7
  6
CONTINUOUS
 10
109.5629983976
 20
115.8204135619
  0
VERTEX
  8
0
 62
7
  6
CONTINUOUS
 10
109.57607137
 20
115.9499583501
  0
SEQEND
  0
POLYLINE
  8
0
 62
7
  6
CONTINUOUS
 66
1
 70
0
  0
VERTEX
  8
0
 62
7
  6
CONTINUOUS
 10
109.1715361354
 20
112.4339182294
  0
VERTEX
  8
0
 62
7
  6
CONTINUOUS
 10
109.1730594372
 20
112.4701586129
  0
VERTEX
  8
0
 62
7
  6
CONTINUOUS
 10
109.1844919085
 20
112.5260609334
  0
VERTEX
  8
0
 62
7
  6
CONTINUOUS
 10
109.193411061
 20
112.5476895351
  0
VERTEX
  8
0
 62
7
  6
CONTINUOUS
 10
109.2151979784
 20
112.5819326199
  0
VERTEX
  8
0
 62
7
  6
CONTINUOUS
 10
109.2272311745
 20
112.5952361851
  0
SEQEND
  0
LINE
  8
0
 62
7
  6
CONTINUOUS
 10
112.3465361354
 20
130.4192064378
 11
112.3473611085
 21
130.4320721496
  0
POLYLINE
  8
0
 62
7
  6
CONTINUOUS
 66
1
 70
0
  0
VERTEX
  8
0
 62
7
  6
CONTINUOUS
 10
112.3465361354
 20
137.1988917677
  0
VERTEX
  8
0
 62
7
  6
CONTINUOUS
 10
112.3620590372
 20
137.3452223836
  0
VERTEX
  8
0
 62
7
  6
CONTINUOUS
 10
112.4040673728
 20
137.4704004481
  0
VERTEX
  8
0
 62
7
  6
CONTINUOUS
 10
112.4657152516
 20
137.5704524173
  0
VERTEX
  8
0
 62
7
  6
CONTINUOUS
 10
112.5015285822
 20
137.6101997396
  0
VERTEX
  8
0
 62
7
  6
CONTINUOUS
 10
112.5791907327
 20
137.6696300097
  0
VERTEX
  8
0
 62
7
  6
CONTINUOUS
 10
112.6618555744
 20
137.7042701413
  0
VERTEX
  8
0
 62
7
  6
CONTINUOUS
 10
112.7465361734
 20
137.7156053122
  0
SEQEND
  0
POLYLINE
  8
0
 62
7
  6
CONTINUOUS
 66
1
 70
0
  0
VERTEX
  8
0
 62
7
  6
CONTINUOUS
 10
112.3473611085
 20
130.4320721496
  0
VERTEX
  8
0
 62
7
  6
CONTINUOUS
 10
112.3289406436
 20
130.2924854307
  0
VERTEX
  8
0
 62
7
  6
CONTINUOUS
 10
112.2914264362
 20
130.1661547018
  0
VERTEX
  8
0
 62
7
  6
CONTINUOUS
 10
112.2375286996
 20
130.0582783112
  0
VERTEX
  8
0
 62
7
  6
CONTINUOUS
 10
112.205695765
 20
130.0126749803
  0
VERTEX
  8
0
 62
7
  6
CONTINUOUS
 10
112.1346267152
 20
129.9393876517
  0
VERTEX
  8
0
 62
7
  6
CONTINUOUS
 10
112.0567715898
 20
129.8912155141
  0
VERTEX
  8
0
 62
7
  6
CONTINUOUS
 10
111.9776516745
 20
129.869468654
  0
VERTEX
  8
0
 62
7
  6
CONTINUOUS
 10
111.9490361348
 20
129.8678389391
  0
SEQEND
  0
POLYLINE
  8
0
 62
7
  6
CONTINUOUS
 66
1
 70
0
  0
VERTEX
  8
0
 62
7
  6
CONTINUOUS
 10
109.57607137
 20
115.9499583501
  0
VERTEX
  8
0
 62
7
  6
CONTINUOUS
 10
109.6874798625
 20
116.6876455242
  0
VERTEX
  8
0
 62
7
  6
CONTINUOUS
 10
109.8458696353
 20
117.4954637284
  0
VERTEX
  8
0
 62
7
  6
CONTINUOUS
 10
110.0339510304
 20
118.3540156421
  0
VERTEX
  8
0
 62
7
  6
CONTINUOUS
 10
110.1416178732
 20
118.8190740943
  0
VERTEX
  8
0
 62
7
  6
CONTINUOUS
 10
110.3983081202
 20
119.8775938334
  0
VERTEX
  8
0
 62
7
  6
CONTINUOUS
 10
110.7244615828
 20
121.1496131864
  0
VERTEX
  8
0
 62
7
  6
CONTINUOUS
 10
111.1331152028
 20
122.6576003252
  0
SEQEND
  0
LINE
  8
0
 62
7
  6
CONTINUOUS
 10
112.3465361354
 20
137.1988917677
 11
112.3465361354
 21
127.4209908924
  0
LINE
  8
0
 62
7
  6
CONTINUOUS
 10
112.3490361354
 20
137.2224586591
 11
112.3490361354
 21
138.0936683273
  0
LINE
  8
0
 62
7
  6
CONTINUOUS
 10
114.5240361354
 20
130.2728384091
 11
114.5240361354
 21
138.1156095191
  0
LINE
  8
0
 62
7
  6
CONTINUOUS
 10
115.2715361354
 20
127.8750171856
 11
115.2715361354
 21
129.5178756617
  0
POLYLINE
  8
0
 62
7
  6
CONTINUOUS
 66
1
 70
0
  0
VERTEX
  8
0
 62
7
  6
CONTINUOUS
 10
112.0990360804
 20
112.1405119651
  0
VERTEX
  8
0
 62
7
  6
CONTINUOUS
 10
112.1007111696
 20
112.1991484767
  0
VERTEX
  8
0
 62
7
  6
CONTINUOUS
 10
112.119131673
 20
112.3387352671
  0
VERTEX
  8
0
 62
7
  6
CONTINUOUS
 10
112.1566458921
 20
112.4650658239
  0
VERTEX
  8
0
 62
7
  6
CONTINUOUS
 10
112.2105436433
 20
112.5729421804
  0
VERTEX
  8
0
 62
7
  6
CONTINUOUS
 10
112.2423765366
 20
112.6185454565
  0
VERTEX
  8
0
 62
7
  6
CONTINUOUS
 10
112.31344565
 20
112.6918328095
  0
VERTEX
  8
0
 62
7
  6
CONTINUOUS
 10
112.3913008228
 20
112.7400049224
  0
VERTEX
  8
0
 62
7
  6
CONTINUOUS
 10
112.4704209703
 20
112.7617517819
  0
VERTEX
  8
0
 62
7
  6
CONTINUOUS
 10
112.4990361391
 20
112.7633814351
  0
SEQEND
  0
LINE
  8
0
 62
7
  6
CONTINUOUS
 10
109.5590098991
 20
117.0106731757
 11
109.5421104058
 21
116.9499493993
  0
LINE
  8
0
 62
7
  6
CONTINUOUS
 10
112.23636454
 20
126.6154526922
 11
111.1331152028
 21
122.6576003252
  0
LINE
  8
0
 62
7
  6
CONTINUOUS
 10
108.9779771766
 20
130.1756976956
 11
108.9802371195
 21
130.1697695788
  0
POLYLINE
  8
0
 62
7
  6
CONTINUOUS
 66
1
 70
0
  0
VERTEX
  8
0
 62
7
  6
CONTINUOUS
 10
108.977946217
 20
130.1757813093
  0
VERTEX
  8
0
 62
7
  6
CONTINUOUS
 10
108.9563136819
 20
130.2421692689
  0
VERTEX
  8
0
 62
7
  6
CONTINUOUS
 10
108.9278582816
 20
130.3990354323
  0
SEQEND
  0
LINE
  8
0
 62
7
  6
CONTINUOUS
 10
114.0148553419
 20
121.4663683803
 11
115.4417305888
 21
116.3445923506
  0
LINE
  8
0
 62
7
  6
CONTINUOUS
 10
115.5215361354
 20
114.79992644
 11
115.5215361354
 21
113.1133766921
  0
LINE
  8
0
 62
7
  6
CONTINUOUS
 10
116.2740361354
 20
104.5156108704
 11
116.2740361354
 21
112.3583808312
  0
POLYLINE
  8
0
 62
7
  6
CONTINUOUS
 66
1
 70
0
  0
VERTEX
  8
0
 62
7
  6
CONTINUOUS
 10
115.5417325792
 20
115.2918095969
  0
VERTEX
  8
0
 62
7
  6
CONTINUOUS
 10
115.5465666416
 20
115.7167454954
  0
VERTEX
  8
0
 62
7
  6
CONTINUOUS
 10
115.5264711827
 20
115.9283637976
  0
VERTEX
  8
0
 62
7
  6
CONTINUOUS
 10
115.4417305888
 20
116.3445923506
  0
SEQEND
  0
LINE
  8
0
 62
7
  6
CONTINUOUS
 10
115.5215361354
 20
114.79992644
 11
115.5417325792
 21
115.2918095969
  0
LINE
  8
0
 62
7
  6
CONTINUOUS
 10
118.6965361354
 20
130.4192064378
 11
118.6973611085
 21
130.4320721496
  0
POLYLINE
  8
0
 62
7
  6
CONTINUOUS
 66
1
 70
0
  0
VERTEX
  8
0
 62
7
  6
CONTINUOUS
 10
118.6965361354
 20
137.1988917677
  0
VERTEX
  8
0
 62
7
  6
CONTINUOUS
 10
118.7120590372
 20
137.3452223836
  0
VERTEX
  8
0
 62
7
  6
CONTINUOUS
 10
118.7540673728
 20
137.4704004481
  0
VERTEX
  8
0
 62
7
  6
CONTINUOUS
 10
118.8157152516
 20
137.5704524173
  0
VERTEX
  8
0
 62
7
  6
CONTINUOUS
 10
118.8515285822
 20
137.6101997396
  0
VERTEX
  8
0
 62
7
  6
CONTINUOUS
 10
118.9291907327
 20
137.6696300097
  0
VERTEX
  8
0
 62
7
  6
CONTINUOUS
 10
119.0118555744
 20
137.7042701413
  0
VERTEX
  8
0
 62
7
  6
CONTINUOUS
 10
119.0965361734
 20
137.7156053122
  0
SEQEND
  0
POLYLINE
  8
0
 62
7
  6
CONTINUOUS
 66
1
 70
0
  0
VERTEX
  8
0
 62
7
  6
CONTINUOUS
 10
118.6973611085
 20
130.4320721496
  0
VERTEX
  8
0
 62
7
  6
CONTINUOUS
 10
118.6789406436
 20
130.2924854307
  0
VERTEX
  8
0
 62
7
  6
CONTINUOUS
 10
118.6414264362
 20
130.1661547018
  0
VERTEX
  8
0
 62
7
  6
CONTINUOUS
 10
118.5875286996
 20
130.0582783112
  0
VERTEX
  8
0
 62
7
  6
CONTINUOUS
 10
118.555695765
 20
130.0126749803
  0
VERTEX
  8
0
 62
7
  6
CONTINUOUS
 10
118.4846267152
 20
129.9393876517
  0
VERTEX
  8
0
 62
7
  6
CONTINUOUS
 10
118.4067715898
 20
129.8912155141
  0
VERTEX
  8
0
 62
7
  6
CONTINUOUS
 10
118.3276516745
 20
129.869468654
  0
VERTEX
  8
0
 62
7
  6
CONTINUOUS
 10
118.2990361348
 20
129.8678389391
  0
SEQEND
  0
LINE
  8
0
 62
7
  6
CONTINUOUS
 10
111.6965361354
 20
105.3961331209
 11
111.6990361354
 21
105.4072540399
  0
LINE
  8
0
 62
7
  6
CONTINUOUS
 10
112.2067077308
 20
116.0157676973
 11
113.7259008532
 21
121.4657979493
  0
POLYLINE
  8
0
 62
7
  6
CONTINUOUS
 66
1
 70
0
  0
VERTEX
  8
0
 62
7
  6
CONTINUOUS
 10
114.0148553419
 20
121.4663683803
  0
VERTEX
  8
0
 62
7
  6
CONTINUOUS
 10
113.9932398388
 20
121.512416791
  0
VERTEX
  8
0
 62
7
  6
CONTINUOUS
 10
113.9583430932
 20
121.5487545279
  0
VERTEX
  8
0
 62
7
  6
CONTINUOUS
 10
113.9152556766
 20
121.5718339749
  0
VERTEX
  8
0
 62
7
  6
CONTINUOUS
 10
113.8689084633
 20
121.5791674882
  0
VERTEX
  8
0
 62
7
  6
CONTINUOUS
 10
113.8228972529
 20
121.5701181094
  0
VERTEX
  8
0
 62
7
  6
CONTINUOUS
 10
113.7801071635
 20
121.5460470231
  0
VERTEX
  8
0
 62
7
  6
CONTINUOUS
 10
113.7464630055
 20
121.5101728859
  0
VERTEX
  8
0
 62
7
  6
CONTINUOUS
 10
113.7259008532
 20
121.4657979493
  0
SEQEND
  0
LINE
  8
0
 62
7
  6
CONTINUOUS
 10
116.9022656874
 20
121.6098707874
 11
115.3818644268
 21
127.0673589158
  0
POLYLINE
  8
0
 62
7
  6
CONTINUOUS
 66
1
 70
0
  0
VERTEX
  8
0
 62
7
  6
CONTINUOUS
 10
115.3818644268
 20
127.0673589158
  0
VERTEX
  8
0
 62
7
  6
CONTINUOUS
 10
115.2992744097
 20
127.4671412996
  0
VERTEX
  8
0
 62
7
  6
CONTINUOUS
 10
115.2715361354
 20
127.8750171856
  0
SEQEND
  0
LINE
  8
0
 62
7
  6
CONTINUOUS
 10
121.8870481578
 20
105.286047719
 11
121.8715361354
 21
105.4323286218
  0
LINE
  8
0
 62
7
  6
CONTINUOUS
 10
118.4490361354
 20
112.1405325542
 11
118.4490361354
 21
104.5375520622
  0
LINE
  8
0
 62
7
  6
CONTINUOUS
 10
118.6965361354
 20
137.1988917677
 11
118.6965361354
 21
127.4209908924
  0
LINE
  8
0
 62
7
  6
CONTINUOUS
 10
118.6990361354
 20
137.2224586591
 11
118.6990361354
 21
138.0936683273
  0
POLYLINE
  8
0
 62
7
  6
CONTINUOUS
 66
1
 70
0
  0
VERTEX
  8
0
 62
7
  6
CONTINUOUS
 10
118.4490360804
 20
112.1405119651
  0
VERTEX
  8
0
 62
7
  6
CONTINUOUS
 10
118.4507111696
 20
112.1991484767
  0
VERTEX
  8
0
 62
7
  6
CONTINUOUS
 10
118.469131673
 20
112.3387352671
  0
VERTEX
  8
0
 62
7
  6
CONTINUOUS
 10
118.5066458921
 20
112.4650658239
  0
VERTEX
  8
0
 62
7
  6
CONTINUOUS
 10
118.5605436433
 20
112.5729421804
  0
VERTEX
  8
0
 62
7
  6
CONTINUOUS
 10
118.5923765366
 20
112.6185454565
  0
VERTEX
  8
0
 62
7
  6
CONTINUOUS
 10
118.66344565
 20
112.6918328095
  0
VERTEX
  8
0
 62
7
  6
CONTINUOUS
 10
118.7413008228
 20
112.7400049224
  0
VERTEX
  8
0
 62
7
  6
CONTINUOUS
 10
118.8204209703
 20
112.7617517819
  0
VERTEX
  8
0
 62
7
  6
CONTINUOUS
 10
118.8490361391
 20
112.7633814351
  0
SEQEND
  0
LINE
  8
0
 62
7
  6
CONTINUOUS
 10
118.58636454
 20
126.6154526922
 11
117.1912201761
 21
121.6104412184
  0
POLYLINE
  8
0
 62
7
  6
CONTINUOUS
 66
1
 70
0
  0
VERTEX
  8
0
 62
7
  6
CONTINUOUS
 10
111.6990361354
 20
105.4072540399
  0
VERTEX
  8
0
 62
7
  6
CONTINUOUS
 10
111.7036130127
 20
105.420211143
  0
VERTEX
  8
0
 62
7
  6
CONTINUOUS
 10
111.724735877
 20
105.4487095002
  0
VERTEX
  8
0
 62
7
  6
CONTINUOUS
 10
111.7614020268
 20
105.4800742972
  0
VERTEX
  8
0
 62
7
  6
CONTINUOUS
 10
111.8117708363
 20
105.5168816439
  0
VERTEX
  8
0
 62
7
  6
CONTINUOUS
 10
111.8751510823
 20
105.5653686312
  0
VERTEX
  8
0
 62
7
  6
CONTINUOUS
 10
111.9489733188
 20
105.635617565
  0
VERTEX
  8
0
 62
7
  6
CONTINUOUS
 10
111.9853102234
 20
105.6809778851
  0
VERTEX
  8
0
 62
7
  6
CONTINUOUS
 10
112.0425831151
 20
105.7867673602
  0
VERTEX
  8
0
 62
7
  6
CONTINUOUS
 10
112.0746287963
 20
105.9046474414
  0
VERTEX
  8
0
 62
7
  6
CONTINUOUS
 10
112.0897360355
 20
106.0479977766
  0
VERTEX
  8
0
 62
7
  6
CONTINUOUS
 10
112.0948709416
 20
106.2094024041
  0
VERTEX
  8
0
 62
7
  6
CONTINUOUS
 10
112.0963839629
 20
106.3970038882
  0
VERTEX
  8
0
 62
7
  6
CONTINUOUS
 10
112.0965361354
 20
115.2102294971
  0
SEQEND
  0
POLYLINE
  8
0
 62
7
  6
CONTINUOUS
 66
1
 70
0
  0
VERTEX
  8
0
 62
7
  6
CONTINUOUS
 10
109.5439731663
 20
104.1386833897
  0
VERTEX
  8
0
 62
7
  6
CONTINUOUS
 10
109.4906572584
 20
104.146338613
  0
VERTEX
  8
0
 62
7
  6
CONTINUOUS
 10
109.3887860882
 20
104.1830348976
  0
VERTEX
  8
0
 62
7
  6
CONTINUOUS
 10
109.299942322
 20
104.2462230704
  0
VERTEX
  8
0
 62
7
  6
CONTINUOUS
 10
109.2315111683
 20
104.3309687935
  0
VERTEX
  8
0
 62
7
  6
CONTINUOUS
 10
109.1884689644
 20
104.4310722207
  0
VERTEX
  8
0
 62
7
  6
CONTINUOUS
 10
109.1740361354
 20
104.5375520622
  0
SEQEND
  0
POLYLINE
  8
0
 62
7
  6
CONTINUOUS
 66
1
 70
0
  0
VERTEX
  8
0
 62
7
  6
CONTINUOUS
 10
116.9022656874
 20
121.6098707874
  0
VERTEX
  8
0
 62
7
  6
CONTINUOUS
 10
116.9238811905
 20
121.5638223767
  0
VERTEX
  8
0
 62
7
  6
CONTINUOUS
 10
116.958777936
 20
121.5274846399
  0
VERTEX
  8
0
 62
7
  6
CONTINUOUS
 10
117.0018653526
 20
121.5044051929
  0
VERTEX
  8
0
 62
7
  6
CONTINUOUS
 10
117.0482125658
 20
121.4970716795
  0
VERTEX
  8
0
 62
7
  6
CONTINUOUS
 10
117.0942237763
 20
121.5061210583
  0
VERTEX
  8
0
 62
7
  6
CONTINUOUS
 10
117.1370138658
 20
121.5301921445
  0
VERTEX
  8
0
 62
7
  6
CONTINUOUS
 10
117.1706580238
 20
121.5660662818
  0
VERTEX
  8
0
 62
7
  6
CONTINUOUS
 10
117.1912201761
 20
121.6104412184
  0
SEQEND
  0
LINE
  8
0
 62
7
  6
CONTINUOUS
 10
120.3648553419
 20
121.4663683803
 11
121.7917305888
 21
116.3445923506
  0
POLYLINE
  8
0
 62
7
  6
CONTINUOUS
 66
1
 70
0
  0
VERTEX
  8
0
 62
7
  6
CONTINUOUS
 10
121.8539405975
 20
112.3387352689
  0
VERTEX
  8
0
 62
7
  6
CONTINUOUS
 10
121.8723611011
 20
112.1991484789
  0
VERTEX
  8
0
 62
7
  6
CONTINUOUS
 10
121.8715361354
 20
112.2120140503
  0
SEQEND
  0
POLYLINE
  8
0
 62
7
  6
CONTINUOUS
 66
1
 70
0
  0
VERTEX
  8
0
 62
7
  6
CONTINUOUS
 10
121.6213945702
 20
136.2306307858
  0
VERTEX
  8
0
 62
7
  6
CONTINUOUS
 10
121.6200157479
 20
136.4122724536
  0
VERTEX
  8
0
 62
7
  6
CONTINUOUS
 10
121.6156054057
 20
136.5668184466
  0
VERTEX
  8
0
 62
7
  6
CONTINUOUS
 10
121.6032202125
 20
136.7041997611
  0
VERTEX
  8
0
 62
7
  6
CONTINUOUS
 10
121.574928125
 20
136.8244963871
  0
VERTEX
  8
0
 62
7
  6
CONTINUOUS
 10
121.5246493749
 20
136.9289987769
  0
VERTEX
  8
0
 62
7
  6
CONTINUOUS
 10
121.4909408346
 20
136.9756828995
  0
VERTEX
  8
0
 62
7
  6
CONTINUOUS
 10
121.4154460319
 20
137.0529174618
  0
VERTEX
  8
0
 62
7
  6
CONTINUOUS
 10
121.3472948629
 20
137.106668286
  0
VERTEX
  8
0
 62
7
  6
CONTINUOUS
 10
121.2923403343
 20
137.1466612999
  0
VERTEX
  8
0
 62
7
  6
CONTINUOUS
 10
121.2519705687
 20
137.1802686175
  0
VERTEX
  8
0
 62
7
  6
CONTINUOUS
 10
121.2289900015
 20
137.2102369443
  0
VERTEX
  8
0
 62
7
  6
CONTINUOUS
 10
121.2240361354
 20
137.2239663495
  0
SEQEND
  0
LINE
  8
0
 62
7
  6
CONTINUOUS
 10
121.6215361354
 20
127.8750171856
 11
121.6213945702
 21
136.2306307858
  0
LINE
  8
0
 62
7
  6
CONTINUOUS
 10
121.6240361354
 20
130.4906878352
 11
121.6240361354
 21
138.0936683273
  0
LINE
  8
0
 62
7
  6
CONTINUOUS
 10
121.8715361354
 20
114.79992644
 11
121.8715361354
 21
105.4323286218
  0
LINE
  8
0
 62
7
  6
CONTINUOUS
 10
121.8740361354
 20
105.4087532137
 11
121.8740361354
 21
104.5375520622
  0
POLYLINE
  8
0
 62
7
  6
CONTINUOUS
 66
1
 70
0
  0
VERTEX
  8
0
 62
7
  6
CONTINUOUS
 10
121.8917325792
 20
115.2918095969
  0
VERTEX
  8
0
 62
7
  6
CONTINUOUS
 10
121.8965666416
 20
115.7167454954
  0
VERTEX
  8
0
 62
7
  6
CONTINUOUS
 10
121.8764711827
 20
115.9283637976
  0
VERTEX
  8
0
 62
7
  6
CONTINUOUS
 10
121.7917305888
 20
116.3445923506
  0
SEQEND
  0
LINE
  8
0
 62
7
  6
CONTINUOUS
 10
121.8715361354
 20
114.79992644
 11
121.8917325792
 21
115.2918095969
  0
POLYLINE
  8
0
 62
7
  6
CONTINUOUS
 66
1
 70
0
  0
VERTEX
  8
0
 62
7
  6
CONTINUOUS
 10
125.0465361354
 20
137.1988917677
  0
VERTEX
  8
0
 62
7
  6
CONTINUOUS
 10
125.0620590372
 20
137.3452223836
  0
VERTEX
  8
0
 62
7
  6
CONTINUOUS
 10
125.1040673728
 20
137.4704004481
  0
VERTEX
  8
0
 62
7
  6
CONTINUOUS
 10
125.1657152516
 20
137.5704524173
  0
VERTEX
  8
0
 62
7
  6
CONTINUOUS
 10
125.2015285822
 20
137.6101997396
  0
VERTEX
  8
0
 62
7
  6
CONTINUOUS
 10
125.2791907327
 20
137.6696300097
  0
VERTEX
  8
0
 62
7
  6
CONTINUOUS
 10
125.3618555744
 20
137.7042701413
  0
VERTEX
  8
0
 62
7
  6
CONTINUOUS
 10
125.4465361734
 20
137.7156053122
  0
SEQEND
  0
POLYLINE
  8
0
 62
7
  6
CONTINUOUS
 66
1
 70
0
  0
VERTEX
  8
0
 62
7
  6
CONTINUOUS
 10
125.0473611085
 20
130.4320721496
  0
VERTEX
  8
0
 62
7
  6
CONTINUOUS
 10
125.0289406436
 20
130.2924854307
  0
VERTEX
  8
0
 62
7
  6
CONTINUOUS
 10
124.9914264362
 20
130.1661547018
  0
VERTEX
  8
0
 62
7
  6
CONTINUOUS
 10
124.9375286996
 20
130.0582783112
  0
VERTEX
  8
0
 62
7
  6
CONTINUOUS
 10
124.905695765
 20
130.0126749803
  0
VERTEX
  8
0
 62
7
  6
CONTINUOUS
 10
124.8346267152
 20
129.9393876517
  0
VERTEX
  8
0
 62
7
  6
CONTINUOUS
 10
124.7567715898
 20
129.8912155141
  0
VERTEX
  8
0
 62
7
  6
CONTINUOUS
 10
124.6776516745
 20
129.869468654
  0
VERTEX
  8
0
 62
7
  6
CONTINUOUS
 10
124.6490361348
 20
129.8678389391
  0
SEQEND
  0
LINE
  8
0
 62
7
  6
CONTINUOUS
 10
118.0465361354
 20
105.3961331209
 11
118.0490361354
 21
105.4072540399
  0
LINE
  8
0
 62
7
  6
CONTINUOUS
 10
118.5567077308
 20
116.0157676973
 11
120.0759008532
 21
121.4657979493
  0
POLYLINE
  8
0
 62
7
  6
CONTINUOUS
 66
1
 70
0
  0
VERTEX
  8
0
 62
7
  6
CONTINUOUS
 10
175.2290991046
 20
104.1386833897
  0
VERTEX
  8
0
 62
7
  6
CONTINUOUS
 10
175.2824150125
 20
104.146338613
  0
VERTEX
  8
0
 62
7
  6
CONTINUOUS
 10
175.3842861827
 20
104.1830348976
  0
VERTEX
  8
0
 62
7
  6
CONTINUOUS
 10
175.4731299488
 20
104.2462230704
  0
VERTEX
  8
0
 62
7
  6
CONTINUOUS
 10
175.5415611026
 20
104.3309687935
  0
VERTEX
  8
0
 62
7
  6
CONTINUOUS
 10
175.5846033064
 20
104.4310722207
  0
VERTEX
  8
0
 62
7
  6
CONTINUOUS
 10
175.5990361354
 20
104.5375520622
  0
SEQEND
  0
POLYLINE
  8
0
 62
7
  6
CONTINUOUS
 66
1
 70
0
  0
VERTEX
  8
0
 62
7
  6
CONTINUOUS
 10
168.8790991046
 20
104.1386833897
  0
VERTEX
  8
0
 62
7
  6
CONTINUOUS
 10
168.9324150125
 20
104.146338613
  0
VERTEX
  8
0
 62
7
  6
CONTINUOUS
 10
169.0342861827
 20
104.1830348976
  0
VERTEX
  8
0
 62
7
  6
CONTINUOUS
 10
169.1231299488
 20
104.2462230704
  0
VERTEX
  8
0
 62
7
  6
CONTINUOUS
 10
169.1915611026
 20
104.3309687935
  0
VERTEX
  8
0
 62
7
  6
CONTINUOUS
 10
169.2346033064
 20
104.4310722207
  0
VERTEX
  8
0
 62
7
  6
CONTINUOUS
 10
169.2490361354
 20
104.5375520622
  0
SEQEND
  0
POLYLINE
  8
0
 62
7
  6
CONTINUOUS
 66
1
 70
0
  0
VERTEX
  8
0
 62
7
  6
CONTINUOUS
 10
162.5290991046
 20
104.1386833897
  0
VERTEX
  8
0
 62
7
  6
CONTINUOUS
 10
162.5824150125
 20
104.146338613
  0
VERTEX
  8
0
 62
7
  6
CONTINUOUS
 10
162.6842861827
 20
104.1830348976
  0
VERTEX
  8
0
 62
7
  6
CONTINUOUS
 10
162.7731299488
 20
104.2462230704
  0
VERTEX
  8
0
 62
7
  6
CONTINUOUS
 10
162.8415611026
 20
104.3309687935
  0
VERTEX
  8
0
 62
7
  6
CONTINUOUS
 10
162.8846033064
 20
104.4310722207
  0
VERTEX
  8
0
 62
7
  6
CONTINUOUS
 10
162.8990361354
 20
104.5375520622
  0
SEQEND
  0
POLYLINE
  8
0
 62
7
  6
CONTINUOUS
 66
1
 70
0
  0
VERTEX
  8
0
 62
7
  6
CONTINUOUS
 10
156.1790991046
 20
104.1386833897
  0
VERTEX
  8
0
 62
7
  6
CONTINUOUS
 10
156.2324150125
 20
104.146338613
  0
VERTEX
  8
0
 62
7
  6
CONTINUOUS
 10
156.3342861827
 20
104.1830348976
  0
VERTEX
  8
0
 62
7
  6
CONTINUOUS
 10
156.4231299488
 20
104.2462230704
  0
VERTEX
  8
0
 62
7
  6
CONTINUOUS
 10
156.4915611026
 20
104.3309687935
  0
VERTEX
  8
0
 62
7
  6
CONTINUOUS
 10
156.5346033064
 20
104.4310722207
  0
VERTEX
  8
0
 62
7
  6
CONTINUOUS
 10
156.5490361354
 20
104.5375520622
  0
SEQEND
  0
LINE
  8
0
 62
7
  6
CONTINUOUS
 10
175.0525982078
 20
104.1242770233
 11
175.2291467026
 21
104.1386874696
  0
LINE
  8
0
 62
7
  6
CONTINUOUS
 10
168.7025982078
 20
104.1242770233
 11
168.8791467026
 21
104.1386874696
  0
LINE
  8
0
 62
7
  6
CONTINUOUS
 10
162.3525982078
 20
104.1242770233
 11
162.5291467026
 21
104.1386874696
  0
POLYLINE
  8
0
 62
7
  6
CONTINUOUS
 66
1
 70
0
  0
VERTEX
  8
0
 62
7
  6
CONTINUOUS
 10
109.5439254615
 20
104.1386874776
  0
VERTEX
  8
0
 62
7
  6
CONTINUOUS
 10
109.7210892973
 20
104.1242269555
  0
VERTEX
  8
0
 62
7
  6
CONTINUOUS
 10
109.7910988034
 20
104.118988698
  0
VERTEX
  8
0
 62
7
  6
CONTINUOUS
 10
109.8496527404
 20
104.1160737525
  0
SEQEND
  0
POLYLINE
  8
0
 62
7
  6
CONTINUOUS
 66
1
 70
0
  0
VERTEX
  8
0
 62
7
  6
CONTINUOUS
 10
122.2439254615
 20
104.1386874776
  0
VERTEX
  8
0
 62
7
  6
CONTINUOUS
 10
122.4210892973
 20
104.1242269555
  0
VERTEX
  8
0
 62
7
  6
CONTINUOUS
 10
122.4910988034
 20
104.118988698
  0
VERTEX
  8
0
 62
7
  6
CONTINUOUS
 10
122.5496527404
 20
104.1160737525
  0
SEQEND
  0
POLYLINE
  8
0
 62
7
  6
CONTINUOUS
 66
1
 70
0
  0
VERTEX
  8
0
 62
7
  6
CONTINUOUS
 10
128.5939254615
 20
104.1386874776
  0
VERTEX
  8
0
 62
7
  6
CONTINUOUS
 10
128.7710892973
 20
104.1242269555
  0
VERTEX
  8
0
 62
7
  6
CONTINUOUS
 10
128.8410988034
 20
104.118988698
  0
VERTEX
  8
0
 62
7
  6
CONTINUOUS
 10
128.8996527404
 20
104.1160737525
  0
SEQEND
  0
POLYLINE
  8
0
 62
7
  6
CONTINUOUS
 66
1
 70
0
  0
VERTEX
  8
0
 62
7
  6
CONTINUOUS
 10
109.5715361733
 20
104.9156150773
  0
VERTEX
  8
0
 62
7
  6
CONTINUOUS
 10
109.4868572532
 20
104.9269497931
  0
VERTEX
  8
0
 62
7
  6
CONTINUOUS
 10
109.404194681
 20
104.9615880946
  0
VERTEX
  8
0
 62
7
  6
CONTINUOUS
 10
109.3265313409
 20
105.0210179448
  0
VERTEX
  8
0
 62
7
  6
CONTINUOUS
 10
109.2907197935
 20
105.060762278
  0
VERTEX
  8
0
 62
7
  6
CONTINUOUS
 10
109.2290744446
 20
105.1608048456
  0
VERTEX
  8
0
 62
7
  6
CONTINUOUS
 10
109.1870481578
 20
105.286047719
  0
SEQEND
  0
POLYLINE
  8
0
 62
7
  6
CONTINUOUS
 66
1
 70
0
  0
VERTEX
  8
0
 62
7
  6
CONTINUOUS
 10
122.2715361733
 20
104.9156150773
  0
VERTEX
  8
0
 62
7
  6
CONTINUOUS
 10
122.1868572532
 20
104.9269497931
  0
VERTEX
  8
0
 62
7
  6
CONTINUOUS
 10
122.104194681
 20
104.9615880946
  0
VERTEX
  8
0
 62
7
  6
CONTINUOUS
 10
122.0265313409
 20
105.0210179448
  0
VERTEX
  8
0
 62
7
  6
CONTINUOUS
 10
121.9907197935
 20
105.060762278
  0
VERTEX
  8
0
 62
7
  6
CONTINUOUS
 10
121.9290744446
 20
105.1608048456
  0
VERTEX
  8
0
 62
7
  6
CONTINUOUS
 10
121.8870481578
 20
105.286047719
  0
SEQEND
  0
POLYLINE
  8
0
 62
7
  6
CONTINUOUS
 66
1
 70
0
  0
VERTEX
  8
0
 62
7
  6
CONTINUOUS
 10
128.6215361733
 20
104.9156150773
  0
VERTEX
  8
0
 62
7
  6
CONTINUOUS
 10
128.5368572532
 20
104.9269497931
  0
VERTEX
  8
0
 62
7
  6
CONTINUOUS
 10
128.454194681
 20
104.9615880946
  0
VERTEX
  8
0
 62
7
  6
CONTINUOUS
 10
128.3765313409
 20
105.0210179448
  0
VERTEX
  8
0
 62
7
  6
CONTINUOUS
 10
128.3407197935
 20
105.060762278
  0
VERTEX
  8
0
 62
7
  6
CONTINUOUS
 10
128.2790744446
 20
105.1608048456
  0
VERTEX
  8
0
 62
7
  6
CONTINUOUS
 10
128.2370481578
 20
105.286047719
  0
SEQEND
  0
POLYLINE
  8
0
 62
7
  6
CONTINUOUS
 66
1
 70
0
  0
VERTEX
  8
0
 62
7
  6
CONTINUOUS
 10
122.2439731663
 20
104.1386833897
  0
VERTEX
  8
0
 62
7
  6
CONTINUOUS
 10
122.1906572584
 20
104.146338613
  0
VERTEX
  8
0
 62
7
  6
CONTINUOUS
 10
122.0887860882
 20
104.1830348976
  0
VERTEX
  8
0
 62
7
  6
CONTINUOUS
 10
121.999942322
 20
104.2462230704
  0
VERTEX
  8
0
 62
7
  6
CONTINUOUS
 10
121.9315111683
 20
104.3309687935
  0
VERTEX
  8
0
 62
7
  6
CONTINUOUS
 10
121.8884689644
 20
104.4310722207
  0
VERTEX
  8
0
 62
7
  6
CONTINUOUS
 10
121.8740361354
 20
104.5375520622
  0
SEQEND
  0
POLYLINE
  8
0
 62
7
  6
CONTINUOUS
 66
1
 70
0
  0
VERTEX
  8
0
 62
7
  6
CONTINUOUS
 10
128.5939731663
 20
104.1386833897
  0
VERTEX
  8
0
 62
7
  6
CONTINUOUS
 10
128.5406572584
 20
104.146338613
  0
VERTEX
  8
0
 62
7
  6
CONTINUOUS
 10
128.4387860882
 20
104.1830348976
  0
VERTEX
  8
0
 62
7
  6
CONTINUOUS
 10
128.349942322
 20
104.2462230704
  0
VERTEX
  8
0
 62
7
  6
CONTINUOUS
 10
128.2815111683
 20
104.3309687935
  0
VERTEX
  8
0
 62
7
  6
CONTINUOUS
 10
128.2384689644
 20
104.4310722207
  0
VERTEX
  8
0
 62
7
  6
CONTINUOUS
 10
128.2240361354
 20
104.5375520622
  0
SEQEND
  0
POLYLINE
  8
0
 62
7
  6
CONTINUOUS
 66
1
 70
0
  0
VERTEX
  8
0
 62
7
  6
CONTINUOUS
 10
134.9439731663
 20
104.1386833897
  0
VERTEX
  8
0
 62
7
  6
CONTINUOUS
 10
134.8906572584
 20
104.146338613
  0
VERTEX
  8
0
 62
7
  6
CONTINUOUS
 10
134.7887860882
 20
104.1830348976
  0
VERTEX
  8
0
 62
7
  6
CONTINUOUS
 10
134.699942322
 20
104.2462230704
  0
VERTEX
  8
0
 62
7
  6
CONTINUOUS
 10
134.6315111683
 20
104.3309687935
  0
VERTEX
  8
0
 62
7
  6
CONTINUOUS
 10
134.5884689644
 20
104.4310722207
  0
VERTEX
  8
0
 62
7
  6
CONTINUOUS
 10
134.5740361354
 20
104.5375520622
  0
SEQEND
  0
POLYLINE
  8
0
 62
7
  6
CONTINUOUS
 66
1
 70
0
  0
VERTEX
  8
0
 62
7
  6
CONTINUOUS
 10
116.6240361354
 20
104.9156101948
  0
VERTEX
  8
0
 62
7
  6
CONTINUOUS
 10
116.5430426613
 20
104.9274935109
  0
VERTEX
  8
0
 62
7
  6
CONTINUOUS
 10
116.4634145283
 20
104.9645369759
  0
VERTEX
  8
0
 62
7
  6
CONTINUOUS
 10
116.3914577873
 20
105.0268876282
  0
VERTEX
  8
0
 62
7
  6
CONTINUOUS
 10
116.3310265165
 20
105.1161797812
  0
VERTEX
  8
0
 62
7
  6
CONTINUOUS
 10
116.2895379334
 20
105.230288696
  0
VERTEX
  8
0
 62
7
  6
CONTINUOUS
 10
116.2740361354
 20
105.3656101948
  0
SEQEND
  0
POLYLINE
  8
0
 62
7
  6
CONTINUOUS
 66
1
 70
0
  0
VERTEX
  8
0
 62
7
  6
CONTINUOUS
 10
120.3648553419
 20
121.4663683803
  0
VERTEX
  8
0
 62
7
  6
CONTINUOUS
 10
120.3432398388
 20
121.512416791
  0
VERTEX
  8
0
 62
7
  6
CONTINUOUS
 10
120.3083430933
 20
121.5487545278
  0
VERTEX
  8
0
 62
7
  6
CONTINUOUS
 10
120.2652556768
 20
121.5718339748
  0
VERTEX
  8
0
 62
7
  6
CONTINUOUS
 10
120.2189084636
 20
121.5791674882
  0
VERTEX
  8
0
 62
7
  6
CONTINUOUS
 10
120.1728972531
 20
121.5701181095
  0
VERTEX
  8
0
 62
7
  6
CONTINUOUS
 10
120.1301071636
 20
121.5460470233
  0
VERTEX
  8
0
 62
7
  6
CONTINUOUS
 10
120.0964630055
 20
121.5101728859
  0
VERTEX
  8
0
 62
7
  6
CONTINUOUS
 10
120.0759008532
 20
121.4657979493
  0
SEQEND
  0
POLYLINE
  8
0
 62
7
  6
CONTINUOUS
 66
1
 70
0
  0
VERTEX
  8
0
 62
7
  6
CONTINUOUS
 10
123.2522656874
 20
121.6098707874
  0
VERTEX
  8
0
 62
7
  6
CONTINUOUS
 10
123.2738811905
 20
121.5638223767
  0
VERTEX
  8
0
 62
7
  6
CONTINUOUS
 10
123.308777936
 20
121.5274846399
  0
VERTEX
  8
0
 62
7
  6
CONTINUOUS
 10
123.3518653525
 20
121.5044051929
  0
VERTEX
  8
0
 62
7
  6
CONTINUOUS
 10
123.3982125657
 20
121.4970716795
  0
VERTEX
  8
0
 62
7
  6
CONTINUOUS
 10
123.4442237762
 20
121.5061210582
  0
VERTEX
  8
0
 62
7
  6
CONTINUOUS
 10
123.4870138657
 20
121.5301921444
  0
VERTEX
  8
0
 62
7
  6
CONTINUOUS
 10
123.5206580238
 20
121.5660662818
  0
VERTEX
  8
0
 62
7
  6
CONTINUOUS
 10
123.5412201761
 20
121.6104412184
  0
SEQEND
  0
LINE
  8
0
 62
7
  6
CONTINUOUS
 10
123.2522656874
 20
121.6098707874
 11
121.7318644268
 21
127.0673589158
  0
POLYLINE
  8
0
 62
7
  6
CONTINUOUS
 66
1
 70
0
  0
VERTEX
  8
0
 62
7
  6
CONTINUOUS
 10
121.7318644268
 20
127.0673589158
  0
VERTEX
  8
0
 62
7
  6
CONTINUOUS
 10
121.6492744137
 20
127.4671412706
  0
VERTEX
  8
0
 62
7
  6
CONTINUOUS
 10
121.6215361354
 20
127.8750171856
  0
SEQEND
  0
LINE
  8
0
 62
7
  6
CONTINUOUS
 10
128.2370481578
 20
105.286047719
 11
128.2215361354
 21
105.4323286218
  0
LINE
  8
0
 62
7
  6
CONTINUOUS
 10
124.7990361354
 20
112.1405325542
 11
124.7990361354
 21
104.5375520622
  0
LINE
  8
0
 62
7
  6
CONTINUOUS
 10
125.0465361354
 20
137.1988917677
 11
125.0465361354
 21
127.4209908924
  0
LINE
  8
0
 62
7
  6
CONTINUOUS
 10
125.0490361354
 20
137.2224586591
 11
125.0490361354
 21
138.0936683273
  0
POLYLINE
  8
0
 62
7
  6
CONTINUOUS
 66
1
 70
0
  0
VERTEX
  8
0
 62
7
  6
CONTINUOUS
 10
124.7990360804
 20
112.1405119651
  0
VERTEX
  8
0
 62
7
  6
CONTINUOUS
 10
124.8007111696
 20
112.1991484767
  0
VERTEX
  8
0
 62
7
  6
CONTINUOUS
 10
124.819131673
 20
112.3387352671
  0
VERTEX
  8
0
 62
7
  6
CONTINUOUS
 10
124.8566458921
 20
112.4650658239
  0
VERTEX
  8
0
 62
7
  6
CONTINUOUS
 10
124.9105436433
 20
112.5729421804
  0
VERTEX
  8
0
 62
7
  6
CONTINUOUS
 10
124.9423765366
 20
112.6185454565
  0
VERTEX
  8
0
 62
7
  6
CONTINUOUS
 10
125.01344565
 20
112.6918328095
  0
VERTEX
  8
0
 62
7
  6
CONTINUOUS
 10
125.0913008228
 20
112.7400049224
  0
VERTEX
  8
0
 62
7
  6
CONTINUOUS
 10
125.1704209703
 20
112.7617517819
  0
VERTEX
  8
0
 62
7
  6
CONTINUOUS
 10
125.1990361391
 20
112.7633814351
  0
SEQEND
  0
LINE
  8
0
 62
7
  6
CONTINUOUS
 10
125.0465361354
 20
130.4192064378
 11
125.0473611085
 21
130.4320721496
  0
LINE
  8
0
 62
7
  6
CONTINUOUS
 10
124.93636454
 20
126.6154526922
 11
123.5412201761
 21
121.6104412184
  0
POLYLINE
  8
0
 62
7
  6
CONTINUOUS
 66
1
 70
0
  0
VERTEX
  8
0
 62
7
  6
CONTINUOUS
 10
118.0490361354
 20
105.4072540399
  0
VERTEX
  8
0
 62
7
  6
CONTINUOUS
 10
118.0536130127
 20
105.420211143
  0
VERTEX
  8
0
 62
7
  6
CONTINUOUS
 10
118.074735877
 20
105.4487095002
  0
VERTEX
  8
0
 62
7
  6
CONTINUOUS
 10
118.1114020269
 20
105.4800742972
  0
VERTEX
  8
0
 62
7
  6
CONTINUOUS
 10
118.1617708364
 20
105.5168816439
  0
VERTEX
  8
0
 62
7
  6
CONTINUOUS
 10
118.2251510824
 20
105.5653686313
  0
VERTEX
  8
0
 62
7
  6
CONTINUOUS
 10
118.2989733189
 20
105.6356175652
  0
VERTEX
  8
0
 62
7
  6
CONTINUOUS
 10
118.3353102235
 20
105.6809778853
  0
VERTEX
  8
0
 62
7
  6
CONTINUOUS
 10
118.3925831152
 20
105.7867673603
  0
VERTEX
  8
0
 62
7
  6
CONTINUOUS
 10
118.4246287963
 20
105.9046474415
  0
VERTEX
  8
0
 62
7
  6
CONTINUOUS
 10
118.4397360355
 20
106.0479977767
  0
VERTEX
  8
0
 62
7
  6
CONTINUOUS
 10
118.4448709416
 20
106.2094024042
  0
VERTEX
  8
0
 62
7
  6
CONTINUOUS
 10
118.4463839629
 20
106.3970038882
  0
VERTEX
  8
0
 62
7
  6
CONTINUOUS
 10
118.4465361354
 20
115.2102294971
  0
SEQEND
  0
POLYLINE
  8
0
 62
7
  6
CONTINUOUS
 66
1
 70
0
  0
VERTEX
  8
0
 62
7
  6
CONTINUOUS
 10
149.8290991046
 20
104.1386833897
  0
VERTEX
  8
0
 62
7
  6
CONTINUOUS
 10
149.8824150125
 20
104.146338613
  0
VERTEX
  8
0
 62
7
  6
CONTINUOUS
 10
149.9842861827
 20
104.1830348976
  0
VERTEX
  8
0
 62
7
  6
CONTINUOUS
 10
150.0731299488
 20
104.2462230704
  0
VERTEX
  8
0
 62
7
  6
CONTINUOUS
 10
150.1415611026
 20
104.3309687935
  0
VERTEX
  8
0
 62
7
  6
CONTINUOUS
 10
150.1846033064
 20
104.4310722207
  0
VERTEX
  8
0
 62
7
  6
CONTINUOUS
 10
150.1990361354
 20
104.5375520622
  0
SEQEND
  0
POLYLINE
  8
0
 62
7
  6
CONTINUOUS
 66
1
 70
0
  0
VERTEX
  8
0
 62
7
  6
CONTINUOUS
 10
143.4790991046
 20
104.1386833897
  0
VERTEX
  8
0
 62
7
  6
CONTINUOUS
 10
143.5324150125
 20
104.146338613
  0
VERTEX
  8
0
 62
7
  6
CONTINUOUS
 10
143.6342861827
 20
104.1830348976
  0
VERTEX
  8
0
 62
7
  6
CONTINUOUS
 10
143.7231299488
 20
104.2462230704
  0
VERTEX
  8
0
 62
7
  6
CONTINUOUS
 10
143.7915611026
 20
104.3309687935
  0
VERTEX
  8
0
 62
7
  6
CONTINUOUS
 10
143.8346033064
 20
104.4310722207
  0
VERTEX
  8
0
 62
7
  6
CONTINUOUS
 10
143.8490361354
 20
104.5375520622
  0
SEQEND
  0
POLYLINE
  8
0
 62
7
  6
CONTINUOUS
 66
1
 70
0
  0
VERTEX
  8
0
 62
7
  6
CONTINUOUS
 10
137.1290991046
 20
104.1386833897
  0
VERTEX
  8
0
 62
7
  6
CONTINUOUS
 10
137.1824150125
 20
104.146338613
  0
VERTEX
  8
0
 62
7
  6
CONTINUOUS
 10
137.2842861827
 20
104.1830348976
  0
VERTEX
  8
0
 62
7
  6
CONTINUOUS
 10
137.3731299488
 20
104.2462230704
  0
VERTEX
  8
0
 62
7
  6
CONTINUOUS
 10
137.4415611026
 20
104.3309687935
  0
VERTEX
  8
0
 62
7
  6
CONTINUOUS
 10
137.4846033064
 20
104.4310722207
  0
VERTEX
  8
0
 62
7
  6
CONTINUOUS
 10
137.4990361354
 20
104.5375520622
  0
SEQEND
  0
LINE
  8
0
 62
7
  6
CONTINUOUS
 10
156.0025982078
 20
104.1242770233
 11
156.1791467026
 21
104.1386874696
  0
LINE
  8
0
 62
7
  6
CONTINUOUS
 10
149.6525982078
 20
104.1242770233
 11
149.8291467026
 21
104.1386874696
  0
LINE
  8
0
 62
7
  6
CONTINUOUS
 10
143.3025982078
 20
104.1242770233
 11
143.4791467026
 21
104.1386874696
  0
LINE
  8
0
 62
7
  6
CONTINUOUS
 10
136.9525982078
 20
104.1242770233
 11
137.1291467026
 21
104.1386874696
  0
LINE
  8
0
 62
7
  6
CONTINUOUS
 10
130.6025982078
 20
104.1242770233
 11
130.7791467026
 21
104.1386874696
  0
LINE
  8
0
 62
7
  6
CONTINUOUS
 10
124.3393908098
 20
104.131515425
 11
124.4291467026
 21
104.1386874696
  0
POLYLINE
  8
0
 62
7
  6
CONTINUOUS
 66
1
 70
0
  0
VERTEX
  8
0
 62
7
  6
CONTINUOUS
 10
174.8942266524
 20
104.1156108794
  0
VERTEX
  8
0
 62
7
  6
CONTINUOUS
 10
174.924309244
 20
104.1161007508
  0
VERTEX
  8
0
 62
7
  6
CONTINUOUS
 10
174.9827249892
 20
104.1190377584
  0
VERTEX
  8
0
 62
7
  6
CONTINUOUS
 10
175.0525982078
 20
104.1242770233
  0
SEQEND
  0
POLYLINE
  8
0
 62
7
  6
CONTINUOUS
 66
1
 70
0
  0
VERTEX
  8
0
 62
7
  6
CONTINUOUS
 10
168.5442266524
 20
104.1156108794
  0
VERTEX
  8
0
 62
7
  6
CONTINUOUS
 10
168.574309244
 20
104.1161007508
  0
VERTEX
  8
0
 62
7
  6
CONTINUOUS
 10
168.6327249892
 20
104.1190377584
  0
VERTEX
  8
0
 62
7
  6
CONTINUOUS
 10
168.7025982078
 20
104.1242770233
  0
SEQEND
  0
POLYLINE
  8
0
 62
7
  6
CONTINUOUS
 66
1
 70
0
  0
VERTEX
  8
0
 62
7
  6
CONTINUOUS
 10
162.1942266524
 20
104.1156108794
  0
VERTEX
  8
0
 62
7
  6
CONTINUOUS
 10
162.224309244
 20
104.1161007508
  0
VERTEX
  8
0
 62
7
  6
CONTINUOUS
 10
162.2827249892
 20
104.1190377584
  0
VERTEX
  8
0
 62
7
  6
CONTINUOUS
 10
162.3525982078
 20
104.1242770233
  0
SEQEND
  0
POLYLINE
  8
0
 62
7
  6
CONTINUOUS
 66
1
 70
0
  0
VERTEX
  8
0
 62
7
  6
CONTINUOUS
 10
155.8442266524
 20
104.1156108794
  0
VERTEX
  8
0
 62
7
  6
CONTINUOUS
 10
155.874309244
 20
104.1161007508
  0
VERTEX
  8
0
 62
7
  6
CONTINUOUS
 10
155.9327249892
 20
104.1190377584
  0
VERTEX
  8
0
 62
7
  6
CONTINUOUS
 10
156.0025982078
 20
104.1242770233
  0
SEQEND
  0
POLYLINE
  8
0
 62
7
  6
CONTINUOUS
 66
1
 70
0
  0
VERTEX
  8
0
 62
7
  6
CONTINUOUS
 10
149.4942266524
 20
104.1156108794
  0
VERTEX
  8
0
 62
7
  6
CONTINUOUS
 10
149.524309244
 20
104.1161007508
  0
VERTEX
  8
0
 62
7
  6
CONTINUOUS
 10
149.5827249892
 20
104.1190377584
  0
VERTEX
  8
0
 62
7
  6
CONTINUOUS
 10
149.6525982078
 20
104.1242770233
  0
SEQEND
  0
POLYLINE
  8
0
 62
7
  6
CONTINUOUS
 66
1
 70
0
  0
VERTEX
  8
0
 62
7
  6
CONTINUOUS
 10
143.1442266524
 20
104.1156108794
  0
VERTEX
  8
0
 62
7
  6
CONTINUOUS
 10
143.174309244
 20
104.1161007508
  0
VERTEX
  8
0
 62
7
  6
CONTINUOUS
 10
143.2327249892
 20
104.1190377584
  0
VERTEX
  8
0
 62
7
  6
CONTINUOUS
 10
143.3025982078
 20
104.1242770233
  0
SEQEND
  0
POLYLINE
  8
0
 62
7
  6
CONTINUOUS
 66
1
 70
0
  0
VERTEX
  8
0
 62
7
  6
CONTINUOUS
 10
136.7942266524
 20
104.1156108794
  0
VERTEX
  8
0
 62
7
  6
CONTINUOUS
 10
136.824309244
 20
104.1161007508
  0
VERTEX
  8
0
 62
7
  6
CONTINUOUS
 10
136.8827249892
 20
104.1190377584
  0
VERTEX
  8
0
 62
7
  6
CONTINUOUS
 10
136.9525982078
 20
104.1242770233
  0
SEQEND
  0
POLYLINE
  8
0
 62
7
  6
CONTINUOUS
 66
1
 70
0
  0
VERTEX
  8
0
 62
7
  6
CONTINUOUS
 10
130.4442266524
 20
104.1156108794
  0
VERTEX
  8
0
 62
7
  6
CONTINUOUS
 10
130.474309244
 20
104.1161007508
  0
VERTEX
  8
0
 62
7
  6
CONTINUOUS
 10
130.5327249892
 20
104.1190377584
  0
VERTEX
  8
0
 62
7
  6
CONTINUOUS
 10
130.6025982078
 20
104.1242770233
  0
SEQEND
  0
POLYLINE
  8
0
 62
7
  6
CONTINUOUS
 66
1
 70
0
  0
VERTEX
  8
0
 62
7
  6
CONTINUOUS
 10
124.0942266524
 20
104.1156108794
  0
VERTEX
  8
0
 62
7
  6
CONTINUOUS
 10
124.124309244
 20
104.1161007508
  0
VERTEX
  8
0
 62
7
  6
CONTINUOUS
 10
124.1827249892
 20
104.1190377584
  0
VERTEX
  8
0
 62
7
  6
CONTINUOUS
 10
124.2525982078
 20
104.1242770233
  0
VERTEX
  8
0
 62
7
  6
CONTINUOUS
 10
124.3393908098
 20
104.131515425
  0
SEQEND
  0
POLYLINE
  8
0
 62
7
  6
CONTINUOUS
 66
1
 70
0
  0
VERTEX
  8
0
 62
7
  6
CONTINUOUS
 10
117.7442266524
 20
104.1156108794
  0
VERTEX
  8
0
 62
7
  6
CONTINUOUS
 10
117.774309244
 20
104.1161007508
  0
VERTEX
  8
0
 62
7
  6
CONTINUOUS
 10
117.8327249892
 20
104.1190377584
  0
VERTEX
  8
0
 62
7
  6
CONTINUOUS
 10
117.9025982078
 20
104.1242770233
  0
SEQEND
  0
POLYLINE
  8
0
 62
7
  6
CONTINUOUS
 66
1
 70
0
  0
VERTEX
  8
0
 62
7
  6
CONTINUOUS
 10
111.3942266524
 20
104.1156108794
  0
VERTEX
  8
0
 62
7
  6
CONTINUOUS
 10
111.424309244
 20
104.1161007508
  0
VERTEX
  8
0
 62
7
  6
CONTINUOUS
 10
111.4827249892
 20
104.1190377584
  0
VERTEX
  8
0
 62
7
  6
CONTINUOUS
 10
111.5525982078
 20
104.1242770233
  0
SEQEND
  0
LINE
  8
0
 62
7
  6
CONTINUOUS
 10
175.1990361354
 20
104.9156101947
 11
175.2015361354
 21
104.9156137104
  0
LINE
  8
0
 62
7
  6
CONTINUOUS
 10
168.8490361354
 20
104.9156101947
 11
168.8515361354
 21
104.9156137104
  0
LINE
  8
0
 62
7
  6
CONTINUOUS
 10
162.4990361354
 20
104.9156101947
 11
162.5015361354
 21
104.9156137104
  0
LINE
  8
0
 62
7
  6
CONTINUOUS
 10
156.1490361354
 20
104.9156101947
 11
156.1515361354
 21
104.9156137104
  0
LINE
  8
0
 62
7
  6
CONTINUOUS
 10
149.7990361354
 20
104.9156101947
 11
149.8015361354
 21
104.9156137104
  0
LINE
  8
0
 62
7
  6
CONTINUOUS
 10
174.8953659638
 20
104.1156101947
 11
173.8240361354
 21
104.1156101947
  0
LINE
  8
0
 62
7
  6
CONTINUOUS
 10
168.5453659638
 20
104.1156101947
 11
167.027706307
 21
104.1156101947
  0
LINE
  8
0
 62
7
  6
CONTINUOUS
 10
162.1953659638
 20
104.1156101947
 11
160.677706307
 21
104.1156101947
  0
LINE
  8
0
 62
7
  6
CONTINUOUS
 10
155.8453659638
 20
104.1156101947
 11
154.327706307
 21
104.1156101947
  0
LINE
  8
0
 62
7
  6
CONTINUOUS
 10
149.4953659638
 20
104.1156101947
 11
147.977706307
 21
104.1156101947
  0
LINE
  8
0
 62
7
  6
CONTINUOUS
 10
143.1453659638
 20
104.1156101947
 11
141.627706307
 21
104.1156101947
  0
LINE
  8
0
 62
7
  6
CONTINUOUS
 10
109.877706307
 20
104.1156101947
 11
111.3953659638
 21
104.1156101947
  0
LINE
  8
0
 62
7
  6
CONTINUOUS
 10
116.6740361354
 20
104.1156101947
 11
117.7453659638
 21
104.1156101947
  0
LINE
  8
0
 62
7
  6
CONTINUOUS
 10
122.577706307
 20
104.1156101947
 11
124.0953659638
 21
104.1156101947
  0
LINE
  8
0
 62
7
  6
CONTINUOUS
 10
128.927706307
 20
104.1156101947
 11
130.4453659638
 21
104.1156101947
  0
LINE
  8
0
 62
7
  6
CONTINUOUS
 10
135.277706307
 20
104.1156101947
 11
136.7953659638
 21
104.1156101947
  0
LINE
  8
0
 62
7
  6
CONTINUOUS
 10
179.727706307
 20
104.1156101947
 11
181.5890361354
 21
104.1156101947
  0
LINE
  8
0
 62
7
  6
CONTINUOUS
 10
173.8240361354
 20
104.9156101947
 11
173.7740361354
 21
104.9156101947
  0
LINE
  8
0
 62
7
  6
CONTINUOUS
 10
116.6240361354
 20
104.9156101948
 11
116.6740361353
 21
104.9156101948
  0
LINE
  8
0
 62
7
  6
CONTINUOUS
 10
109.5715361354
 20
104.9156137104
 11
109.5740361354
 21
104.9156101948
  0
LINE
  8
0
 62
7
  6
CONTINUOUS
 10
122.2715361354
 20
104.9156137104
 11
122.2740361354
 21
104.9156101948
  0
LINE
  8
0
 62
7
  6
CONTINUOUS
 10
128.6215361354
 20
104.9156137104
 11
128.6240361354
 21
104.9156101948
  0
LINE
  8
0
 62
7
  6
CONTINUOUS
 10
134.9715361354
 20
104.9156137104
 11
134.9740361354
 21
104.9156101948
  0
LINE
  8
0
 62
7
  6
CONTINUOUS
 10
141.3215361354
 20
104.9156137104
 11
141.3240361354
 21
104.9156101948
  0
LINE
  8
0
 62
7
  6
CONTINUOUS
 10
109.8496527404
 20
104.1160737525
 11
109.8788464452
 21
104.1156108793
  0
LINE
  8
0
 62
7
  6
CONTINUOUS
 10
122.5496527404
 20
104.1160737525
 11
122.5788464452
 21
104.1156108793
  0
LINE
  8
0
 62
7
  6
CONTINUOUS
 10
128.8996527404
 20
104.1160737525
 11
128.9288464452
 21
104.1156108793
  0
LINE
  8
0
 62
7
  6
CONTINUOUS
 10
135.2496527404
 20
104.1160737525
 11
135.2788464452
 21
104.1156108793
  0
LINE
  8
0
 62
7
  6
CONTINUOUS
 10
141.5996527404
 20
104.1160737525
 11
141.6288464453
 21
104.1156108793
  0
LINE
  8
0
 62
7
  6
CONTINUOUS
 10
147.9496527404
 20
104.1160737525
 11
147.9788464453
 21
104.1156108793
  0
LINE
  8
0
 62
7
  6
CONTINUOUS
 10
154.2996527404
 20
104.1160737525
 11
154.3288464453
 21
104.1156108793
  0
LINE
  8
0
 62
7
  6
CONTINUOUS
 10
160.6496527404
 20
104.1160737525
 11
160.6788464453
 21
104.1156108793
  0
LINE
  8
0
 62
7
  6
CONTINUOUS
 10
166.9996527404
 20
104.1160737525
 11
167.0288464453
 21
104.1156108793
  0
LINE
  8
0
 62
7
  6
CONTINUOUS
 10
179.6996527404
 20
104.1160737525
 11
179.7288464453
 21
104.1156108793
  0
POLYLINE
  8
0
 62
7
  6
CONTINUOUS
 66
1
 70
0
  0
VERTEX
  8
0
 62
7
  6
CONTINUOUS
 10
166.6939254615
 20
104.1386874776
  0
VERTEX
  8
0
 62
7
  6
CONTINUOUS
 10
166.7840706541
 20
104.1314830283
  0
VERTEX
  8
0
 62
7
  6
CONTINUOUS
 10
166.8710892973
 20
104.1242269555
  0
VERTEX
  8
0
 62
7
  6
CONTINUOUS
 10
166.9410988034
 20
104.118988698
  0
VERTEX
  8
0
 62
7
  6
CONTINUOUS
 10
166.9996527404
 20
104.1160737525
  0
SEQEND
  0
POLYLINE
  8
0
 62
7
  6
CONTINUOUS
 66
1
 70
0
  0
VERTEX
  8
0
 62
7
  6
CONTINUOUS
 10
134.9439254615
 20
104.1386874776
  0
VERTEX
  8
0
 62
7
  6
CONTINUOUS
 10
135.1210892973
 20
104.1242269555
  0
VERTEX
  8
0
 62
7
  6
CONTINUOUS
 10
135.1910988034
 20
104.118988698
  0
VERTEX
  8
0
 62
7
  6
CONTINUOUS
 10
135.2496527404
 20
104.1160737525
  0
SEQEND
  0
POLYLINE
  8
0
 62
7
  6
CONTINUOUS
 66
1
 70
0
  0
VERTEX
  8
0
 62
7
  6
CONTINUOUS
 10
141.2939254615
 20
104.1386874776
  0
VERTEX
  8
0
 62
7
  6
CONTINUOUS
 10
141.4710892973
 20
104.1242269555
  0
VERTEX
  8
0
 62
7
  6
CONTINUOUS
 10
141.5410988034
 20
104.118988698
  0
VERTEX
  8
0
 62
7
  6
CONTINUOUS
 10
141.5996527404
 20
104.1160737525
  0
SEQEND
  0
POLYLINE
  8
0
 62
7
  6
CONTINUOUS
 66
1
 70
0
  0
VERTEX
  8
0
 62
7
  6
CONTINUOUS
 10
147.6439254615
 20
104.1386874776
  0
VERTEX
  8
0
 62
7
  6
CONTINUOUS
 10
147.8210892973
 20
104.1242269555
  0
VERTEX
  8
0
 62
7
  6
CONTINUOUS
 10
147.8910988034
 20
104.118988698
  0
VERTEX
  8
0
 62
7
  6
CONTINUOUS
 10
147.9496527404
 20
104.1160737525
  0
SEQEND
  0
POLYLINE
  8
0
 62
7
  6
CONTINUOUS
 66
1
 70
0
  0
VERTEX
  8
0
 62
7
  6
CONTINUOUS
 10
153.9939254615
 20
104.1386874776
  0
VERTEX
  8
0
 62
7
  6
CONTINUOUS
 10
154.1710892973
 20
104.1242269555
  0
VERTEX
  8
0
 62
7
  6
CONTINUOUS
 10
154.2410988034
 20
104.118988698
  0
VERTEX
  8
0
 62
7
  6
CONTINUOUS
 10
154.2996527404
 20
104.1160737525
  0
SEQEND
  0
POLYLINE
  8
0
 62
7
  6
CONTINUOUS
 66
1
 70
0
  0
VERTEX
  8
0
 62
7
  6
CONTINUOUS
 10
160.3439254615
 20
104.1386874776
  0
VERTEX
  8
0
 62
7
  6
CONTINUOUS
 10
160.5210892973
 20
104.1242269555
  0
VERTEX
  8
0
 62
7
  6
CONTINUOUS
 10
160.5910988034
 20
104.118988698
  0
VERTEX
  8
0
 62
7
  6
CONTINUOUS
 10
160.6496527404
 20
104.1160737525
  0
SEQEND
  0
POLYLINE
  8
0
 62
7
  6
CONTINUOUS
 66
1
 70
0
  0
VERTEX
  8
0
 62
7
  6
CONTINUOUS
 10
134.9715361733
 20
104.9156150773
  0
VERTEX
  8
0
 62
7
  6
CONTINUOUS
 10
134.8868572532
 20
104.9269497931
  0
VERTEX
  8
0
 62
7
  6
CONTINUOUS
 10
134.804194681
 20
104.9615880946
  0
VERTEX
  8
0
 62
7
  6
CONTINUOUS
 10
134.7265313409
 20
105.0210179448
  0
VERTEX
  8
0
 62
7
  6
CONTINUOUS
 10
134.6907197935
 20
105.060762278
  0
VERTEX
  8
0
 62
7
  6
CONTINUOUS
 10
134.6290744446
 20
105.1608048456
  0
VERTEX
  8
0
 62
7
  6
CONTINUOUS
 10
134.5870481578
 20
105.286047719
  0
SEQEND
  0
POLYLINE
  8
0
 62
7
  6
CONTINUOUS
 66
1
 70
0
  0
VERTEX
  8
0
 62
7
  6
CONTINUOUS
 10
141.3215361733
 20
104.9156150773
  0
VERTEX
  8
0
 62
7
  6
CONTINUOUS
 10
141.2368572532
 20
104.9269497931
  0
VERTEX
  8
0
 62
7
  6
CONTINUOUS
 10
141.154194681
 20
104.9615880946
  0
VERTEX
  8
0
 62
7
  6
CONTINUOUS
 10
141.0765313409
 20
105.0210179448
  0
VERTEX
  8
0
 62
7
  6
CONTINUOUS
 10
141.0407197935
 20
105.060762278
  0
VERTEX
  8
0
 62
7
  6
CONTINUOUS
 10
140.9790744446
 20
105.1608048456
  0
VERTEX
  8
0
 62
7
  6
CONTINUOUS
 10
140.9370481578
 20
105.286047719
  0
SEQEND
  0
POLYLINE
  8
0
 62
7
  6
CONTINUOUS
 66
1
 70
0
  0
VERTEX
  8
0
 62
7
  6
CONTINUOUS
 10
141.2939731663
 20
104.1386833897
  0
VERTEX
  8
0
 62
7
  6
CONTINUOUS
 10
141.2406572584
 20
104.146338613
  0
VERTEX
  8
0
 62
7
  6
CONTINUOUS
 10
141.1387860882
 20
104.1830348976
  0
VERTEX
  8
0
 62
7
  6
CONTINUOUS
 10
141.049942322
 20
104.2462230704
  0
VERTEX
  8
0
 62
7
  6
CONTINUOUS
 10
140.9815111683
 20
104.3309687935
  0
VERTEX
  8
0
 62
7
  6
CONTINUOUS
 10
140.9384689644
 20
104.4310722207
  0
VERTEX
  8
0
 62
7
  6
CONTINUOUS
 10
140.9240361354
 20
104.5375520622
  0
SEQEND
  0
POLYLINE
  8
0
 62
7
  6
CONTINUOUS
 66
1
 70
0
  0
VERTEX
  8
0
 62
7
  6
CONTINUOUS
 10
147.6439731663
 20
104.1386833897
  0
VERTEX
  8
0
 62
7
  6
CONTINUOUS
 10
147.5906572584
 20
104.146338613
  0
VERTEX
  8
0
 62
7
  6
CONTINUOUS
 10
147.4887860882
 20
104.1830348976
  0
VERTEX
  8
0
 62
7
  6
CONTINUOUS
 10
147.399942322
 20
104.2462230704
  0
VERTEX
  8
0
 62
7
  6
CONTINUOUS
 10
147.3315111683
 20
104.3309687935
  0
VERTEX
  8
0
 62
7
  6
CONTINUOUS
 10
147.2884689644
 20
104.4310722207
  0
VERTEX
  8
0
 62
7
  6
CONTINUOUS
 10
147.2740361354
 20
104.5375520622
  0
SEQEND
  0
POLYLINE
  8
0
 62
7
  6
CONTINUOUS
 66
1
 70
0
  0
VERTEX
  8
0
 62
7
  6
CONTINUOUS
 10
153.9939731663
 20
104.1386833897
  0
VERTEX
  8
0
 62
7
  6
CONTINUOUS
 10
153.9406572584
 20
104.146338613
  0
VERTEX
  8
0
 62
7
  6
CONTINUOUS
 10
153.8387860882
 20
104.1830348976
  0
VERTEX
  8
0
 62
7
  6
CONTINUOUS
 10
153.749942322
 20
104.2462230704
  0
VERTEX
  8
0
 62
7
  6
CONTINUOUS
 10
153.6815111683
 20
104.3309687935
  0
VERTEX
  8
0
 62
7
  6
CONTINUOUS
 10
153.6384689644
 20
104.4310722207
  0
VERTEX
  8
0
 62
7
  6
CONTINUOUS
 10
153.6240361354
 20
104.5375520622
  0
SEQEND
  0
POLYLINE
  8
0
 62
7
  6
CONTINUOUS
 66
1
 70
0
  0
VERTEX
  8
0
 62
7
  6
CONTINUOUS
 10
126.7148553419
 20
121.4663683803
  0
VERTEX
  8
0
 62
7
  6
CONTINUOUS
 10
126.6932398388
 20
121.512416791
  0
VERTEX
  8
0
 62
7
  6
CONTINUOUS
 10
126.6583430933
 20
121.5487545278
  0
VERTEX
  8
0
 62
7
  6
CONTINUOUS
 10
126.6152556768
 20
121.5718339748
  0
VERTEX
  8
0
 62
7
  6
CONTINUOUS
 10
126.5689084636
 20
121.5791674882
  0
VERTEX
  8
0
 62
7
  6
CONTINUOUS
 10
126.5228972531
 20
121.5701181095
  0
VERTEX
  8
0
 62
7
  6
CONTINUOUS
 10
126.4801071636
 20
121.5460470233
  0
VERTEX
  8
0
 62
7
  6
CONTINUOUS
 10
126.4464630055
 20
121.5101728859
  0
VERTEX
  8
0
 62
7
  6
CONTINUOUS
 10
126.4259008532
 20
121.4657979493
  0
SEQEND
  0
LINE
  8
0
 62
7
  6
CONTINUOUS
 10
126.7148553419
 20
121.4663683803
 11
128.1417305888
 21
116.3445923506
  0
LINE
  8
0
 62
7
  6
CONTINUOUS
 10
121.2240361354
 20
137.2239663495
 11
121.2215361354
 21
137.2350872686
  0
POLYLINE
  8
0
 62
7
  6
CONTINUOUS
 66
1
 70
0
  0
VERTEX
  8
0
 62
7
  6
CONTINUOUS
 10
128.2039405975
 20
112.3387352689
  0
VERTEX
  8
0
 62
7
  6
CONTINUOUS
 10
128.2223611011
 20
112.1991484789
  0
VERTEX
  8
0
 62
7
  6
CONTINUOUS
 10
128.2215361354
 20
112.2120140503
  0
SEQEND
  0
POLYLINE
  8
0
 62
7
  6
CONTINUOUS
 66
1
 70
0
  0
VERTEX
  8
0
 62
7
  6
CONTINUOUS
 10
127.9713945702
 20
136.2306307858
  0
VERTEX
  8
0
 62
7
  6
CONTINUOUS
 10
127.9700157479
 20
136.4122724536
  0
VERTEX
  8
0
 62
7
  6
CONTINUOUS
 10
127.9656054057
 20
136.5668184466
  0
VERTEX
  8
0
 62
7
  6
CONTINUOUS
 10
127.9532202125
 20
136.7041997611
  0
VERTEX
  8
0
 62
7
  6
CONTINUOUS
 10
127.924928125
 20
136.8244963871
  0
VERTEX
  8
0
 62
7
  6
CONTINUOUS
 10
127.8746493749
 20
136.9289987769
  0
VERTEX
  8
0
 62
7
  6
CONTINUOUS
 10
127.8409408346
 20
136.9756828995
  0
VERTEX
  8
0
 62
7
  6
CONTINUOUS
 10
127.7654460319
 20
137.0529174618
  0
VERTEX
  8
0
 62
7
  6
CONTINUOUS
 10
127.6972948629
 20
137.106668286
  0
VERTEX
  8
0
 62
7
  6
CONTINUOUS
 10
127.6423403343
 20
137.1466612999
  0
VERTEX
  8
0
 62
7
  6
CONTINUOUS
 10
127.6019705687
 20
137.1802686175
  0
VERTEX
  8
0
 62
7
  6
CONTINUOUS
 10
127.5789900015
 20
137.2102369443
  0
VERTEX
  8
0
 62
7
  6
CONTINUOUS
 10
127.5740361354
 20
137.2239663495
  0
SEQEND
  0
LINE
  8
0
 62
7
  6
CONTINUOUS
 10
127.9715361354
 20
127.8750171856
 11
127.9713945702
 21
136.2306307858
  0
LINE
  8
0
 62
7
  6
CONTINUOUS
 10
127.9740361354
 20
130.4906878352
 11
127.9740361354
 21
138.0936683273
  0
LINE
  8
0
 62
7
  6
CONTINUOUS
 10
128.2215361354
 20
114.79992644
 11
128.2215361354
 21
105.4323286218
  0
LINE
  8
0
 62
7
  6
CONTINUOUS
 10
128.2240361354
 20
105.4087532137
 11
128.2240361354
 21
104.5375520622
  0
POLYLINE
  8
0
 62
7
  6
CONTINUOUS
 66
1
 70
0
  0
VERTEX
  8
0
 62
7
  6
CONTINUOUS
 10
128.2417325792
 20
115.2918095969
  0
VERTEX
  8
0
 62
7
  6
CONTINUOUS
 10
128.2465666416
 20
115.7167454954
  0
VERTEX
  8
0
 62
7
  6
CONTINUOUS
 10
128.2264711827
 20
115.9283637976
  0
VERTEX
  8
0
 62
7
  6
CONTINUOUS
 10
128.1417305888
 20
116.3445923506
  0
SEQEND
  0
LINE
  8
0
 62
7
  6
CONTINUOUS
 10
128.2215361354
 20
114.79992644
 11
128.2417325792
 21
115.2918095969
  0
POLYLINE
  8
0
 62
7
  6
CONTINUOUS
 66
1
 70
0
  0
VERTEX
  8
0
 62
7
  6
CONTINUOUS
 10
131.3965361354
 20
137.1988917677
  0
VERTEX
  8
0
 62
7
  6
CONTINUOUS
 10
131.4120590372
 20
137.3452223836
  0
VERTEX
  8
0
 62
7
  6
CONTINUOUS
 10
131.4540673728
 20
137.4704004481
  0
VERTEX
  8
0
 62
7
  6
CONTINUOUS
 10
131.5157152516
 20
137.5704524173
  0
VERTEX
  8
0
 62
7
  6
CONTINUOUS
 10
131.5515285822
 20
137.6101997396
  0
VERTEX
  8
0
 62
7
  6
CONTINUOUS
 10
131.6291907327
 20
137.6696300097
  0
VERTEX
  8
0
 62
7
  6
CONTINUOUS
 10
131.7118555744
 20
137.7042701413
  0
VERTEX
  8
0
 62
7
  6
CONTINUOUS
 10
131.7965361734
 20
137.7156053122
  0
SEQEND
  0
LINE
  8
0
 62
7
  6
CONTINUOUS
 10
124.3965361354
 20
105.3961331209
 11
124.3990361354
 21
105.4072540399
  0
LINE
  8
0
 62
7
  6
CONTINUOUS
 10
124.9067077308
 20
116.0157676973
 11
126.4259008532
 21
121.4657979493
  0
POLYLINE
  8
0
 62
7
  6
CONTINUOUS
 66
1
 70
0
  0
VERTEX
  8
0
 62
7
  6
CONTINUOUS
 10
109.2272311745
 20
112.5952361851
  0
VERTEX
  8
0
 62
7
  6
CONTINUOUS
 10
109.2704983343
 20
112.6335615263
  0
VERTEX
  8
0
 62
7
  6
CONTINUOUS
 10
109.2953182149
 20
112.6530471012
  0
VERTEX
  8
0
 62
7
  6
CONTINUOUS
 10
109.3488954927
 20
112.6923742699
  0
SEQEND
  0
POLYLINE
  8
0
 62
7
  6
CONTINUOUS
 66
1
 70
0
  0
VERTEX
  8
0
 62
7
  6
CONTINUOUS
 10
130.7790991046
 20
104.1386833897
  0
VERTEX
  8
0
 62
7
  6
CONTINUOUS
 10
130.8324150125
 20
104.146338613
  0
VERTEX
  8
0
 62
7
  6
CONTINUOUS
 10
130.9342861827
 20
104.1830348976
  0
VERTEX
  8
0
 62
7
  6
CONTINUOUS
 10
131.0231299488
 20
104.2462230704
  0
VERTEX
  8
0
 62
7
  6
CONTINUOUS
 10
131.0915611026
 20
104.3309687935
  0
VERTEX
  8
0
 62
7
  6
CONTINUOUS
 10
131.1346033064
 20
104.4310722207
  0
VERTEX
  8
0
 62
7
  6
CONTINUOUS
 10
131.1490361354
 20
104.5375520622
  0
SEQEND
  0
POLYLINE
  8
0
 62
7
  6
CONTINUOUS
 66
1
 70
0
  0
VERTEX
  8
0
 62
7
  6
CONTINUOUS
 10
124.4290991046
 20
104.1386833897
  0
VERTEX
  8
0
 62
7
  6
CONTINUOUS
 10
124.4824150125
 20
104.146338613
  0
VERTEX
  8
0
 62
7
  6
CONTINUOUS
 10
124.5842861827
 20
104.1830348976
  0
VERTEX
  8
0
 62
7
  6
CONTINUOUS
 10
124.6731299488
 20
104.2462230704
  0
VERTEX
  8
0
 62
7
  6
CONTINUOUS
 10
124.7415611026
 20
104.3309687935
  0
VERTEX
  8
0
 62
7
  6
CONTINUOUS
 10
124.7846033064
 20
104.4310722207
  0
VERTEX
  8
0
 62
7
  6
CONTINUOUS
 10
124.7990361354
 20
104.5375520622
  0
SEQEND
  0
POLYLINE
  8
0
 62
7
  6
CONTINUOUS
 66
1
 70
0
  0
VERTEX
  8
0
 62
7
  6
CONTINUOUS
 10
118.0790991046
 20
104.1386833897
  0
VERTEX
  8
0
 62
7
  6
CONTINUOUS
 10
118.1324150125
 20
104.146338613
  0
VERTEX
  8
0
 62
7
  6
CONTINUOUS
 10
118.2342861827
 20
104.1830348976
  0
VERTEX
  8
0
 62
7
  6
CONTINUOUS
 10
118.3231299488
 20
104.2462230704
  0
VERTEX
  8
0
 62
7
  6
CONTINUOUS
 10
118.3915611026
 20
104.3309687935
  0
VERTEX
  8
0
 62
7
  6
CONTINUOUS
 10
118.4346033064
 20
104.4310722207
  0
VERTEX
  8
0
 62
7
  6
CONTINUOUS
 10
118.4490361354
 20
104.5375520622
  0
SEQEND
  0
LINE
  8
0
 62
7
  6
CONTINUOUS
 10
117.9025982078
 20
104.1242770233
 11
118.0791467026
 21
104.1386874696
  0
LINE
  8
0
 62
7
  6
CONTINUOUS
 10
111.5525982078
 20
104.1242770233
 11
111.7291467026
 21
104.1386874696
  0
LINE
  8
DEFAULT_1
 62
2
  6
CENTER
 10
107.1740361354
 20
108.6156101947
 11
183.8890361354
 21
108.6156101947
  0
POLYLINE
  8
0
 62
7
  6
CONTINUOUS
 66
1
 70
0
  0
VERTEX
  8
0
 62
7
  6
CONTINUOUS
 10
179.3939254615
 20
104.1386874776
  0
VERTEX
  8
0
 62
7
  6
CONTINUOUS
 10
179.5710892973
 20
104.1242269555
  0
VERTEX
  8
0
 62
7
  6
CONTINUOUS
 10
179.6410988034
 20
104.118988698
  0
VERTEX
  8
0
 62
7
  6
CONTINUOUS
 10
179.6996527404
 20
104.1160737525
  0
SEQEND
  0
POLYLINE
  8
0
 62
7
  6
CONTINUOUS
 66
1
 70
0
  0
VERTEX
  8
0
 62
7
  6
CONTINUOUS
 10
160.3439731663
 20
104.1386833897
  0
VERTEX
  8
0
 62
7
  6
CONTINUOUS
 10
160.2906572584
 20
104.146338613
  0
VERTEX
  8
0
 62
7
  6
CONTINUOUS
 10
160.1887860882
 20
104.1830348976
  0
VERTEX
  8
0
 62
7
  6
CONTINUOUS
 10
160.099942322
 20
104.2462230704
  0
VERTEX
  8
0
 62
7
  6
CONTINUOUS
 10
160.0315111683
 20
104.3309687935
  0
VERTEX
  8
0
 62
7
  6
CONTINUOUS
 10
159.9884689644
 20
104.4310722207
  0
VERTEX
  8
0
 62
7
  6
CONTINUOUS
 10
159.9740361354
 20
104.5375520622
  0
SEQEND
  0
POLYLINE
  8
0
 62
7
  6
CONTINUOUS
 66
1
 70
0
  0
VERTEX
  8
0
 62
7
  6
CONTINUOUS
 10
166.6939731663
 20
104.1386833897
  0
VERTEX
  8
0
 62
7
  6
CONTINUOUS
 10
166.6406572584
 20
104.146338613
  0
VERTEX
  8
0
 62
7
  6
CONTINUOUS
 10
166.5387860882
 20
104.1830348976
  0
VERTEX
  8
0
 62
7
  6
CONTINUOUS
 10
166.449942322
 20
104.2462230704
  0
VERTEX
  8
0
 62
7
  6
CONTINUOUS
 10
166.3815111683
 20
104.3309687935
  0
VERTEX
  8
0
 62
7
  6
CONTINUOUS
 10
166.3384689644
 20
104.4310722207
  0
VERTEX
  8
0
 62
7
  6
CONTINUOUS
 10
166.3240361354
 20
104.5375520622
  0
SEQEND
  0
POLYLINE
  8
0
 62
7
  6
CONTINUOUS
 66
1
 70
0
  0
VERTEX
  8
0
 62
7
  6
CONTINUOUS
 10
106.3367940289
 20
112.9250570288
  0
VERTEX
  8
0
 62
7
  6
CONTINUOUS
 10
106.2959100123
 20
112.9309480763
  0
VERTEX
  8
0
 62
7
  6
CONTINUOUS
 10
106.2197971057
 20
112.9585012615
  0
VERTEX
  8
0
 62
7
  6
CONTINUOUS
 10
106.1538376662
 20
113.0053853361
  0
VERTEX
  8
0
 62
7
  6
CONTINUOUS
 10
106.1263979489
 20
113.0348125939
  0
VERTEX
  8
0
 62
7
  6
CONTINUOUS
 10
106.0840797236
 20
113.104235659
  0
VERTEX
  8
0
 62
7
  6
CONTINUOUS
 10
106.0618869632
 20
113.1829715939
  0
VERTEX
  8
0
 62
7
  6
CONTINUOUS
 10
106.0590361354
 20
113.2242313738
  0
SEQEND
  0
POLYLINE
  8
0
 62
7
  6
CONTINUOUS
 66
1
 70
0
  0
VERTEX
  8
0
 62
7
  6
CONTINUOUS
 10
129.6022656874
 20
121.6098707874
  0
VERTEX
  8
0
 62
7
  6
CONTINUOUS
 10
129.6238811905
 20
121.5638223767
  0
VERTEX
  8
0
 62
7
  6
CONTINUOUS
 10
129.6587779361
 20
121.5274846398
  0
VERTEX
  8
0
 62
7
  6
CONTINUOUS
 10
129.7018653527
 20
121.5044051928
  0
VERTEX
  8
0
 62
7
  6
CONTINUOUS
 10
129.748212566
 20
121.4970716795
  0
VERTEX
  8
0
 62
7
  6
CONTINUOUS
 10
129.7942237765
 20
121.5061210583
  0
VERTEX
  8
0
 62
7
  6
CONTINUOUS
 10
129.8370138659
 20
121.5301921446
  0
VERTEX
  8
0
 62
7
  6
CONTINUOUS
 10
129.8706580239
 20
121.5660662819
  0
VERTEX
  8
0
 62
7
  6
CONTINUOUS
 10
129.8912201761
 20
121.6104412184
  0
SEQEND
  0
LINE
  8
0
 62
7
  6
CONTINUOUS
 10
129.6022656874
 20
121.6098707874
 11
128.0818644268
 21
127.0673589158
  0
POLYLINE
  8
0
 62
7
  6
CONTINUOUS
 66
1
 70
0
  0
VERTEX
  8
0
 62
7
  6
CONTINUOUS
 10
128.0818644268
 20
127.0673589158
  0
VERTEX
  8
0
 62
7
  6
CONTINUOUS
 10
127.9992744097
 20
127.4671412996
  0
VERTEX
  8
0
 62
7
  6
CONTINUOUS
 10
127.9715361354
 20
127.8750171856
  0
SEQEND
  0
LINE
  8
0
 62
7
  6
CONTINUOUS
 10
134.5870481578
 20
105.286047719
 11
134.5715361354
 21
105.4323286218
  0
LINE
  8
0
 62
7
  6
CONTINUOUS
 10
131.1490361354
 20
112.1405325542
 11
131.1490361354
 21
104.5375520622
  0
LINE
  8
0
 62
7
  6
CONTINUOUS
 10
131.3965361354
 20
137.1988917677
 11
131.3965361354
 21
127.4209908924
  0
LINE
  8
0
 62
7
  6
CONTINUOUS
 10
131.3990361354
 20
137.2224586591
 11
131.3990361354
 21
138.0936683273
  0
POLYLINE
  8
0
 62
7
  6
CONTINUOUS
 66
1
 70
0
  0
VERTEX
  8
0
 62
7
  6
CONTINUOUS
 10
131.1490360804
 20
112.1405119651
  0
VERTEX
  8
0
 62
7
  6
CONTINUOUS
 10
131.1507111696
 20
112.1991484767
  0
VERTEX
  8
0
 62
7
  6
CONTINUOUS
 10
131.169131673
 20
112.3387352671
  0
VERTEX
  8
0
 62
7
  6
CONTINUOUS
 10
131.2066458921
 20
112.4650658239
  0
VERTEX
  8
0
 62
7
  6
CONTINUOUS
 10
131.2605436433
 20
112.5729421804
  0
VERTEX
  8
0
 62
7
  6
CONTINUOUS
 10
131.2923765366
 20
112.6185454565
  0
VERTEX
  8
0
 62
7
  6
CONTINUOUS
 10
131.36344565
 20
112.6918328095
  0
VERTEX
  8
0
 62
7
  6
CONTINUOUS
 10
131.4413008228
 20
112.7400049224
  0
VERTEX
  8
0
 62
7
  6
CONTINUOUS
 10
131.5204209703
 20
112.7617517819
  0
VERTEX
  8
0
 62
7
  6
CONTINUOUS
 10
131.5490361391
 20
112.7633814351
  0
SEQEND
  0
LINE
  8
0
 62
7
  6
CONTINUOUS
 10
131.3965361354
 20
130.4192064378
 11
131.3973611085
 21
130.4320721496
  0
POLYLINE
  8
0
 62
7
  6
CONTINUOUS
 66
1
 70
0
  0
VERTEX
  8
0
 62
7
  6
CONTINUOUS
 10
131.3973611085
 20
130.4320721496
  0
VERTEX
  8
0
 62
7
  6
CONTINUOUS
 10
131.3789406436
 20
130.2924854307
  0
VERTEX
  8
0
 62
7
  6
CONTINUOUS
 10
131.3414264362
 20
130.1661547018
  0
VERTEX
  8
0
 62
7
  6
CONTINUOUS
 10
131.2875286996
 20
130.0582783112
  0
VERTEX
  8
0
 62
7
  6
CONTINUOUS
 10
131.255695765
 20
130.0126749803
  0
VERTEX
  8
0
 62
7
  6
CONTINUOUS
 10
131.1846267152
 20
129.9393876517
  0
VERTEX
  8
0
 62
7
  6
CONTINUOUS
 10
131.1067715898
 20
129.8912155141
  0
VERTEX
  8
0
 62
7
  6
CONTINUOUS
 10
131.0276516745
 20
129.869468654
  0
VERTEX
  8
0
 62
7
  6
CONTINUOUS
 10
130.9990361348
 20
129.8678389391
  0
SEQEND
  0
LINE
  8
0
 62
7
  6
CONTINUOUS
 10
131.28636454
 20
126.6154526922
 11
129.8912201761
 21
121.6104412184
  0
POLYLINE
  8
0
 62
7
  6
CONTINUOUS
 66
1
 70
0
  0
VERTEX
  8
0
 62
7
  6
CONTINUOUS
 10
124.3990361354
 20
105.4072540399
  0
VERTEX
  8
0
 62
7
  6
CONTINUOUS
 10
124.4036130127
 20
105.420211143
  0
VERTEX
  8
0
 62
7
  6
CONTINUOUS
 10
124.424735877
 20
105.4487095002
  0
VERTEX
  8
0
 62
7
  6
CONTINUOUS
 10
124.4614020269
 20
105.4800742972
  0
VERTEX
  8
0
 62
7
  6
CONTINUOUS
 10
124.5117708364
 20
105.5168816439
  0
VERTEX
  8
0
 62
7
  6
CONTINUOUS
 10
124.5751510824
 20
105.5653686313
  0
VERTEX
  8
0
 62
7
  6
CONTINUOUS
 10
124.6489733189
 20
105.6356175652
  0
VERTEX
  8
0
 62
7
  6
CONTINUOUS
 10
124.6853102235
 20
105.6809778853
  0
VERTEX
  8
0
 62
7
  6
CONTINUOUS
 10
124.7425831152
 20
105.7867673603
  0
VERTEX
  8
0
 62
7
  6
CONTINUOUS
 10
124.7746287963
 20
105.9046474415
  0
VERTEX
  8
0
 62
7
  6
CONTINUOUS
 10
124.7897360355
 20
106.0479977767
  0
VERTEX
  8
0
 62
7
  6
CONTINUOUS
 10
124.7948709416
 20
106.2094024042
  0
VERTEX
  8
0
 62
7
  6
CONTINUOUS
 10
124.7963839629
 20
106.3970038882
  0
VERTEX
  8
0
 62
7
  6
CONTINUOUS
 10
124.7965361354
 20
115.2102294971
  0
SEQEND
  0
POLYLINE
  8
0
 62
7
  6
CONTINUOUS
 66
1
 70
0
  0
VERTEX
  8
0
 62
7
  6
CONTINUOUS
 10
111.7290991046
 20
104.1386833897
  0
VERTEX
  8
0
 62
7
  6
CONTINUOUS
 10
111.7824150125
 20
104.146338613
  0
VERTEX
  8
0
 62
7
  6
CONTINUOUS
 10
111.8842861827
 20
104.1830348976
  0
VERTEX
  8
0
 62
7
  6
CONTINUOUS
 10
111.9731299488
 20
104.2462230704
  0
VERTEX
  8
0
 62
7
  6
CONTINUOUS
 10
112.0415611026
 20
104.3309687935
  0
VERTEX
  8
0
 62
7
  6
CONTINUOUS
 10
112.0846033064
 20
104.4310722207
  0
VERTEX
  8
0
 62
7
  6
CONTINUOUS
 10
112.0990361354
 20
104.5375520622
  0
SEQEND
  0
POLYLINE
  8
0
 62
7
  6
CONTINUOUS
 66
1
 70
0
  0
VERTEX
  8
0
 62
7
  6
CONTINUOUS
 10
108.7740361317
 20
112.763381435
  0
VERTEX
  8
0
 62
7
  6
CONTINUOUS
 10
108.8016180793
 20
112.7618674631
  0
VERTEX
  8
0
 62
7
  6
CONTINUOUS
 10
108.8808544468
 20
112.7404064673
  0
VERTEX
  8
0
 62
7
  6
CONTINUOUS
 10
108.9589689517
 20
112.6923655903
  0
VERTEX
  8
0
 62
7
  6
CONTINUOUS
 10
109.0305930365
 20
112.6186773619
  0
VERTEX
  8
0
 62
7
  6
CONTINUOUS
 10
109.0626998671
 20
112.5726686008
  0
VERTEX
  8
0
 62
7
  6
CONTINUOUS
 10
109.1168513005
 20
112.4639805641
  0
VERTEX
  8
0
 62
7
  6
CONTINUOUS
 10
109.1542959232
 20
112.3370463389
  0
SEQEND
  0
POLYLINE
  8
0
 62
7
  6
CONTINUOUS
 66
1
 70
0
  0
VERTEX
  8
0
 62
7
  6
CONTINUOUS
 10
121.4740361318
 20
112.7633814351
  0
VERTEX
  8
0
 62
7
  6
CONTINUOUS
 10
121.5026513004
 20
112.7617517819
  0
VERTEX
  8
0
 62
7
  6
CONTINUOUS
 10
121.5817714477
 20
112.7400049226
  0
VERTEX
  8
0
 62
7
  6
CONTINUOUS
 10
121.6596266203
 20
112.6918328099
  0
VERTEX
  8
0
 62
7
  6
CONTINUOUS
 10
121.7306957337
 20
112.6185454572
  0
VERTEX
  8
0
 62
7
  6
CONTINUOUS
 10
121.762528627
 20
112.5729421813
  0
VERTEX
  8
0
 62
7
  6
CONTINUOUS
 10
121.8164263783
 20
112.4650658252
  0
VERTEX
  8
0
 62
7
  6
CONTINUOUS
 10
121.8539405975
 20
112.3387352689
  0
SEQEND
  0
POLYLINE
  8
0
 62
7
  6
CONTINUOUS
 66
1
 70
0
  0
VERTEX
  8
0
 62
7
  6
CONTINUOUS
 10
127.8240361318
 20
112.7633814351
  0
VERTEX
  8
0
 62
7
  6
CONTINUOUS
 10
127.8526513004
 20
112.7617517819
  0
VERTEX
  8
0
 62
7
  6
CONTINUOUS
 10
127.9317714477
 20
112.7400049226
  0
VERTEX
  8
0
 62
7
  6
CONTINUOUS
 10
128.0096266203
 20
112.6918328099
  0
VERTEX
  8
0
 62
7
  6
CONTINUOUS
 10
128.0806957337
 20
112.6185454572
  0
VERTEX
  8
0
 62
7
  6
CONTINUOUS
 10
128.112528627
 20
112.5729421813
  0
VERTEX
  8
0
 62
7
  6
CONTINUOUS
 10
128.1664263783
 20
112.4650658252
  0
VERTEX
  8
0
 62
7
  6
CONTINUOUS
 10
128.2039405975
 20
112.3387352689
  0
SEQEND
  0
POLYLINE
  8
0
 62
7
  6
CONTINUOUS
 66
1
 70
0
  0
VERTEX
  8
0
 62
7
  6
CONTINUOUS
 10
108.1644586981
 20
112.7829504316
  0
VERTEX
  8
0
 62
7
  6
CONTINUOUS
 10
108.3437150463
 20
112.7715471414
  0
VERTEX
  8
0
 62
7
  6
CONTINUOUS
 10
108.5583195233
 20
112.7646136975
  0
VERTEX
  8
0
 62
7
  6
CONTINUOUS
 10
108.6983625816
 20
112.763380624
  0
SEQEND
  0
POLYLINE
  8
0
 62
7
  6
CONTINUOUS
 66
1
 70
0
  0
VERTEX
  8
0
 62
7
  6
CONTINUOUS
 10
106.3367940291
 20
112.9250570287
  0
VERTEX
  8
0
 62
7
  6
CONTINUOUS
 10
106.9504030156
 20
112.8787492622
  0
VERTEX
  8
0
 62
7
  6
CONTINUOUS
 10
107.569828099
 20
112.8305787137
  0
VERTEX
  8
0
 62
7
  6
CONTINUOUS
 10
108.1644598154
 20
112.7829518454
  0
SEQEND
  0
POLYLINE
  8
0
 62
7
  6
CONTINUOUS
 66
1
 70
0
  0
VERTEX
  8
0
 62
7
  6
CONTINUOUS
 10
179.3939731663
 20
104.1386833897
  0
VERTEX
  8
0
 62
7
  6
CONTINUOUS
 10
179.3406572584
 20
104.146338613
  0
VERTEX
  8
0
 62
7
  6
CONTINUOUS
 10
179.2387860882
 20
104.1830348976
  0
VERTEX
  8
0
 62
7
  6
CONTINUOUS
 10
179.149942322
 20
104.2462230704
  0
VERTEX
  8
0
 62
7
  6
CONTINUOUS
 10
179.0815111683
 20
104.3309687935
  0
VERTEX
  8
0
 62
7
  6
CONTINUOUS
 10
179.0384689644
 20
104.4310722207
  0
VERTEX
  8
0
 62
7
  6
CONTINUOUS
 10
179.0240361354
 20
104.5375520622
  0
SEQEND
  0
POLYLINE
  8
0
 62
7
  6
CONTINUOUS
 66
1
 70
0
  0
VERTEX
  8
0
 62
7
  6
CONTINUOUS
 10
173.7740361354
 20
104.9156101947
  0
VERTEX
  8
0
 62
7
  6
CONTINUOUS
 10
173.6930446886
 20
104.9274929073
  0
VERTEX
  8
0
 62
7
  6
CONTINUOUS
 10
173.6133943436
 20
104.9645500823
  0
VERTEX
  8
0
 62
7
  6
CONTINUOUS
 10
173.541446878
 20
105.026899914
  0
VERTEX
  8
0
 62
7
  6
CONTINUOUS
 10
173.4810215621
 20
105.1161894937
  0
VERTEX
  8
0
 62
7
  6
CONTINUOUS
 10
173.4395350875
 20
105.2303007171
  0
VERTEX
  8
0
 62
7
  6
CONTINUOUS
 10
173.4240361354
 20
105.3656101947
  0
SEQEND
  0
POLYLINE
  8
0
 62
7
  6
CONTINUOUS
 66
1
 70
0
  0
VERTEX
  8
0
 62
7
  6
CONTINUOUS
 10
133.0648553419
 20
121.4663683803
  0
VERTEX
  8
0
 62
7
  6
CONTINUOUS
 10
133.0432398388
 20
121.5124167911
  0
VERTEX
  8
0
 62
7
  6
CONTINUOUS
 10
133.0083430931
 20
121.548754528
  0
VERTEX
  8
0
 62
7
  6
CONTINUOUS
 10
132.9652556765
 20
121.5718339749
  0
VERTEX
  8
0
 62
7
  6
CONTINUOUS
 10
132.9189084632
 20
121.5791674882
  0
VERTEX
  8
0
 62
7
  6
CONTINUOUS
 10
132.8728972527
 20
121.5701181093
  0
VERTEX
  8
0
 62
7
  6
CONTINUOUS
 10
132.8301071634
 20
121.5460470231
  0
VERTEX
  8
0
 62
7
  6
CONTINUOUS
 10
132.7964630054
 20
121.5101728858
  0
VERTEX
  8
0
 62
7
  6
CONTINUOUS
 10
132.7759008532
 20
121.4657979493
  0
SEQEND
  0
LINE
  8
0
 62
7
  6
CONTINUOUS
 10
133.0648553419
 20
121.4663683803
 11
134.4917305888
 21
116.3445923506
  0
LINE
  8
0
 62
7
  6
CONTINUOUS
 10
127.5740361354
 20
137.2239663495
 11
127.5715361354
 21
137.2350872686
  0
POLYLINE
  8
0
 62
7
  6
CONTINUOUS
 66
1
 70
0
  0
VERTEX
  8
0
 62
7
  6
CONTINUOUS
 10
134.5539405975
 20
112.3387352689
  0
VERTEX
  8
0
 62
7
  6
CONTINUOUS
 10
134.5723611011
 20
112.1991484789
  0
VERTEX
  8
0
 62
7
  6
CONTINUOUS
 10
134.5715361354
 20
112.2120140503
  0
SEQEND
  0
POLYLINE
  8
0
 62
7
  6
CONTINUOUS
 66
1
 70
0
  0
VERTEX
  8
0
 62
7
  6
CONTINUOUS
 10
134.3213945702
 20
136.2306307858
  0
VERTEX
  8
0
 62
7
  6
CONTINUOUS
 10
134.3200157479
 20
136.4122724536
  0
VERTEX
  8
0
 62
7
  6
CONTINUOUS
 10
134.3156054057
 20
136.5668184466
  0
VERTEX
  8
0
 62
7
  6
CONTINUOUS
 10
134.3032202125
 20
136.7041997611
  0
VERTEX
  8
0
 62
7
  6
CONTINUOUS
 10
134.274928125
 20
136.8244963871
  0
VERTEX
  8
0
 62
7
  6
CONTINUOUS
 10
134.2246493749
 20
136.9289987769
  0
VERTEX
  8
0
 62
7
  6
CONTINUOUS
 10
134.1909408346
 20
136.9756828995
  0
VERTEX
  8
0
 62
7
  6
CONTINUOUS
 10
134.1154460319
 20
137.0529174618
  0
VERTEX
  8
0
 62
7
  6
CONTINUOUS
 10
134.0472948629
 20
137.106668286
  0
VERTEX
  8
0
 62
7
  6
CONTINUOUS
 10
133.9923403343
 20
137.1466612999
  0
VERTEX
  8
0
 62
7
  6
CONTINUOUS
 10
133.9519705687
 20
137.1802686175
  0
VERTEX
  8
0
 62
7
  6
CONTINUOUS
 10
133.9289900015
 20
137.2102369443
  0
VERTEX
  8
0
 62
7
  6
CONTINUOUS
 10
133.9240361354
 20
137.2239663495
  0
SEQEND
  0
LINE
  8
0
 62
7
  6
CONTINUOUS
 10
134.3215361354
 20
127.8750171856
 11
134.3213945702
 21
136.2306307858
  0
LINE
  8
0
 62
7
  6
CONTINUOUS
 10
134.3240361354
 20
130.4906878352
 11
134.3240361354
 21
138.0936683273
  0
LINE
  8
0
 62
7
  6
CONTINUOUS
 10
134.5715361354
 20
114.79992644
 11
134.5715361354
 21
105.4323286218
  0
LINE
  8
0
 62
7
  6
CONTINUOUS
 10
134.5740361354
 20
105.4087532137
 11
134.5740361354
 21
104.5375520622
  0
POLYLINE
  8
0
 62
7
  6
CONTINUOUS
 66
1
 70
0
  0
VERTEX
  8
0
 62
7
  6
CONTINUOUS
 10
134.5917325792
 20
115.2918095969
  0
VERTEX
  8
0
 62
7
  6
CONTINUOUS
 10
134.5965666416
 20
115.7167454954
  0
VERTEX
  8
0
 62
7
  6
CONTINUOUS
 10
134.5764711827
 20
115.9283637976
  0
VERTEX
  8
0
 62
7
  6
CONTINUOUS
 10
134.4917305888
 20
116.3445923506
  0
SEQEND
  0
LINE
  8
0
 62
7
  6
CONTINUOUS
 10
134.5715361354
 20
114.79992644
 11
134.5917325792
 21
115.2918095969
  0
POLYLINE
  8
0
 62
7
  6
CONTINUOUS
 66
1
 70
0
  0
VERTEX
  8
0
 62
7
  6
CONTINUOUS
 10
137.7465361354
 20
137.1988917677
  0
VERTEX
  8
0
 62
7
  6
CONTINUOUS
 10
137.7620590372
 20
137.3452223836
  0
VERTEX
  8
0
 62
7
  6
CONTINUOUS
 10
137.8040673728
 20
137.4704004481
  0
VERTEX
  8
0
 62
7
  6
CONTINUOUS
 10
137.8657152516
 20
137.5704524173
  0
VERTEX
  8
0
 62
7
  6
CONTINUOUS
 10
137.9015285822
 20
137.6101997396
  0
VERTEX
  8
0
 62
7
  6
CONTINUOUS
 10
137.9791907327
 20
137.6696300097
  0
VERTEX
  8
0
 62
7
  6
CONTINUOUS
 10
138.0618555744
 20
137.7042701413
  0
VERTEX
  8
0
 62
7
  6
CONTINUOUS
 10
138.1465361734
 20
137.7156053122
  0
SEQEND
  0
LINE
  8
0
 62
7
  6
CONTINUOUS
 10
130.7465361354
 20
105.3961331209
 11
130.7490361354
 21
105.4072540399
  0
LINE
  8
0
 62
7
  6
CONTINUOUS
 10
131.2567077308
 20
116.0157676973
 11
132.7759008532
 21
121.4657979493
  0
LINE
  8
0
 62
7
  6
CONTINUOUS
 10
178.6240361348
 20
112.7633819804
 11
175.999036136
 21
112.7633819804
  0
LINE
  8
0
 62
7
  6
CONTINUOUS
 10
173.0202942793
 20
112.7633808312
 11
169.649036136
 21
112.7633819804
  0
LINE
  8
0
 62
7
  6
CONTINUOUS
 10
165.9240361348
 20
112.7633819804
 11
163.299036136
 21
112.7633819804
  0
LINE
  8
0
 62
7
  6
CONTINUOUS
 10
159.5740361348
 20
112.7633819804
 11
156.949036136
 21
112.7633819804
  0
LINE
  8
0
 62
7
  6
CONTINUOUS
 10
153.2240361348
 20
112.7633819804
 11
150.599036136
 21
112.7633819804
  0
LINE
  8
0
 62
7
  6
CONTINUOUS
 10
146.8740361348
 20
112.7633819804
 11
144.249036136
 21
112.7633819804
  0
LINE
  8
0
 62
7
  6
CONTINUOUS
 10
140.5240361318
 20
112.7633819804
 11
137.8990361391
 21
112.7633819804
  0
LINE
  8
0
 62
7
  6
CONTINUOUS
 10
134.1740361318
 20
112.7633819804
 11
131.5490361391
 21
112.7633819804
  0
LINE
  8
0
 62
7
  6
CONTINUOUS
 10
127.8240361318
 20
112.7633819804
 11
125.1990361391
 21
112.7633819804
  0
LINE
  8
0
 62
7
  6
CONTINUOUS
 10
121.4740361318
 20
112.7633819804
 11
118.8490361391
 21
112.7633819804
  0
LINE
  8
0
 62
7
  6
CONTINUOUS
 10
108.7740361318
 20
112.7633819804
 11
108.6972695827
 21
112.7633821352
  0
LINE
  8
0
 62
7
  6
CONTINUOUS
 10
112.4990361391
 20
112.7633819804
 11
115.870377195
 21
112.7633786109
  0
POLYLINE
  8
0
 62
7
  6
CONTINUOUS
 66
1
 70
0
  0
VERTEX
  8
0
 62
7
  6
CONTINUOUS
 10
178.6240361348
 20
112.7633814511
  0
VERTEX
  8
0
 62
7
  6
CONTINUOUS
 10
178.6494179625
 20
112.7620995532
  0
VERTEX
  8
0
 62
7
  6
CONTINUOUS
 10
178.7265876627
 20
112.7422272165
  0
VERTEX
  8
0
 62
7
  6
CONTINUOUS
 10
178.8029784731
 20
112.6971111637
  0
VERTEX
  8
0
 62
7
  6
CONTINUOUS
 10
178.8717333827
 20
112.6297312654
  0
VERTEX
  8
0
 62
7
  6
CONTINUOUS
 10
178.9020336227
 20
112.5890895245
  0
VERTEX
  8
0
 62
7
  6
CONTINUOUS
 10
178.9532830628
 20
112.496341501
  0
VERTEX
  8
0
 62
7
  6
CONTINUOUS
 10
178.9677574642
 20
112.4616489007
  0
SEQEND
  0
POLYLINE
  8
0
 62
7
  6
CONTINUOUS
 66
1
 70
0
  0
VERTEX
  8
0
 62
7
  6
CONTINUOUS
 10
134.1740361318
 20
112.7633814351
  0
VERTEX
  8
0
 62
7
  6
CONTINUOUS
 10
134.2026513004
 20
112.7617517819
  0
VERTEX
  8
0
 62
7
  6
CONTINUOUS
 10
134.2817714477
 20
112.7400049226
  0
VERTEX
  8
0
 62
7
  6
CONTINUOUS
 10
134.3596266203
 20
112.6918328099
  0
VERTEX
  8
0
 62
7
  6
CONTINUOUS
 10
134.4306957337
 20
112.6185454572
  0
VERTEX
  8
0
 62
7
  6
CONTINUOUS
 10
134.462528627
 20
112.5729421813
  0
VERTEX
  8
0
 62
7
  6
CONTINUOUS
 10
134.5164263783
 20
112.4650658252
  0
VERTEX
  8
0
 62
7
  6
CONTINUOUS
 10
134.5539405975
 20
112.3387352689
  0
SEQEND
  0
POLYLINE
  8
0
 62
7
  6
CONTINUOUS
 66
1
 70
0
  0
VERTEX
  8
0
 62
7
  6
CONTINUOUS
 10
140.5240361318
 20
112.7633814351
  0
VERTEX
  8
0
 62
7
  6
CONTINUOUS
 10
140.5526513004
 20
112.7617517819
  0
VERTEX
  8
0
 62
7
  6
CONTINUOUS
 10
140.6317714477
 20
112.7400049226
  0
VERTEX
  8
0
 62
7
  6
CONTINUOUS
 10
140.7096266203
 20
112.6918328099
  0
VERTEX
  8
0
 62
7
  6
CONTINUOUS
 10
140.7806957337
 20
112.6185454572
  0
VERTEX
  8
0
 62
7
  6
CONTINUOUS
 10
140.812528627
 20
112.5729421813
  0
VERTEX
  8
0
 62
7
  6
CONTINUOUS
 10
140.8664263783
 20
112.4650658252
  0
VERTEX
  8
0
 62
7
  6
CONTINUOUS
 10
140.9039405975
 20
112.3387352689
  0
SEQEND
  0
POLYLINE
  8
0
 62
7
  6
CONTINUOUS
 66
1
 70
0
  0
VERTEX
  8
0
 62
7
  6
CONTINUOUS
 10
146.8740361348
 20
112.7633814504
  0
VERTEX
  8
0
 62
7
  6
CONTINUOUS
 10
146.9026516747
 20
112.7617517355
  0
VERTEX
  8
0
 62
7
  6
CONTINUOUS
 10
146.9817715902
 20
112.7400048752
  0
VERTEX
  8
0
 62
7
  6
CONTINUOUS
 10
147.0596267157
 20
112.6918327374
  0
VERTEX
  8
0
 62
7
  6
CONTINUOUS
 10
147.1306957655
 20
112.6185454085
  0
VERTEX
  8
0
 62
7
  6
CONTINUOUS
 10
147.1625287002
 20
112.5729420774
  0
VERTEX
  8
0
 62
7
  6
CONTINUOUS
 10
147.2164264367
 20
112.4650656864
  0
VERTEX
  8
0
 62
7
  6
CONTINUOUS
 10
147.253940644
 20
112.338734957
  0
VERTEX
  8
0
 62
7
  6
CONTINUOUS
 10
147.2723611086
 20
112.1991482377
  0
VERTEX
  8
0
 62
7
  6
CONTINUOUS
 10
147.2740361993
 20
112.1405117256
  0
SEQEND
  0
POLYLINE
  8
0
 62
7
  6
CONTINUOUS
 66
1
 70
0
  0
VERTEX
  8
0
 62
7
  6
CONTINUOUS
 10
153.2240361348
 20
112.7633814504
  0
VERTEX
  8
0
 62
7
  6
CONTINUOUS
 10
153.2526516747
 20
112.7617517355
  0
VERTEX
  8
0
 62
7
  6
CONTINUOUS
 10
153.3317715902
 20
112.7400048752
  0
VERTEX
  8
0
 62
7
  6
CONTINUOUS
 10
153.4096267157
 20
112.6918327374
  0
VERTEX
  8
0
 62
7
  6
CONTINUOUS
 10
153.4806957655
 20
112.6185454085
  0
VERTEX
  8
0
 62
7
  6
CONTINUOUS
 10
153.5125287002
 20
112.5729420774
  0
VERTEX
  8
0
 62
7
  6
CONTINUOUS
 10
153.5664264367
 20
112.4650656864
  0
VERTEX
  8
0
 62
7
  6
CONTINUOUS
 10
153.603940644
 20
112.338734957
  0
VERTEX
  8
0
 62
7
  6
CONTINUOUS
 10
153.6223611086
 20
112.1991482377
  0
VERTEX
  8
0
 62
7
  6
CONTINUOUS
 10
153.6240361993
 20
112.1405117256
  0
SEQEND
  0
POLYLINE
  8
0
 62
7
  6
CONTINUOUS
 66
1
 70
0
  0
VERTEX
  8
0
 62
7
  6
CONTINUOUS
 10
159.5740361348
 20
112.7633814504
  0
VERTEX
  8
0
 62
7
  6
CONTINUOUS
 10
159.6026516747
 20
112.7617517355
  0
VERTEX
  8
0
 62
7
  6
CONTINUOUS
 10
159.6817715902
 20
112.7400048752
  0
VERTEX
  8
0
 62
7
  6
CONTINUOUS
 10
159.7596267157
 20
112.6918327374
  0
VERTEX
  8
0
 62
7
  6
CONTINUOUS
 10
159.8306957655
 20
112.6185454085
  0
VERTEX
  8
0
 62
7
  6
CONTINUOUS
 10
159.8625287002
 20
112.5729420774
  0
VERTEX
  8
0
 62
7
  6
CONTINUOUS
 10
159.9164264367
 20
112.4650656864
  0
VERTEX
  8
0
 62
7
  6
CONTINUOUS
 10
159.953940644
 20
112.338734957
  0
VERTEX
  8
0
 62
7
  6
CONTINUOUS
 10
159.9723611086
 20
112.1991482377
  0
VERTEX
  8
0
 62
7
  6
CONTINUOUS
 10
159.9740361993
 20
112.1405117256
  0
SEQEND
  0
POLYLINE
  8
0
 62
7
  6
CONTINUOUS
 66
1
 70
0
  0
VERTEX
  8
0
 62
7
  6
CONTINUOUS
 10
165.9240361348
 20
112.7633814504
  0
VERTEX
  8
0
 62
7
  6
CONTINUOUS
 10
165.9526516747
 20
112.7617517355
  0
VERTEX
  8
0
 62
7
  6
CONTINUOUS
 10
166.0317715902
 20
112.7400048752
  0
VERTEX
  8
0
 62
7
  6
CONTINUOUS
 10
166.1096267157
 20
112.6918327374
  0
VERTEX
  8
0
 62
7
  6
CONTINUOUS
 10
166.1806957655
 20
112.6185454085
  0
VERTEX
  8
0
 62
7
  6
CONTINUOUS
 10
166.2125287002
 20
112.5729420774
  0
VERTEX
  8
0
 62
7
  6
CONTINUOUS
 10
166.2664264367
 20
112.4650656864
  0
VERTEX
  8
0
 62
7
  6
CONTINUOUS
 10
166.303940644
 20
112.338734957
  0
VERTEX
  8
0
 62
7
  6
CONTINUOUS
 10
166.3223611086
 20
112.1991482377
  0
VERTEX
  8
0
 62
7
  6
CONTINUOUS
 10
166.3240361993
 20
112.1405117256
  0
SEQEND
  0
POLYLINE
  8
0
 62
7
  6
CONTINUOUS
 66
1
 70
0
  0
VERTEX
  8
0
 62
7
  6
CONTINUOUS
 10
135.9522656874
 20
121.6098707874
  0
VERTEX
  8
0
 62
7
  6
CONTINUOUS
 10
135.9738811905
 20
121.5638223767
  0
VERTEX
  8
0
 62
7
  6
CONTINUOUS
 10
136.0087779361
 20
121.5274846397
  0
VERTEX
  8
0
 62
7
  6
CONTINUOUS
 10
136.0518653528
 20
121.5044051928
  0
VERTEX
  8
0
 62
7
  6
CONTINUOUS
 10
136.0982125661
 20
121.4970716795
  0
VERTEX
  8
0
 62
7
  6
CONTINUOUS
 10
136.1442237766
 20
121.5061210584
  0
VERTEX
  8
0
 62
7
  6
CONTINUOUS
 10
136.1870138659
 20
121.5301921446
  0
VERTEX
  8
0
 62
7
  6
CONTINUOUS
 10
136.2206580239
 20
121.5660662819
  0
VERTEX
  8
0
 62
7
  6
CONTINUOUS
 10
136.2412201761
 20
121.6104412184
  0
SEQEND
  0
LINE
  8
0
 62
7
  6
CONTINUOUS
 10
135.9522656874
 20
121.6098707874
 11
134.4318644268
 21
127.0673589158
  0
POLYLINE
  8
0
 62
7
  6
CONTINUOUS
 66
1
 70
0
  0
VERTEX
  8
0
 62
7
  6
CONTINUOUS
 10
134.4318644268
 20
127.0673589158
  0
VERTEX
  8
0
 62
7
  6
CONTINUOUS
 10
134.3492744097
 20
127.4671412996
  0
VERTEX
  8
0
 62
7
  6
CONTINUOUS
 10
134.3215361354
 20
127.8750171856
  0
SEQEND
  0
LINE
  8
0
 62
7
  6
CONTINUOUS
 10
140.9370481578
 20
105.286047719
 11
140.9215361354
 21
105.4323286218
  0
LINE
  8
0
 62
7
  6
CONTINUOUS
 10
137.4990361354
 20
112.1405325542
 11
137.4990361354
 21
104.5375520622
  0
LINE
  8
0
 62
7
  6
CONTINUOUS
 10
137.7465361354
 20
137.1988917677
 11
137.7465361354
 21
127.4209908924
  0
LINE
  8
0
 62
7
  6
CONTINUOUS
 10
137.7490361354
 20
137.2224586591
 11
137.7490361354
 21
138.0936683273
  0
POLYLINE
  8
0
 62
7
  6
CONTINUOUS
 66
1
 70
0
  0
VERTEX
  8
0
 62
7
  6
CONTINUOUS
 10
137.4990360804
 20
112.1405119651
  0
VERTEX
  8
0
 62
7
  6
CONTINUOUS
 10
137.5007111696
 20
112.1991484767
  0
VERTEX
  8
0
 62
7
  6
CONTINUOUS
 10
137.519131673
 20
112.3387352671
  0
VERTEX
  8
0
 62
7
  6
CONTINUOUS
 10
137.5566458921
 20
112.4650658239
  0
VERTEX
  8
0
 62
7
  6
CONTINUOUS
 10
137.6105436433
 20
112.5729421804
  0
VERTEX
  8
0
 62
7
  6
CONTINUOUS
 10
137.6423765366
 20
112.6185454565
  0
VERTEX
  8
0
 62
7
  6
CONTINUOUS
 10
137.71344565
 20
112.6918328095
  0
VERTEX
  8
0
 62
7
  6
CONTINUOUS
 10
137.7913008228
 20
112.7400049224
  0
VERTEX
  8
0
 62
7
  6
CONTINUOUS
 10
137.8704209703
 20
112.7617517819
  0
VERTEX
  8
0
 62
7
  6
CONTINUOUS
 10
137.8990361391
 20
112.7633814351
  0
SEQEND
  0
LINE
  8
0
 62
7
  6
CONTINUOUS
 10
137.7465361354
 20
130.4192064378
 11
137.7473611085
 21
130.4320721496
  0
POLYLINE
  8
0
 62
7
  6
CONTINUOUS
 66
1
 70
0
  0
VERTEX
  8
0
 62
7
  6
CONTINUOUS
 10
137.7473611085
 20
130.4320721496
  0
VERTEX
  8
0
 62
7
  6
CONTINUOUS
 10
137.7289406436
 20
130.2924854307
  0
VERTEX
  8
0
 62
7
  6
CONTINUOUS
 10
137.6914264362
 20
130.1661547018
  0
VERTEX
  8
0
 62
7
  6
CONTINUOUS
 10
137.6375286996
 20
130.0582783112
  0
VERTEX
  8
0
 62
7
  6
CONTINUOUS
 10
137.605695765
 20
130.0126749803
  0
VERTEX
  8
0
 62
7
  6
CONTINUOUS
 10
137.5346267152
 20
129.9393876517
  0
VERTEX
  8
0
 62
7
  6
CONTINUOUS
 10
137.4567715898
 20
129.8912155141
  0
VERTEX
  8
0
 62
7
  6
CONTINUOUS
 10
137.3776516745
 20
129.869468654
  0
VERTEX
  8
0
 62
7
  6
CONTINUOUS
 10
137.3490361348
 20
129.8678389391
  0
SEQEND
  0
LINE
  8
0
 62
7
  6
CONTINUOUS
 10
137.63636454
 20
126.6154526922
 11
136.2412201761
 21
121.6104412184
  0
POLYLINE
  8
0
 62
7
  6
CONTINUOUS
 66
1
 70
0
  0
VERTEX
  8
0
 62
7
  6
CONTINUOUS
 10
130.7490361354
 20
105.4072540399
  0
VERTEX
  8
0
 62
7
  6
CONTINUOUS
 10
130.7536130127
 20
105.420211143
  0
VERTEX
  8
0
 62
7
  6
CONTINUOUS
 10
130.774735877
 20
105.4487095002
  0
VERTEX
  8
0
 62
7
  6
CONTINUOUS
 10
130.8114020268
 20
105.4800742971
  0
VERTEX
  8
0
 62
7
  6
CONTINUOUS
 10
130.8617708363
 20
105.5168816439
  0
VERTEX
  8
0
 62
7
  6
CONTINUOUS
 10
130.9251510823
 20
105.5653686312
  0
VERTEX
  8
0
 62
7
  6
CONTINUOUS
 10
130.9989733188
 20
105.635617565
  0
VERTEX
  8
0
 62
7
  6
CONTINUOUS
 10
131.0353102234
 20
105.6809778851
  0
VERTEX
  8
0
 62
7
  6
CONTINUOUS
 10
131.0925831151
 20
105.7867673602
  0
VERTEX
  8
0
 62
7
  6
CONTINUOUS
 10
131.1246287963
 20
105.9046474414
  0
VERTEX
  8
0
 62
7
  6
CONTINUOUS
 10
131.1397360355
 20
106.0479977766
  0
VERTEX
  8
0
 62
7
  6
CONTINUOUS
 10
131.1448709416
 20
106.2094024041
  0
VERTEX
  8
0
 62
7
  6
CONTINUOUS
 10
131.1463839629
 20
106.3970038882
  0
VERTEX
  8
0
 62
7
  6
CONTINUOUS
 10
131.1465361354
 20
115.2102294971
  0
SEQEND
  0
POLYLINE
  8
0
 62
7
  6
CONTINUOUS
 66
1
 70
0
  0
VERTEX
  8
0
 62
7
  6
CONTINUOUS
 10
139.4148553419
 20
121.4663683803
  0
VERTEX
  8
0
 62
7
  6
CONTINUOUS
 10
139.3932398388
 20
121.512416791
  0
VERTEX
  8
0
 62
7
  6
CONTINUOUS
 10
139.3583430932
 20
121.5487545279
  0
VERTEX
  8
0
 62
7
  6
CONTINUOUS
 10
139.3152556766
 20
121.5718339749
  0
VERTEX
  8
0
 62
7
  6
CONTINUOUS
 10
139.2689084634
 20
121.5791674882
  0
VERTEX
  8
0
 62
7
  6
CONTINUOUS
 10
139.2228972529
 20
121.5701181094
  0
VERTEX
  8
0
 62
7
  6
CONTINUOUS
 10
139.1801071635
 20
121.5460470232
  0
VERTEX
  8
0
 62
7
  6
CONTINUOUS
 10
139.1464630055
 20
121.5101728859
  0
VERTEX
  8
0
 62
7
  6
CONTINUOUS
 10
139.1259008532
 20
121.4657979493
  0
SEQEND
  0
LINE
  8
0
 62
7
  6
CONTINUOUS
 10
139.4148553419
 20
121.4663683803
 11
140.8417305888
 21
116.3445923506
  0
LINE
  8
0
 62
7
  6
CONTINUOUS
 10
133.9240361354
 20
137.2239663495
 11
133.9215361354
 21
137.2350872686
  0
POLYLINE
  8
0
 62
7
  6
CONTINUOUS
 66
1
 70
0
  0
VERTEX
  8
0
 62
7
  6
CONTINUOUS
 10
140.9039405975
 20
112.3387352689
  0
VERTEX
  8
0
 62
7
  6
CONTINUOUS
 10
140.9223611011
 20
112.1991484789
  0
VERTEX
  8
0
 62
7
  6
CONTINUOUS
 10
140.9215361354
 20
112.2120140503
  0
SEQEND
  0
POLYLINE
  8
0
 62
7
  6
CONTINUOUS
 66
1
 70
0
  0
VERTEX
  8
0
 62
7
  6
CONTINUOUS
 10
140.6713945702
 20
136.2306307858
  0
VERTEX
  8
0
 62
7
  6
CONTINUOUS
 10
140.6700157479
 20
136.4122724536
  0
VERTEX
  8
0
 62
7
  6
CONTINUOUS
 10
140.6656054057
 20
136.5668184466
  0
VERTEX
  8
0
 62
7
  6
CONTINUOUS
 10
140.6532202125
 20
136.7041997611
  0
VERTEX
  8
0
 62
7
  6
CONTINUOUS
 10
140.624928125
 20
136.8244963871
  0
VERTEX
  8
0
 62
7
  6
CONTINUOUS
 10
140.5746493748
 20
136.9289987769
  0
VERTEX
  8
0
 62
7
  6
CONTINUOUS
 10
140.5409408346
 20
136.9756828995
  0
VERTEX
  8
0
 62
7
  6
CONTINUOUS
 10
140.4654460319
 20
137.0529174618
  0
VERTEX
  8
0
 62
7
  6
CONTINUOUS
 10
140.3972948629
 20
137.106668286
  0
VERTEX
  8
0
 62
7
  6
CONTINUOUS
 10
140.3423403343
 20
137.1466612999
  0
VERTEX
  8
0
 62
7
  6
CONTINUOUS
 10
140.3019705687
 20
137.1802686175
  0
VERTEX
  8
0
 62
7
  6
CONTINUOUS
 10
140.2789900015
 20
137.2102369443
  0
VERTEX
  8
0
 62
7
  6
CONTINUOUS
 10
140.2740361354
 20
137.2239663495
  0
SEQEND
  0
LINE
  8
0
 62
7
  6
CONTINUOUS
 10
140.6715361354
 20
127.8750171856
 11
140.6713945702
 21
136.2306307858
  0
LINE
  8
0
 62
7
  6
CONTINUOUS
 10
140.6740361354
 20
130.4906878352
 11
140.6740361354
 21
138.0936683273
  0
LINE
  8
0
 62
7
  6
CONTINUOUS
 10
140.9215361354
 20
114.79992644
 11
140.9215361354
 21
105.4323286218
  0
LINE
  8
0
 62
7
  6
CONTINUOUS
 10
140.9240361354
 20
105.4087532137
 11
140.9240361354
 21
104.5375520622
  0
POLYLINE
  8
0
 62
7
  6
CONTINUOUS
 66
1
 70
0
  0
VERTEX
  8
0
 62
7
  6
CONTINUOUS
 10
140.9417325793
 20
115.2918095984
  0
VERTEX
  8
0
 62
7
  6
CONTINUOUS
 10
140.9465407311
 20
115.7171812426
  0
VERTEX
  8
0
 62
7
  6
CONTINUOUS
 10
140.9264143494
 20
115.9287981112
  0
VERTEX
  8
0
 62
7
  6
CONTINUOUS
 10
140.8417305888
 20
116.3445923506
  0
SEQEND
  0
LINE
  8
0
 62
7
  6
CONTINUOUS
 10
140.9215361354
 20
114.79992644
 11
140.9417325793
 21
115.2918095984
  0
LINE
  8
0
 62
7
  6
CONTINUOUS
 10
137.0965361354
 20
105.3961331209
 11
137.0990361354
 21
105.4072540399
  0
LINE
  8
0
 62
7
  6
CONTINUOUS
 10
144.5015361354
 20
137.2350872686
 11
144.4990361354
 21
137.2239663495
  0
LINE
  8
0
 62
7
  6
CONTINUOUS
 10
137.6067077308
 20
116.0157676973
 11
139.1259008532
 21
121.4657979493
  0
POLYLINE
  8
0
 62
7
  6
CONTINUOUS
 66
1
 70
0
  0
VERTEX
  8
0
 62
7
  6
CONTINUOUS
 10
144.4990361354
 20
137.2239663495
  0
VERTEX
  8
0
 62
7
  6
CONTINUOUS
 10
144.4944592582
 20
137.2110092466
  0
VERTEX
  8
0
 62
7
  6
CONTINUOUS
 10
144.473336394
 20
137.1825108893
  0
VERTEX
  8
0
 62
7
  6
CONTINUOUS
 10
144.4366702442
 20
137.1511460924
  0
VERTEX
  8
0
 62
7
  6
CONTINUOUS
 10
144.3863014347
 20
137.1143387457
  0
VERTEX
  8
0
 62
7
  6
CONTINUOUS
 10
144.3229211888
 20
137.0658517585
  0
VERTEX
  8
0
 62
7
  6
CONTINUOUS
 10
144.2490989523
 20
136.9956028248
  0
VERTEX
  8
0
 62
7
  6
CONTINUOUS
 10
144.2127620477
 20
136.9502425047
  0
VERTEX
  8
0
 62
7
  6
CONTINUOUS
 10
144.1554891559
 20
136.8444530296
  0
VERTEX
  8
0
 62
7
  6
CONTINUOUS
 10
144.1234434746
 20
136.7265729484
  0
VERTEX
  8
0
 62
7
  6
CONTINUOUS
 10
144.1083362354
 20
136.5832226131
  0
VERTEX
  8
0
 62
7
  6
CONTINUOUS
 10
144.1032013293
 20
136.4218179855
  0
VERTEX
  8
0
 62
7
  6
CONTINUOUS
 10
144.101688308
 20
136.2342165014
  0
VERTEX
  8
0
 62
7
  6
CONTINUOUS
 10
144.1015361354
 20
127.4209908924
  0
SEQEND
  0
POLYLINE
  8
0
 62
7
  6
CONTINUOUS
 66
1
 70
0
  0
VERTEX
  8
0
 62
7
  6
CONTINUOUS
 10
143.9740348746
 20
130.0377303922
  0
VERTEX
  8
0
 62
7
  6
CONTINUOUS
 10
143.920454914
 20
129.9721714853
  0
VERTEX
  8
0
 62
7
  6
CONTINUOUS
 10
143.8477801879
 20
129.9129903638
  0
VERTEX
  8
0
 62
7
  6
CONTINUOUS
 10
143.7677036223
 20
129.8772634345
  0
VERTEX
  8
0
 62
7
  6
CONTINUOUS
 10
143.6990361348
 20
129.8678389393
  0
SEQEND
  0
POLYLINE
  8
0
 62
7
  6
CONTINUOUS
 66
1
 70
0
  0
VERTEX
  8
0
 62
7
  6
CONTINUOUS
 10
142.3022656874
 20
121.6098707874
  0
VERTEX
  8
0
 62
7
  6
CONTINUOUS
 10
142.3238811905
 20
121.5638223767
  0
VERTEX
  8
0
 62
7
  6
CONTINUOUS
 10
142.3587779359
 20
121.5274846399
  0
VERTEX
  8
0
 62
7
  6
CONTINUOUS
 10
142.4018653525
 20
121.5044051929
  0
VERTEX
  8
0
 62
7
  6
CONTINUOUS
 10
142.4482125657
 20
121.4970716795
  0
VERTEX
  8
0
 62
7
  6
CONTINUOUS
 10
142.4942237762
 20
121.5061210582
  0
VERTEX
  8
0
 62
7
  6
CONTINUOUS
 10
142.5370138657
 20
121.5301921444
  0
VERTEX
  8
0
 62
7
  6
CONTINUOUS
 10
142.5706580238
 20
121.5660662818
  0
VERTEX
  8
0
 62
7
  6
CONTINUOUS
 10
142.5912201761
 20
121.6104412184
  0
SEQEND
  0
LINE
  8
0
 62
7
  6
CONTINUOUS
 10
142.3022656874
 20
121.6098707874
 11
140.7818644268
 21
127.0673589158
  0
POLYLINE
  8
0
 62
7
  6
CONTINUOUS
 66
1
 70
0
  0
VERTEX
  8
0
 62
7
  6
CONTINUOUS
 10
140.7818644268
 20
127.0673589158
  0
VERTEX
  8
0
 62
7
  6
CONTINUOUS
 10
140.6992744097
 20
127.4671412996
  0
VERTEX
  8
0
 62
7
  6
CONTINUOUS
 10
140.6715361354
 20
127.8750171856
  0
SEQEND
  0
LINE
  8
0
 62
7
  6
CONTINUOUS
 10
143.8490361354
 20
112.1405325731
 11
143.8490361354
 21
104.5375520622
  0
LINE
  8
DEFAULT_1
 62
2
  6
CENTER
 10
143.9740361354
 20
141.6689024484
 11
143.9740361354
 21
126.5712251512
  0
LINE
  8
DEFAULT_1
 62
2
  6
CENTER
 10
143.9740361354
 20
125.0636006316
 11
143.9740361354
 21
123.3157101947
  0
LINE
  8
0
 62
2
  6
CONTINUOUS
 10
143.9740361354
 20
122.3656101947
 11
143.9740361354
 21
120.2656101947
  0
LINE
  8
0
 62
7
  6
CONTINUOUS
 10
143.9740361354
 20
117.5676197579
 11
143.9740361354
 21
116.0599952383
  0
LINE
  8
DEFAULT_1
 62
2
  6
CENTER
 10
143.9740361354
 20
101.4641779894
 11
143.9740361354
 21
116.0599952383
  0
LINE
  8
DEFAULT_1
 62
2
  6
CENTER
 10
143.9740361354
 20
117.5676197579
 11
143.9740361354
 21
119.3155101947
  0
LINE
  8
0
 62
7
  6
CONTINUOUS
 10
143.9740361354
 20
125.0636006316
 11
143.9740361354
 21
126.5712251512
  0
LINE
  8
0
 62
7
  6
CONTINUOUS
 10
144.0990361354
 20
130.4906878164
 11
144.0990361354
 21
138.0936683273
  0
POLYLINE
  8
0
 62
7
  6
CONTINUOUS
 66
1
 70
0
  0
VERTEX
  8
0
 62
7
  6
CONTINUOUS
 10
144.0990361905
 20
130.490705414
  0
VERTEX
  8
0
 62
7
  6
CONTINUOUS
 10
144.0897704181
 20
130.3544661707
  0
VERTEX
  8
0
 62
7
  6
CONTINUOUS
 10
144.0605675203
 20
130.2211364788
  0
VERTEX
  8
0
 62
7
  6
CONTINUOUS
 10
144.0144208813
 20
130.1058883931
  0
VERTEX
  8
0
 62
7
  6
CONTINUOUS
 10
143.9740348619
 20
130.0377303765
  0
SEQEND
  0
POLYLINE
  8
0
 62
7
  6
CONTINUOUS
 66
1
 70
0
  0
VERTEX
  8
0
 62
7
  6
CONTINUOUS
 10
143.8490360803
 20
112.1405149754
  0
VERTEX
  8
0
 62
7
  6
CONTINUOUS
 10
143.8583018532
 20
112.2767542221
  0
VERTEX
  8
0
 62
7
  6
CONTINUOUS
 10
143.8875047525
 20
112.4100839169
  0
VERTEX
  8
0
 62
7
  6
CONTINUOUS
 10
143.9336513939
 20
112.5253320049
  0
VERTEX
  8
0
 62
7
  6
CONTINUOUS
 10
143.9740359161
 20
112.5934878449
  0
SEQEND
  0
LINE
  8
0
 62
7
  6
CONTINUOUS
 10
143.9740361354
 20
126.5712251512
 11
142.5912201761
 21
121.6104412184
  0
LINE
  8
0
 62
7
  6
CONTINUOUS
 10
143.99136454
 20
126.6154526922
 11
143.9740361354
 21
126.5532878988
  0
POLYLINE
  8
0
 62
7
  6
CONTINUOUS
 66
1
 70
0
  0
VERTEX
  8
0
 62
7
  6
CONTINUOUS
 10
137.0990361354
 20
105.4072540399
  0
VERTEX
  8
0
 62
7
  6
CONTINUOUS
 10
137.1036130127
 20
105.420211143
  0
VERTEX
  8
0
 62
7
  6
CONTINUOUS
 10
137.124735877
 20
105.4487095002
  0
VERTEX
  8
0
 62
7
  6
CONTINUOUS
 10
137.1614020268
 20
105.4800742971
  0
VERTEX
  8
0
 62
7
  6
CONTINUOUS
 10
137.2117708363
 20
105.5168816438
  0
VERTEX
  8
0
 62
7
  6
CONTINUOUS
 10
137.2751510822
 20
105.5653686312
  0
VERTEX
  8
0
 62
7
  6
CONTINUOUS
 10
137.3489733188
 20
105.635617565
  0
VERTEX
  8
0
 62
7
  6
CONTINUOUS
 10
137.3853102233
 20
105.680977885
  0
VERTEX
  8
0
 62
7
  6
CONTINUOUS
 10
137.4425831151
 20
105.7867673601
  0
VERTEX
  8
0
 62
7
  6
CONTINUOUS
 10
137.4746287963
 20
105.9046474413
  0
VERTEX
  8
0
 62
7
  6
CONTINUOUS
 10
137.4897360355
 20
106.0479977766
  0
VERTEX
  8
0
 62
7
  6
CONTINUOUS
 10
137.4948709416
 20
106.2094024041
  0
VERTEX
  8
0
 62
7
  6
CONTINUOUS
 10
137.4963839629
 20
106.3970038881
  0
VERTEX
  8
0
 62
7
  6
CONTINUOUS
 10
137.4965361354
 20
115.2102294971
  0
SEQEND
  0
LINE
  8
DEFAULT_1
 62
2
  6
CENTER
 10
186.4176326093
 20
121.3156101947
 11
145.9741361354
 21
121.3156101947
  0
LINE
  8
0
 62
2
  6
CONTINUOUS
 10
145.0240361354
 20
121.3156101947
 11
142.9240361354
 21
121.3156101947
  0
LINE
  8
DEFAULT_1
 62
2
  6
CENTER
 10
104.1806962159
 20
121.3156101947
 11
141.9739361354
 21
121.3156101947
  0
POLYLINE
  8
0
 62
7
  6
CONTINUOUS
 66
1
 70
0
  0
VERTEX
  8
0
 62
7
  6
CONTINUOUS
 10
145.7673546262
 20
121.4573971865
  0
VERTEX
  8
0
 62
7
  6
CONTINUOUS
 10
145.7457391231
 20
121.5034455972
  0
VERTEX
  8
0
 62
7
  6
CONTINUOUS
 10
145.7108423776
 20
121.539783334
  0
VERTEX
  8
0
 62
7
  6
CONTINUOUS
 10
145.6677549611
 20
121.562862781
  0
VERTEX
  8
0
 62
7
  6
CONTINUOUS
 10
145.6214077479
 20
121.5701962944
  0
VERTEX
  8
0
 62
7
  6
CONTINUOUS
 10
145.5753965374
 20
121.5611469157
  0
VERTEX
  8
0
 62
7
  6
CONTINUOUS
 10
145.5326064479
 20
121.5370758295
  0
VERTEX
  8
0
 62
7
  6
CONTINUOUS
 10
145.4989622898
 20
121.5012016921
  0
VERTEX
  8
0
 62
7
  6
CONTINUOUS
 10
145.4784001375
 20
121.4568267555
  0
SEQEND
  0
LINE
  8
0
 62
7
  6
CONTINUOUS
 10
145.7673546262
 20
121.4573971865
 11
147.1955956735
 21
116.3307186093
  0
LINE
  8
0
 62
7
  6
CONTINUOUS
 10
140.2740361354
 20
137.2239663495
 11
140.2715361354
 21
137.2350872686
  0
LINE
  8
0
 62
7
  6
CONTINUOUS
 10
147.6740361354
 20
105.4072540399
 11
147.6765361354
 21
105.3961331209
  0
LINE
  8
0
 62
7
  6
CONTINUOUS
 10
147.0110241131
 20
137.3451726705
 11
147.0265361354
 21
137.1988917677
  0
POLYLINE
  8
0
 62
7
  6
CONTINUOUS
 66
1
 70
0
  0
VERTEX
  8
0
 62
7
  6
CONTINUOUS
 10
147.2766777007
 20
106.4005896037
  0
VERTEX
  8
0
 62
7
  6
CONTINUOUS
 10
147.278056523
 20
106.2189479359
  0
VERTEX
  8
0
 62
7
  6
CONTINUOUS
 10
147.2824668652
 20
106.0644019429
  0
VERTEX
  8
0
 62
7
  6
CONTINUOUS
 10
147.2948520583
 20
105.9270206284
  0
VERTEX
  8
0
 62
7
  6
CONTINUOUS
 10
147.3231441459
 20
105.8067240024
  0
VERTEX
  8
0
 62
7
  6
CONTINUOUS
 10
147.373422896
 20
105.7022216126
  0
VERTEX
  8
0
 62
7
  6
CONTINUOUS
 10
147.4071314363
 20
105.65553749
  0
VERTEX
  8
0
 62
7
  6
CONTINUOUS
 10
147.482626239
 20
105.5783029277
  0
VERTEX
  8
0
 62
7
  6
CONTINUOUS
 10
147.550777408
 20
105.5245521035
  0
VERTEX
  8
0
 62
7
  6
CONTINUOUS
 10
147.6057319366
 20
105.4845590896
  0
VERTEX
  8
0
 62
7
  6
CONTINUOUS
 10
147.6461017022
 20
105.450951772
  0
VERTEX
  8
0
 62
7
  6
CONTINUOUS
 10
147.6690822694
 20
105.4209834452
  0
VERTEX
  8
0
 62
7
  6
CONTINUOUS
 10
147.6740361354
 20
105.4072540399
  0
SEQEND
  0
LINE
  8
0
 62
7
  6
CONTINUOUS
 10
147.0240361354
 20
137.2224671758
 11
147.0240361354
 21
138.0936683273
  0
LINE
  8
0
 62
7
  6
CONTINUOUS
 10
147.0265361354
 20
127.85706966
 11
147.0265361354
 21
137.1988917677
  0
LINE
  8
0
 62
7
  6
CONTINUOUS
 10
147.2740361354
 20
112.1405325734
 11
147.2740361354
 21
104.5375520622
  0
LINE
  8
0
 62
7
  6
CONTINUOUS
 10
147.2765361354
 20
114.79992644
 11
147.2766777007
 21
106.4005896037
  0
POLYLINE
  8
0
 62
7
  6
CONTINUOUS
 66
1
 70
0
  0
VERTEX
  8
0
 62
7
  6
CONTINUOUS
 10
147.2959782945
 20
115.2825520976
  0
VERTEX
  8
0
 62
7
  6
CONTINUOUS
 10
147.3002536003
 20
115.7058719354
  0
VERTEX
  8
0
 62
7
  6
CONTINUOUS
 10
147.280075573
 20
115.9164829807
  0
VERTEX
  8
0
 62
7
  6
CONTINUOUS
 10
147.1955956735
 20
116.3307186093
  0
SEQEND
  0
LINE
  8
0
 62
7
  6
CONTINUOUS
 10
147.2765361354
 20
114.79992644
 11
147.2959782945
 21
115.2825520976
  0
LINE
  8
0
 62
7
  6
CONTINUOUS
 10
143.4465361354
 20
105.3961331209
 11
143.4490361354
 21
105.4072540399
  0
LINE
  8
0
 62
7
  6
CONTINUOUS
 10
150.8515361354
 20
137.2350872686
 11
150.8490361354
 21
137.2239663495
  0
LINE
  8
0
 62
7
  6
CONTINUOUS
 10
143.9567077308
 20
116.0157676973
 11
143.9740361354
 21
116.0779324907
  0
LINE
  8
0
 62
7
  6
CONTINUOUS
 10
143.9740361354
 20
116.0599952383
 11
145.4784001375
 21
121.4568267555
  0
POLYLINE
  8
0
 62
7
  6
CONTINUOUS
 66
1
 70
0
  0
VERTEX
  8
0
 62
7
  6
CONTINUOUS
 10
150.8490361354
 20
137.2239663495
  0
VERTEX
  8
0
 62
7
  6
CONTINUOUS
 10
150.8444592582
 20
137.2110092465
  0
VERTEX
  8
0
 62
7
  6
CONTINUOUS
 10
150.8233363939
 20
137.1825108893
  0
VERTEX
  8
0
 62
7
  6
CONTINUOUS
 10
150.7866702441
 20
137.1511460924
  0
VERTEX
  8
0
 62
7
  6
CONTINUOUS
 10
150.7363014346
 20
137.1143387457
  0
VERTEX
  8
0
 62
7
  6
CONTINUOUS
 10
150.6729211887
 20
137.0658517583
  0
VERTEX
  8
0
 62
7
  6
CONTINUOUS
 10
150.5990989521
 20
136.9956028245
  0
VERTEX
  8
0
 62
7
  6
CONTINUOUS
 10
150.5627620476
 20
136.9502425045
  0
VERTEX
  8
0
 62
7
  6
CONTINUOUS
 10
150.5054891558
 20
136.8444530294
  0
VERTEX
  8
0
 62
7
  6
CONTINUOUS
 10
150.4734434746
 20
136.7265729482
  0
VERTEX
  8
0
 62
7
  6
CONTINUOUS
 10
150.4583362354
 20
136.5832226129
  0
VERTEX
  8
0
 62
7
  6
CONTINUOUS
 10
150.4532013293
 20
136.4218179854
  0
VERTEX
  8
0
 62
7
  6
CONTINUOUS
 10
150.451688308
 20
136.2342165014
  0
VERTEX
  8
0
 62
7
  6
CONTINUOUS
 10
150.4515361354
 20
127.4209908924
  0
SEQEND
  0
POLYLINE
  8
0
 62
7
  6
CONTINUOUS
 66
1
 70
0
  0
VERTEX
  8
0
 62
7
  6
CONTINUOUS
 10
148.6547649717
 20
121.6008995936
  0
VERTEX
  8
0
 62
7
  6
CONTINUOUS
 10
148.6763804747
 20
121.5548511829
  0
VERTEX
  8
0
 62
7
  6
CONTINUOUS
 10
148.7112772202
 20
121.5185134461
  0
VERTEX
  8
0
 62
7
  6
CONTINUOUS
 10
148.7543646368
 20
121.4954339991
  0
VERTEX
  8
0
 62
7
  6
CONTINUOUS
 10
148.80071185
 20
121.4881004857
  0
VERTEX
  8
0
 62
7
  6
CONTINUOUS
 10
148.8467230605
 20
121.4971498644
  0
VERTEX
  8
0
 62
7
  6
CONTINUOUS
 10
148.88951315
 20
121.5212209507
  0
VERTEX
  8
0
 62
7
  6
CONTINUOUS
 10
148.9231573081
 20
121.557095088
  0
VERTEX
  8
0
 62
7
  6
CONTINUOUS
 10
148.9437194604
 20
121.6014700246
  0
SEQEND
  0
LINE
  8
0
 62
7
  6
CONTINUOUS
 10
148.6547649717
 20
121.6008995936
 11
147.1368644196
 21
127.0494114199
  0
POLYLINE
  8
0
 62
7
  6
CONTINUOUS
 66
1
 70
0
  0
VERTEX
  8
0
 62
7
  6
CONTINUOUS
 10
147.1368644196
 20
127.0494114199
  0
VERTEX
  8
0
 62
7
  6
CONTINUOUS
 10
147.0542744136
 20
127.449193824
  0
VERTEX
  8
0
 62
7
  6
CONTINUOUS
 10
147.0265361354
 20
127.85706966
  0
SEQEND
  0
POLYLINE
  8
0
 62
7
  6
CONTINUOUS
 66
1
 70
0
  0
VERTEX
  8
0
 62
7
  6
CONTINUOUS
 10
147.0441316734
 20
130.2924851206
  0
VERTEX
  8
0
 62
7
  6
CONTINUOUS
 10
147.0257111698
 20
130.4320719106
  0
VERTEX
  8
0
 62
7
  6
CONTINUOUS
 10
147.0265361354
 20
130.4192063392
  0
SEQEND
  0
LINE
  8
0
 62
7
  6
CONTINUOUS
 10
150.1990361354
 20
105.4087617304
 11
150.1990361354
 21
104.5375520622
  0
LINE
  8
0
 62
7
  6
CONTINUOUS
 10
150.2015361354
 20
105.4323286217
 11
150.2015361354
 21
115.2102294971
  0
LINE
  8
0
 62
7
  6
CONTINUOUS
 10
150.4490361354
 20
130.4906878352
 11
150.4490361354
 21
138.0936683273
  0
POLYLINE
  8
0
 62
7
  6
CONTINUOUS
 66
1
 70
0
  0
VERTEX
  8
0
 62
7
  6
CONTINUOUS
 10
150.4490361905
 20
130.4907084244
  0
VERTEX
  8
0
 62
7
  6
CONTINUOUS
 10
150.4473611013
 20
130.4320719128
  0
VERTEX
  8
0
 62
7
  6
CONTINUOUS
 10
150.4289405979
 20
130.2924851224
  0
VERTEX
  8
0
 62
7
  6
CONTINUOUS
 10
150.3914263788
 20
130.1661545656
  0
VERTEX
  8
0
 62
7
  6
CONTINUOUS
 10
150.3375286275
 20
130.0582782091
  0
VERTEX
  8
0
 62
7
  6
CONTINUOUS
 10
150.3056957343
 20
130.012674933
  0
VERTEX
  8
0
 62
7
  6
CONTINUOUS
 10
150.2346266208
 20
129.93938758
  0
VERTEX
  8
0
 62
7
  6
CONTINUOUS
 10
150.1567714481
 20
129.8912154671
  0
VERTEX
  8
0
 62
7
  6
CONTINUOUS
 10
150.0776513005
 20
129.8694686076
  0
VERTEX
  8
0
 62
7
  6
CONTINUOUS
 10
150.0490361318
 20
129.8678389544
  0
SEQEND
  0
LINE
  8
0
 62
7
  6
CONTINUOUS
 10
150.2015361354
 20
112.2120139517
 11
150.2007111624
 21
112.1991482399
  0
POLYLINE
  8
0
 62
7
  6
CONTINUOUS
 66
1
 70
0
  0
VERTEX
  8
0
 62
7
  6
CONTINUOUS
 10
150.2007111624
 20
112.1991482399
  0
VERTEX
  8
0
 62
7
  6
CONTINUOUS
 10
150.2191316273
 20
112.3387349588
  0
VERTEX
  8
0
 62
7
  6
CONTINUOUS
 10
150.2566458347
 20
112.4650656877
  0
VERTEX
  8
0
 62
7
  6
CONTINUOUS
 10
150.3105435712
 20
112.5729420783
  0
VERTEX
  8
0
 62
7
  6
CONTINUOUS
 10
150.3423765059
 20
112.6185454092
  0
VERTEX
  8
0
 62
7
  6
CONTINUOUS
 10
150.4134455557
 20
112.6918327378
  0
VERTEX
  8
0
 62
7
  6
CONTINUOUS
 10
150.491300681
 20
112.7400048753
  0
VERTEX
  8
0
 62
7
  6
CONTINUOUS
 10
150.5704205964
 20
112.7617517355
  0
VERTEX
  8
0
 62
7
  6
CONTINUOUS
 10
150.5990361361
 20
112.7633814504
  0
SEQEND
  0
LINE
  8
0
 62
7
  6
CONTINUOUS
 10
150.34136454
 20
126.6154526922
 11
148.9437194604
 21
121.6014700246
  0
POLYLINE
  8
0
 62
7
  6
CONTINUOUS
 66
1
 70
0
  0
VERTEX
  8
0
 62
7
  6
CONTINUOUS
 10
143.4490361354
 20
105.4072540399
  0
VERTEX
  8
0
 62
7
  6
CONTINUOUS
 10
143.4536130126
 20
105.4202111429
  0
VERTEX
  8
0
 62
7
  6
CONTINUOUS
 10
143.4747358769
 20
105.4487095001
  0
VERTEX
  8
0
 62
7
  6
CONTINUOUS
 10
143.5114020267
 20
105.4800742971
  0
VERTEX
  8
0
 62
7
  6
CONTINUOUS
 10
143.5617708361
 20
105.5168816438
  0
VERTEX
  8
0
 62
7
  6
CONTINUOUS
 10
143.6251510821
 20
105.565368631
  0
VERTEX
  8
0
 62
7
  6
CONTINUOUS
 10
143.6989733185
 20
105.6356175647
  0
VERTEX
  8
0
 62
7
  6
CONTINUOUS
 10
143.7353102232
 20
105.6809778848
  0
VERTEX
  8
0
 62
7
  6
CONTINUOUS
 10
143.792583115
 20
105.7867673599
  0
VERTEX
  8
0
 62
7
  6
CONTINUOUS
 10
143.8246287963
 20
105.9046474411
  0
VERTEX
  8
0
 62
7
  6
CONTINUOUS
 10
143.8397360355
 20
106.0479977764
  0
VERTEX
  8
0
 62
7
  6
CONTINUOUS
 10
143.8448709416
 20
106.209402404
  0
VERTEX
  8
0
 62
7
  6
CONTINUOUS
 10
143.8463839629
 20
106.3970038881
  0
VERTEX
  8
0
 62
7
  6
CONTINUOUS
 10
143.8465361354
 20
115.2102294971
  0
SEQEND
  0
POLYLINE
  8
0
 62
7
  6
CONTINUOUS
 66
1
 70
0
  0
VERTEX
  8
0
 62
7
  6
CONTINUOUS
 10
143.9740359366
 20
112.5934878773
  0
VERTEX
  8
0
 62
7
  6
CONTINUOUS
 10
144.0276797009
 20
112.6591127725
  0
VERTEX
  8
0
 62
7
  6
CONTINUOUS
 10
144.1003409523
 20
112.7182605705
  0
VERTEX
  8
0
 62
7
  6
CONTINUOUS
 10
144.1803954588
 20
112.75396435
  0
VERTEX
  8
0
 62
7
  6
CONTINUOUS
 10
144.2490361361
 20
112.7633814502
  0
SEQEND
  0
LINE
  8
0
 62
7
  6
CONTINUOUS
 10
109.324036136
 20
129.8678384091
 11
111.9490361348
 21
129.8678384091
  0
LINE
  8
0
 62
7
  6
CONTINUOUS
 10
122.024036136
 20
129.8678384091
 11
124.6490361348
 21
129.8678384091
  0
LINE
  8
0
 62
7
  6
CONTINUOUS
 10
128.374036136
 20
129.8678384091
 11
130.9990361348
 21
129.8678384091
  0
LINE
  8
0
 62
7
  6
CONTINUOUS
 10
134.724036136
 20
129.8678384091
 11
137.3490361348
 21
129.8678384091
  0
LINE
  8
0
 62
7
  6
CONTINUOUS
 10
141.074036136
 20
129.8678384091
 11
143.6990361348
 21
129.8678384091
  0
LINE
  8
0
 62
7
  6
CONTINUOUS
 10
147.4240361391
 20
129.8678384091
 11
150.0490361318
 21
129.8678384091
  0
LINE
  8
0
 62
7
  6
CONTINUOUS
 10
153.7740361391
 20
129.8678384091
 11
156.3990361318
 21
129.8678384091
  0
LINE
  8
0
 62
7
  6
CONTINUOUS
 10
160.1240361391
 20
129.8678384091
 11
162.7490361318
 21
129.8678384091
  0
LINE
  8
0
 62
7
  6
CONTINUOUS
 10
166.4740361391
 20
129.8678384091
 11
169.0990361318
 21
129.8678384091
  0
LINE
  8
0
 62
7
  6
CONTINUOUS
 10
114.9277779916
 20
129.8678395583
 11
118.2990361348
 21
129.8678384091
  0
LINE
  8
0
 62
7
  6
CONTINUOUS
 10
179.1740361391
 20
129.8678384091
 11
179.2508026882
 21
129.8678382543
  0
LINE
  8
0
 62
7
  6
CONTINUOUS
 10
175.4490361318
 20
129.8678384091
 11
172.0776950758
 21
129.8678417786
  0
POLYLINE
  8
0
 62
7
  6
CONTINUOUS
 66
1
 70
0
  0
VERTEX
  8
0
 62
7
  6
CONTINUOUS
 10
109.3240361361
 20
129.8678389384
  0
VERTEX
  8
0
 62
7
  6
CONTINUOUS
 10
109.2986543084
 20
129.8691208363
  0
VERTEX
  8
0
 62
7
  6
CONTINUOUS
 10
109.2214846081
 20
129.888993173
  0
VERTEX
  8
0
 62
7
  6
CONTINUOUS
 10
109.1450937978
 20
129.9341092258
  0
VERTEX
  8
0
 62
7
  6
CONTINUOUS
 10
109.0763388881
 20
130.0014891241
  0
VERTEX
  8
0
 62
7
  6
CONTINUOUS
 10
109.0460386481
 20
130.042130865
  0
VERTEX
  8
0
 62
7
  6
CONTINUOUS
 10
108.9947892081
 20
130.1348788885
  0
VERTEX
  8
0
 62
7
  6
CONTINUOUS
 10
108.9803148066
 20
130.1695714888
  0
SEQEND
  0
POLYLINE
  8
0
 62
7
  6
CONTINUOUS
 66
1
 70
0
  0
VERTEX
  8
0
 62
7
  6
CONTINUOUS
 10
122.0240361361
 20
129.8678389391
  0
VERTEX
  8
0
 62
7
  6
CONTINUOUS
 10
121.9954205962
 20
129.869468654
  0
VERTEX
  8
0
 62
7
  6
CONTINUOUS
 10
121.9163006807
 20
129.8912155143
  0
VERTEX
  8
0
 62
7
  6
CONTINUOUS
 10
121.8384455551
 20
129.9393876521
  0
VERTEX
  8
0
 62
7
  6
CONTINUOUS
 10
121.7673765053
 20
130.012674981
  0
VERTEX
  8
0
 62
7
  6
CONTINUOUS
 10
121.7355435707
 20
130.0582783121
  0
VERTEX
  8
0
 62
7
  6
CONTINUOUS
 10
121.6816458342
 20
130.1661547031
  0
VERTEX
  8
0
 62
7
  6
CONTINUOUS
 10
121.6441316269
 20
130.2924854325
  0
VERTEX
  8
0
 62
7
  6
CONTINUOUS
 10
121.6257111623
 20
130.4320721518
  0
VERTEX
  8
0
 62
7
  6
CONTINUOUS
 10
121.6240360715
 20
130.4907086639
  0
SEQEND
  0
POLYLINE
  8
0
 62
7
  6
CONTINUOUS
 66
1
 70
0
  0
VERTEX
  8
0
 62
7
  6
CONTINUOUS
 10
128.3740361361
 20
129.8678389391
  0
VERTEX
  8
0
 62
7
  6
CONTINUOUS
 10
128.3454205962
 20
129.869468654
  0
VERTEX
  8
0
 62
7
  6
CONTINUOUS
 10
128.2663006807
 20
129.8912155143
  0
VERTEX
  8
0
 62
7
  6
CONTINUOUS
 10
128.1884455551
 20
129.9393876521
  0
VERTEX
  8
0
 62
7
  6
CONTINUOUS
 10
128.1173765053
 20
130.012674981
  0
VERTEX
  8
0
 62
7
  6
CONTINUOUS
 10
128.0855435707
 20
130.0582783121
  0
VERTEX
  8
0
 62
7
  6
CONTINUOUS
 10
128.0316458342
 20
130.1661547031
  0
VERTEX
  8
0
 62
7
  6
CONTINUOUS
 10
127.9941316269
 20
130.2924854325
  0
VERTEX
  8
0
 62
7
  6
CONTINUOUS
 10
127.9757111623
 20
130.4320721518
  0
VERTEX
  8
0
 62
7
  6
CONTINUOUS
 10
127.9740360715
 20
130.4907086639
  0
SEQEND
  0
POLYLINE
  8
0
 62
7
  6
CONTINUOUS
 66
1
 70
0
  0
VERTEX
  8
0
 62
7
  6
CONTINUOUS
 10
134.7240361361
 20
129.8678389391
  0
VERTEX
  8
0
 62
7
  6
CONTINUOUS
 10
134.6954205962
 20
129.869468654
  0
VERTEX
  8
0
 62
7
  6
CONTINUOUS
 10
134.6163006807
 20
129.8912155143
  0
VERTEX
  8
0
 62
7
  6
CONTINUOUS
 10
134.5384455551
 20
129.9393876521
  0
VERTEX
  8
0
 62
7
  6
CONTINUOUS
 10
134.4673765053
 20
130.012674981
  0
VERTEX
  8
0
 62
7
  6
CONTINUOUS
 10
134.4355435707
 20
130.0582783121
  0
VERTEX
  8
0
 62
7
  6
CONTINUOUS
 10
134.3816458342
 20
130.1661547031
  0
VERTEX
  8
0
 62
7
  6
CONTINUOUS
 10
134.3441316269
 20
130.2924854325
  0
VERTEX
  8
0
 62
7
  6
CONTINUOUS
 10
134.3257111623
 20
130.4320721518
  0
VERTEX
  8
0
 62
7
  6
CONTINUOUS
 10
134.3240360715
 20
130.4907086639
  0
SEQEND
  0
POLYLINE
  8
0
 62
7
  6
CONTINUOUS
 66
1
 70
0
  0
VERTEX
  8
0
 62
7
  6
CONTINUOUS
 10
141.0740361361
 20
129.8678389391
  0
VERTEX
  8
0
 62
7
  6
CONTINUOUS
 10
141.0454205962
 20
129.869468654
  0
VERTEX
  8
0
 62
7
  6
CONTINUOUS
 10
140.9663006807
 20
129.8912155143
  0
VERTEX
  8
0
 62
7
  6
CONTINUOUS
 10
140.8884455551
 20
129.9393876521
  0
VERTEX
  8
0
 62
7
  6
CONTINUOUS
 10
140.8173765053
 20
130.012674981
  0
VERTEX
  8
0
 62
7
  6
CONTINUOUS
 10
140.7855435707
 20
130.0582783121
  0
VERTEX
  8
0
 62
7
  6
CONTINUOUS
 10
140.7316458342
 20
130.1661547031
  0
VERTEX
  8
0
 62
7
  6
CONTINUOUS
 10
140.6941316269
 20
130.2924854325
  0
VERTEX
  8
0
 62
7
  6
CONTINUOUS
 10
140.6757111623
 20
130.4320721518
  0
VERTEX
  8
0
 62
7
  6
CONTINUOUS
 10
140.6740360715
 20
130.4907086639
  0
SEQEND
  0
POLYLINE
  8
0
 62
7
  6
CONTINUOUS
 66
1
 70
0
  0
VERTEX
  8
0
 62
7
  6
CONTINUOUS
 10
147.4240361391
 20
129.8678389544
  0
VERTEX
  8
0
 62
7
  6
CONTINUOUS
 10
147.3954209705
 20
129.8694686076
  0
VERTEX
  8
0
 62
7
  6
CONTINUOUS
 10
147.3163008232
 20
129.8912154669
  0
VERTEX
  8
0
 62
7
  6
CONTINUOUS
 10
147.2384456506
 20
129.9393875796
  0
VERTEX
  8
0
 62
7
  6
CONTINUOUS
 10
147.1673765372
 20
130.0126749323
  0
VERTEX
  8
0
 62
7
  6
CONTINUOUS
 10
147.1355436439
 20
130.0582782082
  0
VERTEX
  8
0
 62
7
  6
CONTINUOUS
 10
147.0816458926
 20
130.1661545643
  0
VERTEX
  8
0
 62
7
  6
CONTINUOUS
 10
147.0441316734
 20
130.2924851206
  0
SEQEND
  0
POLYLINE
  8
0
 62
7
  6
CONTINUOUS
 66
1
 70
0
  0
VERTEX
  8
0
 62
7
  6
CONTINUOUS
 10
153.7740361391
 20
129.8678389544
  0
VERTEX
  8
0
 62
7
  6
CONTINUOUS
 10
153.7454209705
 20
129.8694686076
  0
VERTEX
  8
0
 62
7
  6
CONTINUOUS
 10
153.6663008232
 20
129.8912154669
  0
VERTEX
  8
0
 62
7
  6
CONTINUOUS
 10
153.5884456506
 20
129.9393875796
  0
VERTEX
  8
0
 62
7
  6
CONTINUOUS
 10
153.5173765372
 20
130.0126749323
  0
VERTEX
  8
0
 62
7
  6
CONTINUOUS
 10
153.4855436439
 20
130.0582782082
  0
VERTEX
  8
0
 62
7
  6
CONTINUOUS
 10
153.4316458926
 20
130.1661545643
  0
VERTEX
  8
0
 62
7
  6
CONTINUOUS
 10
153.3941316734
 20
130.2924851206
  0
SEQEND
  0
POLYLINE
  8
0
 62
7
  6
CONTINUOUS
 66
1
 70
0
  0
VERTEX
  8
0
 62
7
  6
CONTINUOUS
 10
152.1173546262
 20
121.4573971865
  0
VERTEX
  8
0
 62
7
  6
CONTINUOUS
 10
152.0957391231
 20
121.5034455972
  0
VERTEX
  8
0
 62
7
  6
CONTINUOUS
 10
152.0608423775
 20
121.5397833341
  0
VERTEX
  8
0
 62
7
  6
CONTINUOUS
 10
152.0177549609
 20
121.5628627811
  0
VERTEX
  8
0
 62
7
  6
CONTINUOUS
 10
151.9714077476
 20
121.5701962944
  0
VERTEX
  8
0
 62
7
  6
CONTINUOUS
 10
151.9253965371
 20
121.5611469156
  0
VERTEX
  8
0
 62
7
  6
CONTINUOUS
 10
151.8826064477
 20
121.5370758293
  0
VERTEX
  8
0
 62
7
  6
CONTINUOUS
 10
151.8489622897
 20
121.5012016921
  0
VERTEX
  8
0
 62
7
  6
CONTINUOUS
 10
151.8284001375
 20
121.4568267555
  0
SEQEND
  0
LINE
  8
0
 62
7
  6
CONTINUOUS
 10
152.1173546262
 20
121.4573971865
 11
153.5455956735
 21
116.3307186093
  0
LINE
  8
0
 62
7
  6
CONTINUOUS
 10
154.0240361354
 20
105.4072540399
 11
154.0265361354
 21
105.3961331209
  0
LINE
  8
0
 62
7
  6
CONTINUOUS
 10
153.3610241131
 20
137.3451726705
 11
153.3765361354
 21
137.1988917677
  0
POLYLINE
  8
0
 62
7
  6
CONTINUOUS
 66
1
 70
0
  0
VERTEX
  8
0
 62
7
  6
CONTINUOUS
 10
153.6266777007
 20
106.4005896037
  0
VERTEX
  8
0
 62
7
  6
CONTINUOUS
 10
153.628056523
 20
106.2189479359
  0
VERTEX
  8
0
 62
7
  6
CONTINUOUS
 10
153.6324668652
 20
106.0644019429
  0
VERTEX
  8
0
 62
7
  6
CONTINUOUS
 10
153.6448520583
 20
105.9270206284
  0
VERTEX
  8
0
 62
7
  6
CONTINUOUS
 10
153.6731441459
 20
105.8067240024
  0
VERTEX
  8
0
 62
7
  6
CONTINUOUS
 10
153.723422896
 20
105.7022216126
  0
VERTEX
  8
0
 62
7
  6
CONTINUOUS
 10
153.7571314363
 20
105.65553749
  0
VERTEX
  8
0
 62
7
  6
CONTINUOUS
 10
153.832626239
 20
105.5783029277
  0
VERTEX
  8
0
 62
7
  6
CONTINUOUS
 10
153.900777408
 20
105.5245521035
  0
VERTEX
  8
0
 62
7
  6
CONTINUOUS
 10
153.9557319366
 20
105.4845590896
  0
VERTEX
  8
0
 62
7
  6
CONTINUOUS
 10
153.9961017022
 20
105.450951772
  0
VERTEX
  8
0
 62
7
  6
CONTINUOUS
 10
154.0190822694
 20
105.4209834452
  0
VERTEX
  8
0
 62
7
  6
CONTINUOUS
 10
154.0240361354
 20
105.40725404
  0
SEQEND
  0
LINE
  8
0
 62
7
  6
CONTINUOUS
 10
153.3740361354
 20
137.2224671758
 11
153.3740361354
 21
138.0936683273
  0
LINE
  8
0
 62
7
  6
CONTINUOUS
 10
153.3765361354
 20
127.85706966
 11
153.3765361354
 21
137.1988917677
  0
LINE
  8
0
 62
7
  6
CONTINUOUS
 10
153.6240361354
 20
112.1405325734
 11
153.6240361354
 21
104.5375520622
  0
LINE
  8
0
 62
7
  6
CONTINUOUS
 10
153.6265361354
 20
114.79992644
 11
153.6266777007
 21
106.4005896037
  0
POLYLINE
  8
0
 62
7
  6
CONTINUOUS
 66
1
 70
0
  0
VERTEX
  8
0
 62
7
  6
CONTINUOUS
 10
153.6459782945
 20
115.2825520971
  0
VERTEX
  8
0
 62
7
  6
CONTINUOUS
 10
153.6502671489
 20
115.7056474737
  0
VERTEX
  8
0
 62
7
  6
CONTINUOUS
 10
153.6300959341
 20
115.9163280739
  0
VERTEX
  8
0
 62
7
  6
CONTINUOUS
 10
153.5455956735
 20
116.3307186093
  0
SEQEND
  0
LINE
  8
0
 62
7
  6
CONTINUOUS
 10
153.6265361354
 20
114.79992644
 11
153.6459782945
 21
115.2825520971
  0
POLYLINE
  8
0
 62
7
  6
CONTINUOUS
 66
1
 70
0
  0
VERTEX
  8
0
 62
7
  6
CONTINUOUS
 10
150.2015361354
 20
105.4323286217
  0
VERTEX
  8
0
 62
7
  6
CONTINUOUS
 10
150.1860132337
 20
105.2859980059
  0
VERTEX
  8
0
 62
7
  6
CONTINUOUS
 10
150.1440048981
 20
105.1608199414
  0
VERTEX
  8
0
 62
7
  6
CONTINUOUS
 10
150.0823570193
 20
105.0607679722
  0
VERTEX
  8
0
 62
7
  6
CONTINUOUS
 10
150.0465436887
 20
105.0210206499
  0
VERTEX
  8
0
 62
7
  6
CONTINUOUS
 10
149.9688815381
 20
104.9615903798
  0
VERTEX
  8
0
 62
7
  6
CONTINUOUS
 10
149.8862166965
 20
104.9269502482
  0
VERTEX
  8
0
 62
7
  6
CONTINUOUS
 10
149.8015360975
 20
104.9156150773
  0
SEQEND
  0
LINE
  8
0
 62
7
  6
CONTINUOUS
 10
157.2015361354
 20
137.2350872686
 11
157.1990361354
 21
137.2239663495
  0
LINE
  8
0
 62
7
  6
CONTINUOUS
 10
150.3117077308
 20
116.0157676973
 11
151.8284001375
 21
121.4568267555
  0
POLYLINE
  8
0
 62
7
  6
CONTINUOUS
 66
1
 70
0
  0
VERTEX
  8
0
 62
7
  6
CONTINUOUS
 10
157.1990361354
 20
137.2239663495
  0
VERTEX
  8
0
 62
7
  6
CONTINUOUS
 10
157.1944592582
 20
137.2110092465
  0
VERTEX
  8
0
 62
7
  6
CONTINUOUS
 10
157.1733363939
 20
137.1825108893
  0
VERTEX
  8
0
 62
7
  6
CONTINUOUS
 10
157.1366702441
 20
137.1511460924
  0
VERTEX
  8
0
 62
7
  6
CONTINUOUS
 10
157.0863014346
 20
137.1143387456
  0
VERTEX
  8
0
 62
7
  6
CONTINUOUS
 10
157.0229211886
 20
137.0658517583
  0
VERTEX
  8
0
 62
7
  6
CONTINUOUS
 10
156.9490989521
 20
136.9956028245
  0
VERTEX
  8
0
 62
7
  6
CONTINUOUS
 10
156.9127620475
 20
136.9502425044
  0
VERTEX
  8
0
 62
7
  6
CONTINUOUS
 10
156.8554891558
 20
136.8444530293
  0
VERTEX
  8
0
 62
7
  6
CONTINUOUS
 10
156.8234434746
 20
136.7265729481
  0
VERTEX
  8
0
 62
7
  6
CONTINUOUS
 10
156.8083362354
 20
136.5832226129
  0
VERTEX
  8
0
 62
7
  6
CONTINUOUS
 10
156.8032013293
 20
136.4218179854
  0
VERTEX
  8
0
 62
7
  6
CONTINUOUS
 10
156.801688308
 20
136.2342165013
  0
VERTEX
  8
0
 62
7
  6
CONTINUOUS
 10
156.8015361354
 20
127.4209908924
  0
SEQEND
  0
POLYLINE
  8
0
 62
7
  6
CONTINUOUS
 66
1
 70
0
  0
VERTEX
  8
0
 62
7
  6
CONTINUOUS
 10
179.1740361391
 20
129.8678389545
  0
VERTEX
  8
0
 62
7
  6
CONTINUOUS
 10
179.1464541916
 20
129.8693529264
  0
VERTEX
  8
0
 62
7
  6
CONTINUOUS
 10
179.0672178241
 20
129.8908139222
  0
VERTEX
  8
0
 62
7
  6
CONTINUOUS
 10
178.9891033192
 20
129.9388547992
  0
VERTEX
  8
0
 62
7
  6
CONTINUOUS
 10
178.9174792344
 20
130.0125430276
  0
VERTEX
  8
0
 62
7
  6
CONTINUOUS
 10
178.8853724038
 20
130.0585517887
  0
VERTEX
  8
0
 62
7
  6
CONTINUOUS
 10
178.8312209704
 20
130.1672398254
  0
VERTEX
  8
0
 62
7
  6
CONTINUOUS
 10
178.7937763476
 20
130.2941740506
  0
SEQEND
  0
POLYLINE
  8
0
 62
7
  6
CONTINUOUS
 66
1
 70
0
  0
VERTEX
  8
0
 62
7
  6
CONTINUOUS
 10
160.1240361391
 20
129.8678389544
  0
VERTEX
  8
0
 62
7
  6
CONTINUOUS
 10
160.0954209705
 20
129.8694686076
  0
VERTEX
  8
0
 62
7
  6
CONTINUOUS
 10
160.0163008232
 20
129.8912154669
  0
VERTEX
  8
0
 62
7
  6
CONTINUOUS
 10
159.9384456506
 20
129.9393875796
  0
VERTEX
  8
0
 62
7
  6
CONTINUOUS
 10
159.8673765372
 20
130.0126749323
  0
VERTEX
  8
0
 62
7
  6
CONTINUOUS
 10
159.8355436439
 20
130.0582782082
  0
VERTEX
  8
0
 62
7
  6
CONTINUOUS
 10
159.7816458926
 20
130.1661545643
  0
VERTEX
  8
0
 62
7
  6
CONTINUOUS
 10
159.7441316734
 20
130.2924851206
  0
SEQEND
  0
POLYLINE
  8
0
 62
7
  6
CONTINUOUS
 66
1
 70
0
  0
VERTEX
  8
0
 62
7
  6
CONTINUOUS
 10
166.4740361391
 20
129.8678389544
  0
VERTEX
  8
0
 62
7
  6
CONTINUOUS
 10
166.4454209705
 20
129.8694686076
  0
VERTEX
  8
0
 62
7
  6
CONTINUOUS
 10
166.3663008232
 20
129.8912154669
  0
VERTEX
  8
0
 62
7
  6
CONTINUOUS
 10
166.2884456506
 20
129.9393875796
  0
VERTEX
  8
0
 62
7
  6
CONTINUOUS
 10
166.2173765372
 20
130.0126749323
  0
VERTEX
  8
0
 62
7
  6
CONTINUOUS
 10
166.1855436439
 20
130.0582782082
  0
VERTEX
  8
0
 62
7
  6
CONTINUOUS
 10
166.1316458926
 20
130.1661545643
  0
VERTEX
  8
0
 62
7
  6
CONTINUOUS
 10
166.0941316734
 20
130.2924851206
  0
SEQEND
  0
POLYLINE
  8
0
 62
7
  6
CONTINUOUS
 66
1
 70
0
  0
VERTEX
  8
0
 62
7
  6
CONTINUOUS
 10
179.7836135728
 20
129.8482699579
  0
VERTEX
  8
0
 62
7
  6
CONTINUOUS
 10
179.6043572246
 20
129.8596732481
  0
VERTEX
  8
0
 62
7
  6
CONTINUOUS
 10
179.3897527476
 20
129.866606692
  0
VERTEX
  8
0
 62
7
  6
CONTINUOUS
 10
179.2497096893
 20
129.8678397655
  0
SEQEND
  0
POLYLINE
  8
0
 62
7
  6
CONTINUOUS
 66
1
 70
0
  0
VERTEX
  8
0
 62
7
  6
CONTINUOUS
 10
181.6112782418
 20
129.7061633608
  0
VERTEX
  8
0
 62
7
  6
CONTINUOUS
 10
180.9976692553
 20
129.7524711273
  0
VERTEX
  8
0
 62
7
  6
CONTINUOUS
 10
180.3782441719
 20
129.8006416758
  0
VERTEX
  8
0
 62
7
  6
CONTINUOUS
 10
179.7836124555
 20
129.8482685441
  0
SEQEND
  0
POLYLINE
  8
0
 62
7
  6
CONTINUOUS
 66
1
 70
0
  0
VERTEX
  8
0
 62
7
  6
CONTINUOUS
 10
108.5540991046
 20
138.4925369998
  0
VERTEX
  8
0
 62
7
  6
CONTINUOUS
 10
108.6074150125
 20
138.4848817765
  0
VERTEX
  8
0
 62
7
  6
CONTINUOUS
 10
108.7092861827
 20
138.4481854919
  0
VERTEX
  8
0
 62
7
  6
CONTINUOUS
 10
108.7981299488
 20
138.3849973191
  0
VERTEX
  8
0
 62
7
  6
CONTINUOUS
 10
108.8665611026
 20
138.300251596
  0
VERTEX
  8
0
 62
7
  6
CONTINUOUS
 10
108.9096033064
 20
138.2001481688
  0
VERTEX
  8
0
 62
7
  6
CONTINUOUS
 10
108.9240361354
 20
138.0936683273
  0
SEQEND
  0
POLYLINE
  8
0
 62
7
  6
CONTINUOUS
 66
1
 70
0
  0
VERTEX
  8
0
 62
7
  6
CONTINUOUS
 10
114.1740361354
 20
137.7156101947
  0
VERTEX
  8
0
 62
7
  6
CONTINUOUS
 10
114.2550275823
 20
137.7037274822
  0
VERTEX
  8
0
 62
7
  6
CONTINUOUS
 10
114.3346779273
 20
137.6666703071
  0
VERTEX
  8
0
 62
7
  6
CONTINUOUS
 10
114.4066253929
 20
137.6043204755
  0
VERTEX
  8
0
 62
7
  6
CONTINUOUS
 10
114.4670507088
 20
137.5150308958
  0
VERTEX
  8
0
 62
7
  6
CONTINUOUS
 10
114.5085371834
 20
137.4009196724
  0
VERTEX
  8
0
 62
7
  6
CONTINUOUS
 10
114.5240361354
 20
137.2656101947
  0
SEQEND
  0
POLYLINE
  8
0
 62
7
  6
CONTINUOUS
 66
1
 70
0
  0
VERTEX
  8
0
 62
7
  6
CONTINUOUS
 10
155.0047649717
 20
121.6008995936
  0
VERTEX
  8
0
 62
7
  6
CONTINUOUS
 10
155.0263804748
 20
121.5548511829
  0
VERTEX
  8
0
 62
7
  6
CONTINUOUS
 10
155.0612772205
 20
121.5185134459
  0
VERTEX
  8
0
 62
7
  6
CONTINUOUS
 10
155.1043646372
 20
121.495433999
  0
VERTEX
  8
0
 62
7
  6
CONTINUOUS
 10
155.1507118505
 20
121.4881004857
  0
VERTEX
  8
0
 62
7
  6
CONTINUOUS
 10
155.196723061
 20
121.4971498646
  0
VERTEX
  8
0
 62
7
  6
CONTINUOUS
 10
155.2395131503
 20
121.5212209509
  0
VERTEX
  8
0
 62
7
  6
CONTINUOUS
 10
155.2731573082
 20
121.5570950881
  0
VERTEX
  8
0
 62
7
  6
CONTINUOUS
 10
155.2937194604
 20
121.6014700246
  0
SEQEND
  0
LINE
  8
0
 62
7
  6
CONTINUOUS
 10
155.0047649717
 20
121.6008995936
 11
153.4868644196
 21
127.0494114199
  0
POLYLINE
  8
0
 62
7
  6
CONTINUOUS
 66
1
 70
0
  0
VERTEX
  8
0
 62
7
  6
CONTINUOUS
 10
153.4868644196
 20
127.0494114199
  0
VERTEX
  8
0
 62
7
  6
CONTINUOUS
 10
153.4042744136
 20
127.449193824
  0
VERTEX
  8
0
 62
7
  6
CONTINUOUS
 10
153.3765361354
 20
127.85706966
  0
SEQEND
  0
POLYLINE
  8
0
 62
7
  6
CONTINUOUS
 66
1
 70
0
  0
VERTEX
  8
0
 62
7
  6
CONTINUOUS
 10
153.3941316734
 20
130.2924851206
  0
VERTEX
  8
0
 62
7
  6
CONTINUOUS
 10
153.3757111698
 20
130.4320719106
  0
VERTEX
  8
0
 62
7
  6
CONTINUOUS
 10
153.3765361354
 20
130.4192063392
  0
SEQEND
  0
LINE
  8
0
 62
7
  6
CONTINUOUS
 10
156.5490361354
 20
105.4087617304
 11
156.5490361354
 21
104.5375520622
  0
LINE
  8
0
 62
7
  6
CONTINUOUS
 10
156.5515361354
 20
105.4323286217
 11
156.5515361354
 21
115.2102294971
  0
LINE
  8
0
 62
7
  6
CONTINUOUS
 10
156.7990361354
 20
130.4906878352
 11
156.7990361354
 21
138.0936683273
  0
POLYLINE
  8
0
 62
7
  6
CONTINUOUS
 66
1
 70
0
  0
VERTEX
  8
0
 62
7
  6
CONTINUOUS
 10
156.7990361905
 20
130.4907084244
  0
VERTEX
  8
0
 62
7
  6
CONTINUOUS
 10
156.7973611013
 20
130.4320719128
  0
VERTEX
  8
0
 62
7
  6
CONTINUOUS
 10
156.7789405979
 20
130.2924851224
  0
VERTEX
  8
0
 62
7
  6
CONTINUOUS
 10
156.7414263788
 20
130.1661545656
  0
VERTEX
  8
0
 62
7
  6
CONTINUOUS
 10
156.6875286275
 20
130.0582782091
  0
VERTEX
  8
0
 62
7
  6
CONTINUOUS
 10
156.6556957343
 20
130.012674933
  0
VERTEX
  8
0
 62
7
  6
CONTINUOUS
 10
156.5846266208
 20
129.93938758
  0
VERTEX
  8
0
 62
7
  6
CONTINUOUS
 10
156.5067714481
 20
129.8912154671
  0
VERTEX
  8
0
 62
7
  6
CONTINUOUS
 10
156.4276513005
 20
129.8694686076
  0
VERTEX
  8
0
 62
7
  6
CONTINUOUS
 10
156.3990361318
 20
129.8678389544
  0
SEQEND
  0
LINE
  8
0
 62
7
  6
CONTINUOUS
 10
156.5515361354
 20
112.2120139517
 11
156.5507111624
 21
112.1991482399
  0
POLYLINE
  8
0
 62
7
  6
CONTINUOUS
 66
1
 70
0
  0
VERTEX
  8
0
 62
7
  6
CONTINUOUS
 10
156.5507111624
 20
112.1991482399
  0
VERTEX
  8
0
 62
7
  6
CONTINUOUS
 10
156.5691316273
 20
112.3387349588
  0
VERTEX
  8
0
 62
7
  6
CONTINUOUS
 10
156.6066458347
 20
112.4650656877
  0
VERTEX
  8
0
 62
7
  6
CONTINUOUS
 10
156.6605435712
 20
112.5729420783
  0
VERTEX
  8
0
 62
7
  6
CONTINUOUS
 10
156.6923765059
 20
112.6185454092
  0
VERTEX
  8
0
 62
7
  6
CONTINUOUS
 10
156.7634455557
 20
112.6918327378
  0
VERTEX
  8
0
 62
7
  6
CONTINUOUS
 10
156.841300681
 20
112.7400048753
  0
VERTEX
  8
0
 62
7
  6
CONTINUOUS
 10
156.9204205964
 20
112.7617517355
  0
VERTEX
  8
0
 62
7
  6
CONTINUOUS
 10
156.9490361361
 20
112.7633814504
  0
SEQEND
  0
LINE
  8
0
 62
7
  6
CONTINUOUS
 10
156.69136454
 20
126.6154526922
 11
155.2937194604
 21
121.6014700246
  0
POLYLINE
  8
0
 62
7
  6
CONTINUOUS
 66
1
 70
0
  0
VERTEX
  8
0
 62
7
  6
CONTINUOUS
 10
163.5490361354
 20
137.2239663495
  0
VERTEX
  8
0
 62
7
  6
CONTINUOUS
 10
163.5444592582
 20
137.2110092465
  0
VERTEX
  8
0
 62
7
  6
CONTINUOUS
 10
163.5233363939
 20
137.1825108893
  0
VERTEX
  8
0
 62
7
  6
CONTINUOUS
 10
163.486670244
 20
137.1511460923
  0
VERTEX
  8
0
 62
7
  6
CONTINUOUS
 10
163.4363014345
 20
137.1143387456
  0
VERTEX
  8
0
 62
7
  6
CONTINUOUS
 10
163.3729211885
 20
137.0658517582
  0
VERTEX
  8
0
 62
7
  6
CONTINUOUS
 10
163.2990989519
 20
136.9956028243
  0
VERTEX
  8
0
 62
7
  6
CONTINUOUS
 10
163.2627620474
 20
136.9502425042
  0
VERTEX
  8
0
 62
7
  6
CONTINUOUS
 10
163.2054891557
 20
136.8444530292
  0
VERTEX
  8
0
 62
7
  6
CONTINUOUS
 10
163.1734434745
 20
136.726572948
  0
VERTEX
  8
0
 62
7
  6
CONTINUOUS
 10
163.1583362354
 20
136.5832226128
  0
VERTEX
  8
0
 62
7
  6
CONTINUOUS
 10
163.1532013293
 20
136.4218179853
  0
VERTEX
  8
0
 62
7
  6
CONTINUOUS
 10
163.151688308
 20
136.2342165013
  0
VERTEX
  8
0
 62
7
  6
CONTINUOUS
 10
163.1515361354
 20
127.4209908924
  0
SEQEND
  0
POLYLINE
  8
0
 62
7
  6
CONTINUOUS
 66
1
 70
0
  0
VERTEX
  8
0
 62
7
  6
CONTINUOUS
 10
176.2189731663
 20
138.4925369998
  0
VERTEX
  8
0
 62
7
  6
CONTINUOUS
 10
176.1656572584
 20
138.4848817765
  0
VERTEX
  8
0
 62
7
  6
CONTINUOUS
 10
176.0637860882
 20
138.4481854919
  0
VERTEX
  8
0
 62
7
  6
CONTINUOUS
 10
175.974942322
 20
138.3849973191
  0
VERTEX
  8
0
 62
7
  6
CONTINUOUS
 10
175.9065111683
 20
138.300251596
  0
VERTEX
  8
0
 62
7
  6
CONTINUOUS
 10
175.8634689644
 20
138.2001481688
  0
VERTEX
  8
0
 62
7
  6
CONTINUOUS
 10
175.8490361354
 20
138.0936683273
  0
SEQEND
  0
POLYLINE
  8
0
 62
7
  6
CONTINUOUS
 66
1
 70
0
  0
VERTEX
  8
0
 62
7
  6
CONTINUOUS
 10
169.8689731663
 20
138.4925369998
  0
VERTEX
  8
0
 62
7
  6
CONTINUOUS
 10
169.8156572584
 20
138.4848817765
  0
VERTEX
  8
0
 62
7
  6
CONTINUOUS
 10
169.7137860882
 20
138.4481854919
  0
VERTEX
  8
0
 62
7
  6
CONTINUOUS
 10
169.624942322
 20
138.3849973191
  0
VERTEX
  8
0
 62
7
  6
CONTINUOUS
 10
169.5565111683
 20
138.300251596
  0
VERTEX
  8
0
 62
7
  6
CONTINUOUS
 10
169.5134689644
 20
138.2001481688
  0
VERTEX
  8
0
 62
7
  6
CONTINUOUS
 10
169.4990361354
 20
138.0936683273
  0
SEQEND
  0
POLYLINE
  8
0
 62
7
  6
CONTINUOUS
 66
1
 70
0
  0
VERTEX
  8
0
 62
7
  6
CONTINUOUS
 10
163.5189731663
 20
138.4925369998
  0
VERTEX
  8
0
 62
7
  6
CONTINUOUS
 10
163.4656572584
 20
138.4848817765
  0
VERTEX
  8
0
 62
7
  6
CONTINUOUS
 10
163.3637860882
 20
138.4481854919
  0
VERTEX
  8
0
 62
7
  6
CONTINUOUS
 10
163.274942322
 20
138.3849973191
  0
VERTEX
  8
0
 62
7
  6
CONTINUOUS
 10
163.2065111683
 20
138.300251596
  0
VERTEX
  8
0
 62
7
  6
CONTINUOUS
 10
163.1634689644
 20
138.2001481688
  0
VERTEX
  8
0
 62
7
  6
CONTINUOUS
 10
163.1490361354
 20
138.0936683273
  0
SEQEND
  0
LINE
  8
0
 62
7
  6
CONTINUOUS
 10
176.3954740631
 20
138.5069433662
 11
176.2189255682
 21
138.4925329199
  0
LINE
  8
0
 62
7
  6
CONTINUOUS
 10
170.0454740631
 20
138.5069433662
 11
169.8689255682
 21
138.4925329199
  0
LINE
  8
DEFAULT_1
 62
2
  6
CENTER
 10
104.0590361354
 20
134.0156101947
 11
180.7740361354
 21
134.0156101947
  0
POLYLINE
  8
0
 62
7
  6
CONTINUOUS
 66
1
 70
0
  0
VERTEX
  8
0
 62
7
  6
CONTINUOUS
 10
108.5541468093
 20
138.4925329119
  0
VERTEX
  8
0
 62
7
  6
CONTINUOUS
 10
108.3769829735
 20
138.506993434
  0
VERTEX
  8
0
 62
7
  6
CONTINUOUS
 10
108.3069734675
 20
138.5122316915
  0
VERTEX
  8
0
 62
7
  6
CONTINUOUS
 10
108.2484195305
 20
138.515146637
  0
SEQEND
  0
POLYLINE
  8
0
 62
7
  6
CONTINUOUS
 66
1
 70
0
  0
VERTEX
  8
0
 62
7
  6
CONTINUOUS
 10
121.2541468093
 20
138.4925329119
  0
VERTEX
  8
0
 62
7
  6
CONTINUOUS
 10
121.0769829735
 20
138.506993434
  0
VERTEX
  8
0
 62
7
  6
CONTINUOUS
 10
121.0069734675
 20
138.5122316915
  0
VERTEX
  8
0
 62
7
  6
CONTINUOUS
 10
120.9484195305
 20
138.515146637
  0
SEQEND
  0
POLYLINE
  8
0
 62
7
  6
CONTINUOUS
 66
1
 70
0
  0
VERTEX
  8
0
 62
7
  6
CONTINUOUS
 10
121.2540991046
 20
138.4925369998
  0
VERTEX
  8
0
 62
7
  6
CONTINUOUS
 10
121.3074150125
 20
138.4848817765
  0
VERTEX
  8
0
 62
7
  6
CONTINUOUS
 10
121.4092861827
 20
138.4481854919
  0
VERTEX
  8
0
 62
7
  6
CONTINUOUS
 10
121.4981299488
 20
138.3849973191
  0
VERTEX
  8
0
 62
7
  6
CONTINUOUS
 10
121.5665611026
 20
138.300251596
  0
VERTEX
  8
0
 62
7
  6
CONTINUOUS
 10
121.6096033064
 20
138.2001481688
  0
VERTEX
  8
0
 62
7
  6
CONTINUOUS
 10
121.6240361354
 20
138.0936683273
  0
SEQEND
  0
POLYLINE
  8
0
 62
7
  6
CONTINUOUS
 66
1
 70
0
  0
VERTEX
  8
0
 62
7
  6
CONTINUOUS
 10
127.6040991046
 20
138.4925369998
  0
VERTEX
  8
0
 62
7
  6
CONTINUOUS
 10
127.6574150125
 20
138.4848817765
  0
VERTEX
  8
0
 62
7
  6
CONTINUOUS
 10
127.7592861827
 20
138.4481854919
  0
VERTEX
  8
0
 62
7
  6
CONTINUOUS
 10
127.8481299488
 20
138.3849973191
  0
VERTEX
  8
0
 62
7
  6
CONTINUOUS
 10
127.9165611026
 20
138.300251596
  0
VERTEX
  8
0
 62
7
  6
CONTINUOUS
 10
127.9596033064
 20
138.2001481688
  0
VERTEX
  8
0
 62
7
  6
CONTINUOUS
 10
127.9740361354
 20
138.0936683273
  0
SEQEND
  0
POLYLINE
  8
0
 62
7
  6
CONTINUOUS
 66
1
 70
0
  0
VERTEX
  8
0
 62
7
  6
CONTINUOUS
 10
181.611278242
 20
129.7061633607
  0
VERTEX
  8
0
 62
7
  6
CONTINUOUS
 10
181.6521622586
 20
129.7002723132
  0
VERTEX
  8
0
 62
7
  6
CONTINUOUS
 10
181.7282751652
 20
129.672719128
  0
VERTEX
  8
0
 62
7
  6
CONTINUOUS
 10
181.7942346047
 20
129.6258350534
  0
VERTEX
  8
0
 62
7
  6
CONTINUOUS
 10
181.8216743219
 20
129.5964077956
  0
VERTEX
  8
0
 62
7
  6
CONTINUOUS
 10
181.8639925473
 20
129.5269847305
  0
VERTEX
  8
0
 62
7
  6
CONTINUOUS
 10
181.8861853077
 20
129.4482487956
  0
VERTEX
  8
0
 62
7
  6
CONTINUOUS
 10
181.8890361354
 20
129.4069890157
  0
SEQEND
  0
POLYLINE
  8
0
 62
7
  6
CONTINUOUS
 66
1
 70
0
  0
VERTEX
  8
0
 62
7
  6
CONTINUOUS
 10
158.4673546262
 20
121.4573971865
  0
VERTEX
  8
0
 62
7
  6
CONTINUOUS
 10
158.4457391231
 20
121.5034455973
  0
VERTEX
  8
0
 62
7
  6
CONTINUOUS
 10
158.4108423774
 20
121.5397833342
  0
VERTEX
  8
0
 62
7
  6
CONTINUOUS
 10
158.3677549608
 20
121.5628627811
  0
VERTEX
  8
0
 62
7
  6
CONTINUOUS
 10
158.3214077475
 20
121.5701962944
  0
VERTEX
  8
0
 62
7
  6
CONTINUOUS
 10
158.275396537
 20
121.5611469155
  0
VERTEX
  8
0
 62
7
  6
CONTINUOUS
 10
158.2326064477
 20
121.5370758293
  0
VERTEX
  8
0
 62
7
  6
CONTINUOUS
 10
158.1989622897
 20
121.501201692
  0
VERTEX
  8
0
 62
7
  6
CONTINUOUS
 10
158.1784001375
 20
121.4568267555
  0
SEQEND
  0
LINE
  8
0
 62
7
  6
CONTINUOUS
 10
158.4673546262
 20
121.4573971865
 11
159.8955956735
 21
116.3307186093
  0
LINE
  8
0
 62
7
  6
CONTINUOUS
 10
160.3740361354
 20
105.4072540399
 11
160.3765361354
 21
105.3961331209
  0
LINE
  8
0
 62
7
  6
CONTINUOUS
 10
159.7110241131
 20
137.3451726705
 11
159.7265361354
 21
137.1988917677
  0
POLYLINE
  8
0
 62
7
  6
CONTINUOUS
 66
1
 70
0
  0
VERTEX
  8
0
 62
7
  6
CONTINUOUS
 10
159.9766777007
 20
106.4005896037
  0
VERTEX
  8
0
 62
7
  6
CONTINUOUS
 10
159.978056523
 20
106.2189479359
  0
VERTEX
  8
0
 62
7
  6
CONTINUOUS
 10
159.9824668652
 20
106.0644019429
  0
VERTEX
  8
0
 62
7
  6
CONTINUOUS
 10
159.9948520583
 20
105.9270206284
  0
VERTEX
  8
0
 62
7
  6
CONTINUOUS
 10
160.0231441459
 20
105.8067240024
  0
VERTEX
  8
0
 62
7
  6
CONTINUOUS
 10
160.073422896
 20
105.7022216126
  0
VERTEX
  8
0
 62
7
  6
CONTINUOUS
 10
160.1071314363
 20
105.65553749
  0
VERTEX
  8
0
 62
7
  6
CONTINUOUS
 10
160.182626239
 20
105.5783029277
  0
VERTEX
  8
0
 62
7
  6
CONTINUOUS
 10
160.250777408
 20
105.5245521035
  0
VERTEX
  8
0
 62
7
  6
CONTINUOUS
 10
160.3057319366
 20
105.4845590896
  0
VERTEX
  8
0
 62
7
  6
CONTINUOUS
 10
160.3461017022
 20
105.450951772
  0
VERTEX
  8
0
 62
7
  6
CONTINUOUS
 10
160.3690822694
 20
105.4209834452
  0
VERTEX
  8
0
 62
7
  6
CONTINUOUS
 10
160.3740361354
 20
105.40725404
  0
SEQEND
  0
LINE
  8
0
 62
7
  6
CONTINUOUS
 10
159.7240361354
 20
137.2224671758
 11
159.7240361354
 21
138.0936683273
  0
LINE
  8
0
 62
7
  6
CONTINUOUS
 10
159.7265361354
 20
127.85706966
 11
159.7265361354
 21
137.1988917677
  0
LINE
  8
0
 62
7
  6
CONTINUOUS
 10
159.9740361354
 20
112.1405325734
 11
159.9740361354
 21
104.5375520622
  0
LINE
  8
0
 62
7
  6
CONTINUOUS
 10
159.9765361354
 20
114.79992644
 11
159.9766777007
 21
106.4005896037
  0
POLYLINE
  8
0
 62
7
  6
CONTINUOUS
 66
1
 70
0
  0
VERTEX
  8
0
 62
7
  6
CONTINUOUS
 10
159.9959782945
 20
115.2825520971
  0
VERTEX
  8
0
 62
7
  6
CONTINUOUS
 10
160.0002671489
 20
115.7056474737
  0
VERTEX
  8
0
 62
7
  6
CONTINUOUS
 10
159.9800959341
 20
115.9163280739
  0
VERTEX
  8
0
 62
7
  6
CONTINUOUS
 10
159.8955956735
 20
116.3307186093
  0
SEQEND
  0
LINE
  8
0
 62
7
  6
CONTINUOUS
 10
159.9765361354
 20
114.79992644
 11
159.9959782945
 21
115.2825520971
  0
POLYLINE
  8
0
 62
7
  6
CONTINUOUS
 66
1
 70
0
  0
VERTEX
  8
0
 62
7
  6
CONTINUOUS
 10
156.5515361354
 20
105.4323286217
  0
VERTEX
  8
0
 62
7
  6
CONTINUOUS
 10
156.5360132337
 20
105.2859980059
  0
VERTEX
  8
0
 62
7
  6
CONTINUOUS
 10
156.4940048981
 20
105.1608199414
  0
VERTEX
  8
0
 62
7
  6
CONTINUOUS
 10
156.4323570193
 20
105.0607679722
  0
VERTEX
  8
0
 62
7
  6
CONTINUOUS
 10
156.3965436887
 20
105.0210206499
  0
VERTEX
  8
0
 62
7
  6
CONTINUOUS
 10
156.3188815381
 20
104.9615903798
  0
VERTEX
  8
0
 62
7
  6
CONTINUOUS
 10
156.2362166965
 20
104.9269502482
  0
VERTEX
  8
0
 62
7
  6
CONTINUOUS
 10
156.1515360975
 20
104.9156150773
  0
SEQEND
  0
LINE
  8
0
 62
7
  6
CONTINUOUS
 10
163.5515361354
 20
137.2350872686
 11
163.5490361354
 21
137.2239663495
  0
LINE
  8
0
 62
7
  6
CONTINUOUS
 10
156.6617077308
 20
116.0157676973
 11
158.1784001375
 21
121.4568267555
  0
POLYLINE
  8
0
 62
7
  6
CONTINUOUS
 66
1
 70
0
  0
VERTEX
  8
0
 62
7
  6
CONTINUOUS
 10
157.1689731663
 20
138.4925369998
  0
VERTEX
  8
0
 62
7
  6
CONTINUOUS
 10
157.1156572584
 20
138.4848817765
  0
VERTEX
  8
0
 62
7
  6
CONTINUOUS
 10
157.0137860882
 20
138.4481854919
  0
VERTEX
  8
0
 62
7
  6
CONTINUOUS
 10
156.924942322
 20
138.3849973191
  0
VERTEX
  8
0
 62
7
  6
CONTINUOUS
 10
156.8565111683
 20
138.300251596
  0
VERTEX
  8
0
 62
7
  6
CONTINUOUS
 10
156.8134689644
 20
138.2001481688
  0
VERTEX
  8
0
 62
7
  6
CONTINUOUS
 10
156.7990361354
 20
138.0936683273
  0
SEQEND
  0
POLYLINE
  8
0
 62
7
  6
CONTINUOUS
 66
1
 70
0
  0
VERTEX
  8
0
 62
7
  6
CONTINUOUS
 10
150.8189731663
 20
138.4925369998
  0
VERTEX
  8
0
 62
7
  6
CONTINUOUS
 10
150.7656572584
 20
138.4848817765
  0
VERTEX
  8
0
 62
7
  6
CONTINUOUS
 10
150.6637860882
 20
138.4481854919
  0
VERTEX
  8
0
 62
7
  6
CONTINUOUS
 10
150.574942322
 20
138.3849973191
  0
VERTEX
  8
0
 62
7
  6
CONTINUOUS
 10
150.5065111683
 20
138.300251596
  0
VERTEX
  8
0
 62
7
  6
CONTINUOUS
 10
150.4634689644
 20
138.2001481688
  0
VERTEX
  8
0
 62
7
  6
CONTINUOUS
 10
150.4490361354
 20
138.0936683273
  0
SEQEND
  0
POLYLINE
  8
0
 62
7
  6
CONTINUOUS
 66
1
 70
0
  0
VERTEX
  8
0
 62
7
  6
CONTINUOUS
 10
144.4689731663
 20
138.4925369998
  0
VERTEX
  8
0
 62
7
  6
CONTINUOUS
 10
144.4156572584
 20
138.4848817765
  0
VERTEX
  8
0
 62
7
  6
CONTINUOUS
 10
144.3137860882
 20
138.4481854919
  0
VERTEX
  8
0
 62
7
  6
CONTINUOUS
 10
144.224942322
 20
138.3849973191
  0
VERTEX
  8
0
 62
7
  6
CONTINUOUS
 10
144.1565111683
 20
138.300251596
  0
VERTEX
  8
0
 62
7
  6
CONTINUOUS
 10
144.1134689644
 20
138.2001481688
  0
VERTEX
  8
0
 62
7
  6
CONTINUOUS
 10
144.0990361354
 20
138.0936683273
  0
SEQEND
  0
POLYLINE
  8
0
 62
7
  6
CONTINUOUS
 66
1
 70
0
  0
VERTEX
  8
0
 62
7
  6
CONTINUOUS
 10
138.1189731663
 20
138.4925369998
  0
VERTEX
  8
0
 62
7
  6
CONTINUOUS
 10
138.0656572584
 20
138.4848817765
  0
VERTEX
  8
0
 62
7
  6
CONTINUOUS
 10
137.9637860882
 20
138.4481854919
  0
VERTEX
  8
0
 62
7
  6
CONTINUOUS
 10
137.874942322
 20
138.3849973191
  0
VERTEX
  8
0
 62
7
  6
CONTINUOUS
 10
137.8065111683
 20
138.300251596
  0
VERTEX
  8
0
 62
7
  6
CONTINUOUS
 10
137.7634689644
 20
138.2001481688
  0
VERTEX
  8
0
 62
7
  6
CONTINUOUS
 10
137.7490361354
 20
138.0936683273
  0
SEQEND
  0
LINE
  8
0
 62
7
  6
CONTINUOUS
 10
163.6954740631
 20
138.5069433662
 11
163.5189255682
 21
138.4925329199
  0
LINE
  8
0
 62
7
  6
CONTINUOUS
 10
157.3454740631
 20
138.5069433662
 11
157.1689255682
 21
138.4925329199
  0
LINE
  8
0
 62
7
  6
CONTINUOUS
 10
150.9954740631
 20
138.5069433662
 11
150.8189255682
 21
138.4925329199
  0
LINE
  8
0
 62
7
  6
CONTINUOUS
 10
144.6454740631
 20
138.5069433662
 11
144.4689255682
 21
138.4925329199
  0
LINE
  8
0
 62
7
  6
CONTINUOUS
 10
138.2954740631
 20
138.5069433662
 11
138.1189255682
 21
138.4925329199
  0
LINE
  8
0
 62
7
  6
CONTINUOUS
 10
131.9454740631
 20
138.5069433662
 11
131.7689255682
 21
138.4925329199
  0
POLYLINE
  8
0
 62
7
  6
CONTINUOUS
 66
1
 70
0
  0
VERTEX
  8
0
 62
7
  6
CONTINUOUS
 10
176.5538456184
 20
138.5156095101
  0
VERTEX
  8
0
 62
7
  6
CONTINUOUS
 10
176.5237630269
 20
138.5151196387
  0
VERTEX
  8
0
 62
7
  6
CONTINUOUS
 10
176.4653472817
 20
138.5121826311
  0
VERTEX
  8
0
 62
7
  6
CONTINUOUS
 10
176.3954740631
 20
138.5069433662
  0
SEQEND
  0
POLYLINE
  8
0
 62
7
  6
CONTINUOUS
 66
1
 70
0
  0
VERTEX
  8
0
 62
7
  6
CONTINUOUS
 10
170.2038456184
 20
138.5156095101
  0
VERTEX
  8
0
 62
7
  6
CONTINUOUS
 10
170.1737630269
 20
138.5151196387
  0
VERTEX
  8
0
 62
7
  6
CONTINUOUS
 10
170.1153472817
 20
138.5121826311
  0
VERTEX
  8
0
 62
7
  6
CONTINUOUS
 10
170.0454740631
 20
138.5069433662
  0
SEQEND
  0
POLYLINE
  8
0
 62
7
  6
CONTINUOUS
 66
1
 70
0
  0
VERTEX
  8
0
 62
7
  6
CONTINUOUS
 10
163.8538456184
 20
138.5156095101
  0
VERTEX
  8
0
 62
7
  6
CONTINUOUS
 10
163.8237630269
 20
138.5151196387
  0
VERTEX
  8
0
 62
7
  6
CONTINUOUS
 10
163.7653472817
 20
138.5121826311
  0
VERTEX
  8
0
 62
7
  6
CONTINUOUS
 10
163.6954740631
 20
138.5069433662
  0
SEQEND
  0
POLYLINE
  8
0
 62
7
  6
CONTINUOUS
 66
1
 70
0
  0
VERTEX
  8
0
 62
7
  6
CONTINUOUS
 10
157.5038456184
 20
138.5156095101
  0
VERTEX
  8
0
 62
7
  6
CONTINUOUS
 10
157.4737630269
 20
138.5151196387
  0
VERTEX
  8
0
 62
7
  6
CONTINUOUS
 10
157.4153472817
 20
138.5121826311
  0
VERTEX
  8
0
 62
7
  6
CONTINUOUS
 10
157.3454740631
 20
138.5069433662
  0
SEQEND
  0
POLYLINE
  8
0
 62
7
  6
CONTINUOUS
 66
1
 70
0
  0
VERTEX
  8
0
 62
7
  6
CONTINUOUS
 10
151.1538456184
 20
138.5156095101
  0
VERTEX
  8
0
 62
7
  6
CONTINUOUS
 10
151.1237630269
 20
138.5151196387
  0
VERTEX
  8
0
 62
7
  6
CONTINUOUS
 10
151.0653472817
 20
138.5121826311
  0
VERTEX
  8
0
 62
7
  6
CONTINUOUS
 10
150.9954740631
 20
138.5069433662
  0
SEQEND
  0
POLYLINE
  8
0
 62
7
  6
CONTINUOUS
 66
1
 70
0
  0
VERTEX
  8
0
 62
7
  6
CONTINUOUS
 10
144.8038456185
 20
138.5156095101
  0
VERTEX
  8
0
 62
7
  6
CONTINUOUS
 10
144.7737630269
 20
138.5151196387
  0
VERTEX
  8
0
 62
7
  6
CONTINUOUS
 10
144.7153472817
 20
138.5121826311
  0
VERTEX
  8
0
 62
7
  6
CONTINUOUS
 10
144.6454740631
 20
138.5069433662
  0
SEQEND
  0
POLYLINE
  8
0
 62
7
  6
CONTINUOUS
 66
1
 70
0
  0
VERTEX
  8
0
 62
7
  6
CONTINUOUS
 10
138.4538456185
 20
138.5156095101
  0
VERTEX
  8
0
 62
7
  6
CONTINUOUS
 10
138.4237630269
 20
138.5151196387
  0
VERTEX
  8
0
 62
7
  6
CONTINUOUS
 10
138.3653472817
 20
138.5121826311
  0
VERTEX
  8
0
 62
7
  6
CONTINUOUS
 10
138.2954740631
 20
138.5069433662
  0
SEQEND
  0
POLYLINE
  8
0
 62
7
  6
CONTINUOUS
 66
1
 70
0
  0
VERTEX
  8
0
 62
7
  6
CONTINUOUS
 10
132.1038456185
 20
138.5156095101
  0
VERTEX
  8
0
 62
7
  6
CONTINUOUS
 10
132.0737630269
 20
138.5151196387
  0
VERTEX
  8
0
 62
7
  6
CONTINUOUS
 10
132.0153472817
 20
138.5121826311
  0
VERTEX
  8
0
 62
7
  6
CONTINUOUS
 10
131.9454740631
 20
138.5069433662
  0
SEQEND
  0
POLYLINE
  8
0
 62
7
  6
CONTINUOUS
 66
1
 70
0
  0
VERTEX
  8
0
 62
7
  6
CONTINUOUS
 10
125.7538456185
 20
138.5156095101
  0
VERTEX
  8
0
 62
7
  6
CONTINUOUS
 10
125.7237630269
 20
138.5151196387
  0
VERTEX
  8
0
 62
7
  6
CONTINUOUS
 10
125.6653472817
 20
138.5121826311
  0
VERTEX
  8
0
 62
7
  6
CONTINUOUS
 10
125.5954740631
 20
138.5069433662
  0
SEQEND
  0
POLYLINE
  8
0
 62
7
  6
CONTINUOUS
 66
1
 70
0
  0
VERTEX
  8
0
 62
7
  6
CONTINUOUS
 10
119.4038456185
 20
138.5156095101
  0
VERTEX
  8
0
 62
7
  6
CONTINUOUS
 10
119.3737630269
 20
138.5151196387
  0
VERTEX
  8
0
 62
7
  6
CONTINUOUS
 10
119.3153472817
 20
138.5121826311
  0
VERTEX
  8
0
 62
7
  6
CONTINUOUS
 10
119.2454740631
 20
138.5069433662
  0
SEQEND
  0
POLYLINE
  8
0
 62
7
  6
CONTINUOUS
 66
1
 70
0
  0
VERTEX
  8
0
 62
7
  6
CONTINUOUS
 10
113.0538456185
 20
138.5156095101
  0
VERTEX
  8
0
 62
7
  6
CONTINUOUS
 10
113.0237630269
 20
138.5151196387
  0
VERTEX
  8
0
 62
7
  6
CONTINUOUS
 10
112.9653472817
 20
138.5121826311
  0
VERTEX
  8
0
 62
7
  6
CONTINUOUS
 10
112.8954740631
 20
138.5069433662
  0
SEQEND
  0
LINE
  8
0
 62
7
  6
CONTINUOUS
 10
138.1490361354
 20
137.7156101947
 11
138.1465361354
 21
137.7156066791
  0
LINE
  8
0
 62
7
  6
CONTINUOUS
 10
131.7990361354
 20
137.7156101947
 11
131.7965361354
 21
137.7156066791
  0
LINE
  8
0
 62
7
  6
CONTINUOUS
 10
125.4490361354
 20
137.7156101947
 11
125.4465361354
 21
137.7156066791
  0
LINE
  8
0
 62
7
  6
CONTINUOUS
 10
119.0990361354
 20
137.7156101947
 11
119.0965361354
 21
137.7156066791
  0
LINE
  8
0
 62
7
  6
CONTINUOUS
 10
112.7490361354
 20
137.7156101947
 11
112.7465361354
 21
137.7156066791
  0
LINE
  8
0
 62
7
  6
CONTINUOUS
 10
171.3240361354
 20
137.7156101947
 11
171.2740361355
 21
137.7156101947
  0
LINE
  8
0
 62
7
  6
CONTINUOUS
 10
114.1240361354
 20
137.7156101947
 11
114.1740361354
 21
137.7156101947
  0
LINE
  8
0
 62
7
  6
CONTINUOUS
 10
178.0703659638
 20
138.5156101947
 11
176.552706307
 21
138.5156101947
  0
LINE
  8
0
 62
7
  6
CONTINUOUS
 10
171.2740361354
 20
138.5156101947
 11
170.202706307
 21
138.5156101947
  0
LINE
  8
0
 62
7
  6
CONTINUOUS
 10
165.3703659638
 20
138.5156101947
 11
163.852706307
 21
138.5156101947
  0
LINE
  8
0
 62
7
  6
CONTINUOUS
 10
159.0203659638
 20
138.5156101947
 11
157.502706307
 21
138.5156101947
  0
LINE
  8
0
 62
7
  6
CONTINUOUS
 10
152.6703659638
 20
138.5156101947
 11
151.152706307
 21
138.5156101947
  0
LINE
  8
0
 62
7
  6
CONTINUOUS
 10
108.2203659638
 20
138.5156101947
 11
106.3590361354
 21
138.5156101947
  0
LINE
  8
0
 62
7
  6
CONTINUOUS
 10
113.052706307
 20
138.5156101947
 11
114.1240361354
 21
138.5156101947
  0
LINE
  8
0
 62
7
  6
CONTINUOUS
 10
119.402706307
 20
138.5156101947
 11
120.9203659638
 21
138.5156101947
  0
LINE
  8
0
 62
7
  6
CONTINUOUS
 10
125.752706307
 20
138.5156101947
 11
127.2703659638
 21
138.5156101947
  0
LINE
  8
0
 62
7
  6
CONTINUOUS
 10
132.102706307
 20
138.5156101947
 11
133.6203659638
 21
138.5156101947
  0
LINE
  8
0
 62
7
  6
CONTINUOUS
 10
138.452706307
 20
138.5156101947
 11
139.9703659638
 21
138.5156101947
  0
LINE
  8
0
 62
7
  6
CONTINUOUS
 10
144.802706307
 20
138.5156101947
 11
146.3203659638
 21
138.5156101947
  0
LINE
  8
0
 62
7
  6
CONTINUOUS
 10
146.6265361354
 20
137.7156066791
 11
146.6240361354
 21
137.7156101947
  0
LINE
  8
0
 62
7
  6
CONTINUOUS
 10
152.9765361354
 20
137.7156066791
 11
152.9740361354
 21
137.7156101947
  0
LINE
  8
0
 62
7
  6
CONTINUOUS
 10
159.3265361354
 20
137.7156066791
 11
159.3240361354
 21
137.7156101947
  0
LINE
  8
0
 62
7
  6
CONTINUOUS
 10
165.6765361354
 20
137.7156066791
 11
165.6740361354
 21
137.7156101947
  0
LINE
  8
0
 62
7
  6
CONTINUOUS
 10
178.3765361354
 20
137.7156066791
 11
178.3740361354
 21
137.7156101947
  0
LINE
  8
0
 62
7
  6
CONTINUOUS
 10
108.2484195305
 20
138.515146637
 11
108.2192258256
 21
138.5156095102
  0
LINE
  8
0
 62
7
  6
CONTINUOUS
 10
120.9484195305
 20
138.515146637
 11
120.9192258256
 21
138.5156095102
  0
LINE
  8
0
 62
7
  6
CONTINUOUS
 10
127.2984195305
 20
138.515146637
 11
127.2692258256
 21
138.5156095102
  0
LINE
  8
0
 62
7
  6
CONTINUOUS
 10
133.6484195305
 20
138.515146637
 11
133.6192258256
 21
138.5156095102
  0
LINE
  8
0
 62
7
  6
CONTINUOUS
 10
139.9984195305
 20
138.515146637
 11
139.9692258256
 21
138.5156095102
  0
LINE
  8
0
 62
7
  6
CONTINUOUS
 10
146.3484195305
 20
138.515146637
 11
146.3192258256
 21
138.5156095102
  0
LINE
  8
0
 62
7
  6
CONTINUOUS
 10
152.6984195305
 20
138.515146637
 11
152.6692258256
 21
138.5156095102
  0
LINE
  8
0
 62
7
  6
CONTINUOUS
 10
159.0484195305
 20
138.515146637
 11
159.0192258256
 21
138.5156095102
  0
LINE
  8
0
 62
7
  6
CONTINUOUS
 10
165.3984195305
 20
138.515146637
 11
165.3692258256
 21
138.5156095102
  0
LINE
  8
0
 62
7
  6
CONTINUOUS
 10
178.0984195305
 20
138.515146637
 11
178.0692258256
 21
138.5156095102
  0
POLYLINE
  8
0
 62
7
  6
CONTINUOUS
 66
1
 70
0
  0
VERTEX
  8
0
 62
7
  6
CONTINUOUS
 10
127.6041468093
 20
138.4925329119
  0
VERTEX
  8
0
 62
7
  6
CONTINUOUS
 10
127.4269829735
 20
138.506993434
  0
VERTEX
  8
0
 62
7
  6
CONTINUOUS
 10
127.3569734675
 20
138.5122316915
  0
VERTEX
  8
0
 62
7
  6
CONTINUOUS
 10
127.2984195305
 20
138.515146637
  0
SEQEND
  0
POLYLINE
  8
0
 62
7
  6
CONTINUOUS
 66
1
 70
0
  0
VERTEX
  8
0
 62
7
  6
CONTINUOUS
 10
133.9541468093
 20
138.4925329119
  0
VERTEX
  8
0
 62
7
  6
CONTINUOUS
 10
133.7769829735
 20
138.506993434
  0
VERTEX
  8
0
 62
7
  6
CONTINUOUS
 10
133.7069734675
 20
138.5122316915
  0
VERTEX
  8
0
 62
7
  6
CONTINUOUS
 10
133.6484195305
 20
138.515146637
  0
SEQEND
  0
POLYLINE
  8
0
 62
7
  6
CONTINUOUS
 66
1
 70
0
  0
VERTEX
  8
0
 62
7
  6
CONTINUOUS
 10
140.3041468093
 20
138.4925329119
  0
VERTEX
  8
0
 62
7
  6
CONTINUOUS
 10
140.1269829735
 20
138.506993434
  0
VERTEX
  8
0
 62
7
  6
CONTINUOUS
 10
140.0569734675
 20
138.5122316915
  0
VERTEX
  8
0
 62
7
  6
CONTINUOUS
 10
139.9984195305
 20
138.515146637
  0
SEQEND
  0
POLYLINE
  8
0
 62
7
  6
CONTINUOUS
 66
1
 70
0
  0
VERTEX
  8
0
 62
7
  6
CONTINUOUS
 10
146.6541468093
 20
138.4925329119
  0
VERTEX
  8
0
 62
7
  6
CONTINUOUS
 10
146.4769829735
 20
138.506993434
  0
VERTEX
  8
0
 62
7
  6
CONTINUOUS
 10
146.4069734675
 20
138.5122316915
  0
VERTEX
  8
0
 62
7
  6
CONTINUOUS
 10
146.3484195305
 20
138.515146637
  0
SEQEND
  0
POLYLINE
  8
0
 62
7
  6
CONTINUOUS
 66
1
 70
0
  0
VERTEX
  8
0
 62
7
  6
CONTINUOUS
 10
153.0041468093
 20
138.4925329119
  0
VERTEX
  8
0
 62
7
  6
CONTINUOUS
 10
152.8269829735
 20
138.506993434
  0
VERTEX
  8
0
 62
7
  6
CONTINUOUS
 10
152.7569734675
 20
138.5122316915
  0
VERTEX
  8
0
 62
7
  6
CONTINUOUS
 10
152.6984195305
 20
138.515146637
  0
SEQEND
  0
POLYLINE
  8
0
 62
7
  6
CONTINUOUS
 66
1
 70
0
  0
VERTEX
  8
0
 62
7
  6
CONTINUOUS
 10
159.3541468093
 20
138.4925329119
  0
VERTEX
  8
0
 62
7
  6
CONTINUOUS
 10
159.1769829735
 20
138.506993434
  0
VERTEX
  8
0
 62
7
  6
CONTINUOUS
 10
159.1069734675
 20
138.5122316915
  0
VERTEX
  8
0
 62
7
  6
CONTINUOUS
 10
159.0484195305
 20
138.515146637
  0
SEQEND
  0
POLYLINE
  8
0
 62
7
  6
CONTINUOUS
 66
1
 70
0
  0
VERTEX
  8
0
 62
7
  6
CONTINUOUS
 10
146.6265360976
 20
137.7156053122
  0
VERTEX
  8
0
 62
7
  6
CONTINUOUS
 10
146.7112150177
 20
137.7042705964
  0
VERTEX
  8
0
 62
7
  6
CONTINUOUS
 10
146.7938775898
 20
137.6696322949
  0
VERTEX
  8
0
 62
7
  6
CONTINUOUS
 10
146.87154093
 20
137.6102024447
  0
VERTEX
  8
0
 62
7
  6
CONTINUOUS
 10
146.9073524774
 20
137.5704581115
  0
VERTEX
  8
0
 62
7
  6
CONTINUOUS
 10
146.9689978263
 20
137.4704155439
  0
VERTEX
  8
0
 62
7
  6
CONTINUOUS
 10
147.0110241131
 20
137.3451726705
  0
SEQEND
  0
POLYLINE
  8
0
 62
7
  6
CONTINUOUS
 66
1
 70
0
  0
VERTEX
  8
0
 62
7
  6
CONTINUOUS
 10
152.9765360976
 20
137.7156053122
  0
VERTEX
  8
0
 62
7
  6
CONTINUOUS
 10
153.0612150177
 20
137.7042705964
  0
VERTEX
  8
0
 62
7
  6
CONTINUOUS
 10
153.1438775898
 20
137.6696322949
  0
VERTEX
  8
0
 62
7
  6
CONTINUOUS
 10
153.22154093
 20
137.6102024447
  0
VERTEX
  8
0
 62
7
  6
CONTINUOUS
 10
153.2573524774
 20
137.5704581115
  0
VERTEX
  8
0
 62
7
  6
CONTINUOUS
 10
153.3189978263
 20
137.4704155439
  0
VERTEX
  8
0
 62
7
  6
CONTINUOUS
 10
153.3610241131
 20
137.3451726705
  0
SEQEND
  0
POLYLINE
  8
0
 62
7
  6
CONTINUOUS
 66
1
 70
0
  0
VERTEX
  8
0
 62
7
  6
CONTINUOUS
 10
159.3265360976
 20
137.7156053122
  0
VERTEX
  8
0
 62
7
  6
CONTINUOUS
 10
159.4112150177
 20
137.7042705964
  0
VERTEX
  8
0
 62
7
  6
CONTINUOUS
 10
159.4938775898
 20
137.6696322949
  0
VERTEX
  8
0
 62
7
  6
CONTINUOUS
 10
159.57154093
 20
137.6102024447
  0
VERTEX
  8
0
 62
7
  6
CONTINUOUS
 10
159.6073524774
 20
137.5704581115
  0
VERTEX
  8
0
 62
7
  6
CONTINUOUS
 10
159.6689978263
 20
137.4704155439
  0
VERTEX
  8
0
 62
7
  6
CONTINUOUS
 10
159.7110241131
 20
137.3451726705
  0
SEQEND
  0
POLYLINE
  8
0
 62
7
  6
CONTINUOUS
 66
1
 70
0
  0
VERTEX
  8
0
 62
7
  6
CONTINUOUS
 10
133.9540991046
 20
138.4925369998
  0
VERTEX
  8
0
 62
7
  6
CONTINUOUS
 10
134.0074150125
 20
138.4848817765
  0
VERTEX
  8
0
 62
7
  6
CONTINUOUS
 10
134.1092861827
 20
138.4481854919
  0
VERTEX
  8
0
 62
7
  6
CONTINUOUS
 10
134.1981299488
 20
138.3849973191
  0
VERTEX
  8
0
 62
7
  6
CONTINUOUS
 10
134.2665611026
 20
138.300251596
  0
VERTEX
  8
0
 62
7
  6
CONTINUOUS
 10
134.3096033064
 20
138.2001481688
  0
VERTEX
  8
0
 62
7
  6
CONTINUOUS
 10
134.3240361354
 20
138.0936683273
  0
SEQEND
  0
POLYLINE
  8
0
 62
7
  6
CONTINUOUS
 66
1
 70
0
  0
VERTEX
  8
0
 62
7
  6
CONTINUOUS
 10
140.3040991046
 20
138.4925369998
  0
VERTEX
  8
0
 62
7
  6
CONTINUOUS
 10
140.3574150125
 20
138.4848817765
  0
VERTEX
  8
0
 62
7
  6
CONTINUOUS
 10
140.4592861827
 20
138.4481854919
  0
VERTEX
  8
0
 62
7
  6
CONTINUOUS
 10
140.5481299488
 20
138.3849973191
  0
VERTEX
  8
0
 62
7
  6
CONTINUOUS
 10
140.6165611026
 20
138.300251596
  0
VERTEX
  8
0
 62
7
  6
CONTINUOUS
 10
140.6596033064
 20
138.2001481688
  0
VERTEX
  8
0
 62
7
  6
CONTINUOUS
 10
140.6740361354
 20
138.0936683273
  0
SEQEND
  0
POLYLINE
  8
0
 62
7
  6
CONTINUOUS
 66
1
 70
0
  0
VERTEX
  8
0
 62
7
  6
CONTINUOUS
 10
146.6540991046
 20
138.4925369998
  0
VERTEX
  8
0
 62
7
  6
CONTINUOUS
 10
146.7074150125
 20
138.4848817765
  0
VERTEX
  8
0
 62
7
  6
CONTINUOUS
 10
146.8092861827
 20
138.4481854919
  0
VERTEX
  8
0
 62
7
  6
CONTINUOUS
 10
146.8981299488
 20
138.3849973191
  0
VERTEX
  8
0
 62
7
  6
CONTINUOUS
 10
146.9665611026
 20
138.300251596
  0
VERTEX
  8
0
 62
7
  6
CONTINUOUS
 10
147.0096033064
 20
138.2001481688
  0
VERTEX
  8
0
 62
7
  6
CONTINUOUS
 10
147.0240361354
 20
138.0936683273
  0
SEQEND
  0
POLYLINE
  8
0
 62
7
  6
CONTINUOUS
 66
1
 70
0
  0
VERTEX
  8
0
 62
7
  6
CONTINUOUS
 10
153.0040991046
 20
138.4925369998
  0
VERTEX
  8
0
 62
7
  6
CONTINUOUS
 10
153.0574150125
 20
138.4848817765
  0
VERTEX
  8
0
 62
7
  6
CONTINUOUS
 10
153.1592861827
 20
138.4481854919
  0
VERTEX
  8
0
 62
7
  6
CONTINUOUS
 10
153.2481299488
 20
138.3849973191
  0
VERTEX
  8
0
 62
7
  6
CONTINUOUS
 10
153.3165611026
 20
138.300251596
  0
VERTEX
  8
0
 62
7
  6
CONTINUOUS
 10
153.3596033064
 20
138.2001481688
  0
VERTEX
  8
0
 62
7
  6
CONTINUOUS
 10
153.3740361354
 20
138.0936683273
  0
SEQEND
  0
POLYLINE
  8
0
 62
7
  6
CONTINUOUS
 66
1
 70
0
  0
VERTEX
  8
0
 62
7
  6
CONTINUOUS
 10
161.3547649717
 20
121.6008995936
  0
VERTEX
  8
0
 62
7
  6
CONTINUOUS
 10
161.3763804748
 20
121.5548511829
  0
VERTEX
  8
0
 62
7
  6
CONTINUOUS
 10
161.4112772203
 20
121.5185134461
  0
VERTEX
  8
0
 62
7
  6
CONTINUOUS
 10
161.4543646369
 20
121.4954339991
  0
VERTEX
  8
0
 62
7
  6
CONTINUOUS
 10
161.5007118501
 20
121.4881004857
  0
VERTEX
  8
0
 62
7
  6
CONTINUOUS
 10
161.5467230606
 20
121.4971498645
  0
VERTEX
  8
0
 62
7
  6
CONTINUOUS
 10
161.5895131501
 20
121.5212209507
  0
VERTEX
  8
0
 62
7
  6
CONTINUOUS
 10
161.6231573081
 20
121.557095088
  0
VERTEX
  8
0
 62
7
  6
CONTINUOUS
 10
161.6437194604
 20
121.6014700246
  0
SEQEND
  0
LINE
  8
0
 62
7
  6
CONTINUOUS
 10
161.3547649717
 20
121.6008995936
 11
159.8368644196
 21
127.0494114199
  0
POLYLINE
  8
0
 62
7
  6
CONTINUOUS
 66
1
 70
0
  0
VERTEX
  8
0
 62
7
  6
CONTINUOUS
 10
159.8368644196
 20
127.0494114199
  0
VERTEX
  8
0
 62
7
  6
CONTINUOUS
 10
159.7542744095
 20
127.4491938538
  0
VERTEX
  8
0
 62
7
  6
CONTINUOUS
 10
159.7265361354
 20
127.85706966
  0
SEQEND
  0
POLYLINE
  8
0
 62
7
  6
CONTINUOUS
 66
1
 70
0
  0
VERTEX
  8
0
 62
7
  6
CONTINUOUS
 10
159.7441316734
 20
130.2924851206
  0
VERTEX
  8
0
 62
7
  6
CONTINUOUS
 10
159.7257111698
 20
130.4320719106
  0
VERTEX
  8
0
 62
7
  6
CONTINUOUS
 10
159.7265361354
 20
130.4192063392
  0
SEQEND
  0
LINE
  8
0
 62
7
  6
CONTINUOUS
 10
162.8990361354
 20
105.4087617304
 11
162.8990361354
 21
104.5375520622
  0
LINE
  8
0
 62
7
  6
CONTINUOUS
 10
162.9015361354
 20
105.4323286217
 11
162.9015361354
 21
115.2102294971
  0
LINE
  8
0
 62
7
  6
CONTINUOUS
 10
163.1490361354
 20
130.4906878352
 11
163.1490361354
 21
138.0936683273
  0
POLYLINE
  8
0
 62
7
  6
CONTINUOUS
 66
1
 70
0
  0
VERTEX
  8
0
 62
7
  6
CONTINUOUS
 10
163.1490361905
 20
130.4907084244
  0
VERTEX
  8
0
 62
7
  6
CONTINUOUS
 10
163.1473611013
 20
130.4320719128
  0
VERTEX
  8
0
 62
7
  6
CONTINUOUS
 10
163.1289405979
 20
130.2924851224
  0
VERTEX
  8
0
 62
7
  6
CONTINUOUS
 10
163.0914263788
 20
130.1661545656
  0
VERTEX
  8
0
 62
7
  6
CONTINUOUS
 10
163.0375286275
 20
130.0582782091
  0
VERTEX
  8
0
 62
7
  6
CONTINUOUS
 10
163.0056957343
 20
130.012674933
  0
VERTEX
  8
0
 62
7
  6
CONTINUOUS
 10
162.9346266208
 20
129.93938758
  0
VERTEX
  8
0
 62
7
  6
CONTINUOUS
 10
162.8567714481
 20
129.8912154671
  0
VERTEX
  8
0
 62
7
  6
CONTINUOUS
 10
162.7776513005
 20
129.8694686076
  0
VERTEX
  8
0
 62
7
  6
CONTINUOUS
 10
162.7490361318
 20
129.8678389544
  0
SEQEND
  0
LINE
  8
0
 62
7
  6
CONTINUOUS
 10
162.9015361354
 20
112.2120139517
 11
162.9007111624
 21
112.1991482399
  0
POLYLINE
  8
0
 62
7
  6
CONTINUOUS
 66
1
 70
0
  0
VERTEX
  8
0
 62
7
  6
CONTINUOUS
 10
162.9007111624
 20
112.1991482399
  0
VERTEX
  8
0
 62
7
  6
CONTINUOUS
 10
162.9191316273
 20
112.3387349588
  0
VERTEX
  8
0
 62
7
  6
CONTINUOUS
 10
162.9566458347
 20
112.4650656877
  0
VERTEX
  8
0
 62
7
  6
CONTINUOUS
 10
163.0105435712
 20
112.5729420783
  0
VERTEX
  8
0
 62
7
  6
CONTINUOUS
 10
163.0423765059
 20
112.6185454092
  0
VERTEX
  8
0
 62
7
  6
CONTINUOUS
 10
163.1134455557
 20
112.6918327378
  0
VERTEX
  8
0
 62
7
  6
CONTINUOUS
 10
163.191300681
 20
112.7400048753
  0
VERTEX
  8
0
 62
7
  6
CONTINUOUS
 10
163.2704205964
 20
112.7617517355
  0
VERTEX
  8
0
 62
7
  6
CONTINUOUS
 10
163.2990361361
 20
112.7633814504
  0
SEQEND
  0
LINE
  8
0
 62
7
  6
CONTINUOUS
 10
163.04136454
 20
126.6154526922
 11
161.6437194604
 21
121.6014700246
  0
POLYLINE
  8
0
 62
7
  6
CONTINUOUS
 66
1
 70
0
  0
VERTEX
  8
0
 62
7
  6
CONTINUOUS
 10
169.8990361354
 20
137.2239663495
  0
VERTEX
  8
0
 62
7
  6
CONTINUOUS
 10
169.8944592582
 20
137.2110092465
  0
VERTEX
  8
0
 62
7
  6
CONTINUOUS
 10
169.8733363939
 20
137.1825108893
  0
VERTEX
  8
0
 62
7
  6
CONTINUOUS
 10
169.836670244
 20
137.1511460923
  0
VERTEX
  8
0
 62
7
  6
CONTINUOUS
 10
169.7863014345
 20
137.1143387456
  0
VERTEX
  8
0
 62
7
  6
CONTINUOUS
 10
169.7229211885
 20
137.0658517582
  0
VERTEX
  8
0
 62
7
  6
CONTINUOUS
 10
169.6490989519
 20
136.9956028243
  0
VERTEX
  8
0
 62
7
  6
CONTINUOUS
 10
169.6127620474
 20
136.9502425042
  0
VERTEX
  8
0
 62
7
  6
CONTINUOUS
 10
169.5554891557
 20
136.8444530292
  0
VERTEX
  8
0
 62
7
  6
CONTINUOUS
 10
169.5234434745
 20
136.726572948
  0
VERTEX
  8
0
 62
7
  6
CONTINUOUS
 10
169.5083362354
 20
136.5832226128
  0
VERTEX
  8
0
 62
7
  6
CONTINUOUS
 10
169.5032013293
 20
136.4218179853
  0
VERTEX
  8
0
 62
7
  6
CONTINUOUS
 10
169.501688308
 20
136.2342165013
  0
VERTEX
  8
0
 62
7
  6
CONTINUOUS
 10
169.5015361354
 20
127.4209908924
  0
SEQEND
  0
POLYLINE
  8
0
 62
7
  6
CONTINUOUS
 66
1
 70
0
  0
VERTEX
  8
0
 62
7
  6
CONTINUOUS
 10
178.7208410964
 20
130.0359842044
  0
VERTEX
  8
0
 62
7
  6
CONTINUOUS
 10
178.6775739366
 20
129.9976588632
  0
VERTEX
  8
0
 62
7
  6
CONTINUOUS
 10
178.652754056
 20
129.9781732883
  0
VERTEX
  8
0
 62
7
  6
CONTINUOUS
 10
178.5991767782
 20
129.9388461196
  0
SEQEND
  0
POLYLINE
  8
0
 62
7
  6
CONTINUOUS
 66
1
 70
0
  0
VERTEX
  8
0
 62
7
  6
CONTINUOUS
 10
131.7689731663
 20
138.4925369998
  0
VERTEX
  8
0
 62
7
  6
CONTINUOUS
 10
131.7156572584
 20
138.4848817765
  0
VERTEX
  8
0
 62
7
  6
CONTINUOUS
 10
131.6137860882
 20
138.4481854919
  0
VERTEX
  8
0
 62
7
  6
CONTINUOUS
 10
131.524942322
 20
138.3849973191
  0
VERTEX
  8
0
 62
7
  6
CONTINUOUS
 10
131.4565111683
 20
138.300251596
  0
VERTEX
  8
0
 62
7
  6
CONTINUOUS
 10
131.4134689644
 20
138.2001481688
  0
VERTEX
  8
0
 62
7
  6
CONTINUOUS
 10
131.3990361354
 20
138.0936683273
  0
SEQEND
  0
POLYLINE
  8
0
 62
7
  6
CONTINUOUS
 66
1
 70
0
  0
VERTEX
  8
0
 62
7
  6
CONTINUOUS
 10
125.4189731663
 20
138.4925369998
  0
VERTEX
  8
0
 62
7
  6
CONTINUOUS
 10
125.3656572584
 20
138.4848817765
  0
VERTEX
  8
0
 62
7
  6
CONTINUOUS
 10
125.2637860882
 20
138.4481854919
  0
VERTEX
  8
0
 62
7
  6
CONTINUOUS
 10
125.174942322
 20
138.3849973191
  0
VERTEX
  8
0
 62
7
  6
CONTINUOUS
 10
125.1065111683
 20
138.300251596
  0
VERTEX
  8
0
 62
7
  6
CONTINUOUS
 10
125.0634689644
 20
138.2001481688
  0
VERTEX
  8
0
 62
7
  6
CONTINUOUS
 10
125.0490361354
 20
138.0936683273
  0
SEQEND
  0
POLYLINE
  8
0
 62
7
  6
CONTINUOUS
 66
1
 70
0
  0
VERTEX
  8
0
 62
7
  6
CONTINUOUS
 10
119.0689731663
 20
138.4925369998
  0
VERTEX
  8
0
 62
7
  6
CONTINUOUS
 10
119.0156572584
 20
138.4848817765
  0
VERTEX
  8
0
 62
7
  6
CONTINUOUS
 10
118.9137860882
 20
138.4481854919
  0
VERTEX
  8
0
 62
7
  6
CONTINUOUS
 10
118.824942322
 20
138.3849973191
  0
VERTEX
  8
0
 62
7
  6
CONTINUOUS
 10
118.7565111683
 20
138.300251596
  0
VERTEX
  8
0
 62
7
  6
CONTINUOUS
 10
118.7134689644
 20
138.2001481688
  0
VERTEX
  8
0
 62
7
  6
CONTINUOUS
 10
118.6990361354
 20
138.0936683273
  0
SEQEND
  0
LINE
  8
0
 62
7
  6
CONTINUOUS
 10
125.5954740631
 20
138.5069433662
 11
125.4189255682
 21
138.4925329199
  0
LINE
  8
0
 62
7
  6
CONTINUOUS
 10
119.2454740631
 20
138.5069433662
 11
119.0689255682
 21
138.4925329199
  0
LINE
  8
0
 62
7
  6
CONTINUOUS
 10
112.8954740631
 20
138.5069433662
 11
112.7189255682
 21
138.4925329199
  0
POLYLINE
  8
0
 62
7
  6
CONTINUOUS
 66
1
 70
0
  0
VERTEX
  8
0
 62
7
  6
CONTINUOUS
 10
165.7041468093
 20
138.4925329119
  0
VERTEX
  8
0
 62
7
  6
CONTINUOUS
 10
165.5269829735
 20
138.506993434
  0
VERTEX
  8
0
 62
7
  6
CONTINUOUS
 10
165.4569734675
 20
138.5122316915
  0
VERTEX
  8
0
 62
7
  6
CONTINUOUS
 10
165.3984195305
 20
138.515146637
  0
SEQEND
  0
POLYLINE
  8
0
 62
7
  6
CONTINUOUS
 66
1
 70
0
  0
VERTEX
  8
0
 62
7
  6
CONTINUOUS
 10
178.4041468093
 20
138.4925329119
  0
VERTEX
  8
0
 62
7
  6
CONTINUOUS
 10
178.2269829735
 20
138.506993434
  0
VERTEX
  8
0
 62
7
  6
CONTINUOUS
 10
178.1569734675
 20
138.5122316915
  0
VERTEX
  8
0
 62
7
  6
CONTINUOUS
 10
178.0984195305
 20
138.515146637
  0
SEQEND
  0
POLYLINE
  8
0
 62
7
  6
CONTINUOUS
 66
1
 70
0
  0
VERTEX
  8
0
 62
7
  6
CONTINUOUS
 10
165.6765360976
 20
137.7156053122
  0
VERTEX
  8
0
 62
7
  6
CONTINUOUS
 10
165.7612150177
 20
137.7042705964
  0
VERTEX
  8
0
 62
7
  6
CONTINUOUS
 10
165.8438775898
 20
137.6696322949
  0
VERTEX
  8
0
 62
7
  6
CONTINUOUS
 10
165.92154093
 20
137.6102024447
  0
VERTEX
  8
0
 62
7
  6
CONTINUOUS
 10
165.9573524774
 20
137.5704581115
  0
VERTEX
  8
0
 62
7
  6
CONTINUOUS
 10
166.0189978263
 20
137.4704155439
  0
VERTEX
  8
0
 62
7
  6
CONTINUOUS
 10
166.0610241131
 20
137.3451726705
  0
SEQEND
  0
POLYLINE
  8
0
 62
7
  6
CONTINUOUS
 66
1
 70
0
  0
VERTEX
  8
0
 62
7
  6
CONTINUOUS
 10
178.3765360976
 20
137.7156053122
  0
VERTEX
  8
0
 62
7
  6
CONTINUOUS
 10
178.4612150177
 20
137.7042705964
  0
VERTEX
  8
0
 62
7
  6
CONTINUOUS
 10
178.5438775898
 20
137.6696322949
  0
VERTEX
  8
0
 62
7
  6
CONTINUOUS
 10
178.62154093
 20
137.6102024447
  0
VERTEX
  8
0
 62
7
  6
CONTINUOUS
 10
178.6573524774
 20
137.5704581115
  0
VERTEX
  8
0
 62
7
  6
CONTINUOUS
 10
178.7189978263
 20
137.4704155439
  0
VERTEX
  8
0
 62
7
  6
CONTINUOUS
 10
178.7610241131
 20
137.3451726705
  0
SEQEND
  0
POLYLINE
  8
0
 62
7
  6
CONTINUOUS
 66
1
 70
0
  0
VERTEX
  8
0
 62
7
  6
CONTINUOUS
 10
159.3540991046
 20
138.4925369998
  0
VERTEX
  8
0
 62
7
  6
CONTINUOUS
 10
159.4074150125
 20
138.4848817765
  0
VERTEX
  8
0
 62
7
  6
CONTINUOUS
 10
159.5092861827
 20
138.4481854919
  0
VERTEX
  8
0
 62
7
  6
CONTINUOUS
 10
159.5981299488
 20
138.3849973191
  0
VERTEX
  8
0
 62
7
  6
CONTINUOUS
 10
159.6665611026
 20
138.300251596
  0
VERTEX
  8
0
 62
7
  6
CONTINUOUS
 10
159.7096033064
 20
138.2001481688
  0
VERTEX
  8
0
 62
7
  6
CONTINUOUS
 10
159.7240361354
 20
138.0936683273
  0
SEQEND
  0
POLYLINE
  8
0
 62
7
  6
CONTINUOUS
 66
1
 70
0
  0
VERTEX
  8
0
 62
7
  6
CONTINUOUS
 10
165.7040991046
 20
138.4925369998
  0
VERTEX
  8
0
 62
7
  6
CONTINUOUS
 10
165.7574150125
 20
138.4848817765
  0
VERTEX
  8
0
 62
7
  6
CONTINUOUS
 10
165.8592861827
 20
138.4481854919
  0
VERTEX
  8
0
 62
7
  6
CONTINUOUS
 10
165.9481299488
 20
138.3849973191
  0
VERTEX
  8
0
 62
7
  6
CONTINUOUS
 10
166.0165611026
 20
138.300251596
  0
VERTEX
  8
0
 62
7
  6
CONTINUOUS
 10
166.0596033064
 20
138.2001481688
  0
VERTEX
  8
0
 62
7
  6
CONTINUOUS
 10
166.0740361354
 20
138.0936683273
  0
SEQEND
  0
POLYLINE
  8
0
 62
7
  6
CONTINUOUS
 66
1
 70
0
  0
VERTEX
  8
0
 62
7
  6
CONTINUOUS
 10
171.3240361354
 20
137.7156101947
  0
VERTEX
  8
0
 62
7
  6
CONTINUOUS
 10
171.4050296095
 20
137.7037268786
  0
VERTEX
  8
0
 62
7
  6
CONTINUOUS
 10
171.4846577426
 20
137.6666834136
  0
VERTEX
  8
0
 62
7
  6
CONTINUOUS
 10
171.5566144836
 20
137.6043327613
  0
VERTEX
  8
0
 62
7
  6
CONTINUOUS
 10
171.6170457543
 20
137.5150406083
  0
VERTEX
  8
0
 62
7
  6
CONTINUOUS
 10
171.6585343375
 20
137.4009316935
  0
VERTEX
  8
0
 62
7
  6
CONTINUOUS
 10
171.6740361354
 20
137.2656101947
  0
SEQEND
  0
POLYLINE
  8
0
 62
7
  6
CONTINUOUS
 66
1
 70
0
  0
VERTEX
  8
0
 62
7
  6
CONTINUOUS
 10
164.8173546262
 20
121.4573971865
  0
VERTEX
  8
0
 62
7
  6
CONTINUOUS
 10
164.7957391231
 20
121.5034455972
  0
VERTEX
  8
0
 62
7
  6
CONTINUOUS
 10
164.7608423776
 20
121.539783334
  0
VERTEX
  8
0
 62
7
  6
CONTINUOUS
 10
164.7177549611
 20
121.562862781
  0
VERTEX
  8
0
 62
7
  6
CONTINUOUS
 10
164.6714077479
 20
121.5701962944
  0
VERTEX
  8
0
 62
7
  6
CONTINUOUS
 10
164.6253965374
 20
121.5611469157
  0
VERTEX
  8
0
 62
7
  6
CONTINUOUS
 10
164.5826064479
 20
121.5370758295
  0
VERTEX
  8
0
 62
7
  6
CONTINUOUS
 10
164.5489622898
 20
121.5012016921
  0
VERTEX
  8
0
 62
7
  6
CONTINUOUS
 10
164.5284001375
 20
121.4568267555
  0
SEQEND
  0
LINE
  8
0
 62
7
  6
CONTINUOUS
 10
164.8173546262
 20
121.4573971865
 11
166.2455956735
 21
116.3307186093
  0
LINE
  8
0
 62
7
  6
CONTINUOUS
 10
166.7240361354
 20
105.4072540399
 11
166.7265361354
 21
105.3961331209
  0
LINE
  8
0
 62
7
  6
CONTINUOUS
 10
166.0610241131
 20
137.3451726705
 11
166.0765361354
 21
137.1988917677
  0
POLYLINE
  8
0
 62
7
  6
CONTINUOUS
 66
1
 70
0
  0
VERTEX
  8
0
 62
7
  6
CONTINUOUS
 10
166.3266777007
 20
106.4005896037
  0
VERTEX
  8
0
 62
7
  6
CONTINUOUS
 10
166.328056523
 20
106.2189479359
  0
VERTEX
  8
0
 62
7
  6
CONTINUOUS
 10
166.3324668652
 20
106.0644019429
  0
VERTEX
  8
0
 62
7
  6
CONTINUOUS
 10
166.3448520583
 20
105.9270206284
  0
VERTEX
  8
0
 62
7
  6
CONTINUOUS
 10
166.3731441459
 20
105.8067240024
  0
VERTEX
  8
0
 62
7
  6
CONTINUOUS
 10
166.423422896
 20
105.7022216126
  0
VERTEX
  8
0
 62
7
  6
CONTINUOUS
 10
166.4571314363
 20
105.65553749
  0
VERTEX
  8
0
 62
7
  6
CONTINUOUS
 10
166.532626239
 20
105.5783029277
  0
VERTEX
  8
0
 62
7
  6
CONTINUOUS
 10
166.600777408
 20
105.5245521035
  0
VERTEX
  8
0
 62
7
  6
CONTINUOUS
 10
166.6557319366
 20
105.4845590896
  0
VERTEX
  8
0
 62
7
  6
CONTINUOUS
 10
166.6961017022
 20
105.450951772
  0
VERTEX
  8
0
 62
7
  6
CONTINUOUS
 10
166.7190822694
 20
105.4209834452
  0
VERTEX
  8
0
 62
7
  6
CONTINUOUS
 10
166.7240361354
 20
105.4072540399
  0
SEQEND
  0
LINE
  8
0
 62
7
  6
CONTINUOUS
 10
166.0740361354
 20
137.2224671758
 11
166.0740361354
 21
138.0936683273
  0
LINE
  8
0
 62
7
  6
CONTINUOUS
 10
166.0765361354
 20
127.85706966
 11
166.0765361354
 21
137.1988917677
  0
LINE
  8
0
 62
7
  6
CONTINUOUS
 10
166.3240361354
 20
112.1405325734
 11
166.3240361354
 21
104.5375520622
  0
LINE
  8
0
 62
7
  6
CONTINUOUS
 10
166.3265361354
 20
114.79992644
 11
166.3266777007
 21
106.4005896037
  0
POLYLINE
  8
0
 62
7
  6
CONTINUOUS
 66
1
 70
0
  0
VERTEX
  8
0
 62
7
  6
CONTINUOUS
 10
166.3459782945
 20
115.2825520971
  0
VERTEX
  8
0
 62
7
  6
CONTINUOUS
 10
166.3502671489
 20
115.7056474737
  0
VERTEX
  8
0
 62
7
  6
CONTINUOUS
 10
166.3300959341
 20
115.9163280739
  0
VERTEX
  8
0
 62
7
  6
CONTINUOUS
 10
166.2455956735
 20
116.3307186093
  0
SEQEND
  0
LINE
  8
0
 62
7
  6
CONTINUOUS
 10
166.3265361354
 20
114.79992644
 11
166.3459782945
 21
115.2825520971
  0
POLYLINE
  8
0
 62
7
  6
CONTINUOUS
 66
1
 70
0
  0
VERTEX
  8
0
 62
7
  6
CONTINUOUS
 10
162.9015361354
 20
105.4323286217
  0
VERTEX
  8
0
 62
7
  6
CONTINUOUS
 10
162.8860132337
 20
105.2859980059
  0
VERTEX
  8
0
 62
7
  6
CONTINUOUS
 10
162.8440048981
 20
105.1608199414
  0
VERTEX
  8
0
 62
7
  6
CONTINUOUS
 10
162.7823570193
 20
105.0607679722
  0
VERTEX
  8
0
 62
7
  6
CONTINUOUS
 10
162.7465436887
 20
105.0210206499
  0
VERTEX
  8
0
 62
7
  6
CONTINUOUS
 10
162.6688815381
 20
104.9615903798
  0
VERTEX
  8
0
 62
7
  6
CONTINUOUS
 10
162.5862166965
 20
104.9269502482
  0
VERTEX
  8
0
 62
7
  6
CONTINUOUS
 10
162.5015360975
 20
104.9156150773
  0
SEQEND
  0
LINE
  8
0
 62
7
  6
CONTINUOUS
 10
169.9015361354
 20
137.2350872686
 11
169.8990361354
 21
137.2239663495
  0
LINE
  8
0
 62
7
  6
CONTINUOUS
 10
163.0117077308
 20
116.0157676973
 11
164.5284001375
 21
121.4568267555
  0
POLYLINE
  8
0
 62
7
  6
CONTINUOUS
 66
1
 70
0
  0
VERTEX
  8
0
 62
7
  6
CONTINUOUS
 10
112.7189731663
 20
138.4925369998
  0
VERTEX
  8
0
 62
7
  6
CONTINUOUS
 10
112.6656572584
 20
138.4848817765
  0
VERTEX
  8
0
 62
7
  6
CONTINUOUS
 10
112.5637860882
 20
138.4481854919
  0
VERTEX
  8
0
 62
7
  6
CONTINUOUS
 10
112.474942322
 20
138.3849973191
  0
VERTEX
  8
0
 62
7
  6
CONTINUOUS
 10
112.4065111683
 20
138.300251596
  0
VERTEX
  8
0
 62
7
  6
CONTINUOUS
 10
112.3634689644
 20
138.2001481688
  0
VERTEX
  8
0
 62
7
  6
CONTINUOUS
 10
112.3490361354
 20
138.0936683273
  0
SEQEND
  0
POLYLINE
  8
0
 62
7
  6
CONTINUOUS
 66
1
 70
0
  0
VERTEX
  8
0
 62
7
  6
CONTINUOUS
 10
178.4040991046
 20
138.4925369998
  0
VERTEX
  8
0
 62
7
  6
CONTINUOUS
 10
178.4574150125
 20
138.4848817765
  0
VERTEX
  8
0
 62
7
  6
CONTINUOUS
 10
178.5592861827
 20
138.4481854919
  0
VERTEX
  8
0
 62
7
  6
CONTINUOUS
 10
178.6481299488
 20
138.3849973191
  0
VERTEX
  8
0
 62
7
  6
CONTINUOUS
 10
178.7165611026
 20
138.300251596
  0
VERTEX
  8
0
 62
7
  6
CONTINUOUS
 10
178.7596033064
 20
138.2001481688
  0
VERTEX
  8
0
 62
7
  6
CONTINUOUS
 10
178.7740361354
 20
138.0936683273
  0
SEQEND
  0
POLYLINE
  8
0
 62
7
  6
CONTINUOUS
 66
1
 70
0
  0
VERTEX
  8
0
 62
7
  6
CONTINUOUS
 10
167.7047649717
 20
121.6008995936
  0
VERTEX
  8
0
 62
7
  6
CONTINUOUS
 10
167.7263804747
 20
121.5548511829
  0
VERTEX
  8
0
 62
7
  6
CONTINUOUS
 10
167.7612772202
 20
121.5185134461
  0
VERTEX
  8
0
 62
7
  6
CONTINUOUS
 10
167.8043646368
 20
121.4954339991
  0
VERTEX
  8
0
 62
7
  6
CONTINUOUS
 10
167.85071185
 20
121.4881004857
  0
VERTEX
  8
0
 62
7
  6
CONTINUOUS
 10
167.8967230604
 20
121.4971498644
  0
VERTEX
  8
0
 62
7
  6
CONTINUOUS
 10
167.93951315
 20
121.5212209507
  0
VERTEX
  8
0
 62
7
  6
CONTINUOUS
 10
167.9731573081
 20
121.557095088
  0
VERTEX
  8
0
 62
7
  6
CONTINUOUS
 10
167.9937194604
 20
121.6014700246
  0
SEQEND
  0
LINE
  8
0
 62
7
  6
CONTINUOUS
 10
167.7047649717
 20
121.6008995936
 11
166.1868644196
 21
127.0494114199
  0
POLYLINE
  8
0
 62
7
  6
CONTINUOUS
 66
1
 70
0
  0
VERTEX
  8
0
 62
7
  6
CONTINUOUS
 10
166.1868644196
 20
127.0494114199
  0
VERTEX
  8
0
 62
7
  6
CONTINUOUS
 10
166.1042744136
 20
127.449193824
  0
VERTEX
  8
0
 62
7
  6
CONTINUOUS
 10
166.0765361354
 20
127.85706966
  0
SEQEND
  0
POLYLINE
  8
0
 62
7
  6
CONTINUOUS
 66
1
 70
0
  0
VERTEX
  8
0
 62
7
  6
CONTINUOUS
 10
166.0941316734
 20
130.2924851206
  0
VERTEX
  8
0
 62
7
  6
CONTINUOUS
 10
166.0757111698
 20
130.4320719106
  0
VERTEX
  8
0
 62
7
  6
CONTINUOUS
 10
166.0765361354
 20
130.4192063392
  0
SEQEND
  0
LINE
  8
0
 62
7
  6
CONTINUOUS
 10
169.2490361354
 20
105.4087617304
 11
169.2490361354
 21
104.5375520622
  0
LINE
  8
0
 62
7
  6
CONTINUOUS
 10
169.2515361354
 20
105.4323286217
 11
169.2515361354
 21
115.2102294971
  0
LINE
  8
0
 62
7
  6
CONTINUOUS
 10
169.4990361354
 20
130.4906878352
 11
169.4990361354
 21
138.0936683273
  0
POLYLINE
  8
0
 62
7
  6
CONTINUOUS
 66
1
 70
0
  0
VERTEX
  8
0
 62
7
  6
CONTINUOUS
 10
169.4990361905
 20
130.4907084244
  0
VERTEX
  8
0
 62
7
  6
CONTINUOUS
 10
169.4973611013
 20
130.4320719128
  0
VERTEX
  8
0
 62
7
  6
CONTINUOUS
 10
169.4789405979
 20
130.2924851224
  0
VERTEX
  8
0
 62
7
  6
CONTINUOUS
 10
169.4414263788
 20
130.1661545656
  0
VERTEX
  8
0
 62
7
  6
CONTINUOUS
 10
169.3875286275
 20
130.0582782091
  0
VERTEX
  8
0
 62
7
  6
CONTINUOUS
 10
169.3556957343
 20
130.012674933
  0
VERTEX
  8
0
 62
7
  6
CONTINUOUS
 10
169.2846266208
 20
129.93938758
  0
VERTEX
  8
0
 62
7
  6
CONTINUOUS
 10
169.2067714481
 20
129.8912154671
  0
VERTEX
  8
0
 62
7
  6
CONTINUOUS
 10
169.1276513005
 20
129.8694686076
  0
VERTEX
  8
0
 62
7
  6
CONTINUOUS
 10
169.0990361318
 20
129.8678389544
  0
SEQEND
  0
LINE
  8
0
 62
7
  6
CONTINUOUS
 10
169.2515361354
 20
112.2120139517
 11
169.2507111624
 21
112.1991482399
  0
LINE
  8
0
 62
7
  6
CONTINUOUS
 10
169.39136454
 20
126.6154526922
 11
167.9937194604
 21
121.6014700246
  0
POLYLINE
  8
0
 62
7
  6
CONTINUOUS
 66
1
 70
0
  0
VERTEX
  8
0
 62
7
  6
CONTINUOUS
 10
176.2490361354
 20
137.2239663495
  0
VERTEX
  8
0
 62
7
  6
CONTINUOUS
 10
176.2444592582
 20
137.2110092465
  0
VERTEX
  8
0
 62
7
  6
CONTINUOUS
 10
176.2233363939
 20
137.1825108893
  0
VERTEX
  8
0
 62
7
  6
CONTINUOUS
 10
176.1866702441
 20
137.1511460923
  0
VERTEX
  8
0
 62
7
  6
CONTINUOUS
 10
176.1363014346
 20
137.1143387456
  0
VERTEX
  8
0
 62
7
  6
CONTINUOUS
 10
176.0729211886
 20
137.0658517583
  0
VERTEX
  8
0
 62
7
  6
CONTINUOUS
 10
175.9990989521
 20
136.9956028245
  0
VERTEX
  8
0
 62
7
  6
CONTINUOUS
 10
175.9627620475
 20
136.9502425044
  0
VERTEX
  8
0
 62
7
  6
CONTINUOUS
 10
175.9054891558
 20
136.8444530293
  0
VERTEX
  8
0
 62
7
  6
CONTINUOUS
 10
175.8734434746
 20
136.7265729481
  0
VERTEX
  8
0
 62
7
  6
CONTINUOUS
 10
175.8583362354
 20
136.5832226129
  0
VERTEX
  8
0
 62
7
  6
CONTINUOUS
 10
175.8532013293
 20
136.4218179854
  0
VERTEX
  8
0
 62
7
  6
CONTINUOUS
 10
175.851688308
 20
136.2342165013
  0
VERTEX
  8
0
 62
7
  6
CONTINUOUS
 10
175.8515361354
 20
127.4209908924
  0
SEQEND
  0
POLYLINE
  8
0
 62
7
  6
CONTINUOUS
 66
1
 70
0
  0
VERTEX
  8
0
 62
7
  6
CONTINUOUS
 10
171.1673546262
 20
121.4573971865
  0
VERTEX
  8
0
 62
7
  6
CONTINUOUS
 10
171.1457391231
 20
121.5034455972
  0
VERTEX
  8
0
 62
7
  6
CONTINUOUS
 10
171.1108423776
 20
121.539783334
  0
VERTEX
  8
0
 62
7
  6
CONTINUOUS
 10
171.0677549611
 20
121.562862781
  0
VERTEX
  8
0
 62
7
  6
CONTINUOUS
 10
171.0214077479
 20
121.5701962944
  0
VERTEX
  8
0
 62
7
  6
CONTINUOUS
 10
170.9753965374
 20
121.5611469157
  0
VERTEX
  8
0
 62
7
  6
CONTINUOUS
 10
170.9326064479
 20
121.5370758295
  0
VERTEX
  8
0
 62
7
  6
CONTINUOUS
 10
170.8989622898
 20
121.5012016921
  0
VERTEX
  8
0
 62
7
  6
CONTINUOUS
 10
170.8784001375
 20
121.4568267555
  0
SEQEND
  0
POLYLINE
  8
0
 62
7
  6
CONTINUOUS
 66
1
 70
0
  0
VERTEX
  8
0
 62
7
  6
CONTINUOUS
 10
174.0547649717
 20
121.6008995936
  0
VERTEX
  8
0
 62
7
  6
CONTINUOUS
 10
174.0763804748
 20
121.5548511829
  0
VERTEX
  8
0
 62
7
  6
CONTINUOUS
 10
174.1112772203
 20
121.518513446
  0
VERTEX
  8
0
 62
7
  6
CONTINUOUS
 10
174.1543646369
 20
121.4954339991
  0
VERTEX
  8
0
 62
7
  6
CONTINUOUS
 10
174.2007118502
 20
121.4881004857
  0
VERTEX
  8
0
 62
7
  6
CONTINUOUS
 10
174.2467230607
 20
121.4971498645
  0
VERTEX
  8
0
 62
7
  6
CONTINUOUS
 10
174.2895131501
 20
121.5212209507
  0
VERTEX
  8
0
 62
7
  6
CONTINUOUS
 10
174.3231573081
 20
121.5570950881
  0
VERTEX
  8
0
 62
7
  6
CONTINUOUS
 10
174.3437194604
 20
121.6014700246
  0
SEQEND
  0
LINE
  8
0
 62
7
  6
CONTINUOUS
 10
171.1673546262
 20
121.4573971865
 11
172.5955956735
 21
116.3307186093
  0
LINE
  8
0
 62
7
  6
CONTINUOUS
 10
171.6740361354
 20
130.2728395583
 11
171.6740361354
 21
138.1156095191
  0
LINE
  8
0
 62
7
  6
CONTINUOUS
 10
172.4265361354
 20
127.85706966
 11
172.4265361354
 21
129.5178436974
  0
LINE
  8
0
 62
7
  6
CONTINUOUS
 10
172.6765361354
 20
114.79992644
 11
172.6765361354
 21
113.1133447278
  0
LINE
  8
0
 62
7
  6
CONTINUOUS
 10
173.4240361354
 20
104.5156108704
 11
173.4240361354
 21
112.3583819804
  0
POLYLINE
  8
0
 62
7
  6
CONTINUOUS
 66
1
 70
0
  0
VERTEX
  8
0
 62
7
  6
CONTINUOUS
 10
172.6959782945
 20
115.2825520971
  0
VERTEX
  8
0
 62
7
  6
CONTINUOUS
 10
172.7002671489
 20
115.7056474737
  0
VERTEX
  8
0
 62
7
  6
CONTINUOUS
 10
172.6800959341
 20
115.9163280739
  0
VERTEX
  8
0
 62
7
  6
CONTINUOUS
 10
172.5955956735
 20
116.3307186093
  0
SEQEND
  0
LINE
  8
0
 62
7
  6
CONTINUOUS
 10
172.6765361354
 20
114.79992644
 11
172.6959782945
 21
115.2825520971
  0
POLYLINE
  8
0
 62
7
  6
CONTINUOUS
 66
1
 70
0
  0
VERTEX
  8
0
 62
7
  6
CONTINUOUS
 10
169.2515361354
 20
105.4323286217
  0
VERTEX
  8
0
 62
7
  6
CONTINUOUS
 10
169.2360132337
 20
105.2859980059
  0
VERTEX
  8
0
 62
7
  6
CONTINUOUS
 10
169.1940048981
 20
105.1608199414
  0
VERTEX
  8
0
 62
7
  6
CONTINUOUS
 10
169.1323570193
 20
105.0607679722
  0
VERTEX
  8
0
 62
7
  6
CONTINUOUS
 10
169.0965436887
 20
105.0210206499
  0
VERTEX
  8
0
 62
7
  6
CONTINUOUS
 10
169.0188815381
 20
104.9615903798
  0
VERTEX
  8
0
 62
7
  6
CONTINUOUS
 10
168.9362166965
 20
104.9269502482
  0
VERTEX
  8
0
 62
7
  6
CONTINUOUS
 10
168.8515360975
 20
104.9156150773
  0
SEQEND
  0
POLYLINE
  8
0
 62
7
  6
CONTINUOUS
 66
1
 70
0
  0
VERTEX
  8
0
 62
7
  6
CONTINUOUS
 10
169.2507111624
 20
112.1991482399
  0
VERTEX
  8
0
 62
7
  6
CONTINUOUS
 10
169.2691316273
 20
112.3387349588
  0
VERTEX
  8
0
 62
7
  6
CONTINUOUS
 10
169.3066458347
 20
112.4650656877
  0
VERTEX
  8
0
 62
7
  6
CONTINUOUS
 10
169.3605435712
 20
112.5729420783
  0
VERTEX
  8
0
 62
7
  6
CONTINUOUS
 10
169.3923765059
 20
112.6185454092
  0
VERTEX
  8
0
 62
7
  6
CONTINUOUS
 10
169.4634455557
 20
112.6918327378
  0
VERTEX
  8
0
 62
7
  6
CONTINUOUS
 10
169.541300681
 20
112.7400048753
  0
VERTEX
  8
0
 62
7
  6
CONTINUOUS
 10
169.6204205964
 20
112.7617517355
  0
VERTEX
  8
0
 62
7
  6
CONTINUOUS
 10
169.6490361361
 20
112.7633814504
  0
SEQEND
  0
LINE
  8
0
 62
7
  6
CONTINUOUS
 10
176.2515361354
 20
137.2350872686
 11
176.2490361354
 21
137.2239663495
  0
LINE
  8
0
 62
7
  6
CONTINUOUS
 10
169.3617077308
 20
116.0157676973
 11
170.8784001375
 21
121.4568267555
  0
LINE
  8
0
 62
7
  6
CONTINUOUS
 10
178.9700950943
 20
112.4555226939
 11
178.9678351514
 21
112.4614508108
  0
LINE
  8
0
 62
7
  6
CONTINUOUS
 10
174.0547649717
 20
121.6008995936
 11
172.5368644196
 21
127.0494114199
  0
POLYLINE
  8
0
 62
7
  6
CONTINUOUS
 66
1
 70
0
  0
VERTEX
  8
0
 62
7
  6
CONTINUOUS
 10
172.5368644196
 20
127.0494114199
  0
VERTEX
  8
0
 62
7
  6
CONTINUOUS
 10
172.4542744136
 20
127.449193824
  0
VERTEX
  8
0
 62
7
  6
CONTINUOUS
 10
172.4265361354
 20
127.85706966
  0
SEQEND
  0
LINE
  8
0
 62
7
  6
CONTINUOUS
 10
175.5990361354
 20
105.4087617304
 11
175.5990361354
 21
104.5375520622
  0
LINE
  8
0
 62
7
  6
CONTINUOUS
 10
175.6015361354
 20
105.4323286217
 11
175.6015361354
 21
115.2102294971
  0
LINE
  8
0
 62
7
  6
CONTINUOUS
 10
175.8490361354
 20
130.4906878352
 11
175.8490361354
 21
138.0936683273
  0
POLYLINE
  8
0
 62
7
  6
CONTINUOUS
 66
1
 70
0
  0
VERTEX
  8
0
 62
7
  6
CONTINUOUS
 10
175.8490361905
 20
130.4907084244
  0
VERTEX
  8
0
 62
7
  6
CONTINUOUS
 10
175.8473611013
 20
130.4320719128
  0
VERTEX
  8
0
 62
7
  6
CONTINUOUS
 10
175.8289405979
 20
130.2924851224
  0
VERTEX
  8
0
 62
7
  6
CONTINUOUS
 10
175.7914263788
 20
130.1661545656
  0
VERTEX
  8
0
 62
7
  6
CONTINUOUS
 10
175.7375286275
 20
130.0582782091
  0
VERTEX
  8
0
 62
7
  6
CONTINUOUS
 10
175.7056957343
 20
130.012674933
  0
VERTEX
  8
0
 62
7
  6
CONTINUOUS
 10
175.6346266208
 20
129.93938758
  0
VERTEX
  8
0
 62
7
  6
CONTINUOUS
 10
175.5567714481
 20
129.8912154671
  0
VERTEX
  8
0
 62
7
  6
CONTINUOUS
 10
175.4776513005
 20
129.8694686076
  0
VERTEX
  8
0
 62
7
  6
CONTINUOUS
 10
175.4490361318
 20
129.8678389544
  0
SEQEND
  0
LINE
  8
0
 62
7
  6
CONTINUOUS
 10
175.6015361354
 20
112.2120139517
 11
175.6007111624
 21
112.1991482399
  0
LINE
  8
0
 62
7
  6
CONTINUOUS
 10
175.74136454
 20
126.6154526922
 11
174.3437194604
 21
121.6014700246
  0
POLYLINE
  8
0
 62
7
  6
CONTINUOUS
 66
1
 70
0
  0
VERTEX
  8
0
 62
7
  6
CONTINUOUS
 10
178.9701260538
 20
112.4554390802
  0
VERTEX
  8
0
 62
7
  6
CONTINUOUS
 10
178.991758589
 20
112.3890511206
  0
VERTEX
  8
0
 62
7
  6
CONTINUOUS
 10
179.0202139893
 20
112.2321849572
  0
SEQEND
  0
POLYLINE
  8
0
 62
7
  6
CONTINUOUS
 66
1
 70
0
  0
VERTEX
  8
0
 62
7
  6
CONTINUOUS
 10
179.0202150545
 20
112.2321849452
  0
VERTEX
  8
0
 62
7
  6
CONTINUOUS
 10
179.0220356674
 20
112.2092306149
  0
VERTEX
  8
0
 62
7
  6
CONTINUOUS
 10
179.0237348583
 20
112.1719867597
  0
VERTEX
  8
0
 62
7
  6
CONTINUOUS
 10
179.0240361504
 20
112.1480938027
  0
SEQEND
  0
LINE
  8
0
 62
7
  6
CONTINUOUS
 10
178.7740361354
 20
137.2224671758
 11
178.7740361354
 21
138.0936683273
  0
LINE
  8
0
 62
7
  6
CONTINUOUS
 10
178.7765361354
 20
130.1973021601
 11
178.7765361354
 21
137.1988917677
  0
LINE
  8
0
 62
7
  6
CONTINUOUS
 10
179.0240361354
 20
104.5375520622
 11
179.0240361354
 21
112.2321849572
  0
POLYLINE
  8
0
 62
7
  6
CONTINUOUS
 66
1
 70
0
  0
VERTEX
  8
0
 62
7
  6
CONTINUOUS
 10
178.4003149087
 20
127.0694925394
  0
VERTEX
  8
0
 62
7
  6
CONTINUOUS
 10
178.3963216256
 20
126.940130377
  0
VERTEX
  8
0
 62
7
  6
CONTINUOUS
 10
178.3850738733
 20
126.8108068275
  0
VERTEX
  8
0
 62
7
  6
CONTINUOUS
 10
178.3720009009
 20
126.6812620394
  0
SEQEND
  0
POLYLINE
  8
0
 62
7
  6
CONTINUOUS
 66
1
 70
0
  0
VERTEX
  8
0
 62
7
  6
CONTINUOUS
 10
178.7765361354
 20
130.1973021601
  0
VERTEX
  8
0
 62
7
  6
CONTINUOUS
 10
178.7750128337
 20
130.1610617766
  0
VERTEX
  8
0
 62
7
  6
CONTINUOUS
 10
178.7635803624
 20
130.1051594561
  0
VERTEX
  8
0
 62
7
  6
CONTINUOUS
 10
178.7546612099
 20
130.0835308544
  0
VERTEX
  8
0
 62
7
  6
CONTINUOUS
 10
178.7328742925
 20
130.0492877696
  0
VERTEX
  8
0
 62
7
  6
CONTINUOUS
 10
178.7208410964
 20
130.0359842044
  0
SEQEND
  0
POLYLINE
  8
0
 62
7
  6
CONTINUOUS
 66
1
 70
0
  0
VERTEX
  8
0
 62
7
  6
CONTINUOUS
 10
175.6015361354
 20
105.4323286217
  0
VERTEX
  8
0
 62
7
  6
CONTINUOUS
 10
175.5860132337
 20
105.2859980059
  0
VERTEX
  8
0
 62
7
  6
CONTINUOUS
 10
175.5440048981
 20
105.1608199414
  0
VERTEX
  8
0
 62
7
  6
CONTINUOUS
 10
175.4823570193
 20
105.0607679722
  0
VERTEX
  8
0
 62
7
  6
CONTINUOUS
 10
175.4465436887
 20
105.0210206499
  0
VERTEX
  8
0
 62
7
  6
CONTINUOUS
 10
175.3688815381
 20
104.9615903798
  0
VERTEX
  8
0
 62
7
  6
CONTINUOUS
 10
175.2862166965
 20
104.9269502482
  0
VERTEX
  8
0
 62
7
  6
CONTINUOUS
 10
175.2015360975
 20
104.9156150773
  0
SEQEND
  0
POLYLINE
  8
0
 62
7
  6
CONTINUOUS
 66
1
 70
0
  0
VERTEX
  8
0
 62
7
  6
CONTINUOUS
 10
175.6007111624
 20
112.1991482399
  0
VERTEX
  8
0
 62
7
  6
CONTINUOUS
 10
175.6191316273
 20
112.3387349588
  0
VERTEX
  8
0
 62
7
  6
CONTINUOUS
 10
175.6566458347
 20
112.4650656877
  0
VERTEX
  8
0
 62
7
  6
CONTINUOUS
 10
175.7105435712
 20
112.5729420783
  0
VERTEX
  8
0
 62
7
  6
CONTINUOUS
 10
175.7423765059
 20
112.6185454092
  0
VERTEX
  8
0
 62
7
  6
CONTINUOUS
 10
175.8134455557
 20
112.6918327378
  0
VERTEX
  8
0
 62
7
  6
CONTINUOUS
 10
175.891300681
 20
112.7400048753
  0
VERTEX
  8
0
 62
7
  6
CONTINUOUS
 10
175.9704205964
 20
112.7617517355
  0
VERTEX
  8
0
 62
7
  6
CONTINUOUS
 10
175.9990361361
 20
112.7633814504
  0
SEQEND
  0
POLYLINE
  8
0
 62
7
  6
CONTINUOUS
 66
1
 70
0
  0
VERTEX
  8
0
 62
7
  6
CONTINUOUS
 10
178.3720009009
 20
126.6812620394
  0
VERTEX
  8
0
 62
7
  6
CONTINUOUS
 10
178.2605924084
 20
125.9435748653
  0
VERTEX
  8
0
 62
7
  6
CONTINUOUS
 10
178.1022026356
 20
125.1357566611
  0
VERTEX
  8
0
 62
7
  6
CONTINUOUS
 10
177.9141212405
 20
124.2772047474
  0
VERTEX
  8
0
 62
7
  6
CONTINUOUS
 10
177.8064543977
 20
123.8121462952
  0
VERTEX
  8
0
 62
7
  6
CONTINUOUS
 10
177.5497641507
 20
122.7536265561
  0
VERTEX
  8
0
 62
7
  6
CONTINUOUS
 10
177.2236106881
 20
121.4816072031
  0
VERTEX
  8
0
 62
7
  6
CONTINUOUS
 10
176.8149570681
 20
119.9736200643
  0
SEQEND
  0
LINE
  8
0
 62
7
  6
CONTINUOUS
 10
178.3890623718
 20
125.6205472138
 11
178.405961865
 21
125.6812709902
  0
LINE
  8
0
 62
7
  6
CONTINUOUS
 10
175.7117077308
 20
116.0157676973
 11
176.8149570681
 21
119.9736200643
  0
LINE
  8
0
 62
7
  6
CONTINUOUS
 10
178.7937763476
 20
130.2941740506
 11
178.776171763
 21
130.4296242355
  0
LINE
  8
0
 62
7
  6
CONTINUOUS
 10
178.7610241131
 20
137.3451726705
 11
178.7765361354
 21
137.1988917677
  0
LINE
  8
0
 62
7
  6
CONTINUOUS
 10
181.8890361354
 20
129.4069890231
 11
181.8890361354
 21
104.4156136257
  0
LINE
  8
0
 62
7
  6
CONTINUOUS
 10
106.0590361354
 20
213.4098770492
 11
106.0590361354
 21
220.4433421759
  0
LINE
  8
0
 62
7
  6
CONTINUOUS
 10
107.5590361354
 20
213.1098770492
 11
107.5590361354
 21
217.1612997103
  0
LINE
  8
0
 62
7
  6
CONTINUOUS
 10
109.1715361354
 20
220.8872201761
 11
109.1715361354
 21
219.5098770492
  0
LINE
  8
0
 62
7
  6
CONTINUOUS
 10
109.1740361354
 20
214.5067408416
 11
109.1740361354
 21
219.5098770489
  0
LINE
  8
0
 62
7
  6
CONTINUOUS
 10
109.5240361354
 20
216.8453019181
 11
109.5240361354
 21
213.5098770492
  0
LINE
  8
0
 62
7
  6
CONTINUOUS
 10
112.0990361354
 20
220.7098770492
 11
112.0965361354
 21
220.7545284769
  0
LINE
  8
0
 62
7
  6
CONTINUOUS
 10
111.7490361354
 20
216.8453019181
 11
111.7490361354
 21
213.5098770492
  0
LINE
  8
0
 62
7
  6
CONTINUOUS
 10
112.0990361354
 20
214.5067408416
 11
112.0990361354
 21
220.7098770492
  0
LINE
  8
0
 62
7
  6
CONTINUOUS
 10
113.3990361354
 20
213.1100821453
 11
113.3990361354
 21
217.8034696461
  0
LINE
  8
0
 62
7
  6
CONTINUOUS
 10
111.6965361354
 20
220.0432103825
 11
111.6990361354
 21
220.0534814619
  0
POLYLINE
  8
0
 62
7
  6
CONTINUOUS
 66
1
 70
0
  0
VERTEX
  8
0
 62
7
  6
CONTINUOUS
 10
111.6990361354
 20
220.0534814619
  0
VERTEX
  8
0
 62
7
  6
CONTINUOUS
 10
111.7036130127
 20
220.0653151669
  0
VERTEX
  8
0
 62
7
  6
CONTINUOUS
 10
111.724735877
 20
220.0899827136
  0
VERTEX
  8
0
 62
7
  6
CONTINUOUS
 10
111.7614020268
 20
220.1123493841
  0
VERTEX
  8
0
 62
7
  6
CONTINUOUS
 10
111.8117708363
 20
220.1293393258
  0
VERTEX
  8
0
 62
7
  6
CONTINUOUS
 10
111.8751510823
 20
220.1382560545
  0
VERTEX
  8
0
 62
7
  6
CONTINUOUS
 10
111.9489733188
 20
220.1357206141
  0
VERTEX
  8
0
 62
7
  6
CONTINUOUS
 10
111.9853102234
 20
220.130153669
  0
VERTEX
  8
0
 62
7
  6
CONTINUOUS
 10
112.0425831151
 20
220.1187965432
  0
VERTEX
  8
0
 62
7
  6
CONTINUOUS
 10
112.0746287963
 20
220.1233799089
  0
VERTEX
  8
0
 62
7
  6
CONTINUOUS
 10
112.0897360355
 20
220.1610660867
  0
VERTEX
  8
0
 62
7
  6
CONTINUOUS
 10
112.0948709416
 20
220.2314506929
  0
VERTEX
  8
0
 62
7
  6
CONTINUOUS
 10
112.0963839629
 20
220.3254027648
  0
VERTEX
  8
0
 62
7
  6
CONTINUOUS
 10
112.0965361354
 20
221.1098770491
  0
SEQEND
  0
LINE
  8
0
 62
7
  6
CONTINUOUS
 10
115.5215361354
 20
221.1098770491
 11
115.5215361354
 21
221.1067384919
  0
LINE
  8
0
 62
7
  6
CONTINUOUS
 10
116.2740361354
 20
221.1598770491
 11
116.2740361354
 21
213.5098770492
  0
LINE
  8
0
 62
7
  6
CONTINUOUS
 10
118.4490361354
 20
220.7098770492
 11
118.4465361354
 21
220.7545284769
  0
LINE
  8
0
 62
7
  6
CONTINUOUS
 10
118.0990361354
 20
216.8453019181
 11
118.0990361354
 21
213.5098770492
  0
LINE
  8
0
 62
7
  6
CONTINUOUS
 10
118.4490361354
 20
214.5067408416
 11
118.4490361354
 21
220.7098770492
  0
LINE
  8
0
 62
7
  6
CONTINUOUS
 10
118.0465361354
 20
220.0432103825
 11
118.0490361354
 21
220.0534814619
  0
POLYLINE
  8
0
 62
7
  6
CONTINUOUS
 66
1
 70
0
  0
VERTEX
  8
0
 62
7
  6
CONTINUOUS
 10
118.0490361354
 20
220.0534814619
  0
VERTEX
  8
0
 62
7
  6
CONTINUOUS
 10
118.0536130127
 20
220.0653151669
  0
VERTEX
  8
0
 62
7
  6
CONTINUOUS
 10
118.074735877
 20
220.0899827136
  0
VERTEX
  8
0
 62
7
  6
CONTINUOUS
 10
118.1114020269
 20
220.1123493841
  0
VERTEX
  8
0
 62
7
  6
CONTINUOUS
 10
118.1617708364
 20
220.1293393259
  0
VERTEX
  8
0
 62
7
  6
CONTINUOUS
 10
118.2251510824
 20
220.1382560545
  0
VERTEX
  8
0
 62
7
  6
CONTINUOUS
 10
118.2989733189
 20
220.1357206141
  0
VERTEX
  8
0
 62
7
  6
CONTINUOUS
 10
118.3353102235
 20
220.130153669
  0
VERTEX
  8
0
 62
7
  6
CONTINUOUS
 10
118.3925831152
 20
220.1187965432
  0
VERTEX
  8
0
 62
7
  6
CONTINUOUS
 10
118.4246287963
 20
220.1233799089
  0
VERTEX
  8
0
 62
7
  6
CONTINUOUS
 10
118.4397360355
 20
220.1610660867
  0
VERTEX
  8
0
 62
7
  6
CONTINUOUS
 10
118.4448709416
 20
220.231450693
  0
VERTEX
  8
0
 62
7
  6
CONTINUOUS
 10
118.4463839629
 20
220.3254027648
  0
VERTEX
  8
0
 62
7
  6
CONTINUOUS
 10
118.4465361354
 20
221.1098770491
  0
SEQEND
  0
LINE
  8
0
 62
7
  6
CONTINUOUS
 10
121.8715361354
 20
221.1098770491
 11
121.8715361354
 21
219.5098770492
  0
LINE
  8
0
 62
7
  6
CONTINUOUS
 10
121.8740361354
 20
214.5067408416
 11
121.8740361354
 21
219.5098770489
  0
LINE
  8
0
 62
7
  6
CONTINUOUS
 10
122.2240361354
 20
216.8453019181
 11
122.2240361354
 21
213.5098770492
  0
LINE
  8
0
 62
7
  6
CONTINUOUS
 10
124.4490361354
 20
216.8453019181
 11
124.4490361354
 21
213.5098770492
  0
LINE
  8
0
 62
7
  6
CONTINUOUS
 10
124.3965361354
 20
220.0432103825
 11
124.3990361354
 21
220.0534814619
  0
LINE
  8
0
 62
7
  6
CONTINUOUS
 10
115.870377195
 20
220.7098770492
 11
115.8690361354
 21
220.7118345036
  0
LINE
  8
0
 62
7
  6
CONTINUOUS
 10
124.7990361354
 20
220.7098770492
 11
124.7965361354
 21
220.7545284769
  0
LINE
  8
0
 62
7
  6
CONTINUOUS
 10
124.7990361354
 20
214.5067408416
 11
124.7990361354
 21
220.7098770492
  0
POLYLINE
  8
0
 62
7
  6
CONTINUOUS
 66
1
 70
0
  0
VERTEX
  8
0
 62
7
  6
CONTINUOUS
 10
124.3990361354
 20
220.0534814619
  0
VERTEX
  8
0
 62
7
  6
CONTINUOUS
 10
124.4036130127
 20
220.0653151669
  0
VERTEX
  8
0
 62
7
  6
CONTINUOUS
 10
124.424735877
 20
220.0899827136
  0
VERTEX
  8
0
 62
7
  6
CONTINUOUS
 10
124.4614020269
 20
220.1123493841
  0
VERTEX
  8
0
 62
7
  6
CONTINUOUS
 10
124.5117708364
 20
220.1293393259
  0
VERTEX
  8
0
 62
7
  6
CONTINUOUS
 10
124.5751510824
 20
220.1382560545
  0
VERTEX
  8
0
 62
7
  6
CONTINUOUS
 10
124.6489733189
 20
220.1357206141
  0
VERTEX
  8
0
 62
7
  6
CONTINUOUS
 10
124.6853102235
 20
220.130153669
  0
VERTEX
  8
0
 62
7
  6
CONTINUOUS
 10
124.7425831152
 20
220.1187965432
  0
VERTEX
  8
0
 62
7
  6
CONTINUOUS
 10
124.7746287963
 20
220.1233799089
  0
VERTEX
  8
0
 62
7
  6
CONTINUOUS
 10
124.7897360355
 20
220.1610660867
  0
VERTEX
  8
0
 62
7
  6
CONTINUOUS
 10
124.7948709416
 20
220.231450693
  0
VERTEX
  8
0
 62
7
  6
CONTINUOUS
 10
124.7963839629
 20
220.3254027648
  0
VERTEX
  8
0
 62
7
  6
CONTINUOUS
 10
124.7965361354
 20
221.1098770491
  0
SEQEND
  0
POLYLINE
  8
0
 62
7
  6
CONTINUOUS
 66
1
 70
0
  0
VERTEX
  8
0
 62
7
  6
CONTINUOUS
 10
115.8124036683
 20
220.773094992
  0
VERTEX
  8
0
 62
7
  6
CONTINUOUS
 10
115.699387259
 20
220.8946972411
  0
VERTEX
  8
0
 62
7
  6
CONTINUOUS
 10
115.6468764584
 20
220.952015772
  0
VERTEX
  8
0
 62
7
  6
CONTINUOUS
 10
115.5996156646
 20
221.0046687109
  0
VERTEX
  8
0
 62
7
  6
CONTINUOUS
 10
115.5601850129
 20
221.0503911069
  0
VERTEX
  8
0
 62
7
  6
CONTINUOUS
 10
115.5323246913
 20
221.0859619434
  0
VERTEX
  8
0
 62
7
  6
CONTINUOUS
 10
115.5215361354
 20
221.1067384919
  0
SEQEND
  0
LINE
  8
0
 62
7
  6
CONTINUOUS
 10
115.8690361354
 20
220.7118345036
 11
115.8124036683
 21
220.773094992
  0
LINE
  8
0
 62
7
  6
CONTINUOUS
 10
128.2215361354
 20
221.1098770491
 11
128.2215361354
 21
219.5098770492
  0
LINE
  8
0
 62
7
  6
CONTINUOUS
 10
128.2240361354
 20
214.5067408416
 11
128.2240361354
 21
219.5098770489
  0
LINE
  8
0
 62
7
  6
CONTINUOUS
 10
128.5740361354
 20
216.8453019181
 11
128.5740361354
 21
213.5098770492
  0
LINE
  8
0
 62
7
  6
CONTINUOUS
 10
131.1490361354
 20
220.7098770492
 11
131.1465361354
 21
220.7545284769
  0
LINE
  8
0
 62
7
  6
CONTINUOUS
 10
130.7990361354
 20
216.8453019181
 11
130.7990361354
 21
213.5098770492
  0
LINE
  8
0
 62
7
  6
CONTINUOUS
 10
131.1490361354
 20
214.5067408416
 11
131.1490361354
 21
220.7098770492
  0
LINE
  8
0
 62
7
  6
CONTINUOUS
 10
130.7465361354
 20
220.0432103825
 11
130.7490361354
 21
220.0534814619
  0
POLYLINE
  8
0
 62
7
  6
CONTINUOUS
 66
1
 70
0
  0
VERTEX
  8
0
 62
7
  6
CONTINUOUS
 10
130.7490361354
 20
220.0534814619
  0
VERTEX
  8
0
 62
7
  6
CONTINUOUS
 10
130.7536130127
 20
220.0653151669
  0
VERTEX
  8
0
 62
7
  6
CONTINUOUS
 10
130.774735877
 20
220.0899827136
  0
VERTEX
  8
0
 62
7
  6
CONTINUOUS
 10
130.8114020268
 20
220.1123493841
  0
VERTEX
  8
0
 62
7
  6
CONTINUOUS
 10
130.8617708363
 20
220.1293393258
  0
VERTEX
  8
0
 62
7
  6
CONTINUOUS
 10
130.9251510823
 20
220.1382560545
  0
VERTEX
  8
0
 62
7
  6
CONTINUOUS
 10
130.9989733188
 20
220.1357206141
  0
VERTEX
  8
0
 62
7
  6
CONTINUOUS
 10
131.0353102234
 20
220.130153669
  0
VERTEX
  8
0
 62
7
  6
CONTINUOUS
 10
131.0925831151
 20
220.1187965432
  0
VERTEX
  8
0
 62
7
  6
CONTINUOUS
 10
131.1246287963
 20
220.1233799088
  0
VERTEX
  8
0
 62
7
  6
CONTINUOUS
 10
131.1397360355
 20
220.1610660866
  0
VERTEX
  8
0
 62
7
  6
CONTINUOUS
 10
131.1448709416
 20
220.2314506929
  0
VERTEX
  8
0
 62
7
  6
CONTINUOUS
 10
131.1463839629
 20
220.3254027648
  0
VERTEX
  8
0
 62
7
  6
CONTINUOUS
 10
131.1465361354
 20
221.1098770491
  0
SEQEND
  0
LINE
  8
0
 62
7
  6
CONTINUOUS
 10
134.5715361354
 20
221.1098770491
 11
134.5715361354
 21
219.5098770492
  0
LINE
  8
0
 62
7
  6
CONTINUOUS
 10
134.5740361354
 20
214.5067408416
 11
134.5740361354
 21
219.5098770489
  0
LINE
  8
0
 62
7
  6
CONTINUOUS
 10
134.9240361354
 20
216.8453019181
 11
134.9240361354
 21
213.5098770492
  0
LINE
  8
0
 62
7
  6
CONTINUOUS
 10
137.4990361354
 20
220.7098770492
 11
137.4965361354
 21
220.7545284769
  0
LINE
  8
0
 62
7
  6
CONTINUOUS
 10
137.1490361354
 20
216.8453019181
 11
137.1490361354
 21
213.5098770492
  0
LINE
  8
0
 62
7
  6
CONTINUOUS
 10
137.4990361354
 20
214.5067408416
 11
137.4990361354
 21
220.7098770492
  0
LINE
  8
0
 62
7
  6
CONTINUOUS
 10
137.0965361354
 20
220.0432103825
 11
137.0990361354
 21
220.0534814619
  0
POLYLINE
  8
0
 62
7
  6
CONTINUOUS
 66
1
 70
0
  0
VERTEX
  8
0
 62
7
  6
CONTINUOUS
 10
137.0990361354
 20
220.0534814619
  0
VERTEX
  8
0
 62
7
  6
CONTINUOUS
 10
137.1036130127
 20
220.0653151669
  0
VERTEX
  8
0
 62
7
  6
CONTINUOUS
 10
137.124735877
 20
220.0899827136
  0
VERTEX
  8
0
 62
7
  6
CONTINUOUS
 10
137.1614020268
 20
220.112349384
  0
VERTEX
  8
0
 62
7
  6
CONTINUOUS
 10
137.2117708363
 20
220.1293393258
  0
VERTEX
  8
0
 62
7
  6
CONTINUOUS
 10
137.2751510822
 20
220.1382560545
  0
VERTEX
  8
0
 62
7
  6
CONTINUOUS
 10
137.3489733188
 20
220.1357206141
  0
VERTEX
  8
0
 62
7
  6
CONTINUOUS
 10
137.3853102233
 20
220.130153669
  0
VERTEX
  8
0
 62
7
  6
CONTINUOUS
 10
137.4425831151
 20
220.1187965432
  0
VERTEX
  8
0
 62
7
  6
CONTINUOUS
 10
137.4746287963
 20
220.1233799088
  0
VERTEX
  8
0
 62
7
  6
CONTINUOUS
 10
137.4897360355
 20
220.1610660866
  0
VERTEX
  8
0
 62
7
  6
CONTINUOUS
 10
137.4948709416
 20
220.2314506929
  0
VERTEX
  8
0
 62
7
  6
CONTINUOUS
 10
137.4963839629
 20
220.3254027648
  0
VERTEX
  8
0
 62
7
  6
CONTINUOUS
 10
137.4965361354
 20
221.1098770491
  0
SEQEND
  0
LINE
  8
0
 62
7
  6
CONTINUOUS
 10
140.9215361354
 20
221.1098770491
 11
140.9215361354
 21
219.5098770492
  0
LINE
  8
0
 62
7
  6
CONTINUOUS
 10
140.9240361354
 20
214.5067408416
 11
140.9240361354
 21
219.5098770489
  0
LINE
  8
0
 62
7
  6
CONTINUOUS
 10
141.2740361354
 20
216.8453019181
 11
141.2740361354
 21
213.5098770492
  0
LINE
  8
0
 62
7
  6
CONTINUOUS
 10
143.4465361354
 20
220.0432103826
 11
143.4490361354
 21
220.0534814619
  0
POLYLINE
  8
0
 62
7
  6
CONTINUOUS
 66
1
 70
0
  0
VERTEX
  8
0
 62
7
  6
CONTINUOUS
 10
143.4490361354
 20
220.0534814619
  0
VERTEX
  8
0
 62
7
  6
CONTINUOUS
 10
143.4536130126
 20
220.0653151668
  0
VERTEX
  8
0
 62
7
  6
CONTINUOUS
 10
143.4747358769
 20
220.0899827136
  0
VERTEX
  8
0
 62
7
  6
CONTINUOUS
 10
143.5114020267
 20
220.112349384
  0
VERTEX
  8
0
 62
7
  6
CONTINUOUS
 10
143.5617708361
 20
220.1293393258
  0
VERTEX
  8
0
 62
7
  6
CONTINUOUS
 10
143.6251510821
 20
220.1382560545
  0
VERTEX
  8
0
 62
7
  6
CONTINUOUS
 10
143.6989733185
 20
220.1357206141
  0
VERTEX
  8
0
 62
7
  6
CONTINUOUS
 10
143.7353102232
 20
220.1301536691
  0
VERTEX
  8
0
 62
7
  6
CONTINUOUS
 10
143.792583115
 20
220.1187965432
  0
VERTEX
  8
0
 62
7
  6
CONTINUOUS
 10
143.8246287963
 20
220.1233799088
  0
VERTEX
  8
0
 62
7
  6
CONTINUOUS
 10
143.8397360355
 20
220.1610660866
  0
VERTEX
  8
0
 62
7
  6
CONTINUOUS
 10
143.8448709416
 20
220.2314506928
  0
VERTEX
  8
0
 62
7
  6
CONTINUOUS
 10
143.8463839629
 20
220.3254027647
  0
VERTEX
  8
0
 62
7
  6
CONTINUOUS
 10
143.8465361354
 20
221.1098770491
  0
SEQEND
  0
LINE
  8
0
 62
7
  6
CONTINUOUS
 10
106.3590361354
 20
213.1098770492
 11
181.5890361354
 21
213.1098770492
  0
LINE
  8
0
 62
7
  6
CONTINUOUS
 10
143.8490361354
 20
220.7098770492
 11
143.8465361354
 21
220.7545284769
  0
LINE
  8
0
 62
7
  6
CONTINUOUS
 10
143.4990361354
 20
216.8453019181
 11
143.4990361354
 21
213.5098770492
  0
LINE
  8
0
 62
7
  6
CONTINUOUS
 10
143.8490361354
 20
214.5067408416
 11
143.8490361354
 21
220.7098770492
  0
LINE
  8
0
 62
7
  6
CONTINUOUS
 10
143.9740361354
 20
221.5098625506
 11
143.9740361354
 21
221.1098770492
  0
LINE
  8
DEFAULT_1
 62
2
  6
CENTER
 10
143.9740361354
 20
209.9798770492
 11
143.9740361354
 21
221.1098770492
  0
LINE
  8
DEFAULT_1
 62
2
  6
CENTER
 10
143.9740361354
 20
221.5098625506
 11
143.9740361354
 21
224.5098770492
  0
LINE
  8
DEFAULT_1
 62
2
  6
CENTER
 10
104.0590360518
 20
217.1098770492
 11
186.9717016531
 21
217.1098770492
  0
POLYLINE
  8
0
 62
7
  6
CONTINUOUS
 66
1
 70
0
  0
VERTEX
  8
0
 62
7
  6
CONTINUOUS
 10
147.2766777007
 20
220.3272126911
  0
VERTEX
  8
0
 62
7
  6
CONTINUOUS
 10
147.278056523
 20
220.236084856
  0
VERTEX
  8
0
 62
7
  6
CONTINUOUS
 10
147.2824668652
 20
220.1672283953
  0
VERTEX
  8
0
 62
7
  6
CONTINUOUS
 10
147.2948520583
 20
220.1270371532
  0
VERTEX
  8
0
 62
7
  6
CONTINUOUS
 10
147.3231441459
 20
220.1179531895
  0
VERTEX
  8
0
 62
7
  6
CONTINUOUS
 10
147.373422896
 20
220.1273445208
  0
VERTEX
  8
0
 62
7
  6
CONTINUOUS
 10
147.4071314363
 20
220.1334337785
  0
VERTEX
  8
0
 62
7
  6
CONTINUOUS
 10
147.482626239
 20
220.1387856654
  0
VERTEX
  8
0
 62
7
  6
CONTINUOUS
 10
147.550777408
 20
220.1316449153
  0
VERTEX
  8
0
 62
7
  6
CONTINUOUS
 10
147.6057319366
 20
220.1149735216
  0
VERTEX
  8
0
 62
7
  6
CONTINUOUS
 10
147.6461017022
 20
220.0917864342
  0
VERTEX
  8
0
 62
7
  6
CONTINUOUS
 10
147.6690822694
 20
220.0660132544
  0
VERTEX
  8
0
 62
7
  6
CONTINUOUS
 10
147.6740361354
 20
220.0534814619
  0
SEQEND
  0
LINE
  8
0
 62
7
  6
CONTINUOUS
 10
147.2740361354
 20
220.7098770492
 11
147.2740361354
 21
214.5067408416
  0
LINE
  8
0
 62
7
  6
CONTINUOUS
 10
147.2765361354
 20
221.1098770492
 11
147.2766777007
 21
220.3272126911
  0
LINE
  8
0
 62
7
  6
CONTINUOUS
 10
147.6240361354
 20
216.8453019181
 11
147.6240361354
 21
213.5098770492
  0
LINE
  8
0
 62
7
  6
CONTINUOUS
 10
147.2765361354
 20
220.7545284769
 11
147.2740361354
 21
220.7098770492
  0
LINE
  8
0
 62
7
  6
CONTINUOUS
 10
175.6015361354
 20
219.5098770492
 11
175.1990361354
 21
219.5098770492
  0
LINE
  8
0
 62
7
  6
CONTINUOUS
 10
173.8240361354
 20
219.5098770492
 11
173.4240361354
 21
219.5098770492
  0
LINE
  8
0
 62
7
  6
CONTINUOUS
 10
169.2515361354
 20
219.5098770492
 11
168.8490361354
 21
219.5098770492
  0
LINE
  8
0
 62
7
  6
CONTINUOUS
 10
162.9015361354
 20
219.5098770492
 11
162.4990361354
 21
219.5098770492
  0
LINE
  8
0
 62
7
  6
CONTINUOUS
 10
156.5515361354
 20
219.5098770492
 11
156.1490361354
 21
219.5098770492
  0
LINE
  8
0
 62
7
  6
CONTINUOUS
 10
150.2015361354
 20
219.5098770492
 11
149.7990361354
 21
219.5098770492
  0
LINE
  8
0
 62
7
  6
CONTINUOUS
 10
116.2740361354
 20
219.5098770492
 11
116.6740361353
 21
219.5098770492
  0
LINE
  8
0
 62
7
  6
CONTINUOUS
 10
109.1715361354
 20
219.5098770492
 11
109.5740361354
 21
219.5098770492
  0
LINE
  8
0
 62
7
  6
CONTINUOUS
 10
121.8715361354
 20
219.5098770492
 11
122.2740361354
 21
219.5098770492
  0
LINE
  8
0
 62
7
  6
CONTINUOUS
 10
128.2215361354
 20
219.5098770492
 11
128.6240361354
 21
219.5098770492
  0
LINE
  8
0
 62
7
  6
CONTINUOUS
 10
134.5715361354
 20
219.5098770492
 11
134.9740361354
 21
219.5098770492
  0
LINE
  8
0
 62
7
  6
CONTINUOUS
 10
140.9215361354
 20
219.5098770492
 11
141.3240361354
 21
219.5098770492
  0
LINE
  8
0
 62
7
  6
CONTINUOUS
 10
147.6740361354
 20
220.0534814619
 11
147.6765361354
 21
220.0432103826
  0
LINE
  8
0
 62
7
  6
CONTINUOUS
 10
149.8490361354
 20
216.8453019181
 11
149.8490361354
 21
213.5098770492
  0
LINE
  8
0
 62
7
  6
CONTINUOUS
 10
150.1990361354
 20
219.5098770492
 11
150.1990361354
 21
214.5067408416
  0
LINE
  8
0
 62
7
  6
CONTINUOUS
 10
150.2015361354
 20
219.5098770492
 11
150.2015361354
 21
221.1098770492
  0
LINE
  8
0
 62
7
  6
CONTINUOUS
 10
112.0965361354
 20
221.1098770492
 11
115.5215361354
 21
221.1098770492
  0
LINE
  8
0
 62
7
  6
CONTINUOUS
 10
118.4465361354
 20
221.1098770492
 11
121.8715361354
 21
221.1098770492
  0
LINE
  8
0
 62
7
  6
CONTINUOUS
 10
124.7965361354
 20
221.1098770492
 11
128.2215361354
 21
221.1098770492
  0
LINE
  8
0
 62
7
  6
CONTINUOUS
 10
131.1465361354
 20
221.1098770492
 11
134.5715361354
 21
221.1098770492
  0
LINE
  8
0
 62
7
  6
CONTINUOUS
 10
137.4965361354
 20
221.1098770492
 11
140.9215361354
 21
221.1098770492
  0
LINE
  8
0
 62
7
  6
CONTINUOUS
 10
143.8465361354
 20
221.1098770492
 11
147.2765361354
 21
221.1098770492
  0
LINE
  8
0
 62
7
  6
CONTINUOUS
 10
150.2015361354
 20
221.1098770492
 11
153.6265361354
 21
221.1098770492
  0
LINE
  8
0
 62
7
  6
CONTINUOUS
 10
156.5515361354
 20
221.1098770492
 11
159.9765361354
 21
221.1098770492
  0
LINE
  8
0
 62
7
  6
CONTINUOUS
 10
162.9015361354
 20
221.1098770492
 11
166.3265361354
 21
221.1098770492
  0
LINE
  8
0
 62
7
  6
CONTINUOUS
 10
169.2515361354
 20
221.1098770492
 11
172.6765361354
 21
221.1098770492
  0
LINE
  8
0
 62
7
  6
CONTINUOUS
 10
175.6015361354
 20
221.1098770492
 11
178.3720009009
 21
221.1098770492
  0
LINE
  8
0
 62
7
  6
CONTINUOUS
 10
113.1833593084
 20
221.5098770492
 11
174.7647129624
 21
221.5098770491
  0
LINE
  8
0
 62
7
  6
CONTINUOUS
 10
115.1240361354
 20
220.477463784
 11
115.8690361354
 21
220.4773085796
  0
LINE
  8
0
 62
7
  6
CONTINUOUS
 10
172.2740361354
 20
220.477463784
 11
173.0190361354
 21
220.4773085796
  0
POLYLINE
  8
0
 62
7
  6
CONTINUOUS
 66
1
 70
0
  0
VERTEX
  8
0
 62
7
  6
CONTINUOUS
 10
153.6266777007
 20
220.3272126911
  0
VERTEX
  8
0
 62
7
  6
CONTINUOUS
 10
153.628056523
 20
220.236084856
  0
VERTEX
  8
0
 62
7
  6
CONTINUOUS
 10
153.6324668652
 20
220.1672283953
  0
VERTEX
  8
0
 62
7
  6
CONTINUOUS
 10
153.6448520583
 20
220.1270371532
  0
VERTEX
  8
0
 62
7
  6
CONTINUOUS
 10
153.6731441459
 20
220.1179531895
  0
VERTEX
  8
0
 62
7
  6
CONTINUOUS
 10
153.723422896
 20
220.1273445208
  0
VERTEX
  8
0
 62
7
  6
CONTINUOUS
 10
153.7571314363
 20
220.1334337785
  0
VERTEX
  8
0
 62
7
  6
CONTINUOUS
 10
153.832626239
 20
220.1387856654
  0
VERTEX
  8
0
 62
7
  6
CONTINUOUS
 10
153.900777408
 20
220.1316449153
  0
VERTEX
  8
0
 62
7
  6
CONTINUOUS
 10
153.9557319366
 20
220.1149735216
  0
VERTEX
  8
0
 62
7
  6
CONTINUOUS
 10
153.9961017022
 20
220.0917864342
  0
VERTEX
  8
0
 62
7
  6
CONTINUOUS
 10
154.0190822694
 20
220.0660132544
  0
VERTEX
  8
0
 62
7
  6
CONTINUOUS
 10
154.0240361354
 20
220.0534814619
  0
SEQEND
  0
LINE
  8
0
 62
7
  6
CONTINUOUS
 10
153.6240361354
 20
220.7098770492
 11
153.6240361354
 21
214.5067408416
  0
LINE
  8
0
 62
7
  6
CONTINUOUS
 10
153.6265361354
 20
221.1098770492
 11
153.6266777007
 21
220.3272126911
  0
LINE
  8
0
 62
7
  6
CONTINUOUS
 10
153.6265361354
 20
220.7545284769
 11
153.6240361354
 21
220.7098770492
  0
LINE
  8
0
 62
7
  6
CONTINUOUS
 10
106.3250751713
 20
220.7414137395
 11
112.9569528809
 21
221.4970207605
  0
LINE
  8
0
 62
7
  6
CONTINUOUS
 10
181.6229970996
 20
220.7414137395
 11
174.99111939
 21
221.4970207605
  0
LINE
  8
0
 62
7
  6
CONTINUOUS
 10
153.9740361354
 20
216.8453019181
 11
153.9740361354
 21
213.5098770492
  0
LINE
  8
0
 62
7
  6
CONTINUOUS
 10
156.1990361354
 20
216.8453019181
 11
156.1990361354
 21
213.5098770492
  0
LINE
  8
0
 62
7
  6
CONTINUOUS
 10
154.0240361354
 20
220.0534814619
 11
154.0265361354
 21
220.0432103826
  0
LINE
  8
0
 62
7
  6
CONTINUOUS
 10
156.5490361354
 20
219.5098770492
 11
156.5490361354
 21
214.5067408416
  0
LINE
  8
0
 62
7
  6
CONTINUOUS
 10
156.5515361354
 20
219.5098770492
 11
156.5515361354
 21
221.1098770492
  0
POLYLINE
  8
0
 62
7
  6
CONTINUOUS
 66
1
 70
0
  0
VERTEX
  8
0
 62
7
  6
CONTINUOUS
 10
159.9766777007
 20
220.3272126911
  0
VERTEX
  8
0
 62
7
  6
CONTINUOUS
 10
159.978056523
 20
220.236084856
  0
VERTEX
  8
0
 62
7
  6
CONTINUOUS
 10
159.9824668652
 20
220.1672283953
  0
VERTEX
  8
0
 62
7
  6
CONTINUOUS
 10
159.9948520583
 20
220.1270371532
  0
VERTEX
  8
0
 62
7
  6
CONTINUOUS
 10
160.0231441459
 20
220.1179531895
  0
VERTEX
  8
0
 62
7
  6
CONTINUOUS
 10
160.073422896
 20
220.1273445208
  0
VERTEX
  8
0
 62
7
  6
CONTINUOUS
 10
160.1071314363
 20
220.1334337785
  0
VERTEX
  8
0
 62
7
  6
CONTINUOUS
 10
160.182626239
 20
220.1387856654
  0
VERTEX
  8
0
 62
7
  6
CONTINUOUS
 10
160.250777408
 20
220.1316449153
  0
VERTEX
  8
0
 62
7
  6
CONTINUOUS
 10
160.3057319366
 20
220.1149735216
  0
VERTEX
  8
0
 62
7
  6
CONTINUOUS
 10
160.3461017022
 20
220.0917864342
  0
VERTEX
  8
0
 62
7
  6
CONTINUOUS
 10
160.3690822694
 20
220.0660132544
  0
VERTEX
  8
0
 62
7
  6
CONTINUOUS
 10
160.3740361354
 20
220.0534814619
  0
SEQEND
  0
LINE
  8
0
 62
7
  6
CONTINUOUS
 10
159.9740361354
 20
220.7098770492
 11
159.9740361354
 21
214.5067408416
  0
LINE
  8
0
 62
7
  6
CONTINUOUS
 10
159.9765361354
 20
221.1098770492
 11
159.9766777007
 21
220.3272126911
  0
LINE
  8
0
 62
7
  6
CONTINUOUS
 10
160.3240361354
 20
216.8453019181
 11
160.3240361354
 21
213.5098770492
  0
LINE
  8
0
 62
7
  6
CONTINUOUS
 10
159.9765361354
 20
220.7545284769
 11
159.9740361354
 21
220.7098770492
  0
LINE
  8
0
 62
7
  6
CONTINUOUS
 10
160.3740361354
 20
220.0534814619
 11
160.3765361354
 21
220.0432103826
  0
LINE
  8
0
 62
7
  6
CONTINUOUS
 10
162.5490361354
 20
216.8453019181
 11
162.5490361354
 21
213.5098770492
  0
LINE
  8
0
 62
7
  6
CONTINUOUS
 10
162.8990361354
 20
219.5098770492
 11
162.8990361354
 21
214.5067408416
  0
LINE
  8
0
 62
7
  6
CONTINUOUS
 10
162.9015361354
 20
219.5098770492
 11
162.9015361354
 21
221.1098770492
  0
POLYLINE
  8
0
 62
7
  6
CONTINUOUS
 66
1
 70
0
  0
VERTEX
  8
0
 62
7
  6
CONTINUOUS
 10
166.3266777007
 20
220.3272126911
  0
VERTEX
  8
0
 62
7
  6
CONTINUOUS
 10
166.328056523
 20
220.236084856
  0
VERTEX
  8
0
 62
7
  6
CONTINUOUS
 10
166.3324668652
 20
220.1672283953
  0
VERTEX
  8
0
 62
7
  6
CONTINUOUS
 10
166.3448520583
 20
220.1270371532
  0
VERTEX
  8
0
 62
7
  6
CONTINUOUS
 10
166.3731441459
 20
220.1179531895
  0
VERTEX
  8
0
 62
7
  6
CONTINUOUS
 10
166.423422896
 20
220.1273445208
  0
VERTEX
  8
0
 62
7
  6
CONTINUOUS
 10
166.4571314363
 20
220.1334337785
  0
VERTEX
  8
0
 62
7
  6
CONTINUOUS
 10
166.532626239
 20
220.1387856654
  0
VERTEX
  8
0
 62
7
  6
CONTINUOUS
 10
166.600777408
 20
220.1316449153
  0
VERTEX
  8
0
 62
7
  6
CONTINUOUS
 10
166.6557319366
 20
220.1149735216
  0
VERTEX
  8
0
 62
7
  6
CONTINUOUS
 10
166.6961017022
 20
220.0917864342
  0
VERTEX
  8
0
 62
7
  6
CONTINUOUS
 10
166.7190822694
 20
220.0660132544
  0
VERTEX
  8
0
 62
7
  6
CONTINUOUS
 10
166.7240361354
 20
220.0534814619
  0
SEQEND
  0
LINE
  8
0
 62
7
  6
CONTINUOUS
 10
166.3240361354
 20
220.7098770492
 11
166.3240361354
 21
214.5067408416
  0
LINE
  8
0
 62
7
  6
CONTINUOUS
 10
166.3265361354
 20
221.1098770492
 11
166.3266777007
 21
220.3272126911
  0
LINE
  8
0
 62
7
  6
CONTINUOUS
 10
166.6740361354
 20
216.8453019181
 11
166.6740361354
 21
213.5098770492
  0
LINE
  8
0
 62
7
  6
CONTINUOUS
 10
166.3265361354
 20
220.7545284769
 11
166.3240361354
 21
220.7098770492
  0
LINE
  8
0
 62
7
  6
CONTINUOUS
 10
166.7240361354
 20
220.0534814619
 11
166.7265361354
 21
220.0432103826
  0
LINE
  8
0
 62
7
  6
CONTINUOUS
 10
168.8990361354
 20
216.8453019181
 11
168.8990361354
 21
213.5098770492
  0
LINE
  8
0
 62
7
  6
CONTINUOUS
 10
169.2490361354
 20
219.5098770492
 11
169.2490361354
 21
214.5067408416
  0
LINE
  8
0
 62
7
  6
CONTINUOUS
 10
169.2515361354
 20
219.5098770492
 11
169.2515361354
 21
221.1098770492
  0
POLYLINE
  8
0
 62
7
  6
CONTINUOUS
 66
1
 70
0
  0
VERTEX
  8
0
 62
7
  6
CONTINUOUS
 10
173.0230593183
 20
220.7098770492
  0
VERTEX
  8
0
 62
7
  6
CONTINUOUS
 10
173.0218175549
 20
220.707826416
  0
VERTEX
  8
0
 62
7
  6
CONTINUOUS
 10
173.0204076367
 20
220.7058893136
  0
VERTEX
  8
0
 62
7
  6
CONTINUOUS
 10
173.0190361354
 20
220.7039265578
  0
SEQEND
  0
POLYLINE
  8
0
 62
7
  6
CONTINUOUS
 66
1
 70
0
  0
VERTEX
  8
0
 62
7
  6
CONTINUOUS
 10
172.9873590942
 20
220.7514229978
  0
VERTEX
  8
0
 62
7
  6
CONTINUOUS
 10
172.8552670476
 20
220.8936816228
  0
VERTEX
  8
0
 62
7
  6
CONTINUOUS
 10
172.8129165852
 20
220.9398438259
  0
VERTEX
  8
0
 62
7
  6
CONTINUOUS
 10
172.7640338478
 20
220.9940193764
  0
VERTEX
  8
0
 62
7
  6
CONTINUOUS
 10
172.7146689451
 20
221.0509914032
  0
VERTEX
  8
0
 62
7
  6
CONTINUOUS
 10
172.6856491113
 20
221.088373305
  0
VERTEX
  8
0
 62
7
  6
CONTINUOUS
 10
172.6765361354
 20
221.1067344632
  0
SEQEND
  0
LINE
  8
0
 62
7
  6
CONTINUOUS
 10
170.5490361354
 20
213.1100821453
 11
170.5490361354
 21
217.8034696461
  0
LINE
  8
0
 62
7
  6
CONTINUOUS
 10
172.6765361354
 20
221.1098770492
 11
172.6765361354
 21
221.1067344632
  0
LINE
  8
0
 62
7
  6
CONTINUOUS
 10
173.4240361354
 20
213.5098770492
 11
173.4240361354
 21
221.1598770492
  0
POLYLINE
  8
0
 62
7
  6
CONTINUOUS
 66
1
 70
0
  0
VERTEX
  8
0
 62
7
  6
CONTINUOUS
 10
173.0190361354
 20
220.7039265578
  0
VERTEX
  8
0
 62
7
  6
CONTINUOUS
 10
173.0157065078
 20
220.720132151
  0
VERTEX
  8
0
 62
7
  6
CONTINUOUS
 10
173.002844324
 20
220.7346308904
  0
VERTEX
  8
0
 62
7
  6
CONTINUOUS
 10
172.9873590942
 20
220.7514229978
  0
SEQEND
  0
LINE
  8
0
 62
7
  6
CONTINUOUS
 10
175.2490361354
 20
216.8453019181
 11
175.2490361354
 21
213.5098770492
  0
LINE
  8
0
 62
7
  6
CONTINUOUS
 10
175.5990361354
 20
219.5098770492
 11
175.5990361354
 21
214.5067408416
  0
LINE
  8
0
 62
7
  6
CONTINUOUS
 10
175.6015361354
 20
219.5098770492
 11
175.6015361354
 21
221.1098770492
  0
LINE
  8
0
 62
7
  6
CONTINUOUS
 10
179.0240361354
 20
220.7014063356
 11
179.0240361354
 21
214.5067408416
  0
LINE
  8
0
 62
7
  6
CONTINUOUS
 10
179.3740361354
 20
216.8453019181
 11
179.3740361354
 21
213.5098770492
  0
LINE
  8
0
 62
7
  6
CONTINUOUS
 10
181.8890361354
 20
220.4433421828
 11
181.8890361354
 21
213.4098770492
  0
LINE
  8
DEFAULT_1
 62
2
  6
CENTER
 10
274.445455379
 20
222.7598770492
 11
274.445455379
 21
221.6260187815
  0
LINE
  8
0
 62
2
  6
CONTINUOUS
 10
274.445455379
 20
218.5598770492
 11
274.445455379
 21
216.4598770492
  0
LINE
  8
DEFAULT_1
 62
2
  6
CENTER
 10
274.445455379
 20
212.2598770492
 11
274.445455379
 21
213.3937353169
  0
POLYLINE
  8
0
 62
7
  6
CONTINUOUS
 66
1
 70
0
  0
VERTEX
  8
0
 62
7
  6
CONTINUOUS
 10
278.4982075408
 20
221.0158848287
  0
VERTEX
  8
0
 62
7
  6
CONTINUOUS
 10
278.5788850917
 20
221.0512324663
  0
VERTEX
  8
0
 62
7
  6
CONTINUOUS
 10
278.7146946228
 20
221.0929156602
  0
VERTEX
  8
0
 62
7
  6
CONTINUOUS
 10
278.8627699588
 20
221.1098770492
  0
SEQEND
  0
POLYLINE
  8
0
 62
7
  6
CONTINUOUS
 66
1
 70
0
  0
VERTEX
  8
0
 62
7
  6
CONTINUOUS
 10
278.7960305027
 20
221.0492598057
  0
VERTEX
  8
0
 62
7
  6
CONTINUOUS
 10
278.796090542
 20
221.0492786822
  0
VERTEX
  8
0
 62
7
  6
CONTINUOUS
 10
278.7865174672
 20
221.0469232358
  0
VERTEX
  8
0
 62
7
  6
CONTINUOUS
 10
278.7595025599
 20
221.0417377485
  0
VERTEX
  8
0
 62
7
  6
CONTINUOUS
 10
278.7170559074
 20
221.0354060324
  0
VERTEX
  8
0
 62
7
  6
CONTINUOUS
 10
278.6904942877
 20
221.0320939246
  0
VERTEX
  8
0
 62
7
  6
CONTINUOUS
 10
278.6272228461
 20
221.025498902
  0
VERTEX
  8
0
 62
7
  6
CONTINUOUS
 10
278.5504330574
 20
221.0192018345
  0
VERTEX
  8
0
 62
7
  6
CONTINUOUS
 10
278.4609337642
 20
221.0135174546
  0
VERTEX
  8
0
 62
7
  6
CONTINUOUS
 10
278.3600088358
 20
221.0087115479
  0
VERTEX
  8
0
 62
7
  6
CONTINUOUS
 10
278.2491913838
 20
221.0049930467
  0
VERTEX
  8
0
 62
7
  6
CONTINUOUS
 10
278.1301477195
 20
221.0025220429
  0
SEQEND
  0
LINE
  8
0
 62
7
  6
CONTINUOUS
 10
280.67628814
 20
213.1154417473
 11
283.5932440213
 21
213.6418940817
  0
LINE
  8
0
 62
7
  6
CONTINUOUS
 10
273.945455379
 20
213.1098770492
 11
280.6141243666
 21
213.1098770492
  0
LINE
  8
0
 62
7
  6
CONTINUOUS
 10
293.6767863909
 20
213.1098770492
 11
300.345455379
 21
213.1098770492
  0
LINE
  8
0
 62
7
  6
CONTINUOUS
 10
290.6976667368
 20
213.6418940817
 11
293.6146226179
 21
213.1154417474
  0
LINE
  8
DEFAULT_1
 62
2
  6
CENTER
 10
259.001977539
 20
217.1098770492
 11
310.1066290184
 21
217.1098770492
  0
LINE
  8
DEFAULT_1
 62
2
  6
CENTER
 10
305.095455379
 20
217.5098770492
 11
303.9615971113
 21
217.5098770492
  0
LINE
  8
0
 62
2
  6
CONTINUOUS
 10
300.895455379
 20
217.5098770492
 11
298.795455379
 21
217.5098770492
  0
LINE
  8
DEFAULT_1
 62
2
  6
CENTER
 10
279.695455379
 20
217.5098770492
 11
278.5615971113
 21
217.5098770492
  0
LINE
  8
0
 62
2
  6
CONTINUOUS
 10
275.495455379
 20
217.5098770492
 11
273.395455379
 21
217.5098770492
  0
LINE
  8
DEFAULT_1
 62
2
  6
CENTER
 10
269.195455379
 20
217.5098770492
 11
270.3293136467
 21
217.5098770492
  0
LINE
  8
DEFAULT_1
 62
2
  6
CENTER
 10
294.595455379
 20
217.5098770492
 11
295.7293136467
 21
217.5098770492
  0
LINE
  8
DEFAULT_1
 62
2
  6
CENTER
 10
287.145455379
 20
209.9798770492
 11
287.145455379
 21
224.5098770492
  0
LINE
  8
0
 62
7
  6
CONTINUOUS
 10
303.5454504964
 20
219.5098770492
 11
303.028736952
 21
219.5098770492
  0
POLYLINE
  8
0
 62
7
  6
CONTINUOUS
 66
1
 70
0
  0
VERTEX
  8
0
 62
7
  6
CONTINUOUS
 10
273.0159698385
 20
220.992265712
  0
VERTEX
  8
0
 62
7
  6
CONTINUOUS
 10
272.9882906379
 20
220.9897778548
  0
VERTEX
  8
0
 62
7
  6
CONTINUOUS
 10
272.9633616211
 20
220.9862814482
  0
VERTEX
  8
0
 62
7
  6
CONTINUOUS
 10
272.9355464737
 20
220.9802872298
  0
SEQEND
  0
POLYLINE
  8
0
 62
7
  6
CONTINUOUS
 66
1
 70
0
  0
VERTEX
  8
0
 62
7
  6
CONTINUOUS
 10
273.2137867519
 20
220.9989188475
  0
VERTEX
  8
0
 62
7
  6
CONTINUOUS
 10
273.1661168926
 20
220.998022723
  0
VERTEX
  8
0
 62
7
  6
CONTINUOUS
 10
273.1223150354
 20
220.9969465692
  0
VERTEX
  8
0
 62
7
  6
CONTINUOUS
 10
273.0824275096
 20
220.9956603455
  0
VERTEX
  8
0
 62
7
  6
CONTINUOUS
 10
273.0469963508
 20
220.9941315801
  0
VERTEX
  8
0
 62
7
  6
CONTINUOUS
 10
273.0159698385
 20
220.992265712
  0
SEQEND
  0
LINE
  8
0
 62
7
  6
CONTINUOUS
 10
273.3202486761
 20
221.000235549
 11
273.2137867519
 21
220.9989188475
  0
LINE
  8
0
 62
7
  6
CONTINUOUS
 10
278.1301477195
 20
221.0025220429
 11
278.0568058578
 21
221.0017017951
  0
LINE
  8
0
 62
7
  6
CONTINUOUS
 10
273.5035937379
 20
221.0012124854
 11
273.3202486761
 21
221.000235549
  0
LINE
  8
0
 62
7
  6
CONTINUOUS
 10
278.0568058578
 20
221.0017017951
 11
277.9779381601
 21
221.0014064245
  0
LINE
  8
0
 62
7
  6
CONTINUOUS
 10
300.345455379
 20
220.7098770491
 11
296.2490515234
 21
220.7098770491
  0
LINE
  8
0
 62
7
  6
CONTINUOUS
 10
273.5035937379
 20
221.0012124854
 11
277.9779381601
 21
221.0014063356
  0
LINE
  8
0
 62
7
  6
CONTINUOUS
 10
274.9652592817
 20
221.5098770492
 11
299.3256514763
 21
221.5098770491
  0
POLYLINE
  8
0
 62
7
  6
CONTINUOUS
 66
1
 70
0
  0
VERTEX
  8
0
 62
7
  6
CONTINUOUS
 10
292.8993377237
 20
221.108537922
  0
VERTEX
  8
0
 62
7
  6
CONTINUOUS
 10
292.7699755613
 20
221.1088895947
  0
VERTEX
  8
0
 62
7
  6
CONTINUOUS
 10
292.6406520118
 20
221.1095920762
  0
VERTEX
  8
0
 62
7
  6
CONTINUOUS
 10
278.8627699588
 20
221.1098770492
  0
SEQEND
  0
LINE
  8
0
 62
7
  6
CONTINUOUS
 10
299.7222083098
 20
221.3730844783
 11
293.2508360767
 21
221.3737155889
  0
LINE
  8
0
 62
7
  6
CONTINUOUS
 10
299.9742105824
 20
221.3717004365
 11
299.7222083098
 21
221.3730844783
  0
POLYLINE
  8
0
 62
7
  6
CONTINUOUS
 66
1
 70
0
  0
VERTEX
  8
0
 62
7
  6
CONTINUOUS
 10
293.2508360767
 20
221.3737155959
  0
VERTEX
  8
0
 62
7
  6
CONTINUOUS
 10
292.820115839
 20
221.3769179879
  0
VERTEX
  8
0
 62
7
  6
CONTINUOUS
 10
292.3935367257
 20
221.3865251989
  0
SEQEND
  0
LINE
  8
0
 62
7
  6
CONTINUOUS
 10
300.176419103
 20
221.3695255794
 11
299.9742105824
 21
221.3717004365
  0
LINE
  8
0
 62
7
  6
CONTINUOUS
 10
300.2875332467
 20
221.3676532228
 11
300.176419103
 21
221.3695255794
  0
POLYLINE
  8
0
 62
7
  6
CONTINUOUS
 66
1
 70
0
  0
VERTEX
  8
0
 62
7
  6
CONTINUOUS
 10
288.4373591685
 20
221.4982496914
  0
VERTEX
  8
0
 62
7
  6
CONTINUOUS
 10
288.1197608549
 20
221.5045653621
  0
VERTEX
  8
0
 62
7
  6
CONTINUOUS
 10
287.7811807033
 20
221.5085903282
  0
VERTEX
  8
0
 62
7
  6
CONTINUOUS
 10
287.4520758862
 20
221.5098770489
  0
SEQEND
  0
POLYLINE
  8
0
 62
7
  6
CONTINUOUS
 66
1
 70
0
  0
VERTEX
  8
0
 62
7
  6
CONTINUOUS
 10
292.3935364403
 20
221.3865251998
  0
VERTEX
  8
0
 62
7
  6
CONTINUOUS
 10
290.2804022168
 20
221.4487995987
  0
VERTEX
  8
0
 62
7
  6
CONTINUOUS
 10
288.4373597705
 20
221.4982501295
  0
SEQEND
  0
LINE
  8
0
 62
7
  6
CONTINUOUS
 10
291.4503923981
 20
221.1098740599
 11
291.5111161745
 21
221.1079486059
  0
POLYLINE
  8
0
 62
7
  6
CONTINUOUS
 66
1
 70
0
  0
VERTEX
  8
0
 62
7
  6
CONTINUOUS
 10
300.5968237447
 20
221.3554136279
  0
VERTEX
  8
0
 62
7
  6
CONTINUOUS
 10
300.5684627371
 20
221.357653999
  0
VERTEX
  8
0
 62
7
  6
CONTINUOUS
 10
300.5370132522
 20
221.3595783151
  0
VERTEX
  8
0
 62
7
  6
CONTINUOUS
 10
300.5027398422
 20
221.3612732817
  0
VERTEX
  8
0
 62
7
  6
CONTINUOUS
 10
300.4657123535
 20
221.362792887
  0
VERTEX
  8
0
 62
7
  6
CONTINUOUS
 10
300.425954757
 20
221.3641688604
  0
VERTEX
  8
0
 62
7
  6
CONTINUOUS
 10
300.3833934716
 20
221.3654228145
  0
VERTEX
  8
0
 62
7
  6
CONTINUOUS
 10
300.2875332467
 20
221.3676532228
  0
SEQEND
  0
POLYLINE
  8
0
 62
7
  6
CONTINUOUS
 66
1
 70
0
  0
VERTEX
  8
0
 62
7
  6
CONTINUOUS
 10
300.6575685108
 20
221.3461670762
  0
VERTEX
  8
0
 62
7
  6
CONTINUOUS
 10
300.6451225161
 20
221.3489452221
  0
VERTEX
  8
0
 62
7
  6
CONTINUOUS
 10
300.6221377456
 20
221.3526576667
  0
VERTEX
  8
0
 62
7
  6
CONTINUOUS
 10
300.5968237447
 20
221.3554136279
  0
SEQEND
  0
POLYLINE
  8
0
 62
7
  6
CONTINUOUS
 66
1
 70
0
  0
VERTEX
  8
0
 62
7
  6
CONTINUOUS
 10
296.0271473444
 20
220.8872201761
  0
VERTEX
  8
0
 62
7
  6
CONTINUOUS
 10
296.0714873824
 20
220.8592484082
  0
VERTEX
  8
0
 62
7
  6
CONTINUOUS
 10
296.1094420695
 20
220.8345525561
  0
VERTEX
  8
0
 62
7
  6
CONTINUOUS
 10
296.1438576609
 20
220.8114264404
  0
VERTEX
  8
0
 62
7
  6
CONTINUOUS
 10
296.1730732316
 20
220.790974146
  0
VERTEX
  8
0
 62
7
  6
CONTINUOUS
 10
296.1970012788
 20
220.7732216723
  0
VERTEX
  8
0
 62
7
  6
CONTINUOUS
 10
296.2165109806
 20
220.7573778194
  0
VERTEX
  8
0
 62
7
  6
CONTINUOUS
 10
296.2324981582
 20
220.7421646256
  0
VERTEX
  8
0
 62
7
  6
CONTINUOUS
 10
296.2441777504
 20
220.7267374828
  0
VERTEX
  8
0
 62
7
  6
CONTINUOUS
 10
296.2490515234
 20
220.7098770491
  0
SEQEND
  0
POLYLINE
  8
0
 62
7
  6
CONTINUOUS
 66
1
 70
0
  0
VERTEX
  8
0
 62
7
  6
CONTINUOUS
 10
296.0271473444
 20
220.8872201761
  0
VERTEX
  8
0
 62
7
  6
CONTINUOUS
 10
295.9909069609
 20
220.9118575511
  0
VERTEX
  8
0
 62
7
  6
CONTINUOUS
 10
295.9350046403
 20
220.9580330079
  0
VERTEX
  8
0
 62
7
  6
CONTINUOUS
 10
295.9133760386
 20
220.9781677315
  0
VERTEX
  8
0
 62
7
  6
CONTINUOUS
 10
295.8791329538
 20
221.011953414
  0
VERTEX
  8
0
 62
7
  6
CONTINUOUS
 10
295.8658293887
 20
221.0256978936
  0
SEQEND
  0
LINE
  8
0
 62
7
  6
CONTINUOUS
 10
295.6976869629
 20
220.7098770492
 11
295.6976814781
 21
220.7115082742
  0
LINE
  8
0
 62
7
  6
CONTINUOUS
 10
294.545455379
 20
213.5098770492
 11
294.545455379
 21
217.1098770492
  0
POLYLINE
  8
0
 62
7
  6
CONTINUOUS
 66
1
 70
0
  0
VERTEX
  8
0
 62
7
  6
CONTINUOUS
 10
295.8658293887
 20
221.0256978936
  0
VERTEX
  8
0
 62
7
  6
CONTINUOUS
 10
295.8275040475
 20
221.0598219221
  0
VERTEX
  8
0
 62
7
  6
CONTINUOUS
 10
295.8080184726
 20
221.0721277979
  0
VERTEX
  8
0
 62
7
  6
CONTINUOUS
 10
295.7686913039
 20
221.0859345472
  0
SEQEND
  0
LINE
  8
DEFAULT_1
 62
2
  6
CENTER
 10
299.845455379
 20
222.7598770492
 11
299.845455379
 21
221.6260187815
  0
LINE
  8
0
 62
2
  6
CONTINUOUS
 10
299.845455379
 20
218.5598770492
 11
299.845455379
 21
216.4598770492
  0
LINE
  8
DEFAULT_1
 62
2
  6
CENTER
 10
299.845455379
 20
212.2598770492
 11
299.845455379
 21
213.3937353169
  0
LINE
  8
0
 62
7
  6
CONTINUOUS
 10
302.7929847455
 20
219.7498770491
 11
303.028736952
 21
219.5098770492
  0
ARC
  8
0
 62
7
  6
CONTINUOUS
 10
115.0965361354
 20
115.2102294971
 40
3.0
 50
164.424215024
 51
180.0
  0
ARC
  8
0
 62
7
  6
CONTINUOUS
 10
121.4465361354
 20
115.2102294971
 40
3.0
 50
164.424215024
 51
180.0
  0
ARC
  8
0
 62
7
  6
CONTINUOUS
 10
127.7965361354
 20
115.2102294971
 40
3.0
 50
164.424215024
 51
180.0
  0
ARC
  8
0
 62
7
  6
CONTINUOUS
 10
134.1465361354
 20
115.2102294971
 40
3.0
 50
164.424215024
 51
180.0
  0
ARC
  8
0
 62
7
  6
CONTINUOUS
 10
140.4965361354
 20
115.2102294971
 40
3.0
 50
164.424215024
 51
180.0
  0
ARC
  8
0
 62
7
  6
CONTINUOUS
 10
115.8690361354
 20
112.3583808312
 40
0.405
 50
0.0
 51
89.8102785291
  0
ARC
  8
0
 62
7
  6
CONTINUOUS
 10
116.6740361354
 20
104.5156101947
 40
0.4
 50
180.0
 51
270.0
  0
ARC
  8
0
 62
7
  6
CONTINUOUS
 10
115.8715361354
 20
113.1133766921
 40
0.35
 50
180.0
 51
269.8102785291
  0
ARC
  8
0
 62
7
  6
CONTINUOUS
 10
109.3465361354
 20
127.4209908924
 40
3.0
 50
344.424215024
 51
360.0
  0
ARC
  8
0
 62
7
  6
CONTINUOUS
 10
115.6965361354
 20
127.4209908924
 40
3.0
 50
344.424215024
 51
360.0
  0
ARC
  8
0
 62
7
  6
CONTINUOUS
 10
122.0465361354
 20
127.4209908924
 40
3.0
 50
344.424215024
 51
360.0
  0
ARC
  8
0
 62
7
  6
CONTINUOUS
 10
128.3965361354
 20
127.4209908924
 40
3.0
 50
344.424215024
 51
360.0
  0
ARC
  8
0
 62
7
  6
CONTINUOUS
 10
134.7465361354
 20
127.4209908924
 40
3.0
 50
344.424215024
 51
360.0
  0
ARC
  8
0
 62
7
  6
CONTINUOUS
 10
141.1015361354
 20
127.4209908924
 40
3.0
 50
344.424215024
 51
360.0
  0
ARC
  8
0
 62
7
  6
CONTINUOUS
 10
114.9290361354
 20
130.2728384091
 40
0.405
 50
180.0
 51
269.4308272661
  0
ARC
  8
0
 62
7
  6
CONTINUOUS
 10
114.1240361354
 20
138.1156101947
 40
0.4
 50
0.0
 51
90.0
  0
ARC
  8
0
 62
7
  6
CONTINUOUS
 10
114.9215361354
 20
129.5178756617
 40
0.35
 50
0.0
 51
89.4308272661
  0
ARC
  8
0
 62
7
  6
CONTINUOUS
 10
106.3590361354
 20
138.2156101947
 40
0.3
 50
90.0
 51
180.0
  0
ARC
  8
0
 62
7
  6
CONTINUOUS
 10
178.6015361354
 20
115.2102294971
 40
3.0
 50
164.424215024
 51
180.0
  0
ARC
  8
0
 62
7
  6
CONTINUOUS
 10
153.2015361354
 20
115.2102294971
 40
3.0
 50
164.424215024
 51
180.0
  0
ARC
  8
0
 62
7
  6
CONTINUOUS
 10
159.5515361354
 20
115.2102294971
 40
3.0
 50
164.424215024
 51
180.0
  0
ARC
  8
0
 62
7
  6
CONTINUOUS
 10
165.9015361354
 20
115.2102294971
 40
3.0
 50
164.424215024
 51
180.0
  0
ARC
  8
0
 62
7
  6
CONTINUOUS
 10
172.2515361354
 20
115.2102294971
 40
3.0
 50
164.424215024
 51
180.0
  0
ARC
  8
0
 62
7
  6
CONTINUOUS
 10
146.8465361354
 20
115.2102294971
 40
3.0
 50
164.424215024
 51
180.0
  0
ARC
  8
0
 62
7
  6
CONTINUOUS
 10
173.0190361354
 20
112.3583819804
 40
0.405
 50
0.0
 51
89.4308272661
  0
ARC
  8
0
 62
7
  6
CONTINUOUS
 10
173.8240361354
 20
104.5156101947
 40
0.4
 50
180.0
 51
270.0
  0
ARC
  8
0
 62
7
  6
CONTINUOUS
 10
173.0265361354
 20
113.1133447278
 40
0.35
 50
180.0
 51
269.4308272661
  0
ARC
  8
0
 62
7
  6
CONTINUOUS
 10
181.5890361354
 20
104.4156101947
 40
0.3
 50
270.0
 51
360.0
  0
ARC
  8
0
 62
7
  6
CONTINUOUS
 10
147.4515361354
 20
127.4209908924
 40
3.0
 50
344.424215024
 51
360.0
  0
ARC
  8
0
 62
7
  6
CONTINUOUS
 10
153.8015361354
 20
127.4209908924
 40
3.0
 50
344.424215024
 51
360.0
  0
ARC
  8
0
 62
7
  6
CONTINUOUS
 10
160.1515361354
 20
127.4209908924
 40
3.0
 50
344.424215024
 51
360.0
  0
ARC
  8
0
 62
7
  6
CONTINUOUS
 10
166.5015361354
 20
127.4209908924
 40
3.0
 50
344.424215024
 51
360.0
  0
ARC
  8
0
 62
7
  6
CONTINUOUS
 10
172.8515361354
 20
127.4209908924
 40
3.0
 50
344.424215024
 51
360.0
  0
ARC
  8
0
 62
7
  6
CONTINUOUS
 10
172.0790361354
 20
130.2728395583
 40
0.405
 50
180.0
 51
269.8102785291
  0
ARC
  8
0
 62
7
  6
CONTINUOUS
 10
171.2740361354
 20
138.1156101947
 40
0.4
 50
0.0
 51
90.0
  0
ARC
  8
0
 62
7
  6
CONTINUOUS
 10
172.0765361354
 20
129.5178436974
 40
0.35
 50
0.0
 51
89.8102785291
  0
ARC
  8
0
 62
7
  6
CONTINUOUS
 10
109.1240361354
 20
213.8453019181
 40
0.4
 50
0.0
 51
55.7711336722
  0
ARC
  8
0
 62
7
  6
CONTINUOUS
 10
112.1490361354
 20
213.8453019181
 40
0.4
 50
124.2288663278
 51
180.0
  0
ARC
  8
0
 62
7
  6
CONTINUOUS
 10
111.3490361354
 20
213.5098770492
 40
0.4
 50
270.0
 51
360.0
  0
ARC
  8
0
 62
7
  6
CONTINUOUS
 10
109.9240361354
 20
213.5098770492
 40
0.4
 50
180.0
 51
270.0
  0
ARC
  8
0
 62
7
  6
CONTINUOUS
 10
106.3590361354
 20
213.4098770492
 40
0.3
 50
180.0
 51
270.0
  0
ARC
  8
0
 62
7
  6
CONTINUOUS
 10
109.5740361354
 20
214.5067397458
 40
0.4
 50
180.0
 51
235.7711336722
  0
ARC
  8
0
 62
7
  6
CONTINUOUS
 10
111.6990361354
 20
214.5067397458
 40
0.4
 50
304.2288663278
 51
360.0
  0
ARC
  8
0
 62
7
  6
CONTINUOUS
 10
116.6740361354
 20
213.5098770492
 40
0.4
 50
180.0
 51
270.0
  0
ARC
  8
0
 62
7
  6
CONTINUOUS
 10
117.6990361354
 20
213.5098770492
 40
0.4
 50
270.0
 51
360.0
  0
ARC
  8
0
 62
7
  6
CONTINUOUS
 10
118.4990361354
 20
213.8453019181
 40
0.4
 50
124.2288663278
 51
180.0
  0
ARC
  8
0
 62
7
  6
CONTINUOUS
 10
124.0490361354
 20
213.5098770492
 40
0.4
 50
270.0
 51
360.0
  0
ARC
  8
0
 62
7
  6
CONTINUOUS
 10
122.6240361354
 20
213.5098770492
 40
0.4
 50
180.0
 51
270.0
  0
ARC
  8
0
 62
7
  6
CONTINUOUS
 10
121.8240361354
 20
213.8453019181
 40
0.4
 50
0.0
 51
55.7711336722
  0
ARC
  8
0
 62
7
  6
CONTINUOUS
 10
124.8490361354
 20
213.8453019181
 40
0.4
 50
124.2288663278
 51
180.0
  0
ARC
  8
0
 62
7
  6
CONTINUOUS
 10
122.2740361354
 20
214.5067397458
 40
0.4
 50
180.0
 51
235.7711336722
  0
ARC
  8
0
 62
7
  6
CONTINUOUS
 10
118.0490361354
 20
214.5067397458
 40
0.4
 50
304.2288663278
 51
360.0
  0
ARC
  8
0
 62
7
  6
CONTINUOUS
 10
124.3990361354
 20
214.5067397458
 40
0.4
 50
304.2288663278
 51
360.0
  0
ARC
  8
0
 62
7
  6
CONTINUOUS
 10
109.1240361354
 20
216.8453019181
 40
0.4
 50
0.0000000001
 51
55.7711336722
  0
ARC
  8
0
 62
7
  6
CONTINUOUS
 10
112.1490361354
 20
216.8453019181
 40
0.4
 50
124.2288663278
 51
179.9999999999
  0
ARC
  8
0
 62
7
  6
CONTINUOUS
 10
118.4990361354
 20
216.8453019181
 40
0.4
 50
124.2288663278
 51
179.9999999999
  0
ARC
  8
0
 62
7
  6
CONTINUOUS
 10
121.8240361354
 20
216.8453019181
 40
0.4
 50
0.0000000001
 51
55.7711336722
  0
ARC
  8
0
 62
7
  6
CONTINUOUS
 10
124.8490361354
 20
216.8453019181
 40
0.4
 50
124.2288663278
 51
179.9999999999
  0
ARC
  8
0
 62
7
  6
CONTINUOUS
 10
130.3990361354
 20
213.5098770492
 40
0.4
 50
270.0
 51
360.0
  0
ARC
  8
0
 62
7
  6
CONTINUOUS
 10
128.9740361354
 20
213.5098770492
 40
0.4
 50
180.0
 51
270.0
  0
ARC
  8
0
 62
7
  6
CONTINUOUS
 10
128.1740361354
 20
213.8453019181
 40
0.4
 50
0.0
 51
55.7711336722
  0
ARC
  8
0
 62
7
  6
CONTINUOUS
 10
131.1990361354
 20
213.8453019181
 40
0.4
 50
124.2288663278
 51
180.0
  0
ARC
  8
0
 62
7
  6
CONTINUOUS
 10
135.3240361354
 20
213.5098770492
 40
0.4
 50
180.0
 51
270.0
  0
ARC
  8
0
 62
7
  6
CONTINUOUS
 10
134.5240361354
 20
213.8453019181
 40
0.4
 50
0.0
 51
55.7711336722
  0
ARC
  8
0
 62
7
  6
CONTINUOUS
 10
128.6240361354
 20
214.5067397458
 40
0.4
 50
180.0
 51
235.7711336722
  0
ARC
  8
0
 62
7
  6
CONTINUOUS
 10
134.9740361354
 20
214.5067397458
 40
0.4
 50
180.0
 51
235.7711336722
  0
ARC
  8
0
 62
7
  6
CONTINUOUS
 10
130.7490361354
 20
214.5067397458
 40
0.4
 50
304.2288663278
 51
360.0
  0
ARC
  8
0
 62
7
  6
CONTINUOUS
 10
136.7490361354
 20
213.5098770492
 40
0.4
 50
270.0
 51
360.0
  0
ARC
  8
0
 62
7
  6
CONTINUOUS
 10
137.5490361354
 20
213.8453019181
 40
0.4
 50
124.2288663278
 51
180.0
  0
ARC
  8
0
 62
7
  6
CONTINUOUS
 10
141.6740361354
 20
213.5098770492
 40
0.4
 50
180.0
 51
270.0
  0
ARC
  8
0
 62
7
  6
CONTINUOUS
 10
143.0990361354
 20
213.5098770492
 40
0.4
 50
270.0
 51
360.0
  0
ARC
  8
0
 62
7
  6
CONTINUOUS
 10
140.8740361354
 20
213.8453019181
 40
0.4
 50
0.0
 51
55.7711336722
  0
ARC
  8
0
 62
7
  6
CONTINUOUS
 10
143.8990361354
 20
213.8453019181
 40
0.4
 50
124.2288663278
 51
180.0
  0
ARC
  8
0
 62
7
  6
CONTINUOUS
 10
137.0990361354
 20
214.5067397458
 40
0.4
 50
304.2288663278
 51
360.0
  0
ARC
  8
0
 62
7
  6
CONTINUOUS
 10
141.3240361354
 20
214.5067397458
 40
0.4
 50
180.0
 51
235.7711336722
  0
ARC
  8
0
 62
7
  6
CONTINUOUS
 10
143.4490361354
 20
214.5067397458
 40
0.4
 50
304.2288663278
 51
360.0
  0
ARC
  8
0
 62
7
  6
CONTINUOUS
 10
128.1740361354
 20
216.8453019181
 40
0.4
 50
0.0000000001
 51
55.7711336722
  0
ARC
  8
0
 62
7
  6
CONTINUOUS
 10
131.1990361354
 20
216.8453019181
 40
0.4
 50
124.2288663278
 51
179.9999999999
  0
ARC
  8
0
 62
7
  6
CONTINUOUS
 10
134.5240361354
 20
216.8453019181
 40
0.4
 50
0.0000000001
 51
55.7711336722
  0
ARC
  8
0
 62
7
  6
CONTINUOUS
 10
137.5490361354
 20
216.8453019181
 40
0.4
 50
124.2288663278
 51
179.9999999999
  0
ARC
  8
0
 62
7
  6
CONTINUOUS
 10
140.8740361354
 20
216.8453019181
 40
0.4
 50
0.0000000001
 51
55.7711336722
  0
ARC
  8
0
 62
7
  6
CONTINUOUS
 10
143.8990361354
 20
216.8453019181
 40
0.4
 50
124.2288663278
 51
179.9999999999
  0
ARC
  8
0
 62
7
  6
CONTINUOUS
 10
109.5740361354
 20
217.5067397458
 40
0.4
 50
180.0
 51
235.7711336722
  0
ARC
  8
0
 62
7
  6
CONTINUOUS
 10
122.2740361354
 20
217.5067397458
 40
0.4
 50
180.0
 51
235.7711336722
  0
ARC
  8
0
 62
7
  6
CONTINUOUS
 10
111.6990361354
 20
217.5067397458
 40
0.4
 50
304.2288663278
 51
360.0
  0
ARC
  8
0
 62
7
  6
CONTINUOUS
 10
118.0490361354
 20
217.5067397458
 40
0.4
 50
304.2288663278
 51
360.0
  0
ARC
  8
0
 62
7
  6
CONTINUOUS
 10
124.3990361354
 20
217.5067397458
 40
0.4
 50
304.2288663278
 51
360.0
  0
ARC
  8
0
 62
7
  6
CONTINUOUS
 10
113.1833593084
 20
219.5098770492
 40
2.0
 50
90.0
 51
96.5
  0
ARC
  8
0
 62
7
  6
CONTINUOUS
 10
124.3965361354
 20
221.1098770491
 40
0.4
 50
0.0
 51
90.0
  0
ARC
  8
0
 62
7
  6
CONTINUOUS
 10
122.2715361354
 20
221.1098770491
 40
0.4
 50
90.0
 51
180.0
  0
ARC
  8
0
 62
7
  6
CONTINUOUS
 10
118.0465361354
 20
221.1098770491
 40
0.4
 50
0.0
 51
90.0
  0
ARC
  8
0
 62
7
  6
CONTINUOUS
 10
115.9215361354
 20
221.1098770491
 40
0.4
 50
90.0
 51
179.9999999995
  0
ARC
  8
0
 62
7
  6
CONTINUOUS
 10
111.6965361354
 20
221.1098770491
 40
0.4
 50
0.0
 51
18.6141097741
  0
ARC
  8
0
 62
7
  6
CONTINUOUS
 10
116.6240361354
 20
221.1598770491
 40
0.35
 50
90.0
 51
180.0
  0
ARC
  8
0
 62
7
  6
CONTINUOUS
 10
106.3590361354
 20
220.4433421828
 40
0.3
 50
96.5000000115
 51
179.9999999349
  0
ARC
  8
0
 62
7
  6
CONTINUOUS
 10
111.8860741971
 20
221.1737155997
 40
0.2
 50
18.6141155204
 51
96.5000273817
  0
ARC
  8
0
 62
7
  6
CONTINUOUS
 10
109.3715361354
 20
220.8872201761
 40
0.2
 50
96.5
 51
180.0
  0
ARC
  8
0
 62
7
  6
CONTINUOUS
 10
128.6240361354
 20
217.5067397458
 40
0.4
 50
180.0
 51
235.7711336722
  0
ARC
  8
0
 62
7
  6
CONTINUOUS
 10
134.9740361354
 20
217.5067397458
 40
0.4
 50
180.0
 51
235.7711336722
  0
ARC
  8
0
 62
7
  6
CONTINUOUS
 10
130.7490361354
 20
217.5067397458
 40
0.4
 50
304.2288663278
 51
360.0
  0
ARC
  8
0
 62
7
  6
CONTINUOUS
 10
137.0990361354
 20
217.5067397458
 40
0.4
 50
304.2288663278
 51
360.0
  0
ARC
  8
0
 62
7
  6
CONTINUOUS
 10
141.3240361354
 20
217.5067397458
 40
0.4
 50
180.0
 51
235.7711336722
  0
ARC
  8
0
 62
7
  6
CONTINUOUS
 10
143.4490361354
 20
217.5067397458
 40
0.4
 50
304.2288663278
 51
360.0
  0
ARC
  8
0
 62
7
  6
CONTINUOUS
 10
143.4465361354
 20
221.1098770491
 40
0.4
 50
0.0
 51
90.0
  0
ARC
  8
0
 62
7
  6
CONTINUOUS
 10
141.3215361354
 20
221.1098770491
 40
0.4
 50
90.0
 51
180.0
  0
ARC
  8
0
 62
7
  6
CONTINUOUS
 10
137.0965361354
 20
221.1098770491
 40
0.4
 50
0.0
 51
90.0
  0
ARC
  8
0
 62
7
  6
CONTINUOUS
 10
134.9715361354
 20
221.1098770491
 40
0.4
 50
90.0
 51
180.0
  0
ARC
  8
0
 62
7
  6
CONTINUOUS
 10
130.7465361354
 20
221.1098770491
 40
0.4
 50
0.0
 51
90.0
  0
ARC
  8
0
 62
7
  6
CONTINUOUS
 10
128.6215361354
 20
221.1098770491
 40
0.4
 50
90.0
 51
180.0
  0
ARC
  8
0
 62
7
  6
CONTINUOUS
 10
162.9490361354
 20
213.8453019181
 40
0.4
 50
124.2288663278
 51
180.0
  0
ARC
  8
0
 62
7
  6
CONTINUOUS
 10
159.9240361354
 20
213.8453019181
 40
0.4
 50
0.0
 51
55.7711336722
  0
ARC
  8
0
 62
7
  6
CONTINUOUS
 10
156.5990361354
 20
213.8453019181
 40
0.4
 50
124.2288663278
 51
180.0
  0
ARC
  8
0
 62
7
  6
CONTINUOUS
 10
160.3740361354
 20
214.5067397458
 40
0.4
 50
180.0
 51
235.7711336722
  0
ARC
  8
0
 62
7
  6
CONTINUOUS
 10
148.0240361354
 20
213.5098770492
 40
0.4
 50
180.0
 51
270.0
  0
ARC
  8
0
 62
7
  6
CONTINUOUS
 10
153.5740361354
 20
213.8453019181
 40
0.4
 50
0.0
 51
55.7711336722
  0
ARC
  8
0
 62
7
  6
CONTINUOUS
 10
150.2490361354
 20
213.8453019181
 40
0.4
 50
124.2288663278
 51
180.0
  0
ARC
  8
0
 62
7
  6
CONTINUOUS
 10
154.0240361354
 20
214.5067397458
 40
0.4
 50
180.0
 51
235.7711336722
  0
ARC
  8
0
 62
7
  6
CONTINUOUS
 10
147.2240361354
 20
213.8453019181
 40
0.4
 50
0.0
 51
55.7711336722
  0
ARC
  8
0
 62
7
  6
CONTINUOUS
 10
162.4990361354
 20
214.5067397458
 40
0.4
 50
304.2288663278
 51
360.0
  0
ARC
  8
0
 62
7
  6
CONTINUOUS
 10
156.1490361354
 20
214.5067397458
 40
0.4
 50
304.2288663278
 51
360.0
  0
ARC
  8
0
 62
7
  6
CONTINUOUS
 10
149.7990361354
 20
214.5067397458
 40
0.4
 50
304.2288663278
 51
360.0
  0
ARC
  8
0
 62
7
  6
CONTINUOUS
 10
147.6740361354
 20
214.5067397458
 40
0.4
 50
180.0
 51
235.7711336722
  0
ARC
  8
0
 62
7
  6
CONTINUOUS
 10
149.4490361354
 20
213.5098770492
 40
0.4
 50
270.0
 51
360.0
  0
ARC
  8
0
 62
7
  6
CONTINUOUS
 10
154.3740361354
 20
213.5098770492
 40
0.4
 50
180.0
 51
270.0
  0
ARC
  8
0
 62
7
  6
CONTINUOUS
 10
155.7990361354
 20
213.5098770492
 40
0.4
 50
270.0
 51
360.0
  0
ARC
  8
0
 62
7
  6
CONTINUOUS
 10
160.7240361354
 20
213.5098770492
 40
0.4
 50
180.0
 51
270.0
  0
ARC
  8
0
 62
7
  6
CONTINUOUS
 10
162.1490361354
 20
213.5098770492
 40
0.4
 50
270.0
 51
360.0
  0
ARC
  8
0
 62
7
  6
CONTINUOUS
 10
162.9490361354
 20
216.8453019181
 40
0.4
 50
124.2288663278
 51
179.9999999999
  0
ARC
  8
0
 62
7
  6
CONTINUOUS
 10
159.9240361354
 20
216.8453019181
 40
0.4
 50
0.0000000001
 51
55.7711336722
  0
ARC
  8
0
 62
7
  6
CONTINUOUS
 10
156.5990361354
 20
216.8453019181
 40
0.4
 50
124.2288663278
 51
179.9999999999
  0
ARC
  8
0
 62
7
  6
CONTINUOUS
 10
153.5740361354
 20
216.8453019181
 40
0.4
 50
0.0000000001
 51
55.7711336722
  0
ARC
  8
0
 62
7
  6
CONTINUOUS
 10
150.2490361354
 20
216.8453019181
 40
0.4
 50
124.2288663278
 51
179.9999999999
  0
ARC
  8
0
 62
7
  6
CONTINUOUS
 10
147.2240361354
 20
216.8453019181
 40
0.4
 50
0.0000000001
 51
55.7711336722
  0
ARC
  8
0
 62
7
  6
CONTINUOUS
 10
169.2990361354
 20
213.8453019181
 40
0.4
 50
124.2288663278
 51
180.0
  0
ARC
  8
0
 62
7
  6
CONTINUOUS
 10
166.2740361354
 20
213.8453019181
 40
0.4
 50
0.0
 51
55.7711336722
  0
ARC
  8
0
 62
7
  6
CONTINUOUS
 10
167.0740361354
 20
213.5098770492
 40
0.4
 50
180.0
 51
270.0
  0
ARC
  8
0
 62
7
  6
CONTINUOUS
 10
168.4990361354
 20
213.5098770492
 40
0.4
 50
270.0
 51
360.0
  0
ARC
  8
0
 62
7
  6
CONTINUOUS
 10
173.8240361354
 20
213.5098770492
 40
0.4
 50
180.0
 51
270.0
  0
ARC
  8
0
 62
7
  6
CONTINUOUS
 10
166.7240361354
 20
214.5067397458
 40
0.4
 50
180.0
 51
235.7711336722
  0
ARC
  8
0
 62
7
  6
CONTINUOUS
 10
168.8490361354
 20
214.5067397458
 40
0.4
 50
304.2288663278
 51
360.0
  0
ARC
  8
0
 62
7
  6
CONTINUOUS
 10
178.9740361354
 20
213.8453019181
 40
0.4
 50
0.0
 51
55.7711336722
  0
ARC
  8
0
 62
7
  6
CONTINUOUS
 10
175.6490361354
 20
213.8453019181
 40
0.4
 50
124.2288663278
 51
180.0
  0
ARC
  8
0
 62
7
  6
CONTINUOUS
 10
174.8490361354
 20
213.5098770492
 40
0.4
 50
270.0
 51
360.0
  0
ARC
  8
0
 62
7
  6
CONTINUOUS
 10
179.7740361354
 20
213.5098770492
 40
0.4
 50
180.0
 51
270.0
  0
ARC
  8
0
 62
7
  6
CONTINUOUS
 10
181.5890361354
 20
213.4098770492
 40
0.3
 50
270.0
 51
360.0
  0
ARC
  8
0
 62
7
  6
CONTINUOUS
 10
179.4240361354
 20
214.5067397458
 40
0.4
 50
180.0
 51
235.7711336722
  0
ARC
  8
0
 62
7
  6
CONTINUOUS
 10
175.1990361354
 20
214.5067397458
 40
0.4
 50
304.2288663278
 51
360.0
  0
ARC
  8
0
 62
7
  6
CONTINUOUS
 10
178.9740361354
 20
216.8453019181
 40
0.4
 50
0.0000000001
 51
55.7711336722
  0
ARC
  8
0
 62
7
  6
CONTINUOUS
 10
175.6490361354
 20
216.8453019181
 40
0.4
 50
124.2288663278
 51
179.9999999999
  0
ARC
  8
0
 62
7
  6
CONTINUOUS
 10
169.2990361354
 20
216.8453019181
 40
0.4
 50
124.2288663278
 51
179.9999999999
  0
ARC
  8
0
 62
7
  6
CONTINUOUS
 10
166.2740361354
 20
216.8453019181
 40
0.4
 50
0.0000000001
 51
55.7711336722
  0
ARC
  8
0
 62
7
  6
CONTINUOUS
 10
160.3740361354
 20
217.5067397458
 40
0.4
 50
180.0
 51
235.7711336722
  0
ARC
  8
0
 62
7
  6
CONTINUOUS
 10
154.0240361354
 20
217.5067397458
 40
0.4
 50
180.0
 51
235.7711336722
  0
ARC
  8
0
 62
7
  6
CONTINUOUS
 10
162.4990361354
 20
217.5067397458
 40
0.4
 50
304.2288663278
 51
360.0
  0
ARC
  8
0
 62
7
  6
CONTINUOUS
 10
156.1490361354
 20
217.5067397458
 40
0.4
 50
304.2288663278
 51
360.0
  0
ARC
  8
0
 62
7
  6
CONTINUOUS
 10
149.7990361354
 20
217.5067397458
 40
0.4
 50
304.2288663278
 51
360.0
  0
ARC
  8
0
 62
7
  6
CONTINUOUS
 10
147.6740361354
 20
217.5067397458
 40
0.4
 50
180.0
 51
235.7711336722
  0
ARC
  8
0
 62
7
  6
CONTINUOUS
 10
162.5015361354
 20
221.1098770491
 40
0.4
 50
0.0000000039
 51
90.0
  0
ARC
  8
0
 62
7
  6
CONTINUOUS
 10
160.3765361354
 20
221.1098770491
 40
0.4
 50
90.0
 51
179.9999999961
  0
ARC
  8
0
 62
7
  6
CONTINUOUS
 10
156.1515361354
 20
221.1098770491
 40
0.4
 50
0.0000000039
 51
90.0
  0
ARC
  8
0
 62
7
  6
CONTINUOUS
 10
154.0265361354
 20
221.1098770491
 40
0.4
 50
90.0
 51
179.9999999961
  0
ARC
  8
0
 62
7
  6
CONTINUOUS
 10
149.8015361354
 20
221.1098770491
 40
0.4
 50
0.0000000039
 51
90.0
  0
ARC
  8
0
 62
7
  6
CONTINUOUS
 10
147.6765361354
 20
221.1098770491
 40
0.4
 50
90.0
 51
179.9999999961
  0
ARC
  8
0
 62
7
  6
CONTINUOUS
 10
179.4240361354
 20
217.5067397458
 40
0.4
 50
180.0
 51
235.7711336722
  0
ARC
  8
0
 62
7
  6
CONTINUOUS
 10
166.7240361354
 20
217.5067397458
 40
0.4
 50
180.0
 51
235.7711336722
  0
ARC
  8
0
 62
7
  6
CONTINUOUS
 10
175.1990361354
 20
217.5067397458
 40
0.4
 50
304.2288663278
 51
360.0
  0
ARC
  8
0
 62
7
  6
CONTINUOUS
 10
168.8490361354
 20
217.5067397458
 40
0.4
 50
304.2288663278
 51
360.0
  0
ARC
  8
0
 62
7
  6
CONTINUOUS
 10
166.7265361354
 20
221.1098770491
 40
0.4
 50
90.0
 51
179.9999999961
  0
ARC
  8
0
 62
7
  6
CONTINUOUS
 10
168.8515361354
 20
221.1098770492
 40
0.4
 50
0.0
 51
90.0
  0
ARC
  8
0
 62
7
  6
CONTINUOUS
 10
173.0765361354
 20
221.1098770492
 40
0.4
 50
90.0
 51
180.0000000005
  0
ARC
  8
0
 62
7
  6
CONTINUOUS
 10
173.7740361354
 20
221.1598770492
 40
0.35
 50
90.0
 51
180.0000000044
  0
ARC
  8
0
 62
7
  6
CONTINUOUS
 10
174.7647129624
 20
219.5098770492
 40
2.0
 50
83.5
 51
90.0
  0
ARC
  8
0
 62
7
  6
CONTINUOUS
 10
175.2015361354
 20
221.1098770492
 40
0.4
 50
0.0
 51
47.0307731349
  0
ARC
  8
0
 62
7
  6
CONTINUOUS
 10
178.3720009009
 20
220.8098770492
 40
0.3
 50
83.5
 51
90.0
  0
ARC
  8
0
 62
7
  6
CONTINUOUS
 10
181.5890361354
 20
220.4433421828
 40
0.3
 50
0.0000000651
 51
83.4999999885
  0
ARC
  8
0
 62
7
  6
CONTINUOUS
 10
179.3240361354
 20
220.7014063356
 40
0.3
 50
83.5
 51
180.0
  0
ARC
  8
0
 62
7
  6
CONTINUOUS
 10
175.3378572618
 20
221.2562210236
 40
0.2
 50
47.0307812331
 51
83.5000100672
  0
ARC
  8
0
 62
7
  6
CONTINUOUS
 10
274.9652592817
 20
216.0098770491
 40
5.5
 50
89.9999999999
 51
132.8334280647
  0
ARC
  8
0
 62
7
  6
CONTINUOUS
 10
273.945455379
 20
217.1098770492
 40
4.0
 50
104.6238295379
 51
270.0
  0
CIRCLE
  8
0
 62
7
  6
CONTINUOUS
 10
274.445455379
 20
217.5098770492
 40
2.1161417323
  0
ARC
  8
0
 62
7
  6
CONTINUOUS
 10
280.6141244622
 20
213.4598770492
 40
0.35
 50
270.0
 51
280.2306129695
  0
ARC
  8
0
 62
7
  6
CONTINUOUS
 10
278.993225185
 20
220.7098770492
 40
0.3999991695
 50
89.9997164338
 51
125.6718115757
  0
ARC
  8
0
 62
7
  6
CONTINUOUS
 10
287.145455379
 20
193.9598770492
 40
20.0
 50
79.7693870305
 51
100.2306129695
  0
ARC
  8
0
 62
7
  6
CONTINUOUS
 10
294.145455379
 20
213.5098770492
 40
0.4
 50
270.0
 51
360.0
  0
ARC
  8
0
 62
7
  6
CONTINUOUS
 10
293.6767862958
 20
213.4598770492
 40
0.35
 50
259.7693870305
 51
270.0
  0
ARC
  8
0
 62
7
  6
CONTINUOUS
 10
295.2976835934
 20
220.7098770492
 40
0.4
 50
324.5040673497
 51
4.9452733185
  0
ARC
  8
0
 62
7
  6
CONTINUOUS
 10
299.3256514763
 20
216.0098770491
 40
5.5
 50
47.1665719339
 51
89.9999999999
  0
CIRCLE
  8
0
 62
7
  6
CONTINUOUS
 10
299.845455379
 20
217.5098770492
 40
2.1161417323
  0
ARC
  8
0
 62
7
  6
CONTINUOUS
 10
300.345455379
 20
217.1098770492
 40
5.8
 50
144.5040673497
 51
180.0
  0
ARC
  8
0
 62
7
  6
CONTINUOUS
 10
300.345455379
 20
217.1098770491
 40
4.0
 50
270.0
 51
47.2524004867
  0
ARC
  8
0
 62
7
  6
CONTINUOUS
 10
300.345455379
 20
217.1098770491
 40
3.6
 50
47.1665719339
 51
89.9999999999
  0
ENDSEC
  0
EOF
