  0
SECTION
  2
HEADER
  9
$EXTMAX
 10
210.0
 20
297.0
 30
0.0
  9
$EXTMIN
 10
0.0
 20
0.0
 30
0.0
  9
$LIMMIN
 10
0.0
 20
0.0
  9
$LIMMAX
 10
210.0
 20
297.0
  9
$VIEWCTR
 10
105.0
 20
148.5
  9
$VIEWSIZE
 40
297.0
  9
$CLAYER
  8
0
  9
$LTSCALE
 40
19.36
  9
$CELTYPE
  6
BYLAYER
  9
$DIMSCALE
 40
1.0
  9
$DIMASZ
 40
3.5
  9
$DIMEXO
 40
1.0
  9
$DIMDLI
 40
13.376
  9
$DIMEXE
 40
2.0
  9
$DIMCEN
 40
3.168
  9
$DIMLFAC
 40
1.0
  9
$DIMBLK
  1
_FILLED
  9
$DIMALT
 70
0
  9
$DIMALTF
 40
0.0393700787
  9
$DIMTXT
 40
3.5
  9
$AUNITS
 70
0
  9
$PDMODE
 70
3
  9
$PDSIZE
 40
0.3125
  9
$TILEMODE
 70
1
  0
ENDSEC
  0
SECTION
  2
TABLES
  0
TABLE
  2
LTYPE
 70
6
  0
LTYPE
  2
BYBLOCK
 70
0
  3

 72
65
 73
0
 40
0.0
  0
LTYPE
  2
BYLAYER
 70
0
  3

 72
65
 73
0
 40
0.0
  0
LTYPE
  2
CONTINUOUS
 70
64
  3
Solid line
 72
65
 73
0
 40
0.0
  0
LTYPE
  2
CENTER
 70
64
  3
____ _ ____ _ ____ _ ____ _ ____ _ ____ _ ____
 72
65
 73
4
 40
0.6
 49
0.375
 49
-0.075
 49
0.075
 49
-0.075
  0
LTYPE
  2
HIDDEN
 70
64
  3
- - - - - - - - - - - - - - - - - - - -
 72
65
 73
2
 40
0.2
 49
0.1
 49
-0.1
  0
LTYPE
  2
PHANTOM
 70
64
  3
_____ _ _ _____ _ _ _____ _ _ _____
 72
65
 73
6
 40
0.8
 49
0.45
 49
-0.05
 49
0.1
 49
-0.05
 49
0.1
 49
-0.05
  0
LTYPE
  2
DOT
 70
64
  3
. . . . . . . . . . . . . . . . . . . .
 72
65
 73
2
 40
0.2
 49
0.1
 49
-0.1
  0
LTYPE
  2
DASHED
 70
64
  3
- - - - - - - - - - - - - - - - - - - -
 72
65
 73
2
 40
0.2
 49
0.1
 49
-0.1
  0
ENDTAB
  0
TABLE
  2
LAYER
 70
36
  0
LAYER
  2
0
 70
0
 62
7
  6
CONTINUOUS
  0
LAYER
  2
DEFAULT_1
 70
0
 62
7
  6
CENTER
  0
LAYER
  2
DEFAULT_2
 70
0
 62
8
  6
HIDDEN
  0
LAYER
  2
DEFAULT_3
 70
0
 62
7
  6
PHANTOM
  0
LAYER
  2
AXES
 70
0
 62
7
  6
CONTINUOUS
  0
LAYER
  2
CSYS
 70
0
 62
7
  6
CONTINUOUS
  0
LAYER
  2
PLANES
 70
0
 62
7
  6
CONTINUOUS
  0
LAYER
  2
QUILTS
 70
0
 62
7
  6
CONTINUOUS
  0
ENDTAB
  0
TABLE
  2
STYLE
 70
1
  0
STYLE
  2
STANDARD
 70
0
 40
0.0
 41
0.8
 50
0.0
 71
0
 42
0.2
  3
txt
  4

  0
STYLE
  2
TEXTSTYLE_1
 70
0
 40
0.0
 41
0.8
 50
0.0
 71
0
 42
0.2
  3
gdt
  4

  0
STYLE
  2
TEXTSTYLE_2
 70
0
 40
0.0
 41
0.6
 50
0.0
 71
0
 42
0.2
  3
txt
  4

  0
STYLE
  2
TEXTSTYLE_3
 70
0
 40
0.0
 41
1.0
 50
0.0
 71
0
 42
0.2
  3
ftb_____.ttf
  4

  0
STYLE
  2
TEXTSTYLE_4
 70
0
 40
0.0
 41
1.0
 50
0.0
 71
0
 42
0.2
  3
fti_____.ttf
  4

  0
STYLE
  2
TEXTSTYLE_5
 70
0
 40
0.0
 41
1.0
 50
0.0
 71
0
 42
0.2
  3
frutiger light.ttf
  4

  0
STYLE
  2
TEXTSTYLE_6
 70
0
 40
0.0
 41
0.7
 50
0.0
 71
0
 42
0.2
  3
txt
  4

  0
STYLE
  2
TEXTSTYLE_7
 70
0
 40
0.0
 41
0.8
 50
0.0
 71
0
 42
0.2
  3
txt
  4

  0
ENDTAB
  0
ENDSEC
  0
SECTION
  2
BLOCKS
  0
BLOCK
  8
0
 62
2
  6
CONTINUOUS
  2
UNI_LOGO2_BL1
 70
64
 10
173.5956734183
 20
35.5937998301
  0
TEXT
  8
0
 62
7
  6
CONTINUOUS
 10
164.6539584268
 20
30.6865562072
  7
TEXTSTYLE_4
 40
1.0655737705
  1
The brand for plastic modular belts and chains
 41
1.0
 72
0
  0
LINE
  8
0
 62
7
  6
CONTINUOUS
 10
149.5737418074
 20
36.1675703219
 11
149.5737418074
 21
34.0364227809
  0
LINE
  8
0
 62
7
  6
CONTINUOUS
 10
149.8628043005
 20
31.0454914852
 11
149.8628043005
 21
31.1422825445
  0
LINE
  8
0
 62
7
  6
CONTINUOUS
 10
149.5737418074
 20
31.1100188581
 11
149.6315543091
 21
30.9164367395
  0
LINE
  8
0
 62
7
  6
CONTINUOUS
 10
150.9671844304
 20
33.9544555678
 11
150.9671844304
 21
36.1675703219
  0
LINE
  8
0
 62
7
  6
CONTINUOUS
 10
151.8862417523
 20
32.1101932727
 11
151.8862417523
 21
30.5937998301
  0
LINE
  8
0
 62
7
  6
CONTINUOUS
 10
152.1753043074
 20
30.5937998301
 11
152.1753043074
 21
31.3358647082
  0
LINE
  8
0
 62
7
  6
CONTINUOUS
 10
152.1753043074
 20
31.4649194539
 11
152.1753043074
 21
32.1101932727
  0
LINE
  8
0
 62
7
  6
CONTINUOUS
 10
149.6315543091
 20
31.3036010218
 11
149.5737418074
 21
31.1100188581
  0
LINE
  8
0
 62
7
  6
CONTINUOUS
 10
149.9784292936
 20
30.8841730531
 11
149.8628043005
 21
31.0454914852
  0
LINE
  8
0
 62
7
  6
CONTINUOUS
 10
151.0768668626
 20
31.400392081
 11
151.1346793074
 21
31.3036010218
  0
LINE
  8
0
 62
7
  6
CONTINUOUS
 10
151.4237418626
 20
31.3036010218
 11
151.3659292523
 21
31.4326557675
  0
LINE
  8
0
 62
7
  6
CONTINUOUS
 10
152.852430332
 20
36.1675703219
 11
152.852430332
 21
34.3642916334
  0
LINE
  8
0
 62
7
  6
CONTINUOUS
 10
152.852430332
 20
33.0528162235
 11
152.852430332
 21
32.3970785186
  0
LINE
  8
0
 62
7
  6
CONTINUOUS
 10
153.2159293074
 20
31.2390736489
 11
153.2159293074
 21
30.5937998301
  0
LINE
  8
0
 62
7
  6
CONTINUOUS
 10
153.5049916972
 20
30.5937998301
 11
153.5049916972
 21
31.2390736489
  0
LINE
  8
0
 62
7
  6
CONTINUOUS
 10
149.8628043005
 20
31.1422825445
 11
149.9206168074
 21
31.2713373354
  0
LINE
  8
0
 62
7
  6
CONTINUOUS
 10
149.6315543091
 20
30.9164367395
 11
149.7471793074
 21
30.7873819712
  0
LINE
  8
0
 62
7
  6
CONTINUOUS
 10
153.1581166972
 20
31.3681283946
 11
153.2159293074
 21
31.2390736489
  0
LINE
  8
0
 62
7
  6
CONTINUOUS
 10
153.9674919177
 20
30.8841730531
 11
154.0253041972
 21
30.7551182848
  0
LINE
  8
0
 62
7
  6
CONTINUOUS
 10
153.5049916972
 20
31.2390736489
 11
153.4471794177
 21
31.400392081
  0
LINE
  8
0
 62
7
  6
CONTINUOUS
 10
153.9674919177
 20
31.4326557675
 11
153.9674919177
 21
31.3681283946
  0
LINE
  8
0
 62
7
  6
CONTINUOUS
 10
153.9674919177
 20
30.9809641124
 11
153.9674919177
 21
30.8841730531
  0
LINE
  8
0
 62
7
  6
CONTINUOUS
 10
154.245872955
 20
32.3970785186
 11
154.245872955
 21
36.1675703219
  0
LINE
  8
0
 62
7
  6
CONTINUOUS
 10
154.2565543074
 20
30.8519093441
 11
154.2565543074
 21
30.9164367395
  0
LINE
  8
0
 62
7
  6
CONTINUOUS
 10
154.5737418074
 20
36.1675703219
 11
154.5737418074
 21
32.3970785186
  0
LINE
  8
0
 62
7
  6
CONTINUOUS
 10
151.3659292523
 20
30.7873819712
 11
151.4237418626
 21
30.9164367395
  0
LINE
  8
0
 62
7
  6
CONTINUOUS
 10
155.759679528
 20
30.6905909007
 11
155.7018665869
 21
30.8519093441
  0
LINE
  8
0
 62
7
  6
CONTINUOUS
 10
155.412804528
 20
31.3681283946
 11
155.412804528
 21
31.2713373354
  0
LINE
  8
0
 62
7
  6
CONTINUOUS
 10
155.412804528
 20
31.1422825445
 11
155.412804528
 21
30.9487004259
  0
LINE
  8
0
 62
7
  6
CONTINUOUS
 10
155.7018665869
 20
30.8519093441
 11
155.7018665869
 21
31.3681283946
  0
LINE
  8
0
 62
7
  6
CONTINUOUS
 10
155.9671844304
 20
32.3970785186
 11
155.9671844304
 21
34.2003572071
  0
LINE
  8
0
 62
7
  6
CONTINUOUS
 10
155.9671844304
 20
35.511832617
 11
155.9671844304
 21
36.1675703219
  0
LINE
  8
0
 62
7
  6
CONTINUOUS
 10
156.279992028
 20
32.1101932727
 11
156.279992028
 21
31.9488748406
  0
LINE
  8
0
 62
7
  6
CONTINUOUS
 10
156.279992028
 20
31.626237886
 11
156.279992028
 21
30.5937998301
  0
LINE
  8
0
 62
7
  6
CONTINUOUS
 10
156.5690540869
 20
30.5937998301
 11
156.5690540869
 21
31.626237886
  0
LINE
  8
0
 62
7
  6
CONTINUOUS
 10
156.5690540869
 20
31.9488748406
 11
156.5690540869
 21
32.1101932727
  0
LINE
  8
0
 62
7
  6
CONTINUOUS
 10
151.1346793074
 20
30.9164367395
 11
151.0768668626
 21
30.8196456577
  0
LINE
  8
0
 62
7
  6
CONTINUOUS
 10
153.4471794177
 20
31.400392081
 11
153.3893668074
 21
31.4649194539
  0
LINE
  8
0
 62
7
  6
CONTINUOUS
 10
154.3143669177
 20
30.7873819712
 11
154.2565543074
 21
30.8519093441
  0
LINE
  8
0
 62
7
  6
CONTINUOUS
 10
155.4706168074
 20
30.6583272086
 11
155.5284290869
 21
30.5937998301
  0
LINE
  8
0
 62
7
  6
CONTINUOUS
 10
155.412804528
 20
30.7551182848
 11
155.4706168074
 21
30.6583272086
  0
LINE
  8
0
 62
7
  6
CONTINUOUS
 10
155.8174918074
 20
30.5937998301
 11
155.759679528
 21
30.6905909007
  0
LINE
  8
0
 62
7
  6
CONTINUOUS
 10
155.7018665869
 20
31.3681283946
 11
155.6440543074
 21
31.4649194539
  0
LINE
  8
0
 62
7
  6
CONTINUOUS
 10
157.0315543074
 20
31.626237886
 11
157.0315543074
 21
30.5937998301
  0
LINE
  8
0
 62
7
  6
CONTINUOUS
 10
157.320617028
 20
30.5937998301
 11
157.320617028
 21
31.3358647082
  0
LINE
  8
0
 62
7
  6
CONTINUOUS
 10
157.320617028
 20
31.4649194539
 11
157.320617028
 21
31.626237886
  0
LINE
  8
0
 62
7
  6
CONTINUOUS
 10
157.852430332
 20
34.6101932727
 11
157.852430332
 21
32.3970785186
  0
LINE
  8
0
 62
7
  6
CONTINUOUS
 10
149.7471793074
 20
31.4326557675
 11
149.6315543091
 21
31.3036010218
  0
LINE
  8
0
 62
7
  6
CONTINUOUS
 10
149.9206168074
 20
31.2713373354
 11
149.9784292936
 21
31.3358647082
  0
LINE
  8
0
 62
7
  6
CONTINUOUS
 10
149.7471793074
 20
30.7873819712
 11
149.8628043005
 21
30.7228545871
  0
LINE
  8
0
 62
7
  6
CONTINUOUS
 10
150.1518667936
 20
30.7873819712
 11
149.9784292936
 21
30.8841730531
  0
LINE
  8
0
 62
7
  6
CONTINUOUS
 10
155.3549915869
 20
31.4326557675
 11
155.412804528
 21
31.3681283946
  0
LINE
  8
0
 62
7
  6
CONTINUOUS
 10
158.3034290869
 20
31.3681283946
 11
158.361242028
 21
31.2068099625
  0
LINE
  8
0
 62
7
  6
CONTINUOUS
 10
158.6503040869
 20
31.2068099625
 11
158.5924918074
 21
31.3681283946
  0
LINE
  8
0
 62
7
  6
CONTINUOUS
 10
158.361242028
 20
31.2068099625
 11
158.361242028
 21
30.5937998301
  0
LINE
  8
0
 62
7
  6
CONTINUOUS
 10
158.6503040869
 20
30.5937998301
 11
158.6503040869
 21
31.2068099625
  0
LINE
  8
0
 62
7
  6
CONTINUOUS
 10
159.1128043074
 20
31.4326557675
 11
159.1128043074
 21
31.3681283946
  0
LINE
  8
0
 62
7
  6
CONTINUOUS
 10
159.245872955
 20
32.3970785186
 11
159.245872955
 21
34.5282260596
  0
LINE
  8
0
 62
7
  6
CONTINUOUS
 10
159.5737418074
 20
36.1675703219
 11
159.5737418074
 21
32.3970785186
  0
LINE
  8
0
 62
7
  6
CONTINUOUS
 10
154.2565543074
 20
30.9164367395
 11
154.3143669177
 21
31.0132277988
  0
LINE
  8
0
 62
7
  6
CONTINUOUS
 10
149.8628043005
 20
30.7228545871
 11
150.0362418212
 21
30.6583272086
  0
LINE
  8
0
 62
7
  6
CONTINUOUS
 10
151.3659292523
 20
31.4326557675
 11
151.1924917523
 21
31.5294468267
  0
LINE
  8
0
 62
7
  6
CONTINUOUS
 10
154.0253041972
 20
30.7551182848
 11
154.1987416972
 21
30.6583272086
  0
LINE
  8
0
 62
7
  6
CONTINUOUS
 10
153.0424918074
 20
31.4326557675
 11
153.1581166972
 21
31.3681283946
  0
LINE
  8
0
 62
7
  6
CONTINUOUS
 10
153.3893668074
 20
31.4649194539
 11
153.2737419177
 21
31.5294468267
  0
LINE
  8
0
 62
7
  6
CONTINUOUS
 10
159.1128043074
 20
30.8519093441
 11
159.228429528
 21
30.7228545871
  0
LINE
  8
0
 62
7
  6
CONTINUOUS
 10
159.4596793074
 20
30.7873819712
 11
159.401867028
 21
30.8519093441
  0
LINE
  8
0
 62
7
  6
CONTINUOUS
 10
159.1128043074
 20
31.3681283946
 11
159.228429528
 21
31.2390736489
  0
LINE
  8
0
 62
7
  6
CONTINUOUS
 10
158.5924918074
 20
31.3681283946
 11
158.534679528
 21
31.4649194539
  0
LINE
  8
0
 62
7
  6
CONTINUOUS
 10
160.9628038663
 20
30.7873819712
 11
160.9628038663
 21
30.8519093441
  0
LINE
  8
0
 62
7
  6
CONTINUOUS
 10
160.9671844304
 20
32.3970785186
 11
160.9671844304
 21
36.1675703219
  0
LINE
  8
0
 62
7
  6
CONTINUOUS
 10
154.0253041972
 20
31.4971831403
 11
153.9674919177
 21
31.4326557675
  0
LINE
  8
0
 62
7
  6
CONTINUOUS
 10
150.9034292799
 20
31.4649194539
 11
151.0768668626
 21
31.400392081
  0
LINE
  8
0
 62
7
  6
CONTINUOUS
 10
155.6440543074
 20
31.4649194539
 11
155.5284290869
 21
31.5294468267
  0
LINE
  8
0
 62
7
  6
CONTINUOUS
 10
159.4596793074
 20
31.3036010218
 11
159.401867028
 21
31.3681283946
  0
LINE
  8
0
 62
7
  6
CONTINUOUS
 10
160.615929528
 20
30.9164367395
 11
160.6737418074
 21
30.8519093441
  0
LINE
  8
0
 62
7
  6
CONTINUOUS
 10
160.9628038663
 20
30.8519093441
 11
160.8471793074
 21
30.9809641124
  0
LINE
  8
0
 62
7
  6
CONTINUOUS
 10
160.615929528
 20
31.4326557675
 11
160.6737418074
 21
31.3681283946
  0
LINE
  8
0
 62
7
  6
CONTINUOUS
 10
160.9628038663
 20
31.3681283946
 11
160.8471793074
 21
31.4971831403
  0
LINE
  8
0
 62
7
  6
CONTINUOUS
 10
154.2565543074
 20
31.3681283946
 11
154.3143669177
 21
31.4326557675
  0
LINE
  8
0
 62
7
  6
CONTINUOUS
 10
154.0831168074
 20
31.1100188581
 11
153.9674919177
 21
30.9809641124
  0
LINE
  8
0
 62
7
  6
CONTINUOUS
 10
155.412804528
 20
30.9487004259
 11
155.3549915869
 21
30.8841730531
  0
LINE
  8
0
 62
7
  6
CONTINUOUS
 10
155.3549915869
 20
30.6905909007
 11
155.412804528
 21
30.7551182848
  0
LINE
  8
0
 62
7
  6
CONTINUOUS
 10
154.1987416972
 20
30.6583272086
 11
154.3143669177
 21
30.6260635193
  0
LINE
  8
0
 62
7
  6
CONTINUOUS
 10
151.1924917523
 20
31.5294468267
 11
150.9612418074
 21
31.5939741996
  0
LINE
  8
0
 62
7
  6
CONTINUOUS
 10
154.5456166972
 20
30.7228545871
 11
154.3143669177
 21
30.7873819712
  0
LINE
  8
0
 62
7
  6
CONTINUOUS
 10
153.2737419177
 20
31.5294468267
 11
153.1003044177
 21
31.5939741996
  0
LINE
  8
0
 62
7
  6
CONTINUOUS
 10
155.5284290869
 20
31.5294468267
 11
155.3549915869
 21
31.5939741996
  0
LINE
  8
0
 62
7
  6
CONTINUOUS
 10
158.187804528
 20
31.4326557675
 11
158.3034290869
 21
31.3681283946
  0
LINE
  8
0
 62
7
  6
CONTINUOUS
 10
158.534679528
 20
31.4649194539
 11
158.4190543074
 21
31.5294468267
  0
LINE
  8
0
 62
7
  6
CONTINUOUS
 10
150.0362418212
 20
30.6583272086
 11
150.2096793212
 21
30.6260635193
  0
LINE
  8
0
 62
7
  6
CONTINUOUS
 10
150.498741835
 20
30.7228545871
 11
150.1518667936
 21
30.7873819712
  0
LINE
  8
0
 62
7
  6
CONTINUOUS
 10
152.9268669177
 20
31.4649194539
 11
153.0424918074
 21
31.4326557675
  0
LINE
  8
0
 62
7
  6
CONTINUOUS
 10
155.239367028
 20
31.4649194539
 11
155.3549915869
 21
31.4326557675
  0
LINE
  8
0
 62
7
  6
CONTINUOUS
 10
159.575304528
 20
30.7551182848
 11
159.4596793074
 21
30.7873819712
  0
LINE
  8
0
 62
7
  6
CONTINUOUS
 10
158.0721793074
 20
31.4649194539
 11
158.187804528
 21
31.4326557675
  0
LINE
  8
0
 62
7
  6
CONTINUOUS
 10
159.228429528
 20
30.7228545871
 11
159.401867028
 21
30.6583272086
  0
LINE
  8
0
 62
7
  6
CONTINUOUS
 10
158.4190543074
 20
31.5294468267
 11
158.2456168074
 21
31.5939741996
  0
LINE
  8
0
 62
7
  6
CONTINUOUS
 10
159.6331168074
 20
31.2390736489
 11
159.4596793074
 21
31.3036010218
  0
LINE
  8
0
 62
7
  6
CONTINUOUS
 10
160.442492028
 20
30.9809641124
 11
160.615929528
 21
30.9164367395
  0
LINE
  8
0
 62
7
  6
CONTINUOUS
 10
160.8471793074
 20
31.4971831403
 11
160.6737418074
 21
31.5617105132
  0
LINE
  8
0
 62
7
  6
CONTINUOUS
 10
159.228429528
 20
31.2390736489
 11
159.4596793074
 21
31.1422825445
  0
LINE
  8
0
 62
7
  6
CONTINUOUS
 10
160.8471793074
 20
30.9809641124
 11
160.615929528
 21
31.0777551716
  0
LINE
  8
0
 62
7
  6
CONTINUOUS
 10
159.401867028
 20
31.3681283946
 11
159.4596793074
 21
31.4326557675
  0
LINE
  8
0
 62
7
  6
CONTINUOUS
 10
149.8628043005
 20
31.4971831403
 11
149.7471793074
 21
31.4326557675
  0
LINE
  8
0
 62
7
  6
CONTINUOUS
 10
149.9784292936
 20
31.3358647082
 11
150.1518667936
 21
31.4326557675
  0
LINE
  8
0
 62
7
  6
CONTINUOUS
 10
152.2909293626
 20
31.5294468267
 11
152.1753043074
 21
31.4649194539
  0
LINE
  8
0
 62
7
  6
CONTINUOUS
 10
152.1753043074
 20
31.3358647082
 11
152.2909293626
 21
31.400392081
  0
LINE
  8
0
 62
7
  6
CONTINUOUS
 10
151.1924917523
 20
30.6905909007
 11
151.3659292523
 21
30.7873819712
  0
LINE
  8
0
 62
7
  6
CONTINUOUS
 10
150.2096793212
 20
30.6260635193
 11
150.5565542799
 21
30.5937998301
  0
LINE
  8
0
 62
7
  6
CONTINUOUS
 10
154.3143669177
 20
30.6260635193
 11
154.5456166972
 21
30.5937998301
  0
LINE
  8
0
 62
7
  6
CONTINUOUS
 10
152.6956168074
 20
31.4971831403
 11
152.9268669177
 21
31.4649194539
  0
LINE
  8
0
 62
7
  6
CONTINUOUS
 10
155.0081169177
 20
31.4971831403
 11
155.239367028
 21
31.4649194539
  0
LINE
  8
0
 62
7
  6
CONTINUOUS
 10
159.4596793074
 20
31.1422825445
 11
160.442492028
 21
30.9809641124
  0
LINE
  8
0
 62
7
  6
CONTINUOUS
 10
160.615929528
 20
31.0777551716
 11
159.6331168074
 21
31.2390736489
  0
LINE
  8
0
 62
7
  6
CONTINUOUS
 10
153.1003044177
 20
31.5939741996
 11
152.9268669177
 21
31.626237886
  0
LINE
  8
0
 62
7
  6
CONTINUOUS
 10
159.401867028
 20
30.6583272086
 11
159.575304528
 21
30.6260635193
  0
LINE
  8
0
 62
7
  6
CONTINUOUS
 10
158.2456168074
 20
31.5939741996
 11
158.0721793074
 21
31.626237886
  0
LINE
  8
0
 62
7
  6
CONTINUOUS
 10
160.5003043074
 20
31.4649194539
 11
160.615929528
 21
31.4326557675
  0
LINE
  8
0
 62
7
  6
CONTINUOUS
 10
160.6737418074
 20
30.8519093441
 11
160.615929528
 21
30.7873819712
  0
LINE
  8
0
 62
7
  6
CONTINUOUS
 10
159.228429528
 20
31.5294468267
 11
159.1128043074
 21
31.4326557675
  0
LINE
  8
0
 62
7
  6
CONTINUOUS
 10
154.1409294177
 20
31.5617105132
 11
154.0253041972
 21
31.4971831403
  0
LINE
  8
0
 62
7
  6
CONTINUOUS
 10
154.1987416972
 20
31.1745462761
 11
154.0831168074
 21
31.1100188581
  0
LINE
  8
0
 62
7
  6
CONTINUOUS
 10
154.3143669177
 20
31.0132277988
 11
154.4299918074
 21
31.0777551716
  0
LINE
  8
0
 62
7
  6
CONTINUOUS
 10
151.8862417523
 20
30.5937998301
 11
152.1753043074
 21
30.5937998301
  0
LINE
  8
0
 62
7
  6
CONTINUOUS
 10
153.2159293074
 20
30.5937998301
 11
153.5049916972
 21
30.5937998301
  0
LINE
  8
0
 62
7
  6
CONTINUOUS
 10
154.5456166972
 20
30.5937998301
 11
154.8924916972
 21
30.5937998301
  0
LINE
  8
0
 62
7
  6
CONTINUOUS
 10
155.5284290869
 20
30.5937998301
 11
155.8174918074
 21
30.5937998301
  0
LINE
  8
0
 62
7
  6
CONTINUOUS
 10
156.279992028
 20
30.5937998301
 11
156.5690540869
 21
30.5937998301
  0
LINE
  8
0
 62
7
  6
CONTINUOUS
 10
157.0315543074
 20
30.5937998301
 11
157.320617028
 21
30.5937998301
  0
LINE
  8
0
 62
7
  6
CONTINUOUS
 10
158.361242028
 20
30.5937998301
 11
158.6503040869
 21
30.5937998301
  0
LINE
  8
0
 62
7
  6
CONTINUOUS
 10
159.922179528
 20
30.5937998301
 11
160.269054528
 21
30.5937998301
  0
LINE
  8
0
 62
7
  6
CONTINUOUS
 10
160.269054528
 20
30.7228545871
 11
159.922179528
 21
30.7228545871
  0
LINE
  8
0
 62
7
  6
CONTINUOUS
 10
154.8924916972
 20
30.7228545871
 11
154.5456166972
 21
30.7228545871
  0
LINE
  8
0
 62
7
  6
CONTINUOUS
 10
159.401867028
 20
30.8519093441
 11
159.1128043074
 21
30.8519093441
  0
LINE
  8
0
 62
7
  6
CONTINUOUS
 10
151.4237418626
 20
30.9164367395
 11
151.1346793074
 21
30.9164367395
  0
LINE
  8
0
 62
7
  6
CONTINUOUS
 10
150.498741835
 20
31.4971831403
 11
150.9034292799
 21
31.4649194539
  0
LINE
  8
0
 62
7
  6
CONTINUOUS
 10
150.9612418074
 20
31.5939741996
 11
150.5565542799
 21
31.626237886
  0
LINE
  8
0
 62
7
  6
CONTINUOUS
 10
159.575304528
 20
30.6260635193
 11
159.922179528
 21
30.5937998301
  0
LINE
  8
0
 62
7
  6
CONTINUOUS
 10
159.922179528
 20
30.7228545871
 11
159.575304528
 21
30.7551182848
  0
LINE
  8
0
 62
7
  6
CONTINUOUS
 10
155.3549915869
 20
31.5939741996
 11
155.0081169177
 21
31.626237886
  0
LINE
  8
0
 62
7
  6
CONTINUOUS
 10
160.1534293074
 20
31.4971831403
 11
160.5003043074
 21
31.4649194539
  0
LINE
  8
0
 62
7
  6
CONTINUOUS
 10
160.5003043074
 20
31.5939741996
 11
160.1534293074
 21
31.626237886
  0
LINE
  8
0
 62
7
  6
CONTINUOUS
 10
157.840929528
 20
31.4971831403
 11
158.0721793074
 21
31.4649194539
  0
LINE
  8
0
 62
7
  6
CONTINUOUS
 10
160.6737418074
 20
31.5617105132
 11
160.5003043074
 21
31.5939741996
  0
LINE
  8
0
 62
7
  6
CONTINUOUS
 10
160.8471793074
 20
30.6905909007
 11
160.9628038663
 21
30.7873819712
  0
LINE
  8
0
 62
7
  6
CONTINUOUS
 10
155.3549915869
 20
30.8841730531
 11
155.1815540869
 21
30.7873819712
  0
LINE
  8
0
 62
7
  6
CONTINUOUS
 10
157.4362415869
 20
31.5294468267
 11
157.320617028
 21
31.4649194539
  0
LINE
  8
0
 62
7
  6
CONTINUOUS
 10
157.320617028
 20
31.3358647082
 11
157.4362415869
 21
31.400392081
  0
LINE
  8
0
 62
7
  6
CONTINUOUS
 10
150.0362418212
 20
31.5617105132
 11
149.8628043005
 21
31.4971831403
  0
LINE
  8
0
 62
7
  6
CONTINUOUS
 10
152.4643666972
 20
31.5939741996
 11
152.2909293626
 21
31.5294468267
  0
LINE
  8
0
 62
7
  6
CONTINUOUS
 10
152.2909293626
 20
31.400392081
 11
152.4643666972
 21
31.4649194539
  0
LINE
  8
0
 62
7
  6
CONTINUOUS
 10
151.0768668626
 20
30.8196456577
 11
150.9034292799
 21
30.7551182848
  0
LINE
  8
0
 62
7
  6
CONTINUOUS
 10
160.5003043074
 20
30.7551182848
 11
160.269054528
 21
30.7228545871
  0
LINE
  8
0
 62
7
  6
CONTINUOUS
 10
154.8924916972
 20
30.5937998301
 11
155.1815540869
 21
30.6260635193
  0
LINE
  8
0
 62
7
  6
CONTINUOUS
 10
160.269054528
 20
30.5937998301
 11
160.615929528
 21
30.6260635193
  0
LINE
  8
0
 62
7
  6
CONTINUOUS
 10
150.5565542799
 20
30.5937998301
 11
150.9612418074
 21
30.6260635193
  0
LINE
  8
0
 62
7
  6
CONTINUOUS
 10
150.9034292799
 20
30.7551182848
 11
150.498741835
 21
30.7228545871
  0
LINE
  8
0
 62
7
  6
CONTINUOUS
 10
154.7768668074
 20
31.1422825445
 11
155.412804528
 21
31.1422825445
  0
LINE
  8
0
 62
7
  6
CONTINUOUS
 10
155.412804528
 20
31.2713373354
 11
154.7768668074
 21
31.2713373354
  0
LINE
  8
0
 62
7
  6
CONTINUOUS
 10
151.1346793074
 20
31.3036010218
 11
151.4237418626
 21
31.3036010218
  0
LINE
  8
0
 62
7
  6
CONTINUOUS
 10
153.9674919177
 20
31.3681283946
 11
154.2565543074
 21
31.3681283946
  0
LINE
  8
0
 62
7
  6
CONTINUOUS
 10
160.6737418074
 20
31.3681283946
 11
160.9628038663
 21
31.3681283946
  0
LINE
  8
0
 62
7
  6
CONTINUOUS
 10
154.6612419177
 20
31.4971831403
 11
155.0081169177
 21
31.4971831403
  0
LINE
  8
0
 62
7
  6
CONTINUOUS
 10
159.8065543074
 20
31.4971831403
 11
160.1534293074
 21
31.4971831403
  0
LINE
  8
0
 62
7
  6
CONTINUOUS
 10
160.1534293074
 20
31.626237886
 11
159.8065543074
 21
31.626237886
  0
LINE
  8
0
 62
7
  6
CONTINUOUS
 10
158.0721793074
 20
31.626237886
 11
157.840929528
 21
31.626237886
  0
LINE
  8
0
 62
7
  6
CONTINUOUS
 10
157.320617028
 20
31.626237886
 11
157.0315543074
 21
31.626237886
  0
LINE
  8
0
 62
7
  6
CONTINUOUS
 10
156.5690540869
 20
31.626237886
 11
156.279992028
 21
31.626237886
  0
LINE
  8
0
 62
7
  6
CONTINUOUS
 10
155.0081169177
 20
31.626237886
 11
154.6612419177
 21
31.626237886
  0
LINE
  8
0
 62
7
  6
CONTINUOUS
 10
152.9268669177
 20
31.626237886
 11
152.6956168074
 21
31.626237886
  0
LINE
  8
0
 62
7
  6
CONTINUOUS
 10
156.279992028
 20
31.9488748406
 11
156.5690540869
 21
31.9488748406
  0
LINE
  8
0
 62
7
  6
CONTINUOUS
 10
156.5690540869
 20
32.1101932727
 11
156.279992028
 21
32.1101932727
  0
LINE
  8
0
 62
7
  6
CONTINUOUS
 10
152.1753043074
 20
32.1101932727
 11
151.8862417523
 21
32.1101932727
  0
LINE
  8
0
 62
7
  6
CONTINUOUS
 10
151.2130860697
 20
32.3970785186
 11
151.6256574183
 21
32.3970785186
  0
LINE
  8
0
 62
7
  6
CONTINUOUS
 10
152.852430332
 20
32.3970785186
 11
154.245872955
 21
32.3970785186
  0
LINE
  8
0
 62
7
  6
CONTINUOUS
 10
154.5737418074
 20
32.3970785186
 11
155.9671844304
 21
32.3970785186
  0
LINE
  8
0
 62
7
  6
CONTINUOUS
 10
157.852430332
 20
32.3970785186
 11
159.245872955
 21
32.3970785186
  0
LINE
  8
0
 62
7
  6
CONTINUOUS
 10
159.5737418074
 20
32.3970785186
 11
160.9671844304
 21
32.3970785186
  0
LINE
  8
0
 62
7
  6
CONTINUOUS
 10
157.6096790869
 20
31.5939741996
 11
157.4362415869
 21
31.5294468267
  0
LINE
  8
0
 62
7
  6
CONTINUOUS
 10
155.1815540869
 20
30.6260635193
 11
155.3549915869
 21
30.6905909007
  0
LINE
  8
0
 62
7
  6
CONTINUOUS
 10
160.615929528
 20
30.6260635193
 11
160.8471793074
 21
30.6905909007
  0
LINE
  8
0
 62
7
  6
CONTINUOUS
 10
160.615929528
 20
30.7873819712
 11
160.5003043074
 21
30.7551182848
  0
LINE
  8
0
 62
7
  6
CONTINUOUS
 10
159.575304528
 20
31.4649194539
 11
159.8065543074
 21
31.4971831403
  0
LINE
  8
0
 62
7
  6
CONTINUOUS
 10
157.6096790869
 20
31.4649194539
 11
157.840929528
 21
31.4971831403
  0
LINE
  8
0
 62
7
  6
CONTINUOUS
 10
154.5456166972
 20
31.1100188581
 11
154.7768668074
 21
31.1422825445
  0
LINE
  8
0
 62
7
  6
CONTINUOUS
 10
157.840929528
 20
31.626237886
 11
157.6096790869
 21
31.5939741996
  0
LINE
  8
0
 62
7
  6
CONTINUOUS
 10
154.4299918074
 20
31.4649194539
 11
154.6612419177
 21
31.4971831403
  0
LINE
  8
0
 62
7
  6
CONTINUOUS
 10
159.8065543074
 20
31.626237886
 11
159.4596793074
 21
31.5939741996
  0
LINE
  8
0
 62
7
  6
CONTINUOUS
 10
154.7768668074
 20
31.2713373354
 11
154.4299918074
 21
31.2390736489
  0
LINE
  8
0
 62
7
  6
CONTINUOUS
 10
150.5565542799
 20
31.626237886
 11
150.2096793212
 21
31.5939741996
  0
LINE
  8
0
 62
7
  6
CONTINUOUS
 10
154.6612419177
 20
31.626237886
 11
154.2565543074
 21
31.5939741996
  0
LINE
  8
0
 62
7
  6
CONTINUOUS
 10
152.0327582009
 20
33.5446195022
 11
151.3770204959
 21
33.5446195022
  0
LINE
  8
0
 62
7
  6
CONTINUOUS
 10
157.4362415869
 20
31.400392081
 11
157.6096790869
 21
31.4649194539
  0
LINE
  8
0
 62
7
  6
CONTINUOUS
 10
159.4596793074
 20
31.4326557675
 11
159.575304528
 21
31.4649194539
  0
LINE
  8
0
 62
7
  6
CONTINUOUS
 10
159.4596793074
 20
31.5939741996
 11
159.228429528
 21
31.5294468267
  0
LINE
  8
0
 62
7
  6
CONTINUOUS
 10
155.1815540869
 20
30.7873819712
 11
154.8924916972
 21
30.7228545871
  0
LINE
  8
0
 62
7
  6
CONTINUOUS
 10
152.4643666972
 20
31.4649194539
 11
152.6956168074
 21
31.4971831403
  0
LINE
  8
0
 62
7
  6
CONTINUOUS
 10
152.6956168074
 20
31.626237886
 11
152.4643666972
 21
31.5939741996
  0
LINE
  8
0
 62
7
  6
CONTINUOUS
 10
150.2674918074
 20
31.4649194539
 11
150.498741835
 21
31.4971831403
  0
LINE
  8
0
 62
7
  6
CONTINUOUS
 10
156.7868565615
 20
35.0200293383
 11
157.4425942664
 21
35.0200293383
  0
LINE
  8
0
 62
7
  6
CONTINUOUS
 10
154.4299918074
 20
31.0777551716
 11
154.5456166972
 21
31.1100188581
  0
LINE
  8
0
 62
7
  6
CONTINUOUS
 10
154.4299918074
 20
31.2390736489
 11
154.1987416972
 21
31.1745462761
  0
LINE
  8
0
 62
7
  6
CONTINUOUS
 10
154.3143669177
 20
31.4326557675
 11
154.4299918074
 21
31.4649194539
  0
LINE
  8
0
 62
7
  6
CONTINUOUS
 10
150.9612418074
 20
30.6260635193
 11
151.1924917523
 21
30.6905909007
  0
LINE
  8
0
 62
7
  6
CONTINUOUS
 10
154.2565543074
 20
31.5939741996
 11
154.1409294177
 21
31.5617105132
  0
LINE
  8
0
 62
7
  6
CONTINUOUS
 10
150.2096793212
 20
31.5939741996
 11
150.0362418212
 21
31.5617105132
  0
LINE
  8
0
 62
7
  6
CONTINUOUS
 10
160.9671844304
 20
36.1675703219
 11
159.5737418074
 21
36.1675703219
  0
LINE
  8
0
 62
7
  6
CONTINUOUS
 10
157.6065286927
 20
36.1675703219
 11
157.1939573441
 21
36.1675703219
  0
LINE
  8
0
 62
7
  6
CONTINUOUS
 10
155.9671844304
 20
36.1675703219
 11
154.5737418074
 21
36.1675703219
  0
LINE
  8
0
 62
7
  6
CONTINUOUS
 10
154.245872955
 20
36.1675703219
 11
152.852430332
 21
36.1675703219
  0
LINE
  8
0
 62
7
  6
CONTINUOUS
 10
150.9671844304
 20
36.1675703219
 11
149.5737418074
 21
36.1675703219
  0
LINE
  8
0
 62
7
  6
CONTINUOUS
 10
150.1518667936
 20
31.4326557675
 11
150.2674918074
 21
31.4649194539
  0
CIRCLE
  8
0
 62
7
  6
CONTINUOUS
 10
160.2704631189
 20
38.5036358957
 40
2.0901639344
  0
ARC
  8
0
 62
7
  6
CONTINUOUS
 10
151.2130860697
 20
34.0364227809
 40
1.6393442623
 50
180.0
 51
270.0
  0
ARC
  8
0
 62
7
  6
CONTINUOUS
 10
157.6065286927
 20
34.5282260596
 40
1.6393442623
 50
0.0
 51
90.0
  0
ARC
  8
0
 62
7
  6
CONTINUOUS
 10
151.6256574183
 20
33.8724883547
 40
1.4754098361
 50
270.0
 51
326.2510114041
  0
ARC
  8
0
 62
7
  6
CONTINUOUS
 10
157.1939573441
 20
34.6921604858
 40
1.4754098361
 50
90.0
 51
146.2510114041
  0
ARC
  8
0
 62
7
  6
CONTINUOUS
 10
152.0327582009
 20
34.3642916334
 40
0.8196721311
 50
270.0
 51
360.0
  0
ARC
  8
0
 62
7
  6
CONTINUOUS
 10
156.7868565615
 20
34.2003572071
 40
0.8196721311
 50
90.0
 51
180.0
  0
ARC
  8
0
 62
7
  6
CONTINUOUS
 10
151.3770204959
 20
33.9544555678
 40
0.4098360656
 50
180.0
 51
270.0
  0
ARC
  8
0
 62
7
  6
CONTINUOUS
 10
157.4425942664
 20
34.6101932727
 40
0.4098360656
 50
0.0
 51
90.0
  0
SOLID
  8
0
 62
7
  6
CONTINUOUS
 10
156.279992028
 20
31.9488752009
 11
156.279992028
 21
32.1101936845
 12
156.5690540869
 22
31.9488752009
 13
156.5690540869
 23
32.1101936845
  0
SOLID
  8
0
 62
7
  6
CONTINUOUS
 10
150.5565542799
 20
31.6262382337
 11
150.9612418074
 21
31.5939740028
 12
150.2096793212
 22
31.5939740028
 13
150.2096793212
 23
31.5939740028
  0
SOLID
  8
0
 62
7
  6
CONTINUOUS
 10
150.0362418212
 20
31.5617111435
 11
150.2096793212
 21
31.5939740028
 12
150.9612418074
 22
31.5939740028
 13
150.9612418074
 23
31.5939740028
  0
SOLID
  8
0
 62
7
  6
CONTINUOUS
 10
150.9612418074
 20
31.5939740028
 11
151.1924917523
 21
31.5294468402
 12
150.0362418212
 22
31.5617111435
 13
150.0362418212
 23
31.5617111435
  0
SOLID
  8
0
 62
7
  6
CONTINUOUS
 10
149.8628043005
 20
31.49718259
 11
150.0362418212
 21
31.5617111435
 12
151.1924917523
 22
31.5294468402
 13
151.1924917523
 23
31.5294468402
  0
SOLID
  8
0
 62
7
  6
CONTINUOUS
 10
149.8628043005
 20
31.49718259
 11
151.1924917523
 21
31.5294468402
 12
150.498741835
 22
31.49718259
 13
150.498741835
 23
31.49718259
  0
SOLID
  8
0
 62
7
  6
CONTINUOUS
 10
150.498741835
 20
31.49718259
 11
151.1924917523
 21
31.5294468402
 12
150.9034292799
 22
31.4649197501
 13
150.9034292799
 23
31.4649197501
  0
SOLID
  8
0
 62
7
  6
CONTINUOUS
 10
151.1924917523
 20
31.5294468402
 11
151.3659292523
 21
31.4326554468
 12
150.9034292799
 22
31.4649197501
 13
150.9034292799
 23
31.4649197501
  0
SOLID
  8
0
 62
7
  6
CONTINUOUS
 10
151.0768668626
 20
31.4003926599
 11
150.9034292799
 21
31.4649197501
 12
151.3659292523
 22
31.4326554468
 13
151.3659292523
 23
31.4326554468
  0
SOLID
  8
0
 62
7
  6
CONTINUOUS
 10
151.0768668626
 20
31.4003926599
 11
151.3659292523
 21
31.4326554468
 12
151.1346793074
 22
31.3036013776
 13
151.1346793074
 23
31.3036013776
  0
SOLID
  8
0
 62
7
  6
CONTINUOUS
 10
151.3659292523
 20
31.4326554468
 11
151.4237418626
 21
31.3036013776
 12
151.1346793074
 22
31.3036013776
 13
151.1346793074
 23
31.3036013776
  0
SOLID
  8
0
 62
7
  6
CONTINUOUS
 10
152.4643666972
 20
31.5939739754
 11
152.6956168074
 21
31.6262382787
 12
152.9268669177
 22
31.6262382787
 13
152.9268669177
 23
31.6262382787
  0
SOLID
  8
0
 62
7
  6
CONTINUOUS
 10
152.9268669177
 20
31.6262382787
 11
153.1003044177
 21
31.5939739754
 12
152.4643666972
 22
31.5939739754
 13
152.4643666972
 23
31.5939739754
  0
SOLID
  8
0
 62
7
  6
CONTINUOUS
 10
152.2909293626
 20
31.5294468852
 11
152.4643666972
 21
31.5939739754
 12
153.1003044177
 22
31.5939739754
 13
153.1003044177
 23
31.5939739754
  0
SOLID
  8
0
 62
7
  6
CONTINUOUS
 10
153.1003044177
 20
31.5939739754
 11
153.2737419177
 21
31.5294468852
 12
152.2909293626
 22
31.5294468852
 13
152.2909293626
 23
31.5294468852
  0
SOLID
  8
0
 62
7
  6
CONTINUOUS
 10
153.2737419177
 20
31.5294468852
 11
152.6956168074
 21
31.4971825369
 12
152.2909293626
 22
31.5294468852
 13
152.2909293626
 23
31.5294468852
  0
SOLID
  8
0
 62
7
  6
CONTINUOUS
 10
152.1753043074
 20
31.4649197951
 11
152.2909293626
 21
31.5294468852
 12
152.6956168074
 22
31.4971825369
 13
152.6956168074
 23
31.4971825369
  0
SOLID
  8
0
 62
7
  6
CONTINUOUS
 10
152.6956168074
 20
31.4971825369
 11
152.4643666972
 21
31.4649197951
 12
152.1753043074
 22
31.4649197951
 13
152.1753043074
 23
31.4649197951
  0
SOLID
  8
0
 62
7
  6
CONTINUOUS
 10
152.6956168074
 20
31.4971825369
 11
153.2737419177
 21
31.5294468852
 12
152.9268669177
 22
31.4649197951
 13
152.9268669177
 23
31.4649197951
  0
SOLID
  8
0
 62
7
  6
CONTINUOUS
 10
153.2737419177
 20
31.5294468852
 11
153.3893668074
 21
31.4649197951
 12
152.9268669177
 22
31.4649197951
 13
152.9268669177
 23
31.4649197951
  0
SOLID
  8
0
 62
7
  6
CONTINUOUS
 10
153.0424918074
 20
31.4326554468
 11
152.9268669177
 21
31.4649197951
 12
153.3893668074
 22
31.4649197951
 13
153.3893668074
 23
31.4649197951
  0
SOLID
  8
0
 62
7
  6
CONTINUOUS
 10
153.3893668074
 20
31.4649197951
 11
153.4471794177
 21
31.4003927049
 12
153.0424918074
 22
31.4326554468
 13
153.0424918074
 23
31.4326554468
  0
SOLID
  8
0
 62
7
  6
CONTINUOUS
 10
153.1581166972
 20
31.3681283566
 11
153.0424918074
 21
31.4326554468
 12
153.4471794177
 22
31.4003927049
 13
153.4471794177
 23
31.4003927049
  0
SOLID
  8
0
 62
7
  6
CONTINUOUS
 10
153.1581166972
 20
31.3681283566
 11
153.4471794177
 21
31.4003927049
 12
153.2159293074
 22
31.2390742213
 13
153.2159293074
 23
31.2390742213
  0
SOLID
  8
0
 62
7
  6
CONTINUOUS
 10
153.4471794177
 20
31.4003927049
 11
153.5049916972
 21
31.2390742213
 12
153.2159293074
 22
31.2390742213
 13
153.2159293074
 23
31.2390742213
  0
SOLID
  8
0
 62
7
  6
CONTINUOUS
 10
152.4643666972
 20
31.4649197951
 11
152.2909293626
 21
31.4003927049
 12
152.1753043074
 22
31.4649197951
 13
152.1753043074
 23
31.4649197951
  0
SOLID
  8
0
 62
7
  6
CONTINUOUS
 10
152.2909293626
 20
31.4003927049
 11
152.1753043074
 21
31.3358640533
 12
152.1753043074
 22
31.4649197951
 13
152.1753043074
 23
31.4649197951
  0
SOLID
  8
0
 62
7
  6
CONTINUOUS
 10
152.1753043074
 20
31.3358640533
 11
151.8862417523
 21
30.5938002869
 12
152.1753043074
 22
31.4649197951
 13
152.1753043074
 23
31.4649197951
  0
SOLID
  8
0
 62
7
  6
CONTINUOUS
 10
152.1753043074
 20
31.4649197951
 11
151.8862417523
 21
30.5938002869
 12
152.1753043074
 22
32.1101937295
 13
152.1753043074
 23
32.1101937295
  0
SOLID
  8
0
 62
7
  6
CONTINUOUS
 10
151.8862417523
 20
30.5938002869
 11
151.8862417523
 21
32.1101937295
 12
152.1753043074
 22
32.1101937295
 13
152.1753043074
 23
32.1101937295
  0
SOLID
  8
0
 62
7
  6
CONTINUOUS
 10
152.1753043074
 20
31.3358640533
 11
152.1753043074
 21
30.5938002869
 12
151.8862417523
 22
30.5938002869
 13
151.8862417523
 23
30.5938002869
  0
SOLID
  8
0
 62
7
  6
CONTINUOUS
 10
153.2159293074
 20
30.5938002869
 11
153.2159293074
 21
31.2390742213
 12
153.5049916972
 22
31.2390742213
 13
153.5049916972
 23
31.2390742213
  0
SOLID
  8
0
 62
7
  6
CONTINUOUS
 10
153.5049916972
 20
31.2390742213
 11
153.5049916972
 21
30.5938002869
 12
153.2159293074
 22
30.5938002869
 13
153.2159293074
 23
30.5938002869
  0
SOLID
  8
0
 62
7
  6
CONTINUOUS
 10
154.2565543074
 20
31.5939738288
 11
154.6612419177
 21
31.6262385959
 12
155.0081169177
 22
31.6262385959
 13
155.0081169177
 23
31.6262385959
  0
SOLID
  8
0
 62
7
  6
CONTINUOUS
 10
155.0081169177
 20
31.6262385959
 11
155.3549915869
 21
31.5939738288
 12
154.2565543074
 22
31.5939738288
 13
154.2565543074
 23
31.5939738288
  0
SOLID
  8
0
 62
7
  6
CONTINUOUS
 10
154.1409294177
 20
31.5617111435
 11
154.2565543074
 21
31.5939738288
 12
155.3549915869
 22
31.5939738288
 13
155.3549915869
 23
31.5939738288
  0
SOLID
  8
0
 62
7
  6
CONTINUOUS
 10
155.3549915869
 20
31.5939738288
 11
155.5284290869
 21
31.5294468402
 12
154.1409294177
 22
31.5617111435
 13
154.1409294177
 23
31.5617111435
  0
SOLID
  8
0
 62
7
  6
CONTINUOUS
 10
154.0253041972
 20
31.4971826249
 11
154.1409294177
 21
31.5617111435
 12
155.5284290869
 22
31.5294468402
 13
155.5284290869
 23
31.5294468402
  0
SOLID
  8
0
 62
7
  6
CONTINUOUS
 10
154.0253041972
 20
31.4971826249
 11
155.5284290869
 21
31.5294468402
 12
154.6612419177
 22
31.4971826249
 13
154.6612419177
 23
31.4971826249
  0
SOLID
  8
0
 62
7
  6
CONTINUOUS
 10
154.6612419177
 20
31.4971826249
 11
155.5284290869
 21
31.5294468402
 12
155.0081169177
 22
31.4971826249
 13
155.0081169177
 23
31.4971826249
  0
SOLID
  8
0
 62
7
  6
CONTINUOUS
 10
155.0081169177
 20
31.4971826249
 11
155.5284290869
 21
31.5294468402
 12
155.239367028
 22
31.4649194065
 13
155.239367028
 23
31.4649194065
  0
SOLID
  8
0
 62
7
  6
CONTINUOUS
 10
155.5284290869
 20
31.5294468402
 11
155.6440543074
 21
31.4649194065
 12
155.239367028
 22
31.4649194065
 13
155.239367028
 23
31.4649194065
  0
SOLID
  8
0
 62
7
  6
CONTINUOUS
 10
153.9674919177
 20
31.4326554138
 11
154.0253041972
 21
31.4971826249
 12
154.6612419177
 22
31.4971826249
 13
154.6612419177
 23
31.4971826249
  0
SOLID
  8
0
 62
7
  6
CONTINUOUS
 10
155.3549915869
 20
31.4326554138
 11
155.239367028
 21
31.4649194065
 12
155.6440543074
 22
31.4649194065
 13
155.6440543074
 23
31.4649194065
  0
SOLID
  8
0
 62
7
  6
CONTINUOUS
 10
155.3549915869
 20
31.4326554138
 11
155.6440543074
 21
31.4649194065
 12
155.412804528
 22
31.3681282026
 13
155.412804528
 23
31.3681282026
  0
SOLID
  8
0
 62
7
  6
CONTINUOUS
 10
155.6440543074
 20
31.4649194065
 11
155.7018665869
 21
31.3681282026
 12
155.412804528
 22
31.3681282026
 13
155.412804528
 23
31.3681282026
  0
SOLID
  8
0
 62
7
  6
CONTINUOUS
 10
155.412804528
 20
31.2713369632
 11
155.412804528
 21
31.3681282026
 12
155.7018665869
 22
31.3681282026
 13
155.7018665869
 23
31.3681282026
  0
SOLID
  8
0
 62
7
  6
CONTINUOUS
 10
155.412804528
 20
31.2713369632
 11
155.7018665869
 21
31.3681282026
 12
155.412804528
 22
31.1422827828
 13
155.412804528
 23
31.1422827828
  0
SOLID
  8
0
 62
7
  6
CONTINUOUS
 10
155.412804528
 20
31.1422827828
 11
155.7018665869
 21
31.3681282026
 12
155.412804528
 22
30.9487004259
 13
155.412804528
 23
30.9487004259
  0
SOLID
  8
0
 62
7
  6
CONTINUOUS
 10
155.7018665869
 20
31.3681282026
 11
155.7018665869
 21
30.8519086025
 12
155.412804528
 22
30.9487004259
 13
155.412804528
 23
30.9487004259
  0
SOLID
  8
0
 62
7
  6
CONTINUOUS
 10
157.6096790869
 20
31.5939736268
 11
157.840929528
 21
31.6262383465
 12
158.0721793074
 22
31.6262383465
 13
158.0721793074
 23
31.6262383465
  0
SOLID
  8
0
 62
7
  6
CONTINUOUS
 10
158.0721793074
 20
31.6262383465
 11
158.2456168074
 21
31.5939736268
 12
157.6096790869
 22
31.5939736268
 13
157.6096790869
 23
31.5939736268
  0
SOLID
  8
0
 62
7
  6
CONTINUOUS
 10
157.4362415869
 20
31.5294472848
 11
157.6096790869
 21
31.5939736268
 12
158.2456168074
 22
31.5939736268
 13
158.2456168074
 23
31.5939736268
  0
SOLID
  8
0
 62
7
  6
CONTINUOUS
 10
158.2456168074
 20
31.5939736268
 11
158.4190543074
 21
31.5294472848
 12
157.4362415869
 22
31.5294472848
 13
157.4362415869
 23
31.5294472848
  0
SOLID
  8
0
 62
7
  6
CONTINUOUS
 10
158.4190543074
 20
31.5294472848
 11
157.840929528
 21
31.4971825369
 12
157.4362415869
 22
31.5294472848
 13
157.4362415869
 23
31.5294472848
  0
SOLID
  8
0
 62
7
  6
CONTINUOUS
 10
157.320617028
 20
31.4649199103
 11
157.4362415869
 21
31.5294472848
 12
157.840929528
 22
31.4971825369
 13
157.840929528
 23
31.4971825369
  0
SOLID
  8
0
 62
7
  6
CONTINUOUS
 10
157.840929528
 20
31.4971825369
 11
157.6096790869
 21
31.4649199103
 12
157.320617028
 22
31.4649199103
 13
157.320617028
 23
31.4649199103
  0
SOLID
  8
0
 62
7
  6
CONTINUOUS
 10
157.840929528
 20
31.4971825369
 11
158.4190543074
 21
31.5294472848
 12
158.0721793074
 22
31.4649199103
 13
158.0721793074
 23
31.4649199103
  0
SOLID
  8
0
 62
7
  6
CONTINUOUS
 10
158.4190543074
 20
31.5294472848
 11
158.534679528
 21
31.4649199103
 12
158.0721793074
 22
31.4649199103
 13
158.0721793074
 23
31.4649199103
  0
SOLID
  8
0
 62
7
  6
CONTINUOUS
 10
158.187804528
 20
31.4326554468
 11
158.0721793074
 21
31.4649199103
 12
158.534679528
 22
31.4649199103
 13
158.534679528
 23
31.4649199103
  0
SOLID
  8
0
 62
7
  6
CONTINUOUS
 10
158.187804528
 20
31.4326554468
 11
158.534679528
 21
31.4649199103
 12
158.3034290869
 22
31.3681288486
 13
158.3034290869
 23
31.3681288486
  0
SOLID
  8
0
 62
7
  6
CONTINUOUS
 10
158.534679528
 20
31.4649199103
 11
158.5924918074
 21
31.3681288486
 12
158.3034290869
 22
31.3681288486
 13
158.3034290869
 23
31.3681288486
  0
SOLID
  8
0
 62
7
  6
CONTINUOUS
 10
158.361242028
 20
31.2068093799
 11
158.3034290869
 21
31.3681288486
 12
158.5924918074
 22
31.3681288486
 13
158.5924918074
 23
31.3681288486
  0
SOLID
  8
0
 62
7
  6
CONTINUOUS
 10
158.5924918074
 20
31.3681288486
 11
158.6503040869
 21
31.2068093799
 12
158.361242028
 22
31.2068093799
 13
158.361242028
 23
31.2068093799
  0
SOLID
  8
0
 62
7
  6
CONTINUOUS
 10
157.6096790869
 20
31.4649199103
 11
157.4362415869
 21
31.4003926599
 12
157.320617028
 22
31.4649199103
 13
157.320617028
 23
31.4649199103
  0
SOLID
  8
0
 62
7
  6
CONTINUOUS
 10
157.4362415869
 20
31.4003926599
 11
157.320617028
 21
31.3358640533
 12
157.320617028
 22
31.4649199103
 13
157.320617028
 23
31.4649199103
  0
SOLID
  8
0
 62
7
  6
CONTINUOUS
 10
157.320617028
 20
31.3358640533
 11
157.0315543074
 21
30.5938003547
 12
157.320617028
 22
31.4649199103
 13
157.320617028
 23
31.4649199103
  0
SOLID
  8
0
 62
7
  6
CONTINUOUS
 10
157.320617028
 20
31.4649199103
 11
157.0315543074
 21
30.5938003547
 12
157.320617028
 22
31.6262383465
 13
157.320617028
 23
31.6262383465
  0
SOLID
  8
0
 62
7
  6
CONTINUOUS
 10
157.0315543074
 20
30.5938003547
 11
157.0315543074
 21
31.6262383465
 12
157.320617028
 22
31.6262383465
 13
157.320617028
 23
31.6262383465
  0
SOLID
  8
0
 62
7
  6
CONTINUOUS
 10
157.320617028
 20
31.3358640533
 11
157.320617028
 21
30.5938003547
 12
157.0315543074
 22
30.5938003547
 13
157.0315543074
 23
30.5938003547
  0
SOLID
  8
0
 62
7
  6
CONTINUOUS
 10
158.361242028
 20
30.5938003547
 11
158.361242028
 21
31.2068093799
 12
158.6503040869
 22
31.2068093799
 13
158.6503040869
 23
31.2068093799
  0
SOLID
  8
0
 62
7
  6
CONTINUOUS
 10
158.6503040869
 20
31.2068093799
 11
158.6503040869
 21
30.5938003547
 12
158.361242028
 22
30.5938003547
 13
158.361242028
 23
30.5938003547
  0
SOLID
  8
0
 62
7
  6
CONTINUOUS
 10
159.4596793074
 20
31.5939739474
 11
159.8065543074
 21
31.6262381969
 12
160.1534293074
 22
31.6262381969
 13
160.1534293074
 23
31.6262381969
  0
SOLID
  8
0
 62
7
  6
CONTINUOUS
 10
160.1534293074
 20
31.6262381969
 11
160.5003043074
 21
31.5939739474
 12
159.4596793074
 22
31.5939739474
 13
159.4596793074
 23
31.5939739474
  0
SOLID
  8
0
 62
7
  6
CONTINUOUS
 10
159.228429528
 20
31.5294468402
 11
159.4596793074
 21
31.5939739474
 12
160.5003043074
 22
31.5939739474
 13
160.5003043074
 23
31.5939739474
  0
SOLID
  8
0
 62
7
  6
CONTINUOUS
 10
159.228429528
 20
31.5294468402
 11
160.5003043074
 21
31.5939739304
 12
160.6737418074
 22
31.5617111435
 13
160.6737418074
 23
31.5617111435
  0
SOLID
  8
0
 62
7
  6
CONTINUOUS
 10
159.228429528
 20
31.5294468402
 11
160.6737418074
 21
31.5617111435
 12
159.8065543074
 22
31.4971825592
 13
159.8065543074
 23
31.4971825592
  0
SOLID
  8
0
 62
7
  6
CONTINUOUS
 10
159.8065543074
 20
31.4971825592
 11
160.6737418074
 21
31.5617111435
 12
160.1534293074
 22
31.4971825592
 13
160.1534293074
 23
31.4971825592
  0
SOLID
  8
0
 62
7
  6
CONTINUOUS
 10
160.6737418074
 20
31.5617111435
 11
160.8471793074
 21
31.4971825592
 12
160.1534293074
 22
31.4971825592
 13
160.1534293074
 23
31.4971825592
  0
SOLID
  8
0
 62
7
  6
CONTINUOUS
 10
160.5003043074
 20
31.4649197501
 11
160.1534293074
 21
31.4971825592
 12
160.8471793074
 22
31.4971825592
 13
160.8471793074
 23
31.4971825592
  0
SOLID
  8
0
 62
7
  6
CONTINUOUS
 10
159.1128043074
 20
31.4326555427
 11
159.228429528
 21
31.5294468402
 12
159.8065543074
 22
31.4971825592
 13
159.8065543074
 23
31.4971825592
  0
SOLID
  8
0
 62
7
  6
CONTINUOUS
 10
160.5003043074
 20
31.4649197501
 11
160.8471793074
 21
31.4971825592
 12
160.615929528
 22
31.4326555427
 13
160.615929528
 23
31.4326555427
  0
SOLID
  8
0
 62
7
  6
CONTINUOUS
 10
160.615929528
 20
31.4326555427
 11
160.8471793074
 21
31.4971825592
 12
160.6737418074
 22
31.3681283005
 13
160.6737418074
 23
31.3681283005
  0
SOLID
  8
0
 62
7
  6
CONTINUOUS
 10
160.8471793074
 20
31.4971825592
 11
160.9628038663
 21
31.3681283005
 12
160.6737418074
 22
31.3681283005
 13
160.6737418074
 23
31.3681283005
  0
SOLID
  8
0
 62
7
  6
CONTINUOUS
 10
150.2674918074
 20
31.4649197501
 11
149.7471793074
 21
31.4326554237
 12
150.498741835
 22
31.4971824493
 13
150.498741835
 23
31.4971824493
  0
SOLID
  8
0
 62
7
  6
CONTINUOUS
 10
149.7471793074
 20
31.4326554237
 11
149.8628043005
 21
31.4971824493
 12
150.498741835
 22
31.4971824493
 13
150.498741835
 23
31.4971824493
  0
SOLID
  8
0
 62
7
  6
CONTINUOUS
 10
150.2674918074
 20
31.4649197501
 11
150.1518667936
 21
31.4326554237
 12
149.7471793074
 22
31.4326554237
 13
149.7471793074
 23
31.4326554237
  0
SOLID
  8
0
 62
7
  6
CONTINUOUS
 10
149.6315543091
 20
31.3036012664
 11
149.7471793074
 21
31.4326554237
 12
150.1518667936
 22
31.4326554237
 13
150.1518667936
 23
31.4326554237
  0
SOLID
  8
0
 62
7
  6
CONTINUOUS
 10
153.9674919177
 20
31.4326554237
 11
154.6612419177
 21
31.4971825369
 12
154.4299918074
 22
31.4649197501
 13
154.4299918074
 23
31.4649197501
  0
SOLID
  8
0
 62
7
  6
CONTINUOUS
 10
154.4299918074
 20
31.4649197501
 11
154.3143669177
 21
31.4326554237
 12
153.9674919177
 22
31.4326554237
 13
153.9674919177
 23
31.4326554237
  0
SOLID
  8
0
 62
7
  6
CONTINUOUS
 10
153.9674919177
 20
31.3681283335
 11
153.9674919177
 21
31.4326554237
 12
154.3143669177
 22
31.4326554237
 13
154.3143669177
 23
31.4326554237
  0
SOLID
  8
0
 62
7
  6
CONTINUOUS
 10
154.3143669177
 20
31.4326554237
 11
154.2565543074
 21
31.3681283335
 12
153.9674919177
 22
31.3681283335
 13
153.9674919177
 23
31.3681283335
  0
SOLID
  8
0
 62
7
  6
CONTINUOUS
 10
159.1128043074
 20
31.4326555528
 11
159.8065543074
 21
31.4971825369
 12
159.575304528
 22
31.4649197501
 13
159.575304528
 23
31.4649197501
  0
SOLID
  8
0
 62
7
  6
CONTINUOUS
 10
159.575304528
 20
31.4649197501
 11
159.4596793074
 21
31.4326555528
 12
159.1128043074
 22
31.4326555528
 13
159.1128043074
 23
31.4326555528
  0
SOLID
  8
0
 62
7
  6
CONTINUOUS
 10
159.1128043074
 20
31.3681284626
 11
159.1128043074
 21
31.4326555528
 12
159.4596793074
 22
31.4326555528
 13
159.4596793074
 23
31.4326555528
  0
SOLID
  8
0
 62
7
  6
CONTINUOUS
 10
159.4596793074
 20
31.4326555528
 11
159.401867028
 21
31.3681284626
 12
159.1128043074
 22
31.3681284626
 13
159.1128043074
 23
31.3681284626
  0
SOLID
  8
0
 62
7
  6
CONTINUOUS
 10
159.228429528
 20
31.2390741763
 11
159.1128043074
 21
31.3681284626
 12
159.401867028
 22
31.3681284626
 13
159.401867028
 23
31.3681284626
  0
SOLID
  8
0
 62
7
  6
CONTINUOUS
 10
149.6315543091
 20
31.3036012664
 11
150.1518667936
 21
31.4326554468
 12
149.9784292936
 22
31.3358640533
 13
149.9784292936
 23
31.3358640533
  0
SOLID
  8
0
 62
7
  6
CONTINUOUS
 10
149.9784292936
 20
31.3358640533
 11
149.9206168074
 21
31.2713369632
 12
149.6315543091
 22
31.3036012664
 13
149.6315543091
 23
31.3036012664
  0
SOLID
  8
0
 62
7
  6
CONTINUOUS
 10
149.5737418074
 20
31.1100184796
 11
149.6315543091
 21
31.3036012664
 12
149.9206168074
 22
31.2713369632
 13
149.9206168074
 23
31.2713369632
  0
SOLID
  8
0
 62
7
  6
CONTINUOUS
 10
154.4299918074
 20
31.2390741763
 11
154.7768668074
 21
31.271336924
 12
155.412804528
 22
31.271336924
 13
155.412804528
 23
31.271336924
  0
SOLID
  8
0
 62
7
  6
CONTINUOUS
 10
154.4299918074
 20
31.2390741763
 11
155.412804528
 21
31.271336924
 12
154.1987416972
 22
31.1745462761
 13
154.1987416972
 23
31.1745462761
  0
SOLID
  8
0
 62
7
  6
CONTINUOUS
 10
154.1987416972
 20
31.1745462761
 11
155.412804528
 21
31.271336924
 12
154.7768668074
 22
31.1422827436
 13
154.7768668074
 23
31.1422827436
  0
SOLID
  8
0
 62
7
  6
CONTINUOUS
 10
155.412804528
 20
31.271336924
 11
155.412804528
 21
31.1422827436
 12
154.7768668074
 22
31.1422827436
 13
154.7768668074
 23
31.1422827436
  0
SOLID
  8
0
 62
7
  6
CONTINUOUS
 10
159.228429528
 20
31.2390745501
 11
159.401867028
 21
31.3681283566
 12
159.4596793074
 22
31.3036012664
 13
159.4596793074
 23
31.3036012664
  0
SOLID
  8
0
 62
7
  6
CONTINUOUS
 10
159.4596793074
 20
31.3036012664
 11
159.6331168074
 21
31.2390745501
 12
159.228429528
 22
31.2390745501
 13
159.228429528
 23
31.2390745501
  0
SOLID
  8
0
 62
7
  6
CONTINUOUS
 10
159.4596793074
 20
31.1422827828
 11
159.228429528
 21
31.2390745501
 12
159.6331168074
 22
31.2390745501
 13
159.6331168074
 23
31.2390745501
  0
SOLID
  8
0
 62
7
  6
CONTINUOUS
 10
159.6331168074
 20
31.2390745501
 11
160.615929528
 21
31.0777556927
 12
159.4596793074
 22
31.1422827828
 13
159.4596793074
 23
31.1422827828
  0
SOLID
  8
0
 62
7
  6
CONTINUOUS
 10
160.442492028
 20
30.9809646623
 11
159.4596793074
 21
31.1422827828
 12
160.615929528
 22
31.0777556927
 13
160.615929528
 23
31.0777556927
  0
SOLID
  8
0
 62
7
  6
CONTINUOUS
 10
160.615929528
 20
31.0777556927
 11
160.8471793074
 21
30.9809646623
 12
160.442492028
 22
30.9809646623
 13
160.442492028
 23
30.9809646623
  0
SOLID
  8
0
 62
7
  6
CONTINUOUS
 10
160.615929528
 20
30.9164372091
 11
160.442492028
 21
30.9809646623
 12
160.8471793074
 22
30.9809646623
 13
160.8471793074
 23
30.9809646623
  0
SOLID
  8
0
 62
7
  6
CONTINUOUS
 10
160.615929528
 20
30.9164372091
 11
160.8471793074
 21
30.9809646623
 12
160.6737418074
 22
30.8519089441
 13
160.6737418074
 23
30.8519089441
  0
SOLID
  8
0
 62
7
  6
CONTINUOUS
 10
160.8471793074
 20
30.9809646623
 11
160.9628038663
 21
30.8519089441
 12
160.6737418074
 22
30.8519089441
 13
160.6737418074
 23
30.8519089441
  0
SOLID
  8
0
 62
7
  6
CONTINUOUS
 10
160.615929528
 20
30.7873818593
 11
160.6737418074
 21
30.8519089441
 12
160.9628038663
 22
30.8519089441
 13
160.9628038663
 23
30.8519089441
  0
SOLID
  8
0
 62
7
  6
CONTINUOUS
 10
160.9628038663
 20
30.8519089441
 11
160.9628038663
 21
30.7873818593
 12
160.615929528
 22
30.7873818593
 13
160.615929528
 23
30.7873818593
  0
SOLID
  8
0
 62
7
  6
CONTINUOUS
 10
160.5003043074
 20
30.7551187255
 11
160.615929528
 21
30.7873818593
 12
160.9628038663
 22
30.7873818593
 13
160.9628038663
 23
30.7873818593
  0
SOLID
  8
0
 62
7
  6
CONTINUOUS
 10
160.5003043074
 20
30.7551187255
 11
160.9628038663
 21
30.7873818593
 12
160.269054528
 22
30.7228547745
 13
160.269054528
 23
30.7228547745
  0
SOLID
  8
0
 62
7
  6
CONTINUOUS
 10
160.9628038663
 20
30.7873818593
 11
160.8471793074
 21
30.6905916353
 12
160.269054528
 22
30.7228547745
 13
160.269054528
 23
30.7228547745
  0
SOLID
  8
0
 62
7
  6
CONTINUOUS
 10
160.8471793074
 20
30.6905916353
 11
159.401867028
 21
30.658327332
 12
160.269054528
 22
30.7228547745
 13
160.269054528
 23
30.7228547745
  0
SOLID
  8
0
 62
7
  6
CONTINUOUS
 10
160.269054528
 20
30.7228547745
 11
159.401867028
 21
30.658327332
 12
159.922179528
 22
30.7228547745
 13
159.922179528
 23
30.7228547745
  0
SOLID
  8
0
 62
7
  6
CONTINUOUS
 10
159.401867028
 20
30.658327332
 11
159.228429528
 21
30.7228547745
 12
159.922179528
 22
30.7228547745
 13
159.922179528
 23
30.7228547745
  0
SOLID
  8
0
 62
7
  6
CONTINUOUS
 10
159.401867028
 20
30.658327332
 11
160.8471793074
 21
30.6905916353
 12
159.575304528
 22
30.6260629858
 13
159.575304528
 23
30.6260629858
  0
SOLID
  8
0
 62
7
  6
CONTINUOUS
 10
160.8471793074
 20
30.6905916353
 11
160.615929528
 21
30.6260629858
 12
159.575304528
 22
30.6260629858
 13
159.575304528
 23
30.6260629858
  0
SOLID
  8
0
 62
7
  6
CONTINUOUS
 10
159.922179528
 20
30.5938006049
 11
159.575304528
 21
30.6260629858
 12
160.615929528
 22
30.6260629858
 13
160.615929528
 23
30.6260629858
  0
SOLID
  8
0
 62
7
  6
CONTINUOUS
 10
160.615929528
 20
30.6260629858
 11
160.269054528
 21
30.5938006049
 12
159.922179528
 22
30.5938006049
 13
159.922179528
 23
30.5938006049
  0
SOLID
  8
0
 62
7
  6
CONTINUOUS
 10
149.5737418074
 20
31.1100184796
 11
149.9206168074
 21
31.2713369632
 12
149.8628043005
 22
31.1422827828
 13
149.8628043005
 23
31.1422827828
  0
SOLID
  8
0
 62
7
  6
CONTINUOUS
 10
149.8628043005
 20
31.1422827828
 11
149.8628043005
 21
31.0454914852
 12
149.5737418074
 22
31.1100184796
 13
149.5737418074
 23
31.1100184796
  0
SOLID
  8
0
 62
7
  6
CONTINUOUS
 10
149.6315543091
 20
30.9164372091
 11
149.5737418074
 21
31.1100184796
 12
149.8628043005
 22
31.0454914852
 13
149.8628043005
 23
31.0454914852
  0
SOLID
  8
0
 62
7
  6
CONTINUOUS
 10
149.8628043005
 20
31.0454914852
 11
149.9784292936
 21
30.8841729058
 12
149.6315543091
 22
30.9164372091
 13
149.6315543091
 23
30.9164372091
  0
SOLID
  8
0
 62
7
  6
CONTINUOUS
 10
149.7471793074
 20
30.7873813202
 11
149.6315543091
 21
30.9164372091
 12
149.9784292936
 22
30.8841729058
 13
149.9784292936
 23
30.8841729058
  0
SOLID
  8
0
 62
7
  6
CONTINUOUS
 10
149.9784292936
 20
30.8841729058
 11
150.1518667936
 21
30.7873813202
 12
149.7471793074
 22
30.7873813202
 13
149.7471793074
 23
30.7873813202
  0
SOLID
  8
0
 62
7
  6
CONTINUOUS
 10
149.8628043005
 20
30.7228547004
 11
149.7471793074
 21
30.7873813202
 12
150.1518667936
 22
30.7873813202
 13
150.1518667936
 23
30.7873813202
  0
SOLID
  8
0
 62
7
  6
CONTINUOUS
 10
150.1518667936
 20
30.7873813202
 11
150.498741835
 21
30.7228547004
 12
149.8628043005
 22
30.7228547004
 13
149.8628043005
 23
30.7228547004
  0
SOLID
  8
0
 62
7
  6
CONTINUOUS
 10
150.0362418212
 20
30.658327332
 11
149.8628043005
 21
30.7228547004
 12
150.498741835
 22
30.7228547004
 13
150.498741835
 23
30.7228547004
  0
SOLID
  8
0
 62
7
  6
CONTINUOUS
 10
154.0831168074
 20
31.1100184386
 11
154.1987416972
 21
31.1745462761
 12
154.7768668074
 22
31.1422827828
 13
154.7768668074
 23
31.1422827828
  0
SOLID
  8
0
 62
7
  6
CONTINUOUS
 10
154.7768668074
 20
31.1422827828
 11
154.5456166972
 21
31.1100184386
 12
154.0831168074
 22
31.1100184386
 13
154.0831168074
 23
31.1100184386
  0
SOLID
  8
0
 62
7
  6
CONTINUOUS
 10
153.9674919177
 20
30.9809642992
 11
154.0831168074
 21
31.1100184386
 12
154.5456166972
 22
31.1100184386
 13
154.5456166972
 23
31.1100184386
  0
SOLID
  8
0
 62
7
  6
CONTINUOUS
 10
154.3143669177
 20
31.0132277988
 11
153.9674919177
 21
30.9809642992
 12
154.4299918074
 22
31.0777556927
 13
154.4299918074
 23
31.0777556927
  0
SOLID
  8
0
 62
7
  6
CONTINUOUS
 10
153.9674919177
 20
30.9809642992
 11
154.5456166972
 21
31.1100184796
 12
154.4299918074
 22
31.0777556927
 13
154.4299918074
 23
31.0777556927
  0
SOLID
  8
0
 62
7
  6
CONTINUOUS
 10
154.3143669177
 20
31.0132277988
 11
154.2565543074
 21
30.9164372091
 12
153.9674919177
 22
30.9809642992
 13
153.9674919177
 23
30.9809642992
  0
SOLID
  8
0
 62
7
  6
CONTINUOUS
 10
153.9674919177
 20
30.8841729058
 11
153.9674919177
 21
30.9809642992
 12
154.2565543074
 22
30.9164372091
 13
154.2565543074
 23
30.9164372091
  0
SOLID
  8
0
 62
7
  6
CONTINUOUS
 10
154.2565543074
 20
30.9164372091
 11
154.2565543074
 21
30.8519086025
 12
153.9674919177
 22
30.8841729058
 13
153.9674919177
 23
30.8841729058
  0
SOLID
  8
0
 62
7
  6
CONTINUOUS
 10
154.0253041972
 20
30.7551187255
 11
153.9674919177
 21
30.8841729058
 12
154.2565543074
 22
30.8519086025
 13
154.2565543074
 23
30.8519086025
  0
SOLID
  8
0
 62
7
  6
CONTINUOUS
 10
155.412804528
 20
30.9487004259
 11
155.7018665869
 21
30.8519086025
 12
155.3549915869
 22
30.8841729058
 13
155.3549915869
 23
30.8841729058
  0
SOLID
  8
0
 62
7
  6
CONTINUOUS
 10
155.1815540869
 20
30.7873815123
 11
155.3549915869
 21
30.8841729058
 12
155.7018665869
 22
30.8519086025
 13
155.7018665869
 23
30.8519086025
  0
SOLID
  8
0
 62
7
  6
CONTINUOUS
 10
155.1815540869
 20
30.7873815123
 11
155.7018665869
 21
30.8519086025
 12
155.412804528
 22
30.7551187255
 13
155.412804528
 23
30.7551187255
  0
SOLID
  8
0
 62
7
  6
CONTINUOUS
 10
155.7018665869
 20
30.8519086025
 11
155.759679528
 21
30.6905916353
 12
155.412804528
 22
30.7551187255
 13
155.412804528
 23
30.7551187255
  0
SOLID
  8
0
 62
7
  6
CONTINUOUS
 10
155.4706168074
 20
30.658327332
 11
155.412804528
 21
30.7551187255
 12
155.759679528
 22
30.6905916353
 13
155.759679528
 23
30.6905916353
  0
SOLID
  8
0
 62
7
  6
CONTINUOUS
 10
155.4706168074
 20
30.658327332
 11
155.759679528
 21
30.6905916353
 12
155.5284290869
 22
30.5938002079
 13
155.5284290869
 23
30.5938002079
  0
SOLID
  8
0
 62
7
  6
CONTINUOUS
 10
155.759679528
 20
30.6905916353
 11
155.8174918074
 21
30.5938002079
 12
155.5284290869
 22
30.5938002079
 13
155.5284290869
 23
30.5938002079
  0
SOLID
  8
0
 62
7
  6
CONTINUOUS
 10
151.0768668626
 20
30.8196456577
 11
151.1346793074
 21
30.9164373395
 12
151.4237418626
 22
30.9164373395
 13
151.4237418626
 23
30.9164373395
  0
SOLID
  8
0
 62
7
  6
CONTINUOUS
 10
151.4237418626
 20
30.9164373395
 11
151.3659292523
 21
30.7873815123
 12
151.0768668626
 22
30.8196456577
 13
151.0768668626
 23
30.8196456577
  0
SOLID
  8
0
 62
7
  6
CONTINUOUS
 10
150.9034292799
 20
30.7551187255
 11
151.0768668626
 21
30.8196456577
 12
151.3659292523
 22
30.7873815123
 13
151.3659292523
 23
30.7873815123
  0
SOLID
  8
0
 62
7
  6
CONTINUOUS
 10
150.9034292799
 20
30.7551187255
 11
151.3659292523
 21
30.7873815123
 12
150.498741835
 22
30.7228544222
 13
150.498741835
 23
30.7228544222
  0
SOLID
  8
0
 62
7
  6
CONTINUOUS
 10
151.3659292523
 20
30.7873815123
 11
151.1924917523
 21
30.6905916353
 12
150.498741835
 22
30.7228544222
 13
150.498741835
 23
30.7228544222
  0
SOLID
  8
0
 62
7
  6
CONTINUOUS
 10
150.0362418212
 20
30.658327332
 11
150.498741835
 21
30.7228544222
 12
151.1924917523
 22
30.6905916353
 13
151.1924917523
 23
30.6905916353
  0
SOLID
  8
0
 62
7
  6
CONTINUOUS
 10
150.0362418212
 20
30.658327332
 11
151.1924917523
 21
30.6905916353
 12
150.2096793212
 22
30.6260631011
 13
150.2096793212
 23
30.6260631011
  0
SOLID
  8
0
 62
7
  6
CONTINUOUS
 10
151.1924917523
 20
30.6905916353
 11
150.9612418074
 21
30.6260631011
 12
150.2096793212
 22
30.6260631011
 13
150.2096793212
 23
30.6260631011
  0
SOLID
  8
0
 62
7
  6
CONTINUOUS
 10
150.5565542799
 20
30.5938002419
 11
150.2096793212
 21
30.6260631011
 12
150.9612418074
 22
30.6260631011
 13
150.9612418074
 23
30.6260631011
  0
SOLID
  8
0
 62
7
  6
CONTINUOUS
 10
154.0253041972
 20
30.7551187255
 11
154.2565543074
 21
30.8519086025
 12
154.3143669177
 22
30.7873815123
 13
154.3143669177
 23
30.7873815123
  0
SOLID
  8
0
 62
7
  6
CONTINUOUS
 10
154.3143669177
 20
30.7873815123
 11
154.5456166972
 21
30.7228544222
 12
154.0253041972
 22
30.7551187255
 13
154.0253041972
 23
30.7551187255
  0
SOLID
  8
0
 62
7
  6
CONTINUOUS
 10
154.1987416972
 20
30.658327332
 11
154.0253041972
 21
30.7551187255
 12
154.5456166972
 22
30.7228544222
 13
154.5456166972
 23
30.7228544222
  0
SOLID
  8
0
 62
7
  6
CONTINUOUS
 10
154.8924916972
 20
30.7228544637
 11
155.1815540869
 21
30.7873815123
 12
155.412804528
 22
30.7551187255
 13
155.412804528
 23
30.7551187255
  0
SOLID
  8
0
 62
7
  6
CONTINUOUS
 10
155.412804528
 20
30.7551187255
 11
155.3549915869
 21
30.6905916353
 12
154.8924916972
 22
30.7228544637
 13
154.8924916972
 23
30.7228544637
  0
SOLID
  8
0
 62
7
  6
CONTINUOUS
 10
155.3549915869
 20
30.6905916353
 11
154.1987416972
 21
30.658327332
 12
154.8924916972
 22
30.7228544637
 13
154.8924916972
 23
30.7228544637
  0
SOLID
  8
0
 62
7
  6
CONTINUOUS
 10
154.1987416972
 20
30.658327332
 11
154.5456166972
 21
30.7228544637
 12
154.8924916972
 22
30.7228544637
 13
154.8924916972
 23
30.7228544637
  0
SOLID
  8
0
 62
7
  6
CONTINUOUS
 10
154.1987416972
 20
30.658327332
 11
155.3549915869
 21
30.6905916353
 12
154.3143669177
 22
30.6260630541
 13
154.3143669177
 23
30.6260630541
  0
SOLID
  8
0
 62
7
  6
CONTINUOUS
 10
155.3549915869
 20
30.6905916353
 11
155.1815540869
 21
30.6260630541
 12
154.3143669177
 22
30.6260630541
 13
154.3143669177
 23
30.6260630541
  0
SOLID
  8
0
 62
7
  6
CONTINUOUS
 10
154.5456166972
 20
30.5938002188
 11
154.3143669177
 21
30.6260630541
 12
155.1815540869
 22
30.6260630541
 13
155.1815540869
 23
30.6260630541
  0
SOLID
  8
0
 62
7
  6
CONTINUOUS
 10
155.1815540869
 20
30.6260630541
 11
154.8924916972
 21
30.5938002188
 12
154.5456166972
 22
30.5938002188
 13
154.5456166972
 23
30.5938002188
  0
SOLID
  8
0
 62
7
  6
CONTINUOUS
 10
159.575304528
 20
30.7551187255
 11
159.228429528
 21
30.7228544637
 12
159.4596793074
 22
30.7873815123
 13
159.4596793074
 23
30.7873815123
  0
SOLID
  8
0
 62
7
  6
CONTINUOUS
 10
159.4596793074
 20
30.7873815123
 11
159.228429528
 21
30.7228544637
 12
159.401867028
 22
30.851908644
 13
159.401867028
 23
30.851908644
  0
SOLID
  8
0
 62
7
  6
CONTINUOUS
 10
159.228429528
 20
30.7228544637
 11
159.1128043074
 21
30.851908644
 12
159.401867028
 22
30.851908644
 13
159.401867028
 23
30.851908644
  0
SOLID
  8
0
 62
7
  6
CONTINUOUS
 10
159.575304528
 20
30.7551187255
 11
159.922179528
 21
30.7228544637
 12
159.228429528
 22
30.7228544637
 13
159.228429528
 23
30.7228544637
  0
SOLID
  8
0
 62
7
  6
CONTINUOUS
 10
156.279992028
 20
30.5938002419
 11
156.279992028
 21
31.6262382337
 12
156.5690540869
 22
30.5938002419
 13
156.5690540869
 23
31.6262382337
  0
ENDBLK
  8
0
  6
BYBLOCK
 62
0
  0
BLOCK
  8
0
 62
2
  6
CONTINUOUS
  2
AMMEAAL_LOGO_BL0
 70
64
 10
32.1213064866
 20
19.8534310916
  0
TEXT
  8
0
 62
7
  6
CONTINUOUS
 10
18.3860103289
 20
19.2268451992
  7
TEXTSTYLE_3
 40
2.7338706658
  1
Ammeraal Beltech
 41
1.0
 51
15.0
 72
0
  0
TEXT
  8
0
 62
7
  6
CONTINUOUS
 10
29.1868111546
 20
16.9533085264
  7
TEXTSTYLE_4
 40
1.0935482663
  1
Innovation & Service in Belting
 41
1.0
 72
0
  0
LINE
  8
0
 62
7
  6
CONTINUOUS
 10
12.3614696776
 20
19.9934385078
 11
13.1396216709
 21
23.6543558055
  0
LINE
  8
0
 62
7
  6
CONTINUOUS
 10
23.2347899607
 20
27.3177497171
 11
13.6274394139
 21
24.1961322958
  0
LINE
  8
0
 62
7
  6
CONTINUOUS
 10
12.5867530099
 20
19.3000877048
 11
20.093828271
 21
12.5406867788
  0
LINE
  8
0
 62
7
  6
CONTINUOUS
 10
12.8492874206
 20
20.5352149982
 11
23.6575567857
 21
24.0470345971
  0
LINE
  8
0
 62
7
  6
CONTINUOUS
 10
23.6533516486
 20
13.6972460334
 11
15.2078919798
 21
21.3015720751
  0
LINE
  8
0
 62
7
  6
CONTINUOUS
 10
24.1731743684
 20
26.4728246013
 11
23.1966148312
 21
21.8784731989
  0
LINE
  8
0
 62
7
  6
CONTINUOUS
 10
22.4968128835
 20
18.5861638851
 11
21.810364672
 21
15.3566789607
  0
LINE
  8
0
 62
7
  6
CONTINUOUS
 10
24.8542704669
 20
14.087448211
 11
25.8105020025
 21
18.5861638851
  0
LINE
  8
0
 62
7
  6
CONTINUOUS
 10
26.5103039502
 20
21.8784731989
 11
26.9545457526
 21
23.9684665583
  0
LINE
  8
0
 62
7
  6
CONTINUOUS
 10
20.8069293463
 20
12.3891124661
 11
24.3664527239
 21
13.5456717207
  0
LINE
  8
0
 62
7
  6
CONTINUOUS
 10
23.9478910361
 20
27.1661754044
 11
26.7292624203
 21
24.6618173613
  0
ARC
  8
0
 62
7
  6
CONTINUOUS
 10
13.8527227462
 20
23.5027814928
 40
0.7290321776
 50
108.0
 51
168.0
  0
ARC
  8
0
 62
7
  6
CONTINUOUS
 10
23.4600732931
 20
26.624398914
 40
0.7290321776
 50
348.0
 51
108.0
  0
ARC
  8
0
 62
7
  6
CONTINUOUS
 10
26.2414446773
 20
24.120040871
 40
0.7290321776
 50
348.0
 51
48.0
  0
ARC
  8
0
 62
7
  6
CONTINUOUS
 10
20.581646014
 20
13.0824632691
 40
0.7290321776
 50
228.0
 51
288.0
  0
ARC
  8
0
 62
7
  6
CONTINUOUS
 10
13.0745707529
 20
19.8418641951
 40
0.7290321776
 50
108.0
 51
228.0
  0
ARC
  8
0
 62
7
  6
CONTINUOUS
 10
24.1411693916
 20
14.2390225237
 40
0.7290321776
 50
228.0
 51
348.0
  0
ENDBLK
  8
0
  6
BYBLOCK
 62
0
  0
ENDSEC
  0
SECTION
  2
ENTITIES
  0
TEXT
  8
0
 62
5
  6
CONTINUOUS
 10
96.0
 20
25.636
  7
TEXTSTYLE_2
 40
2.8
  1
Scale :
 41
0.6
 51
0.000019
 72
0
  0
TEXT
  8
0
 62
5
  6
CONTINUOUS
 10
116.0
 20
25.636
  7
TEXTSTYLE_2
 40
2.8
  1
Belt type:
 41
0.6
 51
0.000019
 72
0
  0
INSERT
  8
0
 62
2
  6
CONTINUOUS
  2
AMMEAAL_LOGO_BL0
 10
32.1213064866
 20
19.8534310916
  0
INSERT
  8
0
 62
2
  6
CONTINUOUS
  2
UNI_LOGO2_BL1
 10
173.5956734183
 20
35.5937998301
  0
LINE
  8
0
 62
2
  6
CONTINUOUS
 10
10.0
 20
30.0
 11
200.0
 21
30.0
  0
LINE
  8
0
 62
2
  6
CONTINUOUS
 10
10.0
 20
30.0
 11
10.0
 21
10.0
  0
LINE
  8
0
 62
2
  6
CONTINUOUS
 10
10.0
 20
10.0
 11
200.0
 21
10.0
  0
LINE
  8
0
 62
2
  6
CONTINUOUS
 10
95.0
 20
30.0
 11
95.0
 21
10.0
  0
LINE
  8
0
 62
2
  6
CONTINUOUS
 10
115.0
 20
30.0
 11
115.0
 21
10.0
  0
LINE
  8
0
 62
2
  6
CONTINUOUS
 10
200.0
 20
30.0
 11
200.0
 21
10.0
  0
TEXT
  8
0
 62
5
  6
CONTINUOUS
 10
13.0
 20
23.303
  7
TEXTSTYLE_5
 40
1.52
  1
                                                                     Ammeraal Beltech Modular A/S
 41
1.0
 72
0
  0
TEXT
  8
0
 62
5
  6
CONTINUOUS
 10
13.0
 20
20.595
  7
TEXTSTYLE_5
 40
1.5
  1
                                                                      Hjulmagervej 21,  7100 Vejle,  DK
 41
1.0
 72
0
  0
TEXT
  8
0
 62
5
  6
CONTINUOUS
 10
13.0
 20
17.881
  7
TEXTSTYLE_5
 40
1.495
  1
                                                                      tel: 
 41
1.0
 72
0
  0
TEXT
  8
0
 62
5
  6
CONTINUOUS
 10
57.9869465649
 20
17.881
  7
TEXTSTYLE_5
 40
1.51
  1
+45 75723100     fax: +45 75723348
 41
1.0
 72
0
  0
TEXT
  8
0
 62
5
  6
CONTINUOUS
 10
13.0
 20
15.177
  7
TEXTSTYLE_5
 40
1.5
  1
                                                                      admin@unichains.dk  www.unichains.com
 41
1.0
 72
0
  0
TEXT
  8
0
 62
5
  6
CONTINUOUS
 10
99.75
 20
13.75
  7
TEXTSTYLE_6
 40
5.0
  1
1:1
 41
0.7
 72
1
 11
105.0
 21
13.75
  0
TEXT
  8
0
 62
5
  6
CONTINUOUS
 10
118.0
 20
13.75
  7
TEXTSTYLE_7
 40
7.5
  1
Z08
 41
0.7555555556
 72
0
  0
LINE
  8
0
 62
7
  6
CONTINUOUS
 10
210.0
 20
0.0
 11
0.0
 21
0.0
  0
LINE
  8
0
 62
7
  6
CONTINUOUS
 10
10.0
 20
10.0
 11
200.0
 21
10.0
  0
LINE
  8
0
 62
7
  6
CONTINUOUS
 10
10.0
 20
30.0
 11
200.0
 21
30.0
  0
LINE
  8
0
 62
7
  6
CONTINUOUS
 10
0.0
 20
0.0
 11
0.0
 21
297.0
  0
LINE
  8
0
 62
7
  6
CONTINUOUS
 10
10.0
 20
10.0
 11
10.0
 21
287.0
  0
LINE
  8
0
 62
7
  6
CONTINUOUS
 10
200.0
 20
287.0
 11
200.0
 21
10.0
  0
LINE
  8
0
 62
7
  6
CONTINUOUS
 10
210.0
 20
0.0
 11
210.0
 21
297.0
  0
LINE
  8
0
 62
7
  6
CONTINUOUS
 10
10.0
 20
287.0
 11
200.0
 21
287.0
  0
LINE
  8
0
 62
7
  6
CONTINUOUS
 10
0.0
 20
297.0
 11
210.0
 21
297.0
  0
LINE
  8
0
 62
7
  6
CONTINUOUS
 10
59.4150461458
 20
226.2102922141
 11
59.2092296978
 21
225.7318502177
  0
LINE
  8
0
 62
7
  6
CONTINUOUS
 10
62.8651173108
 20
232.7333618078
 11
62.5165766306
 21
232.2145705258
  0
LINE
  8
0
 62
7
  6
CONTINUOUS
 10
68.5496453159
 20
240.0052372447
 11
68.193611276
 21
239.6250974077
  0
LINE
  8
0
 62
7
  6
CONTINUOUS
 10
73.868023466
 20
244.8960998548
 11
73.3922130716
 21
244.490847503
  0
LINE
  8
0
 62
7
  6
CONTINUOUS
 10
71.4096691566
 20
242.8022955222
 11
70.695953565
 21
242.1944169947
  0
LINE
  8
0
 62
7
  6
CONTINUOUS
 10
77.0620072178
 20
247.1322553169
 11
74.9886147202
 21
245.7354577113
  0
LINE
  8
0
 62
7
  6
CONTINUOUS
 10
88.2673114236
 20
252.6010407428
 11
84.3735206807
 21
251.1179724652
  0
LINE
  8
0
 62
7
  6
CONTINUOUS
 10
61.3844756169
 20
218.3804422883
 11
61.3823827999
 21
217.9504143917
  0
LINE
  8
0
 62
7
  6
CONTINUOUS
 10
61.7941709921
 20
217.8431395861
 11
61.7962638361
 21
218.2731674756
  0
LINE
  8
0
 62
7
  6
CONTINUOUS
 10
59.7653552213
 20
222.7797145912
 11
59.7237411143
 21
222.3516995468
  0
LINE
  8
0
 62
7
  6
CONTINUOUS
 10
60.1239245976
 20
222.2070256131
 11
60.1655387046
 21
222.6350406575
  0
LINE
  8
0
 62
7
  6
CONTINUOUS
 10
58.8675051523
 20
220.112570478
 11
58.7362052308
 21
219.6085587765
  0
LINE
  8
0
 62
7
  6
CONTINUOUS
 10
58.2110056669
 20
217.5925124393
 11
58.0797057736
 21
217.088500846
  0
LINE
  8
0
 62
7
  6
CONTINUOUS
 10
61.3823827999
 20
217.9504143917
 11
61.2773428702
 21
217.5472050594
  0
LINE
  8
0
 62
7
  6
CONTINUOUS
 10
61.6891310624
 20
217.4399302538
 11
61.7941709921
 21
217.8431395861
  0
LINE
  8
0
 62
7
  6
CONTINUOUS
 10
62.0830307517
 20
218.9519650698
 11
62.2143306733
 21
219.4559767712
  0
LINE
  8
0
 62
7
  6
CONTINUOUS
 10
67.986428759
 20
239.2482625453
 11
67.8568935648
 21
238.7987074743
  0
LINE
  8
0
 62
7
  6
CONTINUOUS
 10
59.9070151992
 20
223.1715611522
 11
59.7653552213
 21
222.7797145912
  0
LINE
  8
0
 62
7
  6
CONTINUOUS
 10
59.4466204231
 20
221.8980602494
 11
59.2695455014
 21
221.4082521883
  0
LINE
  8
0
 62
7
  6
CONTINUOUS
 10
62.4710136482
 20
220.2508606172
 11
62.6480885699
 21
220.7406686783
  0
LINE
  8
0
 62
7
  6
CONTINUOUS
 10
63.2855581664
 20
222.5039773618
 11
63.4626329867
 21
222.9937851427
  0
LINE
  8
0
 62
7
  6
CONTINUOUS
 10
59.6978514392
 20
225.5216546413
 11
59.9036678872
 21
226.0000966376
  0
LINE
  8
0
 62
7
  6
CONTINUOUS
 10
60.8809116439
 20
225.5797053669
 11
60.6750951959
 21
225.1012633706
  0
LINE
  8
0
 62
7
  6
CONTINUOUS
 10
63.8022746151
 20
223.7560115634
 11
64.008091063
 21
224.2344535598
  0
LINE
  8
0
 62
7
  6
CONTINUOUS
 10
68.5235103766
 20
238.8879595162
 11
68.6594854336
 21
239.1887657151
  0
LINE
  8
0
 62
7
  6
CONTINUOUS
 10
68.193611276
 20
239.6250974077
 11
67.986428759
 21
239.2482625453
  0
LINE
  8
0
 62
7
  6
CONTINUOUS
 10
72.011509084
 20
237.4765005149
 11
71.8043265671
 21
237.0996656524
  0
LINE
  8
0
 62
7
  6
CONTINUOUS
 10
72.2702007791
 20
236.6633339089
 11
72.5485891194
 21
237.116195701
  0
LINE
  8
0
 62
7
  6
CONTINUOUS
 10
68.2283215745
 20
232.8949492148
 11
66.4856181736
 21
230.3009928048
  0
LINE
  8
0
 62
7
  6
CONTINUOUS
 10
66.6669068865
 20
229.4262450844
 11
68.7581509676
 21
232.5389927763
  0
LINE
  8
0
 62
7
  6
CONTINUOUS
 10
60.1655387046
 20
222.6350406575
 11
60.4072445534
 21
222.990718735
  0
LINE
  8
0
 62
7
  6
CONTINUOUS
 10
78.5368990487
 20
245.6886954229
 11
78.3371631754
 21
245.4258662647
  0
LINE
  8
0
 62
7
  6
CONTINUOUS
 10
68.3667086415
 20
235.7860631539
 11
67.4571656592
 21
234.6461206846
  0
LINE
  8
0
 62
7
  6
CONTINUOUS
 10
67.8729501001
 20
234.3143725213
 11
68.7824930824
 21
235.4543149906
  0
LINE
  8
0
 62
7
  6
CONTINUOUS
 10
60.1133060028
 20
223.4292774493
 11
59.9070151992
 21
223.1715611522
  0
LINE
  8
0
 62
7
  6
CONTINUOUS
 10
68.6594854336
 20
239.1887657151
 11
69.0867269335
 21
239.6449342156
  0
LINE
  8
0
 62
7
  6
CONTINUOUS
 10
69.9021968981
 20
239.7374929722
 11
70.329438398
 21
240.1936614726
  0
LINE
  8
0
 62
7
  6
CONTINUOUS
 10
70.1737668522
 20
238.6268267292
 11
69.7465253523
 21
238.1706582288
  0
LINE
  8
0
 62
7
  6
CONTINUOUS
 10
70.21239951
 20
237.7343265362
 11
70.6396410098
 21
238.1904950366
  0
LINE
  8
0
 62
7
  6
CONTINUOUS
 10
70.1214954525
 20
236.3922694302
 11
69.6942539526
 21
235.9361009298
  0
LINE
  8
0
 62
7
  6
CONTINUOUS
 10
71.8043265671
 20
237.0996656524
 11
71.2346717772
 21
236.4914415653
  0
LINE
  8
0
 62
7
  6
CONTINUOUS
 10
71.7005459892
 20
236.0551098218
 11
72.2702007791
 21
236.6633339089
  0
LINE
  8
0
 62
7
  6
CONTINUOUS
 10
79.855602429
 20
242.9854703217
 11
80.2281223234
 21
243.3647001761
  0
LINE
  8
0
 62
7
  6
CONTINUOUS
 10
73.9379723787
 20
238.3879338394
 11
74.4137827731
 21
238.7931861911
  0
LINE
  8
0
 62
7
  6
CONTINUOUS
 10
76.3963266882
 20
240.4817381719
 11
77.1100422798
 21
241.0896166995
  0
LINE
  8
0
 62
7
  6
CONTINUOUS
 10
68.9833266787
 20
240.312656873
 11
68.5496453159
 21
240.0052372447
  0
LINE
  8
0
 62
7
  6
CONTINUOUS
 10
70.6074465851
 20
238.9342446174
 11
70.1737668522
 21
238.6268267292
  0
LINE
  8
0
 62
7
  6
CONTINUOUS
 10
71.2668646197
 20
235.7476901998
 11
71.7005459892
 21
236.0551098218
  0
LINE
  8
0
 62
7
  6
CONTINUOUS
 10
75.863591978
 20
245.5552803679
 11
77.5050283643
 21
246.6610789164
  0
LINE
  8
0
 62
7
  6
CONTINUOUS
 10
78.3371631754
 20
245.4258662647
 11
76.6957267891
 21
244.3200677162
  0
LINE
  8
0
 62
7
  6
CONTINUOUS
 10
77.0523559224
 20
243.7906909714
 11
78.6937923088
 21
244.8964895199
  0
LINE
  8
0
 62
7
  6
CONTINUOUS
 10
79.5853652671
 20
243.5730474726
 11
77.9439288808
 21
242.4672489241
  0
LINE
  8
0
 62
7
  6
CONTINUOUS
 10
77.7822099314
 20
241.5886727161
 11
79.855602429
 21
242.9854703217
  0
LINE
  8
0
 62
7
  6
CONTINUOUS
 10
70.6396410098
 20
238.1904950366
 11
71.0021149127
 21
238.4218860015
  0
LINE
  8
0
 62
7
  6
CONTINUOUS
 10
69.8499256071
 20
237.5029355713
 11
70.21239951
 21
237.7343265362
  0
LINE
  8
0
 62
7
  6
CONTINUOUS
 10
71.2346717772
 20
236.4914415653
 11
70.8721978744
 21
236.2600506004
  0
LINE
  8
0
 62
7
  6
CONTINUOUS
 10
69.0867269335
 20
239.6449342156
 11
69.3779933764
 21
239.800296517
  0
LINE
  8
0
 62
7
  6
CONTINUOUS
 10
69.7465253523
 20
238.1706582288
 11
69.4552589094
 21
238.0152959273
  0
LINE
  8
0
 62
7
  6
CONTINUOUS
 10
91.0697177553
 20
252.7330300826
 11
91.5474645085
 21
252.9661489195
  0
LINE
  8
0
 62
7
  6
CONTINUOUS
 10
93.0084932337
 20
249.3878909817
 11
92.5307510978
 21
249.1547733359
  0
LINE
  8
0
 62
7
  6
CONTINUOUS
 10
91.4145879599
 20
253.4811996058
 11
90.8359786411
 21
253.2220595054
  0
LINE
  8
0
 62
7
  6
CONTINUOUS
 10
92.6636276649
 20
248.6397225775
 11
93.2422369814
 21
248.8988626869
  0
LINE
  8
0
 62
7
  6
CONTINUOUS
 10
95.9017619618
 20
253.7707156103
 11
96.2985398049
 21
253.9365421427
  0
LINE
  8
0
 62
7
  6
CONTINUOUS
 10
97.3549998061
 20
252.478895806
 11
96.9582266806
 21
252.3130699668
  0
LINE
  8
0
 62
7
  6
CONTINUOUS
 10
96.2110722485
 20
251.6656591739
 11
96.6078500917
 21
251.8314857064
  0
LINE
  8
0
 62
7
  6
CONTINUOUS
 10
97.6797755941
 20
250.2685866363
 11
97.2830024687
 21
250.1027607971
  0
LINE
  8
0
 62
7
  6
CONTINUOUS
 10
77.5534034952
 20
247.3350262486
 11
77.0620072178
 21
247.1322553169
  0
LINE
  8
0
 62
7
  6
CONTINUOUS
 10
84.5628485956
 20
250.6208926655
 11
87.9699138246
 21
251.918576772
  0
LINE
  8
0
 62
7
  6
CONTINUOUS
 10
89.8198005112
 20
248.5249858981
 11
86.5100786026
 21
247.264377947
  0
LINE
  8
0
 62
7
  6
CONTINUOUS
 10
86.1532032927
 20
246.4454217913
 11
90.0469940356
 21
247.9284900689
  0
LINE
  8
0
 62
7
  6
CONTINUOUS
 10
96.2212122441
 20
254.4628061781
 11
95.7213759209
 21
254.2818365609
  0
LINE
  8
0
 62
7
  6
CONTINUOUS
 10
97.4633885204
 20
249.5916397727
 11
97.9632248421
 21
249.7726093991
  0
LINE
  8
0
 62
7
  6
CONTINUOUS
 10
68.4651810125
 20
238.5144313684
 11
68.5235103766
 21
238.8879595162
  0
LINE
  8
0
 62
7
  6
CONTINUOUS
 10
72.0698383937
 20
237.8500287135
 11
72.011509084
 21
237.4765005149
  0
LINE
  8
0
 62
7
  6
CONTINUOUS
 10
72.5485891194
 20
237.116195701
 11
72.678125923
 21
237.5657525313
  0
LINE
  8
0
 62
7
  6
CONTINUOUS
 10
61.4811441034
 20
217.063539695
 11
61.6891310624
 21
217.4399302538
  0
LINE
  8
0
 62
7
  6
CONTINUOUS
 10
79.0338258665
 20
245.5103772937
 11
79.1471697266
 21
245.7150061076
  0
LINE
  8
0
 62
7
  6
CONTINUOUS
 10
79.7851011404
 20
243.8358766307
 11
79.5853652671
 21
243.5730474726
  0
LINE
  8
0
 62
7
  6
CONTINUOUS
 10
90.8202760605
 20
252.4489448265
 11
91.0697177553
 21
252.7330300826
  0
LINE
  8
0
 62
7
  6
CONTINUOUS
 10
93.2579349286
 20
249.6719762378
 11
93.0084932337
 21
249.3878909817
  0
LINE
  8
0
 62
7
  6
CONTINUOUS
 10
61.2773428702
 20
217.5472050594
 11
60.9664088452
 21
217.1976332067
  0
LINE
  8
0
 62
7
  6
CONTINUOUS
 10
90.8359786411
 20
253.2220595054
 11
90.4113825074
 21
252.782920394
  0
LINE
  8
0
 62
7
  6
CONTINUOUS
 10
93.2422369814
 20
248.8988626869
 11
93.666828491
 21
249.3380006342
  0
LINE
  8
0
 62
7
  6
CONTINUOUS
 10
95.5359198607
 20
253.3943841569
 11
95.9017619618
 21
253.7707156103
  0
LINE
  8
0
 62
7
  6
CONTINUOUS
 10
95.5617809089
 20
251.7853048932
 11
95.1959388078
 21
251.4089734398
  0
LINE
  8
0
 62
7
  6
CONTINUOUS
 10
97.7208466249
 20
252.8552279526
 11
97.3549998061
 21
252.478895806
  0
LINE
  8
0
 62
7
  6
CONTINUOUS
 10
60.4072445534
 20
222.990718735
 11
60.5781203118
 21
223.1504732518
  0
LINE
  8
0
 62
7
  6
CONTINUOUS
 10
95.7213759209
 20
254.2818365609
 11
95.2524706222
 21
253.8903613296
  0
LINE
  8
0
 62
7
  6
CONTINUOUS
 10
97.9632248421
 20
249.7726093991
 11
98.4321301369
 21
250.1640846581
  0
LINE
  8
0
 62
7
  6
CONTINUOUS
 10
60.4196426772
 20
223.6508252631
 11
60.1133060028
 21
223.4292774493
  0
LINE
  8
0
 62
7
  6
CONTINUOUS
 10
95.7524370744
 20
251.920844563
 11
95.5617809089
 21
251.7853048932
  0
LINE
  8
0
 62
7
  6
CONTINUOUS
 10
95.8297646353
 20
251.3945805276
 11
96.2110722485
 21
251.6656591739
  0
LINE
  8
0
 62
7
  6
CONTINUOUS
 10
97.8136396979
 20
252.2237111102
 11
98.0042911457
 21
252.3592500867
  0
LINE
  8
0
 62
7
  6
CONTINUOUS
 10
98.0610879251
 20
250.5396659758
 11
97.6797755941
 21
250.2685866363
  0
LINE
  8
0
 62
7
  6
CONTINUOUS
 10
71.0475661809
 20
239.0929136335
 11
70.6074465851
 21
238.9342446174
  0
LINE
  8
0
 62
7
  6
CONTINUOUS
 10
69.4098076412
 20
237.3442682953
 11
69.8499256071
 21
237.5029355713
  0
LINE
  8
0
 62
7
  6
CONTINUOUS
 10
61.2573614768
 20
218.7364866496
 11
61.3844756169
 21
218.3804422883
  0
LINE
  8
0
 62
7
  6
CONTINUOUS
 10
59.7237411143
 20
222.3516995468
 11
59.8175880245
 21
221.9854780796
  0
LINE
  8
0
 62
7
  6
CONTINUOUS
 10
60.2177715078
 20
221.8408041459
 11
60.1239245976
 21
222.2070256131
  0
LINE
  8
0
 62
7
  6
CONTINUOUS
 10
61.7962638361
 20
218.2731674756
 11
61.7458367717
 21
218.5015909153
  0
LINE
  8
0
 62
7
  6
CONTINUOUS
 10
67.8568935648
 20
238.7987074743
 11
67.8826481268
 21
238.2037067656
  0
LINE
  8
0
 62
7
  6
CONTINUOUS
 10
78.5908047199
 20
245.9815536942
 11
78.5368990487
 21
245.6886954229
  0
LINE
  8
0
 62
7
  6
CONTINUOUS
 10
79.83900677
 20
244.1287349639
 11
79.7851011404
 21
243.8358766307
  0
LINE
  8
0
 62
7
  6
CONTINUOUS
 10
80.2281223234
 20
243.3647001761
 11
80.3953718392
 21
243.8621872846
  0
LINE
  8
0
 62
7
  6
CONTINUOUS
 10
86.5100786026
 20
247.264377947
 11
88.5323705044
 21
251.9051290233
  0
LINE
  8
0
 62
7
  6
CONTINUOUS
 10
87.9699138246
 20
251.918576772
 11
85.8502786024
 21
247.2407495404
  0
LINE
  8
0
 62
7
  6
CONTINUOUS
 10
90.4113825074
 20
252.782920394
 11
90.1885161222
 21
252.3958250007
  0
LINE
  8
0
 62
7
  6
CONTINUOUS
 10
93.666828491
 20
249.3380006342
 11
93.8896948668
 21
249.7250960636
  0
LINE
  8
0
 62
7
  6
CONTINUOUS
 10
95.2524706222
 20
253.8903613296
 11
94.989687001
 21
253.5291729609
  0
LINE
  8
0
 62
7
  6
CONTINUOUS
 10
98.0042911457
 20
252.3592500867
 11
98.2670747668
 21
252.7204384554
  0
LINE
  8
0
 62
7
  6
CONTINUOUS
 10
61.1964700511
 20
216.8147701009
 11
61.4811441034
 21
217.063539695
  0
LINE
  8
0
 62
7
  6
CONTINUOUS
 10
60.6905643065
 20
223.7744112964
 11
60.4196426772
 21
223.6508252631
  0
LINE
  8
0
 62
7
  6
CONTINUOUS
 10
60.5781203118
 20
223.1504732518
 11
60.8490419411
 21
223.2740592851
  0
LINE
  8
0
 62
7
  6
CONTINUOUS
 10
123.6265567542
 20
248.5504900818
 11
123.3488098739
 21
248.4431147943
  0
LINE
  8
0
 62
7
  6
CONTINUOUS
 10
61.7458367717
 20
218.5015909153
 11
61.5157755009
 21
218.8844538456
  0
LINE
  8
0
 62
7
  6
CONTINUOUS
 10
59.8175880245
 20
221.9854780796
 11
59.9468497772
 21
221.7172178322
  0
LINE
  8
0
 62
7
  6
CONTINUOUS
 10
60.3470332606
 20
221.5725438985
 11
60.2177715078
 21
221.8408041459
  0
LINE
  8
0
 62
7
  6
CONTINUOUS
 10
72.678125923
 20
237.5657525313
 11
72.6523713339
 21
238.1607532655
  0
LINE
  8
0
 62
7
  6
CONTINUOUS
 10
79.1471697266
 20
245.7150061076
 11
79.1685910332
 21
246.2425236382
  0
LINE
  8
0
 62
7
  6
CONTINUOUS
 10
80.3953718392
 20
243.8621872846
 11
80.416793125
 21
244.389704846
  0
LINE
  8
0
 62
7
  6
CONTINUOUS
 10
90.5762731132
 20
251.7267974694
 11
90.8202760605
 21
252.4489448265
  0
LINE
  8
0
 62
7
  6
CONTINUOUS
 10
95.3761947629
 20
253.0483385781
 11
95.5359198607
 21
253.3943841569
  0
LINE
  8
0
 62
7
  6
CONTINUOUS
 10
97.8805670483
 20
253.2012725433
 11
97.7208466249
 21
252.8552279526
  0
LINE
  8
0
 62
7
  6
CONTINUOUS
 10
95.582446548
 20
250.9281392045
 11
95.8297646353
 21
251.3945805276
  0
LINE
  8
0
 62
7
  6
CONTINUOUS
 10
98.3084060233
 20
251.0061072253
 11
98.0610879251
 21
250.5396659758
  0
LINE
  8
0
 62
7
  6
CONTINUOUS
 10
98.4321301369
 20
250.1640846581
 11
98.6949137526
 21
250.5252730636
  0
LINE
  8
0
 62
7
  6
CONTINUOUS
 10
60.8088489647
 20
216.5928192623
 11
61.1964700511
 21
216.8147701009
  0
LINE
  8
0
 62
7
  6
CONTINUOUS
 10
123.6906951617
 20
247.9369137612
 11
124.15137328
 21
248.1948077099
  0
LINE
  8
0
 62
7
  6
CONTINUOUS
 10
130.87582409
 20
244.9466100586
 11
131.2349579228
 21
245.0742045823
  0
LINE
  8
0
 62
7
  6
CONTINUOUS
 10
131.2442902563
 20
245.6020743816
 11
130.7378231774
 21
245.452994821
  0
LINE
  8
0
 62
7
  6
CONTINUOUS
 10
130.8011650836
 20
240.7236512201
 11
131.307632185
 21
240.8727308103
  0
LINE
  8
0
 62
7
  6
CONTINUOUS
 10
90.1885161222
 20
252.3958250007
 11
90.0930876125
 21
251.9317407335
  0
LINE
  8
0
 62
7
  6
CONTINUOUS
 10
93.8896948668
 20
249.7250960636
 11
93.985123358
 21
250.1891804029
  0
LINE
  8
0
 62
7
  6
CONTINUOUS
 10
94.989687001
 20
253.5291729609
 11
94.8608976453
 21
252.9726224612
  0
LINE
  8
0
 62
7
  6
CONTINUOUS
 10
95.1959388078
 20
251.4089734398
 11
95.0671447127
 21
250.8524223944
  0
LINE
  8
0
 62
7
  6
CONTINUOUS
 10
98.2670747668
 20
252.7204384554
 11
98.4113343958
 21
253.1717365463
  0
LINE
  8
0
 62
7
  6
CONTINUOUS
 10
93.5019425489
 20
250.3941245697
 11
93.2579349286
 21
249.6719762378
  0
LINE
  8
DEFAULT_3
 62
2
  6
PHANTOM
 10
85.3579983092
 20
219.5026622631
 11
90.9057269986
 21
225.0503909526
  0
LINE
  8
DEFAULT_3
 62
2
  6
PHANTOM
 10
99.2730644451
 20
231.1549866992
 11
95.0304237579
 21
226.9123460121
  0
LINE
  8
DEFAULT_3
 62
2
  6
PHANTOM
 10
79.2534025625
 20
211.1353248167
 11
83.4960432496
 21
215.3779655038
  0
LINE
  8
0
 62
7
  6
CONTINUOUS
 10
130.7378231774
 20
245.452994821
 11
130.2497393108
 21
245.1561627202
  0
LINE
  8
0
 62
7
  6
CONTINUOUS
 10
131.1696313177
 20
241.3791156319
 11
130.8104974396
 21
241.251521049
  0
LINE
  8
0
 62
7
  6
CONTINUOUS
 10
60.9664088452
 20
217.1976332067
 11
60.6050476912
 21
217.0764846565
  0
LINE
  8
DEFAULT_3
 62
2
  6
PHANTOM
 10
85.3579983092
 20
194.5033780053
 11
90.9057269986
 21
188.9556493159
  0
LINE
  8
DEFAULT_3
 62
2
  6
PHANTOM
 10
95.0304237579
 20
187.0936942563
 11
99.2730644451
 21
182.8510535692
  0
LINE
  8
DEFAULT_3
 62
2
  6
PHANTOM
 10
83.4960432496
 20
198.6280747646
 11
79.2534025625
 21
202.8707154518
  0
LINE
  8
0
 62
7
  6
CONTINUOUS
 10
61.0010402336
 20
219.0185473596
 11
61.2573614768
 21
218.7364866496
  0
LINE
  8
0
 62
7
  6
CONTINUOUS
 10
72.6523713339
 20
238.1607532655
 11
72.4842017978
 21
238.6036966982
  0
LINE
  8
0
 62
7
  6
CONTINUOUS
 10
71.9793146049
 20
238.2202501465
 11
72.0698383937
 21
237.8500287135
  0
LINE
  8
0
 62
7
  6
CONTINUOUS
 10
94.1074248254
 20
144.5825753895
 11
93.9357931729
 21
147.8575024099
  0
LINE
  8
0
 62
7
  6
CONTINUOUS
 10
93.9357931729
 20
266.1485378585
 11
94.1074248254
 21
269.4234648789
  0
LINE
  8
0
 62
7
  6
CONTINUOUS
 10
90.0930876125
 20
251.9317407335
 11
90.0719510503
 21
251.5966887697
  0
LINE
  8
0
 62
7
  6
CONTINUOUS
 10
93.985123358
 20
250.1891804029
 11
94.0062599945
 21
250.5242320781
  0
LINE
  8
0
 62
7
  6
CONTINUOUS
 10
98.6949137526
 20
250.5252730636
 11
98.8237031408
 21
251.0818233422
  0
LINE
  8
0
 62
7
  6
CONTINUOUS
 10
52.6928098967
 20
169.4397398377
 11
54.8871710954
 21
171.876824847
  0
LINE
  8
0
 62
7
  6
CONTINUOUS
 10
123.85354796
 20
248.7978387729
 11
123.6265567542
 21
248.5504900818
  0
LINE
  8
0
 62
7
  6
CONTINUOUS
 10
124.15137328
 20
248.1948077099
 11
124.3783644858
 21
248.442156401
  0
LINE
  8
0
 62
7
  6
CONTINUOUS
 10
138.5315644147
 20
255.5212181663
 11
140.968649424
 21
257.715579365
  0
LINE
  8
0
 62
7
  6
CONTINUOUS
 10
125.5713941978
 20
245.8337613098
 11
127.8516142053
 21
247.816144494
  0
LINE
  8
0
 62
7
  6
CONTINUOUS
 10
124.2499429528
 20
244.6411720919
 11
125.2633767688
 21
245.5222296088
  0
LINE
  8
0
 62
7
  6
CONTINUOUS
 10
127.7128307305
 20
248.3953010596
 11
123.713768778
 21
244.9623297702
  0
LINE
  8
0
 62
7
  6
CONTINUOUS
 10
130.5995408102
 20
244.7558874447
 11
130.87582409
 21
244.9466100586
  0
LINE
  8
0
 62
7
  6
CONTINUOUS
 10
129.5679418952
 20
243.4019886063
 11
129.8442250846
 21
243.5927111018
  0
LINE
  8
0
 62
7
  6
CONTINUOUS
 10
131.4459144168
 20
241.5698380088
 11
131.1696313177
 21
241.3791156319
  0
LINE
  8
0
 62
7
  6
CONTINUOUS
 10
131.307632185
 20
240.8727308103
 11
131.7957159162
 21
241.1695627333
  0
LINE
  8
0
 62
7
  6
CONTINUOUS
 10
165.8258138722
 20
197.7050758321
 11
162.5508868518
 21
197.5334441796
  0
LINE
  8
0
 62
7
  6
CONTINUOUS
 10
44.2598514032
 20
197.5334441796
 11
40.9849243828
 21
197.7050758321
  0
LINE
  8
0
 62
7
  6
CONTINUOUS
 10
140.968649424
 20
156.2904609034
 11
138.5315644147
 21
158.4848221021
  0
LINE
  8
0
 62
7
  6
CONTINUOUS
 10
54.8871710954
 20
242.1292154214
 11
52.6928098967
 21
244.5663004308
  0
LINE
  8
0
 62
7
  6
CONTINUOUS
 10
67.8826481268
 20
238.2037067656
 11
68.1220234386
 21
237.8367903071
  0
LINE
  8
0
 62
7
  6
CONTINUOUS
 10
68.626910849
 20
238.220236655
 11
68.4651810125
 21
238.5144313684
  0
LINE
  8
0
 62
7
  6
CONTINUOUS
 10
78.4988821664
 20
246.3044424109
 11
78.5908047199
 21
245.9815536942
  0
LINE
  8
0
 62
7
  6
CONTINUOUS
 10
79.1685910332
 20
246.2425236382
 11
79.0766684797
 21
246.5654123548
  0
LINE
  8
0
 62
7
  6
CONTINUOUS
 10
79.7470842165
 20
244.4516236805
 11
79.83900677
 21
244.1287349639
  0
LINE
  8
0
 62
7
  6
CONTINUOUS
 10
80.416793125
 20
244.389704846
 11
80.3248705298
 21
244.7125936245
  0
LINE
  8
0
 62
7
  6
CONTINUOUS
 10
93.4433532191
 20
251.0382068009
 11
93.5019425489
 21
250.3941245697
  0
LINE
  8
0
 62
7
  6
CONTINUOUS
 10
90.6348577885
 20
251.0827141912
 11
90.5762731132
 21
251.7267974694
  0
LINE
  8
0
 62
7
  6
CONTINUOUS
 10
90.0719510503
 20
251.5966887697
 11
90.1039650331
 21
251.05561682
  0
LINE
  8
0
 62
7
  6
CONTINUOUS
 10
94.0062599945
 20
250.5242320781
 11
93.9742505917
 21
251.0653053633
  0
LINE
  8
0
 62
7
  6
CONTINUOUS
 10
130.2497393108
 20
245.1561627202
 11
129.7155565055
 21
244.6269656634
  0
LINE
  8
0
 62
7
  6
CONTINUOUS
 10
130.1298329315
 20
244.3113090578
 11
130.5995408102
 21
244.7558874447
  0
LINE
  8
AXES
 62
2
  6
CONTINUOUS
 10
103.4053691275
 20
207.8830201342
 11
103.4053691275
 21
206.1230201342
  0
LINE
  8
AXES
 62
2
  6
CENTER
 10
103.4053691275
 20
202.6030201342
 11
103.4053691275
 21
140.6750201342
  0
LINE
  8
AXES
 62
2
  6
CENTER
 10
103.4053691275
 20
211.4030201342
 11
103.4053691275
 21
273.3310201342
  0
LINE
  8
0
 62
7
  6
CONTINUOUS
 10
121.531193863
 20
251.490862572
 11
119.4603751268
 21
246.9398506228
  0
LINE
  8
0
 62
7
  6
CONTINUOUS
 10
120.0292516204
 20
246.6809982808
 11
120.9545110689
 21
248.7144291806
  0
LINE
  8
0
 62
7
  6
CONTINUOUS
 10
121.218870876
 20
249.2954093602
 11
121.8797705173
 21
250.7478600804
  0
LINE
  8
0
 62
7
  6
CONTINUOUS
 10
129.7155565055
 20
244.6269656634
 11
129.2642320197
 21
244.0346349734
  0
LINE
  8
0
 62
7
  6
CONTINUOUS
 10
130.0008830784
 20
244.1420717178
 11
130.1298329315
 21
244.3113090578
  0
LINE
  8
0
 62
7
  6
CONTINUOUS
 10
129.3745171155
 20
243.1481325964
 11
129.5679418952
 21
243.4019886063
  0
LINE
  8
AXES
 62
2
  6
CONTINUOUS
 10
104.2853691275
 20
207.0030201342
 11
102.5253691275
 21
207.0030201342
  0
LINE
  8
AXES
 62
2
  6
CENTER
 10
99.0053691275
 20
207.0030201342
 11
37.0773691275
 21
207.0030201342
  0
LINE
  8
AXES
 62
2
  6
CENTER
 10
107.8053691275
 20
207.0030201342
 11
169.7333691275
 21
207.0030201342
  0
LINE
  8
0
 62
7
  6
CONTINUOUS
 10
58.0797057736
 20
217.088500846
 11
60.1386466983
 21
216.5521268273
  0
LINE
  8
0
 62
7
  6
CONTINUOUS
 10
60.2699465917
 20
217.0561384206
 11
58.2110056669
 21
217.5925124393
  0
LINE
  8
0
 62
7
  6
CONTINUOUS
 10
59.2695455014
 20
221.4082521883
 11
62.4710136482
 21
220.2508606172
  0
LINE
  8
0
 62
7
  6
CONTINUOUS
 10
62.6480885699
 20
220.7406686783
 11
60.3470332606
 21
221.5725438985
  0
LINE
  8
0
 62
7
  6
CONTINUOUS
 10
59.9468497772
 20
221.7172178322
 11
59.4466204231
 21
221.8980602494
  0
LINE
  8
0
 62
7
  6
CONTINUOUS
 10
59.2092296978
 20
225.7318502177
 11
59.6978514392
 21
225.5216546413
  0
LINE
  8
0
 62
7
  6
CONTINUOUS
 10
60.6750951959
 20
225.1012633706
 11
63.8022746151
 21
223.7560115634
  0
LINE
  8
0
 62
7
  6
CONTINUOUS
 10
64.008091063
 20
224.2344535598
 11
60.8809116439
 21
225.5797053669
  0
LINE
  8
0
 62
7
  6
CONTINUOUS
 10
59.9036678872
 20
226.0000966376
 11
59.4150461458
 21
226.2102922141
  0
LINE
  8
0
 62
7
  6
CONTINUOUS
 10
62.5165766306
 20
232.2145705258
 11
66.6669068865
 21
229.4262450844
  0
LINE
  8
0
 62
7
  6
CONTINUOUS
 10
66.4856181736
 20
230.3009928048
 11
62.8651173108
 21
232.7333618078
  0
LINE
  8
0
 62
7
  6
CONTINUOUS
 10
67.4571656592
 20
234.6461206846
 11
67.8729501001
 21
234.3143725213
  0
LINE
  8
0
 62
7
  6
CONTINUOUS
 10
68.7824930824
 20
235.4543149906
 11
68.3667086415
 21
235.7860631539
  0
LINE
  8
0
 62
7
  6
CONTINUOUS
 10
68.1220234386
 20
237.8367903071
 11
68.4326064279
 21
237.5459023083
  0
LINE
  8
0
 62
7
  6
CONTINUOUS
 10
68.7822022348
 20
238.0747927575
 11
68.626910849
 21
238.220236655
  0
LINE
  8
0
 62
7
  6
CONTINUOUS
 10
70.695953565
 20
242.1944169947
 11
73.9379723787
 21
238.3879338394
  0
LINE
  8
0
 62
7
  6
CONTINUOUS
 10
74.4137827731
 20
238.7931861911
 11
71.5856386522
 21
242.1137353845
  0
LINE
  8
0
 62
7
  6
CONTINUOUS
 10
74.9886147202
 20
245.7354577113
 11
77.7822099314
 21
241.5886727161
  0
LINE
  8
0
 62
7
  6
CONTINUOUS
 10
77.9439288808
 20
242.4672489241
 11
77.0523559224
 21
243.7906909714
  0
LINE
  8
0
 62
7
  6
CONTINUOUS
 10
76.6957267891
 20
244.3200677162
 11
75.863591978
 21
245.5552803679
  0
LINE
  8
0
 62
7
  6
CONTINUOUS
 10
84.3735206807
 20
251.1179724652
 11
84.5628485956
 21
250.6208926655
  0
LINE
  8
0
 62
7
  6
CONTINUOUS
 10
85.8502786024
 20
247.2407495404
 11
86.1532032927
 21
246.4454217913
  0
LINE
  8
0
 62
7
  6
CONTINUOUS
 10
90.1039650331
 20
251.05561682
 11
90.3431428205
 21
250.1285255846
  0
LINE
  8
0
 62
7
  6
CONTINUOUS
 10
90.8208849564
 20
250.3616432304
 11
90.6348577885
 21
251.0827141912
  0
LINE
  8
0
 62
7
  6
CONTINUOUS
 10
95.0671447127
 20
250.8524223944
 11
95.1135412492
 21
250.5366639731
  0
LINE
  8
0
 62
7
  6
CONTINUOUS
 10
94.8608976453
 20
252.9726224612
 11
94.9072941818
 21
252.65686404
  0
LINE
  8
0
 62
7
  6
CONTINUOUS
 10
95.6288430845
 20
250.6123807832
 11
95.582446548
 21
250.9281392045
  0
LINE
  8
0
 62
7
  6
CONTINUOUS
 10
95.4071257872
 20
252.837832964
 11
95.3761947629
 21
253.0483385781
  0
LINE
  8
0
 62
7
  6
CONTINUOUS
 10
123.985727987
 20
249.088329134
 11
123.85354796
 21
248.7978387729
  0
LINE
  8
0
 62
7
  6
CONTINUOUS
 10
124.3783644858
 20
248.442156401
 11
124.5546044806
 21
248.8294767919
  0
LINE
  8
0
 62
7
  6
CONTINUOUS
 10
129.2642320197
 20
244.0346349734
 11
128.895765763
 21
243.3791705319
  0
LINE
  8
0
 62
7
  6
CONTINUOUS
 10
131.6393391964
 20
241.8236940188
 11
131.4459144168
 21
241.5698380088
  0
LINE
  8
0
 62
7
  6
CONTINUOUS
 10
131.7957159162
 20
241.1695627333
 11
132.1180906392
 21
241.5926562018
  0
LINE
  8
0
 62
7
  6
CONTINUOUS
 10
58.7362052308
 20
219.6085587765
 11
61.0010402336
 21
219.0185473596
  0
LINE
  8
0
 62
7
  6
CONTINUOUS
 10
61.5441283834
 20
219.4152842461
 11
58.8675051523
 21
220.112570478
  0
LINE
  8
0
 62
7
  6
CONTINUOUS
 10
61.3846863404
 20
223.1911786484
 11
63.2855581664
 21
222.5039773618
  0
LINE
  8
0
 62
7
  6
CONTINUOUS
 10
63.4626329867
 20
222.9937851427
 11
61.5617611607
 21
223.6809864292
  0
LINE
  8
0
 62
7
  6
CONTINUOUS
 10
68.7581509676
 20
232.5389927763
 11
68.2283215745
 21
232.8949492148
  0
LINE
  8
0
 62
7
  6
CONTINUOUS
 10
71.7463775261
 20
238.4384159928
 11
71.9793146049
 21
238.2202501465
  0
LINE
  8
0
 62
7
  6
CONTINUOUS
 10
72.4842017978
 20
238.6036966982
 11
72.0959733331
 21
238.967306442
  0
LINE
  8
0
 62
7
  6
CONTINUOUS
 10
73.3922130716
 20
244.490847503
 11
76.1513780287
 21
241.2512873601
  0
LINE
  8
0
 62
7
  6
CONTINUOUS
 10
77.1100422798
 20
241.0896166995
 11
73.868023466
 21
244.8960998548
  0
LINE
  8
0
 62
7
  6
CONTINUOUS
 10
78.3800057886
 20
246.4809013258
 11
78.4988821664
 21
246.3044424109
  0
LINE
  8
0
 62
7
  6
CONTINUOUS
 10
79.5687696498
 20
244.7163120529
 11
79.7470842165
 21
244.4516236805
  0
LINE
  8
0
 62
7
  6
CONTINUOUS
 10
80.3248705298
 20
244.7125936245
 11
80.0276795853
 21
245.1537409118
  0
LINE
  8
0
 62
7
  6
CONTINUOUS
 10
79.0766684797
 20
246.5654123548
 11
78.8389155576
 21
246.9183304318
  0
LINE
  8
0
 62
7
  6
CONTINUOUS
 10
90.3431428205
 20
250.1285255846
 11
90.5768819719
 21
249.6394960175
  0
LINE
  8
0
 62
7
  6
CONTINUOUS
 10
91.0812040347
 20
249.7696047172
 11
90.8208849564
 21
250.3616432304
  0
LINE
  8
0
 62
7
  6
CONTINUOUS
 10
90.0469940356
 20
247.9284900689
 11
89.8198005112
 21
248.5249858981
  0
LINE
  8
0
 62
7
  6
CONTINUOUS
 10
88.5323705044
 20
251.9051290233
 11
88.2673114236
 21
252.6010407428
  0
LINE
  8
0
 62
7
  6
CONTINUOUS
 10
93.2573260512
 20
251.7592777618
 11
93.4433532191
 21
251.0382068009
  0
LINE
  8
0
 62
7
  6
CONTINUOUS
 10
93.9742505917
 20
251.0653053633
 11
93.7350728044
 21
251.9923965987
  0
LINE
  8
0
 62
7
  6
CONTINUOUS
 10
97.849636024
 20
253.4117781575
 11
97.8805670483
 21
253.2012725433
  0
LINE
  8
0
 62
7
  6
CONTINUOUS
 10
98.2620094867
 20
251.3218656465
 11
98.3084060233
 21
251.0061072253
  0
LINE
  8
0
 62
7
  6
CONTINUOUS
 10
98.4113343958
 20
253.1717365463
 11
98.3649378593
 21
253.4874949676
  0
LINE
  8
0
 62
7
  6
CONTINUOUS
 10
98.8237031408
 20
251.0818233422
 11
98.7773066043
 21
251.3975817634
  0
LINE
  8
0
 62
7
  6
CONTINUOUS
 10
112.7033134296
 20
269.4234648789
 11
112.8749450821
 21
266.1485378585
  0
LINE
  8
0
 62
7
  6
CONTINUOUS
 10
112.8749450821
 20
147.8575024099
 11
112.7033134296
 21
144.5825753895
  0
LINE
  8
0
 62
7
  6
CONTINUOUS
 10
129.2639506553
 20
242.8311429533
 11
129.3745171155
 21
243.1481325964
  0
LINE
  8
0
 62
7
  6
CONTINUOUS
 10
154.1179283583
 20
244.5663004308
 11
151.9235671596
 21
242.1292154214
  0
LINE
  8
0
 62
7
  6
CONTINUOUS
 10
68.2791738403
 20
158.4848221021
 11
65.842088831
 21
156.2904609034
  0
LINE
  8
0
 62
7
  6
CONTINUOUS
 10
60.6050476912
 20
217.0764846565
 11
60.2699465917
 21
217.0561384206
  0
LINE
  8
0
 62
7
  6
CONTINUOUS
 10
40.9849243828
 20
216.3009644364
 11
44.2598514032
 21
216.4725960888
  0
LINE
  8
0
 62
7
  6
CONTINUOUS
 10
60.1386466983
 20
216.5521268273
 11
60.5766949066
 21
216.5456543363
  0
LINE
  8
0
 62
7
  6
CONTINUOUS
 10
61.9821765478
 20
219.4088116607
 11
61.5441283834
 21
219.4152842461
  0
LINE
  8
0
 62
7
  6
CONTINUOUS
 10
162.5508868518
 20
216.4725960888
 11
165.8258138722
 21
216.3009644364
  0
LINE
  8
0
 62
7
  6
CONTINUOUS
 10
60.8490419411
 20
223.2740592851
 11
61.3846863404
 21
223.1911786484
  0
LINE
  8
0
 62
7
  6
CONTINUOUS
 10
61.5617611607
 20
223.6809864292
 11
61.0261169641
 21
223.7638676265
  0
LINE
  8
0
 62
7
  6
CONTINUOUS
 10
70.4256399912
 20
236.2501322474
 11
70.1214954525
 21
236.3922694302
  0
LINE
  8
0
 62
7
  6
CONTINUOUS
 10
69.6942539526
 20
235.9361009298
 11
70.0760441843
 21
235.7212417982
  0
LINE
  8
0
 62
7
  6
CONTINUOUS
 10
68.4326064279
 20
237.5459023083
 11
68.8143966596
 21
237.3310431767
  0
LINE
  8
0
 62
7
  6
CONTINUOUS
 10
65.842088831
 20
257.715579365
 11
68.2791738403
 21
255.5212181663
  0
LINE
  8
0
 62
7
  6
CONTINUOUS
 10
151.9235671596
 20
171.876824847
 11
154.1179283583
 21
169.4397398377
  0
LINE
  8
0
 62
7
  6
CONTINUOUS
 10
90.5768819719
 20
249.6394960175
 11
90.7574704667
 21
249.3564868692
  0
LINE
  8
0
 62
7
  6
CONTINUOUS
 10
93.7350728044
 20
251.9923965987
 11
93.501329073
 21
252.4814248303
  0
LINE
  8
0
 62
7
  6
CONTINUOUS
 10
92.9970116273
 20
252.3513173218
 11
93.2573260512
 21
251.7592777618
  0
LINE
  8
0
 62
7
  6
CONTINUOUS
 10
124.0230965884
 20
249.4219606225
 11
123.985727987
 21
249.088329134
  0
LINE
  8
0
 62
7
  6
CONTINUOUS
 10
124.5546044806
 20
248.8294767919
 11
124.591973082
 21
249.1631082804
  0
LINE
  8
0
 62
7
  6
CONTINUOUS
 10
127.2882660037
 20
242.8212769484
 11
128.4277269031
 21
247.9670924554
  0
LINE
  8
0
 62
7
  6
CONTINUOUS
 10
127.050621291
 20
244.4517056481
 11
126.7520918289
 21
243.1424346266
  0
LINE
  8
0
 62
7
  6
CONTINUOUS
 10
127.8516142053
 20
247.816144494
 11
127.1799167222
 21
244.8702882751
  0
LINE
  8
0
 62
7
  6
CONTINUOUS
 10
128.895765763
 20
243.3791705319
 11
128.7391001384
 21
242.8298156365
  0
LINE
  8
0
 62
7
  6
CONTINUOUS
 10
132.1180906392
 20
241.5926562018
 11
132.2747562187
 21
242.1420110379
  0
LINE
  8
0
 62
7
  6
CONTINUOUS
 10
131.7499057469
 20
242.1406837804
 11
131.6393391964
 21
241.8236940188
  0
LINE
  8
0
 62
7
  6
CONTINUOUS
 10
133.1129304444
 20
243.2420539848
 11
133.2234969046
 21
243.5590436279
  0
LINE
  8
0
 62
7
  6
CONTINUOUS
 10
60.5766949066
 20
216.5456543363
 11
60.8088489647
 21
216.5928192623
  0
LINE
  8
0
 62
7
  6
CONTINUOUS
 10
61.5157755009
 20
218.8844538456
 11
62.0830307517
 21
218.9519650698
  0
LINE
  8
0
 62
7
  6
CONTINUOUS
 10
61.0261169641
 20
223.7638676265
 11
60.6905643065
 21
223.7744112964
  0
LINE
  8
0
 62
7
  6
CONTINUOUS
 10
69.0863467736
 20
237.9326555746
 11
68.7822022348
 21
238.0747927575
  0
LINE
  8
0
 62
7
  6
CONTINUOUS
 10
70.329438398
 20
240.1936614726
 11
70.0252938593
 21
240.3357986554
  0
LINE
  8
0
 62
7
  6
CONTINUOUS
 10
79.3040629867
 20
244.9228002047
 11
79.5687696498
 21
244.7163120529
  0
LINE
  8
0
 62
7
  6
CONTINUOUS
 10
80.0276795853
 20
245.1537409118
 11
79.7629729222
 21
245.3602290635
  0
LINE
  8
0
 62
7
  6
CONTINUOUS
 10
78.1152990422
 20
246.6873896011
 11
78.3800057886
 21
246.4809013258
  0
LINE
  8
0
 62
7
  6
CONTINUOUS
 10
78.8389155576
 20
246.9183304318
 11
78.5742089777
 21
247.12481846
  0
LINE
  8
0
 62
7
  6
CONTINUOUS
 10
90.7574704667
 20
249.3564868692
 11
91.0655014727
 21
248.9964899661
  0
LINE
  8
0
 62
7
  6
CONTINUOUS
 10
94.9072941818
 20
252.65686404
 11
95.1752731904
 21
252.2661389812
  0
LINE
  8
0
 62
7
  6
CONTINUOUS
 10
93.501329073
 20
252.4814248303
 11
93.3207405037
 21
252.7644342672
  0
LINE
  8
0
 62
7
  6
CONTINUOUS
 10
95.1135412492
 20
250.5366639731
 11
95.3969904985
 21
250.0406867267
  0
LINE
  8
0
 62
7
  6
CONTINUOUS
 10
98.7773066043
 20
251.3975817634
 11
98.4938620619
 21
251.8935597767
  0
LINE
  8
0
 62
7
  6
CONTINUOUS
 10
98.3649378593
 20
253.4874949676
 11
98.0814885774
 21
253.9834724351
  0
LINE
  8
0
 62
7
  6
CONTINUOUS
 10
128.7391001384
 20
242.8298156365
 11
128.7297677823
 21
242.3019458076
  0
LINE
  8
0
 62
7
  6
CONTINUOUS
 10
129.2362348838
 20
242.4510253979
 11
129.2639506553
 21
242.8311429533
  0
LINE
  8
DEFAULT_3
 62
2
  6
PHANTOM
 10
127.5573356925
 20
202.8707154518
 11
123.3146950054
 21
198.6280747646
  0
LINE
  8
DEFAULT_3
 62
2
  6
PHANTOM
 10
107.53767381
 20
182.8510535692
 11
111.7803144971
 21
187.0936942563
  0
LINE
  8
DEFAULT_3
 62
2
  6
PHANTOM
 10
115.9050112564
 20
188.9556493159
 11
121.4527399459
 21
194.5033780053
  0
LINE
  8
0
 62
7
  6
CONTINUOUS
 10
62.2143306733
 20
219.4559767712
 11
61.9821765478
 21
219.4088116607
  0
LINE
  8
0
 62
7
  6
CONTINUOUS
 10
70.0760441843
 20
235.7212417982
 11
70.6778934805
 21
235.5857162282
  0
LINE
  8
0
 62
7
  6
CONTINUOUS
 10
72.0959733331
 20
238.967306442
 11
71.6429771625
 21
239.1061387521
  0
LINE
  8
0
 62
7
  6
CONTINUOUS
 10
69.6756980523
 20
239.8069082062
 11
69.9021968981
 21
239.7374929722
  0
LINE
  8
0
 62
7
  6
CONTINUOUS
 10
76.1513780287
 20
241.2512873601
 11
71.4096691566
 21
242.8022955222
  0
LINE
  8
0
 62
7
  6
CONTINUOUS
 10
71.5856386522
 20
242.1137353845
 11
76.3963266882
 21
240.4817381719
  0
LINE
  8
0
 62
7
  6
CONTINUOUS
 10
91.6441107915
 20
249.2556300665
 11
91.0812040347
 21
249.7696047172
  0
LINE
  8
DEFAULT_3
 62
2
  6
PHANTOM
 10
123.3146950054
 20
215.3779655038
 11
127.5573356925
 21
211.1353248167
  0
LINE
  8
DEFAULT_3
 62
2
  6
PHANTOM
 10
111.7803144971
 20
226.9123460121
 11
107.53767381
 21
231.1549866992
  0
LINE
  8
DEFAULT_3
 62
2
  6
PHANTOM
 10
115.9050112564
 20
225.0503909526
 11
121.4527399459
 21
219.5026622631
  0
LINE
  8
0
 62
7
  6
CONTINUOUS
 10
95.6596440014
 20
252.5523614054
 11
95.4071257872
 21
252.837832964
  0
LINE
  8
0
 62
7
  6
CONTINUOUS
 10
93.3207405037
 20
252.7644342672
 11
93.0127095163
 21
253.1244310981
  0
LINE
  8
0
 62
7
  6
CONTINUOUS
 10
133.2234969046
 20
243.5590436279
 11
133.2328292381
 21
244.0869134271
  0
LINE
  8
0
 62
7
  6
CONTINUOUS
 10
132.7263621592
 20
243.9378338665
 11
132.6986464328
 21
243.5577163703
  0
LINE
  8
0
 62
7
  6
CONTINUOUS
 10
70.8721978744
 20
236.2600506004
 11
70.4256399912
 21
236.2501322474
  0
LINE
  8
0
 62
7
  6
CONTINUOUS
 10
68.8143966596
 20
237.3310431767
 11
69.4098076412
 21
237.3442682953
  0
LINE
  8
0
 62
7
  6
CONTINUOUS
 10
70.0252938593
 20
240.3357986554
 11
69.5010903375
 21
240.3986022002
  0
LINE
  8
0
 62
7
  6
CONTINUOUS
 10
71.3710270485
 20
238.5045263542
 11
71.7463775261
 21
238.4384159928
  0
LINE
  8
0
 62
7
  6
CONTINUOUS
 10
79.7629729222
 20
245.3602290635
 11
79.2660461044
 21
245.5385471927
  0
LINE
  8
0
 62
7
  6
CONTINUOUS
 10
78.5742089777
 20
247.12481846
 11
78.07728216
 21
247.3031365891
  0
LINE
  8
0
 62
7
  6
CONTINUOUS
 10
91.0655014727
 20
248.9964899661
 11
91.4478197254
 21
248.7655244998
  0
LINE
  8
0
 62
7
  6
CONTINUOUS
 10
95.3969904985
 20
250.0406867267
 11
95.7525671981
 21
249.7703582161
  0
LINE
  8
0
 62
7
  6
CONTINUOUS
 10
95.1752731904
 20
252.2661389812
 11
95.5308498846
 21
251.9958105074
  0
LINE
  8
0
 62
7
  6
CONTINUOUS
 10
92.4341001975
 20
252.8652909978
 11
92.9970116273
 21
252.3513173218
  0
LINE
  8
0
 62
7
  6
CONTINUOUS
 10
95.9998853016
 20
250.2367994286
 11
95.6288430845
 21
250.6123807832
  0
LINE
  8
0
 62
7
  6
CONTINUOUS
 10
97.8909672588
 20
251.6974470748
 11
98.2620094867
 21
251.3218656465
  0
LINE
  8
0
 62
7
  6
CONTINUOUS
 10
97.5971224842
 20
253.6972507041
 11
97.849636024
 21
253.4117781575
  0
LINE
  8
0
 62
7
  6
CONTINUOUS
 10
124.591973082
 20
249.1631082804
 11
124.4837747066
 21
249.6798545712
  0
LINE
  8
0
 62
7
  6
CONTINUOUS
 10
70.6778934805
 20
235.5857162282
 11
71.2668646197
 21
235.7476901998
  0
LINE
  8
0
 62
7
  6
CONTINUOUS
 10
123.1792657091
 20
247.8189912411
 11
123.6906951617
 21
247.9369137612
  0
LINE
  8
0
 62
7
  6
CONTINUOUS
 10
129.8442250846
 20
243.5927111018
 11
130.1388839909
 21
243.6356869555
  0
LINE
  8
0
 62
7
  6
CONTINUOUS
 10
71.6429771625
 20
239.1061387521
 11
71.0475661809
 21
239.0929136335
  0
LINE
  8
0
 62
7
  6
CONTINUOUS
 10
69.3779933764
 20
239.800296517
 11
69.6756980523
 21
239.8069082062
  0
LINE
  8
0
 62
7
  6
CONTINUOUS
 10
130.8104974396
 20
241.251521049
 11
130.4329802138
 21
241.2716788283
  0
LINE
  8
0
 62
7
  6
CONTINUOUS
 10
130.1934562753
 20
240.7854575733
 11
130.8011650836
 21
240.7236512201
  0
LINE
  8
0
 62
7
  6
CONTINUOUS
 10
79.0124045599
 20
244.9828597631
 11
79.3040629867
 21
244.9228002047
  0
LINE
  8
0
 62
7
  6
CONTINUOUS
 10
77.8236406154
 20
246.7474491596
 11
78.1152990422
 21
246.6873896011
  0
LINE
  8
0
 62
7
  6
CONTINUOUS
 10
91.4478197254
 20
248.7655244998
 11
92.0318677243
 21
248.5866027607
  0
LINE
  8
0
 62
7
  6
CONTINUOUS
 10
91.9998537252
 20
249.1276747735
 11
91.6441107915
 21
249.2556300665
  0
LINE
  8
0
 62
7
  6
CONTINUOUS
 10
95.7525671981
 20
249.7703582161
 11
96.314265574
 21
249.5303165773
  0
LINE
  8
0
 62
7
  6
CONTINUOUS
 10
96.1182791755
 20
252.2971760164
 11
95.6596440014
 21
252.5523614054
  0
LINE
  8
0
 62
7
  6
CONTINUOUS
 10
98.4938620619
 20
251.8935597767
 11
98.03522217
 21
252.1487444726
  0
LINE
  8
0
 62
7
  6
CONTINUOUS
 10
93.0127095163
 20
253.1244310981
 11
92.6303912729
 21
253.3553965284
  0
LINE
  8
0
 62
7
  6
CONTINUOUS
 10
98.0814885774
 20
253.9834724351
 11
97.7259118833
 21
254.2538009089
  0
LINE
  8
0
 62
7
  6
CONTINUOUS
 10
128.7297677823
 20
242.3019458076
 11
128.9506194117
 21
241.7324331699
  0
LINE
  8
0
 62
7
  6
CONTINUOUS
 10
123.9215895795
 20
249.7019054546
 11
124.0230965884
 21
249.4219606225
  0
LINE
  8
0
 62
7
  6
CONTINUOUS
 10
129.3558524034
 20
242.0923929386
 11
129.2362348838
 21
242.4510253979
  0
LINE
  8
0
 62
7
  6
CONTINUOUS
 10
131.7131465467
 20
242.4361826066
 11
131.7499057469
 21
242.1406837804
  0
LINE
  8
0
 62
7
  6
CONTINUOUS
 10
132.2747562187
 20
242.1420110379
 11
132.2196136256
 21
242.5852621672
  0
LINE
  8
0
 62
7
  6
CONTINUOUS
 10
78.6937923088
 20
244.8964895199
 11
79.0124045599
 21
244.9828597631
  0
LINE
  8
0
 62
7
  6
CONTINUOUS
 10
69.4552589094
 20
238.0152959273
 11
69.0863467736
 21
237.9326555746
  0
LINE
  8
0
 62
7
  6
CONTINUOUS
 10
71.0021149127
 20
238.4218860015
 11
71.3710270485
 21
238.5045263542
  0
LINE
  8
0
 62
7
  6
CONTINUOUS
 10
69.5010903375
 20
240.3986022002
 11
68.9833266787
 21
240.312656873
  0
LINE
  8
0
 62
7
  6
CONTINUOUS
 10
96.8450282051
 20
249.5007798779
 11
97.4633885204
 21
249.5916397727
  0
LINE
  8
0
 62
7
  6
CONTINUOUS
 10
79.2660461044
 20
245.5385471927
 11
79.0338258665
 21
245.5103772937
  0
LINE
  8
0
 62
7
  6
CONTINUOUS
 10
92.0318677243
 20
248.5866027607
 11
92.6636276649
 21
248.6397225775
  0
LINE
  8
0
 62
7
  6
CONTINUOUS
 10
92.5307510978
 20
249.1547733359
 11
91.9998537252
 21
249.1276747735
  0
LINE
  8
0
 62
7
  6
CONTINUOUS
 10
130.1388839909
 20
243.6356869555
 11
130.5164012167
 21
243.6155291762
  0
LINE
  8
0
 62
7
  6
CONTINUOUS
 10
130.75591753
 20
244.1017561592
 11
130.0008830784
 21
244.1420717178
  0
LINE
  8
0
 62
7
  6
CONTINUOUS
 10
131.2349579228
 20
245.0742045823
 11
131.6124751487
 21
245.054046803
  0
LINE
  8
0
 62
7
  6
CONTINUOUS
 10
96.314265574
 20
249.5303165773
 11
96.8450282051
 21
249.5007798779
  0
LINE
  8
0
 62
7
  6
CONTINUOUS
 10
78.07728216
 20
247.3031365891
 11
77.5534034952
 21
247.3350262486
  0
LINE
  8
0
 62
7
  6
CONTINUOUS
 10
123.3488098739
 20
248.4431147943
 11
123.0203116592
 21
248.4757109354
  0
LINE
  8
0
 62
7
  6
CONTINUOUS
 10
131.8519914619
 20
245.540273786
 11
131.2442902563
 21
245.6020743816
  0
LINE
  8
0
 62
7
  6
CONTINUOUS
 10
96.8707638311
 20
250.0421877649
 11
96.4430549636
 21
250.0868668467
  0
LINE
  8
0
 62
7
  6
CONTINUOUS
 10
92.6303912729
 20
253.3553965284
 11
92.0463478982
 21
253.5343194317
  0
LINE
  8
0
 62
7
  6
CONTINUOUS
 10
130.4329802138
 20
241.2716788283
 11
130.1199379145
 21
241.3764552776
  0
LINE
  8
0
 62
7
  6
CONTINUOUS
 10
96.4430549636
 20
250.0868668467
 11
95.9998853016
 21
250.2367994286
  0
LINE
  8
0
 62
7
  6
CONTINUOUS
 10
95.5308498846
 20
251.9958105074
 11
95.7524370744
 21
251.920844563
  0
LINE
  8
0
 62
7
  6
CONTINUOUS
 10
97.4477928791
 20
251.8473789636
 11
97.8909672588
 21
251.6974470748
  0
LINE
  8
0
 62
7
  6
CONTINUOUS
 10
98.03522217
 20
252.1487444726
 11
97.8136396979
 21
252.2237111102
  0
LINE
  8
0
 62
7
  6
CONTINUOUS
 10
92.0783572638
 20
252.9932462907
 11
92.4341001975
 21
252.8652909978
  0
LINE
  8
0
 62
7
  6
CONTINUOUS
 10
97.7259118833
 20
254.2538009089
 11
97.1642182292
 21
254.4938432133
  0
LINE
  8
0
 62
7
  6
CONTINUOUS
 10
119.4603751268
 20
246.9398506228
 11
120.0292516204
 21
246.6809982808
  0
LINE
  8
0
 62
7
  6
CONTINUOUS
 10
129.7147049172
 20
241.0164955015
 11
130.1934562753
 21
240.7854575733
  0
LINE
  8
0
 62
7
  6
CONTINUOUS
 10
97.1384825923
 20
253.9524353999
 11
97.5971224842
 21
253.6972507041
  0
LINE
  8
0
 62
7
  6
CONTINUOUS
 10
123.713768778
 20
244.9623297702
 11
124.2499429528
 21
244.6411720919
  0
LINE
  8
0
 62
7
  6
CONTINUOUS
 10
126.7520918289
 20
243.1424346266
 11
127.2882660037
 21
242.8212769484
  0
LINE
  8
0
 62
7
  6
CONTINUOUS
 10
129.3004284912
 20
241.332152107
 11
129.7147049172
 21
241.0164955015
  0
LINE
  8
0
 62
7
  6
CONTINUOUS
 10
128.9506194117
 20
241.7324331699
 11
129.3004284912
 21
241.332152107
  0
LINE
  8
0
 62
7
  6
CONTINUOUS
 10
129.5399448496
 20
241.8183791493
 11
129.3558524034
 21
242.0923929386
  0
LINE
  8
0
 62
7
  6
CONTINUOUS
 10
124.4837747066
 20
249.6798545712
 11
124.2367050612
 21
250.1429122307
  0
LINE
  8
0
 62
7
  6
CONTINUOUS
 10
132.2196136256
 20
242.5852621672
 11
131.9987543936
 21
243.1547805626
  0
LINE
  8
0
 62
7
  6
CONTINUOUS
 10
133.2328292381
 20
244.0869134271
 11
133.0119775918
 21
244.6564260427
  0
LINE
  8
0
 62
7
  6
CONTINUOUS
 10
131.5935290271
 20
242.7948150659
 11
131.7131465467
 21
242.4361826066
  0
LINE
  8
0
 62
7
  6
CONTINUOUS
 10
132.6067446396
 20
244.2964663258
 11
132.7263621592
 21
243.9378338665
  0
LINE
  8
0
 62
7
  6
CONTINUOUS
 10
77.5050283643
 20
246.6610789164
 11
77.8236406154
 21
246.7474491596
  0
LINE
  8
0
 62
7
  6
CONTINUOUS
 10
97.2830024687
 20
250.1027607971
 11
96.8707638311
 21
250.0421877649
  0
LINE
  8
0
 62
7
  6
CONTINUOUS
 10
96.6078500917
 20
251.8314857064
 11
97.0200887293
 21
251.8920587385
  0
LINE
  8
0
 62
7
  6
CONTINUOUS
 10
96.9582266806
 20
252.3130699668
 11
96.545988043
 21
252.2524969346
  0
LINE
  8
0
 62
7
  6
CONTINUOUS
 10
96.2985398049
 20
253.9365421427
 11
96.7107784425
 21
253.9971151749
  0
LINE
  8
0
 62
7
  6
CONTINUOUS
 10
96.6334508817
 20
254.5233792102
 11
96.2212122441
 21
254.4628061781
  0
LINE
  8
0
 62
7
  6
CONTINUOUS
 10
92.0463478982
 20
253.5343194317
 11
91.4145879599
 21
253.4811996058
  0
LINE
  8
0
 62
7
  6
CONTINUOUS
 10
91.5474645085
 20
252.9661489195
 11
92.0783572638
 21
252.9932462907
  0
LINE
  8
0
 62
7
  6
CONTINUOUS
 10
97.1642182292
 20
254.4938432133
 11
96.6334508817
 21
254.5233792102
  0
LINE
  8
0
 62
7
  6
CONTINUOUS
 10
97.0200887293
 20
251.8920587385
 11
97.4477928791
 21
251.8473789636
  0
LINE
  8
0
 62
7
  6
CONTINUOUS
 10
96.545988043
 20
252.2524969346
 11
96.1182791755
 21
252.2971760164
  0
LINE
  8
0
 62
7
  6
CONTINUOUS
 10
96.7107784425
 20
253.9971151749
 11
97.1384825923
 21
253.9524353999
  0
LINE
  8
0
 62
7
  6
CONTINUOUS
 10
122.6611405498
 20
247.9378721545
 11
123.1792657091
 21
247.8189912411
  0
LINE
  8
0
 62
7
  6
CONTINUOUS
 10
130.5164012167
 20
243.6155291762
 11
130.829443516
 21
243.5107527268
  0
LINE
  8
0
 62
7
  6
CONTINUOUS
 10
131.6124751487
 20
245.054046803
 11
131.9255174479
 21
244.9492703537
  0
LINE
  8
0
 62
7
  6
CONTINUOUS
 10
120.9545110689
 20
248.7144291806
 11
122.6611405498
 21
247.9378721545
  0
LINE
  8
0
 62
7
  6
CONTINUOUS
 10
123.0203116592
 20
248.4757109354
 11
121.218870876
 21
249.2954093602
  0
LINE
  8
0
 62
7
  6
CONTINUOUS
 10
121.8797705173
 20
250.7478600804
 11
123.6812113005
 21
249.9281616556
  0
LINE
  8
0
 62
7
  6
CONTINUOUS
 10
123.8066998376
 20
250.4554532039
 11
121.531193863
 21
251.490862572
  0
LINE
  8
0
 62
7
  6
CONTINUOUS
 10
131.2346764682
 20
243.8707124437
 11
130.75591753
 21
244.1017561592
  0
LINE
  8
0
 62
7
  6
CONTINUOUS
 10
132.3307504001
 20
245.3092300706
 11
131.8519914619
 21
245.540273786
  0
LINE
  8
0
 62
7
  6
CONTINUOUS
 10
125.2633767688
 20
245.5222296088
 11
127.050621291
 21
244.4517056481
  0
LINE
  8
0
 62
7
  6
CONTINUOUS
 10
127.1799167222
 20
244.8702882751
 11
125.5713941978
 21
245.8337613098
  0
LINE
  8
0
 62
7
  6
CONTINUOUS
 10
128.4277269031
 20
247.9670924554
 11
127.7128307305
 21
248.3953010596
  0
LINE
  8
0
 62
7
  6
CONTINUOUS
 10
124.2367050612
 20
250.1429122307
 11
123.8066998376
 21
250.4554532039
  0
LINE
  8
0
 62
7
  6
CONTINUOUS
 10
130.1199379145
 20
241.3764552776
 11
129.5399448496
 21
241.8183791493
  0
LINE
  8
0
 62
7
  6
CONTINUOUS
 10
130.829443516
 20
243.5107527268
 11
131.4094365809
 21
243.0688288552
  0
LINE
  8
0
 62
7
  6
CONTINUOUS
 10
131.6489528942
 20
243.5550558382
 11
131.2346764682
 21
243.8707124437
  0
LINE
  8
0
 62
7
  6
CONTINUOUS
 10
132.6986464328
 20
243.5577163703
 11
133.1129304444
 21
243.2420539848
  0
LINE
  8
0
 62
7
  6
CONTINUOUS
 10
131.9255174479
 20
244.9492703537
 11
132.4226521934
 21
244.5704801151
  0
LINE
  8
0
 62
7
  6
CONTINUOUS
 10
132.6621685066
 20
245.0567070981
 11
132.3307504001
 21
245.3092300706
  0
LINE
  8
0
 62
7
  6
CONTINUOUS
 10
123.6812113005
 20
249.9281616556
 11
123.9215895795
 21
249.7019054546
  0
LINE
  8
0
 62
7
  6
CONTINUOUS
 10
131.9987543936
 20
243.1547805626
 11
131.6489528942
 21
243.5550558382
  0
LINE
  8
0
 62
7
  6
CONTINUOUS
 10
133.0119775918
 20
244.6564260427
 11
132.6621685066
 21
245.0567070981
  0
LINE
  8
0
 62
7
  6
CONTINUOUS
 10
131.4094365809
 20
243.0688288552
 11
131.5935290271
 21
242.7948150659
  0
LINE
  8
0
 62
7
  6
CONTINUOUS
 10
132.4226521934
 20
244.5704801151
 11
132.6067446396
 21
244.2964663258
  0
LINE
  8
AXES
 62
7
  6
CONTINUOUS
 10
39.0773691275
 20
84.6752965813
 11
39.0773691275
 21
80.1696698617
  0
POLYLINE
  8
0
 62
7
  6
CONTINUOUS
 66
1
 70
0
  0
VERTEX
  8
0
 62
7
  6
CONTINUOUS
 10
52.3075272832
 20
80.1605234115
  0
VERTEX
  8
0
 62
7
  6
CONTINUOUS
 10
52.3129293322
 20
80.0566462034
  0
VERTEX
  8
0
 62
7
  6
CONTINUOUS
 10
52.3418942333
 20
79.9004188197
  0
VERTEX
  8
0
 62
7
  6
CONTINUOUS
 10
52.3902181591
 20
79.7620290005
  0
VERTEX
  8
0
 62
7
  6
CONTINUOUS
 10
52.4528186885
 20
79.6409641917
  0
VERTEX
  8
0
 62
7
  6
CONTINUOUS
 10
52.525463605
 20
79.5367252323
  0
VERTEX
  8
0
 62
7
  6
CONTINUOUS
 10
52.6043624694
 20
79.4487241731
  0
VERTEX
  8
0
 62
7
  6
CONTINUOUS
 10
52.6866001706
 20
79.375673782
  0
VERTEX
  8
0
 62
7
  6
CONTINUOUS
 10
52.7701104183
 20
79.3159605093
  0
VERTEX
  8
0
 62
7
  6
CONTINUOUS
 10
52.8527677488
 20
79.2683118571
  0
VERTEX
  8
0
 62
7
  6
CONTINUOUS
 10
52.932274541
 20
79.2315173389
  0
VERTEX
  8
0
 62
7
  6
CONTINUOUS
 10
53.0048106726
 20
79.2046769865
  0
VERTEX
  8
0
 62
7
  6
CONTINUOUS
 10
53.067910082
 20
79.185937996
  0
VERTEX
  8
0
 62
7
  6
CONTINUOUS
 10
53.1250255241
 20
79.1721881491
  0
VERTEX
  8
0
 62
7
  6
CONTINUOUS
 10
53.1815850222
 20
79.1610391408
  0
VERTEX
  8
0
 62
7
  6
CONTINUOUS
 10
53.2431399669
 20
79.1509864084
  0
VERTEX
  8
0
 62
7
  6
CONTINUOUS
 10
53.3084838163
 20
79.1419467006
  0
SEQEND
  0
LINE
  8
0
 62
7
  6
CONTINUOUS
 10
52.3075271349
 20
84.6844686764
 11
52.3075271349
 21
80.1604977666
  0
LINE
  8
0
 62
7
  6
CONTINUOUS
 10
58.0797057736
 20
78.9224832215
 11
58.0797057736
 21
78.7224832215
  0
LINE
  8
0
 62
7
  6
CONTINUOUS
 10
58.2110056669
 20
78.9224832215
 11
58.2110056669
 21
78.7224832215
  0
LINE
  8
0
 62
7
  6
CONTINUOUS
 10
58.7362052308
 20
78.9224832215
 11
58.7362052308
 21
78.7224832215
  0
LINE
  8
0
 62
7
  6
CONTINUOUS
 10
58.8675051523
 20
78.9224832215
 11
58.8675051523
 21
78.7224832215
  0
LINE
  8
0
 62
7
  6
CONTINUOUS
 10
59.2092296978
 20
78.9224832215
 11
59.2092296978
 21
78.7224832215
  0
LINE
  8
0
 62
7
  6
CONTINUOUS
 10
59.4150461458
 20
78.9224832215
 11
59.4150461458
 21
78.7224832215
  0
LINE
  8
0
 62
7
  6
CONTINUOUS
 10
59.9036678872
 20
78.9224832215
 11
59.9036678872
 21
78.7224832215
  0
LINE
  8
0
 62
7
  6
CONTINUOUS
 10
59.9070151992
 20
78.9224832215
 11
59.9070151992
 21
78.7224832215
  0
LINE
  8
0
 62
7
  6
CONTINUOUS
 10
60.1133060028
 20
78.9224832215
 11
60.1133060028
 21
78.7224832215
  0
LINE
  8
0
 62
7
  6
CONTINUOUS
 10
60.4196426772
 20
78.9224832215
 11
60.4196426772
 21
78.7224832215
  0
LINE
  8
0
 62
7
  6
CONTINUOUS
 10
60.6750951959
 20
78.9224832215
 11
60.6750951959
 21
78.7224832215
  0
LINE
  8
0
 62
7
  6
CONTINUOUS
 10
60.8809116439
 20
78.9224832215
 11
60.8809116439
 21
78.7224832215
  0
LINE
  8
0
 62
7
  6
CONTINUOUS
 10
62.5165766306
 20
78.9224832215
 11
62.5165766306
 21
78.7224832215
  0
LINE
  8
0
 62
7
  6
CONTINUOUS
 10
62.8651173108
 20
78.9224832215
 11
62.8651173108
 21
78.7224832215
  0
LINE
  8
0
 62
7
  6
CONTINUOUS
 10
66.4856181736
 20
78.9224832215
 11
66.4856181736
 21
78.7224832215
  0
LINE
  8
0
 62
7
  6
CONTINUOUS
 10
67.4571656592
 20
78.9224832215
 11
67.4571656592
 21
78.7224832215
  0
LINE
  8
0
 62
7
  6
CONTINUOUS
 10
67.8568935648
 20
78.9224832215
 11
67.8568935648
 21
78.7224832215
  0
LINE
  8
0
 62
7
  6
CONTINUOUS
 10
67.986428759
 20
78.9224832215
 11
67.986428759
 21
78.7224832215
  0
LINE
  8
0
 62
7
  6
CONTINUOUS
 10
68.193611276
 20
78.9224832215
 11
68.193611276
 21
78.7224832215
  0
LINE
  8
AXES
 62
7
  6
CONTINUOUS
 10
68.4053691275
 20
101.5724832215
 11
68.4053691275
 21
90.9224832215
  0
LINE
  8
AXES
 62
7
  6
CONTINUOUS
 10
68.4053691275
 20
73.9224832215
 11
68.4053691275
 21
63.2724832215
  0
LINE
  8
0
 62
7
  6
CONTINUOUS
 10
68.5496453159
 20
78.9224832215
 11
68.5496453159
 21
78.7224832215
  0
LINE
  8
0
 62
7
  6
CONTINUOUS
 10
68.9833266787
 20
78.9224832215
 11
68.9833266787
 21
78.7224832215
  0
LINE
  8
0
 62
7
  6
CONTINUOUS
 10
69.5010903375
 20
78.9224832215
 11
69.5010903375
 21
78.7224832215
  0
LINE
  8
0
 62
7
  6
CONTINUOUS
 10
70.0252938593
 20
78.9224832215
 11
70.0252938593
 21
78.7224832215
  0
LINE
  8
0
 62
7
  6
CONTINUOUS
 10
70.329438398
 20
78.9224832215
 11
70.329438398
 21
78.7224832215
  0
LINE
  8
0
 62
7
  6
CONTINUOUS
 10
70.6074465851
 20
78.9224832215
 11
70.6074465851
 21
78.7224832215
  0
LINE
  8
0
 62
7
  6
CONTINUOUS
 10
70.695953565
 20
78.9224832215
 11
70.695953565
 21
78.7224832215
  0
LINE
  8
0
 62
7
  6
CONTINUOUS
 10
71.4096691566
 20
78.9224832215
 11
71.4096691566
 21
78.7224832215
  0
LINE
  8
0
 62
7
  6
CONTINUOUS
 10
73.3922130716
 20
78.9224832215
 11
73.3922130716
 21
78.7224832215
  0
LINE
  8
0
 62
7
  6
CONTINUOUS
 10
73.868023466
 20
78.9224832215
 11
73.868023466
 21
78.7224832215
  0
LINE
  8
0
 62
7
  6
CONTINUOUS
 10
74.9886147202
 20
78.9224832215
 11
74.9886147202
 21
78.7224832215
  0
LINE
  8
0
 62
7
  6
CONTINUOUS
 10
77.0620072178
 20
78.9224832215
 11
77.0620072178
 21
78.7224832215
  0
LINE
  8
0
 62
7
  6
CONTINUOUS
 10
77.5534034952
 20
78.9224832215
 11
77.5534034952
 21
78.7224832215
  0
LINE
  8
0
 62
7
  6
CONTINUOUS
 10
78.07728216
 20
78.9224832215
 11
78.07728216
 21
78.7224832215
  0
LINE
  8
0
 62
7
  6
CONTINUOUS
 10
78.5742089777
 20
78.9224832215
 11
78.5742089777
 21
78.7224832215
  0
LINE
  8
0
 62
7
  6
CONTINUOUS
 10
78.8389155576
 20
78.9224832215
 11
78.8389155576
 21
78.7224832215
  0
LINE
  8
0
 62
7
  6
CONTINUOUS
 10
79.0766684797
 20
78.9224832215
 11
79.0766684797
 21
78.7224832215
  0
LINE
  8
0
 62
7
  6
CONTINUOUS
 10
79.1685910332
 20
78.9224832215
 11
79.1685910332
 21
78.7224832215
  0
LINE
  8
0
 62
7
  6
CONTINUOUS
 10
79.2660461044
 20
78.9224832215
 11
79.2660461044
 21
78.7224832215
  0
LINE
  8
0
 62
7
  6
CONTINUOUS
 10
79.7629729222
 20
78.9224832215
 11
79.7629729222
 21
78.7224832215
  0
LINE
  8
0
 62
7
  6
CONTINUOUS
 10
80.0276795853
 20
78.9224832215
 11
80.0276795853
 21
78.7224832215
  0
LINE
  8
0
 62
7
  6
CONTINUOUS
 10
80.3248705298
 20
78.9224832215
 11
80.3248705298
 21
78.7224832215
  0
LINE
  8
0
 62
7
  6
CONTINUOUS
 10
80.416793125
 20
78.9224832215
 11
80.416793125
 21
78.7224832215
  0
LINE
  8
0
 62
7
  6
CONTINUOUS
 10
84.3735206807
 20
78.9224832215
 11
84.3735206807
 21
78.7224832215
  0
LINE
  8
AXES
 62
7
  6
CONTINUOUS
 10
136.4053691275
 20
61.2724832215
 11
70.4053691275
 21
61.2724832215
  0
LINE
  8
0
 62
7
  6
CONTINUOUS
 10
88.2673114236
 20
78.9224832215
 11
88.2673114236
 21
78.7224832215
  0
LINE
  8
0
 62
7
  6
CONTINUOUS
 10
88.5323705044
 20
78.9224832215
 11
88.5323705044
 21
78.7224832215
  0
LINE
  8
0
 62
7
  6
CONTINUOUS
 10
89.8198005112
 20
78.9224832215
 11
89.8198005112
 21
78.7224832215
  0
LINE
  8
0
 62
7
  6
CONTINUOUS
 10
90.0469940356
 20
78.9224832215
 11
90.0469940356
 21
78.7224832215
  0
LINE
  8
0
 62
7
  6
CONTINUOUS
 10
90.0719510503
 20
78.9224832215
 11
90.0719510503
 21
78.7224832215
  0
LINE
  8
0
 62
7
  6
CONTINUOUS
 10
90.0930876125
 20
78.9224832215
 11
90.0930876125
 21
78.7224832215
  0
LINE
  8
0
 62
7
  6
CONTINUOUS
 10
90.1885161222
 20
78.9224832215
 11
90.1885161222
 21
78.7224832215
  0
LINE
  8
0
 62
7
  6
CONTINUOUS
 10
90.4113825074
 20
78.9224832215
 11
90.4113825074
 21
78.7224832215
  0
LINE
  8
0
 62
7
  6
CONTINUOUS
 10
90.8359786411
 20
78.9224832215
 11
90.8359786411
 21
78.7224832215
  0
LINE
  8
0
 62
7
  6
CONTINUOUS
 10
91.4145879599
 20
78.9224832215
 11
91.4145879599
 21
78.7224832215
  0
LINE
  8
0
 62
7
  6
CONTINUOUS
 10
92.0463478982
 20
78.9224832215
 11
92.0463478982
 21
78.7224832215
  0
LINE
  8
0
 62
7
  6
CONTINUOUS
 10
92.6303912729
 20
78.9224832215
 11
92.6303912729
 21
78.7224832215
  0
LINE
  8
0
 62
7
  6
CONTINUOUS
 10
93.0127095163
 20
78.9224832215
 11
93.0127095163
 21
78.7224832215
  0
LINE
  8
0
 62
7
  6
CONTINUOUS
 10
93.3207405037
 20
78.9224832215
 11
93.3207405037
 21
78.7224832215
  0
LINE
  8
0
 62
7
  6
CONTINUOUS
 10
93.501329073
 20
78.9224832215
 11
93.501329073
 21
78.7224832215
  0
LINE
  8
0
 62
7
  6
CONTINUOUS
 10
93.7350728044
 20
78.9224832215
 11
93.7350728044
 21
78.7224832215
  0
LINE
  8
0
 62
7
  6
CONTINUOUS
 10
93.9742505917
 20
78.9224832215
 11
93.9742505917
 21
78.7224832215
  0
LINE
  8
0
 62
7
  6
CONTINUOUS
 10
94.0062599945
 20
78.9224832215
 11
94.0062599945
 21
78.7224832215
  0
LINE
  8
0
 62
7
  6
CONTINUOUS
 10
94.8608976453
 20
78.9224832215
 11
94.8608976453
 21
78.7224832215
  0
POLYLINE
  8
0
 62
7
  6
CONTINUOUS
 66
1
 70
0
  0
VERTEX
  8
0
 62
7
  6
CONTINUOUS
 10
153.502256298
 20
79.1419469398
  0
VERTEX
  8
0
 62
7
  6
CONTINUOUS
 10
153.536584536
 20
79.1465249514
  0
VERTEX
  8
0
 62
7
  6
CONTINUOUS
 10
153.6054073981
 20
79.1569436454
  0
VERTEX
  8
0
 62
7
  6
CONTINUOUS
 10
153.666001146
 20
79.1680543849
  0
VERTEX
  8
0
 62
7
  6
CONTINUOUS
 10
153.7230348793
 20
79.1808535012
  0
VERTEX
  8
0
 62
7
  6
CONTINUOUS
 10
153.7804694503
 20
79.1966321215
  0
VERTEX
  8
0
 62
7
  6
CONTINUOUS
 10
153.8455317836
 20
79.2185851501
  0
VERTEX
  8
0
 62
7
  6
CONTINUOUS
 10
153.9192093158
 20
79.2493478624
  0
VERTEX
  8
0
 62
7
  6
CONTINUOUS
 10
153.9982137794
 20
79.2902200494
  0
VERTEX
  8
0
 62
7
  6
CONTINUOUS
 10
154.0389959443
 20
79.3149168629
  0
VERTEX
  8
0
 62
7
  6
CONTINUOUS
 10
154.1220969482
 20
79.3740555195
  0
VERTEX
  8
0
 62
7
  6
CONTINUOUS
 10
154.2059605906
 20
79.4483128392
  0
VERTEX
  8
0
 62
7
  6
CONTINUOUS
 10
154.2902255425
 20
79.5429996354
  0
VERTEX
  8
0
 62
7
  6
CONTINUOUS
 10
154.3703520117
 20
79.662035089
  0
VERTEX
  8
0
 62
7
  6
CONTINUOUS
 10
154.4372518597
 20
79.8030776456
  0
VERTEX
  8
0
 62
7
  6
CONTINUOUS
 10
154.4836299617
 20
79.9634554884
  0
VERTEX
  8
0
 62
7
  6
CONTINUOUS
 10
154.5029723926
 20
80.1386652092
  0
VERTEX
  8
0
 62
7
  6
CONTINUOUS
 10
154.5032109707
 20
80.1605234537
  0
SEQEND
  0
LINE
  8
0
 62
7
  6
CONTINUOUS
 10
153.4443987148
 20
79.1345122513
 11
153.5022619496
 21
79.1419476634
  0
LINE
  8
0
 62
7
  6
CONTINUOUS
 10
151.9754837909
 20
78.9458419295
 11
153.4443987148
 21
79.1345122513
  0
LINE
  8
AXES
 62
7
  6
CONTINUOUS
 10
166.8205247279
 20
79.1734751513
 11
164.1691478413
 21
78.941509731
  0
LINE
  8
AXES
 62
7
  6
CONTINUOUS
 10
39.9902134519
 20
79.1734751579
 11
42.6415904138
 21
78.941509731
  0
POLYLINE
  8
0
 62
7
  6
CONTINUOUS
 66
1
 70
0
  0
VERTEX
  8
0
 62
7
  6
CONTINUOUS
 10
54.8352566189
 20
78.9458416554
  0
VERTEX
  8
0
 62
7
  6
CONTINUOUS
 10
54.9528459386
 20
78.9331984369
  0
VERTEX
  8
0
 62
7
  6
CONTINUOUS
 10
55.0835978631
 20
78.9248622404
  0
VERTEX
  8
0
 62
7
  6
CONTINUOUS
 10
55.2002390862
 20
78.9224832276
  0
SEQEND
  0
LINE
  8
0
 62
7
  6
CONTINUOUS
 10
53.3084763054
 20
79.1419476635
 11
53.3663395407
 21
79.134512254
  0
LINE
  8
0
 62
7
  6
CONTINUOUS
 10
53.3663395407
 20
79.134512254
 11
54.8352544641
 21
78.9458419295
  0
LINE
  8
0
 62
7
  6
CONTINUOUS
 10
94.989687001
 20
78.9224832215
 11
94.989687001
 21
78.7224832215
  0
LINE
  8
0
 62
7
  6
CONTINUOUS
 10
95.2524706222
 20
78.9224832215
 11
95.2524706222
 21
78.7224832215
  0
LINE
  8
0
 62
7
  6
CONTINUOUS
 10
95.7213759209
 20
78.9224832215
 11
95.7213759209
 21
78.7224832215
  0
LINE
  8
0
 62
7
  6
CONTINUOUS
 10
96.2212122441
 20
78.9224832215
 11
96.2212122441
 21
78.7224832215
  0
LINE
  8
0
 62
7
  6
CONTINUOUS
 10
96.6334508817
 20
78.9224832215
 11
96.6334508817
 21
78.7224832215
  0
LINE
  8
0
 62
7
  6
CONTINUOUS
 10
97.1642182292
 20
78.9224832215
 11
97.1642182292
 21
78.7224832215
  0
LINE
  8
0
 62
7
  6
CONTINUOUS
 10
97.7259118833
 20
78.9224832215
 11
97.7259118833
 21
78.7224832215
  0
LINE
  8
0
 62
7
  6
CONTINUOUS
 10
98.0814885774
 20
78.9224832215
 11
98.0814885774
 21
78.7224832215
  0
LINE
  8
0
 62
7
  6
CONTINUOUS
 10
98.3649378593
 20
78.9224832215
 11
98.3649378593
 21
78.7224832215
  0
LINE
  8
0
 62
7
  6
CONTINUOUS
 10
98.4113343958
 20
78.9224832215
 11
98.4113343958
 21
78.7224832215
  0
LINE
  8
0
 62
7
  6
CONTINUOUS
 10
98.4938620619
 20
78.9224832215
 11
98.4938620619
 21
78.7224832215
  0
LINE
  8
0
 62
7
  6
CONTINUOUS
 10
98.7773066043
 20
78.9224832215
 11
98.7773066043
 21
78.7224832215
  0
LINE
  8
0
 62
7
  6
CONTINUOUS
 10
98.8237031408
 20
78.9224832215
 11
98.8237031408
 21
78.7224832215
  0
LINE
  8
AXES
 62
7
  6
CONTINUOUS
 10
164.1691478413
 20
78.941509731
 11
163.7333691275
 21
78.9224832215
  0
POLYLINE
  8
0
 62
7
  6
CONTINUOUS
 66
1
 70
0
  0
VERTEX
  8
0
 62
7
  6
CONTINUOUS
 10
151.6104999247
 20
78.9224832276
  0
VERTEX
  8
0
 62
7
  6
CONTINUOUS
 10
151.7283106918
 20
78.9249102429
  0
VERTEX
  8
0
 62
7
  6
CONTINUOUS
 10
151.8590592366
 20
78.9332999005
  0
VERTEX
  8
0
 62
7
  6
CONTINUOUS
 10
151.9754815044
 20
78.9458416384
  0
SEQEND
  0
LINE
  8
AXES
 62
7
  6
CONTINUOUS
 10
42.6415904138
 20
78.941509731
 11
43.0773691275
 21
78.9224832215
  0
LINE
  8
AXES
 62
2
  6
CENTER
 10
103.4053691275
 20
59.2724832215
 11
103.4053691275
 21
105.5724832215
  0
LINE
  8
0
 62
7
  6
CONTINUOUS
 10
133.2328292381
 20
78.7224832215
 11
128.7297677823
 21
78.7224832215
  0
LINE
  8
0
 62
7
  6
CONTINUOUS
 10
128.4277269031
 20
78.7224832215
 11
119.4603751268
 21
78.7224832215
  0
LINE
  8
0
 62
7
  6
CONTINUOUS
 10
98.8237031408
 20
78.7224832215
 11
94.8608976453
 21
78.7224832215
  0
LINE
  8
0
 62
7
  6
CONTINUOUS
 10
94.0062599945
 20
78.7224832215
 11
90.0719510503
 21
78.7224832215
  0
LINE
  8
0
 62
7
  6
CONTINUOUS
 10
90.0469940356
 20
78.7224832215
 11
84.3735206807
 21
78.7224832215
  0
LINE
  8
0
 62
7
  6
CONTINUOUS
 10
80.416793125
 20
78.7224832215
 11
58.0797057736
 21
78.7224832215
  0
LINE
  8
AXES
 62
7
  6
CONTINUOUS
 10
163.7249062515
 20
78.9224832215
 11
163.1404463409
 21
78.9224832215
  0
LINE
  8
AXES
 62
7
  6
CONTINUOUS
 10
43.6702919141
 20
78.9224832215
 11
43.0773701515
 21
78.9224832215
  0
LINE
  8
0
 62
7
  6
CONTINUOUS
 10
43.0773704637
 20
78.9224832215
 11
163.7333677837
 21
78.9224832215
  0
LINE
  8
0
 62
7
  6
CONTINUOUS
 10
103.4053691275
 20
77.9224832215
 11
101.6733183199
 21
78.9224832215
  0
LINE
  8
0
 62
7
  6
CONTINUOUS
 10
103.4053691275
 20
77.9224832215
 11
105.1374199351
 21
78.9224832215
  0
POLYLINE
  8
0
 62
7
  6
CONTINUOUS
 66
1
 70
0
  0
VERTEX
  8
0
 62
7
  6
CONTINUOUS
 10
55.2002344116
 20
85.922483219
  0
VERTEX
  8
0
 62
7
  6
CONTINUOUS
 10
55.0824317211
 20
85.9200563677
  0
VERTEX
  8
0
 62
7
  6
CONTINUOUS
 10
54.951683165
 20
85.9116669076
  0
VERTEX
  8
0
 62
7
  6
CONTINUOUS
 10
54.8352569312
 20
85.899124824
  0
SEQEND
  0
LINE
  8
AXES
 62
7
  6
CONTINUOUS
 10
163.7249062515
 20
85.9224832215
 11
163.1404463409
 21
85.9224832215
  0
LINE
  8
AXES
 62
7
  6
CONTINUOUS
 10
111.8426752325
 20
85.9224832215
 11
94.9680630225
 21
85.9224832215
  0
LINE
  8
AXES
 62
7
  6
CONTINUOUS
 10
67.132367317
 20
85.9224832215
 11
55.2002145934
 21
85.9224832215
  0
LINE
  8
AXES
 62
7
  6
CONTINUOUS
 10
43.6702919141
 20
85.9224832215
 11
43.0773701515
 21
85.9224832215
  0
LINE
  8
0
 62
7
  6
CONTINUOUS
 10
43.0773704637
 20
85.9224832215
 11
163.7333677837
 21
85.9224832215
  0
LINE
  8
AXES
 62
7
  6
CONTINUOUS
 10
42.6415904138
 20
85.9034567119
 11
39.9902134519
 21
85.671491285
  0
LINE
  8
AXES
 62
7
  6
CONTINUOUS
 10
43.0773691275
 20
85.9224832215
 11
42.6415904138
 21
85.9034567119
  0
LINE
  8
AXES
 62
7
  6
CONTINUOUS
 10
163.7333691275
 20
85.9224832215
 11
164.1691478413
 21
85.9034567119
  0
LINE
  8
AXES
 62
7
  6
CONTINUOUS
 10
164.1691478413
 20
85.9034567119
 11
166.8205247279
 21
85.6714912916
  0
POLYLINE
  8
0
 62
7
  6
CONTINUOUS
 66
1
 70
0
  0
VERTEX
  8
0
 62
7
  6
CONTINUOUS
 10
151.9754814623
 20
85.8991248062
  0
VERTEX
  8
0
 62
7
  6
CONTINUOUS
 10
151.8578881723
 20
85.9117683692
  0
VERTEX
  8
0
 62
7
  6
CONTINUOUS
 10
151.7271362384
 20
85.9201043682
  0
VERTEX
  8
0
 62
7
  6
CONTINUOUS
 10
151.6105031222
 20
85.922483219
  0
SEQEND
  0
POLYLINE
  8
0
 62
7
  6
CONTINUOUS
 66
1
 70
0
  0
VERTEX
  8
0
 62
7
  6
CONTINUOUS
 10
53.3084819961
 20
85.7030195084
  0
VERTEX
  8
0
 62
7
  6
CONTINUOUS
 10
53.2741559605
 20
85.698441802
  0
VERTEX
  8
0
 62
7
  6
CONTINUOUS
 10
53.2053363198
 20
85.6880237059
  0
VERTEX
  8
0
 62
7
  6
CONTINUOUS
 10
53.1447455712
 20
85.6769137719
  0
VERTEX
  8
0
 62
7
  6
CONTINUOUS
 10
53.087713613
 20
85.6641154798
  0
VERTEX
  8
0
 62
7
  6
CONTINUOUS
 10
53.0302782005
 20
85.648337166
  0
VERTEX
  8
0
 62
7
  6
CONTINUOUS
 10
52.9652156061
 20
85.6263847048
  0
VERTEX
  8
0
 62
7
  6
CONTINUOUS
 10
52.8915379482
 20
85.5956227548
  0
VERTEX
  8
0
 62
7
  6
CONTINUOUS
 10
52.8125325131
 20
85.5547510078
  0
VERTEX
  8
0
 62
7
  6
CONTINUOUS
 10
52.7717496541
 20
85.5300542683
  0
VERTEX
  8
0
 62
7
  6
CONTINUOUS
 10
52.6886472184
 20
85.4709155975
  0
VERTEX
  8
0
 62
7
  6
CONTINUOUS
 10
52.604782086
 20
85.3966579782
  0
VERTEX
  8
0
 62
7
  6
CONTINUOUS
 10
52.5205155775
 20
85.3019704643
  0
VERTEX
  8
0
 62
7
  6
CONTINUOUS
 10
52.4403871608
 20
85.1829329568
  0
VERTEX
  8
0
 62
7
  6
CONTINUOUS
 10
52.3734857782
 20
85.0418871944
  0
VERTEX
  8
0
 62
7
  6
CONTINUOUS
 10
52.3271075107
 20
84.8815070755
  0
VERTEX
  8
0
 62
7
  6
CONTINUOUS
 10
52.307765803
 20
84.7062985806
  0
VERTEX
  8
0
 62
7
  6
CONTINUOUS
 10
52.3075272832
 20
84.6844430134
  0
SEQEND
  0
LINE
  8
0
 62
7
  6
CONTINUOUS
 10
54.8352544641
 20
85.8991245134
 11
53.3663395402
 21
85.7104541916
  0
LINE
  8
0
 62
7
  6
CONTINUOUS
 10
53.3663395402
 20
85.7104541916
 11
53.3084763054
 21
85.7030187795
  0
LINE
  8
0
 62
7
  6
CONTINUOUS
 10
153.4443987144
 20
85.7104541889
 11
151.975483791
 21
85.8991245134
  0
LINE
  8
0
 62
7
  6
CONTINUOUS
 10
153.5022619497
 20
85.7030187795
 11
153.4443987144
 21
85.7104541889
  0
LINE
  8
0
 62
7
  6
CONTINUOUS
 10
119.4603751268
 20
78.9224832215
 11
119.4603751268
 21
78.7224832215
  0
LINE
  8
0
 62
7
  6
CONTINUOUS
 10
121.531193863
 20
78.9224832215
 11
121.531193863
 21
78.7224832215
  0
LINE
  8
0
 62
7
  6
CONTINUOUS
 10
123.8066998376
 20
78.9224832215
 11
123.8066998376
 21
78.7224832215
  0
LINE
  8
0
 62
7
  6
CONTINUOUS
 10
124.2367050612
 20
78.9224832215
 11
124.2367050612
 21
78.7224832215
  0
LINE
  8
0
 62
7
  6
CONTINUOUS
 10
124.4837747066
 20
78.9224832215
 11
124.4837747066
 21
78.7224832215
  0
LINE
  8
0
 62
7
  6
CONTINUOUS
 10
124.591973082
 20
78.9224832215
 11
124.591973082
 21
78.7224832215
  0
LINE
  8
AXES
 62
7
  6
CONTINUOUS
 10
136.4053691275
 20
103.5724832215
 11
70.4053691275
 21
103.5724832215
  0
LINE
  8
0
 62
7
  6
CONTINUOUS
 10
127.7128307305
 20
78.9224832215
 11
127.7128307305
 21
78.7224832215
  0
LINE
  8
0
 62
7
  6
CONTINUOUS
 10
128.4277269031
 20
78.9224832215
 11
128.4277269031
 21
78.7224832215
  0
LINE
  8
0
 62
7
  6
CONTINUOUS
 10
128.7297677823
 20
78.9224832215
 11
128.7297677823
 21
78.7224832215
  0
LINE
  8
0
 62
7
  6
CONTINUOUS
 10
128.7391001384
 20
78.9224832215
 11
128.7391001384
 21
78.7224832215
  0
LINE
  8
0
 62
7
  6
CONTINUOUS
 10
128.895765763
 20
78.9224832215
 11
128.895765763
 21
78.7224832215
  0
LINE
  8
0
 62
7
  6
CONTINUOUS
 10
129.2642320197
 20
78.9224832215
 11
129.2642320197
 21
78.7224832215
  0
LINE
  8
0
 62
7
  6
CONTINUOUS
 10
129.7155565055
 20
78.9224832215
 11
129.7155565055
 21
78.7224832215
  0
LINE
  8
0
 62
7
  6
CONTINUOUS
 10
130.2497393108
 20
78.9224832215
 11
130.2497393108
 21
78.7224832215
  0
LINE
  8
0
 62
7
  6
CONTINUOUS
 10
130.7378231774
 20
78.9224832215
 11
130.7378231774
 21
78.7224832215
  0
LINE
  8
0
 62
7
  6
CONTINUOUS
 10
131.2442902563
 20
78.9224832215
 11
131.2442902563
 21
78.7224832215
  0
LINE
  8
0
 62
7
  6
CONTINUOUS
 10
131.8519914619
 20
78.9224832215
 11
131.8519914619
 21
78.7224832215
  0
LINE
  8
0
 62
7
  6
CONTINUOUS
 10
132.3307504001
 20
78.9224832215
 11
132.3307504001
 21
78.7224832215
  0
LINE
  8
0
 62
7
  6
CONTINUOUS
 10
132.6621685066
 20
78.9224832215
 11
132.6621685066
 21
78.7224832215
  0
LINE
  8
0
 62
7
  6
CONTINUOUS
 10
133.0119775918
 20
78.9224832215
 11
133.0119775918
 21
78.7224832215
  0
LINE
  8
0
 62
7
  6
CONTINUOUS
 10
133.2328292381
 20
78.9224832215
 11
133.2328292381
 21
78.7224832215
  0
LINE
  8
AXES
 62
7
  6
CONTINUOUS
 10
138.4053691275
 20
101.5724832215
 11
138.4053691275
 21
90.9224832215
  0
LINE
  8
AXES
 62
7
  6
CONTINUOUS
 10
138.4053691275
 20
73.9224832215
 11
138.4053691275
 21
63.2724832215
  0
POLYLINE
  8
0
 62
7
  6
CONTINUOUS
 66
1
 70
0
  0
VERTEX
  8
0
 62
7
  6
CONTINUOUS
 10
154.5032109707
 20
84.6844430072
  0
VERTEX
  8
0
 62
7
  6
CONTINUOUS
 10
154.4978084184
 20
84.7883250492
  0
VERTEX
  8
0
 62
7
  6
CONTINUOUS
 10
154.4688417009
 20
84.9445562357
  0
VERTEX
  8
0
 62
7
  6
CONTINUOUS
 10
154.4205151626
 20
85.0829488085
  0
VERTEX
  8
0
 62
7
  6
CONTINUOUS
 10
154.3579115919
 20
85.2040153955
  0
VERTEX
  8
0
 62
7
  6
CONTINUOUS
 10
154.2852635034
 20
85.3082552258
  0
VERTEX
  8
0
 62
7
  6
CONTINUOUS
 10
154.2063615091
 20
85.396256425
  0
VERTEX
  8
0
 62
7
  6
CONTINUOUS
 10
154.1241208101
 20
85.469306393
  0
VERTEX
  8
0
 62
7
  6
CONTINUOUS
 10
154.0406078934
 20
85.5290187127
  0
VERTEX
  8
0
 62
7
  6
CONTINUOUS
 10
153.9579487321
 20
85.5766658135
  0
VERTEX
  8
0
 62
7
  6
CONTINUOUS
 10
153.8784413476
 20
85.6134583257
  0
VERTEX
  8
0
 62
7
  6
CONTINUOUS
 10
153.8059058453
 20
85.6402966177
  0
VERTEX
  8
0
 62
7
  6
CONTINUOUS
 10
153.7428073706
 20
85.659033979
  0
VERTEX
  8
0
 62
7
  6
CONTINUOUS
 10
153.6856972171
 20
85.6727816615
  0
VERTEX
  8
0
 62
7
  6
CONTINUOUS
 10
153.6291429258
 20
85.6839291473
  0
VERTEX
  8
0
 62
7
  6
CONTINUOUS
 10
153.5675923579
 20
85.6939809212
  0
VERTEX
  8
0
 62
7
  6
CONTINUOUS
 10
153.5022544825
 20
85.7030197364
  0
SEQEND
  0
LINE
  8
0
 62
7
  6
CONTINUOUS
 10
154.5032111201
 20
84.684468692
 11
154.5032111201
 21
80.1604977509
  0
LINE
  8
AXES
 62
7
  6
CONTINUOUS
 10
167.7333691275
 20
84.6752965815
 11
167.7333691275
 21
80.1696698615
  0
ARC
  8
0
 62
7
  6
CONTINUOUS
 10
43.8149957752
 20
189.0450931342
 40
8.5
 50
51.6255770017
 51
87.0
  0
ARC
  8
0
 62
7
  6
CONTINUOUS
 10
73.9667839944
 20
152.1680910856
 40
8.5
 50
96.6255770017
 51
132.0
  0
ARC
  8
0
 62
7
  6
CONTINUOUS
 10
48.5704400789
 20
177.5644350011
 40
8.5
 50
318.0
 51
353.3744229983
  0
ARC
  8
0
 62
7
  6
CONTINUOUS
 10
85.4474421275
 20
147.4126467819
 40
8.5
 50
3.0
 51
38.3744229983
  0
ARC
  8
DEFAULT_3
 62
2
  6
PHANTOM
 10
97.0103227453
 20
180.5883118694
 40
3.2
 50
2.2544307753
 51
45.0
  0
ARC
  8
DEFAULT_3
 62
2
  6
PHANTOM
 10
92.7676820581
 20
184.8309525566
 40
3.2
 50
45.0
 51
86.4096221093
  0
ARC
  8
DEFAULT_3
 62
2
  6
PHANTOM
 10
93.1684686984
 20
191.2183910157
 40
3.2
 50
225.0
 51
266.4096221093
  0
ARC
  8
DEFAULT_3
 62
2
  6
PHANTOM
 10
87.620740009
 20
196.7661197051
 40
3.2
 50
183.5903778907
 51
225.0
  0
ARC
  8
DEFAULT_3
 62
2
  6
PHANTOM
 10
81.2333015498
 20
196.3653330649
 40
3.2
 50
3.5903778907
 51
45.0
  0
ARC
  8
DEFAULT_3
 62
2
  6
PHANTOM
 10
76.9906608627
 20
200.607973752
 40
3.2
 50
45.0
 51
87.7455692247
  0
ARC
  8
0
 62
7
  6
CONTINUOUS
 10
41.0634283172
 20
199.2030201342
 40
1.5
 50
187.131583601
 51
267.0
  0
ARC
  8
0
 62
7
  6
CONTINUOUS
 10
64.8383929214
 20
157.4051781417
 40
1.5
 50
232.131583601
 51
312.0
  0
ARC
  8
0
 62
7
  6
CONTINUOUS
 10
53.8075271349
 20
168.4360439282
 40
1.5
 50
138.0
 51
217.868416399
  0
ARC
  8
0
 62
7
  6
CONTINUOUS
 10
95.6053691275
 20
144.6610793239
 40
1.5
 50
183.0
 51
262.868416399
  0
ARC
  8
0
 62
7
  6
CONTINUOUS
 10
48.4709798405
 20
194.9248730947
 40
1.0
 50
12.4000380273
 51
51.6255770017
  0
ARC
  8
0
 62
7
  6
CONTINUOUS
 10
73.1014296181
 20
159.6180012732
 40
1.0
 50
57.4000380273
 51
96.6255770017
  0
ARC
  8
0
 62
7
  6
CONTINUOUS
 10
56.0203502665
 20
176.6990806248
 40
1.0
 50
353.3744229983
 51
32.5999619727
  0
ARC
  8
0
 62
7
  6
CONTINUOUS
 10
91.327222088
 20
152.0686308472
 40
1.0
 50
38.3744229983
 51
77.5999619727
  0
ARC
  8
0
 62
7
  6
CONTINUOUS
 10
85.4474421275
 20
266.5933934866
 40
8.5
 50
321.6255770017
 51
357.0
  0
ARC
  8
0
 62
7
  6
CONTINUOUS
 10
48.5704400789
 20
236.4416052674
 40
8.5
 50
6.6255770017
 51
42.0
  0
ARC
  8
0
 62
7
  6
CONTINUOUS
 10
73.9667839944
 20
261.8379491829
 40
8.5
 50
228.0
 51
263.3744229983
  0
ARC
  8
0
 62
7
  6
CONTINUOUS
 10
43.8149957752
 20
224.9609471342
 40
8.5
 50
273.0
 51
308.3744229983
  0
ARC
  8
DEFAULT_3
 62
2
  6
PHANTOM
 10
77.2424182236
 20
207.0030201342
 40
3.2
 50
92.2544307753
 51
267.7455692247
  0
ARC
  8
DEFAULT_3
 62
2
  6
PHANTOM
 10
76.9906608627
 20
213.3980665165
 40
3.2
 50
272.2544307753
 51
315.0
  0
ARC
  8
DEFAULT_3
 62
2
  6
PHANTOM
 10
81.2333015498
 20
217.6407072036
 40
3.2
 50
315.0
 51
356.4096221093
  0
ARC
  8
DEFAULT_3
 62
2
  6
PHANTOM
 10
87.620740009
 20
217.2399205633
 40
3.2
 50
135.0
 51
176.4096221093
  0
ARC
  8
DEFAULT_3
 62
2
  6
PHANTOM
 10
93.1684686984
 20
222.7876492528
 40
3.2
 50
93.5903778907
 51
135.0
  0
ARC
  8
DEFAULT_3
 62
2
  6
PHANTOM
 10
92.7676820581
 20
229.1750877119
 40
3.2
 50
273.5903778907
 51
315.0
  0
ARC
  8
DEFAULT_3
 62
2
  6
PHANTOM
 10
97.0103227453
 20
233.417728399
 40
3.2
 50
315.0
 51
357.7455692247
  0
ARC
  8
0
 62
7
  6
CONTINUOUS
 10
95.6053691275
 20
269.3449609446
 40
1.5
 50
97.131583601
 51
177.0
  0
ARC
  8
0
 62
7
  6
CONTINUOUS
 10
53.8075271349
 20
245.5699963403
 40
1.5
 50
142.131583601
 51
222.0
  0
ARC
  8
0
 62
7
  6
CONTINUOUS
 10
64.8383929214
 20
256.6008621268
 40
1.5
 50
48.0
 51
127.868416399
  0
ARC
  8
0
 62
7
  6
CONTINUOUS
 10
41.0634283172
 20
214.8030201342
 40
1.5
 50
93.0
 51
172.868416399
  0
ARC
  8
0
 62
7
  6
CONTINUOUS
 10
91.327222088
 20
261.9374094213
 40
1.0
 50
282.4000380273
 51
321.6255770017
  0
ARC
  8
0
 62
7
  6
CONTINUOUS
 10
56.0203502665
 20
237.3069596436
 40
1.0
 50
327.4000380273
 51
6.6255770017
  0
ARC
  8
0
 62
7
  6
CONTINUOUS
 10
73.1014296181
 20
254.3880389953
 40
1.0
 50
263.3744229983
 51
302.5999619727
  0
ARC
  8
0
 62
7
  6
CONTINUOUS
 10
48.4709798405
 20
219.0811671738
 40
1.0
 50
308.3744229983
 51
347.5999619727
  0
ARC
  8
0
 62
7
  6
CONTINUOUS
 10
121.3632961275
 20
147.4126467819
 40
8.5
 50
141.6255770017
 51
177.0
  0
ARC
  8
0
 62
7
  6
CONTINUOUS
 10
158.2402981762
 20
177.5644350011
 40
8.5
 50
186.6255770017
 51
222.0
  0
ARC
  8
0
 62
7
  6
CONTINUOUS
 10
132.8439542607
 20
152.1680910856
 40
8.5
 50
48.0
 51
83.3744229983
  0
ARC
  8
0
 62
7
  6
CONTINUOUS
 10
162.9957424799
 20
189.0450931342
 40
8.5
 50
93.0
 51
128.3744229983
  0
ARC
  8
DEFAULT_3
 62
2
  6
PHANTOM
 10
129.8200773923
 20
200.607973752
 40
3.2
 50
92.2544307753
 51
135.0
  0
ARC
  8
DEFAULT_3
 62
2
  6
PHANTOM
 10
125.5774367052
 20
196.3653330649
 40
3.2
 50
135.0
 51
176.4096221093
  0
ARC
  8
DEFAULT_3
 62
2
  6
PHANTOM
 10
119.1899982461
 20
196.7661197051
 40
3.2
 50
315.0
 51
356.4096221093
  0
ARC
  8
DEFAULT_3
 62
2
  6
PHANTOM
 10
113.6422695566
 20
191.2183910157
 40
3.2
 50
273.5903778907
 51
315.0
  0
ARC
  8
DEFAULT_3
 62
2
  6
PHANTOM
 10
114.0430561969
 20
184.8309525566
 40
3.2
 50
93.5903778907
 51
135.0
  0
ARC
  8
DEFAULT_3
 62
2
  6
PHANTOM
 10
109.8004155098
 20
180.5883118694
 40
3.2
 50
135.0
 51
177.7455692247
  0
ARC
  8
DEFAULT_3
 62
2
  6
PHANTOM
 10
103.4053691275
 20
180.8400692303
 40
3.2
 50
182.2544307753
 51
357.7455692247
  0
ARC
  8
0
 62
7
  6
CONTINUOUS
 10
111.2053691275
 20
144.6610793239
 40
1.5
 50
277.131583601
 51
357.0
  0
ARC
  8
0
 62
7
  6
CONTINUOUS
 10
153.0032111201
 20
168.4360439282
 40
1.5
 50
322.131583601
 51
42.0
  0
ARC
  8
0
 62
7
  6
CONTINUOUS
 10
141.9723453336
 20
157.4051781417
 40
1.5
 50
228.0
 51
307.868416399
  0
ARC
  8
0
 62
7
  6
CONTINUOUS
 10
165.7473099379
 20
199.2030201342
 40
1.5
 50
273.0
 51
352.868416399
  0
ARC
  8
0
 62
7
  6
CONTINUOUS
 10
115.483516167
 20
152.0686308472
 40
1.0
 50
102.4000380273
 51
141.6255770017
  0
ARC
  8
0
 62
7
  6
CONTINUOUS
 10
150.7903879886
 20
176.6990806248
 40
1.0
 50
147.4000380273
 51
186.6255770017
  0
ARC
  8
0
 62
7
  6
CONTINUOUS
 10
133.7093086369
 20
159.6180012732
 40
1.0
 50
83.3744229983
 51
122.5999619727
  0
ARC
  8
0
 62
7
  6
CONTINUOUS
 10
158.3397584146
 20
194.9248730947
 40
1.0
 50
128.3744229983
 51
167.5999619727
  0
ARC
  8
0
 62
7
  6
CONTINUOUS
 10
103.4053691275
 20
207.0030201342
 40
64.328
 50
217.868416399
 51
232.131583601
  0
ARC
  8
0
 62
7
  6
CONTINUOUS
 10
103.4053691275
 20
207.0030201342
 40
64.328
 50
172.868416399
 51
187.131583601
  0
ARC
  8
0
 62
7
  6
CONTINUOUS
 10
103.4053691275
 20
207.0030201342
 40
64.328
 50
127.868416399
 51
142.131583601
  0
ARC
  8
0
 62
7
  6
CONTINUOUS
 10
103.4053691275
 20
207.0030201342
 40
64.328
 50
82.868416399
 51
97.131583601
  0
ARC
  8
0
 62
7
  6
CONTINUOUS
 10
103.4053691275
 20
207.0030201342
 40
64.328
 50
37.868416399
 51
52.131583601
  0
ARC
  8
0
 62
7
  6
CONTINUOUS
 10
103.4053691275
 20
207.0030201342
 40
64.328
 50
352.868416399
 51
7.131583601
  0
ARC
  8
0
 62
7
  6
CONTINUOUS
 10
103.4053691275
 20
207.0030201342
 40
64.328
 50
262.868416399
 51
277.131583601
  0
ARC
  8
0
 62
7
  6
CONTINUOUS
 10
103.4053691275
 20
207.0030201342
 40
64.328
 50
307.868416399
 51
322.131583601
  0
ARC
  8
0
 62
7
  6
CONTINUOUS
 10
103.4053691275
 20
207.0030201342
 40
55.2465
 50
102.4000380273
 51
122.5999619727
  0
ARC
  8
0
 62
7
  6
CONTINUOUS
 10
103.4053691275
 20
207.0030201342
 40
55.2465
 50
57.4000380273
 51
77.5999619727
  0
ARC
  8
0
 62
7
  6
CONTINUOUS
 10
103.4053691275
 20
207.0030201342
 40
55.2465
 50
147.4000380273
 51
167.5999619727
  0
ARC
  8
0
 62
7
  6
CONTINUOUS
 10
103.4053691275
 20
207.0030201342
 40
55.2465
 50
192.4000380273
 51
212.5999619727
  0
ARC
  8
0
 62
7
  6
CONTINUOUS
 10
103.4053691275
 20
207.0030201342
 40
55.2465
 50
237.4000380273
 51
257.5999619727
  0
ARC
  8
0
 62
7
  6
CONTINUOUS
 10
103.4053691275
 20
207.0030201342
 40
55.2465
 50
282.4000380273
 51
302.5999619727
  0
ARC
  8
0
 62
7
  6
CONTINUOUS
 10
103.4053691275
 20
207.0030201342
 40
55.2465
 50
327.4000380273
 51
347.5999619727
  0
ARC
  8
0
 62
7
  6
CONTINUOUS
 10
103.4053691275
 20
207.0030201342
 40
55.2465
 50
12.4000380273
 51
32.5999619727
  0
CIRCLE
  8
AXES
 62
7
  6
CONTINUOUS
 10
103.4053691275
 20
207.0030201342
 40
35.0
  0
CIRCLE
  8
DEFAULT_3
 62
2
  6
PHANTOM
 10
103.4053691275
 20
207.0030201342
 40
9.0
  0
ARC
  8
DEFAULT_3
 62
2
  6
PHANTOM
 10
103.4053691275
 20
233.1659710381
 40
3.2
 50
2.2544307753
 51
177.7455692247
  0
ARC
  8
DEFAULT_3
 62
2
  6
PHANTOM
 10
109.8004155098
 20
233.417728399
 40
3.2
 50
182.2544307753
 51
225.0
  0
ARC
  8
DEFAULT_3
 62
2
  6
PHANTOM
 10
114.0430561969
 20
229.1750877119
 40
3.2
 50
225.0
 51
266.4096221093
  0
ARC
  8
DEFAULT_3
 62
2
  6
PHANTOM
 10
113.6422695566
 20
222.7876492528
 40
3.2
 50
45.0
 51
86.4096221093
  0
ARC
  8
DEFAULT_3
 62
2
  6
PHANTOM
 10
129.8200773923
 20
213.3980665165
 40
3.2
 50
225.0
 51
267.7455692247
  0
ARC
  8
DEFAULT_3
 62
2
  6
PHANTOM
 10
129.5683200314
 20
207.0030201342
 40
3.2
 50
272.2544307753
 51
87.7455692247
  0
ARC
  8
DEFAULT_3
 62
2
  6
PHANTOM
 10
119.1899982461
 20
217.2399205633
 40
3.2
 50
3.5903778907
 51
45.0
  0
ARC
  8
DEFAULT_3
 62
2
  6
PHANTOM
 10
125.5774367052
 20
217.6407072036
 40
3.2
 50
183.5903778907
 51
225.0
  0
ARC
  8
0
 62
7
  6
CONTINUOUS
 10
121.3632961275
 20
266.5933934866
 40
8.5
 50
183.0
 51
218.3744229983
  0
ARC
  8
0
 62
7
  6
CONTINUOUS
 10
132.8439542607
 20
261.8379491829
 40
8.5
 50
276.6255770017
 51
312.0
  0
CIRCLE
  8
0
 62
7
  6
CONTINUOUS
 10
103.4053691275
 20
257.0030201342
 40
1.7320508076
  0
ARC
  8
0
 62
7
  6
CONTINUOUS
 10
111.2053691275
 20
269.3449609446
 40
1.5
 50
3.0
 51
82.868416399
  0
ARC
  8
0
 62
7
  6
CONTINUOUS
 10
115.483516167
 20
261.9374094213
 40
1.0
 50
218.3744229983
 51
257.5999619727
  0
ARC
  8
0
 62
7
  6
CONTINUOUS
 10
133.7093086369
 20
254.3880389953
 40
1.0
 50
237.4000380273
 51
276.6255770017
  0
ARC
  8
0
 62
7
  6
CONTINUOUS
 10
158.2402981762
 20
236.4416052674
 40
8.5
 50
138.0
 51
173.3744229983
  0
ARC
  8
0
 62
7
  6
CONTINUOUS
 10
162.9957424799
 20
224.9609471342
 40
8.5
 50
231.6255770017
 51
267.0
  0
ARC
  8
0
 62
7
  6
CONTINUOUS
 10
165.7473099379
 20
214.8030201342
 40
1.5
 50
7.131583601
 51
87.0
  0
ARC
  8
0
 62
7
  6
CONTINUOUS
 10
150.7903879886
 20
237.3069596436
 40
1.0
 50
173.3744229983
 51
212.5999619727
  0
ARC
  8
0
 62
7
  6
CONTINUOUS
 10
158.3397584146
 20
219.0811671738
 40
1.0
 50
192.4000380273
 51
231.6255770017
  0
ARC
  8
0
 62
7
  6
CONTINUOUS
 10
153.0032111201
 20
245.5699963403
 40
1.5
 50
318.0
 51
37.868416399
  0
ARC
  8
0
 62
7
  6
CONTINUOUS
 10
141.9723453336
 20
256.6008621268
 40
1.5
 50
52.131583601
 51
132.0
  0
ARC
  8
0
 62
7
  6
CONTINUOUS
 10
143.4053691275
 20
73.9224832215
 40
5.0
 50
90.0
 51
180.0
  0
ARC
  8
0
 62
7
  6
CONTINUOUS
 10
63.4053691275
 20
73.9224832215
 40
5.0
 50
0.0
 51
74.045291344
  0
ARC
  8
0
 62
7
  6
CONTINUOUS
 10
143.4053691275
 20
90.9224832215
 40
5.0
 50
180.0
 51
270.0
  0
ARC
  8
0
 62
7
  6
CONTINUOUS
 10
63.4053691275
 20
90.9224832215
 40
5.0
 50
270.0
 51
360.0
  0
ARC
  8
AXES
 62
7
  6
CONTINUOUS
 10
136.4053691275
 20
101.5724832215
 40
2.0
 50
0.0
 51
90.0
  0
ARC
  8
AXES
 62
7
  6
CONTINUOUS
 10
70.4053691275
 20
101.5724832215
 40
2.0
 50
90.0
 51
180.0
  0
ARC
  8
AXES
 62
7
  6
CONTINUOUS
 10
136.4053691275
 20
63.2724832215
 40
2.0
 50
270.0
 51
360.0
  0
ARC
  8
AXES
 62
7
  6
CONTINUOUS
 10
70.4053691275
 20
63.2724832215
 40
2.0
 50
180.0
 51
270.0
  0
ARC
  8
0
 62
7
  6
CONTINUOUS
 10
40.0773691275
 20
84.6752965811
 40
1.0
 50
94.9999961404
 51
180.0
  0
ARC
  8
0
 62
7
  6
CONTINUOUS
 10
166.7333691275
 20
84.6752965811
 40
1.0
 50
0.0
 51
85.0000081879
  0
ARC
  8
0
 62
7
  6
CONTINUOUS
 10
166.7333691275
 20
80.1696698619
 40
1.0
 50
274.9999918121
 51
360.0
  0
ARC
  8
0
 62
7
  6
CONTINUOUS
 10
40.0773691275
 20
80.1696698619
 40
1.0
 50
180.0
 51
265.0000038596
  0
ENDSEC
  0
EOF
