  0
SECTION
  2
HEADER
  9
$EXTMAX
 10
420.0
 20
297.0
 30
0.0
  9
$EXTMIN
 10
0.0
 20
0.0
 30
0.0
  9
$LIMMIN
 10
0.0
 20
0.0
  9
$LIMMAX
 10
420.0
 20
297.0
  9
$VIEWCTR
 10
210.0
 20
148.5
  9
$VIEWSIZE
 40
297.0
  9
$CLAYER
  8
0
  9
$LTSCALE
 40
23.1
  9
$CELTYPE
  6
BYLAYER
  9
$DIMSCALE
 40
1.0
  9
$DIMASZ
 40
3.5
  9
$DIMEXO
 40
1.0
  9
$DIMDLI
 40
15.96
  9
$DIMEXE
 40
2.0
  9
$DIMCEN
 40
3.78
  9
$DIMLFAC
 40
1.0
  9
$DIMBLK
  1
_FILLED
  9
$DIMTXT
 40
3.5
  9
$PDMODE
 70
3
  9
$PDSIZE
 40
0.3125
  9
$TILEMODE
 70
1
  0
ENDSEC
  0
SECTION
  2
TABLES
  0
TABLE
  2
LTYPE
 70
6
  0
LTYPE
  2
BYBLOCK
 70
0
  3

 72
65
 73
0
 40
0.0
  0
LTYPE
  2
BYLAYER
 70
0
  3

 72
65
 73
0
 40
0.0
  0
LTYPE
  2
CONTINUOUS
 70
64
  3
Solid line
 72
65
 73
0
 40
0.0
  0
LTYPE
  2
CENTER
 70
64
  3
____ _ ____ _ ____ _ ____ _ ____ _ ____ _ ____
 72
65
 73
4
 40
0.6
 49
0.375
 49
-0.075
 49
0.075
 49
-0.075
  0
LTYPE
  2
HIDDEN
 70
64
  3
- - - - - - - - - - - - - - - - - - - -
 72
65
 73
2
 40
0.2
 49
0.1
 49
-0.1
  0
LTYPE
  2
PHANTOM
 70
64
  3
_____ _ _ _____ _ _ _____ _ _ _____
 72
65
 73
6
 40
0.8
 49
0.45
 49
-0.05
 49
0.1
 49
-0.05
 49
0.1
 49
-0.05
  0
LTYPE
  2
DOT
 70
64
  3
. . . . . . . . . . . . . . . . . . . .
 72
65
 73
2
 40
0.2
 49
0.1
 49
-0.1
  0
LTYPE
  2
DASHED
 70
64
  3
- - - - - - - - - - - - - - - - - - - -
 72
65
 73
2
 40
0.2
 49
0.1
 49
-0.1
  0
ENDTAB
  0
TABLE
  2
LAYER
 70
36
  0
LAYER
  2
0
 70
0
 62
7
  6
CONTINUOUS
  0
LAYER
  2
DEFAULT_1
 70
0
 62
7
  6
CENTER
  0
LAYER
  2
DEFAULT_2
 70
0
 62
8
  6
HIDDEN
  0
LAYER
  2
DEFAULT_3
 70
0
 62
7
  6
PHANTOM
  0
LAYER
  2
1_AXIS
 70
0
 62
7
  6
CONTINUOUS
  0
LAYER
  2
1_DATUM_PLANE
 70
0
 62
7
  6
CONTINUOUS
  0
LAYER
  2
2_FEATURE
 70
0
 62
7
  6
CONTINUOUS
  0
LAYER
  2
6_DIM
 70
0
 62
7
  6
CONTINUOUS
  0
ENDTAB
  0
TABLE
  2
STYLE
 70
1
  0
STYLE
  2
STANDARD
 70
0
 40
0.0
 41
0.8
 50
0.0
 71
0
 42
0.2
  3
txt
  4

  0
STYLE
  2
TEXTSTYLE_1
 70
0
 40
0.0
 41
0.8
 50
0.0
 71
0
 42
0.2
  3
gdt
  4

  0
STYLE
  2
TEXTSTYLE_2
 70
0
 40
0.0
 41
0.6
 50
0.0
 71
0
 42
0.2
  3
txt
  4

  0
STYLE
  2
TEXTSTYLE_3
 70
0
 40
0.0
 41
1.0
 50
0.0
 71
0
 42
0.2
  3
ftb_____.ttf
  4

  0
STYLE
  2
TEXTSTYLE_4
 70
0
 40
0.0
 41
1.0
 50
0.0
 71
0
 42
0.2
  3
fti_____.ttf
  4

  0
STYLE
  2
TEXTSTYLE_5
 70
0
 40
0.0
 41
1.0
 50
0.0
 71
0
 42
0.2
  3
frutiger light.ttf
  4

  0
STYLE
  2
TEXTSTYLE_6
 70
0
 40
0.0
 41
0.7
 50
0.0
 71
0
 42
0.2
  3
txt
  4

  0
STYLE
  2
TEXTSTYLE_7
 70
0
 40
0.0
 41
0.45
 50
0.0
 71
0
 42
0.2
  3
txt
  4

  0
ENDTAB
  0
ENDSEC
  0
SECTION
  2
BLOCKS
  0
BLOCK
  8
0
 62
2
  6
CONTINUOUS
  2
SYMBOL_5_BL1
 70
64
 10
382.7840918555
 20
35.5067593403
  0
TEXT
  8
0
 62
7
  6
CONTINUOUS
 10
373.842376864
 20
30.5995157174
  7
TEXTSTYLE_4
 40
1.0655737705
  1
The brand for plastic modular belts and chains
 41
1.0
 72
0
  0
LINE
  8
0
 62
7
  6
CONTINUOUS
 10
358.7621602445
 20
36.0805298321
 11
358.7621602445
 21
33.9493822911
  0
LINE
  8
0
 62
7
  6
CONTINUOUS
 10
359.0512227376
 20
30.9584509954
 11
359.0512227376
 21
31.0552420547
  0
LINE
  8
0
 62
7
  6
CONTINUOUS
 10
358.7621602445
 20
31.0229783683
 11
358.8199727462
 21
30.8293962497
  0
LINE
  8
0
 62
7
  6
CONTINUOUS
 10
360.1556028675
 20
33.867415078
 11
360.1556028675
 21
36.0805298321
  0
LINE
  8
0
 62
7
  6
CONTINUOUS
 10
361.0746601894
 20
32.0231527829
 11
361.0746601894
 21
30.5067593403
  0
LINE
  8
0
 62
7
  6
CONTINUOUS
 10
361.3637227445
 20
30.5067593403
 11
361.3637227445
 21
31.2488242184
  0
LINE
  8
0
 62
7
  6
CONTINUOUS
 10
361.3637227445
 20
31.3778789641
 11
361.3637227445
 21
32.0231527829
  0
LINE
  8
0
 62
7
  6
CONTINUOUS
 10
358.8199727462
 20
31.216560532
 11
358.7621602445
 21
31.0229783683
  0
LINE
  8
0
 62
7
  6
CONTINUOUS
 10
359.1668477307
 20
30.7971325633
 11
359.0512227376
 21
30.9584509954
  0
LINE
  8
0
 62
7
  6
CONTINUOUS
 10
360.2652852997
 20
31.3133515913
 11
360.3230977445
 21
31.216560532
  0
LINE
  8
0
 62
7
  6
CONTINUOUS
 10
360.6121602997
 20
31.216560532
 11
360.5543476894
 21
31.3456152777
  0
LINE
  8
0
 62
7
  6
CONTINUOUS
 10
362.0408487691
 20
36.0805298321
 11
362.0408487691
 21
34.2772511436
  0
LINE
  8
0
 62
7
  6
CONTINUOUS
 10
362.0408487691
 20
32.9657757338
 11
362.0408487691
 21
32.3100380288
  0
LINE
  8
0
 62
7
  6
CONTINUOUS
 10
362.4043477445
 20
31.1520331591
 11
362.4043477445
 21
30.5067593403
  0
LINE
  8
0
 62
7
  6
CONTINUOUS
 10
362.6934101343
 20
30.5067593403
 11
362.6934101343
 21
31.1520331591
  0
LINE
  8
0
 62
7
  6
CONTINUOUS
 10
359.0512227376
 20
31.0552420547
 11
359.1090352445
 21
31.1842968456
  0
LINE
  8
0
 62
7
  6
CONTINUOUS
 10
358.8199727462
 20
30.8293962497
 11
358.9355977445
 21
30.7003414814
  0
LINE
  8
0
 62
7
  6
CONTINUOUS
 10
362.3465351343
 20
31.2810879048
 11
362.4043477445
 21
31.1520331591
  0
LINE
  8
0
 62
7
  6
CONTINUOUS
 10
363.1559103548
 20
30.7971325633
 11
363.2137226343
 21
30.668077795
  0
LINE
  8
0
 62
7
  6
CONTINUOUS
 10
362.6934101343
 20
31.1520331591
 11
362.6355978548
 21
31.3133515913
  0
LINE
  8
0
 62
7
  6
CONTINUOUS
 10
363.1559103548
 20
31.3456152777
 11
363.1559103548
 21
31.2810879048
  0
LINE
  8
0
 62
7
  6
CONTINUOUS
 10
363.1559103548
 20
30.8939236226
 11
363.1559103548
 21
30.7971325633
  0
LINE
  8
0
 62
7
  6
CONTINUOUS
 10
363.4342913921
 20
32.3100380288
 11
363.4342913921
 21
36.0805298321
  0
LINE
  8
0
 62
7
  6
CONTINUOUS
 10
363.4449727445
 20
30.7648688543
 11
363.4449727445
 21
30.8293962497
  0
LINE
  8
0
 62
7
  6
CONTINUOUS
 10
363.7621602445
 20
36.0805298321
 11
363.7621602445
 21
32.3100380288
  0
LINE
  8
0
 62
7
  6
CONTINUOUS
 10
360.5543476894
 20
30.7003414814
 11
360.6121602997
 21
30.8293962497
  0
LINE
  8
0
 62
7
  6
CONTINUOUS
 10
364.9480979651
 20
30.6035504109
 11
364.890285024
 21
30.7648688543
  0
LINE
  8
0
 62
7
  6
CONTINUOUS
 10
364.6012229651
 20
31.2810879048
 11
364.6012229651
 21
31.1842968456
  0
LINE
  8
0
 62
7
  6
CONTINUOUS
 10
364.6012229651
 20
31.0552420547
 11
364.6012229651
 21
30.8616599362
  0
LINE
  8
0
 62
7
  6
CONTINUOUS
 10
364.890285024
 20
30.7648688543
 11
364.890285024
 21
31.2810879048
  0
LINE
  8
0
 62
7
  6
CONTINUOUS
 10
365.1556028675
 20
32.3100380288
 11
365.1556028675
 21
34.1133167174
  0
LINE
  8
0
 62
7
  6
CONTINUOUS
 10
365.1556028675
 20
35.4247921272
 11
365.1556028675
 21
36.0805298321
  0
LINE
  8
0
 62
7
  6
CONTINUOUS
 10
365.4684104651
 20
32.0231527829
 11
365.4684104651
 21
31.8618343508
  0
LINE
  8
0
 62
7
  6
CONTINUOUS
 10
365.4684104651
 20
31.5391973962
 11
365.4684104651
 21
30.5067593403
  0
LINE
  8
0
 62
7
  6
CONTINUOUS
 10
365.757472524
 20
30.5067593403
 11
365.757472524
 21
31.5391973962
  0
LINE
  8
0
 62
7
  6
CONTINUOUS
 10
365.757472524
 20
31.8618343508
 11
365.757472524
 21
32.0231527829
  0
LINE
  8
0
 62
7
  6
CONTINUOUS
 10
360.3230977445
 20
30.8293962497
 11
360.2652852997
 21
30.7326051679
  0
LINE
  8
0
 62
7
  6
CONTINUOUS
 10
362.6355978548
 20
31.3133515913
 11
362.5777852445
 21
31.3778789641
  0
LINE
  8
0
 62
7
  6
CONTINUOUS
 10
363.5027853548
 20
30.7003414814
 11
363.4449727445
 21
30.7648688543
  0
LINE
  8
0
 62
7
  6
CONTINUOUS
 10
364.6590352445
 20
30.5712867188
 11
364.716847524
 21
30.5067593403
  0
LINE
  8
0
 62
7
  6
CONTINUOUS
 10
364.6012229651
 20
30.668077795
 11
364.6590352445
 21
30.5712867188
  0
LINE
  8
0
 62
7
  6
CONTINUOUS
 10
365.0059102445
 20
30.5067593403
 11
364.9480979651
 21
30.6035504109
  0
LINE
  8
0
 62
7
  6
CONTINUOUS
 10
364.890285024
 20
31.2810879048
 11
364.8324727445
 21
31.3778789641
  0
LINE
  8
0
 62
7
  6
CONTINUOUS
 10
366.2199727445
 20
31.5391973962
 11
366.2199727445
 21
30.5067593403
  0
LINE
  8
0
 62
7
  6
CONTINUOUS
 10
366.5090354651
 20
30.5067593403
 11
366.5090354651
 21
31.2488242184
  0
LINE
  8
0
 62
7
  6
CONTINUOUS
 10
366.5090354651
 20
31.3778789641
 11
366.5090354651
 21
31.5391973962
  0
LINE
  8
0
 62
7
  6
CONTINUOUS
 10
367.0408487691
 20
34.5231527829
 11
367.0408487691
 21
32.3100380288
  0
LINE
  8
0
 62
7
  6
CONTINUOUS
 10
358.9355977445
 20
31.3456152777
 11
358.8199727462
 21
31.216560532
  0
LINE
  8
0
 62
7
  6
CONTINUOUS
 10
359.1090352445
 20
31.1842968456
 11
359.1668477307
 21
31.2488242184
  0
LINE
  8
0
 62
7
  6
CONTINUOUS
 10
358.9355977445
 20
30.7003414814
 11
359.0512227376
 21
30.6358140973
  0
LINE
  8
0
 62
7
  6
CONTINUOUS
 10
359.3402852307
 20
30.7003414814
 11
359.1668477307
 21
30.7971325633
  0
LINE
  8
0
 62
7
  6
CONTINUOUS
 10
364.543410024
 20
31.3456152777
 11
364.6012229651
 21
31.2810879048
  0
LINE
  8
0
 62
7
  6
CONTINUOUS
 10
367.491847524
 20
31.2810879048
 11
367.5496604651
 21
31.1197694727
  0
LINE
  8
0
 62
7
  6
CONTINUOUS
 10
367.838722524
 20
31.1197694727
 11
367.7809102445
 21
31.2810879048
  0
LINE
  8
0
 62
7
  6
CONTINUOUS
 10
367.5496604651
 20
31.1197694727
 11
367.5496604651
 21
30.5067593403
  0
LINE
  8
0
 62
7
  6
CONTINUOUS
 10
367.838722524
 20
30.5067593403
 11
367.838722524
 21
31.1197694727
  0
LINE
  8
0
 62
7
  6
CONTINUOUS
 10
368.3012227445
 20
31.3456152777
 11
368.3012227445
 21
31.2810879048
  0
LINE
  8
0
 62
7
  6
CONTINUOUS
 10
368.4342913921
 20
32.3100380288
 11
368.4342913921
 21
34.4411855698
  0
LINE
  8
0
 62
7
  6
CONTINUOUS
 10
368.7621602445
 20
36.0805298321
 11
368.7621602445
 21
32.3100380288
  0
LINE
  8
0
 62
7
  6
CONTINUOUS
 10
363.4449727445
 20
30.8293962497
 11
363.5027853548
 21
30.926187309
  0
LINE
  8
0
 62
7
  6
CONTINUOUS
 10
359.0512227376
 20
30.6358140973
 11
359.2246602583
 21
30.5712867188
  0
LINE
  8
0
 62
7
  6
CONTINUOUS
 10
360.5543476894
 20
31.3456152777
 11
360.3809101894
 21
31.4424063369
  0
LINE
  8
0
 62
7
  6
CONTINUOUS
 10
363.2137226343
 20
30.668077795
 11
363.3871601343
 21
30.5712867188
  0
LINE
  8
0
 62
7
  6
CONTINUOUS
 10
362.2309102445
 20
31.3456152777
 11
362.3465351343
 21
31.2810879048
  0
LINE
  8
0
 62
7
  6
CONTINUOUS
 10
362.5777852445
 20
31.3778789641
 11
362.4621603548
 21
31.4424063369
  0
LINE
  8
0
 62
7
  6
CONTINUOUS
 10
368.3012227445
 20
30.7648688543
 11
368.4168479651
 21
30.6358140973
  0
LINE
  8
0
 62
7
  6
CONTINUOUS
 10
368.6480977445
 20
30.7003414814
 11
368.5902854651
 21
30.7648688543
  0
LINE
  8
0
 62
7
  6
CONTINUOUS
 10
368.3012227445
 20
31.2810879048
 11
368.4168479651
 21
31.1520331591
  0
LINE
  8
0
 62
7
  6
CONTINUOUS
 10
367.7809102445
 20
31.2810879048
 11
367.7230979651
 21
31.3778789641
  0
LINE
  8
0
 62
7
  6
CONTINUOUS
 10
370.1512223035
 20
30.7003414814
 11
370.1512223035
 21
30.7648688543
  0
LINE
  8
0
 62
7
  6
CONTINUOUS
 10
370.1556028675
 20
32.3100380288
 11
370.1556028675
 21
36.0805298321
  0
LINE
  8
0
 62
7
  6
CONTINUOUS
 10
363.2137226343
 20
31.4101426505
 11
363.1559103548
 21
31.3456152777
  0
LINE
  8
0
 62
7
  6
CONTINUOUS
 10
360.091847717
 20
31.3778789641
 11
360.2652852997
 21
31.3133515913
  0
LINE
  8
0
 62
7
  6
CONTINUOUS
 10
364.8324727445
 20
31.3778789641
 11
364.716847524
 21
31.4424063369
  0
LINE
  8
0
 62
7
  6
CONTINUOUS
 10
368.6480977445
 20
31.216560532
 11
368.5902854651
 21
31.2810879048
  0
LINE
  8
0
 62
7
  6
CONTINUOUS
 10
369.8043479651
 20
30.8293962497
 11
369.8621602445
 21
30.7648688543
  0
LINE
  8
0
 62
7
  6
CONTINUOUS
 10
370.1512223035
 20
30.7648688543
 11
370.0355977445
 21
30.8939236226
  0
LINE
  8
0
 62
7
  6
CONTINUOUS
 10
369.8043479651
 20
31.3456152777
 11
369.8621602445
 21
31.2810879048
  0
LINE
  8
0
 62
7
  6
CONTINUOUS
 10
370.1512223035
 20
31.2810879048
 11
370.0355977445
 21
31.4101426505
  0
LINE
  8
0
 62
7
  6
CONTINUOUS
 10
363.4449727445
 20
31.2810879048
 11
363.5027853548
 21
31.3456152777
  0
LINE
  8
0
 62
7
  6
CONTINUOUS
 10
363.2715352445
 20
31.0229783683
 11
363.1559103548
 21
30.8939236226
  0
LINE
  8
0
 62
7
  6
CONTINUOUS
 10
364.6012229651
 20
30.8616599362
 11
364.543410024
 21
30.7971325633
  0
LINE
  8
0
 62
7
  6
CONTINUOUS
 10
364.543410024
 20
30.6035504109
 11
364.6012229651
 21
30.668077795
  0
LINE
  8
0
 62
7
  6
CONTINUOUS
 10
363.3871601343
 20
30.5712867188
 11
363.5027853548
 21
30.5390230296
  0
LINE
  8
0
 62
7
  6
CONTINUOUS
 10
360.3809101894
 20
31.4424063369
 11
360.1496602445
 21
31.5069337098
  0
LINE
  8
0
 62
7
  6
CONTINUOUS
 10
363.7340351343
 20
30.6358140973
 11
363.5027853548
 21
30.7003414814
  0
LINE
  8
0
 62
7
  6
CONTINUOUS
 10
362.4621603548
 20
31.4424063369
 11
362.2887228548
 21
31.5069337098
  0
LINE
  8
0
 62
7
  6
CONTINUOUS
 10
364.716847524
 20
31.4424063369
 11
364.543410024
 21
31.5069337098
  0
LINE
  8
0
 62
7
  6
CONTINUOUS
 10
367.3762229651
 20
31.3456152777
 11
367.491847524
 21
31.2810879048
  0
LINE
  8
0
 62
7
  6
CONTINUOUS
 10
367.7230979651
 20
31.3778789641
 11
367.6074727445
 21
31.4424063369
  0
LINE
  8
0
 62
7
  6
CONTINUOUS
 10
359.2246602583
 20
30.5712867188
 11
359.3980977583
 21
30.5390230296
  0
LINE
  8
0
 62
7
  6
CONTINUOUS
 10
359.6871602721
 20
30.6358140973
 11
359.3402852307
 21
30.7003414814
  0
LINE
  8
0
 62
7
  6
CONTINUOUS
 10
362.1152853548
 20
31.3778789641
 11
362.2309102445
 21
31.3456152777
  0
LINE
  8
0
 62
7
  6
CONTINUOUS
 10
364.4277854651
 20
31.3778789641
 11
364.543410024
 21
31.3456152777
  0
LINE
  8
0
 62
7
  6
CONTINUOUS
 10
368.7637229651
 20
30.668077795
 11
368.6480977445
 21
30.7003414814
  0
LINE
  8
0
 62
7
  6
CONTINUOUS
 10
367.2605977445
 20
31.3778789641
 11
367.3762229651
 21
31.3456152777
  0
LINE
  8
0
 62
7
  6
CONTINUOUS
 10
368.4168479651
 20
30.6358140973
 11
368.5902854651
 21
30.5712867188
  0
LINE
  8
0
 62
7
  6
CONTINUOUS
 10
367.6074727445
 20
31.4424063369
 11
367.4340352445
 21
31.5069337098
  0
LINE
  8
0
 62
7
  6
CONTINUOUS
 10
368.8215352445
 20
31.1520331591
 11
368.6480977445
 21
31.216560532
  0
LINE
  8
0
 62
7
  6
CONTINUOUS
 10
369.6309104651
 20
30.8939236226
 11
369.8043479651
 21
30.8293962497
  0
LINE
  8
0
 62
7
  6
CONTINUOUS
 10
370.0355977445
 20
31.4101426505
 11
369.8621602445
 21
31.4746700234
  0
LINE
  8
0
 62
7
  6
CONTINUOUS
 10
368.4168479651
 20
31.1520331591
 11
368.6480977445
 21
31.0552420547
  0
LINE
  8
0
 62
7
  6
CONTINUOUS
 10
370.0355977445
 20
30.8939236226
 11
369.8043479651
 21
30.9907146818
  0
LINE
  8
0
 62
7
  6
CONTINUOUS
 10
368.5902854651
 20
31.2810879048
 11
368.6480977445
 21
31.3456152777
  0
LINE
  8
0
 62
7
  6
CONTINUOUS
 10
359.0512227376
 20
31.4101426505
 11
358.9355977445
 21
31.3456152777
  0
LINE
  8
0
 62
7
  6
CONTINUOUS
 10
359.1668477307
 20
31.2488242184
 11
359.3402852307
 21
31.3456152777
  0
LINE
  8
0
 62
7
  6
CONTINUOUS
 10
361.4793477997
 20
31.4424063369
 11
361.3637227445
 21
31.3778789641
  0
LINE
  8
0
 62
7
  6
CONTINUOUS
 10
361.3637227445
 20
31.2488242184
 11
361.4793477997
 21
31.3133515913
  0
LINE
  8
0
 62
7
  6
CONTINUOUS
 10
360.3809101894
 20
30.6035504109
 11
360.5543476894
 21
30.7003414814
  0
LINE
  8
0
 62
7
  6
CONTINUOUS
 10
359.3980977583
 20
30.5390230296
 11
359.744972717
 21
30.5067593403
  0
LINE
  8
0
 62
7
  6
CONTINUOUS
 10
363.5027853548
 20
30.5390230296
 11
363.7340351343
 21
30.5067593403
  0
LINE
  8
0
 62
7
  6
CONTINUOUS
 10
361.8840352445
 20
31.4101426505
 11
362.1152853548
 21
31.3778789641
  0
LINE
  8
0
 62
7
  6
CONTINUOUS
 10
364.1965353548
 20
31.4101426505
 11
364.4277854651
 21
31.3778789641
  0
LINE
  8
0
 62
7
  6
CONTINUOUS
 10
368.6480977445
 20
31.0552420547
 11
369.6309104651
 21
30.8939236226
  0
LINE
  8
0
 62
7
  6
CONTINUOUS
 10
369.8043479651
 20
30.9907146818
 11
368.8215352445
 21
31.1520331591
  0
LINE
  8
0
 62
7
  6
CONTINUOUS
 10
362.2887228548
 20
31.5069337098
 11
362.1152853548
 21
31.5391973962
  0
LINE
  8
0
 62
7
  6
CONTINUOUS
 10
368.5902854651
 20
30.5712867188
 11
368.7637229651
 21
30.5390230296
  0
LINE
  8
0
 62
7
  6
CONTINUOUS
 10
367.4340352445
 20
31.5069337098
 11
367.2605977445
 21
31.5391973962
  0
LINE
  8
0
 62
7
  6
CONTINUOUS
 10
369.6887227445
 20
31.3778789641
 11
369.8043479651
 21
31.3456152777
  0
LINE
  8
0
 62
7
  6
CONTINUOUS
 10
369.8621602445
 20
30.7648688543
 11
369.8043479651
 21
30.7003414814
  0
LINE
  8
0
 62
7
  6
CONTINUOUS
 10
368.4168479651
 20
31.4424063369
 11
368.3012227445
 21
31.3456152777
  0
LINE
  8
0
 62
7
  6
CONTINUOUS
 10
363.3293478548
 20
31.4746700234
 11
363.2137226343
 21
31.4101426505
  0
LINE
  8
0
 62
7
  6
CONTINUOUS
 10
363.3871601343
 20
31.0875057863
 11
363.2715352445
 21
31.0229783683
  0
LINE
  8
0
 62
7
  6
CONTINUOUS
 10
363.5027853548
 20
30.926187309
 11
363.6184102445
 21
30.9907146818
  0
LINE
  8
0
 62
7
  6
CONTINUOUS
 10
361.0746601894
 20
30.5067593403
 11
361.3637227445
 21
30.5067593403
  0
LINE
  8
0
 62
7
  6
CONTINUOUS
 10
362.4043477445
 20
30.5067593403
 11
362.6934101343
 21
30.5067593403
  0
LINE
  8
0
 62
7
  6
CONTINUOUS
 10
363.7340351343
 20
30.5067593403
 11
364.0809101343
 21
30.5067593403
  0
LINE
  8
0
 62
7
  6
CONTINUOUS
 10
364.716847524
 20
30.5067593403
 11
365.0059102445
 21
30.5067593403
  0
LINE
  8
0
 62
7
  6
CONTINUOUS
 10
365.4684104651
 20
30.5067593403
 11
365.757472524
 21
30.5067593403
  0
LINE
  8
0
 62
7
  6
CONTINUOUS
 10
366.2199727445
 20
30.5067593403
 11
366.5090354651
 21
30.5067593403
  0
LINE
  8
0
 62
7
  6
CONTINUOUS
 10
367.5496604651
 20
30.5067593403
 11
367.838722524
 21
30.5067593403
  0
LINE
  8
0
 62
7
  6
CONTINUOUS
 10
369.1105979651
 20
30.5067593403
 11
369.4574729651
 21
30.5067593403
  0
LINE
  8
0
 62
7
  6
CONTINUOUS
 10
369.4574729651
 20
30.6358140973
 11
369.1105979651
 21
30.6358140973
  0
LINE
  8
0
 62
7
  6
CONTINUOUS
 10
364.0809101343
 20
30.6358140973
 11
363.7340351343
 21
30.6358140973
  0
LINE
  8
0
 62
7
  6
CONTINUOUS
 10
368.5902854651
 20
30.7648688543
 11
368.3012227445
 21
30.7648688543
  0
LINE
  8
0
 62
7
  6
CONTINUOUS
 10
360.6121602997
 20
30.8293962497
 11
360.3230977445
 21
30.8293962497
  0
LINE
  8
0
 62
7
  6
CONTINUOUS
 10
359.6871602721
 20
31.4101426505
 11
360.091847717
 21
31.3778789641
  0
LINE
  8
0
 62
7
  6
CONTINUOUS
 10
360.1496602445
 20
31.5069337098
 11
359.744972717
 21
31.5391973962
  0
LINE
  8
0
 62
7
  6
CONTINUOUS
 10
368.7637229651
 20
30.5390230296
 11
369.1105979651
 21
30.5067593403
  0
LINE
  8
0
 62
7
  6
CONTINUOUS
 10
369.1105979651
 20
30.6358140973
 11
368.7637229651
 21
30.668077795
  0
LINE
  8
0
 62
7
  6
CONTINUOUS
 10
364.543410024
 20
31.5069337098
 11
364.1965353548
 21
31.5391973962
  0
LINE
  8
0
 62
7
  6
CONTINUOUS
 10
369.3418477445
 20
31.4101426505
 11
369.6887227445
 21
31.3778789641
  0
LINE
  8
0
 62
7
  6
CONTINUOUS
 10
369.6887227445
 20
31.5069337098
 11
369.3418477445
 21
31.5391973962
  0
LINE
  8
0
 62
7
  6
CONTINUOUS
 10
367.0293479651
 20
31.4101426505
 11
367.2605977445
 21
31.3778789641
  0
LINE
  8
0
 62
7
  6
CONTINUOUS
 10
369.8621602445
 20
31.4746700234
 11
369.6887227445
 21
31.5069337098
  0
LINE
  8
0
 62
7
  6
CONTINUOUS
 10
370.0355977445
 20
30.6035504109
 11
370.1512223035
 21
30.7003414814
  0
LINE
  8
0
 62
7
  6
CONTINUOUS
 10
364.543410024
 20
30.7971325633
 11
364.369972524
 21
30.7003414814
  0
LINE
  8
0
 62
7
  6
CONTINUOUS
 10
366.624660024
 20
31.4424063369
 11
366.5090354651
 21
31.3778789641
  0
LINE
  8
0
 62
7
  6
CONTINUOUS
 10
366.5090354651
 20
31.2488242184
 11
366.624660024
 21
31.3133515913
  0
LINE
  8
0
 62
7
  6
CONTINUOUS
 10
359.2246602583
 20
31.4746700234
 11
359.0512227376
 21
31.4101426505
  0
LINE
  8
0
 62
7
  6
CONTINUOUS
 10
361.6527851343
 20
31.5069337098
 11
361.4793477997
 21
31.4424063369
  0
LINE
  8
0
 62
7
  6
CONTINUOUS
 10
361.4793477997
 20
31.3133515913
 11
361.6527851343
 21
31.3778789641
  0
LINE
  8
0
 62
7
  6
CONTINUOUS
 10
360.2652852997
 20
30.7326051679
 11
360.091847717
 21
30.668077795
  0
LINE
  8
0
 62
7
  6
CONTINUOUS
 10
369.6887227445
 20
30.668077795
 11
369.4574729651
 21
30.6358140973
  0
LINE
  8
0
 62
7
  6
CONTINUOUS
 10
364.0809101343
 20
30.5067593403
 11
364.369972524
 21
30.5390230296
  0
LINE
  8
0
 62
7
  6
CONTINUOUS
 10
369.4574729651
 20
30.5067593403
 11
369.8043479651
 21
30.5390230296
  0
LINE
  8
0
 62
7
  6
CONTINUOUS
 10
359.744972717
 20
30.5067593403
 11
360.1496602445
 21
30.5390230296
  0
LINE
  8
0
 62
7
  6
CONTINUOUS
 10
360.091847717
 20
30.668077795
 11
359.6871602721
 21
30.6358140973
  0
LINE
  8
0
 62
7
  6
CONTINUOUS
 10
363.9652852445
 20
31.0552420547
 11
364.6012229651
 21
31.0552420547
  0
LINE
  8
0
 62
7
  6
CONTINUOUS
 10
364.6012229651
 20
31.1842968456
 11
363.9652852445
 21
31.1842968456
  0
LINE
  8
0
 62
7
  6
CONTINUOUS
 10
360.3230977445
 20
31.216560532
 11
360.6121602997
 21
31.216560532
  0
LINE
  8
0
 62
7
  6
CONTINUOUS
 10
363.1559103548
 20
31.2810879048
 11
363.4449727445
 21
31.2810879048
  0
LINE
  8
0
 62
7
  6
CONTINUOUS
 10
369.8621602445
 20
31.2810879048
 11
370.1512223035
 21
31.2810879048
  0
LINE
  8
0
 62
7
  6
CONTINUOUS
 10
363.8496603548
 20
31.4101426505
 11
364.1965353548
 21
31.4101426505
  0
LINE
  8
0
 62
7
  6
CONTINUOUS
 10
368.9949727445
 20
31.4101426505
 11
369.3418477445
 21
31.4101426505
  0
LINE
  8
0
 62
7
  6
CONTINUOUS
 10
369.3418477445
 20
31.5391973962
 11
368.9949727445
 21
31.5391973962
  0
LINE
  8
0
 62
7
  6
CONTINUOUS
 10
367.2605977445
 20
31.5391973962
 11
367.0293479651
 21
31.5391973962
  0
LINE
  8
0
 62
7
  6
CONTINUOUS
 10
366.5090354651
 20
31.5391973962
 11
366.2199727445
 21
31.5391973962
  0
LINE
  8
0
 62
7
  6
CONTINUOUS
 10
365.757472524
 20
31.5391973962
 11
365.4684104651
 21
31.5391973962
  0
LINE
  8
0
 62
7
  6
CONTINUOUS
 10
364.1965353548
 20
31.5391973962
 11
363.8496603548
 21
31.5391973962
  0
LINE
  8
0
 62
7
  6
CONTINUOUS
 10
362.1152853548
 20
31.5391973962
 11
361.8840352445
 21
31.5391973962
  0
LINE
  8
0
 62
7
  6
CONTINUOUS
 10
365.4684104651
 20
31.8618343508
 11
365.757472524
 21
31.8618343508
  0
LINE
  8
0
 62
7
  6
CONTINUOUS
 10
365.757472524
 20
32.0231527829
 11
365.4684104651
 21
32.0231527829
  0
LINE
  8
0
 62
7
  6
CONTINUOUS
 10
361.3637227445
 20
32.0231527829
 11
361.0746601894
 21
32.0231527829
  0
LINE
  8
0
 62
7
  6
CONTINUOUS
 10
360.4015045068
 20
32.3100380288
 11
360.8140758554
 21
32.3100380288
  0
LINE
  8
0
 62
7
  6
CONTINUOUS
 10
362.0408487691
 20
32.3100380288
 11
363.4342913921
 21
32.3100380288
  0
LINE
  8
0
 62
7
  6
CONTINUOUS
 10
363.7621602445
 20
32.3100380288
 11
365.1556028675
 21
32.3100380288
  0
LINE
  8
0
 62
7
  6
CONTINUOUS
 10
367.0408487691
 20
32.3100380288
 11
368.4342913921
 21
32.3100380288
  0
LINE
  8
0
 62
7
  6
CONTINUOUS
 10
368.7621602445
 20
32.3100380288
 11
370.1556028675
 21
32.3100380288
  0
LINE
  8
0
 62
7
  6
CONTINUOUS
 10
366.798097524
 20
31.5069337098
 11
366.624660024
 21
31.4424063369
  0
LINE
  8
0
 62
7
  6
CONTINUOUS
 10
364.369972524
 20
30.5390230296
 11
364.543410024
 21
30.6035504109
  0
LINE
  8
0
 62
7
  6
CONTINUOUS
 10
369.8043479651
 20
30.5390230296
 11
370.0355977445
 21
30.6035504109
  0
LINE
  8
0
 62
7
  6
CONTINUOUS
 10
369.8043479651
 20
30.7003414814
 11
369.6887227445
 21
30.668077795
  0
LINE
  8
0
 62
7
  6
CONTINUOUS
 10
368.7637229651
 20
31.3778789641
 11
368.9949727445
 21
31.4101426505
  0
LINE
  8
0
 62
7
  6
CONTINUOUS
 10
366.798097524
 20
31.3778789641
 11
367.0293479651
 21
31.4101426505
  0
LINE
  8
0
 62
7
  6
CONTINUOUS
 10
363.7340351343
 20
31.0229783683
 11
363.9652852445
 21
31.0552420547
  0
LINE
  8
0
 62
7
  6
CONTINUOUS
 10
367.0293479651
 20
31.5391973962
 11
366.798097524
 21
31.5069337098
  0
LINE
  8
0
 62
7
  6
CONTINUOUS
 10
363.6184102445
 20
31.3778789641
 11
363.8496603548
 21
31.4101426505
  0
LINE
  8
0
 62
7
  6
CONTINUOUS
 10
368.9949727445
 20
31.5391973962
 11
368.6480977445
 21
31.5069337098
  0
LINE
  8
0
 62
7
  6
CONTINUOUS
 10
363.9652852445
 20
31.1842968456
 11
363.6184102445
 21
31.1520331591
  0
LINE
  8
0
 62
7
  6
CONTINUOUS
 10
359.744972717
 20
31.5391973962
 11
359.3980977583
 21
31.5069337098
  0
LINE
  8
0
 62
7
  6
CONTINUOUS
 10
363.8496603548
 20
31.5391973962
 11
363.4449727445
 21
31.5069337098
  0
LINE
  8
0
 62
7
  6
CONTINUOUS
 10
361.221176638
 20
33.4575790124
 11
360.565438933
 21
33.4575790124
  0
LINE
  8
0
 62
7
  6
CONTINUOUS
 10
366.624660024
 20
31.3133515913
 11
366.798097524
 21
31.3778789641
  0
LINE
  8
0
 62
7
  6
CONTINUOUS
 10
368.6480977445
 20
31.3456152777
 11
368.7637229651
 21
31.3778789641
  0
LINE
  8
0
 62
7
  6
CONTINUOUS
 10
368.6480977445
 20
31.5069337098
 11
368.4168479651
 21
31.4424063369
  0
LINE
  8
0
 62
7
  6
CONTINUOUS
 10
364.369972524
 20
30.7003414814
 11
364.0809101343
 21
30.6358140973
  0
LINE
  8
0
 62
7
  6
CONTINUOUS
 10
361.6527851343
 20
31.3778789641
 11
361.8840352445
 21
31.4101426505
  0
LINE
  8
0
 62
7
  6
CONTINUOUS
 10
361.8840352445
 20
31.5391973962
 11
361.6527851343
 21
31.5069337098
  0
LINE
  8
0
 62
7
  6
CONTINUOUS
 10
359.4559102445
 20
31.3778789641
 11
359.6871602721
 21
31.4101426505
  0
LINE
  8
0
 62
7
  6
CONTINUOUS
 10
365.9752749986
 20
34.9329888485
 11
366.6310127035
 21
34.9329888485
  0
LINE
  8
0
 62
7
  6
CONTINUOUS
 10
363.6184102445
 20
30.9907146818
 11
363.7340351343
 21
31.0229783683
  0
LINE
  8
0
 62
7
  6
CONTINUOUS
 10
363.6184102445
 20
31.1520331591
 11
363.3871601343
 21
31.0875057863
  0
LINE
  8
0
 62
7
  6
CONTINUOUS
 10
363.5027853548
 20
31.3456152777
 11
363.6184102445
 21
31.3778789641
  0
LINE
  8
0
 62
7
  6
CONTINUOUS
 10
360.1496602445
 20
30.5390230296
 11
360.3809101894
 21
30.6035504109
  0
LINE
  8
0
 62
7
  6
CONTINUOUS
 10
363.4449727445
 20
31.5069337098
 11
363.3293478548
 21
31.4746700234
  0
LINE
  8
0
 62
7
  6
CONTINUOUS
 10
359.3980977583
 20
31.5069337098
 11
359.2246602583
 21
31.4746700234
  0
LINE
  8
0
 62
7
  6
CONTINUOUS
 10
370.1556028675
 20
36.0805298321
 11
368.7621602445
 21
36.0805298321
  0
LINE
  8
0
 62
7
  6
CONTINUOUS
 10
366.7949471298
 20
36.0805298321
 11
366.3823757812
 21
36.0805298321
  0
LINE
  8
0
 62
7
  6
CONTINUOUS
 10
365.1556028675
 20
36.0805298321
 11
363.7621602445
 21
36.0805298321
  0
LINE
  8
0
 62
7
  6
CONTINUOUS
 10
363.4342913921
 20
36.0805298321
 11
362.0408487691
 21
36.0805298321
  0
LINE
  8
0
 62
7
  6
CONTINUOUS
 10
360.1556028675
 20
36.0805298321
 11
358.7621602445
 21
36.0805298321
  0
LINE
  8
0
 62
7
  6
CONTINUOUS
 10
359.3402852307
 20
31.3456152777
 11
359.4559102445
 21
31.3778789641
  0
CIRCLE
  8
0
 62
7
  6
CONTINUOUS
 10
369.458881556
 20
38.4165954059
 40
2.0901639344
  0
ARC
  8
0
 62
7
  6
CONTINUOUS
 10
360.4015045068
 20
33.9493822911
 40
1.6393442623
 50
180.0
 51
270.0
  0
ARC
  8
0
 62
7
  6
CONTINUOUS
 10
366.7949471298
 20
34.4411855698
 40
1.6393442623
 50
0.0
 51
90.0
  0
ARC
  8
0
 62
7
  6
CONTINUOUS
 10
360.8140758554
 20
33.7854478649
 40
1.4754098361
 50
270.0
 51
326.2510114041
  0
ARC
  8
0
 62
7
  6
CONTINUOUS
 10
366.3823757812
 20
34.6051199961
 40
1.4754098361
 50
90.0
 51
146.2510114041
  0
ARC
  8
0
 62
7
  6
CONTINUOUS
 10
361.221176638
 20
34.2772511436
 40
0.8196721311
 50
270.0
 51
360.0
  0
ARC
  8
0
 62
7
  6
CONTINUOUS
 10
365.9752749986
 20
34.1133167174
 40
0.8196721311
 50
90.0
 51
180.0
  0
ARC
  8
0
 62
7
  6
CONTINUOUS
 10
360.565438933
 20
33.867415078
 40
0.4098360656
 50
180.0
 51
270.0
  0
ARC
  8
0
 62
7
  6
CONTINUOUS
 10
366.6310127035
 20
34.5231527829
 40
0.4098360656
 50
0.0
 51
90.0
  0
SOLID
  8
0
 62
7
  6
CONTINUOUS
 10
365.4684104651
 20
31.8618347111
 11
365.4684104651
 21
32.0231531947
 12
365.757472524
 22
31.8618347111
 13
365.757472524
 23
32.0231531947
  0
SOLID
  8
0
 62
7
  6
CONTINUOUS
 10
359.744972717
 20
31.5391977439
 11
360.1496602445
 21
31.5069333244
 12
359.3980977583
 22
31.5069333244
 13
359.3980977583
 23
31.5069333244
  0
SOLID
  8
0
 62
7
  6
CONTINUOUS
 10
359.2246602583
 20
31.4746706537
 11
359.3980977583
 21
31.5069333244
 12
360.1496602445
 22
31.5069333244
 13
360.1496602445
 23
31.5069333244
  0
SOLID
  8
0
 62
7
  6
CONTINUOUS
 10
360.1496602445
 20
31.5069333244
 11
360.3809101894
 21
31.4424063504
 12
359.2246602583
 22
31.4746706537
 13
359.2246602583
 23
31.4746706537
  0
SOLID
  8
0
 62
7
  6
CONTINUOUS
 10
359.0512227376
 20
31.4101419116
 11
359.2246602583
 21
31.4746706537
 12
360.3809101894
 22
31.4424063504
 13
360.3809101894
 23
31.4424063504
  0
SOLID
  8
0
 62
7
  6
CONTINUOUS
 10
359.0512227376
 20
31.4101419116
 11
360.3809101894
 21
31.4424063504
 12
359.6871602721
 22
31.4101419116
 13
359.6871602721
 23
31.4101419116
  0
SOLID
  8
0
 62
7
  6
CONTINUOUS
 10
359.6871602721
 20
31.4101419116
 11
360.3809101894
 21
31.4424063504
 12
360.091847717
 22
31.3778792603
 13
360.091847717
 23
31.3778792603
  0
SOLID
  8
0
 62
7
  6
CONTINUOUS
 10
360.3809101894
 20
31.4424063504
 11
360.5543476894
 21
31.345614957
 12
360.091847717
 22
31.3778792603
 13
360.091847717
 23
31.3778792603
  0
SOLID
  8
0
 62
7
  6
CONTINUOUS
 10
360.2652852997
 20
31.3133521701
 11
360.091847717
 21
31.3778792603
 12
360.5543476894
 22
31.345614957
 13
360.5543476894
 23
31.345614957
  0
SOLID
  8
0
 62
7
  6
CONTINUOUS
 10
360.2652852997
 20
31.3133521701
 11
360.5543476894
 21
31.345614957
 12
360.3230977445
 22
31.2165606992
 13
360.3230977445
 23
31.2165606992
  0
SOLID
  8
0
 62
7
  6
CONTINUOUS
 10
360.5543476894
 20
31.345614957
 11
360.6121602997
 21
31.2165606992
 12
360.3230977445
 22
31.2165606992
 13
360.3230977445
 23
31.2165606992
  0
SOLID
  8
0
 62
7
  6
CONTINUOUS
 10
361.6527851343
 20
31.5069329918
 11
361.8840352445
 21
31.5391972951
 12
362.1152853548
 22
31.5391972951
 13
362.1152853548
 23
31.5391972951
  0
SOLID
  8
0
 62
7
  6
CONTINUOUS
 10
362.1152853548
 20
31.5391972951
 11
362.2887228548
 21
31.5069329918
 12
361.6527851343
 22
31.5069329918
 13
361.6527851343
 23
31.5069329918
  0
SOLID
  8
0
 62
7
  6
CONTINUOUS
 10
361.4793477997
 20
31.4424059016
 11
361.6527851343
 21
31.5069329918
 12
362.2887228548
 22
31.5069329918
 13
362.2887228548
 23
31.5069329918
  0
SOLID
  8
0
 62
7
  6
CONTINUOUS
 10
362.2887228548
 20
31.5069329918
 11
362.4621603548
 21
31.4424059016
 12
361.4793477997
 22
31.4424059016
 13
361.4793477997
 23
31.4424059016
  0
SOLID
  8
0
 62
7
  6
CONTINUOUS
 10
362.4621603548
 20
31.4424059016
 11
361.8840352445
 21
31.4101420472
 12
361.4793477997
 22
31.4424059016
 13
361.4793477997
 23
31.4424059016
  0
SOLID
  8
0
 62
7
  6
CONTINUOUS
 10
361.3637227445
 20
31.3778788115
 11
361.4793477997
 21
31.4424059016
 12
361.8840352445
 22
31.4101420472
 13
361.8840352445
 23
31.4101420472
  0
SOLID
  8
0
 62
7
  6
CONTINUOUS
 10
361.8840352445
 20
31.4101420472
 11
361.6527851343
 21
31.3778788115
 12
361.3637227445
 22
31.3778788115
 13
361.3637227445
 23
31.3778788115
  0
SOLID
  8
0
 62
7
  6
CONTINUOUS
 10
361.8840352445
 20
31.4101420472
 11
362.4621603548
 21
31.4424059016
 12
362.1152853548
 22
31.3778788115
 13
362.1152853548
 23
31.3778788115
  0
SOLID
  8
0
 62
7
  6
CONTINUOUS
 10
362.4621603548
 20
31.4424059016
 11
362.5777852445
 21
31.3778788115
 12
362.1152853548
 22
31.3778788115
 13
362.1152853548
 23
31.3778788115
  0
SOLID
  8
0
 62
7
  6
CONTINUOUS
 10
362.2309102445
 20
31.345614957
 11
362.1152853548
 21
31.3778788115
 12
362.5777852445
 22
31.3778788115
 13
362.5777852445
 23
31.3778788115
  0
SOLID
  8
0
 62
7
  6
CONTINUOUS
 10
362.5777852445
 20
31.3778788115
 11
362.6355978548
 21
31.3133517213
 12
362.2309102445
 22
31.345614957
 13
362.2309102445
 23
31.345614957
  0
SOLID
  8
0
 62
7
  6
CONTINUOUS
 10
362.3465351343
 20
31.2810878668
 11
362.2309102445
 21
31.345614957
 12
362.6355978548
 22
31.3133517213
 13
362.6355978548
 23
31.3133517213
  0
SOLID
  8
0
 62
7
  6
CONTINUOUS
 10
362.3465351343
 20
31.2810878668
 11
362.6355978548
 21
31.3133517213
 12
362.4043477445
 22
31.1520332377
 13
362.4043477445
 23
31.1520332377
  0
SOLID
  8
0
 62
7
  6
CONTINUOUS
 10
362.6355978548
 20
31.3133517213
 11
362.6934101343
 21
31.1520332377
 12
362.4043477445
 22
31.1520332377
 13
362.4043477445
 23
31.1520332377
  0
SOLID
  8
0
 62
7
  6
CONTINUOUS
 10
361.6527851343
 20
31.3778788115
 11
361.4793477997
 21
31.3133517213
 12
361.3637227445
 22
31.3778788115
 13
361.3637227445
 23
31.3778788115
  0
SOLID
  8
0
 62
7
  6
CONTINUOUS
 10
361.4793477997
 20
31.3133517213
 11
361.3637227445
 21
31.2488235635
 12
361.3637227445
 22
31.3778788115
 13
361.3637227445
 23
31.3778788115
  0
SOLID
  8
0
 62
7
  6
CONTINUOUS
 10
361.3637227445
 20
31.2488235635
 11
361.0746601894
 21
30.5067593033
 12
361.3637227445
 22
31.3778788115
 13
361.3637227445
 23
31.3778788115
  0
SOLID
  8
0
 62
7
  6
CONTINUOUS
 10
361.3637227445
 20
31.3778788115
 11
361.0746601894
 21
30.5067593033
 12
361.3637227445
 22
32.0231527459
 13
361.3637227445
 23
32.0231527459
  0
SOLID
  8
0
 62
7
  6
CONTINUOUS
 10
361.0746601894
 20
30.5067593033
 11
361.0746601894
 21
32.0231527459
 12
361.3637227445
 22
32.0231527459
 13
361.3637227445
 23
32.0231527459
  0
SOLID
  8
0
 62
7
  6
CONTINUOUS
 10
361.3637227445
 20
31.2488235635
 11
361.3637227445
 21
30.5067593033
 12
361.0746601894
 22
30.5067593033
 13
361.0746601894
 23
30.5067593033
  0
SOLID
  8
0
 62
7
  6
CONTINUOUS
 10
362.4043477445
 20
30.5067593033
 11
362.4043477445
 21
31.1520332377
 12
362.6934101343
 22
31.1520332377
 13
362.6934101343
 23
31.1520332377
  0
SOLID
  8
0
 62
7
  6
CONTINUOUS
 10
362.6934101343
 20
31.1520332377
 11
362.6934101343
 21
30.5067593033
 12
362.4043477445
 22
30.5067593033
 13
362.4043477445
 23
30.5067593033
  0
SOLID
  8
0
 62
7
  6
CONTINUOUS
 10
363.4449727445
 20
31.506933758
 11
363.8496603548
 21
31.5391977507
 12
364.1965353548
 22
31.5391977507
 13
364.1965353548
 23
31.5391977507
  0
SOLID
  8
0
 62
7
  6
CONTINUOUS
 10
364.1965353548
 20
31.5391977507
 11
364.543410024
 21
31.506933758
 12
363.4449727445
 22
31.506933758
 13
363.4449727445
 23
31.506933758
  0
SOLID
  8
0
 62
7
  6
CONTINUOUS
 10
363.3293478548
 20
31.4746706537
 11
363.4449727445
 21
31.506933758
 12
364.543410024
 22
31.506933758
 13
364.543410024
 23
31.506933758
  0
SOLID
  8
0
 62
7
  6
CONTINUOUS
 10
364.543410024
 20
31.506933758
 11
364.716847524
 21
31.4424063504
 12
363.3293478548
 22
31.4746706537
 13
363.3293478548
 23
31.4746706537
  0
SOLID
  8
0
 62
7
  6
CONTINUOUS
 10
363.2137226343
 20
31.4101417797
 11
363.3293478548
 21
31.4746706537
 12
364.716847524
 22
31.4424063504
 13
364.716847524
 23
31.4424063504
  0
SOLID
  8
0
 62
7
  6
CONTINUOUS
 10
363.2137226343
 20
31.4101417797
 11
364.716847524
 21
31.4424063504
 12
363.8496603548
 22
31.4101417797
 13
363.8496603548
 23
31.4101417797
  0
SOLID
  8
0
 62
7
  6
CONTINUOUS
 10
363.8496603548
 20
31.4101417797
 11
364.716847524
 21
31.4424063504
 12
364.1965353548
 22
31.4101417797
 13
364.1965353548
 23
31.4101417797
  0
SOLID
  8
0
 62
7
  6
CONTINUOUS
 10
364.1965353548
 20
31.4101417797
 11
364.716847524
 21
31.4424063504
 12
364.4277854651
 22
31.3778793357
 13
364.4277854651
 23
31.3778793357
  0
SOLID
  8
0
 62
7
  6
CONTINUOUS
 10
364.716847524
 20
31.4424063504
 11
364.8324727445
 21
31.3778793357
 12
364.4277854651
 22
31.3778793357
 13
364.4277854651
 23
31.3778793357
  0
SOLID
  8
0
 62
7
  6
CONTINUOUS
 10
363.1559103548
 20
31.3456153429
 11
363.2137226343
 21
31.4101417797
 12
363.8496603548
 22
31.4101417797
 13
363.8496603548
 23
31.4101417797
  0
SOLID
  8
0
 62
7
  6
CONTINUOUS
 10
364.543410024
 20
31.3456153429
 11
364.4277854651
 21
31.3778793357
 12
364.8324727445
 22
31.3778793357
 13
364.8324727445
 23
31.3778793357
  0
SOLID
  8
0
 62
7
  6
CONTINUOUS
 10
364.543410024
 20
31.3456153429
 11
364.8324727445
 21
31.3778793357
 12
364.6012229651
 22
31.2810881318
 13
364.6012229651
 23
31.2810881318
  0
SOLID
  8
0
 62
7
  6
CONTINUOUS
 10
364.8324727445
 20
31.3778793357
 11
364.890285024
 21
31.2810881318
 12
364.6012229651
 22
31.2810881318
 13
364.6012229651
 23
31.2810881318
  0
SOLID
  8
0
 62
7
  6
CONTINUOUS
 10
364.6012229651
 20
31.1842964734
 11
364.6012229651
 21
31.2810881318
 12
364.890285024
 22
31.2810881318
 13
364.890285024
 23
31.2810881318
  0
SOLID
  8
0
 62
7
  6
CONTINUOUS
 10
364.6012229651
 20
31.1842964734
 11
364.890285024
 21
31.2810881318
 12
364.6012229651
 22
31.0552422931
 13
364.6012229651
 23
31.0552422931
  0
SOLID
  8
0
 62
7
  6
CONTINUOUS
 10
364.6012229651
 20
31.0552422931
 11
364.890285024
 21
31.2810881318
 12
364.6012229651
 22
30.8616599362
 13
364.6012229651
 23
30.8616599362
  0
SOLID
  8
0
 62
7
  6
CONTINUOUS
 10
364.890285024
 20
31.2810881318
 11
364.890285024
 21
30.7648681127
 12
364.6012229651
 22
30.8616599362
 13
364.6012229651
 23
30.8616599362
  0
SOLID
  8
0
 62
7
  6
CONTINUOUS
 10
366.798097524
 20
31.5069339419
 11
367.0293479651
 21
31.5391976292
 12
367.2605977445
 22
31.5391976292
 13
367.2605977445
 23
31.5391976292
  0
SOLID
  8
0
 62
7
  6
CONTINUOUS
 10
367.2605977445
 20
31.5391976292
 11
367.4340352445
 21
31.5069339419
 12
366.798097524
 22
31.5069339419
 13
366.798097524
 23
31.5069339419
  0
SOLID
  8
0
 62
7
  6
CONTINUOUS
 10
366.624660024
 20
31.4424065674
 11
366.798097524
 21
31.5069339419
 12
367.4340352445
 22
31.5069339419
 13
367.4340352445
 23
31.5069339419
  0
SOLID
  8
0
 62
7
  6
CONTINUOUS
 10
367.4340352445
 20
31.5069339419
 11
367.6074727445
 21
31.4424065674
 12
366.624660024
 22
31.4424065674
 13
366.624660024
 23
31.4424065674
  0
SOLID
  8
0
 62
7
  6
CONTINUOUS
 10
367.6074727445
 20
31.4424065674
 11
367.0293479651
 21
31.4101420472
 12
366.624660024
 22
31.4424065674
 13
366.624660024
 23
31.4424065674
  0
SOLID
  8
0
 62
7
  6
CONTINUOUS
 10
366.5090354651
 20
31.377879193
 11
366.624660024
 21
31.4424065674
 12
367.0293479651
 22
31.4101420472
 13
367.0293479651
 23
31.4101420472
  0
SOLID
  8
0
 62
7
  6
CONTINUOUS
 10
367.0293479651
 20
31.4101420472
 11
366.798097524
 21
31.377879193
 12
366.5090354651
 22
31.377879193
 13
366.5090354651
 23
31.377879193
  0
SOLID
  8
0
 62
7
  6
CONTINUOUS
 10
367.0293479651
 20
31.4101420472
 11
367.6074727445
 21
31.4424065674
 12
367.2605977445
 22
31.377879193
 13
367.2605977445
 23
31.377879193
  0
SOLID
  8
0
 62
7
  6
CONTINUOUS
 10
367.6074727445
 20
31.4424065674
 11
367.7230979651
 21
31.377879193
 12
367.2605977445
 22
31.377879193
 13
367.2605977445
 23
31.377879193
  0
SOLID
  8
0
 62
7
  6
CONTINUOUS
 10
367.3762229651
 20
31.345614957
 11
367.2605977445
 21
31.377879193
 12
367.7230979651
 22
31.377879193
 13
367.7230979651
 23
31.377879193
  0
SOLID
  8
0
 62
7
  6
CONTINUOUS
 10
367.3762229651
 20
31.345614957
 11
367.7230979651
 21
31.377879193
 12
367.491847524
 22
31.2810881312
 13
367.491847524
 23
31.2810881312
  0
SOLID
  8
0
 62
7
  6
CONTINUOUS
 10
367.7230979651
 20
31.377879193
 11
367.7809102445
 21
31.2810881312
 12
367.491847524
 22
31.2810881312
 13
367.491847524
 23
31.2810881312
  0
SOLID
  8
0
 62
7
  6
CONTINUOUS
 10
367.5496604651
 20
31.119769695
 11
367.491847524
 21
31.2810881312
 12
367.7809102445
 22
31.2810881312
 13
367.7809102445
 23
31.2810881312
  0
SOLID
  8
0
 62
7
  6
CONTINUOUS
 10
367.7809102445
 20
31.2810881312
 11
367.838722524
 21
31.119769695
 12
367.5496604651
 22
31.119769695
 13
367.5496604651
 23
31.119769695
  0
SOLID
  8
0
 62
7
  6
CONTINUOUS
 10
366.798097524
 20
31.377879193
 11
366.624660024
 21
31.3133521701
 12
366.5090354651
 22
31.377879193
 13
366.5090354651
 23
31.377879193
  0
SOLID
  8
0
 62
7
  6
CONTINUOUS
 10
366.624660024
 20
31.3133521701
 11
366.5090354651
 21
31.2488235635
 12
366.5090354651
 22
31.377879193
 13
366.5090354651
 23
31.377879193
  0
SOLID
  8
0
 62
7
  6
CONTINUOUS
 10
366.5090354651
 20
31.2488235635
 11
366.2199727445
 21
30.5067596374
 12
366.5090354651
 22
31.377879193
 13
366.5090354651
 23
31.377879193
  0
SOLID
  8
0
 62
7
  6
CONTINUOUS
 10
366.5090354651
 20
31.377879193
 11
366.2199727445
 21
30.5067596374
 12
366.5090354651
 22
31.5391976292
 13
366.5090354651
 23
31.5391976292
  0
SOLID
  8
0
 62
7
  6
CONTINUOUS
 10
366.2199727445
 20
30.5067596374
 11
366.2199727445
 21
31.5391976292
 12
366.5090354651
 22
31.5391976292
 13
366.5090354651
 23
31.5391976292
  0
SOLID
  8
0
 62
7
  6
CONTINUOUS
 10
366.5090354651
 20
31.2488235635
 11
366.5090354651
 21
30.5067596374
 12
366.2199727445
 22
30.5067596374
 13
366.2199727445
 23
30.5067596374
  0
SOLID
  8
0
 62
7
  6
CONTINUOUS
 10
367.5496604651
 20
30.5067596374
 11
367.5496604651
 21
31.119769695
 12
367.838722524
 22
31.119769695
 13
367.838722524
 23
31.119769695
  0
SOLID
  8
0
 62
7
  6
CONTINUOUS
 10
367.838722524
 20
31.119769695
 11
367.838722524
 21
30.5067596374
 12
367.5496604651
 22
30.5067596374
 13
367.5496604651
 23
30.5067596374
  0
SOLID
  8
0
 62
7
  6
CONTINUOUS
 10
368.6480977445
 20
31.5069334157
 11
368.9949727445
 21
31.539197762
 12
369.3418477445
 22
31.539197762
 13
369.3418477445
 23
31.539197762
  0
SOLID
  8
0
 62
7
  6
CONTINUOUS
 10
369.3418477445
 20
31.539197762
 11
369.6887227445
 21
31.5069334157
 12
368.6480977445
 22
31.5069334157
 13
368.6480977445
 23
31.5069334157
  0
SOLID
  8
0
 62
7
  6
CONTINUOUS
 10
368.4168479651
 20
31.4424063504
 11
368.6480977445
 21
31.5069334157
 12
369.6887227445
 22
31.5069334157
 13
369.6887227445
 23
31.5069334157
  0
SOLID
  8
0
 62
7
  6
CONTINUOUS
 10
368.4168479651
 20
31.4424063504
 11
369.6887227445
 21
31.5069334406
 12
369.8621602445
 22
31.4746706537
 13
369.8621602445
 23
31.4746706537
  0
SOLID
  8
0
 62
7
  6
CONTINUOUS
 10
368.4168479651
 20
31.4424063504
 11
369.8621602445
 21
31.4746706537
 12
368.9949727445
 22
31.4101421267
 13
368.9949727445
 23
31.4101421267
  0
SOLID
  8
0
 62
7
  6
CONTINUOUS
 10
368.9949727445
 20
31.4101421267
 11
369.8621602445
 21
31.4746706537
 12
369.3418477445
 22
31.4101421267
 13
369.3418477445
 23
31.4101421267
  0
SOLID
  8
0
 62
7
  6
CONTINUOUS
 10
369.8621602445
 20
31.4746706537
 11
370.0355977445
 21
31.4101421267
 12
369.3418477445
 22
31.4101421267
 13
369.3418477445
 23
31.4101421267
  0
SOLID
  8
0
 62
7
  6
CONTINUOUS
 10
369.6887227445
 20
31.3778792603
 11
369.3418477445
 21
31.4101421267
 12
370.0355977445
 22
31.4101421267
 13
370.0355977445
 23
31.4101421267
  0
SOLID
  8
0
 62
7
  6
CONTINUOUS
 10
368.3012227445
 20
31.3456148845
 11
368.4168479651
 21
31.4424063504
 12
368.9949727445
 22
31.4101421267
 13
368.9949727445
 23
31.4101421267
  0
SOLID
  8
0
 62
7
  6
CONTINUOUS
 10
369.6887227445
 20
31.3778792603
 11
370.0355977445
 21
31.4101421267
 12
369.8043479651
 22
31.3456148845
 13
369.8043479651
 23
31.3456148845
  0
SOLID
  8
0
 62
7
  6
CONTINUOUS
 10
369.8043479651
 20
31.3456148845
 11
370.0355977445
 21
31.4101421267
 12
369.8621602445
 22
31.281087868
 13
369.8621602445
 23
31.281087868
  0
SOLID
  8
0
 62
7
  6
CONTINUOUS
 10
370.0355977445
 20
31.4101421267
 11
370.1512223035
 21
31.281087868
 12
369.8621602445
 22
31.281087868
 13
369.8621602445
 23
31.281087868
  0
SOLID
  8
0
 62
7
  6
CONTINUOUS
 10
359.4559102445
 20
31.3778792603
 11
358.9355977445
 21
31.3456148963
 12
359.6871602721
 22
31.4101421155
 13
359.6871602721
 23
31.4101421155
  0
SOLID
  8
0
 62
7
  6
CONTINUOUS
 10
358.9355977445
 20
31.3456148963
 11
359.0512227376
 21
31.4101421155
 12
359.6871602721
 22
31.4101421155
 13
359.6871602721
 23
31.4101421155
  0
SOLID
  8
0
 62
7
  6
CONTINUOUS
 10
359.4559102445
 20
31.3778792603
 11
359.3402852307
 21
31.3456148963
 12
358.9355977445
 22
31.3456148963
 13
358.9355977445
 23
31.3456148963
  0
SOLID
  8
0
 62
7
  6
CONTINUOUS
 10
358.8199727462
 20
31.2165607767
 11
358.9355977445
 21
31.3456148963
 12
359.3402852307
 22
31.3456148963
 13
359.3402852307
 23
31.3456148963
  0
SOLID
  8
0
 62
7
  6
CONTINUOUS
 10
363.1559103548
 20
31.3456149608
 11
363.8496603548
 21
31.4101420472
 12
363.6184102445
 22
31.3778792603
 13
363.6184102445
 23
31.3778792603
  0
SOLID
  8
0
 62
7
  6
CONTINUOUS
 10
363.6184102445
 20
31.3778792603
 11
363.5027853548
 21
31.3456149608
 12
363.1559103548
 22
31.3456149608
 13
363.1559103548
 23
31.3456149608
  0
SOLID
  8
0
 62
7
  6
CONTINUOUS
 10
363.1559103548
 20
31.2810878707
 11
363.1559103548
 21
31.3456149608
 12
363.5027853548
 22
31.3456149608
 13
363.5027853548
 23
31.3456149608
  0
SOLID
  8
0
 62
7
  6
CONTINUOUS
 10
363.5027853548
 20
31.3456149608
 11
363.4449727445
 21
31.2810878707
 12
363.1559103548
 22
31.2810878707
 13
363.1559103548
 23
31.2810878707
  0
SOLID
  8
0
 62
7
  6
CONTINUOUS
 10
368.3012227445
 20
31.3456149608
 11
368.9949727445
 21
31.4101420472
 12
368.7637229651
 22
31.3778792603
 13
368.7637229651
 23
31.3778792603
  0
SOLID
  8
0
 62
7
  6
CONTINUOUS
 10
368.7637229651
 20
31.3778792603
 11
368.6480977445
 21
31.3456149608
 12
368.3012227445
 22
31.3456149608
 13
368.3012227445
 23
31.3456149608
  0
SOLID
  8
0
 62
7
  6
CONTINUOUS
 10
368.3012227445
 20
31.2810878707
 11
368.3012227445
 21
31.3456149608
 12
368.6480977445
 22
31.3456149608
 13
368.6480977445
 23
31.3456149608
  0
SOLID
  8
0
 62
7
  6
CONTINUOUS
 10
368.6480977445
 20
31.3456149608
 11
368.5902854651
 21
31.2810878707
 12
368.3012227445
 22
31.2810878707
 13
368.3012227445
 23
31.2810878707
  0
SOLID
  8
0
 62
7
  6
CONTINUOUS
 10
368.4168479651
 20
31.1520336865
 11
368.3012227445
 21
31.2810878707
 12
368.5902854651
 22
31.2810878707
 13
368.5902854651
 23
31.2810878707
  0
SOLID
  8
0
 62
7
  6
CONTINUOUS
 10
358.8199727462
 20
31.2165607767
 11
359.3402852307
 21
31.345614957
 12
359.1668477307
 22
31.2488235635
 13
359.1668477307
 23
31.2488235635
  0
SOLID
  8
0
 62
7
  6
CONTINUOUS
 10
359.1668477307
 20
31.2488235635
 11
359.1090352445
 21
31.1842964734
 12
358.8199727462
 22
31.2165607767
 13
358.8199727462
 23
31.2165607767
  0
SOLID
  8
0
 62
7
  6
CONTINUOUS
 10
358.7621602445
 20
31.0229779898
 11
358.8199727462
 21
31.2165607767
 12
359.1090352445
 22
31.1842964734
 13
359.1090352445
 23
31.1842964734
  0
SOLID
  8
0
 62
7
  6
CONTINUOUS
 10
363.6184102445
 20
31.1520336865
 11
363.9652852445
 21
31.1842964611
 12
364.6012229651
 22
31.1842964611
 13
364.6012229651
 23
31.1842964611
  0
SOLID
  8
0
 62
7
  6
CONTINUOUS
 10
363.6184102445
 20
31.1520336865
 11
364.6012229651
 21
31.1842964611
 12
363.3871601343
 22
31.0875057863
 13
363.3871601343
 23
31.0875057863
  0
SOLID
  8
0
 62
7
  6
CONTINUOUS
 10
363.3871601343
 20
31.0875057863
 11
364.6012229651
 21
31.1842964611
 12
363.9652852445
 22
31.0552422808
 13
363.9652852445
 23
31.0552422808
  0
SOLID
  8
0
 62
7
  6
CONTINUOUS
 10
364.6012229651
 20
31.1842964611
 11
364.6012229651
 21
31.0552422808
 12
363.9652852445
 22
31.0552422808
 13
363.9652852445
 23
31.0552422808
  0
SOLID
  8
0
 62
7
  6
CONTINUOUS
 10
368.4168479651
 20
31.1520338754
 11
368.5902854651
 21
31.2810878668
 12
368.6480977445
 22
31.2165607767
 13
368.6480977445
 23
31.2165607767
  0
SOLID
  8
0
 62
7
  6
CONTINUOUS
 10
368.6480977445
 20
31.2165607767
 11
368.8215352445
 21
31.1520338754
 12
368.4168479651
 22
31.1520338754
 13
368.4168479651
 23
31.1520338754
  0
SOLID
  8
0
 62
7
  6
CONTINUOUS
 10
368.6480977445
 20
31.0552422931
 11
368.4168479651
 21
31.1520338754
 12
368.8215352445
 22
31.1520338754
 13
368.8215352445
 23
31.1520338754
  0
SOLID
  8
0
 62
7
  6
CONTINUOUS
 10
368.8215352445
 20
31.1520338754
 11
369.8043479651
 21
30.9907152029
 12
368.6480977445
 22
31.0552422931
 13
368.6480977445
 23
31.0552422931
  0
SOLID
  8
0
 62
7
  6
CONTINUOUS
 10
369.6309104651
 20
30.8939239876
 11
368.6480977445
 21
31.0552422931
 12
369.8043479651
 22
30.9907152029
 13
369.8043479651
 23
30.9907152029
  0
SOLID
  8
0
 62
7
  6
CONTINUOUS
 10
369.8043479651
 20
30.9907152029
 11
370.0355977445
 21
30.8939239876
 12
369.6309104651
 22
30.8939239876
 13
369.6309104651
 23
30.8939239876
  0
SOLID
  8
0
 62
7
  6
CONTINUOUS
 10
369.8043479651
 20
30.8293967193
 11
369.6309104651
 21
30.8939239876
 12
370.0355977445
 22
30.8939239876
 13
370.0355977445
 23
30.8939239876
  0
SOLID
  8
0
 62
7
  6
CONTINUOUS
 10
369.8043479651
 20
30.8293967193
 11
370.0355977445
 21
30.8939239876
 12
369.8621602445
 22
30.7648682694
 13
369.8621602445
 23
30.7648682694
  0
SOLID
  8
0
 62
7
  6
CONTINUOUS
 10
370.0355977445
 20
30.8939239876
 11
370.1512223035
 21
30.7648682694
 12
369.8621602445
 22
30.7648682694
 13
369.8621602445
 23
30.7648682694
  0
SOLID
  8
0
 62
7
  6
CONTINUOUS
 10
369.8043479651
 20
30.7003411846
 11
369.8621602445
 21
30.7648682694
 12
370.1512223035
 22
30.7648682694
 13
370.1512223035
 23
30.7648682694
  0
SOLID
  8
0
 62
7
  6
CONTINUOUS
 10
370.1512223035
 20
30.7648682694
 11
370.1512223035
 21
30.7003411846
 12
369.8043479651
 22
30.7003411846
 13
369.8043479651
 23
30.7003411846
  0
SOLID
  8
0
 62
7
  6
CONTINUOUS
 10
369.6887227445
 20
30.6680782357
 11
369.8043479651
 21
30.7003411846
 12
370.1512223035
 22
30.7003411846
 13
370.1512223035
 23
30.7003411846
  0
SOLID
  8
0
 62
7
  6
CONTINUOUS
 10
369.6887227445
 20
30.6680782357
 11
370.1512223035
 21
30.7003411846
 12
369.4574729651
 22
30.6358140998
 13
369.4574729651
 23
30.6358140998
  0
SOLID
  8
0
 62
7
  6
CONTINUOUS
 10
370.1512223035
 20
30.7003411846
 11
370.0355977445
 21
30.6035511455
 12
369.4574729651
 22
30.6358140998
 13
369.4574729651
 23
30.6358140998
  0
SOLID
  8
0
 62
7
  6
CONTINUOUS
 10
370.0355977445
 20
30.6035511455
 11
368.5902854651
 21
30.5712868422
 12
369.4574729651
 22
30.6358140998
 13
369.4574729651
 23
30.6358140998
  0
SOLID
  8
0
 62
7
  6
CONTINUOUS
 10
369.4574729651
 20
30.6358140998
 11
368.5902854651
 21
30.5712868422
 12
369.1105979651
 22
30.6358140998
 13
369.1105979651
 23
30.6358140998
  0
SOLID
  8
0
 62
7
  6
CONTINUOUS
 10
368.5902854651
 20
30.5712868422
 11
368.4168479651
 21
30.6358140998
 12
369.1105979651
 22
30.6358140998
 13
369.1105979651
 23
30.6358140998
  0
SOLID
  8
0
 62
7
  6
CONTINUOUS
 10
368.5902854651
 20
30.5712868422
 11
370.0355977445
 21
30.6035511455
 12
368.7637229651
 22
30.5390223111
 13
368.7637229651
 23
30.5390223111
  0
SOLID
  8
0
 62
7
  6
CONTINUOUS
 10
370.0355977445
 20
30.6035511455
 11
369.8043479651
 21
30.5390223111
 12
368.7637229651
 22
30.5390223111
 13
368.7637229651
 23
30.5390223111
  0
SOLID
  8
0
 62
7
  6
CONTINUOUS
 10
369.1105979651
 20
30.5067599302
 11
368.7637229651
 21
30.5390223111
 12
369.8043479651
 22
30.5390223111
 13
369.8043479651
 23
30.5390223111
  0
SOLID
  8
0
 62
7
  6
CONTINUOUS
 10
369.8043479651
 20
30.5390223111
 11
369.4574729651
 21
30.5067599302
 12
369.1105979651
 22
30.5067599302
 13
369.1105979651
 23
30.5067599302
  0
SOLID
  8
0
 62
7
  6
CONTINUOUS
 10
358.7621602445
 20
31.0229779898
 11
359.1090352445
 21
31.1842964734
 12
359.0512227376
 22
31.0552422931
 13
359.0512227376
 23
31.0552422931
  0
SOLID
  8
0
 62
7
  6
CONTINUOUS
 10
359.0512227376
 20
31.0552422931
 11
359.0512227376
 21
30.9584509954
 12
358.7621602445
 22
31.0229779898
 13
358.7621602445
 23
31.0229779898
  0
SOLID
  8
0
 62
7
  6
CONTINUOUS
 10
358.8199727462
 20
30.8293967193
 11
358.7621602445
 21
31.0229779898
 12
359.0512227376
 22
30.9584509954
 13
359.0512227376
 23
30.9584509954
  0
SOLID
  8
0
 62
7
  6
CONTINUOUS
 10
359.0512227376
 20
30.9584509954
 11
359.1668477307
 21
30.797132416
 12
358.8199727462
 22
30.8293967193
 13
358.8199727462
 23
30.8293967193
  0
SOLID
  8
0
 62
7
  6
CONTINUOUS
 10
358.9355977445
 20
30.7003413087
 11
358.8199727462
 21
30.8293967193
 12
359.1668477307
 22
30.797132416
 13
359.1668477307
 23
30.797132416
  0
SOLID
  8
0
 62
7
  6
CONTINUOUS
 10
359.1668477307
 20
30.797132416
 11
359.3402852307
 21
30.7003413087
 12
358.9355977445
 22
30.7003413087
 13
358.9355977445
 23
30.7003413087
  0
SOLID
  8
0
 62
7
  6
CONTINUOUS
 10
359.0512227376
 20
30.6358140759
 11
358.9355977445
 21
30.7003413087
 12
359.3402852307
 22
30.7003413087
 13
359.3402852307
 23
30.7003413087
  0
SOLID
  8
0
 62
7
  6
CONTINUOUS
 10
359.3402852307
 20
30.7003413087
 11
359.6871602721
 21
30.6358140759
 12
359.0512227376
 22
30.6358140759
 13
359.0512227376
 23
30.6358140759
  0
SOLID
  8
0
 62
7
  6
CONTINUOUS
 10
359.2246602583
 20
30.5712868422
 11
359.0512227376
 21
30.6358140759
 12
359.6871602721
 22
30.6358140759
 13
359.6871602721
 23
30.6358140759
  0
SOLID
  8
0
 62
7
  6
CONTINUOUS
 10
363.2715352445
 20
31.0229779808
 11
363.3871601343
 21
31.0875057863
 12
363.9652852445
 22
31.0552422931
 13
363.9652852445
 23
31.0552422931
  0
SOLID
  8
0
 62
7
  6
CONTINUOUS
 10
363.9652852445
 20
31.0552422931
 11
363.7340351343
 21
31.0229779808
 12
363.2715352445
 22
31.0229779808
 13
363.2715352445
 23
31.0229779808
  0
SOLID
  8
0
 62
7
  6
CONTINUOUS
 10
363.1559103548
 20
30.8939238094
 11
363.2715352445
 21
31.0229779808
 12
363.7340351343
 22
31.0229779808
 13
363.7340351343
 23
31.0229779808
  0
SOLID
  8
0
 62
7
  6
CONTINUOUS
 10
363.5027853548
 20
30.926187309
 11
363.1559103548
 21
30.8939238094
 12
363.6184102445
 22
30.9907152029
 13
363.6184102445
 23
30.9907152029
  0
SOLID
  8
0
 62
7
  6
CONTINUOUS
 10
363.1559103548
 20
30.8939238094
 11
363.7340351343
 21
31.0229779898
 12
363.6184102445
 22
30.9907152029
 13
363.6184102445
 23
30.9907152029
  0
SOLID
  8
0
 62
7
  6
CONTINUOUS
 10
363.5027853548
 20
30.926187309
 11
363.4449727445
 21
30.8293967193
 12
363.1559103548
 22
30.8939238094
 13
363.1559103548
 23
30.8939238094
  0
SOLID
  8
0
 62
7
  6
CONTINUOUS
 10
363.1559103548
 20
30.797132416
 11
363.1559103548
 21
30.8939238094
 12
363.4449727445
 22
30.8293967193
 13
363.4449727445
 23
30.8293967193
  0
SOLID
  8
0
 62
7
  6
CONTINUOUS
 10
363.4449727445
 20
30.8293967193
 11
363.4449727445
 21
30.7648681127
 12
363.1559103548
 22
30.797132416
 13
363.1559103548
 23
30.797132416
  0
SOLID
  8
0
 62
7
  6
CONTINUOUS
 10
363.2137226343
 20
30.6680782357
 11
363.1559103548
 21
30.797132416
 12
363.4449727445
 22
30.7648681127
 13
363.4449727445
 23
30.7648681127
  0
SOLID
  8
0
 62
7
  6
CONTINUOUS
 10
364.6012229651
 20
30.8616599362
 11
364.890285024
 21
30.7648681127
 12
364.543410024
 22
30.797132416
 13
364.543410024
 23
30.797132416
  0
SOLID
  8
0
 62
7
  6
CONTINUOUS
 10
364.369972524
 20
30.7003410226
 11
364.543410024
 21
30.797132416
 12
364.890285024
 22
30.7648681127
 13
364.890285024
 23
30.7648681127
  0
SOLID
  8
0
 62
7
  6
CONTINUOUS
 10
364.369972524
 20
30.7003410226
 11
364.890285024
 21
30.7648681127
 12
364.6012229651
 22
30.6680782357
 13
364.6012229651
 23
30.6680782357
  0
SOLID
  8
0
 62
7
  6
CONTINUOUS
 10
364.890285024
 20
30.7648681127
 11
364.9480979651
 21
30.6035511455
 12
364.6012229651
 22
30.6680782357
 13
364.6012229651
 23
30.6680782357
  0
SOLID
  8
0
 62
7
  6
CONTINUOUS
 10
364.6590352445
 20
30.5712868422
 11
364.6012229651
 21
30.6680782357
 12
364.9480979651
 22
30.6035511455
 13
364.9480979651
 23
30.6035511455
  0
SOLID
  8
0
 62
7
  6
CONTINUOUS
 10
364.6590352445
 20
30.5712868422
 11
364.9480979651
 21
30.6035511455
 12
364.716847524
 22
30.5067598731
 13
364.716847524
 23
30.5067598731
  0
SOLID
  8
0
 62
7
  6
CONTINUOUS
 10
364.9480979651
 20
30.6035511455
 11
365.0059102445
 21
30.5067598731
 12
364.716847524
 22
30.5067598731
 13
364.716847524
 23
30.5067598731
  0
SOLID
  8
0
 62
7
  6
CONTINUOUS
 10
360.2652852997
 20
30.7326051679
 11
360.3230977445
 21
30.8293966612
 12
360.6121602997
 22
30.8293966612
 13
360.6121602997
 23
30.8293966612
  0
SOLID
  8
0
 62
7
  6
CONTINUOUS
 10
360.6121602997
 20
30.8293966612
 11
360.5543476894
 21
30.7003410226
 12
360.2652852997
 22
30.7326051679
 13
360.2652852997
 23
30.7326051679
  0
SOLID
  8
0
 62
7
  6
CONTINUOUS
 10
360.091847717
 20
30.6680782357
 11
360.2652852997
 21
30.7326051679
 12
360.5543476894
 22
30.7003410226
 13
360.5543476894
 23
30.7003410226
  0
SOLID
  8
0
 62
7
  6
CONTINUOUS
 10
360.091847717
 20
30.6680782357
 11
360.5543476894
 21
30.7003410226
 12
359.6871602721
 22
30.6358139324
 13
359.6871602721
 23
30.6358139324
  0
SOLID
  8
0
 62
7
  6
CONTINUOUS
 10
360.5543476894
 20
30.7003410226
 11
360.3809101894
 21
30.6035511455
 12
359.6871602721
 22
30.6358139324
 13
359.6871602721
 23
30.6358139324
  0
SOLID
  8
0
 62
7
  6
CONTINUOUS
 10
359.2246602583
 20
30.5712868422
 11
359.6871602721
 21
30.6358139324
 12
360.3809101894
 22
30.6035511455
 13
360.3809101894
 23
30.6035511455
  0
SOLID
  8
0
 62
7
  6
CONTINUOUS
 10
359.2246602583
 20
30.5712868422
 11
360.3809101894
 21
30.6035511455
 12
359.3980977583
 22
30.5390224228
 13
359.3980977583
 23
30.5390224228
  0
SOLID
  8
0
 62
7
  6
CONTINUOUS
 10
360.3809101894
 20
30.6035511455
 11
360.1496602445
 21
30.5390224228
 12
359.3980977583
 22
30.5390224228
 13
359.3980977583
 23
30.5390224228
  0
SOLID
  8
0
 62
7
  6
CONTINUOUS
 10
359.744972717
 20
30.5067597521
 11
359.3980977583
 21
30.5390224228
 12
360.1496602445
 22
30.5390224228
 13
360.1496602445
 23
30.5390224228
  0
SOLID
  8
0
 62
7
  6
CONTINUOUS
 10
363.2137226343
 20
30.6680782357
 11
363.4449727445
 21
30.7648681127
 12
363.5027853548
 22
30.7003410226
 13
363.5027853548
 23
30.7003410226
  0
SOLID
  8
0
 62
7
  6
CONTINUOUS
 10
363.5027853548
 20
30.7003410226
 11
363.7340351343
 21
30.6358139324
 12
363.2137226343
 22
30.6680782357
 13
363.2137226343
 23
30.6680782357
  0
SOLID
  8
0
 62
7
  6
CONTINUOUS
 10
363.3871601343
 20
30.5712868422
 11
363.2137226343
 21
30.6680782357
 12
363.7340351343
 22
30.6358139324
 13
363.7340351343
 23
30.6358139324
  0
SOLID
  8
0
 62
7
  6
CONTINUOUS
 10
364.0809101343
 20
30.6358139363
 11
364.369972524
 21
30.7003410226
 12
364.6012229651
 22
30.6680782357
 13
364.6012229651
 23
30.6680782357
  0
SOLID
  8
0
 62
7
  6
CONTINUOUS
 10
364.6012229651
 20
30.6680782357
 11
364.543410024
 21
30.6035511455
 12
364.0809101343
 22
30.6358139363
 13
364.0809101343
 23
30.6358139363
  0
SOLID
  8
0
 62
7
  6
CONTINUOUS
 10
364.543410024
 20
30.6035511455
 11
363.3871601343
 21
30.5712868422
 12
364.0809101343
 22
30.6358139363
 13
364.0809101343
 23
30.6358139363
  0
SOLID
  8
0
 62
7
  6
CONTINUOUS
 10
363.3871601343
 20
30.5712868422
 11
363.7340351343
 21
30.6358139363
 12
364.0809101343
 22
30.6358139363
 13
364.0809101343
 23
30.6358139363
  0
SOLID
  8
0
 62
7
  6
CONTINUOUS
 10
363.3871601343
 20
30.5712868422
 11
364.543410024
 21
30.6035511455
 12
363.5027853548
 22
30.5390225267
 13
363.5027853548
 23
30.5390225267
  0
SOLID
  8
0
 62
7
  6
CONTINUOUS
 10
364.543410024
 20
30.6035511455
 11
364.369972524
 21
30.5390225267
 12
363.5027853548
 22
30.5390225267
 13
363.5027853548
 23
30.5390225267
  0
SOLID
  8
0
 62
7
  6
CONTINUOUS
 10
363.7340351343
 20
30.5067596914
 11
363.5027853548
 21
30.5390225267
 12
364.369972524
 22
30.5390225267
 13
364.369972524
 23
30.5390225267
  0
SOLID
  8
0
 62
7
  6
CONTINUOUS
 10
364.369972524
 20
30.5390225267
 11
364.0809101343
 21
30.5067596914
 12
363.7340351343
 22
30.5067596914
 13
363.7340351343
 23
30.5067596914
  0
SOLID
  8
0
 62
7
  6
CONTINUOUS
 10
368.7637229651
 20
30.6680782357
 11
368.4168479651
 21
30.6358138717
 12
368.6480977445
 22
30.7003410226
 13
368.6480977445
 23
30.7003410226
  0
SOLID
  8
0
 62
7
  6
CONTINUOUS
 10
368.6480977445
 20
30.7003410226
 11
368.4168479651
 21
30.6358138717
 12
368.5902854651
 22
30.7648680521
 13
368.5902854651
 23
30.7648680521
  0
SOLID
  8
0
 62
7
  6
CONTINUOUS
 10
368.4168479651
 20
30.6358138717
 11
368.3012227445
 21
30.7648680521
 12
368.5902854651
 22
30.7648680521
 13
368.5902854651
 23
30.7648680521
  0
SOLID
  8
0
 62
7
  6
CONTINUOUS
 10
368.7637229651
 20
30.6680782357
 11
369.1105979651
 21
30.6358138717
 12
368.4168479651
 22
30.6358138717
 13
368.4168479651
 23
30.6358138717
  0
SOLID
  8
0
 62
7
  6
CONTINUOUS
 10
365.4684104651
 20
30.5067597521
 11
365.4684104651
 21
31.5391977439
 12
365.757472524
 22
30.5067597521
 13
365.757472524
 23
31.5391977439
  0
ENDBLK
  8
0
  6
BYBLOCK
 62
0
  0
BLOCK
  8
0
 62
2
  6
CONTINUOUS
  2
SYMBOL_0_BL0
 70
64
 10
240.8592468615
 20
19.762288695
  0
TEXT
  8
0
 62
7
  6
CONTINUOUS
 10
227.1239507038
 20
19.1357028027
  7
TEXTSTYLE_3
 40
2.7338706658
  1
Ammeraal Beltech
 41
1.0
 51
15.0
 72
0
  0
TEXT
  8
0
 62
7
  6
CONTINUOUS
 10
237.9247515296
 20
16.8621661299
  7
TEXTSTYLE_4
 40
1.0935482663
  1
Innovation & Service in Belting
 41
1.0
 72
0
  0
LINE
  8
0
 62
7
  6
CONTINUOUS
 10
221.0994100525
 20
19.9022961113
 11
221.8775620458
 21
23.5632134089
  0
LINE
  8
0
 62
7
  6
CONTINUOUS
 10
231.9727303357
 20
27.2266073205
 11
222.3653797889
 21
24.1049898993
  0
LINE
  8
0
 62
7
  6
CONTINUOUS
 10
221.3246933848
 20
19.2089453082
 11
228.8317686459
 21
12.4495443822
  0
LINE
  8
0
 62
7
  6
CONTINUOUS
 10
221.5872277955
 20
20.4440726016
 11
232.3954971607
 21
23.9558922005
  0
LINE
  8
0
 62
7
  6
CONTINUOUS
 10
232.3912920235
 20
13.6061036368
 11
223.9458323548
 21
21.2104296785
  0
LINE
  8
0
 62
7
  6
CONTINUOUS
 10
232.9111147433
 20
26.3816822048
 11
231.9345552061
 21
21.7873308023
  0
LINE
  8
0
 62
7
  6
CONTINUOUS
 10
231.2347532584
 20
18.4950214885
 11
230.5483050469
 21
15.2655365641
  0
LINE
  8
0
 62
7
  6
CONTINUOUS
 10
233.5922108419
 20
13.9963058145
 11
234.5484423775
 21
18.4950214885
  0
LINE
  8
0
 62
7
  6
CONTINUOUS
 10
235.2482443252
 20
21.7873308023
 11
235.6924861276
 21
23.8773241617
  0
LINE
  8
0
 62
7
  6
CONTINUOUS
 10
229.5448697213
 20
12.2979700695
 11
233.1043930989
 21
13.4545293241
  0
LINE
  8
0
 62
7
  6
CONTINUOUS
 10
232.685831411
 20
27.0750330078
 11
235.4672027953
 21
24.5706749648
  0
ARC
  8
0
 62
7
  6
CONTINUOUS
 10
222.5906631212
 20
23.4116390962
 40
0.7290321776
 50
108.0
 51
168.0
  0
ARC
  8
0
 62
7
  6
CONTINUOUS
 10
232.198013668
 20
26.5332565175
 40
0.7290321776
 50
348.0
 51
108.0
  0
ARC
  8
0
 62
7
  6
CONTINUOUS
 10
234.9793850522
 20
24.0288984744
 40
0.7290321776
 50
348.0
 51
48.0
  0
ARC
  8
0
 62
7
  6
CONTINUOUS
 10
229.319586389
 20
12.9913208726
 40
0.7290321776
 50
228.0
 51
288.0
  0
ARC
  8
0
 62
7
  6
CONTINUOUS
 10
221.8125111278
 20
19.7507217986
 40
0.7290321776
 50
108.0
 51
228.0
  0
ARC
  8
0
 62
7
  6
CONTINUOUS
 10
232.8791097665
 20
14.1478801272
 40
0.7290321776
 50
228.0
 51
348.0
  0
ENDBLK
  8
0
  6
BYBLOCK
 62
0
  0
ENDSEC
  0
SECTION
  2
ENTITIES
  0
TEXT
  8
0
 62
5
  6
CONTINUOUS
 10
304.937007874
 20
25.636
  7
TEXTSTYLE_2
 40
2.8
  1
Scale :
 41
0.6
 51
0.000019
 72
0
  0
TEXT
  8
0
 62
5
  6
CONTINUOUS
 10
324.937007874
 20
25.636
  7
TEXTSTYLE_2
 40
2.8
  1
Belt type:
 41
0.6
 51
0.000019
 72
0
  0
INSERT
  8
0
 62
2
  6
CONTINUOUS
  2
SYMBOL_0_BL0
 10
240.8592468615
 20
19.762288695
  0
INSERT
  8
0
 62
2
  6
CONTINUOUS
  2
SYMBOL_5_BL1
 10
382.7840918555
 20
35.5067593403
  0
LINE
  8
0
 62
2
  6
CONTINUOUS
 10
218.937007874
 20
30.0
 11
408.937007874
 21
30.0
  0
LINE
  8
0
 62
2
  6
CONTINUOUS
 10
218.937007874
 20
30.0
 11
218.937007874
 21
10.0
  0
LINE
  8
0
 62
2
  6
CONTINUOUS
 10
218.937007874
 20
10.0
 11
408.937007874
 21
10.0
  0
LINE
  8
0
 62
2
  6
CONTINUOUS
 10
303.937007874
 20
30.0
 11
303.937007874
 21
10.0
  0
LINE
  8
0
 62
2
  6
CONTINUOUS
 10
323.937007874
 20
30.0
 11
323.937007874
 21
10.0
  0
LINE
  8
0
 62
2
  6
CONTINUOUS
 10
408.937007874
 20
30.0
 11
408.937007874
 21
10.0
  0
TEXT
  8
0
 62
5
  6
CONTINUOUS
 10
221.937007874
 20
23.303
  7
TEXTSTYLE_5
 40
1.52
  1
                                                                     Ammeraal Beltech Modular A/S
 41
1.0
 72
0
  0
TEXT
  8
0
 62
5
  6
CONTINUOUS
 10
221.937007874
 20
20.595
  7
TEXTSTYLE_5
 40
1.5
  1
                                                                      Hjulmagervej 21, 7100 Vejle,  DK
 41
1.0
 72
0
  0
TEXT
  8
0
 62
5
  6
CONTINUOUS
 10
221.937007874
 20
17.881
  7
TEXTSTYLE_5
 40
1.495
  1
                                                                      tel: 
 41
1.0
 72
0
  0
TEXT
  8
0
 62
5
  6
CONTINUOUS
 10
266.9239544389
 20
17.881
  7
TEXTSTYLE_5
 40
1.51
  1
+45 75723100     fax: +45 75723348
 41
1.0
 72
0
  0
TEXT
  8
0
 62
5
  6
CONTINUOUS
 10
221.937007874
 20
15.177
  7
TEXTSTYLE_5
 40
1.5
  1
                                                                      admin@unichains.dk  www.unichains.com
 41
1.0
 72
0
  0
TEXT
  8
0
 62
5
  6
CONTINUOUS
 10
308.687007874
 20
13.75
  7
TEXTSTYLE_6
 40
5.0
  1
1:1
 41
0.7
 72
1
 11
313.937007874
 21
13.75
  0
TEXT
  8
0
 62
5
  6
CONTINUOUS
 10
326.937007874
 20
13.75
  7
TEXTSTYLE_7
 40
7.5
  1
uni Light-FINGERPLATE-TYPE 3-K600
 41
0.3659090909
 72
0
  0
LINE
  8
0
 62
7
  6
CONTINUOUS
 10
0.0
 20
0.0
 11
0.0
 21
297.0
  0
LINE
  8
0
 62
7
  6
CONTINUOUS
 10
8.937007874
 20
10.0
 11
8.937007874
 21
287.0
  0
LINE
  8
0
 62
7
  6
CONTINUOUS
 10
0.0
 20
0.0
 11
420.0
 21
0.0
  0
LINE
  8
0
 62
7
  6
CONTINUOUS
 10
408.937007874
 20
10.0
 11
8.937007874
 21
10.0
  0
LINE
  8
0
 62
7
  6
CONTINUOUS
 10
218.937007874
 20
30.0
 11
408.937007874
 21
30.0
  0
LINE
  8
0
 62
7
  6
CONTINUOUS
 10
210.0
 20
297.0
 11
210.0
 21
292.0
  0
LINE
  8
0
 62
7
  6
CONTINUOUS
 10
210.0
 20
0.0
 11
210.0
 21
5.0
  0
LINE
  8
0
 62
7
  6
CONTINUOUS
 10
8.937007874
 20
287.0
 11
408.937007874
 21
287.0
  0
LINE
  8
0
 62
7
  6
CONTINUOUS
 10
0.0
 20
297.0
 11
420.0
 21
297.0
  0
LINE
  8
0
 62
7
  6
CONTINUOUS
 10
408.937007874
 20
287.0
 11
408.937007874
 21
10.0
  0
LINE
  8
0
 62
7
  6
CONTINUOUS
 10
420.0
 20
0.0
 11
420.0
 21
297.0
  0
LINE
  8
0
 62
7
  6
CONTINUOUS
 10
79.2964757569
 20
193.1927472674
 11
79.2964757569
 21
189.3927472674
  0
LINE
  8
0
 62
7
  6
CONTINUOUS
 10
79.2964757569
 20
183.6427472674
 11
79.2964757569
 21
179.8427472674
  0
LINE
  8
0
 62
7
  6
CONTINUOUS
 10
79.2964757569
 20
174.0927472674
 11
79.2964757569
 21
170.2927472674
  0
LINE
  8
0
 62
7
  6
CONTINUOUS
 10
79.2964757569
 20
164.5427472674
 11
79.2964757569
 21
160.7427472674
  0
LINE
  8
0
 62
7
  6
CONTINUOUS
 10
79.2964757569
 20
154.9927472674
 11
79.2964757569
 21
151.1927472674
  0
LINE
  8
0
 62
7
  6
CONTINUOUS
 10
79.2964757569
 20
145.4427472674
 11
79.2964757569
 21
141.6427472674
  0
LINE
  8
0
 62
7
  6
CONTINUOUS
 10
79.2964757569
 20
135.8927472674
 11
79.2964757569
 21
132.0927472674
  0
LINE
  8
0
 62
7
  6
CONTINUOUS
 10
79.2964757569
 20
126.3427472674
 11
79.2964757569
 21
122.5427472674
  0
LINE
  8
2_FEATURE
 62
7
  6
CONTINUOUS
 10
79.2964757569
 20
116.7927472674
 11
79.2964757569
 21
112.9927472674
  0
LINE
  8
2_FEATURE
 62
7
  6
CONTINUOUS
 10
79.2964757569
 20
107.2427472674
 11
79.2964757569
 21
103.4427472674
  0
LINE
  8
2_FEATURE
 62
7
  6
CONTINUOUS
 10
79.2964757569
 20
97.6927472674
 11
79.2964757569
 21
93.8927472674
  0
LINE
  8
2_FEATURE
 62
7
  6
CONTINUOUS
 10
79.2964757569
 20
88.1427472674
 11
79.2964757569
 21
84.3427472674
  0
LINE
  8
2_FEATURE
 62
7
  6
CONTINUOUS
 10
79.2964757569
 20
78.5927472674
 11
79.2964757569
 21
74.7927472674
  0
LINE
  8
2_FEATURE
 62
7
  6
CONTINUOUS
 10
79.2964757569
 20
69.0427472674
 11
79.2964757569
 21
65.2427472674
  0
LINE
  8
2_FEATURE
 62
7
  6
CONTINUOUS
 10
79.2964757569
 20
59.4927472674
 11
79.2964757569
 21
55.6927472674
  0
LINE
  8
2_FEATURE
 62
7
  6
CONTINUOUS
 10
79.2964757569
 20
49.9427472674
 11
79.2964757569
 21
46.1427472674
  0
LINE
  8
2_FEATURE
 62
7
  6
CONTINUOUS
 10
79.2964757569
 20
46.1427472674
 11
73.6964757569
 21
46.1427472674
  0
LINE
  8
0
 62
7
  6
CONTINUOUS
 10
79.2964757569
 20
46.1427472674
 11
265.9164757569
 21
46.1427472674
  0
LINE
  8
2_FEATURE
 62
7
  6
CONTINUOUS
 10
124.6564757569
 20
49.9427472674
 11
73.6964757569
 21
49.9427472674
  0
LINE
  8
0
 62
7
  6
CONTINUOUS
 10
214.9564757569
 20
49.9427472674
 11
265.9164757569
 21
49.9427472674
  0
LINE
  8
0
 62
7
  6
CONTINUOUS
 10
197.8064757569
 20
54.8927472674
 11
181.8064757569
 21
54.8927472674
  0
LINE
  8
0
 62
7
  6
CONTINUOUS
 10
141.8064757569
 20
54.8927472674
 11
157.8064757569
 21
54.8927472674
  0
LINE
  8
2_FEATURE
 62
7
  6
CONTINUOUS
 10
124.6564757569
 20
55.6927472674
 11
73.6964757569
 21
55.6927472674
  0
LINE
  8
0
 62
7
  6
CONTINUOUS
 10
214.9564757569
 20
55.6927472674
 11
265.9164757569
 21
55.6927472674
  0
LINE
  8
2_FEATURE
 62
7
  6
CONTINUOUS
 10
124.6564757569
 20
59.4927472674
 11
73.6964757569
 21
59.4927472674
  0
LINE
  8
0
 62
7
  6
CONTINUOUS
 10
214.9564757569
 20
59.4927472674
 11
265.9164757569
 21
59.4927472674
  0
LINE
  8
2_FEATURE
 62
7
  6
CONTINUOUS
 10
124.6564757569
 20
65.2427472674
 11
73.6964757569
 21
65.2427472674
  0
LINE
  8
0
 62
7
  6
CONTINUOUS
 10
214.9564757569
 20
65.2427472674
 11
265.9164757569
 21
65.2427472674
  0
LINE
  8
2_FEATURE
 62
7
  6
CONTINUOUS
 10
124.6564757569
 20
69.0427472674
 11
73.6964757569
 21
69.0427472674
  0
LINE
  8
0
 62
7
  6
CONTINUOUS
 10
214.9564757569
 20
69.0427472674
 11
265.9164757569
 21
69.0427472674
  0
LINE
  8
0
 62
7
  6
CONTINUOUS
 10
124.6564757569
 20
197.1427472674
 11
124.6564757569
 21
193.1927472674
  0
LINE
  8
0
 62
7
  6
CONTINUOUS
 10
124.6564757569
 20
189.3927472674
 11
124.6564757569
 21
183.6427472674
  0
LINE
  8
0
 62
7
  6
CONTINUOUS
 10
124.6564757569
 20
179.8427472674
 11
124.6564757569
 21
174.0927472674
  0
LINE
  8
0
 62
7
  6
CONTINUOUS
 10
124.6564757569
 20
170.2927472674
 11
124.6564757569
 21
164.5427472674
  0
LINE
  8
0
 62
7
  6
CONTINUOUS
 10
124.6564757569
 20
160.7427472674
 11
124.6564757569
 21
154.9927472674
  0
LINE
  8
0
 62
7
  6
CONTINUOUS
 10
124.6564757569
 20
151.1927472674
 11
124.6564757569
 21
145.4427472674
  0
LINE
  8
0
 62
7
  6
CONTINUOUS
 10
124.6564757569
 20
141.6427472674
 11
124.6564757569
 21
135.8927472674
  0
LINE
  8
0
 62
7
  6
CONTINUOUS
 10
124.6564757569
 20
132.0927472674
 11
124.6564757569
 21
126.3427472674
  0
LINE
  8
0
 62
7
  6
CONTINUOUS
 10
124.6564757569
 20
122.5427472674
 11
124.6564757569
 21
116.7927472674
  0
LINE
  8
2_FEATURE
 62
7
  6
CONTINUOUS
 10
124.6564757569
 20
112.9927472674
 11
124.6564757569
 21
107.2427472674
  0
LINE
  8
2_FEATURE
 62
7
  6
CONTINUOUS
 10
124.6564757569
 20
103.4427472674
 11
124.6564757569
 21
97.6927472674
  0
LINE
  8
2_FEATURE
 62
7
  6
CONTINUOUS
 10
124.6564757569
 20
93.8927472674
 11
124.6564757569
 21
88.1427472674
  0
LINE
  8
2_FEATURE
 62
7
  6
CONTINUOUS
 10
124.6564757569
 20
84.3427472674
 11
124.6564757569
 21
78.5927472674
  0
LINE
  8
2_FEATURE
 62
7
  6
CONTINUOUS
 10
124.6564757569
 20
74.7927472674
 11
124.6564757569
 21
69.0427472674
  0
LINE
  8
2_FEATURE
 62
7
  6
CONTINUOUS
 10
124.6564757569
 20
65.2427472674
 11
124.6564757569
 21
59.4927472674
  0
LINE
  8
2_FEATURE
 62
7
  6
CONTINUOUS
 10
124.6564757569
 20
55.6927472674
 11
124.6564757569
 21
49.9427472674
  0
LINE
  8
2_FEATURE
 62
7
  6
CONTINUOUS
 10
124.6564757569
 20
74.7927472674
 11
73.6964757569
 21
74.7927472674
  0
LINE
  8
0
 62
7
  6
CONTINUOUS
 10
214.9564757569
 20
74.7927472674
 11
265.9164757569
 21
74.7927472674
  0
LINE
  8
2_FEATURE
 62
7
  6
CONTINUOUS
 10
124.6564757569
 20
78.5927472674
 11
73.6964757569
 21
78.5927472674
  0
LINE
  8
0
 62
7
  6
CONTINUOUS
 10
214.9564757569
 20
78.5927472674
 11
265.9164757569
 21
78.5927472674
  0
LINE
  8
2_FEATURE
 62
7
  6
CONTINUOUS
 10
124.6564757569
 20
84.3427472674
 11
73.6964757569
 21
84.3427472674
  0
LINE
  8
0
 62
7
  6
CONTINUOUS
 10
214.9564757569
 20
84.3427472674
 11
265.9164757569
 21
84.3427472674
  0
LINE
  8
2_FEATURE
 62
7
  6
CONTINUOUS
 10
124.6564757569
 20
88.1427472674
 11
73.6964757569
 21
88.1427472674
  0
LINE
  8
0
 62
7
  6
CONTINUOUS
 10
214.9564757569
 20
88.1427472674
 11
265.9164757569
 21
88.1427472674
  0
LINE
  8
0
 62
7
  6
CONTINUOUS
 10
157.8064757569
 20
88.8927472674
 11
141.8064757569
 21
88.8927472674
  0
LINE
  8
0
 62
7
  6
CONTINUOUS
 10
181.8064757569
 20
88.8927472674
 11
197.8064757569
 21
88.8927472674
  0
LINE
  8
1_AXIS
 62
7
  6
CONTINUOUS
 10
139.8064757569
 20
186.8927472674
 11
139.8064757569
 21
156.8927472674
  0
LINE
  8
0
 62
7
  6
CONTINUOUS
 10
139.8064757569
 20
136.8927472674
 11
139.8064757569
 21
106.8927472674
  0
LINE
  8
0
 62
7
  6
CONTINUOUS
 10
139.8064757569
 20
86.8927472674
 11
139.8064757569
 21
56.8927472674
  0
LINE
  8
2_FEATURE
 62
7
  6
CONTINUOUS
 10
144.3064757569
 20
177.8927472674
 11
144.3064757569
 21
165.8927472674
  0
LINE
  8
0
 62
7
  6
CONTINUOUS
 10
144.3064757569
 20
127.8927472674
 11
144.3064757569
 21
115.8927472674
  0
LINE
  8
0
 62
7
  6
CONTINUOUS
 10
144.3064757569
 20
77.8927472674
 11
144.3064757569
 21
65.8927472674
  0
LINE
  8
2_FEATURE
 62
7
  6
CONTINUOUS
 10
124.6564757569
 20
93.8927472674
 11
73.6964757569
 21
93.8927472674
  0
LINE
  8
0
 62
7
  6
CONTINUOUS
 10
214.9564757569
 20
93.8927472674
 11
265.9164757569
 21
93.8927472674
  0
LINE
  8
2_FEATURE
 62
7
  6
CONTINUOUS
 10
124.6564757569
 20
97.6927472674
 11
73.6964757569
 21
97.6927472674
  0
LINE
  8
0
 62
7
  6
CONTINUOUS
 10
214.9564757569
 20
97.6927472674
 11
265.9164757569
 21
97.6927472674
  0
LINE
  8
2_FEATURE
 62
7
  6
CONTINUOUS
 10
146.5564757569
 20
177.8927472674
 11
146.5564757569
 21
165.8927472674
  0
LINE
  8
0
 62
7
  6
CONTINUOUS
 10
146.5564757569
 20
127.8927472674
 11
146.5564757569
 21
115.8927472674
  0
LINE
  8
0
 62
7
  6
CONTINUOUS
 10
146.5564757569
 20
77.8927472674
 11
146.5564757569
 21
65.8927472674
  0
LINE
  8
0
 62
7
  6
CONTINUOUS
 10
153.0564757569
 20
65.8927472674
 11
153.0564757569
 21
77.8927472674
  0
LINE
  8
0
 62
7
  6
CONTINUOUS
 10
153.0564757569
 20
115.8927472674
 11
153.0564757569
 21
127.8927472674
  0
LINE
  8
2_FEATURE
 62
7
  6
CONTINUOUS
 10
153.0564757569
 20
165.8927472674
 11
153.0564757569
 21
177.8927472674
  0
LINE
  8
2_FEATURE
 62
7
  6
CONTINUOUS
 10
124.6564757569
 20
103.4427472674
 11
73.6964757569
 21
103.4427472674
  0
LINE
  8
0
 62
7
  6
CONTINUOUS
 10
214.9564757569
 20
103.4427472674
 11
265.9164757569
 21
103.4427472674
  0
LINE
  8
0
 62
7
  6
CONTINUOUS
 10
197.8064757569
 20
104.8927472674
 11
181.8064757569
 21
104.8927472674
  0
LINE
  8
0
 62
7
  6
CONTINUOUS
 10
141.8064757569
 20
104.8927472674
 11
157.8064757569
 21
104.8927472674
  0
LINE
  8
0
 62
7
  6
CONTINUOUS
 10
155.3064757569
 20
65.8927472674
 11
155.3064757569
 21
77.8927472674
  0
LINE
  8
0
 62
7
  6
CONTINUOUS
 10
155.3064757569
 20
115.8927472674
 11
155.3064757569
 21
127.8927472674
  0
LINE
  8
2_FEATURE
 62
7
  6
CONTINUOUS
 10
155.3064757569
 20
165.8927472674
 11
155.3064757569
 21
177.8927472674
  0
LINE
  8
0
 62
7
  6
CONTINUOUS
 10
159.8064757569
 20
56.8927472674
 11
159.8064757569
 21
86.8927472674
  0
LINE
  8
0
 62
7
  6
CONTINUOUS
 10
159.8064757569
 20
106.8927472674
 11
159.8064757569
 21
136.8927472674
  0
LINE
  8
1_AXIS
 62
7
  6
CONTINUOUS
 10
159.8064757569
 20
156.8927472674
 11
159.8064757569
 21
186.8927472674
  0
LINE
  8
2_FEATURE
 62
7
  6
CONTINUOUS
 10
124.6564757569
 20
107.2427472674
 11
73.6964757569
 21
107.2427472674
  0
LINE
  8
0
 62
7
  6
CONTINUOUS
 10
214.9564757569
 20
107.2427472674
 11
265.9164757569
 21
107.2427472674
  0
LINE
  8
2_FEATURE
 62
7
  6
CONTINUOUS
 10
124.6564757569
 20
112.9927472674
 11
73.6964757569
 21
112.9927472674
  0
LINE
  8
0
 62
7
  6
CONTINUOUS
 10
214.9564757569
 20
112.9927472674
 11
265.9164757569
 21
112.9927472674
  0
LINE
  8
2_FEATURE
 62
7
  6
CONTINUOUS
 10
124.6564757569
 20
116.7927472674
 11
73.6964757569
 21
116.7927472674
  0
LINE
  8
0
 62
7
  6
CONTINUOUS
 10
214.9564757569
 20
116.7927472674
 11
265.9164757569
 21
116.7927472674
  0
LINE
  8
0
 62
7
  6
CONTINUOUS
 10
124.6564757569
 20
122.5427472674
 11
73.6964757569
 21
122.5427472674
  0
LINE
  8
0
 62
7
  6
CONTINUOUS
 10
214.9564757569
 20
122.5427472674
 11
265.9164757569
 21
122.5427472674
  0
LINE
  8
0
 62
7
  6
CONTINUOUS
 10
124.6564757569
 20
126.3427472674
 11
73.6964757569
 21
126.3427472674
  0
LINE
  8
0
 62
7
  6
CONTINUOUS
 10
214.9564757569
 20
126.3427472674
 11
265.9164757569
 21
126.3427472674
  0
LINE
  8
0
 62
7
  6
CONTINUOUS
 10
179.8064757569
 20
56.8927472674
 11
179.8064757569
 21
86.8927472674
  0
LINE
  8
0
 62
7
  6
CONTINUOUS
 10
179.8064757569
 20
106.8927472674
 11
179.8064757569
 21
136.8927472674
  0
LINE
  8
0
 62
7
  6
CONTINUOUS
 10
179.8064757569
 20
156.8927472674
 11
179.8064757569
 21
186.8927472674
  0
LINE
  8
0
 62
7
  6
CONTINUOUS
 10
184.3064757569
 20
65.8927472674
 11
184.3064757569
 21
77.8927472674
  0
LINE
  8
0
 62
7
  6
CONTINUOUS
 10
184.3064757569
 20
115.8927472674
 11
184.3064757569
 21
127.8927472674
  0
LINE
  8
0
 62
7
  6
CONTINUOUS
 10
184.3064757569
 20
165.8927472674
 11
184.3064757569
 21
177.8927472674
  0
LINE
  8
0
 62
7
  6
CONTINUOUS
 10
186.5564757569
 20
65.8927472674
 11
186.5564757569
 21
77.8927472674
  0
LINE
  8
0
 62
7
  6
CONTINUOUS
 10
186.5564757569
 20
115.8927472674
 11
186.5564757569
 21
127.8927472674
  0
LINE
  8
0
 62
7
  6
CONTINUOUS
 10
186.5564757569
 20
165.8927472674
 11
186.5564757569
 21
177.8927472674
  0
LINE
  8
0
 62
7
  6
CONTINUOUS
 10
124.6564757569
 20
132.0927472674
 11
73.6964757569
 21
132.0927472674
  0
LINE
  8
0
 62
7
  6
CONTINUOUS
 10
214.9564757569
 20
132.0927472674
 11
265.9164757569
 21
132.0927472674
  0
LINE
  8
0
 62
7
  6
CONTINUOUS
 10
124.6564757569
 20
135.8927472674
 11
73.6964757569
 21
135.8927472674
  0
LINE
  8
0
 62
7
  6
CONTINUOUS
 10
214.9564757569
 20
135.8927472674
 11
265.9164757569
 21
135.8927472674
  0
LINE
  8
0
 62
7
  6
CONTINUOUS
 10
157.8064757569
 20
138.8927472674
 11
141.8064757569
 21
138.8927472674
  0
LINE
  8
0
 62
7
  6
CONTINUOUS
 10
181.8064757569
 20
138.8927472674
 11
197.8064757569
 21
138.8927472674
  0
LINE
  8
0
 62
7
  6
CONTINUOUS
 10
193.0564757569
 20
177.8927472674
 11
193.0564757569
 21
165.8927472674
  0
LINE
  8
0
 62
7
  6
CONTINUOUS
 10
193.0564757569
 20
127.8927472674
 11
193.0564757569
 21
115.8927472674
  0
LINE
  8
0
 62
7
  6
CONTINUOUS
 10
193.0564757569
 20
77.8927472674
 11
193.0564757569
 21
65.8927472674
  0
LINE
  8
0
 62
7
  6
CONTINUOUS
 10
195.3064757569
 20
177.8927472674
 11
195.3064757569
 21
165.8927472674
  0
LINE
  8
0
 62
7
  6
CONTINUOUS
 10
195.3064757569
 20
127.8927472674
 11
195.3064757569
 21
115.8927472674
  0
LINE
  8
0
 62
7
  6
CONTINUOUS
 10
195.3064757569
 20
77.8927472674
 11
195.3064757569
 21
65.8927472674
  0
LINE
  8
0
 62
7
  6
CONTINUOUS
 10
124.6564757569
 20
141.6427472674
 11
73.6964757569
 21
141.6427472674
  0
LINE
  8
0
 62
7
  6
CONTINUOUS
 10
214.9564757569
 20
141.6427472674
 11
265.9164757569
 21
141.6427472674
  0
LINE
  8
0
 62
7
  6
CONTINUOUS
 10
124.6564757569
 20
145.4427472674
 11
73.6964757569
 21
145.4427472674
  0
LINE
  8
0
 62
7
  6
CONTINUOUS
 10
214.9564757569
 20
145.4427472674
 11
265.9164757569
 21
145.4427472674
  0
LINE
  8
0
 62
7
  6
CONTINUOUS
 10
199.8064757569
 20
186.8927472674
 11
199.8064757569
 21
156.8927472674
  0
LINE
  8
0
 62
7
  6
CONTINUOUS
 10
199.8064757569
 20
136.8927472674
 11
199.8064757569
 21
106.8927472674
  0
LINE
  8
0
 62
7
  6
CONTINUOUS
 10
199.8064757569
 20
86.8927472674
 11
199.8064757569
 21
56.8927472674
  0
LINE
  8
0
 62
7
  6
CONTINUOUS
 10
124.6564757569
 20
151.1927472674
 11
73.6964757569
 21
151.1927472674
  0
LINE
  8
0
 62
7
  6
CONTINUOUS
 10
214.9564757569
 20
151.1927472674
 11
265.9164757569
 21
151.1927472674
  0
LINE
  8
0
 62
7
  6
CONTINUOUS
 10
197.8064757569
 20
154.8927472674
 11
181.8064757569
 21
154.8927472674
  0
LINE
  8
1_AXIS
 62
7
  6
CONTINUOUS
 10
141.8064757569
 20
154.8927472674
 11
157.8064757569
 21
154.8927472674
  0
LINE
  8
0
 62
7
  6
CONTINUOUS
 10
124.6564757569
 20
154.9927472674
 11
73.6964757569
 21
154.9927472674
  0
LINE
  8
0
 62
7
  6
CONTINUOUS
 10
214.9564757569
 20
154.9927472674
 11
265.9164757569
 21
154.9927472674
  0
LINE
  8
0
 62
7
  6
CONTINUOUS
 10
124.6564757569
 20
160.7427472674
 11
73.6964757569
 21
160.7427472674
  0
LINE
  8
0
 62
7
  6
CONTINUOUS
 10
214.9564757569
 20
160.7427472674
 11
265.9164757569
 21
160.7427472674
  0
LINE
  8
0
 62
7
  6
CONTINUOUS
 10
214.9564757569
 20
197.1427472674
 11
214.9564757569
 21
193.1927472674
  0
LINE
  8
0
 62
7
  6
CONTINUOUS
 10
214.9564757569
 20
189.3927472674
 11
214.9564757569
 21
183.6427472674
  0
LINE
  8
0
 62
7
  6
CONTINUOUS
 10
214.9564757569
 20
179.8427472674
 11
214.9564757569
 21
174.0927472674
  0
LINE
  8
0
 62
7
  6
CONTINUOUS
 10
214.9564757569
 20
170.2927472674
 11
214.9564757569
 21
164.5427472674
  0
LINE
  8
0
 62
7
  6
CONTINUOUS
 10
214.9564757569
 20
160.7427472674
 11
214.9564757569
 21
154.9927472674
  0
LINE
  8
0
 62
7
  6
CONTINUOUS
 10
214.9564757569
 20
151.1927472674
 11
214.9564757569
 21
145.4427472674
  0
LINE
  8
0
 62
7
  6
CONTINUOUS
 10
214.9564757569
 20
141.6427472674
 11
214.9564757569
 21
135.8927472674
  0
LINE
  8
0
 62
7
  6
CONTINUOUS
 10
214.9564757569
 20
132.0927472674
 11
214.9564757569
 21
126.3427472674
  0
LINE
  8
0
 62
7
  6
CONTINUOUS
 10
214.9564757569
 20
122.5427472674
 11
214.9564757569
 21
116.7927472674
  0
LINE
  8
0
 62
7
  6
CONTINUOUS
 10
214.9564757569
 20
112.9927472674
 11
214.9564757569
 21
107.2427472674
  0
LINE
  8
0
 62
7
  6
CONTINUOUS
 10
214.9564757569
 20
103.4427472674
 11
214.9564757569
 21
97.6927472674
  0
LINE
  8
0
 62
7
  6
CONTINUOUS
 10
214.9564757569
 20
93.8927472674
 11
214.9564757569
 21
88.1427472674
  0
LINE
  8
0
 62
7
  6
CONTINUOUS
 10
214.9564757569
 20
84.3427472674
 11
214.9564757569
 21
78.5927472674
  0
LINE
  8
0
 62
7
  6
CONTINUOUS
 10
214.9564757569
 20
74.7927472674
 11
214.9564757569
 21
69.0427472674
  0
LINE
  8
0
 62
7
  6
CONTINUOUS
 10
214.9564757569
 20
65.2427472674
 11
214.9564757569
 21
59.4927472674
  0
LINE
  8
0
 62
7
  6
CONTINUOUS
 10
214.9564757569
 20
55.6927472674
 11
214.9564757569
 21
49.9427472674
  0
LINE
  8
0
 62
7
  6
CONTINUOUS
 10
124.6564757569
 20
164.5427472674
 11
73.6964757569
 21
164.5427472674
  0
LINE
  8
0
 62
7
  6
CONTINUOUS
 10
214.9564757569
 20
164.5427472674
 11
265.9164757569
 21
164.5427472674
  0
LINE
  8
0
 62
7
  6
CONTINUOUS
 10
124.6564757569
 20
170.2927472674
 11
73.6964757569
 21
170.2927472674
  0
LINE
  8
0
 62
7
  6
CONTINUOUS
 10
214.9564757569
 20
170.2927472674
 11
265.9164757569
 21
170.2927472674
  0
LINE
  8
0
 62
7
  6
CONTINUOUS
 10
124.6564757569
 20
174.0927472674
 11
73.6964757569
 21
174.0927472674
  0
LINE
  8
0
 62
7
  6
CONTINUOUS
 10
214.9564757569
 20
174.0927472674
 11
265.9164757569
 21
174.0927472674
  0
LINE
  8
0
 62
7
  6
CONTINUOUS
 10
124.6564757569
 20
179.8427472674
 11
73.6964757569
 21
179.8427472674
  0
LINE
  8
0
 62
7
  6
CONTINUOUS
 10
214.9564757569
 20
179.8427472674
 11
265.9164757569
 21
179.8427472674
  0
LINE
  8
0
 62
7
  6
CONTINUOUS
 10
124.6564757569
 20
183.6427472674
 11
73.6964757569
 21
183.6427472674
  0
LINE
  8
0
 62
7
  6
CONTINUOUS
 10
214.9564757569
 20
183.6427472674
 11
265.9164757569
 21
183.6427472674
  0
LINE
  8
1_AXIS
 62
7
  6
CONTINUOUS
 10
157.8064757569
 20
188.8927472674
 11
141.8064757569
 21
188.8927472674
  0
LINE
  8
0
 62
7
  6
CONTINUOUS
 10
181.8064757569
 20
188.8927472674
 11
197.8064757569
 21
188.8927472674
  0
LINE
  8
0
 62
7
  6
CONTINUOUS
 10
124.6564757569
 20
189.3927472674
 11
73.6964757569
 21
189.3927472674
  0
LINE
  8
0
 62
7
  6
CONTINUOUS
 10
214.9564757569
 20
189.3927472674
 11
265.9164757569
 21
189.3927472674
  0
LINE
  8
0
 62
7
  6
CONTINUOUS
 10
124.6564757569
 20
193.1927472674
 11
73.6964757569
 21
193.1927472674
  0
LINE
  8
0
 62
7
  6
CONTINUOUS
 10
214.9564757569
 20
193.1927472674
 11
265.9164757569
 21
193.1927472674
  0
LINE
  8
0
 62
7
  6
CONTINUOUS
 10
214.4564757569
 20
197.6427472674
 11
125.1564757569
 21
197.6427472674
  0
LINE
  8
0
 62
7
  6
CONTINUOUS
 10
260.3164757569
 20
193.1927472674
 11
260.3164757569
 21
189.3927472674
  0
LINE
  8
0
 62
7
  6
CONTINUOUS
 10
260.3164757569
 20
183.6427472674
 11
260.3164757569
 21
179.8427472674
  0
LINE
  8
0
 62
7
  6
CONTINUOUS
 10
260.3164757569
 20
174.0927472674
 11
260.3164757569
 21
170.2927472674
  0
LINE
  8
0
 62
7
  6
CONTINUOUS
 10
260.3164757569
 20
164.5427472674
 11
260.3164757569
 21
160.7427472674
  0
LINE
  8
0
 62
7
  6
CONTINUOUS
 10
260.3164757569
 20
154.9927472674
 11
260.3164757569
 21
151.1927472674
  0
LINE
  8
0
 62
7
  6
CONTINUOUS
 10
260.3164757569
 20
145.4427472674
 11
260.3164757569
 21
141.6427472674
  0
LINE
  8
0
 62
7
  6
CONTINUOUS
 10
260.3164757569
 20
135.8927472674
 11
260.3164757569
 21
132.0927472674
  0
LINE
  8
0
 62
7
  6
CONTINUOUS
 10
260.3164757569
 20
126.3427472674
 11
260.3164757569
 21
122.5427472674
  0
LINE
  8
0
 62
7
  6
CONTINUOUS
 10
260.3164757569
 20
116.7927472674
 11
260.3164757569
 21
112.9927472674
  0
LINE
  8
0
 62
7
  6
CONTINUOUS
 10
260.3164757569
 20
107.2427472674
 11
260.3164757569
 21
103.4427472674
  0
LINE
  8
0
 62
7
  6
CONTINUOUS
 10
260.3164757569
 20
97.6927472674
 11
260.3164757569
 21
93.8927472674
  0
LINE
  8
0
 62
7
  6
CONTINUOUS
 10
260.3164757569
 20
88.1427472674
 11
260.3164757569
 21
84.3427472674
  0
LINE
  8
0
 62
7
  6
CONTINUOUS
 10
260.3164757569
 20
78.5927472674
 11
260.3164757569
 21
74.7927472674
  0
LINE
  8
0
 62
7
  6
CONTINUOUS
 10
260.3164757569
 20
69.0427472674
 11
260.3164757569
 21
65.2427472674
  0
LINE
  8
0
 62
7
  6
CONTINUOUS
 10
260.3164757569
 20
59.4927472674
 11
260.3164757569
 21
55.6927472674
  0
LINE
  8
0
 62
7
  6
CONTINUOUS
 10
260.3164757569
 20
49.9427472674
 11
260.3164757569
 21
46.1427472674
  0
LINE
  8
2_FEATURE
 62
7
  6
CONTINUOUS
 10
71.7964757569
 20
222.6294558222
 11
71.7964757569
 21
221.2227382594
  0
LINE
  8
0
 62
7
  6
CONTINUOUS
 10
265.9164757569
 20
218.431681112
 11
264.8164757569
 21
218.2227382594
  0
LINE
  8
2_FEATURE
 62
7
  6
CONTINUOUS
 10
73.6964757569
 20
218.431681112
 11
74.7964757569
 21
218.2227382594
  0
LINE
  8
2_FEATURE
 62
7
  6
CONTINUOUS
 10
133.1042942294
 20
218.2227382594
 11
133.918358109
 21
217.7527382594
  0
LINE
  8
0
 62
7
  6
CONTINUOUS
 10
204.0364757569
 20
215.2227382594
 11
135.5764757569
 21
215.2227382594
  0
LINE
  8
0
 62
7
  6
CONTINUOUS
 10
264.8164757569
 20
218.2227382594
 11
206.5086572843
 21
218.2227382594
  0
LINE
  8
2_FEATURE
 62
7
  6
CONTINUOUS
 10
74.7964757569
 20
218.2227382594
 11
133.1042942294
 21
218.2227382594
  0
LINE
  8
0
 62
7
  6
CONTINUOUS
 10
79.2964757569
 20
225.0227382594
 11
260.3164757569
 21
225.0227382594
  0
LINE
  8
0
 62
7
  6
CONTINUOUS
 10
206.5086572843
 20
218.2227382594
 11
205.6945934048
 21
217.7527382594
  0
LINE
  8
2_FEATURE
 62
7
  6
CONTINUOUS
 10
79.2964757569
 20
225.0227382594
 11
72.1670662343
 21
223.1124187353
  0
LINE
  8
0
 62
7
  6
CONTINUOUS
 10
260.3164757569
 20
225.0227382594
 11
267.4458852794
 21
223.1124187353
  0
LINE
  8
0
 62
7
  6
CONTINUOUS
 10
267.8164757569
 20
221.2227382594
 11
267.8164757569
 21
222.6294558222
  0
LINE
  8
2_FEATURE
 62
7
  6
CONTINUOUS
 10
320.5923299123
 20
46.1427472674
 11
330.3923299123
 21
46.1427472674
  0
LINE
  8
2_FEATURE
 62
7
  6
CONTINUOUS
 10
330.3923299123
 20
49.9427472674
 11
323.5923299123
 21
49.9427472674
  0
LINE
  8
2_FEATURE
 62
7
  6
CONTINUOUS
 10
330.3923299123
 20
55.6927472674
 11
323.5923299123
 21
55.6927472674
  0
POLYLINE
  8
0
 62
7
  6
CONTINUOUS
 66
1
 70
0
  0
VERTEX
  8
0
 62
7
  6
CONTINUOUS
 10
323.8012728462
 20
189.3927472674
  0
VERTEX
  8
0
 62
7
  6
CONTINUOUS
 10
324.1456836038
 20
189.5023782388
  0
VERTEX
  8
0
 62
7
  6
CONTINUOUS
 10
324.5948519152
 20
189.7714895908
  0
VERTEX
  8
0
 62
7
  6
CONTINUOUS
 10
325.1165090383
 20
190.1420091343
  0
VERTEX
  8
0
 62
7
  6
CONTINUOUS
 10
325.7578101572
 20
190.6324993804
  0
VERTEX
  8
0
 62
7
  6
CONTINUOUS
 10
326.5923299123
 20
191.2927472674
  0
SEQEND
  0
LINE
  8
2_FEATURE
 62
7
  6
CONTINUOUS
 10
330.3923299123
 20
59.4927472674
 11
323.5923299123
 21
59.4927472674
  0
POLYLINE
  8
2_FEATURE
 62
7
  6
CONTINUOUS
 66
1
 70
0
  0
VERTEX
  8
2_FEATURE
 62
7
  6
CONTINUOUS
 10
328.8918144347
 20
46.1427472674
  0
VERTEX
  8
2_FEATURE
 62
7
  6
CONTINUOUS
 10
328.7343036949
 20
46.2359693653
  0
VERTEX
  8
2_FEATURE
 62
7
  6
CONTINUOUS
 10
328.5931726669
 20
46.5039858644
  0
VERTEX
  8
2_FEATURE
 62
7
  6
CONTINUOUS
 10
328.4820103882
 20
46.9154023723
  0
SEQEND
  0
POLYLINE
  8
0
 62
7
  6
CONTINUOUS
 66
1
 70
0
  0
VERTEX
  8
0
 62
7
  6
CONTINUOUS
 10
323.8012727649
 20
179.8427472674
  0
VERTEX
  8
0
 62
7
  6
CONTINUOUS
 10
324.145683554
 20
179.9523782139
  0
VERTEX
  8
0
 62
7
  6
CONTINUOUS
 10
324.5948518715
 20
180.2214895616
  0
VERTEX
  8
0
 62
7
  6
CONTINUOUS
 10
325.1165090038
 20
180.5920091087
  0
VERTEX
  8
0
 62
7
  6
CONTINUOUS
 10
325.757810135
 20
181.082499363
  0
VERTEX
  8
0
 62
7
  6
CONTINUOUS
 10
326.5923299123
 20
181.7427472674
  0
SEQEND
  0
LINE
  8
2_FEATURE
 62
7
  6
CONTINUOUS
 10
330.3923299123
 20
65.2427472674
 11
323.5923299123
 21
65.2427472674
  0
POLYLINE
  8
2_FEATURE
 62
7
  6
CONTINUOUS
 66
1
 70
0
  0
VERTEX
  8
2_FEATURE
 62
7
  6
CONTINUOUS
 10
328.8918143801
 20
55.6927472674
  0
VERTEX
  8
2_FEATURE
 62
7
  6
CONTINUOUS
 10
328.7343036786
 20
55.7859693851
  0
VERTEX
  8
2_FEATURE
 62
7
  6
CONTINUOUS
 10
328.59317266
 20
56.0539858832
  0
VERTEX
  8
2_FEATURE
 62
7
  6
CONTINUOUS
 10
328.4820103882
 20
56.4654023723
  0
SEQEND
  0
POLYLINE
  8
2_FEATURE
 62
7
  6
CONTINUOUS
 66
1
 70
0
  0
VERTEX
  8
2_FEATURE
 62
7
  6
CONTINUOUS
 10
326.5923299123
 20
48.0427472674
  0
VERTEX
  8
2_FEATURE
 62
7
  6
CONTINUOUS
 10
325.9125020392
 20
48.5817016685
  0
VERTEX
  8
2_FEATURE
 62
7
  6
CONTINUOUS
 10
325.245644266
 20
49.0968911336
  0
VERTEX
  8
2_FEATURE
 62
7
  6
CONTINUOUS
 10
324.6925179101
 20
49.4978164321
  0
VERTEX
  8
2_FEATURE
 62
7
  6
CONTINUOUS
 10
324.1977676498
 20
49.8062180305
  0
VERTEX
  8
2_FEATURE
 62
7
  6
CONTINUOUS
 10
323.8012727649
 20
49.9427472674
  0
SEQEND
  0
LINE
  8
2_FEATURE
 62
7
  6
CONTINUOUS
 10
330.3923299123
 20
69.0427472674
 11
323.5923299123
 21
69.0427472674
  0
POLYLINE
  8
0
 62
7
  6
CONTINUOUS
 66
1
 70
0
  0
VERTEX
  8
0
 62
7
  6
CONTINUOUS
 10
323.8012727649
 20
170.2927472674
  0
VERTEX
  8
0
 62
7
  6
CONTINUOUS
 10
324.145683554
 20
170.4023782139
  0
VERTEX
  8
0
 62
7
  6
CONTINUOUS
 10
324.5948518715
 20
170.6714895616
  0
VERTEX
  8
0
 62
7
  6
CONTINUOUS
 10
325.1165090038
 20
171.0420091087
  0
VERTEX
  8
0
 62
7
  6
CONTINUOUS
 10
325.757810135
 20
171.532499363
  0
VERTEX
  8
0
 62
7
  6
CONTINUOUS
 10
326.5923299123
 20
172.1927472674
  0
SEQEND
  0
LINE
  8
2_FEATURE
 62
7
  6
CONTINUOUS
 10
330.3923299123
 20
74.7927472674
 11
323.5923299123
 21
74.7927472674
  0
POLYLINE
  8
2_FEATURE
 62
7
  6
CONTINUOUS
 66
1
 70
0
  0
VERTEX
  8
2_FEATURE
 62
7
  6
CONTINUOUS
 10
328.8918144347
 20
65.2427472674
  0
VERTEX
  8
2_FEATURE
 62
7
  6
CONTINUOUS
 10
328.7343036949
 20
65.3359693653
  0
VERTEX
  8
2_FEATURE
 62
7
  6
CONTINUOUS
 10
328.5931726669
 20
65.6039858644
  0
VERTEX
  8
2_FEATURE
 62
7
  6
CONTINUOUS
 10
328.4820103882
 20
66.0154023723
  0
SEQEND
  0
POLYLINE
  8
2_FEATURE
 62
7
  6
CONTINUOUS
 66
1
 70
0
  0
VERTEX
  8
2_FEATURE
 62
7
  6
CONTINUOUS
 10
326.5923299123
 20
57.5927472674
  0
VERTEX
  8
2_FEATURE
 62
7
  6
CONTINUOUS
 10
325.9125020392
 20
58.1317016685
  0
VERTEX
  8
2_FEATURE
 62
7
  6
CONTINUOUS
 10
325.245644266
 20
58.6468911336
  0
VERTEX
  8
2_FEATURE
 62
7
  6
CONTINUOUS
 10
324.6925179101
 20
59.0478164321
  0
VERTEX
  8
2_FEATURE
 62
7
  6
CONTINUOUS
 10
324.1977676498
 20
59.3562180305
  0
VERTEX
  8
2_FEATURE
 62
7
  6
CONTINUOUS
 10
323.8012727649
 20
59.4927472674
  0
SEQEND
  0
LINE
  8
2_FEATURE
 62
7
  6
CONTINUOUS
 10
330.3923299123
 20
78.5927472674
 11
323.5923299123
 21
78.5927472674
  0
POLYLINE
  8
2_FEATURE
 62
7
  6
CONTINUOUS
 66
1
 70
0
  0
VERTEX
  8
2_FEATURE
 62
7
  6
CONTINUOUS
 10
326.5923299123
 20
67.1427472674
  0
VERTEX
  8
2_FEATURE
 62
7
  6
CONTINUOUS
 10
325.9125020392
 20
67.6817016685
  0
VERTEX
  8
2_FEATURE
 62
7
  6
CONTINUOUS
 10
325.245644266
 20
68.1968911336
  0
VERTEX
  8
2_FEATURE
 62
7
  6
CONTINUOUS
 10
324.6925179101
 20
68.5978164321
  0
VERTEX
  8
2_FEATURE
 62
7
  6
CONTINUOUS
 10
324.1977676498
 20
68.9062180305
  0
VERTEX
  8
2_FEATURE
 62
7
  6
CONTINUOUS
 10
323.8012727649
 20
69.0427472674
  0
SEQEND
  0
POLYLINE
  8
0
 62
7
  6
CONTINUOUS
 66
1
 70
0
  0
VERTEX
  8
0
 62
7
  6
CONTINUOUS
 10
323.8012727649
 20
160.7427472674
  0
VERTEX
  8
0
 62
7
  6
CONTINUOUS
 10
324.145683554
 20
160.8523782139
  0
VERTEX
  8
0
 62
7
  6
CONTINUOUS
 10
324.5948518715
 20
161.1214895616
  0
VERTEX
  8
0
 62
7
  6
CONTINUOUS
 10
325.1165090038
 20
161.4920091087
  0
VERTEX
  8
0
 62
7
  6
CONTINUOUS
 10
325.757810135
 20
161.982499363
  0
VERTEX
  8
0
 62
7
  6
CONTINUOUS
 10
326.5923299123
 20
162.6427472674
  0
SEQEND
  0
LINE
  8
2_FEATURE
 62
7
  6
CONTINUOUS
 10
330.3923299123
 20
84.3427472674
 11
323.5923299123
 21
84.3427472674
  0
POLYLINE
  8
2_FEATURE
 62
7
  6
CONTINUOUS
 66
1
 70
0
  0
VERTEX
  8
2_FEATURE
 62
7
  6
CONTINUOUS
 10
328.8918144347
 20
74.7927472674
  0
VERTEX
  8
2_FEATURE
 62
7
  6
CONTINUOUS
 10
328.7343036949
 20
74.8859693653
  0
VERTEX
  8
2_FEATURE
 62
7
  6
CONTINUOUS
 10
328.5931726669
 20
75.1539858644
  0
VERTEX
  8
2_FEATURE
 62
7
  6
CONTINUOUS
 10
328.4820103882
 20
75.5654023723
  0
SEQEND
  0
LINE
  8
2_FEATURE
 62
7
  6
CONTINUOUS
 10
330.3923299123
 20
88.1427472674
 11
323.5923299123
 21
88.1427472674
  0
POLYLINE
  8
2_FEATURE
 62
7
  6
CONTINUOUS
 66
1
 70
0
  0
VERTEX
  8
2_FEATURE
 62
7
  6
CONTINUOUS
 10
328.8918144347
 20
84.3427472674
  0
VERTEX
  8
2_FEATURE
 62
7
  6
CONTINUOUS
 10
328.7343036949
 20
84.4359693653
  0
VERTEX
  8
2_FEATURE
 62
7
  6
CONTINUOUS
 10
328.5931726669
 20
84.7039858644
  0
VERTEX
  8
2_FEATURE
 62
7
  6
CONTINUOUS
 10
328.4820103882
 20
85.1154023723
  0
SEQEND
  0
POLYLINE
  8
2_FEATURE
 62
7
  6
CONTINUOUS
 66
1
 70
0
  0
VERTEX
  8
2_FEATURE
 62
7
  6
CONTINUOUS
 10
326.5923299123
 20
76.6927472674
  0
VERTEX
  8
2_FEATURE
 62
7
  6
CONTINUOUS
 10
325.9125020392
 20
77.2317016685
  0
VERTEX
  8
2_FEATURE
 62
7
  6
CONTINUOUS
 10
325.245644266
 20
77.7468911336
  0
VERTEX
  8
2_FEATURE
 62
7
  6
CONTINUOUS
 10
324.6925179101
 20
78.1478164321
  0
VERTEX
  8
2_FEATURE
 62
7
  6
CONTINUOUS
 10
324.1977676498
 20
78.4562180305
  0
VERTEX
  8
2_FEATURE
 62
7
  6
CONTINUOUS
 10
323.8012727649
 20
78.5927472674
  0
SEQEND
  0
POLYLINE
  8
2_FEATURE
 62
7
  6
CONTINUOUS
 66
1
 70
0
  0
VERTEX
  8
2_FEATURE
 62
7
  6
CONTINUOUS
 10
327.9990474751
 20
48.0427472674
  0
VERTEX
  8
2_FEATURE
 62
7
  6
CONTINUOUS
 10
328.3076995274
 20
47.4151712891
  0
VERTEX
  8
2_FEATURE
 62
7
  6
CONTINUOUS
 10
328.4820103882
 20
46.9154023723
  0
SEQEND
  0
POLYLINE
  8
0
 62
7
  6
CONTINUOUS
 66
1
 70
0
  0
VERTEX
  8
0
 62
7
  6
CONTINUOUS
 10
323.8012727649
 20
151.1927472674
  0
VERTEX
  8
0
 62
7
  6
CONTINUOUS
 10
324.145683554
 20
151.3023782139
  0
VERTEX
  8
0
 62
7
  6
CONTINUOUS
 10
324.5948518715
 20
151.5714895616
  0
VERTEX
  8
0
 62
7
  6
CONTINUOUS
 10
325.1165090038
 20
151.9420091087
  0
VERTEX
  8
0
 62
7
  6
CONTINUOUS
 10
325.757810135
 20
152.432499363
  0
VERTEX
  8
0
 62
7
  6
CONTINUOUS
 10
326.5923299123
 20
153.0927472674
  0
SEQEND
  0
LINE
  8
2_FEATURE
 62
7
  6
CONTINUOUS
 10
330.3923299123
 20
93.8927472674
 11
323.5923299123
 21
93.8927472674
  0
POLYLINE
  8
2_FEATURE
 62
7
  6
CONTINUOUS
 66
1
 70
0
  0
VERTEX
  8
2_FEATURE
 62
7
  6
CONTINUOUS
 10
326.5923299123
 20
86.2427472674
  0
VERTEX
  8
2_FEATURE
 62
7
  6
CONTINUOUS
 10
325.9125020392
 20
86.7817016685
  0
VERTEX
  8
2_FEATURE
 62
7
  6
CONTINUOUS
 10
325.245644266
 20
87.2968911336
  0
VERTEX
  8
2_FEATURE
 62
7
  6
CONTINUOUS
 10
324.6925179101
 20
87.6978164321
  0
VERTEX
  8
2_FEATURE
 62
7
  6
CONTINUOUS
 10
324.1977676498
 20
88.0062180305
  0
VERTEX
  8
2_FEATURE
 62
7
  6
CONTINUOUS
 10
323.8012727649
 20
88.1427472674
  0
SEQEND
  0
POLYLINE
  8
2_FEATURE
 62
7
  6
CONTINUOUS
 66
1
 70
0
  0
VERTEX
  8
2_FEATURE
 62
7
  6
CONTINUOUS
 10
327.9990474751
 20
57.5927472674
  0
VERTEX
  8
2_FEATURE
 62
7
  6
CONTINUOUS
 10
328.3076995274
 20
56.9651712891
  0
VERTEX
  8
2_FEATURE
 62
7
  6
CONTINUOUS
 10
328.4820103882
 20
56.4654023723
  0
SEQEND
  0
POLYLINE
  8
0
 62
7
  6
CONTINUOUS
 66
1
 70
0
  0
VERTEX
  8
0
 62
7
  6
CONTINUOUS
 10
328.4820103882
 20
192.4200921624
  0
VERTEX
  8
0
 62
7
  6
CONTINUOUS
 10
328.3076786248
 20
191.9202763777
  0
VERTEX
  8
0
 62
7
  6
CONTINUOUS
 10
327.9990474751
 20
191.2927472674
  0
SEQEND
  0
LINE
  8
2_FEATURE
 62
7
  6
CONTINUOUS
 10
330.3923299123
 20
97.6927472674
 11
323.5923299123
 21
97.6927472674
  0
POLYLINE
  8
2_FEATURE
 62
7
  6
CONTINUOUS
 66
1
 70
0
  0
VERTEX
  8
2_FEATURE
 62
7
  6
CONTINUOUS
 10
328.8918144347
 20
93.8927472674
  0
VERTEX
  8
2_FEATURE
 62
7
  6
CONTINUOUS
 10
328.7343036949
 20
93.9859693653
  0
VERTEX
  8
2_FEATURE
 62
7
  6
CONTINUOUS
 10
328.5931726669
 20
94.2539858644
  0
VERTEX
  8
2_FEATURE
 62
7
  6
CONTINUOUS
 10
328.4820103882
 20
94.6654023723
  0
SEQEND
  0
POLYLINE
  8
2_FEATURE
 62
7
  6
CONTINUOUS
 66
1
 70
0
  0
VERTEX
  8
2_FEATURE
 62
7
  6
CONTINUOUS
 10
326.5923299123
 20
95.7927472674
  0
VERTEX
  8
2_FEATURE
 62
7
  6
CONTINUOUS
 10
325.9125020392
 20
96.3317016685
  0
VERTEX
  8
2_FEATURE
 62
7
  6
CONTINUOUS
 10
325.245644266
 20
96.8468911336
  0
VERTEX
  8
2_FEATURE
 62
7
  6
CONTINUOUS
 10
324.6925179101
 20
97.2478164321
  0
VERTEX
  8
2_FEATURE
 62
7
  6
CONTINUOUS
 10
324.1977676498
 20
97.5562180305
  0
VERTEX
  8
2_FEATURE
 62
7
  6
CONTINUOUS
 10
323.8012727649
 20
97.6927472674
  0
SEQEND
  0
POLYLINE
  8
2_FEATURE
 62
7
  6
CONTINUOUS
 66
1
 70
0
  0
VERTEX
  8
2_FEATURE
 62
7
  6
CONTINUOUS
 10
327.9990474751
 20
67.1427472674
  0
VERTEX
  8
2_FEATURE
 62
7
  6
CONTINUOUS
 10
328.3076995274
 20
66.5151712891
  0
VERTEX
  8
2_FEATURE
 62
7
  6
CONTINUOUS
 10
328.4820103882
 20
66.0154023723
  0
SEQEND
  0
POLYLINE
  8
0
 62
7
  6
CONTINUOUS
 66
1
 70
0
  0
VERTEX
  8
0
 62
7
  6
CONTINUOUS
 10
328.4820103882
 20
192.4200921624
  0
VERTEX
  8
0
 62
7
  6
CONTINUOUS
 10
328.5931664849
 20
192.8314919588
  0
VERTEX
  8
0
 62
7
  6
CONTINUOUS
 10
328.7342956982
 20
193.0995154593
  0
VERTEX
  8
0
 62
7
  6
CONTINUOUS
 10
328.8918144347
 20
193.1927472674
  0
SEQEND
  0
POLYLINE
  8
0
 62
7
  6
CONTINUOUS
 66
1
 70
0
  0
VERTEX
  8
0
 62
7
  6
CONTINUOUS
 10
328.4820103882
 20
182.8700921624
  0
VERTEX
  8
0
 62
7
  6
CONTINUOUS
 10
328.3076786248
 20
182.3702763777
  0
VERTEX
  8
0
 62
7
  6
CONTINUOUS
 10
327.9990474751
 20
181.7427472674
  0
SEQEND
  0
POLYLINE
  8
0
 62
7
  6
CONTINUOUS
 66
1
 70
0
  0
VERTEX
  8
0
 62
7
  6
CONTINUOUS
 10
323.8012727649
 20
141.6427472674
  0
VERTEX
  8
0
 62
7
  6
CONTINUOUS
 10
324.145683554
 20
141.7523782139
  0
VERTEX
  8
0
 62
7
  6
CONTINUOUS
 10
324.5948518715
 20
142.0214895616
  0
VERTEX
  8
0
 62
7
  6
CONTINUOUS
 10
325.1165090038
 20
142.3920091087
  0
VERTEX
  8
0
 62
7
  6
CONTINUOUS
 10
325.757810135
 20
142.882499363
  0
VERTEX
  8
0
 62
7
  6
CONTINUOUS
 10
326.5923299123
 20
143.5427472674
  0
SEQEND
  0
LINE
  8
2_FEATURE
 62
7
  6
CONTINUOUS
 10
330.3923299123
 20
103.4427472674
 11
323.5923299123
 21
103.4427472674
  0
LINE
  8
2_FEATURE
 62
7
  6
CONTINUOUS
 10
330.3923299123
 20
107.2427472674
 11
323.5923299123
 21
107.2427472674
  0
POLYLINE
  8
2_FEATURE
 62
7
  6
CONTINUOUS
 66
1
 70
0
  0
VERTEX
  8
2_FEATURE
 62
7
  6
CONTINUOUS
 10
327.9990474751
 20
76.6927472674
  0
VERTEX
  8
2_FEATURE
 62
7
  6
CONTINUOUS
 10
328.3076995274
 20
76.0651712891
  0
VERTEX
  8
2_FEATURE
 62
7
  6
CONTINUOUS
 10
328.4820103882
 20
75.5654023723
  0
SEQEND
  0
POLYLINE
  8
0
 62
7
  6
CONTINUOUS
 66
1
 70
0
  0
VERTEX
  8
0
 62
7
  6
CONTINUOUS
 10
328.4820103882
 20
182.8700921624
  0
VERTEX
  8
0
 62
7
  6
CONTINUOUS
 10
328.5931664849
 20
183.2814919588
  0
VERTEX
  8
0
 62
7
  6
CONTINUOUS
 10
328.7342956982
 20
183.5495154593
  0
VERTEX
  8
0
 62
7
  6
CONTINUOUS
 10
328.8918144347
 20
183.6427472674
  0
SEQEND
  0
POLYLINE
  8
0
 62
7
  6
CONTINUOUS
 66
1
 70
0
  0
VERTEX
  8
0
 62
7
  6
CONTINUOUS
 10
328.4820103882
 20
173.3200921624
  0
VERTEX
  8
0
 62
7
  6
CONTINUOUS
 10
328.5931664849
 20
173.7314919588
  0
VERTEX
  8
0
 62
7
  6
CONTINUOUS
 10
328.7342956982
 20
173.9995154593
  0
VERTEX
  8
0
 62
7
  6
CONTINUOUS
 10
328.8918144347
 20
174.0927472674
  0
SEQEND
  0
POLYLINE
  8
0
 62
7
  6
CONTINUOUS
 66
1
 70
0
  0
VERTEX
  8
0
 62
7
  6
CONTINUOUS
 10
328.4820103882
 20
173.3200921624
  0
VERTEX
  8
0
 62
7
  6
CONTINUOUS
 10
328.3076786248
 20
172.8202763777
  0
VERTEX
  8
0
 62
7
  6
CONTINUOUS
 10
327.9990474751
 20
172.1927472674
  0
SEQEND
  0
POLYLINE
  8
0
 62
7
  6
CONTINUOUS
 66
1
 70
0
  0
VERTEX
  8
0
 62
7
  6
CONTINUOUS
 10
328.4820103882
 20
163.7700921624
  0
VERTEX
  8
0
 62
7
  6
CONTINUOUS
 10
328.3076786248
 20
163.2702763777
  0
VERTEX
  8
0
 62
7
  6
CONTINUOUS
 10
327.9990474751
 20
162.6427472674
  0
SEQEND
  0
POLYLINE
  8
0
 62
7
  6
CONTINUOUS
 66
1
 70
0
  0
VERTEX
  8
0
 62
7
  6
CONTINUOUS
 10
323.8012727649
 20
132.0927472674
  0
VERTEX
  8
0
 62
7
  6
CONTINUOUS
 10
324.145683554
 20
132.2023782139
  0
VERTEX
  8
0
 62
7
  6
CONTINUOUS
 10
324.5948518715
 20
132.4714895616
  0
VERTEX
  8
0
 62
7
  6
CONTINUOUS
 10
325.1165090038
 20
132.8420091087
  0
VERTEX
  8
0
 62
7
  6
CONTINUOUS
 10
325.757810135
 20
133.332499363
  0
VERTEX
  8
0
 62
7
  6
CONTINUOUS
 10
326.5923299123
 20
133.9927472674
  0
SEQEND
  0
POLYLINE
  8
2_FEATURE
 62
7
  6
CONTINUOUS
 66
1
 70
0
  0
VERTEX
  8
2_FEATURE
 62
7
  6
CONTINUOUS
 10
328.8918144347
 20
103.4427472674
  0
VERTEX
  8
2_FEATURE
 62
7
  6
CONTINUOUS
 10
328.7343036949
 20
103.5359693653
  0
VERTEX
  8
2_FEATURE
 62
7
  6
CONTINUOUS
 10
328.5931726669
 20
103.8039858644
  0
VERTEX
  8
2_FEATURE
 62
7
  6
CONTINUOUS
 10
328.4820103882
 20
104.2154023723
  0
SEQEND
  0
POLYLINE
  8
2_FEATURE
 62
7
  6
CONTINUOUS
 66
1
 70
0
  0
VERTEX
  8
2_FEATURE
 62
7
  6
CONTINUOUS
 10
326.5923299123
 20
105.3427472674
  0
VERTEX
  8
2_FEATURE
 62
7
  6
CONTINUOUS
 10
325.9125020392
 20
105.8817016685
  0
VERTEX
  8
2_FEATURE
 62
7
  6
CONTINUOUS
 10
325.245644266
 20
106.3968911336
  0
VERTEX
  8
2_FEATURE
 62
7
  6
CONTINUOUS
 10
324.6925179101
 20
106.7978164321
  0
VERTEX
  8
2_FEATURE
 62
7
  6
CONTINUOUS
 10
324.1977676498
 20
107.1062180305
  0
VERTEX
  8
2_FEATURE
 62
7
  6
CONTINUOUS
 10
323.8012727649
 20
107.2427472674
  0
SEQEND
  0
POLYLINE
  8
2_FEATURE
 62
7
  6
CONTINUOUS
 66
1
 70
0
  0
VERTEX
  8
2_FEATURE
 62
7
  6
CONTINUOUS
 10
327.9990474751
 20
86.2427472674
  0
VERTEX
  8
2_FEATURE
 62
7
  6
CONTINUOUS
 10
328.3076995274
 20
85.6151712891
  0
VERTEX
  8
2_FEATURE
 62
7
  6
CONTINUOUS
 10
328.4820103882
 20
85.1154023723
  0
SEQEND
  0
LINE
  8
2_FEATURE
 62
7
  6
CONTINUOUS
 10
320.5923299123
 20
46.1427472674
 11
320.5923299123
 21
197.6427472674
  0
LINE
  8
2_FEATURE
 62
7
  6
CONTINUOUS
 10
321.0923299123
 20
197.6427472674
 11
321.0923299123
 21
46.1427472674
  0
POLYLINE
  8
0
 62
7
  6
CONTINUOUS
 66
1
 70
0
  0
VERTEX
  8
0
 62
7
  6
CONTINUOUS
 10
328.4820103882
 20
163.7700921624
  0
VERTEX
  8
0
 62
7
  6
CONTINUOUS
 10
328.5931664849
 20
164.1814919588
  0
VERTEX
  8
0
 62
7
  6
CONTINUOUS
 10
328.7342956982
 20
164.4495154593
  0
VERTEX
  8
0
 62
7
  6
CONTINUOUS
 10
328.8918144347
 20
164.5427472674
  0
SEQEND
  0
POLYLINE
  8
0
 62
7
  6
CONTINUOUS
 66
1
 70
0
  0
VERTEX
  8
0
 62
7
  6
CONTINUOUS
 10
328.4820103882
 20
154.2200921624
  0
VERTEX
  8
0
 62
7
  6
CONTINUOUS
 10
328.5931664849
 20
154.6314919588
  0
VERTEX
  8
0
 62
7
  6
CONTINUOUS
 10
328.7342956982
 20
154.8995154593
  0
VERTEX
  8
0
 62
7
  6
CONTINUOUS
 10
328.8918144347
 20
154.9927472674
  0
SEQEND
  0
POLYLINE
  8
0
 62
7
  6
CONTINUOUS
 66
1
 70
0
  0
VERTEX
  8
0
 62
7
  6
CONTINUOUS
 10
328.4820103882
 20
154.2200921624
  0
VERTEX
  8
0
 62
7
  6
CONTINUOUS
 10
328.3076786248
 20
153.7202763777
  0
VERTEX
  8
0
 62
7
  6
CONTINUOUS
 10
327.9990474751
 20
153.0927472674
  0
SEQEND
  0
POLYLINE
  8
0
 62
7
  6
CONTINUOUS
 66
1
 70
0
  0
VERTEX
  8
0
 62
7
  6
CONTINUOUS
 10
328.4820103882
 20
144.6700921624
  0
VERTEX
  8
0
 62
7
  6
CONTINUOUS
 10
328.3076786248
 20
144.1702763777
  0
VERTEX
  8
0
 62
7
  6
CONTINUOUS
 10
327.9990474751
 20
143.5427472674
  0
SEQEND
  0
LINE
  8
2_FEATURE
 62
7
  6
CONTINUOUS
 10
330.3923299123
 20
112.9927472674
 11
323.5923299123
 21
112.9927472674
  0
LINE
  8
2_FEATURE
 62
7
  6
CONTINUOUS
 10
330.3923299123
 20
116.7927472674
 11
323.5923299123
 21
116.7927472674
  0
POLYLINE
  8
2_FEATURE
 62
7
  6
CONTINUOUS
 66
1
 70
0
  0
VERTEX
  8
2_FEATURE
 62
7
  6
CONTINUOUS
 10
328.8918144347
 20
112.9927472674
  0
VERTEX
  8
2_FEATURE
 62
7
  6
CONTINUOUS
 10
328.7343036949
 20
113.0859693653
  0
VERTEX
  8
2_FEATURE
 62
7
  6
CONTINUOUS
 10
328.5931726669
 20
113.3539858644
  0
VERTEX
  8
2_FEATURE
 62
7
  6
CONTINUOUS
 10
328.4820103882
 20
113.7654023723
  0
SEQEND
  0
POLYLINE
  8
2_FEATURE
 62
7
  6
CONTINUOUS
 66
1
 70
0
  0
VERTEX
  8
2_FEATURE
 62
7
  6
CONTINUOUS
 10
326.5923299123
 20
114.8927472674
  0
VERTEX
  8
2_FEATURE
 62
7
  6
CONTINUOUS
 10
325.9125020392
 20
115.4317016685
  0
VERTEX
  8
2_FEATURE
 62
7
  6
CONTINUOUS
 10
325.245644266
 20
115.9468911336
  0
VERTEX
  8
2_FEATURE
 62
7
  6
CONTINUOUS
 10
324.6925179101
 20
116.3478164321
  0
VERTEX
  8
2_FEATURE
 62
7
  6
CONTINUOUS
 10
324.1977676498
 20
116.6562180305
  0
VERTEX
  8
2_FEATURE
 62
7
  6
CONTINUOUS
 10
323.8012727649
 20
116.7927472674
  0
SEQEND
  0
POLYLINE
  8
2_FEATURE
 62
7
  6
CONTINUOUS
 66
1
 70
0
  0
VERTEX
  8
2_FEATURE
 62
7
  6
CONTINUOUS
 10
327.9990474751
 20
95.7927472674
  0
VERTEX
  8
2_FEATURE
 62
7
  6
CONTINUOUS
 10
328.3076995274
 20
95.1651712891
  0
VERTEX
  8
2_FEATURE
 62
7
  6
CONTINUOUS
 10
328.4820103882
 20
94.6654023723
  0
SEQEND
  0
POLYLINE
  8
2_FEATURE
 62
7
  6
CONTINUOUS
 66
1
 70
0
  0
VERTEX
  8
2_FEATURE
 62
7
  6
CONTINUOUS
 10
327.9990474751
 20
105.3427472674
  0
VERTEX
  8
2_FEATURE
 62
7
  6
CONTINUOUS
 10
328.3076995274
 20
104.7151712891
  0
VERTEX
  8
2_FEATURE
 62
7
  6
CONTINUOUS
 10
328.4820103882
 20
104.2154023723
  0
SEQEND
  0
LINE
  8
2_FEATURE
 62
7
  6
CONTINUOUS
 10
323.1223299123
 20
197.6427472674
 11
323.1223299123
 21
46.1427472674
  0
LINE
  8
0
 62
7
  6
CONTINUOUS
 10
323.5923299123
 20
193.1927472674
 11
323.5923299123
 21
189.3927472674
  0
LINE
  8
0
 62
7
  6
CONTINUOUS
 10
323.5923299123
 20
183.6427472674
 11
323.5923299123
 21
179.8427472674
  0
LINE
  8
0
 62
7
  6
CONTINUOUS
 10
323.5923299123
 20
174.0927472674
 11
323.5923299123
 21
170.2927472674
  0
LINE
  8
0
 62
7
  6
CONTINUOUS
 10
323.5923299123
 20
164.5427472674
 11
323.5923299123
 21
160.7427472674
  0
LINE
  8
0
 62
7
  6
CONTINUOUS
 10
323.5923299123
 20
154.9927472674
 11
323.5923299123
 21
151.1927472674
  0
LINE
  8
0
 62
7
  6
CONTINUOUS
 10
323.5923299123
 20
145.4427472674
 11
323.5923299123
 21
141.6427472674
  0
LINE
  8
0
 62
7
  6
CONTINUOUS
 10
323.5923299123
 20
135.8927472674
 11
323.5923299123
 21
132.0927472674
  0
LINE
  8
0
 62
7
  6
CONTINUOUS
 10
323.5923299123
 20
126.3427472674
 11
323.5923299123
 21
122.5427472674
  0
LINE
  8
2_FEATURE
 62
7
  6
CONTINUOUS
 10
323.5923299123
 20
116.7927472674
 11
323.5923299123
 21
112.9927472674
  0
LINE
  8
2_FEATURE
 62
7
  6
CONTINUOUS
 10
323.5923299123
 20
107.2427472674
 11
323.5923299123
 21
103.4427472674
  0
LINE
  8
2_FEATURE
 62
7
  6
CONTINUOUS
 10
323.5923299123
 20
97.6927472674
 11
323.5923299123
 21
93.8927472674
  0
LINE
  8
2_FEATURE
 62
7
  6
CONTINUOUS
 10
323.5923299123
 20
88.1427472674
 11
323.5923299123
 21
84.3427472674
  0
LINE
  8
2_FEATURE
 62
7
  6
CONTINUOUS
 10
323.5923299123
 20
78.5927472674
 11
323.5923299123
 21
74.7927472674
  0
LINE
  8
2_FEATURE
 62
7
  6
CONTINUOUS
 10
323.5923299123
 20
69.0427472674
 11
323.5923299123
 21
65.2427472674
  0
LINE
  8
2_FEATURE
 62
7
  6
CONTINUOUS
 10
323.5923299123
 20
59.4927472674
 11
323.5923299123
 21
55.6927472674
  0
LINE
  8
2_FEATURE
 62
7
  6
CONTINUOUS
 10
323.5923299123
 20
49.9427472674
 11
323.5923299123
 21
46.1427472674
  0
POLYLINE
  8
0
 62
7
  6
CONTINUOUS
 66
1
 70
0
  0
VERTEX
  8
0
 62
7
  6
CONTINUOUS
 10
328.4820103882
 20
144.6700921624
  0
VERTEX
  8
0
 62
7
  6
CONTINUOUS
 10
328.5931664849
 20
145.0814919588
  0
VERTEX
  8
0
 62
7
  6
CONTINUOUS
 10
328.7342956982
 20
145.3495154593
  0
VERTEX
  8
0
 62
7
  6
CONTINUOUS
 10
328.8918144347
 20
145.4427472674
  0
SEQEND
  0
POLYLINE
  8
0
 62
7
  6
CONTINUOUS
 66
1
 70
0
  0
VERTEX
  8
0
 62
7
  6
CONTINUOUS
 10
328.4820103882
 20
135.1200921624
  0
VERTEX
  8
0
 62
7
  6
CONTINUOUS
 10
328.5931664849
 20
135.5314919588
  0
VERTEX
  8
0
 62
7
  6
CONTINUOUS
 10
328.7342956982
 20
135.7995154593
  0
VERTEX
  8
0
 62
7
  6
CONTINUOUS
 10
328.8918144347
 20
135.8927472674
  0
SEQEND
  0
POLYLINE
  8
0
 62
7
  6
CONTINUOUS
 66
1
 70
0
  0
VERTEX
  8
0
 62
7
  6
CONTINUOUS
 10
328.4820103882
 20
135.1200921624
  0
VERTEX
  8
0
 62
7
  6
CONTINUOUS
 10
328.3076786248
 20
134.6202763777
  0
VERTEX
  8
0
 62
7
  6
CONTINUOUS
 10
327.9990474751
 20
133.9927472674
  0
SEQEND
  0
POLYLINE
  8
0
 62
7
  6
CONTINUOUS
 66
1
 70
0
  0
VERTEX
  8
0
 62
7
  6
CONTINUOUS
 10
323.8012727649
 20
122.5427472674
  0
VERTEX
  8
0
 62
7
  6
CONTINUOUS
 10
324.145683554
 20
122.6523782139
  0
VERTEX
  8
0
 62
7
  6
CONTINUOUS
 10
324.5948518715
 20
122.9214895616
  0
VERTEX
  8
0
 62
7
  6
CONTINUOUS
 10
325.1165090038
 20
123.2920091087
  0
VERTEX
  8
0
 62
7
  6
CONTINUOUS
 10
325.757810135
 20
123.782499363
  0
VERTEX
  8
0
 62
7
  6
CONTINUOUS
 10
326.5923299123
 20
124.4427472674
  0
SEQEND
  0
LINE
  8
0
 62
7
  6
CONTINUOUS
 10
330.3923299123
 20
122.5427472674
 11
323.5923299123
 21
122.5427472674
  0
POLYLINE
  8
2_FEATURE
 62
7
  6
CONTINUOUS
 66
1
 70
0
  0
VERTEX
  8
2_FEATURE
 62
7
  6
CONTINUOUS
 10
327.9990474751
 20
114.8927472674
  0
VERTEX
  8
2_FEATURE
 62
7
  6
CONTINUOUS
 10
328.3076995274
 20
114.2651712891
  0
VERTEX
  8
2_FEATURE
 62
7
  6
CONTINUOUS
 10
328.4820103882
 20
113.7654023723
  0
SEQEND
  0
LINE
  8
0
 62
7
  6
CONTINUOUS
 10
327.8923299123
 20
189.3927472674
 11
327.8923299123
 21
183.6427472674
  0
LINE
  8
0
 62
7
  6
CONTINUOUS
 10
327.8923299123
 20
179.8427472674
 11
327.8923299123
 21
174.0927472674
  0
LINE
  8
0
 62
7
  6
CONTINUOUS
 10
327.8923299123
 20
170.2927472674
 11
327.8923299123
 21
164.5427472674
  0
LINE
  8
0
 62
7
  6
CONTINUOUS
 10
327.8923299123
 20
160.7427472674
 11
327.8923299123
 21
154.9927472674
  0
LINE
  8
0
 62
7
  6
CONTINUOUS
 10
327.8923299123
 20
151.1927472674
 11
327.8923299123
 21
145.4427472674
  0
LINE
  8
0
 62
7
  6
CONTINUOUS
 10
327.8923299123
 20
141.6427472674
 11
327.8923299123
 21
135.8927472674
  0
LINE
  8
0
 62
7
  6
CONTINUOUS
 10
327.8923299123
 20
132.0927472674
 11
327.8923299123
 21
126.3427472674
  0
LINE
  8
0
 62
7
  6
CONTINUOUS
 10
327.8923299123
 20
122.5427472674
 11
327.8923299123
 21
116.7927472674
  0
LINE
  8
2_FEATURE
 62
7
  6
CONTINUOUS
 10
327.8923299123
 20
112.9927472674
 11
327.8923299123
 21
107.2427472674
  0
LINE
  8
2_FEATURE
 62
7
  6
CONTINUOUS
 10
327.8923299123
 20
103.4427472674
 11
327.8923299123
 21
97.6927472674
  0
LINE
  8
2_FEATURE
 62
7
  6
CONTINUOUS
 10
327.8923299123
 20
93.8927472674
 11
327.8923299123
 21
88.1427472674
  0
LINE
  8
2_FEATURE
 62
7
  6
CONTINUOUS
 10
327.8923299123
 20
84.3427472674
 11
327.8923299123
 21
78.5927472674
  0
LINE
  8
2_FEATURE
 62
7
  6
CONTINUOUS
 10
327.8923299123
 20
74.7927472674
 11
327.8923299123
 21
69.0427472674
  0
LINE
  8
2_FEATURE
 62
7
  6
CONTINUOUS
 10
327.8923299123
 20
65.2427472674
 11
327.8923299123
 21
59.4927472674
  0
LINE
  8
2_FEATURE
 62
7
  6
CONTINUOUS
 10
327.8923299123
 20
55.6927472674
 11
327.8923299123
 21
49.9427472674
  0
LINE
  8
0
 62
7
  6
CONTINUOUS
 10
327.8923299123
 20
193.1927472674
 11
327.8923299123
 21
197.6427472674
  0
LINE
  8
0
 62
7
  6
CONTINUOUS
 10
330.3923299123
 20
197.6427472674
 11
330.3923299123
 21
116.7927472674
  0
LINE
  8
2_FEATURE
 62
7
  6
CONTINUOUS
 10
330.3923299123
 20
116.7927472674
 11
330.3923299123
 21
46.1427472674
  0
POLYLINE
  8
0
 62
7
  6
CONTINUOUS
 66
1
 70
0
  0
VERTEX
  8
0
 62
7
  6
CONTINUOUS
 10
328.4820103882
 20
125.5700921624
  0
VERTEX
  8
0
 62
7
  6
CONTINUOUS
 10
328.5931664849
 20
125.9814919588
  0
VERTEX
  8
0
 62
7
  6
CONTINUOUS
 10
328.7342956982
 20
126.2495154593
  0
VERTEX
  8
0
 62
7
  6
CONTINUOUS
 10
328.8918144347
 20
126.3427472674
  0
SEQEND
  0
POLYLINE
  8
2_FEATURE
 62
7
  6
CONTINUOUS
 66
1
 70
0
  0
VERTEX
  8
2_FEATURE
 62
7
  6
CONTINUOUS
 10
328.4820103882
 20
116.0200921624
  0
VERTEX
  8
2_FEATURE
 62
7
  6
CONTINUOUS
 10
328.5931664849
 20
116.4314919588
  0
VERTEX
  8
2_FEATURE
 62
7
  6
CONTINUOUS
 10
328.7342956982
 20
116.6995154593
  0
VERTEX
  8
2_FEATURE
 62
7
  6
CONTINUOUS
 10
328.8918144347
 20
116.7927472674
  0
SEQEND
  0
POLYLINE
  8
0
 62
7
  6
CONTINUOUS
 66
1
 70
0
  0
VERTEX
  8
0
 62
7
  6
CONTINUOUS
 10
328.4820103882
 20
125.5700921624
  0
VERTEX
  8
0
 62
7
  6
CONTINUOUS
 10
328.3076786248
 20
125.0702763777
  0
VERTEX
  8
0
 62
7
  6
CONTINUOUS
 10
327.9990474751
 20
124.4427472674
  0
SEQEND
  0
POLYLINE
  8
2_FEATURE
 62
7
  6
CONTINUOUS
 66
1
 70
0
  0
VERTEX
  8
2_FEATURE
 62
7
  6
CONTINUOUS
 10
328.4820103882
 20
116.0200921624
  0
VERTEX
  8
2_FEATURE
 62
7
  6
CONTINUOUS
 10
328.3076786248
 20
115.5202763777
  0
VERTEX
  8
2_FEATURE
 62
7
  6
CONTINUOUS
 10
327.9990474751
 20
114.8927472674
  0
SEQEND
  0
LINE
  8
0
 62
7
  6
CONTINUOUS
 10
330.3923299123
 20
126.3427472674
 11
323.5923299123
 21
126.3427472674
  0
POLYLINE
  8
0
 62
7
  6
CONTINUOUS
 66
1
 70
0
  0
VERTEX
  8
0
 62
7
  6
CONTINUOUS
 10
328.8918144347
 20
122.5427472674
  0
VERTEX
  8
0
 62
7
  6
CONTINUOUS
 10
328.7343036949
 20
122.6359693653
  0
VERTEX
  8
0
 62
7
  6
CONTINUOUS
 10
328.5931726669
 20
122.9039858644
  0
VERTEX
  8
0
 62
7
  6
CONTINUOUS
 10
328.4820103882
 20
123.3154023723
  0
SEQEND
  0
POLYLINE
  8
0
 62
7
  6
CONTINUOUS
 66
1
 70
0
  0
VERTEX
  8
0
 62
7
  6
CONTINUOUS
 10
326.5923299123
 20
124.4427472674
  0
VERTEX
  8
0
 62
7
  6
CONTINUOUS
 10
325.9125020392
 20
124.9817016685
  0
VERTEX
  8
0
 62
7
  6
CONTINUOUS
 10
325.245644266
 20
125.4968911336
  0
VERTEX
  8
0
 62
7
  6
CONTINUOUS
 10
324.6925179101
 20
125.8978164321
  0
VERTEX
  8
0
 62
7
  6
CONTINUOUS
 10
324.1977676498
 20
126.2062180305
  0
VERTEX
  8
0
 62
7
  6
CONTINUOUS
 10
323.8012727649
 20
126.3427472674
  0
SEQEND
  0
POLYLINE
  8
0
 62
7
  6
CONTINUOUS
 66
1
 70
0
  0
VERTEX
  8
0
 62
7
  6
CONTINUOUS
 10
327.9990474751
 20
124.4427472674
  0
VERTEX
  8
0
 62
7
  6
CONTINUOUS
 10
328.3076995274
 20
123.8151712891
  0
VERTEX
  8
0
 62
7
  6
CONTINUOUS
 10
328.4820103882
 20
123.3154023723
  0
SEQEND
  0
POLYLINE
  8
2_FEATURE
 62
7
  6
CONTINUOUS
 66
1
 70
0
  0
VERTEX
  8
2_FEATURE
 62
7
  6
CONTINUOUS
 10
328.4820103882
 20
106.4700921624
  0
VERTEX
  8
2_FEATURE
 62
7
  6
CONTINUOUS
 10
328.5931664849
 20
106.8814919588
  0
VERTEX
  8
2_FEATURE
 62
7
  6
CONTINUOUS
 10
328.7342956982
 20
107.1495154593
  0
VERTEX
  8
2_FEATURE
 62
7
  6
CONTINUOUS
 10
328.8918144347
 20
107.2427472674
  0
SEQEND
  0
POLYLINE
  8
2_FEATURE
 62
7
  6
CONTINUOUS
 66
1
 70
0
  0
VERTEX
  8
2_FEATURE
 62
7
  6
CONTINUOUS
 10
328.4820103882
 20
96.9200921624
  0
VERTEX
  8
2_FEATURE
 62
7
  6
CONTINUOUS
 10
328.5931664849
 20
97.3314919588
  0
VERTEX
  8
2_FEATURE
 62
7
  6
CONTINUOUS
 10
328.7342956982
 20
97.5995154593
  0
VERTEX
  8
2_FEATURE
 62
7
  6
CONTINUOUS
 10
328.8918144347
 20
97.6927472674
  0
SEQEND
  0
POLYLINE
  8
2_FEATURE
 62
7
  6
CONTINUOUS
 66
1
 70
0
  0
VERTEX
  8
2_FEATURE
 62
7
  6
CONTINUOUS
 10
328.4820103882
 20
106.4700921624
  0
VERTEX
  8
2_FEATURE
 62
7
  6
CONTINUOUS
 10
328.3076786248
 20
105.9702763777
  0
VERTEX
  8
2_FEATURE
 62
7
  6
CONTINUOUS
 10
327.9990474751
 20
105.3427472674
  0
SEQEND
  0
POLYLINE
  8
2_FEATURE
 62
7
  6
CONTINUOUS
 66
1
 70
0
  0
VERTEX
  8
2_FEATURE
 62
7
  6
CONTINUOUS
 10
323.8012727649
 20
112.9927472674
  0
VERTEX
  8
2_FEATURE
 62
7
  6
CONTINUOUS
 10
324.145683554
 20
113.1023782139
  0
VERTEX
  8
2_FEATURE
 62
7
  6
CONTINUOUS
 10
324.5948518715
 20
113.3714895616
  0
VERTEX
  8
2_FEATURE
 62
7
  6
CONTINUOUS
 10
325.1165090038
 20
113.7420091087
  0
VERTEX
  8
2_FEATURE
 62
7
  6
CONTINUOUS
 10
325.757810135
 20
114.232499363
  0
VERTEX
  8
2_FEATURE
 62
7
  6
CONTINUOUS
 10
326.5923299123
 20
114.8927472674
  0
SEQEND
  0
LINE
  8
0
 62
7
  6
CONTINUOUS
 10
330.3923299123
 20
132.0927472674
 11
323.5923299123
 21
132.0927472674
  0
POLYLINE
  8
0
 62
7
  6
CONTINUOUS
 66
1
 70
0
  0
VERTEX
  8
0
 62
7
  6
CONTINUOUS
 10
328.8918144347
 20
132.0927472674
  0
VERTEX
  8
0
 62
7
  6
CONTINUOUS
 10
328.7343036949
 20
132.1859693653
  0
VERTEX
  8
0
 62
7
  6
CONTINUOUS
 10
328.5931726669
 20
132.4539858644
  0
VERTEX
  8
0
 62
7
  6
CONTINUOUS
 10
328.4820103882
 20
132.8654023723
  0
SEQEND
  0
POLYLINE
  8
0
 62
7
  6
CONTINUOUS
 66
1
 70
0
  0
VERTEX
  8
0
 62
7
  6
CONTINUOUS
 10
326.5923299123
 20
133.9927472674
  0
VERTEX
  8
0
 62
7
  6
CONTINUOUS
 10
325.9125020392
 20
134.5317016685
  0
VERTEX
  8
0
 62
7
  6
CONTINUOUS
 10
325.245644266
 20
135.0468911336
  0
VERTEX
  8
0
 62
7
  6
CONTINUOUS
 10
324.6925179101
 20
135.4478164321
  0
VERTEX
  8
0
 62
7
  6
CONTINUOUS
 10
324.1977676498
 20
135.7562180305
  0
VERTEX
  8
0
 62
7
  6
CONTINUOUS
 10
323.8012727649
 20
135.8927472674
  0
SEQEND
  0
POLYLINE
  8
0
 62
7
  6
CONTINUOUS
 66
1
 70
0
  0
VERTEX
  8
0
 62
7
  6
CONTINUOUS
 10
327.9990474751
 20
133.9927472674
  0
VERTEX
  8
0
 62
7
  6
CONTINUOUS
 10
328.3076995274
 20
133.3651712891
  0
VERTEX
  8
0
 62
7
  6
CONTINUOUS
 10
328.4820103882
 20
132.8654023723
  0
SEQEND
  0
POLYLINE
  8
2_FEATURE
 62
7
  6
CONTINUOUS
 66
1
 70
0
  0
VERTEX
  8
2_FEATURE
 62
7
  6
CONTINUOUS
 10
328.4820103882
 20
87.3700921624
  0
VERTEX
  8
2_FEATURE
 62
7
  6
CONTINUOUS
 10
328.5931664849
 20
87.7814919588
  0
VERTEX
  8
2_FEATURE
 62
7
  6
CONTINUOUS
 10
328.7342956982
 20
88.0495154593
  0
VERTEX
  8
2_FEATURE
 62
7
  6
CONTINUOUS
 10
328.8918144347
 20
88.1427472674
  0
SEQEND
  0
POLYLINE
  8
2_FEATURE
 62
7
  6
CONTINUOUS
 66
1
 70
0
  0
VERTEX
  8
2_FEATURE
 62
7
  6
CONTINUOUS
 10
328.4820103882
 20
77.8200921624
  0
VERTEX
  8
2_FEATURE
 62
7
  6
CONTINUOUS
 10
328.5931664849
 20
78.2314919588
  0
VERTEX
  8
2_FEATURE
 62
7
  6
CONTINUOUS
 10
328.7342956982
 20
78.4995154593
  0
VERTEX
  8
2_FEATURE
 62
7
  6
CONTINUOUS
 10
328.8918144347
 20
78.5927472674
  0
SEQEND
  0
POLYLINE
  8
2_FEATURE
 62
7
  6
CONTINUOUS
 66
1
 70
0
  0
VERTEX
  8
2_FEATURE
 62
7
  6
CONTINUOUS
 10
328.4820103882
 20
96.9200921624
  0
VERTEX
  8
2_FEATURE
 62
7
  6
CONTINUOUS
 10
328.3076786248
 20
96.4202763777
  0
VERTEX
  8
2_FEATURE
 62
7
  6
CONTINUOUS
 10
327.9990474751
 20
95.7927472674
  0
SEQEND
  0
POLYLINE
  8
2_FEATURE
 62
7
  6
CONTINUOUS
 66
1
 70
0
  0
VERTEX
  8
2_FEATURE
 62
7
  6
CONTINUOUS
 10
328.4820103882
 20
87.3700921624
  0
VERTEX
  8
2_FEATURE
 62
7
  6
CONTINUOUS
 10
328.3076786248
 20
86.8702763777
  0
VERTEX
  8
2_FEATURE
 62
7
  6
CONTINUOUS
 10
327.9990474751
 20
86.2427472674
  0
SEQEND
  0
LINE
  8
0
 62
7
  6
CONTINUOUS
 10
330.3923299123
 20
135.8927472674
 11
323.5923299123
 21
135.8927472674
  0
POLYLINE
  8
0
 62
7
  6
CONTINUOUS
 66
1
 70
0
  0
VERTEX
  8
0
 62
7
  6
CONTINUOUS
 10
327.9990474751
 20
143.5427472674
  0
VERTEX
  8
0
 62
7
  6
CONTINUOUS
 10
328.3076995274
 20
142.9151712891
  0
VERTEX
  8
0
 62
7
  6
CONTINUOUS
 10
328.4820103882
 20
142.4154023723
  0
SEQEND
  0
POLYLINE
  8
2_FEATURE
 62
7
  6
CONTINUOUS
 66
1
 70
0
  0
VERTEX
  8
2_FEATURE
 62
7
  6
CONTINUOUS
 10
328.4820103882
 20
68.2700921624
  0
VERTEX
  8
2_FEATURE
 62
7
  6
CONTINUOUS
 10
328.5931664849
 20
68.6814919588
  0
VERTEX
  8
2_FEATURE
 62
7
  6
CONTINUOUS
 10
328.7342956982
 20
68.9495154593
  0
VERTEX
  8
2_FEATURE
 62
7
  6
CONTINUOUS
 10
328.8918144347
 20
69.0427472674
  0
SEQEND
  0
POLYLINE
  8
2_FEATURE
 62
7
  6
CONTINUOUS
 66
1
 70
0
  0
VERTEX
  8
2_FEATURE
 62
7
  6
CONTINUOUS
 10
328.4820103882
 20
58.7200921624
  0
VERTEX
  8
2_FEATURE
 62
7
  6
CONTINUOUS
 10
328.5931664849
 20
59.1314919588
  0
VERTEX
  8
2_FEATURE
 62
7
  6
CONTINUOUS
 10
328.7342956982
 20
59.3995154593
  0
VERTEX
  8
2_FEATURE
 62
7
  6
CONTINUOUS
 10
328.8918144347
 20
59.4927472674
  0
SEQEND
  0
POLYLINE
  8
2_FEATURE
 62
7
  6
CONTINUOUS
 66
1
 70
0
  0
VERTEX
  8
2_FEATURE
 62
7
  6
CONTINUOUS
 10
328.4820103882
 20
77.8200921624
  0
VERTEX
  8
2_FEATURE
 62
7
  6
CONTINUOUS
 10
328.3076786248
 20
77.3202763777
  0
VERTEX
  8
2_FEATURE
 62
7
  6
CONTINUOUS
 10
327.9990474751
 20
76.6927472674
  0
SEQEND
  0
POLYLINE
  8
2_FEATURE
 62
7
  6
CONTINUOUS
 66
1
 70
0
  0
VERTEX
  8
2_FEATURE
 62
7
  6
CONTINUOUS
 10
328.4820103882
 20
68.2700921624
  0
VERTEX
  8
2_FEATURE
 62
7
  6
CONTINUOUS
 10
328.3076786248
 20
67.7702763777
  0
VERTEX
  8
2_FEATURE
 62
7
  6
CONTINUOUS
 10
327.9990474751
 20
67.1427472674
  0
SEQEND
  0
POLYLINE
  8
2_FEATURE
 62
7
  6
CONTINUOUS
 66
1
 70
0
  0
VERTEX
  8
2_FEATURE
 62
7
  6
CONTINUOUS
 10
323.8012727649
 20
103.4427472674
  0
VERTEX
  8
2_FEATURE
 62
7
  6
CONTINUOUS
 10
324.145683554
 20
103.5523782139
  0
VERTEX
  8
2_FEATURE
 62
7
  6
CONTINUOUS
 10
324.5948518715
 20
103.8214895616
  0
VERTEX
  8
2_FEATURE
 62
7
  6
CONTINUOUS
 10
325.1165090038
 20
104.1920091087
  0
VERTEX
  8
2_FEATURE
 62
7
  6
CONTINUOUS
 10
325.757810135
 20
104.682499363
  0
VERTEX
  8
2_FEATURE
 62
7
  6
CONTINUOUS
 10
326.5923299123
 20
105.3427472674
  0
SEQEND
  0
LINE
  8
0
 62
7
  6
CONTINUOUS
 10
330.3923299123
 20
141.6427472674
 11
323.5923299123
 21
141.6427472674
  0
POLYLINE
  8
0
 62
7
  6
CONTINUOUS
 66
1
 70
0
  0
VERTEX
  8
0
 62
7
  6
CONTINUOUS
 10
328.8918144347
 20
141.6427472674
  0
VERTEX
  8
0
 62
7
  6
CONTINUOUS
 10
328.7343036949
 20
141.7359693653
  0
VERTEX
  8
0
 62
7
  6
CONTINUOUS
 10
328.5931726669
 20
142.0039858644
  0
VERTEX
  8
0
 62
7
  6
CONTINUOUS
 10
328.4820103882
 20
142.4154023723
  0
SEQEND
  0
POLYLINE
  8
0
 62
7
  6
CONTINUOUS
 66
1
 70
0
  0
VERTEX
  8
0
 62
7
  6
CONTINUOUS
 10
326.5923299123
 20
143.5427472674
  0
VERTEX
  8
0
 62
7
  6
CONTINUOUS
 10
325.9125020392
 20
144.0817016685
  0
VERTEX
  8
0
 62
7
  6
CONTINUOUS
 10
325.245644266
 20
144.5968911336
  0
VERTEX
  8
0
 62
7
  6
CONTINUOUS
 10
324.6925179101
 20
144.9978164321
  0
VERTEX
  8
0
 62
7
  6
CONTINUOUS
 10
324.1977676498
 20
145.3062180305
  0
VERTEX
  8
0
 62
7
  6
CONTINUOUS
 10
323.8012727649
 20
145.4427472674
  0
SEQEND
  0
POLYLINE
  8
0
 62
7
  6
CONTINUOUS
 66
1
 70
0
  0
VERTEX
  8
0
 62
7
  6
CONTINUOUS
 10
327.9990474751
 20
153.0927472674
  0
VERTEX
  8
0
 62
7
  6
CONTINUOUS
 10
328.3076995274
 20
152.4651712891
  0
VERTEX
  8
0
 62
7
  6
CONTINUOUS
 10
328.4820103882
 20
151.9654023723
  0
SEQEND
  0
POLYLINE
  8
0
 62
7
  6
CONTINUOUS
 66
1
 70
0
  0
VERTEX
  8
0
 62
7
  6
CONTINUOUS
 10
327.9990474751
 20
162.6427472674
  0
VERTEX
  8
0
 62
7
  6
CONTINUOUS
 10
328.3076995274
 20
162.0151712891
  0
VERTEX
  8
0
 62
7
  6
CONTINUOUS
 10
328.4820103882
 20
161.5154023723
  0
SEQEND
  0
POLYLINE
  8
2_FEATURE
 62
7
  6
CONTINUOUS
 66
1
 70
0
  0
VERTEX
  8
2_FEATURE
 62
7
  6
CONTINUOUS
 10
328.4820103882
 20
49.1700921624
  0
VERTEX
  8
2_FEATURE
 62
7
  6
CONTINUOUS
 10
328.5931664849
 20
49.5814919588
  0
VERTEX
  8
2_FEATURE
 62
7
  6
CONTINUOUS
 10
328.7342956982
 20
49.8495154593
  0
VERTEX
  8
2_FEATURE
 62
7
  6
CONTINUOUS
 10
328.8918144347
 20
49.9427472674
  0
SEQEND
  0
POLYLINE
  8
2_FEATURE
 62
7
  6
CONTINUOUS
 66
1
 70
0
  0
VERTEX
  8
2_FEATURE
 62
7
  6
CONTINUOUS
 10
328.4820103882
 20
58.7200921624
  0
VERTEX
  8
2_FEATURE
 62
7
  6
CONTINUOUS
 10
328.3076786248
 20
58.2202763777
  0
VERTEX
  8
2_FEATURE
 62
7
  6
CONTINUOUS
 10
327.9990474751
 20
57.5927472674
  0
SEQEND
  0
LINE
  8
0
 62
7
  6
CONTINUOUS
 10
330.3923299123
 20
145.4427472674
 11
323.5923299123
 21
145.4427472674
  0
POLYLINE
  8
0
 62
7
  6
CONTINUOUS
 66
1
 70
0
  0
VERTEX
  8
0
 62
7
  6
CONTINUOUS
 10
326.5923299123
 20
153.0927472674
  0
VERTEX
  8
0
 62
7
  6
CONTINUOUS
 10
325.9125020392
 20
153.6317016685
  0
VERTEX
  8
0
 62
7
  6
CONTINUOUS
 10
325.245644266
 20
154.1468911336
  0
VERTEX
  8
0
 62
7
  6
CONTINUOUS
 10
324.6925179101
 20
154.5478164321
  0
VERTEX
  8
0
 62
7
  6
CONTINUOUS
 10
324.1977676498
 20
154.8562180305
  0
VERTEX
  8
0
 62
7
  6
CONTINUOUS
 10
323.8012727649
 20
154.9927472674
  0
SEQEND
  0
POLYLINE
  8
0
 62
7
  6
CONTINUOUS
 66
1
 70
0
  0
VERTEX
  8
0
 62
7
  6
CONTINUOUS
 10
327.9990474751
 20
172.1927472674
  0
VERTEX
  8
0
 62
7
  6
CONTINUOUS
 10
328.3076995274
 20
171.5651712891
  0
VERTEX
  8
0
 62
7
  6
CONTINUOUS
 10
328.4820103882
 20
171.0654023723
  0
SEQEND
  0
POLYLINE
  8
2_FEATURE
 62
7
  6
CONTINUOUS
 66
1
 70
0
  0
VERTEX
  8
2_FEATURE
 62
7
  6
CONTINUOUS
 10
328.4820103882
 20
49.1700921624
  0
VERTEX
  8
2_FEATURE
 62
7
  6
CONTINUOUS
 10
328.3076786248
 20
48.6702763777
  0
VERTEX
  8
2_FEATURE
 62
7
  6
CONTINUOUS
 10
327.9990474751
 20
48.0427472674
  0
SEQEND
  0
POLYLINE
  8
2_FEATURE
 62
7
  6
CONTINUOUS
 66
1
 70
0
  0
VERTEX
  8
2_FEATURE
 62
7
  6
CONTINUOUS
 10
323.8012727649
 20
93.8927472674
  0
VERTEX
  8
2_FEATURE
 62
7
  6
CONTINUOUS
 10
324.145683554
 20
94.0023782139
  0
VERTEX
  8
2_FEATURE
 62
7
  6
CONTINUOUS
 10
324.5948518715
 20
94.2714895616
  0
VERTEX
  8
2_FEATURE
 62
7
  6
CONTINUOUS
 10
325.1165090038
 20
94.6420091087
  0
VERTEX
  8
2_FEATURE
 62
7
  6
CONTINUOUS
 10
325.757810135
 20
95.132499363
  0
VERTEX
  8
2_FEATURE
 62
7
  6
CONTINUOUS
 10
326.5923299123
 20
95.7927472674
  0
SEQEND
  0
LINE
  8
0
 62
7
  6
CONTINUOUS
 10
330.3923299123
 20
151.1927472674
 11
323.5923299123
 21
151.1927472674
  0
POLYLINE
  8
0
 62
7
  6
CONTINUOUS
 66
1
 70
0
  0
VERTEX
  8
0
 62
7
  6
CONTINUOUS
 10
328.8918144347
 20
151.1927472674
  0
VERTEX
  8
0
 62
7
  6
CONTINUOUS
 10
328.7343036949
 20
151.2859693653
  0
VERTEX
  8
0
 62
7
  6
CONTINUOUS
 10
328.5931726669
 20
151.5539858644
  0
VERTEX
  8
0
 62
7
  6
CONTINUOUS
 10
328.4820103882
 20
151.9654023723
  0
SEQEND
  0
POLYLINE
  8
0
 62
7
  6
CONTINUOUS
 66
1
 70
0
  0
VERTEX
  8
0
 62
7
  6
CONTINUOUS
 10
327.9990474751
 20
181.7427472674
  0
VERTEX
  8
0
 62
7
  6
CONTINUOUS
 10
328.3076995274
 20
181.1151712891
  0
VERTEX
  8
0
 62
7
  6
CONTINUOUS
 10
328.4820103882
 20
180.6154023723
  0
SEQEND
  0
POLYLINE
  8
2_FEATURE
 62
7
  6
CONTINUOUS
 66
1
 70
0
  0
VERTEX
  8
2_FEATURE
 62
7
  6
CONTINUOUS
 10
323.8012727649
 20
84.3427472674
  0
VERTEX
  8
2_FEATURE
 62
7
  6
CONTINUOUS
 10
324.145683554
 20
84.4523782139
  0
VERTEX
  8
2_FEATURE
 62
7
  6
CONTINUOUS
 10
324.5948518715
 20
84.7214895616
  0
VERTEX
  8
2_FEATURE
 62
7
  6
CONTINUOUS
 10
325.1165090038
 20
85.0920091087
  0
VERTEX
  8
2_FEATURE
 62
7
  6
CONTINUOUS
 10
325.757810135
 20
85.582499363
  0
VERTEX
  8
2_FEATURE
 62
7
  6
CONTINUOUS
 10
326.5923299123
 20
86.2427472674
  0
SEQEND
  0
LINE
  8
0
 62
7
  6
CONTINUOUS
 10
330.3923299123
 20
154.9927472674
 11
323.5923299123
 21
154.9927472674
  0
POLYLINE
  8
0
 62
7
  6
CONTINUOUS
 66
1
 70
0
  0
VERTEX
  8
0
 62
7
  6
CONTINUOUS
 10
328.8918144347
 20
160.7427472674
  0
VERTEX
  8
0
 62
7
  6
CONTINUOUS
 10
328.7343036949
 20
160.8359693653
  0
VERTEX
  8
0
 62
7
  6
CONTINUOUS
 10
328.5931726669
 20
161.1039858644
  0
VERTEX
  8
0
 62
7
  6
CONTINUOUS
 10
328.4820103882
 20
161.5154023723
  0
SEQEND
  0
POLYLINE
  8
0
 62
7
  6
CONTINUOUS
 66
1
 70
0
  0
VERTEX
  8
0
 62
7
  6
CONTINUOUS
 10
326.5923299123
 20
162.6427472674
  0
VERTEX
  8
0
 62
7
  6
CONTINUOUS
 10
325.9125020392
 20
163.1817016685
  0
VERTEX
  8
0
 62
7
  6
CONTINUOUS
 10
325.245644266
 20
163.6968911336
  0
VERTEX
  8
0
 62
7
  6
CONTINUOUS
 10
324.6925179101
 20
164.0978164321
  0
VERTEX
  8
0
 62
7
  6
CONTINUOUS
 10
324.1977676498
 20
164.4062180305
  0
VERTEX
  8
0
 62
7
  6
CONTINUOUS
 10
323.8012727649
 20
164.5427472674
  0
SEQEND
  0
POLYLINE
  8
0
 62
7
  6
CONTINUOUS
 66
1
 70
0
  0
VERTEX
  8
0
 62
7
  6
CONTINUOUS
 10
327.9990474751
 20
191.2927472674
  0
VERTEX
  8
0
 62
7
  6
CONTINUOUS
 10
328.3076995274
 20
190.6651712891
  0
VERTEX
  8
0
 62
7
  6
CONTINUOUS
 10
328.4820103882
 20
190.1654023723
  0
SEQEND
  0
LINE
  8
0
 62
7
  6
CONTINUOUS
 10
330.3923299123
 20
160.7427472674
 11
323.5923299123
 21
160.7427472674
  0
POLYLINE
  8
0
 62
7
  6
CONTINUOUS
 66
1
 70
0
  0
VERTEX
  8
0
 62
7
  6
CONTINUOUS
 10
326.5923299123
 20
172.1927472674
  0
VERTEX
  8
0
 62
7
  6
CONTINUOUS
 10
325.9125020392
 20
172.7317016685
  0
VERTEX
  8
0
 62
7
  6
CONTINUOUS
 10
325.245644266
 20
173.2468911336
  0
VERTEX
  8
0
 62
7
  6
CONTINUOUS
 10
324.6925179101
 20
173.6478164321
  0
VERTEX
  8
0
 62
7
  6
CONTINUOUS
 10
324.1977676498
 20
173.9562180305
  0
VERTEX
  8
0
 62
7
  6
CONTINUOUS
 10
323.8012727649
 20
174.0927472674
  0
SEQEND
  0
POLYLINE
  8
2_FEATURE
 62
7
  6
CONTINUOUS
 66
1
 70
0
  0
VERTEX
  8
2_FEATURE
 62
7
  6
CONTINUOUS
 10
323.8012727649
 20
74.7927472674
  0
VERTEX
  8
2_FEATURE
 62
7
  6
CONTINUOUS
 10
324.145683554
 20
74.9023782139
  0
VERTEX
  8
2_FEATURE
 62
7
  6
CONTINUOUS
 10
324.5948518715
 20
75.1714895616
  0
VERTEX
  8
2_FEATURE
 62
7
  6
CONTINUOUS
 10
325.1165090038
 20
75.5420091087
  0
VERTEX
  8
2_FEATURE
 62
7
  6
CONTINUOUS
 10
325.757810135
 20
76.032499363
  0
VERTEX
  8
2_FEATURE
 62
7
  6
CONTINUOUS
 10
326.5923299123
 20
76.6927472674
  0
SEQEND
  0
LINE
  8
0
 62
7
  6
CONTINUOUS
 10
330.3923299123
 20
164.5427472674
 11
323.5923299123
 21
164.5427472674
  0
POLYLINE
  8
0
 62
7
  6
CONTINUOUS
 66
1
 70
0
  0
VERTEX
  8
0
 62
7
  6
CONTINUOUS
 10
328.8918144347
 20
170.2927472674
  0
VERTEX
  8
0
 62
7
  6
CONTINUOUS
 10
328.7343036949
 20
170.3859693653
  0
VERTEX
  8
0
 62
7
  6
CONTINUOUS
 10
328.5931726669
 20
170.6539858644
  0
VERTEX
  8
0
 62
7
  6
CONTINUOUS
 10
328.4820103882
 20
171.0654023723
  0
SEQEND
  0
LINE
  8
0
 62
7
  6
CONTINUOUS
 10
330.3923299123
 20
170.2927472674
 11
323.5923299123
 21
170.2927472674
  0
POLYLINE
  8
0
 62
7
  6
CONTINUOUS
 66
1
 70
0
  0
VERTEX
  8
0
 62
7
  6
CONTINUOUS
 10
326.5923299123
 20
181.7427472674
  0
VERTEX
  8
0
 62
7
  6
CONTINUOUS
 10
325.9125020392
 20
182.2817016685
  0
VERTEX
  8
0
 62
7
  6
CONTINUOUS
 10
325.245644266
 20
182.7968911336
  0
VERTEX
  8
0
 62
7
  6
CONTINUOUS
 10
324.6925179101
 20
183.1978164321
  0
VERTEX
  8
0
 62
7
  6
CONTINUOUS
 10
324.1977676498
 20
183.5062180305
  0
VERTEX
  8
0
 62
7
  6
CONTINUOUS
 10
323.8012727649
 20
183.6427472674
  0
SEQEND
  0
POLYLINE
  8
2_FEATURE
 62
7
  6
CONTINUOUS
 66
1
 70
0
  0
VERTEX
  8
2_FEATURE
 62
7
  6
CONTINUOUS
 10
323.8012727649
 20
65.2427472674
  0
VERTEX
  8
2_FEATURE
 62
7
  6
CONTINUOUS
 10
324.145683554
 20
65.3523782139
  0
VERTEX
  8
2_FEATURE
 62
7
  6
CONTINUOUS
 10
324.5948518715
 20
65.6214895616
  0
VERTEX
  8
2_FEATURE
 62
7
  6
CONTINUOUS
 10
325.1165090038
 20
65.9920091087
  0
VERTEX
  8
2_FEATURE
 62
7
  6
CONTINUOUS
 10
325.757810135
 20
66.482499363
  0
VERTEX
  8
2_FEATURE
 62
7
  6
CONTINUOUS
 10
326.5923299123
 20
67.1427472674
  0
SEQEND
  0
LINE
  8
0
 62
7
  6
CONTINUOUS
 10
330.3923299123
 20
174.0927472674
 11
323.5923299123
 21
174.0927472674
  0
POLYLINE
  8
0
 62
7
  6
CONTINUOUS
 66
1
 70
0
  0
VERTEX
  8
0
 62
7
  6
CONTINUOUS
 10
328.8918144347
 20
179.8427472674
  0
VERTEX
  8
0
 62
7
  6
CONTINUOUS
 10
328.7343036949
 20
179.9359693653
  0
VERTEX
  8
0
 62
7
  6
CONTINUOUS
 10
328.5931726669
 20
180.2039858644
  0
VERTEX
  8
0
 62
7
  6
CONTINUOUS
 10
328.4820103882
 20
180.6154023723
  0
SEQEND
  0
POLYLINE
  8
0
 62
7
  6
CONTINUOUS
 66
1
 70
0
  0
VERTEX
  8
0
 62
7
  6
CONTINUOUS
 10
326.5923299123
 20
191.2927472674
  0
VERTEX
  8
0
 62
7
  6
CONTINUOUS
 10
325.9125020392
 20
191.8317016685
  0
VERTEX
  8
0
 62
7
  6
CONTINUOUS
 10
325.245644266
 20
192.3468911336
  0
VERTEX
  8
0
 62
7
  6
CONTINUOUS
 10
324.6925179101
 20
192.7478164321
  0
VERTEX
  8
0
 62
7
  6
CONTINUOUS
 10
324.1977676498
 20
193.0562180305
  0
VERTEX
  8
0
 62
7
  6
CONTINUOUS
 10
323.8012727649
 20
193.1927472674
  0
SEQEND
  0
LINE
  8
0
 62
7
  6
CONTINUOUS
 10
330.3923299123
 20
179.8427472674
 11
323.5923299123
 21
179.8427472674
  0
POLYLINE
  8
0
 62
7
  6
CONTINUOUS
 66
1
 70
0
  0
VERTEX
  8
0
 62
7
  6
CONTINUOUS
 10
328.8918143801
 20
189.3927472674
  0
VERTEX
  8
0
 62
7
  6
CONTINUOUS
 10
328.7343036786
 20
189.4859693851
  0
VERTEX
  8
0
 62
7
  6
CONTINUOUS
 10
328.59317266
 20
189.7539858832
  0
VERTEX
  8
0
 62
7
  6
CONTINUOUS
 10
328.4820103882
 20
190.1654023723
  0
SEQEND
  0
POLYLINE
  8
2_FEATURE
 62
7
  6
CONTINUOUS
 66
1
 70
0
  0
VERTEX
  8
2_FEATURE
 62
7
  6
CONTINUOUS
 10
323.8012728462
 20
55.6927472674
  0
VERTEX
  8
2_FEATURE
 62
7
  6
CONTINUOUS
 10
324.1456836038
 20
55.8023782388
  0
VERTEX
  8
2_FEATURE
 62
7
  6
CONTINUOUS
 10
324.5948519152
 20
56.0714895908
  0
VERTEX
  8
2_FEATURE
 62
7
  6
CONTINUOUS
 10
325.1165090383
 20
56.4420091343
  0
VERTEX
  8
2_FEATURE
 62
7
  6
CONTINUOUS
 10
325.7578101572
 20
56.9324993804
  0
VERTEX
  8
2_FEATURE
 62
7
  6
CONTINUOUS
 10
326.5923299123
 20
57.5927472674
  0
SEQEND
  0
LINE
  8
0
 62
7
  6
CONTINUOUS
 10
330.3923299123
 20
183.6427472674
 11
323.5923299123
 21
183.6427472674
  0
POLYLINE
  8
2_FEATURE
 62
7
  6
CONTINUOUS
 66
1
 70
0
  0
VERTEX
  8
2_FEATURE
 62
7
  6
CONTINUOUS
 10
323.8012727649
 20
46.1427472674
  0
VERTEX
  8
2_FEATURE
 62
7
  6
CONTINUOUS
 10
324.145683554
 20
46.2523782139
  0
VERTEX
  8
2_FEATURE
 62
7
  6
CONTINUOUS
 10
324.5948518715
 20
46.5214895616
  0
VERTEX
  8
2_FEATURE
 62
7
  6
CONTINUOUS
 10
325.1165090038
 20
46.8920091087
  0
VERTEX
  8
2_FEATURE
 62
7
  6
CONTINUOUS
 10
325.757810135
 20
47.382499363
  0
VERTEX
  8
2_FEATURE
 62
7
  6
CONTINUOUS
 10
326.5923299123
 20
48.0427472674
  0
SEQEND
  0
LINE
  8
0
 62
7
  6
CONTINUOUS
 10
330.3923299123
 20
189.3927472674
 11
323.5923299123
 21
189.3927472674
  0
LINE
  8
0
 62
7
  6
CONTINUOUS
 10
330.3923299123
 20
193.1927472674
 11
323.5923299123
 21
193.1927472674
  0
LINE
  8
0
 62
7
  6
CONTINUOUS
 10
330.3923299123
 20
197.6427472674
 11
327.8923299123
 21
197.6427472674
  0
LINE
  8
2_FEATURE
 62
7
  6
CONTINUOUS
 10
320.5923299123
 20
197.6427472674
 11
327.8923299123
 21
197.6427472674
  0
ARC
  8
2_FEATURE
 62
7
  6
CONTINUOUS
 10
73.6964757569
 20
48.0427472674
 40
1.9
 50
90.0
 51
270.0
  0
ARC
  8
2_FEATURE
 62
7
  6
CONTINUOUS
 10
73.6964757569
 20
57.5927472674
 40
1.9
 50
90.0
 51
270.0
  0
ARC
  8
2_FEATURE
 62
7
  6
CONTINUOUS
 10
73.6964757569
 20
67.1427472674
 40
1.9
 50
90.0
 51
270.0
  0
ARC
  8
2_FEATURE
 62
7
  6
CONTINUOUS
 10
73.6964757569
 20
76.6927472674
 40
1.9
 50
90.0
 51
270.0
  0
ARC
  8
2_FEATURE
 62
7
  6
CONTINUOUS
 10
73.6964757569
 20
86.2427472674
 40
1.9
 50
90.0
 51
270.0
  0
ARC
  8
2_FEATURE
 62
7
  6
CONTINUOUS
 10
73.6964757569
 20
95.7927472674
 40
1.9
 50
90.0
 51
270.0
  0
ARC
  8
2_FEATURE
 62
7
  6
CONTINUOUS
 10
73.6964757569
 20
105.3427472674
 40
1.9
 50
90.0
 51
270.0
  0
ARC
  8
2_FEATURE
 62
7
  6
CONTINUOUS
 10
73.6964757569
 20
114.8927472674
 40
1.9
 50
90.0
 51
270.0
  0
ARC
  8
0
 62
7
  6
CONTINUOUS
 10
149.8064757569
 20
77.8927472674
 40
5.5
 50
0.0
 51
180.0
  0
ARC
  8
0
 62
7
  6
CONTINUOUS
 10
149.8064757569
 20
65.8927472674
 40
5.5
 50
180.0
 51
360.0
  0
ARC
  8
0
 62
7
  6
CONTINUOUS
 10
149.8064757569
 20
77.8927472674
 40
3.25
 50
0.0
 51
180.0
  0
ARC
  8
0
 62
7
  6
CONTINUOUS
 10
149.8064757569
 20
65.8927472674
 40
3.25
 50
180.0
 51
360.0
  0
ARC
  8
0
 62
7
  6
CONTINUOUS
 10
157.8064757569
 20
56.8927472674
 40
2.0
 50
270.0
 51
360.0
  0
ARC
  8
0
 62
7
  6
CONTINUOUS
 10
141.8064757569
 20
56.8927472674
 40
2.0
 50
180.0
 51
270.0
  0
CIRCLE
  8
0
 62
7
  6
CONTINUOUS
 10
143.0564757569
 20
58.1427472674
 40
1.5
  0
CIRCLE
  8
0
 62
7
  6
CONTINUOUS
 10
156.5564757569
 20
58.1427472674
 40
1.5
  0
ARC
  8
0
 62
7
  6
CONTINUOUS
 10
149.8064757569
 20
115.8927472674
 40
5.5
 50
180.0
 51
360.0
  0
ARC
  8
0
 62
7
  6
CONTINUOUS
 10
149.8064757569
 20
115.8927472674
 40
3.25
 50
180.0
 51
360.0
  0
ARC
  8
0
 62
7
  6
CONTINUOUS
 10
157.8064757569
 20
86.8927472674
 40
2.0
 50
0.0
 51
90.0
  0
ARC
  8
0
 62
7
  6
CONTINUOUS
 10
141.8064757569
 20
86.8927472674
 40
2.0
 50
90.0
 51
180.0
  0
ARC
  8
0
 62
7
  6
CONTINUOUS
 10
157.8064757569
 20
106.8927472674
 40
2.0
 50
270.0
 51
360.0
  0
ARC
  8
0
 62
7
  6
CONTINUOUS
 10
141.8064757569
 20
106.8927472674
 40
2.0
 50
180.0
 51
270.0
  0
CIRCLE
  8
0
 62
7
  6
CONTINUOUS
 10
143.0564757569
 20
108.1427472674
 40
1.5
  0
CIRCLE
  8
0
 62
7
  6
CONTINUOUS
 10
156.5564757569
 20
108.1427472674
 40
1.5
  0
CIRCLE
  8
0
 62
7
  6
CONTINUOUS
 10
143.0564757569
 20
85.6427472674
 40
1.5
  0
CIRCLE
  8
0
 62
7
  6
CONTINUOUS
 10
156.5564757569
 20
85.6427472674
 40
1.5
  0
ARC
  8
0
 62
7
  6
CONTINUOUS
 10
73.6964757569
 20
124.4427472674
 40
1.9
 50
90.0
 51
270.0
  0
ARC
  8
0
 62
7
  6
CONTINUOUS
 10
73.6964757569
 20
133.9927472674
 40
1.9
 50
90.0
 51
270.0
  0
ARC
  8
0
 62
7
  6
CONTINUOUS
 10
73.6964757569
 20
143.5427472674
 40
1.9
 50
90.0
 51
270.0
  0
ARC
  8
0
 62
7
  6
CONTINUOUS
 10
73.6964757569
 20
153.0927472674
 40
1.9
 50
90.0
 51
270.0
  0
ARC
  8
0
 62
7
  6
CONTINUOUS
 10
73.6964757569
 20
162.6427472674
 40
1.9
 50
90.0
 51
270.0
  0
ARC
  8
0
 62
7
  6
CONTINUOUS
 10
73.6964757569
 20
172.1927472674
 40
1.9
 50
90.0
 51
270.0
  0
ARC
  8
0
 62
7
  6
CONTINUOUS
 10
73.6964757569
 20
181.7427472674
 40
1.9
 50
90.0
 51
270.0
  0
ARC
  8
0
 62
7
  6
CONTINUOUS
 10
73.6964757569
 20
191.2927472674
 40
1.9
 50
90.0
 51
270.0
  0
ARC
  8
0
 62
7
  6
CONTINUOUS
 10
149.8064757569
 20
127.8927472674
 40
5.5
 50
0.0
 51
180.0
  0
ARC
  8
0
 62
7
  6
CONTINUOUS
 10
149.8064757569
 20
127.8927472674
 40
3.25
 50
0.0
 51
180.0
  0
ARC
  8
0
 62
7
  6
CONTINUOUS
 10
157.8064757569
 20
136.8927472674
 40
2.0
 50
0.0
 51
90.0
  0
ARC
  8
0
 62
7
  6
CONTINUOUS
 10
141.8064757569
 20
136.8927472674
 40
2.0
 50
90.0
 51
180.0
  0
ARC
  8
1_AXIS
 62
7
  6
CONTINUOUS
 10
157.8064757569
 20
156.8927472674
 40
2.0
 50
270.0
 51
360.0
  0
ARC
  8
1_AXIS
 62
7
  6
CONTINUOUS
 10
141.8064757569
 20
156.8927472674
 40
2.0
 50
180.0
 51
270.0
  0
CIRCLE
  8
2_FEATURE
 62
7
  6
CONTINUOUS
 10
143.0564757569
 20
158.1427472674
 40
1.5
  0
CIRCLE
  8
2_FEATURE
 62
7
  6
CONTINUOUS
 10
156.5564757569
 20
158.1427472674
 40
1.5
  0
CIRCLE
  8
0
 62
7
  6
CONTINUOUS
 10
143.0564757569
 20
135.6427472674
 40
1.5
  0
CIRCLE
  8
0
 62
7
  6
CONTINUOUS
 10
156.5564757569
 20
135.6427472674
 40
1.5
  0
ARC
  8
2_FEATURE
 62
7
  6
CONTINUOUS
 10
149.8064757569
 20
177.8927472674
 40
5.5
 50
0.0
 51
180.0
  0
ARC
  8
2_FEATURE
 62
7
  6
CONTINUOUS
 10
149.8064757569
 20
165.8927472674
 40
5.5
 50
180.0
 51
360.0
  0
ARC
  8
2_FEATURE
 62
7
  6
CONTINUOUS
 10
149.8064757569
 20
177.8927472674
 40
3.25
 50
0.0
 51
180.0
  0
ARC
  8
2_FEATURE
 62
7
  6
CONTINUOUS
 10
149.8064757569
 20
165.8927472674
 40
3.25
 50
180.0
 51
360.0
  0
ARC
  8
1_AXIS
 62
7
  6
CONTINUOUS
 10
157.8064757569
 20
186.8927472674
 40
2.0
 50
0.0
 51
90.0
  0
ARC
  8
1_AXIS
 62
7
  6
CONTINUOUS
 10
141.8064757569
 20
186.8927472674
 40
2.0
 50
90.0
 51
180.0
  0
CIRCLE
  8
2_FEATURE
 62
7
  6
CONTINUOUS
 10
143.0564757569
 20
185.6427472674
 40
1.5
  0
CIRCLE
  8
2_FEATURE
 62
7
  6
CONTINUOUS
 10
156.5564757569
 20
185.6427472674
 40
1.5
  0
ARC
  8
0
 62
7
  6
CONTINUOUS
 10
125.1564757569
 20
197.1427472674
 40
0.5
 50
90.0
 51
180.0
  0
ARC
  8
0
 62
7
  6
CONTINUOUS
 10
189.8064757569
 20
65.8927472674
 40
5.5
 50
180.0
 51
360.0
  0
ARC
  8
0
 62
7
  6
CONTINUOUS
 10
189.8064757569
 20
77.8927472674
 40
5.5
 50
0.0
 51
180.0
  0
ARC
  8
0
 62
7
  6
CONTINUOUS
 10
189.8064757569
 20
65.8927472674
 40
3.25
 50
180.0
 51
360.0
  0
ARC
  8
0
 62
7
  6
CONTINUOUS
 10
189.8064757569
 20
77.8927472674
 40
3.25
 50
0.0
 51
180.0
  0
ARC
  8
0
 62
7
  6
CONTINUOUS
 10
197.8064757569
 20
56.8927472674
 40
2.0
 50
270.0
 51
360.0
  0
ARC
  8
0
 62
7
  6
CONTINUOUS
 10
181.8064757569
 20
56.8927472674
 40
2.0
 50
180.0
 51
270.0
  0
CIRCLE
  8
0
 62
7
  6
CONTINUOUS
 10
183.0564757569
 20
58.1427472674
 40
1.5
  0
CIRCLE
  8
0
 62
7
  6
CONTINUOUS
 10
196.5564757569
 20
58.1427472674
 40
1.5
  0
ARC
  8
0
 62
7
  6
CONTINUOUS
 10
189.8064757569
 20
115.8927472674
 40
5.5
 50
180.0
 51
360.0
  0
ARC
  8
0
 62
7
  6
CONTINUOUS
 10
189.8064757569
 20
115.8927472674
 40
3.25
 50
180.0
 51
360.0
  0
ARC
  8
0
 62
7
  6
CONTINUOUS
 10
197.8064757569
 20
106.8927472674
 40
2.0
 50
270.0
 51
360.0
  0
ARC
  8
0
 62
7
  6
CONTINUOUS
 10
181.8064757569
 20
106.8927472674
 40
2.0
 50
180.0
 51
270.0
  0
ARC
  8
0
 62
7
  6
CONTINUOUS
 10
197.8064757569
 20
86.8927472674
 40
2.0
 50
0.0
 51
90.0
  0
ARC
  8
0
 62
7
  6
CONTINUOUS
 10
181.8064757569
 20
86.8927472674
 40
2.0
 50
90.0
 51
180.0
  0
CIRCLE
  8
0
 62
7
  6
CONTINUOUS
 10
183.0564757569
 20
85.6427472674
 40
1.5
  0
CIRCLE
  8
0
 62
7
  6
CONTINUOUS
 10
196.5564757569
 20
85.6427472674
 40
1.5
  0
CIRCLE
  8
0
 62
7
  6
CONTINUOUS
 10
183.0564757569
 20
108.1427472674
 40
1.5
  0
CIRCLE
  8
0
 62
7
  6
CONTINUOUS
 10
196.5564757569
 20
108.1427472674
 40
1.5
  0
ARC
  8
0
 62
7
  6
CONTINUOUS
 10
265.9164757569
 20
76.6927472674
 40
1.9
 50
270.0
 51
90.0
  0
ARC
  8
0
 62
7
  6
CONTINUOUS
 10
265.9164757569
 20
67.1427472674
 40
1.9
 50
270.0
 51
90.0
  0
ARC
  8
0
 62
7
  6
CONTINUOUS
 10
265.9164757569
 20
57.5927472674
 40
1.9
 50
270.0
 51
90.0
  0
ARC
  8
0
 62
7
  6
CONTINUOUS
 10
265.9164757569
 20
48.0427472674
 40
1.9
 50
270.0
 51
90.0
  0
ARC
  8
0
 62
7
  6
CONTINUOUS
 10
265.9164757569
 20
114.8927472674
 40
1.9
 50
270.0
 51
90.0
  0
ARC
  8
0
 62
7
  6
CONTINUOUS
 10
265.9164757569
 20
105.3427472674
 40
1.9
 50
270.0
 51
90.0
  0
ARC
  8
0
 62
7
  6
CONTINUOUS
 10
265.9164757569
 20
95.7927472674
 40
1.9
 50
270.0
 51
90.0
  0
ARC
  8
0
 62
7
  6
CONTINUOUS
 10
265.9164757569
 20
86.2427472674
 40
1.9
 50
270.0
 51
90.0
  0
ARC
  8
0
 62
7
  6
CONTINUOUS
 10
189.8064757569
 20
127.8927472674
 40
5.5
 50
0.0
 51
180.0
  0
ARC
  8
0
 62
7
  6
CONTINUOUS
 10
189.8064757569
 20
127.8927472674
 40
3.25
 50
0.0
 51
180.0
  0
ARC
  8
0
 62
7
  6
CONTINUOUS
 10
197.8064757569
 20
156.8927472674
 40
2.0
 50
270.0
 51
360.0
  0
ARC
  8
0
 62
7
  6
CONTINUOUS
 10
181.8064757569
 20
156.8927472674
 40
2.0
 50
180.0
 51
270.0
  0
ARC
  8
0
 62
7
  6
CONTINUOUS
 10
181.8064757569
 20
136.8927472674
 40
2.0
 50
90.0
 51
180.0
  0
ARC
  8
0
 62
7
  6
CONTINUOUS
 10
197.8064757569
 20
136.8927472674
 40
2.0
 50
0.0
 51
90.0
  0
CIRCLE
  8
0
 62
7
  6
CONTINUOUS
 10
183.0564757569
 20
135.6427472674
 40
1.5
  0
CIRCLE
  8
0
 62
7
  6
CONTINUOUS
 10
196.5564757569
 20
135.6427472674
 40
1.5
  0
CIRCLE
  8
0
 62
7
  6
CONTINUOUS
 10
183.0564757569
 20
158.1427472674
 40
1.5
  0
CIRCLE
  8
0
 62
7
  6
CONTINUOUS
 10
196.5564757569
 20
158.1427472674
 40
1.5
  0
ARC
  8
0
 62
7
  6
CONTINUOUS
 10
189.8064757569
 20
165.8927472674
 40
5.5
 50
180.0
 51
360.0
  0
ARC
  8
0
 62
7
  6
CONTINUOUS
 10
189.8064757569
 20
177.8927472674
 40
5.5
 50
0.0
 51
180.0
  0
ARC
  8
0
 62
7
  6
CONTINUOUS
 10
189.8064757569
 20
165.8927472674
 40
3.25
 50
180.0
 51
360.0
  0
ARC
  8
0
 62
7
  6
CONTINUOUS
 10
189.8064757569
 20
177.8927472674
 40
3.25
 50
0.0
 51
180.0
  0
ARC
  8
0
 62
7
  6
CONTINUOUS
 10
181.8064757569
 20
186.8927472674
 40
2.0
 50
90.0
 51
180.0
  0
ARC
  8
0
 62
7
  6
CONTINUOUS
 10
197.8064757569
 20
186.8927472674
 40
2.0
 50
0.0
 51
90.0
  0
CIRCLE
  8
0
 62
7
  6
CONTINUOUS
 10
183.0564757569
 20
185.6427472674
 40
1.5
  0
CIRCLE
  8
0
 62
7
  6
CONTINUOUS
 10
196.5564757569
 20
185.6427472674
 40
1.5
  0
ARC
  8
0
 62
7
  6
CONTINUOUS
 10
214.4564757569
 20
197.1427472674
 40
0.5
 50
0.0
 51
90.0
  0
ARC
  8
0
 62
7
  6
CONTINUOUS
 10
265.9164757569
 20
153.0927472674
 40
1.9
 50
270.0
 51
90.0
  0
ARC
  8
0
 62
7
  6
CONTINUOUS
 10
265.9164757569
 20
143.5427472674
 40
1.9
 50
270.0
 51
90.0
  0
ARC
  8
0
 62
7
  6
CONTINUOUS
 10
265.9164757569
 20
133.9927472674
 40
1.9
 50
270.0
 51
90.0
  0
ARC
  8
0
 62
7
  6
CONTINUOUS
 10
265.9164757569
 20
124.4427472674
 40
1.9
 50
270.0
 51
90.0
  0
ARC
  8
0
 62
7
  6
CONTINUOUS
 10
265.9164757569
 20
191.2927472674
 40
1.9
 50
270.0
 51
90.0
  0
ARC
  8
0
 62
7
  6
CONTINUOUS
 10
265.9164757569
 20
181.7427472674
 40
1.9
 50
270.0
 51
90.0
  0
ARC
  8
0
 62
7
  6
CONTINUOUS
 10
265.9164757569
 20
172.1927472674
 40
1.9
 50
270.0
 51
90.0
  0
ARC
  8
0
 62
7
  6
CONTINUOUS
 10
265.9164757569
 20
162.6427472674
 40
1.9
 50
270.0
 51
90.0
  0
ARC
  8
0
 62
7
  6
CONTINUOUS
 10
207.5154950766
 20
215.3685576661
 40
3.0
 50
127.3705350854
 51
173.219835729
  0
ARC
  8
2_FEATURE
 62
7
  6
CONTINUOUS
 10
132.0974564371
 20
215.3685576661
 40
3.0
 50
6.780164271
 51
52.6294649146
  0
ARC
  8
2_FEATURE
 62
7
  6
CONTINUOUS
 10
74.7964757569
 20
221.2227382594
 40
3.0
 50
180.0
 51
248.4898117331
  0
ARC
  8
0
 62
7
  6
CONTINUOUS
 10
264.8164757569
 20
221.2227382594
 40
3.0
 50
291.5101882669
 51
360.0
  0
ARC
  8
0
 62
7
  6
CONTINUOUS
 10
267.3164757569
 20
222.6294558222
 40
0.5
 50
0.0
 51
75.0
  0
ARC
  8
0
 62
7
  6
CONTINUOUS
 10
204.0364757569
 20
215.7227382594
 40
0.5
 50
270.0
 51
360.0
  0
ARC
  8
2_FEATURE
 62
7
  6
CONTINUOUS
 10
135.5764757569
 20
215.7227382594
 40
0.5
 50
180.0
 51
270.0
  0
ARC
  8
2_FEATURE
 62
7
  6
CONTINUOUS
 10
72.2964757569
 20
222.6294558222
 40
0.5
 50
105.0
 51
180.0
  0
ENDSEC
  0
EOF
