  0
SECTION
  2
HEADER
  9
$EXTMAX
 10
210.0
 20
297.0
 30
0.0
  9
$EXTMIN
 10
0.0
 20
0.0
 30
0.0
  9
$LIMMIN
 10
0.0
 20
0.0
  9
$LIMMAX
 10
210.0
 20
297.0
  9
$VIEWCTR
 10
105.0
 20
148.5
  9
$VIEWSIZE
 40
297.0
  9
$CLAYER
  8
0
  9
$LTSCALE
 40
19.36
  9
$CELTYPE
  6
BYLAYER
  9
$DIMSCALE
 40
1.0
  9
$DIMASZ
 40
3.5
  9
$DIMEXO
 40
1.0
  9
$DIMDLI
 40
13.376
  9
$DIMEXE
 40
2.0
  9
$DIMCEN
 40
3.168
  9
$DIMLFAC
 40
1.0
  9
$DIMBLK
  1
_FILLED
  9
$DIMTXT
 40
3.5
  9
$PDMODE
 70
3
  9
$PDSIZE
 40
0.3125
  9
$TILEMODE
 70
1
  0
ENDSEC
  0
SECTION
  2
TABLES
  0
TABLE
  2
LTYPE
 70
6
  0
LTYPE
  2
BYBLOCK
 70
0
  3

 72
65
 73
0
 40
0.0
  0
LTYPE
  2
BYLAYER
 70
0
  3

 72
65
 73
0
 40
0.0
  0
LTYPE
  2
CONTINUOUS
 70
64
  3
Solid line
 72
65
 73
0
 40
0.0
  0
LTYPE
  2
CENTER
 70
64
  3
____ _ ____ _ ____ _ ____ _ ____ _ ____ _ ____
 72
65
 73
4
 40
0.6
 49
0.375
 49
-0.075
 49
0.075
 49
-0.075
  0
LTYPE
  2
HIDDEN
 70
64
  3
- - - - - - - - - - - - - - - - - - - -
 72
65
 73
2
 40
0.2
 49
0.1
 49
-0.1
  0
LTYPE
  2
PHANTOM
 70
64
  3
_____ _ _ _____ _ _ _____ _ _ _____
 72
65
 73
6
 40
0.8
 49
0.45
 49
-0.05
 49
0.1
 49
-0.05
 49
0.1
 49
-0.05
  0
LTYPE
  2
DOT
 70
64
  3
. . . . . . . . . . . . . . . . . . . .
 72
65
 73
2
 40
0.2
 49
0.1
 49
-0.1
  0
LTYPE
  2
DASHED
 70
64
  3
- - - - - - - - - - - - - - - - - - - -
 72
65
 73
2
 40
0.2
 49
0.1
 49
-0.1
  0
ENDTAB
  0
TABLE
  2
LAYER
 70
36
  0
LAYER
  2
0
 70
0
 62
7
  6
CONTINUOUS
  0
LAYER
  2
DEFAULT_1
 70
0
 62
7
  6
CENTER
  0
LAYER
  2
DEFAULT_2
 70
0
 62
8
  6
HIDDEN
  0
LAYER
  2
DEFAULT_3
 70
0
 62
7
  6
PHANTOM
  0
LAYER
  2
AXES
 70
0
 62
7
  6
CONTINUOUS
  0
LAYER
  2
CSYS
 70
0
 62
7
  6
CONTINUOUS
  0
LAYER
  2
CURVE
 70
0
 62
7
  6
CONTINUOUS
  0
LAYER
  2
CURVES
 70
0
 62
7
  6
CONTINUOUS
  0
LAYER
  2
PLANES
 70
0
 62
7
  6
CONTINUOUS
  0
LAYER
  2
SURFACE
 70
0
 62
7
  6
CONTINUOUS
  0
ENDTAB
  0
TABLE
  2
STYLE
 70
1
  0
STYLE
  2
STANDARD
 70
0
 40
0.0
 41
0.8
 50
0.0
 71
0
 42
0.2
  3
txt
  4

  0
STYLE
  2
TEXTSTYLE_1
 70
0
 40
0.0
 41
0.8
 50
0.0
 71
0
 42
0.2
  3
gdt
  4

  0
STYLE
  2
TEXTSTYLE_2
 70
0
 40
0.0
 41
0.6
 50
0.0
 71
0
 42
0.2
  3
txt
  4

  0
STYLE
  2
TEXTSTYLE_3
 70
0
 40
0.0
 41
1.0
 50
0.0
 71
0
 42
0.2
  3
ftb_____.ttf
  4

  0
STYLE
  2
TEXTSTYLE_4
 70
0
 40
0.0
 41
1.0
 50
0.0
 71
0
 42
0.2
  3
fti_____.ttf
  4

  0
STYLE
  2
TEXTSTYLE_5
 70
0
 40
0.0
 41
1.0
 50
0.0
 71
0
 42
0.2
  3
frutiger light.ttf
  4

  0
STYLE
  2
TEXTSTYLE_6
 70
0
 40
0.0
 41
0.7
 50
0.0
 71
0
 42
0.2
  3
txt
  4

  0
STYLE
  2
TEXTSTYLE_7
 70
0
 40
0.0
 41
0.6
 50
0.0
 71
0
 42
0.2
  3
txt
  4

  0
ENDTAB
  0
ENDSEC
  0
SECTION
  2
BLOCKS
  0
BLOCK
  8
0
 62
2
  6
CONTINUOUS
  2
SYMBOL_8_BL1
 70
64
 10
173.5956734183
 20
35.5937998301
  0
TEXT
  8
0
 62
7
  6
CONTINUOUS
 10
164.6539584268
 20
30.6865562072
  7
TEXTSTYLE_4
 40
1.0655737705
  1
The brand for plastic modular belts and chains
 41
1.0
 72
0
  0
LINE
  8
0
 62
7
  6
CONTINUOUS
 10
149.5737418074
 20
36.1675703219
 11
149.5737418074
 21
34.0364227809
  0
LINE
  8
0
 62
7
  6
CONTINUOUS
 10
149.8628043005
 20
31.0454914852
 11
149.8628043005
 21
31.1422825445
  0
LINE
  8
0
 62
7
  6
CONTINUOUS
 10
149.5737418074
 20
31.1100188581
 11
149.6315543091
 21
30.9164367395
  0
LINE
  8
0
 62
7
  6
CONTINUOUS
 10
150.9671844304
 20
33.9544555678
 11
150.9671844304
 21
36.1675703219
  0
LINE
  8
0
 62
7
  6
CONTINUOUS
 10
151.8862417523
 20
32.1101932727
 11
151.8862417523
 21
30.5937998301
  0
LINE
  8
0
 62
7
  6
CONTINUOUS
 10
152.1753043074
 20
30.5937998301
 11
152.1753043074
 21
31.3358647082
  0
LINE
  8
0
 62
7
  6
CONTINUOUS
 10
152.1753043074
 20
31.4649194539
 11
152.1753043074
 21
32.1101932727
  0
LINE
  8
0
 62
7
  6
CONTINUOUS
 10
149.6315543091
 20
31.3036010218
 11
149.5737418074
 21
31.1100188581
  0
LINE
  8
0
 62
7
  6
CONTINUOUS
 10
149.9784292936
 20
30.8841730531
 11
149.8628043005
 21
31.0454914852
  0
LINE
  8
0
 62
7
  6
CONTINUOUS
 10
151.0768668626
 20
31.400392081
 11
151.1346793074
 21
31.3036010218
  0
LINE
  8
0
 62
7
  6
CONTINUOUS
 10
151.4237418626
 20
31.3036010218
 11
151.3659292523
 21
31.4326557675
  0
LINE
  8
0
 62
7
  6
CONTINUOUS
 10
152.852430332
 20
36.1675703219
 11
152.852430332
 21
34.3642916334
  0
LINE
  8
0
 62
7
  6
CONTINUOUS
 10
152.852430332
 20
33.0528162235
 11
152.852430332
 21
32.3970785186
  0
LINE
  8
0
 62
7
  6
CONTINUOUS
 10
153.2159293074
 20
31.2390736489
 11
153.2159293074
 21
30.5937998301
  0
LINE
  8
0
 62
7
  6
CONTINUOUS
 10
153.5049916972
 20
30.5937998301
 11
153.5049916972
 21
31.2390736489
  0
LINE
  8
0
 62
7
  6
CONTINUOUS
 10
149.8628043005
 20
31.1422825445
 11
149.9206168074
 21
31.2713373354
  0
LINE
  8
0
 62
7
  6
CONTINUOUS
 10
149.6315543091
 20
30.9164367395
 11
149.7471793074
 21
30.7873819712
  0
LINE
  8
0
 62
7
  6
CONTINUOUS
 10
153.1581166972
 20
31.3681283946
 11
153.2159293074
 21
31.2390736489
  0
LINE
  8
0
 62
7
  6
CONTINUOUS
 10
153.9674919177
 20
30.8841730531
 11
154.0253041972
 21
30.7551182848
  0
LINE
  8
0
 62
7
  6
CONTINUOUS
 10
153.5049916972
 20
31.2390736489
 11
153.4471794177
 21
31.400392081
  0
LINE
  8
0
 62
7
  6
CONTINUOUS
 10
153.9674919177
 20
31.4326557675
 11
153.9674919177
 21
31.3681283946
  0
LINE
  8
0
 62
7
  6
CONTINUOUS
 10
153.9674919177
 20
30.9809641124
 11
153.9674919177
 21
30.8841730531
  0
LINE
  8
0
 62
7
  6
CONTINUOUS
 10
154.245872955
 20
32.3970785186
 11
154.245872955
 21
36.1675703219
  0
LINE
  8
0
 62
7
  6
CONTINUOUS
 10
154.2565543074
 20
30.8519093441
 11
154.2565543074
 21
30.9164367395
  0
LINE
  8
0
 62
7
  6
CONTINUOUS
 10
154.5737418074
 20
36.1675703219
 11
154.5737418074
 21
32.3970785186
  0
LINE
  8
0
 62
7
  6
CONTINUOUS
 10
151.3659292523
 20
30.7873819712
 11
151.4237418626
 21
30.9164367395
  0
LINE
  8
0
 62
7
  6
CONTINUOUS
 10
155.759679528
 20
30.6905909007
 11
155.7018665869
 21
30.8519093441
  0
LINE
  8
0
 62
7
  6
CONTINUOUS
 10
155.412804528
 20
31.3681283946
 11
155.412804528
 21
31.2713373354
  0
LINE
  8
0
 62
7
  6
CONTINUOUS
 10
155.412804528
 20
31.1422825445
 11
155.412804528
 21
30.9487004259
  0
LINE
  8
0
 62
7
  6
CONTINUOUS
 10
155.7018665869
 20
30.8519093441
 11
155.7018665869
 21
31.3681283946
  0
LINE
  8
0
 62
7
  6
CONTINUOUS
 10
155.9671844304
 20
32.3970785186
 11
155.9671844304
 21
34.2003572071
  0
LINE
  8
0
 62
7
  6
CONTINUOUS
 10
155.9671844304
 20
35.511832617
 11
155.9671844304
 21
36.1675703219
  0
LINE
  8
0
 62
7
  6
CONTINUOUS
 10
156.279992028
 20
32.1101932727
 11
156.279992028
 21
31.9488748406
  0
LINE
  8
0
 62
7
  6
CONTINUOUS
 10
156.279992028
 20
31.626237886
 11
156.279992028
 21
30.5937998301
  0
LINE
  8
0
 62
7
  6
CONTINUOUS
 10
156.5690540869
 20
30.5937998301
 11
156.5690540869
 21
31.626237886
  0
LINE
  8
0
 62
7
  6
CONTINUOUS
 10
156.5690540869
 20
31.9488748406
 11
156.5690540869
 21
32.1101932727
  0
LINE
  8
0
 62
7
  6
CONTINUOUS
 10
151.1346793074
 20
30.9164367395
 11
151.0768668626
 21
30.8196456577
  0
LINE
  8
0
 62
7
  6
CONTINUOUS
 10
153.4471794177
 20
31.400392081
 11
153.3893668074
 21
31.4649194539
  0
LINE
  8
0
 62
7
  6
CONTINUOUS
 10
154.3143669177
 20
30.7873819712
 11
154.2565543074
 21
30.8519093441
  0
LINE
  8
0
 62
7
  6
CONTINUOUS
 10
155.4706168074
 20
30.6583272086
 11
155.5284290869
 21
30.5937998301
  0
LINE
  8
0
 62
7
  6
CONTINUOUS
 10
155.412804528
 20
30.7551182848
 11
155.4706168074
 21
30.6583272086
  0
LINE
  8
0
 62
7
  6
CONTINUOUS
 10
155.8174918074
 20
30.5937998301
 11
155.759679528
 21
30.6905909007
  0
LINE
  8
0
 62
7
  6
CONTINUOUS
 10
155.7018665869
 20
31.3681283946
 11
155.6440543074
 21
31.4649194539
  0
LINE
  8
0
 62
7
  6
CONTINUOUS
 10
157.0315543074
 20
31.626237886
 11
157.0315543074
 21
30.5937998301
  0
LINE
  8
0
 62
7
  6
CONTINUOUS
 10
157.320617028
 20
30.5937998301
 11
157.320617028
 21
31.3358647082
  0
LINE
  8
0
 62
7
  6
CONTINUOUS
 10
157.320617028
 20
31.4649194539
 11
157.320617028
 21
31.626237886
  0
LINE
  8
0
 62
7
  6
CONTINUOUS
 10
157.852430332
 20
34.6101932727
 11
157.852430332
 21
32.3970785186
  0
LINE
  8
0
 62
7
  6
CONTINUOUS
 10
149.7471793074
 20
31.4326557675
 11
149.6315543091
 21
31.3036010218
  0
LINE
  8
0
 62
7
  6
CONTINUOUS
 10
149.9206168074
 20
31.2713373354
 11
149.9784292936
 21
31.3358647082
  0
LINE
  8
0
 62
7
  6
CONTINUOUS
 10
149.7471793074
 20
30.7873819712
 11
149.8628043005
 21
30.7228545871
  0
LINE
  8
0
 62
7
  6
CONTINUOUS
 10
150.1518667936
 20
30.7873819712
 11
149.9784292936
 21
30.8841730531
  0
LINE
  8
0
 62
7
  6
CONTINUOUS
 10
155.3549915869
 20
31.4326557675
 11
155.412804528
 21
31.3681283946
  0
LINE
  8
0
 62
7
  6
CONTINUOUS
 10
158.3034290869
 20
31.3681283946
 11
158.361242028
 21
31.2068099625
  0
LINE
  8
0
 62
7
  6
CONTINUOUS
 10
158.6503040869
 20
31.2068099625
 11
158.5924918074
 21
31.3681283946
  0
LINE
  8
0
 62
7
  6
CONTINUOUS
 10
158.361242028
 20
31.2068099625
 11
158.361242028
 21
30.5937998301
  0
LINE
  8
0
 62
7
  6
CONTINUOUS
 10
158.6503040869
 20
30.5937998301
 11
158.6503040869
 21
31.2068099625
  0
LINE
  8
0
 62
7
  6
CONTINUOUS
 10
159.1128043074
 20
31.4326557675
 11
159.1128043074
 21
31.3681283946
  0
LINE
  8
0
 62
7
  6
CONTINUOUS
 10
159.245872955
 20
32.3970785186
 11
159.245872955
 21
34.5282260596
  0
LINE
  8
0
 62
7
  6
CONTINUOUS
 10
159.5737418074
 20
36.1675703219
 11
159.5737418074
 21
32.3970785186
  0
LINE
  8
0
 62
7
  6
CONTINUOUS
 10
154.2565543074
 20
30.9164367395
 11
154.3143669177
 21
31.0132277988
  0
LINE
  8
0
 62
7
  6
CONTINUOUS
 10
149.8628043005
 20
30.7228545871
 11
150.0362418212
 21
30.6583272086
  0
LINE
  8
0
 62
7
  6
CONTINUOUS
 10
151.3659292523
 20
31.4326557675
 11
151.1924917523
 21
31.5294468267
  0
LINE
  8
0
 62
7
  6
CONTINUOUS
 10
154.0253041972
 20
30.7551182848
 11
154.1987416972
 21
30.6583272086
  0
LINE
  8
0
 62
7
  6
CONTINUOUS
 10
153.0424918074
 20
31.4326557675
 11
153.1581166972
 21
31.3681283946
  0
LINE
  8
0
 62
7
  6
CONTINUOUS
 10
153.3893668074
 20
31.4649194539
 11
153.2737419177
 21
31.5294468267
  0
LINE
  8
0
 62
7
  6
CONTINUOUS
 10
159.1128043074
 20
30.8519093441
 11
159.228429528
 21
30.7228545871
  0
LINE
  8
0
 62
7
  6
CONTINUOUS
 10
159.4596793074
 20
30.7873819712
 11
159.401867028
 21
30.8519093441
  0
LINE
  8
0
 62
7
  6
CONTINUOUS
 10
159.1128043074
 20
31.3681283946
 11
159.228429528
 21
31.2390736489
  0
LINE
  8
0
 62
7
  6
CONTINUOUS
 10
158.5924918074
 20
31.3681283946
 11
158.534679528
 21
31.4649194539
  0
LINE
  8
0
 62
7
  6
CONTINUOUS
 10
160.9628038663
 20
30.7873819712
 11
160.9628038663
 21
30.8519093441
  0
LINE
  8
0
 62
7
  6
CONTINUOUS
 10
160.9671844304
 20
32.3970785186
 11
160.9671844304
 21
36.1675703219
  0
LINE
  8
0
 62
7
  6
CONTINUOUS
 10
154.0253041972
 20
31.4971831403
 11
153.9674919177
 21
31.4326557675
  0
LINE
  8
0
 62
7
  6
CONTINUOUS
 10
150.9034292799
 20
31.4649194539
 11
151.0768668626
 21
31.400392081
  0
LINE
  8
0
 62
7
  6
CONTINUOUS
 10
155.6440543074
 20
31.4649194539
 11
155.5284290869
 21
31.5294468267
  0
LINE
  8
0
 62
7
  6
CONTINUOUS
 10
159.4596793074
 20
31.3036010218
 11
159.401867028
 21
31.3681283946
  0
LINE
  8
0
 62
7
  6
CONTINUOUS
 10
160.615929528
 20
30.9164367395
 11
160.6737418074
 21
30.8519093441
  0
LINE
  8
0
 62
7
  6
CONTINUOUS
 10
160.9628038663
 20
30.8519093441
 11
160.8471793074
 21
30.9809641124
  0
LINE
  8
0
 62
7
  6
CONTINUOUS
 10
160.615929528
 20
31.4326557675
 11
160.6737418074
 21
31.3681283946
  0
LINE
  8
0
 62
7
  6
CONTINUOUS
 10
160.9628038663
 20
31.3681283946
 11
160.8471793074
 21
31.4971831403
  0
LINE
  8
0
 62
7
  6
CONTINUOUS
 10
154.2565543074
 20
31.3681283946
 11
154.3143669177
 21
31.4326557675
  0
LINE
  8
0
 62
7
  6
CONTINUOUS
 10
154.0831168074
 20
31.1100188581
 11
153.9674919177
 21
30.9809641124
  0
LINE
  8
0
 62
7
  6
CONTINUOUS
 10
155.412804528
 20
30.9487004259
 11
155.3549915869
 21
30.8841730531
  0
LINE
  8
0
 62
7
  6
CONTINUOUS
 10
155.3549915869
 20
30.6905909007
 11
155.412804528
 21
30.7551182848
  0
LINE
  8
0
 62
7
  6
CONTINUOUS
 10
154.1987416972
 20
30.6583272086
 11
154.3143669177
 21
30.6260635193
  0
LINE
  8
0
 62
7
  6
CONTINUOUS
 10
151.1924917523
 20
31.5294468267
 11
150.9612418074
 21
31.5939741996
  0
LINE
  8
0
 62
7
  6
CONTINUOUS
 10
154.5456166972
 20
30.7228545871
 11
154.3143669177
 21
30.7873819712
  0
LINE
  8
0
 62
7
  6
CONTINUOUS
 10
153.2737419177
 20
31.5294468267
 11
153.1003044177
 21
31.5939741996
  0
LINE
  8
0
 62
7
  6
CONTINUOUS
 10
155.5284290869
 20
31.5294468267
 11
155.3549915869
 21
31.5939741996
  0
LINE
  8
0
 62
7
  6
CONTINUOUS
 10
158.187804528
 20
31.4326557675
 11
158.3034290869
 21
31.3681283946
  0
LINE
  8
0
 62
7
  6
CONTINUOUS
 10
158.534679528
 20
31.4649194539
 11
158.4190543074
 21
31.5294468267
  0
LINE
  8
0
 62
7
  6
CONTINUOUS
 10
150.0362418212
 20
30.6583272086
 11
150.2096793212
 21
30.6260635193
  0
LINE
  8
0
 62
7
  6
CONTINUOUS
 10
150.498741835
 20
30.7228545871
 11
150.1518667936
 21
30.7873819712
  0
LINE
  8
0
 62
7
  6
CONTINUOUS
 10
152.9268669177
 20
31.4649194539
 11
153.0424918074
 21
31.4326557675
  0
LINE
  8
0
 62
7
  6
CONTINUOUS
 10
155.239367028
 20
31.4649194539
 11
155.3549915869
 21
31.4326557675
  0
LINE
  8
0
 62
7
  6
CONTINUOUS
 10
159.575304528
 20
30.7551182848
 11
159.4596793074
 21
30.7873819712
  0
LINE
  8
0
 62
7
  6
CONTINUOUS
 10
158.0721793074
 20
31.4649194539
 11
158.187804528
 21
31.4326557675
  0
LINE
  8
0
 62
7
  6
CONTINUOUS
 10
159.228429528
 20
30.7228545871
 11
159.401867028
 21
30.6583272086
  0
LINE
  8
0
 62
7
  6
CONTINUOUS
 10
158.4190543074
 20
31.5294468267
 11
158.2456168074
 21
31.5939741996
  0
LINE
  8
0
 62
7
  6
CONTINUOUS
 10
159.6331168074
 20
31.2390736489
 11
159.4596793074
 21
31.3036010218
  0
LINE
  8
0
 62
7
  6
CONTINUOUS
 10
160.442492028
 20
30.9809641124
 11
160.615929528
 21
30.9164367395
  0
LINE
  8
0
 62
7
  6
CONTINUOUS
 10
160.8471793074
 20
31.4971831403
 11
160.6737418074
 21
31.5617105132
  0
LINE
  8
0
 62
7
  6
CONTINUOUS
 10
159.228429528
 20
31.2390736489
 11
159.4596793074
 21
31.1422825445
  0
LINE
  8
0
 62
7
  6
CONTINUOUS
 10
160.8471793074
 20
30.9809641124
 11
160.615929528
 21
31.0777551716
  0
LINE
  8
0
 62
7
  6
CONTINUOUS
 10
159.401867028
 20
31.3681283946
 11
159.4596793074
 21
31.4326557675
  0
LINE
  8
0
 62
7
  6
CONTINUOUS
 10
149.8628043005
 20
31.4971831403
 11
149.7471793074
 21
31.4326557675
  0
LINE
  8
0
 62
7
  6
CONTINUOUS
 10
149.9784292936
 20
31.3358647082
 11
150.1518667936
 21
31.4326557675
  0
LINE
  8
0
 62
7
  6
CONTINUOUS
 10
152.2909293626
 20
31.5294468267
 11
152.1753043074
 21
31.4649194539
  0
LINE
  8
0
 62
7
  6
CONTINUOUS
 10
152.1753043074
 20
31.3358647082
 11
152.2909293626
 21
31.400392081
  0
LINE
  8
0
 62
7
  6
CONTINUOUS
 10
151.1924917523
 20
30.6905909007
 11
151.3659292523
 21
30.7873819712
  0
LINE
  8
0
 62
7
  6
CONTINUOUS
 10
150.2096793212
 20
30.6260635193
 11
150.5565542799
 21
30.5937998301
  0
LINE
  8
0
 62
7
  6
CONTINUOUS
 10
154.3143669177
 20
30.6260635193
 11
154.5456166972
 21
30.5937998301
  0
LINE
  8
0
 62
7
  6
CONTINUOUS
 10
152.6956168074
 20
31.4971831403
 11
152.9268669177
 21
31.4649194539
  0
LINE
  8
0
 62
7
  6
CONTINUOUS
 10
155.0081169177
 20
31.4971831403
 11
155.239367028
 21
31.4649194539
  0
LINE
  8
0
 62
7
  6
CONTINUOUS
 10
159.4596793074
 20
31.1422825445
 11
160.442492028
 21
30.9809641124
  0
LINE
  8
0
 62
7
  6
CONTINUOUS
 10
160.615929528
 20
31.0777551716
 11
159.6331168074
 21
31.2390736489
  0
LINE
  8
0
 62
7
  6
CONTINUOUS
 10
153.1003044177
 20
31.5939741996
 11
152.9268669177
 21
31.626237886
  0
LINE
  8
0
 62
7
  6
CONTINUOUS
 10
159.401867028
 20
30.6583272086
 11
159.575304528
 21
30.6260635193
  0
LINE
  8
0
 62
7
  6
CONTINUOUS
 10
158.2456168074
 20
31.5939741996
 11
158.0721793074
 21
31.626237886
  0
LINE
  8
0
 62
7
  6
CONTINUOUS
 10
160.5003043074
 20
31.4649194539
 11
160.615929528
 21
31.4326557675
  0
LINE
  8
0
 62
7
  6
CONTINUOUS
 10
160.6737418074
 20
30.8519093441
 11
160.615929528
 21
30.7873819712
  0
LINE
  8
0
 62
7
  6
CONTINUOUS
 10
159.228429528
 20
31.5294468267
 11
159.1128043074
 21
31.4326557675
  0
LINE
  8
0
 62
7
  6
CONTINUOUS
 10
154.1409294177
 20
31.5617105132
 11
154.0253041972
 21
31.4971831403
  0
LINE
  8
0
 62
7
  6
CONTINUOUS
 10
154.1987416972
 20
31.1745462761
 11
154.0831168074
 21
31.1100188581
  0
LINE
  8
0
 62
7
  6
CONTINUOUS
 10
154.3143669177
 20
31.0132277988
 11
154.4299918074
 21
31.0777551716
  0
LINE
  8
0
 62
7
  6
CONTINUOUS
 10
151.8862417523
 20
30.5937998301
 11
152.1753043074
 21
30.5937998301
  0
LINE
  8
0
 62
7
  6
CONTINUOUS
 10
153.2159293074
 20
30.5937998301
 11
153.5049916972
 21
30.5937998301
  0
LINE
  8
0
 62
7
  6
CONTINUOUS
 10
154.5456166972
 20
30.5937998301
 11
154.8924916972
 21
30.5937998301
  0
LINE
  8
0
 62
7
  6
CONTINUOUS
 10
155.5284290869
 20
30.5937998301
 11
155.8174918074
 21
30.5937998301
  0
LINE
  8
0
 62
7
  6
CONTINUOUS
 10
156.279992028
 20
30.5937998301
 11
156.5690540869
 21
30.5937998301
  0
LINE
  8
0
 62
7
  6
CONTINUOUS
 10
157.0315543074
 20
30.5937998301
 11
157.320617028
 21
30.5937998301
  0
LINE
  8
0
 62
7
  6
CONTINUOUS
 10
158.361242028
 20
30.5937998301
 11
158.6503040869
 21
30.5937998301
  0
LINE
  8
0
 62
7
  6
CONTINUOUS
 10
159.922179528
 20
30.5937998301
 11
160.269054528
 21
30.5937998301
  0
LINE
  8
0
 62
7
  6
CONTINUOUS
 10
160.269054528
 20
30.7228545871
 11
159.922179528
 21
30.7228545871
  0
LINE
  8
0
 62
7
  6
CONTINUOUS
 10
154.8924916972
 20
30.7228545871
 11
154.5456166972
 21
30.7228545871
  0
LINE
  8
0
 62
7
  6
CONTINUOUS
 10
159.401867028
 20
30.8519093441
 11
159.1128043074
 21
30.8519093441
  0
LINE
  8
0
 62
7
  6
CONTINUOUS
 10
151.4237418626
 20
30.9164367395
 11
151.1346793074
 21
30.9164367395
  0
LINE
  8
0
 62
7
  6
CONTINUOUS
 10
150.498741835
 20
31.4971831403
 11
150.9034292799
 21
31.4649194539
  0
LINE
  8
0
 62
7
  6
CONTINUOUS
 10
150.9612418074
 20
31.5939741996
 11
150.5565542799
 21
31.626237886
  0
LINE
  8
0
 62
7
  6
CONTINUOUS
 10
159.575304528
 20
30.6260635193
 11
159.922179528
 21
30.5937998301
  0
LINE
  8
0
 62
7
  6
CONTINUOUS
 10
159.922179528
 20
30.7228545871
 11
159.575304528
 21
30.7551182848
  0
LINE
  8
0
 62
7
  6
CONTINUOUS
 10
155.3549915869
 20
31.5939741996
 11
155.0081169177
 21
31.626237886
  0
LINE
  8
0
 62
7
  6
CONTINUOUS
 10
160.1534293074
 20
31.4971831403
 11
160.5003043074
 21
31.4649194539
  0
LINE
  8
0
 62
7
  6
CONTINUOUS
 10
160.5003043074
 20
31.5939741996
 11
160.1534293074
 21
31.626237886
  0
LINE
  8
0
 62
7
  6
CONTINUOUS
 10
157.840929528
 20
31.4971831403
 11
158.0721793074
 21
31.4649194539
  0
LINE
  8
0
 62
7
  6
CONTINUOUS
 10
160.6737418074
 20
31.5617105132
 11
160.5003043074
 21
31.5939741996
  0
LINE
  8
0
 62
7
  6
CONTINUOUS
 10
160.8471793074
 20
30.6905909007
 11
160.9628038663
 21
30.7873819712
  0
LINE
  8
0
 62
7
  6
CONTINUOUS
 10
155.3549915869
 20
30.8841730531
 11
155.1815540869
 21
30.7873819712
  0
LINE
  8
0
 62
7
  6
CONTINUOUS
 10
157.4362415869
 20
31.5294468267
 11
157.320617028
 21
31.4649194539
  0
LINE
  8
0
 62
7
  6
CONTINUOUS
 10
157.320617028
 20
31.3358647082
 11
157.4362415869
 21
31.400392081
  0
LINE
  8
0
 62
7
  6
CONTINUOUS
 10
150.0362418212
 20
31.5617105132
 11
149.8628043005
 21
31.4971831403
  0
LINE
  8
0
 62
7
  6
CONTINUOUS
 10
152.4643666972
 20
31.5939741996
 11
152.2909293626
 21
31.5294468267
  0
LINE
  8
0
 62
7
  6
CONTINUOUS
 10
152.2909293626
 20
31.400392081
 11
152.4643666972
 21
31.4649194539
  0
LINE
  8
0
 62
7
  6
CONTINUOUS
 10
151.0768668626
 20
30.8196456577
 11
150.9034292799
 21
30.7551182848
  0
LINE
  8
0
 62
7
  6
CONTINUOUS
 10
160.5003043074
 20
30.7551182848
 11
160.269054528
 21
30.7228545871
  0
LINE
  8
0
 62
7
  6
CONTINUOUS
 10
154.8924916972
 20
30.5937998301
 11
155.1815540869
 21
30.6260635193
  0
LINE
  8
0
 62
7
  6
CONTINUOUS
 10
160.269054528
 20
30.5937998301
 11
160.615929528
 21
30.6260635193
  0
LINE
  8
0
 62
7
  6
CONTINUOUS
 10
150.5565542799
 20
30.5937998301
 11
150.9612418074
 21
30.6260635193
  0
LINE
  8
0
 62
7
  6
CONTINUOUS
 10
150.9034292799
 20
30.7551182848
 11
150.498741835
 21
30.7228545871
  0
LINE
  8
0
 62
7
  6
CONTINUOUS
 10
154.7768668074
 20
31.1422825445
 11
155.412804528
 21
31.1422825445
  0
LINE
  8
0
 62
7
  6
CONTINUOUS
 10
155.412804528
 20
31.2713373354
 11
154.7768668074
 21
31.2713373354
  0
LINE
  8
0
 62
7
  6
CONTINUOUS
 10
151.1346793074
 20
31.3036010218
 11
151.4237418626
 21
31.3036010218
  0
LINE
  8
0
 62
7
  6
CONTINUOUS
 10
153.9674919177
 20
31.3681283946
 11
154.2565543074
 21
31.3681283946
  0
LINE
  8
0
 62
7
  6
CONTINUOUS
 10
160.6737418074
 20
31.3681283946
 11
160.9628038663
 21
31.3681283946
  0
LINE
  8
0
 62
7
  6
CONTINUOUS
 10
154.6612419177
 20
31.4971831403
 11
155.0081169177
 21
31.4971831403
  0
LINE
  8
0
 62
7
  6
CONTINUOUS
 10
159.8065543074
 20
31.4971831403
 11
160.1534293074
 21
31.4971831403
  0
LINE
  8
0
 62
7
  6
CONTINUOUS
 10
160.1534293074
 20
31.626237886
 11
159.8065543074
 21
31.626237886
  0
LINE
  8
0
 62
7
  6
CONTINUOUS
 10
158.0721793074
 20
31.626237886
 11
157.840929528
 21
31.626237886
  0
LINE
  8
0
 62
7
  6
CONTINUOUS
 10
157.320617028
 20
31.626237886
 11
157.0315543074
 21
31.626237886
  0
LINE
  8
0
 62
7
  6
CONTINUOUS
 10
156.5690540869
 20
31.626237886
 11
156.279992028
 21
31.626237886
  0
LINE
  8
0
 62
7
  6
CONTINUOUS
 10
155.0081169177
 20
31.626237886
 11
154.6612419177
 21
31.626237886
  0
LINE
  8
0
 62
7
  6
CONTINUOUS
 10
152.9268669177
 20
31.626237886
 11
152.6956168074
 21
31.626237886
  0
LINE
  8
0
 62
7
  6
CONTINUOUS
 10
156.279992028
 20
31.9488748406
 11
156.5690540869
 21
31.9488748406
  0
LINE
  8
0
 62
7
  6
CONTINUOUS
 10
156.5690540869
 20
32.1101932727
 11
156.279992028
 21
32.1101932727
  0
LINE
  8
0
 62
7
  6
CONTINUOUS
 10
152.1753043074
 20
32.1101932727
 11
151.8862417523
 21
32.1101932727
  0
LINE
  8
0
 62
7
  6
CONTINUOUS
 10
151.2130860697
 20
32.3970785186
 11
151.6256574183
 21
32.3970785186
  0
LINE
  8
0
 62
7
  6
CONTINUOUS
 10
152.852430332
 20
32.3970785186
 11
154.245872955
 21
32.3970785186
  0
LINE
  8
0
 62
7
  6
CONTINUOUS
 10
154.5737418074
 20
32.3970785186
 11
155.9671844304
 21
32.3970785186
  0
LINE
  8
0
 62
7
  6
CONTINUOUS
 10
157.852430332
 20
32.3970785186
 11
159.245872955
 21
32.3970785186
  0
LINE
  8
0
 62
7
  6
CONTINUOUS
 10
159.5737418074
 20
32.3970785186
 11
160.9671844304
 21
32.3970785186
  0
LINE
  8
0
 62
7
  6
CONTINUOUS
 10
157.6096790869
 20
31.5939741996
 11
157.4362415869
 21
31.5294468267
  0
LINE
  8
0
 62
7
  6
CONTINUOUS
 10
155.1815540869
 20
30.6260635193
 11
155.3549915869
 21
30.6905909007
  0
LINE
  8
0
 62
7
  6
CONTINUOUS
 10
160.615929528
 20
30.6260635193
 11
160.8471793074
 21
30.6905909007
  0
LINE
  8
0
 62
7
  6
CONTINUOUS
 10
160.615929528
 20
30.7873819712
 11
160.5003043074
 21
30.7551182848
  0
LINE
  8
0
 62
7
  6
CONTINUOUS
 10
159.575304528
 20
31.4649194539
 11
159.8065543074
 21
31.4971831403
  0
LINE
  8
0
 62
7
  6
CONTINUOUS
 10
157.6096790869
 20
31.4649194539
 11
157.840929528
 21
31.4971831403
  0
LINE
  8
0
 62
7
  6
CONTINUOUS
 10
154.5456166972
 20
31.1100188581
 11
154.7768668074
 21
31.1422825445
  0
LINE
  8
0
 62
7
  6
CONTINUOUS
 10
157.840929528
 20
31.626237886
 11
157.6096790869
 21
31.5939741996
  0
LINE
  8
0
 62
7
  6
CONTINUOUS
 10
154.4299918074
 20
31.4649194539
 11
154.6612419177
 21
31.4971831403
  0
LINE
  8
0
 62
7
  6
CONTINUOUS
 10
159.8065543074
 20
31.626237886
 11
159.4596793074
 21
31.5939741996
  0
LINE
  8
0
 62
7
  6
CONTINUOUS
 10
154.7768668074
 20
31.2713373354
 11
154.4299918074
 21
31.2390736489
  0
LINE
  8
0
 62
7
  6
CONTINUOUS
 10
150.5565542799
 20
31.626237886
 11
150.2096793212
 21
31.5939741996
  0
LINE
  8
0
 62
7
  6
CONTINUOUS
 10
154.6612419177
 20
31.626237886
 11
154.2565543074
 21
31.5939741996
  0
LINE
  8
0
 62
7
  6
CONTINUOUS
 10
152.0327582009
 20
33.5446195022
 11
151.3770204959
 21
33.5446195022
  0
LINE
  8
0
 62
7
  6
CONTINUOUS
 10
157.4362415869
 20
31.400392081
 11
157.6096790869
 21
31.4649194539
  0
LINE
  8
0
 62
7
  6
CONTINUOUS
 10
159.4596793074
 20
31.4326557675
 11
159.575304528
 21
31.4649194539
  0
LINE
  8
0
 62
7
  6
CONTINUOUS
 10
159.4596793074
 20
31.5939741996
 11
159.228429528
 21
31.5294468267
  0
LINE
  8
0
 62
7
  6
CONTINUOUS
 10
155.1815540869
 20
30.7873819712
 11
154.8924916972
 21
30.7228545871
  0
LINE
  8
0
 62
7
  6
CONTINUOUS
 10
152.4643666972
 20
31.4649194539
 11
152.6956168074
 21
31.4971831403
  0
LINE
  8
0
 62
7
  6
CONTINUOUS
 10
152.6956168074
 20
31.626237886
 11
152.4643666972
 21
31.5939741996
  0
LINE
  8
0
 62
7
  6
CONTINUOUS
 10
150.2674918074
 20
31.4649194539
 11
150.498741835
 21
31.4971831403
  0
LINE
  8
0
 62
7
  6
CONTINUOUS
 10
156.7868565615
 20
35.0200293383
 11
157.4425942664
 21
35.0200293383
  0
LINE
  8
0
 62
7
  6
CONTINUOUS
 10
154.4299918074
 20
31.0777551716
 11
154.5456166972
 21
31.1100188581
  0
LINE
  8
0
 62
7
  6
CONTINUOUS
 10
154.4299918074
 20
31.2390736489
 11
154.1987416972
 21
31.1745462761
  0
LINE
  8
0
 62
7
  6
CONTINUOUS
 10
154.3143669177
 20
31.4326557675
 11
154.4299918074
 21
31.4649194539
  0
LINE
  8
0
 62
7
  6
CONTINUOUS
 10
150.9612418074
 20
30.6260635193
 11
151.1924917523
 21
30.6905909007
  0
LINE
  8
0
 62
7
  6
CONTINUOUS
 10
154.2565543074
 20
31.5939741996
 11
154.1409294177
 21
31.5617105132
  0
LINE
  8
0
 62
7
  6
CONTINUOUS
 10
150.2096793212
 20
31.5939741996
 11
150.0362418212
 21
31.5617105132
  0
LINE
  8
0
 62
7
  6
CONTINUOUS
 10
160.9671844304
 20
36.1675703219
 11
159.5737418074
 21
36.1675703219
  0
LINE
  8
0
 62
7
  6
CONTINUOUS
 10
157.6065286927
 20
36.1675703219
 11
157.1939573441
 21
36.1675703219
  0
LINE
  8
0
 62
7
  6
CONTINUOUS
 10
155.9671844304
 20
36.1675703219
 11
154.5737418074
 21
36.1675703219
  0
LINE
  8
0
 62
7
  6
CONTINUOUS
 10
154.245872955
 20
36.1675703219
 11
152.852430332
 21
36.1675703219
  0
LINE
  8
0
 62
7
  6
CONTINUOUS
 10
150.9671844304
 20
36.1675703219
 11
149.5737418074
 21
36.1675703219
  0
LINE
  8
0
 62
7
  6
CONTINUOUS
 10
150.1518667936
 20
31.4326557675
 11
150.2674918074
 21
31.4649194539
  0
CIRCLE
  8
0
 62
7
  6
CONTINUOUS
 10
160.2704631189
 20
38.5036358957
 40
2.0901639344
  0
ARC
  8
0
 62
7
  6
CONTINUOUS
 10
151.2130860697
 20
34.0364227809
 40
1.6393442623
 50
180.0
 51
270.0
  0
ARC
  8
0
 62
7
  6
CONTINUOUS
 10
157.6065286927
 20
34.5282260596
 40
1.6393442623
 50
0.0
 51
90.0
  0
ARC
  8
0
 62
7
  6
CONTINUOUS
 10
151.6256574183
 20
33.8724883547
 40
1.4754098361
 50
270.0
 51
326.2510114041
  0
ARC
  8
0
 62
7
  6
CONTINUOUS
 10
157.1939573441
 20
34.6921604858
 40
1.4754098361
 50
90.0
 51
146.2510114041
  0
ARC
  8
0
 62
7
  6
CONTINUOUS
 10
152.0327582009
 20
34.3642916334
 40
0.8196721311
 50
270.0
 51
360.0
  0
ARC
  8
0
 62
7
  6
CONTINUOUS
 10
156.7868565615
 20
34.2003572071
 40
0.8196721311
 50
90.0
 51
180.0
  0
ARC
  8
0
 62
7
  6
CONTINUOUS
 10
151.3770204959
 20
33.9544555678
 40
0.4098360656
 50
180.0
 51
270.0
  0
ARC
  8
0
 62
7
  6
CONTINUOUS
 10
157.4425942664
 20
34.6101932727
 40
0.4098360656
 50
0.0
 51
90.0
  0
SOLID
  8
0
 62
7
  6
CONTINUOUS
 10
156.279992028
 20
31.9488752009
 11
156.279992028
 21
32.1101936845
 12
156.5690540869
 22
31.9488752009
 13
156.5690540869
 23
32.1101936845
  0
SOLID
  8
0
 62
7
  6
CONTINUOUS
 10
150.5565542799
 20
31.6262382337
 11
150.9612418074
 21
31.5939740028
 12
150.2096793212
 22
31.5939740028
 13
150.2096793212
 23
31.5939740028
  0
SOLID
  8
0
 62
7
  6
CONTINUOUS
 10
150.0362418212
 20
31.5617111435
 11
150.2096793212
 21
31.5939740028
 12
150.9612418074
 22
31.5939740028
 13
150.9612418074
 23
31.5939740028
  0
SOLID
  8
0
 62
7
  6
CONTINUOUS
 10
150.9612418074
 20
31.5939740028
 11
151.1924917523
 21
31.5294468402
 12
150.0362418212
 22
31.5617111435
 13
150.0362418212
 23
31.5617111435
  0
SOLID
  8
0
 62
7
  6
CONTINUOUS
 10
149.8628043005
 20
31.49718259
 11
150.0362418212
 21
31.5617111435
 12
151.1924917523
 22
31.5294468402
 13
151.1924917523
 23
31.5294468402
  0
SOLID
  8
0
 62
7
  6
CONTINUOUS
 10
149.8628043005
 20
31.49718259
 11
151.1924917523
 21
31.5294468402
 12
150.498741835
 22
31.49718259
 13
150.498741835
 23
31.49718259
  0
SOLID
  8
0
 62
7
  6
CONTINUOUS
 10
150.498741835
 20
31.49718259
 11
151.1924917523
 21
31.5294468402
 12
150.9034292799
 22
31.4649197501
 13
150.9034292799
 23
31.4649197501
  0
SOLID
  8
0
 62
7
  6
CONTINUOUS
 10
151.1924917523
 20
31.5294468402
 11
151.3659292523
 21
31.4326554468
 12
150.9034292799
 22
31.4649197501
 13
150.9034292799
 23
31.4649197501
  0
SOLID
  8
0
 62
7
  6
CONTINUOUS
 10
151.0768668626
 20
31.4003926599
 11
150.9034292799
 21
31.4649197501
 12
151.3659292523
 22
31.4326554468
 13
151.3659292523
 23
31.4326554468
  0
SOLID
  8
0
 62
7
  6
CONTINUOUS
 10
151.0768668626
 20
31.4003926599
 11
151.3659292523
 21
31.4326554468
 12
151.1346793074
 22
31.3036013776
 13
151.1346793074
 23
31.3036013776
  0
SOLID
  8
0
 62
7
  6
CONTINUOUS
 10
151.3659292523
 20
31.4326554468
 11
151.4237418626
 21
31.3036013776
 12
151.1346793074
 22
31.3036013776
 13
151.1346793074
 23
31.3036013776
  0
SOLID
  8
0
 62
7
  6
CONTINUOUS
 10
152.4643666972
 20
31.5939739754
 11
152.6956168074
 21
31.6262382787
 12
152.9268669177
 22
31.6262382787
 13
152.9268669177
 23
31.6262382787
  0
SOLID
  8
0
 62
7
  6
CONTINUOUS
 10
152.9268669177
 20
31.6262382787
 11
153.1003044177
 21
31.5939739754
 12
152.4643666972
 22
31.5939739754
 13
152.4643666972
 23
31.5939739754
  0
SOLID
  8
0
 62
7
  6
CONTINUOUS
 10
152.2909293626
 20
31.5294468852
 11
152.4643666972
 21
31.5939739754
 12
153.1003044177
 22
31.5939739754
 13
153.1003044177
 23
31.5939739754
  0
SOLID
  8
0
 62
7
  6
CONTINUOUS
 10
153.1003044177
 20
31.5939739754
 11
153.2737419177
 21
31.5294468852
 12
152.2909293626
 22
31.5294468852
 13
152.2909293626
 23
31.5294468852
  0
SOLID
  8
0
 62
7
  6
CONTINUOUS
 10
153.2737419177
 20
31.5294468852
 11
152.6956168074
 21
31.4971825369
 12
152.2909293626
 22
31.5294468852
 13
152.2909293626
 23
31.5294468852
  0
SOLID
  8
0
 62
7
  6
CONTINUOUS
 10
152.1753043074
 20
31.4649197951
 11
152.2909293626
 21
31.5294468852
 12
152.6956168074
 22
31.4971825369
 13
152.6956168074
 23
31.4971825369
  0
SOLID
  8
0
 62
7
  6
CONTINUOUS
 10
152.6956168074
 20
31.4971825369
 11
152.4643666972
 21
31.4649197951
 12
152.1753043074
 22
31.4649197951
 13
152.1753043074
 23
31.4649197951
  0
SOLID
  8
0
 62
7
  6
CONTINUOUS
 10
152.6956168074
 20
31.4971825369
 11
153.2737419177
 21
31.5294468852
 12
152.9268669177
 22
31.4649197951
 13
152.9268669177
 23
31.4649197951
  0
SOLID
  8
0
 62
7
  6
CONTINUOUS
 10
153.2737419177
 20
31.5294468852
 11
153.3893668074
 21
31.4649197951
 12
152.9268669177
 22
31.4649197951
 13
152.9268669177
 23
31.4649197951
  0
SOLID
  8
0
 62
7
  6
CONTINUOUS
 10
153.0424918074
 20
31.4326554468
 11
152.9268669177
 21
31.4649197951
 12
153.3893668074
 22
31.4649197951
 13
153.3893668074
 23
31.4649197951
  0
SOLID
  8
0
 62
7
  6
CONTINUOUS
 10
153.3893668074
 20
31.4649197951
 11
153.4471794177
 21
31.4003927049
 12
153.0424918074
 22
31.4326554468
 13
153.0424918074
 23
31.4326554468
  0
SOLID
  8
0
 62
7
  6
CONTINUOUS
 10
153.1581166972
 20
31.3681283566
 11
153.0424918074
 21
31.4326554468
 12
153.4471794177
 22
31.4003927049
 13
153.4471794177
 23
31.4003927049
  0
SOLID
  8
0
 62
7
  6
CONTINUOUS
 10
153.1581166972
 20
31.3681283566
 11
153.4471794177
 21
31.4003927049
 12
153.2159293074
 22
31.2390742213
 13
153.2159293074
 23
31.2390742213
  0
SOLID
  8
0
 62
7
  6
CONTINUOUS
 10
153.4471794177
 20
31.4003927049
 11
153.5049916972
 21
31.2390742213
 12
153.2159293074
 22
31.2390742213
 13
153.2159293074
 23
31.2390742213
  0
SOLID
  8
0
 62
7
  6
CONTINUOUS
 10
152.4643666972
 20
31.4649197951
 11
152.2909293626
 21
31.4003927049
 12
152.1753043074
 22
31.4649197951
 13
152.1753043074
 23
31.4649197951
  0
SOLID
  8
0
 62
7
  6
CONTINUOUS
 10
152.2909293626
 20
31.4003927049
 11
152.1753043074
 21
31.3358640533
 12
152.1753043074
 22
31.4649197951
 13
152.1753043074
 23
31.4649197951
  0
SOLID
  8
0
 62
7
  6
CONTINUOUS
 10
152.1753043074
 20
31.3358640533
 11
151.8862417523
 21
30.5938002869
 12
152.1753043074
 22
31.4649197951
 13
152.1753043074
 23
31.4649197951
  0
SOLID
  8
0
 62
7
  6
CONTINUOUS
 10
152.1753043074
 20
31.4649197951
 11
151.8862417523
 21
30.5938002869
 12
152.1753043074
 22
32.1101937295
 13
152.1753043074
 23
32.1101937295
  0
SOLID
  8
0
 62
7
  6
CONTINUOUS
 10
151.8862417523
 20
30.5938002869
 11
151.8862417523
 21
32.1101937295
 12
152.1753043074
 22
32.1101937295
 13
152.1753043074
 23
32.1101937295
  0
SOLID
  8
0
 62
7
  6
CONTINUOUS
 10
152.1753043074
 20
31.3358640533
 11
152.1753043074
 21
30.5938002869
 12
151.8862417523
 22
30.5938002869
 13
151.8862417523
 23
30.5938002869
  0
SOLID
  8
0
 62
7
  6
CONTINUOUS
 10
153.2159293074
 20
30.5938002869
 11
153.2159293074
 21
31.2390742213
 12
153.5049916972
 22
31.2390742213
 13
153.5049916972
 23
31.2390742213
  0
SOLID
  8
0
 62
7
  6
CONTINUOUS
 10
153.5049916972
 20
31.2390742213
 11
153.5049916972
 21
30.5938002869
 12
153.2159293074
 22
30.5938002869
 13
153.2159293074
 23
30.5938002869
  0
SOLID
  8
0
 62
7
  6
CONTINUOUS
 10
154.2565543074
 20
31.5939738288
 11
154.6612419177
 21
31.6262385959
 12
155.0081169177
 22
31.6262385959
 13
155.0081169177
 23
31.6262385959
  0
SOLID
  8
0
 62
7
  6
CONTINUOUS
 10
155.0081169177
 20
31.6262385959
 11
155.3549915869
 21
31.5939738288
 12
154.2565543074
 22
31.5939738288
 13
154.2565543074
 23
31.5939738288
  0
SOLID
  8
0
 62
7
  6
CONTINUOUS
 10
154.1409294177
 20
31.5617111435
 11
154.2565543074
 21
31.5939738288
 12
155.3549915869
 22
31.5939738288
 13
155.3549915869
 23
31.5939738288
  0
SOLID
  8
0
 62
7
  6
CONTINUOUS
 10
155.3549915869
 20
31.5939738288
 11
155.5284290869
 21
31.5294468402
 12
154.1409294177
 22
31.5617111435
 13
154.1409294177
 23
31.5617111435
  0
SOLID
  8
0
 62
7
  6
CONTINUOUS
 10
154.0253041972
 20
31.4971826249
 11
154.1409294177
 21
31.5617111435
 12
155.5284290869
 22
31.5294468402
 13
155.5284290869
 23
31.5294468402
  0
SOLID
  8
0
 62
7
  6
CONTINUOUS
 10
154.0253041972
 20
31.4971826249
 11
155.5284290869
 21
31.5294468402
 12
154.6612419177
 22
31.4971826249
 13
154.6612419177
 23
31.4971826249
  0
SOLID
  8
0
 62
7
  6
CONTINUOUS
 10
154.6612419177
 20
31.4971826249
 11
155.5284290869
 21
31.5294468402
 12
155.0081169177
 22
31.4971826249
 13
155.0081169177
 23
31.4971826249
  0
SOLID
  8
0
 62
7
  6
CONTINUOUS
 10
155.0081169177
 20
31.4971826249
 11
155.5284290869
 21
31.5294468402
 12
155.239367028
 22
31.4649194065
 13
155.239367028
 23
31.4649194065
  0
SOLID
  8
0
 62
7
  6
CONTINUOUS
 10
155.5284290869
 20
31.5294468402
 11
155.6440543074
 21
31.4649194065
 12
155.239367028
 22
31.4649194065
 13
155.239367028
 23
31.4649194065
  0
SOLID
  8
0
 62
7
  6
CONTINUOUS
 10
153.9674919177
 20
31.4326554138
 11
154.0253041972
 21
31.4971826249
 12
154.6612419177
 22
31.4971826249
 13
154.6612419177
 23
31.4971826249
  0
SOLID
  8
0
 62
7
  6
CONTINUOUS
 10
155.3549915869
 20
31.4326554138
 11
155.239367028
 21
31.4649194065
 12
155.6440543074
 22
31.4649194065
 13
155.6440543074
 23
31.4649194065
  0
SOLID
  8
0
 62
7
  6
CONTINUOUS
 10
155.3549915869
 20
31.4326554138
 11
155.6440543074
 21
31.4649194065
 12
155.412804528
 22
31.3681282026
 13
155.412804528
 23
31.3681282026
  0
SOLID
  8
0
 62
7
  6
CONTINUOUS
 10
155.6440543074
 20
31.4649194065
 11
155.7018665869
 21
31.3681282026
 12
155.412804528
 22
31.3681282026
 13
155.412804528
 23
31.3681282026
  0
SOLID
  8
0
 62
7
  6
CONTINUOUS
 10
155.412804528
 20
31.2713369632
 11
155.412804528
 21
31.3681282026
 12
155.7018665869
 22
31.3681282026
 13
155.7018665869
 23
31.3681282026
  0
SOLID
  8
0
 62
7
  6
CONTINUOUS
 10
155.412804528
 20
31.2713369632
 11
155.7018665869
 21
31.3681282026
 12
155.412804528
 22
31.1422827828
 13
155.412804528
 23
31.1422827828
  0
SOLID
  8
0
 62
7
  6
CONTINUOUS
 10
155.412804528
 20
31.1422827828
 11
155.7018665869
 21
31.3681282026
 12
155.412804528
 22
30.9487004259
 13
155.412804528
 23
30.9487004259
  0
SOLID
  8
0
 62
7
  6
CONTINUOUS
 10
155.7018665869
 20
31.3681282026
 11
155.7018665869
 21
30.8519086025
 12
155.412804528
 22
30.9487004259
 13
155.412804528
 23
30.9487004259
  0
SOLID
  8
0
 62
7
  6
CONTINUOUS
 10
157.6096790869
 20
31.5939736268
 11
157.840929528
 21
31.6262383465
 12
158.0721793074
 22
31.6262383465
 13
158.0721793074
 23
31.6262383465
  0
SOLID
  8
0
 62
7
  6
CONTINUOUS
 10
158.0721793074
 20
31.6262383465
 11
158.2456168074
 21
31.5939736268
 12
157.6096790869
 22
31.5939736268
 13
157.6096790869
 23
31.5939736268
  0
SOLID
  8
0
 62
7
  6
CONTINUOUS
 10
157.4362415869
 20
31.5294472848
 11
157.6096790869
 21
31.5939736268
 12
158.2456168074
 22
31.5939736268
 13
158.2456168074
 23
31.5939736268
  0
SOLID
  8
0
 62
7
  6
CONTINUOUS
 10
158.2456168074
 20
31.5939736268
 11
158.4190543074
 21
31.5294472848
 12
157.4362415869
 22
31.5294472848
 13
157.4362415869
 23
31.5294472848
  0
SOLID
  8
0
 62
7
  6
CONTINUOUS
 10
158.4190543074
 20
31.5294472848
 11
157.840929528
 21
31.4971825369
 12
157.4362415869
 22
31.5294472848
 13
157.4362415869
 23
31.5294472848
  0
SOLID
  8
0
 62
7
  6
CONTINUOUS
 10
157.320617028
 20
31.4649199103
 11
157.4362415869
 21
31.5294472848
 12
157.840929528
 22
31.4971825369
 13
157.840929528
 23
31.4971825369
  0
SOLID
  8
0
 62
7
  6
CONTINUOUS
 10
157.840929528
 20
31.4971825369
 11
157.6096790869
 21
31.4649199103
 12
157.320617028
 22
31.4649199103
 13
157.320617028
 23
31.4649199103
  0
SOLID
  8
0
 62
7
  6
CONTINUOUS
 10
157.840929528
 20
31.4971825369
 11
158.4190543074
 21
31.5294472848
 12
158.0721793074
 22
31.4649199103
 13
158.0721793074
 23
31.4649199103
  0
SOLID
  8
0
 62
7
  6
CONTINUOUS
 10
158.4190543074
 20
31.5294472848
 11
158.534679528
 21
31.4649199103
 12
158.0721793074
 22
31.4649199103
 13
158.0721793074
 23
31.4649199103
  0
SOLID
  8
0
 62
7
  6
CONTINUOUS
 10
158.187804528
 20
31.4326554468
 11
158.0721793074
 21
31.4649199103
 12
158.534679528
 22
31.4649199103
 13
158.534679528
 23
31.4649199103
  0
SOLID
  8
0
 62
7
  6
CONTINUOUS
 10
158.187804528
 20
31.4326554468
 11
158.534679528
 21
31.4649199103
 12
158.3034290869
 22
31.3681288486
 13
158.3034290869
 23
31.3681288486
  0
SOLID
  8
0
 62
7
  6
CONTINUOUS
 10
158.534679528
 20
31.4649199103
 11
158.5924918074
 21
31.3681288486
 12
158.3034290869
 22
31.3681288486
 13
158.3034290869
 23
31.3681288486
  0
SOLID
  8
0
 62
7
  6
CONTINUOUS
 10
158.361242028
 20
31.2068093799
 11
158.3034290869
 21
31.3681288486
 12
158.5924918074
 22
31.3681288486
 13
158.5924918074
 23
31.3681288486
  0
SOLID
  8
0
 62
7
  6
CONTINUOUS
 10
158.5924918074
 20
31.3681288486
 11
158.6503040869
 21
31.2068093799
 12
158.361242028
 22
31.2068093799
 13
158.361242028
 23
31.2068093799
  0
SOLID
  8
0
 62
7
  6
CONTINUOUS
 10
157.6096790869
 20
31.4649199103
 11
157.4362415869
 21
31.4003926599
 12
157.320617028
 22
31.4649199103
 13
157.320617028
 23
31.4649199103
  0
SOLID
  8
0
 62
7
  6
CONTINUOUS
 10
157.4362415869
 20
31.4003926599
 11
157.320617028
 21
31.3358640533
 12
157.320617028
 22
31.4649199103
 13
157.320617028
 23
31.4649199103
  0
SOLID
  8
0
 62
7
  6
CONTINUOUS
 10
157.320617028
 20
31.3358640533
 11
157.0315543074
 21
30.5938003547
 12
157.320617028
 22
31.4649199103
 13
157.320617028
 23
31.4649199103
  0
SOLID
  8
0
 62
7
  6
CONTINUOUS
 10
157.320617028
 20
31.4649199103
 11
157.0315543074
 21
30.5938003547
 12
157.320617028
 22
31.6262383465
 13
157.320617028
 23
31.6262383465
  0
SOLID
  8
0
 62
7
  6
CONTINUOUS
 10
157.0315543074
 20
30.5938003547
 11
157.0315543074
 21
31.6262383465
 12
157.320617028
 22
31.6262383465
 13
157.320617028
 23
31.6262383465
  0
SOLID
  8
0
 62
7
  6
CONTINUOUS
 10
157.320617028
 20
31.3358640533
 11
157.320617028
 21
30.5938003547
 12
157.0315543074
 22
30.5938003547
 13
157.0315543074
 23
30.5938003547
  0
SOLID
  8
0
 62
7
  6
CONTINUOUS
 10
158.361242028
 20
30.5938003547
 11
158.361242028
 21
31.2068093799
 12
158.6503040869
 22
31.2068093799
 13
158.6503040869
 23
31.2068093799
  0
SOLID
  8
0
 62
7
  6
CONTINUOUS
 10
158.6503040869
 20
31.2068093799
 11
158.6503040869
 21
30.5938003547
 12
158.361242028
 22
30.5938003547
 13
158.361242028
 23
30.5938003547
  0
SOLID
  8
0
 62
7
  6
CONTINUOUS
 10
159.4596793074
 20
31.5939739474
 11
159.8065543074
 21
31.6262381969
 12
160.1534293074
 22
31.6262381969
 13
160.1534293074
 23
31.6262381969
  0
SOLID
  8
0
 62
7
  6
CONTINUOUS
 10
160.1534293074
 20
31.6262381969
 11
160.5003043074
 21
31.5939739474
 12
159.4596793074
 22
31.5939739474
 13
159.4596793074
 23
31.5939739474
  0
SOLID
  8
0
 62
7
  6
CONTINUOUS
 10
159.228429528
 20
31.5294468402
 11
159.4596793074
 21
31.5939739474
 12
160.5003043074
 22
31.5939739474
 13
160.5003043074
 23
31.5939739474
  0
SOLID
  8
0
 62
7
  6
CONTINUOUS
 10
159.228429528
 20
31.5294468402
 11
160.5003043074
 21
31.5939739304
 12
160.6737418074
 22
31.5617111435
 13
160.6737418074
 23
31.5617111435
  0
SOLID
  8
0
 62
7
  6
CONTINUOUS
 10
159.228429528
 20
31.5294468402
 11
160.6737418074
 21
31.5617111435
 12
159.8065543074
 22
31.4971825592
 13
159.8065543074
 23
31.4971825592
  0
SOLID
  8
0
 62
7
  6
CONTINUOUS
 10
159.8065543074
 20
31.4971825592
 11
160.6737418074
 21
31.5617111435
 12
160.1534293074
 22
31.4971825592
 13
160.1534293074
 23
31.4971825592
  0
SOLID
  8
0
 62
7
  6
CONTINUOUS
 10
160.6737418074
 20
31.5617111435
 11
160.8471793074
 21
31.4971825592
 12
160.1534293074
 22
31.4971825592
 13
160.1534293074
 23
31.4971825592
  0
SOLID
  8
0
 62
7
  6
CONTINUOUS
 10
160.5003043074
 20
31.4649197501
 11
160.1534293074
 21
31.4971825592
 12
160.8471793074
 22
31.4971825592
 13
160.8471793074
 23
31.4971825592
  0
SOLID
  8
0
 62
7
  6
CONTINUOUS
 10
159.1128043074
 20
31.4326555427
 11
159.228429528
 21
31.5294468402
 12
159.8065543074
 22
31.4971825592
 13
159.8065543074
 23
31.4971825592
  0
SOLID
  8
0
 62
7
  6
CONTINUOUS
 10
160.5003043074
 20
31.4649197501
 11
160.8471793074
 21
31.4971825592
 12
160.615929528
 22
31.4326555427
 13
160.615929528
 23
31.4326555427
  0
SOLID
  8
0
 62
7
  6
CONTINUOUS
 10
160.615929528
 20
31.4326555427
 11
160.8471793074
 21
31.4971825592
 12
160.6737418074
 22
31.3681283005
 13
160.6737418074
 23
31.3681283005
  0
SOLID
  8
0
 62
7
  6
CONTINUOUS
 10
160.8471793074
 20
31.4971825592
 11
160.9628038663
 21
31.3681283005
 12
160.6737418074
 22
31.3681283005
 13
160.6737418074
 23
31.3681283005
  0
SOLID
  8
0
 62
7
  6
CONTINUOUS
 10
150.2674918074
 20
31.4649197501
 11
149.7471793074
 21
31.4326554237
 12
150.498741835
 22
31.4971824493
 13
150.498741835
 23
31.4971824493
  0
SOLID
  8
0
 62
7
  6
CONTINUOUS
 10
149.7471793074
 20
31.4326554237
 11
149.8628043005
 21
31.4971824493
 12
150.498741835
 22
31.4971824493
 13
150.498741835
 23
31.4971824493
  0
SOLID
  8
0
 62
7
  6
CONTINUOUS
 10
150.2674918074
 20
31.4649197501
 11
150.1518667936
 21
31.4326554237
 12
149.7471793074
 22
31.4326554237
 13
149.7471793074
 23
31.4326554237
  0
SOLID
  8
0
 62
7
  6
CONTINUOUS
 10
149.6315543091
 20
31.3036012664
 11
149.7471793074
 21
31.4326554237
 12
150.1518667936
 22
31.4326554237
 13
150.1518667936
 23
31.4326554237
  0
SOLID
  8
0
 62
7
  6
CONTINUOUS
 10
153.9674919177
 20
31.4326554237
 11
154.6612419177
 21
31.4971825369
 12
154.4299918074
 22
31.4649197501
 13
154.4299918074
 23
31.4649197501
  0
SOLID
  8
0
 62
7
  6
CONTINUOUS
 10
154.4299918074
 20
31.4649197501
 11
154.3143669177
 21
31.4326554237
 12
153.9674919177
 22
31.4326554237
 13
153.9674919177
 23
31.4326554237
  0
SOLID
  8
0
 62
7
  6
CONTINUOUS
 10
153.9674919177
 20
31.3681283335
 11
153.9674919177
 21
31.4326554237
 12
154.3143669177
 22
31.4326554237
 13
154.3143669177
 23
31.4326554237
  0
SOLID
  8
0
 62
7
  6
CONTINUOUS
 10
154.3143669177
 20
31.4326554237
 11
154.2565543074
 21
31.3681283335
 12
153.9674919177
 22
31.3681283335
 13
153.9674919177
 23
31.3681283335
  0
SOLID
  8
0
 62
7
  6
CONTINUOUS
 10
159.1128043074
 20
31.4326555528
 11
159.8065543074
 21
31.4971825369
 12
159.575304528
 22
31.4649197501
 13
159.575304528
 23
31.4649197501
  0
SOLID
  8
0
 62
7
  6
CONTINUOUS
 10
159.575304528
 20
31.4649197501
 11
159.4596793074
 21
31.4326555528
 12
159.1128043074
 22
31.4326555528
 13
159.1128043074
 23
31.4326555528
  0
SOLID
  8
0
 62
7
  6
CONTINUOUS
 10
159.1128043074
 20
31.3681284626
 11
159.1128043074
 21
31.4326555528
 12
159.4596793074
 22
31.4326555528
 13
159.4596793074
 23
31.4326555528
  0
SOLID
  8
0
 62
7
  6
CONTINUOUS
 10
159.4596793074
 20
31.4326555528
 11
159.401867028
 21
31.3681284626
 12
159.1128043074
 22
31.3681284626
 13
159.1128043074
 23
31.3681284626
  0
SOLID
  8
0
 62
7
  6
CONTINUOUS
 10
159.228429528
 20
31.2390741763
 11
159.1128043074
 21
31.3681284626
 12
159.401867028
 22
31.3681284626
 13
159.401867028
 23
31.3681284626
  0
SOLID
  8
0
 62
7
  6
CONTINUOUS
 10
149.6315543091
 20
31.3036012664
 11
150.1518667936
 21
31.4326554468
 12
149.9784292936
 22
31.3358640533
 13
149.9784292936
 23
31.3358640533
  0
SOLID
  8
0
 62
7
  6
CONTINUOUS
 10
149.9784292936
 20
31.3358640533
 11
149.9206168074
 21
31.2713369632
 12
149.6315543091
 22
31.3036012664
 13
149.6315543091
 23
31.3036012664
  0
SOLID
  8
0
 62
7
  6
CONTINUOUS
 10
149.5737418074
 20
31.1100184796
 11
149.6315543091
 21
31.3036012664
 12
149.9206168074
 22
31.2713369632
 13
149.9206168074
 23
31.2713369632
  0
SOLID
  8
0
 62
7
  6
CONTINUOUS
 10
154.4299918074
 20
31.2390741763
 11
154.7768668074
 21
31.271336924
 12
155.412804528
 22
31.271336924
 13
155.412804528
 23
31.271336924
  0
SOLID
  8
0
 62
7
  6
CONTINUOUS
 10
154.4299918074
 20
31.2390741763
 11
155.412804528
 21
31.271336924
 12
154.1987416972
 22
31.1745462761
 13
154.1987416972
 23
31.1745462761
  0
SOLID
  8
0
 62
7
  6
CONTINUOUS
 10
154.1987416972
 20
31.1745462761
 11
155.412804528
 21
31.271336924
 12
154.7768668074
 22
31.1422827436
 13
154.7768668074
 23
31.1422827436
  0
SOLID
  8
0
 62
7
  6
CONTINUOUS
 10
155.412804528
 20
31.271336924
 11
155.412804528
 21
31.1422827436
 12
154.7768668074
 22
31.1422827436
 13
154.7768668074
 23
31.1422827436
  0
SOLID
  8
0
 62
7
  6
CONTINUOUS
 10
159.228429528
 20
31.2390745501
 11
159.401867028
 21
31.3681283566
 12
159.4596793074
 22
31.3036012664
 13
159.4596793074
 23
31.3036012664
  0
SOLID
  8
0
 62
7
  6
CONTINUOUS
 10
159.4596793074
 20
31.3036012664
 11
159.6331168074
 21
31.2390745501
 12
159.228429528
 22
31.2390745501
 13
159.228429528
 23
31.2390745501
  0
SOLID
  8
0
 62
7
  6
CONTINUOUS
 10
159.4596793074
 20
31.1422827828
 11
159.228429528
 21
31.2390745501
 12
159.6331168074
 22
31.2390745501
 13
159.6331168074
 23
31.2390745501
  0
SOLID
  8
0
 62
7
  6
CONTINUOUS
 10
159.6331168074
 20
31.2390745501
 11
160.615929528
 21
31.0777556927
 12
159.4596793074
 22
31.1422827828
 13
159.4596793074
 23
31.1422827828
  0
SOLID
  8
0
 62
7
  6
CONTINUOUS
 10
160.442492028
 20
30.9809646623
 11
159.4596793074
 21
31.1422827828
 12
160.615929528
 22
31.0777556927
 13
160.615929528
 23
31.0777556927
  0
SOLID
  8
0
 62
7
  6
CONTINUOUS
 10
160.615929528
 20
31.0777556927
 11
160.8471793074
 21
30.9809646623
 12
160.442492028
 22
30.9809646623
 13
160.442492028
 23
30.9809646623
  0
SOLID
  8
0
 62
7
  6
CONTINUOUS
 10
160.615929528
 20
30.9164372091
 11
160.442492028
 21
30.9809646623
 12
160.8471793074
 22
30.9809646623
 13
160.8471793074
 23
30.9809646623
  0
SOLID
  8
0
 62
7
  6
CONTINUOUS
 10
160.615929528
 20
30.9164372091
 11
160.8471793074
 21
30.9809646623
 12
160.6737418074
 22
30.8519089441
 13
160.6737418074
 23
30.8519089441
  0
SOLID
  8
0
 62
7
  6
CONTINUOUS
 10
160.8471793074
 20
30.9809646623
 11
160.9628038663
 21
30.8519089441
 12
160.6737418074
 22
30.8519089441
 13
160.6737418074
 23
30.8519089441
  0
SOLID
  8
0
 62
7
  6
CONTINUOUS
 10
160.615929528
 20
30.7873818593
 11
160.6737418074
 21
30.8519089441
 12
160.9628038663
 22
30.8519089441
 13
160.9628038663
 23
30.8519089441
  0
SOLID
  8
0
 62
7
  6
CONTINUOUS
 10
160.9628038663
 20
30.8519089441
 11
160.9628038663
 21
30.7873818593
 12
160.615929528
 22
30.7873818593
 13
160.615929528
 23
30.7873818593
  0
SOLID
  8
0
 62
7
  6
CONTINUOUS
 10
160.5003043074
 20
30.7551187255
 11
160.615929528
 21
30.7873818593
 12
160.9628038663
 22
30.7873818593
 13
160.9628038663
 23
30.7873818593
  0
SOLID
  8
0
 62
7
  6
CONTINUOUS
 10
160.5003043074
 20
30.7551187255
 11
160.9628038663
 21
30.7873818593
 12
160.269054528
 22
30.7228547745
 13
160.269054528
 23
30.7228547745
  0
SOLID
  8
0
 62
7
  6
CONTINUOUS
 10
160.9628038663
 20
30.7873818593
 11
160.8471793074
 21
30.6905916353
 12
160.269054528
 22
30.7228547745
 13
160.269054528
 23
30.7228547745
  0
SOLID
  8
0
 62
7
  6
CONTINUOUS
 10
160.8471793074
 20
30.6905916353
 11
159.401867028
 21
30.658327332
 12
160.269054528
 22
30.7228547745
 13
160.269054528
 23
30.7228547745
  0
SOLID
  8
0
 62
7
  6
CONTINUOUS
 10
160.269054528
 20
30.7228547745
 11
159.401867028
 21
30.658327332
 12
159.922179528
 22
30.7228547745
 13
159.922179528
 23
30.7228547745
  0
SOLID
  8
0
 62
7
  6
CONTINUOUS
 10
159.401867028
 20
30.658327332
 11
159.228429528
 21
30.7228547745
 12
159.922179528
 22
30.7228547745
 13
159.922179528
 23
30.7228547745
  0
SOLID
  8
0
 62
7
  6
CONTINUOUS
 10
159.401867028
 20
30.658327332
 11
160.8471793074
 21
30.6905916353
 12
159.575304528
 22
30.6260629858
 13
159.575304528
 23
30.6260629858
  0
SOLID
  8
0
 62
7
  6
CONTINUOUS
 10
160.8471793074
 20
30.6905916353
 11
160.615929528
 21
30.6260629858
 12
159.575304528
 22
30.6260629858
 13
159.575304528
 23
30.6260629858
  0
SOLID
  8
0
 62
7
  6
CONTINUOUS
 10
159.922179528
 20
30.5938006049
 11
159.575304528
 21
30.6260629858
 12
160.615929528
 22
30.6260629858
 13
160.615929528
 23
30.6260629858
  0
SOLID
  8
0
 62
7
  6
CONTINUOUS
 10
160.615929528
 20
30.6260629858
 11
160.269054528
 21
30.5938006049
 12
159.922179528
 22
30.5938006049
 13
159.922179528
 23
30.5938006049
  0
SOLID
  8
0
 62
7
  6
CONTINUOUS
 10
149.5737418074
 20
31.1100184796
 11
149.9206168074
 21
31.2713369632
 12
149.8628043005
 22
31.1422827828
 13
149.8628043005
 23
31.1422827828
  0
SOLID
  8
0
 62
7
  6
CONTINUOUS
 10
149.8628043005
 20
31.1422827828
 11
149.8628043005
 21
31.0454914852
 12
149.5737418074
 22
31.1100184796
 13
149.5737418074
 23
31.1100184796
  0
SOLID
  8
0
 62
7
  6
CONTINUOUS
 10
149.6315543091
 20
30.9164372091
 11
149.5737418074
 21
31.1100184796
 12
149.8628043005
 22
31.0454914852
 13
149.8628043005
 23
31.0454914852
  0
SOLID
  8
0
 62
7
  6
CONTINUOUS
 10
149.8628043005
 20
31.0454914852
 11
149.9784292936
 21
30.8841729058
 12
149.6315543091
 22
30.9164372091
 13
149.6315543091
 23
30.9164372091
  0
SOLID
  8
0
 62
7
  6
CONTINUOUS
 10
149.7471793074
 20
30.7873813202
 11
149.6315543091
 21
30.9164372091
 12
149.9784292936
 22
30.8841729058
 13
149.9784292936
 23
30.8841729058
  0
SOLID
  8
0
 62
7
  6
CONTINUOUS
 10
149.9784292936
 20
30.8841729058
 11
150.1518667936
 21
30.7873813202
 12
149.7471793074
 22
30.7873813202
 13
149.7471793074
 23
30.7873813202
  0
SOLID
  8
0
 62
7
  6
CONTINUOUS
 10
149.8628043005
 20
30.7228547004
 11
149.7471793074
 21
30.7873813202
 12
150.1518667936
 22
30.7873813202
 13
150.1518667936
 23
30.7873813202
  0
SOLID
  8
0
 62
7
  6
CONTINUOUS
 10
150.1518667936
 20
30.7873813202
 11
150.498741835
 21
30.7228547004
 12
149.8628043005
 22
30.7228547004
 13
149.8628043005
 23
30.7228547004
  0
SOLID
  8
0
 62
7
  6
CONTINUOUS
 10
150.0362418212
 20
30.658327332
 11
149.8628043005
 21
30.7228547004
 12
150.498741835
 22
30.7228547004
 13
150.498741835
 23
30.7228547004
  0
SOLID
  8
0
 62
7
  6
CONTINUOUS
 10
154.0831168074
 20
31.1100184386
 11
154.1987416972
 21
31.1745462761
 12
154.7768668074
 22
31.1422827828
 13
154.7768668074
 23
31.1422827828
  0
SOLID
  8
0
 62
7
  6
CONTINUOUS
 10
154.7768668074
 20
31.1422827828
 11
154.5456166972
 21
31.1100184386
 12
154.0831168074
 22
31.1100184386
 13
154.0831168074
 23
31.1100184386
  0
SOLID
  8
0
 62
7
  6
CONTINUOUS
 10
153.9674919177
 20
30.9809642992
 11
154.0831168074
 21
31.1100184386
 12
154.5456166972
 22
31.1100184386
 13
154.5456166972
 23
31.1100184386
  0
SOLID
  8
0
 62
7
  6
CONTINUOUS
 10
154.3143669177
 20
31.0132277988
 11
153.9674919177
 21
30.9809642992
 12
154.4299918074
 22
31.0777556927
 13
154.4299918074
 23
31.0777556927
  0
SOLID
  8
0
 62
7
  6
CONTINUOUS
 10
153.9674919177
 20
30.9809642992
 11
154.5456166972
 21
31.1100184796
 12
154.4299918074
 22
31.0777556927
 13
154.4299918074
 23
31.0777556927
  0
SOLID
  8
0
 62
7
  6
CONTINUOUS
 10
154.3143669177
 20
31.0132277988
 11
154.2565543074
 21
30.9164372091
 12
153.9674919177
 22
30.9809642992
 13
153.9674919177
 23
30.9809642992
  0
SOLID
  8
0
 62
7
  6
CONTINUOUS
 10
153.9674919177
 20
30.8841729058
 11
153.9674919177
 21
30.9809642992
 12
154.2565543074
 22
30.9164372091
 13
154.2565543074
 23
30.9164372091
  0
SOLID
  8
0
 62
7
  6
CONTINUOUS
 10
154.2565543074
 20
30.9164372091
 11
154.2565543074
 21
30.8519086025
 12
153.9674919177
 22
30.8841729058
 13
153.9674919177
 23
30.8841729058
  0
SOLID
  8
0
 62
7
  6
CONTINUOUS
 10
154.0253041972
 20
30.7551187255
 11
153.9674919177
 21
30.8841729058
 12
154.2565543074
 22
30.8519086025
 13
154.2565543074
 23
30.8519086025
  0
SOLID
  8
0
 62
7
  6
CONTINUOUS
 10
155.412804528
 20
30.9487004259
 11
155.7018665869
 21
30.8519086025
 12
155.3549915869
 22
30.8841729058
 13
155.3549915869
 23
30.8841729058
  0
SOLID
  8
0
 62
7
  6
CONTINUOUS
 10
155.1815540869
 20
30.7873815123
 11
155.3549915869
 21
30.8841729058
 12
155.7018665869
 22
30.8519086025
 13
155.7018665869
 23
30.8519086025
  0
SOLID
  8
0
 62
7
  6
CONTINUOUS
 10
155.1815540869
 20
30.7873815123
 11
155.7018665869
 21
30.8519086025
 12
155.412804528
 22
30.7551187255
 13
155.412804528
 23
30.7551187255
  0
SOLID
  8
0
 62
7
  6
CONTINUOUS
 10
155.7018665869
 20
30.8519086025
 11
155.759679528
 21
30.6905916353
 12
155.412804528
 22
30.7551187255
 13
155.412804528
 23
30.7551187255
  0
SOLID
  8
0
 62
7
  6
CONTINUOUS
 10
155.4706168074
 20
30.658327332
 11
155.412804528
 21
30.7551187255
 12
155.759679528
 22
30.6905916353
 13
155.759679528
 23
30.6905916353
  0
SOLID
  8
0
 62
7
  6
CONTINUOUS
 10
155.4706168074
 20
30.658327332
 11
155.759679528
 21
30.6905916353
 12
155.5284290869
 22
30.5938002079
 13
155.5284290869
 23
30.5938002079
  0
SOLID
  8
0
 62
7
  6
CONTINUOUS
 10
155.759679528
 20
30.6905916353
 11
155.8174918074
 21
30.5938002079
 12
155.5284290869
 22
30.5938002079
 13
155.5284290869
 23
30.5938002079
  0
SOLID
  8
0
 62
7
  6
CONTINUOUS
 10
151.0768668626
 20
30.8196456577
 11
151.1346793074
 21
30.9164373395
 12
151.4237418626
 22
30.9164373395
 13
151.4237418626
 23
30.9164373395
  0
SOLID
  8
0
 62
7
  6
CONTINUOUS
 10
151.4237418626
 20
30.9164373395
 11
151.3659292523
 21
30.7873815123
 12
151.0768668626
 22
30.8196456577
 13
151.0768668626
 23
30.8196456577
  0
SOLID
  8
0
 62
7
  6
CONTINUOUS
 10
150.9034292799
 20
30.7551187255
 11
151.0768668626
 21
30.8196456577
 12
151.3659292523
 22
30.7873815123
 13
151.3659292523
 23
30.7873815123
  0
SOLID
  8
0
 62
7
  6
CONTINUOUS
 10
150.9034292799
 20
30.7551187255
 11
151.3659292523
 21
30.7873815123
 12
150.498741835
 22
30.7228544222
 13
150.498741835
 23
30.7228544222
  0
SOLID
  8
0
 62
7
  6
CONTINUOUS
 10
151.3659292523
 20
30.7873815123
 11
151.1924917523
 21
30.6905916353
 12
150.498741835
 22
30.7228544222
 13
150.498741835
 23
30.7228544222
  0
SOLID
  8
0
 62
7
  6
CONTINUOUS
 10
150.0362418212
 20
30.658327332
 11
150.498741835
 21
30.7228544222
 12
151.1924917523
 22
30.6905916353
 13
151.1924917523
 23
30.6905916353
  0
SOLID
  8
0
 62
7
  6
CONTINUOUS
 10
150.0362418212
 20
30.658327332
 11
151.1924917523
 21
30.6905916353
 12
150.2096793212
 22
30.6260631011
 13
150.2096793212
 23
30.6260631011
  0
SOLID
  8
0
 62
7
  6
CONTINUOUS
 10
151.1924917523
 20
30.6905916353
 11
150.9612418074
 21
30.6260631011
 12
150.2096793212
 22
30.6260631011
 13
150.2096793212
 23
30.6260631011
  0
SOLID
  8
0
 62
7
  6
CONTINUOUS
 10
150.5565542799
 20
30.5938002419
 11
150.2096793212
 21
30.6260631011
 12
150.9612418074
 22
30.6260631011
 13
150.9612418074
 23
30.6260631011
  0
SOLID
  8
0
 62
7
  6
CONTINUOUS
 10
154.0253041972
 20
30.7551187255
 11
154.2565543074
 21
30.8519086025
 12
154.3143669177
 22
30.7873815123
 13
154.3143669177
 23
30.7873815123
  0
SOLID
  8
0
 62
7
  6
CONTINUOUS
 10
154.3143669177
 20
30.7873815123
 11
154.5456166972
 21
30.7228544222
 12
154.0253041972
 22
30.7551187255
 13
154.0253041972
 23
30.7551187255
  0
SOLID
  8
0
 62
7
  6
CONTINUOUS
 10
154.1987416972
 20
30.658327332
 11
154.0253041972
 21
30.7551187255
 12
154.5456166972
 22
30.7228544222
 13
154.5456166972
 23
30.7228544222
  0
SOLID
  8
0
 62
7
  6
CONTINUOUS
 10
154.8924916972
 20
30.7228544637
 11
155.1815540869
 21
30.7873815123
 12
155.412804528
 22
30.7551187255
 13
155.412804528
 23
30.7551187255
  0
SOLID
  8
0
 62
7
  6
CONTINUOUS
 10
155.412804528
 20
30.7551187255
 11
155.3549915869
 21
30.6905916353
 12
154.8924916972
 22
30.7228544637
 13
154.8924916972
 23
30.7228544637
  0
SOLID
  8
0
 62
7
  6
CONTINUOUS
 10
155.3549915869
 20
30.6905916353
 11
154.1987416972
 21
30.658327332
 12
154.8924916972
 22
30.7228544637
 13
154.8924916972
 23
30.7228544637
  0
SOLID
  8
0
 62
7
  6
CONTINUOUS
 10
154.1987416972
 20
30.658327332
 11
154.5456166972
 21
30.7228544637
 12
154.8924916972
 22
30.7228544637
 13
154.8924916972
 23
30.7228544637
  0
SOLID
  8
0
 62
7
  6
CONTINUOUS
 10
154.1987416972
 20
30.658327332
 11
155.3549915869
 21
30.6905916353
 12
154.3143669177
 22
30.6260630541
 13
154.3143669177
 23
30.6260630541
  0
SOLID
  8
0
 62
7
  6
CONTINUOUS
 10
155.3549915869
 20
30.6905916353
 11
155.1815540869
 21
30.6260630541
 12
154.3143669177
 22
30.6260630541
 13
154.3143669177
 23
30.6260630541
  0
SOLID
  8
0
 62
7
  6
CONTINUOUS
 10
154.5456166972
 20
30.5938002188
 11
154.3143669177
 21
30.6260630541
 12
155.1815540869
 22
30.6260630541
 13
155.1815540869
 23
30.6260630541
  0
SOLID
  8
0
 62
7
  6
CONTINUOUS
 10
155.1815540869
 20
30.6260630541
 11
154.8924916972
 21
30.5938002188
 12
154.5456166972
 22
30.5938002188
 13
154.5456166972
 23
30.5938002188
  0
SOLID
  8
0
 62
7
  6
CONTINUOUS
 10
159.575304528
 20
30.7551187255
 11
159.228429528
 21
30.7228544637
 12
159.4596793074
 22
30.7873815123
 13
159.4596793074
 23
30.7873815123
  0
SOLID
  8
0
 62
7
  6
CONTINUOUS
 10
159.4596793074
 20
30.7873815123
 11
159.228429528
 21
30.7228544637
 12
159.401867028
 22
30.851908644
 13
159.401867028
 23
30.851908644
  0
SOLID
  8
0
 62
7
  6
CONTINUOUS
 10
159.228429528
 20
30.7228544637
 11
159.1128043074
 21
30.851908644
 12
159.401867028
 22
30.851908644
 13
159.401867028
 23
30.851908644
  0
SOLID
  8
0
 62
7
  6
CONTINUOUS
 10
159.575304528
 20
30.7551187255
 11
159.922179528
 21
30.7228544637
 12
159.228429528
 22
30.7228544637
 13
159.228429528
 23
30.7228544637
  0
SOLID
  8
0
 62
7
  6
CONTINUOUS
 10
156.279992028
 20
30.5938002419
 11
156.279992028
 21
31.6262382337
 12
156.5690540869
 22
30.5938002419
 13
156.5690540869
 23
31.6262382337
  0
ENDBLK
  8
0
  6
BYBLOCK
 62
0
  0
BLOCK
  8
0
 62
2
  6
CONTINUOUS
  2
SYMBOL_3_BL0
 70
64
 10
32.1213064866
 20
19.8534310916
  0
TEXT
  8
0
 62
7
  6
CONTINUOUS
 10
18.3860103289
 20
19.2268451992
  7
TEXTSTYLE_3
 40
2.7338706658
  1
Ammeraal Beltech
 41
1.0
 51
15.0
 72
0
  0
TEXT
  8
0
 62
7
  6
CONTINUOUS
 10
29.1868111546
 20
16.9533085264
  7
TEXTSTYLE_4
 40
1.0935482663
  1
Innovation & Service in Belting
 41
1.0
 72
0
  0
LINE
  8
0
 62
7
  6
CONTINUOUS
 10
12.3614696776
 20
19.9934385078
 11
13.1396216709
 21
23.6543558055
  0
LINE
  8
0
 62
7
  6
CONTINUOUS
 10
23.2347899607
 20
27.3177497171
 11
13.6274394139
 21
24.1961322958
  0
LINE
  8
0
 62
7
  6
CONTINUOUS
 10
12.5867530099
 20
19.3000877048
 11
20.093828271
 21
12.5406867788
  0
LINE
  8
0
 62
7
  6
CONTINUOUS
 10
12.8492874206
 20
20.5352149982
 11
23.6575567857
 21
24.0470345971
  0
LINE
  8
0
 62
7
  6
CONTINUOUS
 10
23.6533516486
 20
13.6972460334
 11
15.2078919798
 21
21.3015720751
  0
LINE
  8
0
 62
7
  6
CONTINUOUS
 10
24.1731743684
 20
26.4728246013
 11
23.1966148312
 21
21.8784731989
  0
LINE
  8
0
 62
7
  6
CONTINUOUS
 10
22.4968128835
 20
18.5861638851
 11
21.810364672
 21
15.3566789607
  0
LINE
  8
0
 62
7
  6
CONTINUOUS
 10
24.8542704669
 20
14.087448211
 11
25.8105020025
 21
18.5861638851
  0
LINE
  8
0
 62
7
  6
CONTINUOUS
 10
26.5103039502
 20
21.8784731989
 11
26.9545457526
 21
23.9684665583
  0
LINE
  8
0
 62
7
  6
CONTINUOUS
 10
20.8069293463
 20
12.3891124661
 11
24.3664527239
 21
13.5456717207
  0
LINE
  8
0
 62
7
  6
CONTINUOUS
 10
23.9478910361
 20
27.1661754044
 11
26.7292624203
 21
24.6618173613
  0
ARC
  8
0
 62
7
  6
CONTINUOUS
 10
13.8527227462
 20
23.5027814928
 40
0.7290321776
 50
108.0
 51
168.0
  0
ARC
  8
0
 62
7
  6
CONTINUOUS
 10
23.4600732931
 20
26.624398914
 40
0.7290321776
 50
348.0
 51
108.0
  0
ARC
  8
0
 62
7
  6
CONTINUOUS
 10
26.2414446773
 20
24.120040871
 40
0.7290321776
 50
348.0
 51
48.0
  0
ARC
  8
0
 62
7
  6
CONTINUOUS
 10
20.581646014
 20
13.0824632691
 40
0.7290321776
 50
228.0
 51
288.0
  0
ARC
  8
0
 62
7
  6
CONTINUOUS
 10
13.0745707529
 20
19.8418641951
 40
0.7290321776
 50
108.0
 51
228.0
  0
ARC
  8
0
 62
7
  6
CONTINUOUS
 10
24.1411693916
 20
14.2390225237
 40
0.7290321776
 50
228.0
 51
348.0
  0
ENDBLK
  8
0
  6
BYBLOCK
 62
0
  0
ENDSEC
  0
SECTION
  2
ENTITIES
  0
TEXT
  8
0
 62
5
  6
CONTINUOUS
 10
96.0
 20
25.636
  7
TEXTSTYLE_2
 40
2.8
  1
Scale :
 41
0.6
 51
0.000019
 72
0
  0
TEXT
  8
0
 62
5
  6
CONTINUOUS
 10
116.0
 20
25.636
  7
TEXTSTYLE_2
 40
2.8
  1
Belt type:
 41
0.6
 51
0.000019
 72
0
  0
INSERT
  8
0
 62
2
  6
CONTINUOUS
  2
SYMBOL_3_BL0
 10
32.1213064866
 20
19.8534310916
  0
INSERT
  8
0
 62
2
  6
CONTINUOUS
  2
SYMBOL_8_BL1
 10
173.5956734183
 20
35.5937998301
  0
LINE
  8
0
 62
2
  6
CONTINUOUS
 10
10.0
 20
30.0
 11
200.0
 21
30.0
  0
LINE
  8
0
 62
2
  6
CONTINUOUS
 10
10.0
 20
30.0
 11
10.0
 21
10.0
  0
LINE
  8
0
 62
2
  6
CONTINUOUS
 10
10.0
 20
10.0
 11
200.0
 21
10.0
  0
LINE
  8
0
 62
2
  6
CONTINUOUS
 10
95.0
 20
30.0
 11
95.0
 21
10.0
  0
LINE
  8
0
 62
2
  6
CONTINUOUS
 10
115.0
 20
30.0
 11
115.0
 21
10.0
  0
LINE
  8
0
 62
2
  6
CONTINUOUS
 10
200.0
 20
30.0
 11
200.0
 21
10.0
  0
TEXT
  8
0
 62
5
  6
CONTINUOUS
 10
13.0
 20
23.303
  7
TEXTSTYLE_5
 40
1.52
  1
                                                                     Ammeraal Beltech Modular A/S
 41
1.0
 72
0
  0
TEXT
  8
0
 62
5
  6
CONTINUOUS
 10
13.0
 20
20.595
  7
TEXTSTYLE_5
 40
1.5
  1
                                                                      Hjulmagervej 21,  7100 Vejle,  DK
 41
1.0
 72
0
  0
TEXT
  8
0
 62
5
  6
CONTINUOUS
 10
13.0
 20
17.881
  7
TEXTSTYLE_5
 40
1.495
  1
                                                                      tel: 
 41
1.0
 72
0
  0
TEXT
  8
0
 62
5
  6
CONTINUOUS
 10
57.9869465649
 20
17.881
  7
TEXTSTYLE_5
 40
1.51
  1
+45 75723100     fax: +45 75723348
 41
1.0
 72
0
  0
TEXT
  8
0
 62
5
  6
CONTINUOUS
 10
13.0
 20
15.177
  7
TEXTSTYLE_5
 40
1.5
  1
                                                                      admin@unichains.dk  www.unichains.com
 41
1.0
 72
0
  0
TEXT
  8
0
 62
5
  6
CONTINUOUS
 10
99.75
 20
13.75
  7
TEXTSTYLE_6
 40
5.0
  1
1:1
 41
0.7
 72
1
 11
105.0
 21
13.75
  0
TEXT
  8
0
 62
5
  6
CONTINUOUS
 10
118.0
 20
13.75
  7
TEXTSTYLE_7
 40
7.5
  1
uni Light-SIDEGUARDS-Left
 41
0.463
 72
0
  0
LINE
  8
0
 62
7
  6
CONTINUOUS
 10
210.0
 20
0.0
 11
0.0
 21
0.0
  0
LINE
  8
0
 62
7
  6
CONTINUOUS
 10
10.0
 20
10.0
 11
200.0
 21
10.0
  0
LINE
  8
0
 62
7
  6
CONTINUOUS
 10
10.0
 20
30.0
 11
200.0
 21
30.0
  0
LINE
  8
0
 62
7
  6
CONTINUOUS
 10
0.0
 20
0.0
 11
0.0
 21
297.0
  0
LINE
  8
0
 62
7
  6
CONTINUOUS
 10
10.0
 20
10.0
 11
10.0
 21
287.0
  0
LINE
  8
0
 62
7
  6
CONTINUOUS
 10
200.0
 20
287.0
 11
200.0
 21
10.0
  0
LINE
  8
0
 62
7
  6
CONTINUOUS
 10
210.0
 20
0.0
 11
210.0
 21
297.0
  0
LINE
  8
0
 62
7
  6
CONTINUOUS
 10
10.0
 20
287.0
 11
200.0
 21
287.0
  0
LINE
  8
0
 62
7
  6
CONTINUOUS
 10
0.0
 20
297.0
 11
210.0
 21
297.0
  0
LINE
  8
0
 62
7
  6
CONTINUOUS
 10
83.0205032368
 20
200.5817004106
 11
83.3118512111
 21
200.6440652773
  0
LINE
  8
0
 62
7
  6
CONTINUOUS
 10
82.8118512111
 20
200.5384346708
 11
83.0205032368
 21
200.5817004106
  0
LINE
  8
0
 62
7
  6
CONTINUOUS
 10
71.7618512111
 20
200.5384346708
 11
71.5531991853
 21
200.5817004106
  0
LINE
  8
0
 62
7
  6
CONTINUOUS
 10
71.5531991853
 20
200.5817004106
 11
71.2618512111
 21
200.6440652773
  0
LINE
  8
DEFAULT_1
 62
2
  6
CENTER
 10
59.4512304498
 20
202.2479667705
 11
63.2118512111
 21
202.2479667705
  0
LINE
  8
0
 62
2
  6
CONTINUOUS
 10
66.8818512111
 20
202.2479667705
 11
68.6418512111
 21
202.2479667705
  0
LINE
  8
DEFAULT_1
 62
2
  6
CENTER
 10
72.1618512111
 20
202.2479667705
 11
82.2618512111
 21
202.2479667705
  0
LINE
  8
0
 62
2
  6
CONTINUOUS
 10
85.9318512111
 20
202.2479667705
 11
87.6918512111
 21
202.2479667705
  0
LINE
  8
DEFAULT_1
 62
2
  6
CENTER
 10
91.2118512111
 20
202.2479667705
 11
97.8267820069
 21
202.2479667705
  0
LINE
  8
0
 62
7
  6
CONTINUOUS
 10
71.5531991853
 20
203.9142331304
 11
71.2618512111
 21
203.8518682637
  0
LINE
  8
0
 62
7
  6
CONTINUOUS
 10
71.7618512111
 20
203.9574988702
 11
71.5531991853
 21
203.9142331304
  0
LINE
  8
0
 62
7
  6
CONTINUOUS
 10
82.8118512111
 20
203.9574988702
 11
83.0205032368
 21
203.9142331304
  0
LINE
  8
0
 62
7
  6
CONTINUOUS
 10
83.0205032368
 20
203.9142331304
 11
83.3118512111
 21
203.8518682637
  0
LINE
  8
0
 62
7
  6
CONTINUOUS
 10
58.6168838119
 20
230.3938648042
 11
66.1379077274
 21
207.2465333168
  0
LINE
  8
DEFAULT_1
 62
2
  6
CENTER
 10
67.7618512111
 20
195.7116955017
 11
67.7618512111
 21
197.6979667705
  0
LINE
  8
0
 62
2
  6
CONTINUOUS
 10
67.7618512111
 20
201.3679667705
 11
67.7618512111
 21
203.1279667705
  0
LINE
  8
DEFAULT_1
 62
2
  6
CENTER
 10
67.7618512111
 20
206.6479667705
 11
67.7618512111
 21
208.7607861592
  0
POLYLINE
  8
0
 62
7
  6
CONTINUOUS
 66
1
 70
0
  0
VERTEX
  8
0
 62
7
  6
CONTINUOUS
 10
70.9954294987
 20
206.5979671946
  0
VERTEX
  8
0
 62
7
  6
CONTINUOUS
 10
70.9520909756
 20
206.5967087942
  0
VERTEX
  8
0
 62
7
  6
CONTINUOUS
 10
70.9077961684
 20
206.5919690448
  0
VERTEX
  8
0
 62
7
  6
CONTINUOUS
 10
70.8641835194
 20
206.5824460938
  0
SEQEND
  0
LINE
  8
0
 62
7
  6
CONTINUOUS
 10
71.1727087134
 20
206.5979667705
 11
70.9954294987
 21
206.5979667705
  0
LINE
  8
0
 62
7
  6
CONTINUOUS
 10
71.8868512111
 20
206.8979667705
 11
82.6868512111
 21
206.8979667705
  0
POLYLINE
  8
0
 62
7
  6
CONTINUOUS
 66
1
 70
0
  0
VERTEX
  8
0
 62
7
  6
CONTINUOUS
 10
70.7644779122
 20
207.0979667705
  0
VERTEX
  8
0
 62
7
  6
CONTINUOUS
 10
70.7928827241
 20
207.0558192908
  0
VERTEX
  8
0
 62
7
  6
CONTINUOUS
 10
70.8025173561
 20
207.0288364083
  0
VERTEX
  8
0
 62
7
  6
CONTINUOUS
 10
70.8103646453
 20
206.9667205809
  0
SEQEND
  0
LINE
  8
0
 62
7
  6
CONTINUOUS
 10
70.8868512111
 20
205.4700584824
 11
70.8868512111
 21
205.8979667704
  0
LINE
  8
0
 62
7
  6
CONTINUOUS
 10
71.7618512111
 20
203.9574988702
 11
71.7618512111
 21
200.5384346708
  0
LINE
  8
0
 62
7
  6
CONTINUOUS
 10
70.8103646453
 20
206.9667205809
 11
70.8103622835
 21
206.94255836
  0
LINE
  8
0
 62
7
  6
CONTINUOUS
 10
76.7399760621
 20
212.5032859039
 11
76.8858094649
 21
212.540519942
  0
LINE
  8
0
 62
7
  6
CONTINUOUS
 10
81.0967473226
 20
214.0341369871
 11
80.9509137111
 21
213.996902936
  0
LINE
  8
0
 62
7
  6
CONTINUOUS
 10
79.4196637111
 20
213.8479667705
 11
79.5654969053
 21
213.8852008119
  0
LINE
  8
0
 62
7
  6
CONTINUOUS
 10
78.5628926592
 20
213.2479667705
 11
78.3806012707
 21
213.2107327324
  0
LINE
  8
0
 62
7
  6
CONTINUOUS
 10
76.9222678678
 20
212.6894560945
 11
76.7035178678
 21
212.6522220564
  0
LINE
  8
0
 62
7
  6
CONTINUOUS
 10
78.4899762707
 20
213.099030618
 11
78.7087262707
 21
213.1362646562
  0
LINE
  8
0
 62
7
  6
CONTINUOUS
 10
80.9509137111
 20
213.8479667705
 11
81.1696637111
 21
213.8852008119
  0
LINE
  8
0
 62
7
  6
CONTINUOUS
 10
76.9222678678
 20
211.4979667705
 11
77.1774760621
 21
211.5352008119
  0
LINE
  8
0
 62
7
  6
CONTINUOUS
 10
77.1410178678
 20
211.6841369871
 11
76.8858094649
 21
211.646902936
  0
LINE
  8
0
 62
7
  6
CONTINUOUS
 10
74.6983094649
 20
211.4979667705
 11
76.0108094649
 21
211.4979667705
  0
LINE
  8
0
 62
7
  6
CONTINUOUS
 10
78.1253928678
 20
211.4979667705
 11
78.3076844649
 21
211.4979667705
  0
LINE
  8
0
 62
7
  6
CONTINUOUS
 10
76.0108094649
 20
211.7213710253
 11
74.9170594649
 21
211.7213710253
  0
LINE
  8
0
 62
7
  6
CONTINUOUS
 10
77.4691428678
 20
211.8703072038
 11
77.2868510621
 21
211.8703072038
  0
LINE
  8
0
 62
7
  6
CONTINUOUS
 10
76.4847678678
 20
212.0937114325
 11
77.4691428678
 21
212.0937114325
  0
LINE
  8
0
 62
7
  6
CONTINUOUS
 10
77.2868510621
 20
212.2426476371
 11
76.5212260621
 21
212.2426476371
  0
LINE
  8
0
 62
7
  6
CONTINUOUS
 10
77.7608094649
 20
212.540519942
 11
78.1253928678
 21
212.540519942
  0
LINE
  8
0
 62
7
  6
CONTINUOUS
 10
78.3076844649
 20
212.540519942
 11
78.6358094649
 21
212.540519942
  0
LINE
  8
0
 62
7
  6
CONTINUOUS
 10
79.0003926592
 20
212.540519942
 11
79.2920594649
 21
212.540519942
  0
LINE
  8
0
 62
7
  6
CONTINUOUS
 10
79.4743512707
 20
212.540519942
 11
79.8753926592
 21
212.540519942
  0
LINE
  8
0
 62
7
  6
CONTINUOUS
 10
79.8753926592
 20
212.6894560945
 11
79.4743512707
 21
212.6894560945
  0
LINE
  8
0
 62
7
  6
CONTINUOUS
 10
79.2920594649
 20
212.6894560945
 11
79.0003926592
 21
212.6894560945
  0
LINE
  8
0
 62
7
  6
CONTINUOUS
 10
78.6358094649
 20
212.6894560945
 11
78.3076844649
 21
212.6894560945
  0
LINE
  8
0
 62
7
  6
CONTINUOUS
 10
78.1253928678
 20
212.6894560945
 11
77.7608094649
 21
212.6894560945
  0
LINE
  8
0
 62
7
  6
CONTINUOUS
 10
79.4743512707
 20
212.9873285037
 11
79.2920594649
 21
212.9873285037
  0
LINE
  8
0
 62
7
  6
CONTINUOUS
 10
78.7087262707
 20
213.2479667705
 11
78.5628926592
 21
213.2479667705
  0
LINE
  8
0
 62
7
  6
CONTINUOUS
 10
74.9170594649
 20
213.2479667705
 11
74.6983094649
 21
213.2479667705
  0
LINE
  8
0
 62
7
  6
CONTINUOUS
 10
76.7035178678
 20
211.5352008119
 11
76.9222678678
 21
211.4979667705
  0
LINE
  8
0
 62
7
  6
CONTINUOUS
 10
79.5837262707
 20
211.5352008119
 11
79.8024762707
 21
211.4979667705
  0
LINE
  8
0
 62
7
  6
CONTINUOUS
 10
76.8858094649
 20
212.540519942
 11
77.1045594649
 21
212.5032859039
  0
LINE
  8
0
 62
7
  6
CONTINUOUS
 10
77.1410178678
 20
212.6522220564
 11
76.9222678678
 21
212.6894560945
  0
LINE
  8
0
 62
7
  6
CONTINUOUS
 10
79.8024762707
 20
211.646902936
 11
79.6201844649
 21
211.6841369871
  0
LINE
  8
0
 62
7
  6
CONTINUOUS
 10
73.5863303864
 20
213.8852008119
 11
73.7686220618
 21
213.8479667705
  0
LINE
  8
0
 62
7
  6
CONTINUOUS
 10
76.8858094649
 20
211.646902936
 11
76.7399760621
 21
211.6841369871
  0
LINE
  8
0
 62
7
  6
CONTINUOUS
 10
73.7686220618
 20
214.0713710253
 11
73.6227887111
 21
214.1086050634
  0
LINE
  8
0
 62
7
  6
CONTINUOUS
 10
75.1904971139
 20
213.8852008119
 11
75.3363303082
 21
213.8479667705
  0
LINE
  8
0
 62
7
  6
CONTINUOUS
 10
76.5941428678
 20
211.5724348532
 11
76.7035178678
 21
211.5352008119
  0
LINE
  8
0
 62
7
  6
CONTINUOUS
 10
79.4743512707
 20
211.5724348532
 11
79.5837262707
 21
211.5352008119
  0
LINE
  8
0
 62
7
  6
CONTINUOUS
 10
76.7399760621
 20
211.6841369871
 11
76.6670594649
 21
211.7213710253
  0
LINE
  8
0
 62
7
  6
CONTINUOUS
 10
73.4404970357
 20
213.9596688979
 11
73.5863303864
 21
213.8852008119
  0
LINE
  8
0
 62
7
  6
CONTINUOUS
 10
75.3363303082
 20
213.996902936
 11
75.1904971139
 21
214.0713710253
  0
LINE
  8
0
 62
7
  6
CONTINUOUS
 10
77.3233094649
 20
212.540519942
 11
77.1410178678
 21
212.6522220564
  0
LINE
  8
0
 62
7
  6
CONTINUOUS
 10
76.4847678678
 20
211.646902936
 11
76.5941428678
 21
211.5724348532
  0
LINE
  8
0
 62
7
  6
CONTINUOUS
 10
73.6227887111
 20
214.1086050634
 11
73.5134137111
 21
214.1830731657
  0
LINE
  8
0
 62
7
  6
CONTINUOUS
 10
77.1045594649
 20
212.5032859039
 11
77.2139344649
 21
212.4288178277
  0
LINE
  8
0
 62
7
  6
CONTINUOUS
 10
75.0811221139
 20
213.9596688979
 11
75.1904971139
 21
213.8852008119
  0
LINE
  8
0
 62
7
  6
CONTINUOUS
 10
73.2946637111
 20
214.1086050634
 11
73.4404970357
 21
213.9596688979
  0
LINE
  8
0
 62
7
  6
CONTINUOUS
 10
76.4118511664
 20
211.7213710253
 11
76.4847678678
 21
211.646902936
  0
LINE
  8
0
 62
7
  6
CONTINUOUS
 10
76.6670594649
 20
211.7213710253
 11
76.5576844649
 21
211.8330731657
  0
LINE
  8
0
 62
7
  6
CONTINUOUS
 10
73.5134137111
 20
214.1830731657
 11
73.4404970357
 21
214.29477528
  0
LINE
  8
0
 62
7
  6
CONTINUOUS
 10
73.2217470455
 20
214.2575412419
 11
73.2946637111
 21
214.1086050634
  0
LINE
  8
0
 62
7
  6
CONTINUOUS
 10
73.4404970357
 20
214.29477528
 11
73.4040387111
 21
214.4437114325
  0
LINE
  8
0
 62
7
  6
CONTINUOUS
 10
73.1852887111
 20
214.4437114325
 11
73.2217470455
 21
214.2575412419
  0
LINE
  8
0
 62
7
  6
CONTINUOUS
 10
73.1852887111
 20
215.0022220564
 11
73.1852887111
 21
214.4437114325
  0
LINE
  8
0
 62
7
  6
CONTINUOUS
 10
73.4040387111
 20
214.4437114325
 11
73.4040387111
 21
215.0022220564
  0
LINE
  8
0
 62
7
  6
CONTINUOUS
 10
74.0602887111
 20
214.8160518658
 11
74.0602887111
 21
214.5926476371
  0
LINE
  8
0
 62
7
  6
CONTINUOUS
 10
74.3884137111
 20
214.5926476371
 11
74.3884137111
 21
214.29477528
  0
LINE
  8
0
 62
7
  6
CONTINUOUS
 10
74.6071637111
 20
214.2575412419
 11
74.6071637111
 21
214.8160518658
  0
LINE
  8
0
 62
7
  6
CONTINUOUS
 10
74.6983094649
 20
213.2479667705
 11
74.6983094649
 21
211.4979667705
  0
LINE
  8
0
 62
7
  6
CONTINUOUS
 10
74.8988304125
 20
215.0394560945
 11
74.8988304125
 21
214.29477528
  0
LINE
  8
0
 62
7
  6
CONTINUOUS
 10
74.9170594649
 20
211.7213710253
 11
74.9170594649
 21
213.2479667705
  0
LINE
  8
0
 62
7
  6
CONTINUOUS
 10
75.0264344649
 20
217.5383923512
 11
75.0264344649
 21
217.3894560945
  0
LINE
  8
0
 62
7
  6
CONTINUOUS
 10
75.0811221139
 20
214.29477528
 11
75.0811221139
 21
215.0394560945
  0
LINE
  8
0
 62
7
  6
CONTINUOUS
 10
73.2217470455
 20
215.1883923512
 11
73.1852887111
 21
215.0022220564
  0
LINE
  8
0
 62
7
  6
CONTINUOUS
 10
73.4040387111
 20
215.0022220564
 11
73.4404970357
 21
215.1511582088
  0
POLYLINE
  8
0
 62
7
  6
CONTINUOUS
 66
1
 70
0
  0
VERTEX
  8
0
 62
7
  6
CONTINUOUS
 10
70.6605602874
 20
206.4240855534
  0
VERTEX
  8
0
 62
7
  6
CONTINUOUS
 10
70.7121420784
 20
206.5936025067
  0
VERTEX
  8
0
 62
7
  6
CONTINUOUS
 10
70.7594827073
 20
206.7323637356
  0
VERTEX
  8
0
 62
7
  6
CONTINUOUS
 10
70.7952112825
 20
206.8472361719
  0
VERTEX
  8
0
 62
7
  6
CONTINUOUS
 10
70.8103622835
 20
206.94255836
  0
SEQEND
  0
LINE
  8
0
 62
7
  6
CONTINUOUS
 10
73.2946637111
 20
215.3373285037
 11
73.2217470455
 21
215.1883923512
  0
LINE
  8
0
 62
7
  6
CONTINUOUS
 10
79.5654969053
 20
214.0713710253
 11
79.4196637111
 21
214.0341369871
  0
LINE
  8
0
 62
7
  6
CONTINUOUS
 10
80.5134137111
 20
214.8532859039
 11
80.6592473226
 21
214.890519942
  0
LINE
  8
0
 62
7
  6
CONTINUOUS
 10
75.4821637111
 20
213.8479667705
 11
75.6279971139
 21
213.8852008119
  0
LINE
  8
0
 62
7
  6
CONTINUOUS
 10
75.6279971139
 20
214.0341369871
 11
75.4821637111
 21
213.996902936
  0
LINE
  8
0
 62
7
  6
CONTINUOUS
 10
79.2009137111
 20
215.0394560945
 11
79.0550805168
 21
215.0022220564
  0
LINE
  8
0
 62
7
  6
CONTINUOUS
 10
76.7217469053
 20
214.4437114325
 11
76.8675805168
 21
214.4809454706
  0
LINE
  8
0
 62
7
  6
CONTINUOUS
 10
74.2425804125
 20
214.1086050634
 11
74.0967470096
 21
214.0713710253
  0
LINE
  8
0
 62
7
  6
CONTINUOUS
 10
76.6488303082
 20
214.8532859039
 11
76.7946637111
 21
214.890519942
  0
LINE
  8
0
 62
7
  6
CONTINUOUS
 10
76.9404969053
 20
213.8479667705
 11
77.1227887111
 21
213.8852008119
  0
LINE
  8
0
 62
7
  6
CONTINUOUS
 10
74.0967470096
 20
213.8479667705
 11
74.2790387111
 21
213.8852008119
  0
LINE
  8
0
 62
7
  6
CONTINUOUS
 10
78.4717469053
 20
215.0394560945
 11
78.2894555168
 21
215.0022220564
  0
LINE
  8
0
 62
7
  6
CONTINUOUS
 10
80.6592473226
 20
215.0394560945
 11
80.4404973226
 21
215.0022220564
  0
LINE
  8
0
 62
7
  6
CONTINUOUS
 10
78.2529969053
 20
214.8160518658
 11
78.4717469053
 21
214.8532859039
  0
LINE
  8
0
 62
7
  6
CONTINUOUS
 10
76.8675805168
 20
214.6298816752
 11
76.6488303082
 21
214.5926476371
  0
LINE
  8
0
 62
7
  6
CONTINUOUS
 10
76.7946637111
 20
215.0394560945
 11
76.5394553082
 21
215.0022220564
  0
LINE
  8
0
 62
7
  6
CONTINUOUS
 10
79.1097676592
 20
216.1979667705
 11
79.3649762707
 21
216.2352008119
  0
LINE
  8
0
 62
7
  6
CONTINUOUS
 10
73.7686220618
 20
213.8479667705
 11
74.0967470096
 21
213.8479667705
  0
LINE
  8
0
 62
7
  6
CONTINUOUS
 10
75.3363303082
 20
213.8479667705
 11
75.4821637111
 21
213.8479667705
  0
LINE
  8
0
 62
7
  6
CONTINUOUS
 10
75.8832053082
 20
213.8479667705
 11
76.0654971139
 21
213.8479667705
  0
LINE
  8
0
 62
7
  6
CONTINUOUS
 10
76.7217469053
 20
213.8479667705
 11
76.9404969053
 21
213.8479667705
  0
LINE
  8
0
 62
7
  6
CONTINUOUS
 10
77.3415387111
 20
213.8479667705
 11
77.5238305168
 21
213.8479667705
  0
LINE
  8
0
 62
7
  6
CONTINUOUS
 10
77.8154969053
 20
213.8479667705
 11
77.9977887111
 21
213.8479667705
  0
LINE
  8
0
 62
7
  6
CONTINUOUS
 10
79.2009137111
 20
213.8479667705
 11
79.4196637111
 21
213.8479667705
  0
LINE
  8
0
 62
7
  6
CONTINUOUS
 10
79.7477887111
 20
213.8479667705
 11
79.9300805168
 21
213.8479667705
  0
LINE
  8
0
 62
7
  6
CONTINUOUS
 10
80.7321637111
 20
213.8479667705
 11
80.9509137111
 21
213.8479667705
  0
LINE
  8
0
 62
7
  6
CONTINUOUS
 10
80.9509137111
 20
213.996902936
 11
80.7321637111
 21
213.996902936
  0
LINE
  8
0
 62
7
  6
CONTINUOUS
 10
76.9404969053
 20
213.996902936
 11
76.7217469053
 21
213.996902936
  0
LINE
  8
0
 62
7
  6
CONTINUOUS
 10
75.4821637111
 20
213.996902936
 11
75.3363303082
 21
213.996902936
  0
LINE
  8
0
 62
7
  6
CONTINUOUS
 10
79.4196637111
 20
214.0341369871
 11
79.2738305168
 21
214.0341369871
  0
LINE
  8
0
 62
7
  6
CONTINUOUS
 10
74.0967470096
 20
214.0713710253
 11
73.7686220618
 21
214.0713710253
  0
LINE
  8
0
 62
7
  6
CONTINUOUS
 10
80.4040387111
 20
214.1458391015
 11
80.2217473226
 21
214.1458391015
  0
LINE
  8
0
 62
7
  6
CONTINUOUS
 10
76.8675805168
 20
214.4809454706
 11
77.2686219053
 21
214.4809454706
  0
LINE
  8
0
 62
7
  6
CONTINUOUS
 10
74.0602887111
 20
214.5926476371
 11
74.3884137111
 21
214.5926476371
  0
LINE
  8
0
 62
7
  6
CONTINUOUS
 10
77.2686219053
 20
214.6298816752
 11
76.8675805168
 21
214.6298816752
  0
LINE
  8
0
 62
7
  6
CONTINUOUS
 10
76.3571637111
 20
214.7415837896
 11
76.5394553082
 21
214.7415837896
  0
LINE
  8
0
 62
7
  6
CONTINUOUS
 10
81.2061223226
 20
214.7415837896
 11
81.3884137111
 21
214.7415837896
  0
LINE
  8
0
 62
7
  6
CONTINUOUS
 10
74.6071637111
 20
214.8160518658
 11
74.0602887111
 21
214.8160518658
  0
LINE
  8
0
 62
7
  6
CONTINUOUS
 10
79.2009137111
 20
214.8532859039
 11
79.4196637111
 21
214.8532859039
  0
LINE
  8
0
 62
7
  6
CONTINUOUS
 10
76.7946637111
 20
214.890519942
 11
77.0134137111
 21
214.890519942
  0
LINE
  8
0
 62
7
  6
CONTINUOUS
 10
80.6592473226
 20
214.890519942
 11
80.8779973226
 21
214.890519942
  0
LINE
  8
0
 62
7
  6
CONTINUOUS
 10
80.8779973226
 20
215.0394560945
 11
80.6592473226
 21
215.0394560945
  0
LINE
  8
0
 62
7
  6
CONTINUOUS
 10
79.4196637111
 20
215.0394560945
 11
79.2009137111
 21
215.0394560945
  0
LINE
  8
0
 62
7
  6
CONTINUOUS
 10
77.9977887111
 20
215.0394560945
 11
77.8154969053
 21
215.0394560945
  0
LINE
  8
0
 62
7
  6
CONTINUOUS
 10
77.0134137111
 20
215.0394560945
 11
76.7946637111
 21
215.0394560945
  0
LINE
  8
0
 62
7
  6
CONTINUOUS
 10
75.9925803082
 20
215.0394560945
 11
75.8102887111
 21
215.0394560945
  0
LINE
  8
0
 62
7
  6
CONTINUOUS
 10
75.0811221139
 20
215.0394560945
 11
74.8988304125
 21
215.0394560945
  0
LINE
  8
0
 62
7
  6
CONTINUOUS
 10
74.3884137111
 20
215.1511582088
 11
74.6071637111
 21
215.1511582088
  0
LINE
  8
0
 62
7
  6
CONTINUOUS
 10
73.7686220618
 20
215.3745625418
 11
74.0967470096
 21
215.3745625418
  0
LINE
  8
0
 62
7
  6
CONTINUOUS
 10
79.9300805168
 20
215.5979667705
 11
79.7477887111
 21
215.5979667705
  0
LINE
  8
0
 62
7
  6
CONTINUOUS
 10
74.0967470096
 20
215.5979667705
 11
73.7686220618
 21
215.5979667705
  0
LINE
  8
0
 62
7
  6
CONTINUOUS
 10
80.5134137111
 20
213.8852008119
 11
80.7321637111
 21
213.8479667705
  0
LINE
  8
0
 62
7
  6
CONTINUOUS
 10
80.7321637111
 20
213.996902936
 11
80.5134137111
 21
214.0341369871
  0
LINE
  8
0
 62
7
  6
CONTINUOUS
 10
77.2321637111
 20
215.0022220564
 11
77.0134137111
 21
215.0394560945
  0
LINE
  8
0
 62
7
  6
CONTINUOUS
 10
80.8779973226
 20
214.890519942
 11
81.0967473226
 21
214.8532859039
  0
LINE
  8
0
 62
7
  6
CONTINUOUS
 10
81.0967473226
 20
215.0022220564
 11
80.8779973226
 21
215.0394560945
  0
LINE
  8
0
 62
7
  6
CONTINUOUS
 10
74.2790387111
 20
215.5607327324
 11
74.0967470096
 21
215.5979667705
  0
LINE
  8
0
 62
7
  6
CONTINUOUS
 10
75.2451844649
 20
216.2352008119
 11
75.4274761142
 21
216.1979667705
  0
LINE
  8
0
 62
7
  6
CONTINUOUS
 10
76.5759137111
 20
213.8852008119
 11
76.7217469053
 21
213.8479667705
  0
LINE
  8
0
 62
7
  6
CONTINUOUS
 10
79.0550805168
 20
213.8852008119
 11
79.2009137111
 21
213.8479667705
  0
LINE
  8
0
 62
7
  6
CONTINUOUS
 10
79.2738305168
 20
214.0341369871
 11
79.1279969053
 21
214.0713710253
  0
LINE
  8
0
 62
7
  6
CONTINUOUS
 10
74.0967470096
 20
215.3745625418
 11
74.2425804125
 21
215.3373285037
  0
LINE
  8
0
 62
7
  6
CONTINUOUS
 10
77.0134137111
 20
214.890519942
 11
77.1592469053
 21
214.8532859039
  0
LINE
  8
0
 62
7
  6
CONTINUOUS
 10
79.4196637111
 20
214.8532859039
 11
79.5654969053
 21
214.8160518658
  0
LINE
  8
0
 62
7
  6
CONTINUOUS
 10
79.5654969053
 20
215.0022220564
 11
79.4196637111
 21
215.0394560945
  0
LINE
  8
0
 62
7
  6
CONTINUOUS
 10
80.4404973226
 20
214.4809454706
 11
81.0602887111
 21
214.29477528
  0
LINE
  8
0
 62
7
  6
CONTINUOUS
 10
81.1696637111
 20
214.4064773944
 11
80.5498723226
 21
214.5926476371
  0
LINE
  8
0
 62
7
  6
CONTINUOUS
 10
80.4040387111
 20
213.9224348532
 11
80.5134137111
 21
213.8852008119
  0
LINE
  8
0
 62
7
  6
CONTINUOUS
 10
76.5029971139
 20
213.9224348532
 11
76.5759137111
 21
213.8852008119
  0
LINE
  8
0
 62
7
  6
CONTINUOUS
 10
76.7217469053
 20
213.996902936
 11
76.5759137111
 21
214.0713710253
  0
LINE
  8
0
 62
7
  6
CONTINUOUS
 10
74.4248720096
 20
215.4862646562
 11
74.2790387111
 21
215.5607327324
  0
LINE
  8
0
 62
7
  6
CONTINUOUS
 10
77.1592469053
 20
214.8532859039
 11
77.2321637111
 21
214.8160518658
  0
LINE
  8
0
 62
7
  6
CONTINUOUS
 10
80.5134137111
 20
214.0341369871
 11
80.4404973226
 21
214.0713710253
  0
LINE
  8
0
 62
7
  6
CONTINUOUS
 10
75.0628928026
 20
216.346902936
 11
75.2451844649
 21
216.2352008119
  0
LINE
  8
0
 62
7
  6
CONTINUOUS
 10
79.3649762707
 20
211.646902936
 11
79.4743512707
 21
211.5724348532
  0
LINE
  8
0
 62
7
  6
CONTINUOUS
 10
74.2425804125
 20
215.3373285037
 11
74.3519554125
 21
215.2628604275
  0
LINE
  8
0
 62
7
  6
CONTINUOUS
 10
79.6201844649
 20
211.6841369871
 11
79.5108094649
 21
211.7586050634
  0
LINE
  8
0
 62
7
  6
CONTINUOUS
 10
77.3415387111
 20
214.9277539801
 11
77.2321637111
 21
215.0022220564
  0
LINE
  8
0
 62
7
  6
CONTINUOUS
 10
78.9457055168
 20
213.9596688979
 11
79.0550805168
 21
213.8852008119
  0
LINE
  8
0
 62
7
  6
CONTINUOUS
 10
79.1279969053
 20
214.0713710253
 11
79.0186219053
 21
214.1458391015
  0
LINE
  8
0
 62
7
  6
CONTINUOUS
 10
74.9717471139
 20
214.0713710253
 11
75.0811221139
 21
213.9596688979
  0
LINE
  8
0
 62
7
  6
CONTINUOUS
 10
74.5707054125
 20
215.3373285037
 11
74.4248720096
 21
215.4862646562
  0
LINE
  8
0
 62
7
  6
CONTINUOUS
 10
76.3936221139
 20
214.0341369871
 11
76.5029971139
 21
213.9224348532
  0
LINE
  8
0
 62
7
  6
CONTINUOUS
 10
75.2816427896
 20
216.4586050634
 11
75.1722677896
 21
216.5703072038
  0
LINE
  8
0
 62
7
  6
CONTINUOUS
 10
75.0628928026
 20
217.240519942
 11
75.2087261403
 21
217.0915837896
  0
LINE
  8
0
 62
7
  6
CONTINUOUS
 10
77.4144555168
 20
214.8532859039
 11
77.3415387111
 21
214.9277539801
  0
LINE
  8
0
 62
7
  6
CONTINUOUS
 10
77.4326844649
 20
212.3915837896
 11
77.3233094649
 21
212.540519942
  0
LINE
  8
0
 62
7
  6
CONTINUOUS
 10
75.1904971139
 20
214.0713710253
 11
75.1175803082
 21
214.1830731657
  0
LINE
  8
0
 62
7
  6
CONTINUOUS
 10
77.2139344649
 20
212.4288178277
 11
77.2868510621
 21
212.3171157133
  0
LINE
  8
0
 62
7
  6
CONTINUOUS
 10
74.9535177994
 20
216.5330731657
 11
75.0628928026
 21
216.346902936
  0
LINE
  8
0
 62
7
  6
CONTINUOUS
 10
74.9352887111
 20
214.1458391015
 11
74.9717471139
 21
214.0713710253
  0
LINE
  8
0
 62
7
  6
CONTINUOUS
 10
76.3389344649
 20
211.8703072038
 11
76.4118511664
 21
211.7213710253
  0
LINE
  8
0
 62
7
  6
CONTINUOUS
 10
76.5576844649
 20
211.8330731657
 11
76.5212260621
 21
211.9075412419
  0
LINE
  8
0
 62
7
  6
CONTINUOUS
 10
76.0654971139
 20
213.8479667705
 11
76.0290387111
 21
213.9224348532
  0
LINE
  8
0
 62
7
  6
CONTINUOUS
 10
76.5759137111
 20
214.0713710253
 11
76.5394553082
 21
214.1458391015
  0
LINE
  8
0
 62
7
  6
CONTINUOUS
 10
75.8102887111
 20
214.0341369871
 11
75.8832053082
 21
213.8479667705
  0
LINE
  8
0
 62
7
  6
CONTINUOUS
 10
74.3519554125
 20
215.2628604275
 11
74.3884137111
 21
215.1511582088
  0
LINE
  8
0
 62
7
  6
CONTINUOUS
 10
75.1175803082
 20
214.1830731657
 11
75.0811221139
 21
214.29477528
  0
LINE
  8
0
 62
7
  6
CONTINUOUS
 10
76.5212260621
 20
211.9075412419
 11
76.4847678678
 21
212.0192433563
  0
LINE
  8
0
 62
7
  6
CONTINUOUS
 10
75.1722677896
 20
216.5703072038
 11
75.1358094649
 21
216.6820093181
  0
LINE
  8
0
 62
7
  6
CONTINUOUS
 10
75.2816427896
 20
217.3149880182
 11
75.2451844649
 21
217.4266901326
  0
LINE
  8
0
 62
7
  6
CONTINUOUS
 10
74.8988304125
 20
214.29477528
 11
74.9352887111
 21
214.1458391015
  0
LINE
  8
0
 62
7
  6
CONTINUOUS
 10
74.9170594649
 20
216.6820093181
 11
74.9535177994
 21
216.5330731657
  0
LINE
  8
0
 62
7
  6
CONTINUOUS
 10
75.0264344649
 20
217.3894560945
 11
75.0628928026
 21
217.240519942
  0
LINE
  8
0
 62
7
  6
CONTINUOUS
 10
76.0290387111
 20
213.9224348532
 11
75.9925803082
 21
214.0713710253
  0
LINE
  8
0
 62
7
  6
CONTINUOUS
 10
74.6071637111
 20
215.1511582088
 11
74.5707054125
 21
215.3373285037
  0
LINE
  8
0
 62
7
  6
CONTINUOUS
 10
75.2451844649
 20
217.4266901326
 11
75.2451844649
 21
217.5011582088
  0
LINE
  8
0
 62
7
  6
CONTINUOUS
 10
75.8102887111
 20
215.0394560945
 11
75.8102887111
 21
214.2203072038
  0
LINE
  8
0
 62
7
  6
CONTINUOUS
 10
75.9925803082
 20
214.0713710253
 11
75.9925803082
 21
215.0394560945
  0
LINE
  8
0
 62
7
  6
CONTINUOUS
 10
76.0108094649
 20
211.4979667705
 11
76.0108094649
 21
211.7213710253
  0
LINE
  8
0
 62
7
  6
CONTINUOUS
 10
76.0472677635
 20
216.7564773944
 11
76.0472677635
 21
216.64477528
  0
LINE
  8
0
 62
7
  6
CONTINUOUS
 10
76.2660177635
 20
216.6075412419
 11
76.2660177635
 21
216.7937114325
  0
LINE
  8
0
 62
7
  6
CONTINUOUS
 10
76.3571637111
 20
214.8160518658
 11
76.3571637111
 21
214.7415837896
  0
LINE
  8
0
 62
7
  6
CONTINUOUS
 10
76.3571637111
 20
214.29477528
 11
76.3571637111
 21
214.1830731657
  0
LINE
  8
0
 62
7
  6
CONTINUOUS
 10
76.4847678678
 20
212.0192433563
 11
76.4847678678
 21
212.0937114325
  0
LINE
  8
0
 62
7
  6
CONTINUOUS
 10
76.5212260621
 20
212.2426476371
 11
76.5212260621
 21
212.2798816752
  0
LINE
  8
0
 62
7
  6
CONTINUOUS
 10
76.5394553082
 20
214.1458391015
 11
76.5394553082
 21
214.2203072038
  0
LINE
  8
0
 62
7
  6
CONTINUOUS
 10
76.5576844649
 20
217.9479667705
 11
76.5576844649
 21
217.7617965799
  0
LINE
  8
0
 62
7
  6
CONTINUOUS
 10
76.5576844649
 20
217.3894560945
 11
76.5576844649
 21
216.1979667705
  0
LINE
  8
0
 62
7
  6
CONTINUOUS
 10
76.7399760621
 20
216.1979667705
 11
76.7399760621
 21
217.3894560945
  0
LINE
  8
0
 62
7
  6
CONTINUOUS
 10
76.7399760621
 20
217.7617965799
 11
76.7399760621
 21
217.9479667705
  0
LINE
  8
0
 62
7
  6
CONTINUOUS
 10
77.0316428678
 20
216.9426476371
 11
77.0316428678
 21
216.64477528
  0
LINE
  8
0
 62
7
  6
CONTINUOUS
 10
77.2139344649
 20
216.6820093181
 11
77.2139344649
 21
216.905413599
  0
LINE
  8
0
 62
7
  6
CONTINUOUS
 10
77.2686219053
 20
214.7415837896
 11
77.2686219053
 21
214.6298816752
  0
LINE
  8
0
 62
7
  6
CONTINUOUS
 10
77.2686219053
 20
214.4809454706
 11
77.2686219053
 21
214.2575412419
  0
LINE
  8
0
 62
7
  6
CONTINUOUS
 10
77.2868510621
 20
212.3171157133
 11
77.2868510621
 21
212.2426476371
  0
LINE
  8
DEFAULT_1
 62
2
  6
CENTER
 10
77.2868512111
 20
195.8979667705
 11
77.2868510621
 21
212.2426476371
  0
LINE
  8
DEFAULT_1
 62
2
  6
CENTER
 10
77.2868510621
 20
212.3171157133
 11
77.2868512111
 21
240.2479667705
  0
LINE
  8
0
 62
7
  6
CONTINUOUS
 10
77.4509137111
 20
214.1458391015
 11
77.4509137111
 21
214.7415837896
  0
LINE
  8
0
 62
7
  6
CONTINUOUS
 10
77.4691428678
 20
212.0937114325
 11
77.4691428678
 21
212.2426476371
  0
LINE
  8
0
 62
7
  6
CONTINUOUS
 10
76.3389344649
 20
212.3171157133
 11
76.3024761664
 21
212.0937114325
  0
LINE
  8
0
 62
7
  6
CONTINUOUS
 10
75.0628928026
 20
217.6873285037
 11
75.0264344649
 21
217.5383923512
  0
LINE
  8
0
 62
7
  6
CONTINUOUS
 10
74.5707054125
 20
214.1086050634
 11
74.6071637111
 21
214.2575412419
  0
LINE
  8
0
 62
7
  6
CONTINUOUS
 10
77.0681010621
 20
217.0915837896
 11
77.0316428678
 21
216.9426476371
  0
LINE
  8
0
 62
7
  6
CONTINUOUS
 10
75.2451844649
 20
217.5011582088
 11
75.2816427896
 21
217.6128604275
  0
LINE
  8
0
 62
7
  6
CONTINUOUS
 10
74.3884137111
 20
214.29477528
 11
74.3519554125
 21
214.1830731657
  0
LINE
  8
0
 62
7
  6
CONTINUOUS
 10
77.2139344649
 20
216.905413599
 11
77.2503928678
 21
217.0171157133
  0
LINE
  8
0
 62
7
  6
CONTINUOUS
 10
76.1931011664
 20
216.4586050634
 11
76.2660177635
 21
216.6075412419
  0
LINE
  8
0
 62
7
  6
CONTINUOUS
 10
77.1045594649
 20
217.1660518658
 11
77.0681010621
 21
217.0915837896
  0
POLYLINE
  8
0
 62
7
  6
CONTINUOUS
 66
1
 70
0
  0
VERTEX
  8
0
 62
7
  6
CONTINUOUS
 10
70.6605602874
 20
206.4240855534
  0
VERTEX
  8
0
 62
7
  6
CONTINUOUS
 10
70.683310844
 20
206.4691511075
  0
VERTEX
  8
0
 62
7
  6
CONTINUOUS
 10
70.7256367367
 20
206.5122729344
  0
VERTEX
  8
0
 62
7
  6
CONTINUOUS
 10
70.7855147548
 20
206.5510764128
  0
VERTEX
  8
0
 62
7
  6
CONTINUOUS
 10
70.8641787843
 20
206.5824445914
  0
SEQEND
  0
LINE
  8
0
 62
7
  6
CONTINUOUS
 10
73.4404970357
 20
215.1511582088
 11
73.5134137111
 21
215.2628604275
  0
LINE
  8
0
 62
7
  6
CONTINUOUS
 10
76.0472677635
 20
216.64477528
 11
75.9743511664
 21
216.5330731657
  0
LINE
  8
0
 62
7
  6
CONTINUOUS
 10
75.2087261403
 20
217.8362646562
 11
75.0628928026
 21
217.6873285037
  0
LINE
  8
0
 62
7
  6
CONTINUOUS
 10
73.4404970357
 20
215.4862646562
 11
73.2946637111
 21
215.3373285037
  0
LINE
  8
0
 62
7
  6
CONTINUOUS
 10
75.2816427896
 20
217.6128604275
 11
75.3910178157
 21
217.6873285037
  0
LINE
  8
0
 62
7
  6
CONTINUOUS
 10
73.5134137111
 20
215.2628604275
 11
73.6227887111
 21
215.3373285037
  0
LINE
  8
0
 62
7
  6
CONTINUOUS
 10
75.3545594649
 20
217.9107327324
 11
75.2087261403
 21
217.8362646562
  0
LINE
  8
0
 62
7
  6
CONTINUOUS
 10
75.3910178157
 20
217.6873285037
 11
75.5003928157
 21
217.7245625418
  0
LINE
  8
0
 62
7
  6
CONTINUOUS
 10
77.6878928678
 20
216.1979667705
 11
77.8337260621
 21
216.2352008119
  0
LINE
  8
0
 62
7
  6
CONTINUOUS
 10
73.6227887111
 20
215.3373285037
 11
73.7686220618
 21
215.3745625418
  0
LINE
  8
0
 62
7
  6
CONTINUOUS
 10
77.8337260621
 20
216.4213710253
 11
77.6878928678
 21
216.3841369871
  0
LINE
  8
0
 62
7
  6
CONTINUOUS
 10
78.9274762707
 20
217.2032859039
 11
79.0733094649
 21
217.240519942
  0
LINE
  8
0
 62
7
  6
CONTINUOUS
 10
75.8649761664
 20
216.4586050634
 11
75.7191428157
 21
216.4213710253
  0
LINE
  8
0
 62
7
  6
CONTINUOUS
 10
77.4691428678
 20
217.3894560945
 11
77.3233094649
 21
217.3522220564
  0
LINE
  8
0
 62
7
  6
CONTINUOUS
 10
75.5003928157
 20
217.9479667705
 11
75.3545594649
 21
217.9107327324
  0
LINE
  8
0
 62
7
  6
CONTINUOUS
 10
73.7686220618
 20
215.5979667705
 11
73.5863303864
 21
215.5607327324
  0
LINE
  8
0
 62
7
  6
CONTINUOUS
 10
75.7191428157
 20
216.1979667705
 11
75.9014344649
 21
216.2352008119
  0
LINE
  8
0
 62
7
  6
CONTINUOUS
 10
79.1097676592
 20
217.3894560945
 11
78.8910176592
 21
217.3522220564
  0
LINE
  8
0
 62
7
  6
CONTINUOUS
 10
79.3285176592
 20
216.3841369871
 11
79.0733094649
 21
216.346902936
  0
LINE
  8
0
 62
7
  6
CONTINUOUS
 10
75.4274761142
 20
216.1979667705
 11
75.7191428157
 21
216.1979667705
  0
LINE
  8
0
 62
7
  6
CONTINUOUS
 10
76.5576844649
 20
216.1979667705
 11
76.7399760621
 21
216.1979667705
  0
LINE
  8
0
 62
7
  6
CONTINUOUS
 10
77.4691428678
 20
216.1979667705
 11
77.6878928678
 21
216.1979667705
  0
LINE
  8
0
 62
7
  6
CONTINUOUS
 10
78.0160178678
 20
216.1979667705
 11
78.1983094649
 21
216.1979667705
  0
LINE
  8
0
 62
7
  6
CONTINUOUS
 10
77.6878928678
 20
216.3841369871
 11
77.5420594649
 21
216.3841369871
  0
LINE
  8
0
 62
7
  6
CONTINUOUS
 10
75.7191428157
 20
216.4213710253
 11
75.4274761142
 21
216.4213710253
  0
LINE
  8
0
 62
7
  6
CONTINUOUS
 10
79.6566426592
 20
216.5703072038
 11
79.4743512707
 21
216.5703072038
  0
LINE
  8
0
 62
7
  6
CONTINUOUS
 10
75.1358094649
 20
216.6820093181
 11
74.9170594649
 21
216.6820093181
  0
LINE
  8
0
 62
7
  6
CONTINUOUS
 10
78.6722676592
 20
216.7937114325
 11
79.6566426592
 21
216.7937114325
  0
LINE
  8
0
 62
7
  6
CONTINUOUS
 10
79.4743512707
 20
216.9426476371
 11
78.7087262707
 21
216.9426476371
  0
LINE
  8
0
 62
7
  6
CONTINUOUS
 10
75.5003928157
 20
216.9798816752
 11
75.7191428157
 21
216.9798816752
  0
LINE
  8
0
 62
7
  6
CONTINUOUS
 10
75.7191428157
 20
217.2032859039
 11
75.5003928157
 21
217.2032859039
  0
LINE
  8
0
 62
7
  6
CONTINUOUS
 10
77.4691428678
 20
217.2032859039
 11
77.6878928678
 21
217.2032859039
  0
LINE
  8
0
 62
7
  6
CONTINUOUS
 10
77.6878928678
 20
217.3894560945
 11
77.4691428678
 21
217.3894560945
  0
LINE
  8
0
 62
7
  6
CONTINUOUS
 10
76.7399760621
 20
217.3894560945
 11
76.5576844649
 21
217.3894560945
  0
LINE
  8
0
 62
7
  6
CONTINUOUS
 10
75.9378927635
 20
217.5383923512
 11
76.1566427635
 21
217.5383923512
  0
LINE
  8
0
 62
7
  6
CONTINUOUS
 10
75.5003928157
 20
217.7245625418
 11
75.7191428157
 21
217.7245625418
  0
LINE
  8
0
 62
7
  6
CONTINUOUS
 10
76.5576844649
 20
217.7617965799
 11
76.7399760621
 21
217.7617965799
  0
LINE
  8
0
 62
7
  6
CONTINUOUS
 10
78.1983094649
 20
217.9479667705
 11
78.0160178678
 21
217.9479667705
  0
LINE
  8
0
 62
7
  6
CONTINUOUS
 10
76.7399760621
 20
217.9479667705
 11
76.5576844649
 21
217.9479667705
  0
LINE
  8
0
 62
7
  6
CONTINUOUS
 10
75.6826844649
 20
217.9479667705
 11
75.5003928157
 21
217.9479667705
  0
LINE
  8
0
 62
7
  6
CONTINUOUS
 10
78.8910176592
 20
216.2352008119
 11
79.1097676592
 21
216.1979667705
  0
LINE
  8
0
 62
7
  6
CONTINUOUS
 10
79.0733094649
 20
217.240519942
 11
79.2920594649
 21
217.2032859039
  0
LINE
  8
0
 62
7
  6
CONTINUOUS
 10
79.3285176592
 20
217.3522220564
 11
79.1097676592
 21
217.3894560945
  0
LINE
  8
0
 62
7
  6
CONTINUOUS
 10
75.9014344649
 20
217.1660518658
 11
75.7191428157
 21
217.2032859039
  0
LINE
  8
0
 62
7
  6
CONTINUOUS
 10
75.8649761664
 20
217.9107327324
 11
75.6826844649
 21
217.9479667705
  0
LINE
  8
0
 62
7
  6
CONTINUOUS
 10
75.4274761142
 20
216.4213710253
 11
75.2816427896
 21
216.4586050634
  0
LINE
  8
0
 62
7
  6
CONTINUOUS
 10
77.3233094649
 20
216.2352008119
 11
77.4691428678
 21
216.1979667705
  0
LINE
  8
0
 62
7
  6
CONTINUOUS
 10
77.5420594649
 20
216.3841369871
 11
77.3962260621
 21
216.4213710253
  0
LINE
  8
0
 62
7
  6
CONTINUOUS
 10
75.3545594649
 20
217.0171157133
 11
75.5003928157
 21
216.9798816752
  0
LINE
  8
0
 62
7
  6
CONTINUOUS
 10
75.7191428157
 20
216.9798816752
 11
75.8649761664
 21
216.9426476371
  0
LINE
  8
0
 62
7
  6
CONTINUOUS
 10
79.0733094649
 20
216.346902936
 11
78.9274762707
 21
216.3841369871
  0
LINE
  8
0
 62
7
  6
CONTINUOUS
 10
77.6878928678
 20
217.2032859039
 11
77.8337260621
 21
217.1660518658
  0
LINE
  8
0
 62
7
  6
CONTINUOUS
 10
77.8337260621
 20
217.3522220564
 11
77.6878928678
 21
217.3894560945
  0
LINE
  8
0
 62
7
  6
CONTINUOUS
 10
81.2061223226
 20
214.9649880182
 11
81.0967473226
 21
215.0022220564
  0
LINE
  8
0
 62
7
  6
CONTINUOUS
 10
75.5003928157
 20
217.2032859039
 11
75.3910178157
 21
217.240519942
  0
LINE
  8
0
 62
7
  6
CONTINUOUS
 10
78.7816426592
 20
216.2724348532
 11
78.8910176592
 21
216.2352008119
  0
LINE
  8
0
 62
7
  6
CONTINUOUS
 10
75.7191428157
 20
217.7245625418
 11
75.8285177635
 21
217.6873285037
  0
LINE
  8
0
 62
7
  6
CONTINUOUS
 10
75.2087261403
 20
217.0915837896
 11
75.3545594649
 21
217.0171157133
  0
LINE
  8
0
 62
7
  6
CONTINUOUS
 10
79.6384137111
 20
214.9649880182
 11
79.5654969053
 21
215.0022220564
  0
LINE
  8
0
 62
7
  6
CONTINUOUS
 10
76.0472677635
 20
217.0915837896
 11
75.9014344649
 21
217.1660518658
  0
LINE
  8
0
 62
7
  6
CONTINUOUS
 10
81.0967473226
 20
214.8532859039
 11
81.1696637111
 21
214.8160518658
  0
LINE
  8
0
 62
7
  6
CONTINUOUS
 10
78.9274762707
 20
216.3841369871
 11
78.8545594649
 21
216.4213710253
  0
LINE
  8
0
 62
7
  6
CONTINUOUS
 10
77.9066428678
 20
217.3149880182
 11
77.8337260621
 21
217.3522220564
  0
LINE
  8
0
 62
7
  6
CONTINUOUS
 10
75.3910178157
 20
217.240519942
 11
75.2816427896
 21
217.3149880182
  0
LINE
  8
0
 62
7
  6
CONTINUOUS
 10
75.8649761664
 20
216.9426476371
 11
75.9743511664
 21
216.8681795609
  0
LINE
  8
0
 62
7
  6
CONTINUOUS
 10
80.2946637111
 20
213.996902936
 11
80.4040387111
 21
213.9224348532
  0
LINE
  8
0
 62
7
  6
CONTINUOUS
 10
77.2139344649
 20
216.3096688979
 11
77.3233094649
 21
216.2352008119
  0
LINE
  8
0
 62
7
  6
CONTINUOUS
 10
79.5654969053
 20
214.8160518658
 11
79.6748719053
 21
214.7415837896
  0
LINE
  8
0
 62
7
  6
CONTINUOUS
 10
77.3962260621
 20
216.4213710253
 11
77.2868510621
 21
216.4958391015
  0
LINE
  8
0
 62
7
  6
CONTINUOUS
 10
80.5498723226
 20
214.5926476371
 11
80.4404973226
 21
214.6671157133
  0
LINE
  8
0
 62
7
  6
CONTINUOUS
 10
81.0602887111
 20
214.29477528
 11
81.1696637111
 21
214.2203072038
  0
LINE
  8
0
 62
7
  6
CONTINUOUS
 10
78.6722676592
 20
216.346902936
 11
78.7816426592
 21
216.2724348532
  0
LINE
  8
0
 62
7
  6
CONTINUOUS
 10
77.8337260621
 20
217.1660518658
 11
77.9431010621
 21
217.0915837896
  0
LINE
  8
0
 62
7
  6
CONTINUOUS
 10
81.3154973226
 20
214.890519942
 11
81.2061223226
 21
214.9649880182
  0
LINE
  8
0
 62
7
  6
CONTINUOUS
 10
76.0108094649
 20
217.799030618
 11
75.8649761664
 21
217.9107327324
  0
LINE
  8
0
 62
7
  6
CONTINUOUS
 10
80.2946637111
 20
214.5926476371
 11
80.4404973226
 21
214.4809454706
  0
LINE
  8
0
 62
7
  6
CONTINUOUS
 10
81.3154973226
 20
214.29477528
 11
81.1696637111
 21
214.4064773944
  0
LINE
  8
0
 62
7
  6
CONTINUOUS
 10
78.8363305168
 20
214.0713710253
 11
78.9457055168
 21
213.9596688979
  0
LINE
  8
0
 62
7
  6
CONTINUOUS
 10
76.1931011664
 20
216.9426476371
 11
76.0472677635
 21
217.0915837896
  0
LINE
  8
0
 62
7
  6
CONTINUOUS
 10
75.8285177635
 20
217.6873285037
 11
75.9014344649
 21
217.6128604275
  0
LINE
  8
0
 62
7
  6
CONTINUOUS
 10
77.1045594649
 20
216.4213710253
 11
77.2139344649
 21
216.3096688979
  0
LINE
  8
0
 62
7
  6
CONTINUOUS
 10
79.7113305168
 20
214.890519942
 11
79.6384137111
 21
214.9649880182
  0
LINE
  8
0
 62
7
  6
CONTINUOUS
 10
78.5993512707
 20
216.4213710253
 11
78.6722676592
 21
216.346902936
  0
LINE
  8
0
 62
7
  6
CONTINUOUS
 10
77.9795594649
 20
217.240519942
 11
77.9066428678
 21
217.3149880182
  0
LINE
  8
0
 62
7
  6
CONTINUOUS
 10
78.8545594649
 20
216.4213710253
 11
78.7451844649
 21
216.5330731657
  0
LINE
  8
0
 62
7
  6
CONTINUOUS
 10
76.1201844649
 20
217.6500944656
 11
76.0108094649
 21
217.799030618
  0
LINE
  8
0
 62
7
  6
CONTINUOUS
 10
75.9743511664
 20
216.8681795609
 11
76.0472677635
 21
216.7564773944
  0
LINE
  8
0
 62
7
  6
CONTINUOUS
 10
77.9431010621
 20
217.0915837896
 11
78.0160178678
 21
216.9798816752
  0
LINE
  8
0
 62
7
  6
CONTINUOUS
 10
79.6748719053
 20
214.7415837896
 11
79.7477887111
 21
214.6298816752
  0
LINE
  8
0
 62
7
  6
CONTINUOUS
 10
77.3050805168
 20
213.9224348532
 11
77.3415387111
 21
213.8479667705
  0
LINE
  8
0
 62
7
  6
CONTINUOUS
 10
77.2321637111
 20
214.8160518658
 11
77.2686219053
 21
214.7415837896
  0
LINE
  8
0
 62
7
  6
CONTINUOUS
 10
76.2660177635
 20
216.7937114325
 11
76.1931011664
 21
216.9426476371
  0
LINE
  8
0
 62
7
  6
CONTINUOUS
 10
75.9014344649
 20
217.6128604275
 11
75.9378927635
 21
217.5383923512
  0
LINE
  8
0
 62
7
  6
CONTINUOUS
 10
79.2920594649
 20
211.7958391015
 11
79.3649762707
 21
211.646902936
  0
LINE
  8
0
 62
7
  6
CONTINUOUS
 10
77.0681010621
 20
216.4958391015
 11
77.1045594649
 21
216.4213710253
  0
LINE
  8
0
 62
7
  6
CONTINUOUS
 10
78.7998719053
 20
214.1458391015
 11
78.8363305168
 21
214.0713710253
  0
LINE
  8
0
 62
7
  6
CONTINUOUS
 10
78.0160178678
 20
217.1660518658
 11
77.9795594649
 21
217.240519942
  0
LINE
  8
0
 62
7
  6
CONTINUOUS
 10
77.2868510621
 20
216.4958391015
 11
77.2139344649
 21
216.6820093181
  0
LINE
  8
0
 62
7
  6
CONTINUOUS
 10
79.0186219053
 20
214.1458391015
 11
78.9457055168
 21
214.3320093181
  0
LINE
  8
0
 62
7
  6
CONTINUOUS
 10
77.2686219053
 20
214.0341369871
 11
77.3050805168
 21
213.9224348532
  0
LINE
  8
0
 62
7
  6
CONTINUOUS
 10
76.1566427635
 20
217.5383923512
 11
76.1201844649
 21
217.6500944656
  0
LINE
  8
0
 62
7
  6
CONTINUOUS
 10
77.5238305168
 20
213.8479667705
 11
77.4873719053
 21
213.9596688979
  0
LINE
  8
0
 62
7
  6
CONTINUOUS
 10
77.4509137111
 20
214.7415837896
 11
77.4144555168
 21
214.8532859039
  0
LINE
  8
0
 62
7
  6
CONTINUOUS
 10
79.5108094649
 20
211.7586050634
 11
79.4743512707
 21
211.8703072038
  0
LINE
  8
0
 62
7
  6
CONTINUOUS
 10
76.3571637111
 20
214.1830731657
 11
76.3936221139
 21
214.0341369871
  0
LINE
  8
0
 62
7
  6
CONTINUOUS
 10
77.4691428678
 20
212.2426476371
 11
77.4326844649
 21
212.3915837896
  0
LINE
  8
0
 62
7
  6
CONTINUOUS
 10
77.0316428678
 20
216.64477528
 11
77.0681010621
 21
216.4958391015
  0
LINE
  8
0
 62
7
  6
CONTINUOUS
 10
77.4873719053
 20
213.9596688979
 11
77.4509137111
 21
214.1458391015
  0
LINE
  8
0
 62
7
  6
CONTINUOUS
 10
76.3024761664
 20
212.0937114325
 11
76.3389344649
 21
211.8703072038
  0
LINE
  8
0
 62
7
  6
CONTINUOUS
 10
77.7608094649
 20
212.6894560945
 11
77.7608094649
 21
212.540519942
  0
LINE
  8
0
 62
7
  6
CONTINUOUS
 10
77.8154969053
 20
215.0394560945
 11
77.8154969053
 21
213.8479667705
  0
LINE
  8
0
 62
7
  6
CONTINUOUS
 10
77.9977887111
 20
213.8479667705
 11
77.9977887111
 21
214.5926476371
  0
LINE
  8
0
 62
7
  6
CONTINUOUS
 10
77.9977887111
 20
214.8160518658
 11
77.9977887111
 21
215.0394560945
  0
LINE
  8
0
 62
7
  6
CONTINUOUS
 10
78.0160178678
 20
217.9479667705
 11
78.0160178678
 21
217.1660518658
  0
LINE
  8
0
 62
7
  6
CONTINUOUS
 10
78.0160178678
 20
216.9798816752
 11
78.0160178678
 21
216.6075412419
  0
LINE
  8
0
 62
7
  6
CONTINUOUS
 10
78.0160178678
 20
216.4213710253
 11
78.0160178678
 21
216.1979667705
  0
LINE
  8
0
 62
7
  6
CONTINUOUS
 10
78.1253928678
 20
212.9128604275
 11
78.1253928678
 21
212.6894560945
  0
LINE
  8
0
 62
7
  6
CONTINUOUS
 10
78.1253928678
 20
212.540519942
 11
78.1253928678
 21
211.4979667705
  0
LINE
  8
0
 62
7
  6
CONTINUOUS
 10
78.1983094649
 20
216.1979667705
 11
78.1983094649
 21
217.9479667705
  0
LINE
  8
0
 62
7
  6
CONTINUOUS
 10
78.3076844649
 20
211.4979667705
 11
78.3076844649
 21
212.540519942
  0
LINE
  8
0
 62
7
  6
CONTINUOUS
 10
78.3076844649
 20
212.6894560945
 11
78.3076844649
 21
212.8756263894
  0
LINE
  8
0
 62
7
  6
CONTINUOUS
 10
78.4717469053
 20
214.8532859039
 11
78.4717469053
 21
215.0394560945
  0
LINE
  8
0
 62
7
  6
CONTINUOUS
 10
78.6358094649
 20
212.540519942
 11
78.6358094649
 21
212.6894560945
  0
LINE
  8
0
 62
7
  6
CONTINUOUS
 10
78.6722676592
 20
216.7192433563
 11
78.6722676592
 21
216.7937114325
  0
LINE
  8
0
 62
7
  6
CONTINUOUS
 10
78.7087262707
 20
213.1362646562
 11
78.7087262707
 21
213.2479667705
  0
LINE
  8
0
 62
7
  6
CONTINUOUS
 10
78.7087262707
 20
216.9426476371
 11
78.7087262707
 21
216.9798816752
  0
LINE
  8
0
 62
7
  6
CONTINUOUS
 10
78.7634137111
 20
214.5926476371
 11
78.7634137111
 21
214.29477528
  0
LINE
  8
0
 62
7
  6
CONTINUOUS
 10
78.9457055168
 20
214.3320093181
 11
78.9457055168
 21
214.555413599
  0
LINE
  8
0
 62
7
  6
CONTINUOUS
 10
79.0003926592
 20
212.6894560945
 11
79.0003926592
 21
212.540519942
  0
LINE
  8
0
 62
7
  6
CONTINUOUS
 10
79.2920594649
 20
212.9873285037
 11
79.2920594649
 21
212.6894560945
  0
LINE
  8
0
 62
7
  6
CONTINUOUS
 10
79.2920594649
 20
212.540519942
 11
79.2920594649
 21
211.7958391015
  0
LINE
  8
0
 62
7
  6
CONTINUOUS
 10
79.4743512707
 20
217.0171157133
 11
79.4743512707
 21
216.9426476371
  0
LINE
  8
0
 62
7
  6
CONTINUOUS
 10
79.4743512707
 20
211.8703072038
 11
79.4743512707
 21
212.540519942
  0
LINE
  8
0
 62
7
  6
CONTINUOUS
 10
79.4743512707
 20
212.6894560945
 11
79.4743512707
 21
212.9873285037
  0
LINE
  8
0
 62
7
  6
CONTINUOUS
 10
79.6566426592
 20
216.7937114325
 11
79.6566426592
 21
216.9426476371
  0
LINE
  8
0
 62
7
  6
CONTINUOUS
 10
79.7477887111
 20
215.5979667705
 11
79.7477887111
 21
214.8160518658
  0
LINE
  8
0
 62
7
  6
CONTINUOUS
 10
79.7477887111
 20
214.6298816752
 11
79.7477887111
 21
214.2575412419
  0
LINE
  8
0
 62
7
  6
CONTINUOUS
 10
79.7477887111
 20
214.0713710253
 11
79.7477887111
 21
213.8479667705
  0
LINE
  8
0
 62
7
  6
CONTINUOUS
 10
79.8024762707
 20
211.4979667705
 11
79.8024762707
 21
211.646902936
  0
LINE
  8
0
 62
7
  6
CONTINUOUS
 10
79.8753926592
 20
212.540519942
 11
79.8753926592
 21
212.6894560945
  0
LINE
  8
0
 62
7
  6
CONTINUOUS
 10
79.9300805168
 20
213.8479667705
 11
79.9300805168
 21
215.5979667705
  0
LINE
  8
0
 62
7
  6
CONTINUOUS
 10
78.5264344649
 20
217.0171157133
 11
78.4899762707
 21
216.7937114325
  0
LINE
  8
0
 62
7
  6
CONTINUOUS
 10
77.4326844649
 20
211.7213710253
 11
77.4691428678
 21
211.8703072038
  0
LINE
  8
0
 62
7
  6
CONTINUOUS
 10
78.7998719053
 20
214.7415837896
 11
78.7634137111
 21
214.5926476371
  0
LINE
  8
0
 62
7
  6
CONTINUOUS
 10
79.6201844649
 20
216.4213710253
 11
79.6566426592
 21
216.5703072038
  0
LINE
  8
0
 62
7
  6
CONTINUOUS
 10
76.5394553082
 20
214.2203072038
 11
76.5759137111
 21
214.3320093181
  0
LINE
  8
0
 62
7
  6
CONTINUOUS
 10
77.2868510621
 20
211.8703072038
 11
77.2503928678
 21
211.7586050634
  0
LINE
  8
0
 62
7
  6
CONTINUOUS
 10
78.1618510621
 20
213.0245625418
 11
78.1253928678
 21
212.9128604275
  0
LINE
  8
0
 62
7
  6
CONTINUOUS
 10
79.4743512707
 20
216.5703072038
 11
79.4378926592
 21
216.4586050634
  0
LINE
  8
0
 62
7
  6
CONTINUOUS
 10
78.3076844649
 20
212.8756263894
 11
78.3441426592
 21
212.9873285037
  0
LINE
  8
0
 62
7
  6
CONTINUOUS
 10
78.9457055168
 20
214.555413599
 11
78.9821637111
 21
214.6671157133
  0
LINE
  8
0
 62
7
  6
CONTINUOUS
 10
76.3936221139
 20
214.890519942
 11
76.3571637111
 21
214.8160518658
  0
LINE
  8
0
 62
7
  6
CONTINUOUS
 10
76.5394553082
 20
214.7415837896
 11
76.5759137111
 21
214.8160518658
  0
LINE
  8
0
 62
7
  6
CONTINUOUS
 10
76.4300803082
 20
214.4437114325
 11
76.3571637111
 21
214.29477528
  0
LINE
  8
0
 62
7
  6
CONTINUOUS
 10
77.9795594649
 20
216.346902936
 11
78.0160178678
 21
216.4213710253
  0
LINE
  8
0
 62
7
  6
CONTINUOUS
 10
78.5993512707
 20
217.1660518658
 11
78.5264344649
 21
217.0171157133
  0
LINE
  8
0
 62
7
  6
CONTINUOUS
 10
77.2686219053
 20
214.2575412419
 11
77.2321637111
 21
214.1830731657
  0
LINE
  8
0
 62
7
  6
CONTINUOUS
 10
76.4118511664
 20
212.4660518658
 11
76.3389344649
 21
212.3171157133
  0
LINE
  8
0
 62
7
  6
CONTINUOUS
 10
78.7087262707
 20
216.9798816752
 11
78.7451844649
 21
217.0543497514
  0
LINE
  8
0
 62
7
  6
CONTINUOUS
 10
77.2321637111
 20
213.9596688979
 11
77.2686219053
 21
214.0341369871
  0
LINE
  8
0
 62
7
  6
CONTINUOUS
 10
76.5212260621
 20
212.2798816752
 11
76.5576844649
 21
212.3543497514
  0
LINE
  8
0
 62
7
  6
CONTINUOUS
 10
77.2503928678
 20
217.0171157133
 11
77.3233094649
 21
217.1288178277
  0
LINE
  8
0
 62
7
  6
CONTINUOUS
 10
75.8102887111
 20
214.2203072038
 11
75.7373721139
 21
214.1086050634
  0
LINE
  8
0
 62
7
  6
CONTINUOUS
 10
78.0160178678
 20
216.6075412419
 11
77.9431010621
 21
216.4958391015
  0
LINE
  8
0
 62
7
  6
CONTINUOUS
 10
77.9977887111
 20
214.5926476371
 11
78.1071637111
 21
214.7415837896
  0
LINE
  8
0
 62
7
  6
CONTINUOUS
 10
76.0472677635
 20
216.3096688979
 11
76.1931011664
 21
216.4586050634
  0
LINE
  8
0
 62
7
  6
CONTINUOUS
 10
77.2139344649
 20
217.2777539801
 11
77.1045594649
 21
217.1660518658
  0
LINE
  8
0
 62
7
  6
CONTINUOUS
 10
74.4248720096
 20
213.9596688979
 11
74.5707054125
 21
214.1086050634
  0
LINE
  8
0
 62
7
  6
CONTINUOUS
 10
78.6722676592
 20
217.240519942
 11
78.5993512707
 21
217.1660518658
  0
LINE
  8
0
 62
7
  6
CONTINUOUS
 10
76.4665387111
 20
214.9649880182
 11
76.3936221139
 21
214.890519942
  0
LINE
  8
0
 62
7
  6
CONTINUOUS
 10
77.9066428678
 20
216.2724348532
 11
77.9795594649
 21
216.346902936
  0
LINE
  8
0
 62
7
  6
CONTINUOUS
 10
78.7451844649
 20
217.0543497514
 11
78.8545594649
 21
217.1660518658
  0
LINE
  8
0
 62
7
  6
CONTINUOUS
 10
75.7009137111
 20
213.9224348532
 11
75.8102887111
 21
214.0341369871
  0
LINE
  8
0
 62
7
  6
CONTINUOUS
 10
76.5029971139
 20
214.5181795609
 11
76.4300803082
 21
214.4437114325
  0
LINE
  8
0
 62
7
  6
CONTINUOUS
 10
76.5759137111
 20
214.3320093181
 11
76.6488303082
 21
214.4064773944
  0
LINE
  8
0
 62
7
  6
CONTINUOUS
 10
77.2321637111
 20
214.1830731657
 11
77.1227887111
 21
214.0713710253
  0
LINE
  8
0
 62
7
  6
CONTINUOUS
 10
75.9743511664
 20
216.5330731657
 11
75.8649761664
 21
216.4586050634
  0
LINE
  8
0
 62
7
  6
CONTINUOUS
 10
77.3233094649
 20
217.3522220564
 11
77.2139344649
 21
217.2777539801
  0
LINE
  8
0
 62
7
  6
CONTINUOUS
 10
78.7816426592
 20
217.3149880182
 11
78.6722676592
 21
217.240519942
  0
LINE
  8
0
 62
7
  6
CONTINUOUS
 10
74.3519554125
 20
214.1830731657
 11
74.2425804125
 21
214.1086050634
  0
LINE
  8
0
 62
7
  6
CONTINUOUS
 10
77.9431010621
 20
216.4958391015
 11
77.8337260621
 21
216.4213710253
  0
LINE
  8
0
 62
7
  6
CONTINUOUS
 10
75.7373721139
 20
214.1086050634
 11
75.6279971139
 21
214.0341369871
  0
LINE
  8
0
 62
7
  6
CONTINUOUS
 10
79.4378926592
 20
216.4586050634
 11
79.3285176592
 21
216.3841369871
  0
LINE
  8
0
 62
7
  6
CONTINUOUS
 10
73.5863303864
 20
215.5607327324
 11
73.4404970357
 21
215.4862646562
  0
LINE
  8
0
 62
7
  6
CONTINUOUS
 10
77.3233094649
 20
217.1288178277
 11
77.4691428678
 21
217.2032859039
  0
LINE
  8
0
 62
7
  6
CONTINUOUS
 10
75.9014344649
 20
216.2352008119
 11
76.0472677635
 21
216.3096688979
  0
LINE
  8
0
 62
7
  6
CONTINUOUS
 10
78.8545594649
 20
217.1660518658
 11
78.9274762707
 21
217.2032859039
  0
LINE
  8
0
 62
7
  6
CONTINUOUS
 10
77.8337260621
 20
216.2352008119
 11
77.9066428678
 21
216.2724348532
  0
LINE
  8
0
 62
7
  6
CONTINUOUS
 10
74.2790387111
 20
213.8852008119
 11
74.4248720096
 21
213.9596688979
  0
LINE
  8
0
 62
7
  6
CONTINUOUS
 10
76.5394553082
 20
215.0022220564
 11
76.4665387111
 21
214.9649880182
  0
LINE
  8
0
 62
7
  6
CONTINUOUS
 10
76.5759137111
 20
214.8160518658
 11
76.6488303082
 21
214.8532859039
  0
LINE
  8
0
 62
7
  6
CONTINUOUS
 10
79.3649762707
 20
216.2352008119
 11
79.5108094649
 21
216.3096688979
  0
LINE
  8
0
 62
7
  6
CONTINUOUS
 10
78.8910176592
 20
217.3522220564
 11
78.7816426592
 21
217.3149880182
  0
LINE
  8
0
 62
7
  6
CONTINUOUS
 10
79.5108094649
 20
217.240519942
 11
79.3285176592
 21
217.3522220564
  0
LINE
  8
0
 62
7
  6
CONTINUOUS
 10
79.2920594649
 20
217.2032859039
 11
79.4014344649
 21
217.1288178277
  0
LINE
  8
0
 62
7
  6
CONTINUOUS
 10
79.6201844649
 20
217.0915837896
 11
79.5108094649
 21
217.240519942
  0
LINE
  8
0
 62
7
  6
CONTINUOUS
 10
79.4014344649
 20
217.1288178277
 11
79.4743512707
 21
217.0171157133
  0
LINE
  8
0
 62
7
  6
CONTINUOUS
 10
78.5264344649
 20
216.5703072038
 11
78.5993512707
 21
216.4213710253
  0
LINE
  8
0
 62
7
  6
CONTINUOUS
 10
78.7451844649
 20
216.5330731657
 11
78.7087262707
 21
216.6075412419
  0
LINE
  8
0
 62
7
  6
CONTINUOUS
 10
79.7477887111
 20
214.8160518658
 11
79.7113305168
 21
214.890519942
  0
LINE
  8
0
 62
7
  6
CONTINUOUS
 10
80.2217473226
 20
214.1458391015
 11
80.2946637111
 21
213.996902936
  0
LINE
  8
0
 62
7
  6
CONTINUOUS
 10
80.4404973226
 20
214.0713710253
 11
80.4040387111
 21
214.1458391015
  0
LINE
  8
0
 62
7
  6
CONTINUOUS
 10
80.2217473226
 20
214.7415837896
 11
80.2946637111
 21
214.5926476371
  0
LINE
  8
0
 62
7
  6
CONTINUOUS
 10
80.4404973226
 20
214.6671157133
 11
80.4040387111
 21
214.7415837896
  0
LINE
  8
0
 62
7
  6
CONTINUOUS
 10
81.1696637111
 20
214.2203072038
 11
81.2061223226
 21
214.1458391015
  0
LINE
  8
0
 62
7
  6
CONTINUOUS
 10
81.3884137111
 20
214.1458391015
 11
81.3154973226
 21
214.29477528
  0
LINE
  8
0
 62
7
  6
CONTINUOUS
 10
81.1696637111
 20
214.8160518658
 11
81.2061223226
 21
214.7415837896
  0
LINE
  8
0
 62
7
  6
CONTINUOUS
 10
81.3884137111
 20
214.7415837896
 11
81.3154973226
 21
214.890519942
  0
LINE
  8
0
 62
7
  6
CONTINUOUS
 10
78.7087262707
 20
216.6075412419
 11
78.6722676592
 21
216.7192433563
  0
LINE
  8
0
 62
7
  6
CONTINUOUS
 10
78.7634137111
 20
214.29477528
 11
78.7998719053
 21
214.1458391015
  0
LINE
  8
0
 62
7
  6
CONTINUOUS
 10
79.6566426592
 20
216.9426476371
 11
79.6201844649
 21
217.0915837896
  0
LINE
  8
0
 62
7
  6
CONTINUOUS
 10
78.4899762707
 20
216.7937114325
 11
78.5264344649
 21
216.5703072038
  0
LINE
  8
0
 62
7
  6
CONTINUOUS
 10
80.2217473226
 20
214.8160518658
 11
80.2217473226
 21
214.7415837896
  0
LINE
  8
0
 62
7
  6
CONTINUOUS
 10
81.3884137111
 20
214.0713710253
 11
81.3884137111
 21
214.1458391015
  0
LINE
  8
0
 62
7
  6
CONTINUOUS
 10
78.8363305168
 20
214.8160518658
 11
78.7998719053
 21
214.7415837896
  0
LINE
  8
0
 62
7
  6
CONTINUOUS
 10
79.7113305168
 20
213.996902936
 11
79.7477887111
 21
214.0713710253
  0
LINE
  8
0
 62
7
  6
CONTINUOUS
 10
80.4040387111
 20
214.7415837896
 11
80.4404973226
 21
214.8160518658
  0
LINE
  8
0
 62
7
  6
CONTINUOUS
 10
78.9821637111
 20
214.6671157133
 11
79.0550805168
 21
214.7788178277
  0
LINE
  8
0
 62
7
  6
CONTINUOUS
 10
78.2347676592
 20
213.1362646562
 11
78.1618510621
 21
213.0245625418
  0
LINE
  8
0
 62
7
  6
CONTINUOUS
 10
79.7477887111
 20
214.2575412419
 11
79.6748719053
 21
214.1458391015
  0
LINE
  8
0
 62
7
  6
CONTINUOUS
 10
80.2946637111
 20
214.9277539801
 11
80.2217473226
 21
214.8160518658
  0
LINE
  8
0
 62
7
  6
CONTINUOUS
 10
78.0707055168
 20
214.890519942
 11
77.9977887111
 21
214.8160518658
  0
LINE
  8
0
 62
7
  6
CONTINUOUS
 10
79.5108094649
 20
216.3096688979
 11
79.6201844649
 21
216.4213710253
  0
LINE
  8
0
 62
7
  6
CONTINUOUS
 10
76.4847678678
 20
212.540519942
 11
76.4118511664
 21
212.4660518658
  0
LINE
  8
0
 62
7
  6
CONTINUOUS
 10
78.9457055168
 20
214.9277539801
 11
78.8363305168
 21
214.8160518658
  0
LINE
  8
0
 62
7
  6
CONTINUOUS
 10
76.5576844649
 20
212.3543497514
 11
76.6670594649
 21
212.4660518658
  0
LINE
  8
0
 62
7
  6
CONTINUOUS
 10
78.3441426592
 20
212.9873285037
 11
78.4170594649
 21
213.0617965799
  0
LINE
  8
0
 62
7
  6
CONTINUOUS
 10
77.3233094649
 20
211.6096688979
 11
77.4326844649
 21
211.7213710253
  0
LINE
  8
0
 62
7
  6
CONTINUOUS
 10
79.6384137111
 20
213.9224348532
 11
79.7113305168
 21
213.996902936
  0
LINE
  8
0
 62
7
  6
CONTINUOUS
 10
78.1800805168
 20
214.9649880182
 11
78.0707055168
 21
214.890519942
  0
LINE
  8
0
 62
7
  6
CONTINUOUS
 10
77.1227887111
 20
213.8852008119
 11
77.2321637111
 21
213.9596688979
  0
LINE
  8
0
 62
7
  6
CONTINUOUS
 10
79.0550805168
 20
215.0022220564
 11
78.9457055168
 21
214.9277539801
  0
LINE
  8
0
 62
7
  6
CONTINUOUS
 10
76.5941428678
 20
212.6149880182
 11
76.4847678678
 21
212.540519942
  0
LINE
  8
0
 62
7
  6
CONTINUOUS
 10
79.6748719053
 20
214.1458391015
 11
79.5654969053
 21
214.0713710253
  0
LINE
  8
0
 62
7
  6
CONTINUOUS
 10
65.6681596223
 20
206.0609650043
 11
65.6937974831
 21
206.0749308124
  0
LINE
  8
0
 62
7
  6
CONTINUOUS
 10
76.6488303082
 20
214.5926476371
 11
76.5029971139
 21
214.5181795609
  0
LINE
  8
0
 62
7
  6
CONTINUOUS
 10
75.6279971139
 20
213.8852008119
 11
75.7009137111
 21
213.9224348532
  0
LINE
  8
0
 62
7
  6
CONTINUOUS
 10
76.6488303082
 20
214.4064773944
 11
76.7217469053
 21
214.4437114325
  0
LINE
  8
0
 62
7
  6
CONTINUOUS
 10
78.1071637111
 20
214.7415837896
 11
78.2529969053
 21
214.8160518658
  0
LINE
  8
0
 62
7
  6
CONTINUOUS
 10
79.0550805168
 20
214.7788178277
 11
79.2009137111
 21
214.8532859039
  0
LINE
  8
0
 62
7
  6
CONTINUOUS
 10
80.4404973226
 20
215.0022220564
 11
80.2946637111
 21
214.9277539801
  0
LINE
  8
0
 62
7
  6
CONTINUOUS
 10
80.4404973226
 20
214.8160518658
 11
80.5134137111
 21
214.8532859039
  0
LINE
  8
0
 62
7
  6
CONTINUOUS
 10
76.6670594649
 20
212.4660518658
 11
76.7399760621
 21
212.5032859039
  0
LINE
  8
0
 62
7
  6
CONTINUOUS
 10
79.5654969053
 20
213.8852008119
 11
79.6384137111
 21
213.9224348532
  0
LINE
  8
0
 62
7
  6
CONTINUOUS
 10
78.3806012707
 20
213.2107327324
 11
78.2347676592
 21
213.1362646562
  0
LINE
  8
0
 62
7
  6
CONTINUOUS
 10
78.4170594649
 20
213.0617965799
 11
78.4899762707
 21
213.099030618
  0
LINE
  8
0
 62
7
  6
CONTINUOUS
 10
77.1227887111
 20
214.0713710253
 11
76.9404969053
 21
213.996902936
  0
LINE
  8
0
 62
7
  6
CONTINUOUS
 10
78.2894555168
 20
215.0022220564
 11
78.1800805168
 21
214.9649880182
  0
LINE
  8
0
 62
7
  6
CONTINUOUS
 10
76.7035178678
 20
212.6522220564
 11
76.5941428678
 21
212.6149880182
  0
LINE
  8
0
 62
7
  6
CONTINUOUS
 10
82.8118512111
 20
200.5384346708
 11
82.8118512111
 21
203.9574988702
  0
LINE
  8
0
 62
7
  6
CONTINUOUS
 10
83.6868512111
 20
205.8979667705
 11
83.6868512111
 21
205.2739996467
  0
LINE
  8
0
 62
7
  6
CONTINUOUS
 10
81.2061223226
 20
214.1458391015
 11
81.1696637111
 21
214.0713710253
  0
LINE
  8
0
 62
7
  6
CONTINUOUS
 10
81.3154973226
 20
213.9596688979
 11
81.3884137111
 21
214.0713710253
  0
LINE
  8
0
 62
7
  6
CONTINUOUS
 10
77.2503928678
 20
211.7586050634
 11
77.1410178678
 21
211.6841369871
  0
LINE
  8
0
 62
7
  6
CONTINUOUS
 10
81.1696637111
 20
214.0713710253
 11
81.0967473226
 21
214.0341369871
  0
LINE
  8
0
 62
7
  6
CONTINUOUS
 10
81.1696637111
 20
213.8852008119
 11
81.3154973226
 21
213.9596688979
  0
LINE
  8
0
 62
7
  6
CONTINUOUS
 10
77.1774760621
 20
211.5352008119
 11
77.3233094649
 21
211.6096688979
  0
LINE
  8
0
 62
2
  6
CONTINUOUS
 10
86.8118512111
 20
203.1279667705
 11
86.8118512111
 21
201.3679667705
  0
LINE
  8
DEFAULT_1
 62
2
  6
CENTER
 10
86.8118512111
 20
197.8479667705
 11
86.8118512111
 21
195.7116955017
  0
LINE
  8
DEFAULT_1
 62
2
  6
CENTER
 10
86.8118512111
 20
206.6479667705
 11
86.8118512111
 21
209.7429757785
  0
LINE
  8
0
 62
7
  6
CONTINUOUS
 10
88.4357946948
 20
207.2465333168
 11
95.9568186103
 21
230.3938648042
  0
LINE
  8
0
 62
7
  6
CONTINUOUS
 10
90.2504795125
 20
238.2479667705
 11
64.3232229096
 21
238.2479667705
  0
LINE
  8
0
 62
7
  6
CONTINUOUS
 10
161.9941951557
 20
197.8979667705
 11
165.6441951557
 21
197.8979667705
  0
LINE
  8
0
 62
7
  6
CONTINUOUS
 10
166.7441951557
 20
197.8979667705
 11
170.3941951557
 21
197.8979667705
  0
POLYLINE
  8
0
 62
7
  6
CONTINUOUS
 66
1
 70
0
  0
VERTEX
  8
0
 62
7
  6
CONTINUOUS
 10
170.3941951557
 20
200.5384346708
  0
VERTEX
  8
0
 62
7
  6
CONTINUOUS
 10
170.5506129264
 20
200.5435805003
  0
VERTEX
  8
0
 62
7
  6
CONTINUOUS
 10
170.690578358
 20
200.5584754109
  0
VERTEX
  8
0
 62
7
  6
CONTINUOUS
 10
170.8005402774
 20
200.5817004106
  0
VERTEX
  8
0
 62
7
  6
CONTINUOUS
 10
170.8703645963
 20
200.6111208036
  0
VERTEX
  8
0
 62
7
  6
CONTINUOUS
 10
170.8941951557
 20
200.6440652773
  0
SEQEND
  0
LINE
  8
0
 62
7
  6
CONTINUOUS
 10
166.7441951557
 20
200.5384346708
 11
170.3941951557
 21
200.5384346708
  0
POLYLINE
  8
0
 62
7
  6
CONTINUOUS
 66
1
 70
0
  0
VERTEX
  8
0
 62
7
  6
CONTINUOUS
 10
166.7441951557
 20
200.5384346708
  0
VERTEX
  8
0
 62
7
  6
CONTINUOUS
 10
166.5877773851
 20
200.5435805003
  0
VERTEX
  8
0
 62
7
  6
CONTINUOUS
 10
166.4478119534
 20
200.5584754109
  0
VERTEX
  8
0
 62
7
  6
CONTINUOUS
 10
166.3378500341
 20
200.5817004106
  0
VERTEX
  8
0
 62
7
  6
CONTINUOUS
 10
166.2680257152
 20
200.6111208036
  0
VERTEX
  8
0
 62
7
  6
CONTINUOUS
 10
166.2441951557
 20
200.6440652773
  0
SEQEND
  0
LINE
  8
DEFAULT_1
 62
2
  6
CENTER
 10
159.4941951557
 20
202.2479667705
 11
174.6149522558
 21
202.2479667705
  0
POLYLINE
  8
0
 62
7
  6
CONTINUOUS
 66
1
 70
0
  0
VERTEX
  8
0
 62
7
  6
CONTINUOUS
 10
166.7441951557
 20
203.9574988702
  0
VERTEX
  8
0
 62
7
  6
CONTINUOUS
 10
166.5877773851
 20
203.9523530407
  0
VERTEX
  8
0
 62
7
  6
CONTINUOUS
 10
166.4478119534
 20
203.9374581301
  0
VERTEX
  8
0
 62
7
  6
CONTINUOUS
 10
166.3378500341
 20
203.9142331304
  0
VERTEX
  8
0
 62
7
  6
CONTINUOUS
 10
166.2680257152
 20
203.8848127374
  0
VERTEX
  8
0
 62
7
  6
CONTINUOUS
 10
166.2441951557
 20
203.8518682637
  0
SEQEND
  0
LINE
  8
0
 62
7
  6
CONTINUOUS
 10
170.3941951557
 20
203.9574988702
 11
166.7441951557
 21
203.9574988702
  0
POLYLINE
  8
0
 62
7
  6
CONTINUOUS
 66
1
 70
0
  0
VERTEX
  8
0
 62
7
  6
CONTINUOUS
 10
170.3941951557
 20
203.9574988702
  0
VERTEX
  8
0
 62
7
  6
CONTINUOUS
 10
170.5506129264
 20
203.9523530407
  0
VERTEX
  8
0
 62
7
  6
CONTINUOUS
 10
170.690578358
 20
203.9374581301
  0
VERTEX
  8
0
 62
7
  6
CONTINUOUS
 10
170.8005402774
 20
203.9142331304
  0
VERTEX
  8
0
 62
7
  6
CONTINUOUS
 10
170.8703645963
 20
203.8848127374
  0
VERTEX
  8
0
 62
7
  6
CONTINUOUS
 10
170.8941951557
 20
203.8518682637
  0
SEQEND
  0
POLYLINE
  8
0
 62
7
  6
CONTINUOUS
 66
1
 70
0
  0
VERTEX
  8
0
 62
7
  6
CONTINUOUS
 10
166.7441951557
 20
205.273999652
  0
VERTEX
  8
0
 62
7
  6
CONTINUOUS
 10
166.5653218645
 20
205.2605740996
  0
VERTEX
  8
0
 62
7
  6
CONTINUOUS
 10
166.4137310103
 20
205.223059223
  0
VERTEX
  8
0
 62
7
  6
CONTINUOUS
 10
166.3536227671
 20
205.1969841774
  0
VERTEX
  8
0
 62
7
  6
CONTINUOUS
 10
166.271610548
 20
205.1344762081
  0
VERTEX
  8
0
 62
7
  6
CONTINUOUS
 10
166.2441951557
 20
205.0643252349
  0
SEQEND
  0
LINE
  8
0
 62
7
  6
CONTINUOUS
 10
168.7494020388
 20
205.2739996467
 11
166.7441951557
 21
205.273999652
  0
POLYLINE
  8
0
 62
7
  6
CONTINUOUS
 66
1
 70
0
  0
VERTEX
  8
0
 62
7
  6
CONTINUOUS
 10
166.2327403825
 20
206.5979674409
  0
VERTEX
  8
0
 62
7
  6
CONTINUOUS
 10
166.227396723
 20
206.5967104331
  0
VERTEX
  8
0
 62
7
  6
CONTINUOUS
 10
166.2270305551
 20
206.5949528712
  0
SEQEND
  0
LINE
  8
0
 62
7
  6
CONTINUOUS
 10
161.9941951557
 20
206.5979667705
 11
162.7205736186
 21
206.5979667705
  0
LINE
  8
0
 62
7
  6
CONTINUOUS
 10
166.2327403825
 20
206.5979667705
 11
166.4354214077
 21
206.5979667705
  0
LINE
  8
0
 62
7
  6
CONTINUOUS
 10
169.6675797271
 20
206.5979666248
 11
170.3941951557
 21
206.5979667705
  0
LINE
  8
0
 62
7
  6
CONTINUOUS
 10
166.2290151685
 20
206.8979667705
 11
168.1783222718
 21
206.8979667705
  0
POLYLINE
  8
0
 62
7
  6
CONTINUOUS
 66
1
 70
0
  0
VERTEX
  8
0
 62
7
  6
CONTINUOUS
 10
166.4354221868
 20
206.5979668912
  0
VERTEX
  8
0
 62
7
  6
CONTINUOUS
 10
166.5940462836
 20
206.5803229919
  0
VERTEX
  8
0
 62
7
  6
CONTINUOUS
 10
166.7441951557
 20
206.5229667705
  0
SEQEND
  0
POLYLINE
  8
0
 62
7
  6
CONTINUOUS
 66
1
 70
0
  0
VERTEX
  8
0
 62
7
  6
CONTINUOUS
 10
169.6675909836
 20
206.5979667389
  0
VERTEX
  8
0
 62
7
  6
CONTINUOUS
 10
169.5373835868
 20
206.6257883154
  0
VERTEX
  8
0
 62
7
  6
CONTINUOUS
 10
169.4847926613
 20
206.6592736672
  0
SEQEND
  0
LINE
  8
0
 62
7
  6
CONTINUOUS
 10
166.876722205
 20
211.4979667705
 11
167.1240099657
 21
211.4979667705
  0
LINE
  8
0
 62
7
  6
CONTINUOUS
 10
167.5224180377
 20
211.4979667705
 11
167.556763547
 21
211.4979667705
  0
LINE
  8
0
 62
7
  6
CONTINUOUS
 10
167.3438212955
 20
211.5352008119
 11
167.2545229636
 21
211.5352008119
  0
LINE
  8
0
 62
7
  6
CONTINUOUS
 10
167.3712977264
 20
211.6096688979
 11
167.2236119927
 21
211.6096688979
  0
LINE
  8
0
 62
7
  6
CONTINUOUS
 10
167.8383968562
 20
211.646902936
 11
167.7559676026
 21
211.646902936
  0
LINE
  8
0
 62
7
  6
CONTINUOUS
 10
167.2888684729
 20
211.646902936
 11
167.2133083369
 21
211.646902936
  0
LINE
  8
0
 62
7
  6
CONTINUOUS
 10
167.8040513077
 20
211.6841369871
 11
167.7525330429
 21
211.6841369871
  0
LINE
  8
0
 62
7
  6
CONTINUOUS
 10
167.2613920419
 20
211.6841369871
 11
167.2064392279
 21
211.6841369871
  0
LINE
  8
0
 62
7
  6
CONTINUOUS
 10
167.3919050398
 20
211.7213710253
 11
167.3472558739
 21
211.7213710253
  0
LINE
  8
0
 62
7
  6
CONTINUOUS
 10
167.2476538461
 20
211.7213710253
 11
167.1995701214
 21
211.7213710253
  0
LINE
  8
0
 62
7
  6
CONTINUOUS
 10
167.1240099657
 20
211.7213710253
 11
166.9204910994
 21
211.7213710253
  0
LINE
  8
0
 62
7
  6
CONTINUOUS
 10
166.9179368318
 20
211.7213710253
 11
166.876722205
 21
211.7213710253
  0
LINE
  8
0
 62
7
  6
CONTINUOUS
 10
167.7834439943
 20
211.7586050634
 11
167.745663926
 21
211.7586050634
  0
LINE
  8
0
 62
7
  6
CONTINUOUS
 10
167.2270465327
 20
211.8330731657
 11
167.1892664592
 21
211.8330731657
  0
LINE
  8
0
 62
7
  6
CONTINUOUS
 10
167.776574916
 20
211.8703072038
 11
167.7422293675
 21
211.8703072038
  0
LINE
  8
0
 62
7
  6
CONTINUOUS
 10
167.3987741574
 20
211.8703072038
 11
167.3644286089
 21
211.8703072038
  0
LINE
  8
0
 62
7
  6
CONTINUOUS
 10
167.2201774151
 20
211.9075412419
 11
167.1846870562
 21
211.9075412419
  0
LINE
  8
0
 62
7
  6
CONTINUOUS
 10
167.2133083369
 20
212.0192433563
 11
167.1812525073
 21
212.0192433563
  0
LINE
  8
0
 62
7
  6
CONTINUOUS
 10
167.178962808
 20
212.0937114325
 11
167.3987741574
 21
212.0937114325
  0
LINE
  8
0
 62
7
  6
CONTINUOUS
 10
167.3987741574
 20
212.2426476371
 11
167.1835422071
 21
212.2426476371
  0
LINE
  8
0
 62
7
  6
CONTINUOUS
 10
167.2201774151
 20
212.2798816752
 11
167.1846870565
 21
212.2798816752
  0
LINE
  8
0
 62
7
  6
CONTINUOUS
 10
167.2270465327
 20
212.3543497514
 11
167.1892664598
 21
212.3543497514
  0
LINE
  8
0
 62
7
  6
CONTINUOUS
 10
167.3919050398
 20
212.3915837896
 11
167.3552698116
 21
212.3915837896
  0
LINE
  8
0
 62
7
  6
CONTINUOUS
 10
167.2476538461
 20
212.4660518658
 11
167.1995701214
 21
212.4660518658
  0
LINE
  8
0
 62
7
  6
CONTINUOUS
 10
167.2613920419
 20
212.5032859039
 11
167.2064392291
 21
212.5032859039
  0
LINE
  8
0
 62
7
  6
CONTINUOUS
 10
167.3712977264
 20
212.540519942
 11
167.2133083369
 21
212.540519942
  0
LINE
  8
0
 62
7
  6
CONTINUOUS
 10
167.45372698
 20
212.540519942
 11
167.6185854871
 21
212.540519942
  0
LINE
  8
0
 62
7
  6
CONTINUOUS
 10
167.6872765056
 20
212.540519942
 11
167.8521350127
 21
212.540519942
  0
LINE
  8
0
 62
7
  6
CONTINUOUS
 10
167.3369522172
 20
212.6522220564
 11
167.2545229636
 21
212.6522220564
  0
LINE
  8
0
 62
7
  6
CONTINUOUS
 10
167.8521350127
 20
212.6894560945
 11
167.6872765056
 21
212.6894560945
  0
LINE
  8
0
 62
7
  6
CONTINUOUS
 10
167.6185854871
 20
212.6894560945
 11
167.45372698
 21
212.6894560945
  0
LINE
  8
0
 62
7
  6
CONTINUOUS
 10
169.4847926613
 20
206.6592736672
 11
169.4849981212
 21
206.6590816786
  0
LINE
  8
0
 62
7
  6
CONTINUOUS
 10
166.2281270915
 20
206.5919753377
 11
166.2340548556
 21
206.5824461104
  0
LINE
  8
0
 62
7
  6
CONTINUOUS
 10
161.4941951557
 20
198.3979692482
 11
161.4941951557
 21
206.0979642994
  0
LINE
  8
0
 62
7
  6
CONTINUOUS
 10
167.556763547
 20
212.8756263894
 11
167.5224180377
 21
212.8756263894
  0
LINE
  8
0
 62
7
  6
CONTINUOUS
 10
167.776574916
 20
212.9873285037
 11
167.7422293675
 21
212.9873285037
  0
LINE
  8
0
 62
7
  6
CONTINUOUS
 10
167.5636326252
 20
212.9873285037
 11
167.5269974232
 21
212.9873285037
  0
LINE
  8
0
 62
7
  6
CONTINUOUS
 10
167.5773708604
 20
213.0617965799
 11
167.5338665146
 21
213.0617965799
  0
LINE
  8
0
 62
7
  6
CONTINUOUS
 10
167.5911090955
 20
213.099030618
 11
167.5384459132
 21
213.099030618
  0
LINE
  8
0
 62
7
  6
CONTINUOUS
 10
167.6323237223
 20
213.1362646562
 11
167.5430253118
 21
213.1362646562
  0
LINE
  8
0
 62
7
  6
CONTINUOUS
 10
167.6323237223
 20
213.2479667705
 11
167.604847252
 21
213.2479667705
  0
LINE
  8
0
 62
7
  6
CONTINUOUS
 10
166.9179368318
 20
213.2479667705
 11
166.876722205
 21
213.2479667705
  0
LINE
  8
0
 62
7
  6
CONTINUOUS
 10
166.7015600594
 20
213.8479667705
 11
166.7633819898
 21
213.8479667705
  0
LINE
  8
0
 62
7
  6
CONTINUOUS
 10
166.996931535
 20
213.8479667705
 11
167.024407966
 21
213.8479667705
  0
LINE
  8
0
 62
7
  6
CONTINUOUS
 10
167.099968102
 20
213.8479667705
 11
167.1343136505
 21
213.8479667705
  0
LINE
  8
0
 62
7
  6
CONTINUOUS
 10
167.2579574915
 20
213.8479667705
 11
167.2991721183
 21
213.8479667705
  0
LINE
  8
0
 62
7
  6
CONTINUOUS
 10
167.3747322936
 20
213.8479667705
 11
167.4090778422
 21
213.8479667705
  0
LINE
  8
0
 62
7
  6
CONTINUOUS
 10
167.4640306255
 20
213.8479667705
 11
167.498376174
 21
213.8479667705
  0
LINE
  8
0
 62
7
  6
CONTINUOUS
 10
167.8280931883
 20
213.8479667705
 11
167.8624387368
 21
213.8479667705
  0
LINE
  8
0
 62
7
  6
CONTINUOUS
 10
167.7250566213
 20
213.8479667705
 11
167.7662712481
 21
213.8479667705
  0
LINE
  8
0
 62
7
  6
CONTINUOUS
 10
168.0135590088
 20
213.8479667705
 11
168.0547736356
 21
213.8479667705
  0
LINE
  8
0
 62
7
  6
CONTINUOUS
 10
168.0959882624
 20
213.8852008119
 11
167.972344382
 21
213.8852008119
  0
LINE
  8
0
 62
7
  6
CONTINUOUS
 10
167.7937476397
 20
213.8852008119
 11
167.6975802296
 21
213.8852008119
  0
LINE
  8
0
 62
7
  6
CONTINUOUS
 10
167.3335176669
 20
213.8852008119
 11
167.2304810999
 21
213.8852008119
  0
LINE
  8
0
 62
7
  6
CONTINUOUS
 10
167.0518843969
 20
213.8852008119
 11
166.9694551434
 21
213.8852008119
  0
LINE
  8
0
 62
7
  6
CONTINUOUS
 10
166.7977275187
 20
213.8852008119
 11
166.6672145355
 21
213.8852008119
  0
LINE
  8
0
 62
7
  6
CONTINUOUS
 10
167.8074858749
 20
213.9224348532
 11
167.6872765734
 21
213.9224348532
  0
LINE
  8
0
 62
7
  6
CONTINUOUS
 10
167.0656225928
 20
213.9224348532
 11
166.9591514871
 21
213.9224348532
  0
LINE
  8
0
 62
7
  6
CONTINUOUS
 10
167.1274445329
 20
213.9224348532
 11
167.0944728239
 21
213.9224348532
  0
LINE
  8
0
 62
7
  6
CONTINUOUS
 10
168.1234647326
 20
213.9596688979
 11
167.941433411
 21
213.9596688979
  0
LINE
  8
0
 62
7
  6
CONTINUOUS
 10
167.4022086853
 20
213.9596688979
 11
167.3655734964
 21
213.9596688979
  0
LINE
  8
0
 62
7
  6
CONTINUOUS
 10
167.3541249802
 20
213.9596688979
 11
167.2098737996
 21
213.9596688979
  0
LINE
  8
0
 62
7
  6
CONTINUOUS
 10
166.82520393
 20
213.9596688979
 11
166.6397381143
 21
213.9596688979
  0
LINE
  8
0
 62
7
  6
CONTINUOUS
 10
168.0547736356
 20
213.996902936
 11
167.9311297552
 21
213.996902936
  0
LINE
  8
0
 62
7
  6
CONTINUOUS
 10
167.82122411
 20
213.996902936
 11
167.6701038126
 21
213.996902936
  0
LINE
  8
0
 62
7
  6
CONTINUOUS
 10
167.2991721183
 20
213.996902936
 11
167.2030046963
 21
213.996902936
  0
LINE
  8
0
 62
7
  6
CONTINUOUS
 10
167.024407966
 20
213.996902936
 11
166.9419787263
 21
213.996902936
  0
LINE
  8
0
 62
7
  6
CONTINUOUS
 10
167.7662712481
 20
214.0341369871
 11
167.6632347065
 21
214.0341369871
  0
LINE
  8
0
 62
7
  6
CONTINUOUS
 10
167.972344382
 20
214.0341369871
 11
167.9276952152
 21
214.0341369871
  0
LINE
  8
0
 62
7
  6
CONTINUOUS
 10
167.3609940585
 20
214.0341369871
 11
167.3163448956
 21
214.0341369871
  0
LINE
  8
0
 62
7
  6
CONTINUOUS
 10
167.0862299061
 20
214.0341369871
 11
167.0518843969
 21
214.0341369871
  0
LINE
  8
0
 62
7
  6
CONTINUOUS
 10
168.1372028891
 20
214.0713710253
 11
168.0959882624
 21
214.0713710253
  0
LINE
  8
0
 62
7
  6
CONTINUOUS
 10
167.8280931883
 20
214.0713710253
 11
167.7937476397
 21
214.0713710253
  0
LINE
  8
0
 62
7
  6
CONTINUOUS
 10
167.9586062255
 20
214.0713710253
 11
167.9242606764
 21
214.0713710253
  0
LINE
  8
0
 62
7
  6
CONTINUOUS
 10
167.7113183862
 20
214.0713710253
 11
167.6563656029
 21
214.0713710253
  0
LINE
  8
0
 62
7
  6
CONTINUOUS
 10
167.2304810999
 20
214.0713710253
 11
167.1944183116
 21
214.0713710253
  0
LINE
  8
0
 62
7
  6
CONTINUOUS
 10
167.1205754154
 20
214.0713710253
 11
167.0621880536
 21
214.0713710253
  0
LINE
  8
0
 62
7
  6
CONTINUOUS
 10
166.7633819898
 20
214.0713710253
 11
166.6191308016
 21
214.0713710253
  0
LINE
  8
0
 62
7
  6
CONTINUOUS
 10
166.9694551434
 20
214.0713710253
 11
166.9282405166
 21
214.0713710253
  0
LINE
  8
0
 62
7
  6
CONTINUOUS
 10
166.8526803609
 20
214.1086050634
 11
166.7908584207
 21
214.1086050634
  0
LINE
  8
0
 62
7
  6
CONTINUOUS
 10
166.6740836383
 20
214.1086050634
 11
166.6122616981
 21
214.1086050634
  0
LINE
  8
0
 62
7
  6
CONTINUOUS
 10
167.2545229636
 20
211.5352008119
 11
167.2957375904
 21
211.4979667705
  0
POLYLINE
  8
0
 62
7
  6
CONTINUOUS
 66
1
 70
0
  0
VERTEX
  8
0
 62
7
  6
CONTINUOUS
 10
169.4849985386
 20
206.6590821254
  0
VERTEX
  8
0
 62
7
  6
CONTINUOUS
 10
169.4393212655
 20
206.7101484394
  0
VERTEX
  8
0
 62
7
  6
CONTINUOUS
 10
169.3863995181
 20
206.8005571261
  0
VERTEX
  8
0
 62
7
  6
CONTINUOUS
 10
169.3509423895
 20
206.9194420734
  0
SEQEND
  0
LINE
  8
0
 62
7
  6
CONTINUOUS
 10
163.0433264474
 20
207.033848637
 11
163.0433365496
 21
207.0336930904
  0
LINE
  8
0
 62
7
  6
CONTINUOUS
 10
163.0432675495
 20
207.0348107352
 11
161.6056838983
 21
230.517821482
  0
POLYLINE
  8
0
 62
7
  6
CONTINUOUS
 66
1
 70
0
  0
VERTEX
  8
0
 62
7
  6
CONTINUOUS
 10
163.043326736
 20
207.0338438853
  0
VERTEX
  8
0
 62
7
  6
CONTINUOUS
 10
163.0374479213
 20
206.9194420721
  0
VERTEX
  8
0
 62
7
  6
CONTINUOUS
 10
163.0019907911
 20
206.8005571224
  0
VERTEX
  8
0
 62
7
  6
CONTINUOUS
 10
162.9490690452
 20
206.7101484388
  0
VERTEX
  8
0
 62
7
  6
CONTINUOUS
 10
162.9033917586
 20
206.6590821118
  0
SEQEND
  0
LINE
  8
0
 62
7
  6
CONTINUOUS
 10
168.1372028891
 20
214.1458391015
 11
168.1028574192
 21
214.1458391015
  0
LINE
  8
0
 62
7
  6
CONTINUOUS
 10
167.9517370686
 20
214.1458391015
 11
167.9173915987
 21
214.1458391015
  0
LINE
  8
0
 62
7
  6
CONTINUOUS
 10
167.6907110728
 20
214.1458391015
 11
167.649496446
 21
214.1458391015
  0
LINE
  8
0
 62
7
  6
CONTINUOUS
 10
167.395339607
 20
214.1458391015
 11
167.3472558726
 21
214.1458391015
  0
LINE
  8
0
 62
7
  6
CONTINUOUS
 10
167.2236119823
 20
214.1458391015
 11
167.1909837534
 21
214.1458391015
  0
LINE
  8
0
 62
7
  6
CONTINUOUS
 10
166.9557169082
 20
214.1830731657
 11
166.9196541236
 21
214.1830731657
  0
LINE
  8
0
 62
7
  6
CONTINUOUS
 10
166.6534763249
 20
214.1830731657
 11
166.6053925926
 21
214.1830731657
  0
LINE
  8
0
 62
7
  6
CONTINUOUS
 10
167.2236119823
 20
214.2203072038
 11
167.1892664731
 21
214.2203072038
  0
LINE
  8
0
 62
7
  6
CONTINUOUS
 10
166.8595494588
 20
214.2575412419
 11
166.8160451327
 21
214.2575412419
  0
LINE
  8
0
 62
7
  6
CONTINUOUS
 10
168.1234647326
 20
214.29477528
 11
168.075380949
 21
214.29477528
  0
LINE
  8
0
 62
7
  6
CONTINUOUS
 10
166.94884783
 20
214.29477528
 11
166.9145023011
 21
214.29477528
  0
LINE
  8
0
 62
7
  6
CONTINUOUS
 10
166.6397381143
 20
214.29477528
 11
166.5971496685
 21
214.29477528
  0
LINE
  8
0
 62
7
  6
CONTINUOUS
 10
167.6769729163
 20
214.3320093181
 11
167.6426273677
 21
214.3320093181
  0
LINE
  8
0
 62
7
  6
CONTINUOUS
 10
167.2304810999
 20
214.3320093181
 11
167.1927010221
 21
214.3320093181
  0
LINE
  8
0
 62
7
  6
CONTINUOUS
 10
168.0959882624
 20
214.4064773944
 11
168.0053161149
 21
214.4064773944
  0
LINE
  8
0
 62
7
  6
CONTINUOUS
 10
167.2442192957
 20
214.4064773944
 11
167.19957012
 21
214.4064773944
  0
LINE
  8
0
 62
7
  6
CONTINUOUS
 10
167.2579574915
 20
214.4437114325
 11
167.2030046689
 21
214.4437114325
  0
LINE
  8
0
 62
7
  6
CONTINUOUS
 10
166.6328690115
 20
214.4437114325
 11
166.5916543847
 21
214.4437114325
  0
LINE
  8
0
 62
7
  6
CONTINUOUS
 10
167.2098737817
 20
214.4809454706
 11
167.3609940585
 21
214.4809454706
  0
LINE
  8
0
 62
7
  6
CONTINUOUS
 10
167.6769729163
 20
214.555413599
 11
167.6426273677
 21
214.555413599
  0
LINE
  8
0
 62
7
  6
CONTINUOUS
 10
167.9792135389
 20
214.5926476371
 11
167.9311297552
 21
214.5926476371
  0
LINE
  8
0
 62
7
  6
CONTINUOUS
 10
167.498376174
 20
214.5926476371
 11
167.4640306255
 21
214.5926476371
  0
LINE
  8
0
 62
7
  6
CONTINUOUS
 10
166.7565128919
 20
214.5926476371
 11
166.8183348321
 21
214.5926476371
  0
LINE
  8
0
 62
7
  6
CONTINUOUS
 10
167.3609940585
 20
214.6298816752
 11
167.2854339618
 21
214.6298816752
  0
LINE
  8
0
 62
7
  6
CONTINUOUS
 10
167.9586062255
 20
214.6671157133
 11
167.924260677
 21
214.6671157133
  0
LINE
  8
0
 62
7
  6
CONTINUOUS
 10
167.6838419945
 20
214.6671157133
 11
167.6460619069
 21
214.6671157133
  0
LINE
  8
0
 62
7
  6
CONTINUOUS
 10
167.9517370686
 20
214.7415837896
 11
167.9173915987
 21
214.7415837896
  0
LINE
  8
0
 62
7
  6
CONTINUOUS
 10
167.5189834874
 20
214.7415837896
 11
167.4640306255
 21
214.7415837896
  0
LINE
  8
0
 62
7
  6
CONTINUOUS
 10
167.395339607
 20
214.7415837896
 11
167.3609940585
 21
214.7415837896
  0
LINE
  8
0
 62
7
  6
CONTINUOUS
 10
167.1892664731
 20
214.7415837896
 11
167.2236119823
 21
214.7415837896
  0
LINE
  8
0
 62
7
  6
CONTINUOUS
 10
168.1028574192
 20
214.7415837896
 11
168.1372028891
 21
214.7415837896
  0
LINE
  8
0
 62
7
  6
CONTINUOUS
 10
167.6975802296
 20
214.7788178277
 11
167.6529310244
 21
214.7788178277
  0
LINE
  8
0
 62
7
  6
CONTINUOUS
 10
167.8280931883
 20
214.8160518658
 11
167.7937476397
 21
214.8160518658
  0
LINE
  8
0
 62
7
  6
CONTINUOUS
 10
167.9586062255
 20
214.8160518658
 11
167.9173915987
 21
214.8160518658
  0
LINE
  8
0
 62
7
  6
CONTINUOUS
 10
167.546459879
 20
214.8160518658
 11
167.4640306255
 21
214.8160518658
  0
LINE
  8
0
 62
7
  6
CONTINUOUS
 10
167.2304810999
 20
214.8160518658
 11
167.1892664731
 21
214.8160518658
  0
LINE
  8
0
 62
7
  6
CONTINUOUS
 10
166.8595494588
 20
214.8160518658
 11
166.7565128919
 21
214.8160518658
  0
LINE
  8
0
 62
7
  6
CONTINUOUS
 10
167.972344382
 20
214.8532859039
 11
167.9219709842
 21
214.8532859039
  0
LINE
  8
0
 62
7
  6
CONTINUOUS
 10
167.5876745058
 20
214.8532859039
 11
167.5052452916
 21
214.8532859039
  0
LINE
  8
0
 62
7
  6
CONTINUOUS
 10
167.3884705288
 20
214.8532859039
 11
167.3403867451
 21
214.8532859039
  0
LINE
  8
0
 62
7
  6
CONTINUOUS
 10
167.2442192957
 20
214.8532859039
 11
167.1927010319
 21
214.8532859039
  0
LINE
  8
0
 62
7
  6
CONTINUOUS
 10
167.6632347073
 20
214.8532859039
 11
167.7662712481
 21
214.8532859039
  0
LINE
  8
0
 62
7
  6
CONTINUOUS
 10
167.82122411
 20
214.890519942
 11
167.6701038118
 21
214.890519942
  0
LINE
  8
0
 62
7
  6
CONTINUOUS
 10
167.1961355907
 20
214.890519942
 11
167.3129103535
 21
214.890519942
  0
LINE
  8
0
 62
7
  6
CONTINUOUS
 10
167.9265503697
 20
214.890519942
 11
168.1234647326
 21
214.890519942
  0
LINE
  8
0
 62
7
  6
CONTINUOUS
 10
167.3747322936
 20
214.9277539801
 11
167.2030046886
 21
214.9277539801
  0
LINE
  8
0
 62
7
  6
CONTINUOUS
 10
168.1028574192
 20
214.9649880182
 11
167.9448679904
 21
214.9649880182
  0
LINE
  8
0
 62
7
  6
CONTINUOUS
 10
167.8074858749
 20
214.9649880182
 11
167.687276573
 21
214.9649880182
  0
LINE
  8
0
 62
7
  6
CONTINUOUS
 10
168.0822501058
 20
215.0022220564
 11
167.9586062255
 21
215.0022220564
  0
LINE
  8
0
 62
7
  6
CONTINUOUS
 10
167.7937476397
 20
215.0022220564
 11
167.6975802296
 21
215.0022220564
  0
LINE
  8
0
 62
7
  6
CONTINUOUS
 10
167.3541249802
 20
215.0022220564
 11
167.2236119823
 21
215.0022220564
  0
LINE
  8
0
 62
7
  6
CONTINUOUS
 10
166.6328690115
 20
215.0022220564
 11
166.5916543847
 21
215.0022220564
  0
LINE
  8
0
 62
7
  6
CONTINUOUS
 10
167.7662712481
 20
215.0394560945
 11
167.7250566213
 21
215.0394560945
  0
LINE
  8
0
 62
7
  6
CONTINUOUS
 10
168.0410354791
 20
215.0394560945
 11
167.9998208523
 21
215.0394560945
  0
LINE
  8
0
 62
7
  6
CONTINUOUS
 10
167.498376174
 20
215.0394560945
 11
167.4640306255
 21
215.0394560945
  0
LINE
  8
0
 62
7
  6
CONTINUOUS
 10
167.1205754154
 20
215.0394560945
 11
167.0862299061
 21
215.0394560945
  0
LINE
  8
0
 62
7
  6
CONTINUOUS
 10
167.3129103535
 20
215.0394560945
 11
167.2716957267
 21
215.0394560945
  0
LINE
  8
0
 62
7
  6
CONTINUOUS
 10
166.94884783
 20
215.0394560945
 11
166.9145023011
 21
215.0394560945
  0
LINE
  8
0
 62
7
  6
CONTINUOUS
 10
166.6397381143
 20
215.1511582088
 11
166.5971496654
 21
215.1511582088
  0
LINE
  8
0
 62
7
  6
CONTINUOUS
 10
166.8183348321
 20
215.1511582088
 11
166.8595494588
 21
215.1511582088
  0
LINE
  8
0
 62
7
  6
CONTINUOUS
 10
166.6534763249
 20
215.2628604275
 11
166.6053925938
 21
215.2628604275
  0
LINE
  8
0
 62
7
  6
CONTINUOUS
 10
166.8526803609
 20
215.3373285037
 11
166.7908584207
 21
215.3373285037
  0
LINE
  8
0
 62
7
  6
CONTINUOUS
 10
166.6740836383
 20
215.3373285037
 11
166.6122616981
 21
215.3373285037
  0
LINE
  8
0
 62
7
  6
CONTINUOUS
 10
166.6191308022
 20
215.3745625418
 11
166.7633819898
 21
215.3745625418
  0
LINE
  8
0
 62
7
  6
CONTINUOUS
 10
166.82520393
 20
215.4862646562
 11
166.6397381143
 21
215.4862646562
  0
LINE
  8
0
 62
7
  6
CONTINUOUS
 10
167.7971822294
 20
211.5352008119
 11
167.8383968562
 21
211.4979667705
  0
LINE
  8
0
 62
7
  6
CONTINUOUS
 10
167.2888684729
 20
212.540519942
 11
167.3300830996
 21
212.5032859039
  0
LINE
  8
0
 62
7
  6
CONTINUOUS
 10
167.3369522172
 20
212.6522220564
 11
167.2957375904
 21
212.6894560945
  0
LINE
  8
0
 62
7
  6
CONTINUOUS
 10
167.8383968562
 20
211.646902936
 11
167.8040513077
 21
211.6841369871
  0
LINE
  8
0
 62
7
  6
CONTINUOUS
 10
167.2888684729
 20
211.646902936
 11
167.2613920419
 21
211.6841369871
  0
LINE
  8
0
 62
7
  6
CONTINUOUS
 10
166.2270305551
 20
206.5949528712
 11
166.2281270915
 21
206.5919753377
  0
LINE
  8
0
 62
7
  6
CONTINUOUS
 10
166.7977275187
 20
215.5607327324
 11
166.6672145355
 21
215.5607327324
  0
LINE
  8
0
 62
7
  6
CONTINUOUS
 10
167.8624387368
 20
215.5979667705
 11
167.8280931883
 21
215.5979667705
  0
LINE
  8
0
 62
7
  6
CONTINUOUS
 10
166.7633819898
 20
215.5979667705
 11
166.7015600594
 21
215.5979667705
  0
LINE
  8
0
 62
7
  6
CONTINUOUS
 10
167.014104291
 20
216.1979667705
 11
167.0690571333
 21
216.1979667705
  0
LINE
  8
0
 62
7
  6
CONTINUOUS
 10
167.2270465327
 20
216.1979667705
 11
167.2613920419
 21
216.1979667705
  0
LINE
  8
0
 62
7
  6
CONTINUOUS
 10
167.3987741574
 20
216.1979667705
 11
167.4399887842
 21
216.1979667705
  0
LINE
  8
0
 62
7
  6
CONTINUOUS
 10
167.5018107243
 20
216.1979667705
 11
167.5361562336
 21
216.1979667705
  0
LINE
  8
0
 62
7
  6
CONTINUOUS
 10
167.7559676026
 20
216.2352008119
 11
167.6666691922
 21
216.2352008119
  0
LINE
  8
0
 62
7
  6
CONTINUOUS
 10
167.4674651758
 20
216.2352008119
 11
167.3712977264
 21
216.2352008119
  0
LINE
  8
0
 62
7
  6
CONTINUOUS
 10
167.1034026523
 20
216.2352008119
 11
166.979758772
 21
216.2352008119
  0
LINE
  8
0
 62
7
  6
CONTINUOUS
 10
167.481203411
 20
216.2724348532
 11
167.3609940702
 21
216.2724348532
  0
LINE
  8
0
 62
7
  6
CONTINUOUS
 10
167.7834439943
 20
216.3096688979
 11
167.6357582212
 21
216.3096688979
  0
LINE
  8
0
 62
7
  6
CONTINUOUS
 10
167.1308790636
 20
216.3096688979
 11
166.9568617566
 21
216.3096688979
  0
LINE
  8
0
 62
7
  6
CONTINUOUS
 10
167.7010147407
 20
216.346902936
 11
167.6254545654
 21
216.346902936
  0
LINE
  8
0
 62
7
  6
CONTINUOUS
 10
167.4949416068
 20
216.346902936
 11
167.3438213094
 21
216.346902936
  0
LINE
  8
0
 62
7
  6
CONTINUOUS
 10
167.4399887842
 20
216.3841369871
 11
167.3369522033
 21
216.3841369871
  0
LINE
  8
0
 62
7
  6
CONTINUOUS
 10
167.673538349
 20
216.3841369871
 11
167.6185854859
 21
216.3841369871
  0
LINE
  8
0
 62
7
  6
CONTINUOUS
 10
167.8040513077
 20
216.4213710253
 11
167.7594021024
 21
216.4213710253
  0
LINE
  8
0
 62
7
  6
CONTINUOUS
 10
167.5018107243
 20
216.4213710253
 11
167.4674651758
 21
216.4213710253
  0
LINE
  8
0
 62
7
  6
CONTINUOUS
 10
167.6598001139
 20
216.4213710253
 11
167.6117164089
 21
216.4213710253
  0
LINE
  8
0
 62
7
  6
CONTINUOUS
 10
167.3850359223
 20
216.4213710253
 11
167.3300830996
 21
216.4213710253
  0
LINE
  8
0
 62
7
  6
CONTINUOUS
 10
167.0690571333
 20
216.4213710253
 11
166.9371703252
 21
216.4213710253
  0
LINE
  8
0
 62
7
  6
CONTINUOUS
 10
167.1583554946
 20
216.4586050634
 11
167.0965335544
 21
216.4586050634
  0
LINE
  8
0
 62
7
  6
CONTINUOUS
 10
166.9866278748
 20
216.4586050634
 11
166.9330488632
 21
216.4586050634
  0
LINE
  8
0
 62
7
  6
CONTINUOUS
 10
167.3644286089
 20
216.4958391015
 11
167.3232139821
 21
216.4958391015
  0
LINE
  8
0
 62
7
  6
CONTINUOUS
 10
167.6391928005
 20
216.5330731657
 11
167.6014127319
 21
216.5330731657
  0
LINE
  8
0
 62
7
  6
CONTINUOUS
 10
167.8109203859
 20
216.5703072038
 11
167.776574916
 21
216.5703072038
  0
LINE
  8
0
 62
7
  6
CONTINUOUS
 10
166.9660205614
 20
216.5703072038
 11
166.9230886603
 21
216.5703072038
  0
LINE
  8
0
 62
7
  6
CONTINUOUS
 10
167.6323237223
 20
216.6075412419
 11
167.5968333274
 21
216.6075412419
  0
LINE
  8
0
 62
7
  6
CONTINUOUS
 10
167.1720936904
 20
216.6075412419
 11
167.126299665
 21
216.6075412419
  0
LINE
  8
0
 62
7
  6
CONTINUOUS
 10
167.350690413
 20
216.6820093181
 11
167.3163449038
 21
216.6820093181
  0
LINE
  8
0
 62
7
  6
CONTINUOUS
 10
166.9591514586
 20
216.6820093181
 11
166.9179368318
 21
216.6820093181
  0
LINE
  8
0
 62
7
  6
CONTINUOUS
 10
167.6254545654
 20
216.7192433563
 11
167.5933987882
 21
216.7192433563
  0
LINE
  8
0
 62
7
  6
CONTINUOUS
 10
167.1720936904
 20
216.7937114325
 11
167.1262996672
 21
216.7937114325
  0
LINE
  8
0
 62
7
  6
CONTINUOUS
 10
167.5911090955
 20
216.7937114325
 11
167.8109203859
 21
216.7937114325
  0
LINE
  8
0
 62
7
  6
CONTINUOUS
 10
167.972344382
 20
213.8852008119
 11
168.0135590088
 21
213.8479667705
  0
LINE
  8
0
 62
7
  6
CONTINUOUS
 10
168.0135590088
 20
213.996902936
 11
167.972344382
 21
214.0341369871
  0
LINE
  8
0
 62
7
  6
CONTINUOUS
 10
167.3541249802
 20
215.0022220564
 11
167.3129103535
 21
215.0394560945
  0
LINE
  8
0
 62
7
  6
CONTINUOUS
 10
166.6672145355
 20
213.8852008119
 11
166.7015600594
 21
213.8479667705
  0
LINE
  8
0
 62
7
  6
CONTINUOUS
 10
166.7977275187
 20
215.5607327324
 11
166.7633819898
 21
215.5979667705
  0
LINE
  8
0
 62
7
  6
CONTINUOUS
 10
166.7015600594
 20
214.0713710253
 11
166.6740836383
 21
214.1086050634
  0
LINE
  8
0
 62
7
  6
CONTINUOUS
 10
166.9694551434
 20
213.8852008119
 11
166.996931535
 21
213.8479667705
  0
LINE
  8
0
 62
7
  6
CONTINUOUS
 10
167.2304810999
 20
213.8852008119
 11
167.2579574915
 21
213.8479667705
  0
LINE
  8
0
 62
7
  6
CONTINUOUS
 10
167.6975802296
 20
213.8852008119
 11
167.7250566213
 21
213.8479667705
  0
LINE
  8
0
 62
7
  6
CONTINUOUS
 10
167.2339156503
 20
211.5724348532
 11
167.2545229636
 21
211.5352008119
  0
LINE
  8
0
 62
7
  6
CONTINUOUS
 10
167.776574916
 20
211.5724348532
 11
167.7971822294
 21
211.5352008119
  0
LINE
  8
0
 62
7
  6
CONTINUOUS
 10
167.2613920419
 20
211.6841369871
 11
167.2476538461
 21
211.7213710253
  0
POLYLINE
  8
0
 62
7
  6
CONTINUOUS
 66
1
 70
0
  0
VERTEX
  8
0
 62
7
  6
CONTINUOUS
 10
166.1941951568
 20
206.7718224667
  0
VERTEX
  8
0
 62
7
  6
CONTINUOUS
 10
166.2107965234
 20
206.6955563214
  0
VERTEX
  8
0
 62
7
  6
CONTINUOUS
 10
166.2266985234
 20
206.5969919995
  0
SEQEND
  0
POLYLINE
  8
0
 62
7
  6
CONTINUOUS
 66
1
 70
0
  0
VERTEX
  8
0
 62
7
  6
CONTINUOUS
 10
166.135550094
 20
207.0979667705
  0
VERTEX
  8
0
 62
7
  6
CONTINUOUS
 10
166.1409018368
 20
207.0558192908
  0
VERTEX
  8
0
 62
7
  6
CONTINUOUS
 10
166.1427170951
 20
207.0288364083
  0
VERTEX
  8
0
 62
7
  6
CONTINUOUS
 10
166.1441956007
 20
206.9667205809
  0
SEQEND
  0
POLYLINE
  8
0
 62
7
  6
CONTINUOUS
 66
1
 70
0
  0
VERTEX
  8
0
 62
7
  6
CONTINUOUS
 10
166.2724193021
 20
206.4240856301
  0
VERTEX
  8
0
 62
7
  6
CONTINUOUS
 10
166.2680922953
 20
206.4694411755
  0
VERTEX
  8
0
 62
7
  6
CONTINUOUS
 10
166.260060875
 20
206.512689018
  0
VERTEX
  8
0
 62
7
  6
CONTINUOUS
 10
166.2488015779
 20
206.5512840064
  0
VERTEX
  8
0
 62
7
  6
CONTINUOUS
 10
166.2340556088
 20
206.5824445543
  0
SEQEND
  0
LINE
  8
0
 62
7
  6
CONTINUOUS
 10
166.5985234894
 20
214.2575412419
 11
166.6122616981
 21
214.1086050634
  0
LINE
  8
0
 62
7
  6
CONTINUOUS
 10
166.1441951557
 20
198.3982184442
 11
166.1441951557
 21
206.9667623788
  0
LINE
  8
DEFAULT_1
 62
2
  6
CENTER
 10
166.1941951557
 20
195.8979667705
 11
166.1941951557
 21
240.2479667705
  0
LINE
  8
0
 62
7
  6
CONTINUOUS
 10
166.2441951557
 20
198.3979789461
 11
166.2441951557
 21
206.5610180997
  0
LINE
  8
0
 62
7
  6
CONTINUOUS
 10
167.350690413
 20
216.905413599
 11
167.3163449038
 21
216.905413599
  0
LINE
  8
0
 62
7
  6
CONTINUOUS
 10
167.8109203859
 20
216.9426476371
 11
167.5956884815
 21
216.9426476371
  0
LINE
  8
0
 62
7
  6
CONTINUOUS
 10
167.1583554946
 20
216.9426476371
 11
167.0965335544
 21
216.9426476371
  0
LINE
  8
0
 62
7
  6
CONTINUOUS
 10
167.6323237223
 20
216.9798816752
 11
167.5968333276
 21
216.9798816752
  0
LINE
  8
0
 62
7
  6
CONTINUOUS
 10
167.0278425065
 20
216.9798816752
 11
167.0690571333
 21
216.9798816752
  0
LINE
  8
0
 62
7
  6
CONTINUOUS
 10
167.3575595306
 20
217.0171157133
 11
167.319779443
 21
217.0171157133
  0
LINE
  8
0
 62
7
  6
CONTINUOUS
 10
167.6391928005
 20
217.0543497514
 11
167.6014127325
 21
217.0543497514
  0
LINE
  8
0
 62
7
  6
CONTINUOUS
 10
167.8040513077
 20
217.0915837896
 11
167.7674160926
 21
217.0915837896
  0
LINE
  8
0
 62
7
  6
CONTINUOUS
 10
167.1308790636
 20
217.0915837896
 11
166.9728896692
 21
217.0915837896
  0
LINE
  8
0
 62
7
  6
CONTINUOUS
 10
167.3712977264
 20
217.1288178277
 11
167.3266485409
 21
217.1288178277
  0
LINE
  8
0
 62
7
  6
CONTINUOUS
 10
167.5018107243
 20
217.1660518658
 11
167.4674651758
 21
217.1660518658
  0
LINE
  8
0
 62
7
  6
CONTINUOUS
 10
167.6598001139
 20
217.1660518658
 11
167.6117164089
 21
217.1660518658
  0
LINE
  8
0
 62
7
  6
CONTINUOUS
 10
167.1034026523
 20
217.1660518658
 11
166.9591514598
 21
217.1660518658
  0
LINE
  8
0
 62
7
  6
CONTINUOUS
 10
167.673538349
 20
217.2032859039
 11
167.6185854871
 21
217.2032859039
  0
LINE
  8
0
 62
7
  6
CONTINUOUS
 10
167.0690571333
 20
217.2032859039
 11
166.9522823551
 21
217.2032859039
  0
LINE
  8
0
 62
7
  6
CONTINUOUS
 10
167.3369522041
 20
217.2032859039
 11
167.4399887842
 21
217.2032859039
  0
LINE
  8
0
 62
7
  6
CONTINUOUS
 10
167.7834439943
 20
217.240519942
 11
167.6254545654
 21
217.240519942
  0
LINE
  8
0
 62
7
  6
CONTINUOUS
 10
167.4949416068
 20
217.240519942
 11
167.3438213086
 21
217.240519942
  0
LINE
  8
0
 62
7
  6
CONTINUOUS
 10
167.0072351931
 20
217.240519942
 11
166.9454132505
 21
217.240519942
  0
LINE
  8
0
 62
7
  6
CONTINUOUS
 10
167.481203411
 20
217.3149880182
 11
167.3609940697
 21
217.3149880182
  0
LINE
  8
0
 62
7
  6
CONTINUOUS
 10
166.9866278748
 20
217.3149880182
 11
166.9419786978
 21
217.3149880182
  0
LINE
  8
0
 62
7
  6
CONTINUOUS
 10
167.7490984457
 20
217.3522220564
 11
167.6666691922
 21
217.3522220564
  0
LINE
  8
0
 62
7
  6
CONTINUOUS
 10
167.4674651758
 20
217.3522220564
 11
167.3712977264
 21
217.3522220564
  0
LINE
  8
0
 62
7
  6
CONTINUOUS
 10
167.4399887842
 20
217.3894560945
 11
167.3987741574
 21
217.3894560945
  0
LINE
  8
0
 62
7
  6
CONTINUOUS
 10
167.2613920419
 20
217.3894560945
 11
167.2270465327
 21
217.3894560945
  0
LINE
  8
0
 62
7
  6
CONTINUOUS
 10
166.979758772
 20
217.4266901326
 11
166.9385441452
 21
217.4266901326
  0
LINE
  8
0
 62
7
  6
CONTINUOUS
 10
166.979758772
 20
217.5011582088
 11
166.9385441452
 21
217.5011582088
  0
LINE
  8
0
 62
7
  6
CONTINUOUS
 10
167.1102717502
 20
217.5383923512
 11
167.151486377
 21
217.5383923512
  0
LINE
  8
0
 62
7
  6
CONTINUOUS
 10
166.9866278748
 20
217.6128604275
 11
166.9419786978
 21
217.6128604275
  0
LINE
  8
0
 62
7
  6
CONTINUOUS
 10
167.1446172791
 20
217.6500944656
 11
167.0965335446
 21
217.6500944656
  0
LINE
  8
0
 62
7
  6
CONTINUOUS
 10
167.0072351931
 20
217.6873285037
 11
166.9454132505
 21
217.6873285037
  0
LINE
  8
0
 62
7
  6
CONTINUOUS
 10
166.9522823551
 20
217.7245625418
 11
167.0690571333
 21
217.7245625418
  0
LINE
  8
0
 62
7
  6
CONTINUOUS
 10
167.2270465327
 20
217.7617965799
 11
167.2613920419
 21
217.7617965799
  0
LINE
  8
0
 62
7
  6
CONTINUOUS
 10
167.1240099657
 20
217.799030618
 11
166.9660205645
 21
217.799030618
  0
LINE
  8
0
 62
7
  6
CONTINUOUS
 10
167.0965335544
 20
217.9107327324
 11
167.0003660854
 21
217.9107327324
  0
LINE
  8
0
 62
7
  6
CONTINUOUS
 10
167.5361562336
 20
217.9479667705
 11
167.5018107243
 21
217.9479667705
  0
LINE
  8
0
 62
7
  6
CONTINUOUS
 10
167.0621880256
 20
217.9479667705
 11
167.0278425065
 21
217.9479667705
  0
LINE
  8
0
 62
7
  6
CONTINUOUS
 10
167.2613920419
 20
217.9479667705
 11
167.2270465327
 21
217.9479667705
  0
LINE
  8
0
 62
7
  6
CONTINUOUS
 10
168.0410354791
 20
214.890519942
 11
168.0822501058
 21
214.8532859039
  0
LINE
  8
0
 62
7
  6
CONTINUOUS
 10
168.0822501058
 20
215.0022220564
 11
168.0410354791
 21
215.0394560945
  0
LINE
  8
0
 62
7
  6
CONTINUOUS
 10
167.6666691922
 20
216.2352008119
 11
167.707883819
 21
216.1979667705
  0
LINE
  8
0
 62
7
  6
CONTINUOUS
 10
166.979758772
 20
216.2352008119
 11
167.014104291
 21
216.1979667705
  0
LINE
  8
0
 62
7
  6
CONTINUOUS
 10
167.1034026523
 20
217.1660518658
 11
167.0690571333
 21
217.2032859039
  0
LINE
  8
0
 62
7
  6
CONTINUOUS
 10
167.7387948564
 20
214.0341369871
 11
167.7113183862
 21
214.0713710253
  0
LINE
  8
0
 62
7
  6
CONTINUOUS
 10
166.7633819898
 20
215.3745625418
 11
166.7908584207
 21
215.3373285037
  0
LINE
  8
0
 62
7
  6
CONTINUOUS
 10
167.3129103535
 20
214.890519942
 11
167.3403867451
 21
214.8532859039
  0
LINE
  8
0
 62
7
  6
CONTINUOUS
 10
167.7662712481
 20
214.8532859039
 11
167.7937476397
 21
214.8160518658
  0
LINE
  8
0
 62
7
  6
CONTINUOUS
 10
167.7937476397
 20
215.0022220564
 11
167.7662712481
 21
215.0394560945
  0
LINE
  8
0
 62
7
  6
CONTINUOUS
 10
167.014104291
 20
216.4213710253
 11
166.9866278748
 21
216.4586050634
  0
LINE
  8
0
 62
7
  6
CONTINUOUS
 10
167.3712977264
 20
216.2352008119
 11
167.3987741574
 21
216.1979667705
  0
LINE
  8
0
 62
7
  6
CONTINUOUS
 10
167.4125123532
 20
216.3841369871
 11
167.3850359223
 21
216.4213710253
  0
LINE
  8
0
 62
7
  6
CONTINUOUS
 10
167.0003660854
 20
217.0171157133
 11
167.0278425065
 21
216.9798816752
  0
LINE
  8
0
 62
7
  6
CONTINUOUS
 10
167.0690571333
 20
216.9798816752
 11
167.0965335544
 21
216.9426476371
  0
LINE
  8
0
 62
7
  6
CONTINUOUS
 10
167.9586062255
 20
214.4809454706
 11
168.075380949
 21
214.29477528
  0
LINE
  8
0
 62
7
  6
CONTINUOUS
 10
168.0959882624
 20
214.4064773944
 11
167.9792135389
 21
214.5926476371
  0
LINE
  8
0
 62
7
  6
CONTINUOUS
 10
167.9517370686
 20
213.9224348532
 11
167.972344382
 21
213.8852008119
  0
LINE
  8
0
 62
7
  6
CONTINUOUS
 10
168.1028574192
 20
214.9649880182
 11
168.0822501058
 21
215.0022220564
  0
LINE
  8
0
 62
7
  6
CONTINUOUS
 10
166.6397381143
 20
213.9596688979
 11
166.6672145355
 21
213.8852008119
  0
LINE
  8
0
 62
7
  6
CONTINUOUS
 10
166.996931535
 20
213.996902936
 11
166.9694551434
 21
214.0713710253
  0
LINE
  8
0
 62
7
  6
CONTINUOUS
 10
167.2167429041
 20
213.9224348532
 11
167.2304810999
 21
213.8852008119
  0
LINE
  8
0
 62
7
  6
CONTINUOUS
 10
167.2579574915
 20
213.996902936
 11
167.2304810999
 21
214.0713710253
  0
LINE
  8
0
 62
7
  6
CONTINUOUS
 10
166.82520393
 20
215.4862646562
 11
166.7977275187
 21
215.5607327324
  0
LINE
  8
0
 62
7
  6
CONTINUOUS
 10
167.3403867451
 20
214.8532859039
 11
167.3541249802
 21
214.8160518658
  0
LINE
  8
0
 62
7
  6
CONTINUOUS
 10
167.3712977264
 20
212.540519942
 11
167.3369522172
 21
212.6522220564
  0
LINE
  8
0
 62
7
  6
CONTINUOUS
 10
167.2133083369
 20
211.646902936
 11
167.2339156503
 21
211.5724348532
  0
LINE
  8
0
 62
7
  6
CONTINUOUS
 10
166.6740836383
 20
214.1086050634
 11
166.6534763249
 21
214.1830731657
  0
LINE
  8
0
 62
7
  6
CONTINUOUS
 10
167.3300830996
 20
212.5032859039
 11
167.350690413
 21
212.4288178277
  0
LINE
  8
0
 62
7
  6
CONTINUOUS
 10
166.94884783
 20
213.9596688979
 11
166.9694551434
 21
213.8852008119
  0
LINE
  8
0
 62
7
  6
CONTINUOUS
 10
167.7559676026
 20
211.646902936
 11
167.776574916
 21
211.5724348532
  0
LINE
  8
0
 62
7
  6
CONTINUOUS
 10
166.7908584207
 20
215.3373285037
 11
166.8114657341
 21
215.2628604275
  0
LINE
  8
0
 62
7
  6
CONTINUOUS
 10
167.8040513077
 20
211.6841369871
 11
167.7834439943
 21
211.7586050634
  0
LINE
  8
0
 62
7
  6
CONTINUOUS
 10
166.6122616981
 20
214.1086050634
 11
166.6397381143
 21
213.9596688979
  0
LINE
  8
0
 62
7
  6
CONTINUOUS
 10
167.1995701214
 20
211.7213710253
 11
167.2133083369
 21
211.646902936
  0
LINE
  8
0
 62
7
  6
CONTINUOUS
 10
167.2476538461
 20
211.7213710253
 11
167.2270465327
 21
211.8330731657
  0
LINE
  8
0
 62
7
  6
CONTINUOUS
 10
166.6422923869
 20
215.3745625418
 11
166.6307115914
 21
215.4373363104
  0
LINE
  8
0
 62
7
  6
CONTINUOUS
 10
166.9282405166
 20
214.0713710253
 11
166.94884783
 21
213.9596688979
  0
LINE
  8
0
 62
7
  6
CONTINUOUS
 10
166.8526803609
 20
215.3373285037
 11
166.82520393
 21
215.4862646562
  0
LINE
  8
0
 62
7
  6
CONTINUOUS
 10
166.6534763249
 20
214.1830731657
 11
166.6397381143
 21
214.29477528
  0
LINE
  8
0
 62
7
  6
CONTINUOUS
 10
166.921371399
 20
214.1458391015
 11
166.9282405166
 21
214.0713710253
  0
LINE
  8
0
 62
7
  6
CONTINUOUS
 10
167.1858319059
 20
211.8703072038
 11
167.1995701214
 21
211.7213710253
  0
LINE
  8
0
 62
7
  6
CONTINUOUS
 10
167.2270465327
 20
211.8330731657
 11
167.2201774151
 21
211.9075412419
  0
LINE
  8
0
 62
7
  6
CONTINUOUS
 10
167.1343136505
 20
213.8479667705
 11
167.1274445329
 21
213.9224348532
  0
LINE
  8
0
 62
7
  6
CONTINUOUS
 10
167.2304810999
 20
214.0713710253
 11
167.2236119823
 21
214.1458391015
  0
LINE
  8
0
 62
7
  6
CONTINUOUS
 10
167.3678632154
 20
213.9224348532
 11
167.3747322936
 21
213.8479667705
  0
LINE
  8
0
 62
7
  6
CONTINUOUS
 10
167.3541249802
 20
214.8160518658
 11
167.3609940585
 21
214.7415837896
  0
LINE
  8
0
 62
7
  6
CONTINUOUS
 10
167.1720936904
 20
216.7937114325
 11
167.1583554946
 21
216.9426476371
  0
LINE
  8
0
 62
7
  6
CONTINUOUS
 10
167.1034026523
 20
217.6128604275
 11
167.1102717502
 21
217.5383923512
  0
LINE
  8
0
 62
7
  6
CONTINUOUS
 10
167.7422293675
 20
211.7958391015
 11
167.7559676026
 21
211.646902936
  0
LINE
  8
0
 62
7
  6
CONTINUOUS
 10
167.3232139821
 20
216.4958391015
 11
167.3300830996
 21
216.4213710253
  0
LINE
  8
0
 62
7
  6
CONTINUOUS
 10
167.649496446
 20
214.1458391015
 11
167.6563656029
 21
214.0713710253
  0
LINE
  8
0
 62
7
  6
CONTINUOUS
 10
167.5018107243
 20
217.1660518658
 11
167.4949416068
 21
217.240519942
  0
LINE
  8
0
 62
7
  6
CONTINUOUS
 10
167.5979781737
 20
216.5703072038
 11
167.6117164089
 21
216.4213710253
  0
LINE
  8
0
 62
7
  6
CONTINUOUS
 10
167.6391928005
 20
216.5330731657
 11
167.6323237223
 21
216.6075412419
  0
LINE
  8
0
 62
7
  6
CONTINUOUS
 10
167.8280931883
 20
214.8160518658
 11
167.82122411
 21
214.890519942
  0
LINE
  8
0
 62
7
  6
CONTINUOUS
 10
167.9173915987
 20
214.1458391015
 11
167.9311297552
 21
213.996902936
  0
LINE
  8
0
 62
7
  6
CONTINUOUS
 10
167.9586062255
 20
214.0713710253
 11
167.9517370686
 21
214.1458391015
  0
LINE
  8
0
 62
7
  6
CONTINUOUS
 10
167.9173915987
 20
214.7415837896
 11
167.9311297552
 21
214.5926476371
  0
LINE
  8
0
 62
7
  6
CONTINUOUS
 10
167.9586062255
 20
214.6671157133
 11
167.9517370686
 21
214.7415837896
  0
LINE
  8
0
 62
7
  6
CONTINUOUS
 10
168.0959882624
 20
214.2203072038
 11
168.1028574192
 21
214.1458391015
  0
LINE
  8
0
 62
7
  6
CONTINUOUS
 10
167.0862299061
 20
214.0341369871
 11
167.099968102
 21
213.8479667705
  0
LINE
  8
0
 62
7
  6
CONTINUOUS
 10
167.3644286089
 20
216.4958391015
 11
167.350690413
 21
216.6820093181
  0
LINE
  8
0
 62
7
  6
CONTINUOUS
 10
167.6907110728
 20
214.1458391015
 11
167.6769729163
 21
214.3320093181
  0
LINE
  8
0
 62
7
  6
CONTINUOUS
 10
166.8114657341
 20
215.2628604275
 11
166.8183348321
 21
215.1511582088
  0
LINE
  8
0
 62
7
  6
CONTINUOUS
 10
166.9557169082
 20
214.1830731657
 11
166.94884783
 21
214.29477528
  0
LINE
  8
0
 62
7
  6
CONTINUOUS
 10
167.2201774151
 20
211.9075412419
 11
167.2133083369
 21
212.0192433563
  0
LINE
  8
0
 62
7
  6
CONTINUOUS
 10
166.9660205614
 20
216.5703072038
 11
166.9591514586
 21
216.6820093181
  0
LINE
  8
0
 62
7
  6
CONTINUOUS
 10
166.9866278748
 20
217.3149880182
 11
166.979758772
 21
217.4266901326
  0
LINE
  8
0
 62
7
  6
CONTINUOUS
 10
167.3609940585
 20
214.0341369871
 11
167.3678632154
 21
213.9224348532
  0
LINE
  8
0
 62
7
  6
CONTINUOUS
 10
167.151486377
 20
217.5383923512
 11
167.1446172791
 21
217.6500944656
  0
LINE
  8
0
 62
7
  6
CONTINUOUS
 10
167.4090778422
 20
213.8479667705
 11
167.4022086853
 21
213.9596688979
  0
LINE
  8
0
 62
7
  6
CONTINUOUS
 10
167.395339607
 20
214.7415837896
 11
167.3884705288
 21
214.8532859039
  0
LINE
  8
0
 62
7
  6
CONTINUOUS
 10
167.7834439943
 20
211.7586050634
 11
167.776574916
 21
211.8703072038
  0
LINE
  8
0
 62
7
  6
CONTINUOUS
 10
167.6323237223
 20
216.6075412419
 11
167.6254545654
 21
216.7192433563
  0
LINE
  8
0
 62
7
  6
CONTINUOUS
 10
166.6397381143
 20
214.29477528
 11
166.6328690115
 21
214.4437114325
  0
LINE
  8
0
 62
7
  6
CONTINUOUS
 10
166.9145023011
 20
214.29477528
 11
166.921371399
 21
214.1458391015
  0
LINE
  8
0
 62
7
  6
CONTINUOUS
 10
166.9179368318
 20
216.6820093181
 11
166.9248059365
 21
216.5330731657
  0
LINE
  8
0
 62
7
  6
CONTINUOUS
 10
166.9385441452
 20
217.3894560945
 11
166.9454132505
 21
217.240519942
  0
LINE
  8
0
 62
7
  6
CONTINUOUS
 10
167.1274445329
 20
213.9224348532
 11
167.1205754154
 21
214.0713710253
  0
LINE
  8
0
 62
7
  6
CONTINUOUS
 10
167.1892664731
 20
214.1830731657
 11
167.1961355907
 21
214.0341369871
  0
LINE
  8
0
 62
7
  6
CONTINUOUS
 10
167.3987741574
 20
212.2426476371
 11
167.3919050398
 21
212.3915837896
  0
LINE
  8
0
 62
7
  6
CONTINUOUS
 10
167.3163449038
 20
216.64477528
 11
167.3232139821
 21
216.4958391015
  0
LINE
  8
0
 62
7
  6
CONTINUOUS
 10
167.6426273677
 20
214.29477528
 11
167.649496446
 21
214.1458391015
  0
LINE
  8
0
 62
7
  6
CONTINUOUS
 10
167.8109203859
 20
216.9426476371
 11
167.8040513077
 21
217.0915837896
  0
LINE
  8
0
 62
7
  6
CONTINUOUS
 10
166.5916543847
 20
214.4437114325
 11
166.5985234894
 21
214.2575412419
  0
LINE
  8
0
 62
7
  6
CONTINUOUS
 10
166.8595494588
 20
215.1511582088
 11
166.8526803609
 21
215.3373285037
  0
LINE
  8
0
 62
7
  6
CONTINUOUS
 10
167.4022086853
 20
213.9596688979
 11
167.395339607
 21
214.1458391015
  0
LINE
  8
0
 62
7
  6
CONTINUOUS
 10
167.178962808
 20
212.0937114325
 11
167.1858319059
 21
211.8703072038
  0
LINE
  8
0
 62
7
  6
CONTINUOUS
 10
167.5911090955
 20
216.7937114325
 11
167.5979781737
 21
216.5703072038
  0
LINE
  8
0
 62
7
  6
CONTINUOUS
 10
166.5916543847
 20
215.0022220564
 11
166.5916543847
 21
214.4437114325
  0
LINE
  8
0
 62
7
  6
CONTINUOUS
 10
166.6328690115
 20
214.4437114325
 11
166.6328690115
 21
215.0022220564
  0
LINE
  8
0
 62
7
  6
CONTINUOUS
 10
166.7565128919
 20
214.8160518658
 11
166.7565128919
 21
214.5926476371
  0
LINE
  8
0
 62
7
  6
CONTINUOUS
 10
166.8183348321
 20
214.5926476371
 11
166.8183348321
 21
214.29477528
  0
LINE
  8
0
 62
7
  6
CONTINUOUS
 10
166.8595494588
 20
214.2575412419
 11
166.8595494588
 21
214.8160518658
  0
LINE
  8
0
 62
7
  6
CONTINUOUS
 10
166.876722205
 20
213.2479667705
 11
166.876722205
 21
211.4979667705
  0
LINE
  8
0
 62
7
  6
CONTINUOUS
 10
166.9145023011
 20
215.0394560945
 11
166.9145023011
 21
214.29477528
  0
LINE
  8
0
 62
7
  6
CONTINUOUS
 10
166.9179368318
 20
211.7213710253
 11
166.9179368318
 21
213.2479667705
  0
LINE
  8
0
 62
7
  6
CONTINUOUS
 10
166.9204910994
 20
211.4979667705
 11
166.9204910994
 21
211.7213710253
  0
LINE
  8
0
 62
7
  6
CONTINUOUS
 10
166.9385441452
 20
217.5383923512
 11
166.9385441452
 21
217.3894560945
  0
LINE
  8
0
 62
7
  6
CONTINUOUS
 10
166.94884783
 20
214.29477528
 11
166.94884783
 21
215.0394560945
  0
LINE
  8
0
 62
7
  6
CONTINUOUS
 10
166.979758772
 20
217.4266901326
 11
166.979758772
 21
217.5011582088
  0
LINE
  8
0
 62
7
  6
CONTINUOUS
 10
167.0862299061
 20
215.0394560945
 11
167.0862299061
 21
214.2203072038
  0
LINE
  8
0
 62
7
  6
CONTINUOUS
 10
167.1205754154
 20
214.0713710253
 11
167.1205754154
 21
215.0394560945
  0
LINE
  8
0
 62
7
  6
CONTINUOUS
 10
167.1240099657
 20
211.4979667705
 11
167.1240099657
 21
211.7213710253
  0
LINE
  8
0
 62
7
  6
CONTINUOUS
 10
167.1308790636
 20
216.7564773944
 11
167.1308790636
 21
216.64477528
  0
LINE
  8
0
 62
7
  6
CONTINUOUS
 10
167.1720936904
 20
216.6075412419
 11
167.1720936904
 21
216.7937114325
  0
LINE
  8
0
 62
7
  6
CONTINUOUS
 10
167.1892664731
 20
214.8160518658
 11
167.1892664731
 21
214.7415837896
  0
LINE
  8
0
 62
7
  6
CONTINUOUS
 10
167.1892664731
 20
214.29477528
 11
167.1892664731
 21
214.1830731657
  0
LINE
  8
0
 62
7
  6
CONTINUOUS
 10
167.1952552911
 20
212.0937114325
 11
167.1952552911
 21
212.2426476371
  0
LINE
  8
0
 62
7
  6
CONTINUOUS
 10
167.2133083369
 20
212.0192433563
 11
167.2133083369
 21
212.0937114325
  0
LINE
  8
0
 62
7
  6
CONTINUOUS
 10
167.2201774151
 20
212.2426476371
 11
167.2201774151
 21
212.2798816752
  0
LINE
  8
0
 62
7
  6
CONTINUOUS
 10
167.2236119823
 20
214.1458391015
 11
167.2236119823
 21
214.2203072038
  0
LINE
  8
0
 62
7
  6
CONTINUOUS
 10
167.2270465327
 20
217.9479667705
 11
167.2270465327
 21
217.7617965799
  0
LINE
  8
0
 62
7
  6
CONTINUOUS
 10
167.2270465327
 20
217.3894560945
 11
167.2270465327
 21
216.1979667705
  0
LINE
  8
0
 62
7
  6
CONTINUOUS
 10
167.2613920419
 20
216.1979667705
 11
167.2613920419
 21
217.3894560945
  0
LINE
  8
0
 62
7
  6
CONTINUOUS
 10
167.2613920419
 20
217.7617965799
 11
167.2613920419
 21
217.9479667705
  0
LINE
  8
0
 62
7
  6
CONTINUOUS
 10
167.3163449038
 20
216.9426476371
 11
167.3163449038
 21
216.64477528
  0
LINE
  8
0
 62
7
  6
CONTINUOUS
 10
167.350690413
 20
216.6820093181
 11
167.350690413
 21
216.905413599
  0
LINE
  8
0
 62
7
  6
CONTINUOUS
 10
167.3609940585
 20
214.7415837896
 11
167.3609940585
 21
214.6298816752
  0
LINE
  8
0
 62
7
  6
CONTINUOUS
 10
167.3609940585
 20
214.4809454706
 11
167.3609940585
 21
214.2575412419
  0
LINE
  8
0
 62
7
  6
CONTINUOUS
 10
167.3644286089
 20
212.3171157133
 11
167.3644286089
 21
212.2426476371
  0
LINE
  8
0
 62
7
  6
CONTINUOUS
 10
167.395339607
 20
214.1458391015
 11
167.395339607
 21
214.7415837896
  0
LINE
  8
0
 62
7
  6
CONTINUOUS
 10
167.3987741574
 20
212.0937114325
 11
167.3987741574
 21
212.2426476371
  0
LINE
  8
0
 62
7
  6
CONTINUOUS
 10
167.45372698
 20
212.6894560945
 11
167.45372698
 21
212.540519942
  0
LINE
  8
0
 62
7
  6
CONTINUOUS
 10
167.4640306255
 20
215.0394560945
 11
167.4640306255
 21
213.8479667705
  0
LINE
  8
0
 62
7
  6
CONTINUOUS
 10
167.498376174
 20
213.8479667705
 11
167.498376174
 21
214.5926476371
  0
LINE
  8
0
 62
7
  6
CONTINUOUS
 10
167.498376174
 20
214.8160518658
 11
167.498376174
 21
215.0394560945
  0
LINE
  8
0
 62
7
  6
CONTINUOUS
 10
167.5018107243
 20
217.9479667705
 11
167.5018107243
 21
217.1660518658
  0
LINE
  8
0
 62
7
  6
CONTINUOUS
 10
167.5018107243
 20
216.9798816752
 11
167.5018107243
 21
216.6075412419
  0
LINE
  8
0
 62
7
  6
CONTINUOUS
 10
167.5018107243
 20
216.4213710253
 11
167.5018107243
 21
216.1979667705
  0
LINE
  8
0
 62
7
  6
CONTINUOUS
 10
167.5224180377
 20
212.9128604275
 11
167.5224180377
 21
212.6894560945
  0
LINE
  8
0
 62
7
  6
CONTINUOUS
 10
167.5224180377
 20
212.540519942
 11
167.5224180377
 21
211.4979667705
  0
LINE
  8
0
 62
7
  6
CONTINUOUS
 10
167.5361562336
 20
216.1979667705
 11
167.5361562336
 21
217.9479667705
  0
LINE
  8
0
 62
7
  6
CONTINUOUS
 10
167.556763547
 20
211.4979667705
 11
167.556763547
 21
212.540519942
  0
LINE
  8
0
 62
7
  6
CONTINUOUS
 10
167.556763547
 20
212.6894560945
 11
167.556763547
 21
212.8756263894
  0
LINE
  8
0
 62
7
  6
CONTINUOUS
 10
167.5876745058
 20
214.8532859039
 11
167.5876745058
 21
215.0394560945
  0
LINE
  8
0
 62
7
  6
CONTINUOUS
 10
167.6074015196
 20
216.7937114325
 11
167.6074015196
 21
216.9426476371
  0
LINE
  8
0
 62
7
  6
CONTINUOUS
 10
167.6185854871
 20
212.540519942
 11
167.6185854871
 21
212.6894560945
  0
LINE
  8
0
 62
7
  6
CONTINUOUS
 10
167.6254545654
 20
216.7192433563
 11
167.6254545654
 21
216.7937114325
  0
LINE
  8
0
 62
7
  6
CONTINUOUS
 10
167.6323237223
 20
213.1362646562
 11
167.6323237223
 21
213.2479667705
  0
LINE
  8
0
 62
7
  6
CONTINUOUS
 10
167.6323237223
 20
216.9426476371
 11
167.6323237223
 21
216.9798816752
  0
LINE
  8
0
 62
7
  6
CONTINUOUS
 10
167.6426273677
 20
214.5926476371
 11
167.6426273677
 21
214.29477528
  0
LINE
  8
0
 62
7
  6
CONTINUOUS
 10
167.6769729163
 20
214.3320093181
 11
167.6769729163
 21
214.555413599
  0
LINE
  8
0
 62
7
  6
CONTINUOUS
 10
167.6872765056
 20
212.6894560945
 11
167.6872765056
 21
212.540519942
  0
LINE
  8
0
 62
7
  6
CONTINUOUS
 10
167.7422293675
 20
212.9873285037
 11
167.7422293675
 21
212.6894560945
  0
LINE
  8
0
 62
7
  6
CONTINUOUS
 10
167.7422293675
 20
212.540519942
 11
167.7422293675
 21
211.7958391015
  0
LINE
  8
0
 62
7
  6
CONTINUOUS
 10
167.1858319059
 20
212.3171157133
 11
167.178962808
 21
212.0937114325
  0
LINE
  8
0
 62
7
  6
CONTINUOUS
 10
167.5979781737
 20
217.0171157133
 11
167.5911090955
 21
216.7937114325
  0
LINE
  8
0
 62
7
  6
CONTINUOUS
 10
166.5985234894
 20
215.1883923512
 11
166.5916543847
 21
215.0022220564
  0
LINE
  8
0
 62
7
  6
CONTINUOUS
 10
166.6328690115
 20
215.0022220564
 11
166.6397381143
 21
215.1511582088
  0
LINE
  8
0
 62
7
  6
CONTINUOUS
 10
166.9454132505
 20
217.6873285037
 11
166.9385441452
 21
217.5383923512
  0
LINE
  8
0
 62
7
  6
CONTINUOUS
 10
166.8526803609
 20
214.1086050634
 11
166.8595494588
 21
214.2575412419
  0
LINE
  8
0
 62
7
  6
CONTINUOUS
 10
167.3232139821
 20
217.0915837896
 11
167.3163449038
 21
216.9426476371
  0
LINE
  8
0
 62
7
  6
CONTINUOUS
 10
167.3919050398
 20
211.7213710253
 11
167.3987741574
 21
211.8703072038
  0
LINE
  8
0
 62
7
  6
CONTINUOUS
 10
166.979758772
 20
217.5011582088
 11
166.9866278748
 21
217.6128604275
  0
LINE
  8
0
 62
7
  6
CONTINUOUS
 10
166.8183348321
 20
214.29477528
 11
166.8114657341
 21
214.1830731657
  0
LINE
  8
0
 62
7
  6
CONTINUOUS
 10
167.350690413
 20
216.905413599
 11
167.3575595306
 21
217.0171157133
  0
LINE
  8
0
 62
7
  6
CONTINUOUS
 10
167.2236119823
 20
214.2203072038
 11
167.2304810999
 21
214.3320093181
  0
LINE
  8
0
 62
7
  6
CONTINUOUS
 10
167.3644286089
 20
211.8703072038
 11
167.3575595306
 21
211.7586050634
  0
LINE
  8
0
 62
7
  6
CONTINUOUS
 10
166.6122616981
 20
215.3373285037
 11
166.5985234894
 21
215.1883923512
  0
LINE
  8
0
 62
7
  6
CONTINUOUS
 10
167.1583554946
 20
216.4586050634
 11
167.1720936904
 21
216.6075412419
  0
LINE
  8
0
 62
7
  6
CONTINUOUS
 10
167.3300830996
 20
217.1660518658
 11
167.3232139821
 21
217.0915837896
  0
LINE
  8
0
 62
7
  6
CONTINUOUS
 10
167.1961355907
 20
214.890519942
 11
167.1892664731
 21
214.8160518658
  0
LINE
  8
0
 62
7
  6
CONTINUOUS
 10
167.2236119823
 20
214.7415837896
 11
167.2304810999
 21
214.8160518658
  0
LINE
  8
0
 62
7
  6
CONTINUOUS
 10
167.2030046689
 20
214.4437114325
 11
167.1892664731
 21
214.29477528
  0
LINE
  8
0
 62
7
  6
CONTINUOUS
 10
167.4949416068
 20
216.346902936
 11
167.5018107243
 21
216.4213710253
  0
LINE
  8
0
 62
7
  6
CONTINUOUS
 10
167.6117164089
 20
217.1660518658
 11
167.5979781737
 21
217.0171157133
  0
LINE
  8
0
 62
7
  6
CONTINUOUS
 10
167.3609940585
 20
214.2575412419
 11
167.3541249802
 21
214.1830731657
  0
LINE
  8
0
 62
7
  6
CONTINUOUS
 10
167.1995701214
 20
212.4660518658
 11
167.1858319059
 21
212.3171157133
  0
LINE
  8
0
 62
7
  6
CONTINUOUS
 10
167.6323237223
 20
216.9798816752
 11
167.6391928005
 21
217.0543497514
  0
LINE
  8
0
 62
7
  6
CONTINUOUS
 10
167.3541249802
 20
213.9596688979
 11
167.3609940585
 21
214.0341369871
  0
LINE
  8
0
 62
7
  6
CONTINUOUS
 10
167.2201774151
 20
212.2798816752
 11
167.2270465327
 21
212.3543497514
  0
LINE
  8
0
 62
7
  6
CONTINUOUS
 10
166.6397381143
 20
215.1511582088
 11
166.6534763249
 21
215.2628604275
  0
LINE
  8
0
 62
7
  6
CONTINUOUS
 10
167.1308790636
 20
216.64477528
 11
167.1171408678
 21
216.5330731657
  0
LINE
  8
0
 62
7
  6
CONTINUOUS
 10
167.3575595306
 20
217.0171157133
 11
167.3712977264
 21
217.1288178277
  0
LINE
  8
0
 62
7
  6
CONTINUOUS
 10
167.0862299061
 20
214.2203072038
 11
167.0724917103
 21
214.1086050634
  0
LINE
  8
0
 62
7
  6
CONTINUOUS
 10
167.5018107243
 20
216.6075412419
 11
167.4880724892
 21
216.4958391015
  0
LINE
  8
0
 62
7
  6
CONTINUOUS
 10
166.9728896692
 20
217.8362646562
 11
166.9454132505
 21
217.6873285037
  0
LINE
  8
0
 62
7
  6
CONTINUOUS
 10
166.6397381143
 20
215.4862646562
 11
166.6122616981
 21
215.3373285037
  0
LINE
  8
0
 62
7
  6
CONTINUOUS
 10
166.9412192722
 20
216.3847920998
 11
166.9479675212
 21
216.4213710253
  0
LINE
  8
0
 62
7
  6
CONTINUOUS
 10
166.6307115914
 20
214.008597248
 11
166.6422923875
 21
214.0713710253
  0
LINE
  8
0
 62
7
  6
CONTINUOUS
 10
167.1308790636
 20
216.3096688979
 11
167.1583554946
 21
216.4586050634
  0
LINE
  8
0
 62
7
  6
CONTINUOUS
 10
167.350690413
 20
217.2777539801
 11
167.3300830996
 21
217.1660518658
  0
LINE
  8
0
 62
7
  6
CONTINUOUS
 10
166.82520393
 20
213.9596688979
 11
166.8526803609
 21
214.1086050634
  0
LINE
  8
0
 62
7
  6
CONTINUOUS
 10
167.6254545654
 20
217.240519942
 11
167.6117164089
 21
217.1660518658
  0
LINE
  8
0
 62
7
  6
CONTINUOUS
 10
167.2098737865
 20
214.9649880182
 11
167.1961355907
 21
214.890519942
  0
LINE
  8
0
 62
7
  6
CONTINUOUS
 10
166.9866278748
 20
217.6128604275
 11
167.0072351931
 21
217.6873285037
  0
LINE
  8
0
 62
7
  6
CONTINUOUS
 10
166.6534763249
 20
215.2628604275
 11
166.6740836383
 21
215.3373285037
  0
LINE
  8
0
 62
7
  6
CONTINUOUS
 10
167.1171408678
 20
216.5330731657
 11
167.0965335544
 21
216.4586050634
  0
LINE
  8
0
 62
7
  6
CONTINUOUS
 10
167.3712977264
 20
217.3522220564
 11
167.350690413
 21
217.2777539801
  0
LINE
  8
0
 62
7
  6
CONTINUOUS
 10
167.0003660854
 20
217.9107327324
 11
166.9728896692
 21
217.8362646562
  0
LINE
  8
0
 62
7
  6
CONTINUOUS
 10
166.6672145355
 20
215.5607327324
 11
166.6397381143
 21
215.4862646562
  0
LINE
  8
0
 62
7
  6
CONTINUOUS
 10
167.3712977264
 20
217.1288178277
 11
167.3987741574
 21
217.2032859039
  0
LINE
  8
0
 62
7
  6
CONTINUOUS
 10
167.1034026523
 20
216.2352008119
 11
167.1308790636
 21
216.3096688979
  0
LINE
  8
0
 62
7
  6
CONTINUOUS
 10
167.0072351931
 20
217.6873285037
 11
167.0278425065
 21
217.7245625418
  0
LINE
  8
0
 62
7
  6
CONTINUOUS
 10
167.0278425065
 20
217.9479667705
 11
167.0003660854
 21
217.9107327324
  0
LINE
  8
0
 62
7
  6
CONTINUOUS
 10
167.3987741574
 20
217.3894560945
 11
167.3712977264
 21
217.3522220564
  0
LINE
  8
0
 62
7
  6
CONTINUOUS
 10
167.707883819
 20
217.3894560945
 11
167.6666691922
 21
217.3522220564
  0
LINE
  8
0
 62
7
  6
CONTINUOUS
 10
167.7010147407
 20
217.240519942
 11
167.7422293675
 21
217.2032859039
  0
LINE
  8
0
 62
7
  6
CONTINUOUS
 10
167.7490984457
 20
217.3522220564
 11
167.707883819
 21
217.3894560945
  0
LINE
  8
0
 62
7
  6
CONTINUOUS
 10
167.0965335544
 20
217.9107327324
 11
167.0621880256
 21
217.9479667705
  0
LINE
  8
0
 62
7
  6
CONTINUOUS
 10
167.7010147407
 20
216.346902936
 11
167.673538349
 21
216.3841369871
  0
LINE
  8
0
 62
7
  6
CONTINUOUS
 10
167.4399887842
 20
217.2032859039
 11
167.4674651758
 21
217.1660518658
  0
LINE
  8
0
 62
7
  6
CONTINUOUS
 10
167.4674651758
 20
217.3522220564
 11
167.4399887842
 21
217.3894560945
  0
LINE
  8
0
 62
7
  6
CONTINUOUS
 10
167.0278425065
 20
217.2032859039
 11
167.0072351931
 21
217.240519942
  0
LINE
  8
0
 62
7
  6
CONTINUOUS
 10
167.6460618788
 20
216.2724348532
 11
167.6666691922
 21
216.2352008119
  0
LINE
  8
0
 62
7
  6
CONTINUOUS
 10
167.0690571333
 20
217.7245625418
 11
167.0896644369
 21
217.6873285037
  0
LINE
  8
0
 62
7
  6
CONTINUOUS
 10
167.972344382
 20
214.0341369871
 11
167.9586062255
 21
214.0713710253
  0
LINE
  8
0
 62
7
  6
CONTINUOUS
 10
166.9728896692
 20
217.0915837896
 11
167.0003660854
 21
217.0171157133
  0
LINE
  8
0
 62
7
  6
CONTINUOUS
 10
167.8074858749
 20
214.9649880182
 11
167.7937476397
 21
215.0022220564
  0
LINE
  8
0
 62
7
  6
CONTINUOUS
 10
167.1308790636
 20
217.0915837896
 11
167.1034026523
 21
217.1660518658
  0
LINE
  8
0
 62
7
  6
CONTINUOUS
 10
168.0822501058
 20
214.8532859039
 11
168.0959882624
 21
214.8160518658
  0
LINE
  8
0
 62
7
  6
CONTINUOUS
 10
167.673538349
 20
216.3841369871
 11
167.6598001139
 21
216.4213710253
  0
LINE
  8
0
 62
7
  6
CONTINUOUS
 10
167.481203411
 20
217.3149880182
 11
167.4674651758
 21
217.3522220564
  0
LINE
  8
0
 62
7
  6
CONTINUOUS
 10
166.9454132505
 20
216.346902936
 11
166.979758772
 21
216.2352008119
  0
LINE
  8
0
 62
7
  6
CONTINUOUS
 10
167.7834439943
 20
217.240519942
 11
167.7490984457
 21
217.3522220564
  0
LINE
  8
0
 62
7
  6
CONTINUOUS
 10
167.3747322936
 20
214.9277539801
 11
167.3541249802
 21
215.0022220564
  0
LINE
  8
0
 62
7
  6
CONTINUOUS
 10
167.6769729163
 20
213.9596688979
 11
167.6975802296
 21
213.8852008119
  0
LINE
  8
0
 62
7
  6
CONTINUOUS
 10
167.7113183862
 20
214.0713710253
 11
167.6907110728
 21
214.1458391015
  0
LINE
  8
0
 62
7
  6
CONTINUOUS
 10
167.0072351931
 20
217.240519942
 11
166.9866278748
 21
217.3149880182
  0
LINE
  8
0
 62
7
  6
CONTINUOUS
 10
167.0965335544
 20
216.9426476371
 11
167.1171408678
 21
216.8681795609
  0
LINE
  8
0
 62
7
  6
CONTINUOUS
 10
167.9311297552
 20
213.996902936
 11
167.9517370686
 21
213.9224348532
  0
LINE
  8
0
 62
7
  6
CONTINUOUS
 10
167.350690413
 20
216.3096688979
 11
167.3712977264
 21
216.2352008119
  0
LINE
  8
0
 62
7
  6
CONTINUOUS
 10
167.7937476397
 20
214.8160518658
 11
167.8143549531
 21
214.7415837896
  0
LINE
  8
0
 62
7
  6
CONTINUOUS
 10
167.3850359223
 20
216.4213710253
 11
167.3644286089
 21
216.4958391015
  0
LINE
  8
0
 62
7
  6
CONTINUOUS
 10
167.9792135389
 20
214.5926476371
 11
167.9586062255
 21
214.6671157133
  0
LINE
  8
0
 62
7
  6
CONTINUOUS
 10
168.075380949
 20
214.29477528
 11
168.0959882624
 21
214.2203072038
  0
LINE
  8
0
 62
7
  6
CONTINUOUS
 10
167.6254545654
 20
216.346902936
 11
167.6460618788
 21
216.2724348532
  0
LINE
  8
0
 62
7
  6
CONTINUOUS
 10
167.4674651758
 20
217.1660518658
 11
167.4880724892
 21
217.0915837896
  0
LINE
  8
0
 62
7
  6
CONTINUOUS
 10
168.1234647326
 20
214.890519942
 11
168.1028574192
 21
214.9649880182
  0
LINE
  8
0
 62
7
  6
CONTINUOUS
 10
167.7422293675
 20
217.2032859039
 11
167.7628366809
 21
217.1288178277
  0
LINE
  8
0
 62
7
  6
CONTINUOUS
 10
167.1240099657
 20
217.799030618
 11
167.0965335544
 21
217.9107327324
  0
LINE
  8
0
 62
7
  6
CONTINUOUS
 10
167.9311297552
 20
214.5926476371
 11
167.9586062255
 21
214.4809454706
  0
LINE
  8
0
 62
7
  6
CONTINUOUS
 10
168.1234647326
 20
214.29477528
 11
168.0959882624
 21
214.4064773944
  0
LINE
  8
0
 62
7
  6
CONTINUOUS
 10
167.1961355907
 20
214.0341369871
 11
167.2167429041
 21
213.9224348532
  0
LINE
  8
0
 62
7
  6
CONTINUOUS
 10
166.9866278748
 20
216.4586050634
 11
166.9660205614
 21
216.5703072038
  0
LINE
  8
0
 62
7
  6
CONTINUOUS
 10
166.9454132505
 20
217.240519942
 11
166.9728896692
 21
217.0915837896
  0
LINE
  8
0
 62
7
  6
CONTINUOUS
 10
167.3884705288
 20
214.8532859039
 11
167.3747322936
 21
214.9277539801
  0
LINE
  8
0
 62
7
  6
CONTINUOUS
 10
167.6563656029
 20
214.0713710253
 11
167.6769729163
 21
213.9596688979
  0
LINE
  8
0
 62
7
  6
CONTINUOUS
 10
167.1583554946
 20
216.9426476371
 11
167.1308790636
 21
217.0915837896
  0
LINE
  8
0
 62
7
  6
CONTINUOUS
 10
167.0896644369
 20
217.6873285037
 11
167.1034026523
 21
217.6128604275
  0
LINE
  8
0
 62
7
  6
CONTINUOUS
 10
167.3300830996
 20
216.4213710253
 11
167.350690413
 21
216.3096688979
  0
LINE
  8
0
 62
7
  6
CONTINUOUS
 10
167.82122411
 20
214.890519942
 11
167.8074858749
 21
214.9649880182
  0
LINE
  8
0
 62
7
  6
CONTINUOUS
 10
167.6117164089
 20
216.4213710253
 11
167.6254545654
 21
216.346902936
  0
LINE
  8
0
 62
7
  6
CONTINUOUS
 10
167.4949416068
 20
217.240519942
 11
167.481203411
 21
217.3149880182
  0
LINE
  8
0
 62
7
  6
CONTINUOUS
 10
167.6598001139
 20
216.4213710253
 11
167.6391928005
 21
216.5330731657
  0
LINE
  8
0
 62
7
  6
CONTINUOUS
 10
167.3919050398
 20
212.3915837896
 11
167.3712977264
 21
212.540519942
  0
LINE
  8
0
 62
7
  6
CONTINUOUS
 10
167.1446172791
 20
217.6500944656
 11
167.1240099657
 21
217.799030618
  0
LINE
  8
0
 62
7
  6
CONTINUOUS
 10
167.8040513077
 20
217.0915837896
 11
167.7834439943
 21
217.240519942
  0
LINE
  8
0
 62
7
  6
CONTINUOUS
 10
166.9694551434
 20
214.0713710253
 11
166.9557169082
 21
214.1830731657
  0
LINE
  8
0
 62
7
  6
CONTINUOUS
 10
167.350690413
 20
212.4288178277
 11
167.3644286089
 21
212.3171157133
  0
LINE
  8
0
 62
7
  6
CONTINUOUS
 10
167.1171408678
 20
216.8681795609
 11
167.1308790636
 21
216.7564773944
  0
LINE
  8
0
 62
7
  6
CONTINUOUS
 10
167.4880724892
 20
217.0915837896
 11
167.5018107243
 21
216.9798816752
  0
LINE
  8
0
 62
7
  6
CONTINUOUS
 10
167.8143549531
 20
214.7415837896
 11
167.8280931883
 21
214.6298816752
  0
LINE
  8
0
 62
7
  6
CONTINUOUS
 10
167.7628366809
 20
217.1288178277
 11
167.776574916
 21
217.0171157133
  0
LINE
  8
0
 62
7
  6
CONTINUOUS
 10
166.9248059365
 20
216.5330731657
 11
166.9454132505
 21
216.346902936
  0
LINE
  8
0
 62
7
  6
CONTINUOUS
 10
168.1372028891
 20
214.1458391015
 11
168.1234647326
 21
214.29477528
  0
LINE
  8
0
 62
7
  6
CONTINUOUS
 10
168.0959882624
 20
214.8160518658
 11
168.1028574192
 21
214.7415837896
  0
LINE
  8
0
 62
7
  6
CONTINUOUS
 10
168.1372028891
 20
214.7415837896
 11
168.1234647326
 21
214.890519942
  0
LINE
  8
0
 62
7
  6
CONTINUOUS
 10
169.3509423895
 20
206.9194420734
 11
169.3450635754
 21
207.0338438838
  0
LINE
  8
0
 62
7
  6
CONTINUOUS
 10
167.776574916
 20
217.0171157133
 11
167.776574916
 21
216.9426476371
  0
LINE
  8
0
 62
7
  6
CONTINUOUS
 10
167.776574916
 20
211.8703072038
 11
167.776574916
 21
212.540519942
  0
LINE
  8
0
 62
7
  6
CONTINUOUS
 10
167.776574916
 20
212.6894560945
 11
167.776574916
 21
212.9873285037
  0
LINE
  8
0
 62
7
  6
CONTINUOUS
 10
167.8109203859
 20
216.7937114325
 11
167.8109203859
 21
216.9426476371
  0
LINE
  8
0
 62
7
  6
CONTINUOUS
 10
167.8280931883
 20
215.5979667705
 11
167.8280931883
 21
214.8160518658
  0
LINE
  8
0
 62
7
  6
CONTINUOUS
 10
167.8280931883
 20
214.6298816752
 11
167.8280931883
 21
214.2575412419
  0
LINE
  8
0
 62
7
  6
CONTINUOUS
 10
167.8280931883
 20
214.0713710253
 11
167.8280931883
 21
213.8479667705
  0
LINE
  8
0
 62
7
  6
CONTINUOUS
 10
167.8383968562
 20
211.4979667705
 11
167.8383968562
 21
211.646902936
  0
LINE
  8
0
 62
7
  6
CONTINUOUS
 10
167.8521350127
 20
212.540519942
 11
167.8521350127
 21
212.6894560945
  0
LINE
  8
0
 62
7
  6
CONTINUOUS
 10
167.8624387368
 20
213.8479667705
 11
167.8624387368
 21
215.5979667705
  0
LINE
  8
0
 62
7
  6
CONTINUOUS
 10
167.9173915987
 20
214.8160518658
 11
167.9173915987
 21
214.7415837896
  0
LINE
  8
0
 62
7
  6
CONTINUOUS
 10
168.1372028891
 20
214.0713710253
 11
168.1372028891
 21
214.1458391015
  0
LINE
  8
0
 62
7
  6
CONTINUOUS
 10
167.649496446
 20
214.7415837896
 11
167.6426273677
 21
214.5926476371
  0
LINE
  8
0
 62
7
  6
CONTINUOUS
 10
167.8040513077
 20
216.4213710253
 11
167.8109203859
 21
216.5703072038
  0
LINE
  8
0
 62
7
  6
CONTINUOUS
 10
167.529287116
 20
213.0245625418
 11
167.5224180377
 21
212.9128604275
  0
LINE
  8
0
 62
7
  6
CONTINUOUS
 10
167.776574916
 20
216.5703072038
 11
167.7697057591
 21
216.4586050634
  0
LINE
  8
0
 62
7
  6
CONTINUOUS
 10
167.556763547
 20
212.8756263894
 11
167.5636326252
 21
212.9873285037
  0
LINE
  8
0
 62
7
  6
CONTINUOUS
 10
167.6769729163
 20
214.555413599
 11
167.6838419945
 21
214.6671157133
  0
LINE
  8
0
 62
7
  6
CONTINUOUS
 10
167.6563656029
 20
214.8160518658
 11
167.649496446
 21
214.7415837896
  0
LINE
  8
0
 62
7
  6
CONTINUOUS
 10
167.82122411
 20
213.996902936
 11
167.8280931883
 21
214.0713710253
  0
LINE
  8
0
 62
7
  6
CONTINUOUS
 10
167.9517370686
 20
214.7415837896
 11
167.9586062255
 21
214.8160518658
  0
LINE
  8
0
 62
7
  6
CONTINUOUS
 10
168.1028574192
 20
214.1458391015
 11
168.0959882624
 21
214.0713710253
  0
LINE
  8
0
 62
7
  6
CONTINUOUS
 10
167.6838419945
 20
214.6671157133
 11
167.6975802296
 21
214.7788178277
  0
LINE
  8
0
 62
7
  6
CONTINUOUS
 10
167.5430253118
 20
213.1362646562
 11
167.529287116
 21
213.0245625418
  0
LINE
  8
0
 62
7
  6
CONTINUOUS
 10
167.8280931883
 20
214.2575412419
 11
167.8143549531
 21
214.1458391015
  0
LINE
  8
0
 62
7
  6
CONTINUOUS
 10
167.9311297552
 20
214.9277539801
 11
167.9173915987
 21
214.8160518658
  0
LINE
  8
0
 62
7
  6
CONTINUOUS
 10
168.1234647326
 20
213.9596688979
 11
168.1372028891
 21
214.0713710253
  0
LINE
  8
0
 62
7
  6
CONTINUOUS
 10
167.498376174
 20
214.5926476371
 11
167.5189834874
 21
214.7415837896
  0
POLYLINE
  8
0
 62
7
  6
CONTINUOUS
 66
1
 70
0
  0
VERTEX
  8
0
 62
7
  6
CONTINUOUS
 10
166.1613629194
 20
206.5949535109
  0
VERTEX
  8
0
 62
7
  6
CONTINUOUS
 10
166.1775938019
 20
206.6955563674
  0
VERTEX
  8
0
 62
7
  6
CONTINUOUS
 10
166.2052432146
 20
206.8225768943
  0
VERTEX
  8
0
 62
7
  6
CONTINUOUS
 10
166.2315372416
 20
206.9059652202
  0
VERTEX
  8
0
 62
7
  6
CONTINUOUS
 10
166.2452531962
 20
206.9364247878
  0
SEQEND
  0
LINE
  8
0
 62
7
  6
CONTINUOUS
 10
167.481203411
 20
216.2724348532
 11
167.4949416068
 21
216.346902936
  0
LINE
  8
0
 62
7
  6
CONTINUOUS
 10
167.6391928005
 20
217.0543497514
 11
167.6598001139
 21
217.1660518658
  0
LINE
  8
0
 62
7
  6
CONTINUOUS
 10
167.0656225928
 20
213.9224348532
 11
167.0862299061
 21
214.0341369871
  0
LINE
  8
0
 62
7
  6
CONTINUOUS
 10
167.2167429041
 20
214.5181795609
 11
167.2030046689
 21
214.4437114325
  0
LINE
  8
0
 62
7
  6
CONTINUOUS
 10
167.2304810999
 20
214.3320093181
 11
167.2442192957
 21
214.4064773944
  0
LINE
  8
0
 62
7
  6
CONTINUOUS
 10
167.3541249802
 20
214.1830731657
 11
167.3335176669
 21
214.0713710253
  0
LINE
  8
0
 62
7
  6
CONTINUOUS
 10
167.7834439943
 20
216.3096688979
 11
167.8040513077
 21
216.4213710253
  0
LINE
  8
0
 62
7
  6
CONTINUOUS
 10
167.2133083369
 20
212.540519942
 11
167.1995701214
 21
212.4660518658
  0
LINE
  8
0
 62
7
  6
CONTINUOUS
 10
167.6769729163
 20
214.9277539801
 11
167.6563656029
 21
214.8160518658
  0
LINE
  8
0
 62
7
  6
CONTINUOUS
 10
167.2270465327
 20
212.3543497514
 11
167.2476538461
 21
212.4660518658
  0
LINE
  8
0
 62
7
  6
CONTINUOUS
 10
167.3712977264
 20
211.6096688979
 11
167.3919050398
 21
211.7213710253
  0
LINE
  8
0
 62
7
  6
CONTINUOUS
 10
167.5121144091
 20
214.890519942
 11
167.498376174
 21
214.8160518658
  0
LINE
  8
0
 62
7
  6
CONTINUOUS
 10
167.5636326252
 20
212.9873285037
 11
167.5773708604
 21
213.0617965799
  0
LINE
  8
0
 62
7
  6
CONTINUOUS
 10
167.8074858749
 20
213.9224348532
 11
167.82122411
 21
213.996902936
  0
LINE
  8
0
 62
7
  6
CONTINUOUS
 10
167.6460618788
 20
217.3149880182
 11
167.6254545654
 21
217.240519942
  0
LINE
  8
0
 62
7
  6
CONTINUOUS
 10
166.8114657341
 20
214.1830731657
 11
166.7908584207
 21
214.1086050634
  0
LINE
  8
0
 62
7
  6
CONTINUOUS
 10
167.4880724892
 20
216.4958391015
 11
167.4674651758
 21
216.4213710253
  0
LINE
  8
0
 62
7
  6
CONTINUOUS
 10
167.0724917103
 20
214.1086050634
 11
167.0518843969
 21
214.0341369871
  0
LINE
  8
0
 62
7
  6
CONTINUOUS
 10
167.7697057591
 20
216.4586050634
 11
167.7490984457
 21
216.3841369871
  0
LINE
  8
0
 62
7
  6
CONTINUOUS
 10
167.5327217225
 20
214.9649880182
 11
167.5121144091
 21
214.890519942
  0
LINE
  8
0
 62
7
  6
CONTINUOUS
 10
167.3335176669
 20
213.8852008119
 11
167.3541249802
 21
213.9596688979
  0
LINE
  8
0
 62
7
  6
CONTINUOUS
 10
167.6975802296
 20
215.0022220564
 11
167.6769729163
 21
214.9277539801
  0
LINE
  8
0
 62
7
  6
CONTINUOUS
 10
167.2339156503
 20
212.6149880182
 11
167.2133083369
 21
212.540519942
  0
LINE
  8
0
 62
7
  6
CONTINUOUS
 10
167.8143549531
 20
214.1458391015
 11
167.7937476397
 21
214.0713710253
  0
LINE
  8
0
 62
7
  6
CONTINUOUS
 10
167.3575595306
 20
211.7586050634
 11
167.3369522172
 21
211.6841369871
  0
LINE
  8
0
 62
7
  6
CONTINUOUS
 10
167.6598001139
 20
217.1660518658
 11
167.673538349
 21
217.2032859039
  0
LINE
  8
0
 62
7
  6
CONTINUOUS
 10
167.4674651758
 20
216.2352008119
 11
167.481203411
 21
216.2724348532
  0
LINE
  8
0
 62
7
  6
CONTINUOUS
 10
166.7977275187
 20
213.8852008119
 11
166.82520393
 21
213.9596688979
  0
LINE
  8
0
 62
7
  6
CONTINUOUS
 10
167.2236119823
 20
215.0022220564
 11
167.2098737865
 21
214.9649880182
  0
LINE
  8
0
 62
7
  6
CONTINUOUS
 10
167.2304810999
 20
214.8160518658
 11
167.2442192957
 21
214.8532859039
  0
LINE
  8
0
 62
7
  6
CONTINUOUS
 10
167.7559676026
 20
216.2352008119
 11
167.7834439943
 21
216.3096688979
  0
LINE
  8
0
 62
7
  6
CONTINUOUS
 10
167.2442192957
 20
214.5926476371
 11
167.2167429041
 21
214.5181795609
  0
LINE
  8
0
 62
7
  6
CONTINUOUS
 10
167.0518843969
 20
213.8852008119
 11
167.0656225928
 21
213.9224348532
  0
LINE
  8
0
 62
7
  6
CONTINUOUS
 10
167.2442192957
 20
214.4064773944
 11
167.2579574915
 21
214.4437114325
  0
LINE
  8
0
 62
7
  6
CONTINUOUS
 10
167.5189834874
 20
214.7415837896
 11
167.546459879
 21
214.8160518658
  0
LINE
  8
0
 62
7
  6
CONTINUOUS
 10
167.6975802296
 20
214.7788178277
 11
167.7250566213
 21
214.8532859039
  0
LINE
  8
0
 62
7
  6
CONTINUOUS
 10
167.9586062255
 20
215.0022220564
 11
167.9311297552
 21
214.9277539801
  0
LINE
  8
0
 62
7
  6
CONTINUOUS
 10
167.9586062255
 20
214.8160518658
 11
167.972344382
 21
214.8532859039
  0
LINE
  8
0
 62
7
  6
CONTINUOUS
 10
167.2476538461
 20
212.4660518658
 11
167.2613920419
 21
212.5032859039
  0
LINE
  8
0
 62
7
  6
CONTINUOUS
 10
167.3335176669
 20
214.0713710253
 11
167.2991721183
 21
213.996902936
  0
LINE
  8
0
 62
7
  6
CONTINUOUS
 10
167.6666691922
 20
217.3522220564
 11
167.6460618788
 21
217.3149880182
  0
LINE
  8
0
 62
7
  6
CONTINUOUS
 10
167.5533290359
 20
215.0022220564
 11
167.5327217225
 21
214.9649880182
  0
LINE
  8
0
 62
7
  6
CONTINUOUS
 10
167.0965335544
 20
216.4586050634
 11
167.0690571333
 21
216.4213710253
  0
LINE
  8
0
 62
7
  6
CONTINUOUS
 10
167.673538349
 20
217.2032859039
 11
167.7010147407
 21
217.240519942
  0
LINE
  8
0
 62
7
  6
CONTINUOUS
 10
167.4674651758
 20
216.4213710253
 11
167.4399887842
 21
216.3841369871
  0
LINE
  8
0
 62
7
  6
CONTINUOUS
 10
166.6740836383
 20
215.3373285037
 11
166.7015600594
 21
215.3745625418
  0
LINE
  8
0
 62
7
  6
CONTINUOUS
 10
167.4399887842
 20
216.1979667705
 11
167.4674651758
 21
216.2352008119
  0
LINE
  8
0
 62
7
  6
CONTINUOUS
 10
167.2442192957
 20
214.8532859039
 11
167.2716957267
 21
214.890519942
  0
LINE
  8
0
 62
7
  6
CONTINUOUS
 10
166.7908584207
 20
214.1086050634
 11
166.7633819898
 21
214.0713710253
  0
LINE
  8
0
 62
7
  6
CONTINUOUS
 10
167.0690571333
 20
216.1979667705
 11
167.1034026523
 21
216.2352008119
  0
LINE
  8
0
 62
7
  6
CONTINUOUS
 10
166.7015600594
 20
215.5979667705
 11
166.6672145355
 21
215.5607327324
  0
LINE
  8
0
 62
7
  6
CONTINUOUS
 10
167.7490984457
 20
216.3841369871
 11
167.7010147407
 21
216.346902936
  0
LINE
  8
0
 62
7
  6
CONTINUOUS
 10
167.707883819
 20
216.1979667705
 11
167.7559676026
 21
216.2352008119
  0
POLYLINE
  8
0
 62
7
  6
CONTINUOUS
 66
1
 70
0
  0
VERTEX
  8
0
 62
7
  6
CONTINUOUS
 10
170.7827063737
 20
230.517820837
  0
VERTEX
  8
0
 62
7
  6
CONTINUOUS
 10
170.8095245008
 20
231.0406377192
  0
VERTEX
  8
0
 62
7
  6
CONTINUOUS
 10
170.8342708103
 20
232.1757856355
  0
VERTEX
  8
0
 62
7
  6
CONTINUOUS
 10
170.8151611607
 20
233.3108835791
  0
VERTEX
  8
0
 62
7
  6
CONTINUOUS
 10
170.7525024084
 20
234.4102439135
  0
VERTEX
  8
0
 62
7
  6
CONTINUOUS
 10
170.6466468236
 20
235.4375929921
  0
VERTEX
  8
0
 62
7
  6
CONTINUOUS
 10
170.5144209415
 20
236.2705118816
  0
VERTEX
  8
0
 62
7
  6
CONTINUOUS
 10
170.4430851404
 20
236.6102460749
  0
VERTEX
  8
0
 62
7
  6
CONTINUOUS
 10
170.2933495519
 20
237.1607337711
  0
VERTEX
  8
0
 62
7
  6
CONTINUOUS
 10
170.1362165444
 20
237.5656856305
  0
VERTEX
  8
0
 62
7
  6
CONTINUOUS
 10
169.961313862
 20
237.8677087515
  0
VERTEX
  8
0
 62
7
  6
CONTINUOUS
 10
169.7386358381
 20
238.0971865381
  0
VERTEX
  8
0
 62
7
  6
CONTINUOUS
 10
169.4419296742
 20
238.2329696667
  0
VERTEX
  8
0
 62
7
  6
CONTINUOUS
 10
169.2985128444
 20
238.2479665983
  0
SEQEND
  0
LINE
  8
0
 62
7
  6
CONTINUOUS
 10
169.3451227626
 20
207.0348107469
 11
170.7827064132
 21
230.5178214819
  0
LINE
  8
0
 62
7
  6
CONTINUOUS
 10
169.3450638639
 20
207.0338486348
 11
169.3450537616
 21
207.0336930877
  0
POLYLINE
  8
0
 62
7
  6
CONTINUOUS
 66
1
 70
0
  0
VERTEX
  8
0
 62
7
  6
CONTINUOUS
 10
166.1613595915
 20
206.5949530444
  0
VERTEX
  8
0
 62
7
  6
CONTINUOUS
 10
166.16025998
 20
206.5919690448
  0
VERTEX
  8
0
 62
7
  6
CONTINUOUS
 10
166.1543354353
 20
206.5824460938
  0
SEQEND
  0
LINE
  8
0
 62
7
  6
CONTINUOUS
 10
167.7937476397
 20
213.8852008119
 11
167.8074858749
 21
213.9224348532
  0
LINE
  8
0
 62
7
  6
CONTINUOUS
 10
167.5705017821
 20
213.2107327324
 11
167.5430253118
 21
213.1362646562
  0
LINE
  8
0
 62
7
  6
CONTINUOUS
 10
167.5773708604
 20
213.0617965799
 11
167.5911090955
 21
213.099030618
  0
LINE
  8
0
 62
7
  6
CONTINUOUS
 10
168.0959882624
 20
214.0713710253
 11
168.0822501058
 21
214.0341369871
  0
LINE
  8
0
 62
7
  6
CONTINUOUS
 10
168.0959882624
 20
213.8852008119
 11
168.1234647326
 21
213.9596688979
  0
LINE
  8
0
 62
7
  6
CONTINUOUS
 10
167.3438212955
 20
211.5352008119
 11
167.3712977264
 21
211.6096688979
  0
LINE
  8
0
 62
7
  6
CONTINUOUS
 10
167.2545229636
 20
212.6522220564
 11
167.2339156503
 21
212.6149880182
  0
LINE
  8
0
 62
7
  6
CONTINUOUS
 10
167.2579574915
 20
214.4437114325
 11
167.2854339618
 21
214.4809454706
  0
LINE
  8
0
 62
7
  6
CONTINUOUS
 10
167.7250566213
 20
215.0394560945
 11
167.6975802296
 21
215.0022220564
  0
LINE
  8
0
 62
7
  6
CONTINUOUS
 10
167.0518843969
 20
214.0341369871
 11
167.024407966
 21
213.996902936
  0
LINE
  8
0
 62
7
  6
CONTINUOUS
 10
167.024407966
 20
213.8479667705
 11
167.0518843969
 21
213.8852008119
  0
LINE
  8
0
 62
7
  6
CONTINUOUS
 10
167.972344382
 20
214.8532859039
 11
167.9998208523
 21
214.890519942
  0
LINE
  8
0
 62
7
  6
CONTINUOUS
 10
167.7937476397
 20
214.0713710253
 11
167.7662712481
 21
214.0341369871
  0
LINE
  8
0
 62
7
  6
CONTINUOUS
 10
167.7662712481
 20
213.8479667705
 11
167.7937476397
 21
213.8852008119
  0
LINE
  8
0
 62
7
  6
CONTINUOUS
 10
168.0822501058
 20
214.0341369871
 11
168.0547736356
 21
213.996902936
  0
LINE
  8
0
 62
7
  6
CONTINUOUS
 10
167.2613920419
 20
212.5032859039
 11
167.2888684729
 21
212.540519942
  0
LINE
  8
0
 62
7
  6
CONTINUOUS
 10
167.5876745058
 20
215.0394560945
 11
167.5533290359
 21
215.0022220564
  0
LINE
  8
0
 62
7
  6
CONTINUOUS
 10
166.7633819898
 20
213.8479667705
 11
166.7977275187
 21
213.8852008119
  0
LINE
  8
0
 62
7
  6
CONTINUOUS
 10
167.2991721183
 20
213.8479667705
 11
167.3335176669
 21
213.8852008119
  0
LINE
  8
0
 62
7
  6
CONTINUOUS
 10
167.604847252
 20
213.2479667705
 11
167.5705017821
 21
213.2107327324
  0
LINE
  8
0
 62
7
  6
CONTINUOUS
 10
167.2854339618
 20
214.6298816752
 11
167.2442192957
 21
214.5926476371
  0
LINE
  8
0
 62
7
  6
CONTINUOUS
 10
167.546459879
 20
214.8160518658
 11
167.5876745058
 21
214.8532859039
  0
LINE
  8
0
 62
7
  6
CONTINUOUS
 10
167.9998208523
 20
215.0394560945
 11
167.9586062255
 21
215.0022220564
  0
LINE
  8
0
 62
7
  6
CONTINUOUS
 10
167.2716957267
 20
215.0394560945
 11
167.2236119823
 21
215.0022220564
  0
LINE
  8
0
 62
7
  6
CONTINUOUS
 10
170.8941951557
 20
198.3979692482
 11
170.8941951557
 21
206.0979642994
  0
LINE
  8
0
 62
7
  6
CONTINUOUS
 10
166.1441951557
 20
206.5609846482
 11
166.1543347077
 21
206.5824445914
  0
LINE
  8
0
 62
7
  6
CONTINUOUS
 10
168.0547736356
 20
213.8479667705
 11
168.0959882624
 21
213.8852008119
  0
LINE
  8
0
 62
7
  6
CONTINUOUS
 10
167.5911090955
 20
213.099030618
 11
167.6323237223
 21
213.1362646562
  0
LINE
  8
0
 62
7
  6
CONTINUOUS
 10
167.2957375904
 20
212.6894560945
 11
167.2545229636
 21
212.6522220564
  0
LINE
  8
0
 62
7
  6
CONTINUOUS
 10
162.9035976506
 20
206.6592736678
 11
162.9033921757
 21
206.6590816652
  0
LINE
  8
0
 62
7
  6
CONTINUOUS
 10
167.3369522172
 20
211.6841369871
 11
167.2888684729
 21
211.646902936
  0
LINE
  8
0
 62
7
  6
CONTINUOUS
 10
167.2957375904
 20
211.4979667705
 11
167.3438212955
 21
211.5352008119
  0
POLYLINE
  8
0
 62
7
  6
CONTINUOUS
 66
1
 70
0
  0
VERTEX
  8
0
 62
7
  6
CONTINUOUS
 10
162.9035976506
 20
206.6592736678
  0
VERTEX
  8
0
 62
7
  6
CONTINUOUS
 10
162.8510067163
 20
206.6257883114
  0
VERTEX
  8
0
 62
7
  6
CONTINUOUS
 10
162.7207993278
 20
206.597966739
  0
SEQEND
  0
POLYLINE
  8
0
 62
7
  6
CONTINUOUS
 66
1
 70
0
  0
VERTEX
  8
0
 62
7
  6
CONTINUOUS
 10
169.0237735857
 20
205.3337997179
  0
VERTEX
  8
0
 62
7
  6
CONTINUOUS
 10
168.8943885001
 20
205.2901726298
  0
VERTEX
  8
0
 62
7
  6
CONTINUOUS
 10
168.7494018847
 20
205.2739996493
  0
SEQEND
  0
POLYLINE
  8
0
 62
7
  6
CONTINUOUS
 66
1
 70
0
  0
VERTEX
  8
0
 62
7
  6
CONTINUOUS
 10
163.0898774716
 20
238.2479665983
  0
VERTEX
  8
0
 62
7
  6
CONTINUOUS
 10
162.94646065
 20
238.2329696707
  0
VERTEX
  8
0
 62
7
  6
CONTINUOUS
 10
162.6497544893
 20
238.0971865493
  0
VERTEX
  8
0
 62
7
  6
CONTINUOUS
 10
162.4270764551
 20
237.8677087548
  0
VERTEX
  8
0
 62
7
  6
CONTINUOUS
 10
162.2521737811
 20
237.5656856585
  0
VERTEX
  8
0
 62
7
  6
CONTINUOUS
 10
162.0950407813
 20
237.1607338407
  0
VERTEX
  8
0
 62
7
  6
CONTINUOUS
 10
161.9453051997
 20
236.6102461967
  0
VERTEX
  8
0
 62
7
  6
CONTINUOUS
 10
161.8739694049
 20
236.27051206
  0
VERTEX
  8
0
 62
7
  6
CONTINUOUS
 10
161.7417435174
 20
235.4375932171
  0
VERTEX
  8
0
 62
7
  6
CONTINUOUS
 10
161.6358879053
 20
234.4102439373
  0
VERTEX
  8
0
 62
7
  6
CONTINUOUS
 10
161.5732291586
 20
233.3108837846
  0
VERTEX
  8
0
 62
7
  6
CONTINUOUS
 10
161.5541194994
 20
232.1757864007
  0
VERTEX
  8
0
 62
7
  6
CONTINUOUS
 10
161.5788657841
 20
231.0406383443
  0
VERTEX
  8
0
 62
7
  6
CONTINUOUS
 10
161.6056839377
 20
230.5178208372
  0
SEQEND
  0
LINE
  8
0
 62
7
  6
CONTINUOUS
 10
163.0898774716
 20
238.2479665983
 11
169.2981050813
 21
238.2479667705
  0
LINE
  8
0
 62
7
  6
CONTINUOUS
 10
58.3232229096
 20
143.0406190659
 11
58.3232229096
 21
141.7180252815
  0
LINE
  8
0
 62
7
  6
CONTINUOUS
 10
63.4118512111
 20
143.1012340484
 11
63.4118512111
 21
142.6856524285
  0
LINE
  8
0
 62
7
  6
CONTINUOUS
 10
63.4118512111
 20
140.3451854661
 11
63.4118512111
 21
139.4512340484
  0
LINE
  8
DEFAULT_1
 62
2
  6
CENTER
 10
67.7618512111
 20
136.9512340484
 11
67.7618512111
 21
145.6012340484
  0
LINE
  8
0
 62
7
  6
CONTINUOUS
 10
71.7618512111
 20
143.1012340484
 11
71.7618512111
 21
141.1124312462
  0
LINE
  8
0
 62
7
  6
CONTINUOUS
 10
90.6618347483
 20
134.2012340484
 11
83.3118512111
 21
134.2012340484
  0
LINE
  8
DEFAULT_1
 62
2
  6
CENTER
 10
77.2868512111
 20
143.3012340484
 11
77.2868512111
 21
140.9013340484
  0
LINE
  8
0
 62
2
  6
CONTINUOUS
 10
77.2868512111
 20
139.7812340484
 11
77.2868512111
 21
138.0212340484
  0
LINE
  8
DEFAULT_1
 62
2
  6
CENTER
 10
77.2868512111
 20
134.5012340484
 11
77.2868512111
 21
136.9011340484
  0
LINE
  8
0
 62
7
  6
CONTINUOUS
 10
90.6618505573
 20
138.8512340484
 11
83.7633376888
 21
138.8512340484
  0
LINE
  8
DEFAULT_1
 62
2
  6
CENTER
 10
95.6188442973
 20
138.9012340484
 11
79.2869512111
 21
138.9012340484
  0
LINE
  8
0
 62
2
  6
CONTINUOUS
 10
78.1668512111
 20
138.9012340484
 11
76.4068512111
 21
138.9012340484
  0
LINE
  8
DEFAULT_1
 62
2
  6
CENTER
 10
53.9459418752
 20
138.9012340484
 11
75.2867512111
 21
138.9012340484
  0
LINE
  8
0
 62
7
  6
CONTINUOUS
 10
63.9118518654
 20
138.9512340484
 11
70.8103647334
 21
138.9512340484
  0
LINE
  8
0
 62
7
  6
CONTINUOUS
 10
95.6578980644
 20
134.2697167286
 11
58.7306038364
 21
141.2271779846
  0
LINE
  8
0
 62
7
  6
CONTINUOUS
 10
58.9158040912
 20
143.5327514185
 11
95.8430992023
 21
136.5752899961
  0
LINE
  8
0
 62
7
  6
CONTINUOUS
 10
82.8118512111
 20
134.7012340484
 11
82.8118512111
 21
136.6900368507
  0
LINE
  8
0
 62
7
  6
CONTINUOUS
 10
71.2618512111
 20
143.6012340484
 11
63.9118512111
 21
143.6012340484
  0
POLYLINE
  8
0
 62
7
  6
CONTINUOUS
 66
1
 70
0
  0
VERTEX
  8
0
 62
7
  6
CONTINUOUS
 10
83.7458872484
 20
136.0716556184
  0
VERTEX
  8
0
 62
7
  6
CONTINUOUS
 10
83.7025935007
 20
136.201040704
  0
VERTEX
  8
0
 62
7
  6
CONTINUOUS
 10
83.6868512084
 20
136.3460273195
  0
SEQEND
  0
LINE
  8
0
 62
7
  6
CONTINUOUS
 10
83.6868512111
 20
136.5251783436
 11
83.6868512111
 21
136.3460271653
  0
LINE
  8
DEFAULT_1
 62
2
  6
CENTER
 10
86.8118512111
 20
132.2012340484
 11
86.8118512111
 21
140.8512340484
  0
LINE
  8
0
 62
7
  6
CONTINUOUS
 10
91.1618512111
 20
138.3512340484
 11
91.1618512111
 21
137.4572826308
  0
LINE
  8
0
 62
7
  6
CONTINUOUS
 10
91.1618512111
 20
135.1168156683
 11
91.1618512111
 21
134.7012340484
  0
LINE
  8
0
 62
7
  6
CONTINUOUS
 10
96.2504795125
 20
136.0844403081
 11
96.2504795125
 21
134.7618477309
  0
ARC
  8
0
 62
7
  6
CONTINUOUS
 10
67.7618512111
 20
202.2479667705
 40
4.35
 50
23.1410410267
 51
41.6323869871
  0
ARC
  8
0
 62
7
  6
CONTINUOUS
 10
67.7618512111
 20
202.2479667705
 40
4.35
 50
118.3863512871
 51
336.8589589733
  0
CIRCLE
  8
0
 62
7
  6
CONTINUOUS
 10
67.7618512111
 20
202.2479667705
 40
2.55
  0
ARC
  8
0
 62
7
  6
CONTINUOUS
 10
65.1868512111
 20
206.9375163224
 40
1.0
 50
298.7708913287
 51
18.0
  0
ARC
  8
0
 62
7
  6
CONTINUOUS
 10
71.8868512111
 20
205.8979667705
 40
1.0
 50
90.0
 51
180.0
  0
ARC
  8
0
 62
7
  6
CONTINUOUS
 10
71.3868512111
 20
205.4700584824
 40
0.5
 50
180.0
 51
221.6323869871
  0
ARC
  8
0
 62
7
  6
CONTINUOUS
 10
64.3232229096
 20
232.2479667705
 40
6.0
 50
90.0
 51
198.0
  0
ARC
  8
0
 62
7
  6
CONTINUOUS
 10
82.6868512111
 20
205.8979667705
 40
1.0
 50
0.0
 51
90.0
  0
ARC
  8
0
 62
7
  6
CONTINUOUS
 10
86.8118512111
 20
202.2479667705
 40
4.35
 50
203.1410410267
 51
156.8589589733
  0
CIRCLE
  8
0
 62
7
  6
CONTINUOUS
 10
86.8118512111
 20
202.2479667705
 40
2.55
  0
ARC
  8
0
 62
7
  6
CONTINUOUS
 10
89.3868512111
 20
206.9375163224
 40
1.0
 50
162.0
 51
241.2291086713
  0
ARC
  8
0
 62
7
  6
CONTINUOUS
 10
90.2504795125
 20
232.2479667705
 40
6.0
 50
342.0
 51
90.0
  0
ARC
  8
0
 62
7
  6
CONTINUOUS
 10
161.9941951557
 20
206.0979667705
 40
0.5
 50
90.0
 51
180.0
  0
ARC
  8
0
 62
7
  6
CONTINUOUS
 10
161.9941951557
 20
198.3979667705
 40
0.5
 50
180.0
 51
270.0
  0
ARC
  8
0
 62
7
  6
CONTINUOUS
 10
166.7441951557
 20
198.3979667705
 40
0.5
 50
180.0
 51
270.0
  0
ARC
  8
0
 62
7
  6
CONTINUOUS
 10
170.3941951557
 20
206.0979667705
 40
0.5
 50
0.0
 51
90.0
  0
ARC
  8
0
 62
7
  6
CONTINUOUS
 10
170.3941951557
 20
198.3979667705
 40
0.5
 50
270.0
 51
360.0
  0
ARC
  8
0
 62
7
  6
CONTINUOUS
 10
165.6441951557
 20
198.3979667705
 40
0.5
 50
270.0
 51
360.0
  0
ARC
  8
0
 62
7
  6
CONTINUOUS
 10
95.7504790813
 20
134.7610707307
 40
0.5
 50
259.3299999993
 51
0.0000024032
  0
ARC
  8
0
 62
7
  6
CONTINUOUS
 10
58.8232230221
 20
141.7185247953
 40
0.5
 50
180.0000007322
 51
259.3300000005
  0
ARC
  8
0
 62
7
  6
CONTINUOUS
 10
58.8232233422
 20
143.041397366
 40
0.5
 50
79.3299999993
 51
180.0000024106
  0
ARC
  8
0
 62
7
  6
CONTINUOUS
 10
95.7504794026
 20
136.0839433011
 40
0.5
 50
0.0000007186
 51
79.3300000005
  0
ARC
  8
0
 62
7
  6
CONTINUOUS
 10
63.9118512111
 20
143.1012340484
 40
0.5
 50
90.0
 51
180.0
  0
ARC
  8
0
 62
7
  6
CONTINUOUS
 10
90.6618512111
 20
138.3512340484
 40
0.5
 50
0.0
 51
90.0
  0
ARC
  8
0
 62
7
  6
CONTINUOUS
 10
90.6618512111
 20
134.7012340484
 40
0.5
 50
270.0
 51
360.0
  0
ARC
  8
0
 62
7
  6
CONTINUOUS
 10
63.9118512111
 20
139.4512340484
 40
0.5
 50
180.0
 51
270.0
  0
ARC
  8
0
 62
7
  6
CONTINUOUS
 10
71.2618512111
 20
143.1012340484
 40
0.5
 50
0.0
 51
90.0
  0
ARC
  8
0
 62
7
  6
CONTINUOUS
 10
83.3118512111
 20
134.7012340484
 40
0.5
 50
180.0
 51
270.0
  0
ENDSEC
  0
EOF
