  0
SECTION
  2
HEADER
  9
$EXTMAX
 10
210.0
 20
297.0
 30
0.0
  9
$EXTMIN
 10
0.0
 20
0.0
 30
0.0
  9
$LIMMIN
 10
0.0
 20
0.0
  9
$LIMMAX
 10
210.0
 20
297.0
  9
$VIEWCTR
 10
105.0
 20
148.5
  9
$VIEWSIZE
 40
297.0
  9
$CLAYER
  8
0
  9
$LTSCALE
 40
19.36
  9
$CELTYPE
  6
BYLAYER
  9
$DIMSCALE
 40
1.0
  9
$DIMASZ
 40
3.5
  9
$DIMEXO
 40
1.0
  9
$DIMDLI
 40
13.376
  9
$DIMEXE
 40
2.0
  9
$DIMCEN
 40
3.168
  9
$DIMLFAC
 40
0.5
  9
$DIMBLK
  1
_FILLED
  9
$DIMTXT
 40
3.5
  9
$PDMODE
 70
3
  9
$PDSIZE
 40
0.3125
  9
$TILEMODE
 70
1
  0
ENDSEC
  0
SECTION
  2
TABLES
  0
TABLE
  2
LTYPE
 70
6
  0
LTYPE
  2
BYBLOCK
 70
0
  3

 72
65
 73
0
 40
0.0
  0
LTYPE
  2
BYLAYER
 70
0
  3

 72
65
 73
0
 40
0.0
  0
LTYPE
  2
CONTINUOUS
 70
64
  3
Solid line
 72
65
 73
0
 40
0.0
  0
LTYPE
  2
CENTER
 70
64
  3
____ _ ____ _ ____ _ ____ _ ____ _ ____ _ ____
 72
65
 73
4
 40
0.6
 49
0.375
 49
-0.075
 49
0.075
 49
-0.075
  0
LTYPE
  2
HIDDEN
 70
64
  3
- - - - - - - - - - - - - - - - - - - -
 72
65
 73
2
 40
0.2
 49
0.1
 49
-0.1
  0
LTYPE
  2
PHANTOM
 70
64
  3
_____ _ _ _____ _ _ _____ _ _ _____
 72
65
 73
6
 40
0.8
 49
0.45
 49
-0.05
 49
0.1
 49
-0.05
 49
0.1
 49
-0.05
  0
LTYPE
  2
DOT
 70
64
  3
. . . . . . . . . . . . . . . . . . . .
 72
65
 73
2
 40
0.2
 49
0.1
 49
-0.1
  0
LTYPE
  2
DASHED
 70
64
  3
- - - - - - - - - - - - - - - - - - - -
 72
65
 73
2
 40
0.2
 49
0.1
 49
-0.1
  0
ENDTAB
  0
TABLE
  2
LAYER
 70
36
  0
LAYER
  2
0
 70
0
 62
7
  6
CONTINUOUS
  0
LAYER
  2
DEFAULT_1
 70
0
 62
7
  6
CENTER
  0
LAYER
  2
DEFAULT_2
 70
0
 62
8
  6
HIDDEN
  0
LAYER
  2
DEFAULT_3
 70
0
 62
7
  6
PHANTOM
  0
LAYER
  2
1_AXIS
 70
0
 62
7
  6
CONTINUOUS
  0
LAYER
  2
1_DATUMPLANE
 70
0
 62
7
  6
CONTINUOUS
  0
LAYER
  2
1_DATUM_PLANES
 70
0
 62
7
  6
CONTINUOUS
  0
LAYER
  2
2_FEATURE
 70
0
 62
7
  6
CONTINUOUS
  0
LAYER
  2
3_CURVE
 70
0
 62
7
  6
CONTINUOUS
  0
LAYER
  2
4_QUILT
 70
0
 62
7
  6
CONTINUOUS
  0
LAYER
  2
4_SURFACE
 70
0
 62
7
  6
CONTINUOUS
  0
LAYER
  2
6_DIM
 70
0
 62
7
  6
CONTINUOUS
  0
LAYER
  2
6_NOTE
 70
0
 62
7
  6
CONTINUOUS
  0
LAYER
  2
CSYS
 70
0
 62
7
  6
CONTINUOUS
  0
LAYER
  2
NOTES
 70
0
 62
7
  6
CONTINUOUS
  0
ENDTAB
  0
TABLE
  2
STYLE
 70
1
  0
STYLE
  2
STANDARD
 70
0
 40
0.0
 41
0.8
 50
0.0
 71
0
 42
0.2
  3
txt
  4

  0
STYLE
  2
TEXTSTYLE_1
 70
0
 40
0.0
 41
0.8
 50
0.0
 71
0
 42
0.2
  3
gdt
  4

  0
STYLE
  2
TEXTSTYLE_2
 70
0
 40
0.0
 41
0.6
 50
0.0
 71
0
 42
0.2
  3
txt
  4

  0
STYLE
  2
TEXTSTYLE_3
 70
0
 40
0.0
 41
1.0
 50
0.0
 71
0
 42
0.2
  3
ftb_____.ttf
  4

  0
STYLE
  2
TEXTSTYLE_4
 70
0
 40
0.0
 41
1.0
 50
0.0
 71
0
 42
0.2
  3
fti_____.ttf
  4

  0
STYLE
  2
TEXTSTYLE_5
 70
0
 40
0.0
 41
1.0
 50
0.0
 71
0
 42
0.2
  3
frutiger light.ttf
  4

  0
STYLE
  2
TEXTSTYLE_6
 70
0
 40
0.0
 41
0.7
 50
0.0
 71
0
 42
0.2
  3
txt
  4

  0
STYLE
  2
TEXTSTYLE_7
 70
0
 40
0.0
 41
0.8
 50
0.0
 71
0
 42
0.2
  3
txt
  4

  0
ENDTAB
  0
ENDSEC
  0
SECTION
  2
BLOCKS
  0
BLOCK
  8
0
 62
2
  6
CONTINUOUS
  2
SYMBOL_8_BL1
 70
64
 10
173.5956734183
 20
35.5937998301
  0
TEXT
  8
0
 62
7
  6
CONTINUOUS
 10
164.6539584268
 20
30.6865562072
  7
TEXTSTYLE_4
 40
1.0655737705
  1
The brand for plastic modular belts and chains
 41
1.0
 72
0
  0
LINE
  8
0
 62
7
  6
CONTINUOUS
 10
149.5737418074
 20
36.1675703219
 11
149.5737418074
 21
34.0364227809
  0
LINE
  8
0
 62
7
  6
CONTINUOUS
 10
149.8628043005
 20
31.0454914852
 11
149.8628043005
 21
31.1422825445
  0
LINE
  8
0
 62
7
  6
CONTINUOUS
 10
149.5737418074
 20
31.1100188581
 11
149.6315543091
 21
30.9164367395
  0
LINE
  8
0
 62
7
  6
CONTINUOUS
 10
150.9671844304
 20
33.9544555678
 11
150.9671844304
 21
36.1675703219
  0
LINE
  8
0
 62
7
  6
CONTINUOUS
 10
151.8862417523
 20
32.1101932727
 11
151.8862417523
 21
30.5937998301
  0
LINE
  8
0
 62
7
  6
CONTINUOUS
 10
152.1753043074
 20
30.5937998301
 11
152.1753043074
 21
31.3358647082
  0
LINE
  8
0
 62
7
  6
CONTINUOUS
 10
152.1753043074
 20
31.4649194539
 11
152.1753043074
 21
32.1101932727
  0
LINE
  8
0
 62
7
  6
CONTINUOUS
 10
149.6315543091
 20
31.3036010218
 11
149.5737418074
 21
31.1100188581
  0
LINE
  8
0
 62
7
  6
CONTINUOUS
 10
149.9784292936
 20
30.8841730531
 11
149.8628043005
 21
31.0454914852
  0
LINE
  8
0
 62
7
  6
CONTINUOUS
 10
151.0768668626
 20
31.400392081
 11
151.1346793074
 21
31.3036010218
  0
LINE
  8
0
 62
7
  6
CONTINUOUS
 10
151.4237418626
 20
31.3036010218
 11
151.3659292523
 21
31.4326557675
  0
LINE
  8
0
 62
7
  6
CONTINUOUS
 10
152.852430332
 20
36.1675703219
 11
152.852430332
 21
34.3642916334
  0
LINE
  8
0
 62
7
  6
CONTINUOUS
 10
152.852430332
 20
33.0528162235
 11
152.852430332
 21
32.3970785186
  0
LINE
  8
0
 62
7
  6
CONTINUOUS
 10
153.2159293074
 20
31.2390736489
 11
153.2159293074
 21
30.5937998301
  0
LINE
  8
0
 62
7
  6
CONTINUOUS
 10
153.5049916972
 20
30.5937998301
 11
153.5049916972
 21
31.2390736489
  0
LINE
  8
0
 62
7
  6
CONTINUOUS
 10
149.8628043005
 20
31.1422825445
 11
149.9206168074
 21
31.2713373354
  0
LINE
  8
0
 62
7
  6
CONTINUOUS
 10
149.6315543091
 20
30.9164367395
 11
149.7471793074
 21
30.7873819712
  0
LINE
  8
0
 62
7
  6
CONTINUOUS
 10
153.1581166972
 20
31.3681283946
 11
153.2159293074
 21
31.2390736489
  0
LINE
  8
0
 62
7
  6
CONTINUOUS
 10
153.9674919177
 20
30.8841730531
 11
154.0253041972
 21
30.7551182848
  0
LINE
  8
0
 62
7
  6
CONTINUOUS
 10
153.5049916972
 20
31.2390736489
 11
153.4471794177
 21
31.400392081
  0
LINE
  8
0
 62
7
  6
CONTINUOUS
 10
153.9674919177
 20
31.4326557675
 11
153.9674919177
 21
31.3681283946
  0
LINE
  8
0
 62
7
  6
CONTINUOUS
 10
153.9674919177
 20
30.9809641124
 11
153.9674919177
 21
30.8841730531
  0
LINE
  8
0
 62
7
  6
CONTINUOUS
 10
154.245872955
 20
32.3970785186
 11
154.245872955
 21
36.1675703219
  0
LINE
  8
0
 62
7
  6
CONTINUOUS
 10
154.2565543074
 20
30.8519093441
 11
154.2565543074
 21
30.9164367395
  0
LINE
  8
0
 62
7
  6
CONTINUOUS
 10
154.5737418074
 20
36.1675703219
 11
154.5737418074
 21
32.3970785186
  0
LINE
  8
0
 62
7
  6
CONTINUOUS
 10
151.3659292523
 20
30.7873819712
 11
151.4237418626
 21
30.9164367395
  0
LINE
  8
0
 62
7
  6
CONTINUOUS
 10
155.759679528
 20
30.6905909007
 11
155.7018665869
 21
30.8519093441
  0
LINE
  8
0
 62
7
  6
CONTINUOUS
 10
155.412804528
 20
31.3681283946
 11
155.412804528
 21
31.2713373354
  0
LINE
  8
0
 62
7
  6
CONTINUOUS
 10
155.412804528
 20
31.1422825445
 11
155.412804528
 21
30.9487004259
  0
LINE
  8
0
 62
7
  6
CONTINUOUS
 10
155.7018665869
 20
30.8519093441
 11
155.7018665869
 21
31.3681283946
  0
LINE
  8
0
 62
7
  6
CONTINUOUS
 10
155.9671844304
 20
32.3970785186
 11
155.9671844304
 21
34.2003572071
  0
LINE
  8
0
 62
7
  6
CONTINUOUS
 10
155.9671844304
 20
35.511832617
 11
155.9671844304
 21
36.1675703219
  0
LINE
  8
0
 62
7
  6
CONTINUOUS
 10
156.279992028
 20
32.1101932727
 11
156.279992028
 21
31.9488748406
  0
LINE
  8
0
 62
7
  6
CONTINUOUS
 10
156.279992028
 20
31.626237886
 11
156.279992028
 21
30.5937998301
  0
LINE
  8
0
 62
7
  6
CONTINUOUS
 10
156.5690540869
 20
30.5937998301
 11
156.5690540869
 21
31.626237886
  0
LINE
  8
0
 62
7
  6
CONTINUOUS
 10
156.5690540869
 20
31.9488748406
 11
156.5690540869
 21
32.1101932727
  0
LINE
  8
0
 62
7
  6
CONTINUOUS
 10
151.1346793074
 20
30.9164367395
 11
151.0768668626
 21
30.8196456577
  0
LINE
  8
0
 62
7
  6
CONTINUOUS
 10
153.4471794177
 20
31.400392081
 11
153.3893668074
 21
31.4649194539
  0
LINE
  8
0
 62
7
  6
CONTINUOUS
 10
154.3143669177
 20
30.7873819712
 11
154.2565543074
 21
30.8519093441
  0
LINE
  8
0
 62
7
  6
CONTINUOUS
 10
155.4706168074
 20
30.6583272086
 11
155.5284290869
 21
30.5937998301
  0
LINE
  8
0
 62
7
  6
CONTINUOUS
 10
155.412804528
 20
30.7551182848
 11
155.4706168074
 21
30.6583272086
  0
LINE
  8
0
 62
7
  6
CONTINUOUS
 10
155.8174918074
 20
30.5937998301
 11
155.759679528
 21
30.6905909007
  0
LINE
  8
0
 62
7
  6
CONTINUOUS
 10
155.7018665869
 20
31.3681283946
 11
155.6440543074
 21
31.4649194539
  0
LINE
  8
0
 62
7
  6
CONTINUOUS
 10
157.0315543074
 20
31.626237886
 11
157.0315543074
 21
30.5937998301
  0
LINE
  8
0
 62
7
  6
CONTINUOUS
 10
157.320617028
 20
30.5937998301
 11
157.320617028
 21
31.3358647082
  0
LINE
  8
0
 62
7
  6
CONTINUOUS
 10
157.320617028
 20
31.4649194539
 11
157.320617028
 21
31.626237886
  0
LINE
  8
0
 62
7
  6
CONTINUOUS
 10
157.852430332
 20
34.6101932727
 11
157.852430332
 21
32.3970785186
  0
LINE
  8
0
 62
7
  6
CONTINUOUS
 10
149.7471793074
 20
31.4326557675
 11
149.6315543091
 21
31.3036010218
  0
LINE
  8
0
 62
7
  6
CONTINUOUS
 10
149.9206168074
 20
31.2713373354
 11
149.9784292936
 21
31.3358647082
  0
LINE
  8
0
 62
7
  6
CONTINUOUS
 10
149.7471793074
 20
30.7873819712
 11
149.8628043005
 21
30.7228545871
  0
LINE
  8
0
 62
7
  6
CONTINUOUS
 10
150.1518667936
 20
30.7873819712
 11
149.9784292936
 21
30.8841730531
  0
LINE
  8
0
 62
7
  6
CONTINUOUS
 10
155.3549915869
 20
31.4326557675
 11
155.412804528
 21
31.3681283946
  0
LINE
  8
0
 62
7
  6
CONTINUOUS
 10
158.3034290869
 20
31.3681283946
 11
158.361242028
 21
31.2068099625
  0
LINE
  8
0
 62
7
  6
CONTINUOUS
 10
158.6503040869
 20
31.2068099625
 11
158.5924918074
 21
31.3681283946
  0
LINE
  8
0
 62
7
  6
CONTINUOUS
 10
158.361242028
 20
31.2068099625
 11
158.361242028
 21
30.5937998301
  0
LINE
  8
0
 62
7
  6
CONTINUOUS
 10
158.6503040869
 20
30.5937998301
 11
158.6503040869
 21
31.2068099625
  0
LINE
  8
0
 62
7
  6
CONTINUOUS
 10
159.1128043074
 20
31.4326557675
 11
159.1128043074
 21
31.3681283946
  0
LINE
  8
0
 62
7
  6
CONTINUOUS
 10
159.245872955
 20
32.3970785186
 11
159.245872955
 21
34.5282260596
  0
LINE
  8
0
 62
7
  6
CONTINUOUS
 10
159.5737418074
 20
36.1675703219
 11
159.5737418074
 21
32.3970785186
  0
LINE
  8
0
 62
7
  6
CONTINUOUS
 10
154.2565543074
 20
30.9164367395
 11
154.3143669177
 21
31.0132277988
  0
LINE
  8
0
 62
7
  6
CONTINUOUS
 10
149.8628043005
 20
30.7228545871
 11
150.0362418212
 21
30.6583272086
  0
LINE
  8
0
 62
7
  6
CONTINUOUS
 10
151.3659292523
 20
31.4326557675
 11
151.1924917523
 21
31.5294468267
  0
LINE
  8
0
 62
7
  6
CONTINUOUS
 10
154.0253041972
 20
30.7551182848
 11
154.1987416972
 21
30.6583272086
  0
LINE
  8
0
 62
7
  6
CONTINUOUS
 10
153.0424918074
 20
31.4326557675
 11
153.1581166972
 21
31.3681283946
  0
LINE
  8
0
 62
7
  6
CONTINUOUS
 10
153.3893668074
 20
31.4649194539
 11
153.2737419177
 21
31.5294468267
  0
LINE
  8
0
 62
7
  6
CONTINUOUS
 10
159.1128043074
 20
30.8519093441
 11
159.228429528
 21
30.7228545871
  0
LINE
  8
0
 62
7
  6
CONTINUOUS
 10
159.4596793074
 20
30.7873819712
 11
159.401867028
 21
30.8519093441
  0
LINE
  8
0
 62
7
  6
CONTINUOUS
 10
159.1128043074
 20
31.3681283946
 11
159.228429528
 21
31.2390736489
  0
LINE
  8
0
 62
7
  6
CONTINUOUS
 10
158.5924918074
 20
31.3681283946
 11
158.534679528
 21
31.4649194539
  0
LINE
  8
0
 62
7
  6
CONTINUOUS
 10
160.9628038663
 20
30.7873819712
 11
160.9628038663
 21
30.8519093441
  0
LINE
  8
0
 62
7
  6
CONTINUOUS
 10
160.9671844304
 20
32.3970785186
 11
160.9671844304
 21
36.1675703219
  0
LINE
  8
0
 62
7
  6
CONTINUOUS
 10
154.0253041972
 20
31.4971831403
 11
153.9674919177
 21
31.4326557675
  0
LINE
  8
0
 62
7
  6
CONTINUOUS
 10
150.9034292799
 20
31.4649194539
 11
151.0768668626
 21
31.400392081
  0
LINE
  8
0
 62
7
  6
CONTINUOUS
 10
155.6440543074
 20
31.4649194539
 11
155.5284290869
 21
31.5294468267
  0
LINE
  8
0
 62
7
  6
CONTINUOUS
 10
159.4596793074
 20
31.3036010218
 11
159.401867028
 21
31.3681283946
  0
LINE
  8
0
 62
7
  6
CONTINUOUS
 10
160.615929528
 20
30.9164367395
 11
160.6737418074
 21
30.8519093441
  0
LINE
  8
0
 62
7
  6
CONTINUOUS
 10
160.9628038663
 20
30.8519093441
 11
160.8471793074
 21
30.9809641124
  0
LINE
  8
0
 62
7
  6
CONTINUOUS
 10
160.615929528
 20
31.4326557675
 11
160.6737418074
 21
31.3681283946
  0
LINE
  8
0
 62
7
  6
CONTINUOUS
 10
160.9628038663
 20
31.3681283946
 11
160.8471793074
 21
31.4971831403
  0
LINE
  8
0
 62
7
  6
CONTINUOUS
 10
154.2565543074
 20
31.3681283946
 11
154.3143669177
 21
31.4326557675
  0
LINE
  8
0
 62
7
  6
CONTINUOUS
 10
154.0831168074
 20
31.1100188581
 11
153.9674919177
 21
30.9809641124
  0
LINE
  8
0
 62
7
  6
CONTINUOUS
 10
155.412804528
 20
30.9487004259
 11
155.3549915869
 21
30.8841730531
  0
LINE
  8
0
 62
7
  6
CONTINUOUS
 10
155.3549915869
 20
30.6905909007
 11
155.412804528
 21
30.7551182848
  0
LINE
  8
0
 62
7
  6
CONTINUOUS
 10
154.1987416972
 20
30.6583272086
 11
154.3143669177
 21
30.6260635193
  0
LINE
  8
0
 62
7
  6
CONTINUOUS
 10
151.1924917523
 20
31.5294468267
 11
150.9612418074
 21
31.5939741996
  0
LINE
  8
0
 62
7
  6
CONTINUOUS
 10
154.5456166972
 20
30.7228545871
 11
154.3143669177
 21
30.7873819712
  0
LINE
  8
0
 62
7
  6
CONTINUOUS
 10
153.2737419177
 20
31.5294468267
 11
153.1003044177
 21
31.5939741996
  0
LINE
  8
0
 62
7
  6
CONTINUOUS
 10
155.5284290869
 20
31.5294468267
 11
155.3549915869
 21
31.5939741996
  0
LINE
  8
0
 62
7
  6
CONTINUOUS
 10
158.187804528
 20
31.4326557675
 11
158.3034290869
 21
31.3681283946
  0
LINE
  8
0
 62
7
  6
CONTINUOUS
 10
158.534679528
 20
31.4649194539
 11
158.4190543074
 21
31.5294468267
  0
LINE
  8
0
 62
7
  6
CONTINUOUS
 10
150.0362418212
 20
30.6583272086
 11
150.2096793212
 21
30.6260635193
  0
LINE
  8
0
 62
7
  6
CONTINUOUS
 10
150.498741835
 20
30.7228545871
 11
150.1518667936
 21
30.7873819712
  0
LINE
  8
0
 62
7
  6
CONTINUOUS
 10
152.9268669177
 20
31.4649194539
 11
153.0424918074
 21
31.4326557675
  0
LINE
  8
0
 62
7
  6
CONTINUOUS
 10
155.239367028
 20
31.4649194539
 11
155.3549915869
 21
31.4326557675
  0
LINE
  8
0
 62
7
  6
CONTINUOUS
 10
159.575304528
 20
30.7551182848
 11
159.4596793074
 21
30.7873819712
  0
LINE
  8
0
 62
7
  6
CONTINUOUS
 10
158.0721793074
 20
31.4649194539
 11
158.187804528
 21
31.4326557675
  0
LINE
  8
0
 62
7
  6
CONTINUOUS
 10
159.228429528
 20
30.7228545871
 11
159.401867028
 21
30.6583272086
  0
LINE
  8
0
 62
7
  6
CONTINUOUS
 10
158.4190543074
 20
31.5294468267
 11
158.2456168074
 21
31.5939741996
  0
LINE
  8
0
 62
7
  6
CONTINUOUS
 10
159.6331168074
 20
31.2390736489
 11
159.4596793074
 21
31.3036010218
  0
LINE
  8
0
 62
7
  6
CONTINUOUS
 10
160.442492028
 20
30.9809641124
 11
160.615929528
 21
30.9164367395
  0
LINE
  8
0
 62
7
  6
CONTINUOUS
 10
160.8471793074
 20
31.4971831403
 11
160.6737418074
 21
31.5617105132
  0
LINE
  8
0
 62
7
  6
CONTINUOUS
 10
159.228429528
 20
31.2390736489
 11
159.4596793074
 21
31.1422825445
  0
LINE
  8
0
 62
7
  6
CONTINUOUS
 10
160.8471793074
 20
30.9809641124
 11
160.615929528
 21
31.0777551716
  0
LINE
  8
0
 62
7
  6
CONTINUOUS
 10
159.401867028
 20
31.3681283946
 11
159.4596793074
 21
31.4326557675
  0
LINE
  8
0
 62
7
  6
CONTINUOUS
 10
149.8628043005
 20
31.4971831403
 11
149.7471793074
 21
31.4326557675
  0
LINE
  8
0
 62
7
  6
CONTINUOUS
 10
149.9784292936
 20
31.3358647082
 11
150.1518667936
 21
31.4326557675
  0
LINE
  8
0
 62
7
  6
CONTINUOUS
 10
152.2909293626
 20
31.5294468267
 11
152.1753043074
 21
31.4649194539
  0
LINE
  8
0
 62
7
  6
CONTINUOUS
 10
152.1753043074
 20
31.3358647082
 11
152.2909293626
 21
31.400392081
  0
LINE
  8
0
 62
7
  6
CONTINUOUS
 10
151.1924917523
 20
30.6905909007
 11
151.3659292523
 21
30.7873819712
  0
LINE
  8
0
 62
7
  6
CONTINUOUS
 10
150.2096793212
 20
30.6260635193
 11
150.5565542799
 21
30.5937998301
  0
LINE
  8
0
 62
7
  6
CONTINUOUS
 10
154.3143669177
 20
30.6260635193
 11
154.5456166972
 21
30.5937998301
  0
LINE
  8
0
 62
7
  6
CONTINUOUS
 10
152.6956168074
 20
31.4971831403
 11
152.9268669177
 21
31.4649194539
  0
LINE
  8
0
 62
7
  6
CONTINUOUS
 10
155.0081169177
 20
31.4971831403
 11
155.239367028
 21
31.4649194539
  0
LINE
  8
0
 62
7
  6
CONTINUOUS
 10
159.4596793074
 20
31.1422825445
 11
160.442492028
 21
30.9809641124
  0
LINE
  8
0
 62
7
  6
CONTINUOUS
 10
160.615929528
 20
31.0777551716
 11
159.6331168074
 21
31.2390736489
  0
LINE
  8
0
 62
7
  6
CONTINUOUS
 10
153.1003044177
 20
31.5939741996
 11
152.9268669177
 21
31.626237886
  0
LINE
  8
0
 62
7
  6
CONTINUOUS
 10
159.401867028
 20
30.6583272086
 11
159.575304528
 21
30.6260635193
  0
LINE
  8
0
 62
7
  6
CONTINUOUS
 10
158.2456168074
 20
31.5939741996
 11
158.0721793074
 21
31.626237886
  0
LINE
  8
0
 62
7
  6
CONTINUOUS
 10
160.5003043074
 20
31.4649194539
 11
160.615929528
 21
31.4326557675
  0
LINE
  8
0
 62
7
  6
CONTINUOUS
 10
160.6737418074
 20
30.8519093441
 11
160.615929528
 21
30.7873819712
  0
LINE
  8
0
 62
7
  6
CONTINUOUS
 10
159.228429528
 20
31.5294468267
 11
159.1128043074
 21
31.4326557675
  0
LINE
  8
0
 62
7
  6
CONTINUOUS
 10
154.1409294177
 20
31.5617105132
 11
154.0253041972
 21
31.4971831403
  0
LINE
  8
0
 62
7
  6
CONTINUOUS
 10
154.1987416972
 20
31.1745462761
 11
154.0831168074
 21
31.1100188581
  0
LINE
  8
0
 62
7
  6
CONTINUOUS
 10
154.3143669177
 20
31.0132277988
 11
154.4299918074
 21
31.0777551716
  0
LINE
  8
0
 62
7
  6
CONTINUOUS
 10
151.8862417523
 20
30.5937998301
 11
152.1753043074
 21
30.5937998301
  0
LINE
  8
0
 62
7
  6
CONTINUOUS
 10
153.2159293074
 20
30.5937998301
 11
153.5049916972
 21
30.5937998301
  0
LINE
  8
0
 62
7
  6
CONTINUOUS
 10
154.5456166972
 20
30.5937998301
 11
154.8924916972
 21
30.5937998301
  0
LINE
  8
0
 62
7
  6
CONTINUOUS
 10
155.5284290869
 20
30.5937998301
 11
155.8174918074
 21
30.5937998301
  0
LINE
  8
0
 62
7
  6
CONTINUOUS
 10
156.279992028
 20
30.5937998301
 11
156.5690540869
 21
30.5937998301
  0
LINE
  8
0
 62
7
  6
CONTINUOUS
 10
157.0315543074
 20
30.5937998301
 11
157.320617028
 21
30.5937998301
  0
LINE
  8
0
 62
7
  6
CONTINUOUS
 10
158.361242028
 20
30.5937998301
 11
158.6503040869
 21
30.5937998301
  0
LINE
  8
0
 62
7
  6
CONTINUOUS
 10
159.922179528
 20
30.5937998301
 11
160.269054528
 21
30.5937998301
  0
LINE
  8
0
 62
7
  6
CONTINUOUS
 10
160.269054528
 20
30.7228545871
 11
159.922179528
 21
30.7228545871
  0
LINE
  8
0
 62
7
  6
CONTINUOUS
 10
154.8924916972
 20
30.7228545871
 11
154.5456166972
 21
30.7228545871
  0
LINE
  8
0
 62
7
  6
CONTINUOUS
 10
159.401867028
 20
30.8519093441
 11
159.1128043074
 21
30.8519093441
  0
LINE
  8
0
 62
7
  6
CONTINUOUS
 10
151.4237418626
 20
30.9164367395
 11
151.1346793074
 21
30.9164367395
  0
LINE
  8
0
 62
7
  6
CONTINUOUS
 10
150.498741835
 20
31.4971831403
 11
150.9034292799
 21
31.4649194539
  0
LINE
  8
0
 62
7
  6
CONTINUOUS
 10
150.9612418074
 20
31.5939741996
 11
150.5565542799
 21
31.626237886
  0
LINE
  8
0
 62
7
  6
CONTINUOUS
 10
159.575304528
 20
30.6260635193
 11
159.922179528
 21
30.5937998301
  0
LINE
  8
0
 62
7
  6
CONTINUOUS
 10
159.922179528
 20
30.7228545871
 11
159.575304528
 21
30.7551182848
  0
LINE
  8
0
 62
7
  6
CONTINUOUS
 10
155.3549915869
 20
31.5939741996
 11
155.0081169177
 21
31.626237886
  0
LINE
  8
0
 62
7
  6
CONTINUOUS
 10
160.1534293074
 20
31.4971831403
 11
160.5003043074
 21
31.4649194539
  0
LINE
  8
0
 62
7
  6
CONTINUOUS
 10
160.5003043074
 20
31.5939741996
 11
160.1534293074
 21
31.626237886
  0
LINE
  8
0
 62
7
  6
CONTINUOUS
 10
157.840929528
 20
31.4971831403
 11
158.0721793074
 21
31.4649194539
  0
LINE
  8
0
 62
7
  6
CONTINUOUS
 10
160.6737418074
 20
31.5617105132
 11
160.5003043074
 21
31.5939741996
  0
LINE
  8
0
 62
7
  6
CONTINUOUS
 10
160.8471793074
 20
30.6905909007
 11
160.9628038663
 21
30.7873819712
  0
LINE
  8
0
 62
7
  6
CONTINUOUS
 10
155.3549915869
 20
30.8841730531
 11
155.1815540869
 21
30.7873819712
  0
LINE
  8
0
 62
7
  6
CONTINUOUS
 10
157.4362415869
 20
31.5294468267
 11
157.320617028
 21
31.4649194539
  0
LINE
  8
0
 62
7
  6
CONTINUOUS
 10
157.320617028
 20
31.3358647082
 11
157.4362415869
 21
31.400392081
  0
LINE
  8
0
 62
7
  6
CONTINUOUS
 10
150.0362418212
 20
31.5617105132
 11
149.8628043005
 21
31.4971831403
  0
LINE
  8
0
 62
7
  6
CONTINUOUS
 10
152.4643666972
 20
31.5939741996
 11
152.2909293626
 21
31.5294468267
  0
LINE
  8
0
 62
7
  6
CONTINUOUS
 10
152.2909293626
 20
31.400392081
 11
152.4643666972
 21
31.4649194539
  0
LINE
  8
0
 62
7
  6
CONTINUOUS
 10
151.0768668626
 20
30.8196456577
 11
150.9034292799
 21
30.7551182848
  0
LINE
  8
0
 62
7
  6
CONTINUOUS
 10
160.5003043074
 20
30.7551182848
 11
160.269054528
 21
30.7228545871
  0
LINE
  8
0
 62
7
  6
CONTINUOUS
 10
154.8924916972
 20
30.5937998301
 11
155.1815540869
 21
30.6260635193
  0
LINE
  8
0
 62
7
  6
CONTINUOUS
 10
160.269054528
 20
30.5937998301
 11
160.615929528
 21
30.6260635193
  0
LINE
  8
0
 62
7
  6
CONTINUOUS
 10
150.5565542799
 20
30.5937998301
 11
150.9612418074
 21
30.6260635193
  0
LINE
  8
0
 62
7
  6
CONTINUOUS
 10
150.9034292799
 20
30.7551182848
 11
150.498741835
 21
30.7228545871
  0
LINE
  8
0
 62
7
  6
CONTINUOUS
 10
154.7768668074
 20
31.1422825445
 11
155.412804528
 21
31.1422825445
  0
LINE
  8
0
 62
7
  6
CONTINUOUS
 10
155.412804528
 20
31.2713373354
 11
154.7768668074
 21
31.2713373354
  0
LINE
  8
0
 62
7
  6
CONTINUOUS
 10
151.1346793074
 20
31.3036010218
 11
151.4237418626
 21
31.3036010218
  0
LINE
  8
0
 62
7
  6
CONTINUOUS
 10
153.9674919177
 20
31.3681283946
 11
154.2565543074
 21
31.3681283946
  0
LINE
  8
0
 62
7
  6
CONTINUOUS
 10
160.6737418074
 20
31.3681283946
 11
160.9628038663
 21
31.3681283946
  0
LINE
  8
0
 62
7
  6
CONTINUOUS
 10
154.6612419177
 20
31.4971831403
 11
155.0081169177
 21
31.4971831403
  0
LINE
  8
0
 62
7
  6
CONTINUOUS
 10
159.8065543074
 20
31.4971831403
 11
160.1534293074
 21
31.4971831403
  0
LINE
  8
0
 62
7
  6
CONTINUOUS
 10
160.1534293074
 20
31.626237886
 11
159.8065543074
 21
31.626237886
  0
LINE
  8
0
 62
7
  6
CONTINUOUS
 10
158.0721793074
 20
31.626237886
 11
157.840929528
 21
31.626237886
  0
LINE
  8
0
 62
7
  6
CONTINUOUS
 10
157.320617028
 20
31.626237886
 11
157.0315543074
 21
31.626237886
  0
LINE
  8
0
 62
7
  6
CONTINUOUS
 10
156.5690540869
 20
31.626237886
 11
156.279992028
 21
31.626237886
  0
LINE
  8
0
 62
7
  6
CONTINUOUS
 10
155.0081169177
 20
31.626237886
 11
154.6612419177
 21
31.626237886
  0
LINE
  8
0
 62
7
  6
CONTINUOUS
 10
152.9268669177
 20
31.626237886
 11
152.6956168074
 21
31.626237886
  0
LINE
  8
0
 62
7
  6
CONTINUOUS
 10
156.279992028
 20
31.9488748406
 11
156.5690540869
 21
31.9488748406
  0
LINE
  8
0
 62
7
  6
CONTINUOUS
 10
156.5690540869
 20
32.1101932727
 11
156.279992028
 21
32.1101932727
  0
LINE
  8
0
 62
7
  6
CONTINUOUS
 10
152.1753043074
 20
32.1101932727
 11
151.8862417523
 21
32.1101932727
  0
LINE
  8
0
 62
7
  6
CONTINUOUS
 10
151.2130860697
 20
32.3970785186
 11
151.6256574183
 21
32.3970785186
  0
LINE
  8
0
 62
7
  6
CONTINUOUS
 10
152.852430332
 20
32.3970785186
 11
154.245872955
 21
32.3970785186
  0
LINE
  8
0
 62
7
  6
CONTINUOUS
 10
154.5737418074
 20
32.3970785186
 11
155.9671844304
 21
32.3970785186
  0
LINE
  8
0
 62
7
  6
CONTINUOUS
 10
157.852430332
 20
32.3970785186
 11
159.245872955
 21
32.3970785186
  0
LINE
  8
0
 62
7
  6
CONTINUOUS
 10
159.5737418074
 20
32.3970785186
 11
160.9671844304
 21
32.3970785186
  0
LINE
  8
0
 62
7
  6
CONTINUOUS
 10
157.6096790869
 20
31.5939741996
 11
157.4362415869
 21
31.5294468267
  0
LINE
  8
0
 62
7
  6
CONTINUOUS
 10
155.1815540869
 20
30.6260635193
 11
155.3549915869
 21
30.6905909007
  0
LINE
  8
0
 62
7
  6
CONTINUOUS
 10
160.615929528
 20
30.6260635193
 11
160.8471793074
 21
30.6905909007
  0
LINE
  8
0
 62
7
  6
CONTINUOUS
 10
160.615929528
 20
30.7873819712
 11
160.5003043074
 21
30.7551182848
  0
LINE
  8
0
 62
7
  6
CONTINUOUS
 10
159.575304528
 20
31.4649194539
 11
159.8065543074
 21
31.4971831403
  0
LINE
  8
0
 62
7
  6
CONTINUOUS
 10
157.6096790869
 20
31.4649194539
 11
157.840929528
 21
31.4971831403
  0
LINE
  8
0
 62
7
  6
CONTINUOUS
 10
154.5456166972
 20
31.1100188581
 11
154.7768668074
 21
31.1422825445
  0
LINE
  8
0
 62
7
  6
CONTINUOUS
 10
157.840929528
 20
31.626237886
 11
157.6096790869
 21
31.5939741996
  0
LINE
  8
0
 62
7
  6
CONTINUOUS
 10
154.4299918074
 20
31.4649194539
 11
154.6612419177
 21
31.4971831403
  0
LINE
  8
0
 62
7
  6
CONTINUOUS
 10
159.8065543074
 20
31.626237886
 11
159.4596793074
 21
31.5939741996
  0
LINE
  8
0
 62
7
  6
CONTINUOUS
 10
154.7768668074
 20
31.2713373354
 11
154.4299918074
 21
31.2390736489
  0
LINE
  8
0
 62
7
  6
CONTINUOUS
 10
150.5565542799
 20
31.626237886
 11
150.2096793212
 21
31.5939741996
  0
LINE
  8
0
 62
7
  6
CONTINUOUS
 10
154.6612419177
 20
31.626237886
 11
154.2565543074
 21
31.5939741996
  0
LINE
  8
0
 62
7
  6
CONTINUOUS
 10
152.0327582009
 20
33.5446195022
 11
151.3770204959
 21
33.5446195022
  0
LINE
  8
0
 62
7
  6
CONTINUOUS
 10
157.4362415869
 20
31.400392081
 11
157.6096790869
 21
31.4649194539
  0
LINE
  8
0
 62
7
  6
CONTINUOUS
 10
159.4596793074
 20
31.4326557675
 11
159.575304528
 21
31.4649194539
  0
LINE
  8
0
 62
7
  6
CONTINUOUS
 10
159.4596793074
 20
31.5939741996
 11
159.228429528
 21
31.5294468267
  0
LINE
  8
0
 62
7
  6
CONTINUOUS
 10
155.1815540869
 20
30.7873819712
 11
154.8924916972
 21
30.7228545871
  0
LINE
  8
0
 62
7
  6
CONTINUOUS
 10
152.4643666972
 20
31.4649194539
 11
152.6956168074
 21
31.4971831403
  0
LINE
  8
0
 62
7
  6
CONTINUOUS
 10
152.6956168074
 20
31.626237886
 11
152.4643666972
 21
31.5939741996
  0
LINE
  8
0
 62
7
  6
CONTINUOUS
 10
150.2674918074
 20
31.4649194539
 11
150.498741835
 21
31.4971831403
  0
LINE
  8
0
 62
7
  6
CONTINUOUS
 10
156.7868565615
 20
35.0200293383
 11
157.4425942664
 21
35.0200293383
  0
LINE
  8
0
 62
7
  6
CONTINUOUS
 10
154.4299918074
 20
31.0777551716
 11
154.5456166972
 21
31.1100188581
  0
LINE
  8
0
 62
7
  6
CONTINUOUS
 10
154.4299918074
 20
31.2390736489
 11
154.1987416972
 21
31.1745462761
  0
LINE
  8
0
 62
7
  6
CONTINUOUS
 10
154.3143669177
 20
31.4326557675
 11
154.4299918074
 21
31.4649194539
  0
LINE
  8
0
 62
7
  6
CONTINUOUS
 10
150.9612418074
 20
30.6260635193
 11
151.1924917523
 21
30.6905909007
  0
LINE
  8
0
 62
7
  6
CONTINUOUS
 10
154.2565543074
 20
31.5939741996
 11
154.1409294177
 21
31.5617105132
  0
LINE
  8
0
 62
7
  6
CONTINUOUS
 10
150.2096793212
 20
31.5939741996
 11
150.0362418212
 21
31.5617105132
  0
LINE
  8
0
 62
7
  6
CONTINUOUS
 10
160.9671844304
 20
36.1675703219
 11
159.5737418074
 21
36.1675703219
  0
LINE
  8
0
 62
7
  6
CONTINUOUS
 10
157.6065286927
 20
36.1675703219
 11
157.1939573441
 21
36.1675703219
  0
LINE
  8
0
 62
7
  6
CONTINUOUS
 10
155.9671844304
 20
36.1675703219
 11
154.5737418074
 21
36.1675703219
  0
LINE
  8
0
 62
7
  6
CONTINUOUS
 10
154.245872955
 20
36.1675703219
 11
152.852430332
 21
36.1675703219
  0
LINE
  8
0
 62
7
  6
CONTINUOUS
 10
150.9671844304
 20
36.1675703219
 11
149.5737418074
 21
36.1675703219
  0
LINE
  8
0
 62
7
  6
CONTINUOUS
 10
150.1518667936
 20
31.4326557675
 11
150.2674918074
 21
31.4649194539
  0
CIRCLE
  8
0
 62
7
  6
CONTINUOUS
 10
160.2704631189
 20
38.5036358957
 40
2.0901639344
  0
ARC
  8
0
 62
7
  6
CONTINUOUS
 10
151.2130860697
 20
34.0364227809
 40
1.6393442623
 50
180.0
 51
270.0
  0
ARC
  8
0
 62
7
  6
CONTINUOUS
 10
157.6065286927
 20
34.5282260596
 40
1.6393442623
 50
0.0
 51
90.0
  0
ARC
  8
0
 62
7
  6
CONTINUOUS
 10
151.6256574183
 20
33.8724883547
 40
1.4754098361
 50
270.0
 51
326.2510114041
  0
ARC
  8
0
 62
7
  6
CONTINUOUS
 10
157.1939573441
 20
34.6921604858
 40
1.4754098361
 50
90.0
 51
146.2510114041
  0
ARC
  8
0
 62
7
  6
CONTINUOUS
 10
152.0327582009
 20
34.3642916334
 40
0.8196721311
 50
270.0
 51
360.0
  0
ARC
  8
0
 62
7
  6
CONTINUOUS
 10
156.7868565615
 20
34.2003572071
 40
0.8196721311
 50
90.0
 51
180.0
  0
ARC
  8
0
 62
7
  6
CONTINUOUS
 10
151.3770204959
 20
33.9544555678
 40
0.4098360656
 50
180.0
 51
270.0
  0
ARC
  8
0
 62
7
  6
CONTINUOUS
 10
157.4425942664
 20
34.6101932727
 40
0.4098360656
 50
0.0
 51
90.0
  0
SOLID
  8
0
 62
7
  6
CONTINUOUS
 10
156.279992028
 20
31.9488752009
 11
156.279992028
 21
32.1101936845
 12
156.5690540869
 22
31.9488752009
 13
156.5690540869
 23
32.1101936845
  0
SOLID
  8
0
 62
7
  6
CONTINUOUS
 10
150.5565542799
 20
31.6262382337
 11
150.9612418074
 21
31.5939740028
 12
150.2096793212
 22
31.5939740028
 13
150.2096793212
 23
31.5939740028
  0
SOLID
  8
0
 62
7
  6
CONTINUOUS
 10
150.0362418212
 20
31.5617111435
 11
150.2096793212
 21
31.5939740028
 12
150.9612418074
 22
31.5939740028
 13
150.9612418074
 23
31.5939740028
  0
SOLID
  8
0
 62
7
  6
CONTINUOUS
 10
150.9612418074
 20
31.5939740028
 11
151.1924917523
 21
31.5294468402
 12
150.0362418212
 22
31.5617111435
 13
150.0362418212
 23
31.5617111435
  0
SOLID
  8
0
 62
7
  6
CONTINUOUS
 10
149.8628043005
 20
31.49718259
 11
150.0362418212
 21
31.5617111435
 12
151.1924917523
 22
31.5294468402
 13
151.1924917523
 23
31.5294468402
  0
SOLID
  8
0
 62
7
  6
CONTINUOUS
 10
149.8628043005
 20
31.49718259
 11
151.1924917523
 21
31.5294468402
 12
150.498741835
 22
31.49718259
 13
150.498741835
 23
31.49718259
  0
SOLID
  8
0
 62
7
  6
CONTINUOUS
 10
150.498741835
 20
31.49718259
 11
151.1924917523
 21
31.5294468402
 12
150.9034292799
 22
31.4649197501
 13
150.9034292799
 23
31.4649197501
  0
SOLID
  8
0
 62
7
  6
CONTINUOUS
 10
151.1924917523
 20
31.5294468402
 11
151.3659292523
 21
31.4326554468
 12
150.9034292799
 22
31.4649197501
 13
150.9034292799
 23
31.4649197501
  0
SOLID
  8
0
 62
7
  6
CONTINUOUS
 10
151.0768668626
 20
31.4003926599
 11
150.9034292799
 21
31.4649197501
 12
151.3659292523
 22
31.4326554468
 13
151.3659292523
 23
31.4326554468
  0
SOLID
  8
0
 62
7
  6
CONTINUOUS
 10
151.0768668626
 20
31.4003926599
 11
151.3659292523
 21
31.4326554468
 12
151.1346793074
 22
31.3036013776
 13
151.1346793074
 23
31.3036013776
  0
SOLID
  8
0
 62
7
  6
CONTINUOUS
 10
151.3659292523
 20
31.4326554468
 11
151.4237418626
 21
31.3036013776
 12
151.1346793074
 22
31.3036013776
 13
151.1346793074
 23
31.3036013776
  0
SOLID
  8
0
 62
7
  6
CONTINUOUS
 10
152.4643666972
 20
31.5939739754
 11
152.6956168074
 21
31.6262382787
 12
152.9268669177
 22
31.6262382787
 13
152.9268669177
 23
31.6262382787
  0
SOLID
  8
0
 62
7
  6
CONTINUOUS
 10
152.9268669177
 20
31.6262382787
 11
153.1003044177
 21
31.5939739754
 12
152.4643666972
 22
31.5939739754
 13
152.4643666972
 23
31.5939739754
  0
SOLID
  8
0
 62
7
  6
CONTINUOUS
 10
152.2909293626
 20
31.5294468852
 11
152.4643666972
 21
31.5939739754
 12
153.1003044177
 22
31.5939739754
 13
153.1003044177
 23
31.5939739754
  0
SOLID
  8
0
 62
7
  6
CONTINUOUS
 10
153.1003044177
 20
31.5939739754
 11
153.2737419177
 21
31.5294468852
 12
152.2909293626
 22
31.5294468852
 13
152.2909293626
 23
31.5294468852
  0
SOLID
  8
0
 62
7
  6
CONTINUOUS
 10
153.2737419177
 20
31.5294468852
 11
152.6956168074
 21
31.4971825369
 12
152.2909293626
 22
31.5294468852
 13
152.2909293626
 23
31.5294468852
  0
SOLID
  8
0
 62
7
  6
CONTINUOUS
 10
152.1753043074
 20
31.4649197951
 11
152.2909293626
 21
31.5294468852
 12
152.6956168074
 22
31.4971825369
 13
152.6956168074
 23
31.4971825369
  0
SOLID
  8
0
 62
7
  6
CONTINUOUS
 10
152.6956168074
 20
31.4971825369
 11
152.4643666972
 21
31.4649197951
 12
152.1753043074
 22
31.4649197951
 13
152.1753043074
 23
31.4649197951
  0
SOLID
  8
0
 62
7
  6
CONTINUOUS
 10
152.6956168074
 20
31.4971825369
 11
153.2737419177
 21
31.5294468852
 12
152.9268669177
 22
31.4649197951
 13
152.9268669177
 23
31.4649197951
  0
SOLID
  8
0
 62
7
  6
CONTINUOUS
 10
153.2737419177
 20
31.5294468852
 11
153.3893668074
 21
31.4649197951
 12
152.9268669177
 22
31.4649197951
 13
152.9268669177
 23
31.4649197951
  0
SOLID
  8
0
 62
7
  6
CONTINUOUS
 10
153.0424918074
 20
31.4326554468
 11
152.9268669177
 21
31.4649197951
 12
153.3893668074
 22
31.4649197951
 13
153.3893668074
 23
31.4649197951
  0
SOLID
  8
0
 62
7
  6
CONTINUOUS
 10
153.3893668074
 20
31.4649197951
 11
153.4471794177
 21
31.4003927049
 12
153.0424918074
 22
31.4326554468
 13
153.0424918074
 23
31.4326554468
  0
SOLID
  8
0
 62
7
  6
CONTINUOUS
 10
153.1581166972
 20
31.3681283566
 11
153.0424918074
 21
31.4326554468
 12
153.4471794177
 22
31.4003927049
 13
153.4471794177
 23
31.4003927049
  0
SOLID
  8
0
 62
7
  6
CONTINUOUS
 10
153.1581166972
 20
31.3681283566
 11
153.4471794177
 21
31.4003927049
 12
153.2159293074
 22
31.2390742213
 13
153.2159293074
 23
31.2390742213
  0
SOLID
  8
0
 62
7
  6
CONTINUOUS
 10
153.4471794177
 20
31.4003927049
 11
153.5049916972
 21
31.2390742213
 12
153.2159293074
 22
31.2390742213
 13
153.2159293074
 23
31.2390742213
  0
SOLID
  8
0
 62
7
  6
CONTINUOUS
 10
152.4643666972
 20
31.4649197951
 11
152.2909293626
 21
31.4003927049
 12
152.1753043074
 22
31.4649197951
 13
152.1753043074
 23
31.4649197951
  0
SOLID
  8
0
 62
7
  6
CONTINUOUS
 10
152.2909293626
 20
31.4003927049
 11
152.1753043074
 21
31.3358640533
 12
152.1753043074
 22
31.4649197951
 13
152.1753043074
 23
31.4649197951
  0
SOLID
  8
0
 62
7
  6
CONTINUOUS
 10
152.1753043074
 20
31.3358640533
 11
151.8862417523
 21
30.5938002869
 12
152.1753043074
 22
31.4649197951
 13
152.1753043074
 23
31.4649197951
  0
SOLID
  8
0
 62
7
  6
CONTINUOUS
 10
152.1753043074
 20
31.4649197951
 11
151.8862417523
 21
30.5938002869
 12
152.1753043074
 22
32.1101937295
 13
152.1753043074
 23
32.1101937295
  0
SOLID
  8
0
 62
7
  6
CONTINUOUS
 10
151.8862417523
 20
30.5938002869
 11
151.8862417523
 21
32.1101937295
 12
152.1753043074
 22
32.1101937295
 13
152.1753043074
 23
32.1101937295
  0
SOLID
  8
0
 62
7
  6
CONTINUOUS
 10
152.1753043074
 20
31.3358640533
 11
152.1753043074
 21
30.5938002869
 12
151.8862417523
 22
30.5938002869
 13
151.8862417523
 23
30.5938002869
  0
SOLID
  8
0
 62
7
  6
CONTINUOUS
 10
153.2159293074
 20
30.5938002869
 11
153.2159293074
 21
31.2390742213
 12
153.5049916972
 22
31.2390742213
 13
153.5049916972
 23
31.2390742213
  0
SOLID
  8
0
 62
7
  6
CONTINUOUS
 10
153.5049916972
 20
31.2390742213
 11
153.5049916972
 21
30.5938002869
 12
153.2159293074
 22
30.5938002869
 13
153.2159293074
 23
30.5938002869
  0
SOLID
  8
0
 62
7
  6
CONTINUOUS
 10
154.2565543074
 20
31.5939738288
 11
154.6612419177
 21
31.6262385959
 12
155.0081169177
 22
31.6262385959
 13
155.0081169177
 23
31.6262385959
  0
SOLID
  8
0
 62
7
  6
CONTINUOUS
 10
155.0081169177
 20
31.6262385959
 11
155.3549915869
 21
31.5939738288
 12
154.2565543074
 22
31.5939738288
 13
154.2565543074
 23
31.5939738288
  0
SOLID
  8
0
 62
7
  6
CONTINUOUS
 10
154.1409294177
 20
31.5617111435
 11
154.2565543074
 21
31.5939738288
 12
155.3549915869
 22
31.5939738288
 13
155.3549915869
 23
31.5939738288
  0
SOLID
  8
0
 62
7
  6
CONTINUOUS
 10
155.3549915869
 20
31.5939738288
 11
155.5284290869
 21
31.5294468402
 12
154.1409294177
 22
31.5617111435
 13
154.1409294177
 23
31.5617111435
  0
SOLID
  8
0
 62
7
  6
CONTINUOUS
 10
154.0253041972
 20
31.4971826249
 11
154.1409294177
 21
31.5617111435
 12
155.5284290869
 22
31.5294468402
 13
155.5284290869
 23
31.5294468402
  0
SOLID
  8
0
 62
7
  6
CONTINUOUS
 10
154.0253041972
 20
31.4971826249
 11
155.5284290869
 21
31.5294468402
 12
154.6612419177
 22
31.4971826249
 13
154.6612419177
 23
31.4971826249
  0
SOLID
  8
0
 62
7
  6
CONTINUOUS
 10
154.6612419177
 20
31.4971826249
 11
155.5284290869
 21
31.5294468402
 12
155.0081169177
 22
31.4971826249
 13
155.0081169177
 23
31.4971826249
  0
SOLID
  8
0
 62
7
  6
CONTINUOUS
 10
155.0081169177
 20
31.4971826249
 11
155.5284290869
 21
31.5294468402
 12
155.239367028
 22
31.4649194065
 13
155.239367028
 23
31.4649194065
  0
SOLID
  8
0
 62
7
  6
CONTINUOUS
 10
155.5284290869
 20
31.5294468402
 11
155.6440543074
 21
31.4649194065
 12
155.239367028
 22
31.4649194065
 13
155.239367028
 23
31.4649194065
  0
SOLID
  8
0
 62
7
  6
CONTINUOUS
 10
153.9674919177
 20
31.4326554138
 11
154.0253041972
 21
31.4971826249
 12
154.6612419177
 22
31.4971826249
 13
154.6612419177
 23
31.4971826249
  0
SOLID
  8
0
 62
7
  6
CONTINUOUS
 10
155.3549915869
 20
31.4326554138
 11
155.239367028
 21
31.4649194065
 12
155.6440543074
 22
31.4649194065
 13
155.6440543074
 23
31.4649194065
  0
SOLID
  8
0
 62
7
  6
CONTINUOUS
 10
155.3549915869
 20
31.4326554138
 11
155.6440543074
 21
31.4649194065
 12
155.412804528
 22
31.3681282026
 13
155.412804528
 23
31.3681282026
  0
SOLID
  8
0
 62
7
  6
CONTINUOUS
 10
155.6440543074
 20
31.4649194065
 11
155.7018665869
 21
31.3681282026
 12
155.412804528
 22
31.3681282026
 13
155.412804528
 23
31.3681282026
  0
SOLID
  8
0
 62
7
  6
CONTINUOUS
 10
155.412804528
 20
31.2713369632
 11
155.412804528
 21
31.3681282026
 12
155.7018665869
 22
31.3681282026
 13
155.7018665869
 23
31.3681282026
  0
SOLID
  8
0
 62
7
  6
CONTINUOUS
 10
155.412804528
 20
31.2713369632
 11
155.7018665869
 21
31.3681282026
 12
155.412804528
 22
31.1422827828
 13
155.412804528
 23
31.1422827828
  0
SOLID
  8
0
 62
7
  6
CONTINUOUS
 10
155.412804528
 20
31.1422827828
 11
155.7018665869
 21
31.3681282026
 12
155.412804528
 22
30.9487004259
 13
155.412804528
 23
30.9487004259
  0
SOLID
  8
0
 62
7
  6
CONTINUOUS
 10
155.7018665869
 20
31.3681282026
 11
155.7018665869
 21
30.8519086025
 12
155.412804528
 22
30.9487004259
 13
155.412804528
 23
30.9487004259
  0
SOLID
  8
0
 62
7
  6
CONTINUOUS
 10
157.6096790869
 20
31.5939736268
 11
157.840929528
 21
31.6262383465
 12
158.0721793074
 22
31.6262383465
 13
158.0721793074
 23
31.6262383465
  0
SOLID
  8
0
 62
7
  6
CONTINUOUS
 10
158.0721793074
 20
31.6262383465
 11
158.2456168074
 21
31.5939736268
 12
157.6096790869
 22
31.5939736268
 13
157.6096790869
 23
31.5939736268
  0
SOLID
  8
0
 62
7
  6
CONTINUOUS
 10
157.4362415869
 20
31.5294472848
 11
157.6096790869
 21
31.5939736268
 12
158.2456168074
 22
31.5939736268
 13
158.2456168074
 23
31.5939736268
  0
SOLID
  8
0
 62
7
  6
CONTINUOUS
 10
158.2456168074
 20
31.5939736268
 11
158.4190543074
 21
31.5294472848
 12
157.4362415869
 22
31.5294472848
 13
157.4362415869
 23
31.5294472848
  0
SOLID
  8
0
 62
7
  6
CONTINUOUS
 10
158.4190543074
 20
31.5294472848
 11
157.840929528
 21
31.4971825369
 12
157.4362415869
 22
31.5294472848
 13
157.4362415869
 23
31.5294472848
  0
SOLID
  8
0
 62
7
  6
CONTINUOUS
 10
157.320617028
 20
31.4649199103
 11
157.4362415869
 21
31.5294472848
 12
157.840929528
 22
31.4971825369
 13
157.840929528
 23
31.4971825369
  0
SOLID
  8
0
 62
7
  6
CONTINUOUS
 10
157.840929528
 20
31.4971825369
 11
157.6096790869
 21
31.4649199103
 12
157.320617028
 22
31.4649199103
 13
157.320617028
 23
31.4649199103
  0
SOLID
  8
0
 62
7
  6
CONTINUOUS
 10
157.840929528
 20
31.4971825369
 11
158.4190543074
 21
31.5294472848
 12
158.0721793074
 22
31.4649199103
 13
158.0721793074
 23
31.4649199103
  0
SOLID
  8
0
 62
7
  6
CONTINUOUS
 10
158.4190543074
 20
31.5294472848
 11
158.534679528
 21
31.4649199103
 12
158.0721793074
 22
31.4649199103
 13
158.0721793074
 23
31.4649199103
  0
SOLID
  8
0
 62
7
  6
CONTINUOUS
 10
158.187804528
 20
31.4326554468
 11
158.0721793074
 21
31.4649199103
 12
158.534679528
 22
31.4649199103
 13
158.534679528
 23
31.4649199103
  0
SOLID
  8
0
 62
7
  6
CONTINUOUS
 10
158.187804528
 20
31.4326554468
 11
158.534679528
 21
31.4649199103
 12
158.3034290869
 22
31.3681288486
 13
158.3034290869
 23
31.3681288486
  0
SOLID
  8
0
 62
7
  6
CONTINUOUS
 10
158.534679528
 20
31.4649199103
 11
158.5924918074
 21
31.3681288486
 12
158.3034290869
 22
31.3681288486
 13
158.3034290869
 23
31.3681288486
  0
SOLID
  8
0
 62
7
  6
CONTINUOUS
 10
158.361242028
 20
31.2068093799
 11
158.3034290869
 21
31.3681288486
 12
158.5924918074
 22
31.3681288486
 13
158.5924918074
 23
31.3681288486
  0
SOLID
  8
0
 62
7
  6
CONTINUOUS
 10
158.5924918074
 20
31.3681288486
 11
158.6503040869
 21
31.2068093799
 12
158.361242028
 22
31.2068093799
 13
158.361242028
 23
31.2068093799
  0
SOLID
  8
0
 62
7
  6
CONTINUOUS
 10
157.6096790869
 20
31.4649199103
 11
157.4362415869
 21
31.4003926599
 12
157.320617028
 22
31.4649199103
 13
157.320617028
 23
31.4649199103
  0
SOLID
  8
0
 62
7
  6
CONTINUOUS
 10
157.4362415869
 20
31.4003926599
 11
157.320617028
 21
31.3358640533
 12
157.320617028
 22
31.4649199103
 13
157.320617028
 23
31.4649199103
  0
SOLID
  8
0
 62
7
  6
CONTINUOUS
 10
157.320617028
 20
31.3358640533
 11
157.0315543074
 21
30.5938003547
 12
157.320617028
 22
31.4649199103
 13
157.320617028
 23
31.4649199103
  0
SOLID
  8
0
 62
7
  6
CONTINUOUS
 10
157.320617028
 20
31.4649199103
 11
157.0315543074
 21
30.5938003547
 12
157.320617028
 22
31.6262383465
 13
157.320617028
 23
31.6262383465
  0
SOLID
  8
0
 62
7
  6
CONTINUOUS
 10
157.0315543074
 20
30.5938003547
 11
157.0315543074
 21
31.6262383465
 12
157.320617028
 22
31.6262383465
 13
157.320617028
 23
31.6262383465
  0
SOLID
  8
0
 62
7
  6
CONTINUOUS
 10
157.320617028
 20
31.3358640533
 11
157.320617028
 21
30.5938003547
 12
157.0315543074
 22
30.5938003547
 13
157.0315543074
 23
30.5938003547
  0
SOLID
  8
0
 62
7
  6
CONTINUOUS
 10
158.361242028
 20
30.5938003547
 11
158.361242028
 21
31.2068093799
 12
158.6503040869
 22
31.2068093799
 13
158.6503040869
 23
31.2068093799
  0
SOLID
  8
0
 62
7
  6
CONTINUOUS
 10
158.6503040869
 20
31.2068093799
 11
158.6503040869
 21
30.5938003547
 12
158.361242028
 22
30.5938003547
 13
158.361242028
 23
30.5938003547
  0
SOLID
  8
0
 62
7
  6
CONTINUOUS
 10
159.4596793074
 20
31.5939739474
 11
159.8065543074
 21
31.6262381969
 12
160.1534293074
 22
31.6262381969
 13
160.1534293074
 23
31.6262381969
  0
SOLID
  8
0
 62
7
  6
CONTINUOUS
 10
160.1534293074
 20
31.6262381969
 11
160.5003043074
 21
31.5939739474
 12
159.4596793074
 22
31.5939739474
 13
159.4596793074
 23
31.5939739474
  0
SOLID
  8
0
 62
7
  6
CONTINUOUS
 10
159.228429528
 20
31.5294468402
 11
159.4596793074
 21
31.5939739474
 12
160.5003043074
 22
31.5939739474
 13
160.5003043074
 23
31.5939739474
  0
SOLID
  8
0
 62
7
  6
CONTINUOUS
 10
159.228429528
 20
31.5294468402
 11
160.5003043074
 21
31.5939739304
 12
160.6737418074
 22
31.5617111435
 13
160.6737418074
 23
31.5617111435
  0
SOLID
  8
0
 62
7
  6
CONTINUOUS
 10
159.228429528
 20
31.5294468402
 11
160.6737418074
 21
31.5617111435
 12
159.8065543074
 22
31.4971825592
 13
159.8065543074
 23
31.4971825592
  0
SOLID
  8
0
 62
7
  6
CONTINUOUS
 10
159.8065543074
 20
31.4971825592
 11
160.6737418074
 21
31.5617111435
 12
160.1534293074
 22
31.4971825592
 13
160.1534293074
 23
31.4971825592
  0
SOLID
  8
0
 62
7
  6
CONTINUOUS
 10
160.6737418074
 20
31.5617111435
 11
160.8471793074
 21
31.4971825592
 12
160.1534293074
 22
31.4971825592
 13
160.1534293074
 23
31.4971825592
  0
SOLID
  8
0
 62
7
  6
CONTINUOUS
 10
160.5003043074
 20
31.4649197501
 11
160.1534293074
 21
31.4971825592
 12
160.8471793074
 22
31.4971825592
 13
160.8471793074
 23
31.4971825592
  0
SOLID
  8
0
 62
7
  6
CONTINUOUS
 10
159.1128043074
 20
31.4326555427
 11
159.228429528
 21
31.5294468402
 12
159.8065543074
 22
31.4971825592
 13
159.8065543074
 23
31.4971825592
  0
SOLID
  8
0
 62
7
  6
CONTINUOUS
 10
160.5003043074
 20
31.4649197501
 11
160.8471793074
 21
31.4971825592
 12
160.615929528
 22
31.4326555427
 13
160.615929528
 23
31.4326555427
  0
SOLID
  8
0
 62
7
  6
CONTINUOUS
 10
160.615929528
 20
31.4326555427
 11
160.8471793074
 21
31.4971825592
 12
160.6737418074
 22
31.3681283005
 13
160.6737418074
 23
31.3681283005
  0
SOLID
  8
0
 62
7
  6
CONTINUOUS
 10
160.8471793074
 20
31.4971825592
 11
160.9628038663
 21
31.3681283005
 12
160.6737418074
 22
31.3681283005
 13
160.6737418074
 23
31.3681283005
  0
SOLID
  8
0
 62
7
  6
CONTINUOUS
 10
150.2674918074
 20
31.4649197501
 11
149.7471793074
 21
31.4326554237
 12
150.498741835
 22
31.4971824493
 13
150.498741835
 23
31.4971824493
  0
SOLID
  8
0
 62
7
  6
CONTINUOUS
 10
149.7471793074
 20
31.4326554237
 11
149.8628043005
 21
31.4971824493
 12
150.498741835
 22
31.4971824493
 13
150.498741835
 23
31.4971824493
  0
SOLID
  8
0
 62
7
  6
CONTINUOUS
 10
150.2674918074
 20
31.4649197501
 11
150.1518667936
 21
31.4326554237
 12
149.7471793074
 22
31.4326554237
 13
149.7471793074
 23
31.4326554237
  0
SOLID
  8
0
 62
7
  6
CONTINUOUS
 10
149.6315543091
 20
31.3036012664
 11
149.7471793074
 21
31.4326554237
 12
150.1518667936
 22
31.4326554237
 13
150.1518667936
 23
31.4326554237
  0
SOLID
  8
0
 62
7
  6
CONTINUOUS
 10
153.9674919177
 20
31.4326554237
 11
154.6612419177
 21
31.4971825369
 12
154.4299918074
 22
31.4649197501
 13
154.4299918074
 23
31.4649197501
  0
SOLID
  8
0
 62
7
  6
CONTINUOUS
 10
154.4299918074
 20
31.4649197501
 11
154.3143669177
 21
31.4326554237
 12
153.9674919177
 22
31.4326554237
 13
153.9674919177
 23
31.4326554237
  0
SOLID
  8
0
 62
7
  6
CONTINUOUS
 10
153.9674919177
 20
31.3681283335
 11
153.9674919177
 21
31.4326554237
 12
154.3143669177
 22
31.4326554237
 13
154.3143669177
 23
31.4326554237
  0
SOLID
  8
0
 62
7
  6
CONTINUOUS
 10
154.3143669177
 20
31.4326554237
 11
154.2565543074
 21
31.3681283335
 12
153.9674919177
 22
31.3681283335
 13
153.9674919177
 23
31.3681283335
  0
SOLID
  8
0
 62
7
  6
CONTINUOUS
 10
159.1128043074
 20
31.4326555528
 11
159.8065543074
 21
31.4971825369
 12
159.575304528
 22
31.4649197501
 13
159.575304528
 23
31.4649197501
  0
SOLID
  8
0
 62
7
  6
CONTINUOUS
 10
159.575304528
 20
31.4649197501
 11
159.4596793074
 21
31.4326555528
 12
159.1128043074
 22
31.4326555528
 13
159.1128043074
 23
31.4326555528
  0
SOLID
  8
0
 62
7
  6
CONTINUOUS
 10
159.1128043074
 20
31.3681284626
 11
159.1128043074
 21
31.4326555528
 12
159.4596793074
 22
31.4326555528
 13
159.4596793074
 23
31.4326555528
  0
SOLID
  8
0
 62
7
  6
CONTINUOUS
 10
159.4596793074
 20
31.4326555528
 11
159.401867028
 21
31.3681284626
 12
159.1128043074
 22
31.3681284626
 13
159.1128043074
 23
31.3681284626
  0
SOLID
  8
0
 62
7
  6
CONTINUOUS
 10
159.228429528
 20
31.2390741763
 11
159.1128043074
 21
31.3681284626
 12
159.401867028
 22
31.3681284626
 13
159.401867028
 23
31.3681284626
  0
SOLID
  8
0
 62
7
  6
CONTINUOUS
 10
149.6315543091
 20
31.3036012664
 11
150.1518667936
 21
31.4326554468
 12
149.9784292936
 22
31.3358640533
 13
149.9784292936
 23
31.3358640533
  0
SOLID
  8
0
 62
7
  6
CONTINUOUS
 10
149.9784292936
 20
31.3358640533
 11
149.9206168074
 21
31.2713369632
 12
149.6315543091
 22
31.3036012664
 13
149.6315543091
 23
31.3036012664
  0
SOLID
  8
0
 62
7
  6
CONTINUOUS
 10
149.5737418074
 20
31.1100184796
 11
149.6315543091
 21
31.3036012664
 12
149.9206168074
 22
31.2713369632
 13
149.9206168074
 23
31.2713369632
  0
SOLID
  8
0
 62
7
  6
CONTINUOUS
 10
154.4299918074
 20
31.2390741763
 11
154.7768668074
 21
31.271336924
 12
155.412804528
 22
31.271336924
 13
155.412804528
 23
31.271336924
  0
SOLID
  8
0
 62
7
  6
CONTINUOUS
 10
154.4299918074
 20
31.2390741763
 11
155.412804528
 21
31.271336924
 12
154.1987416972
 22
31.1745462761
 13
154.1987416972
 23
31.1745462761
  0
SOLID
  8
0
 62
7
  6
CONTINUOUS
 10
154.1987416972
 20
31.1745462761
 11
155.412804528
 21
31.271336924
 12
154.7768668074
 22
31.1422827436
 13
154.7768668074
 23
31.1422827436
  0
SOLID
  8
0
 62
7
  6
CONTINUOUS
 10
155.412804528
 20
31.271336924
 11
155.412804528
 21
31.1422827436
 12
154.7768668074
 22
31.1422827436
 13
154.7768668074
 23
31.1422827436
  0
SOLID
  8
0
 62
7
  6
CONTINUOUS
 10
159.228429528
 20
31.2390745501
 11
159.401867028
 21
31.3681283566
 12
159.4596793074
 22
31.3036012664
 13
159.4596793074
 23
31.3036012664
  0
SOLID
  8
0
 62
7
  6
CONTINUOUS
 10
159.4596793074
 20
31.3036012664
 11
159.6331168074
 21
31.2390745501
 12
159.228429528
 22
31.2390745501
 13
159.228429528
 23
31.2390745501
  0
SOLID
  8
0
 62
7
  6
CONTINUOUS
 10
159.4596793074
 20
31.1422827828
 11
159.228429528
 21
31.2390745501
 12
159.6331168074
 22
31.2390745501
 13
159.6331168074
 23
31.2390745501
  0
SOLID
  8
0
 62
7
  6
CONTINUOUS
 10
159.6331168074
 20
31.2390745501
 11
160.615929528
 21
31.0777556927
 12
159.4596793074
 22
31.1422827828
 13
159.4596793074
 23
31.1422827828
  0
SOLID
  8
0
 62
7
  6
CONTINUOUS
 10
160.442492028
 20
30.9809646623
 11
159.4596793074
 21
31.1422827828
 12
160.615929528
 22
31.0777556927
 13
160.615929528
 23
31.0777556927
  0
SOLID
  8
0
 62
7
  6
CONTINUOUS
 10
160.615929528
 20
31.0777556927
 11
160.8471793074
 21
30.9809646623
 12
160.442492028
 22
30.9809646623
 13
160.442492028
 23
30.9809646623
  0
SOLID
  8
0
 62
7
  6
CONTINUOUS
 10
160.615929528
 20
30.9164372091
 11
160.442492028
 21
30.9809646623
 12
160.8471793074
 22
30.9809646623
 13
160.8471793074
 23
30.9809646623
  0
SOLID
  8
0
 62
7
  6
CONTINUOUS
 10
160.615929528
 20
30.9164372091
 11
160.8471793074
 21
30.9809646623
 12
160.6737418074
 22
30.8519089441
 13
160.6737418074
 23
30.8519089441
  0
SOLID
  8
0
 62
7
  6
CONTINUOUS
 10
160.8471793074
 20
30.9809646623
 11
160.9628038663
 21
30.8519089441
 12
160.6737418074
 22
30.8519089441
 13
160.6737418074
 23
30.8519089441
  0
SOLID
  8
0
 62
7
  6
CONTINUOUS
 10
160.615929528
 20
30.7873818593
 11
160.6737418074
 21
30.8519089441
 12
160.9628038663
 22
30.8519089441
 13
160.9628038663
 23
30.8519089441
  0
SOLID
  8
0
 62
7
  6
CONTINUOUS
 10
160.9628038663
 20
30.8519089441
 11
160.9628038663
 21
30.7873818593
 12
160.615929528
 22
30.7873818593
 13
160.615929528
 23
30.7873818593
  0
SOLID
  8
0
 62
7
  6
CONTINUOUS
 10
160.5003043074
 20
30.7551187255
 11
160.615929528
 21
30.7873818593
 12
160.9628038663
 22
30.7873818593
 13
160.9628038663
 23
30.7873818593
  0
SOLID
  8
0
 62
7
  6
CONTINUOUS
 10
160.5003043074
 20
30.7551187255
 11
160.9628038663
 21
30.7873818593
 12
160.269054528
 22
30.7228547745
 13
160.269054528
 23
30.7228547745
  0
SOLID
  8
0
 62
7
  6
CONTINUOUS
 10
160.9628038663
 20
30.7873818593
 11
160.8471793074
 21
30.6905916353
 12
160.269054528
 22
30.7228547745
 13
160.269054528
 23
30.7228547745
  0
SOLID
  8
0
 62
7
  6
CONTINUOUS
 10
160.8471793074
 20
30.6905916353
 11
159.401867028
 21
30.658327332
 12
160.269054528
 22
30.7228547745
 13
160.269054528
 23
30.7228547745
  0
SOLID
  8
0
 62
7
  6
CONTINUOUS
 10
160.269054528
 20
30.7228547745
 11
159.401867028
 21
30.658327332
 12
159.922179528
 22
30.7228547745
 13
159.922179528
 23
30.7228547745
  0
SOLID
  8
0
 62
7
  6
CONTINUOUS
 10
159.401867028
 20
30.658327332
 11
159.228429528
 21
30.7228547745
 12
159.922179528
 22
30.7228547745
 13
159.922179528
 23
30.7228547745
  0
SOLID
  8
0
 62
7
  6
CONTINUOUS
 10
159.401867028
 20
30.658327332
 11
160.8471793074
 21
30.6905916353
 12
159.575304528
 22
30.6260629858
 13
159.575304528
 23
30.6260629858
  0
SOLID
  8
0
 62
7
  6
CONTINUOUS
 10
160.8471793074
 20
30.6905916353
 11
160.615929528
 21
30.6260629858
 12
159.575304528
 22
30.6260629858
 13
159.575304528
 23
30.6260629858
  0
SOLID
  8
0
 62
7
  6
CONTINUOUS
 10
159.922179528
 20
30.5938006049
 11
159.575304528
 21
30.6260629858
 12
160.615929528
 22
30.6260629858
 13
160.615929528
 23
30.6260629858
  0
SOLID
  8
0
 62
7
  6
CONTINUOUS
 10
160.615929528
 20
30.6260629858
 11
160.269054528
 21
30.5938006049
 12
159.922179528
 22
30.5938006049
 13
159.922179528
 23
30.5938006049
  0
SOLID
  8
0
 62
7
  6
CONTINUOUS
 10
149.5737418074
 20
31.1100184796
 11
149.9206168074
 21
31.2713369632
 12
149.8628043005
 22
31.1422827828
 13
149.8628043005
 23
31.1422827828
  0
SOLID
  8
0
 62
7
  6
CONTINUOUS
 10
149.8628043005
 20
31.1422827828
 11
149.8628043005
 21
31.0454914852
 12
149.5737418074
 22
31.1100184796
 13
149.5737418074
 23
31.1100184796
  0
SOLID
  8
0
 62
7
  6
CONTINUOUS
 10
149.6315543091
 20
30.9164372091
 11
149.5737418074
 21
31.1100184796
 12
149.8628043005
 22
31.0454914852
 13
149.8628043005
 23
31.0454914852
  0
SOLID
  8
0
 62
7
  6
CONTINUOUS
 10
149.8628043005
 20
31.0454914852
 11
149.9784292936
 21
30.8841729058
 12
149.6315543091
 22
30.9164372091
 13
149.6315543091
 23
30.9164372091
  0
SOLID
  8
0
 62
7
  6
CONTINUOUS
 10
149.7471793074
 20
30.7873813202
 11
149.6315543091
 21
30.9164372091
 12
149.9784292936
 22
30.8841729058
 13
149.9784292936
 23
30.8841729058
  0
SOLID
  8
0
 62
7
  6
CONTINUOUS
 10
149.9784292936
 20
30.8841729058
 11
150.1518667936
 21
30.7873813202
 12
149.7471793074
 22
30.7873813202
 13
149.7471793074
 23
30.7873813202
  0
SOLID
  8
0
 62
7
  6
CONTINUOUS
 10
149.8628043005
 20
30.7228547004
 11
149.7471793074
 21
30.7873813202
 12
150.1518667936
 22
30.7873813202
 13
150.1518667936
 23
30.7873813202
  0
SOLID
  8
0
 62
7
  6
CONTINUOUS
 10
150.1518667936
 20
30.7873813202
 11
150.498741835
 21
30.7228547004
 12
149.8628043005
 22
30.7228547004
 13
149.8628043005
 23
30.7228547004
  0
SOLID
  8
0
 62
7
  6
CONTINUOUS
 10
150.0362418212
 20
30.658327332
 11
149.8628043005
 21
30.7228547004
 12
150.498741835
 22
30.7228547004
 13
150.498741835
 23
30.7228547004
  0
SOLID
  8
0
 62
7
  6
CONTINUOUS
 10
154.0831168074
 20
31.1100184386
 11
154.1987416972
 21
31.1745462761
 12
154.7768668074
 22
31.1422827828
 13
154.7768668074
 23
31.1422827828
  0
SOLID
  8
0
 62
7
  6
CONTINUOUS
 10
154.7768668074
 20
31.1422827828
 11
154.5456166972
 21
31.1100184386
 12
154.0831168074
 22
31.1100184386
 13
154.0831168074
 23
31.1100184386
  0
SOLID
  8
0
 62
7
  6
CONTINUOUS
 10
153.9674919177
 20
30.9809642992
 11
154.0831168074
 21
31.1100184386
 12
154.5456166972
 22
31.1100184386
 13
154.5456166972
 23
31.1100184386
  0
SOLID
  8
0
 62
7
  6
CONTINUOUS
 10
154.3143669177
 20
31.0132277988
 11
153.9674919177
 21
30.9809642992
 12
154.4299918074
 22
31.0777556927
 13
154.4299918074
 23
31.0777556927
  0
SOLID
  8
0
 62
7
  6
CONTINUOUS
 10
153.9674919177
 20
30.9809642992
 11
154.5456166972
 21
31.1100184796
 12
154.4299918074
 22
31.0777556927
 13
154.4299918074
 23
31.0777556927
  0
SOLID
  8
0
 62
7
  6
CONTINUOUS
 10
154.3143669177
 20
31.0132277988
 11
154.2565543074
 21
30.9164372091
 12
153.9674919177
 22
30.9809642992
 13
153.9674919177
 23
30.9809642992
  0
SOLID
  8
0
 62
7
  6
CONTINUOUS
 10
153.9674919177
 20
30.8841729058
 11
153.9674919177
 21
30.9809642992
 12
154.2565543074
 22
30.9164372091
 13
154.2565543074
 23
30.9164372091
  0
SOLID
  8
0
 62
7
  6
CONTINUOUS
 10
154.2565543074
 20
30.9164372091
 11
154.2565543074
 21
30.8519086025
 12
153.9674919177
 22
30.8841729058
 13
153.9674919177
 23
30.8841729058
  0
SOLID
  8
0
 62
7
  6
CONTINUOUS
 10
154.0253041972
 20
30.7551187255
 11
153.9674919177
 21
30.8841729058
 12
154.2565543074
 22
30.8519086025
 13
154.2565543074
 23
30.8519086025
  0
SOLID
  8
0
 62
7
  6
CONTINUOUS
 10
155.412804528
 20
30.9487004259
 11
155.7018665869
 21
30.8519086025
 12
155.3549915869
 22
30.8841729058
 13
155.3549915869
 23
30.8841729058
  0
SOLID
  8
0
 62
7
  6
CONTINUOUS
 10
155.1815540869
 20
30.7873815123
 11
155.3549915869
 21
30.8841729058
 12
155.7018665869
 22
30.8519086025
 13
155.7018665869
 23
30.8519086025
  0
SOLID
  8
0
 62
7
  6
CONTINUOUS
 10
155.1815540869
 20
30.7873815123
 11
155.7018665869
 21
30.8519086025
 12
155.412804528
 22
30.7551187255
 13
155.412804528
 23
30.7551187255
  0
SOLID
  8
0
 62
7
  6
CONTINUOUS
 10
155.7018665869
 20
30.8519086025
 11
155.759679528
 21
30.6905916353
 12
155.412804528
 22
30.7551187255
 13
155.412804528
 23
30.7551187255
  0
SOLID
  8
0
 62
7
  6
CONTINUOUS
 10
155.4706168074
 20
30.658327332
 11
155.412804528
 21
30.7551187255
 12
155.759679528
 22
30.6905916353
 13
155.759679528
 23
30.6905916353
  0
SOLID
  8
0
 62
7
  6
CONTINUOUS
 10
155.4706168074
 20
30.658327332
 11
155.759679528
 21
30.6905916353
 12
155.5284290869
 22
30.5938002079
 13
155.5284290869
 23
30.5938002079
  0
SOLID
  8
0
 62
7
  6
CONTINUOUS
 10
155.759679528
 20
30.6905916353
 11
155.8174918074
 21
30.5938002079
 12
155.5284290869
 22
30.5938002079
 13
155.5284290869
 23
30.5938002079
  0
SOLID
  8
0
 62
7
  6
CONTINUOUS
 10
151.0768668626
 20
30.8196456577
 11
151.1346793074
 21
30.9164373395
 12
151.4237418626
 22
30.9164373395
 13
151.4237418626
 23
30.9164373395
  0
SOLID
  8
0
 62
7
  6
CONTINUOUS
 10
151.4237418626
 20
30.9164373395
 11
151.3659292523
 21
30.7873815123
 12
151.0768668626
 22
30.8196456577
 13
151.0768668626
 23
30.8196456577
  0
SOLID
  8
0
 62
7
  6
CONTINUOUS
 10
150.9034292799
 20
30.7551187255
 11
151.0768668626
 21
30.8196456577
 12
151.3659292523
 22
30.7873815123
 13
151.3659292523
 23
30.7873815123
  0
SOLID
  8
0
 62
7
  6
CONTINUOUS
 10
150.9034292799
 20
30.7551187255
 11
151.3659292523
 21
30.7873815123
 12
150.498741835
 22
30.7228544222
 13
150.498741835
 23
30.7228544222
  0
SOLID
  8
0
 62
7
  6
CONTINUOUS
 10
151.3659292523
 20
30.7873815123
 11
151.1924917523
 21
30.6905916353
 12
150.498741835
 22
30.7228544222
 13
150.498741835
 23
30.7228544222
  0
SOLID
  8
0
 62
7
  6
CONTINUOUS
 10
150.0362418212
 20
30.658327332
 11
150.498741835
 21
30.7228544222
 12
151.1924917523
 22
30.6905916353
 13
151.1924917523
 23
30.6905916353
  0
SOLID
  8
0
 62
7
  6
CONTINUOUS
 10
150.0362418212
 20
30.658327332
 11
151.1924917523
 21
30.6905916353
 12
150.2096793212
 22
30.6260631011
 13
150.2096793212
 23
30.6260631011
  0
SOLID
  8
0
 62
7
  6
CONTINUOUS
 10
151.1924917523
 20
30.6905916353
 11
150.9612418074
 21
30.6260631011
 12
150.2096793212
 22
30.6260631011
 13
150.2096793212
 23
30.6260631011
  0
SOLID
  8
0
 62
7
  6
CONTINUOUS
 10
150.5565542799
 20
30.5938002419
 11
150.2096793212
 21
30.6260631011
 12
150.9612418074
 22
30.6260631011
 13
150.9612418074
 23
30.6260631011
  0
SOLID
  8
0
 62
7
  6
CONTINUOUS
 10
154.0253041972
 20
30.7551187255
 11
154.2565543074
 21
30.8519086025
 12
154.3143669177
 22
30.7873815123
 13
154.3143669177
 23
30.7873815123
  0
SOLID
  8
0
 62
7
  6
CONTINUOUS
 10
154.3143669177
 20
30.7873815123
 11
154.5456166972
 21
30.7228544222
 12
154.0253041972
 22
30.7551187255
 13
154.0253041972
 23
30.7551187255
  0
SOLID
  8
0
 62
7
  6
CONTINUOUS
 10
154.1987416972
 20
30.658327332
 11
154.0253041972
 21
30.7551187255
 12
154.5456166972
 22
30.7228544222
 13
154.5456166972
 23
30.7228544222
  0
SOLID
  8
0
 62
7
  6
CONTINUOUS
 10
154.8924916972
 20
30.7228544637
 11
155.1815540869
 21
30.7873815123
 12
155.412804528
 22
30.7551187255
 13
155.412804528
 23
30.7551187255
  0
SOLID
  8
0
 62
7
  6
CONTINUOUS
 10
155.412804528
 20
30.7551187255
 11
155.3549915869
 21
30.6905916353
 12
154.8924916972
 22
30.7228544637
 13
154.8924916972
 23
30.7228544637
  0
SOLID
  8
0
 62
7
  6
CONTINUOUS
 10
155.3549915869
 20
30.6905916353
 11
154.1987416972
 21
30.658327332
 12
154.8924916972
 22
30.7228544637
 13
154.8924916972
 23
30.7228544637
  0
SOLID
  8
0
 62
7
  6
CONTINUOUS
 10
154.1987416972
 20
30.658327332
 11
154.5456166972
 21
30.7228544637
 12
154.8924916972
 22
30.7228544637
 13
154.8924916972
 23
30.7228544637
  0
SOLID
  8
0
 62
7
  6
CONTINUOUS
 10
154.1987416972
 20
30.658327332
 11
155.3549915869
 21
30.6905916353
 12
154.3143669177
 22
30.6260630541
 13
154.3143669177
 23
30.6260630541
  0
SOLID
  8
0
 62
7
  6
CONTINUOUS
 10
155.3549915869
 20
30.6905916353
 11
155.1815540869
 21
30.6260630541
 12
154.3143669177
 22
30.6260630541
 13
154.3143669177
 23
30.6260630541
  0
SOLID
  8
0
 62
7
  6
CONTINUOUS
 10
154.5456166972
 20
30.5938002188
 11
154.3143669177
 21
30.6260630541
 12
155.1815540869
 22
30.6260630541
 13
155.1815540869
 23
30.6260630541
  0
SOLID
  8
0
 62
7
  6
CONTINUOUS
 10
155.1815540869
 20
30.6260630541
 11
154.8924916972
 21
30.5938002188
 12
154.5456166972
 22
30.5938002188
 13
154.5456166972
 23
30.5938002188
  0
SOLID
  8
0
 62
7
  6
CONTINUOUS
 10
159.575304528
 20
30.7551187255
 11
159.228429528
 21
30.7228544637
 12
159.4596793074
 22
30.7873815123
 13
159.4596793074
 23
30.7873815123
  0
SOLID
  8
0
 62
7
  6
CONTINUOUS
 10
159.4596793074
 20
30.7873815123
 11
159.228429528
 21
30.7228544637
 12
159.401867028
 22
30.851908644
 13
159.401867028
 23
30.851908644
  0
SOLID
  8
0
 62
7
  6
CONTINUOUS
 10
159.228429528
 20
30.7228544637
 11
159.1128043074
 21
30.851908644
 12
159.401867028
 22
30.851908644
 13
159.401867028
 23
30.851908644
  0
SOLID
  8
0
 62
7
  6
CONTINUOUS
 10
159.575304528
 20
30.7551187255
 11
159.922179528
 21
30.7228544637
 12
159.228429528
 22
30.7228544637
 13
159.228429528
 23
30.7228544637
  0
SOLID
  8
0
 62
7
  6
CONTINUOUS
 10
156.279992028
 20
30.5938002419
 11
156.279992028
 21
31.6262382337
 12
156.5690540869
 22
30.5938002419
 13
156.5690540869
 23
31.6262382337
  0
ENDBLK
  8
0
  6
BYBLOCK
 62
0
  0
BLOCK
  8
0
 62
2
  6
CONTINUOUS
  2
SYMBOL_3_BL0
 70
64
 10
32.1213064866
 20
19.8534310916
  0
TEXT
  8
0
 62
7
  6
CONTINUOUS
 10
18.3860103289
 20
19.2268451992
  7
TEXTSTYLE_3
 40
2.7338706658
  1
Ammeraal Beltech
 41
1.0
 51
15.0
 72
0
  0
TEXT
  8
0
 62
7
  6
CONTINUOUS
 10
29.1868111546
 20
16.9533085264
  7
TEXTSTYLE_4
 40
1.0935482663
  1
Innovation & Service in Belting
 41
1.0
 72
0
  0
LINE
  8
0
 62
7
  6
CONTINUOUS
 10
12.3614696776
 20
19.9934385078
 11
13.1396216709
 21
23.6543558055
  0
LINE
  8
0
 62
7
  6
CONTINUOUS
 10
23.2347899607
 20
27.3177497171
 11
13.6274394139
 21
24.1961322958
  0
LINE
  8
0
 62
7
  6
CONTINUOUS
 10
12.5867530099
 20
19.3000877048
 11
20.093828271
 21
12.5406867788
  0
LINE
  8
0
 62
7
  6
CONTINUOUS
 10
12.8492874206
 20
20.5352149982
 11
23.6575567857
 21
24.0470345971
  0
LINE
  8
0
 62
7
  6
CONTINUOUS
 10
23.6533516486
 20
13.6972460334
 11
15.2078919798
 21
21.3015720751
  0
LINE
  8
0
 62
7
  6
CONTINUOUS
 10
24.1731743684
 20
26.4728246013
 11
23.1966148312
 21
21.8784731989
  0
LINE
  8
0
 62
7
  6
CONTINUOUS
 10
22.4968128835
 20
18.5861638851
 11
21.810364672
 21
15.3566789607
  0
LINE
  8
0
 62
7
  6
CONTINUOUS
 10
24.8542704669
 20
14.087448211
 11
25.8105020025
 21
18.5861638851
  0
LINE
  8
0
 62
7
  6
CONTINUOUS
 10
26.5103039502
 20
21.8784731989
 11
26.9545457526
 21
23.9684665583
  0
LINE
  8
0
 62
7
  6
CONTINUOUS
 10
20.8069293463
 20
12.3891124661
 11
24.3664527239
 21
13.5456717207
  0
LINE
  8
0
 62
7
  6
CONTINUOUS
 10
23.9478910361
 20
27.1661754044
 11
26.7292624203
 21
24.6618173613
  0
ARC
  8
0
 62
7
  6
CONTINUOUS
 10
13.8527227462
 20
23.5027814928
 40
0.7290321776
 50
108.0
 51
168.0
  0
ARC
  8
0
 62
7
  6
CONTINUOUS
 10
23.4600732931
 20
26.624398914
 40
0.7290321776
 50
348.0
 51
108.0
  0
ARC
  8
0
 62
7
  6
CONTINUOUS
 10
26.2414446773
 20
24.120040871
 40
0.7290321776
 50
348.0
 51
48.0
  0
ARC
  8
0
 62
7
  6
CONTINUOUS
 10
20.581646014
 20
13.0824632691
 40
0.7290321776
 50
228.0
 51
288.0
  0
ARC
  8
0
 62
7
  6
CONTINUOUS
 10
13.0745707529
 20
19.8418641951
 40
0.7290321776
 50
108.0
 51
228.0
  0
ARC
  8
0
 62
7
  6
CONTINUOUS
 10
24.1411693916
 20
14.2390225237
 40
0.7290321776
 50
228.0
 51
348.0
  0
ENDBLK
  8
0
  6
BYBLOCK
 62
0
  0
ENDSEC
  0
SECTION
  2
ENTITIES
  0
TEXT
  8
0
 62
5
  6
CONTINUOUS
 10
96.0
 20
25.636
  7
TEXTSTYLE_2
 40
2.8
  1
Scale :
 41
0.6
 51
0.000019
 72
0
  0
TEXT
  8
0
 62
5
  6
CONTINUOUS
 10
116.0
 20
25.636
  7
TEXTSTYLE_2
 40
2.8
  1
Belt type:
 41
0.6
 51
0.000019
 72
0
  0
INSERT
  8
0
 62
2
  6
CONTINUOUS
  2
SYMBOL_3_BL0
 10
32.1213064866
 20
19.8534310916
  0
INSERT
  8
0
 62
2
  6
CONTINUOUS
  2
SYMBOL_8_BL1
 10
173.5956734183
 20
35.5937998301
  0
LINE
  8
0
 62
2
  6
CONTINUOUS
 10
10.0
 20
30.0
 11
200.0
 21
30.0
  0
LINE
  8
0
 62
2
  6
CONTINUOUS
 10
10.0
 20
30.0
 11
10.0
 21
10.0
  0
LINE
  8
0
 62
2
  6
CONTINUOUS
 10
10.0
 20
10.0
 11
200.0
 21
10.0
  0
LINE
  8
0
 62
2
  6
CONTINUOUS
 10
95.0
 20
30.0
 11
95.0
 21
10.0
  0
LINE
  8
0
 62
2
  6
CONTINUOUS
 10
115.0
 20
30.0
 11
115.0
 21
10.0
  0
LINE
  8
0
 62
2
  6
CONTINUOUS
 10
200.0
 20
30.0
 11
200.0
 21
10.0
  0
TEXT
  8
0
 62
5
  6
CONTINUOUS
 10
13.0
 20
23.303
  7
TEXTSTYLE_5
 40
1.52
  1
                                                                     Ammeraal Beltech Modular A/S
 41
1.0
 72
0
  0
TEXT
  8
0
 62
5
  6
CONTINUOUS
 10
13.0
 20
20.595
  7
TEXTSTYLE_5
 40
1.5
  1
                                                                      Hjulmagervej 21,  7100 Vejle,  DK
 41
1.0
 72
0
  0
TEXT
  8
0
 62
5
  6
CONTINUOUS
 10
13.0
 20
17.881
  7
TEXTSTYLE_5
 40
1.495
  1
                                                                      tel: 
 41
1.0
 72
0
  0
TEXT
  8
0
 62
5
  6
CONTINUOUS
 10
57.9869465649
 20
17.881
  7
TEXTSTYLE_5
 40
1.51
  1
+45 75723100     fax: +45 75723348
 41
1.0
 72
0
  0
TEXT
  8
0
 62
5
  6
CONTINUOUS
 10
13.0
 20
15.177
  7
TEXTSTYLE_5
 40
1.5
  1
                                                                      admin@unichains.dk  www.unichains.com
 41
1.0
 72
0
  0
TEXT
  8
0
 62
5
  6
CONTINUOUS
 10
99.75
 20
13.75
  7
TEXTSTYLE_6
 40
5.0
  1
2:1
 41
0.7
 72
1
 11
105.0
 21
13.75
  0
TEXT
  8
0
 62
5
  6
CONTINUOUS
 10
118.0
 20
13.75
  7
TEXTSTYLE_7
 40
7.5
  1
uni Light-00-K225
 41
0.5980392157
 72
0
  0
LINE
  8
0
 62
7
  6
CONTINUOUS
 10
210.0
 20
0.0
 11
0.0
 21
0.0
  0
LINE
  8
0
 62
7
  6
CONTINUOUS
 10
10.0
 20
10.0
 11
200.0
 21
10.0
  0
LINE
  8
0
 62
7
  6
CONTINUOUS
 10
10.0
 20
30.0
 11
200.0
 21
30.0
  0
LINE
  8
0
 62
7
  6
CONTINUOUS
 10
0.0
 20
0.0
 11
0.0
 21
297.0
  0
LINE
  8
0
 62
7
  6
CONTINUOUS
 10
10.0
 20
10.0
 11
10.0
 21
287.0
  0
LINE
  8
0
 62
7
  6
CONTINUOUS
 10
200.0
 20
287.0
 11
200.0
 21
10.0
  0
LINE
  8
0
 62
7
  6
CONTINUOUS
 10
210.0
 20
0.0
 11
210.0
 21
297.0
  0
LINE
  8
0
 62
7
  6
CONTINUOUS
 10
10.0
 20
287.0
 11
200.0
 21
287.0
  0
LINE
  8
0
 62
7
  6
CONTINUOUS
 10
0.0
 20
297.0
 11
210.0
 21
297.0
  0
LINE
  8
0
 62
7
  6
CONTINUOUS
 10
51.299008193
 20
115.6120600982
 11
51.299008193
 21
124.6786330908
  0
LINE
  8
0
 62
7
  6
CONTINUOUS
 10
51.499008193
 20
114.146797213
 11
51.499008193
 21
115.0120600982
  0
LINE
  8
0
 62
7
  6
CONTINUOUS
 10
51.499008193
 20
125.2814491668
 11
51.499008193
 21
132.8251668794
  0
LINE
  8
0
 62
7
  6
CONTINUOUS
 10
51.3828758255
 20
124.955822291
 11
51.4151405605
 21
125.0042599665
  0
POLYLINE
  8
0
 62
7
  6
CONTINUOUS
 66
1
 70
0
  0
VERTEX
  8
0
 62
7
  6
CONTINUOUS
 10
56.499008193
 20
108.810422008
  0
VERTEX
  8
0
 62
7
  6
CONTINUOUS
 10
56.5113438359
 20
108.7925279489
  0
VERTEX
  8
0
 62
7
  6
CONTINUOUS
 10
56.5478673477
 20
108.7757108843
  0
VERTEX
  8
0
 62
7
  6
CONTINUOUS
 10
56.6069658852
 20
108.7607529794
  0
VERTEX
  8
0
 62
7
  6
CONTINUOUS
 10
56.6858705504
 20
108.748341173
  0
VERTEX
  8
0
 62
7
  6
CONTINUOUS
 10
56.7807541259
 20
108.7390418614
  0
VERTEX
  8
0
 62
7
  6
CONTINUOUS
 10
56.886910969
 20
108.7332802152
  0
VERTEX
  8
0
 62
7
  6
CONTINUOUS
 10
56.999008193
 20
108.7313263983
  0
SEQEND
  0
LINE
  8
0
 62
7
  6
CONTINUOUS
 10
55.449008193
 20
125.9735365458
 11
55.449008193
 21
132.8251668794
  0
LINE
  8
0
 62
7
  6
CONTINUOUS
 10
56.499008193
 20
113.1467973806
 11
56.499008193
 21
106.2951668794
  0
POLYLINE
  8
0
 62
7
  6
CONTINUOUS
 66
1
 70
0
  0
VERTEX
  8
0
 62
7
  6
CONTINUOUS
 10
65.599008193
 20
130.3099117508
  0
VERTEX
  8
0
 62
7
  6
CONTINUOUS
 10
65.6113438359
 20
130.3278058099
  0
VERTEX
  8
0
 62
7
  6
CONTINUOUS
 10
65.6478673477
 20
130.3446228744
  0
VERTEX
  8
0
 62
7
  6
CONTINUOUS
 10
65.7069658852
 20
130.3595807793
  0
VERTEX
  8
0
 62
7
  6
CONTINUOUS
 10
65.7858705504
 20
130.3719925857
  0
VERTEX
  8
0
 62
7
  6
CONTINUOUS
 10
65.8807541259
 20
130.3812918973
  0
VERTEX
  8
0
 62
7
  6
CONTINUOUS
 10
65.986910969
 20
130.3870535436
  0
VERTEX
  8
0
 62
7
  6
CONTINUOUS
 10
66.099008193
 20
130.3890073604
  0
SEQEND
  0
LINE
  8
0
 62
7
  6
CONTINUOUS
 10
65.249008193
 20
113.146797213
 11
65.249008193
 21
106.2951668794
  0
LINE
  8
0
 62
7
  6
CONTINUOUS
 10
65.599008193
 20
125.9735363793
 11
65.599008193
 21
132.8251668794
  0
LINE
  8
0
 62
7
  6
CONTINUOUS
 10
56.999008193
 20
105.7951668794
 11
64.749008193
 21
105.7951668794
  0
LINE
  8
0
 62
7
  6
CONTINUOUS
 10
75.649008193
 20
105.7951668794
 11
83.849008193
 21
105.7951668794
  0
LINE
  8
0
 62
7
  6
CONTINUOUS
 10
94.749008193
 20
105.7951668794
 11
102.499008193
 21
105.7951668794
  0
POLYLINE
  8
0
 62
7
  6
CONTINUOUS
 66
1
 70
0
  0
VERTEX
  8
0
 62
7
  6
CONTINUOUS
 10
55.449008193
 20
130.3099117508
  0
VERTEX
  8
0
 62
7
  6
CONTINUOUS
 10
55.4366725501
 20
130.3278058099
  0
VERTEX
  8
0
 62
7
  6
CONTINUOUS
 10
55.4001490383
 20
130.3446228744
  0
VERTEX
  8
0
 62
7
  6
CONTINUOUS
 10
55.3410505009
 20
130.3595807793
  0
VERTEX
  8
0
 62
7
  6
CONTINUOUS
 10
55.2621458356
 20
130.3719925857
  0
VERTEX
  8
0
 62
7
  6
CONTINUOUS
 10
55.1672622601
 20
130.3812918973
  0
VERTEX
  8
0
 62
7
  6
CONTINUOUS
 10
55.061105417
 20
130.3870535436
  0
VERTEX
  8
0
 62
7
  6
CONTINUOUS
 10
54.949008193
 20
130.3890073604
  0
SEQEND
  0
LINE
  8
0
 62
7
  6
CONTINUOUS
 10
56.999008193
 20
108.7313263983
 11
64.749008193
 21
108.7313263983
  0
LINE
  8
0
 62
7
  6
CONTINUOUS
 10
75.649008193
 20
108.7313263983
 11
83.849008193
 21
108.7313263983
  0
LINE
  8
0
 62
7
  6
CONTINUOUS
 10
94.749008193
 20
108.7313263983
 11
102.499008193
 21
108.7313263983
  0
POLYLINE
  8
0
 62
7
  6
CONTINUOUS
 66
1
 70
0
  0
VERTEX
  8
0
 62
7
  6
CONTINUOUS
 10
107.499008193
 20
113.646797213
  0
VERTEX
  8
0
 62
7
  6
CONTINUOUS
 10
107.6293264884
 20
113.6640787216
  0
VERTEX
  8
0
 62
7
  6
CONTINUOUS
 10
107.749929067
 20
113.7143174851
  0
VERTEX
  8
0
 62
7
  6
CONTINUOUS
 10
107.8527290498
 20
113.7934113679
  0
VERTEX
  8
0
 62
7
  6
CONTINUOUS
 10
107.9317042971
 20
113.8962496496
  0
VERTEX
  8
0
 62
7
  6
CONTINUOUS
 10
107.9817719925
 20
114.0166468617
  0
VERTEX
  8
0
 62
7
  6
CONTINUOUS
 10
107.999008193
 20
114.146797213
  0
SEQEND
  0
LINE
  8
1_AXIS
 62
2
  6
CENTER
 10
49.080794508
 20
110.0351668794
 11
116.851878245
 21
110.0351668794
  0
POLYLINE
  8
0
 62
7
  6
CONTINUOUS
 66
1
 70
0
  0
VERTEX
  8
0
 62
7
  6
CONTINUOUS
 10
51.999008193
 20
113.646797213
  0
VERTEX
  8
0
 62
7
  6
CONTINUOUS
 10
51.8686898977
 20
113.6640787216
  0
VERTEX
  8
0
 62
7
  6
CONTINUOUS
 10
51.7480873191
 20
113.7143174851
  0
VERTEX
  8
0
 62
7
  6
CONTINUOUS
 10
51.6452873363
 20
113.7934113679
  0
VERTEX
  8
0
 62
7
  6
CONTINUOUS
 10
51.566312089
 20
113.8962496496
  0
VERTEX
  8
0
 62
7
  6
CONTINUOUS
 10
51.5162443936
 20
114.0166468617
  0
VERTEX
  8
0
 62
7
  6
CONTINUOUS
 10
51.499008193
 20
114.146797213
  0
SEQEND
  0
POLYLINE
  8
0
 62
7
  6
CONTINUOUS
 66
1
 70
0
  0
VERTEX
  8
0
 62
7
  6
CONTINUOUS
 10
75.149008193
 20
108.810422008
  0
VERTEX
  8
0
 62
7
  6
CONTINUOUS
 10
75.1613438359
 20
108.7925279489
  0
VERTEX
  8
0
 62
7
  6
CONTINUOUS
 10
75.1978673477
 20
108.7757108843
  0
VERTEX
  8
0
 62
7
  6
CONTINUOUS
 10
75.2569658852
 20
108.7607529794
  0
VERTEX
  8
0
 62
7
  6
CONTINUOUS
 10
75.3358705504
 20
108.748341173
  0
VERTEX
  8
0
 62
7
  6
CONTINUOUS
 10
75.4307541259
 20
108.7390418614
  0
VERTEX
  8
0
 62
7
  6
CONTINUOUS
 10
75.536910969
 20
108.7332802152
  0
VERTEX
  8
0
 62
7
  6
CONTINUOUS
 10
75.649008193
 20
108.7313263983
  0
SEQEND
  0
LINE
  8
0
 62
7
  6
CONTINUOUS
 10
74.799008193
 20
125.9735365458
 11
74.799008193
 21
132.8251668794
  0
LINE
  8
0
 62
7
  6
CONTINUOUS
 10
75.149008193
 20
106.2951668794
 11
75.149008193
 21
113.1467973807
  0
POLYLINE
  8
0
 62
7
  6
CONTINUOUS
 66
1
 70
0
  0
VERTEX
  8
0
 62
7
  6
CONTINUOUS
 10
65.249008193
 20
108.810422008
  0
VERTEX
  8
0
 62
7
  6
CONTINUOUS
 10
65.2366725501
 20
108.7925279489
  0
VERTEX
  8
0
 62
7
  6
CONTINUOUS
 10
65.2001490383
 20
108.7757108843
  0
VERTEX
  8
0
 62
7
  6
CONTINUOUS
 10
65.1410505009
 20
108.7607529794
  0
VERTEX
  8
0
 62
7
  6
CONTINUOUS
 10
65.0621458356
 20
108.748341173
  0
VERTEX
  8
0
 62
7
  6
CONTINUOUS
 10
64.9672622601
 20
108.7390418614
  0
VERTEX
  8
0
 62
7
  6
CONTINUOUS
 10
64.861105417
 20
108.7332802152
  0
VERTEX
  8
0
 62
7
  6
CONTINUOUS
 10
64.749008193
 20
108.7313263983
  0
SEQEND
  0
LINE
  8
0
 62
7
  6
CONTINUOUS
 10
107.499008193
 20
113.646797213
 11
103.499008193
 21
113.646797213
  0
LINE
  8
0
 62
7
  6
CONTINUOUS
 10
93.749008193
 20
113.646797213
 11
84.849008193
 21
113.646797213
  0
LINE
  8
0
 62
7
  6
CONTINUOUS
 10
74.649008193
 20
113.646797213
 11
65.749008193
 21
113.646797213
  0
LINE
  8
0
 62
7
  6
CONTINUOUS
 10
55.999008193
 20
113.646797213
 11
51.999008193
 21
113.646797213
  0
POLYLINE
  8
0
 62
7
  6
CONTINUOUS
 66
1
 70
0
  0
VERTEX
  8
0
 62
7
  6
CONTINUOUS
 10
84.699008193
 20
130.3099117508
  0
VERTEX
  8
0
 62
7
  6
CONTINUOUS
 10
84.7113438359
 20
130.3278058099
  0
VERTEX
  8
0
 62
7
  6
CONTINUOUS
 10
84.7478673477
 20
130.3446228744
  0
VERTEX
  8
0
 62
7
  6
CONTINUOUS
 10
84.8069658852
 20
130.3595807793
  0
VERTEX
  8
0
 62
7
  6
CONTINUOUS
 10
84.8858705504
 20
130.3719925857
  0
VERTEX
  8
0
 62
7
  6
CONTINUOUS
 10
84.9807541259
 20
130.3812918973
  0
VERTEX
  8
0
 62
7
  6
CONTINUOUS
 10
85.086910969
 20
130.3870535436
  0
VERTEX
  8
0
 62
7
  6
CONTINUOUS
 10
85.199008193
 20
130.3890073604
  0
SEQEND
  0
LINE
  8
1_AXIS
 62
2
  6
CENTER
 10
79.749008193
 20
123.9601668794
 11
79.749008193
 21
121.5602668794
  0
LINE
  8
1_AXIS
 62
2
  6
CONTINUOUS
 10
79.749008193
 20
120.4401668794
 11
79.749008193
 21
118.6801668794
  0
LINE
  8
1_AXIS
 62
2
  6
CENTER
 10
79.749008193
 20
115.1601668794
 11
79.749008193
 21
117.5600668794
  0
LINE
  8
1_AXIS
 62
2
  6
CENTER
 10
115.5890630201
 20
119.5601668794
 11
81.749108193
 21
119.5601668794
  0
LINE
  8
1_AXIS
 62
2
  6
CONTINUOUS
 10
80.629008193
 20
119.5601668794
 11
78.869008193
 21
119.5601668794
  0
LINE
  8
1_AXIS
 62
2
  6
CENTER
 10
47.9582920858
 20
119.5601668794
 11
77.748908193
 21
119.5601668794
  0
POLYLINE
  8
0
 62
7
  6
CONTINUOUS
 66
1
 70
0
  0
VERTEX
  8
0
 62
7
  6
CONTINUOUS
 10
74.799008193
 20
130.3099117508
  0
VERTEX
  8
0
 62
7
  6
CONTINUOUS
 10
74.7866725501
 20
130.3278058099
  0
VERTEX
  8
0
 62
7
  6
CONTINUOUS
 10
74.7501490383
 20
130.3446228744
  0
VERTEX
  8
0
 62
7
  6
CONTINUOUS
 10
74.6910505009
 20
130.3595807793
  0
VERTEX
  8
0
 62
7
  6
CONTINUOUS
 10
74.6121458356
 20
130.3719925857
  0
VERTEX
  8
0
 62
7
  6
CONTINUOUS
 10
74.5172622601
 20
130.3812918973
  0
VERTEX
  8
0
 62
7
  6
CONTINUOUS
 10
74.411105417
 20
130.3870535436
  0
VERTEX
  8
0
 62
7
  6
CONTINUOUS
 10
74.299008193
 20
130.3890073604
  0
SEQEND
  0
LINE
  8
0
 62
7
  6
CONTINUOUS
 10
84.349008193
 20
113.146797213
 11
84.349008193
 21
106.2951668794
  0
LINE
  8
0
 62
7
  6
CONTINUOUS
 10
84.699008193
 20
125.9735363793
 11
84.699008193
 21
132.8251668794
  0
LINE
  8
0
 62
7
  6
CONTINUOUS
 10
55.949008193
 20
125.4735365458
 11
65.099008193
 21
125.4735365458
  0
LINE
  8
0
 62
7
  6
CONTINUOUS
 10
75.299008193
 20
125.4735365458
 11
84.199008193
 21
125.4735365458
  0
LINE
  8
0
 62
7
  6
CONTINUOUS
 10
94.399008193
 20
125.4735365458
 11
103.549008193
 21
125.4735365458
  0
POLYLINE
  8
0
 62
7
  6
CONTINUOUS
 66
1
 70
0
  0
VERTEX
  8
0
 62
7
  6
CONTINUOUS
 10
94.249008193
 20
108.810422008
  0
VERTEX
  8
0
 62
7
  6
CONTINUOUS
 10
94.2613438359
 20
108.7925279489
  0
VERTEX
  8
0
 62
7
  6
CONTINUOUS
 10
94.2978673477
 20
108.7757108843
  0
VERTEX
  8
0
 62
7
  6
CONTINUOUS
 10
94.3569658852
 20
108.7607529794
  0
VERTEX
  8
0
 62
7
  6
CONTINUOUS
 10
94.4358705504
 20
108.748341173
  0
VERTEX
  8
0
 62
7
  6
CONTINUOUS
 10
94.5307541259
 20
108.7390418614
  0
VERTEX
  8
0
 62
7
  6
CONTINUOUS
 10
94.636910969
 20
108.7332802152
  0
VERTEX
  8
0
 62
7
  6
CONTINUOUS
 10
94.749008193
 20
108.7313263983
  0
SEQEND
  0
POLYLINE
  8
0
 62
7
  6
CONTINUOUS
 66
1
 70
0
  0
VERTEX
  8
0
 62
7
  6
CONTINUOUS
 10
84.349008193
 20
108.810422008
  0
VERTEX
  8
0
 62
7
  6
CONTINUOUS
 10
84.3366725501
 20
108.7925279489
  0
VERTEX
  8
0
 62
7
  6
CONTINUOUS
 10
84.3001490383
 20
108.7757108843
  0
VERTEX
  8
0
 62
7
  6
CONTINUOUS
 10
84.2410505009
 20
108.7607529794
  0
VERTEX
  8
0
 62
7
  6
CONTINUOUS
 10
84.1621458356
 20
108.748341173
  0
VERTEX
  8
0
 62
7
  6
CONTINUOUS
 10
84.0672622601
 20
108.7390418614
  0
VERTEX
  8
0
 62
7
  6
CONTINUOUS
 10
83.961105417
 20
108.7332802152
  0
VERTEX
  8
0
 62
7
  6
CONTINUOUS
 10
83.849008193
 20
108.7313263983
  0
SEQEND
  0
LINE
  8
1_AXIS
 62
2
  6
CENTER
 10
47.6776664803
 20
129.0851668794
 11
113.0634325702
 21
129.0851668794
  0
POLYLINE
  8
0
 62
7
  6
CONTINUOUS
 66
1
 70
0
  0
VERTEX
  8
0
 62
7
  6
CONTINUOUS
 10
51.999008193
 20
130.3890073604
  0
VERTEX
  8
0
 62
7
  6
CONTINUOUS
 10
51.886910969
 20
130.3870535436
  0
VERTEX
  8
0
 62
7
  6
CONTINUOUS
 10
51.7807541259
 20
130.3812918973
  0
VERTEX
  8
0
 62
7
  6
CONTINUOUS
 10
51.6858705504
 20
130.3719925857
  0
VERTEX
  8
0
 62
7
  6
CONTINUOUS
 10
51.6069658852
 20
130.3595807793
  0
VERTEX
  8
0
 62
7
  6
CONTINUOUS
 10
51.5478673477
 20
130.3446228744
  0
VERTEX
  8
0
 62
7
  6
CONTINUOUS
 10
51.5113438359
 20
130.3278058099
  0
VERTEX
  8
0
 62
7
  6
CONTINUOUS
 10
51.499008193
 20
130.3099117508
  0
SEQEND
  0
LINE
  8
0
 62
7
  6
CONTINUOUS
 10
51.999008193
 20
130.3890073604
 11
54.949008193
 21
130.3890073604
  0
LINE
  8
0
 62
7
  6
CONTINUOUS
 10
66.099008193
 20
130.3890073604
 11
74.299008193
 21
130.3890073604
  0
LINE
  8
0
 62
7
  6
CONTINUOUS
 10
85.199008193
 20
130.3890073604
 11
93.399008193
 21
130.3890073604
  0
LINE
  8
0
 62
7
  6
CONTINUOUS
 10
104.549008193
 20
130.3890073604
 11
107.499008193
 21
130.3890073604
  0
POLYLINE
  8
0
 62
7
  6
CONTINUOUS
 66
1
 70
0
  0
VERTEX
  8
0
 62
7
  6
CONTINUOUS
 10
107.499008193
 20
130.3890073604
  0
VERTEX
  8
0
 62
7
  6
CONTINUOUS
 10
107.611105417
 20
130.3870535436
  0
VERTEX
  8
0
 62
7
  6
CONTINUOUS
 10
107.7172622601
 20
130.3812918973
  0
VERTEX
  8
0
 62
7
  6
CONTINUOUS
 10
107.8121458356
 20
130.3719925857
  0
VERTEX
  8
0
 62
7
  6
CONTINUOUS
 10
107.8910505009
 20
130.3595807793
  0
VERTEX
  8
0
 62
7
  6
CONTINUOUS
 10
107.9501490383
 20
130.3446228744
  0
VERTEX
  8
0
 62
7
  6
CONTINUOUS
 10
107.9866725501
 20
130.3278058099
  0
VERTEX
  8
0
 62
7
  6
CONTINUOUS
 10
107.999008193
 20
130.3099117508
  0
SEQEND
  0
LINE
  8
0
 62
7
  6
CONTINUOUS
 10
93.899008193
 20
125.9735365458
 11
93.899008193
 21
132.8251668794
  0
LINE
  8
0
 62
7
  6
CONTINUOUS
 10
94.249008193
 20
113.1467973807
 11
94.249008193
 21
106.2951668794
  0
POLYLINE
  8
0
 62
7
  6
CONTINUOUS
 66
1
 70
0
  0
VERTEX
  8
0
 62
7
  6
CONTINUOUS
 10
104.049008193
 20
130.3099117508
  0
VERTEX
  8
0
 62
7
  6
CONTINUOUS
 10
104.0613438359
 20
130.3278058099
  0
VERTEX
  8
0
 62
7
  6
CONTINUOUS
 10
104.0978673477
 20
130.3446228744
  0
VERTEX
  8
0
 62
7
  6
CONTINUOUS
 10
104.1569658852
 20
130.3595807793
  0
VERTEX
  8
0
 62
7
  6
CONTINUOUS
 10
104.2358705504
 20
130.3719925857
  0
VERTEX
  8
0
 62
7
  6
CONTINUOUS
 10
104.3307541259
 20
130.3812918973
  0
VERTEX
  8
0
 62
7
  6
CONTINUOUS
 10
104.436910969
 20
130.3870535436
  0
VERTEX
  8
0
 62
7
  6
CONTINUOUS
 10
104.549008193
 20
130.3890073604
  0
SEQEND
  0
LINE
  8
0
 62
7
  6
CONTINUOUS
 10
51.999008193
 20
133.3251668794
 11
54.949008193
 21
133.3251668794
  0
LINE
  8
0
 62
7
  6
CONTINUOUS
 10
66.099008193
 20
133.3251668794
 11
74.299008193
 21
133.3251668794
  0
LINE
  8
0
 62
7
  6
CONTINUOUS
 10
85.199008193
 20
133.3251668794
 11
93.399008193
 21
133.3251668794
  0
LINE
  8
0
 62
7
  6
CONTINUOUS
 10
104.549008193
 20
133.3251668794
 11
107.499008193
 21
133.3251668794
  0
POLYLINE
  8
0
 62
7
  6
CONTINUOUS
 66
1
 70
0
  0
VERTEX
  8
0
 62
7
  6
CONTINUOUS
 10
93.899008193
 20
130.3099117508
  0
VERTEX
  8
0
 62
7
  6
CONTINUOUS
 10
93.8866725501
 20
130.3278058099
  0
VERTEX
  8
0
 62
7
  6
CONTINUOUS
 10
93.8501490383
 20
130.3446228744
  0
VERTEX
  8
0
 62
7
  6
CONTINUOUS
 10
93.7910505009
 20
130.3595807793
  0
VERTEX
  8
0
 62
7
  6
CONTINUOUS
 10
93.7121458356
 20
130.3719925857
  0
VERTEX
  8
0
 62
7
  6
CONTINUOUS
 10
93.6172622601
 20
130.3812918973
  0
VERTEX
  8
0
 62
7
  6
CONTINUOUS
 10
93.511105417
 20
130.3870535436
  0
VERTEX
  8
0
 62
7
  6
CONTINUOUS
 10
93.399008193
 20
130.3890073604
  0
SEQEND
  0
LINE
  8
0
 62
7
  6
CONTINUOUS
 10
102.999008193
 20
106.2951668794
 11
102.999008193
 21
113.1467973793
  0
LINE
  8
0
 62
7
  6
CONTINUOUS
 10
104.049008193
 20
125.9735363793
 11
104.049008193
 21
132.8251668794
  0
POLYLINE
  8
0
 62
7
  6
CONTINUOUS
 66
1
 70
0
  0
VERTEX
  8
0
 62
7
  6
CONTINUOUS
 10
102.999008193
 20
108.810422008
  0
VERTEX
  8
0
 62
7
  6
CONTINUOUS
 10
102.9866725501
 20
108.7925279489
  0
VERTEX
  8
0
 62
7
  6
CONTINUOUS
 10
102.9501490383
 20
108.7757108843
  0
VERTEX
  8
0
 62
7
  6
CONTINUOUS
 10
102.8910505009
 20
108.7607529794
  0
VERTEX
  8
0
 62
7
  6
CONTINUOUS
 10
102.8121458356
 20
108.748341173
  0
VERTEX
  8
0
 62
7
  6
CONTINUOUS
 10
102.7172622601
 20
108.7390418614
  0
VERTEX
  8
0
 62
7
  6
CONTINUOUS
 10
102.611105417
 20
108.7332802152
  0
VERTEX
  8
0
 62
7
  6
CONTINUOUS
 10
102.499008193
 20
108.7313263983
  0
SEQEND
  0
LINE
  8
0
 62
7
  6
CONTINUOUS
 10
108.0828758255
 20
125.0042599665
 11
108.1151405605
 21
124.955822291
  0
LINE
  8
0
 62
7
  6
CONTINUOUS
 10
107.999008193
 20
132.8251668794
 11
107.999008193
 21
125.2814491668
  0
LINE
  8
0
 62
7
  6
CONTINUOUS
 10
107.999008193
 20
115.0120600982
 11
107.999008193
 21
114.146797213
  0
LINE
  8
0
 62
7
  6
CONTINUOUS
 10
108.199008193
 20
124.6786330908
 11
108.199008193
 21
115.6120600982
  0
LINE
  8
0
 62
7
  6
CONTINUOUS
 10
146.9739785812
 20
105.7951668794
 11
145.0298592433
 21
105.7951668794
  0
LINE
  8
1_AXIS
 62
2
  6
CONTINUOUS
 10
146.8819189123
 20
110.0351668794
 11
145.1219189123
 21
110.0351668794
  0
LINE
  8
1_AXIS
 62
2
  6
CENTER
 10
141.6019189123
 20
110.0351668794
 11
139.7619189123
 21
110.0351668794
  0
LINE
  8
1_AXIS
 62
2
  6
CENTER
 10
150.4019189123
 20
110.0351668794
 11
152.2419189123
 21
110.0351668794
  0
LINE
  8
0
 62
7
  6
CONTINUOUS
 10
149.9622458831
 20
108.7607529794
 11
150.1519189123
 21
108.7313263983
  0
POLYLINE
  8
0
 62
7
  6
CONTINUOUS
 66
1
 70
0
  0
VERTEX
  8
0
 62
7
  6
CONTINUOUS
 10
149.6519189123
 20
108.810422008
  0
VERTEX
  8
0
 62
7
  6
CONTINUOUS
 10
149.7622976911
 20
108.7925279489
  0
VERTEX
  8
0
 62
7
  6
CONTINUOUS
 10
149.9622458831
 20
108.7607529794
  0
SEQEND
  0
LINE
  8
0
 62
7
  6
CONTINUOUS
 10
143.8407636682
 20
114.7167802765
 11
147.6590590382
 21
114.7167802765
  0
LINE
  8
0
 62
7
  6
CONTINUOUS
 10
141.6519189123
 20
110.0351668794
 11
141.6519189123
 21
129.0851668794
  0
LINE
  8
0
 62
7
  6
CONTINUOUS
 10
147.8432675894
 20
114.6816105785
 11
148.1257974723
 21
114.5594506749
  0
LINE
  8
0
 62
7
  6
CONTINUOUS
 10
143.3519189123
 20
125.4019617534
 11
143.3519189123
 21
115.2167802765
  0
LINE
  8
1_AXIS
 62
2
  6
CONTINUOUS
 10
146.0019189123
 20
129.9651668794
 11
146.0019189123
 21
128.2051668794
  0
LINE
  8
1_AXIS
 62
2
  6
CENTER
 10
146.0019189123
 20
124.6851668794
 11
146.0019189123
 21
122.8451668794
  0
LINE
  8
1_AXIS
 62
2
  6
CONTINUOUS
 10
146.0019189123
 20
110.9151668794
 11
146.0019189123
 21
109.1551668794
  0
LINE
  8
1_AXIS
 62
2
  6
CENTER
 10
146.0019189123
 20
105.6351668794
 11
146.0019189123
 21
103.7951668794
  0
LINE
  8
1_AXIS
 62
2
  6
CENTER
 10
146.0019189123
 20
114.4351668794
 11
146.0019189123
 21
116.2751668794
  0
LINE
  8
1_AXIS
 62
2
  6
CENTER
 10
146.0019189123
 20
133.4851668794
 11
146.0019189123
 21
135.3251668794
  0
LINE
  8
0
 62
7
  6
CONTINUOUS
 10
146.9739785812
 20
133.3251668794
 11
146.9431152086
 21
133.0567599171
  0
LINE
  8
0
 62
7
  6
CONTINUOUS
 10
146.9431152086
 20
133.0567599171
 11
146.9156475372
 21
132.8251668794
  0
LINE
  8
1_AXIS
 62
2
  6
CENTER
 10
139.1519180772
 20
119.5601668794
 11
152.6519196754
 21
119.5601668794
  0
LINE
  8
0
 62
7
  6
CONTINUOUS
 10
146.9156475372
 20
106.2951668794
 11
146.9431152086
 21
106.0635738417
  0
LINE
  8
0
 62
7
  6
CONTINUOUS
 10
146.9431152086
 20
106.0635738417
 11
146.9739785812
 21
105.7951668794
  0
LINE
  8
0
 62
7
  6
CONTINUOUS
 10
145.0607226159
 20
106.0635738417
 11
145.0298592433
 21
105.7951668794
  0
LINE
  8
0
 62
7
  6
CONTINUOUS
 10
145.0881902874
 20
106.2951668794
 11
145.0607226159
 21
106.0635738417
  0
LINE
  8
0
 62
7
  6
CONTINUOUS
 10
145.0442701666
 20
133.1987628802
 11
145.0881902874
 21
132.8251668794
  0
LINE
  8
0
 62
7
  6
CONTINUOUS
 10
145.0298592433
 20
133.3251668794
 11
145.0442701666
 21
133.1987628802
  0
LINE
  8
0
 62
7
  6
CONTINUOUS
 10
150.1519189123
 20
108.7313263983
 11
150.1519189123
 21
130.3890073604
  0
LINE
  8
1_AXIS
 62
2
  6
CONTINUOUS
 10
146.8819189123
 20
129.0851668794
 11
145.1219189123
 21
129.0851668794
  0
LINE
  8
1_AXIS
 62
2
  6
CENTER
 10
141.6019189123
 20
129.0851668794
 11
139.7619189123
 21
129.0851668794
  0
LINE
  8
1_AXIS
 62
2
  6
CENTER
 10
150.4019189123
 20
129.0851668794
 11
152.2419189123
 21
129.0851668794
  0
LINE
  8
0
 62
7
  6
CONTINUOUS
 10
149.867492421
 20
130.3446228744
 11
149.6519189123
 21
130.3099117508
  0
LINE
  8
0
 62
7
  6
CONTINUOUS
 10
150.1519189123
 20
130.3890073604
 11
149.867492421
 21
130.3446228744
  0
LINE
  8
0
 62
7
  6
CONTINUOUS
 10
146.9739785812
 20
133.3251668794
 11
145.0298592433
 21
133.3251668794
  0
LINE
  8
0
 62
7
  6
CONTINUOUS
 10
51.299008193
 20
169.2899418228
 11
51.299008193
 21
175.0899418228
  0
LINE
  8
0
 62
7
  6
CONTINUOUS
 10
51.499008193
 20
168.94221455
 11
51.499008193
 21
167.5899651313
  0
LINE
  8
0
 62
7
  6
CONTINUOUS
 10
51.499008193
 20
173.776293228
 11
51.499008193
 21
175.0899418228
  0
LINE
  8
0
 62
7
  6
CONTINUOUS
 10
53.849008193
 20
167.5899418228
 11
53.849008193
 21
168.7899418228
  0
LINE
  8
0
 62
7
  6
CONTINUOUS
 10
56.499008193
 20
175.0899418228
 11
56.499008193
 21
167.5899418228
  0
POLYLINE
  8
0
 62
7
  6
CONTINUOUS
 66
1
 70
0
  0
VERTEX
  8
0
 62
7
  6
CONTINUOUS
 10
56.499008193
 20
172.3536704477
  0
VERTEX
  8
0
 62
7
  6
CONTINUOUS
 10
56.5134113052
 20
172.3679030404
  0
VERTEX
  8
0
 62
7
  6
CONTINUOUS
 10
56.555877665
 20
172.3811381191
  0
VERTEX
  8
0
 62
7
  6
CONTINUOUS
 10
56.6240889378
 20
172.3926633447
  0
VERTEX
  8
0
 62
7
  6
CONTINUOUS
 10
56.6667040731
 20
172.3975905685
  0
VERTEX
  8
0
 62
7
  6
CONTINUOUS
 10
56.7659099813
 20
172.4054546069
  0
VERTEX
  8
0
 62
7
  6
CONTINUOUS
 10
56.8788674946
 20
172.4103424413
  0
VERTEX
  8
0
 62
7
  6
CONTINUOUS
 10
56.999008193
 20
172.4120014917
  0
SEQEND
  0
POLYLINE
  8
2_FEATURE
 62
7
  6
CONTINUOUS
 66
1
 70
0
  0
VERTEX
  8
2_FEATURE
 62
7
  6
CONTINUOUS
 10
63.649008193
 20
167.8240881027
  0
VERTEX
  8
2_FEATURE
 62
7
  6
CONTINUOUS
 10
63.6315216041
 20
168.0078928668
  0
VERTEX
  8
2_FEATURE
 62
7
  6
CONTINUOUS
 10
63.5845132289
 20
168.1842095923
  0
SEQEND
  0
LINE
  8
2_FEATURE
 62
7
  6
CONTINUOUS
 10
63.249008193
 20
168.3099829981
 11
63.249008193
 21
167.0899418228
  0
LINE
  8
0
 62
7
  6
CONTINUOUS
 10
63.649008193
 20
167.5899418228
 11
63.649008193
 21
167.8240881027
  0
POLYLINE
  8
2_FEATURE
 62
7
  6
CONTINUOUS
 66
1
 70
0
  0
VERTEX
  8
2_FEATURE
 62
7
  6
CONTINUOUS
 10
63.249008193
 20
168.3099829981
  0
VERTEX
  8
2_FEATURE
 62
7
  6
CONTINUOUS
 10
63.26377077
 20
168.3939410241
  0
VERTEX
  8
2_FEATURE
 62
7
  6
CONTINUOUS
 10
63.3033537045
 20
168.4680462635
  0
VERTEX
  8
2_FEATURE
 62
7
  6
CONTINUOUS
 10
63.3556757543
 20
168.5215285565
  0
VERTEX
  8
2_FEATURE
 62
7
  6
CONTINUOUS
 10
63.4113972108
 20
168.5542610652
  0
VERTEX
  8
2_FEATURE
 62
7
  6
CONTINUOUS
 10
63.469066609
 20
168.5701928654
  0
VERTEX
  8
2_FEATURE
 62
7
  6
CONTINUOUS
 10
63.526550296
 20
168.5705092487
  0
VERTEX
  8
2_FEATURE
 62
7
  6
CONTINUOUS
 10
63.5845132289
 20
168.5551380154
  0
SEQEND
  0
POLYLINE
  8
0
 62
7
  6
CONTINUOUS
 66
1
 70
0
  0
VERTEX
  8
0
 62
7
  6
CONTINUOUS
 10
56.499008193
 20
170.5262131978
  0
VERTEX
  8
0
 62
7
  6
CONTINUOUS
 10
56.5134113052
 20
170.5119806051
  0
VERTEX
  8
0
 62
7
  6
CONTINUOUS
 10
56.555877665
 20
170.4987455264
  0
VERTEX
  8
0
 62
7
  6
CONTINUOUS
 10
56.6240889378
 20
170.4872203008
  0
VERTEX
  8
0
 62
7
  6
CONTINUOUS
 10
56.6667040731
 20
170.482293077
  0
VERTEX
  8
0
 62
7
  6
CONTINUOUS
 10
56.7659099813
 20
170.4744290387
  0
VERTEX
  8
0
 62
7
  6
CONTINUOUS
 10
56.8788674946
 20
170.4695412043
  0
VERTEX
  8
0
 62
7
  6
CONTINUOUS
 10
56.999008193
 20
170.4678821538
  0
SEQEND
  0
POLYLINE
  8
2_FEATURE
 62
7
  6
CONTINUOUS
 66
1
 70
0
  0
VERTEX
  8
2_FEATURE
 62
7
  6
CONTINUOUS
 10
63.5845132289
 20
168.1842095923
  0
VERTEX
  8
2_FEATURE
 62
7
  6
CONTINUOUS
 10
63.5425795042
 20
168.2851885375
  0
VERTEX
  8
2_FEATURE
 62
7
  6
CONTINUOUS
 10
63.4974126678
 20
168.3620135003
  0
VERTEX
  8
2_FEATURE
 62
7
  6
CONTINUOUS
 10
63.4506930237
 20
168.4157397635
  0
VERTEX
  8
2_FEATURE
 62
7
  6
CONTINUOUS
 10
63.4039228448
 20
168.4467946641
  0
VERTEX
  8
2_FEATURE
 62
7
  6
CONTINUOUS
 10
63.3593144643
 20
168.4555381637
  0
VERTEX
  8
2_FEATURE
 62
7
  6
CONTINUOUS
 10
63.3203722756
 20
168.4443231417
  0
VERTEX
  8
2_FEATURE
 62
7
  6
CONTINUOUS
 10
63.2863767275
 20
168.4145958158
  0
VERTEX
  8
2_FEATURE
 62
7
  6
CONTINUOUS
 10
63.2601887824
 20
168.3652739658
  0
VERTEX
  8
2_FEATURE
 62
7
  6
CONTINUOUS
 10
63.2512130023
 20
168.3096273631
  0
SEQEND
  0
POLYLINE
  8
0
 62
7
  6
CONTINUOUS
 66
1
 70
0
  0
VERTEX
  8
0
 62
7
  6
CONTINUOUS
 10
65.249008193
 20
172.7906067567
  0
VERTEX
  8
0
 62
7
  6
CONTINUOUS
 10
65.2501383036
 20
172.7574690873
  0
VERTEX
  8
0
 62
7
  6
CONTINUOUS
 10
65.253543727
 20
172.723876032
  0
VERTEX
  8
0
 62
7
  6
CONTINUOUS
 10
65.2592464437
 20
172.6899418228
  0
SEQEND
  0
LINE
  8
0
 62
7
  6
CONTINUOUS
 10
65.249008193
 20
167.5899418228
 11
65.249008193
 21
175.0899418228
  0
POLYLINE
  8
0
 62
7
  6
CONTINUOUS
 66
1
 70
0
  0
VERTEX
  8
0
 62
7
  6
CONTINUOUS
 10
65.249008193
 20
168.647093814
  0
VERTEX
  8
0
 62
7
  6
CONTINUOUS
 10
65.2308749279
 20
168.4717407534
  0
VERTEX
  8
0
 62
7
  6
CONTINUOUS
 10
65.1860928351
 20
168.3404727842
  0
VERTEX
  8
0
 62
7
  6
CONTINUOUS
 10
65.122166203
 20
168.2420571352
  0
VERTEX
  8
0
 62
7
  6
CONTINUOUS
 10
65.0443162924
 20
168.1735752147
  0
VERTEX
  8
0
 62
7
  6
CONTINUOUS
 10
64.9557185696
 20
168.1330268157
  0
VERTEX
  8
0
 62
7
  6
CONTINUOUS
 10
64.8569649732
 20
168.1201670666
  0
VERTEX
  8
0
 62
7
  6
CONTINUOUS
 10
64.749008193
 20
168.1380695817
  0
SEQEND
  0
LINE
  8
0
 62
7
  6
CONTINUOUS
 10
67.199008193
 20
170.8330306471
 11
67.199008193
 21
167.5899418228
  0
POLYLINE
  8
0
 62
7
  6
CONTINUOUS
 66
1
 70
0
  0
VERTEX
  8
0
 62
7
  6
CONTINUOUS
 10
65.249008193
 20
170.5262131978
  0
VERTEX
  8
0
 62
7
  6
CONTINUOUS
 10
65.2346050808
 20
170.5119806051
  0
VERTEX
  8
0
 62
7
  6
CONTINUOUS
 10
65.1921387211
 20
170.4987455264
  0
VERTEX
  8
0
 62
7
  6
CONTINUOUS
 10
65.1239274483
 20
170.4872203008
  0
VERTEX
  8
0
 62
7
  6
CONTINUOUS
 10
65.081312313
 20
170.482293077
  0
VERTEX
  8
0
 62
7
  6
CONTINUOUS
 10
64.9821064048
 20
170.4744290387
  0
VERTEX
  8
0
 62
7
  6
CONTINUOUS
 10
64.8691488915
 20
170.4695412043
  0
VERTEX
  8
0
 62
7
  6
CONTINUOUS
 10
64.749008193
 20
170.4678821538
  0
SEQEND
  0
POLYLINE
  8
0
 62
7
  6
CONTINUOUS
 66
1
 70
0
  0
VERTEX
  8
0
 62
7
  6
CONTINUOUS
 10
65.249008193
 20
172.3536704477
  0
VERTEX
  8
0
 62
7
  6
CONTINUOUS
 10
65.2346050808
 20
172.3679030404
  0
VERTEX
  8
0
 62
7
  6
CONTINUOUS
 10
65.1921387211
 20
172.3811381191
  0
VERTEX
  8
0
 62
7
  6
CONTINUOUS
 10
65.1239274483
 20
172.3926633447
  0
VERTEX
  8
0
 62
7
  6
CONTINUOUS
 10
65.081312313
 20
172.3975905685
  0
VERTEX
  8
0
 62
7
  6
CONTINUOUS
 10
64.9821064048
 20
172.4054546069
  0
VERTEX
  8
0
 62
7
  6
CONTINUOUS
 10
64.8691488915
 20
172.4103424413
  0
VERTEX
  8
0
 62
7
  6
CONTINUOUS
 10
64.749008193
 20
172.4120014917
  0
SEQEND
  0
POLYLINE
  8
0
 62
7
  6
CONTINUOUS
 66
1
 70
0
  0
VERTEX
  8
0
 62
7
  6
CONTINUOUS
 10
55.7591712476
 20
168.7877292068
  0
VERTEX
  8
0
 62
7
  6
CONTINUOUS
 10
55.8645746024
 20
168.763007159
  0
VERTEX
  8
0
 62
7
  6
CONTINUOUS
 10
55.9476715007
 20
168.7201161574
  0
VERTEX
  8
0
 62
7
  6
CONTINUOUS
 10
56.0017261514
 20
168.6750986482
  0
VERTEX
  8
0
 62
7
  6
CONTINUOUS
 10
56.0281022027
 20
168.6435581403
  0
VERTEX
  8
0
 62
7
  6
CONTINUOUS
 10
56.034334784
 20
168.6338130482
  0
SEQEND
  0
POLYLINE
  8
0
 62
7
  6
CONTINUOUS
 66
1
 70
0
  0
VERTEX
  8
0
 62
7
  6
CONTINUOUS
 10
63.5845132289
 20
168.5551380154
  0
VERTEX
  8
0
 62
7
  6
CONTINUOUS
 10
63.943132903
 20
168.4142185101
  0
VERTEX
  8
0
 62
7
  6
CONTINUOUS
 10
64.3308029067
 20
168.27496884
  0
VERTEX
  8
0
 62
7
  6
CONTINUOUS
 10
64.749008193
 20
168.1380695817
  0
SEQEND
  0
LINE
  8
0
 62
7
  6
CONTINUOUS
 10
73.199008193
 20
170.8330306471
 11
73.199008193
 21
167.5899418228
  0
POLYLINE
  8
2_FEATURE
 62
7
  6
CONTINUOUS
 66
1
 70
0
  0
VERTEX
  8
2_FEATURE
 62
7
  6
CONTINUOUS
 10
95.9135031572
 20
168.5551380154
  0
VERTEX
  8
2_FEATURE
 62
7
  6
CONTINUOUS
 10
95.9704685554
 20
168.5703809619
  0
VERTEX
  8
2_FEATURE
 62
7
  6
CONTINUOUS
 10
96.0269115485
 20
168.5704633229
  0
VERTEX
  8
2_FEATURE
 62
7
  6
CONTINUOUS
 10
96.0838172937
 20
168.5554226016
  0
VERTEX
  8
2_FEATURE
 62
7
  6
CONTINUOUS
 10
96.1409014262
 20
168.522633801
  0
VERTEX
  8
2_FEATURE
 62
7
  6
CONTINUOUS
 10
96.1943384141
 20
168.4684811378
  0
VERTEX
  8
2_FEATURE
 62
7
  6
CONTINUOUS
 10
96.2344673083
 20
168.3933103391
  0
VERTEX
  8
2_FEATURE
 62
7
  6
CONTINUOUS
 10
96.249008193
 20
168.3099829981
  0
SEQEND
  0
POLYLINE
  8
0
 62
7
  6
CONTINUOUS
 66
1
 70
0
  0
VERTEX
  8
0
 62
7
  6
CONTINUOUS
 10
94.749008193
 20
168.1380695817
  0
VERTEX
  8
0
 62
7
  6
CONTINUOUS
 10
94.6410520821
 20
168.1201670781
  0
VERTEX
  8
0
 62
7
  6
CONTINUOUS
 10
94.5423008768
 20
168.1330259352
  0
VERTEX
  8
0
 62
7
  6
CONTINUOUS
 10
94.4537014168
 20
168.1735743553
  0
VERTEX
  8
0
 62
7
  6
CONTINUOUS
 10
94.3758477206
 20
168.2420599911
  0
VERTEX
  8
0
 62
7
  6
CONTINUOUS
 10
94.3119257495
 20
168.3404682483
  0
VERTEX
  8
0
 62
7
  6
CONTINUOUS
 10
94.2671447667
 20
168.4717257969
  0
VERTEX
  8
0
 62
7
  6
CONTINUOUS
 10
94.249008193
 20
168.647093814
  0
SEQEND
  0
LINE
  8
2_FEATURE
 62
7
  6
CONTINUOUS
 10
90.780258193
 20
167.1155750859
 11
90.6927582765
 21
167.1019209437
  0
LINE
  8
2_FEATURE
 62
7
  6
CONTINUOUS
 10
88.811508193
 20
167.1155750859
 11
88.7240081513
 21
167.1019209437
  0
LINE
  8
2_FEATURE
 62
7
  6
CONTINUOUS
 10
91.042758193
 20
167.1081025015
 11
90.911508193
 21
167.0910731261
  0
LINE
  8
0
 62
7
  6
CONTINUOUS
 10
75.149008193
 20
167.5899418228
 11
75.149008193
 21
175.0899418228
  0
POLYLINE
  8
0
 62
7
  6
CONTINUOUS
 66
1
 70
0
  0
VERTEX
  8
0
 62
7
  6
CONTINUOUS
 10
75.1387699423
 20
172.6899418228
  0
VERTEX
  8
0
 62
7
  6
CONTINUOUS
 10
75.1444730656
 20
172.7238790501
  0
VERTEX
  8
0
 62
7
  6
CONTINUOUS
 10
75.1478782668
 20
172.7574718055
  0
VERTEX
  8
0
 62
7
  6
CONTINUOUS
 10
75.149008193
 20
172.7906067567
  0
SEQEND
  0
POLYLINE
  8
1_AXIS
 62
7
  6
CONTINUOUS
 66
1
 70
0
  0
VERTEX
  8
1_AXIS
 62
7
  6
CONTINUOUS
 10
71.009008193
 20
167.1542125966
  0
VERTEX
  8
1_AXIS
 62
7
  6
CONTINUOUS
 10
71.0316432588
 20
167.1904557758
  0
VERTEX
  8
1_AXIS
 62
7
  6
CONTINUOUS
 10
71.0989486213
 20
167.2326003953
  0
VERTEX
  8
1_AXIS
 62
7
  6
CONTINUOUS
 10
71.2070701383
 20
167.2760045168
  0
VERTEX
  8
1_AXIS
 62
7
  6
CONTINUOUS
 10
71.347849592
 20
167.3147442448
  0
VERTEX
  8
1_AXIS
 62
7
  6
CONTINUOUS
 10
71.5105421194
 20
167.3434131695
  0
VERTEX
  8
1_AXIS
 62
7
  6
CONTINUOUS
 10
71.6849896897
 20
167.3585122057
  0
VERTEX
  8
1_AXIS
 62
7
  6
CONTINUOUS
 10
71.8630160127
 20
167.3585126672
  0
VERTEX
  8
1_AXIS
 62
7
  6
CONTINUOUS
 10
72.0374593552
 20
167.3434151233
  0
VERTEX
  8
1_AXIS
 62
7
  6
CONTINUOUS
 10
72.2001510017
 20
167.3147477893
  0
VERTEX
  8
1_AXIS
 62
7
  6
CONTINUOUS
 10
72.3409338997
 20
167.2760086366
  0
VERTEX
  8
1_AXIS
 62
7
  6
CONTINUOUS
 10
72.4490604294
 20
167.2326040086
  0
VERTEX
  8
1_AXIS
 62
7
  6
CONTINUOUS
 10
72.5163718849
 20
167.1904568682
  0
VERTEX
  8
1_AXIS
 62
7
  6
CONTINUOUS
 10
72.539008193
 20
167.1542125966
  0
SEQEND
  0
POLYLINE
  8
0
 62
7
  6
CONTINUOUS
 66
1
 70
0
  0
VERTEX
  8
0
 62
7
  6
CONTINUOUS
 10
75.149008193
 20
172.3536704477
  0
VERTEX
  8
0
 62
7
  6
CONTINUOUS
 10
75.1634113052
 20
172.3679030404
  0
VERTEX
  8
0
 62
7
  6
CONTINUOUS
 10
75.205877665
 20
172.3811381191
  0
VERTEX
  8
0
 62
7
  6
CONTINUOUS
 10
75.2740889378
 20
172.3926633447
  0
VERTEX
  8
0
 62
7
  6
CONTINUOUS
 10
75.3167040731
 20
172.3975905685
  0
VERTEX
  8
0
 62
7
  6
CONTINUOUS
 10
75.4159099813
 20
172.4054546069
  0
VERTEX
  8
0
 62
7
  6
CONTINUOUS
 10
75.5288674946
 20
172.4103424413
  0
VERTEX
  8
0
 62
7
  6
CONTINUOUS
 10
75.649008193
 20
172.4120014917
  0
SEQEND
  0
LINE
  8
2_FEATURE
 62
7
  6
CONTINUOUS
 10
89.074008193
 20
167.1081025015
 11
88.942758193
 21
167.0910731261
  0
POLYLINE
  8
2_FEATURE
 62
7
  6
CONTINUOUS
 66
1
 70
0
  0
VERTEX
  8
2_FEATURE
 62
7
  6
CONTINUOUS
 10
90.911508193
 20
167.291127662
  0
VERTEX
  8
2_FEATURE
 62
7
  6
CONTINUOUS
 10
90.9553287693
 20
167.2946991322
  0
VERTEX
  8
2_FEATURE
 62
7
  6
CONTINUOUS
 10
90.9665556504
 20
167.296226508
  0
SEQEND
  0
POLYLINE
  8
2_FEATURE
 62
7
  6
CONTINUOUS
 66
1
 70
0
  0
VERTEX
  8
2_FEATURE
 62
7
  6
CONTINUOUS
 10
88.942758193
 20
167.291127662
  0
VERTEX
  8
2_FEATURE
 62
7
  6
CONTINUOUS
 10
88.9865787693
 20
167.2946991322
  0
VERTEX
  8
2_FEATURE
 62
7
  6
CONTINUOUS
 10
88.9978056504
 20
167.296226508
  0
SEQEND
  0
LINE
  8
2_FEATURE
 62
7
  6
CONTINUOUS
 10
90.6927582765
 20
167.1019209437
 11
90.5615082765
 21
167.0970248997
  0
LINE
  8
2_FEATURE
 62
7
  6
CONTINUOUS
 10
88.7240081513
 20
167.1019209437
 11
88.5927581513
 21
167.0970248997
  0
LINE
  8
2_FEATURE
 62
7
  6
CONTINUOUS
 10
90.8531747975
 20
167.2900155307
 11
90.911508193
 21
167.291127662
  0
LINE
  8
2_FEATURE
 62
7
  6
CONTINUOUS
 10
88.8844248392
 20
167.2900155307
 11
88.942758193
 21
167.291127662
  0
POLYLINE
  8
2_FEATURE
 62
7
  6
CONTINUOUS
 66
1
 70
0
  0
VERTEX
  8
2_FEATURE
 62
7
  6
CONTINUOUS
 10
90.911508193
 20
167.0910731261
  0
VERTEX
  8
2_FEATURE
 62
7
  6
CONTINUOUS
 10
90.8531746748
 20
167.0900121409
  0
VERTEX
  8
2_FEATURE
 62
7
  6
CONTINUOUS
 10
90.8338000222
 20
167.0899418427
  0
SEQEND
  0
POLYLINE
  8
2_FEATURE
 62
7
  6
CONTINUOUS
 66
1
 70
0
  0
VERTEX
  8
2_FEATURE
 62
7
  6
CONTINUOUS
 10
88.942758193
 20
167.0910731261
  0
VERTEX
  8
2_FEATURE
 62
7
  6
CONTINUOUS
 10
88.8844247166
 20
167.0900121409
  0
VERTEX
  8
2_FEATURE
 62
7
  6
CONTINUOUS
 10
88.8650500778
 20
167.0899418427
  0
SEQEND
  0
POLYLINE
  8
1_AXIS
 62
7
  6
CONTINUOUS
 66
1
 70
0
  0
VERTEX
  8
1_AXIS
 62
7
  6
CONTINUOUS
 10
72.011546487
 20
167.2899800533
  0
VERTEX
  8
1_AXIS
 62
7
  6
CONTINUOUS
 10
72.1856126319
 20
167.2911508983
  0
VERTEX
  8
1_AXIS
 62
7
  6
CONTINUOUS
 10
72.2753347416
 20
167.2940595209
  0
SEQEND
  0
LINE
  8
0
 62
7
  6
CONTINUOUS
 10
95.349008193
 20
167.0899418228
 11
94.749008193
 21
167.0899418228
  0
LINE
  8
0
 62
7
  6
CONTINUOUS
 10
51.999008193
 20
167.0899418228
 11
63.149008193
 21
167.0899418228
  0
LINE
  8
2_FEATURE
 62
7
  6
CONTINUOUS
 10
63.149008193
 20
167.0899418228
 11
63.249008193
 21
167.0899418228
  0
LINE
  8
0
 62
7
  6
CONTINUOUS
 10
64.149008193
 20
167.0899418228
 11
64.749008193
 21
167.0899418228
  0
LINE
  8
0
 62
7
  6
CONTINUOUS
 10
64.7694846944
 20
167.0899418228
 11
71.6054859638
 21
167.0899418228
  0
LINE
  8
0
 62
7
  6
CONTINUOUS
 10
71.9425279491
 20
167.0899418228
 11
87.499008193
 21
167.0899418228
  0
LINE
  8
0
 62
7
  6
CONTINUOUS
 10
88.942758193
 20
167.0899418228
 11
89.467758193
 21
167.0899418228
  0
LINE
  8
0
 62
7
  6
CONTINUOUS
 10
90.911508193
 20
167.0899418228
 11
94.7285316916
 21
167.0899418228
  0
LINE
  8
2_FEATURE
 62
7
  6
CONTINUOUS
 10
96.249008193
 20
167.0899418228
 11
96.349008193
 21
167.0899418228
  0
LINE
  8
0
 62
7
  6
CONTINUOUS
 10
96.349008193
 20
167.0899418228
 11
107.499008193
 21
167.0899418228
  0
LINE
  8
2_FEATURE
 62
7
  6
CONTINUOUS
 10
87.761508193
 20
167.0944809548
 11
88.549008193
 21
167.0944809548
  0
LINE
  8
2_FEATURE
 62
7
  6
CONTINUOUS
 10
89.730258193
 20
167.0944809548
 11
90.517758193
 21
167.0944809548
  0
LINE
  8
2_FEATURE
 62
7
  6
CONTINUOUS
 10
87.761508193
 20
167.0970248997
 11
88.5927581513
 21
167.0970248997
  0
LINE
  8
2_FEATURE
 62
7
  6
CONTINUOUS
 10
89.730258193
 20
167.0970248997
 11
90.5615082765
 21
167.0970248997
  0
LINE
  8
2_FEATURE
 62
7
  6
CONTINUOUS
 10
87.499008193
 20
167.2899418228
 11
87.761508193
 21
167.2899418228
  0
LINE
  8
2_FEATURE
 62
7
  6
CONTINUOUS
 10
88.8552581513
 20
167.2899418228
 11
88.8844248392
 21
167.2900155307
  0
LINE
  8
2_FEATURE
 62
7
  6
CONTINUOUS
 10
89.467758193
 20
167.2899418228
 11
89.730258193
 21
167.2899418228
  0
LINE
  8
2_FEATURE
 62
7
  6
CONTINUOUS
 10
90.8240082765
 20
167.2899418228
 11
90.8531747975
 21
167.2900155307
  0
LINE
  8
2_FEATURE
 62
7
  6
CONTINUOUS
 10
87.761508193
 20
167.3097070576
 11
88.5927581513
 21
167.3097070576
  0
LINE
  8
2_FEATURE
 62
7
  6
CONTINUOUS
 10
89.730258193
 20
167.3097070576
 11
90.5615082765
 21
167.3097070576
  0
LINE
  8
2_FEATURE
 62
7
  6
CONTINUOUS
 10
87.499008193
 20
167.4520108116
 11
88.549008193
 21
167.4520108116
  0
LINE
  8
2_FEATURE
 62
7
  6
CONTINUOUS
 10
89.467758193
 20
167.4520108116
 11
90.517758193
 21
167.4520108116
  0
POLYLINE
  8
1_AXIS
 62
7
  6
CONTINUOUS
 66
1
 70
0
  0
VERTEX
  8
1_AXIS
 62
7
  6
CONTINUOUS
 10
72.0115487647
 20
167.0899782986
  0
VERTEX
  8
1_AXIS
 62
7
  6
CONTINUOUS
 10
71.5364492277
 20
167.0899783232
  0
VERTEX
  8
1_AXIS
 62
7
  6
CONTINUOUS
 10
71.3623831679
 20
167.0910955962
  0
VERTEX
  8
1_AXIS
 62
7
  6
CONTINUOUS
 10
71.2147755345
 20
167.0956615683
  0
VERTEX
  8
1_AXIS
 62
7
  6
CONTINUOUS
 10
71.1028118772
 20
167.1063926485
  0
VERTEX
  8
1_AXIS
 62
7
  6
CONTINUOUS
 10
71.0328943467
 20
167.1255345374
  0
VERTEX
  8
1_AXIS
 62
7
  6
CONTINUOUS
 10
71.009008193
 20
167.1542125966
  0
SEQEND
  0
POLYLINE
  8
2_FEATURE
 62
7
  6
CONTINUOUS
 66
1
 70
0
  0
VERTEX
  8
2_FEATURE
 62
7
  6
CONTINUOUS
 10
88.8650500778
 20
167.0899418427
  0
VERTEX
  8
2_FEATURE
 62
7
  6
CONTINUOUS
 10
88.8260829888
 20
167.0902262645
  0
VERTEX
  8
2_FEATURE
 62
7
  6
CONTINUOUS
 10
88.7677582347
 20
167.0917153067
  0
SEQEND
  0
POLYLINE
  8
2_FEATURE
 62
7
  6
CONTINUOUS
 66
1
 70
0
  0
VERTEX
  8
2_FEATURE
 62
7
  6
CONTINUOUS
 10
90.8338000222
 20
167.0899418427
  0
VERTEX
  8
2_FEATURE
 62
7
  6
CONTINUOUS
 10
90.7948329053
 20
167.0902262645
  0
VERTEX
  8
2_FEATURE
 62
7
  6
CONTINUOUS
 10
90.7365081096
 20
167.0917153067
  0
SEQEND
  0
LINE
  8
2_FEATURE
 62
7
  6
CONTINUOUS
 10
88.7677582347
 20
167.0917153067
 11
88.549008193
 21
167.0944809548
  0
LINE
  8
2_FEATURE
 62
7
  6
CONTINUOUS
 10
90.7365081096
 20
167.0917153067
 11
90.517758193
 21
167.0944809548
  0
POLYLINE
  8
1_AXIS
 62
7
  6
CONTINUOUS
 66
1
 70
0
  0
VERTEX
  8
1_AXIS
 62
7
  6
CONTINUOUS
 10
71.2726817088
 20
167.2940595265
  0
VERTEX
  8
1_AXIS
 62
7
  6
CONTINUOUS
 10
71.3624020611
 20
167.2911509244
  0
VERTEX
  8
1_AXIS
 62
7
  6
CONTINUOUS
 10
71.5364679445
 20
167.2899800561
  0
VERTEX
  8
1_AXIS
 62
7
  6
CONTINUOUS
 10
72.011546487
 20
167.2899800533
  0
SEQEND
  0
LINE
  8
0
 62
7
  6
CONTINUOUS
 10
55.7157871723
 20
168.7899421523
 11
55.7591712476
 21
168.7877292068
  0
POLYLINE
  8
0
 62
7
  6
CONTINUOUS
 66
1
 70
0
  0
VERTEX
  8
0
 62
7
  6
CONTINUOUS
 10
75.149008193
 20
170.5262131978
  0
VERTEX
  8
0
 62
7
  6
CONTINUOUS
 10
75.1634113052
 20
170.5119806051
  0
VERTEX
  8
0
 62
7
  6
CONTINUOUS
 10
75.205877665
 20
170.4987455264
  0
VERTEX
  8
0
 62
7
  6
CONTINUOUS
 10
75.2740889378
 20
170.4872203008
  0
VERTEX
  8
0
 62
7
  6
CONTINUOUS
 10
75.3167040731
 20
170.482293077
  0
VERTEX
  8
0
 62
7
  6
CONTINUOUS
 10
75.4159099813
 20
170.4744290387
  0
VERTEX
  8
0
 62
7
  6
CONTINUOUS
 10
75.5288674946
 20
170.4695412043
  0
VERTEX
  8
0
 62
7
  6
CONTINUOUS
 10
75.649008193
 20
170.4678821538
  0
SEQEND
  0
POLYLINE
  8
1_AXIS
 62
7
  6
CONTINUOUS
 66
1
 70
0
  0
VERTEX
  8
1_AXIS
 62
7
  6
CONTINUOUS
 10
72.539008193
 20
167.1542125966
  0
VERTEX
  8
1_AXIS
 62
7
  6
CONTINUOUS
 10
72.5151201176
 20
167.1255335708
  0
VERTEX
  8
1_AXIS
 62
7
  6
CONTINUOUS
 10
72.4451986616
 20
167.1063917159
  0
VERTEX
  8
1_AXIS
 62
7
  6
CONTINUOUS
 10
72.3332303315
 20
167.0956609898
  0
VERTEX
  8
1_AXIS
 62
7
  6
CONTINUOUS
 10
72.1856184661
 20
167.0910953793
  0
VERTEX
  8
1_AXIS
 62
7
  6
CONTINUOUS
 10
72.0115487647
 20
167.0899782986
  0
SEQEND
  0
LINE
  8
0
 62
7
  6
CONTINUOUS
 10
51.799008193
 20
168.7899418228
 11
55.844288257
 21
168.7899418228
  0
LINE
  8
0
 62
7
  6
CONTINUOUS
 10
103.6537284597
 20
168.7899418228
 11
107.699008193
 21
168.7899418228
  0
LINE
  8
2_FEATURE
 62
7
  6
CONTINUOUS
 10
88.549008193
 20
167.4520108116
 11
88.7677582347
 21
167.4203865214
  0
LINE
  8
2_FEATURE
 62
7
  6
CONTINUOUS
 10
90.517758193
 20
167.4520108116
 11
90.7365081096
 21
167.4203865214
  0
LINE
  8
2_FEATURE
 62
7
  6
CONTINUOUS
 10
88.5927581513
 20
167.3097070576
 11
88.7240081513
 21
167.2858335741
  0
LINE
  8
2_FEATURE
 62
7
  6
CONTINUOUS
 10
90.5615082765
 20
167.3097070576
 11
90.6927582765
 21
167.2858335741
  0
LINE
  8
1_AXIS
 62
2
  6
CENTER
 10
79.749008193
 20
164.5899409877
 11
79.749008193
 21
178.0899425859
  0
LINE
  8
0
 62
7
  6
CONTINUOUS
 10
56.999008193
 20
170.4678821538
 11
64.749008193
 21
170.4678821538
  0
LINE
  8
0
 62
7
  6
CONTINUOUS
 10
75.649008193
 20
170.4678821538
 11
83.849008193
 21
170.4678821538
  0
LINE
  8
0
 62
7
  6
CONTINUOUS
 10
94.749008193
 20
170.4678821538
 11
102.499008193
 21
170.4678821538
  0
LINE
  8
1_AXIS
 62
2
  6
CENTER
 10
48.5195432969
 20
171.4399418228
 11
112.2215557536
 21
171.4399418228
  0
LINE
  8
0
 62
7
  6
CONTINUOUS
 10
84.8623704584
 20
173.1891968951
 11
84.8906936305
 21
173.1899418228
  0
LINE
  8
0
 62
7
  6
CONTINUOUS
 10
56.999008193
 20
172.4120014917
 11
64.749008193
 21
172.4120014917
  0
LINE
  8
0
 62
7
  6
CONTINUOUS
 10
75.649008193
 20
172.4120014917
 11
83.849008193
 21
172.4120014917
  0
LINE
  8
0
 62
7
  6
CONTINUOUS
 10
94.749008193
 20
172.4120014917
 11
102.499008193
 21
172.4120014917
  0
LINE
  8
0
 62
7
  6
CONTINUOUS
 10
65.7906936347
 20
173.1899418228
 11
74.6073227572
 21
173.1899418228
  0
LINE
  8
0
 62
7
  6
CONTINUOUS
 10
84.8906936347
 20
173.1899418228
 11
93.7073227572
 21
173.1899418228
  0
LINE
  8
0
 62
7
  6
CONTINUOUS
 10
74.6073227615
 20
173.1899418228
 11
74.6356459276
 21
173.1891968951
  0
LINE
  8
2_FEATURE
 62
7
  6
CONTINUOUS
 10
88.7677582347
 20
167.4203865214
 11
88.942758193
 21
167.3350700709
  0
LINE
  8
2_FEATURE
 62
7
  6
CONTINUOUS
 10
90.7365081096
 20
167.4203865214
 11
90.911508193
 21
167.3350700709
  0
LINE
  8
2_FEATURE
 62
7
  6
CONTINUOUS
 10
88.7240081513
 20
167.2858335741
 11
88.811508193
 21
167.2424551189
  0
LINE
  8
2_FEATURE
 62
7
  6
CONTINUOUS
 10
90.6927582765
 20
167.2858335741
 11
90.780258193
 21
167.2424551189
  0
LINE
  8
2_FEATURE
 62
7
  6
CONTINUOUS
 10
88.942758193
 20
167.3350700709
 11
89.074008193
 21
167.2424551189
  0
POLYLINE
  8
0
 62
7
  6
CONTINUOUS
 66
1
 70
0
  0
VERTEX
  8
0
 62
7
  6
CONTINUOUS
 10
84.349008193
 20
170.5262131978
  0
VERTEX
  8
0
 62
7
  6
CONTINUOUS
 10
84.3346050808
 20
170.5119806051
  0
VERTEX
  8
0
 62
7
  6
CONTINUOUS
 10
84.2921387211
 20
170.4987455264
  0
VERTEX
  8
0
 62
7
  6
CONTINUOUS
 10
84.2239274483
 20
170.4872203008
  0
VERTEX
  8
0
 62
7
  6
CONTINUOUS
 10
84.181312313
 20
170.482293077
  0
VERTEX
  8
0
 62
7
  6
CONTINUOUS
 10
84.0821064048
 20
170.4744290387
  0
VERTEX
  8
0
 62
7
  6
CONTINUOUS
 10
83.9691488915
 20
170.4695412043
  0
VERTEX
  8
0
 62
7
  6
CONTINUOUS
 10
83.849008193
 20
170.4678821538
  0
SEQEND
  0
LINE
  8
0
 62
7
  6
CONTINUOUS
 10
65.7623704584
 20
173.1891968951
 11
65.7906936305
 21
173.1899418228
  0
LINE
  8
0
 62
7
  6
CONTINUOUS
 10
93.7073227615
 20
173.1899418228
 11
93.7356459276
 21
173.1891968951
  0
LINE
  8
2_FEATURE
 62
7
  6
CONTINUOUS
 10
90.911508193
 20
167.3350700709
 11
91.042758193
 21
167.2424551189
  0
POLYLINE
  8
0
 62
7
  6
CONTINUOUS
 66
1
 70
0
  0
VERTEX
  8
0
 62
7
  6
CONTINUOUS
 10
84.349008193
 20
172.3536704477
  0
VERTEX
  8
0
 62
7
  6
CONTINUOUS
 10
84.3346050808
 20
172.3679030404
  0
VERTEX
  8
0
 62
7
  6
CONTINUOUS
 10
84.2921387211
 20
172.3811381191
  0
VERTEX
  8
0
 62
7
  6
CONTINUOUS
 10
84.2239274483
 20
172.3926633447
  0
VERTEX
  8
0
 62
7
  6
CONTINUOUS
 10
84.181312313
 20
172.3975905685
  0
VERTEX
  8
0
 62
7
  6
CONTINUOUS
 10
84.0821064048
 20
172.4054546069
  0
VERTEX
  8
0
 62
7
  6
CONTINUOUS
 10
83.9691488915
 20
172.4103424413
  0
VERTEX
  8
0
 62
7
  6
CONTINUOUS
 10
83.849008193
 20
172.4120014917
  0
SEQEND
  0
POLYLINE
  8
0
 62
7
  6
CONTINUOUS
 66
1
 70
0
  0
VERTEX
  8
0
 62
7
  6
CONTINUOUS
 10
84.349008193
 20
172.7906067567
  0
VERTEX
  8
0
 62
7
  6
CONTINUOUS
 10
84.3501383036
 20
172.7574690873
  0
VERTEX
  8
0
 62
7
  6
CONTINUOUS
 10
84.353543727
 20
172.723876032
  0
VERTEX
  8
0
 62
7
  6
CONTINUOUS
 10
84.3592464437
 20
172.6899418228
  0
SEQEND
  0
LINE
  8
0
 62
7
  6
CONTINUOUS
 10
84.349008193
 20
167.5899418228
 11
84.349008193
 21
175.0899418228
  0
LINE
  8
0
 62
7
  6
CONTINUOUS
 10
51.799008193
 20
175.5899418228
 11
107.699008193
 21
175.5899418228
  0
LINE
  8
2_FEATURE
 62
7
  6
CONTINUOUS
 10
88.811508193
 20
167.2424551189
 11
88.8552581513
 21
167.1879856677
  0
LINE
  8
2_FEATURE
 62
7
  6
CONTINUOUS
 10
89.074008193
 20
167.2424551189
 11
89.1177581513
 21
167.1879856677
  0
LINE
  8
0
 62
7
  6
CONTINUOUS
 10
86.299008193
 20
170.8330306471
 11
86.299008193
 21
167.5899418228
  0
LINE
  8
2_FEATURE
 62
7
  6
CONTINUOUS
 10
87.499008193
 20
167.4520108116
 11
87.499008193
 21
167.0899450554
  0
LINE
  8
2_FEATURE
 62
7
  6
CONTINUOUS
 10
90.780258193
 20
167.2424551189
 11
90.8240082765
 21
167.1879856677
  0
LINE
  8
2_FEATURE
 62
7
  6
CONTINUOUS
 10
91.042758193
 20
167.2424551189
 11
91.0865082765
 21
167.1879856677
  0
LINE
  8
2_FEATURE
 62
7
  6
CONTINUOUS
 10
87.761508193
 20
167.0944809548
 11
87.761508193
 21
167.4520108116
  0
LINE
  8
2_FEATURE
 62
7
  6
CONTINUOUS
 10
88.549008193
 20
167.0944809548
 11
88.549008193
 21
167.0970248997
  0
LINE
  8
2_FEATURE
 62
7
  6
CONTINUOUS
 10
88.5927581513
 20
167.3097070576
 11
88.5927581513
 21
167.4456859608
  0
LINE
  8
2_FEATURE
 62
7
  6
CONTINUOUS
 10
88.7240081513
 20
167.2858335741
 11
88.7240081513
 21
167.4267113903
  0
LINE
  8
2_FEATURE
 62
7
  6
CONTINUOUS
 10
88.7677582347
 20
167.0917153067
 11
88.7677582347
 21
167.1087480246
  0
LINE
  8
2_FEATURE
 62
7
  6
CONTINUOUS
 10
88.811508193
 20
167.2424551189
 11
88.811508193
 21
167.399057424
  0
LINE
  8
2_FEATURE
 62
7
  6
CONTINUOUS
 10
88.8552581513
 20
167.1458122194
 11
88.8552581513
 21
167.3777283267
  0
LINE
  8
2_FEATURE
 62
7
  6
CONTINUOUS
 10
88.942758193
 20
167.0910731261
 11
88.942758193
 21
167.291127662
  0
LINE
  8
2_FEATURE
 62
7
  6
CONTINUOUS
 10
89.074008193
 20
167.1081025015
 11
89.074008193
 21
167.2424551189
  0
LINE
  8
2_FEATURE
 62
7
  6
CONTINUOUS
 10
89.1177581513
 20
167.1879856677
 11
89.1177581513
 21
167.1344213841
  0
LINE
  8
2_FEATURE
 62
7
  6
CONTINUOUS
 10
89.467758193
 20
167.4520108116
 11
89.467758193
 21
167.0899450554
  0
POLYLINE
  8
0
 62
7
  6
CONTINUOUS
 66
1
 70
0
  0
VERTEX
  8
0
 62
7
  6
CONTINUOUS
 10
94.249008193
 20
172.3536704477
  0
VERTEX
  8
0
 62
7
  6
CONTINUOUS
 10
94.2634113052
 20
172.3679030404
  0
VERTEX
  8
0
 62
7
  6
CONTINUOUS
 10
94.305877665
 20
172.3811381191
  0
VERTEX
  8
0
 62
7
  6
CONTINUOUS
 10
94.3740889378
 20
172.3926633447
  0
VERTEX
  8
0
 62
7
  6
CONTINUOUS
 10
94.4167040731
 20
172.3975905685
  0
VERTEX
  8
0
 62
7
  6
CONTINUOUS
 10
94.5159099813
 20
172.4054546069
  0
VERTEX
  8
0
 62
7
  6
CONTINUOUS
 10
94.6288674946
 20
172.4103424413
  0
VERTEX
  8
0
 62
7
  6
CONTINUOUS
 10
94.749008193
 20
172.4120014917
  0
SEQEND
  0
LINE
  8
2_FEATURE
 62
7
  6
CONTINUOUS
 10
88.8552581513
 20
167.1458122194
 11
88.811508193
 21
167.1155750859
  0
LINE
  8
2_FEATURE
 62
7
  6
CONTINUOUS
 10
90.8240082765
 20
167.1458122194
 11
90.780258193
 21
167.1155750859
  0
LINE
  8
2_FEATURE
 62
7
  6
CONTINUOUS
 10
89.1177581513
 20
167.1344213841
 11
89.074008193
 21
167.1081025015
  0
LINE
  8
2_FEATURE
 62
7
  6
CONTINUOUS
 10
91.0865082765
 20
167.1344213841
 11
91.042758193
 21
167.1081025015
  0
POLYLINE
  8
0
 62
7
  6
CONTINUOUS
 66
1
 70
0
  0
VERTEX
  8
0
 62
7
  6
CONTINUOUS
 10
95.9135031572
 20
168.5551380154
  0
VERTEX
  8
0
 62
7
  6
CONTINUOUS
 10
95.5548834831
 20
168.4142185101
  0
VERTEX
  8
0
 62
7
  6
CONTINUOUS
 10
95.1672134793
 20
168.27496884
  0
VERTEX
  8
0
 62
7
  6
CONTINUOUS
 10
94.749008193
 20
168.1380695817
  0
SEQEND
  0
POLYLINE
  8
0
 62
7
  6
CONTINUOUS
 66
1
 70
0
  0
VERTEX
  8
0
 62
7
  6
CONTINUOUS
 10
94.249008193
 20
170.5262131978
  0
VERTEX
  8
0
 62
7
  6
CONTINUOUS
 10
94.2634113052
 20
170.5119806051
  0
VERTEX
  8
0
 62
7
  6
CONTINUOUS
 10
94.305877665
 20
170.4987455264
  0
VERTEX
  8
0
 62
7
  6
CONTINUOUS
 10
94.3740889378
 20
170.4872203008
  0
VERTEX
  8
0
 62
7
  6
CONTINUOUS
 10
94.4167040731
 20
170.482293077
  0
VERTEX
  8
0
 62
7
  6
CONTINUOUS
 10
94.5159099813
 20
170.4744290387
  0
VERTEX
  8
0
 62
7
  6
CONTINUOUS
 10
94.6288674946
 20
170.4695412043
  0
VERTEX
  8
0
 62
7
  6
CONTINUOUS
 10
94.749008193
 20
170.4678821538
  0
SEQEND
  0
LINE
  8
2_FEATURE
 62
7
  6
CONTINUOUS
 10
89.730258193
 20
167.0944809548
 11
89.730258193
 21
167.4520108116
  0
LINE
  8
2_FEATURE
 62
7
  6
CONTINUOUS
 10
90.517758193
 20
167.0944809548
 11
90.517758193
 21
167.0970248997
  0
LINE
  8
2_FEATURE
 62
7
  6
CONTINUOUS
 10
90.5615082765
 20
167.3097070576
 11
90.5615082765
 21
167.4456859391
  0
LINE
  8
2_FEATURE
 62
7
  6
CONTINUOUS
 10
90.6927582765
 20
167.2858335741
 11
90.6927582765
 21
167.4267113577
  0
LINE
  8
2_FEATURE
 62
7
  6
CONTINUOUS
 10
90.7365081096
 20
167.0917153067
 11
90.7365081096
 21
167.1087479953
  0
LINE
  8
2_FEATURE
 62
7
  6
CONTINUOUS
 10
90.780258193
 20
167.2424551189
 11
90.780258193
 21
167.3990573783
  0
LINE
  8
2_FEATURE
 62
7
  6
CONTINUOUS
 10
90.8240082765
 20
167.1458122194
 11
90.8240082765
 21
167.3777282351
  0
LINE
  8
2_FEATURE
 62
7
  6
CONTINUOUS
 10
90.911508193
 20
167.0910731261
 11
90.911508193
 21
167.291127662
  0
LINE
  8
2_FEATURE
 62
7
  6
CONTINUOUS
 10
91.042758193
 20
167.1081025015
 11
91.042758193
 21
167.2424551189
  0
LINE
  8
2_FEATURE
 62
7
  6
CONTINUOUS
 10
91.0865082765
 20
167.1879856677
 11
91.0865082765
 21
167.1344213841
  0
POLYLINE
  8
0
 62
7
  6
CONTINUOUS
 66
1
 70
0
  0
VERTEX
  8
0
 62
7
  6
CONTINUOUS
 10
103.6588292521
 20
168.7668598587
  0
VERTEX
  8
0
 62
7
  6
CONTINUOUS
 10
103.7023027129
 20
168.7813302099
  0
VERTEX
  8
0
 62
7
  6
CONTINUOUS
 10
103.7615775128
 20
168.7894262053
  0
VERTEX
  8
0
 62
7
  6
CONTINUOUS
 10
103.7821359283
 20
168.7899412492
  0
SEQEND
  0
LINE
  8
0
 62
7
  6
CONTINUOUS
 10
92.299008193
 20
170.8330306471
 11
92.299008193
 21
167.5899418228
  0
LINE
  8
0
 62
7
  6
CONTINUOUS
 10
94.249008193
 20
167.5899418228
 11
94.249008193
 21
175.0899418228
  0
POLYLINE
  8
0
 62
7
  6
CONTINUOUS
 66
1
 70
0
  0
VERTEX
  8
0
 62
7
  6
CONTINUOUS
 10
94.2387699423
 20
172.6899418228
  0
VERTEX
  8
0
 62
7
  6
CONTINUOUS
 10
94.2444730656
 20
172.7238790501
  0
VERTEX
  8
0
 62
7
  6
CONTINUOUS
 10
94.2478782668
 20
172.7574718055
  0
VERTEX
  8
0
 62
7
  6
CONTINUOUS
 10
94.249008193
 20
172.7906067567
  0
SEQEND
  0
LINE
  8
0
 62
7
  6
CONTINUOUS
 10
95.849008193
 20
167.5899418228
 11
95.849008193
 21
167.8240881027
  0
LINE
  8
2_FEATURE
 62
7
  6
CONTINUOUS
 10
96.249008193
 20
168.3099829981
 11
96.249008193
 21
167.0899418228
  0
POLYLINE
  8
2_FEATURE
 62
7
  6
CONTINUOUS
 66
1
 70
0
  0
VERTEX
  8
2_FEATURE
 62
7
  6
CONTINUOUS
 10
95.9135031572
 20
168.1842095923
  0
VERTEX
  8
2_FEATURE
 62
7
  6
CONTINUOUS
 10
95.8663696156
 20
168.0072151864
  0
VERTEX
  8
2_FEATURE
 62
7
  6
CONTINUOUS
 10
95.849008193
 20
167.8240881027
  0
SEQEND
  0
POLYLINE
  8
0
 62
7
  6
CONTINUOUS
 66
1
 70
0
  0
VERTEX
  8
0
 62
7
  6
CONTINUOUS
 10
102.999008193
 20
170.5262131978
  0
VERTEX
  8
0
 62
7
  6
CONTINUOUS
 10
102.9846050808
 20
170.5119806051
  0
VERTEX
  8
0
 62
7
  6
CONTINUOUS
 10
102.9421387211
 20
170.4987455264
  0
VERTEX
  8
0
 62
7
  6
CONTINUOUS
 10
102.8739274483
 20
170.4872203008
  0
VERTEX
  8
0
 62
7
  6
CONTINUOUS
 10
102.831312313
 20
170.482293077
  0
VERTEX
  8
0
 62
7
  6
CONTINUOUS
 10
102.7321064048
 20
170.4744290387
  0
VERTEX
  8
0
 62
7
  6
CONTINUOUS
 10
102.6191488915
 20
170.4695412043
  0
VERTEX
  8
0
 62
7
  6
CONTINUOUS
 10
102.499008193
 20
170.4678821538
  0
SEQEND
  0
POLYLINE
  8
0
 62
7
  6
CONTINUOUS
 66
1
 70
0
  0
VERTEX
  8
0
 62
7
  6
CONTINUOUS
 10
102.999008193
 20
172.3536704477
  0
VERTEX
  8
0
 62
7
  6
CONTINUOUS
 10
102.9846050808
 20
172.3679030404
  0
VERTEX
  8
0
 62
7
  6
CONTINUOUS
 10
102.9421387211
 20
172.3811381191
  0
VERTEX
  8
0
 62
7
  6
CONTINUOUS
 10
102.8739274483
 20
172.3926633447
  0
VERTEX
  8
0
 62
7
  6
CONTINUOUS
 10
102.831312313
 20
172.3975905685
  0
VERTEX
  8
0
 62
7
  6
CONTINUOUS
 10
102.7321064048
 20
172.4054546069
  0
VERTEX
  8
0
 62
7
  6
CONTINUOUS
 10
102.6191488915
 20
172.4103424413
  0
VERTEX
  8
0
 62
7
  6
CONTINUOUS
 10
102.499008193
 20
172.4120014917
  0
SEQEND
  0
POLYLINE
  8
2_FEATURE
 62
7
  6
CONTINUOUS
 66
1
 70
0
  0
VERTEX
  8
2_FEATURE
 62
7
  6
CONTINUOUS
 10
96.2467985297
 20
168.3096257534
  0
VERTEX
  8
2_FEATURE
 62
7
  6
CONTINUOUS
 10
96.2377784132
 20
168.3654178131
  0
VERTEX
  8
2_FEATURE
 62
7
  6
CONTINUOUS
 10
96.2114989119
 20
168.4147746035
  0
VERTEX
  8
2_FEATURE
 62
7
  6
CONTINUOUS
 10
96.1774203884
 20
168.4444471797
  0
VERTEX
  8
2_FEATURE
 62
7
  6
CONTINUOUS
 10
96.1383603148
 20
168.4555531621
  0
VERTEX
  8
2_FEATURE
 62
7
  6
CONTINUOUS
 10
96.0935624131
 20
168.4465657579
  0
VERTEX
  8
2_FEATURE
 62
7
  6
CONTINUOUS
 10
96.0469038767
 20
168.4153609397
  0
VERTEX
  8
2_FEATURE
 62
7
  6
CONTINUOUS
 10
96.0004014891
 20
168.361727946
  0
VERTEX
  8
2_FEATURE
 62
7
  6
CONTINUOUS
 10
95.9553339074
 20
168.2849803863
  0
VERTEX
  8
2_FEATURE
 62
7
  6
CONTINUOUS
 10
95.9135031572
 20
168.1842095923
  0
SEQEND
  0
LINE
  8
0
 62
7
  6
CONTINUOUS
 10
102.999008193
 20
167.5899418228
 11
102.999008193
 21
175.0899418228
  0
LINE
  8
0
 62
7
  6
CONTINUOUS
 10
103.5527975917
 20
168.5615911787
 11
103.552797238
 21
168.5604846732
  0
LINE
  8
0
 62
7
  6
CONTINUOUS
 10
103.5527956375
 20
168.5604990216
 11
103.5645982046
 21
168.6527316608
  0
POLYLINE
  8
0
 62
7
  6
CONTINUOUS
 66
1
 70
0
  0
VERTEX
  8
0
 62
7
  6
CONTINUOUS
 10
103.5646110396
 20
168.6527759017
  0
VERTEX
  8
0
 62
7
  6
CONTINUOUS
 10
103.568788372
 20
168.6660194443
  0
VERTEX
  8
0
 62
7
  6
CONTINUOUS
 10
103.5825616513
 20
168.6973667294
  0
VERTEX
  8
0
 62
7
  6
CONTINUOUS
 10
103.5985683364
 20
168.7214552497
  0
VERTEX
  8
0
 62
7
  6
CONTINUOUS
 10
103.6175528496
 20
168.7410701333
  0
VERTEX
  8
0
 62
7
  6
CONTINUOUS
 10
103.6290212843
 20
168.7500011582
  0
VERTEX
  8
0
 62
7
  6
CONTINUOUS
 10
103.6588292521
 20
168.7668598587
  0
SEQEND
  0
LINE
  8
0
 62
7
  6
CONTINUOUS
 10
105.649008193
 20
168.7899418228
 11
105.649008193
 21
167.5899418228
  0
LINE
  8
0
 62
7
  6
CONTINUOUS
 10
107.999008193
 20
175.0899418228
 11
107.999008193
 21
173.776293228
  0
LINE
  8
0
 62
7
  6
CONTINUOUS
 10
107.999008193
 20
168.9394263589
 11
107.999008193
 21
167.5899418422
  0
LINE
  8
0
 62
7
  6
CONTINUOUS
 10
108.199008193
 20
169.2899418228
 11
108.199008193
 21
175.0899418228
  0
ARC
  8
0
 62
7
  6
CONTINUOUS
 10
56.999008193
 20
106.2951668794
 40
0.5
 50
180.0
 51
270.0
  0
ARC
  8
0
 62
7
  6
CONTINUOUS
 10
51.799008193
 20
115.6120600982
 40
0.5
 50
180.0
 51
216.8698976458
  0
ARC
  8
0
 62
7
  6
CONTINUOUS
 10
50.999008193
 20
115.0120600982
 40
0.5
 50
0.0
 51
36.8698976458
  0
ARC
  8
0
 62
7
  6
CONTINUOUS
 10
55.9990089552
 20
113.1467979751
 40
0.4999996189
 50
359.9999126621
 51
90.0000873379
  0
ARC
  8
0
 62
7
  6
CONTINUOUS
 10
64.749008193
 20
106.2951668794
 40
0.5
 50
270.0
 51
360.0
  0
ARC
  8
0
 62
7
  6
CONTINUOUS
 10
75.649008193
 20
106.2951668794
 40
0.5
 50
180.0
 51
270.0
  0
ARC
  8
0
 62
7
  6
CONTINUOUS
 10
65.7490074447
 20
113.1467979613
 40
0.4999996258
 50
89.9999142438
 51
180.0000857562
  0
ARC
  8
0
 62
7
  6
CONTINUOUS
 10
74.6490089555
 20
113.1467979754
 40
0.4999996188
 50
359.9999126292
 51
90.0000873708
  0
ARC
  8
0
 62
7
  6
CONTINUOUS
 10
51.799008193
 20
124.6786330908
 40
0.5
 50
146.3320887789
 51
180.0
  0
ARC
  8
0
 62
7
  6
CONTINUOUS
 10
50.999008193
 20
125.2814491668
 40
0.5
 50
326.3320887789
 51
360.0
  0
ARC
  8
0
 62
7
  6
CONTINUOUS
 10
55.949008193
 20
125.9735365458
 40
0.5
 50
180.0
 51
270.0
  0
ARC
  8
0
 62
7
  6
CONTINUOUS
 10
51.999008193
 20
132.8251668794
 40
0.5
 50
90.0
 51
180.0
  0
ARC
  8
0
 62
7
  6
CONTINUOUS
 10
54.949008193
 20
132.8251668794
 40
0.5
 50
0.0
 51
90.0
  0
ARC
  8
0
 62
7
  6
CONTINUOUS
 10
75.299008193
 20
125.9735365458
 40
0.5
 50
180.0
 51
270.0
  0
ARC
  8
0
 62
7
  6
CONTINUOUS
 10
65.099008193
 20
125.9735365458
 40
0.5
 50
270.0
 51
360.0
  0
ARC
  8
0
 62
7
  6
CONTINUOUS
 10
66.099008193
 20
132.8251668794
 40
0.5
 50
90.0
 51
180.0
  0
ARC
  8
0
 62
7
  6
CONTINUOUS
 10
74.299008193
 20
132.8251668794
 40
0.5
 50
0.0
 51
90.0
  0
ARC
  8
0
 62
7
  6
CONTINUOUS
 10
83.849008193
 20
106.2951668794
 40
0.5
 50
270.0
 51
360.0
  0
ARC
  8
0
 62
7
  6
CONTINUOUS
 10
94.749008193
 20
106.2951668794
 40
0.5
 50
180.0
 51
270.0
  0
ARC
  8
0
 62
7
  6
CONTINUOUS
 10
84.8490074447
 20
113.1467979613
 40
0.4999996258
 50
89.9999142438
 51
180.0000857562
  0
ARC
  8
0
 62
7
  6
CONTINUOUS
 10
93.7490089555
 20
113.1467979754
 40
0.4999996188
 50
359.9999126292
 51
90.0000873708
  0
ARC
  8
0
 62
7
  6
CONTINUOUS
 10
102.499008193
 20
106.2951668794
 40
0.5
 50
270.0
 51
360.0
  0
ARC
  8
0
 62
7
  6
CONTINUOUS
 10
107.699008193
 20
115.6120600982
 40
0.5
 50
323.1301023542
 51
360.0
  0
ARC
  8
0
 62
7
  6
CONTINUOUS
 10
108.499008193
 20
115.0120600982
 40
0.5
 50
143.1301023542
 51
180.0
  0
ARC
  8
0
 62
7
  6
CONTINUOUS
 10
103.499008193
 20
113.146797213
 40
0.5
 50
90.0
 51
180.0
  0
ARC
  8
0
 62
7
  6
CONTINUOUS
 10
84.199008193
 20
125.9735365458
 40
0.5
 50
270.0
 51
360.0
  0
ARC
  8
0
 62
7
  6
CONTINUOUS
 10
94.399008193
 20
125.9735365458
 40
0.5
 50
180.0
 51
270.0
  0
ARC
  8
0
 62
7
  6
CONTINUOUS
 10
85.199008193
 20
132.8251668794
 40
0.5
 50
90.0
 51
180.0
  0
ARC
  8
0
 62
7
  6
CONTINUOUS
 10
93.399008193
 20
132.8251668794
 40
0.5
 50
0.0
 51
90.0
  0
ARC
  8
0
 62
7
  6
CONTINUOUS
 10
107.699008193
 20
124.6786330908
 40
0.5
 50
0.0
 51
33.6679112211
  0
ARC
  8
0
 62
7
  6
CONTINUOUS
 10
108.499008193
 20
125.2814491668
 40
0.5
 50
180.0
 51
213.6679112211
  0
ARC
  8
0
 62
7
  6
CONTINUOUS
 10
103.549008193
 20
125.9735365458
 40
0.5
 50
270.0
 51
360.0
  0
ARC
  8
0
 62
7
  6
CONTINUOUS
 10
107.499008193
 20
132.8251668794
 40
0.5
 50
0.0
 51
90.0
  0
ARC
  8
0
 62
7
  6
CONTINUOUS
 10
104.549008193
 20
132.8251668794
 40
0.5
 50
90.0
 51
180.0
  0
ARC
  8
0
 62
7
  6
CONTINUOUS
 10
143.8519189123
 20
115.2167802765
 40
0.5
 50
180.0
 51
270.0
  0
ARC
  8
0
 62
7
  6
CONTINUOUS
 10
146.0019189123
 20
110.0351668794
 40
4.998
 50
48.40371125
 51
64.8527741664
  0
ARC
  8
0
 62
7
  6
CONTINUOUS
 10
146.0019189123
 20
110.0351668794
 40
4.35
 50
180.0
 51
257.0875457171
  0
ARC
  8
0
 62
7
  6
CONTINUOUS
 10
146.0019189123
 20
110.0351668794
 40
4.35
 50
282.9124542829
 51
342.5584061437
  0
ARC
  8
2_FEATURE
 62
7
  6
CONTINUOUS
 10
146.0019189123
 20
110.0351668794
 40
4.35
 50
228.4576627402
 51
228.7580021458
  0
ARC
  8
2_FEATURE
 62
7
  6
CONTINUOUS
 10
146.0019189123
 20
110.0351668794
 40
4.35
 50
210.6260833368
 51
215.7429379776
  0
CIRCLE
  8
2_FEATURE
 62
7
  6
CONTINUOUS
 10
146.0019189123
 20
110.0351668794
 40
2.6
  0
ARC
  8
0
 62
7
  6
CONTINUOUS
 10
146.0019189123
 20
129.0851668794
 40
4.35
 50
102.9124542829
 51
230.2949609465
  0
ARC
  8
0
 62
7
  6
CONTINUOUS
 10
146.0019189123
 20
129.0851668794
 40
4.35
 50
17.4415938563
 51
77.0875457171
  0
ARC
  8
2_FEATURE
 62
7
  6
CONTINUOUS
 10
146.0019189123
 20
129.0851668794
 40
4.35
 50
158.7682331883
 51
160.1386637486
  0
ARC
  8
1_AXIS
 62
7
  6
CONTINUOUS
 10
146.0019189123
 20
129.0851668794
 40
4.35
 50
167.9921339638
 51
171.0975798408
  0
ARC
  8
1_AXIS
 62
7
  6
CONTINUOUS
 10
146.0019189123
 20
129.0851668794
 40
4.35
 50
175.2460614823
 51
178.7486133739
  0
CIRCLE
  8
0
 62
7
  6
CONTINUOUS
 10
146.0019189123
 20
129.0851668794
 40
2.6
  0
ARC
  8
0
 62
7
  6
CONTINUOUS
 10
142.8619189123
 20
125.4019617534
 40
0.49
 50
0.0
 51
49.5517988091
  0
ARC
  8
0
 62
7
  6
CONTINUOUS
 10
147.6590590382
 20
114.2167802765
 40
0.5
 50
68.3819710427
 51
90.0001371857
  0
ARC
  8
0
 62
7
  6
CONTINUOUS
 10
149.6519189123
 20
114.146797213
 40
0.5
 50
228.40371125
 51
360.0
  0
ARC
  8
0
 62
7
  6
CONTINUOUS
 10
51.999008193
 20
167.5899418228
 40
0.5
 50
180.0
 51
270.0
  0
ARC
  8
0
 62
7
  6
CONTINUOUS
 10
51.799008193
 20
169.2899418228
 40
0.5
 50
180.0
 51
270.0
  0
ARC
  8
0
 62
7
  6
CONTINUOUS
 10
64.149008193
 20
167.5899418228
 40
0.5
 50
180.0
 51
270.0
  0
ARC
  8
0
 62
7
  6
CONTINUOUS
 10
64.749008193
 20
167.5899418228
 40
0.5
 50
270.0
 51
360.0
  0
ARC
  8
0
 62
7
  6
CONTINUOUS
 10
55.999008193
 20
168.2899418228
 40
0.5
 50
359.9980653007
 51
26.0912295928
  0
ARC
  8
0
 62
7
  6
CONTINUOUS
 10
73.699008193
 20
167.5899418228
 40
0.5
 50
180.0
 51
270.0
  0
ARC
  8
0
 62
7
  6
CONTINUOUS
 10
75.649008193
 20
167.5899418228
 40
0.5
 50
180.0
 51
270.0
  0
ARC
  8
0
 62
7
  6
CONTINUOUS
 10
66.699008193
 20
167.5899418228
 40
0.5
 50
270.0
 51
360.0
  0
ARC
  8
0
 62
7
  6
CONTINUOUS
 10
54.349008193
 20
167.5899418228
 40
0.5
 50
180.0
 51
270.0
  0
ARC
  8
0
 62
7
  6
CONTINUOUS
 10
56.999008193
 20
167.5899418228
 40
0.5
 50
180.0
 51
270.0
  0
ARC
  8
0
 62
7
  6
CONTINUOUS
 10
64.749008193
 20
175.0899418228
 40
0.5
 50
0.0
 51
90.0
  0
ARC
  8
0
 62
7
  6
CONTINUOUS
 10
51.799008193
 20
175.0899418228
 40
0.5
 50
90.0
 51
180.0
  0
ARC
  8
0
 62
7
  6
CONTINUOUS
 10
51.999008193
 20
175.0899418228
 40
0.5
 50
90.0
 51
180.0
  0
ARC
  8
0
 62
7
  6
CONTINUOUS
 10
75.649008193
 20
175.0899418228
 40
0.5
 50
90.0
 51
180.0
  0
ARC
  8
0
 62
7
  6
CONTINUOUS
 10
56.999008193
 20
175.0899418228
 40
0.5
 50
90.0
 51
180.0
  0
ARC
  8
0
 62
7
  6
CONTINUOUS
 10
95.349008193
 20
167.5899418228
 40
0.5
 50
270.0
 51
360.0
  0
ARC
  8
0
 62
7
  6
CONTINUOUS
 10
94.749008193
 20
167.5899418228
 40
0.5
 50
180.0
 51
270.0
  0
ARC
  8
0
 62
7
  6
CONTINUOUS
 10
92.799008193
 20
167.5899418228
 40
0.5
 50
180.0
 51
270.0
  0
ARC
  8
0
 62
7
  6
CONTINUOUS
 10
85.799008193
 20
167.5899418228
 40
0.5
 50
270.0
 51
360.0
  0
ARC
  8
0
 62
7
  6
CONTINUOUS
 10
83.849008193
 20
167.5899418228
 40
0.5
 50
270.0
 51
360.0
  0
ARC
  8
0
 62
7
  6
CONTINUOUS
 10
107.499008193
 20
167.5899418228
 40
0.5
 50
270.0
 51
360.0
  0
ARC
  8
0
 62
7
  6
CONTINUOUS
 10
103.499008193
 20
168.2899418228
 40
0.5
 50
153.9087749926
 51
180.0
  0
ARC
  8
0
 62
7
  6
CONTINUOUS
 10
102.499008193
 20
167.5899418228
 40
0.5
 50
270.0
 51
360.0
  0
ARC
  8
0
 62
7
  6
CONTINUOUS
 10
105.149008193
 20
167.5899418228
 40
0.5
 50
270.0
 51
360.0
  0
ARC
  8
0
 62
7
  6
CONTINUOUS
 10
107.699008193
 20
169.2899418228
 40
0.5
 50
270.0
 51
360.0
  0
ARC
  8
0
 62
7
  6
CONTINUOUS
 10
83.849008193
 20
175.0899418228
 40
0.5
 50
0.0
 51
90.0
  0
ARC
  8
0
 62
7
  6
CONTINUOUS
 10
94.749008193
 20
175.0899418228
 40
0.5
 50
90.0
 51
180.0
  0
ARC
  8
0
 62
7
  6
CONTINUOUS
 10
107.699008193
 20
175.0899418228
 40
0.5
 50
0.0
 51
90.0
  0
ARC
  8
0
 62
7
  6
CONTINUOUS
 10
107.499008193
 20
175.0899418228
 40
0.5
 50
0.0
 51
90.0
  0
ARC
  8
0
 62
7
  6
CONTINUOUS
 10
102.499008193
 20
175.0899418228
 40
0.5
 50
0.0
 51
90.0
  0
ENDSEC
  0
EOF
