  0
SECTION
  2
HEADER
  9
$EXTMAX
 10
210.0
 20
297.0
 30
0.0
  9
$EXTMIN
 10
0.0
 20
0.0
 30
0.0
  9
$LIMMIN
 10
0.0
 20
0.0
  9
$LIMMAX
 10
210.0
 20
297.0
  9
$VIEWCTR
 10
105.0
 20
148.5
  9
$VIEWSIZE
 40
297.0
  9
$CLAYER
  8
0
  9
$LTSCALE
 40
19.36
  9
$CELTYPE
  6
BYLAYER
  9
$DIMSCALE
 40
1.0
  9
$DIMASZ
 40
3.5
  9
$DIMEXO
 40
1.0
  9
$DIMDLI
 40
13.376
  9
$DIMEXE
 40
2.0
  9
$DIMCEN
 40
3.168
  9
$DIMLFAC
 40
1.0
  9
$DIMBLK
  1
_FILLED
  9
$DIMTXT
 40
3.5
  9
$PDMODE
 70
3
  9
$PDSIZE
 40
0.3125
  9
$TILEMODE
 70
1
  0
ENDSEC
  0
SECTION
  2
TABLES
  0
TABLE
  2
LTYPE
 70
6
  0
LTYPE
  2
BYBLOCK
 70
0
  3

 72
65
 73
0
 40
0.0
  0
LTYPE
  2
BYLAYER
 70
0
  3

 72
65
 73
0
 40
0.0
  0
LTYPE
  2
CONTINUOUS
 70
64
  3
Solid line
 72
65
 73
0
 40
0.0
  0
LTYPE
  2
CENTER
 70
64
  3
____ _ ____ _ ____ _ ____ _ ____ _ ____ _ ____
 72
65
 73
4
 40
0.6
 49
0.375
 49
-0.075
 49
0.075
 49
-0.075
  0
LTYPE
  2
HIDDEN
 70
64
  3
- - - - - - - - - - - - - - - - - - - -
 72
65
 73
2
 40
0.2
 49
0.1
 49
-0.1
  0
LTYPE
  2
PHANTOM
 70
64
  3
_____ _ _ _____ _ _ _____ _ _ _____
 72
65
 73
6
 40
0.8
 49
0.45
 49
-0.05
 49
0.1
 49
-0.05
 49
0.1
 49
-0.05
  0
LTYPE
  2
DOT
 70
64
  3
. . . . . . . . . . . . . . . . . . . .
 72
65
 73
2
 40
0.2
 49
0.1
 49
-0.1
  0
LTYPE
  2
DASHED
 70
64
  3
- - - - - - - - - - - - - - - - - - - -
 72
65
 73
2
 40
0.2
 49
0.1
 49
-0.1
  0
ENDTAB
  0
TABLE
  2
LAYER
 70
36
  0
LAYER
  2
0
 70
0
 62
7
  6
CONTINUOUS
  0
LAYER
  2
DEFAULT_1
 70
0
 62
7
  6
CENTER
  0
LAYER
  2
DEFAULT_2
 70
0
 62
8
  6
HIDDEN
  0
LAYER
  2
DEFAULT_3
 70
0
 62
7
  6
PHANTOM
  0
LAYER
  2
1_AXIS
 70
0
 62
7
  6
CONTINUOUS
  0
LAYER
  2
1_DATUMPLANE
 70
0
 62
7
  6
CONTINUOUS
  0
LAYER
  2
1_DATUM_PLANES
 70
0
 62
7
  6
CONTINUOUS
  0
LAYER
  2
2_FEATURE
 70
0
 62
7
  6
CONTINUOUS
  0
LAYER
  2
3_CURVE
 70
0
 62
7
  6
CONTINUOUS
  0
LAYER
  2
4_QUILT
 70
0
 62
7
  6
CONTINUOUS
  0
LAYER
  2
4_SURFACE
 70
0
 62
7
  6
CONTINUOUS
  0
LAYER
  2
6_DIM
 70
0
 62
7
  6
CONTINUOUS
  0
LAYER
  2
CSYS
 70
0
 62
7
  6
CONTINUOUS
  0
LAYER
  2
CURVE
 70
0
 62
7
  6
CONTINUOUS
  0
LAYER
  2
NOTES
 70
0
 62
7
  6
CONTINUOUS
  0
LAYER
  2
SURFACE
 70
0
 62
7
  6
CONTINUOUS
  0
ENDTAB
  0
TABLE
  2
STYLE
 70
1
  0
STYLE
  2
STANDARD
 70
0
 40
0.0
 41
0.8
 50
0.0
 71
0
 42
0.2
  3
txt
  4

  0
STYLE
  2
TEXTSTYLE_1
 70
0
 40
0.0
 41
0.8
 50
0.0
 71
0
 42
0.2
  3
gdt
  4

  0
STYLE
  2
TEXTSTYLE_2
 70
0
 40
0.0
 41
0.6
 50
0.0
 71
0
 42
0.2
  3
txt
  4

  0
STYLE
  2
TEXTSTYLE_3
 70
0
 40
0.0
 41
1.0
 50
0.0
 71
0
 42
0.2
  3
ftb_____.ttf
  4

  0
STYLE
  2
TEXTSTYLE_4
 70
0
 40
0.0
 41
1.0
 50
0.0
 71
0
 42
0.2
  3
fti_____.ttf
  4

  0
STYLE
  2
TEXTSTYLE_5
 70
0
 40
0.0
 41
1.0
 50
0.0
 71
0
 42
0.2
  3
frutiger light.ttf
  4

  0
STYLE
  2
TEXTSTYLE_6
 70
0
 40
0.0
 41
0.7
 50
0.0
 71
0
 42
0.2
  3
txt
  4

  0
STYLE
  2
TEXTSTYLE_7
 70
0
 40
0.0
 41
0.5
 50
0.0
 71
0
 42
0.2
  3
txt
  4

  0
ENDTAB
  0
ENDSEC
  0
SECTION
  2
BLOCKS
  0
BLOCK
  8
0
 62
2
  6
CONTINUOUS
  2
SYMBOL_8_BL1
 70
64
 10
173.5956734183
 20
35.5937998301
  0
TEXT
  8
0
 62
7
  6
CONTINUOUS
 10
164.6539584268
 20
30.6865562072
  7
TEXTSTYLE_4
 40
1.0655737705
  1
The brand for plastic modular belts and chains
 41
1.0
 72
0
  0
LINE
  8
0
 62
7
  6
CONTINUOUS
 10
149.5737418074
 20
36.1675703219
 11
149.5737418074
 21
34.0364227809
  0
LINE
  8
0
 62
7
  6
CONTINUOUS
 10
149.8628043005
 20
31.0454914852
 11
149.8628043005
 21
31.1422825445
  0
LINE
  8
0
 62
7
  6
CONTINUOUS
 10
149.5737418074
 20
31.1100188581
 11
149.6315543091
 21
30.9164367395
  0
LINE
  8
0
 62
7
  6
CONTINUOUS
 10
150.9671844304
 20
33.9544555678
 11
150.9671844304
 21
36.1675703219
  0
LINE
  8
0
 62
7
  6
CONTINUOUS
 10
151.8862417523
 20
32.1101932727
 11
151.8862417523
 21
30.5937998301
  0
LINE
  8
0
 62
7
  6
CONTINUOUS
 10
152.1753043074
 20
30.5937998301
 11
152.1753043074
 21
31.3358647082
  0
LINE
  8
0
 62
7
  6
CONTINUOUS
 10
152.1753043074
 20
31.4649194539
 11
152.1753043074
 21
32.1101932727
  0
LINE
  8
0
 62
7
  6
CONTINUOUS
 10
149.6315543091
 20
31.3036010218
 11
149.5737418074
 21
31.1100188581
  0
LINE
  8
0
 62
7
  6
CONTINUOUS
 10
149.9784292936
 20
30.8841730531
 11
149.8628043005
 21
31.0454914852
  0
LINE
  8
0
 62
7
  6
CONTINUOUS
 10
151.0768668626
 20
31.400392081
 11
151.1346793074
 21
31.3036010218
  0
LINE
  8
0
 62
7
  6
CONTINUOUS
 10
151.4237418626
 20
31.3036010218
 11
151.3659292523
 21
31.4326557675
  0
LINE
  8
0
 62
7
  6
CONTINUOUS
 10
152.852430332
 20
36.1675703219
 11
152.852430332
 21
34.3642916334
  0
LINE
  8
0
 62
7
  6
CONTINUOUS
 10
152.852430332
 20
33.0528162235
 11
152.852430332
 21
32.3970785186
  0
LINE
  8
0
 62
7
  6
CONTINUOUS
 10
153.2159293074
 20
31.2390736489
 11
153.2159293074
 21
30.5937998301
  0
LINE
  8
0
 62
7
  6
CONTINUOUS
 10
153.5049916972
 20
30.5937998301
 11
153.5049916972
 21
31.2390736489
  0
LINE
  8
0
 62
7
  6
CONTINUOUS
 10
149.8628043005
 20
31.1422825445
 11
149.9206168074
 21
31.2713373354
  0
LINE
  8
0
 62
7
  6
CONTINUOUS
 10
149.6315543091
 20
30.9164367395
 11
149.7471793074
 21
30.7873819712
  0
LINE
  8
0
 62
7
  6
CONTINUOUS
 10
153.1581166972
 20
31.3681283946
 11
153.2159293074
 21
31.2390736489
  0
LINE
  8
0
 62
7
  6
CONTINUOUS
 10
153.9674919177
 20
30.8841730531
 11
154.0253041972
 21
30.7551182848
  0
LINE
  8
0
 62
7
  6
CONTINUOUS
 10
153.5049916972
 20
31.2390736489
 11
153.4471794177
 21
31.400392081
  0
LINE
  8
0
 62
7
  6
CONTINUOUS
 10
153.9674919177
 20
31.4326557675
 11
153.9674919177
 21
31.3681283946
  0
LINE
  8
0
 62
7
  6
CONTINUOUS
 10
153.9674919177
 20
30.9809641124
 11
153.9674919177
 21
30.8841730531
  0
LINE
  8
0
 62
7
  6
CONTINUOUS
 10
154.245872955
 20
32.3970785186
 11
154.245872955
 21
36.1675703219
  0
LINE
  8
0
 62
7
  6
CONTINUOUS
 10
154.2565543074
 20
30.8519093441
 11
154.2565543074
 21
30.9164367395
  0
LINE
  8
0
 62
7
  6
CONTINUOUS
 10
154.5737418074
 20
36.1675703219
 11
154.5737418074
 21
32.3970785186
  0
LINE
  8
0
 62
7
  6
CONTINUOUS
 10
151.3659292523
 20
30.7873819712
 11
151.4237418626
 21
30.9164367395
  0
LINE
  8
0
 62
7
  6
CONTINUOUS
 10
155.759679528
 20
30.6905909007
 11
155.7018665869
 21
30.8519093441
  0
LINE
  8
0
 62
7
  6
CONTINUOUS
 10
155.412804528
 20
31.3681283946
 11
155.412804528
 21
31.2713373354
  0
LINE
  8
0
 62
7
  6
CONTINUOUS
 10
155.412804528
 20
31.1422825445
 11
155.412804528
 21
30.9487004259
  0
LINE
  8
0
 62
7
  6
CONTINUOUS
 10
155.7018665869
 20
30.8519093441
 11
155.7018665869
 21
31.3681283946
  0
LINE
  8
0
 62
7
  6
CONTINUOUS
 10
155.9671844304
 20
32.3970785186
 11
155.9671844304
 21
34.2003572071
  0
LINE
  8
0
 62
7
  6
CONTINUOUS
 10
155.9671844304
 20
35.511832617
 11
155.9671844304
 21
36.1675703219
  0
LINE
  8
0
 62
7
  6
CONTINUOUS
 10
156.279992028
 20
32.1101932727
 11
156.279992028
 21
31.9488748406
  0
LINE
  8
0
 62
7
  6
CONTINUOUS
 10
156.279992028
 20
31.626237886
 11
156.279992028
 21
30.5937998301
  0
LINE
  8
0
 62
7
  6
CONTINUOUS
 10
156.5690540869
 20
30.5937998301
 11
156.5690540869
 21
31.626237886
  0
LINE
  8
0
 62
7
  6
CONTINUOUS
 10
156.5690540869
 20
31.9488748406
 11
156.5690540869
 21
32.1101932727
  0
LINE
  8
0
 62
7
  6
CONTINUOUS
 10
151.1346793074
 20
30.9164367395
 11
151.0768668626
 21
30.8196456577
  0
LINE
  8
0
 62
7
  6
CONTINUOUS
 10
153.4471794177
 20
31.400392081
 11
153.3893668074
 21
31.4649194539
  0
LINE
  8
0
 62
7
  6
CONTINUOUS
 10
154.3143669177
 20
30.7873819712
 11
154.2565543074
 21
30.8519093441
  0
LINE
  8
0
 62
7
  6
CONTINUOUS
 10
155.4706168074
 20
30.6583272086
 11
155.5284290869
 21
30.5937998301
  0
LINE
  8
0
 62
7
  6
CONTINUOUS
 10
155.412804528
 20
30.7551182848
 11
155.4706168074
 21
30.6583272086
  0
LINE
  8
0
 62
7
  6
CONTINUOUS
 10
155.8174918074
 20
30.5937998301
 11
155.759679528
 21
30.6905909007
  0
LINE
  8
0
 62
7
  6
CONTINUOUS
 10
155.7018665869
 20
31.3681283946
 11
155.6440543074
 21
31.4649194539
  0
LINE
  8
0
 62
7
  6
CONTINUOUS
 10
157.0315543074
 20
31.626237886
 11
157.0315543074
 21
30.5937998301
  0
LINE
  8
0
 62
7
  6
CONTINUOUS
 10
157.320617028
 20
30.5937998301
 11
157.320617028
 21
31.3358647082
  0
LINE
  8
0
 62
7
  6
CONTINUOUS
 10
157.320617028
 20
31.4649194539
 11
157.320617028
 21
31.626237886
  0
LINE
  8
0
 62
7
  6
CONTINUOUS
 10
157.852430332
 20
34.6101932727
 11
157.852430332
 21
32.3970785186
  0
LINE
  8
0
 62
7
  6
CONTINUOUS
 10
149.7471793074
 20
31.4326557675
 11
149.6315543091
 21
31.3036010218
  0
LINE
  8
0
 62
7
  6
CONTINUOUS
 10
149.9206168074
 20
31.2713373354
 11
149.9784292936
 21
31.3358647082
  0
LINE
  8
0
 62
7
  6
CONTINUOUS
 10
149.7471793074
 20
30.7873819712
 11
149.8628043005
 21
30.7228545871
  0
LINE
  8
0
 62
7
  6
CONTINUOUS
 10
150.1518667936
 20
30.7873819712
 11
149.9784292936
 21
30.8841730531
  0
LINE
  8
0
 62
7
  6
CONTINUOUS
 10
155.3549915869
 20
31.4326557675
 11
155.412804528
 21
31.3681283946
  0
LINE
  8
0
 62
7
  6
CONTINUOUS
 10
158.3034290869
 20
31.3681283946
 11
158.361242028
 21
31.2068099625
  0
LINE
  8
0
 62
7
  6
CONTINUOUS
 10
158.6503040869
 20
31.2068099625
 11
158.5924918074
 21
31.3681283946
  0
LINE
  8
0
 62
7
  6
CONTINUOUS
 10
158.361242028
 20
31.2068099625
 11
158.361242028
 21
30.5937998301
  0
LINE
  8
0
 62
7
  6
CONTINUOUS
 10
158.6503040869
 20
30.5937998301
 11
158.6503040869
 21
31.2068099625
  0
LINE
  8
0
 62
7
  6
CONTINUOUS
 10
159.1128043074
 20
31.4326557675
 11
159.1128043074
 21
31.3681283946
  0
LINE
  8
0
 62
7
  6
CONTINUOUS
 10
159.245872955
 20
32.3970785186
 11
159.245872955
 21
34.5282260596
  0
LINE
  8
0
 62
7
  6
CONTINUOUS
 10
159.5737418074
 20
36.1675703219
 11
159.5737418074
 21
32.3970785186
  0
LINE
  8
0
 62
7
  6
CONTINUOUS
 10
154.2565543074
 20
30.9164367395
 11
154.3143669177
 21
31.0132277988
  0
LINE
  8
0
 62
7
  6
CONTINUOUS
 10
149.8628043005
 20
30.7228545871
 11
150.0362418212
 21
30.6583272086
  0
LINE
  8
0
 62
7
  6
CONTINUOUS
 10
151.3659292523
 20
31.4326557675
 11
151.1924917523
 21
31.5294468267
  0
LINE
  8
0
 62
7
  6
CONTINUOUS
 10
154.0253041972
 20
30.7551182848
 11
154.1987416972
 21
30.6583272086
  0
LINE
  8
0
 62
7
  6
CONTINUOUS
 10
153.0424918074
 20
31.4326557675
 11
153.1581166972
 21
31.3681283946
  0
LINE
  8
0
 62
7
  6
CONTINUOUS
 10
153.3893668074
 20
31.4649194539
 11
153.2737419177
 21
31.5294468267
  0
LINE
  8
0
 62
7
  6
CONTINUOUS
 10
159.1128043074
 20
30.8519093441
 11
159.228429528
 21
30.7228545871
  0
LINE
  8
0
 62
7
  6
CONTINUOUS
 10
159.4596793074
 20
30.7873819712
 11
159.401867028
 21
30.8519093441
  0
LINE
  8
0
 62
7
  6
CONTINUOUS
 10
159.1128043074
 20
31.3681283946
 11
159.228429528
 21
31.2390736489
  0
LINE
  8
0
 62
7
  6
CONTINUOUS
 10
158.5924918074
 20
31.3681283946
 11
158.534679528
 21
31.4649194539
  0
LINE
  8
0
 62
7
  6
CONTINUOUS
 10
160.9628038663
 20
30.7873819712
 11
160.9628038663
 21
30.8519093441
  0
LINE
  8
0
 62
7
  6
CONTINUOUS
 10
160.9671844304
 20
32.3970785186
 11
160.9671844304
 21
36.1675703219
  0
LINE
  8
0
 62
7
  6
CONTINUOUS
 10
154.0253041972
 20
31.4971831403
 11
153.9674919177
 21
31.4326557675
  0
LINE
  8
0
 62
7
  6
CONTINUOUS
 10
150.9034292799
 20
31.4649194539
 11
151.0768668626
 21
31.400392081
  0
LINE
  8
0
 62
7
  6
CONTINUOUS
 10
155.6440543074
 20
31.4649194539
 11
155.5284290869
 21
31.5294468267
  0
LINE
  8
0
 62
7
  6
CONTINUOUS
 10
159.4596793074
 20
31.3036010218
 11
159.401867028
 21
31.3681283946
  0
LINE
  8
0
 62
7
  6
CONTINUOUS
 10
160.615929528
 20
30.9164367395
 11
160.6737418074
 21
30.8519093441
  0
LINE
  8
0
 62
7
  6
CONTINUOUS
 10
160.9628038663
 20
30.8519093441
 11
160.8471793074
 21
30.9809641124
  0
LINE
  8
0
 62
7
  6
CONTINUOUS
 10
160.615929528
 20
31.4326557675
 11
160.6737418074
 21
31.3681283946
  0
LINE
  8
0
 62
7
  6
CONTINUOUS
 10
160.9628038663
 20
31.3681283946
 11
160.8471793074
 21
31.4971831403
  0
LINE
  8
0
 62
7
  6
CONTINUOUS
 10
154.2565543074
 20
31.3681283946
 11
154.3143669177
 21
31.4326557675
  0
LINE
  8
0
 62
7
  6
CONTINUOUS
 10
154.0831168074
 20
31.1100188581
 11
153.9674919177
 21
30.9809641124
  0
LINE
  8
0
 62
7
  6
CONTINUOUS
 10
155.412804528
 20
30.9487004259
 11
155.3549915869
 21
30.8841730531
  0
LINE
  8
0
 62
7
  6
CONTINUOUS
 10
155.3549915869
 20
30.6905909007
 11
155.412804528
 21
30.7551182848
  0
LINE
  8
0
 62
7
  6
CONTINUOUS
 10
154.1987416972
 20
30.6583272086
 11
154.3143669177
 21
30.6260635193
  0
LINE
  8
0
 62
7
  6
CONTINUOUS
 10
151.1924917523
 20
31.5294468267
 11
150.9612418074
 21
31.5939741996
  0
LINE
  8
0
 62
7
  6
CONTINUOUS
 10
154.5456166972
 20
30.7228545871
 11
154.3143669177
 21
30.7873819712
  0
LINE
  8
0
 62
7
  6
CONTINUOUS
 10
153.2737419177
 20
31.5294468267
 11
153.1003044177
 21
31.5939741996
  0
LINE
  8
0
 62
7
  6
CONTINUOUS
 10
155.5284290869
 20
31.5294468267
 11
155.3549915869
 21
31.5939741996
  0
LINE
  8
0
 62
7
  6
CONTINUOUS
 10
158.187804528
 20
31.4326557675
 11
158.3034290869
 21
31.3681283946
  0
LINE
  8
0
 62
7
  6
CONTINUOUS
 10
158.534679528
 20
31.4649194539
 11
158.4190543074
 21
31.5294468267
  0
LINE
  8
0
 62
7
  6
CONTINUOUS
 10
150.0362418212
 20
30.6583272086
 11
150.2096793212
 21
30.6260635193
  0
LINE
  8
0
 62
7
  6
CONTINUOUS
 10
150.498741835
 20
30.7228545871
 11
150.1518667936
 21
30.7873819712
  0
LINE
  8
0
 62
7
  6
CONTINUOUS
 10
152.9268669177
 20
31.4649194539
 11
153.0424918074
 21
31.4326557675
  0
LINE
  8
0
 62
7
  6
CONTINUOUS
 10
155.239367028
 20
31.4649194539
 11
155.3549915869
 21
31.4326557675
  0
LINE
  8
0
 62
7
  6
CONTINUOUS
 10
159.575304528
 20
30.7551182848
 11
159.4596793074
 21
30.7873819712
  0
LINE
  8
0
 62
7
  6
CONTINUOUS
 10
158.0721793074
 20
31.4649194539
 11
158.187804528
 21
31.4326557675
  0
LINE
  8
0
 62
7
  6
CONTINUOUS
 10
159.228429528
 20
30.7228545871
 11
159.401867028
 21
30.6583272086
  0
LINE
  8
0
 62
7
  6
CONTINUOUS
 10
158.4190543074
 20
31.5294468267
 11
158.2456168074
 21
31.5939741996
  0
LINE
  8
0
 62
7
  6
CONTINUOUS
 10
159.6331168074
 20
31.2390736489
 11
159.4596793074
 21
31.3036010218
  0
LINE
  8
0
 62
7
  6
CONTINUOUS
 10
160.442492028
 20
30.9809641124
 11
160.615929528
 21
30.9164367395
  0
LINE
  8
0
 62
7
  6
CONTINUOUS
 10
160.8471793074
 20
31.4971831403
 11
160.6737418074
 21
31.5617105132
  0
LINE
  8
0
 62
7
  6
CONTINUOUS
 10
159.228429528
 20
31.2390736489
 11
159.4596793074
 21
31.1422825445
  0
LINE
  8
0
 62
7
  6
CONTINUOUS
 10
160.8471793074
 20
30.9809641124
 11
160.615929528
 21
31.0777551716
  0
LINE
  8
0
 62
7
  6
CONTINUOUS
 10
159.401867028
 20
31.3681283946
 11
159.4596793074
 21
31.4326557675
  0
LINE
  8
0
 62
7
  6
CONTINUOUS
 10
149.8628043005
 20
31.4971831403
 11
149.7471793074
 21
31.4326557675
  0
LINE
  8
0
 62
7
  6
CONTINUOUS
 10
149.9784292936
 20
31.3358647082
 11
150.1518667936
 21
31.4326557675
  0
LINE
  8
0
 62
7
  6
CONTINUOUS
 10
152.2909293626
 20
31.5294468267
 11
152.1753043074
 21
31.4649194539
  0
LINE
  8
0
 62
7
  6
CONTINUOUS
 10
152.1753043074
 20
31.3358647082
 11
152.2909293626
 21
31.400392081
  0
LINE
  8
0
 62
7
  6
CONTINUOUS
 10
151.1924917523
 20
30.6905909007
 11
151.3659292523
 21
30.7873819712
  0
LINE
  8
0
 62
7
  6
CONTINUOUS
 10
150.2096793212
 20
30.6260635193
 11
150.5565542799
 21
30.5937998301
  0
LINE
  8
0
 62
7
  6
CONTINUOUS
 10
154.3143669177
 20
30.6260635193
 11
154.5456166972
 21
30.5937998301
  0
LINE
  8
0
 62
7
  6
CONTINUOUS
 10
152.6956168074
 20
31.4971831403
 11
152.9268669177
 21
31.4649194539
  0
LINE
  8
0
 62
7
  6
CONTINUOUS
 10
155.0081169177
 20
31.4971831403
 11
155.239367028
 21
31.4649194539
  0
LINE
  8
0
 62
7
  6
CONTINUOUS
 10
159.4596793074
 20
31.1422825445
 11
160.442492028
 21
30.9809641124
  0
LINE
  8
0
 62
7
  6
CONTINUOUS
 10
160.615929528
 20
31.0777551716
 11
159.6331168074
 21
31.2390736489
  0
LINE
  8
0
 62
7
  6
CONTINUOUS
 10
153.1003044177
 20
31.5939741996
 11
152.9268669177
 21
31.626237886
  0
LINE
  8
0
 62
7
  6
CONTINUOUS
 10
159.401867028
 20
30.6583272086
 11
159.575304528
 21
30.6260635193
  0
LINE
  8
0
 62
7
  6
CONTINUOUS
 10
158.2456168074
 20
31.5939741996
 11
158.0721793074
 21
31.626237886
  0
LINE
  8
0
 62
7
  6
CONTINUOUS
 10
160.5003043074
 20
31.4649194539
 11
160.615929528
 21
31.4326557675
  0
LINE
  8
0
 62
7
  6
CONTINUOUS
 10
160.6737418074
 20
30.8519093441
 11
160.615929528
 21
30.7873819712
  0
LINE
  8
0
 62
7
  6
CONTINUOUS
 10
159.228429528
 20
31.5294468267
 11
159.1128043074
 21
31.4326557675
  0
LINE
  8
0
 62
7
  6
CONTINUOUS
 10
154.1409294177
 20
31.5617105132
 11
154.0253041972
 21
31.4971831403
  0
LINE
  8
0
 62
7
  6
CONTINUOUS
 10
154.1987416972
 20
31.1745462761
 11
154.0831168074
 21
31.1100188581
  0
LINE
  8
0
 62
7
  6
CONTINUOUS
 10
154.3143669177
 20
31.0132277988
 11
154.4299918074
 21
31.0777551716
  0
LINE
  8
0
 62
7
  6
CONTINUOUS
 10
151.8862417523
 20
30.5937998301
 11
152.1753043074
 21
30.5937998301
  0
LINE
  8
0
 62
7
  6
CONTINUOUS
 10
153.2159293074
 20
30.5937998301
 11
153.5049916972
 21
30.5937998301
  0
LINE
  8
0
 62
7
  6
CONTINUOUS
 10
154.5456166972
 20
30.5937998301
 11
154.8924916972
 21
30.5937998301
  0
LINE
  8
0
 62
7
  6
CONTINUOUS
 10
155.5284290869
 20
30.5937998301
 11
155.8174918074
 21
30.5937998301
  0
LINE
  8
0
 62
7
  6
CONTINUOUS
 10
156.279992028
 20
30.5937998301
 11
156.5690540869
 21
30.5937998301
  0
LINE
  8
0
 62
7
  6
CONTINUOUS
 10
157.0315543074
 20
30.5937998301
 11
157.320617028
 21
30.5937998301
  0
LINE
  8
0
 62
7
  6
CONTINUOUS
 10
158.361242028
 20
30.5937998301
 11
158.6503040869
 21
30.5937998301
  0
LINE
  8
0
 62
7
  6
CONTINUOUS
 10
159.922179528
 20
30.5937998301
 11
160.269054528
 21
30.5937998301
  0
LINE
  8
0
 62
7
  6
CONTINUOUS
 10
160.269054528
 20
30.7228545871
 11
159.922179528
 21
30.7228545871
  0
LINE
  8
0
 62
7
  6
CONTINUOUS
 10
154.8924916972
 20
30.7228545871
 11
154.5456166972
 21
30.7228545871
  0
LINE
  8
0
 62
7
  6
CONTINUOUS
 10
159.401867028
 20
30.8519093441
 11
159.1128043074
 21
30.8519093441
  0
LINE
  8
0
 62
7
  6
CONTINUOUS
 10
151.4237418626
 20
30.9164367395
 11
151.1346793074
 21
30.9164367395
  0
LINE
  8
0
 62
7
  6
CONTINUOUS
 10
150.498741835
 20
31.4971831403
 11
150.9034292799
 21
31.4649194539
  0
LINE
  8
0
 62
7
  6
CONTINUOUS
 10
150.9612418074
 20
31.5939741996
 11
150.5565542799
 21
31.626237886
  0
LINE
  8
0
 62
7
  6
CONTINUOUS
 10
159.575304528
 20
30.6260635193
 11
159.922179528
 21
30.5937998301
  0
LINE
  8
0
 62
7
  6
CONTINUOUS
 10
159.922179528
 20
30.7228545871
 11
159.575304528
 21
30.7551182848
  0
LINE
  8
0
 62
7
  6
CONTINUOUS
 10
155.3549915869
 20
31.5939741996
 11
155.0081169177
 21
31.626237886
  0
LINE
  8
0
 62
7
  6
CONTINUOUS
 10
160.1534293074
 20
31.4971831403
 11
160.5003043074
 21
31.4649194539
  0
LINE
  8
0
 62
7
  6
CONTINUOUS
 10
160.5003043074
 20
31.5939741996
 11
160.1534293074
 21
31.626237886
  0
LINE
  8
0
 62
7
  6
CONTINUOUS
 10
157.840929528
 20
31.4971831403
 11
158.0721793074
 21
31.4649194539
  0
LINE
  8
0
 62
7
  6
CONTINUOUS
 10
160.6737418074
 20
31.5617105132
 11
160.5003043074
 21
31.5939741996
  0
LINE
  8
0
 62
7
  6
CONTINUOUS
 10
160.8471793074
 20
30.6905909007
 11
160.9628038663
 21
30.7873819712
  0
LINE
  8
0
 62
7
  6
CONTINUOUS
 10
155.3549915869
 20
30.8841730531
 11
155.1815540869
 21
30.7873819712
  0
LINE
  8
0
 62
7
  6
CONTINUOUS
 10
157.4362415869
 20
31.5294468267
 11
157.320617028
 21
31.4649194539
  0
LINE
  8
0
 62
7
  6
CONTINUOUS
 10
157.320617028
 20
31.3358647082
 11
157.4362415869
 21
31.400392081
  0
LINE
  8
0
 62
7
  6
CONTINUOUS
 10
150.0362418212
 20
31.5617105132
 11
149.8628043005
 21
31.4971831403
  0
LINE
  8
0
 62
7
  6
CONTINUOUS
 10
152.4643666972
 20
31.5939741996
 11
152.2909293626
 21
31.5294468267
  0
LINE
  8
0
 62
7
  6
CONTINUOUS
 10
152.2909293626
 20
31.400392081
 11
152.4643666972
 21
31.4649194539
  0
LINE
  8
0
 62
7
  6
CONTINUOUS
 10
151.0768668626
 20
30.8196456577
 11
150.9034292799
 21
30.7551182848
  0
LINE
  8
0
 62
7
  6
CONTINUOUS
 10
160.5003043074
 20
30.7551182848
 11
160.269054528
 21
30.7228545871
  0
LINE
  8
0
 62
7
  6
CONTINUOUS
 10
154.8924916972
 20
30.5937998301
 11
155.1815540869
 21
30.6260635193
  0
LINE
  8
0
 62
7
  6
CONTINUOUS
 10
160.269054528
 20
30.5937998301
 11
160.615929528
 21
30.6260635193
  0
LINE
  8
0
 62
7
  6
CONTINUOUS
 10
150.5565542799
 20
30.5937998301
 11
150.9612418074
 21
30.6260635193
  0
LINE
  8
0
 62
7
  6
CONTINUOUS
 10
150.9034292799
 20
30.7551182848
 11
150.498741835
 21
30.7228545871
  0
LINE
  8
0
 62
7
  6
CONTINUOUS
 10
154.7768668074
 20
31.1422825445
 11
155.412804528
 21
31.1422825445
  0
LINE
  8
0
 62
7
  6
CONTINUOUS
 10
155.412804528
 20
31.2713373354
 11
154.7768668074
 21
31.2713373354
  0
LINE
  8
0
 62
7
  6
CONTINUOUS
 10
151.1346793074
 20
31.3036010218
 11
151.4237418626
 21
31.3036010218
  0
LINE
  8
0
 62
7
  6
CONTINUOUS
 10
153.9674919177
 20
31.3681283946
 11
154.2565543074
 21
31.3681283946
  0
LINE
  8
0
 62
7
  6
CONTINUOUS
 10
160.6737418074
 20
31.3681283946
 11
160.9628038663
 21
31.3681283946
  0
LINE
  8
0
 62
7
  6
CONTINUOUS
 10
154.6612419177
 20
31.4971831403
 11
155.0081169177
 21
31.4971831403
  0
LINE
  8
0
 62
7
  6
CONTINUOUS
 10
159.8065543074
 20
31.4971831403
 11
160.1534293074
 21
31.4971831403
  0
LINE
  8
0
 62
7
  6
CONTINUOUS
 10
160.1534293074
 20
31.626237886
 11
159.8065543074
 21
31.626237886
  0
LINE
  8
0
 62
7
  6
CONTINUOUS
 10
158.0721793074
 20
31.626237886
 11
157.840929528
 21
31.626237886
  0
LINE
  8
0
 62
7
  6
CONTINUOUS
 10
157.320617028
 20
31.626237886
 11
157.0315543074
 21
31.626237886
  0
LINE
  8
0
 62
7
  6
CONTINUOUS
 10
156.5690540869
 20
31.626237886
 11
156.279992028
 21
31.626237886
  0
LINE
  8
0
 62
7
  6
CONTINUOUS
 10
155.0081169177
 20
31.626237886
 11
154.6612419177
 21
31.626237886
  0
LINE
  8
0
 62
7
  6
CONTINUOUS
 10
152.9268669177
 20
31.626237886
 11
152.6956168074
 21
31.626237886
  0
LINE
  8
0
 62
7
  6
CONTINUOUS
 10
156.279992028
 20
31.9488748406
 11
156.5690540869
 21
31.9488748406
  0
LINE
  8
0
 62
7
  6
CONTINUOUS
 10
156.5690540869
 20
32.1101932727
 11
156.279992028
 21
32.1101932727
  0
LINE
  8
0
 62
7
  6
CONTINUOUS
 10
152.1753043074
 20
32.1101932727
 11
151.8862417523
 21
32.1101932727
  0
LINE
  8
0
 62
7
  6
CONTINUOUS
 10
151.2130860697
 20
32.3970785186
 11
151.6256574183
 21
32.3970785186
  0
LINE
  8
0
 62
7
  6
CONTINUOUS
 10
152.852430332
 20
32.3970785186
 11
154.245872955
 21
32.3970785186
  0
LINE
  8
0
 62
7
  6
CONTINUOUS
 10
154.5737418074
 20
32.3970785186
 11
155.9671844304
 21
32.3970785186
  0
LINE
  8
0
 62
7
  6
CONTINUOUS
 10
157.852430332
 20
32.3970785186
 11
159.245872955
 21
32.3970785186
  0
LINE
  8
0
 62
7
  6
CONTINUOUS
 10
159.5737418074
 20
32.3970785186
 11
160.9671844304
 21
32.3970785186
  0
LINE
  8
0
 62
7
  6
CONTINUOUS
 10
157.6096790869
 20
31.5939741996
 11
157.4362415869
 21
31.5294468267
  0
LINE
  8
0
 62
7
  6
CONTINUOUS
 10
155.1815540869
 20
30.6260635193
 11
155.3549915869
 21
30.6905909007
  0
LINE
  8
0
 62
7
  6
CONTINUOUS
 10
160.615929528
 20
30.6260635193
 11
160.8471793074
 21
30.6905909007
  0
LINE
  8
0
 62
7
  6
CONTINUOUS
 10
160.615929528
 20
30.7873819712
 11
160.5003043074
 21
30.7551182848
  0
LINE
  8
0
 62
7
  6
CONTINUOUS
 10
159.575304528
 20
31.4649194539
 11
159.8065543074
 21
31.4971831403
  0
LINE
  8
0
 62
7
  6
CONTINUOUS
 10
157.6096790869
 20
31.4649194539
 11
157.840929528
 21
31.4971831403
  0
LINE
  8
0
 62
7
  6
CONTINUOUS
 10
154.5456166972
 20
31.1100188581
 11
154.7768668074
 21
31.1422825445
  0
LINE
  8
0
 62
7
  6
CONTINUOUS
 10
157.840929528
 20
31.626237886
 11
157.6096790869
 21
31.5939741996
  0
LINE
  8
0
 62
7
  6
CONTINUOUS
 10
154.4299918074
 20
31.4649194539
 11
154.6612419177
 21
31.4971831403
  0
LINE
  8
0
 62
7
  6
CONTINUOUS
 10
159.8065543074
 20
31.626237886
 11
159.4596793074
 21
31.5939741996
  0
LINE
  8
0
 62
7
  6
CONTINUOUS
 10
154.7768668074
 20
31.2713373354
 11
154.4299918074
 21
31.2390736489
  0
LINE
  8
0
 62
7
  6
CONTINUOUS
 10
150.5565542799
 20
31.626237886
 11
150.2096793212
 21
31.5939741996
  0
LINE
  8
0
 62
7
  6
CONTINUOUS
 10
154.6612419177
 20
31.626237886
 11
154.2565543074
 21
31.5939741996
  0
LINE
  8
0
 62
7
  6
CONTINUOUS
 10
152.0327582009
 20
33.5446195022
 11
151.3770204959
 21
33.5446195022
  0
LINE
  8
0
 62
7
  6
CONTINUOUS
 10
157.4362415869
 20
31.400392081
 11
157.6096790869
 21
31.4649194539
  0
LINE
  8
0
 62
7
  6
CONTINUOUS
 10
159.4596793074
 20
31.4326557675
 11
159.575304528
 21
31.4649194539
  0
LINE
  8
0
 62
7
  6
CONTINUOUS
 10
159.4596793074
 20
31.5939741996
 11
159.228429528
 21
31.5294468267
  0
LINE
  8
0
 62
7
  6
CONTINUOUS
 10
155.1815540869
 20
30.7873819712
 11
154.8924916972
 21
30.7228545871
  0
LINE
  8
0
 62
7
  6
CONTINUOUS
 10
152.4643666972
 20
31.4649194539
 11
152.6956168074
 21
31.4971831403
  0
LINE
  8
0
 62
7
  6
CONTINUOUS
 10
152.6956168074
 20
31.626237886
 11
152.4643666972
 21
31.5939741996
  0
LINE
  8
0
 62
7
  6
CONTINUOUS
 10
150.2674918074
 20
31.4649194539
 11
150.498741835
 21
31.4971831403
  0
LINE
  8
0
 62
7
  6
CONTINUOUS
 10
156.7868565615
 20
35.0200293383
 11
157.4425942664
 21
35.0200293383
  0
LINE
  8
0
 62
7
  6
CONTINUOUS
 10
154.4299918074
 20
31.0777551716
 11
154.5456166972
 21
31.1100188581
  0
LINE
  8
0
 62
7
  6
CONTINUOUS
 10
154.4299918074
 20
31.2390736489
 11
154.1987416972
 21
31.1745462761
  0
LINE
  8
0
 62
7
  6
CONTINUOUS
 10
154.3143669177
 20
31.4326557675
 11
154.4299918074
 21
31.4649194539
  0
LINE
  8
0
 62
7
  6
CONTINUOUS
 10
150.9612418074
 20
30.6260635193
 11
151.1924917523
 21
30.6905909007
  0
LINE
  8
0
 62
7
  6
CONTINUOUS
 10
154.2565543074
 20
31.5939741996
 11
154.1409294177
 21
31.5617105132
  0
LINE
  8
0
 62
7
  6
CONTINUOUS
 10
150.2096793212
 20
31.5939741996
 11
150.0362418212
 21
31.5617105132
  0
LINE
  8
0
 62
7
  6
CONTINUOUS
 10
160.9671844304
 20
36.1675703219
 11
159.5737418074
 21
36.1675703219
  0
LINE
  8
0
 62
7
  6
CONTINUOUS
 10
157.6065286927
 20
36.1675703219
 11
157.1939573441
 21
36.1675703219
  0
LINE
  8
0
 62
7
  6
CONTINUOUS
 10
155.9671844304
 20
36.1675703219
 11
154.5737418074
 21
36.1675703219
  0
LINE
  8
0
 62
7
  6
CONTINUOUS
 10
154.245872955
 20
36.1675703219
 11
152.852430332
 21
36.1675703219
  0
LINE
  8
0
 62
7
  6
CONTINUOUS
 10
150.9671844304
 20
36.1675703219
 11
149.5737418074
 21
36.1675703219
  0
LINE
  8
0
 62
7
  6
CONTINUOUS
 10
150.1518667936
 20
31.4326557675
 11
150.2674918074
 21
31.4649194539
  0
CIRCLE
  8
0
 62
7
  6
CONTINUOUS
 10
160.2704631189
 20
38.5036358957
 40
2.0901639344
  0
ARC
  8
0
 62
7
  6
CONTINUOUS
 10
151.2130860697
 20
34.0364227809
 40
1.6393442623
 50
180.0
 51
270.0
  0
ARC
  8
0
 62
7
  6
CONTINUOUS
 10
157.6065286927
 20
34.5282260596
 40
1.6393442623
 50
0.0
 51
90.0
  0
ARC
  8
0
 62
7
  6
CONTINUOUS
 10
151.6256574183
 20
33.8724883547
 40
1.4754098361
 50
270.0
 51
326.2510114041
  0
ARC
  8
0
 62
7
  6
CONTINUOUS
 10
157.1939573441
 20
34.6921604858
 40
1.4754098361
 50
90.0
 51
146.2510114041
  0
ARC
  8
0
 62
7
  6
CONTINUOUS
 10
152.0327582009
 20
34.3642916334
 40
0.8196721311
 50
270.0
 51
360.0
  0
ARC
  8
0
 62
7
  6
CONTINUOUS
 10
156.7868565615
 20
34.2003572071
 40
0.8196721311
 50
90.0
 51
180.0
  0
ARC
  8
0
 62
7
  6
CONTINUOUS
 10
151.3770204959
 20
33.9544555678
 40
0.4098360656
 50
180.0
 51
270.0
  0
ARC
  8
0
 62
7
  6
CONTINUOUS
 10
157.4425942664
 20
34.6101932727
 40
0.4098360656
 50
0.0
 51
90.0
  0
SOLID
  8
0
 62
7
  6
CONTINUOUS
 10
156.279992028
 20
31.9488752009
 11
156.279992028
 21
32.1101936845
 12
156.5690540869
 22
31.9488752009
 13
156.5690540869
 23
32.1101936845
  0
SOLID
  8
0
 62
7
  6
CONTINUOUS
 10
150.5565542799
 20
31.6262382337
 11
150.9612418074
 21
31.5939740028
 12
150.2096793212
 22
31.5939740028
 13
150.2096793212
 23
31.5939740028
  0
SOLID
  8
0
 62
7
  6
CONTINUOUS
 10
150.0362418212
 20
31.5617111435
 11
150.2096793212
 21
31.5939740028
 12
150.9612418074
 22
31.5939740028
 13
150.9612418074
 23
31.5939740028
  0
SOLID
  8
0
 62
7
  6
CONTINUOUS
 10
150.9612418074
 20
31.5939740028
 11
151.1924917523
 21
31.5294468402
 12
150.0362418212
 22
31.5617111435
 13
150.0362418212
 23
31.5617111435
  0
SOLID
  8
0
 62
7
  6
CONTINUOUS
 10
149.8628043005
 20
31.49718259
 11
150.0362418212
 21
31.5617111435
 12
151.1924917523
 22
31.5294468402
 13
151.1924917523
 23
31.5294468402
  0
SOLID
  8
0
 62
7
  6
CONTINUOUS
 10
149.8628043005
 20
31.49718259
 11
151.1924917523
 21
31.5294468402
 12
150.498741835
 22
31.49718259
 13
150.498741835
 23
31.49718259
  0
SOLID
  8
0
 62
7
  6
CONTINUOUS
 10
150.498741835
 20
31.49718259
 11
151.1924917523
 21
31.5294468402
 12
150.9034292799
 22
31.4649197501
 13
150.9034292799
 23
31.4649197501
  0
SOLID
  8
0
 62
7
  6
CONTINUOUS
 10
151.1924917523
 20
31.5294468402
 11
151.3659292523
 21
31.4326554468
 12
150.9034292799
 22
31.4649197501
 13
150.9034292799
 23
31.4649197501
  0
SOLID
  8
0
 62
7
  6
CONTINUOUS
 10
151.0768668626
 20
31.4003926599
 11
150.9034292799
 21
31.4649197501
 12
151.3659292523
 22
31.4326554468
 13
151.3659292523
 23
31.4326554468
  0
SOLID
  8
0
 62
7
  6
CONTINUOUS
 10
151.0768668626
 20
31.4003926599
 11
151.3659292523
 21
31.4326554468
 12
151.1346793074
 22
31.3036013776
 13
151.1346793074
 23
31.3036013776
  0
SOLID
  8
0
 62
7
  6
CONTINUOUS
 10
151.3659292523
 20
31.4326554468
 11
151.4237418626
 21
31.3036013776
 12
151.1346793074
 22
31.3036013776
 13
151.1346793074
 23
31.3036013776
  0
SOLID
  8
0
 62
7
  6
CONTINUOUS
 10
152.4643666972
 20
31.5939739754
 11
152.6956168074
 21
31.6262382787
 12
152.9268669177
 22
31.6262382787
 13
152.9268669177
 23
31.6262382787
  0
SOLID
  8
0
 62
7
  6
CONTINUOUS
 10
152.9268669177
 20
31.6262382787
 11
153.1003044177
 21
31.5939739754
 12
152.4643666972
 22
31.5939739754
 13
152.4643666972
 23
31.5939739754
  0
SOLID
  8
0
 62
7
  6
CONTINUOUS
 10
152.2909293626
 20
31.5294468852
 11
152.4643666972
 21
31.5939739754
 12
153.1003044177
 22
31.5939739754
 13
153.1003044177
 23
31.5939739754
  0
SOLID
  8
0
 62
7
  6
CONTINUOUS
 10
153.1003044177
 20
31.5939739754
 11
153.2737419177
 21
31.5294468852
 12
152.2909293626
 22
31.5294468852
 13
152.2909293626
 23
31.5294468852
  0
SOLID
  8
0
 62
7
  6
CONTINUOUS
 10
153.2737419177
 20
31.5294468852
 11
152.6956168074
 21
31.4971825369
 12
152.2909293626
 22
31.5294468852
 13
152.2909293626
 23
31.5294468852
  0
SOLID
  8
0
 62
7
  6
CONTINUOUS
 10
152.1753043074
 20
31.4649197951
 11
152.2909293626
 21
31.5294468852
 12
152.6956168074
 22
31.4971825369
 13
152.6956168074
 23
31.4971825369
  0
SOLID
  8
0
 62
7
  6
CONTINUOUS
 10
152.6956168074
 20
31.4971825369
 11
152.4643666972
 21
31.4649197951
 12
152.1753043074
 22
31.4649197951
 13
152.1753043074
 23
31.4649197951
  0
SOLID
  8
0
 62
7
  6
CONTINUOUS
 10
152.6956168074
 20
31.4971825369
 11
153.2737419177
 21
31.5294468852
 12
152.9268669177
 22
31.4649197951
 13
152.9268669177
 23
31.4649197951
  0
SOLID
  8
0
 62
7
  6
CONTINUOUS
 10
153.2737419177
 20
31.5294468852
 11
153.3893668074
 21
31.4649197951
 12
152.9268669177
 22
31.4649197951
 13
152.9268669177
 23
31.4649197951
  0
SOLID
  8
0
 62
7
  6
CONTINUOUS
 10
153.0424918074
 20
31.4326554468
 11
152.9268669177
 21
31.4649197951
 12
153.3893668074
 22
31.4649197951
 13
153.3893668074
 23
31.4649197951
  0
SOLID
  8
0
 62
7
  6
CONTINUOUS
 10
153.3893668074
 20
31.4649197951
 11
153.4471794177
 21
31.4003927049
 12
153.0424918074
 22
31.4326554468
 13
153.0424918074
 23
31.4326554468
  0
SOLID
  8
0
 62
7
  6
CONTINUOUS
 10
153.1581166972
 20
31.3681283566
 11
153.0424918074
 21
31.4326554468
 12
153.4471794177
 22
31.4003927049
 13
153.4471794177
 23
31.4003927049
  0
SOLID
  8
0
 62
7
  6
CONTINUOUS
 10
153.1581166972
 20
31.3681283566
 11
153.4471794177
 21
31.4003927049
 12
153.2159293074
 22
31.2390742213
 13
153.2159293074
 23
31.2390742213
  0
SOLID
  8
0
 62
7
  6
CONTINUOUS
 10
153.4471794177
 20
31.4003927049
 11
153.5049916972
 21
31.2390742213
 12
153.2159293074
 22
31.2390742213
 13
153.2159293074
 23
31.2390742213
  0
SOLID
  8
0
 62
7
  6
CONTINUOUS
 10
152.4643666972
 20
31.4649197951
 11
152.2909293626
 21
31.4003927049
 12
152.1753043074
 22
31.4649197951
 13
152.1753043074
 23
31.4649197951
  0
SOLID
  8
0
 62
7
  6
CONTINUOUS
 10
152.2909293626
 20
31.4003927049
 11
152.1753043074
 21
31.3358640533
 12
152.1753043074
 22
31.4649197951
 13
152.1753043074
 23
31.4649197951
  0
SOLID
  8
0
 62
7
  6
CONTINUOUS
 10
152.1753043074
 20
31.3358640533
 11
151.8862417523
 21
30.5938002869
 12
152.1753043074
 22
31.4649197951
 13
152.1753043074
 23
31.4649197951
  0
SOLID
  8
0
 62
7
  6
CONTINUOUS
 10
152.1753043074
 20
31.4649197951
 11
151.8862417523
 21
30.5938002869
 12
152.1753043074
 22
32.1101937295
 13
152.1753043074
 23
32.1101937295
  0
SOLID
  8
0
 62
7
  6
CONTINUOUS
 10
151.8862417523
 20
30.5938002869
 11
151.8862417523
 21
32.1101937295
 12
152.1753043074
 22
32.1101937295
 13
152.1753043074
 23
32.1101937295
  0
SOLID
  8
0
 62
7
  6
CONTINUOUS
 10
152.1753043074
 20
31.3358640533
 11
152.1753043074
 21
30.5938002869
 12
151.8862417523
 22
30.5938002869
 13
151.8862417523
 23
30.5938002869
  0
SOLID
  8
0
 62
7
  6
CONTINUOUS
 10
153.2159293074
 20
30.5938002869
 11
153.2159293074
 21
31.2390742213
 12
153.5049916972
 22
31.2390742213
 13
153.5049916972
 23
31.2390742213
  0
SOLID
  8
0
 62
7
  6
CONTINUOUS
 10
153.5049916972
 20
31.2390742213
 11
153.5049916972
 21
30.5938002869
 12
153.2159293074
 22
30.5938002869
 13
153.2159293074
 23
30.5938002869
  0
SOLID
  8
0
 62
7
  6
CONTINUOUS
 10
154.2565543074
 20
31.5939738288
 11
154.6612419177
 21
31.6262385959
 12
155.0081169177
 22
31.6262385959
 13
155.0081169177
 23
31.6262385959
  0
SOLID
  8
0
 62
7
  6
CONTINUOUS
 10
155.0081169177
 20
31.6262385959
 11
155.3549915869
 21
31.5939738288
 12
154.2565543074
 22
31.5939738288
 13
154.2565543074
 23
31.5939738288
  0
SOLID
  8
0
 62
7
  6
CONTINUOUS
 10
154.1409294177
 20
31.5617111435
 11
154.2565543074
 21
31.5939738288
 12
155.3549915869
 22
31.5939738288
 13
155.3549915869
 23
31.5939738288
  0
SOLID
  8
0
 62
7
  6
CONTINUOUS
 10
155.3549915869
 20
31.5939738288
 11
155.5284290869
 21
31.5294468402
 12
154.1409294177
 22
31.5617111435
 13
154.1409294177
 23
31.5617111435
  0
SOLID
  8
0
 62
7
  6
CONTINUOUS
 10
154.0253041972
 20
31.4971826249
 11
154.1409294177
 21
31.5617111435
 12
155.5284290869
 22
31.5294468402
 13
155.5284290869
 23
31.5294468402
  0
SOLID
  8
0
 62
7
  6
CONTINUOUS
 10
154.0253041972
 20
31.4971826249
 11
155.5284290869
 21
31.5294468402
 12
154.6612419177
 22
31.4971826249
 13
154.6612419177
 23
31.4971826249
  0
SOLID
  8
0
 62
7
  6
CONTINUOUS
 10
154.6612419177
 20
31.4971826249
 11
155.5284290869
 21
31.5294468402
 12
155.0081169177
 22
31.4971826249
 13
155.0081169177
 23
31.4971826249
  0
SOLID
  8
0
 62
7
  6
CONTINUOUS
 10
155.0081169177
 20
31.4971826249
 11
155.5284290869
 21
31.5294468402
 12
155.239367028
 22
31.4649194065
 13
155.239367028
 23
31.4649194065
  0
SOLID
  8
0
 62
7
  6
CONTINUOUS
 10
155.5284290869
 20
31.5294468402
 11
155.6440543074
 21
31.4649194065
 12
155.239367028
 22
31.4649194065
 13
155.239367028
 23
31.4649194065
  0
SOLID
  8
0
 62
7
  6
CONTINUOUS
 10
153.9674919177
 20
31.4326554138
 11
154.0253041972
 21
31.4971826249
 12
154.6612419177
 22
31.4971826249
 13
154.6612419177
 23
31.4971826249
  0
SOLID
  8
0
 62
7
  6
CONTINUOUS
 10
155.3549915869
 20
31.4326554138
 11
155.239367028
 21
31.4649194065
 12
155.6440543074
 22
31.4649194065
 13
155.6440543074
 23
31.4649194065
  0
SOLID
  8
0
 62
7
  6
CONTINUOUS
 10
155.3549915869
 20
31.4326554138
 11
155.6440543074
 21
31.4649194065
 12
155.412804528
 22
31.3681282026
 13
155.412804528
 23
31.3681282026
  0
SOLID
  8
0
 62
7
  6
CONTINUOUS
 10
155.6440543074
 20
31.4649194065
 11
155.7018665869
 21
31.3681282026
 12
155.412804528
 22
31.3681282026
 13
155.412804528
 23
31.3681282026
  0
SOLID
  8
0
 62
7
  6
CONTINUOUS
 10
155.412804528
 20
31.2713369632
 11
155.412804528
 21
31.3681282026
 12
155.7018665869
 22
31.3681282026
 13
155.7018665869
 23
31.3681282026
  0
SOLID
  8
0
 62
7
  6
CONTINUOUS
 10
155.412804528
 20
31.2713369632
 11
155.7018665869
 21
31.3681282026
 12
155.412804528
 22
31.1422827828
 13
155.412804528
 23
31.1422827828
  0
SOLID
  8
0
 62
7
  6
CONTINUOUS
 10
155.412804528
 20
31.1422827828
 11
155.7018665869
 21
31.3681282026
 12
155.412804528
 22
30.9487004259
 13
155.412804528
 23
30.9487004259
  0
SOLID
  8
0
 62
7
  6
CONTINUOUS
 10
155.7018665869
 20
31.3681282026
 11
155.7018665869
 21
30.8519086025
 12
155.412804528
 22
30.9487004259
 13
155.412804528
 23
30.9487004259
  0
SOLID
  8
0
 62
7
  6
CONTINUOUS
 10
157.6096790869
 20
31.5939736268
 11
157.840929528
 21
31.6262383465
 12
158.0721793074
 22
31.6262383465
 13
158.0721793074
 23
31.6262383465
  0
SOLID
  8
0
 62
7
  6
CONTINUOUS
 10
158.0721793074
 20
31.6262383465
 11
158.2456168074
 21
31.5939736268
 12
157.6096790869
 22
31.5939736268
 13
157.6096790869
 23
31.5939736268
  0
SOLID
  8
0
 62
7
  6
CONTINUOUS
 10
157.4362415869
 20
31.5294472848
 11
157.6096790869
 21
31.5939736268
 12
158.2456168074
 22
31.5939736268
 13
158.2456168074
 23
31.5939736268
  0
SOLID
  8
0
 62
7
  6
CONTINUOUS
 10
158.2456168074
 20
31.5939736268
 11
158.4190543074
 21
31.5294472848
 12
157.4362415869
 22
31.5294472848
 13
157.4362415869
 23
31.5294472848
  0
SOLID
  8
0
 62
7
  6
CONTINUOUS
 10
158.4190543074
 20
31.5294472848
 11
157.840929528
 21
31.4971825369
 12
157.4362415869
 22
31.5294472848
 13
157.4362415869
 23
31.5294472848
  0
SOLID
  8
0
 62
7
  6
CONTINUOUS
 10
157.320617028
 20
31.4649199103
 11
157.4362415869
 21
31.5294472848
 12
157.840929528
 22
31.4971825369
 13
157.840929528
 23
31.4971825369
  0
SOLID
  8
0
 62
7
  6
CONTINUOUS
 10
157.840929528
 20
31.4971825369
 11
157.6096790869
 21
31.4649199103
 12
157.320617028
 22
31.4649199103
 13
157.320617028
 23
31.4649199103
  0
SOLID
  8
0
 62
7
  6
CONTINUOUS
 10
157.840929528
 20
31.4971825369
 11
158.4190543074
 21
31.5294472848
 12
158.0721793074
 22
31.4649199103
 13
158.0721793074
 23
31.4649199103
  0
SOLID
  8
0
 62
7
  6
CONTINUOUS
 10
158.4190543074
 20
31.5294472848
 11
158.534679528
 21
31.4649199103
 12
158.0721793074
 22
31.4649199103
 13
158.0721793074
 23
31.4649199103
  0
SOLID
  8
0
 62
7
  6
CONTINUOUS
 10
158.187804528
 20
31.4326554468
 11
158.0721793074
 21
31.4649199103
 12
158.534679528
 22
31.4649199103
 13
158.534679528
 23
31.4649199103
  0
SOLID
  8
0
 62
7
  6
CONTINUOUS
 10
158.187804528
 20
31.4326554468
 11
158.534679528
 21
31.4649199103
 12
158.3034290869
 22
31.3681288486
 13
158.3034290869
 23
31.3681288486
  0
SOLID
  8
0
 62
7
  6
CONTINUOUS
 10
158.534679528
 20
31.4649199103
 11
158.5924918074
 21
31.3681288486
 12
158.3034290869
 22
31.3681288486
 13
158.3034290869
 23
31.3681288486
  0
SOLID
  8
0
 62
7
  6
CONTINUOUS
 10
158.361242028
 20
31.2068093799
 11
158.3034290869
 21
31.3681288486
 12
158.5924918074
 22
31.3681288486
 13
158.5924918074
 23
31.3681288486
  0
SOLID
  8
0
 62
7
  6
CONTINUOUS
 10
158.5924918074
 20
31.3681288486
 11
158.6503040869
 21
31.2068093799
 12
158.361242028
 22
31.2068093799
 13
158.361242028
 23
31.2068093799
  0
SOLID
  8
0
 62
7
  6
CONTINUOUS
 10
157.6096790869
 20
31.4649199103
 11
157.4362415869
 21
31.4003926599
 12
157.320617028
 22
31.4649199103
 13
157.320617028
 23
31.4649199103
  0
SOLID
  8
0
 62
7
  6
CONTINUOUS
 10
157.4362415869
 20
31.4003926599
 11
157.320617028
 21
31.3358640533
 12
157.320617028
 22
31.4649199103
 13
157.320617028
 23
31.4649199103
  0
SOLID
  8
0
 62
7
  6
CONTINUOUS
 10
157.320617028
 20
31.3358640533
 11
157.0315543074
 21
30.5938003547
 12
157.320617028
 22
31.4649199103
 13
157.320617028
 23
31.4649199103
  0
SOLID
  8
0
 62
7
  6
CONTINUOUS
 10
157.320617028
 20
31.4649199103
 11
157.0315543074
 21
30.5938003547
 12
157.320617028
 22
31.6262383465
 13
157.320617028
 23
31.6262383465
  0
SOLID
  8
0
 62
7
  6
CONTINUOUS
 10
157.0315543074
 20
30.5938003547
 11
157.0315543074
 21
31.6262383465
 12
157.320617028
 22
31.6262383465
 13
157.320617028
 23
31.6262383465
  0
SOLID
  8
0
 62
7
  6
CONTINUOUS
 10
157.320617028
 20
31.3358640533
 11
157.320617028
 21
30.5938003547
 12
157.0315543074
 22
30.5938003547
 13
157.0315543074
 23
30.5938003547
  0
SOLID
  8
0
 62
7
  6
CONTINUOUS
 10
158.361242028
 20
30.5938003547
 11
158.361242028
 21
31.2068093799
 12
158.6503040869
 22
31.2068093799
 13
158.6503040869
 23
31.2068093799
  0
SOLID
  8
0
 62
7
  6
CONTINUOUS
 10
158.6503040869
 20
31.2068093799
 11
158.6503040869
 21
30.5938003547
 12
158.361242028
 22
30.5938003547
 13
158.361242028
 23
30.5938003547
  0
SOLID
  8
0
 62
7
  6
CONTINUOUS
 10
159.4596793074
 20
31.5939739474
 11
159.8065543074
 21
31.6262381969
 12
160.1534293074
 22
31.6262381969
 13
160.1534293074
 23
31.6262381969
  0
SOLID
  8
0
 62
7
  6
CONTINUOUS
 10
160.1534293074
 20
31.6262381969
 11
160.5003043074
 21
31.5939739474
 12
159.4596793074
 22
31.5939739474
 13
159.4596793074
 23
31.5939739474
  0
SOLID
  8
0
 62
7
  6
CONTINUOUS
 10
159.228429528
 20
31.5294468402
 11
159.4596793074
 21
31.5939739474
 12
160.5003043074
 22
31.5939739474
 13
160.5003043074
 23
31.5939739474
  0
SOLID
  8
0
 62
7
  6
CONTINUOUS
 10
159.228429528
 20
31.5294468402
 11
160.5003043074
 21
31.5939739304
 12
160.6737418074
 22
31.5617111435
 13
160.6737418074
 23
31.5617111435
  0
SOLID
  8
0
 62
7
  6
CONTINUOUS
 10
159.228429528
 20
31.5294468402
 11
160.6737418074
 21
31.5617111435
 12
159.8065543074
 22
31.4971825592
 13
159.8065543074
 23
31.4971825592
  0
SOLID
  8
0
 62
7
  6
CONTINUOUS
 10
159.8065543074
 20
31.4971825592
 11
160.6737418074
 21
31.5617111435
 12
160.1534293074
 22
31.4971825592
 13
160.1534293074
 23
31.4971825592
  0
SOLID
  8
0
 62
7
  6
CONTINUOUS
 10
160.6737418074
 20
31.5617111435
 11
160.8471793074
 21
31.4971825592
 12
160.1534293074
 22
31.4971825592
 13
160.1534293074
 23
31.4971825592
  0
SOLID
  8
0
 62
7
  6
CONTINUOUS
 10
160.5003043074
 20
31.4649197501
 11
160.1534293074
 21
31.4971825592
 12
160.8471793074
 22
31.4971825592
 13
160.8471793074
 23
31.4971825592
  0
SOLID
  8
0
 62
7
  6
CONTINUOUS
 10
159.1128043074
 20
31.4326555427
 11
159.228429528
 21
31.5294468402
 12
159.8065543074
 22
31.4971825592
 13
159.8065543074
 23
31.4971825592
  0
SOLID
  8
0
 62
7
  6
CONTINUOUS
 10
160.5003043074
 20
31.4649197501
 11
160.8471793074
 21
31.4971825592
 12
160.615929528
 22
31.4326555427
 13
160.615929528
 23
31.4326555427
  0
SOLID
  8
0
 62
7
  6
CONTINUOUS
 10
160.615929528
 20
31.4326555427
 11
160.8471793074
 21
31.4971825592
 12
160.6737418074
 22
31.3681283005
 13
160.6737418074
 23
31.3681283005
  0
SOLID
  8
0
 62
7
  6
CONTINUOUS
 10
160.8471793074
 20
31.4971825592
 11
160.9628038663
 21
31.3681283005
 12
160.6737418074
 22
31.3681283005
 13
160.6737418074
 23
31.3681283005
  0
SOLID
  8
0
 62
7
  6
CONTINUOUS
 10
150.2674918074
 20
31.4649197501
 11
149.7471793074
 21
31.4326554237
 12
150.498741835
 22
31.4971824493
 13
150.498741835
 23
31.4971824493
  0
SOLID
  8
0
 62
7
  6
CONTINUOUS
 10
149.7471793074
 20
31.4326554237
 11
149.8628043005
 21
31.4971824493
 12
150.498741835
 22
31.4971824493
 13
150.498741835
 23
31.4971824493
  0
SOLID
  8
0
 62
7
  6
CONTINUOUS
 10
150.2674918074
 20
31.4649197501
 11
150.1518667936
 21
31.4326554237
 12
149.7471793074
 22
31.4326554237
 13
149.7471793074
 23
31.4326554237
  0
SOLID
  8
0
 62
7
  6
CONTINUOUS
 10
149.6315543091
 20
31.3036012664
 11
149.7471793074
 21
31.4326554237
 12
150.1518667936
 22
31.4326554237
 13
150.1518667936
 23
31.4326554237
  0
SOLID
  8
0
 62
7
  6
CONTINUOUS
 10
153.9674919177
 20
31.4326554237
 11
154.6612419177
 21
31.4971825369
 12
154.4299918074
 22
31.4649197501
 13
154.4299918074
 23
31.4649197501
  0
SOLID
  8
0
 62
7
  6
CONTINUOUS
 10
154.4299918074
 20
31.4649197501
 11
154.3143669177
 21
31.4326554237
 12
153.9674919177
 22
31.4326554237
 13
153.9674919177
 23
31.4326554237
  0
SOLID
  8
0
 62
7
  6
CONTINUOUS
 10
153.9674919177
 20
31.3681283335
 11
153.9674919177
 21
31.4326554237
 12
154.3143669177
 22
31.4326554237
 13
154.3143669177
 23
31.4326554237
  0
SOLID
  8
0
 62
7
  6
CONTINUOUS
 10
154.3143669177
 20
31.4326554237
 11
154.2565543074
 21
31.3681283335
 12
153.9674919177
 22
31.3681283335
 13
153.9674919177
 23
31.3681283335
  0
SOLID
  8
0
 62
7
  6
CONTINUOUS
 10
159.1128043074
 20
31.4326555528
 11
159.8065543074
 21
31.4971825369
 12
159.575304528
 22
31.4649197501
 13
159.575304528
 23
31.4649197501
  0
SOLID
  8
0
 62
7
  6
CONTINUOUS
 10
159.575304528
 20
31.4649197501
 11
159.4596793074
 21
31.4326555528
 12
159.1128043074
 22
31.4326555528
 13
159.1128043074
 23
31.4326555528
  0
SOLID
  8
0
 62
7
  6
CONTINUOUS
 10
159.1128043074
 20
31.3681284626
 11
159.1128043074
 21
31.4326555528
 12
159.4596793074
 22
31.4326555528
 13
159.4596793074
 23
31.4326555528
  0
SOLID
  8
0
 62
7
  6
CONTINUOUS
 10
159.4596793074
 20
31.4326555528
 11
159.401867028
 21
31.3681284626
 12
159.1128043074
 22
31.3681284626
 13
159.1128043074
 23
31.3681284626
  0
SOLID
  8
0
 62
7
  6
CONTINUOUS
 10
159.228429528
 20
31.2390741763
 11
159.1128043074
 21
31.3681284626
 12
159.401867028
 22
31.3681284626
 13
159.401867028
 23
31.3681284626
  0
SOLID
  8
0
 62
7
  6
CONTINUOUS
 10
149.6315543091
 20
31.3036012664
 11
150.1518667936
 21
31.4326554468
 12
149.9784292936
 22
31.3358640533
 13
149.9784292936
 23
31.3358640533
  0
SOLID
  8
0
 62
7
  6
CONTINUOUS
 10
149.9784292936
 20
31.3358640533
 11
149.9206168074
 21
31.2713369632
 12
149.6315543091
 22
31.3036012664
 13
149.6315543091
 23
31.3036012664
  0
SOLID
  8
0
 62
7
  6
CONTINUOUS
 10
149.5737418074
 20
31.1100184796
 11
149.6315543091
 21
31.3036012664
 12
149.9206168074
 22
31.2713369632
 13
149.9206168074
 23
31.2713369632
  0
SOLID
  8
0
 62
7
  6
CONTINUOUS
 10
154.4299918074
 20
31.2390741763
 11
154.7768668074
 21
31.271336924
 12
155.412804528
 22
31.271336924
 13
155.412804528
 23
31.271336924
  0
SOLID
  8
0
 62
7
  6
CONTINUOUS
 10
154.4299918074
 20
31.2390741763
 11
155.412804528
 21
31.271336924
 12
154.1987416972
 22
31.1745462761
 13
154.1987416972
 23
31.1745462761
  0
SOLID
  8
0
 62
7
  6
CONTINUOUS
 10
154.1987416972
 20
31.1745462761
 11
155.412804528
 21
31.271336924
 12
154.7768668074
 22
31.1422827436
 13
154.7768668074
 23
31.1422827436
  0
SOLID
  8
0
 62
7
  6
CONTINUOUS
 10
155.412804528
 20
31.271336924
 11
155.412804528
 21
31.1422827436
 12
154.7768668074
 22
31.1422827436
 13
154.7768668074
 23
31.1422827436
  0
SOLID
  8
0
 62
7
  6
CONTINUOUS
 10
159.228429528
 20
31.2390745501
 11
159.401867028
 21
31.3681283566
 12
159.4596793074
 22
31.3036012664
 13
159.4596793074
 23
31.3036012664
  0
SOLID
  8
0
 62
7
  6
CONTINUOUS
 10
159.4596793074
 20
31.3036012664
 11
159.6331168074
 21
31.2390745501
 12
159.228429528
 22
31.2390745501
 13
159.228429528
 23
31.2390745501
  0
SOLID
  8
0
 62
7
  6
CONTINUOUS
 10
159.4596793074
 20
31.1422827828
 11
159.228429528
 21
31.2390745501
 12
159.6331168074
 22
31.2390745501
 13
159.6331168074
 23
31.2390745501
  0
SOLID
  8
0
 62
7
  6
CONTINUOUS
 10
159.6331168074
 20
31.2390745501
 11
160.615929528
 21
31.0777556927
 12
159.4596793074
 22
31.1422827828
 13
159.4596793074
 23
31.1422827828
  0
SOLID
  8
0
 62
7
  6
CONTINUOUS
 10
160.442492028
 20
30.9809646623
 11
159.4596793074
 21
31.1422827828
 12
160.615929528
 22
31.0777556927
 13
160.615929528
 23
31.0777556927
  0
SOLID
  8
0
 62
7
  6
CONTINUOUS
 10
160.615929528
 20
31.0777556927
 11
160.8471793074
 21
30.9809646623
 12
160.442492028
 22
30.9809646623
 13
160.442492028
 23
30.9809646623
  0
SOLID
  8
0
 62
7
  6
CONTINUOUS
 10
160.615929528
 20
30.9164372091
 11
160.442492028
 21
30.9809646623
 12
160.8471793074
 22
30.9809646623
 13
160.8471793074
 23
30.9809646623
  0
SOLID
  8
0
 62
7
  6
CONTINUOUS
 10
160.615929528
 20
30.9164372091
 11
160.8471793074
 21
30.9809646623
 12
160.6737418074
 22
30.8519089441
 13
160.6737418074
 23
30.8519089441
  0
SOLID
  8
0
 62
7
  6
CONTINUOUS
 10
160.8471793074
 20
30.9809646623
 11
160.9628038663
 21
30.8519089441
 12
160.6737418074
 22
30.8519089441
 13
160.6737418074
 23
30.8519089441
  0
SOLID
  8
0
 62
7
  6
CONTINUOUS
 10
160.615929528
 20
30.7873818593
 11
160.6737418074
 21
30.8519089441
 12
160.9628038663
 22
30.8519089441
 13
160.9628038663
 23
30.8519089441
  0
SOLID
  8
0
 62
7
  6
CONTINUOUS
 10
160.9628038663
 20
30.8519089441
 11
160.9628038663
 21
30.7873818593
 12
160.615929528
 22
30.7873818593
 13
160.615929528
 23
30.7873818593
  0
SOLID
  8
0
 62
7
  6
CONTINUOUS
 10
160.5003043074
 20
30.7551187255
 11
160.615929528
 21
30.7873818593
 12
160.9628038663
 22
30.7873818593
 13
160.9628038663
 23
30.7873818593
  0
SOLID
  8
0
 62
7
  6
CONTINUOUS
 10
160.5003043074
 20
30.7551187255
 11
160.9628038663
 21
30.7873818593
 12
160.269054528
 22
30.7228547745
 13
160.269054528
 23
30.7228547745
  0
SOLID
  8
0
 62
7
  6
CONTINUOUS
 10
160.9628038663
 20
30.7873818593
 11
160.8471793074
 21
30.6905916353
 12
160.269054528
 22
30.7228547745
 13
160.269054528
 23
30.7228547745
  0
SOLID
  8
0
 62
7
  6
CONTINUOUS
 10
160.8471793074
 20
30.6905916353
 11
159.401867028
 21
30.658327332
 12
160.269054528
 22
30.7228547745
 13
160.269054528
 23
30.7228547745
  0
SOLID
  8
0
 62
7
  6
CONTINUOUS
 10
160.269054528
 20
30.7228547745
 11
159.401867028
 21
30.658327332
 12
159.922179528
 22
30.7228547745
 13
159.922179528
 23
30.7228547745
  0
SOLID
  8
0
 62
7
  6
CONTINUOUS
 10
159.401867028
 20
30.658327332
 11
159.228429528
 21
30.7228547745
 12
159.922179528
 22
30.7228547745
 13
159.922179528
 23
30.7228547745
  0
SOLID
  8
0
 62
7
  6
CONTINUOUS
 10
159.401867028
 20
30.658327332
 11
160.8471793074
 21
30.6905916353
 12
159.575304528
 22
30.6260629858
 13
159.575304528
 23
30.6260629858
  0
SOLID
  8
0
 62
7
  6
CONTINUOUS
 10
160.8471793074
 20
30.6905916353
 11
160.615929528
 21
30.6260629858
 12
159.575304528
 22
30.6260629858
 13
159.575304528
 23
30.6260629858
  0
SOLID
  8
0
 62
7
  6
CONTINUOUS
 10
159.922179528
 20
30.5938006049
 11
159.575304528
 21
30.6260629858
 12
160.615929528
 22
30.6260629858
 13
160.615929528
 23
30.6260629858
  0
SOLID
  8
0
 62
7
  6
CONTINUOUS
 10
160.615929528
 20
30.6260629858
 11
160.269054528
 21
30.5938006049
 12
159.922179528
 22
30.5938006049
 13
159.922179528
 23
30.5938006049
  0
SOLID
  8
0
 62
7
  6
CONTINUOUS
 10
149.5737418074
 20
31.1100184796
 11
149.9206168074
 21
31.2713369632
 12
149.8628043005
 22
31.1422827828
 13
149.8628043005
 23
31.1422827828
  0
SOLID
  8
0
 62
7
  6
CONTINUOUS
 10
149.8628043005
 20
31.1422827828
 11
149.8628043005
 21
31.0454914852
 12
149.5737418074
 22
31.1100184796
 13
149.5737418074
 23
31.1100184796
  0
SOLID
  8
0
 62
7
  6
CONTINUOUS
 10
149.6315543091
 20
30.9164372091
 11
149.5737418074
 21
31.1100184796
 12
149.8628043005
 22
31.0454914852
 13
149.8628043005
 23
31.0454914852
  0
SOLID
  8
0
 62
7
  6
CONTINUOUS
 10
149.8628043005
 20
31.0454914852
 11
149.9784292936
 21
30.8841729058
 12
149.6315543091
 22
30.9164372091
 13
149.6315543091
 23
30.9164372091
  0
SOLID
  8
0
 62
7
  6
CONTINUOUS
 10
149.7471793074
 20
30.7873813202
 11
149.6315543091
 21
30.9164372091
 12
149.9784292936
 22
30.8841729058
 13
149.9784292936
 23
30.8841729058
  0
SOLID
  8
0
 62
7
  6
CONTINUOUS
 10
149.9784292936
 20
30.8841729058
 11
150.1518667936
 21
30.7873813202
 12
149.7471793074
 22
30.7873813202
 13
149.7471793074
 23
30.7873813202
  0
SOLID
  8
0
 62
7
  6
CONTINUOUS
 10
149.8628043005
 20
30.7228547004
 11
149.7471793074
 21
30.7873813202
 12
150.1518667936
 22
30.7873813202
 13
150.1518667936
 23
30.7873813202
  0
SOLID
  8
0
 62
7
  6
CONTINUOUS
 10
150.1518667936
 20
30.7873813202
 11
150.498741835
 21
30.7228547004
 12
149.8628043005
 22
30.7228547004
 13
149.8628043005
 23
30.7228547004
  0
SOLID
  8
0
 62
7
  6
CONTINUOUS
 10
150.0362418212
 20
30.658327332
 11
149.8628043005
 21
30.7228547004
 12
150.498741835
 22
30.7228547004
 13
150.498741835
 23
30.7228547004
  0
SOLID
  8
0
 62
7
  6
CONTINUOUS
 10
154.0831168074
 20
31.1100184386
 11
154.1987416972
 21
31.1745462761
 12
154.7768668074
 22
31.1422827828
 13
154.7768668074
 23
31.1422827828
  0
SOLID
  8
0
 62
7
  6
CONTINUOUS
 10
154.7768668074
 20
31.1422827828
 11
154.5456166972
 21
31.1100184386
 12
154.0831168074
 22
31.1100184386
 13
154.0831168074
 23
31.1100184386
  0
SOLID
  8
0
 62
7
  6
CONTINUOUS
 10
153.9674919177
 20
30.9809642992
 11
154.0831168074
 21
31.1100184386
 12
154.5456166972
 22
31.1100184386
 13
154.5456166972
 23
31.1100184386
  0
SOLID
  8
0
 62
7
  6
CONTINUOUS
 10
154.3143669177
 20
31.0132277988
 11
153.9674919177
 21
30.9809642992
 12
154.4299918074
 22
31.0777556927
 13
154.4299918074
 23
31.0777556927
  0
SOLID
  8
0
 62
7
  6
CONTINUOUS
 10
153.9674919177
 20
30.9809642992
 11
154.5456166972
 21
31.1100184796
 12
154.4299918074
 22
31.0777556927
 13
154.4299918074
 23
31.0777556927
  0
SOLID
  8
0
 62
7
  6
CONTINUOUS
 10
154.3143669177
 20
31.0132277988
 11
154.2565543074
 21
30.9164372091
 12
153.9674919177
 22
30.9809642992
 13
153.9674919177
 23
30.9809642992
  0
SOLID
  8
0
 62
7
  6
CONTINUOUS
 10
153.9674919177
 20
30.8841729058
 11
153.9674919177
 21
30.9809642992
 12
154.2565543074
 22
30.9164372091
 13
154.2565543074
 23
30.9164372091
  0
SOLID
  8
0
 62
7
  6
CONTINUOUS
 10
154.2565543074
 20
30.9164372091
 11
154.2565543074
 21
30.8519086025
 12
153.9674919177
 22
30.8841729058
 13
153.9674919177
 23
30.8841729058
  0
SOLID
  8
0
 62
7
  6
CONTINUOUS
 10
154.0253041972
 20
30.7551187255
 11
153.9674919177
 21
30.8841729058
 12
154.2565543074
 22
30.8519086025
 13
154.2565543074
 23
30.8519086025
  0
SOLID
  8
0
 62
7
  6
CONTINUOUS
 10
155.412804528
 20
30.9487004259
 11
155.7018665869
 21
30.8519086025
 12
155.3549915869
 22
30.8841729058
 13
155.3549915869
 23
30.8841729058
  0
SOLID
  8
0
 62
7
  6
CONTINUOUS
 10
155.1815540869
 20
30.7873815123
 11
155.3549915869
 21
30.8841729058
 12
155.7018665869
 22
30.8519086025
 13
155.7018665869
 23
30.8519086025
  0
SOLID
  8
0
 62
7
  6
CONTINUOUS
 10
155.1815540869
 20
30.7873815123
 11
155.7018665869
 21
30.8519086025
 12
155.412804528
 22
30.7551187255
 13
155.412804528
 23
30.7551187255
  0
SOLID
  8
0
 62
7
  6
CONTINUOUS
 10
155.7018665869
 20
30.8519086025
 11
155.759679528
 21
30.6905916353
 12
155.412804528
 22
30.7551187255
 13
155.412804528
 23
30.7551187255
  0
SOLID
  8
0
 62
7
  6
CONTINUOUS
 10
155.4706168074
 20
30.658327332
 11
155.412804528
 21
30.7551187255
 12
155.759679528
 22
30.6905916353
 13
155.759679528
 23
30.6905916353
  0
SOLID
  8
0
 62
7
  6
CONTINUOUS
 10
155.4706168074
 20
30.658327332
 11
155.759679528
 21
30.6905916353
 12
155.5284290869
 22
30.5938002079
 13
155.5284290869
 23
30.5938002079
  0
SOLID
  8
0
 62
7
  6
CONTINUOUS
 10
155.759679528
 20
30.6905916353
 11
155.8174918074
 21
30.5938002079
 12
155.5284290869
 22
30.5938002079
 13
155.5284290869
 23
30.5938002079
  0
SOLID
  8
0
 62
7
  6
CONTINUOUS
 10
151.0768668626
 20
30.8196456577
 11
151.1346793074
 21
30.9164373395
 12
151.4237418626
 22
30.9164373395
 13
151.4237418626
 23
30.9164373395
  0
SOLID
  8
0
 62
7
  6
CONTINUOUS
 10
151.4237418626
 20
30.9164373395
 11
151.3659292523
 21
30.7873815123
 12
151.0768668626
 22
30.8196456577
 13
151.0768668626
 23
30.8196456577
  0
SOLID
  8
0
 62
7
  6
CONTINUOUS
 10
150.9034292799
 20
30.7551187255
 11
151.0768668626
 21
30.8196456577
 12
151.3659292523
 22
30.7873815123
 13
151.3659292523
 23
30.7873815123
  0
SOLID
  8
0
 62
7
  6
CONTINUOUS
 10
150.9034292799
 20
30.7551187255
 11
151.3659292523
 21
30.7873815123
 12
150.498741835
 22
30.7228544222
 13
150.498741835
 23
30.7228544222
  0
SOLID
  8
0
 62
7
  6
CONTINUOUS
 10
151.3659292523
 20
30.7873815123
 11
151.1924917523
 21
30.6905916353
 12
150.498741835
 22
30.7228544222
 13
150.498741835
 23
30.7228544222
  0
SOLID
  8
0
 62
7
  6
CONTINUOUS
 10
150.0362418212
 20
30.658327332
 11
150.498741835
 21
30.7228544222
 12
151.1924917523
 22
30.6905916353
 13
151.1924917523
 23
30.6905916353
  0
SOLID
  8
0
 62
7
  6
CONTINUOUS
 10
150.0362418212
 20
30.658327332
 11
151.1924917523
 21
30.6905916353
 12
150.2096793212
 22
30.6260631011
 13
150.2096793212
 23
30.6260631011
  0
SOLID
  8
0
 62
7
  6
CONTINUOUS
 10
151.1924917523
 20
30.6905916353
 11
150.9612418074
 21
30.6260631011
 12
150.2096793212
 22
30.6260631011
 13
150.2096793212
 23
30.6260631011
  0
SOLID
  8
0
 62
7
  6
CONTINUOUS
 10
150.5565542799
 20
30.5938002419
 11
150.2096793212
 21
30.6260631011
 12
150.9612418074
 22
30.6260631011
 13
150.9612418074
 23
30.6260631011
  0
SOLID
  8
0
 62
7
  6
CONTINUOUS
 10
154.0253041972
 20
30.7551187255
 11
154.2565543074
 21
30.8519086025
 12
154.3143669177
 22
30.7873815123
 13
154.3143669177
 23
30.7873815123
  0
SOLID
  8
0
 62
7
  6
CONTINUOUS
 10
154.3143669177
 20
30.7873815123
 11
154.5456166972
 21
30.7228544222
 12
154.0253041972
 22
30.7551187255
 13
154.0253041972
 23
30.7551187255
  0
SOLID
  8
0
 62
7
  6
CONTINUOUS
 10
154.1987416972
 20
30.658327332
 11
154.0253041972
 21
30.7551187255
 12
154.5456166972
 22
30.7228544222
 13
154.5456166972
 23
30.7228544222
  0
SOLID
  8
0
 62
7
  6
CONTINUOUS
 10
154.8924916972
 20
30.7228544637
 11
155.1815540869
 21
30.7873815123
 12
155.412804528
 22
30.7551187255
 13
155.412804528
 23
30.7551187255
  0
SOLID
  8
0
 62
7
  6
CONTINUOUS
 10
155.412804528
 20
30.7551187255
 11
155.3549915869
 21
30.6905916353
 12
154.8924916972
 22
30.7228544637
 13
154.8924916972
 23
30.7228544637
  0
SOLID
  8
0
 62
7
  6
CONTINUOUS
 10
155.3549915869
 20
30.6905916353
 11
154.1987416972
 21
30.658327332
 12
154.8924916972
 22
30.7228544637
 13
154.8924916972
 23
30.7228544637
  0
SOLID
  8
0
 62
7
  6
CONTINUOUS
 10
154.1987416972
 20
30.658327332
 11
154.5456166972
 21
30.7228544637
 12
154.8924916972
 22
30.7228544637
 13
154.8924916972
 23
30.7228544637
  0
SOLID
  8
0
 62
7
  6
CONTINUOUS
 10
154.1987416972
 20
30.658327332
 11
155.3549915869
 21
30.6905916353
 12
154.3143669177
 22
30.6260630541
 13
154.3143669177
 23
30.6260630541
  0
SOLID
  8
0
 62
7
  6
CONTINUOUS
 10
155.3549915869
 20
30.6905916353
 11
155.1815540869
 21
30.6260630541
 12
154.3143669177
 22
30.6260630541
 13
154.3143669177
 23
30.6260630541
  0
SOLID
  8
0
 62
7
  6
CONTINUOUS
 10
154.5456166972
 20
30.5938002188
 11
154.3143669177
 21
30.6260630541
 12
155.1815540869
 22
30.6260630541
 13
155.1815540869
 23
30.6260630541
  0
SOLID
  8
0
 62
7
  6
CONTINUOUS
 10
155.1815540869
 20
30.6260630541
 11
154.8924916972
 21
30.5938002188
 12
154.5456166972
 22
30.5938002188
 13
154.5456166972
 23
30.5938002188
  0
SOLID
  8
0
 62
7
  6
CONTINUOUS
 10
159.575304528
 20
30.7551187255
 11
159.228429528
 21
30.7228544637
 12
159.4596793074
 22
30.7873815123
 13
159.4596793074
 23
30.7873815123
  0
SOLID
  8
0
 62
7
  6
CONTINUOUS
 10
159.4596793074
 20
30.7873815123
 11
159.228429528
 21
30.7228544637
 12
159.401867028
 22
30.851908644
 13
159.401867028
 23
30.851908644
  0
SOLID
  8
0
 62
7
  6
CONTINUOUS
 10
159.228429528
 20
30.7228544637
 11
159.1128043074
 21
30.851908644
 12
159.401867028
 22
30.851908644
 13
159.401867028
 23
30.851908644
  0
SOLID
  8
0
 62
7
  6
CONTINUOUS
 10
159.575304528
 20
30.7551187255
 11
159.922179528
 21
30.7228544637
 12
159.228429528
 22
30.7228544637
 13
159.228429528
 23
30.7228544637
  0
SOLID
  8
0
 62
7
  6
CONTINUOUS
 10
156.279992028
 20
30.5938002419
 11
156.279992028
 21
31.6262382337
 12
156.5690540869
 22
30.5938002419
 13
156.5690540869
 23
31.6262382337
  0
ENDBLK
  8
0
  6
BYBLOCK
 62
0
  0
BLOCK
  8
0
 62
2
  6
CONTINUOUS
  2
SYMBOL_3_BL0
 70
64
 10
32.1213064866
 20
19.8534310916
  0
TEXT
  8
0
 62
7
  6
CONTINUOUS
 10
18.3860103289
 20
19.2268451992
  7
TEXTSTYLE_3
 40
2.7338706658
  1
Ammeraal Beltech
 41
1.0
 51
15.0
 72
0
  0
TEXT
  8
0
 62
7
  6
CONTINUOUS
 10
29.1868111546
 20
16.9533085264
  7
TEXTSTYLE_4
 40
1.0935482663
  1
Innovation & Service in Belting
 41
1.0
 72
0
  0
LINE
  8
0
 62
7
  6
CONTINUOUS
 10
12.3614696776
 20
19.9934385078
 11
13.1396216709
 21
23.6543558055
  0
LINE
  8
0
 62
7
  6
CONTINUOUS
 10
23.2347899607
 20
27.3177497171
 11
13.6274394139
 21
24.1961322958
  0
LINE
  8
0
 62
7
  6
CONTINUOUS
 10
12.5867530099
 20
19.3000877048
 11
20.093828271
 21
12.5406867788
  0
LINE
  8
0
 62
7
  6
CONTINUOUS
 10
12.8492874206
 20
20.5352149982
 11
23.6575567857
 21
24.0470345971
  0
LINE
  8
0
 62
7
  6
CONTINUOUS
 10
23.6533516486
 20
13.6972460334
 11
15.2078919798
 21
21.3015720751
  0
LINE
  8
0
 62
7
  6
CONTINUOUS
 10
24.1731743684
 20
26.4728246013
 11
23.1966148312
 21
21.8784731989
  0
LINE
  8
0
 62
7
  6
CONTINUOUS
 10
22.4968128835
 20
18.5861638851
 11
21.810364672
 21
15.3566789607
  0
LINE
  8
0
 62
7
  6
CONTINUOUS
 10
24.8542704669
 20
14.087448211
 11
25.8105020025
 21
18.5861638851
  0
LINE
  8
0
 62
7
  6
CONTINUOUS
 10
26.5103039502
 20
21.8784731989
 11
26.9545457526
 21
23.9684665583
  0
LINE
  8
0
 62
7
  6
CONTINUOUS
 10
20.8069293463
 20
12.3891124661
 11
24.3664527239
 21
13.5456717207
  0
LINE
  8
0
 62
7
  6
CONTINUOUS
 10
23.9478910361
 20
27.1661754044
 11
26.7292624203
 21
24.6618173613
  0
ARC
  8
0
 62
7
  6
CONTINUOUS
 10
13.8527227462
 20
23.5027814928
 40
0.7290321776
 50
108.0
 51
168.0
  0
ARC
  8
0
 62
7
  6
CONTINUOUS
 10
23.4600732931
 20
26.624398914
 40
0.7290321776
 50
348.0
 51
108.0
  0
ARC
  8
0
 62
7
  6
CONTINUOUS
 10
26.2414446773
 20
24.120040871
 40
0.7290321776
 50
348.0
 51
48.0
  0
ARC
  8
0
 62
7
  6
CONTINUOUS
 10
20.581646014
 20
13.0824632691
 40
0.7290321776
 50
228.0
 51
288.0
  0
ARC
  8
0
 62
7
  6
CONTINUOUS
 10
13.0745707529
 20
19.8418641951
 40
0.7290321776
 50
108.0
 51
228.0
  0
ARC
  8
0
 62
7
  6
CONTINUOUS
 10
24.1411693916
 20
14.2390225237
 40
0.7290321776
 50
228.0
 51
348.0
  0
ENDBLK
  8
0
  6
BYBLOCK
 62
0
  0
ENDSEC
  0
SECTION
  2
ENTITIES
  0
TEXT
  8
0
 62
5
  6
CONTINUOUS
 10
96.0
 20
25.636
  7
TEXTSTYLE_2
 40
2.8
  1
Scale :
 41
0.6
 51
0.000019
 72
0
  0
TEXT
  8
0
 62
5
  6
CONTINUOUS
 10
116.0
 20
25.636
  7
TEXTSTYLE_2
 40
2.8
  1
Belt type:
 41
0.6
 51
0.000019
 72
0
  0
INSERT
  8
0
 62
2
  6
CONTINUOUS
  2
SYMBOL_3_BL0
 10
32.1213064866
 20
19.8534310916
  0
INSERT
  8
0
 62
2
  6
CONTINUOUS
  2
SYMBOL_8_BL1
 10
173.5956734183
 20
35.5937998301
  0
LINE
  8
0
 62
2
  6
CONTINUOUS
 10
10.0
 20
30.0
 11
200.0
 21
30.0
  0
LINE
  8
0
 62
2
  6
CONTINUOUS
 10
10.0
 20
30.0
 11
10.0
 21
10.0
  0
LINE
  8
0
 62
2
  6
CONTINUOUS
 10
10.0
 20
10.0
 11
200.0
 21
10.0
  0
LINE
  8
0
 62
2
  6
CONTINUOUS
 10
95.0
 20
30.0
 11
95.0
 21
10.0
  0
LINE
  8
0
 62
2
  6
CONTINUOUS
 10
115.0
 20
30.0
 11
115.0
 21
10.0
  0
LINE
  8
0
 62
2
  6
CONTINUOUS
 10
200.0
 20
30.0
 11
200.0
 21
10.0
  0
TEXT
  8
0
 62
5
  6
CONTINUOUS
 10
13.0
 20
23.303
  7
TEXTSTYLE_5
 40
1.52
  1
                                                                     Ammeraal Beltech Modular A/S
 41
1.0
 72
0
  0
TEXT
  8
0
 62
5
  6
CONTINUOUS
 10
13.0
 20
20.595
  7
TEXTSTYLE_5
 40
1.5
  1
                                                                      Hjulmagervej 21,  7100 Vejle,  DK
 41
1.0
 72
0
  0
TEXT
  8
0
 62
5
  6
CONTINUOUS
 10
13.0
 20
17.881
  7
TEXTSTYLE_5
 40
1.495
  1
                                                                      tel: 
 41
1.0
 72
0
  0
TEXT
  8
0
 62
5
  6
CONTINUOUS
 10
57.9869465649
 20
17.881
  7
TEXTSTYLE_5
 40
1.51
  1
+45 75723100     fax: +45 75723348
 41
1.0
 72
0
  0
TEXT
  8
0
 62
5
  6
CONTINUOUS
 10
13.0
 20
15.177
  7
TEXTSTYLE_5
 40
1.5
  1
                                                                      admin@unichains.dk  www.unichains.com
 41
1.0
 72
0
  0
TEXT
  8
0
 62
5
  6
CONTINUOUS
 10
99.75
 20
13.75
  7
TEXTSTYLE_6
 40
5.0
  1
1:1
 41
0.7
 72
1
 11
105.0
 21
13.75
  0
TEXT
  8
0
 62
5
  6
CONTINUOUS
 10
118.0
 20
13.75
  7
TEXTSTYLE_7
 40
7.5
  1
uni Light-VAC-Ø1/8x2-K300
 41
0.3858333333
 72
0
  0
LINE
  8
0
 62
7
  6
CONTINUOUS
 10
210.0
 20
0.0
 11
0.0
 21
0.0
  0
LINE
  8
0
 62
7
  6
CONTINUOUS
 10
10.0
 20
10.0
 11
200.0
 21
10.0
  0
LINE
  8
0
 62
7
  6
CONTINUOUS
 10
10.0
 20
30.0
 11
200.0
 21
30.0
  0
LINE
  8
0
 62
7
  6
CONTINUOUS
 10
0.0
 20
0.0
 11
0.0
 21
297.0
  0
LINE
  8
0
 62
7
  6
CONTINUOUS
 10
10.0
 20
10.0
 11
10.0
 21
287.0
  0
LINE
  8
0
 62
7
  6
CONTINUOUS
 10
200.0
 20
287.0
 11
200.0
 21
10.0
  0
LINE
  8
0
 62
7
  6
CONTINUOUS
 10
210.0
 20
0.0
 11
210.0
 21
297.0
  0
LINE
  8
0
 62
7
  6
CONTINUOUS
 10
10.0
 20
287.0
 11
200.0
 21
287.0
  0
LINE
  8
0
 62
7
  6
CONTINUOUS
 10
0.0
 20
297.0
 11
210.0
 21
297.0
  0
LINE
  8
0
 62
7
  6
CONTINUOUS
 10
37.3685121107
 20
179.8496548266
 11
37.3685121107
 21
185.6496548266
  0
LINE
  8
0
 62
7
  6
CONTINUOUS
 10
37.5685121107
 20
178.1496576412
 11
37.5685121107
 21
185.6496548266
  0
POLYLINE
  8
0
 62
7
  6
CONTINUOUS
 66
1
 70
0
  0
VERTEX
  8
0
 62
7
  6
CONTINUOUS
 10
41.5185121107
 20
183.384931522
  0
VERTEX
  8
0
 62
7
  6
CONTINUOUS
 10
41.5205603257
 20
183.3408526732
  0
VERTEX
  8
0
 62
7
  6
CONTINUOUS
 10
41.5267515012
 20
183.2956772961
  0
VERTEX
  8
0
 62
7
  6
CONTINUOUS
 10
41.5371596248
 20
183.2496548266
  0
SEQEND
  0
LINE
  8
0
 62
7
  6
CONTINUOUS
 10
41.5185121107
 20
178.1496548266
 11
41.5185121107
 21
185.6496548266
  0
LINE
  8
0
 62
7
  6
CONTINUOUS
 10
44.1685121107
 20
183.2496548266
 11
44.1685121107
 21
178.1496548266
  0
LINE
  8
2_FEATURE
 62
7
  6
CONTINUOUS
 10
49.3185121107
 20
178.8556713434
 11
49.3185121107
 21
177.6496548266
  0
LINE
  8
0
 62
7
  6
CONTINUOUS
 10
49.7185121107
 20
181.3927366296
 11
49.7185121107
 21
178.1496548266
  0
POLYLINE
  8
2_FEATURE
 62
7
  6
CONTINUOUS
 66
1
 70
0
  0
VERTEX
  8
2_FEATURE
 62
7
  6
CONTINUOUS
 10
49.3185121107
 20
178.8556713434
  0
VERTEX
  8
2_FEATURE
 62
7
  6
CONTINUOUS
 10
49.3289812804
 20
178.9228640738
  0
VERTEX
  8
2_FEATURE
 62
7
  6
CONTINUOUS
 10
49.3534112315
 20
178.9710710628
  0
VERTEX
  8
2_FEATURE
 62
7
  6
CONTINUOUS
 10
49.3852233668
 20
179.0012763933
  0
VERTEX
  8
2_FEATURE
 62
7
  6
CONTINUOUS
 10
49.4200863157
 20
179.0144076168
  0
VERTEX
  8
2_FEATURE
 62
7
  6
CONTINUOUS
 10
49.455401164
 20
179.0125684374
  0
VERTEX
  8
2_FEATURE
 62
7
  6
CONTINUOUS
 10
49.4936380916
 20
178.9957919406
  0
VERTEX
  8
2_FEATURE
 62
7
  6
CONTINUOUS
 10
49.5348837422
 20
178.9611019288
  0
VERTEX
  8
2_FEATURE
 62
7
  6
CONTINUOUS
 10
49.5759941564
 20
178.9084256234
  0
VERTEX
  8
2_FEATURE
 62
7
  6
CONTINUOUS
 10
49.6162659446
 20
178.8363102961
  0
VERTEX
  8
2_FEATURE
 62
7
  6
CONTINUOUS
 10
49.6540171466
 20
178.7439225961
  0
SEQEND
  0
POLYLINE
  8
2_FEATURE
 62
7
  6
CONTINUOUS
 66
1
 70
0
  0
VERTEX
  8
2_FEATURE
 62
7
  6
CONTINUOUS
 10
49.6540171466
 20
178.7439225961
  0
VERTEX
  8
2_FEATURE
 62
7
  6
CONTINUOUS
 10
49.7011780773
 20
178.566779587
  0
VERTEX
  8
2_FEATURE
 62
7
  6
CONTINUOUS
 10
49.7185121107
 20
178.3838011065
  0
SEQEND
  0
LINE
  8
0
 62
7
  6
CONTINUOUS
 10
51.6685121107
 20
185.6496548266
 11
51.6685121107
 21
178.1496548266
  0
POLYLINE
  8
0
 62
7
  6
CONTINUOUS
 66
1
 70
0
  0
VERTEX
  8
0
 62
7
  6
CONTINUOUS
 10
51.65827386
 20
183.2496548266
  0
VERTEX
  8
0
 62
7
  6
CONTINUOUS
 10
51.6639769833
 20
183.2835920539
  0
VERTEX
  8
0
 62
7
  6
CONTINUOUS
 10
51.6673821845
 20
183.3171848093
  0
VERTEX
  8
0
 62
7
  6
CONTINUOUS
 10
51.6685121107
 20
183.3503197605
  0
SEQEND
  0
POLYLINE
  8
0
 62
7
  6
CONTINUOUS
 66
1
 70
0
  0
VERTEX
  8
0
 62
7
  6
CONTINUOUS
 10
41.5185121107
 20
181.0859262017
  0
VERTEX
  8
0
 62
7
  6
CONTINUOUS
 10
41.5016205393
 20
181.0705421588
  0
VERTEX
  8
0
 62
7
  6
CONTINUOUS
 10
41.4519763641
 20
181.056401109
  0
VERTEX
  8
0
 62
7
  6
CONTINUOUS
 10
41.3727748273
 20
181.0443928832
  0
VERTEX
  8
0
 62
7
  6
CONTINUOUS
 10
41.2692667197
 20
181.0352551412
  0
VERTEX
  8
0
 62
7
  6
CONTINUOUS
 10
41.1484349619
 20
181.0295406496
  0
VERTEX
  8
0
 62
7
  6
CONTINUOUS
 10
41.0185121107
 20
181.0275951577
  0
SEQEND
  0
POLYLINE
  8
0
 62
7
  6
CONTINUOUS
 66
1
 70
0
  0
VERTEX
  8
0
 62
7
  6
CONTINUOUS
 10
41.5185121107
 20
182.9133834515
  0
VERTEX
  8
0
 62
7
  6
CONTINUOUS
 10
41.5016205393
 20
182.9287674945
  0
VERTEX
  8
0
 62
7
  6
CONTINUOUS
 10
41.4519763641
 20
182.9429085442
  0
VERTEX
  8
0
 62
7
  6
CONTINUOUS
 10
41.3727748273
 20
182.95491677
  0
VERTEX
  8
0
 62
7
  6
CONTINUOUS
 10
41.2692667197
 20
182.964054512
  0
VERTEX
  8
0
 62
7
  6
CONTINUOUS
 10
41.1484349619
 20
182.9697690036
  0
VERTEX
  8
0
 62
7
  6
CONTINUOUS
 10
41.0185121107
 20
182.9717144956
  0
SEQEND
  0
POLYLINE
  8
0
 62
7
  6
CONTINUOUS
 66
1
 70
0
  0
VERTEX
  8
0
 62
7
  6
CONTINUOUS
 10
51.6685121107
 20
182.9133834515
  0
VERTEX
  8
0
 62
7
  6
CONTINUOUS
 10
51.6854036822
 20
182.9287674945
  0
VERTEX
  8
0
 62
7
  6
CONTINUOUS
 10
51.7350478574
 20
182.9429085442
  0
VERTEX
  8
0
 62
7
  6
CONTINUOUS
 10
51.8142493942
 20
182.95491677
  0
VERTEX
  8
0
 62
7
  6
CONTINUOUS
 10
51.9177575018
 20
182.964054512
  0
VERTEX
  8
0
 62
7
  6
CONTINUOUS
 10
52.0385892595
 20
182.9697690036
  0
VERTEX
  8
0
 62
7
  6
CONTINUOUS
 10
52.1685121107
 20
182.9717144956
  0
SEQEND
  0
POLYLINE
  8
0
 62
7
  6
CONTINUOUS
 66
1
 70
0
  0
VERTEX
  8
0
 62
7
  6
CONTINUOUS
 10
51.6685121107
 20
181.0859262017
  0
VERTEX
  8
0
 62
7
  6
CONTINUOUS
 10
51.6854036822
 20
181.0705421588
  0
VERTEX
  8
0
 62
7
  6
CONTINUOUS
 10
51.7350478574
 20
181.056401109
  0
VERTEX
  8
0
 62
7
  6
CONTINUOUS
 10
51.8142493942
 20
181.0443928832
  0
VERTEX
  8
0
 62
7
  6
CONTINUOUS
 10
51.9177575018
 20
181.0352551412
  0
VERTEX
  8
0
 62
7
  6
CONTINUOUS
 10
52.0385892595
 20
181.0295406496
  0
VERTEX
  8
0
 62
7
  6
CONTINUOUS
 10
52.1685121107
 20
181.0275951577
  0
SEQEND
  0
POLYLINE
  8
0
 62
7
  6
CONTINUOUS
 66
1
 70
0
  0
VERTEX
  8
0
 62
7
  6
CONTINUOUS
 10
60.8685121107
 20
183.3503197605
  0
VERTEX
  8
0
 62
7
  6
CONTINUOUS
 10
60.8696422213
 20
183.3171820912
  0
VERTEX
  8
0
 62
7
  6
CONTINUOUS
 10
60.8730476447
 20
183.2835890358
  0
VERTEX
  8
0
 62
7
  6
CONTINUOUS
 10
60.8787503614
 20
183.2496548266
  0
SEQEND
  0
LINE
  8
0
 62
7
  6
CONTINUOUS
 10
60.8685121107
 20
178.1496548266
 11
60.8685121107
 21
185.6496548266
  0
LINE
  8
0
 62
7
  6
CONTINUOUS
 10
62.8185121107
 20
181.3927436509
 11
62.8185121107
 21
178.1496548266
  0
POLYLINE
  8
0
 62
7
  6
CONTINUOUS
 66
1
 70
0
  0
VERTEX
  8
0
 62
7
  6
CONTINUOUS
 10
60.8685121107
 20
181.0859262017
  0
VERTEX
  8
0
 62
7
  6
CONTINUOUS
 10
60.8516205393
 20
181.0705421588
  0
VERTEX
  8
0
 62
7
  6
CONTINUOUS
 10
60.8019763641
 20
181.056401109
  0
VERTEX
  8
0
 62
7
  6
CONTINUOUS
 10
60.7227748273
 20
181.0443928832
  0
VERTEX
  8
0
 62
7
  6
CONTINUOUS
 10
60.6192667197
 20
181.0352551412
  0
VERTEX
  8
0
 62
7
  6
CONTINUOUS
 10
60.4984349619
 20
181.0295406496
  0
VERTEX
  8
0
 62
7
  6
CONTINUOUS
 10
60.3685121107
 20
181.0275951577
  0
SEQEND
  0
POLYLINE
  8
0
 62
7
  6
CONTINUOUS
 66
1
 70
0
  0
VERTEX
  8
0
 62
7
  6
CONTINUOUS
 10
60.8685121107
 20
182.9133834515
  0
VERTEX
  8
0
 62
7
  6
CONTINUOUS
 10
60.8516205393
 20
182.9287674945
  0
VERTEX
  8
0
 62
7
  6
CONTINUOUS
 10
60.8019763641
 20
182.9429085442
  0
VERTEX
  8
0
 62
7
  6
CONTINUOUS
 10
60.7227748273
 20
182.95491677
  0
VERTEX
  8
0
 62
7
  6
CONTINUOUS
 10
60.6192667197
 20
182.964054512
  0
VERTEX
  8
0
 62
7
  6
CONTINUOUS
 10
60.4984349619
 20
182.9697690036
  0
VERTEX
  8
0
 62
7
  6
CONTINUOUS
 10
60.3685121107
 20
182.9717144956
  0
SEQEND
  0
POLYLINE
  8
1_AXIS
 62
7
  6
CONTINUOUS
 66
1
 70
0
  0
VERTEX
  8
1_AXIS
 62
7
  6
CONTINUOUS
 10
66.6285121107
 20
177.7139256004
  0
VERTEX
  8
1_AXIS
 62
7
  6
CONTINUOUS
 10
66.6336697888
 20
177.6994516008
  0
VERTEX
  8
1_AXIS
 62
7
  6
CONTINUOUS
 10
66.6742935535
 20
177.6767014414
  0
VERTEX
  8
1_AXIS
 62
7
  6
CONTINUOUS
 10
66.7532753378
 20
177.6619091211
  0
VERTEX
  8
1_AXIS
 62
7
  6
CONTINUOUS
 10
66.8668591788
 20
177.6538126686
  0
VERTEX
  8
1_AXIS
 62
7
  6
CONTINUOUS
 10
67.0093473357
 20
177.6504554355
  0
VERTEX
  8
1_AXIS
 62
7
  6
CONTINUOUS
 10
67.1730262392
 20
177.6496726792
  0
SEQEND
  0
LINE
  8
0
 62
7
  6
CONTINUOUS
 10
68.8185121107
 20
181.3927436509
 11
68.8185121107
 21
178.1496548266
  0
POLYLINE
  8
0
 62
7
  6
CONTINUOUS
 66
1
 70
0
  0
VERTEX
  8
0
 62
7
  6
CONTINUOUS
 10
70.75827386
 20
183.2496548266
  0
VERTEX
  8
0
 62
7
  6
CONTINUOUS
 10
70.7639769833
 20
183.2835920539
  0
VERTEX
  8
0
 62
7
  6
CONTINUOUS
 10
70.7673821845
 20
183.3171848093
  0
VERTEX
  8
0
 62
7
  6
CONTINUOUS
 10
70.7685121107
 20
183.3503197605
  0
SEQEND
  0
POLYLINE
  8
1_AXIS
 62
7
  6
CONTINUOUS
 66
1
 70
0
  0
VERTEX
  8
1_AXIS
 62
7
  6
CONTINUOUS
 10
66.6285121107
 20
177.7139256004
  0
VERTEX
  8
1_AXIS
 62
7
  6
CONTINUOUS
 10
66.6337413151
 20
177.7304096623
  0
VERTEX
  8
1_AXIS
 62
7
  6
CONTINUOUS
 10
66.6755956156
 20
177.7683498541
  0
VERTEX
  8
1_AXIS
 62
7
  6
CONTINUOUS
 10
66.7577798888
 20
177.8100991603
  0
VERTEX
  8
1_AXIS
 62
7
  6
CONTINUOUS
 10
66.8754326502
 20
177.8509218544
  0
VERTEX
  8
1_AXIS
 62
7
  6
CONTINUOUS
 10
67.0197270566
 20
177.8853575372
  0
VERTEX
  8
1_AXIS
 62
7
  6
CONTINUOUS
 10
67.1809636282
 20
177.9091223263
  0
VERTEX
  8
1_AXIS
 62
7
  6
CONTINUOUS
 10
67.3506408813
 20
177.919700263
  0
VERTEX
  8
1_AXIS
 62
7
  6
CONTINUOUS
 10
67.4362962606
 20
177.9197020686
  0
VERTEX
  8
1_AXIS
 62
7
  6
CONTINUOUS
 10
67.6059776352
 20
177.9091310051
  0
VERTEX
  8
1_AXIS
 62
7
  6
CONTINUOUS
 10
67.7672156348
 20
177.8853732097
  0
VERTEX
  8
1_AXIS
 62
7
  6
CONTINUOUS
 10
67.9115550258
 20
177.850932458
  0
VERTEX
  8
1_AXIS
 62
7
  6
CONTINUOUS
 10
68.0292331728
 20
177.8101038185
  0
VERTEX
  8
1_AXIS
 62
7
  6
CONTINUOUS
 10
68.1114271947
 20
177.7683507685
  0
VERTEX
  8
1_AXIS
 62
7
  6
CONTINUOUS
 10
68.1532823777
 20
177.7304105415
  0
VERTEX
  8
1_AXIS
 62
7
  6
CONTINUOUS
 10
68.1585121107
 20
177.7139256004
  0
SEQEND
  0
LINE
  8
2_FEATURE
 62
7
  6
CONTINUOUS
 10
86.3997621107
 20
177.6752880897
 11
86.3122621942
 21
177.6616339475
  0
LINE
  8
2_FEATURE
 62
7
  6
CONTINUOUS
 10
84.4310121107
 20
177.6752880897
 11
84.343512069
 21
177.6616339475
  0
LINE
  8
2_FEATURE
 62
7
  6
CONTINUOUS
 10
86.6622621107
 20
177.6678155053
 11
86.5310121107
 21
177.65078613
  0
LINE
  8
2_FEATURE
 62
7
  6
CONTINUOUS
 10
84.6935121107
 20
177.6678155053
 11
84.5622621107
 21
177.65078613
  0
POLYLINE
  8
2_FEATURE
 62
7
  6
CONTINUOUS
 66
1
 70
0
  0
VERTEX
  8
2_FEATURE
 62
7
  6
CONTINUOUS
 10
86.5310121107
 20
177.8508406659
  0
VERTEX
  8
2_FEATURE
 62
7
  6
CONTINUOUS
 10
86.574832687
 20
177.8544121361
  0
VERTEX
  8
2_FEATURE
 62
7
  6
CONTINUOUS
 10
86.5860595681
 20
177.8559395119
  0
SEQEND
  0
POLYLINE
  8
2_FEATURE
 62
7
  6
CONTINUOUS
 66
1
 70
0
  0
VERTEX
  8
2_FEATURE
 62
7
  6
CONTINUOUS
 10
84.5622621107
 20
177.8508406659
  0
VERTEX
  8
2_FEATURE
 62
7
  6
CONTINUOUS
 10
84.606082687
 20
177.8544121361
  0
VERTEX
  8
2_FEATURE
 62
7
  6
CONTINUOUS
 10
84.6173095681
 20
177.8559395119
  0
SEQEND
  0
LINE
  8
0
 62
7
  6
CONTINUOUS
 10
70.7685121107
 20
178.1496548266
 11
70.7685121107
 21
185.6496548266
  0
POLYLINE
  8
0
 62
7
  6
CONTINUOUS
 66
1
 70
0
  0
VERTEX
  8
0
 62
7
  6
CONTINUOUS
 10
70.7685121107
 20
182.9133834515
  0
VERTEX
  8
0
 62
7
  6
CONTINUOUS
 10
70.7854036822
 20
182.9287674945
  0
VERTEX
  8
0
 62
7
  6
CONTINUOUS
 10
70.8350478574
 20
182.9429085442
  0
VERTEX
  8
0
 62
7
  6
CONTINUOUS
 10
70.9142493942
 20
182.95491677
  0
VERTEX
  8
0
 62
7
  6
CONTINUOUS
 10
71.0177575018
 20
182.964054512
  0
VERTEX
  8
0
 62
7
  6
CONTINUOUS
 10
71.1385892595
 20
182.9697690036
  0
VERTEX
  8
0
 62
7
  6
CONTINUOUS
 10
71.2685121107
 20
182.9717144956
  0
SEQEND
  0
LINE
  8
2_FEATURE
 62
7
  6
CONTINUOUS
 10
86.3122621942
 20
177.6616339475
 11
86.1810121942
 21
177.6567379036
  0
LINE
  8
2_FEATURE
 62
7
  6
CONTINUOUS
 10
84.343512069
 20
177.6616339475
 11
84.212262069
 21
177.6567379036
  0
LINE
  8
2_FEATURE
 62
7
  6
CONTINUOUS
 10
86.4726787152
 20
177.8497285346
 11
86.5310121107
 21
177.8508406659
  0
LINE
  8
2_FEATURE
 62
7
  6
CONTINUOUS
 10
84.5039287569
 20
177.8497285346
 11
84.5622621107
 21
177.8508406659
  0
POLYLINE
  8
2_FEATURE
 62
7
  6
CONTINUOUS
 66
1
 70
0
  0
VERTEX
  8
2_FEATURE
 62
7
  6
CONTINUOUS
 10
86.5310121107
 20
177.65078613
  0
VERTEX
  8
2_FEATURE
 62
7
  6
CONTINUOUS
 10
86.4726785925
 20
177.6497251447
  0
VERTEX
  8
2_FEATURE
 62
7
  6
CONTINUOUS
 10
86.4533039399
 20
177.6496548465
  0
SEQEND
  0
POLYLINE
  8
2_FEATURE
 62
7
  6
CONTINUOUS
 66
1
 70
0
  0
VERTEX
  8
2_FEATURE
 62
7
  6
CONTINUOUS
 10
84.5622621107
 20
177.65078613
  0
VERTEX
  8
2_FEATURE
 62
7
  6
CONTINUOUS
 10
84.5039286343
 20
177.6497251447
  0
VERTEX
  8
2_FEATURE
 62
7
  6
CONTINUOUS
 10
84.4845539955
 20
177.6496548465
  0
SEQEND
  0
POLYLINE
  8
1_AXIS
 62
7
  6
CONTINUOUS
 66
1
 70
0
  0
VERTEX
  8
1_AXIS
 62
7
  6
CONTINUOUS
 10
67.6140819776
 20
177.8496736156
  0
VERTEX
  8
1_AXIS
 62
7
  6
CONTINUOUS
 10
67.7777631139
 20
177.8504950343
  0
VERTEX
  8
1_AXIS
 62
7
  6
CONTINUOUS
 10
67.900659347
 20
177.8535322706
  0
SEQEND
  0
POLYLINE
  8
1_AXIS
 62
7
  6
CONTINUOUS
 66
1
 70
0
  0
VERTEX
  8
1_AXIS
 62
7
  6
CONTINUOUS
 10
67.613993814
 20
177.6496726756
  0
VERTEX
  8
1_AXIS
 62
7
  6
CONTINUOUS
 10
67.777673509
 20
177.6504553979
  0
VERTEX
  8
1_AXIS
 62
7
  6
CONTINUOUS
 10
67.9201625491
 20
177.653812565
  0
VERTEX
  8
1_AXIS
 62
7
  6
CONTINUOUS
 10
68.0337473539
 20
177.6619089452
  0
VERTEX
  8
1_AXIS
 62
7
  6
CONTINUOUS
 10
68.1127300285
 20
177.6767012437
  0
VERTEX
  8
1_AXIS
 62
7
  6
CONTINUOUS
 10
68.1533543537
 20
177.6994514976
  0
VERTEX
  8
1_AXIS
 62
7
  6
CONTINUOUS
 10
68.1585121107
 20
177.7139256004
  0
SEQEND
  0
LINE
  8
2_FEATURE
 62
7
  6
CONTINUOUS
 10
101.5185121107
 20
177.6496548266
 11
101.4185121107
 21
177.6496548266
  0
LINE
  8
2_FEATURE
 62
7
  6
CONTINUOUS
 10
49.3185121107
 20
177.6496548266
 11
49.2185121107
 21
177.6496548266
  0
LINE
  8
0
 62
7
  6
CONTINUOUS
 10
38.0685121107
 20
177.6496548266
 11
49.2185121107
 21
177.6496548266
  0
LINE
  8
0
 62
7
  6
CONTINUOUS
 10
50.2185121107
 20
177.6496548266
 11
67.2253343823
 21
177.6496548266
  0
LINE
  8
0
 62
7
  6
CONTINUOUS
 10
67.5616895997
 20
177.6496548266
 11
83.1185121107
 21
177.6496548266
  0
LINE
  8
0
 62
7
  6
CONTINUOUS
 10
84.5622621107
 20
177.6496548266
 11
85.0872621107
 21
177.6496548266
  0
LINE
  8
0
 62
7
  6
CONTINUOUS
 10
86.5310121107
 20
177.6496548266
 11
100.5185121107
 21
177.6496548266
  0
LINE
  8
0
 62
7
  6
CONTINUOUS
 10
101.5185121107
 20
177.6496548266
 11
112.6685121107
 21
177.6496548266
  0
LINE
  8
2_FEATURE
 62
7
  6
CONTINUOUS
 10
83.3810121107
 20
177.6541939586
 11
84.1685121107
 21
177.6541939586
  0
LINE
  8
2_FEATURE
 62
7
  6
CONTINUOUS
 10
85.3497621107
 20
177.6541939586
 11
86.1372621107
 21
177.6541939586
  0
LINE
  8
2_FEATURE
 62
7
  6
CONTINUOUS
 10
83.3810121107
 20
177.6567379036
 11
84.212262069
 21
177.6567379036
  0
LINE
  8
2_FEATURE
 62
7
  6
CONTINUOUS
 10
85.3497621107
 20
177.6567379036
 11
86.1810121942
 21
177.6567379036
  0
LINE
  8
2_FEATURE
 62
7
  6
CONTINUOUS
 10
83.1185121107
 20
177.8496548266
 11
83.3810121107
 21
177.8496548266
  0
LINE
  8
2_FEATURE
 62
7
  6
CONTINUOUS
 10
84.474762069
 20
177.8496548266
 11
84.5039287569
 21
177.8497285346
  0
LINE
  8
2_FEATURE
 62
7
  6
CONTINUOUS
 10
85.0872621107
 20
177.8496548266
 11
85.3497621107
 21
177.8496548266
  0
LINE
  8
2_FEATURE
 62
7
  6
CONTINUOUS
 10
86.4435121942
 20
177.8496548266
 11
86.4726787152
 21
177.8497285346
  0
LINE
  8
2_FEATURE
 62
7
  6
CONTINUOUS
 10
83.3810121107
 20
177.8694200615
 11
84.212262069
 21
177.8694200615
  0
LINE
  8
2_FEATURE
 62
7
  6
CONTINUOUS
 10
85.3497621107
 20
177.8694200615
 11
86.1810121942
 21
177.8694200615
  0
LINE
  8
2_FEATURE
 62
7
  6
CONTINUOUS
 10
83.1185121107
 20
178.0117238154
 11
84.1685121107
 21
178.0117238154
  0
LINE
  8
2_FEATURE
 62
7
  6
CONTINUOUS
 10
85.0872621107
 20
178.0117238154
 11
86.1372621107
 21
178.0117238154
  0
LINE
  8
1_AXIS
 62
7
  6
CONTINUOUS
 10
67.1730262392
 20
177.6496726792
 11
67.613993814
 21
177.6496726756
  0
POLYLINE
  8
2_FEATURE
 62
7
  6
CONTINUOUS
 66
1
 70
0
  0
VERTEX
  8
2_FEATURE
 62
7
  6
CONTINUOUS
 10
84.4845539955
 20
177.6496548465
  0
VERTEX
  8
2_FEATURE
 62
7
  6
CONTINUOUS
 10
84.4455869065
 20
177.6499392684
  0
VERTEX
  8
2_FEATURE
 62
7
  6
CONTINUOUS
 10
84.3872621524
 20
177.6514283106
  0
SEQEND
  0
POLYLINE
  8
2_FEATURE
 62
7
  6
CONTINUOUS
 66
1
 70
0
  0
VERTEX
  8
2_FEATURE
 62
7
  6
CONTINUOUS
 10
86.4533039399
 20
177.6496548465
  0
VERTEX
  8
2_FEATURE
 62
7
  6
CONTINUOUS
 10
86.414336823
 20
177.6499392684
  0
VERTEX
  8
2_FEATURE
 62
7
  6
CONTINUOUS
 10
86.3560120273
 20
177.6514283106
  0
SEQEND
  0
LINE
  8
2_FEATURE
 62
7
  6
CONTINUOUS
 10
84.3872621524
 20
177.6514283106
 11
84.1685121107
 21
177.6541939586
  0
LINE
  8
2_FEATURE
 62
7
  6
CONTINUOUS
 10
86.3560120273
 20
177.6514283106
 11
86.1372621107
 21
177.6541939586
  0
POLYLINE
  8
1_AXIS
 62
7
  6
CONTINUOUS
 66
1
 70
0
  0
VERTEX
  8
1_AXIS
 62
7
  6
CONTINUOUS
 10
66.8863704401
 20
177.8535321446
  0
VERTEX
  8
1_AXIS
 62
7
  6
CONTINUOUS
 10
67.009259884
 20
177.8504950486
  0
VERTEX
  8
1_AXIS
 62
7
  6
CONTINUOUS
 10
67.1729407164
 20
177.849673617
  0
VERTEX
  8
1_AXIS
 62
7
  6
CONTINUOUS
 10
67.6140819776
 20
177.8496736156
  0
SEQEND
  0
LINE
  8
2_FEATURE
 62
7
  6
CONTINUOUS
 10
84.1685121107
 20
178.0117238154
 11
84.3872621524
 21
177.9800995253
  0
LINE
  8
2_FEATURE
 62
7
  6
CONTINUOUS
 10
86.1372621107
 20
178.0117238154
 11
86.3560120273
 21
177.9800995253
  0
LINE
  8
2_FEATURE
 62
7
  6
CONTINUOUS
 10
84.212262069
 20
177.8694200615
 11
84.343512069
 21
177.8455465779
  0
POLYLINE
  8
0
 62
7
  6
CONTINUOUS
 66
1
 70
0
  0
VERTEX
  8
0
 62
7
  6
CONTINUOUS
 10
70.7685121107
 20
181.0859262017
  0
VERTEX
  8
0
 62
7
  6
CONTINUOUS
 10
70.7854036822
 20
181.0705421588
  0
VERTEX
  8
0
 62
7
  6
CONTINUOUS
 10
70.8350478574
 20
181.056401109
  0
VERTEX
  8
0
 62
7
  6
CONTINUOUS
 10
70.9142493942
 20
181.0443928832
  0
VERTEX
  8
0
 62
7
  6
CONTINUOUS
 10
71.0177575018
 20
181.0352551412
  0
VERTEX
  8
0
 62
7
  6
CONTINUOUS
 10
71.1385892595
 20
181.0295406496
  0
VERTEX
  8
0
 62
7
  6
CONTINUOUS
 10
71.2685121107
 20
181.0275951577
  0
SEQEND
  0
LINE
  8
1_AXIS
 62
2
  6
CENTER
 10
75.3685121107
 20
175.149654257
 11
75.3685121107
 21
188.6496554886
  0
POLYLINE
  8
0
 62
7
  6
CONTINUOUS
 66
1
 70
0
  0
VERTEX
  8
0
 62
7
  6
CONTINUOUS
 10
112.6685121107
 20
181.0275951577
  0
VERTEX
  8
0
 62
7
  6
CONTINUOUS
 10
112.7984349619
 20
181.0295406496
  0
VERTEX
  8
0
 62
7
  6
CONTINUOUS
 10
112.9192667197
 20
181.0352551412
  0
VERTEX
  8
0
 62
7
  6
CONTINUOUS
 10
113.0227748273
 20
181.0443928832
  0
VERTEX
  8
0
 62
7
  6
CONTINUOUS
 10
113.1019763641
 20
181.056401109
  0
VERTEX
  8
0
 62
7
  6
CONTINUOUS
 10
113.1516205393
 20
181.0705421588
  0
VERTEX
  8
0
 62
7
  6
CONTINUOUS
 10
113.1685121107
 20
181.0859262017
  0
SEQEND
  0
LINE
  8
0
 62
7
  6
CONTINUOUS
 10
38.0685121107
 20
181.0275951577
 11
41.0185121107
 21
181.0275951577
  0
LINE
  8
0
 62
7
  6
CONTINUOUS
 10
52.1685121107
 20
181.0275951577
 11
60.3685121107
 21
181.0275951577
  0
LINE
  8
0
 62
7
  6
CONTINUOUS
 10
71.2685121107
 20
181.0275951577
 11
79.4685121107
 21
181.0275951577
  0
LINE
  8
0
 62
7
  6
CONTINUOUS
 10
90.3685121107
 20
181.0275951577
 11
98.5685121107
 21
181.0275951577
  0
LINE
  8
0
 62
7
  6
CONTINUOUS
 10
109.7185121107
 20
181.0275951577
 11
112.6685121107
 21
181.0275951577
  0
LINE
  8
1_AXIS
 62
2
  6
CENTER
 10
31.178200692
 20
181.9996548266
 11
120.9290657439
 21
181.9996548266
  0
POLYLINE
  8
0
 62
7
  6
CONTINUOUS
 66
1
 70
0
  0
VERTEX
  8
0
 62
7
  6
CONTINUOUS
 10
38.0685121107
 20
181.0275951577
  0
VERTEX
  8
0
 62
7
  6
CONTINUOUS
 10
37.9385892595
 20
181.0295406496
  0
VERTEX
  8
0
 62
7
  6
CONTINUOUS
 10
37.8177575018
 20
181.0352551412
  0
VERTEX
  8
0
 62
7
  6
CONTINUOUS
 10
37.7142493942
 20
181.0443928832
  0
VERTEX
  8
0
 62
7
  6
CONTINUOUS
 10
37.6350478574
 20
181.056401109
  0
VERTEX
  8
0
 62
7
  6
CONTINUOUS
 10
37.5854036822
 20
181.0705421588
  0
VERTEX
  8
0
 62
7
  6
CONTINUOUS
 10
37.5685121107
 20
181.0859262017
  0
SEQEND
  0
LINE
  8
2_FEATURE
 62
7
  6
CONTINUOUS
 10
86.1810121942
 20
177.8694200615
 11
86.3122621942
 21
177.8455465779
  0
LINE
  8
0
 62
7
  6
CONTINUOUS
 10
99.5818743761
 20
183.748909899
 11
99.6101975482
 21
183.7496548266
  0
LINE
  8
0
 62
7
  6
CONTINUOUS
 10
80.4818743761
 20
183.748909899
 11
80.5101975482
 21
183.7496548266
  0
LINE
  8
0
 62
7
  6
CONTINUOUS
 10
61.3818743761
 20
183.748909899
 11
61.4101975482
 21
183.7496548266
  0
POLYLINE
  8
0
 62
7
  6
CONTINUOUS
 66
1
 70
0
  0
VERTEX
  8
0
 62
7
  6
CONTINUOUS
 10
38.0685121107
 20
182.9717144956
  0
VERTEX
  8
0
 62
7
  6
CONTINUOUS
 10
37.9385892595
 20
182.9697690036
  0
VERTEX
  8
0
 62
7
  6
CONTINUOUS
 10
37.8177575018
 20
182.964054512
  0
VERTEX
  8
0
 62
7
  6
CONTINUOUS
 10
37.7142493942
 20
182.95491677
  0
VERTEX
  8
0
 62
7
  6
CONTINUOUS
 10
37.6350478574
 20
182.9429085442
  0
VERTEX
  8
0
 62
7
  6
CONTINUOUS
 10
37.5854036822
 20
182.9287674945
  0
VERTEX
  8
0
 62
7
  6
CONTINUOUS
 10
37.5685121107
 20
182.9133834515
  0
SEQEND
  0
LINE
  8
0
 62
7
  6
CONTINUOUS
 10
38.0685121107
 20
182.9717144956
 11
41.0185121107
 21
182.9717144956
  0
LINE
  8
0
 62
7
  6
CONTINUOUS
 10
52.1685121107
 20
182.9717144956
 11
60.3685121107
 21
182.9717144956
  0
LINE
  8
0
 62
7
  6
CONTINUOUS
 10
71.2685121107
 20
182.9717144956
 11
79.4685121107
 21
182.9717144956
  0
LINE
  8
0
 62
7
  6
CONTINUOUS
 10
90.3685121107
 20
182.9717144956
 11
98.5685121107
 21
182.9717144956
  0
LINE
  8
0
 62
7
  6
CONTINUOUS
 10
109.7185121107
 20
182.9717144956
 11
112.6685121107
 21
182.9717144956
  0
LINE
  8
0
 62
7
  6
CONTINUOUS
 10
42.0805876987
 20
183.7496548266
 11
51.1268266749
 21
183.7496548266
  0
LINE
  8
0
 62
7
  6
CONTINUOUS
 10
61.4101977791
 20
183.7496548266
 11
70.2268266749
 21
183.7496548266
  0
LINE
  8
0
 62
7
  6
CONTINUOUS
 10
80.5101975524
 20
183.7496548266
 11
89.3268266749
 21
183.7496548266
  0
LINE
  8
0
 62
7
  6
CONTINUOUS
 10
99.6101977791
 20
183.7496548266
 11
108.6564367991
 21
183.7496548266
  0
POLYLINE
  8
0
 62
7
  6
CONTINUOUS
 66
1
 70
0
  0
VERTEX
  8
0
 62
7
  6
CONTINUOUS
 10
112.6685121107
 20
182.9717144956
  0
VERTEX
  8
0
 62
7
  6
CONTINUOUS
 10
112.7984349619
 20
182.9697690036
  0
VERTEX
  8
0
 62
7
  6
CONTINUOUS
 10
112.9192667197
 20
182.964054512
  0
VERTEX
  8
0
 62
7
  6
CONTINUOUS
 10
113.0227748273
 20
182.95491677
  0
VERTEX
  8
0
 62
7
  6
CONTINUOUS
 10
113.1019763641
 20
182.9429085442
  0
VERTEX
  8
0
 62
7
  6
CONTINUOUS
 10
113.1516205393
 20
182.9287674945
  0
VERTEX
  8
0
 62
7
  6
CONTINUOUS
 10
113.1685121107
 20
182.9133834515
  0
SEQEND
  0
LINE
  8
0
 62
7
  6
CONTINUOUS
 10
51.1268266792
 20
183.7496548266
 11
51.1551498453
 21
183.748909899
  0
LINE
  8
0
 62
7
  6
CONTINUOUS
 10
70.2268266792
 20
183.7496548266
 11
70.2551498453
 21
183.748909899
  0
LINE
  8
0
 62
7
  6
CONTINUOUS
 10
89.3268266792
 20
183.7496548266
 11
89.3551498453
 21
183.748909899
  0
LINE
  8
2_FEATURE
 62
7
  6
CONTINUOUS
 10
84.3872621524
 20
177.9800995253
 11
84.5622621107
 21
177.8947830747
  0
LINE
  8
2_FEATURE
 62
7
  6
CONTINUOUS
 10
86.3560120273
 20
177.9800995253
 11
86.5310121107
 21
177.8947830747
  0
LINE
  8
2_FEATURE
 62
7
  6
CONTINUOUS
 10
84.343512069
 20
177.8455465779
 11
84.4310121107
 21
177.8021681228
  0
LINE
  8
2_FEATURE
 62
7
  6
CONTINUOUS
 10
86.3122621942
 20
177.8455465779
 11
86.3997621107
 21
177.8021681228
  0
LINE
  8
2_FEATURE
 62
7
  6
CONTINUOUS
 10
84.5622621107
 20
177.8947830747
 11
84.6935121107
 21
177.8021681228
  0
POLYLINE
  8
0
 62
7
  6
CONTINUOUS
 66
1
 70
0
  0
VERTEX
  8
0
 62
7
  6
CONTINUOUS
 10
79.9685121107
 20
183.3503197605
  0
VERTEX
  8
0
 62
7
  6
CONTINUOUS
 10
79.9696422213
 20
183.3171820912
  0
VERTEX
  8
0
 62
7
  6
CONTINUOUS
 10
79.9730476447
 20
183.2835890358
  0
VERTEX
  8
0
 62
7
  6
CONTINUOUS
 10
79.9787503614
 20
183.2496548266
  0
SEQEND
  0
LINE
  8
0
 62
7
  6
CONTINUOUS
 10
79.9685121107
 20
178.1496548266
 11
79.9685121107
 21
185.6496548266
  0
POLYLINE
  8
0
 62
7
  6
CONTINUOUS
 66
1
 70
0
  0
VERTEX
  8
0
 62
7
  6
CONTINUOUS
 10
79.9685121107
 20
181.0859262017
  0
VERTEX
  8
0
 62
7
  6
CONTINUOUS
 10
79.9516205393
 20
181.0705421588
  0
VERTEX
  8
0
 62
7
  6
CONTINUOUS
 10
79.9019763641
 20
181.056401109
  0
VERTEX
  8
0
 62
7
  6
CONTINUOUS
 10
79.8227748273
 20
181.0443928832
  0
VERTEX
  8
0
 62
7
  6
CONTINUOUS
 10
79.7192667197
 20
181.0352551412
  0
VERTEX
  8
0
 62
7
  6
CONTINUOUS
 10
79.5984349619
 20
181.0295406496
  0
VERTEX
  8
0
 62
7
  6
CONTINUOUS
 10
79.4685121107
 20
181.0275951577
  0
SEQEND
  0
LINE
  8
0
 62
7
  6
CONTINUOUS
 10
37.8685121107
 20
186.1496548266
 11
112.8685121107
 21
186.1496548266
  0
LINE
  8
2_FEATURE
 62
7
  6
CONTINUOUS
 10
86.5310121107
 20
177.8947830747
 11
86.6622621107
 21
177.8021681228
  0
POLYLINE
  8
0
 62
7
  6
CONTINUOUS
 66
1
 70
0
  0
VERTEX
  8
0
 62
7
  6
CONTINUOUS
 10
79.9685121107
 20
182.9133834515
  0
VERTEX
  8
0
 62
7
  6
CONTINUOUS
 10
79.9516205393
 20
182.9287674945
  0
VERTEX
  8
0
 62
7
  6
CONTINUOUS
 10
79.9019763641
 20
182.9429085442
  0
VERTEX
  8
0
 62
7
  6
CONTINUOUS
 10
79.8227748273
 20
182.95491677
  0
VERTEX
  8
0
 62
7
  6
CONTINUOUS
 10
79.7192667197
 20
182.964054512
  0
VERTEX
  8
0
 62
7
  6
CONTINUOUS
 10
79.5984349619
 20
182.9697690036
  0
VERTEX
  8
0
 62
7
  6
CONTINUOUS
 10
79.4685121107
 20
182.9717144956
  0
SEQEND
  0
LINE
  8
2_FEATURE
 62
7
  6
CONTINUOUS
 10
84.4310121107
 20
177.8021681228
 11
84.474762069
 21
177.7476986716
  0
LINE
  8
2_FEATURE
 62
7
  6
CONTINUOUS
 10
84.6935121107
 20
177.8021681228
 11
84.737262069
 21
177.7476986716
  0
LINE
  8
0
 62
7
  6
CONTINUOUS
 10
81.9185121107
 20
181.3927366683
 11
81.9185121107
 21
178.1496548266
  0
LINE
  8
2_FEATURE
 62
7
  6
CONTINUOUS
 10
83.1185121107
 20
178.0117238154
 11
83.1185121107
 21
177.6496580593
  0
LINE
  8
2_FEATURE
 62
7
  6
CONTINUOUS
 10
86.3997621107
 20
177.8021681228
 11
86.4435121942
 21
177.7476986716
  0
LINE
  8
2_FEATURE
 62
7
  6
CONTINUOUS
 10
86.6622621107
 20
177.8021681228
 11
86.7060121942
 21
177.7476986716
  0
LINE
  8
2_FEATURE
 62
7
  6
CONTINUOUS
 10
83.3810121107
 20
177.6541939586
 11
83.3810121107
 21
178.0117238154
  0
LINE
  8
2_FEATURE
 62
7
  6
CONTINUOUS
 10
84.1685121107
 20
177.6541939586
 11
84.1685121107
 21
177.6567379036
  0
LINE
  8
2_FEATURE
 62
7
  6
CONTINUOUS
 10
84.212262069
 20
177.8694200615
 11
84.212262069
 21
178.0053989646
  0
LINE
  8
2_FEATURE
 62
7
  6
CONTINUOUS
 10
84.343512069
 20
177.8455465779
 11
84.343512069
 21
177.9864243942
  0
LINE
  8
2_FEATURE
 62
7
  6
CONTINUOUS
 10
84.3872621524
 20
177.6514283106
 11
84.3872621524
 21
177.6684610284
  0
LINE
  8
2_FEATURE
 62
7
  6
CONTINUOUS
 10
84.4310121107
 20
177.8021681228
 11
84.4310121107
 21
177.9587704279
  0
LINE
  8
2_FEATURE
 62
7
  6
CONTINUOUS
 10
84.474762069
 20
177.7055252232
 11
84.474762069
 21
177.9374413305
  0
LINE
  8
2_FEATURE
 62
7
  6
CONTINUOUS
 10
84.5622621107
 20
177.65078613
 11
84.5622621107
 21
177.8508406659
  0
LINE
  8
2_FEATURE
 62
7
  6
CONTINUOUS
 10
84.6935121107
 20
177.6678155053
 11
84.6935121107
 21
177.8021681228
  0
LINE
  8
2_FEATURE
 62
7
  6
CONTINUOUS
 10
84.737262069
 20
177.7476986716
 11
84.737262069
 21
177.694134388
  0
LINE
  8
2_FEATURE
 62
7
  6
CONTINUOUS
 10
85.0872621107
 20
178.0117238154
 11
85.0872621107
 21
177.6496580593
  0
LINE
  8
2_FEATURE
 62
7
  6
CONTINUOUS
 10
85.3497621107
 20
177.6541939586
 11
85.3497621107
 21
178.0117238154
  0
POLYLINE
  8
0
 62
7
  6
CONTINUOUS
 66
1
 70
0
  0
VERTEX
  8
0
 62
7
  6
CONTINUOUS
 10
89.8685121107
 20
182.9133834515
  0
VERTEX
  8
0
 62
7
  6
CONTINUOUS
 10
89.8854036822
 20
182.9287674945
  0
VERTEX
  8
0
 62
7
  6
CONTINUOUS
 10
89.9350478574
 20
182.9429085442
  0
VERTEX
  8
0
 62
7
  6
CONTINUOUS
 10
90.0142493942
 20
182.95491677
  0
VERTEX
  8
0
 62
7
  6
CONTINUOUS
 10
90.1177575018
 20
182.964054512
  0
VERTEX
  8
0
 62
7
  6
CONTINUOUS
 10
90.2385892595
 20
182.9697690036
  0
VERTEX
  8
0
 62
7
  6
CONTINUOUS
 10
90.3685121107
 20
182.9717144956
  0
SEQEND
  0
LINE
  8
2_FEATURE
 62
7
  6
CONTINUOUS
 10
84.474762069
 20
177.7055252232
 11
84.4310121107
 21
177.6752880897
  0
LINE
  8
2_FEATURE
 62
7
  6
CONTINUOUS
 10
86.4435121942
 20
177.7055252232
 11
86.3997621107
 21
177.6752880897
  0
LINE
  8
2_FEATURE
 62
7
  6
CONTINUOUS
 10
84.737262069
 20
177.694134388
 11
84.6935121107
 21
177.6678155053
  0
LINE
  8
2_FEATURE
 62
7
  6
CONTINUOUS
 10
86.7060121942
 20
177.694134388
 11
86.6622621107
 21
177.6678155053
  0
POLYLINE
  8
0
 62
7
  6
CONTINUOUS
 66
1
 70
0
  0
VERTEX
  8
0
 62
7
  6
CONTINUOUS
 10
89.8685121107
 20
181.0859262017
  0
VERTEX
  8
0
 62
7
  6
CONTINUOUS
 10
89.8854036822
 20
181.0705421588
  0
VERTEX
  8
0
 62
7
  6
CONTINUOUS
 10
89.9350478574
 20
181.056401109
  0
VERTEX
  8
0
 62
7
  6
CONTINUOUS
 10
90.0142493942
 20
181.0443928832
  0
VERTEX
  8
0
 62
7
  6
CONTINUOUS
 10
90.1177575018
 20
181.0352551412
  0
VERTEX
  8
0
 62
7
  6
CONTINUOUS
 10
90.2385892595
 20
181.0295406496
  0
VERTEX
  8
0
 62
7
  6
CONTINUOUS
 10
90.3685121107
 20
181.0275951577
  0
SEQEND
  0
LINE
  8
2_FEATURE
 62
7
  6
CONTINUOUS
 10
86.1372621107
 20
177.6541939586
 11
86.1372621107
 21
177.6567379036
  0
LINE
  8
2_FEATURE
 62
7
  6
CONTINUOUS
 10
86.1810121942
 20
177.8694200615
 11
86.1810121942
 21
178.0053989429
  0
LINE
  8
2_FEATURE
 62
7
  6
CONTINUOUS
 10
86.3122621942
 20
177.8455465779
 11
86.3122621942
 21
177.9864243616
  0
LINE
  8
2_FEATURE
 62
7
  6
CONTINUOUS
 10
86.3560120273
 20
177.6514283106
 11
86.3560120273
 21
177.6684609991
  0
LINE
  8
2_FEATURE
 62
7
  6
CONTINUOUS
 10
86.3997621107
 20
177.8021681228
 11
86.3997621107
 21
177.9587703821
  0
LINE
  8
2_FEATURE
 62
7
  6
CONTINUOUS
 10
86.4435121942
 20
177.7055252232
 11
86.4435121942
 21
177.937441239
  0
LINE
  8
2_FEATURE
 62
7
  6
CONTINUOUS
 10
86.5310121107
 20
177.65078613
 11
86.5310121107
 21
177.8508406659
  0
LINE
  8
2_FEATURE
 62
7
  6
CONTINUOUS
 10
86.6622621107
 20
177.6678155053
 11
86.6622621107
 21
177.8021681228
  0
LINE
  8
2_FEATURE
 62
7
  6
CONTINUOUS
 10
86.7060121942
 20
177.7476986716
 11
86.7060121942
 21
177.694134388
  0
LINE
  8
0
 62
7
  6
CONTINUOUS
 10
87.9185121107
 20
181.3927436509
 11
87.9185121107
 21
178.1496548266
  0
LINE
  8
0
 62
7
  6
CONTINUOUS
 10
89.8685121107
 20
178.1496548266
 11
89.8685121107
 21
185.6496548266
  0
POLYLINE
  8
0
 62
7
  6
CONTINUOUS
 66
1
 70
0
  0
VERTEX
  8
0
 62
7
  6
CONTINUOUS
 10
89.85827386
 20
183.2496548266
  0
VERTEX
  8
0
 62
7
  6
CONTINUOUS
 10
89.8639769833
 20
183.2835920539
  0
VERTEX
  8
0
 62
7
  6
CONTINUOUS
 10
89.8673821845
 20
183.3171848093
  0
VERTEX
  8
0
 62
7
  6
CONTINUOUS
 10
89.8685121107
 20
183.3503197605
  0
SEQEND
  0
POLYLINE
  8
0
 62
7
  6
CONTINUOUS
 66
1
 70
0
  0
VERTEX
  8
0
 62
7
  6
CONTINUOUS
 10
99.0685121107
 20
181.0859262017
  0
VERTEX
  8
0
 62
7
  6
CONTINUOUS
 10
99.0516205393
 20
181.0705421588
  0
VERTEX
  8
0
 62
7
  6
CONTINUOUS
 10
99.0019763641
 20
181.056401109
  0
VERTEX
  8
0
 62
7
  6
CONTINUOUS
 10
98.9227748273
 20
181.0443928832
  0
VERTEX
  8
0
 62
7
  6
CONTINUOUS
 10
98.8192667197
 20
181.0352551412
  0
VERTEX
  8
0
 62
7
  6
CONTINUOUS
 10
98.6984349619
 20
181.0295406496
  0
VERTEX
  8
0
 62
7
  6
CONTINUOUS
 10
98.5685121107
 20
181.0275951577
  0
SEQEND
  0
POLYLINE
  8
0
 62
7
  6
CONTINUOUS
 66
1
 70
0
  0
VERTEX
  8
0
 62
7
  6
CONTINUOUS
 10
99.0685121107
 20
182.9133834515
  0
VERTEX
  8
0
 62
7
  6
CONTINUOUS
 10
99.0516205393
 20
182.9287674945
  0
VERTEX
  8
0
 62
7
  6
CONTINUOUS
 10
99.0019763641
 20
182.9429085442
  0
VERTEX
  8
0
 62
7
  6
CONTINUOUS
 10
98.9227748273
 20
182.95491677
  0
VERTEX
  8
0
 62
7
  6
CONTINUOUS
 10
98.8192667197
 20
182.964054512
  0
VERTEX
  8
0
 62
7
  6
CONTINUOUS
 10
98.6984349619
 20
182.9697690036
  0
VERTEX
  8
0
 62
7
  6
CONTINUOUS
 10
98.5685121107
 20
182.9717144956
  0
SEQEND
  0
POLYLINE
  8
0
 62
7
  6
CONTINUOUS
 66
1
 70
0
  0
VERTEX
  8
0
 62
7
  6
CONTINUOUS
 10
109.2185121107
 20
182.9133834515
  0
VERTEX
  8
0
 62
7
  6
CONTINUOUS
 10
109.2354036822
 20
182.9287674945
  0
VERTEX
  8
0
 62
7
  6
CONTINUOUS
 10
109.2850478574
 20
182.9429085442
  0
VERTEX
  8
0
 62
7
  6
CONTINUOUS
 10
109.3642493942
 20
182.95491677
  0
VERTEX
  8
0
 62
7
  6
CONTINUOUS
 10
109.4677575018
 20
182.964054512
  0
VERTEX
  8
0
 62
7
  6
CONTINUOUS
 10
109.5885892595
 20
182.9697690036
  0
VERTEX
  8
0
 62
7
  6
CONTINUOUS
 10
109.7185121107
 20
182.9717144956
  0
SEQEND
  0
POLYLINE
  8
0
 62
7
  6
CONTINUOUS
 66
1
 70
0
  0
VERTEX
  8
0
 62
7
  6
CONTINUOUS
 10
109.2185121107
 20
181.0859262017
  0
VERTEX
  8
0
 62
7
  6
CONTINUOUS
 10
109.2354036822
 20
181.0705421588
  0
VERTEX
  8
0
 62
7
  6
CONTINUOUS
 10
109.2850478574
 20
181.056401109
  0
VERTEX
  8
0
 62
7
  6
CONTINUOUS
 10
109.3642493942
 20
181.0443928832
  0
VERTEX
  8
0
 62
7
  6
CONTINUOUS
 10
109.4677575018
 20
181.0352551412
  0
VERTEX
  8
0
 62
7
  6
CONTINUOUS
 10
109.5885892595
 20
181.0295406496
  0
VERTEX
  8
0
 62
7
  6
CONTINUOUS
 10
109.7185121107
 20
181.0275951577
  0
SEQEND
  0
POLYLINE
  8
0
 62
7
  6
CONTINUOUS
 66
1
 70
0
  0
VERTEX
  8
0
 62
7
  6
CONTINUOUS
 10
99.0685121107
 20
183.3503197605
  0
VERTEX
  8
0
 62
7
  6
CONTINUOUS
 10
99.0696422213
 20
183.3171820912
  0
VERTEX
  8
0
 62
7
  6
CONTINUOUS
 10
99.0730476447
 20
183.2835890358
  0
VERTEX
  8
0
 62
7
  6
CONTINUOUS
 10
99.0787503614
 20
183.2496548266
  0
SEQEND
  0
LINE
  8
0
 62
7
  6
CONTINUOUS
 10
99.0685121107
 20
178.1496548266
 11
99.0685121107
 21
185.6496548266
  0
LINE
  8
0
 62
7
  6
CONTINUOUS
 10
101.0185121107
 20
181.3927370971
 11
101.0185121107
 21
178.1496548266
  0
POLYLINE
  8
2_FEATURE
 62
7
  6
CONTINUOUS
 66
1
 70
0
  0
VERTEX
  8
2_FEATURE
 62
7
  6
CONTINUOUS
 10
101.0830070749
 20
178.7439225961
  0
VERTEX
  8
2_FEATURE
 62
7
  6
CONTINUOUS
 10
101.1207011788
 20
178.836191047
  0
VERTEX
  8
2_FEATURE
 62
7
  6
CONTINUOUS
 10
101.160596181
 20
178.9077647594
  0
VERTEX
  8
2_FEATURE
 62
7
  6
CONTINUOUS
 10
101.20136597
 20
178.9602823397
  0
VERTEX
  8
2_FEATURE
 62
7
  6
CONTINUOUS
 10
101.2420470869
 20
178.9949369436
  0
VERTEX
  8
2_FEATURE
 62
7
  6
CONTINUOUS
 10
101.2801898362
 20
179.0122090903
  0
VERTEX
  8
2_FEATURE
 62
7
  6
CONTINUOUS
 10
101.3161677918
 20
179.014518154
  0
VERTEX
  8
2_FEATURE
 62
7
  6
CONTINUOUS
 10
101.3512438517
 20
179.0016252139
  0
VERTEX
  8
2_FEATURE
 62
7
  6
CONTINUOUS
 10
101.383283328
 20
178.9715146208
  0
VERTEX
  8
2_FEATURE
 62
7
  6
CONTINUOUS
 10
101.4079390157
 20
178.9231792933
  0
VERTEX
  8
2_FEATURE
 62
7
  6
CONTINUOUS
 10
101.4185121107
 20
178.8556713434
  0
SEQEND
  0
LINE
  8
2_FEATURE
 62
7
  6
CONTINUOUS
 10
101.4185121107
 20
178.8556713434
 11
101.4185121107
 21
177.6496548266
  0
POLYLINE
  8
2_FEATURE
 62
7
  6
CONTINUOUS
 66
1
 70
0
  0
VERTEX
  8
2_FEATURE
 62
7
  6
CONTINUOUS
 10
101.0185121107
 20
178.3838011065
  0
VERTEX
  8
2_FEATURE
 62
7
  6
CONTINUOUS
 10
101.0359840176
 20
178.567526499
  0
VERTEX
  8
2_FEATURE
 62
7
  6
CONTINUOUS
 10
101.0830070749
 20
178.7439225961
  0
SEQEND
  0
LINE
  8
0
 62
7
  6
CONTINUOUS
 10
106.5685121107
 20
178.1496548266
 11
106.5685121107
 21
183.2496548266
  0
POLYLINE
  8
0
 62
7
  6
CONTINUOUS
 66
1
 70
0
  0
VERTEX
  8
0
 62
7
  6
CONTINUOUS
 10
109.1998645966
 20
183.2496548266
  0
VERTEX
  8
0
 62
7
  6
CONTINUOUS
 10
109.2102727202
 20
183.2956772961
  0
VERTEX
  8
0
 62
7
  6
CONTINUOUS
 10
109.2164638958
 20
183.3408526732
  0
VERTEX
  8
0
 62
7
  6
CONTINUOUS
 10
109.2185121107
 20
183.384931522
  0
SEQEND
  0
LINE
  8
0
 62
7
  6
CONTINUOUS
 10
109.2185121107
 20
185.6496548266
 11
109.2185121107
 21
178.1496548266
  0
LINE
  8
0
 62
7
  6
CONTINUOUS
 10
113.1685121107
 20
178.1496576145
 11
113.1685121107
 21
185.6496548266
  0
LINE
  8
0
 62
7
  6
CONTINUOUS
 10
113.3685121107
 20
179.8496548266
 11
113.3685121107
 21
185.6496548266
  0
LINE
  8
0
 62
7
  6
CONTINUOUS
 10
37.3685121107
 20
112.3235497179
 11
37.3685121107
 21
121.3901227105
  0
LINE
  8
0
 62
7
  6
CONTINUOUS
 10
37.5685121107
 20
104.2332698962
 11
37.5685121107
 21
111.7235497179
  0
LINE
  8
0
 62
7
  6
CONTINUOUS
 10
37.5685121107
 20
121.9929387865
 11
37.5685121107
 21
122.9116395626
  0
LINE
  8
0
 62
7
  6
CONTINUOUS
 10
41.5185121107
 20
104.2332698962
 11
41.5185121107
 21
111.0849002298
  0
LINE
  8
0
 62
7
  6
CONTINUOUS
 10
42.5685121107
 20
123.9116395626
 11
42.5685121107
 21
130.7632698962
  0
LINE
  8
0
 62
7
  6
CONTINUOUS
 10
37.4523797433
 20
121.6673119107
 11
37.4846444782
 21
121.7157495862
  0
POLYLINE
  8
0
 62
7
  6
CONTINUOUS
 66
1
 70
0
  0
VERTEX
  8
0
 62
7
  6
CONTINUOUS
 10
42.5685121107
 20
128.2480147676
  0
VERTEX
  8
0
 62
7
  6
CONTINUOUS
 10
42.5852842338
 20
128.2688085883
  0
VERTEX
  8
0
 62
7
  6
CONTINUOUS
 10
42.6346759023
 20
128.2879545507
  0
VERTEX
  8
0
 62
7
  6
CONTINUOUS
 10
42.7136622794
 20
128.3042464266
  0
VERTEX
  8
0
 62
7
  6
CONTINUOUS
 10
42.8171295313
 20
128.3166703015
  0
VERTEX
  8
0
 62
7
  6
CONTINUOUS
 10
42.9381598425
 20
128.3244554046
  0
VERTEX
  8
0
 62
7
  6
CONTINUOUS
 10
43.0685121107
 20
128.3271103772
  0
SEQEND
  0
LINE
  8
0
 62
7
  6
CONTINUOUS
 10
51.3185121107
 20
123.9116395626
 11
51.3185121107
 21
130.7632698962
  0
POLYLINE
  8
0
 62
7
  6
CONTINUOUS
 66
1
 70
0
  0
VERTEX
  8
0
 62
7
  6
CONTINUOUS
 10
51.6685121107
 20
106.7485250248
  0
VERTEX
  8
0
 62
7
  6
CONTINUOUS
 10
51.6852842338
 20
106.7277312041
  0
VERTEX
  8
0
 62
7
  6
CONTINUOUS
 10
51.7346759023
 20
106.7085852417
  0
VERTEX
  8
0
 62
7
  6
CONTINUOUS
 10
51.8136622794
 20
106.6922933658
  0
VERTEX
  8
0
 62
7
  6
CONTINUOUS
 10
51.9171295313
 20
106.6798694909
  0
VERTEX
  8
0
 62
7
  6
CONTINUOUS
 10
52.0381598425
 20
106.6720843877
  0
VERTEX
  8
0
 62
7
  6
CONTINUOUS
 10
52.1685121107
 20
106.6694294152
  0
SEQEND
  0
LINE
  8
0
 62
7
  6
CONTINUOUS
 10
51.6685121107
 20
111.0849002298
 11
51.6685121107
 21
104.2332698962
  0
POLYLINE
  8
0
 62
7
  6
CONTINUOUS
 66
1
 70
0
  0
VERTEX
  8
0
 62
7
  6
CONTINUOUS
 10
41.5185121107
 20
106.7485250248
  0
VERTEX
  8
0
 62
7
  6
CONTINUOUS
 10
41.5017399876
 20
106.7277312041
  0
VERTEX
  8
0
 62
7
  6
CONTINUOUS
 10
41.4523483191
 20
106.7085852417
  0
VERTEX
  8
0
 62
7
  6
CONTINUOUS
 10
41.3733619421
 20
106.6922933658
  0
VERTEX
  8
0
 62
7
  6
CONTINUOUS
 10
41.2698946901
 20
106.6798694909
  0
VERTEX
  8
0
 62
7
  6
CONTINUOUS
 10
41.148864379
 20
106.6720843877
  0
VERTEX
  8
0
 62
7
  6
CONTINUOUS
 10
41.0185121107
 20
106.6694294152
  0
SEQEND
  0
POLYLINE
  8
0
 62
7
  6
CONTINUOUS
 66
1
 70
0
  0
VERTEX
  8
0
 62
7
  6
CONTINUOUS
 10
61.2185121107
 20
128.2480147676
  0
VERTEX
  8
0
 62
7
  6
CONTINUOUS
 10
61.2352842338
 20
128.2688085883
  0
VERTEX
  8
0
 62
7
  6
CONTINUOUS
 10
61.2846759023
 20
128.2879545507
  0
VERTEX
  8
0
 62
7
  6
CONTINUOUS
 10
61.3636622794
 20
128.3042464266
  0
VERTEX
  8
0
 62
7
  6
CONTINUOUS
 10
61.4671295313
 20
128.3166703015
  0
VERTEX
  8
0
 62
7
  6
CONTINUOUS
 10
61.5881598425
 20
128.3244554046
  0
VERTEX
  8
0
 62
7
  6
CONTINUOUS
 10
61.7185121107
 20
128.3271103772
  0
SEQEND
  0
LINE
  8
0
 62
7
  6
CONTINUOUS
 10
60.8685121107
 20
111.0849002298
 11
60.8685121107
 21
104.2332698962
  0
LINE
  8
0
 62
7
  6
CONTINUOUS
 10
61.2185121107
 20
123.9116394449
 11
61.2185121107
 21
130.7632698962
  0
LINE
  8
0
 62
7
  6
CONTINUOUS
 10
38.0685121107
 20
103.7332698962
 11
41.0185121107
 21
103.7332698962
  0
LINE
  8
0
 62
7
  6
CONTINUOUS
 10
52.1685121107
 20
103.7332698962
 11
60.3685121107
 21
103.7332698962
  0
LINE
  8
0
 62
7
  6
CONTINUOUS
 10
71.2685121107
 20
103.7332698962
 11
79.4685121107
 21
103.7332698962
  0
LINE
  8
0
 62
7
  6
CONTINUOUS
 10
90.3685121107
 20
103.7332698962
 11
98.5685121107
 21
103.7332698962
  0
LINE
  8
0
 62
7
  6
CONTINUOUS
 10
109.7185121107
 20
103.7332698962
 11
112.6685121107
 21
103.7332698962
  0
POLYLINE
  8
0
 62
7
  6
CONTINUOUS
 66
1
 70
0
  0
VERTEX
  8
0
 62
7
  6
CONTINUOUS
 10
112.6685121107
 20
106.6694294152
  0
VERTEX
  8
0
 62
7
  6
CONTINUOUS
 10
112.798864379
 20
106.6720843877
  0
VERTEX
  8
0
 62
7
  6
CONTINUOUS
 10
112.9198946901
 20
106.6798694909
  0
VERTEX
  8
0
 62
7
  6
CONTINUOUS
 10
113.0233619421
 20
106.6922933658
  0
VERTEX
  8
0
 62
7
  6
CONTINUOUS
 10
113.1023483191
 20
106.7085852417
  0
VERTEX
  8
0
 62
7
  6
CONTINUOUS
 10
113.1517399876
 20
106.7277312041
  0
VERTEX
  8
0
 62
7
  6
CONTINUOUS
 10
113.1685121107
 20
106.7485250248
  0
SEQEND
  0
LINE
  8
0
 62
7
  6
CONTINUOUS
 10
38.0685121107
 20
106.6694294152
 11
41.0185121107
 21
106.6694294152
  0
LINE
  8
0
 62
7
  6
CONTINUOUS
 10
52.1685121107
 20
106.6694294152
 11
60.3685121107
 21
106.6694294152
  0
LINE
  8
0
 62
7
  6
CONTINUOUS
 10
71.2685121107
 20
106.6694294152
 11
79.4685121107
 21
106.6694294152
  0
LINE
  8
0
 62
7
  6
CONTINUOUS
 10
90.3685121107
 20
106.6694294152
 11
98.5685121107
 21
106.6694294152
  0
LINE
  8
0
 62
7
  6
CONTINUOUS
 10
109.7185121107
 20
106.6694294152
 11
112.6685121107
 21
106.6694294152
  0
POLYLINE
  8
0
 62
7
  6
CONTINUOUS
 66
1
 70
0
  0
VERTEX
  8
0
 62
7
  6
CONTINUOUS
 10
38.0685121107
 20
106.6694294152
  0
VERTEX
  8
0
 62
7
  6
CONTINUOUS
 10
37.9381598425
 20
106.6720843877
  0
VERTEX
  8
0
 62
7
  6
CONTINUOUS
 10
37.8171295313
 20
106.6798694909
  0
VERTEX
  8
0
 62
7
  6
CONTINUOUS
 10
37.7136622794
 20
106.6922933658
  0
VERTEX
  8
0
 62
7
  6
CONTINUOUS
 10
37.6346759023
 20
106.7085852417
  0
VERTEX
  8
0
 62
7
  6
CONTINUOUS
 10
37.5852842338
 20
106.7277312041
  0
VERTEX
  8
0
 62
7
  6
CONTINUOUS
 10
37.5685121107
 20
106.7485250248
  0
SEQEND
  0
POLYLINE
  8
0
 62
7
  6
CONTINUOUS
 66
1
 70
0
  0
VERTEX
  8
0
 62
7
  6
CONTINUOUS
 10
51.3185121107
 20
128.2480147676
  0
VERTEX
  8
0
 62
7
  6
CONTINUOUS
 10
51.3017399876
 20
128.2688085883
  0
VERTEX
  8
0
 62
7
  6
CONTINUOUS
 10
51.2523483191
 20
128.2879545507
  0
VERTEX
  8
0
 62
7
  6
CONTINUOUS
 10
51.1733619421
 20
128.3042464266
  0
VERTEX
  8
0
 62
7
  6
CONTINUOUS
 10
51.0698946901
 20
128.3166703015
  0
VERTEX
  8
0
 62
7
  6
CONTINUOUS
 10
50.948864379
 20
128.3244554046
  0
VERTEX
  8
0
 62
7
  6
CONTINUOUS
 10
50.8185121107
 20
128.3271103772
  0
SEQEND
  0
LINE
  8
1_AXIS
 62
2
  6
CENTER
 10
30.1505190311
 20
107.9732698962
 11
117.160899654
 21
107.9732698962
  0
POLYLINE
  8
0
 62
7
  6
CONTINUOUS
 66
1
 70
0
  0
VERTEX
  8
0
 62
7
  6
CONTINUOUS
 10
70.7685121107
 20
106.7485250248
  0
VERTEX
  8
0
 62
7
  6
CONTINUOUS
 10
70.7852842338
 20
106.7277312041
  0
VERTEX
  8
0
 62
7
  6
CONTINUOUS
 10
70.8346759023
 20
106.7085852417
  0
VERTEX
  8
0
 62
7
  6
CONTINUOUS
 10
70.9136622794
 20
106.6922933658
  0
VERTEX
  8
0
 62
7
  6
CONTINUOUS
 10
71.0171295313
 20
106.6798694909
  0
VERTEX
  8
0
 62
7
  6
CONTINUOUS
 10
71.1381598425
 20
106.6720843877
  0
VERTEX
  8
0
 62
7
  6
CONTINUOUS
 10
71.2685121107
 20
106.6694294152
  0
SEQEND
  0
LINE
  8
0
 62
7
  6
CONTINUOUS
 10
108.7185121107
 20
111.5849002298
 11
99.5685121107
 21
111.5849002298
  0
LINE
  8
0
 62
7
  6
CONTINUOUS
 10
89.3685121107
 20
111.5849002298
 11
80.4685121107
 21
111.5849002298
  0
LINE
  8
0
 62
7
  6
CONTINUOUS
 10
70.2685121107
 20
111.5849002298
 11
61.3685121107
 21
111.5849002298
  0
LINE
  8
0
 62
7
  6
CONTINUOUS
 10
51.1685121107
 20
111.5849002298
 11
42.0185121107
 21
111.5849002298
  0
LINE
  8
0
 62
7
  6
CONTINUOUS
 10
70.4185121107
 20
123.9116395626
 11
70.4185121107
 21
130.7632698962
  0
LINE
  8
0
 62
7
  6
CONTINUOUS
 10
70.7685121107
 20
104.2332698962
 11
70.7685121107
 21
111.0849002298
  0
POLYLINE
  8
0
 62
7
  6
CONTINUOUS
 66
1
 70
0
  0
VERTEX
  8
0
 62
7
  6
CONTINUOUS
 10
60.8685121107
 20
106.7485250248
  0
VERTEX
  8
0
 62
7
  6
CONTINUOUS
 10
60.8517399876
 20
106.7277312041
  0
VERTEX
  8
0
 62
7
  6
CONTINUOUS
 10
60.8023483191
 20
106.7085852417
  0
VERTEX
  8
0
 62
7
  6
CONTINUOUS
 10
60.7233619421
 20
106.6922933658
  0
VERTEX
  8
0
 62
7
  6
CONTINUOUS
 10
60.6198946901
 20
106.6798694909
  0
VERTEX
  8
0
 62
7
  6
CONTINUOUS
 10
60.498864379
 20
106.6720843877
  0
VERTEX
  8
0
 62
7
  6
CONTINUOUS
 10
60.3685121107
 20
106.6694294152
  0
SEQEND
  0
POLYLINE
  8
0
 62
7
  6
CONTINUOUS
 66
1
 70
0
  0
VERTEX
  8
0
 62
7
  6
CONTINUOUS
 10
80.3185121107
 20
128.2480147676
  0
VERTEX
  8
0
 62
7
  6
CONTINUOUS
 10
80.3352842338
 20
128.2688085883
  0
VERTEX
  8
0
 62
7
  6
CONTINUOUS
 10
80.3846759023
 20
128.2879545507
  0
VERTEX
  8
0
 62
7
  6
CONTINUOUS
 10
80.4636622794
 20
128.3042464266
  0
VERTEX
  8
0
 62
7
  6
CONTINUOUS
 10
80.5671295313
 20
128.3166703015
  0
VERTEX
  8
0
 62
7
  6
CONTINUOUS
 10
80.6881598425
 20
128.3244554046
  0
VERTEX
  8
0
 62
7
  6
CONTINUOUS
 10
80.8185121107
 20
128.3271103772
  0
SEQEND
  0
LINE
  8
1_AXIS
 62
2
  6
CENTER
 10
75.3685121107
 20
133.8373669204
 11
75.3685121107
 21
119.4983698962
  0
LINE
  8
1_AXIS
 62
2
  6
CONTINUOUS
 10
75.3685121107
 20
118.3782698962
 11
75.3685121107
 21
116.6182698962
  0
LINE
  8
1_AXIS
 62
2
  6
CENTER
 10
75.3685121107
 20
98.1014499654
 11
75.3685121107
 21
115.4981698962
  0
LINE
  8
1_AXIS
 62
2
  6
CENTER
 10
117.7947188927
 20
117.4982698962
 11
77.3686121107
 21
117.4982698962
  0
LINE
  8
1_AXIS
 62
2
  6
CONTINUOUS
 10
76.2485121107
 20
117.4982698962
 11
74.4885121107
 21
117.4982698962
  0
LINE
  8
1_AXIS
 62
2
  6
CENTER
 10
32.0723659516
 20
117.4982698962
 11
73.3684121107
 21
117.4982698962
  0
POLYLINE
  8
0
 62
7
  6
CONTINUOUS
 66
1
 70
0
  0
VERTEX
  8
0
 62
7
  6
CONTINUOUS
 10
70.4185121107
 20
128.2480147676
  0
VERTEX
  8
0
 62
7
  6
CONTINUOUS
 10
70.4017399876
 20
128.2688085883
  0
VERTEX
  8
0
 62
7
  6
CONTINUOUS
 10
70.3523483191
 20
128.2879545507
  0
VERTEX
  8
0
 62
7
  6
CONTINUOUS
 10
70.2733619421
 20
128.3042464266
  0
VERTEX
  8
0
 62
7
  6
CONTINUOUS
 10
70.1698946901
 20
128.3166703015
  0
VERTEX
  8
0
 62
7
  6
CONTINUOUS
 10
70.048864379
 20
128.3244554046
  0
VERTEX
  8
0
 62
7
  6
CONTINUOUS
 10
69.9185121107
 20
128.3271103772
  0
SEQEND
  0
LINE
  8
0
 62
7
  6
CONTINUOUS
 10
79.9685121107
 20
111.0849002298
 11
79.9685121107
 21
104.2332698962
  0
LINE
  8
0
 62
7
  6
CONTINUOUS
 10
80.3185121107
 20
123.9116394449
 11
80.3185121107
 21
130.7632698962
  0
POLYLINE
  8
0
 62
7
  6
CONTINUOUS
 66
1
 70
0
  0
VERTEX
  8
0
 62
7
  6
CONTINUOUS
 10
89.8685121107
 20
106.7485250248
  0
VERTEX
  8
0
 62
7
  6
CONTINUOUS
 10
89.8852842338
 20
106.7277312041
  0
VERTEX
  8
0
 62
7
  6
CONTINUOUS
 10
89.9346759023
 20
106.7085852417
  0
VERTEX
  8
0
 62
7
  6
CONTINUOUS
 10
90.0136622794
 20
106.6922933658
  0
VERTEX
  8
0
 62
7
  6
CONTINUOUS
 10
90.1171295313
 20
106.6798694909
  0
VERTEX
  8
0
 62
7
  6
CONTINUOUS
 10
90.2381598425
 20
106.6720843877
  0
VERTEX
  8
0
 62
7
  6
CONTINUOUS
 10
90.3685121107
 20
106.6694294152
  0
SEQEND
  0
LINE
  8
0
 62
7
  6
CONTINUOUS
 10
38.0685121107
 20
123.4116395626
 11
42.0685121107
 21
123.4116395626
  0
LINE
  8
0
 62
7
  6
CONTINUOUS
 10
51.8185121107
 20
123.4116395626
 11
60.7185121107
 21
123.4116395626
  0
LINE
  8
0
 62
7
  6
CONTINUOUS
 10
70.9185121107
 20
123.4116395626
 11
79.8185121107
 21
123.4116395626
  0
LINE
  8
0
 62
7
  6
CONTINUOUS
 10
90.0185121107
 20
123.4116395626
 11
98.9185121107
 21
123.4116395626
  0
LINE
  8
0
 62
7
  6
CONTINUOUS
 10
108.6685121107
 20
123.4116395626
 11
112.6685121107
 21
123.4116395626
  0
POLYLINE
  8
0
 62
7
  6
CONTINUOUS
 66
1
 70
0
  0
VERTEX
  8
0
 62
7
  6
CONTINUOUS
 10
79.9685121107
 20
106.7485250248
  0
VERTEX
  8
0
 62
7
  6
CONTINUOUS
 10
79.9517399876
 20
106.7277312041
  0
VERTEX
  8
0
 62
7
  6
CONTINUOUS
 10
79.9023483191
 20
106.7085852417
  0
VERTEX
  8
0
 62
7
  6
CONTINUOUS
 10
79.8233619421
 20
106.6922933658
  0
VERTEX
  8
0
 62
7
  6
CONTINUOUS
 10
79.7198946901
 20
106.6798694909
  0
VERTEX
  8
0
 62
7
  6
CONTINUOUS
 10
79.598864379
 20
106.6720843877
  0
VERTEX
  8
0
 62
7
  6
CONTINUOUS
 10
79.4685121107
 20
106.6694294152
  0
SEQEND
  0
POLYLINE
  8
0
 62
7
  6
CONTINUOUS
 66
1
 70
0
  0
VERTEX
  8
0
 62
7
  6
CONTINUOUS
 10
38.0685121107
 20
123.4116395626
  0
VERTEX
  8
0
 62
7
  6
CONTINUOUS
 10
37.9381938154
 20
123.394358054
  0
VERTEX
  8
0
 62
7
  6
CONTINUOUS
 10
37.8175912368
 20
123.3441192905
  0
VERTEX
  8
0
 62
7
  6
CONTINUOUS
 10
37.714791254
 20
123.2650254077
  0
VERTEX
  8
0
 62
7
  6
CONTINUOUS
 10
37.6358160067
 20
123.162187126
  0
VERTEX
  8
0
 62
7
  6
CONTINUOUS
 10
37.5857483113
 20
123.0417899139
  0
VERTEX
  8
0
 62
7
  6
CONTINUOUS
 10
37.5685121107
 20
122.9116395626
  0
SEQEND
  0
LINE
  8
1_AXIS
 62
2
  6
CENTER
 10
32.5484429066
 20
127.0232698962
 11
114.4204152249
 21
127.0232698962
  0
LINE
  8
0
 62
7
  6
CONTINUOUS
 10
43.0685121107
 20
128.3271103772
 11
50.8185121107
 21
128.3271103772
  0
LINE
  8
0
 62
7
  6
CONTINUOUS
 10
61.7185121107
 20
128.3271103772
 11
69.9185121107
 21
128.3271103772
  0
LINE
  8
0
 62
7
  6
CONTINUOUS
 10
80.8185121107
 20
128.3271103772
 11
89.0185121107
 21
128.3271103772
  0
LINE
  8
0
 62
7
  6
CONTINUOUS
 10
99.9185121107
 20
128.3271103772
 11
107.6685121107
 21
128.3271103772
  0
POLYLINE
  8
0
 62
7
  6
CONTINUOUS
 66
1
 70
0
  0
VERTEX
  8
0
 62
7
  6
CONTINUOUS
 10
112.6685121107
 20
123.4116395626
  0
VERTEX
  8
0
 62
7
  6
CONTINUOUS
 10
112.7988304061
 20
123.394358054
  0
VERTEX
  8
0
 62
7
  6
CONTINUOUS
 10
112.9194329847
 20
123.3441192905
  0
VERTEX
  8
0
 62
7
  6
CONTINUOUS
 10
113.0222329675
 20
123.2650254077
  0
VERTEX
  8
0
 62
7
  6
CONTINUOUS
 10
113.1012082148
 20
123.162187126
  0
VERTEX
  8
0
 62
7
  6
CONTINUOUS
 10
113.1512759102
 20
123.0417899139
  0
VERTEX
  8
0
 62
7
  6
CONTINUOUS
 10
113.1685121107
 20
122.9116395626
  0
SEQEND
  0
POLYLINE
  8
0
 62
7
  6
CONTINUOUS
 66
1
 70
0
  0
VERTEX
  8
0
 62
7
  6
CONTINUOUS
 10
99.4185121107
 20
128.2480147676
  0
VERTEX
  8
0
 62
7
  6
CONTINUOUS
 10
99.4352842338
 20
128.2688085883
  0
VERTEX
  8
0
 62
7
  6
CONTINUOUS
 10
99.4846759023
 20
128.2879545507
  0
VERTEX
  8
0
 62
7
  6
CONTINUOUS
 10
99.5636622794
 20
128.3042464266
  0
VERTEX
  8
0
 62
7
  6
CONTINUOUS
 10
99.6671295313
 20
128.3166703015
  0
VERTEX
  8
0
 62
7
  6
CONTINUOUS
 10
99.7881598425
 20
128.3244554046
  0
VERTEX
  8
0
 62
7
  6
CONTINUOUS
 10
99.9185121107
 20
128.3271103772
  0
SEQEND
  0
LINE
  8
0
 62
7
  6
CONTINUOUS
 10
43.0685121107
 20
131.2632698962
 11
50.8185121107
 21
131.2632698962
  0
LINE
  8
0
 62
7
  6
CONTINUOUS
 10
61.7185121107
 20
131.2632698962
 11
69.9185121107
 21
131.2632698962
  0
LINE
  8
0
 62
7
  6
CONTINUOUS
 10
80.8185121107
 20
131.2632698962
 11
89.0185121107
 21
131.2632698962
  0
LINE
  8
0
 62
7
  6
CONTINUOUS
 10
99.9185121107
 20
131.2632698962
 11
107.6685121107
 21
131.2632698962
  0
LINE
  8
0
 62
7
  6
CONTINUOUS
 10
89.5185121107
 20
123.9116395626
 11
89.5185121107
 21
130.7632698962
  0
LINE
  8
0
 62
7
  6
CONTINUOUS
 10
89.8685121107
 20
111.0849002298
 11
89.8685121107
 21
104.2332698962
  0
POLYLINE
  8
0
 62
7
  6
CONTINUOUS
 66
1
 70
0
  0
VERTEX
  8
0
 62
7
  6
CONTINUOUS
 10
89.5185121107
 20
128.2480147676
  0
VERTEX
  8
0
 62
7
  6
CONTINUOUS
 10
89.5017399876
 20
128.2688085883
  0
VERTEX
  8
0
 62
7
  6
CONTINUOUS
 10
89.4523483191
 20
128.2879545507
  0
VERTEX
  8
0
 62
7
  6
CONTINUOUS
 10
89.3733619421
 20
128.3042464266
  0
VERTEX
  8
0
 62
7
  6
CONTINUOUS
 10
89.2698946901
 20
128.3166703015
  0
VERTEX
  8
0
 62
7
  6
CONTINUOUS
 10
89.148864379
 20
128.3244554046
  0
VERTEX
  8
0
 62
7
  6
CONTINUOUS
 10
89.0185121107
 20
128.3271103772
  0
SEQEND
  0
POLYLINE
  8
0
 62
7
  6
CONTINUOUS
 66
1
 70
0
  0
VERTEX
  8
0
 62
7
  6
CONTINUOUS
 10
109.2185121107
 20
106.7485250248
  0
VERTEX
  8
0
 62
7
  6
CONTINUOUS
 10
109.2352842338
 20
106.7277312041
  0
VERTEX
  8
0
 62
7
  6
CONTINUOUS
 10
109.2846759023
 20
106.7085852417
  0
VERTEX
  8
0
 62
7
  6
CONTINUOUS
 10
109.3636622794
 20
106.6922933658
  0
VERTEX
  8
0
 62
7
  6
CONTINUOUS
 10
109.4671295313
 20
106.6798694909
  0
VERTEX
  8
0
 62
7
  6
CONTINUOUS
 10
109.5881598425
 20
106.6720843877
  0
VERTEX
  8
0
 62
7
  6
CONTINUOUS
 10
109.7185121107
 20
106.6694294152
  0
SEQEND
  0
LINE
  8
0
 62
7
  6
CONTINUOUS
 10
99.0685121107
 20
104.2332698962
 11
99.0685121107
 21
111.0849002298
  0
LINE
  8
0
 62
7
  6
CONTINUOUS
 10
99.4185121107
 20
123.9116394449
 11
99.4185121107
 21
130.7632698962
  0
POLYLINE
  8
0
 62
7
  6
CONTINUOUS
 66
1
 70
0
  0
VERTEX
  8
0
 62
7
  6
CONTINUOUS
 10
99.0685121107
 20
106.7485250248
  0
VERTEX
  8
0
 62
7
  6
CONTINUOUS
 10
99.0517399876
 20
106.7277312041
  0
VERTEX
  8
0
 62
7
  6
CONTINUOUS
 10
99.0023483191
 20
106.7085852417
  0
VERTEX
  8
0
 62
7
  6
CONTINUOUS
 10
98.9233619421
 20
106.6922933658
  0
VERTEX
  8
0
 62
7
  6
CONTINUOUS
 10
98.8198946901
 20
106.6798694909
  0
VERTEX
  8
0
 62
7
  6
CONTINUOUS
 10
98.698864379
 20
106.6720843877
  0
VERTEX
  8
0
 62
7
  6
CONTINUOUS
 10
98.5685121107
 20
106.6694294152
  0
SEQEND
  0
POLYLINE
  8
0
 62
7
  6
CONTINUOUS
 66
1
 70
0
  0
VERTEX
  8
0
 62
7
  6
CONTINUOUS
 10
108.1685121107
 20
128.2480147676
  0
VERTEX
  8
0
 62
7
  6
CONTINUOUS
 10
108.1517399876
 20
128.2688085883
  0
VERTEX
  8
0
 62
7
  6
CONTINUOUS
 10
108.1023483191
 20
128.2879545507
  0
VERTEX
  8
0
 62
7
  6
CONTINUOUS
 10
108.0233619421
 20
128.3042464266
  0
VERTEX
  8
0
 62
7
  6
CONTINUOUS
 10
107.9198946901
 20
128.3166703015
  0
VERTEX
  8
0
 62
7
  6
CONTINUOUS
 10
107.798864379
 20
128.3244554046
  0
VERTEX
  8
0
 62
7
  6
CONTINUOUS
 10
107.6685121107
 20
128.3271103772
  0
SEQEND
  0
LINE
  8
0
 62
7
  6
CONTINUOUS
 10
108.1685121107
 20
123.9116395626
 11
108.1685121107
 21
130.7632698962
  0
LINE
  8
0
 62
7
  6
CONTINUOUS
 10
109.2185121107
 20
111.0849002298
 11
109.2185121107
 21
104.2332698962
  0
LINE
  8
0
 62
7
  6
CONTINUOUS
 10
113.2523797433
 20
121.7157495862
 11
113.2846444782
 21
121.6673119107
  0
LINE
  8
0
 62
7
  6
CONTINUOUS
 10
113.1685121107
 20
122.9116395626
 11
113.1685121107
 21
121.9929387865
  0
LINE
  8
0
 62
7
  6
CONTINUOUS
 10
113.1685121107
 20
111.7235497179
 11
113.1685121107
 21
104.2332698962
  0
LINE
  8
0
 62
7
  6
CONTINUOUS
 10
113.3685121107
 20
121.3901227105
 11
113.3685121107
 21
112.3235497179
  0
LINE
  8
0
 62
7
  6
CONTINUOUS
 10
144.721366784
 20
103.7332698962
 11
146.6654861219
 21
103.7332698962
  0
LINE
  8
1_AXIS
 62
2
  6
CONTINUOUS
 10
146.5734264529
 20
107.9732698962
 11
144.8134264529
 21
107.9732698962
  0
LINE
  8
1_AXIS
 62
2
  6
CENTER
 10
141.2934264529
 20
107.9732698962
 11
139.4534264529
 21
107.9732698962
  0
LINE
  8
1_AXIS
 62
2
  6
CENTER
 10
150.0934264529
 20
107.9732698962
 11
151.9334264529
 21
107.9732698962
  0
LINE
  8
0
 62
7
  6
CONTINUOUS
 10
149.8434264529
 20
106.6694294152
 11
149.6956786313
 21
106.6922933658
  0
POLYLINE
  8
0
 62
7
  6
CONTINUOUS
 66
1
 70
0
  0
VERTEX
  8
0
 62
7
  6
CONTINUOUS
 10
149.6956786313
 20
106.6922933658
  0
VERTEX
  8
0
 62
7
  6
CONTINUOUS
 10
149.4718430367
 20
106.7277312041
  0
VERTEX
  8
0
 62
7
  6
CONTINUOUS
 10
149.3434264529
 20
106.7485250248
  0
SEQEND
  0
LINE
  8
0
 62
7
  6
CONTINUOUS
 10
141.3434264529
 20
127.0232698962
 11
141.3434264529
 21
107.9733095436
  0
LINE
  8
0
 62
7
  6
CONTINUOUS
 10
147.7105872738
 20
122.4504079671
 11
147.53477513
 21
122.376826197
  0
LINE
  8
0
 62
7
  6
CONTINUOUS
 10
143.0434264529
 20
121.8416564991
 11
143.0434264529
 21
111.6564750222
  0
LINE
  8
1_AXIS
 62
2
  6
CONTINUOUS
 10
145.6934264529
 20
127.9032698962
 11
145.6934264529
 21
126.1432698962
  0
LINE
  8
1_AXIS
 62
2
  6
CENTER
 10
145.6934264529
 20
122.6232698962
 11
145.6934264529
 21
120.7832698962
  0
LINE
  8
1_AXIS
 62
2
  6
CONTINUOUS
 10
145.6934264529
 20
108.8532698962
 11
145.6934264529
 21
107.0932698962
  0
LINE
  8
1_AXIS
 62
2
  6
CENTER
 10
145.6934264529
 20
103.5732698962
 11
145.6934264529
 21
101.7332698962
  0
LINE
  8
1_AXIS
 62
2
  6
CENTER
 10
145.6934264529
 20
112.3732698962
 11
145.6934264529
 21
114.2132698962
  0
LINE
  8
1_AXIS
 62
2
  6
CENTER
 10
145.6934264529
 20
131.4232698962
 11
145.6934264529
 21
133.2632698962
  0
LINE
  8
0
 62
7
  6
CONTINUOUS
 10
146.6366801705
 20
131.0124861498
 11
146.6654861219
 21
131.2632698962
  0
LINE
  8
0
 62
7
  6
CONTINUOUS
 10
146.6071550778
 20
130.7632698962
 11
146.6366801705
 21
131.0124861498
  0
LINE
  8
1_AXIS
 62
2
  6
CENTER
 10
138.8434258833
 20
117.4982698962
 11
152.3434271149
 21
117.4982698962
  0
LINE
  8
0
 62
7
  6
CONTINUOUS
 10
146.6366801705
 20
103.9840536426
 11
146.6071550778
 21
104.2332698962
  0
LINE
  8
0
 62
7
  6
CONTINUOUS
 10
146.6654861219
 20
103.7332698962
 11
146.6366801705
 21
103.9840536426
  0
LINE
  8
0
 62
7
  6
CONTINUOUS
 10
144.721366784
 20
103.7332698962
 11
144.7501727353
 21
103.9840536426
  0
LINE
  8
0
 62
7
  6
CONTINUOUS
 10
144.7501727353
 20
103.9840536426
 11
144.779697828
 21
104.2332698962
  0
LINE
  8
0
 62
7
  6
CONTINUOUS
 10
144.779697828
 20
130.7632698962
 11
144.7501727353
 21
131.0124861498
  0
LINE
  8
0
 62
7
  6
CONTINUOUS
 10
144.7501727353
 20
131.0124861498
 11
144.721366784
 21
131.2632698962
  0
LINE
  8
0
 62
7
  6
CONTINUOUS
 10
149.8434264529
 20
106.6694294152
 11
149.8434264529
 21
128.3271103772
  0
LINE
  8
0
 62
7
  6
CONTINUOUS
 10
147.3505665789
 20
122.3416564991
 11
143.532270882
 21
122.3416564991
  0
LINE
  8
1_AXIS
 62
2
  6
CONTINUOUS
 10
146.5734264529
 20
127.0232698962
 11
144.8134264529
 21
127.0232698962
  0
LINE
  8
1_AXIS
 62
2
  6
CENTER
 10
141.2934264529
 20
127.0232698962
 11
139.4534264529
 21
127.0232698962
  0
LINE
  8
1_AXIS
 62
2
  6
CENTER
 10
150.0934264529
 20
127.0232698962
 11
151.9334264529
 21
127.0232698962
  0
LINE
  8
0
 62
7
  6
CONTINUOUS
 10
149.3434264529
 20
128.2480147676
 11
149.5919946413
 21
128.2879545507
  0
POLYLINE
  8
0
 62
7
  6
CONTINUOUS
 66
1
 70
0
  0
VERTEX
  8
0
 62
7
  6
CONTINUOUS
 10
149.5919946413
 20
128.2879545507
  0
VERTEX
  8
0
 62
7
  6
CONTINUOUS
 10
149.8261357714
 20
128.3244554046
  0
VERTEX
  8
0
 62
7
  6
CONTINUOUS
 10
149.8434264529
 20
128.3271103772
  0
SEQEND
  0
LINE
  8
0
 62
7
  6
CONTINUOUS
 10
144.721366784
 20
131.2632698962
 11
146.6654861219
 21
131.2632698962
  0
ARC
  8
0
 62
7
  6
CONTINUOUS
 10
38.0685121107
 20
178.1496548266
 40
0.5
 50
180.0
 51
270.0
  0
ARC
  8
0
 62
7
  6
CONTINUOUS
 10
41.0185121107
 20
178.1496548266
 40
0.5
 50
270.0
 51
360.0
  0
ARC
  8
0
 62
7
  6
CONTINUOUS
 10
43.6685121107
 20
178.1496548266
 40
0.5
 50
270.0
 51
360.0
  0
ARC
  8
0
 62
7
  6
CONTINUOUS
 10
52.1685121107
 20
178.1496548266
 40
0.5
 50
180.0
 51
270.0
  0
ARC
  8
0
 62
7
  6
CONTINUOUS
 10
50.2185121107
 20
178.1496548266
 40
0.5
 50
180.0
 51
270.0
  0
ARC
  8
0
 62
7
  6
CONTINUOUS
 10
37.8685121107
 20
179.8496548266
 40
0.5
 50
180.0
 51
232.7573568362
  0
ARC
  8
0
 62
7
  6
CONTINUOUS
 10
60.3685121107
 20
178.1496548266
 40
0.5
 50
270.0
 51
360.0
  0
ARC
  8
0
 62
7
  6
CONTINUOUS
 10
62.3185121107
 20
178.1496548266
 40
0.5
 50
270.0
 51
360.0
  0
ARC
  8
0
 62
7
  6
CONTINUOUS
 10
71.2685121107
 20
178.1496548266
 40
0.5
 50
180.0
 51
270.0
  0
ARC
  8
0
 62
7
  6
CONTINUOUS
 10
69.3185121107
 20
178.1496548266
 40
0.5
 50
180.0
 51
270.0
  0
ARC
  8
0
 62
7
  6
CONTINUOUS
 10
44.6685121107
 20
183.2496548266
 40
0.5
 50
94.2492436674
 51
180.0
  0
ARC
  8
0
 62
7
  6
CONTINUOUS
 10
38.0685121107
 20
185.6496548266
 40
0.5
 50
90.0
 51
180.0
  0
ARC
  8
0
 62
7
  6
CONTINUOUS
 10
37.8685121107
 20
185.6496548266
 40
0.5
 50
90.0
 51
180.0
  0
ARC
  8
0
 62
7
  6
CONTINUOUS
 10
41.0185121107
 20
185.6496548266
 40
0.5
 50
0.0
 51
90.0
  0
ARC
  8
0
 62
7
  6
CONTINUOUS
 10
52.1685121107
 20
185.6496548266
 40
0.5
 50
90.0
 51
180.0
  0
ARC
  8
0
 62
7
  6
CONTINUOUS
 10
60.3685121107
 20
185.6496548266
 40
0.5
 50
0.0
 51
90.0
  0
ARC
  8
0
 62
7
  6
CONTINUOUS
 10
71.2685121107
 20
185.6496548266
 40
0.5
 50
90.0
 51
180.0
  0
ARC
  8
0
 62
7
  6
CONTINUOUS
 10
112.6685121107
 20
178.1496548266
 40
0.5
 50
270.0
 51
360.0
  0
ARC
  8
0
 62
7
  6
CONTINUOUS
 10
112.8685121107
 20
179.8496548266
 40
0.5
 50
307.2426424652
 51
360.0
  0
ARC
  8
0
 62
7
  6
CONTINUOUS
 10
79.4685121107
 20
178.1496548266
 40
0.5
 50
270.0
 51
360.0
  0
ARC
  8
0
 62
7
  6
CONTINUOUS
 10
81.4185121107
 20
178.1496548266
 40
0.5
 50
270.0
 51
360.0
  0
ARC
  8
0
 62
7
  6
CONTINUOUS
 10
109.7185121107
 20
178.1496548266
 40
0.5
 50
180.0
 51
270.0
  0
ARC
  8
0
 62
7
  6
CONTINUOUS
 10
107.0685121107
 20
178.1496548266
 40
0.5
 50
180.0
 51
270.0
  0
ARC
  8
0
 62
7
  6
CONTINUOUS
 10
90.3685121107
 20
178.1496548266
 40
0.5
 50
180.0
 51
270.0
  0
ARC
  8
0
 62
7
  6
CONTINUOUS
 10
88.4185121107
 20
178.1496548266
 40
0.5
 50
180.0
 51
270.0
  0
ARC
  8
0
 62
7
  6
CONTINUOUS
 10
98.5685121107
 20
178.1496548266
 40
0.5
 50
270.0
 51
360.0
  0
ARC
  8
0
 62
7
  6
CONTINUOUS
 10
100.5185121107
 20
178.1496548266
 40
0.5
 50
270.0
 51
360.0
  0
ARC
  8
0
 62
7
  6
CONTINUOUS
 10
90.3685121107
 20
185.6496548266
 40
0.5
 50
90.0
 51
180.0
  0
ARC
  8
0
 62
7
  6
CONTINUOUS
 10
79.4685121107
 20
185.6496548266
 40
0.5
 50
0.0
 51
90.0
  0
ARC
  8
0
 62
7
  6
CONTINUOUS
 10
106.0685121107
 20
183.2496548266
 40
0.5
 50
0.0
 51
85.7507563391
  0
ARC
  8
0
 62
7
  6
CONTINUOUS
 10
112.6685121107
 20
185.6496548266
 40
0.5
 50
0.0
 51
90.0
  0
ARC
  8
0
 62
7
  6
CONTINUOUS
 10
112.8685121107
 20
185.6496548266
 40
0.5
 50
0.0
 51
90.0
  0
ARC
  8
0
 62
7
  6
CONTINUOUS
 10
109.7185121107
 20
185.6496548266
 40
0.5
 50
90.0
 51
180.0
  0
ARC
  8
0
 62
7
  6
CONTINUOUS
 10
98.5685121107
 20
185.6496548266
 40
0.5
 50
0.0
 51
90.0
  0
ARC
  8
0
 62
7
  6
CONTINUOUS
 10
38.0685121107
 20
104.2332698962
 40
0.5
 50
180.0
 51
270.0
  0
ARC
  8
0
 62
7
  6
CONTINUOUS
 10
52.1685121107
 20
104.2332698962
 40
0.5
 50
180.0
 51
270.0
  0
ARC
  8
0
 62
7
  6
CONTINUOUS
 10
41.0185121107
 20
104.2332698962
 40
0.5
 50
270.0
 51
360.0
  0
ARC
  8
0
 62
7
  6
CONTINUOUS
 10
42.018511497
 20
111.0849008435
 40
0.4999996931
 50
89.9999296723
 51
180.0000703277
  0
ARC
  8
0
 62
7
  6
CONTINUOUS
 10
37.8685121107
 20
112.3235497179
 40
0.5
 50
180.0
 51
216.8698976458
  0
ARC
  8
0
 62
7
  6
CONTINUOUS
 10
37.0685121107
 20
111.7235497179
 40
0.5
 50
0.0
 51
36.8698976458
  0
ARC
  8
0
 62
7
  6
CONTINUOUS
 10
51.1685121107
 20
111.0849002298
 40
0.5
 50
0.0
 51
90.0
  0
ARC
  8
0
 62
7
  6
CONTINUOUS
 10
71.2685121107
 20
104.2332698962
 40
0.5
 50
180.0
 51
270.0
  0
ARC
  8
0
 62
7
  6
CONTINUOUS
 10
60.3685121107
 20
104.2332698962
 40
0.5
 50
270.0
 51
360.0
  0
ARC
  8
0
 62
7
  6
CONTINUOUS
 10
70.2685121107
 20
111.0849002298
 40
0.5
 50
0.0
 51
90.0
  0
ARC
  8
0
 62
7
  6
CONTINUOUS
 10
61.368511497
 20
111.0849008435
 40
0.4999996931
 50
89.9999296723
 51
180.0000703277
  0
ARC
  8
0
 62
7
  6
CONTINUOUS
 10
37.8685121107
 20
121.3901227105
 40
0.5
 50
146.3320887789
 51
180.0
  0
ARC
  8
0
 62
7
  6
CONTINUOUS
 10
37.0685121107
 20
121.9929387865
 40
0.5
 50
326.3320887789
 51
360.0
  0
ARC
  8
0
 62
7
  6
CONTINUOUS
 10
42.0685127242
 20
123.9116389491
 40
0.4999996932
 50
269.999929696
 51
0.000070304
  0
ARC
  8
0
 62
7
  6
CONTINUOUS
 10
51.8185121107
 20
123.9116395626
 40
0.5
 50
180.0
 51
270.0
  0
ARC
  8
0
 62
7
  6
CONTINUOUS
 10
43.0685121107
 20
130.7632698962
 40
0.5
 50
90.0
 51
180.0
  0
ARC
  8
0
 62
7
  6
CONTINUOUS
 10
50.8185121107
 20
130.7632698962
 40
0.5
 50
0.0
 51
90.0
  0
CIRCLE
  8
0
 62
7
  6
CONTINUOUS
 10
56.2685121107
 20
117.4982698962
 40
1.59
  0
ARC
  8
0
 62
7
  6
CONTINUOUS
 10
60.7185121107
 20
123.9116395626
 40
0.5
 50
270.0
 51
360.0
  0
ARC
  8
0
 62
7
  6
CONTINUOUS
 10
70.9185121107
 20
123.9116395626
 40
0.5
 50
180.0
 51
270.0
  0
ARC
  8
0
 62
7
  6
CONTINUOUS
 10
69.9185121107
 20
130.7632698962
 40
0.5
 50
0.0
 51
90.0
  0
ARC
  8
0
 62
7
  6
CONTINUOUS
 10
61.7185121107
 20
130.7632698962
 40
0.5
 50
90.0
 51
180.0
  0
ARC
  8
0
 62
7
  6
CONTINUOUS
 10
90.3685121107
 20
104.2332698962
 40
0.5
 50
180.0
 51
270.0
  0
ARC
  8
0
 62
7
  6
CONTINUOUS
 10
79.4685121107
 20
104.2332698962
 40
0.5
 50
270.0
 51
360.0
  0
ARC
  8
0
 62
7
  6
CONTINUOUS
 10
89.3685121107
 20
111.0849002298
 40
0.5
 50
0.0
 51
90.0
  0
ARC
  8
0
 62
7
  6
CONTINUOUS
 10
80.468511497
 20
111.0849008435
 40
0.4999996931
 50
89.9999296723
 51
180.0000703277
  0
ARC
  8
0
 62
7
  6
CONTINUOUS
 10
112.6685121107
 20
104.2332698962
 40
0.5
 50
270.0
 51
360.0
  0
ARC
  8
0
 62
7
  6
CONTINUOUS
 10
98.5685121107
 20
104.2332698962
 40
0.5
 50
270.0
 51
360.0
  0
ARC
  8
0
 62
7
  6
CONTINUOUS
 10
109.7185121107
 20
104.2332698962
 40
0.5
 50
180.0
 51
270.0
  0
ARC
  8
0
 62
7
  6
CONTINUOUS
 10
99.568511497
 20
111.0849008435
 40
0.4999996931
 50
89.9999296723
 51
180.0000703277
  0
ARC
  8
0
 62
7
  6
CONTINUOUS
 10
108.7185121107
 20
111.0849002298
 40
0.5
 50
0.0
 51
90.0
  0
ARC
  8
0
 62
7
  6
CONTINUOUS
 10
112.8685121107
 20
112.3235497179
 40
0.5
 50
323.1301023542
 51
360.0
  0
ARC
  8
0
 62
7
  6
CONTINUOUS
 10
113.6685121107
 20
111.7235497179
 40
0.5
 50
143.1301023542
 51
180.0
  0
ARC
  8
0
 62
7
  6
CONTINUOUS
 10
79.8185121107
 20
123.9116395626
 40
0.5
 50
270.0
 51
360.0
  0
CIRCLE
  8
0
 62
7
  6
CONTINUOUS
 10
84.9185121107
 20
117.4982698962
 40
1.59
  0
ARC
  8
0
 62
7
  6
CONTINUOUS
 10
90.0185121107
 20
123.9116395626
 40
0.5
 50
180.0
 51
270.0
  0
ARC
  8
0
 62
7
  6
CONTINUOUS
 10
80.8185121107
 20
130.7632698962
 40
0.5
 50
90.0
 51
180.0
  0
ARC
  8
0
 62
7
  6
CONTINUOUS
 10
89.0185121107
 20
130.7632698962
 40
0.5
 50
0.0
 51
90.0
  0
ARC
  8
0
 62
7
  6
CONTINUOUS
 10
98.9185121107
 20
123.9116395626
 40
0.5
 50
270.0
 51
360.0
  0
ARC
  8
0
 62
7
  6
CONTINUOUS
 10
112.8685121107
 20
121.3901227105
 40
0.5
 50
0.0
 51
33.6679112211
  0
ARC
  8
0
 62
7
  6
CONTINUOUS
 10
113.6685121107
 20
121.9929387865
 40
0.5
 50
180.0
 51
213.6679112211
  0
ARC
  8
0
 62
7
  6
CONTINUOUS
 10
108.6685121107
 20
123.9116395626
 40
0.5
 50
180.0
 51
270.0
  0
ARC
  8
0
 62
7
  6
CONTINUOUS
 10
99.9185121107
 20
130.7632698962
 40
0.5
 50
90.0
 51
180.0
  0
ARC
  8
0
 62
7
  6
CONTINUOUS
 10
107.6685121107
 20
130.7632698962
 40
0.5
 50
0.0
 51
90.0
  0
ARC
  8
0
 62
7
  6
CONTINUOUS
 10
142.5534264529
 20
111.6564750222
 40
0.49
 50
310.4482011909
 51
360.0
  0
ARC
  8
0
 62
7
  6
CONTINUOUS
 10
145.6934264529
 20
107.9732698962
 40
4.35
 50
129.7340531963
 51
257.0875457171
  0
ARC
  8
0
 62
7
  6
CONTINUOUS
 10
145.6934264529
 20
107.9732698962
 40
4.35
 50
282.9124542829
 51
342.5584061437
  0
CIRCLE
  8
2_FEATURE
 62
7
  6
CONTINUOUS
 10
145.6934264529
 20
107.9732698962
 40
2.6
  0
ARC
  8
0
 62
7
  6
CONTINUOUS
 10
143.5434263644
 20
121.8416564991
 40
0.4999999557
 50
90.0
 51
180.0
  0
ARC
  8
0
 62
7
  6
CONTINUOUS
 10
145.6934264529
 20
127.0232698962
 40
4.998
 50
293.803024964
 51
311.59628875
  0
ARC
  8
0
 62
7
  6
CONTINUOUS
 10
145.6934264529
 20
127.0232698962
 40
4.35
 50
17.4415938563
 51
77.0875457171
  0
ARC
  8
0
 62
7
  6
CONTINUOUS
 10
145.6934264529
 20
127.0232698962
 40
4.35
 50
102.9124542829
 51
180.0
  0
ARC
  8
2_FEATURE
 62
7
  6
CONTINUOUS
 10
145.6934264529
 20
127.0232698962
 40
4.35
 50
178.7486193829
 51
179.7366062701
  0
ARC
  8
1_AXIS
 62
7
  6
CONTINUOUS
 10
145.6934264529
 20
127.0232698962
 40
4.35
 50
172.0946126163
 51
178.7486133739
  0
ARC
  8
1_AXIS
 62
7
  6
CONTINUOUS
 10
145.6934264529
 20
127.0232698962
 40
4.35
 50
167.9921339638
 51
170.4913910924
  0
ARC
  8
2_FEATURE
 62
7
  6
CONTINUOUS
 10
145.6934264529
 20
127.0232698962
 40
4.35
 50
147.6457933844
 51
151.4095349032
  0
ARC
  8
2_FEATURE
 62
7
  6
CONTINUOUS
 10
145.6934264529
 20
127.0232698962
 40
4.35
 50
141.3964691506
 51
144.799304322
  0
ARC
  8
2_FEATURE
 62
7
  6
CONTINUOUS
 10
145.6934264529
 20
127.0232698962
 40
4.35
 50
131.2420177273
 51
131.5423372598
  0
CIRCLE
  8
0
 62
7
  6
CONTINUOUS
 10
145.6934264529
 20
127.0232698962
 40
2.6
  0
ARC
  8
0
 62
7
  6
CONTINUOUS
 10
147.3505665789
 20
122.8416564991
 40
0.5
 50
270.0
 51
291.6180289573
  0
ARC
  8
0
 62
7
  6
CONTINUOUS
 10
149.3434264529
 20
122.9116395626
 40
0.5
 50
0.0
 51
131.59628875
  0
ENDSEC
  0
EOF
