  0
SECTION
  2
HEADER
  9
$EXTMAX
 10
210.0
 20
297.0
 30
0.0
  9
$EXTMIN
 10
0.0
 20
0.0
 30
0.0
  9
$LIMMIN
 10
0.0
 20
0.0
  9
$LIMMAX
 10
210.0
 20
297.0
  9
$VIEWCTR
 10
105.0
 20
148.5
  9
$VIEWSIZE
 40
297.0
  9
$CLAYER
  8
0
  9
$LTSCALE
 40
19.36
  9
$CELTYPE
  6
BYLAYER
  9
$DIMSCALE
 40
1.0
  9
$DIMASZ
 40
3.5
  9
$DIMEXO
 40
1.0
  9
$DIMDLI
 40
13.376
  9
$DIMEXE
 40
2.0
  9
$DIMCEN
 40
3.168
  9
$DIMLFAC
 40
1.0
  9
$DIMBLK
  1
_FILLED
  9
$DIMALT
 70
0
  9
$DIMALTF
 40
0.0393700787
  9
$DIMTXT
 40
3.5
  9
$AUNITS
 70
0
  9
$PDMODE
 70
3
  9
$PDSIZE
 40
0.3125
  9
$TILEMODE
 70
1
  0
ENDSEC
  0
SECTION
  2
TABLES
  0
TABLE
  2
LTYPE
 70
6
  0
LTYPE
  2
BYBLOCK
 70
0
  3

 72
65
 73
0
 40
0.0
  0
LTYPE
  2
BYLAYER
 70
0
  3

 72
65
 73
0
 40
0.0
  0
LTYPE
  2
CONTINUOUS
 70
64
  3
Solid line
 72
65
 73
0
 40
0.0
  0
LTYPE
  2
CENTER
 70
64
  3
____ _ ____ _ ____ _ ____ _ ____ _ ____ _ ____
 72
65
 73
4
 40
0.6
 49
0.375
 49
-0.075
 49
0.075
 49
-0.075
  0
LTYPE
  2
HIDDEN
 70
64
  3
- - - - - - - - - - - - - - - - - - - -
 72
65
 73
2
 40
0.2
 49
0.1
 49
-0.1
  0
LTYPE
  2
PHANTOM
 70
64
  3
_____ _ _ _____ _ _ _____ _ _ _____
 72
65
 73
6
 40
0.8
 49
0.45
 49
-0.05
 49
0.1
 49
-0.05
 49
0.1
 49
-0.05
  0
LTYPE
  2
DOT
 70
64
  3
. . . . . . . . . . . . . . . . . . . .
 72
65
 73
2
 40
0.2
 49
0.1
 49
-0.1
  0
LTYPE
  2
DASHED
 70
64
  3
- - - - - - - - - - - - - - - - - - - -
 72
65
 73
2
 40
0.2
 49
0.1
 49
-0.1
  0
ENDTAB
  0
TABLE
  2
LAYER
 70
36
  0
LAYER
  2
0
 70
0
 62
7
  6
CONTINUOUS
  0
LAYER
  2
DEFAULT_1
 70
0
 62
7
  6
CENTER
  0
LAYER
  2
DEFAULT_2
 70
0
 62
8
  6
HIDDEN
  0
LAYER
  2
DEFAULT_3
 70
0
 62
7
  6
PHANTOM
  0
LAYER
  2
1_CSYS
 70
0
 62
7
  6
CONTINUOUS
  0
LAYER
  2
1_DATUM_PLANE
 70
0
 62
7
  6
CONTINUOUS
  0
LAYER
  2
2_FEATURE
 70
0
 62
7
  6
CONTINUOUS
  0
LAYER
  2
6_DIM
 70
0
 62
7
  6
CONTINUOUS
  0
LAYER
  2
AXES
 70
0
 62
7
  6
CONTINUOUS
  0
LAYER
  2
CSYS
 70
0
 62
7
  6
CONTINUOUS
  0
LAYER
  2
NOTES
 70
0
 62
7
  6
CONTINUOUS
  0
LAYER
  2
PITCH_LINE
 70
0
 62
7
  6
CONTINUOUS
  0
LAYER
  2
PLANES
 70
0
 62
7
  6
CONTINUOUS
  0
LAYER
  2
QUILTS
 70
0
 62
7
  6
CONTINUOUS
  0
ENDTAB
  0
TABLE
  2
STYLE
 70
1
  0
STYLE
  2
STANDARD
 70
0
 40
0.0
 41
0.8
 50
0.0
 71
0
 42
0.2
  3
txt
  4

  0
STYLE
  2
TEXTSTYLE_1
 70
0
 40
0.0
 41
0.8
 50
0.0
 71
0
 42
0.2
  3
gdt
  4

  0
STYLE
  2
TEXTSTYLE_2
 70
0
 40
0.0
 41
0.6
 50
0.0
 71
0
 42
0.2
  3
txt
  4

  0
STYLE
  2
TEXTSTYLE_3
 70
0
 40
0.0
 41
1.0
 50
0.0
 71
0
 42
0.2
  3
ftb_____.ttf
  4

  0
STYLE
  2
TEXTSTYLE_4
 70
0
 40
0.0
 41
1.0
 50
0.0
 71
0
 42
0.2
  3
fti_____.ttf
  4

  0
STYLE
  2
TEXTSTYLE_5
 70
0
 40
0.0
 41
1.0
 50
0.0
 71
0
 42
0.2
  3
frutiger light.ttf
  4

  0
STYLE
  2
TEXTSTYLE_6
 70
0
 40
0.0
 41
0.7
 50
0.0
 71
0
 42
0.2
  3
txt
  4

  0
STYLE
  2
TEXTSTYLE_7
 70
0
 40
0.0
 41
0.5
 50
0.0
 71
0
 42
0.2
  3
txt
  4

  0
ENDTAB
  0
ENDSEC
  0
SECTION
  2
BLOCKS
  0
BLOCK
  8
0
 62
2
  6
CONTINUOUS
  2
UNI_LOGO2_BL1
 70
64
 10
173.5956734183
 20
35.5937998301
  0
TEXT
  8
0
 62
7
  6
CONTINUOUS
 10
164.6539584268
 20
30.6865562072
  7
TEXTSTYLE_4
 40
1.0655737705
  1
The brand for plastic modular belts and chains
 41
1.0
 72
0
  0
LINE
  8
0
 62
7
  6
CONTINUOUS
 10
149.5737418074
 20
36.1675703219
 11
149.5737418074
 21
34.0364227809
  0
LINE
  8
0
 62
7
  6
CONTINUOUS
 10
149.8628043005
 20
31.0454914852
 11
149.8628043005
 21
31.1422825445
  0
LINE
  8
0
 62
7
  6
CONTINUOUS
 10
149.5737418074
 20
31.1100188581
 11
149.6315543091
 21
30.9164367395
  0
LINE
  8
0
 62
7
  6
CONTINUOUS
 10
150.9671844304
 20
33.9544555678
 11
150.9671844304
 21
36.1675703219
  0
LINE
  8
0
 62
7
  6
CONTINUOUS
 10
151.8862417523
 20
32.1101932727
 11
151.8862417523
 21
30.5937998301
  0
LINE
  8
0
 62
7
  6
CONTINUOUS
 10
152.1753043074
 20
30.5937998301
 11
152.1753043074
 21
31.3358647082
  0
LINE
  8
0
 62
7
  6
CONTINUOUS
 10
152.1753043074
 20
31.4649194539
 11
152.1753043074
 21
32.1101932727
  0
LINE
  8
0
 62
7
  6
CONTINUOUS
 10
149.6315543091
 20
31.3036010218
 11
149.5737418074
 21
31.1100188581
  0
LINE
  8
0
 62
7
  6
CONTINUOUS
 10
149.9784292936
 20
30.8841730531
 11
149.8628043005
 21
31.0454914852
  0
LINE
  8
0
 62
7
  6
CONTINUOUS
 10
151.0768668626
 20
31.400392081
 11
151.1346793074
 21
31.3036010218
  0
LINE
  8
0
 62
7
  6
CONTINUOUS
 10
151.4237418626
 20
31.3036010218
 11
151.3659292523
 21
31.4326557675
  0
LINE
  8
0
 62
7
  6
CONTINUOUS
 10
152.852430332
 20
36.1675703219
 11
152.852430332
 21
34.3642916334
  0
LINE
  8
0
 62
7
  6
CONTINUOUS
 10
152.852430332
 20
33.0528162235
 11
152.852430332
 21
32.3970785186
  0
LINE
  8
0
 62
7
  6
CONTINUOUS
 10
153.2159293074
 20
31.2390736489
 11
153.2159293074
 21
30.5937998301
  0
LINE
  8
0
 62
7
  6
CONTINUOUS
 10
153.5049916972
 20
30.5937998301
 11
153.5049916972
 21
31.2390736489
  0
LINE
  8
0
 62
7
  6
CONTINUOUS
 10
149.8628043005
 20
31.1422825445
 11
149.9206168074
 21
31.2713373354
  0
LINE
  8
0
 62
7
  6
CONTINUOUS
 10
149.6315543091
 20
30.9164367395
 11
149.7471793074
 21
30.7873819712
  0
LINE
  8
0
 62
7
  6
CONTINUOUS
 10
153.1581166972
 20
31.3681283946
 11
153.2159293074
 21
31.2390736489
  0
LINE
  8
0
 62
7
  6
CONTINUOUS
 10
153.9674919177
 20
30.8841730531
 11
154.0253041972
 21
30.7551182848
  0
LINE
  8
0
 62
7
  6
CONTINUOUS
 10
153.5049916972
 20
31.2390736489
 11
153.4471794177
 21
31.400392081
  0
LINE
  8
0
 62
7
  6
CONTINUOUS
 10
153.9674919177
 20
31.4326557675
 11
153.9674919177
 21
31.3681283946
  0
LINE
  8
0
 62
7
  6
CONTINUOUS
 10
153.9674919177
 20
30.9809641124
 11
153.9674919177
 21
30.8841730531
  0
LINE
  8
0
 62
7
  6
CONTINUOUS
 10
154.245872955
 20
32.3970785186
 11
154.245872955
 21
36.1675703219
  0
LINE
  8
0
 62
7
  6
CONTINUOUS
 10
154.2565543074
 20
30.8519093441
 11
154.2565543074
 21
30.9164367395
  0
LINE
  8
0
 62
7
  6
CONTINUOUS
 10
154.5737418074
 20
36.1675703219
 11
154.5737418074
 21
32.3970785186
  0
LINE
  8
0
 62
7
  6
CONTINUOUS
 10
151.3659292523
 20
30.7873819712
 11
151.4237418626
 21
30.9164367395
  0
LINE
  8
0
 62
7
  6
CONTINUOUS
 10
155.759679528
 20
30.6905909007
 11
155.7018665869
 21
30.8519093441
  0
LINE
  8
0
 62
7
  6
CONTINUOUS
 10
155.412804528
 20
31.3681283946
 11
155.412804528
 21
31.2713373354
  0
LINE
  8
0
 62
7
  6
CONTINUOUS
 10
155.412804528
 20
31.1422825445
 11
155.412804528
 21
30.9487004259
  0
LINE
  8
0
 62
7
  6
CONTINUOUS
 10
155.7018665869
 20
30.8519093441
 11
155.7018665869
 21
31.3681283946
  0
LINE
  8
0
 62
7
  6
CONTINUOUS
 10
155.9671844304
 20
32.3970785186
 11
155.9671844304
 21
34.2003572071
  0
LINE
  8
0
 62
7
  6
CONTINUOUS
 10
155.9671844304
 20
35.511832617
 11
155.9671844304
 21
36.1675703219
  0
LINE
  8
0
 62
7
  6
CONTINUOUS
 10
156.279992028
 20
32.1101932727
 11
156.279992028
 21
31.9488748406
  0
LINE
  8
0
 62
7
  6
CONTINUOUS
 10
156.279992028
 20
31.626237886
 11
156.279992028
 21
30.5937998301
  0
LINE
  8
0
 62
7
  6
CONTINUOUS
 10
156.5690540869
 20
30.5937998301
 11
156.5690540869
 21
31.626237886
  0
LINE
  8
0
 62
7
  6
CONTINUOUS
 10
156.5690540869
 20
31.9488748406
 11
156.5690540869
 21
32.1101932727
  0
LINE
  8
0
 62
7
  6
CONTINUOUS
 10
151.1346793074
 20
30.9164367395
 11
151.0768668626
 21
30.8196456577
  0
LINE
  8
0
 62
7
  6
CONTINUOUS
 10
153.4471794177
 20
31.400392081
 11
153.3893668074
 21
31.4649194539
  0
LINE
  8
0
 62
7
  6
CONTINUOUS
 10
154.3143669177
 20
30.7873819712
 11
154.2565543074
 21
30.8519093441
  0
LINE
  8
0
 62
7
  6
CONTINUOUS
 10
155.4706168074
 20
30.6583272086
 11
155.5284290869
 21
30.5937998301
  0
LINE
  8
0
 62
7
  6
CONTINUOUS
 10
155.412804528
 20
30.7551182848
 11
155.4706168074
 21
30.6583272086
  0
LINE
  8
0
 62
7
  6
CONTINUOUS
 10
155.8174918074
 20
30.5937998301
 11
155.759679528
 21
30.6905909007
  0
LINE
  8
0
 62
7
  6
CONTINUOUS
 10
155.7018665869
 20
31.3681283946
 11
155.6440543074
 21
31.4649194539
  0
LINE
  8
0
 62
7
  6
CONTINUOUS
 10
157.0315543074
 20
31.626237886
 11
157.0315543074
 21
30.5937998301
  0
LINE
  8
0
 62
7
  6
CONTINUOUS
 10
157.320617028
 20
30.5937998301
 11
157.320617028
 21
31.3358647082
  0
LINE
  8
0
 62
7
  6
CONTINUOUS
 10
157.320617028
 20
31.4649194539
 11
157.320617028
 21
31.626237886
  0
LINE
  8
0
 62
7
  6
CONTINUOUS
 10
157.852430332
 20
34.6101932727
 11
157.852430332
 21
32.3970785186
  0
LINE
  8
0
 62
7
  6
CONTINUOUS
 10
149.7471793074
 20
31.4326557675
 11
149.6315543091
 21
31.3036010218
  0
LINE
  8
0
 62
7
  6
CONTINUOUS
 10
149.9206168074
 20
31.2713373354
 11
149.9784292936
 21
31.3358647082
  0
LINE
  8
0
 62
7
  6
CONTINUOUS
 10
149.7471793074
 20
30.7873819712
 11
149.8628043005
 21
30.7228545871
  0
LINE
  8
0
 62
7
  6
CONTINUOUS
 10
150.1518667936
 20
30.7873819712
 11
149.9784292936
 21
30.8841730531
  0
LINE
  8
0
 62
7
  6
CONTINUOUS
 10
155.3549915869
 20
31.4326557675
 11
155.412804528
 21
31.3681283946
  0
LINE
  8
0
 62
7
  6
CONTINUOUS
 10
158.3034290869
 20
31.3681283946
 11
158.361242028
 21
31.2068099625
  0
LINE
  8
0
 62
7
  6
CONTINUOUS
 10
158.6503040869
 20
31.2068099625
 11
158.5924918074
 21
31.3681283946
  0
LINE
  8
0
 62
7
  6
CONTINUOUS
 10
158.361242028
 20
31.2068099625
 11
158.361242028
 21
30.5937998301
  0
LINE
  8
0
 62
7
  6
CONTINUOUS
 10
158.6503040869
 20
30.5937998301
 11
158.6503040869
 21
31.2068099625
  0
LINE
  8
0
 62
7
  6
CONTINUOUS
 10
159.1128043074
 20
31.4326557675
 11
159.1128043074
 21
31.3681283946
  0
LINE
  8
0
 62
7
  6
CONTINUOUS
 10
159.245872955
 20
32.3970785186
 11
159.245872955
 21
34.5282260596
  0
LINE
  8
0
 62
7
  6
CONTINUOUS
 10
159.5737418074
 20
36.1675703219
 11
159.5737418074
 21
32.3970785186
  0
LINE
  8
0
 62
7
  6
CONTINUOUS
 10
154.2565543074
 20
30.9164367395
 11
154.3143669177
 21
31.0132277988
  0
LINE
  8
0
 62
7
  6
CONTINUOUS
 10
149.8628043005
 20
30.7228545871
 11
150.0362418212
 21
30.6583272086
  0
LINE
  8
0
 62
7
  6
CONTINUOUS
 10
151.3659292523
 20
31.4326557675
 11
151.1924917523
 21
31.5294468267
  0
LINE
  8
0
 62
7
  6
CONTINUOUS
 10
154.0253041972
 20
30.7551182848
 11
154.1987416972
 21
30.6583272086
  0
LINE
  8
0
 62
7
  6
CONTINUOUS
 10
153.0424918074
 20
31.4326557675
 11
153.1581166972
 21
31.3681283946
  0
LINE
  8
0
 62
7
  6
CONTINUOUS
 10
153.3893668074
 20
31.4649194539
 11
153.2737419177
 21
31.5294468267
  0
LINE
  8
0
 62
7
  6
CONTINUOUS
 10
159.1128043074
 20
30.8519093441
 11
159.228429528
 21
30.7228545871
  0
LINE
  8
0
 62
7
  6
CONTINUOUS
 10
159.4596793074
 20
30.7873819712
 11
159.401867028
 21
30.8519093441
  0
LINE
  8
0
 62
7
  6
CONTINUOUS
 10
159.1128043074
 20
31.3681283946
 11
159.228429528
 21
31.2390736489
  0
LINE
  8
0
 62
7
  6
CONTINUOUS
 10
158.5924918074
 20
31.3681283946
 11
158.534679528
 21
31.4649194539
  0
LINE
  8
0
 62
7
  6
CONTINUOUS
 10
160.9628038663
 20
30.7873819712
 11
160.9628038663
 21
30.8519093441
  0
LINE
  8
0
 62
7
  6
CONTINUOUS
 10
160.9671844304
 20
32.3970785186
 11
160.9671844304
 21
36.1675703219
  0
LINE
  8
0
 62
7
  6
CONTINUOUS
 10
154.0253041972
 20
31.4971831403
 11
153.9674919177
 21
31.4326557675
  0
LINE
  8
0
 62
7
  6
CONTINUOUS
 10
150.9034292799
 20
31.4649194539
 11
151.0768668626
 21
31.400392081
  0
LINE
  8
0
 62
7
  6
CONTINUOUS
 10
155.6440543074
 20
31.4649194539
 11
155.5284290869
 21
31.5294468267
  0
LINE
  8
0
 62
7
  6
CONTINUOUS
 10
159.4596793074
 20
31.3036010218
 11
159.401867028
 21
31.3681283946
  0
LINE
  8
0
 62
7
  6
CONTINUOUS
 10
160.615929528
 20
30.9164367395
 11
160.6737418074
 21
30.8519093441
  0
LINE
  8
0
 62
7
  6
CONTINUOUS
 10
160.9628038663
 20
30.8519093441
 11
160.8471793074
 21
30.9809641124
  0
LINE
  8
0
 62
7
  6
CONTINUOUS
 10
160.615929528
 20
31.4326557675
 11
160.6737418074
 21
31.3681283946
  0
LINE
  8
0
 62
7
  6
CONTINUOUS
 10
160.9628038663
 20
31.3681283946
 11
160.8471793074
 21
31.4971831403
  0
LINE
  8
0
 62
7
  6
CONTINUOUS
 10
154.2565543074
 20
31.3681283946
 11
154.3143669177
 21
31.4326557675
  0
LINE
  8
0
 62
7
  6
CONTINUOUS
 10
154.0831168074
 20
31.1100188581
 11
153.9674919177
 21
30.9809641124
  0
LINE
  8
0
 62
7
  6
CONTINUOUS
 10
155.412804528
 20
30.9487004259
 11
155.3549915869
 21
30.8841730531
  0
LINE
  8
0
 62
7
  6
CONTINUOUS
 10
155.3549915869
 20
30.6905909007
 11
155.412804528
 21
30.7551182848
  0
LINE
  8
0
 62
7
  6
CONTINUOUS
 10
154.1987416972
 20
30.6583272086
 11
154.3143669177
 21
30.6260635193
  0
LINE
  8
0
 62
7
  6
CONTINUOUS
 10
151.1924917523
 20
31.5294468267
 11
150.9612418074
 21
31.5939741996
  0
LINE
  8
0
 62
7
  6
CONTINUOUS
 10
154.5456166972
 20
30.7228545871
 11
154.3143669177
 21
30.7873819712
  0
LINE
  8
0
 62
7
  6
CONTINUOUS
 10
153.2737419177
 20
31.5294468267
 11
153.1003044177
 21
31.5939741996
  0
LINE
  8
0
 62
7
  6
CONTINUOUS
 10
155.5284290869
 20
31.5294468267
 11
155.3549915869
 21
31.5939741996
  0
LINE
  8
0
 62
7
  6
CONTINUOUS
 10
158.187804528
 20
31.4326557675
 11
158.3034290869
 21
31.3681283946
  0
LINE
  8
0
 62
7
  6
CONTINUOUS
 10
158.534679528
 20
31.4649194539
 11
158.4190543074
 21
31.5294468267
  0
LINE
  8
0
 62
7
  6
CONTINUOUS
 10
150.0362418212
 20
30.6583272086
 11
150.2096793212
 21
30.6260635193
  0
LINE
  8
0
 62
7
  6
CONTINUOUS
 10
150.498741835
 20
30.7228545871
 11
150.1518667936
 21
30.7873819712
  0
LINE
  8
0
 62
7
  6
CONTINUOUS
 10
152.9268669177
 20
31.4649194539
 11
153.0424918074
 21
31.4326557675
  0
LINE
  8
0
 62
7
  6
CONTINUOUS
 10
155.239367028
 20
31.4649194539
 11
155.3549915869
 21
31.4326557675
  0
LINE
  8
0
 62
7
  6
CONTINUOUS
 10
159.575304528
 20
30.7551182848
 11
159.4596793074
 21
30.7873819712
  0
LINE
  8
0
 62
7
  6
CONTINUOUS
 10
158.0721793074
 20
31.4649194539
 11
158.187804528
 21
31.4326557675
  0
LINE
  8
0
 62
7
  6
CONTINUOUS
 10
159.228429528
 20
30.7228545871
 11
159.401867028
 21
30.6583272086
  0
LINE
  8
0
 62
7
  6
CONTINUOUS
 10
158.4190543074
 20
31.5294468267
 11
158.2456168074
 21
31.5939741996
  0
LINE
  8
0
 62
7
  6
CONTINUOUS
 10
159.6331168074
 20
31.2390736489
 11
159.4596793074
 21
31.3036010218
  0
LINE
  8
0
 62
7
  6
CONTINUOUS
 10
160.442492028
 20
30.9809641124
 11
160.615929528
 21
30.9164367395
  0
LINE
  8
0
 62
7
  6
CONTINUOUS
 10
160.8471793074
 20
31.4971831403
 11
160.6737418074
 21
31.5617105132
  0
LINE
  8
0
 62
7
  6
CONTINUOUS
 10
159.228429528
 20
31.2390736489
 11
159.4596793074
 21
31.1422825445
  0
LINE
  8
0
 62
7
  6
CONTINUOUS
 10
160.8471793074
 20
30.9809641124
 11
160.615929528
 21
31.0777551716
  0
LINE
  8
0
 62
7
  6
CONTINUOUS
 10
159.401867028
 20
31.3681283946
 11
159.4596793074
 21
31.4326557675
  0
LINE
  8
0
 62
7
  6
CONTINUOUS
 10
149.8628043005
 20
31.4971831403
 11
149.7471793074
 21
31.4326557675
  0
LINE
  8
0
 62
7
  6
CONTINUOUS
 10
149.9784292936
 20
31.3358647082
 11
150.1518667936
 21
31.4326557675
  0
LINE
  8
0
 62
7
  6
CONTINUOUS
 10
152.2909293626
 20
31.5294468267
 11
152.1753043074
 21
31.4649194539
  0
LINE
  8
0
 62
7
  6
CONTINUOUS
 10
152.1753043074
 20
31.3358647082
 11
152.2909293626
 21
31.400392081
  0
LINE
  8
0
 62
7
  6
CONTINUOUS
 10
151.1924917523
 20
30.6905909007
 11
151.3659292523
 21
30.7873819712
  0
LINE
  8
0
 62
7
  6
CONTINUOUS
 10
150.2096793212
 20
30.6260635193
 11
150.5565542799
 21
30.5937998301
  0
LINE
  8
0
 62
7
  6
CONTINUOUS
 10
154.3143669177
 20
30.6260635193
 11
154.5456166972
 21
30.5937998301
  0
LINE
  8
0
 62
7
  6
CONTINUOUS
 10
152.6956168074
 20
31.4971831403
 11
152.9268669177
 21
31.4649194539
  0
LINE
  8
0
 62
7
  6
CONTINUOUS
 10
155.0081169177
 20
31.4971831403
 11
155.239367028
 21
31.4649194539
  0
LINE
  8
0
 62
7
  6
CONTINUOUS
 10
159.4596793074
 20
31.1422825445
 11
160.442492028
 21
30.9809641124
  0
LINE
  8
0
 62
7
  6
CONTINUOUS
 10
160.615929528
 20
31.0777551716
 11
159.6331168074
 21
31.2390736489
  0
LINE
  8
0
 62
7
  6
CONTINUOUS
 10
153.1003044177
 20
31.5939741996
 11
152.9268669177
 21
31.626237886
  0
LINE
  8
0
 62
7
  6
CONTINUOUS
 10
159.401867028
 20
30.6583272086
 11
159.575304528
 21
30.6260635193
  0
LINE
  8
0
 62
7
  6
CONTINUOUS
 10
158.2456168074
 20
31.5939741996
 11
158.0721793074
 21
31.626237886
  0
LINE
  8
0
 62
7
  6
CONTINUOUS
 10
160.5003043074
 20
31.4649194539
 11
160.615929528
 21
31.4326557675
  0
LINE
  8
0
 62
7
  6
CONTINUOUS
 10
160.6737418074
 20
30.8519093441
 11
160.615929528
 21
30.7873819712
  0
LINE
  8
0
 62
7
  6
CONTINUOUS
 10
159.228429528
 20
31.5294468267
 11
159.1128043074
 21
31.4326557675
  0
LINE
  8
0
 62
7
  6
CONTINUOUS
 10
154.1409294177
 20
31.5617105132
 11
154.0253041972
 21
31.4971831403
  0
LINE
  8
0
 62
7
  6
CONTINUOUS
 10
154.1987416972
 20
31.1745462761
 11
154.0831168074
 21
31.1100188581
  0
LINE
  8
0
 62
7
  6
CONTINUOUS
 10
154.3143669177
 20
31.0132277988
 11
154.4299918074
 21
31.0777551716
  0
LINE
  8
0
 62
7
  6
CONTINUOUS
 10
151.8862417523
 20
30.5937998301
 11
152.1753043074
 21
30.5937998301
  0
LINE
  8
0
 62
7
  6
CONTINUOUS
 10
153.2159293074
 20
30.5937998301
 11
153.5049916972
 21
30.5937998301
  0
LINE
  8
0
 62
7
  6
CONTINUOUS
 10
154.5456166972
 20
30.5937998301
 11
154.8924916972
 21
30.5937998301
  0
LINE
  8
0
 62
7
  6
CONTINUOUS
 10
155.5284290869
 20
30.5937998301
 11
155.8174918074
 21
30.5937998301
  0
LINE
  8
0
 62
7
  6
CONTINUOUS
 10
156.279992028
 20
30.5937998301
 11
156.5690540869
 21
30.5937998301
  0
LINE
  8
0
 62
7
  6
CONTINUOUS
 10
157.0315543074
 20
30.5937998301
 11
157.320617028
 21
30.5937998301
  0
LINE
  8
0
 62
7
  6
CONTINUOUS
 10
158.361242028
 20
30.5937998301
 11
158.6503040869
 21
30.5937998301
  0
LINE
  8
0
 62
7
  6
CONTINUOUS
 10
159.922179528
 20
30.5937998301
 11
160.269054528
 21
30.5937998301
  0
LINE
  8
0
 62
7
  6
CONTINUOUS
 10
160.269054528
 20
30.7228545871
 11
159.922179528
 21
30.7228545871
  0
LINE
  8
0
 62
7
  6
CONTINUOUS
 10
154.8924916972
 20
30.7228545871
 11
154.5456166972
 21
30.7228545871
  0
LINE
  8
0
 62
7
  6
CONTINUOUS
 10
159.401867028
 20
30.8519093441
 11
159.1128043074
 21
30.8519093441
  0
LINE
  8
0
 62
7
  6
CONTINUOUS
 10
151.4237418626
 20
30.9164367395
 11
151.1346793074
 21
30.9164367395
  0
LINE
  8
0
 62
7
  6
CONTINUOUS
 10
150.498741835
 20
31.4971831403
 11
150.9034292799
 21
31.4649194539
  0
LINE
  8
0
 62
7
  6
CONTINUOUS
 10
150.9612418074
 20
31.5939741996
 11
150.5565542799
 21
31.626237886
  0
LINE
  8
0
 62
7
  6
CONTINUOUS
 10
159.575304528
 20
30.6260635193
 11
159.922179528
 21
30.5937998301
  0
LINE
  8
0
 62
7
  6
CONTINUOUS
 10
159.922179528
 20
30.7228545871
 11
159.575304528
 21
30.7551182848
  0
LINE
  8
0
 62
7
  6
CONTINUOUS
 10
155.3549915869
 20
31.5939741996
 11
155.0081169177
 21
31.626237886
  0
LINE
  8
0
 62
7
  6
CONTINUOUS
 10
160.1534293074
 20
31.4971831403
 11
160.5003043074
 21
31.4649194539
  0
LINE
  8
0
 62
7
  6
CONTINUOUS
 10
160.5003043074
 20
31.5939741996
 11
160.1534293074
 21
31.626237886
  0
LINE
  8
0
 62
7
  6
CONTINUOUS
 10
157.840929528
 20
31.4971831403
 11
158.0721793074
 21
31.4649194539
  0
LINE
  8
0
 62
7
  6
CONTINUOUS
 10
160.6737418074
 20
31.5617105132
 11
160.5003043074
 21
31.5939741996
  0
LINE
  8
0
 62
7
  6
CONTINUOUS
 10
160.8471793074
 20
30.6905909007
 11
160.9628038663
 21
30.7873819712
  0
LINE
  8
0
 62
7
  6
CONTINUOUS
 10
155.3549915869
 20
30.8841730531
 11
155.1815540869
 21
30.7873819712
  0
LINE
  8
0
 62
7
  6
CONTINUOUS
 10
157.4362415869
 20
31.5294468267
 11
157.320617028
 21
31.4649194539
  0
LINE
  8
0
 62
7
  6
CONTINUOUS
 10
157.320617028
 20
31.3358647082
 11
157.4362415869
 21
31.400392081
  0
LINE
  8
0
 62
7
  6
CONTINUOUS
 10
150.0362418212
 20
31.5617105132
 11
149.8628043005
 21
31.4971831403
  0
LINE
  8
0
 62
7
  6
CONTINUOUS
 10
152.4643666972
 20
31.5939741996
 11
152.2909293626
 21
31.5294468267
  0
LINE
  8
0
 62
7
  6
CONTINUOUS
 10
152.2909293626
 20
31.400392081
 11
152.4643666972
 21
31.4649194539
  0
LINE
  8
0
 62
7
  6
CONTINUOUS
 10
151.0768668626
 20
30.8196456577
 11
150.9034292799
 21
30.7551182848
  0
LINE
  8
0
 62
7
  6
CONTINUOUS
 10
160.5003043074
 20
30.7551182848
 11
160.269054528
 21
30.7228545871
  0
LINE
  8
0
 62
7
  6
CONTINUOUS
 10
154.8924916972
 20
30.5937998301
 11
155.1815540869
 21
30.6260635193
  0
LINE
  8
0
 62
7
  6
CONTINUOUS
 10
160.269054528
 20
30.5937998301
 11
160.615929528
 21
30.6260635193
  0
LINE
  8
0
 62
7
  6
CONTINUOUS
 10
150.5565542799
 20
30.5937998301
 11
150.9612418074
 21
30.6260635193
  0
LINE
  8
0
 62
7
  6
CONTINUOUS
 10
150.9034292799
 20
30.7551182848
 11
150.498741835
 21
30.7228545871
  0
LINE
  8
0
 62
7
  6
CONTINUOUS
 10
154.7768668074
 20
31.1422825445
 11
155.412804528
 21
31.1422825445
  0
LINE
  8
0
 62
7
  6
CONTINUOUS
 10
155.412804528
 20
31.2713373354
 11
154.7768668074
 21
31.2713373354
  0
LINE
  8
0
 62
7
  6
CONTINUOUS
 10
151.1346793074
 20
31.3036010218
 11
151.4237418626
 21
31.3036010218
  0
LINE
  8
0
 62
7
  6
CONTINUOUS
 10
153.9674919177
 20
31.3681283946
 11
154.2565543074
 21
31.3681283946
  0
LINE
  8
0
 62
7
  6
CONTINUOUS
 10
160.6737418074
 20
31.3681283946
 11
160.9628038663
 21
31.3681283946
  0
LINE
  8
0
 62
7
  6
CONTINUOUS
 10
154.6612419177
 20
31.4971831403
 11
155.0081169177
 21
31.4971831403
  0
LINE
  8
0
 62
7
  6
CONTINUOUS
 10
159.8065543074
 20
31.4971831403
 11
160.1534293074
 21
31.4971831403
  0
LINE
  8
0
 62
7
  6
CONTINUOUS
 10
160.1534293074
 20
31.626237886
 11
159.8065543074
 21
31.626237886
  0
LINE
  8
0
 62
7
  6
CONTINUOUS
 10
158.0721793074
 20
31.626237886
 11
157.840929528
 21
31.626237886
  0
LINE
  8
0
 62
7
  6
CONTINUOUS
 10
157.320617028
 20
31.626237886
 11
157.0315543074
 21
31.626237886
  0
LINE
  8
0
 62
7
  6
CONTINUOUS
 10
156.5690540869
 20
31.626237886
 11
156.279992028
 21
31.626237886
  0
LINE
  8
0
 62
7
  6
CONTINUOUS
 10
155.0081169177
 20
31.626237886
 11
154.6612419177
 21
31.626237886
  0
LINE
  8
0
 62
7
  6
CONTINUOUS
 10
152.9268669177
 20
31.626237886
 11
152.6956168074
 21
31.626237886
  0
LINE
  8
0
 62
7
  6
CONTINUOUS
 10
156.279992028
 20
31.9488748406
 11
156.5690540869
 21
31.9488748406
  0
LINE
  8
0
 62
7
  6
CONTINUOUS
 10
156.5690540869
 20
32.1101932727
 11
156.279992028
 21
32.1101932727
  0
LINE
  8
0
 62
7
  6
CONTINUOUS
 10
152.1753043074
 20
32.1101932727
 11
151.8862417523
 21
32.1101932727
  0
LINE
  8
0
 62
7
  6
CONTINUOUS
 10
151.2130860697
 20
32.3970785186
 11
151.6256574183
 21
32.3970785186
  0
LINE
  8
0
 62
7
  6
CONTINUOUS
 10
152.852430332
 20
32.3970785186
 11
154.245872955
 21
32.3970785186
  0
LINE
  8
0
 62
7
  6
CONTINUOUS
 10
154.5737418074
 20
32.3970785186
 11
155.9671844304
 21
32.3970785186
  0
LINE
  8
0
 62
7
  6
CONTINUOUS
 10
157.852430332
 20
32.3970785186
 11
159.245872955
 21
32.3970785186
  0
LINE
  8
0
 62
7
  6
CONTINUOUS
 10
159.5737418074
 20
32.3970785186
 11
160.9671844304
 21
32.3970785186
  0
LINE
  8
0
 62
7
  6
CONTINUOUS
 10
157.6096790869
 20
31.5939741996
 11
157.4362415869
 21
31.5294468267
  0
LINE
  8
0
 62
7
  6
CONTINUOUS
 10
155.1815540869
 20
30.6260635193
 11
155.3549915869
 21
30.6905909007
  0
LINE
  8
0
 62
7
  6
CONTINUOUS
 10
160.615929528
 20
30.6260635193
 11
160.8471793074
 21
30.6905909007
  0
LINE
  8
0
 62
7
  6
CONTINUOUS
 10
160.615929528
 20
30.7873819712
 11
160.5003043074
 21
30.7551182848
  0
LINE
  8
0
 62
7
  6
CONTINUOUS
 10
159.575304528
 20
31.4649194539
 11
159.8065543074
 21
31.4971831403
  0
LINE
  8
0
 62
7
  6
CONTINUOUS
 10
157.6096790869
 20
31.4649194539
 11
157.840929528
 21
31.4971831403
  0
LINE
  8
0
 62
7
  6
CONTINUOUS
 10
154.5456166972
 20
31.1100188581
 11
154.7768668074
 21
31.1422825445
  0
LINE
  8
0
 62
7
  6
CONTINUOUS
 10
157.840929528
 20
31.626237886
 11
157.6096790869
 21
31.5939741996
  0
LINE
  8
0
 62
7
  6
CONTINUOUS
 10
154.4299918074
 20
31.4649194539
 11
154.6612419177
 21
31.4971831403
  0
LINE
  8
0
 62
7
  6
CONTINUOUS
 10
159.8065543074
 20
31.626237886
 11
159.4596793074
 21
31.5939741996
  0
LINE
  8
0
 62
7
  6
CONTINUOUS
 10
154.7768668074
 20
31.2713373354
 11
154.4299918074
 21
31.2390736489
  0
LINE
  8
0
 62
7
  6
CONTINUOUS
 10
150.5565542799
 20
31.626237886
 11
150.2096793212
 21
31.5939741996
  0
LINE
  8
0
 62
7
  6
CONTINUOUS
 10
154.6612419177
 20
31.626237886
 11
154.2565543074
 21
31.5939741996
  0
LINE
  8
0
 62
7
  6
CONTINUOUS
 10
152.0327582009
 20
33.5446195022
 11
151.3770204959
 21
33.5446195022
  0
LINE
  8
0
 62
7
  6
CONTINUOUS
 10
157.4362415869
 20
31.400392081
 11
157.6096790869
 21
31.4649194539
  0
LINE
  8
0
 62
7
  6
CONTINUOUS
 10
159.4596793074
 20
31.4326557675
 11
159.575304528
 21
31.4649194539
  0
LINE
  8
0
 62
7
  6
CONTINUOUS
 10
159.4596793074
 20
31.5939741996
 11
159.228429528
 21
31.5294468267
  0
LINE
  8
0
 62
7
  6
CONTINUOUS
 10
155.1815540869
 20
30.7873819712
 11
154.8924916972
 21
30.7228545871
  0
LINE
  8
0
 62
7
  6
CONTINUOUS
 10
152.4643666972
 20
31.4649194539
 11
152.6956168074
 21
31.4971831403
  0
LINE
  8
0
 62
7
  6
CONTINUOUS
 10
152.6956168074
 20
31.626237886
 11
152.4643666972
 21
31.5939741996
  0
LINE
  8
0
 62
7
  6
CONTINUOUS
 10
150.2674918074
 20
31.4649194539
 11
150.498741835
 21
31.4971831403
  0
LINE
  8
0
 62
7
  6
CONTINUOUS
 10
156.7868565615
 20
35.0200293383
 11
157.4425942664
 21
35.0200293383
  0
LINE
  8
0
 62
7
  6
CONTINUOUS
 10
154.4299918074
 20
31.0777551716
 11
154.5456166972
 21
31.1100188581
  0
LINE
  8
0
 62
7
  6
CONTINUOUS
 10
154.4299918074
 20
31.2390736489
 11
154.1987416972
 21
31.1745462761
  0
LINE
  8
0
 62
7
  6
CONTINUOUS
 10
154.3143669177
 20
31.4326557675
 11
154.4299918074
 21
31.4649194539
  0
LINE
  8
0
 62
7
  6
CONTINUOUS
 10
150.9612418074
 20
30.6260635193
 11
151.1924917523
 21
30.6905909007
  0
LINE
  8
0
 62
7
  6
CONTINUOUS
 10
154.2565543074
 20
31.5939741996
 11
154.1409294177
 21
31.5617105132
  0
LINE
  8
0
 62
7
  6
CONTINUOUS
 10
150.2096793212
 20
31.5939741996
 11
150.0362418212
 21
31.5617105132
  0
LINE
  8
0
 62
7
  6
CONTINUOUS
 10
160.9671844304
 20
36.1675703219
 11
159.5737418074
 21
36.1675703219
  0
LINE
  8
0
 62
7
  6
CONTINUOUS
 10
157.6065286927
 20
36.1675703219
 11
157.1939573441
 21
36.1675703219
  0
LINE
  8
0
 62
7
  6
CONTINUOUS
 10
155.9671844304
 20
36.1675703219
 11
154.5737418074
 21
36.1675703219
  0
LINE
  8
0
 62
7
  6
CONTINUOUS
 10
154.245872955
 20
36.1675703219
 11
152.852430332
 21
36.1675703219
  0
LINE
  8
0
 62
7
  6
CONTINUOUS
 10
150.9671844304
 20
36.1675703219
 11
149.5737418074
 21
36.1675703219
  0
LINE
  8
0
 62
7
  6
CONTINUOUS
 10
150.1518667936
 20
31.4326557675
 11
150.2674918074
 21
31.4649194539
  0
CIRCLE
  8
0
 62
7
  6
CONTINUOUS
 10
160.2704631189
 20
38.5036358957
 40
2.0901639344
  0
ARC
  8
0
 62
7
  6
CONTINUOUS
 10
151.2130860697
 20
34.0364227809
 40
1.6393442623
 50
180.0
 51
270.0
  0
ARC
  8
0
 62
7
  6
CONTINUOUS
 10
157.6065286927
 20
34.5282260596
 40
1.6393442623
 50
0.0
 51
90.0
  0
ARC
  8
0
 62
7
  6
CONTINUOUS
 10
151.6256574183
 20
33.8724883547
 40
1.4754098361
 50
270.0
 51
326.2510114041
  0
ARC
  8
0
 62
7
  6
CONTINUOUS
 10
157.1939573441
 20
34.6921604858
 40
1.4754098361
 50
90.0
 51
146.2510114041
  0
ARC
  8
0
 62
7
  6
CONTINUOUS
 10
152.0327582009
 20
34.3642916334
 40
0.8196721311
 50
270.0
 51
360.0
  0
ARC
  8
0
 62
7
  6
CONTINUOUS
 10
156.7868565615
 20
34.2003572071
 40
0.8196721311
 50
90.0
 51
180.0
  0
ARC
  8
0
 62
7
  6
CONTINUOUS
 10
151.3770204959
 20
33.9544555678
 40
0.4098360656
 50
180.0
 51
270.0
  0
ARC
  8
0
 62
7
  6
CONTINUOUS
 10
157.4425942664
 20
34.6101932727
 40
0.4098360656
 50
0.0
 51
90.0
  0
SOLID
  8
0
 62
7
  6
CONTINUOUS
 10
156.279992028
 20
31.9488752009
 11
156.279992028
 21
32.1101936845
 12
156.5690540869
 22
31.9488752009
 13
156.5690540869
 23
32.1101936845
  0
SOLID
  8
0
 62
7
  6
CONTINUOUS
 10
150.5565542799
 20
31.6262382337
 11
150.9612418074
 21
31.5939740028
 12
150.2096793212
 22
31.5939740028
 13
150.2096793212
 23
31.5939740028
  0
SOLID
  8
0
 62
7
  6
CONTINUOUS
 10
150.0362418212
 20
31.5617111435
 11
150.2096793212
 21
31.5939740028
 12
150.9612418074
 22
31.5939740028
 13
150.9612418074
 23
31.5939740028
  0
SOLID
  8
0
 62
7
  6
CONTINUOUS
 10
150.9612418074
 20
31.5939740028
 11
151.1924917523
 21
31.5294468402
 12
150.0362418212
 22
31.5617111435
 13
150.0362418212
 23
31.5617111435
  0
SOLID
  8
0
 62
7
  6
CONTINUOUS
 10
149.8628043005
 20
31.49718259
 11
150.0362418212
 21
31.5617111435
 12
151.1924917523
 22
31.5294468402
 13
151.1924917523
 23
31.5294468402
  0
SOLID
  8
0
 62
7
  6
CONTINUOUS
 10
149.8628043005
 20
31.49718259
 11
151.1924917523
 21
31.5294468402
 12
150.498741835
 22
31.49718259
 13
150.498741835
 23
31.49718259
  0
SOLID
  8
0
 62
7
  6
CONTINUOUS
 10
150.498741835
 20
31.49718259
 11
151.1924917523
 21
31.5294468402
 12
150.9034292799
 22
31.4649197501
 13
150.9034292799
 23
31.4649197501
  0
SOLID
  8
0
 62
7
  6
CONTINUOUS
 10
151.1924917523
 20
31.5294468402
 11
151.3659292523
 21
31.4326554468
 12
150.9034292799
 22
31.4649197501
 13
150.9034292799
 23
31.4649197501
  0
SOLID
  8
0
 62
7
  6
CONTINUOUS
 10
151.0768668626
 20
31.4003926599
 11
150.9034292799
 21
31.4649197501
 12
151.3659292523
 22
31.4326554468
 13
151.3659292523
 23
31.4326554468
  0
SOLID
  8
0
 62
7
  6
CONTINUOUS
 10
151.0768668626
 20
31.4003926599
 11
151.3659292523
 21
31.4326554468
 12
151.1346793074
 22
31.3036013776
 13
151.1346793074
 23
31.3036013776
  0
SOLID
  8
0
 62
7
  6
CONTINUOUS
 10
151.3659292523
 20
31.4326554468
 11
151.4237418626
 21
31.3036013776
 12
151.1346793074
 22
31.3036013776
 13
151.1346793074
 23
31.3036013776
  0
SOLID
  8
0
 62
7
  6
CONTINUOUS
 10
152.4643666972
 20
31.5939739754
 11
152.6956168074
 21
31.6262382787
 12
152.9268669177
 22
31.6262382787
 13
152.9268669177
 23
31.6262382787
  0
SOLID
  8
0
 62
7
  6
CONTINUOUS
 10
152.9268669177
 20
31.6262382787
 11
153.1003044177
 21
31.5939739754
 12
152.4643666972
 22
31.5939739754
 13
152.4643666972
 23
31.5939739754
  0
SOLID
  8
0
 62
7
  6
CONTINUOUS
 10
152.2909293626
 20
31.5294468852
 11
152.4643666972
 21
31.5939739754
 12
153.1003044177
 22
31.5939739754
 13
153.1003044177
 23
31.5939739754
  0
SOLID
  8
0
 62
7
  6
CONTINUOUS
 10
153.1003044177
 20
31.5939739754
 11
153.2737419177
 21
31.5294468852
 12
152.2909293626
 22
31.5294468852
 13
152.2909293626
 23
31.5294468852
  0
SOLID
  8
0
 62
7
  6
CONTINUOUS
 10
153.2737419177
 20
31.5294468852
 11
152.6956168074
 21
31.4971825369
 12
152.2909293626
 22
31.5294468852
 13
152.2909293626
 23
31.5294468852
  0
SOLID
  8
0
 62
7
  6
CONTINUOUS
 10
152.1753043074
 20
31.4649197951
 11
152.2909293626
 21
31.5294468852
 12
152.6956168074
 22
31.4971825369
 13
152.6956168074
 23
31.4971825369
  0
SOLID
  8
0
 62
7
  6
CONTINUOUS
 10
152.6956168074
 20
31.4971825369
 11
152.4643666972
 21
31.4649197951
 12
152.1753043074
 22
31.4649197951
 13
152.1753043074
 23
31.4649197951
  0
SOLID
  8
0
 62
7
  6
CONTINUOUS
 10
152.6956168074
 20
31.4971825369
 11
153.2737419177
 21
31.5294468852
 12
152.9268669177
 22
31.4649197951
 13
152.9268669177
 23
31.4649197951
  0
SOLID
  8
0
 62
7
  6
CONTINUOUS
 10
153.2737419177
 20
31.5294468852
 11
153.3893668074
 21
31.4649197951
 12
152.9268669177
 22
31.4649197951
 13
152.9268669177
 23
31.4649197951
  0
SOLID
  8
0
 62
7
  6
CONTINUOUS
 10
153.0424918074
 20
31.4326554468
 11
152.9268669177
 21
31.4649197951
 12
153.3893668074
 22
31.4649197951
 13
153.3893668074
 23
31.4649197951
  0
SOLID
  8
0
 62
7
  6
CONTINUOUS
 10
153.3893668074
 20
31.4649197951
 11
153.4471794177
 21
31.4003927049
 12
153.0424918074
 22
31.4326554468
 13
153.0424918074
 23
31.4326554468
  0
SOLID
  8
0
 62
7
  6
CONTINUOUS
 10
153.1581166972
 20
31.3681283566
 11
153.0424918074
 21
31.4326554468
 12
153.4471794177
 22
31.4003927049
 13
153.4471794177
 23
31.4003927049
  0
SOLID
  8
0
 62
7
  6
CONTINUOUS
 10
153.1581166972
 20
31.3681283566
 11
153.4471794177
 21
31.4003927049
 12
153.2159293074
 22
31.2390742213
 13
153.2159293074
 23
31.2390742213
  0
SOLID
  8
0
 62
7
  6
CONTINUOUS
 10
153.4471794177
 20
31.4003927049
 11
153.5049916972
 21
31.2390742213
 12
153.2159293074
 22
31.2390742213
 13
153.2159293074
 23
31.2390742213
  0
SOLID
  8
0
 62
7
  6
CONTINUOUS
 10
152.4643666972
 20
31.4649197951
 11
152.2909293626
 21
31.4003927049
 12
152.1753043074
 22
31.4649197951
 13
152.1753043074
 23
31.4649197951
  0
SOLID
  8
0
 62
7
  6
CONTINUOUS
 10
152.2909293626
 20
31.4003927049
 11
152.1753043074
 21
31.3358640533
 12
152.1753043074
 22
31.4649197951
 13
152.1753043074
 23
31.4649197951
  0
SOLID
  8
0
 62
7
  6
CONTINUOUS
 10
152.1753043074
 20
31.3358640533
 11
151.8862417523
 21
30.5938002869
 12
152.1753043074
 22
31.4649197951
 13
152.1753043074
 23
31.4649197951
  0
SOLID
  8
0
 62
7
  6
CONTINUOUS
 10
152.1753043074
 20
31.4649197951
 11
151.8862417523
 21
30.5938002869
 12
152.1753043074
 22
32.1101937295
 13
152.1753043074
 23
32.1101937295
  0
SOLID
  8
0
 62
7
  6
CONTINUOUS
 10
151.8862417523
 20
30.5938002869
 11
151.8862417523
 21
32.1101937295
 12
152.1753043074
 22
32.1101937295
 13
152.1753043074
 23
32.1101937295
  0
SOLID
  8
0
 62
7
  6
CONTINUOUS
 10
152.1753043074
 20
31.3358640533
 11
152.1753043074
 21
30.5938002869
 12
151.8862417523
 22
30.5938002869
 13
151.8862417523
 23
30.5938002869
  0
SOLID
  8
0
 62
7
  6
CONTINUOUS
 10
153.2159293074
 20
30.5938002869
 11
153.2159293074
 21
31.2390742213
 12
153.5049916972
 22
31.2390742213
 13
153.5049916972
 23
31.2390742213
  0
SOLID
  8
0
 62
7
  6
CONTINUOUS
 10
153.5049916972
 20
31.2390742213
 11
153.5049916972
 21
30.5938002869
 12
153.2159293074
 22
30.5938002869
 13
153.2159293074
 23
30.5938002869
  0
SOLID
  8
0
 62
7
  6
CONTINUOUS
 10
154.2565543074
 20
31.5939738288
 11
154.6612419177
 21
31.6262385959
 12
155.0081169177
 22
31.6262385959
 13
155.0081169177
 23
31.6262385959
  0
SOLID
  8
0
 62
7
  6
CONTINUOUS
 10
155.0081169177
 20
31.6262385959
 11
155.3549915869
 21
31.5939738288
 12
154.2565543074
 22
31.5939738288
 13
154.2565543074
 23
31.5939738288
  0
SOLID
  8
0
 62
7
  6
CONTINUOUS
 10
154.1409294177
 20
31.5617111435
 11
154.2565543074
 21
31.5939738288
 12
155.3549915869
 22
31.5939738288
 13
155.3549915869
 23
31.5939738288
  0
SOLID
  8
0
 62
7
  6
CONTINUOUS
 10
155.3549915869
 20
31.5939738288
 11
155.5284290869
 21
31.5294468402
 12
154.1409294177
 22
31.5617111435
 13
154.1409294177
 23
31.5617111435
  0
SOLID
  8
0
 62
7
  6
CONTINUOUS
 10
154.0253041972
 20
31.4971826249
 11
154.1409294177
 21
31.5617111435
 12
155.5284290869
 22
31.5294468402
 13
155.5284290869
 23
31.5294468402
  0
SOLID
  8
0
 62
7
  6
CONTINUOUS
 10
154.0253041972
 20
31.4971826249
 11
155.5284290869
 21
31.5294468402
 12
154.6612419177
 22
31.4971826249
 13
154.6612419177
 23
31.4971826249
  0
SOLID
  8
0
 62
7
  6
CONTINUOUS
 10
154.6612419177
 20
31.4971826249
 11
155.5284290869
 21
31.5294468402
 12
155.0081169177
 22
31.4971826249
 13
155.0081169177
 23
31.4971826249
  0
SOLID
  8
0
 62
7
  6
CONTINUOUS
 10
155.0081169177
 20
31.4971826249
 11
155.5284290869
 21
31.5294468402
 12
155.239367028
 22
31.4649194065
 13
155.239367028
 23
31.4649194065
  0
SOLID
  8
0
 62
7
  6
CONTINUOUS
 10
155.5284290869
 20
31.5294468402
 11
155.6440543074
 21
31.4649194065
 12
155.239367028
 22
31.4649194065
 13
155.239367028
 23
31.4649194065
  0
SOLID
  8
0
 62
7
  6
CONTINUOUS
 10
153.9674919177
 20
31.4326554138
 11
154.0253041972
 21
31.4971826249
 12
154.6612419177
 22
31.4971826249
 13
154.6612419177
 23
31.4971826249
  0
SOLID
  8
0
 62
7
  6
CONTINUOUS
 10
155.3549915869
 20
31.4326554138
 11
155.239367028
 21
31.4649194065
 12
155.6440543074
 22
31.4649194065
 13
155.6440543074
 23
31.4649194065
  0
SOLID
  8
0
 62
7
  6
CONTINUOUS
 10
155.3549915869
 20
31.4326554138
 11
155.6440543074
 21
31.4649194065
 12
155.412804528
 22
31.3681282026
 13
155.412804528
 23
31.3681282026
  0
SOLID
  8
0
 62
7
  6
CONTINUOUS
 10
155.6440543074
 20
31.4649194065
 11
155.7018665869
 21
31.3681282026
 12
155.412804528
 22
31.3681282026
 13
155.412804528
 23
31.3681282026
  0
SOLID
  8
0
 62
7
  6
CONTINUOUS
 10
155.412804528
 20
31.2713369632
 11
155.412804528
 21
31.3681282026
 12
155.7018665869
 22
31.3681282026
 13
155.7018665869
 23
31.3681282026
  0
SOLID
  8
0
 62
7
  6
CONTINUOUS
 10
155.412804528
 20
31.2713369632
 11
155.7018665869
 21
31.3681282026
 12
155.412804528
 22
31.1422827828
 13
155.412804528
 23
31.1422827828
  0
SOLID
  8
0
 62
7
  6
CONTINUOUS
 10
155.412804528
 20
31.1422827828
 11
155.7018665869
 21
31.3681282026
 12
155.412804528
 22
30.9487004259
 13
155.412804528
 23
30.9487004259
  0
SOLID
  8
0
 62
7
  6
CONTINUOUS
 10
155.7018665869
 20
31.3681282026
 11
155.7018665869
 21
30.8519086025
 12
155.412804528
 22
30.9487004259
 13
155.412804528
 23
30.9487004259
  0
SOLID
  8
0
 62
7
  6
CONTINUOUS
 10
157.6096790869
 20
31.5939736268
 11
157.840929528
 21
31.6262383465
 12
158.0721793074
 22
31.6262383465
 13
158.0721793074
 23
31.6262383465
  0
SOLID
  8
0
 62
7
  6
CONTINUOUS
 10
158.0721793074
 20
31.6262383465
 11
158.2456168074
 21
31.5939736268
 12
157.6096790869
 22
31.5939736268
 13
157.6096790869
 23
31.5939736268
  0
SOLID
  8
0
 62
7
  6
CONTINUOUS
 10
157.4362415869
 20
31.5294472848
 11
157.6096790869
 21
31.5939736268
 12
158.2456168074
 22
31.5939736268
 13
158.2456168074
 23
31.5939736268
  0
SOLID
  8
0
 62
7
  6
CONTINUOUS
 10
158.2456168074
 20
31.5939736268
 11
158.4190543074
 21
31.5294472848
 12
157.4362415869
 22
31.5294472848
 13
157.4362415869
 23
31.5294472848
  0
SOLID
  8
0
 62
7
  6
CONTINUOUS
 10
158.4190543074
 20
31.5294472848
 11
157.840929528
 21
31.4971825369
 12
157.4362415869
 22
31.5294472848
 13
157.4362415869
 23
31.5294472848
  0
SOLID
  8
0
 62
7
  6
CONTINUOUS
 10
157.320617028
 20
31.4649199103
 11
157.4362415869
 21
31.5294472848
 12
157.840929528
 22
31.4971825369
 13
157.840929528
 23
31.4971825369
  0
SOLID
  8
0
 62
7
  6
CONTINUOUS
 10
157.840929528
 20
31.4971825369
 11
157.6096790869
 21
31.4649199103
 12
157.320617028
 22
31.4649199103
 13
157.320617028
 23
31.4649199103
  0
SOLID
  8
0
 62
7
  6
CONTINUOUS
 10
157.840929528
 20
31.4971825369
 11
158.4190543074
 21
31.5294472848
 12
158.0721793074
 22
31.4649199103
 13
158.0721793074
 23
31.4649199103
  0
SOLID
  8
0
 62
7
  6
CONTINUOUS
 10
158.4190543074
 20
31.5294472848
 11
158.534679528
 21
31.4649199103
 12
158.0721793074
 22
31.4649199103
 13
158.0721793074
 23
31.4649199103
  0
SOLID
  8
0
 62
7
  6
CONTINUOUS
 10
158.187804528
 20
31.4326554468
 11
158.0721793074
 21
31.4649199103
 12
158.534679528
 22
31.4649199103
 13
158.534679528
 23
31.4649199103
  0
SOLID
  8
0
 62
7
  6
CONTINUOUS
 10
158.187804528
 20
31.4326554468
 11
158.534679528
 21
31.4649199103
 12
158.3034290869
 22
31.3681288486
 13
158.3034290869
 23
31.3681288486
  0
SOLID
  8
0
 62
7
  6
CONTINUOUS
 10
158.534679528
 20
31.4649199103
 11
158.5924918074
 21
31.3681288486
 12
158.3034290869
 22
31.3681288486
 13
158.3034290869
 23
31.3681288486
  0
SOLID
  8
0
 62
7
  6
CONTINUOUS
 10
158.361242028
 20
31.2068093799
 11
158.3034290869
 21
31.3681288486
 12
158.5924918074
 22
31.3681288486
 13
158.5924918074
 23
31.3681288486
  0
SOLID
  8
0
 62
7
  6
CONTINUOUS
 10
158.5924918074
 20
31.3681288486
 11
158.6503040869
 21
31.2068093799
 12
158.361242028
 22
31.2068093799
 13
158.361242028
 23
31.2068093799
  0
SOLID
  8
0
 62
7
  6
CONTINUOUS
 10
157.6096790869
 20
31.4649199103
 11
157.4362415869
 21
31.4003926599
 12
157.320617028
 22
31.4649199103
 13
157.320617028
 23
31.4649199103
  0
SOLID
  8
0
 62
7
  6
CONTINUOUS
 10
157.4362415869
 20
31.4003926599
 11
157.320617028
 21
31.3358640533
 12
157.320617028
 22
31.4649199103
 13
157.320617028
 23
31.4649199103
  0
SOLID
  8
0
 62
7
  6
CONTINUOUS
 10
157.320617028
 20
31.3358640533
 11
157.0315543074
 21
30.5938003547
 12
157.320617028
 22
31.4649199103
 13
157.320617028
 23
31.4649199103
  0
SOLID
  8
0
 62
7
  6
CONTINUOUS
 10
157.320617028
 20
31.4649199103
 11
157.0315543074
 21
30.5938003547
 12
157.320617028
 22
31.6262383465
 13
157.320617028
 23
31.6262383465
  0
SOLID
  8
0
 62
7
  6
CONTINUOUS
 10
157.0315543074
 20
30.5938003547
 11
157.0315543074
 21
31.6262383465
 12
157.320617028
 22
31.6262383465
 13
157.320617028
 23
31.6262383465
  0
SOLID
  8
0
 62
7
  6
CONTINUOUS
 10
157.320617028
 20
31.3358640533
 11
157.320617028
 21
30.5938003547
 12
157.0315543074
 22
30.5938003547
 13
157.0315543074
 23
30.5938003547
  0
SOLID
  8
0
 62
7
  6
CONTINUOUS
 10
158.361242028
 20
30.5938003547
 11
158.361242028
 21
31.2068093799
 12
158.6503040869
 22
31.2068093799
 13
158.6503040869
 23
31.2068093799
  0
SOLID
  8
0
 62
7
  6
CONTINUOUS
 10
158.6503040869
 20
31.2068093799
 11
158.6503040869
 21
30.5938003547
 12
158.361242028
 22
30.5938003547
 13
158.361242028
 23
30.5938003547
  0
SOLID
  8
0
 62
7
  6
CONTINUOUS
 10
159.4596793074
 20
31.5939739474
 11
159.8065543074
 21
31.6262381969
 12
160.1534293074
 22
31.6262381969
 13
160.1534293074
 23
31.6262381969
  0
SOLID
  8
0
 62
7
  6
CONTINUOUS
 10
160.1534293074
 20
31.6262381969
 11
160.5003043074
 21
31.5939739474
 12
159.4596793074
 22
31.5939739474
 13
159.4596793074
 23
31.5939739474
  0
SOLID
  8
0
 62
7
  6
CONTINUOUS
 10
159.228429528
 20
31.5294468402
 11
159.4596793074
 21
31.5939739474
 12
160.5003043074
 22
31.5939739474
 13
160.5003043074
 23
31.5939739474
  0
SOLID
  8
0
 62
7
  6
CONTINUOUS
 10
159.228429528
 20
31.5294468402
 11
160.5003043074
 21
31.5939739304
 12
160.6737418074
 22
31.5617111435
 13
160.6737418074
 23
31.5617111435
  0
SOLID
  8
0
 62
7
  6
CONTINUOUS
 10
159.228429528
 20
31.5294468402
 11
160.6737418074
 21
31.5617111435
 12
159.8065543074
 22
31.4971825592
 13
159.8065543074
 23
31.4971825592
  0
SOLID
  8
0
 62
7
  6
CONTINUOUS
 10
159.8065543074
 20
31.4971825592
 11
160.6737418074
 21
31.5617111435
 12
160.1534293074
 22
31.4971825592
 13
160.1534293074
 23
31.4971825592
  0
SOLID
  8
0
 62
7
  6
CONTINUOUS
 10
160.6737418074
 20
31.5617111435
 11
160.8471793074
 21
31.4971825592
 12
160.1534293074
 22
31.4971825592
 13
160.1534293074
 23
31.4971825592
  0
SOLID
  8
0
 62
7
  6
CONTINUOUS
 10
160.5003043074
 20
31.4649197501
 11
160.1534293074
 21
31.4971825592
 12
160.8471793074
 22
31.4971825592
 13
160.8471793074
 23
31.4971825592
  0
SOLID
  8
0
 62
7
  6
CONTINUOUS
 10
159.1128043074
 20
31.4326555427
 11
159.228429528
 21
31.5294468402
 12
159.8065543074
 22
31.4971825592
 13
159.8065543074
 23
31.4971825592
  0
SOLID
  8
0
 62
7
  6
CONTINUOUS
 10
160.5003043074
 20
31.4649197501
 11
160.8471793074
 21
31.4971825592
 12
160.615929528
 22
31.4326555427
 13
160.615929528
 23
31.4326555427
  0
SOLID
  8
0
 62
7
  6
CONTINUOUS
 10
160.615929528
 20
31.4326555427
 11
160.8471793074
 21
31.4971825592
 12
160.6737418074
 22
31.3681283005
 13
160.6737418074
 23
31.3681283005
  0
SOLID
  8
0
 62
7
  6
CONTINUOUS
 10
160.8471793074
 20
31.4971825592
 11
160.9628038663
 21
31.3681283005
 12
160.6737418074
 22
31.3681283005
 13
160.6737418074
 23
31.3681283005
  0
SOLID
  8
0
 62
7
  6
CONTINUOUS
 10
150.2674918074
 20
31.4649197501
 11
149.7471793074
 21
31.4326554237
 12
150.498741835
 22
31.4971824493
 13
150.498741835
 23
31.4971824493
  0
SOLID
  8
0
 62
7
  6
CONTINUOUS
 10
149.7471793074
 20
31.4326554237
 11
149.8628043005
 21
31.4971824493
 12
150.498741835
 22
31.4971824493
 13
150.498741835
 23
31.4971824493
  0
SOLID
  8
0
 62
7
  6
CONTINUOUS
 10
150.2674918074
 20
31.4649197501
 11
150.1518667936
 21
31.4326554237
 12
149.7471793074
 22
31.4326554237
 13
149.7471793074
 23
31.4326554237
  0
SOLID
  8
0
 62
7
  6
CONTINUOUS
 10
149.6315543091
 20
31.3036012664
 11
149.7471793074
 21
31.4326554237
 12
150.1518667936
 22
31.4326554237
 13
150.1518667936
 23
31.4326554237
  0
SOLID
  8
0
 62
7
  6
CONTINUOUS
 10
153.9674919177
 20
31.4326554237
 11
154.6612419177
 21
31.4971825369
 12
154.4299918074
 22
31.4649197501
 13
154.4299918074
 23
31.4649197501
  0
SOLID
  8
0
 62
7
  6
CONTINUOUS
 10
154.4299918074
 20
31.4649197501
 11
154.3143669177
 21
31.4326554237
 12
153.9674919177
 22
31.4326554237
 13
153.9674919177
 23
31.4326554237
  0
SOLID
  8
0
 62
7
  6
CONTINUOUS
 10
153.9674919177
 20
31.3681283335
 11
153.9674919177
 21
31.4326554237
 12
154.3143669177
 22
31.4326554237
 13
154.3143669177
 23
31.4326554237
  0
SOLID
  8
0
 62
7
  6
CONTINUOUS
 10
154.3143669177
 20
31.4326554237
 11
154.2565543074
 21
31.3681283335
 12
153.9674919177
 22
31.3681283335
 13
153.9674919177
 23
31.3681283335
  0
SOLID
  8
0
 62
7
  6
CONTINUOUS
 10
159.1128043074
 20
31.4326555528
 11
159.8065543074
 21
31.4971825369
 12
159.575304528
 22
31.4649197501
 13
159.575304528
 23
31.4649197501
  0
SOLID
  8
0
 62
7
  6
CONTINUOUS
 10
159.575304528
 20
31.4649197501
 11
159.4596793074
 21
31.4326555528
 12
159.1128043074
 22
31.4326555528
 13
159.1128043074
 23
31.4326555528
  0
SOLID
  8
0
 62
7
  6
CONTINUOUS
 10
159.1128043074
 20
31.3681284626
 11
159.1128043074
 21
31.4326555528
 12
159.4596793074
 22
31.4326555528
 13
159.4596793074
 23
31.4326555528
  0
SOLID
  8
0
 62
7
  6
CONTINUOUS
 10
159.4596793074
 20
31.4326555528
 11
159.401867028
 21
31.3681284626
 12
159.1128043074
 22
31.3681284626
 13
159.1128043074
 23
31.3681284626
  0
SOLID
  8
0
 62
7
  6
CONTINUOUS
 10
159.228429528
 20
31.2390741763
 11
159.1128043074
 21
31.3681284626
 12
159.401867028
 22
31.3681284626
 13
159.401867028
 23
31.3681284626
  0
SOLID
  8
0
 62
7
  6
CONTINUOUS
 10
149.6315543091
 20
31.3036012664
 11
150.1518667936
 21
31.4326554468
 12
149.9784292936
 22
31.3358640533
 13
149.9784292936
 23
31.3358640533
  0
SOLID
  8
0
 62
7
  6
CONTINUOUS
 10
149.9784292936
 20
31.3358640533
 11
149.9206168074
 21
31.2713369632
 12
149.6315543091
 22
31.3036012664
 13
149.6315543091
 23
31.3036012664
  0
SOLID
  8
0
 62
7
  6
CONTINUOUS
 10
149.5737418074
 20
31.1100184796
 11
149.6315543091
 21
31.3036012664
 12
149.9206168074
 22
31.2713369632
 13
149.9206168074
 23
31.2713369632
  0
SOLID
  8
0
 62
7
  6
CONTINUOUS
 10
154.4299918074
 20
31.2390741763
 11
154.7768668074
 21
31.271336924
 12
155.412804528
 22
31.271336924
 13
155.412804528
 23
31.271336924
  0
SOLID
  8
0
 62
7
  6
CONTINUOUS
 10
154.4299918074
 20
31.2390741763
 11
155.412804528
 21
31.271336924
 12
154.1987416972
 22
31.1745462761
 13
154.1987416972
 23
31.1745462761
  0
SOLID
  8
0
 62
7
  6
CONTINUOUS
 10
154.1987416972
 20
31.1745462761
 11
155.412804528
 21
31.271336924
 12
154.7768668074
 22
31.1422827436
 13
154.7768668074
 23
31.1422827436
  0
SOLID
  8
0
 62
7
  6
CONTINUOUS
 10
155.412804528
 20
31.271336924
 11
155.412804528
 21
31.1422827436
 12
154.7768668074
 22
31.1422827436
 13
154.7768668074
 23
31.1422827436
  0
SOLID
  8
0
 62
7
  6
CONTINUOUS
 10
159.228429528
 20
31.2390745501
 11
159.401867028
 21
31.3681283566
 12
159.4596793074
 22
31.3036012664
 13
159.4596793074
 23
31.3036012664
  0
SOLID
  8
0
 62
7
  6
CONTINUOUS
 10
159.4596793074
 20
31.3036012664
 11
159.6331168074
 21
31.2390745501
 12
159.228429528
 22
31.2390745501
 13
159.228429528
 23
31.2390745501
  0
SOLID
  8
0
 62
7
  6
CONTINUOUS
 10
159.4596793074
 20
31.1422827828
 11
159.228429528
 21
31.2390745501
 12
159.6331168074
 22
31.2390745501
 13
159.6331168074
 23
31.2390745501
  0
SOLID
  8
0
 62
7
  6
CONTINUOUS
 10
159.6331168074
 20
31.2390745501
 11
160.615929528
 21
31.0777556927
 12
159.4596793074
 22
31.1422827828
 13
159.4596793074
 23
31.1422827828
  0
SOLID
  8
0
 62
7
  6
CONTINUOUS
 10
160.442492028
 20
30.9809646623
 11
159.4596793074
 21
31.1422827828
 12
160.615929528
 22
31.0777556927
 13
160.615929528
 23
31.0777556927
  0
SOLID
  8
0
 62
7
  6
CONTINUOUS
 10
160.615929528
 20
31.0777556927
 11
160.8471793074
 21
30.9809646623
 12
160.442492028
 22
30.9809646623
 13
160.442492028
 23
30.9809646623
  0
SOLID
  8
0
 62
7
  6
CONTINUOUS
 10
160.615929528
 20
30.9164372091
 11
160.442492028
 21
30.9809646623
 12
160.8471793074
 22
30.9809646623
 13
160.8471793074
 23
30.9809646623
  0
SOLID
  8
0
 62
7
  6
CONTINUOUS
 10
160.615929528
 20
30.9164372091
 11
160.8471793074
 21
30.9809646623
 12
160.6737418074
 22
30.8519089441
 13
160.6737418074
 23
30.8519089441
  0
SOLID
  8
0
 62
7
  6
CONTINUOUS
 10
160.8471793074
 20
30.9809646623
 11
160.9628038663
 21
30.8519089441
 12
160.6737418074
 22
30.8519089441
 13
160.6737418074
 23
30.8519089441
  0
SOLID
  8
0
 62
7
  6
CONTINUOUS
 10
160.615929528
 20
30.7873818593
 11
160.6737418074
 21
30.8519089441
 12
160.9628038663
 22
30.8519089441
 13
160.9628038663
 23
30.8519089441
  0
SOLID
  8
0
 62
7
  6
CONTINUOUS
 10
160.9628038663
 20
30.8519089441
 11
160.9628038663
 21
30.7873818593
 12
160.615929528
 22
30.7873818593
 13
160.615929528
 23
30.7873818593
  0
SOLID
  8
0
 62
7
  6
CONTINUOUS
 10
160.5003043074
 20
30.7551187255
 11
160.615929528
 21
30.7873818593
 12
160.9628038663
 22
30.7873818593
 13
160.9628038663
 23
30.7873818593
  0
SOLID
  8
0
 62
7
  6
CONTINUOUS
 10
160.5003043074
 20
30.7551187255
 11
160.9628038663
 21
30.7873818593
 12
160.269054528
 22
30.7228547745
 13
160.269054528
 23
30.7228547745
  0
SOLID
  8
0
 62
7
  6
CONTINUOUS
 10
160.9628038663
 20
30.7873818593
 11
160.8471793074
 21
30.6905916353
 12
160.269054528
 22
30.7228547745
 13
160.269054528
 23
30.7228547745
  0
SOLID
  8
0
 62
7
  6
CONTINUOUS
 10
160.8471793074
 20
30.6905916353
 11
159.401867028
 21
30.658327332
 12
160.269054528
 22
30.7228547745
 13
160.269054528
 23
30.7228547745
  0
SOLID
  8
0
 62
7
  6
CONTINUOUS
 10
160.269054528
 20
30.7228547745
 11
159.401867028
 21
30.658327332
 12
159.922179528
 22
30.7228547745
 13
159.922179528
 23
30.7228547745
  0
SOLID
  8
0
 62
7
  6
CONTINUOUS
 10
159.401867028
 20
30.658327332
 11
159.228429528
 21
30.7228547745
 12
159.922179528
 22
30.7228547745
 13
159.922179528
 23
30.7228547745
  0
SOLID
  8
0
 62
7
  6
CONTINUOUS
 10
159.401867028
 20
30.658327332
 11
160.8471793074
 21
30.6905916353
 12
159.575304528
 22
30.6260629858
 13
159.575304528
 23
30.6260629858
  0
SOLID
  8
0
 62
7
  6
CONTINUOUS
 10
160.8471793074
 20
30.6905916353
 11
160.615929528
 21
30.6260629858
 12
159.575304528
 22
30.6260629858
 13
159.575304528
 23
30.6260629858
  0
SOLID
  8
0
 62
7
  6
CONTINUOUS
 10
159.922179528
 20
30.5938006049
 11
159.575304528
 21
30.6260629858
 12
160.615929528
 22
30.6260629858
 13
160.615929528
 23
30.6260629858
  0
SOLID
  8
0
 62
7
  6
CONTINUOUS
 10
160.615929528
 20
30.6260629858
 11
160.269054528
 21
30.5938006049
 12
159.922179528
 22
30.5938006049
 13
159.922179528
 23
30.5938006049
  0
SOLID
  8
0
 62
7
  6
CONTINUOUS
 10
149.5737418074
 20
31.1100184796
 11
149.9206168074
 21
31.2713369632
 12
149.8628043005
 22
31.1422827828
 13
149.8628043005
 23
31.1422827828
  0
SOLID
  8
0
 62
7
  6
CONTINUOUS
 10
149.8628043005
 20
31.1422827828
 11
149.8628043005
 21
31.0454914852
 12
149.5737418074
 22
31.1100184796
 13
149.5737418074
 23
31.1100184796
  0
SOLID
  8
0
 62
7
  6
CONTINUOUS
 10
149.6315543091
 20
30.9164372091
 11
149.5737418074
 21
31.1100184796
 12
149.8628043005
 22
31.0454914852
 13
149.8628043005
 23
31.0454914852
  0
SOLID
  8
0
 62
7
  6
CONTINUOUS
 10
149.8628043005
 20
31.0454914852
 11
149.9784292936
 21
30.8841729058
 12
149.6315543091
 22
30.9164372091
 13
149.6315543091
 23
30.9164372091
  0
SOLID
  8
0
 62
7
  6
CONTINUOUS
 10
149.7471793074
 20
30.7873813202
 11
149.6315543091
 21
30.9164372091
 12
149.9784292936
 22
30.8841729058
 13
149.9784292936
 23
30.8841729058
  0
SOLID
  8
0
 62
7
  6
CONTINUOUS
 10
149.9784292936
 20
30.8841729058
 11
150.1518667936
 21
30.7873813202
 12
149.7471793074
 22
30.7873813202
 13
149.7471793074
 23
30.7873813202
  0
SOLID
  8
0
 62
7
  6
CONTINUOUS
 10
149.8628043005
 20
30.7228547004
 11
149.7471793074
 21
30.7873813202
 12
150.1518667936
 22
30.7873813202
 13
150.1518667936
 23
30.7873813202
  0
SOLID
  8
0
 62
7
  6
CONTINUOUS
 10
150.1518667936
 20
30.7873813202
 11
150.498741835
 21
30.7228547004
 12
149.8628043005
 22
30.7228547004
 13
149.8628043005
 23
30.7228547004
  0
SOLID
  8
0
 62
7
  6
CONTINUOUS
 10
150.0362418212
 20
30.658327332
 11
149.8628043005
 21
30.7228547004
 12
150.498741835
 22
30.7228547004
 13
150.498741835
 23
30.7228547004
  0
SOLID
  8
0
 62
7
  6
CONTINUOUS
 10
154.0831168074
 20
31.1100184386
 11
154.1987416972
 21
31.1745462761
 12
154.7768668074
 22
31.1422827828
 13
154.7768668074
 23
31.1422827828
  0
SOLID
  8
0
 62
7
  6
CONTINUOUS
 10
154.7768668074
 20
31.1422827828
 11
154.5456166972
 21
31.1100184386
 12
154.0831168074
 22
31.1100184386
 13
154.0831168074
 23
31.1100184386
  0
SOLID
  8
0
 62
7
  6
CONTINUOUS
 10
153.9674919177
 20
30.9809642992
 11
154.0831168074
 21
31.1100184386
 12
154.5456166972
 22
31.1100184386
 13
154.5456166972
 23
31.1100184386
  0
SOLID
  8
0
 62
7
  6
CONTINUOUS
 10
154.3143669177
 20
31.0132277988
 11
153.9674919177
 21
30.9809642992
 12
154.4299918074
 22
31.0777556927
 13
154.4299918074
 23
31.0777556927
  0
SOLID
  8
0
 62
7
  6
CONTINUOUS
 10
153.9674919177
 20
30.9809642992
 11
154.5456166972
 21
31.1100184796
 12
154.4299918074
 22
31.0777556927
 13
154.4299918074
 23
31.0777556927
  0
SOLID
  8
0
 62
7
  6
CONTINUOUS
 10
154.3143669177
 20
31.0132277988
 11
154.2565543074
 21
30.9164372091
 12
153.9674919177
 22
30.9809642992
 13
153.9674919177
 23
30.9809642992
  0
SOLID
  8
0
 62
7
  6
CONTINUOUS
 10
153.9674919177
 20
30.8841729058
 11
153.9674919177
 21
30.9809642992
 12
154.2565543074
 22
30.9164372091
 13
154.2565543074
 23
30.9164372091
  0
SOLID
  8
0
 62
7
  6
CONTINUOUS
 10
154.2565543074
 20
30.9164372091
 11
154.2565543074
 21
30.8519086025
 12
153.9674919177
 22
30.8841729058
 13
153.9674919177
 23
30.8841729058
  0
SOLID
  8
0
 62
7
  6
CONTINUOUS
 10
154.0253041972
 20
30.7551187255
 11
153.9674919177
 21
30.8841729058
 12
154.2565543074
 22
30.8519086025
 13
154.2565543074
 23
30.8519086025
  0
SOLID
  8
0
 62
7
  6
CONTINUOUS
 10
155.412804528
 20
30.9487004259
 11
155.7018665869
 21
30.8519086025
 12
155.3549915869
 22
30.8841729058
 13
155.3549915869
 23
30.8841729058
  0
SOLID
  8
0
 62
7
  6
CONTINUOUS
 10
155.1815540869
 20
30.7873815123
 11
155.3549915869
 21
30.8841729058
 12
155.7018665869
 22
30.8519086025
 13
155.7018665869
 23
30.8519086025
  0
SOLID
  8
0
 62
7
  6
CONTINUOUS
 10
155.1815540869
 20
30.7873815123
 11
155.7018665869
 21
30.8519086025
 12
155.412804528
 22
30.7551187255
 13
155.412804528
 23
30.7551187255
  0
SOLID
  8
0
 62
7
  6
CONTINUOUS
 10
155.7018665869
 20
30.8519086025
 11
155.759679528
 21
30.6905916353
 12
155.412804528
 22
30.7551187255
 13
155.412804528
 23
30.7551187255
  0
SOLID
  8
0
 62
7
  6
CONTINUOUS
 10
155.4706168074
 20
30.658327332
 11
155.412804528
 21
30.7551187255
 12
155.759679528
 22
30.6905916353
 13
155.759679528
 23
30.6905916353
  0
SOLID
  8
0
 62
7
  6
CONTINUOUS
 10
155.4706168074
 20
30.658327332
 11
155.759679528
 21
30.6905916353
 12
155.5284290869
 22
30.5938002079
 13
155.5284290869
 23
30.5938002079
  0
SOLID
  8
0
 62
7
  6
CONTINUOUS
 10
155.759679528
 20
30.6905916353
 11
155.8174918074
 21
30.5938002079
 12
155.5284290869
 22
30.5938002079
 13
155.5284290869
 23
30.5938002079
  0
SOLID
  8
0
 62
7
  6
CONTINUOUS
 10
151.0768668626
 20
30.8196456577
 11
151.1346793074
 21
30.9164373395
 12
151.4237418626
 22
30.9164373395
 13
151.4237418626
 23
30.9164373395
  0
SOLID
  8
0
 62
7
  6
CONTINUOUS
 10
151.4237418626
 20
30.9164373395
 11
151.3659292523
 21
30.7873815123
 12
151.0768668626
 22
30.8196456577
 13
151.0768668626
 23
30.8196456577
  0
SOLID
  8
0
 62
7
  6
CONTINUOUS
 10
150.9034292799
 20
30.7551187255
 11
151.0768668626
 21
30.8196456577
 12
151.3659292523
 22
30.7873815123
 13
151.3659292523
 23
30.7873815123
  0
SOLID
  8
0
 62
7
  6
CONTINUOUS
 10
150.9034292799
 20
30.7551187255
 11
151.3659292523
 21
30.7873815123
 12
150.498741835
 22
30.7228544222
 13
150.498741835
 23
30.7228544222
  0
SOLID
  8
0
 62
7
  6
CONTINUOUS
 10
151.3659292523
 20
30.7873815123
 11
151.1924917523
 21
30.6905916353
 12
150.498741835
 22
30.7228544222
 13
150.498741835
 23
30.7228544222
  0
SOLID
  8
0
 62
7
  6
CONTINUOUS
 10
150.0362418212
 20
30.658327332
 11
150.498741835
 21
30.7228544222
 12
151.1924917523
 22
30.6905916353
 13
151.1924917523
 23
30.6905916353
  0
SOLID
  8
0
 62
7
  6
CONTINUOUS
 10
150.0362418212
 20
30.658327332
 11
151.1924917523
 21
30.6905916353
 12
150.2096793212
 22
30.6260631011
 13
150.2096793212
 23
30.6260631011
  0
SOLID
  8
0
 62
7
  6
CONTINUOUS
 10
151.1924917523
 20
30.6905916353
 11
150.9612418074
 21
30.6260631011
 12
150.2096793212
 22
30.6260631011
 13
150.2096793212
 23
30.6260631011
  0
SOLID
  8
0
 62
7
  6
CONTINUOUS
 10
150.5565542799
 20
30.5938002419
 11
150.2096793212
 21
30.6260631011
 12
150.9612418074
 22
30.6260631011
 13
150.9612418074
 23
30.6260631011
  0
SOLID
  8
0
 62
7
  6
CONTINUOUS
 10
154.0253041972
 20
30.7551187255
 11
154.2565543074
 21
30.8519086025
 12
154.3143669177
 22
30.7873815123
 13
154.3143669177
 23
30.7873815123
  0
SOLID
  8
0
 62
7
  6
CONTINUOUS
 10
154.3143669177
 20
30.7873815123
 11
154.5456166972
 21
30.7228544222
 12
154.0253041972
 22
30.7551187255
 13
154.0253041972
 23
30.7551187255
  0
SOLID
  8
0
 62
7
  6
CONTINUOUS
 10
154.1987416972
 20
30.658327332
 11
154.0253041972
 21
30.7551187255
 12
154.5456166972
 22
30.7228544222
 13
154.5456166972
 23
30.7228544222
  0
SOLID
  8
0
 62
7
  6
CONTINUOUS
 10
154.8924916972
 20
30.7228544637
 11
155.1815540869
 21
30.7873815123
 12
155.412804528
 22
30.7551187255
 13
155.412804528
 23
30.7551187255
  0
SOLID
  8
0
 62
7
  6
CONTINUOUS
 10
155.412804528
 20
30.7551187255
 11
155.3549915869
 21
30.6905916353
 12
154.8924916972
 22
30.7228544637
 13
154.8924916972
 23
30.7228544637
  0
SOLID
  8
0
 62
7
  6
CONTINUOUS
 10
155.3549915869
 20
30.6905916353
 11
154.1987416972
 21
30.658327332
 12
154.8924916972
 22
30.7228544637
 13
154.8924916972
 23
30.7228544637
  0
SOLID
  8
0
 62
7
  6
CONTINUOUS
 10
154.1987416972
 20
30.658327332
 11
154.5456166972
 21
30.7228544637
 12
154.8924916972
 22
30.7228544637
 13
154.8924916972
 23
30.7228544637
  0
SOLID
  8
0
 62
7
  6
CONTINUOUS
 10
154.1987416972
 20
30.658327332
 11
155.3549915869
 21
30.6905916353
 12
154.3143669177
 22
30.6260630541
 13
154.3143669177
 23
30.6260630541
  0
SOLID
  8
0
 62
7
  6
CONTINUOUS
 10
155.3549915869
 20
30.6905916353
 11
155.1815540869
 21
30.6260630541
 12
154.3143669177
 22
30.6260630541
 13
154.3143669177
 23
30.6260630541
  0
SOLID
  8
0
 62
7
  6
CONTINUOUS
 10
154.5456166972
 20
30.5938002188
 11
154.3143669177
 21
30.6260630541
 12
155.1815540869
 22
30.6260630541
 13
155.1815540869
 23
30.6260630541
  0
SOLID
  8
0
 62
7
  6
CONTINUOUS
 10
155.1815540869
 20
30.6260630541
 11
154.8924916972
 21
30.5938002188
 12
154.5456166972
 22
30.5938002188
 13
154.5456166972
 23
30.5938002188
  0
SOLID
  8
0
 62
7
  6
CONTINUOUS
 10
159.575304528
 20
30.7551187255
 11
159.228429528
 21
30.7228544637
 12
159.4596793074
 22
30.7873815123
 13
159.4596793074
 23
30.7873815123
  0
SOLID
  8
0
 62
7
  6
CONTINUOUS
 10
159.4596793074
 20
30.7873815123
 11
159.228429528
 21
30.7228544637
 12
159.401867028
 22
30.851908644
 13
159.401867028
 23
30.851908644
  0
SOLID
  8
0
 62
7
  6
CONTINUOUS
 10
159.228429528
 20
30.7228544637
 11
159.1128043074
 21
30.851908644
 12
159.401867028
 22
30.851908644
 13
159.401867028
 23
30.851908644
  0
SOLID
  8
0
 62
7
  6
CONTINUOUS
 10
159.575304528
 20
30.7551187255
 11
159.922179528
 21
30.7228544637
 12
159.228429528
 22
30.7228544637
 13
159.228429528
 23
30.7228544637
  0
SOLID
  8
0
 62
7
  6
CONTINUOUS
 10
156.279992028
 20
30.5938002419
 11
156.279992028
 21
31.6262382337
 12
156.5690540869
 22
30.5938002419
 13
156.5690540869
 23
31.6262382337
  0
ENDBLK
  8
0
  6
BYBLOCK
 62
0
  0
BLOCK
  8
0
 62
2
  6
CONTINUOUS
  2
AMMEAAL_LOGO_BL0
 70
64
 10
32.1213064866
 20
19.8534310916
  0
TEXT
  8
0
 62
7
  6
CONTINUOUS
 10
18.3860103289
 20
19.2268451992
  7
TEXTSTYLE_3
 40
2.7338706658
  1
Ammeraal Beltech
 41
1.0
 51
15.0
 72
0
  0
TEXT
  8
0
 62
7
  6
CONTINUOUS
 10
29.1868111546
 20
16.9533085264
  7
TEXTSTYLE_4
 40
1.0935482663
  1
Innovation & Service in Belting
 41
1.0
 72
0
  0
LINE
  8
0
 62
7
  6
CONTINUOUS
 10
12.3614696776
 20
19.9934385078
 11
13.1396216709
 21
23.6543558055
  0
LINE
  8
0
 62
7
  6
CONTINUOUS
 10
23.2347899607
 20
27.3177497171
 11
13.6274394139
 21
24.1961322958
  0
LINE
  8
0
 62
7
  6
CONTINUOUS
 10
12.5867530099
 20
19.3000877048
 11
20.093828271
 21
12.5406867788
  0
LINE
  8
0
 62
7
  6
CONTINUOUS
 10
12.8492874206
 20
20.5352149982
 11
23.6575567857
 21
24.0470345971
  0
LINE
  8
0
 62
7
  6
CONTINUOUS
 10
23.6533516486
 20
13.6972460334
 11
15.2078919798
 21
21.3015720751
  0
LINE
  8
0
 62
7
  6
CONTINUOUS
 10
24.1731743684
 20
26.4728246013
 11
23.1966148312
 21
21.8784731989
  0
LINE
  8
0
 62
7
  6
CONTINUOUS
 10
22.4968128835
 20
18.5861638851
 11
21.810364672
 21
15.3566789607
  0
LINE
  8
0
 62
7
  6
CONTINUOUS
 10
24.8542704669
 20
14.087448211
 11
25.8105020025
 21
18.5861638851
  0
LINE
  8
0
 62
7
  6
CONTINUOUS
 10
26.5103039502
 20
21.8784731989
 11
26.9545457526
 21
23.9684665583
  0
LINE
  8
0
 62
7
  6
CONTINUOUS
 10
20.8069293463
 20
12.3891124661
 11
24.3664527239
 21
13.5456717207
  0
LINE
  8
0
 62
7
  6
CONTINUOUS
 10
23.9478910361
 20
27.1661754044
 11
26.7292624203
 21
24.6618173613
  0
ARC
  8
0
 62
7
  6
CONTINUOUS
 10
13.8527227462
 20
23.5027814928
 40
0.7290321776
 50
108.0
 51
168.0
  0
ARC
  8
0
 62
7
  6
CONTINUOUS
 10
23.4600732931
 20
26.624398914
 40
0.7290321776
 50
348.0
 51
108.0
  0
ARC
  8
0
 62
7
  6
CONTINUOUS
 10
26.2414446773
 20
24.120040871
 40
0.7290321776
 50
348.0
 51
48.0
  0
ARC
  8
0
 62
7
  6
CONTINUOUS
 10
20.581646014
 20
13.0824632691
 40
0.7290321776
 50
228.0
 51
288.0
  0
ARC
  8
0
 62
7
  6
CONTINUOUS
 10
13.0745707529
 20
19.8418641951
 40
0.7290321776
 50
108.0
 51
228.0
  0
ARC
  8
0
 62
7
  6
CONTINUOUS
 10
24.1411693916
 20
14.2390225237
 40
0.7290321776
 50
228.0
 51
348.0
  0
ENDBLK
  8
0
  6
BYBLOCK
 62
0
  0
ENDSEC
  0
SECTION
  2
ENTITIES
  0
TEXT
  8
0
 62
5
  6
CONTINUOUS
 10
96.0
 20
25.636
  7
TEXTSTYLE_2
 40
2.8
  1
Scale :
 41
0.6
 51
0.000019
 72
0
  0
TEXT
  8
0
 62
5
  6
CONTINUOUS
 10
116.0
 20
25.636
  7
TEXTSTYLE_2
 40
2.8
  1
Belt type:
 41
0.6
 51
0.000019
 72
0
  0
INSERT
  8
0
 62
2
  6
CONTINUOUS
  2
AMMEAAL_LOGO_BL0
 10
32.1213064866
 20
19.8534310916
  0
INSERT
  8
0
 62
2
  6
CONTINUOUS
  2
UNI_LOGO2_BL1
 10
173.5956734183
 20
35.5937998301
  0
LINE
  8
0
 62
2
  6
CONTINUOUS
 10
10.0
 20
30.0
 11
200.0
 21
30.0
  0
LINE
  8
0
 62
2
  6
CONTINUOUS
 10
10.0
 20
30.0
 11
10.0
 21
10.0
  0
LINE
  8
0
 62
2
  6
CONTINUOUS
 10
10.0
 20
10.0
 11
200.0
 21
10.0
  0
LINE
  8
0
 62
2
  6
CONTINUOUS
 10
95.0
 20
30.0
 11
95.0
 21
10.0
  0
LINE
  8
0
 62
2
  6
CONTINUOUS
 10
115.0
 20
30.0
 11
115.0
 21
10.0
  0
LINE
  8
0
 62
2
  6
CONTINUOUS
 10
200.0
 20
30.0
 11
200.0
 21
10.0
  0
TEXT
  8
0
 62
5
  6
CONTINUOUS
 10
13.0
 20
23.303
  7
TEXTSTYLE_5
 40
1.52
  1
                                                                     Ammeraal Beltech Modular A/S
 41
1.0
 72
0
  0
TEXT
  8
0
 62
5
  6
CONTINUOUS
 10
13.0
 20
20.595
  7
TEXTSTYLE_5
 40
1.5
  1
                                                                      Hjulmagervej 21,  7100 Vejle,  DK
 41
1.0
 72
0
  0
TEXT
  8
0
 62
5
  6
CONTINUOUS
 10
13.0
 20
17.881
  7
TEXTSTYLE_5
 40
1.495
  1
                                                                      tel: 
 41
1.0
 72
0
  0
TEXT
  8
0
 62
5
  6
CONTINUOUS
 10
57.9869465649
 20
17.881
  7
TEXTSTYLE_5
 40
1.51
  1
+45 75723100     fax: +45 75723348
 41
1.0
 72
0
  0
TEXT
  8
0
 62
5
  6
CONTINUOUS
 10
13.0
 20
15.177
  7
TEXTSTYLE_5
 40
1.5
  1
                                                                      admin@unichains.dk  www.unichains.com
 41
1.0
 72
0
  0
TEXT
  8
0
 62
5
  6
CONTINUOUS
 10
99.75
 20
13.75
  7
TEXTSTYLE_6
 40
5.0
  1
1:1
 41
0.7
 72
1
 11
105.0
 21
13.75
  0
TEXT
  8
0
 62
5
  6
CONTINUOUS
 10
118.0
 20
13.75
  7
TEXTSTYLE_7
 40
7.5
  1
Sprocket Z17  1" SQ
 41
0.4073464912
 72
0
  0
LINE
  8
0
 62
7
  6
CONTINUOUS
 10
210.0
 20
0.0
 11
0.0
 21
0.0
  0
LINE
  8
0
 62
7
  6
CONTINUOUS
 10
10.0
 20
10.0
 11
200.0
 21
10.0
  0
LINE
  8
0
 62
7
  6
CONTINUOUS
 10
10.0
 20
30.0
 11
200.0
 21
30.0
  0
LINE
  8
0
 62
7
  6
CONTINUOUS
 10
0.0
 20
0.0
 11
0.0
 21
297.0
  0
LINE
  8
0
 62
7
  6
CONTINUOUS
 10
10.0
 20
10.0
 11
10.0
 21
287.0
  0
LINE
  8
0
 62
7
  6
CONTINUOUS
 10
200.0
 20
287.0
 11
200.0
 21
10.0
  0
LINE
  8
0
 62
7
  6
CONTINUOUS
 10
210.0
 20
0.0
 11
210.0
 21
297.0
  0
LINE
  8
0
 62
7
  6
CONTINUOUS
 10
10.0
 20
287.0
 11
200.0
 21
287.0
  0
LINE
  8
0
 62
7
  6
CONTINUOUS
 10
0.0
 20
297.0
 11
210.0
 21
297.0
  0
POLYLINE
  8
0
 62
9
  6
CONTINUOUS
 66
1
 70
0
  0
VERTEX
  8
0
 62
9
  6
CONTINUOUS
 10
62.5329307818
 20
206.1293413933
  0
VERTEX
  8
0
 62
9
  6
CONTINUOUS
 10
62.5186728194
 20
205.9390623912
  0
VERTEX
  8
0
 62
9
  6
CONTINUOUS
 10
62.5131711763
 20
205.7772848891
  0
VERTEX
  8
0
 62
9
  6
CONTINUOUS
 10
62.5172596052
 20
205.6685256465
  0
VERTEX
  8
0
 62
9
  6
CONTINUOUS
 10
62.5303185206
 20
205.6292667095
  0
SEQEND
  0
POLYLINE
  8
0
 62
9
  6
CONTINUOUS
 66
1
 70
0
  0
VERTEX
  8
0
 62
9
  6
CONTINUOUS
 10
64.2232972534
 20
205.9726163833
  0
VERTEX
  8
0
 62
9
  6
CONTINUOUS
 10
64.2141786897
 20
205.8620394183
  0
VERTEX
  8
0
 62
9
  6
CONTINUOUS
 10
64.2041467444
 20
205.6623699172
  0
VERTEX
  8
0
 62
9
  6
CONTINUOUS
 10
64.203733989
 20
205.5832413718
  0
VERTEX
  8
0
 62
9
  6
CONTINUOUS
 10
64.2122168929
 20
205.4859432638
  0
VERTEX
  8
0
 62
9
  6
CONTINUOUS
 10
64.2206892396
 20
205.4726291547
  0
SEQEND
  0
LINE
  8
0
 62
7
  6
CONTINUOUS
 10
62.3602503026
 20
209.2081988577
 11
62.077094687
 21
206.1524631177
  0
LINE
  8
0
 62
9
  6
CONTINUOUS
 10
62.5329310291
 20
206.1293462694
 11
62.8125728491
 21
209.1471622008
  0
POLYLINE
  8
0
 62
9
  6
CONTINUOUS
 66
1
 70
0
  0
VERTEX
  8
0
 62
9
  6
CONTINUOUS
 10
64.5029564138
 20
208.9906196769
  0
VERTEX
  8
0
 62
9
  6
CONTINUOUS
 10
64.5143116012
 20
209.1009892941
  0
VERTEX
  8
0
 62
9
  6
CONTINUOUS
 10
64.5411396373
 20
209.2991018459
  0
VERTEX
  8
0
 62
9
  6
CONTINUOUS
 10
64.5552737127
 20
209.3769585625
  0
VERTEX
  8
0
 62
9
  6
CONTINUOUS
 10
64.5814905797
 20
209.4710407165
  0
VERTEX
  8
0
 62
9
  6
CONTINUOUS
 10
64.5922650966
 20
209.4825712637
  0
SEQEND
  0
POLYLINE
  8
0
 62
9
  6
CONTINUOUS
 66
1
 70
0
  0
VERTEX
  8
0
 62
9
  6
CONTINUOUS
 10
62.8125735274
 20
209.1471672281
  0
VERTEX
  8
0
 62
9
  6
CONTINUOUS
 10
62.833543069
 20
209.3369831787
  0
VERTEX
  8
0
 62
9
  6
CONTINUOUS
 10
62.8578837009
 20
209.497099072
  0
VERTEX
  8
0
 62
9
  6
CONTINUOUS
 10
62.8818871345
 20
209.603193884
  0
VERTEX
  8
0
 62
9
  6
CONTINUOUS
 10
62.9018942269
 20
209.6392071919
  0
SEQEND
  0
POLYLINE
  8
0
 62
9
  6
CONTINUOUS
 66
1
 70
0
  0
VERTEX
  8
0
 62
9
  6
CONTINUOUS
 10
65.6482109281
 20
219.1133989281
  0
VERTEX
  8
0
 62
9
  6
CONTINUOUS
 10
65.5661790704
 20
218.9411196129
  0
VERTEX
  8
0
 62
9
  6
CONTINUOUS
 10
65.5026081665
 20
218.7922540075
  0
VERTEX
  8
0
 62
9
  6
CONTINUOUS
 10
65.467132143
 20
218.6893621233
  0
VERTEX
  8
0
 62
9
  6
CONTINUOUS
 10
65.4651272551
 20
218.6480368304
  0
SEQEND
  0
POLYLINE
  8
0
 62
9
  6
CONTINUOUS
 66
1
 70
0
  0
VERTEX
  8
0
 62
9
  6
CONTINUOUS
 10
67.1678151149
 20
218.3566264087
  0
VERTEX
  8
0
 62
9
  6
CONTINUOUS
 10
67.1193673033
 20
218.2568104651
  0
VERTEX
  8
0
 62
9
  6
CONTINUOUS
 10
67.0378838685
 20
218.074248187
  0
VERTEX
  8
0
 62
9
  6
CONTINUOUS
 10
67.0089144698
 20
218.0006121434
  0
VERTEX
  8
0
 62
9
  6
CONTINUOUS
 10
66.9816764277
 20
217.9068200192
  0
VERTEX
  8
0
 62
9
  6
CONTINUOUS
 10
66.9847670456
 20
217.8913444238
  0
SEQEND
  0
LINE
  8
0
 62
7
  6
CONTINUOUS
 10
66.5994027771
 20
222.046727396
 11
65.2315089588
 21
219.2996262844
  0
LINE
  8
0
 62
9
  6
CONTINUOUS
 10
65.6482129202
 20
219.1134033856
 11
66.9991320068
 21
221.8264146581
  0
POLYLINE
  8
0
 62
9
  6
CONTINUOUS
 66
1
 70
0
  0
VERTEX
  8
0
 62
9
  6
CONTINUOUS
 10
68.5188180558
 20
221.0698061264
  0
VERTEX
  8
0
 62
9
  6
CONTINUOUS
 10
68.5692765571
 20
221.1686207626
  0
VERTEX
  8
0
 62
9
  6
CONTINUOUS
 10
68.6658594641
 20
221.343663811
  0
VERTEX
  8
0
 62
9
  6
CONTINUOUS
 10
68.7071641868
 20
221.4111572201
  0
VERTEX
  8
0
 62
9
  6
CONTINUOUS
 10
68.7655970814
 20
221.4894155913
  0
VERTEX
  8
0
 62
9
  6
CONTINUOUS
 10
68.7798093332
 20
221.4962753019
  0
SEQEND
  0
POLYLINE
  8
0
 62
9
  6
CONTINUOUS
 66
1
 70
0
  0
VERTEX
  8
0
 62
9
  6
CONTINUOUS
 10
66.9991344554
 20
221.8264191009
  0
VERTEX
  8
0
 62
9
  6
CONTINUOUS
 10
67.0872574008
 20
221.9958421314
  0
VERTEX
  8
0
 62
9
  6
CONTINUOUS
 10
67.1677948963
 20
222.1363529049
  0
VERTEX
  8
0
 62
9
  6
CONTINUOUS
 10
67.2285032981
 20
222.2266123304
  0
VERTEX
  8
0
 62
9
  6
CONTINUOUS
 10
67.2601688636
 20
222.2529663446
  0
SEQEND
  0
POLYLINE
  8
0
 62
9
  6
CONTINUOUS
 66
1
 70
0
  0
VERTEX
  8
0
 62
9
  6
CONTINUOUS
 10
73.2435057291
 20
230.0953030136
  0
VERTEX
  8
0
 62
9
  6
CONTINUOUS
 10
73.104778833
 20
229.9642906614
  0
VERTEX
  8
0
 62
9
  6
CONTINUOUS
 10
72.9917242712
 20
229.8484420778
  0
VERTEX
  8
0
 62
9
  6
CONTINUOUS
 10
72.9214750288
 20
229.7653136709
  0
VERTEX
  8
0
 62
9
  6
CONTINUOUS
 10
72.9046771088
 20
229.7275032319
  0
SEQEND
  0
POLYLINE
  8
0
 62
9
  6
CONTINUOUS
 66
1
 70
0
  0
VERTEX
  8
0
 62
9
  6
CONTINUOUS
 10
74.3871166671
 20
228.8406893069
  0
VERTEX
  8
0
 62
9
  6
CONTINUOUS
 10
74.3058827505
 20
228.7651150796
  0
VERTEX
  8
0
 62
9
  6
CONTINUOUS
 10
74.1639526094
 20
228.6243160373
  0
VERTEX
  8
0
 62
9
  6
CONTINUOUS
 10
74.1103390429
 20
228.5661174258
  0
VERTEX
  8
0
 62
9
  6
CONTINUOUS
 10
74.0510587025
 20
228.4884983909
  0
VERTEX
  8
0
 62
9
  6
CONTINUOUS
 10
74.048350188
 20
228.4729513682
  0
SEQEND
  0
LINE
  8
0
 62
7
  6
CONTINUOUS
 10
75.1901061763
 20
232.4869402212
 11
72.9222157952
 21
230.4194849654
  0
LINE
  8
0
 62
9
  6
CONTINUOUS
 10
73.2435091969
 20
230.0953064504
 11
75.4832564418
 21
232.1371058584
  0
POLYLINE
  8
0
 62
9
  6
CONTINUOUS
 66
1
 70
0
  0
VERTEX
  8
0
 62
9
  6
CONTINUOUS
 10
76.6270029532
 20
230.8826154937
  0
VERTEX
  8
0
 62
9
  6
CONTINUOUS
 10
76.7097500683
 20
230.9565296847
  0
VERTEX
  8
0
 62
9
  6
CONTINUOUS
 10
76.8630437893
 20
231.0848626961
  0
VERTEX
  8
0
 62
9
  6
CONTINUOUS
 10
76.9259407278
 20
231.1328774388
  0
VERTEX
  8
0
 62
9
  6
CONTINUOUS
 10
77.0086979636
 20
231.1847428005
  0
VERTEX
  8
0
 62
9
  6
CONTINUOUS
 10
77.0244285071
 20
231.1860052326
  0
SEQEND
  0
POLYLINE
  8
0
 62
9
  6
CONTINUOUS
 66
1
 70
0
  0
VERTEX
  8
0
 62
9
  6
CONTINUOUS
 10
75.4832603299
 20
232.1371091167
  0
VERTEX
  8
0
 62
9
  6
CONTINUOUS
 10
75.6266351872
 20
232.263257708
  0
VERTEX
  8
0
 62
9
  6
CONTINUOUS
 10
75.752492511
 20
232.3651866032
  0
VERTEX
  8
0
 62
9
  6
CONTINUOUS
 10
75.8417068751
 20
232.4274206067
  0
VERTEX
  8
0
 62
9
  6
CONTINUOUS
 10
75.8807543035
 20
232.4405560714
  0
SEQEND
  0
POLYLINE
  8
0
 62
9
  6
CONTINUOUS
 66
1
 70
0
  0
VERTEX
  8
0
 62
9
  6
CONTINUOUS
 10
84.2930285349
 20
237.5918866502
  0
VERTEX
  8
0
 62
9
  6
CONTINUOUS
 10
84.1163424364
 20
237.5198352052
  0
VERTEX
  8
0
 62
9
  6
CONTINUOUS
 10
83.9690728618
 20
237.4526496364
  0
VERTEX
  8
0
 62
9
  6
CONTINUOUS
 10
83.8735379498
 20
237.4005116589
  0
VERTEX
  8
0
 62
9
  6
CONTINUOUS
 10
83.84421565
 20
237.3713225832
  0
SEQEND
  0
POLYLINE
  8
0
 62
9
  6
CONTINUOUS
 66
1
 70
0
  0
VERTEX
  8
0
 62
9
  6
CONTINUOUS
 10
84.9061952297
 20
236.0088742901
  0
VERTEX
  8
0
 62
9
  6
CONTINUOUS
 10
84.8031462995
 20
235.9677484966
  0
VERTEX
  8
0
 62
9
  6
CONTINUOUS
 10
84.6199379177
 20
235.8877283843
  0
VERTEX
  8
0
 62
9
  6
CONTINUOUS
 10
84.5489210023
 20
235.8528272529
  0
VERTEX
  8
0
 62
9
  6
CONTINUOUS
 10
84.4656045168
 20
235.8018641943
  0
VERTEX
  8
0
 62
9
  6
CONTINUOUS
 10
84.4574626719
 20
235.7883454573
  0
SEQEND
  0
LINE
  8
0
 62
7
  6
CONTINUOUS
 10
86.9721384035
 20
239.1188287402
 11
84.1105426224
 21
238.0102406286
  0
LINE
  8
0
 62
9
  6
CONTINUOUS
 10
84.29303301
 20
237.5918886023
 11
87.119118137
 21
238.6867198217
  0
POLYLINE
  8
0
 62
9
  6
CONTINUOUS
 66
1
 70
0
  0
VERTEX
  8
0
 62
9
  6
CONTINUOUS
 10
87.7324558068
 20
237.103773499
  0
VERTEX
  8
0
 62
9
  6
CONTINUOUS
 10
87.8363160792
 20
237.1428047238
  0
VERTEX
  8
0
 62
9
  6
CONTINUOUS
 10
88.0256174478
 20
237.2070956137
  0
VERTEX
  8
0
 62
9
  6
CONTINUOUS
 10
88.101612022
 20
237.2291470331
  0
VERTEX
  8
0
 62
9
  6
CONTINUOUS
 10
88.1975167758
 20
237.2476146808
  0
VERTEX
  8
0
 62
9
  6
CONTINUOUS
 10
88.2126411138
 20
237.2431093359
  0
SEQEND
  0
POLYLINE
  8
0
 62
9
  6
CONTINUOUS
 66
1
 70
0
  0
VERTEX
  8
0
 62
9
  6
CONTINUOUS
 10
87.1191229396
 20
238.6867214553
  0
VERTEX
  8
0
 62
9
  6
CONTINUOUS
 10
87.2983861397
 20
238.7525585411
  0
VERTEX
  8
0
 62
9
  6
CONTINUOUS
 10
87.452565563
 20
238.802139496
  0
VERTEX
  8
0
 62
9
  6
CONTINUOUS
 10
87.5582369951
 20
238.8279430304
  0
VERTEX
  8
0
 62
9
  6
CONTINUOUS
 10
87.5993927148
 20
238.8260859284
  0
SEQEND
  0
POLYLINE
  8
0
 62
9
  6
CONTINUOUS
 66
1
 70
0
  0
VERTEX
  8
0
 62
9
  6
CONTINUOUS
 10
106.9799005695
 20
168.8833285566
  0
VERTEX
  8
0
 62
9
  6
CONTINUOUS
 10
107.1668176697
 20
168.9216872034
  0
VERTEX
  8
0
 62
9
  6
CONTINUOUS
 10
107.3239250159
 20
168.9606680969
  0
VERTEX
  8
0
 62
9
  6
CONTINUOUS
 10
107.4274135926
 20
168.9943638323
  0
VERTEX
  8
0
 62
9
  6
CONTINUOUS
 10
107.4616001032
 20
169.01766795
  0
SEQEND
  0
POLYLINE
  8
0
 62
9
  6
CONTINUOUS
 66
1
 70
0
  0
VERTEX
  8
0
 62
9
  6
CONTINUOUS
 10
106.6680519606
 20
170.5520562083
  0
VERTEX
  8
0
 62
9
  6
CONTINUOUS
 10
106.7769031325
 20
170.573546565
  0
VERTEX
  8
0
 62
9
  6
CONTINUOUS
 10
106.9716957136
 20
170.6185397321
  0
VERTEX
  8
0
 62
9
  6
CONTINUOUS
 10
107.0479165066
 20
170.6397972831
  0
VERTEX
  8
0
 62
9
  6
CONTINUOUS
 10
107.1391788228
 20
170.6745832384
  0
VERTEX
  8
0
 62
9
  6
CONTINUOUS
 10
107.1496661009
 20
170.6863757343
  0
SEQEND
  0
LINE
  8
0
 62
7
  6
CONTINUOUS
 10
107.0824069708
 20
168.4385661513
 11
104.0658327649
 21
167.8746707039
  0
LINE
  8
0
 62
9
  6
CONTINUOUS
 10
106.9798958119
 20
168.8833274601
 11
104.0007554461
 21
168.3264296021
  0
POLYLINE
  8
0
 62
9
  6
CONTINUOUS
 66
1
 70
0
  0
VERTEX
  8
0
 62
9
  6
CONTINUOUS
 10
103.6887266392
 20
169.9951237567
  0
VERTEX
  8
0
 62
9
  6
CONTINUOUS
 10
103.5794628165
 20
169.9758413876
  0
VERTEX
  8
0
 62
9
  6
CONTINUOUS
 10
103.3815712434
 20
169.9474292074
  0
VERTEX
  8
0
 62
9
  6
CONTINUOUS
 10
103.3028186836
 20
169.9397172217
  0
VERTEX
  8
0
 62
9
  6
CONTINUOUS
 10
103.2051534691
 20
169.9391864731
  0
VERTEX
  8
0
 62
9
  6
CONTINUOUS
 10
103.1911145066
 20
169.9463941957
  0
SEQEND
  0
POLYLINE
  8
0
 62
9
  6
CONTINUOUS
 66
1
 70
0
  0
VERTEX
  8
0
 62
9
  6
CONTINUOUS
 10
104.0007504251
 20
168.3264288787
  0
VERTEX
  8
0
 62
9
  6
CONTINUOUS
 10
103.8124419888
 20
168.294652321
  0
VERTEX
  8
0
 62
9
  6
CONTINUOUS
 10
103.6517772867
 20
168.2742459708
  0
VERTEX
  8
0
 62
9
  6
CONTINUOUS
 10
103.5431637245
 20
168.2682988653
  0
VERTEX
  8
0
 62
9
  6
CONTINUOUS
 10
103.5030500007
 20
168.2776866903
  0
SEQEND
  0
POLYLINE
  8
0
 62
9
  6
CONTINUOUS
 66
1
 70
0
  0
VERTEX
  8
0
 62
9
  6
CONTINUOUS
 10
93.6389642004
 20
168.3264288787
  0
VERTEX
  8
0
 62
9
  6
CONTINUOUS
 10
93.827115947
 20
168.2946750069
  0
VERTEX
  8
0
 62
9
  6
CONTINUOUS
 10
93.9876957073
 20
168.2742698881
  0
VERTEX
  8
0
 62
9
  6
CONTINUOUS
 10
94.0963682347
 20
168.2683058397
  0
VERTEX
  8
0
 62
9
  6
CONTINUOUS
 10
94.1366646248
 20
168.2776866903
  0
SEQEND
  0
POLYLINE
  8
0
 62
9
  6
CONTINUOUS
 66
1
 70
0
  0
VERTEX
  8
0
 62
9
  6
CONTINUOUS
 10
93.95098799
 20
169.9951237831
  0
VERTEX
  8
0
 62
9
  6
CONTINUOUS
 10
94.060251897
 20
169.9758413658
  0
VERTEX
  8
0
 62
9
  6
CONTINUOUS
 10
94.2581439699
 20
169.9474290498
  0
VERTEX
  8
0
 62
9
  6
CONTINUOUS
 10
94.3368968513
 20
169.9397170004
  0
VERTEX
  8
0
 62
9
  6
CONTINUOUS
 10
94.434562556
 20
169.9391861875
  0
VERTEX
  8
0
 62
9
  6
CONTINUOUS
 10
94.4486015912
 20
169.9463939205
  0
SEQEND
  0
LINE
  8
0
 62
7
  6
CONTINUOUS
 10
93.5738818606
 20
167.8746707039
 11
90.5573076546
 21
168.4385661513
  0
LINE
  8
0
 62
9
  6
CONTINUOUS
 10
93.6389593679
 20
168.3264295749
 11
90.6598189992
 21
168.8833274173
  0
POLYLINE
  8
0
 62
9
  6
CONTINUOUS
 66
1
 70
0
  0
VERTEX
  8
0
 62
9
  6
CONTINUOUS
 10
90.9716626587
 20
170.5520561819
  0
VERTEX
  8
0
 62
9
  6
CONTINUOUS
 10
90.8628115833
 20
170.5735465536
  0
VERTEX
  8
0
 62
9
  6
CONTINUOUS
 10
90.6680195236
 20
170.6185396662
  0
VERTEX
  8
0
 62
9
  6
CONTINUOUS
 10
90.591799058
 20
170.6397971596
  0
VERTEX
  8
0
 62
9
  6
CONTINUOUS
 10
90.5005372292
 20
170.6745829961
  0
VERTEX
  8
0
 62
9
  6
CONTINUOUS
 10
90.4900500163
 20
170.6863754555
  0
SEQEND
  0
POLYLINE
  8
0
 62
9
  6
CONTINUOUS
 66
1
 70
0
  0
VERTEX
  8
0
 62
9
  6
CONTINUOUS
 10
90.6598140559
 20
168.8833285566
  0
VERTEX
  8
0
 62
9
  6
CONTINUOUS
 10
90.4727426519
 20
168.9217226522
  0
VERTEX
  8
0
 62
9
  6
CONTINUOUS
 10
90.3155556549
 20
168.9607330821
  0
VERTEX
  8
0
 62
9
  6
CONTINUOUS
 10
90.2121281822
 20
168.9944233155
  0
VERTEX
  8
0
 62
9
  6
CONTINUOUS
 10
90.1781145223
 20
169.01766795
  0
SEQEND
  0
POLYLINE
  8
0
 62
9
  6
CONTINUOUS
 66
1
 70
0
  0
VERTEX
  8
0
 62
9
  6
CONTINUOUS
 10
80.9977361544
 20
172.6264374771
  0
VERTEX
  8
0
 62
9
  6
CONTINUOUS
 10
81.1617116115
 20
172.528859623
  0
VERTEX
  8
0
 62
9
  6
CONTINUOUS
 10
81.3040765994
 20
172.4518243162
  0
VERTEX
  8
0
 62
9
  6
CONTINUOUS
 10
81.4032562505
 20
172.4070059618
  0
VERTEX
  8
0
 62
9
  6
CONTINUOUS
 10
81.4442202693
 20
172.4011966094
  0
SEQEND
  0
POLYLINE
  8
0
 62
9
  6
CONTINUOUS
 66
1
 70
0
  0
VERTEX
  8
0
 62
9
  6
CONTINUOUS
 10
81.891491801
 20
174.0697331415
  0
VERTEX
  8
0
 62
9
  6
CONTINUOUS
 10
81.9864117473
 20
174.0122821462
  0
VERTEX
  8
0
 62
9
  6
CONTINUOUS
 10
82.1606769048
 20
173.9143015829
  0
VERTEX
  8
0
 62
9
  6
CONTINUOUS
 10
82.2313258718
 20
173.8786614852
  0
VERTEX
  8
0
 62
9
  6
CONTINUOUS
 10
82.3222046868
 20
173.84288559
  0
VERTEX
  8
0
 62
9
  6
CONTINUOUS
 10
82.3378994324
 20
173.8445351159
  0
SEQEND
  0
LINE
  8
0
 62
7
  6
CONTINUOUS
 10
80.7738548041
 20
172.2286959775
 11
78.1646856601
 21
173.8442251148
  0
LINE
  8
0
 62
9
  6
CONTINUOUS
 10
80.9977318997
 20
172.6264398719
 11
78.4209409429
 21
174.2219212752
  0
POLYLINE
  8
0
 62
9
  6
CONTINUOUS
 66
1
 70
0
  0
VERTEX
  8
0
 62
9
  6
CONTINUOUS
 10
79.3145408546
 20
175.6653135834
  0
VERTEX
  8
0
 62
9
  6
CONTINUOUS
 10
79.2208034673
 20
175.724674302
  0
VERTEX
  8
0
 62
9
  6
CONTINUOUS
 10
79.0554186681
 20
175.8369961383
  0
VERTEX
  8
0
 62
9
  6
CONTINUOUS
 10
78.992024293
 20
175.8843521685
  0
VERTEX
  8
0
 62
9
  6
CONTINUOUS
 10
78.9194912656
 20
175.9497565701
  0
VERTEX
  8
0
 62
9
  6
CONTINUOUS
 10
78.9139721584
 20
175.9645411293
  0
SEQEND
  0
POLYLINE
  8
0
 62
9
  6
CONTINUOUS
 66
1
 70
0
  0
VERTEX
  8
0
 62
9
  6
CONTINUOUS
 10
78.4209367449
 20
174.2219241232
  0
VERTEX
  8
0
 62
9
  6
CONTINUOUS
 10
78.2603674029
 20
174.3253035369
  0
VERTEX
  8
0
 62
9
  6
CONTINUOUS
 10
78.1278870861
 20
174.4184621721
  0
VERTEX
  8
0
 62
9
  6
CONTINUOUS
 10
78.043614156
 20
174.4872396917
  0
VERTEX
  8
0
 62
9
  6
CONTINUOUS
 10
78.0202942932
 20
174.5212018191
  0
SEQEND
  0
POLYLINE
  8
0
 62
9
  6
CONTINUOUS
 66
1
 70
0
  0
VERTEX
  8
0
 62
9
  6
CONTINUOUS
 10
70.7634843266
 20
181.2026143632
  0
VERTEX
  8
0
 62
9
  6
CONTINUOUS
 10
70.8811377
 20
181.0523909567
  0
VERTEX
  8
0
 62
9
  6
CONTINUOUS
 10
70.9860607351
 20
180.929129507
  0
VERTEX
  8
0
 62
9
  6
CONTINUOUS
 10
71.0623527485
 20
180.8515098137
  0
VERTEX
  8
0
 62
9
  6
CONTINUOUS
 10
71.0984519783
 20
180.8312948436
  0
SEQEND
  0
POLYLINE
  8
0
 62
9
  6
CONTINUOUS
 66
1
 70
0
  0
VERTEX
  8
0
 62
9
  6
CONTINUOUS
 10
72.118265177
 20
182.2255857097
  0
VERTEX
  8
0
 62
9
  6
CONTINUOUS
 10
72.1860216981
 20
182.1377252135
  0
VERTEX
  8
0
 62
9
  6
CONTINUOUS
 10
72.3131244493
 20
181.9834092344
  0
VERTEX
  8
0
 62
9
  6
CONTINUOUS
 10
72.3661279551
 20
181.9246544902
  0
VERTEX
  8
0
 62
9
  6
CONTINUOUS
 10
72.4379461726
 20
181.8584652583
  0
VERTEX
  8
0
 62
9
  6
CONTINUOUS
 10
72.4531769626
 20
181.8543338007
  0
SEQEND
  0
LINE
  8
0
 62
7
  6
CONTINUOUS
 10
68.5616590514
 20
183.3615833976
 11
70.4110403827
 21
180.9126067324
  0
LINE
  8
0
 62
9
  6
CONTINUOUS
 10
70.7634812244
 20
181.2026181333
 11
68.9370495766
 21
183.621204493
  0
POLYLINE
  8
0
 62
9
  6
CONTINUOUS
 66
1
 70
0
  0
VERTEX
  8
0
 62
9
  6
CONTINUOUS
 10
70.2917201209
 20
184.6443222156
  0
VERTEX
  8
0
 62
9
  6
CONTINUOUS
 10
70.2257561753
 20
184.7335362872
  0
VERTEX
  8
0
 62
9
  6
CONTINUOUS
 10
70.1121147701
 20
184.8980171606
  0
VERTEX
  8
0
 62
9
  6
CONTINUOUS
 10
70.0701082471
 20
184.9650760334
  0
VERTEX
  8
0
 62
9
  6
CONTINUOUS
 10
70.0261000083
 20
185.0522657733
  0
VERTEX
  8
0
 62
9
  6
CONTINUOUS
 10
70.026294393
 20
185.0680456956
  0
SEQEND
  0
POLYLINE
  8
0
 62
9
  6
CONTINUOUS
 66
1
 70
0
  0
VERTEX
  8
0
 62
9
  6
CONTINUOUS
 10
68.937046691
 20
183.6212086652
  0
VERTEX
  8
0
 62
9
  6
CONTINUOUS
 10
68.8246651902
 20
183.7756114342
  0
VERTEX
  8
0
 62
9
  6
CONTINUOUS
 10
68.7347837545
 20
183.9103366848
  0
VERTEX
  8
0
 62
9
  6
CONTINUOUS
 10
68.6810468933
 20
184.0049127056
  0
VERTEX
  8
0
 62
9
  6
CONTINUOUS
 10
68.6715703043
 20
184.0450055523
  0
SEQEND
  0
POLYLINE
  8
0
 62
9
  6
CONTINUOUS
 66
1
 70
0
  0
VERTEX
  8
0
 62
9
  6
CONTINUOUS
 10
64.3184011363
 20
192.8966993264
  0
VERTEX
  8
0
 62
9
  6
CONTINUOUS
 10
64.3738426861
 20
192.714118871
  0
VERTEX
  8
0
 62
9
  6
CONTINUOUS
 10
64.4271533311
 20
192.5612784202
  0
VERTEX
  8
0
 62
9
  6
CONTINUOUS
 10
64.4702540475
 20
192.4613403577
  0
VERTEX
  8
0
 62
9
  6
CONTINUOUS
 10
64.4966130873
 20
192.4294499135
  0
SEQEND
  0
POLYLINE
  8
0
 62
9
  6
CONTINUOUS
 66
1
 70
0
  0
VERTEX
  8
0
 62
9
  6
CONTINUOUS
 10
65.9512365306
 20
193.361188407
  0
VERTEX
  8
0
 62
9
  6
CONTINUOUS
 10
65.9826787321
 20
193.2547844549
  0
VERTEX
  8
0
 62
9
  6
CONTINUOUS
 10
66.0454531589
 20
193.0649742665
  0
VERTEX
  8
0
 62
9
  6
CONTINUOUS
 10
66.0736527971
 20
192.9910400147
  0
VERTEX
  8
0
 62
9
  6
CONTINUOUS
 10
66.1167109873
 20
192.9033766463
  0
VERTEX
  8
0
 62
9
  6
CONTINUOUS
 10
66.1294208229
 20
192.8940221788
  0
SEQEND
  0
LINE
  8
0
 62
7
  6
CONTINUOUS
 10
63.0451697845
 20
195.7052690262
 11
63.8849941065
 21
192.7535927019
  0
LINE
  8
0
 62
9
  6
CONTINUOUS
 10
64.3183996055
 20
192.8967039626
 11
63.4889969814
 21
195.8117517891
  0
POLYLINE
  8
0
 62
9
  6
CONTINUOUS
 66
1
 70
0
  0
VERTEX
  8
0
 62
9
  6
CONTINUOUS
 10
65.1217823948
 20
196.2764172082
  0
VERTEX
  8
0
 62
9
  6
CONTINUOUS
 10
65.0925006872
 20
196.3834357781
  0
VERTEX
  8
0
 62
9
  6
CONTINUOUS
 10
65.0459505776
 20
196.5778616354
  0
VERTEX
  8
0
 62
9
  6
CONTINUOUS
 10
65.0310051203
 20
196.6555666784
  0
VERTEX
  8
0
 62
9
  6
CONTINUOUS
 10
65.0214652267
 20
196.752766299
  0
VERTEX
  8
0
 62
9
  6
CONTINUOUS
 10
65.0273468504
 20
196.7674104185
  0
SEQEND
  0
POLYLINE
  8
0
 62
9
  6
CONTINUOUS
 66
1
 70
0
  0
VERTEX
  8
0
 62
9
  6
CONTINUOUS
 10
63.4889957979
 20
195.8117567219
  0
VERTEX
  8
0
 62
9
  6
CONTINUOUS
 10
63.4399798828
 20
195.9963298967
  0
VERTEX
  8
0
 62
9
  6
CONTINUOUS
 10
63.4048363141
 20
196.1544263712
  0
VERTEX
  8
0
 62
9
  6
CONTINUOUS
 10
63.3888929826
 20
196.2620278773
  0
VERTEX
  8
0
 62
9
  6
CONTINUOUS
 10
63.3945395334
 20
196.3028366823
  0
SEQEND
  0
POLYLINE
  8
0
 62
7
  6
CONTINUOUS
 66
1
 70
0
  0
VERTEX
  8
0
 62
7
  6
CONTINUOUS
 10
65.3591228967
 20
209.0046588125
  0
VERTEX
  8
0
 62
7
  6
CONTINUOUS
 10
65.3593996982
 20
209.0009767814
  0
VERTEX
  8
0
 62
7
  6
CONTINUOUS
 10
65.3593556466
 20
208.9972262462
  0
VERTEX
  8
0
 62
7
  6
CONTINUOUS
 10
65.3589797875
 20
208.9933863814
  0
SEQEND
  0
POLYLINE
  8
0
 62
7
  6
CONTINUOUS
 66
1
 70
0
  0
VERTEX
  8
0
 62
7
  6
CONTINUOUS
 10
66.7954052026
 20
193.5047101849
  0
VERTEX
  8
0
 62
7
  6
CONTINUOUS
 10
66.8077688594
 20
193.3371100809
  0
VERTEX
  8
0
 62
7
  6
CONTINUOUS
 10
66.8210590872
 20
193.1906909587
  0
VERTEX
  8
0
 62
7
  6
CONTINUOUS
 10
66.8275637683
 20
193.1309419665
  0
VERTEX
  8
0
 62
7
  6
CONTINUOUS
 10
66.8393392146
 20
193.0471102515
  0
VERTEX
  8
0
 62
7
  6
CONTINUOUS
 10
66.8483481499
 20
193.0183667028
  0
SEQEND
  0
LINE
  8
0
 62
7
  6
CONTINUOUS
 10
65.3589786384
 20
208.9933765243
 11
65.0642374041
 21
205.8126108755
  0
POLYLINE
  8
0
 62
7
  6
CONTINUOUS
 66
1
 70
0
  0
VERTEX
  8
0
 62
7
  6
CONTINUOUS
 10
69.322240638
 20
220.7736124324
  0
VERTEX
  8
0
 62
7
  6
CONTINUOUS
 10
69.3651908891
 20
220.9360868751
  0
VERTEX
  8
0
 62
7
  6
CONTINUOUS
 10
69.4051599879
 20
221.0775707071
  0
VERTEX
  8
0
 62
7
  6
CONTINUOUS
 10
69.4225331831
 20
221.135107034
  0
VERTEX
  8
0
 62
7
  6
CONTINUOUS
 10
69.4495135567
 20
221.2153472952
  0
VERTEX
  8
0
 62
7
  6
CONTINUOUS
 10
69.463647731
 20
221.2419468655
  0
SEQEND
  0
POLYLINE
  8
0
 62
7
  6
CONTINUOUS
 66
1
 70
0
  0
VERTEX
  8
0
 62
7
  6
CONTINUOUS
 10
65.062303374
 20
205.8014846592
  0
VERTEX
  8
0
 62
7
  6
CONTINUOUS
 10
65.0632548069
 20
205.805064523
  0
VERTEX
  8
0
 62
7
  6
CONTINUOUS
 10
65.0639006744
 20
205.8087593244
  0
VERTEX
  8
0
 62
7
  6
CONTINUOUS
 10
65.0642367928
 20
205.8126029065
  0
SEQEND
  0
POLYLINE
  8
0
 62
7
  6
CONTINUOUS
 66
1
 70
0
  0
VERTEX
  8
0
 62
7
  6
CONTINUOUS
 10
69.322239841
 20
220.7736098081
  0
VERTEX
  8
0
 62
7
  6
CONTINUOUS
 10
69.3211690639
 20
220.770080873
  0
VERTEX
  8
0
 62
7
  6
CONTINUOUS
 10
69.3197731332
 20
220.7665994995
  0
VERTEX
  8
0
 62
7
  6
CONTINUOUS
 10
69.3180355284
 20
220.7631546917
  0
SEQEND
  0
POLYLINE
  8
0
 62
7
  6
CONTINUOUS
 66
1
 70
0
  0
VERTEX
  8
0
 62
7
  6
CONTINUOUS
 10
65.0623068603
 20
205.8014977745
  0
VERTEX
  8
0
 62
7
  6
CONTINUOUS
 10
65.0132919621
 20
205.6407488921
  0
VERTEX
  8
0
 62
7
  6
CONTINUOUS
 10
64.9727925716
 20
205.4994159517
  0
VERTEX
  8
0
 62
7
  6
CONTINUOUS
 10
64.9572745104
 20
205.4413517985
  0
VERTEX
  8
0
 62
7
  6
CONTINUOUS
 10
64.9379724739
 20
205.3589268752
  0
VERTEX
  8
0
 62
7
  6
CONTINUOUS
 10
64.9359872926
 20
205.3288706146
  0
SEQEND
  0
LINE
  8
0
 62
7
  6
CONTINUOUS
 10
69.3180323601
 20
220.7631486891
 11
67.8941677829
 21
217.903643089
  0
POLYLINE
  8
0
 62
7
  6
CONTINUOUS
 66
1
 70
0
  0
VERTEX
  8
0
 62
7
  6
CONTINUOUS
 10
77.2691745474
 20
230.3161934305
  0
VERTEX
  8
0
 62
7
  6
CONTINUOUS
 10
77.3679171816
 20
230.4521808018
  0
VERTEX
  8
0
 62
7
  6
CONTINUOUS
 10
77.4562972976
 20
230.569671921
  0
VERTEX
  8
0
 62
7
  6
CONTINUOUS
 10
77.4932819433
 20
230.6170469566
  0
VERTEX
  8
0
 62
7
  6
CONTINUOUS
 10
77.5474268644
 20
230.6821220998
  0
VERTEX
  8
0
 62
7
  6
CONTINUOUS
 10
77.5702147263
 20
230.7018201548
  0
SEQEND
  0
POLYLINE
  8
0
 62
7
  6
CONTINUOUS
 66
1
 70
0
  0
VERTEX
  8
0
 62
7
  6
CONTINUOUS
 10
67.8883519248
 20
217.8939756213
  0
VERTEX
  8
0
 62
7
  6
CONTINUOUS
 10
67.8905254413
 20
217.8969612029
  0
VERTEX
  8
0
 62
7
  6
CONTINUOUS
 10
67.8924624415
 20
217.9001732263
  0
VERTEX
  8
0
 62
7
  6
CONTINUOUS
 10
67.8941643488
 20
217.9036358841
  0
SEQEND
  0
POLYLINE
  8
0
 62
7
  6
CONTINUOUS
 66
1
 70
0
  0
VERTEX
  8
0
 62
7
  6
CONTINUOUS
 10
77.269175094
 20
230.3161941277
  0
VERTEX
  8
0
 62
7
  6
CONTINUOUS
 10
77.2668997114
 20
230.3132873739
  0
VERTEX
  8
0
 62
7
  6
CONTINUOUS
 10
77.2643404387
 20
230.3105453737
  0
VERTEX
  8
0
 62
7
  6
CONTINUOUS
 10
77.2614757765
 20
230.3079608953
  0
SEQEND
  0
POLYLINE
  8
0
 62
7
  6
CONTINUOUS
 66
1
 70
0
  0
VERTEX
  8
0
 62
7
  6
CONTINUOUS
 10
67.8883533004
 20
217.8939775045
  0
VERTEX
  8
0
 62
7
  6
CONTINUOUS
 10
67.7845786663
 20
217.7617902146
  0
VERTEX
  8
0
 62
7
  6
CONTINUOUS
 10
67.6957583085
 20
217.644631635
  0
VERTEX
  8
0
 62
7
  6
CONTINUOUS
 10
67.6603126713
 20
217.5960944377
  0
VERTEX
  8
0
 62
7
  6
CONTINUOUS
 10
67.6125377002
 20
217.5262090433
  0
VERTEX
  8
0
 62
7
  6
CONTINUOUS
 10
67.5998311219
 20
217.4988979151
  0
SEQEND
  0
LINE
  8
0
 62
7
  6
CONTINUOUS
 10
77.2614706538
 20
230.3079564425
 11
74.9007839009
 21
228.1559061098
  0
POLYLINE
  8
0
 62
7
  6
CONTINUOUS
 66
1
 70
0
  0
VERTEX
  8
0
 62
7
  6
CONTINUOUS
 10
88.1266477598
 20
236.3436214991
  0
VERTEX
  8
0
 62
7
  6
CONTINUOUS
 10
88.2678468034
 20
236.4347560269
  0
VERTEX
  8
0
 62
7
  6
CONTINUOUS
 10
88.3927014696
 20
236.5123866873
  0
VERTEX
  8
0
 62
7
  6
CONTINUOUS
 10
88.4443024482
 20
236.5432022157
  0
VERTEX
  8
0
 62
7
  6
CONTINUOUS
 10
88.5182988994
 20
236.5843236314
  0
VERTEX
  8
0
 62
7
  6
CONTINUOUS
 10
88.5466637948
 20
236.5944594546
  0
SEQEND
  0
POLYLINE
  8
0
 62
7
  6
CONTINUOUS
 66
1
 70
0
  0
VERTEX
  8
0
 62
7
  6
CONTINUOUS
 10
74.891869343
 20
228.1489929648
  0
VERTEX
  8
0
 62
7
  6
CONTINUOUS
 10
74.8949737591
 20
228.1509911905
  0
VERTEX
  8
0
 62
7
  6
CONTINUOUS
 10
74.8979402708
 20
228.1532865857
  0
VERTEX
  8
0
 62
7
  6
CONTINUOUS
 10
74.9007781047
 20
228.1559006151
  0
SEQEND
  0
POLYLINE
  8
0
 62
7
  6
CONTINUOUS
 66
1
 70
0
  0
VERTEX
  8
0
 62
7
  6
CONTINUOUS
 10
88.1266492222
 20
236.3436223692
  0
VERTEX
  8
0
 62
7
  6
CONTINUOUS
 10
88.1234767317
 20
236.3417334704
  0
VERTEX
  8
0
 62
7
  6
CONTINUOUS
 10
88.1200997531
 20
236.3401011452
  0
VERTEX
  8
0
 62
7
  6
CONTINUOUS
 10
88.1164949102
 20
236.3387260246
  0
SEQEND
  0
POLYLINE
  8
0
 62
7
  6
CONTINUOUS
 66
1
 70
0
  0
VERTEX
  8
0
 62
7
  6
CONTINUOUS
 10
74.8918704482
 20
228.1489936719
  0
VERTEX
  8
0
 62
7
  6
CONTINUOUS
 10
74.7473519507
 20
228.063220372
  0
VERTEX
  8
0
 62
7
  6
CONTINUOUS
 10
74.6222068999
 20
227.9860588136
  0
VERTEX
  8
0
 62
7
  6
CONTINUOUS
 10
74.5716211867
 20
227.9536036342
  0
VERTEX
  8
0
 62
7
  6
CONTINUOUS
 10
74.501826901
 20
227.9056956404
  0
VERTEX
  8
0
 62
7
  6
CONTINUOUS
 10
74.4801123169
 20
227.88481914
  0
SEQEND
  0
LINE
  8
0
 62
7
  6
CONTINUOUS
 10
103.4518108633
 20
170.8177130189
 11
106.59181518
 21
171.4046816227
  0
POLYLINE
  8
0
 62
7
  6
CONTINUOUS
 66
1
 70
0
  0
VERTEX
  8
0
 62
7
  6
CONTINUOUS
 10
91.0366823408
 20
171.405865829
  0
VERTEX
  8
0
 62
7
  6
CONTINUOUS
 10
90.8686563558
 20
171.4027133093
  0
VERTEX
  8
0
 62
7
  6
CONTINUOUS
 10
90.72163551
 20
171.4024377985
  0
VERTEX
  8
0
 62
7
  6
CONTINUOUS
 10
90.6615411922
 20
171.4034022629
  0
VERTEX
  8
0
 62
7
  6
CONTINUOUS
 10
90.576980515
 20
171.4073940396
  0
VERTEX
  8
0
 62
7
  6
CONTINUOUS
 10
90.5475283682
 20
171.41370902
  0
SEQEND
  0
POLYLINE
  8
0
 62
7
  6
CONTINUOUS
 66
1
 70
0
  0
VERTEX
  8
0
 62
7
  6
CONTINUOUS
 10
106.6030337218
 20
171.4058663598
  0
VERTEX
  8
0
 62
7
  6
CONTINUOUS
 10
106.5993424374
 20
171.4058016733
  0
VERTEX
  8
0
 62
7
  6
CONTINUOUS
 10
106.5956118847
 20
171.4054117562
  0
VERTEX
  8
0
 62
7
  6
CONTINUOUS
 10
106.5918229966
 20
171.4046831901
  0
SEQEND
  0
POLYLINE
  8
0
 62
7
  6
CONTINUOUS
 66
1
 70
0
  0
VERTEX
  8
0
 62
7
  6
CONTINUOUS
 10
91.0366842497
 20
171.4058657956
  0
VERTEX
  8
0
 62
7
  6
CONTINUOUS
 10
91.04037233
 20
171.4058016646
  0
VERTEX
  8
0
 62
7
  6
CONTINUOUS
 10
91.0441028126
 20
171.4054117456
  0
VERTEX
  8
0
 62
7
  6
CONTINUOUS
 10
91.0478916288
 20
171.4046831901
  0
SEQEND
  0
POLYLINE
  8
0
 62
7
  6
CONTINUOUS
 66
1
 70
0
  0
VERTEX
  8
0
 62
7
  6
CONTINUOUS
 10
106.6030324868
 20
171.4058663419
  0
VERTEX
  8
0
 62
7
  6
CONTINUOUS
 10
106.7710584108
 20
171.4027130438
  0
VERTEX
  8
0
 62
7
  6
CONTINUOUS
 10
106.9180792002
 20
171.4024366957
  0
VERTEX
  8
0
 62
7
  6
CONTINUOUS
 10
106.9781734889
 20
171.4034006688
  0
VERTEX
  8
0
 62
7
  6
CONTINUOUS
 10
107.0627340908
 20
171.4073907994
  0
VERTEX
  8
0
 62
7
  6
CONTINUOUS
 10
107.0921862654
 20
171.4137093191
  0
SEQEND
  0
LINE
  8
0
 62
7
  6
CONTINUOUS
 10
91.0478987926
 20
171.4046816748
 11
94.1879031197
 21
170.8177132063
  0
POLYLINE
  8
0
 62
7
  6
CONTINUOUS
 66
1
 70
0
  0
VERTEX
  8
0
 62
7
  6
CONTINUOUS
 10
79.6836015215
 20
176.4379794652
  0
VERTEX
  8
0
 62
7
  6
CONTINUOUS
 10
79.5257831685
 20
176.4957379265
  0
VERTEX
  8
0
 62
7
  6
CONTINUOUS
 10
79.3885908222
 20
176.5485911912
  0
VERTEX
  8
0
 62
7
  6
CONTINUOUS
 10
79.3329029649
 20
176.5711991635
  0
VERTEX
  8
0
 62
7
  6
CONTINUOUS
 10
79.2554945475
 20
176.6054684339
  0
VERTEX
  8
0
 62
7
  6
CONTINUOUS
 10
79.2303122977
 20
176.6219958584
  0
SEQEND
  0
POLYLINE
  8
0
 62
7
  6
CONTINUOUS
 66
1
 70
0
  0
VERTEX
  8
0
 62
7
  6
CONTINUOUS
 10
94.198789947
 20
170.8147662338
  0
VERTEX
  8
0
 62
7
  6
CONTINUOUS
 10
94.1953267307
 20
170.8160384541
  0
VERTEX
  8
0
 62
7
  6
CONTINUOUS
 10
94.1917072259
 20
170.817022504
  0
VERTEX
  8
0
 62
7
  6
CONTINUOUS
 10
94.1879109896
 20
170.817711844
  0
SEQEND
  0
POLYLINE
  8
0
 62
7
  6
CONTINUOUS
 66
1
 70
0
  0
VERTEX
  8
0
 62
7
  6
CONTINUOUS
 10
79.6836007783
 20
176.4379797686
  0
VERTEX
  8
0
 62
7
  6
CONTINUOUS
 10
79.687019175
 20
176.436586732
  0
VERTEX
  8
0
 62
7
  6
CONTINUOUS
 10
79.6903568815
 20
176.4348755411
  0
VERTEX
  8
0
 62
7
  6
CONTINUOUS
 10
79.6936266534
 20
176.4328275104
  0
SEQEND
  0
POLYLINE
  8
0
 62
7
  6
CONTINUOUS
 66
1
 70
0
  0
VERTEX
  8
0
 62
7
  6
CONTINUOUS
 10
94.1987910097
 20
170.8147658484
  0
VERTEX
  8
0
 62
7
  6
CONTINUOUS
 10
94.3543313452
 20
170.7511273712
  0
VERTEX
  8
0
 62
7
  6
CONTINUOUS
 10
94.4913242412
 20
170.6977594808
  0
VERTEX
  8
0
 62
7
  6
CONTINUOUS
 10
94.5477086747
 20
170.6769496902
  0
VERTEX
  8
0
 62
7
  6
CONTINUOUS
 10
94.6280003142
 20
170.6501231615
  0
VERTEX
  8
0
 62
7
  6
CONTINUOUS
 10
94.6577464767
 20
170.6453764464
  0
SEQEND
  0
LINE
  8
0
 62
7
  6
CONTINUOUS
 10
79.6936323381
 20
176.4328238018
 11
82.4095621635
 21
174.7511913088
  0
POLYLINE
  8
0
 62
7
  6
CONTINUOUS
 66
1
 70
0
  0
VERTEX
  8
0
 62
7
  6
CONTINUOUS
 10
70.914978045
 20
185.2314915796
  0
VERTEX
  8
0
 62
7
  6
CONTINUOUS
 10
70.788681597
 20
185.3423603322
  0
VERTEX
  8
0
 62
7
  6
CONTINUOUS
 10
70.6798463676
 20
185.4412041535
  0
VERTEX
  8
0
 62
7
  6
CONTINUOUS
 10
70.6360859421
 20
185.4824022507
  0
VERTEX
  8
0
 62
7
  6
CONTINUOUS
 10
70.5762842804
 20
185.5423205985
  0
VERTEX
  8
0
 62
7
  6
CONTINUOUS
 10
70.5587728234
 20
185.5668287263
  0
SEQEND
  0
POLYLINE
  8
0
 62
7
  6
CONTINUOUS
 66
1
 70
0
  0
VERTEX
  8
0
 62
7
  6
CONTINUOUS
 10
82.4186515853
 20
174.7445083178
  0
VERTEX
  8
0
 62
7
  6
CONTINUOUS
 10
82.415879441
 20
174.7469479676
  0
VERTEX
  8
0
 62
7
  6
CONTINUOUS
 10
82.4128598485
 20
174.7491730681
  0
VERTEX
  8
0
 62
7
  6
CONTINUOUS
 10
82.4095690001
 20
174.751187205
  0
SEQEND
  0
POLYLINE
  8
0
 62
7
  6
CONTINUOUS
 66
1
 70
0
  0
VERTEX
  8
0
 62
7
  6
CONTINUOUS
 10
70.9149749071
 20
185.2314945428
  0
VERTEX
  8
0
 62
7
  6
CONTINUOUS
 10
70.9176618122
 20
185.2289583145
  0
VERTEX
  8
0
 62
7
  6
CONTINUOUS
 10
70.9201559752
 20
185.2261569597
  0
VERTEX
  8
0
 62
7
  6
CONTINUOUS
 10
70.9224651106
 20
185.2230660526
  0
SEQEND
  0
POLYLINE
  8
0
 62
7
  6
CONTINUOUS
 66
1
 70
0
  0
VERTEX
  8
0
 62
7
  6
CONTINUOUS
 10
82.4186499531
 20
174.7445097587
  0
VERTEX
  8
0
 62
7
  6
CONTINUOUS
 10
82.5406982973
 20
174.6289811593
  0
VERTEX
  8
0
 62
7
  6
CONTINUOUS
 10
82.6491618547
 20
174.5297297252
  0
VERTEX
  8
0
 62
7
  6
CONTINUOUS
 10
82.6942215303
 20
174.4899568844
  0
VERTEX
  8
0
 62
7
  6
CONTINUOUS
 10
82.7594008315
 20
174.4359376473
  0
VERTEX
  8
0
 62
7
  6
CONTINUOUS
 10
82.7854227651
 20
174.4207650234
  0
SEQEND
  0
LINE
  8
0
 62
7
  6
CONTINUOUS
 10
70.9224690717
 20
185.2230605409
 11
72.8475224835
 21
182.6738779242
  0
POLYLINE
  8
0
 62
7
  6
CONTINUOUS
 66
1
 70
0
  0
VERTEX
  8
0
 62
7
  6
CONTINUOUS
 10
65.9150630553
 20
196.5987895135
  0
VERTEX
  8
0
 62
7
  6
CONTINUOUS
 10
65.8373456777
 20
196.7477951702
  0
VERTEX
  8
0
 62
7
  6
CONTINUOUS
 10
65.7715664981
 20
196.8792801927
  0
VERTEX
  8
0
 62
7
  6
CONTINUOUS
 10
65.7456436625
 20
196.933504408
  0
VERTEX
  8
0
 62
7
  6
CONTINUOUS
 10
65.7115255124
 20
197.0109795882
  0
VERTEX
  8
0
 62
7
  6
CONTINUOUS
 10
65.7040493415
 20
197.0401583098
  0
SEQEND
  0
POLYLINE
  8
0
 62
7
  6
CONTINUOUS
 66
1
 70
0
  0
VERTEX
  8
0
 62
7
  6
CONTINUOUS
 10
72.853584854
 20
182.6643612824
  0
VERTEX
  8
0
 62
7
  6
CONTINUOUS
 10
72.8518803203
 20
182.6676390314
  0
VERTEX
  8
0
 62
7
  6
CONTINUOUS
 10
72.8498684253
 20
182.6708046953
  0
VERTEX
  8
0
 62
7
  6
CONTINUOUS
 10
72.8475273797
 20
182.6738716293
  0
SEQEND
  0
POLYLINE
  8
0
 62
7
  6
CONTINUOUS
 66
1
 70
0
  0
VERTEX
  8
0
 62
7
  6
CONTINUOUS
 10
65.9150555732
 20
196.5988052214
  0
VERTEX
  8
0
 62
7
  6
CONTINUOUS
 10
65.9166505694
 20
196.5954578876
  0
VERTEX
  8
0
 62
7
  6
CONTINUOUS
 10
65.917964334
 20
196.5919447196
  0
VERTEX
  8
0
 62
7
  6
CONTINUOUS
 10
65.9190009695
 20
196.5882283931
  0
SEQEND
  0
POLYLINE
  8
0
 62
7
  6
CONTINUOUS
 66
1
 70
0
  0
VERTEX
  8
0
 62
7
  6
CONTINUOUS
 10
72.8535830874
 20
182.6643646887
  0
VERTEX
  8
0
 62
7
  6
CONTINUOUS
 10
72.9256558441
 20
182.5125484513
  0
VERTEX
  8
0
 62
7
  6
CONTINUOUS
 10
72.9909411309
 20
182.3808175998
  0
VERTEX
  8
0
 62
7
  6
CONTINUOUS
 10
73.0185902842
 20
182.3274530401
  0
VERTEX
  8
0
 62
7
  6
CONTINUOUS
 10
73.0598536763
 20
182.2535358998
  0
VERTEX
  8
0
 62
7
  6
CONTINUOUS
 10
73.0786383771
 20
182.229988108
  0
SEQEND
  0
LINE
  8
0
 62
7
  6
CONTINUOUS
 10
65.9190026721
 20
196.5882218227
 11
66.7931905374
 21
193.5157703229
  0
POLYLINE
  8
0
 62
7
  6
CONTINUOUS
 66
1
 70
0
  0
VERTEX
  8
0
 62
7
  6
CONTINUOUS
 10
65.3591230374
 20
209.0046569328
  0
VERTEX
  8
0
 62
7
  6
CONTINUOUS
 10
65.3404806062
 20
209.171675292
  0
VERTEX
  8
0
 62
7
  6
CONTINUOUS
 10
65.3266410271
 20
209.3180435729
  0
VERTEX
  8
0
 62
7
  6
CONTINUOUS
 10
65.3220566471
 20
209.3779705399
  0
VERTEX
  8
0
 62
7
  6
CONTINUOUS
 10
65.3182293729
 20
209.462538846
  0
VERTEX
  8
0
 62
7
  6
CONTINUOUS
 10
65.3217993717
 20
209.4924479736
  0
SEQEND
  0
POLYLINE
  8
0
 62
7
  6
CONTINUOUS
 66
1
 70
0
  0
VERTEX
  8
0
 62
7
  6
CONTINUOUS
 10
66.7954056212
 20
193.5047063609
  0
VERTEX
  8
0
 62
7
  6
CONTINUOUS
 10
66.7950003521
 20
193.5083785258
  0
VERTEX
  8
0
 62
7
  6
CONTINUOUS
 10
66.7942678865
 20
193.5120571852
  0
VERTEX
  8
0
 62
7
  6
CONTINUOUS
 10
66.7931928344
 20
193.5157626845
  0
SEQEND
  0
LINE
  8
0
 62
7
  6
CONTINUOUS
 10
76.0997685514
 20
222.6477043337
 11
76.0430179454
 21
222.5223407266
  0
LINE
  8
0
 62
7
  6
CONTINUOUS
 10
76.1493213753
 20
222.4372413349
 11
76.2060719883
 21
222.5626049364
  0
LINE
  8
0
 62
7
  6
CONTINUOUS
 10
80.1955816718
 20
228.5776384339
 11
80.1298804546
 21
228.4431141749
  0
LINE
  8
0
 62
7
  6
CONTINUOUS
 10
76.1423012234
 20
224.1257396934
 11
76.0801381464
 21
224.0029698203
  0
LINE
  8
0
 62
7
  6
CONTINUOUS
 10
76.1826297726
 20
223.9133161032
 11
76.2447928496
 21
224.0360859763
  0
LINE
  8
0
 62
7
  6
CONTINUOUS
 10
75.5905366423
 20
223.4823471803
 11
75.4863785095
 21
223.3522361824
  0
LINE
  8
0
 62
7
  6
CONTINUOUS
 10
75.0697460753
 20
222.8317923121
 11
74.9655879649
 21
222.7016813422
  0
LINE
  8
0
 62
7
  6
CONTINUOUS
 10
76.0430179454
 20
222.5223407266
 11
75.9596914452
 21
222.4182519358
  0
LINE
  8
0
 62
7
  6
CONTINUOUS
 10
76.0659948751
 20
222.3331525441
 11
76.1493213753
 21
222.4372413349
  0
LINE
  8
0
 62
7
  6
CONTINUOUS
 10
76.3784692137
 20
222.7234854632
 11
76.4826273465
 21
222.853596461
  0
LINE
  8
0
 62
7
  6
CONTINUOUS
 10
80.3449232383
 20
228.4343610834
 11
80.4310731816
 21
228.541668716
  0
LINE
  8
0
 62
7
  6
CONTINUOUS
 10
81.4461253676
 20
227.8565758455
 11
81.3599754243
 21
227.7492682129
  0
LINE
  8
0
 62
7
  6
CONTINUOUS
 10
76.230087207
 20
224.2260961372
 11
76.1423012234
 21
224.1257396934
  0
LINE
  8
0
 62
7
  6
CONTINUOUS
 10
75.9447828545
 20
223.8999378025
 11
75.8350504064
 21
223.7744922836
  0
LINE
  8
0
 62
7
  6
CONTINUOUS
 10
76.6549834878
 20
223.0572624844
 11
76.7647159359
 21
223.1827080032
  0
LINE
  8
0
 62
7
  6
CONTINUOUS
 10
77.1597526738
 20
223.634311785
 11
77.2694850591
 21
223.7597572321
  0
LINE
  8
0
 62
7
  6
CONTINUOUS
 10
80.308380825
 20
228.7049684743
 11
80.1955816718
 21
228.5776384339
  0
LINE
  8
0
 62
7
  6
CONTINUOUS
 10
81.4826677953
 20
227.5859684355
 11
81.5954675566
 21
227.7132989366
  0
LINE
  8
0
 62
7
  6
CONTINUOUS
 10
76.3909232926
 20
225.1635841562
 11
76.277706967
 21
225.0412738124
  0
LINE
  8
0
 62
7
  6
CONTINUOUS
 10
76.4026196913
 20
224.9256485985
 11
76.5158360169
 21
225.0479589423
  0
LINE
  8
0
 62
7
  6
CONTINUOUS
 10
76.7656615355
 20
224.8167084497
 11
76.6524452099
 21
224.6943981059
  0
LINE
  8
0
 62
7
  6
CONTINUOUS
 10
77.4518867155
 20
223.954396672
 11
77.5651030411
 21
224.0767070158
  0
LINE
  8
0
 62
7
  6
CONTINUOUS
 10
78.9996254951
 20
227.6683812447
 11
78.7759318743
 21
227.4684783582
  0
LINE
  8
0
 62
7
  6
CONTINUOUS
 10
78.0302864717
 20
226.8021354032
 11
77.806592851
 21
226.6022325167
  0
LINE
  8
0
 62
7
  6
CONTINUOUS
 10
78.8727415789
 20
225.4091998726
 11
79.0218706594
 21
225.5424684636
  0
LINE
  8
0
 62
7
  6
CONTINUOUS
 10
79.3698383243
 20
225.8534283398
 11
79.5686771931
 21
226.0311198792
  0
LINE
  8
0
 62
7
  6
CONTINUOUS
 10
79.9166451425
 20
226.3420800095
 11
80.065774223
 21
226.4753486005
  0
LINE
  8
0
 62
7
  6
CONTINUOUS
 10
80.1654903895
 20
227.5145511279
 11
79.8037009735
 21
227.219786885
  0
LINE
  8
0
 62
7
  6
CONTINUOUS
 10
79.9112138432
 20
227.0878271265
 11
80.2730032592
 21
227.3825913694
  0
LINE
  8
0
 62
7
  6
CONTINUOUS
 10
75.9560925323
 20
222.2503386198
 11
76.0659948751
 21
222.3331525441
  0
LINE
  8
0
 62
7
  6
CONTINUOUS
 10
80.5215775539
 20
228.8651500285
 11
80.308380825
 21
228.7049684743
  0
LINE
  8
0
 62
7
  6
CONTINUOUS
 10
80.4310731816
 20
228.541668716
 11
80.6442699105
 21
228.7018502701
  0
LINE
  8
0
 62
7
  6
CONTINUOUS
 10
81.3599754243
 20
227.7492682129
 11
81.1467786955
 21
227.5890866588
  0
LINE
  8
0
 62
7
  6
CONTINUOUS
 10
81.2694710664
 20
227.4257868813
 11
81.4826677953
 21
227.5859684355
  0
LINE
  8
0
 62
7
  6
CONTINUOUS
 10
76.2447928496
 20
224.0360859763
 11
76.3582017398
 21
224.1140289908
  0
LINE
  8
0
 62
7
  6
CONTINUOUS
 10
82.5761352741
 20
230.2808669856
 11
82.4093559075
 21
230.1704829157
  0
LINE
  8
0
 62
7
  6
CONTINUOUS
 10
82.0202042642
 20
229.9129202264
 11
81.7978319875
 21
229.7657416069
  0
LINE
  8
0
 62
7
  6
CONTINUOUS
 10
81.408679708
 20
229.5081784965
 11
81.2419003414
 21
229.3977944266
  0
LINE
  8
0
 62
7
  6
CONTINUOUS
 10
82.3473458134
 20
228.2107385345
 11
82.5697180901
 21
228.357917154
  0
LINE
  8
0
 62
7
  6
CONTINUOUS
 10
83.0144632797
 20
228.652274814
 11
83.2368355564
 21
228.7994534335
  0
LINE
  8
0
 62
7
  6
CONTINUOUS
 10
92.0726934273
 20
233.5148774414
 11
91.9835065987
 21
233.4582682128
  0
LINE
  8
0
 62
7
  6
CONTINUOUS
 10
83.0567863241
 20
230.5660069661
 11
82.8839498572
 21
230.4653712085
  0
LINE
  8
0
 62
7
  6
CONTINUOUS
 10
84.6232777755
 20
229.8630078564
 11
83.7590954408
 21
229.3598290687
  0
LINE
  8
0
 62
7
  6
CONTINUOUS
 10
83.6890359175
 20
229.082679473
 11
84.7260547191
 21
229.6864940182
  0
LINE
  8
0
 62
7
  6
CONTINUOUS
 10
76.3215495699
 20
224.2789500049
 11
76.230087207
 21
224.2260961372
  0
LINE
  8
0
 62
7
  6
CONTINUOUS
 10
94.6378102642
 20
234.4364520284
 11
94.7324940733
 21
234.4832908097
  0
LINE
  8
0
 62
7
  6
CONTINUOUS
 10
94.7135600029
 20
233.8627074979
 11
94.808243812
 21
233.9095462793
  0
LINE
  8
0
 62
7
  6
CONTINUOUS
 10
95.2233718732
 20
233.3119329224
 11
95.1286880641
 21
233.265094141
  0
LINE
  8
0
 62
7
  6
CONTINUOUS
 10
80.6752747692
 20
228.9380472744
 11
80.5215775539
 21
228.8651500285
  0
LINE
  8
0
 62
7
  6
CONTINUOUS
 10
81.1157744593
 20
227.3528900961
 11
81.2694710664
 21
227.4257868813
  0
LINE
  8
0
 62
7
  6
CONTINUOUS
 10
91.9991520983
 20
233.2519029475
 11
92.153135593
 21
233.3241935128
  0
LINE
  8
0
 62
7
  6
CONTINUOUS
 10
86.9524297354
 20
232.5450267399
 11
85.7346393106
 21
232.0021060249
  0
LINE
  8
0
 62
7
  6
CONTINUOUS
 10
85.8039483562
 20
231.8466433767
 11
86.8695158489
 21
232.3216993907
  0
LINE
  8
0
 62
7
  6
CONTINUOUS
 10
87.5207639774
 20
231.2702328723
 11
86.4856421861
 21
230.8087502957
  0
LINE
  8
0
 62
7
  6
CONTINUOUS
 10
86.3861444171
 20
230.5407569577
 11
87.6039348419
 21
231.0836776727
  0
LINE
  8
0
 62
7
  6
CONTINUOUS
 10
80.6442699105
 20
228.7018502701
 11
80.771317306
 21
228.7547246499
  0
LINE
  8
0
 62
7
  6
CONTINUOUS
 10
81.1467786955
 20
227.5890866588
 11
81.0197313
 21
227.5362122789
  0
LINE
  8
0
 62
7
  6
CONTINUOUS
 10
87.6306183306
 20
232.8132918825
 11
87.4449113388
 21
232.7390428879
  0
LINE
  8
0
 62
7
  6
CONTINUOUS
 10
88.0389032956
 20
231.2533869536
 11
88.2246102874
 21
231.3276359482
  0
LINE
  8
0
 62
7
  6
CONTINUOUS
 10
89.062281244
 20
233.3397095134
 11
87.9324311127
 21
232.9354340121
  0
LINE
  8
0
 62
7
  6
CONTINUOUS
 10
87.9897751486
 20
232.7751716012
 11
88.9313169247
 21
233.1120678524
  0
LINE
  8
0
 62
7
  6
CONTINUOUS
 10
88.7853118943
 20
231.5412657495
 11
88.9736202495
 21
231.6086449997
  0
LINE
  8
0
 62
7
  6
CONTINUOUS
 10
94.743262309
 20
234.6564023426
 11
94.5824848787
 21
234.6008374222
  0
LINE
  8
0
 62
7
  6
CONTINUOUS
 10
94.8190120477
 20
234.0826578122
 11
94.6582346174
 21
234.0270928918
  0
LINE
  8
0
 62
7
  6
CONTINUOUS
 10
95.1179198315
 20
233.0919825845
 11
95.2786972614
 21
233.1475475079
  0
LINE
  8
0
 62
7
  6
CONTINUOUS
 10
76.1091117088
 20
222.7683206096
 11
76.0997685514
 21
222.6477043337
  0
LINE
  8
0
 62
7
  6
CONTINUOUS
 10
76.0801381464
 20
224.0029698203
 11
76.065544566
 21
223.8828757366
  0
LINE
  8
0
 62
7
  6
CONTINUOUS
 10
76.1680361922
 20
223.7932220195
 11
76.1826297726
 21
223.9133161032
  0
LINE
  8
0
 62
7
  6
CONTINUOUS
 10
76.2060719883
 20
222.5626049364
 11
76.2211593958
 21
222.6359241984
  0
LINE
  8
0
 62
7
  6
CONTINUOUS
 10
80.305871841
 20
228.3198596905
 11
80.3449232383
 21
228.4343610834
  0
LINE
  8
0
 62
7
  6
CONTINUOUS
 10
81.4851767507
 20
227.9710772574
 11
81.4461253676
 21
227.8565758455
  0
LINE
  8
0
 62
7
  6
CONTINUOUS
 10
81.5954675566
 20
227.7132989366
 11
81.6611681585
 21
227.8478227445
  0
LINE
  8
0
 62
7
  6
CONTINUOUS
 10
94.5475823213
 20
234.3558635743
 11
94.6378102642
 21
234.4364520284
  0
LINE
  8
0
 62
7
  6
CONTINUOUS
 10
94.6582346174
 20
234.0270928918
 11
94.4777787317
 21
233.8659159836
  0
LINE
  8
0
 62
7
  6
CONTINUOUS
 10
94.62333206
 20
233.7821190438
 11
94.7135600029
 21
233.8627074979
  0
LINE
  8
0
 62
7
  6
CONTINUOUS
 10
95.3135998161
 20
233.3925213765
 11
95.2233718732
 21
233.3119329224
  0
LINE
  8
0
 62
7
  6
CONTINUOUS
 10
94.5824848787
 20
234.6008374222
 11
94.4306191809
 21
234.4777731565
  0
LINE
  8
0
 62
7
  6
CONTINUOUS
 10
95.2786972614
 20
233.1475475079
 11
95.430562958
 21
233.2706117825
  0
LINE
  8
0
 62
7
  6
CONTINUOUS
 10
75.9596914452
 20
222.4182519358
 11
75.8232132402
 21
222.3567128631
  0
LINE
  8
0
 62
7
  6
CONTINUOUS
 10
76.3582017398
 20
224.1140289908
 11
76.4277175754
 21
224.1417937117
  0
LINE
  8
0
 62
7
  6
CONTINUOUS
 10
76.065544566
 20
223.8828757366
 11
76.0728973873
 21
223.7878706561
  0
LINE
  8
0
 62
7
  6
CONTINUOUS
 10
76.1753890135
 20
223.6982169391
 11
76.1680361922
 21
223.7932220195
  0
LINE
  8
0
 62
7
  6
CONTINUOUS
 10
80.1298804546
 20
228.4431141749
 11
80.1050766897
 21
228.2541566631
  0
LINE
  8
0
 62
7
  6
CONTINUOUS
 10
86.4856421861
 20
230.8087502957
 11
87.0494623992
 21
232.3273790325
  0
LINE
  8
0
 62
7
  6
CONTINUOUS
 10
86.8695158489
 20
232.3216993907
 11
86.2752499344
 21
230.7894972166
  0
LINE
  8
0
 62
7
  6
CONTINUOUS
 10
92.1214737522
 20
233.596733225
 11
92.0726934273
 21
233.5148774414
  0
LINE
  8
0
 62
7
  6
CONTINUOUS
 10
94.5661516841
 20
233.7058937591
 11
94.62333206
 21
233.7821190438
  0
LINE
  8
0
 62
7
  6
CONTINUOUS
 10
92.153135593
 20
233.3241935128
 11
92.2587051551
 21
233.454818036
  0
LINE
  8
0
 62
7
  6
CONTINUOUS
 10
75.8404459398
 20
222.2148217244
 11
75.9560925323
 21
222.2503386198
  0
LINE
  8
0
 62
7
  6
CONTINUOUS
 10
80.3139190469
 20
228.1981644611
 11
80.305871841
 21
228.3198596905
  0
LINE
  8
0
 62
7
  6
CONTINUOUS
 10
81.6611681585
 20
227.8478227445
 11
81.6859719163
 21
228.0367802658
  0
LINE
  8
0
 62
7
  6
CONTINUOUS
 10
87.4449113388
 20
232.7390428879
 11
87.3476712236
 21
232.4435260146
  0
LINE
  8
0
 62
7
  6
CONTINUOUS
 10
87.4487762609
 20
232.1906483503
 11
87.5460163407
 21
232.4861653122
  0
LINE
  8
0
 62
7
  6
CONTINUOUS
 10
92.2587051551
 20
233.454818036
 11
92.3238696966
 21
233.6106894733
  0
LINE
  8
0
 62
7
  6
CONTINUOUS
 10
94.4306191809
 20
234.4777731565
 11
94.3493029705
 21
234.329685357
  0
LINE
  8
0
 62
7
  6
CONTINUOUS
 10
95.430562958
 20
233.2706117825
 11
95.5118791668
 21
233.4186995938
  0
LINE
  8
0
 62
7
  6
CONTINUOUS
 10
76.2211593958
 20
222.6359241984
 11
76.2039266544
 21
222.7778152943
  0
LINE
  8
0
 62
7
  6
CONTINUOUS
 10
81.4771296021
 20
228.0927724106
 11
81.4851767507
 21
227.9710772574
  0
LINE
  8
0
 62
7
  6
CONTINUOUS
 10
94.4948578116
 20
234.2458886169
 11
94.5475823213
 21
234.3558635743
  0
LINE
  8
0
 62
7
  6
CONTINUOUS
 10
95.3663243226
 20
233.5024963575
 11
95.3135998161
 21
233.3925213765
  0
LINE
  8
0
 62
7
  6
CONTINUOUS
 10
76.07104736
 20
222.8841895395
 11
76.1091117088
 21
222.7683206096
  0
LINE
  8
0
 62
7
  6
CONTINUOUS
 10
80.1050766897
 20
228.2541566631
 11
80.1335725643
 21
228.1052448835
  0
LINE
  8
0
 62
7
  6
CONTINUOUS
 10
88.9313169247
 20
233.1120678524
 11
88.7853118943
 21
231.5412657495
  0
LINE
  8
0
 62
7
  6
CONTINUOUS
 10
88.9736202495
 20
231.6086449997
 11
89.1196252799
 21
233.1794471026
  0
LINE
  8
0
 62
7
  6
CONTINUOUS
 10
94.3493029705
 20
234.329685357
 11
94.3054902058
 21
234.1522109596
  0
LINE
  8
0
 62
7
  6
CONTINUOUS
 10
95.5118791668
 20
233.4186995938
 11
95.5556919409
 21
233.5961739202
  0
LINE
  8
0
 62
7
  6
CONTINUOUS
 10
94.9561540076
 20
218.3855406827
 11
84.7230483757
 21
208.1524350508
  0
LINE
  8
0
 62
7
  6
CONTINUOUS
 10
84.7230483757
 20
200.4250284405
 11
94.9561540076
 21
190.1919228087
  0
LINE
  8
0
 62
7
  6
CONTINUOUS
 10
79.5686771931
 20
226.0311198792
 11
79.0773365424
 21
227.2812759511
  0
LINE
  8
0
 62
7
  6
CONTINUOUS
 10
81.6859719163
 20
228.0367802658
 11
81.6574760273
 21
228.1856920644
  0
LINE
  8
0
 62
7
  6
CONTINUOUS
 10
92.1298505397
 20
233.7038362815
 11
92.1214737522
 21
233.596733225
  0
LINE
  8
0
 62
7
  6
CONTINUOUS
 10
92.3238696966
 20
233.6106894733
 11
92.332246484
 21
233.7177925299
  0
LINE
  8
0
 62
7
  6
CONTINUOUS
 10
93.1100169922
 20
233.3187345626
 11
93.2367165627
 21
234.2772657553
  0
LINE
  8
0
 62
7
  6
CONTINUOUS
 10
93.0458586715
 20
232.7527496972
 11
93.1021705947
 21
233.1787637311
  0
LINE
  8
0
 62
7
  6
CONTINUOUS
 10
93.0807127641
 20
234.3867316376
 11
92.8492372361
 21
232.7161435347
  0
LINE
  8
0
 62
7
  6
CONTINUOUS
 10
94.4751778559
 20
234.1402763349
 11
94.4948578116
 21
234.2458886169
  0
LINE
  8
0
 62
7
  6
CONTINUOUS
 10
94.5464717221
 20
233.6002815244
 11
94.5661516841
 21
233.7058937591
  0
LINE
  8
0
 62
7
  6
CONTINUOUS
 10
95.3860042909
 20
233.608108545
 11
95.3663243226
 21
233.5024963575
  0
LINE
  8
0
 62
7
  6
CONTINUOUS
 10
80.1335725643
 20
228.1052448835
 11
80.2091664323
 21
227.9491388092
  0
LINE
  8
0
 62
7
  6
CONTINUOUS
 10
80.3690641314
 20
228.0692750894
 11
80.3139190469
 21
228.1981644611
  0
LINE
  8
0
 62
7
  6
CONTINUOUS
 10
81.4219845175
 20
228.2216617823
 11
81.4771296021
 21
228.0927724106
  0
LINE
  8
0
 62
7
  6
CONTINUOUS
 10
78.7759318743
 20
227.4684783582
 11
79.3558378211
 21
226.0691926056
  0
LINE
  8
0
 62
7
  6
CONTINUOUS
 10
81.7978319875
 20
229.7657416069
 11
82.2518550756
 21
228.5965953864
  0
LINE
  8
0
 62
7
  6
CONTINUOUS
 10
94.3054902058
 20
234.1522109596
 11
94.3036337026
 21
233.9116000813
  0
LINE
  8
0
 62
7
  6
CONTINUOUS
 10
94.4688669992
 20
233.933415329
 11
94.4751778559
 21
234.1402763349
  0
LINE
  8
0
 62
9
  6
CONTINUOUS
 10
91.0366842497
 20
171.4058657956
 11
90.9716626587
 21
170.5520561819
  0
LINE
  8
0
 62
7
  6
CONTINUOUS
 10
90.5475304198
 20
171.4136332319
 11
90.4900500163
 21
170.6863754555
  0
LINE
  8
0
 62
7
  6
CONTINUOUS
 10
96.8062975806
 20
238.8495421392
 11
96.7291657573
 21
238.1241041592
  0
LINE
  8
0
 62
9
  6
CONTINUOUS
 10
97.3043909543
 20
238.893078281
 11
97.2114128802
 21
238.0418591752
  0
LINE
  8
0
 62
9
  6
CONTINUOUS
 10
79.6836007783
 20
176.4379797686
 11
79.3145408546
 21
175.6653135834
  0
LINE
  8
0
 62
7
  6
CONTINUOUS
 10
79.2302864635
 20
176.6219234109
 11
78.9139721585
 21
175.9645411293
  0
LINE
  8
0
 62
7
  6
CONTINUOUS
 10
109.4270735116
 20
237.2431093359
 11
109.0930908353
 21
236.5945203203
  0
LINE
  8
0
 62
9
  6
CONTINUOUS
 10
109.9072588187
 20
237.1037734989
 11
109.5130553423
 21
236.3436280915
  0
LINE
  8
0
 62
9
  6
CONTINUOUS
 10
70.9149749071
 20
185.2314945428
 11
70.2917201209
 21
184.6443222156
  0
LINE
  8
0
 62
7
  6
CONTINUOUS
 10
70.558723485
 20
185.5667715717
 11
70.026294393
 21
185.0680456956
  0
LINE
  8
0
 62
7
  6
CONTINUOUS
 10
120.6152861183
 20
231.1860052326
 11
120.0695597349
 21
230.7018628481
  0
LINE
  8
0
 62
9
  6
CONTINUOUS
 10
121.0127116722
 20
230.8826154937
 11
120.3705379737
 21
230.3161951333
  0
LINE
  8
0
 62
9
  6
CONTINUOUS
 10
65.9150555732
 20
196.5988052214
 11
65.1217823948
 21
196.2764172082
  0
LINE
  8
0
 62
7
  6
CONTINUOUS
 10
65.7039843996
 20
197.0401237486
 11
65.0273468505
 21
196.7674104185
  0
LINE
  8
0
 62
7
  6
CONTINUOUS
 10
128.8599052922
 20
221.4962753019
 11
128.1761397779
 21
221.2419654862
  0
LINE
  8
0
 62
9
  6
CONTINUOUS
 10
129.1208965697
 20
221.0698061264
 11
128.3174731404
 21
220.7736137334
  0
LINE
  8
0
 62
9
  6
CONTINUOUS
 10
132.5774083879
 20
205.801496334
 11
133.416417401
 21
205.9726163847
  0
LINE
  8
0
 62
7
  6
CONTINUOUS
 10
133.4190252351
 20
205.4726307812
 11
132.7037998275
 21
205.328893379
  0
LINE
  8
0
 62
7
  6
CONTINUOUS
 10
66.8482746954
 20
193.0183618968
 11
66.1294204044
 21
192.8940236497
  0
LINE
  8
0
 62
9
  6
CONTINUOUS
 10
65.9512365048
 20
193.3611883984
 11
66.7954056212
 21
193.5047063609
  0
LINE
  8
0
 62
9
  6
CONTINUOUS
 10
130.8443086457
 20
193.5046958578
 11
131.6884781207
 21
193.3611883984
  0
LINE
  8
0
 62
7
  6
CONTINUOUS
 10
131.510294221
 20
192.8940236497
 11
130.7914407906
 21
193.0183618405
  0
LINE
  8
0
 62
7
  6
CONTINUOUS
 10
64.9359177278
 20
205.328892459
 11
64.2206893903
 21
205.4726307812
  0
LINE
  8
0
 62
9
  6
CONTINUOUS
 10
64.2232972244
 20
205.9726163847
 11
65.062303374
 21
205.8014846592
  0
LINE
  8
0
 62
9
  6
CONTINUOUS
 10
124.7861305506
 20
182.6643613041
 11
125.5214494689
 21
182.2255856928
  0
LINE
  8
0
 62
7
  6
CONTINUOUS
 10
125.1865385585
 20
181.8543349869
 11
124.5611450515
 21
182.2299561416
  0
LINE
  8
0
 62
7
  6
CONTINUOUS
 10
66.9847677248
 20
217.8913457877
 11
67.5997733998
 21
217.4989440098
  0
LINE
  8
0
 62
9
  6
CONTINUOUS
 10
67.1678150901
 20
218.3566264197
 11
67.8883519248
 21
217.8939756213
  0
LINE
  8
0
 62
9
  6
CONTINUOUS
 10
115.2210622891
 20
174.7445070051
 11
115.7482228377
 21
174.0697331178
  0
LINE
  8
0
 62
7
  6
CONTINUOUS
 10
114.8543443169
 20
174.4207105199
 11
115.3018164909
 21
173.8445359196
  0
LINE
  8
0
 62
7
  6
CONTINUOUS
 10
74.0483513124
 20
228.4729523931
 11
74.4800743253
 21
227.8848843793
  0
LINE
  8
0
 62
9
  6
CONTINUOUS
 10
74.387116648
 20
228.8406893261
 11
74.891869343
 21
228.1489929648
  0
LINE
  8
0
 62
7
  6
CONTINUOUS
 10
81.6574760273
 20
228.1856920644
 11
81.5818822166
 21
228.3417980625
  0
LINE
  8
0
 62
7
  6
CONTINUOUS
 10
82.4093559075
 20
230.1704829157
 11
82.9189725419
 21
229.0381316659
  0
LINE
  8
0
 62
7
  6
CONTINUOUS
 10
83.2368355564
 20
228.7994534335
 11
82.5761352741
 21
230.2808669856
  0
LINE
  8
0
 62
7
  6
CONTINUOUS
 10
82.5697180901
 20
228.357917154
 11
82.0781167883
 21
229.583838941
  0
LINE
  8
0
 62
9
  6
CONTINUOUS
 10
103.4409223181
 20
170.8147646031
 11
103.6887266392
 21
169.9951237567
  0
LINE
  8
0
 62
7
  6
CONTINUOUS
 10
102.9819981402
 20
170.6453048448
 11
103.1911145066
 21
169.9463941958
  0
LINE
  8
0
 62
7
  6
CONTINUOUS
 10
84.457464049
 20
235.7883459907
 11
84.6475994642
 21
235.0840302703
  0
LINE
  8
0
 62
9
  6
CONTINUOUS
 10
84.9061952192
 20
236.0088743142
 11
85.1269967926
 21
235.1815494263
  0
LINE
  8
0
 62
9
  6
CONTINUOUS
 10
97.2854439056
 20
241.0467196598
 11
97.3044800631
 21
240.5906946778
  0
LINE
  8
0
 62
9
  6
CONTINUOUS
 10
99.6892257037
 20
173.2609087702
 11
99.7032297048
 21
172.7611049207
  0
LINE
  8
0
 62
7
  6
CONTINUOUS
 10
96.8062975806
 20
240.5471547249
 11
96.8062975806
 21
238.8495421392
  0
LINE
  8
0
 62
2
  6
CONTINUOUS
 10
98.8198573127
 20
205.1687317457
 11
98.8198573127
 21
203.4087317457
  0
LINE
  8
DEFAULT_1
 62
2
  6
CENTER
 10
98.8198573127
 20
199.8887317457
 11
98.8198573127
 21
165.4987317457
  0
LINE
  8
DEFAULT_1
 62
2
  6
CENTER
 10
98.8198573127
 20
208.6887317457
 11
98.8198573127
 21
243.0787317457
  0
LINE
  8
0
 62
9
  6
CONTINUOUS
 10
97.3044849412
 20
240.5906948815
 11
97.3043909543
 21
238.893078281
  0
LINE
  8
0
 62
9
  6
CONTINUOUS
 10
97.9504889218
 20
173.2609087702
 11
97.9364849206
 21
172.7611049207
  0
LINE
  8
0
 62
9
  6
CONTINUOUS
 10
100.3352345623
 20
240.5906946778
 11
100.3542707198
 21
241.0467196598
  0
LINE
  8
0
 62
9
  6
CONTINUOUS
 10
93.5738818606
 20
167.8746707039
 11
93.6389642004
 21
168.3264288787
  0
LINE
  8
0
 62
9
  6
CONTINUOUS
 10
103.6666390813
 20
234.947993095
 11
103.7447122413
 21
235.4418600626
  0
LINE
  8
0
 62
7
  6
CONTINUOUS
 10
90.4900500163
 20
170.6863754555
 11
90.1781145223
 21
169.01766795
  0
LINE
  8
0
 62
9
  6
CONTINUOUS
 10
90.9716626587
 20
170.5520561819
 11
90.6598189992
 21
168.8833274173
  0
LINE
  8
0
 62
9
  6
CONTINUOUS
 10
105.3757705654
 20
234.6285010497
 11
105.4813748382
 21
235.1172215604
  0
LINE
  8
0
 62
9
  6
CONTINUOUS
 10
90.6598140559
 20
168.8833285566
 11
90.5573076546
 21
168.4385661513
  0
LINE
  8
0
 62
9
  6
CONTINUOUS
 10
110.667576222
 20
239.1188287402
 11
110.5205916859
 21
238.6867214553
  0
LINE
  8
0
 62
9
  6
CONTINUOUS
 10
88.4219767246
 20
175.042096396
 11
88.2544850914
 21
174.5709843576
  0
LINE
  8
0
 62
7
  6
CONTINUOUS
 10
110.0403219106
 20
238.8260859284
 11
109.4270735116
 21
237.2431093359
  0
LINE
  8
0
 62
9
  6
CONTINUOUS
 10
110.5205963081
 20
238.686719883
 11
109.9072588187
 21
237.1037734989
  0
LINE
  8
0
 62
9
  6
CONTINUOUS
 10
86.8006529612
 20
175.6702005682
 11
86.6070446437
 21
175.2092061871
  0
LINE
  8
0
 62
9
  6
CONTINUOUS
 10
113.3466860905
 20
237.5918866502
 11
113.5291720031
 21
238.0102406286
  0
LINE
  8
0
 62
9
  6
CONTINUOUS
 10
80.7738548041
 20
172.2286959775
 11
80.9977361544
 21
172.6264374771
  0
LINE
  8
0
 62
9
  6
CONTINUOUS
 10
114.4147493678
 20
231.1267820063
 11
114.6659557476
 21
231.5590959602
  0
LINE
  8
0
 62
9
  6
CONTINUOUS
 10
79.3145408546
 20
175.6653135834
 11
78.4209409429
 21
174.2219212752
  0
LINE
  8
0
 62
7
  6
CONTINUOUS
 10
78.9139721585
 20
175.9645411293
 11
78.0202942932
 21
174.5212018191
  0
LINE
  8
0
 62
9
  6
CONTINUOUS
 10
115.8930531744
 20
230.2114550415
 11
116.1680724376
 21
230.6290246822
  0
LINE
  8
0
 62
9
  6
CONTINUOUS
 10
78.4209367449
 20
174.2219241232
 11
78.1646856601
 21
173.8442251148
  0
LINE
  8
0
 62
9
  6
CONTINUOUS
 10
122.4496084492
 20
232.4869402212
 11
122.1564542955
 21
232.1371091167
  0
LINE
  8
0
 62
9
  6
CONTINUOUS
 10
78.5590191355
 20
180.7732041871
 11
78.2326525412
 21
180.3944102509
  0
LINE
  8
0
 62
7
  6
CONTINUOUS
 10
121.7589603219
 20
232.4405560714
 11
120.6152861183
 21
231.1860052326
  0
LINE
  8
0
 62
9
  6
CONTINUOUS
 10
122.1564580376
 20
232.1371059808
 11
121.0127116722
 21
230.8826154937
  0
LINE
  8
0
 62
9
  6
CONTINUOUS
 10
77.274077149
 20
181.9445835825
 11
76.9270123912
 21
181.5846585155
  0
LINE
  8
0
 62
9
  6
CONTINUOUS
 10
124.3962088963
 20
230.0953030136
 11
124.7174988302
 21
230.4194849654
  0
LINE
  8
0
 62
9
  6
CONTINUOUS
 10
70.4110403827
 20
180.9126067324
 11
70.7634843266
 21
181.2026143632
  0
LINE
  8
0
 62
9
  6
CONTINUOUS
 10
123.056683068
 20
223.680943515
 11
123.4470958541
 21
223.9933180602
  0
LINE
  8
0
 62
7
  6
CONTINUOUS
 10
70.026294393
 20
185.0680456956
 11
68.6715703043
 21
184.0450055523
  0
LINE
  8
0
 62
9
  6
CONTINUOUS
 10
70.2917201209
 20
184.6443222156
 11
68.9370495766
 21
183.621204493
  0
LINE
  8
0
 62
9
  6
CONTINUOUS
 10
124.1045060764
 20
222.2934016093
 11
124.5117974546
 21
222.5834252863
  0
LINE
  8
0
 62
9
  6
CONTINUOUS
 10
68.937046691
 20
183.6212086652
 11
68.5616590514
 21
183.3615833976
  0
LINE
  8
0
 62
9
  6
CONTINUOUS
 10
131.0403118484
 20
222.046727396
 11
130.6405801701
 21
221.8264191009
  0
LINE
  8
0
 62
9
  6
CONTINUOUS
 10
71.4324000115
 20
189.680214279
 11
70.991236073
 21
189.4448966652
  0
LINE
  8
0
 62
7
  6
CONTINUOUS
 10
130.3795457619
 20
222.2529663446
 11
128.8599052922
 21
221.4962753019
  0
LINE
  8
0
 62
9
  6
CONTINUOUS
 10
130.6405825267
 20
221.826414825
 11
129.1208965697
 21
221.0698061264
  0
LINE
  8
0
 62
9
  6
CONTINUOUS
 10
70.6573783372
 20
191.2366676195
 11
70.2037301578
 21
191.0264217412
  0
LINE
  8
0
 62
9
  6
CONTINUOUS
 10
131.9915036973
 20
219.1133989281
 11
132.4082056667
 21
219.2996262844
  0
LINE
  8
0
 62
9
  6
CONTINUOUS
 10
63.8849941065
 20
192.7535927019
 11
64.3184011363
 21
192.8966993264
  0
LINE
  8
0
 62
9
  6
CONTINUOUS
 10
128.4252991491
 20
213.6160793684
 11
128.9021909312
 21
213.7663265917
  0
LINE
  8
0
 62
7
  6
CONTINUOUS
 10
65.0273468505
 20
196.7674104185
 11
63.3945395334
 21
196.3028366823
  0
LINE
  8
0
 62
9
  6
CONTINUOUS
 10
64.3183996055
 20
192.8967039626
 11
65.9512365048
 21
193.3611883984
  0
LINE
  8
0
 62
9
  6
CONTINUOUS
 10
65.1217823948
 20
196.2764172082
 11
63.4889969814
 21
195.8117517891
  0
LINE
  8
0
 62
9
  6
CONTINUOUS
 10
128.9011270558
 20
211.9437177448
 11
129.3856835916
 21
212.0670261533
  0
LINE
  8
0
 62
9
  6
CONTINUOUS
 10
63.4889957979
 20
195.8117567219
 11
63.0451697845
 21
195.7052690262
  0
LINE
  8
0
 62
9
  6
CONTINUOUS
 10
135.2794643229
 20
209.2081988577
 11
134.8271410981
 21
209.1471672281
  0
LINE
  8
0
 62
9
  6
CONTINUOUS
 10
68.0046087552
 20
200.5601856033
 11
67.508229107
 21
200.5001252596
  0
LINE
  8
0
 62
7
  6
CONTINUOUS
 10
135.1093961048
 20
205.6292667095
 11
133.4190252351
 21
205.4726307812
  0
LINE
  8
0
 62
9
  6
CONTINUOUS
 10
133.416417401
 20
205.9726163847
 11
135.1067835867
 21
206.1293464597
  0
LINE
  8
0
 62
9
  6
CONTINUOUS
 10
67.8441783648
 20
202.2915052407
 11
67.3452144642
 21
202.259333422
  0
LINE
  8
0
 62
9
  6
CONTINUOUS
 10
135.1067838436
 20
206.1293413933
 11
135.5626199385
 21
206.1524631177
  0
LINE
  8
0
 62
2
  6
CONTINUOUS
 10
99.6998573127
 20
204.2887317457
 11
97.9398573127
 21
204.2887317457
  0
LINE
  8
DEFAULT_1
 62
2
  6
CENTER
 10
94.4198573127
 20
204.2887317457
 11
60.0298573127
 21
204.2887317457
  0
LINE
  8
DEFAULT_1
 62
2
  6
CENTER
 10
103.2198573127
 20
204.2887317457
 11
137.6098573127
 21
204.2887317457
  0
LINE
  8
0
 62
9
  6
CONTINUOUS
 10
62.077094687
 20
206.1524631177
 11
62.5329307818
 21
206.1293413933
  0
LINE
  8
0
 62
9
  6
CONTINUOUS
 10
129.7955362607
 20
202.2915052407
 11
130.2945001613
 21
202.2593334219
  0
LINE
  8
0
 62
7
  6
CONTINUOUS
 10
64.2206893903
 20
205.4726307812
 11
62.5303185206
 21
205.6292667095
  0
LINE
  8
0
 62
9
  6
CONTINUOUS
 10
62.5329310291
 20
206.1293462694
 11
64.2232972244
 21
205.9726163847
  0
LINE
  8
0
 62
9
  6
CONTINUOUS
 10
129.6351058703
 20
200.5601856033
 11
130.1314855184
 21
200.5001252595
  0
LINE
  8
0
 62
9
  6
CONTINUOUS
 10
62.8125735274
 20
209.1471672281
 11
62.3602503026
 21
209.2081988577
  0
LINE
  8
0
 62
9
  6
CONTINUOUS
 10
134.594544841
 20
195.7052690262
 11
134.1507188276
 21
195.8117567219
  0
LINE
  8
0
 62
9
  6
CONTINUOUS
 10
68.7385875697
 20
211.9437177448
 11
68.2540310339
 21
212.0670261533
  0
LINE
  8
0
 62
7
  6
CONTINUOUS
 10
133.1431015381
 20
192.4294499135
 11
131.510294221
 21
192.8940236497
  0
LINE
  8
0
 62
9
  6
CONTINUOUS
 10
131.6884781207
 20
193.3611883984
 11
133.3213150797
 21
192.8967041435
  0
LINE
  8
0
 62
9
  6
CONTINUOUS
 10
69.2144154764
 20
213.6160793684
 11
68.7375236942
 21
213.7663265917
  0
LINE
  8
0
 62
9
  6
CONTINUOUS
 10
133.3213134891
 20
192.8966993264
 11
133.754720519
 21
192.7535927019
  0
LINE
  8
0
 62
9
  6
CONTINUOUS
 10
65.2315089588
 20
219.2996262844
 11
65.6482109281
 21
219.1133989281
  0
LINE
  8
0
 62
9
  6
CONTINUOUS
 10
126.9823362882
 20
191.2366676195
 11
127.4359844676
 21
191.0264217411
  0
LINE
  8
0
 62
7
  6
CONTINUOUS
 10
66.9847677248
 20
217.8913457877
 11
65.4651272551
 21
218.6480368304
  0
LINE
  8
0
 62
9
  6
CONTINUOUS
 10
65.6482129202
 20
219.1134033856
 11
67.1678150901
 21
218.3566264197
  0
LINE
  8
0
 62
9
  6
CONTINUOUS
 10
126.2073146139
 20
189.680214279
 11
126.6484785524
 21
189.4448966652
  0
LINE
  8
0
 62
9
  6
CONTINUOUS
 10
66.9991344554
 20
221.8264191009
 11
66.5994027771
 21
222.046727396
  0
LINE
  8
0
 62
9
  6
CONTINUOUS
 10
129.078055574
 20
183.3615833976
 11
128.7026679345
 21
183.6212086652
  0
LINE
  8
0
 62
9
  6
CONTINUOUS
 10
73.5352085491
 20
222.2934016093
 11
73.1279171708
 21
222.5834252863
  0
LINE
  8
0
 62
7
  6
CONTINUOUS
 10
126.5412626472
 20
180.8312948436
 11
125.1865385585
 21
181.8543349869
  0
LINE
  8
0
 62
9
  6
CONTINUOUS
 10
125.5214494689
 20
182.2255856928
 11
126.8762335221
 21
181.2026182804
  0
LINE
  8
0
 62
9
  6
CONTINUOUS
 10
74.5830315574
 20
223.680943515
 11
74.1926187714
 21
223.9933180603
  0
LINE
  8
0
 62
7
  6
CONTINUOUS
 10
74.9655879649
 20
222.7016813422
 11
75.4971051052
 21
222.2761843913
  0
LINE
  8
0
 62
7
  6
CONTINUOUS
 10
75.6012632156
 20
222.4062953612
 11
75.0697460753
 21
222.8317923121
  0
LINE
  8
0
 62
7
  6
CONTINUOUS
 10
75.4863785095
 20
223.3522361824
 11
76.07104736
 21
222.8841895395
  0
LINE
  8
0
 62
7
  6
CONTINUOUS
 10
76.281508932
 20
222.9292011382
 11
75.5905366423
 21
223.4823471803
  0
LINE
  8
0
 62
9
  6
CONTINUOUS
 10
126.8762302989
 20
181.2026143632
 11
127.2286742427
 21
180.9126067324
  0
LINE
  8
0
 62
7
  6
CONTINUOUS
 10
75.8350504064
 20
223.7744922836
 11
76.6549834878
 21
223.0572624844
  0
LINE
  8
0
 62
7
  6
CONTINUOUS
 10
76.7647159359
 20
223.1827080032
 11
76.1753890135
 21
223.6982169391
  0
LINE
  8
0
 62
7
  6
CONTINUOUS
 10
76.0728973873
 20
223.7878706561
 11
75.9447828545
 21
223.8999378025
  0
LINE
  8
0
 62
7
  6
CONTINUOUS
 10
76.6729173775
 20
224.0601670038
 11
77.1597526738
 21
223.634311785
  0
LINE
  8
0
 62
7
  6
CONTINUOUS
 10
77.2694850591
 20
223.7597572321
 11
76.7826497629
 21
224.1856124509
  0
LINE
  8
0
 62
7
  6
CONTINUOUS
 10
76.277706967
 20
225.0412738124
 11
76.4026196913
 21
224.9256485985
  0
LINE
  8
0
 62
7
  6
CONTINUOUS
 10
76.6524452099
 20
224.6943981059
 11
77.4518867155
 21
223.954396672
  0
LINE
  8
0
 62
7
  6
CONTINUOUS
 10
77.5651030411
 20
224.0767070158
 11
76.7656615355
 21
224.8167084497
  0
LINE
  8
0
 62
7
  6
CONTINUOUS
 10
76.5158360169
 20
225.0479589423
 11
76.3909232926
 21
225.1635841562
  0
LINE
  8
0
 62
9
  6
CONTINUOUS
 10
72.9222157952
 20
230.4194849654
 11
73.2435057291
 21
230.0953030136
  0
LINE
  8
0
 62
9
  6
CONTINUOUS
 10
120.3656374764
 20
181.9445835825
 11
120.7127022342
 21
181.5846585155
  0
LINE
  8
0
 62
7
  6
CONTINUOUS
 10
72.9046771088
 20
229.7275032319
 11
74.0483513124
 21
228.4729523931
  0
LINE
  8
0
 62
9
  6
CONTINUOUS
 10
73.2435091969
 20
230.0953064504
 11
74.387116648
 21
228.8406893261
  0
LINE
  8
0
 62
7
  6
CONTINUOUS
 10
77.806592851
 20
226.6022325167
 11
78.8727415789
 21
225.4091998726
  0
LINE
  8
0
 62
7
  6
CONTINUOUS
 10
79.0218706594
 20
225.5424684636
 11
78.1825620593
 21
226.4816644052
  0
LINE
  8
0
 62
9
  6
CONTINUOUS
 10
119.0806954899
 20
180.7732041871
 11
119.4070620842
 21
180.3944102509
  0
LINE
  8
0
 62
9
  6
CONTINUOUS
 10
75.4832603299
 20
232.1371091167
 11
75.1901061763
 21
232.4869402212
  0
LINE
  8
0
 62
7
  6
CONTINUOUS
 10
79.8037009735
 20
227.219786885
 11
79.9112138432
 21
227.0878271265
  0
LINE
  8
0
 62
7
  6
CONTINUOUS
 10
80.2730032592
 20
227.3825913694
 11
80.1654903895
 21
227.5145511279
  0
LINE
  8
0
 62
7
  6
CONTINUOUS
 10
80.2091664323
 20
227.9491388092
 11
80.5158973525
 21
227.5408893752
  0
LINE
  8
0
 62
7
  6
CONTINUOUS
 10
80.6757950516
 20
227.6610256554
 11
80.3690641314
 21
228.0692750894
  0
LINE
  8
0
 62
7
  6
CONTINUOUS
 10
81.1152535973
 20
228.6299112163
 11
81.4219845175
 21
228.2216617823
  0
LINE
  8
0
 62
9
  6
CONTINUOUS
 10
119.4750289654
 20
173.8442251148
 11
119.2187778805
 21
174.2219241232
  0
LINE
  8
0
 62
9
  6
CONTINUOUS
 10
81.7466614511
 20
230.2114550415
 11
81.4716421879
 21
230.6290246822
  0
LINE
  8
0
 62
9
  6
CONTINUOUS
 10
115.7482228377
 20
174.0697331178
 11
116.6419828917
 21
172.6264399654
  0
LINE
  8
0
 62
7
  6
CONTINUOUS
 10
115.3018164909
 20
173.8445359196
 11
116.1954943561
 21
172.4011966094
  0
LINE
  8
0
 62
7
  6
CONTINUOUS
 10
82.8839498572
 20
230.4653712085
 11
83.6890359175
 21
229.082679473
  0
LINE
  8
0
 62
7
  6
CONTINUOUS
 10
83.7590954408
 20
229.3598290687
 11
83.0567863241
 21
230.5660069661
  0
LINE
  8
0
 62
9
  6
CONTINUOUS
 10
83.2249652576
 20
231.1267820063
 11
82.9737588778
 21
231.5590959602
  0
LINE
  8
0
 62
9
  6
CONTINUOUS
 10
116.6419784711
 20
172.6264374771
 11
116.8658598214
 21
172.2286959775
  0
LINE
  8
0
 62
7
  6
CONTINUOUS
 10
85.7346393106
 20
232.0021060249
 11
85.8039483562
 21
231.8466433767
  0
LINE
  8
0
 62
7
  6
CONTINUOUS
 10
86.2752499344
 20
230.7894972166
 11
86.3861444171
 21
230.5407569577
  0
LINE
  8
0
 62
9
  6
CONTINUOUS
 10
84.1105426224
 20
238.0102406286
 11
84.2930285349
 21
237.5918866502
  0
LINE
  8
0
 62
9
  6
CONTINUOUS
 10
110.8390616643
 20
175.6702005682
 11
111.0326699817
 21
175.2092061871
  0
LINE
  8
0
 62
7
  6
CONTINUOUS
 10
87.3476712236
 20
232.4435260146
 11
87.4487762609
 21
232.1906483503
  0
LINE
  8
0
 62
7
  6
CONTINUOUS
 10
87.5460163407
 20
232.4861653122
 11
88.0389032956
 21
231.2533869536
  0
LINE
  8
0
 62
7
  6
CONTINUOUS
 10
88.2246102874
 20
231.3276359482
 11
87.6306183306
 21
232.8132918825
  0
LINE
  8
0
 62
7
  6
CONTINUOUS
 10
83.84421565
 20
237.3713225832
 11
84.457464049
 21
235.7883459907
  0
LINE
  8
0
 62
9
  6
CONTINUOUS
 10
84.29303301
 20
237.5918886023
 11
84.9061952192
 21
236.0088743142
  0
LINE
  8
0
 62
7
  6
CONTINUOUS
 10
87.9324311127
 20
232.9354340121
 11
87.9897751486
 21
232.7751716012
  0
LINE
  8
0
 62
9
  6
CONTINUOUS
 10
109.2177379009
 20
175.042096396
 11
109.385229534
 21
174.5709843575
  0
LINE
  8
0
 62
9
  6
CONTINUOUS
 10
87.1191229396
 20
238.6867214553
 11
86.9721384035
 21
239.1188287402
  0
LINE
  8
0
 62
7
  6
CONTINUOUS
 10
91.0134048596
 20
233.924000911
 11
91.3897540695
 21
232.3688927887
  0
LINE
  8
0
 62
7
  6
CONTINUOUS
 10
91.5841425848
 20
232.4159364399
 11
91.4159865524
 21
233.1107719938
  0
LINE
  8
0
 62
7
  6
CONTINUOUS
 10
91.3679419782
 20
233.3092964113
 11
91.2478305201
 21
233.8056075477
  0
LINE
  8
0
 62
7
  6
CONTINUOUS
 10
92.1058282301
 20
233.803098583
 11
92.1298505397
 21
233.7038362815
  0
LINE
  8
0
 62
9
  6
CONTINUOUS
 10
107.0824069708
 20
168.4385661513
 11
106.9799005695
 21
168.8833285566
  0
LINE
  8
0
 62
9
  6
CONTINUOUS
 10
92.26394406
 20
234.6285010497
 11
92.1583397873
 21
235.1172215604
  0
LINE
  8
0
 62
7
  6
CONTINUOUS
 10
103.1911145066
 20
169.9463941958
 11
103.5030500007
 21
168.2776866903
  0
LINE
  8
0
 62
9
  6
CONTINUOUS
 10
103.6887266392
 20
169.9951237567
 11
104.0007554461
 21
168.3264296021
  0
LINE
  8
0
 62
9
  6
CONTINUOUS
 10
93.9730755441
 20
234.947993095
 11
93.8950023842
 21
235.4418600626
  0
LINE
  8
0
 62
9
  6
CONTINUOUS
 10
104.0007504251
 20
168.3264288787
 11
104.0658327649
 21
167.8746707039
  0
LINE
  8
0
 62
7
  6
CONTINUOUS
 10
94.3036337026
 20
233.9116000813
 11
94.3348247664
 21
233.6753523724
  0
LINE
  8
0
 62
7
  6
CONTINUOUS
 10
94.4777787317
 20
233.8659159836
 11
94.4688669992
 21
233.933415329
  0
LINE
  8
0
 62
7
  6
CONTINUOUS
 10
94.5598393209
 20
233.4990325063
 11
94.5464717221
 21
233.6002815244
  0
LINE
  8
0
 62
7
  6
CONTINUOUS
 10
95.3726366921
 20
233.7093575631
 11
95.3860042909
 21
233.608108545
  0
LINE
  8
0
 62
9
  6
CONTINUOUS
 10
100.3353236711
 20
238.893078281
 11
100.3352294939
 21
240.5906948894
  0
LINE
  8
0
 62
7
  6
CONTINUOUS
 10
100.8334170448
 20
240.5471547249
 11
100.8334170448
 21
238.8495421392
  0
LINE
  8
0
 62
9
  6
CONTINUOUS
 10
93.6389593679
 20
168.3264295749
 11
93.9509879863
 21
169.9951237567
  0
LINE
  8
0
 62
7
  6
CONTINUOUS
 10
94.4486001188
 20
169.9463941958
 11
94.1366646248
 21
168.2776866903
  0
LINE
  8
0
 62
9
  6
CONTINUOUS
 10
112.7335194063
 20
236.0088743142
 11
113.3466814408
 21
237.5918886784
  0
LINE
  8
0
 62
7
  6
CONTINUOUS
 10
113.7954989755
 20
237.3713225832
 11
113.1822505765
 21
235.7883459907
  0
LINE
  8
0
 62
9
  6
CONTINUOUS
 10
80.9977318997
 20
172.6264398719
 11
81.8914917877
 21
174.0697331178
  0
LINE
  8
0
 62
7
  6
CONTINUOUS
 10
82.3378981345
 20
173.8445359196
 11
81.4442202693
 21
172.4011966094
  0
LINE
  8
0
 62
9
  6
CONTINUOUS
 10
123.2525979774
 20
228.8406893261
 11
124.3962052932
 21
230.0953065846
  0
LINE
  8
0
 62
7
  6
CONTINUOUS
 10
124.7350375167
 20
229.7275032319
 11
123.5913633131
 21
228.4729523931
  0
LINE
  8
0
 62
7
  6
CONTINUOUS
 10
72.4531760669
 20
181.8543349869
 11
71.0984519783
 21
180.8312948436
  0
LINE
  8
0
 62
9
  6
CONTINUOUS
 10
70.7634812244
 20
181.2026181333
 11
72.1182651566
 21
182.2255856928
  0
LINE
  8
0
 62
9
  6
CONTINUOUS
 10
130.4718995353
 20
218.3566264197
 11
131.9915016275
 21
219.1134035595
  0
LINE
  8
0
 62
7
  6
CONTINUOUS
 10
132.1745873703
 20
218.6480368304
 11
130.6549469007
 21
217.8913457877
  0
LINE
  8
0
 62
7
  6
CONTINUOUS
 10
66.1294204044
 20
192.8940236497
 11
64.4966130873
 21
192.4294499135
  0
LINE
  8
0
 62
9
  6
CONTINUOUS
 10
134.8271417509
 20
209.1471623897
 11
133.1367582116
 21
208.9906196769
  0
LINE
  8
0
 62
7
  6
CONTINUOUS
 10
134.7378203985
 20
209.6392071919
 11
133.0474495288
 21
209.4825712637
  0
LINE
  8
0
 62
9
  6
CONTINUOUS
 10
64.5029564138
 20
208.9906196769
 11
62.8125728491
 21
209.1471622008
  0
LINE
  8
0
 62
7
  6
CONTINUOUS
 10
64.5922650966
 20
209.4825712637
 11
62.9018942269
 21
209.6392071919
  0
LINE
  8
0
 62
7
  6
CONTINUOUS
 10
134.2451750921
 20
196.3028366823
 11
132.612367775
 21
196.7674104185
  0
LINE
  8
0
 62
9
  6
CONTINUOUS
 10
134.1507176885
 20
195.8117519743
 11
132.5179322307
 21
196.2764172082
  0
LINE
  8
0
 62
9
  6
CONTINUOUS
 10
68.5188180558
 20
221.0698061264
 11
66.9991320068
 21
221.8264146581
  0
LINE
  8
0
 62
7
  6
CONTINUOUS
 10
68.7798093332
 20
221.4962753019
 11
67.2601688636
 21
222.2529663446
  0
LINE
  8
0
 62
9
  6
CONTINUOUS
 10
128.7026651573
 20
183.6212046497
 11
127.3479945046
 21
184.6443222156
  0
LINE
  8
0
 62
7
  6
CONTINUOUS
 10
128.9681443211
 20
184.0450055523
 11
127.6134202325
 21
185.0680456956
  0
LINE
  8
0
 62
9
  6
CONTINUOUS
 10
76.6270029532
 20
230.8826154937
 11
75.4832564418
 21
232.1371058584
  0
LINE
  8
0
 62
7
  6
CONTINUOUS
 10
75.8807543035
 20
232.4405560714
 11
77.0244285071
 21
231.1860052326
  0
LINE
  8
0
 62
7
  6
CONTINUOUS
 10
79.0773365424
 20
227.2812759511
 11
79.9166451425
 21
226.3420800095
  0
LINE
  8
0
 62
7
  6
CONTINUOUS
 10
80.065774223
 20
226.4753486005
 11
78.9996254951
 21
227.6683812447
  0
LINE
  8
0
 62
7
  6
CONTINUOUS
 10
81.5818822166
 20
228.3417980625
 11
81.2751512965
 21
228.7500474965
  0
LINE
  8
0
 62
9
  6
CONTINUOUS
 10
119.2187738403
 20
174.2219213821
 11
118.3251737708
 21
175.6653135834
  0
LINE
  8
0
 62
7
  6
CONTINUOUS
 10
118.725742467
 20
175.9645411293
 11
119.6194203322
 21
174.5212018191
  0
LINE
  8
0
 62
7
  6
CONTINUOUS
 10
84.7260547191
 20
229.6864940182
 11
84.6232777755
 21
229.8630078564
  0
LINE
  8
0
 62
7
  6
CONTINUOUS
 10
87.6039348419
 20
231.0836776727
 11
87.5207639774
 21
231.2702328723
  0
LINE
  8
0
 62
7
  6
CONTINUOUS
 10
87.0494623992
 20
232.3273790325
 11
86.9524297354
 21
232.5450267399
  0
LINE
  8
0
 62
9
  6
CONTINUOUS
 10
87.7324558068
 20
237.1037734989
 11
87.119118137
 21
238.6867198217
  0
LINE
  8
0
 62
7
  6
CONTINUOUS
 10
87.5993927148
 20
238.8260859284
 11
88.2126411138
 21
237.2431093359
  0
LINE
  8
0
 62
7
  6
CONTINUOUS
 10
89.1196252799
 20
233.1794471026
 11
89.062281244
 21
233.3397095134
  0
LINE
  8
0
 62
7
  6
CONTINUOUS
 10
94.3348247664
 20
233.6753523724
 11
94.3990634033
 21
233.4434677856
  0
LINE
  8
0
 62
7
  6
CONTINUOUS
 10
92.332246484
 20
233.7177925299
 11
92.3002167454
 21
233.8501422342
  0
LINE
  8
0
 62
7
  6
CONTINUOUS
 10
107.1496646091
 20
170.6863754555
 11
107.4616001032
 21
169.01766795
  0
LINE
  8
0
 62
9
  6
CONTINUOUS
 10
106.9798958119
 20
168.8833274601
 11
106.6680519667
 21
170.5520561819
  0
LINE
  8
0
 62
7
  6
CONTINUOUS
 10
95.5556919409
 20
233.5961739202
 11
95.5334126034
 21
233.764922331
  0
LINE
  8
0
 62
9
  6
CONTINUOUS
 10
100.4283120719
 20
238.0418616893
 11
100.3353236711
 21
238.893078281
  0
LINE
  8
0
 62
7
  6
CONTINUOUS
 10
100.8334170448
 20
238.8495421392
 11
100.9105489453
 21
238.1241038004
  0
LINE
  8
0
 62
7
  6
CONTINUOUS
 10
107.0921842385
 20
171.4136344461
 11
107.1496646091
 21
170.6863754555
  0
LINE
  8
0
 62
9
  6
CONTINUOUS
 10
106.6680519667
 20
170.5520561819
 11
106.6030337218
 21
171.4058663598
  0
LINE
  8
0
 62
9
  6
CONTINUOUS
 10
112.5127223944
 20
235.1815492662
 11
112.7335194063
 21
236.0088743142
  0
LINE
  8
0
 62
7
  6
CONTINUOUS
 10
113.1822505765
 20
235.7883459907
 11
112.9921156355
 21
235.0840332517
  0
LINE
  8
0
 62
7
  6
CONTINUOUS
 10
94.6577179893
 20
170.6453084358
 11
94.4486001188
 21
169.9463941958
  0
LINE
  8
0
 62
9
  6
CONTINUOUS
 10
93.9509879863
 20
169.9951237567
 11
94.198789947
 21
170.8147662338
  0
LINE
  8
0
 62
9
  6
CONTINUOUS
 10
122.7478419727
 20
228.1489956091
 11
123.2525979774
 21
228.8406893261
  0
LINE
  8
0
 62
7
  6
CONTINUOUS
 10
123.5913633131
 20
228.4729523931
 11
123.1596403892
 21
227.8848845323
  0
LINE
  8
0
 62
7
  6
CONTINUOUS
 10
82.7853704854
 20
174.4207107037
 11
82.3378981345
 21
173.8445359196
  0
LINE
  8
0
 62
9
  6
CONTINUOUS
 10
81.8914917877
 20
174.0697331178
 11
82.4186515853
 21
174.7445083178
  0
LINE
  8
0
 62
9
  6
CONTINUOUS
 10
129.7513621941
 20
217.8939773504
 11
130.4718995353
 21
218.3566264197
  0
LINE
  8
0
 62
7
  6
CONTINUOUS
 10
130.6549469007
 20
217.8913457877
 11
130.039944337
 21
217.4989464944
  0
LINE
  8
0
 62
7
  6
CONTINUOUS
 10
72.4531760669
 20
181.8543349869
 11
73.0785720199
 21
182.229957278
  0
LINE
  8
0
 62
9
  6
CONTINUOUS
 10
72.1182651566
 20
182.2255856928
 11
72.853584854
 21
182.6643612824
  0
LINE
  8
0
 62
9
  6
CONTINUOUS
 10
65.3591228967
 20
209.0046588125
 11
64.5029564138
 21
208.9906196769
  0
LINE
  8
0
 62
7
  6
CONTINUOUS
 10
65.3217238061
 20
209.4924389031
 11
64.5922650966
 21
209.4825712637
  0
LINE
  8
0
 62
7
  6
CONTINUOUS
 10
133.0474495288
 20
209.4825712637
 11
132.3179876407
 21
209.4924392846
  0
LINE
  8
0
 62
9
  6
CONTINUOUS
 10
133.1367582116
 20
208.9906196769
 11
132.2805906856
 21
209.0046550683
  0
LINE
  8
0
 62
9
  6
CONTINUOUS
 10
69.322239841
 20
220.7736098081
 11
68.5188180558
 21
221.0698061264
  0
LINE
  8
0
 62
7
  6
CONTINUOUS
 10
69.4635746583
 20
221.2419655346
 11
68.7798093332
 21
221.4962753019
  0
LINE
  8
0
 62
7
  6
CONTINUOUS
 10
132.612367775
 20
196.7674104185
 11
131.9357310532
 21
197.0401233084
  0
LINE
  8
0
 62
9
  6
CONTINUOUS
 10
132.5179322307
 20
196.2764172082
 11
131.7246525184
 21
196.5987930575
  0
LINE
  8
0
 62
7
  6
CONTINUOUS
 10
75.4971051052
 20
222.2761843913
 11
75.6242401676
 21
222.2171071876
  0
LINE
  8
0
 62
7
  6
CONTINUOUS
 10
76.4086439692
 20
222.8701239126
 11
76.281508932
 21
222.9292011382
  0
LINE
  8
0
 62
7
  6
CONTINUOUS
 10
76.5228563175
 20
224.1471450033
 11
76.6729173775
 21
224.0601670038
  0
LINE
  8
0
 62
7
  6
CONTINUOUS
 10
76.7826497629
 20
224.1856124509
 11
76.6325888284
 21
224.272590594
  0
LINE
  8
0
 62
7
  6
CONTINUOUS
 10
80.7842397759
 20
227.5721820159
 11
80.6757950516
 21
227.6610256554
  0
LINE
  8
0
 62
9
  6
CONTINUOUS
 10
77.269175094
 20
230.3161941277
 11
76.6270029532
 21
230.8826154937
  0
LINE
  8
0
 62
7
  6
CONTINUOUS
 10
77.0244285071
 20
231.1860052326
 11
77.5701516566
 21
230.7018651556
  0
LINE
  8
0
 62
7
  6
CONTINUOUS
 10
80.5158973525
 20
227.5408893752
 11
80.6447908029
 21
227.4248291093
  0
LINE
  8
0
 62
7
  6
CONTINUOUS
 10
81.2751512965
 20
228.7500474965
 11
81.1462577888
 21
228.8661078386
  0
LINE
  8
0
 62
7
  6
CONTINUOUS
 10
127.6134202325
 20
185.0680456956
 11
127.0809887802
 21
185.5667743059
  0
LINE
  8
0
 62
9
  6
CONTINUOUS
 10
127.3479945046
 20
184.6443222156
 11
126.7247483383
 21
185.2315032405
  0
LINE
  8
0
 62
7
  6
CONTINUOUS
 10
82.9189725419
 20
229.0381316659
 11
82.0202042642
 21
229.9129202264
  0
LINE
  8
0
 62
7
  6
CONTINUOUS
 10
82.0781167883
 20
229.583838941
 11
83.0144632797
 21
228.652274814
  0
LINE
  8
0
 62
7
  6
CONTINUOUS
 10
81.2419003414
 20
229.3977944266
 11
82.3473458134
 21
228.2107385345
  0
LINE
  8
0
 62
7
  6
CONTINUOUS
 10
82.2518550756
 20
228.5965953864
 11
81.408679708
 21
229.5081784965
  0
LINE
  8
0
 62
9
  6
CONTINUOUS
 10
88.1266492222
 20
236.3436223692
 11
87.7324558068
 21
237.1037734989
  0
LINE
  8
0
 62
7
  6
CONTINUOUS
 10
88.2126411138
 20
237.2431093359
 11
88.5466221574
 21
236.5945228045
  0
LINE
  8
0
 62
7
  6
CONTINUOUS
 10
118.4094269448
 20
176.6219268238
 11
118.725742467
 21
175.9645411293
  0
LINE
  8
0
 62
9
  6
CONTINUOUS
 10
118.3251737708
 20
175.6653135834
 11
117.9561172173
 21
176.4379817362
  0
LINE
  8
0
 62
7
  6
CONTINUOUS
 10
76.2039266544
 20
222.7778152943
 11
76.3784692137
 21
222.7234854632
  0
LINE
  8
0
 62
7
  6
CONTINUOUS
 10
75.7018224061
 20
222.3684930208
 11
75.6012632156
 21
222.4062953612
  0
LINE
  8
0
 62
7
  6
CONTINUOUS
 10
76.6325888284
 20
224.272590594
 11
76.5337735814
 21
224.3147417349
  0
LINE
  8
0
 62
7
  6
CONTINUOUS
 10
78.1825620593
 20
226.4816644052
 11
79.3698383243
 21
225.8534283398
  0
LINE
  8
0
 62
7
  6
CONTINUOUS
 10
79.3558378211
 20
226.0691926056
 11
78.0302864717
 21
226.8021354032
  0
LINE
  8
0
 62
7
  6
CONTINUOUS
 10
81.0068088731
 20
228.7187548558
 11
81.1152535973
 21
228.6299112163
  0
LINE
  8
0
 62
7
  6
CONTINUOUS
 10
92.0494068684
 20
233.8945199439
 11
92.1058282301
 21
233.803098583
  0
LINE
  8
0
 62
7
  6
CONTINUOUS
 10
92.3002167454
 20
233.8501422342
 11
92.2437953837
 21
233.9415635951
  0
LINE
  8
0
 62
7
  6
CONTINUOUS
 10
94.1600478056
 20
232.9601848041
 11
93.3428736779
 21
234.435539668
  0
LINE
  8
0
 62
7
  6
CONTINUOUS
 10
94.3990634033
 20
233.4434677856
 11
94.4874348461
 21
233.2834453378
  0
LINE
  8
0
 62
7
  6
CONTINUOUS
 10
93.7575743794
 20
233.3007840865
 11
93.9634263702
 21
232.9235786416
  0
LINE
  8
0
 62
7
  6
CONTINUOUS
 10
93.2367165627
 20
234.2772657553
 11
93.6998812985
 21
233.4285530501
  0
LINE
  8
0
 62
7
  6
CONTINUOUS
 10
94.6062544866
 20
233.4021466576
 11
94.5598393209
 21
233.4990325063
  0
LINE
  8
0
 62
7
  6
CONTINUOUS
 10
95.3262215202
 20
233.8062434591
 11
95.3726366921
 21
233.7093575631
  0
LINE
  8
0
 62
7
  6
CONTINUOUS
 10
95.38711489
 20
234.3636905949
 11
95.3406997243
 21
234.4605764436
  0
LINE
  8
0
 62
7
  6
CONTINUOUS
 10
102.6835606179
 20
190.1919228087
 11
112.9166662497
 21
200.4250284405
  0
LINE
  8
0
 62
7
  6
CONTINUOUS
 10
75.6242401676
 20
222.2171071876
 11
75.6982235011
 21
222.2005796909
  0
LINE
  8
0
 62
7
  6
CONTINUOUS
 10
76.4826273465
 20
222.853596461
 11
76.4086439692
 21
222.8701239126
  0
LINE
  8
0
 62
7
  6
CONTINUOUS
 10
80.6447908029
 20
227.4248291093
 11
80.7798847513
 21
227.3560078587
  0
LINE
  8
0
 62
7
  6
CONTINUOUS
 10
81.1462577888
 20
228.8661078386
 11
81.0111638547
 21
228.9349290702
  0
LINE
  8
0
 62
7
  6
CONTINUOUS
 10
112.9166662497
 20
208.1524350508
 11
102.6835606179
 21
218.3855406827
  0
LINE
  8
0
 62
7
  6
CONTINUOUS
 10
95.5334126034
 20
233.764922331
 11
95.4450411637
 21
233.9249447552
  0
LINE
  8
0
 62
7
  6
CONTINUOUS
 10
75.8232132402
 20
222.3567128631
 11
75.7018224061
 21
222.3684930208
  0
LINE
  8
0
 62
7
  6
CONTINUOUS
 10
80.8988849839
 20
227.5305774107
 11
80.7842397759
 21
227.5721820159
  0
LINE
  8
0
 62
7
  6
CONTINUOUS
 10
80.8921636078
 20
228.7603595372
 11
81.0068088731
 21
228.7187548558
  0
LINE
  8
0
 62
7
  6
CONTINUOUS
 10
94.4874348461
 20
233.2834453378
 11
94.604397988
 21
233.1615357438
  0
LINE
  8
0
 62
7
  6
CONTINUOUS
 10
94.6857141968
 20
233.3096235551
 11
94.6062544866
 21
233.4021466576
  0
LINE
  8
0
 62
7
  6
CONTINUOUS
 10
95.1424203736
 20
234.4343982263
 11
95.2218815935
 21
234.3418753472
  0
LINE
  8
0
 62
7
  6
CONTINUOUS
 10
75.6982235011
 20
222.2005796909
 11
75.8404459398
 21
222.2148217244
  0
LINE
  8
0
 62
7
  6
CONTINUOUS
 10
76.4277175754
 20
224.1417937117
 11
76.5228563175
 21
224.1471450033
  0
LINE
  8
0
 62
7
  6
CONTINUOUS
 10
76.5337735814
 20
224.3147417349
 11
76.4386348393
 21
224.3093904433
  0
LINE
  8
0
 62
7
  6
CONTINUOUS
 10
80.7798847513
 20
227.3560078587
 11
80.9682783323
 21
227.3272323498
  0
LINE
  8
0
 62
7
  6
CONTINUOUS
 10
95.2512176792
 20
233.8650168652
 11
95.3262215202
 21
233.8062434591
  0
LINE
  8
0
 62
7
  6
CONTINUOUS
 10
95.4450411637
 20
233.9249447552
 11
95.3325338896
 21
234.0131046647
  0
LINE
  8
0
 62
7
  6
CONTINUOUS
 10
92.2437953837
 20
233.9415635951
 11
92.1145714099
 21
234.0503913812
  0
LINE
  8
0
 62
7
  6
CONTINUOUS
 10
95.3406997243
 20
234.4605764436
 11
95.223736584
 21
234.5824860258
  0
LINE
  8
0
 62
7
  6
CONTINUOUS
 10
81.0197313
 20
227.5362122789
 11
80.8988849839
 21
227.5305774107
  0
LINE
  8
0
 62
7
  6
CONTINUOUS
 10
81.0111638547
 20
228.9349290702
 11
80.8227702809
 21
228.9637045696
  0
LINE
  8
0
 62
7
  6
CONTINUOUS
 10
92.1145714099
 20
234.0503913812
 11
91.9609572736
 21
234.1182912754
  0
LINE
  8
0
 62
7
  6
CONTINUOUS
 10
94.604397988
 20
233.1615357438
 11
94.7829988845
 21
233.0821019645
  0
LINE
  8
0
 62
7
  6
CONTINUOUS
 10
94.7937656047
 20
233.2552133184
 11
94.6857141968
 21
233.3096235551
  0
LINE
  8
0
 62
7
  6
CONTINUOUS
 10
95.1431662714
 20
233.9194271019
 11
95.2512176792
 21
233.8650168652
  0
LINE
  8
0
 62
7
  6
CONTINUOUS
 10
91.9685968273
 20
233.9450137719
 11
92.0494068684
 21
233.8945199439
  0
LINE
  8
0
 62
7
  6
CONTINUOUS
 10
76.4386348393
 20
224.3093904433
 11
76.3215495699
 21
224.2789500049
  0
LINE
  8
0
 62
7
  6
CONTINUOUS
 10
80.9682783323
 20
227.3272323498
 11
81.1157744593
 21
227.3528900961
  0
LINE
  8
0
 62
7
  6
CONTINUOUS
 10
80.8227702809
 20
228.9637045696
 11
80.6752747692
 21
228.9380472744
  0
LINE
  8
0
 62
7
  6
CONTINUOUS
 10
80.771317306
 20
228.7547246499
 11
80.8921636078
 21
228.7603595372
  0
LINE
  8
0
 62
7
  6
CONTINUOUS
 10
94.8973611464
 20
233.2345527543
 11
94.7937656047
 21
233.2552133184
  0
LINE
  8
0
 62
7
  6
CONTINUOUS
 10
95.3325338896
 20
234.0131046647
 11
95.1539329943
 21
234.0925384351
  0
LINE
  8
0
 62
7
  6
CONTINUOUS
 10
95.223736584
 20
234.5824860258
 11
95.0451372014
 21
234.6619199959
  0
LINE
  8
0
 62
7
  6
CONTINUOUS
 10
95.0343689657
 20
234.488808463
 11
95.1424203736
 21
234.4343982263
  0
LINE
  8
0
 62
7
  6
CONTINUOUS
 10
91.3897540695
 20
232.3688927887
 11
91.5841425848
 21
232.4159364399
  0
LINE
  8
0
 62
7
  6
CONTINUOUS
 10
91.4159865524
 20
233.1107719938
 11
91.9991520983
 21
233.2519029475
  0
LINE
  8
0
 62
7
  6
CONTINUOUS
 10
91.9835065987
 20
233.4582682128
 11
91.3679419782
 21
233.3092964113
  0
LINE
  8
0
 62
7
  6
CONTINUOUS
 10
91.2478305201
 20
233.8056075477
 11
91.8633951406
 21
233.9545793492
  0
LINE
  8
0
 62
7
  6
CONTINUOUS
 10
91.7909589208
 20
234.112175516
 11
91.0134048596
 21
233.924000911
  0
LINE
  8
0
 62
7
  6
CONTINUOUS
 10
92.8492372361
 20
232.7161435347
 11
93.0458586715
 21
232.7527496972
  0
LINE
  8
0
 62
7
  6
CONTINUOUS
 10
93.9634263702
 20
232.9235786416
 11
94.1600478056
 21
232.9601848041
  0
LINE
  8
0
 62
7
  6
CONTINUOUS
 10
93.1021705947
 20
233.1787637311
 11
93.7575743794
 21
233.3007840865
  0
LINE
  8
0
 62
7
  6
CONTINUOUS
 10
93.6998812985
 20
233.4285530501
 11
93.1100169922
 21
233.3187345626
  0
LINE
  8
0
 62
7
  6
CONTINUOUS
 10
93.3428736779
 20
234.435539668
 11
93.0807127641
 21
234.3867316376
  0
LINE
  8
0
 62
7
  6
CONTINUOUS
 10
94.9526880477
 20
233.0701675366
 11
95.1179198315
 21
233.0919825845
  0
LINE
  8
0
 62
7
  6
CONTINUOUS
 10
95.1286880641
 20
233.265094141
 11
94.8973611464
 21
233.2345527543
  0
LINE
  8
0
 62
7
  6
CONTINUOUS
 10
94.808243812
 20
233.9095462793
 11
95.0395707297
 21
233.940087666
  0
LINE
  8
0
 62
7
  6
CONTINUOUS
 10
94.9842438315
 20
234.1044728601
 11
94.8190120477
 21
234.0826578122
  0
LINE
  8
0
 62
7
  6
CONTINUOUS
 10
95.2218815935
 20
234.3418753472
 11
95.38711489
 21
234.3636905949
  0
LINE
  8
0
 62
7
  6
CONTINUOUS
 10
94.7324940733
 20
234.4832908097
 11
94.9307734241
 21
234.5094690271
  0
LINE
  8
0
 62
7
  6
CONTINUOUS
 10
94.8754480386
 20
234.6738544209
 11
94.743262309
 21
234.6564023426
  0
LINE
  8
0
 62
7
  6
CONTINUOUS
 10
91.9609572736
 20
234.1182912754
 11
91.7909589208
 21
234.112175516
  0
LINE
  8
0
 62
7
  6
CONTINUOUS
 10
94.7829988845
 20
233.0821019645
 11
94.9526880477
 21
233.0701675366
  0
LINE
  8
0
 62
7
  6
CONTINUOUS
 10
95.1539329943
 20
234.0925384351
 11
94.9842438315
 21
234.1044728601
  0
LINE
  8
0
 62
7
  6
CONTINUOUS
 10
95.0451372014
 20
234.6619199959
 11
94.8754480386
 21
234.6738544209
  0
LINE
  8
0
 62
7
  6
CONTINUOUS
 10
91.8633951406
 20
233.9545793492
 11
91.9685968273
 21
233.9450137719
  0
LINE
  8
0
 62
7
  6
CONTINUOUS
 10
95.0395707297
 20
233.940087666
 11
95.1431662714
 21
233.9194271019
  0
LINE
  8
0
 62
7
  6
CONTINUOUS
 10
94.9307734241
 20
234.5094690271
 11
95.0343689657
 21
234.488808463
  0
POLYLINE
  8
0
 62
9
  6
CONTINUOUS
 66
1
 70
0
  0
VERTEX
  8
0
 62
9
  6
CONTINUOUS
 10
133.1367581855
 20
208.9906196733
  0
VERTEX
  8
0
 62
9
  6
CONTINUOUS
 10
133.1254030211
 20
209.1009893846
  0
VERTEX
  8
0
 62
9
  6
CONTINUOUS
 10
133.0985749787
 20
209.2991024476
  0
VERTEX
  8
0
 62
9
  6
CONTINUOUS
 10
133.084440877
 20
209.376959486
  0
VERTEX
  8
0
 62
9
  6
CONTINUOUS
 10
133.0582239388
 20
209.4710421214
  0
VERTEX
  8
0
 62
9
  6
CONTINUOUS
 10
133.0474493925
 20
209.4825727347
  0
SEQEND
  0
LINE
  8
0
 62
7
  6
CONTINUOUS
 10
132.5754773296
 20
205.8126102115
 11
132.2807357556
 21
208.9933776064
  0
POLYLINE
  8
0
 62
9
  6
CONTINUOUS
 66
1
 70
0
  0
VERTEX
  8
0
 62
9
  6
CONTINUOUS
 10
133.416417401
 20
205.9726163847
  0
VERTEX
  8
0
 62
9
  6
CONTINUOUS
 10
133.4255359213
 20
205.8620395097
  0
VERTEX
  8
0
 62
9
  6
CONTINUOUS
 10
133.4355677693
 20
205.6623705619
  0
VERTEX
  8
0
 62
9
  6
CONTINUOUS
 10
133.4359804876
 20
205.5832423744
  0
VERTEX
  8
0
 62
9
  6
CONTINUOUS
 10
133.4274975629
 20
205.4859448112
  0
VERTEX
  8
0
 62
9
  6
CONTINUOUS
 10
133.4190252351
 20
205.4726307812
  0
SEQEND
  0
POLYLINE
  8
0
 62
7
  6
CONTINUOUS
 66
1
 70
0
  0
VERTEX
  8
0
 62
7
  6
CONTINUOUS
 10
130.8443102525
 20
193.5047104184
  0
VERTEX
  8
0
 62
7
  6
CONTINUOUS
 10
130.8319454038
 20
193.3371103306
  0
VERTEX
  8
0
 62
7
  6
CONTINUOUS
 10
130.8186539063
 20
193.1906912393
  0
VERTEX
  8
0
 62
7
  6
CONTINUOUS
 10
130.8121484858
 20
193.1309422714
  0
VERTEX
  8
0
 62
7
  6
CONTINUOUS
 10
130.8003705449
 20
193.047110673
  0
VERTEX
  8
0
 62
7
  6
CONTINUOUS
 10
130.7913669305
 20
193.0183666731
  0
SEQEND
  0
POLYLINE
  8
0
 62
7
  6
CONTINUOUS
 66
1
 70
0
  0
VERTEX
  8
0
 62
7
  6
CONTINUOUS
 10
132.2805906856
 20
209.0046550683
  0
VERTEX
  8
0
 62
7
  6
CONTINUOUS
 10
132.280314934
 20
209.0009769956
  0
VERTEX
  8
0
 62
7
  6
CONTINUOUS
 10
132.2803589729
 20
208.9972263556
  0
VERTEX
  8
0
 62
7
  6
CONTINUOUS
 10
132.280734838
 20
208.9933863814
  0
SEQEND
  0
POLYLINE
  8
0
 62
7
  6
CONTINUOUS
 66
1
 70
0
  0
VERTEX
  8
0
 62
7
  6
CONTINUOUS
 10
130.8443086457
 20
193.5046958578
  0
VERTEX
  8
0
 62
7
  6
CONTINUOUS
 10
130.8447143066
 20
193.5083787409
  0
VERTEX
  8
0
 62
7
  6
CONTINUOUS
 10
130.8454467653
 20
193.5120572932
  0
VERTEX
  8
0
 62
7
  6
CONTINUOUS
 10
130.846521791
 20
193.5157626845
  0
SEQEND
  0
POLYLINE
  8
0
 62
7
  6
CONTINUOUS
 66
1
 70
0
  0
VERTEX
  8
0
 62
7
  6
CONTINUOUS
 10
132.2805908483
 20
209.0046573075
  0
VERTEX
  8
0
 62
7
  6
CONTINUOUS
 10
132.2992344398
 20
209.1716754699
  0
VERTEX
  8
0
 62
7
  6
CONTINUOUS
 10
132.3130752794
 20
209.3180435472
  0
VERTEX
  8
0
 62
7
  6
CONTINUOUS
 10
132.3176604139
 20
209.3779703992
  0
VERTEX
  8
0
 62
7
  6
CONTINUOUS
 10
132.3214902977
 20
209.4625383462
  0
VERTEX
  8
0
 62
7
  6
CONTINUOUS
 10
132.3179148287
 20
209.4924480246
  0
SEQEND
  0
POLYLINE
  8
0
 62
9
  6
CONTINUOUS
 66
1
 70
0
  0
VERTEX
  8
0
 62
9
  6
CONTINUOUS
 10
132.5179322041
 20
196.2764172145
  0
VERTEX
  8
0
 62
9
  6
CONTINUOUS
 10
132.5472139684
 20
196.3834358642
  0
VERTEX
  8
0
 62
9
  6
CONTINUOUS
 10
132.5937642633
 20
196.5778622168
  0
VERTEX
  8
0
 62
9
  6
CONTINUOUS
 10
132.6087098159
 20
196.6555675817
  0
VERTEX
  8
0
 62
9
  6
CONTINUOUS
 10
132.6182498216
 20
196.7527676967
  0
VERTEX
  8
0
 62
9
  6
CONTINUOUS
 10
132.6123681942
 20
196.7674118916
  0
SEQEND
  0
LINE
  8
0
 62
7
  6
CONTINUOUS
 10
130.8465238024
 20
193.5157691671
 11
131.7207115703
 21
196.5882207001
  0
POLYLINE
  8
0
 62
9
  6
CONTINUOUS
 66
1
 70
0
  0
VERTEX
  8
0
 62
9
  6
CONTINUOUS
 10
131.6884781207
 20
193.3611883984
  0
VERTEX
  8
0
 62
9
  6
CONTINUOUS
 10
131.657035913
 20
193.2547845439
  0
VERTEX
  8
0
 62
9
  6
CONTINUOUS
 10
131.5942615893
 20
193.0649748734
  0
VERTEX
  8
0
 62
9
  6
CONTINUOUS
 10
131.5660620393
 20
192.991040945
  0
VERTEX
  8
0
 62
9
  6
CONTINUOUS
 10
131.5230040138
 20
192.9033780551
  0
VERTEX
  8
0
 62
9
  6
CONTINUOUS
 10
131.5102942211
 20
192.8940236497
  0
SEQEND
  0
POLYLINE
  8
0
 62
7
  6
CONTINUOUS
 66
1
 70
0
  0
VERTEX
  8
0
 62
7
  6
CONTINUOUS
 10
124.7861322772
 20
182.6643646241
  0
VERTEX
  8
0
 62
7
  6
CONTINUOUS
 10
124.7140585484
 20
182.5125487806
  0
VERTEX
  8
0
 62
7
  6
CONTINUOUS
 10
124.6487722182
 20
182.3808183632
  0
VERTEX
  8
0
 62
7
  6
CONTINUOUS
 10
124.6211224507
 20
182.3274540652
  0
VERTEX
  8
0
 62
7
  6
CONTINUOUS
 10
124.5798569818
 20
182.2535378447
  0
VERTEX
  8
0
 62
7
  6
CONTINUOUS
 10
124.5610766033
 20
182.2299879431
  0
SEQEND
  0
POLYLINE
  8
0
 62
7
  6
CONTINUOUS
 66
1
 70
0
  0
VERTEX
  8
0
 62
7
  6
CONTINUOUS
 10
131.7246525184
 20
196.5987930575
  0
VERTEX
  8
0
 62
7
  6
CONTINUOUS
 10
131.7230641278
 20
196.5954580567
  0
VERTEX
  8
0
 62
7
  6
CONTINUOUS
 10
131.7217503205
 20
196.5919448088
  0
VERTEX
  8
0
 62
7
  6
CONTINUOUS
 10
131.7207136559
 20
196.5882283931
  0
SEQEND
  0
POLYLINE
  8
0
 62
7
  6
CONTINUOUS
 66
1
 70
0
  0
VERTEX
  8
0
 62
7
  6
CONTINUOUS
 10
124.7861305506
 20
182.6643613041
  0
VERTEX
  8
0
 62
7
  6
CONTINUOUS
 10
124.7878344005
 20
182.6676391969
  0
VERTEX
  8
0
 62
7
  6
CONTINUOUS
 10
124.789846256
 20
182.6708047754
  0
VERTEX
  8
0
 62
7
  6
CONTINUOUS
 10
124.7921872458
 20
182.6738716293
  0
SEQEND
  0
POLYLINE
  8
0
 62
7
  6
CONTINUOUS
 66
1
 70
0
  0
VERTEX
  8
0
 62
7
  6
CONTINUOUS
 10
131.7246510816
 20
196.5987900482
  0
VERTEX
  8
0
 62
7
  6
CONTINUOUS
 10
131.8023693223
 20
196.7477951855
  0
VERTEX
  8
0
 62
7
  6
CONTINUOUS
 10
131.86814942
 20
196.8792796696
  0
VERTEX
  8
0
 62
7
  6
CONTINUOUS
 10
131.8940727829
 20
196.9335035811
  0
VERTEX
  8
0
 62
7
  6
CONTINUOUS
 10
131.9281926726
 20
197.0109777898
  0
VERTEX
  8
0
 62
7
  6
CONTINUOUS
 10
131.9356649223
 20
197.0401585023
  0
SEQEND
  0
POLYLINE
  8
0
 62
9
  6
CONTINUOUS
 66
1
 70
0
  0
VERTEX
  8
0
 62
9
  6
CONTINUOUS
 10
127.3479944816
 20
184.6443222314
  0
VERTEX
  8
0
 62
9
  6
CONTINUOUS
 10
127.4139585098
 20
184.7335363568
  0
VERTEX
  8
0
 62
9
  6
CONTINUOUS
 10
127.5276002746
 20
184.8980176338
  0
VERTEX
  8
0
 62
9
  6
CONTINUOUS
 10
127.5696070081
 20
184.9650767791
  0
VERTEX
  8
0
 62
9
  6
CONTINUOUS
 10
127.6136155374
 20
185.0522669506
  0
VERTEX
  8
0
 62
9
  6
CONTINUOUS
 10
127.6134211772
 20
185.0680469465
  0
SEQEND
  0
LINE
  8
0
 62
7
  6
CONTINUOUS
 10
124.7921914631
 20
182.6738769476
 11
126.7172447919
 21
185.2230596313
  0
POLYLINE
  8
0
 62
9
  6
CONTINUOUS
 66
1
 70
0
  0
VERTEX
  8
0
 62
9
  6
CONTINUOUS
 10
125.5214494689
 20
182.2255856928
  0
VERTEX
  8
0
 62
9
  6
CONTINUOUS
 10
125.4536929777
 20
182.1377252888
  0
VERTEX
  8
0
 62
9
  6
CONTINUOUS
 10
125.3265905025
 20
181.9834097436
  0
VERTEX
  8
0
 62
9
  6
CONTINUOUS
 10
125.2735871897
 20
181.9246552609
  0
VERTEX
  8
0
 62
9
  6
CONTINUOUS
 10
125.2017692883
 20
181.8584664034
  0
VERTEX
  8
0
 62
9
  6
CONTINUOUS
 10
125.1865385585
 20
181.8543349869
  0
SEQEND
  0
POLYLINE
  8
0
 62
7
  6
CONTINUOUS
 66
1
 70
0
  0
VERTEX
  8
0
 62
7
  6
CONTINUOUS
 10
115.2210651503
 20
174.7445095233
  0
VERTEX
  8
0
 62
7
  6
CONTINUOUS
 10
115.0990162569
 20
174.6289814378
  0
VERTEX
  8
0
 62
7
  6
CONTINUOUS
 10
114.9905521206
 20
174.5297305586
  0
VERTEX
  8
0
 62
7
  6
CONTINUOUS
 10
114.9454921128
 20
174.4899580412
  0
VERTEX
  8
0
 62
7
  6
CONTINUOUS
 10
114.8803117346
 20
174.4359398798
  0
VERTEX
  8
0
 62
7
  6
CONTINUOUS
 10
114.8542920692
 20
174.4207648065
  0
SEQEND
  0
POLYLINE
  8
0
 62
7
  6
CONTINUOUS
 66
1
 70
0
  0
VERTEX
  8
0
 62
7
  6
CONTINUOUS
 10
126.7247483383
 20
185.2315032405
  0
VERTEX
  8
0
 62
7
  6
CONTINUOUS
 10
126.7220528912
 20
185.2289583948
  0
VERTEX
  8
0
 62
7
  6
CONTINUOUS
 10
126.7195586865
 20
185.226157004
  0
VERTEX
  8
0
 62
7
  6
CONTINUOUS
 10
126.7172495148
 20
185.2230660526
  0
SEQEND
  0
POLYLINE
  8
0
 62
7
  6
CONTINUOUS
 66
1
 70
0
  0
VERTEX
  8
0
 62
7
  6
CONTINUOUS
 10
115.2210622891
 20
174.7445070051
  0
VERTEX
  8
0
 62
7
  6
CONTINUOUS
 10
115.223835291
 20
174.7469480536
  0
VERTEX
  8
0
 62
7
  6
CONTINUOUS
 10
115.226854835
 20
174.7491731072
  0
VERTEX
  8
0
 62
7
  6
CONTINUOUS
 10
115.2301456254
 20
174.751187205
  0
SEQEND
  0
POLYLINE
  8
0
 62
7
  6
CONTINUOUS
 66
1
 70
0
  0
VERTEX
  8
0
 62
7
  6
CONTINUOUS
 10
126.7247364208
 20
185.2314919909
  0
VERTEX
  8
0
 62
7
  6
CONTINUOUS
 10
126.8510332438
 20
185.3423602563
  0
VERTEX
  8
0
 62
7
  6
CONTINUOUS
 10
126.9598688753
 20
185.4412035725
  0
VERTEX
  8
0
 62
7
  6
CONTINUOUS
 10
127.00362953
 20
185.4824013862
  0
VERTEX
  8
0
 62
7
  6
CONTINUOUS
 10
127.0634319408
 20
185.5423188286
  0
VERTEX
  8
0
 62
7
  6
CONTINUOUS
 10
127.0809416387
 20
185.5668289155
  0
SEQEND
  0
POLYLINE
  8
0
 62
9
  6
CONTINUOUS
 66
1
 70
0
  0
VERTEX
  8
0
 62
9
  6
CONTINUOUS
 10
118.3251737554
 20
175.665313606
  0
VERTEX
  8
0
 62
9
  6
CONTINUOUS
 10
118.4189112384
 20
175.7246743453
  0
VERTEX
  8
0
 62
9
  6
CONTINUOUS
 10
118.584296509
 20
175.8369964231
  0
VERTEX
  8
0
 62
9
  6
CONTINUOUS
 10
118.647691172
 20
175.8843526273
  0
VERTEX
  8
0
 62
9
  6
CONTINUOUS
 10
118.7202246161
 20
175.9497573194
  0
VERTEX
  8
0
 62
9
  6
CONTINUOUS
 10
118.7257437713
 20
175.9645419368
  0
SEQEND
  0
LINE
  8
0
 62
7
  6
CONTINUOUS
 10
115.2301514791
 20
174.7511906406
 11
117.9460812489
 21
176.4328232272
  0
POLYLINE
  8
0
 62
9
  6
CONTINUOUS
 66
1
 70
0
  0
VERTEX
  8
0
 62
9
  6
CONTINUOUS
 10
115.7482228377
 20
174.0697331178
  0
VERTEX
  8
0
 62
9
  6
CONTINUOUS
 10
115.6533029526
 20
174.0122821988
  0
VERTEX
  8
0
 62
9
  6
CONTINUOUS
 10
115.4790382195
 20
173.9143019481
  0
VERTEX
  8
0
 62
9
  6
CONTINUOUS
 10
115.4083895351
 20
173.8786620297
  0
VERTEX
  8
0
 62
9
  6
CONTINUOUS
 10
115.3175111633
 20
173.8428863766
  0
VERTEX
  8
0
 62
9
  6
CONTINUOUS
 10
115.3018164909
 20
173.8445359196
  0
SEQEND
  0
POLYLINE
  8
0
 62
7
  6
CONTINUOUS
 66
1
 70
0
  0
VERTEX
  8
0
 62
7
  6
CONTINUOUS
 10
103.440924145
 20
170.8147652738
  0
VERTEX
  8
0
 62
7
  6
CONTINUOUS
 10
103.2853833328
 20
170.7511277925
  0
VERTEX
  8
0
 62
7
  6
CONTINUOUS
 10
103.148389933
 20
170.6977609793
  0
VERTEX
  8
0
 62
7
  6
CONTINUOUS
 10
103.0920052074
 20
170.6769518274
  0
VERTEX
  8
0
 62
7
  6
CONTINUOUS
 10
103.0117126071
 20
170.6501274808
  0
VERTEX
  8
0
 62
7
  6
CONTINUOUS
 10
102.9819683105
 20
170.6453760603
  0
SEQEND
  0
POLYLINE
  8
0
 62
7
  6
CONTINUOUS
 66
1
 70
0
  0
VERTEX
  8
0
 62
7
  6
CONTINUOUS
 10
117.9561172173
 20
176.4379817362
  0
VERTEX
  8
0
 62
7
  6
CONTINUOUS
 10
117.9526955899
 20
176.436586796
  0
VERTEX
  8
0
 62
7
  6
CONTINUOUS
 10
117.9493578121
 20
176.4348755798
  0
VERTEX
  8
0
 62
7
  6
CONTINUOUS
 10
117.946087972
 20
176.4328275104
  0
SEQEND
  0
POLYLINE
  8
0
 62
7
  6
CONTINUOUS
 66
1
 70
0
  0
VERTEX
  8
0
 62
7
  6
CONTINUOUS
 10
103.4409223181
 20
170.8147646031
  0
VERTEX
  8
0
 62
7
  6
CONTINUOUS
 10
103.4443880864
 20
170.8160385152
  0
VERTEX
  8
0
 62
7
  6
CONTINUOUS
 10
103.4480074997
 20
170.8170225267
  0
VERTEX
  8
0
 62
7
  6
CONTINUOUS
 10
103.4518036358
 20
170.817711844
  0
SEQEND
  0
POLYLINE
  8
0
 62
7
  6
CONTINUOUS
 66
1
 70
0
  0
VERTEX
  8
0
 62
7
  6
CONTINUOUS
 10
117.956113106
 20
176.4379800637
  0
VERTEX
  8
0
 62
7
  6
CONTINUOUS
 10
118.1139317003
 20
176.4957377179
  0
VERTEX
  8
0
 62
7
  6
CONTINUOUS
 10
118.2511243139
 20
176.5485901244
  0
VERTEX
  8
0
 62
7
  6
CONTINUOUS
 10
118.3068123303
 20
176.5711976002
  0
VERTEX
  8
0
 62
7
  6
CONTINUOUS
 10
118.3842212964
 20
176.6054652323
  0
VERTEX
  8
0
 62
7
  6
CONTINUOUS
 10
118.4094022165
 20
176.6219961704
  0
SEQEND
  0
POLYLINE
  8
0
 62
7
  6
CONTINUOUS
 66
1
 70
0
  0
VERTEX
  8
0
 62
7
  6
CONTINUOUS
 10
100.4282980136
 20
238.0418593153
  0
VERTEX
  8
0
 62
7
  6
CONTINUOUS
 10
100.5928838782
 20
238.0758324248
  0
VERTEX
  8
0
 62
7
  6
CONTINUOUS
 10
100.7373509067
 20
238.1031178039
  0
VERTEX
  8
0
 62
7
  6
CONTINUOUS
 10
100.7965992898
 20
238.113211802
  0
VERTEX
  8
0
 62
7
  6
CONTINUOUS
 10
100.8804538601
 20
238.1248250694
  0
VERTEX
  8
0
 62
7
  6
CONTINUOUS
 10
100.9105645284
 20
238.1240313518
  0
SEQEND
  0
POLYLINE
  8
0
 62
7
  6
CONTINUOUS
 66
1
 70
0
  0
VERTEX
  8
0
 62
7
  6
CONTINUOUS
 10
85.1269967926
 20
235.1815494263
  0
VERTEX
  8
0
 62
7
  6
CONTINUOUS
 10
85.1306101126
 20
235.1822907931
  0
VERTEX
  8
0
 62
7
  6
CONTINUOUS
 10
85.1342055226
 20
235.1833595622
  0
VERTEX
  8
0
 62
7
  6
CONTINUOUS
 10
85.1377960478
 20
235.1847719377
  0
SEQEND
  0
POLYLINE
  8
0
 62
7
  6
CONTINUOUS
 66
1
 70
0
  0
VERTEX
  8
0
 62
7
  6
CONTINUOUS
 10
100.4283120719
 20
238.0418616893
  0
VERTEX
  8
0
 62
7
  6
CONTINUOUS
 10
100.424659153
 20
238.0412440586
  0
VERTEX
  8
0
 62
7
  6
CONTINUOUS
 10
100.4209205805
 20
238.0409418726
  0
VERTEX
  8
0
 62
7
  6
CONTINUOUS
 10
100.4170624457
 20
238.0409618315
  0
SEQEND
  0
POLYLINE
  8
0
 62
7
  6
CONTINUOUS
 66
1
 70
0
  0
VERTEX
  8
0
 62
7
  6
CONTINUOUS
 10
85.1269947868
 20
235.1815490094
  0
VERTEX
  8
0
 62
7
  6
CONTINUOUS
 10
84.9612503743
 20
235.153774204
  0
VERTEX
  8
0
 62
7
  6
CONTINUOUS
 10
84.8166820787
 20
235.1270311528
  0
VERTEX
  8
0
 62
7
  6
CONTINUOUS
 10
84.757788114
 20
235.1150414913
  0
VERTEX
  8
0
 62
7
  6
CONTINUOUS
 10
84.6754003963
 20
235.0955820557
  0
VERTEX
  8
0
 62
7
  6
CONTINUOUS
 10
84.6476109743
 20
235.083957905
  0
SEQEND
  0
POLYLINE
  8
0
 62
9
  6
CONTINUOUS
 66
1
 70
0
  0
VERTEX
  8
0
 62
9
  6
CONTINUOUS
 10
97.3043909555
 20
238.8930782538
  0
VERTEX
  8
0
 62
9
  6
CONTINUOUS
 10
97.1934443388
 20
238.8919551619
  0
VERTEX
  8
0
 62
9
  6
CONTINUOUS
 10
96.9937009942
 20
238.8835211322
  0
VERTEX
  8
0
 62
9
  6
CONTINUOUS
 10
96.914871937
 20
238.8766310655
  0
VERTEX
  8
0
 62
9
  6
CONTINUOUS
 10
96.8187716274
 20
238.8592068134
  0
VERTEX
  8
0
 62
9
  6
CONTINUOUS
 10
96.806296049
 20
238.8495421392
  0
SEQEND
  0
POLYLINE
  8
0
 62
9
  6
CONTINUOUS
 66
1
 70
0
  0
VERTEX
  8
0
 62
9
  6
CONTINUOUS
 10
100.3353236711
 20
238.893078281
  0
VERTEX
  8
0
 62
9
  6
CONTINUOUS
 10
100.4462701956
 20
238.8919551564
  0
VERTEX
  8
0
 62
9
  6
CONTINUOUS
 10
100.646013013
 20
238.8835210841
  0
VERTEX
  8
0
 62
9
  6
CONTINUOUS
 10
100.7248417345
 20
238.8766310137
  0
VERTEX
  8
0
 62
9
  6
CONTINUOUS
 10
100.8209415379
 20
238.8592067892
  0
VERTEX
  8
0
 62
9
  6
CONTINUOUS
 10
100.8334170448
 20
238.8495421392
  0
SEQEND
  0
POLYLINE
  8
0
 62
7
  6
CONTINUOUS
 66
1
 70
0
  0
VERTEX
  8
0
 62
7
  6
CONTINUOUS
 10
112.5127196809
 20
235.1815498231
  0
VERTEX
  8
0
 62
7
  6
CONTINUOUS
 10
112.6784639652
 20
235.1537738484
  0
VERTEX
  8
0
 62
7
  6
CONTINUOUS
 10
112.823032112
 20
235.1270295305
  0
VERTEX
  8
0
 62
7
  6
CONTINUOUS
 10
112.881925981
 20
235.1150391136
  0
VERTEX
  8
0
 62
7
  6
CONTINUOUS
 10
112.9643133316
 20
235.0955770799
  0
VERTEX
  8
0
 62
7
  6
CONTINUOUS
 10
112.9921037187
 20
235.0839583298
  0
SEQEND
  0
POLYLINE
  8
0
 62
7
  6
CONTINUOUS
 66
1
 70
0
  0
VERTEX
  8
0
 62
7
  6
CONTINUOUS
 10
97.2114128802
 20
238.0418591752
  0
VERTEX
  8
0
 62
7
  6
CONTINUOUS
 10
97.2150552668
 20
238.0412440842
  0
VERTEX
  8
0
 62
7
  6
CONTINUOUS
 10
97.2187939391
 20
238.0409418766
  0
VERTEX
  8
0
 62
7
  6
CONTINUOUS
 10
97.2226521797
 20
238.0409618315
  0
SEQEND
  0
POLYLINE
  8
0
 62
7
  6
CONTINUOUS
 66
1
 70
0
  0
VERTEX
  8
0
 62
7
  6
CONTINUOUS
 10
112.5127223944
 20
235.1815492662
  0
VERTEX
  8
0
 62
7
  6
CONTINUOUS
 10
112.509104305
 20
235.1822908452
  0
VERTEX
  8
0
 62
7
  6
CONTINUOUS
 10
112.5055089994
 20
235.1833595978
  0
VERTEX
  8
0
 62
7
  6
CONTINUOUS
 10
112.5019185776
 20
235.1847719377
  0
SEQEND
  0
POLYLINE
  8
0
 62
7
  6
CONTINUOUS
 66
1
 70
0
  0
VERTEX
  8
0
 62
7
  6
CONTINUOUS
 10
97.2114161814
 20
238.0418586144
  0
VERTEX
  8
0
 62
7
  6
CONTINUOUS
 10
97.0468306133
 20
238.0758328196
  0
VERTEX
  8
0
 62
7
  6
CONTINUOUS
 10
96.9023638865
 20
238.1031193671
  0
VERTEX
  8
0
 62
7
  6
CONTINUOUS
 10
96.8431156728
 20
238.1132140444
  0
VERTEX
  8
0
 62
7
  6
CONTINUOUS
 10
96.7592616411
 20
238.124829605
  0
VERTEX
  8
0
 62
7
  6
CONTINUOUS
 10
96.7291500056
 20
238.1240309266
  0
SEQEND
  0
POLYLINE
  8
0
 62
9
  6
CONTINUOUS
 66
1
 70
0
  0
VERTEX
  8
0
 62
9
  6
CONTINUOUS
 10
109.9072588093
 20
237.1037734714
  0
VERTEX
  8
0
 62
9
  6
CONTINUOUS
 10
109.8033984623
 20
237.1428047627
  0
VERTEX
  8
0
 62
9
  6
CONTINUOUS
 10
109.6140965876
 20
237.2070958979
  0
VERTEX
  8
0
 62
9
  6
CONTINUOUS
 10
109.538101679
 20
237.2291474512
  0
VERTEX
  8
0
 62
9
  6
CONTINUOUS
 10
109.4421964063
 20
237.247615268
  0
VERTEX
  8
0
 62
9
  6
CONTINUOUS
 10
109.4270719869
 20
237.2431099266
  0
SEQEND
  0
LINE
  8
0
 62
7
  6
CONTINUOUS
 10
112.5019123082
 20
235.1847745386
 11
109.5232271721
 21
236.3387232231
  0
POLYLINE
  8
0
 62
9
  6
CONTINUOUS
 66
1
 70
0
  0
VERTEX
  8
0
 62
9
  6
CONTINUOUS
 10
112.7335194063
 20
236.0088743142
  0
VERTEX
  8
0
 62
9
  6
CONTINUOUS
 10
112.8365682398
 20
235.9677485244
  0
VERTEX
  8
0
 62
9
  6
CONTINUOUS
 10
113.0197761318
 20
235.887728558
  0
VERTEX
  8
0
 62
9
  6
CONTINUOUS
 10
113.090792745
 20
235.85282754
  0
VERTEX
  8
0
 62
9
  6
CONTINUOUS
 10
113.174108787
 20
235.8018646814
  0
VERTEX
  8
0
 62
9
  6
CONTINUOUS
 10
113.1822505765
 20
235.7883459907
  0
SEQEND
  0
POLYLINE
  8
0
 62
7
  6
CONTINUOUS
 66
1
 70
0
  0
VERTEX
  8
0
 62
7
  6
CONTINUOUS
 10
122.747844261
 20
228.1489941359
  0
VERTEX
  8
0
 62
7
  6
CONTINUOUS
 10
122.8923624525
 20
228.0632202416
  0
VERTEX
  8
0
 62
7
  6
CONTINUOUS
 10
123.0175071673
 20
227.9860580494
  0
VERTEX
  8
0
 62
7
  6
CONTINUOUS
 10
123.0680926816
 20
227.9536025019
  0
VERTEX
  8
0
 62
7
  6
CONTINUOUS
 10
123.1378862933
 20
227.905693298
  0
VERTEX
  8
0
 62
7
  6
CONTINUOUS
 10
123.1596024405
 20
227.8848193666
  0
SEQEND
  0
POLYLINE
  8
0
 62
7
  6
CONTINUOUS
 66
1
 70
0
  0
VERTEX
  8
0
 62
7
  6
CONTINUOUS
 10
109.5130553423
 20
236.3436280915
  0
VERTEX
  8
0
 62
7
  6
CONTINUOUS
 10
109.5162378386
 20
236.3417335001
  0
VERTEX
  8
0
 62
7
  6
CONTINUOUS
 10
109.519614843
 20
236.3401011579
  0
VERTEX
  8
0
 62
7
  6
CONTINUOUS
 10
109.5232197153
 20
236.3387260246
  0
SEQEND
  0
POLYLINE
  8
0
 62
7
  6
CONTINUOUS
 66
1
 70
0
  0
VERTEX
  8
0
 62
7
  6
CONTINUOUS
 10
122.7478419727
 20
228.1489956091
  0
VERTEX
  8
0
 62
7
  6
CONTINUOUS
 10
122.744740767
 20
228.1509912607
  0
VERTEX
  8
0
 62
7
  6
CONTINUOUS
 10
122.7417743072
 20
228.1532866258
  0
VERTEX
  8
0
 62
7
  6
CONTINUOUS
 10
122.7389365208
 20
228.1559006151
  0
SEQEND
  0
POLYLINE
  8
0
 62
7
  6
CONTINUOUS
 66
1
 70
0
  0
VERTEX
  8
0
 62
7
  6
CONTINUOUS
 10
109.5130666679
 20
236.3436213485
  0
VERTEX
  8
0
 62
7
  6
CONTINUOUS
 10
109.3718678321
 20
236.434756151
  0
VERTEX
  8
0
 62
7
  6
CONTINUOUS
 10
109.2470133673
 20
236.5123870946
  0
VERTEX
  8
0
 62
7
  6
CONTINUOUS
 10
109.1954124931
 20
236.543202771
  0
VERTEX
  8
0
 62
7
  6
CONTINUOUS
 10
109.1214163341
 20
236.584324605
  0
VERTEX
  8
0
 62
7
  6
CONTINUOUS
 10
109.0930507344
 20
236.5944593083
  0
SEQEND
  0
POLYLINE
  8
0
 62
9
  6
CONTINUOUS
 66
1
 70
0
  0
VERTEX
  8
0
 62
9
  6
CONTINUOUS
 10
121.0127116548
 20
230.8826154728
  0
VERTEX
  8
0
 62
9
  6
CONTINUOUS
 10
120.9299644936
 20
230.95652975
  0
VERTEX
  8
0
 62
9
  6
CONTINUOUS
 10
120.7766704134
 20
231.0848631461
  0
VERTEX
  8
0
 62
9
  6
CONTINUOUS
 10
120.7137732306
 20
231.1328781165
  0
VERTEX
  8
0
 62
9
  6
CONTINUOUS
 10
120.6310156044
 20
231.1847437971
  0
VERTEX
  8
0
 62
9
  6
CONTINUOUS
 10
120.6152849922
 20
231.1860062593
  0
SEQEND
  0
LINE
  8
0
 62
7
  6
CONTINUOUS
 10
122.7389316143
 20
228.1559053051
 11
120.3782447935
 21
230.3079555913
  0
POLYLINE
  8
0
 62
9
  6
CONTINUOUS
 66
1
 70
0
  0
VERTEX
  8
0
 62
9
  6
CONTINUOUS
 10
123.2525979774
 20
228.8406893261
  0
VERTEX
  8
0
 62
9
  6
CONTINUOUS
 10
123.3338318042
 20
228.7651151369
  0
VERTEX
  8
0
 62
9
  6
CONTINUOUS
 10
123.4757615296
 20
228.6243164162
  0
VERTEX
  8
0
 62
9
  6
CONTINUOUS
 10
123.5293748473
 20
228.5661180265
  0
VERTEX
  8
0
 62
9
  6
CONTINUOUS
 10
123.5886548348
 20
228.4884993503
  0
VERTEX
  8
0
 62
9
  6
CONTINUOUS
 10
123.5913633131
 20
228.4729523931
  0
SEQEND
  0
POLYLINE
  8
0
 62
7
  6
CONTINUOUS
 66
1
 70
0
  0
VERTEX
  8
0
 62
7
  6
CONTINUOUS
 10
129.7513616717
 20
217.8939780689
  0
VERTEX
  8
0
 62
7
  6
CONTINUOUS
 10
129.8551356077
 20
217.7617901603
  0
VERTEX
  8
0
 62
7
  6
CONTINUOUS
 10
129.9439552119
 20
217.6446309271
  0
VERTEX
  8
0
 62
7
  6
CONTINUOUS
 10
129.9794004071
 20
217.5960933525
  0
VERTEX
  8
0
 62
7
  6
CONTINUOUS
 10
130.027173887
 20
217.5262067201
  0
VERTEX
  8
0
 62
7
  6
CONTINUOUS
 10
130.0398837884
 20
217.4988981426
  0
SEQEND
  0
POLYLINE
  8
0
 62
7
  6
CONTINUOUS
 66
1
 70
0
  0
VERTEX
  8
0
 62
7
  6
CONTINUOUS
 10
120.3705379737
 20
230.3161951333
  0
VERTEX
  8
0
 62
7
  6
CONTINUOUS
 10
120.3728148039
 20
230.3132875026
  0
VERTEX
  8
0
 62
7
  6
CONTINUOUS
 10
120.3753741251
 20
230.3105454344
  0
VERTEX
  8
0
 62
7
  6
CONTINUOUS
 10
120.378238849
 20
230.3079608953
  0
SEQEND
  0
POLYLINE
  8
0
 62
7
  6
CONTINUOUS
 66
1
 70
0
  0
VERTEX
  8
0
 62
7
  6
CONTINUOUS
 10
129.7513621941
 20
217.8939773504
  0
VERTEX
  8
0
 62
7
  6
CONTINUOUS
 10
129.7491890902
 20
217.8969613444
  0
VERTEX
  8
0
 62
7
  6
CONTINUOUS
 10
129.7472521423
 20
217.9001733025
  0
VERTEX
  8
0
 62
7
  6
CONTINUOUS
 10
129.7455502767
 20
217.9036358841
  0
SEQEND
  0
POLYLINE
  8
0
 62
7
  6
CONTINUOUS
 66
1
 70
0
  0
VERTEX
  8
0
 62
7
  6
CONTINUOUS
 10
120.3705394421
 20
230.316193252
  0
VERTEX
  8
0
 62
7
  6
CONTINUOUS
 10
120.2717975918
 20
230.452181124
  0
VERTEX
  8
0
 62
7
  6
CONTINUOUS
 10
120.1834183083
 20
230.5696727876
  0
VERTEX
  8
0
 62
7
  6
CONTINUOUS
 10
120.146434145
 20
230.6170481441
  0
VERTEX
  8
0
 62
7
  6
CONTINUOUS
 10
120.0922908172
 20
230.6821243791
  0
VERTEX
  8
0
 62
7
  6
CONTINUOUS
 10
120.0694996032
 20
230.7018199437
  0
SEQEND
  0
POLYLINE
  8
0
 62
9
  6
CONTINUOUS
 66
1
 70
0
  0
VERTEX
  8
0
 62
9
  6
CONTINUOUS
 10
129.1208965459
 20
221.0698061133
  0
VERTEX
  8
0
 62
9
  6
CONTINUOUS
 10
129.0704380327
 20
221.1686208464
  0
VERTEX
  8
0
 62
9
  6
CONTINUOUS
 10
128.9738549301
 20
221.3436643826
  0
VERTEX
  8
0
 62
9
  6
CONTINUOUS
 10
128.932550062
 20
221.4111580917
  0
VERTEX
  8
0
 62
9
  6
CONTINUOUS
 10
128.8741169191
 20
221.4894169004
  0
VERTEX
  8
0
 62
9
  6
CONTINUOUS
 10
128.8599046141
 20
221.4962766637
  0
SEQEND
  0
LINE
  8
0
 62
7
  6
CONTINUOUS
 10
129.7455473958
 20
217.9036420298
 11
128.3216827284
 21
220.7631475993
  0
POLYLINE
  8
0
 62
9
  6
CONTINUOUS
 66
1
 70
0
  0
VERTEX
  8
0
 62
9
  6
CONTINUOUS
 10
130.4718995353
 20
218.3566264197
  0
VERTEX
  8
0
 62
9
  6
CONTINUOUS
 10
130.5203472768
 20
218.256810544
  0
VERTEX
  8
0
 62
9
  6
CONTINUOUS
 10
130.6018304399
 20
218.0742487166
  0
VERTEX
  8
0
 62
9
  6
CONTINUOUS
 10
130.6307996865
 20
218.0006129702
  0
VERTEX
  8
0
 62
9
  6
CONTINUOUS
 10
130.6580375287
 20
217.9068213087
  0
VERTEX
  8
0
 62
9
  6
CONTINUOUS
 10
130.6549469007
 20
217.8913457877
  0
SEQEND
  0
POLYLINE
  8
0
 62
7
  6
CONTINUOUS
 66
1
 70
0
  0
VERTEX
  8
0
 62
7
  6
CONTINUOUS
 10
132.5774079655
 20
205.8014979246
  0
VERTEX
  8
0
 62
7
  6
CONTINUOUS
 10
132.6264225402
 20
205.6407489168
  0
VERTEX
  8
0
 62
7
  6
CONTINUOUS
 10
132.6669216001
 20
205.4994158589
  0
VERTEX
  8
0
 62
7
  6
CONTINUOUS
 10
132.6824394882
 20
205.4413516452
  0
VERTEX
  8
0
 62
7
  6
CONTINUOUS
 10
132.7017410328
 20
205.3589265521
  0
VERTEX
  8
0
 62
7
  6
CONTINUOUS
 10
132.7037274997
 20
205.328870667
  0
SEQEND
  0
POLYLINE
  8
0
 62
7
  6
CONTINUOUS
 66
1
 70
0
  0
VERTEX
  8
0
 62
7
  6
CONTINUOUS
 10
128.3174731404
 20
220.7736137334
  0
VERTEX
  8
0
 62
7
  6
CONTINUOUS
 10
128.3185455211
 20
220.770080988
  0
VERTEX
  8
0
 62
7
  6
CONTINUOUS
 10
128.3199414666
 20
220.7665995563
  0
VERTEX
  8
0
 62
7
  6
CONTINUOUS
 10
128.3216790971
 20
220.7631546917
  0
SEQEND
  0
POLYLINE
  8
0
 62
7
  6
CONTINUOUS
 66
1
 70
0
  0
VERTEX
  8
0
 62
7
  6
CONTINUOUS
 10
132.5774083879
 20
205.801496334
  0
VERTEX
  8
0
 62
7
  6
CONTINUOUS
 10
132.576459805
 20
205.8050645846
  0
VERTEX
  8
0
 62
7
  6
CONTINUOUS
 10
132.5758139469
 20
205.8087593564
  0
VERTEX
  8
0
 62
7
  6
CONTINUOUS
 10
132.5754778327
 20
205.8126029065
  0
SEQEND
  0
POLYLINE
  8
0
 62
7
  6
CONTINUOUS
 66
1
 70
0
  0
VERTEX
  8
0
 62
7
  6
CONTINUOUS
 10
128.3174735175
 20
220.7736124788
  0
VERTEX
  8
0
 62
7
  6
CONTINUOUS
 10
128.2745239229
 20
220.9360870536
  0
VERTEX
  8
0
 62
7
  6
CONTINUOUS
 10
128.2345555269
 20
221.0775710355
  0
VERTEX
  8
0
 62
7
  6
CONTINUOUS
 10
128.2171827411
 20
221.1351074532
  0
VERTEX
  8
0
 62
7
  6
CONTINUOUS
 10
128.1902037186
 20
221.2153480321
  0
VERTEX
  8
0
 62
7
  6
CONTINUOUS
 10
128.17606664
 20
221.2419468005
  0
SEQEND
  0
LINE
  8
0
 62
9
  6
CONTINUOUS
 10
134.8271417509
 20
209.1471623897
 11
135.1067835867
 21
206.1293464597
  0
LINE
  8
0
 62
7
  6
CONTINUOUS
 10
135.2794643229
 20
209.2081988577
 11
135.5626199385
 21
206.1524631177
  0
POLYLINE
  8
0
 62
9
  6
CONTINUOUS
 66
1
 70
0
  0
VERTEX
  8
0
 62
9
  6
CONTINUOUS
 10
135.1067838436
 20
206.1293413933
  0
VERTEX
  8
0
 62
9
  6
CONTINUOUS
 10
135.1210499377
 20
205.9389042768
  0
VERTEX
  8
0
 62
9
  6
CONTINUOUS
 10
135.1265449695
 20
205.7770420815
  0
VERTEX
  8
0
 62
9
  6
CONTINUOUS
 10
135.1224451105
 20
205.668343116
  0
VERTEX
  8
0
 62
9
  6
CONTINUOUS
 10
135.1093961048
 20
205.6292667095
  0
SEQEND
  0
POLYLINE
  8
0
 62
9
  6
CONTINUOUS
 66
1
 70
0
  0
VERTEX
  8
0
 62
9
  6
CONTINUOUS
 10
134.1507188276
 20
195.8117567219
  0
VERTEX
  8
0
 62
9
  6
CONTINUOUS
 10
134.1996976959
 20
195.9961759687
  0
VERTEX
  8
0
 62
9
  6
CONTINUOUS
 10
134.2348322012
 20
196.1541879772
  0
VERTEX
  8
0
 62
9
  6
CONTINUOUS
 10
134.2507978439
 20
196.2618466338
  0
VERTEX
  8
0
 62
9
  6
CONTINUOUS
 10
134.2451750921
 20
196.3028366823
  0
SEQEND
  0
LINE
  8
0
 62
9
  6
CONTINUOUS
 10
134.1507176885
 20
195.8117519743
 11
133.3213150797
 21
192.8967041435
  0
LINE
  8
0
 62
7
  6
CONTINUOUS
 10
134.594544841
 20
195.7052690262
 11
133.754720519
 21
192.7535927019
  0
POLYLINE
  8
0
 62
9
  6
CONTINUOUS
 66
1
 70
0
  0
VERTEX
  8
0
 62
9
  6
CONTINUOUS
 10
133.3213134891
 20
192.8966993264
  0
VERTEX
  8
0
 62
9
  6
CONTINUOUS
 10
133.2658224044
 20
192.7139684963
  0
VERTEX
  8
0
 62
9
  6
CONTINUOUS
 10
133.2124749998
 20
192.5610514597
  0
VERTEX
  8
0
 62
9
  6
CONTINUOUS
 10
133.1693853998
 20
192.4611737329
  0
VERTEX
  8
0
 62
9
  6
CONTINUOUS
 10
133.1431015381
 20
192.4294499135
  0
SEQEND
  0
POLYLINE
  8
0
 62
9
  6
CONTINUOUS
 66
1
 70
0
  0
VERTEX
  8
0
 62
9
  6
CONTINUOUS
 10
128.7026679345
 20
183.6212086652
  0
VERTEX
  8
0
 62
9
  6
CONTINUOUS
 10
128.814959285
 20
183.7754812834
  0
VERTEX
  8
0
 62
9
  6
CONTINUOUS
 10
128.9048017567
 20
183.910131046
  0
VERTEX
  8
0
 62
9
  6
CONTINUOUS
 10
128.9585800676
 20
184.0047522982
  0
VERTEX
  8
0
 62
9
  6
CONTINUOUS
 10
128.9681443211
 20
184.0450055523
  0
SEQEND
  0
LINE
  8
0
 62
9
  6
CONTINUOUS
 10
128.7026651573
 20
183.6212046497
 11
126.8762335221
 21
181.2026182804
  0
LINE
  8
0
 62
7
  6
CONTINUOUS
 10
129.078055574
 20
183.3615833976
 11
127.2286742427
 21
180.9126067324
  0
POLYLINE
  8
0
 62
9
  6
CONTINUOUS
 66
1
 70
0
  0
VERTEX
  8
0
 62
9
  6
CONTINUOUS
 10
126.8762302989
 20
181.2026143632
  0
VERTEX
  8
0
 62
9
  6
CONTINUOUS
 10
126.7584764138
 20
181.0522686305
  0
VERTEX
  8
0
 62
9
  6
CONTINUOUS
 10
126.6534914354
 20
180.9289490459
  0
VERTEX
  8
0
 62
9
  6
CONTINUOUS
 10
126.5772315836
 20
180.8513815982
  0
VERTEX
  8
0
 62
9
  6
CONTINUOUS
 10
126.5412626472
 20
180.8312948436
  0
SEQEND
  0
POLYLINE
  8
0
 62
9
  6
CONTINUOUS
 66
1
 70
0
  0
VERTEX
  8
0
 62
9
  6
CONTINUOUS
 10
119.2187778805
 20
174.2219241232
  0
VERTEX
  8
0
 62
9
  6
CONTINUOUS
 10
119.3792161441
 20
174.3252147409
  0
VERTEX
  8
0
 62
9
  6
CONTINUOUS
 10
119.5116328586
 20
174.418317061
  0
VERTEX
  8
0
 62
9
  6
CONTINUOUS
 10
119.5959607788
 20
174.4871217844
  0
VERTEX
  8
0
 62
9
  6
CONTINUOUS
 10
119.6194203322
 20
174.5212018191
  0
SEQEND
  0
LINE
  8
0
 62
9
  6
CONTINUOUS
 10
119.2187738403
 20
174.2219213821
 11
116.6419828917
 21
172.6264399654
  0
LINE
  8
0
 62
7
  6
CONTINUOUS
 10
119.4750289654
 20
173.8442251148
 11
116.8658598214
 21
172.2286959775
  0
POLYLINE
  8
0
 62
9
  6
CONTINUOUS
 66
1
 70
0
  0
VERTEX
  8
0
 62
9
  6
CONTINUOUS
 10
116.6419784711
 20
172.6264374771
  0
VERTEX
  8
0
 62
9
  6
CONTINUOUS
 10
116.4778651004
 20
172.5287818662
  0
VERTEX
  8
0
 62
9
  6
CONTINUOUS
 10
116.3354213513
 20
172.4517147266
  0
VERTEX
  8
0
 62
9
  6
CONTINUOUS
 10
116.2362905632
 20
172.4069334717
  0
VERTEX
  8
0
 62
9
  6
CONTINUOUS
 10
116.1954943561
 20
172.4011966094
  0
SEQEND
  0
POLYLINE
  8
0
 62
9
  6
CONTINUOUS
 66
1
 70
0
  0
VERTEX
  8
0
 62
9
  6
CONTINUOUS
 10
97.3044800631
 20
240.5906946778
  0
VERTEX
  8
0
 62
9
  6
CONTINUOUS
 10
97.1136971989
 20
240.5873350869
  0
VERTEX
  8
0
 62
9
  6
CONTINUOUS
 10
96.9521021835
 20
240.5778863163
  0
VERTEX
  8
0
 62
9
  6
CONTINUOUS
 10
96.8441841213
 20
240.5637802909
  0
VERTEX
  8
0
 62
9
  6
CONTINUOUS
 10
96.8062975806
 20
240.5471547249
  0
SEQEND
  0
LINE
  8
0
 62
9
  6
CONTINUOUS
 10
97.3044849412
 20
240.5906948815
 11
100.3352294939
 21
240.5906948894
  0
LINE
  8
0
 62
7
  6
CONTINUOUS
 10
100.3542707198
 20
241.0467196598
 11
97.2854439056
 21
241.0467196598
  0
POLYLINE
  8
0
 62
9
  6
CONTINUOUS
 66
1
 70
0
  0
VERTEX
  8
0
 62
9
  6
CONTINUOUS
 10
100.3352345623
 20
240.5906946778
  0
VERTEX
  8
0
 62
9
  6
CONTINUOUS
 10
100.5261756168
 20
240.5873285949
  0
VERTEX
  8
0
 62
9
  6
CONTINUOUS
 10
100.6878543541
 20
240.5778654266
  0
VERTEX
  8
0
 62
9
  6
CONTINUOUS
 10
100.7957113417
 20
240.5637535817
  0
VERTEX
  8
0
 62
9
  6
CONTINUOUS
 10
100.8334170448
 20
240.5471547249
  0
SEQEND
  0
POLYLINE
  8
0
 62
9
  6
CONTINUOUS
 66
1
 70
0
  0
VERTEX
  8
0
 62
9
  6
CONTINUOUS
 10
110.5205916859
 20
238.6867214553
  0
VERTEX
  8
0
 62
9
  6
CONTINUOUS
 10
110.3414783389
 20
238.7525074498
  0
VERTEX
  8
0
 62
9
  6
CONTINUOUS
 10
110.187382185
 20
238.8020715863
  0
VERTEX
  8
0
 62
9
  6
CONTINUOUS
 10
110.0816559049
 20
238.8279026099
  0
VERTEX
  8
0
 62
9
  6
CONTINUOUS
 10
110.0403219106
 20
238.8260859284
  0
SEQEND
  0
LINE
  8
0
 62
9
  6
CONTINUOUS
 10
110.5205963081
 20
238.686719883
 11
113.3466814408
 21
237.5918886784
  0
LINE
  8
0
 62
7
  6
CONTINUOUS
 10
110.667576222
 20
239.1188287402
 11
113.5291720031
 21
238.0102406286
  0
POLYLINE
  8
0
 62
9
  6
CONTINUOUS
 66
1
 70
0
  0
VERTEX
  8
0
 62
9
  6
CONTINUOUS
 10
113.3466860905
 20
237.5918866502
  0
VERTEX
  8
0
 62
9
  6
CONTINUOUS
 10
113.5235173518
 20
237.5197720068
  0
VERTEX
  8
0
 62
9
  6
CONTINUOUS
 10
113.6708597938
 20
237.4525427687
  0
VERTEX
  8
0
 62
9
  6
CONTINUOUS
 10
113.7663356531
 20
237.4004214273
  0
VERTEX
  8
0
 62
9
  6
CONTINUOUS
 10
113.7954989755
 20
237.3713225832
  0
SEQEND
  0
POLYLINE
  8
0
 62
9
  6
CONTINUOUS
 66
1
 70
0
  0
VERTEX
  8
0
 62
9
  6
CONTINUOUS
 10
122.1564542955
 20
232.1371091167
  0
VERTEX
  8
0
 62
9
  6
CONTINUOUS
 10
122.0132007158
 20
232.2631559335
  0
VERTEX
  8
0
 62
9
  6
CONTINUOUS
 10
121.8874149628
 20
232.3650390657
  0
VERTEX
  8
0
 62
9
  6
CONTINUOUS
 10
121.7981593848
 20
232.4273185156
  0
VERTEX
  8
0
 62
9
  6
CONTINUOUS
 10
121.7589603219
 20
232.4405560714
  0
SEQEND
  0
LINE
  8
0
 62
9
  6
CONTINUOUS
 10
122.1564580376
 20
232.1371059808
 11
124.3962052932
 21
230.0953065846
  0
LINE
  8
0
 62
7
  6
CONTINUOUS
 10
122.4496084492
 20
232.4869402212
 11
124.7174988302
 21
230.4194849654
  0
POLYLINE
  8
0
 62
9
  6
CONTINUOUS
 66
1
 70
0
  0
VERTEX
  8
0
 62
9
  6
CONTINUOUS
 10
124.3962088963
 20
230.0953030136
  0
VERTEX
  8
0
 62
9
  6
CONTINUOUS
 10
124.5350483228
 20
229.9641792918
  0
VERTEX
  8
0
 62
9
  6
CONTINUOUS
 10
124.6481550562
 20
229.848263665
  0
VERTEX
  8
0
 62
9
  6
CONTINUOUS
 10
124.7183552434
 20
229.7651721031
  0
VERTEX
  8
0
 62
9
  6
CONTINUOUS
 10
124.7350375167
 20
229.7275032319
  0
SEQEND
  0
POLYLINE
  8
0
 62
9
  6
CONTINUOUS
 66
1
 70
0
  0
VERTEX
  8
0
 62
9
  6
CONTINUOUS
 10
130.6405801701
 20
221.8264191009
  0
VERTEX
  8
0
 62
9
  6
CONTINUOUS
 10
130.5525335474
 20
221.995703419
  0
VERTEX
  8
0
 62
9
  6
CONTINUOUS
 10
130.4720462583
 20
222.1361456655
  0
VERTEX
  8
0
 62
9
  6
CONTINUOUS
 10
130.4113158427
 20
222.2264623566
  0
VERTEX
  8
0
 62
9
  6
CONTINUOUS
 10
130.3795457619
 20
222.2529663446
  0
SEQEND
  0
LINE
  8
0
 62
9
  6
CONTINUOUS
 10
130.6405825267
 20
221.826414825
 11
131.9915016275
 21
219.1134035595
  0
LINE
  8
0
 62
7
  6
CONTINUOUS
 10
131.0403118484
 20
222.046727396
 11
132.4082056667
 21
219.2996262844
  0
POLYLINE
  8
0
 62
9
  6
CONTINUOUS
 66
1
 70
0
  0
VERTEX
  8
0
 62
9
  6
CONTINUOUS
 10
131.9915036973
 20
219.1133989281
  0
VERTEX
  8
0
 62
9
  6
CONTINUOUS
 10
132.0736002551
 20
218.9409751131
  0
VERTEX
  8
0
 62
9
  6
CONTINUOUS
 10
132.1371955888
 20
218.7920281454
  0
VERTEX
  8
0
 62
9
  6
CONTINUOUS
 10
132.1726391796
 20
218.6891883388
  0
VERTEX
  8
0
 62
9
  6
CONTINUOUS
 10
132.1745873703
 20
218.6480368304
  0
SEQEND
  0
POLYLINE
  8
0
 62
9
  6
CONTINUOUS
 66
1
 70
0
  0
VERTEX
  8
0
 62
9
  6
CONTINUOUS
 10
134.8271410981
 20
209.1471672281
  0
VERTEX
  8
0
 62
9
  6
CONTINUOUS
 10
134.8061926167
 20
209.3368262624
  0
VERTEX
  8
0
 62
9
  6
CONTINUOUS
 10
134.7818740459
 20
209.4968601194
  0
VERTEX
  8
0
 62
9
  6
CONTINUOUS
 10
134.7578707718
 20
209.6030162823
  0
VERTEX
  8
0
 62
9
  6
CONTINUOUS
 10
134.7378203985
 20
209.6392071919
  0
SEQEND
  0
LINE
  8
0
 62
9
  6
CONTINUOUS
 10
62.077094687
 20
108.9352570235
 11
62.0882672388
 21
108.8300820813
  0
LINE
  8
0
 62
7
  6
CONTINUOUS
 10
62.0764527004
 20
118.4939938683
 11
62.0764527004
 21
108.9352570235
  0
LINE
  8
0
 62
9
  6
CONTINUOUS
 10
62.3602503026
 20
108.9352570235
 11
62.3602503026
 21
118.4939938683
  0
LINE
  8
0
 62
9
  6
CONTINUOUS
 10
62.9018942269
 20
108.9352570142
 11
62.9018942269
 21
118.4939938776
  0
POLYLINE
  8
0
 62
9
  6
CONTINUOUS
 66
1
 70
0
  0
VERTEX
  8
0
 62
9
  6
CONTINUOUS
 10
62.3602503026
 20
118.4939938683
  0
VERTEX
  8
0
 62
9
  6
CONTINUOUS
 10
62.3713367539
 20
118.5991688105
  0
VERTEX
  8
0
 62
9
  6
CONTINUOUS
 10
62.4570740068
 20
118.7909039611
  0
VERTEX
  8
0
 62
9
  6
CONTINUOUS
 10
62.5278882668
 20
118.8688844698
  0
VERTEX
  8
0
 62
9
  6
CONTINUOUS
 10
62.709705986
 20
118.9717802712
  0
VERTEX
  8
0
 62
9
  6
CONTINUOUS
 10
62.8125735274
 20
118.9920912174
  0
SEQEND
  0
LINE
  8
0
 62
9
  6
CONTINUOUS
 10
62.0882672388
 20
118.5991688105
 11
62.077094687
 21
118.4939938683
  0
POLYLINE
  8
0
 62
7
  6
CONTINUOUS
 66
1
 70
0
  0
VERTEX
  8
0
 62
7
  6
CONTINUOUS
 10
62.0764527004
 20
118.4939938683
  0
VERTEX
  8
0
 62
7
  6
CONTINUOUS
 10
62.1117927294
 20
118.6786316526
  0
VERTEX
  8
0
 62
7
  6
CONTINUOUS
 10
62.2093299747
 20
118.8334359168
  0
VERTEX
  8
0
 62
7
  6
CONTINUOUS
 10
62.355146632
 20
118.9423504497
  0
VERTEX
  8
0
 62
7
  6
CONTINUOUS
 10
62.5327492638
 20
118.9920802156
  0
SEQEND
  0
LINE
  8
0
 62
9
  6
CONTINUOUS
 10
62.1746703515
 20
118.7909039611
 11
62.0882672388
 21
118.5991688105
  0
LINE
  8
0
 62
9
  6
CONTINUOUS
 10
62.0882672388
 20
108.8300820813
 11
62.1746703515
 21
108.6383469307
  0
POLYLINE
  8
0
 62
9
  6
CONTINUOUS
 66
1
 70
0
  0
VERTEX
  8
0
 62
9
  6
CONTINUOUS
 10
65.2315089588
 20
108.9352570235
  0
VERTEX
  8
0
 62
9
  6
CONTINUOUS
 10
65.2417223324
 20
108.8300820813
  0
VERTEX
  8
0
 62
9
  6
CONTINUOUS
 10
65.3207076247
 20
108.6383469307
  0
VERTEX
  8
0
 62
9
  6
CONTINUOUS
 10
65.3859451362
 20
108.560366422
  0
VERTEX
  8
0
 62
9
  6
CONTINUOUS
 10
65.5534443879
 20
108.4574706206
  0
SEQEND
  0
LINE
  8
0
 62
9
  6
CONTINUOUS
 10
64.5922650966
 20
108.7868707396
 11
64.5922650966
 21
118.6423801522
  0
LINE
  8
0
 62
7
  6
CONTINUOUS
 10
65.187996433
 20
118.4939938683
 11
65.187996433
 21
108.9352570235
  0
LINE
  8
0
 62
9
  6
CONTINUOUS
 10
65.2315089588
 20
118.4939938683
 11
65.2315089588
 21
108.9352570235
  0
POLYLINE
  8
0
 62
7
  6
CONTINUOUS
 66
1
 70
0
  0
VERTEX
  8
0
 62
7
  6
CONTINUOUS
 10
65.187996433
 20
118.4939938683
  0
VERTEX
  8
0
 62
7
  6
CONTINUOUS
 10
65.223201815
 20
118.6782924388
  0
VERTEX
  8
0
 62
7
  6
CONTINUOUS
 10
65.3230428439
 20
118.8357670062
  0
VERTEX
  8
0
 62
7
  6
CONTINUOUS
 10
65.4735001611
 20
118.9456478834
  0
VERTEX
  8
0
 62
7
  6
CONTINUOUS
 10
65.639576829
 20
118.9916438856
  0
SEQEND
  0
LINE
  8
0
 62
7
  6
CONTINUOUS
 10
65.2056095173
 20
108.803716674
 11
65.1879964372
 21
108.9352570235
  0
LINE
  8
0
 62
9
  6
CONTINUOUS
 10
66.5994027771
 20
108.9352570235
 11
66.5994027771
 21
118.4939938683
  0
LINE
  8
0
 62
9
  6
CONTINUOUS
 10
67.2601688636
 20
108.9352570142
 11
67.2601688636
 21
118.4939938776
  0
POLYLINE
  8
0
 62
9
  6
CONTINUOUS
 66
1
 70
0
  0
VERTEX
  8
0
 62
9
  6
CONTINUOUS
 10
66.5994027771
 20
118.4939938683
  0
VERTEX
  8
0
 62
9
  6
CONTINUOUS
 10
66.6092002085
 20
118.5991688105
  0
VERTEX
  8
0
 62
9
  6
CONTINUOUS
 10
66.6849688052
 20
118.7909039611
  0
VERTEX
  8
0
 62
9
  6
CONTINUOUS
 10
66.7475495029
 20
118.8688844698
  0
VERTEX
  8
0
 62
9
  6
CONTINUOUS
 10
66.908227306
 20
118.9717802712
  0
VERTEX
  8
0
 62
9
  6
CONTINUOUS
 10
66.9991344554
 20
118.9920912174
  0
SEQEND
  0
POLYLINE
  8
0
 62
7
  6
CONTINUOUS
 66
1
 70
0
  0
VERTEX
  8
0
 62
7
  6
CONTINUOUS
 10
65.3591230376
 20
119.2145004114
  0
VERTEX
  8
0
 62
7
  6
CONTINUOUS
 10
65.3404806062
 20
119.1813956946
  0
VERTEX
  8
0
 62
7
  6
CONTINUOUS
 10
65.3266410265
 20
119.0935399994
  0
VERTEX
  8
0
 62
7
  6
CONTINUOUS
 10
65.3220566459
 20
119.032092901
  0
VERTEX
  8
0
 62
7
  6
CONTINUOUS
 10
65.3182293676
 20
118.8832092136
  0
VERTEX
  8
0
 62
7
  6
CONTINUOUS
 10
65.3193571295
 20
118.829953702
  0
SEQEND
  0
LINE
  8
0
 62
9
  6
CONTINUOUS
 10
62.246034575
 20
118.8688844698
 11
62.1746703515
 21
118.7909039611
  0
LINE
  8
0
 62
9
  6
CONTINUOUS
 10
62.1746703515
 20
108.6383469307
 11
62.246034575
 21
108.560366422
  0
POLYLINE
  8
0
 62
7
  6
CONTINUOUS
 66
1
 70
0
  0
VERTEX
  8
0
 62
7
  6
CONTINUOUS
 10
65.3591230374
 20
108.2147504804
  0
VERTEX
  8
0
 62
7
  6
CONTINUOUS
 10
65.3404806062
 20
108.2478551972
  0
VERTEX
  8
0
 62
7
  6
CONTINUOUS
 10
65.3266410271
 20
108.3357108924
  0
VERTEX
  8
0
 62
7
  6
CONTINUOUS
 10
65.3220566471
 20
108.3971579907
  0
VERTEX
  8
0
 62
7
  6
CONTINUOUS
 10
65.3182293729
 20
108.546041678
  0
VERTEX
  8
0
 62
7
  6
CONTINUOUS
 10
65.3196212024
 20
108.611767153
  0
SEQEND
  0
LINE
  8
0
 62
9
  6
CONTINUOUS
 10
68.7798093332
 20
108.7868707396
 11
68.7798093332
 21
118.6423801522
  0
LINE
  8
0
 62
7
  6
CONTINUOUS
 10
70.2798573127
 20
105.7146254459
 11
70.2798573127
 21
108.2146254459
  0
LINE
  8
0
 62
7
  6
CONTINUOUS
 10
70.2798573127
 20
119.2146254459
 11
70.2798573127
 21
121.7146254459
  0
POLYLINE
  8
0
 62
9
  6
CONTINUOUS
 66
1
 70
0
  0
VERTEX
  8
0
 62
9
  6
CONTINUOUS
 10
62.8125735274
 20
108.4371596744
  0
VERTEX
  8
0
 62
9
  6
CONTINUOUS
 10
62.833543069
 20
108.4756591633
  0
VERTEX
  8
0
 62
9
  6
CONTINUOUS
 10
62.8578837009
 20
108.5839294746
  0
VERTEX
  8
0
 62
9
  6
CONTINUOUS
 10
62.8818871345
 20
108.7454980685
  0
VERTEX
  8
0
 62
9
  6
CONTINUOUS
 10
62.9018942269
 20
108.9352570235
  0
SEQEND
  0
POLYLINE
  8
0
 62
9
  6
CONTINUOUS
 66
1
 70
0
  0
VERTEX
  8
0
 62
9
  6
CONTINUOUS
 10
62.8125735274
 20
118.9920912174
  0
VERTEX
  8
0
 62
9
  6
CONTINUOUS
 10
62.8335220088
 20
118.9536574752
  0
VERTEX
  8
0
 62
9
  6
CONTINUOUS
 10
62.8578405796
 20
118.8455634772
  0
VERTEX
  8
0
 62
9
  6
CONTINUOUS
 10
62.8818438537
 20
118.6841904541
  0
VERTEX
  8
0
 62
9
  6
CONTINUOUS
 10
62.9018942269
 20
118.4939938683
  0
SEQEND
  0
POLYLINE
  8
0
 62
9
  6
CONTINUOUS
 66
1
 70
0
  0
VERTEX
  8
0
 62
9
  6
CONTINUOUS
 10
72.9222157952
 20
108.9352570235
  0
VERTEX
  8
0
 62
9
  6
CONTINUOUS
 10
72.9300906179
 20
108.8300820813
  0
VERTEX
  8
0
 62
9
  6
CONTINUOUS
 10
72.9909906885
 20
108.6383469307
  0
VERTEX
  8
0
 62
9
  6
CONTINUOUS
 10
73.0412908006
 20
108.560366422
  0
VERTEX
  8
0
 62
9
  6
CONTINUOUS
 10
73.1704378348
 20
108.4574706206
  0
SEQEND
  0
LINE
  8
0
 62
7
  6
CONTINUOUS
 10
72.7741815674
 20
118.4939938683
 11
72.7741815674
 21
108.9352570235
  0
LINE
  8
0
 62
9
  6
CONTINUOUS
 10
72.9222157952
 20
118.4939938683
 11
72.9222157952
 21
108.9352570235
  0
POLYLINE
  8
0
 62
7
  6
CONTINUOUS
 66
1
 70
0
  0
VERTEX
  8
0
 62
7
  6
CONTINUOUS
 10
72.7741815674
 20
118.4939938683
  0
VERTEX
  8
0
 62
7
  6
CONTINUOUS
 10
72.7857355364
 20
118.6008604899
  0
VERTEX
  8
0
 62
7
  6
CONTINUOUS
 10
72.874983599
 20
118.7950602763
  0
VERTEX
  8
0
 62
7
  6
CONTINUOUS
 10
72.948552082
 20
118.8734216457
  0
VERTEX
  8
0
 62
7
  6
CONTINUOUS
 10
73.1367395428
 20
118.9747325602
  0
VERTEX
  8
0
 62
7
  6
CONTINUOUS
 10
73.2101000799
 20
118.9898704285
  0
SEQEND
  0
LINE
  8
0
 62
9
  6
CONTINUOUS
 10
73.2167753274
 20
119.0263703475
 11
73.2034763483
 21
118.9924688017
  0
LINE
  8
0
 62
9
  6
CONTINUOUS
 10
73.2167751377
 20
108.4028808365
 11
73.2034311343
 21
108.4368972034
  0
LINE
  8
0
 62
9
  6
CONTINUOUS
 10
75.1901061763
 20
108.9352570235
 11
75.1901061763
 21
118.4939938683
  0
LINE
  8
0
 62
9
  6
CONTINUOUS
 10
75.8807543035
 20
108.9352570142
 11
75.8807543035
 21
118.4939938776
  0
POLYLINE
  8
0
 62
9
  6
CONTINUOUS
 66
1
 70
0
  0
VERTEX
  8
0
 62
9
  6
CONTINUOUS
 10
75.1901061763
 20
118.4939938683
  0
VERTEX
  8
0
 62
9
  6
CONTINUOUS
 10
75.1972913905
 20
118.5991688105
  0
VERTEX
  8
0
 62
9
  6
CONTINUOUS
 10
75.2528583622
 20
118.7909039611
  0
VERTEX
  8
0
 62
9
  6
CONTINUOUS
 10
75.2987536276
 20
118.8688844698
  0
VERTEX
  8
0
 62
9
  6
CONTINUOUS
 10
75.4165910869
 20
118.9717802712
  0
VERTEX
  8
0
 62
9
  6
CONTINUOUS
 10
75.4832603299
 20
118.9920912174
  0
SEQEND
  0
LINE
  8
0
 62
9
  6
CONTINUOUS
 10
77.0244285071
 20
108.7868707396
 11
77.0244285071
 21
118.6423801522
  0
POLYLINE
  8
0
 62
9
  6
CONTINUOUS
 66
1
 70
0
  0
VERTEX
  8
0
 62
9
  6
CONTINUOUS
 10
64.5029564138
 20
108.2887733905
  0
VERTEX
  8
0
 62
9
  6
CONTINUOUS
 10
64.5143116012
 20
108.3016230684
  0
VERTEX
  8
0
 62
9
  6
CONTINUOUS
 10
64.5411396373
 20
108.3981173576
  0
VERTEX
  8
0
 62
9
  6
CONTINUOUS
 10
64.5552737127
 20
108.4769467082
  0
VERTEX
  8
0
 62
9
  6
CONTINUOUS
 10
64.5814905797
 20
108.6762974011
  0
VERTEX
  8
0
 62
9
  6
CONTINUOUS
 10
64.5922650966
 20
108.7868707396
  0
SEQEND
  0
POLYLINE
  8
0
 62
9
  6
CONTINUOUS
 66
1
 70
0
  0
VERTEX
  8
0
 62
9
  6
CONTINUOUS
 10
73.1704378348
 20
118.9717802712
  0
VERTEX
  8
0
 62
9
  6
CONTINUOUS
 10
73.0412908006
 20
118.8688844698
  0
VERTEX
  8
0
 62
9
  6
CONTINUOUS
 10
72.9909906885
 20
118.7909039611
  0
VERTEX
  8
0
 62
9
  6
CONTINUOUS
 10
72.9300906179
 20
118.5991688105
  0
VERTEX
  8
0
 62
9
  6
CONTINUOUS
 10
72.9222157952
 20
118.4939938683
  0
SEQEND
  0
POLYLINE
  8
0
 62
9
  6
CONTINUOUS
 66
1
 70
0
  0
VERTEX
  8
0
 62
9
  6
CONTINUOUS
 10
65.5534443879
 20
118.9717802712
  0
VERTEX
  8
0
 62
9
  6
CONTINUOUS
 10
65.3859451362
 20
118.8688844698
  0
VERTEX
  8
0
 62
9
  6
CONTINUOUS
 10
65.3207076247
 20
118.7909039611
  0
VERTEX
  8
0
 62
9
  6
CONTINUOUS
 10
65.2417223324
 20
118.5991688105
  0
VERTEX
  8
0
 62
9
  6
CONTINUOUS
 10
65.2315089588
 20
118.4939938683
  0
SEQEND
  0
LINE
  8
0
 62
9
  6
CONTINUOUS
 10
62.429264342
 20
118.9717802712
 11
62.246034575
 21
118.8688844698
  0
POLYLINE
  8
0
 62
9
  6
CONTINUOUS
 66
1
 70
0
  0
VERTEX
  8
0
 62
9
  6
CONTINUOUS
 10
62.246034575
 20
108.560366422
  0
VERTEX
  8
0
 62
9
  6
CONTINUOUS
 10
62.429264342
 20
108.4574706206
  0
VERTEX
  8
0
 62
9
  6
CONTINUOUS
 10
62.5329307818
 20
108.4371596744
  0
SEQEND
  0
POLYLINE
  8
0
 62
9
  6
CONTINUOUS
 66
1
 70
0
  0
VERTEX
  8
0
 62
9
  6
CONTINUOUS
 10
64.5029564298
 20
119.1404773168
  0
VERTEX
  8
0
 62
9
  6
CONTINUOUS
 10
64.5143116017
 20
119.1276278759
  0
VERTEX
  8
0
 62
9
  6
CONTINUOUS
 10
64.5411396418
 20
119.0311338946
  0
VERTEX
  8
0
 62
9
  6
CONTINUOUS
 10
64.5552737347
 20
118.9523045685
  0
VERTEX
  8
0
 62
9
  6
CONTINUOUS
 10
64.5814906494
 20
118.75295367
  0
VERTEX
  8
0
 62
9
  6
CONTINUOUS
 10
64.5922651861
 20
118.6423801522
  0
SEQEND
  0
POLYLINE
  8
0
 62
9
  6
CONTINUOUS
 66
1
 70
0
  0
VERTEX
  8
0
 62
9
  6
CONTINUOUS
 10
84.1105426224
 20
108.9352570235
  0
VERTEX
  8
0
 62
9
  6
CONTINUOUS
 10
84.1150153558
 20
108.8300820813
  0
VERTEX
  8
0
 62
9
  6
CONTINUOUS
 10
84.1496053126
 20
108.6383469307
  0
VERTEX
  8
0
 62
9
  6
CONTINUOUS
 10
84.1781747164
 20
108.560366422
  0
SEQEND
  0
LINE
  8
0
 62
9
  6
CONTINUOUS
 10
81.4716421878
 20
108.7146254459
 11
81.4716421878
 21
118.7146254459
  0
LINE
  8
0
 62
9
  6
CONTINUOUS
 10
82.9737588778
 20
108.7146254459
 11
82.9737588778
 21
118.7146254459
  0
LINE
  8
0
 62
7
  6
CONTINUOUS
 10
83.8104517647
 20
118.4939938683
 11
83.8104517647
 21
108.9352570235
  0
POLYLINE
  8
0
 62
7
  6
CONTINUOUS
 66
1
 70
0
  0
VERTEX
  8
0
 62
7
  6
CONTINUOUS
 10
83.8104517647
 20
118.4939938683
  0
VERTEX
  8
0
 62
7
  6
CONTINUOUS
 10
83.8456780976
 20
118.6783452675
  0
VERTEX
  8
0
 62
7
  6
CONTINUOUS
 10
83.9453185645
 20
118.8355751121
  0
VERTEX
  8
0
 62
7
  6
CONTINUOUS
 10
84.0954200563
 20
118.9453932086
  0
VERTEX
  8
0
 62
7
  6
CONTINUOUS
 10
84.1927069718
 20
118.979932304
  0
SEQEND
  0
POLYLINE
  8
0
 62
9
  6
CONTINUOUS
 66
1
 70
0
  0
VERTEX
  8
0
 62
9
  6
CONTINUOUS
 10
84.2515275106
 20
118.9717802712
  0
VERTEX
  8
0
 62
9
  6
CONTINUOUS
 10
84.1781747164
 20
118.8688844698
  0
VERTEX
  8
0
 62
9
  6
CONTINUOUS
 10
84.1496053126
 20
118.7909039611
  0
VERTEX
  8
0
 62
9
  6
CONTINUOUS
 10
84.1150153558
 20
118.5991688105
  0
VERTEX
  8
0
 62
9
  6
CONTINUOUS
 10
84.1105426224
 20
118.4939938683
  0
SEQEND
  0
POLYLINE
  8
0
 62
7
  6
CONTINUOUS
 66
1
 70
0
  0
VERTEX
  8
0
 62
7
  6
CONTINUOUS
 10
62.5327273525
 20
108.437172599
  0
VERTEX
  8
0
 62
7
  6
CONTINUOUS
 10
62.3474410972
 20
108.4907869057
  0
VERTEX
  8
0
 62
7
  6
CONTINUOUS
 10
62.1999925592
 20
108.6062011588
  0
VERTEX
  8
0
 62
7
  6
CONTINUOUS
 10
62.1052833657
 20
108.7679266375
  0
VERTEX
  8
0
 62
7
  6
CONTINUOUS
 10
62.0764527247
 20
108.9352570235
  0
SEQEND
  0
LINE
  8
0
 62
9
  6
CONTINUOUS
 10
84.1781747164
 20
108.560366422
 11
84.2515275106
 21
108.4574706206
  0
LINE
  8
0
 62
9
  6
CONTINUOUS
 10
84.1105426224
 20
118.4939938683
 11
84.1105426224
 21
108.9352570235
  0
POLYLINE
  8
0
 62
7
  6
CONTINUOUS
 66
1
 70
0
  0
VERTEX
  8
0
 62
7
  6
CONTINUOUS
 10
84.9104555269
 20
119.1580118138
  0
VERTEX
  8
0
 62
7
  6
CONTINUOUS
 10
84.910660521
 20
119.1583617633
  0
VERTEX
  8
0
 62
7
  6
CONTINUOUS
 10
84.8893402567
 20
119.1510440274
  0
SEQEND
  0
POLYLINE
  8
0
 62
7
  6
CONTINUOUS
 66
1
 70
0
  0
VERTEX
  8
0
 62
7
  6
CONTINUOUS
 10
69.322240638
 20
108.2147504814
  0
VERTEX
  8
0
 62
7
  6
CONTINUOUS
 10
69.3651908891
 20
108.2478552111
  0
VERTEX
  8
0
 62
7
  6
CONTINUOUS
 10
69.4051599879
 20
108.3357109154
  0
VERTEX
  8
0
 62
7
  6
CONTINUOUS
 10
69.4225331831
 20
108.3971580181
  0
VERTEX
  8
0
 62
7
  6
CONTINUOUS
 10
69.4495135567
 20
108.5460417198
  0
VERTEX
  8
0
 62
7
  6
CONTINUOUS
 10
69.463647731
 20
108.7146254459
  0
SEQEND
  0
POLYLINE
  8
0
 62
7
  6
CONTINUOUS
 66
1
 70
0
  0
VERTEX
  8
0
 62
7
  6
CONTINUOUS
 10
132.2805906856
 20
108.2147503853
  0
VERTEX
  8
0
 62
7
  6
CONTINUOUS
 10
132.280314934
 20
108.2146816042
  0
VERTEX
  8
0
 62
7
  6
CONTINUOUS
 10
132.2803589729
 20
108.2146396771
  0
VERTEX
  8
0
 62
7
  6
CONTINUOUS
 10
132.280734838
 20
108.2146254459
  0
SEQEND
  0
POLYLINE
  8
0
 62
7
  6
CONTINUOUS
 66
1
 70
0
  0
VERTEX
  8
0
 62
7
  6
CONTINUOUS
 10
65.3591228967
 20
108.2147505214
  0
VERTEX
  8
0
 62
7
  6
CONTINUOUS
 10
65.3593996982
 20
108.214681601
  0
VERTEX
  8
0
 62
7
  6
CONTINUOUS
 10
65.3593556466
 20
108.2146396763
  0
VERTEX
  8
0
 62
7
  6
CONTINUOUS
 10
65.3589797875
 20
108.2146254459
  0
SEQEND
  0
POLYLINE
  8
0
 62
7
  6
CONTINUOUS
 66
1
 70
0
  0
VERTEX
  8
0
 62
7
  6
CONTINUOUS
 10
73.2098454734
 20
108.4394134322
  0
VERTEX
  8
0
 62
7
  6
CONTINUOUS
 10
73.0289109565
 20
108.4995480295
  0
VERTEX
  8
0
 62
7
  6
CONTINUOUS
 10
72.8819316774
 20
108.6251924757
  0
VERTEX
  8
0
 62
7
  6
CONTINUOUS
 10
72.8276846396
 20
108.7102225961
  0
VERTEX
  8
0
 62
7
  6
CONTINUOUS
 10
72.7741815748
 20
108.9352570235
  0
SEQEND
  0
POLYLINE
  8
0
 62
7
  6
CONTINUOUS
 66
1
 70
0
  0
VERTEX
  8
0
 62
7
  6
CONTINUOUS
 10
69.322240638
 20
119.2145004104
  0
VERTEX
  8
0
 62
7
  6
CONTINUOUS
 10
69.3651908891
 20
119.1813956807
  0
VERTEX
  8
0
 62
7
  6
CONTINUOUS
 10
69.4051599879
 20
119.0935399764
  0
VERTEX
  8
0
 62
7
  6
CONTINUOUS
 10
69.4225331831
 20
119.0320928737
  0
VERTEX
  8
0
 62
7
  6
CONTINUOUS
 10
69.4495135568
 20
118.883209172
  0
VERTEX
  8
0
 62
7
  6
CONTINUOUS
 10
69.463647731
 20
118.7146254459
  0
SEQEND
  0
LINE
  8
0
 62
9
  6
CONTINUOUS
 10
86.9721384035
 20
108.9352570235
 11
86.9721384035
 21
118.4939938683
  0
LINE
  8
0
 62
9
  6
CONTINUOUS
 10
87.5993927148
 20
108.9352570142
 11
87.5993927148
 21
118.4939938776
  0
LINE
  8
0
 62
9
  6
CONTINUOUS
 10
88.2126411138
 20
108.7868707396
 11
88.2126411138
 21
118.6423801522
  0
POLYLINE
  8
0
 62
9
  6
CONTINUOUS
 66
1
 70
0
  0
VERTEX
  8
0
 62
9
  6
CONTINUOUS
 10
86.9721384035
 20
118.4939938683
  0
VERTEX
  8
0
 62
9
  6
CONTINUOUS
 10
86.9757409974
 20
118.5991688105
  0
VERTEX
  8
0
 62
9
  6
CONTINUOUS
 10
87.0036017166
 20
118.7909039611
  0
VERTEX
  8
0
 62
9
  6
CONTINUOUS
 10
87.0266131398
 20
118.8688844698
  0
VERTEX
  8
0
 62
9
  6
CONTINUOUS
 10
87.0856956535
 20
118.9717802712
  0
VERTEX
  8
0
 62
9
  6
CONTINUOUS
 10
87.1191229396
 20
118.9920912174
  0
SEQEND
  0
LINE
  8
0
 62
9
  6
CONTINUOUS
 10
84.2930285349
 20
118.9920912174
 11
84.2515275106
 21
118.9717802712
  0
LINE
  8
0
 62
9
  6
CONTINUOUS
 10
124.3962088963
 20
108.4371596744
 11
124.4692767906
 21
108.4574706206
  0
LINE
  8
0
 62
9
  6
CONTINUOUS
 10
131.9915036973
 20
108.4371596744
 11
132.0862702375
 21
108.4574706206
  0
LINE
  8
0
 62
9
  6
CONTINUOUS
 10
135.1067838436
 20
108.4371596744
 11
135.2104502834
 21
108.4574706206
  0
LINE
  8
0
 62
7
  6
CONTINUOUS
 10
72.2798573127
 20
103.7146254459
 11
125.3598573127
 21
103.7146254459
  0
POLYLINE
  8
0
 62
9
  6
CONTINUOUS
 66
1
 70
0
  0
VERTEX
  8
0
 62
9
  6
CONTINUOUS
 10
62.8125735274
 20
108.4371596744
  0
VERTEX
  8
0
 62
9
  6
CONTINUOUS
 10
62.709705986
 20
108.4574706206
  0
VERTEX
  8
0
 62
9
  6
CONTINUOUS
 10
62.5278882668
 20
108.560366422
  0
VERTEX
  8
0
 62
9
  6
CONTINUOUS
 10
62.4570740068
 20
108.6383469307
  0
VERTEX
  8
0
 62
9
  6
CONTINUOUS
 10
62.3713367539
 20
108.8300820813
  0
VERTEX
  8
0
 62
9
  6
CONTINUOUS
 10
62.3602503026
 20
108.9352570235
  0
SEQEND
  0
POLYLINE
  8
0
 62
7
  6
CONTINUOUS
 66
1
 70
0
  0
VERTEX
  8
0
 62
7
  6
CONTINUOUS
 10
65.6394026545
 20
108.4376239813
  0
VERTEX
  8
0
 62
7
  6
CONTINUOUS
 10
65.5380909959
 20
108.4582576944
  0
VERTEX
  8
0
 62
7
  6
CONTINUOUS
 10
65.3699997818
 20
108.5494097352
  0
VERTEX
  8
0
 62
7
  6
CONTINUOUS
 10
65.2439410754
 20
108.7054422297
  0
VERTEX
  8
0
 62
7
  6
CONTINUOUS
 10
65.2056095173
 20
108.803716674
  0
SEQEND
  0
LINE
  8
0
 62
9
  6
CONTINUOUS
 10
65.5534443879
 20
108.4574706206
 11
65.6482109281
 21
108.4371596744
  0
POLYLINE
  8
0
 62
9
  6
CONTINUOUS
 66
1
 70
0
  0
VERTEX
  8
0
 62
9
  6
CONTINUOUS
 10
66.9991344554
 20
108.4371596744
  0
VERTEX
  8
0
 62
9
  6
CONTINUOUS
 10
66.908227306
 20
108.4574706206
  0
VERTEX
  8
0
 62
9
  6
CONTINUOUS
 10
66.7475495029
 20
108.560366422
  0
VERTEX
  8
0
 62
9
  6
CONTINUOUS
 10
66.6849688052
 20
108.6383469307
  0
VERTEX
  8
0
 62
9
  6
CONTINUOUS
 10
66.6092002085
 20
108.8300820813
  0
VERTEX
  8
0
 62
9
  6
CONTINUOUS
 10
66.5994027771
 20
108.9352570235
  0
SEQEND
  0
LINE
  8
0
 62
9
  6
CONTINUOUS
 10
73.1704378348
 20
108.4574706206
 11
73.2435057291
 21
108.4371596744
  0
POLYLINE
  8
0
 62
9
  6
CONTINUOUS
 66
1
 70
0
  0
VERTEX
  8
0
 62
9
  6
CONTINUOUS
 10
75.4832603299
 20
108.4371596744
  0
VERTEX
  8
0
 62
9
  6
CONTINUOUS
 10
75.4165910869
 20
108.4574706206
  0
VERTEX
  8
0
 62
9
  6
CONTINUOUS
 10
75.2987536276
 20
108.560366422
  0
VERTEX
  8
0
 62
9
  6
CONTINUOUS
 10
75.2528583622
 20
108.6383469307
  0
VERTEX
  8
0
 62
9
  6
CONTINUOUS
 10
75.1972913905
 20
108.8300820813
  0
VERTEX
  8
0
 62
9
  6
CONTINUOUS
 10
75.1901061763
 20
108.9352570235
  0
SEQEND
  0
LINE
  8
0
 62
9
  6
CONTINUOUS
 10
84.2515275106
 20
108.4574706206
 11
84.2930285349
 21
108.4371596744
  0
POLYLINE
  8
0
 62
9
  6
CONTINUOUS
 66
1
 70
0
  0
VERTEX
  8
0
 62
9
  6
CONTINUOUS
 10
87.1191229396
 20
108.4371596744
  0
VERTEX
  8
0
 62
9
  6
CONTINUOUS
 10
87.0856956535
 20
108.4574706206
  0
VERTEX
  8
0
 62
9
  6
CONTINUOUS
 10
87.0266131398
 20
108.560366422
  0
VERTEX
  8
0
 62
9
  6
CONTINUOUS
 10
87.0036017166
 20
108.6383469307
  0
VERTEX
  8
0
 62
9
  6
CONTINUOUS
 10
86.9757409974
 20
108.8300820813
  0
VERTEX
  8
0
 62
9
  6
CONTINUOUS
 10
86.9721384035
 20
108.9352570235
  0
SEQEND
  0
POLYLINE
  8
0
 62
9
  6
CONTINUOUS
 66
1
 70
0
  0
VERTEX
  8
0
 62
9
  6
CONTINUOUS
 10
93.9730755441
 20
119.2146254459
  0
VERTEX
  8
0
 62
9
  6
CONTINUOUS
 10
93.9557026105
 20
119.2020893711
  0
VERTEX
  8
0
 62
9
  6
CONTINUOUS
 10
93.9243976946
 20
119.1055410317
  0
VERTEX
  8
0
 62
9
  6
CONTINUOUS
 10
93.9120354671
 20
119.0263701656
  0
VERTEX
  8
0
 62
9
  6
CONTINUOUS
 10
93.8969598379
 20
118.8258858197
  0
VERTEX
  8
0
 62
9
  6
CONTINUOUS
 10
93.8950023841
 20
118.7146254459
  0
SEQEND
  0
POLYLINE
  8
0
 62
9
  6
CONTINUOUS
 66
1
 70
0
  0
VERTEX
  8
0
 62
9
  6
CONTINUOUS
 10
92.26394406
 20
119.2146254459
  0
VERTEX
  8
0
 62
9
  6
CONTINUOUS
 10
92.2404448987
 20
119.2020894021
  0
VERTEX
  8
0
 62
9
  6
CONTINUOUS
 10
92.1981008731
 20
119.1055411877
  0
VERTEX
  8
0
 62
9
  6
CONTINUOUS
 10
92.181379315
 20
119.0263703475
  0
VERTEX
  8
0
 62
9
  6
CONTINUOUS
 10
92.1609875069
 20
118.8258859132
  0
VERTEX
  8
0
 62
9
  6
CONTINUOUS
 10
92.1583397873
 20
118.7146254459
  0
SEQEND
  0
POLYLINE
  8
0
 62
9
  6
CONTINUOUS
 66
1
 70
0
  0
VERTEX
  8
0
 62
9
  6
CONTINUOUS
 10
66.9991344554
 20
108.4371596744
  0
VERTEX
  8
0
 62
9
  6
CONTINUOUS
 10
67.0872574008
 20
108.4756591633
  0
VERTEX
  8
0
 62
9
  6
CONTINUOUS
 10
67.1677948963
 20
108.5839294746
  0
VERTEX
  8
0
 62
9
  6
CONTINUOUS
 10
67.2285032981
 20
108.7454980685
  0
VERTEX
  8
0
 62
9
  6
CONTINUOUS
 10
67.2601688636
 20
108.9352570235
  0
SEQEND
  0
LINE
  8
0
 62
9
  6
CONTINUOUS
 10
85.1269967926
 20
119.2145005028
 11
84.9061952192
 21
119.1404775013
  0
LINE
  8
0
 62
7
  6
CONTINUOUS
 10
112.7503737443
 20
108.2782066209
 11
112.8335327914
 21
108.3008774295
  0
LINE
  8
0
 62
7
  6
CONTINUOUS
 10
112.8335998984
 20
108.3008937184
 11
113.4468583775
 21
108.4492824414
  0
LINE
  8
0
 62
9
  6
CONTINUOUS
 10
112.7335194063
 20
108.2887733905
 11
113.3466814408
 21
108.4371596744
  0
LINE
  8
0
 62
9
  6
CONTINUOUS
 10
110.5205963081
 20
108.4371596744
 11
109.9072588187
 21
108.2887733905
  0
LINE
  8
0
 62
9
  6
CONTINUOUS
 10
110.0403219106
 20
108.9352570146
 11
109.4270735116
 21
108.7868707396
  0
POLYLINE
  8
0
 62
9
  6
CONTINUOUS
 66
1
 70
0
  0
VERTEX
  8
0
 62
9
  6
CONTINUOUS
 10
114.4147493678
 20
108.2146254459
  0
VERTEX
  8
0
 62
9
  6
CONTINUOUS
 10
114.4706481525
 20
108.2271615381
  0
VERTEX
  8
0
 62
9
  6
CONTINUOUS
 10
114.5713741403
 20
108.3237099531
  0
VERTEX
  8
0
 62
9
  6
CONTINUOUS
 10
114.6111505409
 20
108.4028808365
  0
VERTEX
  8
0
 62
9
  6
CONTINUOUS
 10
114.6596574965
 20
108.6033651293
  0
VERTEX
  8
0
 62
9
  6
CONTINUOUS
 10
114.6659557476
 20
108.7146254459
  0
SEQEND
  0
POLYLINE
  8
0
 62
9
  6
CONTINUOUS
 66
1
 70
0
  0
VERTEX
  8
0
 62
9
  6
CONTINUOUS
 10
115.8930531744
 20
108.2146254459
  0
VERTEX
  8
0
 62
9
  6
CONTINUOUS
 10
115.9542507175
 20
108.2271614897
  0
VERTEX
  8
0
 62
9
  6
CONTINUOUS
 10
116.0645248801
 20
108.3237097043
  0
VERTEX
  8
0
 62
9
  6
CONTINUOUS
 10
116.1080718925
 20
108.4028805446
  0
VERTEX
  8
0
 62
9
  6
CONTINUOUS
 10
116.1611771305
 20
108.6033649787
  0
VERTEX
  8
0
 62
9
  6
CONTINUOUS
 10
116.1680724376
 20
108.7146254459
  0
SEQEND
  0
POLYLINE
  8
0
 62
7
  6
CONTINUOUS
 66
1
 70
0
  0
VERTEX
  8
0
 62
7
  6
CONTINUOUS
 10
112.5127196809
 20
108.2147504804
  0
VERTEX
  8
0
 62
7
  6
CONTINUOUS
 10
112.6784639652
 20
108.2478551973
  0
VERTEX
  8
0
 62
7
  6
CONTINUOUS
 10
112.7290646574
 20
108.2716523242
  0
SEQEND
  0
LINE
  8
0
 62
9
  6
CONTINUOUS
 10
109.9072588187
 20
108.2887733905
 11
109.5130553423
 21
108.2147507131
  0
POLYLINE
  8
0
 62
7
  6
CONTINUOUS
 66
1
 70
0
  0
VERTEX
  8
0
 62
7
  6
CONTINUOUS
 10
122.8004444115
 20
108.2198622698
  0
VERTEX
  8
0
 62
7
  6
CONTINUOUS
 10
122.9313059046
 20
108.2410062839
  0
VERTEX
  8
0
 62
7
  6
CONTINUOUS
 10
123.1122745414
 20
108.2675995898
  0
SEQEND
  0
LINE
  8
0
 62
9
  6
CONTINUOUS
 10
122.7478419727
 20
108.2147504253
 11
122.9313059046
 21
108.2410062839
  0
LINE
  8
0
 62
9
  6
CONTINUOUS
 10
123.1122745414
 20
108.2675995898
 11
123.2525979774
 21
108.2887733905
  0
POLYLINE
  8
0
 62
9
  6
CONTINUOUS
 66
1
 70
0
  0
VERTEX
  8
0
 62
9
  6
CONTINUOUS
 10
123.056683068
 20
108.2146254459
  0
VERTEX
  8
0
 62
9
  6
CONTINUOUS
 10
123.1435582511
 20
108.2271615381
  0
VERTEX
  8
0
 62
9
  6
CONTINUOUS
 10
123.2361882155
 20
108.2842912117
  0
SEQEND
  0
POLYLINE
  8
0
 62
9
  6
CONTINUOUS
 66
1
 70
0
  0
VERTEX
  8
0
 62
9
  6
CONTINUOUS
 10
124.1045060764
 20
108.2146254459
  0
VERTEX
  8
0
 62
9
  6
CONTINUOUS
 10
124.195136934
 20
108.2271614897
  0
VERTEX
  8
0
 62
9
  6
CONTINUOUS
 10
124.3584480968
 20
108.3237097043
  0
VERTEX
  8
0
 62
9
  6
CONTINUOUS
 10
124.4229392982
 20
108.4028805446
  0
SEQEND
  0
LINE
  8
0
 62
7
  6
CONTINUOUS
 10
123.1122745414
 20
108.2675995898
 11
123.2861808415
 21
108.2910254
  0
LINE
  8
0
 62
9
  6
CONTINUOUS
 10
120.6152861183
 20
108.7868707396
 11
120.0695597349
 21
108.7146254459
  0
LINE
  8
0
 62
7
  6
CONTINUOUS
 10
123.2861894038
 20
108.2910264289
 11
124.4298697189
 21
108.4394135057
  0
LINE
  8
0
 62
9
  6
CONTINUOUS
 10
123.2525979774
 20
108.2887733905
 11
124.3962052932
 21
108.4371596744
  0
LINE
  8
0
 62
9
  6
CONTINUOUS
 10
122.1564580376
 20
108.4371596744
 11
121.0127116722
 21
108.2887733905
  0
LINE
  8
0
 62
9
  6
CONTINUOUS
 10
121.7589603219
 20
108.9352570146
 11
120.6152861183
 21
108.7868707396
  0
LINE
  8
0
 62
9
  6
CONTINUOUS
 10
121.0127116722
 20
108.2887733905
 11
120.3705379737
 21
108.2147504847
  0
LINE
  8
0
 62
9
  6
CONTINUOUS
 10
128.8599052922
 20
108.7868707396
 11
128.1761397779
 21
108.7146254459
  0
LINE
  8
0
 62
7
  6
CONTINUOUS
 10
129.7653572539
 20
108.2157599269
 11
130.2433637681
 21
108.265699483
  0
LINE
  8
0
 62
9
  6
CONTINUOUS
 10
129.7513621941
 20
108.2147505039
 11
129.7653137099
 21
108.2161837835
  0
LINE
  8
0
 62
9
  6
CONTINUOUS
 10
133.0474495288
 20
108.7868707396
 11
132.3985349271
 21
108.7226027816
  0
LINE
  8
0
 62
7
  6
CONTINUOUS
 10
130.2433637681
 20
108.265699483
 11
132.0003123676
 21
108.43762402
  0
LINE
  8
0
 62
9
  6
CONTINUOUS
 10
130.6405825267
 20
108.4371596744
 11
129.1208965697
 21
108.2887733905
  0
LINE
  8
0
 62
9
  6
CONTINUOUS
 10
130.3795457619
 20
108.9352570146
 11
128.8599052922
 21
108.7868707396
  0
LINE
  8
0
 62
7
  6
CONTINUOUS
 10
122.747844261
 20
108.2147504814
 11
122.8004451982
 21
108.21986227
  0
LINE
  8
0
 62
9
  6
CONTINUOUS
 10
129.1208965697
 20
108.2887733905
 11
128.3174731404
 21
108.2147504669
  0
LINE
  8
0
 62
7
  6
CONTINUOUS
 10
132.5774083879
 20
108.2147505156
 11
135.1067835867
 21
108.4371596744
  0
LINE
  8
0
 62
9
  6
CONTINUOUS
 10
134.7378203985
 20
108.9352570146
 11
133.0474495288
 21
108.7868707396
  0
LINE
  8
0
 62
9
  6
CONTINUOUS
 10
134.8271417509
 20
108.4371596744
 11
132.5732786611
 21
108.2400557641
  0
LINE
  8
0
 62
9
  6
CONTINUOUS
 10
132.5732786611
 20
108.2400557641
 11
132.2805906856
 21
108.2147503853
  0
LINE
  8
0
 62
7
  6
CONTINUOUS
 10
129.7513616717
 20
108.2147504803
 11
129.7653588966
 21
108.2157599265
  0
LINE
  8
0
 62
7
  6
CONTINUOUS
 10
132.5774083879
 20
108.2147505156
 11
132.5754778327
 21
108.2146254459
  0
LINE
  8
0
 62
9
  6
CONTINUOUS
 10
135.1067838436
 20
108.4371596744
 11
135.1069653617
 21
108.4371706762
  0
LINE
  8
0
 62
9
  6
CONTINUOUS
 10
70.2798573127
 20
105.7146254459
 11
127.3598573127
 21
105.7146254459
  0
LINE
  8
0
 62
9
  6
CONTINUOUS
 10
62.5329307818
 20
108.4371596744
 11
62.5327273525
 21
108.437172599
  0
LINE
  8
0
 62
7
  6
CONTINUOUS
 10
65.062303374
 20
108.2147507202
 11
65.0642367928
 21
108.2146254459
  0
LINE
  8
0
 62
7
  6
CONTINUOUS
 10
67.8883533004
 20
108.2147504854
 11
67.8743560599
 21
108.2157599333
  0
LINE
  8
0
 62
9
  6
CONTINUOUS
 10
65.3591228967
 20
108.2147505214
 11
64.5029564138
 21
108.2887733905
  0
LINE
  8
0
 62
9
  6
CONTINUOUS
 10
64.5029564138
 20
108.2887733905
 11
62.8125728491
 21
108.4371596744
  0
LINE
  8
0
 62
9
  6
CONTINUOUS
 10
64.5922650966
 20
108.7868707396
 11
62.9018942269
 21
108.9352570142
  0
LINE
  8
0
 62
7
  6
CONTINUOUS
 10
62.5329310291
 20
108.4371596744
 11
65.062303374
 21
108.2147507202
  0
LINE
  8
0
 62
9
  6
CONTINUOUS
 10
69.322239841
 20
108.214750425
 11
68.5188180558
 21
108.2887733905
  0
LINE
  8
0
 62
7
  6
CONTINUOUS
 10
74.8918704482
 20
108.2147504851
 11
74.8392711086
 21
108.2198620029
  0
LINE
  8
0
 62
9
  6
CONTINUOUS
 10
68.5188180558
 20
108.2887733905
 11
66.9991320068
 21
108.4371596744
  0
LINE
  8
0
 62
9
  6
CONTINUOUS
 10
68.7798093332
 20
108.7868707396
 11
67.2601688636
 21
108.9352570142
  0
LINE
  8
0
 62
9
  6
CONTINUOUS
 10
65.237089786
 20
108.7230075648
 11
64.5922650966
 21
108.7868707396
  0
LINE
  8
0
 62
7
  6
CONTINUOUS
 10
65.6394026562
 20
108.4376239811
 11
67.392623761
 21
108.2660749941
  0
LINE
  8
0
 62
9
  6
CONTINUOUS
 10
67.1678150901
 20
108.2887733905
 11
67.392623761
 21
108.2660749941
  0
LINE
  8
0
 62
9
  6
CONTINUOUS
 10
67.8743577022
 20
108.2157599337
 11
67.8883519248
 21
108.2147504835
  0
LINE
  8
0
 62
9
  6
CONTINUOUS
 10
69.4635746583
 20
108.7146254459
 11
68.7798093332
 21
108.7868707396
  0
LINE
  8
0
 62
7
  6
CONTINUOUS
 10
67.392623761
 20
108.2660749941
 11
67.8743577022
 21
108.2157599337
  0
LINE
  8
0
 62
9
  6
CONTINUOUS
 10
77.269175094
 20
108.2147505038
 11
76.6270029532
 21
108.2887733905
  0
LINE
  8
0
 62
7
  6
CONTINUOUS
 10
73.2098454795
 20
108.4394134314
 11
74.3535252211
 21
108.291026429
  0
LINE
  8
0
 62
9
  6
CONTINUOUS
 10
76.6270029532
 20
108.2887733905
 11
75.4832564418
 21
108.4371596744
  0
LINE
  8
0
 62
9
  6
CONTINUOUS
 10
77.0244285071
 20
108.7868707396
 11
75.8807543035
 21
108.9352570142
  0
LINE
  8
0
 62
9
  6
CONTINUOUS
 10
73.2435091969
 20
108.4371596744
 11
74.387116648
 21
108.2887733905
  0
LINE
  8
0
 62
9
  6
CONTINUOUS
 10
77.5701516569
 20
108.7146254459
 11
77.0244285071
 21
108.7868707396
  0
POLYLINE
  8
0
 62
7
  6
CONTINUOUS
 66
1
 70
0
  0
VERTEX
  8
0
 62
7
  6
CONTINUOUS
 10
74.3535341121
 20
108.2910254281
  0
VERTEX
  8
0
 62
7
  6
CONTINUOUS
 10
74.5248092253
 20
108.2679679319
  0
VERTEX
  8
0
 62
7
  6
CONTINUOUS
 10
74.706084831
 20
108.2413653422
  0
VERTEX
  8
0
 62
7
  6
CONTINUOUS
 10
74.8392718953
 20
108.2198620027
  0
SEQEND
  0
POLYLINE
  8
0
 62
9
  6
CONTINUOUS
 66
1
 70
0
  0
VERTEX
  8
0
 62
9
  6
CONTINUOUS
 10
73.5352085491
 20
108.2146254459
  0
VERTEX
  8
0
 62
9
  6
CONTINUOUS
 10
73.4445775187
 20
108.2271615381
  0
VERTEX
  8
0
 62
9
  6
CONTINUOUS
 10
73.2812662746
 20
108.3237099531
  0
VERTEX
  8
0
 62
9
  6
CONTINUOUS
 10
73.2167751377
 20
108.4028808365
  0
SEQEND
  0
POLYLINE
  8
0
 62
9
  6
CONTINUOUS
 66
1
 70
0
  0
VERTEX
  8
0
 62
9
  6
CONTINUOUS
 10
74.5830315574
 20
108.2146254459
  0
VERTEX
  8
0
 62
9
  6
CONTINUOUS
 10
74.4961565399
 20
108.2271614897
  0
VERTEX
  8
0
 62
9
  6
CONTINUOUS
 10
74.4035177792
 20
108.2842964983
  0
SEQEND
  0
LINE
  8
0
 62
9
  6
CONTINUOUS
 10
74.387116648
 20
108.2887733905
 11
74.5248092253
 21
108.2679679319
  0
LINE
  8
0
 62
9
  6
CONTINUOUS
 10
74.706084831
 20
108.2413653422
 11
74.8396454463
 21
108.2224091988
  0
LINE
  8
0
 62
9
  6
CONTINUOUS
 10
74.8396454463
 20
108.2224091988
 11
74.891869343
 21
108.214750467
  0
LINE
  8
0
 62
9
  6
CONTINUOUS
 10
88.1266492222
 20
108.2147505168
 11
87.7324558068
 21
108.2887733905
  0
POLYLINE
  8
0
 62
7
  6
CONTINUOUS
 66
1
 70
0
  0
VERTEX
  8
0
 62
7
  6
CONTINUOUS
 10
85.1269947868
 20
108.2147504868
  0
VERTEX
  8
0
 62
7
  6
CONTINUOUS
 10
84.9612503743
 20
108.2478552835
  0
VERTEX
  8
0
 62
7
  6
CONTINUOUS
 10
84.9135338813
 20
108.2702951973
  0
SEQEND
  0
POLYLINE
  8
0
 62
9
  6
CONTINUOUS
 66
1
 70
0
  0
VERTEX
  8
0
 62
9
  6
CONTINUOUS
 10
81.7466614511
 20
108.2146254459
  0
VERTEX
  8
0
 62
9
  6
CONTINUOUS
 10
81.6854637913
 20
108.2271615381
  0
VERTEX
  8
0
 62
9
  6
CONTINUOUS
 10
81.5751895738
 20
108.3237099531
  0
VERTEX
  8
0
 62
9
  6
CONTINUOUS
 10
81.5316426049
 20
108.4028808365
  0
VERTEX
  8
0
 62
9
  6
CONTINUOUS
 10
81.4785374761
 20
108.6033651293
  0
VERTEX
  8
0
 62
9
  6
CONTINUOUS
 10
81.4716421879
 20
108.7146254459
  0
SEQEND
  0
POLYLINE
  8
0
 62
9
  6
CONTINUOUS
 66
1
 70
0
  0
VERTEX
  8
0
 62
9
  6
CONTINUOUS
 10
83.2249652576
 20
108.2146254459
  0
VERTEX
  8
0
 62
9
  6
CONTINUOUS
 10
83.1690665795
 20
108.2271614897
  0
VERTEX
  8
0
 62
9
  6
CONTINUOUS
 10
83.0683406419
 20
108.3237097043
  0
VERTEX
  8
0
 62
9
  6
CONTINUOUS
 10
83.0285642015
 20
108.4028805446
  0
VERTEX
  8
0
 62
9
  6
CONTINUOUS
 10
82.9800571463
 20
108.6033649787
  0
VERTEX
  8
0
 62
9
  6
CONTINUOUS
 10
82.9737588778
 20
108.7146254459
  0
SEQEND
  0
LINE
  8
0
 62
7
  6
CONTINUOUS
 10
84.1928566031
 20
108.4492823554
 11
84.8061147255
 21
108.3008937188
  0
LINE
  8
0
 62
9
  6
CONTINUOUS
 10
87.7324558068
 20
108.2887733905
 11
87.119118137
 21
108.4371596744
  0
LINE
  8
0
 62
9
  6
CONTINUOUS
 10
88.2126411138
 20
108.7868707396
 11
87.5993927148
 21
108.9352570142
  0
LINE
  8
0
 62
9
  6
CONTINUOUS
 10
84.29303301
 20
108.4371596744
 11
84.9061952192
 21
108.2887733905
  0
LINE
  8
0
 62
7
  6
CONTINUOUS
 10
84.8061843853
 20
108.3008768018
 11
84.8886472674
 21
108.2784266928
  0
LINE
  8
0
 62
9
  6
CONTINUOUS
 10
84.9061952192
 20
108.2887733905
 11
85.1269967926
 21
108.214750389
  0
LINE
  8
0
 62
7
  6
CONTINUOUS
 10
84.8886472674
 20
108.2784266928
 11
84.9133226062
 21
108.2698459395
  0
POLYLINE
  8
0
 62
7
  6
CONTINUOUS
 66
1
 70
0
  0
VERTEX
  8
0
 62
7
  6
CONTINUOUS
 10
84.192856586
 20
108.4492823596
  0
VERTEX
  8
0
 62
7
  6
CONTINUOUS
 10
84.0987086939
 20
108.4823057325
  0
VERTEX
  8
0
 62
7
  6
CONTINUOUS
 10
83.9376880121
 20
108.6020195935
  0
VERTEX
  8
0
 62
7
  6
CONTINUOUS
 10
83.877505719
 20
108.6851416071
  0
VERTEX
  8
0
 62
7
  6
CONTINUOUS
 10
83.8132665052
 20
108.8822776153
  0
VERTEX
  8
0
 62
7
  6
CONTINUOUS
 10
83.8104519749
 20
108.9352570235
  0
SEQEND
  0
POLYLINE
  8
0
 62
9
  6
CONTINUOUS
 66
1
 70
0
  0
VERTEX
  8
0
 62
9
  6
CONTINUOUS
 10
66.9991344554
 20
118.9920912174
  0
VERTEX
  8
0
 62
9
  6
CONTINUOUS
 10
67.087181078
 20
118.9536574752
  0
VERTEX
  8
0
 62
9
  6
CONTINUOUS
 10
67.1676683671
 20
118.8455634772
  0
VERTEX
  8
0
 62
9
  6
CONTINUOUS
 10
67.2283987828
 20
118.6841904541
  0
VERTEX
  8
0
 62
9
  6
CONTINUOUS
 10
67.2601688636
 20
118.4939938683
  0
SEQEND
  0
POLYLINE
  8
0
 62
9
  6
CONTINUOUS
 66
1
 70
0
  0
VERTEX
  8
0
 62
9
  6
CONTINUOUS
 10
92.26394406
 20
108.2146254459
  0
VERTEX
  8
0
 62
9
  6
CONTINUOUS
 10
92.2404448539
 20
108.2271615381
  0
VERTEX
  8
0
 62
9
  6
CONTINUOUS
 10
92.1981008072
 20
108.3237099531
  0
VERTEX
  8
0
 62
9
  6
CONTINUOUS
 10
92.1813792658
 20
108.4028808365
  0
VERTEX
  8
0
 62
9
  6
CONTINUOUS
 10
92.1609874997
 20
108.6033651293
  0
VERTEX
  8
0
 62
9
  6
CONTINUOUS
 10
92.1583397873
 20
108.7146254459
  0
SEQEND
  0
POLYLINE
  8
0
 62
9
  6
CONTINUOUS
 66
1
 70
0
  0
VERTEX
  8
0
 62
9
  6
CONTINUOUS
 10
93.9730755441
 20
108.2146254459
  0
VERTEX
  8
0
 62
9
  6
CONTINUOUS
 10
93.9557026317
 20
108.2271614897
  0
VERTEX
  8
0
 62
9
  6
CONTINUOUS
 10
93.9243977252
 20
108.3237097043
  0
VERTEX
  8
0
 62
9
  6
CONTINUOUS
 10
93.9120354898
 20
108.4028805446
  0
VERTEX
  8
0
 62
9
  6
CONTINUOUS
 10
93.8969598413
 20
108.6033649787
  0
VERTEX
  8
0
 62
9
  6
CONTINUOUS
 10
93.8950023842
 20
108.7146254459
  0
SEQEND
  0
LINE
  8
0
 62
9
  6
CONTINUOUS
 10
92.1583397873
 20
108.7146254459
 11
92.1583397873
 21
118.7146254459
  0
LINE
  8
0
 62
9
  6
CONTINUOUS
 10
93.8950023842
 20
108.7146254459
 11
93.8950023842
 21
118.7146254459
  0
LINE
  8
0
 62
9
  6
CONTINUOUS
 10
109.4270735116
 20
108.7868707396
 11
109.0930908353
 21
108.7146254459
  0
POLYLINE
  8
0
 62
9
  6
CONTINUOUS
 66
1
 70
0
  0
VERTEX
  8
0
 62
9
  6
CONTINUOUS
 10
100.3352345623
 20
108.4371596744
  0
VERTEX
  8
0
 62
9
  6
CONTINUOUS
 10
100.5261756168
 20
108.4756591633
  0
VERTEX
  8
0
 62
9
  6
CONTINUOUS
 10
100.6878543541
 20
108.5839294746
  0
VERTEX
  8
0
 62
9
  6
CONTINUOUS
 10
100.7957113417
 20
108.7454980685
  0
VERTEX
  8
0
 62
9
  6
CONTINUOUS
 10
100.8334170448
 20
108.9352570235
  0
SEQEND
  0
POLYLINE
  8
0
 62
7
  6
CONTINUOUS
 66
1
 70
0
  0
VERTEX
  8
0
 62
7
  6
CONTINUOUS
 10
100.4282980136
 20
108.2147504786
  0
VERTEX
  8
0
 62
7
  6
CONTINUOUS
 10
100.5928838782
 20
108.2478551744
  0
VERTEX
  8
0
 62
7
  6
CONTINUOUS
 10
100.7373509067
 20
108.3357108546
  0
VERTEX
  8
0
 62
7
  6
CONTINUOUS
 10
100.7965992898
 20
108.3971579457
  0
VERTEX
  8
0
 62
7
  6
CONTINUOUS
 10
100.8804538601
 20
108.546041609
  0
VERTEX
  8
0
 62
7
  6
CONTINUOUS
 10
100.9105645284
 20
108.7146254459
  0
SEQEND
  0
LINE
  8
0
 62
9
  6
CONTINUOUS
 10
112.7335194063
 20
108.2887733905
 11
112.8335327782
 21
108.3008774839
  0
LINE
  8
0
 62
9
  6
CONTINUOUS
 10
113.3466860905
 20
108.4371596744
 11
113.4468819403
 21
108.4492881446
  0
POLYLINE
  8
0
 62
9
  6
CONTINUOUS
 66
1
 70
0
  0
VERTEX
  8
0
 62
9
  6
CONTINUOUS
 10
100.3353236711
 20
108.2887733905
  0
VERTEX
  8
0
 62
9
  6
CONTINUOUS
 10
100.4462701956
 20
108.3016230684
  0
VERTEX
  8
0
 62
9
  6
CONTINUOUS
 10
100.646013013
 20
108.3981173576
  0
VERTEX
  8
0
 62
9
  6
CONTINUOUS
 10
100.7248417345
 20
108.4769467082
  0
VERTEX
  8
0
 62
9
  6
CONTINUOUS
 10
100.8209415379
 20
108.6762974011
  0
VERTEX
  8
0
 62
9
  6
CONTINUOUS
 10
100.8334170448
 20
108.7868707396
  0
SEQEND
  0
LINE
  8
0
 62
9
  6
CONTINUOUS
 10
123.2525979774
 20
108.2887733905
 11
123.2861808519
 21
108.2910253195
  0
LINE
  8
0
 62
9
  6
CONTINUOUS
 10
124.3962088963
 20
108.4371596744
 11
124.4296145456
 21
108.4393804633
  0
LINE
  8
0
 62
9
  6
CONTINUOUS
 10
130.4718995353
 20
108.2887733905
 11
130.4806672862
 21
108.2892372858
  0
LINE
  8
0
 62
9
  6
CONTINUOUS
 10
131.9915036973
 20
108.4371596744
 11
132.0001377964
 21
108.4376070062
  0
LINE
  8
0
 62
7
  6
CONTINUOUS
 10
129.7513621941
 20
108.2147505039
 11
129.7472521423
 21
108.2146396763
  0
LINE
  8
0
 62
7
  6
CONTINUOUS
 10
77.269175094
 20
108.2147505038
 11
77.2614757765
 21
108.2146254459
  0
LINE
  8
0
 62
7
  6
CONTINUOUS
 10
122.7478419727
 20
108.2147504253
 11
122.7389365208
 21
108.2146254459
  0
LINE
  8
0
 62
7
  6
CONTINUOUS
 10
88.1266492222
 20
108.2147505168
 11
88.1164949102
 21
108.2146254459
  0
LINE
  8
0
 62
7
  6
CONTINUOUS
 10
112.5127223944
 20
108.2147505379
 11
112.5019185776
 21
108.2146254459
  0
LINE
  8
0
 62
7
  6
CONTINUOUS
 10
100.4283120719
 20
108.2147507699
 11
100.4170624457
 21
108.2146254459
  0
LINE
  8
0
 62
7
  6
CONTINUOUS
 10
129.7472521423
 20
108.2146396763
 11
129.7455502767
 21
108.2146254459
  0
LINE
  8
0
 62
7
  6
CONTINUOUS
 10
132.5754773296
 20
108.2146254459
 11
129.7653572539
 21
108.2146254459
  0
LINE
  8
0
 62
7
  6
CONTINUOUS
 10
122.7389316143
 20
108.2146254459
 11
112.5041729905
 21
108.2146254459
  0
LINE
  8
0
 62
7
  6
CONTINUOUS
 10
112.5019123082
 20
108.2146254459
 11
109.5232271721
 21
108.2146254459
  0
LINE
  8
0
 62
7
  6
CONTINUOUS
 10
109.5130553423
 20
108.2146254459
 11
100.4283120719
 21
108.2146254459
  0
LINE
  8
0
 62
7
  6
CONTINUOUS
 10
100.4170551518
 20
108.2146254459
 11
97.222660205
 21
108.2146254459
  0
LINE
  8
0
 62
7
  6
CONTINUOUS
 10
97.2114128802
 20
108.2146254459
 11
88.1266492222
 21
108.2146254459
  0
LINE
  8
0
 62
7
  6
CONTINUOUS
 10
88.1164884919
 20
108.2146254459
 11
85.1378034358
 21
108.2146254459
  0
LINE
  8
0
 62
7
  6
CONTINUOUS
 10
85.1355188309
 20
108.2146254459
 11
74.9007839009
 21
108.2146254459
  0
LINE
  8
0
 62
7
  6
CONTINUOUS
 10
67.8743577022
 20
108.2146254459
 11
65.0642374041
 21
108.2146254459
  0
LINE
  8
0
 62
7
  6
CONTINUOUS
 10
67.8941677829
 20
108.2146254459
 11
74.891869343
 21
108.2146254459
  0
LINE
  8
0
 62
7
  6
CONTINUOUS
 10
122.7478419727
 20
108.2146254459
 11
129.7455473958
 21
108.2146254459
  0
LINE
  8
0
 62
9
  6
CONTINUOUS
 10
62.5329310291
 20
108.4371596744
 11
62.8125728491
 21
108.4371596744
  0
LINE
  8
0
 62
9
  6
CONTINUOUS
 10
65.6482129202
 20
108.4371596744
 11
66.9991320068
 21
108.4371596744
  0
LINE
  8
0
 62
9
  6
CONTINUOUS
 10
73.2435091969
 20
108.4371596744
 11
75.4832564418
 21
108.4371596744
  0
LINE
  8
0
 62
9
  6
CONTINUOUS
 10
84.29303301
 20
108.4371596744
 11
87.119118137
 21
108.4371596744
  0
LINE
  8
0
 62
9
  6
CONTINUOUS
 10
97.3044849412
 20
108.4371596744
 11
100.3352294939
 21
108.4371596744
  0
LINE
  8
0
 62
9
  6
CONTINUOUS
 10
110.5205963081
 20
108.4371596744
 11
113.3466814408
 21
108.4371596744
  0
LINE
  8
0
 62
9
  6
CONTINUOUS
 10
122.1564580376
 20
108.4371596744
 11
124.3962052932
 21
108.4371596744
  0
LINE
  8
0
 62
9
  6
CONTINUOUS
 10
130.6405825267
 20
108.4371596744
 11
131.9915016275
 21
108.4371596744
  0
LINE
  8
0
 62
9
  6
CONTINUOUS
 10
134.8271417509
 20
108.4371596744
 11
135.1067835867
 21
108.4371596744
  0
LINE
  8
0
 62
9
  6
CONTINUOUS
 10
128.1761397779
 20
108.7146254459
 11
124.8016963234
 21
108.7146254459
  0
LINE
  8
0
 62
9
  6
CONTINUOUS
 10
120.0695597349
 20
108.7146254459
 11
113.7710448756
 21
108.7146254459
  0
LINE
  8
0
 62
9
  6
CONTINUOUS
 10
109.0930908353
 20
108.7146254459
 11
100.9105489457
 21
108.7146254459
  0
LINE
  8
0
 62
9
  6
CONTINUOUS
 10
96.7291657573
 20
108.7146254459
 11
88.5466221577
 21
108.7146254459
  0
LINE
  8
0
 62
9
  6
CONTINUOUS
 10
83.8678980444
 20
108.7146254459
 11
77.5701516569
 21
108.7146254459
  0
LINE
  8
0
 62
9
  6
CONTINUOUS
 10
72.82663784
 20
108.7146254459
 11
69.4635746583
 21
108.7146254459
  0
LINE
  8
0
 62
9
  6
CONTINUOUS
 10
62.0764527247
 20
108.9352570235
 11
62.9018942269
 21
108.9352570235
  0
LINE
  8
0
 62
9
  6
CONTINUOUS
 10
65.1879964372
 20
108.9352570235
 11
67.2601688636
 21
108.9352570235
  0
LINE
  8
0
 62
9
  6
CONTINUOUS
 10
72.7741815748
 20
108.9352570235
 11
75.8807543035
 21
108.9352570235
  0
LINE
  8
0
 62
9
  6
CONTINUOUS
 10
83.8104519749
 20
108.9352570235
 11
87.5993927148
 21
108.9352570235
  0
LINE
  8
0
 62
9
  6
CONTINUOUS
 10
96.8062975806
 20
108.9352570235
 11
100.8334170448
 21
108.9352570235
  0
LINE
  8
0
 62
9
  6
CONTINUOUS
 10
110.0403219106
 20
108.9352570235
 11
113.8292628608
 21
108.9352570235
  0
LINE
  8
0
 62
9
  6
CONTINUOUS
 10
121.7589603219
 20
108.9352570235
 11
124.865533058
 21
108.9352570235
  0
LINE
  8
0
 62
9
  6
CONTINUOUS
 10
130.3795457619
 20
108.9352570235
 11
132.4517181925
 21
108.9352570235
  0
LINE
  8
0
 62
9
  6
CONTINUOUS
 10
134.7378203985
 20
108.9352570235
 11
135.5626199385
 21
108.9352570235
  0
LINE
  8
0
 62
7
  6
CONTINUOUS
 10
67.8924624415
 20
108.2146396769
 11
67.8941643488
 21
108.2146254459
  0
LINE
  8
0
 62
7
  6
CONTINUOUS
 10
97.2114128802
 20
108.2147505072
 11
97.2226521797
 21
108.2146254459
  0
LINE
  8
0
 62
7
  6
CONTINUOUS
 10
85.1269967926
 20
108.214750389
 11
85.1377960478
 21
108.2146254459
  0
LINE
  8
0
 62
7
  6
CONTINUOUS
 10
109.5130553423
 20
108.2147507131
 11
109.5232197153
 21
108.2146254459
  0
LINE
  8
0
 62
7
  6
CONTINUOUS
 10
74.891869343
 20
108.214750467
 11
74.9007781047
 21
108.2146254459
  0
LINE
  8
0
 62
7
  6
CONTINUOUS
 10
120.3705379737
 20
108.2147504847
 11
120.378238849
 21
108.2146254459
  0
LINE
  8
0
 62
7
  6
CONTINUOUS
 10
67.8883519248
 20
108.2147504835
 11
67.8924624415
 21
108.2146396769
  0
LINE
  8
0
 62
9
  6
CONTINUOUS
 10
65.6482109281
 20
108.4371596744
 11
65.6394026545
 21
108.4376239813
  0
LINE
  8
0
 62
9
  6
CONTINUOUS
 10
67.1678151149
 20
108.288773701
 11
67.1590473626
 21
108.2892375272
  0
LINE
  8
0
 62
9
  6
CONTINUOUS
 10
73.2435057291
 20
108.4371596744
 11
73.2098454778
 21
108.4394134316
  0
LINE
  8
0
 62
9
  6
CONTINUOUS
 10
74.3871166671
 20
108.2887737005
 11
74.3535341121
 21
108.2910254281
  0
POLYLINE
  8
0
 62
9
  6
CONTINUOUS
 66
1
 70
0
  0
VERTEX
  8
0
 62
9
  6
CONTINUOUS
 10
97.3043909555
 20
108.2887737025
  0
VERTEX
  8
0
 62
9
  6
CONTINUOUS
 10
97.1934443388
 20
108.3016230064
  0
VERTEX
  8
0
 62
9
  6
CONTINUOUS
 10
96.9937009942
 20
108.3981168081
  0
VERTEX
  8
0
 62
9
  6
CONTINUOUS
 10
96.914871937
 20
108.476946117
  0
VERTEX
  8
0
 62
9
  6
CONTINUOUS
 10
96.8187716274
 20
108.6762971244
  0
VERTEX
  8
0
 62
9
  6
CONTINUOUS
 10
96.806296049
 20
108.7868707396
  0
SEQEND
  0
LINE
  8
0
 62
9
  6
CONTINUOUS
 10
84.9061952297
 20
108.2887736917
 11
84.8061843853
 21
108.3008768018
  0
LINE
  8
0
 62
9
  6
CONTINUOUS
 10
84.2930285349
 20
108.4371596744
 11
84.1928566033
 21
108.4492823554
  0
POLYLINE
  8
0
 62
7
  6
CONTINUOUS
 66
1
 70
0
  0
VERTEX
  8
0
 62
7
  6
CONTINUOUS
 10
97.2114161814
 20
108.2147504848
  0
VERTEX
  8
0
 62
7
  6
CONTINUOUS
 10
97.0468306133
 20
108.2478552559
  0
VERTEX
  8
0
 62
7
  6
CONTINUOUS
 10
96.9023638865
 20
108.3357109904
  0
VERTEX
  8
0
 62
7
  6
CONTINUOUS
 10
96.8431156728
 20
108.3971581081
  0
VERTEX
  8
0
 62
7
  6
CONTINUOUS
 10
96.7592616411
 20
108.5460418554
  0
VERTEX
  8
0
 62
7
  6
CONTINUOUS
 10
96.7291500056
 20
108.7146254459
  0
SEQEND
  0
POLYLINE
  8
0
 62
9
  6
CONTINUOUS
 66
1
 70
0
  0
VERTEX
  8
0
 62
9
  6
CONTINUOUS
 10
97.3044800631
 20
108.4371596744
  0
VERTEX
  8
0
 62
9
  6
CONTINUOUS
 10
97.1136971989
 20
108.4755934166
  0
VERTEX
  8
0
 62
9
  6
CONTINUOUS
 10
96.9521021835
 20
108.5836874146
  0
VERTEX
  8
0
 62
9
  6
CONTINUOUS
 10
96.8441841213
 20
108.7450604377
  0
VERTEX
  8
0
 62
9
  6
CONTINUOUS
 10
96.8062975806
 20
108.9352570235
  0
SEQEND
  0
LINE
  8
0
 62
9
  6
CONTINUOUS
 10
88.5466221577
 20
108.7146254459
 11
88.2126411138
 21
108.7868707396
  0
POLYLINE
  8
0
 62
9
  6
CONTINUOUS
 66
1
 70
0
  0
VERTEX
  8
0
 62
9
  6
CONTINUOUS
 10
97.3044800631
 20
118.9920912174
  0
VERTEX
  8
0
 62
9
  6
CONTINUOUS
 10
97.300150852
 20
118.9717802712
  0
VERTEX
  8
0
 62
9
  6
CONTINUOUS
 10
97.2924989992
 20
118.8688844698
  0
VERTEX
  8
0
 62
9
  6
CONTINUOUS
 10
97.28951876
 20
118.7909039611
  0
VERTEX
  8
0
 62
9
  6
CONTINUOUS
 10
97.2859104822
 20
118.5991688105
  0
VERTEX
  8
0
 62
9
  6
CONTINUOUS
 10
97.2854439056
 20
118.4939938683
  0
SEQEND
  0
LINE
  8
0
 62
9
  6
CONTINUOUS
 10
100.8334170448
 20
118.6423801522
 11
100.9105489453
 21
118.7146254459
  0
LINE
  8
0
 62
9
  6
CONTINUOUS
 10
100.3353236711
 20
119.1404775013
 11
100.428312071
 21
119.2145001221
  0
POLYLINE
  8
0
 62
9
  6
CONTINUOUS
 66
1
 70
0
  0
VERTEX
  8
0
 62
9
  6
CONTINUOUS
 10
129.1208965697
 20
119.1404775013
  0
VERTEX
  8
0
 62
9
  6
CONTINUOUS
 10
129.0704380684
 20
119.1276278234
  0
VERTEX
  8
0
 62
9
  6
CONTINUOUS
 10
128.9738551614
 20
119.0311335341
  0
VERTEX
  8
0
 62
9
  6
CONTINUOUS
 10
128.9325504386
 20
118.9523041835
  0
VERTEX
  8
0
 62
9
  6
CONTINUOUS
 10
128.8741175441
 20
118.7529534907
  0
VERTEX
  8
0
 62
9
  6
CONTINUOUS
 10
128.8599052922
 20
118.6423801522
  0
SEQEND
  0
POLYLINE
  8
0
 62
7
  6
CONTINUOUS
 66
1
 70
0
  0
VERTEX
  8
0
 62
7
  6
CONTINUOUS
 10
88.1266477598
 20
108.2147504805
  0
VERTEX
  8
0
 62
7
  6
CONTINUOUS
 10
88.2678468034
 20
108.2478551989
  0
VERTEX
  8
0
 62
7
  6
CONTINUOUS
 10
88.3927014696
 20
108.3357108952
  0
VERTEX
  8
0
 62
7
  6
CONTINUOUS
 10
88.4443024482
 20
108.3971579941
  0
VERTEX
  8
0
 62
7
  6
CONTINUOUS
 10
88.5182988994
 20
108.5460416832
  0
VERTEX
  8
0
 62
7
  6
CONTINUOUS
 10
88.5466637948
 20
108.7146254459
  0
SEQEND
  0
POLYLINE
  8
0
 62
9
  6
CONTINUOUS
 66
1
 70
0
  0
VERTEX
  8
0
 62
9
  6
CONTINUOUS
 10
87.1191229396
 20
108.4371596744
  0
VERTEX
  8
0
 62
9
  6
CONTINUOUS
 10
87.2983861397
 20
108.4756591633
  0
VERTEX
  8
0
 62
9
  6
CONTINUOUS
 10
87.452565563
 20
108.5839294746
  0
VERTEX
  8
0
 62
9
  6
CONTINUOUS
 10
87.5582369951
 20
108.7454980685
  0
VERTEX
  8
0
 62
9
  6
CONTINUOUS
 10
87.5993927148
 20
108.9352570235
  0
SEQEND
  0
POLYLINE
  8
0
 62
9
  6
CONTINUOUS
 66
1
 70
0
  0
VERTEX
  8
0
 62
9
  6
CONTINUOUS
 10
87.7324558068
 20
108.2887733905
  0
VERTEX
  8
0
 62
9
  6
CONTINUOUS
 10
87.8363160792
 20
108.3016230684
  0
VERTEX
  8
0
 62
9
  6
CONTINUOUS
 10
88.0256174478
 20
108.3981173576
  0
VERTEX
  8
0
 62
9
  6
CONTINUOUS
 10
88.101612022
 20
108.4769467082
  0
VERTEX
  8
0
 62
9
  6
CONTINUOUS
 10
88.1975167758
 20
108.6762974011
  0
VERTEX
  8
0
 62
9
  6
CONTINUOUS
 10
88.2126411138
 20
108.7868707396
  0
SEQEND
  0
POLYLINE
  8
0
 62
7
  6
CONTINUOUS
 66
1
 70
0
  0
VERTEX
  8
0
 62
7
  6
CONTINUOUS
 10
69.322239841
 20
108.214750425
  0
VERTEX
  8
0
 62
7
  6
CONTINUOUS
 10
69.3211690639
 20
108.2146816016
  0
VERTEX
  8
0
 62
7
  6
CONTINUOUS
 10
69.3197731332
 20
108.2146396764
  0
VERTEX
  8
0
 62
7
  6
CONTINUOUS
 10
69.3180355284
 20
108.2146254459
  0
SEQEND
  0
POLYLINE
  8
0
 62
7
  6
CONTINUOUS
 66
1
 70
0
  0
VERTEX
  8
0
 62
7
  6
CONTINUOUS
 10
128.3174731404
 20
108.2147504669
  0
VERTEX
  8
0
 62
7
  6
CONTINUOUS
 10
128.3185455211
 20
108.2146816034
  0
VERTEX
  8
0
 62
7
  6
CONTINUOUS
 10
128.3199414666
 20
108.2146396769
  0
VERTEX
  8
0
 62
7
  6
CONTINUOUS
 10
128.3216790971
 20
108.2146254459
  0
SEQEND
  0
POLYLINE
  8
0
 62
9
  6
CONTINUOUS
 66
1
 70
0
  0
VERTEX
  8
0
 62
9
  6
CONTINUOUS
 10
109.9072588093
 20
108.2887737233
  0
VERTEX
  8
0
 62
9
  6
CONTINUOUS
 10
109.8033984623
 20
108.3016230007
  0
VERTEX
  8
0
 62
9
  6
CONTINUOUS
 10
109.6140965876
 20
108.398116765
  0
VERTEX
  8
0
 62
9
  6
CONTINUOUS
 10
109.538101679
 20
108.4769460702
  0
VERTEX
  8
0
 62
9
  6
CONTINUOUS
 10
109.4421964063
 20
108.6762971022
  0
VERTEX
  8
0
 62
9
  6
CONTINUOUS
 10
109.4270719869
 20
108.7868707396
  0
SEQEND
  0
POLYLINE
  8
0
 62
9
  6
CONTINUOUS
 66
1
 70
0
  0
VERTEX
  8
0
 62
9
  6
CONTINUOUS
 10
110.5205916859
 20
108.4371596744
  0
VERTEX
  8
0
 62
9
  6
CONTINUOUS
 10
110.3414783389
 20
108.4755934166
  0
VERTEX
  8
0
 62
9
  6
CONTINUOUS
 10
110.187382185
 20
108.5836874146
  0
VERTEX
  8
0
 62
9
  6
CONTINUOUS
 10
110.0816559049
 20
108.7450604377
  0
VERTEX
  8
0
 62
9
  6
CONTINUOUS
 10
110.0403219106
 20
108.9352570235
  0
SEQEND
  0
POLYLINE
  8
0
 62
7
  6
CONTINUOUS
 66
1
 70
0
  0
VERTEX
  8
0
 62
7
  6
CONTINUOUS
 10
109.5130666679
 20
108.2147504824
  0
VERTEX
  8
0
 62
7
  6
CONTINUOUS
 10
109.3718678321
 20
108.2478552217
  0
VERTEX
  8
0
 62
7
  6
CONTINUOUS
 10
109.2470133673
 20
108.3357109339
  0
VERTEX
  8
0
 62
7
  6
CONTINUOUS
 10
109.1954124931
 20
108.3971580412
  0
VERTEX
  8
0
 62
7
  6
CONTINUOUS
 10
109.1214163341
 20
108.5460417511
  0
VERTEX
  8
0
 62
7
  6
CONTINUOUS
 10
109.0930507344
 20
108.7146254459
  0
SEQEND
  0
POLYLINE
  8
0
 62
9
  6
CONTINUOUS
 66
1
 70
0
  0
VERTEX
  8
0
 62
9
  6
CONTINUOUS
 10
68.5188180695
 20
119.1404773223
  0
VERTEX
  8
0
 62
9
  6
CONTINUOUS
 10
68.5692765775
 20
119.1276278737
  0
VERTEX
  8
0
 62
9
  6
CONTINUOUS
 10
68.6658596053
 20
119.0311338816
  0
VERTEX
  8
0
 62
9
  6
CONTINUOUS
 10
68.7071644181
 20
118.9523045545
  0
VERTEX
  8
0
 62
9
  6
CONTINUOUS
 10
68.7655974669
 20
118.7529536634
  0
VERTEX
  8
0
 62
9
  6
CONTINUOUS
 10
68.7798097519
 20
118.6423801522
  0
SEQEND
  0
LINE
  8
0
 62
9
  6
CONTINUOUS
 10
100.4283120719
 20
108.2147507699
 11
100.3353236711
 21
108.2887733905
  0
LINE
  8
0
 62
9
  6
CONTINUOUS
 10
100.9105489457
 20
108.7146254459
 11
100.8334170448
 21
108.7868707396
  0
POLYLINE
  8
0
 62
9
  6
CONTINUOUS
 66
1
 70
0
  0
VERTEX
  8
0
 62
9
  6
CONTINUOUS
 10
97.2854439056
 20
108.9352570235
  0
VERTEX
  8
0
 62
9
  6
CONTINUOUS
 10
97.2859104822
 20
108.8300820813
  0
VERTEX
  8
0
 62
9
  6
CONTINUOUS
 10
97.28951876
 20
108.6383469307
  0
VERTEX
  8
0
 62
9
  6
CONTINUOUS
 10
97.2924989992
 20
108.560366422
  0
VERTEX
  8
0
 62
9
  6
CONTINUOUS
 10
97.300150852
 20
108.4574706206
  0
VERTEX
  8
0
 62
9
  6
CONTINUOUS
 10
97.3044800631
 20
108.4371596744
  0
SEQEND
  0
LINE
  8
0
 62
9
  6
CONTINUOUS
 10
97.3043909543
 20
119.1404775013
 11
97.3044849412
 21
118.9920912174
  0
LINE
  8
0
 62
7
  6
CONTINUOUS
 10
96.8062975806
 20
118.6423801522
 11
96.8062975806
 21
108.7868707396
  0
LINE
  8
0
 62
9
  6
CONTINUOUS
 10
97.2854439056
 20
118.4939938683
 11
97.2854439056
 21
108.9352570235
  0
LINE
  8
DEFAULT_1
 62
2
  6
CENTER
 10
98.8198573127
 20
101.7146254459
 11
98.8198573127
 21
125.7146254459
  0
LINE
  8
0
 62
9
  6
CONTINUOUS
 10
97.3044849412
 20
108.4371596744
 11
97.3043909543
 21
108.2887733905
  0
POLYLINE
  8
0
 62
7
  6
CONTINUOUS
 66
1
 70
0
  0
VERTEX
  8
0
 62
7
  6
CONTINUOUS
 10
77.2691745474
 20
108.2147504803
  0
VERTEX
  8
0
 62
7
  6
CONTINUOUS
 10
77.3679171816
 20
108.2478551959
  0
VERTEX
  8
0
 62
7
  6
CONTINUOUS
 10
77.4562972976
 20
108.3357108903
  0
VERTEX
  8
0
 62
7
  6
CONTINUOUS
 10
77.4932819433
 20
108.3971579883
  0
VERTEX
  8
0
 62
7
  6
CONTINUOUS
 10
77.5474268644
 20
108.5460416752
  0
VERTEX
  8
0
 62
7
  6
CONTINUOUS
 10
77.5702147263
 20
108.7146254459
  0
SEQEND
  0
POLYLINE
  8
0
 62
9
  6
CONTINUOUS
 66
1
 70
0
  0
VERTEX
  8
0
 62
9
  6
CONTINUOUS
 10
122.1564542955
 20
118.9920912174
  0
VERTEX
  8
0
 62
9
  6
CONTINUOUS
 10
122.0130794383
 20
118.9535917285
  0
VERTEX
  8
0
 62
9
  6
CONTINUOUS
 10
121.8872221144
 20
118.8453214172
  0
VERTEX
  8
0
 62
9
  6
CONTINUOUS
 10
121.7980077503
 20
118.6837528233
  0
VERTEX
  8
0
 62
9
  6
CONTINUOUS
 10
121.7589603219
 20
118.4939938683
  0
SEQEND
  0
POLYLINE
  8
0
 62
9
  6
CONTINUOUS
 66
1
 70
0
  0
VERTEX
  8
0
 62
9
  6
CONTINUOUS
 10
76.6270029532
 20
108.2887733905
  0
VERTEX
  8
0
 62
9
  6
CONTINUOUS
 10
76.7097500683
 20
108.3016230684
  0
VERTEX
  8
0
 62
9
  6
CONTINUOUS
 10
76.8630437893
 20
108.3981173576
  0
VERTEX
  8
0
 62
9
  6
CONTINUOUS
 10
76.9259407278
 20
108.4769467082
  0
VERTEX
  8
0
 62
9
  6
CONTINUOUS
 10
77.0086979636
 20
108.6762974011
  0
VERTEX
  8
0
 62
9
  6
CONTINUOUS
 10
77.0244285071
 20
108.7868707396
  0
SEQEND
  0
POLYLINE
  8
0
 62
9
  6
CONTINUOUS
 66
1
 70
0
  0
VERTEX
  8
0
 62
9
  6
CONTINUOUS
 10
121.0127116548
 20
108.2887737011
  0
VERTEX
  8
0
 62
9
  6
CONTINUOUS
 10
120.9299644936
 20
108.3016230069
  0
VERTEX
  8
0
 62
9
  6
CONTINUOUS
 10
120.7766704134
 20
108.3981168113
  0
VERTEX
  8
0
 62
9
  6
CONTINUOUS
 10
120.7137732306
 20
108.4769461205
  0
VERTEX
  8
0
 62
9
  6
CONTINUOUS
 10
120.6310156044
 20
108.6762971261
  0
VERTEX
  8
0
 62
9
  6
CONTINUOUS
 10
120.6152849922
 20
108.7868707396
  0
SEQEND
  0
POLYLINE
  8
0
 62
9
  6
CONTINUOUS
 66
1
 70
0
  0
VERTEX
  8
0
 62
9
  6
CONTINUOUS
 10
75.4832603299
 20
118.9920912174
  0
VERTEX
  8
0
 62
9
  6
CONTINUOUS
 10
75.6265139096
 20
118.9536574752
  0
VERTEX
  8
0
 62
9
  6
CONTINUOUS
 10
75.7522996626
 20
118.8455634772
  0
VERTEX
  8
0
 62
9
  6
CONTINUOUS
 10
75.8415552407
 20
118.6841904541
  0
VERTEX
  8
0
 62
9
  6
CONTINUOUS
 10
75.8807543035
 20
118.4939938683
  0
SEQEND
  0
POLYLINE
  8
0
 62
7
  6
CONTINUOUS
 66
1
 70
0
  0
VERTEX
  8
0
 62
7
  6
CONTINUOUS
 10
77.2691745475
 20
119.2145004115
  0
VERTEX
  8
0
 62
7
  6
CONTINUOUS
 10
77.3679171816
 20
119.1813956959
  0
VERTEX
  8
0
 62
7
  6
CONTINUOUS
 10
77.4562972973
 20
119.0935400015
  0
VERTEX
  8
0
 62
7
  6
CONTINUOUS
 10
77.4932819426
 20
119.0320929034
  0
VERTEX
  8
0
 62
7
  6
CONTINUOUS
 10
77.5474268616
 20
118.8832092165
  0
VERTEX
  8
0
 62
7
  6
CONTINUOUS
 10
77.5702147259
 20
118.7146254459
  0
SEQEND
  0
POLYLINE
  8
0
 62
9
  6
CONTINUOUS
 66
1
 70
0
  0
VERTEX
  8
0
 62
9
  6
CONTINUOUS
 10
100.3542707198
 20
118.4939938683
  0
VERTEX
  8
0
 62
9
  6
CONTINUOUS
 10
100.3538041432
 20
118.5991688105
  0
VERTEX
  8
0
 62
9
  6
CONTINUOUS
 10
100.3501958654
 20
118.7909039611
  0
VERTEX
  8
0
 62
9
  6
CONTINUOUS
 10
100.3472156262
 20
118.8688844698
  0
VERTEX
  8
0
 62
9
  6
CONTINUOUS
 10
100.3395637734
 20
118.9717802712
  0
VERTEX
  8
0
 62
9
  6
CONTINUOUS
 10
100.3352345623
 20
118.9920912174
  0
SEQEND
  0
LINE
  8
0
 62
9
  6
CONTINUOUS
 10
100.3353236711
 20
108.2887733905
 11
100.3352294939
 21
108.4371596744
  0
LINE
  8
0
 62
9
  6
CONTINUOUS
 10
100.3542707198
 20
108.9352570235
 11
100.3542707198
 21
118.4939938683
  0
LINE
  8
0
 62
7
  6
CONTINUOUS
 10
100.8334170448
 20
108.7868707396
 11
100.8334170448
 21
118.6423801522
  0
LINE
  8
0
 62
9
  6
CONTINUOUS
 10
100.3352294939
 20
118.9920912174
 11
100.3353236711
 21
119.1404775013
  0
POLYLINE
  8
0
 62
9
  6
CONTINUOUS
 66
1
 70
0
  0
VERTEX
  8
0
 62
9
  6
CONTINUOUS
 10
100.3352345623
 20
108.4371596744
  0
VERTEX
  8
0
 62
9
  6
CONTINUOUS
 10
100.3395637734
 20
108.4574706206
  0
VERTEX
  8
0
 62
9
  6
CONTINUOUS
 10
100.3472156262
 20
108.560366422
  0
VERTEX
  8
0
 62
9
  6
CONTINUOUS
 10
100.3501958654
 20
108.6383469307
  0
VERTEX
  8
0
 62
9
  6
CONTINUOUS
 10
100.3538041432
 20
108.8300820813
  0
VERTEX
  8
0
 62
9
  6
CONTINUOUS
 10
100.3542707198
 20
108.9352570235
  0
SEQEND
  0
LINE
  8
0
 62
9
  6
CONTINUOUS
 10
96.8062975806
 20
108.7868707396
 11
96.7291657573
 21
108.7146254459
  0
POLYLINE
  8
0
 62
7
  6
CONTINUOUS
 66
1
 70
0
  0
VERTEX
  8
0
 62
7
  6
CONTINUOUS
 10
120.3705394413
 20
119.2145004064
  0
VERTEX
  8
0
 62
7
  6
CONTINUOUS
 10
120.2717975917
 20
119.1813956286
  0
VERTEX
  8
0
 62
7
  6
CONTINUOUS
 10
120.1834183091
 20
119.0935398893
  0
VERTEX
  8
0
 62
7
  6
CONTINUOUS
 10
120.1464341463
 20
119.0320927695
  0
VERTEX
  8
0
 62
7
  6
CONTINUOUS
 10
120.0922908191
 20
118.8832090142
  0
VERTEX
  8
0
 62
7
  6
CONTINUOUS
 10
120.0694996022
 20
118.7146254459
  0
SEQEND
  0
POLYLINE
  8
0
 62
9
  6
CONTINUOUS
 66
1
 70
0
  0
VERTEX
  8
0
 62
9
  6
CONTINUOUS
 10
75.4832603299
 20
108.4371596744
  0
VERTEX
  8
0
 62
9
  6
CONTINUOUS
 10
75.6266351872
 20
108.4756591633
  0
VERTEX
  8
0
 62
9
  6
CONTINUOUS
 10
75.752492511
 20
108.5839294746
  0
VERTEX
  8
0
 62
9
  6
CONTINUOUS
 10
75.8417068751
 20
108.7454980685
  0
VERTEX
  8
0
 62
9
  6
CONTINUOUS
 10
75.8807543035
 20
108.9352570235
  0
SEQEND
  0
POLYLINE
  8
0
 62
9
  6
CONTINUOUS
 66
1
 70
0
  0
VERTEX
  8
0
 62
9
  6
CONTINUOUS
 10
68.5188180558
 20
108.2887733905
  0
VERTEX
  8
0
 62
9
  6
CONTINUOUS
 10
68.5692765571
 20
108.3016230684
  0
VERTEX
  8
0
 62
9
  6
CONTINUOUS
 10
68.6658594641
 20
108.3981173576
  0
VERTEX
  8
0
 62
9
  6
CONTINUOUS
 10
68.7071641868
 20
108.4769467082
  0
VERTEX
  8
0
 62
9
  6
CONTINUOUS
 10
68.7655970814
 20
108.6762974011
  0
VERTEX
  8
0
 62
9
  6
CONTINUOUS
 10
68.7798093332
 20
108.7868707396
  0
SEQEND
  0
POLYLINE
  8
0
 62
9
  6
CONTINUOUS
 66
1
 70
0
  0
VERTEX
  8
0
 62
9
  6
CONTINUOUS
 10
110.5205916859
 20
118.9920912174
  0
VERTEX
  8
0
 62
9
  6
CONTINUOUS
 10
110.3413284858
 20
118.9535917285
  0
VERTEX
  8
0
 62
9
  6
CONTINUOUS
 10
110.1871490625
 20
118.8453214172
  0
VERTEX
  8
0
 62
9
  6
CONTINUOUS
 10
110.0814776304
 20
118.6837528233
  0
VERTEX
  8
0
 62
9
  6
CONTINUOUS
 10
110.0403219106
 20
118.4939938683
  0
SEQEND
  0
POLYLINE
  8
0
 62
9
  6
CONTINUOUS
 66
1
 70
0
  0
VERTEX
  8
0
 62
9
  6
CONTINUOUS
 10
121.0127116722
 20
119.1404775013
  0
VERTEX
  8
0
 62
9
  6
CONTINUOUS
 10
120.9299645572
 20
119.1276278234
  0
VERTEX
  8
0
 62
9
  6
CONTINUOUS
 10
120.7766708361
 20
119.0311335341
  0
VERTEX
  8
0
 62
9
  6
CONTINUOUS
 10
120.7137738977
 20
118.9523041835
  0
VERTEX
  8
0
 62
9
  6
CONTINUOUS
 10
120.6310166618
 20
118.7529534907
  0
VERTEX
  8
0
 62
9
  6
CONTINUOUS
 10
120.6152861184
 20
118.6423801522
  0
SEQEND
  0
POLYLINE
  8
0
 62
9
  6
CONTINUOUS
 66
1
 70
0
  0
VERTEX
  8
0
 62
9
  6
CONTINUOUS
 10
76.6270029636
 20
119.1404773172
  0
VERTEX
  8
0
 62
9
  6
CONTINUOUS
 10
76.709750106
 20
119.1276278758
  0
VERTEX
  8
0
 62
9
  6
CONTINUOUS
 10
76.8630440545
 20
119.0311338936
  0
VERTEX
  8
0
 62
9
  6
CONTINUOUS
 10
76.9259411489
 20
118.9523045674
  0
VERTEX
  8
0
 62
9
  6
CONTINUOUS
 10
77.0086986344
 20
118.7529536694
  0
VERTEX
  8
0
 62
9
  6
CONTINUOUS
 10
77.0244292221
 20
118.6423801522
  0
SEQEND
  0
POLYLINE
  8
0
 62
9
  6
CONTINUOUS
 66
1
 70
0
  0
VERTEX
  8
0
 62
9
  6
CONTINUOUS
 10
87.1191229396
 20
118.9920912174
  0
VERTEX
  8
0
 62
9
  6
CONTINUOUS
 10
87.2982362865
 20
118.9536574752
  0
VERTEX
  8
0
 62
9
  6
CONTINUOUS
 10
87.4523324405
 20
118.8455634772
  0
VERTEX
  8
0
 62
9
  6
CONTINUOUS
 10
87.5580587206
 20
118.6841904541
  0
VERTEX
  8
0
 62
9
  6
CONTINUOUS
 10
87.5993927148
 20
118.4939938683
  0
SEQEND
  0
POLYLINE
  8
0
 62
9
  6
CONTINUOUS
 66
1
 70
0
  0
VERTEX
  8
0
 62
9
  6
CONTINUOUS
 10
129.1208965459
 20
108.2887737005
  0
VERTEX
  8
0
 62
9
  6
CONTINUOUS
 10
129.0704380327
 20
108.301623007
  0
VERTEX
  8
0
 62
9
  6
CONTINUOUS
 10
128.9738549301
 20
108.3981168124
  0
VERTEX
  8
0
 62
9
  6
CONTINUOUS
 10
128.932550062
 20
108.4769461216
  0
VERTEX
  8
0
 62
9
  6
CONTINUOUS
 10
128.8741169191
 20
108.6762971266
  0
VERTEX
  8
0
 62
9
  6
CONTINUOUS
 10
128.8599046141
 20
108.7868707396
  0
SEQEND
  0
POLYLINE
  8
0
 62
9
  6
CONTINUOUS
 66
1
 70
0
  0
VERTEX
  8
0
 62
9
  6
CONTINUOUS
 10
122.1564542955
 20
108.4371596744
  0
VERTEX
  8
0
 62
9
  6
CONTINUOUS
 10
122.0132007158
 20
108.4755934166
  0
VERTEX
  8
0
 62
9
  6
CONTINUOUS
 10
121.8874149628
 20
108.5836874146
  0
VERTEX
  8
0
 62
9
  6
CONTINUOUS
 10
121.7981593848
 20
108.7450604377
  0
VERTEX
  8
0
 62
9
  6
CONTINUOUS
 10
121.7589603219
 20
108.9352570235
  0
SEQEND
  0
POLYLINE
  8
0
 62
7
  6
CONTINUOUS
 66
1
 70
0
  0
VERTEX
  8
0
 62
7
  6
CONTINUOUS
 10
120.3705394421
 20
108.2147504854
  0
VERTEX
  8
0
 62
7
  6
CONTINUOUS
 10
120.2717975918
 20
108.247855263
  0
VERTEX
  8
0
 62
7
  6
CONTINUOUS
 10
120.1834183083
 20
108.3357110024
  0
VERTEX
  8
0
 62
7
  6
CONTINUOUS
 10
120.146434145
 20
108.3971581222
  0
VERTEX
  8
0
 62
7
  6
CONTINUOUS
 10
120.0922908172
 20
108.5460418777
  0
VERTEX
  8
0
 62
7
  6
CONTINUOUS
 10
120.0694996032
 20
108.7146254459
  0
SEQEND
  0
LINE
  8
0
 62
9
  6
CONTINUOUS
 10
96.7291657572
 20
118.7146254459
 11
96.8062975806
 21
118.6423801522
  0
LINE
  8
0
 62
9
  6
CONTINUOUS
 10
103.7447122413
 20
108.7146254459
 11
103.7447122413
 21
118.7146254459
  0
LINE
  8
0
 62
9
  6
CONTINUOUS
 10
97.3043909543
 20
108.2887733905
 11
97.2114128802
 21
108.2147505072
  0
POLYLINE
  8
0
 62
7
  6
CONTINUOUS
 66
1
 70
0
  0
VERTEX
  8
0
 62
7
  6
CONTINUOUS
 10
109.513066667
 20
119.2145004094
  0
VERTEX
  8
0
 62
7
  6
CONTINUOUS
 10
109.3718678286
 20
119.1813956685
  0
VERTEX
  8
0
 62
7
  6
CONTINUOUS
 10
109.2470133669
 20
119.093539957
  0
VERTEX
  8
0
 62
7
  6
CONTINUOUS
 10
109.1954124939
 20
119.0320928515
  0
VERTEX
  8
0
 62
7
  6
CONTINUOUS
 10
109.1214163321
 20
118.883209145
  0
VERTEX
  8
0
 62
7
  6
CONTINUOUS
 10
109.0930507328
 20
118.7146254459
  0
SEQEND
  0
POLYLINE
  8
0
 62
9
  6
CONTINUOUS
 66
1
 70
0
  0
VERTEX
  8
0
 62
9
  6
CONTINUOUS
 10
109.9072588187
 20
119.1404775013
  0
VERTEX
  8
0
 62
9
  6
CONTINUOUS
 10
109.8033985463
 20
119.1276278234
  0
VERTEX
  8
0
 62
9
  6
CONTINUOUS
 10
109.6140971776
 20
119.0311335341
  0
VERTEX
  8
0
 62
9
  6
CONTINUOUS
 10
109.5381026035
 20
118.9523041835
  0
VERTEX
  8
0
 62
9
  6
CONTINUOUS
 10
109.4421978497
 20
118.7529534907
  0
VERTEX
  8
0
 62
9
  6
CONTINUOUS
 10
109.4270735116
 20
118.6423801522
  0
SEQEND
  0
POLYLINE
  8
0
 62
7
  6
CONTINUOUS
 66
1
 70
0
  0
VERTEX
  8
0
 62
7
  6
CONTINUOUS
 10
128.3174731398
 20
119.2145004249
  0
VERTEX
  8
0
 62
7
  6
CONTINUOUS
 10
128.3185455211
 20
119.2145692884
  0
VERTEX
  8
0
 62
7
  6
CONTINUOUS
 10
128.3199414666
 20
119.2146112149
  0
VERTEX
  8
0
 62
7
  6
CONTINUOUS
 10
128.3216790971
 20
119.2146254459
  0
SEQEND
  0
LINE
  8
0
 62
7
  6
CONTINUOUS
 10
120.3705379726
 20
119.2145004072
 11
120.378238849
 21
119.2146254459
  0
LINE
  8
0
 62
7
  6
CONTINUOUS
 10
109.5130553399
 20
119.2145001787
 11
109.5232197153
 21
119.2146254459
  0
LINE
  8
0
 62
9
  6
CONTINUOUS
 10
135.5626199385
 20
118.4939938683
 11
134.7378203985
 21
118.4939938683
  0
LINE
  8
0
 62
9
  6
CONTINUOUS
 10
62.077094687
 20
118.4939938683
 11
62.9018942269
 21
118.4939938683
  0
LINE
  8
0
 62
9
  6
CONTINUOUS
 10
65.187996433
 20
118.4939938683
 11
67.2601688636
 21
118.4939938683
  0
LINE
  8
0
 62
9
  6
CONTINUOUS
 10
72.7741815674
 20
118.4939938683
 11
75.8807543035
 21
118.4939938683
  0
LINE
  8
0
 62
9
  6
CONTINUOUS
 10
83.8104517647
 20
118.4939938683
 11
87.5993927148
 21
118.4939938683
  0
LINE
  8
0
 62
9
  6
CONTINUOUS
 10
96.8062975806
 20
118.4939938683
 11
100.8334170448
 21
118.4939938683
  0
LINE
  8
0
 62
9
  6
CONTINUOUS
 10
110.0403219106
 20
118.4939938683
 11
113.8292626505
 21
118.4939938683
  0
LINE
  8
0
 62
9
  6
CONTINUOUS
 10
121.7589603219
 20
118.4939938683
 11
124.8655330506
 21
118.4939938683
  0
LINE
  8
0
 62
9
  6
CONTINUOUS
 10
130.3795457619
 20
118.4939938683
 11
132.4517181883
 21
118.4939938683
  0
LINE
  8
0
 62
9
  6
CONTINUOUS
 10
69.4635746583
 20
118.7146254459
 11
72.838018302
 21
118.7146254459
  0
LINE
  8
0
 62
9
  6
CONTINUOUS
 10
77.5701516566
 20
118.7146254459
 11
83.8686697499
 21
118.7146254459
  0
LINE
  8
0
 62
9
  6
CONTINUOUS
 10
88.5466221574
 20
118.7146254459
 11
96.7291657572
 21
118.7146254459
  0
LINE
  8
0
 62
9
  6
CONTINUOUS
 10
100.9105489453
 20
118.7146254459
 11
109.0930908343
 21
118.7146254459
  0
LINE
  8
0
 62
9
  6
CONTINUOUS
 10
113.7718165811
 20
118.7146254459
 11
120.0695597344
 21
118.7146254459
  0
LINE
  8
0
 62
9
  6
CONTINUOUS
 10
124.8130767855
 20
118.7146254459
 11
128.1761397776
 21
118.7146254459
  0
LINE
  8
0
 62
9
  6
CONTINUOUS
 10
62.5329310291
 20
118.9920912174
 11
62.8125728491
 21
118.9920912174
  0
LINE
  8
0
 62
9
  6
CONTINUOUS
 10
65.6482129202
 20
118.9920912174
 11
66.9991320068
 21
118.9920912174
  0
LINE
  8
0
 62
9
  6
CONTINUOUS
 10
73.2435091969
 20
118.9920912174
 11
75.4832564418
 21
118.9920912174
  0
LINE
  8
0
 62
9
  6
CONTINUOUS
 10
84.29303301
 20
118.9920912174
 11
87.119118137
 21
118.9920912174
  0
LINE
  8
0
 62
9
  6
CONTINUOUS
 10
97.3044849412
 20
118.9920912174
 11
100.3352294939
 21
118.9920912174
  0
LINE
  8
0
 62
9
  6
CONTINUOUS
 10
110.5205963081
 20
118.9920912174
 11
113.3466814408
 21
118.9920912174
  0
LINE
  8
0
 62
9
  6
CONTINUOUS
 10
122.1564580376
 20
118.9920912174
 11
124.3962052932
 21
118.9920912174
  0
LINE
  8
0
 62
9
  6
CONTINUOUS
 10
130.6405825267
 20
118.9920912174
 11
131.9915016275
 21
118.9920912174
  0
LINE
  8
0
 62
9
  6
CONTINUOUS
 10
134.8271417509
 20
118.9920912174
 11
135.1067835867
 21
118.9920912174
  0
LINE
  8
0
 62
7
  6
CONTINUOUS
 10
88.1266492219
 20
119.214500375
 11
88.1164949102
 21
119.2146254459
  0
LINE
  8
0
 62
7
  6
CONTINUOUS
 10
77.2691750939
 20
119.214500388
 11
77.2614757765
 21
119.2146254459
  0
POLYLINE
  8
0
 62
7
  6
CONTINUOUS
 66
1
 70
0
  0
VERTEX
  8
0
 62
7
  6
CONTINUOUS
 10
69.3222398411
 20
119.2145004668
  0
VERTEX
  8
0
 62
7
  6
CONTINUOUS
 10
69.3211690639
 20
119.2145692902
  0
VERTEX
  8
0
 62
7
  6
CONTINUOUS
 10
69.3197731332
 20
119.2146112153
  0
VERTEX
  8
0
 62
7
  6
CONTINUOUS
 10
69.3180355284
 20
119.2146254459
  0
SEQEND
  0
POLYLINE
  8
0
 62
9
  6
CONTINUOUS
 66
1
 70
0
  0
VERTEX
  8
0
 62
9
  6
CONTINUOUS
 10
87.7324558119
 20
119.1404773173
  0
VERTEX
  8
0
 62
9
  6
CONTINUOUS
 10
87.836316129
 20
119.1276278757
  0
VERTEX
  8
0
 62
9
  6
CONTINUOUS
 10
88.0256177976
 20
119.0311338932
  0
VERTEX
  8
0
 62
9
  6
CONTINUOUS
 10
88.1016125693
 20
118.9523045671
  0
VERTEX
  8
0
 62
9
  6
CONTINUOUS
 10
88.1975176291
 20
118.7529536693
  0
VERTEX
  8
0
 62
9
  6
CONTINUOUS
 10
88.2126420153
 20
118.6423801522
  0
SEQEND
  0
POLYLINE
  8
0
 62
7
  6
CONTINUOUS
 66
1
 70
0
  0
VERTEX
  8
0
 62
7
  6
CONTINUOUS
 10
88.1266477599
 20
119.2145004113
  0
VERTEX
  8
0
 62
7
  6
CONTINUOUS
 10
88.2678468034
 20
119.1813956929
  0
VERTEX
  8
0
 62
7
  6
CONTINUOUS
 10
88.3927014694
 20
119.0935399966
  0
VERTEX
  8
0
 62
7
  6
CONTINUOUS
 10
88.4443024476
 20
119.0320928976
  0
VERTEX
  8
0
 62
7
  6
CONTINUOUS
 10
88.5182988969
 20
118.8832092084
  0
VERTEX
  8
0
 62
7
  6
CONTINUOUS
 10
88.5466637944
 20
118.7146254459
  0
SEQEND
  0
LINE
  8
0
 62
9
  6
CONTINUOUS
 10
97.2114128795
 20
119.2145003846
 11
97.3043909543
 21
119.1404775013
  0
LINE
  8
0
 62
9
  6
CONTINUOUS
 10
105.4813748382
 20
108.7146254459
 11
105.4813748382
 21
118.7146254459
  0
POLYLINE
  8
0
 62
9
  6
CONTINUOUS
 66
1
 70
0
  0
VERTEX
  8
0
 62
9
  6
CONTINUOUS
 10
103.6666390813
 20
108.2146254459
  0
VERTEX
  8
0
 62
9
  6
CONTINUOUS
 10
103.6840120281
 20
108.2271615399
  0
VERTEX
  8
0
 62
9
  6
CONTINUOUS
 10
103.7153169498
 20
108.3237099573
  0
VERTEX
  8
0
 62
9
  6
CONTINUOUS
 10
103.7276791725
 20
108.4028808397
  0
VERTEX
  8
0
 62
9
  6
CONTINUOUS
 10
103.7427547897
 20
108.6033651309
  0
VERTEX
  8
0
 62
9
  6
CONTINUOUS
 10
103.7447122413
 20
108.7146254459
  0
SEQEND
  0
POLYLINE
  8
0
 62
9
  6
CONTINUOUS
 66
1
 70
0
  0
VERTEX
  8
0
 62
9
  6
CONTINUOUS
 10
105.3757705654
 20
108.2146254459
  0
VERTEX
  8
0
 62
9
  6
CONTINUOUS
 10
105.3992697268
 20
108.2271614897
  0
VERTEX
  8
0
 62
9
  6
CONTINUOUS
 10
105.4416137524
 20
108.3237097043
  0
VERTEX
  8
0
 62
9
  6
CONTINUOUS
 10
105.4583353105
 20
108.4028805446
  0
VERTEX
  8
0
 62
9
  6
CONTINUOUS
 10
105.4787271186
 20
108.6033649787
  0
VERTEX
  8
0
 62
9
  6
CONTINUOUS
 10
105.4813748382
 20
108.7146254459
  0
SEQEND
  0
POLYLINE
  8
0
 62
9
  6
CONTINUOUS
 66
1
 70
0
  0
VERTEX
  8
0
 62
9
  6
CONTINUOUS
 10
130.6405801701
 20
118.9920912174
  0
VERTEX
  8
0
 62
9
  6
CONTINUOUS
 10
130.5524572246
 20
118.9535917285
  0
VERTEX
  8
0
 62
9
  6
CONTINUOUS
 10
130.4719197292
 20
118.8453214172
  0
VERTEX
  8
0
 62
9
  6
CONTINUOUS
 10
130.4112113273
 20
118.6837528233
  0
VERTEX
  8
0
 62
9
  6
CONTINUOUS
 10
130.3795457619
 20
118.4939938683
  0
SEQEND
  0
LINE
  8
0
 62
9
  6
CONTINUOUS
 10
87.5993927148
 20
118.4939938776
 11
88.2126411138
 21
118.6423801522
  0
LINE
  8
0
 62
9
  6
CONTINUOUS
 10
87.119118137
 20
118.9920912174
 11
87.7324558068
 21
119.1404775013
  0
LINE
  8
0
 62
9
  6
CONTINUOUS
 10
88.2126411138
 20
118.6423801522
 11
88.5466221574
 21
118.7146254459
  0
POLYLINE
  8
0
 62
9
  6
CONTINUOUS
 66
1
 70
0
  0
VERTEX
  8
0
 62
9
  6
CONTINUOUS
 10
97.3044800631
 20
118.9920912174
  0
VERTEX
  8
0
 62
9
  6
CONTINUOUS
 10
97.1135390087
 20
118.9535917285
  0
VERTEX
  8
0
 62
9
  6
CONTINUOUS
 10
96.9518602714
 20
118.8453214172
  0
VERTEX
  8
0
 62
9
  6
CONTINUOUS
 10
96.8440032838
 20
118.6837528233
  0
VERTEX
  8
0
 62
9
  6
CONTINUOUS
 10
96.8062975806
 20
118.4939938683
  0
SEQEND
  0
POLYLINE
  8
0
 62
7
  6
CONTINUOUS
 66
1
 70
0
  0
VERTEX
  8
0
 62
7
  6
CONTINUOUS
 10
97.2114161811
 20
119.2145004069
  0
VERTEX
  8
0
 62
7
  6
CONTINUOUS
 10
97.0468306123
 20
119.1813956355
  0
VERTEX
  8
0
 62
7
  6
CONTINUOUS
 10
96.9023638864
 20
119.0935399011
  0
VERTEX
  8
0
 62
7
  6
CONTINUOUS
 10
96.8431156732
 20
119.0320927838
  0
VERTEX
  8
0
 62
7
  6
CONTINUOUS
 10
96.7592616416
 20
118.8832090371
  0
VERTEX
  8
0
 62
7
  6
CONTINUOUS
 10
96.7291500054
 20
118.7146254459
  0
SEQEND
  0
LINE
  8
0
 62
9
  6
CONTINUOUS
 10
87.7324558068
 20
119.1404775013
 11
88.1266492219
 21
119.214500375
  0
LINE
  8
0
 62
9
  6
CONTINUOUS
 10
77.0244285071
 20
118.6423801522
 11
77.5701516566
 21
118.7146254459
  0
LINE
  8
0
 62
9
  6
CONTINUOUS
 10
75.8807543035
 20
118.4939938776
 11
77.0244285071
 21
118.6423801522
  0
LINE
  8
0
 62
9
  6
CONTINUOUS
 10
84.2930285349
 20
118.9920912174
 11
84.1928326851
 21
118.9799627472
  0
LINE
  8
0
 62
9
  6
CONTINUOUS
 10
84.9061952192
 20
119.1404775013
 11
84.8061818158
 21
119.1283734003
  0
POLYLINE
  8
0
 62
9
  6
CONTINUOUS
 66
1
 70
0
  0
VERTEX
  8
0
 62
9
  6
CONTINUOUS
 10
97.3043909543
 20
119.1404775013
  0
VERTEX
  8
0
 62
9
  6
CONTINUOUS
 10
97.1934444299
 20
119.1276278234
  0
VERTEX
  8
0
 62
9
  6
CONTINUOUS
 10
96.9937016124
 20
119.0311335341
  0
VERTEX
  8
0
 62
9
  6
CONTINUOUS
 10
96.914872891
 20
118.9523041835
  0
VERTEX
  8
0
 62
9
  6
CONTINUOUS
 10
96.8187730876
 20
118.7529534907
  0
VERTEX
  8
0
 62
9
  6
CONTINUOUS
 10
96.8062975806
 20
118.6423801522
  0
SEQEND
  0
LINE
  8
0
 62
9
  6
CONTINUOUS
 10
76.6270029532
 20
119.1404775013
 11
77.2691750939
 21
119.214500388
  0
LINE
  8
0
 62
9
  6
CONTINUOUS
 10
67.2601688636
 20
118.4939938776
 11
68.7798093332
 21
118.6423801522
  0
LINE
  8
0
 62
7
  6
CONTINUOUS
 10
74.8918704484
 20
119.2145004067
 11
74.8392694426
 21
119.2093886066
  0
LINE
  8
0
 62
9
  6
CONTINUOUS
 10
62.9018942269
 20
118.4939938776
 11
64.5922650966
 21
118.6423801522
  0
LINE
  8
0
 62
7
  6
CONTINUOUS
 10
67.888353301
 20
119.2145004064
 11
67.8743560006
 21
119.2134909519
  0
LINE
  8
0
 62
9
  6
CONTINUOUS
 10
74.387116648
 20
119.1404775013
 11
74.353533613
 21
119.1382255515
  0
LINE
  8
0
 62
9
  6
CONTINUOUS
 10
73.2435057291
 20
118.9920912174
 11
73.2101000799
 21
118.9898704285
  0
LINE
  8
0
 62
7
  6
CONTINUOUS
 10
65.0623033746
 20
119.2145001717
 11
65.0642367928
 21
119.2146254459
  0
LINE
  8
0
 62
9
  6
CONTINUOUS
 10
62.5329307818
 20
118.9920912174
 11
62.5327492638
 21
118.9920802156
  0
LINE
  8
0
 62
9
  6
CONTINUOUS
 10
67.1678150901
 20
119.1404775013
 11
67.1590473392
 21
119.140013606
  0
LINE
  8
0
 62
9
  6
CONTINUOUS
 10
65.6482109281
 20
118.9920912174
 11
65.639576829
 21
118.9916438856
  0
LINE
  8
0
 62
7
  6
CONTINUOUS
 10
67.8883519251
 20
119.2145004083
 11
67.8924624415
 21
119.2146112148
  0
LINE
  8
0
 62
7
  6
CONTINUOUS
 10
74.891869343
 20
119.2145004248
 11
74.9007781047
 21
119.2146254459
  0
LINE
  8
0
 62
7
  6
CONTINUOUS
 10
85.1269967926
 20
119.2145005028
 11
85.1377960478
 21
119.2146254459
  0
LINE
  8
0
 62
7
  6
CONTINUOUS
 10
97.2114128795
 20
119.2145003846
 11
97.2226521797
 21
119.2146254459
  0
LINE
  8
0
 62
7
  6
CONTINUOUS
 10
67.8924624415
 20
119.2146112148
 11
67.8941643488
 21
119.2146254459
  0
LINE
  8
0
 62
7
  6
CONTINUOUS
 10
65.0642374041
 20
119.2146254459
 11
67.8743576429
 21
119.2146254459
  0
LINE
  8
0
 62
7
  6
CONTINUOUS
 10
67.8941677829
 20
119.2146254459
 11
74.891869343
 21
119.2146254459
  0
LINE
  8
0
 62
7
  6
CONTINUOUS
 10
74.9007839009
 20
119.2146254459
 11
85.1355188309
 21
119.2146254459
  0
LINE
  8
0
 62
7
  6
CONTINUOUS
 10
85.1378034358
 20
119.2146254459
 11
88.1164884919
 21
119.2146254459
  0
LINE
  8
0
 62
7
  6
CONTINUOUS
 10
88.1266492219
 20
119.2146254459
 11
97.2114128795
 21
119.2146254459
  0
LINE
  8
0
 62
7
  6
CONTINUOUS
 10
97.222660205
 20
119.2146254459
 11
100.4170551518
 21
119.2146254459
  0
LINE
  8
0
 62
7
  6
CONTINUOUS
 10
100.4282980149
 20
119.2146254459
 11
109.5130553399
 21
119.2146254459
  0
LINE
  8
0
 62
7
  6
CONTINUOUS
 10
109.5232271721
 20
119.2146254459
 11
112.5019123082
 21
119.2146254459
  0
LINE
  8
0
 62
7
  6
CONTINUOUS
 10
112.5041729905
 20
119.2146254459
 11
122.7389316143
 21
119.2146254459
  0
LINE
  8
0
 62
7
  6
CONTINUOUS
 10
122.7478419727
 20
119.2146254459
 11
129.7455473958
 21
119.2146254459
  0
LINE
  8
0
 62
7
  6
CONTINUOUS
 10
129.7653572058
 20
119.2146254459
 11
132.5754773296
 21
119.2146254459
  0
LINE
  8
0
 62
7
  6
CONTINUOUS
 10
129.7472521423
 20
119.2146112155
 11
129.7455502767
 21
119.2146254459
  0
LINE
  8
0
 62
7
  6
CONTINUOUS
 10
100.428312071
 20
119.2145001221
 11
100.4170624457
 21
119.2146254459
  0
LINE
  8
0
 62
7
  6
CONTINUOUS
 10
112.512722394
 20
119.2145003539
 11
112.5019185776
 21
119.2146254459
  0
LINE
  8
0
 62
7
  6
CONTINUOUS
 10
122.7478419727
 20
119.2145004665
 11
122.7389365208
 21
119.2146254459
  0
LINE
  8
0
 62
7
  6
CONTINUOUS
 10
129.7513621939
 20
119.2145003879
 11
129.7472521423
 21
119.2146112155
  0
LINE
  8
0
 62
9
  6
CONTINUOUS
 10
131.9915036973
 20
118.9920912174
 11
132.000311971
 21
118.9916269105
  0
LINE
  8
0
 62
9
  6
CONTINUOUS
 10
130.4718995206
 20
119.1404773172
 11
130.4806672727
 21
119.1400134658
  0
LINE
  8
0
 62
9
  6
CONTINUOUS
 10
135.1067838436
 20
118.9920912174
 11
135.1069872729
 21
118.9920782928
  0
LINE
  8
0
 62
7
  6
CONTINUOUS
 10
132.5774083876
 20
119.2145003762
 11
132.5754778327
 21
119.2146254459
  0
LINE
  8
0
 62
9
  6
CONTINUOUS
 10
124.3962088963
 20
118.9920912174
 11
124.4298691478
 21
118.9898374601
  0
LINE
  8
0
 62
9
  6
CONTINUOUS
 10
123.2525979664
 20
119.1404773223
 11
123.2861803648
 21
119.1382255537
  0
LINE
  8
0
 62
7
  6
CONTINUOUS
 10
129.7513616716
 20
119.2145004115
 11
129.7653588484
 21
119.2134909705
  0
LINE
  8
0
 62
9
  6
CONTINUOUS
 10
133.0474495288
 20
118.6423801522
 11
134.7378203985
 21
118.4939938772
  0
LINE
  8
0
 62
7
  6
CONTINUOUS
 10
122.747844261
 20
119.2145004104
 11
122.8004435424
 21
119.2093889024
  0
LINE
  8
0
 62
9
  6
CONTINUOUS
 10
128.8599052922
 20
118.6423801522
 11
130.3795457619
 21
118.4939938772
  0
LINE
  8
0
 62
9
  6
CONTINUOUS
 10
120.3705379726
 20
119.2145004072
 11
121.0127116722
 21
119.1404775013
  0
POLYLINE
  8
0
 62
9
  6
CONTINUOUS
 66
1
 70
0
  0
VERTEX
  8
0
 62
9
  6
CONTINUOUS
 10
100.3353236704
 20
119.1404773052
  0
VERTEX
  8
0
 62
9
  6
CONTINUOUS
 10
100.4462702518
 20
119.1276278805
  0
VERTEX
  8
0
 62
9
  6
CONTINUOUS
 10
100.646013423
 20
119.0311339215
  0
VERTEX
  8
0
 62
9
  6
CONTINUOUS
 10
100.7248423729
 20
118.9523045975
  0
VERTEX
  8
0
 62
9
  6
CONTINUOUS
 10
100.8209425222
 20
118.7529536836
  0
VERTEX
  8
0
 62
9
  6
CONTINUOUS
 10
100.8334180783
 20
118.6423801522
  0
SEQEND
  0
LINE
  8
0
 62
9
  6
CONTINUOUS
 10
113.3466860905
 20
118.9920912174
 11
113.4468580221
 21
118.9799685364
  0
LINE
  8
0
 62
9
  6
CONTINUOUS
 10
112.7335193998
 20
119.1404773169
 11
112.8335302211
 21
119.1283740841
  0
LINE
  8
0
 62
9
  6
CONTINUOUS
 10
120.6152861183
 20
118.6423801522
 11
121.7589603219
 21
118.4939938772
  0
LINE
  8
0
 62
9
  6
CONTINUOUS
 10
120.0695597344
 20
118.7146254459
 11
120.6152861183
 21
118.6423801522
  0
LINE
  8
0
 62
9
  6
CONTINUOUS
 10
109.5130553399
 20
119.2145001787
 11
109.9072588187
 21
119.1404775013
  0
POLYLINE
  8
0
 62
7
  6
CONTINUOUS
 66
1
 70
0
  0
VERTEX
  8
0
 62
7
  6
CONTINUOUS
 10
100.4282980149
 20
119.2145004131
  0
VERTEX
  8
0
 62
7
  6
CONTINUOUS
 10
100.5928838788
 20
119.1813957172
  0
VERTEX
  8
0
 62
7
  6
CONTINUOUS
 10
100.7373509063
 20
119.0935400367
  0
VERTEX
  8
0
 62
7
  6
CONTINUOUS
 10
100.7965992884
 20
119.0320929454
  0
VERTEX
  8
0
 62
7
  6
CONTINUOUS
 10
100.8804538542
 20
118.8832092813
  0
VERTEX
  8
0
 62
7
  6
CONTINUOUS
 10
100.9105645279
 20
118.7146254459
  0
SEQEND
  0
POLYLINE
  8
0
 62
9
  6
CONTINUOUS
 66
1
 70
0
  0
VERTEX
  8
0
 62
9
  6
CONTINUOUS
 10
100.3352345623
 20
118.9920912174
  0
VERTEX
  8
0
 62
9
  6
CONTINUOUS
 10
100.5260174266
 20
118.9536574752
  0
VERTEX
  8
0
 62
9
  6
CONTINUOUS
 10
100.687612442
 20
118.8455634772
  0
VERTEX
  8
0
 62
9
  6
CONTINUOUS
 10
100.7955305041
 20
118.6841904541
  0
VERTEX
  8
0
 62
9
  6
CONTINUOUS
 10
100.8334170448
 20
118.4939938683
  0
SEQEND
  0
LINE
  8
0
 62
9
  6
CONTINUOUS
 10
109.0930908343
 20
118.7146254459
 11
109.4270735116
 21
118.6423801522
  0
LINE
  8
0
 62
9
  6
CONTINUOUS
 10
109.4270735116
 20
118.6423801522
 11
110.0403219106
 21
118.4939938772
  0
LINE
  8
0
 62
9
  6
CONTINUOUS
 10
109.9072588187
 20
119.1404775013
 11
110.5205963081
 21
118.9920912174
  0
POLYLINE
  8
0
 62
9
  6
CONTINUOUS
 66
1
 70
0
  0
VERTEX
  8
0
 62
9
  6
CONTINUOUS
 10
130.6405801701
 20
108.4371596744
  0
VERTEX
  8
0
 62
9
  6
CONTINUOUS
 10
130.5525335474
 20
108.4755934166
  0
VERTEX
  8
0
 62
9
  6
CONTINUOUS
 10
130.4720462583
 20
108.5836874146
  0
VERTEX
  8
0
 62
9
  6
CONTINUOUS
 10
130.4113158427
 20
108.7450604377
  0
VERTEX
  8
0
 62
9
  6
CONTINUOUS
 10
130.3795457619
 20
108.9352570235
  0
SEQEND
  0
POLYLINE
  8
0
 62
9
  6
CONTINUOUS
 66
1
 70
0
  0
VERTEX
  8
0
 62
9
  6
CONTINUOUS
 10
105.3757705654
 20
119.2146254459
  0
VERTEX
  8
0
 62
9
  6
CONTINUOUS
 10
105.3992697544
 20
119.2020893722
  0
VERTEX
  8
0
 62
9
  6
CONTINUOUS
 10
105.4416137929
 20
119.1055410347
  0
VERTEX
  8
0
 62
9
  6
CONTINUOUS
 10
105.4583353406
 20
119.0263701683
  0
VERTEX
  8
0
 62
9
  6
CONTINUOUS
 10
105.478727123
 20
118.825885821
  0
VERTEX
  8
0
 62
9
  6
CONTINUOUS
 10
105.4813748381
 20
118.7146254459
  0
SEQEND
  0
POLYLINE
  8
0
 62
9
  6
CONTINUOUS
 66
1
 70
0
  0
VERTEX
  8
0
 62
9
  6
CONTINUOUS
 10
103.6666390813
 20
119.2146254459
  0
VERTEX
  8
0
 62
9
  6
CONTINUOUS
 10
103.6840119937
 20
119.2020894021
  0
VERTEX
  8
0
 62
9
  6
CONTINUOUS
 10
103.7153169002
 20
119.1055411877
  0
VERTEX
  8
0
 62
9
  6
CONTINUOUS
 10
103.7276791356
 20
119.0263703475
  0
VERTEX
  8
0
 62
9
  6
CONTINUOUS
 10
103.7427547841
 20
118.8258859132
  0
VERTEX
  8
0
 62
9
  6
CONTINUOUS
 10
103.7447122413
 20
118.7146254459
  0
SEQEND
  0
LINE
  8
0
 62
9
  6
CONTINUOUS
 10
112.5127223944
 20
108.2147505379
 11
112.7335194063
 21
108.2887733905
  0
LINE
  8
0
 62
7
  6
CONTINUOUS
 10
84.8893402567
 20
119.1510440274
 11
84.8061818001
 21
119.1283734651
  0
LINE
  8
0
 62
9
  6
CONTINUOUS
 10
84.9061952192
 20
119.1404775013
 11
84.29303301
 21
118.9920912174
  0
LINE
  8
0
 62
7
  6
CONTINUOUS
 10
84.806114727
 20
119.1283571734
 11
84.192856248
 21
118.9799684504
  0
POLYLINE
  8
0
 62
9
  6
CONTINUOUS
 66
1
 70
0
  0
VERTEX
  8
0
 62
9
  6
CONTINUOUS
 10
83.2249652576
 20
119.2146254459
  0
VERTEX
  8
0
 62
9
  6
CONTINUOUS
 10
83.1690665137
 20
119.2020893722
  0
VERTEX
  8
0
 62
9
  6
CONTINUOUS
 10
83.0683405456
 20
119.1055410347
  0
VERTEX
  8
0
 62
9
  6
CONTINUOUS
 10
83.0285641298
 20
119.0263701683
  0
VERTEX
  8
0
 62
9
  6
CONTINUOUS
 10
82.9800571357
 20
118.825885821
  0
VERTEX
  8
0
 62
9
  6
CONTINUOUS
 10
82.9737588778
 20
118.7146254459
  0
SEQEND
  0
POLYLINE
  8
0
 62
9
  6
CONTINUOUS
 66
1
 70
0
  0
VERTEX
  8
0
 62
9
  6
CONTINUOUS
 10
81.7466614511
 20
119.2146254459
  0
VERTEX
  8
0
 62
9
  6
CONTINUOUS
 10
81.685463908
 20
119.2020894021
  0
VERTEX
  8
0
 62
9
  6
CONTINUOUS
 10
81.5751897455
 20
119.1055411877
  0
VERTEX
  8
0
 62
9
  6
CONTINUOUS
 10
81.5316427331
 20
119.0263703475
  0
VERTEX
  8
0
 62
9
  6
CONTINUOUS
 10
81.478537495
 20
118.8258859132
  0
VERTEX
  8
0
 62
9
  6
CONTINUOUS
 10
81.4716421878
 20
118.7146254459
  0
SEQEND
  0
POLYLINE
  8
0
 62
7
  6
CONTINUOUS
 66
1
 70
0
  0
VERTEX
  8
0
 62
7
  6
CONTINUOUS
 10
85.1269947867
 20
119.214500405
  0
VERTEX
  8
0
 62
7
  6
CONTINUOUS
 10
84.9612503761
 20
119.181395609
  0
VERTEX
  8
0
 62
7
  6
CONTINUOUS
 10
84.9106498794
 20
119.1575985555
  0
SEQEND
  0
POLYLINE
  8
0
 62
7
  6
CONTINUOUS
 66
1
 70
0
  0
VERTEX
  8
0
 62
7
  6
CONTINUOUS
 10
74.8392702292
 20
119.2093886068
  0
VERTEX
  8
0
 62
7
  6
CONTINUOUS
 10
74.7084251761
 20
119.1882471532
  0
VERTEX
  8
0
 62
7
  6
CONTINUOUS
 10
74.5274583135
 20
119.1616538929
  0
SEQEND
  0
LINE
  8
0
 62
9
  6
CONTINUOUS
 10
74.891869343
 20
119.2145004248
 11
74.7084251761
 21
119.1882471532
  0
LINE
  8
0
 62
9
  6
CONTINUOUS
 10
74.5274583135
 20
119.1616538929
 11
74.387116648
 21
119.1404775013
  0
POLYLINE
  8
0
 62
9
  6
CONTINUOUS
 66
1
 70
0
  0
VERTEX
  8
0
 62
9
  6
CONTINUOUS
 10
74.5830315574
 20
119.2146254459
  0
VERTEX
  8
0
 62
9
  6
CONTINUOUS
 10
74.4961564377
 20
119.2020893722
  0
VERTEX
  8
0
 62
9
  6
CONTINUOUS
 10
74.4035263576
 20
119.144959662
  0
SEQEND
  0
POLYLINE
  8
0
 62
9
  6
CONTINUOUS
 66
1
 70
0
  0
VERTEX
  8
0
 62
9
  6
CONTINUOUS
 10
73.5352085491
 20
119.2146254459
  0
VERTEX
  8
0
 62
9
  6
CONTINUOUS
 10
73.4445776916
 20
119.2020894021
  0
VERTEX
  8
0
 62
9
  6
CONTINUOUS
 10
73.2812665289
 20
119.1055411877
  0
VERTEX
  8
0
 62
9
  6
CONTINUOUS
 10
73.2167753274
 20
119.0263703475
  0
SEQEND
  0
LINE
  8
0
 62
7
  6
CONTINUOUS
 10
74.5274583135
 20
119.1616538929
 11
74.3535336325
 21
119.1382254013
  0
LINE
  8
0
 62
9
  6
CONTINUOUS
 10
75.4832564418
 20
118.9920912174
 11
76.6270029532
 21
119.1404775013
  0
LINE
  8
0
 62
9
  6
CONTINUOUS
 10
74.387116648
 20
119.1404775013
 11
73.2435091969
 21
118.9920912174
  0
LINE
  8
0
 62
7
  6
CONTINUOUS
 10
74.3535252216
 20
119.1382244629
 11
73.2098449065
 21
118.9898373861
  0
LINE
  8
0
 62
9
  6
CONTINUOUS
 10
68.7798093332
 20
118.6423801522
 11
69.4635746583
 21
118.7146254459
  0
LINE
  8
0
 62
7
  6
CONTINUOUS
 10
67.8743576429
 20
119.2134909516
 11
67.3963706841
 21
119.1635534995
  0
LINE
  8
0
 62
9
  6
CONTINUOUS
 10
67.8883519251
 20
119.2145004083
 11
67.8744011755
 21
119.213067206
  0
LINE
  8
0
 62
9
  6
CONTINUOUS
 10
64.5922650966
 20
118.6423801522
 11
65.2411798879
 21
118.7066484091
  0
LINE
  8
0
 62
9
  6
CONTINUOUS
 10
66.9991320068
 20
118.9920912174
 11
68.5188180558
 21
119.1404775013
  0
LINE
  8
0
 62
7
  6
CONTINUOUS
 10
67.3963706841
 20
119.1635534995
 11
65.6394022579
 21
118.9916268718
  0
LINE
  8
0
 62
9
  6
CONTINUOUS
 10
68.5188180558
 20
119.1404775013
 11
69.3222398411
 21
119.2145004668
  0
LINE
  8
0
 62
7
  6
CONTINUOUS
 10
65.0623033746
 20
119.2145001717
 11
62.5329310291
 21
118.9920912174
  0
LINE
  8
0
 62
9
  6
CONTINUOUS
 10
62.8125728491
 20
118.9920912174
 11
65.0664360731
 21
119.1891951069
  0
LINE
  8
0
 62
9
  6
CONTINUOUS
 10
65.0664360731
 20
119.1891951069
 11
65.3591228969
 21
119.2145003704
  0
LINE
  8
0
 62
9
  6
CONTINUOUS
 10
70.2798573127
 20
121.7146254459
 11
127.3598573127
 21
121.7146254459
  0
LINE
  8
0
 62
7
  6
CONTINUOUS
 10
72.2798573127
 20
123.7146254459
 11
125.3598573127
 21
123.7146254459
  0
LINE
  8
0
 62
9
  6
CONTINUOUS
 10
132.2805906856
 20
119.2145005064
 11
133.1367582116
 21
119.1404775013
  0
LINE
  8
0
 62
9
  6
CONTINUOUS
 10
133.1367582116
 20
119.1404775013
 11
134.8271417509
 21
118.9920912174
  0
LINE
  8
0
 62
7
  6
CONTINUOUS
 10
135.1067835867
 20
118.9920912174
 11
132.5774083876
 21
119.2145003762
  0
LINE
  8
0
 62
9
  6
CONTINUOUS
 10
128.3174731398
 20
119.2145004249
 11
129.1208965697
 21
119.1404775013
  0
LINE
  8
0
 62
9
  6
CONTINUOUS
 10
129.1208965697
 20
119.1404775013
 11
130.6405825267
 21
118.9920912174
  0
LINE
  8
0
 62
9
  6
CONTINUOUS
 10
132.4026249524
 20
118.7062430375
 11
133.0474495288
 21
118.6423801522
  0
LINE
  8
0
 62
7
  6
CONTINUOUS
 10
132.0003119693
 20
118.9916269107
 11
130.247110744
 21
119.1631738055
  0
LINE
  8
0
 62
9
  6
CONTINUOUS
 10
130.4718995353
 20
119.1404775013
 11
130.247110744
 21
119.1631738055
  0
LINE
  8
0
 62
9
  6
CONTINUOUS
 10
129.7653572058
 20
119.2134909701
 11
129.7513621939
 21
119.2145003879
  0
LINE
  8
0
 62
9
  6
CONTINUOUS
 10
128.1761397776
 20
118.7146254459
 11
128.8599052922
 21
118.6423801522
  0
LINE
  8
0
 62
7
  6
CONTINUOUS
 10
130.247110744
 20
119.1631738055
 11
129.7653572058
 21
119.2134909701
  0
LINE
  8
0
 62
9
  6
CONTINUOUS
 10
121.0127116722
 20
119.1404775013
 11
122.1564580376
 21
118.9920912174
  0
LINE
  8
0
 62
7
  6
CONTINUOUS
 10
124.429869146
 20
118.9898374604
 11
123.2861894044
 21
119.1382244628
  0
LINE
  8
0
 62
9
  6
CONTINUOUS
 10
124.3962052932
 20
118.9920912174
 11
123.2525979774
 21
119.1404775013
  0
POLYLINE
  8
0
 62
7
  6
CONTINUOUS
 66
1
 70
0
  0
VERTEX
  8
0
 62
7
  6
CONTINUOUS
 10
123.2861803648
 20
119.1382255537
  0
VERTEX
  8
0
 62
7
  6
CONTINUOUS
 10
123.1149238846
 20
119.1612803381
  0
VERTEX
  8
0
 62
7
  6
CONTINUOUS
 10
122.9336465817
 20
119.1878829574
  0
VERTEX
  8
0
 62
7
  6
CONTINUOUS
 10
122.8004427556
 20
119.2093889025
  0
SEQEND
  0
POLYLINE
  8
0
 62
9
  6
CONTINUOUS
 66
1
 70
0
  0
VERTEX
  8
0
 62
9
  6
CONTINUOUS
 10
124.1045060764
 20
119.2146254459
  0
VERTEX
  8
0
 62
9
  6
CONTINUOUS
 10
124.1951370406
 20
119.2020893722
  0
VERTEX
  8
0
 62
9
  6
CONTINUOUS
 10
124.3584482528
 20
119.1055410347
  0
VERTEX
  8
0
 62
9
  6
CONTINUOUS
 10
124.4229394144
 20
119.0263701683
  0
SEQEND
  0
POLYLINE
  8
0
 62
9
  6
CONTINUOUS
 66
1
 70
0
  0
VERTEX
  8
0
 62
9
  6
CONTINUOUS
 10
123.056683068
 20
119.2146254459
  0
VERTEX
  8
0
 62
9
  6
CONTINUOUS
 10
123.1435580854
 20
119.2020894021
  0
VERTEX
  8
0
 62
9
  6
CONTINUOUS
 10
123.2361968241
 20
119.1449544072
  0
SEQEND
  0
LINE
  8
0
 62
9
  6
CONTINUOUS
 10
123.2525979774
 20
119.1404775013
 11
123.1149238846
 21
119.1612803381
  0
LINE
  8
0
 62
9
  6
CONTINUOUS
 10
122.9336465817
 20
119.1878829574
 11
122.7478419727
 21
119.2145004665
  0
POLYLINE
  8
0
 62
7
  6
CONTINUOUS
 66
1
 70
0
  0
VERTEX
  8
0
 62
7
  6
CONTINUOUS
 10
112.5127196809
 20
119.2145004114
  0
VERTEX
  8
0
 62
7
  6
CONTINUOUS
 10
112.6784639653
 20
119.1813956945
  0
VERTEX
  8
0
 62
7
  6
CONTINUOUS
 10
112.7261809957
 20
119.1589555549
  0
SEQEND
  0
POLYLINE
  8
0
 62
9
  6
CONTINUOUS
 66
1
 70
0
  0
VERTEX
  8
0
 62
9
  6
CONTINUOUS
 10
115.8930531744
 20
119.2146254459
  0
VERTEX
  8
0
 62
9
  6
CONTINUOUS
 10
115.9542507895
 20
119.2020893722
  0
VERTEX
  8
0
 62
9
  6
CONTINUOUS
 10
116.0645249854
 20
119.1055410347
  0
VERTEX
  8
0
 62
9
  6
CONTINUOUS
 10
116.1080719709
 20
119.0263701683
  0
VERTEX
  8
0
 62
9
  6
CONTINUOUS
 10
116.161177142
 20
118.825885821
  0
VERTEX
  8
0
 62
9
  6
CONTINUOUS
 10
116.1680724376
 20
118.7146254459
  0
SEQEND
  0
POLYLINE
  8
0
 62
9
  6
CONTINUOUS
 66
1
 70
0
  0
VERTEX
  8
0
 62
9
  6
CONTINUOUS
 10
114.4147493678
 20
119.2146254459
  0
VERTEX
  8
0
 62
9
  6
CONTINUOUS
 10
114.4706480458
 20
119.2020894021
  0
VERTEX
  8
0
 62
9
  6
CONTINUOUS
 10
114.5713739834
 20
119.1055411877
  0
VERTEX
  8
0
 62
9
  6
CONTINUOUS
 10
114.6111504239
 20
119.0263703475
  0
VERTEX
  8
0
 62
9
  6
CONTINUOUS
 10
114.6596574791
 20
118.8258859132
  0
VERTEX
  8
0
 62
9
  6
CONTINUOUS
 10
114.6659557476
 20
118.7146254459
  0
SEQEND
  0
LINE
  8
0
 62
7
  6
CONTINUOUS
 10
113.4468580224
 20
118.9799685364
 11
112.8335998999
 21
119.128357173
  0
LINE
  8
0
 62
9
  6
CONTINUOUS
 10
113.3466814408
 20
118.9920912174
 11
112.7335194063
 21
119.1404775013
  0
LINE
  8
0
 62
7
  6
CONTINUOUS
 10
112.8335302211
 20
119.1283740841
 11
112.7510667993
 21
119.150824423
  0
LINE
  8
0
 62
9
  6
CONTINUOUS
 10
112.7335194063
 20
119.1404775013
 11
112.512722394
 21
119.2145003539
  0
LINE
  8
0
 62
7
  6
CONTINUOUS
 10
112.7510667993
 20
119.150824423
 11
112.7263922787
 21
119.1594048301
  0
POLYLINE
  8
0
 62
7
  6
CONTINUOUS
 66
1
 70
0
  0
VERTEX
  8
0
 62
7
  6
CONTINUOUS
 10
113.4468580394
 20
118.9799685322
  0
VERTEX
  8
0
 62
7
  6
CONTINUOUS
 10
113.5410059316
 20
118.9469451592
  0
VERTEX
  8
0
 62
7
  6
CONTINUOUS
 10
113.7020266134
 20
118.8272312983
  0
VERTEX
  8
0
 62
7
  6
CONTINUOUS
 10
113.7622089064
 20
118.7441092847
  0
VERTEX
  8
0
 62
7
  6
CONTINUOUS
 10
113.8264481203
 20
118.5469732765
  0
VERTEX
  8
0
 62
7
  6
CONTINUOUS
 10
113.8292626505
 20
118.4939938683
  0
SEQEND
  0
LINE
  8
0
 62
9
  6
CONTINUOUS
 10
109.4270735116
 20
108.7868707396
 11
109.4270735116
 21
118.6423801522
  0
LINE
  8
0
 62
9
  6
CONTINUOUS
 10
110.0403219106
 20
118.4939938772
 11
110.0403219106
 21
108.9352570146
  0
LINE
  8
0
 62
9
  6
CONTINUOUS
 10
110.667576222
 20
118.4939938683
 11
110.667576222
 21
108.9352570235
  0
POLYLINE
  8
0
 62
9
  6
CONTINUOUS
 66
1
 70
0
  0
VERTEX
  8
0
 62
9
  6
CONTINUOUS
 10
110.667576222
 20
108.9352570235
  0
VERTEX
  8
0
 62
9
  6
CONTINUOUS
 10
110.663973628
 20
108.8300820813
  0
VERTEX
  8
0
 62
9
  6
CONTINUOUS
 10
110.6361129089
 20
108.6383469307
  0
VERTEX
  8
0
 62
9
  6
CONTINUOUS
 10
110.6131014856
 20
108.560366422
  0
VERTEX
  8
0
 62
9
  6
CONTINUOUS
 10
110.554018972
 20
108.4574706206
  0
VERTEX
  8
0
 62
9
  6
CONTINUOUS
 10
110.5205916859
 20
108.4371596744
  0
SEQEND
  0
LINE
  8
0
 62
9
  6
CONTINUOUS
 10
113.3466860905
 20
108.4371596744
 11
113.3881871149
 21
108.4574706206
  0
LINE
  8
0
 62
9
  6
CONTINUOUS
 10
73.2435057291
 20
118.9920912174
 11
73.1704378348
 21
118.9717802712
  0
LINE
  8
0
 62
9
  6
CONTINUOUS
 10
65.6482109281
 20
118.9920912174
 11
65.5534443879
 21
118.9717802712
  0
LINE
  8
0
 62
9
  6
CONTINUOUS
 10
62.5329307818
 20
118.9920912174
 11
62.429264342
 21
118.9717802712
  0
POLYLINE
  8
0
 62
9
  6
CONTINUOUS
 66
1
 70
0
  0
VERTEX
  8
0
 62
9
  6
CONTINUOUS
 10
134.8271410981
 20
118.9920912174
  0
VERTEX
  8
0
 62
9
  6
CONTINUOUS
 10
134.9300086394
 20
118.9717802712
  0
VERTEX
  8
0
 62
9
  6
CONTINUOUS
 10
135.1118263586
 20
118.8688844698
  0
VERTEX
  8
0
 62
9
  6
CONTINUOUS
 10
135.1826406186
 20
118.7909039611
  0
VERTEX
  8
0
 62
9
  6
CONTINUOUS
 10
135.2683778715
 20
118.5991688105
  0
VERTEX
  8
0
 62
9
  6
CONTINUOUS
 10
135.2794643229
 20
118.4939938683
  0
SEQEND
  0
POLYLINE
  8
0
 62
7
  6
CONTINUOUS
 66
1
 70
0
  0
VERTEX
  8
0
 62
7
  6
CONTINUOUS
 10
132.000311971
 20
118.9916269105
  0
VERTEX
  8
0
 62
7
  6
CONTINUOUS
 10
132.1016236296
 20
118.9709931974
  0
VERTEX
  8
0
 62
7
  6
CONTINUOUS
 10
132.2697148436
 20
118.8798411565
  0
VERTEX
  8
0
 62
7
  6
CONTINUOUS
 10
132.39577355
 20
118.7238086621
  0
VERTEX
  8
0
 62
7
  6
CONTINUOUS
 10
132.4341051082
 20
118.6255342178
  0
SEQEND
  0
LINE
  8
0
 62
9
  6
CONTINUOUS
 10
132.0862702375
 20
118.9717802712
 11
131.9915036973
 21
118.9920912174
  0
POLYLINE
  8
0
 62
9
  6
CONTINUOUS
 66
1
 70
0
  0
VERTEX
  8
0
 62
9
  6
CONTINUOUS
 10
130.6405801701
 20
118.9920912174
  0
VERTEX
  8
0
 62
9
  6
CONTINUOUS
 10
130.7314873194
 20
118.9717802712
  0
VERTEX
  8
0
 62
9
  6
CONTINUOUS
 10
130.8921651225
 20
118.8688844698
  0
VERTEX
  8
0
 62
9
  6
CONTINUOUS
 10
130.9547458202
 20
118.7909039611
  0
VERTEX
  8
0
 62
9
  6
CONTINUOUS
 10
131.0305144169
 20
118.5991688105
  0
VERTEX
  8
0
 62
9
  6
CONTINUOUS
 10
131.0403118484
 20
118.4939938683
  0
SEQEND
  0
LINE
  8
0
 62
9
  6
CONTINUOUS
 10
124.4692767906
 20
118.9717802712
 11
124.3962088963
 21
118.9920912174
  0
POLYLINE
  8
0
 62
9
  6
CONTINUOUS
 66
1
 70
0
  0
VERTEX
  8
0
 62
9
  6
CONTINUOUS
 10
122.1564542955
 20
118.9920912174
  0
VERTEX
  8
0
 62
9
  6
CONTINUOUS
 10
122.2231235386
 20
118.9717802712
  0
VERTEX
  8
0
 62
9
  6
CONTINUOUS
 10
122.3409609979
 20
118.8688844698
  0
VERTEX
  8
0
 62
9
  6
CONTINUOUS
 10
122.3868562633
 20
118.7909039611
  0
VERTEX
  8
0
 62
9
  6
CONTINUOUS
 10
122.442423235
 20
118.5991688105
  0
VERTEX
  8
0
 62
9
  6
CONTINUOUS
 10
122.4496084492
 20
118.4939938683
  0
SEQEND
  0
LINE
  8
0
 62
9
  6
CONTINUOUS
 10
113.3881871149
 20
118.9717802712
 11
113.3466860905
 21
118.9920912174
  0
POLYLINE
  8
0
 62
9
  6
CONTINUOUS
 66
1
 70
0
  0
VERTEX
  8
0
 62
9
  6
CONTINUOUS
 10
110.5205916859
 20
118.9920912174
  0
VERTEX
  8
0
 62
9
  6
CONTINUOUS
 10
110.554018972
 20
118.9717802712
  0
VERTEX
  8
0
 62
9
  6
CONTINUOUS
 10
110.6131014856
 20
118.8688844698
  0
VERTEX
  8
0
 62
9
  6
CONTINUOUS
 10
110.6361129089
 20
118.7909039611
  0
VERTEX
  8
0
 62
9
  6
CONTINUOUS
 10
110.663973628
 20
118.5991688105
  0
VERTEX
  8
0
 62
9
  6
CONTINUOUS
 10
110.667576222
 20
118.4939938683
  0
SEQEND
  0
POLYLINE
  8
0
 62
9
  6
CONTINUOUS
 66
1
 70
0
  0
VERTEX
  8
0
 62
9
  6
CONTINUOUS
 10
113.5291720031
 20
118.4939938683
  0
VERTEX
  8
0
 62
9
  6
CONTINUOUS
 10
113.5246992697
 20
118.5991688105
  0
VERTEX
  8
0
 62
9
  6
CONTINUOUS
 10
113.4901093128
 20
118.7909039611
  0
VERTEX
  8
0
 62
9
  6
CONTINUOUS
 10
113.461539909
 20
118.8688844698
  0
SEQEND
  0
LINE
  8
0
 62
9
  6
CONTINUOUS
 10
113.5291720031
 20
108.9352570235
 11
113.5291720031
 21
118.4939938683
  0
LINE
  8
0
 62
7
  6
CONTINUOUS
 10
113.8292628608
 20
108.9352570235
 11
113.8292628608
 21
118.4939938683
  0
POLYLINE
  8
0
 62
7
  6
CONTINUOUS
 66
1
 70
0
  0
VERTEX
  8
0
 62
7
  6
CONTINUOUS
 10
112.7292590307
 20
108.2712390212
  0
VERTEX
  8
0
 62
7
  6
CONTINUOUS
 10
112.7290541897
 20
108.2708891916
  0
VERTEX
  8
0
 62
7
  6
CONTINUOUS
 10
112.7503737443
 20
108.2782066209
  0
SEQEND
  0
POLYLINE
  8
0
 62
9
  6
CONTINUOUS
 66
1
 70
0
  0
VERTEX
  8
0
 62
9
  6
CONTINUOUS
 10
113.3881871149
 20
108.4574706206
  0
VERTEX
  8
0
 62
9
  6
CONTINUOUS
 10
113.461539909
 20
108.560366422
  0
VERTEX
  8
0
 62
9
  6
CONTINUOUS
 10
113.4901093128
 20
108.6383469307
  0
VERTEX
  8
0
 62
9
  6
CONTINUOUS
 10
113.5246992697
 20
108.8300820813
  0
VERTEX
  8
0
 62
9
  6
CONTINUOUS
 10
113.5291720031
 20
108.9352570235
  0
SEQEND
  0
POLYLINE
  8
0
 62
7
  6
CONTINUOUS
 66
1
 70
0
  0
VERTEX
  8
0
 62
7
  6
CONTINUOUS
 10
128.3174735169
 20
119.2145004067
  0
VERTEX
  8
0
 62
7
  6
CONTINUOUS
 10
128.2745239228
 20
119.1813956322
  0
VERTEX
  8
0
 62
7
  6
CONTINUOUS
 10
128.2345555275
 20
119.0935398954
  0
VERTEX
  8
0
 62
7
  6
CONTINUOUS
 10
128.2171827421
 20
119.0320927769
  0
VERTEX
  8
0
 62
7
  6
CONTINUOUS
 10
128.1902037199
 20
118.8832090261
  0
VERTEX
  8
0
 62
7
  6
CONTINUOUS
 10
128.1760666391
 20
118.7146254459
  0
SEQEND
  0
POLYLINE
  8
0
 62
7
  6
CONTINUOUS
 66
1
 70
0
  0
VERTEX
  8
0
 62
7
  6
CONTINUOUS
 10
65.3591228969
 20
119.2145003704
  0
VERTEX
  8
0
 62
7
  6
CONTINUOUS
 10
65.3593996982
 20
119.2145692908
  0
VERTEX
  8
0
 62
7
  6
CONTINUOUS
 10
65.3593556466
 20
119.2146112155
  0
VERTEX
  8
0
 62
7
  6
CONTINUOUS
 10
65.3589797875
 20
119.2146254459
  0
SEQEND
  0
POLYLINE
  8
0
 62
7
  6
CONTINUOUS
 66
1
 70
0
  0
VERTEX
  8
0
 62
7
  6
CONTINUOUS
 10
132.2805906856
 20
119.2145005064
  0
VERTEX
  8
0
 62
7
  6
CONTINUOUS
 10
132.280314934
 20
119.2145692876
  0
VERTEX
  8
0
 62
7
  6
CONTINUOUS
 10
132.2803589729
 20
119.2146112147
  0
VERTEX
  8
0
 62
7
  6
CONTINUOUS
 10
132.280734838
 20
119.2146254459
  0
SEQEND
  0
POLYLINE
  8
0
 62
7
  6
CONTINUOUS
 66
1
 70
0
  0
VERTEX
  8
0
 62
7
  6
CONTINUOUS
 10
135.1069872729
 20
118.9920782928
  0
VERTEX
  8
0
 62
7
  6
CONTINUOUS
 10
135.2922735282
 20
118.9384639861
  0
VERTEX
  8
0
 62
7
  6
CONTINUOUS
 10
135.4397220663
 20
118.823049733
  0
VERTEX
  8
0
 62
7
  6
CONTINUOUS
 10
135.5344312598
 20
118.6613242543
  0
VERTEX
  8
0
 62
7
  6
CONTINUOUS
 10
135.5632619008
 20
118.4939938683
  0
SEQEND
  0
POLYLINE
  8
0
 62
7
  6
CONTINUOUS
 66
1
 70
0
  0
VERTEX
  8
0
 62
7
  6
CONTINUOUS
 10
124.4298691521
 20
118.9898374596
  0
VERTEX
  8
0
 62
7
  6
CONTINUOUS
 10
124.610803669
 20
118.9297028623
  0
VERTEX
  8
0
 62
7
  6
CONTINUOUS
 10
124.757782948
 20
118.8040584161
  0
VERTEX
  8
0
 62
7
  6
CONTINUOUS
 10
124.8120299858
 20
118.7190282957
  0
VERTEX
  8
0
 62
7
  6
CONTINUOUS
 10
124.8655330506
 20
118.4939938683
  0
SEQEND
  0
POLYLINE
  8
0
 62
7
  6
CONTINUOUS
 66
1
 70
0
  0
VERTEX
  8
0
 62
7
  6
CONTINUOUS
 10
128.3174735175
 20
108.2147504851
  0
VERTEX
  8
0
 62
7
  6
CONTINUOUS
 10
128.2745239229
 20
108.2478552593
  0
VERTEX
  8
0
 62
7
  6
CONTINUOUS
 10
128.2345555269
 20
108.3357109962
  0
VERTEX
  8
0
 62
7
  6
CONTINUOUS
 10
128.2171827411
 20
108.3971581149
  0
VERTEX
  8
0
 62
7
  6
CONTINUOUS
 10
128.1902037186
 20
108.5460418662
  0
VERTEX
  8
0
 62
7
  6
CONTINUOUS
 10
128.17606664
 20
108.7146254459
  0
SEQEND
  0
LINE
  8
0
 62
9
  6
CONTINUOUS
 10
113.461539909
 20
118.8688844698
 11
113.3881871149
 21
118.9717802712
  0
LINE
  8
0
 62
9
  6
CONTINUOUS
 10
114.6659557476
 20
108.7146254459
 11
114.6659557476
 21
118.7146254459
  0
LINE
  8
0
 62
9
  6
CONTINUOUS
 10
116.1680724376
 20
108.7146254459
 11
116.1680724376
 21
118.7146254459
  0
POLYLINE
  8
0
 62
7
  6
CONTINUOUS
 66
1
 70
0
  0
VERTEX
  8
0
 62
7
  6
CONTINUOUS
 10
113.8292628608
 20
108.9352570235
  0
VERTEX
  8
0
 62
7
  6
CONTINUOUS
 10
113.7940365279
 20
108.7509056243
  0
VERTEX
  8
0
 62
7
  6
CONTINUOUS
 10
113.694396061
 20
108.5936757797
  0
VERTEX
  8
0
 62
7
  6
CONTINUOUS
 10
113.5442945691
 20
108.4838576832
  0
VERTEX
  8
0
 62
7
  6
CONTINUOUS
 10
113.4470076536
 20
108.4493185878
  0
SEQEND
  0
POLYLINE
  8
0
 62
9
  6
CONTINUOUS
 66
1
 70
0
  0
VERTEX
  8
0
 62
9
  6
CONTINUOUS
 10
124.4692767906
 20
108.4574706206
  0
VERTEX
  8
0
 62
9
  6
CONTINUOUS
 10
124.5984238248
 20
108.560366422
  0
VERTEX
  8
0
 62
9
  6
CONTINUOUS
 10
124.6487239369
 20
108.6383469307
  0
VERTEX
  8
0
 62
9
  6
CONTINUOUS
 10
124.7096240075
 20
108.8300820813
  0
VERTEX
  8
0
 62
9
  6
CONTINUOUS
 10
124.7174988302
 20
108.9352570235
  0
SEQEND
  0
LINE
  8
0
 62
9
  6
CONTINUOUS
 10
120.6152861183
 20
108.7868707396
 11
120.6152861183
 21
118.6423801522
  0
LINE
  8
0
 62
9
  6
CONTINUOUS
 10
121.7589603219
 20
118.4939938772
 11
121.7589603219
 21
108.9352570146
  0
POLYLINE
  8
0
 62
9
  6
CONTINUOUS
 66
1
 70
0
  0
VERTEX
  8
0
 62
9
  6
CONTINUOUS
 10
133.1367582116
 20
119.1404775013
  0
VERTEX
  8
0
 62
9
  6
CONTINUOUS
 10
133.1254030242
 20
119.1276278234
  0
VERTEX
  8
0
 62
9
  6
CONTINUOUS
 10
133.0985749881
 20
119.0311335341
  0
VERTEX
  8
0
 62
9
  6
CONTINUOUS
 10
133.0844409128
 20
118.9523041835
  0
VERTEX
  8
0
 62
9
  6
CONTINUOUS
 10
133.0582240457
 20
118.7529534907
  0
VERTEX
  8
0
 62
9
  6
CONTINUOUS
 10
133.0474495288
 20
118.6423801522
  0
SEQEND
  0
POLYLINE
  8
0
 62
9
  6
CONTINUOUS
 66
1
 70
0
  0
VERTEX
  8
0
 62
9
  6
CONTINUOUS
 10
132.0862702375
 20
108.4574706206
  0
VERTEX
  8
0
 62
9
  6
CONTINUOUS
 10
132.2537694892
 20
108.560366422
  0
VERTEX
  8
0
 62
9
  6
CONTINUOUS
 10
132.3190070007
 20
108.6383469307
  0
VERTEX
  8
0
 62
9
  6
CONTINUOUS
 10
132.3979922931
 20
108.8300820813
  0
VERTEX
  8
0
 62
9
  6
CONTINUOUS
 10
132.4082056667
 20
108.9352570235
  0
SEQEND
  0
LINE
  8
0
 62
9
  6
CONTINUOUS
 10
135.2104502834
 20
108.4574706206
 11
135.3936800504
 21
108.560366422
  0
POLYLINE
  8
0
 62
9
  6
CONTINUOUS
 66
1
 70
0
  0
VERTEX
  8
0
 62
9
  6
CONTINUOUS
 10
135.3936800504
 20
118.8688844698
  0
VERTEX
  8
0
 62
9
  6
CONTINUOUS
 10
135.2104502834
 20
118.9717802712
  0
VERTEX
  8
0
 62
9
  6
CONTINUOUS
 10
135.1067838436
 20
118.9920912174
  0
SEQEND
  0
POLYLINE
  8
0
 62
9
  6
CONTINUOUS
 66
1
 70
0
  0
VERTEX
  8
0
 62
9
  6
CONTINUOUS
 10
133.1367581855
 20
108.2887736918
  0
VERTEX
  8
0
 62
9
  6
CONTINUOUS
 10
133.1254030211
 20
108.3016230095
  0
VERTEX
  8
0
 62
9
  6
CONTINUOUS
 10
133.0985749787
 20
108.3981168308
  0
VERTEX
  8
0
 62
9
  6
CONTINUOUS
 10
133.084440877
 20
108.4769461416
  0
VERTEX
  8
0
 62
9
  6
CONTINUOUS
 10
133.0582239388
 20
108.6762971361
  0
VERTEX
  8
0
 62
9
  6
CONTINUOUS
 10
133.0474493925
 20
108.7868707396
  0
SEQEND
  0
LINE
  8
0
 62
9
  6
CONTINUOUS
 10
122.4496084492
 20
118.4939938683
 11
122.4496084492
 21
108.9352570235
  0
POLYLINE
  8
0
 62
9
  6
CONTINUOUS
 66
1
 70
0
  0
VERTEX
  8
0
 62
9
  6
CONTINUOUS
 10
122.4496084492
 20
108.9352570235
  0
VERTEX
  8
0
 62
9
  6
CONTINUOUS
 10
122.442423235
 20
108.8300820813
  0
VERTEX
  8
0
 62
9
  6
CONTINUOUS
 10
122.3868562633
 20
108.6383469307
  0
VERTEX
  8
0
 62
9
  6
CONTINUOUS
 10
122.3409609979
 20
108.560366422
  0
VERTEX
  8
0
 62
9
  6
CONTINUOUS
 10
122.2231235386
 20
108.4574706206
  0
VERTEX
  8
0
 62
9
  6
CONTINUOUS
 10
122.1564542955
 20
108.4371596744
  0
SEQEND
  0
POLYLINE
  8
0
 62
9
  6
CONTINUOUS
 66
1
 70
0
  0
VERTEX
  8
0
 62
9
  6
CONTINUOUS
 10
124.7174988302
 20
118.4939938683
  0
VERTEX
  8
0
 62
9
  6
CONTINUOUS
 10
124.7096240075
 20
118.5991688105
  0
VERTEX
  8
0
 62
9
  6
CONTINUOUS
 10
124.6487239369
 20
118.7909039611
  0
VERTEX
  8
0
 62
9
  6
CONTINUOUS
 10
124.5984238248
 20
118.8688844698
  0
VERTEX
  8
0
 62
9
  6
CONTINUOUS
 10
124.4692767906
 20
118.9717802712
  0
SEQEND
  0
LINE
  8
0
 62
9
  6
CONTINUOUS
 10
124.7174988302
 20
108.9352570235
 11
124.7174988302
 21
118.4939938683
  0
LINE
  8
0
 62
7
  6
CONTINUOUS
 10
124.865533058
 20
108.9352570235
 11
124.865533058
 21
118.4939938683
  0
POLYLINE
  8
0
 62
7
  6
CONTINUOUS
 66
1
 70
0
  0
VERTEX
  8
0
 62
7
  6
CONTINUOUS
 10
124.865533058
 20
108.9352570235
  0
VERTEX
  8
0
 62
7
  6
CONTINUOUS
 10
124.853979089
 20
108.8283904019
  0
VERTEX
  8
0
 62
7
  6
CONTINUOUS
 10
124.7647310264
 20
108.6341906155
  0
VERTEX
  8
0
 62
7
  6
CONTINUOUS
 10
124.6911625434
 20
108.5558292461
  0
VERTEX
  8
0
 62
7
  6
CONTINUOUS
 10
124.5029750827
 20
108.4545183316
  0
VERTEX
  8
0
 62
7
  6
CONTINUOUS
 10
124.4296145456
 20
108.4393804633
  0
SEQEND
  0
LINE
  8
0
 62
9
  6
CONTINUOUS
 10
124.4229392982
 20
108.4028805446
 11
124.4362382772
 21
108.4367820901
  0
LINE
  8
0
 62
9
  6
CONTINUOUS
 10
124.4229394144
 20
119.0263701683
 11
124.4362834716
 21
118.992353682
  0
LINE
  8
0
 62
7
  6
CONTINUOUS
 10
127.3598573127
 20
105.7146254459
 11
127.3598573127
 21
108.2146254459
  0
LINE
  8
0
 62
7
  6
CONTINUOUS
 10
127.3598573127
 20
119.2146254459
 11
127.3598573127
 21
121.7146254459
  0
LINE
  8
0
 62
9
  6
CONTINUOUS
 10
128.8599052922
 20
108.7868707396
 11
128.8599052922
 21
118.6423801522
  0
POLYLINE
  8
0
 62
9
  6
CONTINUOUS
 66
1
 70
0
  0
VERTEX
  8
0
 62
9
  6
CONTINUOUS
 10
134.8271410981
 20
118.9920912174
  0
VERTEX
  8
0
 62
9
  6
CONTINUOUS
 10
134.8061715564
 20
118.9535917285
  0
VERTEX
  8
0
 62
9
  6
CONTINUOUS
 10
134.7818309245
 20
118.8453214172
  0
VERTEX
  8
0
 62
9
  6
CONTINUOUS
 10
134.7578274909
 20
118.6837528233
  0
VERTEX
  8
0
 62
9
  6
CONTINUOUS
 10
134.7378203985
 20
118.4939938683
  0
SEQEND
  0
LINE
  8
0
 62
9
  6
CONTINUOUS
 10
135.3936800504
 20
108.560366422
 11
135.465044274
 21
108.6383469307
  0
LINE
  8
0
 62
9
  6
CONTINUOUS
 10
135.465044274
 20
118.7909039611
 11
135.3936800504
 21
118.8688844698
  0
POLYLINE
  8
0
 62
9
  6
CONTINUOUS
 66
1
 70
0
  0
VERTEX
  8
0
 62
9
  6
CONTINUOUS
 10
134.8271410981
 20
108.4371596744
  0
VERTEX
  8
0
 62
9
  6
CONTINUOUS
 10
134.8061926167
 20
108.4755934166
  0
VERTEX
  8
0
 62
9
  6
CONTINUOUS
 10
134.7818740459
 20
108.5836874146
  0
VERTEX
  8
0
 62
9
  6
CONTINUOUS
 10
134.7578707718
 20
108.7450604377
  0
VERTEX
  8
0
 62
9
  6
CONTINUOUS
 10
134.7378203985
 20
108.9352570235
  0
SEQEND
  0
LINE
  8
0
 62
9
  6
CONTINUOUS
 10
130.3795457619
 20
118.4939938772
 11
130.3795457619
 21
108.9352570146
  0
LINE
  8
0
 62
9
  6
CONTINUOUS
 10
131.0403118484
 20
118.4939938683
 11
131.0403118484
 21
108.9352570235
  0
POLYLINE
  8
0
 62
9
  6
CONTINUOUS
 66
1
 70
0
  0
VERTEX
  8
0
 62
9
  6
CONTINUOUS
 10
131.0403118484
 20
108.9352570235
  0
VERTEX
  8
0
 62
9
  6
CONTINUOUS
 10
131.0305144169
 20
108.8300820813
  0
VERTEX
  8
0
 62
9
  6
CONTINUOUS
 10
130.9547458202
 20
108.6383469307
  0
VERTEX
  8
0
 62
9
  6
CONTINUOUS
 10
130.8921651225
 20
108.560366422
  0
VERTEX
  8
0
 62
9
  6
CONTINUOUS
 10
130.7314873194
 20
108.4574706206
  0
VERTEX
  8
0
 62
9
  6
CONTINUOUS
 10
130.6405801701
 20
108.4371596744
  0
SEQEND
  0
POLYLINE
  8
0
 62
7
  6
CONTINUOUS
 66
1
 70
0
  0
VERTEX
  8
0
 62
7
  6
CONTINUOUS
 10
132.2805908483
 20
108.2147504868
  0
VERTEX
  8
0
 62
7
  6
CONTINUOUS
 10
132.2992344398
 20
108.2478552835
  0
VERTEX
  8
0
 62
7
  6
CONTINUOUS
 10
132.3130752794
 20
108.3357110365
  0
VERTEX
  8
0
 62
7
  6
CONTINUOUS
 10
132.3176604139
 20
108.3971581628
  0
VERTEX
  8
0
 62
7
  6
CONTINUOUS
 10
132.3214902977
 20
108.5460419426
  0
VERTEX
  8
0
 62
7
  6
CONTINUOUS
 10
132.3203607057
 20
108.5993022524
  0
SEQEND
  0
POLYLINE
  8
0
 62
7
  6
CONTINUOUS
 66
1
 70
0
  0
VERTEX
  8
0
 62
7
  6
CONTINUOUS
 10
132.2805908483
 20
119.214500405
  0
VERTEX
  8
0
 62
7
  6
CONTINUOUS
 10
132.2992344396
 20
119.181395609
  0
VERTEX
  8
0
 62
7
  6
CONTINUOUS
 10
132.3130752794
 20
119.0935398557
  0
VERTEX
  8
0
 62
7
  6
CONTINUOUS
 10
132.317660414
 20
119.0320927286
  0
VERTEX
  8
0
 62
7
  6
CONTINUOUS
 10
132.3214902978
 20
118.8832089474
  0
VERTEX
  8
0
 62
7
  6
CONTINUOUS
 10
132.3200962643
 20
118.817480222
  0
SEQEND
  0
LINE
  8
0
 62
9
  6
CONTINUOUS
 10
135.5626199385
 20
118.4939938683
 11
135.5514473866
 21
118.5991688105
  0
POLYLINE
  8
0
 62
9
  6
CONTINUOUS
 66
1
 70
0
  0
VERTEX
  8
0
 62
9
  6
CONTINUOUS
 10
132.4082056667
 20
118.4939938683
  0
VERTEX
  8
0
 62
9
  6
CONTINUOUS
 10
132.3979922931
 20
118.5991688105
  0
VERTEX
  8
0
 62
9
  6
CONTINUOUS
 10
132.3190070007
 20
118.7909039611
  0
VERTEX
  8
0
 62
9
  6
CONTINUOUS
 10
132.2537694892
 20
118.8688844698
  0
VERTEX
  8
0
 62
9
  6
CONTINUOUS
 10
132.0862702375
 20
118.9717802712
  0
SEQEND
  0
LINE
  8
0
 62
9
  6
CONTINUOUS
 10
132.4082056667
 20
108.9352570235
 11
132.4082056667
 21
118.4939938683
  0
LINE
  8
0
 62
7
  6
CONTINUOUS
 10
132.4517181925
 20
108.9352570235
 11
132.4517181925
 21
118.4939938683
  0
LINE
  8
0
 62
9
  6
CONTINUOUS
 10
133.0474495288
 20
108.7868707396
 11
133.0474495288
 21
118.6423801522
  0
LINE
  8
0
 62
9
  6
CONTINUOUS
 10
134.7378203985
 20
118.4939938772
 11
134.7378203985
 21
108.9352570146
  0
LINE
  8
0
 62
9
  6
CONTINUOUS
 10
135.2794643229
 20
118.4939938683
 11
135.2794643229
 21
108.9352570235
  0
LINE
  8
0
 62
7
  6
CONTINUOUS
 10
135.5632619251
 20
108.9352570235
 11
135.5632619251
 21
118.4939938683
  0
POLYLINE
  8
0
 62
9
  6
CONTINUOUS
 66
1
 70
0
  0
VERTEX
  8
0
 62
9
  6
CONTINUOUS
 10
135.2794643229
 20
108.9352570235
  0
VERTEX
  8
0
 62
9
  6
CONTINUOUS
 10
135.2683778715
 20
108.8300820813
  0
VERTEX
  8
0
 62
9
  6
CONTINUOUS
 10
135.1826406186
 20
108.6383469307
  0
VERTEX
  8
0
 62
9
  6
CONTINUOUS
 10
135.1118263586
 20
108.560366422
  0
VERTEX
  8
0
 62
9
  6
CONTINUOUS
 10
134.9300086394
 20
108.4574706206
  0
VERTEX
  8
0
 62
9
  6
CONTINUOUS
 10
134.8271410981
 20
108.4371596744
  0
SEQEND
  0
LINE
  8
0
 62
9
  6
CONTINUOUS
 10
135.5514473866
 20
108.8300820813
 11
135.5626199385
 21
108.9352570235
  0
POLYLINE
  8
0
 62
7
  6
CONTINUOUS
 66
1
 70
0
  0
VERTEX
  8
0
 62
7
  6
CONTINUOUS
 10
132.4517181925
 20
108.9352570235
  0
VERTEX
  8
0
 62
7
  6
CONTINUOUS
 10
132.4165128105
 20
108.750958453
  0
VERTEX
  8
0
 62
7
  6
CONTINUOUS
 10
132.3166717816
 20
108.5934838856
  0
VERTEX
  8
0
 62
7
  6
CONTINUOUS
 10
132.1662144644
 20
108.4836030084
  0
VERTEX
  8
0
 62
7
  6
CONTINUOUS
 10
132.0001377964
 20
108.4376070062
  0
SEQEND
  0
POLYLINE
  8
0
 62
7
  6
CONTINUOUS
 66
1
 70
0
  0
VERTEX
  8
0
 62
7
  6
CONTINUOUS
 10
135.5632619251
 20
108.9352570235
  0
VERTEX
  8
0
 62
7
  6
CONTINUOUS
 10
135.527921896
 20
108.7506192392
  0
VERTEX
  8
0
 62
7
  6
CONTINUOUS
 10
135.4303846508
 20
108.595814975
  0
VERTEX
  8
0
 62
7
  6
CONTINUOUS
 10
135.2845679935
 20
108.4869004421
  0
VERTEX
  8
0
 62
7
  6
CONTINUOUS
 10
135.1069653617
 20
108.4371706762
  0
SEQEND
  0
LINE
  8
0
 62
9
  6
CONTINUOUS
 10
135.465044274
 20
108.6383469307
 11
135.5514473866
 21
108.8300820813
  0
LINE
  8
0
 62
9
  6
CONTINUOUS
 10
135.5514473866
 20
118.5991688105
 11
135.465044274
 21
118.7909039611
  0
LINE
  8
0
 62
7
  6
CONTINUOUS
 10
132.4341051082
 20
118.6255342178
 11
132.4517181883
 21
118.4939938683
  0
ARC
  8
0
 62
9
  6
CONTINUOUS
 10
75.9807230402
 20
177.7807320912
 40
3.95
 50
340.0474364388
 51
49.2520090272
  0
ARC
  8
0
 62
9
  6
CONTINUOUS
 10
74.5322655624
 20
179.1011755528
 40
3.95
 50
46.0421086199
 51
115.2466840737
  0
ARC
  8
0
 62
7
  6
CONTINUOUS
 10
75.9807230402
 20
177.7807320912
 40
3.45
 50
340.3735409359
 51
49.2520090272
  0
ARC
  8
0
 62
7
  6
CONTINUOUS
 10
74.5322655624
 20
179.1011755528
 40
3.45
 50
46.0421086199
 51
114.9205080338
  0
ARC
  8
0
 62
7
  6
CONTINUOUS
 10
68.9728876225
 20
183.6459969387
 40
0.5
 50
127.0588235294
 51
214.6684750539
  0
ARC
  8
0
 62
7
  6
CONTINUOUS
 10
70.7971346601
 20
181.2303034572
 40
0.5
 50
219.4491720049
 51
307.0588235294
  0
ARC
  8
0
 62
7
  6
CONTINUOUS
 10
78.4454028611
 20
174.2579857377
 40
0.5
 50
148.2352941176
 51
235.8449456421
  0
ARC
  8
0
 62
9
  6
CONTINUOUS
 10
67.9472048975
 20
187.8212051297
 40
3.95
 50
318.8709658506
 51
28.0755384389
  0
ARC
  8
0
 62
9
  6
CONTINUOUS
 10
67.0735577202
 20
189.5757251808
 40
3.95
 50
24.8656380317
 51
94.070213564
  0
ARC
  8
0
 62
9
  6
CONTINUOUS
 10
64.0832095347
 20
200.0857088874
 40
3.95
 50
297.6944952624
 51
6.8990678507
  0
ARC
  8
0
 62
9
  6
CONTINUOUS
 10
63.9023635502
 20
202.0373478729
 40
3.95
 50
3.6891674434
 51
72.8937431308
  0
ARC
  8
0
 62
7
  6
CONTINUOUS
 10
64.0832095347
 20
200.0857088874
 40
3.45
 50
298.0206538967
 51
6.8990678507
  0
ARC
  8
0
 62
7
  6
CONTINUOUS
 10
63.9023635502
 20
202.0373478729
 40
3.45
 50
3.6891674434
 51
72.5675660127
  0
ARC
  8
0
 62
7
  6
CONTINUOUS
 10
67.9472048975
 20
187.8212051297
 40
3.45
 50
319.1970936272
 51
28.0755384389
  0
ARC
  8
0
 62
7
  6
CONTINUOUS
 10
67.0735577202
 20
189.5757251808
 40
3.45
 50
24.8656380317
 51
93.7440456089
  0
ARC
  8
0
 62
7
  6
CONTINUOUS
 10
63.5313710284
 20
195.8219238607
 40
0.5
 50
105.8823529412
 51
193.4920044657
  0
ARC
  8
0
 62
7
  6
CONTINUOUS
 10
64.3597815923
 20
192.9103627351
 40
0.5
 50
198.2727014167
 51
285.8823529412
  0
ARC
  8
0
 62
9
  6
CONTINUOUS
 10
97.8398573127
 20
169.3124583593
 40
3.95
 50
88.3950497964
 51
157.5996251899
  0
ARC
  8
0
 62
9
  6
CONTINUOUS
 10
87.0987928224
 20
171.3203112919
 40
3.95
 50
1.2239052597
 51
70.4284796154
  0
ARC
  8
0
 62
9
  6
CONTINUOUS
 10
85.2711472528
 20
172.0283449577
 40
3.95
 50
67.2185792081
 51
136.423154603
  0
ARC
  8
0
 62
7
  6
CONTINUOUS
 10
87.0987928224
 20
171.3203112919
 40
3.45
 50
1.5500305985
 51
70.4284796154
  0
ARC
  8
0
 62
7
  6
CONTINUOUS
 10
85.2711472528
 20
172.0283449577
 40
3.45
 50
67.2185792081
 51
136.0970165968
  0
ARC
  8
0
 62
7
  6
CONTINUOUS
 10
97.8398573127
 20
169.3124583593
 40
3.45
 50
88.3950497964
 51
157.2734584275
  0
ARC
  8
0
 62
7
  6
CONTINUOUS
 10
81.0191117014
 20
172.6644126908
 40
0.5
 50
240.6256425932
 51
328.2352941176
  0
ARC
  8
0
 62
7
  6
CONTINUOUS
 10
90.6696010721
 20
168.9257931911
 40
0.5
 50
169.4117647059
 51
257.0214162304
  0
ARC
  8
0
 62
7
  6
CONTINUOUS
 10
93.6451780749
 20
168.3695614492
 40
0.5
 50
261.8021131814
 51
349.4117647059
  0
ARC
  8
0
 62
7
  6
CONTINUOUS
 10
83.6877721953
 20
204.2887317457
 40
4.0
 50
75.0
 51
285.0
  0
ARC
  8
0
 62
9
  6
CONTINUOUS
 10
64.9105909368
 20
212.9178541719
 40
3.95
 50
276.5180143111
 51
345.7225972625
  0
ARC
  8
0
 62
9
  6
CONTINUOUS
 10
65.4469703973
 20
214.8030324325
 40
3.95
 50
342.5126968552
 51
51.7172726627
  0
ARC
  8
0
 62
7
  6
CONTINUOUS
 10
64.9105909368
 20
212.9178541719
 40
3.45
 50
276.8441426254
 51
345.7225972625
  0
ARC
  8
0
 62
7
  6
CONTINUOUS
 10
65.4469703973
 20
214.8030324325
 40
3.45
 50
342.5126968552
 51
51.3911084935
  0
ARC
  8
0
 62
7
  6
CONTINUOUS
 10
67.0372996857
 20
221.8053846989
 40
0.5
 50
63.5294117647
 51
151.1390632892
  0
ARC
  8
0
 62
7
  6
CONTINUOUS
 10
65.687996433
 20
219.095618476
 40
0.5
 50
155.9197602402
 51
243.5294117647
  0
ARC
  8
0
 62
7
  6
CONTINUOUS
 10
62.8557600472
 20
209.1413401038
 40
0.5
 50
84.7058823529
 51
172.3155338774
  0
ARC
  8
0
 62
7
  6
CONTINUOUS
 10
62.5764527004
 20
206.1271337976
 40
0.5
 50
177.0962308285
 51
264.7058823529
  0
ARC
  8
0
 62
9
  6
CONTINUOUS
 10
70.3176066607
 20
224.5845886571
 40
3.95
 50
255.3415540861
 51
324.5461266742
  0
ARC
  8
0
 62
9
  6
CONTINUOUS
 10
71.498770548
 20
226.1487024225
 40
3.95
 50
321.3362262669
 51
30.5408023499
  0
ARC
  8
0
 62
9
  6
CONTINUOUS
 10
79.5740092715
 20
233.5102552031
 40
3.95
 50
234.1650834978
 51
303.369656086
  0
ARC
  8
0
 62
7
  6
CONTINUOUS
 10
79.5740092715
 20
233.5102552031
 40
3.45
 50
234.491178458
 51
303.369656086
  0
ARC
  8
0
 62
7
  6
CONTINUOUS
 10
70.3176066607
 20
224.5845886571
 40
3.45
 50
255.667684609
 51
324.5461266742
  0
ARC
  8
0
 62
7
  6
CONTINUOUS
 10
71.498770548
 20
226.1487024225
 40
3.45
 50
321.3362262669
 51
30.214665227
  0
ARC
  8
0
 62
7
  6
CONTINUOUS
 10
75.5112498449
 20
232.1037082496
 40
0.5
 50
42.3529411765
 51
129.9625927009
  0
ARC
  8
0
 62
7
  6
CONTINUOUS
 10
73.2741815674
 20
230.0643510538
 40
0.5
 50
134.743289652
 51
222.3529411765
  0
ARC
  8
0
 62
9
  6
CONTINUOUS
 10
93.3562975806
 20
238.8495421392
 40
3.95
 50
278.9832850905
 51
348.1878626743
  0
ARC
  8
0
 62
9
  6
CONTINUOUS
 10
81.2404348575
 20
234.5420622424
 40
3.95
 50
300.1597556787
 51
9.3643320031
  0
ARC
  8
0
 62
9
  6
CONTINUOUS
 10
91.4296703053
 20
238.4893930842
 40
3.95
 50
212.9886121006
 51
282.1931854978
  0
ARC
  8
0
 62
7
  6
CONTINUOUS
 10
91.4296703053
 20
238.4893930842
 40
3.45
 50
213.3147359872
 51
282.1931854978
  0
ARC
  8
0
 62
7
  6
CONTINUOUS
 10
93.3562975806
 20
238.8495421392
 40
3.45
 50
278.9832850905
 51
347.8617145248
  0
ARC
  8
0
 62
7
  6
CONTINUOUS
 10
81.2404348575
 20
234.5420622424
 40
3.45
 50
300.1597556787
 51
9.0381561616
  0
ARC
  8
0
 62
7
  6
CONTINUOUS
 10
97.3062975806
 20
240.5471547249
 40
0.5
 50
92.3903484755
 51
180.0
  0
ARC
  8
0
 62
7
  6
CONTINUOUS
 10
87.1331566001
 20
238.6454650953
 40
0.5
 50
21.1764705882
 51
108.7861221127
  0
ARC
  8
0
 62
7
  6
CONTINUOUS
 10
84.3104517647
 20
237.5519434163
 40
0.5
 50
113.5668190638
 51
201.1764705882
  0
ARC
  8
0
 62
9
  6
CONTINUOUS
 10
112.3685673727
 20
172.0283449577
 40
3.95
 50
43.5768482034
 51
112.7814207919
  0
ARC
  8
0
 62
9
  6
CONTINUOUS
 10
110.540921803
 20
171.3203112919
 40
3.95
 50
109.5715203846
 51
178.776095697
  0
ARC
  8
0
 62
9
  6
CONTINUOUS
 10
99.7998573127
 20
169.3124583593
 40
3.95
 50
22.400375848
 51
91.6049502036
  0
ARC
  8
0
 62
7
  6
CONTINUOUS
 10
99.7998573127
 20
169.3124583593
 40
3.45
 50
22.7264769183
 51
91.6049502036
  0
ARC
  8
0
 62
7
  6
CONTINUOUS
 10
112.3685673727
 20
172.0283449577
 40
3.45
 50
43.9029791735
 51
112.7814207919
  0
ARC
  8
0
 62
7
  6
CONTINUOUS
 10
110.540921803
 20
171.3203112919
 40
3.45
 50
109.5715203846
 51
178.4499492347
  0
ARC
  8
0
 62
7
  6
CONTINUOUS
 10
103.9945365505
 20
168.3695614492
 40
0.5
 50
190.5882352941
 51
278.1978868186
  0
ARC
  8
0
 62
7
  6
CONTINUOUS
 10
106.9701135533
 20
168.9257931911
 40
0.5
 50
282.9785837696
 51
10.5882352941
  0
ARC
  8
0
 62
7
  6
CONTINUOUS
 10
98.8198573127
 20
189.1566466283
 40
4.0
 50
165.0
 51
15.0
  0
ARC
  8
0
 62
7
  6
CONTINUOUS
 10
98.8198573127
 20
204.2887317457
 40
33.79
 50
87.2907129909
 51
92.709285756
  0
ARC
  8
0
 62
7
  6
CONTINUOUS
 10
98.8198573127
 20
204.2887317457
 40
33.79
 50
108.4671827538
 51
113.8857564113
  0
ARC
  8
0
 62
7
  6
CONTINUOUS
 10
98.8198573127
 20
204.2887317457
 40
31.54
 50
98.9832850905
 51
102.1931854978
  0
ARC
  8
0
 62
7
  6
CONTINUOUS
 10
98.8198573127
 20
204.2887317457
 40
31.54
 50
120.1597556787
 51
123.369656086
  0
ARC
  8
0
 62
7
  6
CONTINUOUS
 10
98.8198573127
 20
204.2887317457
 40
31.54
 50
141.3362262669
 51
144.5461266742
  0
ARC
  8
0
 62
7
  6
CONTINUOUS
 10
98.8198573127
 20
204.2887317457
 40
31.54
 50
162.5126968552
 51
165.7225972625
  0
ARC
  8
0
 62
7
  6
CONTINUOUS
 10
98.8198573127
 20
204.2887317457
 40
31.54
 50
183.6891674434
 51
186.8990678507
  0
ARC
  8
0
 62
7
  6
CONTINUOUS
 10
98.8198573127
 20
204.2887317457
 40
31.54
 50
204.8656380317
 51
208.0755384389
  0
ARC
  8
0
 62
7
  6
CONTINUOUS
 10
98.8198573127
 20
204.2887317457
 40
31.54
 50
226.0421086199
 51
229.2520090272
  0
ARC
  8
0
 62
7
  6
CONTINUOUS
 10
98.8198573127
 20
204.2887317457
 40
31.54
 50
247.2185792081
 51
250.4284796154
  0
ARC
  8
0
 62
7
  6
CONTINUOUS
 10
98.8198573127
 20
204.2887317457
 40
31.54
 50
268.3950497964
 51
271.6049502036
  0
ARC
  8
0
 62
7
  6
CONTINUOUS
 10
98.8198573127
 20
204.2887317457
 40
31.54
 50
289.5715203846
 51
292.7814207919
  0
ARC
  8
0
 62
7
  6
CONTINUOUS
 10
98.8198573127
 20
204.2887317457
 40
31.54
 50
310.7479909728
 51
313.9578913801
  0
ARC
  8
0
 62
7
  6
CONTINUOUS
 10
98.8198573127
 20
204.2887317457
 40
31.54
 50
77.8068145022
 51
81.0167149095
  0
ARC
  8
0
 62
7
  6
CONTINUOUS
 10
98.8198573127
 20
204.2887317457
 40
31.54
 50
56.630343914
 51
59.8402443213
  0
ARC
  8
0
 62
7
  6
CONTINUOUS
 10
98.8198573127
 20
204.2887317457
 40
31.54
 50
331.9244615611
 51
335.1343619683
  0
ARC
  8
0
 62
7
  6
CONTINUOUS
 10
98.8198573127
 20
204.2887317457
 40
31.54
 50
35.4538733258
 51
38.6637737331
  0
ARC
  8
0
 62
7
  6
CONTINUOUS
 10
98.8198573127
 20
204.2887317457
 40
31.54
 50
14.2774027375
 51
17.4873031448
  0
ARC
  8
0
 62
7
  6
CONTINUOUS
 10
98.8198573127
 20
204.2887317457
 40
31.54
 50
353.1009321493
 51
356.3108325566
  0
ARC
  8
0
 62
9
  6
CONTINUOUS
 10
98.8198573127
 20
204.2887317457
 40
31.0400000017
 50
77.8068145022
 51
81.0167149095
  0
ARC
  8
0
 62
9
  6
CONTINUOUS
 10
98.8198573127
 20
204.2887317457
 40
31.0400000017
 50
56.630343914
 51
59.8402443213
  0
ARC
  8
0
 62
9
  6
CONTINUOUS
 10
98.8198573127
 20
204.2887317457
 40
31.0400000017
 50
35.4538733258
 51
38.6637737331
  0
ARC
  8
0
 62
9
  6
CONTINUOUS
 10
98.8198573127
 20
204.2887317457
 40
31.0400000017
 50
14.2774027375
 51
17.4873031448
  0
ARC
  8
0
 62
9
  6
CONTINUOUS
 10
98.8198573127
 20
204.2887317457
 40
31.0400000017
 50
353.1009321493
 51
356.3108325566
  0
ARC
  8
0
 62
9
  6
CONTINUOUS
 10
98.8198573127
 20
204.2887317457
 40
31.0400000017
 50
331.9244615611
 51
335.1343619683
  0
ARC
  8
0
 62
9
  6
CONTINUOUS
 10
98.8198573127
 20
204.2887317457
 40
31.0400000017
 50
310.7479909728
 51
313.9578913801
  0
ARC
  8
0
 62
9
  6
CONTINUOUS
 10
98.8198573127
 20
204.2887317457
 40
31.0400000017
 50
289.5715203846
 51
292.7814207919
  0
ARC
  8
0
 62
9
  6
CONTINUOUS
 10
98.8198573127
 20
204.2887317457
 40
31.0400000017
 50
268.3950497964
 51
271.6049502036
  0
ARC
  8
0
 62
9
  6
CONTINUOUS
 10
98.8198573127
 20
204.2887317457
 40
31.0400000017
 50
247.2185792081
 51
250.4284796154
  0
ARC
  8
0
 62
9
  6
CONTINUOUS
 10
98.8198573127
 20
204.2887317457
 40
31.0400000017
 50
226.0421086199
 51
229.2520090272
  0
ARC
  8
0
 62
9
  6
CONTINUOUS
 10
98.8198573127
 20
204.2887317457
 40
31.0400000017
 50
204.8656380317
 51
208.0755384389
  0
ARC
  8
0
 62
9
  6
CONTINUOUS
 10
98.8198573127
 20
204.2887317457
 40
31.0400000017
 50
183.6891674434
 51
186.8990678507
  0
ARC
  8
0
 62
9
  6
CONTINUOUS
 10
98.8198573127
 20
204.2887317457
 40
31.0400000017
 50
162.5126968552
 51
165.7225972625
  0
ARC
  8
0
 62
9
  6
CONTINUOUS
 10
98.8198573127
 20
204.2887317457
 40
31.0400000017
 50
141.3362262669
 51
144.5461266742
  0
ARC
  8
0
 62
9
  6
CONTINUOUS
 10
98.8198573127
 20
204.2887317457
 40
31.0400000017
 50
120.1597556787
 51
123.369656086
  0
ARC
  8
0
 62
9
  6
CONTINUOUS
 10
98.8198573127
 20
204.2887317457
 40
31.0400000017
 50
98.9832850905
 51
102.1931854978
  0
CIRCLE
  8
0
 62
7
  6
CONTINUOUS
 10
98.8198573127
 20
204.2887317457
 40
28.54
  0
CIRCLE
  8
0
 62
9
  6
CONTINUOUS
 10
98.8198573127
 20
204.2887317457
 40
26.54
  0
ARC
  8
0
 62
7
  6
CONTINUOUS
 10
113.9519424301
 20
204.2887317457
 40
4.0
 50
255.0
 51
105.0
  0
ARC
  8
0
 62
9
  6
CONTINUOUS
 10
123.107449063
 20
179.1011755528
 40
3.95
 50
64.7533187916
 51
133.9578913801
  0
ARC
  8
0
 62
9
  6
CONTINUOUS
 10
121.6589915853
 20
177.7807320912
 40
3.95
 50
130.7479909728
 51
199.9525662553
  0
ARC
  8
0
 62
7
  6
CONTINUOUS
 10
123.107449063
 20
179.1011755528
 40
3.45
 50
65.0794471852
 51
133.9578913801
  0
ARC
  8
0
 62
7
  6
CONTINUOUS
 10
121.6589915853
 20
177.7807320912
 40
3.45
 50
130.7479909728
 51
199.6263988991
  0
ARC
  8
0
 62
7
  6
CONTINUOUS
 10
116.620602924
 20
172.6644126908
 40
0.5
 50
211.7647058824
 51
299.3743574068
  0
ARC
  8
0
 62
7
  6
CONTINUOUS
 10
119.1943117643
 20
174.2579857377
 40
0.5
 50
304.1550543579
 51
31.7647058824
  0
ARC
  8
0
 62
7
  6
CONTINUOUS
 10
126.8425799653
 20
181.2303034572
 40
0.5
 50
232.9411764706
 51
320.5508279951
  0
ARC
  8
0
 62
7
  6
CONTINUOUS
 10
128.6668270029
 20
183.6459969387
 40
0.5
 50
325.3315249461
 51
52.9411764706
  0
ARC
  8
0
 62
9
  6
CONTINUOUS
 10
133.7373510753
 20
202.0373478729
 40
3.95
 50
107.1062582008
 51
176.3108325566
  0
ARC
  8
0
 62
9
  6
CONTINUOUS
 10
133.5565050907
 20
200.0857088874
 40
3.95
 50
173.1009321493
 51
242.3055073856
  0
ARC
  8
0
 62
9
  6
CONTINUOUS
 10
130.5661569053
 20
189.5757251808
 40
3.95
 50
85.9297893799
 51
155.1343619683
  0
ARC
  8
0
 62
9
  6
CONTINUOUS
 10
129.692509728
 20
187.8212051297
 40
3.95
 50
151.9244615611
 51
221.1290368185
  0
ARC
  8
0
 62
7
  6
CONTINUOUS
 10
130.5661569053
 20
189.5757251808
 40
3.45
 50
86.25594011
 51
155.1343619683
  0
ARC
  8
0
 62
7
  6
CONTINUOUS
 10
129.692509728
 20
187.8212051297
 40
3.45
 50
151.9244615611
 51
220.8028463872
  0
ARC
  8
0
 62
7
  6
CONTINUOUS
 10
133.5565050907
 20
200.0857088874
 40
3.45
 50
173.1009321493
 51
241.979361668
  0
ARC
  8
0
 62
7
  6
CONTINUOUS
 10
133.7373510753
 20
202.0373478729
 40
3.45
 50
107.4323830257
 51
176.3108325566
  0
ARC
  8
0
 62
7
  6
CONTINUOUS
 10
133.2799330332
 20
192.9103627351
 40
0.5
 50
254.1176470588
 51
341.7272985833
  0
ARC
  8
0
 62
7
  6
CONTINUOUS
 10
134.108343597
 20
195.8219238607
 40
0.5
 50
346.5079955344
 51
74.1176470588
  0
ARC
  8
0
 62
7
  6
CONTINUOUS
 10
98.8198573127
 20
219.4208168631
 40
4.0
 50
345.0
 51
195.0
  0
ARC
  8
0
 62
9
  6
CONTINUOUS
 10
104.2834170448
 20
238.8495421392
 40
3.95
 50
191.8121420322
 51
261.0167149095
  0
ARC
  8
0
 62
9
  6
CONTINUOUS
 10
106.2100443202
 20
238.4893930842
 40
3.95
 50
257.8068145022
 51
327.01138947
  0
ARC
  8
0
 62
9
  6
CONTINUOUS
 10
116.3992797679
 20
234.5420622424
 40
3.95
 50
170.6356717326
 51
239.8402443213
  0
ARC
  8
0
 62
9
  6
CONTINUOUS
 10
118.0657053539
 20
233.5102552031
 40
3.95
 50
236.630343914
 51
305.8349189384
  0
ARC
  8
0
 62
9
  6
CONTINUOUS
 10
126.1409440775
 20
226.1487024225
 40
3.95
 50
149.4592011444
 51
218.6637737331
  0
ARC
  8
0
 62
9
  6
CONTINUOUS
 10
127.3221079648
 20
224.5845886571
 40
3.95
 50
215.4538733258
 51
284.6584484131
  0
ARC
  8
0
 62
9
  6
CONTINUOUS
 10
132.1927442281
 20
214.8030324325
 40
3.95
 50
128.2827305563
 51
197.4873031448
  0
ARC
  8
0
 62
9
  6
CONTINUOUS
 10
132.7291236887
 20
212.9178541719
 40
3.95
 50
194.2774027375
 51
263.4819805723
  0
ARC
  8
0
 62
7
  6
CONTINUOUS
 10
106.2100443202
 20
238.4893930842
 40
3.45
 50
257.8068145022
 51
326.6852146527
  0
ARC
  8
0
 62
7
  6
CONTINUOUS
 10
104.2834170448
 20
238.8495421392
 40
3.45
 50
192.1382915999
 51
261.0167149095
  0
ARC
  8
0
 62
7
  6
CONTINUOUS
 10
118.0657053539
 20
233.5102552031
 40
3.45
 50
236.630343914
 51
305.5087555699
  0
ARC
  8
0
 62
7
  6
CONTINUOUS
 10
116.3992797679
 20
234.5420622424
 40
3.45
 50
170.9617937101
 51
239.8402443213
  0
ARC
  8
0
 62
7
  6
CONTINUOUS
 10
127.3221079648
 20
224.5845886571
 40
3.45
 50
215.4538733258
 51
284.3323121472
  0
ARC
  8
0
 62
7
  6
CONTINUOUS
 10
126.1409440775
 20
226.1487024225
 40
3.45
 50
149.785331833
 51
218.6637737331
  0
ARC
  8
0
 62
7
  6
CONTINUOUS
 10
132.7291236887
 20
212.9178541719
 40
3.45
 50
194.2774027375
 51
263.1558042074
  0
ARC
  8
0
 62
7
  6
CONTINUOUS
 10
132.1927442281
 20
214.8030324325
 40
3.45
 50
128.6088253863
 51
197.4873031448
  0
CIRCLE
  8
0
 62
7
  6
CONTINUOUS
 10
98.8198573127
 20
234.3287317457
 40
0.8660254038
  0
ARC
  8
0
 62
7
  6
CONTINUOUS
 10
100.3334170448
 20
240.5471547249
 40
0.5
 50
0.0
 51
87.6096515245
  0
ARC
  8
0
 62
7
  6
CONTINUOUS
 10
110.5065580253
 20
238.6454650953
 40
0.5
 50
71.2138778873
 51
158.8235294118
  0
ARC
  8
0
 62
7
  6
CONTINUOUS
 10
113.3292628608
 20
237.5519434163
 40
0.5
 50
338.8235294118
 51
66.4331809362
  0
ARC
  8
0
 62
7
  6
CONTINUOUS
 10
122.1284647805
 20
232.1037082496
 40
0.5
 50
50.0374072991
 51
137.6470588235
  0
ARC
  8
0
 62
7
  6
CONTINUOUS
 10
124.365533058
 20
230.0643510538
 40
0.5
 50
317.6470588235
 51
45.256710348
  0
ARC
  8
0
 62
7
  6
CONTINUOUS
 10
130.6024149398
 20
221.8053846989
 40
0.5
 50
28.8609367108
 51
116.4705882353
  0
ARC
  8
0
 62
7
  6
CONTINUOUS
 10
131.9517181925
 20
219.095618476
 40
0.5
 50
296.4705882353
 51
24.0802397598
  0
ARC
  8
0
 62
7
  6
CONTINUOUS
 10
135.0632619251
 20
206.1271337976
 40
0.5
 50
275.2941176471
 51
2.9037691715
  0
ARC
  8
0
 62
7
  6
CONTINUOUS
 10
134.7839545782
 20
209.1413401038
 40
0.5
 50
7.6844661226
 51
95.2941176471
  0
ARC
  8
0
 62
7
  6
CONTINUOUS
 10
72.2798573127
 20
105.7146254459
 40
2.0
 50
180.0
 51
270.0
  0
ARC
  8
0
 62
7
  6
CONTINUOUS
 10
72.2798573127
 20
121.7146254459
 40
2.0
 50
90.0
 51
180.0
  0
ARC
  8
0
 62
7
  6
CONTINUOUS
 10
125.3598573127
 20
105.7146254459
 40
2.0
 50
270.0
 51
360.0
  0
ARC
  8
0
 62
7
  6
CONTINUOUS
 10
125.3598573127
 20
121.7146254459
 40
2.0
 50
0.0
 51
90.0
  0
ENDSEC
  0
EOF
