  0
SECTION
  2
HEADER
  9
$EXTMAX
 10
210.0
 20
297.0
 30
0.0
  9
$EXTMIN
 10
0.0
 20
0.0
 30
0.0
  9
$LIMMIN
 10
0.0
 20
0.0
  9
$LIMMAX
 10
210.0
 20
297.0
  9
$VIEWCTR
 10
105.0
 20
148.5
  9
$VIEWSIZE
 40
297.0
  9
$CLAYER
  8
0
  9
$LTSCALE
 40
19.36
  9
$CELTYPE
  6
BYLAYER
  9
$DIMSCALE
 40
1.0
  9
$DIMASZ
 40
3.5
  9
$DIMEXO
 40
1.0
  9
$DIMDLI
 40
13.376
  9
$DIMEXE
 40
2.0
  9
$DIMCEN
 40
3.168
  9
$DIMLFAC
 40
1.0
  9
$DIMBLK
  1
_FILLED
  9
$DIMALT
 70
0
  9
$DIMALTF
 40
0.0393700787
  9
$DIMTXT
 40
3.5
  9
$AUNITS
 70
0
  9
$PDMODE
 70
3
  9
$PDSIZE
 40
0.3125
  9
$TILEMODE
 70
1
  0
ENDSEC
  0
SECTION
  2
TABLES
  0
TABLE
  2
LTYPE
 70
6
  0
LTYPE
  2
BYBLOCK
 70
0
  3

 72
65
 73
0
 40
0.0
  0
LTYPE
  2
BYLAYER
 70
0
  3

 72
65
 73
0
 40
0.0
  0
LTYPE
  2
CONTINUOUS
 70
64
  3
Solid line
 72
65
 73
0
 40
0.0
  0
LTYPE
  2
CENTER
 70
64
  3
____ _ ____ _ ____ _ ____ _ ____ _ ____ _ ____
 72
65
 73
4
 40
0.6
 49
0.375
 49
-0.075
 49
0.075
 49
-0.075
  0
LTYPE
  2
HIDDEN
 70
64
  3
- - - - - - - - - - - - - - - - - - - -
 72
65
 73
2
 40
0.2
 49
0.1
 49
-0.1
  0
LTYPE
  2
PHANTOM
 70
64
  3
_____ _ _ _____ _ _ _____ _ _ _____
 72
65
 73
6
 40
0.8
 49
0.45
 49
-0.05
 49
0.1
 49
-0.05
 49
0.1
 49
-0.05
  0
LTYPE
  2
DOT
 70
64
  3
. . . . . . . . . . . . . . . . . . . .
 72
65
 73
2
 40
0.2
 49
0.1
 49
-0.1
  0
LTYPE
  2
DASHED
 70
64
  3
- - - - - - - - - - - - - - - - - - - -
 72
65
 73
2
 40
0.2
 49
0.1
 49
-0.1
  0
ENDTAB
  0
TABLE
  2
LAYER
 70
36
  0
LAYER
  2
0
 70
0
 62
7
  6
CONTINUOUS
  0
LAYER
  2
DEFAULT_1
 70
0
 62
7
  6
CENTER
  0
LAYER
  2
DEFAULT_2
 70
0
 62
8
  6
HIDDEN
  0
LAYER
  2
DEFAULT_3
 70
0
 62
7
  6
PHANTOM
  0
LAYER
  2
1_CSYS
 70
0
 62
7
  6
CONTINUOUS
  0
LAYER
  2
1_DATUM_PLANE
 70
0
 62
7
  6
CONTINUOUS
  0
LAYER
  2
2_FEATURE
 70
0
 62
7
  6
CONTINUOUS
  0
LAYER
  2
6_DIM
 70
0
 62
7
  6
CONTINUOUS
  0
LAYER
  2
AXES
 70
0
 62
7
  6
CONTINUOUS
  0
LAYER
  2
CSYS
 70
0
 62
7
  6
CONTINUOUS
  0
LAYER
  2
NOTES
 70
0
 62
7
  6
CONTINUOUS
  0
LAYER
  2
PITCH_LINE
 70
0
 62
7
  6
CONTINUOUS
  0
LAYER
  2
PLANES
 70
0
 62
7
  6
CONTINUOUS
  0
LAYER
  2
QUILTS
 70
0
 62
7
  6
CONTINUOUS
  0
ENDTAB
  0
TABLE
  2
STYLE
 70
1
  0
STYLE
  2
STANDARD
 70
0
 40
0.0
 41
0.8
 50
0.0
 71
0
 42
0.2
  3
txt
  4

  0
STYLE
  2
TEXTSTYLE_1
 70
0
 40
0.0
 41
0.8
 50
0.0
 71
0
 42
0.2
  3
gdt
  4

  0
STYLE
  2
TEXTSTYLE_2
 70
0
 40
0.0
 41
0.6
 50
0.0
 71
0
 42
0.2
  3
txt
  4

  0
STYLE
  2
TEXTSTYLE_3
 70
0
 40
0.0
 41
1.0
 50
0.0
 71
0
 42
0.2
  3
ftb_____.ttf
  4

  0
STYLE
  2
TEXTSTYLE_4
 70
0
 40
0.0
 41
1.0
 50
0.0
 71
0
 42
0.2
  3
fti_____.ttf
  4

  0
STYLE
  2
TEXTSTYLE_5
 70
0
 40
0.0
 41
1.0
 50
0.0
 71
0
 42
0.2
  3
frutiger light.ttf
  4

  0
STYLE
  2
TEXTSTYLE_6
 70
0
 40
0.0
 41
0.7
 50
0.0
 71
0
 42
0.2
  3
txt
  4

  0
STYLE
  2
TEXTSTYLE_7
 70
0
 40
0.0
 41
0.5
 50
0.0
 71
0
 42
0.2
  3
txt
  4

  0
ENDTAB
  0
ENDSEC
  0
SECTION
  2
BLOCKS
  0
BLOCK
  8
0
 62
2
  6
CONTINUOUS
  2
UNI_LOGO2_BL1
 70
64
 10
173.5956734183
 20
35.5937998301
  0
TEXT
  8
0
 62
7
  6
CONTINUOUS
 10
164.6539584268
 20
30.6865562072
  7
TEXTSTYLE_4
 40
1.0655737705
  1
The brand for plastic modular belts and chains
 41
1.0
 72
0
  0
LINE
  8
0
 62
7
  6
CONTINUOUS
 10
149.5737418074
 20
36.1675703219
 11
149.5737418074
 21
34.0364227809
  0
LINE
  8
0
 62
7
  6
CONTINUOUS
 10
149.8628043005
 20
31.0454914852
 11
149.8628043005
 21
31.1422825445
  0
LINE
  8
0
 62
7
  6
CONTINUOUS
 10
149.5737418074
 20
31.1100188581
 11
149.6315543091
 21
30.9164367395
  0
LINE
  8
0
 62
7
  6
CONTINUOUS
 10
150.9671844304
 20
33.9544555678
 11
150.9671844304
 21
36.1675703219
  0
LINE
  8
0
 62
7
  6
CONTINUOUS
 10
151.8862417523
 20
32.1101932727
 11
151.8862417523
 21
30.5937998301
  0
LINE
  8
0
 62
7
  6
CONTINUOUS
 10
152.1753043074
 20
30.5937998301
 11
152.1753043074
 21
31.3358647082
  0
LINE
  8
0
 62
7
  6
CONTINUOUS
 10
152.1753043074
 20
31.4649194539
 11
152.1753043074
 21
32.1101932727
  0
LINE
  8
0
 62
7
  6
CONTINUOUS
 10
149.6315543091
 20
31.3036010218
 11
149.5737418074
 21
31.1100188581
  0
LINE
  8
0
 62
7
  6
CONTINUOUS
 10
149.9784292936
 20
30.8841730531
 11
149.8628043005
 21
31.0454914852
  0
LINE
  8
0
 62
7
  6
CONTINUOUS
 10
151.0768668626
 20
31.400392081
 11
151.1346793074
 21
31.3036010218
  0
LINE
  8
0
 62
7
  6
CONTINUOUS
 10
151.4237418626
 20
31.3036010218
 11
151.3659292523
 21
31.4326557675
  0
LINE
  8
0
 62
7
  6
CONTINUOUS
 10
152.852430332
 20
36.1675703219
 11
152.852430332
 21
34.3642916334
  0
LINE
  8
0
 62
7
  6
CONTINUOUS
 10
152.852430332
 20
33.0528162235
 11
152.852430332
 21
32.3970785186
  0
LINE
  8
0
 62
7
  6
CONTINUOUS
 10
153.2159293074
 20
31.2390736489
 11
153.2159293074
 21
30.5937998301
  0
LINE
  8
0
 62
7
  6
CONTINUOUS
 10
153.5049916972
 20
30.5937998301
 11
153.5049916972
 21
31.2390736489
  0
LINE
  8
0
 62
7
  6
CONTINUOUS
 10
149.8628043005
 20
31.1422825445
 11
149.9206168074
 21
31.2713373354
  0
LINE
  8
0
 62
7
  6
CONTINUOUS
 10
149.6315543091
 20
30.9164367395
 11
149.7471793074
 21
30.7873819712
  0
LINE
  8
0
 62
7
  6
CONTINUOUS
 10
153.1581166972
 20
31.3681283946
 11
153.2159293074
 21
31.2390736489
  0
LINE
  8
0
 62
7
  6
CONTINUOUS
 10
153.9674919177
 20
30.8841730531
 11
154.0253041972
 21
30.7551182848
  0
LINE
  8
0
 62
7
  6
CONTINUOUS
 10
153.5049916972
 20
31.2390736489
 11
153.4471794177
 21
31.400392081
  0
LINE
  8
0
 62
7
  6
CONTINUOUS
 10
153.9674919177
 20
31.4326557675
 11
153.9674919177
 21
31.3681283946
  0
LINE
  8
0
 62
7
  6
CONTINUOUS
 10
153.9674919177
 20
30.9809641124
 11
153.9674919177
 21
30.8841730531
  0
LINE
  8
0
 62
7
  6
CONTINUOUS
 10
154.245872955
 20
32.3970785186
 11
154.245872955
 21
36.1675703219
  0
LINE
  8
0
 62
7
  6
CONTINUOUS
 10
154.2565543074
 20
30.8519093441
 11
154.2565543074
 21
30.9164367395
  0
LINE
  8
0
 62
7
  6
CONTINUOUS
 10
154.5737418074
 20
36.1675703219
 11
154.5737418074
 21
32.3970785186
  0
LINE
  8
0
 62
7
  6
CONTINUOUS
 10
151.3659292523
 20
30.7873819712
 11
151.4237418626
 21
30.9164367395
  0
LINE
  8
0
 62
7
  6
CONTINUOUS
 10
155.759679528
 20
30.6905909007
 11
155.7018665869
 21
30.8519093441
  0
LINE
  8
0
 62
7
  6
CONTINUOUS
 10
155.412804528
 20
31.3681283946
 11
155.412804528
 21
31.2713373354
  0
LINE
  8
0
 62
7
  6
CONTINUOUS
 10
155.412804528
 20
31.1422825445
 11
155.412804528
 21
30.9487004259
  0
LINE
  8
0
 62
7
  6
CONTINUOUS
 10
155.7018665869
 20
30.8519093441
 11
155.7018665869
 21
31.3681283946
  0
LINE
  8
0
 62
7
  6
CONTINUOUS
 10
155.9671844304
 20
32.3970785186
 11
155.9671844304
 21
34.2003572071
  0
LINE
  8
0
 62
7
  6
CONTINUOUS
 10
155.9671844304
 20
35.511832617
 11
155.9671844304
 21
36.1675703219
  0
LINE
  8
0
 62
7
  6
CONTINUOUS
 10
156.279992028
 20
32.1101932727
 11
156.279992028
 21
31.9488748406
  0
LINE
  8
0
 62
7
  6
CONTINUOUS
 10
156.279992028
 20
31.626237886
 11
156.279992028
 21
30.5937998301
  0
LINE
  8
0
 62
7
  6
CONTINUOUS
 10
156.5690540869
 20
30.5937998301
 11
156.5690540869
 21
31.626237886
  0
LINE
  8
0
 62
7
  6
CONTINUOUS
 10
156.5690540869
 20
31.9488748406
 11
156.5690540869
 21
32.1101932727
  0
LINE
  8
0
 62
7
  6
CONTINUOUS
 10
151.1346793074
 20
30.9164367395
 11
151.0768668626
 21
30.8196456577
  0
LINE
  8
0
 62
7
  6
CONTINUOUS
 10
153.4471794177
 20
31.400392081
 11
153.3893668074
 21
31.4649194539
  0
LINE
  8
0
 62
7
  6
CONTINUOUS
 10
154.3143669177
 20
30.7873819712
 11
154.2565543074
 21
30.8519093441
  0
LINE
  8
0
 62
7
  6
CONTINUOUS
 10
155.4706168074
 20
30.6583272086
 11
155.5284290869
 21
30.5937998301
  0
LINE
  8
0
 62
7
  6
CONTINUOUS
 10
155.412804528
 20
30.7551182848
 11
155.4706168074
 21
30.6583272086
  0
LINE
  8
0
 62
7
  6
CONTINUOUS
 10
155.8174918074
 20
30.5937998301
 11
155.759679528
 21
30.6905909007
  0
LINE
  8
0
 62
7
  6
CONTINUOUS
 10
155.7018665869
 20
31.3681283946
 11
155.6440543074
 21
31.4649194539
  0
LINE
  8
0
 62
7
  6
CONTINUOUS
 10
157.0315543074
 20
31.626237886
 11
157.0315543074
 21
30.5937998301
  0
LINE
  8
0
 62
7
  6
CONTINUOUS
 10
157.320617028
 20
30.5937998301
 11
157.320617028
 21
31.3358647082
  0
LINE
  8
0
 62
7
  6
CONTINUOUS
 10
157.320617028
 20
31.4649194539
 11
157.320617028
 21
31.626237886
  0
LINE
  8
0
 62
7
  6
CONTINUOUS
 10
157.852430332
 20
34.6101932727
 11
157.852430332
 21
32.3970785186
  0
LINE
  8
0
 62
7
  6
CONTINUOUS
 10
149.7471793074
 20
31.4326557675
 11
149.6315543091
 21
31.3036010218
  0
LINE
  8
0
 62
7
  6
CONTINUOUS
 10
149.9206168074
 20
31.2713373354
 11
149.9784292936
 21
31.3358647082
  0
LINE
  8
0
 62
7
  6
CONTINUOUS
 10
149.7471793074
 20
30.7873819712
 11
149.8628043005
 21
30.7228545871
  0
LINE
  8
0
 62
7
  6
CONTINUOUS
 10
150.1518667936
 20
30.7873819712
 11
149.9784292936
 21
30.8841730531
  0
LINE
  8
0
 62
7
  6
CONTINUOUS
 10
155.3549915869
 20
31.4326557675
 11
155.412804528
 21
31.3681283946
  0
LINE
  8
0
 62
7
  6
CONTINUOUS
 10
158.3034290869
 20
31.3681283946
 11
158.361242028
 21
31.2068099625
  0
LINE
  8
0
 62
7
  6
CONTINUOUS
 10
158.6503040869
 20
31.2068099625
 11
158.5924918074
 21
31.3681283946
  0
LINE
  8
0
 62
7
  6
CONTINUOUS
 10
158.361242028
 20
31.2068099625
 11
158.361242028
 21
30.5937998301
  0
LINE
  8
0
 62
7
  6
CONTINUOUS
 10
158.6503040869
 20
30.5937998301
 11
158.6503040869
 21
31.2068099625
  0
LINE
  8
0
 62
7
  6
CONTINUOUS
 10
159.1128043074
 20
31.4326557675
 11
159.1128043074
 21
31.3681283946
  0
LINE
  8
0
 62
7
  6
CONTINUOUS
 10
159.245872955
 20
32.3970785186
 11
159.245872955
 21
34.5282260596
  0
LINE
  8
0
 62
7
  6
CONTINUOUS
 10
159.5737418074
 20
36.1675703219
 11
159.5737418074
 21
32.3970785186
  0
LINE
  8
0
 62
7
  6
CONTINUOUS
 10
154.2565543074
 20
30.9164367395
 11
154.3143669177
 21
31.0132277988
  0
LINE
  8
0
 62
7
  6
CONTINUOUS
 10
149.8628043005
 20
30.7228545871
 11
150.0362418212
 21
30.6583272086
  0
LINE
  8
0
 62
7
  6
CONTINUOUS
 10
151.3659292523
 20
31.4326557675
 11
151.1924917523
 21
31.5294468267
  0
LINE
  8
0
 62
7
  6
CONTINUOUS
 10
154.0253041972
 20
30.7551182848
 11
154.1987416972
 21
30.6583272086
  0
LINE
  8
0
 62
7
  6
CONTINUOUS
 10
153.0424918074
 20
31.4326557675
 11
153.1581166972
 21
31.3681283946
  0
LINE
  8
0
 62
7
  6
CONTINUOUS
 10
153.3893668074
 20
31.4649194539
 11
153.2737419177
 21
31.5294468267
  0
LINE
  8
0
 62
7
  6
CONTINUOUS
 10
159.1128043074
 20
30.8519093441
 11
159.228429528
 21
30.7228545871
  0
LINE
  8
0
 62
7
  6
CONTINUOUS
 10
159.4596793074
 20
30.7873819712
 11
159.401867028
 21
30.8519093441
  0
LINE
  8
0
 62
7
  6
CONTINUOUS
 10
159.1128043074
 20
31.3681283946
 11
159.228429528
 21
31.2390736489
  0
LINE
  8
0
 62
7
  6
CONTINUOUS
 10
158.5924918074
 20
31.3681283946
 11
158.534679528
 21
31.4649194539
  0
LINE
  8
0
 62
7
  6
CONTINUOUS
 10
160.9628038663
 20
30.7873819712
 11
160.9628038663
 21
30.8519093441
  0
LINE
  8
0
 62
7
  6
CONTINUOUS
 10
160.9671844304
 20
32.3970785186
 11
160.9671844304
 21
36.1675703219
  0
LINE
  8
0
 62
7
  6
CONTINUOUS
 10
154.0253041972
 20
31.4971831403
 11
153.9674919177
 21
31.4326557675
  0
LINE
  8
0
 62
7
  6
CONTINUOUS
 10
150.9034292799
 20
31.4649194539
 11
151.0768668626
 21
31.400392081
  0
LINE
  8
0
 62
7
  6
CONTINUOUS
 10
155.6440543074
 20
31.4649194539
 11
155.5284290869
 21
31.5294468267
  0
LINE
  8
0
 62
7
  6
CONTINUOUS
 10
159.4596793074
 20
31.3036010218
 11
159.401867028
 21
31.3681283946
  0
LINE
  8
0
 62
7
  6
CONTINUOUS
 10
160.615929528
 20
30.9164367395
 11
160.6737418074
 21
30.8519093441
  0
LINE
  8
0
 62
7
  6
CONTINUOUS
 10
160.9628038663
 20
30.8519093441
 11
160.8471793074
 21
30.9809641124
  0
LINE
  8
0
 62
7
  6
CONTINUOUS
 10
160.615929528
 20
31.4326557675
 11
160.6737418074
 21
31.3681283946
  0
LINE
  8
0
 62
7
  6
CONTINUOUS
 10
160.9628038663
 20
31.3681283946
 11
160.8471793074
 21
31.4971831403
  0
LINE
  8
0
 62
7
  6
CONTINUOUS
 10
154.2565543074
 20
31.3681283946
 11
154.3143669177
 21
31.4326557675
  0
LINE
  8
0
 62
7
  6
CONTINUOUS
 10
154.0831168074
 20
31.1100188581
 11
153.9674919177
 21
30.9809641124
  0
LINE
  8
0
 62
7
  6
CONTINUOUS
 10
155.412804528
 20
30.9487004259
 11
155.3549915869
 21
30.8841730531
  0
LINE
  8
0
 62
7
  6
CONTINUOUS
 10
155.3549915869
 20
30.6905909007
 11
155.412804528
 21
30.7551182848
  0
LINE
  8
0
 62
7
  6
CONTINUOUS
 10
154.1987416972
 20
30.6583272086
 11
154.3143669177
 21
30.6260635193
  0
LINE
  8
0
 62
7
  6
CONTINUOUS
 10
151.1924917523
 20
31.5294468267
 11
150.9612418074
 21
31.5939741996
  0
LINE
  8
0
 62
7
  6
CONTINUOUS
 10
154.5456166972
 20
30.7228545871
 11
154.3143669177
 21
30.7873819712
  0
LINE
  8
0
 62
7
  6
CONTINUOUS
 10
153.2737419177
 20
31.5294468267
 11
153.1003044177
 21
31.5939741996
  0
LINE
  8
0
 62
7
  6
CONTINUOUS
 10
155.5284290869
 20
31.5294468267
 11
155.3549915869
 21
31.5939741996
  0
LINE
  8
0
 62
7
  6
CONTINUOUS
 10
158.187804528
 20
31.4326557675
 11
158.3034290869
 21
31.3681283946
  0
LINE
  8
0
 62
7
  6
CONTINUOUS
 10
158.534679528
 20
31.4649194539
 11
158.4190543074
 21
31.5294468267
  0
LINE
  8
0
 62
7
  6
CONTINUOUS
 10
150.0362418212
 20
30.6583272086
 11
150.2096793212
 21
30.6260635193
  0
LINE
  8
0
 62
7
  6
CONTINUOUS
 10
150.498741835
 20
30.7228545871
 11
150.1518667936
 21
30.7873819712
  0
LINE
  8
0
 62
7
  6
CONTINUOUS
 10
152.9268669177
 20
31.4649194539
 11
153.0424918074
 21
31.4326557675
  0
LINE
  8
0
 62
7
  6
CONTINUOUS
 10
155.239367028
 20
31.4649194539
 11
155.3549915869
 21
31.4326557675
  0
LINE
  8
0
 62
7
  6
CONTINUOUS
 10
159.575304528
 20
30.7551182848
 11
159.4596793074
 21
30.7873819712
  0
LINE
  8
0
 62
7
  6
CONTINUOUS
 10
158.0721793074
 20
31.4649194539
 11
158.187804528
 21
31.4326557675
  0
LINE
  8
0
 62
7
  6
CONTINUOUS
 10
159.228429528
 20
30.7228545871
 11
159.401867028
 21
30.6583272086
  0
LINE
  8
0
 62
7
  6
CONTINUOUS
 10
158.4190543074
 20
31.5294468267
 11
158.2456168074
 21
31.5939741996
  0
LINE
  8
0
 62
7
  6
CONTINUOUS
 10
159.6331168074
 20
31.2390736489
 11
159.4596793074
 21
31.3036010218
  0
LINE
  8
0
 62
7
  6
CONTINUOUS
 10
160.442492028
 20
30.9809641124
 11
160.615929528
 21
30.9164367395
  0
LINE
  8
0
 62
7
  6
CONTINUOUS
 10
160.8471793074
 20
31.4971831403
 11
160.6737418074
 21
31.5617105132
  0
LINE
  8
0
 62
7
  6
CONTINUOUS
 10
159.228429528
 20
31.2390736489
 11
159.4596793074
 21
31.1422825445
  0
LINE
  8
0
 62
7
  6
CONTINUOUS
 10
160.8471793074
 20
30.9809641124
 11
160.615929528
 21
31.0777551716
  0
LINE
  8
0
 62
7
  6
CONTINUOUS
 10
159.401867028
 20
31.3681283946
 11
159.4596793074
 21
31.4326557675
  0
LINE
  8
0
 62
7
  6
CONTINUOUS
 10
149.8628043005
 20
31.4971831403
 11
149.7471793074
 21
31.4326557675
  0
LINE
  8
0
 62
7
  6
CONTINUOUS
 10
149.9784292936
 20
31.3358647082
 11
150.1518667936
 21
31.4326557675
  0
LINE
  8
0
 62
7
  6
CONTINUOUS
 10
152.2909293626
 20
31.5294468267
 11
152.1753043074
 21
31.4649194539
  0
LINE
  8
0
 62
7
  6
CONTINUOUS
 10
152.1753043074
 20
31.3358647082
 11
152.2909293626
 21
31.400392081
  0
LINE
  8
0
 62
7
  6
CONTINUOUS
 10
151.1924917523
 20
30.6905909007
 11
151.3659292523
 21
30.7873819712
  0
LINE
  8
0
 62
7
  6
CONTINUOUS
 10
150.2096793212
 20
30.6260635193
 11
150.5565542799
 21
30.5937998301
  0
LINE
  8
0
 62
7
  6
CONTINUOUS
 10
154.3143669177
 20
30.6260635193
 11
154.5456166972
 21
30.5937998301
  0
LINE
  8
0
 62
7
  6
CONTINUOUS
 10
152.6956168074
 20
31.4971831403
 11
152.9268669177
 21
31.4649194539
  0
LINE
  8
0
 62
7
  6
CONTINUOUS
 10
155.0081169177
 20
31.4971831403
 11
155.239367028
 21
31.4649194539
  0
LINE
  8
0
 62
7
  6
CONTINUOUS
 10
159.4596793074
 20
31.1422825445
 11
160.442492028
 21
30.9809641124
  0
LINE
  8
0
 62
7
  6
CONTINUOUS
 10
160.615929528
 20
31.0777551716
 11
159.6331168074
 21
31.2390736489
  0
LINE
  8
0
 62
7
  6
CONTINUOUS
 10
153.1003044177
 20
31.5939741996
 11
152.9268669177
 21
31.626237886
  0
LINE
  8
0
 62
7
  6
CONTINUOUS
 10
159.401867028
 20
30.6583272086
 11
159.575304528
 21
30.6260635193
  0
LINE
  8
0
 62
7
  6
CONTINUOUS
 10
158.2456168074
 20
31.5939741996
 11
158.0721793074
 21
31.626237886
  0
LINE
  8
0
 62
7
  6
CONTINUOUS
 10
160.5003043074
 20
31.4649194539
 11
160.615929528
 21
31.4326557675
  0
LINE
  8
0
 62
7
  6
CONTINUOUS
 10
160.6737418074
 20
30.8519093441
 11
160.615929528
 21
30.7873819712
  0
LINE
  8
0
 62
7
  6
CONTINUOUS
 10
159.228429528
 20
31.5294468267
 11
159.1128043074
 21
31.4326557675
  0
LINE
  8
0
 62
7
  6
CONTINUOUS
 10
154.1409294177
 20
31.5617105132
 11
154.0253041972
 21
31.4971831403
  0
LINE
  8
0
 62
7
  6
CONTINUOUS
 10
154.1987416972
 20
31.1745462761
 11
154.0831168074
 21
31.1100188581
  0
LINE
  8
0
 62
7
  6
CONTINUOUS
 10
154.3143669177
 20
31.0132277988
 11
154.4299918074
 21
31.0777551716
  0
LINE
  8
0
 62
7
  6
CONTINUOUS
 10
151.8862417523
 20
30.5937998301
 11
152.1753043074
 21
30.5937998301
  0
LINE
  8
0
 62
7
  6
CONTINUOUS
 10
153.2159293074
 20
30.5937998301
 11
153.5049916972
 21
30.5937998301
  0
LINE
  8
0
 62
7
  6
CONTINUOUS
 10
154.5456166972
 20
30.5937998301
 11
154.8924916972
 21
30.5937998301
  0
LINE
  8
0
 62
7
  6
CONTINUOUS
 10
155.5284290869
 20
30.5937998301
 11
155.8174918074
 21
30.5937998301
  0
LINE
  8
0
 62
7
  6
CONTINUOUS
 10
156.279992028
 20
30.5937998301
 11
156.5690540869
 21
30.5937998301
  0
LINE
  8
0
 62
7
  6
CONTINUOUS
 10
157.0315543074
 20
30.5937998301
 11
157.320617028
 21
30.5937998301
  0
LINE
  8
0
 62
7
  6
CONTINUOUS
 10
158.361242028
 20
30.5937998301
 11
158.6503040869
 21
30.5937998301
  0
LINE
  8
0
 62
7
  6
CONTINUOUS
 10
159.922179528
 20
30.5937998301
 11
160.269054528
 21
30.5937998301
  0
LINE
  8
0
 62
7
  6
CONTINUOUS
 10
160.269054528
 20
30.7228545871
 11
159.922179528
 21
30.7228545871
  0
LINE
  8
0
 62
7
  6
CONTINUOUS
 10
154.8924916972
 20
30.7228545871
 11
154.5456166972
 21
30.7228545871
  0
LINE
  8
0
 62
7
  6
CONTINUOUS
 10
159.401867028
 20
30.8519093441
 11
159.1128043074
 21
30.8519093441
  0
LINE
  8
0
 62
7
  6
CONTINUOUS
 10
151.4237418626
 20
30.9164367395
 11
151.1346793074
 21
30.9164367395
  0
LINE
  8
0
 62
7
  6
CONTINUOUS
 10
150.498741835
 20
31.4971831403
 11
150.9034292799
 21
31.4649194539
  0
LINE
  8
0
 62
7
  6
CONTINUOUS
 10
150.9612418074
 20
31.5939741996
 11
150.5565542799
 21
31.626237886
  0
LINE
  8
0
 62
7
  6
CONTINUOUS
 10
159.575304528
 20
30.6260635193
 11
159.922179528
 21
30.5937998301
  0
LINE
  8
0
 62
7
  6
CONTINUOUS
 10
159.922179528
 20
30.7228545871
 11
159.575304528
 21
30.7551182848
  0
LINE
  8
0
 62
7
  6
CONTINUOUS
 10
155.3549915869
 20
31.5939741996
 11
155.0081169177
 21
31.626237886
  0
LINE
  8
0
 62
7
  6
CONTINUOUS
 10
160.1534293074
 20
31.4971831403
 11
160.5003043074
 21
31.4649194539
  0
LINE
  8
0
 62
7
  6
CONTINUOUS
 10
160.5003043074
 20
31.5939741996
 11
160.1534293074
 21
31.626237886
  0
LINE
  8
0
 62
7
  6
CONTINUOUS
 10
157.840929528
 20
31.4971831403
 11
158.0721793074
 21
31.4649194539
  0
LINE
  8
0
 62
7
  6
CONTINUOUS
 10
160.6737418074
 20
31.5617105132
 11
160.5003043074
 21
31.5939741996
  0
LINE
  8
0
 62
7
  6
CONTINUOUS
 10
160.8471793074
 20
30.6905909007
 11
160.9628038663
 21
30.7873819712
  0
LINE
  8
0
 62
7
  6
CONTINUOUS
 10
155.3549915869
 20
30.8841730531
 11
155.1815540869
 21
30.7873819712
  0
LINE
  8
0
 62
7
  6
CONTINUOUS
 10
157.4362415869
 20
31.5294468267
 11
157.320617028
 21
31.4649194539
  0
LINE
  8
0
 62
7
  6
CONTINUOUS
 10
157.320617028
 20
31.3358647082
 11
157.4362415869
 21
31.400392081
  0
LINE
  8
0
 62
7
  6
CONTINUOUS
 10
150.0362418212
 20
31.5617105132
 11
149.8628043005
 21
31.4971831403
  0
LINE
  8
0
 62
7
  6
CONTINUOUS
 10
152.4643666972
 20
31.5939741996
 11
152.2909293626
 21
31.5294468267
  0
LINE
  8
0
 62
7
  6
CONTINUOUS
 10
152.2909293626
 20
31.400392081
 11
152.4643666972
 21
31.4649194539
  0
LINE
  8
0
 62
7
  6
CONTINUOUS
 10
151.0768668626
 20
30.8196456577
 11
150.9034292799
 21
30.7551182848
  0
LINE
  8
0
 62
7
  6
CONTINUOUS
 10
160.5003043074
 20
30.7551182848
 11
160.269054528
 21
30.7228545871
  0
LINE
  8
0
 62
7
  6
CONTINUOUS
 10
154.8924916972
 20
30.5937998301
 11
155.1815540869
 21
30.6260635193
  0
LINE
  8
0
 62
7
  6
CONTINUOUS
 10
160.269054528
 20
30.5937998301
 11
160.615929528
 21
30.6260635193
  0
LINE
  8
0
 62
7
  6
CONTINUOUS
 10
150.5565542799
 20
30.5937998301
 11
150.9612418074
 21
30.6260635193
  0
LINE
  8
0
 62
7
  6
CONTINUOUS
 10
150.9034292799
 20
30.7551182848
 11
150.498741835
 21
30.7228545871
  0
LINE
  8
0
 62
7
  6
CONTINUOUS
 10
154.7768668074
 20
31.1422825445
 11
155.412804528
 21
31.1422825445
  0
LINE
  8
0
 62
7
  6
CONTINUOUS
 10
155.412804528
 20
31.2713373354
 11
154.7768668074
 21
31.2713373354
  0
LINE
  8
0
 62
7
  6
CONTINUOUS
 10
151.1346793074
 20
31.3036010218
 11
151.4237418626
 21
31.3036010218
  0
LINE
  8
0
 62
7
  6
CONTINUOUS
 10
153.9674919177
 20
31.3681283946
 11
154.2565543074
 21
31.3681283946
  0
LINE
  8
0
 62
7
  6
CONTINUOUS
 10
160.6737418074
 20
31.3681283946
 11
160.9628038663
 21
31.3681283946
  0
LINE
  8
0
 62
7
  6
CONTINUOUS
 10
154.6612419177
 20
31.4971831403
 11
155.0081169177
 21
31.4971831403
  0
LINE
  8
0
 62
7
  6
CONTINUOUS
 10
159.8065543074
 20
31.4971831403
 11
160.1534293074
 21
31.4971831403
  0
LINE
  8
0
 62
7
  6
CONTINUOUS
 10
160.1534293074
 20
31.626237886
 11
159.8065543074
 21
31.626237886
  0
LINE
  8
0
 62
7
  6
CONTINUOUS
 10
158.0721793074
 20
31.626237886
 11
157.840929528
 21
31.626237886
  0
LINE
  8
0
 62
7
  6
CONTINUOUS
 10
157.320617028
 20
31.626237886
 11
157.0315543074
 21
31.626237886
  0
LINE
  8
0
 62
7
  6
CONTINUOUS
 10
156.5690540869
 20
31.626237886
 11
156.279992028
 21
31.626237886
  0
LINE
  8
0
 62
7
  6
CONTINUOUS
 10
155.0081169177
 20
31.626237886
 11
154.6612419177
 21
31.626237886
  0
LINE
  8
0
 62
7
  6
CONTINUOUS
 10
152.9268669177
 20
31.626237886
 11
152.6956168074
 21
31.626237886
  0
LINE
  8
0
 62
7
  6
CONTINUOUS
 10
156.279992028
 20
31.9488748406
 11
156.5690540869
 21
31.9488748406
  0
LINE
  8
0
 62
7
  6
CONTINUOUS
 10
156.5690540869
 20
32.1101932727
 11
156.279992028
 21
32.1101932727
  0
LINE
  8
0
 62
7
  6
CONTINUOUS
 10
152.1753043074
 20
32.1101932727
 11
151.8862417523
 21
32.1101932727
  0
LINE
  8
0
 62
7
  6
CONTINUOUS
 10
151.2130860697
 20
32.3970785186
 11
151.6256574183
 21
32.3970785186
  0
LINE
  8
0
 62
7
  6
CONTINUOUS
 10
152.852430332
 20
32.3970785186
 11
154.245872955
 21
32.3970785186
  0
LINE
  8
0
 62
7
  6
CONTINUOUS
 10
154.5737418074
 20
32.3970785186
 11
155.9671844304
 21
32.3970785186
  0
LINE
  8
0
 62
7
  6
CONTINUOUS
 10
157.852430332
 20
32.3970785186
 11
159.245872955
 21
32.3970785186
  0
LINE
  8
0
 62
7
  6
CONTINUOUS
 10
159.5737418074
 20
32.3970785186
 11
160.9671844304
 21
32.3970785186
  0
LINE
  8
0
 62
7
  6
CONTINUOUS
 10
157.6096790869
 20
31.5939741996
 11
157.4362415869
 21
31.5294468267
  0
LINE
  8
0
 62
7
  6
CONTINUOUS
 10
155.1815540869
 20
30.6260635193
 11
155.3549915869
 21
30.6905909007
  0
LINE
  8
0
 62
7
  6
CONTINUOUS
 10
160.615929528
 20
30.6260635193
 11
160.8471793074
 21
30.6905909007
  0
LINE
  8
0
 62
7
  6
CONTINUOUS
 10
160.615929528
 20
30.7873819712
 11
160.5003043074
 21
30.7551182848
  0
LINE
  8
0
 62
7
  6
CONTINUOUS
 10
159.575304528
 20
31.4649194539
 11
159.8065543074
 21
31.4971831403
  0
LINE
  8
0
 62
7
  6
CONTINUOUS
 10
157.6096790869
 20
31.4649194539
 11
157.840929528
 21
31.4971831403
  0
LINE
  8
0
 62
7
  6
CONTINUOUS
 10
154.5456166972
 20
31.1100188581
 11
154.7768668074
 21
31.1422825445
  0
LINE
  8
0
 62
7
  6
CONTINUOUS
 10
157.840929528
 20
31.626237886
 11
157.6096790869
 21
31.5939741996
  0
LINE
  8
0
 62
7
  6
CONTINUOUS
 10
154.4299918074
 20
31.4649194539
 11
154.6612419177
 21
31.4971831403
  0
LINE
  8
0
 62
7
  6
CONTINUOUS
 10
159.8065543074
 20
31.626237886
 11
159.4596793074
 21
31.5939741996
  0
LINE
  8
0
 62
7
  6
CONTINUOUS
 10
154.7768668074
 20
31.2713373354
 11
154.4299918074
 21
31.2390736489
  0
LINE
  8
0
 62
7
  6
CONTINUOUS
 10
150.5565542799
 20
31.626237886
 11
150.2096793212
 21
31.5939741996
  0
LINE
  8
0
 62
7
  6
CONTINUOUS
 10
154.6612419177
 20
31.626237886
 11
154.2565543074
 21
31.5939741996
  0
LINE
  8
0
 62
7
  6
CONTINUOUS
 10
152.0327582009
 20
33.5446195022
 11
151.3770204959
 21
33.5446195022
  0
LINE
  8
0
 62
7
  6
CONTINUOUS
 10
157.4362415869
 20
31.400392081
 11
157.6096790869
 21
31.4649194539
  0
LINE
  8
0
 62
7
  6
CONTINUOUS
 10
159.4596793074
 20
31.4326557675
 11
159.575304528
 21
31.4649194539
  0
LINE
  8
0
 62
7
  6
CONTINUOUS
 10
159.4596793074
 20
31.5939741996
 11
159.228429528
 21
31.5294468267
  0
LINE
  8
0
 62
7
  6
CONTINUOUS
 10
155.1815540869
 20
30.7873819712
 11
154.8924916972
 21
30.7228545871
  0
LINE
  8
0
 62
7
  6
CONTINUOUS
 10
152.4643666972
 20
31.4649194539
 11
152.6956168074
 21
31.4971831403
  0
LINE
  8
0
 62
7
  6
CONTINUOUS
 10
152.6956168074
 20
31.626237886
 11
152.4643666972
 21
31.5939741996
  0
LINE
  8
0
 62
7
  6
CONTINUOUS
 10
150.2674918074
 20
31.4649194539
 11
150.498741835
 21
31.4971831403
  0
LINE
  8
0
 62
7
  6
CONTINUOUS
 10
156.7868565615
 20
35.0200293383
 11
157.4425942664
 21
35.0200293383
  0
LINE
  8
0
 62
7
  6
CONTINUOUS
 10
154.4299918074
 20
31.0777551716
 11
154.5456166972
 21
31.1100188581
  0
LINE
  8
0
 62
7
  6
CONTINUOUS
 10
154.4299918074
 20
31.2390736489
 11
154.1987416972
 21
31.1745462761
  0
LINE
  8
0
 62
7
  6
CONTINUOUS
 10
154.3143669177
 20
31.4326557675
 11
154.4299918074
 21
31.4649194539
  0
LINE
  8
0
 62
7
  6
CONTINUOUS
 10
150.9612418074
 20
30.6260635193
 11
151.1924917523
 21
30.6905909007
  0
LINE
  8
0
 62
7
  6
CONTINUOUS
 10
154.2565543074
 20
31.5939741996
 11
154.1409294177
 21
31.5617105132
  0
LINE
  8
0
 62
7
  6
CONTINUOUS
 10
150.2096793212
 20
31.5939741996
 11
150.0362418212
 21
31.5617105132
  0
LINE
  8
0
 62
7
  6
CONTINUOUS
 10
160.9671844304
 20
36.1675703219
 11
159.5737418074
 21
36.1675703219
  0
LINE
  8
0
 62
7
  6
CONTINUOUS
 10
157.6065286927
 20
36.1675703219
 11
157.1939573441
 21
36.1675703219
  0
LINE
  8
0
 62
7
  6
CONTINUOUS
 10
155.9671844304
 20
36.1675703219
 11
154.5737418074
 21
36.1675703219
  0
LINE
  8
0
 62
7
  6
CONTINUOUS
 10
154.245872955
 20
36.1675703219
 11
152.852430332
 21
36.1675703219
  0
LINE
  8
0
 62
7
  6
CONTINUOUS
 10
150.9671844304
 20
36.1675703219
 11
149.5737418074
 21
36.1675703219
  0
LINE
  8
0
 62
7
  6
CONTINUOUS
 10
150.1518667936
 20
31.4326557675
 11
150.2674918074
 21
31.4649194539
  0
CIRCLE
  8
0
 62
7
  6
CONTINUOUS
 10
160.2704631189
 20
38.5036358957
 40
2.0901639344
  0
ARC
  8
0
 62
7
  6
CONTINUOUS
 10
151.2130860697
 20
34.0364227809
 40
1.6393442623
 50
180.0
 51
270.0
  0
ARC
  8
0
 62
7
  6
CONTINUOUS
 10
157.6065286927
 20
34.5282260596
 40
1.6393442623
 50
0.0
 51
90.0
  0
ARC
  8
0
 62
7
  6
CONTINUOUS
 10
151.6256574183
 20
33.8724883547
 40
1.4754098361
 50
270.0
 51
326.2510114041
  0
ARC
  8
0
 62
7
  6
CONTINUOUS
 10
157.1939573441
 20
34.6921604858
 40
1.4754098361
 50
90.0
 51
146.2510114041
  0
ARC
  8
0
 62
7
  6
CONTINUOUS
 10
152.0327582009
 20
34.3642916334
 40
0.8196721311
 50
270.0
 51
360.0
  0
ARC
  8
0
 62
7
  6
CONTINUOUS
 10
156.7868565615
 20
34.2003572071
 40
0.8196721311
 50
90.0
 51
180.0
  0
ARC
  8
0
 62
7
  6
CONTINUOUS
 10
151.3770204959
 20
33.9544555678
 40
0.4098360656
 50
180.0
 51
270.0
  0
ARC
  8
0
 62
7
  6
CONTINUOUS
 10
157.4425942664
 20
34.6101932727
 40
0.4098360656
 50
0.0
 51
90.0
  0
SOLID
  8
0
 62
7
  6
CONTINUOUS
 10
156.279992028
 20
31.9488752009
 11
156.279992028
 21
32.1101936845
 12
156.5690540869
 22
31.9488752009
 13
156.5690540869
 23
32.1101936845
  0
SOLID
  8
0
 62
7
  6
CONTINUOUS
 10
150.5565542799
 20
31.6262382337
 11
150.9612418074
 21
31.5939740028
 12
150.2096793212
 22
31.5939740028
 13
150.2096793212
 23
31.5939740028
  0
SOLID
  8
0
 62
7
  6
CONTINUOUS
 10
150.0362418212
 20
31.5617111435
 11
150.2096793212
 21
31.5939740028
 12
150.9612418074
 22
31.5939740028
 13
150.9612418074
 23
31.5939740028
  0
SOLID
  8
0
 62
7
  6
CONTINUOUS
 10
150.9612418074
 20
31.5939740028
 11
151.1924917523
 21
31.5294468402
 12
150.0362418212
 22
31.5617111435
 13
150.0362418212
 23
31.5617111435
  0
SOLID
  8
0
 62
7
  6
CONTINUOUS
 10
149.8628043005
 20
31.49718259
 11
150.0362418212
 21
31.5617111435
 12
151.1924917523
 22
31.5294468402
 13
151.1924917523
 23
31.5294468402
  0
SOLID
  8
0
 62
7
  6
CONTINUOUS
 10
149.8628043005
 20
31.49718259
 11
151.1924917523
 21
31.5294468402
 12
150.498741835
 22
31.49718259
 13
150.498741835
 23
31.49718259
  0
SOLID
  8
0
 62
7
  6
CONTINUOUS
 10
150.498741835
 20
31.49718259
 11
151.1924917523
 21
31.5294468402
 12
150.9034292799
 22
31.4649197501
 13
150.9034292799
 23
31.4649197501
  0
SOLID
  8
0
 62
7
  6
CONTINUOUS
 10
151.1924917523
 20
31.5294468402
 11
151.3659292523
 21
31.4326554468
 12
150.9034292799
 22
31.4649197501
 13
150.9034292799
 23
31.4649197501
  0
SOLID
  8
0
 62
7
  6
CONTINUOUS
 10
151.0768668626
 20
31.4003926599
 11
150.9034292799
 21
31.4649197501
 12
151.3659292523
 22
31.4326554468
 13
151.3659292523
 23
31.4326554468
  0
SOLID
  8
0
 62
7
  6
CONTINUOUS
 10
151.0768668626
 20
31.4003926599
 11
151.3659292523
 21
31.4326554468
 12
151.1346793074
 22
31.3036013776
 13
151.1346793074
 23
31.3036013776
  0
SOLID
  8
0
 62
7
  6
CONTINUOUS
 10
151.3659292523
 20
31.4326554468
 11
151.4237418626
 21
31.3036013776
 12
151.1346793074
 22
31.3036013776
 13
151.1346793074
 23
31.3036013776
  0
SOLID
  8
0
 62
7
  6
CONTINUOUS
 10
152.4643666972
 20
31.5939739754
 11
152.6956168074
 21
31.6262382787
 12
152.9268669177
 22
31.6262382787
 13
152.9268669177
 23
31.6262382787
  0
SOLID
  8
0
 62
7
  6
CONTINUOUS
 10
152.9268669177
 20
31.6262382787
 11
153.1003044177
 21
31.5939739754
 12
152.4643666972
 22
31.5939739754
 13
152.4643666972
 23
31.5939739754
  0
SOLID
  8
0
 62
7
  6
CONTINUOUS
 10
152.2909293626
 20
31.5294468852
 11
152.4643666972
 21
31.5939739754
 12
153.1003044177
 22
31.5939739754
 13
153.1003044177
 23
31.5939739754
  0
SOLID
  8
0
 62
7
  6
CONTINUOUS
 10
153.1003044177
 20
31.5939739754
 11
153.2737419177
 21
31.5294468852
 12
152.2909293626
 22
31.5294468852
 13
152.2909293626
 23
31.5294468852
  0
SOLID
  8
0
 62
7
  6
CONTINUOUS
 10
153.2737419177
 20
31.5294468852
 11
152.6956168074
 21
31.4971825369
 12
152.2909293626
 22
31.5294468852
 13
152.2909293626
 23
31.5294468852
  0
SOLID
  8
0
 62
7
  6
CONTINUOUS
 10
152.1753043074
 20
31.4649197951
 11
152.2909293626
 21
31.5294468852
 12
152.6956168074
 22
31.4971825369
 13
152.6956168074
 23
31.4971825369
  0
SOLID
  8
0
 62
7
  6
CONTINUOUS
 10
152.6956168074
 20
31.4971825369
 11
152.4643666972
 21
31.4649197951
 12
152.1753043074
 22
31.4649197951
 13
152.1753043074
 23
31.4649197951
  0
SOLID
  8
0
 62
7
  6
CONTINUOUS
 10
152.6956168074
 20
31.4971825369
 11
153.2737419177
 21
31.5294468852
 12
152.9268669177
 22
31.4649197951
 13
152.9268669177
 23
31.4649197951
  0
SOLID
  8
0
 62
7
  6
CONTINUOUS
 10
153.2737419177
 20
31.5294468852
 11
153.3893668074
 21
31.4649197951
 12
152.9268669177
 22
31.4649197951
 13
152.9268669177
 23
31.4649197951
  0
SOLID
  8
0
 62
7
  6
CONTINUOUS
 10
153.0424918074
 20
31.4326554468
 11
152.9268669177
 21
31.4649197951
 12
153.3893668074
 22
31.4649197951
 13
153.3893668074
 23
31.4649197951
  0
SOLID
  8
0
 62
7
  6
CONTINUOUS
 10
153.3893668074
 20
31.4649197951
 11
153.4471794177
 21
31.4003927049
 12
153.0424918074
 22
31.4326554468
 13
153.0424918074
 23
31.4326554468
  0
SOLID
  8
0
 62
7
  6
CONTINUOUS
 10
153.1581166972
 20
31.3681283566
 11
153.0424918074
 21
31.4326554468
 12
153.4471794177
 22
31.4003927049
 13
153.4471794177
 23
31.4003927049
  0
SOLID
  8
0
 62
7
  6
CONTINUOUS
 10
153.1581166972
 20
31.3681283566
 11
153.4471794177
 21
31.4003927049
 12
153.2159293074
 22
31.2390742213
 13
153.2159293074
 23
31.2390742213
  0
SOLID
  8
0
 62
7
  6
CONTINUOUS
 10
153.4471794177
 20
31.4003927049
 11
153.5049916972
 21
31.2390742213
 12
153.2159293074
 22
31.2390742213
 13
153.2159293074
 23
31.2390742213
  0
SOLID
  8
0
 62
7
  6
CONTINUOUS
 10
152.4643666972
 20
31.4649197951
 11
152.2909293626
 21
31.4003927049
 12
152.1753043074
 22
31.4649197951
 13
152.1753043074
 23
31.4649197951
  0
SOLID
  8
0
 62
7
  6
CONTINUOUS
 10
152.2909293626
 20
31.4003927049
 11
152.1753043074
 21
31.3358640533
 12
152.1753043074
 22
31.4649197951
 13
152.1753043074
 23
31.4649197951
  0
SOLID
  8
0
 62
7
  6
CONTINUOUS
 10
152.1753043074
 20
31.3358640533
 11
151.8862417523
 21
30.5938002869
 12
152.1753043074
 22
31.4649197951
 13
152.1753043074
 23
31.4649197951
  0
SOLID
  8
0
 62
7
  6
CONTINUOUS
 10
152.1753043074
 20
31.4649197951
 11
151.8862417523
 21
30.5938002869
 12
152.1753043074
 22
32.1101937295
 13
152.1753043074
 23
32.1101937295
  0
SOLID
  8
0
 62
7
  6
CONTINUOUS
 10
151.8862417523
 20
30.5938002869
 11
151.8862417523
 21
32.1101937295
 12
152.1753043074
 22
32.1101937295
 13
152.1753043074
 23
32.1101937295
  0
SOLID
  8
0
 62
7
  6
CONTINUOUS
 10
152.1753043074
 20
31.3358640533
 11
152.1753043074
 21
30.5938002869
 12
151.8862417523
 22
30.5938002869
 13
151.8862417523
 23
30.5938002869
  0
SOLID
  8
0
 62
7
  6
CONTINUOUS
 10
153.2159293074
 20
30.5938002869
 11
153.2159293074
 21
31.2390742213
 12
153.5049916972
 22
31.2390742213
 13
153.5049916972
 23
31.2390742213
  0
SOLID
  8
0
 62
7
  6
CONTINUOUS
 10
153.5049916972
 20
31.2390742213
 11
153.5049916972
 21
30.5938002869
 12
153.2159293074
 22
30.5938002869
 13
153.2159293074
 23
30.5938002869
  0
SOLID
  8
0
 62
7
  6
CONTINUOUS
 10
154.2565543074
 20
31.5939738288
 11
154.6612419177
 21
31.6262385959
 12
155.0081169177
 22
31.6262385959
 13
155.0081169177
 23
31.6262385959
  0
SOLID
  8
0
 62
7
  6
CONTINUOUS
 10
155.0081169177
 20
31.6262385959
 11
155.3549915869
 21
31.5939738288
 12
154.2565543074
 22
31.5939738288
 13
154.2565543074
 23
31.5939738288
  0
SOLID
  8
0
 62
7
  6
CONTINUOUS
 10
154.1409294177
 20
31.5617111435
 11
154.2565543074
 21
31.5939738288
 12
155.3549915869
 22
31.5939738288
 13
155.3549915869
 23
31.5939738288
  0
SOLID
  8
0
 62
7
  6
CONTINUOUS
 10
155.3549915869
 20
31.5939738288
 11
155.5284290869
 21
31.5294468402
 12
154.1409294177
 22
31.5617111435
 13
154.1409294177
 23
31.5617111435
  0
SOLID
  8
0
 62
7
  6
CONTINUOUS
 10
154.0253041972
 20
31.4971826249
 11
154.1409294177
 21
31.5617111435
 12
155.5284290869
 22
31.5294468402
 13
155.5284290869
 23
31.5294468402
  0
SOLID
  8
0
 62
7
  6
CONTINUOUS
 10
154.0253041972
 20
31.4971826249
 11
155.5284290869
 21
31.5294468402
 12
154.6612419177
 22
31.4971826249
 13
154.6612419177
 23
31.4971826249
  0
SOLID
  8
0
 62
7
  6
CONTINUOUS
 10
154.6612419177
 20
31.4971826249
 11
155.5284290869
 21
31.5294468402
 12
155.0081169177
 22
31.4971826249
 13
155.0081169177
 23
31.4971826249
  0
SOLID
  8
0
 62
7
  6
CONTINUOUS
 10
155.0081169177
 20
31.4971826249
 11
155.5284290869
 21
31.5294468402
 12
155.239367028
 22
31.4649194065
 13
155.239367028
 23
31.4649194065
  0
SOLID
  8
0
 62
7
  6
CONTINUOUS
 10
155.5284290869
 20
31.5294468402
 11
155.6440543074
 21
31.4649194065
 12
155.239367028
 22
31.4649194065
 13
155.239367028
 23
31.4649194065
  0
SOLID
  8
0
 62
7
  6
CONTINUOUS
 10
153.9674919177
 20
31.4326554138
 11
154.0253041972
 21
31.4971826249
 12
154.6612419177
 22
31.4971826249
 13
154.6612419177
 23
31.4971826249
  0
SOLID
  8
0
 62
7
  6
CONTINUOUS
 10
155.3549915869
 20
31.4326554138
 11
155.239367028
 21
31.4649194065
 12
155.6440543074
 22
31.4649194065
 13
155.6440543074
 23
31.4649194065
  0
SOLID
  8
0
 62
7
  6
CONTINUOUS
 10
155.3549915869
 20
31.4326554138
 11
155.6440543074
 21
31.4649194065
 12
155.412804528
 22
31.3681282026
 13
155.412804528
 23
31.3681282026
  0
SOLID
  8
0
 62
7
  6
CONTINUOUS
 10
155.6440543074
 20
31.4649194065
 11
155.7018665869
 21
31.3681282026
 12
155.412804528
 22
31.3681282026
 13
155.412804528
 23
31.3681282026
  0
SOLID
  8
0
 62
7
  6
CONTINUOUS
 10
155.412804528
 20
31.2713369632
 11
155.412804528
 21
31.3681282026
 12
155.7018665869
 22
31.3681282026
 13
155.7018665869
 23
31.3681282026
  0
SOLID
  8
0
 62
7
  6
CONTINUOUS
 10
155.412804528
 20
31.2713369632
 11
155.7018665869
 21
31.3681282026
 12
155.412804528
 22
31.1422827828
 13
155.412804528
 23
31.1422827828
  0
SOLID
  8
0
 62
7
  6
CONTINUOUS
 10
155.412804528
 20
31.1422827828
 11
155.7018665869
 21
31.3681282026
 12
155.412804528
 22
30.9487004259
 13
155.412804528
 23
30.9487004259
  0
SOLID
  8
0
 62
7
  6
CONTINUOUS
 10
155.7018665869
 20
31.3681282026
 11
155.7018665869
 21
30.8519086025
 12
155.412804528
 22
30.9487004259
 13
155.412804528
 23
30.9487004259
  0
SOLID
  8
0
 62
7
  6
CONTINUOUS
 10
157.6096790869
 20
31.5939736268
 11
157.840929528
 21
31.6262383465
 12
158.0721793074
 22
31.6262383465
 13
158.0721793074
 23
31.6262383465
  0
SOLID
  8
0
 62
7
  6
CONTINUOUS
 10
158.0721793074
 20
31.6262383465
 11
158.2456168074
 21
31.5939736268
 12
157.6096790869
 22
31.5939736268
 13
157.6096790869
 23
31.5939736268
  0
SOLID
  8
0
 62
7
  6
CONTINUOUS
 10
157.4362415869
 20
31.5294472848
 11
157.6096790869
 21
31.5939736268
 12
158.2456168074
 22
31.5939736268
 13
158.2456168074
 23
31.5939736268
  0
SOLID
  8
0
 62
7
  6
CONTINUOUS
 10
158.2456168074
 20
31.5939736268
 11
158.4190543074
 21
31.5294472848
 12
157.4362415869
 22
31.5294472848
 13
157.4362415869
 23
31.5294472848
  0
SOLID
  8
0
 62
7
  6
CONTINUOUS
 10
158.4190543074
 20
31.5294472848
 11
157.840929528
 21
31.4971825369
 12
157.4362415869
 22
31.5294472848
 13
157.4362415869
 23
31.5294472848
  0
SOLID
  8
0
 62
7
  6
CONTINUOUS
 10
157.320617028
 20
31.4649199103
 11
157.4362415869
 21
31.5294472848
 12
157.840929528
 22
31.4971825369
 13
157.840929528
 23
31.4971825369
  0
SOLID
  8
0
 62
7
  6
CONTINUOUS
 10
157.840929528
 20
31.4971825369
 11
157.6096790869
 21
31.4649199103
 12
157.320617028
 22
31.4649199103
 13
157.320617028
 23
31.4649199103
  0
SOLID
  8
0
 62
7
  6
CONTINUOUS
 10
157.840929528
 20
31.4971825369
 11
158.4190543074
 21
31.5294472848
 12
158.0721793074
 22
31.4649199103
 13
158.0721793074
 23
31.4649199103
  0
SOLID
  8
0
 62
7
  6
CONTINUOUS
 10
158.4190543074
 20
31.5294472848
 11
158.534679528
 21
31.4649199103
 12
158.0721793074
 22
31.4649199103
 13
158.0721793074
 23
31.4649199103
  0
SOLID
  8
0
 62
7
  6
CONTINUOUS
 10
158.187804528
 20
31.4326554468
 11
158.0721793074
 21
31.4649199103
 12
158.534679528
 22
31.4649199103
 13
158.534679528
 23
31.4649199103
  0
SOLID
  8
0
 62
7
  6
CONTINUOUS
 10
158.187804528
 20
31.4326554468
 11
158.534679528
 21
31.4649199103
 12
158.3034290869
 22
31.3681288486
 13
158.3034290869
 23
31.3681288486
  0
SOLID
  8
0
 62
7
  6
CONTINUOUS
 10
158.534679528
 20
31.4649199103
 11
158.5924918074
 21
31.3681288486
 12
158.3034290869
 22
31.3681288486
 13
158.3034290869
 23
31.3681288486
  0
SOLID
  8
0
 62
7
  6
CONTINUOUS
 10
158.361242028
 20
31.2068093799
 11
158.3034290869
 21
31.3681288486
 12
158.5924918074
 22
31.3681288486
 13
158.5924918074
 23
31.3681288486
  0
SOLID
  8
0
 62
7
  6
CONTINUOUS
 10
158.5924918074
 20
31.3681288486
 11
158.6503040869
 21
31.2068093799
 12
158.361242028
 22
31.2068093799
 13
158.361242028
 23
31.2068093799
  0
SOLID
  8
0
 62
7
  6
CONTINUOUS
 10
157.6096790869
 20
31.4649199103
 11
157.4362415869
 21
31.4003926599
 12
157.320617028
 22
31.4649199103
 13
157.320617028
 23
31.4649199103
  0
SOLID
  8
0
 62
7
  6
CONTINUOUS
 10
157.4362415869
 20
31.4003926599
 11
157.320617028
 21
31.3358640533
 12
157.320617028
 22
31.4649199103
 13
157.320617028
 23
31.4649199103
  0
SOLID
  8
0
 62
7
  6
CONTINUOUS
 10
157.320617028
 20
31.3358640533
 11
157.0315543074
 21
30.5938003547
 12
157.320617028
 22
31.4649199103
 13
157.320617028
 23
31.4649199103
  0
SOLID
  8
0
 62
7
  6
CONTINUOUS
 10
157.320617028
 20
31.4649199103
 11
157.0315543074
 21
30.5938003547
 12
157.320617028
 22
31.6262383465
 13
157.320617028
 23
31.6262383465
  0
SOLID
  8
0
 62
7
  6
CONTINUOUS
 10
157.0315543074
 20
30.5938003547
 11
157.0315543074
 21
31.6262383465
 12
157.320617028
 22
31.6262383465
 13
157.320617028
 23
31.6262383465
  0
SOLID
  8
0
 62
7
  6
CONTINUOUS
 10
157.320617028
 20
31.3358640533
 11
157.320617028
 21
30.5938003547
 12
157.0315543074
 22
30.5938003547
 13
157.0315543074
 23
30.5938003547
  0
SOLID
  8
0
 62
7
  6
CONTINUOUS
 10
158.361242028
 20
30.5938003547
 11
158.361242028
 21
31.2068093799
 12
158.6503040869
 22
31.2068093799
 13
158.6503040869
 23
31.2068093799
  0
SOLID
  8
0
 62
7
  6
CONTINUOUS
 10
158.6503040869
 20
31.2068093799
 11
158.6503040869
 21
30.5938003547
 12
158.361242028
 22
30.5938003547
 13
158.361242028
 23
30.5938003547
  0
SOLID
  8
0
 62
7
  6
CONTINUOUS
 10
159.4596793074
 20
31.5939739474
 11
159.8065543074
 21
31.6262381969
 12
160.1534293074
 22
31.6262381969
 13
160.1534293074
 23
31.6262381969
  0
SOLID
  8
0
 62
7
  6
CONTINUOUS
 10
160.1534293074
 20
31.6262381969
 11
160.5003043074
 21
31.5939739474
 12
159.4596793074
 22
31.5939739474
 13
159.4596793074
 23
31.5939739474
  0
SOLID
  8
0
 62
7
  6
CONTINUOUS
 10
159.228429528
 20
31.5294468402
 11
159.4596793074
 21
31.5939739474
 12
160.5003043074
 22
31.5939739474
 13
160.5003043074
 23
31.5939739474
  0
SOLID
  8
0
 62
7
  6
CONTINUOUS
 10
159.228429528
 20
31.5294468402
 11
160.5003043074
 21
31.5939739304
 12
160.6737418074
 22
31.5617111435
 13
160.6737418074
 23
31.5617111435
  0
SOLID
  8
0
 62
7
  6
CONTINUOUS
 10
159.228429528
 20
31.5294468402
 11
160.6737418074
 21
31.5617111435
 12
159.8065543074
 22
31.4971825592
 13
159.8065543074
 23
31.4971825592
  0
SOLID
  8
0
 62
7
  6
CONTINUOUS
 10
159.8065543074
 20
31.4971825592
 11
160.6737418074
 21
31.5617111435
 12
160.1534293074
 22
31.4971825592
 13
160.1534293074
 23
31.4971825592
  0
SOLID
  8
0
 62
7
  6
CONTINUOUS
 10
160.6737418074
 20
31.5617111435
 11
160.8471793074
 21
31.4971825592
 12
160.1534293074
 22
31.4971825592
 13
160.1534293074
 23
31.4971825592
  0
SOLID
  8
0
 62
7
  6
CONTINUOUS
 10
160.5003043074
 20
31.4649197501
 11
160.1534293074
 21
31.4971825592
 12
160.8471793074
 22
31.4971825592
 13
160.8471793074
 23
31.4971825592
  0
SOLID
  8
0
 62
7
  6
CONTINUOUS
 10
159.1128043074
 20
31.4326555427
 11
159.228429528
 21
31.5294468402
 12
159.8065543074
 22
31.4971825592
 13
159.8065543074
 23
31.4971825592
  0
SOLID
  8
0
 62
7
  6
CONTINUOUS
 10
160.5003043074
 20
31.4649197501
 11
160.8471793074
 21
31.4971825592
 12
160.615929528
 22
31.4326555427
 13
160.615929528
 23
31.4326555427
  0
SOLID
  8
0
 62
7
  6
CONTINUOUS
 10
160.615929528
 20
31.4326555427
 11
160.8471793074
 21
31.4971825592
 12
160.6737418074
 22
31.3681283005
 13
160.6737418074
 23
31.3681283005
  0
SOLID
  8
0
 62
7
  6
CONTINUOUS
 10
160.8471793074
 20
31.4971825592
 11
160.9628038663
 21
31.3681283005
 12
160.6737418074
 22
31.3681283005
 13
160.6737418074
 23
31.3681283005
  0
SOLID
  8
0
 62
7
  6
CONTINUOUS
 10
150.2674918074
 20
31.4649197501
 11
149.7471793074
 21
31.4326554237
 12
150.498741835
 22
31.4971824493
 13
150.498741835
 23
31.4971824493
  0
SOLID
  8
0
 62
7
  6
CONTINUOUS
 10
149.7471793074
 20
31.4326554237
 11
149.8628043005
 21
31.4971824493
 12
150.498741835
 22
31.4971824493
 13
150.498741835
 23
31.4971824493
  0
SOLID
  8
0
 62
7
  6
CONTINUOUS
 10
150.2674918074
 20
31.4649197501
 11
150.1518667936
 21
31.4326554237
 12
149.7471793074
 22
31.4326554237
 13
149.7471793074
 23
31.4326554237
  0
SOLID
  8
0
 62
7
  6
CONTINUOUS
 10
149.6315543091
 20
31.3036012664
 11
149.7471793074
 21
31.4326554237
 12
150.1518667936
 22
31.4326554237
 13
150.1518667936
 23
31.4326554237
  0
SOLID
  8
0
 62
7
  6
CONTINUOUS
 10
153.9674919177
 20
31.4326554237
 11
154.6612419177
 21
31.4971825369
 12
154.4299918074
 22
31.4649197501
 13
154.4299918074
 23
31.4649197501
  0
SOLID
  8
0
 62
7
  6
CONTINUOUS
 10
154.4299918074
 20
31.4649197501
 11
154.3143669177
 21
31.4326554237
 12
153.9674919177
 22
31.4326554237
 13
153.9674919177
 23
31.4326554237
  0
SOLID
  8
0
 62
7
  6
CONTINUOUS
 10
153.9674919177
 20
31.3681283335
 11
153.9674919177
 21
31.4326554237
 12
154.3143669177
 22
31.4326554237
 13
154.3143669177
 23
31.4326554237
  0
SOLID
  8
0
 62
7
  6
CONTINUOUS
 10
154.3143669177
 20
31.4326554237
 11
154.2565543074
 21
31.3681283335
 12
153.9674919177
 22
31.3681283335
 13
153.9674919177
 23
31.3681283335
  0
SOLID
  8
0
 62
7
  6
CONTINUOUS
 10
159.1128043074
 20
31.4326555528
 11
159.8065543074
 21
31.4971825369
 12
159.575304528
 22
31.4649197501
 13
159.575304528
 23
31.4649197501
  0
SOLID
  8
0
 62
7
  6
CONTINUOUS
 10
159.575304528
 20
31.4649197501
 11
159.4596793074
 21
31.4326555528
 12
159.1128043074
 22
31.4326555528
 13
159.1128043074
 23
31.4326555528
  0
SOLID
  8
0
 62
7
  6
CONTINUOUS
 10
159.1128043074
 20
31.3681284626
 11
159.1128043074
 21
31.4326555528
 12
159.4596793074
 22
31.4326555528
 13
159.4596793074
 23
31.4326555528
  0
SOLID
  8
0
 62
7
  6
CONTINUOUS
 10
159.4596793074
 20
31.4326555528
 11
159.401867028
 21
31.3681284626
 12
159.1128043074
 22
31.3681284626
 13
159.1128043074
 23
31.3681284626
  0
SOLID
  8
0
 62
7
  6
CONTINUOUS
 10
159.228429528
 20
31.2390741763
 11
159.1128043074
 21
31.3681284626
 12
159.401867028
 22
31.3681284626
 13
159.401867028
 23
31.3681284626
  0
SOLID
  8
0
 62
7
  6
CONTINUOUS
 10
149.6315543091
 20
31.3036012664
 11
150.1518667936
 21
31.4326554468
 12
149.9784292936
 22
31.3358640533
 13
149.9784292936
 23
31.3358640533
  0
SOLID
  8
0
 62
7
  6
CONTINUOUS
 10
149.9784292936
 20
31.3358640533
 11
149.9206168074
 21
31.2713369632
 12
149.6315543091
 22
31.3036012664
 13
149.6315543091
 23
31.3036012664
  0
SOLID
  8
0
 62
7
  6
CONTINUOUS
 10
149.5737418074
 20
31.1100184796
 11
149.6315543091
 21
31.3036012664
 12
149.9206168074
 22
31.2713369632
 13
149.9206168074
 23
31.2713369632
  0
SOLID
  8
0
 62
7
  6
CONTINUOUS
 10
154.4299918074
 20
31.2390741763
 11
154.7768668074
 21
31.271336924
 12
155.412804528
 22
31.271336924
 13
155.412804528
 23
31.271336924
  0
SOLID
  8
0
 62
7
  6
CONTINUOUS
 10
154.4299918074
 20
31.2390741763
 11
155.412804528
 21
31.271336924
 12
154.1987416972
 22
31.1745462761
 13
154.1987416972
 23
31.1745462761
  0
SOLID
  8
0
 62
7
  6
CONTINUOUS
 10
154.1987416972
 20
31.1745462761
 11
155.412804528
 21
31.271336924
 12
154.7768668074
 22
31.1422827436
 13
154.7768668074
 23
31.1422827436
  0
SOLID
  8
0
 62
7
  6
CONTINUOUS
 10
155.412804528
 20
31.271336924
 11
155.412804528
 21
31.1422827436
 12
154.7768668074
 22
31.1422827436
 13
154.7768668074
 23
31.1422827436
  0
SOLID
  8
0
 62
7
  6
CONTINUOUS
 10
159.228429528
 20
31.2390745501
 11
159.401867028
 21
31.3681283566
 12
159.4596793074
 22
31.3036012664
 13
159.4596793074
 23
31.3036012664
  0
SOLID
  8
0
 62
7
  6
CONTINUOUS
 10
159.4596793074
 20
31.3036012664
 11
159.6331168074
 21
31.2390745501
 12
159.228429528
 22
31.2390745501
 13
159.228429528
 23
31.2390745501
  0
SOLID
  8
0
 62
7
  6
CONTINUOUS
 10
159.4596793074
 20
31.1422827828
 11
159.228429528
 21
31.2390745501
 12
159.6331168074
 22
31.2390745501
 13
159.6331168074
 23
31.2390745501
  0
SOLID
  8
0
 62
7
  6
CONTINUOUS
 10
159.6331168074
 20
31.2390745501
 11
160.615929528
 21
31.0777556927
 12
159.4596793074
 22
31.1422827828
 13
159.4596793074
 23
31.1422827828
  0
SOLID
  8
0
 62
7
  6
CONTINUOUS
 10
160.442492028
 20
30.9809646623
 11
159.4596793074
 21
31.1422827828
 12
160.615929528
 22
31.0777556927
 13
160.615929528
 23
31.0777556927
  0
SOLID
  8
0
 62
7
  6
CONTINUOUS
 10
160.615929528
 20
31.0777556927
 11
160.8471793074
 21
30.9809646623
 12
160.442492028
 22
30.9809646623
 13
160.442492028
 23
30.9809646623
  0
SOLID
  8
0
 62
7
  6
CONTINUOUS
 10
160.615929528
 20
30.9164372091
 11
160.442492028
 21
30.9809646623
 12
160.8471793074
 22
30.9809646623
 13
160.8471793074
 23
30.9809646623
  0
SOLID
  8
0
 62
7
  6
CONTINUOUS
 10
160.615929528
 20
30.9164372091
 11
160.8471793074
 21
30.9809646623
 12
160.6737418074
 22
30.8519089441
 13
160.6737418074
 23
30.8519089441
  0
SOLID
  8
0
 62
7
  6
CONTINUOUS
 10
160.8471793074
 20
30.9809646623
 11
160.9628038663
 21
30.8519089441
 12
160.6737418074
 22
30.8519089441
 13
160.6737418074
 23
30.8519089441
  0
SOLID
  8
0
 62
7
  6
CONTINUOUS
 10
160.615929528
 20
30.7873818593
 11
160.6737418074
 21
30.8519089441
 12
160.9628038663
 22
30.8519089441
 13
160.9628038663
 23
30.8519089441
  0
SOLID
  8
0
 62
7
  6
CONTINUOUS
 10
160.9628038663
 20
30.8519089441
 11
160.9628038663
 21
30.7873818593
 12
160.615929528
 22
30.7873818593
 13
160.615929528
 23
30.7873818593
  0
SOLID
  8
0
 62
7
  6
CONTINUOUS
 10
160.5003043074
 20
30.7551187255
 11
160.615929528
 21
30.7873818593
 12
160.9628038663
 22
30.7873818593
 13
160.9628038663
 23
30.7873818593
  0
SOLID
  8
0
 62
7
  6
CONTINUOUS
 10
160.5003043074
 20
30.7551187255
 11
160.9628038663
 21
30.7873818593
 12
160.269054528
 22
30.7228547745
 13
160.269054528
 23
30.7228547745
  0
SOLID
  8
0
 62
7
  6
CONTINUOUS
 10
160.9628038663
 20
30.7873818593
 11
160.8471793074
 21
30.6905916353
 12
160.269054528
 22
30.7228547745
 13
160.269054528
 23
30.7228547745
  0
SOLID
  8
0
 62
7
  6
CONTINUOUS
 10
160.8471793074
 20
30.6905916353
 11
159.401867028
 21
30.658327332
 12
160.269054528
 22
30.7228547745
 13
160.269054528
 23
30.7228547745
  0
SOLID
  8
0
 62
7
  6
CONTINUOUS
 10
160.269054528
 20
30.7228547745
 11
159.401867028
 21
30.658327332
 12
159.922179528
 22
30.7228547745
 13
159.922179528
 23
30.7228547745
  0
SOLID
  8
0
 62
7
  6
CONTINUOUS
 10
159.401867028
 20
30.658327332
 11
159.228429528
 21
30.7228547745
 12
159.922179528
 22
30.7228547745
 13
159.922179528
 23
30.7228547745
  0
SOLID
  8
0
 62
7
  6
CONTINUOUS
 10
159.401867028
 20
30.658327332
 11
160.8471793074
 21
30.6905916353
 12
159.575304528
 22
30.6260629858
 13
159.575304528
 23
30.6260629858
  0
SOLID
  8
0
 62
7
  6
CONTINUOUS
 10
160.8471793074
 20
30.6905916353
 11
160.615929528
 21
30.6260629858
 12
159.575304528
 22
30.6260629858
 13
159.575304528
 23
30.6260629858
  0
SOLID
  8
0
 62
7
  6
CONTINUOUS
 10
159.922179528
 20
30.5938006049
 11
159.575304528
 21
30.6260629858
 12
160.615929528
 22
30.6260629858
 13
160.615929528
 23
30.6260629858
  0
SOLID
  8
0
 62
7
  6
CONTINUOUS
 10
160.615929528
 20
30.6260629858
 11
160.269054528
 21
30.5938006049
 12
159.922179528
 22
30.5938006049
 13
159.922179528
 23
30.5938006049
  0
SOLID
  8
0
 62
7
  6
CONTINUOUS
 10
149.5737418074
 20
31.1100184796
 11
149.9206168074
 21
31.2713369632
 12
149.8628043005
 22
31.1422827828
 13
149.8628043005
 23
31.1422827828
  0
SOLID
  8
0
 62
7
  6
CONTINUOUS
 10
149.8628043005
 20
31.1422827828
 11
149.8628043005
 21
31.0454914852
 12
149.5737418074
 22
31.1100184796
 13
149.5737418074
 23
31.1100184796
  0
SOLID
  8
0
 62
7
  6
CONTINUOUS
 10
149.6315543091
 20
30.9164372091
 11
149.5737418074
 21
31.1100184796
 12
149.8628043005
 22
31.0454914852
 13
149.8628043005
 23
31.0454914852
  0
SOLID
  8
0
 62
7
  6
CONTINUOUS
 10
149.8628043005
 20
31.0454914852
 11
149.9784292936
 21
30.8841729058
 12
149.6315543091
 22
30.9164372091
 13
149.6315543091
 23
30.9164372091
  0
SOLID
  8
0
 62
7
  6
CONTINUOUS
 10
149.7471793074
 20
30.7873813202
 11
149.6315543091
 21
30.9164372091
 12
149.9784292936
 22
30.8841729058
 13
149.9784292936
 23
30.8841729058
  0
SOLID
  8
0
 62
7
  6
CONTINUOUS
 10
149.9784292936
 20
30.8841729058
 11
150.1518667936
 21
30.7873813202
 12
149.7471793074
 22
30.7873813202
 13
149.7471793074
 23
30.7873813202
  0
SOLID
  8
0
 62
7
  6
CONTINUOUS
 10
149.8628043005
 20
30.7228547004
 11
149.7471793074
 21
30.7873813202
 12
150.1518667936
 22
30.7873813202
 13
150.1518667936
 23
30.7873813202
  0
SOLID
  8
0
 62
7
  6
CONTINUOUS
 10
150.1518667936
 20
30.7873813202
 11
150.498741835
 21
30.7228547004
 12
149.8628043005
 22
30.7228547004
 13
149.8628043005
 23
30.7228547004
  0
SOLID
  8
0
 62
7
  6
CONTINUOUS
 10
150.0362418212
 20
30.658327332
 11
149.8628043005
 21
30.7228547004
 12
150.498741835
 22
30.7228547004
 13
150.498741835
 23
30.7228547004
  0
SOLID
  8
0
 62
7
  6
CONTINUOUS
 10
154.0831168074
 20
31.1100184386
 11
154.1987416972
 21
31.1745462761
 12
154.7768668074
 22
31.1422827828
 13
154.7768668074
 23
31.1422827828
  0
SOLID
  8
0
 62
7
  6
CONTINUOUS
 10
154.7768668074
 20
31.1422827828
 11
154.5456166972
 21
31.1100184386
 12
154.0831168074
 22
31.1100184386
 13
154.0831168074
 23
31.1100184386
  0
SOLID
  8
0
 62
7
  6
CONTINUOUS
 10
153.9674919177
 20
30.9809642992
 11
154.0831168074
 21
31.1100184386
 12
154.5456166972
 22
31.1100184386
 13
154.5456166972
 23
31.1100184386
  0
SOLID
  8
0
 62
7
  6
CONTINUOUS
 10
154.3143669177
 20
31.0132277988
 11
153.9674919177
 21
30.9809642992
 12
154.4299918074
 22
31.0777556927
 13
154.4299918074
 23
31.0777556927
  0
SOLID
  8
0
 62
7
  6
CONTINUOUS
 10
153.9674919177
 20
30.9809642992
 11
154.5456166972
 21
31.1100184796
 12
154.4299918074
 22
31.0777556927
 13
154.4299918074
 23
31.0777556927
  0
SOLID
  8
0
 62
7
  6
CONTINUOUS
 10
154.3143669177
 20
31.0132277988
 11
154.2565543074
 21
30.9164372091
 12
153.9674919177
 22
30.9809642992
 13
153.9674919177
 23
30.9809642992
  0
SOLID
  8
0
 62
7
  6
CONTINUOUS
 10
153.9674919177
 20
30.8841729058
 11
153.9674919177
 21
30.9809642992
 12
154.2565543074
 22
30.9164372091
 13
154.2565543074
 23
30.9164372091
  0
SOLID
  8
0
 62
7
  6
CONTINUOUS
 10
154.2565543074
 20
30.9164372091
 11
154.2565543074
 21
30.8519086025
 12
153.9674919177
 22
30.8841729058
 13
153.9674919177
 23
30.8841729058
  0
SOLID
  8
0
 62
7
  6
CONTINUOUS
 10
154.0253041972
 20
30.7551187255
 11
153.9674919177
 21
30.8841729058
 12
154.2565543074
 22
30.8519086025
 13
154.2565543074
 23
30.8519086025
  0
SOLID
  8
0
 62
7
  6
CONTINUOUS
 10
155.412804528
 20
30.9487004259
 11
155.7018665869
 21
30.8519086025
 12
155.3549915869
 22
30.8841729058
 13
155.3549915869
 23
30.8841729058
  0
SOLID
  8
0
 62
7
  6
CONTINUOUS
 10
155.1815540869
 20
30.7873815123
 11
155.3549915869
 21
30.8841729058
 12
155.7018665869
 22
30.8519086025
 13
155.7018665869
 23
30.8519086025
  0
SOLID
  8
0
 62
7
  6
CONTINUOUS
 10
155.1815540869
 20
30.7873815123
 11
155.7018665869
 21
30.8519086025
 12
155.412804528
 22
30.7551187255
 13
155.412804528
 23
30.7551187255
  0
SOLID
  8
0
 62
7
  6
CONTINUOUS
 10
155.7018665869
 20
30.8519086025
 11
155.759679528
 21
30.6905916353
 12
155.412804528
 22
30.7551187255
 13
155.412804528
 23
30.7551187255
  0
SOLID
  8
0
 62
7
  6
CONTINUOUS
 10
155.4706168074
 20
30.658327332
 11
155.412804528
 21
30.7551187255
 12
155.759679528
 22
30.6905916353
 13
155.759679528
 23
30.6905916353
  0
SOLID
  8
0
 62
7
  6
CONTINUOUS
 10
155.4706168074
 20
30.658327332
 11
155.759679528
 21
30.6905916353
 12
155.5284290869
 22
30.5938002079
 13
155.5284290869
 23
30.5938002079
  0
SOLID
  8
0
 62
7
  6
CONTINUOUS
 10
155.759679528
 20
30.6905916353
 11
155.8174918074
 21
30.5938002079
 12
155.5284290869
 22
30.5938002079
 13
155.5284290869
 23
30.5938002079
  0
SOLID
  8
0
 62
7
  6
CONTINUOUS
 10
151.0768668626
 20
30.8196456577
 11
151.1346793074
 21
30.9164373395
 12
151.4237418626
 22
30.9164373395
 13
151.4237418626
 23
30.9164373395
  0
SOLID
  8
0
 62
7
  6
CONTINUOUS
 10
151.4237418626
 20
30.9164373395
 11
151.3659292523
 21
30.7873815123
 12
151.0768668626
 22
30.8196456577
 13
151.0768668626
 23
30.8196456577
  0
SOLID
  8
0
 62
7
  6
CONTINUOUS
 10
150.9034292799
 20
30.7551187255
 11
151.0768668626
 21
30.8196456577
 12
151.3659292523
 22
30.7873815123
 13
151.3659292523
 23
30.7873815123
  0
SOLID
  8
0
 62
7
  6
CONTINUOUS
 10
150.9034292799
 20
30.7551187255
 11
151.3659292523
 21
30.7873815123
 12
150.498741835
 22
30.7228544222
 13
150.498741835
 23
30.7228544222
  0
SOLID
  8
0
 62
7
  6
CONTINUOUS
 10
151.3659292523
 20
30.7873815123
 11
151.1924917523
 21
30.6905916353
 12
150.498741835
 22
30.7228544222
 13
150.498741835
 23
30.7228544222
  0
SOLID
  8
0
 62
7
  6
CONTINUOUS
 10
150.0362418212
 20
30.658327332
 11
150.498741835
 21
30.7228544222
 12
151.1924917523
 22
30.6905916353
 13
151.1924917523
 23
30.6905916353
  0
SOLID
  8
0
 62
7
  6
CONTINUOUS
 10
150.0362418212
 20
30.658327332
 11
151.1924917523
 21
30.6905916353
 12
150.2096793212
 22
30.6260631011
 13
150.2096793212
 23
30.6260631011
  0
SOLID
  8
0
 62
7
  6
CONTINUOUS
 10
151.1924917523
 20
30.6905916353
 11
150.9612418074
 21
30.6260631011
 12
150.2096793212
 22
30.6260631011
 13
150.2096793212
 23
30.6260631011
  0
SOLID
  8
0
 62
7
  6
CONTINUOUS
 10
150.5565542799
 20
30.5938002419
 11
150.2096793212
 21
30.6260631011
 12
150.9612418074
 22
30.6260631011
 13
150.9612418074
 23
30.6260631011
  0
SOLID
  8
0
 62
7
  6
CONTINUOUS
 10
154.0253041972
 20
30.7551187255
 11
154.2565543074
 21
30.8519086025
 12
154.3143669177
 22
30.7873815123
 13
154.3143669177
 23
30.7873815123
  0
SOLID
  8
0
 62
7
  6
CONTINUOUS
 10
154.3143669177
 20
30.7873815123
 11
154.5456166972
 21
30.7228544222
 12
154.0253041972
 22
30.7551187255
 13
154.0253041972
 23
30.7551187255
  0
SOLID
  8
0
 62
7
  6
CONTINUOUS
 10
154.1987416972
 20
30.658327332
 11
154.0253041972
 21
30.7551187255
 12
154.5456166972
 22
30.7228544222
 13
154.5456166972
 23
30.7228544222
  0
SOLID
  8
0
 62
7
  6
CONTINUOUS
 10
154.8924916972
 20
30.7228544637
 11
155.1815540869
 21
30.7873815123
 12
155.412804528
 22
30.7551187255
 13
155.412804528
 23
30.7551187255
  0
SOLID
  8
0
 62
7
  6
CONTINUOUS
 10
155.412804528
 20
30.7551187255
 11
155.3549915869
 21
30.6905916353
 12
154.8924916972
 22
30.7228544637
 13
154.8924916972
 23
30.7228544637
  0
SOLID
  8
0
 62
7
  6
CONTINUOUS
 10
155.3549915869
 20
30.6905916353
 11
154.1987416972
 21
30.658327332
 12
154.8924916972
 22
30.7228544637
 13
154.8924916972
 23
30.7228544637
  0
SOLID
  8
0
 62
7
  6
CONTINUOUS
 10
154.1987416972
 20
30.658327332
 11
154.5456166972
 21
30.7228544637
 12
154.8924916972
 22
30.7228544637
 13
154.8924916972
 23
30.7228544637
  0
SOLID
  8
0
 62
7
  6
CONTINUOUS
 10
154.1987416972
 20
30.658327332
 11
155.3549915869
 21
30.6905916353
 12
154.3143669177
 22
30.6260630541
 13
154.3143669177
 23
30.6260630541
  0
SOLID
  8
0
 62
7
  6
CONTINUOUS
 10
155.3549915869
 20
30.6905916353
 11
155.1815540869
 21
30.6260630541
 12
154.3143669177
 22
30.6260630541
 13
154.3143669177
 23
30.6260630541
  0
SOLID
  8
0
 62
7
  6
CONTINUOUS
 10
154.5456166972
 20
30.5938002188
 11
154.3143669177
 21
30.6260630541
 12
155.1815540869
 22
30.6260630541
 13
155.1815540869
 23
30.6260630541
  0
SOLID
  8
0
 62
7
  6
CONTINUOUS
 10
155.1815540869
 20
30.6260630541
 11
154.8924916972
 21
30.5938002188
 12
154.5456166972
 22
30.5938002188
 13
154.5456166972
 23
30.5938002188
  0
SOLID
  8
0
 62
7
  6
CONTINUOUS
 10
159.575304528
 20
30.7551187255
 11
159.228429528
 21
30.7228544637
 12
159.4596793074
 22
30.7873815123
 13
159.4596793074
 23
30.7873815123
  0
SOLID
  8
0
 62
7
  6
CONTINUOUS
 10
159.4596793074
 20
30.7873815123
 11
159.228429528
 21
30.7228544637
 12
159.401867028
 22
30.851908644
 13
159.401867028
 23
30.851908644
  0
SOLID
  8
0
 62
7
  6
CONTINUOUS
 10
159.228429528
 20
30.7228544637
 11
159.1128043074
 21
30.851908644
 12
159.401867028
 22
30.851908644
 13
159.401867028
 23
30.851908644
  0
SOLID
  8
0
 62
7
  6
CONTINUOUS
 10
159.575304528
 20
30.7551187255
 11
159.922179528
 21
30.7228544637
 12
159.228429528
 22
30.7228544637
 13
159.228429528
 23
30.7228544637
  0
SOLID
  8
0
 62
7
  6
CONTINUOUS
 10
156.279992028
 20
30.5938002419
 11
156.279992028
 21
31.6262382337
 12
156.5690540869
 22
30.5938002419
 13
156.5690540869
 23
31.6262382337
  0
ENDBLK
  8
0
  6
BYBLOCK
 62
0
  0
BLOCK
  8
0
 62
2
  6
CONTINUOUS
  2
AMMEAAL_LOGO_BL0
 70
64
 10
32.1213064866
 20
19.8534310916
  0
TEXT
  8
0
 62
7
  6
CONTINUOUS
 10
18.3860103289
 20
19.2268451992
  7
TEXTSTYLE_3
 40
2.7338706658
  1
Ammeraal Beltech
 41
1.0
 51
15.0
 72
0
  0
TEXT
  8
0
 62
7
  6
CONTINUOUS
 10
29.1868111546
 20
16.9533085264
  7
TEXTSTYLE_4
 40
1.0935482663
  1
Innovation & Service in Belting
 41
1.0
 72
0
  0
LINE
  8
0
 62
7
  6
CONTINUOUS
 10
12.3614696776
 20
19.9934385078
 11
13.1396216709
 21
23.6543558055
  0
LINE
  8
0
 62
7
  6
CONTINUOUS
 10
23.2347899607
 20
27.3177497171
 11
13.6274394139
 21
24.1961322958
  0
LINE
  8
0
 62
7
  6
CONTINUOUS
 10
12.5867530099
 20
19.3000877048
 11
20.093828271
 21
12.5406867788
  0
LINE
  8
0
 62
7
  6
CONTINUOUS
 10
12.8492874206
 20
20.5352149982
 11
23.6575567857
 21
24.0470345971
  0
LINE
  8
0
 62
7
  6
CONTINUOUS
 10
23.6533516486
 20
13.6972460334
 11
15.2078919798
 21
21.3015720751
  0
LINE
  8
0
 62
7
  6
CONTINUOUS
 10
24.1731743684
 20
26.4728246013
 11
23.1966148312
 21
21.8784731989
  0
LINE
  8
0
 62
7
  6
CONTINUOUS
 10
22.4968128835
 20
18.5861638851
 11
21.810364672
 21
15.3566789607
  0
LINE
  8
0
 62
7
  6
CONTINUOUS
 10
24.8542704669
 20
14.087448211
 11
25.8105020025
 21
18.5861638851
  0
LINE
  8
0
 62
7
  6
CONTINUOUS
 10
26.5103039502
 20
21.8784731989
 11
26.9545457526
 21
23.9684665583
  0
LINE
  8
0
 62
7
  6
CONTINUOUS
 10
20.8069293463
 20
12.3891124661
 11
24.3664527239
 21
13.5456717207
  0
LINE
  8
0
 62
7
  6
CONTINUOUS
 10
23.9478910361
 20
27.1661754044
 11
26.7292624203
 21
24.6618173613
  0
ARC
  8
0
 62
7
  6
CONTINUOUS
 10
13.8527227462
 20
23.5027814928
 40
0.7290321776
 50
108.0
 51
168.0
  0
ARC
  8
0
 62
7
  6
CONTINUOUS
 10
23.4600732931
 20
26.624398914
 40
0.7290321776
 50
348.0
 51
108.0
  0
ARC
  8
0
 62
7
  6
CONTINUOUS
 10
26.2414446773
 20
24.120040871
 40
0.7290321776
 50
348.0
 51
48.0
  0
ARC
  8
0
 62
7
  6
CONTINUOUS
 10
20.581646014
 20
13.0824632691
 40
0.7290321776
 50
228.0
 51
288.0
  0
ARC
  8
0
 62
7
  6
CONTINUOUS
 10
13.0745707529
 20
19.8418641951
 40
0.7290321776
 50
108.0
 51
228.0
  0
ARC
  8
0
 62
7
  6
CONTINUOUS
 10
24.1411693916
 20
14.2390225237
 40
0.7290321776
 50
228.0
 51
348.0
  0
ENDBLK
  8
0
  6
BYBLOCK
 62
0
  0
ENDSEC
  0
SECTION
  2
ENTITIES
  0
TEXT
  8
0
 62
5
  6
CONTINUOUS
 10
96.0
 20
25.636
  7
TEXTSTYLE_2
 40
2.8
  1
Scale :
 41
0.6
 51
0.000019
 72
0
  0
TEXT
  8
0
 62
5
  6
CONTINUOUS
 10
116.0
 20
25.636
  7
TEXTSTYLE_2
 40
2.8
  1
Belt type:
 41
0.6
 51
0.000019
 72
0
  0
INSERT
  8
0
 62
2
  6
CONTINUOUS
  2
AMMEAAL_LOGO_BL0
 10
32.1213064866
 20
19.8534310916
  0
INSERT
  8
0
 62
2
  6
CONTINUOUS
  2
UNI_LOGO2_BL1
 10
173.5956734183
 20
35.5937998301
  0
LINE
  8
0
 62
2
  6
CONTINUOUS
 10
10.0
 20
30.0
 11
200.0
 21
30.0
  0
LINE
  8
0
 62
2
  6
CONTINUOUS
 10
10.0
 20
30.0
 11
10.0
 21
10.0
  0
LINE
  8
0
 62
2
  6
CONTINUOUS
 10
10.0
 20
10.0
 11
200.0
 21
10.0
  0
LINE
  8
0
 62
2
  6
CONTINUOUS
 10
95.0
 20
30.0
 11
95.0
 21
10.0
  0
LINE
  8
0
 62
2
  6
CONTINUOUS
 10
115.0
 20
30.0
 11
115.0
 21
10.0
  0
LINE
  8
0
 62
2
  6
CONTINUOUS
 10
200.0
 20
30.0
 11
200.0
 21
10.0
  0
TEXT
  8
0
 62
5
  6
CONTINUOUS
 10
13.0
 20
23.303
  7
TEXTSTYLE_5
 40
1.52
  1
                                                                     Ammeraal Beltech Modular A/S
 41
1.0
 72
0
  0
TEXT
  8
0
 62
5
  6
CONTINUOUS
 10
13.0
 20
20.595
  7
TEXTSTYLE_5
 40
1.5
  1
                                                                      Hjulmagervej 21,  7100 Vejle,  DK
 41
1.0
 72
0
  0
TEXT
  8
0
 62
5
  6
CONTINUOUS
 10
13.0
 20
17.881
  7
TEXTSTYLE_5
 40
1.495
  1
                                                                      tel: 
 41
1.0
 72
0
  0
TEXT
  8
0
 62
5
  6
CONTINUOUS
 10
57.9869465649
 20
17.881
  7
TEXTSTYLE_5
 40
1.51
  1
+45 75723100     fax: +45 75723348
 41
1.0
 72
0
  0
TEXT
  8
0
 62
5
  6
CONTINUOUS
 10
13.0
 20
15.177
  7
TEXTSTYLE_5
 40
1.5
  1
                                                                      admin@unichains.dk  www.unichains.com
 41
1.0
 72
0
  0
TEXT
  8
0
 62
5
  6
CONTINUOUS
 10
99.75
 20
13.75
  7
TEXTSTYLE_6
 40
5.0
  1
1:1
 41
0.7
 72
1
 11
105.0
 21
13.75
  0
TEXT
  8
0
 62
5
  6
CONTINUOUS
 10
118.0
 20
13.75
  7
TEXTSTYLE_7
 40
7.5
  1
Sprocket Z19 40X40SQ
 41
0.4322916667
 72
0
  0
LINE
  8
0
 62
7
  6
CONTINUOUS
 10
210.0
 20
0.0
 11
0.0
 21
0.0
  0
LINE
  8
0
 62
7
  6
CONTINUOUS
 10
10.0
 20
10.0
 11
200.0
 21
10.0
  0
LINE
  8
0
 62
7
  6
CONTINUOUS
 10
10.0
 20
30.0
 11
200.0
 21
30.0
  0
LINE
  8
0
 62
7
  6
CONTINUOUS
 10
0.0
 20
0.0
 11
0.0
 21
297.0
  0
LINE
  8
0
 62
7
  6
CONTINUOUS
 10
10.0
 20
10.0
 11
10.0
 21
287.0
  0
LINE
  8
0
 62
7
  6
CONTINUOUS
 10
200.0
 20
287.0
 11
200.0
 21
10.0
  0
LINE
  8
0
 62
7
  6
CONTINUOUS
 10
210.0
 20
0.0
 11
210.0
 21
297.0
  0
LINE
  8
0
 62
7
  6
CONTINUOUS
 10
10.0
 20
287.0
 11
200.0
 21
287.0
  0
LINE
  8
0
 62
7
  6
CONTINUOUS
 10
0.0
 20
297.0
 11
210.0
 21
297.0
  0
POLYLINE
  8
0
 62
9
  6
CONTINUOUS
 66
1
 70
0
  0
VERTEX
  8
0
 62
9
  6
CONTINUOUS
 10
60.9881659642
 20
203.7021971984
  0
VERTEX
  8
0
 62
9
  6
CONTINUOUS
 10
61.0072694832
 20
203.5122864146
  0
VERTEX
  8
0
 62
9
  6
CONTINUOUS
 10
61.0300360866
 20
203.3519612285
  0
VERTEX
  8
0
 62
9
  6
CONTINUOUS
 10
61.053013978
 20
203.2455296111
  0
VERTEX
  8
0
 62
9
  6
CONTINUOUS
 10
61.0727193259
 20
203.2091283697
  0
SEQEND
  0
POLYLINE
  8
0
 62
9
  6
CONTINUOUS
 66
1
 70
0
  0
VERTEX
  8
0
 62
9
  6
CONTINUOUS
 10
62.6379190756
 20
203.8388296422
  0
VERTEX
  8
0
 62
9
  6
CONTINUOUS
 10
62.6481998669
 20
203.7283209124
  0
VERTEX
  8
0
 62
9
  6
CONTINUOUS
 10
62.6731050372
 20
203.5298770799
  0
VERTEX
  8
0
 62
9
  6
CONTINUOUS
 10
62.6864859511
 20
203.4518499329
  0
VERTEX
  8
0
 62
9
  6
CONTINUOUS
 10
62.7117973673
 20
203.3574695481
  0
VERTEX
  8
0
 62
9
  6
CONTINUOUS
 10
62.7224641125
 20
203.3458285948
  0
SEQEND
  0
LINE
  8
0
 62
7
  6
CONTINUOUS
 10
60.5350344924
 20
203.6474886181
 11
60.2820754928
 21
206.7002497534
  0
LINE
  8
0
 62
9
  6
CONTINUOUS
 10
60.9881655828
 20
203.702200358
 11
60.7380317285
 21
206.7208669946
  0
POLYLINE
  8
0
 62
9
  6
CONTINUOUS
 66
1
 70
0
  0
VERTEX
  8
0
 62
9
  6
CONTINUOUS
 10
62.3877731413
 20
206.8576417966
  0
VERTEX
  8
0
 62
9
  6
CONTINUOUS
 10
62.3797246174
 20
206.9683353972
  0
VERTEX
  8
0
 62
9
  6
CONTINUOUS
 10
62.3716274174
 20
207.1681714493
  0
VERTEX
  8
0
 62
9
  6
CONTINUOUS
 10
62.3719830175
 20
207.2473365052
  0
VERTEX
  8
0
 62
9
  6
CONTINUOUS
 10
62.3814147324
 20
207.3445952914
  0
VERTEX
  8
0
 62
9
  6
CONTINUOUS
 10
62.3900199415
 20
207.3578330942
  0
SEQEND
  0
POLYLINE
  8
0
 62
9
  6
CONTINUOUS
 66
1
 70
0
  0
VERTEX
  8
0
 62
9
  6
CONTINUOUS
 10
60.7380315783
 20
206.7208703157
  0
VERTEX
  8
0
 62
9
  6
CONTINUOUS
 10
60.7256095877
 20
206.9114953228
  0
VERTEX
  8
0
 62
9
  6
CONTINUOUS
 10
60.7216845558
 20
207.0734668336
  0
VERTEX
  8
0
 62
9
  6
CONTINUOUS
 10
60.7268419636
 20
207.1821677754
  0
VERTEX
  8
0
 62
9
  6
CONTINUOUS
 10
60.7402752805
 20
207.2211313542
  0
SEQEND
  0
POLYLINE
  8
0
 62
9
  6
CONTINUOUS
 66
1
 70
0
  0
VERTEX
  8
0
 62
9
  6
CONTINUOUS
 10
61.5892848798
 20
216.9939699031
  0
VERTEX
  8
0
 62
9
  6
CONTINUOUS
 10
61.5456893867
 20
216.8081461069
  0
VERTEX
  8
0
 62
9
  6
CONTINUOUS
 10
61.5151649299
 20
216.6491154776
  0
VERTEX
  8
0
 62
9
  6
CONTINUOUS
 10
61.5023395261
 20
216.5409897097
  0
VERTEX
  8
0
 62
9
  6
CONTINUOUS
 10
61.5091577201
 20
216.5001624719
  0
SEQEND
  0
POLYLINE
  8
0
 62
9
  6
CONTINUOUS
 66
1
 70
0
  0
VERTEX
  8
0
 62
9
  6
CONTINUOUS
 10
63.1940142996
 20
216.5875252645
  0
VERTEX
  8
0
 62
9
  6
CONTINUOUS
 10
63.1678559225
 20
216.4796660347
  0
VERTEX
  8
0
 62
9
  6
CONTINUOUS
 10
63.126977051
 20
216.2838877299
  0
VERTEX
  8
0
 62
9
  6
CONTINUOUS
 10
63.1142975746
 20
216.2057435252
  0
VERTEX
  8
0
 62
9
  6
CONTINUOUS
 10
63.1075922851
 20
216.1082583134
  0
VERTEX
  8
0
 62
9
  6
CONTINUOUS
 10
63.1139012654
 20
216.0937846105
  0
SEQEND
  0
LINE
  8
0
 62
7
  6
CONTINUOUS
 10
61.142941474
 20
217.0893571329
 11
61.8949184109
 21
220.0588469024
  0
LINE
  8
0
 62
9
  6
CONTINUOUS
 10
61.5892855449
 20
216.9939730153
 11
62.3328640874
 21
219.930298297
  0
POLYLINE
  8
0
 62
9
  6
CONTINUOUS
 66
1
 70
0
  0
VERTEX
  8
0
 62
9
  6
CONTINUOUS
 10
63.9376286656
 20
219.5239921018
  0
VERTEX
  8
0
 62
9
  6
CONTINUOUS
 10
63.9659583863
 20
219.6313013693
  0
VERTEX
  8
0
 62
9
  6
CONTINUOUS
 10
64.023186575
 20
219.8229389094
  0
VERTEX
  8
0
 62
9
  6
CONTINUOUS
 10
64.0492277593
 20
219.897699121
  0
VERTEX
  8
0
 62
9
  6
CONTINUOUS
 10
64.0897283141
 20
219.9866256851
  0
VERTEX
  8
0
 62
9
  6
CONTINUOUS
 10
64.1021655768
 20
219.9963521204
  0
SEQEND
  0
POLYLINE
  8
0
 62
9
  6
CONTINUOUS
 66
1
 70
0
  0
VERTEX
  8
0
 62
9
  6
CONTINUOUS
 10
62.3328650237
 20
219.9303014868
  0
VERTEX
  8
0
 62
9
  6
CONTINUOUS
 10
62.3830119294
 20
220.114631319
  0
VERTEX
  8
0
 62
9
  6
CONTINUOUS
 10
62.4318916302
 20
220.2691012224
  0
VERTEX
  8
0
 62
9
  6
CONTINUOUS
 10
62.4720647335
 20
220.3702378397
  0
VERTEX
  8
0
 62
9
  6
CONTINUOUS
 10
62.4974216495
 20
220.4027284734
  0
SEQEND
  0
POLYLINE
  8
0
 62
9
  6
CONTINUOUS
 66
1
 70
0
  0
VERTEX
  8
0
 62
9
  6
CONTINUOUS
 10
66.4736650564
 20
229.3703747071
  0
VERTEX
  8
0
 62
9
  6
CONTINUOUS
 10
66.3720947994
 20
229.2087747902
  0
VERTEX
  8
0
 62
9
  6
CONTINUOUS
 10
66.291587081
 20
229.068272154
  0
VERTEX
  8
0
 62
9
  6
CONTINUOUS
 10
66.2443482134
 20
228.9701693402
  0
VERTEX
  8
0
 62
9
  6
CONTINUOUS
 10
66.2375403965
 20
228.9293403709
  0
SEQEND
  0
POLYLINE
  8
0
 62
9
  6
CONTINUOUS
 66
1
 70
0
  0
VERTEX
  8
0
 62
9
  6
CONTINUOUS
 10
67.8594734515
 20
228.4648975694
  0
VERTEX
  8
0
 62
9
  6
CONTINUOUS
 10
67.7997105729
 20
228.3713760613
  0
VERTEX
  8
0
 62
9
  6
CONTINUOUS
 10
67.6974775202
 20
228.1994789136
  0
VERTEX
  8
0
 62
9
  6
CONTINUOUS
 10
67.6601116714
 20
228.1296857971
  0
VERTEX
  8
0
 62
9
  6
CONTINUOUS
 10
67.6221162968
 20
228.0396598078
  0
VERTEX
  8
0
 62
9
  6
CONTINUOUS
 10
67.6233838356
 20
228.0239218077
  0
SEQEND
  0
LINE
  8
0
 62
7
  6
CONTINUOUS
 10
66.0824779504
 20
229.6055210607
 11
67.7579024546
 21
232.1699491714
  0
LINE
  8
0
 62
9
  6
CONTINUOUS
 10
66.473666696
 20
229.3703774348
 11
68.1303793624
 21
231.9061649553
  0
POLYLINE
  8
0
 62
9
  6
CONTINUOUS
 66
1
 70
0
  0
VERTEX
  8
0
 62
9
  6
CONTINUOUS
 10
69.5162659634
 20
231.0008073438
  0
VERTEX
  8
0
 62
9
  6
CONTINUOUS
 10
69.577903964
 20
231.0931036539
  0
VERTEX
  8
0
 62
9
  6
CONTINUOUS
 10
69.6942559791
 20
231.255775781
  0
VERTEX
  8
0
 62
9
  6
CONTINUOUS
 10
69.7431607812
 20
231.3180297194
  0
VERTEX
  8
0
 62
9
  6
CONTINUOUS
 10
69.8103413124
 20
231.3889874883
  0
VERTEX
  8
0
 62
9
  6
CONTINUOUS
 10
69.8252628583
 20
231.394148546
  0
SEQEND
  0
POLYLINE
  8
0
 62
9
  6
CONTINUOUS
 66
1
 70
0
  0
VERTEX
  8
0
 62
9
  6
CONTINUOUS
 10
68.1303812837
 20
231.9061676684
  0
VERTEX
  8
0
 62
9
  6
CONTINUOUS
 10
68.2376628904
 20
232.0642273281
  0
VERTEX
  8
0
 62
9
  6
CONTINUOUS
 10
68.3340504499
 20
232.1944564131
  0
VERTEX
  8
0
 62
9
  6
CONTINUOUS
 10
68.4048858696
 20
232.2770689843
  0
VERTEX
  8
0
 62
9
  6
CONTINUOUS
 10
68.4394185695
 20
232.2995658087
  0
SEQEND
  0
POLYLINE
  8
0
 62
9
  6
CONTINUOUS
 66
1
 70
0
  0
VERTEX
  8
0
 62
9
  6
CONTINUOUS
 10
75.112008113
 20
239.4902361103
  0
VERTEX
  8
0
 62
9
  6
CONTINUOUS
 10
74.9634698054
 20
239.3703719312
  0
VERTEX
  8
0
 62
9
  6
CONTINUOUS
 10
74.8417030859
 20
239.2636229288
  0
VERTEX
  8
0
 62
9
  6
CONTINUOUS
 10
74.7651698189
 20
239.1861740313
  0
VERTEX
  8
0
 62
9
  6
CONTINUOUS
 10
74.7454737236
 20
239.1497677826
  0
SEQEND
  0
POLYLINE
  8
0
 62
9
  6
CONTINUOUS
 66
1
 70
0
  0
VERTEX
  8
0
 62
9
  6
CONTINUOUS
 10
76.1287216407
 20
238.1838489712
  0
VERTEX
  8
0
 62
9
  6
CONTINUOUS
 10
76.0418304957
 20
238.1147996913
  0
VERTEX
  8
0
 62
9
  6
CONTINUOUS
 10
75.8893217995
 20
237.9854114233
  0
VERTEX
  8
0
 62
9
  6
CONTINUOUS
 10
75.8313187477
 20
237.9315325619
  0
VERTEX
  8
0
 62
9
  6
CONTINUOUS
 10
75.7661506768
 20
237.8587215072
  0
VERTEX
  8
0
 62
9
  6
CONTINUOUS
 10
75.7622394165
 20
237.8434246662
  0
SEQEND
  0
LINE
  8
0
 62
7
  6
CONTINUOUS
 10
74.8183684996
 20
239.8396598315
 11
77.2356823293
 21
241.7211307066
  0
LINE
  8
0
 62
9
  6
CONTINUOUS
 10
75.1120105495
 20
239.4902381578
 11
77.5023268158
 21
241.3506959926
  0
POLYLINE
  8
0
 62
9
  6
CONTINUOUS
 66
1
 70
0
  0
VERTEX
  8
0
 62
9
  6
CONTINUOUS
 10
78.5191531222
 20
240.04439651
  0
VERTEX
  8
0
 62
9
  6
CONTINUOUS
 10
78.6074199687
 20
240.1116781254
  0
VERTEX
  8
0
 62
9
  6
CONTINUOUS
 10
78.7702872641
 20
240.2277567904
  0
VERTEX
  8
0
 62
9
  6
CONTINUOUS
 10
78.8367560899
 20
240.2707582754
  0
VERTEX
  8
0
 62
9
  6
CONTINUOUS
 10
78.9233365445
 20
240.3160578738
  0
VERTEX
  8
0
 62
9
  6
CONTINUOUS
 10
78.9391253925
 20
240.3160942731
  0
SEQEND
  0
POLYLINE
  8
0
 62
9
  6
CONTINUOUS
 66
1
 70
0
  0
VERTEX
  8
0
 62
9
  6
CONTINUOUS
 10
77.502329514
 20
241.3506979348
  0
VERTEX
  8
0
 62
9
  6
CONTINUOUS
 10
77.6551201949
 20
241.4653592055
  0
VERTEX
  8
0
 62
9
  6
CONTINUOUS
 10
77.7885705253
 20
241.5572351301
  0
VERTEX
  8
0
 62
9
  6
CONTINUOUS
 10
77.8823921446
 20
241.612371301
  0
VERTEX
  8
0
 62
9
  6
CONTINUOUS
 10
77.9223584745
 20
241.6224364361
  0
SEQEND
  0
POLYLINE
  8
0
 62
9
  6
CONTINUOUS
 66
1
 70
0
  0
VERTEX
  8
0
 62
9
  6
CONTINUOUS
 10
86.5682155417
 20
246.2569101038
  0
VERTEX
  8
0
 62
9
  6
CONTINUOUS
 10
86.388805614
 20
246.1917708062
  0
VERTEX
  8
0
 62
9
  6
CONTINUOUS
 10
86.2389752068
 20
246.1303433483
  0
VERTEX
  8
0
 62
9
  6
CONTINUOUS
 10
86.1414411074
 20
246.0819411569
  0
VERTEX
  8
0
 62
9
  6
CONTINUOUS
 10
86.1109911113
 20
246.0539028109
  0
SEQEND
  0
POLYLINE
  8
0
 62
9
  6
CONTINUOUS
 66
1
 70
0
  0
VERTEX
  8
0
 62
9
  6
CONTINUOUS
 10
87.1056575154
 20
244.6911802806
  0
VERTEX
  8
0
 62
9
  6
CONTINUOUS
 10
87.0010541079
 20
244.6540857897
  0
VERTEX
  8
0
 62
9
  6
CONTINUOUS
 10
86.8147964537
 20
244.5812276282
  0
VERTEX
  8
0
 62
9
  6
CONTINUOUS
 10
86.7424417311
 20
244.5491016327
  0
VERTEX
  8
0
 62
9
  6
CONTINUOUS
 10
86.6571629375
 20
244.5013957208
  0
VERTEX
  8
0
 62
9
  6
CONTINUOUS
 10
86.6484967243
 20
244.4881976892
  0
SEQEND
  0
LINE
  8
0
 62
7
  6
CONTINUOUS
 10
86.4039438293
 20
246.6827457106
 11
89.3011935225
 21
247.6773727865
  0
LINE
  8
0
 62
9
  6
CONTINUOUS
 10
86.568218511
 20
246.2569112492
 11
89.4331105203
 21
247.2404299239
  0
POLYLINE
  8
0
 62
9
  6
CONTINUOUS
 66
1
 70
0
  0
VERTEX
  8
0
 62
9
  6
CONTINUOUS
 10
89.970687624
 20
245.6747463885
  0
VERTEX
  8
0
 62
9
  6
CONTINUOUS
 10
90.0760182341
 20
245.7097223021
  0
VERTEX
  8
0
 62
9
  6
CONTINUOUS
 10
90.2677516111
 20
245.7666285806
  0
VERTEX
  8
0
 62
9
  6
CONTINUOUS
 10
90.3445815319
 20
245.7857177341
  0
VERTEX
  8
0
 62
9
  6
CONTINUOUS
 10
90.4411795743
 20
245.8004502477
  0
VERTEX
  8
0
 62
9
  6
CONTINUOUS
 10
90.4561247578
 20
245.7953580441
  0
SEQEND
  0
POLYLINE
  8
0
 62
9
  6
CONTINUOUS
 66
1
 70
0
  0
VERTEX
  8
0
 62
9
  6
CONTINUOUS
 10
89.4331137028
 20
247.2404308848
  0
VERTEX
  8
0
 62
9
  6
CONTINUOUS
 10
89.614856217
 20
247.2992684385
  0
VERTEX
  8
0
 62
9
  6
CONTINUOUS
 10
89.7709079043
 20
247.3428350207
  0
VERTEX
  8
0
 62
9
  6
CONTINUOUS
 10
89.8775486949
 20
247.3645199319
  0
VERTEX
  8
0
 62
9
  6
CONTINUOUS
 10
89.9186176829
 20
247.361062664
  0
SEQEND
  0
POLYLINE
  8
0
 62
9
  6
CONTINUOUS
 66
1
 70
0
  0
VERTEX
  8
0
 62
9
  6
CONTINUOUS
 10
109.2571996087
 20
168.956886008
  0
VERTEX
  8
0
 62
9
  6
CONTINUOUS
 10
109.4448841949
 20
168.9916069869
  0
VERTEX
  8
0
 62
9
  6
CONTINUOUS
 10
109.6027817379
 20
169.0275353798
  0
VERTEX
  8
0
 62
9
  6
CONTINUOUS
 10
109.7069523382
 20
169.0592238433
  0
VERTEX
  8
0
 62
9
  6
CONTINUOUS
 10
109.7416019961
 20
169.0818678782
  0
SEQEND
  0
POLYLINE
  8
0
 62
9
  6
CONTINUOUS
 66
1
 70
0
  0
VERTEX
  8
0
 62
9
  6
CONTINUOUS
 10
108.9847983018
 20
170.5897213586
  0
VERTEX
  8
0
 62
9
  6
CONTINUOUS
 10
109.0940806077
 20
170.609092774
  0
VERTEX
  8
0
 62
9
  6
CONTINUOUS
 10
109.2897900091
 20
170.6503002428
  0
VERTEX
  8
0
 62
9
  6
CONTINUOUS
 10
109.3664456725
 20
170.6700788857
  0
VERTEX
  8
0
 62
9
  6
CONTINUOUS
 10
109.4584135091
 20
170.703097723
  0
VERTEX
  8
0
 62
9
  6
CONTINUOUS
 10
109.469133851
 20
170.7146893388
  0
SEQEND
  0
LINE
  8
0
 62
7
  6
CONTINUOUS
 10
109.3491406319
 20
168.5098200086
 11
106.3276954122
 21
168.0056299758
  0
LINE
  8
0
 62
9
  6
CONTINUOUS
 10
109.2571964914
 20
168.9568853669
 11
106.2694960218
 21
168.4583263315
  0
LINE
  8
0
 62
7
  6
CONTINUOUS
 10
105.756276186
 20
170.9571673574
 11
108.9273342401
 21
171.486325836
  0
POLYLINE
  8
0
 62
9
  6
CONTINUOUS
 66
1
 70
0
  0
VERTEX
  8
0
 62
9
  6
CONTINUOUS
 10
105.9969538091
 20
170.0911382673
  0
VERTEX
  8
0
 62
9
  6
CONTINUOUS
 10
105.887302925
 20
170.0739762282
  0
VERTEX
  8
0
 62
9
  6
CONTINUOUS
 10
105.6888180758
 20
170.0494043538
  0
VERTEX
  8
0
 62
9
  6
CONTINUOUS
 10
105.6098940436
 20
170.0432213408
  0
VERTEX
  8
0
 62
9
  6
CONTINUOUS
 10
105.5121885806
 20
170.0445892747
  0
VERTEX
  8
0
 62
9
  6
CONTINUOUS
 10
105.498285379
 20
170.0520719236
  0
SEQEND
  0
POLYLINE
  8
0
 62
9
  6
CONTINUOUS
 66
1
 70
0
  0
VERTEX
  8
0
 62
9
  6
CONTINUOUS
 10
106.2694927245
 20
168.4583259075
  0
VERTEX
  8
0
 62
9
  6
CONTINUOUS
 10
106.0805445983
 20
168.430204656
  0
VERTEX
  8
0
 62
9
  6
CONTINUOUS
 10
105.9194504288
 20
168.4129175288
  0
VERTEX
  8
0
 62
9
  6
CONTINUOUS
 10
105.8106948605
 20
168.4090808688
  0
VERTEX
  8
0
 62
9
  6
CONTINUOUS
 10
105.7707550476
 20
168.4192507172
  0
SEQEND
  0
POLYLINE
  8
0
 62
9
  6
CONTINUOUS
 66
1
 70
0
  0
VERTEX
  8
0
 62
9
  6
CONTINUOUS
 10
95.9611850401
 20
168.4583259075
  0
VERTEX
  8
0
 62
9
  6
CONTINUOUS
 10
96.1499742411
 20
168.4302245226
  0
VERTEX
  8
0
 62
9
  6
CONTINUOUS
 10
96.3109823898
 20
168.4129369676
  0
VERTEX
  8
0
 62
9
  6
CONTINUOUS
 10
96.4197979669
 20
168.4090843242
  0
VERTEX
  8
0
 62
9
  6
CONTINUOUS
 10
96.4599227169
 20
168.4192507172
  0
SEQEND
  0
POLYLINE
  8
0
 62
9
  6
CONTINUOUS
 66
1
 70
0
  0
VERTEX
  8
0
 62
9
  6
CONTINUOUS
 10
96.233723959
 20
170.0911382947
  0
VERTEX
  8
0
 62
9
  6
CONTINUOUS
 10
96.3433749363
 20
170.0739762068
  0
VERTEX
  8
0
 62
9
  6
CONTINUOUS
 10
96.541860304
 20
170.0494042031
  0
VERTEX
  8
0
 62
9
  6
CONTINUOUS
 10
96.6207846655
 20
170.0432211315
  0
VERTEX
  8
0
 62
9
  6
CONTINUOUS
 10
96.7184906278
 20
170.0445890096
  0
VERTEX
  8
0
 62
9
  6
CONTINUOUS
 10
96.7323939032
 20
170.0520716703
  0
SEQEND
  0
LINE
  8
0
 62
7
  6
CONTINUOUS
 10
95.9029823523
 20
168.0056299758
 11
92.8815371327
 21
168.5098200086
  0
LINE
  8
0
 62
9
  6
CONTINUOUS
 10
95.9611818835
 20
168.4583263134
 11
92.9734814121
 21
168.9568853383
  0
LINE
  8
0
 62
7
  6
CONTINUOUS
 10
93.2994415449
 20
171.4869744795
 11
96.4705021612
 21
170.9578205501
  0
POLYLINE
  8
0
 62
9
  6
CONTINUOUS
 66
1
 70
0
  0
VERTEX
  8
0
 62
9
  6
CONTINUOUS
 10
93.2458794571
 20
170.5897213315
  0
VERTEX
  8
0
 62
9
  6
CONTINUOUS
 10
93.1365972554
 20
170.6090927628
  0
VERTEX
  8
0
 62
9
  6
CONTINUOUS
 10
92.9408883883
 20
170.6503001855
  0
VERTEX
  8
0
 62
9
  6
CONTINUOUS
 10
92.8642330567
 20
170.6700787766
  0
VERTEX
  8
0
 62
9
  6
CONTINUOUS
 10
92.7722657127
 20
170.7030975041
  0
VERTEX
  8
0
 62
9
  6
CONTINUOUS
 10
92.761545437
 20
170.7146890846
  0
SEQEND
  0
POLYLINE
  8
0
 62
9
  6
CONTINUOUS
 66
1
 70
0
  0
VERTEX
  8
0
 62
9
  6
CONTINUOUS
 10
92.9734781558
 20
168.956886008
  0
VERTEX
  8
0
 62
9
  6
CONTINUOUS
 10
92.7856368049
 20
168.9916397997
  0
VERTEX
  8
0
 62
9
  6
CONTINUOUS
 10
92.6276580408
 20
169.027596528
  0
VERTEX
  8
0
 62
9
  6
CONTINUOUS
 10
92.5235493877
 20
169.0592806241
  0
VERTEX
  8
0
 62
9
  6
CONTINUOUS
 10
92.4890757684
 20
169.0818678782
  0
SEQEND
  0
POLYLINE
  8
0
 62
9
  6
CONTINUOUS
 66
1
 70
0
  0
VERTEX
  8
0
 62
9
  6
CONTINUOUS
 10
83.2237030152
 20
172.3039880415
  0
VERTEX
  8
0
 62
9
  6
CONTINUOUS
 10
83.3931385918
 20
172.2161095137
  0
VERTEX
  8
0
 62
9
  6
CONTINUOUS
 10
83.539809615
 20
172.1474793858
  0
VERTEX
  8
0
 62
9
  6
CONTINUOUS
 10
83.6414783126
 20
172.108503129
  0
VERTEX
  8
0
 62
9
  6
CONTINUOUS
 10
83.6827300155
 20
172.1050901938
  0
SEQEND
  0
POLYLINE
  8
0
 62
9
  6
CONTINUOUS
 66
1
 70
0
  0
VERTEX
  8
0
 62
9
  6
CONTINUOUS
 10
84.0116483398
 20
173.7598369089
  0
VERTEX
  8
0
 62
9
  6
CONTINUOUS
 10
84.109785604
 20
173.7080010937
  0
VERTEX
  8
0
 62
9
  6
CONTINUOUS
 10
84.2895379956
 20
173.6203123584
  0
VERTEX
  8
0
 62
9
  6
CONTINUOUS
 10
84.3621783969
 20
173.5888375936
  0
VERTEX
  8
0
 62
9
  6
CONTINUOUS
 10
84.4550345618
 20
173.5584062671
  0
VERTEX
  8
0
 62
9
  6
CONTINUOUS
 10
84.4706141407
 20
173.5609691096
  0
SEQEND
  0
LINE
  8
0
 62
7
  6
CONTINUOUS
 10
83.0216637808
 20
171.8947188058
 11
80.3276390333
 21
173.352652091
  0
LINE
  8
0
 62
9
  6
CONTINUOUS
 10
83.2237001614
 20
172.3039894503
 11
80.5597633933
 21
173.7456399293
  0
LINE
  8
0
 62
7
  6
CONTINUOUS
 10
81.6895807152
 20
176.0328027765
 11
84.5170071258
 21
174.502678901
  0
POLYLINE
  8
0
 62
9
  6
CONTINUOUS
 66
1
 70
0
  0
VERTEX
  8
0
 62
9
  6
CONTINUOUS
 10
81.3475831411
 20
175.2015568639
  0
VERTEX
  8
0
 62
9
  6
CONTINUOUS
 10
81.250512044
 20
175.2553625705
  0
VERTEX
  8
0
 62
9
  6
CONTINUOUS
 10
81.0787872514
 20
175.3578838267
  0
VERTEX
  8
0
 62
9
  6
CONTINUOUS
 10
81.0127074152
 20
175.4014807046
  0
VERTEX
  8
0
 62
9
  6
CONTINUOUS
 10
80.9364442788
 20
175.4625721342
  0
VERTEX
  8
0
 62
9
  6
CONTINUOUS
 10
80.9300686373
 20
175.4770165186
  0
SEQEND
  0
POLYLINE
  8
0
 62
9
  6
CONTINUOUS
 66
1
 70
0
  0
VERTEX
  8
0
 62
9
  6
CONTINUOUS
 10
80.5597605309
 20
173.74564162
  0
VERTEX
  8
0
 62
9
  6
CONTINUOUS
 10
80.3933814801
 20
173.8395043423
  0
VERTEX
  8
0
 62
9
  6
CONTINUOUS
 10
80.2556375719
 20
173.9248084568
  0
VERTEX
  8
0
 62
9
  6
CONTINUOUS
 10
80.167457622
 20
173.9885798456
  0
VERTEX
  8
0
 62
9
  6
CONTINUOUS
 10
80.1421859479
 20
174.0211368258
  0
SEQEND
  0
POLYLINE
  8
0
 62
9
  6
CONTINUOUS
 66
1
 70
0
  0
VERTEX
  8
0
 62
9
  6
CONTINUOUS
 10
72.4250573538
 20
180.077135246
  0
VERTEX
  8
0
 62
9
  6
CONTINUOUS
 10
72.5567783322
 20
179.9390025775
  0
VERTEX
  8
0
 62
9
  6
CONTINUOUS
 10
72.6732181486
 20
179.8264670158
  0
VERTEX
  8
0
 62
9
  6
CONTINUOUS
 10
72.756722586
 20
179.756590828
  0
VERTEX
  8
0
 62
9
  6
CONTINUOUS
 10
72.7946309795
 20
179.739968409
  0
SEQEND
  0
POLYLINE
  8
0
 62
9
  6
CONTINUOUS
 66
1
 70
0
  0
VERTEX
  8
0
 62
9
  6
CONTINUOUS
 10
73.643022981
 20
181.1982567766
  0
VERTEX
  8
0
 62
9
  6
CONTINUOUS
 10
73.7190118364
 20
181.1173644529
  0
VERTEX
  8
0
 62
9
  6
CONTINUOUS
 10
73.8605522486
 20
180.9760614465
  0
VERTEX
  8
0
 62
9
  6
CONTINUOUS
 10
73.9190369424
 20
180.9227057835
  0
VERTEX
  8
0
 62
9
  6
CONTINUOUS
 10
73.9969808504
 20
180.8637729806
  0
VERTEX
  8
0
 62
9
  6
CONTINUOUS
 10
74.0125484349
 20
180.861138282
  0
SEQEND
  0
LINE
  8
0
 62
7
  6
CONTINUOUS
 10
70.0264107669
 20
182.0093302226
 11
72.1010756589
 21
179.7556433786
  0
LINE
  8
0
 62
9
  6
CONTINUOUS
 10
72.4250551121
 20
180.0771375051
 11
70.3735609313
 21
182.3056542392
  0
LINE
  8
0
 62
7
  6
CONTINUOUS
 10
72.1848021978
 20
184.1020412091
 11
74.3622004343
 21
181.7367598113
  0
POLYLINE
  8
0
 62
9
  6
CONTINUOUS
 66
1
 70
0
  0
VERTEX
  8
0
 62
9
  6
CONTINUOUS
 10
71.5914298881
 20
183.4268809245
  0
VERTEX
  8
0
 62
9
  6
CONTINUOUS
 10
71.5170890551
 20
183.5092902233
  0
VERTEX
  8
0
 62
9
  6
CONTINUOUS
 10
71.3879573829
 20
183.662015544
  0
VERTEX
  8
0
 62
9
  6
CONTINUOUS
 10
71.3396138176
 20
183.7247063106
  0
VERTEX
  8
0
 62
9
  6
CONTINUOUS
 10
71.287319183
 20
183.8072502379
  0
VERTEX
  8
0
 62
9
  6
CONTINUOUS
 10
71.2859790753
 20
183.8229821532
  0
SEQEND
  0
POLYLINE
  8
0
 62
9
  6
CONTINUOUS
 66
1
 70
0
  0
VERTEX
  8
0
 62
9
  6
CONTINUOUS
 10
70.3735587729
 20
182.3056567678
  0
VERTEX
  8
0
 62
9
  6
CONTINUOUS
 10
70.2466717742
 20
182.4484569384
  0
VERTEX
  8
0
 62
9
  6
CONTINUOUS
 10
70.1440894115
 20
182.5738644145
  0
VERTEX
  8
0
 62
9
  6
CONTINUOUS
 10
70.0813938306
 20
182.6628124765
  0
VERTEX
  8
0
 62
9
  6
CONTINUOUS
 10
70.0680626797
 20
182.7018111289
  0
SEQEND
  0
POLYLINE
  8
0
 62
9
  6
CONTINUOUS
 66
1
 70
0
  0
VERTEX
  8
0
 62
9
  6
CONTINUOUS
 10
64.7354488716
 20
190.9354264087
  0
VERTEX
  8
0
 62
9
  6
CONTINUOUS
 10
64.8151812399
 20
190.7620084175
  0
VERTEX
  8
0
 62
9
  6
CONTINUOUS
 10
64.8887717888
 20
190.6177623963
  0
VERTEX
  8
0
 62
9
  6
CONTINUOUS
 10
64.9450629643
 20
190.5245584466
  0
VERTEX
  8
0
 62
9
  6
CONTINUOUS
 10
64.9755200859
 20
190.4965278409
  0
SEQEND
  0
POLYLINE
  8
0
 62
9
  6
CONTINUOUS
 66
1
 70
0
  0
VERTEX
  8
0
 62
9
  6
CONTINUOUS
 10
66.2514493264
 20
191.6003296892
  0
VERTEX
  8
0
 62
9
  6
CONTINUOUS
 10
66.2970552025
 20
191.4991467953
  0
VERTEX
  8
0
 62
9
  6
CONTINUOUS
 10
66.3850455464
 20
191.3195419007
  0
VERTEX
  8
0
 62
9
  6
CONTINUOUS
 10
66.4230368162
 20
191.2500872611
  0
VERTEX
  8
0
 62
9
  6
CONTINUOUS
 10
66.4776220464
 20
191.1690392781
  0
VERTEX
  8
0
 62
9
  6
CONTINUOUS
 10
66.4914906482
 20
191.1614925514
  0
SEQEND
  0
LINE
  8
0
 62
7
  6
CONTINUOUS
 10
64.3246331598
 20
190.7365505418
 11
63.0941502563
 21
193.5417690054
  0
LINE
  8
0
 62
9
  6
CONTINUOUS
 10
64.7354474849
 20
190.9354292733
 11
63.5187071181
 21
193.7093178954
  0
POLYLINE
  8
0
 62
9
  6
CONTINUOUS
 66
1
 70
0
  0
VERTEX
  8
0
 62
9
  6
CONTINUOUS
 10
65.0346502851
 20
194.3743520224
  0
VERTEX
  8
0
 62
9
  6
CONTINUOUS
 10
64.9910956991
 20
194.476434587
  0
VERTEX
  8
0
 62
9
  6
CONTINUOUS
 10
64.9185505677
 20
194.6628138141
  0
VERTEX
  8
0
 62
9
  6
CONTINUOUS
 10
64.8931820488
 20
194.737804952
  0
VERTEX
  8
0
 62
9
  6
CONTINUOUS
 10
64.8705228511
 20
194.8328564617
  0
VERTEX
  8
0
 62
9
  6
CONTINUOUS
 10
64.8743634987
 20
194.8481711107
  0
SEQEND
  0
POLYLINE
  8
0
 62
9
  6
CONTINUOUS
 66
1
 70
0
  0
VERTEX
  8
0
 62
9
  6
CONTINUOUS
 10
63.5187058977
 20
193.7093209878
  0
VERTEX
  8
0
 62
9
  6
CONTINUOUS
 10
63.4450611262
 20
193.8855839924
  0
VERTEX
  8
0
 62
9
  6
CONTINUOUS
 10
63.3887566998
 20
194.0375049843
  0
VERTEX
  8
0
 62
9
  6
CONTINUOUS
 10
63.3583395269
 20
194.1419908168
  0
VERTEX
  8
0
 62
9
  6
CONTINUOUS
 10
63.3583935363
 20
194.1832050322
  0
SEQEND
  0
LINE
  8
0
 62
7
  6
CONTINUOUS
 10
63.2707192978
 20
207.0259813128
 11
63.5362066472
 21
203.8220551846
  0
POLYLINE
  8
0
 62
7
  6
CONTINUOUS
 66
1
 70
0
  0
VERTEX
  8
0
 62
7
  6
CONTINUOUS
 10
64.8282716387
 20
219.4040663283
  0
VERTEX
  8
0
 62
7
  6
CONTINUOUS
 10
64.8339229581
 20
219.571958508
  0
VERTEX
  8
0
 62
7
  6
CONTINUOUS
 10
64.841341046
 20
219.7187162861
  0
VERTEX
  8
0
 62
7
  6
CONTINUOUS
 10
64.8454460172
 20
219.7786433023
  0
VERTEX
  8
0
 62
7
  6
CONTINUOUS
 10
64.8538454177
 20
219.8628279117
  0
VERTEX
  8
0
 62
7
  6
CONTINUOUS
 10
64.8616890519
 20
219.8918903191
  0
SEQEND
  0
POLYLINE
  8
0
 62
7
  6
CONTINUOUS
 66
1
 70
0
  0
VERTEX
  8
0
 62
7
  6
CONTINUOUS
 10
64.828271483
 20
219.4040642585
  0
VERTEX
  8
0
 62
7
  6
CONTINUOUS
 10
64.8280036719
 20
219.400305028
  0
VERTEX
  8
0
 62
7
  6
CONTINUOUS
 10
64.8273941205
 20
219.3965183948
  0
SEQEND
  0
POLYLINE
  8
0
 62
7
  6
CONTINUOUS
 66
1
 70
0
  0
VERTEX
  8
0
 62
7
  6
CONTINUOUS
 10
63.5361549697
 20
203.8105258273
  0
VERTEX
  8
0
 62
7
  6
CONTINUOUS
 10
63.5365087098
 20
203.8142786018
  0
VERTEX
  8
0
 62
7
  6
CONTINUOUS
 10
63.5365307502
 20
203.8181140514
  0
VERTEX
  8
0
 62
7
  6
CONTINUOUS
 10
63.536207002
 20
203.8220514657
  0
SEQEND
  0
POLYLINE
  8
0
 62
7
  6
CONTINUOUS
 66
1
 70
0
  0
VERTEX
  8
0
 62
7
  6
CONTINUOUS
 10
63.5361548386
 20
203.810524277
  0
VERTEX
  8
0
 62
7
  6
CONTINUOUS
 10
63.5140934718
 20
203.6439920053
  0
VERTEX
  8
0
 62
7
  6
CONTINUOUS
 10
63.4972531463
 20
203.4980151498
  0
VERTEX
  8
0
 62
7
  6
CONTINUOUS
 10
63.491437323
 20
203.4382300007
  0
VERTEX
  8
0
 62
7
  6
CONTINUOUS
 10
63.485861271
 20
203.3538117571
  0
VERTEX
  8
0
 62
7
  6
CONTINUOUS
 10
63.4888226423
 20
203.3238536988
  0
SEQEND
  0
LINE
  8
0
 62
7
  6
CONTINUOUS
 10
64.8273941205
 20
219.3965183948
 11
64.038184344
 21
216.2799896705
  0
POLYLINE
  8
0
 62
7
  6
CONTINUOUS
 66
1
 70
0
  0
VERTEX
  8
0
 62
7
  6
CONTINUOUS
 10
70.3197116911
 20
230.5981881796
  0
VERTEX
  8
0
 62
7
  6
CONTINUOUS
 10
70.3795711922
 20
230.7551485546
  0
VERTEX
  8
0
 62
7
  6
CONTINUOUS
 10
70.4342393871
 20
230.8915459867
  0
VERTEX
  8
0
 62
7
  6
CONTINUOUS
 10
70.4575801219
 20
230.9468931403
  0
VERTEX
  8
0
 62
7
  6
CONTINUOUS
 10
70.4928587725
 20
231.0237892387
  0
VERTEX
  8
0
 62
7
  6
CONTINUOUS
 10
70.5097145865
 20
231.048729896
  0
SEQEND
  0
POLYLINE
  8
0
 62
7
  6
CONTINUOUS
 66
1
 70
0
  0
VERTEX
  8
0
 62
7
  6
CONTINUOUS
 10
70.3197108061
 20
230.5981861196
  0
VERTEX
  8
0
 62
7
  6
CONTINUOUS
 10
70.3182368783
 20
230.5947177049
  0
VERTEX
  8
0
 62
7
  6
CONTINUOUS
 10
70.3164308325
 20
230.5913341527
  0
SEQEND
  0
POLYLINE
  8
0
 62
7
  6
CONTINUOUS
 66
1
 70
0
  0
VERTEX
  8
0
 62
7
  6
CONTINUOUS
 10
64.0343903621
 20
216.2690972238
  0
VERTEX
  8
0
 62
7
  6
CONTINUOUS
 10
64.0359441794
 20
216.2725329422
  0
VERTEX
  8
0
 62
7
  6
CONTINUOUS
 10
64.0372103814
 20
216.2761533955
  0
VERTEX
  8
0
 62
7
  6
CONTINUOUS
 10
64.0381826428
 20
216.2799825631
  0
SEQEND
  0
POLYLINE
  8
0
 62
7
  6
CONTINUOUS
 66
1
 70
0
  0
VERTEX
  8
0
 62
7
  6
CONTINUOUS
 10
64.0343902943
 20
216.2690970413
  0
VERTEX
  8
0
 62
7
  6
CONTINUOUS
 10
63.9594516024
 20
216.1187511124
  0
VERTEX
  8
0
 62
7
  6
CONTINUOUS
 10
63.8961254419
 20
215.9861515529
  0
VERTEX
  8
0
 62
7
  6
CONTINUOUS
 10
63.8712127481
 20
215.9314940043
  0
VERTEX
  8
0
 62
7
  6
CONTINUOUS
 10
63.8385291583
 20
215.8534598489
  0
VERTEX
  8
0
 62
7
  6
CONTINUOUS
 10
63.8316011168
 20
215.8241642177
  0
SEQEND
  0
LINE
  8
0
 62
7
  6
CONTINUOUS
 10
70.3164308325
 20
230.5913341527
 11
68.558046056
 21
227.8999214438
  0
POLYLINE
  8
0
 62
7
  6
CONTINUOUS
 66
1
 70
0
  0
VERTEX
  8
0
 62
7
  6
CONTINUOUS
 10
79.1483354005
 20
239.4027140676
  0
VERTEX
  8
0
 62
7
  6
CONTINUOUS
 10
79.2559168888
 20
239.5317332578
  0
VERTEX
  8
0
 62
7
  6
CONTINUOUS
 10
79.3519116286
 20
239.6429892273
  0
VERTEX
  8
0
 62
7
  6
CONTINUOUS
 10
79.3919591801
 20
239.6877585683
  0
VERTEX
  8
0
 62
7
  6
CONTINUOUS
 10
79.450295577
 20
239.7490323684
  0
VERTEX
  8
0
 62
7
  6
CONTINUOUS
 10
79.474334303
 20
239.7671503135
  0
SEQEND
  0
POLYLINE
  8
0
 62
7
  6
CONTINUOUS
 66
1
 70
0
  0
VERTEX
  8
0
 62
7
  6
CONTINUOUS
 10
79.1483369367
 20
239.4027157852
  0
VERTEX
  8
0
 62
7
  6
CONTINUOUS
 10
79.1458138885
 20
239.3999103342
  0
VERTEX
  8
0
 62
7
  6
CONTINUOUS
 10
79.1430070893
 20
239.3972965682
  0
SEQEND
  0
POLYLINE
  8
0
 62
7
  6
CONTINUOUS
 66
1
 70
0
  0
VERTEX
  8
0
 62
7
  6
CONTINUOUS
 10
68.5509222026
 20
227.890853156
  0
VERTEX
  8
0
 62
7
  6
CONTINUOUS
 10
68.5535074058
 20
227.893598212
  0
VERTEX
  8
0
 62
7
  6
CONTINUOUS
 10
68.5558805621
 20
227.8966113653
  0
VERTEX
  8
0
 62
7
  6
CONTINUOUS
 10
68.5580434735
 20
227.8999173668
  0
SEQEND
  0
POLYLINE
  8
0
 62
7
  6
CONTINUOUS
 66
1
 70
0
  0
VERTEX
  8
0
 62
7
  6
CONTINUOUS
 10
68.5509220872
 20
227.8908530135
  0
VERTEX
  8
0
 62
7
  6
CONTINUOUS
 10
68.4312265233
 20
227.7729858103
  0
VERTEX
  8
0
 62
7
  6
CONTINUOUS
 10
68.3282765262
 20
227.6681328494
  0
VERTEX
  8
0
 62
7
  6
CONTINUOUS
 10
68.2869663827
 20
227.6245259482
  0
VERTEX
  8
0
 62
7
  6
CONTINUOUS
 10
68.230715984
 20
227.5613322923
  0
VERTEX
  8
0
 62
7
  6
CONTINUOUS
 10
68.2146511311
 20
227.535873427
  0
SEQEND
  0
LINE
  8
0
 62
7
  6
CONTINUOUS
 10
78.0994568272
 20
233.867069579
 11
77.977667967
 21
233.7532923322
  0
LINE
  8
0
 62
7
  6
CONTINUOUS
 10
77.4905126394
 20
233.2981834505
 11
77.3687238053
 21
233.1844062281
  0
LINE
  8
0
 62
7
  6
CONTINUOUS
 10
78.8321637639
 20
234.5103735519
 11
78.7313241374
 21
234.423143027
  0
LINE
  8
0
 62
7
  6
CONTINUOUS
 10
78.5044350862
 20
234.2268744396
 11
78.3783855892
 21
234.1178363147
  0
LINE
  8
0
 62
7
  6
CONTINUOUS
 10
79.1159135646
 20
235.4143419793
 11
78.9872144838
 21
235.3084443722
  0
LINE
  8
0
 62
7
  6
CONTINUOUS
 10
79.0953652598
 20
235.1770069786
 11
79.2240643406
 21
235.2829045858
  0
LINE
  8
0
 62
7
  6
CONTINUOUS
 10
79.4403659533
 20
235.020029725
 11
79.3116668725
 21
234.9141321179
  0
LINE
  8
0
 62
7
  6
CONTINUOUS
 10
79.1430070893
 20
239.3972965682
 11
76.6059962034
 21
237.4226586644
  0
LINE
  8
0
 62
7
  6
CONTINUOUS
 10
82.0088828512
 20
237.5539796946
 11
81.7622157351
 21
237.3832303641
  0
LINE
  8
0
 62
7
  6
CONTINUOUS
 10
80.9399920151
 20
236.814065929
 11
80.693324899
 21
236.6433165985
  0
POLYLINE
  8
0
 62
7
  6
CONTINUOUS
 66
1
 70
0
  0
VERTEX
  8
0
 62
7
  6
CONTINUOUS
 10
90.3574248905
 20
244.8635370993
  0
VERTEX
  8
0
 62
7
  6
CONTINUOUS
 10
90.5010700198
 20
244.9506336707
  0
VERTEX
  8
0
 62
7
  6
CONTINUOUS
 10
90.6279885227
 20
245.0246916415
  0
VERTEX
  8
0
 62
7
  6
CONTINUOUS
 10
90.6804029399
 20
245.0540315751
  0
VERTEX
  8
0
 62
7
  6
CONTINUOUS
 10
90.7554747198
 20
245.0930425868
  0
VERTEX
  8
0
 62
7
  6
CONTINUOUS
 10
90.7840927031
 20
245.102375427
  0
SEQEND
  0
LINE
  8
0
 62
7
  6
CONTINUOUS
 10
83.644998418
 20
238.5574377396
 11
83.4150548992
 21
238.4223934741
  0
LINE
  8
0
 62
7
  6
CONTINUOUS
 10
83.5184931464
 20
238.2462663766
 11
83.7484366652
 21
238.3813106421
  0
POLYLINE
  8
0
 62
7
  6
CONTINUOUS
 66
1
 70
0
  0
VERTEX
  8
0
 62
7
  6
CONTINUOUS
 10
90.357432039
 20
244.8635410811
  0
VERTEX
  8
0
 62
7
  6
CONTINUOUS
 10
90.3541297929
 20
244.8617037985
  0
VERTEX
  8
0
 62
7
  6
CONTINUOUS
 10
90.3506264179
 20
244.8601430399
  0
VERTEX
  8
0
 62
7
  6
CONTINUOUS
 10
90.3468907884
 20
244.8588579564
  0
SEQEND
  0
POLYLINE
  8
0
 62
7
  6
CONTINUOUS
 66
1
 70
0
  0
VERTEX
  8
0
 62
7
  6
CONTINUOUS
 10
76.5963143102
 20
237.4163950866
  0
VERTEX
  8
0
 62
7
  6
CONTINUOUS
 10
76.5996503303
 20
237.4181517364
  0
VERTEX
  8
0
 62
7
  6
CONTINUOUS
 10
76.6028732679
 20
237.4202310644
  0
VERTEX
  8
0
 62
7
  6
CONTINUOUS
 10
76.6059924403
 20
237.422655639
  0
SEQEND
  0
LINE
  8
0
 62
7
  6
CONTINUOUS
 10
85.8302861726
 20
239.7371969977
 11
85.6527669834
 21
239.6450724219
  0
LINE
  8
0
 62
7
  6
CONTINUOUS
 10
85.2385557676
 20
239.4301151956
 11
85.001863741
 21
239.3072825451
  0
LINE
  8
0
 62
7
  6
CONTINUOUS
 10
84.5876518481
 20
239.0923249674
 11
84.4101326588
 21
239.0002003916
  0
POLYLINE
  8
0
 62
7
  6
CONTINUOUS
 66
1
 70
0
  0
VERTEX
  8
0
 62
7
  6
CONTINUOUS
 10
76.5963137171
 20
237.4163947592
  0
VERTEX
  8
0
 62
7
  6
CONTINUOUS
 10
76.4448321889
 20
237.34377897
  0
VERTEX
  8
0
 62
7
  6
CONTINUOUS
 10
76.3134146275
 20
237.2780349901
  0
VERTEX
  8
0
 62
7
  6
CONTINUOUS
 10
76.2601836595
 20
237.250204177
  0
VERTEX
  8
0
 62
7
  6
CONTINUOUS
 10
76.186462184
 20
237.2086988542
  0
VERTEX
  8
0
 62
7
  6
CONTINUOUS
 10
76.1630011663
 20
237.189835919
  0
SEQEND
  0
LINE
  8
0
 62
7
  6
CONTINUOUS
 10
86.3267228763
 20
239.9679807161
 11
86.144795094
 21
239.8849007424
  0
LINE
  8
0
 62
7
  6
CONTINUOUS
 10
90.3683520721
 20
241.5737722404
 11
89.1086098252
 21
241.1369360093
  0
LINE
  8
0
 62
7
  6
CONTINUOUS
 10
89.1643761672
 20
240.976117808
 11
90.2666515343
 21
241.3583498226
  0
LINE
  8
0
 62
7
  6
CONTINUOUS
 10
91.0585147066
 20
241.7843468226
 11
90.8674224441
 21
241.7253235458
  0
POLYLINE
  8
0
 62
7
  6
CONTINUOUS
 66
1
 70
0
  0
VERTEX
  8
0
 62
7
  6
CONTINUOUS
 10
93.2918469607
 20
171.4872255839
  0
VERTEX
  8
0
 62
7
  6
CONTINUOUS
 10
93.1240615166
 20
171.4789933577
  0
VERTEX
  8
0
 62
7
  6
CONTINUOUS
 10
92.9771923905
 20
171.4742671595
  0
VERTEX
  8
0
 62
7
  6
CONTINUOUS
 10
92.9171310583
 20
171.4734095166
  0
VERTEX
  8
0
 62
7
  6
CONTINUOUS
 10
92.8325403276
 20
171.474828867
  0
VERTEX
  8
0
 62
7
  6
CONTINUOUS
 10
92.8029294991
 20
171.4802447496
  0
SEQEND
  0
POLYLINE
  8
0
 62
7
  6
CONTINUOUS
 66
1
 70
0
  0
VERTEX
  8
0
 62
7
  6
CONTINUOUS
 10
93.2918487059
 20
171.4872255968
  0
VERTEX
  8
0
 62
7
  6
CONTINUOUS
 10
93.2956175252
 20
171.4872692522
  0
VERTEX
  8
0
 62
7
  6
CONTINUOUS
 10
93.2994415449
 20
171.4869744795
  0
SEQEND
  0
POLYLINE
  8
0
 62
7
  6
CONTINUOUS
 66
1
 70
0
  0
VERTEX
  8
0
 62
7
  6
CONTINUOUS
 10
108.9388298242
 20
171.4872264484
  0
VERTEX
  8
0
 62
7
  6
CONTINUOUS
 10
108.9350604904
 20
171.4872692604
  0
VERTEX
  8
0
 62
7
  6
CONTINUOUS
 10
108.9312363471
 20
171.486974495
  0
VERTEX
  8
0
 62
7
  6
CONTINUOUS
 10
108.9273391434
 20
171.4863267068
  0
SEQEND
  0
POLYLINE
  8
0
 62
7
  6
CONTINUOUS
 66
1
 70
0
  0
VERTEX
  8
0
 62
7
  6
CONTINUOUS
 10
108.9388311864
 20
171.4872264466
  0
VERTEX
  8
0
 62
7
  6
CONTINUOUS
 10
109.1066165063
 20
171.4789928506
  0
VERTEX
  8
0
 62
7
  6
CONTINUOUS
 10
109.2534854735
 20
171.4742650652
  0
VERTEX
  8
0
 62
7
  6
CONTINUOUS
 10
109.313546713
 20
171.4734063649
  0
VERTEX
  8
0
 62
7
  6
CONTINUOUS
 10
109.3981371577
 20
171.4748215451
  0
VERTEX
  8
0
 62
7
  6
CONTINUOUS
 10
109.42774828
 20
171.4802450027
  0
SEQEND
  0
POLYLINE
  8
0
 62
7
  6
CONTINUOUS
 66
1
 70
0
  0
VERTEX
  8
0
 62
7
  6
CONTINUOUS
 10
81.6824791578
 20
176.0355061792
  0
VERTEX
  8
0
 62
7
  6
CONTINUOUS
 10
81.5211118112
 20
176.0821999235
  0
VERTEX
  8
0
 62
7
  6
CONTINUOUS
 10
81.3806658882
 20
176.1254182243
  0
VERTEX
  8
0
 62
7
  6
CONTINUOUS
 10
81.323580384
 20
176.144108995
  0
VERTEX
  8
0
 62
7
  6
CONTINUOUS
 10
81.2440339386
 20
176.1729182442
  0
VERTEX
  8
0
 62
7
  6
CONTINUOUS
 10
81.2177859097
 20
176.1876548646
  0
SEQEND
  0
POLYLINE
  8
0
 62
7
  6
CONTINUOUS
 66
1
 70
0
  0
VERTEX
  8
0
 62
7
  6
CONTINUOUS
 10
81.6824809311
 20
176.035505586
  0
VERTEX
  8
0
 62
7
  6
CONTINUOUS
 10
81.6860596111
 20
176.0343232329
  0
VERTEX
  8
0
 62
7
  6
CONTINUOUS
 10
81.6895807152
 20
176.0328027765
  0
SEQEND
  0
POLYLINE
  8
0
 62
7
  6
CONTINUOUS
 66
1
 70
0
  0
VERTEX
  8
0
 62
7
  6
CONTINUOUS
 10
96.4816657733
 20
170.9549400157
  0
VERTEX
  8
0
 62
7
  6
CONTINUOUS
 10
96.4781144204
 20
170.9562044123
  0
VERTEX
  8
0
 62
7
  6
CONTINUOUS
 10
96.474401763
 20
170.9571673181
  0
VERTEX
  8
0
 62
7
  6
CONTINUOUS
 10
96.4705053769
 20
170.9578200503
  0
SEQEND
  0
POLYLINE
  8
0
 62
7
  6
CONTINUOUS
 66
1
 70
0
  0
VERTEX
  8
0
 62
7
  6
CONTINUOUS
 10
96.4816669309
 20
170.9549396184
  0
VERTEX
  8
0
 62
7
  6
CONTINUOUS
 10
96.6376877028
 20
170.8926722654
  0
VERTEX
  8
0
 62
7
  6
CONTINUOUS
 10
96.7750637562
 20
170.8405122837
  0
VERTEX
  8
0
 62
7
  6
CONTINUOUS
 10
96.8315918665
 20
170.8201981982
  0
VERTEX
  8
0
 62
7
  6
CONTINUOUS
 10
96.9120583733
 20
170.7940699828
  0
VERTEX
  8
0
 62
7
  6
CONTINUOUS
 10
96.9418262432
 20
170.7895852963
  0
SEQEND
  0
POLYLINE
  8
0
 62
7
  6
CONTINUOUS
 66
1
 70
0
  0
VERTEX
  8
0
 62
7
  6
CONTINUOUS
 10
72.1789632125
 20
184.1069039974
  0
VERTEX
  8
0
 62
7
  6
CONTINUOUS
 10
72.0415006355
 20
184.2034636498
  0
VERTEX
  8
0
 62
7
  6
CONTINUOUS
 10
71.9226974278
 20
184.289942994
  0
VERTEX
  8
0
 62
7
  6
CONTINUOUS
 10
71.8747738626
 20
184.3261566886
  0
VERTEX
  8
0
 62
7
  6
CONTINUOUS
 10
71.8088918321
 20
184.3792336934
  0
VERTEX
  8
0
 62
7
  6
CONTINUOUS
 10
71.7888509241
 20
184.401694505
  0
SEQEND
  0
POLYLINE
  8
0
 62
7
  6
CONTINUOUS
 66
1
 70
0
  0
VERTEX
  8
0
 62
7
  6
CONTINUOUS
 10
72.1789640212
 20
184.1069033743
  0
VERTEX
  8
0
 62
7
  6
CONTINUOUS
 10
72.1819655693
 20
184.1046225828
  0
VERTEX
  8
0
 62
7
  6
CONTINUOUS
 10
72.1848021978
 20
184.1020412091
  0
SEQEND
  0
POLYLINE
  8
0
 62
7
  6
CONTINUOUS
 66
1
 70
0
  0
VERTEX
  8
0
 62
7
  6
CONTINUOUS
 10
84.5266381687
 20
174.4963234
  0
VERTEX
  8
0
 62
7
  6
CONTINUOUS
 10
84.5236834609
 20
174.498677976
  0
VERTEX
  8
0
 62
7
  6
CONTINUOUS
 10
84.5204846661
 20
174.5007941667
  0
VERTEX
  8
0
 62
7
  6
CONTINUOUS
 10
84.5170113927
 20
174.5026766543
  0
SEQEND
  0
POLYLINE
  8
0
 62
7
  6
CONTINUOUS
 66
1
 70
0
  0
VERTEX
  8
0
 62
7
  6
CONTINUOUS
 10
84.5266325042
 20
174.4963279275
  0
VERTEX
  8
0
 62
7
  6
CONTINUOUS
 10
84.6539819259
 20
174.386775021
  0
VERTEX
  8
0
 62
7
  6
CONTINUOUS
 10
84.7669787905
 20
174.2928358529
  0
VERTEX
  8
0
 62
7
  6
CONTINUOUS
 10
84.8138484416
 20
174.2552681854
  0
VERTEX
  8
0
 62
7
  6
CONTINUOUS
 10
84.8814726615
 20
174.2044298365
  0
VERTEX
  8
0
 62
7
  6
CONTINUOUS
 10
84.9081689972
 20
174.1905196174
  0
SEQEND
  0
POLYLINE
  8
0
 62
7
  6
CONTINUOUS
 66
1
 70
0
  0
VERTEX
  8
0
 62
7
  6
CONTINUOUS
 10
65.8111525819
 20
194.8267578378
  0
VERTEX
  8
0
 62
7
  6
CONTINUOUS
 10
65.7124909384
 20
194.9627196186
  0
VERTEX
  8
0
 62
7
  6
CONTINUOUS
 10
65.6282045713
 20
195.0830885785
  0
VERTEX
  8
0
 62
7
  6
CONTINUOUS
 10
65.5946361763
 20
195.1329008496
  0
VERTEX
  8
0
 62
7
  6
CONTINUOUS
 10
65.5495577802
 20
195.2044937723
  0
VERTEX
  8
0
 62
7
  6
CONTINUOUS
 10
65.537895966
 20
195.2322450153
  0
SEQEND
  0
POLYLINE
  8
0
 62
7
  6
CONTINUOUS
 66
1
 70
0
  0
VERTEX
  8
0
 62
7
  6
CONTINUOUS
 10
65.8111527821
 20
194.8267575264
  0
VERTEX
  8
0
 62
7
  6
CONTINUOUS
 10
65.8132514666
 20
194.8236251532
  0
VERTEX
  8
0
 62
7
  6
CONTINUOUS
 10
65.8150962305
 20
194.8202625904
  0
SEQEND
  0
POLYLINE
  8
0
 62
7
  6
CONTINUOUS
 66
1
 70
0
  0
VERTEX
  8
0
 62
7
  6
CONTINUOUS
 10
74.369243895
 20
181.7276252582
  0
VERTEX
  8
0
 62
7
  6
CONTINUOUS
 10
74.3672159716
 20
181.7308078063
  0
VERTEX
  8
0
 62
7
  6
CONTINUOUS
 10
74.3648776046
 20
181.7338480139
  0
VERTEX
  8
0
 62
7
  6
CONTINUOUS
 10
74.3622037416
 20
181.7367563014
  0
SEQEND
  0
POLYLINE
  8
0
 62
7
  6
CONTINUOUS
 66
1
 70
0
  0
VERTEX
  8
0
 62
7
  6
CONTINUOUS
 10
74.369242393
 20
181.7276276388
  0
VERTEX
  8
0
 62
7
  6
CONTINUOUS
 10
74.4541195502
 20
181.5826601363
  0
VERTEX
  8
0
 62
7
  6
CONTINUOUS
 10
74.5304915248
 20
181.4571206151
  0
VERTEX
  8
0
 62
7
  6
CONTINUOUS
 10
74.5626231733
 20
181.4063697691
  0
VERTEX
  8
0
 62
7
  6
CONTINUOUS
 10
74.6100750575
 20
181.336327826
  0
VERTEX
  8
0
 62
7
  6
CONTINUOUS
 10
74.6308101752
 20
181.3145041567
  0
SEQEND
  0
LINE
  8
0
 62
7
  6
CONTINUOUS
 10
65.8150962305
 20
194.8202625904
 11
67.1065114105
 21
191.8761386071
  0
POLYLINE
  8
0
 62
7
  6
CONTINUOUS
 66
1
 70
0
  0
VERTEX
  8
0
 62
7
  6
CONTINUOUS
 10
63.2690983126
 20
207.0334051199
  0
VERTEX
  8
0
 62
7
  6
CONTINUOUS
 10
63.2199291772
 20
207.1940355106
  0
VERTEX
  8
0
 62
7
  6
CONTINUOUS
 10
63.1792934502
 20
207.3352502993
  0
VERTEX
  8
0
 62
7
  6
CONTINUOUS
 10
63.1637179244
 20
207.393263252
  0
VERTEX
  8
0
 62
7
  6
CONTINUOUS
 10
63.1443282742
 20
207.4756140335
  0
VERTEX
  8
0
 62
7
  6
CONTINUOUS
 10
63.1423089756
 20
207.5056481732
  0
SEQEND
  0
POLYLINE
  8
0
 62
7
  6
CONTINUOUS
 66
1
 70
0
  0
VERTEX
  8
0
 62
7
  6
CONTINUOUS
 10
63.2690983708
 20
207.0334048739
  0
VERTEX
  8
0
 62
7
  6
CONTINUOUS
 10
63.2700663115
 20
207.0297606739
  0
VERTEX
  8
0
 62
7
  6
CONTINUOUS
 10
63.2707192978
 20
207.0259813128
  0
SEQEND
  0
POLYLINE
  8
0
 62
7
  6
CONTINUOUS
 66
1
 70
0
  0
VERTEX
  8
0
 62
7
  6
CONTINUOUS
 10
67.1102066775
 20
191.8652159557
  0
VERTEX
  8
0
 62
7
  6
CONTINUOUS
 10
67.1093226116
 20
191.8688804498
  0
VERTEX
  8
0
 62
7
  6
CONTINUOUS
 10
67.1080980874
 20
191.8725152506
  0
VERTEX
  8
0
 62
7
  6
CONTINUOUS
 10
67.1065134007
 20
191.8761342137
  0
SEQEND
  0
POLYLINE
  8
0
 62
7
  6
CONTINUOUS
 66
1
 70
0
  0
VERTEX
  8
0
 62
7
  6
CONTINUOUS
 10
67.1102070087
 20
191.8652146491
  0
VERTEX
  8
0
 62
7
  6
CONTINUOUS
 10
67.1434138175
 20
191.7005422237
  0
VERTEX
  8
0
 62
7
  6
CONTINUOUS
 10
67.1748844244
 20
191.5570067322
  0
VERTEX
  8
0
 62
7
  6
CONTINUOUS
 10
67.1887958352
 20
191.4985724978
  0
VERTEX
  8
0
 62
7
  6
CONTINUOUS
 10
67.2109321024
 20
191.4169176593
  0
VERTEX
  8
0
 62
7
  6
CONTINUOUS
 10
67.2234610161
 20
191.3895445013
  0
SEQEND
  0
LINE
  8
0
 62
7
  6
CONTINUOUS
 10
83.2885799901
 20
238.3086363402
 11
83.2080873175
 21
238.1824049817
  0
LINE
  8
0
 62
7
  6
CONTINUOUS
 10
78.4833484085
 20
232.967862666
 11
78.4091569709
 21
232.851964884
  0
LINE
  8
0
 62
7
  6
CONTINUOUS
 10
78.5021153817
 20
232.7524608161
 11
78.5763068254
 21
232.8683585915
  0
LINE
  8
0
 62
7
  6
CONTINUOUS
 10
78.7313241374
 20
234.423143027
 11
78.6527561211
 21
234.3101662299
  0
LINE
  8
0
 62
7
  6
CONTINUOUS
 10
78.7418425615
 20
234.2071811409
 11
78.8204105779
 21
234.320157938
  0
LINE
  8
0
 62
7
  6
CONTINUOUS
 10
83.4207607659
 20
238.1493895344
 11
83.5184931464
 21
238.2462663766
  0
LINE
  8
0
 62
7
  6
CONTINUOUS
 10
84.4495589052
 20
237.4507792716
 11
84.3518265247
 21
237.3539024294
  0
LINE
  8
0
 62
7
  6
CONTINUOUS
 10
78.4091569709
 20
232.851964884
 11
78.3117258897
 21
232.7609430931
  0
LINE
  8
0
 62
7
  6
CONTINUOUS
 10
78.4046843005
 20
232.6614390251
 11
78.5021153817
 21
232.7524608161
  0
LINE
  8
0
 62
7
  6
CONTINUOUS
 10
78.7700508115
 20
233.0027707006
 11
78.8918396717
 21
233.1165479475
  0
LINE
  8
0
 62
7
  6
CONTINUOUS
 10
83.4150548992
 20
238.4223934741
 11
83.2885799901
 21
238.3086363402
  0
LINE
  8
0
 62
7
  6
CONTINUOUS
 10
84.455264784
 20
237.1777753113
 11
84.5817403495
 21
237.2915328341
  0
LINE
  8
0
 62
7
  6
CONTINUOUS
 10
79.0910771749
 20
233.2939555305
 11
79.2171266719
 21
233.4029936554
  0
LINE
  8
0
 62
7
  6
CONTINUOUS
 10
79.6709047744
 20
233.7955308303
 11
79.7969541993
 21
233.9045688928
  0
LINE
  8
0
 62
7
  6
CONTINUOUS
 10
80.0038318999
 20
234.0729327254
 11
80.1325309806
 21
234.1788303325
  0
LINE
  8
0
 62
7
  6
CONTINUOUS
 10
81.6039879951
 20
235.3277586464
 11
81.7684327391
 21
235.4415915334
  0
LINE
  8
0
 62
7
  6
CONTINUOUS
 10
82.1521369327
 20
235.7072014583
 11
82.371396696
 21
235.8589787134
  0
LINE
  8
0
 62
7
  6
CONTINUOUS
 10
82.7551012032
 20
236.1245888555
 11
82.9195459472
 21
236.2384217425
  0
LINE
  8
0
 62
7
  6
CONTINUOUS
 10
91.7698582265
 20
241.7794173547
 11
91.857310876
 21
241.8386704495
  0
LINE
  8
0
 62
7
  6
CONTINUOUS
 10
92.349688885
 20
241.3029121472
 11
92.2622362355
 21
241.2436590523
  0
LINE
  8
0
 62
7
  6
CONTINUOUS
 10
92.5025885565
 20
240.7447522489
 11
92.415135907
 21
240.6854991541
  0
LINE
  8
0
 62
7
  6
CONTINUOUS
 10
83.1406049091
 20
237.2592241056
 11
82.746585531
 21
237.0091715709
  0
LINE
  8
0
 62
7
  6
CONTINUOUS
 10
82.8377901674
 20
236.8654561947
 11
83.2318095454
 21
237.1155087295
  0
LINE
  8
0
 62
7
  6
CONTINUOUS
 10
84.3518265247
 20
237.3539024294
 11
84.121883006
 21
237.2188581638
  0
LINE
  8
0
 62
7
  6
CONTINUOUS
 10
84.2253212652
 20
237.0427310457
 11
84.455264784
 21
237.1777753113
  0
LINE
  8
0
 62
7
  6
CONTINUOUS
 10
95.5176007487
 20
242.163721994
 11
95.4250192593
 21
242.1128539001
  0
LINE
  8
0
 62
7
  6
CONTINUOUS
 10
78.284013634
 20
232.5952932674
 11
78.4046843005
 21
232.6614390251
  0
LINE
  8
0
 62
7
  6
CONTINUOUS
 10
85.3838219687
 20
237.7028798798
 11
85.6205139952
 21
237.8257125304
  0
LINE
  8
0
 62
7
  6
CONTINUOUS
 10
86.0938987256
 20
238.0713781829
 11
86.3305907521
 21
238.1942108334
  0
LINE
  8
0
 62
7
  6
CONTINUOUS
 10
91.8444902866
 20
242.0116420952
 11
91.6927393154
 21
241.9347754235
  0
LINE
  8
0
 62
7
  6
CONTINUOUS
 10
92.2750568375
 20
241.0706873607
 11
92.4268077961
 21
241.1475540783
  0
LINE
  8
0
 62
7
  6
CONTINUOUS
 10
92.4279565027
 20
240.5125274854
 11
92.5797074731
 21
240.58939416
  0
LINE
  8
0
 62
7
  6
CONTINUOUS
 10
78.8204105779
 20
234.320157938
 11
78.9435218144
 21
234.3816421907
  0
LINE
  8
0
 62
7
  6
CONTINUOUS
 10
87.816153945
 20
239.1137569124
 11
86.9065150337
 21
238.6983570436
  0
LINE
  8
0
 62
7
  6
CONTINUOUS
 10
86.809434884
 20
238.4294784842
 11
87.9010015776
 21
238.9279583267
  0
LINE
  8
0
 62
7
  6
CONTINUOUS
 10
98.1155607178
 20
242.9376716215
 11
98.2124694805
 21
242.9797143006
  0
LINE
  8
0
 62
7
  6
CONTINUOUS
 10
98.1625086827
 20
242.3608556216
 11
98.2594174454
 21
242.4028983007
  0
LINE
  8
0
 62
7
  6
CONTINUOUS
 10
98.644124402
 20
241.7852628184
 11
98.5472156393
 21
241.7432201393
  0
LINE
  8
0
 62
7
  6
CONTINUOUS
 10
78.9300650577
 20
234.5500501422
 11
78.8321637639
 21
234.5103735519
  0
LINE
  8
0
 62
7
  6
CONTINUOUS
 10
95.4276105122
 20
241.9059126287
 11
95.5858491132
 21
241.9683416894
  0
LINE
  8
0
 62
7
  6
CONTINUOUS
 10
90.8256361312
 20
240.2550628316
 11
89.7548552934
 21
239.8837520602
  0
LINE
  8
0
 62
7
  6
CONTINUOUS
 10
89.6328135025
 20
239.6252447364
 11
90.8925557494
 21
240.0620809675
  0
LINE
  8
0
 62
7
  6
CONTINUOUS
 10
83.8059534007
 20
238.6124862274
 11
83.644998418
 21
238.5574377396
  0
LINE
  8
0
 62
7
  6
CONTINUOUS
 10
84.0643669388
 20
236.9876829469
 11
84.2253212652
 21
237.0427310457
  0
LINE
  8
0
 62
7
  6
CONTINUOUS
 10
91.3396086587
 20
240.1965854457
 11
91.5307009212
 21
240.2556087225
  0
LINE
  8
0
 62
7
  6
CONTINUOUS
 10
98.2318857407
 20
243.1520702305
 11
98.068529533
 21
243.1046192889
  0
LINE
  8
0
 62
7
  6
CONTINUOUS
 10
98.2788337056
 20
242.5752542306
 11
98.1154774979
 21
242.527803289
  0
LINE
  8
0
 62
7
  6
CONTINUOUS
 10
98.527799381
 20
241.5708641857
 11
98.6911555885
 21
241.6183151302
  0
LINE
  8
0
 62
7
  6
CONTINUOUS
 10
83.7484366652
 20
238.3813106421
 11
83.8806484613
 21
238.4194784518
  0
LINE
  8
0
 62
7
  6
CONTINUOUS
 10
84.121883006
 20
237.2188581638
 11
83.9896712098
 21
237.1806903541
  0
LINE
  8
0
 62
7
  6
CONTINUOUS
 10
78.5099425093
 20
233.0858810307
 11
78.4833484085
 21
232.967862666
  0
LINE
  8
0
 62
7
  6
CONTINUOUS
 10
78.6527561211
 20
234.3101662299
 11
78.6216697297
 21
234.1932508853
  0
LINE
  8
0
 62
7
  6
CONTINUOUS
 10
78.7107561701
 20
234.0902657963
 11
78.7418425615
 21
234.2071811409
  0
LINE
  8
0
 62
7
  6
CONTINUOUS
 10
78.5763068254
 20
232.8683585915
 11
78.6017827807
 21
232.9387455203
  0
LINE
  8
0
 62
7
  6
CONTINUOUS
 10
83.3690112799
 20
238.040038854
 11
83.4207607659
 21
238.1493895344
  0
LINE
  8
0
 62
7
  6
CONTINUOUS
 10
84.5013083792
 20
237.5601299725
 11
84.4495589052
 21
237.4507792716
  0
LINE
  8
0
 62
7
  6
CONTINUOUS
 10
84.5817403495
 20
237.2915328341
 11
84.6622323597
 21
237.4177638139
  0
LINE
  8
0
 62
7
  6
CONTINUOUS
 10
91.6913996742
 20
241.6873313287
 11
91.7698582265
 21
241.7794173547
  0
LINE
  8
0
 62
7
  6
CONTINUOUS
 10
92.4281474373
 20
241.3949981731
 11
92.349688885
 21
241.3029121472
  0
LINE
  8
0
 62
7
  6
CONTINUOUS
 10
92.4268077961
 20
241.1475540783
 11
92.5837249006
 21
241.3317261303
  0
LINE
  8
0
 62
7
  6
CONTINUOUS
 10
92.5810471088
 20
240.8368382749
 11
92.5025885565
 21
240.7447522489
  0
LINE
  8
0
 62
7
  6
CONTINUOUS
 10
95.5858491132
 20
241.9683416894
 11
95.6994515537
 21
242.0920436863
  0
LINE
  8
0
 62
7
  6
CONTINUOUS
 10
91.6927393154
 20
241.9347754235
 11
91.5589765387
 21
241.7922428895
  0
LINE
  8
0
 62
7
  6
CONTINUOUS
 10
92.5797074731
 20
240.58939416
 11
92.7134702475
 21
240.7319267026
  0
LINE
  8
0
 62
7
  6
CONTINUOUS
 10
98.0214135997
 20
242.861698595
 11
98.1155607178
 21
242.9376716215
  0
LINE
  8
0
 62
7
  6
CONTINUOUS
 10
98.1154774979
 20
242.527803289
 11
97.9271832616
 21
242.375857236
  0
LINE
  8
0
 62
7
  6
CONTINUOUS
 10
98.0683615646
 20
242.2848825951
 11
98.1625086827
 21
242.3608556216
  0
LINE
  8
0
 62
7
  6
CONTINUOUS
 10
98.7382715201
 20
241.8612358449
 11
98.644124402
 21
241.7852628184
  0
LINE
  8
0
 62
7
  6
CONTINUOUS
 10
98.068529533
 20
243.1046192889
 11
97.9106966143
 21
242.9893076526
  0
LINE
  8
0
 62
7
  6
CONTINUOUS
 10
98.6911555885
 20
241.6183151302
 11
98.8489885064
 21
241.7336267754
  0
LINE
  8
0
 62
7
  6
CONTINUOUS
 10
78.3117258897
 20
232.7609430931
 11
78.1678156165
 21
232.7196733567
  0
LINE
  8
0
 62
7
  6
CONTINUOUS
 10
78.6017827807
 20
232.9387455203
 11
78.6051372338
 21
233.0816398803
  0
LINE
  8
0
 62
7
  6
CONTINUOUS
 10
78.6216697297
 20
234.1932508853
 11
78.6157931367
 21
234.0981430784
  0
LINE
  8
0
 62
7
  6
CONTINUOUS
 10
78.7048795771
 20
233.9951579893
 11
78.7107561701
 21
234.0902657963
  0
LINE
  8
0
 62
7
  6
CONTINUOUS
 10
83.2080873175
 20
238.1824049817
 11
83.1620740606
 21
237.9974645908
  0
LINE
  8
0
 62
7
  6
CONTINUOUS
 10
84.6622323597
 20
237.4177638139
 11
84.7082456105
 21
237.6027042152
  0
LINE
  8
0
 62
7
  6
CONTINUOUS
 10
89.7548552934
 20
239.8837520602
 11
90.4464249509
 21
241.3486267585
  0
LINE
  8
0
 62
7
  6
CONTINUOUS
 10
90.2666515343
 20
241.3583498226
 11
89.5435873475
 21
239.8825538811
  0
LINE
  8
0
 62
7
  6
CONTINUOUS
 10
95.5714495042
 20
242.2423362481
 11
95.5176007487
 21
242.163721994
  0
LINE
  8
0
 62
7
  6
CONTINUOUS
 10
98.0074389294
 20
242.2116137617
 11
98.0683615646
 21
242.2848825951
  0
LINE
  8
0
 62
7
  6
CONTINUOUS
 10
83.3632447365
 20
237.9182142532
 11
83.3690112799
 21
238.040038854
  0
LINE
  8
0
 62
7
  6
CONTINUOUS
 10
91.6540851158
 20
241.5712193616
 11
91.6913996742
 21
241.6873313287
  0
LINE
  8
0
 62
7
  6
CONTINUOUS
 10
91.5589765387
 20
241.7922428895
 11
91.4985061808
 21
241.6344910013
  0
LINE
  8
0
 62
7
  6
CONTINUOUS
 10
92.7134702475
 20
240.7319267026
 11
92.7739406022
 21
240.8896786023
  0
LINE
  8
0
 62
7
  6
CONTINUOUS
 10
90.8674224441
 20
241.7253235458
 11
90.7466557796
 21
241.4386158982
  0
LINE
  8
0
 62
7
  6
CONTINUOUS
 10
90.8270279198
 20
241.1784050977
 11
90.9477945562
 21
241.4651128364
  0
LINE
  8
0
 62
7
  6
CONTINUOUS
 10
95.6994515537
 20
242.0920436863
 11
95.774322763
 21
242.243492108
  0
LINE
  8
0
 62
7
  6
CONTINUOUS
 10
97.9632526091
 20
242.7544994143
 11
98.0214135997
 21
242.861698595
  0
LINE
  8
0
 62
7
  6
CONTINUOUS
 10
97.9106966143
 20
242.9893076526
 11
97.8220727853
 21
242.8454739314
  0
LINE
  8
0
 62
7
  6
CONTINUOUS
 10
98.8489885064
 20
241.7336267754
 11
98.9376123345
 21
241.8774605085
  0
LINE
  8
0
 62
7
  6
CONTINUOUS
 10
97.2516355771
 20
232.9674974089
 11
76.69477094
 21
212.4106327717
  0
LINE
  8
0
 62
7
  6
CONTINUOUS
 10
76.69477094
 20
204.6832261614
 11
97.2516355771
 21
184.1263615243
  0
LINE
  8
0
 62
7
  6
CONTINUOUS
 10
83.1620740606
 20
237.9974645908
 11
83.1735471768
 21
237.8462855559
  0
LINE
  8
0
 62
7
  6
CONTINUOUS
 10
84.5070749708
 20
237.681954491
 11
84.5013083792
 21
237.5601299725
  0
LINE
  8
0
 62
7
  6
CONTINUOUS
 10
92.4654619957
 20
241.5111101402
 11
92.4281474373
 21
241.3949981731
  0
LINE
  8
0
 62
7
  6
CONTINUOUS
 10
92.6183616609
 20
240.952950265
 11
92.5810471088
 21
240.8368382749
  0
LINE
  8
0
 62
7
  6
CONTINUOUS
 10
98.7964325088
 20
241.9684350494
 11
98.7382715201
 21
241.8612358449
  0
LINE
  8
0
 62
7
  6
CONTINUOUS
 10
78.4889392142
 20
233.2060199717
 11
78.5099425093
 21
233.0858810307
  0
LINE
  8
0
 62
7
  6
CONTINUOUS
 10
84.7082456105
 20
237.6027042152
 11
84.6967724822
 21
237.7538832705
  0
LINE
  8
0
 62
7
  6
CONTINUOUS
 10
91.648917536
 20
241.4639134862
 11
91.6540851158
 21
241.5712193616
  0
LINE
  8
0
 62
7
  6
CONTINUOUS
 10
91.4985061808
 20
241.6344910013
 11
91.479179842
 21
241.4527130799
  0
LINE
  8
0
 62
7
  6
CONTINUOUS
 10
92.7739406022
 20
240.8896786023
 11
92.7932669599
 21
241.0714564547
  0
LINE
  8
0
 62
7
  6
CONTINUOUS
 10
96.5675728515
 20
242.9731001333
 11
96.2420184444
 21
241.31827088
  0
LINE
  8
0
 62
7
  6
CONTINUOUS
 10
97.8220727853
 20
242.8454739314
 11
97.7694350915
 21
242.670413961
  0
LINE
  8
0
 62
7
  6
CONTINUOUS
 10
98.9376123345
 20
241.8774605085
 11
98.9902500341
 21
242.0525204077
  0
LINE
  8
0
 62
7
  6
CONTINUOUS
 10
81.7622157351
 20
237.3832303641
 11
82.1648879164
 21
235.923043171
  0
LINE
  8
0
 62
7
  6
CONTINUOUS
 10
82.371396696
 20
235.8589787134
 11
82.0381961896
 21
237.1602408937
  0
LINE
  8
0
 62
7
  6
CONTINUOUS
 10
92.4706296007
 20
241.6184159236
 11
92.4654619957
 21
241.5111101402
  0
LINE
  8
0
 62
7
  6
CONTINUOUS
 10
92.6235292659
 20
241.0602560484
 11
92.6183616609
 21
240.952950265
  0
LINE
  8
0
 62
7
  6
CONTINUOUS
 10
95.5865685313
 20
242.3486971916
 11
95.5714495042
 21
242.2423362481
  0
LINE
  8
0
 62
7
  6
CONTINUOUS
 10
95.774322763
 20
242.243492108
 11
95.7894417901
 21
242.3498530516
  0
LINE
  8
0
 62
7
  6
CONTINUOUS
 10
96.5364494484
 20
241.9051545243
 11
96.7171383155
 21
242.8549894372
  0
LINE
  8
0
 62
7
  6
CONTINUOUS
 10
96.4403949733
 20
241.3437022148
 11
96.5207021474
 21
241.7658511786
  0
LINE
  8
0
 62
7
  6
CONTINUOUS
 10
97.9383130674
 20
242.6500040841
 11
97.9632526091
 21
242.7544994143
  0
LINE
  8
0
 62
7
  6
CONTINUOUS
 10
97.9824993839
 20
242.107118479
 11
98.0074389294
 21
242.2116137617
  0
LINE
  8
0
 62
7
  6
CONTINUOUS
 10
98.8213720582
 20
242.0729302845
 11
98.7964325088
 21
241.9684350494
  0
LINE
  8
0
 62
7
  6
CONTINUOUS
 10
83.1735471768
 20
237.8462855559
 11
83.2310025779
 21
237.6826322144
  0
LINE
  8
0
 62
7
  6
CONTINUOUS
 10
83.4034603814
 20
237.7839155101
 11
83.3632447365
 21
237.9182142532
  0
LINE
  8
0
 62
7
  6
CONTINUOUS
 10
84.4668593259
 20
237.8162532341
 11
84.5070749708
 21
237.681954491
  0
LINE
  8
0
 62
7
  6
CONTINUOUS
 10
85.001863741
 20
239.3072825451
 11
85.3296790746
 21
238.0966723864
  0
LINE
  8
0
 62
7
  6
CONTINUOUS
 10
92.6017130951
 20
241.266060268
 11
92.6235292659
 21
241.0602560484
  0
LINE
  8
0
 62
9
  6
CONTINUOUS
 10
93.2918487059
 20
171.4872255968
 11
93.2458794571
 21
170.5897213315
  0
LINE
  8
0
 62
7
  6
CONTINUOUS
 10
92.8029325754
 20
171.4801911488
 11
92.761545437
 21
170.7146890846
  0
LINE
  8
0
 62
7
  6
CONTINUOUS
 10
97.7694350915
 20
242.670413961
 11
97.7555421203
 21
242.4301973364
  0
LINE
  8
0
 62
7
  6
CONTINUOUS
 10
97.9216599725
 20
242.4437179307
 11
97.9383130674
 21
242.6500040841
  0
LINE
  8
0
 62
7
  6
CONTINUOUS
 10
99.1024623964
 20
247.2381766098
 11
99.0172866102
 21
246.4762986605
  0
LINE
  8
0
 62
9
  6
CONTINUOUS
 10
99.6007597478
 20
247.2817212061
 11
99.4983766477
 21
246.3888907063
  0
LINE
  8
0
 62
9
  6
CONTINUOUS
 10
81.6824809311
 20
176.035505586
 11
81.3475831411
 21
175.2015568639
  0
LINE
  8
0
 62
7
  6
CONTINUOUS
 10
81.2177708987
 20
176.1876013274
 11
80.9300686373
 21
175.4770165186
  0
LINE
  8
0
 62
7
  6
CONTINUOUS
 10
111.7745530068
 20
245.7953580441
 11
111.4466107496
 21
245.1024170102
  0
LINE
  8
0
 62
9
  6
CONTINUOUS
 10
112.2599901405
 20
245.6747463885
 11
111.8732528123
 21
244.8635356581
  0
LINE
  8
0
 62
9
  6
CONTINUOUS
 10
72.1789640212
 20
184.1069033743
 11
71.5914298881
 21
183.4268809245
  0
LINE
  8
0
 62
7
  6
CONTINUOUS
 10
71.7888196061
 20
184.401649124
 11
71.2859790754
 21
183.8229821532
  0
LINE
  8
0
 62
7
  6
CONTINUOUS
 10
123.291552372
 20
240.3160942731
 11
122.7563864036
 21
239.7671855199
  0
LINE
  8
0
 62
9
  6
CONTINUOUS
 10
123.7115246424
 20
240.04439651
 11
123.0823371624
 21
239.402718988
  0
LINE
  8
0
 62
9
  6
CONTINUOUS
 10
65.8111527821
 20
194.8267575264
 11
65.0346502851
 21
194.3743520224
  0
LINE
  8
0
 62
7
  6
CONTINUOUS
 10
65.5378529794
 20
195.2322132735
 11
64.8743634987
 21
194.8481711107
  0
LINE
  8
0
 62
7
  6
CONTINUOUS
 10
132.4054149063
 20
231.3941485459
 11
131.7210104767
 21
231.0487474857
  0
LINE
  8
0
 62
9
  6
CONTINUOUS
 10
132.7144118011
 20
231.0008073438
 11
131.9109647409
 21
230.5981897576
  0
LINE
  8
0
 62
9
  6
CONTINUOUS
 10
138.6945238635
 20
203.8105258642
 11
139.5927587161
 21
203.8388296389
  0
LINE
  8
0
 62
7
  6
CONTINUOUS
 10
139.5082137776
 20
203.3458301098
 11
138.7419086447
 21
203.3238612414
  0
LINE
  8
0
 62
7
  6
CONTINUOUS
 10
62.722463987
 20
203.3458301098
 11
63.4887774062
 21
203.3238600737
  0
LINE
  8
0
 62
9
  6
CONTINUOUS
 10
62.6379190485
 20
203.8388296389
 11
63.5361549697
 21
203.8105258273
  0
LINE
  8
0
 62
9
  6
CONTINUOUS
 10
135.1204723319
 20
191.8652169337
 11
135.9792284622
 21
191.6003296775
  0
LINE
  8
0
 62
7
  6
CONTINUOUS
 10
135.7391877163
 20
191.1614939194
 11
135.00726579
 21
191.3895350346
  0
LINE
  8
0
 62
7
  6
CONTINUOUS
 10
63.1139016474
 20
216.0937861189
 11
63.83155675
 21
215.8241867935
  0
LINE
  8
0
 62
9
  6
CONTINUOUS
 10
63.1940142723
 20
216.5875252703
 11
64.0343903621
 21
216.2690972238
  0
LINE
  8
0
 62
9
  6
CONTINUOUS
 10
127.8614371301
 20
181.7276293476
 11
128.5876548034
 21
181.1982567568
  0
LINE
  8
0
 62
7
  6
CONTINUOUS
 10
127.5999095687
 20
181.3144800437
 11
128.2181303894
 21
180.8611394333
  0
LINE
  8
0
 62
7
  6
CONTINUOUS
 10
67.6233846853
 20
228.0239231081
 11
68.2146167895
 21
227.535908885
  0
LINE
  8
0
 62
9
  6
CONTINUOUS
 10
67.8594734276
 20
228.4648975837
 11
68.5509222026
 21
227.890853156
  0
LINE
  8
0
 62
9
  6
CONTINUOUS
 10
117.7040429911
 20
174.4963252532
 11
118.2190294376
 21
173.7598368827
  0
LINE
  8
0
 62
7
  6
CONTINUOUS
 10
117.3225457547
 20
174.1904773365
 11
117.7600650597
 21
173.5609698867
  0
LINE
  8
0
 62
7
  6
CONTINUOUS
 10
75.7622406416
 20
237.8434256197
 11
76.1629794575
 21
237.1898821861
  0
LINE
  8
0
 62
9
  6
CONTINUOUS
 10
76.1287216228
 20
238.1838489925
 11
76.5963143102
 21
237.4163950866
  0
LINE
  8
0
 62
7
  6
CONTINUOUS
 10
84.6967724822
 20
237.7538832705
 11
84.6393171295
 21
237.9175365299
  0
LINE
  8
0
 62
7
  6
CONTINUOUS
 10
85.6527669834
 20
239.6450724219
 11
86.0397558315
 21
238.4651706894
  0
LINE
  8
0
 62
7
  6
CONTINUOUS
 10
86.3305907521
 20
238.1942108334
 11
85.8302861726
 21
239.7371969977
  0
LINE
  8
0
 62
9
  6
CONTINUOUS
 10
105.7490037739
 20
170.9549357436
 11
105.9969538091
 21
170.0911382673
  0
LINE
  8
0
 62
7
  6
CONTINUOUS
 10
105.2888737988
 20
170.7895307944
 11
105.498285379
 21
170.0520719236
  0
LINE
  8
0
 62
7
  6
CONTINUOUS
 10
85.6205139952
 20
237.8257125304
 11
85.2613364086
 21
239.0967544372
  0
LINE
  8
0
 62
7
  6
CONTINUOUS
 10
86.6484981862
 20
244.488198191
 11
86.8153186323
 21
243.7399461337
  0
LINE
  8
0
 62
9
  6
CONTINUOUS
 10
87.1056575054
 20
244.6911803064
 11
87.298723498
 21
243.8134821547
  0
LINE
  8
0
 62
7
  6
CONTINUOUS
 10
92.7932669599
 20
241.0714564547
 11
92.7624581634
 21
241.3100940086
  0
LINE
  8
0
 62
7
  6
CONTINUOUS
 10
97.7555421203
 20
242.4301973364
 11
97.774873632
 21
242.192684905
  0
LINE
  8
0
 62
7
  6
CONTINUOUS
 10
97.9271832616
 20
242.375857236
 11
97.9216599725
 21
242.4437179307
  0
LINE
  8
0
 62
7
  6
CONTINUOUS
 10
97.9907843175
 20
242.005327437
 11
97.9824993839
 21
242.107118479
  0
LINE
  8
0
 62
7
  6
CONTINUOUS
 10
98.8130871245
 20
242.1747213266
 11
98.8213720582
 21
242.0729302845
  0
LINE
  8
0
 62
9
  6
CONTINUOUS
 10
99.5837270838
 20
249.3932241614
 11
99.6008295063
 21
248.9371225646
  0
LINE
  8
0
 62
9
  6
CONTINUOUS
 10
101.9962729834
 20
173.4329781066
 11
102.0088129705
 21
172.9331353826
  0
LINE
  8
0
 62
7
  6
CONTINUOUS
 10
99.1024623964
 20
248.8935752967
 11
99.1024623964
 21
247.2381766098
  0
LINE
  8
0
 62
9
  6
CONTINUOUS
 10
99.6008326866
 20
248.9371226838
 11
99.6007597478
 21
247.2817212061
  0
LINE
  8
0
 62
2
  6
CONTINUOUS
 10
101.1153388823
 20
209.4269294666
 11
101.1153388823
 21
207.6669294666
  0
LINE
  8
DEFAULT_1
 62
2
  6
CENTER
 10
101.1153388823
 20
204.1469294666
 11
101.1153388823
 21
165.1093551503
  0
LINE
  8
DEFAULT_1
 62
2
  6
CENTER
 10
101.1153388823
 20
212.9469294666
 11
101.1153388823
 21
251.9845037829
  0
LINE
  8
0
 62
9
  6
CONTINUOUS
 10
100.2344047812
 20
173.4329781066
 11
100.221864794
 21
172.9331353826
  0
LINE
  8
0
 62
9
  6
CONTINUOUS
 10
102.6298482583
 20
248.9371225646
 11
102.6469506807
 21
249.3932241614
  0
LINE
  8
0
 62
9
  6
CONTINUOUS
 10
95.9029823523
 20
168.0056299758
 11
95.9611850401
 21
168.4583259075
  0
LINE
  8
0
 62
9
  6
CONTINUOUS
 10
106.0259860114
 20
243.326969285
 11
106.0958884616
 21
243.8220588198
  0
LINE
  8
0
 62
9
  6
CONTINUOUS
 10
93.2458794571
 20
170.5897213315
 11
92.9734814121
 21
168.9568853383
  0
LINE
  8
0
 62
7
  6
CONTINUOUS
 10
92.761545437
 20
170.7146890846
 11
92.4890757684
 21
169.0818678782
  0
LINE
  8
0
 62
9
  6
CONTINUOUS
 10
107.7638246277
 20
243.0369753102
 11
107.8584649942
 21
243.5279368169
  0
LINE
  8
0
 62
9
  6
CONTINUOUS
 10
92.9734781558
 20
168.956886008
 11
92.8815371327
 21
168.5098200086
  0
LINE
  8
0
 62
9
  6
CONTINUOUS
 10
112.9294842421
 20
247.6773727865
 11
112.7975640617
 21
247.2404308848
  0
LINE
  8
0
 62
9
  6
CONTINUOUS
 10
90.5470601756
 20
175.0495100111
 11
90.3966220445
 21
174.5726784174
  0
LINE
  8
0
 62
7
  6
CONTINUOUS
 10
112.3120600817
 20
247.361062664
 11
111.7745530068
 21
245.7953580441
  0
LINE
  8
0
 62
9
  6
CONTINUOUS
 10
112.7975671084
 20
247.2404299649
 11
112.2599901405
 21
245.6747463885
  0
LINE
  8
0
 62
9
  6
CONTINUOUS
 10
88.8806548524
 20
175.6215876811
 11
88.7064956491
 21
175.1528995418
  0
LINE
  8
0
 62
9
  6
CONTINUOUS
 10
115.6624622228
 20
246.2569101038
 11
115.8267339352
 21
246.6827457106
  0
LINE
  8
0
 62
9
  6
CONTINUOUS
 10
83.0216637808
 20
171.8947188058
 11
83.2237030152
 21
172.3039880415
  0
LINE
  8
0
 62
9
  6
CONTINUOUS
 10
117.0529740728
 20
239.8480062777
 11
117.2798443247
 21
240.2935732073
  0
LINE
  8
0
 62
7
  6
CONTINUOUS
 10
80.9300686373
 20
175.4770165186
 11
80.1421859479
 21
174.0211368258
  0
LINE
  8
0
 62
9
  6
CONTINUOUS
 10
81.3475831411
 20
175.2015568639
 11
80.5597633933
 21
173.7456399293
  0
LINE
  8
0
 62
9
  6
CONTINUOUS
 10
118.6024909097
 20
239.0094497
 11
118.8514183407
 21
239.4430798812
  0
LINE
  8
0
 62
9
  6
CONTINUOUS
 10
80.5597605309
 20
173.74564162
 11
80.3276390333
 21
173.352652091
  0
LINE
  8
0
 62
9
  6
CONTINUOUS
 10
124.9949954353
 20
241.7211307066
 11
124.7283482506
 21
241.3506979348
  0
LINE
  8
0
 62
9
  6
CONTINUOUS
 10
80.2430843495
 20
180.2960070795
 11
79.9459704059
 21
179.8938587182
  0
LINE
  8
0
 62
7
  6
CONTINUOUS
 10
124.30831929
 20
241.6224364361
 11
123.291552372
 21
240.3160942731
  0
LINE
  8
0
 62
9
  6
CONTINUOUS
 10
124.7283508336
 20
241.3506960755
 11
123.7115246424
 21
240.04439651
  0
LINE
  8
0
 62
9
  6
CONTINUOUS
 10
78.852722779
 20
181.3781689274
 11
78.5358172116
 21
180.9914250051
  0
LINE
  8
0
 62
9
  6
CONTINUOUS
 10
127.1186696515
 20
239.4902361103
 11
127.412309265
 21
239.8396598315
  0
LINE
  8
0
 62
9
  6
CONTINUOUS
 10
72.1010756589
 20
179.7556433786
 11
72.4250573538
 21
180.077135246
  0
LINE
  8
0
 62
9
  6
CONTINUOUS
 10
126.3528720635
 20
232.9770859115
 11
126.7121252049
 21
233.3248461456
  0
LINE
  8
0
 62
7
  6
CONTINUOUS
 10
71.2859790754
 20
183.8229821532
 11
70.0680626797
 21
182.7018111289
  0
LINE
  8
0
 62
9
  6
CONTINUOUS
 10
71.5914298881
 20
183.4268809245
 11
70.3735609313
 21
182.3056542392
  0
LINE
  8
0
 62
9
  6
CONTINUOUS
 10
127.5461529285
 20
231.6808373477
 11
127.9223922744
 21
232.010145645
  0
LINE
  8
0
 62
9
  6
CONTINUOUS
 10
70.3735587729
 20
182.3056567678
 11
70.0264107669
 21
182.0093302226
  0
LINE
  8
0
 62
9
  6
CONTINUOUS
 10
134.4727753099
 20
232.1699491714
 11
134.1002964808
 21
231.9061676684
  0
LINE
  8
0
 62
9
  6
CONTINUOUS
 10
72.2009411684
 20
188.6039299469
 11
71.7893483184
 21
188.3200438327
  0
LINE
  8
0
 62
7
  6
CONTINUOUS
 10
133.7912591951
 20
232.2995658087
 11
132.4054149063
 21
231.3941485459
  0
LINE
  8
0
 62
9
  6
CONTINUOUS
 10
134.1002983201
 20
231.9061650711
 11
132.7144118011
 21
231.0008073438
  0
LINE
  8
0
 62
9
  6
CONTINUOUS
 10
71.2372906004
 20
190.0789069448
 11
70.8119803045
 21
189.8160169445
  0
LINE
  8
0
 62
9
  6
CONTINUOUS
 10
135.7570127082
 20
229.3703747071
 11
136.1481998142
 21
229.6055210607
  0
LINE
  8
0
 62
9
  6
CONTINUOUS
 10
64.3246331598
 20
190.7365505418
 11
64.7354488716
 21
190.9354264087
  0
LINE
  8
0
 62
9
  6
CONTINUOUS
 10
132.9178917334
 20
223.4587790217
 11
133.3705971121
 21
223.6710473427
  0
LINE
  8
0
 62
7
  6
CONTINUOUS
 10
64.8743634987
 20
194.8481711107
 11
63.3583935363
 21
194.1832050322
  0
LINE
  8
0
 62
9
  6
CONTINUOUS
 10
65.0346502851
 20
194.3743520224
 11
63.5187071181
 21
193.7093178954
  0
LINE
  8
0
 62
9
  6
CONTINUOUS
 10
133.625626129
 20
221.845307117
 11
134.0884060187
 21
222.0346078665
  0
LINE
  8
0
 62
9
  6
CONTINUOUS
 10
63.5187058977
 20
193.7093209878
 11
63.0941502563
 21
193.5417690054
  0
LINE
  8
0
 62
9
  6
CONTINUOUS
 10
140.3357593537
 20
220.0588469024
 11
139.8978127409
 21
219.9303014868
  0
LINE
  8
0
 62
9
  6
CONTINUOUS
 10
67.2921216327
 20
199.0729862597
 11
66.810652348
 21
198.9381258582
  0
LINE
  8
0
 62
7
  6
CONTINUOUS
 10
140.7215200444
 20
216.5001624719
 11
139.1167761172
 21
216.0937861189
  0
LINE
  8
0
 62
9
  6
CONTINUOUS
 10
139.0366634923
 20
216.5875252703
 11
140.64139219
 21
216.9939731541
  0
LINE
  8
0
 62
9
  6
CONTINUOUS
 10
66.8596085588
 20
200.7809417634
 11
66.3719825044
 21
200.6703938958
  0
LINE
  8
0
 62
9
  6
CONTINUOUS
 10
140.6413928848
 20
216.9939699031
 11
141.0877362906
 21
217.0893571329
  0
LINE
  8
0
 62
9
  6
CONTINUOUS
 10
60.5350344924
 20
203.6474886181
 11
60.9881659642
 21
203.7021971984
  0
LINE
  8
0
 62
9
  6
CONTINUOUS
 10
136.0366113343
 20
212.3245418513
 11
136.5337112981
 21
212.3783156931
  0
LINE
  8
0
 62
7
  6
CONTINUOUS
 10
62.722463987
 20
203.3458301098
 11
61.0727193259
 21
203.2091283697
  0
LINE
  8
0
 62
9
  6
CONTINUOUS
 10
60.9881655828
 20
203.702200358
 11
62.6379190485
 21
203.8388296389
  0
LINE
  8
0
 62
9
  6
CONTINUOUS
 10
136.1821052573
 20
210.5686913223
 11
136.6812763089
 21
210.5974708505
  0
LINE
  8
0
 62
9
  6
CONTINUOUS
 10
60.7380315783
 20
206.7208703157
 11
60.2820754928
 21
206.7002497534
  0
LINE
  8
0
 62
2
  6
CONTINUOUS
 10
101.9953388823
 20
208.5469294666
 11
100.2353388823
 21
208.5469294666
  0
LINE
  8
DEFAULT_1
 62
2
  6
CENTER
 10
96.7153388823
 20
208.5469294666
 11
57.677764566
 21
208.5469294666
  0
LINE
  8
DEFAULT_1
 62
2
  6
CENTER
 10
105.5153388823
 20
208.5469294666
 11
144.5529131986
 21
208.5469294666
  0
LINE
  8
0
 62
9
  6
CONTINUOUS
 10
141.9486022718
 20
206.7002497534
 11
141.4926461863
 21
206.7208703157
  0
LINE
  8
0
 62
9
  6
CONTINUOUS
 10
66.0485725073
 20
210.5686913223
 11
65.5494014557
 21
210.5974708506
  0
LINE
  8
0
 62
7
  6
CONTINUOUS
 10
141.1579584387
 20
203.2091283697
 11
139.5082137776
 21
203.3458301098
  0
LINE
  8
0
 62
9
  6
CONTINUOUS
 10
139.5927587161
 20
203.8388296389
 11
141.2425121988
 21
203.7022004989
  0
LINE
  8
0
 62
9
  6
CONTINUOUS
 10
66.1940664302
 20
212.3245418513
 11
65.6969664665
 21
212.3783156931
  0
LINE
  8
0
 62
9
  6
CONTINUOUS
 10
141.2425118003
 20
203.7021971984
 11
141.6956432721
 21
203.6474886181
  0
LINE
  8
0
 62
9
  6
CONTINUOUS
 10
61.142941474
 20
217.0893571329
 11
61.5892848798
 21
216.9939699031
  0
LINE
  8
0
 62
9
  6
CONTINUOUS
 10
135.3710692058
 20
200.7809417634
 11
135.8586952602
 21
200.6703938957
  0
LINE
  8
0
 62
7
  6
CONTINUOUS
 10
63.1139016474
 20
216.0937861189
 11
61.5091577201
 21
216.5001624719
  0
LINE
  8
0
 62
9
  6
CONTINUOUS
 10
61.5892855449
 20
216.9939730153
 11
63.1940142723
 21
216.5875252703
  0
LINE
  8
0
 62
9
  6
CONTINUOUS
 10
134.9385561319
 20
199.0729862597
 11
135.4200254166
 21
198.9381258582
  0
LINE
  8
0
 62
9
  6
CONTINUOUS
 10
62.3328650237
 20
219.9303014868
 11
61.8949184109
 21
220.0588469024
  0
LINE
  8
0
 62
9
  6
CONTINUOUS
 10
139.1365275083
 20
193.5417690054
 11
138.7119718668
 21
193.7093209878
  0
LINE
  8
0
 62
9
  6
CONTINUOUS
 10
68.6050516355
 20
221.8453071171
 11
68.1422717459
 21
222.0346078666
  0
LINE
  8
0
 62
9
  6
CONTINUOUS
 10
135.9792284622
 20
191.6003296775
 11
137.4952303415
 21
190.935429401
  0
LINE
  8
0
 62
7
  6
CONTINUOUS
 10
137.2551576787
 20
190.4965278409
 11
135.7391877163
 21
191.1614939194
  0
LINE
  8
0
 62
9
  6
CONTINUOUS
 10
69.3127860312
 20
223.4587790217
 11
68.8600806525
 21
223.6710473428
  0
LINE
  8
0
 62
9
  6
CONTINUOUS
 10
137.4952288929
 20
190.9354264087
 11
137.9060446047
 21
190.7365505418
  0
LINE
  8
0
 62
9
  6
CONTINUOUS
 10
66.0824779504
 20
229.6055210607
 11
66.4736650564
 21
229.3703747071
  0
LINE
  8
0
 62
9
  6
CONTINUOUS
 10
130.9933871642
 20
190.0789069448
 11
131.41869746
 21
189.8160169445
  0
LINE
  8
0
 62
7
  6
CONTINUOUS
 10
66.2375403965
 20
228.9293403709
 11
67.6233846853
 21
228.0239231081
  0
LINE
  8
0
 62
9
  6
CONTINUOUS
 10
66.473666696
 20
229.3703774348
 11
67.8594734276
 21
228.4648975837
  0
LINE
  8
0
 62
9
  6
CONTINUOUS
 10
130.0297365962
 20
188.6039299469
 11
130.4413294462
 21
188.3200438327
  0
LINE
  8
0
 62
9
  6
CONTINUOUS
 10
68.1303812837
 20
231.9061676684
 11
67.7579024546
 21
232.1699491714
  0
LINE
  8
0
 62
9
  6
CONTINUOUS
 10
132.2042669977
 20
182.0093302226
 11
131.8571189916
 21
182.3056567678
  0
LINE
  8
0
 62
9
  6
CONTINUOUS
 10
74.6845248361
 20
231.6808373478
 11
74.3082854902
 21
232.010145645
  0
LINE
  8
0
 62
7
  6
CONTINUOUS
 10
129.4360467851
 20
179.739968409
 11
128.2181303894
 21
180.8611394333
  0
LINE
  8
0
 62
9
  6
CONTINUOUS
 10
128.5876548034
 20
181.1982567568
 11
129.8056227524
 21
180.0771376058
  0
LINE
  8
0
 62
9
  6
CONTINUOUS
 10
75.877805701
 20
232.9770859115
 11
75.5185525597
 21
233.3248461456
  0
LINE
  8
0
 62
9
  6
CONTINUOUS
 10
129.8056204108
 20
180.077135246
 11
130.1296021057
 21
179.7556433786
  0
LINE
  8
0
 62
7
  6
CONTINUOUS
 10
77.3687238053
 20
233.1844062281
 11
77.8335158512
 21
232.6868858972
  0
LINE
  8
0
 62
7
  6
CONTINUOUS
 10
77.9553046853
 20
232.8006631197
 11
77.4905126394
 21
233.2981834505
  0
LINE
  8
0
 62
7
  6
CONTINUOUS
 10
77.977667967
 20
233.7532923322
 11
78.4889392142
 21
233.2060199717
  0
LINE
  8
0
 62
7
  6
CONTINUOUS
 10
78.7036864934
 20
233.2202931419
 11
78.0994568272
 21
233.867069579
  0
LINE
  8
0
 62
7
  6
CONTINUOUS
 10
78.3783855892
 20
234.1178363147
 11
79.0910771749
 21
233.2939555305
  0
LINE
  8
0
 62
7
  6
CONTINUOUS
 10
79.2171266719
 20
233.4029936554
 11
78.7048795771
 21
233.9951579893
  0
LINE
  8
0
 62
7
  6
CONTINUOUS
 10
78.6157931367
 20
234.0981430784
 11
78.5044350862
 21
234.2268744396
  0
LINE
  8
0
 62
7
  6
CONTINUOUS
 10
79.2477441201
 20
234.2847100752
 11
79.6709047744
 21
233.7955308303
  0
LINE
  8
0
 62
7
  6
CONTINUOUS
 10
79.7969541993
 20
233.9045688928
 11
79.3737935449
 21
234.3937481377
  0
LINE
  8
0
 62
9
  6
CONTINUOUS
 10
74.8183684996
 20
239.8396598315
 11
75.112008113
 21
239.4902361103
  0
LINE
  8
0
 62
7
  6
CONTINUOUS
 10
78.9872144838
 20
235.3084443722
 11
79.0953652598
 21
235.1770069786
  0
LINE
  8
0
 62
7
  6
CONTINUOUS
 10
79.3116668725
 20
234.9141321179
 11
80.0038318999
 21
234.0729327254
  0
LINE
  8
0
 62
7
  6
CONTINUOUS
 10
80.1325309806
 20
234.1788303325
 11
79.4403659533
 21
235.020029725
  0
LINE
  8
0
 62
7
  6
CONTINUOUS
 10
79.2240643406
 20
235.2829045858
 11
79.1159135646
 21
235.4143419793
  0
LINE
  8
0
 62
9
  6
CONTINUOUS
 10
123.3779549856
 20
181.3781689274
 11
123.6948605529
 21
180.9914250051
  0
LINE
  8
0
 62
7
  6
CONTINUOUS
 10
74.7454737236
 20
239.1497677826
 11
75.7622406416
 21
237.8434256197
  0
LINE
  8
0
 62
9
  6
CONTINUOUS
 10
75.1120105495
 20
239.4902381578
 11
76.1287216228
 21
238.1838489925
  0
LINE
  8
0
 62
9
  6
CONTINUOUS
 10
121.9875934151
 20
180.2960070795
 11
122.2847073586
 21
179.8938587182
  0
LINE
  8
0
 62
9
  6
CONTINUOUS
 10
77.502329514
 20
241.3506979348
 11
77.2356823293
 21
241.7211307066
  0
LINE
  8
0
 62
7
  6
CONTINUOUS
 10
80.693324899
 20
236.6433165985
 11
81.6039879951
 21
235.3277586464
  0
LINE
  8
0
 62
7
  6
CONTINUOUS
 10
81.7684327391
 20
235.4415915334
 11
81.0515277255
 21
236.4772435716
  0
LINE
  8
0
 62
7
  6
CONTINUOUS
 10
82.0381961896
 20
237.1602408937
 11
82.7551012032
 21
236.1245888555
  0
LINE
  8
0
 62
7
  6
CONTINUOUS
 10
82.746585531
 20
237.0091715709
 11
82.8377901674
 21
236.8654561947
  0
LINE
  8
0
 62
7
  6
CONTINUOUS
 10
83.2318095454
 20
237.1155087295
 11
83.1406049091
 21
237.2592241056
  0
LINE
  8
0
 62
9
  6
CONTINUOUS
 10
121.9030387313
 20
173.352652091
 11
121.6709172337
 21
173.74564162
  0
LINE
  8
0
 62
7
  6
CONTINUOUS
 10
83.2310025779
 20
237.6826322144
 11
83.4895982199
 21
237.2423144295
  0
LINE
  8
0
 62
7
  6
CONTINUOUS
 10
83.6620560235
 20
237.3435977252
 11
83.4034603814
 21
237.7839155101
  0
LINE
  8
0
 62
7
  6
CONTINUOUS
 10
84.2082636839
 20
238.256571019
 11
84.4668593259
 21
237.8162532341
  0
LINE
  8
0
 62
9
  6
CONTINUOUS
 10
83.6281868548
 20
239.0094497
 11
83.3792594239
 21
239.4430798812
  0
LINE
  8
0
 62
7
  6
CONTINUOUS
 10
117.7600650597
 20
173.5609698867
 11
118.5479477491
 21
172.1050901938
  0
LINE
  8
0
 62
9
  6
CONTINUOUS
 10
118.2190294376
 20
173.7598368827
 11
119.0069777304
 21
172.3039895131
  0
LINE
  8
0
 62
9
  6
CONTINUOUS
 10
85.1777036917
 20
239.8480062777
 11
84.9508334399
 21
240.2935732074
  0
LINE
  8
0
 62
9
  6
CONTINUOUS
 10
119.0069747494
 20
172.3039880415
 11
119.2090139837
 21
171.8947188058
  0
LINE
  8
0
 62
7
  6
CONTINUOUS
 10
86.144795094
 20
239.8849007424
 11
86.809434884
 21
238.4294784842
  0
LINE
  8
0
 62
7
  6
CONTINUOUS
 10
86.9065150337
 20
238.6983570436
 11
86.3267228763
 21
239.9679807161
  0
LINE
  8
0
 62
9
  6
CONTINUOUS
 10
86.4039438293
 20
246.6827457106
 11
86.5682155417
 21
246.2569101038
  0
LINE
  8
0
 62
9
  6
CONTINUOUS
 10
113.3500229121
 20
175.6215876811
 11
113.5241821154
 21
175.1528995418
  0
LINE
  8
0
 62
7
  6
CONTINUOUS
 10
89.1086098252
 20
241.1369360093
 11
89.1643761672
 21
240.976117808
  0
LINE
  8
0
 62
7
  6
CONTINUOUS
 10
89.5435873475
 20
239.8825538811
 11
89.6328135025
 21
239.6252447364
  0
LINE
  8
0
 62
7
  6
CONTINUOUS
 10
86.1109911113
 20
246.0539028109
 11
86.6484981862
 21
244.488198191
  0
LINE
  8
0
 62
9
  6
CONTINUOUS
 10
86.568218511
 20
246.2569112492
 11
87.1056575054
 21
244.6911803064
  0
LINE
  8
0
 62
9
  6
CONTINUOUS
 10
111.6836175889
 20
175.0495100111
 11
111.83405572
 21
174.5726784174
  0
LINE
  8
0
 62
7
  6
CONTINUOUS
 10
90.7466557796
 20
241.4386158982
 11
90.8270279198
 21
241.1784050977
  0
LINE
  8
0
 62
7
  6
CONTINUOUS
 10
90.9477945562
 20
241.4651128364
 11
91.3396086587
 21
240.1965854457
  0
LINE
  8
0
 62
7
  6
CONTINUOUS
 10
91.5307009212
 20
240.2556087225
 11
91.0585147066
 21
241.7843468226
  0
LINE
  8
0
 62
9
  6
CONTINUOUS
 10
89.4331137028
 20
247.2404308848
 11
89.3011935225
 21
247.6773727865
  0
LINE
  8
0
 62
7
  6
CONTINUOUS
 10
91.479179842
 20
241.4527130799
 11
91.5151562309
 21
241.3213813554
  0
LINE
  8
0
 62
7
  6
CONTINUOUS
 10
91.6669057304
 20
241.398247624
 11
91.648917536
 21
241.4639134862
  0
LINE
  8
0
 62
7
  6
CONTINUOUS
 10
92.4526414063
 20
241.6840817859
 11
92.4706296007
 21
241.6184159236
  0
LINE
  8
0
 62
7
  6
CONTINUOUS
 10
92.5837249006
 20
241.3317261303
 11
92.6017130951
 21
241.266060268
  0
LINE
  8
0
 62
9
  6
CONTINUOUS
 10
109.3491406319
 20
168.5098200086
 11
109.2571996087
 21
168.956886008
  0
LINE
  8
0
 62
9
  6
CONTINUOUS
 10
94.4668531369
 20
243.0369753102
 11
94.3722127705
 21
243.5279368169
  0
LINE
  8
0
 62
7
  6
CONTINUOUS
 10
94.4862420734
 20
242.6388783534
 11
94.7637031606
 21
241.0631196964
  0
LINE
  8
0
 62
7
  6
CONTINUOUS
 10
94.9606729928
 20
241.0978023324
 11
94.8367010158
 21
241.801864721
  0
LINE
  8
0
 62
7
  6
CONTINUOUS
 10
94.8012804557
 20
242.0030253766
 11
94.7127290389
 21
242.5059271096
  0
LINE
  8
0
 62
7
  6
CONTINUOUS
 10
95.5688582347
 20
242.4492776133
 11
95.5865685313
 21
242.3486971916
  0
LINE
  8
0
 62
7
  6
CONTINUOUS
 10
105.498285379
 20
170.0520719236
 11
105.7707550476
 21
168.4192507172
  0
LINE
  8
0
 62
9
  6
CONTINUOUS
 10
105.9969538091
 20
170.0911382673
 11
106.2694960218
 21
168.4583263315
  0
LINE
  8
0
 62
9
  6
CONTINUOUS
 10
96.2046917532
 20
243.326969285
 11
96.134789303
 21
243.8220588198
  0
LINE
  8
0
 62
9
  6
CONTINUOUS
 10
106.2694927245
 20
168.4583259075
 11
106.3276954122
 21
168.0056299758
  0
LINE
  8
0
 62
7
  6
CONTINUOUS
 10
98.9902500341
 20
242.0525204077
 11
98.9764418076
 21
242.2221721919
  0
LINE
  8
0
 62
9
  6
CONTINUOUS
 10
102.6299180168
 20
247.2817212061
 11
102.6298449362
 21
248.9371226892
  0
LINE
  8
0
 62
7
  6
CONTINUOUS
 10
103.1282153682
 20
248.8935752967
 11
103.1282153682
 21
247.2381766098
  0
LINE
  8
0
 62
9
  6
CONTINUOUS
 10
95.9611818835
 20
168.4583263134
 11
96.2337239555
 21
170.0911382673
  0
LINE
  8
0
 62
7
  6
CONTINUOUS
 10
96.7323923855
 20
170.0520719236
 11
96.4599227169
 21
168.4192507172
  0
LINE
  8
0
 62
9
  6
CONTINUOUS
 10
115.1250202592
 20
244.6911803064
 11
115.6624591212
 21
246.2569113003
  0
LINE
  8
0
 62
7
  6
CONTINUOUS
 10
116.1196866533
 20
246.0539028109
 11
115.5821795784
 21
244.488198191
  0
LINE
  8
0
 62
7
  6
CONTINUOUS
 10
84.4706127049
 20
173.5609698867
 11
83.6827300155
 21
172.1050901938
  0
LINE
  8
0
 62
9
  6
CONTINUOUS
 10
83.2237001614
 20
172.3039894503
 11
84.0116483269
 21
173.7598368827
  0
LINE
  8
0
 62
9
  6
CONTINUOUS
 10
126.1019561418
 20
238.1838489925
 11
127.1186671064
 21
239.4902382491
  0
LINE
  8
0
 62
7
  6
CONTINUOUS
 10
127.485204041
 20
239.1497677826
 11
126.4684371229
 21
237.8434256197
  0
LINE
  8
0
 62
9
  6
CONTINUOUS
 10
72.4250551121
 20
180.0771375051
 11
73.6430229612
 21
181.1982567568
  0
LINE
  8
0
 62
7
  6
CONTINUOUS
 10
74.0125473751
 20
180.8611394333
 11
72.7946309795
 21
179.739968409
  0
LINE
  8
0
 62
9
  6
CONTINUOUS
 10
134.371204337
 20
228.4648975837
 11
135.7570109954
 21
229.3703775564
  0
LINE
  8
0
 62
7
  6
CONTINUOUS
 10
135.9931373681
 20
228.9293403709
 11
134.6072930793
 21
228.0239231081
  0
LINE
  8
0
 62
9
  6
CONTINUOUS
 10
64.7354474849
 20
190.9354292733
 11
66.2514493023
 21
191.6003296775
  0
LINE
  8
0
 62
7
  6
CONTINUOUS
 10
66.4914900483
 20
191.1614939194
 11
64.9755200859
 21
190.4965278409
  0
LINE
  8
0
 62
9
  6
CONTINUOUS
 10
139.8978136372
 20
219.9302984331
 11
138.293049099
 21
219.5239921018
  0
LINE
  8
0
 62
7
  6
CONTINUOUS
 10
139.733256115
 20
220.4027284734
 11
138.1285121878
 21
219.9963521204
  0
LINE
  8
0
 62
9
  6
CONTINUOUS
 10
62.3877731413
 20
206.8576417966
 11
60.7380317285
 21
206.7208669946
  0
LINE
  8
0
 62
7
  6
CONTINUOUS
 10
62.3900199415
 20
207.3578330942
 11
60.7402752805
 21
207.2211313542
  0
LINE
  8
0
 62
9
  6
CONTINUOUS
 10
141.4926460425
 20
206.7208671364
 11
139.8429046233
 21
206.8576417966
  0
LINE
  8
0
 62
7
  6
CONTINUOUS
 10
141.4904024841
 20
207.2211313542
 11
139.8406578231
 21
207.3578330942
  0
LINE
  8
0
 62
9
  6
CONTINUOUS
 10
63.9376286656
 20
219.5239921018
 11
62.3328640874
 21
219.930298297
  0
LINE
  8
0
 62
7
  6
CONTINUOUS
 10
64.1021655768
 20
219.9963521204
 11
62.4974216495
 21
220.4027284734
  0
LINE
  8
0
 62
9
  6
CONTINUOUS
 10
138.7119706985
 20
193.7093180274
 11
137.1960274794
 21
194.3743520224
  0
LINE
  8
0
 62
7
  6
CONTINUOUS
 10
138.8722842283
 20
194.1832050322
 11
137.3563142659
 21
194.8481711107
  0
LINE
  8
0
 62
9
  6
CONTINUOUS
 10
69.5162659634
 20
231.0008073438
 11
68.1303793624
 21
231.9061649553
  0
LINE
  8
0
 62
7
  6
CONTINUOUS
 10
68.4394185695
 20
232.2995658087
 11
69.8252628583
 21
231.3941485459
  0
LINE
  8
0
 62
7
  6
CONTINUOUS
 10
132.1626150848
 20
182.7018111289
 11
130.9446986892
 21
183.8229821532
  0
LINE
  8
0
 62
9
  6
CONTINUOUS
 10
131.8571169254
 20
182.3056543472
 11
130.6392478765
 21
183.4268809245
  0
LINE
  8
0
 62
9
  6
CONTINUOUS
 10
78.5191531222
 20
240.04439651
 11
77.5023268158
 21
241.3506959926
  0
LINE
  8
0
 62
7
  6
CONTINUOUS
 10
77.9223584745
 20
241.6224364361
 11
78.9391253925
 21
240.3160942731
  0
LINE
  8
0
 62
7
  6
CONTINUOUS
 10
82.9195459472
 20
236.2384217425
 11
82.0088828512
 21
237.5539796946
  0
LINE
  8
0
 62
7
  6
CONTINUOUS
 10
84.6393171295
 20
237.9175365299
 11
84.3807214875
 21
238.3578543148
  0
LINE
  8
0
 62
9
  6
CONTINUOUS
 10
121.6709144935
 20
173.7456400014
 11
120.8830946234
 21
175.2015568639
  0
LINE
  8
0
 62
7
  6
CONTINUOUS
 10
121.3006091273
 20
175.4770165186
 11
122.0884918167
 21
174.0211368258
  0
LINE
  8
0
 62
7
  6
CONTINUOUS
 10
87.9010015776
 20
238.9279583267
 11
87.816153945
 21
239.1137569124
  0
LINE
  8
0
 62
7
  6
CONTINUOUS
 10
90.8925557494
 20
240.0620809675
 11
90.8256361312
 21
240.2550628316
  0
LINE
  8
0
 62
7
  6
CONTINUOUS
 10
90.4464249509
 20
241.3486267585
 11
90.3683520721
 21
241.5737722404
  0
LINE
  8
0
 62
9
  6
CONTINUOUS
 10
89.970687624
 20
245.6747463885
 11
89.4331105203
 21
247.2404299239
  0
LINE
  8
0
 62
7
  6
CONTINUOUS
 10
89.9186176829
 20
247.361062664
 11
90.4561247578
 21
245.7953580441
  0
LINE
  8
0
 62
7
  6
CONTINUOUS
 10
92.7624581634
 20
241.3100940086
 11
92.699499483
 21
241.5399245265
  0
LINE
  8
0
 62
7
  6
CONTINUOUS
 10
97.774873632
 20
242.192684905
 11
97.8274296306
 21
241.9578766192
  0
LINE
  8
0
 62
7
  6
CONTINUOUS
 10
95.7894417901
 20
242.3498530516
 11
95.7658280669
 21
242.4839602493
  0
LINE
  8
0
 62
9
  6
CONTINUOUS
 10
109.2571964914
 20
168.9568853669
 11
108.9847983074
 21
170.5897213315
  0
LINE
  8
0
 62
7
  6
CONTINUOUS
 10
109.4691323275
 20
170.7146890846
 11
109.7416019961
 21
169.0818678782
  0
LINE
  8
0
 62
7
  6
CONTINUOUS
 10
109.4691323275
 20
170.7146890846
 11
109.427745344
 21
171.4801938474
  0
LINE
  8
0
 62
9
  6
CONTINUOUS
 10
108.9847983074
 20
170.5897213315
 11
108.9388298242
 21
171.4872264484
  0
LINE
  8
0
 62
9
  6
CONTINUOUS
 10
114.9319536038
 20
243.8134831263
 11
115.1250202592
 21
244.6911803064
  0
LINE
  8
0
 62
7
  6
CONTINUOUS
 10
115.5821795784
 20
244.488198191
 11
115.4153594252
 21
243.7399488344
  0
LINE
  8
0
 62
7
  6
CONTINUOUS
 10
96.7323923855
 20
170.0520719236
 11
96.9418075343
 21
170.789539525
  0
LINE
  8
0
 62
9
  6
CONTINUOUS
 10
96.2337239555
 20
170.0911382673
 11
96.4816657733
 21
170.9549400157
  0
LINE
  8
0
 62
9
  6
CONTINUOUS
 10
125.6343625713
 20
237.4163965509
 11
126.1019561418
 21
238.1838489925
  0
LINE
  8
0
 62
7
  6
CONTINUOUS
 10
126.4684371229
 20
237.8434256197
 11
126.0677002159
 21
237.1898862542
  0
LINE
  8
0
 62
7
  6
CONTINUOUS
 10
84.908132838
 20
174.1904782832
 11
84.4706127049
 21
173.5609698867
  0
LINE
  8
0
 62
9
  6
CONTINUOUS
 10
84.0116483269
 20
173.7598368827
 11
84.5266381687
 21
174.4963234
  0
LINE
  8
0
 62
9
  6
CONTINUOUS
 10
133.6797554447
 20
227.8908546355
 11
134.371204337
 21
228.4648975837
  0
LINE
  8
0
 62
7
  6
CONTINUOUS
 10
134.6072930793
 20
228.0239231081
 11
134.0160651825
 21
227.5359132291
  0
LINE
  8
0
 62
7
  6
CONTINUOUS
 10
74.0125473751
 20
180.8611394333
 11
74.6307653395
 21
181.314478403
  0
LINE
  8
0
 62
9
  6
CONTINUOUS
 10
73.6430229612
 20
181.1982567568
 11
74.369243895
 21
181.7276252582
  0
LINE
  8
0
 62
9
  6
CONTINUOUS
 10
138.196288001
 20
216.2690980538
 11
139.0366634923
 21
216.5875252703
  0
LINE
  8
0
 62
7
  6
CONTINUOUS
 10
139.1167761172
 20
216.0937861189
 11
138.3991245301
 21
215.8241885822
  0
LINE
  8
0
 62
7
  6
CONTINUOUS
 10
66.4914900483
 20
191.1614939194
 11
67.2234178378
 21
191.3895361664
  0
LINE
  8
0
 62
9
  6
CONTINUOUS
 10
66.2514493023
 20
191.6003296775
 11
67.1102066775
 21
191.8652159557
  0
LINE
  8
0
 62
9
  6
CONTINUOUS
 10
63.2690983708
 20
207.0334048739
 11
62.3877731413
 21
206.8576417966
  0
LINE
  8
0
 62
7
  6
CONTINUOUS
 10
63.1422574461
 20
207.5056319307
 11
62.3900199415
 21
207.3578330942
  0
LINE
  8
0
 62
7
  6
CONTINUOUS
 10
138.1285121878
 20
219.9963521204
 11
137.3690323314
 21
219.8918914248
  0
LINE
  8
0
 62
9
  6
CONTINUOUS
 10
138.293049099
 20
219.5239921018
 11
137.4024052087
 21
219.4040652961
  0
LINE
  8
0
 62
9
  6
CONTINUOUS
 10
64.828271483
 20
219.4040642585
 11
63.9376286656
 21
219.5239921018
  0
LINE
  8
0
 62
7
  6
CONTINUOUS
 10
64.8616390212
 20
219.8918915874
 11
64.1021655768
 21
219.9963521204
  0
LINE
  8
0
 62
7
  6
CONTINUOUS
 10
139.8406578231
 20
207.3578330942
 11
139.0884123664
 21
207.5056344371
  0
LINE
  8
0
 62
9
  6
CONTINUOUS
 10
139.8429046233
 20
206.8576417966
 11
138.9615781945
 21
207.0334045321
  0
LINE
  8
0
 62
9
  6
CONTINUOUS
 10
70.3197108061
 20
230.5981861196
 11
69.5162659634
 21
231.0008073438
  0
LINE
  8
0
 62
7
  6
CONTINUOUS
 10
70.5096694612
 20
231.0487466775
 11
69.8252628583
 21
231.3941485459
  0
LINE
  8
0
 62
7
  6
CONTINUOUS
 10
137.3563142659
 20
194.8481711107
 11
136.6928218542
 21
195.2322154377
  0
LINE
  8
0
 62
9
  6
CONTINUOUS
 10
137.1960274794
 20
194.3743520224
 11
136.4195246542
 21
194.8267586028
  0
LINE
  8
0
 62
7
  6
CONTINUOUS
 10
77.8335158512
 20
232.6868858972
 11
77.9508320383
 21
232.6101372663
  0
LINE
  8
0
 62
7
  6
CONTINUOUS
 10
79.1111761269
 20
234.391633774
 11
79.2477441201
 21
234.2847100752
  0
LINE
  8
0
 62
7
  6
CONTINUOUS
 10
79.3737935449
 20
234.3937481377
 11
79.237225696
 21
234.5006719613
  0
LINE
  8
0
 62
9
  6
CONTINUOUS
 10
79.1483369367
 20
239.4027157852
 11
78.5191531222
 21
240.04439651
  0
LINE
  8
0
 62
7
  6
CONTINUOUS
 10
78.9391253925
 20
240.3160942731
 11
79.4742917832
 21
239.7671851737
  0
LINE
  8
0
 62
7
  6
CONTINUOUS
 10
83.7597580414
 20
237.2430603383
 11
83.6620560235
 21
237.3435977252
  0
LINE
  8
0
 62
7
  6
CONTINUOUS
 10
83.4895982199
 20
237.2423144295
 11
83.6045399458
 21
237.1124225263
  0
LINE
  8
0
 62
7
  6
CONTINUOUS
 10
84.3807214875
 20
238.3578543148
 11
84.2657797133
 21
238.4877463002
  0
LINE
  8
0
 62
7
  6
CONTINUOUS
 10
130.9446986892
 20
183.8229821532
 11
130.4418547119
 21
184.4016541181
  0
LINE
  8
0
 62
9
  6
CONTINUOUS
 10
130.6392478765
 20
183.4268809245
 11
130.0517141359
 21
184.1069048399
  0
LINE
  8
0
 62
7
  6
CONTINUOUS
 10
86.0397558315
 20
238.4651706894
 11
85.2385557676
 21
239.4301151956
  0
LINE
  8
0
 62
7
  6
CONTINUOUS
 10
85.2613364086
 20
239.0967544372
 11
86.0938987256
 21
238.0713781829
  0
LINE
  8
0
 62
7
  6
CONTINUOUS
 10
84.4101326588
 20
239.0002003916
 11
85.3838219687
 21
237.7028798798
  0
LINE
  8
0
 62
7
  6
CONTINUOUS
 10
85.3296790746
 20
238.0966723864
 11
84.5876518481
 21
239.0923249674
  0
LINE
  8
0
 62
9
  6
CONTINUOUS
 10
90.357432039
 20
244.8635410811
 11
89.970687624
 21
245.6747463885
  0
LINE
  8
0
 62
7
  6
CONTINUOUS
 10
90.4561247578
 20
245.7953580441
 11
90.7840615525
 21
245.1024258527
  0
LINE
  8
0
 62
7
  6
CONTINUOUS
 10
92.699499483
 20
241.5399245265
 11
92.6043909058
 21
241.7609480545
  0
LINE
  8
0
 62
7
  6
CONTINUOUS
 10
121.3006091273
 20
175.4770165186
 11
121.012905582
 21
176.1876059064
  0
LINE
  8
0
 62
9
  6
CONTINUOUS
 10
120.8830946234
 20
175.2015568639
 11
120.5481979899
 21
176.0355069075
  0
LINE
  8
0
 62
9
  6
CONTINUOUS
 10
102.7323000976
 20
246.3888914396
 11
102.6299180168
 21
247.2817212061
  0
LINE
  8
0
 62
7
  6
CONTINUOUS
 10
103.1282153682
 20
247.2381766098
 11
103.2133902286
 21
246.476302749
  0
LINE
  8
0
 62
7
  6
CONTINUOUS
 10
78.0493812576
 20
232.748790523
 11
77.9553046853
 21
232.8006631197
  0
LINE
  8
0
 62
7
  6
CONTINUOUS
 10
79.237225696
 20
234.5006719613
 11
79.145200923
 21
234.5561031157
  0
LINE
  8
0
 62
7
  6
CONTINUOUS
 10
78.8210026524
 20
233.143544493
 11
78.7036864934
 21
233.2202931419
  0
LINE
  8
0
 62
7
  6
CONTINUOUS
 10
81.0515277255
 20
236.4772435716
 11
82.1521369327
 21
235.7072014583
  0
LINE
  8
0
 62
7
  6
CONTINUOUS
 10
82.1648879164
 20
235.923043171
 11
80.9399920151
 21
236.814065929
  0
LINE
  8
0
 62
7
  6
CONTINUOUS
 10
84.1105616659
 20
238.357108406
 11
84.2082636839
 21
238.256571019
  0
LINE
  8
0
 62
7
  6
CONTINUOUS
 10
91.5151562309
 20
241.3213813554
 11
91.624423567
 21
241.1748298734
  0
LINE
  8
0
 62
7
  6
CONTINUOUS
 10
91.7503409406
 20
240.7151687916
 11
91.8094731352
 21
240.6254769652
  0
LINE
  8
0
 62
7
  6
CONTINUOUS
 10
91.7260379187
 20
241.3085558205
 11
91.6669057304
 21
241.398247624
  0
LINE
  8
0
 62
7
  6
CONTINUOUS
 10
92.3935091928
 20
241.7737736813
 11
92.4526414063
 21
241.6840817859
  0
LINE
  8
0
 62
7
  6
CONTINUOUS
 10
95.5183186475
 20
242.5440773254
 11
95.5688582347
 21
242.4492776133
  0
LINE
  8
0
 62
7
  6
CONTINUOUS
 10
95.7658280669
 20
242.4839602493
 11
95.7152884796
 21
242.5787599613
  0
LINE
  8
0
 62
7
  6
CONTINUOUS
 10
97.8274296306
 20
241.9578766192
 11
97.9076837795
 21
241.7936329974
  0
LINE
  8
0
 62
7
  6
CONTINUOUS
 10
97.5645296459
 20
241.4878132418
 11
96.832073881
 21
243.0070084504
  0
LINE
  8
0
 62
7
  6
CONTINUOUS
 10
97.1819562347
 20
241.8506221654
 11
97.366153117
 21
241.4623819069
  0
LINE
  8
0
 62
7
  6
CONTINUOUS
 10
96.7171383155
 20
242.8549894372
 11
97.131579035
 21
241.9814485289
  0
LINE
  8
0
 62
7
  6
CONTINUOUS
 10
98.0322937341
 20
241.9062405881
 11
97.9907843175
 21
242.005327437
  0
LINE
  8
0
 62
7
  6
CONTINUOUS
 10
98.7715777041
 20
242.273808223
 11
98.8130871245
 21
242.1747213266
  0
LINE
  8
0
 62
7
  6
CONTINUOUS
 10
98.8602862739
 20
242.8275104005
 11
98.8187768573
 21
242.9265972494
  0
LINE
  8
0
 62
7
  6
CONTINUOUS
 10
77.9508320383
 20
232.6101372663
 11
78.0216690077
 21
232.5831406824
  0
LINE
  8
0
 62
7
  6
CONTINUOUS
 10
78.8918396717
 20
233.1165479475
 11
78.8210026524
 21
233.143544493
  0
LINE
  8
0
 62
7
  6
CONTINUOUS
 10
78.6051372338
 20
233.0816398803
 11
78.7700508115
 21
233.0027707006
  0
LINE
  8
0
 62
7
  6
CONTINUOUS
 10
83.6045399458
 20
237.1124225263
 11
83.7309845045
 21
237.0287654105
  0
LINE
  8
0
 62
7
  6
CONTINUOUS
 10
84.2657797133
 20
238.4877463002
 11
84.1393351667
 21
238.5714033954
  0
LINE
  8
0
 62
7
  6
CONTINUOUS
 10
92.6043909058
 20
241.7609480545
 11
92.4951235445
 21
241.9074996284
  0
LINE
  8
0
 62
7
  6
CONTINUOUS
 10
98.9764418076
 20
242.2221721919
 11
98.8961876607
 21
242.38641579
  0
LINE
  8
0
 62
7
  6
CONTINUOUS
 10
78.1678156165
 20
232.7196733567
 11
78.0493812576
 21
232.748790523
  0
LINE
  8
0
 62
7
  6
CONTINUOUS
 10
83.8689628802
 20
237.1887577593
 11
83.7597580414
 21
237.2430603383
  0
LINE
  8
0
 62
7
  6
CONTINUOUS
 10
84.0013567788
 20
238.4114110672
 11
84.1105616659
 21
238.357108406
  0
LINE
  8
0
 62
7
  6
CONTINUOUS
 10
91.8094731352
 20
240.6254769652
 11
91.9418962739
 21
240.5205653929
  0
LINE
  8
0
 62
7
  6
CONTINUOUS
 10
91.624423567
 20
241.1748298734
 11
91.7568467025
 21
241.0699183126
  0
LINE
  8
0
 62
7
  6
CONTINUOUS
 10
92.0023666286
 20
240.6783172926
 11
91.911086009
 21
240.7592025321
  0
LINE
  8
0
 62
7
  6
CONTINUOUS
 10
91.8173170604
 20
241.2276702009
 11
91.7260379187
 21
241.3085558205
  0
LINE
  8
0
 62
7
  6
CONTINUOUS
 10
92.3022300511
 20
241.854659301
 11
92.3935091928
 21
241.7737736813
  0
LINE
  8
0
 62
7
  6
CONTINUOUS
 10
97.9076837795
 20
241.7936329974
 11
98.0184007658
 21
241.6660239279
  0
LINE
  8
0
 62
7
  6
CONTINUOUS
 10
98.1070245939
 20
241.809857661
 11
98.0322937341
 21
241.9062405881
  0
LINE
  8
0
 62
7
  6
CONTINUOUS
 10
98.6194360429
 20
242.9103725858
 11
98.6941684216
 21
242.8139898062
  0
LINE
  8
0
 62
7
  6
CONTINUOUS
 10
104.9790421874
 20
184.1263615243
 11
125.5359068246
 21
204.6832261614
  0
LINE
  8
0
 62
7
  6
CONTINUOUS
 10
78.0216690077
 20
232.5831406824
 11
78.1644611157
 21
232.5767789603
  0
LINE
  8
0
 62
7
  6
CONTINUOUS
 10
83.7309845045
 20
237.0287654105
 11
83.9149154303
 21
236.9788696612
  0
LINE
  8
0
 62
7
  6
CONTINUOUS
 10
92.4951235445
 20
241.9074996284
 11
92.362700409
 21
242.0124111892
  0
LINE
  8
0
 62
7
  6
CONTINUOUS
 10
95.7152884796
 20
242.5787599613
 11
95.5931898568
 21
242.6955257472
  0
LINE
  8
0
 62
7
  6
CONTINUOUS
 10
125.5359068246
 20
212.4106327717
 11
104.9790421874
 21
232.9674974089
  0
LINE
  8
0
 62
7
  6
CONTINUOUS
 10
98.8187768573
 20
242.9265972494
 11
98.708059872
 21
243.054206307
  0
LINE
  8
0
 62
7
  6
CONTINUOUS
 10
78.1644611157
 20
232.5767789603
 11
78.284013634
 21
232.5952932674
  0
LINE
  8
0
 62
7
  6
CONTINUOUS
 10
83.9896712098
 20
237.1806903541
 11
83.8689628802
 21
237.1887577593
  0
LINE
  8
0
 62
7
  6
CONTINUOUS
 10
79.0162131656
 20
234.3995111185
 11
79.1111761269
 21
234.391633774
  0
LINE
  8
0
 62
7
  6
CONTINUOUS
 10
79.145200923
 20
234.5561031157
 11
79.0502379617
 21
234.5639804601
  0
LINE
  8
0
 62
7
  6
CONTINUOUS
 10
84.1393351667
 20
238.5714033954
 11
83.9554042469
 21
238.6212991345
  0
LINE
  8
0
 62
7
  6
CONTINUOUS
 10
92.1168015697
 20
240.639071594
 11
92.0023666286
 21
240.6783172926
  0
LINE
  8
0
 62
7
  6
CONTINUOUS
 10
98.2122182902
 20
241.7501092981
 11
98.1070245939
 21
241.809857661
  0
LINE
  8
0
 62
7
  6
CONTINUOUS
 10
95.4408561852
 20
242.5995701751
 11
95.5183186475
 21
242.5440773254
  0
LINE
  8
0
 62
7
  6
CONTINUOUS
 10
98.6996084908
 20
242.336260779
 11
98.7715777041
 21
242.273808223
  0
LINE
  8
0
 62
7
  6
CONTINUOUS
 10
98.8961876607
 20
242.38641579
 11
98.7882323198
 21
242.4800945002
  0
LINE
  8
0
 62
7
  6
CONTINUOUS
 10
78.9435218144
 20
234.3816421907
 11
79.0162131656
 21
234.3995111185
  0
LINE
  8
0
 62
7
  6
CONTINUOUS
 10
79.0502379617
 20
234.5639804601
 11
78.9300650577
 21
234.5500501422
  0
LINE
  8
0
 62
7
  6
CONTINUOUS
 10
83.9149154303
 20
236.9788696612
 11
84.0643669388
 21
236.9876829469
  0
LINE
  8
0
 62
7
  6
CONTINUOUS
 10
83.9554042469
 20
238.6212991345
 11
83.8059534007
 21
238.6124862274
  0
LINE
  8
0
 62
7
  6
CONTINUOUS
 10
83.8806484613
 20
238.4194784518
 11
84.0013567788
 21
238.4114110672
  0
LINE
  8
0
 62
7
  6
CONTINUOUS
 10
91.9418962739
 20
240.5205653929
 11
92.1296221646
 21
240.4660999283
  0
LINE
  8
0
 62
7
  6
CONTINUOUS
 10
91.7568467025
 20
241.0699183126
 11
91.9445740626
 21
241.0154532598
  0
LINE
  8
0
 62
7
  6
CONTINUOUS
 10
92.362700409
 20
242.0124111892
 11
92.1749730489
 21
242.0668762421
  0
LINE
  8
0
 62
7
  6
CONTINUOUS
 10
91.9317520015
 20
241.1884245023
 11
91.8173170604
 21
241.2276702009
  0
LINE
  8
0
 62
7
  6
CONTINUOUS
 10
92.18779511
 20
241.8939049995
 11
92.3022300511
 21
241.854659301
  0
LINE
  8
0
 62
7
  6
CONTINUOUS
 10
98.0184007658
 20
241.6660239279
 11
98.1928035525
 21
241.5777534712
  0
LINE
  8
0
 62
7
  6
CONTINUOUS
 10
98.7882323198
 20
242.4800945002
 11
98.6138295339
 21
242.568364948
  0
LINE
  8
0
 62
7
  6
CONTINUOUS
 10
98.708059872
 20
243.054206307
 11
98.5336586069
 21
243.1424768785
  0
LINE
  8
0
 62
7
  6
CONTINUOUS
 10
95.5931898568
 20
242.6955257472
 11
95.4441668563
 21
242.7729844059
  0
LINE
  8
0
 62
7
  6
CONTINUOUS
 10
98.5944147945
 20
242.3960091419
 11
98.6996084908
 21
242.336260779
  0
LINE
  8
0
 62
7
  6
CONTINUOUS
 10
98.5142423466
 20
242.9701209487
 11
98.6194360429
 21
242.9103725858
  0
LINE
  8
0
 62
7
  6
CONTINUOUS
 10
92.299361331
 20
240.4773007348
 11
92.4279565027
 21
240.5125274854
  0
LINE
  8
0
 62
7
  6
CONTINUOUS
 10
92.415135907
 20
240.6854991541
 11
92.2222424136
 21
240.6326588266
  0
LINE
  8
0
 62
7
  6
CONTINUOUS
 10
91.911086009
 20
240.7592025321
 11
91.7503409406
 21
240.7151687916
  0
LINE
  8
0
 62
7
  6
CONTINUOUS
 10
92.1143132408
 20
241.0266540232
 11
92.2750568375
 21
241.0706873607
  0
LINE
  8
0
 62
7
  6
CONTINUOUS
 10
92.2622362355
 20
241.2436590523
 11
92.0371928454
 21
241.1820117349
  0
LINE
  8
0
 62
7
  6
CONTINUOUS
 10
91.857310876
 20
241.8386704495
 11
92.0823542661
 21
241.900317767
  0
LINE
  8
0
 62
7
  6
CONTINUOUS
 10
92.0052338833
 20
242.0556754326
 11
91.8444902866
 21
242.0116420952
  0
LINE
  8
0
 62
7
  6
CONTINUOUS
 10
94.7637031606
 20
241.0631196964
 11
94.9606729928
 21
241.0978023324
  0
LINE
  8
0
 62
7
  6
CONTINUOUS
 10
94.8367010158
 20
241.801864721
 11
95.4276105122
 21
241.9059126287
  0
LINE
  8
0
 62
7
  6
CONTINUOUS
 10
95.4250192593
 20
242.1128539001
 11
94.8012804557
 21
242.0030253766
  0
LINE
  8
0
 62
7
  6
CONTINUOUS
 10
94.7127290389
 20
242.5059271096
 11
95.3364678425
 21
242.6157556331
  0
LINE
  8
0
 62
7
  6
CONTINUOUS
 10
95.2741214019
 20
242.7776088971
 11
94.4862420734
 21
242.6388783534
  0
LINE
  8
0
 62
7
  6
CONTINUOUS
 10
96.2420184444
 20
241.31827088
 11
96.4403949733
 21
241.3437022148
  0
LINE
  8
0
 62
7
  6
CONTINUOUS
 10
97.366153117
 20
241.4623819069
 11
97.5645296459
 21
241.4878132418
  0
LINE
  8
0
 62
7
  6
CONTINUOUS
 10
96.5207021474
 20
241.7658511786
 11
97.1819562347
 21
241.8506221654
  0
LINE
  8
0
 62
7
  6
CONTINUOUS
 10
97.131579035
 20
241.9814485289
 11
96.5364494484
 21
241.9051545243
  0
LINE
  8
0
 62
7
  6
CONTINUOUS
 10
96.832073881
 20
243.0070084504
 11
96.5675728515
 21
242.9731001333
  0
LINE
  8
0
 62
7
  6
CONTINUOUS
 10
98.3616830495
 20
241.5573437152
 11
98.527799381
 21
241.5708641857
  0
LINE
  8
0
 62
7
  6
CONTINUOUS
 10
98.5472156393
 20
241.7432201393
 11
98.3146503419
 21
241.7242912825
  0
LINE
  8
0
 62
7
  6
CONTINUOUS
 10
98.2594174454
 20
242.4028983007
 11
98.4919827427
 21
242.4218271574
  0
LINE
  8
0
 62
7
  6
CONTINUOUS
 10
98.4449500371
 20
242.588774701
 11
98.2788337056
 21
242.5752542306
  0
LINE
  8
0
 62
7
  6
CONTINUOUS
 10
98.6941684216
 20
242.8139898062
 11
98.8602862739
 21
242.8275104005
  0
LINE
  8
0
 62
7
  6
CONTINUOUS
 10
98.2124694805
 20
242.9797143006
 11
98.4118102949
 21
242.9959389642
  0
LINE
  8
0
 62
7
  6
CONTINUOUS
 10
98.3647791101
 20
243.1628866316
 11
98.2318857407
 21
243.1520702305
  0
LINE
  8
0
 62
7
  6
CONTINUOUS
 10
92.1296221646
 20
240.4660999283
 11
92.299361331
 21
240.4773007348
  0
LINE
  8
0
 62
7
  6
CONTINUOUS
 10
91.9445740626
 20
241.0154532598
 11
92.1143132408
 21
241.0266540232
  0
LINE
  8
0
 62
7
  6
CONTINUOUS
 10
92.1749730489
 20
242.0668762421
 11
92.0052338833
 21
242.0556754326
  0
LINE
  8
0
 62
7
  6
CONTINUOUS
 10
95.4441668563
 20
242.7729844059
 11
95.2741214019
 21
242.7776088971
  0
LINE
  8
0
 62
7
  6
CONTINUOUS
 10
92.2222424136
 20
240.6326588266
 11
92.1168015697
 21
240.639071594
  0
LINE
  8
0
 62
7
  6
CONTINUOUS
 10
92.0371928454
 20
241.1820117349
 11
91.9317520015
 21
241.1884245023
  0
LINE
  8
0
 62
7
  6
CONTINUOUS
 10
92.0823542661
 20
241.900317767
 11
92.18779511
 21
241.8939049995
  0
LINE
  8
0
 62
7
  6
CONTINUOUS
 10
98.1928035525
 20
241.5777534712
 11
98.3616830495
 21
241.5573437152
  0
LINE
  8
0
 62
7
  6
CONTINUOUS
 10
98.6138295339
 20
242.568364948
 11
98.4449500371
 21
242.588774701
  0
LINE
  8
0
 62
7
  6
CONTINUOUS
 10
98.5336586069
 20
243.1424768785
 11
98.3647791101
 21
243.1628866316
  0
LINE
  8
0
 62
7
  6
CONTINUOUS
 10
95.3364678425
 20
242.6157556331
 11
95.4408561852
 21
242.5995701751
  0
LINE
  8
0
 62
7
  6
CONTINUOUS
 10
98.3146503419
 20
241.7242912825
 11
98.2122182902
 21
241.7501092981
  0
LINE
  8
0
 62
7
  6
CONTINUOUS
 10
98.4919827427
 20
242.4218271574
 11
98.5944147945
 21
242.3960091419
  0
LINE
  8
0
 62
7
  6
CONTINUOUS
 10
98.4118102949
 20
242.9959389642
 11
98.5142423466
 21
242.9701209487
  0
POLYLINE
  8
0
 62
7
  6
CONTINUOUS
 66
1
 70
0
  0
VERTEX
  8
0
 62
7
  6
CONTINUOUS
 10
138.6945238635
 20
203.8105258642
  0
VERTEX
  8
0
 62
7
  6
CONTINUOUS
 10
138.6941690391
 20
203.8142789138
  0
VERTEX
  8
0
 62
7
  6
CONTINUOUS
 10
138.6941470205
 20
203.8181142111
  0
SEQEND
  0
POLYLINE
  8
0
 62
7
  6
CONTINUOUS
 66
1
 70
0
  0
VERTEX
  8
0
 62
7
  6
CONTINUOUS
 10
137.4024052087
 20
219.4040652961
  0
VERTEX
  8
0
 62
7
  6
CONTINUOUS
 10
137.4026740591
 20
219.4003053183
  0
VERTEX
  8
0
 62
7
  6
CONTINUOUS
 10
137.4032836139
 20
219.3965185412
  0
VERTEX
  8
0
 62
7
  6
CONTINUOUS
 10
137.4042510258
 20
219.3926881049
  0
SEQEND
  0
POLYLINE
  8
0
 62
7
  6
CONTINUOUS
 66
1
 70
0
  0
VERTEX
  8
0
 62
7
  6
CONTINUOUS
 10
137.4024050935
 20
219.4040666894
  0
VERTEX
  8
0
 62
7
  6
CONTINUOUS
 10
137.3967553752
 20
219.5719588586
  0
VERTEX
  8
0
 62
7
  6
CONTINUOUS
 10
137.389339155
 20
219.7187166047
  0
VERTEX
  8
0
 62
7
  6
CONTINUOUS
 10
137.385235439
 20
219.7786436153
  0
VERTEX
  8
0
 62
7
  6
CONTINUOUS
 10
137.3768410373
 20
219.8628282982
  0
VERTEX
  8
0
 62
7
  6
CONTINUOUS
 10
137.3689884579
 20
219.8918903127
  0
SEQEND
  0
POLYLINE
  8
0
 62
9
  6
CONTINUOUS
 66
1
 70
0
  0
VERTEX
  8
0
 62
9
  6
CONTINUOUS
 10
139.842904596
 20
206.8576417978
  0
VERTEX
  8
0
 62
9
  6
CONTINUOUS
 10
139.8509531603
 20
206.9683354952
  0
VERTEX
  8
0
 62
9
  6
CONTINUOUS
 10
139.8590504455
 20
207.1681720695
  0
VERTEX
  8
0
 62
9
  6
CONTINUOUS
 10
139.8586948763
 20
207.2473374544
  0
VERTEX
  8
0
 62
9
  6
CONTINUOUS
 10
139.8492631756
 20
207.3445967367
  0
VERTEX
  8
0
 62
9
  6
CONTINUOUS
 10
139.8406579488
 20
207.3578346113
  0
SEQEND
  0
LINE
  8
0
 62
7
  6
CONTINUOUS
 10
138.6941470205
 20
203.8181142111
 11
138.9596295014
 21
207.0220412324
  0
POLYLINE
  8
0
 62
9
  6
CONTINUOUS
 66
1
 70
0
  0
VERTEX
  8
0
 62
9
  6
CONTINUOUS
 10
139.5927587161
 20
203.8388296389
  0
VERTEX
  8
0
 62
9
  6
CONTINUOUS
 10
139.5824779007
 20
203.7283210112
  0
VERTEX
  8
0
 62
9
  6
CONTINUOUS
 10
139.5575727324
 20
203.529877707
  0
VERTEX
  8
0
 62
9
  6
CONTINUOUS
 10
139.5441918423
 20
203.4518508892
  0
VERTEX
  8
0
 62
9
  6
CONTINUOUS
 10
139.5188804936
 20
203.3574709954
  0
VERTEX
  8
0
 62
9
  6
CONTINUOUS
 10
139.5082137776
 20
203.3458301098
  0
SEQEND
  0
POLYLINE
  8
0
 62
7
  6
CONTINUOUS
 66
1
 70
0
  0
VERTEX
  8
0
 62
7
  6
CONTINUOUS
 10
135.1204718169
 20
191.8652148324
  0
VERTEX
  8
0
 62
7
  6
CONTINUOUS
 10
135.0872634518
 20
191.7005426565
  0
VERTEX
  8
0
 62
7
  6
CONTINUOUS
 10
135.0557910261
 20
191.5570074364
  0
VERTEX
  8
0
 62
7
  6
CONTINUOUS
 10
135.0418783957
 20
191.4985733997
  0
VERTEX
  8
0
 62
7
  6
CONTINUOUS
 10
135.0197372871
 20
191.4169194425
  0
VERTEX
  8
0
 62
7
  6
CONTINUOUS
 10
135.0072169944
 20
191.3895444539
  0
SEQEND
  0
POLYLINE
  8
0
 62
7
  6
CONTINUOUS
 66
1
 70
0
  0
VERTEX
  8
0
 62
7
  6
CONTINUOUS
 10
135.1204723319
 20
191.8652169337
  0
VERTEX
  8
0
 62
7
  6
CONTINUOUS
 10
135.1213552326
 20
191.8688807263
  0
VERTEX
  8
0
 62
7
  6
CONTINUOUS
 10
135.1225797302
 20
191.8725153878
  0
SEQEND
  0
POLYLINE
  8
0
 62
7
  6
CONTINUOUS
 66
1
 70
0
  0
VERTEX
  8
0
 62
7
  6
CONTINUOUS
 10
138.9615781945
 20
207.0334045321
  0
VERTEX
  8
0
 62
7
  6
CONTINUOUS
 10
138.9606115201
 20
207.0297609801
  0
VERTEX
  8
0
 62
7
  6
CONTINUOUS
 10
138.9599584871
 20
207.0259814719
  0
VERTEX
  8
0
 62
7
  6
CONTINUOUS
 10
138.9596297432
 20
207.022044475
  0
SEQEND
  0
POLYLINE
  8
0
 62
7
  6
CONTINUOUS
 66
1
 70
0
  0
VERTEX
  8
0
 62
7
  6
CONTINUOUS
 10
138.9615785279
 20
207.0334058465
  0
VERTEX
  8
0
 62
7
  6
CONTINUOUS
 10
139.0107492827
 20
207.1940356657
  0
VERTEX
  8
0
 62
7
  6
CONTINUOUS
 10
139.0513868883
 20
207.3352497753
  0
VERTEX
  8
0
 62
7
  6
CONTINUOUS
 10
139.0669636761
 20
207.3932622893
  0
VERTEX
  8
0
 62
7
  6
CONTINUOUS
 10
139.0863583547
 20
207.4756114259
  0
VERTEX
  8
0
 62
7
  6
CONTINUOUS
 10
139.0883685044
 20
207.5056482629
  0
SEQEND
  0
POLYLINE
  8
0
 62
9
  6
CONTINUOUS
 66
1
 70
0
  0
VERTEX
  8
0
 62
9
  6
CONTINUOUS
 10
137.1960274534
 20
194.3743520326
  0
VERTEX
  8
0
 62
9
  6
CONTINUOUS
 10
137.2395821101
 20
194.4764346757
  0
VERTEX
  8
0
 62
9
  6
CONTINUOUS
 10
137.3121274974
 20
194.6628143793
  0
VERTEX
  8
0
 62
9
  6
CONTINUOUS
 10
137.3374961559
 20
194.7378058263
  0
VERTEX
  8
0
 62
9
  6
CONTINUOUS
 10
137.3601555328
 20
194.8328578134
  0
VERTEX
  8
0
 62
9
  6
CONTINUOUS
 10
137.356314892
 20
194.848172538
  0
SEQEND
  0
LINE
  8
0
 62
7
  6
CONTINUOUS
 10
135.1225797302
 20
191.8725153878
 11
136.4139904339
 21
194.8166413657
  0
POLYLINE
  8
0
 62
9
  6
CONTINUOUS
 66
1
 70
0
  0
VERTEX
  8
0
 62
9
  6
CONTINUOUS
 10
135.9792284622
 20
191.6003296775
  0
VERTEX
  8
0
 62
9
  6
CONTINUOUS
 10
135.933622597
 20
191.4991468873
  0
VERTEX
  8
0
 62
9
  6
CONTINUOUS
 10
135.8456324239
 20
191.3195424837
  0
VERTEX
  8
0
 62
9
  6
CONTINUOUS
 10
135.807641281
 20
191.250088142
  0
VERTEX
  8
0
 62
9
  6
CONTINUOUS
 10
135.7530562696
 20
191.1690405926
  0
VERTEX
  8
0
 62
9
  6
CONTINUOUS
 10
135.7391877163
 20
191.1614939193
  0
SEQEND
  0
POLYLINE
  8
0
 62
7
  6
CONTINUOUS
 66
1
 70
0
  0
VERTEX
  8
0
 62
7
  6
CONTINUOUS
 10
127.8614359685
 20
181.7276275402
  0
VERTEX
  8
0
 62
7
  6
CONTINUOUS
 10
127.7765580393
 20
181.5826604527
  0
VERTEX
  8
0
 62
7
  6
CONTINUOUS
 10
127.700185162
 20
181.4571213961
  0
VERTEX
  8
0
 62
7
  6
CONTINUOUS
 10
127.6680529184
 20
181.4063708663
  0
VERTEX
  8
0
 62
7
  6
CONTINUOUS
 10
127.6205987252
 20
181.3363302143
  0
VERTEX
  8
0
 62
7
  6
CONTINUOUS
 10
127.599867733
 20
181.3145040742
  0
SEQEND
  0
POLYLINE
  8
0
 62
7
  6
CONTINUOUS
 66
1
 70
0
  0
VERTEX
  8
0
 62
7
  6
CONTINUOUS
 10
127.8614371301
 20
181.7276293476
  0
VERTEX
  8
0
 62
7
  6
CONTINUOUS
 10
127.8634618849
 20
181.7308079374
  0
VERTEX
  8
0
 62
7
  6
CONTINUOUS
 10
127.8658002127
 20
181.7338480765
  0
SEQEND
  0
POLYLINE
  8
0
 62
7
  6
CONTINUOUS
 66
1
 70
0
  0
VERTEX
  8
0
 62
7
  6
CONTINUOUS
 10
136.4195246542
 20
194.8267586028
  0
VERTEX
  8
0
 62
7
  6
CONTINUOUS
 10
136.41742643
 20
194.8236253704
  0
VERTEX
  8
0
 62
7
  6
CONTINUOUS
 10
136.4155815915
 20
194.820262707
  0
VERTEX
  8
0
 62
7
  6
CONTINUOUS
 10
136.4139923311
 20
194.816645795
  0
SEQEND
  0
POLYLINE
  8
0
 62
7
  6
CONTINUOUS
 66
1
 70
0
  0
VERTEX
  8
0
 62
7
  6
CONTINUOUS
 10
136.4195246629
 20
194.8267586399
  0
VERTEX
  8
0
 62
7
  6
CONTINUOUS
 10
136.5181873981
 20
194.9627195567
  0
VERTEX
  8
0
 62
7
  6
CONTINUOUS
 10
136.6024750223
 20
195.0830875037
  0
VERTEX
  8
0
 62
7
  6
CONTINUOUS
 10
136.6360442622
 20
195.1328991109
  0
VERTEX
  8
0
 62
7
  6
CONTINUOUS
 10
136.6811260331
 20
195.2044894831
  0
VERTEX
  8
0
 62
7
  6
CONTINUOUS
 10
136.6927815902
 20
195.2322451691
  0
SEQEND
  0
POLYLINE
  8
0
 62
9
  6
CONTINUOUS
 66
1
 70
0
  0
VERTEX
  8
0
 62
9
  6
CONTINUOUS
 10
130.6392478553
 20
183.4268809426
  0
VERTEX
  8
0
 62
9
  6
CONTINUOUS
 10
130.7135887804
 20
183.5092902926
  0
VERTEX
  8
0
 62
9
  6
CONTINUOUS
 10
130.8427208479
 20
183.6620159797
  0
VERTEX
  8
0
 62
9
  6
CONTINUOUS
 10
130.8910646446
 20
183.7247069924
  0
VERTEX
  8
0
 62
9
  6
CONTINUOUS
 10
130.9433596025
 20
183.8072513113
  0
VERTEX
  8
0
 62
9
  6
CONTINUOUS
 10
130.944699741
 20
183.8229832956
  0
SEQEND
  0
LINE
  8
0
 62
7
  6
CONTINUOUS
 10
127.8658002127
 20
181.7338480765
 11
130.0431948716
 21
184.0991328227
  0
POLYLINE
  8
0
 62
9
  6
CONTINUOUS
 66
1
 70
0
  0
VERTEX
  8
0
 62
9
  6
CONTINUOUS
 10
128.5876548034
 20
181.1982567568
  0
VERTEX
  8
0
 62
9
  6
CONTINUOUS
 10
128.5116659915
 20
181.1173645296
  0
VERTEX
  8
0
 62
9
  6
CONTINUOUS
 10
128.3701259141
 20
180.9760619505
  0
VERTEX
  8
0
 62
9
  6
CONTINUOUS
 10
128.3116414483
 20
180.9227065405
  0
VERTEX
  8
0
 62
9
  6
CONTINUOUS
 10
128.2336979071
 20
180.8637740951
  0
VERTEX
  8
0
 62
9
  6
CONTINUOUS
 10
128.2181303895
 20
180.8611394333
  0
SEQEND
  0
POLYLINE
  8
0
 62
7
  6
CONTINUOUS
 66
1
 70
0
  0
VERTEX
  8
0
 62
7
  6
CONTINUOUS
 10
117.704045902
 20
174.4963275811
  0
VERTEX
  8
0
 62
7
  6
CONTINUOUS
 10
117.5766957583
 20
174.3867754441
  0
VERTEX
  8
0
 62
7
  6
CONTINUOUS
 10
117.4636980568
 20
174.2928371547
  0
VERTEX
  8
0
 62
7
  6
CONTINUOUS
 10
117.416827863
 20
174.255270071
  0
VERTEX
  8
0
 62
7
  6
CONTINUOUS
 10
117.3492015852
 20
174.2044340188
  0
VERTEX
  8
0
 62
7
  6
CONTINUOUS
 10
117.3225089234
 20
174.190519439
  0
SEQEND
  0
POLYLINE
  8
0
 62
7
  6
CONTINUOUS
 66
1
 70
0
  0
VERTEX
  8
0
 62
7
  6
CONTINUOUS
 10
117.7040429911
 20
174.4963252532
  0
VERTEX
  8
0
 62
7
  6
CONTINUOUS
 10
117.7069944595
 20
174.4986780893
  0
VERTEX
  8
0
 62
7
  6
CONTINUOUS
 10
117.7101931829
 20
174.5007942174
  0
SEQEND
  0
POLYLINE
  8
0
 62
7
  6
CONTINUOUS
 66
1
 70
0
  0
VERTEX
  8
0
 62
7
  6
CONTINUOUS
 10
130.0517141359
 20
184.1069048399
  0
VERTEX
  8
0
 62
7
  6
CONTINUOUS
 10
130.0487124036
 20
184.1046227561
  0
VERTEX
  8
0
 62
7
  6
CONTINUOUS
 10
130.0458756651
 20
184.1020413068
  0
VERTEX
  8
0
 62
7
  6
CONTINUOUS
 10
130.0431981028
 20
184.0991363981
  0
SEQEND
  0
POLYLINE
  8
0
 62
7
  6
CONTINUOUS
 66
1
 70
0
  0
VERTEX
  8
0
 62
7
  6
CONTINUOUS
 10
130.0517143057
 20
184.1069049861
  0
VERTEX
  8
0
 62
7
  6
CONTINUOUS
 10
130.189177684
 20
184.203463389
  0
VERTEX
  8
0
 62
7
  6
CONTINUOUS
 10
130.3079818096
 20
184.2899412761
  0
VERTEX
  8
0
 62
7
  6
CONTINUOUS
 10
130.3559059983
 20
184.3261540075
  0
VERTEX
  8
0
 62
7
  6
CONTINUOUS
 10
130.421790555
 20
184.3792272637
  0
VERTEX
  8
0
 62
7
  6
CONTINUOUS
 10
130.4418266841
 20
184.4016947316
  0
SEQEND
  0
POLYLINE
  8
0
 62
9
  6
CONTINUOUS
 66
1
 70
0
  0
VERTEX
  8
0
 62
9
  6
CONTINUOUS
 10
120.8830946092
 20
175.2015568878
  0
VERTEX
  8
0
 62
9
  6
CONTINUOUS
 10
120.9801658102
 20
175.2553626131
  0
VERTEX
  8
0
 62
9
  6
CONTINUOUS
 10
121.1518910953
 20
175.3578840873
  0
VERTEX
  8
0
 62
9
  6
CONTINUOUS
 10
121.21797123
 20
175.4014811227
  0
VERTEX
  8
0
 62
9
  6
CONTINUOUS
 10
121.2942347989
 20
175.4625728174
  0
VERTEX
  8
0
 62
9
  6
CONTINUOUS
 10
121.3006104919
 20
175.4770172571
  0
SEQEND
  0
LINE
  8
0
 62
7
  6
CONTINUOUS
 10
117.7101931829
 20
174.5007942174
 11
120.5376172495
 21
176.0309223914
  0
POLYLINE
  8
0
 62
9
  6
CONTINUOUS
 66
1
 70
0
  0
VERTEX
  8
0
 62
9
  6
CONTINUOUS
 10
118.2190294376
 20
173.7598368827
  0
VERTEX
  8
0
 62
9
  6
CONTINUOUS
 10
118.1208922459
 20
173.7080011463
  0
VERTEX
  8
0
 62
9
  6
CONTINUOUS
 10
117.9411403279
 20
173.6203127187
  0
VERTEX
  8
0
 62
9
  6
CONTINUOUS
 10
117.8685002384
 20
173.588838127
  0
VERTEX
  8
0
 62
9
  6
CONTINUOUS
 10
117.7756445595
 20
173.5584070305
  0
VERTEX
  8
0
 62
9
  6
CONTINUOUS
 10
117.7600650597
 20
173.5609698867
  0
SEQEND
  0
POLYLINE
  8
0
 62
7
  6
CONTINUOUS
 66
1
 70
0
  0
VERTEX
  8
0
 62
7
  6
CONTINUOUS
 10
105.7490117774
 20
170.9549386006
  0
VERTEX
  8
0
 62
7
  6
CONTINUOUS
 10
105.5929901721
 20
170.892673089
  0
VERTEX
  8
0
 62
7
  6
CONTINUOUS
 10
105.4556131492
 20
170.8405152301
  0
VERTEX
  8
0
 62
7
  6
CONTINUOUS
 10
105.3990844142
 20
170.8202025564
  0
VERTEX
  8
0
 62
7
  6
CONTINUOUS
 10
105.3186155618
 20
170.7940798993
  0
VERTEX
  8
0
 62
7
  6
CONTINUOUS
 10
105.2888516763
 20
170.7895849172
  0
SEQEND
  0
POLYLINE
  8
0
 62
7
  6
CONTINUOUS
 66
1
 70
0
  0
VERTEX
  8
0
 62
7
  6
CONTINUOUS
 10
105.7490037739
 20
170.9549357436
  0
VERTEX
  8
0
 62
7
  6
CONTINUOUS
 10
105.7525636968
 20
170.9562045207
  0
VERTEX
  8
0
 62
7
  6
CONTINUOUS
 10
105.756276186
 20
170.9571673574
  0
SEQEND
  0
POLYLINE
  8
0
 62
7
  6
CONTINUOUS
 66
1
 70
0
  0
VERTEX
  8
0
 62
7
  6
CONTINUOUS
 10
120.5481979899
 20
176.0355069075
  0
VERTEX
  8
0
 62
7
  6
CONTINUOUS
 10
120.5446183965
 20
176.0343233252
  0
VERTEX
  8
0
 62
7
  6
CONTINUOUS
 10
120.541097169
 20
176.0328028346
  0
VERTEX
  8
0
 62
7
  6
CONTINUOUS
 10
120.5376214659
 20
176.0309247268
  0
SEQEND
  0
POLYLINE
  8
0
 62
7
  6
CONTINUOUS
 66
1
 70
0
  0
VERTEX
  8
0
 62
7
  6
CONTINUOUS
 10
120.5481986911
 20
176.0355071535
  0
VERTEX
  8
0
 62
7
  6
CONTINUOUS
 10
120.7095663757
 20
176.0821995141
  0
VERTEX
  8
0
 62
7
  6
CONTINUOUS
 10
120.8500126773
 20
176.1254162078
  0
VERTEX
  8
0
 62
7
  6
CONTINUOUS
 10
120.9070984464
 20
176.1441059125
  0
VERTEX
  8
0
 62
7
  6
CONTINUOUS
 10
120.9866460117
 20
176.1729109891
  0
VERTEX
  8
0
 62
7
  6
CONTINUOUS
 10
121.0128917826
 20
176.1876551225
  0
SEQEND
  0
POLYLINE
  8
0
 62
7
  6
CONTINUOUS
 66
1
 70
0
  0
VERTEX
  8
0
 62
7
  6
CONTINUOUS
 10
102.732301797
 20
246.388891736
  0
VERTEX
  8
0
 62
7
  6
CONTINUOUS
 10
102.8964438848
 20
246.4246282675
  0
VERTEX
  8
0
 62
7
  6
CONTINUOUS
 10
103.040531999
 20
246.4534638768
  0
VERTEX
  8
0
 62
7
  6
CONTINUOUS
 10
103.0996330085
 20
246.4641955974
  0
VERTEX
  8
0
 62
7
  6
CONTINUOUS
 10
103.1833036452
 20
246.476718799
  0
VERTEX
  8
0
 62
7
  6
CONTINUOUS
 10
103.2134020521
 20
246.4762505322
  0
SEQEND
  0
POLYLINE
  8
0
 62
7
  6
CONTINUOUS
 66
1
 70
0
  0
VERTEX
  8
0
 62
7
  6
CONTINUOUS
 10
102.7323000976
 20
246.3888914396
  0
VERTEX
  8
0
 62
7
  6
CONTINUOUS
 10
102.7285898445
 20
246.3882280523
  0
VERTEX
  8
0
 62
7
  6
CONTINUOUS
 10
102.7247694609
 20
246.3878893917
  0
VERTEX
  8
0
 62
7
  6
CONTINUOUS
 10
102.7208189152
 20
246.3878868919
  0
SEQEND
  0
POLYLINE
  8
0
 62
7
  6
CONTINUOUS
 66
1
 70
0
  0
VERTEX
  8
0
 62
7
  6
CONTINUOUS
 10
87.298723498
 20
243.8134821547
  0
VERTEX
  8
0
 62
7
  6
CONTINUOUS
 10
87.3024484988
 20
243.8140603374
  0
VERTEX
  8
0
 62
7
  6
CONTINUOUS
 10
87.3061719681
 20
243.8149805158
  0
VERTEX
  8
0
 62
7
  6
CONTINUOUS
 10
87.3099093957
 20
243.8162609274
  0
SEQEND
  0
POLYLINE
  8
0
 62
7
  6
CONTINUOUS
 66
1
 70
0
  0
VERTEX
  8
0
 62
7
  6
CONTINUOUS
 10
87.2987221831
 20
243.8134819368
  0
VERTEX
  8
0
 62
7
  6
CONTINUOUS
 10
87.1318700317
 20
243.7939866721
  0
VERTEX
  8
0
 62
7
  6
CONTINUOUS
 10
86.9862259986
 20
243.7744761281
  0
VERTEX
  8
0
 62
7
  6
CONTINUOUS
 10
86.9268425793
 20
243.7654373543
  0
VERTEX
  8
0
 62
7
  6
CONTINUOUS
 10
86.843638772
 20
243.750118315
  0
VERTEX
  8
0
 62
7
  6
CONTINUOUS
 10
86.8153241719
 20
243.7398950492
  0
SEQEND
  0
POLYLINE
  8
0
 62
9
  6
CONTINUOUS
 66
1
 70
0
  0
VERTEX
  8
0
 62
9
  6
CONTINUOUS
 10
99.6007597489
 20
247.2817211785
  0
VERTEX
  8
0
 62
9
  6
CONTINUOUS
 10
99.4897794811
 20
247.2806012402
  0
VERTEX
  8
0
 62
9
  6
CONTINUOUS
 10
99.2899567761
 20
247.2721684961
  0
VERTEX
  8
0
 62
9
  6
CONTINUOUS
 10
99.2110911398
 20
247.2652767156
  0
VERTEX
  8
0
 62
9
  6
CONTINUOUS
 10
99.1149429047
 20
247.2478456207
  0
VERTEX
  8
0
 62
9
  6
CONTINUOUS
 10
99.1024608573
 20
247.2381766099
  0
SEQEND
  0
POLYLINE
  8
0
 62
9
  6
CONTINUOUS
 66
1
 70
0
  0
VERTEX
  8
0
 62
9
  6
CONTINUOUS
 10
102.6299180168
 20
247.2817212061
  0
VERTEX
  8
0
 62
9
  6
CONTINUOUS
 10
102.7408981845
 20
247.280601235
  0
VERTEX
  8
0
 62
9
  6
CONTINUOUS
 10
102.9407203566
 20
247.2721684486
  0
VERTEX
  8
0
 62
9
  6
CONTINUOUS
 10
103.0195856584
 20
247.2652766646
  0
VERTEX
  8
0
 62
9
  6
CONTINUOUS
 10
103.1157333917
 20
247.2478455969
  0
VERTEX
  8
0
 62
9
  6
CONTINUOUS
 10
103.1282153682
 20
247.2381766099
  0
SEQEND
  0
POLYLINE
  8
0
 62
7
  6
CONTINUOUS
 66
1
 70
0
  0
VERTEX
  8
0
 62
7
  6
CONTINUOUS
 10
114.9319553467
 20
243.8134828488
  0
VERTEX
  8
0
 62
7
  6
CONTINUOUS
 10
115.0988073954
 20
243.7939862154
  0
VERTEX
  8
0
 62
7
  6
CONTINUOUS
 10
115.2444513242
 20
243.7744740836
  0
VERTEX
  8
0
 62
7
  6
CONTINUOUS
 10
115.3038346612
 20
243.7654342542
  0
VERTEX
  8
0
 62
7
  6
CONTINUOUS
 10
115.3870380654
 20
243.7501110666
  0
VERTEX
  8
0
 62
7
  6
CONTINUOUS
 10
115.4153536201
 20
243.7398953016
  0
SEQEND
  0
POLYLINE
  8
0
 62
7
  6
CONTINUOUS
 66
1
 70
0
  0
VERTEX
  8
0
 62
7
  6
CONTINUOUS
 10
114.9319536038
 20
243.8134831263
  0
VERTEX
  8
0
 62
7
  6
CONTINUOUS
 10
114.9282290201
 20
243.8140603866
  0
VERTEX
  8
0
 62
7
  6
CONTINUOUS
 10
114.9245056736
 20
243.814980552
  0
SEQEND
  0
POLYLINE
  8
0
 62
7
  6
CONTINUOUS
 66
1
 70
0
  0
VERTEX
  8
0
 62
7
  6
CONTINUOUS
 10
99.4983766477
 20
246.3888907063
  0
VERTEX
  8
0
 62
7
  6
CONTINUOUS
 10
99.5020876592
 20
246.3882280872
  0
VERTEX
  8
0
 62
7
  6
CONTINUOUS
 10
99.5059081693
 20
246.3878893976
  0
VERTEX
  8
0
 62
7
  6
CONTINUOUS
 10
99.5098588493
 20
246.3878868919
  0
SEQEND
  0
POLYLINE
  8
0
 62
7
  6
CONTINUOUS
 66
1
 70
0
  0
VERTEX
  8
0
 62
7
  6
CONTINUOUS
 10
99.4983754234
 20
246.3888909107
  0
VERTEX
  8
0
 62
7
  6
CONTINUOUS
 10
99.3342337003
 20
246.4246288369
  0
VERTEX
  8
0
 62
7
  6
CONTINUOUS
 10
99.1901460244
 20
246.4534660618
  0
VERTEX
  8
0
 62
7
  6
CONTINUOUS
 10
99.1310452939
 20
246.4641988632
  0
VERTEX
  8
0
 62
7
  6
CONTINUOUS
 10
99.0473756775
 20
246.4767263507
  0
VERTEX
  8
0
 62
7
  6
CONTINUOUS
 10
99.0172756551
 20
246.4762502789
  0
SEQEND
  0
POLYLINE
  8
0
 62
9
  6
CONTINUOUS
 66
1
 70
0
  0
VERTEX
  8
0
 62
9
  6
CONTINUOUS
 10
112.2599901326
 20
245.6747463621
  0
VERTEX
  8
0
 62
9
  6
CONTINUOUS
 10
112.1546594385
 20
245.7097223391
  0
VERTEX
  8
0
 62
9
  6
CONTINUOUS
 10
111.9629255715
 20
245.7666288305
  0
VERTEX
  8
0
 62
9
  6
CONTINUOUS
 10
111.8860953357
 20
245.7857180959
  0
VERTEX
  8
0
 62
9
  6
CONTINUOUS
 10
111.7894968101
 20
245.8004507467
  0
VERTEX
  8
0
 62
9
  6
CONTINUOUS
 10
111.7745515518
 20
245.7953585437
  0
SEQEND
  0
LINE
  8
0
 62
7
  6
CONTINUOUS
 10
114.9245056736
 20
243.814980552
 11
111.8837915419
 21
244.8588564241
  0
POLYLINE
  8
0
 62
9
  6
CONTINUOUS
 66
1
 70
0
  0
VERTEX
  8
0
 62
9
  6
CONTINUOUS
 10
115.1250202592
 20
244.6911803064
  0
VERTEX
  8
0
 62
9
  6
CONTINUOUS
 10
115.2296235613
 20
244.654085817
  0
VERTEX
  8
0
 62
9
  6
CONTINUOUS
 10
115.4158806957
 20
244.581227789
  0
VERTEX
  8
0
 62
9
  6
CONTINUOUS
 10
115.4882350993
 20
244.5491018992
  0
VERTEX
  8
0
 62
9
  6
CONTINUOUS
 10
115.5735134248
 20
244.5013961768
  0
VERTEX
  8
0
 62
9
  6
CONTINUOUS
 10
115.5821795784
 20
244.488198191
  0
SEQEND
  0
POLYLINE
  8
0
 62
7
  6
CONTINUOUS
 66
1
 70
0
  0
VERTEX
  8
0
 62
7
  6
CONTINUOUS
 10
125.634364124
 20
237.4163957258
  0
VERTEX
  8
0
 62
7
  6
CONTINUOUS
 10
125.7858450957
 20
237.3437786387
  0
VERTEX
  8
0
 62
7
  6
CONTINUOUS
 10
125.9172620246
 20
237.2780331487
  0
VERTEX
  8
0
 62
7
  6
CONTINUOUS
 10
125.9704925597
 20
237.2502013364
  0
VERTEX
  8
0
 62
7
  6
CONTINUOUS
 10
126.044212259
 20
237.2086921157
  0
VERTEX
  8
0
 62
7
  6
CONTINUOUS
 10
126.067676711
 20
237.1898361594
  0
SEQEND
  0
POLYLINE
  8
0
 62
7
  6
CONTINUOUS
 66
1
 70
0
  0
VERTEX
  8
0
 62
7
  6
CONTINUOUS
 10
125.6343625713
 20
237.4163965509
  0
VERTEX
  8
0
 62
7
  6
CONTINUOUS
 10
125.6310272116
 20
237.4181518665
  0
VERTEX
  8
0
 62
7
  6
CONTINUOUS
 10
125.6278043891
 20
237.4202311407
  0
SEQEND
  0
POLYLINE
  8
0
 62
7
  6
CONTINUOUS
 66
1
 70
0
  0
VERTEX
  8
0
 62
7
  6
CONTINUOUS
 10
111.8732528123
 20
244.8635356581
  0
VERTEX
  8
0
 62
7
  6
CONTINUOUS
 10
111.8765476344
 20
244.8617039671
  0
VERTEX
  8
0
 62
7
  6
CONTINUOUS
 10
111.8800511673
 20
244.8601431106
  0
VERTEX
  8
0
 62
7
  6
CONTINUOUS
 10
111.8837869761
 20
244.8588579564
  0
SEQEND
  0
POLYLINE
  8
0
 62
7
  6
CONTINUOUS
 66
1
 70
0
  0
VERTEX
  8
0
 62
7
  6
CONTINUOUS
 10
111.8732517514
 20
244.8635362318
  0
VERTEX
  8
0
 62
7
  6
CONTINUOUS
 10
111.7296077723
 20
244.9506345195
  0
VERTEX
  8
0
 62
7
  6
CONTINUOUS
 10
111.6026906041
 20
245.0246944683
  0
VERTEX
  8
0
 62
7
  6
CONTINUOUS
 10
111.5502770548
 20
245.0540357214
  0
VERTEX
  8
0
 62
7
  6
CONTINUOUS
 10
111.4752085803
 20
245.0930519513
  0
VERTEX
  8
0
 62
7
  6
CONTINUOUS
 10
111.4465848422
 20
245.102375072
  0
SEQEND
  0
POLYLINE
  8
0
 62
9
  6
CONTINUOUS
 66
1
 70
0
  0
VERTEX
  8
0
 62
9
  6
CONTINUOUS
 10
123.7115246252
 20
240.0443964861
  0
VERTEX
  8
0
 62
9
  6
CONTINUOUS
 10
123.6232577202
 20
240.1116781915
  0
VERTEX
  8
0
 62
9
  6
CONTINUOUS
 10
123.4603900051
 20
240.2277572411
  0
VERTEX
  8
0
 62
9
  6
CONTINUOUS
 10
123.3939208976
 20
240.2707589503
  0
VERTEX
  8
0
 62
9
  6
CONTINUOUS
 10
123.3073399971
 20
240.3160588585
  0
VERTEX
  8
0
 62
9
  6
CONTINUOUS
 10
123.2915510726
 20
240.3160952846
  0
SEQEND
  0
LINE
  8
0
 62
7
  6
CONTINUOUS
 10
125.6278043891
 20
237.4202311407
 11
123.0907904842
 21
239.3948652005
  0
POLYLINE
  8
0
 62
9
  6
CONTINUOUS
 66
1
 70
0
  0
VERTEX
  8
0
 62
9
  6
CONTINUOUS
 10
126.1019561418
 20
238.1838489925
  0
VERTEX
  8
0
 62
9
  6
CONTINUOUS
 10
126.1888471874
 20
238.1147997481
  0
VERTEX
  8
0
 62
9
  6
CONTINUOUS
 10
126.3413554335
 20
237.9854117763
  0
VERTEX
  8
0
 62
9
  6
CONTINUOUS
 10
126.3993582166
 20
237.9315331194
  0
VERTEX
  8
0
 62
9
  6
CONTINUOUS
 10
126.4645259044
 20
237.8587223977
  0
VERTEX
  8
0
 62
9
  6
CONTINUOUS
 10
126.468437123
 20
237.8434256197
  0
SEQEND
  0
POLYLINE
  8
0
 62
7
  6
CONTINUOUS
 66
1
 70
0
  0
VERTEX
  8
0
 62
7
  6
CONTINUOUS
 10
133.6797560831
 20
227.890853948
  0
VERTEX
  8
0
 62
7
  6
CONTINUOUS
 10
133.7994506512
 20
227.7729856444
  0
VERTEX
  8
0
 62
7
  6
CONTINUOUS
 10
133.9023995032
 20
227.6681313977
  0
VERTEX
  8
0
 62
7
  6
CONTINUOUS
 10
133.9437088735
 20
227.6245236493
  0
VERTEX
  8
0
 62
7
  6
CONTINUOUS
 10
133.9999561648
 20
227.5613267132
  0
VERTEX
  8
0
 62
7
  6
CONTINUOUS
 10
134.0160268252
 20
227.5358736249
  0
SEQEND
  0
POLYLINE
  8
0
 62
7
  6
CONTINUOUS
 66
1
 70
0
  0
VERTEX
  8
0
 62
7
  6
CONTINUOUS
 10
133.6797554447
 20
227.8908546355
  0
VERTEX
  8
0
 62
7
  6
CONTINUOUS
 10
133.6771701818
 20
227.8935984172
  0
VERTEX
  8
0
 62
7
  6
CONTINUOUS
 10
133.6747971216
 20
227.8966114778
  0
SEQEND
  0
POLYLINE
  8
0
 62
7
  6
CONTINUOUS
 66
1
 70
0
  0
VERTEX
  8
0
 62
7
  6
CONTINUOUS
 10
123.0823371624
 20
239.402718988
  0
VERTEX
  8
0
 62
7
  6
CONTINUOUS
 10
123.0848637582
 20
239.3999104542
  0
VERTEX
  8
0
 62
7
  6
CONTINUOUS
 10
123.0876706098
 20
239.397296624
  0
VERTEX
  8
0
 62
7
  6
CONTINUOUS
 10
123.0907866622
 20
239.3948681314
  0
SEQEND
  0
POLYLINE
  8
0
 62
7
  6
CONTINUOUS
 66
1
 70
0
  0
VERTEX
  8
0
 62
7
  6
CONTINUOUS
 10
123.082341761
 20
239.4027138608
  0
VERTEX
  8
0
 62
7
  6
CONTINUOUS
 10
122.9747610041
 20
239.5317336104
  0
VERTEX
  8
0
 62
7
  6
CONTINUOUS
 10
122.8787671109
 20
239.642990215
  0
VERTEX
  8
0
 62
7
  6
CONTINUOUS
 10
122.8387201096
 20
239.6877599792
  0
VERTEX
  8
0
 62
7
  6
CONTINUOUS
 10
122.7803858054
 20
239.7490354533
  0
VERTEX
  8
0
 62
7
  6
CONTINUOUS
 10
122.7563432991
 20
239.7671501803
  0
SEQEND
  0
POLYLINE
  8
0
 62
9
  6
CONTINUOUS
 66
1
 70
0
  0
VERTEX
  8
0
 62
9
  6
CONTINUOUS
 10
132.7144117785
 20
231.0008073277
  0
VERTEX
  8
0
 62
9
  6
CONTINUOUS
 10
132.6527737508
 20
231.0931037397
  0
VERTEX
  8
0
 62
9
  6
CONTINUOUS
 10
132.536421478
 20
231.2557763391
  0
VERTEX
  8
0
 62
9
  6
CONTINUOUS
 10
132.4875164946
 20
231.3180305616
  0
VERTEX
  8
0
 62
9
  6
CONTINUOUS
 10
132.4203356638
 20
231.388988739
  0
VERTEX
  8
0
 62
9
  6
CONTINUOUS
 10
132.4054140587
 20
231.3941498433
  0
SEQEND
  0
LINE
  8
0
 62
7
  6
CONTINUOUS
 10
133.6747971216
 20
227.8966114778
 11
131.916408262
 21
230.5880214844
  0
POLYLINE
  8
0
 62
9
  6
CONTINUOUS
 66
1
 70
0
  0
VERTEX
  8
0
 62
9
  6
CONTINUOUS
 10
134.371204337
 20
228.4648975837
  0
VERTEX
  8
0
 62
9
  6
CONTINUOUS
 10
134.4309671331
 20
228.3713761414
  0
VERTEX
  8
0
 62
9
  6
CONTINUOUS
 10
134.533199856
 20
228.1994794203
  0
VERTEX
  8
0
 62
9
  6
CONTINUOUS
 10
134.570565517
 20
228.1296865848
  0
VERTEX
  8
0
 62
9
  6
CONTINUOUS
 10
134.6085606371
 20
228.0396610351
  0
VERTEX
  8
0
 62
9
  6
CONTINUOUS
 10
134.6072930793
 20
228.0239231081
  0
SEQEND
  0
POLYLINE
  8
0
 62
7
  6
CONTINUOUS
 66
1
 70
0
  0
VERTEX
  8
0
 62
7
  6
CONTINUOUS
 10
138.1962881264
 20
216.2690977596
  0
VERTEX
  8
0
 62
7
  6
CONTINUOUS
 10
138.2712255772
 20
216.1187511459
  0
VERTEX
  8
0
 62
7
  6
CONTINUOUS
 10
138.3345503051
 20
215.9861507798
  0
VERTEX
  8
0
 62
7
  6
CONTINUOUS
 10
138.3594620385
 20
215.9314927058
  0
VERTEX
  8
0
 62
7
  6
CONTINUOUS
 10
138.3921418077
 20
215.8534565525
  0
VERTEX
  8
0
 62
7
  6
CONTINUOUS
 10
138.3990768815
 20
215.8241643366
  0
SEQEND
  0
POLYLINE
  8
0
 62
7
  6
CONTINUOUS
 66
1
 70
0
  0
VERTEX
  8
0
 62
7
  6
CONTINUOUS
 10
138.196288001
 20
216.2690980538
  0
VERTEX
  8
0
 62
7
  6
CONTINUOUS
 10
138.194733489
 20
216.2725331824
  0
VERTEX
  8
0
 62
7
  6
CONTINUOUS
 10
138.193467345
 20
216.2761535222
  0
SEQEND
  0
POLYLINE
  8
0
 62
7
  6
CONTINUOUS
 66
1
 70
0
  0
VERTEX
  8
0
 62
7
  6
CONTINUOUS
 10
131.9109647409
 20
230.5981897576
  0
VERTEX
  8
0
 62
7
  6
CONTINUOUS
 10
131.9124408089
 20
230.5947178667
  0
VERTEX
  8
0
 62
7
  6
CONTINUOUS
 10
131.9142468853
 20
230.5913342316
  0
VERTEX
  8
0
 62
7
  6
CONTINUOUS
 10
131.9164055972
 20
230.588025497
  0
SEQEND
  0
POLYLINE
  8
0
 62
7
  6
CONTINUOUS
 66
1
 70
0
  0
VERTEX
  8
0
 62
7
  6
CONTINUOUS
 10
131.9109653969
 20
230.5981881811
  0
VERTEX
  8
0
 62
7
  6
CONTINUOUS
 10
131.8511068256
 20
230.7551488717
  0
VERTEX
  8
0
 62
7
  6
CONTINUOUS
 10
131.7964397148
 20
230.8915466519
  0
VERTEX
  8
0
 62
7
  6
CONTINUOUS
 10
131.773099698
 20
230.9468940463
  0
VERTEX
  8
0
 62
7
  6
CONTINUOUS
 10
131.7378238521
 20
231.0237911516
  0
VERTEX
  8
0
 62
7
  6
CONTINUOUS
 10
131.7209630096
 20
231.0487298334
  0
SEQEND
  0
POLYLINE
  8
0
 62
9
  6
CONTINUOUS
 66
1
 70
0
  0
VERTEX
  8
0
 62
9
  6
CONTINUOUS
 10
138.2930490733
 20
219.5239920942
  0
VERTEX
  8
0
 62
9
  6
CONTINUOUS
 10
138.2647193589
 20
219.6313014658
  0
VERTEX
  8
0
 62
9
  6
CONTINUOUS
 10
138.2074910825
 20
219.8229395189
  0
VERTEX
  8
0
 62
9
  6
CONTINUOUS
 10
138.181449822
 20
219.8977000456
  0
VERTEX
  8
0
 62
9
  6
CONTINUOUS
 10
138.1409491225
 20
219.9866270738
  0
VERTEX
  8
0
 62
9
  6
CONTINUOUS
 10
138.1285118207
 20
219.9963535699
  0
SEQEND
  0
LINE
  8
0
 62
7
  6
CONTINUOUS
 10
138.193467345
 20
216.2761535222
 11
137.404252245
 21
219.3926834444
  0
POLYLINE
  8
0
 62
9
  6
CONTINUOUS
 66
1
 70
0
  0
VERTEX
  8
0
 62
9
  6
CONTINUOUS
 10
139.0366634923
 20
216.5875252703
  0
VERTEX
  8
0
 62
9
  6
CONTINUOUS
 10
139.0628218126
 20
216.4796661296
  0
VERTEX
  8
0
 62
9
  6
CONTINUOUS
 10
139.1037005105
 20
216.2838883361
  0
VERTEX
  8
0
 62
9
  6
CONTINUOUS
 10
139.1163799003
 20
216.2057444586
  0
VERTEX
  8
0
 62
9
  6
CONTINUOUS
 10
139.1230850917
 20
216.1082597462
  0
VERTEX
  8
0
 62
9
  6
CONTINUOUS
 10
139.1167761172
 20
216.0937861189
  0
SEQEND
  0
POLYLINE
  8
0
 62
7
  6
CONTINUOUS
 66
1
 70
0
  0
VERTEX
  8
0
 62
7
  6
CONTINUOUS
 10
138.6945239532
 20
203.8105248398
  0
VERTEX
  8
0
 62
7
  6
CONTINUOUS
 10
138.716583634
 20
203.6439922724
  0
VERTEX
  8
0
 62
7
  6
CONTINUOUS
 10
138.7334219993
 20
203.4980150569
  0
VERTEX
  8
0
 62
7
  6
CONTINUOUS
 10
138.7392365069
 20
203.438229683
  0
VERTEX
  8
0
 62
7
  6
CONTINUOUS
 10
138.7448073249
 20
203.3538106443
  0
VERTEX
  8
0
 62
7
  6
CONTINUOUS
 10
138.7418554108
 20
203.3238537394
  0
SEQEND
  0
POLYLINE
  8
0
 62
9
  6
CONTINUOUS
 66
1
 70
0
  0
VERTEX
  8
0
 62
9
  6
CONTINUOUS
 10
141.4926461863
 20
206.7208703157
  0
VERTEX
  8
0
 62
9
  6
CONTINUOUS
 10
141.5050615021
 20
206.9113352998
  0
VERTEX
  8
0
 62
9
  6
CONTINUOUS
 10
141.5089940637
 20
207.0732211191
  0
VERTEX
  8
0
 62
9
  6
CONTINUOUS
 10
141.5038476293
 20
207.1819831846
  0
VERTEX
  8
0
 62
9
  6
CONTINUOUS
 10
141.4904024841
 20
207.2211313542
  0
SEQEND
  0
LINE
  8
0
 62
9
  6
CONTINUOUS
 10
141.4926460425
 20
206.7208671364
 11
141.2425121988
 21
203.7022004989
  0
LINE
  8
0
 62
7
  6
CONTINUOUS
 10
141.9486022718
 20
206.7002497534
 11
141.6956432721
 21
203.6474886181
  0
POLYLINE
  8
0
 62
9
  6
CONTINUOUS
 66
1
 70
0
  0
VERTEX
  8
0
 62
9
  6
CONTINUOUS
 10
141.2425118003
 20
203.7021971984
  0
VERTEX
  8
0
 62
9
  6
CONTINUOUS
 10
141.2233885263
 20
203.5121274755
  0
VERTEX
  8
0
 62
9
  6
CONTINUOUS
 10
141.2006003913
 20
203.351719006
  0
VERTEX
  8
0
 62
9
  6
CONTINUOUS
 10
141.1776217369
 20
203.2453494848
  0
VERTEX
  8
0
 62
9
  6
CONTINUOUS
 10
141.1579584387
 20
203.2091283697
  0
SEQEND
  0
POLYLINE
  8
0
 62
9
  6
CONTINUOUS
 66
1
 70
0
  0
VERTEX
  8
0
 62
9
  6
CONTINUOUS
 10
138.7119718668
 20
193.7093209878
  0
VERTEX
  8
0
 62
9
  6
CONTINUOUS
 10
138.7855583658
 20
193.8854348073
  0
VERTEX
  8
0
 62
9
  6
CONTINUOUS
 10
138.84184209
 20
194.0372723056
  0
VERTEX
  8
0
 62
9
  6
CONTINUOUS
 10
138.8722894886
 20
194.1418123869
  0
VERTEX
  8
0
 62
9
  6
CONTINUOUS
 10
138.8722842283
 20
194.1832050322
  0
SEQEND
  0
LINE
  8
0
 62
9
  6
CONTINUOUS
 10
138.7119706985
 20
193.7093180274
 11
137.4952303415
 21
190.935429401
  0
LINE
  8
0
 62
7
  6
CONTINUOUS
 10
139.1365275083
 20
193.5417690054
 11
137.9060446047
 21
190.7365505418
  0
POLYLINE
  8
0
 62
9
  6
CONTINUOUS
 66
1
 70
0
  0
VERTEX
  8
0
 62
9
  6
CONTINUOUS
 10
137.4952288929
 20
190.9354264087
  0
VERTEX
  8
0
 62
9
  6
CONTINUOUS
 10
137.4154262325
 20
190.7618645047
  0
VERTEX
  8
0
 62
9
  6
CONTINUOUS
 10
137.3417882766
 20
190.6175467037
  0
VERTEX
  8
0
 62
9
  6
CONTINUOUS
 10
137.285516542
 20
190.5244017335
  0
VERTEX
  8
0
 62
9
  6
CONTINUOUS
 10
137.2551576787
 20
190.4965278409
  0
SEQEND
  0
POLYLINE
  8
0
 62
9
  6
CONTINUOUS
 66
1
 70
0
  0
VERTEX
  8
0
 62
9
  6
CONTINUOUS
 10
131.8571189916
 20
182.3056567678
  0
VERTEX
  8
0
 62
9
  6
CONTINUOUS
 10
131.9839024348
 20
182.4483347576
  0
VERTEX
  8
0
 62
9
  6
CONTINUOUS
 10
132.0864381067
 20
182.5736699861
  0
VERTEX
  8
0
 62
9
  6
CONTINUOUS
 10
132.1491798901
 20
182.6626595433
  0
VERTEX
  8
0
 62
9
  6
CONTINUOUS
 10
132.1626150848
 20
182.7018111289
  0
SEQEND
  0
LINE
  8
0
 62
9
  6
CONTINUOUS
 10
131.8571169254
 20
182.3056543472
 11
129.8056227524
 21
180.0771376058
  0
LINE
  8
0
 62
7
  6
CONTINUOUS
 10
132.2042669977
 20
182.0093302226
 11
130.1296021057
 21
179.7556433786
  0
POLYLINE
  8
0
 62
9
  6
CONTINUOUS
 66
1
 70
0
  0
VERTEX
  8
0
 62
9
  6
CONTINUOUS
 10
129.8056204108
 20
180.077135246
  0
VERTEX
  8
0
 62
9
  6
CONTINUOUS
 10
129.6737862204
 20
179.9388892861
  0
VERTEX
  8
0
 62
9
  6
CONTINUOUS
 10
129.5572782588
 20
179.8263012269
  0
VERTEX
  8
0
 62
9
  6
CONTINUOUS
 10
129.4738113595
 20
179.7564745105
  0
VERTEX
  8
0
 62
9
  6
CONTINUOUS
 10
129.4360467851
 20
179.739968409
  0
SEQEND
  0
POLYLINE
  8
0
 62
9
  6
CONTINUOUS
 66
1
 70
0
  0
VERTEX
  8
0
 62
9
  6
CONTINUOUS
 10
121.6709172337
 20
173.74564162
  0
VERTEX
  8
0
 62
9
  6
CONTINUOUS
 10
121.8371586678
 20
173.839422406
  0
VERTEX
  8
0
 62
9
  6
CONTINUOUS
 10
121.9748349563
 20
173.9246733479
  0
VERTEX
  8
0
 62
9
  6
CONTINUOUS
 10
122.0630720789
 20
173.9884689817
  0
VERTEX
  8
0
 62
9
  6
CONTINUOUS
 10
122.0884918167
 20
174.0211368258
  0
SEQEND
  0
LINE
  8
0
 62
9
  6
CONTINUOUS
 10
121.6709144935
 20
173.7456400014
 11
119.0069777304
 21
172.3039895131
  0
LINE
  8
0
 62
7
  6
CONTINUOUS
 10
121.9030387313
 20
173.352652091
 11
119.2090139837
 21
171.8947188058
  0
POLYLINE
  8
0
 62
9
  6
CONTINUOUS
 66
1
 70
0
  0
VERTEX
  8
0
 62
9
  6
CONTINUOUS
 10
119.0069747494
 20
172.3039880415
  0
VERTEX
  8
0
 62
9
  6
CONTINUOUS
 10
118.8373953093
 20
172.2160391206
  0
VERTEX
  8
0
 62
9
  6
CONTINUOUS
 10
118.6906427873
 20
172.1473814663
  0
VERTEX
  8
0
 62
9
  6
CONTINUOUS
 10
118.5890256572
 20
172.1084398119
  0
VERTEX
  8
0
 62
9
  6
CONTINUOUS
 10
118.5479477491
 20
172.1050901938
  0
SEQEND
  0
POLYLINE
  8
0
 62
9
  6
CONTINUOUS
 66
1
 70
0
  0
VERTEX
  8
0
 62
9
  6
CONTINUOUS
 10
99.6008295063
 20
248.9371225646
  0
VERTEX
  8
0
 62
9
  6
CONTINUOUS
 10
99.409989808
 20
248.9337670021
  0
VERTEX
  8
0
 62
9
  6
CONTINUOUS
 10
99.2483321625
 20
248.924317707
  0
VERTEX
  8
0
 62
9
  6
CONTINUOUS
 10
99.1403665638
 20
248.9102073501
  0
VERTEX
  8
0
 62
9
  6
CONTINUOUS
 10
99.1024623964
 20
248.8935752967
  0
SEQEND
  0
LINE
  8
0
 62
9
  6
CONTINUOUS
 10
99.6008326866
 20
248.9371226838
 11
102.6298449362
 21
248.9371226892
  0
LINE
  8
0
 62
7
  6
CONTINUOUS
 10
99.5837270838
 20
249.3932241614
 11
102.6469506807
 21
249.3932241614
  0
POLYLINE
  8
0
 62
9
  6
CONTINUOUS
 66
1
 70
0
  0
VERTEX
  8
0
 62
9
  6
CONTINUOUS
 10
102.6298482583
 20
248.9371225646
  0
VERTEX
  8
0
 62
9
  6
CONTINUOUS
 10
102.8208479842
 20
248.9337604395
  0
VERTEX
  8
0
 62
9
  6
CONTINUOUS
 10
102.9825904068
 20
248.924296564
  0
VERTEX
  8
0
 62
9
  6
CONTINUOUS
 10
103.0904941843
 20
248.9101803188
  0
VERTEX
  8
0
 62
9
  6
CONTINUOUS
 10
103.1282153682
 20
248.8935752967
  0
SEQEND
  0
POLYLINE
  8
0
 62
9
  6
CONTINUOUS
 66
1
 70
0
  0
VERTEX
  8
0
 62
9
  6
CONTINUOUS
 10
112.7975640617
 20
247.2404308848
  0
VERTEX
  8
0
 62
9
  6
CONTINUOUS
 10
112.6159750353
 20
247.2992226847
  0
VERTEX
  8
0
 62
9
  6
CONTINUOUS
 10
112.4600082659
 20
247.3427755302
  0
VERTEX
  8
0
 62
9
  6
CONTINUOUS
 10
112.3533109157
 20
247.3644860839
  0
VERTEX
  8
0
 62
9
  6
CONTINUOUS
 10
112.3120600817
 20
247.361062664
  0
SEQEND
  0
LINE
  8
0
 62
9
  6
CONTINUOUS
 10
112.7975671084
 20
247.2404299649
 11
115.6624591212
 21
246.2569113003
  0
LINE
  8
0
 62
7
  6
CONTINUOUS
 10
115.8267339352
 20
246.6827457106
 11
112.9294842421
 21
247.6773727865
  0
POLYLINE
  8
0
 62
9
  6
CONTINUOUS
 66
1
 70
0
  0
VERTEX
  8
0
 62
9
  6
CONTINUOUS
 10
115.6624622228
 20
246.2569101038
  0
VERTEX
  8
0
 62
9
  6
CONTINUOUS
 10
115.8420213765
 20
246.1917126383
  0
VERTEX
  8
0
 62
9
  6
CONTINUOUS
 10
115.9919272331
 20
246.130243863
  0
VERTEX
  8
0
 62
9
  6
CONTINUOUS
 10
116.0894009491
 20
246.0818561755
  0
VERTEX
  8
0
 62
9
  6
CONTINUOUS
 10
116.1196866533
 20
246.0539028109
  0
SEQEND
  0
POLYLINE
  8
0
 62
9
  6
CONTINUOUS
 66
1
 70
0
  0
VERTEX
  8
0
 62
9
  6
CONTINUOUS
 10
124.7283482506
 20
241.3506979348
  0
VERTEX
  8
0
 62
9
  6
CONTINUOUS
 10
124.5756878847
 20
241.4652660933
  0
VERTEX
  8
0
 62
9
  6
CONTINUOUS
 10
124.4423134109
 20
241.5571014527
  0
VERTEX
  8
0
 62
9
  6
CONTINUOUS
 10
124.3484466227
 20
241.6122802417
  0
VERTEX
  8
0
 62
9
  6
CONTINUOUS
 10
124.30831929
 20
241.6224364361
  0
SEQEND
  0
LINE
  8
0
 62
9
  6
CONTINUOUS
 10
124.7283508336
 20
241.3506960755
 11
127.1186671064
 21
239.4902382491
  0
LINE
  8
0
 62
7
  6
CONTINUOUS
 10
127.412309265
 20
239.8396598315
 11
124.9949954353
 21
241.7211307066
  0
POLYLINE
  8
0
 62
9
  6
CONTINUOUS
 66
1
 70
0
  0
VERTEX
  8
0
 62
9
  6
CONTINUOUS
 10
127.1186696515
 20
239.4902361103
  0
VERTEX
  8
0
 62
9
  6
CONTINUOUS
 10
127.2673302125
 20
239.3702684615
  0
VERTEX
  8
0
 62
9
  6
CONTINUOUS
 10
127.3891548777
 20
239.2634558818
  0
VERTEX
  8
0
 62
9
  6
CONTINUOUS
 10
127.4656357424
 20
239.1860403089
  0
VERTEX
  8
0
 62
9
  6
CONTINUOUS
 10
127.485204041
 20
239.1497677826
  0
SEQEND
  0
POLYLINE
  8
0
 62
9
  6
CONTINUOUS
 66
1
 70
0
  0
VERTEX
  8
0
 62
9
  6
CONTINUOUS
 10
134.1002964808
 20
231.9061676684
  0
VERTEX
  8
0
 62
9
  6
CONTINUOUS
 10
133.9931078949
 20
232.0640969478
  0
VERTEX
  8
0
 62
9
  6
CONTINUOUS
 10
133.8967789104
 20
232.194263035
  0
VERTEX
  8
0
 62
9
  6
CONTINUOUS
 10
133.8259146072
 20
232.2769305813
  0
VERTEX
  8
0
 62
9
  6
CONTINUOUS
 10
133.7912591951
 20
232.2995658087
  0
SEQEND
  0
LINE
  8
0
 62
9
  6
CONTINUOUS
 10
134.1002983201
 20
231.9061650711
 11
135.7570109954
 21
229.3703775564
  0
LINE
  8
0
 62
7
  6
CONTINUOUS
 10
134.4727753099
 20
232.1699491714
 11
136.1481998142
 21
229.6055210607
  0
POLYLINE
  8
0
 62
9
  6
CONTINUOUS
 66
1
 70
0
  0
VERTEX
  8
0
 62
9
  6
CONTINUOUS
 10
135.7570127082
 20
229.3703747071
  0
VERTEX
  8
0
 62
9
  6
CONTINUOUS
 10
135.858664998
 20
229.2086372312
  0
VERTEX
  8
0
 62
9
  6
CONTINUOUS
 10
135.9392068788
 20
229.0680556476
  0
VERTEX
  8
0
 62
9
  6
CONTINUOUS
 10
135.9864070039
 20
228.9700013678
  0
VERTEX
  8
0
 62
9
  6
CONTINUOUS
 10
135.9931373681
 20
228.9293403709
  0
SEQEND
  0
POLYLINE
  8
0
 62
9
  6
CONTINUOUS
 66
1
 70
0
  0
VERTEX
  8
0
 62
9
  6
CONTINUOUS
 10
139.8978127409
 20
219.9303014868
  0
VERTEX
  8
0
 62
9
  6
CONTINUOUS
 10
139.8477114814
 20
220.1144777992
  0
VERTEX
  8
0
 62
9
  6
CONTINUOUS
 10
139.7988667264
 20
220.2688690989
  0
VERTEX
  8
0
 62
9
  6
CONTINUOUS
 10
139.7586841551
 20
220.3700670912
  0
VERTEX
  8
0
 62
9
  6
CONTINUOUS
 10
139.733256115
 20
220.4027284734
  0
SEQEND
  0
LINE
  8
0
 62
9
  6
CONTINUOUS
 10
139.8978136372
 20
219.9302984331
 11
140.64139219
 21
216.9939731541
  0
LINE
  8
0
 62
7
  6
CONTINUOUS
 10
140.3357593537
 20
220.0588469024
 11
141.0877362906
 21
217.0893571329
  0
POLYLINE
  8
0
 62
9
  6
CONTINUOUS
 66
1
 70
0
  0
VERTEX
  8
0
 62
9
  6
CONTINUOUS
 10
140.6413928848
 20
216.9939699031
  0
VERTEX
  8
0
 62
9
  6
CONTINUOUS
 10
140.6850213006
 20
216.8079893651
  0
VERTEX
  8
0
 62
9
  6
CONTINUOUS
 10
140.7155524346
 20
216.6488729736
  0
VERTEX
  8
0
 62
9
  6
CONTINUOUS
 10
140.7283569541
 20
216.5408056895
  0
VERTEX
  8
0
 62
9
  6
CONTINUOUS
 10
140.7215200444
 20
216.5001624719
  0
SEQEND
  0
POLYLINE
  8
0
 62
9
  6
CONTINUOUS
 66
1
 70
0
  0
VERTEX
  8
0
 62
9
  6
CONTINUOUS
 10
61.142941474
 20
101.1659347881
  0
VERTEX
  8
0
 62
9
  6
CONTINUOUS
 10
61.1538813598
 20
101.0607598459
  0
VERTEX
  8
0
 62
9
  6
CONTINUOUS
 10
61.2384851462
 20
100.8690246953
  0
SEQEND
  0
LINE
  8
0
 62
7
  6
CONTINUOUS
 10
60.2815649532
 20
101.1659347881
 11
60.2815649532
 21
110.7246716329
  0
LINE
  8
0
 62
9
  6
CONTINUOUS
 10
60.7402752805
 20
101.1659347826
 11
60.7402752805
 21
110.7246716383
  0
LINE
  8
0
 62
7
  6
CONTINUOUS
 10
61.1319004637
 20
110.7246716329
 11
61.1319004637
 21
101.1659347881
  0
LINE
  8
0
 62
9
  6
CONTINUOUS
 10
61.142941474
 20
110.7246716329
 11
61.142941474
 21
101.1659347881
  0
LINE
  8
0
 62
9
  6
CONTINUOUS
 10
61.8949184109
 20
101.1659347881
 11
61.8949184109
 21
110.7246716329
  0
POLYLINE
  8
0
 62
9
  6
CONTINUOUS
 66
1
 70
0
  0
VERTEX
  8
0
 62
9
  6
CONTINUOUS
 10
61.8949184109
 20
110.7246716329
  0
VERTEX
  8
0
 62
9
  6
CONTINUOUS
 10
61.9056524912
 20
110.829846575
  0
VERTEX
  8
0
 62
9
  6
CONTINUOUS
 10
61.9886646768
 20
111.0215817257
  0
VERTEX
  8
0
 62
9
  6
CONTINUOUS
 10
62.057228181
 20
111.0995622344
  0
VERTEX
  8
0
 62
9
  6
CONTINUOUS
 10
62.2332670176
 20
111.2024580358
  0
VERTEX
  8
0
 62
9
  6
CONTINUOUS
 10
62.3328650237
 20
111.2227689819
  0
SEQEND
  0
POLYLINE
  8
0
 62
7
  6
CONTINUOUS
 66
1
 70
0
  0
VERTEX
  8
0
 62
7
  6
CONTINUOUS
 10
61.1319004637
 20
110.7246716329
  0
VERTEX
  8
0
 62
7
  6
CONTINUOUS
 10
61.1671837832
 20
110.9091666379
  0
VERTEX
  8
0
 62
7
  6
CONTINUOUS
 10
61.2659241925
 20
111.0653494409
  0
VERTEX
  8
0
 62
7
  6
CONTINUOUS
 10
61.4144673904
 20
111.1749191855
  0
VERTEX
  8
0
 62
7
  6
CONTINUOUS
 10
61.5870800973
 20
111.2226587137
  0
SEQEND
  0
POLYLINE
  8
0
 62
9
  6
CONTINUOUS
 66
1
 70
0
  0
VERTEX
  8
0
 62
9
  6
CONTINUOUS
 10
60.7378693444
 20
111.2227586672
  0
VERTEX
  8
0
 62
9
  6
CONTINUOUS
 10
60.7256162625
 20
111.184387773
  0
VERTEX
  8
0
 62
9
  6
CONTINUOUS
 10
60.7216837008
 20
111.0763059339
  0
VERTEX
  8
0
 62
9
  6
CONTINUOUS
 10
60.7268301352
 20
110.9149104731
  0
VERTEX
  8
0
 62
9
  6
CONTINUOUS
 10
60.7402752805
 20
110.7246716329
  0
SEQEND
  0
POLYLINE
  8
0
 62
9
  6
CONTINUOUS
 66
1
 70
0
  0
VERTEX
  8
0
 62
9
  6
CONTINUOUS
 10
60.7378888341
 20
100.6678460446
  0
VERTEX
  8
0
 62
9
  6
CONTINUOUS
 10
60.7256095877
 20
100.7062851067
  0
VERTEX
  8
0
 62
9
  6
CONTINUOUS
 10
60.7216845558
 20
100.814545352
  0
VERTEX
  8
0
 62
9
  6
CONTINUOUS
 10
60.7268419636
 20
100.9761386622
  0
VERTEX
  8
0
 62
9
  6
CONTINUOUS
 10
60.7402752805
 20
101.1659347881
  0
SEQEND
  0
POLYLINE
  8
0
 62
7
  6
CONTINUOUS
 66
1
 70
0
  0
VERTEX
  8
0
 62
7
  6
CONTINUOUS
 10
60.2815649532
 20
101.1659347881
  0
VERTEX
  8
0
 62
7
  6
CONTINUOUS
 10
60.3169191517
 20
100.9812613489
  0
VERTEX
  8
0
 62
7
  6
CONTINUOUS
 10
60.4144223571
 20
100.8265142317
  0
VERTEX
  8
0
 62
7
  6
CONTINUOUS
 10
60.5600869462
 20
100.7176631155
  0
VERTEX
  8
0
 62
7
  6
CONTINUOUS
 10
60.7378888341
 20
100.6678460446
  0
SEQEND
  0
LINE
  8
0
 62
9
  6
CONTINUOUS
 10
62.4974216495
 20
101.1659347826
 11
62.4974216495
 21
110.7246716383
  0
LINE
  8
0
 62
9
  6
CONTINUOUS
 10
64.1021655768
 20
101.0212122249
 11
64.1021655768
 21
110.869394196
  0
LINE
  8
0
 62
7
  6
CONTINUOUS
 10
63.2199291775
 20
111.4120042197
 11
63.1979600714
 21
111.3644951842
  0
LINE
  8
0
 62
7
  6
CONTINUOUS
 10
63.2199291772
 20
100.4786022014
 11
63.1979599662
 21
100.526111462
  0
POLYLINE
  8
0
 62
9
  6
CONTINUOUS
 66
1
 70
0
  0
VERTEX
  8
0
 62
9
  6
CONTINUOUS
 10
66.0824779504
 20
101.1659347881
  0
VERTEX
  8
0
 62
9
  6
CONTINUOUS
 10
66.0920659542
 20
101.0607598459
  0
VERTEX
  8
0
 62
9
  6
CONTINUOUS
 10
66.1662149389
 20
100.8690246953
  0
VERTEX
  8
0
 62
9
  6
CONTINUOUS
 10
66.227457926
 20
100.7910441866
  0
VERTEX
  8
0
 62
9
  6
CONTINUOUS
 10
66.3847011173
 20
100.6881483852
  0
SEQEND
  0
LINE
  8
0
 62
7
  6
CONTINUOUS
 10
66.0110144756
 20
110.7246716329
 11
66.0110144756
 21
101.1659347881
  0
LINE
  8
0
 62
9
  6
CONTINUOUS
 10
66.0824779504
 20
110.7246716329
 11
66.0824779504
 21
101.1659347881
  0
LINE
  8
0
 62
9
  6
CONTINUOUS
 10
67.7579024546
 20
101.1659347881
 11
67.7579024546
 21
110.7246716329
  0
POLYLINE
  8
0
 62
9
  6
CONTINUOUS
 66
1
 70
0
  0
VERTEX
  8
0
 62
9
  6
CONTINUOUS
 10
67.7579024546
 20
110.7246716329
  0
VERTEX
  8
0
 62
9
  6
CONTINUOUS
 10
67.7670319182
 20
110.829846575
  0
VERTEX
  8
0
 62
9
  6
CONTINUOUS
 10
67.8376347744
 20
111.0215817257
  0
VERTEX
  8
0
 62
9
  6
CONTINUOUS
 10
67.8959488542
 20
111.0995622344
  0
VERTEX
  8
0
 62
9
  6
CONTINUOUS
 10
68.045671989
 20
111.2024580358
  0
VERTEX
  8
0
 62
9
  6
CONTINUOUS
 10
68.1303812837
 20
111.2227689819
  0
SEQEND
  0
POLYLINE
  8
0
 62
7
  6
CONTINUOUS
 66
1
 70
0
  0
VERTEX
  8
0
 62
7
  6
CONTINUOUS
 10
64.8282716387
 20
100.4454338666
  0
VERTEX
  8
0
 62
7
  6
CONTINUOUS
 10
64.8339229581
 20
100.4786022213
  0
VERTEX
  8
0
 62
7
  6
CONTINUOUS
 10
64.841341046
 20
100.5664785523
  0
VERTEX
  8
0
 62
7
  6
CONTINUOUS
 10
64.8454460172
 20
100.6279208739
  0
VERTEX
  8
0
 62
7
  6
CONTINUOUS
 10
64.8538454177
 20
100.7767714592
  0
VERTEX
  8
0
 62
7
  6
CONTINUOUS
 10
64.8616890519
 20
100.9453032105
  0
SEQEND
  0
POLYLINE
  8
0
 62
7
  6
CONTINUOUS
 66
1
 70
0
  0
VERTEX
  8
0
 62
7
  6
CONTINUOUS
 10
66.0110144756
 20
110.7246716329
  0
VERTEX
  8
0
 62
7
  6
CONTINUOUS
 10
66.0461744309
 20
110.9088555978
  0
VERTEX
  8
0
 62
7
  6
CONTINUOUS
 10
66.1463579115
 20
111.0667616653
  0
VERTEX
  8
0
 62
7
  6
CONTINUOUS
 10
66.2974670406
 20
111.1767750425
  0
VERTEX
  8
0
 62
7
  6
CONTINUOUS
 10
66.4592953092
 20
111.2219895659
  0
SEQEND
  0
POLYLINE
  8
0
 62
9
  6
CONTINUOUS
 66
1
 70
0
  0
VERTEX
  8
0
 62
9
  6
CONTINUOUS
 10
62.3877731578
 20
111.3674913557
  0
VERTEX
  8
0
 62
9
  6
CONTINUOUS
 10
62.379724608
 20
111.3546804872
  0
VERTEX
  8
0
 62
9
  6
CONTINUOUS
 10
62.3746040805
 20
111.2936809521
  0
SEQEND
  0
POLYLINE
  8
0
 62
9
  6
CONTINUOUS
 66
1
 70
0
  0
VERTEX
  8
0
 62
9
  6
CONTINUOUS
 10
62.3877731413
 20
100.5231148759
  0
VERTEX
  8
0
 62
9
  6
CONTINUOUS
 10
62.3797246174
 20
100.5359259856
  0
VERTEX
  8
0
 62
9
  6
CONTINUOUS
 10
62.3746041463
 20
100.5969254629
  0
SEQEND
  0
POLYLINE
  8
0
 62
7
  6
CONTINUOUS
 66
1
 70
0
  0
VERTEX
  8
0
 62
7
  6
CONTINUOUS
 10
64.8282716383
 20
111.4451725543
  0
VERTEX
  8
0
 62
7
  6
CONTINUOUS
 10
64.8339229582
 20
111.4120041997
  0
VERTEX
  8
0
 62
7
  6
CONTINUOUS
 10
64.8413410466
 20
111.3241278686
  0
VERTEX
  8
0
 62
7
  6
CONTINUOUS
 10
64.8454460181
 20
111.2626855471
  0
VERTEX
  8
0
 62
7
  6
CONTINUOUS
 10
64.8538454195
 20
111.1138349618
  0
VERTEX
  8
0
 62
7
  6
CONTINUOUS
 10
64.8616890517
 20
110.9453032105
  0
SEQEND
  0
LINE
  8
0
 62
9
  6
CONTINUOUS
 10
68.4394185695
 20
101.1659347826
 11
68.4394185695
 21
110.7246716383
  0
LINE
  8
0
 62
7
  6
CONTINUOUS
 10
68.4903388823
 20
97.9453032105
 11
68.4903388823
 21
100.4453032105
  0
LINE
  8
0
 62
7
  6
CONTINUOUS
 10
68.4903388823
 20
111.4453032105
 11
68.4903388823
 21
113.9453032105
  0
LINE
  8
0
 62
9
  6
CONTINUOUS
 10
69.8252628583
 20
101.0212122249
 11
69.8252628583
 21
110.869394196
  0
POLYLINE
  8
0
 62
9
  6
CONTINUOUS
 66
1
 70
0
  0
VERTEX
  8
0
 62
9
  6
CONTINUOUS
 10
61.3083632251
 20
111.0995622344
  0
VERTEX
  8
0
 62
9
  6
CONTINUOUS
 10
61.2384851462
 20
111.0215817257
  0
VERTEX
  8
0
 62
9
  6
CONTINUOUS
 10
61.1538813598
 20
110.829846575
  0
VERTEX
  8
0
 62
9
  6
CONTINUOUS
 10
61.142941474
 20
110.7246716329
  0
SEQEND
  0
LINE
  8
0
 62
9
  6
CONTINUOUS
 10
61.2384851462
 20
100.8690246953
 11
61.3083632251
 21
100.7910441866
  0
POLYLINE
  8
0
 62
9
  6
CONTINUOUS
 66
1
 70
0
  0
VERTEX
  8
0
 62
9
  6
CONTINUOUS
 10
74.8183684996
 20
101.1659347881
  0
VERTEX
  8
0
 62
9
  6
CONTINUOUS
 10
74.8255656124
 20
101.0607598459
  0
VERTEX
  8
0
 62
9
  6
CONTINUOUS
 10
74.8812246023
 20
100.8690246953
  0
VERTEX
  8
0
 62
9
  6
CONTINUOUS
 10
74.9271958697
 20
100.7910441866
  0
VERTEX
  8
0
 62
9
  6
CONTINUOUS
 10
75.0452284665
 20
100.6881483852
  0
SEQEND
  0
LINE
  8
0
 62
9
  6
CONTINUOUS
 10
74.3082854902
 20
100.9453032105
 11
74.3082854902
 21
110.9453032105
  0
LINE
  8
0
 62
7
  6
CONTINUOUS
 10
74.6400439783
 20
110.7246716329
 11
74.6400439783
 21
101.1659347881
  0
LINE
  8
0
 62
9
  6
CONTINUOUS
 10
74.8183684996
 20
110.7246716329
 11
74.8183684996
 21
101.1659347881
  0
POLYLINE
  8
0
 62
7
  6
CONTINUOUS
 66
1
 70
0
  0
VERTEX
  8
0
 62
7
  6
CONTINUOUS
 10
74.6400439783
 20
110.7246716329
  0
VERTEX
  8
0
 62
7
  6
CONTINUOUS
 10
74.6751638804
 20
110.9087544799
  0
VERTEX
  8
0
 62
7
  6
CONTINUOUS
 10
74.7755131258
 20
111.0668956203
  0
VERTEX
  8
0
 62
7
  6
CONTINUOUS
 10
74.9269889651
 20
111.1770073062
  0
VERTEX
  8
0
 62
7
  6
CONTINUOUS
 10
75.0698265239
 20
111.219716589
  0
SEQEND
  0
LINE
  8
0
 62
7
  6
CONTINUOUS
 10
63.2690983115
 20
111.4451725558
 11
63.2199291775
 21
111.4120042197
  0
LINE
  8
0
 62
7
  6
CONTINUOUS
 10
63.2690983126
 20
100.4454338651
 11
63.2199291772
 21
100.4786022014
  0
LINE
  8
0
 62
9
  6
CONTINUOUS
 10
77.2356823293
 20
101.1659347881
 11
77.2356823293
 21
110.7246716329
  0
LINE
  8
0
 62
9
  6
CONTINUOUS
 10
77.9223584745
 20
101.1659347826
 11
77.9223584745
 21
110.7246716383
  0
LINE
  8
0
 62
9
  6
CONTINUOUS
 10
78.9391253925
 20
101.0212122249
 11
78.9391253925
 21
110.869394196
  0
POLYLINE
  8
0
 62
9
  6
CONTINUOUS
 66
1
 70
0
  0
VERTEX
  8
0
 62
9
  6
CONTINUOUS
 10
77.2356823293
 20
110.7246716329
  0
VERTEX
  8
0
 62
9
  6
CONTINUOUS
 10
77.2422178571
 20
110.829846575
  0
VERTEX
  8
0
 62
9
  6
CONTINUOUS
 10
77.2927604688
 20
111.0215817257
  0
VERTEX
  8
0
 62
9
  6
CONTINUOUS
 10
77.334505889
 20
111.0995622344
  0
VERTEX
  8
0
 62
9
  6
CONTINUOUS
 10
77.4416884971
 20
111.2024580358
  0
VERTEX
  8
0
 62
9
  6
CONTINUOUS
 10
77.502329514
 20
111.2227689819
  0
SEQEND
  0
POLYLINE
  8
0
 62
9
  6
CONTINUOUS
 66
1
 70
0
  0
VERTEX
  8
0
 62
9
  6
CONTINUOUS
 10
66.3847011173
 20
111.2024580358
  0
VERTEX
  8
0
 62
9
  6
CONTINUOUS
 10
66.227457926
 20
111.0995622344
  0
VERTEX
  8
0
 62
9
  6
CONTINUOUS
 10
66.1662149389
 20
111.0215817257
  0
VERTEX
  8
0
 62
9
  6
CONTINUOUS
 10
66.0920659542
 20
110.829846575
  0
VERTEX
  8
0
 62
9
  6
CONTINUOUS
 10
66.0824779504
 20
110.7246716329
  0
SEQEND
  0
LINE
  8
0
 62
9
  6
CONTINUOUS
 10
61.4877772714
 20
111.2024580358
 11
61.3083632251
 21
111.0995622344
  0
LINE
  8
0
 62
9
  6
CONTINUOUS
 10
61.3083632251
 20
100.7910441866
 11
61.4877772714
 21
100.6881483852
  0
POLYLINE
  8
0
 62
9
  6
CONTINUOUS
 66
1
 70
0
  0
VERTEX
  8
0
 62
9
  6
CONTINUOUS
 10
75.0452284665
 20
111.2024580358
  0
VERTEX
  8
0
 62
9
  6
CONTINUOUS
 10
74.9271958697
 20
111.0995622344
  0
VERTEX
  8
0
 62
9
  6
CONTINUOUS
 10
74.8812246023
 20
111.0215817257
  0
VERTEX
  8
0
 62
9
  6
CONTINUOUS
 10
74.8255656124
 20
110.829846575
  0
VERTEX
  8
0
 62
9
  6
CONTINUOUS
 10
74.8183684996
 20
110.7246716329
  0
SEQEND
  0
POLYLINE
  8
0
 62
9
  6
CONTINUOUS
 66
1
 70
0
  0
VERTEX
  8
0
 62
9
  6
CONTINUOUS
 10
62.3328650237
 20
100.667837439
  0
VERTEX
  8
0
 62
9
  6
CONTINUOUS
 10
62.3830119294
 20
100.7062851067
  0
VERTEX
  8
0
 62
9
  6
CONTINUOUS
 10
62.4318916302
 20
100.814545352
  0
VERTEX
  8
0
 62
9
  6
CONTINUOUS
 10
62.4720647335
 20
100.9761386622
  0
VERTEX
  8
0
 62
9
  6
CONTINUOUS
 10
62.4974216495
 20
101.1659347881
  0
SEQEND
  0
POLYLINE
  8
0
 62
9
  6
CONTINUOUS
 66
1
 70
0
  0
VERTEX
  8
0
 62
9
  6
CONTINUOUS
 10
62.3328650237
 20
111.2227689819
  0
VERTEX
  8
0
 62
9
  6
CONTINUOUS
 10
62.3829662832
 20
111.184387773
  0
VERTEX
  8
0
 62
9
  6
CONTINUOUS
 10
62.4318110381
 20
111.0763059339
  0
VERTEX
  8
0
 62
9
  6
CONTINUOUS
 10
62.4719936095
 20
110.9149104731
  0
VERTEX
  8
0
 62
9
  6
CONTINUOUS
 10
62.4974216495
 20
110.7246716329
  0
SEQEND
  0
LINE
  8
0
 62
9
  6
CONTINUOUS
 10
83.3792594238
 20
100.9453032105
 11
83.3792594238
 21
110.9453032105
  0
POLYLINE
  8
0
 62
9
  6
CONTINUOUS
 66
1
 70
0
  0
VERTEX
  8
0
 62
9
  6
CONTINUOUS
 10
86.4039438293
 20
101.1659347881
  0
VERTEX
  8
0
 62
9
  6
CONTINUOUS
 10
86.4079701323
 20
101.0607598459
  0
VERTEX
  8
0
 62
9
  6
CONTINUOUS
 10
86.4391076123
 20
100.8690246953
  0
VERTEX
  8
0
 62
9
  6
CONTINUOUS
 10
86.4648254598
 20
100.7910441866
  0
SEQEND
  0
LINE
  8
0
 62
9
  6
CONTINUOUS
 10
84.9508334399
 20
100.9453032105
 11
84.9508334399
 21
110.9453032105
  0
LINE
  8
0
 62
7
  6
CONTINUOUS
 10
86.0838997321
 20
110.7246716329
 11
86.0838997321
 21
101.1659347881
  0
LINE
  8
0
 62
9
  6
CONTINUOUS
 10
86.4039438293
 20
110.7246716329
 11
86.4039438293
 21
101.1659347881
  0
POLYLINE
  8
0
 62
7
  6
CONTINUOUS
 66
1
 70
0
  0
VERTEX
  8
0
 62
7
  6
CONTINUOUS
 10
86.0838997321
 20
110.7246716329
  0
VERTEX
  8
0
 62
7
  6
CONTINUOUS
 10
86.1191478467
 20
110.9090779371
  0
VERTEX
  8
0
 62
7
  6
CONTINUOUS
 10
86.218612842
 20
111.0660885158
  0
VERTEX
  8
0
 62
7
  6
CONTINUOUS
 10
86.3684063727
 20
111.1758507681
  0
VERTEX
  8
0
 62
7
  6
CONTINUOUS
 10
86.4537958844
 20
111.207447967
  0
SEQEND
  0
POLYLINE
  8
0
 62
9
  6
CONTINUOUS
 66
1
 70
0
  0
VERTEX
  8
0
 62
9
  6
CONTINUOUS
 10
86.5308567986
 20
111.2024580358
  0
VERTEX
  8
0
 62
9
  6
CONTINUOUS
 10
86.4648254598
 20
111.0995622344
  0
VERTEX
  8
0
 62
9
  6
CONTINUOUS
 10
86.4391076123
 20
111.0215817257
  0
VERTEX
  8
0
 62
9
  6
CONTINUOUS
 10
86.4079701323
 20
110.829846575
  0
VERTEX
  8
0
 62
9
  6
CONTINUOUS
 10
86.4039438293
 20
110.7246716329
  0
SEQEND
  0
POLYLINE
  8
0
 62
7
  6
CONTINUOUS
 66
1
 70
0
  0
VERTEX
  8
0
 62
7
  6
CONTINUOUS
 10
60.7378693444
 20
111.2227586672
  0
VERTEX
  8
0
 62
7
  6
CONTINUOUS
 10
60.5530051439
 20
111.1693742454
  0
VERTEX
  8
0
 62
7
  6
CONTINUOUS
 10
60.4057861751
 20
111.0545053939
  0
VERTEX
  8
0
 62
7
  6
CONTINUOUS
 10
60.311013867
 20
110.8937327914
  0
VERTEX
  8
0
 62
7
  6
CONTINUOUS
 10
60.2815649742
 20
110.7246716329
  0
SEQEND
  0
POLYLINE
  8
0
 62
7
  6
CONTINUOUS
 66
1
 70
0
  0
VERTEX
  8
0
 62
7
  6
CONTINUOUS
 10
61.5869892811
 20
100.6679558872
  0
VERTEX
  8
0
 62
7
  6
CONTINUOUS
 10
61.4093989275
 20
100.7181702669
  0
VERTEX
  8
0
 62
7
  6
CONTINUOUS
 10
61.2694641983
 20
100.8214932785
  0
VERTEX
  8
0
 62
7
  6
CONTINUOUS
 10
61.1704896083
 20
100.9733211267
  0
VERTEX
  8
0
 62
7
  6
CONTINUOUS
 10
61.1319004645
 20
101.1659347881
  0
SEQEND
  0
POLYLINE
  8
0
 62
9
  6
CONTINUOUS
 66
1
 70
0
  0
VERTEX
  8
0
 62
9
  6
CONTINUOUS
 10
86.4648254598
 20
100.7910441866
  0
VERTEX
  8
0
 62
9
  6
CONTINUOUS
 10
86.5308567986
 20
100.6881483852
  0
VERTEX
  8
0
 62
9
  6
CONTINUOUS
 10
86.5682155417
 20
100.667837439
  0
SEQEND
  0
LINE
  8
0
 62
9
  6
CONTINUOUS
 10
89.3011935225
 20
101.1659347881
 11
89.3011935225
 21
110.7246716329
  0
LINE
  8
0
 62
9
  6
CONTINUOUS
 10
89.9186176829
 20
101.1659347826
 11
89.9186176829
 21
110.7246716383
  0
POLYLINE
  8
0
 62
9
  6
CONTINUOUS
 66
1
 70
0
  0
VERTEX
  8
0
 62
9
  6
CONTINUOUS
 10
89.3011935225
 20
110.7246716329
  0
VERTEX
  8
0
 62
9
  6
CONTINUOUS
 10
89.3044268887
 20
110.829846575
  0
VERTEX
  8
0
 62
9
  6
CONTINUOUS
 10
89.3294321797
 20
111.0215817257
  0
VERTEX
  8
0
 62
9
  6
CONTINUOUS
 10
89.3500851762
 20
111.0995622344
  0
VERTEX
  8
0
 62
9
  6
CONTINUOUS
 10
89.403112359
 20
111.2024580358
  0
VERTEX
  8
0
 62
9
  6
CONTINUOUS
 10
89.4331137028
 20
111.2227689819
  0
SEQEND
  0
LINE
  8
0
 62
9
  6
CONTINUOUS
 10
86.5682155417
 20
111.2227689819
 11
86.5308567986
 21
111.2024580358
  0
POLYLINE
  8
0
 62
7
  6
CONTINUOUS
 66
1
 70
0
  0
VERTEX
  8
0
 62
7
  6
CONTINUOUS
 10
87.0532614131
 20
111.3708637199
  0
VERTEX
  8
0
 62
7
  6
CONTINUOUS
 10
87.0564503045
 20
111.3724081562
  0
VERTEX
  8
0
 62
7
  6
CONTINUOUS
 10
87.0554606875
 20
111.3720678641
  0
VERTEX
  8
0
 62
7
  6
CONTINUOUS
 10
87.0162830322
 20
111.3591845506
  0
VERTEX
  8
0
 62
7
  6
CONTINUOUS
 10
86.9914675777
 20
111.3522149841
  0
SEQEND
  0
LINE
  8
0
 62
9
  6
CONTINUOUS
 10
75.112008113
 20
111.2227689819
 11
75.0452284665
 21
111.2024580358
  0
LINE
  8
0
 62
9
  6
CONTINUOUS
 10
135.7570127082
 20
100.667837439
 11
135.8459766472
 21
100.6881483852
  0
LINE
  8
0
 62
9
  6
CONTINUOUS
 10
140.6413928848
 20
100.667837439
 11
140.7429004932
 21
100.6881483852
  0
LINE
  8
0
 62
9
  6
CONTINUOUS
 10
61.4877772714
 20
100.6881483852
 11
61.5892848798
 21
100.667837439
  0
POLYLINE
  8
0
 62
7
  6
CONTINUOUS
 66
1
 70
0
  0
VERTEX
  8
0
 62
7
  6
CONTINUOUS
 10
66.4590807537
 20
100.6686392134
  0
VERTEX
  8
0
 62
7
  6
CONTINUOUS
 10
66.3668619704
 20
100.6871654749
  0
VERTEX
  8
0
 62
7
  6
CONTINUOUS
 10
66.2068644525
 20
100.7690812087
  0
VERTEX
  8
0
 62
7
  6
CONTINUOUS
 10
66.0829795573
 20
100.9075047032
  0
VERTEX
  8
0
 62
7
  6
CONTINUOUS
 10
66.0412369053
 20
100.9947359725
  0
VERTEX
  8
0
 62
7
  6
CONTINUOUS
 10
66.0110144841
 20
101.1659347881
  0
SEQEND
  0
POLYLINE
  8
0
 62
9
  6
CONTINUOUS
 66
1
 70
0
  0
VERTEX
  8
0
 62
9
  6
CONTINUOUS
 10
62.3328650237
 20
100.667837439
  0
VERTEX
  8
0
 62
9
  6
CONTINUOUS
 10
62.2332670176
 20
100.6881483852
  0
VERTEX
  8
0
 62
9
  6
CONTINUOUS
 10
62.057228181
 20
100.7910441866
  0
VERTEX
  8
0
 62
9
  6
CONTINUOUS
 10
61.9886646768
 20
100.8690246953
  0
VERTEX
  8
0
 62
9
  6
CONTINUOUS
 10
61.9056524912
 20
101.0607598459
  0
VERTEX
  8
0
 62
9
  6
CONTINUOUS
 10
61.8949184109
 20
101.1659347881
  0
SEQEND
  0
LINE
  8
0
 62
9
  6
CONTINUOUS
 10
66.3847011173
 20
100.6881483852
 11
66.4736650564
 21
100.667837439
  0
POLYLINE
  8
0
 62
9
  6
CONTINUOUS
 66
1
 70
0
  0
VERTEX
  8
0
 62
9
  6
CONTINUOUS
 10
68.1303812837
 20
100.667837439
  0
VERTEX
  8
0
 62
9
  6
CONTINUOUS
 10
68.045671989
 20
100.6881483852
  0
VERTEX
  8
0
 62
9
  6
CONTINUOUS
 10
67.8959488542
 20
100.7910441866
  0
VERTEX
  8
0
 62
9
  6
CONTINUOUS
 10
67.8376347744
 20
100.8690246953
  0
VERTEX
  8
0
 62
9
  6
CONTINUOUS
 10
67.7670319182
 20
101.0607598459
  0
VERTEX
  8
0
 62
9
  6
CONTINUOUS
 10
67.7579024546
 20
101.1659347881
  0
SEQEND
  0
LINE
  8
0
 62
9
  6
CONTINUOUS
 10
75.0452284665
 20
100.6881483852
 11
75.112008113
 21
100.667837439
  0
POLYLINE
  8
0
 62
9
  6
CONTINUOUS
 66
1
 70
0
  0
VERTEX
  8
0
 62
9
  6
CONTINUOUS
 10
77.502329514
 20
100.667837439
  0
VERTEX
  8
0
 62
9
  6
CONTINUOUS
 10
77.4416884971
 20
100.6881483852
  0
VERTEX
  8
0
 62
9
  6
CONTINUOUS
 10
77.334505889
 20
100.7910441866
  0
VERTEX
  8
0
 62
9
  6
CONTINUOUS
 10
77.2927604688
 20
100.8690246953
  0
VERTEX
  8
0
 62
9
  6
CONTINUOUS
 10
77.2422178571
 20
101.0607598459
  0
VERTEX
  8
0
 62
9
  6
CONTINUOUS
 10
77.2356823293
 20
101.1659347881
  0
SEQEND
  0
POLYLINE
  8
0
 62
7
  6
CONTINUOUS
 66
1
 70
0
  0
VERTEX
  8
0
 62
7
  6
CONTINUOUS
 10
75.0695840342
 20
100.6709242869
  0
VERTEX
  8
0
 62
7
  6
CONTINUOUS
 10
74.8968572194
 20
100.7290592906
  0
VERTEX
  8
0
 62
7
  6
CONTINUOUS
 10
74.7539336309
 20
100.848257594
  0
VERTEX
  8
0
 62
7
  6
CONTINUOUS
 10
74.7002935128
 20
100.9279862051
  0
VERTEX
  8
0
 62
7
  6
CONTINUOUS
 10
74.6425267981
 20
101.1161687814
  0
VERTEX
  8
0
 62
7
  6
CONTINUOUS
 10
74.6400439807
 20
101.1659347881
  0
SEQEND
  0
LINE
  8
0
 62
7
  6
CONTINUOUS
 10
87.1318700317
 20
100.4786023162
 11
87.0024487991
 21
100.5566904517
  0
POLYLINE
  8
0
 62
9
  6
CONTINUOUS
 66
1
 70
0
  0
VERTEX
  8
0
 62
9
  6
CONTINUOUS
 10
89.4331137028
 20
100.667837439
  0
VERTEX
  8
0
 62
9
  6
CONTINUOUS
 10
89.403112359
 20
100.6881483852
  0
VERTEX
  8
0
 62
9
  6
CONTINUOUS
 10
89.3500851762
 20
100.7910441866
  0
VERTEX
  8
0
 62
9
  6
CONTINUOUS
 10
89.3294321797
 20
100.8690246953
  0
VERTEX
  8
0
 62
9
  6
CONTINUOUS
 10
89.3044268887
 20
101.0607598459
  0
VERTEX
  8
0
 62
9
  6
CONTINUOUS
 10
89.3011935225
 20
101.1659347881
  0
SEQEND
  0
LINE
  8
0
 62
9
  6
CONTINUOUS
 10
90.4561247578
 20
101.0212122249
 11
90.4561247578
 21
110.869394196
  0
POLYLINE
  8
0
 62
9
  6
CONTINUOUS
 66
1
 70
0
  0
VERTEX
  8
0
 62
9
  6
CONTINUOUS
 10
94.4668531369
 20
111.4453032105
  0
VERTEX
  8
0
 62
9
  6
CONTINUOUS
 10
94.4457936742
 20
111.4327671666
  0
VERTEX
  8
0
 62
9
  6
CONTINUOUS
 10
94.4078458336
 20
111.3362189521
  0
VERTEX
  8
0
 62
9
  6
CONTINUOUS
 10
94.3928603189
 20
111.2570481119
  0
VERTEX
  8
0
 62
9
  6
CONTINUOUS
 10
94.374585602
 20
111.0565636777
  0
VERTEX
  8
0
 62
9
  6
CONTINUOUS
 10
94.3722127704
 20
110.9453032105
  0
SEQEND
  0
POLYLINE
  8
0
 62
7
  6
CONTINUOUS
 66
1
 70
0
  0
VERTEX
  8
0
 62
7
  6
CONTINUOUS
 10
70.3197116911
 20
100.4454338673
  0
VERTEX
  8
0
 62
7
  6
CONTINUOUS
 10
70.3795711922
 20
100.4786022303
  0
VERTEX
  8
0
 62
7
  6
CONTINUOUS
 10
70.4342393871
 20
100.566478568
  0
VERTEX
  8
0
 62
7
  6
CONTINUOUS
 10
70.4575801219
 20
100.6279208931
  0
VERTEX
  8
0
 62
7
  6
CONTINUOUS
 10
70.4928587725
 20
100.7767714917
  0
VERTEX
  8
0
 62
7
  6
CONTINUOUS
 10
70.5097145865
 20
100.9453032105
  0
SEQEND
  0
POLYLINE
  8
0
 62
9
  6
CONTINUOUS
 66
1
 70
0
  0
VERTEX
  8
0
 62
9
  6
CONTINUOUS
 10
63.9376286656
 20
100.5231148759
  0
VERTEX
  8
0
 62
9
  6
CONTINUOUS
 10
63.9659583863
 20
100.5359259856
  0
VERTEX
  8
0
 62
9
  6
CONTINUOUS
 10
64.023186575
 20
100.6323868308
  0
VERTEX
  8
0
 62
9
  6
CONTINUOUS
 10
64.0492277593
 20
100.7112204783
  0
VERTEX
  8
0
 62
9
  6
CONTINUOUS
 10
64.0897283141
 20
100.9106107446
  0
VERTEX
  8
0
 62
9
  6
CONTINUOUS
 10
64.1021655768
 20
101.0212122249
  0
SEQEND
  0
LINE
  8
0
 62
9
  6
CONTINUOUS
 10
87.2987234978
 20
111.4451727318
 11
87.1056575054
 21
111.367491545
  0
LINE
  8
0
 62
7
  6
CONTINUOUS
 10
115.2392615235
 20
100.5384053767
 11
115.7767762933
 21
100.6831300116
  0
LINE
  8
0
 62
9
  6
CONTINUOUS
 10
115.1250202592
 20
100.5231148759
 11
115.6624591212
 21
100.667837439
  0
LINE
  8
0
 62
9
  6
CONTINUOUS
 10
112.7975671084
 20
100.667837439
 11
112.2599901405
 21
100.5231148759
  0
POLYLINE
  8
0
 62
9
  6
CONTINUOUS
 66
1
 70
0
  0
VERTEX
  8
0
 62
9
  6
CONTINUOUS
 10
117.0529740728
 20
100.4453032105
  0
VERTEX
  8
0
 62
9
  6
CONTINUOUS
 10
117.1034575521
 20
100.4578393041
  0
VERTEX
  8
0
 62
9
  6
CONTINUOUS
 10
117.1944255067
 20
100.554387725
  0
VERTEX
  8
0
 62
9
  6
CONTINUOUS
 10
117.2303484868
 20
100.6335586096
  0
VERTEX
  8
0
 62
9
  6
CONTINUOUS
 10
117.2741562298
 20
100.8340428983
  0
VERTEX
  8
0
 62
9
  6
CONTINUOUS
 10
117.2798443247
 20
100.9453032105
  0
SEQEND
  0
POLYLINE
  8
0
 62
9
  6
CONTINUOUS
 66
1
 70
0
  0
VERTEX
  8
0
 62
9
  6
CONTINUOUS
 10
118.6024909097
 20
100.4453032105
  0
VERTEX
  8
0
 62
9
  6
CONTINUOUS
 10
118.6578824741
 20
100.4578392543
  0
VERTEX
  8
0
 62
9
  6
CONTINUOUS
 10
118.7576946242
 20
100.554387469
  0
VERTEX
  8
0
 62
9
  6
CONTINUOUS
 10
118.797110212
 20
100.6335583093
  0
VERTEX
  8
0
 62
9
  6
CONTINUOUS
 10
118.8451772103
 20
100.8340427433
  0
VERTEX
  8
0
 62
9
  6
CONTINUOUS
 10
118.8514183407
 20
100.9453032105
  0
SEQEND
  0
POLYLINE
  8
0
 62
7
  6
CONTINUOUS
 66
1
 70
0
  0
VERTEX
  8
0
 62
7
  6
CONTINUOUS
 10
114.9319553467
 20
100.4454338655
  0
VERTEX
  8
0
 62
7
  6
CONTINUOUS
 10
115.0988073954
 20
100.4786022071
  0
VERTEX
  8
0
 62
7
  6
CONTINUOUS
 10
115.1746353686
 20
100.5243540853
  0
SEQEND
  0
POLYLINE
  8
0
 62
7
  6
CONTINUOUS
 66
1
 70
0
  0
VERTEX
  8
0
 62
7
  6
CONTINUOUS
 10
125.7045883606
 20
100.4533162157
  0
VERTEX
  8
0
 62
7
  6
CONTINUOUS
 10
125.8158404901
 20
100.4743034785
  0
VERTEX
  8
0
 62
7
  6
CONTINUOUS
 10
125.9785318768
 20
100.5014495287
  0
SEQEND
  0
LINE
  8
0
 62
9
  6
CONTINUOUS
 10
125.6343625713
 20
100.4454337507
 11
126.1019561418
 21
100.5231148759
  0
POLYLINE
  8
0
 62
9
  6
CONTINUOUS
 66
1
 70
0
  0
VERTEX
  8
0
 62
9
  6
CONTINUOUS
 10
126.3528720635
 20
100.4453032105
  0
VERTEX
  8
0
 62
9
  6
CONTINUOUS
 10
126.4328135647
 20
100.4578393041
  0
VERTEX
  8
0
 62
9
  6
CONTINUOUS
 10
126.5768629639
 20
100.554387725
  0
VERTEX
  8
0
 62
9
  6
CONTINUOUS
 10
126.6035784606
 20
100.5915697786
  0
SEQEND
  0
POLYLINE
  8
0
 62
9
  6
CONTINUOUS
 66
1
 70
0
  0
VERTEX
  8
0
 62
9
  6
CONTINUOUS
 10
127.5461529285
 20
100.4453032105
  0
VERTEX
  8
0
 62
9
  6
CONTINUOUS
 10
127.629874059
 20
100.4578392543
  0
VERTEX
  8
0
 62
9
  6
CONTINUOUS
 10
127.7807343235
 20
100.554387469
  0
VERTEX
  8
0
 62
9
  6
CONTINUOUS
 10
127.8403086939
 20
100.6335583093
  0
VERTEX
  8
0
 62
9
  6
CONTINUOUS
 10
127.9129591684
 20
100.8340427433
  0
VERTEX
  8
0
 62
9
  6
CONTINUOUS
 10
127.9223922744
 20
100.9453032105
  0
SEQEND
  0
LINE
  8
0
 62
7
  6
CONTINUOUS
 10
125.9785318768
 20
100.5014495287
 11
126.1443045978
 21
100.52619863
  0
LINE
  8
0
 62
7
  6
CONTINUOUS
 10
126.1443225703
 20
100.52620112
 11
127.1610943079
 21
100.6709243691
  0
LINE
  8
0
 62
9
  6
CONTINUOUS
 10
126.1019561418
 20
100.5231148759
 11
127.1186671064
 21
100.667837439
  0
LINE
  8
0
 62
9
  6
CONTINUOUS
 10
124.7283508336
 20
100.667837439
 11
123.7115246424
 21
100.5231148759
  0
LINE
  8
0
 62
9
  6
CONTINUOUS
 10
123.7115246424
 20
100.5231148759
 11
123.0823371624
 21
100.4454338754
  0
POLYLINE
  8
0
 62
7
  6
CONTINUOUS
 66
1
 70
0
  0
VERTEX
  8
0
 62
7
  6
CONTINUOUS
 10
133.702703475
 20
100.4471944303
  0
VERTEX
  8
0
 62
7
  6
CONTINUOUS
 10
133.9005563949
 20
100.4706751707
  0
VERTEX
  8
0
 62
7
  6
CONTINUOUS
 10
134.1541633807
 20
100.4991817773
  0
SEQEND
  0
LINE
  8
0
 62
9
  6
CONTINUOUS
 10
133.6797554447
 20
100.4454337675
 11
133.9005563949
 21
100.4706751707
  0
LINE
  8
0
 62
9
  6
CONTINUOUS
 10
134.1541633807
 20
100.4991817773
 11
134.2354742856
 21
100.5078662278
  0
LINE
  8
0
 62
9
  6
CONTINUOUS
 10
134.2354742856
 20
100.5078662278
 11
134.371204337
 21
100.5231148759
  0
LINE
  8
0
 62
7
  6
CONTINUOUS
 10
125.634364124
 20
100.4454338652
 11
125.7045885807
 21
100.4533162159
  0
LINE
  8
0
 62
9
  6
CONTINUOUS
 10
132.4054149063
 20
101.0212122249
 11
131.7210104767
 21
100.9453032105
  0
LINE
  8
0
 62
7
  6
CONTINUOUS
 10
134.1541633807
 20
100.4991817773
 11
135.771597494
 21
100.6686392639
  0
LINE
  8
0
 62
9
  6
CONTINUOUS
 10
134.3856754473
 20
100.5246260911
 11
135.7570109954
 21
100.667837439
  0
LINE
  8
0
 62
9
  6
CONTINUOUS
 10
134.1002983201
 20
100.667837439
 11
132.7144118011
 21
100.5231148759
  0
LINE
  8
0
 62
9
  6
CONTINUOUS
 10
133.7912591951
 20
101.1659347828
 11
132.4054149063
 21
101.0212122249
  0
LINE
  8
0
 62
7
  6
CONTINUOUS
 10
135.7713824553
 20
100.668616855
 11
135.7714333402
 21
100.66862215
  0
LINE
  8
0
 62
9
  6
CONTINUOUS
 10
138.1285121878
 20
101.0212122249
 11
137.3690323314
 21
100.9453032105
  0
LINE
  8
0
 62
9
  6
CONTINUOUS
 10
132.7144118011
 20
100.5231148759
 11
131.9109647409
 21
100.4454337507
  0
LINE
  8
0
 62
7
  6
CONTINUOUS
 10
138.2008019511
 20
100.4457618016
 11
138.7655986148
 21
100.4983910931
  0
LINE
  8
0
 62
9
  6
CONTINUOUS
 10
138.196288001
 20
100.4454337771
 11
138.2007937731
 21
100.4458502734
  0
LINE
  8
0
 62
7
  6
CONTINUOUS
 10
138.7655986148
 20
100.4983910931
 11
140.6436887038
 21
100.6679559071
  0
LINE
  8
0
 62
9
  6
CONTINUOUS
 10
139.8978136372
 20
100.667837439
 11
138.293049099
 21
100.5231148759
  0
LINE
  8
0
 62
9
  6
CONTINUOUS
 10
139.733256115
 20
101.1659347828
 11
138.1285121878
 21
101.0212122249
  0
LINE
  8
0
 62
7
  6
CONTINUOUS
 10
141.4926460425
 20
100.667837439
 11
138.9615781945
 21
100.4454336761
  0
LINE
  8
0
 62
9
  6
CONTINUOUS
 10
141.4904024841
 20
101.1659347828
 11
141.1017681729
 21
101.1318414504
  0
LINE
  8
0
 62
9
  6
CONTINUOUS
 10
138.293049099
 20
100.5231148759
 11
137.4024052087
 21
100.4454336682
  0
LINE
  8
0
 62
7
  6
CONTINUOUS
 10
138.1962881264
 20
100.4454338653
 11
138.200803045
 21
100.4457618014
  0
LINE
  8
0
 62
7
  6
CONTINUOUS
 10
70.4903388823
 20
95.9453032105
 11
131.7403388823
 21
95.9453032105
  0
LINE
  8
0
 62
7
  6
CONTINUOUS
 10
64.0343902943
 20
100.4454338732
 11
64.0298752689
 21
100.4457618196
  0
LINE
  8
0
 62
9
  6
CONTINUOUS
 10
64.828271483
 20
100.4454337321
 11
63.9376286656
 21
100.5231148759
  0
LINE
  8
0
 62
9
  6
CONTINUOUS
 10
61.1389065888
 20
101.1309644538
 11
60.7402752805
 21
101.1659347826
  0
LINE
  8
0
 62
7
  6
CONTINUOUS
 10
63.2690983708
 20
100.4454337797
 11
60.7380317285
 21
100.667837439
  0
LINE
  8
0
 62
9
  6
CONTINUOUS
 10
63.9376286656
 20
100.5231148759
 11
62.3328640874
 21
100.667837439
  0
LINE
  8
0
 62
9
  6
CONTINUOUS
 10
64.1021655768
 20
101.0212122249
 11
62.4974216495
 21
101.1659347826
  0
LINE
  8
0
 62
9
  6
CONTINUOUS
 10
63.2506471469
 20
100.5178799487
 11
63.7724190261
 21
100.4699795985
  0
LINE
  8
0
 62
9
  6
CONTINUOUS
 10
64.0298763617
 20
100.4457618198
 11
64.0343903621
 21
100.445433711
  0
POLYLINE
  8
0
 62
7
  6
CONTINUOUS
 66
1
 70
0
  0
VERTEX
  8
0
 62
7
  6
CONTINUOUS
 10
61.5869892814
 20
100.6679558872
  0
VERTEX
  8
0
 62
7
  6
CONTINUOUS
 10
63.7724190261
 20
100.4699795985
  0
VERTEX
  8
0
 62
7
  6
CONTINUOUS
 10
64.0298763617
 20
100.4457618198
  0
SEQEND
  0
LINE
  8
0
 62
9
  6
CONTINUOUS
 10
70.3197108061
 20
100.4454337232
 11
69.5162659634
 21
100.5231148759
  0
LINE
  8
0
 62
9
  6
CONTINUOUS
 10
64.8616390212
 20
100.9453032105
 11
64.1021655768
 21
101.0212122249
  0
LINE
  8
0
 62
9
  6
CONTINUOUS
 10
69.5162659634
 20
100.5231148759
 11
68.1303793624
 21
100.667837439
  0
LINE
  8
0
 62
9
  6
CONTINUOUS
 10
69.8252628583
 20
101.0212122249
 11
68.4394185695
 21
101.1659347826
  0
POLYLINE
  8
0
 62
7
  6
CONTINUOUS
 66
1
 70
0
  0
VERTEX
  8
0
 62
7
  6
CONTINUOUS
 10
66.4590807554
 20
100.6686392132
  0
VERTEX
  8
0
 62
7
  6
CONTINUOUS
 10
68.073093348
 20
100.4995555291
  0
VERTEX
  8
0
 62
7
  6
CONTINUOUS
 10
68.326940477
 20
100.471043109
  0
VERTEX
  8
0
 62
7
  6
CONTINUOUS
 10
68.5279747081
 20
100.447194437
  0
SEQEND
  0
LINE
  8
0
 62
9
  6
CONTINUOUS
 10
70.5096694612
 20
100.9453032105
 11
69.8252628583
 21
101.0212122249
  0
LINE
  8
0
 62
9
  6
CONTINUOUS
 10
67.8594734276
 20
100.5231148759
 11
68.073093348
 21
100.4995555291
  0
LINE
  8
0
 62
9
  6
CONTINUOUS
 10
68.326940477
 20
100.471043109
 11
68.5509222026
 21
100.4454337102
  0
LINE
  8
0
 62
7
  6
CONTINUOUS
 10
76.5963137171
 20
100.4454338731
 11
76.5260926447
 21
100.4533155439
  0
LINE
  8
0
 62
9
  6
CONTINUOUS
 10
79.1483369367
 20
100.4454338332
 11
78.5191531222
 21
100.5231148759
  0
LINE
  8
0
 62
7
  6
CONTINUOUS
 10
75.069584039
 20
100.6709242862
 11
76.0863551939
 21
100.52620112
  0
LINE
  8
0
 62
9
  6
CONTINUOUS
 10
75.1120105495
 20
100.667837439
 11
76.1287216228
 21
100.5231148759
  0
LINE
  8
0
 62
9
  6
CONTINUOUS
 10
78.5191531222
 20
100.5231148759
 11
77.5023268158
 21
100.667837439
  0
POLYLINE
  8
0
 62
7
  6
CONTINUOUS
 66
1
 70
0
  0
VERTEX
  8
0
 62
7
  6
CONTINUOUS
 10
76.0863741549
 20
100.5261985497
  0
VERTEX
  8
0
 62
7
  6
CONTINUOUS
 10
76.2498159552
 20
100.5018151303
  0
VERTEX
  8
0
 62
7
  6
CONTINUOUS
 10
76.4128624341
 20
100.4746551015
  0
VERTEX
  8
0
 62
7
  6
CONTINUOUS
 10
76.5260928648
 20
100.4533155437
  0
SEQEND
  0
POLYLINE
  8
0
 62
9
  6
CONTINUOUS
 66
1
 70
0
  0
VERTEX
  8
0
 62
9
  6
CONTINUOUS
 10
74.6845248361
 20
100.4453032105
  0
VERTEX
  8
0
 62
9
  6
CONTINUOUS
 10
74.6008035414
 20
100.4578393041
  0
VERTEX
  8
0
 62
9
  6
CONTINUOUS
 10
74.4499431996
 20
100.554387725
  0
VERTEX
  8
0
 62
9
  6
CONTINUOUS
 10
74.3903688905
 20
100.6335586096
  0
VERTEX
  8
0
 62
9
  6
CONTINUOUS
 10
74.3177185696
 20
100.8340428983
  0
VERTEX
  8
0
 62
9
  6
CONTINUOUS
 10
74.3082854902
 20
100.9453032105
  0
SEQEND
  0
POLYLINE
  8
0
 62
9
  6
CONTINUOUS
 66
1
 70
0
  0
VERTEX
  8
0
 62
9
  6
CONTINUOUS
 10
75.877805701
 20
100.4453032105
  0
VERTEX
  8
0
 62
9
  6
CONTINUOUS
 10
75.7978643566
 20
100.4578392543
  0
VERTEX
  8
0
 62
9
  6
CONTINUOUS
 10
75.6538150313
 20
100.554387469
  0
VERTEX
  8
0
 62
9
  6
CONTINUOUS
 10
75.6270993087
 20
100.5915697779
  0
SEQEND
  0
LINE
  8
0
 62
9
  6
CONTINUOUS
 10
76.1287216228
 20
100.5231148759
 11
76.5963143102
 21
100.445433703
  0
LINE
  8
0
 62
7
  6
CONTINUOUS
 10
87.2987221831
 20
100.4454338732
 11
87.1318700317
 21
100.4786023162
  0
POLYLINE
  8
0
 62
9
  6
CONTINUOUS
 66
1
 70
0
  0
VERTEX
  8
0
 62
9
  6
CONTINUOUS
 10
83.6281868548
 20
100.4453032105
  0
VERTEX
  8
0
 62
9
  6
CONTINUOUS
 10
83.5727951819
 20
100.4578393041
  0
VERTEX
  8
0
 62
9
  6
CONTINUOUS
 10
83.4729829806
 20
100.554387725
  0
VERTEX
  8
0
 62
9
  6
CONTINUOUS
 10
83.4335674333
 20
100.6335586096
  0
VERTEX
  8
0
 62
9
  6
CONTINUOUS
 10
83.3855005367
 20
100.8340428983
  0
VERTEX
  8
0
 62
9
  6
CONTINUOUS
 10
83.3792594239
 20
100.9453032105
  0
SEQEND
  0
POLYLINE
  8
0
 62
9
  6
CONTINUOUS
 66
1
 70
0
  0
VERTEX
  8
0
 62
9
  6
CONTINUOUS
 10
85.1777036917
 20
100.4453032105
  0
VERTEX
  8
0
 62
9
  6
CONTINUOUS
 10
85.1272203115
 20
100.4578392543
  0
VERTEX
  8
0
 62
9
  6
CONTINUOUS
 10
85.0362524035
 20
100.554387469
  0
VERTEX
  8
0
 62
9
  6
CONTINUOUS
 10
85.0003293865
 20
100.6335583093
  0
VERTEX
  8
0
 62
9
  6
CONTINUOUS
 10
84.9565215508
 20
100.8340427433
  0
VERTEX
  8
0
 62
9
  6
CONTINUOUS
 10
84.9508334399
 20
100.9453032105
  0
SEQEND
  0
LINE
  8
0
 62
7
  6
CONTINUOUS
 10
86.453901729
 20
100.6831299422
 11
86.99141624
 21
100.538405377
  0
LINE
  8
0
 62
9
  6
CONTINUOUS
 10
86.568218511
 20
100.667837439
 11
87.1056575054
 21
100.5231148759
  0
LINE
  8
0
 62
9
  6
CONTINUOUS
 10
89.970687624
 20
100.5231148759
 11
89.4331105203
 21
100.667837439
  0
POLYLINE
  8
0
 62
7
  6
CONTINUOUS
 66
1
 70
0
  0
VERTEX
  8
0
 62
7
  6
CONTINUOUS
 10
86.9914686087
 20
100.5383911592
  0
VERTEX
  8
0
 62
7
  6
CONTINUOUS
 10
87.0154100901
 20
100.5316780356
  0
VERTEX
  8
0
 62
7
  6
CONTINUOUS
 10
87.0552171665
 20
100.5186336604
  0
VERTEX
  8
0
 62
7
  6
CONTINUOUS
 10
87.0575960113
 20
100.5176766581
  0
SEQEND
  0
POLYLINE
  8
0
 62
7
  6
CONTINUOUS
 66
1
 70
0
  0
VERTEX
  8
0
 62
7
  6
CONTINUOUS
 10
86.4539017169
 20
100.6831299455
  0
VERTEX
  8
0
 62
7
  6
CONTINUOUS
 10
86.3630397374
 20
100.7173583032
  0
VERTEX
  8
0
 62
7
  6
CONTINUOUS
 10
86.2083032446
 20
100.8358934595
  0
VERTEX
  8
0
 62
7
  6
CONTINUOUS
 10
86.1503816969
 20
100.9168121011
  0
VERTEX
  8
0
 62
7
  6
CONTINUOUS
 10
86.0873368457
 20
101.1074087264
  0
VERTEX
  8
0
 62
7
  6
CONTINUOUS
 10
86.0838998978
 20
101.1659347881
  0
SEQEND
  0
LINE
  8
0
 62
9
  6
CONTINUOUS
 10
87.1056575054
 20
100.5231148759
 11
87.298723498
 21
100.4454336892
  0
POLYLINE
  8
0
 62
9
  6
CONTINUOUS
 66
1
 70
0
  0
VERTEX
  8
0
 62
9
  6
CONTINUOUS
 10
63.9376286811
 20
111.3674913598
  0
VERTEX
  8
0
 62
9
  6
CONTINUOUS
 10
63.9659583966
 20
111.3546804856
  0
VERTEX
  8
0
 62
9
  6
CONTINUOUS
 10
64.0231866415
 20
111.2582199436
  0
VERTEX
  8
0
 62
9
  6
CONTINUOUS
 10
64.0492278756
 20
111.1793863199
  0
VERTEX
  8
0
 62
9
  6
CONTINUOUS
 10
64.0897285255
 20
110.9799958518
  0
VERTEX
  8
0
 62
9
  6
CONTINUOUS
 10
64.1021658142
 20
110.869394196
  0
SEQEND
  0
POLYLINE
  8
0
 62
7
  6
CONTINUOUS
 66
1
 70
0
  0
VERTEX
  8
0
 62
7
  6
CONTINUOUS
 10
70.319711692
 20
111.4451725536
  0
VERTEX
  8
0
 62
7
  6
CONTINUOUS
 10
70.3795711922
 20
111.4120041905
  0
VERTEX
  8
0
 62
7
  6
CONTINUOUS
 10
70.4342393861
 20
111.3241278528
  0
VERTEX
  8
0
 62
7
  6
CONTINUOUS
 10
70.4575801203
 20
111.2626855277
  0
VERTEX
  8
0
 62
7
  6
CONTINUOUS
 10
70.4928587692
 20
111.113834929
  0
VERTEX
  8
0
 62
7
  6
CONTINUOUS
 10
70.5097145868
 20
110.9453032105
  0
SEQEND
  0
POLYLINE
  8
0
 62
9
  6
CONTINUOUS
 66
1
 70
0
  0
VERTEX
  8
0
 62
9
  6
CONTINUOUS
 10
94.4668531369
 20
100.4453032105
  0
VERTEX
  8
0
 62
9
  6
CONTINUOUS
 10
94.4457936329
 20
100.4578393041
  0
VERTEX
  8
0
 62
9
  6
CONTINUOUS
 10
94.4078457729
 20
100.554387725
  0
VERTEX
  8
0
 62
9
  6
CONTINUOUS
 10
94.3928602736
 20
100.6335586096
  0
VERTEX
  8
0
 62
9
  6
CONTINUOUS
 10
94.3745855953
 20
100.8340428983
  0
VERTEX
  8
0
 62
9
  6
CONTINUOUS
 10
94.3722127705
 20
100.9453032105
  0
SEQEND
  0
LINE
  8
0
 62
9
  6
CONTINUOUS
 10
94.3722127704
 20
100.9453032105
 11
94.3722127704
 21
110.9453032105
  0
POLYLINE
  8
0
 62
9
  6
CONTINUOUS
 66
1
 70
0
  0
VERTEX
  8
0
 62
9
  6
CONTINUOUS
 10
96.2046917532
 20
111.4453032105
  0
VERTEX
  8
0
 62
9
  6
CONTINUOUS
 10
96.1891369756
 20
111.4327671354
  0
VERTEX
  8
0
 62
9
  6
CONTINUOUS
 10
96.1611082608
 20
111.3362187948
  0
VERTEX
  8
0
 62
9
  6
CONTINUOUS
 10
96.1500397965
 20
111.2570479285
  0
VERTEX
  8
0
 62
9
  6
CONTINUOUS
 10
96.1365419003
 20
111.0565635834
  0
VERTEX
  8
0
 62
9
  6
CONTINUOUS
 10
96.1347893029
 20
110.9453032105
  0
SEQEND
  0
POLYLINE
  8
0
 62
9
  6
CONTINUOUS
 66
1
 70
0
  0
VERTEX
  8
0
 62
9
  6
CONTINUOUS
 10
68.1303812837
 20
100.667837439
  0
VERTEX
  8
0
 62
9
  6
CONTINUOUS
 10
68.2376628904
 20
100.7062851067
  0
VERTEX
  8
0
 62
9
  6
CONTINUOUS
 10
68.3340504499
 20
100.814545352
  0
VERTEX
  8
0
 62
9
  6
CONTINUOUS
 10
68.4048858696
 20
100.9761386622
  0
VERTEX
  8
0
 62
9
  6
CONTINUOUS
 10
68.4394185695
 20
101.1659347881
  0
SEQEND
  0
LINE
  8
0
 62
9
  6
CONTINUOUS
 10
112.3120600817
 20
101.1659347828
 11
111.7745530068
 21
101.0212122249
  0
LINE
  8
0
 62
9
  6
CONTINUOUS
 10
111.7745530068
 20
101.0212122249
 11
111.4466107496
 21
100.9453032105
  0
POLYLINE
  8
0
 62
7
  6
CONTINUOUS
 66
1
 70
0
  0
VERTEX
  8
0
 62
7
  6
CONTINUOUS
 10
102.732301797
 20
100.4454338656
  0
VERTEX
  8
0
 62
7
  6
CONTINUOUS
 10
102.8964438848
 20
100.478602208
  0
VERTEX
  8
0
 62
7
  6
CONTINUOUS
 10
103.040531999
 20
100.5664785294
  0
VERTEX
  8
0
 62
7
  6
CONTINUOUS
 10
103.0996330085
 20
100.6279208458
  0
VERTEX
  8
0
 62
7
  6
CONTINUOUS
 10
103.1833036452
 20
100.7767714119
  0
VERTEX
  8
0
 62
7
  6
CONTINUOUS
 10
103.2134020521
 20
100.9453032105
  0
SEQEND
  0
POLYLINE
  8
0
 62
9
  6
CONTINUOUS
 66
1
 70
0
  0
VERTEX
  8
0
 62
9
  6
CONTINUOUS
 10
102.6298482583
 20
100.667837439
  0
VERTEX
  8
0
 62
9
  6
CONTINUOUS
 10
102.8208479842
 20
100.7062851067
  0
VERTEX
  8
0
 62
9
  6
CONTINUOUS
 10
102.9825904068
 20
100.814545352
  0
VERTEX
  8
0
 62
9
  6
CONTINUOUS
 10
103.0904941843
 20
100.9761386622
  0
VERTEX
  8
0
 62
9
  6
CONTINUOUS
 10
103.1282153682
 20
101.1659347881
  0
SEQEND
  0
LINE
  8
0
 62
9
  6
CONTINUOUS
 10
112.2599901405
 20
100.5231148759
 11
111.8732528123
 21
100.4454336872
  0
LINE
  8
0
 62
9
  6
CONTINUOUS
 10
124.30831929
 20
101.1659347828
 11
122.7563864036
 21
100.9453032105
  0
LINE
  8
0
 62
9
  6
CONTINUOUS
 10
115.1250202592
 20
100.5231148759
 11
115.2392099135
 21
100.5383914846
  0
LINE
  8
0
 62
9
  6
CONTINUOUS
 10
115.6624622228
 20
100.667837439
 11
115.7768033995
 21
100.6831373122
  0
POLYLINE
  8
0
 62
9
  6
CONTINUOUS
 66
1
 70
0
  0
VERTEX
  8
0
 62
9
  6
CONTINUOUS
 10
102.6299180168
 20
100.5231148759
  0
VERTEX
  8
0
 62
9
  6
CONTINUOUS
 10
102.7408981845
 20
100.5359259856
  0
VERTEX
  8
0
 62
9
  6
CONTINUOUS
 10
102.9407203566
 20
100.6323868308
  0
VERTEX
  8
0
 62
9
  6
CONTINUOUS
 10
103.0195856584
 20
100.7112204783
  0
VERTEX
  8
0
 62
9
  6
CONTINUOUS
 10
103.1157333917
 20
100.9106107446
  0
VERTEX
  8
0
 62
9
  6
CONTINUOUS
 10
103.1282153682
 20
101.0212122249
  0
SEQEND
  0
LINE
  8
0
 62
7
  6
CONTINUOUS
 10
133.6797560831
 20
100.445433865
 11
133.702705102
 21
100.4471944299
  0
LINE
  8
0
 62
9
  6
CONTINUOUS
 10
126.1019561418
 20
100.5231148759
 11
126.1443046073
 21
100.5261985638
  0
LINE
  8
0
 62
9
  6
CONTINUOUS
 10
127.1186696515
 20
100.667837439
 11
127.1608512406
 21
100.6708898319
  0
LINE
  8
0
 62
9
  6
CONTINUOUS
 10
134.371204337
 20
100.5231148759
 11
134.3857490726
 21
100.5239162692
  0
LINE
  8
0
 62
9
  6
CONTINUOUS
 10
135.7570127082
 20
100.667837439
 11
135.7713824553
 21
100.668616855
  0
LINE
  8
0
 62
9
  6
CONTINUOUS
 10
139.0366634923
 20
100.5231148759
 11
139.0389418227
 21
100.5232330776
  0
LINE
  8
0
 62
9
  6
CONTINUOUS
 10
140.6413928848
 20
100.667837439
 11
140.6435976673
 21
100.6679477072
  0
LINE
  8
0
 62
7
  6
CONTINUOUS
 10
138.196288001
 20
100.4454337771
 11
138.193467345
 21
100.4453180977
  0
LINE
  8
0
 62
7
  6
CONTINUOUS
 10
133.6797554447
 20
100.4454337675
 11
133.6747971216
 21
100.4453180977
  0
LINE
  8
0
 62
7
  6
CONTINUOUS
 10
138.193467345
 20
100.4453180977
 11
138.1924951218
 21
100.4453032105
  0
LINE
  8
0
 62
7
  6
CONTINUOUS
 10
125.6343625713
 20
100.4454337507
 11
125.6246853243
 21
100.4453032105
  0
LINE
  8
0
 62
7
  6
CONTINUOUS
 10
90.357432039
 20
100.445433966
 11
90.3468907884
 21
100.4453032105
  0
LINE
  8
0
 62
7
  6
CONTINUOUS
 10
114.9319536038
 20
100.4454337472
 11
114.9207683688
 21
100.4453032105
  0
LINE
  8
0
 62
7
  6
CONTINUOUS
 10
102.7323000976
 20
100.4454337474
 11
102.7208189152
 21
100.4453032105
  0
LINE
  8
0
 62
7
  6
CONTINUOUS
 10
133.6747971216
 20
100.4453180977
 11
133.672634291
 21
100.4453032105
  0
LINE
  8
0
 62
9
  6
CONTINUOUS
 10
68.4903388823
 20
97.9453032105
 11
133.7403388823
 21
97.9453032105
  0
LINE
  8
0
 62
7
  6
CONTINUOUS
 10
138.9596295014
 20
100.4453032105
 11
138.2008019511
 21
100.4453032105
  0
LINE
  8
0
 62
7
  6
CONTINUOUS
 10
125.624679235
 20
100.4453032105
 11
123.0907904842
 21
100.4453032105
  0
LINE
  8
0
 62
7
  6
CONTINUOUS
 10
123.082341761
 20
100.4453032105
 11
111.8837915419
 21
100.4453032105
  0
LINE
  8
0
 62
7
  6
CONTINUOUS
 10
111.8732517514
 20
100.4453032105
 11
102.7323000976
 21
100.4453032105
  0
LINE
  8
0
 62
7
  6
CONTINUOUS
 10
102.7208115108
 20
100.4453032105
 11
99.5098621192
 21
100.4453032105
  0
LINE
  8
0
 62
7
  6
CONTINUOUS
 10
99.4983766477
 20
100.4453032105
 11
90.357432039
 21
100.4453032105
  0
LINE
  8
0
 62
7
  6
CONTINUOUS
 10
90.3468832807
 20
100.4453032105
 11
87.3099139363
 21
100.4453032105
  0
LINE
  8
0
 62
7
  6
CONTINUOUS
 10
87.298723498
 20
100.4453032105
 11
79.1483369367
 21
100.4453032105
  0
LINE
  8
0
 62
7
  6
CONTINUOUS
 10
79.1398848086
 20
100.4453032105
 11
76.6059962034
 21
100.4453032105
  0
LINE
  8
0
 62
7
  6
CONTINUOUS
 10
64.0298763617
 20
100.4453032105
 11
63.2710484782
 21
100.4453032105
  0
LINE
  8
0
 62
7
  6
CONTINUOUS
 10
64.038184344
 20
100.4453032105
 11
76.5963143102
 21
100.4453032105
  0
LINE
  8
0
 62
7
  6
CONTINUOUS
 10
125.6343625713
 20
100.4453032105
 11
138.192493389
 21
100.4453032105
  0
LINE
  8
0
 62
9
  6
CONTINUOUS
 10
61.5892855449
 20
100.667837439
 11
62.3328640874
 21
100.667837439
  0
LINE
  8
0
 62
9
  6
CONTINUOUS
 10
66.473666696
 20
100.667837439
 11
68.1303793624
 21
100.667837439
  0
LINE
  8
0
 62
9
  6
CONTINUOUS
 10
75.1120105495
 20
100.667837439
 11
77.5023268158
 21
100.667837439
  0
LINE
  8
0
 62
9
  6
CONTINUOUS
 10
86.568218511
 20
100.667837439
 11
89.4331105203
 21
100.667837439
  0
LINE
  8
0
 62
9
  6
CONTINUOUS
 10
99.6008326866
 20
100.667837439
 11
102.6298449362
 21
100.667837439
  0
LINE
  8
0
 62
9
  6
CONTINUOUS
 10
112.7975671084
 20
100.667837439
 11
115.6624591212
 21
100.667837439
  0
LINE
  8
0
 62
9
  6
CONTINUOUS
 10
124.7283508336
 20
100.667837439
 11
127.1186671064
 21
100.667837439
  0
LINE
  8
0
 62
9
  6
CONTINUOUS
 10
134.1002983201
 20
100.667837439
 11
135.7570109954
 21
100.667837439
  0
LINE
  8
0
 62
9
  6
CONTINUOUS
 10
139.8978136372
 20
100.667837439
 11
140.64139219
 21
100.667837439
  0
LINE
  8
0
 62
7
  6
CONTINUOUS
 10
68.5558805621
 20
100.4453180987
 11
68.5580434735
 21
100.4453032105
  0
LINE
  8
0
 62
7
  6
CONTINUOUS
 10
99.4983766477
 20
100.4454336871
 11
99.5098588493
 21
100.4453032105
  0
LINE
  8
0
 62
7
  6
CONTINUOUS
 10
87.298723498
 20
100.4454336892
 11
87.3099093957
 21
100.4453032105
  0
LINE
  8
0
 62
7
  6
CONTINUOUS
 10
111.8732528123
 20
100.4454336872
 11
111.8837869761
 21
100.4453032105
  0
LINE
  8
0
 62
7
  6
CONTINUOUS
 10
76.5963143102
 20
100.445433703
 11
76.6059924403
 21
100.4453032105
  0
LINE
  8
0
 62
7
  6
CONTINUOUS
 10
64.0372103814
 20
100.4453180987
 11
64.0381826428
 21
100.4453032105
  0
LINE
  8
0
 62
7
  6
CONTINUOUS
 10
68.5509222026
 20
100.4454337102
 11
68.5558805621
 21
100.4453180987
  0
LINE
  8
0
 62
7
  6
CONTINUOUS
 10
64.0343903621
 20
100.445433711
 11
64.0372103814
 21
100.4453180987
  0
LINE
  8
0
 62
9
  6
CONTINUOUS
 10
61.5892848798
 20
100.667837439
 11
61.5869892811
 21
100.6679558872
  0
LINE
  8
0
 62
9
  6
CONTINUOUS
 10
63.1940142996
 20
100.5231151949
 11
63.1917359676
 21
100.5232333634
  0
LINE
  8
0
 62
9
  6
CONTINUOUS
 10
66.4736650564
 20
100.667837439
 11
66.4590807543
 21
100.6686392134
  0
LINE
  8
0
 62
9
  6
CONTINUOUS
 10
67.8594734515
 20
100.5231151944
 11
67.8449285668
 21
100.5239165079
  0
LINE
  8
0
 62
9
  6
CONTINUOUS
 10
75.112008113
 20
100.667837439
 11
75.0695840382
 21
100.6709242863
  0
LINE
  8
0
 62
9
  6
CONTINUOUS
 10
76.1287216407
 20
100.5231151941
 11
76.0863741549
 21
100.5261985497
  0
LINE
  8
0
 62
7
  6
CONTINUOUS
 10
68.5509220872
 20
100.4454338733
 11
68.5279730827
 21
100.4471944367
  0
POLYLINE
  8
0
 62
9
  6
CONTINUOUS
 66
1
 70
0
  0
VERTEX
  8
0
 62
9
  6
CONTINUOUS
 10
99.6007597489
 20
100.5231151915
  0
VERTEX
  8
0
 62
9
  6
CONTINUOUS
 10
99.4897794811
 20
100.5359259269
  0
VERTEX
  8
0
 62
9
  6
CONTINUOUS
 10
99.2899567761
 20
100.6323862888
  0
VERTEX
  8
0
 62
9
  6
CONTINUOUS
 10
99.2110911398
 20
100.7112198956
  0
VERTEX
  8
0
 62
9
  6
CONTINUOUS
 10
99.1149429047
 20
100.9106104722
  0
VERTEX
  8
0
 62
9
  6
CONTINUOUS
 10
99.1024608573
 20
101.021212225
  0
SEQEND
  0
LINE
  8
0
 62
9
  6
CONTINUOUS
 10
87.1056575154
 20
100.5231151927
 11
86.9914686087
 21
100.5383911592
  0
LINE
  8
0
 62
9
  6
CONTINUOUS
 10
86.5682155417
 20
100.667837439
 11
86.4539017292
 21
100.6831299421
  0
LINE
  8
0
 62
9
  6
CONTINUOUS
 10
79.4742917834
 20
100.9453032105
 11
77.9223584745
 21
101.1659347826
  0
LINE
  8
0
 62
9
  6
CONTINUOUS
 10
90.357432039
 20
100.445433966
 11
89.970687624
 21
100.5231148759
  0
POLYLINE
  8
0
 62
9
  6
CONTINUOUS
 66
1
 70
0
  0
VERTEX
  8
0
 62
9
  6
CONTINUOUS
 10
99.6008295063
 20
100.667837439
  0
VERTEX
  8
0
 62
9
  6
CONTINUOUS
 10
99.409989808
 20
100.7062186479
  0
VERTEX
  8
0
 62
9
  6
CONTINUOUS
 10
99.2483321625
 20
100.814300487
  0
VERTEX
  8
0
 62
9
  6
CONTINUOUS
 10
99.1403665638
 20
100.9756959478
  0
VERTEX
  8
0
 62
9
  6
CONTINUOUS
 10
99.1024623964
 20
101.1659347881
  0
SEQEND
  0
POLYLINE
  8
0
 62
7
  6
CONTINUOUS
 66
1
 70
0
  0
VERTEX
  8
0
 62
7
  6
CONTINUOUS
 10
99.4983754234
 20
100.4454338737
  0
VERTEX
  8
0
 62
7
  6
CONTINUOUS
 10
99.3342337003
 20
100.4786023226
  0
VERTEX
  8
0
 62
7
  6
CONTINUOUS
 10
99.1901460244
 20
100.5664787193
  0
VERTEX
  8
0
 62
7
  6
CONTINUOUS
 10
99.1310452939
 20
100.6279210701
  0
VERTEX
  8
0
 62
7
  6
CONTINUOUS
 10
99.0473756775
 20
100.7767717816
  0
VERTEX
  8
0
 62
7
  6
CONTINUOUS
 10
99.0172756551
 20
100.9453032105
  0
SEQEND
  0
LINE
  8
0
 62
9
  6
CONTINUOUS
 10
90.7840615535
 20
100.9453032105
 11
90.4561247578
 21
101.0212122249
  0
LINE
  8
0
 62
9
  6
CONTINUOUS
 10
90.4561247578
 20
101.0212122249
 11
89.9186176829
 21
101.1659347826
  0
POLYLINE
  8
0
 62
9
  6
CONTINUOUS
 66
1
 70
0
  0
VERTEX
  8
0
 62
9
  6
CONTINUOUS
 10
68.1303812837
 20
111.2227689819
  0
VERTEX
  8
0
 62
9
  6
CONTINUOUS
 10
68.2375698697
 20
111.184387773
  0
VERTEX
  8
0
 62
9
  6
CONTINUOUS
 10
68.3338988542
 20
111.0763059339
  0
VERTEX
  8
0
 62
9
  6
CONTINUOUS
 10
68.4047631573
 20
110.9149104731
  0
VERTEX
  8
0
 62
9
  6
CONTINUOUS
 10
68.4394185695
 20
110.7246716329
  0
SEQEND
  0
POLYLINE
  8
0
 62
9
  6
CONTINUOUS
 66
1
 70
0
  0
VERTEX
  8
0
 62
9
  6
CONTINUOUS
 10
96.2046917532
 20
100.4453032105
  0
VERTEX
  8
0
 62
9
  6
CONTINUOUS
 10
96.1891369947
 20
100.4578392543
  0
VERTEX
  8
0
 62
9
  6
CONTINUOUS
 10
96.1611082884
 20
100.554387469
  0
VERTEX
  8
0
 62
9
  6
CONTINUOUS
 10
96.1500398169
 20
100.6335583093
  0
VERTEX
  8
0
 62
9
  6
CONTINUOUS
 10
96.1365419034
 20
100.8340427433
  0
VERTEX
  8
0
 62
9
  6
CONTINUOUS
 10
96.134789303
 20
100.9453032105
  0
SEQEND
  0
LINE
  8
0
 62
9
  6
CONTINUOUS
 10
96.134789303
 20
100.9453032105
 11
96.134789303
 21
110.9453032105
  0
POLYLINE
  8
0
 62
9
  6
CONTINUOUS
 66
1
 70
0
  0
VERTEX
  8
0
 62
9
  6
CONTINUOUS
 10
99.6008295063
 20
111.2227689819
  0
VERTEX
  8
0
 62
9
  6
CONTINUOUS
 10
99.596940066
 20
111.2024580358
  0
VERTEX
  8
0
 62
9
  6
CONTINUOUS
 10
99.5900655054
 20
111.0995622344
  0
VERTEX
  8
0
 62
9
  6
CONTINUOUS
 10
99.5873880055
 20
111.0215817257
  0
VERTEX
  8
0
 62
9
  6
CONTINUOUS
 10
99.5841462645
 20
110.829846575
  0
VERTEX
  8
0
 62
9
  6
CONTINUOUS
 10
99.5837270838
 20
110.7246716329
  0
SEQEND
  0
LINE
  8
0
 62
9
  6
CONTINUOUS
 10
102.6299180168
 20
111.367491545
 11
102.7323000972
 21
111.4451726735
  0
POLYLINE
  8
0
 62
7
  6
CONTINUOUS
 66
1
 70
0
  0
VERTEX
  8
0
 62
7
  6
CONTINUOUS
 10
137.4024052099
 20
111.4451727526
  0
VERTEX
  8
0
 62
7
  6
CONTINUOUS
 10
137.4026740591
 20
111.4452444964
  0
VERTEX
  8
0
 62
7
  6
CONTINUOUS
 10
137.4032836139
 20
111.4452883219
  0
VERTEX
  8
0
 62
7
  6
CONTINUOUS
 10
137.4042510258
 20
111.4453032105
  0
SEQEND
  0
POLYLINE
  8
0
 62
7
  6
CONTINUOUS
 66
1
 70
0
  0
VERTEX
  8
0
 62
7
  6
CONTINUOUS
 10
90.3574248905
 20
100.4454338622
  0
VERTEX
  8
0
 62
7
  6
CONTINUOUS
 10
90.5010700198
 20
100.4786021626
  0
VERTEX
  8
0
 62
7
  6
CONTINUOUS
 10
90.6279885227
 20
100.5664784514
  0
VERTEX
  8
0
 62
7
  6
CONTINUOUS
 10
90.6804029399
 20
100.6279207506
  0
VERTEX
  8
0
 62
7
  6
CONTINUOUS
 10
90.7554747198
 20
100.7767712542
  0
VERTEX
  8
0
 62
7
  6
CONTINUOUS
 10
90.7840927031
 20
100.9453032105
  0
SEQEND
  0
POLYLINE
  8
0
 62
9
  6
CONTINUOUS
 66
1
 70
0
  0
VERTEX
  8
0
 62
9
  6
CONTINUOUS
 10
89.4331137028
 20
100.667837439
  0
VERTEX
  8
0
 62
9
  6
CONTINUOUS
 10
89.614856217
 20
100.7062851067
  0
VERTEX
  8
0
 62
9
  6
CONTINUOUS
 10
89.7709079043
 20
100.814545352
  0
VERTEX
  8
0
 62
9
  6
CONTINUOUS
 10
89.8775486949
 20
100.9761386622
  0
VERTEX
  8
0
 62
9
  6
CONTINUOUS
 10
89.9186176829
 20
101.1659347881
  0
SEQEND
  0
POLYLINE
  8
0
 62
9
  6
CONTINUOUS
 66
1
 70
0
  0
VERTEX
  8
0
 62
9
  6
CONTINUOUS
 10
89.970687624
 20
100.5231148759
  0
VERTEX
  8
0
 62
9
  6
CONTINUOUS
 10
90.0760182341
 20
100.5359259856
  0
VERTEX
  8
0
 62
9
  6
CONTINUOUS
 10
90.2677516111
 20
100.6323868308
  0
VERTEX
  8
0
 62
9
  6
CONTINUOUS
 10
90.3445815319
 20
100.7112204783
  0
VERTEX
  8
0
 62
9
  6
CONTINUOUS
 10
90.4411795743
 20
100.9106107446
  0
VERTEX
  8
0
 62
9
  6
CONTINUOUS
 10
90.4561247578
 20
101.0212122249
  0
SEQEND
  0
POLYLINE
  8
0
 62
7
  6
CONTINUOUS
 66
1
 70
0
  0
VERTEX
  8
0
 62
7
  6
CONTINUOUS
 10
70.3197108061
 20
100.4454337232
  0
VERTEX
  8
0
 62
7
  6
CONTINUOUS
 10
70.3182368783
 20
100.4453619204
  0
VERTEX
  8
0
 62
7
  6
CONTINUOUS
 10
70.3164308325
 20
100.445318098
  0
VERTEX
  8
0
 62
7
  6
CONTINUOUS
 10
70.3142721674
 20
100.4453032105
  0
SEQEND
  0
LINE
  8
0
 62
7
  6
CONTINUOUS
 10
79.1483369367
 20
100.4454338332
 11
79.1398911023
 21
100.4453032105
  0
LINE
  8
0
 62
9
  6
CONTINUOUS
 10
137.3690323314
 20
100.9453032105
 11
136.1613791513
 21
100.9453032105
  0
LINE
  8
0
 62
9
  6
CONTINUOUS
 10
131.7210104767
 20
100.9453032105
 11
127.5323217058
 21
100.9453032105
  0
LINE
  8
0
 62
9
  6
CONTINUOUS
 10
122.7563864036
 20
100.9453032105
 11
116.0885814855
 21
100.9453032105
  0
LINE
  8
0
 62
9
  6
CONTINUOUS
 10
111.4466107496
 20
100.9453032105
 11
103.2133902287
 21
100.9453032105
  0
LINE
  8
0
 62
9
  6
CONTINUOUS
 10
99.0172866102
 20
100.9453032105
 11
90.7840615535
 21
100.9453032105
  0
LINE
  8
0
 62
9
  6
CONTINUOUS
 10
86.1409575125
 20
100.9453032105
 11
79.4742917834
 21
100.9453032105
  0
LINE
  8
0
 62
9
  6
CONTINUOUS
 10
74.6949776832
 20
100.9453032105
 11
70.5096694612
 21
100.9453032105
  0
LINE
  8
0
 62
9
  6
CONTINUOUS
 10
66.0648918928
 20
100.9453032105
 11
64.8616390212
 21
100.9453032105
  0
LINE
  8
0
 62
9
  6
CONTINUOUS
 10
141.9491128114
 20
101.1659347881
 11
141.4904024841
 21
101.1659347881
  0
LINE
  8
0
 62
9
  6
CONTINUOUS
 10
60.2815649532
 20
101.1659347881
 11
60.7402752805
 21
101.1659347881
  0
LINE
  8
0
 62
9
  6
CONTINUOUS
 10
61.1319004645
 20
101.1659347881
 11
62.4974216495
 21
101.1659347881
  0
LINE
  8
0
 62
9
  6
CONTINUOUS
 10
66.0110144756
 20
101.1659347881
 11
68.4394185695
 21
101.1659347881
  0
LINE
  8
0
 62
9
  6
CONTINUOUS
 10
74.6400439783
 20
101.1659347881
 11
77.9223584745
 21
101.1659347881
  0
LINE
  8
0
 62
9
  6
CONTINUOUS
 10
86.0838998978
 20
101.1659347881
 11
89.9186176829
 21
101.1659347881
  0
LINE
  8
0
 62
9
  6
CONTINUOUS
 10
99.1024623964
 20
101.1659347881
 11
103.1282153682
 21
101.1659347881
  0
LINE
  8
0
 62
9
  6
CONTINUOUS
 10
112.3120600817
 20
101.1659347881
 11
116.1467780325
 21
101.1659347881
  0
LINE
  8
0
 62
9
  6
CONTINUOUS
 10
124.30831929
 20
101.1659347881
 11
127.5906337863
 21
101.1659347881
  0
LINE
  8
0
 62
9
  6
CONTINUOUS
 10
133.7912591951
 20
101.1659347881
 11
136.219663289
 21
101.1659347881
  0
LINE
  8
0
 62
9
  6
CONTINUOUS
 10
139.733256115
 20
101.1659347881
 11
141.0987773009
 21
101.1659347881
  0
LINE
  8
0
 62
7
  6
CONTINUOUS
 10
123.0823371624
 20
100.4454338754
 11
123.0907866622
 21
100.4453032105
  0
POLYLINE
  8
0
 62
7
  6
CONTINUOUS
 66
1
 70
0
  0
VERTEX
  8
0
 62
7
  6
CONTINUOUS
 10
131.9109647409
 20
100.4454337507
  0
VERTEX
  8
0
 62
7
  6
CONTINUOUS
 10
131.9124408089
 20
100.4453619231
  0
VERTEX
  8
0
 62
7
  6
CONTINUOUS
 10
131.9142468853
 20
100.4453180987
  0
VERTEX
  8
0
 62
7
  6
CONTINUOUS
 10
131.9164055972
 20
100.4453032105
  0
SEQEND
  0
POLYLINE
  8
0
 62
9
  6
CONTINUOUS
 66
1
 70
0
  0
VERTEX
  8
0
 62
9
  6
CONTINUOUS
 10
112.2599901326
 20
100.5231151913
  0
VERTEX
  8
0
 62
9
  6
CONTINUOUS
 10
112.1546594385
 20
100.5359259269
  0
VERTEX
  8
0
 62
9
  6
CONTINUOUS
 10
111.9629255715
 20
100.6323862891
  0
VERTEX
  8
0
 62
9
  6
CONTINUOUS
 10
111.8860953357
 20
100.7112198959
  0
VERTEX
  8
0
 62
9
  6
CONTINUOUS
 10
111.7894968101
 20
100.9106104724
  0
VERTEX
  8
0
 62
9
  6
CONTINUOUS
 10
111.7745515518
 20
101.021212225
  0
SEQEND
  0
POLYLINE
  8
0
 62
9
  6
CONTINUOUS
 66
1
 70
0
  0
VERTEX
  8
0
 62
9
  6
CONTINUOUS
 10
112.7975640617
 20
100.667837439
  0
VERTEX
  8
0
 62
9
  6
CONTINUOUS
 10
112.6159750353
 20
100.7062186479
  0
VERTEX
  8
0
 62
9
  6
CONTINUOUS
 10
112.4600082659
 20
100.814300487
  0
VERTEX
  8
0
 62
9
  6
CONTINUOUS
 10
112.3533109157
 20
100.9756959478
  0
VERTEX
  8
0
 62
9
  6
CONTINUOUS
 10
112.3120600817
 20
101.1659347881
  0
SEQEND
  0
POLYLINE
  8
0
 62
7
  6
CONTINUOUS
 66
1
 70
0
  0
VERTEX
  8
0
 62
7
  6
CONTINUOUS
 10
111.8732517514
 20
100.4454338738
  0
VERTEX
  8
0
 62
7
  6
CONTINUOUS
 10
111.7296077723
 20
100.4786023236
  0
VERTEX
  8
0
 62
7
  6
CONTINUOUS
 10
111.6026906041
 20
100.566478721
  0
VERTEX
  8
0
 62
7
  6
CONTINUOUS
 10
111.5502770548
 20
100.6279210721
  0
VERTEX
  8
0
 62
7
  6
CONTINUOUS
 10
111.4752085803
 20
100.7767717851
  0
VERTEX
  8
0
 62
7
  6
CONTINUOUS
 10
111.4465848422
 20
100.9453032105
  0
SEQEND
  0
POLYLINE
  8
0
 62
7
  6
CONTINUOUS
 66
1
 70
0
  0
VERTEX
  8
0
 62
7
  6
CONTINUOUS
 10
64.8282714827
 20
111.4451726888
  0
VERTEX
  8
0
 62
7
  6
CONTINUOUS
 10
64.8280036719
 20
111.4452445009
  0
VERTEX
  8
0
 62
7
  6
CONTINUOUS
 10
64.8273941205
 20
111.445288323
  0
VERTEX
  8
0
 62
7
  6
CONTINUOUS
 10
64.8264267388
 20
111.4453032105
  0
SEQEND
  0
LINE
  8
0
 62
9
  6
CONTINUOUS
 10
102.7323000976
 20
100.4454337474
 11
102.6299180168
 21
100.5231148759
  0
POLYLINE
  8
0
 62
9
  6
CONTINUOUS
 66
1
 70
0
  0
VERTEX
  8
0
 62
9
  6
CONTINUOUS
 10
99.5841462645
 20
101.0607598459
  0
VERTEX
  8
0
 62
9
  6
CONTINUOUS
 10
99.5873880055
 20
100.8690246953
  0
VERTEX
  8
0
 62
9
  6
CONTINUOUS
 10
99.5900655054
 20
100.7910441866
  0
VERTEX
  8
0
 62
9
  6
CONTINUOUS
 10
99.596940066
 20
100.6881483852
  0
VERTEX
  8
0
 62
9
  6
CONTINUOUS
 10
99.6008295063
 20
100.667837439
  0
SEQEND
  0
LINE
  8
0
 62
9
  6
CONTINUOUS
 10
99.6007597478
 20
111.367491545
 11
99.6008326866
 21
111.2227689819
  0
LINE
  8
0
 62
7
  6
CONTINUOUS
 10
99.1024623964
 20
110.869394196
 11
99.1024623964
 21
101.0212122249
  0
LINE
  8
0
 62
9
  6
CONTINUOUS
 10
99.5837270838
 20
110.7246716329
 11
99.5841462645
 21
101.0607598459
  0
LINE
  8
DEFAULT_1
 62
2
  6
CENTER
 10
101.1153388823
 20
93.9453032105
 11
101.1153388823
 21
117.9453032105
  0
LINE
  8
0
 62
9
  6
CONTINUOUS
 10
99.6008326866
 20
100.667837439
 11
99.6007597478
 21
100.5231148759
  0
LINE
  8
0
 62
9
  6
CONTINUOUS
 10
103.1282153682
 20
110.869394196
 11
103.2133902286
 21
110.9453032105
  0
POLYLINE
  8
0
 62
7
  6
CONTINUOUS
 66
1
 70
0
  0
VERTEX
  8
0
 62
7
  6
CONTINUOUS
 10
79.1483354005
 20
100.4454338646
  0
VERTEX
  8
0
 62
7
  6
CONTINUOUS
 10
79.2559168888
 20
100.4786021942
  0
VERTEX
  8
0
 62
7
  6
CONTINUOUS
 10
79.3519116286
 20
100.5664785055
  0
VERTEX
  8
0
 62
7
  6
CONTINUOUS
 10
79.3919591801
 20
100.6279208166
  0
VERTEX
  8
0
 62
7
  6
CONTINUOUS
 10
79.450295577
 20
100.7767713634
  0
VERTEX
  8
0
 62
7
  6
CONTINUOUS
 10
79.474334303
 20
100.9453032105
  0
SEQEND
  0
POLYLINE
  8
0
 62
9
  6
CONTINUOUS
 66
1
 70
0
  0
VERTEX
  8
0
 62
9
  6
CONTINUOUS
 10
124.7283482506
 20
111.2227689819
  0
VERTEX
  8
0
 62
9
  6
CONTINUOUS
 10
124.5755575697
 20
111.1843213142
  0
VERTEX
  8
0
 62
9
  6
CONTINUOUS
 10
124.4421072393
 20
111.076061069
  0
VERTEX
  8
0
 62
9
  6
CONTINUOUS
 10
124.34828562
 20
110.9144677587
  0
VERTEX
  8
0
 62
9
  6
CONTINUOUS
 10
124.30831929
 20
110.7246716329
  0
SEQEND
  0
POLYLINE
  8
0
 62
9
  6
CONTINUOUS
 66
1
 70
0
  0
VERTEX
  8
0
 62
9
  6
CONTINUOUS
 10
132.7144118011
 20
111.367491545
  0
VERTEX
  8
0
 62
9
  6
CONTINUOUS
 10
132.6527738006
 20
111.3546804353
  0
VERTEX
  8
0
 62
9
  6
CONTINUOUS
 10
132.5364217855
 20
111.2582195901
  0
VERTEX
  8
0
 62
9
  6
CONTINUOUS
 10
132.4875169834
 20
111.1793859426
  0
VERTEX
  8
0
 62
9
  6
CONTINUOUS
 10
132.4203364522
 20
110.9799956763
  0
VERTEX
  8
0
 62
9
  6
CONTINUOUS
 10
132.4054149063
 20
110.869394196
  0
SEQEND
  0
POLYLINE
  8
0
 62
9
  6
CONTINUOUS
 66
1
 70
0
  0
VERTEX
  8
0
 62
9
  6
CONTINUOUS
 10
78.5191531222
 20
100.5231148759
  0
VERTEX
  8
0
 62
9
  6
CONTINUOUS
 10
78.6074199687
 20
100.5359259856
  0
VERTEX
  8
0
 62
9
  6
CONTINUOUS
 10
78.7702872641
 20
100.6323868308
  0
VERTEX
  8
0
 62
9
  6
CONTINUOUS
 10
78.8367560899
 20
100.7112204783
  0
VERTEX
  8
0
 62
9
  6
CONTINUOUS
 10
78.9233365445
 20
100.9106107446
  0
VERTEX
  8
0
 62
9
  6
CONTINUOUS
 10
78.9391253925
 20
101.0212122249
  0
SEQEND
  0
POLYLINE
  8
0
 62
9
  6
CONTINUOUS
 66
1
 70
0
  0
VERTEX
  8
0
 62
9
  6
CONTINUOUS
 10
123.7115246252
 20
100.523115213
  0
VERTEX
  8
0
 62
9
  6
CONTINUOUS
 10
123.6232577202
 20
100.535925921
  0
VERTEX
  8
0
 62
9
  6
CONTINUOUS
 10
123.4603900051
 20
100.632386244
  0
VERTEX
  8
0
 62
9
  6
CONTINUOUS
 10
123.3939208976
 20
100.7112198469
  0
VERTEX
  8
0
 62
9
  6
CONTINUOUS
 10
123.3073399971
 20
100.9106104491
  0
VERTEX
  8
0
 62
9
  6
CONTINUOUS
 10
123.2915510726
 20
101.021212225
  0
SEQEND
  0
POLYLINE
  8
0
 62
9
  6
CONTINUOUS
 66
1
 70
0
  0
VERTEX
  8
0
 62
9
  6
CONTINUOUS
 10
69.5162659765
 20
111.3674913626
  0
VERTEX
  8
0
 62
9
  6
CONTINUOUS
 10
69.5779039927
 20
111.3546804845
  0
VERTEX
  8
0
 62
9
  6
CONTINUOUS
 10
69.6942561659
 20
111.2582199371
  0
VERTEX
  8
0
 62
9
  6
CONTINUOUS
 10
69.7431610798
 20
111.1793863129
  0
VERTEX
  8
0
 62
9
  6
CONTINUOUS
 10
69.8103417961
 20
110.9799958486
  0
VERTEX
  8
0
 62
9
  6
CONTINUOUS
 10
69.8252633788
 20
110.869394196
  0
SEQEND
  0
POLYLINE
  8
0
 62
9
  6
CONTINUOUS
 66
1
 70
0
  0
VERTEX
  8
0
 62
9
  6
CONTINUOUS
 10
77.502329514
 20
111.2227689819
  0
VERTEX
  8
0
 62
9
  6
CONTINUOUS
 10
77.6549898799
 20
111.184387773
  0
VERTEX
  8
0
 62
9
  6
CONTINUOUS
 10
77.7883643537
 20
111.0763059339
  0
VERTEX
  8
0
 62
9
  6
CONTINUOUS
 10
77.8822311418
 20
110.9149104731
  0
VERTEX
  8
0
 62
9
  6
CONTINUOUS
 10
77.9223584745
 20
110.7246716329
  0
SEQEND
  0
POLYLINE
  8
0
 62
7
  6
CONTINUOUS
 66
1
 70
0
  0
VERTEX
  8
0
 62
7
  6
CONTINUOUS
 10
79.1483353999
 20
111.4451725564
  0
VERTEX
  8
0
 62
7
  6
CONTINUOUS
 10
79.2559168888
 20
111.4120042268
  0
VERTEX
  8
0
 62
7
  6
CONTINUOUS
 10
79.3519116292
 20
111.3241279155
  0
VERTEX
  8
0
 62
7
  6
CONTINUOUS
 10
79.391959181
 20
111.2626856044
  0
VERTEX
  8
0
 62
7
  6
CONTINUOUS
 10
79.4502955788
 20
111.1138350577
  0
VERTEX
  8
0
 62
7
  6
CONTINUOUS
 10
79.4743343028
 20
110.9453032105
  0
SEQEND
  0
LINE
  8
0
 62
9
  6
CONTINUOUS
 10
103.2133902287
 20
100.9453032105
 11
103.1282153682
 21
101.0212122249
  0
POLYLINE
  8
0
 62
9
  6
CONTINUOUS
 66
1
 70
0
  0
VERTEX
  8
0
 62
9
  6
CONTINUOUS
 10
102.6465315
 20
110.829846575
  0
VERTEX
  8
0
 62
9
  6
CONTINUOUS
 10
102.6432897591
 20
111.0215817257
  0
VERTEX
  8
0
 62
9
  6
CONTINUOUS
 10
102.6406122592
 20
111.0995622344
  0
VERTEX
  8
0
 62
9
  6
CONTINUOUS
 10
102.6337376985
 20
111.2024580358
  0
VERTEX
  8
0
 62
9
  6
CONTINUOUS
 10
102.6298482583
 20
111.2227689819
  0
SEQEND
  0
LINE
  8
0
 62
9
  6
CONTINUOUS
 10
102.6299180168
 20
100.5231148759
 11
102.6298449362
 21
100.667837439
  0
LINE
  8
0
 62
9
  6
CONTINUOUS
 10
102.6469506807
 20
101.1659347881
 11
102.6465315
 21
110.829846575
  0
LINE
  8
0
 62
7
  6
CONTINUOUS
 10
103.1282153682
 20
101.0212122249
 11
103.1282153682
 21
110.869394196
  0
LINE
  8
0
 62
9
  6
CONTINUOUS
 10
102.6298449362
 20
111.2227689819
 11
102.6299180168
 21
111.367491545
  0
POLYLINE
  8
0
 62
9
  6
CONTINUOUS
 66
1
 70
0
  0
VERTEX
  8
0
 62
9
  6
CONTINUOUS
 10
102.6298482583
 20
100.667837439
  0
VERTEX
  8
0
 62
9
  6
CONTINUOUS
 10
102.6337376985
 20
100.6881483852
  0
VERTEX
  8
0
 62
9
  6
CONTINUOUS
 10
102.6406122592
 20
100.7910441866
  0
VERTEX
  8
0
 62
9
  6
CONTINUOUS
 10
102.6432897591
 20
100.8690246953
  0
VERTEX
  8
0
 62
9
  6
CONTINUOUS
 10
102.6465315
 20
101.0607598459
  0
VERTEX
  8
0
 62
9
  6
CONTINUOUS
 10
102.6469506807
 20
101.1659347881
  0
SEQEND
  0
LINE
  8
0
 62
9
  6
CONTINUOUS
 10
99.1024623964
 20
101.0212122249
 11
99.0172866102
 21
100.9453032105
  0
POLYLINE
  8
0
 62
7
  6
CONTINUOUS
 66
1
 70
0
  0
VERTEX
  8
0
 62
7
  6
CONTINUOUS
 10
123.0823417558
 20
111.4451725512
  0
VERTEX
  8
0
 62
7
  6
CONTINUOUS
 10
122.9747610114
 20
111.4120041578
  0
VERTEX
  8
0
 62
7
  6
CONTINUOUS
 10
122.8787671181
 20
111.3241277966
  0
VERTEX
  8
0
 62
7
  6
CONTINUOUS
 10
122.8387201169
 20
111.2626854591
  0
VERTEX
  8
0
 62
7
  6
CONTINUOUS
 10
122.7803858224
 20
111.113834815
  0
VERTEX
  8
0
 62
7
  6
CONTINUOUS
 10
122.756343297
 20
110.9453032105
  0
SEQEND
  0
POLYLINE
  8
0
 62
9
  6
CONTINUOUS
 66
1
 70
0
  0
VERTEX
  8
0
 62
9
  6
CONTINUOUS
 10
77.502329514
 20
100.667837439
  0
VERTEX
  8
0
 62
9
  6
CONTINUOUS
 10
77.6551201949
 20
100.7062851067
  0
VERTEX
  8
0
 62
9
  6
CONTINUOUS
 10
77.7885705253
 20
100.814545352
  0
VERTEX
  8
0
 62
9
  6
CONTINUOUS
 10
77.8823921446
 20
100.9761386622
  0
VERTEX
  8
0
 62
9
  6
CONTINUOUS
 10
77.9223584745
 20
101.1659347881
  0
SEQEND
  0
POLYLINE
  8
0
 62
7
  6
CONTINUOUS
 66
1
 70
0
  0
VERTEX
  8
0
 62
7
  6
CONTINUOUS
 10
111.8732517507
 20
111.4451725472
  0
VERTEX
  8
0
 62
7
  6
CONTINUOUS
 10
111.729607788
 20
111.4120041043
  0
VERTEX
  8
0
 62
7
  6
CONTINUOUS
 10
111.6026906084
 20
111.3241277035
  0
VERTEX
  8
0
 62
7
  6
CONTINUOUS
 10
111.5502770528
 20
111.2626853443
  0
VERTEX
  8
0
 62
7
  6
CONTINUOUS
 10
111.475208577
 20
111.1138346171
  0
VERTEX
  8
0
 62
7
  6
CONTINUOUS
 10
111.4465848418
 20
110.9453032105
  0
SEQEND
  0
POLYLINE
  8
0
 62
9
  6
CONTINUOUS
 66
1
 70
0
  0
VERTEX
  8
0
 62
9
  6
CONTINUOUS
 10
112.7975640617
 20
111.2227689819
  0
VERTEX
  8
0
 62
9
  6
CONTINUOUS
 10
112.6158215476
 20
111.1843213142
  0
VERTEX
  8
0
 62
9
  6
CONTINUOUS
 10
112.4597698603
 20
111.076061069
  0
VERTEX
  8
0
 62
9
  6
CONTINUOUS
 10
112.3531290696
 20
110.9144677587
  0
VERTEX
  8
0
 62
9
  6
CONTINUOUS
 10
112.3120600817
 20
110.7246716329
  0
SEQEND
  0
POLYLINE
  8
0
 62
9
  6
CONTINUOUS
 66
1
 70
0
  0
VERTEX
  8
0
 62
9
  6
CONTINUOUS
 10
69.5162659634
 20
100.5231148759
  0
VERTEX
  8
0
 62
9
  6
CONTINUOUS
 10
69.577903964
 20
100.5359259856
  0
VERTEX
  8
0
 62
9
  6
CONTINUOUS
 10
69.6942559791
 20
100.6323868308
  0
VERTEX
  8
0
 62
9
  6
CONTINUOUS
 10
69.7431607812
 20
100.7112204783
  0
VERTEX
  8
0
 62
9
  6
CONTINUOUS
 10
69.8103413124
 20
100.9106107446
  0
VERTEX
  8
0
 62
9
  6
CONTINUOUS
 10
69.8252628583
 20
101.0212122249
  0
SEQEND
  0
POLYLINE
  8
0
 62
9
  6
CONTINUOUS
 66
1
 70
0
  0
VERTEX
  8
0
 62
9
  6
CONTINUOUS
 10
123.7115246424
 20
111.367491545
  0
VERTEX
  8
0
 62
9
  6
CONTINUOUS
 10
123.6232577958
 20
111.3546804353
  0
VERTEX
  8
0
 62
9
  6
CONTINUOUS
 10
123.4603905005
 20
111.2582195901
  0
VERTEX
  8
0
 62
9
  6
CONTINUOUS
 10
123.3939216747
 20
111.1793859426
  0
VERTEX
  8
0
 62
9
  6
CONTINUOUS
 10
123.3073412201
 20
110.9799956763
  0
VERTEX
  8
0
 62
9
  6
CONTINUOUS
 10
123.291552372
 20
110.869394196
  0
SEQEND
  0
POLYLINE
  8
0
 62
9
  6
CONTINUOUS
 66
1
 70
0
  0
VERTEX
  8
0
 62
9
  6
CONTINUOUS
 10
78.5191531319
 20
111.3674913559
  0
VERTEX
  8
0
 62
9
  6
CONTINUOUS
 10
78.6074200131
 20
111.3546804872
  0
VERTEX
  8
0
 62
9
  6
CONTINUOUS
 10
78.7702875608
 20
111.2582199529
  0
VERTEX
  8
0
 62
9
  6
CONTINUOUS
 10
78.836756556
 20
111.1793863299
  0
VERTEX
  8
0
 62
9
  6
CONTINUOUS
 10
78.9233372786
 20
110.9799958565
  0
VERTEX
  8
0
 62
9
  6
CONTINUOUS
 10
78.9391261729
 20
110.869394196
  0
SEQEND
  0
POLYLINE
  8
0
 62
9
  6
CONTINUOUS
 66
1
 70
0
  0
VERTEX
  8
0
 62
9
  6
CONTINUOUS
 10
132.7144117785
 20
100.5231151935
  0
VERTEX
  8
0
 62
9
  6
CONTINUOUS
 10
132.6527737508
 20
100.5359259262
  0
VERTEX
  8
0
 62
9
  6
CONTINUOUS
 10
132.536421478
 20
100.6323862843
  0
VERTEX
  8
0
 62
9
  6
CONTINUOUS
 10
132.4875164946
 20
100.7112198907
  0
VERTEX
  8
0
 62
9
  6
CONTINUOUS
 10
132.4203356638
 20
100.9106104699
  0
VERTEX
  8
0
 62
9
  6
CONTINUOUS
 10
132.4054140587
 20
101.021212225
  0
SEQEND
  0
POLYLINE
  8
0
 62
9
  6
CONTINUOUS
 66
1
 70
0
  0
VERTEX
  8
0
 62
9
  6
CONTINUOUS
 10
89.4331137028
 20
111.2227689819
  0
VERTEX
  8
0
 62
9
  6
CONTINUOUS
 10
89.6147027293
 20
111.184387773
  0
VERTEX
  8
0
 62
9
  6
CONTINUOUS
 10
89.7706694987
 20
111.0763059339
  0
VERTEX
  8
0
 62
9
  6
CONTINUOUS
 10
89.8773668488
 20
110.9149104731
  0
VERTEX
  8
0
 62
9
  6
CONTINUOUS
 10
89.9186176829
 20
110.7246716329
  0
SEQEND
  0
POLYLINE
  8
0
 62
7
  6
CONTINUOUS
 66
1
 70
0
  0
VERTEX
  8
0
 62
7
  6
CONTINUOUS
 10
90.3574248884
 20
111.4451725588
  0
VERTEX
  8
0
 62
7
  6
CONTINUOUS
 10
90.5010700195
 20
111.4120042585
  0
VERTEX
  8
0
 62
7
  6
CONTINUOUS
 10
90.6279885242
 20
111.3241279699
  0
VERTEX
  8
0
 62
7
  6
CONTINUOUS
 10
90.6804029423
 20
111.2626856707
  0
VERTEX
  8
0
 62
7
  6
CONTINUOUS
 10
90.7554747235
 20
111.1138351671
  0
VERTEX
  8
0
 62
7
  6
CONTINUOUS
 10
90.7840927019
 20
110.9453032105
  0
SEQEND
  0
POLYLINE
  8
0
 62
9
  6
CONTINUOUS
 66
1
 70
0
  0
VERTEX
  8
0
 62
9
  6
CONTINUOUS
 10
124.7283482506
 20
100.667837439
  0
VERTEX
  8
0
 62
9
  6
CONTINUOUS
 10
124.5756878847
 20
100.7062186479
  0
VERTEX
  8
0
 62
9
  6
CONTINUOUS
 10
124.4423134109
 20
100.814300487
  0
VERTEX
  8
0
 62
9
  6
CONTINUOUS
 10
124.3484466227
 20
100.9756959478
  0
VERTEX
  8
0
 62
9
  6
CONTINUOUS
 10
124.30831929
 20
101.1659347881
  0
SEQEND
  0
POLYLINE
  8
0
 62
7
  6
CONTINUOUS
 66
1
 70
0
  0
VERTEX
  8
0
 62
7
  6
CONTINUOUS
 10
123.082341761
 20
100.4454338697
  0
VERTEX
  8
0
 62
7
  6
CONTINUOUS
 10
122.9747610041
 20
100.478602267
  0
VERTEX
  8
0
 62
7
  6
CONTINUOUS
 10
122.8787671109
 20
100.5664786258
  0
VERTEX
  8
0
 62
7
  6
CONTINUOUS
 10
122.8387201096
 20
100.6279209583
  0
VERTEX
  8
0
 62
7
  6
CONTINUOUS
 10
122.7803858054
 20
100.7767715929
  0
VERTEX
  8
0
 62
7
  6
CONTINUOUS
 10
122.7563432991
 20
100.9453032105
  0
SEQEND
  0
LINE
  8
0
 62
9
  6
CONTINUOUS
 10
99.0172866102
 20
110.9453032105
 11
99.1024623964
 21
110.869394196
  0
LINE
  8
0
 62
9
  6
CONTINUOUS
 10
106.0958884616
 20
100.9453032105
 11
106.0958884616
 21
110.9453032105
  0
LINE
  8
0
 62
9
  6
CONTINUOUS
 10
99.6007597478
 20
100.5231148759
 11
99.4983766477
 21
100.4454336871
  0
POLYLINE
  8
0
 62
7
  6
CONTINUOUS
 66
1
 70
0
  0
VERTEX
  8
0
 62
7
  6
CONTINUOUS
 10
64.828271483
 20
100.4454337321
  0
VERTEX
  8
0
 62
7
  6
CONTINUOUS
 10
64.8280036719
 20
100.44536192
  0
VERTEX
  8
0
 62
7
  6
CONTINUOUS
 10
64.8273941205
 20
100.4453180979
  0
VERTEX
  8
0
 62
7
  6
CONTINUOUS
 10
64.8264267388
 20
100.4453032105
  0
SEQEND
  0
POLYLINE
  8
0
 62
7
  6
CONTINUOUS
 66
1
 70
0
  0
VERTEX
  8
0
 62
7
  6
CONTINUOUS
 10
99.4983754229
 20
111.4451725472
  0
VERTEX
  8
0
 62
7
  6
CONTINUOUS
 10
99.3342337179
 20
111.4120041052
  0
VERTEX
  8
0
 62
7
  6
CONTINUOUS
 10
99.1901460287
 20
111.3241277052
  0
VERTEX
  8
0
 62
7
  6
CONTINUOUS
 10
99.1310452908
 20
111.2626853464
  0
VERTEX
  8
0
 62
7
  6
CONTINUOUS
 10
99.0473756719
 20
111.1138346207
  0
VERTEX
  8
0
 62
7
  6
CONTINUOUS
 10
99.0172756549
 20
110.9453032105
  0
SEQEND
  0
POLYLINE
  8
0
 62
9
  6
CONTINUOUS
 66
1
 70
0
  0
VERTEX
  8
0
 62
9
  6
CONTINUOUS
 10
99.6008295063
 20
111.2227689819
  0
VERTEX
  8
0
 62
9
  6
CONTINUOUS
 10
99.4098297804
 20
111.1843213142
  0
VERTEX
  8
0
 62
9
  6
CONTINUOUS
 10
99.2480873578
 20
111.076061069
  0
VERTEX
  8
0
 62
9
  6
CONTINUOUS
 10
99.1401835802
 20
110.9144677587
  0
VERTEX
  8
0
 62
9
  6
CONTINUOUS
 10
99.1024623964
 20
110.7246716329
  0
SEQEND
  0
POLYLINE
  8
0
 62
9
  6
CONTINUOUS
 66
1
 70
0
  0
VERTEX
  8
0
 62
9
  6
CONTINUOUS
 10
112.2599901405
 20
111.367491545
  0
VERTEX
  8
0
 62
9
  6
CONTINUOUS
 10
112.1546595304
 20
111.3546804353
  0
VERTEX
  8
0
 62
9
  6
CONTINUOUS
 10
111.9629261535
 20
111.2582195901
  0
VERTEX
  8
0
 62
9
  6
CONTINUOUS
 10
111.8860962326
 20
111.1793859426
  0
VERTEX
  8
0
 62
9
  6
CONTINUOUS
 10
111.7894981903
 20
110.9799956763
  0
VERTEX
  8
0
 62
9
  6
CONTINUOUS
 10
111.7745530068
 20
110.869394196
  0
SEQEND
  0
POLYLINE
  8
0
 62
9
  6
CONTINUOUS
 66
1
 70
0
  0
VERTEX
  8
0
 62
9
  6
CONTINUOUS
 10
99.6007597478
 20
111.367491545
  0
VERTEX
  8
0
 62
9
  6
CONTINUOUS
 10
99.4897795801
 20
111.3546804353
  0
VERTEX
  8
0
 62
9
  6
CONTINUOUS
 10
99.2899574079
 20
111.2582195901
  0
VERTEX
  8
0
 62
9
  6
CONTINUOUS
 10
99.2110921061
 20
111.1793859426
  0
VERTEX
  8
0
 62
9
  6
CONTINUOUS
 10
99.1149443728
 20
110.9799956763
  0
VERTEX
  8
0
 62
9
  6
CONTINUOUS
 10
99.1024623964
 20
110.869394196
  0
SEQEND
  0
POLYLINE
  8
0
 62
7
  6
CONTINUOUS
 66
1
 70
0
  0
VERTEX
  8
0
 62
7
  6
CONTINUOUS
 10
131.9109647402
 20
111.4451726702
  0
VERTEX
  8
0
 62
7
  6
CONTINUOUS
 10
131.9124408088
 20
111.4452444978
  0
VERTEX
  8
0
 62
7
  6
CONTINUOUS
 10
131.9142468853
 20
111.4452883223
  0
VERTEX
  8
0
 62
7
  6
CONTINUOUS
 10
131.9164055972
 20
111.4453032105
  0
SEQEND
  0
LINE
  8
0
 62
7
  6
CONTINUOUS
 10
123.0823371569
 20
111.4451725459
 11
123.0907866622
 21
111.4453032105
  0
LINE
  8
0
 62
7
  6
CONTINUOUS
 10
76.5963143103
 20
111.445172718
 11
76.6059924403
 21
111.4453032105
  0
LINE
  8
0
 62
7
  6
CONTINUOUS
 10
111.8732528116
 20
111.4451727338
 11
111.8837869761
 21
111.4453032105
  0
LINE
  8
0
 62
7
  6
CONTINUOUS
 10
87.2987234978
 20
111.4451727318
 11
87.3099093957
 21
111.4453032105
  0
LINE
  8
0
 62
7
  6
CONTINUOUS
 10
99.4983766472
 20
111.4451727339
 11
99.5098588493
 21
111.4453032105
  0
LINE
  8
0
 62
7
  6
CONTINUOUS
 10
68.555880562
 20
111.4452883222
 11
68.5580434735
 21
111.4453032105
  0
LINE
  8
0
 62
9
  6
CONTINUOUS
 10
141.9491128114
 20
110.7246716329
 11
141.4904024841
 21
110.7246716329
  0
LINE
  8
0
 62
9
  6
CONTINUOUS
 10
60.2815649532
 20
110.7246716329
 11
60.7402752805
 21
110.7246716329
  0
LINE
  8
0
 62
9
  6
CONTINUOUS
 10
61.1319004637
 20
110.7246716329
 11
62.4974216495
 21
110.7246716329
  0
LINE
  8
0
 62
9
  6
CONTINUOUS
 10
66.0110144756
 20
110.7246716329
 11
68.4394185695
 21
110.7246716329
  0
LINE
  8
0
 62
9
  6
CONTINUOUS
 10
74.6400439783
 20
110.7246716329
 11
77.9223584745
 21
110.7246716329
  0
LINE
  8
0
 62
9
  6
CONTINUOUS
 10
86.0838997321
 20
110.7246716329
 11
89.9186176829
 21
110.7246716329
  0
LINE
  8
0
 62
9
  6
CONTINUOUS
 10
99.1024623964
 20
110.7246716329
 11
103.1282153682
 21
110.7246716329
  0
LINE
  8
0
 62
9
  6
CONTINUOUS
 10
112.3120600817
 20
110.7246716329
 11
116.1467778667
 21
110.7246716329
  0
LINE
  8
0
 62
9
  6
CONTINUOUS
 10
124.30831929
 20
110.7246716329
 11
127.5906337863
 21
110.7246716329
  0
LINE
  8
0
 62
9
  6
CONTINUOUS
 10
133.7912591951
 20
110.7246716329
 11
136.219663289
 21
110.7246716329
  0
LINE
  8
0
 62
9
  6
CONTINUOUS
 10
139.733256115
 20
110.7246716329
 11
141.0987773001
 21
110.7246716329
  0
LINE
  8
0
 62
9
  6
CONTINUOUS
 10
64.861639021
 20
110.9453032105
 11
66.0692986133
 21
110.9453032105
  0
LINE
  8
0
 62
9
  6
CONTINUOUS
 10
70.5096694615
 20
110.9453032105
 11
74.6983560587
 21
110.9453032105
  0
LINE
  8
0
 62
9
  6
CONTINUOUS
 10
79.4742917832
 20
110.9453032105
 11
86.1420962791
 21
110.9453032105
  0
LINE
  8
0
 62
9
  6
CONTINUOUS
 10
90.7840615525
 20
110.9453032105
 11
99.0172866102
 21
110.9453032105
  0
LINE
  8
0
 62
9
  6
CONTINUOUS
 10
103.2133902286
 20
110.9453032105
 11
111.4466107495
 21
110.9453032105
  0
LINE
  8
0
 62
9
  6
CONTINUOUS
 10
116.0897202521
 20
110.9453032105
 11
122.7563864022
 21
110.9453032105
  0
LINE
  8
0
 62
9
  6
CONTINUOUS
 10
127.5357000813
 20
110.9453032105
 11
131.7210104765
 21
110.9453032105
  0
LINE
  8
0
 62
9
  6
CONTINUOUS
 10
136.1657858718
 20
110.9453032105
 11
137.3690323317
 21
110.9453032105
  0
LINE
  8
0
 62
9
  6
CONTINUOUS
 10
61.5892855449
 20
111.2227689819
 11
62.3328640874
 21
111.2227689819
  0
LINE
  8
0
 62
9
  6
CONTINUOUS
 10
66.473666696
 20
111.2227689819
 11
68.1303793624
 21
111.2227689819
  0
LINE
  8
0
 62
9
  6
CONTINUOUS
 10
75.1120105495
 20
111.2227689819
 11
77.5023268158
 21
111.2227689819
  0
LINE
  8
0
 62
9
  6
CONTINUOUS
 10
86.568218511
 20
111.2227689819
 11
89.4331105203
 21
111.2227689819
  0
LINE
  8
0
 62
9
  6
CONTINUOUS
 10
99.6008326866
 20
111.2227689819
 11
102.6298449362
 21
111.2227689819
  0
LINE
  8
0
 62
9
  6
CONTINUOUS
 10
112.7975671084
 20
111.2227689819
 11
115.6624591212
 21
111.2227689819
  0
LINE
  8
0
 62
9
  6
CONTINUOUS
 10
124.7283508336
 20
111.2227689819
 11
127.1186671064
 21
111.2227689819
  0
LINE
  8
0
 62
9
  6
CONTINUOUS
 10
134.1002983201
 20
111.2227689819
 11
135.7570109954
 21
111.2227689819
  0
LINE
  8
0
 62
9
  6
CONTINUOUS
 10
139.8978136372
 20
111.2227689819
 11
140.64139219
 21
111.2227689819
  0
LINE
  8
0
 62
7
  6
CONTINUOUS
 10
63.2710484782
 20
111.4453032105
 11
64.0298763744
 21
111.4453032105
  0
LINE
  8
0
 62
7
  6
CONTINUOUS
 10
64.038184344
 20
111.4453032105
 11
76.5963143103
 21
111.4453032105
  0
LINE
  8
0
 62
7
  6
CONTINUOUS
 10
76.6059962034
 20
111.4453032105
 11
79.1398848086
 21
111.4453032105
  0
LINE
  8
0
 62
7
  6
CONTINUOUS
 10
79.1483369361
 20
111.4453032105
 11
90.3468832807
 21
111.4453032105
  0
LINE
  8
0
 62
7
  6
CONTINUOUS
 10
90.3574320363
 20
111.4453032105
 11
99.4983766472
 21
111.4453032105
  0
LINE
  8
0
 62
7
  6
CONTINUOUS
 10
99.5098621192
 20
111.4453032105
 11
102.7208115108
 21
111.4453032105
  0
LINE
  8
0
 62
7
  6
CONTINUOUS
 10
102.7323000972
 20
111.4453032105
 11
111.8732528116
 21
111.4453032105
  0
LINE
  8
0
 62
7
  6
CONTINUOUS
 10
111.8837915419
 20
111.4453032105
 11
114.9207610021
 21
111.4453032105
  0
LINE
  8
0
 62
7
  6
CONTINUOUS
 10
114.9319536036
 20
111.4453032105
 11
123.0823371569
 21
111.4453032105
  0
LINE
  8
0
 62
7
  6
CONTINUOUS
 10
123.0907904842
 20
111.4453032105
 11
125.624679235
 21
111.4453032105
  0
LINE
  8
0
 62
7
  6
CONTINUOUS
 10
125.6343625714
 20
111.4453032105
 11
138.192493389
 21
111.4453032105
  0
LINE
  8
0
 62
7
  6
CONTINUOUS
 10
138.2008019674
 20
111.4453032105
 11
138.9596295014
 21
111.4453032105
  0
LINE
  8
0
 62
7
  6
CONTINUOUS
 10
133.6747971215
 20
111.4452883233
 11
133.672634291
 21
111.4453032105
  0
LINE
  8
0
 62
7
  6
CONTINUOUS
 10
102.7323000972
 20
111.4451726735
 11
102.7208189152
 21
111.4453032105
  0
LINE
  8
0
 62
7
  6
CONTINUOUS
 10
114.9319536036
 20
111.4451726737
 11
114.9207683688
 21
111.4453032105
  0
LINE
  8
0
 62
7
  6
CONTINUOUS
 10
90.3574320363
 20
111.4451724548
 11
90.3468907884
 21
111.4453032105
  0
LINE
  8
0
 62
7
  6
CONTINUOUS
 10
125.6343625714
 20
111.4451726702
 11
125.6246853243
 21
111.4453032105
  0
LINE
  8
0
 62
7
  6
CONTINUOUS
 10
79.1483369361
 20
111.4451725877
 11
79.1398911023
 21
111.4453032105
  0
POLYLINE
  8
0
 62
7
  6
CONTINUOUS
 66
1
 70
0
  0
VERTEX
  8
0
 62
7
  6
CONTINUOUS
 10
70.319710807
 20
111.4451726978
  0
VERTEX
  8
0
 62
7
  6
CONTINUOUS
 10
70.3182368784
 20
111.4452445006
  0
VERTEX
  8
0
 62
7
  6
CONTINUOUS
 10
70.3164308326
 20
111.445288323
  0
VERTEX
  8
0
 62
7
  6
CONTINUOUS
 10
70.3142721674
 20
111.4453032105
  0
SEQEND
  0
POLYLINE
  8
0
 62
9
  6
CONTINUOUS
 66
1
 70
0
  0
VERTEX
  8
0
 62
9
  6
CONTINUOUS
 10
102.6299180161
 20
111.3674913578
  0
VERTEX
  8
0
 62
9
  6
CONTINUOUS
 10
102.740898244
 20
111.3546804864
  0
VERTEX
  8
0
 62
9
  6
CONTINUOUS
 10
102.9407207538
 20
111.2582199484
  0
VERTEX
  8
0
 62
9
  6
CONTINUOUS
 10
103.0195862694
 20
111.1793863251
  0
VERTEX
  8
0
 62
9
  6
CONTINUOUS
 10
103.1157343244
 20
110.9799958543
  0
VERTEX
  8
0
 62
9
  6
CONTINUOUS
 10
103.1282163466
 20
110.869394196
  0
SEQEND
  0
POLYLINE
  8
0
 62
9
  6
CONTINUOUS
 66
1
 70
0
  0
VERTEX
  8
0
 62
9
  6
CONTINUOUS
 10
89.970687629
 20
111.3674913461
  0
VERTEX
  8
0
 62
9
  6
CONTINUOUS
 10
90.0760182899
 20
111.354680491
  0
VERTEX
  8
0
 62
9
  6
CONTINUOUS
 10
90.2677519964
 20
111.2582199756
  0
VERTEX
  8
0
 62
9
  6
CONTINUOUS
 10
90.344582133
 20
111.1793863543
  0
VERTEX
  8
0
 62
9
  6
CONTINUOUS
 10
90.4411805082
 20
110.979995868
  0
VERTEX
  8
0
 62
9
  6
CONTINUOUS
 10
90.4561257438
 20
110.869394196
  0
SEQEND
  0
POLYLINE
  8
0
 62
9
  6
CONTINUOUS
 66
1
 70
0
  0
VERTEX
  8
0
 62
9
  6
CONTINUOUS
 10
102.6298482583
 20
111.2227689819
  0
VERTEX
  8
0
 62
9
  6
CONTINUOUS
 10
102.8206879566
 20
111.184387773
  0
VERTEX
  8
0
 62
9
  6
CONTINUOUS
 10
102.9823456021
 20
111.0763059339
  0
VERTEX
  8
0
 62
9
  6
CONTINUOUS
 10
103.0903112008
 20
110.9149104731
  0
VERTEX
  8
0
 62
9
  6
CONTINUOUS
 10
103.1282153682
 20
110.7246716329
  0
SEQEND
  0
POLYLINE
  8
0
 62
7
  6
CONTINUOUS
 66
1
 70
0
  0
VERTEX
  8
0
 62
7
  6
CONTINUOUS
 10
102.7323017967
 20
111.4451725553
  0
VERTEX
  8
0
 62
7
  6
CONTINUOUS
 10
102.8964438847
 20
111.412004213
  0
VERTEX
  8
0
 62
7
  6
CONTINUOUS
 10
103.0405319991
 20
111.3241278916
  0
VERTEX
  8
0
 62
7
  6
CONTINUOUS
 10
103.0996330087
 20
111.2626855752
  0
VERTEX
  8
0
 62
7
  6
CONTINUOUS
 10
103.1833036457
 20
111.1138350092
  0
VERTEX
  8
0
 62
7
  6
CONTINUOUS
 10
103.213402052
 20
110.9453032105
  0
SEQEND
  0
POLYLINE
  8
0
 62
7
  6
CONTINUOUS
 66
1
 70
0
  0
VERTEX
  8
0
 62
7
  6
CONTINUOUS
 10
137.4024052087
 20
100.4454336682
  0
VERTEX
  8
0
 62
7
  6
CONTINUOUS
 10
137.4026740591
 20
100.4453619245
  0
VERTEX
  8
0
 62
7
  6
CONTINUOUS
 10
137.4032836139
 20
100.445318099
  0
VERTEX
  8
0
 62
7
  6
CONTINUOUS
 10
137.4042510258
 20
100.4453032105
  0
SEQEND
  0
LINE
  8
0
 62
9
  6
CONTINUOUS
 10
99.4983766472
 20
111.4451727339
 11
99.6007597478
 21
111.367491545
  0
LINE
  8
0
 62
9
  6
CONTINUOUS
 10
107.8584649942
 20
100.9453032105
 11
107.8584649942
 21
110.9453032105
  0
POLYLINE
  8
0
 62
9
  6
CONTINUOUS
 66
1
 70
0
  0
VERTEX
  8
0
 62
9
  6
CONTINUOUS
 10
106.0259860114
 20
100.4453032105
  0
VERTEX
  8
0
 62
9
  6
CONTINUOUS
 10
106.0415407938
 20
100.4578392935
  0
VERTEX
  8
0
 62
9
  6
CONTINUOUS
 10
106.0695695108
 20
100.5543876665
  0
VERTEX
  8
0
 62
9
  6
CONTINUOUS
 10
106.0806379734
 20
100.6335585398
  0
VERTEX
  8
0
 62
9
  6
CONTINUOUS
 10
106.0941358651
 20
100.8340428623
  0
VERTEX
  8
0
 62
9
  6
CONTINUOUS
 10
106.0958884616
 20
100.9453032105
  0
SEQEND
  0
POLYLINE
  8
0
 62
9
  6
CONTINUOUS
 66
1
 70
0
  0
VERTEX
  8
0
 62
9
  6
CONTINUOUS
 10
107.7638246277
 20
100.4453032105
  0
VERTEX
  8
0
 62
9
  6
CONTINUOUS
 10
107.7848840904
 20
100.4578392543
  0
VERTEX
  8
0
 62
9
  6
CONTINUOUS
 10
107.822831931
 20
100.554387469
  0
VERTEX
  8
0
 62
9
  6
CONTINUOUS
 10
107.8378174457
 20
100.6335583093
  0
VERTEX
  8
0
 62
9
  6
CONTINUOUS
 10
107.8560921626
 20
100.8340427433
  0
VERTEX
  8
0
 62
9
  6
CONTINUOUS
 10
107.8584649942
 20
100.9453032105
  0
SEQEND
  0
POLYLINE
  8
0
 62
9
  6
CONTINUOUS
 66
1
 70
0
  0
VERTEX
  8
0
 62
9
  6
CONTINUOUS
 10
134.1002964808
 20
111.2227689819
  0
VERTEX
  8
0
 62
9
  6
CONTINUOUS
 10
133.9930148741
 20
111.1843213142
  0
VERTEX
  8
0
 62
9
  6
CONTINUOUS
 10
133.8966273147
 20
111.076061069
  0
VERTEX
  8
0
 62
9
  6
CONTINUOUS
 10
133.825791895
 20
110.9144677587
  0
VERTEX
  8
0
 62
9
  6
CONTINUOUS
 10
133.7912591951
 20
110.7246716329
  0
SEQEND
  0
LINE
  8
0
 62
9
  6
CONTINUOUS
 10
89.9186176829
 20
110.7246716383
 11
90.4561247578
 21
110.869394196
  0
LINE
  8
0
 62
9
  6
CONTINUOUS
 10
89.4331105203
 20
111.2227689819
 11
89.970687624
 21
111.367491545
  0
LINE
  8
0
 62
9
  6
CONTINUOUS
 10
90.4561247578
 20
110.869394196
 11
90.7840615525
 21
110.9453032105
  0
LINE
  8
0
 62
9
  6
CONTINUOUS
 10
89.970687624
 20
111.367491545
 11
90.3574320363
 21
111.4451724548
  0
POLYLINE
  8
0
 62
7
  6
CONTINUOUS
 66
1
 70
0
  0
VERTEX
  8
0
 62
7
  6
CONTINUOUS
 10
87.298722183
 20
111.4451725477
  0
VERTEX
  8
0
 62
7
  6
CONTINUOUS
 10
87.1318700487
 20
111.4120041114
  0
VERTEX
  8
0
 62
7
  6
CONTINUOUS
 10
87.0560433544
 20
111.3662530028
  0
SEQEND
  0
LINE
  8
0
 62
9
  6
CONTINUOUS
 10
77.5023268158
 20
111.2227689819
 11
78.5191531222
 21
111.367491545
  0
LINE
  8
0
 62
9
  6
CONTINUOUS
 10
77.9223584745
 20
110.7246716383
 11
79.4742917832
 21
110.9453032105
  0
LINE
  8
0
 62
9
  6
CONTINUOUS
 10
86.5682155417
 20
111.2227689819
 11
86.4538743651
 21
111.2074691087
  0
LINE
  8
0
 62
9
  6
CONTINUOUS
 10
87.1056575054
 20
111.367491545
 11
86.9914676082
 21
111.352214871
  0
LINE
  8
0
 62
9
  6
CONTINUOUS
 10
78.5191531222
 20
111.367491545
 11
79.1483369361
 21
111.4451725877
  0
LINE
  8
0
 62
7
  6
CONTINUOUS
 10
76.5963137174
 20
111.4451725478
 11
76.5260889695
 21
111.4372901386
  0
LINE
  8
0
 62
9
  6
CONTINUOUS
 10
69.8252628583
 20
110.869394196
 11
70.5096694615
 21
110.9453032105
  0
LINE
  8
0
 62
9
  6
CONTINUOUS
 10
68.4394185695
 20
110.7246716383
 11
69.8252628583
 21
110.869394196
  0
LINE
  8
0
 62
9
  6
CONTINUOUS
 10
68.1303793624
 20
111.2227689819
 11
69.5162659634
 21
111.367491545
  0
LINE
  8
0
 62
9
  6
CONTINUOUS
 10
64.1021655768
 20
110.869394196
 11
64.861639021
 21
110.9453032105
  0
LINE
  8
0
 62
9
  6
CONTINUOUS
 10
69.5162659634
 20
111.367491545
 11
70.319710807
 21
111.4451726978
  0
LINE
  8
0
 62
9
  6
CONTINUOUS
 10
62.4974216495
 20
110.7246716383
 11
64.1021655768
 21
110.869394196
  0
LINE
  8
0
 62
9
  6
CONTINUOUS
 10
62.3328640874
 20
111.2227689819
 11
63.9376286656
 21
111.367491545
  0
LINE
  8
0
 62
9
  6
CONTINUOUS
 10
60.7402752805
 20
110.7246716383
 11
61.1289095917
 21
110.7587649706
  0
LINE
  8
0
 62
9
  6
CONTINUOUS
 10
63.9376286656
 20
111.367491545
 11
64.8282714827
 21
111.4451726888
  0
LINE
  8
0
 62
7
  6
CONTINUOUS
 10
68.5509220882
 20
111.4451725476
 11
68.5279728137
 21
111.4434119513
  0
LINE
  8
0
 62
9
  6
CONTINUOUS
 10
76.1287216228
 20
111.367491545
 11
76.0863730617
 21
111.3644078435
  0
LINE
  8
0
 62
7
  6
CONTINUOUS
 10
64.0343902959
 20
111.4451725477
 11
64.0298752815
 21
111.4448446024
  0
LINE
  8
0
 62
9
  6
CONTINUOUS
 10
75.112008113
 20
111.2227689819
 11
75.0698265239
 21
111.219716589
  0
LINE
  8
0
 62
9
  6
CONTINUOUS
 10
67.8594734276
 20
111.367491545
 11
67.8449285299
 21
111.3666901348
  0
LINE
  8
0
 62
9
  6
CONTINUOUS
 10
66.4736650564
 20
111.2227689819
 11
66.4592953092
 21
111.2219895659
  0
LINE
  8
0
 62
9
  6
CONTINUOUS
 10
63.1940142723
 20
111.367491545
 11
63.1917359418
 21
111.3673733433
  0
LINE
  8
0
 62
9
  6
CONTINUOUS
 10
61.5892848798
 20
111.2227689819
 11
61.5870800973
 21
111.2226587137
  0
LINE
  8
0
 62
7
  6
CONTINUOUS
 10
64.0343903636
 20
111.4451727101
 11
64.0372103813
 21
111.4452883222
  0
LINE
  8
0
 62
7
  6
CONTINUOUS
 10
68.5509222035
 20
111.4451727108
 11
68.555880562
 21
111.4452883222
  0
LINE
  8
0
 62
7
  6
CONTINUOUS
 10
64.0372103813
 20
111.4452883222
 11
64.0381826428
 21
111.4453032105
  0
LINE
  8
0
 62
9
  6
CONTINUOUS
 10
68.4903388823
 20
113.9453032105
 11
133.7403388823
 21
113.9453032105
  0
LINE
  8
0
 62
7
  6
CONTINUOUS
 10
138.193467345
 20
111.4452883232
 11
138.1924951218
 21
111.4453032105
  0
LINE
  8
0
 62
7
  6
CONTINUOUS
 10
133.679755445
 20
111.4451726533
 11
133.6747971215
 21
111.4452883233
  0
LINE
  8
0
 62
7
  6
CONTINUOUS
 10
138.1962880019
 20
111.4451726438
 11
138.193467345
 21
111.4452883232
  0
LINE
  8
0
 62
9
  6
CONTINUOUS
 10
140.6413928848
 20
111.2227689819
 11
140.6436884834
 21
111.2226505337
  0
LINE
  8
0
 62
9
  6
CONTINUOUS
 10
139.0366634761
 20
111.3674913561
 11
139.0389418076
 21
111.3673731755
  0
LINE
  8
0
 62
9
  6
CONTINUOUS
 10
135.7570127082
 20
111.2227689819
 11
135.7715970103
 21
111.2219672075
  0
LINE
  8
0
 62
9
  6
CONTINUOUS
 10
134.3712043228
 20
111.3674913562
 11
134.3857490488
 21
111.3666900245
  0
LINE
  8
0
 62
9
  6
CONTINUOUS
 10
127.1186696515
 20
111.2227689819
 11
127.1610937264
 21
111.2196821346
  0
LINE
  8
0
 62
7
  6
CONTINUOUS
 10
138.1962881273
 20
111.4451725557
 11
138.2008030613
 21
111.4448446181
  0
LINE
  8
0
 62
9
  6
CONTINUOUS
 10
126.1019561312
 20
111.367491357
 11
126.1443035307
 21
111.3644079428
  0
LINE
  8
0
 62
7
  6
CONTINUOUS
 10
133.6797560835
 20
111.4451725559
 11
133.7027048433
 21
111.4434120226
  0
LINE
  8
0
 62
9
  6
CONTINUOUS
 10
137.4024052099
 20
111.4451727526
 11
138.293049099
 21
111.367491545
  0
LINE
  8
0
 62
9
  6
CONTINUOUS
 10
141.0917711758
 20
110.7596419671
 11
141.4904024841
 21
110.7246716381
  0
LINE
  8
0
 62
9
  6
CONTINUOUS
 10
138.1285121878
 20
110.869394196
 11
139.733256115
 21
110.7246716381
  0
LINE
  8
0
 62
9
  6
CONTINUOUS
 10
138.293049099
 20
111.367491545
 11
139.8978136372
 21
111.2227689819
  0
LINE
  8
0
 62
9
  6
CONTINUOUS
 10
131.9109647402
 20
111.4451726702
 11
132.7144118011
 21
111.367491545
  0
LINE
  8
0
 62
9
  6
CONTINUOUS
 10
137.3690323317
 20
110.9453032105
 11
138.1285121878
 21
110.869394196
  0
LINE
  8
0
 62
9
  6
CONTINUOUS
 10
132.4054149063
 20
110.869394196
 11
133.7912591951
 21
110.7246716381
  0
LINE
  8
0
 62
9
  6
CONTINUOUS
 10
132.7144118011
 20
111.367491545
 11
134.1002983201
 21
111.2227689819
  0
LINE
  8
0
 62
9
  6
CONTINUOUS
 10
131.7210104765
 20
110.9453032105
 11
132.4054149063
 21
110.869394196
  0
LINE
  8
0
 62
7
  6
CONTINUOUS
 10
125.634364124
 20
111.4451725558
 11
125.7045849117
 21
111.4372909422
  0
LINE
  8
0
 62
9
  6
CONTINUOUS
 10
123.0823371569
 20
111.4451725459
 11
123.7115246424
 21
111.367491545
  0
LINE
  8
0
 62
9
  6
CONTINUOUS
 10
115.6624622228
 20
111.2227689819
 11
115.7767760354
 21
111.2074764788
  0
LINE
  8
0
 62
9
  6
CONTINUOUS
 10
115.1250202532
 20
111.3674913577
 11
115.2392089064
 21
111.3522152973
  0
LINE
  8
0
 62
9
  6
CONTINUOUS
 10
122.7563864022
 20
110.9453032105
 11
124.30831929
 21
110.7246716381
  0
LINE
  8
0
 62
9
  6
CONTINUOUS
 10
123.7115246424
 20
111.367491545
 11
124.7283508336
 21
111.2227689819
  0
LINE
  8
0
 62
7
  6
CONTINUOUS
 10
114.9319553466
 20
111.4451725554
 11
115.0988073953
 21
111.4120042139
  0
LINE
  8
0
 62
9
  6
CONTINUOUS
 10
111.8732528116
 20
111.4451727338
 11
112.2599901405
 21
111.367491545
  0
LINE
  8
0
 62
9
  6
CONTINUOUS
 10
111.4466107495
 20
110.9453032105
 11
111.7745530068
 21
110.869394196
  0
LINE
  8
0
 62
9
  6
CONTINUOUS
 10
111.7745530068
 20
110.869394196
 11
112.3120600817
 21
110.7246716381
  0
LINE
  8
0
 62
9
  6
CONTINUOUS
 10
112.2599901405
 20
111.367491545
 11
112.7975671084
 21
111.2227689819
  0
POLYLINE
  8
0
 62
9
  6
CONTINUOUS
 66
1
 70
0
  0
VERTEX
  8
0
 62
9
  6
CONTINUOUS
 10
134.1002964808
 20
100.667837439
  0
VERTEX
  8
0
 62
9
  6
CONTINUOUS
 10
133.9931078949
 20
100.7062186479
  0
VERTEX
  8
0
 62
9
  6
CONTINUOUS
 10
133.8967789104
 20
100.814300487
  0
VERTEX
  8
0
 62
9
  6
CONTINUOUS
 10
133.8259146072
 20
100.9756959478
  0
VERTEX
  8
0
 62
9
  6
CONTINUOUS
 10
133.7912591951
 20
101.1659347881
  0
SEQEND
  0
POLYLINE
  8
0
 62
9
  6
CONTINUOUS
 66
1
 70
0
  0
VERTEX
  8
0
 62
9
  6
CONTINUOUS
 10
107.7638246277
 20
111.4453032105
  0
VERTEX
  8
0
 62
9
  6
CONTINUOUS
 10
107.7848841159
 20
111.4327671359
  0
VERTEX
  8
0
 62
9
  6
CONTINUOUS
 10
107.8228319682
 20
111.3362187948
  0
VERTEX
  8
0
 62
9
  6
CONTINUOUS
 10
107.8378174734
 20
111.2570479277
  0
VERTEX
  8
0
 62
9
  6
CONTINUOUS
 10
107.8560921666
 20
111.0565635829
  0
VERTEX
  8
0
 62
9
  6
CONTINUOUS
 10
107.8584649941
 20
110.9453032105
  0
SEQEND
  0
POLYLINE
  8
0
 62
9
  6
CONTINUOUS
 66
1
 70
0
  0
VERTEX
  8
0
 62
9
  6
CONTINUOUS
 10
106.0259860114
 20
111.4453032105
  0
VERTEX
  8
0
 62
9
  6
CONTINUOUS
 10
106.0415407698
 20
111.4327671666
  0
VERTEX
  8
0
 62
9
  6
CONTINUOUS
 10
106.0695694761
 20
111.3362189521
  0
VERTEX
  8
0
 62
9
  6
CONTINUOUS
 10
106.0806379476
 20
111.2570481119
  0
VERTEX
  8
0
 62
9
  6
CONTINUOUS
 10
106.0941358612
 20
111.0565636777
  0
VERTEX
  8
0
 62
9
  6
CONTINUOUS
 10
106.0958884616
 20
110.9453032105
  0
SEQEND
  0
LINE
  8
0
 62
9
  6
CONTINUOUS
 10
111.7745530068
 20
101.0212122249
 11
111.7745530068
 21
110.869394196
  0
LINE
  8
0
 62
9
  6
CONTINUOUS
 10
112.3120600817
 20
110.7246716381
 11
112.3120600817
 21
101.1659347828
  0
POLYLINE
  8
0
 62
7
  6
CONTINUOUS
 66
1
 70
0
  0
VERTEX
  8
0
 62
7
  6
CONTINUOUS
 10
131.9109653962
 20
111.4451725481
  0
VERTEX
  8
0
 62
7
  6
CONTINUOUS
 10
131.8511068318
 20
111.4120041173
  0
VERTEX
  8
0
 62
7
  6
CONTINUOUS
 10
131.7964397174
 20
111.3241277262
  0
VERTEX
  8
0
 62
7
  6
CONTINUOUS
 10
131.7730996985
 20
111.2626853724
  0
VERTEX
  8
0
 62
7
  6
CONTINUOUS
 10
131.7378238533
 20
111.1138346659
  0
VERTEX
  8
0
 62
7
  6
CONTINUOUS
 10
131.7209630089
 20
110.9453032105
  0
SEQEND
  0
LINE
  8
0
 62
9
  6
CONTINUOUS
 10
115.6624622228
 20
100.667837439
 11
115.699820966
 21
100.6881483852
  0
POLYLINE
  8
0
 62
7
  6
CONTINUOUS
 66
1
 70
0
  0
VERTEX
  8
0
 62
7
  6
CONTINUOUS
 10
115.1774173911
 20
100.5197432337
  0
VERTEX
  8
0
 62
7
  6
CONTINUOUS
 10
115.1742278777
 20
100.518198487
  0
VERTEX
  8
0
 62
7
  6
CONTINUOUS
 10
115.1752155472
 20
100.5185379387
  0
VERTEX
  8
0
 62
7
  6
CONTINUOUS
 10
115.2143943503
 20
100.5314217713
  0
VERTEX
  8
0
 62
7
  6
CONTINUOUS
 10
115.2392099361
 20
100.5383914008
  0
SEQEND
  0
POLYLINE
  8
0
 62
9
  6
CONTINUOUS
 66
1
 70
0
  0
VERTEX
  8
0
 62
9
  6
CONTINUOUS
 10
138.293049099
 20
111.367491545
  0
VERTEX
  8
0
 62
9
  6
CONTINUOUS
 10
138.2647193782
 20
111.3546804353
  0
VERTEX
  8
0
 62
9
  6
CONTINUOUS
 10
138.2074911896
 20
111.2582195901
  0
VERTEX
  8
0
 62
9
  6
CONTINUOUS
 10
138.1814500053
 20
111.1793859426
  0
VERTEX
  8
0
 62
9
  6
CONTINUOUS
 10
138.1409494505
 20
110.9799956763
  0
VERTEX
  8
0
 62
9
  6
CONTINUOUS
 10
138.1285121878
 20
110.869394196
  0
SEQEND
  0
LINE
  8
0
 62
9
  6
CONTINUOUS
 10
114.9319536038
 20
100.4454337472
 11
115.1250202592
 21
100.5231148759
  0
LINE
  8
0
 62
9
  6
CONTINUOUS
 10
87.1056575054
 20
111.367491545
 11
86.568218511
 21
111.2227689819
  0
LINE
  8
0
 62
7
  6
CONTINUOUS
 10
86.991416241
 20
111.3522010443
 11
86.4539014713
 21
111.2074764094
  0
POLYLINE
  8
0
 62
9
  6
CONTINUOUS
 66
1
 70
0
  0
VERTEX
  8
0
 62
9
  6
CONTINUOUS
 10
85.1777036917
 20
111.4453032105
  0
VERTEX
  8
0
 62
9
  6
CONTINUOUS
 10
85.1272202504
 20
111.4327671359
  0
VERTEX
  8
0
 62
9
  6
CONTINUOUS
 10
85.0362523141
 20
111.3362187948
  0
VERTEX
  8
0
 62
9
  6
CONTINUOUS
 10
85.0003293199
 20
111.2570479277
  0
VERTEX
  8
0
 62
9
  6
CONTINUOUS
 10
84.956521541
 20
111.0565635829
  0
VERTEX
  8
0
 62
9
  6
CONTINUOUS
 10
84.9508334399
 20
110.9453032105
  0
SEQEND
  0
POLYLINE
  8
0
 62
9
  6
CONTINUOUS
 66
1
 70
0
  0
VERTEX
  8
0
 62
9
  6
CONTINUOUS
 10
83.6281868548
 20
111.4453032105
  0
VERTEX
  8
0
 62
9
  6
CONTINUOUS
 10
83.5727952906
 20
111.4327671666
  0
VERTEX
  8
0
 62
9
  6
CONTINUOUS
 10
83.4729831405
 20
111.3362189521
  0
VERTEX
  8
0
 62
9
  6
CONTINUOUS
 10
83.4335675526
 20
111.2570481119
  0
VERTEX
  8
0
 62
9
  6
CONTINUOUS
 10
83.3855005543
 20
111.0565636777
  0
VERTEX
  8
0
 62
9
  6
CONTINUOUS
 10
83.3792594238
 20
110.9453032105
  0
SEQEND
  0
POLYLINE
  8
0
 62
7
  6
CONTINUOUS
 66
1
 70
0
  0
VERTEX
  8
0
 62
7
  6
CONTINUOUS
 10
76.5260891895
 20
111.4372901388
  0
VERTEX
  8
0
 62
7
  6
CONTINUOUS
 10
76.4148526082
 20
111.4163056737
  0
VERTEX
  8
0
 62
7
  6
CONTINUOUS
 10
76.252163936
 20
111.3891597821
  0
SEQEND
  0
LINE
  8
0
 62
9
  6
CONTINUOUS
 10
76.5963143103
 20
111.445172718
 11
76.1287216228
 21
111.367491545
  0
POLYLINE
  8
0
 62
9
  6
CONTINUOUS
 66
1
 70
0
  0
VERTEX
  8
0
 62
9
  6
CONTINUOUS
 10
75.877805701
 20
111.4453032105
  0
VERTEX
  8
0
 62
9
  6
CONTINUOUS
 10
75.7978642599
 20
111.4327671359
  0
VERTEX
  8
0
 62
9
  6
CONTINUOUS
 10
75.6538148898
 20
111.3362187948
  0
VERTEX
  8
0
 62
9
  6
CONTINUOUS
 10
75.6270993058
 20
111.2990366426
  0
SEQEND
  0
POLYLINE
  8
0
 62
9
  6
CONTINUOUS
 66
1
 70
0
  0
VERTEX
  8
0
 62
9
  6
CONTINUOUS
 10
74.6845248361
 20
111.4453032105
  0
VERTEX
  8
0
 62
9
  6
CONTINUOUS
 10
74.6008037057
 20
111.4327671666
  0
VERTEX
  8
0
 62
9
  6
CONTINUOUS
 10
74.4499434412
 20
111.3362189521
  0
VERTEX
  8
0
 62
9
  6
CONTINUOUS
 10
74.3903690708
 20
111.2570481119
  0
VERTEX
  8
0
 62
9
  6
CONTINUOUS
 10
74.3177185962
 20
111.0565636777
  0
VERTEX
  8
0
 62
9
  6
CONTINUOUS
 10
74.3082854902
 20
110.9453032105
  0
SEQEND
  0
LINE
  8
0
 62
7
  6
CONTINUOUS
 10
76.252163936
 20
111.3891597821
 11
76.0863730796
 21
111.364407718
  0
LINE
  8
0
 62
9
  6
CONTINUOUS
 10
76.1287216228
 20
111.367491545
 11
75.1120105495
 21
111.2227689819
  0
LINE
  8
0
 62
7
  6
CONTINUOUS
 10
76.0863551943
 20
111.364405301
 11
75.0695834567
 21
111.2196820519
  0
POLYLINE
  8
0
 62
7
  6
CONTINUOUS
 66
1
 70
0
  0
VERTEX
  8
0
 62
7
  6
CONTINUOUS
 10
68.5279744391
 20
111.443411951
  0
VERTEX
  8
0
 62
7
  6
CONTINUOUS
 10
68.3301439117
 20
111.419933853
  0
VERTEX
  8
0
 62
7
  6
CONTINUOUS
 10
68.0765382534
 20
111.3914273477
  0
SEQEND
  0
LINE
  8
0
 62
9
  6
CONTINUOUS
 10
68.5509222035
 20
111.4451727108
 11
68.3301439117
 21
111.419933853
  0
LINE
  8
0
 62
9
  6
CONTINUOUS
 10
68.0765382534
 20
111.3914273477
 11
67.8594734276
 21
111.367491545
  0
LINE
  8
0
 62
9
  6
CONTINUOUS
 10
67.845002651
 20
111.3659803647
 11
66.473666696
 21
111.2227689819
  0
LINE
  8
0
 62
7
  6
CONTINUOUS
 10
68.0765382534
 20
111.3914273477
 11
66.4590802705
 21
111.221967157
  0
LINE
  8
0
 62
7
  6
CONTINUOUS
 10
66.4592953092
 20
111.2219895659
 11
66.4592444244
 21
111.2219842709
  0
LINE
  8
0
 62
9
  6
CONTINUOUS
 10
64.0343903636
 20
111.4451727101
 11
64.0298845451
 21
111.4447562094
  0
LINE
  8
0
 62
7
  6
CONTINUOUS
 10
64.0298763744
 20
111.4448446022
 11
63.4651057157
 21
111.3922178775
  0
LINE
  8
0
 62
7
  6
CONTINUOUS
 10
63.4651057157
 20
111.3922178775
 11
61.5869890608
 21
111.2226505139
  0
LINE
  8
0
 62
7
  6
CONTINUOUS
 10
60.7380317285
 20
111.2227689819
 11
63.2690983698
 21
111.4451726411
  0
LINE
  8
0
 62
7
  6
CONTINUOUS
 10
70.4903388823
 20
115.9453032105
 11
131.7403388823
 21
115.9453032105
  0
LINE
  8
0
 62
7
  6
CONTINUOUS
 10
138.9615781939
 20
111.4451727449
 11
141.4926460425
 21
111.2227689819
  0
POLYLINE
  8
0
 62
7
  6
CONTINUOUS
 66
1
 70
0
  0
VERTEX
  8
0
 62
7
  6
CONTINUOUS
 10
140.6436884831
 20
111.2226505338
  0
VERTEX
  8
0
 62
7
  6
CONTINUOUS
 10
138.4582852507
 20
111.42062436
  0
VERTEX
  8
0
 62
7
  6
CONTINUOUS
 10
138.2008019674
 20
111.4448446179
  0
SEQEND
  0
LINE
  8
0
 62
9
  6
CONTINUOUS
 10
138.9799893009
 20
111.3727302907
 11
138.4582852507
 21
111.42062436
  0
LINE
  8
0
 62
9
  6
CONTINUOUS
 10
138.2008019674
 20
111.4448446179
 11
138.1962880019
 21
111.4451726438
  0
POLYLINE
  8
0
 62
7
  6
CONTINUOUS
 66
1
 70
0
  0
VERTEX
  8
0
 62
7
  6
CONTINUOUS
 10
135.7715970091
 20
111.2219672077
  0
VERTEX
  8
0
 62
7
  6
CONTINUOUS
 10
134.157608366
 20
111.391048183
  0
VERTEX
  8
0
 62
7
  6
CONTINUOUS
 10
133.9037600289
 20
111.4195606893
  0
VERTEX
  8
0
 62
7
  6
CONTINUOUS
 10
133.7027032163
 20
111.4434120223
  0
SEQEND
  0
LINE
  8
0
 62
9
  6
CONTINUOUS
 10
134.371204337
 20
111.367491545
 11
134.157608366
 21
111.391048183
  0
LINE
  8
0
 62
9
  6
CONTINUOUS
 10
133.8327784028
 20
111.4279812266
 11
133.679755445
 21
111.4451726533
  0
LINE
  8
0
 62
9
  6
CONTINUOUS
 10
133.9037600289
 20
111.4195606893
 11
133.8327784028
 21
111.4279812266
  0
LINE
  8
0
 62
9
  6
CONTINUOUS
 10
127.1186671064
 20
111.2227689819
 11
126.1019561418
 21
111.367491545
  0
LINE
  8
0
 62
7
  6
CONTINUOUS
 10
127.1610937255
 20
111.2196821348
 11
126.1443225707
 21
111.3644053009
  0
POLYLINE
  8
0
 62
7
  6
CONTINUOUS
 66
1
 70
0
  0
VERTEX
  8
0
 62
7
  6
CONTINUOUS
 10
126.1443035307
 20
111.3644079428
  0
VERTEX
  8
0
 62
7
  6
CONTINUOUS
 10
125.9808799827
 20
111.3887883867
  0
VERTEX
  8
0
 62
7
  6
CONTINUOUS
 10
125.8178308599
 20
111.4159485588
  0
VERTEX
  8
0
 62
7
  6
CONTINUOUS
 10
125.7045846914
 20
111.4372909424
  0
SEQEND
  0
POLYLINE
  8
0
 62
9
  6
CONTINUOUS
 66
1
 70
0
  0
VERTEX
  8
0
 62
9
  6
CONTINUOUS
 10
127.5461529285
 20
111.4453032105
  0
VERTEX
  8
0
 62
9
  6
CONTINUOUS
 10
127.6298741603
 20
111.4327671359
  0
VERTEX
  8
0
 62
9
  6
CONTINUOUS
 10
127.7807344717
 20
111.3362187948
  0
VERTEX
  8
0
 62
9
  6
CONTINUOUS
 10
127.8403088043
 20
111.2570479277
  0
VERTEX
  8
0
 62
9
  6
CONTINUOUS
 10
127.9129591847
 20
111.0565635829
  0
VERTEX
  8
0
 62
9
  6
CONTINUOUS
 10
127.9223922743
 20
110.9453032105
  0
SEQEND
  0
POLYLINE
  8
0
 62
9
  6
CONTINUOUS
 66
1
 70
0
  0
VERTEX
  8
0
 62
9
  6
CONTINUOUS
 10
126.3528720635
 20
111.4453032105
  0
VERTEX
  8
0
 62
9
  6
CONTINUOUS
 10
126.4328134078
 20
111.4327671666
  0
VERTEX
  8
0
 62
9
  6
CONTINUOUS
 10
126.5768627331
 20
111.3362189521
  0
VERTEX
  8
0
 62
9
  6
CONTINUOUS
 10
126.6035784559
 20
111.299036643
  0
SEQEND
  0
LINE
  8
0
 62
9
  6
CONTINUOUS
 10
126.1019561418
 20
111.367491545
 11
125.6343625714
 21
111.4451726702
  0
POLYLINE
  8
0
 62
9
  6
CONTINUOUS
 66
1
 70
0
  0
VERTEX
  8
0
 62
9
  6
CONTINUOUS
 10
118.6024909097
 20
111.4453032105
  0
VERTEX
  8
0
 62
9
  6
CONTINUOUS
 10
118.6578825411
 20
111.4327671359
  0
VERTEX
  8
0
 62
9
  6
CONTINUOUS
 10
118.7576947223
 20
111.3362187948
  0
VERTEX
  8
0
 62
9
  6
CONTINUOUS
 10
118.7971102851
 20
111.2570479277
  0
VERTEX
  8
0
 62
9
  6
CONTINUOUS
 10
118.845177221
 20
111.0565635829
  0
VERTEX
  8
0
 62
9
  6
CONTINUOUS
 10
118.8514183407
 20
110.9453032105
  0
SEQEND
  0
POLYLINE
  8
0
 62
9
  6
CONTINUOUS
 66
1
 70
0
  0
VERTEX
  8
0
 62
9
  6
CONTINUOUS
 10
117.0529740728
 20
111.4453032105
  0
VERTEX
  8
0
 62
9
  6
CONTINUOUS
 10
117.103457453
 20
111.4327671666
  0
VERTEX
  8
0
 62
9
  6
CONTINUOUS
 10
117.194425361
 20
111.3362189521
  0
VERTEX
  8
0
 62
9
  6
CONTINUOUS
 10
117.230348378
 20
111.2570481119
  0
VERTEX
  8
0
 62
9
  6
CONTINUOUS
 10
117.2741562138
 20
111.0565636777
  0
VERTEX
  8
0
 62
9
  6
CONTINUOUS
 10
117.2798443247
 20
110.9453032105
  0
SEQEND
  0
LINE
  8
0
 62
9
  6
CONTINUOUS
 10
115.6624591212
 20
111.2227689819
 11
115.1250202592
 21
111.367491545
  0
LINE
  8
0
 62
7
  6
CONTINUOUS
 10
115.7767760356
 20
111.2074764787
 11
115.2392615246
 21
111.352201044
  0
POLYLINE
  8
0
 62
7
  6
CONTINUOUS
 66
1
 70
0
  0
VERTEX
  8
0
 62
7
  6
CONTINUOUS
 10
115.2392089064
 20
111.3522152973
  0
VERTEX
  8
0
 62
7
  6
CONTINUOUS
 10
115.2152671862
 20
111.3589285137
  0
VERTEX
  8
0
 62
7
  6
CONTINUOUS
 10
115.1754590147
 20
111.3719734003
  0
VERTEX
  8
0
 62
7
  6
CONTINUOUS
 10
115.1730808542
 20
111.3729301226
  0
SEQEND
  0
POLYLINE
  8
0
 62
7
  6
CONTINUOUS
 66
1
 70
0
  0
VERTEX
  8
0
 62
7
  6
CONTINUOUS
 10
115.7767760477
 20
111.2074764755
  0
VERTEX
  8
0
 62
7
  6
CONTINUOUS
 10
115.8676380272
 20
111.1732481177
  0
VERTEX
  8
0
 62
7
  6
CONTINUOUS
 10
116.02237452
 20
111.0547129615
  0
VERTEX
  8
0
 62
7
  6
CONTINUOUS
 10
116.0802960677
 20
110.9737943198
  0
VERTEX
  8
0
 62
7
  6
CONTINUOUS
 10
116.1433409188
 20
110.7831976945
  0
VERTEX
  8
0
 62
7
  6
CONTINUOUS
 10
116.1467778667
 20
110.7246716329
  0
SEQEND
  0
LINE
  8
0
 62
9
  6
CONTINUOUS
 10
115.1250202592
 20
111.367491545
 11
114.9319536036
 21
111.4451726737
  0
POLYLINE
  8
0
 62
9
  6
CONTINUOUS
 66
1
 70
0
  0
VERTEX
  8
0
 62
9
  6
CONTINUOUS
 10
138.2930490733
 20
100.5231151828
  0
VERTEX
  8
0
 62
9
  6
CONTINUOUS
 10
138.2647193589
 20
100.5359259293
  0
VERTEX
  8
0
 62
9
  6
CONTINUOUS
 10
138.2074910825
 20
100.6323863071
  0
VERTEX
  8
0
 62
9
  6
CONTINUOUS
 10
138.181449822
 20
100.7112199154
  0
VERTEX
  8
0
 62
9
  6
CONTINUOUS
 10
138.1409491225
 20
100.9106104816
  0
VERTEX
  8
0
 62
9
  6
CONTINUOUS
 10
138.1285118207
 20
101.021212225
  0
SEQEND
  0
POLYLINE
  8
0
 62
7
  6
CONTINUOUS
 66
1
 70
0
  0
VERTEX
  8
0
 62
7
  6
CONTINUOUS
 10
131.9109653969
 20
100.4454338728
  0
VERTEX
  8
0
 62
7
  6
CONTINUOUS
 10
131.8511068256
 20
100.47860231
  0
VERTEX
  8
0
 62
7
  6
CONTINUOUS
 10
131.7964397148
 20
100.5664786979
  0
VERTEX
  8
0
 62
7
  6
CONTINUOUS
 10
131.773099698
 20
100.6279210445
  0
VERTEX
  8
0
 62
7
  6
CONTINUOUS
 10
131.7378238521
 20
100.7767717381
  0
VERTEX
  8
0
 62
7
  6
CONTINUOUS
 10
131.7209630096
 20
100.9453032105
  0
SEQEND
  0
POLYLINE
  8
0
 62
9
  6
CONTINUOUS
 66
1
 70
0
  0
VERTEX
  8
0
 62
9
  6
CONTINUOUS
 10
112.7975640617
 20
111.2227689819
  0
VERTEX
  8
0
 62
9
  6
CONTINUOUS
 10
112.8275654056
 20
111.2024580358
  0
VERTEX
  8
0
 62
9
  6
CONTINUOUS
 10
112.8805925884
 20
111.0995622344
  0
VERTEX
  8
0
 62
9
  6
CONTINUOUS
 10
112.9012455848
 20
111.0215817257
  0
VERTEX
  8
0
 62
9
  6
CONTINUOUS
 10
112.9262508758
 20
110.829846575
  0
VERTEX
  8
0
 62
9
  6
CONTINUOUS
 10
112.9294842421
 20
110.7246716329
  0
SEQEND
  0
LINE
  8
0
 62
9
  6
CONTINUOUS
 10
112.9294842421
 20
110.7246716329
 11
112.9294842421
 21
101.1659347881
  0
POLYLINE
  8
0
 62
9
  6
CONTINUOUS
 66
1
 70
0
  0
VERTEX
  8
0
 62
9
  6
CONTINUOUS
 10
112.9294842421
 20
101.1659347881
  0
VERTEX
  8
0
 62
9
  6
CONTINUOUS
 10
112.9262508758
 20
101.0607598459
  0
VERTEX
  8
0
 62
9
  6
CONTINUOUS
 10
112.9012455848
 20
100.8690246953
  0
VERTEX
  8
0
 62
9
  6
CONTINUOUS
 10
112.8805925884
 20
100.7910441866
  0
VERTEX
  8
0
 62
9
  6
CONTINUOUS
 10
112.8275654056
 20
100.6881483852
  0
VERTEX
  8
0
 62
9
  6
CONTINUOUS
 10
112.7975640617
 20
100.667837439
  0
SEQEND
  0
LINE
  8
0
 62
9
  6
CONTINUOUS
 10
127.1186696515
 20
100.667837439
 11
127.1854492981
 21
100.6881483852
  0
LINE
  8
0
 62
9
  6
CONTINUOUS
 10
66.4736650564
 20
111.2227689819
 11
66.3847011173
 21
111.2024580358
  0
LINE
  8
0
 62
9
  6
CONTINUOUS
 10
61.5892848798
 20
111.2227689819
 11
61.4877772714
 21
111.2024580358
  0
LINE
  8
0
 62
9
  6
CONTINUOUS
 10
140.7429004932
 20
111.2024580358
 11
140.6413928848
 21
111.2227689819
  0
POLYLINE
  8
0
 62
7
  6
CONTINUOUS
 66
1
 70
0
  0
VERTEX
  8
0
 62
7
  6
CONTINUOUS
 10
135.7715970108
 20
111.2219672075
  0
VERTEX
  8
0
 62
7
  6
CONTINUOUS
 10
135.8638157942
 20
111.2034409461
  0
VERTEX
  8
0
 62
7
  6
CONTINUOUS
 10
136.0238133121
 20
111.1215252123
  0
VERTEX
  8
0
 62
7
  6
CONTINUOUS
 10
136.1476982072
 20
110.9831017178
  0
VERTEX
  8
0
 62
7
  6
CONTINUOUS
 10
136.1894408593
 20
110.8958704485
  0
VERTEX
  8
0
 62
7
  6
CONTINUOUS
 10
136.2196632804
 20
110.7246716329
  0
SEQEND
  0
POLYLINE
  8
0
 62
9
  6
CONTINUOUS
 66
1
 70
0
  0
VERTEX
  8
0
 62
9
  6
CONTINUOUS
 10
139.8978127409
 20
111.2227689819
  0
VERTEX
  8
0
 62
9
  6
CONTINUOUS
 10
139.997410747
 20
111.2024580358
  0
VERTEX
  8
0
 62
9
  6
CONTINUOUS
 10
140.1734495836
 20
111.0995622344
  0
VERTEX
  8
0
 62
9
  6
CONTINUOUS
 10
140.2420130877
 20
111.0215817257
  0
VERTEX
  8
0
 62
9
  6
CONTINUOUS
 10
140.3250252734
 20
110.829846575
  0
VERTEX
  8
0
 62
9
  6
CONTINUOUS
 10
140.3357593537
 20
110.7246716329
  0
SEQEND
  0
LINE
  8
0
 62
9
  6
CONTINUOUS
 10
135.8459766472
 20
111.2024580358
 11
135.7570127082
 21
111.2227689819
  0
POLYLINE
  8
0
 62
9
  6
CONTINUOUS
 66
1
 70
0
  0
VERTEX
  8
0
 62
9
  6
CONTINUOUS
 10
134.1002964808
 20
111.2227689819
  0
VERTEX
  8
0
 62
9
  6
CONTINUOUS
 10
134.1850057755
 20
111.2024580358
  0
VERTEX
  8
0
 62
9
  6
CONTINUOUS
 10
134.3347289104
 20
111.0995622344
  0
VERTEX
  8
0
 62
9
  6
CONTINUOUS
 10
134.3930429902
 20
111.0215817257
  0
VERTEX
  8
0
 62
9
  6
CONTINUOUS
 10
134.4636458463
 20
110.829846575
  0
VERTEX
  8
0
 62
9
  6
CONTINUOUS
 10
134.4727753099
 20
110.7246716329
  0
SEQEND
  0
LINE
  8
0
 62
9
  6
CONTINUOUS
 10
127.1854492981
 20
111.2024580358
 11
127.1186696515
 21
111.2227689819
  0
POLYLINE
  8
0
 62
9
  6
CONTINUOUS
 66
1
 70
0
  0
VERTEX
  8
0
 62
9
  6
CONTINUOUS
 10
124.7283482506
 20
111.2227689819
  0
VERTEX
  8
0
 62
9
  6
CONTINUOUS
 10
124.7889892675
 20
111.2024580358
  0
VERTEX
  8
0
 62
9
  6
CONTINUOUS
 10
124.8961718756
 20
111.0995622344
  0
VERTEX
  8
0
 62
9
  6
CONTINUOUS
 10
124.9379172957
 20
111.0215817257
  0
VERTEX
  8
0
 62
9
  6
CONTINUOUS
 10
124.9884599074
 20
110.829846575
  0
VERTEX
  8
0
 62
9
  6
CONTINUOUS
 10
124.9949954353
 20
110.7246716329
  0
SEQEND
  0
POLYLINE
  8
0
 62
7
  6
CONTINUOUS
 66
1
 70
0
  0
VERTEX
  8
0
 62
7
  6
CONTINUOUS
 10
127.1610937303
 20
111.2196821341
  0
VERTEX
  8
0
 62
7
  6
CONTINUOUS
 10
127.3338205452
 20
111.1615471304
  0
VERTEX
  8
0
 62
7
  6
CONTINUOUS
 10
127.4767441337
 20
111.042348827
  0
VERTEX
  8
0
 62
7
  6
CONTINUOUS
 10
127.5303842517
 20
110.9626202158
  0
VERTEX
  8
0
 62
7
  6
CONTINUOUS
 10
127.5881509665
 20
110.7744376395
  0
VERTEX
  8
0
 62
7
  6
CONTINUOUS
 10
127.5906337839
 20
110.7246716329
  0
SEQEND
  0
LINE
  8
0
 62
7
  6
CONTINUOUS
 10
115.0988073953
 20
111.4120042139
 11
115.2282289278
 21
111.333915905
  0
POLYLINE
  8
0
 62
9
  6
CONTINUOUS
 66
1
 70
0
  0
VERTEX
  8
0
 62
9
  6
CONTINUOUS
 10
115.8267339352
 20
110.7246716329
  0
VERTEX
  8
0
 62
9
  6
CONTINUOUS
 10
115.8227076323
 20
110.829846575
  0
VERTEX
  8
0
 62
9
  6
CONTINUOUS
 10
115.7915701523
 20
111.0215817257
  0
VERTEX
  8
0
 62
9
  6
CONTINUOUS
 10
115.7658523047
 20
111.0995622344
  0
SEQEND
  0
LINE
  8
0
 62
9
  6
CONTINUOUS
 10
115.8267339352
 20
101.1659347881
 11
115.8267339352
 21
110.7246716329
  0
LINE
  8
0
 62
7
  6
CONTINUOUS
 10
116.1467780325
 20
101.1659347881
 11
116.1467780325
 21
110.7246716329
  0
LINE
  8
0
 62
9
  6
CONTINUOUS
 10
117.2798443247
 20
100.9453032105
 11
117.2798443247
 21
110.9453032105
  0
POLYLINE
  8
0
 62
7
  6
CONTINUOUS
 66
1
 70
0
  0
VERTEX
  8
0
 62
7
  6
CONTINUOUS
 10
116.1467780325
 20
101.1659347881
  0
VERTEX
  8
0
 62
7
  6
CONTINUOUS
 10
116.1115299178
 20
100.9815284838
  0
VERTEX
  8
0
 62
7
  6
CONTINUOUS
 10
116.0120649226
 20
100.8245179052
  0
VERTEX
  8
0
 62
7
  6
CONTINUOUS
 10
115.8622713919
 20
100.7147556529
  0
VERTEX
  8
0
 62
7
  6
CONTINUOUS
 10
115.7768818801
 20
100.6831584539
  0
SEQEND
  0
POLYLINE
  8
0
 62
9
  6
CONTINUOUS
 66
1
 70
0
  0
VERTEX
  8
0
 62
9
  6
CONTINUOUS
 10
115.699820966
 20
100.6881483852
  0
VERTEX
  8
0
 62
9
  6
CONTINUOUS
 10
115.7658523047
 20
100.7910441866
  0
VERTEX
  8
0
 62
9
  6
CONTINUOUS
 10
115.7915701523
 20
100.8690246953
  0
VERTEX
  8
0
 62
9
  6
CONTINUOUS
 10
115.8227076323
 20
101.0607598459
  0
VERTEX
  8
0
 62
9
  6
CONTINUOUS
 10
115.8267339352
 20
101.1659347881
  0
SEQEND
  0
POLYLINE
  8
0
 62
7
  6
CONTINUOUS
 66
1
 70
0
  0
VERTEX
  8
0
 62
7
  6
CONTINUOUS
 10
141.4928084202
 20
100.6678477537
  0
VERTEX
  8
0
 62
7
  6
CONTINUOUS
 10
141.6776726207
 20
100.7212321756
  0
VERTEX
  8
0
 62
7
  6
CONTINUOUS
 10
141.8248915895
 20
100.8361010271
  0
VERTEX
  8
0
 62
7
  6
CONTINUOUS
 10
141.9196638975
 20
100.9968736296
  0
VERTEX
  8
0
 62
7
  6
CONTINUOUS
 10
141.9491127904
 20
101.1659347881
  0
SEQEND
  0
POLYLINE
  8
0
 62
7
  6
CONTINUOUS
 66
1
 70
0
  0
VERTEX
  8
0
 62
7
  6
CONTINUOUS
 10
140.6436884834
 20
111.2226505337
  0
VERTEX
  8
0
 62
7
  6
CONTINUOUS
 10
140.821278837
 20
111.172436154
  0
VERTEX
  8
0
 62
7
  6
CONTINUOUS
 10
140.9612135663
 20
111.0691131424
  0
VERTEX
  8
0
 62
7
  6
CONTINUOUS
 10
141.0601881562
 20
110.9172852943
  0
VERTEX
  8
0
 62
7
  6
CONTINUOUS
 10
141.0987773001
 20
110.7246716329
  0
SEQEND
  0
POLYLINE
  8
0
 62
9
  6
CONTINUOUS
 66
1
 70
0
  0
VERTEX
  8
0
 62
9
  6
CONTINUOUS
 10
115.7658523047
 20
111.0995622344
  0
VERTEX
  8
0
 62
9
  6
CONTINUOUS
 10
115.699820966
 20
111.2024580358
  0
VERTEX
  8
0
 62
9
  6
CONTINUOUS
 10
115.6624622228
 20
111.2227689819
  0
SEQEND
  0
LINE
  8
0
 62
9
  6
CONTINUOUS
 10
118.8514183407
 20
100.9453032105
 11
118.8514183407
 21
110.9453032105
  0
POLYLINE
  8
0
 62
9
  6
CONTINUOUS
 66
1
 70
0
  0
VERTEX
  8
0
 62
9
  6
CONTINUOUS
 10
139.8978127409
 20
111.2227689819
  0
VERTEX
  8
0
 62
9
  6
CONTINUOUS
 10
139.8476658352
 20
111.1843213142
  0
VERTEX
  8
0
 62
9
  6
CONTINUOUS
 10
139.7987861344
 20
111.076061069
  0
VERTEX
  8
0
 62
9
  6
CONTINUOUS
 10
139.7586130311
 20
110.9144677587
  0
VERTEX
  8
0
 62
9
  6
CONTINUOUS
 10
139.733256115
 20
110.7246716329
  0
SEQEND
  0
POLYLINE
  8
0
 62
9
  6
CONTINUOUS
 66
1
 70
0
  0
VERTEX
  8
0
 62
9
  6
CONTINUOUS
 10
139.8978127409
 20
100.667837439
  0
VERTEX
  8
0
 62
9
  6
CONTINUOUS
 10
139.8477114814
 20
100.7062186479
  0
VERTEX
  8
0
 62
9
  6
CONTINUOUS
 10
139.7988667264
 20
100.814300487
  0
VERTEX
  8
0
 62
9
  6
CONTINUOUS
 10
139.7586841551
 20
100.9756959478
  0
VERTEX
  8
0
 62
9
  6
CONTINUOUS
 10
139.733256115
 20
101.1659347881
  0
SEQEND
  0
LINE
  8
0
 62
9
  6
CONTINUOUS
 10
123.291552372
 20
101.0212122249
 11
123.291552372
 21
110.869394196
  0
POLYLINE
  8
0
 62
9
  6
CONTINUOUS
 66
1
 70
0
  0
VERTEX
  8
0
 62
9
  6
CONTINUOUS
 10
127.1854492981
 20
100.6881483852
  0
VERTEX
  8
0
 62
9
  6
CONTINUOUS
 10
127.3034818948
 20
100.7910441866
  0
VERTEX
  8
0
 62
9
  6
CONTINUOUS
 10
127.3494531622
 20
100.8690246953
  0
VERTEX
  8
0
 62
9
  6
CONTINUOUS
 10
127.4051121521
 20
101.0607598459
  0
VERTEX
  8
0
 62
9
  6
CONTINUOUS
 10
127.412309265
 20
101.1659347881
  0
SEQEND
  0
LINE
  8
0
 62
9
  6
CONTINUOUS
 10
124.30831929
 20
110.7246716381
 11
124.30831929
 21
101.1659347828
  0
LINE
  8
0
 62
9
  6
CONTINUOUS
 10
124.9949954353
 20
110.7246716329
 11
124.9949954353
 21
101.1659347881
  0
POLYLINE
  8
0
 62
9
  6
CONTINUOUS
 66
1
 70
0
  0
VERTEX
  8
0
 62
9
  6
CONTINUOUS
 10
124.9949954353
 20
101.1659347881
  0
VERTEX
  8
0
 62
9
  6
CONTINUOUS
 10
124.9884599074
 20
101.0607598459
  0
VERTEX
  8
0
 62
9
  6
CONTINUOUS
 10
124.9379172957
 20
100.8690246953
  0
VERTEX
  8
0
 62
9
  6
CONTINUOUS
 10
124.8961718756
 20
100.7910441866
  0
VERTEX
  8
0
 62
9
  6
CONTINUOUS
 10
124.7889892675
 20
100.6881483852
  0
VERTEX
  8
0
 62
9
  6
CONTINUOUS
 10
124.7283482506
 20
100.667837439
  0
SEQEND
  0
POLYLINE
  8
0
 62
9
  6
CONTINUOUS
 66
1
 70
0
  0
VERTEX
  8
0
 62
9
  6
CONTINUOUS
 10
135.8459766472
 20
100.6881483852
  0
VERTEX
  8
0
 62
9
  6
CONTINUOUS
 10
136.0032198386
 20
100.7910441866
  0
VERTEX
  8
0
 62
9
  6
CONTINUOUS
 10
136.0644628257
 20
100.8690246953
  0
VERTEX
  8
0
 62
9
  6
CONTINUOUS
 10
136.1386118103
 20
101.0607598459
  0
VERTEX
  8
0
 62
9
  6
CONTINUOUS
 10
136.1481998142
 20
101.1659347881
  0
SEQEND
  0
LINE
  8
0
 62
9
  6
CONTINUOUS
 10
140.7429004932
 20
100.6881483852
 11
140.9223145395
 21
100.7910441866
  0
LINE
  8
0
 62
9
  6
CONTINUOUS
 10
140.9223145395
 20
111.0995622344
 11
140.7429004932
 21
111.2024580358
  0
POLYLINE
  8
0
 62
9
  6
CONTINUOUS
 66
1
 70
0
  0
VERTEX
  8
0
 62
9
  6
CONTINUOUS
 10
127.412309265
 20
110.7246716329
  0
VERTEX
  8
0
 62
9
  6
CONTINUOUS
 10
127.4051121521
 20
110.829846575
  0
VERTEX
  8
0
 62
9
  6
CONTINUOUS
 10
127.3494531622
 20
111.0215817257
  0
VERTEX
  8
0
 62
9
  6
CONTINUOUS
 10
127.3034818948
 20
111.0995622344
  0
VERTEX
  8
0
 62
9
  6
CONTINUOUS
 10
127.1854492981
 20
111.2024580358
  0
SEQEND
  0
LINE
  8
0
 62
9
  6
CONTINUOUS
 10
127.412309265
 20
101.1659347881
 11
127.412309265
 21
110.7246716329
  0
LINE
  8
0
 62
7
  6
CONTINUOUS
 10
127.5906337863
 20
101.1659347881
 11
127.5906337863
 21
110.7246716329
  0
LINE
  8
0
 62
9
  6
CONTINUOUS
 10
127.9223922744
 20
100.9453032105
 11
127.9223922744
 21
110.9453032105
  0
POLYLINE
  8
0
 62
7
  6
CONTINUOUS
 66
1
 70
0
  0
VERTEX
  8
0
 62
7
  6
CONTINUOUS
 10
127.5906337863
 20
101.1659347881
  0
VERTEX
  8
0
 62
7
  6
CONTINUOUS
 10
127.5555138842
 20
100.9818519411
  0
VERTEX
  8
0
 62
7
  6
CONTINUOUS
 10
127.4551646388
 20
100.8237108006
  0
VERTEX
  8
0
 62
7
  6
CONTINUOUS
 10
127.3036887995
 20
100.7135991147
  0
VERTEX
  8
0
 62
7
  6
CONTINUOUS
 10
127.1608512406
 20
100.6708898319
  0
SEQEND
  0
LINE
  8
0
 62
7
  6
CONTINUOUS
 10
138.9615785279
 20
100.4454338747
 11
139.0107492827
 21
100.4786023374
  0
LINE
  8
0
 62
7
  6
CONTINUOUS
 10
138.9615785273
 20
111.4451725462
 11
139.0107492772
 21
111.4120040912
  0
LINE
  8
0
 62
9
  6
CONTINUOUS
 10
132.4054149063
 20
101.0212122249
 11
132.4054149063
 21
110.869394196
  0
LINE
  8
0
 62
7
  6
CONTINUOUS
 10
133.7403388823
 20
97.9453032105
 11
133.7403388823
 21
100.4453032105
  0
LINE
  8
0
 62
7
  6
CONTINUOUS
 10
133.7403388823
 20
111.4453032105
 11
133.7403388823
 21
113.9453032105
  0
LINE
  8
0
 62
9
  6
CONTINUOUS
 10
133.7912591951
 20
110.7246716381
 11
133.7912591951
 21
101.1659347828
  0
LINE
  8
0
 62
9
  6
CONTINUOUS
 10
134.4727753099
 20
110.7246716329
 11
134.4727753099
 21
101.1659347881
  0
POLYLINE
  8
0
 62
9
  6
CONTINUOUS
 66
1
 70
0
  0
VERTEX
  8
0
 62
9
  6
CONTINUOUS
 10
134.4727753099
 20
101.1659347881
  0
VERTEX
  8
0
 62
9
  6
CONTINUOUS
 10
134.4636458463
 20
101.0607598459
  0
VERTEX
  8
0
 62
9
  6
CONTINUOUS
 10
134.3930429902
 20
100.8690246953
  0
VERTEX
  8
0
 62
9
  6
CONTINUOUS
 10
134.3347289104
 20
100.7910441866
  0
VERTEX
  8
0
 62
9
  6
CONTINUOUS
 10
134.1850057755
 20
100.6881483852
  0
VERTEX
  8
0
 62
9
  6
CONTINUOUS
 10
134.1002964808
 20
100.667837439
  0
SEQEND
  0
POLYLINE
  8
0
 62
9
  6
CONTINUOUS
 66
1
 70
0
  0
VERTEX
  8
0
 62
9
  6
CONTINUOUS
 10
140.9223145395
 20
100.7910441866
  0
VERTEX
  8
0
 62
9
  6
CONTINUOUS
 10
140.9921926184
 20
100.8690246953
  0
VERTEX
  8
0
 62
9
  6
CONTINUOUS
 10
141.0767964047
 20
101.0607598459
  0
VERTEX
  8
0
 62
9
  6
CONTINUOUS
 10
141.0877362906
 20
101.1659347881
  0
SEQEND
  0
LINE
  8
0
 62
9
  6
CONTINUOUS
 10
140.9921926184
 20
111.0215817257
 11
140.9223145395
 21
111.0995622344
  0
POLYLINE
  8
0
 62
9
  6
CONTINUOUS
 66
1
 70
0
  0
VERTEX
  8
0
 62
9
  6
CONTINUOUS
 10
136.1481998142
 20
110.7246716329
  0
VERTEX
  8
0
 62
9
  6
CONTINUOUS
 10
136.1386118103
 20
110.829846575
  0
VERTEX
  8
0
 62
9
  6
CONTINUOUS
 10
136.0644628257
 20
111.0215817257
  0
VERTEX
  8
0
 62
9
  6
CONTINUOUS
 10
136.0032198386
 20
111.0995622344
  0
VERTEX
  8
0
 62
9
  6
CONTINUOUS
 10
135.8459766472
 20
111.2024580358
  0
SEQEND
  0
LINE
  8
0
 62
9
  6
CONTINUOUS
 10
136.1481998142
 20
101.1659347881
 11
136.1481998142
 21
110.7246716329
  0
LINE
  8
0
 62
7
  6
CONTINUOUS
 10
136.219663289
 20
101.1659347881
 11
136.219663289
 21
110.7246716329
  0
POLYLINE
  8
0
 62
7
  6
CONTINUOUS
 66
1
 70
0
  0
VERTEX
  8
0
 62
7
  6
CONTINUOUS
 10
137.4024050947
 20
111.4451725453
  0
VERTEX
  8
0
 62
7
  6
CONTINUOUS
 10
137.396755376
 20
111.41200408
  0
VERTEX
  8
0
 62
7
  6
CONTINUOUS
 10
137.3893391538
 20
111.3241276611
  0
VERTEX
  8
0
 62
7
  6
CONTINUOUS
 10
137.3852354363
 20
111.2626852919
  0
VERTEX
  8
0
 62
7
  6
CONTINUOUS
 10
137.3768410305
 20
111.1138345256
  0
VERTEX
  8
0
 62
7
  6
CONTINUOUS
 10
137.3689884579
 20
110.9453032105
  0
SEQEND
  0
POLYLINE
  8
0
 62
7
  6
CONTINUOUS
 66
1
 70
0
  0
VERTEX
  8
0
 62
7
  6
CONTINUOUS
 10
136.219663289
 20
101.1659347881
  0
VERTEX
  8
0
 62
7
  6
CONTINUOUS
 10
136.1845033336
 20
100.9817508232
  0
VERTEX
  8
0
 62
7
  6
CONTINUOUS
 10
136.0843198531
 20
100.8238447556
  0
VERTEX
  8
0
 62
7
  6
CONTINUOUS
 10
135.933210724
 20
100.7138313784
  0
VERTEX
  8
0
 62
7
  6
CONTINUOUS
 10
135.7713824553
 20
100.668616855
  0
SEQEND
  0
LINE
  8
0
 62
7
  6
CONTINUOUS
 10
139.0107492827
 20
100.4786023374
 11
139.0327190828
 21
100.5261107243
  0
POLYLINE
  8
0
 62
9
  6
CONTINUOUS
 66
1
 70
0
  0
VERTEX
  8
0
 62
9
  6
CONTINUOUS
 10
139.842904596
 20
100.5231151882
  0
VERTEX
  8
0
 62
9
  6
CONTINUOUS
 10
139.8509531603
 20
100.5359259279
  0
VERTEX
  8
0
 62
9
  6
CONTINUOUS
 10
139.8560737162
 20
100.5969254718
  0
SEQEND
  0
POLYLINE
  8
0
 62
9
  6
CONTINUOUS
 66
1
 70
0
  0
VERTEX
  8
0
 62
9
  6
CONTINUOUS
 10
139.8429046233
 20
111.367491545
  0
VERTEX
  8
0
 62
9
  6
CONTINUOUS
 10
139.8509531471
 20
111.3546804353
  0
VERTEX
  8
0
 62
9
  6
CONTINUOUS
 10
139.8560736182
 20
111.293680958
  0
SEQEND
  0
LINE
  8
0
 62
7
  6
CONTINUOUS
 10
139.0107492772
 20
111.4120040912
 11
139.0327191442
 21
111.3644955639
  0
POLYLINE
  8
0
 62
7
  6
CONTINUOUS
 66
1
 70
0
  0
VERTEX
  8
0
 62
7
  6
CONTINUOUS
 10
137.4024050935
 20
100.4454338756
  0
VERTEX
  8
0
 62
7
  6
CONTINUOUS
 10
137.3967553752
 20
100.4786023493
  0
VERTEX
  8
0
 62
7
  6
CONTINUOUS
 10
137.389339155
 20
100.5664787643
  0
VERTEX
  8
0
 62
7
  6
CONTINUOUS
 10
137.385235439
 20
100.6279211241
  0
VERTEX
  8
0
 62
7
  6
CONTINUOUS
 10
137.3768410373
 20
100.7767718739
  0
VERTEX
  8
0
 62
7
  6
CONTINUOUS
 10
137.3689884579
 20
100.9453032105
  0
SEQEND
  0
POLYLINE
  8
0
 62
9
  6
CONTINUOUS
 66
1
 70
0
  0
VERTEX
  8
0
 62
9
  6
CONTINUOUS
 10
141.0877362906
 20
110.7246716329
  0
VERTEX
  8
0
 62
9
  6
CONTINUOUS
 10
141.0767964047
 20
110.829846575
  0
VERTEX
  8
0
 62
9
  6
CONTINUOUS
 10
140.9921926184
 20
111.0215817257
  0
SEQEND
  0
LINE
  8
0
 62
9
  6
CONTINUOUS
 10
138.1285121878
 20
101.0212122249
 11
138.1285121878
 21
110.869394196
  0
LINE
  8
0
 62
9
  6
CONTINUOUS
 10
139.733256115
 20
110.7246716381
 11
139.733256115
 21
101.1659347828
  0
LINE
  8
0
 62
9
  6
CONTINUOUS
 10
140.3357593537
 20
110.7246716329
 11
140.3357593537
 21
101.1659347881
  0
LINE
  8
0
 62
9
  6
CONTINUOUS
 10
141.0877362906
 20
101.1659347881
 11
141.0877362906
 21
110.7246716329
  0
LINE
  8
0
 62
7
  6
CONTINUOUS
 10
141.0987773009
 20
101.1659347881
 11
141.0987773009
 21
110.7246716329
  0
LINE
  8
0
 62
9
  6
CONTINUOUS
 10
141.4904024841
 20
110.7246716381
 11
141.4904024841
 21
101.1659347828
  0
LINE
  8
0
 62
7
  6
CONTINUOUS
 10
141.9491128114
 20
110.7246716329
 11
141.9491128114
 21
101.1659347881
  0
POLYLINE
  8
0
 62
9
  6
CONTINUOUS
 66
1
 70
0
  0
VERTEX
  8
0
 62
9
  6
CONTINUOUS
 10
140.3357593537
 20
101.1659347881
  0
VERTEX
  8
0
 62
9
  6
CONTINUOUS
 10
140.3250252734
 20
101.0607598459
  0
VERTEX
  8
0
 62
9
  6
CONTINUOUS
 10
140.2420130877
 20
100.8690246953
  0
VERTEX
  8
0
 62
9
  6
CONTINUOUS
 10
140.1734495836
 20
100.7910441866
  0
VERTEX
  8
0
 62
9
  6
CONTINUOUS
 10
139.997410747
 20
100.6881483852
  0
VERTEX
  8
0
 62
9
  6
CONTINUOUS
 10
139.8978127409
 20
100.667837439
  0
SEQEND
  0
POLYLINE
  8
0
 62
7
  6
CONTINUOUS
 66
1
 70
0
  0
VERTEX
  8
0
 62
7
  6
CONTINUOUS
 10
141.0987773009
 20
101.1659347881
  0
VERTEX
  8
0
 62
7
  6
CONTINUOUS
 10
141.0634939814
 20
100.9814397831
  0
VERTEX
  8
0
 62
7
  6
CONTINUOUS
 10
140.9647535721
 20
100.82525698
  0
VERTEX
  8
0
 62
7
  6
CONTINUOUS
 10
140.8162103741
 20
100.7156872354
  0
VERTEX
  8
0
 62
7
  6
CONTINUOUS
 10
140.6435976673
 20
100.6679477072
  0
SEQEND
  0
POLYLINE
  8
0
 62
9
  6
CONTINUOUS
 66
1
 70
0
  0
VERTEX
  8
0
 62
9
  6
CONTINUOUS
 10
141.4928084202
 20
100.6678477537
  0
VERTEX
  8
0
 62
9
  6
CONTINUOUS
 10
141.5050615021
 20
100.7062186479
  0
VERTEX
  8
0
 62
9
  6
CONTINUOUS
 10
141.5089940637
 20
100.814300487
  0
VERTEX
  8
0
 62
9
  6
CONTINUOUS
 10
141.5038476293
 20
100.9756959478
  0
VERTEX
  8
0
 62
9
  6
CONTINUOUS
 10
141.4904024841
 20
101.1659347881
  0
SEQEND
  0
POLYLINE
  8
0
 62
9
  6
CONTINUOUS
 66
1
 70
0
  0
VERTEX
  8
0
 62
9
  6
CONTINUOUS
 10
141.4927889305
 20
111.2227603764
  0
VERTEX
  8
0
 62
9
  6
CONTINUOUS
 10
141.5050681769
 20
111.1843213142
  0
VERTEX
  8
0
 62
9
  6
CONTINUOUS
 10
141.5089932088
 20
111.076061069
  0
VERTEX
  8
0
 62
9
  6
CONTINUOUS
 10
141.503835801
 20
110.9144677587
  0
VERTEX
  8
0
 62
9
  6
CONTINUOUS
 10
141.4904024841
 20
110.7246716329
  0
SEQEND
  0
POLYLINE
  8
0
 62
7
  6
CONTINUOUS
 66
1
 70
0
  0
VERTEX
  8
0
 62
7
  6
CONTINUOUS
 10
141.9491128114
 20
110.7246716329
  0
VERTEX
  8
0
 62
7
  6
CONTINUOUS
 10
141.9137586129
 20
110.9093450721
  0
VERTEX
  8
0
 62
7
  6
CONTINUOUS
 10
141.8162554075
 20
111.0640921893
  0
VERTEX
  8
0
 62
7
  6
CONTINUOUS
 10
141.6705908184
 20
111.1729433054
  0
VERTEX
  8
0
 62
7
  6
CONTINUOUS
 10
141.4927889305
 20
111.2227603764
  0
SEQEND
  0
ARC
  8
0
 62
9
  6
CONTINUOUS
 10
77.8958841956
 20
177.1190350246
 40
3.95
 50
344.009890794
 51
53.5423905287
  0
ARC
  8
0
 62
9
  6
CONTINUOUS
 10
76.3491687972
 20
178.3228919415
 40
3.95
 50
50.6681357871
 51
120.2006245194
  0
ARC
  8
0
 62
9
  6
CONTINUOUS
 10
68.9493576532
 20
186.361229645
 40
3.95
 50
325.062522373
 51
34.5950221077
  0
ARC
  8
0
 62
9
  6
CONTINUOUS
 10
67.8773392633
 20
188.0020759424
 40
3.95
 50
31.720767366
 51
101.253256123
  0
ARC
  8
0
 62
7
  6
CONTINUOUS
 10
68.9493576532
 20
186.361229645
 40
3.45
 50
325.3895159581
 51
34.5950221077
  0
ARC
  8
0
 62
7
  6
CONTINUOUS
 10
67.8773392633
 20
188.0020759424
 40
3.45
 50
31.720767366
 51
100.9260828587
  0
ARC
  8
0
 62
7
  6
CONTINUOUS
 10
77.8958841956
 20
177.1190350246
 40
3.45
 50
344.3368767404
 51
53.5423905287
  0
ARC
  8
0
 62
7
  6
CONTINUOUS
 10
76.3491687972
 20
178.3228919415
 40
3.45
 50
50.6681357871
 51
119.8735807883
  0
ARC
  8
0
 62
7
  6
CONTINUOUS
 10
70.4067034656
 20
182.3339491736
 40
0.5
 50
132.6315789474
 51
220.4841675655
  0
ARC
  8
0
 62
7
  6
CONTINUOUS
 10
72.4559901937
 20
180.1078303644
 40
0.5
 50
224.7789903292
 51
312.6315789474
  0
ARC
  8
0
 62
7
  6
CONTINUOUS
 10
75.6594947596
 20
208.5469294666
 40
4.0
 50
75.0
 51
285.0
  0
ARC
  8
0
 62
9
  6
CONTINUOUS
 10
63.4885142836
 20
198.0075890877
 40
3.95
 50
306.1151539519
 51
15.6476536866
  0
ARC
  8
0
 62
9
  6
CONTINUOUS
 10
63.0073627288
 20
199.9076136089
 40
3.95
 50
12.773398945
 51
82.3058841465
  0
ARC
  8
0
 62
7
  6
CONTINUOUS
 10
63.4885142836
 20
198.0075890877
 40
3.45
 50
306.4421759973
 51
15.6476536866
  0
ARC
  8
0
 62
7
  6
CONTINUOUS
 10
63.0073627288
 20
199.9076136089
 40
3.45
 50
12.773398945
 51
81.9787429547
  0
ARC
  8
0
 62
7
  6
CONTINUOUS
 10
60.7815649532
 20
206.7228391076
 40
0.5
 50
94.7368421053
 51
182.5894307234
  0
ARC
  8
0
 62
7
  6
CONTINUOUS
 10
61.0314296532
 20
203.7074206162
 40
0.5
 50
186.8842534871
 51
274.7368421053
  0
ARC
  8
0
 62
7
  6
CONTINUOUS
 10
63.5592412486
 20
193.7253183689
 40
0.5
 50
113.6842105263
 51
201.5367991445
  0
ARC
  8
0
 62
7
  6
CONTINUOUS
 10
64.7746723736
 20
190.9544145042
 40
0.5
 50
205.8316219081
 51
293.6842105263
  0
ARC
  8
0
 62
9
  6
CONTINUOUS
 10
100.1353388823
 20
169.4842205871
 40
3.95
 50
88.5628726292
 51
158.0953561847
  0
ARC
  8
0
 62
9
  6
CONTINUOUS
 10
89.3585989403
 20
171.2825404211
 40
3.95
 50
2.9572606242
 51
72.4897589498
  0
ARC
  8
0
 62
9
  6
CONTINUOUS
 10
87.5047971466
 20
171.9189513807
 40
3.95
 50
69.6155042081
 51
139.1479929214
  0
ARC
  8
0
 62
7
  6
CONTINUOUS
 10
89.3585989403
 20
171.2825404211
 40
3.45
 50
3.2842772461
 51
72.4897589498
  0
ARC
  8
0
 62
7
  6
CONTINUOUS
 10
87.5047971466
 20
171.9189513807
 40
3.45
 50
69.6155042081
 51
138.8210035647
  0
ARC
  8
0
 62
7
  6
CONTINUOUS
 10
100.1353388823
 20
169.4842205871
 40
3.45
 50
88.5628726292
 51
157.7682795423
  0
ARC
  8
0
 62
7
  6
CONTINUOUS
 10
80.5819228235
 20
173.7831631293
 40
0.5
 50
151.5789473684
 51
239.4315359866
  0
ARC
  8
0
 62
7
  6
CONTINUOUS
 10
83.2429931399
 20
172.3430638903
 40
0.5
 50
243.7263587502
 51
331.5789473684
  0
ARC
  8
0
 62
7
  6
CONTINUOUS
 10
92.9822564201
 20
168.999570583
 40
0.5
 50
170.5263157895
 51
258.3789044076
  0
ARC
  8
0
 62
7
  6
CONTINUOUS
 10
95.9667420652
 20
168.5015480123
 40
0.5
 50
262.6737271713
 51
350.5263157895
  0
ARC
  8
0
 62
9
  6
CONTINUOUS
 10
62.1051211996
 20
210.7960495951
 40
3.95
 50
287.1677869401
 51
356.7002852656
  0
ARC
  8
0
 62
9
  6
CONTINUOUS
 10
62.2669767168
 20
212.7493552014
 40
3.95
 50
353.8260305239
 51
63.3585275753
  0
ARC
  8
0
 62
9
  6
CONTINUOUS
 10
64.9490905074
 20
223.3407830379
 40
3.95
 50
268.2204171099
 51
337.7529168445
  0
ARC
  8
0
 62
9
  6
CONTINUOUS
 10
65.7364135398
 20
225.1356987581
 40
3.95
 50
334.8786621029
 51
44.4111510117
  0
ARC
  8
0
 62
7
  6
CONTINUOUS
 10
64.9490905074
 20
223.3407830379
 40
3.45
 50
268.5474962865
 51
337.7529168445
  0
ARC
  8
0
 62
7
  6
CONTINUOUS
 10
65.7364135398
 20
225.1356987581
 40
3.45
 50
334.8786621029
 51
44.0840677572
  0
ARC
  8
0
 62
7
  6
CONTINUOUS
 10
62.1051211996
 20
210.7960495951
 40
3.45
 50
287.4947976107
 51
356.7002852656
  0
ARC
  8
0
 62
7
  6
CONTINUOUS
 10
62.2669767168
 20
212.7493552014
 40
3.45
 50
353.8260305239
 51
63.0314431601
  0
ARC
  8
0
 62
7
  6
CONTINUOUS
 10
66.5110144756
 20
229.34792361
 40
0.5
 50
148.989516645
 51
236.8421052632
  0
ARC
  8
0
 62
7
  6
CONTINUOUS
 10
62.374678906
 20
219.9180283405
 40
0.5
 50
75.7894736842
 51
163.6420623024
  0
ARC
  8
0
 62
7
  6
CONTINUOUS
 10
61.6319004637
 20
216.9848626049
 40
0.5
 50
167.936885066
 51
255.7894736842
  0
ARC
  8
0
 62
9
  6
CONTINUOUS
 10
71.7122340038
 20
234.282372896
 40
3.95
 50
249.2730486889
 51
318.8055484235
  0
ARC
  8
0
 62
9
  6
CONTINUOUS
 10
73.0397058842
 20
235.7243917609
 40
3.95
 50
315.9312936818
 51
25.4637827137
  0
ARC
  8
0
 62
7
  6
CONTINUOUS
 10
71.7122340038
 20
234.282372896
 40
3.45
 50
249.6001598337
 51
318.8055484235
  0
ARC
  8
0
 62
7
  6
CONTINUOUS
 10
73.0397058842
 20
235.7243917609
 40
3.45
 50
315.9312936818
 51
25.1367283829
  0
ARC
  8
0
 62
7
  6
CONTINUOUS
 10
77.5277882198
 20
241.3153300798
 40
0.5
 50
37.8947368421
 51
125.7473254603
  0
ARC
  8
0
 62
7
  6
CONTINUOUS
 10
75.1400439783
 20
239.456874139
 40
0.5
 50
130.0421482239
 51
217.8947368421
  0
ARC
  8
0
 62
7
  6
CONTINUOUS
 10
68.1659444905
 20
231.8809825695
 40
0.5
 50
56.8421052632
 51
144.6946938813
  0
ARC
  8
0
 62
9
  6
CONTINUOUS
 10
95.6524623964
 20
247.2381766098
 40
3.95
 50
278.0365568397
 51
347.5690412386
  0
ARC
  8
0
 62
9
  6
CONTINUOUS
 10
81.66166015
 20
242.4351281319
 40
3.95
 50
230.3256802679
 51
299.8581800024
  0
ARC
  8
0
 62
9
  6
CONTINUOUS
 10
83.3854287023
 20
243.3679850223
 40
3.95
 50
296.9839252608
 51
6.5164145529
  0
ARC
  8
0
 62
9
  6
CONTINUOUS
 10
93.7191942417
 20
246.9155712129
 40
3.95
 50
211.3783110061
 51
280.9108115814
  0
ARC
  8
0
 62
7
  6
CONTINUOUS
 10
93.7191942417
 20
246.9155712129
 40
3.45
 50
211.7052346247
 51
280.9108115813
  0
ARC
  8
0
 62
7
  6
CONTINUOUS
 10
95.6524623964
 20
247.2381766098
 40
3.45
 50
278.0365568397
 51
347.2419664056
  0
ARC
  8
0
 62
7
  6
CONTINUOUS
 10
81.66166015
 20
242.4351281319
 40
3.45
 50
230.6526760654
 51
299.8581800024
  0
ARC
  8
0
 62
7
  6
CONTINUOUS
 10
83.3854287023
 20
243.3679850223
 40
3.45
 50
296.9839252608
 51
6.189364491
  0
ARC
  8
0
 62
7
  6
CONTINUOUS
 10
99.6024623964
 20
248.8935752967
 40
0.5
 50
92.1474113818
 51
180.0
  0
ARC
  8
0
 62
7
  6
CONTINUOUS
 10
89.445709062
 20
247.1987129294
 40
0.5
 50
18.9473684211
 51
106.7999570392
  0
ARC
  8
0
 62
7
  6
CONTINUOUS
 10
86.5838997321
 20
246.2162525455
 40
0.5
 50
111.0947798029
 51
198.9473684211
  0
ARC
  8
0
 62
7
  6
CONTINUOUS
 10
101.1153388823
 20
183.0910853439
 40
4.0
 50
165.0
 51
15.0
  0
ARC
  8
0
 62
9
  6
CONTINUOUS
 10
114.725880618
 20
171.9189513807
 40
3.95
 50
40.851996057
 51
110.3844957919
  0
ARC
  8
0
 62
9
  6
CONTINUOUS
 10
112.8720788243
 20
171.2825404211
 40
3.95
 50
107.5102410502
 51
177.0427302132
  0
ARC
  8
0
 62
9
  6
CONTINUOUS
 10
102.0953388823
 20
169.4842205871
 40
3.95
 50
21.9046290452
 51
91.4371273708
  0
ARC
  8
0
 62
7
  6
CONTINUOUS
 10
102.0953388823
 20
169.4842205871
 40
3.45
 50
22.2315638211
 51
91.4371273708
  0
ARC
  8
0
 62
7
  6
CONTINUOUS
 10
114.725880618
 20
171.9189513807
 40
3.45
 50
41.1789755731
 51
110.3844957919
  0
ARC
  8
0
 62
7
  6
CONTINUOUS
 10
112.8720788243
 20
171.2825404211
 40
3.45
 50
107.5102410502
 51
176.7156778629
  0
ARC
  8
0
 62
7
  6
CONTINUOUS
 10
106.2639356993
 20
168.5015480123
 40
0.5
 50
189.4736842105
 51
277.3262728287
  0
ARC
  8
0
 62
7
  6
CONTINUOUS
 10
109.2484213444
 20
168.999570583
 40
0.5
 50
281.6210955924
 51
9.4736842105
  0
ARC
  8
0
 62
7
  6
CONTINUOUS
 10
118.9876846247
 20
172.3430638903
 40
0.5
 50
208.4210526316
 51
296.2736412497
  0
ARC
  8
0
 62
7
  6
CONTINUOUS
 10
101.1153388823
 20
208.5469294666
 40
37.875
 50
87.5705775392
 51
92.4294287073
  0
ARC
  8
0
 62
7
  6
CONTINUOUS
 10
101.1153388823
 20
208.5469294666
 40
37.875
 50
106.517946662
 51
111.3767947661
  0
ARC
  8
0
 62
7
  6
CONTINUOUS
 10
101.1153388823
 20
208.5469294666
 40
35.625
 50
98.0365568397
 51
100.9108115813
  0
ARC
  8
0
 62
7
  6
CONTINUOUS
 10
101.1153388823
 20
208.5469294666
 40
35.625
 50
116.9839252608
 51
119.8581800024
  0
ARC
  8
0
 62
7
  6
CONTINUOUS
 10
101.1153388823
 20
208.5469294666
 40
35.625
 50
135.9312936818
 51
138.8055484235
  0
ARC
  8
0
 62
7
  6
CONTINUOUS
 10
101.1153388823
 20
208.5469294666
 40
35.625
 50
154.8786621029
 51
157.7529168445
  0
ARC
  8
0
 62
7
  6
CONTINUOUS
 10
101.1153388823
 20
208.5469294666
 40
35.625
 50
173.8260305239
 51
176.7002852656
  0
ARC
  8
0
 62
7
  6
CONTINUOUS
 10
101.1153388823
 20
208.5469294666
 40
35.625
 50
192.773398945
 51
195.6476536866
  0
ARC
  8
0
 62
7
  6
CONTINUOUS
 10
101.1153388823
 20
208.5469294666
 40
35.625
 50
211.720767366
 51
214.5950221077
  0
ARC
  8
0
 62
7
  6
CONTINUOUS
 10
101.1153388823
 20
208.5469294666
 40
35.625
 50
230.6681357871
 51
233.5423905287
  0
ARC
  8
0
 62
7
  6
CONTINUOUS
 10
101.1153388823
 20
208.5469294666
 40
35.625
 50
249.6155042081
 51
252.4897589498
  0
ARC
  8
0
 62
7
  6
CONTINUOUS
 10
101.1153388823
 20
208.5469294666
 40
35.625
 50
268.5628726292
 51
271.4371273708
  0
ARC
  8
0
 62
7
  6
CONTINUOUS
 10
101.1153388823
 20
208.5469294666
 40
35.625
 50
287.5102410502
 51
290.3844957919
  0
ARC
  8
0
 62
7
  6
CONTINUOUS
 10
101.1153388823
 20
208.5469294666
 40
35.625
 50
306.4576094713
 51
309.3318642129
  0
ARC
  8
0
 62
7
  6
CONTINUOUS
 10
101.1153388823
 20
208.5469294666
 40
35.625
 50
79.0891884187
 51
81.9634431603
  0
ARC
  8
0
 62
7
  6
CONTINUOUS
 10
101.1153388823
 20
208.5469294666
 40
35.625
 50
60.1418199976
 51
63.0160747392
  0
ARC
  8
0
 62
7
  6
CONTINUOUS
 10
101.1153388823
 20
208.5469294666
 40
35.625
 50
325.4049778923
 51
328.279232634
  0
ARC
  8
0
 62
7
  6
CONTINUOUS
 10
101.1153388823
 20
208.5469294666
 40
35.625
 50
41.1944515765
 51
44.0687063182
  0
ARC
  8
0
 62
7
  6
CONTINUOUS
 10
101.1153388823
 20
208.5469294666
 40
35.625
 50
22.2470831555
 51
25.1213378971
  0
ARC
  8
0
 62
7
  6
CONTINUOUS
 10
101.1153388823
 20
208.5469294666
 40
35.625
 50
344.3523463134
 51
347.226601055
  0
ARC
  8
0
 62
7
  6
CONTINUOUS
 10
101.1153388823
 20
208.5469294666
 40
35.625
 50
3.2997147344
 51
6.1739694761
  0
ARC
  8
0
 62
9
  6
CONTINUOUS
 10
101.1153388823
 20
208.5469294666
 40
35.1250000012
 50
79.0891884187
 51
81.9634431603
  0
ARC
  8
0
 62
9
  6
CONTINUOUS
 10
101.1153388823
 20
208.5469294666
 40
35.1250000012
 50
60.1418199976
 51
63.0160747392
  0
ARC
  8
0
 62
9
  6
CONTINUOUS
 10
101.1153388823
 20
208.5469294666
 40
35.1250000012
 50
41.1944515765
 51
44.0687063182
  0
ARC
  8
0
 62
9
  6
CONTINUOUS
 10
101.1153388823
 20
208.5469294666
 40
35.1250000012
 50
22.2470831555
 51
25.1213378971
  0
ARC
  8
0
 62
9
  6
CONTINUOUS
 10
101.1153388823
 20
208.5469294666
 40
35.1250000012
 50
3.2997147344
 51
6.1739694761
  0
ARC
  8
0
 62
9
  6
CONTINUOUS
 10
101.1153388823
 20
208.5469294666
 40
35.1250000012
 50
344.3523463134
 51
347.226601055
  0
ARC
  8
0
 62
9
  6
CONTINUOUS
 10
101.1153388823
 20
208.5469294666
 40
35.1250000012
 50
325.4049778923
 51
328.279232634
  0
ARC
  8
0
 62
9
  6
CONTINUOUS
 10
101.1153388823
 20
208.5469294666
 40
35.1250000012
 50
306.4576094713
 51
309.3318642129
  0
ARC
  8
0
 62
9
  6
CONTINUOUS
 10
101.1153388823
 20
208.5469294666
 40
35.1250000012
 50
287.5102410502
 51
290.3844957919
  0
ARC
  8
0
 62
9
  6
CONTINUOUS
 10
101.1153388823
 20
208.5469294666
 40
35.1250000012
 50
268.5628726292
 51
271.4371273708
  0
ARC
  8
0
 62
9
  6
CONTINUOUS
 10
101.1153388823
 20
208.5469294666
 40
35.1250000012
 50
249.6155042081
 51
252.4897589498
  0
ARC
  8
0
 62
9
  6
CONTINUOUS
 10
101.1153388823
 20
208.5469294666
 40
35.1250000012
 50
230.6681357871
 51
233.5423905287
  0
ARC
  8
0
 62
9
  6
CONTINUOUS
 10
101.1153388823
 20
208.5469294666
 40
35.1250000012
 50
211.720767366
 51
214.5950221077
  0
ARC
  8
0
 62
9
  6
CONTINUOUS
 10
101.1153388823
 20
208.5469294666
 40
35.1250000012
 50
192.773398945
 51
195.6476536866
  0
ARC
  8
0
 62
9
  6
CONTINUOUS
 10
101.1153388823
 20
208.5469294666
 40
35.1250000012
 50
173.8260305239
 51
176.7002852656
  0
ARC
  8
0
 62
9
  6
CONTINUOUS
 10
101.1153388823
 20
208.5469294666
 40
35.1250000012
 50
154.8786621029
 51
157.7529168445
  0
ARC
  8
0
 62
9
  6
CONTINUOUS
 10
101.1153388823
 20
208.5469294666
 40
35.1250000012
 50
135.9312936818
 51
138.8055484235
  0
ARC
  8
0
 62
9
  6
CONTINUOUS
 10
101.1153388823
 20
208.5469294666
 40
35.1250000012
 50
116.9839252608
 51
119.8581800024
  0
ARC
  8
0
 62
9
  6
CONTINUOUS
 10
101.1153388823
 20
208.5469294666
 40
35.1250000012
 50
98.0365568397
 51
100.9108115813
  0
CIRCLE
  8
0
 62
7
  6
CONTINUOUS
 10
101.1153388823
 20
208.5469294666
 40
32.625
  0
CIRCLE
  8
0
 62
9
  6
CONTINUOUS
 10
101.1153388823
 20
208.5469294666
 40
30.625
  0
ARC
  8
0
 62
9
  6
CONTINUOUS
 10
134.3533385012
 20
188.0020759424
 40
3.95
 50
78.746732899
 51
148.279232634
  0
ARC
  8
0
 62
9
  6
CONTINUOUS
 10
133.2813201113
 20
186.361229645
 40
3.95
 50
145.4049778923
 51
214.9374664459
  0
ARC
  8
0
 62
9
  6
CONTINUOUS
 10
125.8815089673
 20
178.3228919415
 40
3.95
 50
59.799364478
 51
129.3318642129
  0
ARC
  8
0
 62
9
  6
CONTINUOUS
 10
124.3347935689
 20
177.1190350246
 40
3.95
 50
126.4576094713
 51
195.9900980664
  0
ARC
  8
0
 62
7
  6
CONTINUOUS
 10
125.8815089673
 20
178.3228919415
 40
3.45
 50
60.1264739165
 51
129.3318642129
  0
ARC
  8
0
 62
7
  6
CONTINUOUS
 10
124.3347935689
 20
177.1190350246
 40
3.45
 50
126.4576094713
 51
195.6630442826
  0
ARC
  8
0
 62
7
  6
CONTINUOUS
 10
134.3533385012
 20
188.0020759424
 40
3.45
 50
79.0738179722
 51
148.279232634
  0
ARC
  8
0
 62
7
  6
CONTINUOUS
 10
133.2813201113
 20
186.361229645
 40
3.45
 50
145.4049778923
 51
214.610383269
  0
ARC
  8
0
 62
7
  6
CONTINUOUS
 10
121.6487549411
 20
173.7831631293
 40
0.5
 50
300.5684640134
 51
28.4210526316
  0
ARC
  8
0
 62
7
  6
CONTINUOUS
 10
129.7746875709
 20
180.1078303644
 40
0.5
 50
227.3684210526
 51
315.2210096708
  0
ARC
  8
0
 62
7
  6
CONTINUOUS
 10
131.823974299
 20
182.3339491736
 40
0.5
 50
319.5158324345
 51
47.3684210526
  0
ARC
  8
0
 62
7
  6
CONTINUOUS
 10
126.571183005
 20
208.5469294666
 40
4.0
 50
255.0
 51
105.0
  0
ARC
  8
0
 62
9
  6
CONTINUOUS
 10
139.2233150357
 20
199.9076136089
 40
3.95
 50
97.6940951866
 51
167.226601055
  0
ARC
  8
0
 62
9
  6
CONTINUOUS
 10
138.7421634809
 20
198.0075890877
 40
3.95
 50
164.3523463134
 51
233.8848348309
  0
ARC
  8
0
 62
7
  6
CONTINUOUS
 10
139.2233150357
 20
199.9076136089
 40
3.45
 50
98.0211180812
 51
167.226601055
  0
ARC
  8
0
 62
7
  6
CONTINUOUS
 10
138.7421634809
 20
198.0075890877
 40
3.45
 50
164.3523463134
 51
233.557763494
  0
ARC
  8
0
 62
7
  6
CONTINUOUS
 10
137.456005391
 20
190.9544145042
 40
0.5
 50
246.3157894737
 51
334.1683780919
  0
ARC
  8
0
 62
7
  6
CONTINUOUS
 10
138.6714365159
 20
193.7253183689
 40
0.5
 50
338.4632008555
 51
66.3157894737
  0
ARC
  8
0
 62
7
  6
CONTINUOUS
 10
141.1992481114
 20
203.7074206162
 40
0.5
 50
265.2631578947
 51
353.1157465129
  0
ARC
  8
0
 62
7
  6
CONTINUOUS
 10
141.4491128114
 20
206.7228391076
 40
0.5
 50
357.4105692766
 51
85.2631578947
  0
ARC
  8
0
 62
7
  6
CONTINUOUS
 10
101.1153388823
 20
234.0027735893
 40
4.0
 50
345.0
 51
195.0
  0
ARC
  8
0
 62
9
  6
CONTINUOUS
 10
106.5782153682
 20
247.2381766098
 40
3.95
 50
192.4309464368
 51
261.9634431603
  0
ARC
  8
0
 62
9
  6
CONTINUOUS
 10
108.5114835229
 20
246.9155712129
 40
3.95
 50
259.0891884186
 51
328.6216768062
  0
ARC
  8
0
 62
9
  6
CONTINUOUS
 10
118.8452490622
 20
243.3679850223
 40
3.95
 50
173.483575004
 51
243.0160747392
  0
ARC
  8
0
 62
9
  6
CONTINUOUS
 10
120.5690176146
 20
242.4351281319
 40
3.95
 50
240.1418199976
 51
309.674308406
  0
ARC
  8
0
 62
7
  6
CONTINUOUS
 10
108.5114835229
 20
246.9155712129
 40
3.45
 50
259.0891884187
 51
328.2945927927
  0
ARC
  8
0
 62
7
  6
CONTINUOUS
 10
106.5782153682
 20
247.2381766098
 40
3.45
 50
192.7579639814
 51
261.9634431603
  0
ARC
  8
0
 62
7
  6
CONTINUOUS
 10
120.5690176146
 20
242.4351281319
 40
3.45
 50
240.1418199976
 51
309.3473330076
  0
ARC
  8
0
 62
7
  6
CONTINUOUS
 10
118.8452490622
 20
243.3679850223
 40
3.45
 50
173.8105903986
 51
243.0160747392
  0
CIRCLE
  8
0
 62
7
  6
CONTINUOUS
 10
101.1153388823
 20
242.6719294666
 40
0.8660254038
  0
ARC
  8
0
 62
7
  6
CONTINUOUS
 10
102.6282153682
 20
248.8935752967
 40
0.5
 50
0.0
 51
87.8525886182
  0
ARC
  8
0
 62
7
  6
CONTINUOUS
 10
112.7849687025
 20
247.1987129294
 40
0.5
 50
73.2000429608
 51
161.0526315789
  0
ARC
  8
0
 62
7
  6
CONTINUOUS
 10
115.6467780325
 20
246.2162525455
 40
0.5
 50
341.0526315789
 51
68.9052201971
  0
ARC
  8
0
 62
9
  6
CONTINUOUS
 10
136.4942642248
 20
225.1356987581
 40
3.95
 50
135.588838162
 51
205.1213378971
  0
ARC
  8
0
 62
9
  6
CONTINUOUS
 10
137.2815872571
 20
223.3407830379
 40
3.95
 50
202.2470831555
 51
271.7795716125
  0
ARC
  8
0
 62
9
  6
CONTINUOUS
 10
139.9637010478
 20
212.7493552014
 40
3.95
 50
116.641470228
 51
186.1739694761
  0
ARC
  8
0
 62
9
  6
CONTINUOUS
 10
140.1255565649
 20
210.7960495951
 40
3.95
 50
183.2997147344
 51
252.8321981464
  0
ARC
  8
0
 62
7
  6
CONTINUOUS
 10
137.2815872571
 20
223.3407830379
 40
3.45
 50
202.2470831555
 51
271.4523971923
  0
ARC
  8
0
 62
7
  6
CONTINUOUS
 10
136.4942642248
 20
225.1356987581
 40
3.45
 50
135.9158318149
 51
205.1213378971
  0
ARC
  8
0
 62
7
  6
CONTINUOUS
 10
140.1255565649
 20
210.7960495951
 40
3.45
 50
183.2997147344
 51
252.5050639223
  0
ARC
  8
0
 62
7
  6
CONTINUOUS
 10
139.9637010478
 20
212.7493552014
 40
3.45
 50
116.9684913436
 51
186.1739694761
  0
ARC
  8
0
 62
7
  6
CONTINUOUS
 10
135.719663289
 20
229.34792361
 40
0.5
 50
303.1578947368
 51
31.010483355
  0
ARC
  8
0
 62
7
  6
CONTINUOUS
 10
139.8559988586
 20
219.9180283405
 40
0.5
 50
16.3579376976
 51
104.2105263158
  0
ARC
  8
0
 62
7
  6
CONTINUOUS
 10
140.5987773009
 20
216.9848626049
 40
0.5
 50
284.2105263158
 51
12.063114934
  0
ARC
  8
0
 62
9
  6
CONTINUOUS
 10
129.1909718804
 20
235.7243917609
 40
3.95
 50
154.536206583
 51
224.0687063182
  0
ARC
  8
0
 62
9
  6
CONTINUOUS
 10
130.5184437607
 20
234.282372896
 40
3.95
 50
221.1944515765
 51
290.726940008
  0
ARC
  8
0
 62
7
  6
CONTINUOUS
 10
130.5184437607
 20
234.282372896
 40
3.45
 50
221.1944515765
 51
290.3998786743
  0
ARC
  8
0
 62
7
  6
CONTINUOUS
 10
129.1909718804
 20
235.7243917609
 40
3.45
 50
154.8631969941
 51
224.0687063182
  0
ARC
  8
0
 62
7
  6
CONTINUOUS
 10
124.7028895447
 20
241.3153300798
 40
0.5
 50
54.2526745397
 51
142.1052631579
  0
ARC
  8
0
 62
7
  6
CONTINUOUS
 10
127.0906337863
 20
239.456874139
 40
0.5
 50
322.1052631579
 51
49.9578517761
  0
ARC
  8
0
 62
7
  6
CONTINUOUS
 10
134.0647332741
 20
231.8809825695
 40
0.5
 50
35.3053061187
 51
123.1578947368
  0
ARC
  8
0
 62
7
  6
CONTINUOUS
 10
70.4903388823
 20
97.9453032105
 40
2.0
 50
180.0
 51
270.0
  0
ARC
  8
0
 62
7
  6
CONTINUOUS
 10
70.4903388823
 20
113.9453032105
 40
2.0
 50
90.0
 51
180.0
  0
ARC
  8
0
 62
7
  6
CONTINUOUS
 10
131.7403388823
 20
97.9453032105
 40
2.0
 50
270.0
 51
360.0
  0
ARC
  8
0
 62
7
  6
CONTINUOUS
 10
131.7403388823
 20
113.9453032105
 40
2.0
 50
0.0
 51
90.0
  0
ENDSEC
  0
EOF
