  0
SECTION
  2
HEADER
  9
$EXTMAX
 10
210.0
 20
297.0
 30
0.0
  9
$EXTMIN
 10
0.0
 20
0.0
 30
0.0
  9
$LIMMIN
 10
0.0
 20
0.0
  9
$LIMMAX
 10
210.0
 20
297.0
  9
$VIEWCTR
 10
105.0
 20
148.5
  9
$VIEWSIZE
 40
297.0
  9
$CLAYER
  8
0
  9
$LTSCALE
 40
19.36
  9
$CELTYPE
  6
BYLAYER
  9
$DIMSCALE
 40
1.0
  9
$DIMASZ
 40
3.5
  9
$DIMEXO
 40
1.0
  9
$DIMDLI
 40
13.376
  9
$DIMEXE
 40
2.0
  9
$DIMCEN
 40
3.168
  9
$DIMLFAC
 40
0.5
  9
$DIMBLK
  1
_FILLED
  9
$DIMTXT
 40
3.5
  9
$PDMODE
 70
3
  9
$PDSIZE
 40
0.3125
  9
$TILEMODE
 70
1
  0
ENDSEC
  0
SECTION
  2
TABLES
  0
TABLE
  2
LTYPE
 70
6
  0
LTYPE
  2
BYBLOCK
 70
0
  3

 72
65
 73
0
 40
0.0
  0
LTYPE
  2
BYLAYER
 70
0
  3

 72
65
 73
0
 40
0.0
  0
LTYPE
  2
CONTINUOUS
 70
64
  3
Solid line
 72
65
 73
0
 40
0.0
  0
LTYPE
  2
CENTER
 70
64
  3
____ _ ____ _ ____ _ ____ _ ____ _ ____ _ ____
 72
65
 73
4
 40
0.6
 49
0.375
 49
-0.075
 49
0.075
 49
-0.075
  0
LTYPE
  2
HIDDEN
 70
64
  3
- - - - - - - - - - - - - - - - - - - -
 72
65
 73
2
 40
0.2
 49
0.1
 49
-0.1
  0
LTYPE
  2
PHANTOM
 70
64
  3
_____ _ _ _____ _ _ _____ _ _ _____
 72
65
 73
6
 40
0.8
 49
0.45
 49
-0.05
 49
0.1
 49
-0.05
 49
0.1
 49
-0.05
  0
LTYPE
  2
DOT
 70
64
  3
. . . . . . . . . . . . . . . . . . . .
 72
65
 73
2
 40
0.2
 49
0.1
 49
-0.1
  0
LTYPE
  2
DASHED
 70
64
  3
- - - - - - - - - - - - - - - - - - - -
 72
65
 73
2
 40
0.2
 49
0.1
 49
-0.1
  0
ENDTAB
  0
TABLE
  2
LAYER
 70
36
  0
LAYER
  2
0
 70
0
 62
7
  6
CONTINUOUS
  0
LAYER
  2
DEFAULT_1
 70
0
 62
7
  6
CENTER
  0
LAYER
  2
DEFAULT_2
 70
0
 62
8
  6
HIDDEN
  0
LAYER
  2
DEFAULT_3
 70
0
 62
7
  6
PHANTOM
  0
LAYER
  2
AXES
 70
0
 62
7
  6
CONTINUOUS
  0
LAYER
  2
CSYS
 70
0
 62
7
  6
CONTINUOUS
  0
LAYER
  2
CURVE
 70
0
 62
7
  6
CONTINUOUS
  0
LAYER
  2
CURVES
 70
0
 62
7
  6
CONTINUOUS
  0
LAYER
  2
PLANES
 70
0
 62
7
  6
CONTINUOUS
  0
LAYER
  2
SURFACE
 70
0
 62
7
  6
CONTINUOUS
  0
ENDTAB
  0
TABLE
  2
STYLE
 70
1
  0
STYLE
  2
STANDARD
 70
0
 40
0.0
 41
0.8
 50
0.0
 71
0
 42
0.2
  3
txt
  4

  0
STYLE
  2
TEXTSTYLE_1
 70
0
 40
0.0
 41
0.8
 50
0.0
 71
0
 42
0.2
  3
gdt
  4

  0
STYLE
  2
TEXTSTYLE_2
 70
0
 40
0.0
 41
0.6
 50
0.0
 71
0
 42
0.2
  3
txt
  4

  0
STYLE
  2
TEXTSTYLE_3
 70
0
 40
0.0
 41
1.0
 50
0.0
 71
0
 42
0.2
  3
ftb_____.ttf
  4

  0
STYLE
  2
TEXTSTYLE_4
 70
0
 40
0.0
 41
1.0
 50
0.0
 71
0
 42
0.2
  3
fti_____.ttf
  4

  0
STYLE
  2
TEXTSTYLE_5
 70
0
 40
0.0
 41
1.0
 50
0.0
 71
0
 42
0.2
  3
frutiger light.ttf
  4

  0
STYLE
  2
TEXTSTYLE_6
 70
0
 40
0.0
 41
0.7
 50
0.0
 71
0
 42
0.2
  3
txt
  4

  0
STYLE
  2
TEXTSTYLE_7
 70
0
 40
0.0
 41
0.8
 50
0.0
 71
0
 42
0.2
  3
txt
  4

  0
ENDTAB
  0
ENDSEC
  0
SECTION
  2
BLOCKS
  0
BLOCK
  8
0
 62
2
  6
CONTINUOUS
  2
SYMBOL_8_BL1
 70
64
 10
173.5956734183
 20
35.5937998301
  0
TEXT
  8
0
 62
7
  6
CONTINUOUS
 10
164.6539584268
 20
30.6865562072
  7
TEXTSTYLE_4
 40
1.0655737705
  1
The brand for plastic modular belts and chains
 41
1.0
 72
0
  0
LINE
  8
0
 62
7
  6
CONTINUOUS
 10
149.5737418074
 20
36.1675703219
 11
149.5737418074
 21
34.0364227809
  0
LINE
  8
0
 62
7
  6
CONTINUOUS
 10
149.8628043005
 20
31.0454914852
 11
149.8628043005
 21
31.1422825445
  0
LINE
  8
0
 62
7
  6
CONTINUOUS
 10
149.5737418074
 20
31.1100188581
 11
149.6315543091
 21
30.9164367395
  0
LINE
  8
0
 62
7
  6
CONTINUOUS
 10
150.9671844304
 20
33.9544555678
 11
150.9671844304
 21
36.1675703219
  0
LINE
  8
0
 62
7
  6
CONTINUOUS
 10
151.8862417523
 20
32.1101932727
 11
151.8862417523
 21
30.5937998301
  0
LINE
  8
0
 62
7
  6
CONTINUOUS
 10
152.1753043074
 20
30.5937998301
 11
152.1753043074
 21
31.3358647082
  0
LINE
  8
0
 62
7
  6
CONTINUOUS
 10
152.1753043074
 20
31.4649194539
 11
152.1753043074
 21
32.1101932727
  0
LINE
  8
0
 62
7
  6
CONTINUOUS
 10
149.6315543091
 20
31.3036010218
 11
149.5737418074
 21
31.1100188581
  0
LINE
  8
0
 62
7
  6
CONTINUOUS
 10
149.9784292936
 20
30.8841730531
 11
149.8628043005
 21
31.0454914852
  0
LINE
  8
0
 62
7
  6
CONTINUOUS
 10
151.0768668626
 20
31.400392081
 11
151.1346793074
 21
31.3036010218
  0
LINE
  8
0
 62
7
  6
CONTINUOUS
 10
151.4237418626
 20
31.3036010218
 11
151.3659292523
 21
31.4326557675
  0
LINE
  8
0
 62
7
  6
CONTINUOUS
 10
152.852430332
 20
36.1675703219
 11
152.852430332
 21
34.3642916334
  0
LINE
  8
0
 62
7
  6
CONTINUOUS
 10
152.852430332
 20
33.0528162235
 11
152.852430332
 21
32.3970785186
  0
LINE
  8
0
 62
7
  6
CONTINUOUS
 10
153.2159293074
 20
31.2390736489
 11
153.2159293074
 21
30.5937998301
  0
LINE
  8
0
 62
7
  6
CONTINUOUS
 10
153.5049916972
 20
30.5937998301
 11
153.5049916972
 21
31.2390736489
  0
LINE
  8
0
 62
7
  6
CONTINUOUS
 10
149.8628043005
 20
31.1422825445
 11
149.9206168074
 21
31.2713373354
  0
LINE
  8
0
 62
7
  6
CONTINUOUS
 10
149.6315543091
 20
30.9164367395
 11
149.7471793074
 21
30.7873819712
  0
LINE
  8
0
 62
7
  6
CONTINUOUS
 10
153.1581166972
 20
31.3681283946
 11
153.2159293074
 21
31.2390736489
  0
LINE
  8
0
 62
7
  6
CONTINUOUS
 10
153.9674919177
 20
30.8841730531
 11
154.0253041972
 21
30.7551182848
  0
LINE
  8
0
 62
7
  6
CONTINUOUS
 10
153.5049916972
 20
31.2390736489
 11
153.4471794177
 21
31.400392081
  0
LINE
  8
0
 62
7
  6
CONTINUOUS
 10
153.9674919177
 20
31.4326557675
 11
153.9674919177
 21
31.3681283946
  0
LINE
  8
0
 62
7
  6
CONTINUOUS
 10
153.9674919177
 20
30.9809641124
 11
153.9674919177
 21
30.8841730531
  0
LINE
  8
0
 62
7
  6
CONTINUOUS
 10
154.245872955
 20
32.3970785186
 11
154.245872955
 21
36.1675703219
  0
LINE
  8
0
 62
7
  6
CONTINUOUS
 10
154.2565543074
 20
30.8519093441
 11
154.2565543074
 21
30.9164367395
  0
LINE
  8
0
 62
7
  6
CONTINUOUS
 10
154.5737418074
 20
36.1675703219
 11
154.5737418074
 21
32.3970785186
  0
LINE
  8
0
 62
7
  6
CONTINUOUS
 10
151.3659292523
 20
30.7873819712
 11
151.4237418626
 21
30.9164367395
  0
LINE
  8
0
 62
7
  6
CONTINUOUS
 10
155.759679528
 20
30.6905909007
 11
155.7018665869
 21
30.8519093441
  0
LINE
  8
0
 62
7
  6
CONTINUOUS
 10
155.412804528
 20
31.3681283946
 11
155.412804528
 21
31.2713373354
  0
LINE
  8
0
 62
7
  6
CONTINUOUS
 10
155.412804528
 20
31.1422825445
 11
155.412804528
 21
30.9487004259
  0
LINE
  8
0
 62
7
  6
CONTINUOUS
 10
155.7018665869
 20
30.8519093441
 11
155.7018665869
 21
31.3681283946
  0
LINE
  8
0
 62
7
  6
CONTINUOUS
 10
155.9671844304
 20
32.3970785186
 11
155.9671844304
 21
34.2003572071
  0
LINE
  8
0
 62
7
  6
CONTINUOUS
 10
155.9671844304
 20
35.511832617
 11
155.9671844304
 21
36.1675703219
  0
LINE
  8
0
 62
7
  6
CONTINUOUS
 10
156.279992028
 20
32.1101932727
 11
156.279992028
 21
31.9488748406
  0
LINE
  8
0
 62
7
  6
CONTINUOUS
 10
156.279992028
 20
31.626237886
 11
156.279992028
 21
30.5937998301
  0
LINE
  8
0
 62
7
  6
CONTINUOUS
 10
156.5690540869
 20
30.5937998301
 11
156.5690540869
 21
31.626237886
  0
LINE
  8
0
 62
7
  6
CONTINUOUS
 10
156.5690540869
 20
31.9488748406
 11
156.5690540869
 21
32.1101932727
  0
LINE
  8
0
 62
7
  6
CONTINUOUS
 10
151.1346793074
 20
30.9164367395
 11
151.0768668626
 21
30.8196456577
  0
LINE
  8
0
 62
7
  6
CONTINUOUS
 10
153.4471794177
 20
31.400392081
 11
153.3893668074
 21
31.4649194539
  0
LINE
  8
0
 62
7
  6
CONTINUOUS
 10
154.3143669177
 20
30.7873819712
 11
154.2565543074
 21
30.8519093441
  0
LINE
  8
0
 62
7
  6
CONTINUOUS
 10
155.4706168074
 20
30.6583272086
 11
155.5284290869
 21
30.5937998301
  0
LINE
  8
0
 62
7
  6
CONTINUOUS
 10
155.412804528
 20
30.7551182848
 11
155.4706168074
 21
30.6583272086
  0
LINE
  8
0
 62
7
  6
CONTINUOUS
 10
155.8174918074
 20
30.5937998301
 11
155.759679528
 21
30.6905909007
  0
LINE
  8
0
 62
7
  6
CONTINUOUS
 10
155.7018665869
 20
31.3681283946
 11
155.6440543074
 21
31.4649194539
  0
LINE
  8
0
 62
7
  6
CONTINUOUS
 10
157.0315543074
 20
31.626237886
 11
157.0315543074
 21
30.5937998301
  0
LINE
  8
0
 62
7
  6
CONTINUOUS
 10
157.320617028
 20
30.5937998301
 11
157.320617028
 21
31.3358647082
  0
LINE
  8
0
 62
7
  6
CONTINUOUS
 10
157.320617028
 20
31.4649194539
 11
157.320617028
 21
31.626237886
  0
LINE
  8
0
 62
7
  6
CONTINUOUS
 10
157.852430332
 20
34.6101932727
 11
157.852430332
 21
32.3970785186
  0
LINE
  8
0
 62
7
  6
CONTINUOUS
 10
149.7471793074
 20
31.4326557675
 11
149.6315543091
 21
31.3036010218
  0
LINE
  8
0
 62
7
  6
CONTINUOUS
 10
149.9206168074
 20
31.2713373354
 11
149.9784292936
 21
31.3358647082
  0
LINE
  8
0
 62
7
  6
CONTINUOUS
 10
149.7471793074
 20
30.7873819712
 11
149.8628043005
 21
30.7228545871
  0
LINE
  8
0
 62
7
  6
CONTINUOUS
 10
150.1518667936
 20
30.7873819712
 11
149.9784292936
 21
30.8841730531
  0
LINE
  8
0
 62
7
  6
CONTINUOUS
 10
155.3549915869
 20
31.4326557675
 11
155.412804528
 21
31.3681283946
  0
LINE
  8
0
 62
7
  6
CONTINUOUS
 10
158.3034290869
 20
31.3681283946
 11
158.361242028
 21
31.2068099625
  0
LINE
  8
0
 62
7
  6
CONTINUOUS
 10
158.6503040869
 20
31.2068099625
 11
158.5924918074
 21
31.3681283946
  0
LINE
  8
0
 62
7
  6
CONTINUOUS
 10
158.361242028
 20
31.2068099625
 11
158.361242028
 21
30.5937998301
  0
LINE
  8
0
 62
7
  6
CONTINUOUS
 10
158.6503040869
 20
30.5937998301
 11
158.6503040869
 21
31.2068099625
  0
LINE
  8
0
 62
7
  6
CONTINUOUS
 10
159.1128043074
 20
31.4326557675
 11
159.1128043074
 21
31.3681283946
  0
LINE
  8
0
 62
7
  6
CONTINUOUS
 10
159.245872955
 20
32.3970785186
 11
159.245872955
 21
34.5282260596
  0
LINE
  8
0
 62
7
  6
CONTINUOUS
 10
159.5737418074
 20
36.1675703219
 11
159.5737418074
 21
32.3970785186
  0
LINE
  8
0
 62
7
  6
CONTINUOUS
 10
154.2565543074
 20
30.9164367395
 11
154.3143669177
 21
31.0132277988
  0
LINE
  8
0
 62
7
  6
CONTINUOUS
 10
149.8628043005
 20
30.7228545871
 11
150.0362418212
 21
30.6583272086
  0
LINE
  8
0
 62
7
  6
CONTINUOUS
 10
151.3659292523
 20
31.4326557675
 11
151.1924917523
 21
31.5294468267
  0
LINE
  8
0
 62
7
  6
CONTINUOUS
 10
154.0253041972
 20
30.7551182848
 11
154.1987416972
 21
30.6583272086
  0
LINE
  8
0
 62
7
  6
CONTINUOUS
 10
153.0424918074
 20
31.4326557675
 11
153.1581166972
 21
31.3681283946
  0
LINE
  8
0
 62
7
  6
CONTINUOUS
 10
153.3893668074
 20
31.4649194539
 11
153.2737419177
 21
31.5294468267
  0
LINE
  8
0
 62
7
  6
CONTINUOUS
 10
159.1128043074
 20
30.8519093441
 11
159.228429528
 21
30.7228545871
  0
LINE
  8
0
 62
7
  6
CONTINUOUS
 10
159.4596793074
 20
30.7873819712
 11
159.401867028
 21
30.8519093441
  0
LINE
  8
0
 62
7
  6
CONTINUOUS
 10
159.1128043074
 20
31.3681283946
 11
159.228429528
 21
31.2390736489
  0
LINE
  8
0
 62
7
  6
CONTINUOUS
 10
158.5924918074
 20
31.3681283946
 11
158.534679528
 21
31.4649194539
  0
LINE
  8
0
 62
7
  6
CONTINUOUS
 10
160.9628038663
 20
30.7873819712
 11
160.9628038663
 21
30.8519093441
  0
LINE
  8
0
 62
7
  6
CONTINUOUS
 10
160.9671844304
 20
32.3970785186
 11
160.9671844304
 21
36.1675703219
  0
LINE
  8
0
 62
7
  6
CONTINUOUS
 10
154.0253041972
 20
31.4971831403
 11
153.9674919177
 21
31.4326557675
  0
LINE
  8
0
 62
7
  6
CONTINUOUS
 10
150.9034292799
 20
31.4649194539
 11
151.0768668626
 21
31.400392081
  0
LINE
  8
0
 62
7
  6
CONTINUOUS
 10
155.6440543074
 20
31.4649194539
 11
155.5284290869
 21
31.5294468267
  0
LINE
  8
0
 62
7
  6
CONTINUOUS
 10
159.4596793074
 20
31.3036010218
 11
159.401867028
 21
31.3681283946
  0
LINE
  8
0
 62
7
  6
CONTINUOUS
 10
160.615929528
 20
30.9164367395
 11
160.6737418074
 21
30.8519093441
  0
LINE
  8
0
 62
7
  6
CONTINUOUS
 10
160.9628038663
 20
30.8519093441
 11
160.8471793074
 21
30.9809641124
  0
LINE
  8
0
 62
7
  6
CONTINUOUS
 10
160.615929528
 20
31.4326557675
 11
160.6737418074
 21
31.3681283946
  0
LINE
  8
0
 62
7
  6
CONTINUOUS
 10
160.9628038663
 20
31.3681283946
 11
160.8471793074
 21
31.4971831403
  0
LINE
  8
0
 62
7
  6
CONTINUOUS
 10
154.2565543074
 20
31.3681283946
 11
154.3143669177
 21
31.4326557675
  0
LINE
  8
0
 62
7
  6
CONTINUOUS
 10
154.0831168074
 20
31.1100188581
 11
153.9674919177
 21
30.9809641124
  0
LINE
  8
0
 62
7
  6
CONTINUOUS
 10
155.412804528
 20
30.9487004259
 11
155.3549915869
 21
30.8841730531
  0
LINE
  8
0
 62
7
  6
CONTINUOUS
 10
155.3549915869
 20
30.6905909007
 11
155.412804528
 21
30.7551182848
  0
LINE
  8
0
 62
7
  6
CONTINUOUS
 10
154.1987416972
 20
30.6583272086
 11
154.3143669177
 21
30.6260635193
  0
LINE
  8
0
 62
7
  6
CONTINUOUS
 10
151.1924917523
 20
31.5294468267
 11
150.9612418074
 21
31.5939741996
  0
LINE
  8
0
 62
7
  6
CONTINUOUS
 10
154.5456166972
 20
30.7228545871
 11
154.3143669177
 21
30.7873819712
  0
LINE
  8
0
 62
7
  6
CONTINUOUS
 10
153.2737419177
 20
31.5294468267
 11
153.1003044177
 21
31.5939741996
  0
LINE
  8
0
 62
7
  6
CONTINUOUS
 10
155.5284290869
 20
31.5294468267
 11
155.3549915869
 21
31.5939741996
  0
LINE
  8
0
 62
7
  6
CONTINUOUS
 10
158.187804528
 20
31.4326557675
 11
158.3034290869
 21
31.3681283946
  0
LINE
  8
0
 62
7
  6
CONTINUOUS
 10
158.534679528
 20
31.4649194539
 11
158.4190543074
 21
31.5294468267
  0
LINE
  8
0
 62
7
  6
CONTINUOUS
 10
150.0362418212
 20
30.6583272086
 11
150.2096793212
 21
30.6260635193
  0
LINE
  8
0
 62
7
  6
CONTINUOUS
 10
150.498741835
 20
30.7228545871
 11
150.1518667936
 21
30.7873819712
  0
LINE
  8
0
 62
7
  6
CONTINUOUS
 10
152.9268669177
 20
31.4649194539
 11
153.0424918074
 21
31.4326557675
  0
LINE
  8
0
 62
7
  6
CONTINUOUS
 10
155.239367028
 20
31.4649194539
 11
155.3549915869
 21
31.4326557675
  0
LINE
  8
0
 62
7
  6
CONTINUOUS
 10
159.575304528
 20
30.7551182848
 11
159.4596793074
 21
30.7873819712
  0
LINE
  8
0
 62
7
  6
CONTINUOUS
 10
158.0721793074
 20
31.4649194539
 11
158.187804528
 21
31.4326557675
  0
LINE
  8
0
 62
7
  6
CONTINUOUS
 10
159.228429528
 20
30.7228545871
 11
159.401867028
 21
30.6583272086
  0
LINE
  8
0
 62
7
  6
CONTINUOUS
 10
158.4190543074
 20
31.5294468267
 11
158.2456168074
 21
31.5939741996
  0
LINE
  8
0
 62
7
  6
CONTINUOUS
 10
159.6331168074
 20
31.2390736489
 11
159.4596793074
 21
31.3036010218
  0
LINE
  8
0
 62
7
  6
CONTINUOUS
 10
160.442492028
 20
30.9809641124
 11
160.615929528
 21
30.9164367395
  0
LINE
  8
0
 62
7
  6
CONTINUOUS
 10
160.8471793074
 20
31.4971831403
 11
160.6737418074
 21
31.5617105132
  0
LINE
  8
0
 62
7
  6
CONTINUOUS
 10
159.228429528
 20
31.2390736489
 11
159.4596793074
 21
31.1422825445
  0
LINE
  8
0
 62
7
  6
CONTINUOUS
 10
160.8471793074
 20
30.9809641124
 11
160.615929528
 21
31.0777551716
  0
LINE
  8
0
 62
7
  6
CONTINUOUS
 10
159.401867028
 20
31.3681283946
 11
159.4596793074
 21
31.4326557675
  0
LINE
  8
0
 62
7
  6
CONTINUOUS
 10
149.8628043005
 20
31.4971831403
 11
149.7471793074
 21
31.4326557675
  0
LINE
  8
0
 62
7
  6
CONTINUOUS
 10
149.9784292936
 20
31.3358647082
 11
150.1518667936
 21
31.4326557675
  0
LINE
  8
0
 62
7
  6
CONTINUOUS
 10
152.2909293626
 20
31.5294468267
 11
152.1753043074
 21
31.4649194539
  0
LINE
  8
0
 62
7
  6
CONTINUOUS
 10
152.1753043074
 20
31.3358647082
 11
152.2909293626
 21
31.400392081
  0
LINE
  8
0
 62
7
  6
CONTINUOUS
 10
151.1924917523
 20
30.6905909007
 11
151.3659292523
 21
30.7873819712
  0
LINE
  8
0
 62
7
  6
CONTINUOUS
 10
150.2096793212
 20
30.6260635193
 11
150.5565542799
 21
30.5937998301
  0
LINE
  8
0
 62
7
  6
CONTINUOUS
 10
154.3143669177
 20
30.6260635193
 11
154.5456166972
 21
30.5937998301
  0
LINE
  8
0
 62
7
  6
CONTINUOUS
 10
152.6956168074
 20
31.4971831403
 11
152.9268669177
 21
31.4649194539
  0
LINE
  8
0
 62
7
  6
CONTINUOUS
 10
155.0081169177
 20
31.4971831403
 11
155.239367028
 21
31.4649194539
  0
LINE
  8
0
 62
7
  6
CONTINUOUS
 10
159.4596793074
 20
31.1422825445
 11
160.442492028
 21
30.9809641124
  0
LINE
  8
0
 62
7
  6
CONTINUOUS
 10
160.615929528
 20
31.0777551716
 11
159.6331168074
 21
31.2390736489
  0
LINE
  8
0
 62
7
  6
CONTINUOUS
 10
153.1003044177
 20
31.5939741996
 11
152.9268669177
 21
31.626237886
  0
LINE
  8
0
 62
7
  6
CONTINUOUS
 10
159.401867028
 20
30.6583272086
 11
159.575304528
 21
30.6260635193
  0
LINE
  8
0
 62
7
  6
CONTINUOUS
 10
158.2456168074
 20
31.5939741996
 11
158.0721793074
 21
31.626237886
  0
LINE
  8
0
 62
7
  6
CONTINUOUS
 10
160.5003043074
 20
31.4649194539
 11
160.615929528
 21
31.4326557675
  0
LINE
  8
0
 62
7
  6
CONTINUOUS
 10
160.6737418074
 20
30.8519093441
 11
160.615929528
 21
30.7873819712
  0
LINE
  8
0
 62
7
  6
CONTINUOUS
 10
159.228429528
 20
31.5294468267
 11
159.1128043074
 21
31.4326557675
  0
LINE
  8
0
 62
7
  6
CONTINUOUS
 10
154.1409294177
 20
31.5617105132
 11
154.0253041972
 21
31.4971831403
  0
LINE
  8
0
 62
7
  6
CONTINUOUS
 10
154.1987416972
 20
31.1745462761
 11
154.0831168074
 21
31.1100188581
  0
LINE
  8
0
 62
7
  6
CONTINUOUS
 10
154.3143669177
 20
31.0132277988
 11
154.4299918074
 21
31.0777551716
  0
LINE
  8
0
 62
7
  6
CONTINUOUS
 10
151.8862417523
 20
30.5937998301
 11
152.1753043074
 21
30.5937998301
  0
LINE
  8
0
 62
7
  6
CONTINUOUS
 10
153.2159293074
 20
30.5937998301
 11
153.5049916972
 21
30.5937998301
  0
LINE
  8
0
 62
7
  6
CONTINUOUS
 10
154.5456166972
 20
30.5937998301
 11
154.8924916972
 21
30.5937998301
  0
LINE
  8
0
 62
7
  6
CONTINUOUS
 10
155.5284290869
 20
30.5937998301
 11
155.8174918074
 21
30.5937998301
  0
LINE
  8
0
 62
7
  6
CONTINUOUS
 10
156.279992028
 20
30.5937998301
 11
156.5690540869
 21
30.5937998301
  0
LINE
  8
0
 62
7
  6
CONTINUOUS
 10
157.0315543074
 20
30.5937998301
 11
157.320617028
 21
30.5937998301
  0
LINE
  8
0
 62
7
  6
CONTINUOUS
 10
158.361242028
 20
30.5937998301
 11
158.6503040869
 21
30.5937998301
  0
LINE
  8
0
 62
7
  6
CONTINUOUS
 10
159.922179528
 20
30.5937998301
 11
160.269054528
 21
30.5937998301
  0
LINE
  8
0
 62
7
  6
CONTINUOUS
 10
160.269054528
 20
30.7228545871
 11
159.922179528
 21
30.7228545871
  0
LINE
  8
0
 62
7
  6
CONTINUOUS
 10
154.8924916972
 20
30.7228545871
 11
154.5456166972
 21
30.7228545871
  0
LINE
  8
0
 62
7
  6
CONTINUOUS
 10
159.401867028
 20
30.8519093441
 11
159.1128043074
 21
30.8519093441
  0
LINE
  8
0
 62
7
  6
CONTINUOUS
 10
151.4237418626
 20
30.9164367395
 11
151.1346793074
 21
30.9164367395
  0
LINE
  8
0
 62
7
  6
CONTINUOUS
 10
150.498741835
 20
31.4971831403
 11
150.9034292799
 21
31.4649194539
  0
LINE
  8
0
 62
7
  6
CONTINUOUS
 10
150.9612418074
 20
31.5939741996
 11
150.5565542799
 21
31.626237886
  0
LINE
  8
0
 62
7
  6
CONTINUOUS
 10
159.575304528
 20
30.6260635193
 11
159.922179528
 21
30.5937998301
  0
LINE
  8
0
 62
7
  6
CONTINUOUS
 10
159.922179528
 20
30.7228545871
 11
159.575304528
 21
30.7551182848
  0
LINE
  8
0
 62
7
  6
CONTINUOUS
 10
155.3549915869
 20
31.5939741996
 11
155.0081169177
 21
31.626237886
  0
LINE
  8
0
 62
7
  6
CONTINUOUS
 10
160.1534293074
 20
31.4971831403
 11
160.5003043074
 21
31.4649194539
  0
LINE
  8
0
 62
7
  6
CONTINUOUS
 10
160.5003043074
 20
31.5939741996
 11
160.1534293074
 21
31.626237886
  0
LINE
  8
0
 62
7
  6
CONTINUOUS
 10
157.840929528
 20
31.4971831403
 11
158.0721793074
 21
31.4649194539
  0
LINE
  8
0
 62
7
  6
CONTINUOUS
 10
160.6737418074
 20
31.5617105132
 11
160.5003043074
 21
31.5939741996
  0
LINE
  8
0
 62
7
  6
CONTINUOUS
 10
160.8471793074
 20
30.6905909007
 11
160.9628038663
 21
30.7873819712
  0
LINE
  8
0
 62
7
  6
CONTINUOUS
 10
155.3549915869
 20
30.8841730531
 11
155.1815540869
 21
30.7873819712
  0
LINE
  8
0
 62
7
  6
CONTINUOUS
 10
157.4362415869
 20
31.5294468267
 11
157.320617028
 21
31.4649194539
  0
LINE
  8
0
 62
7
  6
CONTINUOUS
 10
157.320617028
 20
31.3358647082
 11
157.4362415869
 21
31.400392081
  0
LINE
  8
0
 62
7
  6
CONTINUOUS
 10
150.0362418212
 20
31.5617105132
 11
149.8628043005
 21
31.4971831403
  0
LINE
  8
0
 62
7
  6
CONTINUOUS
 10
152.4643666972
 20
31.5939741996
 11
152.2909293626
 21
31.5294468267
  0
LINE
  8
0
 62
7
  6
CONTINUOUS
 10
152.2909293626
 20
31.400392081
 11
152.4643666972
 21
31.4649194539
  0
LINE
  8
0
 62
7
  6
CONTINUOUS
 10
151.0768668626
 20
30.8196456577
 11
150.9034292799
 21
30.7551182848
  0
LINE
  8
0
 62
7
  6
CONTINUOUS
 10
160.5003043074
 20
30.7551182848
 11
160.269054528
 21
30.7228545871
  0
LINE
  8
0
 62
7
  6
CONTINUOUS
 10
154.8924916972
 20
30.5937998301
 11
155.1815540869
 21
30.6260635193
  0
LINE
  8
0
 62
7
  6
CONTINUOUS
 10
160.269054528
 20
30.5937998301
 11
160.615929528
 21
30.6260635193
  0
LINE
  8
0
 62
7
  6
CONTINUOUS
 10
150.5565542799
 20
30.5937998301
 11
150.9612418074
 21
30.6260635193
  0
LINE
  8
0
 62
7
  6
CONTINUOUS
 10
150.9034292799
 20
30.7551182848
 11
150.498741835
 21
30.7228545871
  0
LINE
  8
0
 62
7
  6
CONTINUOUS
 10
154.7768668074
 20
31.1422825445
 11
155.412804528
 21
31.1422825445
  0
LINE
  8
0
 62
7
  6
CONTINUOUS
 10
155.412804528
 20
31.2713373354
 11
154.7768668074
 21
31.2713373354
  0
LINE
  8
0
 62
7
  6
CONTINUOUS
 10
151.1346793074
 20
31.3036010218
 11
151.4237418626
 21
31.3036010218
  0
LINE
  8
0
 62
7
  6
CONTINUOUS
 10
153.9674919177
 20
31.3681283946
 11
154.2565543074
 21
31.3681283946
  0
LINE
  8
0
 62
7
  6
CONTINUOUS
 10
160.6737418074
 20
31.3681283946
 11
160.9628038663
 21
31.3681283946
  0
LINE
  8
0
 62
7
  6
CONTINUOUS
 10
154.6612419177
 20
31.4971831403
 11
155.0081169177
 21
31.4971831403
  0
LINE
  8
0
 62
7
  6
CONTINUOUS
 10
159.8065543074
 20
31.4971831403
 11
160.1534293074
 21
31.4971831403
  0
LINE
  8
0
 62
7
  6
CONTINUOUS
 10
160.1534293074
 20
31.626237886
 11
159.8065543074
 21
31.626237886
  0
LINE
  8
0
 62
7
  6
CONTINUOUS
 10
158.0721793074
 20
31.626237886
 11
157.840929528
 21
31.626237886
  0
LINE
  8
0
 62
7
  6
CONTINUOUS
 10
157.320617028
 20
31.626237886
 11
157.0315543074
 21
31.626237886
  0
LINE
  8
0
 62
7
  6
CONTINUOUS
 10
156.5690540869
 20
31.626237886
 11
156.279992028
 21
31.626237886
  0
LINE
  8
0
 62
7
  6
CONTINUOUS
 10
155.0081169177
 20
31.626237886
 11
154.6612419177
 21
31.626237886
  0
LINE
  8
0
 62
7
  6
CONTINUOUS
 10
152.9268669177
 20
31.626237886
 11
152.6956168074
 21
31.626237886
  0
LINE
  8
0
 62
7
  6
CONTINUOUS
 10
156.279992028
 20
31.9488748406
 11
156.5690540869
 21
31.9488748406
  0
LINE
  8
0
 62
7
  6
CONTINUOUS
 10
156.5690540869
 20
32.1101932727
 11
156.279992028
 21
32.1101932727
  0
LINE
  8
0
 62
7
  6
CONTINUOUS
 10
152.1753043074
 20
32.1101932727
 11
151.8862417523
 21
32.1101932727
  0
LINE
  8
0
 62
7
  6
CONTINUOUS
 10
151.2130860697
 20
32.3970785186
 11
151.6256574183
 21
32.3970785186
  0
LINE
  8
0
 62
7
  6
CONTINUOUS
 10
152.852430332
 20
32.3970785186
 11
154.245872955
 21
32.3970785186
  0
LINE
  8
0
 62
7
  6
CONTINUOUS
 10
154.5737418074
 20
32.3970785186
 11
155.9671844304
 21
32.3970785186
  0
LINE
  8
0
 62
7
  6
CONTINUOUS
 10
157.852430332
 20
32.3970785186
 11
159.245872955
 21
32.3970785186
  0
LINE
  8
0
 62
7
  6
CONTINUOUS
 10
159.5737418074
 20
32.3970785186
 11
160.9671844304
 21
32.3970785186
  0
LINE
  8
0
 62
7
  6
CONTINUOUS
 10
157.6096790869
 20
31.5939741996
 11
157.4362415869
 21
31.5294468267
  0
LINE
  8
0
 62
7
  6
CONTINUOUS
 10
155.1815540869
 20
30.6260635193
 11
155.3549915869
 21
30.6905909007
  0
LINE
  8
0
 62
7
  6
CONTINUOUS
 10
160.615929528
 20
30.6260635193
 11
160.8471793074
 21
30.6905909007
  0
LINE
  8
0
 62
7
  6
CONTINUOUS
 10
160.615929528
 20
30.7873819712
 11
160.5003043074
 21
30.7551182848
  0
LINE
  8
0
 62
7
  6
CONTINUOUS
 10
159.575304528
 20
31.4649194539
 11
159.8065543074
 21
31.4971831403
  0
LINE
  8
0
 62
7
  6
CONTINUOUS
 10
157.6096790869
 20
31.4649194539
 11
157.840929528
 21
31.4971831403
  0
LINE
  8
0
 62
7
  6
CONTINUOUS
 10
154.5456166972
 20
31.1100188581
 11
154.7768668074
 21
31.1422825445
  0
LINE
  8
0
 62
7
  6
CONTINUOUS
 10
157.840929528
 20
31.626237886
 11
157.6096790869
 21
31.5939741996
  0
LINE
  8
0
 62
7
  6
CONTINUOUS
 10
154.4299918074
 20
31.4649194539
 11
154.6612419177
 21
31.4971831403
  0
LINE
  8
0
 62
7
  6
CONTINUOUS
 10
159.8065543074
 20
31.626237886
 11
159.4596793074
 21
31.5939741996
  0
LINE
  8
0
 62
7
  6
CONTINUOUS
 10
154.7768668074
 20
31.2713373354
 11
154.4299918074
 21
31.2390736489
  0
LINE
  8
0
 62
7
  6
CONTINUOUS
 10
150.5565542799
 20
31.626237886
 11
150.2096793212
 21
31.5939741996
  0
LINE
  8
0
 62
7
  6
CONTINUOUS
 10
154.6612419177
 20
31.626237886
 11
154.2565543074
 21
31.5939741996
  0
LINE
  8
0
 62
7
  6
CONTINUOUS
 10
152.0327582009
 20
33.5446195022
 11
151.3770204959
 21
33.5446195022
  0
LINE
  8
0
 62
7
  6
CONTINUOUS
 10
157.4362415869
 20
31.400392081
 11
157.6096790869
 21
31.4649194539
  0
LINE
  8
0
 62
7
  6
CONTINUOUS
 10
159.4596793074
 20
31.4326557675
 11
159.575304528
 21
31.4649194539
  0
LINE
  8
0
 62
7
  6
CONTINUOUS
 10
159.4596793074
 20
31.5939741996
 11
159.228429528
 21
31.5294468267
  0
LINE
  8
0
 62
7
  6
CONTINUOUS
 10
155.1815540869
 20
30.7873819712
 11
154.8924916972
 21
30.7228545871
  0
LINE
  8
0
 62
7
  6
CONTINUOUS
 10
152.4643666972
 20
31.4649194539
 11
152.6956168074
 21
31.4971831403
  0
LINE
  8
0
 62
7
  6
CONTINUOUS
 10
152.6956168074
 20
31.626237886
 11
152.4643666972
 21
31.5939741996
  0
LINE
  8
0
 62
7
  6
CONTINUOUS
 10
150.2674918074
 20
31.4649194539
 11
150.498741835
 21
31.4971831403
  0
LINE
  8
0
 62
7
  6
CONTINUOUS
 10
156.7868565615
 20
35.0200293383
 11
157.4425942664
 21
35.0200293383
  0
LINE
  8
0
 62
7
  6
CONTINUOUS
 10
154.4299918074
 20
31.0777551716
 11
154.5456166972
 21
31.1100188581
  0
LINE
  8
0
 62
7
  6
CONTINUOUS
 10
154.4299918074
 20
31.2390736489
 11
154.1987416972
 21
31.1745462761
  0
LINE
  8
0
 62
7
  6
CONTINUOUS
 10
154.3143669177
 20
31.4326557675
 11
154.4299918074
 21
31.4649194539
  0
LINE
  8
0
 62
7
  6
CONTINUOUS
 10
150.9612418074
 20
30.6260635193
 11
151.1924917523
 21
30.6905909007
  0
LINE
  8
0
 62
7
  6
CONTINUOUS
 10
154.2565543074
 20
31.5939741996
 11
154.1409294177
 21
31.5617105132
  0
LINE
  8
0
 62
7
  6
CONTINUOUS
 10
150.2096793212
 20
31.5939741996
 11
150.0362418212
 21
31.5617105132
  0
LINE
  8
0
 62
7
  6
CONTINUOUS
 10
160.9671844304
 20
36.1675703219
 11
159.5737418074
 21
36.1675703219
  0
LINE
  8
0
 62
7
  6
CONTINUOUS
 10
157.6065286927
 20
36.1675703219
 11
157.1939573441
 21
36.1675703219
  0
LINE
  8
0
 62
7
  6
CONTINUOUS
 10
155.9671844304
 20
36.1675703219
 11
154.5737418074
 21
36.1675703219
  0
LINE
  8
0
 62
7
  6
CONTINUOUS
 10
154.245872955
 20
36.1675703219
 11
152.852430332
 21
36.1675703219
  0
LINE
  8
0
 62
7
  6
CONTINUOUS
 10
150.9671844304
 20
36.1675703219
 11
149.5737418074
 21
36.1675703219
  0
LINE
  8
0
 62
7
  6
CONTINUOUS
 10
150.1518667936
 20
31.4326557675
 11
150.2674918074
 21
31.4649194539
  0
CIRCLE
  8
0
 62
7
  6
CONTINUOUS
 10
160.2704631189
 20
38.5036358957
 40
2.0901639344
  0
ARC
  8
0
 62
7
  6
CONTINUOUS
 10
151.2130860697
 20
34.0364227809
 40
1.6393442623
 50
180.0
 51
270.0
  0
ARC
  8
0
 62
7
  6
CONTINUOUS
 10
157.6065286927
 20
34.5282260596
 40
1.6393442623
 50
0.0
 51
90.0
  0
ARC
  8
0
 62
7
  6
CONTINUOUS
 10
151.6256574183
 20
33.8724883547
 40
1.4754098361
 50
270.0
 51
326.2510114041
  0
ARC
  8
0
 62
7
  6
CONTINUOUS
 10
157.1939573441
 20
34.6921604858
 40
1.4754098361
 50
90.0
 51
146.2510114041
  0
ARC
  8
0
 62
7
  6
CONTINUOUS
 10
152.0327582009
 20
34.3642916334
 40
0.8196721311
 50
270.0
 51
360.0
  0
ARC
  8
0
 62
7
  6
CONTINUOUS
 10
156.7868565615
 20
34.2003572071
 40
0.8196721311
 50
90.0
 51
180.0
  0
ARC
  8
0
 62
7
  6
CONTINUOUS
 10
151.3770204959
 20
33.9544555678
 40
0.4098360656
 50
180.0
 51
270.0
  0
ARC
  8
0
 62
7
  6
CONTINUOUS
 10
157.4425942664
 20
34.6101932727
 40
0.4098360656
 50
0.0
 51
90.0
  0
SOLID
  8
0
 62
7
  6
CONTINUOUS
 10
156.279992028
 20
31.9488752009
 11
156.279992028
 21
32.1101936845
 12
156.5690540869
 22
31.9488752009
 13
156.5690540869
 23
32.1101936845
  0
SOLID
  8
0
 62
7
  6
CONTINUOUS
 10
150.5565542799
 20
31.6262382337
 11
150.9612418074
 21
31.5939740028
 12
150.2096793212
 22
31.5939740028
 13
150.2096793212
 23
31.5939740028
  0
SOLID
  8
0
 62
7
  6
CONTINUOUS
 10
150.0362418212
 20
31.5617111435
 11
150.2096793212
 21
31.5939740028
 12
150.9612418074
 22
31.5939740028
 13
150.9612418074
 23
31.5939740028
  0
SOLID
  8
0
 62
7
  6
CONTINUOUS
 10
150.9612418074
 20
31.5939740028
 11
151.1924917523
 21
31.5294468402
 12
150.0362418212
 22
31.5617111435
 13
150.0362418212
 23
31.5617111435
  0
SOLID
  8
0
 62
7
  6
CONTINUOUS
 10
149.8628043005
 20
31.49718259
 11
150.0362418212
 21
31.5617111435
 12
151.1924917523
 22
31.5294468402
 13
151.1924917523
 23
31.5294468402
  0
SOLID
  8
0
 62
7
  6
CONTINUOUS
 10
149.8628043005
 20
31.49718259
 11
151.1924917523
 21
31.5294468402
 12
150.498741835
 22
31.49718259
 13
150.498741835
 23
31.49718259
  0
SOLID
  8
0
 62
7
  6
CONTINUOUS
 10
150.498741835
 20
31.49718259
 11
151.1924917523
 21
31.5294468402
 12
150.9034292799
 22
31.4649197501
 13
150.9034292799
 23
31.4649197501
  0
SOLID
  8
0
 62
7
  6
CONTINUOUS
 10
151.1924917523
 20
31.5294468402
 11
151.3659292523
 21
31.4326554468
 12
150.9034292799
 22
31.4649197501
 13
150.9034292799
 23
31.4649197501
  0
SOLID
  8
0
 62
7
  6
CONTINUOUS
 10
151.0768668626
 20
31.4003926599
 11
150.9034292799
 21
31.4649197501
 12
151.3659292523
 22
31.4326554468
 13
151.3659292523
 23
31.4326554468
  0
SOLID
  8
0
 62
7
  6
CONTINUOUS
 10
151.0768668626
 20
31.4003926599
 11
151.3659292523
 21
31.4326554468
 12
151.1346793074
 22
31.3036013776
 13
151.1346793074
 23
31.3036013776
  0
SOLID
  8
0
 62
7
  6
CONTINUOUS
 10
151.3659292523
 20
31.4326554468
 11
151.4237418626
 21
31.3036013776
 12
151.1346793074
 22
31.3036013776
 13
151.1346793074
 23
31.3036013776
  0
SOLID
  8
0
 62
7
  6
CONTINUOUS
 10
152.4643666972
 20
31.5939739754
 11
152.6956168074
 21
31.6262382787
 12
152.9268669177
 22
31.6262382787
 13
152.9268669177
 23
31.6262382787
  0
SOLID
  8
0
 62
7
  6
CONTINUOUS
 10
152.9268669177
 20
31.6262382787
 11
153.1003044177
 21
31.5939739754
 12
152.4643666972
 22
31.5939739754
 13
152.4643666972
 23
31.5939739754
  0
SOLID
  8
0
 62
7
  6
CONTINUOUS
 10
152.2909293626
 20
31.5294468852
 11
152.4643666972
 21
31.5939739754
 12
153.1003044177
 22
31.5939739754
 13
153.1003044177
 23
31.5939739754
  0
SOLID
  8
0
 62
7
  6
CONTINUOUS
 10
153.1003044177
 20
31.5939739754
 11
153.2737419177
 21
31.5294468852
 12
152.2909293626
 22
31.5294468852
 13
152.2909293626
 23
31.5294468852
  0
SOLID
  8
0
 62
7
  6
CONTINUOUS
 10
153.2737419177
 20
31.5294468852
 11
152.6956168074
 21
31.4971825369
 12
152.2909293626
 22
31.5294468852
 13
152.2909293626
 23
31.5294468852
  0
SOLID
  8
0
 62
7
  6
CONTINUOUS
 10
152.1753043074
 20
31.4649197951
 11
152.2909293626
 21
31.5294468852
 12
152.6956168074
 22
31.4971825369
 13
152.6956168074
 23
31.4971825369
  0
SOLID
  8
0
 62
7
  6
CONTINUOUS
 10
152.6956168074
 20
31.4971825369
 11
152.4643666972
 21
31.4649197951
 12
152.1753043074
 22
31.4649197951
 13
152.1753043074
 23
31.4649197951
  0
SOLID
  8
0
 62
7
  6
CONTINUOUS
 10
152.6956168074
 20
31.4971825369
 11
153.2737419177
 21
31.5294468852
 12
152.9268669177
 22
31.4649197951
 13
152.9268669177
 23
31.4649197951
  0
SOLID
  8
0
 62
7
  6
CONTINUOUS
 10
153.2737419177
 20
31.5294468852
 11
153.3893668074
 21
31.4649197951
 12
152.9268669177
 22
31.4649197951
 13
152.9268669177
 23
31.4649197951
  0
SOLID
  8
0
 62
7
  6
CONTINUOUS
 10
153.0424918074
 20
31.4326554468
 11
152.9268669177
 21
31.4649197951
 12
153.3893668074
 22
31.4649197951
 13
153.3893668074
 23
31.4649197951
  0
SOLID
  8
0
 62
7
  6
CONTINUOUS
 10
153.3893668074
 20
31.4649197951
 11
153.4471794177
 21
31.4003927049
 12
153.0424918074
 22
31.4326554468
 13
153.0424918074
 23
31.4326554468
  0
SOLID
  8
0
 62
7
  6
CONTINUOUS
 10
153.1581166972
 20
31.3681283566
 11
153.0424918074
 21
31.4326554468
 12
153.4471794177
 22
31.4003927049
 13
153.4471794177
 23
31.4003927049
  0
SOLID
  8
0
 62
7
  6
CONTINUOUS
 10
153.1581166972
 20
31.3681283566
 11
153.4471794177
 21
31.4003927049
 12
153.2159293074
 22
31.2390742213
 13
153.2159293074
 23
31.2390742213
  0
SOLID
  8
0
 62
7
  6
CONTINUOUS
 10
153.4471794177
 20
31.4003927049
 11
153.5049916972
 21
31.2390742213
 12
153.2159293074
 22
31.2390742213
 13
153.2159293074
 23
31.2390742213
  0
SOLID
  8
0
 62
7
  6
CONTINUOUS
 10
152.4643666972
 20
31.4649197951
 11
152.2909293626
 21
31.4003927049
 12
152.1753043074
 22
31.4649197951
 13
152.1753043074
 23
31.4649197951
  0
SOLID
  8
0
 62
7
  6
CONTINUOUS
 10
152.2909293626
 20
31.4003927049
 11
152.1753043074
 21
31.3358640533
 12
152.1753043074
 22
31.4649197951
 13
152.1753043074
 23
31.4649197951
  0
SOLID
  8
0
 62
7
  6
CONTINUOUS
 10
152.1753043074
 20
31.3358640533
 11
151.8862417523
 21
30.5938002869
 12
152.1753043074
 22
31.4649197951
 13
152.1753043074
 23
31.4649197951
  0
SOLID
  8
0
 62
7
  6
CONTINUOUS
 10
152.1753043074
 20
31.4649197951
 11
151.8862417523
 21
30.5938002869
 12
152.1753043074
 22
32.1101937295
 13
152.1753043074
 23
32.1101937295
  0
SOLID
  8
0
 62
7
  6
CONTINUOUS
 10
151.8862417523
 20
30.5938002869
 11
151.8862417523
 21
32.1101937295
 12
152.1753043074
 22
32.1101937295
 13
152.1753043074
 23
32.1101937295
  0
SOLID
  8
0
 62
7
  6
CONTINUOUS
 10
152.1753043074
 20
31.3358640533
 11
152.1753043074
 21
30.5938002869
 12
151.8862417523
 22
30.5938002869
 13
151.8862417523
 23
30.5938002869
  0
SOLID
  8
0
 62
7
  6
CONTINUOUS
 10
153.2159293074
 20
30.5938002869
 11
153.2159293074
 21
31.2390742213
 12
153.5049916972
 22
31.2390742213
 13
153.5049916972
 23
31.2390742213
  0
SOLID
  8
0
 62
7
  6
CONTINUOUS
 10
153.5049916972
 20
31.2390742213
 11
153.5049916972
 21
30.5938002869
 12
153.2159293074
 22
30.5938002869
 13
153.2159293074
 23
30.5938002869
  0
SOLID
  8
0
 62
7
  6
CONTINUOUS
 10
154.2565543074
 20
31.5939738288
 11
154.6612419177
 21
31.6262385959
 12
155.0081169177
 22
31.6262385959
 13
155.0081169177
 23
31.6262385959
  0
SOLID
  8
0
 62
7
  6
CONTINUOUS
 10
155.0081169177
 20
31.6262385959
 11
155.3549915869
 21
31.5939738288
 12
154.2565543074
 22
31.5939738288
 13
154.2565543074
 23
31.5939738288
  0
SOLID
  8
0
 62
7
  6
CONTINUOUS
 10
154.1409294177
 20
31.5617111435
 11
154.2565543074
 21
31.5939738288
 12
155.3549915869
 22
31.5939738288
 13
155.3549915869
 23
31.5939738288
  0
SOLID
  8
0
 62
7
  6
CONTINUOUS
 10
155.3549915869
 20
31.5939738288
 11
155.5284290869
 21
31.5294468402
 12
154.1409294177
 22
31.5617111435
 13
154.1409294177
 23
31.5617111435
  0
SOLID
  8
0
 62
7
  6
CONTINUOUS
 10
154.0253041972
 20
31.4971826249
 11
154.1409294177
 21
31.5617111435
 12
155.5284290869
 22
31.5294468402
 13
155.5284290869
 23
31.5294468402
  0
SOLID
  8
0
 62
7
  6
CONTINUOUS
 10
154.0253041972
 20
31.4971826249
 11
155.5284290869
 21
31.5294468402
 12
154.6612419177
 22
31.4971826249
 13
154.6612419177
 23
31.4971826249
  0
SOLID
  8
0
 62
7
  6
CONTINUOUS
 10
154.6612419177
 20
31.4971826249
 11
155.5284290869
 21
31.5294468402
 12
155.0081169177
 22
31.4971826249
 13
155.0081169177
 23
31.4971826249
  0
SOLID
  8
0
 62
7
  6
CONTINUOUS
 10
155.0081169177
 20
31.4971826249
 11
155.5284290869
 21
31.5294468402
 12
155.239367028
 22
31.4649194065
 13
155.239367028
 23
31.4649194065
  0
SOLID
  8
0
 62
7
  6
CONTINUOUS
 10
155.5284290869
 20
31.5294468402
 11
155.6440543074
 21
31.4649194065
 12
155.239367028
 22
31.4649194065
 13
155.239367028
 23
31.4649194065
  0
SOLID
  8
0
 62
7
  6
CONTINUOUS
 10
153.9674919177
 20
31.4326554138
 11
154.0253041972
 21
31.4971826249
 12
154.6612419177
 22
31.4971826249
 13
154.6612419177
 23
31.4971826249
  0
SOLID
  8
0
 62
7
  6
CONTINUOUS
 10
155.3549915869
 20
31.4326554138
 11
155.239367028
 21
31.4649194065
 12
155.6440543074
 22
31.4649194065
 13
155.6440543074
 23
31.4649194065
  0
SOLID
  8
0
 62
7
  6
CONTINUOUS
 10
155.3549915869
 20
31.4326554138
 11
155.6440543074
 21
31.4649194065
 12
155.412804528
 22
31.3681282026
 13
155.412804528
 23
31.3681282026
  0
SOLID
  8
0
 62
7
  6
CONTINUOUS
 10
155.6440543074
 20
31.4649194065
 11
155.7018665869
 21
31.3681282026
 12
155.412804528
 22
31.3681282026
 13
155.412804528
 23
31.3681282026
  0
SOLID
  8
0
 62
7
  6
CONTINUOUS
 10
155.412804528
 20
31.2713369632
 11
155.412804528
 21
31.3681282026
 12
155.7018665869
 22
31.3681282026
 13
155.7018665869
 23
31.3681282026
  0
SOLID
  8
0
 62
7
  6
CONTINUOUS
 10
155.412804528
 20
31.2713369632
 11
155.7018665869
 21
31.3681282026
 12
155.412804528
 22
31.1422827828
 13
155.412804528
 23
31.1422827828
  0
SOLID
  8
0
 62
7
  6
CONTINUOUS
 10
155.412804528
 20
31.1422827828
 11
155.7018665869
 21
31.3681282026
 12
155.412804528
 22
30.9487004259
 13
155.412804528
 23
30.9487004259
  0
SOLID
  8
0
 62
7
  6
CONTINUOUS
 10
155.7018665869
 20
31.3681282026
 11
155.7018665869
 21
30.8519086025
 12
155.412804528
 22
30.9487004259
 13
155.412804528
 23
30.9487004259
  0
SOLID
  8
0
 62
7
  6
CONTINUOUS
 10
157.6096790869
 20
31.5939736268
 11
157.840929528
 21
31.6262383465
 12
158.0721793074
 22
31.6262383465
 13
158.0721793074
 23
31.6262383465
  0
SOLID
  8
0
 62
7
  6
CONTINUOUS
 10
158.0721793074
 20
31.6262383465
 11
158.2456168074
 21
31.5939736268
 12
157.6096790869
 22
31.5939736268
 13
157.6096790869
 23
31.5939736268
  0
SOLID
  8
0
 62
7
  6
CONTINUOUS
 10
157.4362415869
 20
31.5294472848
 11
157.6096790869
 21
31.5939736268
 12
158.2456168074
 22
31.5939736268
 13
158.2456168074
 23
31.5939736268
  0
SOLID
  8
0
 62
7
  6
CONTINUOUS
 10
158.2456168074
 20
31.5939736268
 11
158.4190543074
 21
31.5294472848
 12
157.4362415869
 22
31.5294472848
 13
157.4362415869
 23
31.5294472848
  0
SOLID
  8
0
 62
7
  6
CONTINUOUS
 10
158.4190543074
 20
31.5294472848
 11
157.840929528
 21
31.4971825369
 12
157.4362415869
 22
31.5294472848
 13
157.4362415869
 23
31.5294472848
  0
SOLID
  8
0
 62
7
  6
CONTINUOUS
 10
157.320617028
 20
31.4649199103
 11
157.4362415869
 21
31.5294472848
 12
157.840929528
 22
31.4971825369
 13
157.840929528
 23
31.4971825369
  0
SOLID
  8
0
 62
7
  6
CONTINUOUS
 10
157.840929528
 20
31.4971825369
 11
157.6096790869
 21
31.4649199103
 12
157.320617028
 22
31.4649199103
 13
157.320617028
 23
31.4649199103
  0
SOLID
  8
0
 62
7
  6
CONTINUOUS
 10
157.840929528
 20
31.4971825369
 11
158.4190543074
 21
31.5294472848
 12
158.0721793074
 22
31.4649199103
 13
158.0721793074
 23
31.4649199103
  0
SOLID
  8
0
 62
7
  6
CONTINUOUS
 10
158.4190543074
 20
31.5294472848
 11
158.534679528
 21
31.4649199103
 12
158.0721793074
 22
31.4649199103
 13
158.0721793074
 23
31.4649199103
  0
SOLID
  8
0
 62
7
  6
CONTINUOUS
 10
158.187804528
 20
31.4326554468
 11
158.0721793074
 21
31.4649199103
 12
158.534679528
 22
31.4649199103
 13
158.534679528
 23
31.4649199103
  0
SOLID
  8
0
 62
7
  6
CONTINUOUS
 10
158.187804528
 20
31.4326554468
 11
158.534679528
 21
31.4649199103
 12
158.3034290869
 22
31.3681288486
 13
158.3034290869
 23
31.3681288486
  0
SOLID
  8
0
 62
7
  6
CONTINUOUS
 10
158.534679528
 20
31.4649199103
 11
158.5924918074
 21
31.3681288486
 12
158.3034290869
 22
31.3681288486
 13
158.3034290869
 23
31.3681288486
  0
SOLID
  8
0
 62
7
  6
CONTINUOUS
 10
158.361242028
 20
31.2068093799
 11
158.3034290869
 21
31.3681288486
 12
158.5924918074
 22
31.3681288486
 13
158.5924918074
 23
31.3681288486
  0
SOLID
  8
0
 62
7
  6
CONTINUOUS
 10
158.5924918074
 20
31.3681288486
 11
158.6503040869
 21
31.2068093799
 12
158.361242028
 22
31.2068093799
 13
158.361242028
 23
31.2068093799
  0
SOLID
  8
0
 62
7
  6
CONTINUOUS
 10
157.6096790869
 20
31.4649199103
 11
157.4362415869
 21
31.4003926599
 12
157.320617028
 22
31.4649199103
 13
157.320617028
 23
31.4649199103
  0
SOLID
  8
0
 62
7
  6
CONTINUOUS
 10
157.4362415869
 20
31.4003926599
 11
157.320617028
 21
31.3358640533
 12
157.320617028
 22
31.4649199103
 13
157.320617028
 23
31.4649199103
  0
SOLID
  8
0
 62
7
  6
CONTINUOUS
 10
157.320617028
 20
31.3358640533
 11
157.0315543074
 21
30.5938003547
 12
157.320617028
 22
31.4649199103
 13
157.320617028
 23
31.4649199103
  0
SOLID
  8
0
 62
7
  6
CONTINUOUS
 10
157.320617028
 20
31.4649199103
 11
157.0315543074
 21
30.5938003547
 12
157.320617028
 22
31.6262383465
 13
157.320617028
 23
31.6262383465
  0
SOLID
  8
0
 62
7
  6
CONTINUOUS
 10
157.0315543074
 20
30.5938003547
 11
157.0315543074
 21
31.6262383465
 12
157.320617028
 22
31.6262383465
 13
157.320617028
 23
31.6262383465
  0
SOLID
  8
0
 62
7
  6
CONTINUOUS
 10
157.320617028
 20
31.3358640533
 11
157.320617028
 21
30.5938003547
 12
157.0315543074
 22
30.5938003547
 13
157.0315543074
 23
30.5938003547
  0
SOLID
  8
0
 62
7
  6
CONTINUOUS
 10
158.361242028
 20
30.5938003547
 11
158.361242028
 21
31.2068093799
 12
158.6503040869
 22
31.2068093799
 13
158.6503040869
 23
31.2068093799
  0
SOLID
  8
0
 62
7
  6
CONTINUOUS
 10
158.6503040869
 20
31.2068093799
 11
158.6503040869
 21
30.5938003547
 12
158.361242028
 22
30.5938003547
 13
158.361242028
 23
30.5938003547
  0
SOLID
  8
0
 62
7
  6
CONTINUOUS
 10
159.4596793074
 20
31.5939739474
 11
159.8065543074
 21
31.6262381969
 12
160.1534293074
 22
31.6262381969
 13
160.1534293074
 23
31.6262381969
  0
SOLID
  8
0
 62
7
  6
CONTINUOUS
 10
160.1534293074
 20
31.6262381969
 11
160.5003043074
 21
31.5939739474
 12
159.4596793074
 22
31.5939739474
 13
159.4596793074
 23
31.5939739474
  0
SOLID
  8
0
 62
7
  6
CONTINUOUS
 10
159.228429528
 20
31.5294468402
 11
159.4596793074
 21
31.5939739474
 12
160.5003043074
 22
31.5939739474
 13
160.5003043074
 23
31.5939739474
  0
SOLID
  8
0
 62
7
  6
CONTINUOUS
 10
159.228429528
 20
31.5294468402
 11
160.5003043074
 21
31.5939739304
 12
160.6737418074
 22
31.5617111435
 13
160.6737418074
 23
31.5617111435
  0
SOLID
  8
0
 62
7
  6
CONTINUOUS
 10
159.228429528
 20
31.5294468402
 11
160.6737418074
 21
31.5617111435
 12
159.8065543074
 22
31.4971825592
 13
159.8065543074
 23
31.4971825592
  0
SOLID
  8
0
 62
7
  6
CONTINUOUS
 10
159.8065543074
 20
31.4971825592
 11
160.6737418074
 21
31.5617111435
 12
160.1534293074
 22
31.4971825592
 13
160.1534293074
 23
31.4971825592
  0
SOLID
  8
0
 62
7
  6
CONTINUOUS
 10
160.6737418074
 20
31.5617111435
 11
160.8471793074
 21
31.4971825592
 12
160.1534293074
 22
31.4971825592
 13
160.1534293074
 23
31.4971825592
  0
SOLID
  8
0
 62
7
  6
CONTINUOUS
 10
160.5003043074
 20
31.4649197501
 11
160.1534293074
 21
31.4971825592
 12
160.8471793074
 22
31.4971825592
 13
160.8471793074
 23
31.4971825592
  0
SOLID
  8
0
 62
7
  6
CONTINUOUS
 10
159.1128043074
 20
31.4326555427
 11
159.228429528
 21
31.5294468402
 12
159.8065543074
 22
31.4971825592
 13
159.8065543074
 23
31.4971825592
  0
SOLID
  8
0
 62
7
  6
CONTINUOUS
 10
160.5003043074
 20
31.4649197501
 11
160.8471793074
 21
31.4971825592
 12
160.615929528
 22
31.4326555427
 13
160.615929528
 23
31.4326555427
  0
SOLID
  8
0
 62
7
  6
CONTINUOUS
 10
160.615929528
 20
31.4326555427
 11
160.8471793074
 21
31.4971825592
 12
160.6737418074
 22
31.3681283005
 13
160.6737418074
 23
31.3681283005
  0
SOLID
  8
0
 62
7
  6
CONTINUOUS
 10
160.8471793074
 20
31.4971825592
 11
160.9628038663
 21
31.3681283005
 12
160.6737418074
 22
31.3681283005
 13
160.6737418074
 23
31.3681283005
  0
SOLID
  8
0
 62
7
  6
CONTINUOUS
 10
150.2674918074
 20
31.4649197501
 11
149.7471793074
 21
31.4326554237
 12
150.498741835
 22
31.4971824493
 13
150.498741835
 23
31.4971824493
  0
SOLID
  8
0
 62
7
  6
CONTINUOUS
 10
149.7471793074
 20
31.4326554237
 11
149.8628043005
 21
31.4971824493
 12
150.498741835
 22
31.4971824493
 13
150.498741835
 23
31.4971824493
  0
SOLID
  8
0
 62
7
  6
CONTINUOUS
 10
150.2674918074
 20
31.4649197501
 11
150.1518667936
 21
31.4326554237
 12
149.7471793074
 22
31.4326554237
 13
149.7471793074
 23
31.4326554237
  0
SOLID
  8
0
 62
7
  6
CONTINUOUS
 10
149.6315543091
 20
31.3036012664
 11
149.7471793074
 21
31.4326554237
 12
150.1518667936
 22
31.4326554237
 13
150.1518667936
 23
31.4326554237
  0
SOLID
  8
0
 62
7
  6
CONTINUOUS
 10
153.9674919177
 20
31.4326554237
 11
154.6612419177
 21
31.4971825369
 12
154.4299918074
 22
31.4649197501
 13
154.4299918074
 23
31.4649197501
  0
SOLID
  8
0
 62
7
  6
CONTINUOUS
 10
154.4299918074
 20
31.4649197501
 11
154.3143669177
 21
31.4326554237
 12
153.9674919177
 22
31.4326554237
 13
153.9674919177
 23
31.4326554237
  0
SOLID
  8
0
 62
7
  6
CONTINUOUS
 10
153.9674919177
 20
31.3681283335
 11
153.9674919177
 21
31.4326554237
 12
154.3143669177
 22
31.4326554237
 13
154.3143669177
 23
31.4326554237
  0
SOLID
  8
0
 62
7
  6
CONTINUOUS
 10
154.3143669177
 20
31.4326554237
 11
154.2565543074
 21
31.3681283335
 12
153.9674919177
 22
31.3681283335
 13
153.9674919177
 23
31.3681283335
  0
SOLID
  8
0
 62
7
  6
CONTINUOUS
 10
159.1128043074
 20
31.4326555528
 11
159.8065543074
 21
31.4971825369
 12
159.575304528
 22
31.4649197501
 13
159.575304528
 23
31.4649197501
  0
SOLID
  8
0
 62
7
  6
CONTINUOUS
 10
159.575304528
 20
31.4649197501
 11
159.4596793074
 21
31.4326555528
 12
159.1128043074
 22
31.4326555528
 13
159.1128043074
 23
31.4326555528
  0
SOLID
  8
0
 62
7
  6
CONTINUOUS
 10
159.1128043074
 20
31.3681284626
 11
159.1128043074
 21
31.4326555528
 12
159.4596793074
 22
31.4326555528
 13
159.4596793074
 23
31.4326555528
  0
SOLID
  8
0
 62
7
  6
CONTINUOUS
 10
159.4596793074
 20
31.4326555528
 11
159.401867028
 21
31.3681284626
 12
159.1128043074
 22
31.3681284626
 13
159.1128043074
 23
31.3681284626
  0
SOLID
  8
0
 62
7
  6
CONTINUOUS
 10
159.228429528
 20
31.2390741763
 11
159.1128043074
 21
31.3681284626
 12
159.401867028
 22
31.3681284626
 13
159.401867028
 23
31.3681284626
  0
SOLID
  8
0
 62
7
  6
CONTINUOUS
 10
149.6315543091
 20
31.3036012664
 11
150.1518667936
 21
31.4326554468
 12
149.9784292936
 22
31.3358640533
 13
149.9784292936
 23
31.3358640533
  0
SOLID
  8
0
 62
7
  6
CONTINUOUS
 10
149.9784292936
 20
31.3358640533
 11
149.9206168074
 21
31.2713369632
 12
149.6315543091
 22
31.3036012664
 13
149.6315543091
 23
31.3036012664
  0
SOLID
  8
0
 62
7
  6
CONTINUOUS
 10
149.5737418074
 20
31.1100184796
 11
149.6315543091
 21
31.3036012664
 12
149.9206168074
 22
31.2713369632
 13
149.9206168074
 23
31.2713369632
  0
SOLID
  8
0
 62
7
  6
CONTINUOUS
 10
154.4299918074
 20
31.2390741763
 11
154.7768668074
 21
31.271336924
 12
155.412804528
 22
31.271336924
 13
155.412804528
 23
31.271336924
  0
SOLID
  8
0
 62
7
  6
CONTINUOUS
 10
154.4299918074
 20
31.2390741763
 11
155.412804528
 21
31.271336924
 12
154.1987416972
 22
31.1745462761
 13
154.1987416972
 23
31.1745462761
  0
SOLID
  8
0
 62
7
  6
CONTINUOUS
 10
154.1987416972
 20
31.1745462761
 11
155.412804528
 21
31.271336924
 12
154.7768668074
 22
31.1422827436
 13
154.7768668074
 23
31.1422827436
  0
SOLID
  8
0
 62
7
  6
CONTINUOUS
 10
155.412804528
 20
31.271336924
 11
155.412804528
 21
31.1422827436
 12
154.7768668074
 22
31.1422827436
 13
154.7768668074
 23
31.1422827436
  0
SOLID
  8
0
 62
7
  6
CONTINUOUS
 10
159.228429528
 20
31.2390745501
 11
159.401867028
 21
31.3681283566
 12
159.4596793074
 22
31.3036012664
 13
159.4596793074
 23
31.3036012664
  0
SOLID
  8
0
 62
7
  6
CONTINUOUS
 10
159.4596793074
 20
31.3036012664
 11
159.6331168074
 21
31.2390745501
 12
159.228429528
 22
31.2390745501
 13
159.228429528
 23
31.2390745501
  0
SOLID
  8
0
 62
7
  6
CONTINUOUS
 10
159.4596793074
 20
31.1422827828
 11
159.228429528
 21
31.2390745501
 12
159.6331168074
 22
31.2390745501
 13
159.6331168074
 23
31.2390745501
  0
SOLID
  8
0
 62
7
  6
CONTINUOUS
 10
159.6331168074
 20
31.2390745501
 11
160.615929528
 21
31.0777556927
 12
159.4596793074
 22
31.1422827828
 13
159.4596793074
 23
31.1422827828
  0
SOLID
  8
0
 62
7
  6
CONTINUOUS
 10
160.442492028
 20
30.9809646623
 11
159.4596793074
 21
31.1422827828
 12
160.615929528
 22
31.0777556927
 13
160.615929528
 23
31.0777556927
  0
SOLID
  8
0
 62
7
  6
CONTINUOUS
 10
160.615929528
 20
31.0777556927
 11
160.8471793074
 21
30.9809646623
 12
160.442492028
 22
30.9809646623
 13
160.442492028
 23
30.9809646623
  0
SOLID
  8
0
 62
7
  6
CONTINUOUS
 10
160.615929528
 20
30.9164372091
 11
160.442492028
 21
30.9809646623
 12
160.8471793074
 22
30.9809646623
 13
160.8471793074
 23
30.9809646623
  0
SOLID
  8
0
 62
7
  6
CONTINUOUS
 10
160.615929528
 20
30.9164372091
 11
160.8471793074
 21
30.9809646623
 12
160.6737418074
 22
30.8519089441
 13
160.6737418074
 23
30.8519089441
  0
SOLID
  8
0
 62
7
  6
CONTINUOUS
 10
160.8471793074
 20
30.9809646623
 11
160.9628038663
 21
30.8519089441
 12
160.6737418074
 22
30.8519089441
 13
160.6737418074
 23
30.8519089441
  0
SOLID
  8
0
 62
7
  6
CONTINUOUS
 10
160.615929528
 20
30.7873818593
 11
160.6737418074
 21
30.8519089441
 12
160.9628038663
 22
30.8519089441
 13
160.9628038663
 23
30.8519089441
  0
SOLID
  8
0
 62
7
  6
CONTINUOUS
 10
160.9628038663
 20
30.8519089441
 11
160.9628038663
 21
30.7873818593
 12
160.615929528
 22
30.7873818593
 13
160.615929528
 23
30.7873818593
  0
SOLID
  8
0
 62
7
  6
CONTINUOUS
 10
160.5003043074
 20
30.7551187255
 11
160.615929528
 21
30.7873818593
 12
160.9628038663
 22
30.7873818593
 13
160.9628038663
 23
30.7873818593
  0
SOLID
  8
0
 62
7
  6
CONTINUOUS
 10
160.5003043074
 20
30.7551187255
 11
160.9628038663
 21
30.7873818593
 12
160.269054528
 22
30.7228547745
 13
160.269054528
 23
30.7228547745
  0
SOLID
  8
0
 62
7
  6
CONTINUOUS
 10
160.9628038663
 20
30.7873818593
 11
160.8471793074
 21
30.6905916353
 12
160.269054528
 22
30.7228547745
 13
160.269054528
 23
30.7228547745
  0
SOLID
  8
0
 62
7
  6
CONTINUOUS
 10
160.8471793074
 20
30.6905916353
 11
159.401867028
 21
30.658327332
 12
160.269054528
 22
30.7228547745
 13
160.269054528
 23
30.7228547745
  0
SOLID
  8
0
 62
7
  6
CONTINUOUS
 10
160.269054528
 20
30.7228547745
 11
159.401867028
 21
30.658327332
 12
159.922179528
 22
30.7228547745
 13
159.922179528
 23
30.7228547745
  0
SOLID
  8
0
 62
7
  6
CONTINUOUS
 10
159.401867028
 20
30.658327332
 11
159.228429528
 21
30.7228547745
 12
159.922179528
 22
30.7228547745
 13
159.922179528
 23
30.7228547745
  0
SOLID
  8
0
 62
7
  6
CONTINUOUS
 10
159.401867028
 20
30.658327332
 11
160.8471793074
 21
30.6905916353
 12
159.575304528
 22
30.6260629858
 13
159.575304528
 23
30.6260629858
  0
SOLID
  8
0
 62
7
  6
CONTINUOUS
 10
160.8471793074
 20
30.6905916353
 11
160.615929528
 21
30.6260629858
 12
159.575304528
 22
30.6260629858
 13
159.575304528
 23
30.6260629858
  0
SOLID
  8
0
 62
7
  6
CONTINUOUS
 10
159.922179528
 20
30.5938006049
 11
159.575304528
 21
30.6260629858
 12
160.615929528
 22
30.6260629858
 13
160.615929528
 23
30.6260629858
  0
SOLID
  8
0
 62
7
  6
CONTINUOUS
 10
160.615929528
 20
30.6260629858
 11
160.269054528
 21
30.5938006049
 12
159.922179528
 22
30.5938006049
 13
159.922179528
 23
30.5938006049
  0
SOLID
  8
0
 62
7
  6
CONTINUOUS
 10
149.5737418074
 20
31.1100184796
 11
149.9206168074
 21
31.2713369632
 12
149.8628043005
 22
31.1422827828
 13
149.8628043005
 23
31.1422827828
  0
SOLID
  8
0
 62
7
  6
CONTINUOUS
 10
149.8628043005
 20
31.1422827828
 11
149.8628043005
 21
31.0454914852
 12
149.5737418074
 22
31.1100184796
 13
149.5737418074
 23
31.1100184796
  0
SOLID
  8
0
 62
7
  6
CONTINUOUS
 10
149.6315543091
 20
30.9164372091
 11
149.5737418074
 21
31.1100184796
 12
149.8628043005
 22
31.0454914852
 13
149.8628043005
 23
31.0454914852
  0
SOLID
  8
0
 62
7
  6
CONTINUOUS
 10
149.8628043005
 20
31.0454914852
 11
149.9784292936
 21
30.8841729058
 12
149.6315543091
 22
30.9164372091
 13
149.6315543091
 23
30.9164372091
  0
SOLID
  8
0
 62
7
  6
CONTINUOUS
 10
149.7471793074
 20
30.7873813202
 11
149.6315543091
 21
30.9164372091
 12
149.9784292936
 22
30.8841729058
 13
149.9784292936
 23
30.8841729058
  0
SOLID
  8
0
 62
7
  6
CONTINUOUS
 10
149.9784292936
 20
30.8841729058
 11
150.1518667936
 21
30.7873813202
 12
149.7471793074
 22
30.7873813202
 13
149.7471793074
 23
30.7873813202
  0
SOLID
  8
0
 62
7
  6
CONTINUOUS
 10
149.8628043005
 20
30.7228547004
 11
149.7471793074
 21
30.7873813202
 12
150.1518667936
 22
30.7873813202
 13
150.1518667936
 23
30.7873813202
  0
SOLID
  8
0
 62
7
  6
CONTINUOUS
 10
150.1518667936
 20
30.7873813202
 11
150.498741835
 21
30.7228547004
 12
149.8628043005
 22
30.7228547004
 13
149.8628043005
 23
30.7228547004
  0
SOLID
  8
0
 62
7
  6
CONTINUOUS
 10
150.0362418212
 20
30.658327332
 11
149.8628043005
 21
30.7228547004
 12
150.498741835
 22
30.7228547004
 13
150.498741835
 23
30.7228547004
  0
SOLID
  8
0
 62
7
  6
CONTINUOUS
 10
154.0831168074
 20
31.1100184386
 11
154.1987416972
 21
31.1745462761
 12
154.7768668074
 22
31.1422827828
 13
154.7768668074
 23
31.1422827828
  0
SOLID
  8
0
 62
7
  6
CONTINUOUS
 10
154.7768668074
 20
31.1422827828
 11
154.5456166972
 21
31.1100184386
 12
154.0831168074
 22
31.1100184386
 13
154.0831168074
 23
31.1100184386
  0
SOLID
  8
0
 62
7
  6
CONTINUOUS
 10
153.9674919177
 20
30.9809642992
 11
154.0831168074
 21
31.1100184386
 12
154.5456166972
 22
31.1100184386
 13
154.5456166972
 23
31.1100184386
  0
SOLID
  8
0
 62
7
  6
CONTINUOUS
 10
154.3143669177
 20
31.0132277988
 11
153.9674919177
 21
30.9809642992
 12
154.4299918074
 22
31.0777556927
 13
154.4299918074
 23
31.0777556927
  0
SOLID
  8
0
 62
7
  6
CONTINUOUS
 10
153.9674919177
 20
30.9809642992
 11
154.5456166972
 21
31.1100184796
 12
154.4299918074
 22
31.0777556927
 13
154.4299918074
 23
31.0777556927
  0
SOLID
  8
0
 62
7
  6
CONTINUOUS
 10
154.3143669177
 20
31.0132277988
 11
154.2565543074
 21
30.9164372091
 12
153.9674919177
 22
30.9809642992
 13
153.9674919177
 23
30.9809642992
  0
SOLID
  8
0
 62
7
  6
CONTINUOUS
 10
153.9674919177
 20
30.8841729058
 11
153.9674919177
 21
30.9809642992
 12
154.2565543074
 22
30.9164372091
 13
154.2565543074
 23
30.9164372091
  0
SOLID
  8
0
 62
7
  6
CONTINUOUS
 10
154.2565543074
 20
30.9164372091
 11
154.2565543074
 21
30.8519086025
 12
153.9674919177
 22
30.8841729058
 13
153.9674919177
 23
30.8841729058
  0
SOLID
  8
0
 62
7
  6
CONTINUOUS
 10
154.0253041972
 20
30.7551187255
 11
153.9674919177
 21
30.8841729058
 12
154.2565543074
 22
30.8519086025
 13
154.2565543074
 23
30.8519086025
  0
SOLID
  8
0
 62
7
  6
CONTINUOUS
 10
155.412804528
 20
30.9487004259
 11
155.7018665869
 21
30.8519086025
 12
155.3549915869
 22
30.8841729058
 13
155.3549915869
 23
30.8841729058
  0
SOLID
  8
0
 62
7
  6
CONTINUOUS
 10
155.1815540869
 20
30.7873815123
 11
155.3549915869
 21
30.8841729058
 12
155.7018665869
 22
30.8519086025
 13
155.7018665869
 23
30.8519086025
  0
SOLID
  8
0
 62
7
  6
CONTINUOUS
 10
155.1815540869
 20
30.7873815123
 11
155.7018665869
 21
30.8519086025
 12
155.412804528
 22
30.7551187255
 13
155.412804528
 23
30.7551187255
  0
SOLID
  8
0
 62
7
  6
CONTINUOUS
 10
155.7018665869
 20
30.8519086025
 11
155.759679528
 21
30.6905916353
 12
155.412804528
 22
30.7551187255
 13
155.412804528
 23
30.7551187255
  0
SOLID
  8
0
 62
7
  6
CONTINUOUS
 10
155.4706168074
 20
30.658327332
 11
155.412804528
 21
30.7551187255
 12
155.759679528
 22
30.6905916353
 13
155.759679528
 23
30.6905916353
  0
SOLID
  8
0
 62
7
  6
CONTINUOUS
 10
155.4706168074
 20
30.658327332
 11
155.759679528
 21
30.6905916353
 12
155.5284290869
 22
30.5938002079
 13
155.5284290869
 23
30.5938002079
  0
SOLID
  8
0
 62
7
  6
CONTINUOUS
 10
155.759679528
 20
30.6905916353
 11
155.8174918074
 21
30.5938002079
 12
155.5284290869
 22
30.5938002079
 13
155.5284290869
 23
30.5938002079
  0
SOLID
  8
0
 62
7
  6
CONTINUOUS
 10
151.0768668626
 20
30.8196456577
 11
151.1346793074
 21
30.9164373395
 12
151.4237418626
 22
30.9164373395
 13
151.4237418626
 23
30.9164373395
  0
SOLID
  8
0
 62
7
  6
CONTINUOUS
 10
151.4237418626
 20
30.9164373395
 11
151.3659292523
 21
30.7873815123
 12
151.0768668626
 22
30.8196456577
 13
151.0768668626
 23
30.8196456577
  0
SOLID
  8
0
 62
7
  6
CONTINUOUS
 10
150.9034292799
 20
30.7551187255
 11
151.0768668626
 21
30.8196456577
 12
151.3659292523
 22
30.7873815123
 13
151.3659292523
 23
30.7873815123
  0
SOLID
  8
0
 62
7
  6
CONTINUOUS
 10
150.9034292799
 20
30.7551187255
 11
151.3659292523
 21
30.7873815123
 12
150.498741835
 22
30.7228544222
 13
150.498741835
 23
30.7228544222
  0
SOLID
  8
0
 62
7
  6
CONTINUOUS
 10
151.3659292523
 20
30.7873815123
 11
151.1924917523
 21
30.6905916353
 12
150.498741835
 22
30.7228544222
 13
150.498741835
 23
30.7228544222
  0
SOLID
  8
0
 62
7
  6
CONTINUOUS
 10
150.0362418212
 20
30.658327332
 11
150.498741835
 21
30.7228544222
 12
151.1924917523
 22
30.6905916353
 13
151.1924917523
 23
30.6905916353
  0
SOLID
  8
0
 62
7
  6
CONTINUOUS
 10
150.0362418212
 20
30.658327332
 11
151.1924917523
 21
30.6905916353
 12
150.2096793212
 22
30.6260631011
 13
150.2096793212
 23
30.6260631011
  0
SOLID
  8
0
 62
7
  6
CONTINUOUS
 10
151.1924917523
 20
30.6905916353
 11
150.9612418074
 21
30.6260631011
 12
150.2096793212
 22
30.6260631011
 13
150.2096793212
 23
30.6260631011
  0
SOLID
  8
0
 62
7
  6
CONTINUOUS
 10
150.5565542799
 20
30.5938002419
 11
150.2096793212
 21
30.6260631011
 12
150.9612418074
 22
30.6260631011
 13
150.9612418074
 23
30.6260631011
  0
SOLID
  8
0
 62
7
  6
CONTINUOUS
 10
154.0253041972
 20
30.7551187255
 11
154.2565543074
 21
30.8519086025
 12
154.3143669177
 22
30.7873815123
 13
154.3143669177
 23
30.7873815123
  0
SOLID
  8
0
 62
7
  6
CONTINUOUS
 10
154.3143669177
 20
30.7873815123
 11
154.5456166972
 21
30.7228544222
 12
154.0253041972
 22
30.7551187255
 13
154.0253041972
 23
30.7551187255
  0
SOLID
  8
0
 62
7
  6
CONTINUOUS
 10
154.1987416972
 20
30.658327332
 11
154.0253041972
 21
30.7551187255
 12
154.5456166972
 22
30.7228544222
 13
154.5456166972
 23
30.7228544222
  0
SOLID
  8
0
 62
7
  6
CONTINUOUS
 10
154.8924916972
 20
30.7228544637
 11
155.1815540869
 21
30.7873815123
 12
155.412804528
 22
30.7551187255
 13
155.412804528
 23
30.7551187255
  0
SOLID
  8
0
 62
7
  6
CONTINUOUS
 10
155.412804528
 20
30.7551187255
 11
155.3549915869
 21
30.6905916353
 12
154.8924916972
 22
30.7228544637
 13
154.8924916972
 23
30.7228544637
  0
SOLID
  8
0
 62
7
  6
CONTINUOUS
 10
155.3549915869
 20
30.6905916353
 11
154.1987416972
 21
30.658327332
 12
154.8924916972
 22
30.7228544637
 13
154.8924916972
 23
30.7228544637
  0
SOLID
  8
0
 62
7
  6
CONTINUOUS
 10
154.1987416972
 20
30.658327332
 11
154.5456166972
 21
30.7228544637
 12
154.8924916972
 22
30.7228544637
 13
154.8924916972
 23
30.7228544637
  0
SOLID
  8
0
 62
7
  6
CONTINUOUS
 10
154.1987416972
 20
30.658327332
 11
155.3549915869
 21
30.6905916353
 12
154.3143669177
 22
30.6260630541
 13
154.3143669177
 23
30.6260630541
  0
SOLID
  8
0
 62
7
  6
CONTINUOUS
 10
155.3549915869
 20
30.6905916353
 11
155.1815540869
 21
30.6260630541
 12
154.3143669177
 22
30.6260630541
 13
154.3143669177
 23
30.6260630541
  0
SOLID
  8
0
 62
7
  6
CONTINUOUS
 10
154.5456166972
 20
30.5938002188
 11
154.3143669177
 21
30.6260630541
 12
155.1815540869
 22
30.6260630541
 13
155.1815540869
 23
30.6260630541
  0
SOLID
  8
0
 62
7
  6
CONTINUOUS
 10
155.1815540869
 20
30.6260630541
 11
154.8924916972
 21
30.5938002188
 12
154.5456166972
 22
30.5938002188
 13
154.5456166972
 23
30.5938002188
  0
SOLID
  8
0
 62
7
  6
CONTINUOUS
 10
159.575304528
 20
30.7551187255
 11
159.228429528
 21
30.7228544637
 12
159.4596793074
 22
30.7873815123
 13
159.4596793074
 23
30.7873815123
  0
SOLID
  8
0
 62
7
  6
CONTINUOUS
 10
159.4596793074
 20
30.7873815123
 11
159.228429528
 21
30.7228544637
 12
159.401867028
 22
30.851908644
 13
159.401867028
 23
30.851908644
  0
SOLID
  8
0
 62
7
  6
CONTINUOUS
 10
159.228429528
 20
30.7228544637
 11
159.1128043074
 21
30.851908644
 12
159.401867028
 22
30.851908644
 13
159.401867028
 23
30.851908644
  0
SOLID
  8
0
 62
7
  6
CONTINUOUS
 10
159.575304528
 20
30.7551187255
 11
159.922179528
 21
30.7228544637
 12
159.228429528
 22
30.7228544637
 13
159.228429528
 23
30.7228544637
  0
SOLID
  8
0
 62
7
  6
CONTINUOUS
 10
156.279992028
 20
30.5938002419
 11
156.279992028
 21
31.6262382337
 12
156.5690540869
 22
30.5938002419
 13
156.5690540869
 23
31.6262382337
  0
ENDBLK
  8
0
  6
BYBLOCK
 62
0
  0
BLOCK
  8
0
 62
2
  6
CONTINUOUS
  2
SYMBOL_3_BL0
 70
64
 10
32.1213064866
 20
19.8534310916
  0
TEXT
  8
0
 62
7
  6
CONTINUOUS
 10
18.3860103289
 20
19.2268451992
  7
TEXTSTYLE_3
 40
2.7338706658
  1
Ammeraal Beltech
 41
1.0
 51
15.0
 72
0
  0
TEXT
  8
0
 62
7
  6
CONTINUOUS
 10
29.1868111546
 20
16.9533085264
  7
TEXTSTYLE_4
 40
1.0935482663
  1
Innovation & Service in Belting
 41
1.0
 72
0
  0
LINE
  8
0
 62
7
  6
CONTINUOUS
 10
12.3614696776
 20
19.9934385078
 11
13.1396216709
 21
23.6543558055
  0
LINE
  8
0
 62
7
  6
CONTINUOUS
 10
23.2347899607
 20
27.3177497171
 11
13.6274394139
 21
24.1961322958
  0
LINE
  8
0
 62
7
  6
CONTINUOUS
 10
12.5867530099
 20
19.3000877048
 11
20.093828271
 21
12.5406867788
  0
LINE
  8
0
 62
7
  6
CONTINUOUS
 10
12.8492874206
 20
20.5352149982
 11
23.6575567857
 21
24.0470345971
  0
LINE
  8
0
 62
7
  6
CONTINUOUS
 10
23.6533516486
 20
13.6972460334
 11
15.2078919798
 21
21.3015720751
  0
LINE
  8
0
 62
7
  6
CONTINUOUS
 10
24.1731743684
 20
26.4728246013
 11
23.1966148312
 21
21.8784731989
  0
LINE
  8
0
 62
7
  6
CONTINUOUS
 10
22.4968128835
 20
18.5861638851
 11
21.810364672
 21
15.3566789607
  0
LINE
  8
0
 62
7
  6
CONTINUOUS
 10
24.8542704669
 20
14.087448211
 11
25.8105020025
 21
18.5861638851
  0
LINE
  8
0
 62
7
  6
CONTINUOUS
 10
26.5103039502
 20
21.8784731989
 11
26.9545457526
 21
23.9684665583
  0
LINE
  8
0
 62
7
  6
CONTINUOUS
 10
20.8069293463
 20
12.3891124661
 11
24.3664527239
 21
13.5456717207
  0
LINE
  8
0
 62
7
  6
CONTINUOUS
 10
23.9478910361
 20
27.1661754044
 11
26.7292624203
 21
24.6618173613
  0
ARC
  8
0
 62
7
  6
CONTINUOUS
 10
13.8527227462
 20
23.5027814928
 40
0.7290321776
 50
108.0
 51
168.0
  0
ARC
  8
0
 62
7
  6
CONTINUOUS
 10
23.4600732931
 20
26.624398914
 40
0.7290321776
 50
348.0
 51
108.0
  0
ARC
  8
0
 62
7
  6
CONTINUOUS
 10
26.2414446773
 20
24.120040871
 40
0.7290321776
 50
348.0
 51
48.0
  0
ARC
  8
0
 62
7
  6
CONTINUOUS
 10
20.581646014
 20
13.0824632691
 40
0.7290321776
 50
228.0
 51
288.0
  0
ARC
  8
0
 62
7
  6
CONTINUOUS
 10
13.0745707529
 20
19.8418641951
 40
0.7290321776
 50
108.0
 51
228.0
  0
ARC
  8
0
 62
7
  6
CONTINUOUS
 10
24.1411693916
 20
14.2390225237
 40
0.7290321776
 50
228.0
 51
348.0
  0
ENDBLK
  8
0
  6
BYBLOCK
 62
0
  0
ENDSEC
  0
SECTION
  2
ENTITIES
  0
TEXT
  8
0
 62
5
  6
CONTINUOUS
 10
96.0
 20
25.636
  7
TEXTSTYLE_2
 40
2.8
  1
Scale :
 41
0.6
 51
0.000019
 72
0
  0
TEXT
  8
0
 62
5
  6
CONTINUOUS
 10
116.0
 20
25.636
  7
TEXTSTYLE_2
 40
2.8
  1
Belt type:
 41
0.6
 51
0.000019
 72
0
  0
INSERT
  8
0
 62
2
  6
CONTINUOUS
  2
SYMBOL_3_BL0
 10
32.1213064866
 20
19.8534310916
  0
INSERT
  8
0
 62
2
  6
CONTINUOUS
  2
SYMBOL_8_BL1
 10
173.5956734183
 20
35.5937998301
  0
LINE
  8
0
 62
2
  6
CONTINUOUS
 10
10.0
 20
30.0
 11
200.0
 21
30.0
  0
LINE
  8
0
 62
2
  6
CONTINUOUS
 10
10.0
 20
30.0
 11
10.0
 21
10.0
  0
LINE
  8
0
 62
2
  6
CONTINUOUS
 10
10.0
 20
10.0
 11
200.0
 21
10.0
  0
LINE
  8
0
 62
2
  6
CONTINUOUS
 10
95.0
 20
30.0
 11
95.0
 21
10.0
  0
LINE
  8
0
 62
2
  6
CONTINUOUS
 10
115.0
 20
30.0
 11
115.0
 21
10.0
  0
LINE
  8
0
 62
2
  6
CONTINUOUS
 10
200.0
 20
30.0
 11
200.0
 21
10.0
  0
TEXT
  8
0
 62
5
  6
CONTINUOUS
 10
13.0
 20
23.303
  7
TEXTSTYLE_5
 40
1.52
  1
                                                                     Ammeraal Beltech Modular A/S
 41
1.0
 72
0
  0
TEXT
  8
0
 62
5
  6
CONTINUOUS
 10
13.0
 20
20.595
  7
TEXTSTYLE_5
 40
1.5
  1
                                                                      Hjulmagervej 21,  7100 Vejle,  DK
 41
1.0
 72
0
  0
TEXT
  8
0
 62
5
  6
CONTINUOUS
 10
13.0
 20
17.881
  7
TEXTSTYLE_5
 40
1.495
  1
                                                                      tel: 
 41
1.0
 72
0
  0
TEXT
  8
0
 62
5
  6
CONTINUOUS
 10
57.9869465649
 20
17.881
  7
TEXTSTYLE_5
 40
1.51
  1
+45 75723100     fax: +45 75723348
 41
1.0
 72
0
  0
TEXT
  8
0
 62
5
  6
CONTINUOUS
 10
13.0
 20
15.177
  7
TEXTSTYLE_5
 40
1.5
  1
                                                                      admin@unichains.dk  www.unichains.com
 41
1.0
 72
0
  0
TEXT
  8
0
 62
5
  6
CONTINUOUS
 10
99.75
 20
13.75
  7
TEXTSTYLE_6
 40
5.0
  1
2:1
 41
0.7
 72
1
 11
105.0
 21
13.75
  0
TEXT
  8
0
 62
5
  6
CONTINUOUS
 10
118.0
 20
13.75
  7
TEXTSTYLE_7
 40
7.5
  1
Lane Divider 1"
 41
0.5855555556
 72
0
  0
LINE
  8
0
 62
7
  6
CONTINUOUS
 10
210.0
 20
0.0
 11
0.0
 21
0.0
  0
LINE
  8
0
 62
7
  6
CONTINUOUS
 10
10.0
 20
10.0
 11
200.0
 21
10.0
  0
LINE
  8
0
 62
7
  6
CONTINUOUS
 10
10.0
 20
30.0
 11
200.0
 21
30.0
  0
LINE
  8
0
 62
7
  6
CONTINUOUS
 10
0.0
 20
0.0
 11
0.0
 21
297.0
  0
LINE
  8
0
 62
7
  6
CONTINUOUS
 10
10.0
 20
10.0
 11
10.0
 21
287.0
  0
LINE
  8
0
 62
7
  6
CONTINUOUS
 10
200.0
 20
287.0
 11
200.0
 21
10.0
  0
LINE
  8
0
 62
7
  6
CONTINUOUS
 10
210.0
 20
0.0
 11
210.0
 21
297.0
  0
LINE
  8
0
 62
7
  6
CONTINUOUS
 10
10.0
 20
287.0
 11
200.0
 21
287.0
  0
LINE
  8
0
 62
7
  6
CONTINUOUS
 10
0.0
 20
297.0
 11
210.0
 21
297.0
  0
POLYLINE
  8
0
 62
7
  6
CONTINUOUS
 66
1
 70
0
  0
VERTEX
  8
0
 62
7
  6
CONTINUOUS
 10
94.0782534582
 20
187.538472857
  0
VERTEX
  8
0
 62
7
  6
CONTINUOUS
 10
93.78804734
 20
187.4945422707
  0
VERTEX
  8
0
 62
7
  6
CONTINUOUS
 10
93.5780566418
 20
187.4766755836
  0
SEQEND
  0
POLYLINE
  8
0
 62
7
  6
CONTINUOUS
 66
1
 70
0
  0
VERTEX
  8
0
 62
7
  6
CONTINUOUS
 10
66.4953179639
 20
187.4945428115
  0
VERTEX
  8
0
 62
7
  6
CONTINUOUS
 10
66.2051104454
 20
187.5384739388
  0
VERTEX
  8
0
 62
7
  6
CONTINUOUS
 10
65.9190723114
 20
187.6010843082
  0
VERTEX
  8
0
 62
7
  6
CONTINUOUS
 10
65.6387766863
 20
187.6819181439
  0
VERTEX
  8
0
 62
7
  6
CONTINUOUS
 10
65.3654433017
 20
187.7804736473
  0
VERTEX
  8
0
 62
7
  6
CONTINUOUS
 10
65.1002547643
 20
187.8961657776
  0
VERTEX
  8
0
 62
7
  6
CONTINUOUS
 10
64.8442628672
 20
188.0283719566
  0
VERTEX
  8
0
 62
7
  6
CONTINUOUS
 10
64.5985163527
 20
188.1764095317
  0
VERTEX
  8
0
 62
7
  6
CONTINUOUS
 10
64.3640613579
 20
188.3394966602
  0
VERTEX
  8
0
 62
7
  6
CONTINUOUS
 10
64.1418743286
 20
188.5167862934
  0
VERTEX
  8
0
 62
7
  6
CONTINUOUS
 10
63.9328457766
 20
188.7073903889
  0
VERTEX
  8
0
 62
7
  6
CONTINUOUS
 10
63.7378239716
 20
188.9103338443
  0
VERTEX
  8
0
 62
7
  6
CONTINUOUS
 10
63.5575246716
 20
189.1246661402
  0
VERTEX
  8
0
 62
7
  6
CONTINUOUS
 10
63.3926177787
 20
189.3493540222
  0
VERTEX
  8
0
 62
7
  6
CONTINUOUS
 10
63.2436815443
 20
189.5833810536
  0
VERTEX
  8
0
 62
7
  6
CONTINUOUS
 10
63.1112380434
 20
189.8256405781
  0
VERTEX
  8
0
 62
7
  6
CONTINUOUS
 10
62.9956851642
 20
190.0751457379
  0
VERTEX
  8
0
 62
7
  6
CONTINUOUS
 10
62.897370006
 20
190.3308313698
  0
VERTEX
  8
0
 62
7
  6
CONTINUOUS
 10
62.8165874068
 20
190.5916814713
  0
VERTEX
  8
0
 62
7
  6
CONTINUOUS
 10
62.753557863
 20
190.8566349282
  0
VERTEX
  8
0
 62
7
  6
CONTINUOUS
 10
62.7084676483
 20
191.1246766913
  0
VERTEX
  8
0
 62
7
  6
CONTINUOUS
 10
62.6814235475
 20
191.3947567676
  0
VERTEX
  8
0
 62
7
  6
CONTINUOUS
 10
62.672514701
 20
191.6658555075
  0
VERTEX
  8
0
 62
7
  6
CONTINUOUS
 10
62.6817463432
 20
191.9369437213
  0
VERTEX
  8
0
 62
7
  6
CONTINUOUS
 10
62.7091121588
 20
192.2069943371
  0
VERTEX
  8
0
 62
7
  6
CONTINUOUS
 10
62.7545220843
 20
192.4749888848
  0
VERTEX
  8
0
 62
7
  6
CONTINUOUS
 10
62.8178689763
 20
192.7398778254
  0
VERTEX
  8
0
 62
7
  6
CONTINUOUS
 10
62.8989658762
 20
193.000647361
  0
VERTEX
  8
0
 62
7
  6
CONTINUOUS
 10
62.9975917392
 20
193.2562350015
  0
VERTEX
  8
0
 62
7
  6
CONTINUOUS
 10
63.1134502461
 20
193.5056244927
  0
VERTEX
  8
0
 62
7
  6
CONTINUOUS
 10
63.2461934794
 20
193.7477496243
  0
VERTEX
  8
0
 62
7
  6
CONTINUOUS
 10
63.3954214534
 20
193.9816233665
  0
VERTEX
  8
0
 62
7
  6
CONTINUOUS
 10
63.5606109829
 20
194.2061385258
  0
VERTEX
  8
0
 62
7
  6
CONTINUOUS
 10
63.74118148
 20
194.4202791504
  0
VERTEX
  8
0
 62
7
  6
CONTINUOUS
 10
63.9364620416
 20
194.6230120281
  0
VERTEX
  8
0
 62
7
  6
CONTINUOUS
 10
64.1457347825
 20
194.8133878273
  0
VERTEX
  8
0
 62
7
  6
CONTINUOUS
 10
64.3681507738
 20
194.9904320345
  0
VERTEX
  8
0
 62
7
  6
CONTINUOUS
 10
64.6028182345
 20
195.1532584808
  0
VERTEX
  8
0
 62
7
  6
CONTINUOUS
 10
64.848760089
 20
195.301020616
  0
VERTEX
  8
0
 62
7
  6
CONTINUOUS
 10
65.1049288947
 20
195.4329384351
  0
VERTEX
  8
0
 62
7
  6
CONTINUOUS
 10
65.3702761868
 20
195.5483300356
  0
VERTEX
  8
0
 62
7
  6
CONTINUOUS
 10
65.643751277
 20
195.6465748578
  0
VERTEX
  8
0
 62
7
  6
CONTINUOUS
 10
65.9241699919
 20
195.72708781
  0
VERTEX
  8
0
 62
7
  6
CONTINUOUS
 10
66.2103099492
 20
195.7893683998
  0
SEQEND
  0
POLYLINE
  8
0
 62
7
  6
CONTINUOUS
 66
1
 70
0
  0
VERTEX
  8
0
 62
7
  6
CONTINUOUS
 10
67.8425855284
 20
187.538472857
  0
VERTEX
  8
0
 62
7
  6
CONTINUOUS
 10
67.5523794102
 20
187.4945422707
  0
VERTEX
  8
0
 62
7
  6
CONTINUOUS
 10
67.3426370558
 20
187.4766967135
  0
SEQEND
  0
POLYLINE
  8
0
 62
7
  6
CONTINUOUS
 66
1
 70
0
  0
VERTEX
  8
0
 62
7
  6
CONTINUOUS
 10
94.5473422281
 20
187.5068150226
  0
VERTEX
  8
0
 62
7
  6
CONTINUOUS
 10
94.3244649348
 20
187.4813851779
  0
VERTEX
  8
0
 62
7
  6
CONTINUOUS
 10
94.0870184704
 20
187.4664681164
  0
VERTEX
  8
0
 62
7
  6
CONTINUOUS
 10
93.9273418095
 20
187.4634458208
  0
SEQEND
  0
POLYLINE
  8
0
 62
7
  6
CONTINUOUS
 66
1
 70
0
  0
VERTEX
  8
0
 62
7
  6
CONTINUOUS
 10
66.7125887405
 20
187.47710998
  0
VERTEX
  8
0
 62
7
  6
CONTINUOUS
 10
66.693162854
 20
187.4756352482
  0
VERTEX
  8
0
 62
7
  6
CONTINUOUS
 10
66.6110105031
 20
187.4703325624
  0
VERTEX
  8
0
 62
7
  6
CONTINUOUS
 10
66.5287387124
 20
187.4665312509
  0
VERTEX
  8
0
 62
7
  6
CONTINUOUS
 10
66.446372956
 20
187.4642336422
  0
VERTEX
  8
0
 62
7
  6
CONTINUOUS
 10
66.3790213343
 20
187.4634745143
  0
SEQEND
  0
POLYLINE
  8
0
 62
7
  6
CONTINUOUS
 66
1
 70
0
  0
VERTEX
  8
0
 62
7
  6
CONTINUOUS
 10
66.7126171048
 20
187.4770279304
  0
VERTEX
  8
0
 62
7
  6
CONTINUOUS
 10
66.5456006626
 20
187.4671616232
  0
VERTEX
  8
0
 62
7
  6
CONTINUOUS
 10
66.379012539
 20
187.4634737513
  0
SEQEND
  0
POLYLINE
  8
0
 62
7
  6
CONTINUOUS
 66
1
 70
0
  0
VERTEX
  8
0
 62
7
  6
CONTINUOUS
 10
92.9482565996
 20
187.4771112728
  0
VERTEX
  8
0
 62
7
  6
CONTINUOUS
 10
92.7464391285
 20
187.4659045877
  0
VERTEX
  8
0
 62
7
  6
CONTINUOUS
 10
92.5979280774
 20
187.4634445054
  0
SEQEND
  0
LINE
  8
0
 62
7
  6
CONTINUOUS
 10
66.379012539
 20
187.4634737513
 11
66.3617959523
 21
187.4634419073
  0
LINE
  8
0
 62
7
  6
CONTINUOUS
 10
93.9273418095
 20
187.4634458208
 11
93.9213775436
 21
187.4634419019
  0
LINE
  8
0
 62
7
  6
CONTINUOUS
 10
92.5979156008
 20
187.4634419097
 11
92.5973421414
 21
187.4634419123
  0
LINE
  8
0
 62
7
  6
CONTINUOUS
 10
67.68657776
 20
187.4634419826
 11
67.685448834
 21
187.4634419101
  0
POLYLINE
  8
0
 62
7
  6
CONTINUOUS
 66
1
 70
0
  0
VERTEX
  8
0
 62
7
  6
CONTINUOUS
 10
93.9213668551
 20
187.4634443674
  0
VERTEX
  8
0
 62
7
  6
CONTINUOUS
 10
93.8355271507
 20
187.4642550338
  0
VERTEX
  8
0
 62
7
  6
CONTINUOUS
 10
93.5707526802
 20
187.4770279316
  0
SEQEND
  0
POLYLINE
  8
0
 62
7
  6
CONTINUOUS
 66
1
 70
0
  0
VERTEX
  8
0
 62
7
  6
CONTINUOUS
 10
66.3617959523
 20
187.4634419073
  0
VERTEX
  8
0
 62
7
  6
CONTINUOUS
 10
66.2177877726
 20
187.4657355536
  0
VERTEX
  8
0
 62
7
  6
CONTINUOUS
 10
66.0565893729
 20
187.473733763
  0
VERTEX
  8
0
 62
7
  6
CONTINUOUS
 10
65.8957963918
 20
187.4874541045
  0
VERTEX
  8
0
 62
7
  6
CONTINUOUS
 10
65.736027575
 20
187.5068150226
  0
SEQEND
  0
POLYLINE
  8
0
 62
7
  6
CONTINUOUS
 66
1
 70
0
  0
VERTEX
  8
0
 62
7
  6
CONTINUOUS
 10
67.6854292791
 20
187.4634458433
  0
VERTEX
  8
0
 62
7
  6
CONTINUOUS
 10
67.5416121126
 20
187.4657530086
  0
VERTEX
  8
0
 62
7
  6
CONTINUOUS
 10
67.3351131634
 20
187.4771105305
  0
SEQEND
  0
POLYLINE
  8
0
 62
7
  6
CONTINUOUS
 66
1
 70
0
  0
VERTEX
  8
0
 62
7
  6
CONTINUOUS
 10
67.1516866238
 20
187.4872004958
  0
VERTEX
  8
0
 62
7
  6
CONTINUOUS
 10
67.0266776791
 20
187.4892449223
  0
VERTEX
  8
0
 62
7
  6
CONTINUOUS
 10
66.9016514762
 20
187.4873773717
  0
VERTEX
  8
0
 62
7
  6
CONTINUOUS
 10
66.7767196691
 20
187.4815977233
  0
VERTEX
  8
0
 62
7
  6
CONTINUOUS
 10
66.7125890269
 20
187.477106305
  0
SEQEND
  0
POLYLINE
  8
0
 62
7
  6
CONTINUOUS
 66
1
 70
0
  0
VERTEX
  8
0
 62
7
  6
CONTINUOUS
 10
93.3873545472
 20
187.4872004933
  0
VERTEX
  8
0
 62
7
  6
CONTINUOUS
 10
93.2623456087
 20
187.4892449196
  0
VERTEX
  8
0
 62
7
  6
CONTINUOUS
 10
93.137319412
 20
187.4873773692
  0
VERTEX
  8
0
 62
7
  6
CONTINUOUS
 10
93.012387611
 20
187.4815977213
  0
VERTEX
  8
0
 62
7
  6
CONTINUOUS
 10
92.9482569732
 20
187.4771063036
  0
SEQEND
  0
POLYLINE
  8
0
 62
7
  6
CONTINUOUS
 66
1
 70
0
  0
VERTEX
  8
0
 62
7
  6
CONTINUOUS
 10
93.8387396409
 20
187.4642041104
  0
VERTEX
  8
0
 62
7
  6
CONTINUOUS
 10
93.7572405165
 20
187.4664376913
  0
VERTEX
  8
0
 62
7
  6
CONTINUOUS
 10
93.6758310542
 20
187.4701430499
  0
VERTEX
  8
0
 62
7
  6
CONTINUOUS
 10
93.5945354185
 20
187.4753184775
  0
VERTEX
  8
0
 62
7
  6
CONTINUOUS
 10
93.570781049
 20
187.4771100194
  0
SEQEND
  0
LINE
  8
0
 62
7
  6
CONTINUOUS
 10
67.2747333184
 20
187.4813350099
 11
67.270982188
 21
187.4815977219
  0
LINE
  8
0
 62
7
  6
CONTINUOUS
 10
93.510401267
 20
187.4813350064
 11
93.5066501158
 21
187.4815977199
  0
POLYLINE
  8
0
 62
7
  6
CONTINUOUS
 66
1
 70
0
  0
VERTEX
  8
0
 62
7
  6
CONTINUOUS
 10
67.3351128739
 20
187.4771066484
  0
VERTEX
  8
0
 62
7
  6
CONTINUOUS
 10
67.276555711
 20
187.4812481386
  0
VERTEX
  8
0
 62
7
  6
CONTINUOUS
 10
67.1460503891
 20
187.4873773697
  0
SEQEND
  0
POLYLINE
  8
0
 62
7
  6
CONTINUOUS
 66
1
 70
0
  0
VERTEX
  8
0
 62
7
  6
CONTINUOUS
 10
93.5707807863
 20
187.477106647
  0
VERTEX
  8
0
 62
7
  6
CONTINUOUS
 10
93.5122236282
 20
187.4812481367
  0
VERTEX
  8
0
 62
7
  6
CONTINUOUS
 10
93.3817183179
 20
187.4873773676
  0
SEQEND
  0
LINE
  8
0
 62
7
  6
CONTINUOUS
 10
66.7060458197
 20
187.4766132689
 11
66.4953179639
 21
187.4945428115
  0
LINE
  8
0
 62
7
  6
CONTINUOUS
 10
92.9407558904
 20
187.4766947673
 11
92.7309858937
 21
187.4945428115
  0
POLYLINE
  8
0
 62
7
  6
CONTINUOUS
 66
1
 70
0
  0
VERTEX
  8
0
 62
7
  6
CONTINUOUS
 10
92.7309858937
 20
187.4945428115
  0
VERTEX
  8
0
 62
7
  6
CONTINUOUS
 10
92.4407783752
 20
187.5384739388
  0
VERTEX
  8
0
 62
7
  6
CONTINUOUS
 10
92.1547402412
 20
187.6010843082
  0
VERTEX
  8
0
 62
7
  6
CONTINUOUS
 10
91.8744446162
 20
187.6819181439
  0
VERTEX
  8
0
 62
7
  6
CONTINUOUS
 10
91.6011112315
 20
187.7804736473
  0
VERTEX
  8
0
 62
7
  6
CONTINUOUS
 10
91.3359226941
 20
187.8961657776
  0
VERTEX
  8
0
 62
7
  6
CONTINUOUS
 10
91.079930797
 20
188.0283719566
  0
VERTEX
  8
0
 62
7
  6
CONTINUOUS
 10
90.8341842825
 20
188.1764095317
  0
VERTEX
  8
0
 62
7
  6
CONTINUOUS
 10
90.5997292877
 20
188.3394966602
  0
VERTEX
  8
0
 62
7
  6
CONTINUOUS
 10
90.3775422584
 20
188.5167862934
  0
VERTEX
  8
0
 62
7
  6
CONTINUOUS
 10
90.1685137064
 20
188.7073903889
  0
VERTEX
  8
0
 62
7
  6
CONTINUOUS
 10
89.9734919014
 20
188.9103338443
  0
VERTEX
  8
0
 62
7
  6
CONTINUOUS
 10
89.7931926014
 20
189.1246661402
  0
VERTEX
  8
0
 62
7
  6
CONTINUOUS
 10
89.6282857085
 20
189.3493540222
  0
VERTEX
  8
0
 62
7
  6
CONTINUOUS
 10
89.4793494741
 20
189.5833810536
  0
VERTEX
  8
0
 62
7
  6
CONTINUOUS
 10
89.3469059732
 20
189.8256405781
  0
VERTEX
  8
0
 62
7
  6
CONTINUOUS
 10
89.2313530941
 20
190.0751457379
  0
VERTEX
  8
0
 62
7
  6
CONTINUOUS
 10
89.1330379358
 20
190.3308313698
  0
VERTEX
  8
0
 62
7
  6
CONTINUOUS
 10
89.0522553366
 20
190.5916814713
  0
VERTEX
  8
0
 62
7
  6
CONTINUOUS
 10
88.9892257928
 20
190.8566349282
  0
VERTEX
  8
0
 62
7
  6
CONTINUOUS
 10
88.9441355781
 20
191.1246766913
  0
VERTEX
  8
0
 62
7
  6
CONTINUOUS
 10
88.9170914774
 20
191.3947567676
  0
VERTEX
  8
0
 62
7
  6
CONTINUOUS
 10
88.9081826308
 20
191.6658555075
  0
VERTEX
  8
0
 62
7
  6
CONTINUOUS
 10
88.9174142731
 20
191.9369437213
  0
VERTEX
  8
0
 62
7
  6
CONTINUOUS
 10
88.9447800886
 20
192.2069943371
  0
VERTEX
  8
0
 62
7
  6
CONTINUOUS
 10
88.9901900141
 20
192.4749888848
  0
VERTEX
  8
0
 62
7
  6
CONTINUOUS
 10
89.0535369061
 20
192.7398778254
  0
VERTEX
  8
0
 62
7
  6
CONTINUOUS
 10
89.134633806
 20
193.000647361
  0
VERTEX
  8
0
 62
7
  6
CONTINUOUS
 10
89.233259669
 20
193.2562350015
  0
VERTEX
  8
0
 62
7
  6
CONTINUOUS
 10
89.3491181759
 20
193.5056244927
  0
VERTEX
  8
0
 62
7
  6
CONTINUOUS
 10
89.4818614092
 20
193.7477496243
  0
VERTEX
  8
0
 62
7
  6
CONTINUOUS
 10
89.6310893832
 20
193.9816233665
  0
VERTEX
  8
0
 62
7
  6
CONTINUOUS
 10
89.7962789127
 20
194.2061385258
  0
VERTEX
  8
0
 62
7
  6
CONTINUOUS
 10
89.9768494098
 20
194.4202791504
  0
VERTEX
  8
0
 62
7
  6
CONTINUOUS
 10
90.1721299714
 20
194.6230120281
  0
VERTEX
  8
0
 62
7
  6
CONTINUOUS
 10
90.3814027123
 20
194.8133878273
  0
VERTEX
  8
0
 62
7
  6
CONTINUOUS
 10
90.6038187036
 20
194.9904320345
  0
VERTEX
  8
0
 62
7
  6
CONTINUOUS
 10
90.8384861643
 20
195.1532584808
  0
VERTEX
  8
0
 62
7
  6
CONTINUOUS
 10
91.0844280188
 20
195.301020616
  0
VERTEX
  8
0
 62
7
  6
CONTINUOUS
 10
91.3405968245
 20
195.4329384351
  0
VERTEX
  8
0
 62
7
  6
CONTINUOUS
 10
91.6059441166
 20
195.5483300356
  0
VERTEX
  8
0
 62
7
  6
CONTINUOUS
 10
91.8794192068
 20
195.6465748578
  0
VERTEX
  8
0
 62
7
  6
CONTINUOUS
 10
92.1598379217
 20
195.72708781
  0
VERTEX
  8
0
 62
7
  6
CONTINUOUS
 10
92.445977879
 20
195.7893683998
  0
SEQEND
  0
POLYLINE
  8
0
 62
7
  6
CONTINUOUS
 66
1
 70
0
  0
VERTEX
  8
0
 62
7
  6
CONTINUOUS
 10
92.445977879
 20
195.7893683998
  0
VERTEX
  8
0
 62
7
  6
CONTINUOUS
 10
92.7362622305
 20
195.8329610332
  0
VERTEX
  8
0
 62
7
  6
CONTINUOUS
 10
92.9209243703
 20
195.8484528203
  0
SEQEND
  0
POLYLINE
  8
0
 62
7
  6
CONTINUOUS
 66
1
 70
0
  0
VERTEX
  8
0
 62
7
  6
CONTINUOUS
 10
93.5902590982
 20
195.8480026995
  0
VERTEX
  8
0
 62
7
  6
CONTINUOUS
 10
93.6003039602
 20
195.8488246708
  0
VERTEX
  8
0
 62
7
  6
CONTINUOUS
 10
93.6678246096
 20
195.8537637807
  0
VERTEX
  8
0
 62
7
  6
CONTINUOUS
 10
93.7354231583
 20
195.8576892177
  0
VERTEX
  8
0
 62
7
  6
CONTINUOUS
 10
93.8030854645
 20
195.8606000465
  0
VERTEX
  8
0
 62
7
  6
CONTINUOUS
 10
93.8707973855
 20
195.8624951486
  0
VERTEX
  8
0
 62
7
  6
CONTINUOUS
 10
93.9384790384
 20
195.8633728635
  0
SEQEND
  0
LINE
  8
0
 62
7
  6
CONTINUOUS
 10
93.5252745486
 20
195.8431465402
 11
93.5902588061
 21
195.8480062201
  0
LINE
  8
0
 62
7
  6
CONTINUOUS
 10
93.5197045337
 20
195.842779257
 11
93.5233822086
 21
195.8430517364
  0
POLYLINE
  8
0
 62
7
  6
CONTINUOUS
 66
1
 70
0
  0
VERTEX
  8
0
 62
7
  6
CONTINUOUS
 10
73.5149896125
 20
191.6774059538
  0
VERTEX
  8
0
 62
7
  6
CONTINUOUS
 10
73.4962997241
 20
191.6762184332
  0
VERTEX
  8
0
 62
7
  6
CONTINUOUS
 10
73.4724064515
 20
191.6750309477
  0
VERTEX
  8
0
 62
7
  6
CONTINUOUS
 10
73.4434730413
 20
191.6738637066
  0
VERTEX
  8
0
 62
7
  6
CONTINUOUS
 10
73.4096978449
 20
191.6727208757
  0
SEQEND
  0
POLYLINE
  8
0
 62
7
  6
CONTINUOUS
 66
1
 70
0
  0
VERTEX
  8
0
 62
7
  6
CONTINUOUS
 10
88.1920020084
 20
191.6698167946
  0
VERTEX
  8
0
 62
7
  6
CONTINUOUS
 10
88.1754863396
 20
191.6688972935
  0
VERTEX
  8
0
 62
7
  6
CONTINUOUS
 10
88.1525428688
 20
191.6679894527
  0
VERTEX
  8
0
 62
7
  6
CONTINUOUS
 10
88.1235681283
 20
191.667137892
  0
VERTEX
  8
0
 62
7
  6
CONTINUOUS
 10
88.0890640585
 20
191.6663465606
  0
SEQEND
  0
LINE
  8
0
 62
7
  6
CONTINUOUS
 10
73.4096978449
 20
191.6727208757
 11
73.3285805354
 21
191.6705391652
  0
LINE
  8
0
 62
7
  6
CONTINUOUS
 10
73.3285805354
 20
191.6705391652
 11
73.2312783978
 21
191.6685457348
  0
LINE
  8
0
 62
7
  6
CONTINUOUS
 10
88.0890640585
 20
191.6663465606
 11
88.0059454999
 21
191.6649807089
  0
LINE
  8
0
 62
7
  6
CONTINUOUS
 10
73.2312783978
 20
191.6685457348
 11
73.0609230398
 21
191.666026396
  0
LINE
  8
0
 62
7
  6
CONTINUOUS
 10
88.0059454999
 20
191.6649807089
 11
87.9089283603
 21
191.6639896266
  0
LINE
  8
0
 62
7
  6
CONTINUOUS
 10
73.0609230398
 20
191.666026396
 11
72.8707395619
 21
191.66420792
  0
LINE
  8
0
 62
7
  6
CONTINUOUS
 10
72.8707395619
 20
191.66420792
 11
72.7386315243
 21
191.6634419019
  0
LINE
  8
0
 62
7
  6
CONTINUOUS
 10
87.9089283603
 20
191.6639896266
 11
87.8046964629
 21
191.6634419038
  0
LINE
  8
0
 62
7
  6
CONTINUOUS
 10
87.5446167716
 20
191.6634419019
 11
87.8047376115
 21
191.6634420682
  0
LINE
  8
0
 62
2
  6
CONTINUOUS
 10
93.7216849015
 20
191.6634419019
 11
91.9616849015
 21
191.6634419019
  0
LINE
  8
DEFAULT_1
 62
2
  6
CENTER
 10
88.4416849015
 20
191.6634419019
 11
87.8416849015
 21
191.6634419019
  0
LINE
  8
0
 62
2
  6
CONTINUOUS
 10
68.3216849015
 20
191.6634419019
 11
66.5616849015
 21
191.6634419019
  0
LINE
  8
DEFAULT_1
 62
2
  6
CENTER
 10
63.0416849015
 20
191.6634419019
 11
62.4416849015
 21
191.6634419019
  0
LINE
  8
DEFAULT_1
 62
2
  6
CENTER
 10
71.8416849015
 20
191.6634419019
 11
72.4260993981
 21
191.6636557889
  0
LINE
  8
DEFAULT_1
 62
2
  6
CENTER
 10
97.2416849015
 20
191.6634419019
 11
97.8416849015
 21
191.6634419019
  0
LINE
  8
0
 62
7
  6
CONTINUOUS
 10
72.7387530315
 20
191.6634419019
 11
72.4260993981
 21
191.6636557889
  0
LINE
  8
0
 62
7
  6
CONTINUOUS
 10
87.5447382787
 20
191.6634419019
 11
87.3477347729
 21
191.664728235
  0
LINE
  8
0
 62
7
  6
CONTINUOUS
 10
72.4260993981
 20
191.6636557889
 11
72.3245958752
 21
191.6644267863
  0
LINE
  8
0
 62
7
  6
CONTINUOUS
 10
87.3477347729
 20
191.664728235
 11
87.1629085006
 21
191.6667953376
  0
LINE
  8
0
 62
7
  6
CONTINUOUS
 10
72.3245958752
 20
191.6644267863
 11
72.2337409465
 21
191.6656053717
  0
LINE
  8
0
 62
7
  6
CONTINUOUS
 10
87.1629085006
 20
191.6667953376
 11
87.0520914053
 21
191.6685457348
  0
LINE
  8
0
 62
7
  6
CONTINUOUS
 10
87.0520914053
 20
191.6685457348
 11
86.9547892676
 21
191.6705391652
  0
POLYLINE
  8
0
 62
7
  6
CONTINUOUS
 66
1
 70
0
  0
VERTEX
  8
0
 62
7
  6
CONTINUOUS
 10
72.2337409465
 20
191.6656053717
  0
VERTEX
  8
0
 62
7
  6
CONTINUOUS
 10
72.1598012792
 20
191.6670890116
  0
VERTEX
  8
0
 62
7
  6
CONTINUOUS
 10
72.1308263863
 20
191.6679265743
  0
VERTEX
  8
0
 62
7
  6
CONTINUOUS
 10
72.1078827182
 20
191.6688534483
  0
VERTEX
  8
0
 62
7
  6
CONTINUOUS
 10
72.0913670222
 20
191.6698167934
  0
SEQEND
  0
POLYLINE
  8
0
 62
7
  6
CONTINUOUS
 66
1
 70
0
  0
VERTEX
  8
0
 62
7
  6
CONTINUOUS
 10
86.9547892676
 20
191.6705391652
  0
VERTEX
  8
0
 62
7
  6
CONTINUOUS
 10
86.8736719582
 20
191.6727208757
  0
VERTEX
  8
0
 62
7
  6
CONTINUOUS
 10
86.8398967618
 20
191.6738637066
  0
VERTEX
  8
0
 62
7
  6
CONTINUOUS
 10
86.8109633516
 20
191.6750309477
  0
VERTEX
  8
0
 62
7
  6
CONTINUOUS
 10
86.787070079
 20
191.6762184332
  0
VERTEX
  8
0
 62
7
  6
CONTINUOUS
 10
86.7683801906
 20
191.6774059538
  0
SEQEND
  0
POLYLINE
  8
0
 62
7
  6
CONTINUOUS
 66
1
 70
0
  0
VERTEX
  8
0
 62
7
  6
CONTINUOUS
 10
66.686116462
 20
195.8485249697
  0
VERTEX
  8
0
 62
7
  6
CONTINUOUS
 10
66.7581930303
 20
195.8431397346
  0
VERTEX
  8
0
 62
7
  6
CONTINUOUS
 10
66.8896339143
 20
195.8365586774
  0
VERTEX
  8
0
 62
7
  6
CONTINUOUS
 10
67.0211931057
 20
195.83430668
  0
VERTEX
  8
0
 62
7
  6
CONTINUOUS
 10
67.1580679613
 20
195.8365586776
  0
SEQEND
  0
LINE
  8
0
 62
7
  6
CONTINUOUS
 10
67.3622992956
 20
195.84846504
 11
67.5471123839
 21
195.8329604602
  0
POLYLINE
  8
0
 62
7
  6
CONTINUOUS
 66
1
 70
0
  0
VERTEX
  8
0
 62
7
  6
CONTINUOUS
 10
67.5471123839
 20
195.8329604602
  0
VERTEX
  8
0
 62
7
  6
CONTINUOUS
 10
67.8373982513
 20
195.789367247
  0
VERTEX
  8
0
 62
7
  6
CONTINUOUS
 10
68.1235396293
 20
195.7270858397
  0
VERTEX
  8
0
 62
7
  6
CONTINUOUS
 10
68.4039593261
 20
195.6465720492
  0
VERTEX
  8
0
 62
7
  6
CONTINUOUS
 10
68.6774348744
 20
195.5483263971
  0
VERTEX
  8
0
 62
7
  6
CONTINUOUS
 10
68.9427821902
 20
195.4329340643
  0
VERTEX
  8
0
 62
7
  6
CONTINUOUS
 10
69.1989507838
 20
195.3010155934
  0
VERTEX
  8
0
 62
7
  6
CONTINUOUS
 10
69.4448922407
 20
195.15325293
  0
VERTEX
  8
0
 62
7
  6
CONTINUOUS
 10
69.6795591607
 20
194.9904260465
  0
VERTEX
  8
0
 62
7
  6
CONTINUOUS
 10
69.9019746035
 20
194.8133814281
  0
VERTEX
  8
0
 62
7
  6
CONTINUOUS
 10
70.1112468367
 20
194.6230052129
  0
VERTEX
  8
0
 62
7
  6
CONTINUOUS
 10
70.3065269551
 20
194.4202718768
  0
VERTEX
  8
0
 62
7
  6
CONTINUOUS
 10
70.4870969754
 20
194.2061308181
  0
VERTEX
  8
0
 62
7
  6
CONTINUOUS
 10
70.6522859941
 20
193.9816152312
  0
VERTEX
  8
0
 62
7
  6
CONTINUOUS
 10
70.8015134355
 20
193.747741104
  0
VERTEX
  8
0
 62
7
  6
CONTINUOUS
 10
70.9342560526
 20
193.5056157418
  0
VERTEX
  8
0
 62
7
  6
CONTINUOUS
 10
71.0501138925
 20
193.2562261718
  0
VERTEX
  8
0
 62
7
  6
CONTINUOUS
 10
71.1487390629
 20
193.0006385412
  0
VERTEX
  8
0
 62
7
  6
CONTINUOUS
 10
71.2298353007
 20
192.7398690661
  0
VERTEX
  8
0
 62
7
  6
CONTINUOUS
 10
71.2931815486
 20
192.4749802553
  0
VERTEX
  8
0
 62
7
  6
CONTINUOUS
 10
71.3385908622
 20
192.2069858776
  0
VERTEX
  8
0
 62
7
  6
CONTINUOUS
 10
71.3659560925
 20
191.9369353976
  0
VERTEX
  8
0
 62
7
  6
CONTINUOUS
 10
71.3751871765
 20
191.6658472514
  0
VERTEX
  8
0
 62
7
  6
CONTINUOUS
 10
71.3662777754
 20
191.3947484734
  0
VERTEX
  8
0
 62
7
  6
CONTINUOUS
 10
71.3392330973
 20
191.1246682989
  0
VERTEX
  8
0
 62
7
  6
CONTINUOUS
 10
71.2941422837
 20
190.8566264071
  0
VERTEX
  8
0
 62
7
  6
CONTINUOUS
 10
71.2311121124
 20
190.5916728575
  0
VERTEX
  8
0
 62
7
  6
CONTINUOUS
 10
71.1503288771
 20
190.3308227349
  0
VERTEX
  8
0
 62
7
  6
CONTINUOUS
 10
71.0520130596
 20
190.0751371346
  0
VERTEX
  8
0
 62
7
  6
CONTINUOUS
 10
70.9364595485
 20
189.8256320872
  0
VERTEX
  8
0
 62
7
  6
CONTINUOUS
 10
70.8040154643
 20
189.5833728113
  0
VERTEX
  8
0
 62
7
  6
CONTINUOUS
 10
70.6550787244
 20
189.349346165
  0
VERTEX
  8
0
 62
7
  6
CONTINUOUS
 10
70.4901713483
 20
189.1246587072
  0
VERTEX
  8
0
 62
7
  6
CONTINUOUS
 10
70.3098715994
 20
188.9103268423
  0
VERTEX
  8
0
 62
7
  6
CONTINUOUS
 10
70.1148493811
 20
188.7073838401
  0
VERTEX
  8
0
 62
7
  6
CONTINUOUS
 10
69.9058203628
 20
188.5167801619
  0
VERTEX
  8
0
 62
7
  6
CONTINUOUS
 10
69.6836328361
 20
188.3394909413
  0
VERTEX
  8
0
 62
7
  6
CONTINUOUS
 10
69.449177356
 20
188.1764042503
  0
VERTEX
  8
0
 62
7
  6
CONTINUOUS
 10
69.203430495
 20
188.0283671931
  0
VERTEX
  8
0
 62
7
  6
CONTINUOUS
 10
68.9474384274
 20
187.8961616463
  0
VERTEX
  8
0
 62
7
  6
CONTINUOUS
 10
68.6822499383
 20
187.7804702167
  0
VERTEX
  8
0
 62
7
  6
CONTINUOUS
 10
68.4089170066
 20
187.6819155023
  0
VERTEX
  8
0
 62
7
  6
CONTINUOUS
 10
68.1286223249
 20
187.6010824569
  0
VERTEX
  8
0
 62
7
  6
CONTINUOUS
 10
67.8425855284
 20
187.538472857
  0
SEQEND
  0
LINE
  8
0
 62
7
  6
CONTINUOUS
 10
45.7493800561
 20
231.9634419019
 11
63.2435928178
 21
201.6625765602
  0
POLYLINE
  8
0
 62
7
  6
CONTINUOUS
 66
1
 70
0
  0
VERTEX
  8
0
 62
7
  6
CONTINUOUS
 10
66.2103099492
 20
195.7893683998
  0
VERTEX
  8
0
 62
7
  6
CONTINUOUS
 10
66.5005943007
 20
195.8329610332
  0
VERTEX
  8
0
 62
7
  6
CONTINUOUS
 10
66.6864273983
 20
195.848551055
  0
SEQEND
  0
LINE
  8
0
 62
7
  6
CONTINUOUS
 10
67.2841346419
 20
195.8427859529
 11
67.3545908655
 21
195.8480062204
  0
POLYLINE
  8
0
 62
7
  6
CONTINUOUS
 66
1
 70
0
  0
VERTEX
  8
0
 62
7
  6
CONTINUOUS
 10
67.3545912452
 20
195.8480016428
  0
VERTEX
  8
0
 62
7
  6
CONTINUOUS
 10
67.5590929898
 20
195.8602960006
  0
VERTEX
  8
0
 62
7
  6
CONTINUOUS
 10
67.7270757877
 20
195.8634399882
  0
SEQEND
  0
LINE
  8
0
 62
7
  6
CONTINUOUS
 10
93.3882571587
 20
195.8363784868
 11
93.5252745486
 21
195.8431465402
  0
LINE
  8
0
 62
7
  6
CONTINUOUS
 10
67.1527404243
 20
195.8363838326
 11
67.2876604577
 21
195.8430471889
  0
POLYLINE
  8
0
 62
7
  6
CONTINUOUS
 66
1
 70
0
  0
VERTEX
  8
0
 62
7
  6
CONTINUOUS
 10
66.2531702509
 20
195.8628932687
  0
VERTEX
  8
0
 62
7
  6
CONTINUOUS
 10
66.2758109265
 20
195.8632039413
  0
VERTEX
  8
0
 62
7
  6
CONTINUOUS
 10
66.2986450282
 20
195.8633856268
  0
VERTEX
  8
0
 62
7
  6
CONTINUOUS
 10
66.3207443329
 20
195.8634419005
  0
SEQEND
  0
LINE
  8
0
 62
7
  6
CONTINUOUS
 10
93.962629664
 20
195.8634419007
 11
93.9384790222
 21
195.8633758252
  0
LINE
  8
0
 62
7
  6
CONTINUOUS
 10
67.7270864993
 20
195.8634418956
 11
67.7276365303
 21
195.8634418911
  0
LINE
  8
0
 62
7
  6
CONTINUOUS
 10
92.5564381029
 20
195.8634418849
 11
92.5555969576
 21
195.8634418796
  0
LINE
  8
0
 62
7
  6
CONTINUOUS
 10
66.3207443329
 20
195.8634419005
 11
66.3448907809
 21
195.8633758252
  0
POLYLINE
  8
0
 62
7
  6
CONTINUOUS
 66
1
 70
0
  0
VERTEX
  8
0
 62
7
  6
CONTINUOUS
 10
66.3448907782
 20
195.8633753435
  0
VERTEX
  8
0
 62
7
  6
CONTINUOUS
 10
66.4125532148
 20
195.8624988135
  0
VERTEX
  8
0
 62
7
  6
CONTINUOUS
 10
66.4802540427
 20
195.8606045277
  0
VERTEX
  8
0
 62
7
  6
CONTINUOUS
 10
66.5479132401
 20
195.8576939558
  0
VERTEX
  8
0
 62
7
  6
CONTINUOUS
 10
66.6155166939
 20
195.8537680179
  0
VERTEX
  8
0
 62
7
  6
CONTINUOUS
 10
66.6830502829
 20
195.8488274429
  0
VERTEX
  8
0
 62
7
  6
CONTINUOUS
 10
66.6931108277
 20
195.8480040737
  0
SEQEND
  0
POLYLINE
  8
0
 62
7
  6
CONTINUOUS
 66
1
 70
0
  0
VERTEX
  8
0
 62
7
  6
CONTINUOUS
 10
94.0301995522
 20
195.8628932687
  0
VERTEX
  8
0
 62
7
  6
CONTINUOUS
 10
94.0075719322
 20
195.8632038028
  0
VERTEX
  8
0
 62
7
  6
CONTINUOUS
 10
93.984742183
 20
195.863385537
  0
VERTEX
  8
0
 62
7
  6
CONTINUOUS
 10
93.962629664
 20
195.8634419007
  0
SEQEND
  0
POLYLINE
  8
0
 62
7
  6
CONTINUOUS
 66
1
 70
0
  0
VERTEX
  8
0
 62
7
  6
CONTINUOUS
 10
92.5564526779
 20
195.8634392005
  0
VERTEX
  8
0
 62
7
  6
CONTINUOUS
 10
92.6993699279
 20
195.861157187
  0
VERTEX
  8
0
 62
7
  6
CONTINUOUS
 10
92.9287786134
 20
195.8480024426
  0
SEQEND
  0
POLYLINE
  8
0
 62
7
  6
CONTINUOUS
 66
1
 70
0
  0
VERTEX
  8
0
 62
7
  6
CONTINUOUS
 10
92.9287789609
 20
195.848006631
  0
VERTEX
  8
0
 62
7
  6
CONTINUOUS
 10
92.9993331955
 20
195.8427792586
  0
VERTEX
  8
0
 62
7
  6
CONTINUOUS
 10
93.1307805723
 20
195.8363784882
  0
VERTEX
  8
0
 62
7
  6
CONTINUOUS
 10
93.2623417095
 20
195.8343068135
  0
VERTEX
  8
0
 62
7
  6
CONTINUOUS
 10
93.3938863595
 20
195.8365641648
  0
SEQEND
  0
LINE
  8
0
 62
7
  6
CONTINUOUS
 10
93.5969509792
 20
195.8485502963
 11
93.7827803137
 21
195.8329604602
  0
POLYLINE
  8
0
 62
7
  6
CONTINUOUS
 66
1
 70
0
  0
VERTEX
  8
0
 62
7
  6
CONTINUOUS
 10
93.7827803137
 20
195.8329604602
  0
VERTEX
  8
0
 62
7
  6
CONTINUOUS
 10
94.0730661811
 20
195.789367247
  0
VERTEX
  8
0
 62
7
  6
CONTINUOUS
 10
94.3592075592
 20
195.7270858397
  0
VERTEX
  8
0
 62
7
  6
CONTINUOUS
 10
94.6396272559
 20
195.6465720492
  0
VERTEX
  8
0
 62
7
  6
CONTINUOUS
 10
94.9131028042
 20
195.5483263971
  0
VERTEX
  8
0
 62
7
  6
CONTINUOUS
 10
95.17845012
 20
195.4329340643
  0
VERTEX
  8
0
 62
7
  6
CONTINUOUS
 10
95.4346187136
 20
195.3010155934
  0
VERTEX
  8
0
 62
7
  6
CONTINUOUS
 10
95.6805601705
 20
195.15325293
  0
VERTEX
  8
0
 62
7
  6
CONTINUOUS
 10
95.9152270905
 20
194.9904260465
  0
VERTEX
  8
0
 62
7
  6
CONTINUOUS
 10
96.1376425333
 20
194.8133814281
  0
VERTEX
  8
0
 62
7
  6
CONTINUOUS
 10
96.3469147665
 20
194.6230052129
  0
VERTEX
  8
0
 62
7
  6
CONTINUOUS
 10
96.542194885
 20
194.4202718768
  0
VERTEX
  8
0
 62
7
  6
CONTINUOUS
 10
96.7227649052
 20
194.2061308181
  0
VERTEX
  8
0
 62
7
  6
CONTINUOUS
 10
96.8879539239
 20
193.9816152312
  0
VERTEX
  8
0
 62
7
  6
CONTINUOUS
 10
97.0371813653
 20
193.747741104
  0
VERTEX
  8
0
 62
7
  6
CONTINUOUS
 10
97.1699239825
 20
193.5056157418
  0
VERTEX
  8
0
 62
7
  6
CONTINUOUS
 10
97.2857818224
 20
193.2562261718
  0
VERTEX
  8
0
 62
7
  6
CONTINUOUS
 10
97.3844069927
 20
193.0006385412
  0
VERTEX
  8
0
 62
7
  6
CONTINUOUS
 10
97.4655032305
 20
192.7398690661
  0
VERTEX
  8
0
 62
7
  6
CONTINUOUS
 10
97.5288494784
 20
192.4749802553
  0
VERTEX
  8
0
 62
7
  6
CONTINUOUS
 10
97.574258792
 20
192.2069858776
  0
VERTEX
  8
0
 62
7
  6
CONTINUOUS
 10
97.6016240223
 20
191.9369353976
  0
VERTEX
  8
0
 62
7
  6
CONTINUOUS
 10
97.6108551063
 20
191.6658472514
  0
VERTEX
  8
0
 62
7
  6
CONTINUOUS
 10
97.6019457053
 20
191.3947484734
  0
VERTEX
  8
0
 62
7
  6
CONTINUOUS
 10
97.5749010271
 20
191.1246682989
  0
VERTEX
  8
0
 62
7
  6
CONTINUOUS
 10
97.5298102135
 20
190.8566264071
  0
VERTEX
  8
0
 62
7
  6
CONTINUOUS
 10
97.4667800423
 20
190.5916728575
  0
VERTEX
  8
0
 62
7
  6
CONTINUOUS
 10
97.385996807
 20
190.3308227349
  0
VERTEX
  8
0
 62
7
  6
CONTINUOUS
 10
97.2876809894
 20
190.0751371346
  0
VERTEX
  8
0
 62
7
  6
CONTINUOUS
 10
97.1721274784
 20
189.8256320872
  0
VERTEX
  8
0
 62
7
  6
CONTINUOUS
 10
97.0396833941
 20
189.5833728113
  0
VERTEX
  8
0
 62
7
  6
CONTINUOUS
 10
96.8907466542
 20
189.349346165
  0
VERTEX
  8
0
 62
7
  6
CONTINUOUS
 10
96.7258392782
 20
189.1246587072
  0
VERTEX
  8
0
 62
7
  6
CONTINUOUS
 10
96.5455395292
 20
188.9103268423
  0
VERTEX
  8
0
 62
7
  6
CONTINUOUS
 10
96.3505173109
 20
188.7073838401
  0
VERTEX
  8
0
 62
7
  6
CONTINUOUS
 10
96.1414882926
 20
188.5167801619
  0
VERTEX
  8
0
 62
7
  6
CONTINUOUS
 10
95.9193007659
 20
188.3394909413
  0
VERTEX
  8
0
 62
7
  6
CONTINUOUS
 10
95.6848452858
 20
188.1764042503
  0
VERTEX
  8
0
 62
7
  6
CONTINUOUS
 10
95.4390984248
 20
188.0283671931
  0
VERTEX
  8
0
 62
7
  6
CONTINUOUS
 10
95.1831063573
 20
187.8961616463
  0
VERTEX
  8
0
 62
7
  6
CONTINUOUS
 10
94.9179178681
 20
187.7804702167
  0
VERTEX
  8
0
 62
7
  6
CONTINUOUS
 10
94.6445849364
 20
187.6819155023
  0
VERTEX
  8
0
 62
7
  6
CONTINUOUS
 10
94.3642902547
 20
187.6010824569
  0
VERTEX
  8
0
 62
7
  6
CONTINUOUS
 10
94.0782534582
 20
187.538472857
  0
SEQEND
  0
LINE
  8
0
 62
7
  6
CONTINUOUS
 10
67.7916849015
 20
203.7634419019
 11
68.0416849015
 21
203.7634419019
  0
LINE
  8
0
 62
7
  6
CONTINUOUS
 10
77.1416849015
 20
203.7634419019
 11
77.3970040505
 21
203.7634419019
  0
LINE
  8
0
 62
7
  6
CONTINUOUS
 10
79.7374296635
 20
203.7634419019
 11
80.0778551143
 21
203.7634419019
  0
LINE
  8
0
 62
7
  6
CONTINUOUS
 10
81.09913171
 20
203.7634419019
 11
81.354450859
 21
203.7634419019
  0
LINE
  8
0
 62
7
  6
CONTINUOUS
 10
81.9501957022
 20
203.7634419019
 11
82.2906209094
 21
203.7634419019
  0
LINE
  8
0
 62
7
  6
CONTINUOUS
 10
82.8863657526
 20
203.7634419019
 11
83.1416849015
 21
203.7634419019
  0
LINE
  8
0
 62
7
  6
CONTINUOUS
 10
80.0778551143
 20
204.0187610502
 11
79.7374296635
 21
204.0187610502
  0
LINE
  8
0
 62
7
  6
CONTINUOUS
 10
79.5246635438
 20
203.805995092
 11
79.7374296635
 21
203.7634419019
  0
LINE
  8
0
 62
2
  6
CONTINUOUS
 10
67.4416849015
 20
192.5434419019
 11
67.4416849015
 21
190.7834419019
  0
LINE
  8
DEFAULT_1
 62
2
  6
CENTER
 10
67.4416849015
 20
187.2634419019
 11
67.4416849015
 21
186.6634419019
  0
LINE
  8
DEFAULT_1
 62
2
  6
CENTER
 10
67.4416849015
 20
196.0634419019
 11
67.4416849015
 21
196.6634419019
  0
LINE
  8
0
 62
7
  6
CONTINUOUS
 10
67.5416849015
 20
205.4655695969
 11
67.5416849015
 21
205.1251439864
  0
LINE
  8
0
 62
7
  6
CONTINUOUS
 10
67.7916849015
 20
205.4230164105
 11
67.7916849015
 21
203.7634419019
  0
LINE
  8
0
 62
7
  6
CONTINUOUS
 10
68.0416849015
 20
203.7634419019
 11
68.0416849015
 21
205.7634419019
  0
LINE
  8
0
 62
7
  6
CONTINUOUS
 10
65.4095649786
 20
185.4741957662
 11
65.6296856146
 21
187.1043757197
  0
LINE
  8
0
 62
7
  6
CONTINUOUS
 10
80.2480679614
 20
204.0613142366
 11
80.0778551143
 21
204.0187610502
  0
LINE
  8
0
 62
7
  6
CONTINUOUS
 10
79.5672168164
 20
205.4655695969
 11
79.7374296635
 21
205.5081227834
  0
LINE
  8
0
 62
7
  6
CONTINUOUS
 10
80.0778551143
 20
203.7634419019
 11
80.2906209906
 21
203.805995092
  0
LINE
  8
0
 62
7
  6
CONTINUOUS
 10
78.1629614973
 20
204.6570589358
 11
78.3757274953
 21
204.6996121222
  0
LINE
  8
0
 62
7
  6
CONTINUOUS
 10
79.7374296635
 20
205.7634419019
 11
79.5246635438
 21
205.7208887154
  0
LINE
  8
0
 62
7
  6
CONTINUOUS
 10
77.3970040505
 20
204.6570589358
 11
78.1629614973
 21
204.6570589358
  0
LINE
  8
0
 62
7
  6
CONTINUOUS
 10
78.2055146482
 20
204.9123780543
 11
77.3970040505
 21
204.9123780543
  0
LINE
  8
0
 62
7
  6
CONTINUOUS
 10
79.7374296635
 20
205.5081227834
 11
80.0778551143
 21
205.5081227834
  0
LINE
  8
0
 62
7
  6
CONTINUOUS
 10
77.3970040505
 20
205.5506759698
 11
78.2055146482
 21
205.5506759698
  0
LINE
  8
0
 62
7
  6
CONTINUOUS
 10
83.1416849015
 20
205.7634419019
 11
82.7587061781
 21
205.7634419019
  0
LINE
  8
0
 62
7
  6
CONTINUOUS
 10
81.4821104334
 20
205.7634419019
 11
81.09913171
 21
205.7634419019
  0
LINE
  8
0
 62
7
  6
CONTINUOUS
 10
80.0778551143
 20
205.7634419019
 11
79.7374296635
 21
205.7634419019
  0
LINE
  8
0
 62
7
  6
CONTINUOUS
 10
78.1629614973
 20
205.7634419019
 11
77.1416849015
 21
205.7634419019
  0
LINE
  8
0
 62
7
  6
CONTINUOUS
 10
68.0416849015
 20
205.7634419019
 11
67.7916849015
 21
205.7634419019
  0
LINE
  8
0
 62
7
  6
CONTINUOUS
 10
78.3757274953
 20
205.7208887154
 11
78.1629614973
 21
205.7634419019
  0
LINE
  8
0
 62
7
  6
CONTINUOUS
 10
80.2906209906
 20
205.7208887154
 11
80.0778551143
 21
205.7634419019
  0
LINE
  8
0
 62
7
  6
CONTINUOUS
 10
79.7374296635
 20
204.0187610502
 11
79.5672168164
 21
204.0613142366
  0
LINE
  8
0
 62
7
  6
CONTINUOUS
 10
80.0778551143
 20
205.5081227834
 11
80.2480679614
 21
205.4655695969
  0
LINE
  8
0
 62
7
  6
CONTINUOUS
 10
78.2055146482
 20
205.5506759698
 11
78.3331742227
 21
205.5081227834
  0
LINE
  8
0
 62
7
  6
CONTINUOUS
 10
79.3544509401
 20
203.891101476
 11
79.5246635438
 21
203.805995092
  0
LINE
  8
0
 62
7
  6
CONTINUOUS
 10
80.4608338377
 20
205.6357823426
 11
80.2906209906
 21
205.7208887154
  0
LINE
  8
0
 62
7
  6
CONTINUOUS
 10
79.5672168164
 20
204.0613142366
 11
79.439557242
 21
204.1464206392
  0
LINE
  8
0
 62
7
  6
CONTINUOUS
 10
80.2480679614
 20
205.4655695969
 11
80.3757275359
 21
205.3804632241
  0
LINE
  8
0
 62
7
  6
CONTINUOUS
 10
78.5459402207
 20
205.5932291562
 11
78.3757274953
 21
205.7208887154
  0
LINE
  8
0
 62
7
  6
CONTINUOUS
 10
79.184238093
 20
204.0613142366
 11
79.3544509401
 21
203.891101476
  0
LINE
  8
0
 62
7
  6
CONTINUOUS
 10
78.3331742227
 20
205.5081227834
 11
78.4182806462
 21
205.4230164105
  0
LINE
  8
0
 62
7
  6
CONTINUOUS
 10
74.0498440135
 20
200.9851231382
 11
74.0498440135
 21
190.2095162592
  0
POLYLINE
  8
0
 62
7
  6
CONTINUOUS
 66
1
 70
0
  0
VERTEX
  8
0
 62
7
  6
CONTINUOUS
 10
65.2541337024
 20
185.0250865952
  0
VERTEX
  8
0
 62
7
  6
CONTINUOUS
 10
65.235006364
 20
184.9606813563
  0
VERTEX
  8
0
 62
7
  6
CONTINUOUS
 10
65.2194160198
 20
184.9025731555
  0
VERTEX
  8
0
 62
7
  6
CONTINUOUS
 10
65.2074114373
 20
184.8515391038
  0
VERTEX
  8
0
 62
7
  6
CONTINUOUS
 10
65.1991833586
 20
184.8081780747
  0
VERTEX
  8
0
 62
7
  6
CONTINUOUS
 10
65.1948478824
 20
184.7730091115
  0
VERTEX
  8
0
 62
7
  6
CONTINUOUS
 10
65.1944146969
 20
184.7464780105
  0
VERTEX
  8
0
 62
7
  6
CONTINUOUS
 10
65.1978954851
 20
184.7289023221
  0
VERTEX
  8
0
 62
7
  6
CONTINUOUS
 10
65.2051214125
 20
184.7205451514
  0
SEQEND
  0
LINE
  8
0
 62
7
  6
CONTINUOUS
 10
80.6310466848
 20
205.4655695969
 11
80.4608338377
 21
205.6357823426
  0
LINE
  8
0
 62
7
  6
CONTINUOUS
 10
78.6735997951
 20
205.4230164105
 11
78.5459402207
 21
205.5932291562
  0
LINE
  8
0
 62
7
  6
CONTINUOUS
 10
79.439557242
 20
204.1464206392
 11
79.3544509401
 21
204.2740801985
  0
LINE
  8
0
 62
7
  6
CONTINUOUS
 10
80.3757275359
 20
205.3804632241
 11
80.4608338377
 21
205.2528035457
  0
LINE
  8
0
 62
7
  6
CONTINUOUS
 10
79.0991316695
 20
204.2315270121
 11
79.184238093
 21
204.0613142366
  0
LINE
  8
0
 62
7
  6
CONTINUOUS
 10
80.7161529866
 20
205.2953568513
 11
80.6310466848
 21
205.4655695969
  0
LINE
  8
0
 62
7
  6
CONTINUOUS
 10
78.4182806462
 20
205.4230164105
 11
78.4608337971
 21
205.2953568513
  0
LINE
  8
0
 62
7
  6
CONTINUOUS
 10
78.7161529461
 20
205.2953568513
 11
78.6735997951
 21
205.4230164105
  0
LINE
  8
0
 62
7
  6
CONTINUOUS
 10
77.1416849015
 20
205.7634419019
 11
77.1416849015
 21
203.7634419019
  0
LINE
  8
0
 62
7
  6
CONTINUOUS
 10
77.3970040505
 20
203.7634419019
 11
77.3970040505
 21
204.6570589358
  0
LINE
  8
0
 62
7
  6
CONTINUOUS
 10
77.3970040505
 20
204.9123780543
 11
77.3970040505
 21
205.5506759698
  0
LINE
  8
0
 62
7
  6
CONTINUOUS
 10
78.4608337971
 20
205.2953568513
 11
78.4608337971
 21
205.1676971728
  0
LINE
  8
0
 62
7
  6
CONTINUOUS
 10
78.7161529461
 20
205.1251439864
 11
78.7161529461
 21
205.2953568513
  0
LINE
  8
0
 62
7
  6
CONTINUOUS
 10
79.0565785186
 20
205.0825908
 11
79.0565785186
 21
204.4442929441
  0
LINE
  8
0
 62
7
  6
CONTINUOUS
 10
79.3118976675
 20
204.4442929441
 11
79.3118976675
 21
205.0825908
  0
LINE
  8
0
 62
7
  6
CONTINUOUS
 10
80.5033871104
 20
205.0825908
 11
80.5033871104
 21
204.4442929441
  0
POLYLINE
  8
0
 62
7
  6
CONTINUOUS
 66
1
 70
0
  0
VERTEX
  8
0
 62
7
  6
CONTINUOUS
 10
65.3969374311
 20
185.4253767918
  0
VERTEX
  8
0
 62
7
  6
CONTINUOUS
 10
65.3997906717
 20
185.4330323851
  0
VERTEX
  8
0
 62
7
  6
CONTINUOUS
 10
65.4023460208
 20
185.4408703029
  0
VERTEX
  8
0
 62
7
  6
CONTINUOUS
 10
65.4046049484
 20
185.4488811357
  0
VERTEX
  8
0
 62
7
  6
CONTINUOUS
 10
65.4065630441
 20
185.4570931116
  0
VERTEX
  8
0
 62
7
  6
CONTINUOUS
 10
65.4082158974
 20
185.4655344582
  0
VERTEX
  8
0
 62
7
  6
CONTINUOUS
 10
65.4095649786
 20
185.4741957662
  0
SEQEND
  0
POLYLINE
  8
0
 62
7
  6
CONTINUOUS
 66
1
 70
0
  0
VERTEX
  8
0
 62
7
  6
CONTINUOUS
 10
65.3969374311
 20
185.4253767918
  0
VERTEX
  8
0
 62
7
  6
CONTINUOUS
 10
65.3691976815
 20
185.354102425
  0
VERTEX
  8
0
 62
7
  6
CONTINUOUS
 10
65.3426706663
 20
185.2838073222
  0
VERTEX
  8
0
 62
7
  6
CONTINUOUS
 10
65.317679312
 20
185.2151205377
  0
VERTEX
  8
0
 62
7
  6
CONTINUOUS
 10
65.2944427279
 20
185.1486939058
  0
VERTEX
  8
0
 62
7
  6
CONTINUOUS
 10
65.2731656171
 20
185.0851598402
  0
VERTEX
  8
0
 62
7
  6
CONTINUOUS
 10
65.2541337024
 20
185.0250865952
  0
SEQEND
  0
LINE
  8
0
 62
7
  6
CONTINUOUS
 10
67.7916849015
 20
205.7634419019
 11
67.5416849015
 21
205.4655695969
  0
LINE
  8
0
 62
7
  6
CONTINUOUS
 10
67.5416849015
 20
205.1251439864
 11
67.7916849015
 21
205.4230164105
  0
LINE
  8
0
 62
7
  6
CONTINUOUS
 10
81.354450859
 20
205.3379100377
 11
81.9501957022
 21
203.7634419019
  0
LINE
  8
0
 62
7
  6
CONTINUOUS
 10
82.1204083058
 20
203.9762078637
 11
81.4821104334
 21
205.7634419019
  0
LINE
  8
0
 62
7
  6
CONTINUOUS
 10
79.3544509401
 20
204.2740801985
 11
79.3118976675
 21
204.4442929441
  0
LINE
  8
0
 62
7
  6
CONTINUOUS
 10
80.4608338377
 20
205.2528035457
 11
80.5033871104
 21
205.0825908
  0
LINE
  8
0
 62
7
  6
CONTINUOUS
 10
79.0565785186
 20
204.4442929441
 11
79.0991316695
 21
204.2315270121
  0
LINE
  8
0
 62
7
  6
CONTINUOUS
 10
80.7587062593
 20
205.0825908
 11
80.7161529866
 21
205.2953568513
  0
LINE
  8
0
 62
7
  6
CONTINUOUS
 10
80.7587062593
 20
204.4442929441
 11
80.7587062593
 21
205.0825908
  0
LINE
  8
0
 62
7
  6
CONTINUOUS
 10
81.09913171
 20
205.7634419019
 11
81.09913171
 21
203.7634419019
  0
LINE
  8
0
 62
7
  6
CONTINUOUS
 10
81.354450859
 20
203.7634419019
 11
81.354450859
 21
205.3379100377
  0
LINE
  8
0
 62
7
  6
CONTINUOUS
 10
82.8863657526
 20
205.3379100377
 11
82.8863657526
 21
203.7634419019
  0
LINE
  8
0
 62
7
  6
CONTINUOUS
 10
83.1416849015
 20
203.7634419019
 11
83.1416849015
 21
205.7634419019
  0
LINE
  8
0
 62
7
  6
CONTINUOUS
 10
79.0991316695
 20
205.2953568513
 11
79.0565785186
 21
205.0825908
  0
LINE
  8
0
 62
7
  6
CONTINUOUS
 10
80.7161529866
 20
204.2315270121
 11
80.7587062593
 21
204.4442929441
  0
LINE
  8
0
 62
7
  6
CONTINUOUS
 10
79.3118976675
 20
205.0825908
 11
79.3544509401
 21
205.2528035457
  0
LINE
  8
0
 62
7
  6
CONTINUOUS
 10
80.5033871104
 20
204.4442929441
 11
80.4608338377
 21
204.2740801985
  0
LINE
  8
0
 62
7
  6
CONTINUOUS
 10
78.4608337971
 20
205.1676971728
 11
78.4182806462
 21
205.0400376136
  0
LINE
  8
0
 62
7
  6
CONTINUOUS
 10
78.6735997951
 20
204.9974844272
 11
78.7161529461
 21
205.1251439864
  0
LINE
  8
0
 62
7
  6
CONTINUOUS
 10
79.184238093
 20
205.4655695969
 11
79.0991316695
 21
205.2953568513
  0
POLYLINE
  8
0
 62
7
  6
CONTINUOUS
 66
1
 70
0
  0
VERTEX
  8
0
 62
7
  6
CONTINUOUS
 10
94.8864323896
 20
185.4253768027
  0
VERTEX
  8
0
 62
7
  6
CONTINUOUS
 10
94.9142253759
 20
185.3541570193
  0
VERTEX
  8
0
 62
7
  6
CONTINUOUS
 10
94.9406788965
 20
185.2838621778
  0
VERTEX
  8
0
 62
7
  6
CONTINUOUS
 10
94.9656584611
 20
185.2151993777
  0
VERTEX
  8
0
 62
7
  6
CONTINUOUS
 10
94.9888920856
 20
185.1487964866
  0
VERTEX
  8
0
 62
7
  6
CONTINUOUS
 10
95.0101096084
 20
185.0852576082
  0
VERTEX
  8
0
 62
7
  6
CONTINUOUS
 10
95.0292093327
 20
185.0252294254
  0
SEQEND
  0
POLYLINE
  8
0
 62
7
  6
CONTINUOUS
 66
1
 70
0
  0
VERTEX
  8
0
 62
7
  6
CONTINUOUS
 10
86.2886303224
 20
189.6371608738
  0
VERTEX
  8
0
 62
7
  6
CONTINUOUS
 10
86.2585710681
 20
189.822677349
  0
VERTEX
  8
0
 62
7
  6
CONTINUOUS
 10
86.240175094
 20
190.0098875714
  0
VERTEX
  8
0
 62
7
  6
CONTINUOUS
 10
86.2335257896
 20
190.2095162592
  0
SEQEND
  0
LINE
  8
0
 62
7
  6
CONTINUOUS
 10
86.2335257896
 20
200.9851231382
 11
86.2335257896
 21
190.2095162592
  0
LINE
  8
0
 62
7
  6
CONTINUOUS
 10
82.7587061781
 20
205.7634419019
 11
82.1204083058
 21
203.9762078637
  0
LINE
  8
0
 62
7
  6
CONTINUOUS
 10
82.2906209094
 20
203.7634419019
 11
82.8863657526
 21
205.3379100377
  0
LINE
  8
0
 62
7
  6
CONTINUOUS
 10
80.6310466848
 20
204.0613142366
 11
80.7161529866
 21
204.2315270121
  0
LINE
  8
0
 62
7
  6
CONTINUOUS
 10
79.3544509401
 20
205.2528035457
 11
79.439557242
 21
205.3804632241
  0
LINE
  8
0
 62
7
  6
CONTINUOUS
 10
80.4608338377
 20
204.2740801985
 11
80.3757275359
 21
204.1464206392
  0
LINE
  8
0
 62
7
  6
CONTINUOUS
 10
78.5459402207
 20
204.8272716815
 11
78.6735997951
 21
204.9974844272
  0
LINE
  8
0
 62
7
  6
CONTINUOUS
 10
78.4182806462
 20
205.0400376136
 11
78.3331742227
 21
204.9549312407
  0
LINE
  8
0
 62
7
  6
CONTINUOUS
 10
79.3544509401
 20
205.6357823426
 11
79.184238093
 21
205.4655695969
  0
LINE
  8
0
 62
7
  6
CONTINUOUS
 10
80.4608338377
 20
203.891101476
 11
80.6310466848
 21
204.0613142366
  0
LINE
  8
0
 62
7
  6
CONTINUOUS
 10
78.3757274953
 20
204.6996121222
 11
78.5459402207
 21
204.8272716815
  0
LINE
  8
0
 62
7
  6
CONTINUOUS
 10
79.439557242
 20
205.3804632241
 11
79.5672168164
 21
205.4655695969
  0
POLYLINE
  8
0
 62
7
  6
CONTINUOUS
 66
1
 70
0
  0
VERTEX
  8
0
 62
7
  6
CONTINUOUS
 10
95.0292093327
 20
185.0252294254
  0
VERTEX
  8
0
 62
7
  6
CONTINUOUS
 10
95.0482445095
 20
184.9607548225
  0
VERTEX
  8
0
 62
7
  6
CONTINUOUS
 10
95.0639330549
 20
184.9026572368
  0
VERTEX
  8
0
 62
7
  6
CONTINUOUS
 10
95.0759466523
 20
184.8515999642
  0
VERTEX
  8
0
 62
7
  6
CONTINUOUS
 10
95.0841809038
 20
184.8082186361
  0
VERTEX
  8
0
 62
7
  6
CONTINUOUS
 10
95.0885224158
 20
184.7730351343
  0
VERTEX
  8
0
 62
7
  6
CONTINUOUS
 10
95.0889578423
 20
184.7464900805
  0
VERTEX
  8
0
 62
7
  6
CONTINUOUS
 10
95.0855677143
 20
184.7289392102
  0
VERTEX
  8
0
 62
7
  6
CONTINUOUS
 10
95.0782505731
 20
184.7205398095
  0
SEQEND
  0
POLYLINE
  8
0
 62
7
  6
CONTINUOUS
 66
1
 70
0
  0
VERTEX
  8
0
 62
7
  6
CONTINUOUS
 10
94.8738048245
 20
185.4741957662
  0
VERTEX
  8
0
 62
7
  6
CONTINUOUS
 10
94.8751539085
 20
185.4655344606
  0
VERTEX
  8
0
 62
7
  6
CONTINUOUS
 10
94.8768067647
 20
185.4570931163
  0
VERTEX
  8
0
 62
7
  6
CONTINUOUS
 10
94.8787648633
 20
185.4488811426
  0
VERTEX
  8
0
 62
7
  6
CONTINUOUS
 10
94.8810237938
 20
185.4408703115
  0
VERTEX
  8
0
 62
7
  6
CONTINUOUS
 10
94.8835791458
 20
185.4330323951
  0
VERTEX
  8
0
 62
7
  6
CONTINUOUS
 10
94.8864323896
 20
185.4253768027
  0
SEQEND
  0
LINE
  8
0
 62
2
  6
CONTINUOUS
 10
92.8416849015
 20
192.5434419019
 11
92.8416849015
 21
190.7834419019
  0
LINE
  8
DEFAULT_1
 62
2
  6
CENTER
 10
92.8416849015
 20
187.2634419019
 11
92.8416849015
 21
186.6634419019
  0
LINE
  8
DEFAULT_1
 62
2
  6
CENTER
 10
92.8416849015
 20
196.0634419019
 11
92.8416849015
 21
196.6634419019
  0
LINE
  8
0
 62
7
  6
CONTINUOUS
 10
80.3757275359
 20
204.1464206392
 11
80.2480679614
 21
204.0613142366
  0
LINE
  8
0
 62
7
  6
CONTINUOUS
 10
79.5246635438
 20
205.7208887154
 11
79.3544509401
 21
205.6357823426
  0
LINE
  8
0
 62
7
  6
CONTINUOUS
 10
80.2906209906
 20
203.805995092
 11
80.4608338377
 21
203.891101476
  0
LINE
  8
0
 62
7
  6
CONTINUOUS
 10
78.3331742227
 20
204.9549312407
 11
78.2055146482
 21
204.9123780543
  0
POLYLINE
  8
0
 62
7
  6
CONTINUOUS
 66
1
 70
0
  0
VERTEX
  8
0
 62
7
  6
CONTINUOUS
 10
94.6537525818
 20
187.1038671696
  0
VERTEX
  8
0
 62
7
  6
CONTINUOUS
 10
94.6480143737
 20
187.1430812162
  0
VERTEX
  8
0
 62
7
  6
CONTINUOUS
 10
94.6418526218
 20
187.1818818413
  0
VERTEX
  8
0
 62
7
  6
CONTINUOUS
 10
94.6353281682
 20
187.2198771737
  0
VERTEX
  8
0
 62
7
  6
CONTINUOUS
 10
94.628496386
 20
187.256752033
  0
VERTEX
  8
0
 62
7
  6
CONTINUOUS
 10
94.6214224354
 20
187.2922012585
  0
VERTEX
  8
0
 62
7
  6
CONTINUOUS
 10
94.6141693921
 20
187.3258686341
  0
VERTEX
  8
0
 62
7
  6
CONTINUOUS
 10
94.6068168456
 20
187.3574353238
  0
VERTEX
  8
0
 62
7
  6
CONTINUOUS
 10
94.5994262537
 20
187.3866014451
  0
VERTEX
  8
0
 62
7
  6
CONTINUOUS
 10
94.5920781453
 20
187.4130939545
  0
VERTEX
  8
0
 62
7
  6
CONTINUOUS
 10
94.5848335534
 20
187.4366655726
  0
VERTEX
  8
0
 62
7
  6
CONTINUOUS
 10
94.5777700666
 20
187.4570994144
  0
VERTEX
  8
0
 62
7
  6
CONTINUOUS
 10
94.5709462038
 20
187.4742089087
  0
VERTEX
  8
0
 62
7
  6
CONTINUOUS
 10
94.5644308493
 20
187.4878398614
  0
VERTEX
  8
0
 62
7
  6
CONTINUOUS
 10
94.5582840435
 20
187.4978708639
  0
VERTEX
  8
0
 62
7
  6
CONTINUOUS
 10
94.5525421255
 20
187.5042104086
  0
VERTEX
  8
0
 62
7
  6
CONTINUOUS
 10
94.5473422281
 20
187.5068150226
  0
SEQEND
  0
LINE
  8
0
 62
7
  6
CONTINUOUS
 10
94.8738048245
 20
185.4741957662
 11
94.6536840799
 21
187.1043757079
  0
LINE
  8
0
 62
7
  6
CONTINUOUS
 10
97.0397769853
 20
201.6625765602
 11
114.5339897469
 21
231.9634419019
  0
POLYLINE
  8
0
 62
7
  6
CONTINUOUS
 66
1
 70
0
  0
VERTEX
  8
0
 62
7
  6
CONTINUOUS
 10
65.736027575
 20
187.5068150226
  0
VERTEX
  8
0
 62
7
  6
CONTINUOUS
 10
65.7308409188
 20
187.5042086782
  0
VERTEX
  8
0
 62
7
  6
CONTINUOUS
 10
65.7251049582
 20
187.4978686198
  0
VERTEX
  8
0
 62
7
  6
CONTINUOUS
 10
65.718954516
 20
187.4878382536
  0
VERTEX
  8
0
 62
7
  6
CONTINUOUS
 10
65.7124326354
 20
187.474208097
  0
VERTEX
  8
0
 62
7
  6
CONTINUOUS
 10
65.7056064575
 20
187.4570988961
  0
VERTEX
  8
0
 62
7
  6
CONTINUOUS
 10
65.6985416879
 20
187.4366652164
  0
VERTEX
  8
0
 62
7
  6
CONTINUOUS
 10
65.691295976
 20
187.4130937165
  0
VERTEX
  8
0
 62
7
  6
CONTINUOUS
 10
65.6839470365
 20
187.3866012836
  0
VERTEX
  8
0
 62
7
  6
CONTINUOUS
 10
65.6765557355
 20
187.3574352145
  0
VERTEX
  8
0
 62
7
  6
CONTINUOUS
 10
65.6692026009
 20
187.3258685591
  0
VERTEX
  8
0
 62
7
  6
CONTINUOUS
 10
65.6619490352
 20
187.2922012072
  0
VERTEX
  8
0
 62
7
  6
CONTINUOUS
 10
65.6548746197
 20
187.2567519996
  0
VERTEX
  8
0
 62
7
  6
CONTINUOUS
 10
65.6480423785
 20
187.219877161
  0
VERTEX
  8
0
 62
7
  6
CONTINUOUS
 10
65.641517543
 20
187.1818818442
  0
VERTEX
  8
0
 62
7
  6
CONTINUOUS
 10
65.6353555491
 20
187.1430812221
  0
VERTEX
  8
0
 62
7
  6
CONTINUOUS
 10
65.6296172212
 20
187.1038671696
  0
SEQEND
  0
LINE
  8
0
 62
7
  6
CONTINUOUS
 10
104.1416849015
 20
249.9634419019
 11
56.1416849015
 21
249.9634419019
  0
LINE
  8
0
 62
7
  6
CONTINUOUS
 10
44.1416849015
 20
137.2972428884
 11
44.1416849015
 21
133.0572428884
  0
LINE
  8
DEFAULT_1
 62
2
  6
CENTER
 10
68.5259127214
 20
129.3692009157
 11
66.5230909285
 21
137.1135381692
  0
LINE
  8
DEFAULT_1
 62
2
  6
CENTER
 10
80.1416849015
 20
139.5772428884
 11
80.1416849015
 21
137.1774428884
  0
LINE
  8
0
 62
2
  6
CONTINUOUS
 10
80.1416849015
 20
136.0572428884
 11
80.1416849015
 21
134.2972428884
  0
LINE
  8
DEFAULT_1
 62
2
  6
CENTER
 10
80.1416849015
 20
130.7772428884
 11
80.1416849015
 21
133.1770428884
  0
LINE
  8
0
 62
7
  6
CONTINUOUS
 10
115.1416849003
 20
132.0572428884
 11
45.1416849015
 21
132.0572428884
  0
LINE
  8
DEFAULT_1
 62
2
  6
CENTER
 10
84.5416849015
 20
135.1772428884
 11
82.1418849015
 21
135.1772428884
  0
LINE
  8
0
 62
2
  6
CONTINUOUS
 10
81.0216849015
 20
135.1772428884
 11
79.2616849015
 21
135.1772428884
  0
LINE
  8
DEFAULT_1
 62
2
  6
CENTER
 10
75.7416849015
 20
135.1772428884
 11
78.1414849015
 21
135.1772428884
  0
LINE
  8
0
 62
7
  6
CONTINUOUS
 10
45.1416849015
 20
138.2972428884
 11
115.1416849015
 21
138.2972428884
  0
LINE
  8
DEFAULT_1
 62
2
  6
CENTER
 10
92.8416849015
 20
128.4545040626
 11
92.8416849015
 21
140.2972428884
  0
LINE
  8
0
 62
7
  6
CONTINUOUS
 10
116.1416849015
 20
137.2972428884
 11
116.1416849015
 21
133.0572428884
  0
LINE
  8
0
 62
7
  6
CONTINUOUS
 10
158.9674540189
 20
184.1634419019
 11
163.1386276651
 21
184.1634419019
  0
POLYLINE
  8
0
 62
7
  6
CONTINUOUS
 66
1
 70
0
  0
VERTEX
  8
0
 62
7
  6
CONTINUOUS
 10
157.9468713503
 20
191.6639920032
  0
VERTEX
  8
0
 62
7
  6
CONTINUOUS
 10
157.9365281411
 20
191.6636560026
  0
VERTEX
  8
0
 62
7
  6
CONTINUOUS
 10
157.9330635104
 20
191.6634419037
  0
SEQEND
  0
LINE
  8
0
 62
7
  6
CONTINUOUS
 10
158.0167897997
 20
191.6656412368
 11
157.9468713503
 21
191.6639920032
  0
LINE
  8
0
 62
7
  6
CONTINUOUS
 10
158.2329114911
 20
191.6698167947
 11
158.0167897997
 21
191.6656412368
  0
LINE
  8
DEFAULT_1
 62
2
  6
CENTER
 10
155.9330634573
 20
191.6634419019
 11
167.7758022832
 21
191.6634419019
  0
POLYLINE
  8
0
 62
7
  6
CONTINUOUS
 66
1
 70
0
  0
VERTEX
  8
0
 62
7
  6
CONTINUOUS
 10
164.1730632268
 20
191.6634419099
  0
VERTEX
  8
0
 62
7
  6
CONTINUOUS
 10
164.1695987136
 20
191.6636557889
  0
VERTEX
  8
0
 62
7
  6
CONTINUOUS
 10
164.1592554973
 20
191.6639876554
  0
VERTEX
  8
0
 62
7
  6
CONTINUOUS
 10
164.1422150108
 20
191.6644267863
  0
VERTEX
  8
0
 62
7
  6
CONTINUOUS
 10
163.8732156272
 20
191.6698167934
  0
SEQEND
  0
POLYLINE
  8
0
 62
7
  6
CONTINUOUS
 66
1
 70
0
  0
VERTEX
  8
0
 62
7
  6
CONTINUOUS
 10
163.8143886276
 20
187.4570415618
  0
VERTEX
  8
0
 62
7
  6
CONTINUOUS
 10
163.8471918965
 20
187.4366652164
  0
VERTEX
  8
0
 62
7
  6
CONTINUOUS
 10
163.8778869826
 20
187.4130937165
  0
VERTEX
  8
0
 62
7
  6
CONTINUOUS
 10
163.9060719761
 20
187.3866012836
  0
VERTEX
  8
0
 62
7
  6
CONTINUOUS
 10
163.9314677577
 20
187.3574352145
  0
VERTEX
  8
0
 62
7
  6
CONTINUOUS
 10
163.953824241
 20
187.3258685591
  0
VERTEX
  8
0
 62
7
  6
CONTINUOUS
 10
163.9729152976
 20
187.2922012072
  0
VERTEX
  8
0
 62
7
  6
CONTINUOUS
 10
163.9885506008
 20
187.2567519996
  0
VERTEX
  8
0
 62
7
  6
CONTINUOUS
 10
164.0005636302
 20
187.219877161
  0
VERTEX
  8
0
 62
7
  6
CONTINUOUS
 10
164.0088440273
 20
187.1818818442
  0
VERTEX
  8
0
 62
7
  6
CONTINUOUS
 10
164.0132953611
 20
187.1430812221
  0
VERTEX
  8
0
 62
7
  6
CONTINUOUS
 10
164.0138395991
 20
187.1038671696
  0
SEQEND
  0
POLYLINE
  8
0
 62
7
  6
CONTINUOUS
 66
1
 70
0
  0
VERTEX
  8
0
 62
7
  6
CONTINUOUS
 10
158.3245061159
 20
185.0252294448
  0
VERTEX
  8
0
 62
7
  6
CONTINUOUS
 10
158.3845010374
 20
184.9607549783
  0
VERTEX
  8
0
 62
7
  6
CONTINUOUS
 10
158.4515606332
 20
184.9026575078
  0
VERTEX
  8
0
 62
7
  6
CONTINUOUS
 10
158.524826472
 20
184.8516003065
  0
VERTEX
  8
0
 62
7
  6
CONTINUOUS
 10
158.6033791242
 20
184.8082190668
  0
VERTEX
  8
0
 62
7
  6
CONTINUOUS
 10
158.6862337758
 20
184.7730358287
  0
VERTEX
  8
0
 62
7
  6
CONTINUOUS
 10
158.7723614979
 20
184.7464909326
  0
VERTEX
  8
0
 62
7
  6
CONTINUOUS
 10
158.8607004796
 20
184.7289398149
  0
VERTEX
  8
0
 62
7
  6
CONTINUOUS
 10
158.9501410958
 20
184.7205398198
  0
SEQEND
  0
LINE
  8
0
 62
7
  6
CONTINUOUS
 10
163.8247633303
 20
195.8667304617
 11
163.8081044632
 21
195.8656611138
  0
LINE
  8
0
 62
7
  6
CONTINUOUS
 10
158.2813637619
 20
195.8667305276
 11
158.2980223836
 21
195.8656611586
  0
POLYLINE
  8
0
 62
7
  6
CONTINUOUS
 66
1
 70
0
  0
VERTEX
  8
0
 62
7
  6
CONTINUOUS
 10
158.2913761863
 20
195.870041352
  0
VERTEX
  8
0
 62
7
  6
CONTINUOUS
 10
158.2985458711
 20
195.8653161528
  0
VERTEX
  8
0
 62
7
  6
CONTINUOUS
 10
158.3171370971
 20
195.8496002027
  0
VERTEX
  8
0
 62
7
  6
CONTINUOUS
 10
158.3447019269
 20
195.8206016168
  0
VERTEX
  8
0
 62
7
  6
CONTINUOUS
 10
158.3794416129
 20
195.7764913976
  0
VERTEX
  8
0
 62
7
  6
CONTINUOUS
 10
158.4201812534
 20
195.7152826586
  0
VERTEX
  8
0
 62
7
  6
CONTINUOUS
 10
158.4653040399
 20
195.6361571392
  0
VERTEX
  8
0
 62
7
  6
CONTINUOUS
 10
158.5136010336
 20
195.5383138975
  0
VERTEX
  8
0
 62
7
  6
CONTINUOUS
 10
158.5638059479
 20
195.4216922525
  0
VERTEX
  8
0
 62
7
  6
CONTINUOUS
 10
158.6148176573
 20
195.2865845441
  0
VERTEX
  8
0
 62
7
  6
CONTINUOUS
 10
158.6657436159
 20
195.1333925566
  0
VERTEX
  8
0
 62
7
  6
CONTINUOUS
 10
158.7157343554
 20
194.9629971961
  0
VERTEX
  8
0
 62
7
  6
CONTINUOUS
 10
158.7641563273
 20
194.7761313368
  0
VERTEX
  8
0
 62
7
  6
CONTINUOUS
 10
158.8103911392
 20
194.5739649652
  0
VERTEX
  8
0
 62
7
  6
CONTINUOUS
 10
158.8539826701
 20
194.3574605698
  0
VERTEX
  8
0
 62
7
  6
CONTINUOUS
 10
158.8944858617
 20
194.1279497111
  0
VERTEX
  8
0
 62
7
  6
CONTINUOUS
 10
158.9315846187
 20
193.8864670959
  0
VERTEX
  8
0
 62
7
  6
CONTINUOUS
 10
158.9649775923
 20
193.6342862855
  0
VERTEX
  8
0
 62
7
  6
CONTINUOUS
 10
158.9944225514
 20
193.3726229031
  0
VERTEX
  8
0
 62
7
  6
CONTINUOUS
 10
159.0197042871
 20
193.1028415238
  0
VERTEX
  8
0
 62
7
  6
CONTINUOUS
 10
159.0406588275
 20
192.826196041
  0
VERTEX
  8
0
 62
7
  6
CONTINUOUS
 10
159.0571477697
 20
192.5440429955
  0
VERTEX
  8
0
 62
7
  6
CONTINUOUS
 10
159.0690679135
 20
192.257703426
  0
VERTEX
  8
0
 62
7
  6
CONTINUOUS
 10
159.0763440168
 20
191.9685488567
  0
VERTEX
  8
0
 62
7
  6
CONTINUOUS
 10
159.0789310768
 20
191.6779357064
  0
VERTEX
  8
0
 62
7
  6
CONTINUOUS
 10
159.0768124393
 20
191.387236921
  0
VERTEX
  8
0
 62
7
  6
CONTINUOUS
 10
159.070000248
 20
191.0978268615
  0
VERTEX
  8
0
 62
7
  6
CONTINUOUS
 10
159.0585353155
 20
190.8110699312
  0
VERTEX
  8
0
 62
7
  6
CONTINUOUS
 10
159.042487724
 20
190.5283265473
  0
VERTEX
  8
0
 62
7
  6
CONTINUOUS
 10
159.0219543651
 20
190.2509054374
  0
VERTEX
  8
0
 62
7
  6
CONTINUOUS
 10
158.9970696851
 20
189.9801890818
  0
VERTEX
  8
0
 62
7
  6
CONTINUOUS
 10
158.9679961269
 20
189.7174663206
  0
VERTEX
  8
0
 62
7
  6
CONTINUOUS
 10
158.9349394835
 20
189.4640686849
  0
VERTEX
  8
0
 62
7
  6
CONTINUOUS
 10
158.8981297752
 20
189.2211836556
  0
VERTEX
  8
0
 62
7
  6
CONTINUOUS
 10
158.8578668887
 20
188.9901381931
  0
VERTEX
  8
0
 62
7
  6
CONTINUOUS
 10
158.8144676167
 20
188.7720143601
  0
VERTEX
  8
0
 62
7
  6
CONTINUOUS
 10
158.7683654579
 20
188.5681319278
  0
VERTEX
  8
0
 62
7
  6
CONTINUOUS
 10
158.7200100555
 20
188.3794728375
  0
VERTEX
  8
0
 62
7
  6
CONTINUOUS
 10
158.6700015564
 20
188.207195017
  0
VERTEX
  8
0
 62
7
  6
CONTINUOUS
 10
158.6189430978
 20
188.0520021463
  0
VERTEX
  8
0
 62
7
  6
CONTINUOUS
 10
158.567709077
 20
187.9149209252
  0
VERTEX
  8
0
 62
7
  6
CONTINUOUS
 10
158.5172133634
 20
187.7964444342
  0
VERTEX
  8
0
 62
7
  6
CONTINUOUS
 10
158.4685581722
 20
187.6968893021
  0
VERTEX
  8
0
 62
7
  6
CONTINUOUS
 10
158.4230084581
 20
187.6162120262
  0
VERTEX
  8
0
 62
7
  6
CONTINUOUS
 10
158.3818057368
 20
187.5536722724
  0
VERTEX
  8
0
 62
7
  6
CONTINUOUS
 10
158.3465947006
 20
187.5084802304
  0
VERTEX
  8
0
 62
7
  6
CONTINUOUS
 10
158.3185306038
 20
187.4786027801
  0
VERTEX
  8
0
 62
7
  6
CONTINUOUS
 10
158.2996238223
 20
187.462363024
  0
VERTEX
  8
0
 62
7
  6
CONTINUOUS
 10
158.2917380712
 20
187.4570414425
  0
SEQEND
  0
POLYLINE
  8
0
 62
7
  6
CONTINUOUS
 66
1
 70
0
  0
VERTEX
  8
0
 62
7
  6
CONTINUOUS
 10
158.1524624051
 20
185.4253768045
  0
VERTEX
  8
0
 62
7
  6
CONTINUOUS
 10
158.1634961265
 20
185.3541570258
  0
VERTEX
  8
0
 62
7
  6
CONTINUOUS
 10
158.1818481541
 20
185.2838621879
  0
VERTEX
  8
0
 62
7
  6
CONTINUOUS
 10
158.2073886037
 20
185.2151993903
  0
VERTEX
  8
0
 62
7
  6
CONTINUOUS
 10
158.2398835011
 20
185.1487965011
  0
VERTEX
  8
0
 62
7
  6
CONTINUOUS
 10
158.2790319318
 20
185.0852576248
  0
VERTEX
  8
0
 62
7
  6
CONTINUOUS
 10
158.3245061159
 20
185.0252294448
  0
SEQEND
  0
POLYLINE
  8
0
 62
7
  6
CONTINUOUS
 66
1
 70
0
  0
VERTEX
  8
0
 62
7
  6
CONTINUOUS
 10
157.9330651185
 20
196.2633695322
  0
VERTEX
  8
0
 62
7
  6
CONTINUOUS
 10
157.9364932551
 20
196.2111134719
  0
VERTEX
  8
0
 62
7
  6
CONTINUOUS
 10
157.9467189387
 20
196.1597531202
  0
VERTEX
  8
0
 62
7
  6
CONTINUOUS
 10
157.963566893
 20
196.1101688347
  0
VERTEX
  8
0
 62
7
  6
CONTINUOUS
 10
157.9867483305
 20
196.0632105302
  0
VERTEX
  8
0
 62
7
  6
CONTINUOUS
 10
158.0158659028
 20
196.0196831096
  0
VERTEX
  8
0
 62
7
  6
CONTINUOUS
 10
158.0504205111
 20
195.9803326679
  0
VERTEX
  8
0
 62
7
  6
CONTINUOUS
 10
158.0898198617
 20
195.9458337034
  0
VERTEX
  8
0
 62
7
  6
CONTINUOUS
 10
158.133388618
 20
195.9167775562
  0
VERTEX
  8
0
 62
7
  6
CONTINUOUS
 10
158.1803799766
 20
195.8936622718
  0
VERTEX
  8
0
 62
7
  6
CONTINUOUS
 10
158.2299884677
 20
195.876884065
  0
VERTEX
  8
0
 62
7
  6
CONTINUOUS
 10
158.2813637619
 20
195.8667305276
  0
SEQEND
  0
POLYLINE
  8
0
 62
7
  6
CONTINUOUS
 66
1
 70
0
  0
VERTEX
  8
0
 62
7
  6
CONTINUOUS
 10
158.149196695
 20
185.4741957662
  0
VERTEX
  8
0
 62
7
  6
CONTINUOUS
 10
158.1495455918
 20
185.4655344611
  0
VERTEX
  8
0
 62
7
  6
CONTINUOUS
 10
158.1499730494
 20
185.4570931171
  0
VERTEX
  8
0
 62
7
  6
CONTINUOUS
 10
158.1504794481
 20
185.4488811438
  0
VERTEX
  8
0
 62
7
  6
CONTINUOUS
 10
158.1510636472
 20
185.440870313
  0
VERTEX
  8
0
 62
7
  6
CONTINUOUS
 10
158.1517245061
 20
185.4330323968
  0
VERTEX
  8
0
 62
7
  6
CONTINUOUS
 10
158.1524624051
 20
185.4253768045
  0
SEQEND
  0
LINE
  8
0
 62
7
  6
CONTINUOUS
 10
157.9330634573
 20
191.6634419019
 11
158.1680081062
 21
184.935507429
  0
LINE
  8
0
 62
7
  6
CONTINUOUS
 10
157.9330634573
 20
191.6634419019
 11
157.9330634573
 21
248.9634419019
  0
POLYLINE
  8
0
 62
7
  6
CONTINUOUS
 66
1
 70
0
  0
VERTEX
  8
0
 62
7
  6
CONTINUOUS
 10
158.0922873155
 20
187.1038671696
  0
VERTEX
  8
0
 62
7
  6
CONTINUOUS
 10
158.0928315794
 20
187.1430812171
  0
VERTEX
  8
0
 62
7
  6
CONTINUOUS
 10
158.0972829608
 20
187.1818818417
  0
VERTEX
  8
0
 62
7
  6
CONTINUOUS
 10
158.105563429
 20
187.2198771717
  0
VERTEX
  8
0
 62
7
  6
CONTINUOUS
 10
158.1175765371
 20
187.2567520281
  0
VERTEX
  8
0
 62
7
  6
CONTINUOUS
 10
158.1332119089
 20
187.292201251
  0
VERTEX
  8
0
 62
7
  6
CONTINUOUS
 10
158.1523030333
 20
187.3258686235
  0
VERTEX
  8
0
 62
7
  6
CONTINUOUS
 10
158.1746595841
 20
187.3574353089
  0
VERTEX
  8
0
 62
7
  6
CONTINUOUS
 10
158.2000554406
 20
187.3866014238
  0
VERTEX
  8
0
 62
7
  6
CONTINUOUS
 10
158.228240516
 20
187.4130939239
  0
VERTEX
  8
0
 62
7
  6
CONTINUOUS
 10
158.258935713
 20
187.4366655279
  0
VERTEX
  8
0
 62
7
  6
CONTINUOUS
 10
158.2917383653
 20
187.457041606
  0
SEQEND
  0
LINE
  8
0
 62
7
  6
CONTINUOUS
 10
164.1730634573
 20
248.9634419019
 11
164.1730634573
 21
191.6634432275
  0
LINE
  8
0
 62
7
  6
CONTINUOUS
 10
163.9381195656
 20
184.9355291098
 11
164.1730635036
 21
191.6634432277
  0
POLYLINE
  8
0
 62
7
  6
CONTINUOUS
 66
1
 70
0
  0
VERTEX
  8
0
 62
7
  6
CONTINUOUS
 10
164.1730634431
 20
196.2633695322
  0
VERTEX
  8
0
 62
7
  6
CONTINUOUS
 10
164.1696352858
 20
196.2111134035
  0
VERTEX
  8
0
 62
7
  6
CONTINUOUS
 10
164.1594095505
 20
196.1597529875
  0
VERTEX
  8
0
 62
7
  6
CONTINUOUS
 10
164.1425615151
 20
196.1101686456
  0
VERTEX
  8
0
 62
7
  6
CONTINUOUS
 10
164.119379969
 20
196.0632102953
  0
VERTEX
  8
0
 62
7
  6
CONTINUOUS
 10
164.0902622638
 20
196.0196828427
  0
VERTEX
  8
0
 62
7
  6
CONTINUOUS
 10
164.0557075017
 20
195.9803323853
  0
VERTEX
  8
0
 62
7
  6
CONTINUOUS
 10
164.0163079805
 20
195.9458334234
  0
VERTEX
  8
0
 62
7
  6
CONTINUOUS
 10
163.9727390416
 20
195.9167772985
  0
VERTEX
  8
0
 62
7
  6
CONTINUOUS
 10
163.9257474936
 20
195.8936620572
  0
VERTEX
  8
0
 62
7
  6
CONTINUOUS
 10
163.8761388115
 20
195.8768839144
  0
VERTEX
  8
0
 62
7
  6
CONTINUOUS
 10
163.8247633303
 20
195.8667304617
  0
SEQEND
  0
POLYLINE
  8
0
 62
7
  6
CONTINUOUS
 66
1
 70
0
  0
VERTEX
  8
0
 62
7
  6
CONTINUOUS
 10
163.9536645139
 20
185.4253767918
  0
VERTEX
  8
0
 62
7
  6
CONTINUOUS
 10
163.9544024121
 20
185.4330323851
  0
VERTEX
  8
0
 62
7
  6
CONTINUOUS
 10
163.9550632703
 20
185.4408703029
  0
VERTEX
  8
0
 62
7
  6
CONTINUOUS
 10
163.9556474687
 20
185.4488811357
  0
VERTEX
  8
0
 62
7
  6
CONTINUOUS
 10
163.9561538667
 20
185.4570931116
  0
VERTEX
  8
0
 62
7
  6
CONTINUOUS
 10
163.9565813236
 20
185.4655344582
  0
VERTEX
  8
0
 62
7
  6
CONTINUOUS
 10
163.9569302197
 20
185.4741957662
  0
SEQEND
  0
POLYLINE
  8
0
 62
7
  6
CONTINUOUS
 66
1
 70
0
  0
VERTEX
  8
0
 62
7
  6
CONTINUOUS
 10
163.9536645139
 20
185.4253767918
  0
VERTEX
  8
0
 62
7
  6
CONTINUOUS
 10
163.9426345843
 20
185.354102425
  0
VERTEX
  8
0
 62
7
  6
CONTINUOUS
 10
163.9242614538
 20
185.2838073222
  0
VERTEX
  8
0
 62
7
  6
CONTINUOUS
 10
163.898703449
 20
185.2151205377
  0
VERTEX
  8
0
 62
7
  6
CONTINUOUS
 10
163.8661868964
 20
185.1486939058
  0
VERTEX
  8
0
 62
7
  6
CONTINUOUS
 10
163.8270032256
 20
185.0851598402
  0
VERTEX
  8
0
 62
7
  6
CONTINUOUS
 10
163.781506799
 20
185.0250865952
  0
SEQEND
  0
POLYLINE
  8
0
 62
7
  6
CONTINUOUS
 66
1
 70
0
  0
VERTEX
  8
0
 62
7
  6
CONTINUOUS
 10
163.8147507284
 20
195.870041352
  0
VERTEX
  8
0
 62
7
  6
CONTINUOUS
 10
163.8075810437
 20
195.8653161529
  0
VERTEX
  8
0
 62
7
  6
CONTINUOUS
 10
163.7889898177
 20
195.8496002028
  0
VERTEX
  8
0
 62
7
  6
CONTINUOUS
 10
163.7614249876
 20
195.8206016166
  0
VERTEX
  8
0
 62
7
  6
CONTINUOUS
 10
163.7266853011
 20
195.7764913968
  0
VERTEX
  8
0
 62
7
  6
CONTINUOUS
 10
163.6859456602
 20
195.7152826568
  0
VERTEX
  8
0
 62
7
  6
CONTINUOUS
 10
163.6408228731
 20
195.636157136
  0
VERTEX
  8
0
 62
7
  6
CONTINUOUS
 10
163.5925258788
 20
195.5383138925
  0
VERTEX
  8
0
 62
7
  6
CONTINUOUS
 10
163.5423209639
 20
195.4216922454
  0
VERTEX
  8
0
 62
7
  6
CONTINUOUS
 10
163.491309254
 20
195.2865845345
  0
VERTEX
  8
0
 62
7
  6
CONTINUOUS
 10
163.4403832949
 20
195.1333925442
  0
VERTEX
  8
0
 62
7
  6
CONTINUOUS
 10
163.390392555
 20
194.9629971806
  0
VERTEX
  8
0
 62
7
  6
CONTINUOUS
 10
163.3419705828
 20
194.776131318
  0
VERTEX
  8
0
 62
7
  6
CONTINUOUS
 10
163.2957357707
 20
194.5739649428
  0
VERTEX
  8
0
 62
7
  6
CONTINUOUS
 10
163.2521442397
 20
194.3574605437
  0
VERTEX
  8
0
 62
7
  6
CONTINUOUS
 10
163.211641048
 20
194.1279496812
  0
VERTEX
  8
0
 62
7
  6
CONTINUOUS
 10
163.1745422912
 20
193.8864670621
  0
VERTEX
  8
0
 62
7
  6
CONTINUOUS
 10
163.1411493177
 20
193.6342862477
  0
VERTEX
  8
0
 62
7
  6
CONTINUOUS
 10
163.1117043589
 20
193.3726228613
  0
VERTEX
  8
0
 62
7
  6
CONTINUOUS
 10
163.0864226237
 20
193.1028414781
  0
VERTEX
  8
0
 62
7
  6
CONTINUOUS
 10
163.0654680838
 20
192.8261959915
  0
VERTEX
  8
0
 62
7
  6
CONTINUOUS
 10
163.0489791423
 20
192.5440429423
  0
VERTEX
  8
0
 62
7
  6
CONTINUOUS
 10
163.0370589993
 20
192.2577033692
  0
VERTEX
  8
0
 62
7
  6
CONTINUOUS
 10
163.0297828969
 20
191.9685487966
  0
VERTEX
  8
0
 62
7
  6
CONTINUOUS
 10
163.0271958378
 20
191.6779356432
  0
VERTEX
  8
0
 62
7
  6
CONTINUOUS
 10
163.0293144764
 20
191.387236855
  0
VERTEX
  8
0
 62
7
  6
CONTINUOUS
 10
163.0361266688
 20
191.0978267931
  0
VERTEX
  8
0
 62
7
  6
CONTINUOUS
 10
163.0475916025
 20
190.8110698606
  0
VERTEX
  8
0
 62
7
  6
CONTINUOUS
 10
163.0636391953
 20
190.5283264751
  0
VERTEX
  8
0
 62
7
  6
CONTINUOUS
 10
163.0841725557
 20
190.250905364
  0
VERTEX
  8
0
 62
7
  6
CONTINUOUS
 10
163.1090572371
 20
189.9801890077
  0
VERTEX
  8
0
 62
7
  6
CONTINUOUS
 10
163.1381307968
 20
189.7174662462
  0
VERTEX
  8
0
 62
7
  6
CONTINUOUS
 10
163.1711874415
 20
189.4640686109
  0
VERTEX
  8
0
 62
7
  6
CONTINUOUS
 10
163.2079971513
 20
189.2211835826
  0
VERTEX
  8
0
 62
7
  6
CONTINUOUS
 10
163.2482600393
 20
188.9901381216
  0
VERTEX
  8
0
 62
7
  6
CONTINUOUS
 10
163.2916593127
 20
188.7720142908
  0
VERTEX
  8
0
 62
7
  6
CONTINUOUS
 10
163.3377614728
 20
188.5681318613
  0
VERTEX
  8
0
 62
7
  6
CONTINUOUS
 10
163.3861168763
 20
188.3794727746
  0
VERTEX
  8
0
 62
7
  6
CONTINUOUS
 10
163.4361253764
 20
188.2071949583
  0
VERTEX
  8
0
 62
7
  6
CONTINUOUS
 10
163.4871838358
 20
188.0520020925
  0
VERTEX
  8
0
 62
7
  6
CONTINUOUS
 10
163.538417857
 20
187.9149208768
  0
VERTEX
  8
0
 62
7
  6
CONTINUOUS
 10
163.5889135706
 20
187.7964443919
  0
VERTEX
  8
0
 62
7
  6
CONTINUOUS
 10
163.6375687613
 20
187.6968892661
  0
VERTEX
  8
0
 62
7
  6
CONTINUOUS
 10
163.6831184744
 20
187.616211997
  0
VERTEX
  8
0
 62
7
  6
CONTINUOUS
 10
163.724321194
 20
187.5536722499
  0
VERTEX
  8
0
 62
7
  6
CONTINUOUS
 10
163.7595322278
 20
187.5084802144
  0
VERTEX
  8
0
 62
7
  6
CONTINUOUS
 10
163.7875963213
 20
187.4786027701
  0
VERTEX
  8
0
 62
7
  6
CONTINUOUS
 10
163.8065030985
 20
187.4623630194
  0
VERTEX
  8
0
 62
7
  6
CONTINUOUS
 10
163.8143889476
 20
187.457041384
  0
SEQEND
  0
POLYLINE
  8
0
 62
7
  6
CONTINUOUS
 66
1
 70
0
  0
VERTEX
  8
0
 62
7
  6
CONTINUOUS
 10
163.781506799
 20
185.0250865952
  0
VERTEX
  8
0
 62
7
  6
CONTINUOUS
 10
163.7215009912
 20
184.9606813563
  0
VERTEX
  8
0
 62
7
  6
CONTINUOUS
 10
163.6544586138
 20
184.9025731555
  0
VERTEX
  8
0
 62
7
  6
CONTINUOUS
 10
163.5812035496
 20
184.8515391038
  0
VERTEX
  8
0
 62
7
  6
CONTINUOUS
 10
163.5026654977
 20
184.8081780747
  0
VERTEX
  8
0
 62
7
  6
CONTINUOUS
 10
163.4198292538
 20
184.7730091115
  0
VERTEX
  8
0
 62
7
  6
CONTINUOUS
 10
163.3337215372
 20
184.7464780105
  0
VERTEX
  8
0
 62
7
  6
CONTINUOUS
 10
163.2454148437
 20
184.7289023221
  0
VERTEX
  8
0
 62
7
  6
CONTINUOUS
 10
163.1559858189
 20
184.7205451514
  0
SEQEND
  0
LINE
  8
0
 62
7
  6
CONTINUOUS
 10
158.9330634573
 20
249.9634419019
 11
163.1730634573
 21
249.9634419019
  0
ARC
  8
0
 62
7
  6
CONTINUOUS
 10
66.1416849015
 20
191.1634419019
 40
8.0
 50
313.7018995207
 51
348.99979453
  0
ARC
  8
0
 62
7
  6
CONTINUOUS
 10
68.0416849015
 20
191.6634419019
 40
7.5
 50
135.9267913354
 51
284.2852856313
  0
ARC
  8
0
 62
7
  6
CONTINUOUS
 10
59.7794912027
 20
199.6625765602
 40
4.0
 50
315.9267913354
 51
30.0
  0
ARC
  8
0
 62
7
  6
CONTINUOUS
 10
68.9053104181
 20
188.2716649388
 40
4.0
 50
284.2852856313
 51
313.7018995207
  0
ARC
  8
0
 62
7
  6
CONTINUOUS
 10
71.0498440135
 20
190.2095162592
 40
3.0
 50
349.0013930603
 51
360.0
  0
ARC
  8
0
 62
7
  6
CONTINUOUS
 10
74.84984397
 20
200.9851260128
 40
0.7999999909
 50
98.178284526
 51
180.0000000023
  0
ARC
  8
0
 62
7
  6
CONTINUOUS
 10
56.1416849015
 20
237.9634419019
 40
12.0
 50
90.0
 51
210.0000000001
  0
ARC
  8
0
 62
7
  6
CONTINUOUS
 10
80.1416849015
 20
164.1634419019
 40
38.0
 50
81.1019897314
 51
98.8980102687
  0
ARC
  8
0
 62
7
  6
CONTINUOUS
 10
94.1416849015
 20
191.1634419019
 40
8.0
 50
191.0002126484
 51
226.2981004793
  0
ARC
  8
0
 62
7
  6
CONTINUOUS
 10
92.2416849015
 20
191.6634419019
 40
7.5
 50
255.7147143687
 51
44.0732086646
  0
ARC
  8
0
 62
7
  6
CONTINUOUS
 10
100.5038786004
 20
199.6625765602
 40
4.0
 50
150.0
 51
224.0732086646
  0
ARC
  8
0
 62
7
  6
CONTINUOUS
 10
91.3780593849
 20
188.2716649388
 40
4.0
 50
226.2981004793
 51
255.7147143687
  0
ARC
  8
0
 62
7
  6
CONTINUOUS
 10
85.4335258331
 20
200.9851260128
 40
0.7999999909
 50
0.0
 51
81.8217154739
  0
ARC
  8
0
 62
7
  6
CONTINUOUS
 10
104.1416849015
 20
237.9634419019
 40
12.0
 50
330.0
 51
90.0000000001
  0
ARC
  8
0
 62
7
  6
CONTINUOUS
 10
45.1416849015
 20
137.2972428884
 40
1.0
 50
90.0
 51
180.0
  0
ARC
  8
0
 62
7
  6
CONTINUOUS
 10
115.1416849015
 20
137.2972428884
 40
1.0
 50
0.0
 51
90.0
  0
ARC
  8
0
 62
7
  6
CONTINUOUS
 10
115.1416849015
 20
133.0572428884
 40
1.0
 50
270.0
 51
360.0
  0
ARC
  8
0
 62
7
  6
CONTINUOUS
 10
45.1416849015
 20
133.0572428884
 40
1.0
 50
180.0
 51
270.0
  0
ARC
  8
0
 62
7
  6
CONTINUOUS
 10
163.1730634573
 20
248.9634419019
 40
1.0
 50
0.0
 51
90.0
  0
ARC
  8
0
 62
7
  6
CONTINUOUS
 10
158.9330634573
 20
248.9634419019
 40
1.0
 50
90.0
 51
180.0
  0
ARC
  8
0
 62
7
  6
CONTINUOUS
 10
163.1386066677
 20
184.963441942
 40
0.8
 50
270.0000000239
 51
358.0
  0
ARC
  8
0
 62
7
  6
CONTINUOUS
 10
158.9675202481
 20
184.9634419087
 40
0.8
 50
182.0
 51
269.9999999956
  0
ARC
  8
0
 62
7
  6
CONTINUOUS
 10
158.3330634573
 20
196.2343058131
 40
0.4
 50
180.0
 51
269.7697428179
  0
ARC
  8
0
 62
7
  6
CONTINUOUS
 10
163.7730634573
 20
196.2343058129
 40
0.4
 50
270.2302571704
 51
360.0
  0
ENDSEC
  0
EOF
