  0
SECTION
  2
HEADER
  9
$EXTMAX
 10
420.0
 20
297.0
 30
0.0
  9
$EXTMIN
 10
0.0
 20
0.0
 30
0.0
  9
$LIMMIN
 10
0.0
 20
0.0
  9
$LIMMAX
 10
420.0
 20
297.0
  9
$VIEWCTR
 10
210.0
 20
148.5
  9
$VIEWSIZE
 40
297.0
  9
$CLAYER
  8
0
  9
$LTSCALE
 40
23.1
  9
$CELTYPE
  6
BYLAYER
  9
$DIMSCALE
 40
1.0
  9
$DIMASZ
 40
3.5
  9
$DIMEXO
 40
2.625
  9
$DIMDLI
 40
15.96
  9
$DIMEXE
 40
7.56
  9
$DIMCEN
 40
3.78
  9
$DIMLFAC
 40
1.0
  9
$DIMBLK
  1
_FILLED
  9
$DIMTXT
 40
3.5
  9
$PDMODE
 70
3
  9
$PDSIZE
 40
0.3125
  9
$TILEMODE
 70
1
  0
ENDSEC
  0
SECTION
  2
TABLES
  0
TABLE
  2
LTYPE
 70
6
  0
LTYPE
  2
BYBLOCK
 70
0
  3

 72
65
 73
0
 40
0.0
  0
LTYPE
  2
BYLAYER
 70
0
  3

 72
65
 73
0
 40
0.0
  0
LTYPE
  2
CONTINUOUS
 70
64
  3
Solid line
 72
65
 73
0
 40
0.0
  0
LTYPE
  2
CENTER
 70
64
  3
____ _ ____ _ ____ _ ____ _ ____ _ ____ _ ____
 72
65
 73
4
 40
0.6
 49
0.375
 49
-0.075
 49
0.075
 49
-0.075
  0
LTYPE
  2
HIDDEN
 70
64
  3
- - - - - - - - - - - - - - - - - - - -
 72
65
 73
2
 40
0.2
 49
0.1
 49
-0.1
  0
LTYPE
  2
PHANTOM
 70
64
  3
_____ _ _ _____ _ _ _____ _ _ _____
 72
65
 73
6
 40
0.8
 49
0.45
 49
-0.05
 49
0.1
 49
-0.05
 49
0.1
 49
-0.05
  0
LTYPE
  2
DOT
 70
64
  3
. . . . . . . . . . . . . . . . . . . .
 72
65
 73
2
 40
0.2
 49
0.1
 49
-0.1
  0
LTYPE
  2
DASHED
 70
64
  3
- - - - - - - - - - - - - - - - - - - -
 72
65
 73
2
 40
0.2
 49
0.1
 49
-0.1
  0
ENDTAB
  0
TABLE
  2
LAYER
 70
36
  0
LAYER
  2
0
 70
0
 62
7
  6
CONTINUOUS
  0
LAYER
  2
DEFAULT_1
 70
0
 62
7
  6
CENTER
  0
LAYER
  2
DEFAULT_2
 70
0
 62
8
  6
HIDDEN
  0
LAYER
  2
DEFAULT_3
 70
0
 62
7
  6
PHANTOM
  0
LAYER
  2
BLANK_PLAN
 70
0
 62
7
  6
CONTINUOUS
  0
ENDTAB
  0
TABLE
  2
STYLE
 70
1
  0
STYLE
  2
STANDARD
 70
0
 40
0.0
 41
0.8
 50
0.0
 71
0
 42
0.2
  3
txt
  4

  0
STYLE
  2
TEXTSTYLE_1
 70
0
 40
0.0
 41
0.8
 50
0.0
 71
0
 42
0.2
  3
gdt
  4

  0
STYLE
  2
TEXTSTYLE_2
 70
0
 40
0.0
 41
0.6
 50
0.0
 71
0
 42
0.2
  3
txt
  4

  0
STYLE
  2
TEXTSTYLE_3
 70
0
 40
0.0
 41
1.0
 50
0.0
 71
0
 42
0.2
  3
ftb_____.ttf
  4

  0
STYLE
  2
TEXTSTYLE_4
 70
0
 40
0.0
 41
1.0
 50
0.0
 71
0
 42
0.2
  3
fti_____.ttf
  4

  0
STYLE
  2
TEXTSTYLE_5
 70
0
 40
0.0
 41
1.0
 50
0.0
 71
0
 42
0.2
  3
frutiger light.ttf
  4

  0
STYLE
  2
TEXTSTYLE_6
 70
0
 40
0.0
 41
0.7
 50
0.0
 71
0
 42
0.2
  3
txt
  4

  0
STYLE
  2
TEXTSTYLE_7
 70
0
 40
0.0
 41
0.37
 50
0.0
 71
0
 42
0.2
  3
txt
  4

  0
ENDTAB
  0
ENDSEC
  0
SECTION
  2
BLOCKS
  0
BLOCK
  8
0
 62
2
  6
CONTINUOUS
  2
SYMBOL_5_BL1
 70
64
 10
382.7840918555
 20
35.5067593403
  0
TEXT
  8
0
 62
7
  6
CONTINUOUS
 10
373.842376864
 20
30.5995157174
  7
TEXTSTYLE_4
 40
1.0655737705
  1
The brand for plastic modular belts and chains
 41
1.0
 72
0
  0
LINE
  8
0
 62
7
  6
CONTINUOUS
 10
358.7621602445
 20
36.0805298321
 11
358.7621602445
 21
33.9493822911
  0
LINE
  8
0
 62
7
  6
CONTINUOUS
 10
359.0512227376
 20
30.9584509954
 11
359.0512227376
 21
31.0552420547
  0
LINE
  8
0
 62
7
  6
CONTINUOUS
 10
358.7621602445
 20
31.0229783683
 11
358.8199727462
 21
30.8293962497
  0
LINE
  8
0
 62
7
  6
CONTINUOUS
 10
360.1556028675
 20
33.867415078
 11
360.1556028675
 21
36.0805298321
  0
LINE
  8
0
 62
7
  6
CONTINUOUS
 10
361.0746601894
 20
32.0231527829
 11
361.0746601894
 21
30.5067593403
  0
LINE
  8
0
 62
7
  6
CONTINUOUS
 10
361.3637227445
 20
30.5067593403
 11
361.3637227445
 21
31.2488242184
  0
LINE
  8
0
 62
7
  6
CONTINUOUS
 10
361.3637227445
 20
31.3778789641
 11
361.3637227445
 21
32.0231527829
  0
LINE
  8
0
 62
7
  6
CONTINUOUS
 10
358.8199727462
 20
31.216560532
 11
358.7621602445
 21
31.0229783683
  0
LINE
  8
0
 62
7
  6
CONTINUOUS
 10
359.1668477307
 20
30.7971325633
 11
359.0512227376
 21
30.9584509954
  0
LINE
  8
0
 62
7
  6
CONTINUOUS
 10
360.2652852997
 20
31.3133515913
 11
360.3230977445
 21
31.216560532
  0
LINE
  8
0
 62
7
  6
CONTINUOUS
 10
360.6121602997
 20
31.216560532
 11
360.5543476894
 21
31.3456152777
  0
LINE
  8
0
 62
7
  6
CONTINUOUS
 10
362.0408487691
 20
36.0805298321
 11
362.0408487691
 21
34.2772511436
  0
LINE
  8
0
 62
7
  6
CONTINUOUS
 10
362.0408487691
 20
32.9657757338
 11
362.0408487691
 21
32.3100380288
  0
LINE
  8
0
 62
7
  6
CONTINUOUS
 10
362.4043477445
 20
31.1520331591
 11
362.4043477445
 21
30.5067593403
  0
LINE
  8
0
 62
7
  6
CONTINUOUS
 10
362.6934101343
 20
30.5067593403
 11
362.6934101343
 21
31.1520331591
  0
LINE
  8
0
 62
7
  6
CONTINUOUS
 10
359.0512227376
 20
31.0552420547
 11
359.1090352445
 21
31.1842968456
  0
LINE
  8
0
 62
7
  6
CONTINUOUS
 10
358.8199727462
 20
30.8293962497
 11
358.9355977445
 21
30.7003414814
  0
LINE
  8
0
 62
7
  6
CONTINUOUS
 10
362.3465351343
 20
31.2810879048
 11
362.4043477445
 21
31.1520331591
  0
LINE
  8
0
 62
7
  6
CONTINUOUS
 10
363.1559103548
 20
30.7971325633
 11
363.2137226343
 21
30.668077795
  0
LINE
  8
0
 62
7
  6
CONTINUOUS
 10
362.6934101343
 20
31.1520331591
 11
362.6355978548
 21
31.3133515913
  0
LINE
  8
0
 62
7
  6
CONTINUOUS
 10
363.1559103548
 20
31.3456152777
 11
363.1559103548
 21
31.2810879048
  0
LINE
  8
0
 62
7
  6
CONTINUOUS
 10
363.1559103548
 20
30.8939236226
 11
363.1559103548
 21
30.7971325633
  0
LINE
  8
0
 62
7
  6
CONTINUOUS
 10
363.4342913921
 20
32.3100380288
 11
363.4342913921
 21
36.0805298321
  0
LINE
  8
0
 62
7
  6
CONTINUOUS
 10
363.4449727445
 20
30.7648688543
 11
363.4449727445
 21
30.8293962497
  0
LINE
  8
0
 62
7
  6
CONTINUOUS
 10
363.7621602445
 20
36.0805298321
 11
363.7621602445
 21
32.3100380288
  0
LINE
  8
0
 62
7
  6
CONTINUOUS
 10
360.5543476894
 20
30.7003414814
 11
360.6121602997
 21
30.8293962497
  0
LINE
  8
0
 62
7
  6
CONTINUOUS
 10
364.9480979651
 20
30.6035504109
 11
364.890285024
 21
30.7648688543
  0
LINE
  8
0
 62
7
  6
CONTINUOUS
 10
364.6012229651
 20
31.2810879048
 11
364.6012229651
 21
31.1842968456
  0
LINE
  8
0
 62
7
  6
CONTINUOUS
 10
364.6012229651
 20
31.0552420547
 11
364.6012229651
 21
30.8616599362
  0
LINE
  8
0
 62
7
  6
CONTINUOUS
 10
364.890285024
 20
30.7648688543
 11
364.890285024
 21
31.2810879048
  0
LINE
  8
0
 62
7
  6
CONTINUOUS
 10
365.1556028675
 20
32.3100380288
 11
365.1556028675
 21
34.1133167174
  0
LINE
  8
0
 62
7
  6
CONTINUOUS
 10
365.1556028675
 20
35.4247921272
 11
365.1556028675
 21
36.0805298321
  0
LINE
  8
0
 62
7
  6
CONTINUOUS
 10
365.4684104651
 20
32.0231527829
 11
365.4684104651
 21
31.8618343508
  0
LINE
  8
0
 62
7
  6
CONTINUOUS
 10
365.4684104651
 20
31.5391973962
 11
365.4684104651
 21
30.5067593403
  0
LINE
  8
0
 62
7
  6
CONTINUOUS
 10
365.757472524
 20
30.5067593403
 11
365.757472524
 21
31.5391973962
  0
LINE
  8
0
 62
7
  6
CONTINUOUS
 10
365.757472524
 20
31.8618343508
 11
365.757472524
 21
32.0231527829
  0
LINE
  8
0
 62
7
  6
CONTINUOUS
 10
360.3230977445
 20
30.8293962497
 11
360.2652852997
 21
30.7326051679
  0
LINE
  8
0
 62
7
  6
CONTINUOUS
 10
362.6355978548
 20
31.3133515913
 11
362.5777852445
 21
31.3778789641
  0
LINE
  8
0
 62
7
  6
CONTINUOUS
 10
363.5027853548
 20
30.7003414814
 11
363.4449727445
 21
30.7648688543
  0
LINE
  8
0
 62
7
  6
CONTINUOUS
 10
364.6590352445
 20
30.5712867188
 11
364.716847524
 21
30.5067593403
  0
LINE
  8
0
 62
7
  6
CONTINUOUS
 10
364.6012229651
 20
30.668077795
 11
364.6590352445
 21
30.5712867188
  0
LINE
  8
0
 62
7
  6
CONTINUOUS
 10
365.0059102445
 20
30.5067593403
 11
364.9480979651
 21
30.6035504109
  0
LINE
  8
0
 62
7
  6
CONTINUOUS
 10
364.890285024
 20
31.2810879048
 11
364.8324727445
 21
31.3778789641
  0
LINE
  8
0
 62
7
  6
CONTINUOUS
 10
366.2199727445
 20
31.5391973962
 11
366.2199727445
 21
30.5067593403
  0
LINE
  8
0
 62
7
  6
CONTINUOUS
 10
366.5090354651
 20
30.5067593403
 11
366.5090354651
 21
31.2488242184
  0
LINE
  8
0
 62
7
  6
CONTINUOUS
 10
366.5090354651
 20
31.3778789641
 11
366.5090354651
 21
31.5391973962
  0
LINE
  8
0
 62
7
  6
CONTINUOUS
 10
367.0408487691
 20
34.5231527829
 11
367.0408487691
 21
32.3100380288
  0
LINE
  8
0
 62
7
  6
CONTINUOUS
 10
358.9355977445
 20
31.3456152777
 11
358.8199727462
 21
31.216560532
  0
LINE
  8
0
 62
7
  6
CONTINUOUS
 10
359.1090352445
 20
31.1842968456
 11
359.1668477307
 21
31.2488242184
  0
LINE
  8
0
 62
7
  6
CONTINUOUS
 10
358.9355977445
 20
30.7003414814
 11
359.0512227376
 21
30.6358140973
  0
LINE
  8
0
 62
7
  6
CONTINUOUS
 10
359.3402852307
 20
30.7003414814
 11
359.1668477307
 21
30.7971325633
  0
LINE
  8
0
 62
7
  6
CONTINUOUS
 10
364.543410024
 20
31.3456152777
 11
364.6012229651
 21
31.2810879048
  0
LINE
  8
0
 62
7
  6
CONTINUOUS
 10
367.491847524
 20
31.2810879048
 11
367.5496604651
 21
31.1197694727
  0
LINE
  8
0
 62
7
  6
CONTINUOUS
 10
367.838722524
 20
31.1197694727
 11
367.7809102445
 21
31.2810879048
  0
LINE
  8
0
 62
7
  6
CONTINUOUS
 10
367.5496604651
 20
31.1197694727
 11
367.5496604651
 21
30.5067593403
  0
LINE
  8
0
 62
7
  6
CONTINUOUS
 10
367.838722524
 20
30.5067593403
 11
367.838722524
 21
31.1197694727
  0
LINE
  8
0
 62
7
  6
CONTINUOUS
 10
368.3012227445
 20
31.3456152777
 11
368.3012227445
 21
31.2810879048
  0
LINE
  8
0
 62
7
  6
CONTINUOUS
 10
368.4342913921
 20
32.3100380288
 11
368.4342913921
 21
34.4411855698
  0
LINE
  8
0
 62
7
  6
CONTINUOUS
 10
368.7621602445
 20
36.0805298321
 11
368.7621602445
 21
32.3100380288
  0
LINE
  8
0
 62
7
  6
CONTINUOUS
 10
363.4449727445
 20
30.8293962497
 11
363.5027853548
 21
30.926187309
  0
LINE
  8
0
 62
7
  6
CONTINUOUS
 10
359.0512227376
 20
30.6358140973
 11
359.2246602583
 21
30.5712867188
  0
LINE
  8
0
 62
7
  6
CONTINUOUS
 10
360.5543476894
 20
31.3456152777
 11
360.3809101894
 21
31.4424063369
  0
LINE
  8
0
 62
7
  6
CONTINUOUS
 10
363.2137226343
 20
30.668077795
 11
363.3871601343
 21
30.5712867188
  0
LINE
  8
0
 62
7
  6
CONTINUOUS
 10
362.2309102445
 20
31.3456152777
 11
362.3465351343
 21
31.2810879048
  0
LINE
  8
0
 62
7
  6
CONTINUOUS
 10
362.5777852445
 20
31.3778789641
 11
362.4621603548
 21
31.4424063369
  0
LINE
  8
0
 62
7
  6
CONTINUOUS
 10
368.3012227445
 20
30.7648688543
 11
368.4168479651
 21
30.6358140973
  0
LINE
  8
0
 62
7
  6
CONTINUOUS
 10
368.6480977445
 20
30.7003414814
 11
368.5902854651
 21
30.7648688543
  0
LINE
  8
0
 62
7
  6
CONTINUOUS
 10
368.3012227445
 20
31.2810879048
 11
368.4168479651
 21
31.1520331591
  0
LINE
  8
0
 62
7
  6
CONTINUOUS
 10
367.7809102445
 20
31.2810879048
 11
367.7230979651
 21
31.3778789641
  0
LINE
  8
0
 62
7
  6
CONTINUOUS
 10
370.1512223035
 20
30.7003414814
 11
370.1512223035
 21
30.7648688543
  0
LINE
  8
0
 62
7
  6
CONTINUOUS
 10
370.1556028675
 20
32.3100380288
 11
370.1556028675
 21
36.0805298321
  0
LINE
  8
0
 62
7
  6
CONTINUOUS
 10
363.2137226343
 20
31.4101426505
 11
363.1559103548
 21
31.3456152777
  0
LINE
  8
0
 62
7
  6
CONTINUOUS
 10
360.091847717
 20
31.3778789641
 11
360.2652852997
 21
31.3133515913
  0
LINE
  8
0
 62
7
  6
CONTINUOUS
 10
364.8324727445
 20
31.3778789641
 11
364.716847524
 21
31.4424063369
  0
LINE
  8
0
 62
7
  6
CONTINUOUS
 10
368.6480977445
 20
31.216560532
 11
368.5902854651
 21
31.2810879048
  0
LINE
  8
0
 62
7
  6
CONTINUOUS
 10
369.8043479651
 20
30.8293962497
 11
369.8621602445
 21
30.7648688543
  0
LINE
  8
0
 62
7
  6
CONTINUOUS
 10
370.1512223035
 20
30.7648688543
 11
370.0355977445
 21
30.8939236226
  0
LINE
  8
0
 62
7
  6
CONTINUOUS
 10
369.8043479651
 20
31.3456152777
 11
369.8621602445
 21
31.2810879048
  0
LINE
  8
0
 62
7
  6
CONTINUOUS
 10
370.1512223035
 20
31.2810879048
 11
370.0355977445
 21
31.4101426505
  0
LINE
  8
0
 62
7
  6
CONTINUOUS
 10
363.4449727445
 20
31.2810879048
 11
363.5027853548
 21
31.3456152777
  0
LINE
  8
0
 62
7
  6
CONTINUOUS
 10
363.2715352445
 20
31.0229783683
 11
363.1559103548
 21
30.8939236226
  0
LINE
  8
0
 62
7
  6
CONTINUOUS
 10
364.6012229651
 20
30.8616599362
 11
364.543410024
 21
30.7971325633
  0
LINE
  8
0
 62
7
  6
CONTINUOUS
 10
364.543410024
 20
30.6035504109
 11
364.6012229651
 21
30.668077795
  0
LINE
  8
0
 62
7
  6
CONTINUOUS
 10
363.3871601343
 20
30.5712867188
 11
363.5027853548
 21
30.5390230296
  0
LINE
  8
0
 62
7
  6
CONTINUOUS
 10
360.3809101894
 20
31.4424063369
 11
360.1496602445
 21
31.5069337098
  0
LINE
  8
0
 62
7
  6
CONTINUOUS
 10
363.7340351343
 20
30.6358140973
 11
363.5027853548
 21
30.7003414814
  0
LINE
  8
0
 62
7
  6
CONTINUOUS
 10
362.4621603548
 20
31.4424063369
 11
362.2887228548
 21
31.5069337098
  0
LINE
  8
0
 62
7
  6
CONTINUOUS
 10
364.716847524
 20
31.4424063369
 11
364.543410024
 21
31.5069337098
  0
LINE
  8
0
 62
7
  6
CONTINUOUS
 10
367.3762229651
 20
31.3456152777
 11
367.491847524
 21
31.2810879048
  0
LINE
  8
0
 62
7
  6
CONTINUOUS
 10
367.7230979651
 20
31.3778789641
 11
367.6074727445
 21
31.4424063369
  0
LINE
  8
0
 62
7
  6
CONTINUOUS
 10
359.2246602583
 20
30.5712867188
 11
359.3980977583
 21
30.5390230296
  0
LINE
  8
0
 62
7
  6
CONTINUOUS
 10
359.6871602721
 20
30.6358140973
 11
359.3402852307
 21
30.7003414814
  0
LINE
  8
0
 62
7
  6
CONTINUOUS
 10
362.1152853548
 20
31.3778789641
 11
362.2309102445
 21
31.3456152777
  0
LINE
  8
0
 62
7
  6
CONTINUOUS
 10
364.4277854651
 20
31.3778789641
 11
364.543410024
 21
31.3456152777
  0
LINE
  8
0
 62
7
  6
CONTINUOUS
 10
368.7637229651
 20
30.668077795
 11
368.6480977445
 21
30.7003414814
  0
LINE
  8
0
 62
7
  6
CONTINUOUS
 10
367.2605977445
 20
31.3778789641
 11
367.3762229651
 21
31.3456152777
  0
LINE
  8
0
 62
7
  6
CONTINUOUS
 10
368.4168479651
 20
30.6358140973
 11
368.5902854651
 21
30.5712867188
  0
LINE
  8
0
 62
7
  6
CONTINUOUS
 10
367.6074727445
 20
31.4424063369
 11
367.4340352445
 21
31.5069337098
  0
LINE
  8
0
 62
7
  6
CONTINUOUS
 10
368.8215352445
 20
31.1520331591
 11
368.6480977445
 21
31.216560532
  0
LINE
  8
0
 62
7
  6
CONTINUOUS
 10
369.6309104651
 20
30.8939236226
 11
369.8043479651
 21
30.8293962497
  0
LINE
  8
0
 62
7
  6
CONTINUOUS
 10
370.0355977445
 20
31.4101426505
 11
369.8621602445
 21
31.4746700234
  0
LINE
  8
0
 62
7
  6
CONTINUOUS
 10
368.4168479651
 20
31.1520331591
 11
368.6480977445
 21
31.0552420547
  0
LINE
  8
0
 62
7
  6
CONTINUOUS
 10
370.0355977445
 20
30.8939236226
 11
369.8043479651
 21
30.9907146818
  0
LINE
  8
0
 62
7
  6
CONTINUOUS
 10
368.5902854651
 20
31.2810879048
 11
368.6480977445
 21
31.3456152777
  0
LINE
  8
0
 62
7
  6
CONTINUOUS
 10
359.0512227376
 20
31.4101426505
 11
358.9355977445
 21
31.3456152777
  0
LINE
  8
0
 62
7
  6
CONTINUOUS
 10
359.1668477307
 20
31.2488242184
 11
359.3402852307
 21
31.3456152777
  0
LINE
  8
0
 62
7
  6
CONTINUOUS
 10
361.4793477997
 20
31.4424063369
 11
361.3637227445
 21
31.3778789641
  0
LINE
  8
0
 62
7
  6
CONTINUOUS
 10
361.3637227445
 20
31.2488242184
 11
361.4793477997
 21
31.3133515913
  0
LINE
  8
0
 62
7
  6
CONTINUOUS
 10
360.3809101894
 20
30.6035504109
 11
360.5543476894
 21
30.7003414814
  0
LINE
  8
0
 62
7
  6
CONTINUOUS
 10
359.3980977583
 20
30.5390230296
 11
359.744972717
 21
30.5067593403
  0
LINE
  8
0
 62
7
  6
CONTINUOUS
 10
363.5027853548
 20
30.5390230296
 11
363.7340351343
 21
30.5067593403
  0
LINE
  8
0
 62
7
  6
CONTINUOUS
 10
361.8840352445
 20
31.4101426505
 11
362.1152853548
 21
31.3778789641
  0
LINE
  8
0
 62
7
  6
CONTINUOUS
 10
364.1965353548
 20
31.4101426505
 11
364.4277854651
 21
31.3778789641
  0
LINE
  8
0
 62
7
  6
CONTINUOUS
 10
368.6480977445
 20
31.0552420547
 11
369.6309104651
 21
30.8939236226
  0
LINE
  8
0
 62
7
  6
CONTINUOUS
 10
369.8043479651
 20
30.9907146818
 11
368.8215352445
 21
31.1520331591
  0
LINE
  8
0
 62
7
  6
CONTINUOUS
 10
362.2887228548
 20
31.5069337098
 11
362.1152853548
 21
31.5391973962
  0
LINE
  8
0
 62
7
  6
CONTINUOUS
 10
368.5902854651
 20
30.5712867188
 11
368.7637229651
 21
30.5390230296
  0
LINE
  8
0
 62
7
  6
CONTINUOUS
 10
367.4340352445
 20
31.5069337098
 11
367.2605977445
 21
31.5391973962
  0
LINE
  8
0
 62
7
  6
CONTINUOUS
 10
369.6887227445
 20
31.3778789641
 11
369.8043479651
 21
31.3456152777
  0
LINE
  8
0
 62
7
  6
CONTINUOUS
 10
369.8621602445
 20
30.7648688543
 11
369.8043479651
 21
30.7003414814
  0
LINE
  8
0
 62
7
  6
CONTINUOUS
 10
368.4168479651
 20
31.4424063369
 11
368.3012227445
 21
31.3456152777
  0
LINE
  8
0
 62
7
  6
CONTINUOUS
 10
363.3293478548
 20
31.4746700234
 11
363.2137226343
 21
31.4101426505
  0
LINE
  8
0
 62
7
  6
CONTINUOUS
 10
363.3871601343
 20
31.0875057863
 11
363.2715352445
 21
31.0229783683
  0
LINE
  8
0
 62
7
  6
CONTINUOUS
 10
363.5027853548
 20
30.926187309
 11
363.6184102445
 21
30.9907146818
  0
LINE
  8
0
 62
7
  6
CONTINUOUS
 10
361.0746601894
 20
30.5067593403
 11
361.3637227445
 21
30.5067593403
  0
LINE
  8
0
 62
7
  6
CONTINUOUS
 10
362.4043477445
 20
30.5067593403
 11
362.6934101343
 21
30.5067593403
  0
LINE
  8
0
 62
7
  6
CONTINUOUS
 10
363.7340351343
 20
30.5067593403
 11
364.0809101343
 21
30.5067593403
  0
LINE
  8
0
 62
7
  6
CONTINUOUS
 10
364.716847524
 20
30.5067593403
 11
365.0059102445
 21
30.5067593403
  0
LINE
  8
0
 62
7
  6
CONTINUOUS
 10
365.4684104651
 20
30.5067593403
 11
365.757472524
 21
30.5067593403
  0
LINE
  8
0
 62
7
  6
CONTINUOUS
 10
366.2199727445
 20
30.5067593403
 11
366.5090354651
 21
30.5067593403
  0
LINE
  8
0
 62
7
  6
CONTINUOUS
 10
367.5496604651
 20
30.5067593403
 11
367.838722524
 21
30.5067593403
  0
LINE
  8
0
 62
7
  6
CONTINUOUS
 10
369.1105979651
 20
30.5067593403
 11
369.4574729651
 21
30.5067593403
  0
LINE
  8
0
 62
7
  6
CONTINUOUS
 10
369.4574729651
 20
30.6358140973
 11
369.1105979651
 21
30.6358140973
  0
LINE
  8
0
 62
7
  6
CONTINUOUS
 10
364.0809101343
 20
30.6358140973
 11
363.7340351343
 21
30.6358140973
  0
LINE
  8
0
 62
7
  6
CONTINUOUS
 10
368.5902854651
 20
30.7648688543
 11
368.3012227445
 21
30.7648688543
  0
LINE
  8
0
 62
7
  6
CONTINUOUS
 10
360.6121602997
 20
30.8293962497
 11
360.3230977445
 21
30.8293962497
  0
LINE
  8
0
 62
7
  6
CONTINUOUS
 10
359.6871602721
 20
31.4101426505
 11
360.091847717
 21
31.3778789641
  0
LINE
  8
0
 62
7
  6
CONTINUOUS
 10
360.1496602445
 20
31.5069337098
 11
359.744972717
 21
31.5391973962
  0
LINE
  8
0
 62
7
  6
CONTINUOUS
 10
368.7637229651
 20
30.5390230296
 11
369.1105979651
 21
30.5067593403
  0
LINE
  8
0
 62
7
  6
CONTINUOUS
 10
369.1105979651
 20
30.6358140973
 11
368.7637229651
 21
30.668077795
  0
LINE
  8
0
 62
7
  6
CONTINUOUS
 10
364.543410024
 20
31.5069337098
 11
364.1965353548
 21
31.5391973962
  0
LINE
  8
0
 62
7
  6
CONTINUOUS
 10
369.3418477445
 20
31.4101426505
 11
369.6887227445
 21
31.3778789641
  0
LINE
  8
0
 62
7
  6
CONTINUOUS
 10
369.6887227445
 20
31.5069337098
 11
369.3418477445
 21
31.5391973962
  0
LINE
  8
0
 62
7
  6
CONTINUOUS
 10
367.0293479651
 20
31.4101426505
 11
367.2605977445
 21
31.3778789641
  0
LINE
  8
0
 62
7
  6
CONTINUOUS
 10
369.8621602445
 20
31.4746700234
 11
369.6887227445
 21
31.5069337098
  0
LINE
  8
0
 62
7
  6
CONTINUOUS
 10
370.0355977445
 20
30.6035504109
 11
370.1512223035
 21
30.7003414814
  0
LINE
  8
0
 62
7
  6
CONTINUOUS
 10
364.543410024
 20
30.7971325633
 11
364.369972524
 21
30.7003414814
  0
LINE
  8
0
 62
7
  6
CONTINUOUS
 10
366.624660024
 20
31.4424063369
 11
366.5090354651
 21
31.3778789641
  0
LINE
  8
0
 62
7
  6
CONTINUOUS
 10
366.5090354651
 20
31.2488242184
 11
366.624660024
 21
31.3133515913
  0
LINE
  8
0
 62
7
  6
CONTINUOUS
 10
359.2246602583
 20
31.4746700234
 11
359.0512227376
 21
31.4101426505
  0
LINE
  8
0
 62
7
  6
CONTINUOUS
 10
361.6527851343
 20
31.5069337098
 11
361.4793477997
 21
31.4424063369
  0
LINE
  8
0
 62
7
  6
CONTINUOUS
 10
361.4793477997
 20
31.3133515913
 11
361.6527851343
 21
31.3778789641
  0
LINE
  8
0
 62
7
  6
CONTINUOUS
 10
360.2652852997
 20
30.7326051679
 11
360.091847717
 21
30.668077795
  0
LINE
  8
0
 62
7
  6
CONTINUOUS
 10
369.6887227445
 20
30.668077795
 11
369.4574729651
 21
30.6358140973
  0
LINE
  8
0
 62
7
  6
CONTINUOUS
 10
364.0809101343
 20
30.5067593403
 11
364.369972524
 21
30.5390230296
  0
LINE
  8
0
 62
7
  6
CONTINUOUS
 10
369.4574729651
 20
30.5067593403
 11
369.8043479651
 21
30.5390230296
  0
LINE
  8
0
 62
7
  6
CONTINUOUS
 10
359.744972717
 20
30.5067593403
 11
360.1496602445
 21
30.5390230296
  0
LINE
  8
0
 62
7
  6
CONTINUOUS
 10
360.091847717
 20
30.668077795
 11
359.6871602721
 21
30.6358140973
  0
LINE
  8
0
 62
7
  6
CONTINUOUS
 10
363.9652852445
 20
31.0552420547
 11
364.6012229651
 21
31.0552420547
  0
LINE
  8
0
 62
7
  6
CONTINUOUS
 10
364.6012229651
 20
31.1842968456
 11
363.9652852445
 21
31.1842968456
  0
LINE
  8
0
 62
7
  6
CONTINUOUS
 10
360.3230977445
 20
31.216560532
 11
360.6121602997
 21
31.216560532
  0
LINE
  8
0
 62
7
  6
CONTINUOUS
 10
363.1559103548
 20
31.2810879048
 11
363.4449727445
 21
31.2810879048
  0
LINE
  8
0
 62
7
  6
CONTINUOUS
 10
369.8621602445
 20
31.2810879048
 11
370.1512223035
 21
31.2810879048
  0
LINE
  8
0
 62
7
  6
CONTINUOUS
 10
363.8496603548
 20
31.4101426505
 11
364.1965353548
 21
31.4101426505
  0
LINE
  8
0
 62
7
  6
CONTINUOUS
 10
368.9949727445
 20
31.4101426505
 11
369.3418477445
 21
31.4101426505
  0
LINE
  8
0
 62
7
  6
CONTINUOUS
 10
369.3418477445
 20
31.5391973962
 11
368.9949727445
 21
31.5391973962
  0
LINE
  8
0
 62
7
  6
CONTINUOUS
 10
367.2605977445
 20
31.5391973962
 11
367.0293479651
 21
31.5391973962
  0
LINE
  8
0
 62
7
  6
CONTINUOUS
 10
366.5090354651
 20
31.5391973962
 11
366.2199727445
 21
31.5391973962
  0
LINE
  8
0
 62
7
  6
CONTINUOUS
 10
365.757472524
 20
31.5391973962
 11
365.4684104651
 21
31.5391973962
  0
LINE
  8
0
 62
7
  6
CONTINUOUS
 10
364.1965353548
 20
31.5391973962
 11
363.8496603548
 21
31.5391973962
  0
LINE
  8
0
 62
7
  6
CONTINUOUS
 10
362.1152853548
 20
31.5391973962
 11
361.8840352445
 21
31.5391973962
  0
LINE
  8
0
 62
7
  6
CONTINUOUS
 10
365.4684104651
 20
31.8618343508
 11
365.757472524
 21
31.8618343508
  0
LINE
  8
0
 62
7
  6
CONTINUOUS
 10
365.757472524
 20
32.0231527829
 11
365.4684104651
 21
32.0231527829
  0
LINE
  8
0
 62
7
  6
CONTINUOUS
 10
361.3637227445
 20
32.0231527829
 11
361.0746601894
 21
32.0231527829
  0
LINE
  8
0
 62
7
  6
CONTINUOUS
 10
360.4015045068
 20
32.3100380288
 11
360.8140758554
 21
32.3100380288
  0
LINE
  8
0
 62
7
  6
CONTINUOUS
 10
362.0408487691
 20
32.3100380288
 11
363.4342913921
 21
32.3100380288
  0
LINE
  8
0
 62
7
  6
CONTINUOUS
 10
363.7621602445
 20
32.3100380288
 11
365.1556028675
 21
32.3100380288
  0
LINE
  8
0
 62
7
  6
CONTINUOUS
 10
367.0408487691
 20
32.3100380288
 11
368.4342913921
 21
32.3100380288
  0
LINE
  8
0
 62
7
  6
CONTINUOUS
 10
368.7621602445
 20
32.3100380288
 11
370.1556028675
 21
32.3100380288
  0
LINE
  8
0
 62
7
  6
CONTINUOUS
 10
366.798097524
 20
31.5069337098
 11
366.624660024
 21
31.4424063369
  0
LINE
  8
0
 62
7
  6
CONTINUOUS
 10
364.369972524
 20
30.5390230296
 11
364.543410024
 21
30.6035504109
  0
LINE
  8
0
 62
7
  6
CONTINUOUS
 10
369.8043479651
 20
30.5390230296
 11
370.0355977445
 21
30.6035504109
  0
LINE
  8
0
 62
7
  6
CONTINUOUS
 10
369.8043479651
 20
30.7003414814
 11
369.6887227445
 21
30.668077795
  0
LINE
  8
0
 62
7
  6
CONTINUOUS
 10
368.7637229651
 20
31.3778789641
 11
368.9949727445
 21
31.4101426505
  0
LINE
  8
0
 62
7
  6
CONTINUOUS
 10
366.798097524
 20
31.3778789641
 11
367.0293479651
 21
31.4101426505
  0
LINE
  8
0
 62
7
  6
CONTINUOUS
 10
363.7340351343
 20
31.0229783683
 11
363.9652852445
 21
31.0552420547
  0
LINE
  8
0
 62
7
  6
CONTINUOUS
 10
367.0293479651
 20
31.5391973962
 11
366.798097524
 21
31.5069337098
  0
LINE
  8
0
 62
7
  6
CONTINUOUS
 10
363.6184102445
 20
31.3778789641
 11
363.8496603548
 21
31.4101426505
  0
LINE
  8
0
 62
7
  6
CONTINUOUS
 10
368.9949727445
 20
31.5391973962
 11
368.6480977445
 21
31.5069337098
  0
LINE
  8
0
 62
7
  6
CONTINUOUS
 10
363.9652852445
 20
31.1842968456
 11
363.6184102445
 21
31.1520331591
  0
LINE
  8
0
 62
7
  6
CONTINUOUS
 10
359.744972717
 20
31.5391973962
 11
359.3980977583
 21
31.5069337098
  0
LINE
  8
0
 62
7
  6
CONTINUOUS
 10
363.8496603548
 20
31.5391973962
 11
363.4449727445
 21
31.5069337098
  0
LINE
  8
0
 62
7
  6
CONTINUOUS
 10
361.221176638
 20
33.4575790124
 11
360.565438933
 21
33.4575790124
  0
LINE
  8
0
 62
7
  6
CONTINUOUS
 10
366.624660024
 20
31.3133515913
 11
366.798097524
 21
31.3778789641
  0
LINE
  8
0
 62
7
  6
CONTINUOUS
 10
368.6480977445
 20
31.3456152777
 11
368.7637229651
 21
31.3778789641
  0
LINE
  8
0
 62
7
  6
CONTINUOUS
 10
368.6480977445
 20
31.5069337098
 11
368.4168479651
 21
31.4424063369
  0
LINE
  8
0
 62
7
  6
CONTINUOUS
 10
364.369972524
 20
30.7003414814
 11
364.0809101343
 21
30.6358140973
  0
LINE
  8
0
 62
7
  6
CONTINUOUS
 10
361.6527851343
 20
31.3778789641
 11
361.8840352445
 21
31.4101426505
  0
LINE
  8
0
 62
7
  6
CONTINUOUS
 10
361.8840352445
 20
31.5391973962
 11
361.6527851343
 21
31.5069337098
  0
LINE
  8
0
 62
7
  6
CONTINUOUS
 10
359.4559102445
 20
31.3778789641
 11
359.6871602721
 21
31.4101426505
  0
LINE
  8
0
 62
7
  6
CONTINUOUS
 10
365.9752749986
 20
34.9329888485
 11
366.6310127035
 21
34.9329888485
  0
LINE
  8
0
 62
7
  6
CONTINUOUS
 10
363.6184102445
 20
30.9907146818
 11
363.7340351343
 21
31.0229783683
  0
LINE
  8
0
 62
7
  6
CONTINUOUS
 10
363.6184102445
 20
31.1520331591
 11
363.3871601343
 21
31.0875057863
  0
LINE
  8
0
 62
7
  6
CONTINUOUS
 10
363.5027853548
 20
31.3456152777
 11
363.6184102445
 21
31.3778789641
  0
LINE
  8
0
 62
7
  6
CONTINUOUS
 10
360.1496602445
 20
30.5390230296
 11
360.3809101894
 21
30.6035504109
  0
LINE
  8
0
 62
7
  6
CONTINUOUS
 10
363.4449727445
 20
31.5069337098
 11
363.3293478548
 21
31.4746700234
  0
LINE
  8
0
 62
7
  6
CONTINUOUS
 10
359.3980977583
 20
31.5069337098
 11
359.2246602583
 21
31.4746700234
  0
LINE
  8
0
 62
7
  6
CONTINUOUS
 10
370.1556028675
 20
36.0805298321
 11
368.7621602445
 21
36.0805298321
  0
LINE
  8
0
 62
7
  6
CONTINUOUS
 10
366.7949471298
 20
36.0805298321
 11
366.3823757812
 21
36.0805298321
  0
LINE
  8
0
 62
7
  6
CONTINUOUS
 10
365.1556028675
 20
36.0805298321
 11
363.7621602445
 21
36.0805298321
  0
LINE
  8
0
 62
7
  6
CONTINUOUS
 10
363.4342913921
 20
36.0805298321
 11
362.0408487691
 21
36.0805298321
  0
LINE
  8
0
 62
7
  6
CONTINUOUS
 10
360.1556028675
 20
36.0805298321
 11
358.7621602445
 21
36.0805298321
  0
LINE
  8
0
 62
7
  6
CONTINUOUS
 10
359.3402852307
 20
31.3456152777
 11
359.4559102445
 21
31.3778789641
  0
CIRCLE
  8
0
 62
7
  6
CONTINUOUS
 10
369.458881556
 20
38.4165954059
 40
2.0901639344
  0
ARC
  8
0
 62
7
  6
CONTINUOUS
 10
360.4015045068
 20
33.9493822911
 40
1.6393442623
 50
180.0
 51
270.0
  0
ARC
  8
0
 62
7
  6
CONTINUOUS
 10
366.7949471298
 20
34.4411855698
 40
1.6393442623
 50
0.0
 51
90.0
  0
ARC
  8
0
 62
7
  6
CONTINUOUS
 10
360.8140758554
 20
33.7854478649
 40
1.4754098361
 50
270.0
 51
326.2510114041
  0
ARC
  8
0
 62
7
  6
CONTINUOUS
 10
366.3823757812
 20
34.6051199961
 40
1.4754098361
 50
90.0
 51
146.2510114041
  0
ARC
  8
0
 62
7
  6
CONTINUOUS
 10
361.221176638
 20
34.2772511436
 40
0.8196721311
 50
270.0
 51
360.0
  0
ARC
  8
0
 62
7
  6
CONTINUOUS
 10
365.9752749986
 20
34.1133167174
 40
0.8196721311
 50
90.0
 51
180.0
  0
ARC
  8
0
 62
7
  6
CONTINUOUS
 10
360.565438933
 20
33.867415078
 40
0.4098360656
 50
180.0
 51
270.0
  0
ARC
  8
0
 62
7
  6
CONTINUOUS
 10
366.6310127035
 20
34.5231527829
 40
0.4098360656
 50
0.0
 51
90.0
  0
SOLID
  8
0
 62
7
  6
CONTINUOUS
 10
365.4684104651
 20
31.8618347111
 11
365.4684104651
 21
32.0231531947
 12
365.757472524
 22
31.8618347111
 13
365.757472524
 23
32.0231531947
  0
SOLID
  8
0
 62
7
  6
CONTINUOUS
 10
359.744972717
 20
31.5391977439
 11
360.1496602445
 21
31.5069333244
 12
359.3980977583
 22
31.5069333244
 13
359.3980977583
 23
31.5069333244
  0
SOLID
  8
0
 62
7
  6
CONTINUOUS
 10
359.2246602583
 20
31.4746706537
 11
359.3980977583
 21
31.5069333244
 12
360.1496602445
 22
31.5069333244
 13
360.1496602445
 23
31.5069333244
  0
SOLID
  8
0
 62
7
  6
CONTINUOUS
 10
360.1496602445
 20
31.5069333244
 11
360.3809101894
 21
31.4424063504
 12
359.2246602583
 22
31.4746706537
 13
359.2246602583
 23
31.4746706537
  0
SOLID
  8
0
 62
7
  6
CONTINUOUS
 10
359.0512227376
 20
31.4101419116
 11
359.2246602583
 21
31.4746706537
 12
360.3809101894
 22
31.4424063504
 13
360.3809101894
 23
31.4424063504
  0
SOLID
  8
0
 62
7
  6
CONTINUOUS
 10
359.0512227376
 20
31.4101419116
 11
360.3809101894
 21
31.4424063504
 12
359.6871602721
 22
31.4101419116
 13
359.6871602721
 23
31.4101419116
  0
SOLID
  8
0
 62
7
  6
CONTINUOUS
 10
359.6871602721
 20
31.4101419116
 11
360.3809101894
 21
31.4424063504
 12
360.091847717
 22
31.3778792603
 13
360.091847717
 23
31.3778792603
  0
SOLID
  8
0
 62
7
  6
CONTINUOUS
 10
360.3809101894
 20
31.4424063504
 11
360.5543476894
 21
31.345614957
 12
360.091847717
 22
31.3778792603
 13
360.091847717
 23
31.3778792603
  0
SOLID
  8
0
 62
7
  6
CONTINUOUS
 10
360.2652852997
 20
31.3133521701
 11
360.091847717
 21
31.3778792603
 12
360.5543476894
 22
31.345614957
 13
360.5543476894
 23
31.345614957
  0
SOLID
  8
0
 62
7
  6
CONTINUOUS
 10
360.2652852997
 20
31.3133521701
 11
360.5543476894
 21
31.345614957
 12
360.3230977445
 22
31.2165606992
 13
360.3230977445
 23
31.2165606992
  0
SOLID
  8
0
 62
7
  6
CONTINUOUS
 10
360.5543476894
 20
31.345614957
 11
360.6121602997
 21
31.2165606992
 12
360.3230977445
 22
31.2165606992
 13
360.3230977445
 23
31.2165606992
  0
SOLID
  8
0
 62
7
  6
CONTINUOUS
 10
361.6527851343
 20
31.5069329918
 11
361.8840352445
 21
31.5391972951
 12
362.1152853548
 22
31.5391972951
 13
362.1152853548
 23
31.5391972951
  0
SOLID
  8
0
 62
7
  6
CONTINUOUS
 10
362.1152853548
 20
31.5391972951
 11
362.2887228548
 21
31.5069329918
 12
361.6527851343
 22
31.5069329918
 13
361.6527851343
 23
31.5069329918
  0
SOLID
  8
0
 62
7
  6
CONTINUOUS
 10
361.4793477997
 20
31.4424059016
 11
361.6527851343
 21
31.5069329918
 12
362.2887228548
 22
31.5069329918
 13
362.2887228548
 23
31.5069329918
  0
SOLID
  8
0
 62
7
  6
CONTINUOUS
 10
362.2887228548
 20
31.5069329918
 11
362.4621603548
 21
31.4424059016
 12
361.4793477997
 22
31.4424059016
 13
361.4793477997
 23
31.4424059016
  0
SOLID
  8
0
 62
7
  6
CONTINUOUS
 10
362.4621603548
 20
31.4424059016
 11
361.8840352445
 21
31.4101420472
 12
361.4793477997
 22
31.4424059016
 13
361.4793477997
 23
31.4424059016
  0
SOLID
  8
0
 62
7
  6
CONTINUOUS
 10
361.3637227445
 20
31.3778788115
 11
361.4793477997
 21
31.4424059016
 12
361.8840352445
 22
31.4101420472
 13
361.8840352445
 23
31.4101420472
  0
SOLID
  8
0
 62
7
  6
CONTINUOUS
 10
361.8840352445
 20
31.4101420472
 11
361.6527851343
 21
31.3778788115
 12
361.3637227445
 22
31.3778788115
 13
361.3637227445
 23
31.3778788115
  0
SOLID
  8
0
 62
7
  6
CONTINUOUS
 10
361.8840352445
 20
31.4101420472
 11
362.4621603548
 21
31.4424059016
 12
362.1152853548
 22
31.3778788115
 13
362.1152853548
 23
31.3778788115
  0
SOLID
  8
0
 62
7
  6
CONTINUOUS
 10
362.4621603548
 20
31.4424059016
 11
362.5777852445
 21
31.3778788115
 12
362.1152853548
 22
31.3778788115
 13
362.1152853548
 23
31.3778788115
  0
SOLID
  8
0
 62
7
  6
CONTINUOUS
 10
362.2309102445
 20
31.345614957
 11
362.1152853548
 21
31.3778788115
 12
362.5777852445
 22
31.3778788115
 13
362.5777852445
 23
31.3778788115
  0
SOLID
  8
0
 62
7
  6
CONTINUOUS
 10
362.5777852445
 20
31.3778788115
 11
362.6355978548
 21
31.3133517213
 12
362.2309102445
 22
31.345614957
 13
362.2309102445
 23
31.345614957
  0
SOLID
  8
0
 62
7
  6
CONTINUOUS
 10
362.3465351343
 20
31.2810878668
 11
362.2309102445
 21
31.345614957
 12
362.6355978548
 22
31.3133517213
 13
362.6355978548
 23
31.3133517213
  0
SOLID
  8
0
 62
7
  6
CONTINUOUS
 10
362.3465351343
 20
31.2810878668
 11
362.6355978548
 21
31.3133517213
 12
362.4043477445
 22
31.1520332377
 13
362.4043477445
 23
31.1520332377
  0
SOLID
  8
0
 62
7
  6
CONTINUOUS
 10
362.6355978548
 20
31.3133517213
 11
362.6934101343
 21
31.1520332377
 12
362.4043477445
 22
31.1520332377
 13
362.4043477445
 23
31.1520332377
  0
SOLID
  8
0
 62
7
  6
CONTINUOUS
 10
361.6527851343
 20
31.3778788115
 11
361.4793477997
 21
31.3133517213
 12
361.3637227445
 22
31.3778788115
 13
361.3637227445
 23
31.3778788115
  0
SOLID
  8
0
 62
7
  6
CONTINUOUS
 10
361.4793477997
 20
31.3133517213
 11
361.3637227445
 21
31.2488235635
 12
361.3637227445
 22
31.3778788115
 13
361.3637227445
 23
31.3778788115
  0
SOLID
  8
0
 62
7
  6
CONTINUOUS
 10
361.3637227445
 20
31.2488235635
 11
361.0746601894
 21
30.5067593033
 12
361.3637227445
 22
31.3778788115
 13
361.3637227445
 23
31.3778788115
  0
SOLID
  8
0
 62
7
  6
CONTINUOUS
 10
361.3637227445
 20
31.3778788115
 11
361.0746601894
 21
30.5067593033
 12
361.3637227445
 22
32.0231527459
 13
361.3637227445
 23
32.0231527459
  0
SOLID
  8
0
 62
7
  6
CONTINUOUS
 10
361.0746601894
 20
30.5067593033
 11
361.0746601894
 21
32.0231527459
 12
361.3637227445
 22
32.0231527459
 13
361.3637227445
 23
32.0231527459
  0
SOLID
  8
0
 62
7
  6
CONTINUOUS
 10
361.3637227445
 20
31.2488235635
 11
361.3637227445
 21
30.5067593033
 12
361.0746601894
 22
30.5067593033
 13
361.0746601894
 23
30.5067593033
  0
SOLID
  8
0
 62
7
  6
CONTINUOUS
 10
362.4043477445
 20
30.5067593033
 11
362.4043477445
 21
31.1520332377
 12
362.6934101343
 22
31.1520332377
 13
362.6934101343
 23
31.1520332377
  0
SOLID
  8
0
 62
7
  6
CONTINUOUS
 10
362.6934101343
 20
31.1520332377
 11
362.6934101343
 21
30.5067593033
 12
362.4043477445
 22
30.5067593033
 13
362.4043477445
 23
30.5067593033
  0
SOLID
  8
0
 62
7
  6
CONTINUOUS
 10
363.4449727445
 20
31.506933758
 11
363.8496603548
 21
31.5391977507
 12
364.1965353548
 22
31.5391977507
 13
364.1965353548
 23
31.5391977507
  0
SOLID
  8
0
 62
7
  6
CONTINUOUS
 10
364.1965353548
 20
31.5391977507
 11
364.543410024
 21
31.506933758
 12
363.4449727445
 22
31.506933758
 13
363.4449727445
 23
31.506933758
  0
SOLID
  8
0
 62
7
  6
CONTINUOUS
 10
363.3293478548
 20
31.4746706537
 11
363.4449727445
 21
31.506933758
 12
364.543410024
 22
31.506933758
 13
364.543410024
 23
31.506933758
  0
SOLID
  8
0
 62
7
  6
CONTINUOUS
 10
364.543410024
 20
31.506933758
 11
364.716847524
 21
31.4424063504
 12
363.3293478548
 22
31.4746706537
 13
363.3293478548
 23
31.4746706537
  0
SOLID
  8
0
 62
7
  6
CONTINUOUS
 10
363.2137226343
 20
31.4101417797
 11
363.3293478548
 21
31.4746706537
 12
364.716847524
 22
31.4424063504
 13
364.716847524
 23
31.4424063504
  0
SOLID
  8
0
 62
7
  6
CONTINUOUS
 10
363.2137226343
 20
31.4101417797
 11
364.716847524
 21
31.4424063504
 12
363.8496603548
 22
31.4101417797
 13
363.8496603548
 23
31.4101417797
  0
SOLID
  8
0
 62
7
  6
CONTINUOUS
 10
363.8496603548
 20
31.4101417797
 11
364.716847524
 21
31.4424063504
 12
364.1965353548
 22
31.4101417797
 13
364.1965353548
 23
31.4101417797
  0
SOLID
  8
0
 62
7
  6
CONTINUOUS
 10
364.1965353548
 20
31.4101417797
 11
364.716847524
 21
31.4424063504
 12
364.4277854651
 22
31.3778793357
 13
364.4277854651
 23
31.3778793357
  0
SOLID
  8
0
 62
7
  6
CONTINUOUS
 10
364.716847524
 20
31.4424063504
 11
364.8324727445
 21
31.3778793357
 12
364.4277854651
 22
31.3778793357
 13
364.4277854651
 23
31.3778793357
  0
SOLID
  8
0
 62
7
  6
CONTINUOUS
 10
363.1559103548
 20
31.3456153429
 11
363.2137226343
 21
31.4101417797
 12
363.8496603548
 22
31.4101417797
 13
363.8496603548
 23
31.4101417797
  0
SOLID
  8
0
 62
7
  6
CONTINUOUS
 10
364.543410024
 20
31.3456153429
 11
364.4277854651
 21
31.3778793357
 12
364.8324727445
 22
31.3778793357
 13
364.8324727445
 23
31.3778793357
  0
SOLID
  8
0
 62
7
  6
CONTINUOUS
 10
364.543410024
 20
31.3456153429
 11
364.8324727445
 21
31.3778793357
 12
364.6012229651
 22
31.2810881318
 13
364.6012229651
 23
31.2810881318
  0
SOLID
  8
0
 62
7
  6
CONTINUOUS
 10
364.8324727445
 20
31.3778793357
 11
364.890285024
 21
31.2810881318
 12
364.6012229651
 22
31.2810881318
 13
364.6012229651
 23
31.2810881318
  0
SOLID
  8
0
 62
7
  6
CONTINUOUS
 10
364.6012229651
 20
31.1842964734
 11
364.6012229651
 21
31.2810881318
 12
364.890285024
 22
31.2810881318
 13
364.890285024
 23
31.2810881318
  0
SOLID
  8
0
 62
7
  6
CONTINUOUS
 10
364.6012229651
 20
31.1842964734
 11
364.890285024
 21
31.2810881318
 12
364.6012229651
 22
31.0552422931
 13
364.6012229651
 23
31.0552422931
  0
SOLID
  8
0
 62
7
  6
CONTINUOUS
 10
364.6012229651
 20
31.0552422931
 11
364.890285024
 21
31.2810881318
 12
364.6012229651
 22
30.8616599362
 13
364.6012229651
 23
30.8616599362
  0
SOLID
  8
0
 62
7
  6
CONTINUOUS
 10
364.890285024
 20
31.2810881318
 11
364.890285024
 21
30.7648681127
 12
364.6012229651
 22
30.8616599362
 13
364.6012229651
 23
30.8616599362
  0
SOLID
  8
0
 62
7
  6
CONTINUOUS
 10
366.798097524
 20
31.5069339419
 11
367.0293479651
 21
31.5391976292
 12
367.2605977445
 22
31.5391976292
 13
367.2605977445
 23
31.5391976292
  0
SOLID
  8
0
 62
7
  6
CONTINUOUS
 10
367.2605977445
 20
31.5391976292
 11
367.4340352445
 21
31.5069339419
 12
366.798097524
 22
31.5069339419
 13
366.798097524
 23
31.5069339419
  0
SOLID
  8
0
 62
7
  6
CONTINUOUS
 10
366.624660024
 20
31.4424065674
 11
366.798097524
 21
31.5069339419
 12
367.4340352445
 22
31.5069339419
 13
367.4340352445
 23
31.5069339419
  0
SOLID
  8
0
 62
7
  6
CONTINUOUS
 10
367.4340352445
 20
31.5069339419
 11
367.6074727445
 21
31.4424065674
 12
366.624660024
 22
31.4424065674
 13
366.624660024
 23
31.4424065674
  0
SOLID
  8
0
 62
7
  6
CONTINUOUS
 10
367.6074727445
 20
31.4424065674
 11
367.0293479651
 21
31.4101420472
 12
366.624660024
 22
31.4424065674
 13
366.624660024
 23
31.4424065674
  0
SOLID
  8
0
 62
7
  6
CONTINUOUS
 10
366.5090354651
 20
31.377879193
 11
366.624660024
 21
31.4424065674
 12
367.0293479651
 22
31.4101420472
 13
367.0293479651
 23
31.4101420472
  0
SOLID
  8
0
 62
7
  6
CONTINUOUS
 10
367.0293479651
 20
31.4101420472
 11
366.798097524
 21
31.377879193
 12
366.5090354651
 22
31.377879193
 13
366.5090354651
 23
31.377879193
  0
SOLID
  8
0
 62
7
  6
CONTINUOUS
 10
367.0293479651
 20
31.4101420472
 11
367.6074727445
 21
31.4424065674
 12
367.2605977445
 22
31.377879193
 13
367.2605977445
 23
31.377879193
  0
SOLID
  8
0
 62
7
  6
CONTINUOUS
 10
367.6074727445
 20
31.4424065674
 11
367.7230979651
 21
31.377879193
 12
367.2605977445
 22
31.377879193
 13
367.2605977445
 23
31.377879193
  0
SOLID
  8
0
 62
7
  6
CONTINUOUS
 10
367.3762229651
 20
31.345614957
 11
367.2605977445
 21
31.377879193
 12
367.7230979651
 22
31.377879193
 13
367.7230979651
 23
31.377879193
  0
SOLID
  8
0
 62
7
  6
CONTINUOUS
 10
367.3762229651
 20
31.345614957
 11
367.7230979651
 21
31.377879193
 12
367.491847524
 22
31.2810881312
 13
367.491847524
 23
31.2810881312
  0
SOLID
  8
0
 62
7
  6
CONTINUOUS
 10
367.7230979651
 20
31.377879193
 11
367.7809102445
 21
31.2810881312
 12
367.491847524
 22
31.2810881312
 13
367.491847524
 23
31.2810881312
  0
SOLID
  8
0
 62
7
  6
CONTINUOUS
 10
367.5496604651
 20
31.119769695
 11
367.491847524
 21
31.2810881312
 12
367.7809102445
 22
31.2810881312
 13
367.7809102445
 23
31.2810881312
  0
SOLID
  8
0
 62
7
  6
CONTINUOUS
 10
367.7809102445
 20
31.2810881312
 11
367.838722524
 21
31.119769695
 12
367.5496604651
 22
31.119769695
 13
367.5496604651
 23
31.119769695
  0
SOLID
  8
0
 62
7
  6
CONTINUOUS
 10
366.798097524
 20
31.377879193
 11
366.624660024
 21
31.3133521701
 12
366.5090354651
 22
31.377879193
 13
366.5090354651
 23
31.377879193
  0
SOLID
  8
0
 62
7
  6
CONTINUOUS
 10
366.624660024
 20
31.3133521701
 11
366.5090354651
 21
31.2488235635
 12
366.5090354651
 22
31.377879193
 13
366.5090354651
 23
31.377879193
  0
SOLID
  8
0
 62
7
  6
CONTINUOUS
 10
366.5090354651
 20
31.2488235635
 11
366.2199727445
 21
30.5067596374
 12
366.5090354651
 22
31.377879193
 13
366.5090354651
 23
31.377879193
  0
SOLID
  8
0
 62
7
  6
CONTINUOUS
 10
366.5090354651
 20
31.377879193
 11
366.2199727445
 21
30.5067596374
 12
366.5090354651
 22
31.5391976292
 13
366.5090354651
 23
31.5391976292
  0
SOLID
  8
0
 62
7
  6
CONTINUOUS
 10
366.2199727445
 20
30.5067596374
 11
366.2199727445
 21
31.5391976292
 12
366.5090354651
 22
31.5391976292
 13
366.5090354651
 23
31.5391976292
  0
SOLID
  8
0
 62
7
  6
CONTINUOUS
 10
366.5090354651
 20
31.2488235635
 11
366.5090354651
 21
30.5067596374
 12
366.2199727445
 22
30.5067596374
 13
366.2199727445
 23
30.5067596374
  0
SOLID
  8
0
 62
7
  6
CONTINUOUS
 10
367.5496604651
 20
30.5067596374
 11
367.5496604651
 21
31.119769695
 12
367.838722524
 22
31.119769695
 13
367.838722524
 23
31.119769695
  0
SOLID
  8
0
 62
7
  6
CONTINUOUS
 10
367.838722524
 20
31.119769695
 11
367.838722524
 21
30.5067596374
 12
367.5496604651
 22
30.5067596374
 13
367.5496604651
 23
30.5067596374
  0
SOLID
  8
0
 62
7
  6
CONTINUOUS
 10
368.6480977445
 20
31.5069334157
 11
368.9949727445
 21
31.539197762
 12
369.3418477445
 22
31.539197762
 13
369.3418477445
 23
31.539197762
  0
SOLID
  8
0
 62
7
  6
CONTINUOUS
 10
369.3418477445
 20
31.539197762
 11
369.6887227445
 21
31.5069334157
 12
368.6480977445
 22
31.5069334157
 13
368.6480977445
 23
31.5069334157
  0
SOLID
  8
0
 62
7
  6
CONTINUOUS
 10
368.4168479651
 20
31.4424063504
 11
368.6480977445
 21
31.5069334157
 12
369.6887227445
 22
31.5069334157
 13
369.6887227445
 23
31.5069334157
  0
SOLID
  8
0
 62
7
  6
CONTINUOUS
 10
368.4168479651
 20
31.4424063504
 11
369.6887227445
 21
31.5069334406
 12
369.8621602445
 22
31.4746706537
 13
369.8621602445
 23
31.4746706537
  0
SOLID
  8
0
 62
7
  6
CONTINUOUS
 10
368.4168479651
 20
31.4424063504
 11
369.8621602445
 21
31.4746706537
 12
368.9949727445
 22
31.4101421267
 13
368.9949727445
 23
31.4101421267
  0
SOLID
  8
0
 62
7
  6
CONTINUOUS
 10
368.9949727445
 20
31.4101421267
 11
369.8621602445
 21
31.4746706537
 12
369.3418477445
 22
31.4101421267
 13
369.3418477445
 23
31.4101421267
  0
SOLID
  8
0
 62
7
  6
CONTINUOUS
 10
369.8621602445
 20
31.4746706537
 11
370.0355977445
 21
31.4101421267
 12
369.3418477445
 22
31.4101421267
 13
369.3418477445
 23
31.4101421267
  0
SOLID
  8
0
 62
7
  6
CONTINUOUS
 10
369.6887227445
 20
31.3778792603
 11
369.3418477445
 21
31.4101421267
 12
370.0355977445
 22
31.4101421267
 13
370.0355977445
 23
31.4101421267
  0
SOLID
  8
0
 62
7
  6
CONTINUOUS
 10
368.3012227445
 20
31.3456148845
 11
368.4168479651
 21
31.4424063504
 12
368.9949727445
 22
31.4101421267
 13
368.9949727445
 23
31.4101421267
  0
SOLID
  8
0
 62
7
  6
CONTINUOUS
 10
369.6887227445
 20
31.3778792603
 11
370.0355977445
 21
31.4101421267
 12
369.8043479651
 22
31.3456148845
 13
369.8043479651
 23
31.3456148845
  0
SOLID
  8
0
 62
7
  6
CONTINUOUS
 10
369.8043479651
 20
31.3456148845
 11
370.0355977445
 21
31.4101421267
 12
369.8621602445
 22
31.281087868
 13
369.8621602445
 23
31.281087868
  0
SOLID
  8
0
 62
7
  6
CONTINUOUS
 10
370.0355977445
 20
31.4101421267
 11
370.1512223035
 21
31.281087868
 12
369.8621602445
 22
31.281087868
 13
369.8621602445
 23
31.281087868
  0
SOLID
  8
0
 62
7
  6
CONTINUOUS
 10
359.4559102445
 20
31.3778792603
 11
358.9355977445
 21
31.3456148963
 12
359.6871602721
 22
31.4101421155
 13
359.6871602721
 23
31.4101421155
  0
SOLID
  8
0
 62
7
  6
CONTINUOUS
 10
358.9355977445
 20
31.3456148963
 11
359.0512227376
 21
31.4101421155
 12
359.6871602721
 22
31.4101421155
 13
359.6871602721
 23
31.4101421155
  0
SOLID
  8
0
 62
7
  6
CONTINUOUS
 10
359.4559102445
 20
31.3778792603
 11
359.3402852307
 21
31.3456148963
 12
358.9355977445
 22
31.3456148963
 13
358.9355977445
 23
31.3456148963
  0
SOLID
  8
0
 62
7
  6
CONTINUOUS
 10
358.8199727462
 20
31.2165607767
 11
358.9355977445
 21
31.3456148963
 12
359.3402852307
 22
31.3456148963
 13
359.3402852307
 23
31.3456148963
  0
SOLID
  8
0
 62
7
  6
CONTINUOUS
 10
363.1559103548
 20
31.3456149608
 11
363.8496603548
 21
31.4101420472
 12
363.6184102445
 22
31.3778792603
 13
363.6184102445
 23
31.3778792603
  0
SOLID
  8
0
 62
7
  6
CONTINUOUS
 10
363.6184102445
 20
31.3778792603
 11
363.5027853548
 21
31.3456149608
 12
363.1559103548
 22
31.3456149608
 13
363.1559103548
 23
31.3456149608
  0
SOLID
  8
0
 62
7
  6
CONTINUOUS
 10
363.1559103548
 20
31.2810878707
 11
363.1559103548
 21
31.3456149608
 12
363.5027853548
 22
31.3456149608
 13
363.5027853548
 23
31.3456149608
  0
SOLID
  8
0
 62
7
  6
CONTINUOUS
 10
363.5027853548
 20
31.3456149608
 11
363.4449727445
 21
31.2810878707
 12
363.1559103548
 22
31.2810878707
 13
363.1559103548
 23
31.2810878707
  0
SOLID
  8
0
 62
7
  6
CONTINUOUS
 10
368.3012227445
 20
31.3456149608
 11
368.9949727445
 21
31.4101420472
 12
368.7637229651
 22
31.3778792603
 13
368.7637229651
 23
31.3778792603
  0
SOLID
  8
0
 62
7
  6
CONTINUOUS
 10
368.7637229651
 20
31.3778792603
 11
368.6480977445
 21
31.3456149608
 12
368.3012227445
 22
31.3456149608
 13
368.3012227445
 23
31.3456149608
  0
SOLID
  8
0
 62
7
  6
CONTINUOUS
 10
368.3012227445
 20
31.2810878707
 11
368.3012227445
 21
31.3456149608
 12
368.6480977445
 22
31.3456149608
 13
368.6480977445
 23
31.3456149608
  0
SOLID
  8
0
 62
7
  6
CONTINUOUS
 10
368.6480977445
 20
31.3456149608
 11
368.5902854651
 21
31.2810878707
 12
368.3012227445
 22
31.2810878707
 13
368.3012227445
 23
31.2810878707
  0
SOLID
  8
0
 62
7
  6
CONTINUOUS
 10
368.4168479651
 20
31.1520336865
 11
368.3012227445
 21
31.2810878707
 12
368.5902854651
 22
31.2810878707
 13
368.5902854651
 23
31.2810878707
  0
SOLID
  8
0
 62
7
  6
CONTINUOUS
 10
358.8199727462
 20
31.2165607767
 11
359.3402852307
 21
31.345614957
 12
359.1668477307
 22
31.2488235635
 13
359.1668477307
 23
31.2488235635
  0
SOLID
  8
0
 62
7
  6
CONTINUOUS
 10
359.1668477307
 20
31.2488235635
 11
359.1090352445
 21
31.1842964734
 12
358.8199727462
 22
31.2165607767
 13
358.8199727462
 23
31.2165607767
  0
SOLID
  8
0
 62
7
  6
CONTINUOUS
 10
358.7621602445
 20
31.0229779898
 11
358.8199727462
 21
31.2165607767
 12
359.1090352445
 22
31.1842964734
 13
359.1090352445
 23
31.1842964734
  0
SOLID
  8
0
 62
7
  6
CONTINUOUS
 10
363.6184102445
 20
31.1520336865
 11
363.9652852445
 21
31.1842964611
 12
364.6012229651
 22
31.1842964611
 13
364.6012229651
 23
31.1842964611
  0
SOLID
  8
0
 62
7
  6
CONTINUOUS
 10
363.6184102445
 20
31.1520336865
 11
364.6012229651
 21
31.1842964611
 12
363.3871601343
 22
31.0875057863
 13
363.3871601343
 23
31.0875057863
  0
SOLID
  8
0
 62
7
  6
CONTINUOUS
 10
363.3871601343
 20
31.0875057863
 11
364.6012229651
 21
31.1842964611
 12
363.9652852445
 22
31.0552422808
 13
363.9652852445
 23
31.0552422808
  0
SOLID
  8
0
 62
7
  6
CONTINUOUS
 10
364.6012229651
 20
31.1842964611
 11
364.6012229651
 21
31.0552422808
 12
363.9652852445
 22
31.0552422808
 13
363.9652852445
 23
31.0552422808
  0
SOLID
  8
0
 62
7
  6
CONTINUOUS
 10
368.4168479651
 20
31.1520338754
 11
368.5902854651
 21
31.2810878668
 12
368.6480977445
 22
31.2165607767
 13
368.6480977445
 23
31.2165607767
  0
SOLID
  8
0
 62
7
  6
CONTINUOUS
 10
368.6480977445
 20
31.2165607767
 11
368.8215352445
 21
31.1520338754
 12
368.4168479651
 22
31.1520338754
 13
368.4168479651
 23
31.1520338754
  0
SOLID
  8
0
 62
7
  6
CONTINUOUS
 10
368.6480977445
 20
31.0552422931
 11
368.4168479651
 21
31.1520338754
 12
368.8215352445
 22
31.1520338754
 13
368.8215352445
 23
31.1520338754
  0
SOLID
  8
0
 62
7
  6
CONTINUOUS
 10
368.8215352445
 20
31.1520338754
 11
369.8043479651
 21
30.9907152029
 12
368.6480977445
 22
31.0552422931
 13
368.6480977445
 23
31.0552422931
  0
SOLID
  8
0
 62
7
  6
CONTINUOUS
 10
369.6309104651
 20
30.8939239876
 11
368.6480977445
 21
31.0552422931
 12
369.8043479651
 22
30.9907152029
 13
369.8043479651
 23
30.9907152029
  0
SOLID
  8
0
 62
7
  6
CONTINUOUS
 10
369.8043479651
 20
30.9907152029
 11
370.0355977445
 21
30.8939239876
 12
369.6309104651
 22
30.8939239876
 13
369.6309104651
 23
30.8939239876
  0
SOLID
  8
0
 62
7
  6
CONTINUOUS
 10
369.8043479651
 20
30.8293967193
 11
369.6309104651
 21
30.8939239876
 12
370.0355977445
 22
30.8939239876
 13
370.0355977445
 23
30.8939239876
  0
SOLID
  8
0
 62
7
  6
CONTINUOUS
 10
369.8043479651
 20
30.8293967193
 11
370.0355977445
 21
30.8939239876
 12
369.8621602445
 22
30.7648682694
 13
369.8621602445
 23
30.7648682694
  0
SOLID
  8
0
 62
7
  6
CONTINUOUS
 10
370.0355977445
 20
30.8939239876
 11
370.1512223035
 21
30.7648682694
 12
369.8621602445
 22
30.7648682694
 13
369.8621602445
 23
30.7648682694
  0
SOLID
  8
0
 62
7
  6
CONTINUOUS
 10
369.8043479651
 20
30.7003411846
 11
369.8621602445
 21
30.7648682694
 12
370.1512223035
 22
30.7648682694
 13
370.1512223035
 23
30.7648682694
  0
SOLID
  8
0
 62
7
  6
CONTINUOUS
 10
370.1512223035
 20
30.7648682694
 11
370.1512223035
 21
30.7003411846
 12
369.8043479651
 22
30.7003411846
 13
369.8043479651
 23
30.7003411846
  0
SOLID
  8
0
 62
7
  6
CONTINUOUS
 10
369.6887227445
 20
30.6680782357
 11
369.8043479651
 21
30.7003411846
 12
370.1512223035
 22
30.7003411846
 13
370.1512223035
 23
30.7003411846
  0
SOLID
  8
0
 62
7
  6
CONTINUOUS
 10
369.6887227445
 20
30.6680782357
 11
370.1512223035
 21
30.7003411846
 12
369.4574729651
 22
30.6358140998
 13
369.4574729651
 23
30.6358140998
  0
SOLID
  8
0
 62
7
  6
CONTINUOUS
 10
370.1512223035
 20
30.7003411846
 11
370.0355977445
 21
30.6035511455
 12
369.4574729651
 22
30.6358140998
 13
369.4574729651
 23
30.6358140998
  0
SOLID
  8
0
 62
7
  6
CONTINUOUS
 10
370.0355977445
 20
30.6035511455
 11
368.5902854651
 21
30.5712868422
 12
369.4574729651
 22
30.6358140998
 13
369.4574729651
 23
30.6358140998
  0
SOLID
  8
0
 62
7
  6
CONTINUOUS
 10
369.4574729651
 20
30.6358140998
 11
368.5902854651
 21
30.5712868422
 12
369.1105979651
 22
30.6358140998
 13
369.1105979651
 23
30.6358140998
  0
SOLID
  8
0
 62
7
  6
CONTINUOUS
 10
368.5902854651
 20
30.5712868422
 11
368.4168479651
 21
30.6358140998
 12
369.1105979651
 22
30.6358140998
 13
369.1105979651
 23
30.6358140998
  0
SOLID
  8
0
 62
7
  6
CONTINUOUS
 10
368.5902854651
 20
30.5712868422
 11
370.0355977445
 21
30.6035511455
 12
368.7637229651
 22
30.5390223111
 13
368.7637229651
 23
30.5390223111
  0
SOLID
  8
0
 62
7
  6
CONTINUOUS
 10
370.0355977445
 20
30.6035511455
 11
369.8043479651
 21
30.5390223111
 12
368.7637229651
 22
30.5390223111
 13
368.7637229651
 23
30.5390223111
  0
SOLID
  8
0
 62
7
  6
CONTINUOUS
 10
369.1105979651
 20
30.5067599302
 11
368.7637229651
 21
30.5390223111
 12
369.8043479651
 22
30.5390223111
 13
369.8043479651
 23
30.5390223111
  0
SOLID
  8
0
 62
7
  6
CONTINUOUS
 10
369.8043479651
 20
30.5390223111
 11
369.4574729651
 21
30.5067599302
 12
369.1105979651
 22
30.5067599302
 13
369.1105979651
 23
30.5067599302
  0
SOLID
  8
0
 62
7
  6
CONTINUOUS
 10
358.7621602445
 20
31.0229779898
 11
359.1090352445
 21
31.1842964734
 12
359.0512227376
 22
31.0552422931
 13
359.0512227376
 23
31.0552422931
  0
SOLID
  8
0
 62
7
  6
CONTINUOUS
 10
359.0512227376
 20
31.0552422931
 11
359.0512227376
 21
30.9584509954
 12
358.7621602445
 22
31.0229779898
 13
358.7621602445
 23
31.0229779898
  0
SOLID
  8
0
 62
7
  6
CONTINUOUS
 10
358.8199727462
 20
30.8293967193
 11
358.7621602445
 21
31.0229779898
 12
359.0512227376
 22
30.9584509954
 13
359.0512227376
 23
30.9584509954
  0
SOLID
  8
0
 62
7
  6
CONTINUOUS
 10
359.0512227376
 20
30.9584509954
 11
359.1668477307
 21
30.797132416
 12
358.8199727462
 22
30.8293967193
 13
358.8199727462
 23
30.8293967193
  0
SOLID
  8
0
 62
7
  6
CONTINUOUS
 10
358.9355977445
 20
30.7003413087
 11
358.8199727462
 21
30.8293967193
 12
359.1668477307
 22
30.797132416
 13
359.1668477307
 23
30.797132416
  0
SOLID
  8
0
 62
7
  6
CONTINUOUS
 10
359.1668477307
 20
30.797132416
 11
359.3402852307
 21
30.7003413087
 12
358.9355977445
 22
30.7003413087
 13
358.9355977445
 23
30.7003413087
  0
SOLID
  8
0
 62
7
  6
CONTINUOUS
 10
359.0512227376
 20
30.6358140759
 11
358.9355977445
 21
30.7003413087
 12
359.3402852307
 22
30.7003413087
 13
359.3402852307
 23
30.7003413087
  0
SOLID
  8
0
 62
7
  6
CONTINUOUS
 10
359.3402852307
 20
30.7003413087
 11
359.6871602721
 21
30.6358140759
 12
359.0512227376
 22
30.6358140759
 13
359.0512227376
 23
30.6358140759
  0
SOLID
  8
0
 62
7
  6
CONTINUOUS
 10
359.2246602583
 20
30.5712868422
 11
359.0512227376
 21
30.6358140759
 12
359.6871602721
 22
30.6358140759
 13
359.6871602721
 23
30.6358140759
  0
SOLID
  8
0
 62
7
  6
CONTINUOUS
 10
363.2715352445
 20
31.0229779808
 11
363.3871601343
 21
31.0875057863
 12
363.9652852445
 22
31.0552422931
 13
363.9652852445
 23
31.0552422931
  0
SOLID
  8
0
 62
7
  6
CONTINUOUS
 10
363.9652852445
 20
31.0552422931
 11
363.7340351343
 21
31.0229779808
 12
363.2715352445
 22
31.0229779808
 13
363.2715352445
 23
31.0229779808
  0
SOLID
  8
0
 62
7
  6
CONTINUOUS
 10
363.1559103548
 20
30.8939238094
 11
363.2715352445
 21
31.0229779808
 12
363.7340351343
 22
31.0229779808
 13
363.7340351343
 23
31.0229779808
  0
SOLID
  8
0
 62
7
  6
CONTINUOUS
 10
363.5027853548
 20
30.926187309
 11
363.1559103548
 21
30.8939238094
 12
363.6184102445
 22
30.9907152029
 13
363.6184102445
 23
30.9907152029
  0
SOLID
  8
0
 62
7
  6
CONTINUOUS
 10
363.1559103548
 20
30.8939238094
 11
363.7340351343
 21
31.0229779898
 12
363.6184102445
 22
30.9907152029
 13
363.6184102445
 23
30.9907152029
  0
SOLID
  8
0
 62
7
  6
CONTINUOUS
 10
363.5027853548
 20
30.926187309
 11
363.4449727445
 21
30.8293967193
 12
363.1559103548
 22
30.8939238094
 13
363.1559103548
 23
30.8939238094
  0
SOLID
  8
0
 62
7
  6
CONTINUOUS
 10
363.1559103548
 20
30.797132416
 11
363.1559103548
 21
30.8939238094
 12
363.4449727445
 22
30.8293967193
 13
363.4449727445
 23
30.8293967193
  0
SOLID
  8
0
 62
7
  6
CONTINUOUS
 10
363.4449727445
 20
30.8293967193
 11
363.4449727445
 21
30.7648681127
 12
363.1559103548
 22
30.797132416
 13
363.1559103548
 23
30.797132416
  0
SOLID
  8
0
 62
7
  6
CONTINUOUS
 10
363.2137226343
 20
30.6680782357
 11
363.1559103548
 21
30.797132416
 12
363.4449727445
 22
30.7648681127
 13
363.4449727445
 23
30.7648681127
  0
SOLID
  8
0
 62
7
  6
CONTINUOUS
 10
364.6012229651
 20
30.8616599362
 11
364.890285024
 21
30.7648681127
 12
364.543410024
 22
30.797132416
 13
364.543410024
 23
30.797132416
  0
SOLID
  8
0
 62
7
  6
CONTINUOUS
 10
364.369972524
 20
30.7003410226
 11
364.543410024
 21
30.797132416
 12
364.890285024
 22
30.7648681127
 13
364.890285024
 23
30.7648681127
  0
SOLID
  8
0
 62
7
  6
CONTINUOUS
 10
364.369972524
 20
30.7003410226
 11
364.890285024
 21
30.7648681127
 12
364.6012229651
 22
30.6680782357
 13
364.6012229651
 23
30.6680782357
  0
SOLID
  8
0
 62
7
  6
CONTINUOUS
 10
364.890285024
 20
30.7648681127
 11
364.9480979651
 21
30.6035511455
 12
364.6012229651
 22
30.6680782357
 13
364.6012229651
 23
30.6680782357
  0
SOLID
  8
0
 62
7
  6
CONTINUOUS
 10
364.6590352445
 20
30.5712868422
 11
364.6012229651
 21
30.6680782357
 12
364.9480979651
 22
30.6035511455
 13
364.9480979651
 23
30.6035511455
  0
SOLID
  8
0
 62
7
  6
CONTINUOUS
 10
364.6590352445
 20
30.5712868422
 11
364.9480979651
 21
30.6035511455
 12
364.716847524
 22
30.5067598731
 13
364.716847524
 23
30.5067598731
  0
SOLID
  8
0
 62
7
  6
CONTINUOUS
 10
364.9480979651
 20
30.6035511455
 11
365.0059102445
 21
30.5067598731
 12
364.716847524
 22
30.5067598731
 13
364.716847524
 23
30.5067598731
  0
SOLID
  8
0
 62
7
  6
CONTINUOUS
 10
360.2652852997
 20
30.7326051679
 11
360.3230977445
 21
30.8293966612
 12
360.6121602997
 22
30.8293966612
 13
360.6121602997
 23
30.8293966612
  0
SOLID
  8
0
 62
7
  6
CONTINUOUS
 10
360.6121602997
 20
30.8293966612
 11
360.5543476894
 21
30.7003410226
 12
360.2652852997
 22
30.7326051679
 13
360.2652852997
 23
30.7326051679
  0
SOLID
  8
0
 62
7
  6
CONTINUOUS
 10
360.091847717
 20
30.6680782357
 11
360.2652852997
 21
30.7326051679
 12
360.5543476894
 22
30.7003410226
 13
360.5543476894
 23
30.7003410226
  0
SOLID
  8
0
 62
7
  6
CONTINUOUS
 10
360.091847717
 20
30.6680782357
 11
360.5543476894
 21
30.7003410226
 12
359.6871602721
 22
30.6358139324
 13
359.6871602721
 23
30.6358139324
  0
SOLID
  8
0
 62
7
  6
CONTINUOUS
 10
360.5543476894
 20
30.7003410226
 11
360.3809101894
 21
30.6035511455
 12
359.6871602721
 22
30.6358139324
 13
359.6871602721
 23
30.6358139324
  0
SOLID
  8
0
 62
7
  6
CONTINUOUS
 10
359.2246602583
 20
30.5712868422
 11
359.6871602721
 21
30.6358139324
 12
360.3809101894
 22
30.6035511455
 13
360.3809101894
 23
30.6035511455
  0
SOLID
  8
0
 62
7
  6
CONTINUOUS
 10
359.2246602583
 20
30.5712868422
 11
360.3809101894
 21
30.6035511455
 12
359.3980977583
 22
30.5390224228
 13
359.3980977583
 23
30.5390224228
  0
SOLID
  8
0
 62
7
  6
CONTINUOUS
 10
360.3809101894
 20
30.6035511455
 11
360.1496602445
 21
30.5390224228
 12
359.3980977583
 22
30.5390224228
 13
359.3980977583
 23
30.5390224228
  0
SOLID
  8
0
 62
7
  6
CONTINUOUS
 10
359.744972717
 20
30.5067597521
 11
359.3980977583
 21
30.5390224228
 12
360.1496602445
 22
30.5390224228
 13
360.1496602445
 23
30.5390224228
  0
SOLID
  8
0
 62
7
  6
CONTINUOUS
 10
363.2137226343
 20
30.6680782357
 11
363.4449727445
 21
30.7648681127
 12
363.5027853548
 22
30.7003410226
 13
363.5027853548
 23
30.7003410226
  0
SOLID
  8
0
 62
7
  6
CONTINUOUS
 10
363.5027853548
 20
30.7003410226
 11
363.7340351343
 21
30.6358139324
 12
363.2137226343
 22
30.6680782357
 13
363.2137226343
 23
30.6680782357
  0
SOLID
  8
0
 62
7
  6
CONTINUOUS
 10
363.3871601343
 20
30.5712868422
 11
363.2137226343
 21
30.6680782357
 12
363.7340351343
 22
30.6358139324
 13
363.7340351343
 23
30.6358139324
  0
SOLID
  8
0
 62
7
  6
CONTINUOUS
 10
364.0809101343
 20
30.6358139363
 11
364.369972524
 21
30.7003410226
 12
364.6012229651
 22
30.6680782357
 13
364.6012229651
 23
30.6680782357
  0
SOLID
  8
0
 62
7
  6
CONTINUOUS
 10
364.6012229651
 20
30.6680782357
 11
364.543410024
 21
30.6035511455
 12
364.0809101343
 22
30.6358139363
 13
364.0809101343
 23
30.6358139363
  0
SOLID
  8
0
 62
7
  6
CONTINUOUS
 10
364.543410024
 20
30.6035511455
 11
363.3871601343
 21
30.5712868422
 12
364.0809101343
 22
30.6358139363
 13
364.0809101343
 23
30.6358139363
  0
SOLID
  8
0
 62
7
  6
CONTINUOUS
 10
363.3871601343
 20
30.5712868422
 11
363.7340351343
 21
30.6358139363
 12
364.0809101343
 22
30.6358139363
 13
364.0809101343
 23
30.6358139363
  0
SOLID
  8
0
 62
7
  6
CONTINUOUS
 10
363.3871601343
 20
30.5712868422
 11
364.543410024
 21
30.6035511455
 12
363.5027853548
 22
30.5390225267
 13
363.5027853548
 23
30.5390225267
  0
SOLID
  8
0
 62
7
  6
CONTINUOUS
 10
364.543410024
 20
30.6035511455
 11
364.369972524
 21
30.5390225267
 12
363.5027853548
 22
30.5390225267
 13
363.5027853548
 23
30.5390225267
  0
SOLID
  8
0
 62
7
  6
CONTINUOUS
 10
363.7340351343
 20
30.5067596914
 11
363.5027853548
 21
30.5390225267
 12
364.369972524
 22
30.5390225267
 13
364.369972524
 23
30.5390225267
  0
SOLID
  8
0
 62
7
  6
CONTINUOUS
 10
364.369972524
 20
30.5390225267
 11
364.0809101343
 21
30.5067596914
 12
363.7340351343
 22
30.5067596914
 13
363.7340351343
 23
30.5067596914
  0
SOLID
  8
0
 62
7
  6
CONTINUOUS
 10
368.7637229651
 20
30.6680782357
 11
368.4168479651
 21
30.6358138717
 12
368.6480977445
 22
30.7003410226
 13
368.6480977445
 23
30.7003410226
  0
SOLID
  8
0
 62
7
  6
CONTINUOUS
 10
368.6480977445
 20
30.7003410226
 11
368.4168479651
 21
30.6358138717
 12
368.5902854651
 22
30.7648680521
 13
368.5902854651
 23
30.7648680521
  0
SOLID
  8
0
 62
7
  6
CONTINUOUS
 10
368.4168479651
 20
30.6358138717
 11
368.3012227445
 21
30.7648680521
 12
368.5902854651
 22
30.7648680521
 13
368.5902854651
 23
30.7648680521
  0
SOLID
  8
0
 62
7
  6
CONTINUOUS
 10
368.7637229651
 20
30.6680782357
 11
369.1105979651
 21
30.6358138717
 12
368.4168479651
 22
30.6358138717
 13
368.4168479651
 23
30.6358138717
  0
SOLID
  8
0
 62
7
  6
CONTINUOUS
 10
365.4684104651
 20
30.5067597521
 11
365.4684104651
 21
31.5391977439
 12
365.757472524
 22
30.5067597521
 13
365.757472524
 23
31.5391977439
  0
ENDBLK
  8
0
  6
BYBLOCK
 62
0
  0
BLOCK
  8
0
 62
2
  6
CONTINUOUS
  2
SYMBOL_0_BL0
 70
64
 10
240.8592468615
 20
19.762288695
  0
TEXT
  8
0
 62
7
  6
CONTINUOUS
 10
227.1239507038
 20
19.1357028027
  7
TEXTSTYLE_3
 40
2.7338706658
  1
Ammeraal Beltech
 41
1.0
 51
15.0
 72
0
  0
TEXT
  8
0
 62
7
  6
CONTINUOUS
 10
237.9247515296
 20
16.8621661299
  7
TEXTSTYLE_4
 40
1.0935482663
  1
Innovation & Service in Belting
 41
1.0
 72
0
  0
LINE
  8
0
 62
7
  6
CONTINUOUS
 10
221.0994100525
 20
19.9022961113
 11
221.8775620458
 21
23.5632134089
  0
LINE
  8
0
 62
7
  6
CONTINUOUS
 10
231.9727303357
 20
27.2266073205
 11
222.3653797889
 21
24.1049898993
  0
LINE
  8
0
 62
7
  6
CONTINUOUS
 10
221.3246933848
 20
19.2089453082
 11
228.8317686459
 21
12.4495443822
  0
LINE
  8
0
 62
7
  6
CONTINUOUS
 10
221.5872277955
 20
20.4440726016
 11
232.3954971607
 21
23.9558922005
  0
LINE
  8
0
 62
7
  6
CONTINUOUS
 10
232.3912920235
 20
13.6061036368
 11
223.9458323548
 21
21.2104296785
  0
LINE
  8
0
 62
7
  6
CONTINUOUS
 10
232.9111147433
 20
26.3816822048
 11
231.9345552061
 21
21.7873308023
  0
LINE
  8
0
 62
7
  6
CONTINUOUS
 10
231.2347532584
 20
18.4950214885
 11
230.5483050469
 21
15.2655365641
  0
LINE
  8
0
 62
7
  6
CONTINUOUS
 10
233.5922108419
 20
13.9963058145
 11
234.5484423775
 21
18.4950214885
  0
LINE
  8
0
 62
7
  6
CONTINUOUS
 10
235.2482443252
 20
21.7873308023
 11
235.6924861276
 21
23.8773241617
  0
LINE
  8
0
 62
7
  6
CONTINUOUS
 10
229.5448697213
 20
12.2979700695
 11
233.1043930989
 21
13.4545293241
  0
LINE
  8
0
 62
7
  6
CONTINUOUS
 10
232.685831411
 20
27.0750330078
 11
235.4672027953
 21
24.5706749648
  0
ARC
  8
0
 62
7
  6
CONTINUOUS
 10
222.5906631212
 20
23.4116390962
 40
0.7290321776
 50
108.0
 51
168.0
  0
ARC
  8
0
 62
7
  6
CONTINUOUS
 10
232.198013668
 20
26.5332565175
 40
0.7290321776
 50
348.0
 51
108.0
  0
ARC
  8
0
 62
7
  6
CONTINUOUS
 10
234.9793850522
 20
24.0288984744
 40
0.7290321776
 50
348.0
 51
48.0
  0
ARC
  8
0
 62
7
  6
CONTINUOUS
 10
229.319586389
 20
12.9913208726
 40
0.7290321776
 50
228.0
 51
288.0
  0
ARC
  8
0
 62
7
  6
CONTINUOUS
 10
221.8125111278
 20
19.7507217986
 40
0.7290321776
 50
108.0
 51
228.0
  0
ARC
  8
0
 62
7
  6
CONTINUOUS
 10
232.8791097665
 20
14.1478801272
 40
0.7290321776
 50
228.0
 51
348.0
  0
ENDBLK
  8
0
  6
BYBLOCK
 62
0
  0
ENDSEC
  0
SECTION
  2
ENTITIES
  0
TEXT
  8
0
 62
5
  6
CONTINUOUS
 10
304.937007874
 20
25.636
  7
TEXTSTYLE_2
 40
2.8
  1
Scale :
 41
0.6
 51
0.000019
 72
0
  0
TEXT
  8
0
 62
5
  6
CONTINUOUS
 10
324.937007874
 20
25.636
  7
TEXTSTYLE_2
 40
2.8
  1
Belt type:
 41
0.6
 51
0.000019
 72
0
  0
INSERT
  8
0
 62
2
  6
CONTINUOUS
  2
SYMBOL_0_BL0
 10
240.8592468615
 20
19.762288695
  0
INSERT
  8
0
 62
2
  6
CONTINUOUS
  2
SYMBOL_5_BL1
 10
382.7840918555
 20
35.5067593403
  0
LINE
  8
0
 62
2
  6
CONTINUOUS
 10
218.937007874
 20
30.0
 11
408.937007874
 21
30.0
  0
LINE
  8
0
 62
2
  6
CONTINUOUS
 10
218.937007874
 20
30.0
 11
218.937007874
 21
10.0
  0
LINE
  8
0
 62
2
  6
CONTINUOUS
 10
218.937007874
 20
10.0
 11
408.937007874
 21
10.0
  0
LINE
  8
0
 62
2
  6
CONTINUOUS
 10
303.937007874
 20
30.0
 11
303.937007874
 21
10.0
  0
LINE
  8
0
 62
2
  6
CONTINUOUS
 10
323.937007874
 20
30.0
 11
323.937007874
 21
10.0
  0
LINE
  8
0
 62
2
  6
CONTINUOUS
 10
408.937007874
 20
30.0
 11
408.937007874
 21
10.0
  0
TEXT
  8
0
 62
5
  6
CONTINUOUS
 10
221.937007874
 20
23.303
  7
TEXTSTYLE_5
 40
1.52
  1
                                                                     Ammeraal Beltech Modular A/S
 41
1.0
 72
0
  0
TEXT
  8
0
 62
5
  6
CONTINUOUS
 10
221.937007874
 20
20.595
  7
TEXTSTYLE_5
 40
1.5
  1
                                                                      Hjulmagervej 21, 7100 Vejle,  DK
 41
1.0
 72
0
  0
TEXT
  8
0
 62
5
  6
CONTINUOUS
 10
221.937007874
 20
17.881
  7
TEXTSTYLE_5
 40
1.495
  1
                                                                      tel: 
 41
1.0
 72
0
  0
TEXT
  8
0
 62
5
  6
CONTINUOUS
 10
266.9239544389
 20
17.881
  7
TEXTSTYLE_5
 40
1.51
  1
+45 75723100     fax: +45 75723348
 41
1.0
 72
0
  0
TEXT
  8
0
 62
5
  6
CONTINUOUS
 10
221.937007874
 20
15.177
  7
TEXTSTYLE_5
 40
1.5
  1
                                                                      admin@unichains.dk  www.unichains.com
 41
1.0
 72
0
  0
TEXT
  8
0
 62
5
  6
CONTINUOUS
 10
308.687007874
 20
13.75
  7
TEXTSTYLE_6
 40
5.0
  1
1:1
 41
0.7
 72
1
 11
313.937007874
 21
13.75
  0
TEXT
  8
0
 62
5
  6
CONTINUOUS
 10
326.937007874
 20
13.75
  7
TEXTSTYLE_7
 40
7.5
  1
uni MPB PS. molded indent 34mm K600
 41
0.3072321429
 72
0
  0
LINE
  8
0
 62
7
  6
CONTINUOUS
 10
0.0
 20
0.0
 11
0.0
 21
297.0
  0
LINE
  8
0
 62
7
  6
CONTINUOUS
 10
8.937007874
 20
10.0
 11
8.937007874
 21
287.0
  0
LINE
  8
0
 62
7
  6
CONTINUOUS
 10
0.0
 20
0.0
 11
420.0
 21
0.0
  0
LINE
  8
0
 62
7
  6
CONTINUOUS
 10
408.937007874
 20
10.0
 11
8.937007874
 21
10.0
  0
LINE
  8
0
 62
7
  6
CONTINUOUS
 10
218.937007874
 20
30.0
 11
408.937007874
 21
30.0
  0
LINE
  8
0
 62
7
  6
CONTINUOUS
 10
210.0
 20
297.0
 11
210.0
 21
292.0
  0
LINE
  8
0
 62
7
  6
CONTINUOUS
 10
210.0
 20
0.0
 11
210.0
 21
5.0
  0
LINE
  8
0
 62
7
  6
CONTINUOUS
 10
8.937007874
 20
287.0
 11
408.937007874
 21
287.0
  0
LINE
  8
0
 62
7
  6
CONTINUOUS
 10
0.0
 20
297.0
 11
420.0
 21
297.0
  0
LINE
  8
0
 62
7
  6
CONTINUOUS
 10
408.937007874
 20
287.0
 11
408.937007874
 21
10.0
  0
LINE
  8
0
 62
7
  6
CONTINUOUS
 10
420.0
 20
0.0
 11
420.0
 21
297.0
  0
LINE
  8
0
 62
7
  6
CONTINUOUS
 10
86.3844288793
 20
63.3239090816
 11
86.3844288793
 21
117.9022164679
  0
LINE
  8
0
 62
7
  6
CONTINUOUS
 10
86.6344288793
 20
107.8417691246
 11
86.6344288793
 21
86.2061834616
  0
POLYLINE
  8
0
 62
7
  6
CONTINUOUS
 66
1
 70
0
  0
VERTEX
  8
0
 62
7
  6
CONTINUOUS
 10
86.6344288793
 20
107.8417691246
  0
VERTEX
  8
0
 62
7
  6
CONTINUOUS
 10
86.6613482603
 20
108.4869084378
  0
VERTEX
  8
0
 62
7
  6
CONTINUOUS
 10
86.7467727138
 20
109.2111572238
  0
VERTEX
  8
0
 62
7
  6
CONTINUOUS
 10
86.8955137031
 20
110.0112046647
  0
VERTEX
  8
0
 62
7
  6
CONTINUOUS
 10
87.1092761371
 20
110.8843561463
  0
VERTEX
  8
0
 62
7
  6
CONTINUOUS
 10
87.3903477677
 20
111.8420352675
  0
VERTEX
  8
0
 62
7
  6
CONTINUOUS
 10
87.7365882623
 20
112.8919243089
  0
VERTEX
  8
0
 62
7
  6
CONTINUOUS
 10
88.1318131674
 20
114.021345269
  0
SEQEND
  0
POLYLINE
  8
0
 62
7
  6
CONTINUOUS
 66
1
 70
0
  0
VERTEX
  8
0
 62
7
  6
CONTINUOUS
 10
95.8299597055
 20
129.4627430249
  0
VERTEX
  8
0
 62
7
  6
CONTINUOUS
 10
95.6501764303
 20
129.0617938031
  0
VERTEX
  8
0
 62
7
  6
CONTINUOUS
 10
95.4751118921
 20
128.5961807623
  0
VERTEX
  8
0
 62
7
  6
CONTINUOUS
 10
95.3163434902
 20
128.0945562819
  0
VERTEX
  8
0
 62
7
  6
CONTINUOUS
 10
95.1736387444
 20
127.5612200797
  0
VERTEX
  8
0
 62
7
  6
CONTINUOUS
 10
95.0469505108
 20
127.0008290579
  0
VERTEX
  8
0
 62
7
  6
CONTINUOUS
 10
94.9362629798
 20
126.4182182524
  0
VERTEX
  8
0
 62
7
  6
CONTINUOUS
 10
94.8415341285
 20
125.8183933255
  0
VERTEX
  8
0
 62
7
  6
CONTINUOUS
 10
94.7696563148
 20
125.2666002041
  0
SEQEND
  0
POLYLINE
  8
0
 62
7
  6
CONTINUOUS
 66
1
 70
0
  0
VERTEX
  8
0
 62
7
  6
CONTINUOUS
 10
86.3844288793
 20
68.7867241098
  0
VERTEX
  8
0
 62
7
  6
CONTINUOUS
 10
86.3893537502
 20
68.7789613696
  0
VERTEX
  8
0
 62
7
  6
CONTINUOUS
 10
86.4039382649
 20
68.7715812422
  0
VERTEX
  8
0
 62
7
  6
CONTINUOUS
 10
86.4275467263
 20
68.7649470491
  0
VERTEX
  8
0
 62
7
  6
CONTINUOUS
 10
86.4590851758
 20
68.7593909801
  0
VERTEX
  8
0
 62
7
  6
CONTINUOUS
 10
86.4970363603
 20
68.7551967968
  0
VERTEX
  8
0
 62
7
  6
CONTINUOUS
 10
86.539527485
 20
68.7525838861
  0
VERTEX
  8
0
 62
7
  6
CONTINUOUS
 10
86.5844288793
 20
68.7516949698
  0
SEQEND
  0
POLYLINE
  8
0
 62
7
  6
CONTINUOUS
 66
1
 70
0
  0
VERTEX
  8
0
 62
7
  6
CONTINUOUS
 10
88.1318131674
 20
80.0266073172
  0
VERTEX
  8
0
 62
7
  6
CONTINUOUS
 10
87.736890728
 20
81.1551458275
  0
VERTEX
  8
0
 62
7
  6
CONTINUOUS
 10
87.3896930507
 20
82.2080046626
  0
VERTEX
  8
0
 62
7
  6
CONTINUOUS
 10
87.1052985203
 20
83.1783167904
  0
VERTEX
  8
0
 62
7
  6
CONTINUOUS
 10
86.8907179004
 20
84.05897532
  0
VERTEX
  8
0
 62
7
  6
CONTINUOUS
 10
86.7442117584
 20
84.8536394557
  0
VERTEX
  8
0
 62
7
  6
CONTINUOUS
 10
86.6607794397
 20
85.5681504524
  0
VERTEX
  8
0
 62
7
  6
CONTINUOUS
 10
86.6344288793
 20
86.2061834616
  0
SEQEND
  0
POLYLINE
  8
0
 62
7
  6
CONTINUOUS
 66
1
 70
0
  0
VERTEX
  8
0
 62
7
  6
CONTINUOUS
 10
86.3844285104
 20
63.3239673883
  0
VERTEX
  8
0
 62
7
  6
CONTINUOUS
 10
86.3893948581
 20
63.2796753928
  0
VERTEX
  8
0
 62
7
  6
CONTINUOUS
 10
86.4041216994
 20
63.2374278898
  0
VERTEX
  8
0
 62
7
  6
CONTINUOUS
 10
86.4278721243
 20
63.1995114142
  0
VERTEX
  8
0
 62
7
  6
CONTINUOUS
 10
86.4594575186
 20
63.167823651
  0
VERTEX
  8
0
 62
7
  6
CONTINUOUS
 10
86.4972971649
 20
63.1439505384
  0
VERTEX
  8
0
 62
7
  6
CONTINUOUS
 10
86.5394969528
 20
63.1290870309
  0
VERTEX
  8
0
 62
7
  6
CONTINUOUS
 10
86.5844201612
 20
63.1239763021
  0
SEQEND
  0
POLYLINE
  8
0
 62
7
  6
CONTINUOUS
 66
1
 70
0
  0
VERTEX
  8
0
 62
7
  6
CONTINUOUS
 10
94.596262291
 20
74.6135177914
  0
VERTEX
  8
0
 62
7
  6
CONTINUOUS
 10
94.5924147224
 20
74.8952418557
  0
VERTEX
  8
0
 62
7
  6
CONTINUOUS
 10
94.592115781
 20
74.9623760048
  0
VERTEX
  8
0
 62
7
  6
CONTINUOUS
 10
94.5927706486
 20
75.0285915383
  0
VERTEX
  8
0
 62
7
  6
CONTINUOUS
 10
94.5944677887
 20
75.0938368538
  0
VERTEX
  8
0
 62
7
  6
CONTINUOUS
 10
94.5973120016
 20
75.1580675695
  0
VERTEX
  8
0
 62
7
  6
CONTINUOUS
 10
94.6014114558
 20
75.2212837149
  0
VERTEX
  8
0
 62
7
  6
CONTINUOUS
 10
94.6068638032
 20
75.2834624732
  0
VERTEX
  8
0
 62
7
  6
CONTINUOUS
 10
94.6137646138
 20
75.3444785059
  0
VERTEX
  8
0
 62
7
  6
CONTINUOUS
 10
94.6222118409
 20
75.4040793044
  0
VERTEX
  8
0
 62
7
  6
CONTINUOUS
 10
94.6323342579
 20
75.4623999156
  0
VERTEX
  8
0
 62
7
  6
CONTINUOUS
 10
94.6442463999
 20
75.5194698423
  0
VERTEX
  8
0
 62
7
  6
CONTINUOUS
 10
94.6582007465
 20
75.5752891453
  0
VERTEX
  8
0
 62
7
  6
CONTINUOUS
 10
94.6743022662
 20
75.629027722
  0
VERTEX
  8
0
 62
7
  6
CONTINUOUS
 10
94.6929895033
 20
75.6799751039
  0
VERTEX
  8
0
 62
7
  6
CONTINUOUS
 10
94.7149756178
 20
75.7288615084
  0
VERTEX
  8
0
 62
7
  6
CONTINUOUS
 10
94.7402764366
 20
75.7748796873
  0
VERTEX
  8
0
 62
7
  6
CONTINUOUS
 10
94.7689639439
 20
75.8173535056
  0
VERTEX
  8
0
 62
7
  6
CONTINUOUS
 10
94.8009999384
 20
75.8555015832
  0
VERTEX
  8
0
 62
7
  6
CONTINUOUS
 10
94.8364490591
 20
75.8885759096
  0
VERTEX
  8
0
 62
7
  6
CONTINUOUS
 10
94.8748859812
 20
75.9153368642
  0
VERTEX
  8
0
 62
7
  6
CONTINUOUS
 10
94.9156895294
 20
75.9344190798
  0
VERTEX
  8
0
 62
7
  6
CONTINUOUS
 10
94.957002152
 20
75.9441185844
  0
VERTEX
  8
0
 62
7
  6
CONTINUOUS
 10
94.9746917241
 20
75.9451671997
  0
SEQEND
  0
LINE
  8
0
 62
7
  6
CONTINUOUS
 10
94.5987043456
 20
74.3305036224
 11
94.596262291
 21
74.6135177914
  0
LINE
  8
0
 62
7
  6
CONTINUOUS
 10
94.5987043456
 20
74.3305036224
 11
94.5992607225
 21
68.7824026818
  0
LINE
  8
0
 62
7
  6
CONTINUOUS
 10
94.7696563443
 20
125.2665943384
 11
94.7695970391
 21
125.2655743986
  0
LINE
  8
0
 62
7
  6
CONTINUOUS
 10
95.8418011011
 20
129.5584082747
 11
95.8258963166
 21
129.4536809327
  0
POLYLINE
  8
0
 62
7
  6
CONTINUOUS
 66
1
 70
0
  0
VERTEX
  8
0
 62
7
  6
CONTINUOUS
 10
94.7725486029
 20
119.4384025248
  0
VERTEX
  8
0
 62
7
  6
CONTINUOUS
 10
94.7763955959
 20
119.1567848362
  0
VERTEX
  8
0
 62
7
  6
CONTINUOUS
 10
94.7767493686
 20
119.0895038493
  0
VERTEX
  8
0
 62
7
  6
CONTINUOUS
 10
94.7761513037
 20
119.0231436124
  0
VERTEX
  8
0
 62
7
  6
CONTINUOUS
 10
94.774513703
 20
118.957754858
  0
VERTEX
  8
0
 62
7
  6
CONTINUOUS
 10
94.7717326047
 20
118.893386113
  0
VERTEX
  8
0
 62
7
  6
CONTINUOUS
 10
94.7676991286
 20
118.8300389746
  0
VERTEX
  8
0
 62
7
  6
CONTINUOUS
 10
94.7623150278
 20
118.7677344777
  0
VERTEX
  8
0
 62
7
  6
CONTINUOUS
 10
94.7554842492
 20
118.7065873896
  0
VERTEX
  8
0
 62
7
  6
CONTINUOUS
 10
94.7471159349
 20
118.6468753385
  0
VERTEX
  8
0
 62
7
  6
CONTINUOUS
 10
94.7370712025
 20
118.5884583206
  0
VERTEX
  8
0
 62
7
  6
CONTINUOUS
 10
94.7252327169
 20
118.5312122377
  0
VERTEX
  8
0
 62
7
  6
CONTINUOUS
 10
94.7113914998
 20
118.4753604269
  0
VERTEX
  8
0
 62
7
  6
CONTINUOUS
 10
94.6953551421
 20
118.4213755211
  0
VERTEX
  8
0
 62
7
  6
CONTINUOUS
 10
94.676783346
 20
118.3702408446
  0
VERTEX
  8
0
 62
7
  6
CONTINUOUS
 10
94.6549354162
 20
118.3212219897
  0
VERTEX
  8
0
 62
7
  6
CONTINUOUS
 10
94.629758414
 20
118.2750185657
  0
VERTEX
  8
0
 62
7
  6
CONTINUOUS
 10
94.6011943266
 20
118.2323411486
  0
VERTEX
  8
0
 62
7
  6
CONTINUOUS
 10
94.5692752292
 20
118.1939618912
  0
VERTEX
  8
0
 62
7
  6
CONTINUOUS
 10
94.5339491611
 20
118.1606381782
  0
VERTEX
  8
0
 62
7
  6
CONTINUOUS
 10
94.4956235763
 20
118.1335872674
  0
VERTEX
  8
0
 62
7
  6
CONTINUOUS
 10
94.4548913644
 20
118.1141508162
  0
VERTEX
  8
0
 62
7
  6
CONTINUOUS
 10
94.4135830232
 20
118.1040395316
  0
VERTEX
  8
0
 62
7
  6
CONTINUOUS
 10
94.3939922609
 20
118.1027848289
  0
SEQEND
  0
LINE
  8
0
 62
7
  6
CONTINUOUS
 10
94.7701326285
 20
119.7214242615
 11
94.7725486029
 21
119.4384025248
  0
LINE
  8
0
 62
7
  6
CONTINUOUS
 10
94.7695970362
 20
125.2655123871
 11
94.7701326285
 21
119.7214242615
  0
LINE
  8
0
 62
7
  6
CONTINUOUS
 10
94.5992607224
 20
68.7823705688
 11
94.5992013964
 21
68.7813625317
  0
LINE
  8
0
 62
7
  6
CONTINUOUS
 10
93.5270567931
 20
64.4895451814
 11
93.5429591675
 21
64.5942707264
  0
LINE
  8
0
 62
7
  6
CONTINUOUS
 10
104.0492319791
 20
64.98845832
 11
104.2299586623
 21
64.5852116874
  0
POLYLINE
  8
0
 62
7
  6
CONTINUOUS
 66
1
 70
0
  0
VERTEX
  8
0
 62
7
  6
CONTINUOUS
 10
104.2417999732
 20
64.4895515466
  0
VERTEX
  8
0
 62
7
  6
CONTINUOUS
 10
104.2676059085
 20
64.3326734082
  0
VERTEX
  8
0
 62
7
  6
CONTINUOUS
 10
104.2965988259
 20
64.1759484631
  0
VERTEX
  8
0
 62
7
  6
CONTINUOUS
 10
104.3255543565
 20
64.0384222538
  0
VERTEX
  8
0
 62
7
  6
CONTINUOUS
 10
104.3548153068
 20
63.9171253103
  0
VERTEX
  8
0
 62
7
  6
CONTINUOUS
 10
104.3849378969
 20
63.8091332807
  0
VERTEX
  8
0
 62
7
  6
CONTINUOUS
 10
104.4168515281
 20
63.7113923775
  0
VERTEX
  8
0
 62
7
  6
CONTINUOUS
 10
104.4521494202
 20
63.6205555109
  0
VERTEX
  8
0
 62
7
  6
CONTINUOUS
 10
104.4933748913
 20
63.5333489231
  0
VERTEX
  8
0
 62
7
  6
CONTINUOUS
 10
104.5442309139
 20
63.4473345973
  0
VERTEX
  8
0
 62
7
  6
CONTINUOUS
 10
104.6098023718
 20
63.3616111761
  0
VERTEX
  8
0
 62
7
  6
CONTINUOUS
 10
104.6949690631
 20
63.2791201392
  0
VERTEX
  8
0
 62
7
  6
CONTINUOUS
 10
104.8014253152
 20
63.2071631421
  0
VERTEX
  8
0
 62
7
  6
CONTINUOUS
 10
104.9264367492
 20
63.1542730452
  0
VERTEX
  8
0
 62
7
  6
CONTINUOUS
 10
105.0631760053
 20
63.1270304041
  0
VERTEX
  8
0
 62
7
  6
CONTINUOUS
 10
105.1282404873
 20
63.1239763803
  0
SEQEND
  0
LINE
  8
0
 62
7
  6
CONTINUOUS
 10
104.2258985912
 20
64.5942707261
 11
104.2418009655
 21
64.4895451814
  0
POLYLINE
  8
0
 62
7
  6
CONTINUOUS
 66
1
 70
0
  0
VERTEX
  8
0
 62
7
  6
CONTINUOUS
 10
103.1696563114
 20
68.7813524103
  0
VERTEX
  8
0
 62
7
  6
CONTINUOUS
 10
103.2410335665
 20
68.2330610279
  0
VERTEX
  8
0
 62
7
  6
CONTINUOUS
 10
103.3356830278
 20
67.6330796125
  0
VERTEX
  8
0
 62
7
  6
CONTINUOUS
 10
103.4462936327
 20
67.050292648
  0
VERTEX
  8
0
 62
7
  6
CONTINUOUS
 10
103.5729075189
 20
66.4897069817
  0
VERTEX
  8
0
 62
7
  6
CONTINUOUS
 10
103.7155402732
 20
65.9561593034
  0
VERTEX
  8
0
 62
7
  6
CONTINUOUS
 10
103.8742381975
 20
65.4543089253
  0
VERTEX
  8
0
 62
7
  6
CONTINUOUS
 10
104.0492319791
 20
64.98845832
  0
SEQEND
  0
LINE
  8
0
 62
7
  6
CONTINUOUS
 10
103.169656341
 20
68.781358276
 11
103.1695970391
 21
68.7823781876
  0
LINE
  8
0
 62
7
  6
CONTINUOUS
 10
102.9992014143
 20
125.2665943384
 11
102.9992607195
 21
125.2655743986
  0
POLYLINE
  8
0
 62
7
  6
CONTINUOUS
 66
1
 70
0
  0
VERTEX
  8
0
 62
7
  6
CONTINUOUS
 10
102.9924154995
 20
119.1527250558
  0
VERTEX
  8
0
 62
7
  6
CONTINUOUS
 10
102.996262694
 20
119.4344386383
  0
VERTEX
  8
0
 62
7
  6
CONTINUOUS
 10
102.9987044378
 20
119.7174508398
  0
VERTEX
  8
0
 62
7
  6
CONTINUOUS
 10
102.9992607225
 20
125.2655123871
  0
SEQEND
  0
POLYLINE
  8
0
 62
7
  6
CONTINUOUS
 66
1
 70
0
  0
VERTEX
  8
0
 62
7
  6
CONTINUOUS
 10
103.1763945692
 20
74.8910800915
  0
VERTEX
  8
0
 62
7
  6
CONTINUOUS
 10
103.1725486032
 20
74.6095500108
  0
VERTEX
  8
0
 62
7
  6
CONTINUOUS
 10
103.1701326287
 20
74.3265283503
  0
VERTEX
  8
0
 62
7
  6
CONTINUOUS
 10
103.1695970362
 20
68.7824401991
  0
SEQEND
  0
POLYLINE
  8
0
 62
7
  6
CONTINUOUS
 66
1
 70
0
  0
VERTEX
  8
0
 62
7
  6
CONTINUOUS
 10
112.6299597055
 20
129.4627430249
  0
VERTEX
  8
0
 62
7
  6
CONTINUOUS
 10
112.4501764303
 20
129.0617938031
  0
VERTEX
  8
0
 62
7
  6
CONTINUOUS
 10
112.2751118921
 20
128.5961807623
  0
VERTEX
  8
0
 62
7
  6
CONTINUOUS
 10
112.1163434902
 20
128.0945562819
  0
VERTEX
  8
0
 62
7
  6
CONTINUOUS
 10
111.9736387444
 20
127.5612200797
  0
VERTEX
  8
0
 62
7
  6
CONTINUOUS
 10
111.8469505108
 20
127.0008290579
  0
VERTEX
  8
0
 62
7
  6
CONTINUOUS
 10
111.7362629798
 20
126.4182182524
  0
VERTEX
  8
0
 62
7
  6
CONTINUOUS
 10
111.6415341285
 20
125.8183933255
  0
VERTEX
  8
0
 62
7
  6
CONTINUOUS
 10
111.5696563148
 20
125.2666002041
  0
SEQEND
  0
POLYLINE
  8
0
 62
7
  6
CONTINUOUS
 66
1
 70
0
  0
VERTEX
  8
0
 62
7
  6
CONTINUOUS
 10
111.5725486029
 20
119.4384025248
  0
VERTEX
  8
0
 62
7
  6
CONTINUOUS
 10
111.5763955959
 20
119.1567848362
  0
VERTEX
  8
0
 62
7
  6
CONTINUOUS
 10
111.5767493686
 20
119.0895038493
  0
VERTEX
  8
0
 62
7
  6
CONTINUOUS
 10
111.5761513037
 20
119.0231436124
  0
VERTEX
  8
0
 62
7
  6
CONTINUOUS
 10
111.574513703
 20
118.957754858
  0
VERTEX
  8
0
 62
7
  6
CONTINUOUS
 10
111.5717326047
 20
118.893386113
  0
VERTEX
  8
0
 62
7
  6
CONTINUOUS
 10
111.5676991286
 20
118.8300389746
  0
VERTEX
  8
0
 62
7
  6
CONTINUOUS
 10
111.5623150278
 20
118.7677344777
  0
VERTEX
  8
0
 62
7
  6
CONTINUOUS
 10
111.5554842492
 20
118.7065873896
  0
VERTEX
  8
0
 62
7
  6
CONTINUOUS
 10
111.5471159349
 20
118.6468753385
  0
VERTEX
  8
0
 62
7
  6
CONTINUOUS
 10
111.5370712025
 20
118.5884583206
  0
VERTEX
  8
0
 62
7
  6
CONTINUOUS
 10
111.5252327169
 20
118.5312122377
  0
VERTEX
  8
0
 62
7
  6
CONTINUOUS
 10
111.5113914998
 20
118.4753604269
  0
VERTEX
  8
0
 62
7
  6
CONTINUOUS
 10
111.4953551421
 20
118.4213755211
  0
VERTEX
  8
0
 62
7
  6
CONTINUOUS
 10
111.476783346
 20
118.3702408446
  0
VERTEX
  8
0
 62
7
  6
CONTINUOUS
 10
111.4549354162
 20
118.3212219897
  0
VERTEX
  8
0
 62
7
  6
CONTINUOUS
 10
111.429758414
 20
118.2750185657
  0
VERTEX
  8
0
 62
7
  6
CONTINUOUS
 10
111.4011943266
 20
118.2323411486
  0
VERTEX
  8
0
 62
7
  6
CONTINUOUS
 10
111.3692752292
 20
118.1939618912
  0
VERTEX
  8
0
 62
7
  6
CONTINUOUS
 10
111.3339491611
 20
118.1606381782
  0
VERTEX
  8
0
 62
7
  6
CONTINUOUS
 10
111.2956235763
 20
118.1335872674
  0
VERTEX
  8
0
 62
7
  6
CONTINUOUS
 10
111.2548913644
 20
118.1141508162
  0
VERTEX
  8
0
 62
7
  6
CONTINUOUS
 10
111.2135830232
 20
118.1040395316
  0
VERTEX
  8
0
 62
7
  6
CONTINUOUS
 10
111.1939922609
 20
118.1027848289
  0
SEQEND
  0
POLYLINE
  8
0
 62
7
  6
CONTINUOUS
 66
1
 70
0
  0
VERTEX
  8
0
 62
7
  6
CONTINUOUS
 10
111.396262291
 20
74.6135177914
  0
VERTEX
  8
0
 62
7
  6
CONTINUOUS
 10
111.3924147224
 20
74.8952418557
  0
VERTEX
  8
0
 62
7
  6
CONTINUOUS
 10
111.392115781
 20
74.9623760048
  0
VERTEX
  8
0
 62
7
  6
CONTINUOUS
 10
111.3927706486
 20
75.0285915383
  0
VERTEX
  8
0
 62
7
  6
CONTINUOUS
 10
111.3944677887
 20
75.0938368538
  0
VERTEX
  8
0
 62
7
  6
CONTINUOUS
 10
111.3973120016
 20
75.1580675695
  0
VERTEX
  8
0
 62
7
  6
CONTINUOUS
 10
111.4014114558
 20
75.2212837149
  0
VERTEX
  8
0
 62
7
  6
CONTINUOUS
 10
111.4068638032
 20
75.2834624732
  0
VERTEX
  8
0
 62
7
  6
CONTINUOUS
 10
111.4137646138
 20
75.3444785059
  0
VERTEX
  8
0
 62
7
  6
CONTINUOUS
 10
111.4222118409
 20
75.4040793044
  0
VERTEX
  8
0
 62
7
  6
CONTINUOUS
 10
111.4323342579
 20
75.4623999156
  0
VERTEX
  8
0
 62
7
  6
CONTINUOUS
 10
111.4442463999
 20
75.5194698423
  0
VERTEX
  8
0
 62
7
  6
CONTINUOUS
 10
111.4582007465
 20
75.5752891453
  0
VERTEX
  8
0
 62
7
  6
CONTINUOUS
 10
111.4743022662
 20
75.629027722
  0
VERTEX
  8
0
 62
7
  6
CONTINUOUS
 10
111.4929895033
 20
75.6799751039
  0
VERTEX
  8
0
 62
7
  6
CONTINUOUS
 10
111.5149756178
 20
75.7288615084
  0
VERTEX
  8
0
 62
7
  6
CONTINUOUS
 10
111.5402764366
 20
75.7748796873
  0
VERTEX
  8
0
 62
7
  6
CONTINUOUS
 10
111.5689639439
 20
75.8173535056
  0
VERTEX
  8
0
 62
7
  6
CONTINUOUS
 10
111.6009999384
 20
75.8555015832
  0
VERTEX
  8
0
 62
7
  6
CONTINUOUS
 10
111.6364490591
 20
75.8885759096
  0
VERTEX
  8
0
 62
7
  6
CONTINUOUS
 10
111.6748859812
 20
75.9153368642
  0
VERTEX
  8
0
 62
7
  6
CONTINUOUS
 10
111.7156895294
 20
75.9344190798
  0
VERTEX
  8
0
 62
7
  6
CONTINUOUS
 10
111.757002152
 20
75.9441185844
  0
VERTEX
  8
0
 62
7
  6
CONTINUOUS
 10
111.7746917241
 20
75.9451671997
  0
SEQEND
  0
LINE
  8
0
 62
7
  6
CONTINUOUS
 10
111.3987043456
 20
74.3305036224
 11
111.396262291
 21
74.6135177914
  0
LINE
  8
0
 62
7
  6
CONTINUOUS
 10
111.5701326285
 20
119.7214242615
 11
111.5725486029
 21
119.4384025248
  0
LINE
  8
0
 62
7
  6
CONTINUOUS
 10
111.3987043456
 20
74.3305036224
 11
111.3992607225
 21
68.7824026818
  0
LINE
  8
0
 62
7
  6
CONTINUOUS
 10
111.5695970362
 20
125.2655123871
 11
111.5701326285
 21
119.7214242615
  0
LINE
  8
0
 62
7
  6
CONTINUOUS
 10
111.5696563443
 20
125.2665943384
 11
111.5695970391
 21
125.2655743986
  0
LINE
  8
0
 62
7
  6
CONTINUOUS
 10
111.3992607224
 20
68.7823705688
 11
111.3992013964
 21
68.7813625317
  0
LINE
  8
0
 62
7
  6
CONTINUOUS
 10
112.6418011011
 20
129.5584082747
 11
112.6258963166
 21
129.4536809327
  0
POLYLINE
  8
0
 62
7
  6
CONTINUOUS
 66
1
 70
0
  0
VERTEX
  8
0
 62
7
  6
CONTINUOUS
 10
93.5388990963
 20
64.5852116874
  0
VERTEX
  8
0
 62
7
  6
CONTINUOUS
 10
93.7196258234
 20
64.9884584269
  0
VERTEX
  8
0
 62
7
  6
CONTINUOUS
 10
93.8946196413
 20
65.4543091581
  0
VERTEX
  8
0
 62
7
  6
CONTINUOUS
 10
94.0533175943
 20
65.9561596782
  0
VERTEX
  8
0
 62
7
  6
CONTINUOUS
 10
94.19595037
 20
66.4897075116
  0
VERTEX
  8
0
 62
7
  6
CONTINUOUS
 10
94.3225642698
 20
67.0502933425
  0
VERTEX
  8
0
 62
7
  6
CONTINUOUS
 10
94.4331748807
 20
67.6330804774
  0
VERTEX
  8
0
 62
7
  6
CONTINUOUS
 10
94.5278243404
 20
68.2330620658
  0
VERTEX
  8
0
 62
7
  6
CONTINUOUS
 10
94.5992014472
 20
68.7813524103
  0
SEQEND
  0
LINE
  8
0
 62
7
  6
CONTINUOUS
 10
120.8492319791
 20
64.98845832
 11
121.0299586623
 21
64.5852116874
  0
POLYLINE
  8
0
 62
7
  6
CONTINUOUS
 66
1
 70
0
  0
VERTEX
  8
0
 62
7
  6
CONTINUOUS
 10
101.9270576907
 20
129.5584016475
  0
VERTEX
  8
0
 62
7
  6
CONTINUOUS
 10
101.901011456
 20
129.7166614197
  0
VERTEX
  8
0
 62
7
  6
CONTINUOUS
 10
101.8720627466
 20
129.8729979778
  0
VERTEX
  8
0
 62
7
  6
CONTINUOUS
 10
101.843154088
 20
130.0101930627
  0
VERTEX
  8
0
 62
7
  6
CONTINUOUS
 10
101.8139436613
 20
130.1312084913
  0
VERTEX
  8
0
 62
7
  6
CONTINUOUS
 10
101.7838775674
 20
130.2389597262
  0
VERTEX
  8
0
 62
7
  6
CONTINUOUS
 10
101.752031325
 20
130.3364895165
  0
VERTEX
  8
0
 62
7
  6
CONTINUOUS
 10
101.7168229181
 20
130.4271283019
  0
VERTEX
  8
0
 62
7
  6
CONTINUOUS
 10
101.6757374715
 20
130.5141184393
  0
VERTEX
  8
0
 62
7
  6
CONTINUOUS
 10
101.6251128103
 20
130.5998880556
  0
VERTEX
  8
0
 62
7
  6
CONTINUOUS
 10
101.5599140607
 20
130.6853628343
  0
VERTEX
  8
0
 62
7
  6
CONTINUOUS
 10
101.4752833867
 20
130.7676852787
  0
VERTEX
  8
0
 62
7
  6
CONTINUOUS
 10
101.3694623648
 20
130.8396743442
  0
VERTEX
  8
0
 62
7
  6
CONTINUOUS
 10
101.245123877
 20
130.8928382748
  0
VERTEX
  8
0
 62
7
  6
CONTINUOUS
 10
101.109062726
 20
130.9205943511
  0
VERTEX
  8
0
 62
7
  6
CONTINUOUS
 10
101.0406161443
 20
130.9239762047
  0
SEQEND
  0
LINE
  8
0
 62
7
  6
CONTINUOUS
 10
101.942961442
 20
129.4536809327
 11
101.9270566575
 21
129.5584082747
  0
POLYLINE
  8
0
 62
7
  6
CONTINUOUS
 66
1
 70
0
  0
VERTEX
  8
0
 62
7
  6
CONTINUOUS
 10
102.9992014439
 20
125.2666002041
  0
VERTEX
  8
0
 62
7
  6
CONTINUOUS
 10
102.9273236301
 20
125.8183933255
  0
VERTEX
  8
0
 62
7
  6
CONTINUOUS
 10
102.8325947788
 20
126.4182182524
  0
VERTEX
  8
0
 62
7
  6
CONTINUOUS
 10
102.7219072478
 20
127.0008290579
  0
VERTEX
  8
0
 62
7
  6
CONTINUOUS
 10
102.5952190142
 20
127.5612200797
  0
VERTEX
  8
0
 62
7
  6
CONTINUOUS
 10
102.4525142684
 20
128.0945562818
  0
VERTEX
  8
0
 62
7
  6
CONTINUOUS
 10
102.2937458665
 20
128.5961807623
  0
VERTEX
  8
0
 62
7
  6
CONTINUOUS
 10
102.1186813284
 20
129.0617938031
  0
SEQEND
  0
LINE
  8
0
 62
7
  6
CONTINUOUS
 10
119.969656341
 20
68.781358276
 11
119.9695970391
 21
68.7823781876
  0
LINE
  8
0
 62
7
  6
CONTINUOUS
 10
110.3270567931
 20
64.4895451814
 11
110.3429591675
 21
64.5942707264
  0
POLYLINE
  8
0
 62
7
  6
CONTINUOUS
 66
1
 70
0
  0
VERTEX
  8
0
 62
7
  6
CONTINUOUS
 10
129.4299597055
 20
129.4627430249
  0
VERTEX
  8
0
 62
7
  6
CONTINUOUS
 10
129.2501764303
 20
129.0617938031
  0
VERTEX
  8
0
 62
7
  6
CONTINUOUS
 10
129.0751118921
 20
128.5961807623
  0
VERTEX
  8
0
 62
7
  6
CONTINUOUS
 10
128.9163434902
 20
128.0945562819
  0
VERTEX
  8
0
 62
7
  6
CONTINUOUS
 10
128.7736387444
 20
127.5612200797
  0
VERTEX
  8
0
 62
7
  6
CONTINUOUS
 10
128.6469505108
 20
127.0008290579
  0
VERTEX
  8
0
 62
7
  6
CONTINUOUS
 10
128.5362629798
 20
126.4182182524
  0
VERTEX
  8
0
 62
7
  6
CONTINUOUS
 10
128.4415341285
 20
125.8183933255
  0
VERTEX
  8
0
 62
7
  6
CONTINUOUS
 10
128.3696563148
 20
125.2666002041
  0
SEQEND
  0
POLYLINE
  8
0
 62
7
  6
CONTINUOUS
 66
1
 70
0
  0
VERTEX
  8
0
 62
7
  6
CONTINUOUS
 10
121.0417999732
 20
64.4895515466
  0
VERTEX
  8
0
 62
7
  6
CONTINUOUS
 10
121.0676059085
 20
64.3326734082
  0
VERTEX
  8
0
 62
7
  6
CONTINUOUS
 10
121.0965988259
 20
64.1759484631
  0
VERTEX
  8
0
 62
7
  6
CONTINUOUS
 10
121.1255543565
 20
64.0384222538
  0
VERTEX
  8
0
 62
7
  6
CONTINUOUS
 10
121.1548153068
 20
63.9171253103
  0
VERTEX
  8
0
 62
7
  6
CONTINUOUS
 10
121.1849378969
 20
63.8091332807
  0
VERTEX
  8
0
 62
7
  6
CONTINUOUS
 10
121.2168515281
 20
63.7113923775
  0
VERTEX
  8
0
 62
7
  6
CONTINUOUS
 10
121.2521494202
 20
63.6205555109
  0
VERTEX
  8
0
 62
7
  6
CONTINUOUS
 10
121.2933748913
 20
63.5333489231
  0
VERTEX
  8
0
 62
7
  6
CONTINUOUS
 10
121.3442309139
 20
63.4473345973
  0
VERTEX
  8
0
 62
7
  6
CONTINUOUS
 10
121.4098023718
 20
63.3616111761
  0
VERTEX
  8
0
 62
7
  6
CONTINUOUS
 10
121.4949690631
 20
63.2791201392
  0
VERTEX
  8
0
 62
7
  6
CONTINUOUS
 10
121.6014253152
 20
63.2071631421
  0
VERTEX
  8
0
 62
7
  6
CONTINUOUS
 10
121.7264367492
 20
63.1542730452
  0
VERTEX
  8
0
 62
7
  6
CONTINUOUS
 10
121.8631760053
 20
63.1270304041
  0
VERTEX
  8
0
 62
7
  6
CONTINUOUS
 10
121.9282404873
 20
63.1239763803
  0
SEQEND
  0
LINE
  8
0
 62
7
  6
CONTINUOUS
 10
121.0258985912
 20
64.5942707261
 11
121.0418009655
 21
64.4895451814
  0
POLYLINE
  8
0
 62
7
  6
CONTINUOUS
 66
1
 70
0
  0
VERTEX
  8
0
 62
7
  6
CONTINUOUS
 10
119.9696563114
 20
68.7813524103
  0
VERTEX
  8
0
 62
7
  6
CONTINUOUS
 10
120.0410335665
 20
68.2330610279
  0
VERTEX
  8
0
 62
7
  6
CONTINUOUS
 10
120.1356830278
 20
67.6330796125
  0
VERTEX
  8
0
 62
7
  6
CONTINUOUS
 10
120.2462936327
 20
67.050292648
  0
VERTEX
  8
0
 62
7
  6
CONTINUOUS
 10
120.3729075189
 20
66.4897069817
  0
VERTEX
  8
0
 62
7
  6
CONTINUOUS
 10
120.5155402732
 20
65.9561593034
  0
VERTEX
  8
0
 62
7
  6
CONTINUOUS
 10
120.6742381975
 20
65.4543089253
  0
VERTEX
  8
0
 62
7
  6
CONTINUOUS
 10
120.8492319791
 20
64.98845832
  0
SEQEND
  0
LINE
  8
0
 62
7
  6
CONTINUOUS
 10
119.7992014143
 20
125.2665943384
 11
119.7992607195
 21
125.2655743986
  0
POLYLINE
  8
0
 62
7
  6
CONTINUOUS
 66
1
 70
0
  0
VERTEX
  8
0
 62
7
  6
CONTINUOUS
 10
119.7924154995
 20
119.1527250558
  0
VERTEX
  8
0
 62
7
  6
CONTINUOUS
 10
119.796262694
 20
119.4344386383
  0
VERTEX
  8
0
 62
7
  6
CONTINUOUS
 10
119.7987044378
 20
119.7174508398
  0
VERTEX
  8
0
 62
7
  6
CONTINUOUS
 10
119.7992607225
 20
125.2655123871
  0
SEQEND
  0
POLYLINE
  8
0
 62
7
  6
CONTINUOUS
 66
1
 70
0
  0
VERTEX
  8
0
 62
7
  6
CONTINUOUS
 10
119.9763945692
 20
74.8910800915
  0
VERTEX
  8
0
 62
7
  6
CONTINUOUS
 10
119.9725486032
 20
74.6095500108
  0
VERTEX
  8
0
 62
7
  6
CONTINUOUS
 10
119.9701326287
 20
74.3265283503
  0
VERTEX
  8
0
 62
7
  6
CONTINUOUS
 10
119.9695970362
 20
68.7824401991
  0
SEQEND
  0
LINE
  8
0
 62
7
  6
CONTINUOUS
 10
129.4418011011
 20
129.5584082747
 11
129.4258963166
 21
129.4536809327
  0
POLYLINE
  8
0
 62
7
  6
CONTINUOUS
 66
1
 70
0
  0
VERTEX
  8
0
 62
7
  6
CONTINUOUS
 10
94.5992013964
 20
68.7813625317
  0
VERTEX
  8
0
 62
7
  6
CONTINUOUS
 10
94.593389696
 20
68.7727656337
  0
VERTEX
  8
0
 62
7
  6
CONTINUOUS
 10
94.574302943
 20
68.7639723152
  0
VERTEX
  8
0
 62
7
  6
CONTINUOUS
 10
94.5431016959
 20
68.7572438725
  0
VERTEX
  8
0
 62
7
  6
CONTINUOUS
 10
94.5017831501
 20
68.7529241691
  0
VERTEX
  8
0
 62
7
  6
CONTINUOUS
 10
94.4530868039
 20
68.7511352825
  0
VERTEX
  8
0
 62
7
  6
CONTINUOUS
 10
94.3992607225
 20
68.7516949698
  0
SEQEND
  0
POLYLINE
  8
0
 62
7
  6
CONTINUOUS
 66
1
 70
0
  0
VERTEX
  8
0
 62
7
  6
CONTINUOUS
 10
227.0406158379
 20
63.1239763818
  0
VERTEX
  8
0
 62
7
  6
CONTINUOUS
 10
227.1091721816
 20
63.1273691308
  0
VERTEX
  8
0
 62
7
  6
CONTINUOUS
 10
227.2453334882
 20
63.1551800721
  0
VERTEX
  8
0
 62
7
  6
CONTINUOUS
 10
227.369741052
 20
63.2084320368
  0
VERTEX
  8
0
 62
7
  6
CONTINUOUS
 10
227.4755881421
 20
63.2805187745
  0
VERTEX
  8
0
 62
7
  6
CONTINUOUS
 10
227.5602087368
 20
63.3629263523
  0
VERTEX
  8
0
 62
7
  6
CONTINUOUS
 10
227.6253806992
 20
63.4484675861
  0
VERTEX
  8
0
 62
7
  6
CONTINUOUS
 10
227.6759814045
 20
63.5342996026
  0
VERTEX
  8
0
 62
7
  6
CONTINUOUS
 10
227.7170525822
 20
63.6213634936
  0
VERTEX
  8
0
 62
7
  6
CONTINUOUS
 10
227.7522559755
 20
63.7120963308
  0
VERTEX
  8
0
 62
7
  6
CONTINUOUS
 10
227.7841045901
 20
63.8097469496
  0
VERTEX
  8
0
 62
7
  6
CONTINUOUS
 10
227.8141779084
 20
63.9176483138
  0
VERTEX
  8
0
 62
7
  6
CONTINUOUS
 10
227.843398575
 20
64.0388449196
  0
VERTEX
  8
0
 62
7
  6
CONTINUOUS
 10
227.8723192224
 20
64.1762540583
  0
VERTEX
  8
0
 62
7
  6
CONTINUOUS
 10
227.9012807254
 20
64.3328395337
  0
VERTEX
  8
0
 62
7
  6
CONTINUOUS
 10
227.9270577801
 20
64.4895515121
  0
SEQEND
  0
LINE
  8
0
 62
7
  6
CONTINUOUS
 10
102.1186813284
 20
129.0617938031
 11
101.9388980532
 21
129.4627430249
  0
POLYLINE
  8
0
 62
7
  6
CONTINUOUS
 66
1
 70
0
  0
VERTEX
  8
0
 62
7
  6
CONTINUOUS
 10
118.7270576907
 20
129.5584016475
  0
VERTEX
  8
0
 62
7
  6
CONTINUOUS
 10
118.701011456
 20
129.7166614197
  0
VERTEX
  8
0
 62
7
  6
CONTINUOUS
 10
118.6720627466
 20
129.8729979778
  0
VERTEX
  8
0
 62
7
  6
CONTINUOUS
 10
118.643154088
 20
130.0101930627
  0
VERTEX
  8
0
 62
7
  6
CONTINUOUS
 10
118.6139436613
 20
130.1312084913
  0
VERTEX
  8
0
 62
7
  6
CONTINUOUS
 10
118.5838775674
 20
130.2389597262
  0
VERTEX
  8
0
 62
7
  6
CONTINUOUS
 10
118.552031325
 20
130.3364895165
  0
VERTEX
  8
0
 62
7
  6
CONTINUOUS
 10
118.5168229181
 20
130.4271283019
  0
VERTEX
  8
0
 62
7
  6
CONTINUOUS
 10
118.4757374715
 20
130.5141184393
  0
VERTEX
  8
0
 62
7
  6
CONTINUOUS
 10
118.4251128103
 20
130.5998880556
  0
VERTEX
  8
0
 62
7
  6
CONTINUOUS
 10
118.3599140607
 20
130.6853628343
  0
VERTEX
  8
0
 62
7
  6
CONTINUOUS
 10
118.2752833867
 20
130.7676852787
  0
VERTEX
  8
0
 62
7
  6
CONTINUOUS
 10
118.1694623648
 20
130.8396743442
  0
VERTEX
  8
0
 62
7
  6
CONTINUOUS
 10
118.045123877
 20
130.8928382748
  0
VERTEX
  8
0
 62
7
  6
CONTINUOUS
 10
117.9090627261
 20
130.9205943511
  0
VERTEX
  8
0
 62
7
  6
CONTINUOUS
 10
117.8406161443
 20
130.9239762047
  0
SEQEND
  0
LINE
  8
0
 62
7
  6
CONTINUOUS
 10
118.742961442
 20
129.4536809327
 11
118.7270566575
 21
129.5584082747
  0
POLYLINE
  8
0
 62
7
  6
CONTINUOUS
 66
1
 70
0
  0
VERTEX
  8
0
 62
7
  6
CONTINUOUS
 10
119.7992014439
 20
125.2666002041
  0
VERTEX
  8
0
 62
7
  6
CONTINUOUS
 10
119.7273236301
 20
125.8183933255
  0
VERTEX
  8
0
 62
7
  6
CONTINUOUS
 10
119.6325947788
 20
126.4182182524
  0
VERTEX
  8
0
 62
7
  6
CONTINUOUS
 10
119.5219072478
 20
127.0008290579
  0
VERTEX
  8
0
 62
7
  6
CONTINUOUS
 10
119.3952190142
 20
127.5612200797
  0
VERTEX
  8
0
 62
7
  6
CONTINUOUS
 10
119.2525142684
 20
128.0945562819
  0
VERTEX
  8
0
 62
7
  6
CONTINUOUS
 10
119.0937458665
 20
128.5961807623
  0
VERTEX
  8
0
 62
7
  6
CONTINUOUS
 10
118.9186813284
 20
129.0617938031
  0
SEQEND
  0
POLYLINE
  8
0
 62
7
  6
CONTINUOUS
 66
1
 70
0
  0
VERTEX
  8
0
 62
7
  6
CONTINUOUS
 10
128.3725486029
 20
119.4384025248
  0
VERTEX
  8
0
 62
7
  6
CONTINUOUS
 10
128.3763955959
 20
119.1567848362
  0
VERTEX
  8
0
 62
7
  6
CONTINUOUS
 10
128.3767493686
 20
119.0895038493
  0
VERTEX
  8
0
 62
7
  6
CONTINUOUS
 10
128.3761513037
 20
119.0231436124
  0
VERTEX
  8
0
 62
7
  6
CONTINUOUS
 10
128.374513703
 20
118.957754858
  0
VERTEX
  8
0
 62
7
  6
CONTINUOUS
 10
128.3717326047
 20
118.893386113
  0
VERTEX
  8
0
 62
7
  6
CONTINUOUS
 10
128.3676991286
 20
118.8300389746
  0
VERTEX
  8
0
 62
7
  6
CONTINUOUS
 10
128.3623150278
 20
118.7677344777
  0
VERTEX
  8
0
 62
7
  6
CONTINUOUS
 10
128.3554842492
 20
118.7065873896
  0
VERTEX
  8
0
 62
7
  6
CONTINUOUS
 10
128.3471159349
 20
118.6468753385
  0
VERTEX
  8
0
 62
7
  6
CONTINUOUS
 10
128.3370712025
 20
118.5884583206
  0
VERTEX
  8
0
 62
7
  6
CONTINUOUS
 10
128.3252327169
 20
118.5312122377
  0
VERTEX
  8
0
 62
7
  6
CONTINUOUS
 10
128.3113914998
 20
118.4753604269
  0
VERTEX
  8
0
 62
7
  6
CONTINUOUS
 10
128.2953551421
 20
118.4213755211
  0
VERTEX
  8
0
 62
7
  6
CONTINUOUS
 10
128.276783346
 20
118.3702408446
  0
VERTEX
  8
0
 62
7
  6
CONTINUOUS
 10
128.2549354162
 20
118.3212219897
  0
VERTEX
  8
0
 62
7
  6
CONTINUOUS
 10
128.229758414
 20
118.2750185657
  0
VERTEX
  8
0
 62
7
  6
CONTINUOUS
 10
128.2011943266
 20
118.2323411486
  0
VERTEX
  8
0
 62
7
  6
CONTINUOUS
 10
128.1692752292
 20
118.1939618912
  0
VERTEX
  8
0
 62
7
  6
CONTINUOUS
 10
128.1339491611
 20
118.1606381782
  0
VERTEX
  8
0
 62
7
  6
CONTINUOUS
 10
128.0956235763
 20
118.1335872674
  0
VERTEX
  8
0
 62
7
  6
CONTINUOUS
 10
128.0548913644
 20
118.1141508162
  0
VERTEX
  8
0
 62
7
  6
CONTINUOUS
 10
128.0135830232
 20
118.1040395316
  0
VERTEX
  8
0
 62
7
  6
CONTINUOUS
 10
127.9939922609
 20
118.1027848289
  0
SEQEND
  0
POLYLINE
  8
0
 62
7
  6
CONTINUOUS
 66
1
 70
0
  0
VERTEX
  8
0
 62
7
  6
CONTINUOUS
 10
128.196262291
 20
74.6135177914
  0
VERTEX
  8
0
 62
7
  6
CONTINUOUS
 10
128.1924147224
 20
74.8952418557
  0
VERTEX
  8
0
 62
7
  6
CONTINUOUS
 10
128.192115781
 20
74.9623760048
  0
VERTEX
  8
0
 62
7
  6
CONTINUOUS
 10
128.1927706486
 20
75.0285915383
  0
VERTEX
  8
0
 62
7
  6
CONTINUOUS
 10
128.1944677887
 20
75.0938368538
  0
VERTEX
  8
0
 62
7
  6
CONTINUOUS
 10
128.1973120016
 20
75.1580675695
  0
VERTEX
  8
0
 62
7
  6
CONTINUOUS
 10
128.2014114558
 20
75.2212837149
  0
VERTEX
  8
0
 62
7
  6
CONTINUOUS
 10
128.2068638032
 20
75.2834624732
  0
VERTEX
  8
0
 62
7
  6
CONTINUOUS
 10
128.2137646138
 20
75.3444785059
  0
VERTEX
  8
0
 62
7
  6
CONTINUOUS
 10
128.2222118409
 20
75.4040793044
  0
VERTEX
  8
0
 62
7
  6
CONTINUOUS
 10
128.2323342579
 20
75.4623999156
  0
VERTEX
  8
0
 62
7
  6
CONTINUOUS
 10
128.2442463999
 20
75.5194698423
  0
VERTEX
  8
0
 62
7
  6
CONTINUOUS
 10
128.2582007465
 20
75.5752891453
  0
VERTEX
  8
0
 62
7
  6
CONTINUOUS
 10
128.2743022662
 20
75.629027722
  0
VERTEX
  8
0
 62
7
  6
CONTINUOUS
 10
128.2929895033
 20
75.6799751039
  0
VERTEX
  8
0
 62
7
  6
CONTINUOUS
 10
128.3149756178
 20
75.7288615084
  0
VERTEX
  8
0
 62
7
  6
CONTINUOUS
 10
128.3402764366
 20
75.7748796873
  0
VERTEX
  8
0
 62
7
  6
CONTINUOUS
 10
128.3689639439
 20
75.8173535056
  0
VERTEX
  8
0
 62
7
  6
CONTINUOUS
 10
128.4009999384
 20
75.8555015832
  0
VERTEX
  8
0
 62
7
  6
CONTINUOUS
 10
128.4364490591
 20
75.8885759096
  0
VERTEX
  8
0
 62
7
  6
CONTINUOUS
 10
128.4748859812
 20
75.9153368642
  0
VERTEX
  8
0
 62
7
  6
CONTINUOUS
 10
128.5156895294
 20
75.9344190798
  0
VERTEX
  8
0
 62
7
  6
CONTINUOUS
 10
128.557002152
 20
75.9441185844
  0
VERTEX
  8
0
 62
7
  6
CONTINUOUS
 10
128.5746917241
 20
75.9451671997
  0
SEQEND
  0
LINE
  8
0
 62
7
  6
CONTINUOUS
 10
128.1987043456
 20
74.3305036224
 11
128.196262291
 21
74.6135177914
  0
LINE
  8
0
 62
7
  6
CONTINUOUS
 10
128.3701326285
 20
119.7214242615
 11
128.3725486029
 21
119.4384025248
  0
LINE
  8
0
 62
7
  6
CONTINUOUS
 10
128.1987043456
 20
74.3305036224
 11
128.1992607225
 21
68.7824026818
  0
LINE
  8
0
 62
7
  6
CONTINUOUS
 10
128.3695970362
 20
125.2655123871
 11
128.3701326285
 21
119.7214242615
  0
LINE
  8
0
 62
7
  6
CONTINUOUS
 10
128.3696563443
 20
125.2665943384
 11
128.3695970391
 21
125.2655743986
  0
LINE
  8
0
 62
7
  6
CONTINUOUS
 10
128.1992607224
 20
68.7823705688
 11
128.1992013964
 21
68.7813625317
  0
POLYLINE
  8
0
 62
7
  6
CONTINUOUS
 66
1
 70
0
  0
VERTEX
  8
0
 62
7
  6
CONTINUOUS
 10
110.3388990963
 20
64.5852116874
  0
VERTEX
  8
0
 62
7
  6
CONTINUOUS
 10
110.5196258234
 20
64.9884584269
  0
VERTEX
  8
0
 62
7
  6
CONTINUOUS
 10
110.6946196413
 20
65.4543091581
  0
VERTEX
  8
0
 62
7
  6
CONTINUOUS
 10
110.8533175943
 20
65.9561596782
  0
VERTEX
  8
0
 62
7
  6
CONTINUOUS
 10
110.99595037
 20
66.4897075116
  0
VERTEX
  8
0
 62
7
  6
CONTINUOUS
 10
111.1225642698
 20
67.0502933425
  0
VERTEX
  8
0
 62
7
  6
CONTINUOUS
 10
111.2331748807
 20
67.6330804774
  0
VERTEX
  8
0
 62
7
  6
CONTINUOUS
 10
111.3278243404
 20
68.2330620658
  0
VERTEX
  8
0
 62
7
  6
CONTINUOUS
 10
111.3992014472
 20
68.7813524103
  0
SEQEND
  0
POLYLINE
  8
0
 62
7
  6
CONTINUOUS
 66
1
 70
0
  0
VERTEX
  8
0
 62
7
  6
CONTINUOUS
 10
92.6405919031
 20
63.1239764095
  0
VERTEX
  8
0
 62
7
  6
CONTINUOUS
 10
92.7109743754
 20
63.1275510801
  0
VERTEX
  8
0
 62
7
  6
CONTINUOUS
 10
92.8480331308
 20
63.1560337239
  0
VERTEX
  8
0
 62
7
  6
CONTINUOUS
 10
92.9718970104
 20
63.2096275713
  0
VERTEX
  8
0
 62
7
  6
CONTINUOUS
 10
93.0804768785
 20
63.2845921518
  0
VERTEX
  8
0
 62
7
  6
CONTINUOUS
 10
93.1711625252
 20
63.3757264733
  0
VERTEX
  8
0
 62
7
  6
CONTINUOUS
 10
93.2402543104
 20
63.4716291135
  0
VERTEX
  8
0
 62
7
  6
CONTINUOUS
 10
93.2928756691
 20
63.567943331
  0
VERTEX
  8
0
 62
7
  6
CONTINUOUS
 10
93.3357093544
 20
63.6673788914
  0
VERTEX
  8
0
 62
7
  6
CONTINUOUS
 10
93.3730308861
 20
63.7739637879
  0
VERTEX
  8
0
 62
7
  6
CONTINUOUS
 10
93.407182346
 20
63.8910880737
  0
VERTEX
  8
0
 62
7
  6
CONTINUOUS
 10
93.4394774992
 20
64.0215864322
  0
VERTEX
  8
0
 62
7
  6
CONTINUOUS
 10
93.4706236635
 20
64.1676909693
  0
VERTEX
  8
0
 62
7
  6
CONTINUOUS
 10
93.5009271196
 20
64.3308065778
  0
VERTEX
  8
0
 62
7
  6
CONTINUOUS
 10
93.5270586615
 20
64.4895571666
  0
SEQEND
  0
POLYLINE
  8
0
 62
7
  6
CONTINUOUS
 66
1
 70
0
  0
VERTEX
  8
0
 62
7
  6
CONTINUOUS
 10
176.641341609
 20
63.1239766437
  0
VERTEX
  8
0
 62
7
  6
CONTINUOUS
 10
176.7091716621
 20
63.1273690791
  0
VERTEX
  8
0
 62
7
  6
CONTINUOUS
 10
176.8453328258
 20
63.1551798642
  0
VERTEX
  8
0
 62
7
  6
CONTINUOUS
 10
176.9697404544
 20
63.2084317069
  0
VERTEX
  8
0
 62
7
  6
CONTINUOUS
 10
177.0755876372
 20
63.2805183576
  0
VERTEX
  8
0
 62
7
  6
CONTINUOUS
 10
177.1602082702
 20
63.362925819
  0
VERTEX
  8
0
 62
7
  6
CONTINUOUS
 10
177.2253802793
 20
63.4484669538
  0
VERTEX
  8
0
 62
7
  6
CONTINUOUS
 10
177.2759810326
 20
63.5342988926
  0
VERTEX
  8
0
 62
7
  6
CONTINUOUS
 10
177.3170522615
 20
63.6213627402
  0
VERTEX
  8
0
 62
7
  6
CONTINUOUS
 10
177.3522557076
 20
63.7120955752
  0
VERTEX
  8
0
 62
7
  6
CONTINUOUS
 10
177.3841043636
 20
63.8097461968
  0
VERTEX
  8
0
 62
7
  6
CONTINUOUS
 10
177.4141777197
 20
63.917647585
  0
VERTEX
  8
0
 62
7
  6
CONTINUOUS
 10
177.443398426
 20
64.0388442578
  0
VERTEX
  8
0
 62
7
  6
CONTINUOUS
 10
177.4723191176
 20
64.1762535272
  0
VERTEX
  8
0
 62
7
  6
CONTINUOUS
 10
177.5012806709
 20
64.33283922
  0
VERTEX
  8
0
 62
7
  6
CONTINUOUS
 10
177.5270577801
 20
64.4895515121
  0
SEQEND
  0
POLYLINE
  8
0
 62
7
  6
CONTINUOUS
 66
1
 70
0
  0
VERTEX
  8
0
 62
7
  6
CONTINUOUS
 10
143.041341609
 20
63.1239766437
  0
VERTEX
  8
0
 62
7
  6
CONTINUOUS
 10
143.1091716621
 20
63.1273690791
  0
VERTEX
  8
0
 62
7
  6
CONTINUOUS
 10
143.2453328258
 20
63.1551798642
  0
VERTEX
  8
0
 62
7
  6
CONTINUOUS
 10
143.3697404544
 20
63.2084317069
  0
VERTEX
  8
0
 62
7
  6
CONTINUOUS
 10
143.4755876372
 20
63.2805183576
  0
VERTEX
  8
0
 62
7
  6
CONTINUOUS
 10
143.5602082702
 20
63.362925819
  0
VERTEX
  8
0
 62
7
  6
CONTINUOUS
 10
143.6253802793
 20
63.4484669538
  0
VERTEX
  8
0
 62
7
  6
CONTINUOUS
 10
143.6759810326
 20
63.5342988926
  0
VERTEX
  8
0
 62
7
  6
CONTINUOUS
 10
143.7170522615
 20
63.6213627402
  0
VERTEX
  8
0
 62
7
  6
CONTINUOUS
 10
143.7522557076
 20
63.7120955752
  0
VERTEX
  8
0
 62
7
  6
CONTINUOUS
 10
143.7841043636
 20
63.8097461968
  0
VERTEX
  8
0
 62
7
  6
CONTINUOUS
 10
143.8141777197
 20
63.917647585
  0
VERTEX
  8
0
 62
7
  6
CONTINUOUS
 10
143.843398426
 20
64.0388442578
  0
VERTEX
  8
0
 62
7
  6
CONTINUOUS
 10
143.8723191176
 20
64.1762535272
  0
VERTEX
  8
0
 62
7
  6
CONTINUOUS
 10
143.9012806709
 20
64.33283922
  0
VERTEX
  8
0
 62
7
  6
CONTINUOUS
 10
143.9270577801
 20
64.4895515121
  0
SEQEND
  0
POLYLINE
  8
0
 62
7
  6
CONTINUOUS
 66
1
 70
0
  0
VERTEX
  8
0
 62
7
  6
CONTINUOUS
 10
210.2406158395
 20
63.1239763818
  0
VERTEX
  8
0
 62
7
  6
CONTINUOUS
 10
210.3091716621
 20
63.1273690791
  0
VERTEX
  8
0
 62
7
  6
CONTINUOUS
 10
210.4453328258
 20
63.1551798642
  0
VERTEX
  8
0
 62
7
  6
CONTINUOUS
 10
210.5697404544
 20
63.2084317069
  0
VERTEX
  8
0
 62
7
  6
CONTINUOUS
 10
210.6755876372
 20
63.2805183576
  0
VERTEX
  8
0
 62
7
  6
CONTINUOUS
 10
210.7602082702
 20
63.362925819
  0
VERTEX
  8
0
 62
7
  6
CONTINUOUS
 10
210.8253802793
 20
63.4484669538
  0
VERTEX
  8
0
 62
7
  6
CONTINUOUS
 10
210.8759810326
 20
63.5342988926
  0
VERTEX
  8
0
 62
7
  6
CONTINUOUS
 10
210.9170522615
 20
63.6213627402
  0
VERTEX
  8
0
 62
7
  6
CONTINUOUS
 10
210.9522557076
 20
63.7120955752
  0
VERTEX
  8
0
 62
7
  6
CONTINUOUS
 10
210.9841043636
 20
63.8097461968
  0
VERTEX
  8
0
 62
7
  6
CONTINUOUS
 10
211.0141777197
 20
63.917647585
  0
VERTEX
  8
0
 62
7
  6
CONTINUOUS
 10
211.043398426
 20
64.0388442578
  0
VERTEX
  8
0
 62
7
  6
CONTINUOUS
 10
211.0723191176
 20
64.1762535272
  0
VERTEX
  8
0
 62
7
  6
CONTINUOUS
 10
211.1012806709
 20
64.33283922
  0
VERTEX
  8
0
 62
7
  6
CONTINUOUS
 10
211.1270577801
 20
64.4895515121
  0
SEQEND
  0
POLYLINE
  8
0
 62
7
  6
CONTINUOUS
 66
1
 70
0
  0
VERTEX
  8
0
 62
7
  6
CONTINUOUS
 10
193.4406158395
 20
63.1239763818
  0
VERTEX
  8
0
 62
7
  6
CONTINUOUS
 10
193.5091716621
 20
63.1273690791
  0
VERTEX
  8
0
 62
7
  6
CONTINUOUS
 10
193.6453328258
 20
63.1551798642
  0
VERTEX
  8
0
 62
7
  6
CONTINUOUS
 10
193.7697404544
 20
63.2084317069
  0
VERTEX
  8
0
 62
7
  6
CONTINUOUS
 10
193.8755876372
 20
63.2805183576
  0
VERTEX
  8
0
 62
7
  6
CONTINUOUS
 10
193.9602082702
 20
63.362925819
  0
VERTEX
  8
0
 62
7
  6
CONTINUOUS
 10
194.0253802793
 20
63.4484669538
  0
VERTEX
  8
0
 62
7
  6
CONTINUOUS
 10
194.0759810326
 20
63.5342988926
  0
VERTEX
  8
0
 62
7
  6
CONTINUOUS
 10
194.1170522615
 20
63.6213627402
  0
VERTEX
  8
0
 62
7
  6
CONTINUOUS
 10
194.1522557076
 20
63.7120955752
  0
VERTEX
  8
0
 62
7
  6
CONTINUOUS
 10
194.1841043636
 20
63.8097461968
  0
VERTEX
  8
0
 62
7
  6
CONTINUOUS
 10
194.2141777197
 20
63.917647585
  0
VERTEX
  8
0
 62
7
  6
CONTINUOUS
 10
194.243398426
 20
64.0388442578
  0
VERTEX
  8
0
 62
7
  6
CONTINUOUS
 10
194.2723191176
 20
64.1762535272
  0
VERTEX
  8
0
 62
7
  6
CONTINUOUS
 10
194.3012806709
 20
64.33283922
  0
VERTEX
  8
0
 62
7
  6
CONTINUOUS
 10
194.3270577801
 20
64.4895515121
  0
SEQEND
  0
POLYLINE
  8
0
 62
7
  6
CONTINUOUS
 66
1
 70
0
  0
VERTEX
  8
0
 62
7
  6
CONTINUOUS
 10
159.8406158395
 20
63.1239763818
  0
VERTEX
  8
0
 62
7
  6
CONTINUOUS
 10
159.9091716621
 20
63.1273690791
  0
VERTEX
  8
0
 62
7
  6
CONTINUOUS
 10
160.0453328258
 20
63.1551798642
  0
VERTEX
  8
0
 62
7
  6
CONTINUOUS
 10
160.1697404544
 20
63.2084317069
  0
VERTEX
  8
0
 62
7
  6
CONTINUOUS
 10
160.2755876372
 20
63.2805183576
  0
VERTEX
  8
0
 62
7
  6
CONTINUOUS
 10
160.3602082702
 20
63.362925819
  0
VERTEX
  8
0
 62
7
  6
CONTINUOUS
 10
160.4253802793
 20
63.4484669538
  0
VERTEX
  8
0
 62
7
  6
CONTINUOUS
 10
160.4759810326
 20
63.5342988926
  0
VERTEX
  8
0
 62
7
  6
CONTINUOUS
 10
160.5170522615
 20
63.6213627402
  0
VERTEX
  8
0
 62
7
  6
CONTINUOUS
 10
160.5522557076
 20
63.7120955752
  0
VERTEX
  8
0
 62
7
  6
CONTINUOUS
 10
160.5841043636
 20
63.8097461968
  0
VERTEX
  8
0
 62
7
  6
CONTINUOUS
 10
160.6141777197
 20
63.917647585
  0
VERTEX
  8
0
 62
7
  6
CONTINUOUS
 10
160.643398426
 20
64.0388442578
  0
VERTEX
  8
0
 62
7
  6
CONTINUOUS
 10
160.6723191176
 20
64.1762535272
  0
VERTEX
  8
0
 62
7
  6
CONTINUOUS
 10
160.7012806709
 20
64.33283922
  0
VERTEX
  8
0
 62
7
  6
CONTINUOUS
 10
160.7270577801
 20
64.4895515121
  0
SEQEND
  0
POLYLINE
  8
0
 62
7
  6
CONTINUOUS
 66
1
 70
0
  0
VERTEX
  8
0
 62
7
  6
CONTINUOUS
 10
126.2406158395
 20
63.1239763818
  0
VERTEX
  8
0
 62
7
  6
CONTINUOUS
 10
126.3091716621
 20
63.1273690791
  0
VERTEX
  8
0
 62
7
  6
CONTINUOUS
 10
126.4453328258
 20
63.1551798642
  0
VERTEX
  8
0
 62
7
  6
CONTINUOUS
 10
126.5697404544
 20
63.2084317069
  0
VERTEX
  8
0
 62
7
  6
CONTINUOUS
 10
126.6755876372
 20
63.2805183576
  0
VERTEX
  8
0
 62
7
  6
CONTINUOUS
 10
126.7602082702
 20
63.362925819
  0
VERTEX
  8
0
 62
7
  6
CONTINUOUS
 10
126.8253802793
 20
63.4484669538
  0
VERTEX
  8
0
 62
7
  6
CONTINUOUS
 10
126.8759810326
 20
63.5342988926
  0
VERTEX
  8
0
 62
7
  6
CONTINUOUS
 10
126.9170522615
 20
63.6213627402
  0
VERTEX
  8
0
 62
7
  6
CONTINUOUS
 10
126.9522557076
 20
63.7120955752
  0
VERTEX
  8
0
 62
7
  6
CONTINUOUS
 10
126.9841043636
 20
63.8097461968
  0
VERTEX
  8
0
 62
7
  6
CONTINUOUS
 10
127.0141777197
 20
63.917647585
  0
VERTEX
  8
0
 62
7
  6
CONTINUOUS
 10
127.043398426
 20
64.0388442578
  0
VERTEX
  8
0
 62
7
  6
CONTINUOUS
 10
127.0723191176
 20
64.1762535272
  0
VERTEX
  8
0
 62
7
  6
CONTINUOUS
 10
127.1012806709
 20
64.33283922
  0
VERTEX
  8
0
 62
7
  6
CONTINUOUS
 10
127.1270577801
 20
64.4895515121
  0
SEQEND
  0
POLYLINE
  8
0
 62
7
  6
CONTINUOUS
 66
1
 70
0
  0
VERTEX
  8
0
 62
7
  6
CONTINUOUS
 10
109.4406158395
 20
63.1239763818
  0
VERTEX
  8
0
 62
7
  6
CONTINUOUS
 10
109.5091716621
 20
63.1273690791
  0
VERTEX
  8
0
 62
7
  6
CONTINUOUS
 10
109.6453328258
 20
63.1551798642
  0
VERTEX
  8
0
 62
7
  6
CONTINUOUS
 10
109.7697404544
 20
63.2084317069
  0
VERTEX
  8
0
 62
7
  6
CONTINUOUS
 10
109.8755876372
 20
63.2805183576
  0
VERTEX
  8
0
 62
7
  6
CONTINUOUS
 10
109.9602082702
 20
63.362925819
  0
VERTEX
  8
0
 62
7
  6
CONTINUOUS
 10
110.0253802793
 20
63.4484669538
  0
VERTEX
  8
0
 62
7
  6
CONTINUOUS
 10
110.0759810326
 20
63.5342988926
  0
VERTEX
  8
0
 62
7
  6
CONTINUOUS
 10
110.1170522615
 20
63.6213627402
  0
VERTEX
  8
0
 62
7
  6
CONTINUOUS
 10
110.1522557076
 20
63.7120955752
  0
VERTEX
  8
0
 62
7
  6
CONTINUOUS
 10
110.1841043636
 20
63.8097461968
  0
VERTEX
  8
0
 62
7
  6
CONTINUOUS
 10
110.2141777197
 20
63.917647585
  0
VERTEX
  8
0
 62
7
  6
CONTINUOUS
 10
110.243398426
 20
64.0388442578
  0
VERTEX
  8
0
 62
7
  6
CONTINUOUS
 10
110.2723191176
 20
64.1762535272
  0
VERTEX
  8
0
 62
7
  6
CONTINUOUS
 10
110.3012806709
 20
64.33283922
  0
VERTEX
  8
0
 62
7
  6
CONTINUOUS
 10
110.3270577801
 20
64.4895515121
  0
SEQEND
  0
LINE
  8
0
 62
7
  6
CONTINUOUS
 10
86.5844275877
 20
63.1239762931
 11
92.6407249701
 21
63.1239762931
  0
LINE
  8
0
 62
7
  6
CONTINUOUS
 10
105.1281297489
 20
63.1239762931
 11
109.440717934
 21
63.1239762931
  0
LINE
  8
0
 62
7
  6
CONTINUOUS
 10
121.9281297489
 20
63.1239762931
 11
126.240717934
 21
63.1239762931
  0
LINE
  8
0
 62
7
  6
CONTINUOUS
 10
138.7281306919
 20
63.1239762931
 11
143.0407270668
 21
63.1239762931
  0
LINE
  8
0
 62
7
  6
CONTINUOUS
 10
155.5281297489
 20
63.1239762931
 11
159.840717934
 21
63.1239762931
  0
LINE
  8
0
 62
7
  6
CONTINUOUS
 10
172.3281306919
 20
63.1239762931
 11
176.6407270668
 21
63.1239762931
  0
LINE
  8
0
 62
7
  6
CONTINUOUS
 10
189.1281297489
 20
63.1239762931
 11
193.440717934
 21
63.1239762931
  0
LINE
  8
0
 62
7
  6
CONTINUOUS
 10
205.9281297489
 20
63.1239762931
 11
210.240717934
 21
63.1239762931
  0
LINE
  8
0
 62
7
  6
CONTINUOUS
 10
222.7281297489
 20
63.1239762931
 11
227.0407218748
 21
63.1239762931
  0
LINE
  8
0
 62
7
  6
CONTINUOUS
 10
109.4407280098
 20
63.1239762931
 11
109.4406157864
 21
63.1239763515
  0
LINE
  8
0
 62
7
  6
CONTINUOUS
 10
126.2407280098
 20
63.1239762931
 11
126.2406157864
 21
63.1239763515
  0
LINE
  8
0
 62
7
  6
CONTINUOUS
 10
159.8407280098
 20
63.1239762931
 11
159.8406157864
 21
63.1239763515
  0
LINE
  8
0
 62
7
  6
CONTINUOUS
 10
193.4407280098
 20
63.1239762931
 11
193.4406157864
 21
63.1239763515
  0
LINE
  8
0
 62
7
  6
CONTINUOUS
 10
210.2407280098
 20
63.1239762931
 11
210.2406157864
 21
63.1239763515
  0
LINE
  8
0
 62
7
  6
CONTINUOUS
 10
227.0407283851
 20
63.1239762931
 11
227.0406164005
 21
63.1239763515
  0
LINE
  8
0
 62
7
  6
CONTINUOUS
 10
137.6492319791
 20
64.98845832
 11
137.8299586623
 21
64.5852116874
  0
LINE
  8
0
 62
7
  6
CONTINUOUS
 10
136.769656341
 20
68.781358276
 11
136.7695970391
 21
68.7823781876
  0
POLYLINE
  8
0
 62
7
  6
CONTINUOUS
 66
1
 70
0
  0
VERTEX
  8
0
 62
7
  6
CONTINUOUS
 10
136.5924154995
 20
119.1527250558
  0
VERTEX
  8
0
 62
7
  6
CONTINUOUS
 10
136.596262694
 20
119.4344386383
  0
VERTEX
  8
0
 62
7
  6
CONTINUOUS
 10
136.5987044378
 20
119.7174508398
  0
VERTEX
  8
0
 62
7
  6
CONTINUOUS
 10
136.5992607225
 20
125.2655123871
  0
SEQEND
  0
POLYLINE
  8
0
 62
7
  6
CONTINUOUS
 66
1
 70
0
  0
VERTEX
  8
0
 62
7
  6
CONTINUOUS
 10
136.7763945692
 20
74.8910800915
  0
VERTEX
  8
0
 62
7
  6
CONTINUOUS
 10
136.7725486032
 20
74.6095500108
  0
VERTEX
  8
0
 62
7
  6
CONTINUOUS
 10
136.7701326287
 20
74.3265283503
  0
VERTEX
  8
0
 62
7
  6
CONTINUOUS
 10
136.7695970362
 20
68.7824401991
  0
SEQEND
  0
LINE
  8
0
 62
7
  6
CONTINUOUS
 10
127.1270567931
 20
64.4895451814
 11
127.1429591675
 21
64.5942707264
  0
POLYLINE
  8
0
 62
7
  6
CONTINUOUS
 66
1
 70
0
  0
VERTEX
  8
0
 62
7
  6
CONTINUOUS
 10
146.2299597055
 20
129.4627430249
  0
VERTEX
  8
0
 62
7
  6
CONTINUOUS
 10
146.0501764303
 20
129.0617938031
  0
VERTEX
  8
0
 62
7
  6
CONTINUOUS
 10
145.8751118921
 20
128.5961807623
  0
VERTEX
  8
0
 62
7
  6
CONTINUOUS
 10
145.7163434902
 20
128.0945562819
  0
VERTEX
  8
0
 62
7
  6
CONTINUOUS
 10
145.5736387444
 20
127.5612200797
  0
VERTEX
  8
0
 62
7
  6
CONTINUOUS
 10
145.4469505108
 20
127.0008290579
  0
VERTEX
  8
0
 62
7
  6
CONTINUOUS
 10
145.3362629798
 20
126.4182182524
  0
VERTEX
  8
0
 62
7
  6
CONTINUOUS
 10
145.2415341285
 20
125.8183933255
  0
VERTEX
  8
0
 62
7
  6
CONTINUOUS
 10
145.1696563148
 20
125.2666002041
  0
SEQEND
  0
POLYLINE
  8
0
 62
7
  6
CONTINUOUS
 66
1
 70
0
  0
VERTEX
  8
0
 62
7
  6
CONTINUOUS
 10
111.3992013964
 20
68.7813625317
  0
VERTEX
  8
0
 62
7
  6
CONTINUOUS
 10
111.393389696
 20
68.7727656337
  0
VERTEX
  8
0
 62
7
  6
CONTINUOUS
 10
111.374302943
 20
68.7639723152
  0
VERTEX
  8
0
 62
7
  6
CONTINUOUS
 10
111.3431016959
 20
68.7572438725
  0
VERTEX
  8
0
 62
7
  6
CONTINUOUS
 10
111.3017831501
 20
68.7529241691
  0
VERTEX
  8
0
 62
7
  6
CONTINUOUS
 10
111.2530868039
 20
68.7511352825
  0
VERTEX
  8
0
 62
7
  6
CONTINUOUS
 10
111.1992607225
 20
68.7516949698
  0
SEQEND
  0
POLYLINE
  8
0
 62
7
  6
CONTINUOUS
 66
1
 70
0
  0
VERTEX
  8
0
 62
7
  6
CONTINUOUS
 10
220.9695970362
 20
68.7516949698
  0
VERTEX
  8
0
 62
7
  6
CONTINUOUS
 10
220.922568361
 20
68.7510830172
  0
VERTEX
  8
0
 62
7
  6
CONTINUOUS
 10
220.8790460209
 20
68.7522220381
  0
VERTEX
  8
0
 62
7
  6
CONTINUOUS
 10
220.8403945727
 20
68.7553070109
  0
VERTEX
  8
0
 62
7
  6
CONTINUOUS
 10
220.8087461496
 20
68.7603241454
  0
VERTEX
  8
0
 62
7
  6
CONTINUOUS
 10
220.7857956359
 20
68.7670941613
  0
VERTEX
  8
0
 62
7
  6
CONTINUOUS
 10
220.7726699546
 20
68.7753088351
  0
VERTEX
  8
0
 62
7
  6
CONTINUOUS
 10
220.769656341
 20
68.781358276
  0
SEQEND
  0
POLYLINE
  8
0
 62
7
  6
CONTINUOUS
 66
1
 70
0
  0
VERTEX
  8
0
 62
7
  6
CONTINUOUS
 10
204.1695970362
 20
68.7516949698
  0
VERTEX
  8
0
 62
7
  6
CONTINUOUS
 10
204.122568361
 20
68.7510830172
  0
VERTEX
  8
0
 62
7
  6
CONTINUOUS
 10
204.0790460209
 20
68.7522220381
  0
VERTEX
  8
0
 62
7
  6
CONTINUOUS
 10
204.0403945727
 20
68.7553070109
  0
VERTEX
  8
0
 62
7
  6
CONTINUOUS
 10
204.0087461496
 20
68.7603241454
  0
VERTEX
  8
0
 62
7
  6
CONTINUOUS
 10
203.9857956359
 20
68.7670941613
  0
VERTEX
  8
0
 62
7
  6
CONTINUOUS
 10
203.9726699546
 20
68.7753088351
  0
VERTEX
  8
0
 62
7
  6
CONTINUOUS
 10
203.969656341
 20
68.781358276
  0
SEQEND
  0
POLYLINE
  8
0
 62
7
  6
CONTINUOUS
 66
1
 70
0
  0
VERTEX
  8
0
 62
7
  6
CONTINUOUS
 10
187.3695970362
 20
68.7516949698
  0
VERTEX
  8
0
 62
7
  6
CONTINUOUS
 10
187.322568361
 20
68.7510830172
  0
VERTEX
  8
0
 62
7
  6
CONTINUOUS
 10
187.2790460209
 20
68.7522220381
  0
VERTEX
  8
0
 62
7
  6
CONTINUOUS
 10
187.2403945727
 20
68.7553070109
  0
VERTEX
  8
0
 62
7
  6
CONTINUOUS
 10
187.2087461496
 20
68.7603241454
  0
VERTEX
  8
0
 62
7
  6
CONTINUOUS
 10
187.1857956359
 20
68.7670941613
  0
VERTEX
  8
0
 62
7
  6
CONTINUOUS
 10
187.1726699546
 20
68.7753088351
  0
VERTEX
  8
0
 62
7
  6
CONTINUOUS
 10
187.169656341
 20
68.781358276
  0
SEQEND
  0
POLYLINE
  8
0
 62
7
  6
CONTINUOUS
 66
1
 70
0
  0
VERTEX
  8
0
 62
7
  6
CONTINUOUS
 10
170.5695970362
 20
68.7516949698
  0
VERTEX
  8
0
 62
7
  6
CONTINUOUS
 10
170.522568361
 20
68.7510830172
  0
VERTEX
  8
0
 62
7
  6
CONTINUOUS
 10
170.4790460209
 20
68.7522220381
  0
VERTEX
  8
0
 62
7
  6
CONTINUOUS
 10
170.4403945727
 20
68.7553070109
  0
VERTEX
  8
0
 62
7
  6
CONTINUOUS
 10
170.4087461496
 20
68.7603241454
  0
VERTEX
  8
0
 62
7
  6
CONTINUOUS
 10
170.3857956359
 20
68.7670941613
  0
VERTEX
  8
0
 62
7
  6
CONTINUOUS
 10
170.3726699546
 20
68.7753088351
  0
VERTEX
  8
0
 62
7
  6
CONTINUOUS
 10
170.369656341
 20
68.781358276
  0
SEQEND
  0
POLYLINE
  8
0
 62
7
  6
CONTINUOUS
 66
1
 70
0
  0
VERTEX
  8
0
 62
7
  6
CONTINUOUS
 10
153.7695970362
 20
68.7516949698
  0
VERTEX
  8
0
 62
7
  6
CONTINUOUS
 10
153.722568361
 20
68.7510830172
  0
VERTEX
  8
0
 62
7
  6
CONTINUOUS
 10
153.6790460209
 20
68.7522220381
  0
VERTEX
  8
0
 62
7
  6
CONTINUOUS
 10
153.6403945727
 20
68.7553070109
  0
VERTEX
  8
0
 62
7
  6
CONTINUOUS
 10
153.6087461496
 20
68.7603241454
  0
VERTEX
  8
0
 62
7
  6
CONTINUOUS
 10
153.5857956359
 20
68.7670941613
  0
VERTEX
  8
0
 62
7
  6
CONTINUOUS
 10
153.5726699546
 20
68.7753088351
  0
VERTEX
  8
0
 62
7
  6
CONTINUOUS
 10
153.569656341
 20
68.781358276
  0
SEQEND
  0
POLYLINE
  8
0
 62
7
  6
CONTINUOUS
 66
1
 70
0
  0
VERTEX
  8
0
 62
7
  6
CONTINUOUS
 10
136.9695970362
 20
68.7516949698
  0
VERTEX
  8
0
 62
7
  6
CONTINUOUS
 10
136.922568361
 20
68.7510830172
  0
VERTEX
  8
0
 62
7
  6
CONTINUOUS
 10
136.8790460209
 20
68.7522220381
  0
VERTEX
  8
0
 62
7
  6
CONTINUOUS
 10
136.8403945727
 20
68.7553070109
  0
VERTEX
  8
0
 62
7
  6
CONTINUOUS
 10
136.8087461496
 20
68.7603241454
  0
VERTEX
  8
0
 62
7
  6
CONTINUOUS
 10
136.7857956359
 20
68.7670941613
  0
VERTEX
  8
0
 62
7
  6
CONTINUOUS
 10
136.7726699546
 20
68.7753088351
  0
VERTEX
  8
0
 62
7
  6
CONTINUOUS
 10
136.769656341
 20
68.781358276
  0
SEQEND
  0
POLYLINE
  8
0
 62
7
  6
CONTINUOUS
 66
1
 70
0
  0
VERTEX
  8
0
 62
7
  6
CONTINUOUS
 10
120.1695970362
 20
68.7516949698
  0
VERTEX
  8
0
 62
7
  6
CONTINUOUS
 10
120.122568361
 20
68.7510830172
  0
VERTEX
  8
0
 62
7
  6
CONTINUOUS
 10
120.0790460209
 20
68.7522220381
  0
VERTEX
  8
0
 62
7
  6
CONTINUOUS
 10
120.0403945727
 20
68.7553070109
  0
VERTEX
  8
0
 62
7
  6
CONTINUOUS
 10
120.0087461496
 20
68.7603241454
  0
VERTEX
  8
0
 62
7
  6
CONTINUOUS
 10
119.9857956359
 20
68.7670941613
  0
VERTEX
  8
0
 62
7
  6
CONTINUOUS
 10
119.9726699546
 20
68.7753088351
  0
VERTEX
  8
0
 62
7
  6
CONTINUOUS
 10
119.969656341
 20
68.781358276
  0
SEQEND
  0
POLYLINE
  8
0
 62
7
  6
CONTINUOUS
 66
1
 70
0
  0
VERTEX
  8
0
 62
7
  6
CONTINUOUS
 10
103.3695970362
 20
68.7516949698
  0
VERTEX
  8
0
 62
7
  6
CONTINUOUS
 10
103.322568361
 20
68.7510830172
  0
VERTEX
  8
0
 62
7
  6
CONTINUOUS
 10
103.2790460209
 20
68.7522220381
  0
VERTEX
  8
0
 62
7
  6
CONTINUOUS
 10
103.2403945727
 20
68.7553070109
  0
VERTEX
  8
0
 62
7
  6
CONTINUOUS
 10
103.2087461496
 20
68.7603241454
  0
VERTEX
  8
0
 62
7
  6
CONTINUOUS
 10
103.1857956359
 20
68.7670941613
  0
VERTEX
  8
0
 62
7
  6
CONTINUOUS
 10
103.1726699546
 20
68.7753088351
  0
VERTEX
  8
0
 62
7
  6
CONTINUOUS
 10
103.169656341
 20
68.781358276
  0
SEQEND
  0
LINE
  8
0
 62
7
  6
CONTINUOUS
 10
94.3992607225
 20
68.7516949698
 11
86.5844288793
 21
68.7516949698
  0
LINE
  8
0
 62
7
  6
CONTINUOUS
 10
103.3695970362
 20
68.7516949698
 11
111.1992607225
 21
68.7516949698
  0
LINE
  8
0
 62
7
  6
CONTINUOUS
 10
120.1695970362
 20
68.7516949698
 11
127.9992607225
 21
68.7516949698
  0
LINE
  8
0
 62
7
  6
CONTINUOUS
 10
136.9695970362
 20
68.7516949698
 11
144.7992607225
 21
68.7516949698
  0
LINE
  8
0
 62
7
  6
CONTINUOUS
 10
153.7695970362
 20
68.7516949698
 11
161.5992607225
 21
68.7516949698
  0
LINE
  8
0
 62
7
  6
CONTINUOUS
 10
170.5695970362
 20
68.7516949698
 11
178.3992607225
 21
68.7516949698
  0
LINE
  8
0
 62
7
  6
CONTINUOUS
 10
187.3695970362
 20
68.7516949698
 11
195.1992607225
 21
68.7516949698
  0
LINE
  8
0
 62
7
  6
CONTINUOUS
 10
204.1695970362
 20
68.7516949698
 11
211.9992607225
 21
68.7516949698
  0
LINE
  8
0
 62
7
  6
CONTINUOUS
 10
220.9695970362
 20
68.7516949698
 11
228.7992607225
 21
68.7516949698
  0
LINE
  8
DEFAULT_1
 62
2
  6
CENTER
 10
84.3844288793
 20
71.6239762931
 11
228.6268096096
 21
71.6239762931
  0
POLYLINE
  8
0
 62
7
  6
CONTINUOUS
 66
1
 70
0
  0
VERTEX
  8
0
 62
7
  6
CONTINUOUS
 10
102.7939929748
 20
75.9451677536
  0
VERTEX
  8
0
 62
7
  6
CONTINUOUS
 10
102.8135581929
 20
75.943916242
  0
VERTEX
  8
0
 62
7
  6
CONTINUOUS
 10
102.8548712863
 20
75.9338094119
  0
VERTEX
  8
0
 62
7
  6
CONTINUOUS
 10
102.8956065556
 20
75.9143757201
  0
VERTEX
  8
0
 62
7
  6
CONTINUOUS
 10
102.9339396984
 20
75.8873222372
  0
VERTEX
  8
0
 62
7
  6
CONTINUOUS
 10
102.9692725581
 20
75.8539936262
  0
VERTEX
  8
0
 62
7
  6
CONTINUOUS
 10
103.0011933232
 20
75.8156133251
  0
VERTEX
  8
0
 62
7
  6
CONTINUOUS
 10
103.0297578919
 20
75.7729358106
  0
VERTEX
  8
0
 62
7
  6
CONTINUOUS
 10
103.0549351236
 20
75.7267284991
  0
VERTEX
  8
0
 62
7
  6
CONTINUOUS
 10
103.0767926842
 20
75.677693174
  0
VERTEX
  8
0
 62
7
  6
CONTINUOUS
 10
103.095359821
 20
75.6265750311
  0
VERTEX
  8
0
 62
7
  6
CONTINUOUS
 10
103.111377422
 20
75.5726207219
  0
VERTEX
  8
0
 62
7
  6
CONTINUOUS
 10
103.1252451498
 20
75.5166875844
  0
VERTEX
  8
0
 62
7
  6
CONTINUOUS
 10
103.1370750767
 20
75.4594788486
  0
VERTEX
  8
0
 62
7
  6
CONTINUOUS
 10
103.14711994
 20
75.4010446527
  0
VERTEX
  8
0
 62
7
  6
CONTINUOUS
 10
103.1554902582
 20
75.3413206441
  0
VERTEX
  8
0
 62
7
  6
CONTINUOUS
 10
103.1623198749
 20
75.2801691202
  0
VERTEX
  8
0
 62
7
  6
CONTINUOUS
 10
103.1677033107
 20
75.2178574357
  0
VERTEX
  8
0
 62
7
  6
CONTINUOUS
 10
103.1717358672
 20
75.1545047668
  0
VERTEX
  8
0
 62
7
  6
CONTINUOUS
 10
103.1745160832
 20
75.0901295997
  0
VERTEX
  8
0
 62
7
  6
CONTINUOUS
 10
103.1761525687
 20
75.0247352786
  0
VERTEX
  8
0
 62
7
  6
CONTINUOUS
 10
103.1767494255
 20
74.9583684338
  0
VERTEX
  8
0
 62
7
  6
CONTINUOUS
 10
103.1763945692
 20
74.8910800915
  0
SEQEND
  0
LINE
  8
0
 62
7
  6
CONTINUOUS
 10
118.9186813284
 20
129.0617938031
 11
118.7388980532
 21
129.4627430249
  0
POLYLINE
  8
0
 62
7
  6
CONTINUOUS
 66
1
 70
0
  0
VERTEX
  8
0
 62
7
  6
CONTINUOUS
 10
137.8417999732
 20
64.4895515466
  0
VERTEX
  8
0
 62
7
  6
CONTINUOUS
 10
137.8676059085
 20
64.3326734082
  0
VERTEX
  8
0
 62
7
  6
CONTINUOUS
 10
137.8965988259
 20
64.1759484631
  0
VERTEX
  8
0
 62
7
  6
CONTINUOUS
 10
137.9255543565
 20
64.0384222538
  0
VERTEX
  8
0
 62
7
  6
CONTINUOUS
 10
137.9548153068
 20
63.9171253103
  0
VERTEX
  8
0
 62
7
  6
CONTINUOUS
 10
137.9849378969
 20
63.8091332807
  0
VERTEX
  8
0
 62
7
  6
CONTINUOUS
 10
138.0168515281
 20
63.7113923775
  0
VERTEX
  8
0
 62
7
  6
CONTINUOUS
 10
138.0521494202
 20
63.6205555109
  0
VERTEX
  8
0
 62
7
  6
CONTINUOUS
 10
138.0933748913
 20
63.5333489231
  0
VERTEX
  8
0
 62
7
  6
CONTINUOUS
 10
138.1442309139
 20
63.4473345973
  0
VERTEX
  8
0
 62
7
  6
CONTINUOUS
 10
138.2098023718
 20
63.3616111761
  0
VERTEX
  8
0
 62
7
  6
CONTINUOUS
 10
138.2949690631
 20
63.2791201392
  0
VERTEX
  8
0
 62
7
  6
CONTINUOUS
 10
138.4014253152
 20
63.2071631421
  0
VERTEX
  8
0
 62
7
  6
CONTINUOUS
 10
138.5264367492
 20
63.1542730452
  0
VERTEX
  8
0
 62
7
  6
CONTINUOUS
 10
138.6631760053
 20
63.1270304041
  0
VERTEX
  8
0
 62
7
  6
CONTINUOUS
 10
138.7275247078
 20
63.1239766348
  0
SEQEND
  0
LINE
  8
0
 62
7
  6
CONTINUOUS
 10
137.8258985912
 20
64.5942707261
 11
137.8418009655
 21
64.4895451814
  0
POLYLINE
  8
0
 62
7
  6
CONTINUOUS
 66
1
 70
0
  0
VERTEX
  8
0
 62
7
  6
CONTINUOUS
 10
136.7696563114
 20
68.7813524103
  0
VERTEX
  8
0
 62
7
  6
CONTINUOUS
 10
136.8410335665
 20
68.2330610279
  0
VERTEX
  8
0
 62
7
  6
CONTINUOUS
 10
136.9356830278
 20
67.6330796125
  0
VERTEX
  8
0
 62
7
  6
CONTINUOUS
 10
137.0462936327
 20
67.050292648
  0
VERTEX
  8
0
 62
7
  6
CONTINUOUS
 10
137.1729075189
 20
66.4897069817
  0
VERTEX
  8
0
 62
7
  6
CONTINUOUS
 10
137.3155402732
 20
65.9561593034
  0
VERTEX
  8
0
 62
7
  6
CONTINUOUS
 10
137.4742381975
 20
65.4543089253
  0
VERTEX
  8
0
 62
7
  6
CONTINUOUS
 10
137.6492319791
 20
64.98845832
  0
SEQEND
  0
LINE
  8
0
 62
7
  6
CONTINUOUS
 10
136.5992014143
 20
125.2665943384
 11
136.5992607195
 21
125.2655743986
  0
LINE
  8
0
 62
7
  6
CONTINUOUS
 10
145.1696563443
 20
125.2665943384
 11
145.1695970391
 21
125.2655743986
  0
LINE
  8
0
 62
7
  6
CONTINUOUS
 10
146.2418011011
 20
129.5584082747
 11
146.2258963166
 21
129.4536809327
  0
POLYLINE
  8
0
 62
7
  6
CONTINUOUS
 66
1
 70
0
  0
VERTEX
  8
0
 62
7
  6
CONTINUOUS
 10
127.1388990963
 20
64.5852116874
  0
VERTEX
  8
0
 62
7
  6
CONTINUOUS
 10
127.3196258234
 20
64.9884584269
  0
VERTEX
  8
0
 62
7
  6
CONTINUOUS
 10
127.4946196413
 20
65.4543091581
  0
VERTEX
  8
0
 62
7
  6
CONTINUOUS
 10
127.6533175943
 20
65.9561596782
  0
VERTEX
  8
0
 62
7
  6
CONTINUOUS
 10
127.79595037
 20
66.4897075116
  0
VERTEX
  8
0
 62
7
  6
CONTINUOUS
 10
127.9225642698
 20
67.0502933425
  0
VERTEX
  8
0
 62
7
  6
CONTINUOUS
 10
128.0331748807
 20
67.6330804774
  0
VERTEX
  8
0
 62
7
  6
CONTINUOUS
 10
128.1278243404
 20
68.2330620658
  0
VERTEX
  8
0
 62
7
  6
CONTINUOUS
 10
128.1992014472
 20
68.7813524103
  0
SEQEND
  0
LINE
  8
0
 62
7
  6
CONTINUOUS
 10
237.1844288793
 20
75.9453658778
 11
229.3746918893
 21
75.945167476
  0
LINE
  8
0
 62
7
  6
CONTINUOUS
 10
220.3150611466
 20
75.9453658778
 11
212.5746918893
 21
75.945167476
  0
LINE
  8
0
 62
7
  6
CONTINUOUS
 10
203.5150611466
 20
75.9453658778
 11
195.7746918893
 21
75.945167476
  0
LINE
  8
0
 62
7
  6
CONTINUOUS
 10
186.7150611466
 20
75.9453658778
 11
178.9746918893
 21
75.945167476
  0
LINE
  8
0
 62
7
  6
CONTINUOUS
 10
169.9150611466
 20
75.9453658778
 11
162.1746918893
 21
75.945167476
  0
LINE
  8
0
 62
7
  6
CONTINUOUS
 10
153.1150611466
 20
75.9453658778
 11
145.3746918893
 21
75.945167476
  0
LINE
  8
0
 62
7
  6
CONTINUOUS
 10
136.3150611466
 20
75.9453658778
 11
128.5746918893
 21
75.945167476
  0
LINE
  8
0
 62
7
  6
CONTINUOUS
 10
119.5150611466
 20
75.9453658778
 11
111.7746918893
 21
75.945167476
  0
LINE
  8
0
 62
7
  6
CONTINUOUS
 10
102.7150611466
 20
75.9453658778
 11
94.9746918893
 21
75.945167476
  0
LINE
  8
0
 62
7
  6
CONTINUOUS
 10
102.7939931512
 20
75.9451376234
 11
102.7150605976
 21
75.9454111414
  0
LINE
  8
0
 62
7
  6
CONTINUOUS
 10
119.5939931512
 20
75.9451376234
 11
119.5150605976
 21
75.9454111414
  0
LINE
  8
0
 62
7
  6
CONTINUOUS
 10
136.3939931512
 20
75.9451376234
 11
136.3150605976
 21
75.9454111414
  0
LINE
  8
0
 62
7
  6
CONTINUOUS
 10
153.1939931512
 20
75.9451376234
 11
153.1150605976
 21
75.9454111414
  0
LINE
  8
0
 62
7
  6
CONTINUOUS
 10
169.9939931512
 20
75.9451376234
 11
169.9150605976
 21
75.9454111414
  0
LINE
  8
0
 62
7
  6
CONTINUOUS
 10
102.7951717302
 20
76.1950896441
 11
102.7150610683
 21
76.1953658778
  0
LINE
  8
0
 62
7
  6
CONTINUOUS
 10
186.7939931512
 20
75.9451376234
 11
186.7150605976
 21
75.9454111414
  0
LINE
  8
0
 62
7
  6
CONTINUOUS
 10
119.5951717302
 20
76.1950896441
 11
119.5150610683
 21
76.1953658778
  0
LINE
  8
0
 62
7
  6
CONTINUOUS
 10
203.5939931512
 20
75.9451376234
 11
203.5150605976
 21
75.9454111414
  0
LINE
  8
0
 62
7
  6
CONTINUOUS
 10
136.3951717302
 20
76.1950896441
 11
136.3150610683
 21
76.1953658778
  0
LINE
  8
0
 62
7
  6
CONTINUOUS
 10
220.3939931512
 20
75.9451376234
 11
220.3150605976
 21
75.9454111414
  0
LINE
  8
0
 62
7
  6
CONTINUOUS
 10
153.1951717302
 20
76.1950896441
 11
153.1150610683
 21
76.1953658778
  0
LINE
  8
0
 62
7
  6
CONTINUOUS
 10
169.9951717302
 20
76.1950896441
 11
169.9150610683
 21
76.1953658778
  0
LINE
  8
0
 62
7
  6
CONTINUOUS
 10
186.7951717302
 20
76.1950896441
 11
186.7150610683
 21
76.1953658778
  0
LINE
  8
0
 62
7
  6
CONTINUOUS
 10
203.5951717302
 20
76.1950896441
 11
203.5150610683
 21
76.1953658778
  0
LINE
  8
0
 62
7
  6
CONTINUOUS
 10
220.3951717302
 20
76.1950896441
 11
220.3150610683
 21
76.1953658778
  0
POLYLINE
  8
0
 62
7
  6
CONTINUOUS
 66
1
 70
0
  0
VERTEX
  8
0
 62
7
  6
CONTINUOUS
 10
119.5939929748
 20
75.9451677536
  0
VERTEX
  8
0
 62
7
  6
CONTINUOUS
 10
119.6135581929
 20
75.943916242
  0
VERTEX
  8
0
 62
7
  6
CONTINUOUS
 10
119.6548712863
 20
75.9338094119
  0
VERTEX
  8
0
 62
7
  6
CONTINUOUS
 10
119.6956065556
 20
75.9143757201
  0
VERTEX
  8
0
 62
7
  6
CONTINUOUS
 10
119.7339396984
 20
75.8873222372
  0
VERTEX
  8
0
 62
7
  6
CONTINUOUS
 10
119.7692725581
 20
75.8539936262
  0
VERTEX
  8
0
 62
7
  6
CONTINUOUS
 10
119.8011933232
 20
75.8156133251
  0
VERTEX
  8
0
 62
7
  6
CONTINUOUS
 10
119.8297578919
 20
75.7729358106
  0
VERTEX
  8
0
 62
7
  6
CONTINUOUS
 10
119.8549351236
 20
75.7267284991
  0
VERTEX
  8
0
 62
7
  6
CONTINUOUS
 10
119.8767926842
 20
75.677693174
  0
VERTEX
  8
0
 62
7
  6
CONTINUOUS
 10
119.895359821
 20
75.6265750311
  0
VERTEX
  8
0
 62
7
  6
CONTINUOUS
 10
119.911377422
 20
75.5726207219
  0
VERTEX
  8
0
 62
7
  6
CONTINUOUS
 10
119.9252451498
 20
75.5166875844
  0
VERTEX
  8
0
 62
7
  6
CONTINUOUS
 10
119.9370750767
 20
75.4594788486
  0
VERTEX
  8
0
 62
7
  6
CONTINUOUS
 10
119.94711994
 20
75.4010446527
  0
VERTEX
  8
0
 62
7
  6
CONTINUOUS
 10
119.9554902582
 20
75.3413206441
  0
VERTEX
  8
0
 62
7
  6
CONTINUOUS
 10
119.9623198749
 20
75.2801691202
  0
VERTEX
  8
0
 62
7
  6
CONTINUOUS
 10
119.9677033107
 20
75.2178574357
  0
VERTEX
  8
0
 62
7
  6
CONTINUOUS
 10
119.9717358672
 20
75.1545047668
  0
VERTEX
  8
0
 62
7
  6
CONTINUOUS
 10
119.9745160832
 20
75.0901295997
  0
VERTEX
  8
0
 62
7
  6
CONTINUOUS
 10
119.9761525687
 20
75.0247352786
  0
VERTEX
  8
0
 62
7
  6
CONTINUOUS
 10
119.9767494255
 20
74.9583684338
  0
VERTEX
  8
0
 62
7
  6
CONTINUOUS
 10
119.9763945692
 20
74.8910800915
  0
SEQEND
  0
POLYLINE
  8
0
 62
7
  6
CONTINUOUS
 66
1
 70
0
  0
VERTEX
  8
0
 62
7
  6
CONTINUOUS
 10
136.3939929748
 20
75.9451677536
  0
VERTEX
  8
0
 62
7
  6
CONTINUOUS
 10
136.4135581929
 20
75.943916242
  0
VERTEX
  8
0
 62
7
  6
CONTINUOUS
 10
136.4548712863
 20
75.9338094119
  0
VERTEX
  8
0
 62
7
  6
CONTINUOUS
 10
136.4956065556
 20
75.9143757201
  0
VERTEX
  8
0
 62
7
  6
CONTINUOUS
 10
136.5339396984
 20
75.8873222372
  0
VERTEX
  8
0
 62
7
  6
CONTINUOUS
 10
136.5692725581
 20
75.8539936262
  0
VERTEX
  8
0
 62
7
  6
CONTINUOUS
 10
136.6011933232
 20
75.8156133251
  0
VERTEX
  8
0
 62
7
  6
CONTINUOUS
 10
136.6297578919
 20
75.7729358106
  0
VERTEX
  8
0
 62
7
  6
CONTINUOUS
 10
136.6549351236
 20
75.7267284991
  0
VERTEX
  8
0
 62
7
  6
CONTINUOUS
 10
136.6767926842
 20
75.677693174
  0
VERTEX
  8
0
 62
7
  6
CONTINUOUS
 10
136.695359821
 20
75.6265750311
  0
VERTEX
  8
0
 62
7
  6
CONTINUOUS
 10
136.711377422
 20
75.5726207219
  0
VERTEX
  8
0
 62
7
  6
CONTINUOUS
 10
136.7252451498
 20
75.5166875844
  0
VERTEX
  8
0
 62
7
  6
CONTINUOUS
 10
136.7370750767
 20
75.4594788486
  0
VERTEX
  8
0
 62
7
  6
CONTINUOUS
 10
136.74711994
 20
75.4010446527
  0
VERTEX
  8
0
 62
7
  6
CONTINUOUS
 10
136.7554902582
 20
75.3413206441
  0
VERTEX
  8
0
 62
7
  6
CONTINUOUS
 10
136.7623198749
 20
75.2801691202
  0
VERTEX
  8
0
 62
7
  6
CONTINUOUS
 10
136.7677033107
 20
75.2178574357
  0
VERTEX
  8
0
 62
7
  6
CONTINUOUS
 10
136.7717358672
 20
75.1545047668
  0
VERTEX
  8
0
 62
7
  6
CONTINUOUS
 10
136.7745160832
 20
75.0901295997
  0
VERTEX
  8
0
 62
7
  6
CONTINUOUS
 10
136.7761525687
 20
75.0247352786
  0
VERTEX
  8
0
 62
7
  6
CONTINUOUS
 10
136.7767494255
 20
74.9583684338
  0
VERTEX
  8
0
 62
7
  6
CONTINUOUS
 10
136.7763945692
 20
74.8910800915
  0
SEQEND
  0
POLYLINE
  8
0
 62
7
  6
CONTINUOUS
 66
1
 70
0
  0
VERTEX
  8
0
 62
7
  6
CONTINUOUS
 10
153.1939929748
 20
75.9451677536
  0
VERTEX
  8
0
 62
7
  6
CONTINUOUS
 10
153.2135581929
 20
75.943916242
  0
VERTEX
  8
0
 62
7
  6
CONTINUOUS
 10
153.2548712863
 20
75.9338094119
  0
VERTEX
  8
0
 62
7
  6
CONTINUOUS
 10
153.2956065556
 20
75.9143757201
  0
VERTEX
  8
0
 62
7
  6
CONTINUOUS
 10
153.3339396984
 20
75.8873222372
  0
VERTEX
  8
0
 62
7
  6
CONTINUOUS
 10
153.3692725581
 20
75.8539936262
  0
VERTEX
  8
0
 62
7
  6
CONTINUOUS
 10
153.4011933232
 20
75.8156133251
  0
VERTEX
  8
0
 62
7
  6
CONTINUOUS
 10
153.4297578919
 20
75.7729358106
  0
VERTEX
  8
0
 62
7
  6
CONTINUOUS
 10
153.4549351236
 20
75.7267284991
  0
VERTEX
  8
0
 62
7
  6
CONTINUOUS
 10
153.4767926842
 20
75.677693174
  0
VERTEX
  8
0
 62
7
  6
CONTINUOUS
 10
153.495359821
 20
75.6265750311
  0
VERTEX
  8
0
 62
7
  6
CONTINUOUS
 10
153.511377422
 20
75.5726207219
  0
VERTEX
  8
0
 62
7
  6
CONTINUOUS
 10
153.5252451498
 20
75.5166875844
  0
VERTEX
  8
0
 62
7
  6
CONTINUOUS
 10
153.5370750767
 20
75.4594788486
  0
VERTEX
  8
0
 62
7
  6
CONTINUOUS
 10
153.54711994
 20
75.4010446527
  0
VERTEX
  8
0
 62
7
  6
CONTINUOUS
 10
153.5554902582
 20
75.3413206441
  0
VERTEX
  8
0
 62
7
  6
CONTINUOUS
 10
153.5623198749
 20
75.2801691202
  0
VERTEX
  8
0
 62
7
  6
CONTINUOUS
 10
153.5677033107
 20
75.2178574357
  0
VERTEX
  8
0
 62
7
  6
CONTINUOUS
 10
153.5717358672
 20
75.1545047668
  0
VERTEX
  8
0
 62
7
  6
CONTINUOUS
 10
153.5745160832
 20
75.0901295997
  0
VERTEX
  8
0
 62
7
  6
CONTINUOUS
 10
153.5761525687
 20
75.0247352786
  0
VERTEX
  8
0
 62
7
  6
CONTINUOUS
 10
153.5767494255
 20
74.9583684338
  0
VERTEX
  8
0
 62
7
  6
CONTINUOUS
 10
153.5763945692
 20
74.8910800915
  0
SEQEND
  0
POLYLINE
  8
0
 62
7
  6
CONTINUOUS
 66
1
 70
0
  0
VERTEX
  8
0
 62
7
  6
CONTINUOUS
 10
169.9939929748
 20
75.9451677536
  0
VERTEX
  8
0
 62
7
  6
CONTINUOUS
 10
170.0135581929
 20
75.943916242
  0
VERTEX
  8
0
 62
7
  6
CONTINUOUS
 10
170.0548712863
 20
75.9338094119
  0
VERTEX
  8
0
 62
7
  6
CONTINUOUS
 10
170.0956065556
 20
75.9143757201
  0
VERTEX
  8
0
 62
7
  6
CONTINUOUS
 10
170.1339396984
 20
75.8873222372
  0
VERTEX
  8
0
 62
7
  6
CONTINUOUS
 10
170.1692725581
 20
75.8539936262
  0
VERTEX
  8
0
 62
7
  6
CONTINUOUS
 10
170.2011933232
 20
75.8156133251
  0
VERTEX
  8
0
 62
7
  6
CONTINUOUS
 10
170.2297578919
 20
75.7729358106
  0
VERTEX
  8
0
 62
7
  6
CONTINUOUS
 10
170.2549351236
 20
75.7267284991
  0
VERTEX
  8
0
 62
7
  6
CONTINUOUS
 10
170.2767926842
 20
75.677693174
  0
VERTEX
  8
0
 62
7
  6
CONTINUOUS
 10
170.295359821
 20
75.6265750311
  0
VERTEX
  8
0
 62
7
  6
CONTINUOUS
 10
170.311377422
 20
75.5726207219
  0
VERTEX
  8
0
 62
7
  6
CONTINUOUS
 10
170.3252451498
 20
75.5166875844
  0
VERTEX
  8
0
 62
7
  6
CONTINUOUS
 10
170.3370750767
 20
75.4594788486
  0
VERTEX
  8
0
 62
7
  6
CONTINUOUS
 10
170.34711994
 20
75.4010446527
  0
VERTEX
  8
0
 62
7
  6
CONTINUOUS
 10
170.3554902582
 20
75.3413206441
  0
VERTEX
  8
0
 62
7
  6
CONTINUOUS
 10
170.3623198749
 20
75.2801691202
  0
VERTEX
  8
0
 62
7
  6
CONTINUOUS
 10
170.3677033107
 20
75.2178574357
  0
VERTEX
  8
0
 62
7
  6
CONTINUOUS
 10
170.3717358672
 20
75.1545047668
  0
VERTEX
  8
0
 62
7
  6
CONTINUOUS
 10
170.3745160832
 20
75.0901295997
  0
VERTEX
  8
0
 62
7
  6
CONTINUOUS
 10
170.3761525687
 20
75.0247352786
  0
VERTEX
  8
0
 62
7
  6
CONTINUOUS
 10
170.3767494255
 20
74.9583684338
  0
VERTEX
  8
0
 62
7
  6
CONTINUOUS
 10
170.3763945692
 20
74.8910800915
  0
SEQEND
  0
POLYLINE
  8
0
 62
7
  6
CONTINUOUS
 66
1
 70
0
  0
VERTEX
  8
0
 62
7
  6
CONTINUOUS
 10
186.7939929748
 20
75.9451677536
  0
VERTEX
  8
0
 62
7
  6
CONTINUOUS
 10
186.8135581929
 20
75.943916242
  0
VERTEX
  8
0
 62
7
  6
CONTINUOUS
 10
186.8548712863
 20
75.9338094119
  0
VERTEX
  8
0
 62
7
  6
CONTINUOUS
 10
186.8956065556
 20
75.9143757201
  0
VERTEX
  8
0
 62
7
  6
CONTINUOUS
 10
186.9339396984
 20
75.8873222372
  0
VERTEX
  8
0
 62
7
  6
CONTINUOUS
 10
186.9692725581
 20
75.8539936262
  0
VERTEX
  8
0
 62
7
  6
CONTINUOUS
 10
187.0011933232
 20
75.8156133251
  0
VERTEX
  8
0
 62
7
  6
CONTINUOUS
 10
187.0297578919
 20
75.7729358106
  0
VERTEX
  8
0
 62
7
  6
CONTINUOUS
 10
187.0549351236
 20
75.7267284991
  0
VERTEX
  8
0
 62
7
  6
CONTINUOUS
 10
187.0767926842
 20
75.677693174
  0
VERTEX
  8
0
 62
7
  6
CONTINUOUS
 10
187.095359821
 20
75.6265750311
  0
VERTEX
  8
0
 62
7
  6
CONTINUOUS
 10
187.111377422
 20
75.5726207219
  0
VERTEX
  8
0
 62
7
  6
CONTINUOUS
 10
187.1252451498
 20
75.5166875844
  0
VERTEX
  8
0
 62
7
  6
CONTINUOUS
 10
187.1370750767
 20
75.4594788486
  0
VERTEX
  8
0
 62
7
  6
CONTINUOUS
 10
187.14711994
 20
75.4010446527
  0
VERTEX
  8
0
 62
7
  6
CONTINUOUS
 10
187.1554902582
 20
75.3413206441
  0
VERTEX
  8
0
 62
7
  6
CONTINUOUS
 10
187.1623198749
 20
75.2801691202
  0
VERTEX
  8
0
 62
7
  6
CONTINUOUS
 10
187.1677033107
 20
75.2178574357
  0
VERTEX
  8
0
 62
7
  6
CONTINUOUS
 10
187.1717358672
 20
75.1545047668
  0
VERTEX
  8
0
 62
7
  6
CONTINUOUS
 10
187.1745160832
 20
75.0901295997
  0
VERTEX
  8
0
 62
7
  6
CONTINUOUS
 10
187.1761525687
 20
75.0247352786
  0
VERTEX
  8
0
 62
7
  6
CONTINUOUS
 10
187.1767494255
 20
74.9583684338
  0
VERTEX
  8
0
 62
7
  6
CONTINUOUS
 10
187.1763945692
 20
74.8910800915
  0
SEQEND
  0
POLYLINE
  8
0
 62
7
  6
CONTINUOUS
 66
1
 70
0
  0
VERTEX
  8
0
 62
7
  6
CONTINUOUS
 10
203.5939929748
 20
75.9451677536
  0
VERTEX
  8
0
 62
7
  6
CONTINUOUS
 10
203.6135581929
 20
75.943916242
  0
VERTEX
  8
0
 62
7
  6
CONTINUOUS
 10
203.6548712863
 20
75.9338094119
  0
VERTEX
  8
0
 62
7
  6
CONTINUOUS
 10
203.6956065556
 20
75.9143757201
  0
VERTEX
  8
0
 62
7
  6
CONTINUOUS
 10
203.7339396984
 20
75.8873222372
  0
VERTEX
  8
0
 62
7
  6
CONTINUOUS
 10
203.7692725581
 20
75.8539936262
  0
VERTEX
  8
0
 62
7
  6
CONTINUOUS
 10
203.8011933232
 20
75.8156133251
  0
VERTEX
  8
0
 62
7
  6
CONTINUOUS
 10
203.8297578919
 20
75.7729358106
  0
VERTEX
  8
0
 62
7
  6
CONTINUOUS
 10
203.8549351236
 20
75.7267284991
  0
VERTEX
  8
0
 62
7
  6
CONTINUOUS
 10
203.8767926842
 20
75.677693174
  0
VERTEX
  8
0
 62
7
  6
CONTINUOUS
 10
203.895359821
 20
75.6265750311
  0
VERTEX
  8
0
 62
7
  6
CONTINUOUS
 10
203.911377422
 20
75.5726207219
  0
VERTEX
  8
0
 62
7
  6
CONTINUOUS
 10
203.9252451498
 20
75.5166875844
  0
VERTEX
  8
0
 62
7
  6
CONTINUOUS
 10
203.9370750767
 20
75.4594788486
  0
VERTEX
  8
0
 62
7
  6
CONTINUOUS
 10
203.94711994
 20
75.4010446527
  0
VERTEX
  8
0
 62
7
  6
CONTINUOUS
 10
203.9554902582
 20
75.3413206441
  0
VERTEX
  8
0
 62
7
  6
CONTINUOUS
 10
203.9623198749
 20
75.2801691202
  0
VERTEX
  8
0
 62
7
  6
CONTINUOUS
 10
203.9677033107
 20
75.2178574357
  0
VERTEX
  8
0
 62
7
  6
CONTINUOUS
 10
203.9717358672
 20
75.1545047668
  0
VERTEX
  8
0
 62
7
  6
CONTINUOUS
 10
203.9745160832
 20
75.0901295997
  0
VERTEX
  8
0
 62
7
  6
CONTINUOUS
 10
203.9761525687
 20
75.0247352786
  0
VERTEX
  8
0
 62
7
  6
CONTINUOUS
 10
203.9767494255
 20
74.9583684338
  0
VERTEX
  8
0
 62
7
  6
CONTINUOUS
 10
203.9763945692
 20
74.8910800915
  0
SEQEND
  0
LINE
  8
0
 62
7
  6
CONTINUOUS
 10
154.4492319791
 20
64.98845832
 11
154.6299586623
 21
64.5852116874
  0
POLYLINE
  8
0
 62
7
  6
CONTINUOUS
 66
1
 70
0
  0
VERTEX
  8
0
 62
7
  6
CONTINUOUS
 10
135.5270576907
 20
129.5584016475
  0
VERTEX
  8
0
 62
7
  6
CONTINUOUS
 10
135.501011456
 20
129.7166614197
  0
VERTEX
  8
0
 62
7
  6
CONTINUOUS
 10
135.4720627466
 20
129.8729979778
  0
VERTEX
  8
0
 62
7
  6
CONTINUOUS
 10
135.443154088
 20
130.0101930627
  0
VERTEX
  8
0
 62
7
  6
CONTINUOUS
 10
135.4139436613
 20
130.1312084913
  0
VERTEX
  8
0
 62
7
  6
CONTINUOUS
 10
135.3838775674
 20
130.2389597262
  0
VERTEX
  8
0
 62
7
  6
CONTINUOUS
 10
135.352031325
 20
130.3364895165
  0
VERTEX
  8
0
 62
7
  6
CONTINUOUS
 10
135.3168229181
 20
130.4271283019
  0
VERTEX
  8
0
 62
7
  6
CONTINUOUS
 10
135.2757374715
 20
130.5141184393
  0
VERTEX
  8
0
 62
7
  6
CONTINUOUS
 10
135.2251128103
 20
130.5998880556
  0
VERTEX
  8
0
 62
7
  6
CONTINUOUS
 10
135.1599140607
 20
130.6853628343
  0
VERTEX
  8
0
 62
7
  6
CONTINUOUS
 10
135.0752833867
 20
130.7676852787
  0
VERTEX
  8
0
 62
7
  6
CONTINUOUS
 10
134.9694623648
 20
130.8396743442
  0
VERTEX
  8
0
 62
7
  6
CONTINUOUS
 10
134.845123877
 20
130.8928382748
  0
VERTEX
  8
0
 62
7
  6
CONTINUOUS
 10
134.7090627261
 20
130.9205943511
  0
VERTEX
  8
0
 62
7
  6
CONTINUOUS
 10
134.6406161443
 20
130.9239762047
  0
SEQEND
  0
LINE
  8
0
 62
7
  6
CONTINUOUS
 10
135.542961442
 20
129.4536809327
 11
135.5270566575
 21
129.5584082747
  0
POLYLINE
  8
0
 62
7
  6
CONTINUOUS
 66
1
 70
0
  0
VERTEX
  8
0
 62
7
  6
CONTINUOUS
 10
136.5992014439
 20
125.2666002041
  0
VERTEX
  8
0
 62
7
  6
CONTINUOUS
 10
136.5273236301
 20
125.8183933255
  0
VERTEX
  8
0
 62
7
  6
CONTINUOUS
 10
136.4325947788
 20
126.4182182524
  0
VERTEX
  8
0
 62
7
  6
CONTINUOUS
 10
136.3219072478
 20
127.0008290579
  0
VERTEX
  8
0
 62
7
  6
CONTINUOUS
 10
136.1952190142
 20
127.5612200797
  0
VERTEX
  8
0
 62
7
  6
CONTINUOUS
 10
136.0525142684
 20
128.0945562819
  0
VERTEX
  8
0
 62
7
  6
CONTINUOUS
 10
135.8937458665
 20
128.5961807623
  0
VERTEX
  8
0
 62
7
  6
CONTINUOUS
 10
135.7186813284
 20
129.0617938031
  0
SEQEND
  0
POLYLINE
  8
0
 62
7
  6
CONTINUOUS
 66
1
 70
0
  0
VERTEX
  8
0
 62
7
  6
CONTINUOUS
 10
145.1725486029
 20
119.4384025248
  0
VERTEX
  8
0
 62
7
  6
CONTINUOUS
 10
145.1763955959
 20
119.1567848362
  0
VERTEX
  8
0
 62
7
  6
CONTINUOUS
 10
145.1767493686
 20
119.0895038493
  0
VERTEX
  8
0
 62
7
  6
CONTINUOUS
 10
145.1761513037
 20
119.0231436124
  0
VERTEX
  8
0
 62
7
  6
CONTINUOUS
 10
145.174513703
 20
118.957754858
  0
VERTEX
  8
0
 62
7
  6
CONTINUOUS
 10
145.1717326047
 20
118.893386113
  0
VERTEX
  8
0
 62
7
  6
CONTINUOUS
 10
145.1676991286
 20
118.8300389746
  0
VERTEX
  8
0
 62
7
  6
CONTINUOUS
 10
145.1623150278
 20
118.7677344777
  0
VERTEX
  8
0
 62
7
  6
CONTINUOUS
 10
145.1554842492
 20
118.7065873896
  0
VERTEX
  8
0
 62
7
  6
CONTINUOUS
 10
145.1471159349
 20
118.6468753385
  0
VERTEX
  8
0
 62
7
  6
CONTINUOUS
 10
145.1370712025
 20
118.5884583206
  0
VERTEX
  8
0
 62
7
  6
CONTINUOUS
 10
145.1252327169
 20
118.5312122377
  0
VERTEX
  8
0
 62
7
  6
CONTINUOUS
 10
145.1113914998
 20
118.4753604269
  0
VERTEX
  8
0
 62
7
  6
CONTINUOUS
 10
145.0953551421
 20
118.4213755211
  0
VERTEX
  8
0
 62
7
  6
CONTINUOUS
 10
145.076783346
 20
118.3702408446
  0
VERTEX
  8
0
 62
7
  6
CONTINUOUS
 10
145.0549354162
 20
118.3212219897
  0
VERTEX
  8
0
 62
7
  6
CONTINUOUS
 10
145.029758414
 20
118.2750185657
  0
VERTEX
  8
0
 62
7
  6
CONTINUOUS
 10
145.0011943266
 20
118.2323411486
  0
VERTEX
  8
0
 62
7
  6
CONTINUOUS
 10
144.9692752292
 20
118.1939618912
  0
VERTEX
  8
0
 62
7
  6
CONTINUOUS
 10
144.9339491611
 20
118.1606381782
  0
VERTEX
  8
0
 62
7
  6
CONTINUOUS
 10
144.8956235763
 20
118.1335872674
  0
VERTEX
  8
0
 62
7
  6
CONTINUOUS
 10
144.8548913644
 20
118.1141508162
  0
VERTEX
  8
0
 62
7
  6
CONTINUOUS
 10
144.8135830232
 20
118.1040395316
  0
VERTEX
  8
0
 62
7
  6
CONTINUOUS
 10
144.7939922609
 20
118.1027848289
  0
SEQEND
  0
POLYLINE
  8
0
 62
7
  6
CONTINUOUS
 66
1
 70
0
  0
VERTEX
  8
0
 62
7
  6
CONTINUOUS
 10
144.996262291
 20
74.6135177914
  0
VERTEX
  8
0
 62
7
  6
CONTINUOUS
 10
144.9924147224
 20
74.8952418557
  0
VERTEX
  8
0
 62
7
  6
CONTINUOUS
 10
144.992115781
 20
74.9623760048
  0
VERTEX
  8
0
 62
7
  6
CONTINUOUS
 10
144.9927706486
 20
75.0285915383
  0
VERTEX
  8
0
 62
7
  6
CONTINUOUS
 10
144.9944677887
 20
75.0938368538
  0
VERTEX
  8
0
 62
7
  6
CONTINUOUS
 10
144.9973120016
 20
75.1580675695
  0
VERTEX
  8
0
 62
7
  6
CONTINUOUS
 10
145.0014114558
 20
75.2212837149
  0
VERTEX
  8
0
 62
7
  6
CONTINUOUS
 10
145.0068638032
 20
75.2834624732
  0
VERTEX
  8
0
 62
7
  6
CONTINUOUS
 10
145.0137646138
 20
75.3444785059
  0
VERTEX
  8
0
 62
7
  6
CONTINUOUS
 10
145.0222118409
 20
75.4040793044
  0
VERTEX
  8
0
 62
7
  6
CONTINUOUS
 10
145.0323342579
 20
75.4623999156
  0
VERTEX
  8
0
 62
7
  6
CONTINUOUS
 10
145.0442463999
 20
75.5194698423
  0
VERTEX
  8
0
 62
7
  6
CONTINUOUS
 10
145.0582007465
 20
75.5752891453
  0
VERTEX
  8
0
 62
7
  6
CONTINUOUS
 10
145.0743022662
 20
75.629027722
  0
VERTEX
  8
0
 62
7
  6
CONTINUOUS
 10
145.0929895033
 20
75.6799751039
  0
VERTEX
  8
0
 62
7
  6
CONTINUOUS
 10
145.1149756178
 20
75.7288615084
  0
VERTEX
  8
0
 62
7
  6
CONTINUOUS
 10
145.1402764366
 20
75.7748796873
  0
VERTEX
  8
0
 62
7
  6
CONTINUOUS
 10
145.1689639439
 20
75.8173535056
  0
VERTEX
  8
0
 62
7
  6
CONTINUOUS
 10
145.2009999384
 20
75.8555015832
  0
VERTEX
  8
0
 62
7
  6
CONTINUOUS
 10
145.2364490591
 20
75.8885759096
  0
VERTEX
  8
0
 62
7
  6
CONTINUOUS
 10
145.2748859812
 20
75.9153368642
  0
VERTEX
  8
0
 62
7
  6
CONTINUOUS
 10
145.3156895294
 20
75.9344190798
  0
VERTEX
  8
0
 62
7
  6
CONTINUOUS
 10
145.357002152
 20
75.9441185844
  0
VERTEX
  8
0
 62
7
  6
CONTINUOUS
 10
145.3746917241
 20
75.9451671997
  0
SEQEND
  0
LINE
  8
0
 62
7
  6
CONTINUOUS
 10
144.9987043456
 20
74.3305036224
 11
144.996262291
 21
74.6135177914
  0
LINE
  8
0
 62
7
  6
CONTINUOUS
 10
145.1701326285
 20
119.7214242615
 11
145.1725486029
 21
119.4384025248
  0
LINE
  8
0
 62
7
  6
CONTINUOUS
 10
144.9987043456
 20
74.3305036224
 11
144.9992607225
 21
68.7824026818
  0
LINE
  8
0
 62
7
  6
CONTINUOUS
 10
145.1695970362
 20
125.2655123871
 11
145.1701326285
 21
119.7214242615
  0
LINE
  8
0
 62
7
  6
CONTINUOUS
 10
144.9992607224
 20
68.7823705688
 11
144.9992013964
 21
68.7813625317
  0
LINE
  8
0
 62
7
  6
CONTINUOUS
 10
143.9270567931
 20
64.4895451814
 11
143.9429591675
 21
64.5942707264
  0
POLYLINE
  8
0
 62
7
  6
CONTINUOUS
 66
1
 70
0
  0
VERTEX
  8
0
 62
7
  6
CONTINUOUS
 10
163.0299597055
 20
129.4627430249
  0
VERTEX
  8
0
 62
7
  6
CONTINUOUS
 10
162.8501764303
 20
129.0617938031
  0
VERTEX
  8
0
 62
7
  6
CONTINUOUS
 10
162.6751118921
 20
128.5961807623
  0
VERTEX
  8
0
 62
7
  6
CONTINUOUS
 10
162.5163434902
 20
128.0945562819
  0
VERTEX
  8
0
 62
7
  6
CONTINUOUS
 10
162.3736387444
 20
127.5612200797
  0
VERTEX
  8
0
 62
7
  6
CONTINUOUS
 10
162.2469505108
 20
127.0008290579
  0
VERTEX
  8
0
 62
7
  6
CONTINUOUS
 10
162.1362629798
 20
126.4182182524
  0
VERTEX
  8
0
 62
7
  6
CONTINUOUS
 10
162.0415341285
 20
125.8183933255
  0
VERTEX
  8
0
 62
7
  6
CONTINUOUS
 10
161.9696563148
 20
125.2666002041
  0
SEQEND
  0
POLYLINE
  8
0
 62
7
  6
CONTINUOUS
 66
1
 70
0
  0
VERTEX
  8
0
 62
7
  6
CONTINUOUS
 10
128.1992013964
 20
68.7813625317
  0
VERTEX
  8
0
 62
7
  6
CONTINUOUS
 10
128.193389696
 20
68.7727656337
  0
VERTEX
  8
0
 62
7
  6
CONTINUOUS
 10
128.174302943
 20
68.7639723152
  0
VERTEX
  8
0
 62
7
  6
CONTINUOUS
 10
128.1431016959
 20
68.7572438725
  0
VERTEX
  8
0
 62
7
  6
CONTINUOUS
 10
128.1017831501
 20
68.7529241691
  0
VERTEX
  8
0
 62
7
  6
CONTINUOUS
 10
128.0530868039
 20
68.7511352825
  0
VERTEX
  8
0
 62
7
  6
CONTINUOUS
 10
127.9992607225
 20
68.7516949698
  0
SEQEND
  0
POLYLINE
  8
0
 62
7
  6
CONTINUOUS
 66
1
 70
0
  0
VERTEX
  8
0
 62
7
  6
CONTINUOUS
 10
220.3939929748
 20
75.9451677536
  0
VERTEX
  8
0
 62
7
  6
CONTINUOUS
 10
220.4135581929
 20
75.943916242
  0
VERTEX
  8
0
 62
7
  6
CONTINUOUS
 10
220.4548712863
 20
75.9338094119
  0
VERTEX
  8
0
 62
7
  6
CONTINUOUS
 10
220.4956065556
 20
75.9143757201
  0
VERTEX
  8
0
 62
7
  6
CONTINUOUS
 10
220.5339396984
 20
75.8873222372
  0
VERTEX
  8
0
 62
7
  6
CONTINUOUS
 10
220.5692725581
 20
75.8539936262
  0
VERTEX
  8
0
 62
7
  6
CONTINUOUS
 10
220.6011933232
 20
75.8156133251
  0
VERTEX
  8
0
 62
7
  6
CONTINUOUS
 10
220.6297578919
 20
75.7729358106
  0
VERTEX
  8
0
 62
7
  6
CONTINUOUS
 10
220.6549351236
 20
75.7267284991
  0
VERTEX
  8
0
 62
7
  6
CONTINUOUS
 10
220.6767926842
 20
75.677693174
  0
VERTEX
  8
0
 62
7
  6
CONTINUOUS
 10
220.695359821
 20
75.6265750311
  0
VERTEX
  8
0
 62
7
  6
CONTINUOUS
 10
220.711377422
 20
75.5726207219
  0
VERTEX
  8
0
 62
7
  6
CONTINUOUS
 10
220.7252451498
 20
75.5166875844
  0
VERTEX
  8
0
 62
7
  6
CONTINUOUS
 10
220.7370750767
 20
75.4594788486
  0
VERTEX
  8
0
 62
7
  6
CONTINUOUS
 10
220.74711994
 20
75.4010446527
  0
VERTEX
  8
0
 62
7
  6
CONTINUOUS
 10
220.7554902582
 20
75.3413206441
  0
VERTEX
  8
0
 62
7
  6
CONTINUOUS
 10
220.7623198749
 20
75.2801691202
  0
VERTEX
  8
0
 62
7
  6
CONTINUOUS
 10
220.7677033107
 20
75.2178574357
  0
VERTEX
  8
0
 62
7
  6
CONTINUOUS
 10
220.7717358672
 20
75.1545047668
  0
VERTEX
  8
0
 62
7
  6
CONTINUOUS
 10
220.7745160832
 20
75.0901295997
  0
VERTEX
  8
0
 62
7
  6
CONTINUOUS
 10
220.7761525687
 20
75.0247352786
  0
VERTEX
  8
0
 62
7
  6
CONTINUOUS
 10
220.7767494255
 20
74.9583684338
  0
VERTEX
  8
0
 62
7
  6
CONTINUOUS
 10
220.7763945692
 20
74.8910800915
  0
SEQEND
  0
POLYLINE
  8
0
 62
7
  6
CONTINUOUS
 66
1
 70
0
  0
VERTEX
  8
0
 62
7
  6
CONTINUOUS
 10
154.6417999732
 20
64.4895515466
  0
VERTEX
  8
0
 62
7
  6
CONTINUOUS
 10
154.6676059085
 20
64.3326734082
  0
VERTEX
  8
0
 62
7
  6
CONTINUOUS
 10
154.6965988259
 20
64.1759484631
  0
VERTEX
  8
0
 62
7
  6
CONTINUOUS
 10
154.7255543565
 20
64.0384222538
  0
VERTEX
  8
0
 62
7
  6
CONTINUOUS
 10
154.7548153068
 20
63.9171253103
  0
VERTEX
  8
0
 62
7
  6
CONTINUOUS
 10
154.7849378969
 20
63.8091332807
  0
VERTEX
  8
0
 62
7
  6
CONTINUOUS
 10
154.8168515281
 20
63.7113923775
  0
VERTEX
  8
0
 62
7
  6
CONTINUOUS
 10
154.8521494202
 20
63.6205555109
  0
VERTEX
  8
0
 62
7
  6
CONTINUOUS
 10
154.8933748913
 20
63.5333489231
  0
VERTEX
  8
0
 62
7
  6
CONTINUOUS
 10
154.9442309139
 20
63.4473345973
  0
VERTEX
  8
0
 62
7
  6
CONTINUOUS
 10
155.0098023718
 20
63.3616111761
  0
VERTEX
  8
0
 62
7
  6
CONTINUOUS
 10
155.0949690631
 20
63.2791201392
  0
VERTEX
  8
0
 62
7
  6
CONTINUOUS
 10
155.2014253152
 20
63.2071631421
  0
VERTEX
  8
0
 62
7
  6
CONTINUOUS
 10
155.3264367492
 20
63.1542730452
  0
VERTEX
  8
0
 62
7
  6
CONTINUOUS
 10
155.4631760053
 20
63.1270304041
  0
VERTEX
  8
0
 62
7
  6
CONTINUOUS
 10
155.5282404873
 20
63.1239763803
  0
SEQEND
  0
LINE
  8
0
 62
7
  6
CONTINUOUS
 10
154.6258985912
 20
64.5942707261
 11
154.6418009655
 21
64.4895451814
  0
POLYLINE
  8
0
 62
7
  6
CONTINUOUS
 66
1
 70
0
  0
VERTEX
  8
0
 62
7
  6
CONTINUOUS
 10
153.5696563114
 20
68.7813524103
  0
VERTEX
  8
0
 62
7
  6
CONTINUOUS
 10
153.6410335665
 20
68.2330610279
  0
VERTEX
  8
0
 62
7
  6
CONTINUOUS
 10
153.7356830278
 20
67.6330796125
  0
VERTEX
  8
0
 62
7
  6
CONTINUOUS
 10
153.8462936327
 20
67.050292648
  0
VERTEX
  8
0
 62
7
  6
CONTINUOUS
 10
153.9729075189
 20
66.4897069817
  0
VERTEX
  8
0
 62
7
  6
CONTINUOUS
 10
154.1155402733
 20
65.9561593034
  0
VERTEX
  8
0
 62
7
  6
CONTINUOUS
 10
154.2742381975
 20
65.4543089253
  0
VERTEX
  8
0
 62
7
  6
CONTINUOUS
 10
154.4492319791
 20
64.98845832
  0
SEQEND
  0
LINE
  8
0
 62
7
  6
CONTINUOUS
 10
153.569656341
 20
68.781358276
 11
153.5695970391
 21
68.7823781876
  0
LINE
  8
0
 62
7
  6
CONTINUOUS
 10
153.3992014143
 20
125.2665943384
 11
153.3992607195
 21
125.2655743986
  0
POLYLINE
  8
0
 62
7
  6
CONTINUOUS
 66
1
 70
0
  0
VERTEX
  8
0
 62
7
  6
CONTINUOUS
 10
153.3924154995
 20
119.1527250558
  0
VERTEX
  8
0
 62
7
  6
CONTINUOUS
 10
153.396262694
 20
119.4344386383
  0
VERTEX
  8
0
 62
7
  6
CONTINUOUS
 10
153.3987044378
 20
119.7174508398
  0
VERTEX
  8
0
 62
7
  6
CONTINUOUS
 10
153.3992607225
 20
125.2655123871
  0
SEQEND
  0
POLYLINE
  8
0
 62
7
  6
CONTINUOUS
 66
1
 70
0
  0
VERTEX
  8
0
 62
7
  6
CONTINUOUS
 10
153.5763945692
 20
74.8910800915
  0
VERTEX
  8
0
 62
7
  6
CONTINUOUS
 10
153.5725486032
 20
74.6095500108
  0
VERTEX
  8
0
 62
7
  6
CONTINUOUS
 10
153.5701326287
 20
74.3265283503
  0
VERTEX
  8
0
 62
7
  6
CONTINUOUS
 10
153.5695970362
 20
68.7824401991
  0
SEQEND
  0
LINE
  8
0
 62
7
  6
CONTINUOUS
 10
135.7186813284
 20
129.0617938031
 11
135.5388980532
 21
129.4627430249
  0
POLYLINE
  8
0
 62
7
  6
CONTINUOUS
 66
1
 70
0
  0
VERTEX
  8
0
 62
7
  6
CONTINUOUS
 10
161.9725486029
 20
119.4384025248
  0
VERTEX
  8
0
 62
7
  6
CONTINUOUS
 10
161.9763955959
 20
119.1567848362
  0
VERTEX
  8
0
 62
7
  6
CONTINUOUS
 10
161.9767493686
 20
119.0895038493
  0
VERTEX
  8
0
 62
7
  6
CONTINUOUS
 10
161.9761513037
 20
119.0231436124
  0
VERTEX
  8
0
 62
7
  6
CONTINUOUS
 10
161.974513703
 20
118.957754858
  0
VERTEX
  8
0
 62
7
  6
CONTINUOUS
 10
161.9717326047
 20
118.893386113
  0
VERTEX
  8
0
 62
7
  6
CONTINUOUS
 10
161.9676991286
 20
118.8300389746
  0
VERTEX
  8
0
 62
7
  6
CONTINUOUS
 10
161.9623150278
 20
118.7677344777
  0
VERTEX
  8
0
 62
7
  6
CONTINUOUS
 10
161.9554842492
 20
118.7065873896
  0
VERTEX
  8
0
 62
7
  6
CONTINUOUS
 10
161.9471159349
 20
118.6468753385
  0
VERTEX
  8
0
 62
7
  6
CONTINUOUS
 10
161.9370712025
 20
118.5884583206
  0
VERTEX
  8
0
 62
7
  6
CONTINUOUS
 10
161.9252327169
 20
118.5312122377
  0
VERTEX
  8
0
 62
7
  6
CONTINUOUS
 10
161.9113914998
 20
118.4753604269
  0
VERTEX
  8
0
 62
7
  6
CONTINUOUS
 10
161.8953551421
 20
118.4213755211
  0
VERTEX
  8
0
 62
7
  6
CONTINUOUS
 10
161.876783346
 20
118.3702408446
  0
VERTEX
  8
0
 62
7
  6
CONTINUOUS
 10
161.8549354162
 20
118.3212219897
  0
VERTEX
  8
0
 62
7
  6
CONTINUOUS
 10
161.829758414
 20
118.2750185657
  0
VERTEX
  8
0
 62
7
  6
CONTINUOUS
 10
161.8011943266
 20
118.2323411486
  0
VERTEX
  8
0
 62
7
  6
CONTINUOUS
 10
161.7692752292
 20
118.1939618912
  0
VERTEX
  8
0
 62
7
  6
CONTINUOUS
 10
161.7339491611
 20
118.1606381782
  0
VERTEX
  8
0
 62
7
  6
CONTINUOUS
 10
161.6956235763
 20
118.1335872674
  0
VERTEX
  8
0
 62
7
  6
CONTINUOUS
 10
161.6548913644
 20
118.1141508162
  0
VERTEX
  8
0
 62
7
  6
CONTINUOUS
 10
161.6135830232
 20
118.1040395316
  0
VERTEX
  8
0
 62
7
  6
CONTINUOUS
 10
161.5939922609
 20
118.1027848289
  0
SEQEND
  0
POLYLINE
  8
0
 62
7
  6
CONTINUOUS
 66
1
 70
0
  0
VERTEX
  8
0
 62
7
  6
CONTINUOUS
 10
161.796262291
 20
74.6135177914
  0
VERTEX
  8
0
 62
7
  6
CONTINUOUS
 10
161.7924147224
 20
74.8952418557
  0
VERTEX
  8
0
 62
7
  6
CONTINUOUS
 10
161.792115781
 20
74.9623760048
  0
VERTEX
  8
0
 62
7
  6
CONTINUOUS
 10
161.7927706486
 20
75.0285915383
  0
VERTEX
  8
0
 62
7
  6
CONTINUOUS
 10
161.7944677887
 20
75.0938368538
  0
VERTEX
  8
0
 62
7
  6
CONTINUOUS
 10
161.7973120016
 20
75.1580675695
  0
VERTEX
  8
0
 62
7
  6
CONTINUOUS
 10
161.8014114558
 20
75.2212837149
  0
VERTEX
  8
0
 62
7
  6
CONTINUOUS
 10
161.8068638032
 20
75.2834624732
  0
VERTEX
  8
0
 62
7
  6
CONTINUOUS
 10
161.8137646138
 20
75.3444785059
  0
VERTEX
  8
0
 62
7
  6
CONTINUOUS
 10
161.8222118409
 20
75.4040793044
  0
VERTEX
  8
0
 62
7
  6
CONTINUOUS
 10
161.8323342579
 20
75.4623999156
  0
VERTEX
  8
0
 62
7
  6
CONTINUOUS
 10
161.8442463999
 20
75.5194698423
  0
VERTEX
  8
0
 62
7
  6
CONTINUOUS
 10
161.8582007465
 20
75.5752891453
  0
VERTEX
  8
0
 62
7
  6
CONTINUOUS
 10
161.8743022662
 20
75.629027722
  0
VERTEX
  8
0
 62
7
  6
CONTINUOUS
 10
161.8929895033
 20
75.6799751039
  0
VERTEX
  8
0
 62
7
  6
CONTINUOUS
 10
161.9149756178
 20
75.7288615084
  0
VERTEX
  8
0
 62
7
  6
CONTINUOUS
 10
161.9402764366
 20
75.7748796873
  0
VERTEX
  8
0
 62
7
  6
CONTINUOUS
 10
161.9689639439
 20
75.8173535056
  0
VERTEX
  8
0
 62
7
  6
CONTINUOUS
 10
162.0009999384
 20
75.8555015832
  0
VERTEX
  8
0
 62
7
  6
CONTINUOUS
 10
162.0364490591
 20
75.8885759096
  0
VERTEX
  8
0
 62
7
  6
CONTINUOUS
 10
162.0748859812
 20
75.9153368642
  0
VERTEX
  8
0
 62
7
  6
CONTINUOUS
 10
162.1156895294
 20
75.9344190798
  0
VERTEX
  8
0
 62
7
  6
CONTINUOUS
 10
162.157002152
 20
75.9441185844
  0
VERTEX
  8
0
 62
7
  6
CONTINUOUS
 10
162.1746917241
 20
75.9451671997
  0
SEQEND
  0
LINE
  8
0
 62
7
  6
CONTINUOUS
 10
161.7987043456
 20
74.3305036224
 11
161.796262291
 21
74.6135177914
  0
LINE
  8
0
 62
7
  6
CONTINUOUS
 10
161.9701326285
 20
119.7214242615
 11
161.9725486029
 21
119.4384025248
  0
LINE
  8
0
 62
7
  6
CONTINUOUS
 10
161.7987043456
 20
74.3305036224
 11
161.7992607225
 21
68.7824026818
  0
LINE
  8
DEFAULT_1
 62
2
  6
CENTER
 10
161.8844288793
 20
102.2739762931
 11
161.8844288793
 21
99.0240762931
  0
LINE
  8
DEFAULT_1
 62
40
  6
CENTER
 10
161.8844288793
 20
98.0853877363
 11
161.8844288793
 21
98.0739762931
  0
LINE
  8
0
 62
2
  6
CONTINUOUS
 10
161.8844288793
 20
98.0739762931
 11
161.8844288793
 21
95.9739762931
  0
LINE
  8
DEFAULT_1
 62
40
  6
CENTER
 10
161.8844288793
 20
80.0266080914
 11
161.8844288793
 21
91.7739762931
  0
LINE
  8
DEFAULT_1
 62
40
  6
CENTER
 10
161.8844288793
 20
95.0238762931
 11
161.8844288793
 21
95.9739762931
  0
LINE
  8
DEFAULT_1
 62
2
  6
CENTER
 10
161.8844288793
 20
91.7739762931
 11
161.8844288793
 21
95.0238762931
  0
LINE
  8
DEFAULT_1
 62
40
  6
CENTER
 10
161.8844288793
 20
102.2739762931
 11
161.8844288793
 21
114.0213444401
  0
LINE
  8
0
 62
7
  6
CONTINUOUS
 10
161.9695970362
 20
125.2655123871
 11
161.9701326285
 21
119.7214242615
  0
LINE
  8
0
 62
7
  6
CONTINUOUS
 10
161.9696563443
 20
125.2665943384
 11
161.9695970391
 21
125.2655743986
  0
LINE
  8
0
 62
7
  6
CONTINUOUS
 10
163.0418011011
 20
129.5584082747
 11
163.0258963166
 21
129.4536809327
  0
POLYLINE
  8
0
 62
7
  6
CONTINUOUS
 66
1
 70
0
  0
VERTEX
  8
0
 62
7
  6
CONTINUOUS
 10
143.9388990963
 20
64.5852116874
  0
VERTEX
  8
0
 62
7
  6
CONTINUOUS
 10
144.1196258234
 20
64.9884584269
  0
VERTEX
  8
0
 62
7
  6
CONTINUOUS
 10
144.2946196413
 20
65.4543091581
  0
VERTEX
  8
0
 62
7
  6
CONTINUOUS
 10
144.4533175943
 20
65.9561596782
  0
VERTEX
  8
0
 62
7
  6
CONTINUOUS
 10
144.59595037
 20
66.4897075116
  0
VERTEX
  8
0
 62
7
  6
CONTINUOUS
 10
144.7225642698
 20
67.0502933425
  0
VERTEX
  8
0
 62
7
  6
CONTINUOUS
 10
144.8331748807
 20
67.6330804774
  0
VERTEX
  8
0
 62
7
  6
CONTINUOUS
 10
144.9278243404
 20
68.2330620658
  0
VERTEX
  8
0
 62
7
  6
CONTINUOUS
 10
144.9992014472
 20
68.7813524103
  0
SEQEND
  0
LINE
  8
DEFAULT_1
 62
2
  6
CENTER
 10
167.1344288793
 20
97.0239762931
 11
163.8845288793
 21
97.0239762931
  0
LINE
  8
0
 62
2
  6
CONTINUOUS
 10
162.9344288793
 20
97.0239762931
 11
160.8344288793
 21
97.0239762931
  0
LINE
  8
DEFAULT_1
 62
2
  6
CENTER
 10
156.6344288793
 20
97.0239762931
 11
159.8843288793
 21
97.0239762931
  0
LINE
  8
0
 62
7
  6
CONTINUOUS
 10
171.2492319791
 20
64.98845832
 11
171.4299586623
 21
64.5852116874
  0
POLYLINE
  8
0
 62
7
  6
CONTINUOUS
 66
1
 70
0
  0
VERTEX
  8
0
 62
7
  6
CONTINUOUS
 10
152.3270576907
 20
129.5584016475
  0
VERTEX
  8
0
 62
7
  6
CONTINUOUS
 10
152.301011456
 20
129.7166614197
  0
VERTEX
  8
0
 62
7
  6
CONTINUOUS
 10
152.2720627466
 20
129.8729979778
  0
VERTEX
  8
0
 62
7
  6
CONTINUOUS
 10
152.243154088
 20
130.0101930627
  0
VERTEX
  8
0
 62
7
  6
CONTINUOUS
 10
152.2139436613
 20
130.1312084913
  0
VERTEX
  8
0
 62
7
  6
CONTINUOUS
 10
152.1838775674
 20
130.2389597262
  0
VERTEX
  8
0
 62
7
  6
CONTINUOUS
 10
152.152031325
 20
130.3364895165
  0
VERTEX
  8
0
 62
7
  6
CONTINUOUS
 10
152.1168229181
 20
130.4271283019
  0
VERTEX
  8
0
 62
7
  6
CONTINUOUS
 10
152.0757374715
 20
130.5141184393
  0
VERTEX
  8
0
 62
7
  6
CONTINUOUS
 10
152.0251128103
 20
130.5998880556
  0
VERTEX
  8
0
 62
7
  6
CONTINUOUS
 10
151.9599140607
 20
130.6853628343
  0
VERTEX
  8
0
 62
7
  6
CONTINUOUS
 10
151.8752833867
 20
130.7676852787
  0
VERTEX
  8
0
 62
7
  6
CONTINUOUS
 10
151.7694623648
 20
130.8396743442
  0
VERTEX
  8
0
 62
7
  6
CONTINUOUS
 10
151.645123877
 20
130.8928382748
  0
VERTEX
  8
0
 62
7
  6
CONTINUOUS
 10
151.5090627261
 20
130.9205943511
  0
VERTEX
  8
0
 62
7
  6
CONTINUOUS
 10
151.4406161443
 20
130.9239762047
  0
SEQEND
  0
LINE
  8
0
 62
7
  6
CONTINUOUS
 10
152.342961442
 20
129.4536809327
 11
152.3270566575
 21
129.5584082747
  0
POLYLINE
  8
0
 62
7
  6
CONTINUOUS
 66
1
 70
0
  0
VERTEX
  8
0
 62
7
  6
CONTINUOUS
 10
153.3992014439
 20
125.2666002041
  0
VERTEX
  8
0
 62
7
  6
CONTINUOUS
 10
153.3273236301
 20
125.8183933255
  0
VERTEX
  8
0
 62
7
  6
CONTINUOUS
 10
153.2325947788
 20
126.4182182524
  0
VERTEX
  8
0
 62
7
  6
CONTINUOUS
 10
153.1219072478
 20
127.0008290579
  0
VERTEX
  8
0
 62
7
  6
CONTINUOUS
 10
152.9952190142
 20
127.5612200797
  0
VERTEX
  8
0
 62
7
  6
CONTINUOUS
 10
152.8525142684
 20
128.0945562819
  0
VERTEX
  8
0
 62
7
  6
CONTINUOUS
 10
152.6937458665
 20
128.5961807623
  0
VERTEX
  8
0
 62
7
  6
CONTINUOUS
 10
152.5186813284
 20
129.0617938031
  0
SEQEND
  0
LINE
  8
0
 62
7
  6
CONTINUOUS
 10
170.369656341
 20
68.781358276
 11
170.3695970391
 21
68.7823781876
  0
LINE
  8
0
 62
7
  6
CONTINUOUS
 10
161.7992607224
 20
68.7823705688
 11
161.7992013964
 21
68.7813625317
  0
LINE
  8
0
 62
7
  6
CONTINUOUS
 10
160.7270567931
 20
64.4895451814
 11
160.7429591675
 21
64.5942707264
  0
POLYLINE
  8
0
 62
7
  6
CONTINUOUS
 66
1
 70
0
  0
VERTEX
  8
0
 62
7
  6
CONTINUOUS
 10
179.8299597055
 20
129.4627430249
  0
VERTEX
  8
0
 62
7
  6
CONTINUOUS
 10
179.6501764303
 20
129.0617938031
  0
VERTEX
  8
0
 62
7
  6
CONTINUOUS
 10
179.4751118921
 20
128.5961807623
  0
VERTEX
  8
0
 62
7
  6
CONTINUOUS
 10
179.3163434902
 20
128.0945562819
  0
VERTEX
  8
0
 62
7
  6
CONTINUOUS
 10
179.1736387444
 20
127.5612200797
  0
VERTEX
  8
0
 62
7
  6
CONTINUOUS
 10
179.0469505108
 20
127.0008290579
  0
VERTEX
  8
0
 62
7
  6
CONTINUOUS
 10
178.9362629798
 20
126.4182182524
  0
VERTEX
  8
0
 62
7
  6
CONTINUOUS
 10
178.8415341285
 20
125.8183933255
  0
VERTEX
  8
0
 62
7
  6
CONTINUOUS
 10
178.7696563148
 20
125.2666002041
  0
SEQEND
  0
POLYLINE
  8
0
 62
7
  6
CONTINUOUS
 66
1
 70
0
  0
VERTEX
  8
0
 62
7
  6
CONTINUOUS
 10
144.9992013964
 20
68.7813625317
  0
VERTEX
  8
0
 62
7
  6
CONTINUOUS
 10
144.993389696
 20
68.7727656337
  0
VERTEX
  8
0
 62
7
  6
CONTINUOUS
 10
144.974302943
 20
68.7639723152
  0
VERTEX
  8
0
 62
7
  6
CONTINUOUS
 10
144.9431016959
 20
68.7572438725
  0
VERTEX
  8
0
 62
7
  6
CONTINUOUS
 10
144.9017831501
 20
68.7529241691
  0
VERTEX
  8
0
 62
7
  6
CONTINUOUS
 10
144.8530868039
 20
68.7511352825
  0
VERTEX
  8
0
 62
7
  6
CONTINUOUS
 10
144.7992607225
 20
68.7516949698
  0
SEQEND
  0
LINE
  8
0
 62
7
  6
CONTINUOUS
 10
152.5186813284
 20
129.0617938031
 11
152.3388980532
 21
129.4627430249
  0
POLYLINE
  8
0
 62
7
  6
CONTINUOUS
 66
1
 70
0
  0
VERTEX
  8
0
 62
7
  6
CONTINUOUS
 10
171.4417999732
 20
64.4895515466
  0
VERTEX
  8
0
 62
7
  6
CONTINUOUS
 10
171.4676059085
 20
64.3326734082
  0
VERTEX
  8
0
 62
7
  6
CONTINUOUS
 10
171.4965988259
 20
64.1759484631
  0
VERTEX
  8
0
 62
7
  6
CONTINUOUS
 10
171.5255543565
 20
64.0384222538
  0
VERTEX
  8
0
 62
7
  6
CONTINUOUS
 10
171.5548153068
 20
63.9171253103
  0
VERTEX
  8
0
 62
7
  6
CONTINUOUS
 10
171.5849378969
 20
63.8091332807
  0
VERTEX
  8
0
 62
7
  6
CONTINUOUS
 10
171.6168515281
 20
63.7113923775
  0
VERTEX
  8
0
 62
7
  6
CONTINUOUS
 10
171.6521494202
 20
63.6205555109
  0
VERTEX
  8
0
 62
7
  6
CONTINUOUS
 10
171.6933748913
 20
63.5333489231
  0
VERTEX
  8
0
 62
7
  6
CONTINUOUS
 10
171.7442309139
 20
63.4473345973
  0
VERTEX
  8
0
 62
7
  6
CONTINUOUS
 10
171.8098023718
 20
63.3616111761
  0
VERTEX
  8
0
 62
7
  6
CONTINUOUS
 10
171.8949690631
 20
63.2791201392
  0
VERTEX
  8
0
 62
7
  6
CONTINUOUS
 10
172.0014253152
 20
63.2071631421
  0
VERTEX
  8
0
 62
7
  6
CONTINUOUS
 10
172.1264367492
 20
63.1542730452
  0
VERTEX
  8
0
 62
7
  6
CONTINUOUS
 10
172.2631760053
 20
63.1270304041
  0
VERTEX
  8
0
 62
7
  6
CONTINUOUS
 10
172.3275247078
 20
63.1239766348
  0
SEQEND
  0
LINE
  8
0
 62
7
  6
CONTINUOUS
 10
171.4258985912
 20
64.5942707261
 11
171.4418009655
 21
64.4895451814
  0
POLYLINE
  8
0
 62
7
  6
CONTINUOUS
 66
1
 70
0
  0
VERTEX
  8
0
 62
7
  6
CONTINUOUS
 10
170.3696563114
 20
68.7813524103
  0
VERTEX
  8
0
 62
7
  6
CONTINUOUS
 10
170.4410335665
 20
68.2330610279
  0
VERTEX
  8
0
 62
7
  6
CONTINUOUS
 10
170.5356830278
 20
67.6330796125
  0
VERTEX
  8
0
 62
7
  6
CONTINUOUS
 10
170.6462936327
 20
67.050292648
  0
VERTEX
  8
0
 62
7
  6
CONTINUOUS
 10
170.7729075189
 20
66.4897069817
  0
VERTEX
  8
0
 62
7
  6
CONTINUOUS
 10
170.9155402733
 20
65.9561593034
  0
VERTEX
  8
0
 62
7
  6
CONTINUOUS
 10
171.0742381975
 20
65.4543089253
  0
VERTEX
  8
0
 62
7
  6
CONTINUOUS
 10
171.2492319791
 20
64.98845832
  0
SEQEND
  0
LINE
  8
0
 62
7
  6
CONTINUOUS
 10
170.1992014143
 20
125.2665943384
 11
170.1992607195
 21
125.2655743986
  0
POLYLINE
  8
0
 62
7
  6
CONTINUOUS
 66
1
 70
0
  0
VERTEX
  8
0
 62
7
  6
CONTINUOUS
 10
170.1924154995
 20
119.1527250558
  0
VERTEX
  8
0
 62
7
  6
CONTINUOUS
 10
170.196262694
 20
119.4344386383
  0
VERTEX
  8
0
 62
7
  6
CONTINUOUS
 10
170.1987044378
 20
119.7174508398
  0
VERTEX
  8
0
 62
7
  6
CONTINUOUS
 10
170.1992607225
 20
125.2655123871
  0
SEQEND
  0
POLYLINE
  8
0
 62
7
  6
CONTINUOUS
 66
1
 70
0
  0
VERTEX
  8
0
 62
7
  6
CONTINUOUS
 10
170.3763945692
 20
74.8910800915
  0
VERTEX
  8
0
 62
7
  6
CONTINUOUS
 10
170.3725486032
 20
74.6095500108
  0
VERTEX
  8
0
 62
7
  6
CONTINUOUS
 10
170.3701326287
 20
74.3265283503
  0
VERTEX
  8
0
 62
7
  6
CONTINUOUS
 10
170.3695970362
 20
68.7824401991
  0
SEQEND
  0
LINE
  8
0
 62
7
  6
CONTINUOUS
 10
179.8418011011
 20
129.5584082747
 11
179.8258963166
 21
129.4536809327
  0
POLYLINE
  8
0
 62
7
  6
CONTINUOUS
 66
1
 70
0
  0
VERTEX
  8
0
 62
7
  6
CONTINUOUS
 10
160.7388990963
 20
64.5852116874
  0
VERTEX
  8
0
 62
7
  6
CONTINUOUS
 10
160.9196258234
 20
64.9884584269
  0
VERTEX
  8
0
 62
7
  6
CONTINUOUS
 10
161.0946196413
 20
65.4543091581
  0
VERTEX
  8
0
 62
7
  6
CONTINUOUS
 10
161.2533175943
 20
65.9561596782
  0
VERTEX
  8
0
 62
7
  6
CONTINUOUS
 10
161.39595037
 20
66.4897075116
  0
VERTEX
  8
0
 62
7
  6
CONTINUOUS
 10
161.5225642698
 20
67.0502933425
  0
VERTEX
  8
0
 62
7
  6
CONTINUOUS
 10
161.6331748807
 20
67.6330804774
  0
VERTEX
  8
0
 62
7
  6
CONTINUOUS
 10
161.7278243404
 20
68.2330620658
  0
VERTEX
  8
0
 62
7
  6
CONTINUOUS
 10
161.7992014472
 20
68.7813524103
  0
SEQEND
  0
LINE
  8
0
 62
7
  6
CONTINUOUS
 10
188.0492319791
 20
64.98845832
 11
188.2299586623
 21
64.5852116874
  0
POLYLINE
  8
0
 62
7
  6
CONTINUOUS
 66
1
 70
0
  0
VERTEX
  8
0
 62
7
  6
CONTINUOUS
 10
169.1270576907
 20
129.5584016475
  0
VERTEX
  8
0
 62
7
  6
CONTINUOUS
 10
169.101011456
 20
129.7166614197
  0
VERTEX
  8
0
 62
7
  6
CONTINUOUS
 10
169.0720627466
 20
129.8729979778
  0
VERTEX
  8
0
 62
7
  6
CONTINUOUS
 10
169.043154088
 20
130.0101930627
  0
VERTEX
  8
0
 62
7
  6
CONTINUOUS
 10
169.0139436613
 20
130.1312084913
  0
VERTEX
  8
0
 62
7
  6
CONTINUOUS
 10
168.9838775674
 20
130.2389597262
  0
VERTEX
  8
0
 62
7
  6
CONTINUOUS
 10
168.952031325
 20
130.3364895165
  0
VERTEX
  8
0
 62
7
  6
CONTINUOUS
 10
168.9168229181
 20
130.4271283019
  0
VERTEX
  8
0
 62
7
  6
CONTINUOUS
 10
168.8757374715
 20
130.5141184393
  0
VERTEX
  8
0
 62
7
  6
CONTINUOUS
 10
168.8251128103
 20
130.5998880556
  0
VERTEX
  8
0
 62
7
  6
CONTINUOUS
 10
168.7599140607
 20
130.6853628343
  0
VERTEX
  8
0
 62
7
  6
CONTINUOUS
 10
168.6752833867
 20
130.7676852787
  0
VERTEX
  8
0
 62
7
  6
CONTINUOUS
 10
168.5694623648
 20
130.8396743442
  0
VERTEX
  8
0
 62
7
  6
CONTINUOUS
 10
168.445123877
 20
130.8928382748
  0
VERTEX
  8
0
 62
7
  6
CONTINUOUS
 10
168.3090627261
 20
130.9205943511
  0
VERTEX
  8
0
 62
7
  6
CONTINUOUS
 10
168.2406161443
 20
130.9239762047
  0
SEQEND
  0
LINE
  8
0
 62
7
  6
CONTINUOUS
 10
169.142961442
 20
129.4536809327
 11
169.1270566575
 21
129.5584082747
  0
POLYLINE
  8
0
 62
7
  6
CONTINUOUS
 66
1
 70
0
  0
VERTEX
  8
0
 62
7
  6
CONTINUOUS
 10
170.1992014439
 20
125.2666002041
  0
VERTEX
  8
0
 62
7
  6
CONTINUOUS
 10
170.1273236301
 20
125.8183933255
  0
VERTEX
  8
0
 62
7
  6
CONTINUOUS
 10
170.0325947788
 20
126.4182182524
  0
VERTEX
  8
0
 62
7
  6
CONTINUOUS
 10
169.9219072478
 20
127.0008290579
  0
VERTEX
  8
0
 62
7
  6
CONTINUOUS
 10
169.7952190142
 20
127.5612200797
  0
VERTEX
  8
0
 62
7
  6
CONTINUOUS
 10
169.6525142684
 20
128.0945562819
  0
VERTEX
  8
0
 62
7
  6
CONTINUOUS
 10
169.4937458665
 20
128.5961807623
  0
VERTEX
  8
0
 62
7
  6
CONTINUOUS
 10
169.3186813284
 20
129.0617938031
  0
SEQEND
  0
POLYLINE
  8
0
 62
7
  6
CONTINUOUS
 66
1
 70
0
  0
VERTEX
  8
0
 62
7
  6
CONTINUOUS
 10
178.7725486029
 20
119.4384025248
  0
VERTEX
  8
0
 62
7
  6
CONTINUOUS
 10
178.7763955959
 20
119.1567848362
  0
VERTEX
  8
0
 62
7
  6
CONTINUOUS
 10
178.7767493686
 20
119.0895038493
  0
VERTEX
  8
0
 62
7
  6
CONTINUOUS
 10
178.7761513037
 20
119.0231436124
  0
VERTEX
  8
0
 62
7
  6
CONTINUOUS
 10
178.774513703
 20
118.957754858
  0
VERTEX
  8
0
 62
7
  6
CONTINUOUS
 10
178.7717326047
 20
118.893386113
  0
VERTEX
  8
0
 62
7
  6
CONTINUOUS
 10
178.7676991286
 20
118.8300389746
  0
VERTEX
  8
0
 62
7
  6
CONTINUOUS
 10
178.7623150278
 20
118.7677344777
  0
VERTEX
  8
0
 62
7
  6
CONTINUOUS
 10
178.7554842492
 20
118.7065873896
  0
VERTEX
  8
0
 62
7
  6
CONTINUOUS
 10
178.7471159349
 20
118.6468753385
  0
VERTEX
  8
0
 62
7
  6
CONTINUOUS
 10
178.7370712025
 20
118.5884583206
  0
VERTEX
  8
0
 62
7
  6
CONTINUOUS
 10
178.7252327169
 20
118.5312122377
  0
VERTEX
  8
0
 62
7
  6
CONTINUOUS
 10
178.7113914998
 20
118.4753604269
  0
VERTEX
  8
0
 62
7
  6
CONTINUOUS
 10
178.6953551421
 20
118.4213755211
  0
VERTEX
  8
0
 62
7
  6
CONTINUOUS
 10
178.676783346
 20
118.3702408446
  0
VERTEX
  8
0
 62
7
  6
CONTINUOUS
 10
178.6549354162
 20
118.3212219897
  0
VERTEX
  8
0
 62
7
  6
CONTINUOUS
 10
178.629758414
 20
118.2750185657
  0
VERTEX
  8
0
 62
7
  6
CONTINUOUS
 10
178.6011943266
 20
118.2323411486
  0
VERTEX
  8
0
 62
7
  6
CONTINUOUS
 10
178.5692752292
 20
118.1939618912
  0
VERTEX
  8
0
 62
7
  6
CONTINUOUS
 10
178.5339491611
 20
118.1606381782
  0
VERTEX
  8
0
 62
7
  6
CONTINUOUS
 10
178.4956235763
 20
118.1335872674
  0
VERTEX
  8
0
 62
7
  6
CONTINUOUS
 10
178.4548913644
 20
118.1141508162
  0
VERTEX
  8
0
 62
7
  6
CONTINUOUS
 10
178.4135830232
 20
118.1040395316
  0
VERTEX
  8
0
 62
7
  6
CONTINUOUS
 10
178.3939922609
 20
118.1027848289
  0
SEQEND
  0
POLYLINE
  8
0
 62
7
  6
CONTINUOUS
 66
1
 70
0
  0
VERTEX
  8
0
 62
7
  6
CONTINUOUS
 10
178.596262291
 20
74.6135177914
  0
VERTEX
  8
0
 62
7
  6
CONTINUOUS
 10
178.5924147224
 20
74.8952418557
  0
VERTEX
  8
0
 62
7
  6
CONTINUOUS
 10
178.592115781
 20
74.9623760048
  0
VERTEX
  8
0
 62
7
  6
CONTINUOUS
 10
178.5927706486
 20
75.0285915383
  0
VERTEX
  8
0
 62
7
  6
CONTINUOUS
 10
178.5944677887
 20
75.0938368538
  0
VERTEX
  8
0
 62
7
  6
CONTINUOUS
 10
178.5973120016
 20
75.1580675695
  0
VERTEX
  8
0
 62
7
  6
CONTINUOUS
 10
178.6014114558
 20
75.2212837149
  0
VERTEX
  8
0
 62
7
  6
CONTINUOUS
 10
178.6068638032
 20
75.2834624732
  0
VERTEX
  8
0
 62
7
  6
CONTINUOUS
 10
178.6137646138
 20
75.3444785059
  0
VERTEX
  8
0
 62
7
  6
CONTINUOUS
 10
178.6222118409
 20
75.4040793044
  0
VERTEX
  8
0
 62
7
  6
CONTINUOUS
 10
178.6323342579
 20
75.4623999156
  0
VERTEX
  8
0
 62
7
  6
CONTINUOUS
 10
178.6442463999
 20
75.5194698423
  0
VERTEX
  8
0
 62
7
  6
CONTINUOUS
 10
178.6582007465
 20
75.5752891453
  0
VERTEX
  8
0
 62
7
  6
CONTINUOUS
 10
178.6743022662
 20
75.629027722
  0
VERTEX
  8
0
 62
7
  6
CONTINUOUS
 10
178.6929895033
 20
75.6799751039
  0
VERTEX
  8
0
 62
7
  6
CONTINUOUS
 10
178.7149756178
 20
75.7288615084
  0
VERTEX
  8
0
 62
7
  6
CONTINUOUS
 10
178.7402764366
 20
75.7748796873
  0
VERTEX
  8
0
 62
7
  6
CONTINUOUS
 10
178.7689639439
 20
75.8173535056
  0
VERTEX
  8
0
 62
7
  6
CONTINUOUS
 10
178.8009999384
 20
75.8555015832
  0
VERTEX
  8
0
 62
7
  6
CONTINUOUS
 10
178.8364490591
 20
75.8885759096
  0
VERTEX
  8
0
 62
7
  6
CONTINUOUS
 10
178.8748859812
 20
75.9153368642
  0
VERTEX
  8
0
 62
7
  6
CONTINUOUS
 10
178.9156895294
 20
75.9344190798
  0
VERTEX
  8
0
 62
7
  6
CONTINUOUS
 10
178.957002152
 20
75.9441185844
  0
VERTEX
  8
0
 62
7
  6
CONTINUOUS
 10
178.9746917241
 20
75.9451671997
  0
SEQEND
  0
LINE
  8
0
 62
7
  6
CONTINUOUS
 10
178.5987043456
 20
74.3305036224
 11
178.596262291
 21
74.6135177914
  0
LINE
  8
0
 62
7
  6
CONTINUOUS
 10
178.7701326285
 20
119.7214242615
 11
178.7725486029
 21
119.4384025248
  0
LINE
  8
0
 62
7
  6
CONTINUOUS
 10
178.5987043456
 20
74.3305036224
 11
178.5992607225
 21
68.7824026818
  0
LINE
  8
0
 62
7
  6
CONTINUOUS
 10
178.7695970362
 20
125.2655123871
 11
178.7701326285
 21
119.7214242615
  0
LINE
  8
0
 62
7
  6
CONTINUOUS
 10
178.7696563443
 20
125.2665943384
 11
178.7695970391
 21
125.2655743986
  0
LINE
  8
0
 62
7
  6
CONTINUOUS
 10
178.5992607224
 20
68.7823705688
 11
178.5992013964
 21
68.7813625317
  0
POLYLINE
  8
0
 62
7
  6
CONTINUOUS
 66
1
 70
0
  0
VERTEX
  8
0
 62
7
  6
CONTINUOUS
 10
196.6299597055
 20
129.4627430249
  0
VERTEX
  8
0
 62
7
  6
CONTINUOUS
 10
196.4501764303
 20
129.0617938031
  0
VERTEX
  8
0
 62
7
  6
CONTINUOUS
 10
196.2751118921
 20
128.5961807623
  0
VERTEX
  8
0
 62
7
  6
CONTINUOUS
 10
196.1163434902
 20
128.0945562819
  0
VERTEX
  8
0
 62
7
  6
CONTINUOUS
 10
195.9736387444
 20
127.5612200797
  0
VERTEX
  8
0
 62
7
  6
CONTINUOUS
 10
195.8469505108
 20
127.0008290579
  0
VERTEX
  8
0
 62
7
  6
CONTINUOUS
 10
195.7362629798
 20
126.4182182524
  0
VERTEX
  8
0
 62
7
  6
CONTINUOUS
 10
195.6415341285
 20
125.8183933255
  0
VERTEX
  8
0
 62
7
  6
CONTINUOUS
 10
195.5696563148
 20
125.2666002041
  0
SEQEND
  0
POLYLINE
  8
0
 62
7
  6
CONTINUOUS
 66
1
 70
0
  0
VERTEX
  8
0
 62
7
  6
CONTINUOUS
 10
161.7992013964
 20
68.7813625317
  0
VERTEX
  8
0
 62
7
  6
CONTINUOUS
 10
161.793389696
 20
68.7727656337
  0
VERTEX
  8
0
 62
7
  6
CONTINUOUS
 10
161.774302943
 20
68.7639723152
  0
VERTEX
  8
0
 62
7
  6
CONTINUOUS
 10
161.7431016959
 20
68.7572438725
  0
VERTEX
  8
0
 62
7
  6
CONTINUOUS
 10
161.7017831501
 20
68.7529241691
  0
VERTEX
  8
0
 62
7
  6
CONTINUOUS
 10
161.6530868039
 20
68.7511352825
  0
VERTEX
  8
0
 62
7
  6
CONTINUOUS
 10
161.5992607225
 20
68.7516949698
  0
SEQEND
  0
POLYLINE
  8
0
 62
7
  6
CONTINUOUS
 66
1
 70
0
  0
VERTEX
  8
0
 62
7
  6
CONTINUOUS
 10
103.374692692
 20
118.1027854324
  0
VERTEX
  8
0
 62
7
  6
CONTINUOUS
 10
103.3570059854
 20
118.1038337493
  0
VERTEX
  8
0
 62
7
  6
CONTINUOUS
 10
103.3156932634
 20
118.1135328017
  0
VERTEX
  8
0
 62
7
  6
CONTINUOUS
 10
103.2748885404
 20
118.1326149747
  0
VERTEX
  8
0
 62
7
  6
CONTINUOUS
 10
103.2364504638
 20
118.1593760383
  0
VERTEX
  8
0
 62
7
  6
CONTINUOUS
 10
103.2010019093
 20
118.192449925
  0
VERTEX
  8
0
 62
7
  6
CONTINUOUS
 10
103.1689646764
 20
118.2305999929
  0
VERTEX
  8
0
 62
7
  6
CONTINUOUS
 10
103.1402770657
 20
118.2730741142
  0
VERTEX
  8
0
 62
7
  6
CONTINUOUS
 10
103.1149726103
 20
118.3190997834
  0
VERTEX
  8
0
 62
7
  6
CONTINUOUS
 10
103.0929905166
 20
118.3679707751
  0
VERTEX
  8
0
 62
7
  6
CONTINUOUS
 10
103.0743063144
 20
118.4189273989
  0
VERTEX
  8
0
 62
7
  6
CONTINUOUS
 10
103.0581956793
 20
118.4726947719
  0
VERTEX
  8
0
 62
7
  6
CONTINUOUS
 10
103.0442439454
 20
118.5284800262
  0
VERTEX
  8
0
 62
7
  6
CONTINUOUS
 10
103.0323344624
 20
118.5855693249
  0
VERTEX
  8
0
 62
7
  6
CONTINUOUS
 10
103.0222097859
 20
118.6438882591
  0
VERTEX
  8
0
 62
7
  6
CONTINUOUS
 10
103.0137649545
 20
118.7034824443
  0
VERTEX
  8
0
 62
7
  6
CONTINUOUS
 10
103.0068639444
 20
118.7644992925
  0
VERTEX
  8
0
 62
7
  6
CONTINUOUS
 10
103.0014117534
 20
118.826675661
  0
VERTEX
  8
0
 62
7
  6
CONTINUOUS
 10
102.9973126618
 20
118.8898914336
  0
VERTEX
  8
0
 62
7
  6
CONTINUOUS
 10
102.9944685556
 20
118.9541240609
  0
VERTEX
  8
0
 62
7
  6
CONTINUOUS
 10
102.9927712345
 20
119.0193713889
  0
VERTEX
  8
0
 62
7
  6
CONTINUOUS
 10
102.9921164006
 20
119.0855886554
  0
VERTEX
  8
0
 62
7
  6
CONTINUOUS
 10
102.9924154995
 20
119.1527250558
  0
SEQEND
  0
POLYLINE
  8
0
 62
7
  6
CONTINUOUS
 66
1
 70
0
  0
VERTEX
  8
0
 62
7
  6
CONTINUOUS
 10
120.174692692
 20
118.1027854324
  0
VERTEX
  8
0
 62
7
  6
CONTINUOUS
 10
120.1570059854
 20
118.1038337493
  0
VERTEX
  8
0
 62
7
  6
CONTINUOUS
 10
120.1156932634
 20
118.1135328017
  0
VERTEX
  8
0
 62
7
  6
CONTINUOUS
 10
120.0748885404
 20
118.1326149747
  0
VERTEX
  8
0
 62
7
  6
CONTINUOUS
 10
120.0364504638
 20
118.1593760383
  0
VERTEX
  8
0
 62
7
  6
CONTINUOUS
 10
120.0010019093
 20
118.192449925
  0
VERTEX
  8
0
 62
7
  6
CONTINUOUS
 10
119.9689646764
 20
118.2305999929
  0
VERTEX
  8
0
 62
7
  6
CONTINUOUS
 10
119.9402770657
 20
118.2730741142
  0
VERTEX
  8
0
 62
7
  6
CONTINUOUS
 10
119.9149726103
 20
118.3190997834
  0
VERTEX
  8
0
 62
7
  6
CONTINUOUS
 10
119.8929905166
 20
118.3679707751
  0
VERTEX
  8
0
 62
7
  6
CONTINUOUS
 10
119.8743063144
 20
118.4189273989
  0
VERTEX
  8
0
 62
7
  6
CONTINUOUS
 10
119.8581956793
 20
118.4726947719
  0
VERTEX
  8
0
 62
7
  6
CONTINUOUS
 10
119.8442439454
 20
118.5284800262
  0
VERTEX
  8
0
 62
7
  6
CONTINUOUS
 10
119.8323344624
 20
118.5855693249
  0
VERTEX
  8
0
 62
7
  6
CONTINUOUS
 10
119.8222097859
 20
118.6438882591
  0
VERTEX
  8
0
 62
7
  6
CONTINUOUS
 10
119.8137649545
 20
118.7034824443
  0
VERTEX
  8
0
 62
7
  6
CONTINUOUS
 10
119.8068639444
 20
118.7644992925
  0
VERTEX
  8
0
 62
7
  6
CONTINUOUS
 10
119.8014117534
 20
118.826675661
  0
VERTEX
  8
0
 62
7
  6
CONTINUOUS
 10
119.7973126618
 20
118.8898914336
  0
VERTEX
  8
0
 62
7
  6
CONTINUOUS
 10
119.7944685556
 20
118.9541240609
  0
VERTEX
  8
0
 62
7
  6
CONTINUOUS
 10
119.7927712345
 20
119.0193713889
  0
VERTEX
  8
0
 62
7
  6
CONTINUOUS
 10
119.7921164006
 20
119.0855886554
  0
VERTEX
  8
0
 62
7
  6
CONTINUOUS
 10
119.7924154995
 20
119.1527250558
  0
SEQEND
  0
LINE
  8
0
 62
7
  6
CONTINUOUS
 10
187.169656341
 20
68.781358276
 11
187.1695970391
 21
68.7823781876
  0
POLYLINE
  8
0
 62
7
  6
CONTINUOUS
 66
1
 70
0
  0
VERTEX
  8
0
 62
7
  6
CONTINUOUS
 10
186.9924154995
 20
119.1527250558
  0
VERTEX
  8
0
 62
7
  6
CONTINUOUS
 10
186.996262694
 20
119.4344386383
  0
VERTEX
  8
0
 62
7
  6
CONTINUOUS
 10
186.9987044378
 20
119.7174508398
  0
VERTEX
  8
0
 62
7
  6
CONTINUOUS
 10
186.9992607225
 20
125.2655123871
  0
SEQEND
  0
POLYLINE
  8
0
 62
7
  6
CONTINUOUS
 66
1
 70
0
  0
VERTEX
  8
0
 62
7
  6
CONTINUOUS
 10
187.1763945692
 20
74.8910800915
  0
VERTEX
  8
0
 62
7
  6
CONTINUOUS
 10
187.1725486032
 20
74.6095500108
  0
VERTEX
  8
0
 62
7
  6
CONTINUOUS
 10
187.1701326287
 20
74.3265283503
  0
VERTEX
  8
0
 62
7
  6
CONTINUOUS
 10
187.1695970362
 20
68.7824401991
  0
SEQEND
  0
LINE
  8
0
 62
7
  6
CONTINUOUS
 10
177.5270567931
 20
64.4895451814
 11
177.5429591675
 21
64.5942707264
  0
LINE
  8
0
 62
7
  6
CONTINUOUS
 10
228.7951710071
 20
117.8528629369
 11
228.7150610683
 21
117.8525867084
  0
LINE
  8
0
 62
7
  6
CONTINUOUS
 10
211.9951710071
 20
117.8528629369
 11
211.9150610683
 21
117.8525867084
  0
LINE
  8
0
 62
7
  6
CONTINUOUS
 10
195.1951710071
 20
117.8528629369
 11
195.1150610683
 21
117.8525867084
  0
LINE
  8
0
 62
7
  6
CONTINUOUS
 10
178.3951710071
 20
117.8528629369
 11
178.3150610683
 21
117.8525867084
  0
LINE
  8
0
 62
7
  6
CONTINUOUS
 10
161.5951710071
 20
117.8528629369
 11
161.5150610683
 21
117.8525867084
  0
LINE
  8
0
 62
7
  6
CONTINUOUS
 10
144.7951710071
 20
117.8528629369
 11
144.7150610683
 21
117.8525867084
  0
LINE
  8
0
 62
7
  6
CONTINUOUS
 10
127.9951710071
 20
117.8528629369
 11
127.9150610683
 21
117.8525867084
  0
LINE
  8
0
 62
7
  6
CONTINUOUS
 10
111.1951710071
 20
117.8528629369
 11
111.1150610683
 21
117.8525867084
  0
LINE
  8
0
 62
7
  6
CONTINUOUS
 10
94.3951710071
 20
117.8528629369
 11
94.3150610683
 21
117.8525867084
  0
LINE
  8
0
 62
7
  6
CONTINUOUS
 10
228.7939924377
 20
118.1028149586
 11
221.0537972367
 21
118.1025867084
  0
LINE
  8
0
 62
7
  6
CONTINUOUS
 10
211.9939924377
 20
118.1028149586
 11
204.2537972367
 21
118.1025867084
  0
LINE
  8
0
 62
7
  6
CONTINUOUS
 10
195.1939924377
 20
118.1028149586
 11
187.4537972367
 21
118.1025867084
  0
LINE
  8
0
 62
7
  6
CONTINUOUS
 10
178.3939924377
 20
118.1028149586
 11
170.6537972367
 21
118.1025867084
  0
LINE
  8
0
 62
7
  6
CONTINUOUS
 10
161.5939924377
 20
118.1028149586
 11
153.8537972367
 21
118.1025867084
  0
LINE
  8
0
 62
7
  6
CONTINUOUS
 10
144.7939924377
 20
118.1028149586
 11
137.0537972367
 21
118.1025867084
  0
LINE
  8
0
 62
7
  6
CONTINUOUS
 10
127.9939924377
 20
118.1028149586
 11
120.2537972367
 21
118.1025867084
  0
LINE
  8
0
 62
7
  6
CONTINUOUS
 10
111.1939924377
 20
118.1028149586
 11
103.4537972367
 21
118.1025867084
  0
LINE
  8
0
 62
7
  6
CONTINUOUS
 10
94.3939924377
 20
118.1028149586
 11
86.5844288793
 21
118.1025867084
  0
LINE
  8
DEFAULT_1
 62
2
  6
CENTER
 10
95.142048149
 20
122.4239762931
 11
239.3844288793
 21
122.4239762931
  0
LINE
  8
0
 62
7
  6
CONTINUOUS
 10
103.4537972372
 20
118.1025867084
 11
103.3746928574
 21
118.1027851898
  0
LINE
  8
0
 62
7
  6
CONTINUOUS
 10
120.2537972372
 20
118.1025867084
 11
120.1746928574
 21
118.1027851898
  0
LINE
  8
0
 62
7
  6
CONTINUOUS
 10
137.0537972372
 20
118.1025867084
 11
136.9746928574
 21
118.1027851898
  0
LINE
  8
0
 62
7
  6
CONTINUOUS
 10
153.8537972372
 20
118.1025867084
 11
153.7746928574
 21
118.1027851898
  0
LINE
  8
0
 62
7
  6
CONTINUOUS
 10
170.6537972372
 20
118.1025867084
 11
170.5746928574
 21
118.1027851898
  0
LINE
  8
0
 62
7
  6
CONTINUOUS
 10
187.4537972372
 20
118.1025867084
 11
187.3746928574
 21
118.1027851898
  0
LINE
  8
0
 62
7
  6
CONTINUOUS
 10
204.2537972372
 20
118.1025867084
 11
204.1746928574
 21
118.1027851898
  0
LINE
  8
0
 62
7
  6
CONTINUOUS
 10
221.0537972372
 20
118.1025867084
 11
220.9746928574
 21
118.1027851898
  0
POLYLINE
  8
0
 62
7
  6
CONTINUOUS
 66
1
 70
0
  0
VERTEX
  8
0
 62
7
  6
CONTINUOUS
 10
136.974692692
 20
118.1027854324
  0
VERTEX
  8
0
 62
7
  6
CONTINUOUS
 10
136.9570059854
 20
118.1038337493
  0
VERTEX
  8
0
 62
7
  6
CONTINUOUS
 10
136.9156932634
 20
118.1135328017
  0
VERTEX
  8
0
 62
7
  6
CONTINUOUS
 10
136.8748885404
 20
118.1326149747
  0
VERTEX
  8
0
 62
7
  6
CONTINUOUS
 10
136.8364504638
 20
118.1593760383
  0
VERTEX
  8
0
 62
7
  6
CONTINUOUS
 10
136.8010019093
 20
118.192449925
  0
VERTEX
  8
0
 62
7
  6
CONTINUOUS
 10
136.7689646764
 20
118.2305999929
  0
VERTEX
  8
0
 62
7
  6
CONTINUOUS
 10
136.7402770657
 20
118.2730741142
  0
VERTEX
  8
0
 62
7
  6
CONTINUOUS
 10
136.7149726103
 20
118.3190997834
  0
VERTEX
  8
0
 62
7
  6
CONTINUOUS
 10
136.6929905166
 20
118.3679707751
  0
VERTEX
  8
0
 62
7
  6
CONTINUOUS
 10
136.6743063144
 20
118.4189273989
  0
VERTEX
  8
0
 62
7
  6
CONTINUOUS
 10
136.6581956793
 20
118.4726947719
  0
VERTEX
  8
0
 62
7
  6
CONTINUOUS
 10
136.6442439454
 20
118.5284800262
  0
VERTEX
  8
0
 62
7
  6
CONTINUOUS
 10
136.6323344624
 20
118.5855693249
  0
VERTEX
  8
0
 62
7
  6
CONTINUOUS
 10
136.6222097859
 20
118.6438882591
  0
VERTEX
  8
0
 62
7
  6
CONTINUOUS
 10
136.6137649545
 20
118.7034824443
  0
VERTEX
  8
0
 62
7
  6
CONTINUOUS
 10
136.6068639444
 20
118.7644992925
  0
VERTEX
  8
0
 62
7
  6
CONTINUOUS
 10
136.6014117534
 20
118.826675661
  0
VERTEX
  8
0
 62
7
  6
CONTINUOUS
 10
136.5973126618
 20
118.8898914336
  0
VERTEX
  8
0
 62
7
  6
CONTINUOUS
 10
136.5944685556
 20
118.9541240609
  0
VERTEX
  8
0
 62
7
  6
CONTINUOUS
 10
136.5927712345
 20
119.0193713889
  0
VERTEX
  8
0
 62
7
  6
CONTINUOUS
 10
136.5921164006
 20
119.0855886554
  0
VERTEX
  8
0
 62
7
  6
CONTINUOUS
 10
136.5924154995
 20
119.1527250558
  0
SEQEND
  0
POLYLINE
  8
0
 62
7
  6
CONTINUOUS
 66
1
 70
0
  0
VERTEX
  8
0
 62
7
  6
CONTINUOUS
 10
153.774692692
 20
118.1027854324
  0
VERTEX
  8
0
 62
7
  6
CONTINUOUS
 10
153.7570059854
 20
118.1038337493
  0
VERTEX
  8
0
 62
7
  6
CONTINUOUS
 10
153.7156932634
 20
118.1135328017
  0
VERTEX
  8
0
 62
7
  6
CONTINUOUS
 10
153.6748885404
 20
118.1326149747
  0
VERTEX
  8
0
 62
7
  6
CONTINUOUS
 10
153.6364504638
 20
118.1593760383
  0
VERTEX
  8
0
 62
7
  6
CONTINUOUS
 10
153.6010019093
 20
118.192449925
  0
VERTEX
  8
0
 62
7
  6
CONTINUOUS
 10
153.5689646764
 20
118.2305999929
  0
VERTEX
  8
0
 62
7
  6
CONTINUOUS
 10
153.5402770657
 20
118.2730741142
  0
VERTEX
  8
0
 62
7
  6
CONTINUOUS
 10
153.5149726103
 20
118.3190997834
  0
VERTEX
  8
0
 62
7
  6
CONTINUOUS
 10
153.4929905166
 20
118.3679707751
  0
VERTEX
  8
0
 62
7
  6
CONTINUOUS
 10
153.4743063144
 20
118.4189273989
  0
VERTEX
  8
0
 62
7
  6
CONTINUOUS
 10
153.4581956793
 20
118.4726947719
  0
VERTEX
  8
0
 62
7
  6
CONTINUOUS
 10
153.4442439454
 20
118.5284800262
  0
VERTEX
  8
0
 62
7
  6
CONTINUOUS
 10
153.4323344624
 20
118.5855693249
  0
VERTEX
  8
0
 62
7
  6
CONTINUOUS
 10
153.4222097859
 20
118.6438882591
  0
VERTEX
  8
0
 62
7
  6
CONTINUOUS
 10
153.4137649545
 20
118.7034824443
  0
VERTEX
  8
0
 62
7
  6
CONTINUOUS
 10
153.4068639444
 20
118.7644992925
  0
VERTEX
  8
0
 62
7
  6
CONTINUOUS
 10
153.4014117534
 20
118.826675661
  0
VERTEX
  8
0
 62
7
  6
CONTINUOUS
 10
153.3973126618
 20
118.8898914336
  0
VERTEX
  8
0
 62
7
  6
CONTINUOUS
 10
153.3944685556
 20
118.9541240609
  0
VERTEX
  8
0
 62
7
  6
CONTINUOUS
 10
153.3927712345
 20
119.0193713889
  0
VERTEX
  8
0
 62
7
  6
CONTINUOUS
 10
153.3921164006
 20
119.0855886554
  0
VERTEX
  8
0
 62
7
  6
CONTINUOUS
 10
153.3924154995
 20
119.1527250558
  0
SEQEND
  0
POLYLINE
  8
0
 62
7
  6
CONTINUOUS
 66
1
 70
0
  0
VERTEX
  8
0
 62
7
  6
CONTINUOUS
 10
170.574692692
 20
118.1027854324
  0
VERTEX
  8
0
 62
7
  6
CONTINUOUS
 10
170.5570059854
 20
118.1038337493
  0
VERTEX
  8
0
 62
7
  6
CONTINUOUS
 10
170.5156932634
 20
118.1135328017
  0
VERTEX
  8
0
 62
7
  6
CONTINUOUS
 10
170.4748885404
 20
118.1326149747
  0
VERTEX
  8
0
 62
7
  6
CONTINUOUS
 10
170.4364504638
 20
118.1593760383
  0
VERTEX
  8
0
 62
7
  6
CONTINUOUS
 10
170.4010019093
 20
118.192449925
  0
VERTEX
  8
0
 62
7
  6
CONTINUOUS
 10
170.3689646764
 20
118.2305999929
  0
VERTEX
  8
0
 62
7
  6
CONTINUOUS
 10
170.3402770657
 20
118.2730741142
  0
VERTEX
  8
0
 62
7
  6
CONTINUOUS
 10
170.3149726103
 20
118.3190997834
  0
VERTEX
  8
0
 62
7
  6
CONTINUOUS
 10
170.2929905166
 20
118.3679707751
  0
VERTEX
  8
0
 62
7
  6
CONTINUOUS
 10
170.2743063144
 20
118.4189273989
  0
VERTEX
  8
0
 62
7
  6
CONTINUOUS
 10
170.2581956793
 20
118.4726947719
  0
VERTEX
  8
0
 62
7
  6
CONTINUOUS
 10
170.2442439454
 20
118.5284800262
  0
VERTEX
  8
0
 62
7
  6
CONTINUOUS
 10
170.2323344624
 20
118.5855693249
  0
VERTEX
  8
0
 62
7
  6
CONTINUOUS
 10
170.2222097859
 20
118.6438882591
  0
VERTEX
  8
0
 62
7
  6
CONTINUOUS
 10
170.2137649545
 20
118.7034824443
  0
VERTEX
  8
0
 62
7
  6
CONTINUOUS
 10
170.2068639444
 20
118.7644992925
  0
VERTEX
  8
0
 62
7
  6
CONTINUOUS
 10
170.2014117534
 20
118.826675661
  0
VERTEX
  8
0
 62
7
  6
CONTINUOUS
 10
170.1973126618
 20
118.8898914336
  0
VERTEX
  8
0
 62
7
  6
CONTINUOUS
 10
170.1944685556
 20
118.9541240609
  0
VERTEX
  8
0
 62
7
  6
CONTINUOUS
 10
170.1927712345
 20
119.0193713889
  0
VERTEX
  8
0
 62
7
  6
CONTINUOUS
 10
170.1921164006
 20
119.0855886554
  0
VERTEX
  8
0
 62
7
  6
CONTINUOUS
 10
170.1924154995
 20
119.1527250558
  0
SEQEND
  0
POLYLINE
  8
0
 62
7
  6
CONTINUOUS
 66
1
 70
0
  0
VERTEX
  8
0
 62
7
  6
CONTINUOUS
 10
187.374692692
 20
118.1027854324
  0
VERTEX
  8
0
 62
7
  6
CONTINUOUS
 10
187.3570059854
 20
118.1038337493
  0
VERTEX
  8
0
 62
7
  6
CONTINUOUS
 10
187.3156932634
 20
118.1135328017
  0
VERTEX
  8
0
 62
7
  6
CONTINUOUS
 10
187.2748885404
 20
118.1326149747
  0
VERTEX
  8
0
 62
7
  6
CONTINUOUS
 10
187.2364504638
 20
118.1593760383
  0
VERTEX
  8
0
 62
7
  6
CONTINUOUS
 10
187.2010019093
 20
118.192449925
  0
VERTEX
  8
0
 62
7
  6
CONTINUOUS
 10
187.1689646764
 20
118.2305999929
  0
VERTEX
  8
0
 62
7
  6
CONTINUOUS
 10
187.1402770657
 20
118.2730741142
  0
VERTEX
  8
0
 62
7
  6
CONTINUOUS
 10
187.1149726103
 20
118.3190997834
  0
VERTEX
  8
0
 62
7
  6
CONTINUOUS
 10
187.0929905166
 20
118.3679707751
  0
VERTEX
  8
0
 62
7
  6
CONTINUOUS
 10
187.0743063144
 20
118.4189273989
  0
VERTEX
  8
0
 62
7
  6
CONTINUOUS
 10
187.0581956793
 20
118.4726947719
  0
VERTEX
  8
0
 62
7
  6
CONTINUOUS
 10
187.0442439454
 20
118.5284800262
  0
VERTEX
  8
0
 62
7
  6
CONTINUOUS
 10
187.0323344624
 20
118.5855693249
  0
VERTEX
  8
0
 62
7
  6
CONTINUOUS
 10
187.0222097859
 20
118.6438882591
  0
VERTEX
  8
0
 62
7
  6
CONTINUOUS
 10
187.0137649545
 20
118.7034824443
  0
VERTEX
  8
0
 62
7
  6
CONTINUOUS
 10
187.0068639444
 20
118.7644992925
  0
VERTEX
  8
0
 62
7
  6
CONTINUOUS
 10
187.0014117534
 20
118.826675661
  0
VERTEX
  8
0
 62
7
  6
CONTINUOUS
 10
186.9973126618
 20
118.8898914336
  0
VERTEX
  8
0
 62
7
  6
CONTINUOUS
 10
186.9944685556
 20
118.9541240609
  0
VERTEX
  8
0
 62
7
  6
CONTINUOUS
 10
186.9927712345
 20
119.0193713889
  0
VERTEX
  8
0
 62
7
  6
CONTINUOUS
 10
186.9921164006
 20
119.0855886554
  0
VERTEX
  8
0
 62
7
  6
CONTINUOUS
 10
186.9924154995
 20
119.1527250558
  0
SEQEND
  0
POLYLINE
  8
0
 62
7
  6
CONTINUOUS
 66
1
 70
0
  0
VERTEX
  8
0
 62
7
  6
CONTINUOUS
 10
204.174692692
 20
118.1027854324
  0
VERTEX
  8
0
 62
7
  6
CONTINUOUS
 10
204.1570059854
 20
118.1038337493
  0
VERTEX
  8
0
 62
7
  6
CONTINUOUS
 10
204.1156932634
 20
118.1135328017
  0
VERTEX
  8
0
 62
7
  6
CONTINUOUS
 10
204.0748885404
 20
118.1326149747
  0
VERTEX
  8
0
 62
7
  6
CONTINUOUS
 10
204.0364504638
 20
118.1593760383
  0
VERTEX
  8
0
 62
7
  6
CONTINUOUS
 10
204.0010019093
 20
118.192449925
  0
VERTEX
  8
0
 62
7
  6
CONTINUOUS
 10
203.9689646764
 20
118.2305999929
  0
VERTEX
  8
0
 62
7
  6
CONTINUOUS
 10
203.9402770657
 20
118.2730741142
  0
VERTEX
  8
0
 62
7
  6
CONTINUOUS
 10
203.9149726103
 20
118.3190997834
  0
VERTEX
  8
0
 62
7
  6
CONTINUOUS
 10
203.8929905166
 20
118.3679707751
  0
VERTEX
  8
0
 62
7
  6
CONTINUOUS
 10
203.8743063144
 20
118.4189273989
  0
VERTEX
  8
0
 62
7
  6
CONTINUOUS
 10
203.8581956793
 20
118.4726947719
  0
VERTEX
  8
0
 62
7
  6
CONTINUOUS
 10
203.8442439454
 20
118.5284800262
  0
VERTEX
  8
0
 62
7
  6
CONTINUOUS
 10
203.8323344624
 20
118.5855693249
  0
VERTEX
  8
0
 62
7
  6
CONTINUOUS
 10
203.8222097859
 20
118.6438882591
  0
VERTEX
  8
0
 62
7
  6
CONTINUOUS
 10
203.8137649545
 20
118.7034824443
  0
VERTEX
  8
0
 62
7
  6
CONTINUOUS
 10
203.8068639444
 20
118.7644992925
  0
VERTEX
  8
0
 62
7
  6
CONTINUOUS
 10
203.8014117534
 20
118.826675661
  0
VERTEX
  8
0
 62
7
  6
CONTINUOUS
 10
203.7973126618
 20
118.8898914336
  0
VERTEX
  8
0
 62
7
  6
CONTINUOUS
 10
203.7944685556
 20
118.9541240609
  0
VERTEX
  8
0
 62
7
  6
CONTINUOUS
 10
203.7927712345
 20
119.0193713889
  0
VERTEX
  8
0
 62
7
  6
CONTINUOUS
 10
203.7921164006
 20
119.0855886554
  0
VERTEX
  8
0
 62
7
  6
CONTINUOUS
 10
203.7924154995
 20
119.1527250558
  0
SEQEND
  0
POLYLINE
  8
0
 62
7
  6
CONTINUOUS
 66
1
 70
0
  0
VERTEX
  8
0
 62
7
  6
CONTINUOUS
 10
220.974692692
 20
118.1027854324
  0
VERTEX
  8
0
 62
7
  6
CONTINUOUS
 10
220.9570059854
 20
118.1038337493
  0
VERTEX
  8
0
 62
7
  6
CONTINUOUS
 10
220.9156932634
 20
118.1135328017
  0
VERTEX
  8
0
 62
7
  6
CONTINUOUS
 10
220.8748885404
 20
118.1326149747
  0
VERTEX
  8
0
 62
7
  6
CONTINUOUS
 10
220.8364504638
 20
118.1593760383
  0
VERTEX
  8
0
 62
7
  6
CONTINUOUS
 10
220.8010019093
 20
118.192449925
  0
VERTEX
  8
0
 62
7
  6
CONTINUOUS
 10
220.7689646764
 20
118.2305999929
  0
VERTEX
  8
0
 62
7
  6
CONTINUOUS
 10
220.7402770657
 20
118.2730741142
  0
VERTEX
  8
0
 62
7
  6
CONTINUOUS
 10
220.7149726103
 20
118.3190997834
  0
VERTEX
  8
0
 62
7
  6
CONTINUOUS
 10
220.6929905166
 20
118.3679707751
  0
VERTEX
  8
0
 62
7
  6
CONTINUOUS
 10
220.6743063144
 20
118.4189273989
  0
VERTEX
  8
0
 62
7
  6
CONTINUOUS
 10
220.6581956793
 20
118.4726947719
  0
VERTEX
  8
0
 62
7
  6
CONTINUOUS
 10
220.6442439454
 20
118.5284800262
  0
VERTEX
  8
0
 62
7
  6
CONTINUOUS
 10
220.6323344624
 20
118.5855693249
  0
VERTEX
  8
0
 62
7
  6
CONTINUOUS
 10
220.6222097859
 20
118.6438882591
  0
VERTEX
  8
0
 62
7
  6
CONTINUOUS
 10
220.6137649545
 20
118.7034824443
  0
VERTEX
  8
0
 62
7
  6
CONTINUOUS
 10
220.6068639444
 20
118.7644992925
  0
VERTEX
  8
0
 62
7
  6
CONTINUOUS
 10
220.6014117534
 20
118.826675661
  0
VERTEX
  8
0
 62
7
  6
CONTINUOUS
 10
220.5973126618
 20
118.8898914336
  0
VERTEX
  8
0
 62
7
  6
CONTINUOUS
 10
220.5944685556
 20
118.9541240609
  0
VERTEX
  8
0
 62
7
  6
CONTINUOUS
 10
220.5927712345
 20
119.0193713889
  0
VERTEX
  8
0
 62
7
  6
CONTINUOUS
 10
220.5921164006
 20
119.0855886554
  0
VERTEX
  8
0
 62
7
  6
CONTINUOUS
 10
220.5924154995
 20
119.1527250558
  0
SEQEND
  0
LINE
  8
0
 62
7
  6
CONTINUOUS
 10
169.3186813284
 20
129.0617938031
 11
169.1388980532
 21
129.4627430249
  0
POLYLINE
  8
0
 62
7
  6
CONTINUOUS
 66
1
 70
0
  0
VERTEX
  8
0
 62
7
  6
CONTINUOUS
 10
188.2417999732
 20
64.4895515466
  0
VERTEX
  8
0
 62
7
  6
CONTINUOUS
 10
188.2676059085
 20
64.3326734082
  0
VERTEX
  8
0
 62
7
  6
CONTINUOUS
 10
188.2965988259
 20
64.1759484631
  0
VERTEX
  8
0
 62
7
  6
CONTINUOUS
 10
188.3255543565
 20
64.0384222538
  0
VERTEX
  8
0
 62
7
  6
CONTINUOUS
 10
188.3548153068
 20
63.9171253103
  0
VERTEX
  8
0
 62
7
  6
CONTINUOUS
 10
188.3849378969
 20
63.8091332807
  0
VERTEX
  8
0
 62
7
  6
CONTINUOUS
 10
188.4168515281
 20
63.7113923775
  0
VERTEX
  8
0
 62
7
  6
CONTINUOUS
 10
188.4521494202
 20
63.6205555109
  0
VERTEX
  8
0
 62
7
  6
CONTINUOUS
 10
188.4933748913
 20
63.5333489231
  0
VERTEX
  8
0
 62
7
  6
CONTINUOUS
 10
188.5442309139
 20
63.4473345973
  0
VERTEX
  8
0
 62
7
  6
CONTINUOUS
 10
188.6098023718
 20
63.3616111761
  0
VERTEX
  8
0
 62
7
  6
CONTINUOUS
 10
188.6949690631
 20
63.2791201392
  0
VERTEX
  8
0
 62
7
  6
CONTINUOUS
 10
188.8014253152
 20
63.2071631421
  0
VERTEX
  8
0
 62
7
  6
CONTINUOUS
 10
188.9264367492
 20
63.1542730452
  0
VERTEX
  8
0
 62
7
  6
CONTINUOUS
 10
189.0631760053
 20
63.1270304041
  0
VERTEX
  8
0
 62
7
  6
CONTINUOUS
 10
189.1282404873
 20
63.1239763803
  0
SEQEND
  0
LINE
  8
0
 62
7
  6
CONTINUOUS
 10
188.2258985912
 20
64.5942707261
 11
188.2418009655
 21
64.4895451814
  0
POLYLINE
  8
0
 62
7
  6
CONTINUOUS
 66
1
 70
0
  0
VERTEX
  8
0
 62
7
  6
CONTINUOUS
 10
187.1696563114
 20
68.7813524103
  0
VERTEX
  8
0
 62
7
  6
CONTINUOUS
 10
187.2410335665
 20
68.2330610279
  0
VERTEX
  8
0
 62
7
  6
CONTINUOUS
 10
187.3356830278
 20
67.6330796125
  0
VERTEX
  8
0
 62
7
  6
CONTINUOUS
 10
187.4462936327
 20
67.050292648
  0
VERTEX
  8
0
 62
7
  6
CONTINUOUS
 10
187.5729075189
 20
66.4897069817
  0
VERTEX
  8
0
 62
7
  6
CONTINUOUS
 10
187.7155402732
 20
65.9561593034
  0
VERTEX
  8
0
 62
7
  6
CONTINUOUS
 10
187.8742381975
 20
65.4543089253
  0
VERTEX
  8
0
 62
7
  6
CONTINUOUS
 10
188.0492319791
 20
64.98845832
  0
SEQEND
  0
LINE
  8
0
 62
7
  6
CONTINUOUS
 10
186.9992014143
 20
125.2665943384
 11
186.9992607195
 21
125.2655743986
  0
LINE
  8
0
 62
7
  6
CONTINUOUS
 10
196.6418011011
 20
129.5584082747
 11
196.6258963166
 21
129.4536809327
  0
POLYLINE
  8
0
 62
7
  6
CONTINUOUS
 66
1
 70
0
  0
VERTEX
  8
0
 62
7
  6
CONTINUOUS
 10
177.5388990963
 20
64.5852116874
  0
VERTEX
  8
0
 62
7
  6
CONTINUOUS
 10
177.7196258234
 20
64.9884584269
  0
VERTEX
  8
0
 62
7
  6
CONTINUOUS
 10
177.8946196413
 20
65.4543091581
  0
VERTEX
  8
0
 62
7
  6
CONTINUOUS
 10
178.0533175943
 20
65.9561596782
  0
VERTEX
  8
0
 62
7
  6
CONTINUOUS
 10
178.19595037
 20
66.4897075116
  0
VERTEX
  8
0
 62
7
  6
CONTINUOUS
 10
178.3225642698
 20
67.0502933425
  0
VERTEX
  8
0
 62
7
  6
CONTINUOUS
 10
178.4331748807
 20
67.6330804774
  0
VERTEX
  8
0
 62
7
  6
CONTINUOUS
 10
178.5278243404
 20
68.2330620658
  0
VERTEX
  8
0
 62
7
  6
CONTINUOUS
 10
178.5992014472
 20
68.7813524103
  0
SEQEND
  0
POLYLINE
  8
0
 62
7
  6
CONTINUOUS
 66
1
 70
0
  0
VERTEX
  8
0
 62
7
  6
CONTINUOUS
 10
178.5992013964
 20
68.7813625317
  0
VERTEX
  8
0
 62
7
  6
CONTINUOUS
 10
178.593389696
 20
68.7727656337
  0
VERTEX
  8
0
 62
7
  6
CONTINUOUS
 10
178.574302943
 20
68.7639723152
  0
VERTEX
  8
0
 62
7
  6
CONTINUOUS
 10
178.5431016959
 20
68.7572438725
  0
VERTEX
  8
0
 62
7
  6
CONTINUOUS
 10
178.5017831501
 20
68.7529241691
  0
VERTEX
  8
0
 62
7
  6
CONTINUOUS
 10
178.4530868039
 20
68.7511352825
  0
VERTEX
  8
0
 62
7
  6
CONTINUOUS
 10
178.3992607225
 20
68.7516949698
  0
SEQEND
  0
POLYLINE
  8
0
 62
7
  6
CONTINUOUS
 66
1
 70
0
  0
VERTEX
  8
0
 62
7
  6
CONTINUOUS
 10
231.1282632367
 20
130.92397618
  0
VERTEX
  8
0
 62
7
  6
CONTINUOUS
 10
231.0620775313
 20
130.9208175234
  0
VERTEX
  8
0
 62
7
  6
CONTINUOUS
 10
230.9244014194
 20
130.893047201
  0
VERTEX
  8
0
 62
7
  6
CONTINUOUS
 10
230.7998157048
 20
130.8399059732
  0
VERTEX
  8
0
 62
7
  6
CONTINUOUS
 10
230.6904537501
 20
130.7650966957
  0
VERTEX
  8
0
 62
7
  6
CONTINUOUS
 10
230.5990683609
 20
130.6738619887
  0
VERTEX
  8
0
 62
7
  6
CONTINUOUS
 10
230.5295296645
 20
130.5778121193
  0
VERTEX
  8
0
 62
7
  6
CONTINUOUS
 10
230.4766550822
 20
130.4814044419
  0
VERTEX
  8
0
 62
7
  6
CONTINUOUS
 10
230.433682846
 20
130.3819548096
  0
VERTEX
  8
0
 62
7
  6
CONTINUOUS
 10
230.3962833532
 20
130.2754207296
  0
VERTEX
  8
0
 62
7
  6
CONTINUOUS
 10
230.3620846715
 20
130.1583901852
  0
VERTEX
  8
0
 62
7
  6
CONTINUOUS
 10
230.3297565263
 20
130.0280056295
  0
VERTEX
  8
0
 62
7
  6
CONTINUOUS
 10
230.2985817766
 20
129.8820095042
  0
VERTEX
  8
0
 62
7
  6
CONTINUOUS
 10
230.2682485192
 20
129.718970943
  0
VERTEX
  8
0
 62
7
  6
CONTINUOUS
 10
230.2417992436
 20
129.5583963591
  0
SEQEND
  0
POLYLINE
  8
0
 62
7
  6
CONTINUOUS
 66
1
 70
0
  0
VERTEX
  8
0
 62
7
  6
CONTINUOUS
 10
214.3282401749
 20
130.9239762062
  0
VERTEX
  8
0
 62
7
  6
CONTINUOUS
 10
214.2632853054
 20
130.9209324983
  0
VERTEX
  8
0
 62
7
  6
CONTINUOUS
 10
214.1266464682
 20
130.8937442971
  0
VERTEX
  8
0
 62
7
  6
CONTINUOUS
 10
214.0017046362
 20
130.8409421806
  0
VERTEX
  8
0
 62
7
  6
CONTINUOUS
 10
213.8952749064
 20
130.7690832115
  0
VERTEX
  8
0
 62
7
  6
CONTINUOUS
 10
213.8100981359
 20
130.6866776951
  0
VERTEX
  8
0
 62
7
  6
CONTINUOUS
 10
213.7444995508
 20
130.6010208086
  0
VERTEX
  8
0
 62
7
  6
CONTINUOUS
 10
213.6936191999
 20
130.5150686962
  0
VERTEX
  8
0
 62
7
  6
CONTINUOUS
 10
213.6523792019
 20
130.4279356033
  0
VERTEX
  8
0
 62
7
  6
CONTINUOUS
 10
213.6170761629
 20
130.3371926035
  0
VERTEX
  8
0
 62
7
  6
CONTINUOUS
 10
213.5851648399
 20
130.2395724222
  0
VERTEX
  8
0
 62
7
  6
CONTINUOUS
 10
213.5550494505
 20
130.1317304965
  0
VERTEX
  8
0
 62
7
  6
CONTINUOUS
 10
213.5257987429
 20
130.0106147995
  0
VERTEX
  8
0
 62
7
  6
CONTINUOUS
 10
213.4968552225
 20
129.8733028221
  0
VERTEX
  8
0
 62
7
  6
CONTINUOUS
 10
213.4678751339
 20
129.7168271014
  0
VERTEX
  8
0
 62
7
  6
CONTINUOUS
 10
213.4418000629
 20
129.5584016154
  0
SEQEND
  0
POLYLINE
  8
0
 62
7
  6
CONTINUOUS
 66
1
 70
0
  0
VERTEX
  8
0
 62
7
  6
CONTINUOUS
 10
220.3992607225
 20
125.2962576164
  0
VERTEX
  8
0
 62
7
  6
CONTINUOUS
 10
220.4462893944
 20
125.2968695691
  0
VERTEX
  8
0
 62
7
  6
CONTINUOUS
 10
220.4898117354
 20
125.2957305482
  0
VERTEX
  8
0
 62
7
  6
CONTINUOUS
 10
220.5284631841
 20
125.2926455755
  0
VERTEX
  8
0
 62
7
  6
CONTINUOUS
 10
220.5601116077
 20
125.2876284411
  0
VERTEX
  8
0
 62
7
  6
CONTINUOUS
 10
220.5830621218
 20
125.2808584253
  0
VERTEX
  8
0
 62
7
  6
CONTINUOUS
 10
220.5961878037
 20
125.2726437516
  0
VERTEX
  8
0
 62
7
  6
CONTINUOUS
 10
220.5992014143
 20
125.2665943384
  0
SEQEND
  0
POLYLINE
  8
0
 62
7
  6
CONTINUOUS
 66
1
 70
0
  0
VERTEX
  8
0
 62
7
  6
CONTINUOUS
 10
203.5992607225
 20
125.2962576164
  0
VERTEX
  8
0
 62
7
  6
CONTINUOUS
 10
203.6462893944
 20
125.2968695691
  0
VERTEX
  8
0
 62
7
  6
CONTINUOUS
 10
203.6898117354
 20
125.2957305482
  0
VERTEX
  8
0
 62
7
  6
CONTINUOUS
 10
203.7284631841
 20
125.2926455755
  0
VERTEX
  8
0
 62
7
  6
CONTINUOUS
 10
203.7601116077
 20
125.2876284411
  0
VERTEX
  8
0
 62
7
  6
CONTINUOUS
 10
203.7830621218
 20
125.2808584253
  0
VERTEX
  8
0
 62
7
  6
CONTINUOUS
 10
203.7961878037
 20
125.2726437516
  0
VERTEX
  8
0
 62
7
  6
CONTINUOUS
 10
203.7992014143
 20
125.2665943384
  0
SEQEND
  0
POLYLINE
  8
0
 62
7
  6
CONTINUOUS
 66
1
 70
0
  0
VERTEX
  8
0
 62
7
  6
CONTINUOUS
 10
186.7992607225
 20
125.2962576164
  0
VERTEX
  8
0
 62
7
  6
CONTINUOUS
 10
186.8462893944
 20
125.2968695691
  0
VERTEX
  8
0
 62
7
  6
CONTINUOUS
 10
186.8898117354
 20
125.2957305482
  0
VERTEX
  8
0
 62
7
  6
CONTINUOUS
 10
186.9284631841
 20
125.2926455755
  0
VERTEX
  8
0
 62
7
  6
CONTINUOUS
 10
186.9601116077
 20
125.2876284411
  0
VERTEX
  8
0
 62
7
  6
CONTINUOUS
 10
186.9830621218
 20
125.2808584253
  0
VERTEX
  8
0
 62
7
  6
CONTINUOUS
 10
186.9961878037
 20
125.2726437516
  0
VERTEX
  8
0
 62
7
  6
CONTINUOUS
 10
186.9992014143
 20
125.2665943384
  0
SEQEND
  0
POLYLINE
  8
0
 62
7
  6
CONTINUOUS
 66
1
 70
0
  0
VERTEX
  8
0
 62
7
  6
CONTINUOUS
 10
169.9992607225
 20
125.2962576164
  0
VERTEX
  8
0
 62
7
  6
CONTINUOUS
 10
170.0462893944
 20
125.2968695691
  0
VERTEX
  8
0
 62
7
  6
CONTINUOUS
 10
170.0898117354
 20
125.2957305482
  0
VERTEX
  8
0
 62
7
  6
CONTINUOUS
 10
170.1284631841
 20
125.2926455755
  0
VERTEX
  8
0
 62
7
  6
CONTINUOUS
 10
170.1601116077
 20
125.2876284411
  0
VERTEX
  8
0
 62
7
  6
CONTINUOUS
 10
170.1830621218
 20
125.2808584253
  0
VERTEX
  8
0
 62
7
  6
CONTINUOUS
 10
170.1961878037
 20
125.2726437516
  0
VERTEX
  8
0
 62
7
  6
CONTINUOUS
 10
170.1992014143
 20
125.2665943384
  0
SEQEND
  0
POLYLINE
  8
0
 62
7
  6
CONTINUOUS
 66
1
 70
0
  0
VERTEX
  8
0
 62
7
  6
CONTINUOUS
 10
153.1992607225
 20
125.2962576164
  0
VERTEX
  8
0
 62
7
  6
CONTINUOUS
 10
153.2462893944
 20
125.2968695691
  0
VERTEX
  8
0
 62
7
  6
CONTINUOUS
 10
153.2898117354
 20
125.2957305482
  0
VERTEX
  8
0
 62
7
  6
CONTINUOUS
 10
153.3284631841
 20
125.2926455755
  0
VERTEX
  8
0
 62
7
  6
CONTINUOUS
 10
153.3601116077
 20
125.2876284411
  0
VERTEX
  8
0
 62
7
  6
CONTINUOUS
 10
153.3830621218
 20
125.2808584253
  0
VERTEX
  8
0
 62
7
  6
CONTINUOUS
 10
153.3961878037
 20
125.2726437516
  0
VERTEX
  8
0
 62
7
  6
CONTINUOUS
 10
153.3992014143
 20
125.2665943384
  0
SEQEND
  0
POLYLINE
  8
0
 62
7
  6
CONTINUOUS
 66
1
 70
0
  0
VERTEX
  8
0
 62
7
  6
CONTINUOUS
 10
136.3992607225
 20
125.2962576164
  0
VERTEX
  8
0
 62
7
  6
CONTINUOUS
 10
136.4462893944
 20
125.2968695691
  0
VERTEX
  8
0
 62
7
  6
CONTINUOUS
 10
136.4898117354
 20
125.2957305482
  0
VERTEX
  8
0
 62
7
  6
CONTINUOUS
 10
136.5284631841
 20
125.2926455755
  0
VERTEX
  8
0
 62
7
  6
CONTINUOUS
 10
136.5601116077
 20
125.2876284411
  0
VERTEX
  8
0
 62
7
  6
CONTINUOUS
 10
136.5830621218
 20
125.2808584253
  0
VERTEX
  8
0
 62
7
  6
CONTINUOUS
 10
136.5961878037
 20
125.2726437516
  0
VERTEX
  8
0
 62
7
  6
CONTINUOUS
 10
136.5992014143
 20
125.2665943384
  0
SEQEND
  0
POLYLINE
  8
0
 62
7
  6
CONTINUOUS
 66
1
 70
0
  0
VERTEX
  8
0
 62
7
  6
CONTINUOUS
 10
119.5992607225
 20
125.2962576164
  0
VERTEX
  8
0
 62
7
  6
CONTINUOUS
 10
119.6462893944
 20
125.2968695691
  0
VERTEX
  8
0
 62
7
  6
CONTINUOUS
 10
119.6898117354
 20
125.2957305482
  0
VERTEX
  8
0
 62
7
  6
CONTINUOUS
 10
119.7284631841
 20
125.2926455755
  0
VERTEX
  8
0
 62
7
  6
CONTINUOUS
 10
119.7601116077
 20
125.2876284411
  0
VERTEX
  8
0
 62
7
  6
CONTINUOUS
 10
119.7830621218
 20
125.2808584253
  0
VERTEX
  8
0
 62
7
  6
CONTINUOUS
 10
119.7961878037
 20
125.2726437516
  0
VERTEX
  8
0
 62
7
  6
CONTINUOUS
 10
119.7992014143
 20
125.2665943384
  0
SEQEND
  0
POLYLINE
  8
0
 62
7
  6
CONTINUOUS
 66
1
 70
0
  0
VERTEX
  8
0
 62
7
  6
CONTINUOUS
 10
102.7992607225
 20
125.2962576164
  0
VERTEX
  8
0
 62
7
  6
CONTINUOUS
 10
102.8462893944
 20
125.2968695691
  0
VERTEX
  8
0
 62
7
  6
CONTINUOUS
 10
102.8898117354
 20
125.2957305482
  0
VERTEX
  8
0
 62
7
  6
CONTINUOUS
 10
102.9284631841
 20
125.2926455755
  0
VERTEX
  8
0
 62
7
  6
CONTINUOUS
 10
102.9601116077
 20
125.2876284411
  0
VERTEX
  8
0
 62
7
  6
CONTINUOUS
 10
102.9830621218
 20
125.2808584253
  0
VERTEX
  8
0
 62
7
  6
CONTINUOUS
 10
102.9961878037
 20
125.2726437516
  0
VERTEX
  8
0
 62
7
  6
CONTINUOUS
 10
102.9992014143
 20
125.2665943384
  0
SEQEND
  0
LINE
  8
0
 62
7
  6
CONTINUOUS
 10
220.3992607225
 20
125.2962576164
 11
212.5695970362
 21
125.2962576164
  0
LINE
  8
0
 62
7
  6
CONTINUOUS
 10
203.5992607225
 20
125.2962576164
 11
195.7695970362
 21
125.2962576164
  0
LINE
  8
0
 62
7
  6
CONTINUOUS
 10
186.7992607225
 20
125.2962576164
 11
178.9695970362
 21
125.2962576164
  0
LINE
  8
0
 62
7
  6
CONTINUOUS
 10
169.9992607225
 20
125.2962576164
 11
162.1695970362
 21
125.2962576164
  0
LINE
  8
0
 62
7
  6
CONTINUOUS
 10
153.1992607225
 20
125.2962576164
 11
145.3695970362
 21
125.2962576164
  0
LINE
  8
0
 62
7
  6
CONTINUOUS
 10
136.3992607225
 20
125.2962576164
 11
128.5695970362
 21
125.2962576164
  0
LINE
  8
0
 62
7
  6
CONTINUOUS
 10
119.5992607225
 20
125.2962576164
 11
111.7695970362
 21
125.2962576164
  0
LINE
  8
0
 62
7
  6
CONTINUOUS
 10
102.7992607225
 20
125.2962576164
 11
94.9695970362
 21
125.2962576164
  0
LINE
  8
0
 62
7
  6
CONTINUOUS
 10
229.3695970362
 20
125.2962576164
 11
237.1844288793
 21
125.2962576164
  0
POLYLINE
  8
0
 62
7
  6
CONTINUOUS
 66
1
 70
0
  0
VERTEX
  8
0
 62
7
  6
CONTINUOUS
 10
94.9695970362
 20
125.2962576164
  0
VERTEX
  8
0
 62
7
  6
CONTINUOUS
 10
94.9225683642
 20
125.2968695691
  0
VERTEX
  8
0
 62
7
  6
CONTINUOUS
 10
94.8790460232
 20
125.2957305482
  0
VERTEX
  8
0
 62
7
  6
CONTINUOUS
 10
94.8403945745
 20
125.2926455755
  0
VERTEX
  8
0
 62
7
  6
CONTINUOUS
 10
94.808746151
 20
125.2876284411
  0
VERTEX
  8
0
 62
7
  6
CONTINUOUS
 10
94.7857956368
 20
125.2808584253
  0
VERTEX
  8
0
 62
7
  6
CONTINUOUS
 10
94.772669955
 20
125.2726437516
  0
VERTEX
  8
0
 62
7
  6
CONTINUOUS
 10
94.7696563443
 20
125.2665943384
  0
SEQEND
  0
POLYLINE
  8
0
 62
7
  6
CONTINUOUS
 66
1
 70
0
  0
VERTEX
  8
0
 62
7
  6
CONTINUOUS
 10
111.7695970362
 20
125.2962576164
  0
VERTEX
  8
0
 62
7
  6
CONTINUOUS
 10
111.7225683642
 20
125.2968695691
  0
VERTEX
  8
0
 62
7
  6
CONTINUOUS
 10
111.6790460232
 20
125.2957305482
  0
VERTEX
  8
0
 62
7
  6
CONTINUOUS
 10
111.6403945745
 20
125.2926455755
  0
VERTEX
  8
0
 62
7
  6
CONTINUOUS
 10
111.608746151
 20
125.2876284411
  0
VERTEX
  8
0
 62
7
  6
CONTINUOUS
 10
111.5857956368
 20
125.2808584253
  0
VERTEX
  8
0
 62
7
  6
CONTINUOUS
 10
111.572669955
 20
125.2726437516
  0
VERTEX
  8
0
 62
7
  6
CONTINUOUS
 10
111.5696563443
 20
125.2665943384
  0
SEQEND
  0
POLYLINE
  8
0
 62
7
  6
CONTINUOUS
 66
1
 70
0
  0
VERTEX
  8
0
 62
7
  6
CONTINUOUS
 10
128.5695970362
 20
125.2962576164
  0
VERTEX
  8
0
 62
7
  6
CONTINUOUS
 10
128.5225683642
 20
125.2968695691
  0
VERTEX
  8
0
 62
7
  6
CONTINUOUS
 10
128.4790460232
 20
125.2957305482
  0
VERTEX
  8
0
 62
7
  6
CONTINUOUS
 10
128.4403945745
 20
125.2926455755
  0
VERTEX
  8
0
 62
7
  6
CONTINUOUS
 10
128.408746151
 20
125.2876284411
  0
VERTEX
  8
0
 62
7
  6
CONTINUOUS
 10
128.3857956368
 20
125.2808584253
  0
VERTEX
  8
0
 62
7
  6
CONTINUOUS
 10
128.372669955
 20
125.2726437516
  0
VERTEX
  8
0
 62
7
  6
CONTINUOUS
 10
128.3696563443
 20
125.2665943384
  0
SEQEND
  0
POLYLINE
  8
0
 62
7
  6
CONTINUOUS
 66
1
 70
0
  0
VERTEX
  8
0
 62
7
  6
CONTINUOUS
 10
145.3695970362
 20
125.2962576164
  0
VERTEX
  8
0
 62
7
  6
CONTINUOUS
 10
145.3225683642
 20
125.2968695691
  0
VERTEX
  8
0
 62
7
  6
CONTINUOUS
 10
145.2790460232
 20
125.2957305482
  0
VERTEX
  8
0
 62
7
  6
CONTINUOUS
 10
145.2403945745
 20
125.2926455755
  0
VERTEX
  8
0
 62
7
  6
CONTINUOUS
 10
145.208746151
 20
125.2876284411
  0
VERTEX
  8
0
 62
7
  6
CONTINUOUS
 10
145.1857956368
 20
125.2808584253
  0
VERTEX
  8
0
 62
7
  6
CONTINUOUS
 10
145.172669955
 20
125.2726437516
  0
VERTEX
  8
0
 62
7
  6
CONTINUOUS
 10
145.1696563443
 20
125.2665943384
  0
SEQEND
  0
POLYLINE
  8
0
 62
7
  6
CONTINUOUS
 66
1
 70
0
  0
VERTEX
  8
0
 62
7
  6
CONTINUOUS
 10
162.1695970362
 20
125.2962576164
  0
VERTEX
  8
0
 62
7
  6
CONTINUOUS
 10
162.1225683642
 20
125.2968695691
  0
VERTEX
  8
0
 62
7
  6
CONTINUOUS
 10
162.0790460232
 20
125.2957305482
  0
VERTEX
  8
0
 62
7
  6
CONTINUOUS
 10
162.0403945745
 20
125.2926455755
  0
VERTEX
  8
0
 62
7
  6
CONTINUOUS
 10
162.008746151
 20
125.2876284411
  0
VERTEX
  8
0
 62
7
  6
CONTINUOUS
 10
161.9857956368
 20
125.2808584253
  0
VERTEX
  8
0
 62
7
  6
CONTINUOUS
 10
161.972669955
 20
125.2726437516
  0
VERTEX
  8
0
 62
7
  6
CONTINUOUS
 10
161.9696563443
 20
125.2665943384
  0
SEQEND
  0
POLYLINE
  8
0
 62
7
  6
CONTINUOUS
 66
1
 70
0
  0
VERTEX
  8
0
 62
7
  6
CONTINUOUS
 10
178.9695970362
 20
125.2962576164
  0
VERTEX
  8
0
 62
7
  6
CONTINUOUS
 10
178.9225683642
 20
125.2968695691
  0
VERTEX
  8
0
 62
7
  6
CONTINUOUS
 10
178.8790460232
 20
125.2957305482
  0
VERTEX
  8
0
 62
7
  6
CONTINUOUS
 10
178.8403945745
 20
125.2926455755
  0
VERTEX
  8
0
 62
7
  6
CONTINUOUS
 10
178.808746151
 20
125.2876284411
  0
VERTEX
  8
0
 62
7
  6
CONTINUOUS
 10
178.7857956368
 20
125.2808584253
  0
VERTEX
  8
0
 62
7
  6
CONTINUOUS
 10
178.772669955
 20
125.2726437516
  0
VERTEX
  8
0
 62
7
  6
CONTINUOUS
 10
178.7696563443
 20
125.2665943384
  0
SEQEND
  0
POLYLINE
  8
0
 62
7
  6
CONTINUOUS
 66
1
 70
0
  0
VERTEX
  8
0
 62
7
  6
CONTINUOUS
 10
195.7695970362
 20
125.2962576164
  0
VERTEX
  8
0
 62
7
  6
CONTINUOUS
 10
195.7225683642
 20
125.2968695691
  0
VERTEX
  8
0
 62
7
  6
CONTINUOUS
 10
195.6790460232
 20
125.2957305482
  0
VERTEX
  8
0
 62
7
  6
CONTINUOUS
 10
195.6403945745
 20
125.2926455755
  0
VERTEX
  8
0
 62
7
  6
CONTINUOUS
 10
195.608746151
 20
125.2876284411
  0
VERTEX
  8
0
 62
7
  6
CONTINUOUS
 10
195.5857956368
 20
125.2808584253
  0
VERTEX
  8
0
 62
7
  6
CONTINUOUS
 10
195.572669955
 20
125.2726437516
  0
VERTEX
  8
0
 62
7
  6
CONTINUOUS
 10
195.5696563443
 20
125.2665943384
  0
SEQEND
  0
POLYLINE
  8
0
 62
7
  6
CONTINUOUS
 66
1
 70
0
  0
VERTEX
  8
0
 62
7
  6
CONTINUOUS
 10
212.5695970362
 20
125.2962576164
  0
VERTEX
  8
0
 62
7
  6
CONTINUOUS
 10
212.5225683642
 20
125.2968695691
  0
VERTEX
  8
0
 62
7
  6
CONTINUOUS
 10
212.4790460232
 20
125.2957305482
  0
VERTEX
  8
0
 62
7
  6
CONTINUOUS
 10
212.4403945745
 20
125.2926455755
  0
VERTEX
  8
0
 62
7
  6
CONTINUOUS
 10
212.408746151
 20
125.2876284411
  0
VERTEX
  8
0
 62
7
  6
CONTINUOUS
 10
212.3857956368
 20
125.2808584253
  0
VERTEX
  8
0
 62
7
  6
CONTINUOUS
 10
212.372669955
 20
125.2726437516
  0
VERTEX
  8
0
 62
7
  6
CONTINUOUS
 10
212.3696563443
 20
125.2665943384
  0
SEQEND
  0
POLYLINE
  8
0
 62
7
  6
CONTINUOUS
 66
1
 70
0
  0
VERTEX
  8
0
 62
7
  6
CONTINUOUS
 10
229.3695970362
 20
125.2962576164
  0
VERTEX
  8
0
 62
7
  6
CONTINUOUS
 10
229.3225683642
 20
125.2968695691
  0
VERTEX
  8
0
 62
7
  6
CONTINUOUS
 10
229.2790460232
 20
125.2957305482
  0
VERTEX
  8
0
 62
7
  6
CONTINUOUS
 10
229.2403945745
 20
125.2926455755
  0
VERTEX
  8
0
 62
7
  6
CONTINUOUS
 10
229.208746151
 20
125.2876284411
  0
VERTEX
  8
0
 62
7
  6
CONTINUOUS
 10
229.1857956368
 20
125.2808584253
  0
VERTEX
  8
0
 62
7
  6
CONTINUOUS
 10
229.172669955
 20
125.2726437516
  0
VERTEX
  8
0
 62
7
  6
CONTINUOUS
 10
229.1696563443
 20
125.2665943384
  0
SEQEND
  0
LINE
  8
0
 62
7
  6
CONTINUOUS
 10
204.8492319791
 20
64.98845832
 11
205.0299586623
 21
64.5852116874
  0
POLYLINE
  8
0
 62
7
  6
CONTINUOUS
 66
1
 70
0
  0
VERTEX
  8
0
 62
7
  6
CONTINUOUS
 10
185.9270576907
 20
129.5584016475
  0
VERTEX
  8
0
 62
7
  6
CONTINUOUS
 10
185.901011456
 20
129.7166614197
  0
VERTEX
  8
0
 62
7
  6
CONTINUOUS
 10
185.8720627466
 20
129.8729979778
  0
VERTEX
  8
0
 62
7
  6
CONTINUOUS
 10
185.843154088
 20
130.0101930627
  0
VERTEX
  8
0
 62
7
  6
CONTINUOUS
 10
185.8139436613
 20
130.1312084913
  0
VERTEX
  8
0
 62
7
  6
CONTINUOUS
 10
185.7838775674
 20
130.2389597262
  0
VERTEX
  8
0
 62
7
  6
CONTINUOUS
 10
185.752031325
 20
130.3364895165
  0
VERTEX
  8
0
 62
7
  6
CONTINUOUS
 10
185.7168229181
 20
130.4271283019
  0
VERTEX
  8
0
 62
7
  6
CONTINUOUS
 10
185.6757374715
 20
130.5141184393
  0
VERTEX
  8
0
 62
7
  6
CONTINUOUS
 10
185.6251128103
 20
130.5998880556
  0
VERTEX
  8
0
 62
7
  6
CONTINUOUS
 10
185.5599140607
 20
130.6853628343
  0
VERTEX
  8
0
 62
7
  6
CONTINUOUS
 10
185.4752833867
 20
130.7676852787
  0
VERTEX
  8
0
 62
7
  6
CONTINUOUS
 10
185.3694623648
 20
130.8396743442
  0
VERTEX
  8
0
 62
7
  6
CONTINUOUS
 10
185.245123877
 20
130.8928382748
  0
VERTEX
  8
0
 62
7
  6
CONTINUOUS
 10
185.1090627261
 20
130.9205943511
  0
VERTEX
  8
0
 62
7
  6
CONTINUOUS
 10
185.0406161443
 20
130.9239762047
  0
SEQEND
  0
LINE
  8
0
 62
7
  6
CONTINUOUS
 10
185.942961442
 20
129.4536809327
 11
185.9270566575
 21
129.5584082747
  0
POLYLINE
  8
0
 62
7
  6
CONTINUOUS
 66
1
 70
0
  0
VERTEX
  8
0
 62
7
  6
CONTINUOUS
 10
186.9992014439
 20
125.2666002041
  0
VERTEX
  8
0
 62
7
  6
CONTINUOUS
 10
186.9273236301
 20
125.8183933255
  0
VERTEX
  8
0
 62
7
  6
CONTINUOUS
 10
186.8325947788
 20
126.4182182524
  0
VERTEX
  8
0
 62
7
  6
CONTINUOUS
 10
186.7219072478
 20
127.0008290579
  0
VERTEX
  8
0
 62
7
  6
CONTINUOUS
 10
186.5952190142
 20
127.5612200797
  0
VERTEX
  8
0
 62
7
  6
CONTINUOUS
 10
186.4525142684
 20
128.0945562819
  0
VERTEX
  8
0
 62
7
  6
CONTINUOUS
 10
186.2937458665
 20
128.5961807623
  0
VERTEX
  8
0
 62
7
  6
CONTINUOUS
 10
186.1186813284
 20
129.0617938031
  0
SEQEND
  0
POLYLINE
  8
0
 62
7
  6
CONTINUOUS
 66
1
 70
0
  0
VERTEX
  8
0
 62
7
  6
CONTINUOUS
 10
195.5725486029
 20
119.4384025248
  0
VERTEX
  8
0
 62
7
  6
CONTINUOUS
 10
195.5763955959
 20
119.1567848362
  0
VERTEX
  8
0
 62
7
  6
CONTINUOUS
 10
195.5767493686
 20
119.0895038493
  0
VERTEX
  8
0
 62
7
  6
CONTINUOUS
 10
195.5761513037
 20
119.0231436124
  0
VERTEX
  8
0
 62
7
  6
CONTINUOUS
 10
195.574513703
 20
118.957754858
  0
VERTEX
  8
0
 62
7
  6
CONTINUOUS
 10
195.5717326047
 20
118.893386113
  0
VERTEX
  8
0
 62
7
  6
CONTINUOUS
 10
195.5676991286
 20
118.8300389746
  0
VERTEX
  8
0
 62
7
  6
CONTINUOUS
 10
195.5623150278
 20
118.7677344777
  0
VERTEX
  8
0
 62
7
  6
CONTINUOUS
 10
195.5554842492
 20
118.7065873896
  0
VERTEX
  8
0
 62
7
  6
CONTINUOUS
 10
195.5471159349
 20
118.6468753385
  0
VERTEX
  8
0
 62
7
  6
CONTINUOUS
 10
195.5370712025
 20
118.5884583206
  0
VERTEX
  8
0
 62
7
  6
CONTINUOUS
 10
195.5252327169
 20
118.5312122377
  0
VERTEX
  8
0
 62
7
  6
CONTINUOUS
 10
195.5113914998
 20
118.4753604269
  0
VERTEX
  8
0
 62
7
  6
CONTINUOUS
 10
195.4953551421
 20
118.4213755211
  0
VERTEX
  8
0
 62
7
  6
CONTINUOUS
 10
195.476783346
 20
118.3702408446
  0
VERTEX
  8
0
 62
7
  6
CONTINUOUS
 10
195.4549354162
 20
118.3212219897
  0
VERTEX
  8
0
 62
7
  6
CONTINUOUS
 10
195.429758414
 20
118.2750185657
  0
VERTEX
  8
0
 62
7
  6
CONTINUOUS
 10
195.4011943266
 20
118.2323411486
  0
VERTEX
  8
0
 62
7
  6
CONTINUOUS
 10
195.3692752292
 20
118.1939618912
  0
VERTEX
  8
0
 62
7
  6
CONTINUOUS
 10
195.3339491611
 20
118.1606381782
  0
VERTEX
  8
0
 62
7
  6
CONTINUOUS
 10
195.2956235763
 20
118.1335872674
  0
VERTEX
  8
0
 62
7
  6
CONTINUOUS
 10
195.2548913644
 20
118.1141508162
  0
VERTEX
  8
0
 62
7
  6
CONTINUOUS
 10
195.2135830232
 20
118.1040395316
  0
VERTEX
  8
0
 62
7
  6
CONTINUOUS
 10
195.1939922609
 20
118.1027848289
  0
SEQEND
  0
POLYLINE
  8
0
 62
7
  6
CONTINUOUS
 66
1
 70
0
  0
VERTEX
  8
0
 62
7
  6
CONTINUOUS
 10
195.396262291
 20
74.6135177914
  0
VERTEX
  8
0
 62
7
  6
CONTINUOUS
 10
195.3924147224
 20
74.8952418557
  0
VERTEX
  8
0
 62
7
  6
CONTINUOUS
 10
195.392115781
 20
74.9623760048
  0
VERTEX
  8
0
 62
7
  6
CONTINUOUS
 10
195.3927706486
 20
75.0285915383
  0
VERTEX
  8
0
 62
7
  6
CONTINUOUS
 10
195.3944677887
 20
75.0938368538
  0
VERTEX
  8
0
 62
7
  6
CONTINUOUS
 10
195.3973120016
 20
75.1580675695
  0
VERTEX
  8
0
 62
7
  6
CONTINUOUS
 10
195.4014114558
 20
75.2212837149
  0
VERTEX
  8
0
 62
7
  6
CONTINUOUS
 10
195.4068638032
 20
75.2834624732
  0
VERTEX
  8
0
 62
7
  6
CONTINUOUS
 10
195.4137646138
 20
75.3444785059
  0
VERTEX
  8
0
 62
7
  6
CONTINUOUS
 10
195.4222118409
 20
75.4040793044
  0
VERTEX
  8
0
 62
7
  6
CONTINUOUS
 10
195.4323342579
 20
75.4623999156
  0
VERTEX
  8
0
 62
7
  6
CONTINUOUS
 10
195.4442463999
 20
75.5194698423
  0
VERTEX
  8
0
 62
7
  6
CONTINUOUS
 10
195.4582007465
 20
75.5752891453
  0
VERTEX
  8
0
 62
7
  6
CONTINUOUS
 10
195.4743022662
 20
75.629027722
  0
VERTEX
  8
0
 62
7
  6
CONTINUOUS
 10
195.4929895033
 20
75.6799751039
  0
VERTEX
  8
0
 62
7
  6
CONTINUOUS
 10
195.5149756178
 20
75.7288615084
  0
VERTEX
  8
0
 62
7
  6
CONTINUOUS
 10
195.5402764366
 20
75.7748796873
  0
VERTEX
  8
0
 62
7
  6
CONTINUOUS
 10
195.5689639439
 20
75.8173535056
  0
VERTEX
  8
0
 62
7
  6
CONTINUOUS
 10
195.6009999384
 20
75.8555015832
  0
VERTEX
  8
0
 62
7
  6
CONTINUOUS
 10
195.6364490591
 20
75.8885759096
  0
VERTEX
  8
0
 62
7
  6
CONTINUOUS
 10
195.6748859812
 20
75.9153368642
  0
VERTEX
  8
0
 62
7
  6
CONTINUOUS
 10
195.7156895294
 20
75.9344190798
  0
VERTEX
  8
0
 62
7
  6
CONTINUOUS
 10
195.757002152
 20
75.9441185844
  0
VERTEX
  8
0
 62
7
  6
CONTINUOUS
 10
195.7746917241
 20
75.9451671997
  0
SEQEND
  0
LINE
  8
0
 62
7
  6
CONTINUOUS
 10
195.3987043456
 20
74.3305036224
 11
195.396262291
 21
74.6135177914
  0
LINE
  8
0
 62
7
  6
CONTINUOUS
 10
195.5701326285
 20
119.7214242615
 11
195.5725486029
 21
119.4384025248
  0
LINE
  8
0
 62
7
  6
CONTINUOUS
 10
195.3987043456
 20
74.3305036224
 11
195.3992607225
 21
68.7824026818
  0
LINE
  8
0
 62
7
  6
CONTINUOUS
 10
195.5695970362
 20
125.2655123871
 11
195.5701326285
 21
119.7214242615
  0
LINE
  8
0
 62
7
  6
CONTINUOUS
 10
195.5696563443
 20
125.2665943384
 11
195.5695970391
 21
125.2655743986
  0
LINE
  8
0
 62
7
  6
CONTINUOUS
 10
195.3992607224
 20
68.7823705688
 11
195.3992013964
 21
68.7813625317
  0
LINE
  8
0
 62
7
  6
CONTINUOUS
 10
194.3270567931
 20
64.4895451814
 11
194.3429591675
 21
64.5942707264
  0
POLYLINE
  8
0
 62
7
  6
CONTINUOUS
 66
1
 70
0
  0
VERTEX
  8
0
 62
7
  6
CONTINUOUS
 10
213.4299597055
 20
129.4627430249
  0
VERTEX
  8
0
 62
7
  6
CONTINUOUS
 10
213.2501764303
 20
129.0617938031
  0
VERTEX
  8
0
 62
7
  6
CONTINUOUS
 10
213.0751118921
 20
128.5961807623
  0
VERTEX
  8
0
 62
7
  6
CONTINUOUS
 10
212.9163434902
 20
128.0945562819
  0
VERTEX
  8
0
 62
7
  6
CONTINUOUS
 10
212.7736387444
 20
127.5612200797
  0
VERTEX
  8
0
 62
7
  6
CONTINUOUS
 10
212.6469505108
 20
127.0008290579
  0
VERTEX
  8
0
 62
7
  6
CONTINUOUS
 10
212.5362629798
 20
126.4182182524
  0
VERTEX
  8
0
 62
7
  6
CONTINUOUS
 10
212.4415341285
 20
125.8183933255
  0
VERTEX
  8
0
 62
7
  6
CONTINUOUS
 10
212.3696563148
 20
125.2666002041
  0
SEQEND
  0
POLYLINE
  8
0
 62
7
  6
CONTINUOUS
 66
1
 70
0
  0
VERTEX
  8
0
 62
7
  6
CONTINUOUS
 10
197.5282401749
 20
130.9239762062
  0
VERTEX
  8
0
 62
7
  6
CONTINUOUS
 10
197.4632853054
 20
130.9209324983
  0
VERTEX
  8
0
 62
7
  6
CONTINUOUS
 10
197.3266464682
 20
130.8937442971
  0
VERTEX
  8
0
 62
7
  6
CONTINUOUS
 10
197.2017046362
 20
130.8409421806
  0
VERTEX
  8
0
 62
7
  6
CONTINUOUS
 10
197.0952749064
 20
130.7690832115
  0
VERTEX
  8
0
 62
7
  6
CONTINUOUS
 10
197.0100981359
 20
130.6866776951
  0
VERTEX
  8
0
 62
7
  6
CONTINUOUS
 10
196.9444995508
 20
130.6010208086
  0
VERTEX
  8
0
 62
7
  6
CONTINUOUS
 10
196.8936191999
 20
130.5150686962
  0
VERTEX
  8
0
 62
7
  6
CONTINUOUS
 10
196.8523792019
 20
130.4279356033
  0
VERTEX
  8
0
 62
7
  6
CONTINUOUS
 10
196.8170761629
 20
130.3371926035
  0
VERTEX
  8
0
 62
7
  6
CONTINUOUS
 10
196.7851648399
 20
130.2395724223
  0
VERTEX
  8
0
 62
7
  6
CONTINUOUS
 10
196.7550494505
 20
130.1317304965
  0
VERTEX
  8
0
 62
7
  6
CONTINUOUS
 10
196.7257987429
 20
130.0106147995
  0
VERTEX
  8
0
 62
7
  6
CONTINUOUS
 10
196.6968552225
 20
129.8733028221
  0
VERTEX
  8
0
 62
7
  6
CONTINUOUS
 10
196.6678751339
 20
129.7168271014
  0
VERTEX
  8
0
 62
7
  6
CONTINUOUS
 10
196.6418000629
 20
129.5584016154
  0
SEQEND
  0
POLYLINE
  8
0
 62
7
  6
CONTINUOUS
 66
1
 70
0
  0
VERTEX
  8
0
 62
7
  6
CONTINUOUS
 10
180.7282401749
 20
130.9239762062
  0
VERTEX
  8
0
 62
7
  6
CONTINUOUS
 10
180.6632853054
 20
130.9209324983
  0
VERTEX
  8
0
 62
7
  6
CONTINUOUS
 10
180.5266464682
 20
130.8937442971
  0
VERTEX
  8
0
 62
7
  6
CONTINUOUS
 10
180.4017046362
 20
130.8409421806
  0
VERTEX
  8
0
 62
7
  6
CONTINUOUS
 10
180.2952749064
 20
130.7690832115
  0
VERTEX
  8
0
 62
7
  6
CONTINUOUS
 10
180.2100981359
 20
130.6866776951
  0
VERTEX
  8
0
 62
7
  6
CONTINUOUS
 10
180.1444995508
 20
130.6010208086
  0
VERTEX
  8
0
 62
7
  6
CONTINUOUS
 10
180.0936191999
 20
130.5150686962
  0
VERTEX
  8
0
 62
7
  6
CONTINUOUS
 10
180.0523792019
 20
130.4279356033
  0
VERTEX
  8
0
 62
7
  6
CONTINUOUS
 10
180.0170761629
 20
130.3371926035
  0
VERTEX
  8
0
 62
7
  6
CONTINUOUS
 10
179.9851648399
 20
130.2395724223
  0
VERTEX
  8
0
 62
7
  6
CONTINUOUS
 10
179.9550494505
 20
130.1317304965
  0
VERTEX
  8
0
 62
7
  6
CONTINUOUS
 10
179.9257987429
 20
130.0106147995
  0
VERTEX
  8
0
 62
7
  6
CONTINUOUS
 10
179.8968552225
 20
129.8733028221
  0
VERTEX
  8
0
 62
7
  6
CONTINUOUS
 10
179.8678751339
 20
129.7168271014
  0
VERTEX
  8
0
 62
7
  6
CONTINUOUS
 10
179.8418000629
 20
129.5584016154
  0
SEQEND
  0
POLYLINE
  8
0
 62
7
  6
CONTINUOUS
 66
1
 70
0
  0
VERTEX
  8
0
 62
7
  6
CONTINUOUS
 10
163.9282401749
 20
130.9239762062
  0
VERTEX
  8
0
 62
7
  6
CONTINUOUS
 10
163.8632853054
 20
130.9209324983
  0
VERTEX
  8
0
 62
7
  6
CONTINUOUS
 10
163.7266464682
 20
130.8937442971
  0
VERTEX
  8
0
 62
7
  6
CONTINUOUS
 10
163.6017046362
 20
130.8409421806
  0
VERTEX
  8
0
 62
7
  6
CONTINUOUS
 10
163.4952749064
 20
130.7690832115
  0
VERTEX
  8
0
 62
7
  6
CONTINUOUS
 10
163.4100981359
 20
130.6866776951
  0
VERTEX
  8
0
 62
7
  6
CONTINUOUS
 10
163.3444995508
 20
130.6010208086
  0
VERTEX
  8
0
 62
7
  6
CONTINUOUS
 10
163.2936191999
 20
130.5150686962
  0
VERTEX
  8
0
 62
7
  6
CONTINUOUS
 10
163.2523792019
 20
130.4279356033
  0
VERTEX
  8
0
 62
7
  6
CONTINUOUS
 10
163.2170761629
 20
130.3371926035
  0
VERTEX
  8
0
 62
7
  6
CONTINUOUS
 10
163.1851648399
 20
130.2395724223
  0
VERTEX
  8
0
 62
7
  6
CONTINUOUS
 10
163.1550494505
 20
130.1317304965
  0
VERTEX
  8
0
 62
7
  6
CONTINUOUS
 10
163.1257987429
 20
130.0106147995
  0
VERTEX
  8
0
 62
7
  6
CONTINUOUS
 10
163.0968552225
 20
129.8733028221
  0
VERTEX
  8
0
 62
7
  6
CONTINUOUS
 10
163.0678751339
 20
129.7168271014
  0
VERTEX
  8
0
 62
7
  6
CONTINUOUS
 10
163.0418000629
 20
129.5584016154
  0
SEQEND
  0
POLYLINE
  8
0
 62
7
  6
CONTINUOUS
 66
1
 70
0
  0
VERTEX
  8
0
 62
7
  6
CONTINUOUS
 10
147.1282401749
 20
130.9239762062
  0
VERTEX
  8
0
 62
7
  6
CONTINUOUS
 10
147.0632853054
 20
130.9209324983
  0
VERTEX
  8
0
 62
7
  6
CONTINUOUS
 10
146.9266464682
 20
130.8937442971
  0
VERTEX
  8
0
 62
7
  6
CONTINUOUS
 10
146.8017046362
 20
130.8409421806
  0
VERTEX
  8
0
 62
7
  6
CONTINUOUS
 10
146.6952749064
 20
130.7690832115
  0
VERTEX
  8
0
 62
7
  6
CONTINUOUS
 10
146.6100981359
 20
130.6866776951
  0
VERTEX
  8
0
 62
7
  6
CONTINUOUS
 10
146.5444995508
 20
130.6010208086
  0
VERTEX
  8
0
 62
7
  6
CONTINUOUS
 10
146.4936191999
 20
130.5150686962
  0
VERTEX
  8
0
 62
7
  6
CONTINUOUS
 10
146.4523792019
 20
130.4279356033
  0
VERTEX
  8
0
 62
7
  6
CONTINUOUS
 10
146.4170761629
 20
130.3371926035
  0
VERTEX
  8
0
 62
7
  6
CONTINUOUS
 10
146.3851648399
 20
130.2395724222
  0
VERTEX
  8
0
 62
7
  6
CONTINUOUS
 10
146.3550494505
 20
130.1317304965
  0
VERTEX
  8
0
 62
7
  6
CONTINUOUS
 10
146.3257987429
 20
130.0106147995
  0
VERTEX
  8
0
 62
7
  6
CONTINUOUS
 10
146.2968552225
 20
129.8733028221
  0
VERTEX
  8
0
 62
7
  6
CONTINUOUS
 10
146.2678751339
 20
129.7168271014
  0
VERTEX
  8
0
 62
7
  6
CONTINUOUS
 10
146.2418000629
 20
129.5584016154
  0
SEQEND
  0
POLYLINE
  8
0
 62
7
  6
CONTINUOUS
 66
1
 70
0
  0
VERTEX
  8
0
 62
7
  6
CONTINUOUS
 10
130.3282401749
 20
130.9239762062
  0
VERTEX
  8
0
 62
7
  6
CONTINUOUS
 10
130.2632853054
 20
130.9209324983
  0
VERTEX
  8
0
 62
7
  6
CONTINUOUS
 10
130.1266464682
 20
130.8937442971
  0
VERTEX
  8
0
 62
7
  6
CONTINUOUS
 10
130.0017046362
 20
130.8409421806
  0
VERTEX
  8
0
 62
7
  6
CONTINUOUS
 10
129.8952749064
 20
130.7690832115
  0
VERTEX
  8
0
 62
7
  6
CONTINUOUS
 10
129.8100981359
 20
130.6866776951
  0
VERTEX
  8
0
 62
7
  6
CONTINUOUS
 10
129.7444995508
 20
130.6010208086
  0
VERTEX
  8
0
 62
7
  6
CONTINUOUS
 10
129.6936191999
 20
130.5150686962
  0
VERTEX
  8
0
 62
7
  6
CONTINUOUS
 10
129.6523792019
 20
130.4279356033
  0
VERTEX
  8
0
 62
7
  6
CONTINUOUS
 10
129.6170761629
 20
130.3371926035
  0
VERTEX
  8
0
 62
7
  6
CONTINUOUS
 10
129.5851648399
 20
130.2395724222
  0
VERTEX
  8
0
 62
7
  6
CONTINUOUS
 10
129.5550494505
 20
130.1317304965
  0
VERTEX
  8
0
 62
7
  6
CONTINUOUS
 10
129.5257987429
 20
130.0106147995
  0
VERTEX
  8
0
 62
7
  6
CONTINUOUS
 10
129.4968552225
 20
129.8733028221
  0
VERTEX
  8
0
 62
7
  6
CONTINUOUS
 10
129.4678751339
 20
129.7168271014
  0
VERTEX
  8
0
 62
7
  6
CONTINUOUS
 10
129.4418000629
 20
129.5584016154
  0
SEQEND
  0
POLYLINE
  8
0
 62
7
  6
CONTINUOUS
 66
1
 70
0
  0
VERTEX
  8
0
 62
7
  6
CONTINUOUS
 10
113.5282401749
 20
130.9239762062
  0
VERTEX
  8
0
 62
7
  6
CONTINUOUS
 10
113.4632853054
 20
130.9209324983
  0
VERTEX
  8
0
 62
7
  6
CONTINUOUS
 10
113.3266464682
 20
130.8937442971
  0
VERTEX
  8
0
 62
7
  6
CONTINUOUS
 10
113.2017046362
 20
130.8409421806
  0
VERTEX
  8
0
 62
7
  6
CONTINUOUS
 10
113.0952749064
 20
130.7690832115
  0
VERTEX
  8
0
 62
7
  6
CONTINUOUS
 10
113.0100981359
 20
130.6866776951
  0
VERTEX
  8
0
 62
7
  6
CONTINUOUS
 10
112.9444995508
 20
130.6010208086
  0
VERTEX
  8
0
 62
7
  6
CONTINUOUS
 10
112.8936191999
 20
130.5150686962
  0
VERTEX
  8
0
 62
7
  6
CONTINUOUS
 10
112.8523792019
 20
130.4279356033
  0
VERTEX
  8
0
 62
7
  6
CONTINUOUS
 10
112.8170761629
 20
130.3371926035
  0
VERTEX
  8
0
 62
7
  6
CONTINUOUS
 10
112.7851648399
 20
130.2395724223
  0
VERTEX
  8
0
 62
7
  6
CONTINUOUS
 10
112.7550494505
 20
130.1317304965
  0
VERTEX
  8
0
 62
7
  6
CONTINUOUS
 10
112.7257987429
 20
130.0106147995
  0
VERTEX
  8
0
 62
7
  6
CONTINUOUS
 10
112.6968552225
 20
129.8733028221
  0
VERTEX
  8
0
 62
7
  6
CONTINUOUS
 10
112.6678751339
 20
129.7168271014
  0
VERTEX
  8
0
 62
7
  6
CONTINUOUS
 10
112.6418000629
 20
129.5584016154
  0
SEQEND
  0
POLYLINE
  8
0
 62
7
  6
CONTINUOUS
 66
1
 70
0
  0
VERTEX
  8
0
 62
7
  6
CONTINUOUS
 10
96.7282401763
 20
130.9239762062
  0
VERTEX
  8
0
 62
7
  6
CONTINUOUS
 10
96.6632848629
 20
130.9209324566
  0
VERTEX
  8
0
 62
7
  6
CONTINUOUS
 10
96.5266459096
 20
130.8937441248
  0
VERTEX
  8
0
 62
7
  6
CONTINUOUS
 10
96.4017041359
 20
130.8409419072
  0
VERTEX
  8
0
 62
7
  6
CONTINUOUS
 10
96.2952744804
 20
130.7690828624
  0
VERTEX
  8
0
 62
7
  6
CONTINUOUS
 10
96.2100977342
 20
130.6866772387
  0
VERTEX
  8
0
 62
7
  6
CONTINUOUS
 10
96.1444991846
 20
130.6010202599
  0
VERTEX
  8
0
 62
7
  6
CONTINUOUS
 10
96.0936188737
 20
130.5150680757
  0
VERTEX
  8
0
 62
7
  6
CONTINUOUS
 10
96.0523789201
 20
130.4279349434
  0
VERTEX
  8
0
 62
7
  6
CONTINUOUS
 10
96.0170759275
 20
130.3371919413
  0
VERTEX
  8
0
 62
7
  6
CONTINUOUS
 10
95.9851646408
 20
130.2395717616
  0
VERTEX
  8
0
 62
7
  6
CONTINUOUS
 10
95.9550492844
 20
130.1317298563
  0
VERTEX
  8
0
 62
7
  6
CONTINUOUS
 10
95.9257986116
 20
130.0106142174
  0
VERTEX
  8
0
 62
7
  6
CONTINUOUS
 10
95.8968551301
 20
129.8733023542
  0
VERTEX
  8
0
 62
7
  6
CONTINUOUS
 10
95.8678750857
 20
129.7168268244
  0
VERTEX
  8
0
 62
7
  6
CONTINUOUS
 10
95.8418000629
 20
129.5584016154
  0
SEQEND
  0
LINE
  8
0
 62
7
  6
CONTINUOUS
 10
96.7281358838
 20
130.9239762931
 11
101.040717934
 21
130.9239762931
  0
LINE
  8
0
 62
7
  6
CONTINUOUS
 10
113.5281398247
 20
130.9239762931
 11
117.840717934
 21
130.9239762931
  0
LINE
  8
0
 62
7
  6
CONTINUOUS
 10
130.3281398247
 20
130.9239762931
 11
134.640717934
 21
130.9239762931
  0
LINE
  8
0
 62
7
  6
CONTINUOUS
 10
147.1281398247
 20
130.9239762931
 11
151.440717934
 21
130.9239762931
  0
LINE
  8
0
 62
7
  6
CONTINUOUS
 10
163.9281398247
 20
130.9239762931
 11
168.240717934
 21
130.9239762931
  0
LINE
  8
0
 62
7
  6
CONTINUOUS
 10
180.7281398247
 20
130.9239762931
 11
185.040717934
 21
130.9239762931
  0
LINE
  8
0
 62
7
  6
CONTINUOUS
 10
197.5281398247
 20
130.9239762931
 11
201.840717934
 21
130.9239762931
  0
LINE
  8
0
 62
7
  6
CONTINUOUS
 10
214.3281398247
 20
130.9239762931
 11
218.640717934
 21
130.9239762931
  0
LINE
  8
0
 62
7
  6
CONTINUOUS
 10
231.128132788
 20
130.9239762931
 11
237.1844099672
 21
130.9239762931
  0
LINE
  8
0
 62
7
  6
CONTINUOUS
 10
186.1186813284
 20
129.0617938031
 11
185.9388980532
 21
129.4627430249
  0
POLYLINE
  8
0
 62
7
  6
CONTINUOUS
 66
1
 70
0
  0
VERTEX
  8
0
 62
7
  6
CONTINUOUS
 10
205.0417999732
 20
64.4895515466
  0
VERTEX
  8
0
 62
7
  6
CONTINUOUS
 10
205.0676059085
 20
64.3326734082
  0
VERTEX
  8
0
 62
7
  6
CONTINUOUS
 10
205.0965988259
 20
64.1759484631
  0
VERTEX
  8
0
 62
7
  6
CONTINUOUS
 10
205.1255543565
 20
64.0384222538
  0
VERTEX
  8
0
 62
7
  6
CONTINUOUS
 10
205.1548153068
 20
63.9171253103
  0
VERTEX
  8
0
 62
7
  6
CONTINUOUS
 10
205.1849378969
 20
63.8091332807
  0
VERTEX
  8
0
 62
7
  6
CONTINUOUS
 10
205.2168515281
 20
63.7113923775
  0
VERTEX
  8
0
 62
7
  6
CONTINUOUS
 10
205.2521494202
 20
63.6205555109
  0
VERTEX
  8
0
 62
7
  6
CONTINUOUS
 10
205.2933748913
 20
63.5333489231
  0
VERTEX
  8
0
 62
7
  6
CONTINUOUS
 10
205.3442309139
 20
63.4473345973
  0
VERTEX
  8
0
 62
7
  6
CONTINUOUS
 10
205.4098023718
 20
63.3616111761
  0
VERTEX
  8
0
 62
7
  6
CONTINUOUS
 10
205.4949690631
 20
63.2791201392
  0
VERTEX
  8
0
 62
7
  6
CONTINUOUS
 10
205.6014253152
 20
63.2071631421
  0
VERTEX
  8
0
 62
7
  6
CONTINUOUS
 10
205.7264367492
 20
63.1542730452
  0
VERTEX
  8
0
 62
7
  6
CONTINUOUS
 10
205.8631760053
 20
63.1270304041
  0
VERTEX
  8
0
 62
7
  6
CONTINUOUS
 10
205.9282404873
 20
63.1239763803
  0
SEQEND
  0
LINE
  8
0
 62
7
  6
CONTINUOUS
 10
205.0258985912
 20
64.5942707261
 11
205.0418009655
 21
64.4895451814
  0
LINE
  8
0
 62
7
  6
CONTINUOUS
 10
203.969656341
 20
68.781358276
 11
203.9695970391
 21
68.7823781876
  0
LINE
  8
0
 62
7
  6
CONTINUOUS
 10
203.7992014143
 20
125.2665943384
 11
203.7992607195
 21
125.2655743986
  0
POLYLINE
  8
0
 62
7
  6
CONTINUOUS
 66
1
 70
0
  0
VERTEX
  8
0
 62
7
  6
CONTINUOUS
 10
203.7924154995
 20
119.1527250558
  0
VERTEX
  8
0
 62
7
  6
CONTINUOUS
 10
203.796262694
 20
119.4344386383
  0
VERTEX
  8
0
 62
7
  6
CONTINUOUS
 10
203.7987044378
 20
119.7174508398
  0
VERTEX
  8
0
 62
7
  6
CONTINUOUS
 10
203.7992607225
 20
125.2655123871
  0
SEQEND
  0
POLYLINE
  8
0
 62
7
  6
CONTINUOUS
 66
1
 70
0
  0
VERTEX
  8
0
 62
7
  6
CONTINUOUS
 10
203.9763945692
 20
74.8910800915
  0
VERTEX
  8
0
 62
7
  6
CONTINUOUS
 10
203.9725486032
 20
74.6095500108
  0
VERTEX
  8
0
 62
7
  6
CONTINUOUS
 10
203.9701326287
 20
74.3265283503
  0
VERTEX
  8
0
 62
7
  6
CONTINUOUS
 10
203.9695970362
 20
68.7824401991
  0
SEQEND
  0
POLYLINE
  8
0
 62
7
  6
CONTINUOUS
 66
1
 70
0
  0
VERTEX
  8
0
 62
7
  6
CONTINUOUS
 10
194.3388990963
 20
64.5852116874
  0
VERTEX
  8
0
 62
7
  6
CONTINUOUS
 10
194.5196258234
 20
64.9884584269
  0
VERTEX
  8
0
 62
7
  6
CONTINUOUS
 10
194.6946196413
 20
65.4543091581
  0
VERTEX
  8
0
 62
7
  6
CONTINUOUS
 10
194.8533175943
 20
65.9561596782
  0
VERTEX
  8
0
 62
7
  6
CONTINUOUS
 10
194.99595037
 20
66.4897075116
  0
VERTEX
  8
0
 62
7
  6
CONTINUOUS
 10
195.1225642698
 20
67.0502933425
  0
VERTEX
  8
0
 62
7
  6
CONTINUOUS
 10
195.2331748807
 20
67.6330804774
  0
VERTEX
  8
0
 62
7
  6
CONTINUOUS
 10
195.3278243404
 20
68.2330620658
  0
VERTEX
  8
0
 62
7
  6
CONTINUOUS
 10
195.3992014472
 20
68.7813524103
  0
SEQEND
  0
POLYLINE
  8
0
 62
7
  6
CONTINUOUS
 66
1
 70
0
  0
VERTEX
  8
0
 62
7
  6
CONTINUOUS
 10
195.3992013964
 20
68.7813625317
  0
VERTEX
  8
0
 62
7
  6
CONTINUOUS
 10
195.393389696
 20
68.7727656337
  0
VERTEX
  8
0
 62
7
  6
CONTINUOUS
 10
195.374302943
 20
68.7639723152
  0
VERTEX
  8
0
 62
7
  6
CONTINUOUS
 10
195.3431016959
 20
68.7572438725
  0
VERTEX
  8
0
 62
7
  6
CONTINUOUS
 10
195.3017831501
 20
68.7529241691
  0
VERTEX
  8
0
 62
7
  6
CONTINUOUS
 10
195.2530868039
 20
68.7511352825
  0
VERTEX
  8
0
 62
7
  6
CONTINUOUS
 10
195.1992607225
 20
68.7516949698
  0
SEQEND
  0
LINE
  8
0
 62
7
  6
CONTINUOUS
 10
221.6492319791
 20
64.98845832
 11
221.8299586623
 21
64.5852116874
  0
POLYLINE
  8
0
 62
7
  6
CONTINUOUS
 66
1
 70
0
  0
VERTEX
  8
0
 62
7
  6
CONTINUOUS
 10
203.9696563114
 20
68.7813524103
  0
VERTEX
  8
0
 62
7
  6
CONTINUOUS
 10
204.0410335665
 20
68.2330610279
  0
VERTEX
  8
0
 62
7
  6
CONTINUOUS
 10
204.1356830278
 20
67.6330796125
  0
VERTEX
  8
0
 62
7
  6
CONTINUOUS
 10
204.2462936327
 20
67.050292648
  0
VERTEX
  8
0
 62
7
  6
CONTINUOUS
 10
204.3729075189
 20
66.4897069817
  0
VERTEX
  8
0
 62
7
  6
CONTINUOUS
 10
204.5155402733
 20
65.9561593034
  0
VERTEX
  8
0
 62
7
  6
CONTINUOUS
 10
204.6742381975
 20
65.4543089253
  0
VERTEX
  8
0
 62
7
  6
CONTINUOUS
 10
204.8492319791
 20
64.98845832
  0
SEQEND
  0
POLYLINE
  8
0
 62
7
  6
CONTINUOUS
 66
1
 70
0
  0
VERTEX
  8
0
 62
7
  6
CONTINUOUS
 10
212.196262291
 20
74.6135177914
  0
VERTEX
  8
0
 62
7
  6
CONTINUOUS
 10
212.1924147224
 20
74.8952418557
  0
VERTEX
  8
0
 62
7
  6
CONTINUOUS
 10
212.192115781
 20
74.9623760048
  0
VERTEX
  8
0
 62
7
  6
CONTINUOUS
 10
212.1927706486
 20
75.0285915383
  0
VERTEX
  8
0
 62
7
  6
CONTINUOUS
 10
212.1944677887
 20
75.0938368538
  0
VERTEX
  8
0
 62
7
  6
CONTINUOUS
 10
212.1973120016
 20
75.1580675695
  0
VERTEX
  8
0
 62
7
  6
CONTINUOUS
 10
212.2014114558
 20
75.2212837149
  0
VERTEX
  8
0
 62
7
  6
CONTINUOUS
 10
212.2068638032
 20
75.2834624732
  0
VERTEX
  8
0
 62
7
  6
CONTINUOUS
 10
212.2137646138
 20
75.3444785059
  0
VERTEX
  8
0
 62
7
  6
CONTINUOUS
 10
212.2222118409
 20
75.4040793044
  0
VERTEX
  8
0
 62
7
  6
CONTINUOUS
 10
212.2323342579
 20
75.4623999156
  0
VERTEX
  8
0
 62
7
  6
CONTINUOUS
 10
212.2442463999
 20
75.5194698423
  0
VERTEX
  8
0
 62
7
  6
CONTINUOUS
 10
212.2582007465
 20
75.5752891453
  0
VERTEX
  8
0
 62
7
  6
CONTINUOUS
 10
212.2743022662
 20
75.629027722
  0
VERTEX
  8
0
 62
7
  6
CONTINUOUS
 10
212.2929895033
 20
75.6799751039
  0
VERTEX
  8
0
 62
7
  6
CONTINUOUS
 10
212.3149756178
 20
75.7288615084
  0
VERTEX
  8
0
 62
7
  6
CONTINUOUS
 10
212.3402764366
 20
75.7748796873
  0
VERTEX
  8
0
 62
7
  6
CONTINUOUS
 10
212.3689639439
 20
75.8173535056
  0
VERTEX
  8
0
 62
7
  6
CONTINUOUS
 10
212.4009999384
 20
75.8555015832
  0
VERTEX
  8
0
 62
7
  6
CONTINUOUS
 10
212.4364490591
 20
75.8885759096
  0
VERTEX
  8
0
 62
7
  6
CONTINUOUS
 10
212.4748859812
 20
75.9153368642
  0
VERTEX
  8
0
 62
7
  6
CONTINUOUS
 10
212.5156895294
 20
75.9344190798
  0
VERTEX
  8
0
 62
7
  6
CONTINUOUS
 10
212.557002152
 20
75.9441185844
  0
VERTEX
  8
0
 62
7
  6
CONTINUOUS
 10
212.5746917241
 20
75.9451671997
  0
SEQEND
  0
LINE
  8
0
 62
7
  6
CONTINUOUS
 10
212.1987043456
 20
74.3305036224
 11
212.196262291
 21
74.6135177914
  0
LINE
  8
0
 62
7
  6
CONTINUOUS
 10
212.1987043456
 20
74.3305036224
 11
212.1992607225
 21
68.7824026818
  0
LINE
  8
0
 62
7
  6
CONTINUOUS
 10
212.3696563443
 20
125.2665943384
 11
212.3695970391
 21
125.2655743986
  0
LINE
  8
0
 62
7
  6
CONTINUOUS
 10
213.4418011011
 20
129.5584082747
 11
213.4258963166
 21
129.4536809327
  0
POLYLINE
  8
0
 62
7
  6
CONTINUOUS
 66
1
 70
0
  0
VERTEX
  8
0
 62
7
  6
CONTINUOUS
 10
230.2299597055
 20
129.4627430249
  0
VERTEX
  8
0
 62
7
  6
CONTINUOUS
 10
230.0501764303
 20
129.0617938031
  0
VERTEX
  8
0
 62
7
  6
CONTINUOUS
 10
229.8751118921
 20
128.5961807623
  0
VERTEX
  8
0
 62
7
  6
CONTINUOUS
 10
229.7163434902
 20
128.0945562819
  0
VERTEX
  8
0
 62
7
  6
CONTINUOUS
 10
229.5736387444
 20
127.5612200797
  0
VERTEX
  8
0
 62
7
  6
CONTINUOUS
 10
229.4469505108
 20
127.0008290579
  0
VERTEX
  8
0
 62
7
  6
CONTINUOUS
 10
229.3362629798
 20
126.4182182524
  0
VERTEX
  8
0
 62
7
  6
CONTINUOUS
 10
229.2415341285
 20
125.8183933255
  0
VERTEX
  8
0
 62
7
  6
CONTINUOUS
 10
229.1696563148
 20
125.2666002041
  0
SEQEND
  0
POLYLINE
  8
0
 62
7
  6
CONTINUOUS
 66
1
 70
0
  0
VERTEX
  8
0
 62
7
  6
CONTINUOUS
 10
202.7270576907
 20
129.5584016475
  0
VERTEX
  8
0
 62
7
  6
CONTINUOUS
 10
202.701011456
 20
129.7166614197
  0
VERTEX
  8
0
 62
7
  6
CONTINUOUS
 10
202.6720627466
 20
129.8729979778
  0
VERTEX
  8
0
 62
7
  6
CONTINUOUS
 10
202.643154088
 20
130.0101930627
  0
VERTEX
  8
0
 62
7
  6
CONTINUOUS
 10
202.6139436613
 20
130.1312084913
  0
VERTEX
  8
0
 62
7
  6
CONTINUOUS
 10
202.5838775674
 20
130.2389597262
  0
VERTEX
  8
0
 62
7
  6
CONTINUOUS
 10
202.552031325
 20
130.3364895165
  0
VERTEX
  8
0
 62
7
  6
CONTINUOUS
 10
202.5168229181
 20
130.4271283019
  0
VERTEX
  8
0
 62
7
  6
CONTINUOUS
 10
202.4757374715
 20
130.5141184393
  0
VERTEX
  8
0
 62
7
  6
CONTINUOUS
 10
202.4251128103
 20
130.5998880556
  0
VERTEX
  8
0
 62
7
  6
CONTINUOUS
 10
202.3599140607
 20
130.6853628343
  0
VERTEX
  8
0
 62
7
  6
CONTINUOUS
 10
202.2752833867
 20
130.7676852787
  0
VERTEX
  8
0
 62
7
  6
CONTINUOUS
 10
202.1694623648
 20
130.8396743442
  0
VERTEX
  8
0
 62
7
  6
CONTINUOUS
 10
202.045123877
 20
130.8928382748
  0
VERTEX
  8
0
 62
7
  6
CONTINUOUS
 10
201.9090627261
 20
130.9205943511
  0
VERTEX
  8
0
 62
7
  6
CONTINUOUS
 10
201.8406161443
 20
130.9239762047
  0
SEQEND
  0
LINE
  8
0
 62
7
  6
CONTINUOUS
 10
202.742961442
 20
129.4536809327
 11
202.7270566575
 21
129.5584082747
  0
POLYLINE
  8
0
 62
7
  6
CONTINUOUS
 66
1
 70
0
  0
VERTEX
  8
0
 62
7
  6
CONTINUOUS
 10
203.7992014439
 20
125.2666002041
  0
VERTEX
  8
0
 62
7
  6
CONTINUOUS
 10
203.7273236301
 20
125.8183933255
  0
VERTEX
  8
0
 62
7
  6
CONTINUOUS
 10
203.6325947788
 20
126.4182182524
  0
VERTEX
  8
0
 62
7
  6
CONTINUOUS
 10
203.5219072478
 20
127.0008290579
  0
VERTEX
  8
0
 62
7
  6
CONTINUOUS
 10
203.3952190142
 20
127.5612200797
  0
VERTEX
  8
0
 62
7
  6
CONTINUOUS
 10
203.2525142684
 20
128.0945562819
  0
VERTEX
  8
0
 62
7
  6
CONTINUOUS
 10
203.0937458665
 20
128.5961807623
  0
VERTEX
  8
0
 62
7
  6
CONTINUOUS
 10
202.9186813284
 20
129.0617938031
  0
SEQEND
  0
POLYLINE
  8
0
 62
7
  6
CONTINUOUS
 66
1
 70
0
  0
VERTEX
  8
0
 62
7
  6
CONTINUOUS
 10
212.3725486029
 20
119.4384025248
  0
VERTEX
  8
0
 62
7
  6
CONTINUOUS
 10
212.3763955959
 20
119.1567848362
  0
VERTEX
  8
0
 62
7
  6
CONTINUOUS
 10
212.3767493686
 20
119.0895038493
  0
VERTEX
  8
0
 62
7
  6
CONTINUOUS
 10
212.3761513037
 20
119.0231436124
  0
VERTEX
  8
0
 62
7
  6
CONTINUOUS
 10
212.374513703
 20
118.957754858
  0
VERTEX
  8
0
 62
7
  6
CONTINUOUS
 10
212.3717326047
 20
118.893386113
  0
VERTEX
  8
0
 62
7
  6
CONTINUOUS
 10
212.3676991286
 20
118.8300389746
  0
VERTEX
  8
0
 62
7
  6
CONTINUOUS
 10
212.3623150278
 20
118.7677344777
  0
VERTEX
  8
0
 62
7
  6
CONTINUOUS
 10
212.3554842492
 20
118.7065873896
  0
VERTEX
  8
0
 62
7
  6
CONTINUOUS
 10
212.3471159349
 20
118.6468753385
  0
VERTEX
  8
0
 62
7
  6
CONTINUOUS
 10
212.3370712025
 20
118.5884583206
  0
VERTEX
  8
0
 62
7
  6
CONTINUOUS
 10
212.3252327169
 20
118.5312122377
  0
VERTEX
  8
0
 62
7
  6
CONTINUOUS
 10
212.3113914998
 20
118.4753604269
  0
VERTEX
  8
0
 62
7
  6
CONTINUOUS
 10
212.2953551421
 20
118.4213755211
  0
VERTEX
  8
0
 62
7
  6
CONTINUOUS
 10
212.276783346
 20
118.3702408446
  0
VERTEX
  8
0
 62
7
  6
CONTINUOUS
 10
212.2549354162
 20
118.3212219897
  0
VERTEX
  8
0
 62
7
  6
CONTINUOUS
 10
212.229758414
 20
118.2750185657
  0
VERTEX
  8
0
 62
7
  6
CONTINUOUS
 10
212.2011943266
 20
118.2323411486
  0
VERTEX
  8
0
 62
7
  6
CONTINUOUS
 10
212.1692752292
 20
118.1939618912
  0
VERTEX
  8
0
 62
7
  6
CONTINUOUS
 10
212.1339491611
 20
118.1606381782
  0
VERTEX
  8
0
 62
7
  6
CONTINUOUS
 10
212.0956235763
 20
118.1335872674
  0
VERTEX
  8
0
 62
7
  6
CONTINUOUS
 10
212.0548913644
 20
118.1141508162
  0
VERTEX
  8
0
 62
7
  6
CONTINUOUS
 10
212.0135830232
 20
118.1040395316
  0
VERTEX
  8
0
 62
7
  6
CONTINUOUS
 10
211.9939922609
 20
118.1027848289
  0
SEQEND
  0
LINE
  8
0
 62
7
  6
CONTINUOUS
 10
212.3701326285
 20
119.7214242615
 11
212.3725486029
 21
119.4384025248
  0
LINE
  8
0
 62
7
  6
CONTINUOUS
 10
212.3695970362
 20
125.2655123871
 11
212.3701326285
 21
119.7214242615
  0
LINE
  8
0
 62
7
  6
CONTINUOUS
 10
212.1992607224
 20
68.7823705688
 11
212.1992013964
 21
68.7813625317
  0
LINE
  8
0
 62
7
  6
CONTINUOUS
 10
211.1270567931
 20
64.4895451814
 11
211.1429591675
 21
64.5942707264
  0
LINE
  8
0
 62
7
  6
CONTINUOUS
 10
202.9186813284
 20
129.0617938031
 11
202.7388980532
 21
129.4627430249
  0
POLYLINE
  8
0
 62
7
  6
CONTINUOUS
 66
1
 70
0
  0
VERTEX
  8
0
 62
7
  6
CONTINUOUS
 10
221.8417999732
 20
64.4895515466
  0
VERTEX
  8
0
 62
7
  6
CONTINUOUS
 10
221.8676059085
 20
64.3326734082
  0
VERTEX
  8
0
 62
7
  6
CONTINUOUS
 10
221.8965988259
 20
64.1759484631
  0
VERTEX
  8
0
 62
7
  6
CONTINUOUS
 10
221.9255543565
 20
64.0384222538
  0
VERTEX
  8
0
 62
7
  6
CONTINUOUS
 10
221.9548153068
 20
63.9171253103
  0
VERTEX
  8
0
 62
7
  6
CONTINUOUS
 10
221.9849378969
 20
63.8091332807
  0
VERTEX
  8
0
 62
7
  6
CONTINUOUS
 10
222.0168515281
 20
63.7113923775
  0
VERTEX
  8
0
 62
7
  6
CONTINUOUS
 10
222.0521494202
 20
63.6205555109
  0
VERTEX
  8
0
 62
7
  6
CONTINUOUS
 10
222.0933748913
 20
63.5333489231
  0
VERTEX
  8
0
 62
7
  6
CONTINUOUS
 10
222.1442309139
 20
63.4473345973
  0
VERTEX
  8
0
 62
7
  6
CONTINUOUS
 10
222.2098023718
 20
63.3616111761
  0
VERTEX
  8
0
 62
7
  6
CONTINUOUS
 10
222.2949690631
 20
63.2791201392
  0
VERTEX
  8
0
 62
7
  6
CONTINUOUS
 10
222.4014253152
 20
63.2071631421
  0
VERTEX
  8
0
 62
7
  6
CONTINUOUS
 10
222.5264367492
 20
63.1542730452
  0
VERTEX
  8
0
 62
7
  6
CONTINUOUS
 10
222.6631760053
 20
63.1270304041
  0
VERTEX
  8
0
 62
7
  6
CONTINUOUS
 10
222.7282404873
 20
63.1239763803
  0
SEQEND
  0
LINE
  8
0
 62
7
  6
CONTINUOUS
 10
221.8258985912
 20
64.5942707261
 11
221.8418009655
 21
64.4895451814
  0
POLYLINE
  8
0
 62
7
  6
CONTINUOUS
 66
1
 70
0
  0
VERTEX
  8
0
 62
7
  6
CONTINUOUS
 10
220.7696563114
 20
68.7813524103
  0
VERTEX
  8
0
 62
7
  6
CONTINUOUS
 10
220.8410335665
 20
68.2330610279
  0
VERTEX
  8
0
 62
7
  6
CONTINUOUS
 10
220.9356830278
 20
67.6330796125
  0
VERTEX
  8
0
 62
7
  6
CONTINUOUS
 10
221.0462936327
 20
67.050292648
  0
VERTEX
  8
0
 62
7
  6
CONTINUOUS
 10
221.1729075189
 20
66.4897069817
  0
VERTEX
  8
0
 62
7
  6
CONTINUOUS
 10
221.3155402733
 20
65.9561593034
  0
VERTEX
  8
0
 62
7
  6
CONTINUOUS
 10
221.4742381975
 20
65.4543089253
  0
VERTEX
  8
0
 62
7
  6
CONTINUOUS
 10
221.6492319791
 20
64.98845832
  0
SEQEND
  0
LINE
  8
0
 62
7
  6
CONTINUOUS
 10
220.769656341
 20
68.781358276
 11
220.7695970391
 21
68.7823781876
  0
LINE
  8
0
 62
7
  6
CONTINUOUS
 10
220.5992014143
 20
125.2665943384
 11
220.5992607195
 21
125.2655743986
  0
POLYLINE
  8
0
 62
7
  6
CONTINUOUS
 66
1
 70
0
  0
VERTEX
  8
0
 62
7
  6
CONTINUOUS
 10
220.5924154995
 20
119.1527250558
  0
VERTEX
  8
0
 62
7
  6
CONTINUOUS
 10
220.596262694
 20
119.4344386383
  0
VERTEX
  8
0
 62
7
  6
CONTINUOUS
 10
220.5987044378
 20
119.7174508398
  0
VERTEX
  8
0
 62
7
  6
CONTINUOUS
 10
220.5992607225
 20
125.2655123871
  0
SEQEND
  0
POLYLINE
  8
0
 62
7
  6
CONTINUOUS
 66
1
 70
0
  0
VERTEX
  8
0
 62
7
  6
CONTINUOUS
 10
220.7763945692
 20
74.8910800915
  0
VERTEX
  8
0
 62
7
  6
CONTINUOUS
 10
220.7725486032
 20
74.6095500108
  0
VERTEX
  8
0
 62
7
  6
CONTINUOUS
 10
220.7701326287
 20
74.3265283503
  0
VERTEX
  8
0
 62
7
  6
CONTINUOUS
 10
220.7695970362
 20
68.7824401991
  0
SEQEND
  0
LINE
  8
0
 62
7
  6
CONTINUOUS
 10
230.2418011011
 20
129.5584082747
 11
230.2258963166
 21
129.4536809327
  0
POLYLINE
  8
0
 62
7
  6
CONTINUOUS
 66
1
 70
0
  0
VERTEX
  8
0
 62
7
  6
CONTINUOUS
 10
211.1388990963
 20
64.5852116874
  0
VERTEX
  8
0
 62
7
  6
CONTINUOUS
 10
211.3196258234
 20
64.9884584269
  0
VERTEX
  8
0
 62
7
  6
CONTINUOUS
 10
211.4946196413
 20
65.4543091581
  0
VERTEX
  8
0
 62
7
  6
CONTINUOUS
 10
211.6533175943
 20
65.9561596782
  0
VERTEX
  8
0
 62
7
  6
CONTINUOUS
 10
211.79595037
 20
66.4897075116
  0
VERTEX
  8
0
 62
7
  6
CONTINUOUS
 10
211.9225642698
 20
67.0502933425
  0
VERTEX
  8
0
 62
7
  6
CONTINUOUS
 10
212.0331748807
 20
67.6330804774
  0
VERTEX
  8
0
 62
7
  6
CONTINUOUS
 10
212.1278243404
 20
68.2330620658
  0
VERTEX
  8
0
 62
7
  6
CONTINUOUS
 10
212.1992014472
 20
68.7813524103
  0
SEQEND
  0
POLYLINE
  8
0
 62
7
  6
CONTINUOUS
 66
1
 70
0
  0
VERTEX
  8
0
 62
7
  6
CONTINUOUS
 10
212.1992013964
 20
68.7813625317
  0
VERTEX
  8
0
 62
7
  6
CONTINUOUS
 10
212.193389696
 20
68.7727656337
  0
VERTEX
  8
0
 62
7
  6
CONTINUOUS
 10
212.174302943
 20
68.7639723152
  0
VERTEX
  8
0
 62
7
  6
CONTINUOUS
 10
212.1431016959
 20
68.7572438725
  0
VERTEX
  8
0
 62
7
  6
CONTINUOUS
 10
212.1017831501
 20
68.7529241691
  0
VERTEX
  8
0
 62
7
  6
CONTINUOUS
 10
212.0530868039
 20
68.7511352825
  0
VERTEX
  8
0
 62
7
  6
CONTINUOUS
 10
211.9992607225
 20
68.7516949698
  0
SEQEND
  0
POLYLINE
  8
0
 62
7
  6
CONTINUOUS
 66
1
 70
0
  0
VERTEX
  8
0
 62
7
  6
CONTINUOUS
 10
219.5270576907
 20
129.5584016475
  0
VERTEX
  8
0
 62
7
  6
CONTINUOUS
 10
219.501011456
 20
129.7166614197
  0
VERTEX
  8
0
 62
7
  6
CONTINUOUS
 10
219.4720627466
 20
129.8729979778
  0
VERTEX
  8
0
 62
7
  6
CONTINUOUS
 10
219.443154088
 20
130.0101930627
  0
VERTEX
  8
0
 62
7
  6
CONTINUOUS
 10
219.4139436613
 20
130.1312084913
  0
VERTEX
  8
0
 62
7
  6
CONTINUOUS
 10
219.3838775674
 20
130.2389597262
  0
VERTEX
  8
0
 62
7
  6
CONTINUOUS
 10
219.352031325
 20
130.3364895165
  0
VERTEX
  8
0
 62
7
  6
CONTINUOUS
 10
219.3168229181
 20
130.4271283019
  0
VERTEX
  8
0
 62
7
  6
CONTINUOUS
 10
219.2757374715
 20
130.5141184393
  0
VERTEX
  8
0
 62
7
  6
CONTINUOUS
 10
219.2251128103
 20
130.5998880556
  0
VERTEX
  8
0
 62
7
  6
CONTINUOUS
 10
219.1599140607
 20
130.6853628343
  0
VERTEX
  8
0
 62
7
  6
CONTINUOUS
 10
219.0752833867
 20
130.7676852787
  0
VERTEX
  8
0
 62
7
  6
CONTINUOUS
 10
218.9694623648
 20
130.8396743442
  0
VERTEX
  8
0
 62
7
  6
CONTINUOUS
 10
218.845123877
 20
130.8928382748
  0
VERTEX
  8
0
 62
7
  6
CONTINUOUS
 10
218.7090627261
 20
130.9205943511
  0
VERTEX
  8
0
 62
7
  6
CONTINUOUS
 10
218.6406161443
 20
130.9239762047
  0
SEQEND
  0
LINE
  8
0
 62
7
  6
CONTINUOUS
 10
219.542961442
 20
129.4536809327
 11
219.5270566575
 21
129.5584082747
  0
POLYLINE
  8
0
 62
7
  6
CONTINUOUS
 66
1
 70
0
  0
VERTEX
  8
0
 62
7
  6
CONTINUOUS
 10
220.5992014439
 20
125.2666002041
  0
VERTEX
  8
0
 62
7
  6
CONTINUOUS
 10
220.5273236301
 20
125.8183933255
  0
VERTEX
  8
0
 62
7
  6
CONTINUOUS
 10
220.4325947788
 20
126.4182182524
  0
VERTEX
  8
0
 62
7
  6
CONTINUOUS
 10
220.3219072478
 20
127.0008290579
  0
VERTEX
  8
0
 62
7
  6
CONTINUOUS
 10
220.1952190142
 20
127.5612200797
  0
VERTEX
  8
0
 62
7
  6
CONTINUOUS
 10
220.0525142684
 20
128.0945562819
  0
VERTEX
  8
0
 62
7
  6
CONTINUOUS
 10
219.8937458665
 20
128.5961807623
  0
VERTEX
  8
0
 62
7
  6
CONTINUOUS
 10
219.7186813284
 20
129.0617938031
  0
SEQEND
  0
POLYLINE
  8
0
 62
7
  6
CONTINUOUS
 66
1
 70
0
  0
VERTEX
  8
0
 62
7
  6
CONTINUOUS
 10
229.1725486029
 20
119.4384025248
  0
VERTEX
  8
0
 62
7
  6
CONTINUOUS
 10
229.1763955959
 20
119.1567848362
  0
VERTEX
  8
0
 62
7
  6
CONTINUOUS
 10
229.1767493686
 20
119.0895038493
  0
VERTEX
  8
0
 62
7
  6
CONTINUOUS
 10
229.1761513037
 20
119.0231436124
  0
VERTEX
  8
0
 62
7
  6
CONTINUOUS
 10
229.174513703
 20
118.957754858
  0
VERTEX
  8
0
 62
7
  6
CONTINUOUS
 10
229.1717326047
 20
118.893386113
  0
VERTEX
  8
0
 62
7
  6
CONTINUOUS
 10
229.1676991286
 20
118.8300389746
  0
VERTEX
  8
0
 62
7
  6
CONTINUOUS
 10
229.1623150278
 20
118.7677344777
  0
VERTEX
  8
0
 62
7
  6
CONTINUOUS
 10
229.1554842492
 20
118.7065873896
  0
VERTEX
  8
0
 62
7
  6
CONTINUOUS
 10
229.1471159349
 20
118.6468753385
  0
VERTEX
  8
0
 62
7
  6
CONTINUOUS
 10
229.1370712025
 20
118.5884583206
  0
VERTEX
  8
0
 62
7
  6
CONTINUOUS
 10
229.1252327169
 20
118.5312122377
  0
VERTEX
  8
0
 62
7
  6
CONTINUOUS
 10
229.1113914998
 20
118.4753604269
  0
VERTEX
  8
0
 62
7
  6
CONTINUOUS
 10
229.0953551421
 20
118.4213755211
  0
VERTEX
  8
0
 62
7
  6
CONTINUOUS
 10
229.076783346
 20
118.3702408446
  0
VERTEX
  8
0
 62
7
  6
CONTINUOUS
 10
229.0549354162
 20
118.3212219897
  0
VERTEX
  8
0
 62
7
  6
CONTINUOUS
 10
229.029758414
 20
118.2750185657
  0
VERTEX
  8
0
 62
7
  6
CONTINUOUS
 10
229.0011943266
 20
118.2323411486
  0
VERTEX
  8
0
 62
7
  6
CONTINUOUS
 10
228.9692752292
 20
118.1939618912
  0
VERTEX
  8
0
 62
7
  6
CONTINUOUS
 10
228.9339491611
 20
118.1606381782
  0
VERTEX
  8
0
 62
7
  6
CONTINUOUS
 10
228.8956235763
 20
118.1335872674
  0
VERTEX
  8
0
 62
7
  6
CONTINUOUS
 10
228.8548913644
 20
118.1141508162
  0
VERTEX
  8
0
 62
7
  6
CONTINUOUS
 10
228.8135830232
 20
118.1040395316
  0
VERTEX
  8
0
 62
7
  6
CONTINUOUS
 10
228.7939922609
 20
118.1027848289
  0
SEQEND
  0
POLYLINE
  8
0
 62
7
  6
CONTINUOUS
 66
1
 70
0
  0
VERTEX
  8
0
 62
7
  6
CONTINUOUS
 10
228.996262291
 20
74.6135177914
  0
VERTEX
  8
0
 62
7
  6
CONTINUOUS
 10
228.9924147224
 20
74.8952418557
  0
VERTEX
  8
0
 62
7
  6
CONTINUOUS
 10
228.992115781
 20
74.9623760048
  0
VERTEX
  8
0
 62
7
  6
CONTINUOUS
 10
228.9927706486
 20
75.0285915383
  0
VERTEX
  8
0
 62
7
  6
CONTINUOUS
 10
228.9944677887
 20
75.0938368538
  0
VERTEX
  8
0
 62
7
  6
CONTINUOUS
 10
228.9973120016
 20
75.1580675695
  0
VERTEX
  8
0
 62
7
  6
CONTINUOUS
 10
229.0014114558
 20
75.2212837149
  0
VERTEX
  8
0
 62
7
  6
CONTINUOUS
 10
229.0068638032
 20
75.2834624732
  0
VERTEX
  8
0
 62
7
  6
CONTINUOUS
 10
229.0137646138
 20
75.3444785059
  0
VERTEX
  8
0
 62
7
  6
CONTINUOUS
 10
229.0222118409
 20
75.4040793044
  0
VERTEX
  8
0
 62
7
  6
CONTINUOUS
 10
229.0323342579
 20
75.4623999156
  0
VERTEX
  8
0
 62
7
  6
CONTINUOUS
 10
229.0442463999
 20
75.5194698423
  0
VERTEX
  8
0
 62
7
  6
CONTINUOUS
 10
229.0582007465
 20
75.5752891453
  0
VERTEX
  8
0
 62
7
  6
CONTINUOUS
 10
229.0743022662
 20
75.629027722
  0
VERTEX
  8
0
 62
7
  6
CONTINUOUS
 10
229.0929895033
 20
75.6799751039
  0
VERTEX
  8
0
 62
7
  6
CONTINUOUS
 10
229.1149756178
 20
75.7288615084
  0
VERTEX
  8
0
 62
7
  6
CONTINUOUS
 10
229.1402764366
 20
75.7748796873
  0
VERTEX
  8
0
 62
7
  6
CONTINUOUS
 10
229.1689639439
 20
75.8173535056
  0
VERTEX
  8
0
 62
7
  6
CONTINUOUS
 10
229.2009999384
 20
75.8555015832
  0
VERTEX
  8
0
 62
7
  6
CONTINUOUS
 10
229.2364490591
 20
75.8885759096
  0
VERTEX
  8
0
 62
7
  6
CONTINUOUS
 10
229.2748859812
 20
75.9153368642
  0
VERTEX
  8
0
 62
7
  6
CONTINUOUS
 10
229.3156895294
 20
75.9344190798
  0
VERTEX
  8
0
 62
7
  6
CONTINUOUS
 10
229.357002152
 20
75.9441185844
  0
VERTEX
  8
0
 62
7
  6
CONTINUOUS
 10
229.3746917241
 20
75.9451671997
  0
SEQEND
  0
LINE
  8
0
 62
7
  6
CONTINUOUS
 10
228.9987043456
 20
74.3305036224
 11
228.996262291
 21
74.6135177914
  0
LINE
  8
0
 62
7
  6
CONTINUOUS
 10
229.1701326285
 20
119.7214242615
 11
229.1725486029
 21
119.4384025248
  0
LINE
  8
0
 62
7
  6
CONTINUOUS
 10
228.9987043456
 20
74.3305036224
 11
228.9992607225
 21
68.7824026818
  0
LINE
  8
0
 62
7
  6
CONTINUOUS
 10
229.1695970362
 20
125.2655123871
 11
229.1701326285
 21
119.7214242615
  0
LINE
  8
0
 62
7
  6
CONTINUOUS
 10
229.1696563443
 20
125.2665943384
 11
229.1695970391
 21
125.2655743986
  0
LINE
  8
0
 62
7
  6
CONTINUOUS
 10
228.9992607224
 20
68.7823705688
 11
228.9992013964
 21
68.7813625317
  0
LINE
  8
0
 62
7
  6
CONTINUOUS
 10
219.7186813284
 20
129.0617938031
 11
219.5388980532
 21
129.4627430249
  0
LINE
  8
0
 62
7
  6
CONTINUOUS
 10
227.9270567931
 20
64.4895451814
 11
227.9429591675
 21
64.5942707264
  0
POLYLINE
  8
0
 62
7
  6
CONTINUOUS
 66
1
 70
0
  0
VERTEX
  8
0
 62
7
  6
CONTINUOUS
 10
227.9388990963
 20
64.5852116874
  0
VERTEX
  8
0
 62
7
  6
CONTINUOUS
 10
228.1196258234
 20
64.9884584269
  0
VERTEX
  8
0
 62
7
  6
CONTINUOUS
 10
228.2946196413
 20
65.4543091581
  0
VERTEX
  8
0
 62
7
  6
CONTINUOUS
 10
228.4533175943
 20
65.9561596782
  0
VERTEX
  8
0
 62
7
  6
CONTINUOUS
 10
228.59595037
 20
66.4897075116
  0
VERTEX
  8
0
 62
7
  6
CONTINUOUS
 10
228.7225642698
 20
67.0502933425
  0
VERTEX
  8
0
 62
7
  6
CONTINUOUS
 10
228.8331748807
 20
67.6330804774
  0
VERTEX
  8
0
 62
7
  6
CONTINUOUS
 10
228.9278243404
 20
68.2330620658
  0
VERTEX
  8
0
 62
7
  6
CONTINUOUS
 10
228.9992014472
 20
68.7813524103
  0
SEQEND
  0
POLYLINE
  8
0
 62
7
  6
CONTINUOUS
 66
1
 70
0
  0
VERTEX
  8
0
 62
7
  6
CONTINUOUS
 10
228.9992013964
 20
68.7813625317
  0
VERTEX
  8
0
 62
7
  6
CONTINUOUS
 10
228.993389696
 20
68.7727656337
  0
VERTEX
  8
0
 62
7
  6
CONTINUOUS
 10
228.974302943
 20
68.7639723152
  0
VERTEX
  8
0
 62
7
  6
CONTINUOUS
 10
228.9431016959
 20
68.7572438725
  0
VERTEX
  8
0
 62
7
  6
CONTINUOUS
 10
228.9017831501
 20
68.7529241691
  0
VERTEX
  8
0
 62
7
  6
CONTINUOUS
 10
228.8530868039
 20
68.7511352825
  0
VERTEX
  8
0
 62
7
  6
CONTINUOUS
 10
228.7992607225
 20
68.7516949698
  0
SEQEND
  0
LINE
  8
0
 62
7
  6
CONTINUOUS
 10
237.3844288793
 20
76.1460701163
 11
237.3844288793
 21
130.7240434723
  0
POLYLINE
  8
0
 62
7
  6
CONTINUOUS
 66
1
 70
0
  0
VERTEX
  8
0
 62
7
  6
CONTINUOUS
 10
237.3844288793
 20
125.2612283966
  0
VERTEX
  8
0
 62
7
  6
CONTINUOUS
 10
237.3795040092
 20
125.2689911637
  0
VERTEX
  8
0
 62
7
  6
CONTINUOUS
 10
237.3649194943
 20
125.2763712888
  0
VERTEX
  8
0
 62
7
  6
CONTINUOUS
 10
237.3413110326
 20
125.2830054862
  0
VERTEX
  8
0
 62
7
  6
CONTINUOUS
 10
237.3097725828
 20
125.2885615604
  0
VERTEX
  8
0
 62
7
  6
CONTINUOUS
 10
237.2718213982
 20
125.2927557481
  0
VERTEX
  8
0
 62
7
  6
CONTINUOUS
 10
237.2293302734
 20
125.2953686617
  0
VERTEX
  8
0
 62
7
  6
CONTINUOUS
 10
237.1844288793
 20
125.2962576164
  0
SEQEND
  0
POLYLINE
  8
0
 62
7
  6
CONTINUOUS
 66
1
 70
0
  0
VERTEX
  8
0
 62
7
  6
CONTINUOUS
 10
237.3844285634
 20
130.7241650903
  0
VERTEX
  8
0
 62
7
  6
CONTINUOUS
 10
237.3793895033
 20
130.7685813464
  0
VERTEX
  8
0
 62
7
  6
CONTINUOUS
 10
237.3646140487
 20
130.8107639612
  0
VERTEX
  8
0
 62
7
  6
CONTINUOUS
 10
237.3408384911
 20
130.8486141221
  0
VERTEX
  8
0
 62
7
  6
CONTINUOUS
 10
237.3092500389
 20
130.8802396348
  0
VERTEX
  8
0
 62
7
  6
CONTINUOUS
 10
237.271426019
 20
130.9040604251
  0
VERTEX
  8
0
 62
7
  6
CONTINUOUS
 10
237.2292562234
 20
130.9188859888
  0
VERTEX
  8
0
 62
7
  6
CONTINUOUS
 10
237.1844197005
 20
130.9239762921
  0
SEQEND
  0
LINE
  8
0
 62
7
  6
CONTINUOUS
 10
86.3844288793
 20
157.4411351697
 11
86.3844288793
 21
172.2411351697
  0
LINE
  8
0
 62
7
  6
CONTINUOUS
 10
86.8091410826
 20
272.5437522836
 11
86.6344288793
 21
172.4411351697
  0
LINE
  8
0
 62
7
  6
CONTINUOUS
 10
97.5645894598
 20
156.4911351697
 11
97.5659831152
 21
156.4512261016
  0
LINE
  8
0
 62
7
  6
CONTINUOUS
 10
91.0194388745
 20
156.4411351697
 11
91.1675368786
 21
158.5590353004
  0
POLYLINE
  8
0
 62
7
  6
CONTINUOUS
 66
1
 70
0
  0
VERTEX
  8
0
 62
7
  6
CONTINUOUS
 10
104.1531175242
 20
165.6146867276
  0
VERTEX
  8
0
 62
7
  6
CONTINUOUS
 10
104.2341375816
 20
165.5694679568
  0
VERTEX
  8
0
 62
7
  6
CONTINUOUS
 10
104.2873453216
 20
165.5263666005
  0
SEQEND
  0
LINE
  8
0
 62
7
  6
CONTINUOUS
 10
104.2873453216
 20
165.5263666005
 11
104.2872179619
 21
165.5264863497
  0
POLYLINE
  8
0
 62
7
  6
CONTINUOUS
 66
1
 70
0
  0
VERTEX
  8
0
 62
7
  6
CONTINUOUS
 10
104.2872179423
 20
165.5264863289
  0
VERTEX
  8
0
 62
7
  6
CONTINUOUS
 10
104.3386905839
 20
165.4738041173
  0
VERTEX
  8
0
 62
7
  6
CONTINUOUS
 10
104.3943281922
 20
165.4036433116
  0
SEQEND
  0
LINE
  8
0
 62
7
  6
CONTINUOUS
 10
104.3943281922
 20
165.4036433116
 11
104.4366797673
 21
165.3332503982
  0
LINE
  8
0
 62
7
  6
CONTINUOUS
 10
104.4366797673
 20
165.3332503982
 11
104.4612360033
 21
165.277359748
  0
LINE
  8
0
 62
7
  6
CONTINUOUS
 10
103.1772966624
 20
172.1861754913
 11
104.2028767552
 21
168.5977368216
  0
LINE
  8
0
 62
7
  6
CONTINUOUS
 10
104.2205361877
 20
168.5001761262
 11
105.1108664281
 21
157.3614581686
  0
LINE
  8
0
 62
7
  6
CONTINUOUS
 10
92.6847873196
 20
157.6966966569
 11
93.548321571
 21
168.5001761262
  0
POLYLINE
  8
0
 62
7
  6
CONTINUOUS
 66
1
 70
0
  0
VERTEX
  8
0
 62
7
  6
CONTINUOUS
 10
93.2813083223
 20
165.1596344724
  0
VERTEX
  8
0
 62
7
  6
CONTINUOUS
 10
93.2861068643
 20
165.1977525146
  0
VERTEX
  8
0
 62
7
  6
CONTINUOUS
 10
93.2971007898
 20
165.2454035337
  0
VERTEX
  8
0
 62
7
  6
CONTINUOUS
 10
93.3076313988
 20
165.2773858735
  0
SEQEND
  0
POLYLINE
  8
0
 62
7
  6
CONTINUOUS
 66
1
 70
0
  0
VERTEX
  8
0
 62
7
  6
CONTINUOUS
 10
91.1675366096
 20
158.5590312106
  0
VERTEX
  8
0
 62
7
  6
CONTINUOUS
 10
91.1810107091
 20
158.6378772521
  0
VERTEX
  8
0
 62
7
  6
CONTINUOUS
 10
91.2121631214
 20
158.7218800395
  0
VERTEX
  8
0
 62
7
  6
CONTINUOUS
 10
91.2185670142
 20
158.7349591393
  0
SEQEND
  0
LINE
  8
0
 62
7
  6
CONTINUOUS
 10
104.0700295036
 20
165.6439857892
 11
104.1531175242
 21
165.6146867276
  0
LINE
  8
0
 62
7
  6
CONTINUOUS
 10
121.0873453216
 20
165.5263666005
 11
121.0872179619
 21
165.5264863497
  0
POLYLINE
  8
0
 62
7
  6
CONTINUOUS
 66
1
 70
0
  0
VERTEX
  8
0
 62
7
  6
CONTINUOUS
 10
121.0872179423
 20
165.5264863289
  0
VERTEX
  8
0
 62
7
  6
CONTINUOUS
 10
121.1386905839
 20
165.4738041173
  0
VERTEX
  8
0
 62
7
  6
CONTINUOUS
 10
121.1943281922
 20
165.4036433116
  0
SEQEND
  0
LINE
  8
0
 62
7
  6
CONTINUOUS
 10
94.5915610962
 20
172.1861754913
 11
93.5659810035
 21
168.5977368216
  0
POLYLINE
  8
0
 62
7
  6
CONTINUOUS
 66
1
 70
0
  0
VERTEX
  8
0
 62
7
  6
CONTINUOUS
 10
228.0988036607
 20
165.6439790625
  0
VERTEX
  8
0
 62
7
  6
CONTINUOUS
 10
228.2089681461
 20
165.6648734762
  0
VERTEX
  8
0
 62
7
  6
CONTINUOUS
 10
228.3149048861
 20
165.6707444663
  0
SEQEND
  0
LINE
  8
0
 62
7
  6
CONTINUOUS
 10
91.0194388745
 20
156.4411351697
 11
87.3844288793
 21
156.4411351697
  0
LINE
  8
0
 62
7
  6
CONTINUOUS
 10
97.7076871619
 20
156.4411351697
 11
100.0611705967
 21
156.4411351697
  0
LINE
  8
0
 62
7
  6
CONTINUOUS
 10
106.1076871619
 20
156.4411351697
 11
108.4611705967
 21
156.4411351697
  0
LINE
  8
0
 62
7
  6
CONTINUOUS
 10
114.5076871619
 20
156.4411351697
 11
116.8611705967
 21
156.4411351697
  0
LINE
  8
0
 62
7
  6
CONTINUOUS
 10
122.9076871619
 20
156.4411351697
 11
125.2611705967
 21
156.4411351697
  0
LINE
  8
0
 62
7
  6
CONTINUOUS
 10
131.3076871619
 20
156.4411351697
 11
133.6611705967
 21
156.4411351697
  0
LINE
  8
0
 62
7
  6
CONTINUOUS
 10
139.7076871619
 20
156.4411351697
 11
142.0611705967
 21
156.4411351697
  0
LINE
  8
0
 62
7
  6
CONTINUOUS
 10
148.1076871619
 20
156.4411351697
 11
150.4611705967
 21
156.4411351697
  0
LINE
  8
0
 62
7
  6
CONTINUOUS
 10
156.5076871619
 20
156.4411351697
 11
158.8611705967
 21
156.4411351697
  0
LINE
  8
0
 62
7
  6
CONTINUOUS
 10
164.9076871619
 20
156.4411351697
 11
167.2611705967
 21
156.4411351697
  0
LINE
  8
0
 62
7
  6
CONTINUOUS
 10
173.3076871619
 20
156.4411351697
 11
175.6611705967
 21
156.4411351697
  0
LINE
  8
0
 62
7
  6
CONTINUOUS
 10
181.7076871619
 20
156.4411351697
 11
184.0611705967
 21
156.4411351697
  0
LINE
  8
0
 62
7
  6
CONTINUOUS
 10
190.1076871619
 20
156.4411351697
 11
192.4611705967
 21
156.4411351697
  0
LINE
  8
0
 62
7
  6
CONTINUOUS
 10
198.5076871619
 20
156.4411351697
 11
200.8611705967
 21
156.4411351697
  0
LINE
  8
0
 62
7
  6
CONTINUOUS
 10
206.9076871619
 20
156.4411351697
 11
209.2611705967
 21
156.4411351697
  0
LINE
  8
0
 62
7
  6
CONTINUOUS
 10
215.3076871619
 20
156.4411351697
 11
217.6611705967
 21
156.4411351697
  0
LINE
  8
0
 62
7
  6
CONTINUOUS
 10
223.7076871619
 20
156.4411351697
 11
226.0611705967
 21
156.4411351697
  0
LINE
  8
0
 62
7
  6
CONTINUOUS
 10
232.7494188841
 20
156.4411351697
 11
236.3844288793
 21
156.4411351697
  0
LINE
  8
0
 62
7
  6
CONTINUOUS
 10
236.3844288793
 20
156.4911351697
 11
226.2042682988
 21
156.4911351697
  0
LINE
  8
0
 62
7
  6
CONTINUOUS
 10
223.408966779
 20
156.4911351697
 11
209.5598909797
 21
156.4911351697
  0
LINE
  8
0
 62
7
  6
CONTINUOUS
 10
206.608966779
 20
156.4911351697
 11
192.7598909797
 21
156.4911351697
  0
LINE
  8
0
 62
7
  6
CONTINUOUS
 10
189.808966779
 20
156.4911351697
 11
175.9598909797
 21
156.4911351697
  0
LINE
  8
0
 62
7
  6
CONTINUOUS
 10
173.008966779
 20
156.4911351697
 11
159.1598909797
 21
156.4911351697
  0
LINE
  8
0
 62
7
  6
CONTINUOUS
 10
156.208966779
 20
156.4911351697
 11
142.3598909797
 21
156.4911351697
  0
LINE
  8
0
 62
7
  6
CONTINUOUS
 10
139.408966779
 20
156.4911351697
 11
125.5598909797
 21
156.4911351697
  0
LINE
  8
0
 62
7
  6
CONTINUOUS
 10
122.608966779
 20
156.4911351697
 11
108.7598909797
 21
156.4911351697
  0
LINE
  8
0
 62
7
  6
CONTINUOUS
 10
105.808966779
 20
156.4911351697
 11
91.0229352151
 21
156.4911351697
  0
LINE
  8
0
 62
7
  6
CONTINUOUS
 10
91.5070391337
 20
156.7440205856
 11
91.6831796682
 21
156.7440205856
  0
LINE
  8
0
 62
7
  6
CONTINUOUS
 10
120.8700295036
 20
165.6439857892
 11
120.9531175242
 21
165.6146867276
  0
POLYLINE
  8
0
 62
7
  6
CONTINUOUS
 66
1
 70
0
  0
VERTEX
  8
0
 62
7
  6
CONTINUOUS
 10
120.9531175242
 20
165.6146867276
  0
VERTEX
  8
0
 62
7
  6
CONTINUOUS
 10
121.0341375816
 20
165.5694679568
  0
VERTEX
  8
0
 62
7
  6
CONTINUOUS
 10
121.0873453216
 20
165.5263666005
  0
SEQEND
  0
LINE
  8
0
 62
7
  6
CONTINUOUS
 10
121.1943281922
 20
165.4036433116
 11
121.2366797673
 21
165.3332503982
  0
LINE
  8
0
 62
7
  6
CONTINUOUS
 10
121.2366797673
 20
165.3332503982
 11
121.2612360033
 21
165.277359748
  0
LINE
  8
0
 62
7
  6
CONTINUOUS
 10
110.348321571
 20
168.5001761262
 11
109.4579913306
 21
157.3614581686
  0
POLYLINE
  8
0
 62
7
  6
CONTINUOUS
 66
1
 70
0
  0
VERTEX
  8
0
 62
7
  6
CONTINUOUS
 10
211.2988036607
 20
165.6439790625
  0
VERTEX
  8
0
 62
7
  6
CONTINUOUS
 10
211.4089681461
 20
165.6648734762
  0
VERTEX
  8
0
 62
7
  6
CONTINUOUS
 10
211.5149048861
 20
165.6707444663
  0
SEQEND
  0
POLYLINE
  8
0
 62
7
  6
CONTINUOUS
 66
1
 70
0
  0
VERTEX
  8
0
 62
7
  6
CONTINUOUS
 10
194.4988036607
 20
165.6439790625
  0
VERTEX
  8
0
 62
7
  6
CONTINUOUS
 10
194.6089681461
 20
165.6648734762
  0
VERTEX
  8
0
 62
7
  6
CONTINUOUS
 10
194.7149048861
 20
165.6707444663
  0
SEQEND
  0
POLYLINE
  8
0
 62
7
  6
CONTINUOUS
 66
1
 70
0
  0
VERTEX
  8
0
 62
7
  6
CONTINUOUS
 10
177.6988036607
 20
165.6439790625
  0
VERTEX
  8
0
 62
7
  6
CONTINUOUS
 10
177.8089681461
 20
165.6648734762
  0
VERTEX
  8
0
 62
7
  6
CONTINUOUS
 10
177.9149048861
 20
165.6707444663
  0
SEQEND
  0
POLYLINE
  8
0
 62
7
  6
CONTINUOUS
 66
1
 70
0
  0
VERTEX
  8
0
 62
7
  6
CONTINUOUS
 10
91.6831796683
 20
156.7440240543
  0
VERTEX
  8
0
 62
7
  6
CONTINUOUS
 10
91.7707930522
 20
156.7479726194
  0
VERTEX
  8
0
 62
7
  6
CONTINUOUS
 10
91.9116839496
 20
156.7711970071
  0
VERTEX
  8
0
 62
7
  6
CONTINUOUS
 10
92.0482912176
 20
156.8148973297
  0
VERTEX
  8
0
 62
7
  6
CONTINUOUS
 10
92.1779205877
 20
156.8784020518
  0
VERTEX
  8
0
 62
7
  6
CONTINUOUS
 10
92.2979270038
 20
156.9606833565
  0
VERTEX
  8
0
 62
7
  6
CONTINUOUS
 10
92.4058339639
 20
157.0604198257
  0
VERTEX
  8
0
 62
7
  6
CONTINUOUS
 10
92.4992319264
 20
157.1758907654
  0
VERTEX
  8
0
 62
7
  6
CONTINUOUS
 10
92.5757860828
 20
157.3047630222
  0
VERTEX
  8
0
 62
7
  6
CONTINUOUS
 10
92.6335900494
 20
157.4443723276
  0
VERTEX
  8
0
 62
7
  6
CONTINUOUS
 10
92.6711696338
 20
157.5917617635
  0
VERTEX
  8
0
 62
7
  6
CONTINUOUS
 10
92.6847862799
 20
157.69669674
  0
SEQEND
  0
POLYLINE
  8
0
 62
7
  6
CONTINUOUS
 66
1
 70
0
  0
VERTEX
  8
0
 62
7
  6
CONTINUOUS
 10
92.0338221488
 20
159.0106418886
  0
VERTEX
  8
0
 62
7
  6
CONTINUOUS
 10
92.076304007
 20
159.0119515911
  0
VERTEX
  8
0
 62
7
  6
CONTINUOUS
 10
92.1878051051
 20
159.0278430653
  0
VERTEX
  8
0
 62
7
  6
CONTINUOUS
 10
92.2980389912
 20
159.0622050943
  0
VERTEX
  8
0
 62
7
  6
CONTINUOUS
 10
92.405096273
 20
159.115458352
  0
VERTEX
  8
0
 62
7
  6
CONTINUOUS
 10
92.506642551
 20
159.1877630159
  0
VERTEX
  8
0
 62
7
  6
CONTINUOUS
 10
92.6005397054
 20
159.2792687605
  0
VERTEX
  8
0
 62
7
  6
CONTINUOUS
 10
92.6839779858
 20
159.3890813802
  0
VERTEX
  8
0
 62
7
  6
CONTINUOUS
 10
92.7543524474
 20
159.5155311422
  0
VERTEX
  8
0
 62
7
  6
CONTINUOUS
 10
92.8096838927
 20
159.6571890519
  0
VERTEX
  8
0
 62
7
  6
CONTINUOUS
 10
92.8478376658
 20
159.8121556484
  0
VERTEX
  8
0
 62
7
  6
CONTINUOUS
 10
92.8637124838
 20
159.9351621097
  0
SEQEND
  0
LINE
  8
0
 62
7
  6
CONTINUOUS
 10
92.0338221542
 20
159.0106179555
 11
91.6655015385
 21
159.0106179555
  0
LINE
  8
0
 62
7
  6
CONTINUOUS
 10
139.2467376467
 20
159.9313707907
 11
142.5221201123
 21
159.9313707907
  0
LINE
  8
0
 62
7
  6
CONTINUOUS
 10
172.8467376467
 20
159.9313707907
 11
176.1221201123
 21
159.9313707907
  0
POLYLINE
  8
0
 62
7
  6
CONTINUOUS
 66
1
 70
0
  0
VERTEX
  8
0
 62
7
  6
CONTINUOUS
 10
103.8539956308
 20
165.6707444666
  0
VERTEX
  8
0
 62
7
  6
CONTINUOUS
 10
103.958167059
 20
165.6650699861
  0
VERTEX
  8
0
 62
7
  6
CONTINUOUS
 10
104.0700120607
 20
165.6439905608
  0
SEQEND
  0
POLYLINE
  8
0
 62
7
  6
CONTINUOUS
 66
1
 70
0
  0
VERTEX
  8
0
 62
7
  6
CONTINUOUS
 10
120.6539956308
 20
165.6707444666
  0
VERTEX
  8
0
 62
7
  6
CONTINUOUS
 10
120.758167059
 20
165.6650699861
  0
VERTEX
  8
0
 62
7
  6
CONTINUOUS
 10
120.8700120607
 20
165.6439905608
  0
SEQEND
  0
POLYLINE
  8
0
 62
7
  6
CONTINUOUS
 66
1
 70
0
  0
VERTEX
  8
0
 62
7
  6
CONTINUOUS
 10
143.5489078129
 20
164.4411351697
  0
VERTEX
  8
0
 62
7
  6
CONTINUOUS
 10
143.5813080458
 20
164.438858417
  0
VERTEX
  8
0
 62
7
  6
CONTINUOUS
 10
143.6043886482
 20
164.4314267463
  0
VERTEX
  8
0
 62
7
  6
CONTINUOUS
 10
143.6174757278
 20
164.4182359273
  0
VERTEX
  8
0
 62
7
  6
CONTINUOUS
 10
143.620536315
 20
164.3993297763
  0
SEQEND
  0
POLYLINE
  8
0
 62
7
  6
CONTINUOUS
 66
1
 70
0
  0
VERTEX
  8
0
 62
7
  6
CONTINUOUS
 10
139.2467376467
 20
159.9313707907
  0
VERTEX
  8
0
 62
7
  6
CONTINUOUS
 10
139.1720579001
 20
159.9380271653
  0
VERTEX
  8
0
 62
7
  6
CONTINUOUS
 10
139.0958585771
 20
159.9583857099
  0
VERTEX
  8
0
 62
7
  6
CONTINUOUS
 10
139.0172415977
 20
159.9939148033
  0
VERTEX
  8
0
 62
7
  6
CONTINUOUS
 10
138.9360573261
 20
160.046895147
  0
VERTEX
  8
0
 62
7
  6
CONTINUOUS
 10
138.8540195583
 20
160.1189252833
  0
VERTEX
  8
0
 62
7
  6
CONTINUOUS
 10
138.7732874559
 20
160.2107826447
  0
VERTEX
  8
0
 62
7
  6
CONTINUOUS
 10
138.6968619861
 20
160.3211213518
  0
VERTEX
  8
0
 62
7
  6
CONTINUOUS
 10
138.624536338
 20
160.4526895484
  0
VERTEX
  8
0
 62
7
  6
CONTINUOUS
 10
138.5570583062
 20
160.6086735056
  0
VERTEX
  8
0
 62
7
  6
CONTINUOUS
 10
138.4963961097
 20
160.7911289054
  0
VERTEX
  8
0
 62
7
  6
CONTINUOUS
 10
138.446334595
 20
160.9947846318
  0
VERTEX
  8
0
 62
7
  6
CONTINUOUS
 10
138.4093685707
 20
161.2104159802
  0
VERTEX
  8
0
 62
7
  6
CONTINUOUS
 10
138.3858496928
 20
161.4276681898
  0
SEQEND
  0
POLYLINE
  8
0
 62
7
  6
CONTINUOUS
 66
1
 70
0
  0
VERTEX
  8
0
 62
7
  6
CONTINUOUS
 10
172.8467376467
 20
159.9313707907
  0
VERTEX
  8
0
 62
7
  6
CONTINUOUS
 10
172.7720579001
 20
159.9380271653
  0
VERTEX
  8
0
 62
7
  6
CONTINUOUS
 10
172.6958585771
 20
159.9583857099
  0
VERTEX
  8
0
 62
7
  6
CONTINUOUS
 10
172.6172415977
 20
159.9939148033
  0
VERTEX
  8
0
 62
7
  6
CONTINUOUS
 10
172.5360573261
 20
160.046895147
  0
VERTEX
  8
0
 62
7
  6
CONTINUOUS
 10
172.4540195583
 20
160.1189252833
  0
VERTEX
  8
0
 62
7
  6
CONTINUOUS
 10
172.3732874559
 20
160.2107826447
  0
VERTEX
  8
0
 62
7
  6
CONTINUOUS
 10
172.2968619861
 20
160.3211213518
  0
VERTEX
  8
0
 62
7
  6
CONTINUOUS
 10
172.224536338
 20
160.4526895484
  0
VERTEX
  8
0
 62
7
  6
CONTINUOUS
 10
172.1570583062
 20
160.6086735056
  0
VERTEX
  8
0
 62
7
  6
CONTINUOUS
 10
172.0963961097
 20
160.7911289054
  0
VERTEX
  8
0
 62
7
  6
CONTINUOUS
 10
172.046334595
 20
160.9947846318
  0
VERTEX
  8
0
 62
7
  6
CONTINUOUS
 10
172.0093685707
 20
161.2104159802
  0
VERTEX
  8
0
 62
7
  6
CONTINUOUS
 10
171.9858496928
 20
161.4276681898
  0
SEQEND
  0
LINE
  8
0
 62
7
  6
CONTINUOUS
 10
137.6700295036
 20
165.6439857892
 11
137.7531175242
 21
165.6146867276
  0
POLYLINE
  8
0
 62
7
  6
CONTINUOUS
 66
1
 70
0
  0
VERTEX
  8
0
 62
7
  6
CONTINUOUS
 10
137.7531175242
 20
165.6146867276
  0
VERTEX
  8
0
 62
7
  6
CONTINUOUS
 10
137.8341375816
 20
165.5694679568
  0
VERTEX
  8
0
 62
7
  6
CONTINUOUS
 10
137.8873453216
 20
165.5263666005
  0
SEQEND
  0
LINE
  8
0
 62
7
  6
CONTINUOUS
 10
137.8873453216
 20
165.5263666005
 11
137.8872179619
 21
165.5264863497
  0
POLYLINE
  8
0
 62
7
  6
CONTINUOUS
 66
1
 70
0
  0
VERTEX
  8
0
 62
7
  6
CONTINUOUS
 10
137.8872179423
 20
165.5264863289
  0
VERTEX
  8
0
 62
7
  6
CONTINUOUS
 10
137.9386905839
 20
165.4738041173
  0
VERTEX
  8
0
 62
7
  6
CONTINUOUS
 10
137.9943281922
 20
165.4036433116
  0
SEQEND
  0
LINE
  8
0
 62
7
  6
CONTINUOUS
 10
119.9772966624
 20
172.1861754913
 11
121.0028767552
 21
168.5977368216
  0
LINE
  8
0
 62
7
  6
CONTINUOUS
 10
121.0205361877
 20
168.5001761262
 11
121.9108664281
 21
157.3614581686
  0
LINE
  8
0
 62
7
  6
CONTINUOUS
 10
93.3076217553
 20
165.277359748
 11
93.3321779913
 21
165.3332503982
  0
POLYLINE
  8
0
 62
7
  6
CONTINUOUS
 66
1
 70
0
  0
VERTEX
  8
0
 62
7
  6
CONTINUOUS
 10
160.8988036607
 20
165.6439790625
  0
VERTEX
  8
0
 62
7
  6
CONTINUOUS
 10
161.0089681461
 20
165.6648734762
  0
VERTEX
  8
0
 62
7
  6
CONTINUOUS
 10
161.1149048861
 20
165.6707444663
  0
SEQEND
  0
POLYLINE
  8
0
 62
7
  6
CONTINUOUS
 66
1
 70
0
  0
VERTEX
  8
0
 62
7
  6
CONTINUOUS
 10
144.0988036607
 20
165.6439790625
  0
VERTEX
  8
0
 62
7
  6
CONTINUOUS
 10
144.2089681461
 20
165.6648734762
  0
VERTEX
  8
0
 62
7
  6
CONTINUOUS
 10
144.3149048861
 20
165.6707444663
  0
SEQEND
  0
LINE
  8
0
 62
40
  6
CONTINUOUS
 10
237.5844288793
 20
164.4411351697
 11
237.3847120925
 21
164.4411351697
  0
LINE
  8
0
 62
7
  6
CONTINUOUS
 10
236.3844288793
 20
164.4411351697
 11
227.6238778671
 21
164.4411351697
  0
LINE
  8
0
 62
7
  6
CONTINUOUS
 10
222.1449798915
 20
164.4411351697
 11
210.8238778671
 21
164.4411351697
  0
LINE
  8
0
 62
7
  6
CONTINUOUS
 10
205.3449798915
 20
164.4411351697
 11
194.0238778671
 21
164.4411351697
  0
LINE
  8
0
 62
7
  6
CONTINUOUS
 10
188.5449798915
 20
164.4411351697
 11
177.2238778671
 21
164.4411351697
  0
LINE
  8
0
 62
7
  6
CONTINUOUS
 10
171.7449798915
 20
164.4411351697
 11
160.4238778671
 21
164.4411351697
  0
LINE
  8
0
 62
7
  6
CONTINUOUS
 10
154.9449798915
 20
164.4411351697
 11
143.6238778671
 21
164.4411351697
  0
LINE
  8
0
 62
7
  6
CONTINUOUS
 10
138.1449798915
 20
164.4411351697
 11
126.8238778671
 21
164.4411351697
  0
LINE
  8
0
 62
7
  6
CONTINUOUS
 10
121.3449798915
 20
164.4411351697
 11
110.0238778671
 21
164.4411351697
  0
LINE
  8
0
 62
7
  6
CONTINUOUS
 10
104.5449798915
 20
164.4411351697
 11
93.2238778671
 21
164.4411351697
  0
LINE
  8
DEFAULT_1
 62
2
  6
CENTER
 10
210.8238778671
 20
164.4411351697
 11
205.3449798915
 21
164.4411351697
  0
LINE
  8
DEFAULT_1
 62
2
  6
CENTER
 10
194.0238778671
 20
164.4411351697
 11
188.5449798915
 21
164.4411351697
  0
LINE
  8
DEFAULT_1
 62
2
  6
CENTER
 10
177.2238778671
 20
164.4411351697
 11
177.1489078129
 21
164.4411351697
  0
LINE
  8
DEFAULT_1
 62
2
  6
CENTER
 10
160.4238778671
 20
164.4411351697
 11
154.9449798915
 21
164.4411351697
  0
LINE
  8
DEFAULT_1
 62
2
  6
CENTER
 10
143.6238778671
 20
164.4411351697
 11
143.5489078129
 21
164.4411351697
  0
LINE
  8
DEFAULT_1
 62
2
  6
CENTER
 10
126.8238778671
 20
164.4411351697
 11
121.3449798915
 21
164.4411351697
  0
LINE
  8
DEFAULT_1
 62
2
  6
CENTER
 10
110.0238778671
 20
164.4411351697
 11
104.5449798915
 21
164.4411351697
  0
LINE
  8
DEFAULT_1
 62
2
  6
CENTER
 10
93.2238778671
 20
164.4411351697
 11
84.3844288793
 21
164.4411351697
  0
LINE
  8
DEFAULT_1
 62
2
  6
CENTER
 10
171.8199499457
 20
164.4411351697
 11
171.7449798915
 21
164.4411351697
  0
LINE
  8
DEFAULT_1
 62
2
  6
CENTER
 10
138.2199499457
 20
164.4411351697
 11
138.1449798915
 21
164.4411351697
  0
LINE
  8
0
 62
7
  6
CONTINUOUS
 10
138.2199499457
 20
164.4411351697
 11
143.5489078129
 21
164.4411351697
  0
LINE
  8
0
 62
7
  6
CONTINUOUS
 10
171.8199499457
 20
164.4411351697
 11
177.1489078129
 21
164.4411351697
  0
LINE
  8
DEFAULT_1
 62
2
  6
CENTER
 10
222.1449798915
 20
164.4411351697
 11
227.6238778671
 21
164.4411351697
  0
LINE
  8
0
 62
7
  6
CONTINUOUS
 10
93.914831001
 20
165.6707444667
 11
93.9149048591
 21
165.6707444662
  0
LINE
  8
0
 62
7
  6
CONTINUOUS
 10
110.714831001
 20
165.6707444667
 11
110.7149048591
 21
165.6707444662
  0
LINE
  8
0
 62
7
  6
CONTINUOUS
 10
127.514831001
 20
165.6707444667
 11
127.5149048591
 21
165.6707444662
  0
LINE
  8
0
 62
7
  6
CONTINUOUS
 10
144.314831001
 20
165.6707444667
 11
144.3149048591
 21
165.6707444662
  0
LINE
  8
0
 62
7
  6
CONTINUOUS
 10
161.114831001
 20
165.6707444667
 11
161.1149048591
 21
165.6707444662
  0
LINE
  8
0
 62
7
  6
CONTINUOUS
 10
177.914831001
 20
165.6707444667
 11
177.9149048591
 21
165.6707444662
  0
LINE
  8
0
 62
7
  6
CONTINUOUS
 10
194.714831001
 20
165.6707444667
 11
194.7149048591
 21
165.6707444662
  0
LINE
  8
0
 62
7
  6
CONTINUOUS
 10
211.514831001
 20
165.6707444667
 11
211.5149048591
 21
165.6707444662
  0
LINE
  8
0
 62
7
  6
CONTINUOUS
 10
228.314831001
 20
165.6707444667
 11
228.3149048591
 21
165.6707444662
  0
POLYLINE
  8
0
 62
7
  6
CONTINUOUS
 66
1
 70
0
  0
VERTEX
  8
0
 62
7
  6
CONTINUOUS
 10
137.4539956308
 20
165.6707444666
  0
VERTEX
  8
0
 62
7
  6
CONTINUOUS
 10
137.558167059
 20
165.6650699861
  0
VERTEX
  8
0
 62
7
  6
CONTINUOUS
 10
137.6700120607
 20
165.6439905608
  0
SEQEND
  0
POLYLINE
  8
0
 62
7
  6
CONTINUOUS
 66
1
 70
0
  0
VERTEX
  8
0
 62
7
  6
CONTINUOUS
 10
154.2539956308
 20
165.6707444666
  0
VERTEX
  8
0
 62
7
  6
CONTINUOUS
 10
154.358167059
 20
165.6650699861
  0
VERTEX
  8
0
 62
7
  6
CONTINUOUS
 10
154.4700120607
 20
165.6439905608
  0
SEQEND
  0
POLYLINE
  8
0
 62
7
  6
CONTINUOUS
 66
1
 70
0
  0
VERTEX
  8
0
 62
7
  6
CONTINUOUS
 10
171.0539956308
 20
165.6707444666
  0
VERTEX
  8
0
 62
7
  6
CONTINUOUS
 10
171.158167059
 20
165.6650699861
  0
VERTEX
  8
0
 62
7
  6
CONTINUOUS
 10
171.2700120607
 20
165.6439905608
  0
SEQEND
  0
POLYLINE
  8
0
 62
7
  6
CONTINUOUS
 66
1
 70
0
  0
VERTEX
  8
0
 62
7
  6
CONTINUOUS
 10
187.8539956308
 20
165.6707444666
  0
VERTEX
  8
0
 62
7
  6
CONTINUOUS
 10
187.958167059
 20
165.6650699861
  0
VERTEX
  8
0
 62
7
  6
CONTINUOUS
 10
188.0700120607
 20
165.6439905608
  0
SEQEND
  0
POLYLINE
  8
0
 62
7
  6
CONTINUOUS
 66
1
 70
0
  0
VERTEX
  8
0
 62
7
  6
CONTINUOUS
 10
204.6539956308
 20
165.6707444666
  0
VERTEX
  8
0
 62
7
  6
CONTINUOUS
 10
204.758167059
 20
165.6650699861
  0
VERTEX
  8
0
 62
7
  6
CONTINUOUS
 10
204.8700120607
 20
165.6439905608
  0
SEQEND
  0
POLYLINE
  8
0
 62
7
  6
CONTINUOUS
 66
1
 70
0
  0
VERTEX
  8
0
 62
7
  6
CONTINUOUS
 10
221.4539956308
 20
165.6707444666
  0
VERTEX
  8
0
 62
7
  6
CONTINUOUS
 10
221.558167059
 20
165.6650699861
  0
VERTEX
  8
0
 62
7
  6
CONTINUOUS
 10
221.6700120607
 20
165.6439905608
  0
SEQEND
  0
POLYLINE
  8
0
 62
7
  6
CONTINUOUS
 66
1
 70
0
  0
VERTEX
  8
0
 62
7
  6
CONTINUOUS
 10
177.1489078129
 20
164.4411351697
  0
VERTEX
  8
0
 62
7
  6
CONTINUOUS
 10
177.1813080419
 20
164.4388584177
  0
VERTEX
  8
0
 62
7
  6
CONTINUOUS
 10
177.2043886469
 20
164.431426747
  0
VERTEX
  8
0
 62
7
  6
CONTINUOUS
 10
177.2174757174
 20
164.4182359483
  0
VERTEX
  8
0
 62
7
  6
CONTINUOUS
 10
177.220536315
 20
164.3993297763
  0
SEQEND
  0
LINE
  8
0
 62
7
  6
CONTINUOUS
 10
154.4700295036
 20
165.6439857892
 11
154.5531175242
 21
165.6146867276
  0
POLYLINE
  8
0
 62
7
  6
CONTINUOUS
 66
1
 70
0
  0
VERTEX
  8
0
 62
7
  6
CONTINUOUS
 10
154.5531175242
 20
165.6146867276
  0
VERTEX
  8
0
 62
7
  6
CONTINUOUS
 10
154.6341375816
 20
165.5694679568
  0
VERTEX
  8
0
 62
7
  6
CONTINUOUS
 10
154.6873453216
 20
165.5263666005
  0
SEQEND
  0
LINE
  8
0
 62
7
  6
CONTINUOUS
 10
137.9943281922
 20
165.4036433116
 11
138.0366797673
 21
165.3332503982
  0
LINE
  8
0
 62
7
  6
CONTINUOUS
 10
138.0366797673
 20
165.3332503982
 11
138.0612360033
 21
165.277359748
  0
LINE
  8
0
 62
7
  6
CONTINUOUS
 10
111.3915610962
 20
172.1861754913
 11
110.3659810035
 21
168.5977368216
  0
POLYLINE
  8
0
 62
7
  6
CONTINUOUS
 66
1
 70
0
  0
VERTEX
  8
0
 62
7
  6
CONTINUOUS
 10
91.2185670142
 20
158.7349591393
  0
VERTEX
  8
0
 62
7
  6
CONTINUOUS
 10
91.2631929863
 20
158.8105232232
  0
VERTEX
  8
0
 62
7
  6
CONTINUOUS
 10
91.3363072418
 20
158.903240387
  0
VERTEX
  8
0
 62
7
  6
CONTINUOUS
 10
91.4330397419
 20
158.9994411955
  0
VERTEX
  8
0
 62
7
  6
CONTINUOUS
 10
91.5528729238
 20
159.098794095
  0
VERTEX
  8
0
 62
7
  6
CONTINUOUS
 10
91.6922020503
 20
159.2024606296
  0
SEQEND
  0
POLYLINE
  8
0
 62
7
  6
CONTINUOUS
 66
1
 70
0
  0
VERTEX
  8
0
 62
7
  6
CONTINUOUS
 10
91.2185321883
 20
158.7349687688
  0
VERTEX
  8
0
 62
7
  6
CONTINUOUS
 10
91.2532162103
 20
158.7936850544
  0
VERTEX
  8
0
 62
7
  6
CONTINUOUS
 10
91.3097137545
 20
158.8620534992
  0
VERTEX
  8
0
 62
7
  6
CONTINUOUS
 10
91.3774020805
 20
158.9193640635
  0
VERTEX
  8
0
 62
7
  6
CONTINUOUS
 10
91.4541513716
 20
158.9638134768
  0
VERTEX
  8
0
 62
7
  6
CONTINUOUS
 10
91.53754671
 20
158.9940031454
  0
VERTEX
  8
0
 62
7
  6
CONTINUOUS
 10
91.6249640592
 20
159.0089831587
  0
VERTEX
  8
0
 62
7
  6
CONTINUOUS
 10
91.665372256
 20
159.0106186631
  0
SEQEND
  0
POLYLINE
  8
0
 62
7
  6
CONTINUOUS
 66
1
 70
0
  0
VERTEX
  8
0
 62
7
  6
CONTINUOUS
 10
93.3321779913
 20
165.3332503982
  0
VERTEX
  8
0
 62
7
  6
CONTINUOUS
 10
93.3745295664
 20
165.4036433116
  0
VERTEX
  8
0
 62
7
  6
CONTINUOUS
 10
93.4301671747
 20
165.4738041173
  0
VERTEX
  8
0
 62
7
  6
CONTINUOUS
 10
93.4816398163
 20
165.5264863289
  0
SEQEND
  0
POLYLINE
  8
0
 62
7
  6
CONTINUOUS
 66
1
 70
0
  0
VERTEX
  8
0
 62
7
  6
CONTINUOUS
 10
127.2988036607
 20
165.6439790625
  0
VERTEX
  8
0
 62
7
  6
CONTINUOUS
 10
127.4089681461
 20
165.6648734762
  0
VERTEX
  8
0
 62
7
  6
CONTINUOUS
 10
127.5149048861
 20
165.6707444663
  0
SEQEND
  0
POLYLINE
  8
0
 62
7
  6
CONTINUOUS
 66
1
 70
0
  0
VERTEX
  8
0
 62
7
  6
CONTINUOUS
 10
110.4988036607
 20
165.6439790625
  0
VERTEX
  8
0
 62
7
  6
CONTINUOUS
 10
110.6089681461
 20
165.6648734762
  0
VERTEX
  8
0
 62
7
  6
CONTINUOUS
 10
110.7149048861
 20
165.6707444663
  0
SEQEND
  0
LINE
  8
0
 62
7
  6
CONTINUOUS
 10
220.3951717047
 20
171.9759688099
 11
220.3150611124
 21
171.9758975633
  0
LINE
  8
0
 62
7
  6
CONTINUOUS
 10
203.5951717047
 20
171.9759688099
 11
203.5150611124
 21
171.9758975633
  0
LINE
  8
0
 62
7
  6
CONTINUOUS
 10
186.7951717047
 20
171.9759688099
 11
186.7150611124
 21
171.9758975633
  0
LINE
  8
0
 62
7
  6
CONTINUOUS
 10
169.9951717047
 20
171.9759688099
 11
169.9150611124
 21
171.9758975633
  0
LINE
  8
0
 62
7
  6
CONTINUOUS
 10
153.1951717047
 20
171.9759688099
 11
153.1150611124
 21
171.9758975633
  0
LINE
  8
0
 62
7
  6
CONTINUOUS
 10
136.3951717047
 20
171.9759688099
 11
136.3150611124
 21
171.9758975633
  0
LINE
  8
0
 62
7
  6
CONTINUOUS
 10
119.5951717047
 20
171.9759688099
 11
119.5150611124
 21
171.9758975633
  0
LINE
  8
0
 62
7
  6
CONTINUOUS
 10
102.7951717047
 20
171.9759688099
 11
102.7150611124
 21
171.9758975633
  0
LINE
  8
0
 62
7
  6
CONTINUOUS
 10
237.1844288793
 20
172.4411351697
 11
228.8267842854
 21
172.4411351697
  0
LINE
  8
0
 62
7
  6
CONTINUOUS
 10
220.9451823198
 20
172.4411351697
 11
212.0267842854
 21
172.4411351697
  0
LINE
  8
0
 62
7
  6
CONTINUOUS
 10
204.1451823198
 20
172.4411351697
 11
195.2267842854
 21
172.4411351697
  0
LINE
  8
0
 62
7
  6
CONTINUOUS
 10
187.3451823198
 20
172.4411351697
 11
178.4267842854
 21
172.4411351697
  0
LINE
  8
0
 62
7
  6
CONTINUOUS
 10
170.5451823198
 20
172.4411351697
 11
161.6267842854
 21
172.4411351697
  0
LINE
  8
0
 62
7
  6
CONTINUOUS
 10
153.7451823198
 20
172.4411351697
 11
144.8267842854
 21
172.4411351697
  0
LINE
  8
0
 62
7
  6
CONTINUOUS
 10
136.9451823198
 20
172.4411351697
 11
128.0267842854
 21
172.4411351697
  0
LINE
  8
0
 62
7
  6
CONTINUOUS
 10
120.1451823198
 20
172.4411351697
 11
111.2267842854
 21
172.4411351697
  0
LINE
  8
0
 62
7
  6
CONTINUOUS
 10
103.3451823198
 20
172.4411351697
 11
94.4267842854
 21
172.4411351697
  0
LINE
  8
0
 62
7
  6
CONTINUOUS
 10
94.3992607225
 20
172.4411351697
 11
86.5844288793
 21
172.4411351697
  0
LINE
  8
0
 62
7
  6
CONTINUOUS
 10
103.3695970362
 20
172.4411351697
 11
111.1992607225
 21
172.4411351697
  0
LINE
  8
0
 62
7
  6
CONTINUOUS
 10
120.1695970362
 20
172.4411351697
 11
127.9992607225
 21
172.4411351697
  0
LINE
  8
0
 62
7
  6
CONTINUOUS
 10
136.9695970362
 20
172.4411351697
 11
144.7992607225
 21
172.4411351697
  0
LINE
  8
0
 62
7
  6
CONTINUOUS
 10
153.7695970362
 20
172.4411351697
 11
161.5992607225
 21
172.4411351697
  0
LINE
  8
0
 62
7
  6
CONTINUOUS
 10
170.5695970362
 20
172.4411351697
 11
178.3992607225
 21
172.4411351697
  0
LINE
  8
0
 62
7
  6
CONTINUOUS
 10
187.3695970362
 20
172.4411351697
 11
195.1992607225
 21
172.4411351697
  0
LINE
  8
0
 62
7
  6
CONTINUOUS
 10
204.1695970362
 20
172.4411351697
 11
211.9992607225
 21
172.4411351697
  0
LINE
  8
0
 62
7
  6
CONTINUOUS
 10
220.9695970362
 20
172.4411351697
 11
228.7992607225
 21
172.4411351697
  0
LINE
  8
0
 62
7
  6
CONTINUOUS
 10
171.2700295036
 20
165.6439857892
 11
171.3531175242
 21
165.6146867276
  0
LINE
  8
0
 62
7
  6
CONTINUOUS
 10
188.0700295036
 20
165.6439857892
 11
188.1531175242
 21
165.6146867276
  0
POLYLINE
  8
0
 62
7
  6
CONTINUOUS
 66
1
 70
0
  0
VERTEX
  8
0
 62
7
  6
CONTINUOUS
 10
171.3531175242
 20
165.6146867276
  0
VERTEX
  8
0
 62
7
  6
CONTINUOUS
 10
171.4341375816
 20
165.5694679568
  0
VERTEX
  8
0
 62
7
  6
CONTINUOUS
 10
171.4873453216
 20
165.5263666005
  0
SEQEND
  0
LINE
  8
0
 62
7
  6
CONTINUOUS
 10
154.6873453216
 20
165.5263666005
 11
154.6872179619
 21
165.5264863497
  0
POLYLINE
  8
0
 62
7
  6
CONTINUOUS
 66
1
 70
0
  0
VERTEX
  8
0
 62
7
  6
CONTINUOUS
 10
154.6872179423
 20
165.5264863289
  0
VERTEX
  8
0
 62
7
  6
CONTINUOUS
 10
154.7386905839
 20
165.4738041173
  0
VERTEX
  8
0
 62
7
  6
CONTINUOUS
 10
154.7943281922
 20
165.4036433116
  0
SEQEND
  0
LINE
  8
0
 62
7
  6
CONTINUOUS
 10
136.7772966624
 20
172.1861754913
 11
137.8028767552
 21
168.5977368216
  0
LINE
  8
0
 62
7
  6
CONTINUOUS
 10
138.7108664281
 20
157.3614581686
 11
137.8205361877
 21
168.5001761262
  0
LINE
  8
0
 62
7
  6
CONTINUOUS
 10
127.148321571
 20
168.5001761262
 11
126.2579913306
 21
157.3614581686
  0
LINE
  8
0
 62
7
  6
CONTINUOUS
 10
110.1076217553
 20
165.277359748
 11
110.1321779913
 21
165.3332503982
  0
POLYLINE
  8
0
 62
7
  6
CONTINUOUS
 66
1
 70
0
  0
VERTEX
  8
0
 62
7
  6
CONTINUOUS
 10
93.6988036607
 20
165.6439790625
  0
VERTEX
  8
0
 62
7
  6
CONTINUOUS
 10
93.8089681461
 20
165.6648734762
  0
VERTEX
  8
0
 62
7
  6
CONTINUOUS
 10
93.9149048861
 20
165.6707444663
  0
SEQEND
  0
LINE
  8
0
 62
7
  6
CONTINUOUS
 10
204.8700295036
 20
165.6439857892
 11
204.9531175242
 21
165.6146867276
  0
LINE
  8
0
 62
7
  6
CONTINUOUS
 10
154.7943281922
 20
165.4036433116
 11
154.8366797673
 21
165.3332503982
  0
LINE
  8
0
 62
7
  6
CONTINUOUS
 10
128.1915610962
 20
172.1861754913
 11
127.1659810035
 21
168.5977368216
  0
POLYLINE
  8
0
 62
7
  6
CONTINUOUS
 66
1
 70
0
  0
VERTEX
  8
0
 62
7
  6
CONTINUOUS
 10
110.1321779913
 20
165.3332503982
  0
VERTEX
  8
0
 62
7
  6
CONTINUOUS
 10
110.1745295664
 20
165.4036433116
  0
VERTEX
  8
0
 62
7
  6
CONTINUOUS
 10
110.2301671747
 20
165.4738041173
  0
VERTEX
  8
0
 62
7
  6
CONTINUOUS
 10
110.2816398163
 20
165.5264863289
  0
SEQEND
  0
LINE
  8
0
 62
7
  6
CONTINUOUS
 10
221.6700295036
 20
165.6439857892
 11
221.7531175242
 21
165.6146867276
  0
POLYLINE
  8
0
 62
7
  6
CONTINUOUS
 66
1
 70
0
  0
VERTEX
  8
0
 62
7
  6
CONTINUOUS
 10
188.1531175242
 20
165.6146867276
  0
VERTEX
  8
0
 62
7
  6
CONTINUOUS
 10
188.2341375816
 20
165.5694679568
  0
VERTEX
  8
0
 62
7
  6
CONTINUOUS
 10
188.2873453216
 20
165.5263666005
  0
SEQEND
  0
LINE
  8
0
 62
7
  6
CONTINUOUS
 10
171.4873453216
 20
165.5263666005
 11
171.4872179619
 21
165.5264863497
  0
POLYLINE
  8
0
 62
7
  6
CONTINUOUS
 66
1
 70
0
  0
VERTEX
  8
0
 62
7
  6
CONTINUOUS
 10
171.4872179423
 20
165.5264863289
  0
VERTEX
  8
0
 62
7
  6
CONTINUOUS
 10
171.5386905839
 20
165.4738041173
  0
VERTEX
  8
0
 62
7
  6
CONTINUOUS
 10
171.5943281922
 20
165.4036433116
  0
SEQEND
  0
LINE
  8
0
 62
7
  6
CONTINUOUS
 10
154.8366797673
 20
165.3332503982
 11
154.8612360033
 21
165.277359748
  0
LINE
  8
0
 62
7
  6
CONTINUOUS
 10
143.0579913306
 20
157.3614581686
 11
143.948321571
 21
168.5001761262
  0
POLYLINE
  8
0
 62
7
  6
CONTINUOUS
 66
1
 70
0
  0
VERTEX
  8
0
 62
7
  6
CONTINUOUS
 10
143.3830080658
 20
161.4276681898
  0
VERTEX
  8
0
 62
7
  6
CONTINUOUS
 10
143.3591440187
 20
161.2079232574
  0
VERTEX
  8
0
 62
7
  6
CONTINUOUS
 10
143.3215410166
 20
160.9900592763
  0
VERTEX
  8
0
 62
7
  6
CONTINUOUS
 10
143.2707302504
 20
160.7851412358
  0
VERTEX
  8
0
 62
7
  6
CONTINUOUS
 10
143.209554441
 20
160.6028153453
  0
VERTEX
  8
0
 62
7
  6
CONTINUOUS
 10
143.1419837578
 20
160.4479323351
  0
VERTEX
  8
0
 62
7
  6
CONTINUOUS
 10
143.0699155162
 20
160.3177654699
  0
VERTEX
  8
0
 62
7
  6
CONTINUOUS
 10
142.9938562876
 20
160.2085885553
  0
VERTEX
  8
0
 62
7
  6
CONTINUOUS
 10
142.913353701
 20
160.1174419651
  0
VERTEX
  8
0
 62
7
  6
CONTINUOUS
 10
142.8315134569
 20
160.0459189829
  0
VERTEX
  8
0
 62
7
  6
CONTINUOUS
 10
142.7506150305
 20
159.9933671792
  0
VERTEX
  8
0
 62
7
  6
CONTINUOUS
 10
142.6723165568
 20
159.9581424414
  0
VERTEX
  8
0
 62
7
  6
CONTINUOUS
 10
142.5966428925
 20
159.9379993348
  0
VERTEX
  8
0
 62
7
  6
CONTINUOUS
 10
142.5221201123
 20
159.9313707907
  0
SEQEND
  0
POLYLINE
  8
0
 62
7
  6
CONTINUOUS
 66
1
 70
0
  0
VERTEX
  8
0
 62
7
  6
CONTINUOUS
 10
138.1483214436
 20
164.3993297763
  0
VERTEX
  8
0
 62
7
  6
CONTINUOUS
 10
138.1514077677
 20
164.4182876411
  0
VERTEX
  8
0
 62
7
  6
CONTINUOUS
 10
138.1645391156
 20
164.4314661949
  0
VERTEX
  8
0
 62
7
  6
CONTINUOUS
 10
138.1875862783
 20
164.4388645947
  0
VERTEX
  8
0
 62
7
  6
CONTINUOUS
 10
138.2199499457
 20
164.4411351697
  0
SEQEND
  0
LINE
  8
0
 62
7
  6
CONTINUOUS
 10
126.9076217553
 20
165.277359748
 11
126.9321779913
 21
165.3332503982
  0
LINE
  8
0
 62
7
  6
CONTINUOUS
 10
93.481512437
 20
165.5263666005
 11
93.4816397967
 21
165.5264863497
  0
POLYLINE
  8
0
 62
7
  6
CONTINUOUS
 66
1
 70
0
  0
VERTEX
  8
0
 62
7
  6
CONTINUOUS
 10
204.9531175242
 20
165.6146867276
  0
VERTEX
  8
0
 62
7
  6
CONTINUOUS
 10
205.0341375816
 20
165.5694679568
  0
VERTEX
  8
0
 62
7
  6
CONTINUOUS
 10
205.0873453216
 20
165.5263666005
  0
SEQEND
  0
LINE
  8
0
 62
7
  6
CONTINUOUS
 10
188.2873453216
 20
165.5263666005
 11
188.2872179619
 21
165.5264863497
  0
LINE
  8
0
 62
7
  6
CONTINUOUS
 10
171.5943281922
 20
165.4036433116
 11
171.6366797673
 21
165.3332503982
  0
LINE
  8
0
 62
7
  6
CONTINUOUS
 10
153.5772966624
 20
172.1861754913
 11
154.6028767552
 21
168.5977368216
  0
LINE
  8
0
 62
7
  6
CONTINUOUS
 10
154.6205361877
 20
168.5001761262
 11
155.5108664281
 21
157.3614581686
  0
LINE
  8
0
 62
7
  6
CONTINUOUS
 10
144.9915610962
 20
172.1861754913
 11
143.9659810035
 21
168.5977368216
  0
POLYLINE
  8
0
 62
7
  6
CONTINUOUS
 66
1
 70
0
  0
VERTEX
  8
0
 62
7
  6
CONTINUOUS
 10
126.9321779913
 20
165.3332503982
  0
VERTEX
  8
0
 62
7
  6
CONTINUOUS
 10
126.9745295664
 20
165.4036433116
  0
VERTEX
  8
0
 62
7
  6
CONTINUOUS
 10
127.0301671747
 20
165.4738041173
  0
VERTEX
  8
0
 62
7
  6
CONTINUOUS
 10
127.0816398163
 20
165.5264863289
  0
SEQEND
  0
LINE
  8
0
 62
7
  6
CONTINUOUS
 10
93.481512437
 20
165.5263666005
 11
93.534720177
 21
165.5694679568
  0
POLYLINE
  8
0
 62
7
  6
CONTINUOUS
 66
1
 70
0
  0
VERTEX
  8
0
 62
7
  6
CONTINUOUS
 10
221.7531175242
 20
165.6146867276
  0
VERTEX
  8
0
 62
7
  6
CONTINUOUS
 10
221.8341375816
 20
165.5694679568
  0
VERTEX
  8
0
 62
7
  6
CONTINUOUS
 10
221.8873453216
 20
165.5263666005
  0
SEQEND
  0
POLYLINE
  8
0
 62
7
  6
CONTINUOUS
 66
1
 70
0
  0
VERTEX
  8
0
 62
7
  6
CONTINUOUS
 10
188.2872179423
 20
165.5264863289
  0
VERTEX
  8
0
 62
7
  6
CONTINUOUS
 10
188.3386905839
 20
165.4738041173
  0
VERTEX
  8
0
 62
7
  6
CONTINUOUS
 10
188.3943281922
 20
165.4036433116
  0
SEQEND
  0
LINE
  8
0
 62
7
  6
CONTINUOUS
 10
171.6366797673
 20
165.3332503982
 11
171.6612360033
 21
165.277359748
  0
LINE
  8
DEFAULT_1
 62
2
  6
CENTER
 10
161.8844288793
 20
144.4411351697
 11
161.8844288793
 21
276.0411351697
  0
LINE
  8
0
 62
7
  6
CONTINUOUS
 10
110.281512437
 20
165.5263666005
 11
110.2816397967
 21
165.5264863497
  0
LINE
  8
0
 62
7
  6
CONTINUOUS
 10
205.0873453216
 20
165.5263666005
 11
205.0872179619
 21
165.5264863497
  0
POLYLINE
  8
0
 62
7
  6
CONTINUOUS
 66
1
 70
0
  0
VERTEX
  8
0
 62
7
  6
CONTINUOUS
 10
205.0872179423
 20
165.5264863289
  0
VERTEX
  8
0
 62
7
  6
CONTINUOUS
 10
205.1386905839
 20
165.4738041173
  0
VERTEX
  8
0
 62
7
  6
CONTINUOUS
 10
205.1943281922
 20
165.4036433116
  0
SEQEND
  0
LINE
  8
0
 62
7
  6
CONTINUOUS
 10
188.3943281922
 20
165.4036433116
 11
188.4366797673
 21
165.3332503982
  0
LINE
  8
0
 62
7
  6
CONTINUOUS
 10
170.3772966624
 20
172.1861754913
 11
171.4028767552
 21
168.5977368216
  0
LINE
  8
0
 62
7
  6
CONTINUOUS
 10
172.3108664281
 20
157.3614581686
 11
171.4205361877
 21
168.5001761262
  0
LINE
  8
0
 62
7
  6
CONTINUOUS
 10
160.748321571
 20
168.5001761262
 11
159.8579913306
 21
157.3614581686
  0
LINE
  8
0
 62
7
  6
CONTINUOUS
 10
143.7076217553
 20
165.277359748
 11
143.7321779913
 21
165.3332503982
  0
POLYLINE
  8
0
 62
7
  6
CONTINUOUS
 66
1
 70
0
  0
VERTEX
  8
0
 62
7
  6
CONTINUOUS
 10
143.7321779913
 20
165.3332503982
  0
VERTEX
  8
0
 62
7
  6
CONTINUOUS
 10
143.7745295664
 20
165.4036433116
  0
VERTEX
  8
0
 62
7
  6
CONTINUOUS
 10
143.8301671747
 20
165.4738041173
  0
VERTEX
  8
0
 62
7
  6
CONTINUOUS
 10
143.8816398163
 20
165.5264863289
  0
SEQEND
  0
LINE
  8
0
 62
7
  6
CONTINUOUS
 10
110.281512437
 20
165.5263666005
 11
110.334720177
 21
165.5694679568
  0
LINE
  8
0
 62
7
  6
CONTINUOUS
 10
93.534720177
 20
165.5694679568
 11
93.6157402344
 21
165.6146867276
  0
LINE
  8
0
 62
7
  6
CONTINUOUS
 10
188.4366797673
 20
165.3332503982
 11
188.4612360033
 21
165.277359748
  0
LINE
  8
0
 62
7
  6
CONTINUOUS
 10
161.7915610962
 20
172.1861754913
 11
160.7659810035
 21
168.5977368216
  0
LINE
  8
0
 62
7
  6
CONTINUOUS
 10
127.081512437
 20
165.5263666005
 11
127.0816397967
 21
165.5264863497
  0
LINE
  8
0
 62
7
  6
CONTINUOUS
 10
127.081512437
 20
165.5263666005
 11
127.134720177
 21
165.5694679568
  0
LINE
  8
0
 62
7
  6
CONTINUOUS
 10
110.334720177
 20
165.5694679568
 11
110.4157402344
 21
165.6146867276
  0
LINE
  8
0
 62
7
  6
CONTINUOUS
 10
221.8873453216
 20
165.5263666005
 11
221.8872179619
 21
165.5264863497
  0
POLYLINE
  8
0
 62
7
  6
CONTINUOUS
 66
1
 70
0
  0
VERTEX
  8
0
 62
7
  6
CONTINUOUS
 10
221.8872179423
 20
165.5264863289
  0
VERTEX
  8
0
 62
7
  6
CONTINUOUS
 10
221.9386905839
 20
165.4738041173
  0
VERTEX
  8
0
 62
7
  6
CONTINUOUS
 10
221.9943281922
 20
165.4036433116
  0
SEQEND
  0
LINE
  8
0
 62
7
  6
CONTINUOUS
 10
187.1772966624
 20
172.1861754913
 11
188.2028767552
 21
168.5977368216
  0
LINE
  8
0
 62
7
  6
CONTINUOUS
 10
176.6579913306
 20
157.3614581686
 11
177.548321571
 21
168.5001761262
  0
POLYLINE
  8
0
 62
7
  6
CONTINUOUS
 66
1
 70
0
  0
VERTEX
  8
0
 62
7
  6
CONTINUOUS
 10
176.9830080658
 20
161.4276681898
  0
VERTEX
  8
0
 62
7
  6
CONTINUOUS
 10
176.9591440187
 20
161.2079232574
  0
VERTEX
  8
0
 62
7
  6
CONTINUOUS
 10
176.9215410166
 20
160.9900592763
  0
VERTEX
  8
0
 62
7
  6
CONTINUOUS
 10
176.8707302504
 20
160.7851412358
  0
VERTEX
  8
0
 62
7
  6
CONTINUOUS
 10
176.809554441
 20
160.6028153453
  0
VERTEX
  8
0
 62
7
  6
CONTINUOUS
 10
176.7419837578
 20
160.4479323351
  0
VERTEX
  8
0
 62
7
  6
CONTINUOUS
 10
176.6699155162
 20
160.3177654699
  0
VERTEX
  8
0
 62
7
  6
CONTINUOUS
 10
176.5938562876
 20
160.2085885553
  0
VERTEX
  8
0
 62
7
  6
CONTINUOUS
 10
176.513353701
 20
160.1174419651
  0
VERTEX
  8
0
 62
7
  6
CONTINUOUS
 10
176.4315134569
 20
160.0459189829
  0
VERTEX
  8
0
 62
7
  6
CONTINUOUS
 10
176.3506150305
 20
159.9933671792
  0
VERTEX
  8
0
 62
7
  6
CONTINUOUS
 10
176.2723165568
 20
159.9581424414
  0
VERTEX
  8
0
 62
7
  6
CONTINUOUS
 10
176.1966428925
 20
159.9379993348
  0
VERTEX
  8
0
 62
7
  6
CONTINUOUS
 10
176.1221201123
 20
159.9313707907
  0
SEQEND
  0
POLYLINE
  8
0
 62
7
  6
CONTINUOUS
 66
1
 70
0
  0
VERTEX
  8
0
 62
7
  6
CONTINUOUS
 10
171.7483214436
 20
164.3993297763
  0
VERTEX
  8
0
 62
7
  6
CONTINUOUS
 10
171.7514077397
 20
164.4182875849
  0
VERTEX
  8
0
 62
7
  6
CONTINUOUS
 10
171.7645390277
 20
164.4314661455
  0
VERTEX
  8
0
 62
7
  6
CONTINUOUS
 10
171.7875862509
 20
164.4388645901
  0
VERTEX
  8
0
 62
7
  6
CONTINUOUS
 10
171.8199499457
 20
164.4411351697
  0
SEQEND
  0
LINE
  8
0
 62
7
  6
CONTINUOUS
 10
160.5076217553
 20
165.277359748
 11
160.5321779913
 21
165.3332503982
  0
LINE
  8
0
 62
7
  6
CONTINUOUS
 10
143.881512437
 20
165.5263666005
 11
143.8816397967
 21
165.5264863497
  0
LINE
  8
0
 62
7
  6
CONTINUOUS
 10
93.6157402344
 20
165.6146867276
 11
93.698828255
 21
165.6439857892
  0
LINE
  8
0
 62
7
  6
CONTINUOUS
 10
205.1943281922
 20
165.4036433116
 11
205.2366797673
 21
165.3332503982
  0
LINE
  8
0
 62
7
  6
CONTINUOUS
 10
188.2205361877
 20
168.5001761262
 11
189.1108664281
 21
157.3614581686
  0
LINE
  8
0
 62
7
  6
CONTINUOUS
 10
178.5915610962
 20
172.1861754913
 11
177.5659810035
 21
168.5977368216
  0
POLYLINE
  8
0
 62
7
  6
CONTINUOUS
 66
1
 70
0
  0
VERTEX
  8
0
 62
7
  6
CONTINUOUS
 10
160.5321779913
 20
165.3332503982
  0
VERTEX
  8
0
 62
7
  6
CONTINUOUS
 10
160.5745295664
 20
165.4036433116
  0
VERTEX
  8
0
 62
7
  6
CONTINUOUS
 10
160.6301671747
 20
165.4738041173
  0
VERTEX
  8
0
 62
7
  6
CONTINUOUS
 10
160.6816398163
 20
165.5264863289
  0
SEQEND
  0
LINE
  8
0
 62
7
  6
CONTINUOUS
 10
143.881512437
 20
165.5263666005
 11
143.934720177
 21
165.5694679568
  0
LINE
  8
0
 62
7
  6
CONTINUOUS
 10
127.134720177
 20
165.5694679568
 11
127.2157402344
 21
165.6146867276
  0
LINE
  8
0
 62
7
  6
CONTINUOUS
 10
110.4157402344
 20
165.6146867276
 11
110.498828255
 21
165.6439857892
  0
POLYLINE
  8
0
 62
7
  6
CONTINUOUS
 66
1
 70
0
  0
VERTEX
  8
0
 62
7
  6
CONTINUOUS
 10
91.3462777403
 20
156.7174718031
  0
VERTEX
  8
0
 62
7
  6
CONTINUOUS
 10
91.2627589375
 20
156.6880984224
  0
VERTEX
  8
0
 62
7
  6
CONTINUOUS
 10
91.1725838672
 20
156.6522865873
  0
VERTEX
  8
0
 62
7
  6
CONTINUOUS
 10
91.1062284979
 20
156.6203636932
  0
VERTEX
  8
0
 62
7
  6
CONTINUOUS
 10
91.061663847
 20
156.5923380209
  0
VERTEX
  8
0
 62
7
  6
CONTINUOUS
 10
91.0360046047
 20
156.5679054722
  0
VERTEX
  8
0
 62
7
  6
CONTINUOUS
 10
91.026802549
 20
156.546440954
  0
SEQEND
  0
LINE
  8
0
 62
7
  6
CONTINUOUS
 10
205.2366797673
 20
165.3332503982
 11
205.2612360033
 21
165.277359748
  0
LINE
  8
0
 62
7
  6
CONTINUOUS
 10
177.3076217553
 20
165.277359748
 11
177.3321779913
 21
165.3332503982
  0
LINE
  8
0
 62
7
  6
CONTINUOUS
 10
160.681512437
 20
165.5263666005
 11
160.6816397967
 21
165.5264863497
  0
LINE
  8
0
 62
7
  6
CONTINUOUS
 10
160.681512437
 20
165.5263666005
 11
160.734720177
 21
165.5694679568
  0
LINE
  8
0
 62
7
  6
CONTINUOUS
 10
143.934720177
 20
165.5694679568
 11
144.0157402344
 21
165.6146867276
  0
LINE
  8
0
 62
7
  6
CONTINUOUS
 10
127.2157402344
 20
165.6146867276
 11
127.298828255
 21
165.6439857892
  0
POLYLINE
  8
0
 62
7
  6
CONTINUOUS
 66
1
 70
0
  0
VERTEX
  8
0
 62
7
  6
CONTINUOUS
 10
91.3461864309
 20
156.7174959738
  0
VERTEX
  8
0
 62
7
  6
CONTINUOUS
 10
91.3792115628
 20
156.7274478351
  0
VERTEX
  8
0
 62
7
  6
CONTINUOUS
 10
91.4665509722
 20
156.7423920092
  0
VERTEX
  8
0
 62
7
  6
CONTINUOUS
 10
91.506876258
 20
156.7440207928
  0
SEQEND
  0
LINE
  8
0
 62
7
  6
CONTINUOUS
 10
221.9943281922
 20
165.4036433116
 11
222.0366797673
 21
165.3332503982
  0
LINE
  8
0
 62
7
  6
CONTINUOUS
 10
203.9772966624
 20
172.1861754913
 11
205.0028767552
 21
168.5977368216
  0
LINE
  8
0
 62
7
  6
CONTINUOUS
 10
205.0205361877
 20
168.5001761262
 11
205.9108664281
 21
157.3614581686
  0
LINE
  8
0
 62
7
  6
CONTINUOUS
 10
194.348321571
 20
168.5001761262
 11
193.4579913306
 21
157.3614581686
  0
POLYLINE
  8
0
 62
7
  6
CONTINUOUS
 66
1
 70
0
  0
VERTEX
  8
0
 62
7
  6
CONTINUOUS
 10
177.3321779913
 20
165.3332503982
  0
VERTEX
  8
0
 62
7
  6
CONTINUOUS
 10
177.3745295664
 20
165.4036433116
  0
VERTEX
  8
0
 62
7
  6
CONTINUOUS
 10
177.4301671747
 20
165.4738041173
  0
VERTEX
  8
0
 62
7
  6
CONTINUOUS
 10
177.4816398163
 20
165.5264863289
  0
SEQEND
  0
LINE
  8
0
 62
7
  6
CONTINUOUS
 10
160.734720177
 20
165.5694679568
 11
160.8157402344
 21
165.6146867276
  0
LINE
  8
0
 62
7
  6
CONTINUOUS
 10
144.0157402344
 20
165.6146867276
 11
144.098828255
 21
165.6439857892
  0
LINE
  8
0
 62
7
  6
CONTINUOUS
 10
222.0366797673
 20
165.3332503982
 11
222.0612360033
 21
165.277359748
  0
LINE
  8
0
 62
7
  6
CONTINUOUS
 10
203.1292020237
 20
175.4358997929
 11
202.9597166761
 21
272.5437522836
  0
LINE
  8
0
 62
7
  6
CONTINUOUS
 10
195.3915610962
 20
172.1861754913
 11
194.3659810035
 21
168.5977368216
  0
LINE
  8
0
 62
7
  6
CONTINUOUS
 10
194.1076217553
 20
165.277359748
 11
194.1321779913
 21
165.3332503982
  0
LINE
  8
0
 62
7
  6
CONTINUOUS
 10
177.481512437
 20
165.5263666005
 11
177.4816397967
 21
165.5264863497
  0
LINE
  8
0
 62
7
  6
CONTINUOUS
 10
177.481512437
 20
165.5263666005
 11
177.534720177
 21
165.5694679568
  0
LINE
  8
0
 62
7
  6
CONTINUOUS
 10
177.534720177
 20
165.5694679568
 11
177.6157402344
 21
165.6146867276
  0
LINE
  8
0
 62
7
  6
CONTINUOUS
 10
160.8157402344
 20
165.6146867276
 11
160.898828255
 21
165.6439857892
  0
LINE
  8
0
 62
7
  6
CONTINUOUS
 10
177.6157402344
 20
165.6146867276
 11
177.698828255
 21
165.6439857892
  0
LINE
  8
0
 62
7
  6
CONTINUOUS
 10
220.7772966624
 20
172.1861754913
 11
221.8028767552
 21
168.5977368216
  0
LINE
  8
0
 62
7
  6
CONTINUOUS
 10
211.148321571
 20
168.5001761262
 11
210.2579913306
 21
157.3614581686
  0
POLYLINE
  8
0
 62
7
  6
CONTINUOUS
 66
1
 70
0
  0
VERTEX
  8
0
 62
7
  6
CONTINUOUS
 10
194.1321779913
 20
165.3332503982
  0
VERTEX
  8
0
 62
7
  6
CONTINUOUS
 10
194.1745295664
 20
165.4036433116
  0
VERTEX
  8
0
 62
7
  6
CONTINUOUS
 10
194.2301671747
 20
165.4738041173
  0
VERTEX
  8
0
 62
7
  6
CONTINUOUS
 10
194.2816398163
 20
165.5264863289
  0
SEQEND
  0
LINE
  8
0
 62
7
  6
CONTINUOUS
 10
194.334720177
 20
165.5694679568
 11
194.4157402344
 21
165.6146867276
  0
LINE
  8
0
 62
7
  6
CONTINUOUS
 10
194.4157402344
 20
165.6146867276
 11
194.498828255
 21
165.6439857892
  0
LINE
  8
0
 62
7
  6
CONTINUOUS
 10
221.8205361877
 20
168.5001761262
 11
222.7108664281
 21
157.3614581686
  0
LINE
  8
0
 62
7
  6
CONTINUOUS
 10
212.1915610962
 20
172.1861754913
 11
211.1659810035
 21
168.5977368216
  0
LINE
  8
0
 62
7
  6
CONTINUOUS
 10
194.281512437
 20
165.5263666005
 11
194.2816397967
 21
165.5264863497
  0
LINE
  8
0
 62
7
  6
CONTINUOUS
 10
194.281512437
 20
165.5263666005
 11
194.334720177
 21
165.5694679568
  0
LINE
  8
0
 62
7
  6
CONTINUOUS
 10
211.2157402344
 20
165.6146867276
 11
211.298828255
 21
165.6439857892
  0
LINE
  8
0
 62
7
  6
CONTINUOUS
 10
232.7459225435
 20
156.4911351697
 11
232.7494188841
 21
156.4411351697
  0
LINE
  8
0
 62
7
  6
CONTINUOUS
 10
226.2028746434
 20
156.4512261016
 11
226.2774938284
 21
158.5880399824
  0
LINE
  8
0
 62
7
  6
CONTINUOUS
 10
210.9076217553
 20
165.277359748
 11
210.9321779913
 21
165.3332503982
  0
POLYLINE
  8
0
 62
7
  6
CONTINUOUS
 66
1
 70
0
  0
VERTEX
  8
0
 62
7
  6
CONTINUOUS
 10
210.9321779913
 20
165.3332503982
  0
VERTEX
  8
0
 62
7
  6
CONTINUOUS
 10
210.9745295664
 20
165.4036433116
  0
VERTEX
  8
0
 62
7
  6
CONTINUOUS
 10
211.0301671747
 20
165.4738041173
  0
VERTEX
  8
0
 62
7
  6
CONTINUOUS
 10
211.0816398163
 20
165.5264863289
  0
SEQEND
  0
LINE
  8
0
 62
7
  6
CONTINUOUS
 10
211.081512437
 20
165.5263666005
 11
211.0816397967
 21
165.5264863497
  0
LINE
  8
0
 62
7
  6
CONTINUOUS
 10
211.081512437
 20
165.5263666005
 11
211.134720177
 21
165.5694679568
  0
LINE
  8
0
 62
7
  6
CONTINUOUS
 10
211.134720177
 20
165.5694679568
 11
211.2157402344
 21
165.6146867276
  0
LINE
  8
0
 62
7
  6
CONTINUOUS
 10
228.0157402344
 20
165.6146867276
 11
228.098828255
 21
165.6439857892
  0
LINE
  8
0
 62
7
  6
CONTINUOUS
 10
88.3091387964
 20
274.0411351697
 11
201.4597189622
 21
274.0411351697
  0
LINE
  8
0
 62
7
  6
CONTINUOUS
 10
227.0847873196
 20
157.6966966569
 11
227.948321571
 21
168.5001761262
  0
LINE
  8
0
 62
7
  6
CONTINUOUS
 10
226.5738459906
 20
159.2058011651
 11
226.6703170784
 21
160.3637390572
  0
LINE
  8
0
 62
7
  6
CONTINUOUS
 10
226.6703170784
 20
160.3637390572
 11
226.7776172183
 21
161.631729209
  0
POLYLINE
  8
0
 62
7
  6
CONTINUOUS
 66
1
 70
0
  0
VERTEX
  8
0
 62
7
  6
CONTINUOUS
 10
226.7776172183
 20
161.631729209
  0
VERTEX
  8
0
 62
7
  6
CONTINUOUS
 10
226.8933502718
 20
162.9754684165
  0
VERTEX
  8
0
 62
7
  6
CONTINUOUS
 10
226.9534747714
 20
163.6644352852
  0
SEQEND
  0
POLYLINE
  8
0
 62
7
  6
CONTINUOUS
 66
1
 70
0
  0
VERTEX
  8
0
 62
7
  6
CONTINUOUS
 10
227.6813083223
 20
165.1596344724
  0
VERTEX
  8
0
 62
7
  6
CONTINUOUS
 10
227.6861068643
 20
165.1977525146
  0
VERTEX
  8
0
 62
7
  6
CONTINUOUS
 10
227.6971007898
 20
165.2454035337
  0
VERTEX
  8
0
 62
7
  6
CONTINUOUS
 10
227.7076313988
 20
165.2773858735
  0
SEQEND
  0
POLYLINE
  8
0
 62
7
  6
CONTINUOUS
 66
1
 70
0
  0
VERTEX
  8
0
 62
7
  6
CONTINUOUS
 10
226.2774936509
 20
158.588035234
  0
VERTEX
  8
0
 62
7
  6
CONTINUOUS
 10
226.2899962584
 20
158.6761085167
  0
VERTEX
  8
0
 62
7
  6
CONTINUOUS
 10
226.308292621
 20
158.7350206534
  0
SEQEND
  0
LINE
  8
0
 62
7
  6
CONTINUOUS
 10
227.934720177
 20
165.5694679568
 11
228.0157402344
 21
165.6146867276
  0
POLYLINE
  8
0
 62
7
  6
CONTINUOUS
 66
1
 70
0
  0
VERTEX
  8
0
 62
7
  6
CONTINUOUS
 10
226.6006455906
 20
159.0286679956
  0
VERTEX
  8
0
 62
7
  6
CONTINUOUS
 10
226.6802086041
 20
159.0553248277
  0
VERTEX
  8
0
 62
7
  6
CONTINUOUS
 10
226.7899782542
 20
159.1066197264
  0
VERTEX
  8
0
 62
7
  6
CONTINUOUS
 10
226.8953080894
 20
159.1784673995
  0
VERTEX
  8
0
 62
7
  6
CONTINUOUS
 10
226.9929061255
 20
159.2707410726
  0
VERTEX
  8
0
 62
7
  6
CONTINUOUS
 10
227.0792989237
 20
159.3819805595
  0
VERTEX
  8
0
 62
7
  6
CONTINUOUS
 10
227.152003187
 20
159.5105709935
  0
VERTEX
  8
0
 62
7
  6
CONTINUOUS
 10
227.2088317534
 20
159.6545117785
  0
VERTEX
  8
0
 62
7
  6
CONTINUOUS
 10
227.2477414063
 20
159.8116206767
  0
VERTEX
  8
0
 62
7
  6
CONTINUOUS
 10
227.2637100293
 20
159.9351337486
  0
SEQEND
  0
LINE
  8
0
 62
7
  6
CONTINUOUS
 10
237.3844288793
 20
157.4411351697
 11
237.3844288793
 21
172.2411351697
  0
LINE
  8
0
 62
7
  6
CONTINUOUS
 10
228.9915610962
 20
172.1861754913
 11
227.9659810035
 21
168.5977368216
  0
POLYLINE
  8
0
 62
7
  6
CONTINUOUS
 66
1
 70
0
  0
VERTEX
  8
0
 62
7
  6
CONTINUOUS
 10
226.308292621
 20
158.7350206534
  0
VERTEX
  8
0
 62
7
  6
CONTINUOUS
 10
226.3181078669
 20
158.7599427718
  0
VERTEX
  8
0
 62
7
  6
CONTINUOUS
 10
226.3561279129
 20
158.8365291598
  0
VERTEX
  8
0
 62
7
  6
CONTINUOUS
 10
226.3987301443
 20
158.9051245402
  0
VERTEX
  8
0
 62
7
  6
CONTINUOUS
 10
226.4414576472
 20
158.9659227357
  0
VERTEX
  8
0
 62
7
  6
CONTINUOUS
 10
226.4817449336
 20
159.0208217368
  0
VERTEX
  8
0
 62
7
  6
CONTINUOUS
 10
226.5171104406
 20
159.0710066077
  0
VERTEX
  8
0
 62
7
  6
CONTINUOUS
 10
226.5452621566
 20
159.1174228362
  0
VERTEX
  8
0
 62
7
  6
CONTINUOUS
 10
226.5646557761
 20
159.1617758451
  0
VERTEX
  8
0
 62
7
  6
CONTINUOUS
 10
226.5738459906
 20
159.2058011651
  0
SEQEND
  0
LINE
  8
0
 62
7
  6
CONTINUOUS
 10
227.7076217553
 20
165.277359748
 11
227.7321779913
 21
165.3332503982
  0
POLYLINE
  8
0
 62
7
  6
CONTINUOUS
 66
1
 70
0
  0
VERTEX
  8
0
 62
7
  6
CONTINUOUS
 10
226.3082077732
 20
158.7350380719
  0
VERTEX
  8
0
 62
7
  6
CONTINUOUS
 10
226.3478943669
 20
158.8176497158
  0
VERTEX
  8
0
 62
7
  6
CONTINUOUS
 10
226.3968129176
 20
158.8856666906
  0
VERTEX
  8
0
 62
7
  6
CONTINUOUS
 10
226.456401823
 20
158.9445607206
  0
VERTEX
  8
0
 62
7
  6
CONTINUOUS
 10
226.5249879663
 20
158.9926781683
  0
VERTEX
  8
0
 62
7
  6
CONTINUOUS
 10
226.6006455906
 20
159.0286679956
  0
SEQEND
  0
POLYLINE
  8
0
 62
7
  6
CONTINUOUS
 66
1
 70
0
  0
VERTEX
  8
0
 62
7
  6
CONTINUOUS
 10
227.7321779913
 20
165.3332503982
  0
VERTEX
  8
0
 62
7
  6
CONTINUOUS
 10
227.7745295664
 20
165.4036433116
  0
VERTEX
  8
0
 62
7
  6
CONTINUOUS
 10
227.8301671747
 20
165.4738041173
  0
VERTEX
  8
0
 62
7
  6
CONTINUOUS
 10
227.8816398163
 20
165.5264863289
  0
SEQEND
  0
LINE
  8
0
 62
7
  6
CONTINUOUS
 10
227.881512437
 20
165.5263666005
 11
227.8816397967
 21
165.5264863497
  0
LINE
  8
0
 62
7
  6
CONTINUOUS
 10
227.881512437
 20
165.5263666005
 11
227.934720177
 21
165.5694679568
  0
POLYLINE
  8
0
 62
7
  6
CONTINUOUS
 66
1
 70
0
  0
VERTEX
  8
0
 62
7
  6
CONTINUOUS
 10
226.3858051898
 20
156.7677545364
  0
VERTEX
  8
0
 62
7
  6
CONTINUOUS
 10
226.4585605301
 20
156.8168206217
  0
VERTEX
  8
0
 62
7
  6
CONTINUOUS
 10
226.4919337905
 20
156.8336919278
  0
SEQEND
  0
POLYLINE
  8
0
 62
7
  6
CONTINUOUS
 66
1
 70
0
  0
VERTEX
  8
0
 62
7
  6
CONTINUOUS
 10
226.4919338168
 20
156.833691871
  0
VERTEX
  8
0
 62
7
  6
CONTINUOUS
 10
226.5733223452
 20
156.8757349664
  0
VERTEX
  8
0
 62
7
  6
CONTINUOUS
 10
226.6946468087
 20
156.9580770187
  0
VERTEX
  8
0
 62
7
  6
CONTINUOUS
 10
226.8035601783
 20
157.0579991041
  0
VERTEX
  8
0
 62
7
  6
CONTINUOUS
 10
226.897620134
 20
157.1735819154
  0
VERTEX
  8
0
 62
7
  6
CONTINUOUS
 10
226.974702317
 20
157.3026051317
  0
VERTEX
  8
0
 62
7
  6
CONTINUOUS
 10
227.0329536852
 20
157.4424652692
  0
VERTEX
  8
0
 62
7
  6
CONTINUOUS
 10
227.0709196607
 20
157.5903803593
  0
VERTEX
  8
0
 62
7
  6
CONTINUOUS
 10
227.0847862401
 20
157.6966967432
  0
SEQEND
  0
POLYLINE
  8
0
 62
7
  6
CONTINUOUS
 66
1
 70
0
  0
VERTEX
  8
0
 62
7
  6
CONTINUOUS
 10
226.385798875
 20
156.7677494172
  0
VERTEX
  8
0
 62
7
  6
CONTINUOUS
 10
226.3383316224
 20
156.7292387735
  0
VERTEX
  8
0
 62
7
  6
CONTINUOUS
 10
226.2804519634
 20
156.6804567228
  0
VERTEX
  8
0
 62
7
  6
CONTINUOUS
 10
226.2395806561
 20
156.640795592
  0
VERTEX
  8
0
 62
7
  6
CONTINUOUS
 10
226.215662166
 20
156.6087154959
  0
VERTEX
  8
0
 62
7
  6
CONTINUOUS
 10
226.2074739406
 20
156.5828554478
  0
SEQEND
  0
POLYLINE
  8
0
 62
7
  6
CONTINUOUS
 66
1
 70
0
  0
VERTEX
  8
0
 62
7
  6
CONTINUOUS
 10
288.1913678715
 20
125.2922028913
  0
VERTEX
  8
0
 62
7
  6
CONTINUOUS
 10
288.4405571603
 20
125.9193998963
  0
VERTEX
  8
0
 62
7
  6
CONTINUOUS
 10
288.7407913375
 20
126.5269640794
  0
VERTEX
  8
0
 62
7
  6
CONTINUOUS
 10
289.0894397401
 20
127.1081042375
  0
VERTEX
  8
0
 62
7
  6
CONTINUOUS
 10
289.4836319354
 20
127.6576701428
  0
SEQEND
  0
LINE
  8
0
 62
7
  6
CONTINUOUS
 10
288.1812769397
 20
76.1239762931
 11
288.1812769397
 21
68.7516949698
  0
LINE
  8
0
 62
7
  6
CONTINUOUS
 10
288.1812769397
 20
117.9239762931
 11
288.1812769397
 21
125.2962107496
  0
LINE
  8
0
 62
7
  6
CONTINUOUS
 10
288.1913678715
 20
117.9239762932
 11
288.1913678715
 21
125.2922028913
  0
LINE
  8
0
 62
7
  6
CONTINUOUS
 10
288.2312769397
 20
97.7767996538
 11
288.2312769397
 21
96.2711529324
  0
LINE
  8
DEFAULT_1
 62
2
  6
CENTER
 10
296.1812769397
 20
127.6739762931
 11
296.1812769397
 21
124.4240762931
  0
LINE
  8
0
 62
2
  6
CONTINUOUS
 10
296.1812769397
 20
123.4739762931
 11
296.1812769397
 21
121.3739762931
  0
LINE
  8
0
 62
40
  6
CONTINUOUS
 10
296.1812769397
 20
121.3739762931
 11
296.1812769397
 21
121.0439762931
  0
LINE
  8
0
 62
7
  6
CONTINUOUS
 10
296.1812769397
 20
103.2017854723
 11
296.1812769397
 21
101.5090764365
  0
LINE
  8
0
 62
7
  6
CONTINUOUS
 10
296.1812769397
 20
92.5388761497
 11
296.1812769397
 21
90.8461671139
  0
LINE
  8
0
 62
2
  6
CONTINUOUS
 10
296.1812769397
 20
72.6739762931
 11
296.1812769397
 21
70.5739762931
  0
LINE
  8
0
 62
40
  6
CONTINUOUS
 10
296.1812769397
 20
70.5739762931
 11
296.1812769397
 21
70.0039762931
  0
LINE
  8
DEFAULT_1
 62
2
  6
CENTER
 10
296.1812769397
 20
66.3739762931
 11
296.1812769397
 21
65.4739762931
  0
LINE
  8
0
 62
40
  6
CONTINUOUS
 10
296.1812769397
 20
72.6739762931
 11
296.1812769397
 21
73.0039762931
  0
LINE
  8
DEFAULT_1
 62
2
  6
CENTER
 10
296.1812769397
 20
76.8739762931
 11
296.1812769397
 21
77.7739762931
  0
LINE
  8
DEFAULT_1
 62
2
  6
CENTER
 10
296.1812769397
 20
117.1739762931
 11
296.1812769397
 21
120.4238762931
  0
LINE
  8
0
 62
40
  6
CONTINUOUS
 10
296.1812769397
 20
123.4739762931
 11
296.1812769397
 21
124.0439762931
  0
LINE
  8
0
 62
7
  6
CONTINUOUS
 10
300.0848421959
 20
114.3728953503
 11
296.2388687194
 21
103.5362503381
  0
LINE
  8
0
 62
7
  6
CONTINUOUS
 10
296.2388687194
 20
90.5117022481
 11
297.3820903467
 21
87.2904925801
  0
POLYLINE
  8
0
 62
7
  6
CONTINUOUS
 66
1
 70
0
  0
VERTEX
  8
0
 62
7
  6
CONTINUOUS
 10
288.3230029195
 20
116.6722575546
  0
VERTEX
  8
0
 62
7
  6
CONTINUOUS
 10
288.2499994672
 20
117.0860166085
  0
VERTEX
  8
0
 62
7
  6
CONTINUOUS
 10
288.2060480753
 20
117.5039039917
  0
VERTEX
  8
0
 62
7
  6
CONTINUOUS
 10
288.1913678715
 20
117.9239762932
  0
SEQEND
  0
LINE
  8
0
 62
7
  6
CONTINUOUS
 10
304.1812769397
 20
68.7516949698
 11
304.1812769397
 21
125.2962576164
  0
LINE
  8
0
 62
7
  6
CONTINUOUS
 10
303.9812769397
 20
68.7867241098
 11
304.1812769397
 21
68.7516949698
  0
POLYLINE
  8
0
 62
7
  6
CONTINUOUS
 66
1
 70
0
  0
VERTEX
  8
0
 62
7
  6
CONTINUOUS
 10
288.5997152986
 20
115.978420159
  0
VERTEX
  8
0
 62
7
  6
CONTINUOUS
 10
288.5286437905
 20
116.0864115638
  0
VERTEX
  8
0
 62
7
  6
CONTINUOUS
 10
288.4693713523
 20
116.202840715
  0
VERTEX
  8
0
 62
7
  6
CONTINUOUS
 10
288.4205905248
 20
116.3236764877
  0
VERTEX
  8
0
 62
7
  6
CONTINUOUS
 10
288.3809342103
 20
116.4441880666
  0
VERTEX
  8
0
 62
7
  6
CONTINUOUS
 10
288.3488577399
 20
116.5609089071
  0
VERTEX
  8
0
 62
7
  6
CONTINUOUS
 10
288.3229974052
 20
116.6722828327
  0
SEQEND
  0
POLYLINE
  8
0
 62
7
  6
CONTINUOUS
 66
1
 70
0
  0
VERTEX
  8
0
 62
7
  6
CONTINUOUS
 10
304.1813061198
 20
117.8528629367
  0
VERTEX
  8
0
 62
7
  6
CONTINUOUS
 10
304.1728520482
 20
117.9173200892
  0
VERTEX
  8
0
 62
7
  6
CONTINUOUS
 10
304.1480612695
 20
117.9774174233
  0
VERTEX
  8
0
 62
7
  6
CONTINUOUS
 10
304.1086106273
 20
118.0290893998
  0
VERTEX
  8
0
 62
7
  6
CONTINUOUS
 10
304.0571687838
 20
118.0688403486
  0
VERTEX
  8
0
 62
7
  6
CONTINUOUS
 10
303.9972157099
 20
118.0939810443
  0
VERTEX
  8
0
 62
7
  6
CONTINUOUS
 10
303.9328072323
 20
118.1028107152
  0
VERTEX
  8
0
 62
7
  6
CONTINUOUS
 10
303.8683005907
 20
118.0947321446
  0
VERTEX
  8
0
 62
7
  6
CONTINUOUS
 10
303.8080595953
 20
118.0702920698
  0
VERTEX
  8
0
 62
7
  6
CONTINUOUS
 10
303.7561593575
 20
118.0311441505
  0
VERTEX
  8
0
 62
7
  6
CONTINUOUS
 10
303.7161105778
 20
117.9799370236
  0
SEQEND
  0
POLYLINE
  8
0
 62
7
  6
CONTINUOUS
 66
1
 70
0
  0
VERTEX
  8
0
 62
7
  6
CONTINUOUS
 10
289.1812769397
 20
68.7926824427
  0
VERTEX
  8
0
 62
7
  6
CONTINUOUS
 10
289.0264976919
 20
68.7925419091
  0
VERTEX
  8
0
 62
7
  6
CONTINUOUS
 10
288.8751171084
 20
68.7898074066
  0
VERTEX
  8
0
 62
7
  6
CONTINUOUS
 10
288.7308413943
 20
68.7852020443
  0
VERTEX
  8
0
 62
7
  6
CONTINUOUS
 10
288.5972325712
 20
68.7793933136
  0
VERTEX
  8
0
 62
7
  6
CONTINUOUS
 10
288.4776282758
 20
68.7730041584
  0
VERTEX
  8
0
 62
7
  6
CONTINUOUS
 10
288.3750634885
 20
68.7666197819
  0
VERTEX
  8
0
 62
7
  6
CONTINUOUS
 10
288.2921955576
 20
68.7607916848
  0
VERTEX
  8
0
 62
7
  6
CONTINUOUS
 10
288.2312346754
 20
68.7560399222
  0
VERTEX
  8
0
 62
7
  6
CONTINUOUS
 10
288.1938818913
 20
68.7528542851
  0
VERTEX
  8
0
 62
7
  6
CONTINUOUS
 10
288.1812769397
 20
68.7516949698
  0
SEQEND
  0
LINE
  8
0
 62
2
  6
CONTINUOUS
 10
297.2312769397
 20
71.6239762931
 11
295.1312769397
 21
71.6239762931
  0
LINE
  8
DEFAULT_1
 62
2
  6
CENTER
 10
290.9312769397
 20
71.6239762931
 11
290.0312769397
 21
71.6239762931
  0
LINE
  8
DEFAULT_1
 62
2
  6
CENTER
 10
301.4312769397
 20
71.6239762931
 11
302.3312769397
 21
71.6239762931
  0
LINE
  8
0
 62
7
  6
CONTINUOUS
 10
295.5722283173
 20
100.6939430525
 11
288.9478047307
 21
98.7357801055
  0
LINE
  8
0
 62
7
  6
CONTINUOUS
 10
288.9478047307
 20
95.3121724807
 11
295.5722283173
 21
93.3540095337
  0
LINE
  8
0
 62
7
  6
CONTINUOUS
 10
315.9300048652
 20
92.0239762931
 11
404.1767786654
 21
93.8722106821
  0
LINE
  8
DEFAULT_1
 62
2
  6
CENTER
 10
274.1812769397
 20
97.0239762931
 11
407.7812769397
 21
97.0239762931
  0
POLYLINE
  8
0
 62
7
  6
CONTINUOUS
 66
1
 70
0
  0
VERTEX
  8
0
 62
7
  6
CONTINUOUS
 10
288.1812769397
 20
125.2962107496
  0
VERTEX
  8
0
 62
7
  6
CONTINUOUS
 10
288.1838056638
 20
125.2946134884
  0
VERTEX
  8
0
 62
7
  6
CONTINUOUS
 10
288.1913678715
 20
125.2922028913
  0
SEQEND
  0
LINE
  8
0
 62
7
  6
CONTINUOUS
 10
315.9300048652
 20
102.0239762931
 11
404.1767786654
 21
100.1757419041
  0
LINE
  8
0
 62
7
  6
CONTINUOUS
 10
293.0688824961
 20
116.6239762931
 11
296.1812769397
 21
116.6239762931
  0
LINE
  8
DEFAULT_1
 62
2
  6
CENTER
 10
301.4312769397
 20
122.4239762931
 11
298.1813769397
 21
122.4239762931
  0
LINE
  8
0
 62
2
  6
CONTINUOUS
 10
297.2312769397
 20
122.4239762931
 11
295.1312769397
 21
122.4239762931
  0
LINE
  8
DEFAULT_1
 62
2
  6
CENTER
 10
290.9312769397
 20
122.4239762931
 11
294.1811769397
 21
122.4239762931
  0
POLYLINE
  8
0
 62
7
  6
CONTINUOUS
 66
1
 70
0
  0
VERTEX
  8
0
 62
7
  6
CONTINUOUS
 10
304.1812769397
 20
125.2962576164
  0
VERTEX
  8
0
 62
7
  6
CONTINUOUS
 10
304.1756690794
 20
125.2968695691
  0
VERTEX
  8
0
 62
7
  6
CONTINUOUS
 10
304.159603926
 20
125.2957305482
  0
VERTEX
  8
0
 62
7
  6
CONTINUOUS
 10
304.1339423382
 20
125.2926455755
  0
VERTEX
  8
0
 62
7
  6
CONTINUOUS
 10
304.1001339661
 20
125.2876284411
  0
VERTEX
  8
0
 62
7
  6
CONTINUOUS
 10
304.0601251837
 20
125.2808584253
  0
VERTEX
  8
0
 62
7
  6
CONTINUOUS
 10
304.0162014967
 20
125.2726437516
  0
VERTEX
  8
0
 62
7
  6
CONTINUOUS
 10
303.9707964189
 20
125.2633823298
  0
VERTEX
  8
0
 62
7
  6
CONTINUOUS
 10
303.9263172613
 20
125.2535240682
  0
SEQEND
  0
LINE
  8
0
 62
7
  6
CONTINUOUS
 10
296.1812769397
 20
128.2239762931
 11
293.0688824961
 21
128.2239762931
  0
POLYLINE
  8
0
 62
7
  6
CONTINUOUS
 66
1
 70
0
  0
VERTEX
  8
0
 62
7
  6
CONTINUOUS
 10
404.8578697984
 20
94.2956368807
  0
VERTEX
  8
0
 62
7
  6
CONTINUOUS
 10
404.869120336
 20
94.3104262387
  0
VERTEX
  8
0
 62
7
  6
CONTINUOUS
 10
404.9142681238
 20
94.37067211
  0
VERTEX
  8
0
 62
7
  6
CONTINUOUS
 10
404.9617766391
 20
94.4359353676
  0
VERTEX
  8
0
 62
7
  6
CONTINUOUS
 10
405.0076349638
 20
94.501414238
  0
VERTEX
  8
0
 62
7
  6
CONTINUOUS
 10
405.0298557443
 20
94.5343664955
  0
SEQEND
  0
POLYLINE
  8
0
 62
7
  6
CONTINUOUS
 66
1
 70
0
  0
VERTEX
  8
0
 62
7
  6
CONTINUOUS
 10
405.0298557408
 20
99.5135860961
  0
VERTEX
  8
0
 62
7
  6
CONTINUOUS
 10
405.0080684221
 20
99.5459040626
  0
VERTEX
  8
0
 62
7
  6
CONTINUOUS
 10
404.9621716607
 20
99.6114626073
  0
VERTEX
  8
0
 62
7
  6
CONTINUOUS
 10
404.9146526562
 20
99.6767563271
  0
VERTEX
  8
0
 62
7
  6
CONTINUOUS
 10
404.8695039339
 20
99.7370152898
  0
VERTEX
  8
0
 62
7
  6
CONTINUOUS
 10
404.8578538403
 20
99.7523312095
  0
SEQEND
  0
LINE
  8
DEFAULT_1
 62
40
  6
CENTER
 10
405.7812769397
 20
98.0853877363
 11
405.7812769397
 21
95.9625648499
  0
ARC
  8
0
 62
40
  6
CONTINUOUS
 10
236.0844288793
 20
122.5439762931
 40
1.5
 50
330.095255074
 51
29.904744926
  0
ARC
  8
0
 62
40
  6
CONTINUOUS
 10
87.6844288793
 20
71.5039762931
 40
1.5
 50
150.095255074
 51
209.904744926
  0
ARC
  8
0
 62
7
  6
CONTINUOUS
 10
86.5844288793
 20
117.9025867084
 40
0.2
 50
90.0
 51
180.0
  0
ARC
  8
0
 62
7
  6
CONTINUOUS
 10
237.1844288793
 20
76.1453658778
 40
0.2
 50
270.0
 51
360.0
  0
ARC
  8
0
 62
7
  6
CONTINUOUS
 10
156.5076871619
 20
157.4411351697
 40
1.0
 50
184.57
 51
270.0
  0
ARC
  8
0
 62
7
  6
CONTINUOUS
 10
158.8611705967
 20
157.4411351697
 40
1.0
 50
270.0
 51
355.43
  0
ARC
  8
0
 62
7
  6
CONTINUOUS
 10
150.4611705967
 20
157.4411351697
 40
1.0
 50
270.0
 51
287.4745042926
  0
ARC
  8
0
 62
7
  6
CONTINUOUS
 10
139.7076871619
 20
157.4411351697
 40
1.0
 50
184.57
 51
270.0
  0
ARC
  8
0
 62
7
  6
CONTINUOUS
 10
142.0611705967
 20
157.4411351697
 40
1.0
 50
270.0
 51
355.43
  0
ARC
  8
0
 62
7
  6
CONTINUOUS
 10
148.1076871619
 20
157.4411351697
 40
1.0
 50
252.5254957074
 51
270.0
  0
ARC
  8
0
 62
7
  6
CONTINUOUS
 10
133.6611705967
 20
157.4411351697
 40
1.0
 50
270.0
 51
287.4745042926
  0
ARC
  8
0
 62
7
  6
CONTINUOUS
 10
122.9076871619
 20
157.4411351697
 40
1.0
 50
184.57
 51
270.0
  0
ARC
  8
0
 62
7
  6
CONTINUOUS
 10
125.2611705967
 20
157.4411351697
 40
1.0
 50
270.0
 51
355.43
  0
ARC
  8
0
 62
7
  6
CONTINUOUS
 10
131.3076871619
 20
157.4411351697
 40
1.0
 50
252.5254957074
 51
270.0
  0
ARC
  8
0
 62
7
  6
CONTINUOUS
 10
116.8611705967
 20
157.4411351697
 40
1.0
 50
270.0
 51
287.4745042926
  0
ARC
  8
0
 62
7
  6
CONTINUOUS
 10
106.1076871619
 20
157.4411351697
 40
1.0
 50
184.57
 51
270.0
  0
ARC
  8
0
 62
7
  6
CONTINUOUS
 10
108.4611705967
 20
157.4411351697
 40
1.0
 50
270.0
 51
355.43
  0
ARC
  8
0
 62
7
  6
CONTINUOUS
 10
114.5076871619
 20
157.4411351697
 40
1.0
 50
252.5254957074
 51
270.0
  0
ARC
  8
0
 62
7
  6
CONTINUOUS
 10
100.0611705967
 20
157.4411351697
 40
1.0
 50
270.0
 51
287.4745042926
  0
ARC
  8
0
 62
7
  6
CONTINUOUS
 10
87.3844288793
 20
157.4411351697
 40
1.0
 50
180.0
 51
270.0
  0
ARC
  8
0
 62
7
  6
CONTINUOUS
 10
97.7076871619
 20
157.4411351697
 40
1.0
 50
261.8535358985
 51
270.0
  0
ARC
  8
0
 62
7
  6
CONTINUOUS
 10
161.2467319379
 20
168.4603376256
 40
0.5
 50
164.05
 51
175.43
  0
ARC
  8
0
 62
7
  6
CONTINUOUS
 10
154.1221258207
 20
168.4603376256
 40
0.5
 50
4.57
 51
15.95
  0
ARC
  8
0
 62
7
  6
CONTINUOUS
 10
144.4467319379
 20
168.4603376256
 40
0.5
 50
164.05
 51
175.43
  0
ARC
  8
0
 62
7
  6
CONTINUOUS
 10
137.3221258207
 20
168.4603376256
 40
0.5
 50
4.57
 51
15.95
  0
ARC
  8
0
 62
7
  6
CONTINUOUS
 10
127.6467319379
 20
168.4603376256
 40
0.5
 50
164.05
 51
175.43
  0
ARC
  8
0
 62
7
  6
CONTINUOUS
 10
120.5221258207
 20
168.4603376256
 40
0.5
 50
4.57
 51
15.95
  0
ARC
  8
0
 62
7
  6
CONTINUOUS
 10
110.8467319379
 20
168.4603376256
 40
0.5
 50
164.05
 51
175.43
  0
ARC
  8
0
 62
7
  6
CONTINUOUS
 10
103.7221258207
 20
168.4603376256
 40
0.5
 50
4.57
 51
15.95
  0
ARC
  8
0
 62
7
  6
CONTINUOUS
 10
94.0467319379
 20
168.4603376256
 40
0.5
 50
164.05
 51
175.43
  0
ARC
  8
0
 62
7
  6
CONTINUOUS
 10
161.5992607225
 20
172.2411351697
 40
0.2
 50
344.05
 51
90.0
  0
ARC
  8
0
 62
7
  6
CONTINUOUS
 10
153.7695970362
 20
172.2411351697
 40
0.2
 50
90.0
 51
195.95
  0
ARC
  8
0
 62
7
  6
CONTINUOUS
 10
144.7992607225
 20
172.2411351697
 40
0.2
 50
344.05
 51
90.0
  0
ARC
  8
0
 62
7
  6
CONTINUOUS
 10
136.9695970362
 20
172.2411351697
 40
0.2
 50
90.0
 51
195.95
  0
ARC
  8
0
 62
7
  6
CONTINUOUS
 10
127.9992607225
 20
172.2411351697
 40
0.2
 50
344.05
 51
90.0
  0
ARC
  8
0
 62
7
  6
CONTINUOUS
 10
120.1695970362
 20
172.2411351697
 40
0.2
 50
90.0
 51
195.95
  0
ARC
  8
0
 62
7
  6
CONTINUOUS
 10
111.1992607225
 20
172.2411351697
 40
0.2
 50
344.05
 51
90.0
  0
ARC
  8
0
 62
7
  6
CONTINUOUS
 10
103.3695970362
 20
172.2411351697
 40
0.2
 50
90.0
 51
195.95
  0
ARC
  8
0
 62
7
  6
CONTINUOUS
 10
94.3992607225
 20
172.2411351697
 40
0.2
 50
344.05
 51
90.0
  0
ARC
  8
0
 62
7
  6
CONTINUOUS
 10
86.5844288793
 20
172.2411351697
 40
0.2
 50
90.0
 51
180.0
  0
ARC
  8
0
 62
7
  6
CONTINUOUS
 10
88.3091387979
 20
272.541134291
 40
1.5
 50
90.0000000586
 51
179.9
  0
ARC
  8
0
 62
7
  6
CONTINUOUS
 10
200.8611705967
 20
157.4411351697
 40
1.0
 50
270.0
 51
287.4745042926
  0
ARC
  8
0
 62
7
  6
CONTINUOUS
 10
190.1076871619
 20
157.4411351697
 40
1.0
 50
184.57
 51
270.0
  0
ARC
  8
0
 62
7
  6
CONTINUOUS
 10
192.4611705967
 20
157.4411351697
 40
1.0
 50
270.0
 51
355.43
  0
ARC
  8
0
 62
7
  6
CONTINUOUS
 10
198.5076871619
 20
157.4411351697
 40
1.0
 50
252.5254957074
 51
270.0
  0
ARC
  8
0
 62
7
  6
CONTINUOUS
 10
184.0611705967
 20
157.4411351697
 40
1.0
 50
270.0
 51
287.4745042926
  0
ARC
  8
0
 62
7
  6
CONTINUOUS
 10
173.3076871619
 20
157.4411351697
 40
1.0
 50
184.57
 51
270.0
  0
ARC
  8
0
 62
7
  6
CONTINUOUS
 10
175.6611705967
 20
157.4411351697
 40
1.0
 50
270.0
 51
355.43
  0
ARC
  8
0
 62
7
  6
CONTINUOUS
 10
181.7076871619
 20
157.4411351697
 40
1.0
 50
252.5254957074
 51
270.0
  0
ARC
  8
0
 62
7
  6
CONTINUOUS
 10
167.2611705967
 20
157.4411351697
 40
1.0
 50
270.0
 51
287.4745042926
  0
ARC
  8
0
 62
7
  6
CONTINUOUS
 10
164.9076871619
 20
157.4411351697
 40
1.0
 50
252.5254957074
 51
270.0
  0
ARC
  8
0
 62
7
  6
CONTINUOUS
 10
194.8467319379
 20
168.4603376256
 40
0.5
 50
164.05
 51
175.43
  0
ARC
  8
0
 62
7
  6
CONTINUOUS
 10
187.7221258207
 20
168.4603376256
 40
0.5
 50
4.57
 51
15.95
  0
ARC
  8
0
 62
7
  6
CONTINUOUS
 10
178.0467319379
 20
168.4603376256
 40
0.5
 50
164.05
 51
175.43
  0
ARC
  8
0
 62
7
  6
CONTINUOUS
 10
170.9221258207
 20
168.4603376256
 40
0.5
 50
4.57
 51
15.95
  0
ARC
  8
0
 62
7
  6
CONTINUOUS
 10
195.1992607225
 20
172.2411351697
 40
0.2
 50
344.05
 51
90.0
  0
ARC
  8
0
 62
7
  6
CONTINUOUS
 10
187.3695970362
 20
172.2411351697
 40
0.2
 50
90.0
 51
195.95
  0
ARC
  8
0
 62
7
  6
CONTINUOUS
 10
178.3992607225
 20
172.2411351697
 40
0.2
 50
344.05
 51
90.0
  0
ARC
  8
0
 62
7
  6
CONTINUOUS
 10
170.5695970362
 20
172.2411351697
 40
0.2
 50
90.0
 51
195.95
  0
ARC
  8
0
 62
7
  6
CONTINUOUS
 10
226.0611705967
 20
157.4411351697
 40
1.0
 50
270.0
 51
278.1464641015
  0
ARC
  8
0
 62
7
  6
CONTINUOUS
 10
223.7076871619
 20
157.4411351697
 40
1.0
 50
184.57
 51
270.0
  0
ARC
  8
0
 62
7
  6
CONTINUOUS
 10
217.6611705967
 20
157.4411351697
 40
1.0
 50
270.0
 51
287.4745042926
  0
ARC
  8
0
 62
7
  6
CONTINUOUS
 10
206.9076871619
 20
157.4411351697
 40
1.0
 50
184.57
 51
270.0
  0
ARC
  8
0
 62
7
  6
CONTINUOUS
 10
209.2611705967
 20
157.4411351697
 40
1.0
 50
270.0
 51
355.43
  0
ARC
  8
0
 62
7
  6
CONTINUOUS
 10
215.3076871619
 20
157.4411351697
 40
1.0
 50
252.5254957074
 51
270.0
  0
ARC
  8
0
 62
7
  6
CONTINUOUS
 10
236.3844288793
 20
157.4411351697
 40
1.0
 50
270.0
 51
360.0
  0
ARC
  8
0
 62
7
  6
CONTINUOUS
 10
236.3844288793
 20
157.4911351697
 40
1.0
 50
270.0
 51
360.0
  0
ARC
  8
0
 62
7
  6
CONTINUOUS
 10
236.3844288793
 20
165.4411351697
 40
1.0
 50
270.0
 51
360.0
  0
ARC
  8
0
 62
7
  6
CONTINUOUS
 10
206.1291970235
 20
175.4411351697
 40
3.0
 50
180.0999885545
 51
270.000007454
  0
ARC
  8
0
 62
7
  6
CONTINUOUS
 10
228.4467319379
 20
168.4603376256
 40
0.5
 50
164.05
 51
175.43
  0
ARC
  8
0
 62
7
  6
CONTINUOUS
 10
221.3221258207
 20
168.4603376256
 40
0.5
 50
4.57
 51
15.95
  0
ARC
  8
0
 62
7
  6
CONTINUOUS
 10
211.6467319379
 20
168.4603376256
 40
0.5
 50
164.05
 51
175.43
  0
ARC
  8
0
 62
7
  6
CONTINUOUS
 10
204.5221258207
 20
168.4603376256
 40
0.5
 50
4.57
 51
15.95
  0
ARC
  8
0
 62
7
  6
CONTINUOUS
 10
228.7992607225
 20
172.2411351697
 40
0.2
 50
344.05
 51
90.0
  0
ARC
  8
0
 62
7
  6
CONTINUOUS
 10
220.9695970362
 20
172.2411351697
 40
0.2
 50
90.0
 51
195.95
  0
ARC
  8
0
 62
7
  6
CONTINUOUS
 10
211.9992607225
 20
172.2411351697
 40
0.2
 50
344.05
 51
90.0
  0
ARC
  8
0
 62
7
  6
CONTINUOUS
 10
204.1695970362
 20
172.2411351697
 40
0.2
 50
90.0
 51
195.95
  0
ARC
  8
0
 62
7
  6
CONTINUOUS
 10
237.1844288793
 20
172.2411351697
 40
0.2
 50
0.0
 51
90.0
  0
ARC
  8
0
 62
7
  6
CONTINUOUS
 10
201.4597189607
 20
272.541134291
 40
1.5
 50
0.1
 51
89.9999999414
  0
ARC
  8
0
 62
7
  6
CONTINUOUS
 10
261.1367058824
 20
72.7127351728
 40
50.0
 50
43.7212620861
 51
53.8371991552
  0
ARC
  8
0
 62
7
  6
CONTINUOUS
 10
316.1812769397
 20
80.0266073172
 40
12.0
 50
91.1998234706
 51
180.0
  0
ARC
  8
0
 62
7
  6
CONTINUOUS
 10
296.1812769397
 20
71.6239762931
 40
8.5
 50
199.7499227956
 51
340.2500772044
  0
ARC
  8
0
 62
7
  6
CONTINUOUS
 10
294.1812769397
 20
76.1239762931
 40
6.0
 50
126.1628008448
 51
180.0
  0
CIRCLE
  8
0
 62
7
  6
CONTINUOUS
 10
296.1812769397
 20
71.6239762931
 40
4.15
  0
ARC
  8
0
 62
7
  6
CONTINUOUS
 10
289.2312769397
 20
96.2711529324
 40
1.0
 50
180.0
 51
253.532453207
  0
ARC
  8
0
 62
7
  6
CONTINUOUS
 10
297.1812769397
 20
90.8461671139
 40
1.0
 50
180.0
 51
199.54
  0
ARC
  8
0
 62
7
  6
CONTINUOUS
 10
295.3312769397
 20
92.5388761497
 40
0.85
 50
0.0
 51
73.532453207
  0
ARC
  8
0
 62
7
  6
CONTINUOUS
 10
296.9108862366
 20
87.1232601473
 40
0.5
 50
316.2787379139
 51
19.54
  0
ARC
  8
0
 62
7
  6
CONTINUOUS
 10
261.1367058824
 20
121.3352174134
 40
50.0
 50
306.1628008448
 51
316.2787379139
  0
ARC
  8
0
 62
7
  6
CONTINUOUS
 10
297.1812769397
 20
103.2017854723
 40
1.0
 50
160.46
 51
180.0
  0
ARC
  8
0
 62
7
  6
CONTINUOUS
 10
289.2312769397
 20
97.7767996538
 40
1.0
 50
106.467546793
 51
180.0
  0
ARC
  8
0
 62
7
  6
CONTINUOUS
 10
295.3312769397
 20
101.5090764365
 40
0.85
 50
286.467546793
 51
360.0
  0
ARC
  8
0
 62
7
  6
CONTINUOUS
 10
296.9108862366
 20
106.924692439
 40
0.5
 50
340.46
 51
43.7212620861
  0
ARC
  8
0
 62
7
  6
CONTINUOUS
 10
294.1812769397
 20
117.9239762931
 40
6.0
 50
180.0
 51
233.8371991552
  0
ARC
  8
0
 62
7
  6
CONTINUOUS
 10
300.7916483611
 20
114.122046701
 40
0.75
 50
119.0322772227
 51
160.46
  0
ARC
  8
0
 62
7
  6
CONTINUOUS
 10
303.9312769397
 20
117.8525867084
 40
0.25
 50
0.0
 51
149.4415682141
  0
ARC
  8
0
 62
7
  6
CONTINUOUS
 10
296.1812769397
 20
122.4283380128
 40
8.75
 50
299.0322772227
 51
329.4415682141
  0
ARC
  8
0
 62
7
  6
CONTINUOUS
 10
296.1812769397
 20
122.4239762931
 40
8.5
 50
19.7499227956
 51
141.9951143277
  0
ARC
  8
0
 62
7
  6
CONTINUOUS
 10
296.1812769397
 20
122.4239762931
 40
8.5
 50
142.4345865675
 51
160.2500772044
  0
ARC
  8
0
 62
7
  6
CONTINUOUS
 10
296.1812769397
 20
122.4239762931
 40
5.8
 50
270.0
 51
90.0
  0
CIRCLE
  8
0
 62
7
  6
CONTINUOUS
 10
296.1812769397
 20
122.4239762931
 40
4.15
  0
ARC
  8
0
 62
7
  6
CONTINUOUS
 10
316.1812769397
 20
114.021345269
 40
12.0
 50
180.0
 51
268.8001765294
  0
ARC
  8
0
 62
7
  6
CONTINUOUS
 10
401.2812769397
 20
97.0239762931
 40
4.5
 50
320.169791395
 51
322.6634336835
  0
ARC
  8
0
 62
7
  6
CONTINUOUS
 10
401.2812769397
 20
97.0239762931
 40
4.5
 50
37.3364394727
 51
39.830208605
  0
ARC
  8
0
 62
7
  6
CONTINUOUS
 10
401.2812769397
 20
97.0239762931
 40
4.5
 50
326.4099696495
 51
33.590036054
  0
ARC
  8
DEFAULT_1
 62
40
  6
CENTER
 10
403.6812769397
 20
95.9625648499
 40
2.1
 50
300.4883529619
 51
360.0
  0
ARC
  8
0
 62
7
  6
CONTINUOUS
 10
404.1610741608
 20
94.6220462431
 40
0.75
 50
271.1998234706
 51
320.169791395
  0
ARC
  8
DEFAULT_1
 62
40
  6
CENTER
 10
403.6812769397
 20
98.0853877363
 40
2.1
 50
0.0
 51
59.5116476204
  0
ARC
  8
0
 62
7
  6
CONTINUOUS
 10
404.1610741608
 20
99.4259063431
 40
0.75
 50
39.830208605
 51
88.8001765294
  0
ENDSEC
  0
EOF
