  0
SECTION
  2
HEADER
  9
$EXTMAX
 10
210.0
 20
297.0
 30
0.0
  9
$EXTMIN
 10
0.0
 20
0.0
 30
0.0
  9
$LIMMIN
 10
0.0
 20
0.0
  9
$LIMMAX
 10
210.0
 20
297.0
  9
$VIEWCTR
 10
105.0
 20
148.5
  9
$VIEWSIZE
 40
297.0
  9
$CLAYER
  8
0
  9
$LTSCALE
 40
19.36
  9
$CELTYPE
  6
BYLAYER
  9
$DIMSCALE
 40
1.0
  9
$DIMASZ
 40
3.5
  9
$DIMEXO
 40
2.2
  9
$DIMDLI
 40
13.376
  9
$DIMEXE
 40
6.336
  9
$DIMCEN
 40
3.168
  9
$DIMLFAC
 40
1.0
  9
$DIMBLK
  1
_FILLED
  9
$DIMTXT
 40
3.5
  9
$PDMODE
 70
3
  9
$PDSIZE
 40
0.3125
  9
$TILEMODE
 70
1
  0
ENDSEC
  0
SECTION
  2
TABLES
  0
TABLE
  2
LTYPE
 70
6
  0
LTYPE
  2
BYBLOCK
 70
0
  3

 72
65
 73
0
 40
0.0
  0
LTYPE
  2
BYLAYER
 70
0
  3

 72
65
 73
0
 40
0.0
  0
LTYPE
  2
CONTINUOUS
 70
64
  3
Solid line
 72
65
 73
0
 40
0.0
  0
LTYPE
  2
CENTER
 70
64
  3
____ _ ____ _ ____ _ ____ _ ____ _ ____ _ ____
 72
65
 73
4
 40
0.6
 49
0.375
 49
-0.075
 49
0.075
 49
-0.075
  0
LTYPE
  2
HIDDEN
 70
64
  3
- - - - - - - - - - - - - - - - - - - -
 72
65
 73
2
 40
0.2
 49
0.1
 49
-0.1
  0
LTYPE
  2
PHANTOM
 70
64
  3
_____ _ _ _____ _ _ _____ _ _ _____
 72
65
 73
6
 40
0.8
 49
0.45
 49
-0.05
 49
0.1
 49
-0.05
 49
0.1
 49
-0.05
  0
LTYPE
  2
DOT
 70
64
  3
. . . . . . . . . . . . . . . . . . . .
 72
65
 73
2
 40
0.2
 49
0.1
 49
-0.1
  0
LTYPE
  2
DASHED
 70
64
  3
- - - - - - - - - - - - - - - - - - - -
 72
65
 73
2
 40
0.2
 49
0.1
 49
-0.1
  0
ENDTAB
  0
TABLE
  2
LAYER
 70
36
  0
LAYER
  2
0
 70
0
 62
7
  6
CONTINUOUS
  0
LAYER
  2
DEFAULT_1
 70
0
 62
7
  6
CENTER
  0
LAYER
  2
DEFAULT_2
 70
0
 62
8
  6
HIDDEN
  0
LAYER
  2
DEFAULT_3
 70
0
 62
7
  6
PHANTOM
  0
LAYER
  2
1_AXIS
 70
0
 62
7
  6
CONTINUOUS
  0
LAYER
  2
1_DATUM_PLANE
 70
0
 62
7
  6
CONTINUOUS
  0
LAYER
  2
2_FEATURE
 70
0
 62
7
  6
CONTINUOUS
  0
LAYER
  2
3_ALL_SYMBOLS
 70
0
 62
7
  6
CONTINUOUS
  0
LAYER
  2
6_DIM
 70
0
 62
7
  6
CONTINUOUS
  0
LAYER
  2
6_NOTE
 70
0
 62
7
  6
CONTINUOUS
  0
LAYER
  2
AXES
 70
0
 62
7
  6
CONTINUOUS
  0
LAYER
  2
CSYS
 70
0
 62
7
  6
CONTINUOUS
  0
LAYER
  2
NOTES
 70
0
 62
7
  6
CONTINUOUS
  0
LAYER
  2
PLANES
 70
0
 62
7
  6
CONTINUOUS
  0
ENDTAB
  0
TABLE
  2
STYLE
 70
1
  0
STYLE
  2
STANDARD
 70
0
 40
0.0
 41
0.8
 50
0.0
 71
0
 42
0.2
  3
txt
  4

  0
STYLE
  2
TEXTSTYLE_1
 70
0
 40
0.0
 41
0.8
 50
0.0
 71
0
 42
0.2
  3
gdt
  4

  0
STYLE
  2
TEXTSTYLE_2
 70
0
 40
0.0
 41
0.6
 50
0.0
 71
0
 42
0.2
  3
txt
  4

  0
STYLE
  2
TEXTSTYLE_3
 70
0
 40
0.0
 41
1.0
 50
0.0
 71
0
 42
0.2
  3
ftb_____.ttf
  4

  0
STYLE
  2
TEXTSTYLE_4
 70
0
 40
0.0
 41
1.0
 50
0.0
 71
0
 42
0.2
  3
fti_____.ttf
  4

  0
STYLE
  2
TEXTSTYLE_5
 70
0
 40
0.0
 41
1.0
 50
0.0
 71
0
 42
0.2
  3
frutiger light.ttf
  4

  0
STYLE
  2
TEXTSTYLE_6
 70
0
 40
0.0
 41
0.7
 50
0.0
 71
0
 42
0.2
  3
txt
  4

  0
STYLE
  2
TEXTSTYLE_7
 70
0
 40
0.0
 41
0.7
 50
0.0
 71
0
 42
0.2
  3
txt
  4

  0
ENDTAB
  0
ENDSEC
  0
SECTION
  2
BLOCKS
  0
BLOCK
  8
0
 62
2
  6
CONTINUOUS
  2
SYMBOL_8_BL1
 70
64
 10
173.5956734183
 20
35.5937998301
  0
TEXT
  8
0
 62
7
  6
CONTINUOUS
 10
164.6539584268
 20
30.6865562072
  7
TEXTSTYLE_4
 40
1.0655737705
  1
The brand for plastic modular belts and chains
 41
1.0
 72
0
  0
LINE
  8
0
 62
7
  6
CONTINUOUS
 10
149.5737418074
 20
36.1675703219
 11
149.5737418074
 21
34.0364227809
  0
LINE
  8
0
 62
7
  6
CONTINUOUS
 10
149.8628043005
 20
31.0454914852
 11
149.8628043005
 21
31.1422825445
  0
LINE
  8
0
 62
7
  6
CONTINUOUS
 10
149.5737418074
 20
31.1100188581
 11
149.6315543091
 21
30.9164367395
  0
LINE
  8
0
 62
7
  6
CONTINUOUS
 10
150.9671844304
 20
33.9544555678
 11
150.9671844304
 21
36.1675703219
  0
LINE
  8
0
 62
7
  6
CONTINUOUS
 10
151.8862417523
 20
32.1101932727
 11
151.8862417523
 21
30.5937998301
  0
LINE
  8
0
 62
7
  6
CONTINUOUS
 10
152.1753043074
 20
30.5937998301
 11
152.1753043074
 21
31.3358647082
  0
LINE
  8
0
 62
7
  6
CONTINUOUS
 10
152.1753043074
 20
31.4649194539
 11
152.1753043074
 21
32.1101932727
  0
LINE
  8
0
 62
7
  6
CONTINUOUS
 10
149.6315543091
 20
31.3036010218
 11
149.5737418074
 21
31.1100188581
  0
LINE
  8
0
 62
7
  6
CONTINUOUS
 10
149.9784292936
 20
30.8841730531
 11
149.8628043005
 21
31.0454914852
  0
LINE
  8
0
 62
7
  6
CONTINUOUS
 10
151.0768668626
 20
31.400392081
 11
151.1346793074
 21
31.3036010218
  0
LINE
  8
0
 62
7
  6
CONTINUOUS
 10
151.4237418626
 20
31.3036010218
 11
151.3659292523
 21
31.4326557675
  0
LINE
  8
0
 62
7
  6
CONTINUOUS
 10
152.852430332
 20
36.1675703219
 11
152.852430332
 21
34.3642916334
  0
LINE
  8
0
 62
7
  6
CONTINUOUS
 10
152.852430332
 20
33.0528162235
 11
152.852430332
 21
32.3970785186
  0
LINE
  8
0
 62
7
  6
CONTINUOUS
 10
153.2159293074
 20
31.2390736489
 11
153.2159293074
 21
30.5937998301
  0
LINE
  8
0
 62
7
  6
CONTINUOUS
 10
153.5049916972
 20
30.5937998301
 11
153.5049916972
 21
31.2390736489
  0
LINE
  8
0
 62
7
  6
CONTINUOUS
 10
149.8628043005
 20
31.1422825445
 11
149.9206168074
 21
31.2713373354
  0
LINE
  8
0
 62
7
  6
CONTINUOUS
 10
149.6315543091
 20
30.9164367395
 11
149.7471793074
 21
30.7873819712
  0
LINE
  8
0
 62
7
  6
CONTINUOUS
 10
153.1581166972
 20
31.3681283946
 11
153.2159293074
 21
31.2390736489
  0
LINE
  8
0
 62
7
  6
CONTINUOUS
 10
153.9674919177
 20
30.8841730531
 11
154.0253041972
 21
30.7551182848
  0
LINE
  8
0
 62
7
  6
CONTINUOUS
 10
153.5049916972
 20
31.2390736489
 11
153.4471794177
 21
31.400392081
  0
LINE
  8
0
 62
7
  6
CONTINUOUS
 10
153.9674919177
 20
31.4326557675
 11
153.9674919177
 21
31.3681283946
  0
LINE
  8
0
 62
7
  6
CONTINUOUS
 10
153.9674919177
 20
30.9809641124
 11
153.9674919177
 21
30.8841730531
  0
LINE
  8
0
 62
7
  6
CONTINUOUS
 10
154.245872955
 20
32.3970785186
 11
154.245872955
 21
36.1675703219
  0
LINE
  8
0
 62
7
  6
CONTINUOUS
 10
154.2565543074
 20
30.8519093441
 11
154.2565543074
 21
30.9164367395
  0
LINE
  8
0
 62
7
  6
CONTINUOUS
 10
154.5737418074
 20
36.1675703219
 11
154.5737418074
 21
32.3970785186
  0
LINE
  8
0
 62
7
  6
CONTINUOUS
 10
151.3659292523
 20
30.7873819712
 11
151.4237418626
 21
30.9164367395
  0
LINE
  8
0
 62
7
  6
CONTINUOUS
 10
155.759679528
 20
30.6905909007
 11
155.7018665869
 21
30.8519093441
  0
LINE
  8
0
 62
7
  6
CONTINUOUS
 10
155.412804528
 20
31.3681283946
 11
155.412804528
 21
31.2713373354
  0
LINE
  8
0
 62
7
  6
CONTINUOUS
 10
155.412804528
 20
31.1422825445
 11
155.412804528
 21
30.9487004259
  0
LINE
  8
0
 62
7
  6
CONTINUOUS
 10
155.7018665869
 20
30.8519093441
 11
155.7018665869
 21
31.3681283946
  0
LINE
  8
0
 62
7
  6
CONTINUOUS
 10
155.9671844304
 20
32.3970785186
 11
155.9671844304
 21
34.2003572071
  0
LINE
  8
0
 62
7
  6
CONTINUOUS
 10
155.9671844304
 20
35.511832617
 11
155.9671844304
 21
36.1675703219
  0
LINE
  8
0
 62
7
  6
CONTINUOUS
 10
156.279992028
 20
32.1101932727
 11
156.279992028
 21
31.9488748406
  0
LINE
  8
0
 62
7
  6
CONTINUOUS
 10
156.279992028
 20
31.626237886
 11
156.279992028
 21
30.5937998301
  0
LINE
  8
0
 62
7
  6
CONTINUOUS
 10
156.5690540869
 20
30.5937998301
 11
156.5690540869
 21
31.626237886
  0
LINE
  8
0
 62
7
  6
CONTINUOUS
 10
156.5690540869
 20
31.9488748406
 11
156.5690540869
 21
32.1101932727
  0
LINE
  8
0
 62
7
  6
CONTINUOUS
 10
151.1346793074
 20
30.9164367395
 11
151.0768668626
 21
30.8196456577
  0
LINE
  8
0
 62
7
  6
CONTINUOUS
 10
153.4471794177
 20
31.400392081
 11
153.3893668074
 21
31.4649194539
  0
LINE
  8
0
 62
7
  6
CONTINUOUS
 10
154.3143669177
 20
30.7873819712
 11
154.2565543074
 21
30.8519093441
  0
LINE
  8
0
 62
7
  6
CONTINUOUS
 10
155.4706168074
 20
30.6583272086
 11
155.5284290869
 21
30.5937998301
  0
LINE
  8
0
 62
7
  6
CONTINUOUS
 10
155.412804528
 20
30.7551182848
 11
155.4706168074
 21
30.6583272086
  0
LINE
  8
0
 62
7
  6
CONTINUOUS
 10
155.8174918074
 20
30.5937998301
 11
155.759679528
 21
30.6905909007
  0
LINE
  8
0
 62
7
  6
CONTINUOUS
 10
155.7018665869
 20
31.3681283946
 11
155.6440543074
 21
31.4649194539
  0
LINE
  8
0
 62
7
  6
CONTINUOUS
 10
157.0315543074
 20
31.626237886
 11
157.0315543074
 21
30.5937998301
  0
LINE
  8
0
 62
7
  6
CONTINUOUS
 10
157.320617028
 20
30.5937998301
 11
157.320617028
 21
31.3358647082
  0
LINE
  8
0
 62
7
  6
CONTINUOUS
 10
157.320617028
 20
31.4649194539
 11
157.320617028
 21
31.626237886
  0
LINE
  8
0
 62
7
  6
CONTINUOUS
 10
157.852430332
 20
34.6101932727
 11
157.852430332
 21
32.3970785186
  0
LINE
  8
0
 62
7
  6
CONTINUOUS
 10
149.7471793074
 20
31.4326557675
 11
149.6315543091
 21
31.3036010218
  0
LINE
  8
0
 62
7
  6
CONTINUOUS
 10
149.9206168074
 20
31.2713373354
 11
149.9784292936
 21
31.3358647082
  0
LINE
  8
0
 62
7
  6
CONTINUOUS
 10
149.7471793074
 20
30.7873819712
 11
149.8628043005
 21
30.7228545871
  0
LINE
  8
0
 62
7
  6
CONTINUOUS
 10
150.1518667936
 20
30.7873819712
 11
149.9784292936
 21
30.8841730531
  0
LINE
  8
0
 62
7
  6
CONTINUOUS
 10
155.3549915869
 20
31.4326557675
 11
155.412804528
 21
31.3681283946
  0
LINE
  8
0
 62
7
  6
CONTINUOUS
 10
158.3034290869
 20
31.3681283946
 11
158.361242028
 21
31.2068099625
  0
LINE
  8
0
 62
7
  6
CONTINUOUS
 10
158.6503040869
 20
31.2068099625
 11
158.5924918074
 21
31.3681283946
  0
LINE
  8
0
 62
7
  6
CONTINUOUS
 10
158.361242028
 20
31.2068099625
 11
158.361242028
 21
30.5937998301
  0
LINE
  8
0
 62
7
  6
CONTINUOUS
 10
158.6503040869
 20
30.5937998301
 11
158.6503040869
 21
31.2068099625
  0
LINE
  8
0
 62
7
  6
CONTINUOUS
 10
159.1128043074
 20
31.4326557675
 11
159.1128043074
 21
31.3681283946
  0
LINE
  8
0
 62
7
  6
CONTINUOUS
 10
159.245872955
 20
32.3970785186
 11
159.245872955
 21
34.5282260596
  0
LINE
  8
0
 62
7
  6
CONTINUOUS
 10
159.5737418074
 20
36.1675703219
 11
159.5737418074
 21
32.3970785186
  0
LINE
  8
0
 62
7
  6
CONTINUOUS
 10
154.2565543074
 20
30.9164367395
 11
154.3143669177
 21
31.0132277988
  0
LINE
  8
0
 62
7
  6
CONTINUOUS
 10
149.8628043005
 20
30.7228545871
 11
150.0362418212
 21
30.6583272086
  0
LINE
  8
0
 62
7
  6
CONTINUOUS
 10
151.3659292523
 20
31.4326557675
 11
151.1924917523
 21
31.5294468267
  0
LINE
  8
0
 62
7
  6
CONTINUOUS
 10
154.0253041972
 20
30.7551182848
 11
154.1987416972
 21
30.6583272086
  0
LINE
  8
0
 62
7
  6
CONTINUOUS
 10
153.0424918074
 20
31.4326557675
 11
153.1581166972
 21
31.3681283946
  0
LINE
  8
0
 62
7
  6
CONTINUOUS
 10
153.3893668074
 20
31.4649194539
 11
153.2737419177
 21
31.5294468267
  0
LINE
  8
0
 62
7
  6
CONTINUOUS
 10
159.1128043074
 20
30.8519093441
 11
159.228429528
 21
30.7228545871
  0
LINE
  8
0
 62
7
  6
CONTINUOUS
 10
159.4596793074
 20
30.7873819712
 11
159.401867028
 21
30.8519093441
  0
LINE
  8
0
 62
7
  6
CONTINUOUS
 10
159.1128043074
 20
31.3681283946
 11
159.228429528
 21
31.2390736489
  0
LINE
  8
0
 62
7
  6
CONTINUOUS
 10
158.5924918074
 20
31.3681283946
 11
158.534679528
 21
31.4649194539
  0
LINE
  8
0
 62
7
  6
CONTINUOUS
 10
160.9628038663
 20
30.7873819712
 11
160.9628038663
 21
30.8519093441
  0
LINE
  8
0
 62
7
  6
CONTINUOUS
 10
160.9671844304
 20
32.3970785186
 11
160.9671844304
 21
36.1675703219
  0
LINE
  8
0
 62
7
  6
CONTINUOUS
 10
154.0253041972
 20
31.4971831403
 11
153.9674919177
 21
31.4326557675
  0
LINE
  8
0
 62
7
  6
CONTINUOUS
 10
150.9034292799
 20
31.4649194539
 11
151.0768668626
 21
31.400392081
  0
LINE
  8
0
 62
7
  6
CONTINUOUS
 10
155.6440543074
 20
31.4649194539
 11
155.5284290869
 21
31.5294468267
  0
LINE
  8
0
 62
7
  6
CONTINUOUS
 10
159.4596793074
 20
31.3036010218
 11
159.401867028
 21
31.3681283946
  0
LINE
  8
0
 62
7
  6
CONTINUOUS
 10
160.615929528
 20
30.9164367395
 11
160.6737418074
 21
30.8519093441
  0
LINE
  8
0
 62
7
  6
CONTINUOUS
 10
160.9628038663
 20
30.8519093441
 11
160.8471793074
 21
30.9809641124
  0
LINE
  8
0
 62
7
  6
CONTINUOUS
 10
160.615929528
 20
31.4326557675
 11
160.6737418074
 21
31.3681283946
  0
LINE
  8
0
 62
7
  6
CONTINUOUS
 10
160.9628038663
 20
31.3681283946
 11
160.8471793074
 21
31.4971831403
  0
LINE
  8
0
 62
7
  6
CONTINUOUS
 10
154.2565543074
 20
31.3681283946
 11
154.3143669177
 21
31.4326557675
  0
LINE
  8
0
 62
7
  6
CONTINUOUS
 10
154.0831168074
 20
31.1100188581
 11
153.9674919177
 21
30.9809641124
  0
LINE
  8
0
 62
7
  6
CONTINUOUS
 10
155.412804528
 20
30.9487004259
 11
155.3549915869
 21
30.8841730531
  0
LINE
  8
0
 62
7
  6
CONTINUOUS
 10
155.3549915869
 20
30.6905909007
 11
155.412804528
 21
30.7551182848
  0
LINE
  8
0
 62
7
  6
CONTINUOUS
 10
154.1987416972
 20
30.6583272086
 11
154.3143669177
 21
30.6260635193
  0
LINE
  8
0
 62
7
  6
CONTINUOUS
 10
151.1924917523
 20
31.5294468267
 11
150.9612418074
 21
31.5939741996
  0
LINE
  8
0
 62
7
  6
CONTINUOUS
 10
154.5456166972
 20
30.7228545871
 11
154.3143669177
 21
30.7873819712
  0
LINE
  8
0
 62
7
  6
CONTINUOUS
 10
153.2737419177
 20
31.5294468267
 11
153.1003044177
 21
31.5939741996
  0
LINE
  8
0
 62
7
  6
CONTINUOUS
 10
155.5284290869
 20
31.5294468267
 11
155.3549915869
 21
31.5939741996
  0
LINE
  8
0
 62
7
  6
CONTINUOUS
 10
158.187804528
 20
31.4326557675
 11
158.3034290869
 21
31.3681283946
  0
LINE
  8
0
 62
7
  6
CONTINUOUS
 10
158.534679528
 20
31.4649194539
 11
158.4190543074
 21
31.5294468267
  0
LINE
  8
0
 62
7
  6
CONTINUOUS
 10
150.0362418212
 20
30.6583272086
 11
150.2096793212
 21
30.6260635193
  0
LINE
  8
0
 62
7
  6
CONTINUOUS
 10
150.498741835
 20
30.7228545871
 11
150.1518667936
 21
30.7873819712
  0
LINE
  8
0
 62
7
  6
CONTINUOUS
 10
152.9268669177
 20
31.4649194539
 11
153.0424918074
 21
31.4326557675
  0
LINE
  8
0
 62
7
  6
CONTINUOUS
 10
155.239367028
 20
31.4649194539
 11
155.3549915869
 21
31.4326557675
  0
LINE
  8
0
 62
7
  6
CONTINUOUS
 10
159.575304528
 20
30.7551182848
 11
159.4596793074
 21
30.7873819712
  0
LINE
  8
0
 62
7
  6
CONTINUOUS
 10
158.0721793074
 20
31.4649194539
 11
158.187804528
 21
31.4326557675
  0
LINE
  8
0
 62
7
  6
CONTINUOUS
 10
159.228429528
 20
30.7228545871
 11
159.401867028
 21
30.6583272086
  0
LINE
  8
0
 62
7
  6
CONTINUOUS
 10
158.4190543074
 20
31.5294468267
 11
158.2456168074
 21
31.5939741996
  0
LINE
  8
0
 62
7
  6
CONTINUOUS
 10
159.6331168074
 20
31.2390736489
 11
159.4596793074
 21
31.3036010218
  0
LINE
  8
0
 62
7
  6
CONTINUOUS
 10
160.442492028
 20
30.9809641124
 11
160.615929528
 21
30.9164367395
  0
LINE
  8
0
 62
7
  6
CONTINUOUS
 10
160.8471793074
 20
31.4971831403
 11
160.6737418074
 21
31.5617105132
  0
LINE
  8
0
 62
7
  6
CONTINUOUS
 10
159.228429528
 20
31.2390736489
 11
159.4596793074
 21
31.1422825445
  0
LINE
  8
0
 62
7
  6
CONTINUOUS
 10
160.8471793074
 20
30.9809641124
 11
160.615929528
 21
31.0777551716
  0
LINE
  8
0
 62
7
  6
CONTINUOUS
 10
159.401867028
 20
31.3681283946
 11
159.4596793074
 21
31.4326557675
  0
LINE
  8
0
 62
7
  6
CONTINUOUS
 10
149.8628043005
 20
31.4971831403
 11
149.7471793074
 21
31.4326557675
  0
LINE
  8
0
 62
7
  6
CONTINUOUS
 10
149.9784292936
 20
31.3358647082
 11
150.1518667936
 21
31.4326557675
  0
LINE
  8
0
 62
7
  6
CONTINUOUS
 10
152.2909293626
 20
31.5294468267
 11
152.1753043074
 21
31.4649194539
  0
LINE
  8
0
 62
7
  6
CONTINUOUS
 10
152.1753043074
 20
31.3358647082
 11
152.2909293626
 21
31.400392081
  0
LINE
  8
0
 62
7
  6
CONTINUOUS
 10
151.1924917523
 20
30.6905909007
 11
151.3659292523
 21
30.7873819712
  0
LINE
  8
0
 62
7
  6
CONTINUOUS
 10
150.2096793212
 20
30.6260635193
 11
150.5565542799
 21
30.5937998301
  0
LINE
  8
0
 62
7
  6
CONTINUOUS
 10
154.3143669177
 20
30.6260635193
 11
154.5456166972
 21
30.5937998301
  0
LINE
  8
0
 62
7
  6
CONTINUOUS
 10
152.6956168074
 20
31.4971831403
 11
152.9268669177
 21
31.4649194539
  0
LINE
  8
0
 62
7
  6
CONTINUOUS
 10
155.0081169177
 20
31.4971831403
 11
155.239367028
 21
31.4649194539
  0
LINE
  8
0
 62
7
  6
CONTINUOUS
 10
159.4596793074
 20
31.1422825445
 11
160.442492028
 21
30.9809641124
  0
LINE
  8
0
 62
7
  6
CONTINUOUS
 10
160.615929528
 20
31.0777551716
 11
159.6331168074
 21
31.2390736489
  0
LINE
  8
0
 62
7
  6
CONTINUOUS
 10
153.1003044177
 20
31.5939741996
 11
152.9268669177
 21
31.626237886
  0
LINE
  8
0
 62
7
  6
CONTINUOUS
 10
159.401867028
 20
30.6583272086
 11
159.575304528
 21
30.6260635193
  0
LINE
  8
0
 62
7
  6
CONTINUOUS
 10
158.2456168074
 20
31.5939741996
 11
158.0721793074
 21
31.626237886
  0
LINE
  8
0
 62
7
  6
CONTINUOUS
 10
160.5003043074
 20
31.4649194539
 11
160.615929528
 21
31.4326557675
  0
LINE
  8
0
 62
7
  6
CONTINUOUS
 10
160.6737418074
 20
30.8519093441
 11
160.615929528
 21
30.7873819712
  0
LINE
  8
0
 62
7
  6
CONTINUOUS
 10
159.228429528
 20
31.5294468267
 11
159.1128043074
 21
31.4326557675
  0
LINE
  8
0
 62
7
  6
CONTINUOUS
 10
154.1409294177
 20
31.5617105132
 11
154.0253041972
 21
31.4971831403
  0
LINE
  8
0
 62
7
  6
CONTINUOUS
 10
154.1987416972
 20
31.1745462761
 11
154.0831168074
 21
31.1100188581
  0
LINE
  8
0
 62
7
  6
CONTINUOUS
 10
154.3143669177
 20
31.0132277988
 11
154.4299918074
 21
31.0777551716
  0
LINE
  8
0
 62
7
  6
CONTINUOUS
 10
151.8862417523
 20
30.5937998301
 11
152.1753043074
 21
30.5937998301
  0
LINE
  8
0
 62
7
  6
CONTINUOUS
 10
153.2159293074
 20
30.5937998301
 11
153.5049916972
 21
30.5937998301
  0
LINE
  8
0
 62
7
  6
CONTINUOUS
 10
154.5456166972
 20
30.5937998301
 11
154.8924916972
 21
30.5937998301
  0
LINE
  8
0
 62
7
  6
CONTINUOUS
 10
155.5284290869
 20
30.5937998301
 11
155.8174918074
 21
30.5937998301
  0
LINE
  8
0
 62
7
  6
CONTINUOUS
 10
156.279992028
 20
30.5937998301
 11
156.5690540869
 21
30.5937998301
  0
LINE
  8
0
 62
7
  6
CONTINUOUS
 10
157.0315543074
 20
30.5937998301
 11
157.320617028
 21
30.5937998301
  0
LINE
  8
0
 62
7
  6
CONTINUOUS
 10
158.361242028
 20
30.5937998301
 11
158.6503040869
 21
30.5937998301
  0
LINE
  8
0
 62
7
  6
CONTINUOUS
 10
159.922179528
 20
30.5937998301
 11
160.269054528
 21
30.5937998301
  0
LINE
  8
0
 62
7
  6
CONTINUOUS
 10
160.269054528
 20
30.7228545871
 11
159.922179528
 21
30.7228545871
  0
LINE
  8
0
 62
7
  6
CONTINUOUS
 10
154.8924916972
 20
30.7228545871
 11
154.5456166972
 21
30.7228545871
  0
LINE
  8
0
 62
7
  6
CONTINUOUS
 10
159.401867028
 20
30.8519093441
 11
159.1128043074
 21
30.8519093441
  0
LINE
  8
0
 62
7
  6
CONTINUOUS
 10
151.4237418626
 20
30.9164367395
 11
151.1346793074
 21
30.9164367395
  0
LINE
  8
0
 62
7
  6
CONTINUOUS
 10
150.498741835
 20
31.4971831403
 11
150.9034292799
 21
31.4649194539
  0
LINE
  8
0
 62
7
  6
CONTINUOUS
 10
150.9612418074
 20
31.5939741996
 11
150.5565542799
 21
31.626237886
  0
LINE
  8
0
 62
7
  6
CONTINUOUS
 10
159.575304528
 20
30.6260635193
 11
159.922179528
 21
30.5937998301
  0
LINE
  8
0
 62
7
  6
CONTINUOUS
 10
159.922179528
 20
30.7228545871
 11
159.575304528
 21
30.7551182848
  0
LINE
  8
0
 62
7
  6
CONTINUOUS
 10
155.3549915869
 20
31.5939741996
 11
155.0081169177
 21
31.626237886
  0
LINE
  8
0
 62
7
  6
CONTINUOUS
 10
160.1534293074
 20
31.4971831403
 11
160.5003043074
 21
31.4649194539
  0
LINE
  8
0
 62
7
  6
CONTINUOUS
 10
160.5003043074
 20
31.5939741996
 11
160.1534293074
 21
31.626237886
  0
LINE
  8
0
 62
7
  6
CONTINUOUS
 10
157.840929528
 20
31.4971831403
 11
158.0721793074
 21
31.4649194539
  0
LINE
  8
0
 62
7
  6
CONTINUOUS
 10
160.6737418074
 20
31.5617105132
 11
160.5003043074
 21
31.5939741996
  0
LINE
  8
0
 62
7
  6
CONTINUOUS
 10
160.8471793074
 20
30.6905909007
 11
160.9628038663
 21
30.7873819712
  0
LINE
  8
0
 62
7
  6
CONTINUOUS
 10
155.3549915869
 20
30.8841730531
 11
155.1815540869
 21
30.7873819712
  0
LINE
  8
0
 62
7
  6
CONTINUOUS
 10
157.4362415869
 20
31.5294468267
 11
157.320617028
 21
31.4649194539
  0
LINE
  8
0
 62
7
  6
CONTINUOUS
 10
157.320617028
 20
31.3358647082
 11
157.4362415869
 21
31.400392081
  0
LINE
  8
0
 62
7
  6
CONTINUOUS
 10
150.0362418212
 20
31.5617105132
 11
149.8628043005
 21
31.4971831403
  0
LINE
  8
0
 62
7
  6
CONTINUOUS
 10
152.4643666972
 20
31.5939741996
 11
152.2909293626
 21
31.5294468267
  0
LINE
  8
0
 62
7
  6
CONTINUOUS
 10
152.2909293626
 20
31.400392081
 11
152.4643666972
 21
31.4649194539
  0
LINE
  8
0
 62
7
  6
CONTINUOUS
 10
151.0768668626
 20
30.8196456577
 11
150.9034292799
 21
30.7551182848
  0
LINE
  8
0
 62
7
  6
CONTINUOUS
 10
160.5003043074
 20
30.7551182848
 11
160.269054528
 21
30.7228545871
  0
LINE
  8
0
 62
7
  6
CONTINUOUS
 10
154.8924916972
 20
30.5937998301
 11
155.1815540869
 21
30.6260635193
  0
LINE
  8
0
 62
7
  6
CONTINUOUS
 10
160.269054528
 20
30.5937998301
 11
160.615929528
 21
30.6260635193
  0
LINE
  8
0
 62
7
  6
CONTINUOUS
 10
150.5565542799
 20
30.5937998301
 11
150.9612418074
 21
30.6260635193
  0
LINE
  8
0
 62
7
  6
CONTINUOUS
 10
150.9034292799
 20
30.7551182848
 11
150.498741835
 21
30.7228545871
  0
LINE
  8
0
 62
7
  6
CONTINUOUS
 10
154.7768668074
 20
31.1422825445
 11
155.412804528
 21
31.1422825445
  0
LINE
  8
0
 62
7
  6
CONTINUOUS
 10
155.412804528
 20
31.2713373354
 11
154.7768668074
 21
31.2713373354
  0
LINE
  8
0
 62
7
  6
CONTINUOUS
 10
151.1346793074
 20
31.3036010218
 11
151.4237418626
 21
31.3036010218
  0
LINE
  8
0
 62
7
  6
CONTINUOUS
 10
153.9674919177
 20
31.3681283946
 11
154.2565543074
 21
31.3681283946
  0
LINE
  8
0
 62
7
  6
CONTINUOUS
 10
160.6737418074
 20
31.3681283946
 11
160.9628038663
 21
31.3681283946
  0
LINE
  8
0
 62
7
  6
CONTINUOUS
 10
154.6612419177
 20
31.4971831403
 11
155.0081169177
 21
31.4971831403
  0
LINE
  8
0
 62
7
  6
CONTINUOUS
 10
159.8065543074
 20
31.4971831403
 11
160.1534293074
 21
31.4971831403
  0
LINE
  8
0
 62
7
  6
CONTINUOUS
 10
160.1534293074
 20
31.626237886
 11
159.8065543074
 21
31.626237886
  0
LINE
  8
0
 62
7
  6
CONTINUOUS
 10
158.0721793074
 20
31.626237886
 11
157.840929528
 21
31.626237886
  0
LINE
  8
0
 62
7
  6
CONTINUOUS
 10
157.320617028
 20
31.626237886
 11
157.0315543074
 21
31.626237886
  0
LINE
  8
0
 62
7
  6
CONTINUOUS
 10
156.5690540869
 20
31.626237886
 11
156.279992028
 21
31.626237886
  0
LINE
  8
0
 62
7
  6
CONTINUOUS
 10
155.0081169177
 20
31.626237886
 11
154.6612419177
 21
31.626237886
  0
LINE
  8
0
 62
7
  6
CONTINUOUS
 10
152.9268669177
 20
31.626237886
 11
152.6956168074
 21
31.626237886
  0
LINE
  8
0
 62
7
  6
CONTINUOUS
 10
156.279992028
 20
31.9488748406
 11
156.5690540869
 21
31.9488748406
  0
LINE
  8
0
 62
7
  6
CONTINUOUS
 10
156.5690540869
 20
32.1101932727
 11
156.279992028
 21
32.1101932727
  0
LINE
  8
0
 62
7
  6
CONTINUOUS
 10
152.1753043074
 20
32.1101932727
 11
151.8862417523
 21
32.1101932727
  0
LINE
  8
0
 62
7
  6
CONTINUOUS
 10
151.2130860697
 20
32.3970785186
 11
151.6256574183
 21
32.3970785186
  0
LINE
  8
0
 62
7
  6
CONTINUOUS
 10
152.852430332
 20
32.3970785186
 11
154.245872955
 21
32.3970785186
  0
LINE
  8
0
 62
7
  6
CONTINUOUS
 10
154.5737418074
 20
32.3970785186
 11
155.9671844304
 21
32.3970785186
  0
LINE
  8
0
 62
7
  6
CONTINUOUS
 10
157.852430332
 20
32.3970785186
 11
159.245872955
 21
32.3970785186
  0
LINE
  8
0
 62
7
  6
CONTINUOUS
 10
159.5737418074
 20
32.3970785186
 11
160.9671844304
 21
32.3970785186
  0
LINE
  8
0
 62
7
  6
CONTINUOUS
 10
157.6096790869
 20
31.5939741996
 11
157.4362415869
 21
31.5294468267
  0
LINE
  8
0
 62
7
  6
CONTINUOUS
 10
155.1815540869
 20
30.6260635193
 11
155.3549915869
 21
30.6905909007
  0
LINE
  8
0
 62
7
  6
CONTINUOUS
 10
160.615929528
 20
30.6260635193
 11
160.8471793074
 21
30.6905909007
  0
LINE
  8
0
 62
7
  6
CONTINUOUS
 10
160.615929528
 20
30.7873819712
 11
160.5003043074
 21
30.7551182848
  0
LINE
  8
0
 62
7
  6
CONTINUOUS
 10
159.575304528
 20
31.4649194539
 11
159.8065543074
 21
31.4971831403
  0
LINE
  8
0
 62
7
  6
CONTINUOUS
 10
157.6096790869
 20
31.4649194539
 11
157.840929528
 21
31.4971831403
  0
LINE
  8
0
 62
7
  6
CONTINUOUS
 10
154.5456166972
 20
31.1100188581
 11
154.7768668074
 21
31.1422825445
  0
LINE
  8
0
 62
7
  6
CONTINUOUS
 10
157.840929528
 20
31.626237886
 11
157.6096790869
 21
31.5939741996
  0
LINE
  8
0
 62
7
  6
CONTINUOUS
 10
154.4299918074
 20
31.4649194539
 11
154.6612419177
 21
31.4971831403
  0
LINE
  8
0
 62
7
  6
CONTINUOUS
 10
159.8065543074
 20
31.626237886
 11
159.4596793074
 21
31.5939741996
  0
LINE
  8
0
 62
7
  6
CONTINUOUS
 10
154.7768668074
 20
31.2713373354
 11
154.4299918074
 21
31.2390736489
  0
LINE
  8
0
 62
7
  6
CONTINUOUS
 10
150.5565542799
 20
31.626237886
 11
150.2096793212
 21
31.5939741996
  0
LINE
  8
0
 62
7
  6
CONTINUOUS
 10
154.6612419177
 20
31.626237886
 11
154.2565543074
 21
31.5939741996
  0
LINE
  8
0
 62
7
  6
CONTINUOUS
 10
152.0327582009
 20
33.5446195022
 11
151.3770204959
 21
33.5446195022
  0
LINE
  8
0
 62
7
  6
CONTINUOUS
 10
157.4362415869
 20
31.400392081
 11
157.6096790869
 21
31.4649194539
  0
LINE
  8
0
 62
7
  6
CONTINUOUS
 10
159.4596793074
 20
31.4326557675
 11
159.575304528
 21
31.4649194539
  0
LINE
  8
0
 62
7
  6
CONTINUOUS
 10
159.4596793074
 20
31.5939741996
 11
159.228429528
 21
31.5294468267
  0
LINE
  8
0
 62
7
  6
CONTINUOUS
 10
155.1815540869
 20
30.7873819712
 11
154.8924916972
 21
30.7228545871
  0
LINE
  8
0
 62
7
  6
CONTINUOUS
 10
152.4643666972
 20
31.4649194539
 11
152.6956168074
 21
31.4971831403
  0
LINE
  8
0
 62
7
  6
CONTINUOUS
 10
152.6956168074
 20
31.626237886
 11
152.4643666972
 21
31.5939741996
  0
LINE
  8
0
 62
7
  6
CONTINUOUS
 10
150.2674918074
 20
31.4649194539
 11
150.498741835
 21
31.4971831403
  0
LINE
  8
0
 62
7
  6
CONTINUOUS
 10
156.7868565615
 20
35.0200293383
 11
157.4425942664
 21
35.0200293383
  0
LINE
  8
0
 62
7
  6
CONTINUOUS
 10
154.4299918074
 20
31.0777551716
 11
154.5456166972
 21
31.1100188581
  0
LINE
  8
0
 62
7
  6
CONTINUOUS
 10
154.4299918074
 20
31.2390736489
 11
154.1987416972
 21
31.1745462761
  0
LINE
  8
0
 62
7
  6
CONTINUOUS
 10
154.3143669177
 20
31.4326557675
 11
154.4299918074
 21
31.4649194539
  0
LINE
  8
0
 62
7
  6
CONTINUOUS
 10
150.9612418074
 20
30.6260635193
 11
151.1924917523
 21
30.6905909007
  0
LINE
  8
0
 62
7
  6
CONTINUOUS
 10
154.2565543074
 20
31.5939741996
 11
154.1409294177
 21
31.5617105132
  0
LINE
  8
0
 62
7
  6
CONTINUOUS
 10
150.2096793212
 20
31.5939741996
 11
150.0362418212
 21
31.5617105132
  0
LINE
  8
0
 62
7
  6
CONTINUOUS
 10
160.9671844304
 20
36.1675703219
 11
159.5737418074
 21
36.1675703219
  0
LINE
  8
0
 62
7
  6
CONTINUOUS
 10
157.6065286927
 20
36.1675703219
 11
157.1939573441
 21
36.1675703219
  0
LINE
  8
0
 62
7
  6
CONTINUOUS
 10
155.9671844304
 20
36.1675703219
 11
154.5737418074
 21
36.1675703219
  0
LINE
  8
0
 62
7
  6
CONTINUOUS
 10
154.245872955
 20
36.1675703219
 11
152.852430332
 21
36.1675703219
  0
LINE
  8
0
 62
7
  6
CONTINUOUS
 10
150.9671844304
 20
36.1675703219
 11
149.5737418074
 21
36.1675703219
  0
LINE
  8
0
 62
7
  6
CONTINUOUS
 10
150.1518667936
 20
31.4326557675
 11
150.2674918074
 21
31.4649194539
  0
CIRCLE
  8
0
 62
7
  6
CONTINUOUS
 10
160.2704631189
 20
38.5036358957
 40
2.0901639344
  0
ARC
  8
0
 62
7
  6
CONTINUOUS
 10
151.2130860697
 20
34.0364227809
 40
1.6393442623
 50
180.0
 51
270.0
  0
ARC
  8
0
 62
7
  6
CONTINUOUS
 10
157.6065286927
 20
34.5282260596
 40
1.6393442623
 50
0.0
 51
90.0
  0
ARC
  8
0
 62
7
  6
CONTINUOUS
 10
151.6256574183
 20
33.8724883547
 40
1.4754098361
 50
270.0
 51
326.2510114041
  0
ARC
  8
0
 62
7
  6
CONTINUOUS
 10
157.1939573441
 20
34.6921604858
 40
1.4754098361
 50
90.0
 51
146.2510114041
  0
ARC
  8
0
 62
7
  6
CONTINUOUS
 10
152.0327582009
 20
34.3642916334
 40
0.8196721311
 50
270.0
 51
360.0
  0
ARC
  8
0
 62
7
  6
CONTINUOUS
 10
156.7868565615
 20
34.2003572071
 40
0.8196721311
 50
90.0
 51
180.0
  0
ARC
  8
0
 62
7
  6
CONTINUOUS
 10
151.3770204959
 20
33.9544555678
 40
0.4098360656
 50
180.0
 51
270.0
  0
ARC
  8
0
 62
7
  6
CONTINUOUS
 10
157.4425942664
 20
34.6101932727
 40
0.4098360656
 50
0.0
 51
90.0
  0
SOLID
  8
0
 62
7
  6
CONTINUOUS
 10
156.279992028
 20
31.9488752009
 11
156.279992028
 21
32.1101936845
 12
156.5690540869
 22
31.9488752009
 13
156.5690540869
 23
32.1101936845
  0
SOLID
  8
0
 62
7
  6
CONTINUOUS
 10
150.5565542799
 20
31.6262382337
 11
150.9612418074
 21
31.5939740028
 12
150.2096793212
 22
31.5939740028
 13
150.2096793212
 23
31.5939740028
  0
SOLID
  8
0
 62
7
  6
CONTINUOUS
 10
150.0362418212
 20
31.5617111435
 11
150.2096793212
 21
31.5939740028
 12
150.9612418074
 22
31.5939740028
 13
150.9612418074
 23
31.5939740028
  0
SOLID
  8
0
 62
7
  6
CONTINUOUS
 10
150.9612418074
 20
31.5939740028
 11
151.1924917523
 21
31.5294468402
 12
150.0362418212
 22
31.5617111435
 13
150.0362418212
 23
31.5617111435
  0
SOLID
  8
0
 62
7
  6
CONTINUOUS
 10
149.8628043005
 20
31.49718259
 11
150.0362418212
 21
31.5617111435
 12
151.1924917523
 22
31.5294468402
 13
151.1924917523
 23
31.5294468402
  0
SOLID
  8
0
 62
7
  6
CONTINUOUS
 10
149.8628043005
 20
31.49718259
 11
151.1924917523
 21
31.5294468402
 12
150.498741835
 22
31.49718259
 13
150.498741835
 23
31.49718259
  0
SOLID
  8
0
 62
7
  6
CONTINUOUS
 10
150.498741835
 20
31.49718259
 11
151.1924917523
 21
31.5294468402
 12
150.9034292799
 22
31.4649197501
 13
150.9034292799
 23
31.4649197501
  0
SOLID
  8
0
 62
7
  6
CONTINUOUS
 10
151.1924917523
 20
31.5294468402
 11
151.3659292523
 21
31.4326554468
 12
150.9034292799
 22
31.4649197501
 13
150.9034292799
 23
31.4649197501
  0
SOLID
  8
0
 62
7
  6
CONTINUOUS
 10
151.0768668626
 20
31.4003926599
 11
150.9034292799
 21
31.4649197501
 12
151.3659292523
 22
31.4326554468
 13
151.3659292523
 23
31.4326554468
  0
SOLID
  8
0
 62
7
  6
CONTINUOUS
 10
151.0768668626
 20
31.4003926599
 11
151.3659292523
 21
31.4326554468
 12
151.1346793074
 22
31.3036013776
 13
151.1346793074
 23
31.3036013776
  0
SOLID
  8
0
 62
7
  6
CONTINUOUS
 10
151.3659292523
 20
31.4326554468
 11
151.4237418626
 21
31.3036013776
 12
151.1346793074
 22
31.3036013776
 13
151.1346793074
 23
31.3036013776
  0
SOLID
  8
0
 62
7
  6
CONTINUOUS
 10
152.4643666972
 20
31.5939739754
 11
152.6956168074
 21
31.6262382787
 12
152.9268669177
 22
31.6262382787
 13
152.9268669177
 23
31.6262382787
  0
SOLID
  8
0
 62
7
  6
CONTINUOUS
 10
152.9268669177
 20
31.6262382787
 11
153.1003044177
 21
31.5939739754
 12
152.4643666972
 22
31.5939739754
 13
152.4643666972
 23
31.5939739754
  0
SOLID
  8
0
 62
7
  6
CONTINUOUS
 10
152.2909293626
 20
31.5294468852
 11
152.4643666972
 21
31.5939739754
 12
153.1003044177
 22
31.5939739754
 13
153.1003044177
 23
31.5939739754
  0
SOLID
  8
0
 62
7
  6
CONTINUOUS
 10
153.1003044177
 20
31.5939739754
 11
153.2737419177
 21
31.5294468852
 12
152.2909293626
 22
31.5294468852
 13
152.2909293626
 23
31.5294468852
  0
SOLID
  8
0
 62
7
  6
CONTINUOUS
 10
153.2737419177
 20
31.5294468852
 11
152.6956168074
 21
31.4971825369
 12
152.2909293626
 22
31.5294468852
 13
152.2909293626
 23
31.5294468852
  0
SOLID
  8
0
 62
7
  6
CONTINUOUS
 10
152.1753043074
 20
31.4649197951
 11
152.2909293626
 21
31.5294468852
 12
152.6956168074
 22
31.4971825369
 13
152.6956168074
 23
31.4971825369
  0
SOLID
  8
0
 62
7
  6
CONTINUOUS
 10
152.6956168074
 20
31.4971825369
 11
152.4643666972
 21
31.4649197951
 12
152.1753043074
 22
31.4649197951
 13
152.1753043074
 23
31.4649197951
  0
SOLID
  8
0
 62
7
  6
CONTINUOUS
 10
152.6956168074
 20
31.4971825369
 11
153.2737419177
 21
31.5294468852
 12
152.9268669177
 22
31.4649197951
 13
152.9268669177
 23
31.4649197951
  0
SOLID
  8
0
 62
7
  6
CONTINUOUS
 10
153.2737419177
 20
31.5294468852
 11
153.3893668074
 21
31.4649197951
 12
152.9268669177
 22
31.4649197951
 13
152.9268669177
 23
31.4649197951
  0
SOLID
  8
0
 62
7
  6
CONTINUOUS
 10
153.0424918074
 20
31.4326554468
 11
152.9268669177
 21
31.4649197951
 12
153.3893668074
 22
31.4649197951
 13
153.3893668074
 23
31.4649197951
  0
SOLID
  8
0
 62
7
  6
CONTINUOUS
 10
153.3893668074
 20
31.4649197951
 11
153.4471794177
 21
31.4003927049
 12
153.0424918074
 22
31.4326554468
 13
153.0424918074
 23
31.4326554468
  0
SOLID
  8
0
 62
7
  6
CONTINUOUS
 10
153.1581166972
 20
31.3681283566
 11
153.0424918074
 21
31.4326554468
 12
153.4471794177
 22
31.4003927049
 13
153.4471794177
 23
31.4003927049
  0
SOLID
  8
0
 62
7
  6
CONTINUOUS
 10
153.1581166972
 20
31.3681283566
 11
153.4471794177
 21
31.4003927049
 12
153.2159293074
 22
31.2390742213
 13
153.2159293074
 23
31.2390742213
  0
SOLID
  8
0
 62
7
  6
CONTINUOUS
 10
153.4471794177
 20
31.4003927049
 11
153.5049916972
 21
31.2390742213
 12
153.2159293074
 22
31.2390742213
 13
153.2159293074
 23
31.2390742213
  0
SOLID
  8
0
 62
7
  6
CONTINUOUS
 10
152.4643666972
 20
31.4649197951
 11
152.2909293626
 21
31.4003927049
 12
152.1753043074
 22
31.4649197951
 13
152.1753043074
 23
31.4649197951
  0
SOLID
  8
0
 62
7
  6
CONTINUOUS
 10
152.2909293626
 20
31.4003927049
 11
152.1753043074
 21
31.3358640533
 12
152.1753043074
 22
31.4649197951
 13
152.1753043074
 23
31.4649197951
  0
SOLID
  8
0
 62
7
  6
CONTINUOUS
 10
152.1753043074
 20
31.3358640533
 11
151.8862417523
 21
30.5938002869
 12
152.1753043074
 22
31.4649197951
 13
152.1753043074
 23
31.4649197951
  0
SOLID
  8
0
 62
7
  6
CONTINUOUS
 10
152.1753043074
 20
31.4649197951
 11
151.8862417523
 21
30.5938002869
 12
152.1753043074
 22
32.1101937295
 13
152.1753043074
 23
32.1101937295
  0
SOLID
  8
0
 62
7
  6
CONTINUOUS
 10
151.8862417523
 20
30.5938002869
 11
151.8862417523
 21
32.1101937295
 12
152.1753043074
 22
32.1101937295
 13
152.1753043074
 23
32.1101937295
  0
SOLID
  8
0
 62
7
  6
CONTINUOUS
 10
152.1753043074
 20
31.3358640533
 11
152.1753043074
 21
30.5938002869
 12
151.8862417523
 22
30.5938002869
 13
151.8862417523
 23
30.5938002869
  0
SOLID
  8
0
 62
7
  6
CONTINUOUS
 10
153.2159293074
 20
30.5938002869
 11
153.2159293074
 21
31.2390742213
 12
153.5049916972
 22
31.2390742213
 13
153.5049916972
 23
31.2390742213
  0
SOLID
  8
0
 62
7
  6
CONTINUOUS
 10
153.5049916972
 20
31.2390742213
 11
153.5049916972
 21
30.5938002869
 12
153.2159293074
 22
30.5938002869
 13
153.2159293074
 23
30.5938002869
  0
SOLID
  8
0
 62
7
  6
CONTINUOUS
 10
154.2565543074
 20
31.5939738288
 11
154.6612419177
 21
31.6262385959
 12
155.0081169177
 22
31.6262385959
 13
155.0081169177
 23
31.6262385959
  0
SOLID
  8
0
 62
7
  6
CONTINUOUS
 10
155.0081169177
 20
31.6262385959
 11
155.3549915869
 21
31.5939738288
 12
154.2565543074
 22
31.5939738288
 13
154.2565543074
 23
31.5939738288
  0
SOLID
  8
0
 62
7
  6
CONTINUOUS
 10
154.1409294177
 20
31.5617111435
 11
154.2565543074
 21
31.5939738288
 12
155.3549915869
 22
31.5939738288
 13
155.3549915869
 23
31.5939738288
  0
SOLID
  8
0
 62
7
  6
CONTINUOUS
 10
155.3549915869
 20
31.5939738288
 11
155.5284290869
 21
31.5294468402
 12
154.1409294177
 22
31.5617111435
 13
154.1409294177
 23
31.5617111435
  0
SOLID
  8
0
 62
7
  6
CONTINUOUS
 10
154.0253041972
 20
31.4971826249
 11
154.1409294177
 21
31.5617111435
 12
155.5284290869
 22
31.5294468402
 13
155.5284290869
 23
31.5294468402
  0
SOLID
  8
0
 62
7
  6
CONTINUOUS
 10
154.0253041972
 20
31.4971826249
 11
155.5284290869
 21
31.5294468402
 12
154.6612419177
 22
31.4971826249
 13
154.6612419177
 23
31.4971826249
  0
SOLID
  8
0
 62
7
  6
CONTINUOUS
 10
154.6612419177
 20
31.4971826249
 11
155.5284290869
 21
31.5294468402
 12
155.0081169177
 22
31.4971826249
 13
155.0081169177
 23
31.4971826249
  0
SOLID
  8
0
 62
7
  6
CONTINUOUS
 10
155.0081169177
 20
31.4971826249
 11
155.5284290869
 21
31.5294468402
 12
155.239367028
 22
31.4649194065
 13
155.239367028
 23
31.4649194065
  0
SOLID
  8
0
 62
7
  6
CONTINUOUS
 10
155.5284290869
 20
31.5294468402
 11
155.6440543074
 21
31.4649194065
 12
155.239367028
 22
31.4649194065
 13
155.239367028
 23
31.4649194065
  0
SOLID
  8
0
 62
7
  6
CONTINUOUS
 10
153.9674919177
 20
31.4326554138
 11
154.0253041972
 21
31.4971826249
 12
154.6612419177
 22
31.4971826249
 13
154.6612419177
 23
31.4971826249
  0
SOLID
  8
0
 62
7
  6
CONTINUOUS
 10
155.3549915869
 20
31.4326554138
 11
155.239367028
 21
31.4649194065
 12
155.6440543074
 22
31.4649194065
 13
155.6440543074
 23
31.4649194065
  0
SOLID
  8
0
 62
7
  6
CONTINUOUS
 10
155.3549915869
 20
31.4326554138
 11
155.6440543074
 21
31.4649194065
 12
155.412804528
 22
31.3681282026
 13
155.412804528
 23
31.3681282026
  0
SOLID
  8
0
 62
7
  6
CONTINUOUS
 10
155.6440543074
 20
31.4649194065
 11
155.7018665869
 21
31.3681282026
 12
155.412804528
 22
31.3681282026
 13
155.412804528
 23
31.3681282026
  0
SOLID
  8
0
 62
7
  6
CONTINUOUS
 10
155.412804528
 20
31.2713369632
 11
155.412804528
 21
31.3681282026
 12
155.7018665869
 22
31.3681282026
 13
155.7018665869
 23
31.3681282026
  0
SOLID
  8
0
 62
7
  6
CONTINUOUS
 10
155.412804528
 20
31.2713369632
 11
155.7018665869
 21
31.3681282026
 12
155.412804528
 22
31.1422827828
 13
155.412804528
 23
31.1422827828
  0
SOLID
  8
0
 62
7
  6
CONTINUOUS
 10
155.412804528
 20
31.1422827828
 11
155.7018665869
 21
31.3681282026
 12
155.412804528
 22
30.9487004259
 13
155.412804528
 23
30.9487004259
  0
SOLID
  8
0
 62
7
  6
CONTINUOUS
 10
155.7018665869
 20
31.3681282026
 11
155.7018665869
 21
30.8519086025
 12
155.412804528
 22
30.9487004259
 13
155.412804528
 23
30.9487004259
  0
SOLID
  8
0
 62
7
  6
CONTINUOUS
 10
157.6096790869
 20
31.5939736268
 11
157.840929528
 21
31.6262383465
 12
158.0721793074
 22
31.6262383465
 13
158.0721793074
 23
31.6262383465
  0
SOLID
  8
0
 62
7
  6
CONTINUOUS
 10
158.0721793074
 20
31.6262383465
 11
158.2456168074
 21
31.5939736268
 12
157.6096790869
 22
31.5939736268
 13
157.6096790869
 23
31.5939736268
  0
SOLID
  8
0
 62
7
  6
CONTINUOUS
 10
157.4362415869
 20
31.5294472848
 11
157.6096790869
 21
31.5939736268
 12
158.2456168074
 22
31.5939736268
 13
158.2456168074
 23
31.5939736268
  0
SOLID
  8
0
 62
7
  6
CONTINUOUS
 10
158.2456168074
 20
31.5939736268
 11
158.4190543074
 21
31.5294472848
 12
157.4362415869
 22
31.5294472848
 13
157.4362415869
 23
31.5294472848
  0
SOLID
  8
0
 62
7
  6
CONTINUOUS
 10
158.4190543074
 20
31.5294472848
 11
157.840929528
 21
31.4971825369
 12
157.4362415869
 22
31.5294472848
 13
157.4362415869
 23
31.5294472848
  0
SOLID
  8
0
 62
7
  6
CONTINUOUS
 10
157.320617028
 20
31.4649199103
 11
157.4362415869
 21
31.5294472848
 12
157.840929528
 22
31.4971825369
 13
157.840929528
 23
31.4971825369
  0
SOLID
  8
0
 62
7
  6
CONTINUOUS
 10
157.840929528
 20
31.4971825369
 11
157.6096790869
 21
31.4649199103
 12
157.320617028
 22
31.4649199103
 13
157.320617028
 23
31.4649199103
  0
SOLID
  8
0
 62
7
  6
CONTINUOUS
 10
157.840929528
 20
31.4971825369
 11
158.4190543074
 21
31.5294472848
 12
158.0721793074
 22
31.4649199103
 13
158.0721793074
 23
31.4649199103
  0
SOLID
  8
0
 62
7
  6
CONTINUOUS
 10
158.4190543074
 20
31.5294472848
 11
158.534679528
 21
31.4649199103
 12
158.0721793074
 22
31.4649199103
 13
158.0721793074
 23
31.4649199103
  0
SOLID
  8
0
 62
7
  6
CONTINUOUS
 10
158.187804528
 20
31.4326554468
 11
158.0721793074
 21
31.4649199103
 12
158.534679528
 22
31.4649199103
 13
158.534679528
 23
31.4649199103
  0
SOLID
  8
0
 62
7
  6
CONTINUOUS
 10
158.187804528
 20
31.4326554468
 11
158.534679528
 21
31.4649199103
 12
158.3034290869
 22
31.3681288486
 13
158.3034290869
 23
31.3681288486
  0
SOLID
  8
0
 62
7
  6
CONTINUOUS
 10
158.534679528
 20
31.4649199103
 11
158.5924918074
 21
31.3681288486
 12
158.3034290869
 22
31.3681288486
 13
158.3034290869
 23
31.3681288486
  0
SOLID
  8
0
 62
7
  6
CONTINUOUS
 10
158.361242028
 20
31.2068093799
 11
158.3034290869
 21
31.3681288486
 12
158.5924918074
 22
31.3681288486
 13
158.5924918074
 23
31.3681288486
  0
SOLID
  8
0
 62
7
  6
CONTINUOUS
 10
158.5924918074
 20
31.3681288486
 11
158.6503040869
 21
31.2068093799
 12
158.361242028
 22
31.2068093799
 13
158.361242028
 23
31.2068093799
  0
SOLID
  8
0
 62
7
  6
CONTINUOUS
 10
157.6096790869
 20
31.4649199103
 11
157.4362415869
 21
31.4003926599
 12
157.320617028
 22
31.4649199103
 13
157.320617028
 23
31.4649199103
  0
SOLID
  8
0
 62
7
  6
CONTINUOUS
 10
157.4362415869
 20
31.4003926599
 11
157.320617028
 21
31.3358640533
 12
157.320617028
 22
31.4649199103
 13
157.320617028
 23
31.4649199103
  0
SOLID
  8
0
 62
7
  6
CONTINUOUS
 10
157.320617028
 20
31.3358640533
 11
157.0315543074
 21
30.5938003547
 12
157.320617028
 22
31.4649199103
 13
157.320617028
 23
31.4649199103
  0
SOLID
  8
0
 62
7
  6
CONTINUOUS
 10
157.320617028
 20
31.4649199103
 11
157.0315543074
 21
30.5938003547
 12
157.320617028
 22
31.6262383465
 13
157.320617028
 23
31.6262383465
  0
SOLID
  8
0
 62
7
  6
CONTINUOUS
 10
157.0315543074
 20
30.5938003547
 11
157.0315543074
 21
31.6262383465
 12
157.320617028
 22
31.6262383465
 13
157.320617028
 23
31.6262383465
  0
SOLID
  8
0
 62
7
  6
CONTINUOUS
 10
157.320617028
 20
31.3358640533
 11
157.320617028
 21
30.5938003547
 12
157.0315543074
 22
30.5938003547
 13
157.0315543074
 23
30.5938003547
  0
SOLID
  8
0
 62
7
  6
CONTINUOUS
 10
158.361242028
 20
30.5938003547
 11
158.361242028
 21
31.2068093799
 12
158.6503040869
 22
31.2068093799
 13
158.6503040869
 23
31.2068093799
  0
SOLID
  8
0
 62
7
  6
CONTINUOUS
 10
158.6503040869
 20
31.2068093799
 11
158.6503040869
 21
30.5938003547
 12
158.361242028
 22
30.5938003547
 13
158.361242028
 23
30.5938003547
  0
SOLID
  8
0
 62
7
  6
CONTINUOUS
 10
159.4596793074
 20
31.5939739474
 11
159.8065543074
 21
31.6262381969
 12
160.1534293074
 22
31.6262381969
 13
160.1534293074
 23
31.6262381969
  0
SOLID
  8
0
 62
7
  6
CONTINUOUS
 10
160.1534293074
 20
31.6262381969
 11
160.5003043074
 21
31.5939739474
 12
159.4596793074
 22
31.5939739474
 13
159.4596793074
 23
31.5939739474
  0
SOLID
  8
0
 62
7
  6
CONTINUOUS
 10
159.228429528
 20
31.5294468402
 11
159.4596793074
 21
31.5939739474
 12
160.5003043074
 22
31.5939739474
 13
160.5003043074
 23
31.5939739474
  0
SOLID
  8
0
 62
7
  6
CONTINUOUS
 10
159.228429528
 20
31.5294468402
 11
160.5003043074
 21
31.5939739304
 12
160.6737418074
 22
31.5617111435
 13
160.6737418074
 23
31.5617111435
  0
SOLID
  8
0
 62
7
  6
CONTINUOUS
 10
159.228429528
 20
31.5294468402
 11
160.6737418074
 21
31.5617111435
 12
159.8065543074
 22
31.4971825592
 13
159.8065543074
 23
31.4971825592
  0
SOLID
  8
0
 62
7
  6
CONTINUOUS
 10
159.8065543074
 20
31.4971825592
 11
160.6737418074
 21
31.5617111435
 12
160.1534293074
 22
31.4971825592
 13
160.1534293074
 23
31.4971825592
  0
SOLID
  8
0
 62
7
  6
CONTINUOUS
 10
160.6737418074
 20
31.5617111435
 11
160.8471793074
 21
31.4971825592
 12
160.1534293074
 22
31.4971825592
 13
160.1534293074
 23
31.4971825592
  0
SOLID
  8
0
 62
7
  6
CONTINUOUS
 10
160.5003043074
 20
31.4649197501
 11
160.1534293074
 21
31.4971825592
 12
160.8471793074
 22
31.4971825592
 13
160.8471793074
 23
31.4971825592
  0
SOLID
  8
0
 62
7
  6
CONTINUOUS
 10
159.1128043074
 20
31.4326555427
 11
159.228429528
 21
31.5294468402
 12
159.8065543074
 22
31.4971825592
 13
159.8065543074
 23
31.4971825592
  0
SOLID
  8
0
 62
7
  6
CONTINUOUS
 10
160.5003043074
 20
31.4649197501
 11
160.8471793074
 21
31.4971825592
 12
160.615929528
 22
31.4326555427
 13
160.615929528
 23
31.4326555427
  0
SOLID
  8
0
 62
7
  6
CONTINUOUS
 10
160.615929528
 20
31.4326555427
 11
160.8471793074
 21
31.4971825592
 12
160.6737418074
 22
31.3681283005
 13
160.6737418074
 23
31.3681283005
  0
SOLID
  8
0
 62
7
  6
CONTINUOUS
 10
160.8471793074
 20
31.4971825592
 11
160.9628038663
 21
31.3681283005
 12
160.6737418074
 22
31.3681283005
 13
160.6737418074
 23
31.3681283005
  0
SOLID
  8
0
 62
7
  6
CONTINUOUS
 10
150.2674918074
 20
31.4649197501
 11
149.7471793074
 21
31.4326554237
 12
150.498741835
 22
31.4971824493
 13
150.498741835
 23
31.4971824493
  0
SOLID
  8
0
 62
7
  6
CONTINUOUS
 10
149.7471793074
 20
31.4326554237
 11
149.8628043005
 21
31.4971824493
 12
150.498741835
 22
31.4971824493
 13
150.498741835
 23
31.4971824493
  0
SOLID
  8
0
 62
7
  6
CONTINUOUS
 10
150.2674918074
 20
31.4649197501
 11
150.1518667936
 21
31.4326554237
 12
149.7471793074
 22
31.4326554237
 13
149.7471793074
 23
31.4326554237
  0
SOLID
  8
0
 62
7
  6
CONTINUOUS
 10
149.6315543091
 20
31.3036012664
 11
149.7471793074
 21
31.4326554237
 12
150.1518667936
 22
31.4326554237
 13
150.1518667936
 23
31.4326554237
  0
SOLID
  8
0
 62
7
  6
CONTINUOUS
 10
153.9674919177
 20
31.4326554237
 11
154.6612419177
 21
31.4971825369
 12
154.4299918074
 22
31.4649197501
 13
154.4299918074
 23
31.4649197501
  0
SOLID
  8
0
 62
7
  6
CONTINUOUS
 10
154.4299918074
 20
31.4649197501
 11
154.3143669177
 21
31.4326554237
 12
153.9674919177
 22
31.4326554237
 13
153.9674919177
 23
31.4326554237
  0
SOLID
  8
0
 62
7
  6
CONTINUOUS
 10
153.9674919177
 20
31.3681283335
 11
153.9674919177
 21
31.4326554237
 12
154.3143669177
 22
31.4326554237
 13
154.3143669177
 23
31.4326554237
  0
SOLID
  8
0
 62
7
  6
CONTINUOUS
 10
154.3143669177
 20
31.4326554237
 11
154.2565543074
 21
31.3681283335
 12
153.9674919177
 22
31.3681283335
 13
153.9674919177
 23
31.3681283335
  0
SOLID
  8
0
 62
7
  6
CONTINUOUS
 10
159.1128043074
 20
31.4326555528
 11
159.8065543074
 21
31.4971825369
 12
159.575304528
 22
31.4649197501
 13
159.575304528
 23
31.4649197501
  0
SOLID
  8
0
 62
7
  6
CONTINUOUS
 10
159.575304528
 20
31.4649197501
 11
159.4596793074
 21
31.4326555528
 12
159.1128043074
 22
31.4326555528
 13
159.1128043074
 23
31.4326555528
  0
SOLID
  8
0
 62
7
  6
CONTINUOUS
 10
159.1128043074
 20
31.3681284626
 11
159.1128043074
 21
31.4326555528
 12
159.4596793074
 22
31.4326555528
 13
159.4596793074
 23
31.4326555528
  0
SOLID
  8
0
 62
7
  6
CONTINUOUS
 10
159.4596793074
 20
31.4326555528
 11
159.401867028
 21
31.3681284626
 12
159.1128043074
 22
31.3681284626
 13
159.1128043074
 23
31.3681284626
  0
SOLID
  8
0
 62
7
  6
CONTINUOUS
 10
159.228429528
 20
31.2390741763
 11
159.1128043074
 21
31.3681284626
 12
159.401867028
 22
31.3681284626
 13
159.401867028
 23
31.3681284626
  0
SOLID
  8
0
 62
7
  6
CONTINUOUS
 10
149.6315543091
 20
31.3036012664
 11
150.1518667936
 21
31.4326554468
 12
149.9784292936
 22
31.3358640533
 13
149.9784292936
 23
31.3358640533
  0
SOLID
  8
0
 62
7
  6
CONTINUOUS
 10
149.9784292936
 20
31.3358640533
 11
149.9206168074
 21
31.2713369632
 12
149.6315543091
 22
31.3036012664
 13
149.6315543091
 23
31.3036012664
  0
SOLID
  8
0
 62
7
  6
CONTINUOUS
 10
149.5737418074
 20
31.1100184796
 11
149.6315543091
 21
31.3036012664
 12
149.9206168074
 22
31.2713369632
 13
149.9206168074
 23
31.2713369632
  0
SOLID
  8
0
 62
7
  6
CONTINUOUS
 10
154.4299918074
 20
31.2390741763
 11
154.7768668074
 21
31.271336924
 12
155.412804528
 22
31.271336924
 13
155.412804528
 23
31.271336924
  0
SOLID
  8
0
 62
7
  6
CONTINUOUS
 10
154.4299918074
 20
31.2390741763
 11
155.412804528
 21
31.271336924
 12
154.1987416972
 22
31.1745462761
 13
154.1987416972
 23
31.1745462761
  0
SOLID
  8
0
 62
7
  6
CONTINUOUS
 10
154.1987416972
 20
31.1745462761
 11
155.412804528
 21
31.271336924
 12
154.7768668074
 22
31.1422827436
 13
154.7768668074
 23
31.1422827436
  0
SOLID
  8
0
 62
7
  6
CONTINUOUS
 10
155.412804528
 20
31.271336924
 11
155.412804528
 21
31.1422827436
 12
154.7768668074
 22
31.1422827436
 13
154.7768668074
 23
31.1422827436
  0
SOLID
  8
0
 62
7
  6
CONTINUOUS
 10
159.228429528
 20
31.2390745501
 11
159.401867028
 21
31.3681283566
 12
159.4596793074
 22
31.3036012664
 13
159.4596793074
 23
31.3036012664
  0
SOLID
  8
0
 62
7
  6
CONTINUOUS
 10
159.4596793074
 20
31.3036012664
 11
159.6331168074
 21
31.2390745501
 12
159.228429528
 22
31.2390745501
 13
159.228429528
 23
31.2390745501
  0
SOLID
  8
0
 62
7
  6
CONTINUOUS
 10
159.4596793074
 20
31.1422827828
 11
159.228429528
 21
31.2390745501
 12
159.6331168074
 22
31.2390745501
 13
159.6331168074
 23
31.2390745501
  0
SOLID
  8
0
 62
7
  6
CONTINUOUS
 10
159.6331168074
 20
31.2390745501
 11
160.615929528
 21
31.0777556927
 12
159.4596793074
 22
31.1422827828
 13
159.4596793074
 23
31.1422827828
  0
SOLID
  8
0
 62
7
  6
CONTINUOUS
 10
160.442492028
 20
30.9809646623
 11
159.4596793074
 21
31.1422827828
 12
160.615929528
 22
31.0777556927
 13
160.615929528
 23
31.0777556927
  0
SOLID
  8
0
 62
7
  6
CONTINUOUS
 10
160.615929528
 20
31.0777556927
 11
160.8471793074
 21
30.9809646623
 12
160.442492028
 22
30.9809646623
 13
160.442492028
 23
30.9809646623
  0
SOLID
  8
0
 62
7
  6
CONTINUOUS
 10
160.615929528
 20
30.9164372091
 11
160.442492028
 21
30.9809646623
 12
160.8471793074
 22
30.9809646623
 13
160.8471793074
 23
30.9809646623
  0
SOLID
  8
0
 62
7
  6
CONTINUOUS
 10
160.615929528
 20
30.9164372091
 11
160.8471793074
 21
30.9809646623
 12
160.6737418074
 22
30.8519089441
 13
160.6737418074
 23
30.8519089441
  0
SOLID
  8
0
 62
7
  6
CONTINUOUS
 10
160.8471793074
 20
30.9809646623
 11
160.9628038663
 21
30.8519089441
 12
160.6737418074
 22
30.8519089441
 13
160.6737418074
 23
30.8519089441
  0
SOLID
  8
0
 62
7
  6
CONTINUOUS
 10
160.615929528
 20
30.7873818593
 11
160.6737418074
 21
30.8519089441
 12
160.9628038663
 22
30.8519089441
 13
160.9628038663
 23
30.8519089441
  0
SOLID
  8
0
 62
7
  6
CONTINUOUS
 10
160.9628038663
 20
30.8519089441
 11
160.9628038663
 21
30.7873818593
 12
160.615929528
 22
30.7873818593
 13
160.615929528
 23
30.7873818593
  0
SOLID
  8
0
 62
7
  6
CONTINUOUS
 10
160.5003043074
 20
30.7551187255
 11
160.615929528
 21
30.7873818593
 12
160.9628038663
 22
30.7873818593
 13
160.9628038663
 23
30.7873818593
  0
SOLID
  8
0
 62
7
  6
CONTINUOUS
 10
160.5003043074
 20
30.7551187255
 11
160.9628038663
 21
30.7873818593
 12
160.269054528
 22
30.7228547745
 13
160.269054528
 23
30.7228547745
  0
SOLID
  8
0
 62
7
  6
CONTINUOUS
 10
160.9628038663
 20
30.7873818593
 11
160.8471793074
 21
30.6905916353
 12
160.269054528
 22
30.7228547745
 13
160.269054528
 23
30.7228547745
  0
SOLID
  8
0
 62
7
  6
CONTINUOUS
 10
160.8471793074
 20
30.6905916353
 11
159.401867028
 21
30.658327332
 12
160.269054528
 22
30.7228547745
 13
160.269054528
 23
30.7228547745
  0
SOLID
  8
0
 62
7
  6
CONTINUOUS
 10
160.269054528
 20
30.7228547745
 11
159.401867028
 21
30.658327332
 12
159.922179528
 22
30.7228547745
 13
159.922179528
 23
30.7228547745
  0
SOLID
  8
0
 62
7
  6
CONTINUOUS
 10
159.401867028
 20
30.658327332
 11
159.228429528
 21
30.7228547745
 12
159.922179528
 22
30.7228547745
 13
159.922179528
 23
30.7228547745
  0
SOLID
  8
0
 62
7
  6
CONTINUOUS
 10
159.401867028
 20
30.658327332
 11
160.8471793074
 21
30.6905916353
 12
159.575304528
 22
30.6260629858
 13
159.575304528
 23
30.6260629858
  0
SOLID
  8
0
 62
7
  6
CONTINUOUS
 10
160.8471793074
 20
30.6905916353
 11
160.615929528
 21
30.6260629858
 12
159.575304528
 22
30.6260629858
 13
159.575304528
 23
30.6260629858
  0
SOLID
  8
0
 62
7
  6
CONTINUOUS
 10
159.922179528
 20
30.5938006049
 11
159.575304528
 21
30.6260629858
 12
160.615929528
 22
30.6260629858
 13
160.615929528
 23
30.6260629858
  0
SOLID
  8
0
 62
7
  6
CONTINUOUS
 10
160.615929528
 20
30.6260629858
 11
160.269054528
 21
30.5938006049
 12
159.922179528
 22
30.5938006049
 13
159.922179528
 23
30.5938006049
  0
SOLID
  8
0
 62
7
  6
CONTINUOUS
 10
149.5737418074
 20
31.1100184796
 11
149.9206168074
 21
31.2713369632
 12
149.8628043005
 22
31.1422827828
 13
149.8628043005
 23
31.1422827828
  0
SOLID
  8
0
 62
7
  6
CONTINUOUS
 10
149.8628043005
 20
31.1422827828
 11
149.8628043005
 21
31.0454914852
 12
149.5737418074
 22
31.1100184796
 13
149.5737418074
 23
31.1100184796
  0
SOLID
  8
0
 62
7
  6
CONTINUOUS
 10
149.6315543091
 20
30.9164372091
 11
149.5737418074
 21
31.1100184796
 12
149.8628043005
 22
31.0454914852
 13
149.8628043005
 23
31.0454914852
  0
SOLID
  8
0
 62
7
  6
CONTINUOUS
 10
149.8628043005
 20
31.0454914852
 11
149.9784292936
 21
30.8841729058
 12
149.6315543091
 22
30.9164372091
 13
149.6315543091
 23
30.9164372091
  0
SOLID
  8
0
 62
7
  6
CONTINUOUS
 10
149.7471793074
 20
30.7873813202
 11
149.6315543091
 21
30.9164372091
 12
149.9784292936
 22
30.8841729058
 13
149.9784292936
 23
30.8841729058
  0
SOLID
  8
0
 62
7
  6
CONTINUOUS
 10
149.9784292936
 20
30.8841729058
 11
150.1518667936
 21
30.7873813202
 12
149.7471793074
 22
30.7873813202
 13
149.7471793074
 23
30.7873813202
  0
SOLID
  8
0
 62
7
  6
CONTINUOUS
 10
149.8628043005
 20
30.7228547004
 11
149.7471793074
 21
30.7873813202
 12
150.1518667936
 22
30.7873813202
 13
150.1518667936
 23
30.7873813202
  0
SOLID
  8
0
 62
7
  6
CONTINUOUS
 10
150.1518667936
 20
30.7873813202
 11
150.498741835
 21
30.7228547004
 12
149.8628043005
 22
30.7228547004
 13
149.8628043005
 23
30.7228547004
  0
SOLID
  8
0
 62
7
  6
CONTINUOUS
 10
150.0362418212
 20
30.658327332
 11
149.8628043005
 21
30.7228547004
 12
150.498741835
 22
30.7228547004
 13
150.498741835
 23
30.7228547004
  0
SOLID
  8
0
 62
7
  6
CONTINUOUS
 10
154.0831168074
 20
31.1100184386
 11
154.1987416972
 21
31.1745462761
 12
154.7768668074
 22
31.1422827828
 13
154.7768668074
 23
31.1422827828
  0
SOLID
  8
0
 62
7
  6
CONTINUOUS
 10
154.7768668074
 20
31.1422827828
 11
154.5456166972
 21
31.1100184386
 12
154.0831168074
 22
31.1100184386
 13
154.0831168074
 23
31.1100184386
  0
SOLID
  8
0
 62
7
  6
CONTINUOUS
 10
153.9674919177
 20
30.9809642992
 11
154.0831168074
 21
31.1100184386
 12
154.5456166972
 22
31.1100184386
 13
154.5456166972
 23
31.1100184386
  0
SOLID
  8
0
 62
7
  6
CONTINUOUS
 10
154.3143669177
 20
31.0132277988
 11
153.9674919177
 21
30.9809642992
 12
154.4299918074
 22
31.0777556927
 13
154.4299918074
 23
31.0777556927
  0
SOLID
  8
0
 62
7
  6
CONTINUOUS
 10
153.9674919177
 20
30.9809642992
 11
154.5456166972
 21
31.1100184796
 12
154.4299918074
 22
31.0777556927
 13
154.4299918074
 23
31.0777556927
  0
SOLID
  8
0
 62
7
  6
CONTINUOUS
 10
154.3143669177
 20
31.0132277988
 11
154.2565543074
 21
30.9164372091
 12
153.9674919177
 22
30.9809642992
 13
153.9674919177
 23
30.9809642992
  0
SOLID
  8
0
 62
7
  6
CONTINUOUS
 10
153.9674919177
 20
30.8841729058
 11
153.9674919177
 21
30.9809642992
 12
154.2565543074
 22
30.9164372091
 13
154.2565543074
 23
30.9164372091
  0
SOLID
  8
0
 62
7
  6
CONTINUOUS
 10
154.2565543074
 20
30.9164372091
 11
154.2565543074
 21
30.8519086025
 12
153.9674919177
 22
30.8841729058
 13
153.9674919177
 23
30.8841729058
  0
SOLID
  8
0
 62
7
  6
CONTINUOUS
 10
154.0253041972
 20
30.7551187255
 11
153.9674919177
 21
30.8841729058
 12
154.2565543074
 22
30.8519086025
 13
154.2565543074
 23
30.8519086025
  0
SOLID
  8
0
 62
7
  6
CONTINUOUS
 10
155.412804528
 20
30.9487004259
 11
155.7018665869
 21
30.8519086025
 12
155.3549915869
 22
30.8841729058
 13
155.3549915869
 23
30.8841729058
  0
SOLID
  8
0
 62
7
  6
CONTINUOUS
 10
155.1815540869
 20
30.7873815123
 11
155.3549915869
 21
30.8841729058
 12
155.7018665869
 22
30.8519086025
 13
155.7018665869
 23
30.8519086025
  0
SOLID
  8
0
 62
7
  6
CONTINUOUS
 10
155.1815540869
 20
30.7873815123
 11
155.7018665869
 21
30.8519086025
 12
155.412804528
 22
30.7551187255
 13
155.412804528
 23
30.7551187255
  0
SOLID
  8
0
 62
7
  6
CONTINUOUS
 10
155.7018665869
 20
30.8519086025
 11
155.759679528
 21
30.6905916353
 12
155.412804528
 22
30.7551187255
 13
155.412804528
 23
30.7551187255
  0
SOLID
  8
0
 62
7
  6
CONTINUOUS
 10
155.4706168074
 20
30.658327332
 11
155.412804528
 21
30.7551187255
 12
155.759679528
 22
30.6905916353
 13
155.759679528
 23
30.6905916353
  0
SOLID
  8
0
 62
7
  6
CONTINUOUS
 10
155.4706168074
 20
30.658327332
 11
155.759679528
 21
30.6905916353
 12
155.5284290869
 22
30.5938002079
 13
155.5284290869
 23
30.5938002079
  0
SOLID
  8
0
 62
7
  6
CONTINUOUS
 10
155.759679528
 20
30.6905916353
 11
155.8174918074
 21
30.5938002079
 12
155.5284290869
 22
30.5938002079
 13
155.5284290869
 23
30.5938002079
  0
SOLID
  8
0
 62
7
  6
CONTINUOUS
 10
151.0768668626
 20
30.8196456577
 11
151.1346793074
 21
30.9164373395
 12
151.4237418626
 22
30.9164373395
 13
151.4237418626
 23
30.9164373395
  0
SOLID
  8
0
 62
7
  6
CONTINUOUS
 10
151.4237418626
 20
30.9164373395
 11
151.3659292523
 21
30.7873815123
 12
151.0768668626
 22
30.8196456577
 13
151.0768668626
 23
30.8196456577
  0
SOLID
  8
0
 62
7
  6
CONTINUOUS
 10
150.9034292799
 20
30.7551187255
 11
151.0768668626
 21
30.8196456577
 12
151.3659292523
 22
30.7873815123
 13
151.3659292523
 23
30.7873815123
  0
SOLID
  8
0
 62
7
  6
CONTINUOUS
 10
150.9034292799
 20
30.7551187255
 11
151.3659292523
 21
30.7873815123
 12
150.498741835
 22
30.7228544222
 13
150.498741835
 23
30.7228544222
  0
SOLID
  8
0
 62
7
  6
CONTINUOUS
 10
151.3659292523
 20
30.7873815123
 11
151.1924917523
 21
30.6905916353
 12
150.498741835
 22
30.7228544222
 13
150.498741835
 23
30.7228544222
  0
SOLID
  8
0
 62
7
  6
CONTINUOUS
 10
150.0362418212
 20
30.658327332
 11
150.498741835
 21
30.7228544222
 12
151.1924917523
 22
30.6905916353
 13
151.1924917523
 23
30.6905916353
  0
SOLID
  8
0
 62
7
  6
CONTINUOUS
 10
150.0362418212
 20
30.658327332
 11
151.1924917523
 21
30.6905916353
 12
150.2096793212
 22
30.6260631011
 13
150.2096793212
 23
30.6260631011
  0
SOLID
  8
0
 62
7
  6
CONTINUOUS
 10
151.1924917523
 20
30.6905916353
 11
150.9612418074
 21
30.6260631011
 12
150.2096793212
 22
30.6260631011
 13
150.2096793212
 23
30.6260631011
  0
SOLID
  8
0
 62
7
  6
CONTINUOUS
 10
150.5565542799
 20
30.5938002419
 11
150.2096793212
 21
30.6260631011
 12
150.9612418074
 22
30.6260631011
 13
150.9612418074
 23
30.6260631011
  0
SOLID
  8
0
 62
7
  6
CONTINUOUS
 10
154.0253041972
 20
30.7551187255
 11
154.2565543074
 21
30.8519086025
 12
154.3143669177
 22
30.7873815123
 13
154.3143669177
 23
30.7873815123
  0
SOLID
  8
0
 62
7
  6
CONTINUOUS
 10
154.3143669177
 20
30.7873815123
 11
154.5456166972
 21
30.7228544222
 12
154.0253041972
 22
30.7551187255
 13
154.0253041972
 23
30.7551187255
  0
SOLID
  8
0
 62
7
  6
CONTINUOUS
 10
154.1987416972
 20
30.658327332
 11
154.0253041972
 21
30.7551187255
 12
154.5456166972
 22
30.7228544222
 13
154.5456166972
 23
30.7228544222
  0
SOLID
  8
0
 62
7
  6
CONTINUOUS
 10
154.8924916972
 20
30.7228544637
 11
155.1815540869
 21
30.7873815123
 12
155.412804528
 22
30.7551187255
 13
155.412804528
 23
30.7551187255
  0
SOLID
  8
0
 62
7
  6
CONTINUOUS
 10
155.412804528
 20
30.7551187255
 11
155.3549915869
 21
30.6905916353
 12
154.8924916972
 22
30.7228544637
 13
154.8924916972
 23
30.7228544637
  0
SOLID
  8
0
 62
7
  6
CONTINUOUS
 10
155.3549915869
 20
30.6905916353
 11
154.1987416972
 21
30.658327332
 12
154.8924916972
 22
30.7228544637
 13
154.8924916972
 23
30.7228544637
  0
SOLID
  8
0
 62
7
  6
CONTINUOUS
 10
154.1987416972
 20
30.658327332
 11
154.5456166972
 21
30.7228544637
 12
154.8924916972
 22
30.7228544637
 13
154.8924916972
 23
30.7228544637
  0
SOLID
  8
0
 62
7
  6
CONTINUOUS
 10
154.1987416972
 20
30.658327332
 11
155.3549915869
 21
30.6905916353
 12
154.3143669177
 22
30.6260630541
 13
154.3143669177
 23
30.6260630541
  0
SOLID
  8
0
 62
7
  6
CONTINUOUS
 10
155.3549915869
 20
30.6905916353
 11
155.1815540869
 21
30.6260630541
 12
154.3143669177
 22
30.6260630541
 13
154.3143669177
 23
30.6260630541
  0
SOLID
  8
0
 62
7
  6
CONTINUOUS
 10
154.5456166972
 20
30.5938002188
 11
154.3143669177
 21
30.6260630541
 12
155.1815540869
 22
30.6260630541
 13
155.1815540869
 23
30.6260630541
  0
SOLID
  8
0
 62
7
  6
CONTINUOUS
 10
155.1815540869
 20
30.6260630541
 11
154.8924916972
 21
30.5938002188
 12
154.5456166972
 22
30.5938002188
 13
154.5456166972
 23
30.5938002188
  0
SOLID
  8
0
 62
7
  6
CONTINUOUS
 10
159.575304528
 20
30.7551187255
 11
159.228429528
 21
30.7228544637
 12
159.4596793074
 22
30.7873815123
 13
159.4596793074
 23
30.7873815123
  0
SOLID
  8
0
 62
7
  6
CONTINUOUS
 10
159.4596793074
 20
30.7873815123
 11
159.228429528
 21
30.7228544637
 12
159.401867028
 22
30.851908644
 13
159.401867028
 23
30.851908644
  0
SOLID
  8
0
 62
7
  6
CONTINUOUS
 10
159.228429528
 20
30.7228544637
 11
159.1128043074
 21
30.851908644
 12
159.401867028
 22
30.851908644
 13
159.401867028
 23
30.851908644
  0
SOLID
  8
0
 62
7
  6
CONTINUOUS
 10
159.575304528
 20
30.7551187255
 11
159.922179528
 21
30.7228544637
 12
159.228429528
 22
30.7228544637
 13
159.228429528
 23
30.7228544637
  0
SOLID
  8
0
 62
7
  6
CONTINUOUS
 10
156.279992028
 20
30.5938002419
 11
156.279992028
 21
31.6262382337
 12
156.5690540869
 22
30.5938002419
 13
156.5690540869
 23
31.6262382337
  0
ENDBLK
  8
0
  6
BYBLOCK
 62
0
  0
BLOCK
  8
0
 62
2
  6
CONTINUOUS
  2
SYMBOL_3_BL0
 70
64
 10
32.1213064866
 20
19.8534310916
  0
TEXT
  8
0
 62
7
  6
CONTINUOUS
 10
18.3860103289
 20
19.2268451992
  7
TEXTSTYLE_3
 40
2.7338706658
  1
Ammeraal Beltech
 41
1.0
 51
15.0
 72
0
  0
TEXT
  8
0
 62
7
  6
CONTINUOUS
 10
29.1868111546
 20
16.9533085264
  7
TEXTSTYLE_4
 40
1.0935482663
  1
Innovation & Service in Belting
 41
1.0
 72
0
  0
LINE
  8
0
 62
7
  6
CONTINUOUS
 10
12.3614696776
 20
19.9934385078
 11
13.1396216709
 21
23.6543558055
  0
LINE
  8
0
 62
7
  6
CONTINUOUS
 10
23.2347899607
 20
27.3177497171
 11
13.6274394139
 21
24.1961322958
  0
LINE
  8
0
 62
7
  6
CONTINUOUS
 10
12.5867530099
 20
19.3000877048
 11
20.093828271
 21
12.5406867788
  0
LINE
  8
0
 62
7
  6
CONTINUOUS
 10
12.8492874206
 20
20.5352149982
 11
23.6575567857
 21
24.0470345971
  0
LINE
  8
0
 62
7
  6
CONTINUOUS
 10
23.6533516486
 20
13.6972460334
 11
15.2078919798
 21
21.3015720751
  0
LINE
  8
0
 62
7
  6
CONTINUOUS
 10
24.1731743684
 20
26.4728246013
 11
23.1966148312
 21
21.8784731989
  0
LINE
  8
0
 62
7
  6
CONTINUOUS
 10
22.4968128835
 20
18.5861638851
 11
21.810364672
 21
15.3566789607
  0
LINE
  8
0
 62
7
  6
CONTINUOUS
 10
24.8542704669
 20
14.087448211
 11
25.8105020025
 21
18.5861638851
  0
LINE
  8
0
 62
7
  6
CONTINUOUS
 10
26.5103039502
 20
21.8784731989
 11
26.9545457526
 21
23.9684665583
  0
LINE
  8
0
 62
7
  6
CONTINUOUS
 10
20.8069293463
 20
12.3891124661
 11
24.3664527239
 21
13.5456717207
  0
LINE
  8
0
 62
7
  6
CONTINUOUS
 10
23.9478910361
 20
27.1661754044
 11
26.7292624203
 21
24.6618173613
  0
ARC
  8
0
 62
7
  6
CONTINUOUS
 10
13.8527227462
 20
23.5027814928
 40
0.7290321776
 50
108.0
 51
168.0
  0
ARC
  8
0
 62
7
  6
CONTINUOUS
 10
23.4600732931
 20
26.624398914
 40
0.7290321776
 50
348.0
 51
108.0
  0
ARC
  8
0
 62
7
  6
CONTINUOUS
 10
26.2414446773
 20
24.120040871
 40
0.7290321776
 50
348.0
 51
48.0
  0
ARC
  8
0
 62
7
  6
CONTINUOUS
 10
20.581646014
 20
13.0824632691
 40
0.7290321776
 50
228.0
 51
288.0
  0
ARC
  8
0
 62
7
  6
CONTINUOUS
 10
13.0745707529
 20
19.8418641951
 40
0.7290321776
 50
108.0
 51
228.0
  0
ARC
  8
0
 62
7
  6
CONTINUOUS
 10
24.1411693916
 20
14.2390225237
 40
0.7290321776
 50
228.0
 51
348.0
  0
ENDBLK
  8
0
  6
BYBLOCK
 62
0
  0
ENDSEC
  0
SECTION
  2
ENTITIES
  0
TEXT
  8
0
 62
5
  6
CONTINUOUS
 10
96.0
 20
25.636
  7
TEXTSTYLE_2
 40
2.8
  1
Scale :
 41
0.6
 51
0.000019
 72
0
  0
TEXT
  8
0
 62
5
  6
CONTINUOUS
 10
116.0
 20
25.636
  7
TEXTSTYLE_2
 40
2.8
  1
Belt type:
 41
0.6
 51
0.000019
 72
0
  0
INSERT
  8
0
 62
2
  6
CONTINUOUS
  2
SYMBOL_3_BL0
 10
32.1213064866
 20
19.8534310916
  0
INSERT
  8
0
 62
2
  6
CONTINUOUS
  2
SYMBOL_8_BL1
 10
173.5956734183
 20
35.5937998301
  0
LINE
  8
0
 62
2
  6
CONTINUOUS
 10
10.0
 20
30.0
 11
200.0
 21
30.0
  0
LINE
  8
0
 62
2
  6
CONTINUOUS
 10
10.0
 20
30.0
 11
10.0
 21
10.0
  0
LINE
  8
0
 62
2
  6
CONTINUOUS
 10
10.0
 20
10.0
 11
200.0
 21
10.0
  0
LINE
  8
0
 62
2
  6
CONTINUOUS
 10
95.0
 20
30.0
 11
95.0
 21
10.0
  0
LINE
  8
0
 62
2
  6
CONTINUOUS
 10
115.0
 20
30.0
 11
115.0
 21
10.0
  0
LINE
  8
0
 62
2
  6
CONTINUOUS
 10
200.0
 20
30.0
 11
200.0
 21
10.0
  0
TEXT
  8
0
 62
5
  6
CONTINUOUS
 10
13.0
 20
23.303
  7
TEXTSTYLE_5
 40
1.52
  1
                                                                     Ammeraal Beltech Modular A/S
 41
1.0
 72
0
  0
TEXT
  8
0
 62
5
  6
CONTINUOUS
 10
13.0
 20
20.595
  7
TEXTSTYLE_5
 40
1.5
  1
                                                                      Hjulmagervej 21,  7100 Vejle,  DK
 41
1.0
 72
0
  0
TEXT
  8
0
 62
5
  6
CONTINUOUS
 10
13.0
 20
17.881
  7
TEXTSTYLE_5
 40
1.495
  1
                                                                      tel: 
 41
1.0
 72
0
  0
TEXT
  8
0
 62
5
  6
CONTINUOUS
 10
57.9869465649
 20
17.881
  7
TEXTSTYLE_5
 40
1.51
  1
+45 75723100     fax: +45 75723348
 41
1.0
 72
0
  0
TEXT
  8
0
 62
5
  6
CONTINUOUS
 10
13.0
 20
15.177
  7
TEXTSTYLE_5
 40
1.5
  1
                                                                      admin@unichains.dk  www.unichains.com
 41
1.0
 72
0
  0
TEXT
  8
0
 62
5
  6
CONTINUOUS
 10
99.75
 20
13.75
  7
TEXTSTYLE_6
 40
5.0
  1
1:1
 41
0.7
 72
1
 11
105.0
 21
13.75
  0
TEXT
  8
0
 62
5
  6
CONTINUOUS
 10
118.0
 20
13.75
  7
TEXTSTYLE_7
 40
7.5
  1
uni MPB 18% K275
 41
0.5915364583
 72
0
  0
LINE
  8
0
 62
7
  6
CONTINUOUS
 10
210.0
 20
0.0
 11
0.0
 21
0.0
  0
LINE
  8
0
 62
7
  6
CONTINUOUS
 10
10.0
 20
10.0
 11
200.0
 21
10.0
  0
LINE
  8
0
 62
7
  6
CONTINUOUS
 10
10.0
 20
30.0
 11
200.0
 21
30.0
  0
LINE
  8
0
 62
7
  6
CONTINUOUS
 10
0.0
 20
0.0
 11
0.0
 21
297.0
  0
LINE
  8
0
 62
7
  6
CONTINUOUS
 10
10.0
 20
10.0
 11
10.0
 21
287.0
  0
LINE
  8
0
 62
7
  6
CONTINUOUS
 10
200.0
 20
287.0
 11
200.0
 21
10.0
  0
LINE
  8
0
 62
7
  6
CONTINUOUS
 10
210.0
 20
0.0
 11
210.0
 21
297.0
  0
LINE
  8
0
 62
7
  6
CONTINUOUS
 10
10.0
 20
287.0
 11
200.0
 21
287.0
  0
LINE
  8
0
 62
7
  6
CONTINUOUS
 10
0.0
 20
297.0
 11
210.0
 21
297.0
  0
POLYLINE
  8
0
 62
7
  6
CONTINUOUS
 66
1
 70
0
  0
VERTEX
  8
0
 62
7
  6
CONTINUOUS
 10
56.0849416027
 20
230.75
  0
VERTEX
  8
0
 62
7
  6
CONTINUOUS
 10
56.084140802
 20
230.7228094436
  0
VERTEX
  8
0
 62
7
  6
CONTINUOUS
 10
56.092696227
 20
230.6485421728
  0
VERTEX
  8
0
 62
7
  6
CONTINUOUS
 10
56.1087647739
 20
230.5436420665
  0
VERTEX
  8
0
 62
7
  6
CONTINUOUS
 10
56.1287967497
 20
230.431300402
  0
SEQEND
  0
LINE
  8
AXES
 62
2
  6
CONTINUOUS
 10
58.9572229259
 20
223.63
 11
58.9572229259
 21
221.87
  0
LINE
  8
AXES
 62
2
  6
CENTER
 10
58.9572229259
 20
218.35
 11
58.9572229259
 21
216.6
  0
LINE
  8
AXES
 62
2
  6
CENTER
 10
58.9572229259
 20
227.15
 11
58.9572229259
 21
228.9
  0
POLYLINE
  8
0
 62
7
  6
CONTINUOUS
 66
1
 70
0
  0
VERTEX
  8
0
 62
7
  6
CONTINUOUS
 10
52.9168854229
 20
216.774954027
  0
VERTEX
  8
0
 62
7
  6
CONTINUOUS
 10
52.8098413615
 20
216.885727497
  0
VERTEX
  8
0
 62
7
  6
CONTINUOUS
 10
52.7216510858
 20
216.9881435809
  0
VERTEX
  8
0
 62
7
  6
CONTINUOUS
 10
52.6507603461
 20
217.0839723232
  0
SEQEND
  0
POLYLINE
  8
0
 62
7
  6
CONTINUOUS
 66
1
 70
0
  0
VERTEX
  8
0
 62
7
  6
CONTINUOUS
 10
56.0850394797
 20
214.75
  0
VERTEX
  8
0
 62
7
  6
CONTINUOUS
 10
56.0928460399
 20
214.7752491918
  0
VERTEX
  8
0
 62
7
  6
CONTINUOUS
 10
56.1047172867
 20
214.8493226179
  0
VERTEX
  8
0
 62
7
  6
CONTINUOUS
 10
56.1192877359
 20
214.9679839432
  0
SEQEND
  0
LINE
  8
0
 62
7
  6
CONTINUOUS
 10
53.113685611
 20
216.5802885995
 11
53.0923941646
 21
216.597457145
  0
POLYLINE
  8
0
 62
7
  6
CONTINUOUS
 66
1
 70
0
  0
VERTEX
  8
0
 62
7
  6
CONTINUOUS
 10
63.5316805492
 20
230.6277886903
  0
VERTEX
  8
0
 62
7
  6
CONTINUOUS
 10
63.5329822873
 20
230.6846982029
  0
VERTEX
  8
0
 62
7
  6
CONTINUOUS
 10
63.5324128511
 20
230.7114537663
  0
VERTEX
  8
0
 62
7
  6
CONTINUOUS
 10
63.5332056172
 20
230.7335941976
  0
VERTEX
  8
0
 62
7
  6
CONTINUOUS
 10
63.5347775172
 20
230.746494333
  0
VERTEX
  8
0
 62
7
  6
CONTINUOUS
 10
63.5329742304
 20
230.75
  0
SEQEND
  0
POLYLINE
  8
0
 62
7
  6
CONTINUOUS
 66
1
 70
0
  0
VERTEX
  8
0
 62
7
  6
CONTINUOUS
 10
63.5329742304
 20
230.5
  0
VERTEX
  8
0
 62
7
  6
CONTINUOUS
 10
63.5371420581
 20
230.5204486073
  0
VERTEX
  8
0
 62
7
  6
CONTINUOUS
 10
63.5373075714
 20
230.5438282848
  0
VERTEX
  8
0
 62
7
  6
CONTINUOUS
 10
63.5352316574
 20
230.5699058339
  0
VERTEX
  8
0
 62
7
  6
CONTINUOUS
 10
63.5327901275
 20
230.5982718523
  0
VERTEX
  8
0
 62
7
  6
CONTINUOUS
 10
63.5316805492
 20
230.6277886903
  0
SEQEND
  0
POLYLINE
  8
0
 62
7
  6
CONTINUOUS
 66
1
 70
0
  0
VERTEX
  8
0
 62
7
  6
CONTINUOUS
 10
63.4063416158
 20
226.8407261192
  0
VERTEX
  8
0
 62
7
  6
CONTINUOUS
 10
63.3323416864
 20
226.7784096746
  0
VERTEX
  8
0
 62
7
  6
CONTINUOUS
 10
63.2689005932
 20
226.7314424834
  0
VERTEX
  8
0
 62
7
  6
CONTINUOUS
 10
63.2234736775
 20
226.7053420308
  0
VERTEX
  8
0
 62
7
  6
CONTINUOUS
 10
63.201417463
 20
226.7030734394
  0
SEQEND
  0
POLYLINE
  8
0
 62
7
  6
CONTINUOUS
 66
1
 70
0
  0
VERTEX
  8
0
 62
7
  6
CONTINUOUS
 10
56.1192877359
 20
214.9679839432
  0
VERTEX
  8
0
 62
7
  6
CONTINUOUS
 10
55.2066755477
 20
215.2768092134
  0
VERTEX
  8
0
 62
7
  6
CONTINUOUS
 10
54.3609752958
 20
215.6890036775
  0
VERTEX
  8
0
 62
7
  6
CONTINUOUS
 10
53.5922535348
 20
216.1942570495
  0
VERTEX
  8
0
 62
7
  6
CONTINUOUS
 10
52.9168854229
 20
216.774954027
  0
SEQEND
  0
POLYLINE
  8
0
 62
7
  6
CONTINUOUS
 66
1
 70
0
  0
VERTEX
  8
0
 62
7
  6
CONTINUOUS
 10
54.5081053044
 20
226.8407259137
  0
VERTEX
  8
0
 62
7
  6
CONTINUOUS
 10
54.5821037994
 20
226.778408188
  0
VERTEX
  8
0
 62
7
  6
CONTINUOUS
 10
54.6455430206
 20
226.7314391967
  0
VERTEX
  8
0
 62
7
  6
CONTINUOUS
 10
54.6909659228
 20
226.7053346091
  0
VERTEX
  8
0
 62
7
  6
CONTINUOUS
 10
54.7130295767
 20
226.7030737249
  0
SEQEND
  0
POLYLINE
  8
0
 62
7
  6
CONTINUOUS
 66
1
 70
0
  0
VERTEX
  8
0
 62
7
  6
CONTINUOUS
 10
63.4063416158
 20
226.8407260694
  0
VERTEX
  8
0
 62
7
  6
CONTINUOUS
 10
63.4180806557
 20
226.8482185548
  0
VERTEX
  8
0
 62
7
  6
CONTINUOUS
 10
63.4324871747
 20
226.8525289082
  0
VERTEX
  8
0
 62
7
  6
CONTINUOUS
 10
63.4485038415
 20
226.8538436382
  0
SEQEND
  0
POLYLINE
  8
0
 62
7
  6
CONTINUOUS
 66
1
 70
0
  0
VERTEX
  8
0
 62
7
  6
CONTINUOUS
 10
51.8153393667
 20
226.8599712231
  0
VERTEX
  8
0
 62
7
  6
CONTINUOUS
 10
51.7311218667
 20
226.9118621178
  0
VERTEX
  8
0
 62
7
  6
CONTINUOUS
 10
51.6622430362
 20
226.9615654347
  0
VERTEX
  8
0
 62
7
  6
CONTINUOUS
 10
51.6196702081
 20
227.00113772
  0
VERTEX
  8
0
 62
7
  6
CONTINUOUS
 10
51.6100950092
 20
227.024307913
  0
SEQEND
  0
POLYLINE
  8
0
 62
7
  6
CONTINUOUS
 66
1
 70
0
  0
VERTEX
  8
0
 62
7
  6
CONTINUOUS
 10
54.5081053044
 20
226.8407258453
  0
VERTEX
  8
0
 62
7
  6
CONTINUOUS
 10
54.49636597
 20
226.8482182438
  0
VERTEX
  8
0
 62
7
  6
CONTINUOUS
 10
54.4819592657
 20
226.8525287843
  0
VERTEX
  8
0
 62
7
  6
CONTINUOUS
 10
54.4659423421
 20
226.8538436382
  0
SEQEND
  0
LINE
  8
0
 62
7
  6
CONTINUOUS
 10
66.5903217991
 20
227.0276512918
 11
66.5759149859
 21
227.0512672494
  0
POLYLINE
  8
0
 62
7
  6
CONTINUOUS
 66
1
 70
0
  0
VERTEX
  8
0
 62
7
  6
CONTINUOUS
 10
51.8153393667
 20
226.859971224
  0
VERTEX
  8
0
 62
7
  6
CONTINUOUS
 10
51.8228761561
 20
226.8565581092
  0
VERTEX
  8
0
 62
7
  6
CONTINUOUS
 10
51.8312429288
 20
226.8545069423
  0
VERTEX
  8
0
 62
7
  6
CONTINUOUS
 10
51.8401744757
 20
226.8538436382
  0
SEQEND
  0
POLYLINE
  8
0
 62
7
  6
CONTINUOUS
 66
1
 70
0
  0
VERTEX
  8
0
 62
7
  6
CONTINUOUS
 10
66.5759149859
 20
227.0512672494
  0
VERTEX
  8
0
 62
7
  6
CONTINUOUS
 10
66.5617482629
 20
227.069059471
  0
VERTEX
  8
0
 62
7
  6
CONTINUOUS
 10
66.5451542962
 20
227.0837573386
  0
VERTEX
  8
0
 62
7
  6
CONTINUOUS
 10
66.5251366825
 20
227.0956130838
  0
VERTEX
  8
0
 62
7
  6
CONTINUOUS
 10
66.5004601386
 20
227.1048750305
  0
VERTEX
  8
0
 62
7
  6
CONTINUOUS
 10
66.4697001327
 20
227.1114962644
  0
SEQEND
  0
LINE
  8
0
 62
7
  6
CONTINUOUS
 10
56.0849416027
 20
214.75
 11
63.4572229259
 21
214.75
  0
LINE
  8
0
 62
7
  6
CONTINUOUS
 10
105.2572229259
 20
214.75
 11
112.6295042492
 21
214.75
  0
LINE
  8
0
 62
7
  6
CONTINUOUS
 10
83.1560935816
 20
214.8
 11
85.5583522702
 21
214.8
  0
LINE
  8
0
 62
7
  6
CONTINUOUS
 10
56.1192877359
 20
214.9679839432
 11
63.4572232574
 21
214.9679839432
  0
POLYLINE
  8
0
 62
7
  6
CONTINUOUS
 66
1
 70
0
  0
VERTEX
  8
0
 62
7
  6
CONTINUOUS
 10
65.1176184112
 20
215.2541303477
  0
VERTEX
  8
0
 62
7
  6
CONTINUOUS
 10
65.0484873994
 20
215.2054272114
  0
VERTEX
  8
0
 62
7
  6
CONTINUOUS
 10
64.9649101922
 20
215.1638452943
  0
VERTEX
  8
0
 62
7
  6
CONTINUOUS
 10
64.8676516542
 20
215.1328633037
  0
SEQEND
  0
POLYLINE
  8
0
 62
7
  6
CONTINUOUS
 66
1
 70
0
  0
VERTEX
  8
0
 62
7
  6
CONTINUOUS
 10
64.8676924457
 20
215.1328433993
  0
VERTEX
  8
0
 62
7
  6
CONTINUOUS
 10
64.4033240636
 20
215.0415622996
  0
VERTEX
  8
0
 62
7
  6
CONTINUOUS
 10
63.9320101068
 20
214.9864240974
  0
VERTEX
  8
0
 62
7
  6
CONTINUOUS
 10
63.4572232574
 20
214.9679839432
  0
SEQEND
  0
LINE
  8
0
 62
7
  6
CONTINUOUS
 10
67.013735205
 20
226.6516376509
 11
77.844948881
 21
222.8075917798
  0
LINE
  8
0
 62
7
  6
CONTINUOUS
 10
80.6872561665
 20
222.1409513776
 11
82.772501401
 21
215.0866111164
  0
LINE
  8
AXES
 62
2
  6
CENTER
 10
84.3572229259
 20
227.15
 11
84.3572229259
 21
224.7501
  0
LINE
  8
AXES
 62
2
  6
CONTINUOUS
 10
84.3572229259
 20
223.63
 11
84.3572229259
 21
221.87
  0
LINE
  8
AXES
 62
2
  6
CENTER
 10
84.3572229259
 20
218.35
 11
84.3572229259
 21
220.7499
  0
LINE
  8
AXES
 62
2
  6
CONTINUOUS
 10
110.6372229259
 20
222.75
 11
108.8772229259
 21
222.75
  0
LINE
  8
AXES
 62
2
  6
CENTER
 10
105.3572229259
 20
222.75
 11
103.6072229259
 21
222.75
  0
LINE
  8
AXES
 62
2
  6
CENTER
 10
88.7572229259
 20
222.75
 11
86.3573229259
 21
222.75
  0
LINE
  8
AXES
 62
2
  6
CONTINUOUS
 10
85.2372229259
 20
222.75
 11
83.4772229259
 21
222.75
  0
LINE
  8
AXES
 62
2
  6
CONTINUOUS
 10
59.8372229259
 20
222.75
 11
58.0772229259
 21
222.75
  0
LINE
  8
AXES
 62
2
  6
CENTER
 10
54.5572229259
 20
222.75
 11
52.8072229259
 21
222.75
  0
LINE
  8
AXES
 62
2
  6
CENTER
 10
63.3572229259
 20
222.75
 11
65.1072229259
 21
222.75
  0
LINE
  8
0
 62
7
  6
CONTINUOUS
 10
78.1794137467
 20
222.75
 11
79.8721227826
 21
222.75
  0
LINE
  8
AXES
 62
2
  6
CENTER
 10
79.9572229259
 20
222.75
 11
82.3571229259
 21
222.75
  0
LINE
  8
0
 62
7
  6
CONTINUOUS
 10
88.8423230693
 20
222.75
 11
90.5350321052
 21
222.75
  0
LINE
  8
AXES
 62
2
  6
CENTER
 10
114.1572229259
 20
222.75
 11
115.9072229259
 21
222.75
  0
LINE
  8
0
 62
7
  6
CONTINUOUS
 10
90.8694969709
 20
222.8075917798
 11
94.0921137386
 21
223.951312793
  0
LINE
  8
0
 62
7
  6
CONTINUOUS
 10
85.9419444509
 20
215.0866111164
 11
88.0271896854
 21
222.1409513776
  0
LINE
  8
0
 62
7
  6
CONTINUOUS
 10
65.3068794314
 20
226.8538436382
 11
63.4485038415
 21
226.8538436382
  0
LINE
  8
0
 62
7
  6
CONTINUOUS
 10
54.4659423421
 20
226.8538436382
 11
51.8401744757
 21
226.8538436382
  0
POLYLINE
  8
0
 62
7
  6
CONTINUOUS
 66
1
 70
0
  0
VERTEX
  8
0
 62
7
  6
CONTINUOUS
 10
66.4697001327
 20
227.1114962644
  0
VERTEX
  8
0
 62
7
  6
CONTINUOUS
 10
66.4315928874
 20
227.1151366694
  0
VERTEX
  8
0
 62
7
  6
CONTINUOUS
 10
66.3843413192
 20
227.1153288917
  0
VERTEX
  8
0
 62
7
  6
CONTINUOUS
 10
66.3258460278
 20
227.1113626288
  0
VERTEX
  8
0
 62
7
  6
CONTINUOUS
 10
66.2539359612
 20
227.1023169672
  0
VERTEX
  8
0
 62
7
  6
CONTINUOUS
 10
66.1664706323
 20
227.0871237683
  0
VERTEX
  8
0
 62
7
  6
CONTINUOUS
 10
66.0600400402
 20
227.0643052404
  0
VERTEX
  8
0
 62
7
  6
CONTINUOUS
 10
65.9313403139
 20
227.0321588212
  0
VERTEX
  8
0
 62
7
  6
CONTINUOUS
 10
65.7783621484
 20
226.9892429031
  0
VERTEX
  8
0
 62
7
  6
CONTINUOUS
 10
65.5976745767
 20
226.9339281435
  0
VERTEX
  8
0
 62
7
  6
CONTINUOUS
 10
65.3891608527
 20
226.8665829238
  0
SEQEND
  0
POLYLINE
  8
0
 62
7
  6
CONTINUOUS
 66
1
 70
0
  0
VERTEX
  8
0
 62
7
  6
CONTINUOUS
 10
65.3891608527
 20
226.8665829245
  0
VERTEX
  8
0
 62
7
  6
CONTINUOUS
 10
65.3631299317
 20
226.8596062168
  0
VERTEX
  8
0
 62
7
  6
CONTINUOUS
 10
65.3356833543
 20
226.8553063944
  0
VERTEX
  8
0
 62
7
  6
CONTINUOUS
 10
65.3068794314
 20
226.8538436382
  0
SEQEND
  0
LINE
  8
0
 62
7
  6
CONTINUOUS
 10
112.6295042492
 20
230.75
 11
56.0849416027
 21
230.75
  0
LINE
  8
AXES
 62
2
  6
CONTINUOUS
 10
109.7572229259
 20
223.63
 11
109.7572229259
 21
221.87
  0
LINE
  8
AXES
 62
2
  6
CENTER
 10
109.7572229259
 20
218.35
 11
109.7572229259
 21
216.6
  0
LINE
  8
AXES
 62
2
  6
CENTER
 10
109.7572229259
 20
227.15
 11
109.7572229259
 21
228.9
  0
POLYLINE
  8
0
 62
7
  6
CONTINUOUS
 66
1
 70
0
  0
VERTEX
  8
0
 62
7
  6
CONTINUOUS
 10
112.5745999789
 20
215.75
  0
VERTEX
  8
0
 62
7
  6
CONTINUOUS
 10
112.5809418734
 20
215.4934670752
  0
VERTEX
  8
0
 62
7
  6
CONTINUOUS
 10
112.5920845676
 20
215.2533921032
  0
VERTEX
  8
0
 62
7
  6
CONTINUOUS
 10
112.6050659781
 20
215.046117712
  0
VERTEX
  8
0
 62
7
  6
CONTINUOUS
 10
112.6172123299
 20
214.8860687803
  0
VERTEX
  8
0
 62
7
  6
CONTINUOUS
 10
112.6260921257
 20
214.7847723693
  0
VERTEX
  8
0
 62
7
  6
CONTINUOUS
 10
112.6295042492
 20
214.75
  0
SEQEND
  0
LINE
  8
0
 62
7
  6
CONTINUOUS
 10
112.5856493535
 20
230.5
 11
112.6295042492
 21
230.75
  0
POLYLINE
  8
0
 62
7
  6
CONTINUOUS
 66
1
 70
0
  0
VERTEX
  8
0
 62
7
  6
CONTINUOUS
 10
56.1287964984
 20
159.0828655172
  0
VERTEX
  8
0
 62
7
  6
CONTINUOUS
 10
56.1120628778
 20
159.0641372115
  0
VERTEX
  8
0
 62
7
  6
CONTINUOUS
 10
56.0978491851
 20
159.0103943351
  0
VERTEX
  8
0
 62
7
  6
CONTINUOUS
 10
56.0883095022
 20
158.929263791
  0
VERTEX
  8
0
 62
7
  6
CONTINUOUS
 10
56.0849416027
 20
158.8328655172
  0
SEQEND
  0
POLYLINE
  8
0
 62
7
  6
CONTINUOUS
 66
1
 70
0
  0
VERTEX
  8
0
 62
7
  6
CONTINUOUS
 10
118.0072456206
 20
92.0828646339
  0
VERTEX
  8
0
 62
7
  6
CONTINUOUS
 10
118.1036772552
 20
92.1022134318
  0
VERTEX
  8
0
 62
7
  6
CONTINUOUS
 10
118.1853408272
 20
92.1574266771
  0
VERTEX
  8
0
 62
7
  6
CONTINUOUS
 10
118.2393122377
 20
92.2399255029
  0
VERTEX
  8
0
 62
7
  6
CONTINUOUS
 10
118.2572229155
 20
92.3328445362
  0
SEQEND
  0
LINE
  8
0
 62
7
  6
CONTINUOUS
 10
51.726017143
 20
101.5332965338
 11
51.6622430362
 21
101.5840176264
  0
POLYLINE
  8
0
 62
7
  6
CONTINUOUS
 66
1
 70
0
  0
VERTEX
  8
0
 62
7
  6
CONTINUOUS
 10
51.6622430362
 20
101.5840176264
  0
VERTEX
  8
0
 62
7
  6
CONTINUOUS
 10
51.6196702081
 20
101.6656301714
  0
VERTEX
  8
0
 62
7
  6
CONTINUOUS
 10
51.6100950092
 20
101.7626121824
  0
SEQEND
  0
POLYLINE
  8
0
 62
7
  6
CONTINUOUS
 66
1
 70
0
  0
VERTEX
  8
0
 62
7
  6
CONTINUOUS
 10
51.6622430362
 20
141.1817134081
  0
VERTEX
  8
0
 62
7
  6
CONTINUOUS
 10
51.6196702081
 20
141.1001008631
  0
VERTEX
  8
0
 62
7
  6
CONTINUOUS
 10
51.6100950092
 20
141.0031188521
  0
SEQEND
  0
POLYLINE
  8
0
 62
7
  6
CONTINUOUS
 66
1
 70
0
  0
VERTEX
  8
0
 62
7
  6
CONTINUOUS
 10
63.5329742304
 20
92.0828655172
  0
VERTEX
  8
0
 62
7
  6
CONTINUOUS
 10
63.4484801834
 20
92.0975768519
  0
VERTEX
  8
0
 62
7
  6
CONTINUOUS
 10
63.3754030012
 20
92.1387745392
  0
VERTEX
  8
0
 62
7
  6
CONTINUOUS
 10
63.3177782479
 20
92.2056228784
  0
VERTEX
  8
0
 62
7
  6
CONTINUOUS
 10
63.2861431143
 20
92.2931868056
  0
VERTEX
  8
0
 62
7
  6
CONTINUOUS
 10
63.2829742304
 20
92.3328655172
  0
SEQEND
  0
POLYLINE
  8
0
 62
7
  6
CONTINUOUS
 66
1
 70
0
  0
VERTEX
  8
0
 62
7
  6
CONTINUOUS
 10
51.7260147275
 20
101.533297714
  0
VERTEX
  8
0
 62
7
  6
CONTINUOUS
 10
52.3691204768
 20
101.2622700301
  0
VERTEX
  8
0
 62
7
  6
CONTINUOUS
 10
53.2005812615
 20
101.0000069571
  0
VERTEX
  8
0
 62
7
  6
CONTINUOUS
 10
54.1396911847
 20
100.7790394138
  0
VERTEX
  8
0
 62
7
  6
CONTINUOUS
 10
55.1641289439
 20
100.6017251213
  0
VERTEX
  8
0
 62
7
  6
CONTINUOUS
 10
56.1154348694
 20
100.4833664044
  0
SEQEND
  0
POLYLINE
  8
0
 62
7
  6
CONTINUOUS
 66
1
 70
0
  0
VERTEX
  8
0
 62
7
  6
CONTINUOUS
 10
50.4572428286
 20
102.09568577
  0
VERTEX
  8
0
 62
7
  6
CONTINUOUS
 10
50.4656126656
 20
102.0233518908
  0
VERTEX
  8
0
 62
7
  6
CONTINUOUS
 10
50.5459503875
 20
101.8760531304
  0
VERTEX
  8
0
 62
7
  6
CONTINUOUS
 10
50.6648795395
 20
101.7845796996
  0
VERTEX
  8
0
 62
7
  6
CONTINUOUS
 10
50.8160523639
 20
101.7170050744
  0
VERTEX
  8
0
 62
7
  6
CONTINUOUS
 10
51.0140710728
 20
101.6570513365
  0
VERTEX
  8
0
 62
7
  6
CONTINUOUS
 10
51.2625196786
 20
101.6013307657
  0
VERTEX
  8
0
 62
7
  6
CONTINUOUS
 10
51.5492174981
 20
101.5507714745
  0
SEQEND
  0
LINE
  8
0
 62
7
  6
CONTINUOUS
 10
50.4572229727
 20
107.0713709873
 11
50.4572406236
 21
107.0700843789
  0
LINE
  8
0
 62
7
  6
CONTINUOUS
 10
50.4572229727
 20
123.8713709873
 11
50.4572406236
 21
123.8700843789
  0
LINE
  8
0
 62
7
  6
CONTINUOUS
 10
50.4572229259
 20
158.8328781906
 11
50.4572229259
 21
152.4943456652
  0
LINE
  8
0
 62
7
  6
CONTINUOUS
 10
50.4572229259
 20
140.6714703185
 11
50.4572229259
 21
135.694260716
  0
LINE
  8
2_FEATURE
 62
7
  6
CONTINUOUS
 10
50.4572229259
 20
140.6714679859
 11
50.4572229259
 21
135.6942630551
  0
LINE
  8
0
 62
7
  6
CONTINUOUS
 10
50.4572229259
 20
123.8713139957
 11
50.4572229259
 21
118.8944170387
  0
LINE
  8
AXES
 62
7
  6
CONTINUOUS
 10
50.4572229259
 20
107.0713139957
 11
50.4572229259
 21
102.0944170387
  0
LINE
  8
0
 62
7
  6
CONTINUOUS
 10
50.4572229633
 20
152.4942801878
 11
50.4572424412
 21
152.4956450087
  0
LINE
  8
0
 62
7
  6
CONTINUOUS
 10
50.4572229727
 20
118.8943600472
 11
50.4572424297
 21
118.8957142148
  0
LINE
  8
0
 62
7
  6
CONTINUOUS
 10
50.4572229727
 20
102.0943600472
 11
50.4572424297
 21
102.0957142148
  0
LINE
  8
0
 62
7
  6
CONTINUOUS
 10
51.726017143
 20
141.2324345007
 11
51.6622430362
 21
141.1817134081
  0
LINE
  8
0
 62
7
  6
CONTINUOUS
 10
118.007257855
 20
92.0828655172
 11
63.5329742304
 21
92.0828655172
  0
POLYLINE
  8
0
 62
7
  6
CONTINUOUS
 66
1
 70
0
  0
VERTEX
  8
0
 62
7
  6
CONTINUOUS
 10
51.6622430362
 20
118.3840176264
  0
VERTEX
  8
0
 62
7
  6
CONTINUOUS
 10
51.6196702081
 20
118.4656301714
  0
VERTEX
  8
0
 62
7
  6
CONTINUOUS
 10
51.6100950092
 20
118.5626121824
  0
SEQEND
  0
POLYLINE
  8
0
 62
7
  6
CONTINUOUS
 66
1
 70
0
  0
VERTEX
  8
0
 62
7
  6
CONTINUOUS
 10
50.4573044559
 20
135.6878703305
  0
VERTEX
  8
0
 62
7
  6
CONTINUOUS
 10
50.4656126485
 20
135.6233519623
  0
VERTEX
  8
0
 62
7
  6
CONTINUOUS
 10
50.5459503518
 20
135.476053169
  0
VERTEX
  8
0
 62
7
  6
CONTINUOUS
 10
50.6648795041
 20
135.3845797197
  0
VERTEX
  8
0
 62
7
  6
CONTINUOUS
 10
50.8160523307
 20
135.3170050865
  0
VERTEX
  8
0
 62
7
  6
CONTINUOUS
 10
51.014071046
 20
135.2570513435
  0
VERTEX
  8
0
 62
7
  6
CONTINUOUS
 10
51.2625196634
 20
135.2013307687
  0
VERTEX
  8
0
 62
7
  6
CONTINUOUS
 10
51.549217495
 20
135.150771475
  0
SEQEND
  0
POLYLINE
  8
0
 62
7
  6
CONTINUOUS
 66
1
 70
0
  0
VERTEX
  8
0
 62
7
  6
CONTINUOUS
 10
50.4572428286
 20
118.89568577
  0
VERTEX
  8
0
 62
7
  6
CONTINUOUS
 10
50.4656126656
 20
118.8233518908
  0
VERTEX
  8
0
 62
7
  6
CONTINUOUS
 10
50.5459503875
 20
118.6760531304
  0
VERTEX
  8
0
 62
7
  6
CONTINUOUS
 10
50.6648795395
 20
118.5845796996
  0
VERTEX
  8
0
 62
7
  6
CONTINUOUS
 10
50.8160523639
 20
118.5170050744
  0
VERTEX
  8
0
 62
7
  6
CONTINUOUS
 10
51.0140710728
 20
118.4570513365
  0
VERTEX
  8
0
 62
7
  6
CONTINUOUS
 10
51.2625196786
 20
118.4013307657
  0
VERTEX
  8
0
 62
7
  6
CONTINUOUS
 10
51.5492174981
 20
118.3507714745
  0
SEQEND
  0
POLYLINE
  8
0
 62
7
  6
CONTINUOUS
 66
1
 70
0
  0
VERTEX
  8
0
 62
7
  6
CONTINUOUS
 10
56.0849416027
 20
108.4324053212
  0
VERTEX
  8
0
 62
7
  6
CONTINUOUS
 10
56.084140802
 20
108.5457894112
  0
VERTEX
  8
0
 62
7
  6
CONTINUOUS
 10
56.092696227
 20
108.6334904347
  0
VERTEX
  8
0
 62
7
  6
CONTINUOUS
 10
56.1087647739
 20
108.6785665895
  0
VERTEX
  8
0
 62
7
  6
CONTINUOUS
 10
56.1152365753
 20
108.6823652386
  0
SEQEND
  0
POLYLINE
  8
0
 62
7
  6
CONTINUOUS
 66
1
 70
0
  0
VERTEX
  8
0
 62
7
  6
CONTINUOUS
 10
56.0849416027
 20
125.2324053212
  0
VERTEX
  8
0
 62
7
  6
CONTINUOUS
 10
56.084140802
 20
125.3457894112
  0
VERTEX
  8
0
 62
7
  6
CONTINUOUS
 10
56.092696227
 20
125.4334904347
  0
VERTEX
  8
0
 62
7
  6
CONTINUOUS
 10
56.1087647739
 20
125.4785665895
  0
VERTEX
  8
0
 62
7
  6
CONTINUOUS
 10
56.1152365753
 20
125.4823652386
  0
SEQEND
  0
LINE
  8
0
 62
7
  6
CONTINUOUS
 10
56.0849416027
 20
142.0324053212
 11
56.0849416027
 21
134.3333257133
  0
LINE
  8
0
 62
7
  6
CONTINUOUS
 10
56.0849416027
 20
108.4324053212
 11
56.0849416027
 21
100.7333257133
  0
LINE
  8
0
 62
7
  6
CONTINUOUS
 10
56.0849416027
 20
117.5333257133
 11
56.0849416027
 21
125.2324053212
  0
LINE
  8
0
 62
7
  6
CONTINUOUS
 10
56.0849416027
 20
151.1333257133
 11
56.0849416027
 21
158.8328655172
  0
POLYLINE
  8
0
 62
7
  6
CONTINUOUS
 66
1
 70
0
  0
VERTEX
  8
0
 62
7
  6
CONTINUOUS
 10
56.0849416027
 20
151.1333257133
  0
VERTEX
  8
0
 62
7
  6
CONTINUOUS
 10
56.084140802
 20
151.0199416233
  0
VERTEX
  8
0
 62
7
  6
CONTINUOUS
 10
56.092696227
 20
150.9322405998
  0
VERTEX
  8
0
 62
7
  6
CONTINUOUS
 10
56.1087647739
 20
150.887164445
  0
VERTEX
  8
0
 62
7
  6
CONTINUOUS
 10
56.1152365753
 20
150.8833657959
  0
SEQEND
  0
POLYLINE
  8
0
 62
7
  6
CONTINUOUS
 66
1
 70
0
  0
VERTEX
  8
0
 62
7
  6
CONTINUOUS
 10
56.0849416027
 20
134.3333257133
  0
VERTEX
  8
0
 62
7
  6
CONTINUOUS
 10
56.084140802
 20
134.2199416233
  0
VERTEX
  8
0
 62
7
  6
CONTINUOUS
 10
56.092696227
 20
134.1322405998
  0
VERTEX
  8
0
 62
7
  6
CONTINUOUS
 10
56.1087647739
 20
134.087164445
  0
VERTEX
  8
0
 62
7
  6
CONTINUOUS
 10
56.1152365753
 20
134.0833657959
  0
SEQEND
  0
POLYLINE
  8
0
 62
7
  6
CONTINUOUS
 66
1
 70
0
  0
VERTEX
  8
0
 62
7
  6
CONTINUOUS
 10
56.0849416027
 20
117.5333257133
  0
VERTEX
  8
0
 62
7
  6
CONTINUOUS
 10
56.084140802
 20
117.4199416233
  0
VERTEX
  8
0
 62
7
  6
CONTINUOUS
 10
56.092696227
 20
117.3322405998
  0
VERTEX
  8
0
 62
7
  6
CONTINUOUS
 10
56.1087647739
 20
117.287164445
  0
VERTEX
  8
0
 62
7
  6
CONTINUOUS
 10
56.1152365753
 20
117.2833657959
  0
SEQEND
  0
POLYLINE
  8
0
 62
7
  6
CONTINUOUS
 66
1
 70
0
  0
VERTEX
  8
0
 62
7
  6
CONTINUOUS
 10
51.6622430362
 20
124.3817134081
  0
VERTEX
  8
0
 62
7
  6
CONTINUOUS
 10
51.6196702081
 20
124.3001008631
  0
VERTEX
  8
0
 62
7
  6
CONTINUOUS
 10
51.6100950092
 20
124.2031188521
  0
SEQEND
  0
POLYLINE
  8
0
 62
7
  6
CONTINUOUS
 66
1
 70
0
  0
VERTEX
  8
0
 62
7
  6
CONTINUOUS
 10
63.5329742304
 20
92.0828655172
  0
VERTEX
  8
0
 62
7
  6
CONTINUOUS
 10
63.5371420581
 20
92.0837032118
  0
VERTEX
  8
0
 62
7
  6
CONTINUOUS
 10
63.5373075714
 20
92.0867373363
  0
VERTEX
  8
0
 62
7
  6
CONTINUOUS
 10
63.5352316574
 20
92.0928380722
  0
VERTEX
  8
0
 62
7
  6
CONTINUOUS
 10
63.5327901275
 20
92.1029902401
  0
VERTEX
  8
0
 62
7
  6
CONTINUOUS
 10
63.5316805492
 20
92.1179933445
  0
VERTEX
  8
0
 62
7
  6
CONTINUOUS
 10
63.5323430598
 20
92.1381673919
  0
VERTEX
  8
0
 62
7
  6
CONTINUOUS
 10
63.5329822873
 20
92.1643823613
  0
VERTEX
  8
0
 62
7
  6
CONTINUOUS
 10
63.5324128511
 20
92.1994964626
  0
VERTEX
  8
0
 62
7
  6
CONTINUOUS
 10
63.5332056172
 20
92.2437939121
  0
VERTEX
  8
0
 62
7
  6
CONTINUOUS
 10
63.5347775172
 20
92.2911456922
  0
VERTEX
  8
0
 62
7
  6
CONTINUOUS
 10
63.5329742304
 20
92.3328655172
  0
SEQEND
  0
LINE
  8
0
 62
7
  6
CONTINUOUS
 10
51.5492174981
 20
101.5507714745
 11
51.7577644582
 21
101.5199172459
  0
POLYLINE
  8
0
 62
7
  6
CONTINUOUS
 66
1
 70
0
  0
VERTEX
  8
0
 62
7
  6
CONTINUOUS
 10
50.4572428286
 20
152.4956857668
  0
VERTEX
  8
0
 62
7
  6
CONTINUOUS
 10
50.4656124867
 20
152.4233526376
  0
VERTEX
  8
0
 62
7
  6
CONTINUOUS
 10
50.5459500145
 20
152.2760535342
  0
VERTEX
  8
0
 62
7
  6
CONTINUOUS
 10
50.6648791695
 20
152.1845799093
  0
VERTEX
  8
0
 62
7
  6
CONTINUOUS
 10
50.8160520171
 20
152.1170052
  0
VERTEX
  8
0
 62
7
  6
CONTINUOUS
 10
51.0140707922
 20
152.057051409
  0
VERTEX
  8
0
 62
7
  6
CONTINUOUS
 10
51.2625195198
 20
152.0013307971
  0
VERTEX
  8
0
 62
7
  6
CONTINUOUS
 10
51.549217466
 20
151.9507714796
  0
SEQEND
  0
POLYLINE
  8
0
 62
7
  6
CONTINUOUS
 66
1
 70
0
  0
VERTEX
  8
0
 62
7
  6
CONTINUOUS
 10
56.0849416027
 20
142.0324053212
  0
VERTEX
  8
0
 62
7
  6
CONTINUOUS
 10
56.084140802
 20
142.1457894112
  0
VERTEX
  8
0
 62
7
  6
CONTINUOUS
 10
56.092696227
 20
142.2334904347
  0
VERTEX
  8
0
 62
7
  6
CONTINUOUS
 10
56.1087647739
 20
142.2785665895
  0
VERTEX
  8
0
 62
7
  6
CONTINUOUS
 10
56.1152365753
 20
142.2823652386
  0
SEQEND
  0
LINE
  8
DEFAULT_1
 62
2
  6
CENTER
 10
58.9572229259
 20
96.4810610665
 11
58.9572229259
 21
161.0828655172
  0
POLYLINE
  8
0
 62
7
  6
CONTINUOUS
 66
1
 70
0
  0
VERTEX
  8
0
 62
7
  6
CONTINUOUS
 10
56.0849416027
 20
100.7333257133
  0
VERTEX
  8
0
 62
7
  6
CONTINUOUS
 10
56.084140802
 20
100.6199416233
  0
VERTEX
  8
0
 62
7
  6
CONTINUOUS
 10
56.092696227
 20
100.5322405998
  0
VERTEX
  8
0
 62
7
  6
CONTINUOUS
 10
56.1087647739
 20
100.487164445
  0
VERTEX
  8
0
 62
7
  6
CONTINUOUS
 10
56.1152365753
 20
100.4833657959
  0
SEQEND
  0
LINE
  8
0
 62
7
  6
CONTINUOUS
 10
52.3691204768
 20
141.5034610044
 11
51.7260147275
 21
141.2324333205
  0
POLYLINE
  8
2_FEATURE
 62
7
  6
CONTINUOUS
 66
1
 70
0
  0
VERTEX
  8
2_FEATURE
 62
7
  6
CONTINUOUS
 10
100.1072229259
 20
101.1392741635
  0
VERTEX
  8
2_FEATURE
 62
7
  6
CONTINUOUS
 10
100.3541524667
 20
101.1714973356
  0
VERTEX
  8
2_FEATURE
 62
7
  6
CONTINUOUS
 10
100.5795015086
 20
101.2665712373
  0
VERTEX
  8
2_FEATURE
 62
7
  6
CONTINUOUS
 10
100.7698581009
 20
101.4157727783
  0
VERTEX
  8
2_FEATURE
 62
7
  6
CONTINUOUS
 10
100.9134580355
 20
101.6073149292
  0
VERTEX
  8
2_FEATURE
 62
7
  6
CONTINUOUS
 10
101.002047084
 20
101.8269658924
  0
VERTEX
  8
2_FEATURE
 62
7
  6
CONTINUOUS
 10
101.0315403151
 20
102.0578655172
  0
SEQEND
  0
LINE
  8
2_FEATURE
 62
7
  6
CONTINUOUS
 10
78.0659800358
 20
97.4473933741
 11
68.6072229259
 21
97.3892741635
  0
LINE
  8
2_FEATURE
 62
7
  6
CONTINUOUS
 10
78.0659800358
 20
97.4473933741
 11
78.6072229259
 21
97.4475060367
  0
LINE
  8
0
 62
7
  6
CONTINUOUS
 10
105.9308447282
 20
100.2824053212
 11
112.5979362784
 21
100.2824053212
  0
LINE
  8
0
 62
7
  6
CONTINUOUS
 10
62.7835861673
 20
100.4833257133
 11
56.1165095735
 21
100.4833257133
  0
LINE
  8
2_FEATURE
 62
7
  6
CONTINUOUS
 10
78.6072229259
 20
99.5682249978
 11
77.9540100928
 21
99.5686741958
  0
LINE
  8
2_FEATURE
 62
7
  6
CONTINUOUS
 10
77.9540100928
 20
99.5686741958
 11
68.6072229259
 21
99.6264568709
  0
LINE
  8
0
 62
7
  6
CONTINUOUS
 10
56.1152365753
 20
100.4833657959
 11
56.116039619
 21
100.4833257974
  0
LINE
  8
0
 62
7
  6
CONTINUOUS
 10
51.726017143
 20
118.3332965338
 11
51.6622430362
 21
118.3840176264
  0
POLYLINE
  8
2_FEATURE
 62
7
  6
CONTINUOUS
 66
1
 70
0
  0
VERTEX
  8
2_FEATURE
 62
7
  6
CONTINUOUS
 10
68.6072229259
 20
99.6264568709
  0
VERTEX
  8
2_FEATURE
 62
7
  6
CONTINUOUS
 10
68.3602933852
 20
99.5942336988
  0
VERTEX
  8
2_FEATURE
 62
7
  6
CONTINUOUS
 10
68.1349443432
 20
99.4991597972
  0
VERTEX
  8
2_FEATURE
 62
7
  6
CONTINUOUS
 10
67.944587751
 20
99.3499582562
  0
VERTEX
  8
2_FEATURE
 62
7
  6
CONTINUOUS
 10
67.8009878164
 20
99.1584161053
  0
VERTEX
  8
2_FEATURE
 62
7
  6
CONTINUOUS
 10
67.7123987679
 20
98.9387651421
  0
VERTEX
  8
2_FEATURE
 62
7
  6
CONTINUOUS
 10
67.6829055368
 20
98.7078655172
  0
SEQEND
  0
LINE
  8
2_FEATURE
 62
7
  6
CONTINUOUS
 10
78.0659800358
 20
101.4973933741
 11
75.8572229259
 21
101.4841870444
  0
LINE
  8
2_FEATURE
 62
7
  6
CONTINUOUS
 10
100.1072229259
 20
103.3764568709
 11
90.6484658161
 21
103.3183376604
  0
LINE
  8
2_FEATURE
 62
7
  6
CONTINUOUS
 10
78.0659800358
 20
101.4973933741
 11
78.6072229259
 21
101.4975060367
  0
LINE
  8
2_FEATURE
 62
7
  6
CONTINUOUS
 10
90.6484658161
 20
103.3183376604
 11
90.1072229259
 21
103.3182249978
  0
LINE
  8
2_FEATURE
 62
7
  6
CONTINUOUS
 10
90.760435759
 20
101.1970568387
 11
90.1072229259
 21
101.1975060367
  0
LINE
  8
2_FEATURE
 62
7
  6
CONTINUOUS
 10
78.6072229259
 20
103.6182249978
 11
77.9540100928
 21
103.6186741958
  0
LINE
  8
2_FEATURE
 62
7
  6
CONTINUOUS
 10
90.760435759
 20
101.1970568387
 11
100.1072229259
 21
101.1392741635
  0
LINE
  8
2_FEATURE
 62
7
  6
CONTINUOUS
 10
77.9540100928
 20
103.6186741958
 11
75.8572229259
 21
103.6315439901
  0
LINE
  8
0
 62
7
  6
CONTINUOUS
 10
112.5992092766
 20
100.2823652386
 11
112.5984062328
 21
100.2824052371
  0
POLYLINE
  8
0
 62
7
  6
CONTINUOUS
 66
1
 70
0
  0
VERTEX
  8
0
 62
7
  6
CONTINUOUS
 10
51.6622430362
 20
135.1840176264
  0
VERTEX
  8
0
 62
7
  6
CONTINUOUS
 10
51.6196702081
 20
135.2656301714
  0
VERTEX
  8
0
 62
7
  6
CONTINUOUS
 10
51.6100950092
 20
135.3626121824
  0
SEQEND
  0
LINE
  8
0
 62
7
  6
CONTINUOUS
 10
63.2829742304
 20
150.3839408571
 11
63.2829742304
 21
142.7817901774
  0
LINE
  8
0
 62
7
  6
CONTINUOUS
 10
63.2829742304
 20
133.5839408571
 11
63.2829742304
 21
125.9817901774
  0
LINE
  8
0
 62
7
  6
CONTINUOUS
 10
63.2829742304
 20
116.7839408571
 11
63.2829742304
 21
109.1817901774
  0
LINE
  8
0
 62
7
  6
CONTINUOUS
 10
63.2829742304
 20
99.9839408571
 11
63.2829742304
 21
92.3328655172
  0
POLYLINE
  8
2_FEATURE
 62
7
  6
CONTINUOUS
 66
1
 70
0
  0
VERTEX
  8
2_FEATURE
 62
7
  6
CONTINUOUS
 10
67.6829055368
 20
144.4578655172
  0
VERTEX
  8
2_FEATURE
 62
7
  6
CONTINUOUS
 10
67.7123988023
 20
144.6887652748
  0
VERTEX
  8
2_FEATURE
 62
7
  6
CONTINUOUS
 10
67.8009880924
 20
144.9084165956
  0
VERTEX
  8
2_FEATURE
 62
7
  6
CONTINUOUS
 10
67.9445878653
 20
145.0999583731
  0
VERTEX
  8
2_FEATURE
 62
7
  6
CONTINUOUS
 10
68.134944226
 20
145.2491597281
  0
VERTEX
  8
2_FEATURE
 62
7
  6
CONTINUOUS
 10
68.3602933907
 20
145.3442337003
  0
VERTEX
  8
2_FEATURE
 62
7
  6
CONTINUOUS
 10
68.6072229259
 20
145.3764568709
  0
SEQEND
  0
POLYLINE
  8
0
 62
7
  6
CONTINUOUS
 66
1
 70
0
  0
VERTEX
  8
0
 62
7
  6
CONTINUOUS
 10
51.6622430362
 20
107.5817134081
  0
VERTEX
  8
0
 62
7
  6
CONTINUOUS
 10
51.6196702081
 20
107.5001008631
  0
VERTEX
  8
0
 62
7
  6
CONTINUOUS
 10
51.6100950092
 20
107.4031188521
  0
SEQEND
  0
LINE
  8
0
 62
7
  6
CONTINUOUS
 10
51.726017143
 20
124.4324345007
 11
51.6622430362
 21
124.3817134081
  0
POLYLINE
  8
0
 62
7
  6
CONTINUOUS
 66
1
 70
0
  0
VERTEX
  8
0
 62
7
  6
CONTINUOUS
 10
116.9566775138
 20
109.9199156108
  0
VERTEX
  8
0
 62
7
  6
CONTINUOUS
 10
117.1642373178
 20
109.9506141838
  0
VERTEX
  8
0
 62
7
  6
CONTINUOUS
 10
117.4525037643
 20
110.00144475
  0
VERTEX
  8
0
 62
7
  6
CONTINUOUS
 10
117.7030311607
 20
110.0577381104
  0
VERTEX
  8
0
 62
7
  6
CONTINUOUS
 10
117.9024433572
 20
110.1184782017
  0
VERTEX
  8
0
 62
7
  6
CONTINUOUS
 10
118.0542520784
 20
110.1872594934
  0
VERTEX
  8
0
 62
7
  6
CONTINUOUS
 10
118.1733087631
 20
110.281364129
  0
VERTEX
  8
0
 62
7
  6
CONTINUOUS
 10
118.2509787272
 20
110.4329929935
  0
VERTEX
  8
0
 62
7
  6
CONTINUOUS
 10
118.2572048305
 20
110.4956180719
  0
SEQEND
  0
POLYLINE
  8
0
 62
7
  6
CONTINUOUS
 66
1
 70
0
  0
VERTEX
  8
0
 62
7
  6
CONTINUOUS
 10
112.5990109825
 20
108.8833664044
  0
VERTEX
  8
0
 62
7
  6
CONTINUOUS
 10
113.550316908
 20
109.0017251213
  0
VERTEX
  8
0
 62
7
  6
CONTINUOUS
 10
114.5747546671
 20
109.1790394138
  0
VERTEX
  8
0
 62
7
  6
CONTINUOUS
 10
115.5138645904
 20
109.4000069571
  0
VERTEX
  8
0
 62
7
  6
CONTINUOUS
 10
116.3453253751
 20
109.6622700301
  0
SEQEND
  0
POLYLINE
  8
2_FEATURE
 62
7
  6
CONTINUOUS
 66
1
 70
0
  0
VERTEX
  8
2_FEATURE
 62
7
  6
CONTINUOUS
 10
75.8572229259
 20
103.6315439901
  0
VERTEX
  8
2_FEATURE
 62
7
  6
CONTINUOUS
 10
75.6814995753
 20
103.6148011681
  0
VERTEX
  8
2_FEATURE
 62
7
  6
CONTINUOUS
 10
75.5171253321
 20
103.5649179211
  0
VERTEX
  8
2_FEATURE
 62
7
  6
CONTINUOUS
 10
75.3677089244
 20
103.4851880991
  0
VERTEX
  8
2_FEATURE
 62
7
  6
CONTINUOUS
 10
75.2367639361
 20
103.3784102388
  0
VERTEX
  8
2_FEATURE
 62
7
  6
CONTINUOUS
 10
75.128294847
 20
103.2476498821
  0
VERTEX
  8
2_FEATURE
 62
7
  6
CONTINUOUS
 10
75.0464780854
 20
103.0966990242
  0
VERTEX
  8
2_FEATURE
 62
7
  6
CONTINUOUS
 10
74.9954739817
 20
102.9312422026
  0
VERTEX
  8
2_FEATURE
 62
7
  6
CONTINUOUS
 10
74.9780983819
 20
102.7578655172
  0
SEQEND
  0
LINE
  8
2_FEATURE
 62
7
  6
CONTINUOUS
 10
78.0659800358
 20
105.5473933741
 11
75.8572229259
 21
105.5341870444
  0
LINE
  8
2_FEATURE
 62
7
  6
CONTINUOUS
 10
78.0659800358
 20
105.5473933741
 11
78.6072229259
 21
105.5475060367
  0
LINE
  8
2_FEATURE
 62
7
  6
CONTINUOUS
 10
90.760435759
 20
105.8470568387
 11
90.1072229259
 21
105.8475060367
  0
LINE
  8
2_FEATURE
 62
7
  6
CONTINUOUS
 10
90.760435759
 20
105.8470568387
 11
100.1072229259
 21
105.7892741635
  0
POLYLINE
  8
2_FEATURE
 62
7
  6
CONTINUOUS
 66
1
 70
0
  0
VERTEX
  8
2_FEATURE
 62
7
  6
CONTINUOUS
 10
75.8572229259
 20
105.5341870444
  0
VERTEX
  8
2_FEATURE
 62
7
  6
CONTINUOUS
 10
75.6814995753
 20
105.5509298664
  0
VERTEX
  8
2_FEATURE
 62
7
  6
CONTINUOUS
 10
75.5171253321
 20
105.6008131134
  0
VERTEX
  8
2_FEATURE
 62
7
  6
CONTINUOUS
 10
75.3677089244
 20
105.6805429354
  0
VERTEX
  8
2_FEATURE
 62
7
  6
CONTINUOUS
 10
75.2367639361
 20
105.7873207957
  0
VERTEX
  8
2_FEATURE
 62
7
  6
CONTINUOUS
 10
75.128294847
 20
105.9180811524
  0
VERTEX
  8
2_FEATURE
 62
7
  6
CONTINUOUS
 10
75.0464780854
 20
106.0690320103
  0
VERTEX
  8
2_FEATURE
 62
7
  6
CONTINUOUS
 10
74.9954739817
 20
106.2344888319
  0
VERTEX
  8
2_FEATURE
 62
7
  6
CONTINUOUS
 10
74.9780983819
 20
106.4078655172
  0
SEQEND
  0
LINE
  8
0
 62
7
  6
CONTINUOUS
 10
117.1652283858
 20
99.2149595549
 11
116.9566813938
 21
99.2458137886
  0
POLYLINE
  8
0
 62
7
  6
CONTINUOUS
 66
1
 70
0
  0
VERTEX
  8
0
 62
7
  6
CONTINUOUS
 10
51.7260147275
 20
118.333297714
  0
VERTEX
  8
0
 62
7
  6
CONTINUOUS
 10
52.3691204768
 20
118.0622700301
  0
VERTEX
  8
0
 62
7
  6
CONTINUOUS
 10
53.2005812615
 20
117.8000069571
  0
VERTEX
  8
0
 62
7
  6
CONTINUOUS
 10
54.1396911847
 20
117.5790394138
  0
VERTEX
  8
0
 62
7
  6
CONTINUOUS
 10
55.1641289439
 20
117.4017251213
  0
VERTEX
  8
0
 62
7
  6
CONTINUOUS
 10
56.1154348694
 20
117.2833664044
  0
SEQEND
  0
POLYLINE
  8
2_FEATURE
 62
7
  6
CONTINUOUS
 66
1
 70
0
  0
VERTEX
  8
2_FEATURE
 62
7
  6
CONTINUOUS
 10
67.6829055368
 20
98.3078655172
  0
VERTEX
  8
2_FEATURE
 62
7
  6
CONTINUOUS
 10
67.7123988023
 20
98.0769657597
  0
VERTEX
  8
2_FEATURE
 62
7
  6
CONTINUOUS
 10
67.8009880924
 20
97.8573144388
  0
VERTEX
  8
2_FEATURE
 62
7
  6
CONTINUOUS
 10
67.9445878653
 20
97.6657726614
  0
VERTEX
  8
2_FEATURE
 62
7
  6
CONTINUOUS
 10
68.134944226
 20
97.5165713064
  0
VERTEX
  8
2_FEATURE
 62
7
  6
CONTINUOUS
 10
68.3602933907
 20
97.4214973341
  0
VERTEX
  8
2_FEATURE
 62
7
  6
CONTINUOUS
 10
68.6072229259
 20
97.3892741635
  0
SEQEND
  0
LINE
  8
2_FEATURE
 62
7
  6
CONTINUOUS
 10
67.6829055368
 20
149.1078655172
 11
67.6829055368
 21
148.7078655172
  0
LINE
  8
2_FEATURE
 62
7
  6
CONTINUOUS
 10
67.6829055368
 20
132.3078655172
 11
67.6829055368
 21
131.9078655172
  0
LINE
  8
2_FEATURE
 62
7
  6
CONTINUOUS
 10
67.6829055368
 20
115.5078655172
 11
67.6829055368
 21
115.1078655172
  0
LINE
  8
2_FEATURE
 62
7
  6
CONTINUOUS
 10
67.6829055368
 20
98.7078655172
 11
67.6829055368
 21
98.3078655172
  0
LINE
  8
2_FEATURE
 62
7
  6
CONTINUOUS
 10
67.6829055368
 20
110.4578655172
 11
67.6829055368
 21
110.8578655172
  0
LINE
  8
2_FEATURE
 62
7
  6
CONTINUOUS
 10
67.6829055368
 20
127.2578655172
 11
67.6829055368
 21
127.6578655172
  0
LINE
  8
2_FEATURE
 62
7
  6
CONTINUOUS
 10
67.6829055368
 20
144.0578655172
 11
67.6829055368
 21
144.4578655172
  0
POLYLINE
  8
2_FEATURE
 62
7
  6
CONTINUOUS
 66
1
 70
0
  0
VERTEX
  8
2_FEATURE
 62
7
  6
CONTINUOUS
 10
67.6829055368
 20
127.6578655172
  0
VERTEX
  8
2_FEATURE
 62
7
  6
CONTINUOUS
 10
67.7123988023
 20
127.8887652748
  0
VERTEX
  8
2_FEATURE
 62
7
  6
CONTINUOUS
 10
67.8009880924
 20
128.1084165956
  0
VERTEX
  8
2_FEATURE
 62
7
  6
CONTINUOUS
 10
67.9445878653
 20
128.2999583731
  0
VERTEX
  8
2_FEATURE
 62
7
  6
CONTINUOUS
 10
68.134944226
 20
128.4491597281
  0
VERTEX
  8
2_FEATURE
 62
7
  6
CONTINUOUS
 10
68.3602933907
 20
128.5442337003
  0
VERTEX
  8
2_FEATURE
 62
7
  6
CONTINUOUS
 10
68.6072229259
 20
128.5764568709
  0
SEQEND
  0
LINE
  8
0
 62
7
  6
CONTINUOUS
 10
112.5992092766
 20
108.8833657959
 11
112.5984062328
 21
108.8833257974
  0
LINE
  8
0
 62
7
  6
CONTINUOUS
 10
56.1152365753
 20
108.6823652386
 11
56.116039619
 21
108.6824052371
  0
LINE
  8
2_FEATURE
 62
7
  6
CONTINUOUS
 10
100.1072229259
 20
108.0264568709
 11
90.6484658161
 21
107.9683376604
  0
LINE
  8
2_FEATURE
 62
7
  6
CONTINUOUS
 10
78.0659800358
 20
109.5973933741
 11
68.6072229259
 21
109.5392741635
  0
LINE
  8
2_FEATURE
 62
7
  6
CONTINUOUS
 10
90.6484658161
 20
107.9683376604
 11
90.1072229259
 21
107.9682249978
  0
LINE
  8
0
 62
7
  6
CONTINUOUS
 10
56.1165095735
 20
108.6824053212
 11
62.7835861673
 21
108.6824053212
  0
LINE
  8
0
 62
7
  6
CONTINUOUS
 10
112.5979362784
 20
108.8833257133
 11
105.9308447282
 21
108.8833257133
  0
LINE
  8
2_FEATURE
 62
7
  6
CONTINUOUS
 10
78.0659800358
 20
109.5973933741
 11
78.6072229259
 21
109.5975060367
  0
LINE
  8
2_FEATURE
 62
7
  6
CONTINUOUS
 10
78.6072229259
 20
107.6682249978
 11
77.9540100928
 21
107.6686741958
  0
LINE
  8
2_FEATURE
 62
7
  6
CONTINUOUS
 10
90.760435759
 20
109.8970568387
 11
90.1072229259
 21
109.8975060367
  0
LINE
  8
2_FEATURE
 62
7
  6
CONTINUOUS
 10
77.9540100928
 20
107.6686741958
 11
75.8572229259
 21
107.6815439901
  0
LINE
  8
2_FEATURE
 62
7
  6
CONTINUOUS
 10
90.760435759
 20
109.8970568387
 11
92.8572229259
 21
109.8841870444
  0
POLYLINE
  8
2_FEATURE
 62
7
  6
CONTINUOUS
 66
1
 70
0
  0
VERTEX
  8
2_FEATURE
 62
7
  6
CONTINUOUS
 10
68.6072229259
 20
109.5392741635
  0
VERTEX
  8
2_FEATURE
 62
7
  6
CONTINUOUS
 10
68.3602933852
 20
109.5714973356
  0
VERTEX
  8
2_FEATURE
 62
7
  6
CONTINUOUS
 10
68.1349443432
 20
109.6665712373
  0
VERTEX
  8
2_FEATURE
 62
7
  6
CONTINUOUS
 10
67.944587751
 20
109.8157727783
  0
VERTEX
  8
2_FEATURE
 62
7
  6
CONTINUOUS
 10
67.8009878164
 20
110.0073149292
  0
VERTEX
  8
2_FEATURE
 62
7
  6
CONTINUOUS
 10
67.7123987679
 20
110.2269658924
  0
VERTEX
  8
2_FEATURE
 62
7
  6
CONTINUOUS
 10
67.6829055368
 20
110.4578655172
  0
SEQEND
  0
POLYLINE
  8
0
 62
7
  6
CONTINUOUS
 66
1
 70
0
  0
VERTEX
  8
0
 62
7
  6
CONTINUOUS
 10
51.6622430362
 20
151.9840176264
  0
VERTEX
  8
0
 62
7
  6
CONTINUOUS
 10
51.6196702081
 20
152.0656301714
  0
VERTEX
  8
0
 62
7
  6
CONTINUOUS
 10
51.6100950092
 20
152.1626121824
  0
SEQEND
  0
POLYLINE
  8
2_FEATURE
 62
7
  6
CONTINUOUS
 66
1
 70
0
  0
VERTEX
  8
2_FEATURE
 62
7
  6
CONTINUOUS
 10
67.6829055368
 20
115.1078655172
  0
VERTEX
  8
2_FEATURE
 62
7
  6
CONTINUOUS
 10
67.7123988023
 20
114.8769657597
  0
VERTEX
  8
2_FEATURE
 62
7
  6
CONTINUOUS
 10
67.8009880924
 20
114.6573144388
  0
VERTEX
  8
2_FEATURE
 62
7
  6
CONTINUOUS
 10
67.9445878653
 20
114.4657726614
  0
VERTEX
  8
2_FEATURE
 62
7
  6
CONTINUOUS
 10
68.134944226
 20
114.3165713064
  0
VERTEX
  8
2_FEATURE
 62
7
  6
CONTINUOUS
 10
68.3602933907
 20
114.2214973341
  0
VERTEX
  8
2_FEATURE
 62
7
  6
CONTINUOUS
 10
68.6072229259
 20
114.1892741635
  0
SEQEND
  0
POLYLINE
  8
2_FEATURE
 62
7
  6
CONTINUOUS
 66
1
 70
0
  0
VERTEX
  8
2_FEATURE
 62
7
  6
CONTINUOUS
 10
67.6829055368
 20
131.9078655172
  0
VERTEX
  8
2_FEATURE
 62
7
  6
CONTINUOUS
 10
67.7123988023
 20
131.6769657597
  0
VERTEX
  8
2_FEATURE
 62
7
  6
CONTINUOUS
 10
67.8009880924
 20
131.4573144388
  0
VERTEX
  8
2_FEATURE
 62
7
  6
CONTINUOUS
 10
67.9445878653
 20
131.2657726614
  0
VERTEX
  8
2_FEATURE
 62
7
  6
CONTINUOUS
 10
68.134944226
 20
131.1165713064
  0
VERTEX
  8
2_FEATURE
 62
7
  6
CONTINUOUS
 10
68.3602933907
 20
131.0214973341
  0
VERTEX
  8
2_FEATURE
 62
7
  6
CONTINUOUS
 10
68.6072229259
 20
130.9892741635
  0
SEQEND
  0
POLYLINE
  8
2_FEATURE
 62
7
  6
CONTINUOUS
 66
1
 70
0
  0
VERTEX
  8
2_FEATURE
 62
7
  6
CONTINUOUS
 10
67.6829055368
 20
110.8578655172
  0
VERTEX
  8
2_FEATURE
 62
7
  6
CONTINUOUS
 10
67.7123988023
 20
111.0887652748
  0
VERTEX
  8
2_FEATURE
 62
7
  6
CONTINUOUS
 10
67.8009880924
 20
111.3084165956
  0
VERTEX
  8
2_FEATURE
 62
7
  6
CONTINUOUS
 10
67.9445878653
 20
111.4999583731
  0
VERTEX
  8
2_FEATURE
 62
7
  6
CONTINUOUS
 10
68.134944226
 20
111.6491597281
  0
VERTEX
  8
2_FEATURE
 62
7
  6
CONTINUOUS
 10
68.3602933907
 20
111.7442337003
  0
VERTEX
  8
2_FEATURE
 62
7
  6
CONTINUOUS
 10
68.6072229259
 20
111.7764568709
  0
SEQEND
  0
POLYLINE
  8
0
 62
7
  6
CONTINUOUS
 66
1
 70
0
  0
VERTEX
  8
0
 62
7
  6
CONTINUOUS
 10
51.757768338
 20
107.6458154237
  0
VERTEX
  8
0
 62
7
  6
CONTINUOUS
 10
51.5502085341
 20
107.6151168506
  0
VERTEX
  8
0
 62
7
  6
CONTINUOUS
 10
51.2619420876
 20
107.5642862845
  0
VERTEX
  8
0
 62
7
  6
CONTINUOUS
 10
51.0114146912
 20
107.5079929241
  0
VERTEX
  8
0
 62
7
  6
CONTINUOUS
 10
50.8120024947
 20
107.4472528328
  0
VERTEX
  8
0
 62
7
  6
CONTINUOUS
 10
50.6601937734
 20
107.3784715411
  0
VERTEX
  8
0
 62
7
  6
CONTINUOUS
 10
50.5411370888
 20
107.2843669055
  0
VERTEX
  8
0
 62
7
  6
CONTINUOUS
 10
50.4634671246
 20
107.1327380409
  0
VERTEX
  8
0
 62
7
  6
CONTINUOUS
 10
50.4572410214
 20
107.0701129626
  0
SEQEND
  0
POLYLINE
  8
0
 62
7
  6
CONTINUOUS
 66
1
 70
0
  0
VERTEX
  8
0
 62
7
  6
CONTINUOUS
 10
56.1154348694
 20
108.68236463
  0
VERTEX
  8
0
 62
7
  6
CONTINUOUS
 10
55.1641289439
 20
108.5640059131
  0
VERTEX
  8
0
 62
7
  6
CONTINUOUS
 10
54.1396911847
 20
108.3866916207
  0
VERTEX
  8
0
 62
7
  6
CONTINUOUS
 10
53.2005812615
 20
108.1657240774
  0
VERTEX
  8
0
 62
7
  6
CONTINUOUS
 10
52.3691204768
 20
107.9034610044
  0
SEQEND
  0
POLYLINE
  8
2_FEATURE
 62
7
  6
CONTINUOUS
 66
1
 70
0
  0
VERTEX
  8
2_FEATURE
 62
7
  6
CONTINUOUS
 10
92.8572229259
 20
113.9341870444
  0
VERTEX
  8
2_FEATURE
 62
7
  6
CONTINUOUS
 10
93.0329462766
 20
113.9509298664
  0
VERTEX
  8
2_FEATURE
 62
7
  6
CONTINUOUS
 10
93.1973205198
 20
114.0008131134
  0
VERTEX
  8
2_FEATURE
 62
7
  6
CONTINUOUS
 10
93.3467369275
 20
114.0805429354
  0
VERTEX
  8
2_FEATURE
 62
7
  6
CONTINUOUS
 10
93.4776819157
 20
114.1873207957
  0
VERTEX
  8
2_FEATURE
 62
7
  6
CONTINUOUS
 10
93.5861510049
 20
114.3180811524
  0
VERTEX
  8
2_FEATURE
 62
7
  6
CONTINUOUS
 10
93.6679677664
 20
114.4690320103
  0
VERTEX
  8
2_FEATURE
 62
7
  6
CONTINUOUS
 10
93.7189718702
 20
114.6344888319
  0
VERTEX
  8
2_FEATURE
 62
7
  6
CONTINUOUS
 10
93.7363474699
 20
114.8078655172
  0
SEQEND
  0
LINE
  8
2_FEATURE
 62
7
  6
CONTINUOUS
 10
92.8572229259
 20
112.0315439901
 11
90.6484658161
 21
112.0183376604
  0
LINE
  8
2_FEATURE
 62
7
  6
CONTINUOUS
 10
90.6484658161
 20
112.0183376604
 11
90.1072229259
 21
112.0182249978
  0
LINE
  8
2_FEATURE
 62
7
  6
CONTINUOUS
 10
78.6072229259
 20
111.7182249978
 11
77.9540100928
 21
111.7186741958
  0
LINE
  8
2_FEATURE
 62
7
  6
CONTINUOUS
 10
77.9540100928
 20
111.7186741958
 11
68.6072229259
 21
111.7764568709
  0
POLYLINE
  8
2_FEATURE
 62
7
  6
CONTINUOUS
 66
1
 70
0
  0
VERTEX
  8
2_FEATURE
 62
7
  6
CONTINUOUS
 10
92.8572229259
 20
112.0315439901
  0
VERTEX
  8
2_FEATURE
 62
7
  6
CONTINUOUS
 10
93.0329462766
 20
112.0148011681
  0
VERTEX
  8
2_FEATURE
 62
7
  6
CONTINUOUS
 10
93.1973205198
 20
111.9649179211
  0
VERTEX
  8
2_FEATURE
 62
7
  6
CONTINUOUS
 10
93.3467369275
 20
111.8851880991
  0
VERTEX
  8
2_FEATURE
 62
7
  6
CONTINUOUS
 10
93.4776819157
 20
111.7784102388
  0
VERTEX
  8
2_FEATURE
 62
7
  6
CONTINUOUS
 10
93.5861510049
 20
111.6476498821
  0
VERTEX
  8
2_FEATURE
 62
7
  6
CONTINUOUS
 10
93.6679677664
 20
111.4966990242
  0
VERTEX
  8
2_FEATURE
 62
7
  6
CONTINUOUS
 10
93.7189718702
 20
111.3312422026
  0
VERTEX
  8
2_FEATURE
 62
7
  6
CONTINUOUS
 10
93.7363474699
 20
111.1578655172
  0
SEQEND
  0
POLYLINE
  8
2_FEATURE
 62
7
  6
CONTINUOUS
 66
1
 70
0
  0
VERTEX
  8
2_FEATURE
 62
7
  6
CONTINUOUS
 10
100.1072229259
 20
108.0264568709
  0
VERTEX
  8
2_FEATURE
 62
7
  6
CONTINUOUS
 10
100.3541524667
 20
107.9942336988
  0
VERTEX
  8
2_FEATURE
 62
7
  6
CONTINUOUS
 10
100.5795015086
 20
107.8991597972
  0
VERTEX
  8
2_FEATURE
 62
7
  6
CONTINUOUS
 10
100.7698581009
 20
107.7499582562
  0
VERTEX
  8
2_FEATURE
 62
7
  6
CONTINUOUS
 10
100.9134580355
 20
107.5584161053
  0
VERTEX
  8
2_FEATURE
 62
7
  6
CONTINUOUS
 10
101.002047084
 20
107.3387651421
  0
VERTEX
  8
2_FEATURE
 62
7
  6
CONTINUOUS
 10
101.0315403151
 20
107.1078655172
  0
SEQEND
  0
LINE
  8
0
 62
7
  6
CONTINUOUS
 10
51.726017143
 20
135.1332965338
 11
51.6622430362
 21
135.1840176264
  0
POLYLINE
  8
2_FEATURE
 62
7
  6
CONTINUOUS
 66
1
 70
0
  0
VERTEX
  8
2_FEATURE
 62
7
  6
CONTINUOUS
 10
67.6829055368
 20
148.7078655172
  0
VERTEX
  8
2_FEATURE
 62
7
  6
CONTINUOUS
 10
67.7123988023
 20
148.4769657597
  0
VERTEX
  8
2_FEATURE
 62
7
  6
CONTINUOUS
 10
67.8009880924
 20
148.2573144388
  0
VERTEX
  8
2_FEATURE
 62
7
  6
CONTINUOUS
 10
67.9445878653
 20
148.0657726614
  0
VERTEX
  8
2_FEATURE
 62
7
  6
CONTINUOUS
 10
68.134944226
 20
147.9165713064
  0
VERTEX
  8
2_FEATURE
 62
7
  6
CONTINUOUS
 10
68.3602933907
 20
147.8214973341
  0
VERTEX
  8
2_FEATURE
 62
7
  6
CONTINUOUS
 10
68.6072229259
 20
147.7892741635
  0
SEQEND
  0
POLYLINE
  8
2_FEATURE
 62
7
  6
CONTINUOUS
 66
1
 70
0
  0
VERTEX
  8
2_FEATURE
 62
7
  6
CONTINUOUS
 10
74.9780983819
 20
102.3578655172
  0
VERTEX
  8
2_FEATURE
 62
7
  6
CONTINUOUS
 10
74.9955641314
 20
102.1840441782
  0
VERTEX
  8
2_FEATURE
 62
7
  6
CONTINUOUS
 10
75.0470018054
 20
102.0177899726
  0
VERTEX
  8
2_FEATURE
 62
7
  6
CONTINUOUS
 10
75.1295427372
 20
101.8662428637
  0
VERTEX
  8
2_FEATURE
 62
7
  6
CONTINUOUS
 10
75.2385735691
 20
101.735532481
  0
VERTEX
  8
2_FEATURE
 62
7
  6
CONTINUOUS
 10
75.369500579
 20
101.6293536458
  0
VERTEX
  8
2_FEATURE
 62
7
  6
CONTINUOUS
 10
75.5183284069
 20
101.550315267
  0
VERTEX
  8
2_FEATURE
 62
7
  6
CONTINUOUS
 10
75.6819571617
 20
101.5008390543
  0
VERTEX
  8
2_FEATURE
 62
7
  6
CONTINUOUS
 10
75.8572229259
 20
101.4841870444
  0
SEQEND
  0
POLYLINE
  8
2_FEATURE
 62
7
  6
CONTINUOUS
 66
1
 70
0
  0
VERTEX
  8
2_FEATURE
 62
7
  6
CONTINUOUS
 10
74.9780983819
 20
119.1578655172
  0
VERTEX
  8
2_FEATURE
 62
7
  6
CONTINUOUS
 10
74.9955641314
 20
118.9840441782
  0
VERTEX
  8
2_FEATURE
 62
7
  6
CONTINUOUS
 10
75.0470018054
 20
118.8177899726
  0
VERTEX
  8
2_FEATURE
 62
7
  6
CONTINUOUS
 10
75.1295427372
 20
118.6662428637
  0
VERTEX
  8
2_FEATURE
 62
7
  6
CONTINUOUS
 10
75.2385735691
 20
118.535532481
  0
VERTEX
  8
2_FEATURE
 62
7
  6
CONTINUOUS
 10
75.369500579
 20
118.4293536458
  0
VERTEX
  8
2_FEATURE
 62
7
  6
CONTINUOUS
 10
75.5183284069
 20
118.350315267
  0
VERTEX
  8
2_FEATURE
 62
7
  6
CONTINUOUS
 10
75.6819571617
 20
118.3008390543
  0
VERTEX
  8
2_FEATURE
 62
7
  6
CONTINUOUS
 10
75.8572229259
 20
118.2841870444
  0
SEQEND
  0
LINE
  8
2_FEATURE
 62
7
  6
CONTINUOUS
 10
74.9780983819
 20
136.3578655172
 11
74.9780983819
 21
135.9578655172
  0
LINE
  8
2_FEATURE
 62
7
  6
CONTINUOUS
 10
74.9780983819
 20
119.5578655172
 11
74.9780983819
 21
119.1578655172
  0
LINE
  8
2_FEATURE
 62
7
  6
CONTINUOUS
 10
74.9780983819
 20
102.7578655172
 11
74.9780983819
 21
102.3578655172
  0
LINE
  8
2_FEATURE
 62
7
  6
CONTINUOUS
 10
74.9780983819
 20
106.4078655172
 11
74.9780983819
 21
106.8078655172
  0
LINE
  8
2_FEATURE
 62
7
  6
CONTINUOUS
 10
74.9780983819
 20
123.2078655172
 11
74.9780983819
 21
123.6078655172
  0
LINE
  8
2_FEATURE
 62
7
  6
CONTINUOUS
 10
74.9780983819
 20
140.0078655172
 11
74.9780983819
 21
140.4078655172
  0
POLYLINE
  8
2_FEATURE
 62
7
  6
CONTINUOUS
 66
1
 70
0
  0
VERTEX
  8
2_FEATURE
 62
7
  6
CONTINUOUS
 10
74.9780983819
 20
140.4078655172
  0
VERTEX
  8
2_FEATURE
 62
7
  6
CONTINUOUS
 10
74.9955641314
 20
140.5816868563
  0
VERTEX
  8
2_FEATURE
 62
7
  6
CONTINUOUS
 10
75.0470018054
 20
140.7479410619
  0
VERTEX
  8
2_FEATURE
 62
7
  6
CONTINUOUS
 10
75.1295427372
 20
140.8994881708
  0
VERTEX
  8
2_FEATURE
 62
7
  6
CONTINUOUS
 10
75.2385735691
 20
141.0301985535
  0
VERTEX
  8
2_FEATURE
 62
7
  6
CONTINUOUS
 10
75.369500579
 20
141.1363773887
  0
VERTEX
  8
2_FEATURE
 62
7
  6
CONTINUOUS
 10
75.5183284069
 20
141.2154157675
  0
VERTEX
  8
2_FEATURE
 62
7
  6
CONTINUOUS
 10
75.6819571617
 20
141.2648919802
  0
VERTEX
  8
2_FEATURE
 62
7
  6
CONTINUOUS
 10
75.8572229259
 20
141.2815439901
  0
SEQEND
  0
POLYLINE
  8
2_FEATURE
 62
7
  6
CONTINUOUS
 66
1
 70
0
  0
VERTEX
  8
2_FEATURE
 62
7
  6
CONTINUOUS
 10
74.9780983819
 20
123.6078655172
  0
VERTEX
  8
2_FEATURE
 62
7
  6
CONTINUOUS
 10
74.9955641314
 20
123.7816868563
  0
VERTEX
  8
2_FEATURE
 62
7
  6
CONTINUOUS
 10
75.0470018054
 20
123.9479410619
  0
VERTEX
  8
2_FEATURE
 62
7
  6
CONTINUOUS
 10
75.1295427372
 20
124.0994881708
  0
VERTEX
  8
2_FEATURE
 62
7
  6
CONTINUOUS
 10
75.2385735691
 20
124.2301985535
  0
VERTEX
  8
2_FEATURE
 62
7
  6
CONTINUOUS
 10
75.369500579
 20
124.3363773887
  0
VERTEX
  8
2_FEATURE
 62
7
  6
CONTINUOUS
 10
75.5183284069
 20
124.4154157675
  0
VERTEX
  8
2_FEATURE
 62
7
  6
CONTINUOUS
 10
75.6819571617
 20
124.4648919802
  0
VERTEX
  8
2_FEATURE
 62
7
  6
CONTINUOUS
 10
75.8572229259
 20
124.4815439901
  0
SEQEND
  0
LINE
  8
0
 62
7
  6
CONTINUOUS
 10
52.3691204768
 20
124.7034610044
 11
51.7260147275
 21
124.4324333205
  0
POLYLINE
  8
2_FEATURE
 62
7
  6
CONTINUOUS
 66
1
 70
0
  0
VERTEX
  8
2_FEATURE
 62
7
  6
CONTINUOUS
 10
100.1072229259
 20
117.9392741635
  0
VERTEX
  8
2_FEATURE
 62
7
  6
CONTINUOUS
 10
100.3541524667
 20
117.9714973356
  0
VERTEX
  8
2_FEATURE
 62
7
  6
CONTINUOUS
 10
100.5795015086
 20
118.0665712373
  0
VERTEX
  8
2_FEATURE
 62
7
  6
CONTINUOUS
 10
100.7698581009
 20
118.2157727783
  0
VERTEX
  8
2_FEATURE
 62
7
  6
CONTINUOUS
 10
100.9134580355
 20
118.4073149292
  0
VERTEX
  8
2_FEATURE
 62
7
  6
CONTINUOUS
 10
101.002047084
 20
118.6269658924
  0
VERTEX
  8
2_FEATURE
 62
7
  6
CONTINUOUS
 10
101.0315403151
 20
118.8578655172
  0
SEQEND
  0
LINE
  8
2_FEATURE
 62
7
  6
CONTINUOUS
 10
78.0659800358
 20
114.2473933741
 11
68.6072229259
 21
114.1892741635
  0
LINE
  8
2_FEATURE
 62
7
  6
CONTINUOUS
 10
92.8572229259
 20
116.0815439901
 11
90.6484658161
 21
116.0683376604
  0
LINE
  8
2_FEATURE
 62
7
  6
CONTINUOUS
 10
78.0659800358
 20
114.2473933741
 11
78.6072229259
 21
114.2475060367
  0
LINE
  8
2_FEATURE
 62
7
  6
CONTINUOUS
 10
90.6484658161
 20
116.0683376604
 11
90.1072229259
 21
116.0682249978
  0
LINE
  8
2_FEATURE
 62
7
  6
CONTINUOUS
 10
90.760435759
 20
113.9470568387
 11
90.1072229259
 21
113.9475060367
  0
LINE
  8
2_FEATURE
 62
7
  6
CONTINUOUS
 10
78.6072229259
 20
116.3682249978
 11
77.9540100928
 21
116.3686741958
  0
LINE
  8
2_FEATURE
 62
7
  6
CONTINUOUS
 10
90.760435759
 20
113.9470568387
 11
92.8572229259
 21
113.9341870444
  0
LINE
  8
2_FEATURE
 62
7
  6
CONTINUOUS
 10
77.9540100928
 20
116.3686741958
 11
68.6072229259
 21
116.4264568709
  0
LINE
  8
0
 62
7
  6
CONTINUOUS
 10
56.1152365753
 20
117.2833657959
 11
56.116039619
 21
117.2833257974
  0
LINE
  8
0
 62
7
  6
CONTINUOUS
 10
51.5492174981
 20
118.3507714745
 11
51.7577644582
 21
118.3199172459
  0
POLYLINE
  8
0
 62
7
  6
CONTINUOUS
 66
1
 70
0
  0
VERTEX
  8
0
 62
7
  6
CONTINUOUS
 10
116.9884311244
 20
99.2324333205
  0
VERTEX
  8
0
 62
7
  6
CONTINUOUS
 10
116.3453253751
 20
99.5034610044
  0
VERTEX
  8
0
 62
7
  6
CONTINUOUS
 10
115.5138645904
 20
99.7657240774
  0
VERTEX
  8
0
 62
7
  6
CONTINUOUS
 10
114.5747546671
 20
99.9866916207
  0
VERTEX
  8
0
 62
7
  6
CONTINUOUS
 10
113.550316908
 20
100.1640059131
  0
VERTEX
  8
0
 62
7
  6
CONTINUOUS
 10
112.5990109825
 20
100.28236463
  0
SEQEND
  0
POLYLINE
  8
2_FEATURE
 62
7
  6
CONTINUOUS
 66
1
 70
0
  0
VERTEX
  8
2_FEATURE
 62
7
  6
CONTINUOUS
 10
74.9780983819
 20
135.9578655172
  0
VERTEX
  8
2_FEATURE
 62
7
  6
CONTINUOUS
 10
74.9955641314
 20
135.7840441782
  0
VERTEX
  8
2_FEATURE
 62
7
  6
CONTINUOUS
 10
75.0470018054
 20
135.6177899726
  0
VERTEX
  8
2_FEATURE
 62
7
  6
CONTINUOUS
 10
75.1295427372
 20
135.4662428637
  0
VERTEX
  8
2_FEATURE
 62
7
  6
CONTINUOUS
 10
75.2385735691
 20
135.335532481
  0
VERTEX
  8
2_FEATURE
 62
7
  6
CONTINUOUS
 10
75.369500579
 20
135.2293536458
  0
VERTEX
  8
2_FEATURE
 62
7
  6
CONTINUOUS
 10
75.5183284069
 20
135.150315267
  0
VERTEX
  8
2_FEATURE
 62
7
  6
CONTINUOUS
 10
75.6819571617
 20
135.1008390543
  0
VERTEX
  8
2_FEATURE
 62
7
  6
CONTINUOUS
 10
75.8572229259
 20
135.0841870444
  0
SEQEND
  0
POLYLINE
  8
2_FEATURE
 62
7
  6
CONTINUOUS
 66
1
 70
0
  0
VERTEX
  8
2_FEATURE
 62
7
  6
CONTINUOUS
 10
74.9780983819
 20
106.8078655172
  0
VERTEX
  8
2_FEATURE
 62
7
  6
CONTINUOUS
 10
74.9955641314
 20
106.9816868563
  0
VERTEX
  8
2_FEATURE
 62
7
  6
CONTINUOUS
 10
75.0470018054
 20
107.1479410619
  0
VERTEX
  8
2_FEATURE
 62
7
  6
CONTINUOUS
 10
75.1295427372
 20
107.2994881708
  0
VERTEX
  8
2_FEATURE
 62
7
  6
CONTINUOUS
 10
75.2385735691
 20
107.4301985535
  0
VERTEX
  8
2_FEATURE
 62
7
  6
CONTINUOUS
 10
75.369500579
 20
107.5363773887
  0
VERTEX
  8
2_FEATURE
 62
7
  6
CONTINUOUS
 10
75.5183284069
 20
107.6154157675
  0
VERTEX
  8
2_FEATURE
 62
7
  6
CONTINUOUS
 10
75.6819571617
 20
107.6648919802
  0
VERTEX
  8
2_FEATURE
 62
7
  6
CONTINUOUS
 10
75.8572229259
 20
107.6815439901
  0
SEQEND
  0
LINE
  8
0
 62
7
  6
CONTINUOUS
 10
51.726017143
 20
107.6324345007
 11
51.6622430362
 21
107.5817134081
  0
POLYLINE
  8
2_FEATURE
 62
7
  6
CONTINUOUS
 66
1
 70
0
  0
VERTEX
  8
2_FEATURE
 62
7
  6
CONTINUOUS
 10
68.6072229259
 20
116.4264568709
  0
VERTEX
  8
2_FEATURE
 62
7
  6
CONTINUOUS
 10
68.3602933852
 20
116.3942336988
  0
VERTEX
  8
2_FEATURE
 62
7
  6
CONTINUOUS
 10
68.1349443432
 20
116.2991597972
  0
VERTEX
  8
2_FEATURE
 62
7
  6
CONTINUOUS
 10
67.944587751
 20
116.1499582562
  0
VERTEX
  8
2_FEATURE
 62
7
  6
CONTINUOUS
 10
67.8009878164
 20
115.9584161053
  0
VERTEX
  8
2_FEATURE
 62
7
  6
CONTINUOUS
 10
67.7123987679
 20
115.7387651421
  0
VERTEX
  8
2_FEATURE
 62
7
  6
CONTINUOUS
 10
67.6829055368
 20
115.5078655172
  0
SEQEND
  0
LINE
  8
2_FEATURE
 62
7
  6
CONTINUOUS
 10
78.0659800358
 20
118.2973933741
 11
75.8572229259
 21
118.2841870444
  0
LINE
  8
0
 62
7
  6
CONTINUOUS
 10
105.9308447282
 20
117.0824053212
 11
112.5979362784
 21
117.0824053212
  0
LINE
  8
0
 62
7
  6
CONTINUOUS
 10
62.7835861673
 20
117.2833257133
 11
56.1165095735
 21
117.2833257133
  0
LINE
  8
2_FEATURE
 62
7
  6
CONTINUOUS
 10
78.0659800358
 20
118.2973933741
 11
78.6072229259
 21
118.2975060367
  0
LINE
  8
2_FEATURE
 62
7
  6
CONTINUOUS
 10
90.760435759
 20
117.9970568387
 11
90.1072229259
 21
117.9975060367
  0
LINE
  8
2_FEATURE
 62
7
  6
CONTINUOUS
 10
90.760435759
 20
117.9970568387
 11
100.1072229259
 21
117.9392741635
  0
LINE
  8
0
 62
7
  6
CONTINUOUS
 10
112.5992092766
 20
117.0823652386
 11
112.5984062328
 21
117.0824052371
  0
LINE
  8
2_FEATURE
 62
7
  6
CONTINUOUS
 10
79.4675824065
 20
144.4578655172
 11
79.4675824065
 21
144.0578655172
  0
LINE
  8
2_FEATURE
 62
7
  6
CONTINUOUS
 10
79.4675824065
 20
140.4078655172
 11
79.4675824065
 21
140.0078655172
  0
LINE
  8
2_FEATURE
 62
7
  6
CONTINUOUS
 10
79.4675824065
 20
127.6578655172
 11
79.4675824065
 21
127.2578655172
  0
LINE
  8
2_FEATURE
 62
7
  6
CONTINUOUS
 10
79.4675824065
 20
123.6078655172
 11
79.4675824065
 21
123.2078655172
  0
LINE
  8
2_FEATURE
 62
7
  6
CONTINUOUS
 10
79.4675824065
 20
110.8578655172
 11
79.4675824065
 21
110.4578655172
  0
LINE
  8
2_FEATURE
 62
7
  6
CONTINUOUS
 10
79.4675824065
 20
106.8078655172
 11
79.4675824065
 21
106.4078655172
  0
LINE
  8
2_FEATURE
 62
7
  6
CONTINUOUS
 10
79.4675824065
 20
98.3078655172
 11
79.4675824065
 21
98.7078655172
  0
LINE
  8
2_FEATURE
 62
7
  6
CONTINUOUS
 10
79.4675824065
 20
102.3578655172
 11
79.4675824065
 21
102.7578655172
  0
LINE
  8
2_FEATURE
 62
7
  6
CONTINUOUS
 10
79.4675824065
 20
115.1078655172
 11
79.4675824065
 21
115.5078655172
  0
LINE
  8
2_FEATURE
 62
7
  6
CONTINUOUS
 10
79.4675824065
 20
119.1578655172
 11
79.4675824065
 21
119.5578655172
  0
LINE
  8
2_FEATURE
 62
7
  6
CONTINUOUS
 10
79.4675824065
 20
131.9078655172
 11
79.4675824065
 21
132.3078655172
  0
LINE
  8
2_FEATURE
 62
7
  6
CONTINUOUS
 10
79.4675824065
 20
135.9578655172
 11
79.4675824065
 21
136.3578655172
  0
LINE
  8
2_FEATURE
 62
7
  6
CONTINUOUS
 10
79.4675824065
 20
148.7078655172
 11
79.4675824065
 21
149.1078655172
  0
LINE
  8
0
 62
7
  6
CONTINUOUS
 10
116.3453253751
 20
143.2622700301
 11
116.9884311244
 21
143.533297714
  0
POLYLINE
  8
0
 62
7
  6
CONTINUOUS
 66
1
 70
0
  0
VERTEX
  8
0
 62
7
  6
CONTINUOUS
 10
116.9566775138
 20
126.7199156108
  0
VERTEX
  8
0
 62
7
  6
CONTINUOUS
 10
117.1642373178
 20
126.7506141838
  0
VERTEX
  8
0
 62
7
  6
CONTINUOUS
 10
117.4525037643
 20
126.80144475
  0
VERTEX
  8
0
 62
7
  6
CONTINUOUS
 10
117.7030311607
 20
126.8577381104
  0
VERTEX
  8
0
 62
7
  6
CONTINUOUS
 10
117.9024433572
 20
126.9184782017
  0
VERTEX
  8
0
 62
7
  6
CONTINUOUS
 10
118.0542520784
 20
126.9872594934
  0
VERTEX
  8
0
 62
7
  6
CONTINUOUS
 10
118.1733087631
 20
127.081364129
  0
VERTEX
  8
0
 62
7
  6
CONTINUOUS
 10
118.2509787272
 20
127.2329929935
  0
VERTEX
  8
0
 62
7
  6
CONTINUOUS
 10
118.2572048305
 20
127.2956180719
  0
SEQEND
  0
POLYLINE
  8
0
 62
7
  6
CONTINUOUS
 66
1
 70
0
  0
VERTEX
  8
0
 62
7
  6
CONTINUOUS
 10
112.5990109825
 20
125.6833664044
  0
VERTEX
  8
0
 62
7
  6
CONTINUOUS
 10
113.550316908
 20
125.8017251213
  0
VERTEX
  8
0
 62
7
  6
CONTINUOUS
 10
114.5747546671
 20
125.9790394138
  0
VERTEX
  8
0
 62
7
  6
CONTINUOUS
 10
115.5138645904
 20
126.2000069571
  0
VERTEX
  8
0
 62
7
  6
CONTINUOUS
 10
116.3453253751
 20
126.4622700301
  0
SEQEND
  0
POLYLINE
  8
2_FEATURE
 62
7
  6
CONTINUOUS
 66
1
 70
0
  0
VERTEX
  8
2_FEATURE
 62
7
  6
CONTINUOUS
 10
75.8572229259
 20
120.4315439901
  0
VERTEX
  8
2_FEATURE
 62
7
  6
CONTINUOUS
 10
75.6814995753
 20
120.4148011681
  0
VERTEX
  8
2_FEATURE
 62
7
  6
CONTINUOUS
 10
75.5171253321
 20
120.3649179211
  0
VERTEX
  8
2_FEATURE
 62
7
  6
CONTINUOUS
 10
75.3677089244
 20
120.2851880991
  0
VERTEX
  8
2_FEATURE
 62
7
  6
CONTINUOUS
 10
75.2367639361
 20
120.1784102388
  0
VERTEX
  8
2_FEATURE
 62
7
  6
CONTINUOUS
 10
75.128294847
 20
120.0476498821
  0
VERTEX
  8
2_FEATURE
 62
7
  6
CONTINUOUS
 10
75.0464780854
 20
119.8966990242
  0
VERTEX
  8
2_FEATURE
 62
7
  6
CONTINUOUS
 10
74.9954739817
 20
119.7312422026
  0
VERTEX
  8
2_FEATURE
 62
7
  6
CONTINUOUS
 10
74.9780983819
 20
119.5578655172
  0
SEQEND
  0
LINE
  8
2_FEATURE
 62
7
  6
CONTINUOUS
 10
100.1072229259
 20
120.1764568709
 11
90.6484658161
 21
120.1183376604
  0
LINE
  8
2_FEATURE
 62
7
  6
CONTINUOUS
 10
78.0659800358
 20
122.3473933741
 11
75.8572229259
 21
122.3341870444
  0
LINE
  8
2_FEATURE
 62
7
  6
CONTINUOUS
 10
90.6484658161
 20
120.1183376604
 11
90.1072229259
 21
120.1182249978
  0
LINE
  8
2_FEATURE
 62
7
  6
CONTINUOUS
 10
78.0659800358
 20
122.3473933741
 11
78.6072229259
 21
122.3475060367
  0
LINE
  8
2_FEATURE
 62
7
  6
CONTINUOUS
 10
78.6072229259
 20
120.4182249978
 11
77.9540100928
 21
120.4186741958
  0
LINE
  8
2_FEATURE
 62
7
  6
CONTINUOUS
 10
90.760435759
 20
122.6470568387
 11
90.1072229259
 21
122.6475060367
  0
LINE
  8
2_FEATURE
 62
7
  6
CONTINUOUS
 10
77.9540100928
 20
120.4186741958
 11
75.8572229259
 21
120.4315439901
  0
LINE
  8
2_FEATURE
 62
7
  6
CONTINUOUS
 10
90.760435759
 20
122.6470568387
 11
100.1072229259
 21
122.5892741635
  0
POLYLINE
  8
2_FEATURE
 62
7
  6
CONTINUOUS
 66
1
 70
0
  0
VERTEX
  8
2_FEATURE
 62
7
  6
CONTINUOUS
 10
75.8572229259
 20
122.3341870444
  0
VERTEX
  8
2_FEATURE
 62
7
  6
CONTINUOUS
 10
75.6814995753
 20
122.3509298664
  0
VERTEX
  8
2_FEATURE
 62
7
  6
CONTINUOUS
 10
75.5171253321
 20
122.4008131134
  0
VERTEX
  8
2_FEATURE
 62
7
  6
CONTINUOUS
 10
75.3677089244
 20
122.4805429354
  0
VERTEX
  8
2_FEATURE
 62
7
  6
CONTINUOUS
 10
75.2367639361
 20
122.5873207957
  0
VERTEX
  8
2_FEATURE
 62
7
  6
CONTINUOUS
 10
75.128294847
 20
122.7180811524
  0
VERTEX
  8
2_FEATURE
 62
7
  6
CONTINUOUS
 10
75.0464780854
 20
122.8690320103
  0
VERTEX
  8
2_FEATURE
 62
7
  6
CONTINUOUS
 10
74.9954739817
 20
123.0344888319
  0
VERTEX
  8
2_FEATURE
 62
7
  6
CONTINUOUS
 10
74.9780983819
 20
123.2078655172
  0
SEQEND
  0
LINE
  8
0
 62
7
  6
CONTINUOUS
 10
117.1652283538
 20
116.01495956
 11
116.9566813937
 21
116.0458137886
  0
POLYLINE
  8
0
 62
7
  6
CONTINUOUS
 66
1
 70
0
  0
VERTEX
  8
0
 62
7
  6
CONTINUOUS
 10
51.7260147275
 20
135.133297714
  0
VERTEX
  8
0
 62
7
  6
CONTINUOUS
 10
52.3691204768
 20
134.8622700301
  0
VERTEX
  8
0
 62
7
  6
CONTINUOUS
 10
53.2005812615
 20
134.6000069571
  0
VERTEX
  8
0
 62
7
  6
CONTINUOUS
 10
54.1396911847
 20
134.3790394138
  0
VERTEX
  8
0
 62
7
  6
CONTINUOUS
 10
55.1641289439
 20
134.2017251213
  0
VERTEX
  8
0
 62
7
  6
CONTINUOUS
 10
56.1154348694
 20
134.0833664044
  0
SEQEND
  0
LINE
  8
AXES
 62
2
  6
CENTER
 10
84.3572229259
 20
129.9828655172
 11
84.3572229259
 21
127.5829655172
  0
LINE
  8
AXES
 62
2
  6
CONTINUOUS
 10
84.3572229259
 20
126.4628655172
 11
84.3572229259
 21
124.7028655172
  0
LINE
  8
AXES
 62
2
  6
CENTER
 10
84.3572229259
 20
121.1828655172
 11
84.3572229259
 21
123.5827655172
  0
LINE
  8
0
 62
7
  6
CONTINUOUS
 10
112.5992092766
 20
125.6833657959
 11
112.5984062328
 21
125.6833257974
  0
LINE
  8
2_FEATURE
 62
7
  6
CONTINUOUS
 10
100.1072229259
 20
124.8264568709
 11
90.6484658161
 21
124.7683376604
  0
LINE
  8
2_FEATURE
 62
7
  6
CONTINUOUS
 10
90.6484658161
 20
124.7683376604
 11
90.1072229259
 21
124.7682249978
  0
LINE
  8
0
 62
7
  6
CONTINUOUS
 10
56.1165095735
 20
125.4824053212
 11
62.7835861673
 21
125.4824053212
  0
LINE
  8
AXES
 62
2
  6
CENTER
 10
88.7572229259
 20
125.5828655172
 11
86.3573229259
 21
125.5828655172
  0
LINE
  8
AXES
 62
2
  6
CONTINUOUS
 10
85.2372229259
 20
125.5828655172
 11
83.4772229259
 21
125.5828655172
  0
LINE
  8
AXES
 62
2
  6
CENTER
 10
79.9572229259
 20
125.5828655172
 11
82.3571229259
 21
125.5828655172
  0
LINE
  8
0
 62
7
  6
CONTINUOUS
 10
112.5979362784
 20
125.6833257133
 11
105.9308447282
 21
125.6833257133
  0
LINE
  8
2_FEATURE
 62
7
  6
CONTINUOUS
 10
78.6072229259
 20
124.4682249978
 11
77.9540100928
 21
124.4686741958
  0
LINE
  8
2_FEATURE
 62
7
  6
CONTINUOUS
 10
77.9540100928
 20
124.4686741958
 11
75.8572229259
 21
124.4815439901
  0
POLYLINE
  8
2_FEATURE
 62
7
  6
CONTINUOUS
 66
1
 70
0
  0
VERTEX
  8
2_FEATURE
 62
7
  6
CONTINUOUS
 10
68.6072229259
 20
126.3392741635
  0
VERTEX
  8
2_FEATURE
 62
7
  6
CONTINUOUS
 10
68.3602933852
 20
126.3714973356
  0
VERTEX
  8
2_FEATURE
 62
7
  6
CONTINUOUS
 10
68.1349443432
 20
126.4665712373
  0
VERTEX
  8
2_FEATURE
 62
7
  6
CONTINUOUS
 10
67.944587751
 20
126.6157727783
  0
VERTEX
  8
2_FEATURE
 62
7
  6
CONTINUOUS
 10
67.8009878164
 20
126.8073149292
  0
VERTEX
  8
2_FEATURE
 62
7
  6
CONTINUOUS
 10
67.7123987679
 20
127.0269658924
  0
VERTEX
  8
2_FEATURE
 62
7
  6
CONTINUOUS
 10
67.6829055368
 20
127.2578655172
  0
SEQEND
  0
LINE
  8
0
 62
7
  6
CONTINUOUS
 10
116.9884287088
 20
99.2324345007
 11
117.0522028157
 21
99.1817134081
  0
LINE
  8
0
 62
7
  6
CONTINUOUS
 10
51.726017143
 20
151.9332965338
 11
51.6622430362
 21
151.9840176264
  0
POLYLINE
  8
0
 62
7
  6
CONTINUOUS
 66
1
 70
0
  0
VERTEX
  8
0
 62
7
  6
CONTINUOUS
 10
56.1154348694
 20
125.48236463
  0
VERTEX
  8
0
 62
7
  6
CONTINUOUS
 10
55.1641289439
 20
125.3640059131
  0
VERTEX
  8
0
 62
7
  6
CONTINUOUS
 10
54.1396911847
 20
125.1866916207
  0
VERTEX
  8
0
 62
7
  6
CONTINUOUS
 10
53.2005812615
 20
124.9657240774
  0
VERTEX
  8
0
 62
7
  6
CONTINUOUS
 10
52.3691204768
 20
124.7034610044
  0
SEQEND
  0
LINE
  8
0
 62
7
  6
CONTINUOUS
 10
56.1152365753
 20
125.4823652386
 11
56.116039619
 21
125.4824052371
  0
LINE
  8
2_FEATURE
 62
7
  6
CONTINUOUS
 10
78.0659800358
 20
126.3973933741
 11
68.6072229259
 21
126.3392741635
  0
LINE
  8
2_FEATURE
 62
7
  6
CONTINUOUS
 10
92.8572229259
 20
128.8315439901
 11
90.6484658161
 21
128.8183376604
  0
LINE
  8
2_FEATURE
 62
7
  6
CONTINUOUS
 10
78.0659800358
 20
126.3973933741
 11
78.6072229259
 21
126.3975060367
  0
LINE
  8
2_FEATURE
 62
7
  6
CONTINUOUS
 10
90.6484658161
 20
128.8183376604
 11
90.1072229259
 21
128.8182249978
  0
LINE
  8
2_FEATURE
 62
7
  6
CONTINUOUS
 10
90.760435759
 20
126.6970568387
 11
90.1072229259
 21
126.6975060367
  0
LINE
  8
2_FEATURE
 62
7
  6
CONTINUOUS
 10
78.6072229259
 20
128.5182249978
 11
77.9540100928
 21
128.5186741958
  0
LINE
  8
2_FEATURE
 62
7
  6
CONTINUOUS
 10
90.760435759
 20
126.6970568387
 11
92.8572229259
 21
126.6841870444
  0
LINE
  8
2_FEATURE
 62
7
  6
CONTINUOUS
 10
77.9540100928
 20
128.5186741958
 11
68.6072229259
 21
128.5764568709
  0
POLYLINE
  8
2_FEATURE
 62
7
  6
CONTINUOUS
 66
1
 70
0
  0
VERTEX
  8
2_FEATURE
 62
7
  6
CONTINUOUS
 10
100.1072229259
 20
124.8264568709
  0
VERTEX
  8
2_FEATURE
 62
7
  6
CONTINUOUS
 10
100.3541524667
 20
124.7942336988
  0
VERTEX
  8
2_FEATURE
 62
7
  6
CONTINUOUS
 10
100.5795015086
 20
124.6991597972
  0
VERTEX
  8
2_FEATURE
 62
7
  6
CONTINUOUS
 10
100.7698581009
 20
124.5499582562
  0
VERTEX
  8
2_FEATURE
 62
7
  6
CONTINUOUS
 10
100.9134580355
 20
124.3584161053
  0
VERTEX
  8
2_FEATURE
 62
7
  6
CONTINUOUS
 10
101.002047084
 20
124.1387651421
  0
VERTEX
  8
2_FEATURE
 62
7
  6
CONTINUOUS
 10
101.0315403151
 20
123.9078655172
  0
SEQEND
  0
LINE
  8
2_FEATURE
 62
7
  6
CONTINUOUS
 10
89.2468634454
 20
152.8578655172
 11
89.2468634454
 21
152.4578655172
  0
LINE
  8
2_FEATURE
 62
7
  6
CONTINUOUS
 10
89.2468634454
 20
148.8078655172
 11
89.2468634454
 21
148.4078655172
  0
LINE
  8
2_FEATURE
 62
7
  6
CONTINUOUS
 10
89.2468634454
 20
136.0578655172
 11
89.2468634454
 21
135.6578655172
  0
LINE
  8
2_FEATURE
 62
7
  6
CONTINUOUS
 10
89.2468634454
 20
132.0078655172
 11
89.2468634454
 21
131.6078655172
  0
LINE
  8
2_FEATURE
 62
7
  6
CONTINUOUS
 10
89.2468634454
 20
119.2578655172
 11
89.2468634454
 21
118.8578655172
  0
LINE
  8
2_FEATURE
 62
7
  6
CONTINUOUS
 10
89.2468634454
 20
115.2078655172
 11
89.2468634454
 21
114.8078655172
  0
LINE
  8
2_FEATURE
 62
7
  6
CONTINUOUS
 10
89.2468634454
 20
102.4578655172
 11
89.2468634454
 21
102.0578655172
  0
LINE
  8
2_FEATURE
 62
7
  6
CONTINUOUS
 10
89.2468634454
 20
106.7078655172
 11
89.2468634454
 21
107.1078655172
  0
LINE
  8
2_FEATURE
 62
7
  6
CONTINUOUS
 10
89.2468634454
 20
110.7578655172
 11
89.2468634454
 21
111.1578655172
  0
LINE
  8
2_FEATURE
 62
7
  6
CONTINUOUS
 10
89.2468634454
 20
123.5078655172
 11
89.2468634454
 21
123.9078655172
  0
LINE
  8
2_FEATURE
 62
7
  6
CONTINUOUS
 10
89.2468634454
 20
127.5578655172
 11
89.2468634454
 21
127.9578655172
  0
LINE
  8
2_FEATURE
 62
7
  6
CONTINUOUS
 10
89.2468634454
 20
140.3078655172
 11
89.2468634454
 21
140.7078655172
  0
LINE
  8
2_FEATURE
 62
7
  6
CONTINUOUS
 10
89.2468634454
 20
144.3578655172
 11
89.2468634454
 21
144.7578655172
  0
LINE
  8
0
 62
7
  6
CONTINUOUS
 10
116.9884287088
 20
143.5332965338
 11
117.0522028157
 21
143.5840176264
  0
LINE
  8
0
 62
7
  6
CONTINUOUS
 10
52.3691204768
 20
107.9034610044
 11
51.7260147275
 21
107.6324333205
  0
POLYLINE
  8
0
 62
7
  6
CONTINUOUS
 66
1
 70
0
  0
VERTEX
  8
0
 62
7
  6
CONTINUOUS
 10
51.757768338
 20
124.4458154237
  0
VERTEX
  8
0
 62
7
  6
CONTINUOUS
 10
51.5502085341
 20
124.4151168506
  0
VERTEX
  8
0
 62
7
  6
CONTINUOUS
 10
51.2619420876
 20
124.3642862845
  0
VERTEX
  8
0
 62
7
  6
CONTINUOUS
 10
51.0114146912
 20
124.3079929241
  0
VERTEX
  8
0
 62
7
  6
CONTINUOUS
 10
50.8120024947
 20
124.2472528328
  0
VERTEX
  8
0
 62
7
  6
CONTINUOUS
 10
50.6601937734
 20
124.1784715411
  0
VERTEX
  8
0
 62
7
  6
CONTINUOUS
 10
50.5411370888
 20
124.0843669055
  0
VERTEX
  8
0
 62
7
  6
CONTINUOUS
 10
50.4634671246
 20
123.9327380409
  0
VERTEX
  8
0
 62
7
  6
CONTINUOUS
 10
50.4572410214
 20
123.8701129626
  0
SEQEND
  0
POLYLINE
  8
2_FEATURE
 62
7
  6
CONTINUOUS
 66
1
 70
0
  0
VERTEX
  8
2_FEATURE
 62
7
  6
CONTINUOUS
 10
92.8572229259
 20
130.7341870444
  0
VERTEX
  8
2_FEATURE
 62
7
  6
CONTINUOUS
 10
93.0329462766
 20
130.7509298664
  0
VERTEX
  8
2_FEATURE
 62
7
  6
CONTINUOUS
 10
93.1973205198
 20
130.8008131134
  0
VERTEX
  8
2_FEATURE
 62
7
  6
CONTINUOUS
 10
93.3467369275
 20
130.8805429354
  0
VERTEX
  8
2_FEATURE
 62
7
  6
CONTINUOUS
 10
93.4776819157
 20
130.9873207957
  0
VERTEX
  8
2_FEATURE
 62
7
  6
CONTINUOUS
 10
93.5861510049
 20
131.1180811524
  0
VERTEX
  8
2_FEATURE
 62
7
  6
CONTINUOUS
 10
93.6679677664
 20
131.2690320103
  0
VERTEX
  8
2_FEATURE
 62
7
  6
CONTINUOUS
 10
93.7189718702
 20
131.4344888319
  0
VERTEX
  8
2_FEATURE
 62
7
  6
CONTINUOUS
 10
93.7363474699
 20
131.6078655172
  0
SEQEND
  0
LINE
  8
2_FEATURE
 62
7
  6
CONTINUOUS
 10
78.0659800358
 20
131.0473933741
 11
68.6072229259
 21
130.9892741635
  0
LINE
  8
2_FEATURE
 62
7
  6
CONTINUOUS
 10
78.0659800358
 20
131.0473933741
 11
78.6072229259
 21
131.0475060367
  0
LINE
  8
2_FEATURE
 62
7
  6
CONTINUOUS
 10
90.760435759
 20
130.7470568387
 11
90.1072229259
 21
130.7475060367
  0
LINE
  8
2_FEATURE
 62
7
  6
CONTINUOUS
 10
90.760435759
 20
130.7470568387
 11
92.8572229259
 21
130.7341870444
  0
POLYLINE
  8
2_FEATURE
 62
7
  6
CONTINUOUS
 66
1
 70
0
  0
VERTEX
  8
2_FEATURE
 62
7
  6
CONTINUOUS
 10
92.8572229259
 20
128.8315439901
  0
VERTEX
  8
2_FEATURE
 62
7
  6
CONTINUOUS
 10
93.0329462766
 20
128.8148011681
  0
VERTEX
  8
2_FEATURE
 62
7
  6
CONTINUOUS
 10
93.1973205198
 20
128.7649179211
  0
VERTEX
  8
2_FEATURE
 62
7
  6
CONTINUOUS
 10
93.3467369275
 20
128.6851880991
  0
VERTEX
  8
2_FEATURE
 62
7
  6
CONTINUOUS
 10
93.4776819157
 20
128.5784102388
  0
VERTEX
  8
2_FEATURE
 62
7
  6
CONTINUOUS
 10
93.5861510049
 20
128.4476498821
  0
VERTEX
  8
2_FEATURE
 62
7
  6
CONTINUOUS
 10
93.6679677664
 20
128.2966990242
  0
VERTEX
  8
2_FEATURE
 62
7
  6
CONTINUOUS
 10
93.7189718702
 20
128.1312422026
  0
VERTEX
  8
2_FEATURE
 62
7
  6
CONTINUOUS
 10
93.7363474699
 20
127.9578655172
  0
SEQEND
  0
LINE
  8
0
 62
7
  6
CONTINUOUS
 10
51.549217495
 20
135.150771475
 11
51.7577644582
 21
135.1199172459
  0
POLYLINE
  8
0
 62
7
  6
CONTINUOUS
 66
1
 70
0
  0
VERTEX
  8
0
 62
7
  6
CONTINUOUS
 10
116.9884311244
 20
116.0324333205
  0
VERTEX
  8
0
 62
7
  6
CONTINUOUS
 10
116.3453253751
 20
116.3034610044
  0
VERTEX
  8
0
 62
7
  6
CONTINUOUS
 10
115.5138645904
 20
116.5657240774
  0
VERTEX
  8
0
 62
7
  6
CONTINUOUS
 10
114.5747546671
 20
116.7866916207
  0
VERTEX
  8
0
 62
7
  6
CONTINUOUS
 10
113.550316908
 20
116.9640059131
  0
VERTEX
  8
0
 62
7
  6
CONTINUOUS
 10
112.5990109825
 20
117.08236463
  0
SEQEND
  0
POLYLINE
  8
2_FEATURE
 62
7
  6
CONTINUOUS
 66
1
 70
0
  0
VERTEX
  8
2_FEATURE
 62
7
  6
CONTINUOUS
 10
93.7363474699
 20
115.2078655172
  0
VERTEX
  8
2_FEATURE
 62
7
  6
CONTINUOUS
 10
93.7188817205
 20
115.3816868563
  0
VERTEX
  8
2_FEATURE
 62
7
  6
CONTINUOUS
 10
93.6674440464
 20
115.5479410619
  0
VERTEX
  8
2_FEATURE
 62
7
  6
CONTINUOUS
 10
93.5849031146
 20
115.6994881708
  0
VERTEX
  8
2_FEATURE
 62
7
  6
CONTINUOUS
 10
93.4758722828
 20
115.8301985535
  0
VERTEX
  8
2_FEATURE
 62
7
  6
CONTINUOUS
 10
93.3449452728
 20
115.9363773887
  0
VERTEX
  8
2_FEATURE
 62
7
  6
CONTINUOUS
 10
93.1961174449
 20
116.0154157675
  0
VERTEX
  8
2_FEATURE
 62
7
  6
CONTINUOUS
 10
93.0324886901
 20
116.0648919802
  0
VERTEX
  8
2_FEATURE
 62
7
  6
CONTINUOUS
 10
92.8572229259
 20
116.0815439901
  0
SEQEND
  0
LINE
  8
2_FEATURE
 62
7
  6
CONTINUOUS
 10
93.7363474699
 20
144.7578655172
 11
93.7363474699
 21
144.3578655172
  0
LINE
  8
2_FEATURE
 62
7
  6
CONTINUOUS
 10
93.7363474699
 20
127.9578655172
 11
93.7363474699
 21
127.5578655172
  0
LINE
  8
2_FEATURE
 62
7
  6
CONTINUOUS
 10
93.7363474699
 20
111.1578655172
 11
93.7363474699
 21
110.7578655172
  0
LINE
  8
2_FEATURE
 62
7
  6
CONTINUOUS
 10
93.7363474699
 20
114.8078655172
 11
93.7363474699
 21
115.2078655172
  0
LINE
  8
2_FEATURE
 62
7
  6
CONTINUOUS
 10
93.7363474699
 20
131.6078655172
 11
93.7363474699
 21
132.0078655172
  0
LINE
  8
2_FEATURE
 62
7
  6
CONTINUOUS
 10
93.7363474699
 20
148.4078655172
 11
93.7363474699
 21
148.8078655172
  0
POLYLINE
  8
2_FEATURE
 62
7
  6
CONTINUOUS
 66
1
 70
0
  0
VERTEX
  8
2_FEATURE
 62
7
  6
CONTINUOUS
 10
93.7363474699
 20
144.3578655172
  0
VERTEX
  8
2_FEATURE
 62
7
  6
CONTINUOUS
 10
93.7188817205
 20
144.1840441782
  0
VERTEX
  8
2_FEATURE
 62
7
  6
CONTINUOUS
 10
93.6674440464
 20
144.0177899726
  0
VERTEX
  8
2_FEATURE
 62
7
  6
CONTINUOUS
 10
93.5849031146
 20
143.8662428637
  0
VERTEX
  8
2_FEATURE
 62
7
  6
CONTINUOUS
 10
93.4758722828
 20
143.735532481
  0
VERTEX
  8
2_FEATURE
 62
7
  6
CONTINUOUS
 10
93.3449452728
 20
143.6293536458
  0
VERTEX
  8
2_FEATURE
 62
7
  6
CONTINUOUS
 10
93.1961174449
 20
143.550315267
  0
VERTEX
  8
2_FEATURE
 62
7
  6
CONTINUOUS
 10
93.0324886901
 20
143.5008390543
  0
VERTEX
  8
2_FEATURE
 62
7
  6
CONTINUOUS
 10
92.8572229259
 20
143.4841870444
  0
SEQEND
  0
POLYLINE
  8
2_FEATURE
 62
7
  6
CONTINUOUS
 66
1
 70
0
  0
VERTEX
  8
2_FEATURE
 62
7
  6
CONTINUOUS
 10
93.7363474699
 20
127.5578655172
  0
VERTEX
  8
2_FEATURE
 62
7
  6
CONTINUOUS
 10
93.7188817205
 20
127.3840441782
  0
VERTEX
  8
2_FEATURE
 62
7
  6
CONTINUOUS
 10
93.6674440464
 20
127.2177899726
  0
VERTEX
  8
2_FEATURE
 62
7
  6
CONTINUOUS
 10
93.5849031146
 20
127.0662428637
  0
VERTEX
  8
2_FEATURE
 62
7
  6
CONTINUOUS
 10
93.4758722828
 20
126.935532481
  0
VERTEX
  8
2_FEATURE
 62
7
  6
CONTINUOUS
 10
93.3449452728
 20
126.8293536458
  0
VERTEX
  8
2_FEATURE
 62
7
  6
CONTINUOUS
 10
93.1961174449
 20
126.750315267
  0
VERTEX
  8
2_FEATURE
 62
7
  6
CONTINUOUS
 10
93.0324886901
 20
126.7008390543
  0
VERTEX
  8
2_FEATURE
 62
7
  6
CONTINUOUS
 10
92.8572229259
 20
126.6841870444
  0
SEQEND
  0
POLYLINE
  8
2_FEATURE
 62
7
  6
CONTINUOUS
 66
1
 70
0
  0
VERTEX
  8
2_FEATURE
 62
7
  6
CONTINUOUS
 10
100.1072229259
 20
134.7392741635
  0
VERTEX
  8
2_FEATURE
 62
7
  6
CONTINUOUS
 10
100.3541524667
 20
134.7714973356
  0
VERTEX
  8
2_FEATURE
 62
7
  6
CONTINUOUS
 10
100.5795015086
 20
134.8665712373
  0
VERTEX
  8
2_FEATURE
 62
7
  6
CONTINUOUS
 10
100.7698581009
 20
135.0157727783
  0
VERTEX
  8
2_FEATURE
 62
7
  6
CONTINUOUS
 10
100.9134580355
 20
135.2073149292
  0
VERTEX
  8
2_FEATURE
 62
7
  6
CONTINUOUS
 10
101.002047084
 20
135.4269658924
  0
VERTEX
  8
2_FEATURE
 62
7
  6
CONTINUOUS
 10
101.0315403151
 20
135.6578655172
  0
SEQEND
  0
POLYLINE
  8
2_FEATURE
 62
7
  6
CONTINUOUS
 66
1
 70
0
  0
VERTEX
  8
2_FEATURE
 62
7
  6
CONTINUOUS
 10
68.6072229259
 20
133.2264568709
  0
VERTEX
  8
2_FEATURE
 62
7
  6
CONTINUOUS
 10
68.3602933852
 20
133.1942336988
  0
VERTEX
  8
2_FEATURE
 62
7
  6
CONTINUOUS
 10
68.1349443432
 20
133.0991597972
  0
VERTEX
  8
2_FEATURE
 62
7
  6
CONTINUOUS
 10
67.944587751
 20
132.9499582562
  0
VERTEX
  8
2_FEATURE
 62
7
  6
CONTINUOUS
 10
67.8009878164
 20
132.7584161053
  0
VERTEX
  8
2_FEATURE
 62
7
  6
CONTINUOUS
 10
67.7123987679
 20
132.5387651421
  0
VERTEX
  8
2_FEATURE
 62
7
  6
CONTINUOUS
 10
67.6829055368
 20
132.3078655172
  0
SEQEND
  0
LINE
  8
2_FEATURE
 62
7
  6
CONTINUOUS
 10
92.8572229259
 20
132.8815439901
 11
90.6484658161
 21
132.8683376604
  0
LINE
  8
2_FEATURE
 62
7
  6
CONTINUOUS
 10
78.0659800358
 20
135.0973933741
 11
75.8572229259
 21
135.0841870444
  0
LINE
  8
2_FEATURE
 62
7
  6
CONTINUOUS
 10
90.6484658161
 20
132.8683376604
 11
90.1072229259
 21
132.8682249978
  0
LINE
  8
0
 62
7
  6
CONTINUOUS
 10
105.9308447282
 20
133.8824053212
 11
112.5979362784
 21
133.8824053212
  0
LINE
  8
0
 62
7
  6
CONTINUOUS
 10
62.7835861673
 20
134.0833257133
 11
56.1165095735
 21
134.0833257133
  0
LINE
  8
2_FEATURE
 62
7
  6
CONTINUOUS
 10
78.0659800358
 20
135.0973933741
 11
78.6072229259
 21
135.0975060367
  0
LINE
  8
2_FEATURE
 62
7
  6
CONTINUOUS
 10
78.6072229259
 20
133.1682249978
 11
77.9540100928
 21
133.1686741958
  0
LINE
  8
2_FEATURE
 62
7
  6
CONTINUOUS
 10
90.760435759
 20
134.7970568387
 11
90.1072229259
 21
134.7975060367
  0
LINE
  8
2_FEATURE
 62
7
  6
CONTINUOUS
 10
77.9540100928
 20
133.1686741958
 11
68.6072229259
 21
133.2264568709
  0
LINE
  8
2_FEATURE
 62
7
  6
CONTINUOUS
 10
90.760435759
 20
134.7970568387
 11
100.1072229259
 21
134.7392741635
  0
LINE
  8
0
 62
7
  6
CONTINUOUS
 10
56.1152365753
 20
134.0833657959
 11
56.116039619
 21
134.0833257974
  0
LINE
  8
0
 62
7
  6
CONTINUOUS
 10
112.5992092766
 20
133.8823652386
 11
112.5984062328
 21
133.8824052371
  0
POLYLINE
  8
2_FEATURE
 62
7
  6
CONTINUOUS
 66
1
 70
0
  0
VERTEX
  8
2_FEATURE
 62
7
  6
CONTINUOUS
 10
93.7363474699
 20
132.0078655172
  0
VERTEX
  8
2_FEATURE
 62
7
  6
CONTINUOUS
 10
93.7188817205
 20
132.1816868563
  0
VERTEX
  8
2_FEATURE
 62
7
  6
CONTINUOUS
 10
93.6674440464
 20
132.3479410619
  0
VERTEX
  8
2_FEATURE
 62
7
  6
CONTINUOUS
 10
93.5849031146
 20
132.4994881708
  0
VERTEX
  8
2_FEATURE
 62
7
  6
CONTINUOUS
 10
93.4758722828
 20
132.6301985535
  0
VERTEX
  8
2_FEATURE
 62
7
  6
CONTINUOUS
 10
93.3449452728
 20
132.7363773887
  0
VERTEX
  8
2_FEATURE
 62
7
  6
CONTINUOUS
 10
93.1961174449
 20
132.8154157675
  0
VERTEX
  8
2_FEATURE
 62
7
  6
CONTINUOUS
 10
93.0324886901
 20
132.8648919802
  0
VERTEX
  8
2_FEATURE
 62
7
  6
CONTINUOUS
 10
92.8572229259
 20
132.8815439901
  0
SEQEND
  0
POLYLINE
  8
2_FEATURE
 62
7
  6
CONTINUOUS
 66
1
 70
0
  0
VERTEX
  8
2_FEATURE
 62
7
  6
CONTINUOUS
 10
93.7363474699
 20
148.8078655172
  0
VERTEX
  8
2_FEATURE
 62
7
  6
CONTINUOUS
 10
93.7188817205
 20
148.9816868563
  0
VERTEX
  8
2_FEATURE
 62
7
  6
CONTINUOUS
 10
93.6674440464
 20
149.1479410619
  0
VERTEX
  8
2_FEATURE
 62
7
  6
CONTINUOUS
 10
93.5849031146
 20
149.2994881708
  0
VERTEX
  8
2_FEATURE
 62
7
  6
CONTINUOUS
 10
93.4758722828
 20
149.4301985535
  0
VERTEX
  8
2_FEATURE
 62
7
  6
CONTINUOUS
 10
93.3449452728
 20
149.5363773887
  0
VERTEX
  8
2_FEATURE
 62
7
  6
CONTINUOUS
 10
93.1961174449
 20
149.6154157675
  0
VERTEX
  8
2_FEATURE
 62
7
  6
CONTINUOUS
 10
93.0324886901
 20
149.6648919802
  0
VERTEX
  8
2_FEATURE
 62
7
  6
CONTINUOUS
 10
92.8572229259
 20
149.6815439901
  0
SEQEND
  0
POLYLINE
  8
2_FEATURE
 62
7
  6
CONTINUOUS
 66
1
 70
0
  0
VERTEX
  8
2_FEATURE
 62
7
  6
CONTINUOUS
 10
93.7363474699
 20
110.7578655172
  0
VERTEX
  8
2_FEATURE
 62
7
  6
CONTINUOUS
 10
93.7188817205
 20
110.5840441782
  0
VERTEX
  8
2_FEATURE
 62
7
  6
CONTINUOUS
 10
93.6674440464
 20
110.4177899726
  0
VERTEX
  8
2_FEATURE
 62
7
  6
CONTINUOUS
 10
93.5849031146
 20
110.2662428637
  0
VERTEX
  8
2_FEATURE
 62
7
  6
CONTINUOUS
 10
93.4758722828
 20
110.135532481
  0
VERTEX
  8
2_FEATURE
 62
7
  6
CONTINUOUS
 10
93.3449452728
 20
110.0293536458
  0
VERTEX
  8
2_FEATURE
 62
7
  6
CONTINUOUS
 10
93.1961174449
 20
109.950315267
  0
VERTEX
  8
2_FEATURE
 62
7
  6
CONTINUOUS
 10
93.0324886901
 20
109.9008390543
  0
VERTEX
  8
2_FEATURE
 62
7
  6
CONTINUOUS
 10
92.8572229259
 20
109.8841870444
  0
SEQEND
  0
LINE
  8
0
 62
7
  6
CONTINUOUS
 10
116.3453253751
 20
126.4622700301
 11
116.9884311244
 21
126.733297714
  0
POLYLINE
  8
0
 62
7
  6
CONTINUOUS
 66
1
 70
0
  0
VERTEX
  8
0
 62
7
  6
CONTINUOUS
 10
116.9566775138
 20
143.5199156108
  0
VERTEX
  8
0
 62
7
  6
CONTINUOUS
 10
117.1642373178
 20
143.5506141838
  0
VERTEX
  8
0
 62
7
  6
CONTINUOUS
 10
117.4525037643
 20
143.60144475
  0
VERTEX
  8
0
 62
7
  6
CONTINUOUS
 10
117.7030311607
 20
143.6577381104
  0
VERTEX
  8
0
 62
7
  6
CONTINUOUS
 10
117.9024433572
 20
143.7184782017
  0
VERTEX
  8
0
 62
7
  6
CONTINUOUS
 10
118.0542520784
 20
143.7872594934
  0
VERTEX
  8
0
 62
7
  6
CONTINUOUS
 10
118.1733087631
 20
143.881364129
  0
VERTEX
  8
0
 62
7
  6
CONTINUOUS
 10
118.2509787272
 20
144.0329929935
  0
VERTEX
  8
0
 62
7
  6
CONTINUOUS
 10
118.2572048305
 20
144.0956180719
  0
SEQEND
  0
POLYLINE
  8
2_FEATURE
 62
7
  6
CONTINUOUS
 66
1
 70
0
  0
VERTEX
  8
2_FEATURE
 62
7
  6
CONTINUOUS
 10
75.8572229259
 20
137.2315439901
  0
VERTEX
  8
2_FEATURE
 62
7
  6
CONTINUOUS
 10
75.6814995753
 20
137.2148011681
  0
VERTEX
  8
2_FEATURE
 62
7
  6
CONTINUOUS
 10
75.5171253321
 20
137.1649179211
  0
VERTEX
  8
2_FEATURE
 62
7
  6
CONTINUOUS
 10
75.3677089244
 20
137.0851880991
  0
VERTEX
  8
2_FEATURE
 62
7
  6
CONTINUOUS
 10
75.2367639361
 20
136.9784102388
  0
VERTEX
  8
2_FEATURE
 62
7
  6
CONTINUOUS
 10
75.128294847
 20
136.8476498821
  0
VERTEX
  8
2_FEATURE
 62
7
  6
CONTINUOUS
 10
75.0464780854
 20
136.6966990242
  0
VERTEX
  8
2_FEATURE
 62
7
  6
CONTINUOUS
 10
74.9954739817
 20
136.5312422026
  0
VERTEX
  8
2_FEATURE
 62
7
  6
CONTINUOUS
 10
74.9780983819
 20
136.3578655172
  0
SEQEND
  0
LINE
  8
2_FEATURE
 62
7
  6
CONTINUOUS
 10
100.1072229259
 20
136.9764568709
 11
90.6484658161
 21
136.9183376604
  0
LINE
  8
2_FEATURE
 62
7
  6
CONTINUOUS
 10
90.6484658161
 20
136.9183376604
 11
90.1072229259
 21
136.9182249978
  0
LINE
  8
2_FEATURE
 62
7
  6
CONTINUOUS
 10
78.6072229259
 20
137.2182249978
 11
77.9540100928
 21
137.2186741958
  0
LINE
  8
2_FEATURE
 62
7
  6
CONTINUOUS
 10
77.9540100928
 20
137.2186741958
 11
75.8572229259
 21
137.2315439901
  0
POLYLINE
  8
2_FEATURE
 62
7
  6
CONTINUOUS
 66
1
 70
0
  0
VERTEX
  8
2_FEATURE
 62
7
  6
CONTINUOUS
 10
75.8572229259
 20
139.1341870444
  0
VERTEX
  8
2_FEATURE
 62
7
  6
CONTINUOUS
 10
75.6814995753
 20
139.1509298664
  0
VERTEX
  8
2_FEATURE
 62
7
  6
CONTINUOUS
 10
75.5171253321
 20
139.2008131134
  0
VERTEX
  8
2_FEATURE
 62
7
  6
CONTINUOUS
 10
75.3677089244
 20
139.2805429354
  0
VERTEX
  8
2_FEATURE
 62
7
  6
CONTINUOUS
 10
75.2367639361
 20
139.3873207957
  0
VERTEX
  8
2_FEATURE
 62
7
  6
CONTINUOUS
 10
75.128294847
 20
139.5180811524
  0
VERTEX
  8
2_FEATURE
 62
7
  6
CONTINUOUS
 10
75.0464780854
 20
139.6690320103
  0
VERTEX
  8
2_FEATURE
 62
7
  6
CONTINUOUS
 10
74.9954739817
 20
139.8344888319
  0
VERTEX
  8
2_FEATURE
 62
7
  6
CONTINUOUS
 10
74.9780983819
 20
140.0078655172
  0
SEQEND
  0
LINE
  8
0
 62
7
  6
CONTINUOUS
 10
117.1652283538
 20
132.81495956
 11
116.9566813937
 21
132.8458137886
  0
POLYLINE
  8
0
 62
7
  6
CONTINUOUS
 66
1
 70
0
  0
VERTEX
  8
0
 62
7
  6
CONTINUOUS
 10
51.7260147275
 20
151.933297714
  0
VERTEX
  8
0
 62
7
  6
CONTINUOUS
 10
52.3691204768
 20
151.6622700301
  0
VERTEX
  8
0
 62
7
  6
CONTINUOUS
 10
53.2005812615
 20
151.4000069571
  0
VERTEX
  8
0
 62
7
  6
CONTINUOUS
 10
54.1396911847
 20
151.1790394138
  0
VERTEX
  8
0
 62
7
  6
CONTINUOUS
 10
55.1641289439
 20
151.0017251213
  0
VERTEX
  8
0
 62
7
  6
CONTINUOUS
 10
56.1154348694
 20
150.8833664044
  0
SEQEND
  0
LINE
  8
0
 62
7
  6
CONTINUOUS
 10
116.9884287088
 20
116.0324345007
 11
117.0522028157
 21
115.9817134081
  0
POLYLINE
  8
2_FEATURE
 62
7
  6
CONTINUOUS
 66
1
 70
0
  0
VERTEX
  8
2_FEATURE
 62
7
  6
CONTINUOUS
 10
101.0315403151
 20
140.3078655172
  0
VERTEX
  8
2_FEATURE
 62
7
  6
CONTINUOUS
 10
101.0020470495
 20
140.0769657597
  0
VERTEX
  8
2_FEATURE
 62
7
  6
CONTINUOUS
 10
100.9134577595
 20
139.8573144388
  0
VERTEX
  8
2_FEATURE
 62
7
  6
CONTINUOUS
 10
100.7698579866
 20
139.6657726614
  0
VERTEX
  8
2_FEATURE
 62
7
  6
CONTINUOUS
 10
100.5795016259
 20
139.5165713064
  0
VERTEX
  8
2_FEATURE
 62
7
  6
CONTINUOUS
 10
100.3541524611
 20
139.4214973341
  0
VERTEX
  8
2_FEATURE
 62
7
  6
CONTINUOUS
 10
100.1072229259
 20
139.3892741635
  0
SEQEND
  0
POLYLINE
  8
0
 62
7
  6
CONTINUOUS
 66
1
 70
0
  0
VERTEX
  8
0
 62
7
  6
CONTINUOUS
 10
112.5990109825
 20
142.4833664044
  0
VERTEX
  8
0
 62
7
  6
CONTINUOUS
 10
113.550316908
 20
142.6017251213
  0
VERTEX
  8
0
 62
7
  6
CONTINUOUS
 10
114.5747546671
 20
142.7790394138
  0
VERTEX
  8
0
 62
7
  6
CONTINUOUS
 10
115.5138645904
 20
143.0000069571
  0
VERTEX
  8
0
 62
7
  6
CONTINUOUS
 10
116.3453253751
 20
143.2622700301
  0
SEQEND
  0
LINE
  8
0
 62
7
  6
CONTINUOUS
 10
112.5992092766
 20
142.4833657959
 11
112.5984062328
 21
142.4833257974
  0
LINE
  8
2_FEATURE
 62
7
  6
CONTINUOUS
 10
78.0659800358
 20
139.1473933741
 11
75.8572229259
 21
139.1341870444
  0
LINE
  8
2_FEATURE
 62
7
  6
CONTINUOUS
 10
100.1072229259
 20
141.6264568709
 11
90.6484658161
 21
141.5683376604
  0
LINE
  8
2_FEATURE
 62
7
  6
CONTINUOUS
 10
78.0659800358
 20
139.1473933741
 11
78.6072229259
 21
139.1475060367
  0
LINE
  8
2_FEATURE
 62
7
  6
CONTINUOUS
 10
90.6484658161
 20
141.5683376604
 11
90.1072229259
 21
141.5682249978
  0
LINE
  8
2_FEATURE
 62
7
  6
CONTINUOUS
 10
90.760435759
 20
139.4470568387
 11
90.1072229259
 21
139.4475060367
  0
LINE
  8
2_FEATURE
 62
7
  6
CONTINUOUS
 10
78.6072229259
 20
141.2682249978
 11
77.9540100928
 21
141.2686741958
  0
LINE
  8
2_FEATURE
 62
7
  6
CONTINUOUS
 10
90.760435759
 20
139.4470568387
 11
100.1072229259
 21
139.3892741635
  0
LINE
  8
2_FEATURE
 62
7
  6
CONTINUOUS
 10
77.9540100928
 20
141.2686741958
 11
75.8572229259
 21
141.2815439901
  0
POLYLINE
  8
2_FEATURE
 62
7
  6
CONTINUOUS
 66
1
 70
0
  0
VERTEX
  8
2_FEATURE
 62
7
  6
CONTINUOUS
 10
68.6072229259
 20
143.1392741635
  0
VERTEX
  8
2_FEATURE
 62
7
  6
CONTINUOUS
 10
68.3602933852
 20
143.1714973356
  0
VERTEX
  8
2_FEATURE
 62
7
  6
CONTINUOUS
 10
68.1349443432
 20
143.2665712373
  0
VERTEX
  8
2_FEATURE
 62
7
  6
CONTINUOUS
 10
67.944587751
 20
143.4157727783
  0
VERTEX
  8
2_FEATURE
 62
7
  6
CONTINUOUS
 10
67.8009878164
 20
143.6073149292
  0
VERTEX
  8
2_FEATURE
 62
7
  6
CONTINUOUS
 10
67.7123987679
 20
143.8269658924
  0
VERTEX
  8
2_FEATURE
 62
7
  6
CONTINUOUS
 10
67.6829055368
 20
144.0578655172
  0
SEQEND
  0
POLYLINE
  8
2_FEATURE
 62
7
  6
CONTINUOUS
 66
1
 70
0
  0
VERTEX
  8
2_FEATURE
 62
7
  6
CONTINUOUS
 10
101.0315403151
 20
102.4578655172
  0
VERTEX
  8
2_FEATURE
 62
7
  6
CONTINUOUS
 10
101.0020470495
 20
102.6887652748
  0
VERTEX
  8
2_FEATURE
 62
7
  6
CONTINUOUS
 10
100.9134577595
 20
102.9084165956
  0
VERTEX
  8
2_FEATURE
 62
7
  6
CONTINUOUS
 10
100.7698579866
 20
103.0999583731
  0
VERTEX
  8
2_FEATURE
 62
7
  6
CONTINUOUS
 10
100.5795016259
 20
103.2491597281
  0
VERTEX
  8
2_FEATURE
 62
7
  6
CONTINUOUS
 10
100.3541524611
 20
103.3442337003
  0
VERTEX
  8
2_FEATURE
 62
7
  6
CONTINUOUS
 10
100.1072229259
 20
103.3764568709
  0
SEQEND
  0
POLYLINE
  8
2_FEATURE
 62
7
  6
CONTINUOUS
 66
1
 70
0
  0
VERTEX
  8
2_FEATURE
 62
7
  6
CONTINUOUS
 10
101.0315403151
 20
119.2578655172
  0
VERTEX
  8
2_FEATURE
 62
7
  6
CONTINUOUS
 10
101.0020470495
 20
119.4887652748
  0
VERTEX
  8
2_FEATURE
 62
7
  6
CONTINUOUS
 10
100.9134577595
 20
119.7084165956
  0
VERTEX
  8
2_FEATURE
 62
7
  6
CONTINUOUS
 10
100.7698579866
 20
119.8999583731
  0
VERTEX
  8
2_FEATURE
 62
7
  6
CONTINUOUS
 10
100.5795016259
 20
120.0491597281
  0
VERTEX
  8
2_FEATURE
 62
7
  6
CONTINUOUS
 10
100.3541524611
 20
120.1442337003
  0
VERTEX
  8
2_FEATURE
 62
7
  6
CONTINUOUS
 10
100.1072229259
 20
120.1764568709
  0
SEQEND
  0
LINE
  8
2_FEATURE
 62
7
  6
CONTINUOUS
 10
101.0315403151
 20
140.7078655172
 11
101.0315403151
 21
140.3078655172
  0
LINE
  8
2_FEATURE
 62
7
  6
CONTINUOUS
 10
101.0315403151
 20
123.9078655172
 11
101.0315403151
 21
123.5078655172
  0
LINE
  8
2_FEATURE
 62
7
  6
CONTINUOUS
 10
101.0315403151
 20
107.1078655172
 11
101.0315403151
 21
106.7078655172
  0
LINE
  8
2_FEATURE
 62
7
  6
CONTINUOUS
 10
101.0315403151
 20
102.0578655172
 11
101.0315403151
 21
102.4578655172
  0
LINE
  8
2_FEATURE
 62
7
  6
CONTINUOUS
 10
101.0315403151
 20
118.8578655172
 11
101.0315403151
 21
119.2578655172
  0
LINE
  8
2_FEATURE
 62
7
  6
CONTINUOUS
 10
101.0315403151
 20
135.6578655172
 11
101.0315403151
 21
136.0578655172
  0
LINE
  8
2_FEATURE
 62
7
  6
CONTINUOUS
 10
101.0315403151
 20
152.4578655172
 11
101.0315403151
 21
152.8578655172
  0
POLYLINE
  8
2_FEATURE
 62
7
  6
CONTINUOUS
 66
1
 70
0
  0
VERTEX
  8
2_FEATURE
 62
7
  6
CONTINUOUS
 10
101.0315403151
 20
123.5078655172
  0
VERTEX
  8
2_FEATURE
 62
7
  6
CONTINUOUS
 10
101.0020470495
 20
123.2769657597
  0
VERTEX
  8
2_FEATURE
 62
7
  6
CONTINUOUS
 10
100.9134577595
 20
123.0573144388
  0
VERTEX
  8
2_FEATURE
 62
7
  6
CONTINUOUS
 10
100.7698579866
 20
122.8657726614
  0
VERTEX
  8
2_FEATURE
 62
7
  6
CONTINUOUS
 10
100.5795016259
 20
122.7165713064
  0
VERTEX
  8
2_FEATURE
 62
7
  6
CONTINUOUS
 10
100.3541524611
 20
122.6214973341
  0
VERTEX
  8
2_FEATURE
 62
7
  6
CONTINUOUS
 10
100.1072229259
 20
122.5892741635
  0
SEQEND
  0
POLYLINE
  8
2_FEATURE
 62
7
  6
CONTINUOUS
 66
1
 70
0
  0
VERTEX
  8
2_FEATURE
 62
7
  6
CONTINUOUS
 10
101.0315403151
 20
106.7078655172
  0
VERTEX
  8
2_FEATURE
 62
7
  6
CONTINUOUS
 10
101.0020470495
 20
106.4769657597
  0
VERTEX
  8
2_FEATURE
 62
7
  6
CONTINUOUS
 10
100.9134577595
 20
106.2573144388
  0
VERTEX
  8
2_FEATURE
 62
7
  6
CONTINUOUS
 10
100.7698579866
 20
106.0657726614
  0
VERTEX
  8
2_FEATURE
 62
7
  6
CONTINUOUS
 10
100.5795016259
 20
105.9165713064
  0
VERTEX
  8
2_FEATURE
 62
7
  6
CONTINUOUS
 10
100.3541524611
 20
105.8214973341
  0
VERTEX
  8
2_FEATURE
 62
7
  6
CONTINUOUS
 10
100.1072229259
 20
105.7892741635
  0
SEQEND
  0
LINE
  8
0
 62
7
  6
CONTINUOUS
 10
116.9884287088
 20
126.7332965338
 11
117.0522028157
 21
126.7840176264
  0
LINE
  8
0
 62
7
  6
CONTINUOUS
 10
56.1152365753
 20
142.2823652386
 11
56.116039619
 21
142.2824052371
  0
LINE
  8
2_FEATURE
 62
7
  6
CONTINUOUS
 10
78.0659800358
 20
143.1973933741
 11
68.6072229259
 21
143.1392741635
  0
LINE
  8
0
 62
7
  6
CONTINUOUS
 10
56.1165095735
 20
142.2824053212
 11
62.7835861673
 21
142.2824053212
  0
LINE
  8
0
 62
7
  6
CONTINUOUS
 10
112.5979362784
 20
142.4833257133
 11
105.9308447282
 21
142.4833257133
  0
LINE
  8
2_FEATURE
 62
7
  6
CONTINUOUS
 10
78.0659800358
 20
143.1973933741
 11
78.6072229259
 21
143.1975060367
  0
LINE
  8
2_FEATURE
 62
7
  6
CONTINUOUS
 10
90.760435759
 20
143.4970568387
 11
90.1072229259
 21
143.4975060367
  0
LINE
  8
2_FEATURE
 62
7
  6
CONTINUOUS
 10
90.760435759
 20
143.4970568387
 11
92.8572229259
 21
143.4841870444
  0
POLYLINE
  8
2_FEATURE
 62
7
  6
CONTINUOUS
 66
1
 70
0
  0
VERTEX
  8
2_FEATURE
 62
7
  6
CONTINUOUS
 10
100.1072229259
 20
141.6264568709
  0
VERTEX
  8
2_FEATURE
 62
7
  6
CONTINUOUS
 10
100.3541524667
 20
141.5942336988
  0
VERTEX
  8
2_FEATURE
 62
7
  6
CONTINUOUS
 10
100.5795015086
 20
141.4991597972
  0
VERTEX
  8
2_FEATURE
 62
7
  6
CONTINUOUS
 10
100.7698581009
 20
141.3499582562
  0
VERTEX
  8
2_FEATURE
 62
7
  6
CONTINUOUS
 10
100.9134580355
 20
141.1584161053
  0
VERTEX
  8
2_FEATURE
 62
7
  6
CONTINUOUS
 10
101.002047084
 20
140.9387651421
  0
VERTEX
  8
2_FEATURE
 62
7
  6
CONTINUOUS
 10
101.0315403151
 20
140.7078655172
  0
SEQEND
  0
POLYLINE
  8
0
 62
7
  6
CONTINUOUS
 66
1
 70
0
  0
VERTEX
  8
0
 62
7
  6
CONTINUOUS
 10
116.9884311244
 20
132.8324333205
  0
VERTEX
  8
0
 62
7
  6
CONTINUOUS
 10
116.3453253751
 20
133.1034610044
  0
VERTEX
  8
0
 62
7
  6
CONTINUOUS
 10
115.5138645904
 20
133.3657240774
  0
VERTEX
  8
0
 62
7
  6
CONTINUOUS
 10
114.5747546671
 20
133.5866916207
  0
VERTEX
  8
0
 62
7
  6
CONTINUOUS
 10
113.550316908
 20
133.7640059131
  0
VERTEX
  8
0
 62
7
  6
CONTINUOUS
 10
112.5990109825
 20
133.88236463
  0
SEQEND
  0
POLYLINE
  8
0
 62
7
  6
CONTINUOUS
 66
1
 70
0
  0
VERTEX
  8
0
 62
7
  6
CONTINUOUS
 10
117.0522028157
 20
99.1817134081
  0
VERTEX
  8
0
 62
7
  6
CONTINUOUS
 10
117.0947756438
 20
99.1001008631
  0
VERTEX
  8
0
 62
7
  6
CONTINUOUS
 10
117.1043508427
 20
99.0031188521
  0
SEQEND
  0
POLYLINE
  8
2_FEATURE
 62
7
  6
CONTINUOUS
 66
1
 70
0
  0
VERTEX
  8
2_FEATURE
 62
7
  6
CONTINUOUS
 10
101.0315403151
 20
136.0578655172
  0
VERTEX
  8
2_FEATURE
 62
7
  6
CONTINUOUS
 10
101.0020470495
 20
136.2887652748
  0
VERTEX
  8
2_FEATURE
 62
7
  6
CONTINUOUS
 10
100.9134577595
 20
136.5084165956
  0
VERTEX
  8
2_FEATURE
 62
7
  6
CONTINUOUS
 10
100.7698579866
 20
136.6999583731
  0
VERTEX
  8
2_FEATURE
 62
7
  6
CONTINUOUS
 10
100.5795016259
 20
136.8491597281
  0
VERTEX
  8
2_FEATURE
 62
7
  6
CONTINUOUS
 10
100.3541524611
 20
136.9442337003
  0
VERTEX
  8
2_FEATURE
 62
7
  6
CONTINUOUS
 10
100.1072229259
 20
136.9764568709
  0
SEQEND
  0
LINE
  8
0
 62
7
  6
CONTINUOUS
 10
105.4314716215
 20
158.8328655172
 11
105.4314716215
 21
151.1817750639
  0
LINE
  8
0
 62
7
  6
CONTINUOUS
 10
105.4314716215
 20
141.9839559706
 11
105.4314716215
 21
134.3817750639
  0
LINE
  8
0
 62
7
  6
CONTINUOUS
 10
105.4314716215
 20
125.1839559706
 11
105.4314716215
 21
117.5817750639
  0
LINE
  8
0
 62
7
  6
CONTINUOUS
 10
105.4314716215
 20
108.3839559706
 11
105.4314716215
 21
100.7817750639
  0
POLYLINE
  8
0
 62
7
  6
CONTINUOUS
 66
1
 70
0
  0
VERTEX
  8
0
 62
7
  6
CONTINUOUS
 10
117.0522028157
 20
143.5840176264
  0
VERTEX
  8
0
 62
7
  6
CONTINUOUS
 10
117.0947756438
 20
143.6656301714
  0
VERTEX
  8
0
 62
7
  6
CONTINUOUS
 10
117.1043508427
 20
143.7626121824
  0
SEQEND
  0
POLYLINE
  8
0
 62
7
  6
CONTINUOUS
 66
1
 70
0
  0
VERTEX
  8
0
 62
7
  6
CONTINUOUS
 10
51.757768338
 20
141.2458154237
  0
VERTEX
  8
0
 62
7
  6
CONTINUOUS
 10
51.5502085318
 20
141.2151168503
  0
VERTEX
  8
0
 62
7
  6
CONTINUOUS
 10
51.2619420764
 20
141.1642862823
  0
VERTEX
  8
0
 62
7
  6
CONTINUOUS
 10
51.0114146717
 20
141.107992919
  0
VERTEX
  8
0
 62
7
  6
CONTINUOUS
 10
50.8120024707
 20
141.047252824
  0
VERTEX
  8
0
 62
7
  6
CONTINUOUS
 10
50.660193748
 20
140.9784715264
  0
VERTEX
  8
0
 62
7
  6
CONTINUOUS
 10
50.5411370634
 20
140.8843668769
  0
VERTEX
  8
0
 62
7
  6
CONTINUOUS
 10
50.4634671139
 20
140.7327379889
  0
VERTEX
  8
0
 62
7
  6
CONTINUOUS
 10
50.4572941315
 20
140.6774404902
  0
SEQEND
  0
POLYLINE
  8
0
 62
7
  6
CONTINUOUS
 66
1
 70
0
  0
VERTEX
  8
0
 62
7
  6
CONTINUOUS
 10
56.1154348694
 20
142.28236463
  0
VERTEX
  8
0
 62
7
  6
CONTINUOUS
 10
55.1641289439
 20
142.1640059131
  0
VERTEX
  8
0
 62
7
  6
CONTINUOUS
 10
54.1396911847
 20
141.9866916207
  0
VERTEX
  8
0
 62
7
  6
CONTINUOUS
 10
53.2005812615
 20
141.7657240774
  0
VERTEX
  8
0
 62
7
  6
CONTINUOUS
 10
52.3691204768
 20
141.5034610044
  0
SEQEND
  0
POLYLINE
  8
2_FEATURE
 62
7
  6
CONTINUOUS
 66
1
 70
0
  0
VERTEX
  8
2_FEATURE
 62
7
  6
CONTINUOUS
 10
92.8572229259
 20
147.5341870444
  0
VERTEX
  8
2_FEATURE
 62
7
  6
CONTINUOUS
 10
93.0329462766
 20
147.5509298664
  0
VERTEX
  8
2_FEATURE
 62
7
  6
CONTINUOUS
 10
93.1973205198
 20
147.6008131134
  0
VERTEX
  8
2_FEATURE
 62
7
  6
CONTINUOUS
 10
93.3467369275
 20
147.6805429354
  0
VERTEX
  8
2_FEATURE
 62
7
  6
CONTINUOUS
 10
93.4776819157
 20
147.7873207957
  0
VERTEX
  8
2_FEATURE
 62
7
  6
CONTINUOUS
 10
93.5861510049
 20
147.9180811524
  0
VERTEX
  8
2_FEATURE
 62
7
  6
CONTINUOUS
 10
93.6679677664
 20
148.0690320103
  0
VERTEX
  8
2_FEATURE
 62
7
  6
CONTINUOUS
 10
93.7189718702
 20
148.2344888319
  0
VERTEX
  8
2_FEATURE
 62
7
  6
CONTINUOUS
 10
93.7363474699
 20
148.4078655172
  0
SEQEND
  0
LINE
  8
2_FEATURE
 62
7
  6
CONTINUOUS
 10
92.8572229259
 20
145.6315439901
 11
90.6484658161
 21
145.6183376604
  0
LINE
  8
2_FEATURE
 62
7
  6
CONTINUOUS
 10
78.0659800358
 20
147.8473933741
 11
68.6072229259
 21
147.7892741635
  0
LINE
  8
2_FEATURE
 62
7
  6
CONTINUOUS
 10
90.6484658161
 20
145.6183376604
 11
90.1072229259
 21
145.6182249978
  0
LINE
  8
2_FEATURE
 62
7
  6
CONTINUOUS
 10
78.0659800358
 20
147.8473933741
 11
78.6072229259
 21
147.8475060367
  0
LINE
  8
2_FEATURE
 62
7
  6
CONTINUOUS
 10
78.6072229259
 20
145.3182249978
 11
77.9540100928
 21
145.3186741958
  0
LINE
  8
2_FEATURE
 62
7
  6
CONTINUOUS
 10
90.760435759
 20
147.5470568387
 11
90.1072229259
 21
147.5475060367
  0
LINE
  8
2_FEATURE
 62
7
  6
CONTINUOUS
 10
77.9540100928
 20
145.3186741958
 11
68.6072229259
 21
145.3764568709
  0
LINE
  8
2_FEATURE
 62
7
  6
CONTINUOUS
 10
90.760435759
 20
147.5470568387
 11
92.8572229259
 21
147.5341870444
  0
POLYLINE
  8
2_FEATURE
 62
7
  6
CONTINUOUS
 66
1
 70
0
  0
VERTEX
  8
2_FEATURE
 62
7
  6
CONTINUOUS
 10
92.8572229259
 20
145.6315439901
  0
VERTEX
  8
2_FEATURE
 62
7
  6
CONTINUOUS
 10
93.0329462766
 20
145.6148011681
  0
VERTEX
  8
2_FEATURE
 62
7
  6
CONTINUOUS
 10
93.1973205198
 20
145.5649179211
  0
VERTEX
  8
2_FEATURE
 62
7
  6
CONTINUOUS
 10
93.3467369275
 20
145.4851880991
  0
VERTEX
  8
2_FEATURE
 62
7
  6
CONTINUOUS
 10
93.4776819157
 20
145.3784102388
  0
VERTEX
  8
2_FEATURE
 62
7
  6
CONTINUOUS
 10
93.5861510049
 20
145.2476498821
  0
VERTEX
  8
2_FEATURE
 62
7
  6
CONTINUOUS
 10
93.6679677664
 20
145.0966990242
  0
VERTEX
  8
2_FEATURE
 62
7
  6
CONTINUOUS
 10
93.7189718702
 20
144.9312422026
  0
VERTEX
  8
2_FEATURE
 62
7
  6
CONTINUOUS
 10
93.7363474699
 20
144.7578655172
  0
SEQEND
  0
LINE
  8
0
 62
7
  6
CONTINUOUS
 10
51.549217466
 20
151.9507714796
 11
51.7577644581
 21
151.9199172459
  0
POLYLINE
  8
2_FEATURE
 62
7
  6
CONTINUOUS
 66
1
 70
0
  0
VERTEX
  8
2_FEATURE
 62
7
  6
CONTINUOUS
 10
101.0315403151
 20
152.8578655172
  0
VERTEX
  8
2_FEATURE
 62
7
  6
CONTINUOUS
 10
101.0020470495
 20
153.0887652748
  0
VERTEX
  8
2_FEATURE
 62
7
  6
CONTINUOUS
 10
100.9134577595
 20
153.3084165956
  0
VERTEX
  8
2_FEATURE
 62
7
  6
CONTINUOUS
 10
100.7698579866
 20
153.4999583731
  0
VERTEX
  8
2_FEATURE
 62
7
  6
CONTINUOUS
 10
100.5795016259
 20
153.6491597281
  0
VERTEX
  8
2_FEATURE
 62
7
  6
CONTINUOUS
 10
100.3541524611
 20
153.7442337003
  0
VERTEX
  8
2_FEATURE
 62
7
  6
CONTINUOUS
 10
100.1072229259
 20
153.7764568709
  0
SEQEND
  0
LINE
  8
AXES
 62
2
  6
CENTER
 10
109.7572229259
 20
90.0828655172
 11
109.7572229259
 21
155.2457629265
  0
POLYLINE
  8
2_FEATURE
 62
7
  6
CONTINUOUS
 66
1
 70
0
  0
VERTEX
  8
2_FEATURE
 62
7
  6
CONTINUOUS
 10
100.1072229259
 20
151.5392741635
  0
VERTEX
  8
2_FEATURE
 62
7
  6
CONTINUOUS
 10
100.3541524667
 20
151.5714973356
  0
VERTEX
  8
2_FEATURE
 62
7
  6
CONTINUOUS
 10
100.5795015086
 20
151.6665712373
  0
VERTEX
  8
2_FEATURE
 62
7
  6
CONTINUOUS
 10
100.7698581009
 20
151.8157727783
  0
VERTEX
  8
2_FEATURE
 62
7
  6
CONTINUOUS
 10
100.9134580355
 20
152.0073149292
  0
VERTEX
  8
2_FEATURE
 62
7
  6
CONTINUOUS
 10
101.002047084
 20
152.2269658924
  0
VERTEX
  8
2_FEATURE
 62
7
  6
CONTINUOUS
 10
101.0315403151
 20
152.4578655172
  0
SEQEND
  0
LINE
  8
2_FEATURE
 62
7
  6
CONTINUOUS
 10
92.8572229259
 20
149.6815439901
 11
90.6484658161
 21
149.6683376604
  0
LINE
  8
2_FEATURE
 62
7
  6
CONTINUOUS
 10
90.6484658161
 20
149.6683376604
 11
90.1072229259
 21
149.6682249978
  0
LINE
  8
0
 62
7
  6
CONTINUOUS
 10
105.9308447282
 20
150.6824053212
 11
112.5979362784
 21
150.6824053212
  0
LINE
  8
0
 62
7
  6
CONTINUOUS
 10
62.7835861673
 20
150.8833257133
 11
56.1165095735
 21
150.8833257133
  0
LINE
  8
2_FEATURE
 62
7
  6
CONTINUOUS
 10
78.6072229259
 20
149.9682249978
 11
77.9540100928
 21
149.9686741958
  0
LINE
  8
2_FEATURE
 62
7
  6
CONTINUOUS
 10
77.9540100928
 20
149.9686741958
 11
68.6072229259
 21
150.0264568709
  0
LINE
  8
0
 62
7
  6
CONTINUOUS
 10
56.1152365753
 20
150.8833657959
 11
56.116039619
 21
150.8833257974
  0
POLYLINE
  8
0
 62
7
  6
CONTINUOUS
 66
1
 70
0
  0
VERTEX
  8
0
 62
7
  6
CONTINUOUS
 10
117.0522028157
 20
115.9817134081
  0
VERTEX
  8
0
 62
7
  6
CONTINUOUS
 10
117.0947756438
 20
115.9001008631
  0
VERTEX
  8
0
 62
7
  6
CONTINUOUS
 10
117.1043508427
 20
115.8031188521
  0
SEQEND
  0
POLYLINE
  8
0
 62
7
  6
CONTINUOUS
 66
1
 70
0
  0
VERTEX
  8
0
 62
7
  6
CONTINUOUS
 10
112.6295042492
 20
109.1333257133
  0
VERTEX
  8
0
 62
7
  6
CONTINUOUS
 10
112.6303050498
 20
109.0199416233
  0
VERTEX
  8
0
 62
7
  6
CONTINUOUS
 10
112.6217496249
 20
108.9322405998
  0
VERTEX
  8
0
 62
7
  6
CONTINUOUS
 10
112.605681078
 20
108.887164445
  0
VERTEX
  8
0
 62
7
  6
CONTINUOUS
 10
112.5992092766
 20
108.8833657959
  0
SEQEND
  0
POLYLINE
  8
0
 62
7
  6
CONTINUOUS
 66
1
 70
0
  0
VERTEX
  8
0
 62
7
  6
CONTINUOUS
 10
112.6295042492
 20
125.9333257133
  0
VERTEX
  8
0
 62
7
  6
CONTINUOUS
 10
112.6303050498
 20
125.8199416233
  0
VERTEX
  8
0
 62
7
  6
CONTINUOUS
 10
112.6217496249
 20
125.7322405998
  0
VERTEX
  8
0
 62
7
  6
CONTINUOUS
 10
112.605681078
 20
125.687164445
  0
VERTEX
  8
0
 62
7
  6
CONTINUOUS
 10
112.5992092766
 20
125.6833657959
  0
SEQEND
  0
POLYLINE
  8
0
 62
7
  6
CONTINUOUS
 66
1
 70
0
  0
VERTEX
  8
0
 62
7
  6
CONTINUOUS
 10
112.6295042492
 20
142.7333257133
  0
VERTEX
  8
0
 62
7
  6
CONTINUOUS
 10
112.6303050498
 20
142.6199416233
  0
VERTEX
  8
0
 62
7
  6
CONTINUOUS
 10
112.6217496249
 20
142.5322405998
  0
VERTEX
  8
0
 62
7
  6
CONTINUOUS
 10
112.605681078
 20
142.487164445
  0
VERTEX
  8
0
 62
7
  6
CONTINUOUS
 10
112.5992092766
 20
142.4833657959
  0
SEQEND
  0
LINE
  8
0
 62
7
  6
CONTINUOUS
 10
112.6295042492
 20
150.4324053212
 11
112.6295042492
 21
142.7333257133
  0
LINE
  8
0
 62
7
  6
CONTINUOUS
 10
112.6295042492
 20
100.0324053212
 11
112.6295042492
 21
92.3328655172
  0
LINE
  8
0
 62
7
  6
CONTINUOUS
 10
112.6295042492
 20
109.1333257133
 11
112.6295042492
 21
116.8324053212
  0
LINE
  8
0
 62
7
  6
CONTINUOUS
 10
112.6295042492
 20
125.9333257133
 11
112.6295042492
 21
133.6324053212
  0
POLYLINE
  8
0
 62
7
  6
CONTINUOUS
 66
1
 70
0
  0
VERTEX
  8
0
 62
7
  6
CONTINUOUS
 10
112.6295042492
 20
150.4324053212
  0
VERTEX
  8
0
 62
7
  6
CONTINUOUS
 10
112.6303050498
 20
150.5457894112
  0
VERTEX
  8
0
 62
7
  6
CONTINUOUS
 10
112.6217496249
 20
150.6334904347
  0
VERTEX
  8
0
 62
7
  6
CONTINUOUS
 10
112.605681078
 20
150.6785665895
  0
VERTEX
  8
0
 62
7
  6
CONTINUOUS
 10
112.5992092766
 20
150.6823652386
  0
SEQEND
  0
POLYLINE
  8
0
 62
7
  6
CONTINUOUS
 66
1
 70
0
  0
VERTEX
  8
0
 62
7
  6
CONTINUOUS
 10
112.6295042492
 20
133.6324053212
  0
VERTEX
  8
0
 62
7
  6
CONTINUOUS
 10
112.6303050498
 20
133.7457894112
  0
VERTEX
  8
0
 62
7
  6
CONTINUOUS
 10
112.6217496249
 20
133.8334904347
  0
VERTEX
  8
0
 62
7
  6
CONTINUOUS
 10
112.605681078
 20
133.8785665895
  0
VERTEX
  8
0
 62
7
  6
CONTINUOUS
 10
112.5992092766
 20
133.8823652386
  0
SEQEND
  0
POLYLINE
  8
0
 62
7
  6
CONTINUOUS
 66
1
 70
0
  0
VERTEX
  8
0
 62
7
  6
CONTINUOUS
 10
112.6295042492
 20
116.8324053212
  0
VERTEX
  8
0
 62
7
  6
CONTINUOUS
 10
112.6303050498
 20
116.9457894112
  0
VERTEX
  8
0
 62
7
  6
CONTINUOUS
 10
112.6217496249
 20
117.0334904347
  0
VERTEX
  8
0
 62
7
  6
CONTINUOUS
 10
112.605681078
 20
117.0785665895
  0
VERTEX
  8
0
 62
7
  6
CONTINUOUS
 10
112.5992092766
 20
117.0823652386
  0
SEQEND
  0
POLYLINE
  8
0
 62
7
  6
CONTINUOUS
 66
1
 70
0
  0
VERTEX
  8
0
 62
7
  6
CONTINUOUS
 10
112.6295042492
 20
100.0324053212
  0
VERTEX
  8
0
 62
7
  6
CONTINUOUS
 10
112.6303050498
 20
100.1457894112
  0
VERTEX
  8
0
 62
7
  6
CONTINUOUS
 10
112.6217496249
 20
100.2334904347
  0
VERTEX
  8
0
 62
7
  6
CONTINUOUS
 10
112.605681078
 20
100.2785665895
  0
VERTEX
  8
0
 62
7
  6
CONTINUOUS
 10
112.5992092766
 20
100.2823652386
  0
SEQEND
  0
POLYLINE
  8
0
 62
7
  6
CONTINUOUS
 66
1
 70
0
  0
VERTEX
  8
0
 62
7
  6
CONTINUOUS
 10
117.0522028157
 20
126.7840176264
  0
VERTEX
  8
0
 62
7
  6
CONTINUOUS
 10
117.0947756438
 20
126.8656301714
  0
VERTEX
  8
0
 62
7
  6
CONTINUOUS
 10
117.1043508427
 20
126.9626121824
  0
SEQEND
  0
LINE
  8
0
 62
7
  6
CONTINUOUS
 10
116.3453253751
 20
109.6622700301
 11
116.9884311244
 21
109.933297714
  0
POLYLINE
  8
0
 62
7
  6
CONTINUOUS
 66
1
 70
0
  0
VERTEX
  8
0
 62
7
  6
CONTINUOUS
 10
105.1814716215
 20
159.0828655172
  0
VERTEX
  8
0
 62
7
  6
CONTINUOUS
 10
105.1773037938
 20
159.0820278227
  0
VERTEX
  8
0
 62
7
  6
CONTINUOUS
 10
105.1771382805
 20
159.0789936982
  0
VERTEX
  8
0
 62
7
  6
CONTINUOUS
 10
105.1792141945
 20
159.0728929623
  0
VERTEX
  8
0
 62
7
  6
CONTINUOUS
 10
105.1816557243
 20
159.0627407944
  0
VERTEX
  8
0
 62
7
  6
CONTINUOUS
 10
105.1827653027
 20
159.04773769
  0
VERTEX
  8
0
 62
7
  6
CONTINUOUS
 10
105.1821027921
 20
159.0275636426
  0
VERTEX
  8
0
 62
7
  6
CONTINUOUS
 10
105.1814635646
 20
159.0013486732
  0
VERTEX
  8
0
 62
7
  6
CONTINUOUS
 10
105.1820330008
 20
158.9662345718
  0
VERTEX
  8
0
 62
7
  6
CONTINUOUS
 10
105.1812402347
 20
158.9219371223
  0
VERTEX
  8
0
 62
7
  6
CONTINUOUS
 10
105.1796683347
 20
158.8745853423
  0
VERTEX
  8
0
 62
7
  6
CONTINUOUS
 10
105.1814716215
 20
158.8328655172
  0
SEQEND
  0
POLYLINE
  8
2_FEATURE
 62
7
  6
CONTINUOUS
 66
1
 70
0
  0
VERTEX
  8
2_FEATURE
 62
7
  6
CONTINUOUS
 10
68.6072229259
 20
150.0264568709
  0
VERTEX
  8
2_FEATURE
 62
7
  6
CONTINUOUS
 10
68.3602933852
 20
149.9942336988
  0
VERTEX
  8
2_FEATURE
 62
7
  6
CONTINUOUS
 10
68.1349443432
 20
149.8991597972
  0
VERTEX
  8
2_FEATURE
 62
7
  6
CONTINUOUS
 10
67.944587751
 20
149.7499582562
  0
VERTEX
  8
2_FEATURE
 62
7
  6
CONTINUOUS
 10
67.8009878164
 20
149.5584161053
  0
VERTEX
  8
2_FEATURE
 62
7
  6
CONTINUOUS
 10
67.7123987679
 20
149.3387651421
  0
VERTEX
  8
2_FEATURE
 62
7
  6
CONTINUOUS
 10
67.6829055368
 20
149.1078655172
  0
SEQEND
  0
LINE
  8
2_FEATURE
 62
7
  6
CONTINUOUS
 10
100.1072229259
 20
153.7764568709
 11
90.6484658161
 21
153.7183376604
  0
LINE
  8
2_FEATURE
 62
7
  6
CONTINUOUS
 10
90.6484658161
 20
153.7183376604
 11
90.1072229259
 21
153.7182249978
  0
LINE
  8
2_FEATURE
 62
7
  6
CONTINUOUS
 10
90.760435759
 20
151.5970568387
 11
90.1072229259
 21
151.5975060367
  0
LINE
  8
2_FEATURE
 62
7
  6
CONTINUOUS
 10
90.760435759
 20
151.5970568387
 11
100.1072229259
 21
151.5392741635
  0
LINE
  8
0
 62
7
  6
CONTINUOUS
 10
112.5992092766
 20
150.6823652386
 11
112.5984062328
 21
150.6824052371
  0
LINE
  8
0
 62
7
  6
CONTINUOUS
 10
117.1652283538
 20
149.61495956
 11
116.9566813937
 21
149.6458137886
  0
LINE
  8
0
 62
7
  6
CONTINUOUS
 10
116.9884287088
 20
132.8324345007
 11
117.0522028157
 21
132.7817134081
  0
POLYLINE
  8
0
 62
7
  6
CONTINUOUS
 66
1
 70
0
  0
VERTEX
  8
0
 62
7
  6
CONTINUOUS
 10
118.2572030233
 20
98.6700452676
  0
VERTEX
  8
0
 62
7
  6
CONTINUOUS
 10
118.2488333651
 20
98.7423783969
  0
VERTEX
  8
0
 62
7
  6
CONTINUOUS
 10
118.1684958374
 20
98.8896775003
  0
VERTEX
  8
0
 62
7
  6
CONTINUOUS
 10
118.0495666824
 20
98.9811511252
  0
VERTEX
  8
0
 62
7
  6
CONTINUOUS
 10
117.8983938348
 20
99.0487258345
  0
VERTEX
  8
0
 62
7
  6
CONTINUOUS
 10
117.7003750597
 20
99.1086796255
  0
VERTEX
  8
0
 62
7
  6
CONTINUOUS
 10
117.451926332
 20
99.1644002374
  0
VERTEX
  8
0
 62
7
  6
CONTINUOUS
 10
117.1652283858
 20
99.2149595549
  0
SEQEND
  0
LINE
  8
0
 62
7
  6
CONTINUOUS
 10
118.2572228792
 20
110.4943600472
 11
118.2572052282
 21
110.4956466555
  0
LINE
  8
0
 62
7
  6
CONTINUOUS
 10
118.2572228792
 20
127.2943600472
 11
118.2572052282
 21
127.2956466555
  0
LINE
  8
0
 62
7
  6
CONTINUOUS
 10
118.2572228792
 20
144.0943600472
 11
118.2572052282
 21
144.0956466555
  0
LINE
  8
0
 62
7
  6
CONTINUOUS
 10
118.2572229259
 20
92.3328528439
 11
118.2572229259
 21
98.6713853693
  0
LINE
  8
0
 62
7
  6
CONTINUOUS
 10
118.2572229259
 20
110.4944170387
 11
118.2572229259
 21
115.4713139957
  0
LINE
  8
0
 62
7
  6
CONTINUOUS
 10
118.2572229259
 20
127.2944170387
 11
118.2572229259
 21
132.2713139957
  0
LINE
  8
0
 62
7
  6
CONTINUOUS
 10
118.2572229259
 20
144.0944170387
 11
118.2572229259
 21
149.0713139957
  0
LINE
  8
0
 62
7
  6
CONTINUOUS
 10
118.2572228886
 20
98.6714508467
 11
118.2572034106
 21
98.6700860257
  0
LINE
  8
0
 62
7
  6
CONTINUOUS
 10
118.2572228792
 20
149.0713709873
 11
118.2572034222
 21
149.0700168197
  0
LINE
  8
0
 62
7
  6
CONTINUOUS
 10
118.2572228792
 20
132.2713709873
 11
118.2572034222
 21
132.2700168197
  0
LINE
  8
0
 62
7
  6
CONTINUOUS
 10
118.2572228792
 20
115.4713709873
 11
118.2572034222
 21
115.4700168197
  0
LINE
  8
0
 62
7
  6
CONTINUOUS
 10
116.9884287088
 20
109.9332965338
 11
117.0522028157
 21
109.9840176264
  0
LINE
  8
0
 62
7
  6
CONTINUOUS
 10
50.7071879969
 20
159.0828655172
 11
105.1814716215
 21
159.0828655172
  0
POLYLINE
  8
0
 62
7
  6
CONTINUOUS
 66
1
 70
0
  0
VERTEX
  8
0
 62
7
  6
CONTINUOUS
 10
116.9884311244
 20
149.6324333205
  0
VERTEX
  8
0
 62
7
  6
CONTINUOUS
 10
116.3453253751
 20
149.9034610044
  0
VERTEX
  8
0
 62
7
  6
CONTINUOUS
 10
115.5138645904
 20
150.1657240774
  0
VERTEX
  8
0
 62
7
  6
CONTINUOUS
 10
114.5747546671
 20
150.3866916207
  0
VERTEX
  8
0
 62
7
  6
CONTINUOUS
 10
113.550316908
 20
150.5640059131
  0
VERTEX
  8
0
 62
7
  6
CONTINUOUS
 10
112.5990109825
 20
150.68236463
  0
SEQEND
  0
POLYLINE
  8
0
 62
7
  6
CONTINUOUS
 66
1
 70
0
  0
VERTEX
  8
0
 62
7
  6
CONTINUOUS
 10
117.0522028157
 20
132.7817134081
  0
VERTEX
  8
0
 62
7
  6
CONTINUOUS
 10
117.0947756438
 20
132.7001008631
  0
VERTEX
  8
0
 62
7
  6
CONTINUOUS
 10
117.1043508427
 20
132.6031188521
  0
SEQEND
  0
POLYLINE
  8
0
 62
7
  6
CONTINUOUS
 66
1
 70
0
  0
VERTEX
  8
0
 62
7
  6
CONTINUOUS
 10
118.2572030232
 20
115.4700452645
  0
VERTEX
  8
0
 62
7
  6
CONTINUOUS
 10
118.2488331863
 20
115.5423791437
  0
VERTEX
  8
0
 62
7
  6
CONTINUOUS
 10
118.1684954644
 20
115.6896779041
  0
VERTEX
  8
0
 62
7
  6
CONTINUOUS
 10
118.0495663124
 20
115.7811513348
  0
VERTEX
  8
0
 62
7
  6
CONTINUOUS
 10
117.898393488
 20
115.8487259601
  0
VERTEX
  8
0
 62
7
  6
CONTINUOUS
 10
117.700374779
 20
115.908679698
  0
VERTEX
  8
0
 62
7
  6
CONTINUOUS
 10
117.4519261733
 20
115.9644002687
  0
VERTEX
  8
0
 62
7
  6
CONTINUOUS
 10
117.1652283538
 20
116.01495956
  0
SEQEND
  0
POLYLINE
  8
0
 62
7
  6
CONTINUOUS
 66
1
 70
0
  0
VERTEX
  8
0
 62
7
  6
CONTINUOUS
 10
118.2572030232
 20
132.2700452645
  0
VERTEX
  8
0
 62
7
  6
CONTINUOUS
 10
118.2488331863
 20
132.3423791437
  0
VERTEX
  8
0
 62
7
  6
CONTINUOUS
 10
118.1684954644
 20
132.4896779041
  0
VERTEX
  8
0
 62
7
  6
CONTINUOUS
 10
118.0495663124
 20
132.5811513348
  0
VERTEX
  8
0
 62
7
  6
CONTINUOUS
 10
117.898393488
 20
132.6487259601
  0
VERTEX
  8
0
 62
7
  6
CONTINUOUS
 10
117.700374779
 20
132.708679698
  0
VERTEX
  8
0
 62
7
  6
CONTINUOUS
 10
117.4519261733
 20
132.7644002687
  0
VERTEX
  8
0
 62
7
  6
CONTINUOUS
 10
117.1652283538
 20
132.81495956
  0
SEQEND
  0
POLYLINE
  8
0
 62
7
  6
CONTINUOUS
 66
1
 70
0
  0
VERTEX
  8
0
 62
7
  6
CONTINUOUS
 10
117.0522028157
 20
109.9840176264
  0
VERTEX
  8
0
 62
7
  6
CONTINUOUS
 10
117.0947756438
 20
110.0656301714
  0
VERTEX
  8
0
 62
7
  6
CONTINUOUS
 10
117.1043508427
 20
110.1626121824
  0
SEQEND
  0
POLYLINE
  8
0
 62
7
  6
CONTINUOUS
 66
1
 70
0
  0
VERTEX
  8
0
 62
7
  6
CONTINUOUS
 10
105.1814716215
 20
159.0828655172
  0
VERTEX
  8
0
 62
7
  6
CONTINUOUS
 10
105.2659656685
 20
159.0681541826
  0
VERTEX
  8
0
 62
7
  6
CONTINUOUS
 10
105.3390428506
 20
159.0269564953
  0
VERTEX
  8
0
 62
7
  6
CONTINUOUS
 10
105.396667604
 20
158.9601081561
  0
VERTEX
  8
0
 62
7
  6
CONTINUOUS
 10
105.4283027375
 20
158.8725442289
  0
VERTEX
  8
0
 62
7
  6
CONTINUOUS
 10
105.4314716215
 20
158.8328655172
  0
SEQEND
  0
POLYLINE
  8
0
 62
7
  6
CONTINUOUS
 66
1
 70
0
  0
VERTEX
  8
0
 62
7
  6
CONTINUOUS
 10
118.2572030232
 20
149.0700452645
  0
VERTEX
  8
0
 62
7
  6
CONTINUOUS
 10
118.2488331863
 20
149.1423791437
  0
VERTEX
  8
0
 62
7
  6
CONTINUOUS
 10
118.1684954644
 20
149.2896779041
  0
VERTEX
  8
0
 62
7
  6
CONTINUOUS
 10
118.0495663124
 20
149.3811513348
  0
VERTEX
  8
0
 62
7
  6
CONTINUOUS
 10
117.898393488
 20
149.4487259601
  0
VERTEX
  8
0
 62
7
  6
CONTINUOUS
 10
117.700374779
 20
149.508679698
  0
VERTEX
  8
0
 62
7
  6
CONTINUOUS
 10
117.4519261733
 20
149.5644002687
  0
VERTEX
  8
0
 62
7
  6
CONTINUOUS
 10
117.1652283538
 20
149.61495956
  0
SEQEND
  0
POLYLINE
  8
0
 62
7
  6
CONTINUOUS
 66
1
 70
0
  0
VERTEX
  8
0
 62
7
  6
CONTINUOUS
 10
50.7072002313
 20
159.0828664006
  0
VERTEX
  8
0
 62
7
  6
CONTINUOUS
 10
50.6107685967
 20
159.0635176027
  0
VERTEX
  8
0
 62
7
  6
CONTINUOUS
 10
50.5291050247
 20
159.0083043573
  0
VERTEX
  8
0
 62
7
  6
CONTINUOUS
 10
50.4751336142
 20
158.9258055316
  0
VERTEX
  8
0
 62
7
  6
CONTINUOUS
 10
50.4572229364
 20
158.8328864983
  0
SEQEND
  0
LINE
  8
0
 62
7
  6
CONTINUOUS
 10
116.9884287088
 20
149.6324345007
 11
117.0522028157
 21
149.5817134081
  0
POLYLINE
  8
0
 62
7
  6
CONTINUOUS
 66
1
 70
0
  0
VERTEX
  8
0
 62
7
  6
CONTINUOUS
 10
117.0522028157
 20
149.5817134081
  0
VERTEX
  8
0
 62
7
  6
CONTINUOUS
 10
117.0947756438
 20
149.5001008631
  0
VERTEX
  8
0
 62
7
  6
CONTINUOUS
 10
117.1043508427
 20
149.4031188521
  0
SEQEND
  0
POLYLINE
  8
0
 62
7
  6
CONTINUOUS
 66
1
 70
0
  0
VERTEX
  8
0
 62
7
  6
CONTINUOUS
 10
112.5856493535
 20
92.0828655172
  0
VERTEX
  8
0
 62
7
  6
CONTINUOUS
 10
112.6023829741
 20
92.1015938229
  0
VERTEX
  8
0
 62
7
  6
CONTINUOUS
 10
112.6165966668
 20
92.1553366994
  0
VERTEX
  8
0
 62
7
  6
CONTINUOUS
 10
112.6261363496
 20
92.2364672435
  0
VERTEX
  8
0
 62
7
  6
CONTINUOUS
 10
112.6295042492
 20
92.3328655172
  0
SEQEND
  0
LINE
  8
0
 62
7
  6
CONTINUOUS
 10
166.4790922414
 20
92.0828655172
 11
151.0290922414
 21
92.0828655172
  0
LINE
  8
2_FEATURE
 62
7
  6
CONTINUOUS
 10
158.7290922414
 20
97.4475060367
 11
162.0651940181
 21
97.3892741635
  0
LINE
  8
2_FEATURE
 62
7
  6
CONTINUOUS
 10
158.7290922414
 20
99.5682249978
 11
162.0651940181
 21
99.6264568709
  0
POLYLINE
  8
0
 62
7
  6
CONTINUOUS
 66
1
 70
0
  0
VERTEX
  8
0
 62
7
  6
CONTINUOUS
 10
162.8390634645
 20
151.9149019008
  0
VERTEX
  8
0
 62
7
  6
CONTINUOUS
 10
162.8909543591
 20
151.9308948989
  0
VERTEX
  8
0
 62
7
  6
CONTINUOUS
 10
162.9406576761
 20
151.9840176264
  0
VERTEX
  8
0
 62
7
  6
CONTINUOUS
 10
162.9802299613
 20
152.0656301714
  0
VERTEX
  8
0
 62
7
  6
CONTINUOUS
 10
163.0034001544
 20
152.1626121824
  0
SEQEND
  0
LINE
  8
0
 62
7
  6
CONTINUOUS
 10
150.9470761845
 20
102.7828655172
 11
152.7540462684
 21
102.7828655172
  0
LINE
  8
2_FEATURE
 62
7
  6
CONTINUOUS
 10
158.7290922414
 20
101.4975060367
 11
159.4921367967
 21
101.4841870444
  0
LINE
  8
0
 62
7
  6
CONTINUOUS
 10
152.7540462684
 20
102.7828648012
 11
152.7841242654
 21
102.7809055016
  0
LINE
  8
0
 62
7
  6
CONTINUOUS
 10
151.9123275696
 20
102.3882881881
 11
162.8390634654
 21
101.5149019121
  0
POLYLINE
  8
0
 62
7
  6
CONTINUOUS
 66
1
 70
0
  0
VERTEX
  8
0
 62
7
  6
CONTINUOUS
 10
152.7843140926
 20
102.7808811728
  0
VERTEX
  8
0
 62
7
  6
CONTINUOUS
 10
152.7949244523
 20
102.7792785601
  0
VERTEX
  8
0
 62
7
  6
CONTINUOUS
 10
152.8048178789
 20
102.7773476847
  0
VERTEX
  8
0
 62
7
  6
CONTINUOUS
 10
152.8147940716
 20
102.7749630556
  0
SEQEND
  0
POLYLINE
  8
0
 62
7
  6
CONTINUOUS
 66
1
 70
0
  0
VERTEX
  8
0
 62
7
  6
CONTINUOUS
 10
159.449770056
 20
101.7858106334
  0
VERTEX
  8
0
 62
7
  6
CONTINUOUS
 10
159.6155102467
 20
101.7577978421
  0
VERTEX
  8
0
 62
7
  6
CONTINUOUS
 10
159.8179426078
 20
101.6793063381
  0
VERTEX
  8
0
 62
7
  6
CONTINUOUS
 10
159.951565552
 20
101.5905891712
  0
VERTEX
  8
0
 62
7
  6
CONTINUOUS
 10
159.9860254532
 20
101.5601809977
  0
SEQEND
  0
LINE
  8
0
 62
7
  6
CONTINUOUS
 10
152.7841242654
 20
102.7809055016
 11
152.8648197384
 21
102.758768588
  0
POLYLINE
  8
0
 62
7
  6
CONTINUOUS
 66
1
 70
0
  0
VERTEX
  8
0
 62
7
  6
CONTINUOUS
 10
151.5358719735
 20
102.489395164
  0
VERTEX
  8
0
 62
7
  6
CONTINUOUS
 10
151.7739768691
 20
102.408440046
  0
VERTEX
  8
0
 62
7
  6
CONTINUOUS
 10
151.9123288765
 20
102.3883045046
  0
SEQEND
  0
POLYLINE
  8
2_FEATURE
 62
7
  6
CONTINUOUS
 66
1
 70
0
  0
VERTEX
  8
2_FEATURE
 62
7
  6
CONTINUOUS
 10
162.0651940181
 20
99.6264568709
  0
VERTEX
  8
2_FEATURE
 62
7
  6
CONTINUOUS
 10
162.1528304096
 20
99.5942336988
  0
VERTEX
  8
2_FEATURE
 62
7
  6
CONTINUOUS
 10
162.2328077861
 20
99.4991597972
  0
VERTEX
  8
2_FEATURE
 62
7
  6
CONTINUOUS
 10
162.3003661867
 20
99.3499582562
  0
VERTEX
  8
2_FEATURE
 62
7
  6
CONTINUOUS
 10
162.3513304417
 20
99.1584161053
  0
VERTEX
  8
2_FEATURE
 62
7
  6
CONTINUOUS
 10
162.3827710887
 20
98.9387651421
  0
VERTEX
  8
2_FEATURE
 62
7
  6
CONTINUOUS
 10
162.3932383675
 20
98.7078655172
  0
SEQEND
  0
LINE
  8
0
 62
7
  6
CONTINUOUS
 10
152.8648197384
 20
102.758768588
 11
152.9672358222
 21
102.7043003432
  0
POLYLINE
  8
0
 62
7
  6
CONTINUOUS
 66
1
 70
0
  0
VERTEX
  8
0
 62
7
  6
CONTINUOUS
 10
151.1861561869
 20
102.7494617247
  0
VERTEX
  8
0
 62
7
  6
CONTINUOUS
 10
151.1429375357
 20
102.7740234715
  0
VERTEX
  8
0
 62
7
  6
CONTINUOUS
 10
151.1119555451
 20
102.7828655153
  0
SEQEND
  0
POLYLINE
  8
0
 62
7
  6
CONTINUOUS
 66
1
 70
0
  0
VERTEX
  8
0
 62
7
  6
CONTINUOUS
 10
151.1861546633
 20
102.749462701
  0
VERTEX
  8
0
 62
7
  6
CONTINUOUS
 10
151.1974811679
 20
102.7416713829
  0
VERTEX
  8
0
 62
7
  6
CONTINUOUS
 10
151.2263192493
 20
102.7160050154
  0
SEQEND
  0
LINE
  8
0
 62
7
  6
CONTINUOUS
 10
166.4103926434
 20
100.4929502461
 11
162.8329358796
 21
101.5153916969
  0
LINE
  8
0
 62
7
  6
CONTINUOUS
 10
152.9672358222
 20
102.7043003432
 11
153.0630645646
 21
102.6398274292
  0
POLYLINE
  8
0
 62
7
  6
CONTINUOUS
 66
1
 70
0
  0
VERTEX
  8
0
 62
7
  6
CONTINUOUS
 10
152.8935909053
 20
102.7382339353
  0
VERTEX
  8
0
 62
7
  6
CONTINUOUS
 10
152.9027934886
 20
102.7313720408
  0
VERTEX
  8
0
 62
7
  6
CONTINUOUS
 10
152.9117503509
 20
102.7240012397
  0
VERTEX
  8
0
 62
7
  6
CONTINUOUS
 10
152.9204343188
 20
102.7161201439
  0
VERTEX
  8
0
 62
7
  6
CONTINUOUS
 10
152.928816605
 20
102.7077284529
  0
VERTEX
  8
0
 62
7
  6
CONTINUOUS
 10
152.9368667713
 20
102.6988271682
  0
VERTEX
  8
0
 62
7
  6
CONTINUOUS
 10
152.944552706
 20
102.6894188268
  0
VERTEX
  8
0
 62
7
  6
CONTINUOUS
 10
152.9518406199
 20
102.6795077552
  0
VERTEX
  8
0
 62
7
  6
CONTINUOUS
 10
152.9586950648
 20
102.6691003463
  0
VERTEX
  8
0
 62
7
  6
CONTINUOUS
 10
152.9650789764
 20
102.6582053587
  0
VERTEX
  8
0
 62
7
  6
CONTINUOUS
 10
152.9709537499
 20
102.6468342402
  0
VERTEX
  8
0
 62
7
  6
CONTINUOUS
 10
152.9762794166
 20
102.6350013212
  0
VERTEX
  8
0
 62
7
  6
CONTINUOUS
 10
152.9793133877
 20
102.6273721757
  0
SEQEND
  0
POLYLINE
  8
0
 62
7
  6
CONTINUOUS
 66
1
 70
0
  0
VERTEX
  8
0
 62
7
  6
CONTINUOUS
 10
151.226319101
 20
102.7160049992
  0
VERTEX
  8
0
 62
7
  6
CONTINUOUS
 10
151.3262405479
 20
102.6224667066
  0
VERTEX
  8
0
 62
7
  6
CONTINUOUS
 10
151.5358719735
 20
102.489395164
  0
SEQEND
  0
LINE
  8
0
 62
7
  6
CONTINUOUS
 10
151.6494152402
 20
106.7564279685
 11
162.8390634654
 21
107.6508291224
  0
LINE
  8
0
 62
7
  6
CONTINUOUS
 10
162.9130203849
 20
101.4732212615
 11
162.8456751651
 21
101.5117507911
  0
LINE
  8
2_FEATURE
 62
7
  6
CONTINUOUS
 10
158.7290922414
 20
107.6682249978
 11
159.4921367967
 21
107.6815439901
  0
LINE
  8
2_FEATURE
 62
7
  6
CONTINUOUS
 10
158.7290922414
 20
109.5975060367
 11
162.0651940181
 21
109.5392741635
  0
POLYLINE
  8
0
 62
7
  6
CONTINUOUS
 66
1
 70
0
  0
VERTEX
  8
0
 62
7
  6
CONTINUOUS
 10
162.8390634645
 20
107.6508291337
  0
VERTEX
  8
0
 62
7
  6
CONTINUOUS
 10
162.8909543591
 20
107.6348361356
  0
VERTEX
  8
0
 62
7
  6
CONTINUOUS
 10
162.9406576761
 20
107.5817134081
  0
VERTEX
  8
0
 62
7
  6
CONTINUOUS
 10
162.9802299613
 20
107.5001008631
  0
VERTEX
  8
0
 62
7
  6
CONTINUOUS
 10
163.0034001544
 20
107.4031188521
  0
SEQEND
  0
POLYLINE
  8
2_FEATURE
 62
7
  6
CONTINUOUS
 66
1
 70
0
  0
VERTEX
  8
2_FEATURE
 62
7
  6
CONTINUOUS
 10
162.0651940181
 20
143.1392741635
  0
VERTEX
  8
2_FEATURE
 62
7
  6
CONTINUOUS
 10
162.1528304096
 20
143.1714973356
  0
VERTEX
  8
2_FEATURE
 62
7
  6
CONTINUOUS
 10
162.2328077861
 20
143.2665712373
  0
VERTEX
  8
2_FEATURE
 62
7
  6
CONTINUOUS
 10
162.3003661867
 20
143.4157727783
  0
VERTEX
  8
2_FEATURE
 62
7
  6
CONTINUOUS
 10
162.3513304417
 20
143.6073149292
  0
VERTEX
  8
2_FEATURE
 62
7
  6
CONTINUOUS
 10
162.3827710887
 20
143.8269658924
  0
VERTEX
  8
2_FEATURE
 62
7
  6
CONTINUOUS
 10
162.3932383675
 20
144.0578655172
  0
SEQEND
  0
LINE
  8
0
 62
7
  6
CONTINUOUS
 10
166.4103926434
 20
142.2727807884
 11
162.8329358796
 21
141.2503393376
  0
LINE
  8
2_FEATURE
 62
7
  6
CONTINUOUS
 10
158.7290922414
 20
111.7182249978
 11
162.0651940181
 21
111.7764568709
  0
POLYLINE
  8
0
 62
7
  6
CONTINUOUS
 66
1
 70
0
  0
VERTEX
  8
0
 62
7
  6
CONTINUOUS
 10
159.9855710288
 20
101.560610751
  0
VERTEX
  8
0
 62
7
  6
CONTINUOUS
 10
160.0664062554
 20
101.4713356469
  0
VERTEX
  8
0
 62
7
  6
CONTINUOUS
 10
160.1034646758
 20
101.4162764678
  0
VERTEX
  8
0
 62
7
  6
CONTINUOUS
 10
160.1093471442
 20
101.4053571617
  0
SEQEND
  0
POLYLINE
  8
0
 62
7
  6
CONTINUOUS
 66
1
 70
0
  0
VERTEX
  8
0
 62
7
  6
CONTINUOUS
 10
152.9793134469
 20
102.6273719072
  0
VERTEX
  8
0
 62
7
  6
CONTINUOUS
 10
153.0339714208
 20
102.5226861632
  0
VERTEX
  8
0
 62
7
  6
CONTINUOUS
 10
153.137068055
 20
102.4096320443
  0
VERTEX
  8
0
 62
7
  6
CONTINUOUS
 10
153.2740644416
 20
102.3229579407
  0
VERTEX
  8
0
 62
7
  6
CONTINUOUS
 10
153.4357754409
 20
102.27076255
  0
VERTEX
  8
0
 62
7
  6
CONTINUOUS
 10
153.5119177469
 20
102.260417054
  0
SEQEND
  0
LINE
  8
0
 62
7
  6
CONTINUOUS
 10
163.0067435616
 20
150.6953029981
 11
162.9737115457
 21
150.6504002906
  0
LINE
  8
2_FEATURE
 62
7
  6
CONTINUOUS
 10
158.7290922414
 20
114.2475060367
 11
162.0651940181
 21
114.1892741635
  0
LINE
  8
0
 62
7
  6
CONTINUOUS
 10
162.9683351445
 20
101.4072107279
 11
162.9130203849
 21
101.4732212615
  0
POLYLINE
  8
0
 62
7
  6
CONTINUOUS
 66
1
 70
0
  0
VERTEX
  8
0
 62
7
  6
CONTINUOUS
 10
159.9860162658
 20
141.2055413431
  0
VERTEX
  8
0
 62
7
  6
CONTINUOUS
 10
159.9522546589
 20
141.1757107311
  0
VERTEX
  8
0
 62
7
  6
CONTINUOUS
 10
159.8204102605
 20
141.0877441322
  0
VERTEX
  8
0
 62
7
  6
CONTINUOUS
 10
159.6205716737
 20
141.009262082
  0
VERTEX
  8
0
 62
7
  6
CONTINUOUS
 10
159.449680055
 20
140.9799130745
  0
SEQEND
  0
LINE
  8
2_FEATURE
 62
7
  6
CONTINUOUS
 10
158.7290922414
 20
116.3682249978
 11
162.0651940181
 21
116.4264568709
  0
LINE
  8
0
 62
7
  6
CONTINUOUS
 10
150.7290922414
 20
147.7596072346
 11
150.7290922414
 21
145.4061237999
  0
LINE
  8
0
 62
7
  6
CONTINUOUS
 10
150.7290922414
 20
97.3596072346
 11
150.7290922414
 21
93.0828655172
  0
LINE
  8
0
 62
7
  6
CONTINUOUS
 10
150.7290922414
 20
103.4061237999
 11
150.7290922414
 21
105.7596072346
  0
LINE
  8
0
 62
7
  6
CONTINUOUS
 10
150.7290922414
 20
111.8061237999
 11
150.7290922414
 21
114.1596072346
  0
LINE
  8
0
 62
7
  6
CONTINUOUS
 10
150.7290922414
 20
120.2061237999
 11
150.7290922414
 21
122.5596072346
  0
LINE
  8
0
 62
7
  6
CONTINUOUS
 10
150.7290922414
 20
128.6061237999
 11
150.7290922414
 21
130.9596072346
  0
LINE
  8
0
 62
7
  6
CONTINUOUS
 10
150.7290922414
 20
137.0061237999
 11
150.7290922414
 21
139.3596072346
  0
LINE
  8
0
 62
7
  6
CONTINUOUS
 10
150.7290922414
 20
153.8061237999
 11
150.7290922414
 21
158.0828655172
  0
LINE
  8
0
 62
7
  6
CONTINUOUS
 10
150.7790922414
 20
158.8328655172
 11
150.7790922414
 21
158.3801329082
  0
LINE
  8
0
 62
7
  6
CONTINUOUS
 10
150.7790922414
 20
153.5059015485
 11
150.7790922414
 21
139.6664916245
  0
LINE
  8
0
 62
7
  6
CONTINUOUS
 10
150.7790922414
 20
136.69923941
 11
150.7790922414
 21
122.8664916245
  0
LINE
  8
0
 62
7
  6
CONTINUOUS
 10
150.7790922414
 20
119.89923941
 11
150.7790922414
 21
106.0664916245
  0
LINE
  8
0
 62
7
  6
CONTINUOUS
 10
150.7790922414
 20
103.1122605459
 11
150.7790922414
 21
92.3328655172
  0
POLYLINE
  8
2_FEATURE
 62
7
  6
CONTINUOUS
 66
1
 70
0
  0
VERTEX
  8
2_FEATURE
 62
7
  6
CONTINUOUS
 10
154.1171078948
 20
140.1547582839
  0
VERTEX
  8
2_FEATURE
 62
7
  6
CONTINUOUS
 10
154.1348405754
 20
140.2461069569
  0
VERTEX
  8
2_FEATURE
 62
7
  6
CONTINUOUS
 10
154.182951568
 20
140.3304344544
  0
VERTEX
  8
2_FEATURE
 62
7
  6
CONTINUOUS
 10
154.2536375488
 20
140.4043135543
  0
VERTEX
  8
2_FEATURE
 62
7
  6
CONTINUOUS
 10
154.3431061745
 20
140.4682744097
  0
VERTEX
  8
2_FEATURE
 62
7
  6
CONTINUOUS
 10
154.4482023329
 20
140.5216639815
  0
VERTEX
  8
2_FEATURE
 62
7
  6
CONTINUOUS
 10
154.5649395611
 20
140.5633704021
  0
VERTEX
  8
2_FEATURE
 62
7
  6
CONTINUOUS
 10
154.6898194649
 20
140.5928570336
  0
VERTEX
  8
2_FEATURE
 62
7
  6
CONTINUOUS
 10
154.8210977543
 20
140.6099441151
  0
SEQEND
  0
POLYLINE
  8
0
 62
7
  6
CONTINUOUS
 66
1
 70
0
  0
VERTEX
  8
0
 62
7
  6
CONTINUOUS
 10
163.0067435332
 20
150.6953029981
  0
VERTEX
  8
0
 62
7
  6
CONTINUOUS
 10
163.0303594908
 20
150.7411940215
  0
VERTEX
  8
0
 62
7
  6
CONTINUOUS
 10
163.0481517124
 20
150.7960487436
  0
VERTEX
  8
0
 62
7
  6
CONTINUOUS
 10
163.0628495799
 20
150.8586661944
  0
VERTEX
  8
0
 62
7
  6
CONTINUOUS
 10
163.0747053252
 20
150.9266199661
  0
VERTEX
  8
0
 62
7
  6
CONTINUOUS
 10
163.0839672719
 20
150.9996789644
  0
VERTEX
  8
0
 62
7
  6
CONTINUOUS
 10
163.0905885057
 20
151.0780999795
  0
VERTEX
  8
0
 62
7
  6
CONTINUOUS
 10
163.0942289108
 20
151.1612854665
  0
VERTEX
  8
0
 62
7
  6
CONTINUOUS
 10
163.094421133
 20
151.2492815987
  0
VERTEX
  8
0
 62
7
  6
CONTINUOUS
 10
163.0904548701
 20
151.3417678154
  0
VERTEX
  8
0
 62
7
  6
CONTINUOUS
 10
163.0814092086
 20
151.4375939407
  0
VERTEX
  8
0
 62
7
  6
CONTINUOUS
 10
163.0662160097
 20
151.5347525963
  0
VERTEX
  8
0
 62
7
  6
CONTINUOUS
 10
163.0433974818
 20
151.6315150712
  0
VERTEX
  8
0
 62
7
  6
CONTINUOUS
 10
163.0112510625
 20
151.7243238615
  0
VERTEX
  8
0
 62
7
  6
CONTINUOUS
 10
162.9683351445
 20
151.8072107279
  0
SEQEND
  0
POLYLINE
  8
0
 62
7
  6
CONTINUOUS
 66
1
 70
0
  0
VERTEX
  8
0
 62
7
  6
CONTINUOUS
 10
162.9683351445
 20
141.3585203066
  0
VERTEX
  8
0
 62
7
  6
CONTINUOUS
 10
162.9130203849
 20
141.292509773
  0
VERTEX
  8
0
 62
7
  6
CONTINUOUS
 10
162.8749681431
 20
141.2707393343
  0
SEQEND
  0
POLYLINE
  8
0
 62
7
  6
CONTINUOUS
 66
1
 70
0
  0
VERTEX
  8
0
 62
7
  6
CONTINUOUS
 10
162.8390634645
 20
135.1149019008
  0
VERTEX
  8
0
 62
7
  6
CONTINUOUS
 10
162.8909543591
 20
135.1308948989
  0
VERTEX
  8
0
 62
7
  6
CONTINUOUS
 10
162.9406576761
 20
135.1840176264
  0
VERTEX
  8
0
 62
7
  6
CONTINUOUS
 10
162.9802299613
 20
135.2656301714
  0
VERTEX
  8
0
 62
7
  6
CONTINUOUS
 10
163.0034001544
 20
135.3626121824
  0
SEQEND
  0
LINE
  8
2_FEATURE
 62
7
  6
CONTINUOUS
 10
158.7290922414
 20
118.2975060367
 11
159.4921367967
 21
118.2841870444
  0
LINE
  8
0
 62
7
  6
CONTINUOUS
 10
151.6494152402
 20
119.209303066
 11
162.8390634654
 21
118.3149019121
  0
POLYLINE
  8
0
 62
7
  6
CONTINUOUS
 66
1
 70
0
  0
VERTEX
  8
0
 62
7
  6
CONTINUOUS
 10
159.449770056
 20
118.5858106334
  0
VERTEX
  8
0
 62
7
  6
CONTINUOUS
 10
159.6155102467
 20
118.5577978421
  0
VERTEX
  8
0
 62
7
  6
CONTINUOUS
 10
159.8179426078
 20
118.4793063381
  0
VERTEX
  8
0
 62
7
  6
CONTINUOUS
 10
159.951565552
 20
118.3905891712
  0
VERTEX
  8
0
 62
7
  6
CONTINUOUS
 10
159.9860254532
 20
118.3601809977
  0
SEQEND
  0
POLYLINE
  8
2_FEATURE
 62
7
  6
CONTINUOUS
 66
1
 70
0
  0
VERTEX
  8
2_FEATURE
 62
7
  6
CONTINUOUS
 10
162.0651940181
 20
116.4264568709
  0
VERTEX
  8
2_FEATURE
 62
7
  6
CONTINUOUS
 10
162.1528304096
 20
116.3942336988
  0
VERTEX
  8
2_FEATURE
 62
7
  6
CONTINUOUS
 10
162.2328077861
 20
116.2991597972
  0
VERTEX
  8
2_FEATURE
 62
7
  6
CONTINUOUS
 10
162.3003661867
 20
116.1499582562
  0
VERTEX
  8
2_FEATURE
 62
7
  6
CONTINUOUS
 10
162.3513304417
 20
115.9584161053
  0
VERTEX
  8
2_FEATURE
 62
7
  6
CONTINUOUS
 10
162.3827710887
 20
115.7387651421
  0
VERTEX
  8
2_FEATURE
 62
7
  6
CONTINUOUS
 10
162.3932383675
 20
115.5078655172
  0
SEQEND
  0
LINE
  8
2_FEATURE
 62
7
  6
CONTINUOUS
 10
154.1171078948
 20
140.1547582839
 11
154.1171078948
 21
136.2109727517
  0
POLYLINE
  8
0
 62
7
  6
CONTINUOUS
 66
1
 70
0
  0
VERTEX
  8
0
 62
7
  6
CONTINUOUS
 10
160.0988946399
 20
141.3341604483
  0
VERTEX
  8
0
 62
7
  6
CONTINUOUS
 10
160.1078443158
 20
141.3569948422
  0
VERTEX
  8
0
 62
7
  6
CONTINUOUS
 10
160.1036232774
 20
141.3497326153
  0
VERTEX
  8
0
 62
7
  6
CONTINUOUS
 10
160.0667924251
 20
141.2949021237
  0
VERTEX
  8
0
 62
7
  6
CONTINUOUS
 10
159.9855517708
 20
141.2051020824
  0
SEQEND
  0
LINE
  8
0
 62
7
  6
CONTINUOUS
 10
166.4103926434
 20
117.2929502461
 11
162.8329358796
 21
118.3153916969
  0
LINE
  8
0
 62
7
  6
CONTINUOUS
 10
163.0067435616
 20
108.8704280364
 11
162.9737115457
 21
108.9153307439
  0
POLYLINE
  8
2_FEATURE
 62
7
  6
CONTINUOUS
 66
1
 70
0
  0
VERTEX
  8
2_FEATURE
 62
7
  6
CONTINUOUS
 10
159.7061520543
 20
107.4428718259
  0
VERTEX
  8
2_FEATURE
 62
7
  6
CONTINUOUS
 10
159.6652316252
 20
107.5363773887
  0
VERTEX
  8
2_FEATURE
 62
7
  6
CONTINUOUS
 10
159.6124119676
 20
107.6154157675
  0
VERTEX
  8
2_FEATURE
 62
7
  6
CONTINUOUS
 10
159.5543393953
 20
107.6648919802
  0
VERTEX
  8
2_FEATURE
 62
7
  6
CONTINUOUS
 10
159.4921367967
 20
107.6815439901
  0
SEQEND
  0
POLYLINE
  8
2_FEATURE
 62
7
  6
CONTINUOUS
 66
1
 70
0
  0
VERTEX
  8
2_FEATURE
 62
7
  6
CONTINUOUS
 10
159.7060746107
 20
135.3226822454
  0
VERTEX
  8
2_FEATURE
 62
7
  6
CONTINUOUS
 10
159.6652316252
 20
135.2293536458
  0
VERTEX
  8
2_FEATURE
 62
7
  6
CONTINUOUS
 10
159.6124119676
 20
135.150315267
  0
VERTEX
  8
2_FEATURE
 62
7
  6
CONTINUOUS
 10
159.5543393953
 20
135.1008390543
  0
VERTEX
  8
2_FEATURE
 62
7
  6
CONTINUOUS
 10
159.4921367967
 20
135.0841870444
  0
SEQEND
  0
POLYLINE
  8
0
 62
7
  6
CONTINUOUS
 66
1
 70
0
  0
VERTEX
  8
0
 62
7
  6
CONTINUOUS
 10
159.9855710288
 20
118.360610751
  0
VERTEX
  8
0
 62
7
  6
CONTINUOUS
 10
160.0664062554
 20
118.2713356469
  0
VERTEX
  8
0
 62
7
  6
CONTINUOUS
 10
160.1034646758
 20
118.2162764678
  0
VERTEX
  8
0
 62
7
  6
CONTINUOUS
 10
160.1093471442
 20
118.2053571617
  0
SEQEND
  0
POLYLINE
  8
0
 62
7
  6
CONTINUOUS
 66
1
 70
0
  0
VERTEX
  8
0
 62
7
  6
CONTINUOUS
 10
163.0067435332
 20
108.8704280364
  0
VERTEX
  8
0
 62
7
  6
CONTINUOUS
 10
163.0303594908
 20
108.824537013
  0
VERTEX
  8
0
 62
7
  6
CONTINUOUS
 10
163.0481517124
 20
108.7696822909
  0
VERTEX
  8
0
 62
7
  6
CONTINUOUS
 10
163.0628495799
 20
108.7070648401
  0
VERTEX
  8
0
 62
7
  6
CONTINUOUS
 10
163.0747053252
 20
108.6391110684
  0
VERTEX
  8
0
 62
7
  6
CONTINUOUS
 10
163.0839672719
 20
108.5660520701
  0
VERTEX
  8
0
 62
7
  6
CONTINUOUS
 10
163.0905885057
 20
108.487631055
  0
VERTEX
  8
0
 62
7
  6
CONTINUOUS
 10
163.0942289108
 20
108.404445568
  0
VERTEX
  8
0
 62
7
  6
CONTINUOUS
 10
163.094421133
 20
108.3164494358
  0
VERTEX
  8
0
 62
7
  6
CONTINUOUS
 10
163.0904548701
 20
108.223963219
  0
VERTEX
  8
0
 62
7
  6
CONTINUOUS
 10
163.0814092086
 20
108.1281370938
  0
VERTEX
  8
0
 62
7
  6
CONTINUOUS
 10
163.0662160097
 20
108.0309784382
  0
VERTEX
  8
0
 62
7
  6
CONTINUOUS
 10
163.0433974818
 20
107.9342159632
  0
VERTEX
  8
0
 62
7
  6
CONTINUOUS
 10
163.0112510625
 20
107.841407173
  0
VERTEX
  8
0
 62
7
  6
CONTINUOUS
 10
162.9683351445
 20
107.7585203066
  0
SEQEND
  0
LINE
  8
0
 62
7
  6
CONTINUOUS
 10
158.7290922414
 20
92.3328655172
 11
158.7290922414
 21
97.4475060367
  0
LINE
  8
0
 62
7
  6
CONTINUOUS
 10
158.7290922414
 20
99.5682249978
 11
158.7290922414
 21
101.4975060367
  0
LINE
  8
2_FEATURE
 62
7
  6
CONTINUOUS
 10
158.7290922414
 20
92.3328655172
 11
158.7290922414
 21
101.8434165295
  0
LINE
  8
0
 62
7
  6
CONTINUOUS
 10
158.7290922414
 20
107.6682249978
 11
158.7290922414
 21
109.5975060367
  0
LINE
  8
0
 62
7
  6
CONTINUOUS
 10
158.7290922414
 20
111.7182249978
 11
158.7290922414
 21
114.2475060367
  0
LINE
  8
0
 62
7
  6
CONTINUOUS
 10
158.7290922414
 20
116.3682249978
 11
158.7290922414
 21
118.2975060367
  0
LINE
  8
2_FEATURE
 62
7
  6
CONTINUOUS
 10
158.7290922414
 20
107.322314505
 11
158.7290922414
 21
118.6434165295
  0
LINE
  8
0
 62
7
  6
CONTINUOUS
 10
158.7290922414
 20
124.4682249978
 11
158.7290922414
 21
126.3975060367
  0
LINE
  8
0
 62
7
  6
CONTINUOUS
 10
158.7290922414
 20
128.5182249978
 11
158.7290922414
 21
131.0475060367
  0
LINE
  8
0
 62
7
  6
CONTINUOUS
 10
158.7290922414
 20
133.1682249978
 11
158.7290922414
 21
135.0975060367
  0
LINE
  8
0
 62
7
  6
CONTINUOUS
 10
158.7290922414
 20
141.2682249978
 11
158.7290922414
 21
143.1975060367
  0
LINE
  8
0
 62
7
  6
CONTINUOUS
 10
158.7290922414
 20
145.3182249978
 11
158.7290922414
 21
147.8475060367
  0
LINE
  8
2_FEATURE
 62
7
  6
CONTINUOUS
 10
158.7290922414
 20
124.122314505
 11
158.7290922414
 21
152.2453271311
  0
LINE
  8
0
 62
7
  6
CONTINUOUS
 10
158.7290922414
 20
149.9682249978
 11
158.7290922414
 21
152.2453271311
  0
LINE
  8
AXES
 62
2
  6
CENTER
 10
158.7290922414
 20
90.0828641856
 11
158.7290922414
 21
161.0828663986
  0
POLYLINE
  8
0
 62
7
  6
CONTINUOUS
 66
1
 70
0
  0
VERTEX
  8
0
 62
7
  6
CONTINUOUS
 10
163.0067435332
 20
133.8953029981
  0
VERTEX
  8
0
 62
7
  6
CONTINUOUS
 10
163.0303594908
 20
133.9411940215
  0
VERTEX
  8
0
 62
7
  6
CONTINUOUS
 10
163.0481517124
 20
133.9960487436
  0
VERTEX
  8
0
 62
7
  6
CONTINUOUS
 10
163.0628495799
 20
134.0586661944
  0
VERTEX
  8
0
 62
7
  6
CONTINUOUS
 10
163.0747053252
 20
134.1266199661
  0
VERTEX
  8
0
 62
7
  6
CONTINUOUS
 10
163.0839672719
 20
134.1996789644
  0
VERTEX
  8
0
 62
7
  6
CONTINUOUS
 10
163.0905885057
 20
134.2780999795
  0
VERTEX
  8
0
 62
7
  6
CONTINUOUS
 10
163.0942289108
 20
134.3612854665
  0
VERTEX
  8
0
 62
7
  6
CONTINUOUS
 10
163.094421133
 20
134.4492815987
  0
VERTEX
  8
0
 62
7
  6
CONTINUOUS
 10
163.0904548701
 20
134.5417678154
  0
VERTEX
  8
0
 62
7
  6
CONTINUOUS
 10
163.0814092086
 20
134.6375939407
  0
VERTEX
  8
0
 62
7
  6
CONTINUOUS
 10
163.0662160097
 20
134.7347525963
  0
VERTEX
  8
0
 62
7
  6
CONTINUOUS
 10
163.0433974818
 20
134.8315150712
  0
VERTEX
  8
0
 62
7
  6
CONTINUOUS
 10
163.0112510625
 20
134.9243238615
  0
VERTEX
  8
0
 62
7
  6
CONTINUOUS
 10
162.9683351445
 20
135.0072107279
  0
SEQEND
  0
LINE
  8
0
 62
7
  6
CONTINUOUS
 10
163.0067435616
 20
133.8953029981
 11
162.9737115457
 21
133.8504002906
  0
LINE
  8
0
 62
7
  6
CONTINUOUS
 10
151.6494152402
 20
123.5564279685
 11
162.8390634654
 21
124.4508291224
  0
LINE
  8
2_FEATURE
 62
7
  6
CONTINUOUS
 10
158.7290922414
 20
124.4682249978
 11
159.4921367967
 21
124.4815439901
  0
POLYLINE
  8
0
 62
7
  6
CONTINUOUS
 66
1
 70
0
  0
VERTEX
  8
0
 62
7
  6
CONTINUOUS
 10
162.8390634645
 20
124.4508291337
  0
VERTEX
  8
0
 62
7
  6
CONTINUOUS
 10
162.8909543591
 20
124.4348361356
  0
VERTEX
  8
0
 62
7
  6
CONTINUOUS
 10
162.9406576761
 20
124.3817134081
  0
VERTEX
  8
0
 62
7
  6
CONTINUOUS
 10
162.9802299613
 20
124.3001008631
  0
VERTEX
  8
0
 62
7
  6
CONTINUOUS
 10
163.0034001544
 20
124.2031188521
  0
SEQEND
  0
POLYLINE
  8
0
 62
7
  6
CONTINUOUS
 66
1
 70
0
  0
VERTEX
  8
0
 62
7
  6
CONTINUOUS
 10
162.9683351445
 20
118.2072107279
  0
VERTEX
  8
0
 62
7
  6
CONTINUOUS
 10
162.9130203849
 20
118.2732212615
  0
VERTEX
  8
0
 62
7
  6
CONTINUOUS
 10
162.8749681431
 20
118.2949917001
  0
SEQEND
  0
POLYLINE
  8
0
 62
7
  6
CONTINUOUS
 66
1
 70
0
  0
VERTEX
  8
0
 62
7
  6
CONTINUOUS
 10
160.0988946399
 20
124.5341604483
  0
VERTEX
  8
0
 62
7
  6
CONTINUOUS
 10
160.1078443158
 20
124.5569948422
  0
VERTEX
  8
0
 62
7
  6
CONTINUOUS
 10
160.1036232774
 20
124.5497326153
  0
VERTEX
  8
0
 62
7
  6
CONTINUOUS
 10
160.0667924251
 20
124.4949021237
  0
VERTEX
  8
0
 62
7
  6
CONTINUOUS
 10
159.9855517708
 20
124.4051020824
  0
SEQEND
  0
POLYLINE
  8
0
 62
7
  6
CONTINUOUS
 66
1
 70
0
  0
VERTEX
  8
0
 62
7
  6
CONTINUOUS
 10
159.9860162658
 20
124.4055413431
  0
VERTEX
  8
0
 62
7
  6
CONTINUOUS
 10
159.9522546589
 20
124.3757107311
  0
VERTEX
  8
0
 62
7
  6
CONTINUOUS
 10
159.8204102604
 20
124.2877441322
  0
VERTEX
  8
0
 62
7
  6
CONTINUOUS
 10
159.6205716736
 20
124.209262082
  0
VERTEX
  8
0
 62
7
  6
CONTINUOUS
 10
159.449680055
 20
124.1799130745
  0
SEQEND
  0
POLYLINE
  8
2_FEATURE
 62
7
  6
CONTINUOUS
 66
1
 70
0
  0
VERTEX
  8
2_FEATURE
 62
7
  6
CONTINUOUS
 10
162.0651940181
 20
126.3392741635
  0
VERTEX
  8
2_FEATURE
 62
7
  6
CONTINUOUS
 10
162.1528304096
 20
126.3714973356
  0
VERTEX
  8
2_FEATURE
 62
7
  6
CONTINUOUS
 10
162.2328077861
 20
126.4665712373
  0
VERTEX
  8
2_FEATURE
 62
7
  6
CONTINUOUS
 10
162.3003661867
 20
126.6157727783
  0
VERTEX
  8
2_FEATURE
 62
7
  6
CONTINUOUS
 10
162.3513304417
 20
126.8073149292
  0
VERTEX
  8
2_FEATURE
 62
7
  6
CONTINUOUS
 10
162.3827710887
 20
127.0269658924
  0
VERTEX
  8
2_FEATURE
 62
7
  6
CONTINUOUS
 10
162.3932383675
 20
127.2578655172
  0
SEQEND
  0
LINE
  8
0
 62
7
  6
CONTINUOUS
 10
166.4103926434
 20
125.4727807884
 11
162.8329358796
 21
124.4503393376
  0
LINE
  8
2_FEATURE
 62
7
  6
CONTINUOUS
 10
158.7290922414
 20
126.3975060367
 11
162.0651940181
 21
126.3392741635
  0
POLYLINE
  8
2_FEATURE
 62
7
  6
CONTINUOUS
 66
1
 70
0
  0
VERTEX
  8
2_FEATURE
 62
7
  6
CONTINUOUS
 10
159.7061520543
 20
124.2428718259
  0
VERTEX
  8
2_FEATURE
 62
7
  6
CONTINUOUS
 10
159.6652316252
 20
124.3363773887
  0
VERTEX
  8
2_FEATURE
 62
7
  6
CONTINUOUS
 10
159.6124119676
 20
124.4154157675
  0
VERTEX
  8
2_FEATURE
 62
7
  6
CONTINUOUS
 10
159.5543393953
 20
124.4648919802
  0
VERTEX
  8
2_FEATURE
 62
7
  6
CONTINUOUS
 10
159.4921367967
 20
124.4815439901
  0
SEQEND
  0
POLYLINE
  8
0
 62
7
  6
CONTINUOUS
 66
1
 70
0
  0
VERTEX
  8
0
 62
7
  6
CONTINUOUS
 10
152.9543812029
 20
153.1221135442
  0
VERTEX
  8
0
 62
7
  6
CONTINUOUS
 10
152.9945383189
 20
152.9915019093
  0
VERTEX
  8
0
 62
7
  6
CONTINUOUS
 10
153.089630617
 20
152.8539862111
  0
VERTEX
  8
0
 62
7
  6
CONTINUOUS
 10
153.2310853284
 20
152.7450105006
  0
VERTEX
  8
0
 62
7
  6
CONTINUOUS
 10
153.408627
 20
152.6765287573
  0
VERTEX
  8
0
 62
7
  6
CONTINUOUS
 10
153.5119177469
 20
152.660417054
  0
SEQEND
  0
POLYLINE
  8
2_FEATURE
 62
7
  6
CONTINUOUS
 66
1
 70
0
  0
VERTEX
  8
2_FEATURE
 62
7
  6
CONTINUOUS
 10
162.3932383675
 20
110.8578655172
  0
VERTEX
  8
2_FEATURE
 62
7
  6
CONTINUOUS
 10
162.3827710765
 20
111.0887652748
  0
VERTEX
  8
2_FEATURE
 62
7
  6
CONTINUOUS
 10
162.3513303437
 20
111.3084165956
  0
VERTEX
  8
2_FEATURE
 62
7
  6
CONTINUOUS
 10
162.3003661461
 20
111.4999583731
  0
VERTEX
  8
2_FEATURE
 62
7
  6
CONTINUOUS
 10
162.2328078277
 20
111.6491597281
  0
VERTEX
  8
2_FEATURE
 62
7
  6
CONTINUOUS
 10
162.1528304076
 20
111.7442337003
  0
VERTEX
  8
2_FEATURE
 62
7
  6
CONTINUOUS
 10
162.0651940181
 20
111.7764568709
  0
SEQEND
  0
POLYLINE
  8
2_FEATURE
 62
7
  6
CONTINUOUS
 66
1
 70
0
  0
VERTEX
  8
2_FEATURE
 62
7
  6
CONTINUOUS
 10
162.3932383675
 20
127.6578655172
  0
VERTEX
  8
2_FEATURE
 62
7
  6
CONTINUOUS
 10
162.3827710765
 20
127.8887652748
  0
VERTEX
  8
2_FEATURE
 62
7
  6
CONTINUOUS
 10
162.3513303437
 20
128.1084165956
  0
VERTEX
  8
2_FEATURE
 62
7
  6
CONTINUOUS
 10
162.3003661461
 20
128.2999583731
  0
VERTEX
  8
2_FEATURE
 62
7
  6
CONTINUOUS
 10
162.2328078277
 20
128.4491597281
  0
VERTEX
  8
2_FEATURE
 62
7
  6
CONTINUOUS
 10
162.1528304076
 20
128.5442337003
  0
VERTEX
  8
2_FEATURE
 62
7
  6
CONTINUOUS
 10
162.0651940181
 20
128.5764568709
  0
SEQEND
  0
POLYLINE
  8
2_FEATURE
 62
7
  6
CONTINUOUS
 66
1
 70
0
  0
VERTEX
  8
2_FEATURE
 62
7
  6
CONTINUOUS
 10
162.3932383675
 20
144.4578655172
  0
VERTEX
  8
2_FEATURE
 62
7
  6
CONTINUOUS
 10
162.3827710765
 20
144.6887652748
  0
VERTEX
  8
2_FEATURE
 62
7
  6
CONTINUOUS
 10
162.3513303437
 20
144.9084165956
  0
VERTEX
  8
2_FEATURE
 62
7
  6
CONTINUOUS
 10
162.3003661461
 20
145.0999583731
  0
VERTEX
  8
2_FEATURE
 62
7
  6
CONTINUOUS
 10
162.2328078277
 20
145.2491597281
  0
VERTEX
  8
2_FEATURE
 62
7
  6
CONTINUOUS
 10
162.1528304076
 20
145.3442337003
  0
VERTEX
  8
2_FEATURE
 62
7
  6
CONTINUOUS
 10
162.0651940181
 20
145.3764568709
  0
SEQEND
  0
LINE
  8
2_FEATURE
 62
7
  6
CONTINUOUS
 10
162.3932383675
 20
149.1078655172
 11
162.3932383675
 21
148.7078655172
  0
LINE
  8
2_FEATURE
 62
7
  6
CONTINUOUS
 10
162.3932383675
 20
132.3078655172
 11
162.3932383675
 21
131.9078655172
  0
LINE
  8
2_FEATURE
 62
7
  6
CONTINUOUS
 10
162.3932383675
 20
115.5078655172
 11
162.3932383675
 21
115.1078655172
  0
LINE
  8
2_FEATURE
 62
7
  6
CONTINUOUS
 10
162.3932383675
 20
98.7078655172
 11
162.3932383675
 21
98.3078655172
  0
LINE
  8
2_FEATURE
 62
7
  6
CONTINUOUS
 10
162.3932383675
 20
110.4578655172
 11
162.3932383675
 21
110.8578655172
  0
LINE
  8
2_FEATURE
 62
7
  6
CONTINUOUS
 10
162.3932383675
 20
127.2578655172
 11
162.3932383675
 21
127.6578655172
  0
LINE
  8
2_FEATURE
 62
7
  6
CONTINUOUS
 10
162.3932383675
 20
144.0578655172
 11
162.3932383675
 21
144.4578655172
  0
POLYLINE
  8
2_FEATURE
 62
7
  6
CONTINUOUS
 66
1
 70
0
  0
VERTEX
  8
2_FEATURE
 62
7
  6
CONTINUOUS
 10
162.3932383675
 20
148.7078655172
  0
VERTEX
  8
2_FEATURE
 62
7
  6
CONTINUOUS
 10
162.3827710765
 20
148.4769657597
  0
VERTEX
  8
2_FEATURE
 62
7
  6
CONTINUOUS
 10
162.3513303437
 20
148.2573144388
  0
VERTEX
  8
2_FEATURE
 62
7
  6
CONTINUOUS
 10
162.3003661461
 20
148.0657726614
  0
VERTEX
  8
2_FEATURE
 62
7
  6
CONTINUOUS
 10
162.2328078277
 20
147.9165713064
  0
VERTEX
  8
2_FEATURE
 62
7
  6
CONTINUOUS
 10
162.1528304076
 20
147.8214973341
  0
VERTEX
  8
2_FEATURE
 62
7
  6
CONTINUOUS
 10
162.0651940181
 20
147.7892741635
  0
SEQEND
  0
POLYLINE
  8
2_FEATURE
 62
7
  6
CONTINUOUS
 66
1
 70
0
  0
VERTEX
  8
2_FEATURE
 62
7
  6
CONTINUOUS
 10
162.3932383675
 20
131.9078655172
  0
VERTEX
  8
2_FEATURE
 62
7
  6
CONTINUOUS
 10
162.3827710765
 20
131.6769657597
  0
VERTEX
  8
2_FEATURE
 62
7
  6
CONTINUOUS
 10
162.3513303437
 20
131.4573144388
  0
VERTEX
  8
2_FEATURE
 62
7
  6
CONTINUOUS
 10
162.3003661461
 20
131.2657726614
  0
VERTEX
  8
2_FEATURE
 62
7
  6
CONTINUOUS
 10
162.2328078277
 20
131.1165713064
  0
VERTEX
  8
2_FEATURE
 62
7
  6
CONTINUOUS
 10
162.1528304076
 20
131.0214973341
  0
VERTEX
  8
2_FEATURE
 62
7
  6
CONTINUOUS
 10
162.0651940181
 20
130.9892741635
  0
SEQEND
  0
POLYLINE
  8
2_FEATURE
 62
7
  6
CONTINUOUS
 66
1
 70
0
  0
VERTEX
  8
2_FEATURE
 62
7
  6
CONTINUOUS
 10
162.3932383675
 20
115.1078655172
  0
VERTEX
  8
2_FEATURE
 62
7
  6
CONTINUOUS
 10
162.3827710765
 20
114.8769657597
  0
VERTEX
  8
2_FEATURE
 62
7
  6
CONTINUOUS
 10
162.3513303437
 20
114.6573144388
  0
VERTEX
  8
2_FEATURE
 62
7
  6
CONTINUOUS
 10
162.3003661461
 20
114.4657726614
  0
VERTEX
  8
2_FEATURE
 62
7
  6
CONTINUOUS
 10
162.2328078277
 20
114.3165713064
  0
VERTEX
  8
2_FEATURE
 62
7
  6
CONTINUOUS
 10
162.1528304076
 20
114.2214973341
  0
VERTEX
  8
2_FEATURE
 62
7
  6
CONTINUOUS
 10
162.0651940181
 20
114.1892741635
  0
SEQEND
  0
POLYLINE
  8
2_FEATURE
 62
7
  6
CONTINUOUS
 66
1
 70
0
  0
VERTEX
  8
2_FEATURE
 62
7
  6
CONTINUOUS
 10
162.3932383675
 20
98.3078655172
  0
VERTEX
  8
2_FEATURE
 62
7
  6
CONTINUOUS
 10
162.3827710765
 20
98.0769657597
  0
VERTEX
  8
2_FEATURE
 62
7
  6
CONTINUOUS
 10
162.3513303437
 20
97.8573144388
  0
VERTEX
  8
2_FEATURE
 62
7
  6
CONTINUOUS
 10
162.3003661461
 20
97.6657726614
  0
VERTEX
  8
2_FEATURE
 62
7
  6
CONTINUOUS
 10
162.2328078277
 20
97.5165713064
  0
VERTEX
  8
2_FEATURE
 62
7
  6
CONTINUOUS
 10
162.1528304076
 20
97.4214973341
  0
VERTEX
  8
2_FEATURE
 62
7
  6
CONTINUOUS
 10
162.0651940181
 20
97.3892741635
  0
SEQEND
  0
POLYLINE
  8
2_FEATURE
 62
7
  6
CONTINUOUS
 66
1
 70
0
  0
VERTEX
  8
2_FEATURE
 62
7
  6
CONTINUOUS
 10
159.7060746107
 20
118.5226822454
  0
VERTEX
  8
2_FEATURE
 62
7
  6
CONTINUOUS
 10
159.6652316252
 20
118.4293536458
  0
VERTEX
  8
2_FEATURE
 62
7
  6
CONTINUOUS
 10
159.6124119676
 20
118.350315267
  0
VERTEX
  8
2_FEATURE
 62
7
  6
CONTINUOUS
 10
159.5543393953
 20
118.3008390543
  0
VERTEX
  8
2_FEATURE
 62
7
  6
CONTINUOUS
 10
159.4921367967
 20
118.2841870444
  0
SEQEND
  0
POLYLINE
  8
0
 62
7
  6
CONTINUOUS
 66
1
 70
0
  0
VERTEX
  8
0
 62
7
  6
CONTINUOUS
 10
162.9683351445
 20
124.5585203066
  0
VERTEX
  8
0
 62
7
  6
CONTINUOUS
 10
162.9130203849
 20
124.492509773
  0
VERTEX
  8
0
 62
7
  6
CONTINUOUS
 10
162.8749681431
 20
124.4707393343
  0
SEQEND
  0
LINE
  8
2_FEATURE
 62
7
  6
CONTINUOUS
 10
158.7290922414
 20
128.5182249978
 11
162.0651940181
 21
128.5764568709
  0
LINE
  8
0
 62
7
  6
CONTINUOUS
 10
163.0067435616
 20
125.6704280364
 11
162.9737115457
 21
125.7153307439
  0
POLYLINE
  8
0
 62
7
  6
CONTINUOUS
 66
1
 70
0
  0
VERTEX
  8
0
 62
7
  6
CONTINUOUS
 10
163.0067435332
 20
125.6704280364
  0
VERTEX
  8
0
 62
7
  6
CONTINUOUS
 10
163.0303594908
 20
125.624537013
  0
VERTEX
  8
0
 62
7
  6
CONTINUOUS
 10
163.0481517124
 20
125.5696822909
  0
VERTEX
  8
0
 62
7
  6
CONTINUOUS
 10
163.0628495799
 20
125.5070648401
  0
VERTEX
  8
0
 62
7
  6
CONTINUOUS
 10
163.0747053252
 20
125.4391110684
  0
VERTEX
  8
0
 62
7
  6
CONTINUOUS
 10
163.0839672719
 20
125.3660520701
  0
VERTEX
  8
0
 62
7
  6
CONTINUOUS
 10
163.0905885057
 20
125.287631055
  0
VERTEX
  8
0
 62
7
  6
CONTINUOUS
 10
163.0942289108
 20
125.204445568
  0
VERTEX
  8
0
 62
7
  6
CONTINUOUS
 10
163.094421133
 20
125.1164494358
  0
VERTEX
  8
0
 62
7
  6
CONTINUOUS
 10
163.0904548701
 20
125.023963219
  0
VERTEX
  8
0
 62
7
  6
CONTINUOUS
 10
163.0814092086
 20
124.9281370938
  0
VERTEX
  8
0
 62
7
  6
CONTINUOUS
 10
163.0662160097
 20
124.8309784382
  0
VERTEX
  8
0
 62
7
  6
CONTINUOUS
 10
163.0433974818
 20
124.7342159632
  0
VERTEX
  8
0
 62
7
  6
CONTINUOUS
 10
163.0112510625
 20
124.641407173
  0
VERTEX
  8
0
 62
7
  6
CONTINUOUS
 10
162.9683351445
 20
124.5585203066
  0
SEQEND
  0
LINE
  8
2_FEATURE
 62
7
  6
CONTINUOUS
 10
158.7290922414
 20
131.0475060367
 11
162.0651940181
 21
130.9892741635
  0
POLYLINE
  8
2_FEATURE
 62
7
  6
CONTINUOUS
 66
1
 70
0
  0
VERTEX
  8
2_FEATURE
 62
7
  6
CONTINUOUS
 10
159.7061520543
 20
141.0428718259
  0
VERTEX
  8
2_FEATURE
 62
7
  6
CONTINUOUS
 10
159.6652316252
 20
141.1363773887
  0
VERTEX
  8
2_FEATURE
 62
7
  6
CONTINUOUS
 10
159.6124119676
 20
141.2154157675
  0
VERTEX
  8
2_FEATURE
 62
7
  6
CONTINUOUS
 10
159.5543393953
 20
141.2648919802
  0
VERTEX
  8
2_FEATURE
 62
7
  6
CONTINUOUS
 10
159.4921367967
 20
141.2815439901
  0
SEQEND
  0
LINE
  8
0
 62
7
  6
CONTINUOUS
 10
166.7290922414
 20
92.3328655172
 11
166.7290922414
 21
158.8328655172
  0
POLYLINE
  8
0
 62
7
  6
CONTINUOUS
 66
1
 70
0
  0
VERTEX
  8
0
 62
7
  6
CONTINUOUS
 10
160.0988946399
 20
107.7341604483
  0
VERTEX
  8
0
 62
7
  6
CONTINUOUS
 10
160.1078443158
 20
107.7569948422
  0
VERTEX
  8
0
 62
7
  6
CONTINUOUS
 10
160.1036232774
 20
107.7497326153
  0
VERTEX
  8
0
 62
7
  6
CONTINUOUS
 10
160.0667924251
 20
107.6949021237
  0
VERTEX
  8
0
 62
7
  6
CONTINUOUS
 10
159.9855517708
 20
107.6051020824
  0
SEQEND
  0
POLYLINE
  8
0
 62
7
  6
CONTINUOUS
 66
1
 70
0
  0
VERTEX
  8
0
 62
7
  6
CONTINUOUS
 10
163.0067435332
 20
117.0953029981
  0
VERTEX
  8
0
 62
7
  6
CONTINUOUS
 10
163.0303594908
 20
117.1411940215
  0
VERTEX
  8
0
 62
7
  6
CONTINUOUS
 10
163.0481517124
 20
117.1960487436
  0
VERTEX
  8
0
 62
7
  6
CONTINUOUS
 10
163.0628495799
 20
117.2586661944
  0
VERTEX
  8
0
 62
7
  6
CONTINUOUS
 10
163.0747053252
 20
117.3266199661
  0
VERTEX
  8
0
 62
7
  6
CONTINUOUS
 10
163.0839672719
 20
117.3996789644
  0
VERTEX
  8
0
 62
7
  6
CONTINUOUS
 10
163.0905885057
 20
117.4780999795
  0
VERTEX
  8
0
 62
7
  6
CONTINUOUS
 10
163.0942289108
 20
117.5612854665
  0
VERTEX
  8
0
 62
7
  6
CONTINUOUS
 10
163.094421133
 20
117.6492815987
  0
VERTEX
  8
0
 62
7
  6
CONTINUOUS
 10
163.0904548701
 20
117.7417678154
  0
VERTEX
  8
0
 62
7
  6
CONTINUOUS
 10
163.0814092086
 20
117.8375939407
  0
VERTEX
  8
0
 62
7
  6
CONTINUOUS
 10
163.0662160097
 20
117.9347525963
  0
VERTEX
  8
0
 62
7
  6
CONTINUOUS
 10
163.0433974818
 20
118.0315150712
  0
VERTEX
  8
0
 62
7
  6
CONTINUOUS
 10
163.0112510625
 20
118.1243238615
  0
VERTEX
  8
0
 62
7
  6
CONTINUOUS
 10
162.9683351445
 20
118.2072107279
  0
SEQEND
  0
LINE
  8
0
 62
7
  6
CONTINUOUS
 10
163.0067435616
 20
117.0953029981
 11
162.9737115457
 21
117.0504002906
  0
POLYLINE
  8
0
 62
7
  6
CONTINUOUS
 66
1
 70
0
  0
VERTEX
  8
0
 62
7
  6
CONTINUOUS
 10
162.8390634645
 20
118.3149019008
  0
VERTEX
  8
0
 62
7
  6
CONTINUOUS
 10
162.8909543591
 20
118.3308948989
  0
VERTEX
  8
0
 62
7
  6
CONTINUOUS
 10
162.9406576761
 20
118.3840176264
  0
VERTEX
  8
0
 62
7
  6
CONTINUOUS
 10
162.9802299613
 20
118.4656301714
  0
VERTEX
  8
0
 62
7
  6
CONTINUOUS
 10
163.0034001544
 20
118.5626121824
  0
SEQEND
  0
LINE
  8
2_FEATURE
 62
7
  6
CONTINUOUS
 10
158.7290922414
 20
133.1682249978
 11
162.0651940181
 21
133.2264568709
  0
POLYLINE
  8
2_FEATURE
 62
7
  6
CONTINUOUS
 66
1
 70
0
  0
VERTEX
  8
2_FEATURE
 62
7
  6
CONTINUOUS
 10
162.0651940181
 20
133.2264568709
  0
VERTEX
  8
2_FEATURE
 62
7
  6
CONTINUOUS
 10
162.1528304096
 20
133.1942336988
  0
VERTEX
  8
2_FEATURE
 62
7
  6
CONTINUOUS
 10
162.2328077861
 20
133.0991597972
  0
VERTEX
  8
2_FEATURE
 62
7
  6
CONTINUOUS
 10
162.3003661867
 20
132.9499582562
  0
VERTEX
  8
2_FEATURE
 62
7
  6
CONTINUOUS
 10
162.3513304417
 20
132.7584161053
  0
VERTEX
  8
2_FEATURE
 62
7
  6
CONTINUOUS
 10
162.3827710887
 20
132.5387651421
  0
VERTEX
  8
2_FEATURE
 62
7
  6
CONTINUOUS
 10
162.3932383675
 20
132.3078655172
  0
SEQEND
  0
POLYLINE
  8
0
 62
7
  6
CONTINUOUS
 66
1
 70
0
  0
VERTEX
  8
0
 62
7
  6
CONTINUOUS
 10
159.9855710288
 20
135.160610751
  0
VERTEX
  8
0
 62
7
  6
CONTINUOUS
 10
160.0664062554
 20
135.0713356469
  0
VERTEX
  8
0
 62
7
  6
CONTINUOUS
 10
160.1034646758
 20
135.0162764678
  0
VERTEX
  8
0
 62
7
  6
CONTINUOUS
 10
160.1093471442
 20
135.0053571617
  0
SEQEND
  0
POLYLINE
  8
0
 62
7
  6
CONTINUOUS
 66
1
 70
0
  0
VERTEX
  8
0
 62
7
  6
CONTINUOUS
 10
162.9683351445
 20
135.0072107279
  0
VERTEX
  8
0
 62
7
  6
CONTINUOUS
 10
162.9130203849
 20
135.0732212615
  0
VERTEX
  8
0
 62
7
  6
CONTINUOUS
 10
162.8749681431
 20
135.0949917001
  0
SEQEND
  0
POLYLINE
  8
2_FEATURE
 62
7
  6
CONTINUOUS
 66
1
 70
0
  0
VERTEX
  8
2_FEATURE
 62
7
  6
CONTINUOUS
 10
159.7060746107
 20
101.7226822454
  0
VERTEX
  8
2_FEATURE
 62
7
  6
CONTINUOUS
 10
159.6652316252
 20
101.6293536458
  0
VERTEX
  8
2_FEATURE
 62
7
  6
CONTINUOUS
 10
159.6124119676
 20
101.550315267
  0
VERTEX
  8
2_FEATURE
 62
7
  6
CONTINUOUS
 10
159.5543393953
 20
101.5008390543
  0
VERTEX
  8
2_FEATURE
 62
7
  6
CONTINUOUS
 10
159.4921367967
 20
101.4841870444
  0
SEQEND
  0
LINE
  8
2_FEATURE
 62
7
  6
CONTINUOUS
 10
158.7290922414
 20
135.0975060367
 11
159.4921367967
 21
135.0841870444
  0
LINE
  8
2_FEATURE
 62
7
  6
CONTINUOUS
 10
151.6494152402
 20
136.009303066
 11
162.8390634654
 21
135.1149019121
  0
POLYLINE
  8
2_FEATURE
 62
7
  6
CONTINUOUS
 66
1
 70
0
  0
VERTEX
  8
2_FEATURE
 62
7
  6
CONTINUOUS
 10
154.8210977417
 20
135.7557869203
  0
VERTEX
  8
2_FEATURE
 62
7
  6
CONTINUOUS
 10
154.6905686947
 20
135.7727378964
  0
VERTEX
  8
2_FEATURE
 62
7
  6
CONTINUOUS
 10
154.5664326178
 20
135.8019230418
  0
VERTEX
  8
2_FEATURE
 62
7
  6
CONTINUOUS
 10
154.4502350534
 20
135.843201033
  0
VERTEX
  8
2_FEATURE
 62
7
  6
CONTINUOUS
 10
154.3454263543
 20
135.8960668428
  0
VERTEX
  8
2_FEATURE
 62
7
  6
CONTINUOUS
 10
154.2557780575
 20
135.9595949987
  0
VERTEX
  8
2_FEATURE
 62
7
  6
CONTINUOUS
 10
154.1842931152
 20
136.0335485715
  0
VERTEX
  8
2_FEATURE
 62
7
  6
CONTINUOUS
 10
154.1351482927
 20
136.1188310191
  0
VERTEX
  8
2_FEATURE
 62
7
  6
CONTINUOUS
 10
154.1171078948
 20
136.2109727517
  0
SEQEND
  0
POLYLINE
  8
0
 62
7
  6
CONTINUOUS
 66
1
 70
0
  0
VERTEX
  8
0
 62
7
  6
CONTINUOUS
 10
159.449770056
 20
135.3858106334
  0
VERTEX
  8
0
 62
7
  6
CONTINUOUS
 10
159.6155102467
 20
135.3577978421
  0
VERTEX
  8
0
 62
7
  6
CONTINUOUS
 10
159.8179426077
 20
135.2793063381
  0
VERTEX
  8
0
 62
7
  6
CONTINUOUS
 10
159.951565552
 20
135.1905891712
  0
VERTEX
  8
0
 62
7
  6
CONTINUOUS
 10
159.9860254532
 20
135.1601809977
  0
SEQEND
  0
LINE
  8
0
 62
7
  6
CONTINUOUS
 10
166.4103926434
 20
134.0929502461
 11
162.8329358796
 21
135.1153916969
  0
POLYLINE
  8
0
 62
7
  6
CONTINUOUS
 66
1
 70
0
  0
VERTEX
  8
0
 62
7
  6
CONTINUOUS
 10
152.9023881878
 20
153.2257193322
  0
VERTEX
  8
0
 62
7
  6
CONTINUOUS
 10
152.9429474796
 20
153.1638093349
  0
VERTEX
  8
0
 62
7
  6
CONTINUOUS
 10
152.9543820568
 20
153.1221084007
  0
SEQEND
  0
POLYLINE
  8
0
 62
7
  6
CONTINUOUS
 66
1
 70
0
  0
VERTEX
  8
0
 62
7
  6
CONTINUOUS
 10
163.0067435332
 20
142.4704280364
  0
VERTEX
  8
0
 62
7
  6
CONTINUOUS
 10
163.0303594908
 20
142.424537013
  0
VERTEX
  8
0
 62
7
  6
CONTINUOUS
 10
163.0481517124
 20
142.3696822909
  0
VERTEX
  8
0
 62
7
  6
CONTINUOUS
 10
163.0628495799
 20
142.3070648401
  0
VERTEX
  8
0
 62
7
  6
CONTINUOUS
 10
163.0747053252
 20
142.2391110684
  0
VERTEX
  8
0
 62
7
  6
CONTINUOUS
 10
163.0839672719
 20
142.1660520701
  0
VERTEX
  8
0
 62
7
  6
CONTINUOUS
 10
163.0905885057
 20
142.087631055
  0
VERTEX
  8
0
 62
7
  6
CONTINUOUS
 10
163.0942289108
 20
142.004445568
  0
VERTEX
  8
0
 62
7
  6
CONTINUOUS
 10
163.094421133
 20
141.9164494358
  0
VERTEX
  8
0
 62
7
  6
CONTINUOUS
 10
163.0904548701
 20
141.823963219
  0
VERTEX
  8
0
 62
7
  6
CONTINUOUS
 10
163.0814092086
 20
141.7281370938
  0
VERTEX
  8
0
 62
7
  6
CONTINUOUS
 10
163.0662160097
 20
141.6309784382
  0
VERTEX
  8
0
 62
7
  6
CONTINUOUS
 10
163.0433974818
 20
141.5342159632
  0
VERTEX
  8
0
 62
7
  6
CONTINUOUS
 10
163.0112510625
 20
141.441407173
  0
VERTEX
  8
0
 62
7
  6
CONTINUOUS
 10
162.9683351445
 20
141.3585203066
  0
SEQEND
  0
LINE
  8
0
 62
7
  6
CONTINUOUS
 10
151.1257326125
 20
153.2374924869
 11
151.1441071658
 21
153.216176859
  0
LINE
  8
0
 62
7
  6
CONTINUOUS
 10
151.1441066802
 20
153.2161772868
 11
151.2520508398
 21
153.0894415607
  0
LINE
  8
0
 62
7
  6
CONTINUOUS
 10
163.0067435616
 20
142.4704280364
 11
162.9737115457
 21
142.5153307439
  0
POLYLINE
  8
0
 62
7
  6
CONTINUOUS
 66
1
 70
0
  0
VERTEX
  8
0
 62
7
  6
CONTINUOUS
 10
163.0067435332
 20
100.2953029981
  0
VERTEX
  8
0
 62
7
  6
CONTINUOUS
 10
163.0303594908
 20
100.3411940215
  0
VERTEX
  8
0
 62
7
  6
CONTINUOUS
 10
163.0481517124
 20
100.3960487436
  0
VERTEX
  8
0
 62
7
  6
CONTINUOUS
 10
163.0628495799
 20
100.4586661944
  0
VERTEX
  8
0
 62
7
  6
CONTINUOUS
 10
163.0747053252
 20
100.5266199661
  0
VERTEX
  8
0
 62
7
  6
CONTINUOUS
 10
163.0839672719
 20
100.5996789644
  0
VERTEX
  8
0
 62
7
  6
CONTINUOUS
 10
163.0905885057
 20
100.6780999795
  0
VERTEX
  8
0
 62
7
  6
CONTINUOUS
 10
163.0942289108
 20
100.7612854665
  0
VERTEX
  8
0
 62
7
  6
CONTINUOUS
 10
163.094421133
 20
100.8492815987
  0
VERTEX
  8
0
 62
7
  6
CONTINUOUS
 10
163.0904548701
 20
100.9417678154
  0
VERTEX
  8
0
 62
7
  6
CONTINUOUS
 10
163.0814092086
 20
101.0375939407
  0
VERTEX
  8
0
 62
7
  6
CONTINUOUS
 10
163.0662160097
 20
101.1347525963
  0
VERTEX
  8
0
 62
7
  6
CONTINUOUS
 10
163.0433974818
 20
101.2315150712
  0
VERTEX
  8
0
 62
7
  6
CONTINUOUS
 10
163.0112510625
 20
101.3243238615
  0
VERTEX
  8
0
 62
7
  6
CONTINUOUS
 10
162.9683351445
 20
101.4072107279
  0
SEQEND
  0
POLYLINE
  8
0
 62
7
  6
CONTINUOUS
 66
1
 70
0
  0
VERTEX
  8
0
 62
7
  6
CONTINUOUS
 10
162.9683351445
 20
107.7585203066
  0
VERTEX
  8
0
 62
7
  6
CONTINUOUS
 10
162.9130203849
 20
107.692509773
  0
VERTEX
  8
0
 62
7
  6
CONTINUOUS
 10
162.8749681431
 20
107.6707393343
  0
SEQEND
  0
POLYLINE
  8
0
 62
7
  6
CONTINUOUS
 66
1
 70
0
  0
VERTEX
  8
0
 62
7
  6
CONTINUOUS
 10
159.9860162658
 20
107.6055413431
  0
VERTEX
  8
0
 62
7
  6
CONTINUOUS
 10
159.9522546589
 20
107.5757107311
  0
VERTEX
  8
0
 62
7
  6
CONTINUOUS
 10
159.8204102604
 20
107.4877441322
  0
VERTEX
  8
0
 62
7
  6
CONTINUOUS
 10
159.6205716737
 20
107.409262082
  0
VERTEX
  8
0
 62
7
  6
CONTINUOUS
 10
159.449680055
 20
107.3799130745
  0
SEQEND
  0
POLYLINE
  8
2_FEATURE
 62
7
  6
CONTINUOUS
 66
1
 70
0
  0
VERTEX
  8
2_FEATURE
 62
7
  6
CONTINUOUS
 10
162.0651940181
 20
109.5392741635
  0
VERTEX
  8
2_FEATURE
 62
7
  6
CONTINUOUS
 10
162.1528304096
 20
109.5714973356
  0
VERTEX
  8
2_FEATURE
 62
7
  6
CONTINUOUS
 10
162.2328077861
 20
109.6665712373
  0
VERTEX
  8
2_FEATURE
 62
7
  6
CONTINUOUS
 10
162.3003661867
 20
109.8157727783
  0
VERTEX
  8
2_FEATURE
 62
7
  6
CONTINUOUS
 10
162.3513304417
 20
110.0073149292
  0
VERTEX
  8
2_FEATURE
 62
7
  6
CONTINUOUS
 10
162.3827710887
 20
110.2269658924
  0
VERTEX
  8
2_FEATURE
 62
7
  6
CONTINUOUS
 10
162.3932383675
 20
110.4578655172
  0
SEQEND
  0
LINE
  8
2_FEATURE
 62
7
  6
CONTINUOUS
 10
151.6494152402
 20
140.3564279685
 11
162.8390634654
 21
141.2508291224
  0
LINE
  8
2_FEATURE
 62
7
  6
CONTINUOUS
 10
158.7290922414
 20
141.2682249978
 11
159.4921367967
 21
141.2815439901
  0
POLYLINE
  8
0
 62
7
  6
CONTINUOUS
 66
1
 70
0
  0
VERTEX
  8
0
 62
7
  6
CONTINUOUS
 10
162.8390634645
 20
141.2508291337
  0
VERTEX
  8
0
 62
7
  6
CONTINUOUS
 10
162.8909543591
 20
141.2348361356
  0
VERTEX
  8
0
 62
7
  6
CONTINUOUS
 10
162.9406576761
 20
141.1817134081
  0
VERTEX
  8
0
 62
7
  6
CONTINUOUS
 10
162.9802299613
 20
141.1001008631
  0
VERTEX
  8
0
 62
7
  6
CONTINUOUS
 10
163.0034001544
 20
141.0031188521
  0
SEQEND
  0
LINE
  8
0
 62
7
  6
CONTINUOUS
 10
151.1074779562
 20
153.2527552234
 11
151.1257326125
 21
153.2374924869
  0
LINE
  8
0
 62
7
  6
CONTINUOUS
 10
163.0067435616
 20
100.2953029981
 11
162.9737115457
 21
100.2504002906
  0
LINE
  8
0
 62
7
  6
CONTINUOUS
 10
166.4103926434
 20
108.6727807884
 11
162.8329358796
 21
107.6503393376
  0
LINE
  8
2_FEATURE
 62
7
  6
CONTINUOUS
 10
158.7290922414
 20
143.1975060367
 11
162.0651940181
 21
143.1392741635
  0
POLYLINE
  8
0
 62
7
  6
CONTINUOUS
 66
1
 70
0
  0
VERTEX
  8
0
 62
7
  6
CONTINUOUS
 10
151.2520508398
 20
153.0894415607
  0
VERTEX
  8
0
 62
7
  6
CONTINUOUS
 10
151.4763560392
 20
152.920272514
  0
VERTEX
  8
0
 62
7
  6
CONTINUOUS
 10
151.7416469274
 20
152.8158405421
  0
VERTEX
  8
0
 62
7
  6
CONTINUOUS
 10
151.9123288751
 20
152.7883045047
  0
SEQEND
  0
POLYLINE
  8
0
 62
7
  6
CONTINUOUS
 66
1
 70
0
  0
VERTEX
  8
0
 62
7
  6
CONTINUOUS
 10
159.9855710288
 20
151.960610751
  0
VERTEX
  8
0
 62
7
  6
CONTINUOUS
 10
160.0664062554
 20
151.8713356469
  0
VERTEX
  8
0
 62
7
  6
CONTINUOUS
 10
160.1034646758
 20
151.8162764678
  0
VERTEX
  8
0
 62
7
  6
CONTINUOUS
 10
160.1093471442
 20
151.8053571617
  0
SEQEND
  0
LINE
  8
2_FEATURE
 62
7
  6
CONTINUOUS
 10
158.7290922414
 20
145.3182249978
 11
162.0651940181
 21
145.3764568709
  0
POLYLINE
  8
0
 62
7
  6
CONTINUOUS
 66
1
 70
0
  0
VERTEX
  8
0
 62
7
  6
CONTINUOUS
 10
151.1074582066
 20
153.2527693778
  0
VERTEX
  8
0
 62
7
  6
CONTINUOUS
 10
151.0742520651
 20
153.273856034
  0
VERTEX
  8
0
 62
7
  6
CONTINUOUS
 10
151.0458858659
 20
153.2828655173
  0
SEQEND
  0
LINE
  8
0
 62
7
  6
CONTINUOUS
 10
162.9683351445
 20
151.8072107279
 11
162.9130203849
 21
151.8732212615
  0
LINE
  8
2_FEATURE
 62
7
  6
CONTINUOUS
 10
158.7290922414
 20
147.8475060367
 11
162.0651940181
 21
147.7892741635
  0
LINE
  8
0
 62
7
  6
CONTINUOUS
 10
153.0035075199
 20
153.1768861717
 11
153.0251598677
 21
153.165169281
  0
POLYLINE
  8
0
 62
7
  6
CONTINUOUS
 66
1
 70
0
  0
VERTEX
  8
0
 62
7
  6
CONTINUOUS
 10
152.8872714544
 20
153.2492086942
  0
VERTEX
  8
0
 62
7
  6
CONTINUOUS
 10
152.9205761432
 20
153.2305548017
  0
VERTEX
  8
0
 62
7
  6
CONTINUOUS
 10
152.9513807619
 20
153.2110515715
  0
VERTEX
  8
0
 62
7
  6
CONTINUOUS
 10
152.9792187213
 20
153.1925412243
  0
VERTEX
  8
0
 62
7
  6
CONTINUOUS
 10
153.0035075199
 20
153.1768861717
  0
SEQEND
  0
POLYLINE
  8
0
 62
7
  6
CONTINUOUS
 66
1
 70
0
  0
VERTEX
  8
0
 62
7
  6
CONTINUOUS
 10
162.8390634645
 20
101.5149019008
  0
VERTEX
  8
0
 62
7
  6
CONTINUOUS
 10
162.8909543591
 20
101.5308948989
  0
VERTEX
  8
0
 62
7
  6
CONTINUOUS
 10
162.9406576761
 20
101.5840176264
  0
VERTEX
  8
0
 62
7
  6
CONTINUOUS
 10
162.9802299613
 20
101.6656301714
  0
VERTEX
  8
0
 62
7
  6
CONTINUOUS
 10
163.0034001544
 20
101.7626121824
  0
SEQEND
  0
LINE
  8
2_FEATURE
 62
7
  6
CONTINUOUS
 10
158.7290922414
 20
149.9682249978
 11
162.0651940181
 21
150.0264568709
  0
LINE
  8
0
 62
7
  6
CONTINUOUS
 10
153.0251598677
 20
153.165169281
 11
153.045477164
 21
153.1600224332
  0
POLYLINE
  8
0
 62
7
  6
CONTINUOUS
 66
1
 70
0
  0
VERTEX
  8
0
 62
7
  6
CONTINUOUS
 10
152.8093435389
 20
153.278117744
  0
VERTEX
  8
0
 62
7
  6
CONTINUOUS
 10
152.8501875901
 20
153.2658748869
  0
VERTEX
  8
0
 62
7
  6
CONTINUOUS
 10
152.8872714544
 20
153.2492086942
  0
SEQEND
  0
POLYLINE
  8
2_FEATURE
 62
7
  6
CONTINUOUS
 66
1
 70
0
  0
VERTEX
  8
2_FEATURE
 62
7
  6
CONTINUOUS
 10
162.0651940181
 20
150.0264568709
  0
VERTEX
  8
2_FEATURE
 62
7
  6
CONTINUOUS
 10
162.1528304096
 20
149.9942336988
  0
VERTEX
  8
2_FEATURE
 62
7
  6
CONTINUOUS
 10
162.2328077861
 20
149.8991597972
  0
VERTEX
  8
2_FEATURE
 62
7
  6
CONTINUOUS
 10
162.3003661867
 20
149.7499582562
  0
VERTEX
  8
2_FEATURE
 62
7
  6
CONTINUOUS
 10
162.3513304417
 20
149.5584161053
  0
VERTEX
  8
2_FEATURE
 62
7
  6
CONTINUOUS
 10
162.3827710887
 20
149.3387651421
  0
VERTEX
  8
2_FEATURE
 62
7
  6
CONTINUOUS
 10
162.3932383675
 20
149.1078655172
  0
SEQEND
  0
LINE
  8
0
 62
7
  6
CONTINUOUS
 10
162.9130203849
 20
151.8732212615
 11
162.8456751651
 21
151.9117507911
  0
LINE
  8
0
 62
7
  6
CONTINUOUS
 10
153.045477164
 20
153.1600224332
 11
153.2161209607
 21
153.1602612238
  0
LINE
  8
0
 62
7
  6
CONTINUOUS
 10
150.8769180986
 20
153.2828655172
 11
152.7652472997
 21
153.2828655172
  0
LINE
  8
0
 62
7
  6
CONTINUOUS
 10
152.7652472952
 20
153.2828655172
 11
152.7750410589
 21
153.2824747736
  0
LINE
  8
0
 62
7
  6
CONTINUOUS
 10
151.9123275696
 20
152.7882881881
 11
162.8390634654
 21
151.9149019121
  0
LINE
  8
0
 62
7
  6
CONTINUOUS
 10
152.7750410589
 20
153.2824747736
 11
152.8093435389
 21
153.278117744
  0
POLYLINE
  8
0
 62
7
  6
CONTINUOUS
 66
1
 70
0
  0
VERTEX
  8
0
 62
7
  6
CONTINUOUS
 10
159.449770056
 20
152.1858106334
  0
VERTEX
  8
0
 62
7
  6
CONTINUOUS
 10
159.6155102467
 20
152.1577978421
  0
VERTEX
  8
0
 62
7
  6
CONTINUOUS
 10
159.8179426078
 20
152.0793063381
  0
VERTEX
  8
0
 62
7
  6
CONTINUOUS
 10
159.951565552
 20
151.9905891712
  0
VERTEX
  8
0
 62
7
  6
CONTINUOUS
 10
159.9860254532
 20
151.9601809977
  0
SEQEND
  0
LINE
  8
0
 62
7
  6
CONTINUOUS
 10
166.4103926434
 20
150.8929502461
 11
162.8329358796
 21
151.9153916969
  0
LINE
  8
0
 62
7
  6
CONTINUOUS
 10
151.0290922414
 20
159.0828655172
 11
166.4790922414
 21
159.0828655172
  0
ARC
  8
0
 62
7
  6
CONTINUOUS
 10
60.0415018851
 20
187.711559196
 40
50.0
 50
36.1550324174
 51
46.2693085446
  0
ARC
  8
0
 62
7
  6
CONTINUOUS
 10
58.9572229259
 20
222.75
 40
8.75
 50
29.0189816931
 51
59.4415682141
  0
ARC
  8
2_FEATURE
 62
7
  6
CONTINUOUS
 10
58.9572229259
 20
222.75
 40
8.5
 50
149.8106181235
 51
152.6588390559
  0
ARC
  8
2_FEATURE
 62
7
  6
CONTINUOUS
 10
58.9572229259
 20
222.75
 40
8.5
 50
179.5245616009
 51
180.0
  0
ARC
  8
2_FEATURE
 62
7
  6
CONTINUOUS
 10
58.9572229259
 20
222.75
 40
8.5
 50
247.5133051198
 51
250.2500772044
  0
ARC
  8
0
 62
7
  6
CONTINUOUS
 10
58.9572229259
 20
222.75
 40
8.5
 50
109.7499227956
 51
250.2500772044
  0
ARC
  8
0
 62
7
  6
CONTINUOUS
 10
63.4572229259
 20
220.75
 40
6.0
 50
270.0
 51
323.8449675826
  0
ARC
  8
0
 62
7
  6
CONTINUOUS
 10
58.9572229259
 20
222.75
 40
5.8
 50
13.2203423897
 51
166.7796635675
  0
CIRCLE
  8
0
 62
7
  6
CONTINUOUS
 10
58.9572229259
 20
222.75
 40
4.15
  0
ARC
  8
0
 62
7
  6
CONTINUOUS
 10
67.2645838543
 20
227.3584438161
 40
0.75
 50
209.0189816931
 51
250.46
  0
ARC
  8
0
 62
7
  6
CONTINUOUS
 10
63.5329742304
 20
230.5
 40
0.25
 50
90.0
 51
239.4415682141
  0
ARC
  8
0
 62
7
  6
CONTINUOUS
 10
79.8721227826
 20
221.9
 40
0.85
 50
16.467546793
 51
90.0
  0
ARC
  8
0
 62
7
  6
CONTINUOUS
 10
83.1560935816
 20
215.2
 40
0.4000000001
 50
196.467546793
 51
270.0
  0
ARC
  8
0
 62
7
  6
CONTINUOUS
 10
78.1794137467
 20
223.75
 40
1.0
 50
250.46
 51
270.0
  0
ARC
  8
0
 62
7
  6
CONTINUOUS
 10
74.4550998742
 20
223.4801086141
 40
0.5000000123
 50
70.46
 51
133.7306913483
  0
ARC
  8
0
 62
7
  6
CONTINUOUS
 10
108.6729439668
 20
187.711559196
 40
50.0
 50
133.7306914902
 51
143.8449675826
  0
ARC
  8
0
 62
7
  6
CONTINUOUS
 10
85.5583522702
 20
215.2
 40
0.4000000001
 50
270.0
 51
343.532453207
  0
ARC
  8
0
 62
7
  6
CONTINUOUS
 10
90.5350321052
 20
223.75
 40
1.0
 50
270.0
 51
289.54
  0
ARC
  8
0
 62
7
  6
CONTINUOUS
 10
88.8423230693
 20
221.9
 40
0.85
 50
90.0
 51
163.532453207
  0
ARC
  8
0
 62
7
  6
CONTINUOUS
 10
94.2593461715
 20
223.4801086829
 40
0.5
 50
46.2693085446
 51
109.54
  0
ARC
  8
0
 62
7
  6
CONTINUOUS
 10
109.7572229259
 20
222.75
 40
8.5
 50
289.7499227956
 51
70.2500772044
  0
ARC
  8
0
 62
7
  6
CONTINUOUS
 10
105.2572229259
 20
220.75
 40
6.0
 50
216.1550324174
 51
270.0
  0
CIRCLE
  8
0
 62
7
  6
CONTINUOUS
 10
109.7572229259
 20
222.75
 40
4.15
  0
ARC
  8
2_FEATURE
 62
7
  6
CONTINUOUS
 10
78.6072229259
 20
123.6078655172
 40
0.8603594806
 50
0.0
 51
90.0
  0
ARC
  8
2_FEATURE
 62
7
  6
CONTINUOUS
 10
78.6072229259
 20
123.2078655172
 40
0.8603594806
 50
270.0
 51
360.0
  0
ARC
  8
2_FEATURE
 62
7
  6
CONTINUOUS
 10
78.6072229259
 20
119.5578655172
 40
0.8603594806
 50
0.0
 51
90.0
  0
ARC
  8
2_FEATURE
 62
7
  6
CONTINUOUS
 10
78.6072229259
 20
119.1578655172
 40
0.8603594806
 50
270.0
 51
360.0
  0
ARC
  8
2_FEATURE
 62
7
  6
CONTINUOUS
 10
78.6072229259
 20
115.5078655172
 40
0.8603594806
 50
0.0
 51
90.0
  0
ARC
  8
2_FEATURE
 62
7
  6
CONTINUOUS
 10
78.6072229259
 20
115.1078655172
 40
0.8603594806
 50
270.0
 51
360.0
  0
ARC
  8
2_FEATURE
 62
7
  6
CONTINUOUS
 10
78.6072229259
 20
110.8578655172
 40
0.8603594806
 50
0.0
 51
90.0
  0
ARC
  8
2_FEATURE
 62
7
  6
CONTINUOUS
 10
78.6072229259
 20
110.4578655172
 40
0.8603594806
 50
270.0
 51
360.0
  0
ARC
  8
2_FEATURE
 62
7
  6
CONTINUOUS
 10
78.6072229259
 20
106.8078655172
 40
0.8603594806
 50
0.0
 51
90.0
  0
ARC
  8
2_FEATURE
 62
7
  6
CONTINUOUS
 10
78.6072229259
 20
106.4078655172
 40
0.8603594806
 50
270.0
 51
360.0
  0
ARC
  8
2_FEATURE
 62
7
  6
CONTINUOUS
 10
78.6072229259
 20
102.7578655172
 40
0.8603594806
 50
0.0
 51
90.0
  0
ARC
  8
2_FEATURE
 62
7
  6
CONTINUOUS
 10
78.6072229259
 20
102.3578655172
 40
0.8603594806
 50
270.0
 51
360.0
  0
ARC
  8
2_FEATURE
 62
7
  6
CONTINUOUS
 10
78.6072229259
 20
98.7078655172
 40
0.8603594806
 50
0.0
 51
90.0
  0
ARC
  8
2_FEATURE
 62
7
  6
CONTINUOUS
 10
78.6072229259
 20
98.3078655172
 40
0.8603594806
 50
270.0
 51
360.0
  0
ARC
  8
0
 62
7
  6
CONTINUOUS
 10
62.782975341
 20
116.7833268239
 40
0.4999992149
 50
0.0000000123
 51
90.0000000055
  0
ARC
  8
0
 62
7
  6
CONTINUOUS
 10
62.782975341
 20
109.1824042106
 40
0.4999992149
 50
270.0000000184
 51
360.0
  0
ARC
  8
0
 62
7
  6
CONTINUOUS
 10
62.782975341
 20
99.9833268239
 40
0.4999992149
 50
0.0000000123
 51
90.0000000055
  0
ARC
  8
2_FEATURE
 62
7
  6
CONTINUOUS
 10
78.6072229259
 20
144.4578655172
 40
0.8603594806
 50
0.0
 51
90.0
  0
ARC
  8
2_FEATURE
 62
7
  6
CONTINUOUS
 10
78.6072229259
 20
144.0578655172
 40
0.8603594806
 50
270.0
 51
360.0
  0
ARC
  8
2_FEATURE
 62
7
  6
CONTINUOUS
 10
78.6072229259
 20
140.4078655172
 40
0.8603594806
 50
0.0
 51
90.0
  0
ARC
  8
2_FEATURE
 62
7
  6
CONTINUOUS
 10
78.6072229259
 20
140.0078655172
 40
0.8603594806
 50
270.0
 51
360.0
  0
ARC
  8
2_FEATURE
 62
7
  6
CONTINUOUS
 10
78.6072229259
 20
136.3578655172
 40
0.8603594806
 50
0.0
 51
90.0
  0
ARC
  8
2_FEATURE
 62
7
  6
CONTINUOUS
 10
78.6072229259
 20
135.9578655172
 40
0.8603594806
 50
270.0
 51
360.0
  0
ARC
  8
2_FEATURE
 62
7
  6
CONTINUOUS
 10
78.6072229259
 20
132.3078655172
 40
0.8603594806
 50
0.0
 51
90.0
  0
ARC
  8
2_FEATURE
 62
7
  6
CONTINUOUS
 10
78.6072229259
 20
131.9078655172
 40
0.8603594806
 50
270.0
 51
360.0
  0
ARC
  8
2_FEATURE
 62
7
  6
CONTINUOUS
 10
78.6072229259
 20
127.6578655172
 40
0.8603594806
 50
0.0
 51
90.0
  0
ARC
  8
2_FEATURE
 62
7
  6
CONTINUOUS
 10
78.6072229259
 20
127.2578655172
 40
0.8603594806
 50
270.0
 51
360.0
  0
ARC
  8
2_FEATURE
 62
7
  6
CONTINUOUS
 10
78.6072229259
 20
149.1078655172
 40
0.8603594806
 50
0.0
 51
90.0
  0
ARC
  8
2_FEATURE
 62
7
  6
CONTINUOUS
 10
78.6072229259
 20
148.7078655172
 40
0.8603594806
 50
270.0
 51
360.0
  0
ARC
  8
0
 62
7
  6
CONTINUOUS
 10
62.782975341
 20
142.7824042106
 40
0.4999992149
 50
270.0000000184
 51
360.0
  0
ARC
  8
0
 62
7
  6
CONTINUOUS
 10
62.782975341
 20
133.5833268239
 40
0.4999992149
 50
0.0000000123
 51
90.0000000055
  0
ARC
  8
0
 62
7
  6
CONTINUOUS
 10
62.782975341
 20
150.3833268239
 40
0.4999992149
 50
0.0000000123
 51
90.0000000055
  0
ARC
  8
0
 62
7
  6
CONTINUOUS
 10
62.782975341
 20
125.9824042106
 40
0.4999992149
 50
270.0000000184
 51
360.0
  0
ARC
  8
2_FEATURE
 62
7
  6
CONTINUOUS
 10
90.1072229259
 20
106.7078655172
 40
0.8603594806
 50
180.0
 51
270.0
  0
ARC
  8
2_FEATURE
 62
7
  6
CONTINUOUS
 10
90.1072229259
 20
107.1078655172
 40
0.8603594806
 50
90.0
 51
180.0
  0
ARC
  8
2_FEATURE
 62
7
  6
CONTINUOUS
 10
90.1072229259
 20
110.7578655172
 40
0.8603594806
 50
180.0
 51
270.0
  0
ARC
  8
2_FEATURE
 62
7
  6
CONTINUOUS
 10
90.1072229259
 20
111.1578655172
 40
0.8603594806
 50
90.0
 51
180.0
  0
ARC
  8
2_FEATURE
 62
7
  6
CONTINUOUS
 10
90.1072229259
 20
114.8078655172
 40
0.8603594806
 50
180.0
 51
270.0
  0
ARC
  8
2_FEATURE
 62
7
  6
CONTINUOUS
 10
90.1072229259
 20
115.2078655172
 40
0.8603594806
 50
90.0
 51
180.0
  0
ARC
  8
2_FEATURE
 62
7
  6
CONTINUOUS
 10
90.1072229259
 20
118.8578655172
 40
0.8603594806
 50
180.0
 51
270.0
  0
ARC
  8
2_FEATURE
 62
7
  6
CONTINUOUS
 10
90.1072229259
 20
119.2578655172
 40
0.8603594806
 50
90.0
 51
180.0
  0
ARC
  8
2_FEATURE
 62
7
  6
CONTINUOUS
 10
90.1072229259
 20
123.5078655172
 40
0.8603594806
 50
180.0
 51
270.0
  0
ARC
  8
2_FEATURE
 62
7
  6
CONTINUOUS
 10
90.1072229259
 20
123.9078655172
 40
0.8603594806
 50
90.0
 51
180.0
  0
ARC
  8
2_FEATURE
 62
7
  6
CONTINUOUS
 10
90.1072229259
 20
102.0578655172
 40
0.8603594806
 50
180.0
 51
270.0
  0
ARC
  8
2_FEATURE
 62
7
  6
CONTINUOUS
 10
90.1072229259
 20
102.4578655172
 40
0.8603594806
 50
90.0
 51
180.0
  0
ARC
  8
0
 62
7
  6
CONTINUOUS
 10
105.9314704569
 20
117.5824041566
 40
0.4999991796
 50
179.9999999967
 51
269.9999998456
  0
ARC
  8
0
 62
7
  6
CONTINUOUS
 10
105.9314704569
 20
125.1833268779
 40
0.4999991796
 50
90.0000002288
 51
180.0000000792
  0
ARC
  8
0
 62
7
  6
CONTINUOUS
 10
105.9314704569
 20
108.3833268779
 40
0.4999991796
 50
90.0000002288
 51
180.0000000792
  0
ARC
  8
0
 62
7
  6
CONTINUOUS
 10
105.9314704569
 20
100.7824041566
 40
0.4999991796
 50
179.9999999967
 51
269.9999998456
  0
ARC
  8
2_FEATURE
 62
7
  6
CONTINUOUS
 10
90.1072229259
 20
127.5578655172
 40
0.8603594806
 50
180.0
 51
270.0
  0
ARC
  8
2_FEATURE
 62
7
  6
CONTINUOUS
 10
90.1072229259
 20
127.9578655172
 40
0.8603594806
 50
90.0
 51
180.0
  0
ARC
  8
2_FEATURE
 62
7
  6
CONTINUOUS
 10
90.1072229259
 20
131.6078655172
 40
0.8603594806
 50
180.0
 51
270.0
  0
ARC
  8
2_FEATURE
 62
7
  6
CONTINUOUS
 10
90.1072229259
 20
132.0078655172
 40
0.8603594806
 50
90.0
 51
180.0
  0
ARC
  8
2_FEATURE
 62
7
  6
CONTINUOUS
 10
90.1072229259
 20
135.6578655172
 40
0.8603594806
 50
180.0
 51
270.0
  0
ARC
  8
2_FEATURE
 62
7
  6
CONTINUOUS
 10
90.1072229259
 20
136.0578655172
 40
0.8603594806
 50
90.0
 51
180.0
  0
ARC
  8
2_FEATURE
 62
7
  6
CONTINUOUS
 10
90.1072229259
 20
140.3078655172
 40
0.8603594806
 50
180.0
 51
270.0
  0
ARC
  8
2_FEATURE
 62
7
  6
CONTINUOUS
 10
90.1072229259
 20
140.7078655172
 40
0.8603594806
 50
90.0
 51
180.0
  0
ARC
  8
2_FEATURE
 62
7
  6
CONTINUOUS
 10
90.1072229259
 20
144.3578655172
 40
0.8603594806
 50
180.0
 51
270.0
  0
ARC
  8
2_FEATURE
 62
7
  6
CONTINUOUS
 10
90.1072229259
 20
144.7578655172
 40
0.8603594806
 50
90.0
 51
180.0
  0
ARC
  8
2_FEATURE
 62
7
  6
CONTINUOUS
 10
90.1072229259
 20
148.4078655172
 40
0.8603594806
 50
180.0
 51
270.0
  0
ARC
  8
2_FEATURE
 62
7
  6
CONTINUOUS
 10
90.1072229259
 20
148.8078655172
 40
0.8603594806
 50
90.0
 51
180.0
  0
ARC
  8
2_FEATURE
 62
7
  6
CONTINUOUS
 10
90.1072229259
 20
152.4578655172
 40
0.8603594806
 50
180.0
 51
270.0
  0
ARC
  8
2_FEATURE
 62
7
  6
CONTINUOUS
 10
90.1072229259
 20
152.8578655172
 40
0.8603594806
 50
90.0
 51
180.0
  0
ARC
  8
0
 62
7
  6
CONTINUOUS
 10
105.9314704569
 20
141.9833268779
 40
0.4999991796
 50
90.0000002288
 51
180.0000000792
  0
ARC
  8
0
 62
7
  6
CONTINUOUS
 10
105.9314704569
 20
134.3824041566
 40
0.4999991796
 50
179.9999999967
 51
269.9999998456
  0
ARC
  8
0
 62
7
  6
CONTINUOUS
 10
105.9314704569
 20
151.1824041566
 40
0.4999991796
 50
179.9999999967
 51
269.9999998456
  0
ARC
  8
0
 62
7
  6
CONTINUOUS
 10
151.7290922414
 20
97.3596072346
 40
1.0
 50
162.4581439197
 51
180.0
  0
ARC
  8
0
 62
7
  6
CONTINUOUS
 10
151.7290922414
 20
103.4061237999
 40
1.0
 50
180.0
 51
218.5544639061
  0
ARC
  8
0
 62
7
  6
CONTINUOUS
 10
151.7290922414
 20
111.8061237999
 40
1.0
 50
180.0
 51
197.8657588265
  0
ARC
  8
0
 62
7
  6
CONTINUOUS
 10
151.7290922414
 20
105.7596072346
 40
1.0
 50
94.57
 51
180.0
  0
ARC
  8
0
 62
7
  6
CONTINUOUS
 10
151.7290922414
 20
93.0828655172
 40
1.0
 50
180.0
 51
197.3912550953
  0
ARC
  8
0
 62
7
  6
CONTINUOUS
 10
151.7290922414
 20
128.6061237999
 40
1.0
 50
180.0
 51
197.8657588265
  0
ARC
  8
0
 62
7
  6
CONTINUOUS
 10
151.7290922414
 20
122.5596072346
 40
1.0
 50
94.57
 51
180.0
  0
ARC
  8
0
 62
7
  6
CONTINUOUS
 10
151.7290922414
 20
114.1596072346
 40
1.0
 50
162.1342411735
 51
180.0
  0
ARC
  8
0
 62
7
  6
CONTINUOUS
 10
151.7290922414
 20
120.2061237999
 40
1.0
 50
180.0
 51
265.43
  0
ARC
  8
0
 62
7
  6
CONTINUOUS
 10
151.7290922414
 20
147.7596072346
 40
1.0
 50
162.8093642381
 51
180.0
  0
ARC
  8
0
 62
7
  6
CONTINUOUS
 10
151.7290922414
 20
153.8061237999
 40
1.0
 50
180.0
 51
211.5510655343
  0
ARC
  8
0
 62
7
  6
CONTINUOUS
 10
151.7290922414
 20
130.9596072346
 40
1.0
 50
162.1342411735
 51
180.0
  0
ARC
  8
0
 62
7
  6
CONTINUOUS
 10
151.7290922414
 20
137.0061237999
 40
1.0
 50
180.0
 51
265.43
  0
ARC
  8
0
 62
7
  6
CONTINUOUS
 10
151.7290922414
 20
145.4061237999
 40
1.0
 50
180.0
 51
197.8657588265
  0
ARC
  8
0
 62
7
  6
CONTINUOUS
 10
151.7290922414
 20
139.3596072346
 40
1.0
 50
94.57
 51
180.0
  0
ARC
  8
0
 62
7
  6
CONTINUOUS
 10
151.7290922414
 20
158.0828655172
 40
1.0
 50
90.0
 51
180.0
  0
ARC
  8
0
 62
7
  6
CONTINUOUS
 10
166.4790922414
 20
100.7333257133
 40
0.25
 50
254.05
 51
360.0
  0
ARC
  8
0
 62
7
  6
CONTINUOUS
 10
151.0290922413
 20
158.8328655172
 40
0.25
 50
89.9999999996
 51
180.0
  0
ARC
  8
0
 62
7
  6
CONTINUOUS
 10
166.4790922414
 20
108.4324053212
 40
0.25
 50
0.0
 51
105.95
  0
ARC
  8
0
 62
7
  6
CONTINUOUS
 10
151.0290922414
 20
92.3328655172
 40
0.25
 50
180.0
 51
269.9999999859
  0
ARC
  8
0
 62
7
  6
CONTINUOUS
 10
158.9790922414
 20
92.3328655172
 40
0.25
 50
180.0
 51
269.9999999999
  0
ARC
  8
0
 62
7
  6
CONTINUOUS
 10
166.4790922414
 20
125.2324053212
 40
0.25
 50
0.0
 51
105.95
  0
ARC
  8
0
 62
7
  6
CONTINUOUS
 10
166.4790922414
 20
117.5333257133
 40
0.25
 50
254.05
 51
360.0
  0
ARC
  8
0
 62
7
  6
CONTINUOUS
 10
166.4790922414
 20
151.1333257133
 40
0.25
 50
254.05
 51
360.0
  0
ARC
  8
0
 62
7
  6
CONTINUOUS
 10
166.4790922414
 20
134.3333257133
 40
0.25
 50
254.05
 51
360.0
  0
ARC
  8
0
 62
7
  6
CONTINUOUS
 10
166.4790922414
 20
142.0324053212
 40
0.25
 50
0.0
 51
105.95
  0
ARC
  8
0
 62
7
  6
CONTINUOUS
 10
166.4790922414
 20
92.3328655172
 40
0.25
 50
270.0
 51
360.0
  0
ARC
  8
0
 62
7
  6
CONTINUOUS
 10
166.4790922414
 20
158.8328655172
 40
0.25
 50
0.0
 51
90.0
  0
ENDSEC
  0
EOF
