  0
SECTION
  2
HEADER
  9
$EXTMAX
 10
210.0
 20
297.0
 30
0.0
  9
$EXTMIN
 10
0.0
 20
0.0
 30
0.0
  9
$LIMMIN
 10
0.0
 20
0.0
  9
$LIMMAX
 10
210.0
 20
297.0
  9
$VIEWCTR
 10
105.0
 20
148.5
  9
$VIEWSIZE
 40
297.0
  9
$CLAYER
  8
0
  9
$LTSCALE
 40
19.36
  9
$CELTYPE
  6
BYLAYER
  9
$DIMSCALE
 40
1.0
  9
$DIMASZ
 40
3.5
  9
$DIMEXO
 40
2.2
  9
$DIMDLI
 40
13.376
  9
$DIMEXE
 40
6.336
  9
$DIMCEN
 40
3.168
  9
$DIMLFAC
 40
1.0
  9
$DIMBLK
  1
_FILLED
  9
$DIMTXT
 40
3.5
  9
$PDMODE
 70
3
  9
$PDSIZE
 40
0.3125
  9
$TILEMODE
 70
1
  0
ENDSEC
  0
SECTION
  2
TABLES
  0
TABLE
  2
LTYPE
 70
6
  0
LTYPE
  2
BYBLOCK
 70
0
  3

 72
65
 73
0
 40
0.0
  0
LTYPE
  2
BYLAYER
 70
0
  3

 72
65
 73
0
 40
0.0
  0
LTYPE
  2
CONTINUOUS
 70
64
  3
Solid line
 72
65
 73
0
 40
0.0
  0
LTYPE
  2
CENTER
 70
64
  3
____ _ ____ _ ____ _ ____ _ ____ _ ____ _ ____
 72
65
 73
4
 40
0.6
 49
0.375
 49
-0.075
 49
0.075
 49
-0.075
  0
LTYPE
  2
HIDDEN
 70
64
  3
- - - - - - - - - - - - - - - - - - - -
 72
65
 73
2
 40
0.2
 49
0.1
 49
-0.1
  0
LTYPE
  2
PHANTOM
 70
64
  3
_____ _ _ _____ _ _ _____ _ _ _____
 72
65
 73
6
 40
0.8
 49
0.45
 49
-0.05
 49
0.1
 49
-0.05
 49
0.1
 49
-0.05
  0
LTYPE
  2
DOT
 70
64
  3
. . . . . . . . . . . . . . . . . . . .
 72
65
 73
2
 40
0.2
 49
0.1
 49
-0.1
  0
LTYPE
  2
DASHED
 70
64
  3
- - - - - - - - - - - - - - - - - - - -
 72
65
 73
2
 40
0.2
 49
0.1
 49
-0.1
  0
ENDTAB
  0
TABLE
  2
LAYER
 70
36
  0
LAYER
  2
0
 70
0
 62
7
  6
CONTINUOUS
  0
LAYER
  2
DEFAULT_1
 70
0
 62
7
  6
CENTER
  0
LAYER
  2
DEFAULT_2
 70
0
 62
8
  6
HIDDEN
  0
LAYER
  2
DEFAULT_3
 70
0
 62
7
  6
PHANTOM
  0
LAYER
  2
1_AXIS
 70
0
 62
7
  6
CONTINUOUS
  0
LAYER
  2
1_DATUM_PLANE
 70
0
 62
7
  6
CONTINUOUS
  0
LAYER
  2
2_FEATURE
 70
0
 62
7
  6
CONTINUOUS
  0
LAYER
  2
4_QUILT
 70
0
 62
7
  6
CONTINUOUS
  0
LAYER
  2
6_DIM
 70
0
 62
7
  6
CONTINUOUS
  0
LAYER
  2
AXES
 70
0
 62
7
  6
CONTINUOUS
  0
LAYER
  2
COM_SKETCH
 70
0
 62
7
  6
CONTINUOUS
  0
LAYER
  2
CSYS
 70
0
 62
7
  6
CONTINUOUS
  0
LAYER
  2
PLANES
 70
0
 62
7
  6
CONTINUOUS
  0
LAYER
  2
QUILTS
 70
0
 62
7
  6
CONTINUOUS
  0
ENDTAB
  0
TABLE
  2
STYLE
 70
1
  0
STYLE
  2
STANDARD
 70
0
 40
0.0
 41
0.8
 50
0.0
 71
0
 42
0.2
  3
txt
  4

  0
STYLE
  2
TEXTSTYLE_1
 70
0
 40
0.0
 41
0.8
 50
0.0
 71
0
 42
0.2
  3
gdt
  4

  0
STYLE
  2
TEXTSTYLE_2
 70
0
 40
0.0
 41
0.6
 50
0.0
 71
0
 42
0.2
  3
txt
  4

  0
STYLE
  2
TEXTSTYLE_3
 70
0
 40
0.0
 41
1.0
 50
0.0
 71
0
 42
0.2
  3
ftb_____.ttf
  4

  0
STYLE
  2
TEXTSTYLE_4
 70
0
 40
0.0
 41
1.0
 50
0.0
 71
0
 42
0.2
  3
fti_____.ttf
  4

  0
STYLE
  2
TEXTSTYLE_5
 70
0
 40
0.0
 41
1.0
 50
0.0
 71
0
 42
0.2
  3
frutiger light.ttf
  4

  0
STYLE
  2
TEXTSTYLE_6
 70
0
 40
0.0
 41
0.7
 50
0.0
 71
0
 42
0.2
  3
txt
  4

  0
STYLE
  2
TEXTSTYLE_7
 70
0
 40
0.0
 41
0.8
 50
0.0
 71
0
 42
0.2
  3
txt
  4

  0
ENDTAB
  0
ENDSEC
  0
SECTION
  2
BLOCKS
  0
BLOCK
  8
0
 62
2
  6
CONTINUOUS
  2
SYMBOL_8_BL1
 70
64
 10
173.5956734183
 20
35.5937998301
  0
TEXT
  8
0
 62
7
  6
CONTINUOUS
 10
164.6539584268
 20
30.6865562072
  7
TEXTSTYLE_4
 40
1.0655737705
  1
The brand for plastic modular belts and chains
 41
1.0
 72
0
  0
LINE
  8
0
 62
7
  6
CONTINUOUS
 10
149.5737418074
 20
36.1675703219
 11
149.5737418074
 21
34.0364227809
  0
LINE
  8
0
 62
7
  6
CONTINUOUS
 10
149.8628043005
 20
31.0454914852
 11
149.8628043005
 21
31.1422825445
  0
LINE
  8
0
 62
7
  6
CONTINUOUS
 10
149.5737418074
 20
31.1100188581
 11
149.6315543091
 21
30.9164367395
  0
LINE
  8
0
 62
7
  6
CONTINUOUS
 10
150.9671844304
 20
33.9544555678
 11
150.9671844304
 21
36.1675703219
  0
LINE
  8
0
 62
7
  6
CONTINUOUS
 10
151.8862417523
 20
32.1101932727
 11
151.8862417523
 21
30.5937998301
  0
LINE
  8
0
 62
7
  6
CONTINUOUS
 10
152.1753043074
 20
30.5937998301
 11
152.1753043074
 21
31.3358647082
  0
LINE
  8
0
 62
7
  6
CONTINUOUS
 10
152.1753043074
 20
31.4649194539
 11
152.1753043074
 21
32.1101932727
  0
LINE
  8
0
 62
7
  6
CONTINUOUS
 10
149.6315543091
 20
31.3036010218
 11
149.5737418074
 21
31.1100188581
  0
LINE
  8
0
 62
7
  6
CONTINUOUS
 10
149.9784292936
 20
30.8841730531
 11
149.8628043005
 21
31.0454914852
  0
LINE
  8
0
 62
7
  6
CONTINUOUS
 10
151.0768668626
 20
31.400392081
 11
151.1346793074
 21
31.3036010218
  0
LINE
  8
0
 62
7
  6
CONTINUOUS
 10
151.4237418626
 20
31.3036010218
 11
151.3659292523
 21
31.4326557675
  0
LINE
  8
0
 62
7
  6
CONTINUOUS
 10
152.852430332
 20
36.1675703219
 11
152.852430332
 21
34.3642916334
  0
LINE
  8
0
 62
7
  6
CONTINUOUS
 10
152.852430332
 20
33.0528162235
 11
152.852430332
 21
32.3970785186
  0
LINE
  8
0
 62
7
  6
CONTINUOUS
 10
153.2159293074
 20
31.2390736489
 11
153.2159293074
 21
30.5937998301
  0
LINE
  8
0
 62
7
  6
CONTINUOUS
 10
153.5049916972
 20
30.5937998301
 11
153.5049916972
 21
31.2390736489
  0
LINE
  8
0
 62
7
  6
CONTINUOUS
 10
149.8628043005
 20
31.1422825445
 11
149.9206168074
 21
31.2713373354
  0
LINE
  8
0
 62
7
  6
CONTINUOUS
 10
149.6315543091
 20
30.9164367395
 11
149.7471793074
 21
30.7873819712
  0
LINE
  8
0
 62
7
  6
CONTINUOUS
 10
153.1581166972
 20
31.3681283946
 11
153.2159293074
 21
31.2390736489
  0
LINE
  8
0
 62
7
  6
CONTINUOUS
 10
153.9674919177
 20
30.8841730531
 11
154.0253041972
 21
30.7551182848
  0
LINE
  8
0
 62
7
  6
CONTINUOUS
 10
153.5049916972
 20
31.2390736489
 11
153.4471794177
 21
31.400392081
  0
LINE
  8
0
 62
7
  6
CONTINUOUS
 10
153.9674919177
 20
31.4326557675
 11
153.9674919177
 21
31.3681283946
  0
LINE
  8
0
 62
7
  6
CONTINUOUS
 10
153.9674919177
 20
30.9809641124
 11
153.9674919177
 21
30.8841730531
  0
LINE
  8
0
 62
7
  6
CONTINUOUS
 10
154.245872955
 20
32.3970785186
 11
154.245872955
 21
36.1675703219
  0
LINE
  8
0
 62
7
  6
CONTINUOUS
 10
154.2565543074
 20
30.8519093441
 11
154.2565543074
 21
30.9164367395
  0
LINE
  8
0
 62
7
  6
CONTINUOUS
 10
154.5737418074
 20
36.1675703219
 11
154.5737418074
 21
32.3970785186
  0
LINE
  8
0
 62
7
  6
CONTINUOUS
 10
151.3659292523
 20
30.7873819712
 11
151.4237418626
 21
30.9164367395
  0
LINE
  8
0
 62
7
  6
CONTINUOUS
 10
155.759679528
 20
30.6905909007
 11
155.7018665869
 21
30.8519093441
  0
LINE
  8
0
 62
7
  6
CONTINUOUS
 10
155.412804528
 20
31.3681283946
 11
155.412804528
 21
31.2713373354
  0
LINE
  8
0
 62
7
  6
CONTINUOUS
 10
155.412804528
 20
31.1422825445
 11
155.412804528
 21
30.9487004259
  0
LINE
  8
0
 62
7
  6
CONTINUOUS
 10
155.7018665869
 20
30.8519093441
 11
155.7018665869
 21
31.3681283946
  0
LINE
  8
0
 62
7
  6
CONTINUOUS
 10
155.9671844304
 20
32.3970785186
 11
155.9671844304
 21
34.2003572071
  0
LINE
  8
0
 62
7
  6
CONTINUOUS
 10
155.9671844304
 20
35.511832617
 11
155.9671844304
 21
36.1675703219
  0
LINE
  8
0
 62
7
  6
CONTINUOUS
 10
156.279992028
 20
32.1101932727
 11
156.279992028
 21
31.9488748406
  0
LINE
  8
0
 62
7
  6
CONTINUOUS
 10
156.279992028
 20
31.626237886
 11
156.279992028
 21
30.5937998301
  0
LINE
  8
0
 62
7
  6
CONTINUOUS
 10
156.5690540869
 20
30.5937998301
 11
156.5690540869
 21
31.626237886
  0
LINE
  8
0
 62
7
  6
CONTINUOUS
 10
156.5690540869
 20
31.9488748406
 11
156.5690540869
 21
32.1101932727
  0
LINE
  8
0
 62
7
  6
CONTINUOUS
 10
151.1346793074
 20
30.9164367395
 11
151.0768668626
 21
30.8196456577
  0
LINE
  8
0
 62
7
  6
CONTINUOUS
 10
153.4471794177
 20
31.400392081
 11
153.3893668074
 21
31.4649194539
  0
LINE
  8
0
 62
7
  6
CONTINUOUS
 10
154.3143669177
 20
30.7873819712
 11
154.2565543074
 21
30.8519093441
  0
LINE
  8
0
 62
7
  6
CONTINUOUS
 10
155.4706168074
 20
30.6583272086
 11
155.5284290869
 21
30.5937998301
  0
LINE
  8
0
 62
7
  6
CONTINUOUS
 10
155.412804528
 20
30.7551182848
 11
155.4706168074
 21
30.6583272086
  0
LINE
  8
0
 62
7
  6
CONTINUOUS
 10
155.8174918074
 20
30.5937998301
 11
155.759679528
 21
30.6905909007
  0
LINE
  8
0
 62
7
  6
CONTINUOUS
 10
155.7018665869
 20
31.3681283946
 11
155.6440543074
 21
31.4649194539
  0
LINE
  8
0
 62
7
  6
CONTINUOUS
 10
157.0315543074
 20
31.626237886
 11
157.0315543074
 21
30.5937998301
  0
LINE
  8
0
 62
7
  6
CONTINUOUS
 10
157.320617028
 20
30.5937998301
 11
157.320617028
 21
31.3358647082
  0
LINE
  8
0
 62
7
  6
CONTINUOUS
 10
157.320617028
 20
31.4649194539
 11
157.320617028
 21
31.626237886
  0
LINE
  8
0
 62
7
  6
CONTINUOUS
 10
157.852430332
 20
34.6101932727
 11
157.852430332
 21
32.3970785186
  0
LINE
  8
0
 62
7
  6
CONTINUOUS
 10
149.7471793074
 20
31.4326557675
 11
149.6315543091
 21
31.3036010218
  0
LINE
  8
0
 62
7
  6
CONTINUOUS
 10
149.9206168074
 20
31.2713373354
 11
149.9784292936
 21
31.3358647082
  0
LINE
  8
0
 62
7
  6
CONTINUOUS
 10
149.7471793074
 20
30.7873819712
 11
149.8628043005
 21
30.7228545871
  0
LINE
  8
0
 62
7
  6
CONTINUOUS
 10
150.1518667936
 20
30.7873819712
 11
149.9784292936
 21
30.8841730531
  0
LINE
  8
0
 62
7
  6
CONTINUOUS
 10
155.3549915869
 20
31.4326557675
 11
155.412804528
 21
31.3681283946
  0
LINE
  8
0
 62
7
  6
CONTINUOUS
 10
158.3034290869
 20
31.3681283946
 11
158.361242028
 21
31.2068099625
  0
LINE
  8
0
 62
7
  6
CONTINUOUS
 10
158.6503040869
 20
31.2068099625
 11
158.5924918074
 21
31.3681283946
  0
LINE
  8
0
 62
7
  6
CONTINUOUS
 10
158.361242028
 20
31.2068099625
 11
158.361242028
 21
30.5937998301
  0
LINE
  8
0
 62
7
  6
CONTINUOUS
 10
158.6503040869
 20
30.5937998301
 11
158.6503040869
 21
31.2068099625
  0
LINE
  8
0
 62
7
  6
CONTINUOUS
 10
159.1128043074
 20
31.4326557675
 11
159.1128043074
 21
31.3681283946
  0
LINE
  8
0
 62
7
  6
CONTINUOUS
 10
159.245872955
 20
32.3970785186
 11
159.245872955
 21
34.5282260596
  0
LINE
  8
0
 62
7
  6
CONTINUOUS
 10
159.5737418074
 20
36.1675703219
 11
159.5737418074
 21
32.3970785186
  0
LINE
  8
0
 62
7
  6
CONTINUOUS
 10
154.2565543074
 20
30.9164367395
 11
154.3143669177
 21
31.0132277988
  0
LINE
  8
0
 62
7
  6
CONTINUOUS
 10
149.8628043005
 20
30.7228545871
 11
150.0362418212
 21
30.6583272086
  0
LINE
  8
0
 62
7
  6
CONTINUOUS
 10
151.3659292523
 20
31.4326557675
 11
151.1924917523
 21
31.5294468267
  0
LINE
  8
0
 62
7
  6
CONTINUOUS
 10
154.0253041972
 20
30.7551182848
 11
154.1987416972
 21
30.6583272086
  0
LINE
  8
0
 62
7
  6
CONTINUOUS
 10
153.0424918074
 20
31.4326557675
 11
153.1581166972
 21
31.3681283946
  0
LINE
  8
0
 62
7
  6
CONTINUOUS
 10
153.3893668074
 20
31.4649194539
 11
153.2737419177
 21
31.5294468267
  0
LINE
  8
0
 62
7
  6
CONTINUOUS
 10
159.1128043074
 20
30.8519093441
 11
159.228429528
 21
30.7228545871
  0
LINE
  8
0
 62
7
  6
CONTINUOUS
 10
159.4596793074
 20
30.7873819712
 11
159.401867028
 21
30.8519093441
  0
LINE
  8
0
 62
7
  6
CONTINUOUS
 10
159.1128043074
 20
31.3681283946
 11
159.228429528
 21
31.2390736489
  0
LINE
  8
0
 62
7
  6
CONTINUOUS
 10
158.5924918074
 20
31.3681283946
 11
158.534679528
 21
31.4649194539
  0
LINE
  8
0
 62
7
  6
CONTINUOUS
 10
160.9628038663
 20
30.7873819712
 11
160.9628038663
 21
30.8519093441
  0
LINE
  8
0
 62
7
  6
CONTINUOUS
 10
160.9671844304
 20
32.3970785186
 11
160.9671844304
 21
36.1675703219
  0
LINE
  8
0
 62
7
  6
CONTINUOUS
 10
154.0253041972
 20
31.4971831403
 11
153.9674919177
 21
31.4326557675
  0
LINE
  8
0
 62
7
  6
CONTINUOUS
 10
150.9034292799
 20
31.4649194539
 11
151.0768668626
 21
31.400392081
  0
LINE
  8
0
 62
7
  6
CONTINUOUS
 10
155.6440543074
 20
31.4649194539
 11
155.5284290869
 21
31.5294468267
  0
LINE
  8
0
 62
7
  6
CONTINUOUS
 10
159.4596793074
 20
31.3036010218
 11
159.401867028
 21
31.3681283946
  0
LINE
  8
0
 62
7
  6
CONTINUOUS
 10
160.615929528
 20
30.9164367395
 11
160.6737418074
 21
30.8519093441
  0
LINE
  8
0
 62
7
  6
CONTINUOUS
 10
160.9628038663
 20
30.8519093441
 11
160.8471793074
 21
30.9809641124
  0
LINE
  8
0
 62
7
  6
CONTINUOUS
 10
160.615929528
 20
31.4326557675
 11
160.6737418074
 21
31.3681283946
  0
LINE
  8
0
 62
7
  6
CONTINUOUS
 10
160.9628038663
 20
31.3681283946
 11
160.8471793074
 21
31.4971831403
  0
LINE
  8
0
 62
7
  6
CONTINUOUS
 10
154.2565543074
 20
31.3681283946
 11
154.3143669177
 21
31.4326557675
  0
LINE
  8
0
 62
7
  6
CONTINUOUS
 10
154.0831168074
 20
31.1100188581
 11
153.9674919177
 21
30.9809641124
  0
LINE
  8
0
 62
7
  6
CONTINUOUS
 10
155.412804528
 20
30.9487004259
 11
155.3549915869
 21
30.8841730531
  0
LINE
  8
0
 62
7
  6
CONTINUOUS
 10
155.3549915869
 20
30.6905909007
 11
155.412804528
 21
30.7551182848
  0
LINE
  8
0
 62
7
  6
CONTINUOUS
 10
154.1987416972
 20
30.6583272086
 11
154.3143669177
 21
30.6260635193
  0
LINE
  8
0
 62
7
  6
CONTINUOUS
 10
151.1924917523
 20
31.5294468267
 11
150.9612418074
 21
31.5939741996
  0
LINE
  8
0
 62
7
  6
CONTINUOUS
 10
154.5456166972
 20
30.7228545871
 11
154.3143669177
 21
30.7873819712
  0
LINE
  8
0
 62
7
  6
CONTINUOUS
 10
153.2737419177
 20
31.5294468267
 11
153.1003044177
 21
31.5939741996
  0
LINE
  8
0
 62
7
  6
CONTINUOUS
 10
155.5284290869
 20
31.5294468267
 11
155.3549915869
 21
31.5939741996
  0
LINE
  8
0
 62
7
  6
CONTINUOUS
 10
158.187804528
 20
31.4326557675
 11
158.3034290869
 21
31.3681283946
  0
LINE
  8
0
 62
7
  6
CONTINUOUS
 10
158.534679528
 20
31.4649194539
 11
158.4190543074
 21
31.5294468267
  0
LINE
  8
0
 62
7
  6
CONTINUOUS
 10
150.0362418212
 20
30.6583272086
 11
150.2096793212
 21
30.6260635193
  0
LINE
  8
0
 62
7
  6
CONTINUOUS
 10
150.498741835
 20
30.7228545871
 11
150.1518667936
 21
30.7873819712
  0
LINE
  8
0
 62
7
  6
CONTINUOUS
 10
152.9268669177
 20
31.4649194539
 11
153.0424918074
 21
31.4326557675
  0
LINE
  8
0
 62
7
  6
CONTINUOUS
 10
155.239367028
 20
31.4649194539
 11
155.3549915869
 21
31.4326557675
  0
LINE
  8
0
 62
7
  6
CONTINUOUS
 10
159.575304528
 20
30.7551182848
 11
159.4596793074
 21
30.7873819712
  0
LINE
  8
0
 62
7
  6
CONTINUOUS
 10
158.0721793074
 20
31.4649194539
 11
158.187804528
 21
31.4326557675
  0
LINE
  8
0
 62
7
  6
CONTINUOUS
 10
159.228429528
 20
30.7228545871
 11
159.401867028
 21
30.6583272086
  0
LINE
  8
0
 62
7
  6
CONTINUOUS
 10
158.4190543074
 20
31.5294468267
 11
158.2456168074
 21
31.5939741996
  0
LINE
  8
0
 62
7
  6
CONTINUOUS
 10
159.6331168074
 20
31.2390736489
 11
159.4596793074
 21
31.3036010218
  0
LINE
  8
0
 62
7
  6
CONTINUOUS
 10
160.442492028
 20
30.9809641124
 11
160.615929528
 21
30.9164367395
  0
LINE
  8
0
 62
7
  6
CONTINUOUS
 10
160.8471793074
 20
31.4971831403
 11
160.6737418074
 21
31.5617105132
  0
LINE
  8
0
 62
7
  6
CONTINUOUS
 10
159.228429528
 20
31.2390736489
 11
159.4596793074
 21
31.1422825445
  0
LINE
  8
0
 62
7
  6
CONTINUOUS
 10
160.8471793074
 20
30.9809641124
 11
160.615929528
 21
31.0777551716
  0
LINE
  8
0
 62
7
  6
CONTINUOUS
 10
159.401867028
 20
31.3681283946
 11
159.4596793074
 21
31.4326557675
  0
LINE
  8
0
 62
7
  6
CONTINUOUS
 10
149.8628043005
 20
31.4971831403
 11
149.7471793074
 21
31.4326557675
  0
LINE
  8
0
 62
7
  6
CONTINUOUS
 10
149.9784292936
 20
31.3358647082
 11
150.1518667936
 21
31.4326557675
  0
LINE
  8
0
 62
7
  6
CONTINUOUS
 10
152.2909293626
 20
31.5294468267
 11
152.1753043074
 21
31.4649194539
  0
LINE
  8
0
 62
7
  6
CONTINUOUS
 10
152.1753043074
 20
31.3358647082
 11
152.2909293626
 21
31.400392081
  0
LINE
  8
0
 62
7
  6
CONTINUOUS
 10
151.1924917523
 20
30.6905909007
 11
151.3659292523
 21
30.7873819712
  0
LINE
  8
0
 62
7
  6
CONTINUOUS
 10
150.2096793212
 20
30.6260635193
 11
150.5565542799
 21
30.5937998301
  0
LINE
  8
0
 62
7
  6
CONTINUOUS
 10
154.3143669177
 20
30.6260635193
 11
154.5456166972
 21
30.5937998301
  0
LINE
  8
0
 62
7
  6
CONTINUOUS
 10
152.6956168074
 20
31.4971831403
 11
152.9268669177
 21
31.4649194539
  0
LINE
  8
0
 62
7
  6
CONTINUOUS
 10
155.0081169177
 20
31.4971831403
 11
155.239367028
 21
31.4649194539
  0
LINE
  8
0
 62
7
  6
CONTINUOUS
 10
159.4596793074
 20
31.1422825445
 11
160.442492028
 21
30.9809641124
  0
LINE
  8
0
 62
7
  6
CONTINUOUS
 10
160.615929528
 20
31.0777551716
 11
159.6331168074
 21
31.2390736489
  0
LINE
  8
0
 62
7
  6
CONTINUOUS
 10
153.1003044177
 20
31.5939741996
 11
152.9268669177
 21
31.626237886
  0
LINE
  8
0
 62
7
  6
CONTINUOUS
 10
159.401867028
 20
30.6583272086
 11
159.575304528
 21
30.6260635193
  0
LINE
  8
0
 62
7
  6
CONTINUOUS
 10
158.2456168074
 20
31.5939741996
 11
158.0721793074
 21
31.626237886
  0
LINE
  8
0
 62
7
  6
CONTINUOUS
 10
160.5003043074
 20
31.4649194539
 11
160.615929528
 21
31.4326557675
  0
LINE
  8
0
 62
7
  6
CONTINUOUS
 10
160.6737418074
 20
30.8519093441
 11
160.615929528
 21
30.7873819712
  0
LINE
  8
0
 62
7
  6
CONTINUOUS
 10
159.228429528
 20
31.5294468267
 11
159.1128043074
 21
31.4326557675
  0
LINE
  8
0
 62
7
  6
CONTINUOUS
 10
154.1409294177
 20
31.5617105132
 11
154.0253041972
 21
31.4971831403
  0
LINE
  8
0
 62
7
  6
CONTINUOUS
 10
154.1987416972
 20
31.1745462761
 11
154.0831168074
 21
31.1100188581
  0
LINE
  8
0
 62
7
  6
CONTINUOUS
 10
154.3143669177
 20
31.0132277988
 11
154.4299918074
 21
31.0777551716
  0
LINE
  8
0
 62
7
  6
CONTINUOUS
 10
151.8862417523
 20
30.5937998301
 11
152.1753043074
 21
30.5937998301
  0
LINE
  8
0
 62
7
  6
CONTINUOUS
 10
153.2159293074
 20
30.5937998301
 11
153.5049916972
 21
30.5937998301
  0
LINE
  8
0
 62
7
  6
CONTINUOUS
 10
154.5456166972
 20
30.5937998301
 11
154.8924916972
 21
30.5937998301
  0
LINE
  8
0
 62
7
  6
CONTINUOUS
 10
155.5284290869
 20
30.5937998301
 11
155.8174918074
 21
30.5937998301
  0
LINE
  8
0
 62
7
  6
CONTINUOUS
 10
156.279992028
 20
30.5937998301
 11
156.5690540869
 21
30.5937998301
  0
LINE
  8
0
 62
7
  6
CONTINUOUS
 10
157.0315543074
 20
30.5937998301
 11
157.320617028
 21
30.5937998301
  0
LINE
  8
0
 62
7
  6
CONTINUOUS
 10
158.361242028
 20
30.5937998301
 11
158.6503040869
 21
30.5937998301
  0
LINE
  8
0
 62
7
  6
CONTINUOUS
 10
159.922179528
 20
30.5937998301
 11
160.269054528
 21
30.5937998301
  0
LINE
  8
0
 62
7
  6
CONTINUOUS
 10
160.269054528
 20
30.7228545871
 11
159.922179528
 21
30.7228545871
  0
LINE
  8
0
 62
7
  6
CONTINUOUS
 10
154.8924916972
 20
30.7228545871
 11
154.5456166972
 21
30.7228545871
  0
LINE
  8
0
 62
7
  6
CONTINUOUS
 10
159.401867028
 20
30.8519093441
 11
159.1128043074
 21
30.8519093441
  0
LINE
  8
0
 62
7
  6
CONTINUOUS
 10
151.4237418626
 20
30.9164367395
 11
151.1346793074
 21
30.9164367395
  0
LINE
  8
0
 62
7
  6
CONTINUOUS
 10
150.498741835
 20
31.4971831403
 11
150.9034292799
 21
31.4649194539
  0
LINE
  8
0
 62
7
  6
CONTINUOUS
 10
150.9612418074
 20
31.5939741996
 11
150.5565542799
 21
31.626237886
  0
LINE
  8
0
 62
7
  6
CONTINUOUS
 10
159.575304528
 20
30.6260635193
 11
159.922179528
 21
30.5937998301
  0
LINE
  8
0
 62
7
  6
CONTINUOUS
 10
159.922179528
 20
30.7228545871
 11
159.575304528
 21
30.7551182848
  0
LINE
  8
0
 62
7
  6
CONTINUOUS
 10
155.3549915869
 20
31.5939741996
 11
155.0081169177
 21
31.626237886
  0
LINE
  8
0
 62
7
  6
CONTINUOUS
 10
160.1534293074
 20
31.4971831403
 11
160.5003043074
 21
31.4649194539
  0
LINE
  8
0
 62
7
  6
CONTINUOUS
 10
160.5003043074
 20
31.5939741996
 11
160.1534293074
 21
31.626237886
  0
LINE
  8
0
 62
7
  6
CONTINUOUS
 10
157.840929528
 20
31.4971831403
 11
158.0721793074
 21
31.4649194539
  0
LINE
  8
0
 62
7
  6
CONTINUOUS
 10
160.6737418074
 20
31.5617105132
 11
160.5003043074
 21
31.5939741996
  0
LINE
  8
0
 62
7
  6
CONTINUOUS
 10
160.8471793074
 20
30.6905909007
 11
160.9628038663
 21
30.7873819712
  0
LINE
  8
0
 62
7
  6
CONTINUOUS
 10
155.3549915869
 20
30.8841730531
 11
155.1815540869
 21
30.7873819712
  0
LINE
  8
0
 62
7
  6
CONTINUOUS
 10
157.4362415869
 20
31.5294468267
 11
157.320617028
 21
31.4649194539
  0
LINE
  8
0
 62
7
  6
CONTINUOUS
 10
157.320617028
 20
31.3358647082
 11
157.4362415869
 21
31.400392081
  0
LINE
  8
0
 62
7
  6
CONTINUOUS
 10
150.0362418212
 20
31.5617105132
 11
149.8628043005
 21
31.4971831403
  0
LINE
  8
0
 62
7
  6
CONTINUOUS
 10
152.4643666972
 20
31.5939741996
 11
152.2909293626
 21
31.5294468267
  0
LINE
  8
0
 62
7
  6
CONTINUOUS
 10
152.2909293626
 20
31.400392081
 11
152.4643666972
 21
31.4649194539
  0
LINE
  8
0
 62
7
  6
CONTINUOUS
 10
151.0768668626
 20
30.8196456577
 11
150.9034292799
 21
30.7551182848
  0
LINE
  8
0
 62
7
  6
CONTINUOUS
 10
160.5003043074
 20
30.7551182848
 11
160.269054528
 21
30.7228545871
  0
LINE
  8
0
 62
7
  6
CONTINUOUS
 10
154.8924916972
 20
30.5937998301
 11
155.1815540869
 21
30.6260635193
  0
LINE
  8
0
 62
7
  6
CONTINUOUS
 10
160.269054528
 20
30.5937998301
 11
160.615929528
 21
30.6260635193
  0
LINE
  8
0
 62
7
  6
CONTINUOUS
 10
150.5565542799
 20
30.5937998301
 11
150.9612418074
 21
30.6260635193
  0
LINE
  8
0
 62
7
  6
CONTINUOUS
 10
150.9034292799
 20
30.7551182848
 11
150.498741835
 21
30.7228545871
  0
LINE
  8
0
 62
7
  6
CONTINUOUS
 10
154.7768668074
 20
31.1422825445
 11
155.412804528
 21
31.1422825445
  0
LINE
  8
0
 62
7
  6
CONTINUOUS
 10
155.412804528
 20
31.2713373354
 11
154.7768668074
 21
31.2713373354
  0
LINE
  8
0
 62
7
  6
CONTINUOUS
 10
151.1346793074
 20
31.3036010218
 11
151.4237418626
 21
31.3036010218
  0
LINE
  8
0
 62
7
  6
CONTINUOUS
 10
153.9674919177
 20
31.3681283946
 11
154.2565543074
 21
31.3681283946
  0
LINE
  8
0
 62
7
  6
CONTINUOUS
 10
160.6737418074
 20
31.3681283946
 11
160.9628038663
 21
31.3681283946
  0
LINE
  8
0
 62
7
  6
CONTINUOUS
 10
154.6612419177
 20
31.4971831403
 11
155.0081169177
 21
31.4971831403
  0
LINE
  8
0
 62
7
  6
CONTINUOUS
 10
159.8065543074
 20
31.4971831403
 11
160.1534293074
 21
31.4971831403
  0
LINE
  8
0
 62
7
  6
CONTINUOUS
 10
160.1534293074
 20
31.626237886
 11
159.8065543074
 21
31.626237886
  0
LINE
  8
0
 62
7
  6
CONTINUOUS
 10
158.0721793074
 20
31.626237886
 11
157.840929528
 21
31.626237886
  0
LINE
  8
0
 62
7
  6
CONTINUOUS
 10
157.320617028
 20
31.626237886
 11
157.0315543074
 21
31.626237886
  0
LINE
  8
0
 62
7
  6
CONTINUOUS
 10
156.5690540869
 20
31.626237886
 11
156.279992028
 21
31.626237886
  0
LINE
  8
0
 62
7
  6
CONTINUOUS
 10
155.0081169177
 20
31.626237886
 11
154.6612419177
 21
31.626237886
  0
LINE
  8
0
 62
7
  6
CONTINUOUS
 10
152.9268669177
 20
31.626237886
 11
152.6956168074
 21
31.626237886
  0
LINE
  8
0
 62
7
  6
CONTINUOUS
 10
156.279992028
 20
31.9488748406
 11
156.5690540869
 21
31.9488748406
  0
LINE
  8
0
 62
7
  6
CONTINUOUS
 10
156.5690540869
 20
32.1101932727
 11
156.279992028
 21
32.1101932727
  0
LINE
  8
0
 62
7
  6
CONTINUOUS
 10
152.1753043074
 20
32.1101932727
 11
151.8862417523
 21
32.1101932727
  0
LINE
  8
0
 62
7
  6
CONTINUOUS
 10
151.2130860697
 20
32.3970785186
 11
151.6256574183
 21
32.3970785186
  0
LINE
  8
0
 62
7
  6
CONTINUOUS
 10
152.852430332
 20
32.3970785186
 11
154.245872955
 21
32.3970785186
  0
LINE
  8
0
 62
7
  6
CONTINUOUS
 10
154.5737418074
 20
32.3970785186
 11
155.9671844304
 21
32.3970785186
  0
LINE
  8
0
 62
7
  6
CONTINUOUS
 10
157.852430332
 20
32.3970785186
 11
159.245872955
 21
32.3970785186
  0
LINE
  8
0
 62
7
  6
CONTINUOUS
 10
159.5737418074
 20
32.3970785186
 11
160.9671844304
 21
32.3970785186
  0
LINE
  8
0
 62
7
  6
CONTINUOUS
 10
157.6096790869
 20
31.5939741996
 11
157.4362415869
 21
31.5294468267
  0
LINE
  8
0
 62
7
  6
CONTINUOUS
 10
155.1815540869
 20
30.6260635193
 11
155.3549915869
 21
30.6905909007
  0
LINE
  8
0
 62
7
  6
CONTINUOUS
 10
160.615929528
 20
30.6260635193
 11
160.8471793074
 21
30.6905909007
  0
LINE
  8
0
 62
7
  6
CONTINUOUS
 10
160.615929528
 20
30.7873819712
 11
160.5003043074
 21
30.7551182848
  0
LINE
  8
0
 62
7
  6
CONTINUOUS
 10
159.575304528
 20
31.4649194539
 11
159.8065543074
 21
31.4971831403
  0
LINE
  8
0
 62
7
  6
CONTINUOUS
 10
157.6096790869
 20
31.4649194539
 11
157.840929528
 21
31.4971831403
  0
LINE
  8
0
 62
7
  6
CONTINUOUS
 10
154.5456166972
 20
31.1100188581
 11
154.7768668074
 21
31.1422825445
  0
LINE
  8
0
 62
7
  6
CONTINUOUS
 10
157.840929528
 20
31.626237886
 11
157.6096790869
 21
31.5939741996
  0
LINE
  8
0
 62
7
  6
CONTINUOUS
 10
154.4299918074
 20
31.4649194539
 11
154.6612419177
 21
31.4971831403
  0
LINE
  8
0
 62
7
  6
CONTINUOUS
 10
159.8065543074
 20
31.626237886
 11
159.4596793074
 21
31.5939741996
  0
LINE
  8
0
 62
7
  6
CONTINUOUS
 10
154.7768668074
 20
31.2713373354
 11
154.4299918074
 21
31.2390736489
  0
LINE
  8
0
 62
7
  6
CONTINUOUS
 10
150.5565542799
 20
31.626237886
 11
150.2096793212
 21
31.5939741996
  0
LINE
  8
0
 62
7
  6
CONTINUOUS
 10
154.6612419177
 20
31.626237886
 11
154.2565543074
 21
31.5939741996
  0
LINE
  8
0
 62
7
  6
CONTINUOUS
 10
152.0327582009
 20
33.5446195022
 11
151.3770204959
 21
33.5446195022
  0
LINE
  8
0
 62
7
  6
CONTINUOUS
 10
157.4362415869
 20
31.400392081
 11
157.6096790869
 21
31.4649194539
  0
LINE
  8
0
 62
7
  6
CONTINUOUS
 10
159.4596793074
 20
31.4326557675
 11
159.575304528
 21
31.4649194539
  0
LINE
  8
0
 62
7
  6
CONTINUOUS
 10
159.4596793074
 20
31.5939741996
 11
159.228429528
 21
31.5294468267
  0
LINE
  8
0
 62
7
  6
CONTINUOUS
 10
155.1815540869
 20
30.7873819712
 11
154.8924916972
 21
30.7228545871
  0
LINE
  8
0
 62
7
  6
CONTINUOUS
 10
152.4643666972
 20
31.4649194539
 11
152.6956168074
 21
31.4971831403
  0
LINE
  8
0
 62
7
  6
CONTINUOUS
 10
152.6956168074
 20
31.626237886
 11
152.4643666972
 21
31.5939741996
  0
LINE
  8
0
 62
7
  6
CONTINUOUS
 10
150.2674918074
 20
31.4649194539
 11
150.498741835
 21
31.4971831403
  0
LINE
  8
0
 62
7
  6
CONTINUOUS
 10
156.7868565615
 20
35.0200293383
 11
157.4425942664
 21
35.0200293383
  0
LINE
  8
0
 62
7
  6
CONTINUOUS
 10
154.4299918074
 20
31.0777551716
 11
154.5456166972
 21
31.1100188581
  0
LINE
  8
0
 62
7
  6
CONTINUOUS
 10
154.4299918074
 20
31.2390736489
 11
154.1987416972
 21
31.1745462761
  0
LINE
  8
0
 62
7
  6
CONTINUOUS
 10
154.3143669177
 20
31.4326557675
 11
154.4299918074
 21
31.4649194539
  0
LINE
  8
0
 62
7
  6
CONTINUOUS
 10
150.9612418074
 20
30.6260635193
 11
151.1924917523
 21
30.6905909007
  0
LINE
  8
0
 62
7
  6
CONTINUOUS
 10
154.2565543074
 20
31.5939741996
 11
154.1409294177
 21
31.5617105132
  0
LINE
  8
0
 62
7
  6
CONTINUOUS
 10
150.2096793212
 20
31.5939741996
 11
150.0362418212
 21
31.5617105132
  0
LINE
  8
0
 62
7
  6
CONTINUOUS
 10
160.9671844304
 20
36.1675703219
 11
159.5737418074
 21
36.1675703219
  0
LINE
  8
0
 62
7
  6
CONTINUOUS
 10
157.6065286927
 20
36.1675703219
 11
157.1939573441
 21
36.1675703219
  0
LINE
  8
0
 62
7
  6
CONTINUOUS
 10
155.9671844304
 20
36.1675703219
 11
154.5737418074
 21
36.1675703219
  0
LINE
  8
0
 62
7
  6
CONTINUOUS
 10
154.245872955
 20
36.1675703219
 11
152.852430332
 21
36.1675703219
  0
LINE
  8
0
 62
7
  6
CONTINUOUS
 10
150.9671844304
 20
36.1675703219
 11
149.5737418074
 21
36.1675703219
  0
LINE
  8
0
 62
7
  6
CONTINUOUS
 10
150.1518667936
 20
31.4326557675
 11
150.2674918074
 21
31.4649194539
  0
CIRCLE
  8
0
 62
7
  6
CONTINUOUS
 10
160.2704631189
 20
38.5036358957
 40
2.0901639344
  0
ARC
  8
0
 62
7
  6
CONTINUOUS
 10
151.2130860697
 20
34.0364227809
 40
1.6393442623
 50
180.0
 51
270.0
  0
ARC
  8
0
 62
7
  6
CONTINUOUS
 10
157.6065286927
 20
34.5282260596
 40
1.6393442623
 50
0.0
 51
90.0
  0
ARC
  8
0
 62
7
  6
CONTINUOUS
 10
151.6256574183
 20
33.8724883547
 40
1.4754098361
 50
270.0
 51
326.2510114041
  0
ARC
  8
0
 62
7
  6
CONTINUOUS
 10
157.1939573441
 20
34.6921604858
 40
1.4754098361
 50
90.0
 51
146.2510114041
  0
ARC
  8
0
 62
7
  6
CONTINUOUS
 10
152.0327582009
 20
34.3642916334
 40
0.8196721311
 50
270.0
 51
360.0
  0
ARC
  8
0
 62
7
  6
CONTINUOUS
 10
156.7868565615
 20
34.2003572071
 40
0.8196721311
 50
90.0
 51
180.0
  0
ARC
  8
0
 62
7
  6
CONTINUOUS
 10
151.3770204959
 20
33.9544555678
 40
0.4098360656
 50
180.0
 51
270.0
  0
ARC
  8
0
 62
7
  6
CONTINUOUS
 10
157.4425942664
 20
34.6101932727
 40
0.4098360656
 50
0.0
 51
90.0
  0
SOLID
  8
0
 62
7
  6
CONTINUOUS
 10
156.279992028
 20
31.9488752009
 11
156.279992028
 21
32.1101936845
 12
156.5690540869
 22
31.9488752009
 13
156.5690540869
 23
32.1101936845
  0
SOLID
  8
0
 62
7
  6
CONTINUOUS
 10
150.5565542799
 20
31.6262382337
 11
150.9612418074
 21
31.5939740028
 12
150.2096793212
 22
31.5939740028
 13
150.2096793212
 23
31.5939740028
  0
SOLID
  8
0
 62
7
  6
CONTINUOUS
 10
150.0362418212
 20
31.5617111435
 11
150.2096793212
 21
31.5939740028
 12
150.9612418074
 22
31.5939740028
 13
150.9612418074
 23
31.5939740028
  0
SOLID
  8
0
 62
7
  6
CONTINUOUS
 10
150.9612418074
 20
31.5939740028
 11
151.1924917523
 21
31.5294468402
 12
150.0362418212
 22
31.5617111435
 13
150.0362418212
 23
31.5617111435
  0
SOLID
  8
0
 62
7
  6
CONTINUOUS
 10
149.8628043005
 20
31.49718259
 11
150.0362418212
 21
31.5617111435
 12
151.1924917523
 22
31.5294468402
 13
151.1924917523
 23
31.5294468402
  0
SOLID
  8
0
 62
7
  6
CONTINUOUS
 10
149.8628043005
 20
31.49718259
 11
151.1924917523
 21
31.5294468402
 12
150.498741835
 22
31.49718259
 13
150.498741835
 23
31.49718259
  0
SOLID
  8
0
 62
7
  6
CONTINUOUS
 10
150.498741835
 20
31.49718259
 11
151.1924917523
 21
31.5294468402
 12
150.9034292799
 22
31.4649197501
 13
150.9034292799
 23
31.4649197501
  0
SOLID
  8
0
 62
7
  6
CONTINUOUS
 10
151.1924917523
 20
31.5294468402
 11
151.3659292523
 21
31.4326554468
 12
150.9034292799
 22
31.4649197501
 13
150.9034292799
 23
31.4649197501
  0
SOLID
  8
0
 62
7
  6
CONTINUOUS
 10
151.0768668626
 20
31.4003926599
 11
150.9034292799
 21
31.4649197501
 12
151.3659292523
 22
31.4326554468
 13
151.3659292523
 23
31.4326554468
  0
SOLID
  8
0
 62
7
  6
CONTINUOUS
 10
151.0768668626
 20
31.4003926599
 11
151.3659292523
 21
31.4326554468
 12
151.1346793074
 22
31.3036013776
 13
151.1346793074
 23
31.3036013776
  0
SOLID
  8
0
 62
7
  6
CONTINUOUS
 10
151.3659292523
 20
31.4326554468
 11
151.4237418626
 21
31.3036013776
 12
151.1346793074
 22
31.3036013776
 13
151.1346793074
 23
31.3036013776
  0
SOLID
  8
0
 62
7
  6
CONTINUOUS
 10
152.4643666972
 20
31.5939739754
 11
152.6956168074
 21
31.6262382787
 12
152.9268669177
 22
31.6262382787
 13
152.9268669177
 23
31.6262382787
  0
SOLID
  8
0
 62
7
  6
CONTINUOUS
 10
152.9268669177
 20
31.6262382787
 11
153.1003044177
 21
31.5939739754
 12
152.4643666972
 22
31.5939739754
 13
152.4643666972
 23
31.5939739754
  0
SOLID
  8
0
 62
7
  6
CONTINUOUS
 10
152.2909293626
 20
31.5294468852
 11
152.4643666972
 21
31.5939739754
 12
153.1003044177
 22
31.5939739754
 13
153.1003044177
 23
31.5939739754
  0
SOLID
  8
0
 62
7
  6
CONTINUOUS
 10
153.1003044177
 20
31.5939739754
 11
153.2737419177
 21
31.5294468852
 12
152.2909293626
 22
31.5294468852
 13
152.2909293626
 23
31.5294468852
  0
SOLID
  8
0
 62
7
  6
CONTINUOUS
 10
153.2737419177
 20
31.5294468852
 11
152.6956168074
 21
31.4971825369
 12
152.2909293626
 22
31.5294468852
 13
152.2909293626
 23
31.5294468852
  0
SOLID
  8
0
 62
7
  6
CONTINUOUS
 10
152.1753043074
 20
31.4649197951
 11
152.2909293626
 21
31.5294468852
 12
152.6956168074
 22
31.4971825369
 13
152.6956168074
 23
31.4971825369
  0
SOLID
  8
0
 62
7
  6
CONTINUOUS
 10
152.6956168074
 20
31.4971825369
 11
152.4643666972
 21
31.4649197951
 12
152.1753043074
 22
31.4649197951
 13
152.1753043074
 23
31.4649197951
  0
SOLID
  8
0
 62
7
  6
CONTINUOUS
 10
152.6956168074
 20
31.4971825369
 11
153.2737419177
 21
31.5294468852
 12
152.9268669177
 22
31.4649197951
 13
152.9268669177
 23
31.4649197951
  0
SOLID
  8
0
 62
7
  6
CONTINUOUS
 10
153.2737419177
 20
31.5294468852
 11
153.3893668074
 21
31.4649197951
 12
152.9268669177
 22
31.4649197951
 13
152.9268669177
 23
31.4649197951
  0
SOLID
  8
0
 62
7
  6
CONTINUOUS
 10
153.0424918074
 20
31.4326554468
 11
152.9268669177
 21
31.4649197951
 12
153.3893668074
 22
31.4649197951
 13
153.3893668074
 23
31.4649197951
  0
SOLID
  8
0
 62
7
  6
CONTINUOUS
 10
153.3893668074
 20
31.4649197951
 11
153.4471794177
 21
31.4003927049
 12
153.0424918074
 22
31.4326554468
 13
153.0424918074
 23
31.4326554468
  0
SOLID
  8
0
 62
7
  6
CONTINUOUS
 10
153.1581166972
 20
31.3681283566
 11
153.0424918074
 21
31.4326554468
 12
153.4471794177
 22
31.4003927049
 13
153.4471794177
 23
31.4003927049
  0
SOLID
  8
0
 62
7
  6
CONTINUOUS
 10
153.1581166972
 20
31.3681283566
 11
153.4471794177
 21
31.4003927049
 12
153.2159293074
 22
31.2390742213
 13
153.2159293074
 23
31.2390742213
  0
SOLID
  8
0
 62
7
  6
CONTINUOUS
 10
153.4471794177
 20
31.4003927049
 11
153.5049916972
 21
31.2390742213
 12
153.2159293074
 22
31.2390742213
 13
153.2159293074
 23
31.2390742213
  0
SOLID
  8
0
 62
7
  6
CONTINUOUS
 10
152.4643666972
 20
31.4649197951
 11
152.2909293626
 21
31.4003927049
 12
152.1753043074
 22
31.4649197951
 13
152.1753043074
 23
31.4649197951
  0
SOLID
  8
0
 62
7
  6
CONTINUOUS
 10
152.2909293626
 20
31.4003927049
 11
152.1753043074
 21
31.3358640533
 12
152.1753043074
 22
31.4649197951
 13
152.1753043074
 23
31.4649197951
  0
SOLID
  8
0
 62
7
  6
CONTINUOUS
 10
152.1753043074
 20
31.3358640533
 11
151.8862417523
 21
30.5938002869
 12
152.1753043074
 22
31.4649197951
 13
152.1753043074
 23
31.4649197951
  0
SOLID
  8
0
 62
7
  6
CONTINUOUS
 10
152.1753043074
 20
31.4649197951
 11
151.8862417523
 21
30.5938002869
 12
152.1753043074
 22
32.1101937295
 13
152.1753043074
 23
32.1101937295
  0
SOLID
  8
0
 62
7
  6
CONTINUOUS
 10
151.8862417523
 20
30.5938002869
 11
151.8862417523
 21
32.1101937295
 12
152.1753043074
 22
32.1101937295
 13
152.1753043074
 23
32.1101937295
  0
SOLID
  8
0
 62
7
  6
CONTINUOUS
 10
152.1753043074
 20
31.3358640533
 11
152.1753043074
 21
30.5938002869
 12
151.8862417523
 22
30.5938002869
 13
151.8862417523
 23
30.5938002869
  0
SOLID
  8
0
 62
7
  6
CONTINUOUS
 10
153.2159293074
 20
30.5938002869
 11
153.2159293074
 21
31.2390742213
 12
153.5049916972
 22
31.2390742213
 13
153.5049916972
 23
31.2390742213
  0
SOLID
  8
0
 62
7
  6
CONTINUOUS
 10
153.5049916972
 20
31.2390742213
 11
153.5049916972
 21
30.5938002869
 12
153.2159293074
 22
30.5938002869
 13
153.2159293074
 23
30.5938002869
  0
SOLID
  8
0
 62
7
  6
CONTINUOUS
 10
154.2565543074
 20
31.5939738288
 11
154.6612419177
 21
31.6262385959
 12
155.0081169177
 22
31.6262385959
 13
155.0081169177
 23
31.6262385959
  0
SOLID
  8
0
 62
7
  6
CONTINUOUS
 10
155.0081169177
 20
31.6262385959
 11
155.3549915869
 21
31.5939738288
 12
154.2565543074
 22
31.5939738288
 13
154.2565543074
 23
31.5939738288
  0
SOLID
  8
0
 62
7
  6
CONTINUOUS
 10
154.1409294177
 20
31.5617111435
 11
154.2565543074
 21
31.5939738288
 12
155.3549915869
 22
31.5939738288
 13
155.3549915869
 23
31.5939738288
  0
SOLID
  8
0
 62
7
  6
CONTINUOUS
 10
155.3549915869
 20
31.5939738288
 11
155.5284290869
 21
31.5294468402
 12
154.1409294177
 22
31.5617111435
 13
154.1409294177
 23
31.5617111435
  0
SOLID
  8
0
 62
7
  6
CONTINUOUS
 10
154.0253041972
 20
31.4971826249
 11
154.1409294177
 21
31.5617111435
 12
155.5284290869
 22
31.5294468402
 13
155.5284290869
 23
31.5294468402
  0
SOLID
  8
0
 62
7
  6
CONTINUOUS
 10
154.0253041972
 20
31.4971826249
 11
155.5284290869
 21
31.5294468402
 12
154.6612419177
 22
31.4971826249
 13
154.6612419177
 23
31.4971826249
  0
SOLID
  8
0
 62
7
  6
CONTINUOUS
 10
154.6612419177
 20
31.4971826249
 11
155.5284290869
 21
31.5294468402
 12
155.0081169177
 22
31.4971826249
 13
155.0081169177
 23
31.4971826249
  0
SOLID
  8
0
 62
7
  6
CONTINUOUS
 10
155.0081169177
 20
31.4971826249
 11
155.5284290869
 21
31.5294468402
 12
155.239367028
 22
31.4649194065
 13
155.239367028
 23
31.4649194065
  0
SOLID
  8
0
 62
7
  6
CONTINUOUS
 10
155.5284290869
 20
31.5294468402
 11
155.6440543074
 21
31.4649194065
 12
155.239367028
 22
31.4649194065
 13
155.239367028
 23
31.4649194065
  0
SOLID
  8
0
 62
7
  6
CONTINUOUS
 10
153.9674919177
 20
31.4326554138
 11
154.0253041972
 21
31.4971826249
 12
154.6612419177
 22
31.4971826249
 13
154.6612419177
 23
31.4971826249
  0
SOLID
  8
0
 62
7
  6
CONTINUOUS
 10
155.3549915869
 20
31.4326554138
 11
155.239367028
 21
31.4649194065
 12
155.6440543074
 22
31.4649194065
 13
155.6440543074
 23
31.4649194065
  0
SOLID
  8
0
 62
7
  6
CONTINUOUS
 10
155.3549915869
 20
31.4326554138
 11
155.6440543074
 21
31.4649194065
 12
155.412804528
 22
31.3681282026
 13
155.412804528
 23
31.3681282026
  0
SOLID
  8
0
 62
7
  6
CONTINUOUS
 10
155.6440543074
 20
31.4649194065
 11
155.7018665869
 21
31.3681282026
 12
155.412804528
 22
31.3681282026
 13
155.412804528
 23
31.3681282026
  0
SOLID
  8
0
 62
7
  6
CONTINUOUS
 10
155.412804528
 20
31.2713369632
 11
155.412804528
 21
31.3681282026
 12
155.7018665869
 22
31.3681282026
 13
155.7018665869
 23
31.3681282026
  0
SOLID
  8
0
 62
7
  6
CONTINUOUS
 10
155.412804528
 20
31.2713369632
 11
155.7018665869
 21
31.3681282026
 12
155.412804528
 22
31.1422827828
 13
155.412804528
 23
31.1422827828
  0
SOLID
  8
0
 62
7
  6
CONTINUOUS
 10
155.412804528
 20
31.1422827828
 11
155.7018665869
 21
31.3681282026
 12
155.412804528
 22
30.9487004259
 13
155.412804528
 23
30.9487004259
  0
SOLID
  8
0
 62
7
  6
CONTINUOUS
 10
155.7018665869
 20
31.3681282026
 11
155.7018665869
 21
30.8519086025
 12
155.412804528
 22
30.9487004259
 13
155.412804528
 23
30.9487004259
  0
SOLID
  8
0
 62
7
  6
CONTINUOUS
 10
157.6096790869
 20
31.5939736268
 11
157.840929528
 21
31.6262383465
 12
158.0721793074
 22
31.6262383465
 13
158.0721793074
 23
31.6262383465
  0
SOLID
  8
0
 62
7
  6
CONTINUOUS
 10
158.0721793074
 20
31.6262383465
 11
158.2456168074
 21
31.5939736268
 12
157.6096790869
 22
31.5939736268
 13
157.6096790869
 23
31.5939736268
  0
SOLID
  8
0
 62
7
  6
CONTINUOUS
 10
157.4362415869
 20
31.5294472848
 11
157.6096790869
 21
31.5939736268
 12
158.2456168074
 22
31.5939736268
 13
158.2456168074
 23
31.5939736268
  0
SOLID
  8
0
 62
7
  6
CONTINUOUS
 10
158.2456168074
 20
31.5939736268
 11
158.4190543074
 21
31.5294472848
 12
157.4362415869
 22
31.5294472848
 13
157.4362415869
 23
31.5294472848
  0
SOLID
  8
0
 62
7
  6
CONTINUOUS
 10
158.4190543074
 20
31.5294472848
 11
157.840929528
 21
31.4971825369
 12
157.4362415869
 22
31.5294472848
 13
157.4362415869
 23
31.5294472848
  0
SOLID
  8
0
 62
7
  6
CONTINUOUS
 10
157.320617028
 20
31.4649199103
 11
157.4362415869
 21
31.5294472848
 12
157.840929528
 22
31.4971825369
 13
157.840929528
 23
31.4971825369
  0
SOLID
  8
0
 62
7
  6
CONTINUOUS
 10
157.840929528
 20
31.4971825369
 11
157.6096790869
 21
31.4649199103
 12
157.320617028
 22
31.4649199103
 13
157.320617028
 23
31.4649199103
  0
SOLID
  8
0
 62
7
  6
CONTINUOUS
 10
157.840929528
 20
31.4971825369
 11
158.4190543074
 21
31.5294472848
 12
158.0721793074
 22
31.4649199103
 13
158.0721793074
 23
31.4649199103
  0
SOLID
  8
0
 62
7
  6
CONTINUOUS
 10
158.4190543074
 20
31.5294472848
 11
158.534679528
 21
31.4649199103
 12
158.0721793074
 22
31.4649199103
 13
158.0721793074
 23
31.4649199103
  0
SOLID
  8
0
 62
7
  6
CONTINUOUS
 10
158.187804528
 20
31.4326554468
 11
158.0721793074
 21
31.4649199103
 12
158.534679528
 22
31.4649199103
 13
158.534679528
 23
31.4649199103
  0
SOLID
  8
0
 62
7
  6
CONTINUOUS
 10
158.187804528
 20
31.4326554468
 11
158.534679528
 21
31.4649199103
 12
158.3034290869
 22
31.3681288486
 13
158.3034290869
 23
31.3681288486
  0
SOLID
  8
0
 62
7
  6
CONTINUOUS
 10
158.534679528
 20
31.4649199103
 11
158.5924918074
 21
31.3681288486
 12
158.3034290869
 22
31.3681288486
 13
158.3034290869
 23
31.3681288486
  0
SOLID
  8
0
 62
7
  6
CONTINUOUS
 10
158.361242028
 20
31.2068093799
 11
158.3034290869
 21
31.3681288486
 12
158.5924918074
 22
31.3681288486
 13
158.5924918074
 23
31.3681288486
  0
SOLID
  8
0
 62
7
  6
CONTINUOUS
 10
158.5924918074
 20
31.3681288486
 11
158.6503040869
 21
31.2068093799
 12
158.361242028
 22
31.2068093799
 13
158.361242028
 23
31.2068093799
  0
SOLID
  8
0
 62
7
  6
CONTINUOUS
 10
157.6096790869
 20
31.4649199103
 11
157.4362415869
 21
31.4003926599
 12
157.320617028
 22
31.4649199103
 13
157.320617028
 23
31.4649199103
  0
SOLID
  8
0
 62
7
  6
CONTINUOUS
 10
157.4362415869
 20
31.4003926599
 11
157.320617028
 21
31.3358640533
 12
157.320617028
 22
31.4649199103
 13
157.320617028
 23
31.4649199103
  0
SOLID
  8
0
 62
7
  6
CONTINUOUS
 10
157.320617028
 20
31.3358640533
 11
157.0315543074
 21
30.5938003547
 12
157.320617028
 22
31.4649199103
 13
157.320617028
 23
31.4649199103
  0
SOLID
  8
0
 62
7
  6
CONTINUOUS
 10
157.320617028
 20
31.4649199103
 11
157.0315543074
 21
30.5938003547
 12
157.320617028
 22
31.6262383465
 13
157.320617028
 23
31.6262383465
  0
SOLID
  8
0
 62
7
  6
CONTINUOUS
 10
157.0315543074
 20
30.5938003547
 11
157.0315543074
 21
31.6262383465
 12
157.320617028
 22
31.6262383465
 13
157.320617028
 23
31.6262383465
  0
SOLID
  8
0
 62
7
  6
CONTINUOUS
 10
157.320617028
 20
31.3358640533
 11
157.320617028
 21
30.5938003547
 12
157.0315543074
 22
30.5938003547
 13
157.0315543074
 23
30.5938003547
  0
SOLID
  8
0
 62
7
  6
CONTINUOUS
 10
158.361242028
 20
30.5938003547
 11
158.361242028
 21
31.2068093799
 12
158.6503040869
 22
31.2068093799
 13
158.6503040869
 23
31.2068093799
  0
SOLID
  8
0
 62
7
  6
CONTINUOUS
 10
158.6503040869
 20
31.2068093799
 11
158.6503040869
 21
30.5938003547
 12
158.361242028
 22
30.5938003547
 13
158.361242028
 23
30.5938003547
  0
SOLID
  8
0
 62
7
  6
CONTINUOUS
 10
159.4596793074
 20
31.5939739474
 11
159.8065543074
 21
31.6262381969
 12
160.1534293074
 22
31.6262381969
 13
160.1534293074
 23
31.6262381969
  0
SOLID
  8
0
 62
7
  6
CONTINUOUS
 10
160.1534293074
 20
31.6262381969
 11
160.5003043074
 21
31.5939739474
 12
159.4596793074
 22
31.5939739474
 13
159.4596793074
 23
31.5939739474
  0
SOLID
  8
0
 62
7
  6
CONTINUOUS
 10
159.228429528
 20
31.5294468402
 11
159.4596793074
 21
31.5939739474
 12
160.5003043074
 22
31.5939739474
 13
160.5003043074
 23
31.5939739474
  0
SOLID
  8
0
 62
7
  6
CONTINUOUS
 10
159.228429528
 20
31.5294468402
 11
160.5003043074
 21
31.5939739304
 12
160.6737418074
 22
31.5617111435
 13
160.6737418074
 23
31.5617111435
  0
SOLID
  8
0
 62
7
  6
CONTINUOUS
 10
159.228429528
 20
31.5294468402
 11
160.6737418074
 21
31.5617111435
 12
159.8065543074
 22
31.4971825592
 13
159.8065543074
 23
31.4971825592
  0
SOLID
  8
0
 62
7
  6
CONTINUOUS
 10
159.8065543074
 20
31.4971825592
 11
160.6737418074
 21
31.5617111435
 12
160.1534293074
 22
31.4971825592
 13
160.1534293074
 23
31.4971825592
  0
SOLID
  8
0
 62
7
  6
CONTINUOUS
 10
160.6737418074
 20
31.5617111435
 11
160.8471793074
 21
31.4971825592
 12
160.1534293074
 22
31.4971825592
 13
160.1534293074
 23
31.4971825592
  0
SOLID
  8
0
 62
7
  6
CONTINUOUS
 10
160.5003043074
 20
31.4649197501
 11
160.1534293074
 21
31.4971825592
 12
160.8471793074
 22
31.4971825592
 13
160.8471793074
 23
31.4971825592
  0
SOLID
  8
0
 62
7
  6
CONTINUOUS
 10
159.1128043074
 20
31.4326555427
 11
159.228429528
 21
31.5294468402
 12
159.8065543074
 22
31.4971825592
 13
159.8065543074
 23
31.4971825592
  0
SOLID
  8
0
 62
7
  6
CONTINUOUS
 10
160.5003043074
 20
31.4649197501
 11
160.8471793074
 21
31.4971825592
 12
160.615929528
 22
31.4326555427
 13
160.615929528
 23
31.4326555427
  0
SOLID
  8
0
 62
7
  6
CONTINUOUS
 10
160.615929528
 20
31.4326555427
 11
160.8471793074
 21
31.4971825592
 12
160.6737418074
 22
31.3681283005
 13
160.6737418074
 23
31.3681283005
  0
SOLID
  8
0
 62
7
  6
CONTINUOUS
 10
160.8471793074
 20
31.4971825592
 11
160.9628038663
 21
31.3681283005
 12
160.6737418074
 22
31.3681283005
 13
160.6737418074
 23
31.3681283005
  0
SOLID
  8
0
 62
7
  6
CONTINUOUS
 10
150.2674918074
 20
31.4649197501
 11
149.7471793074
 21
31.4326554237
 12
150.498741835
 22
31.4971824493
 13
150.498741835
 23
31.4971824493
  0
SOLID
  8
0
 62
7
  6
CONTINUOUS
 10
149.7471793074
 20
31.4326554237
 11
149.8628043005
 21
31.4971824493
 12
150.498741835
 22
31.4971824493
 13
150.498741835
 23
31.4971824493
  0
SOLID
  8
0
 62
7
  6
CONTINUOUS
 10
150.2674918074
 20
31.4649197501
 11
150.1518667936
 21
31.4326554237
 12
149.7471793074
 22
31.4326554237
 13
149.7471793074
 23
31.4326554237
  0
SOLID
  8
0
 62
7
  6
CONTINUOUS
 10
149.6315543091
 20
31.3036012664
 11
149.7471793074
 21
31.4326554237
 12
150.1518667936
 22
31.4326554237
 13
150.1518667936
 23
31.4326554237
  0
SOLID
  8
0
 62
7
  6
CONTINUOUS
 10
153.9674919177
 20
31.4326554237
 11
154.6612419177
 21
31.4971825369
 12
154.4299918074
 22
31.4649197501
 13
154.4299918074
 23
31.4649197501
  0
SOLID
  8
0
 62
7
  6
CONTINUOUS
 10
154.4299918074
 20
31.4649197501
 11
154.3143669177
 21
31.4326554237
 12
153.9674919177
 22
31.4326554237
 13
153.9674919177
 23
31.4326554237
  0
SOLID
  8
0
 62
7
  6
CONTINUOUS
 10
153.9674919177
 20
31.3681283335
 11
153.9674919177
 21
31.4326554237
 12
154.3143669177
 22
31.4326554237
 13
154.3143669177
 23
31.4326554237
  0
SOLID
  8
0
 62
7
  6
CONTINUOUS
 10
154.3143669177
 20
31.4326554237
 11
154.2565543074
 21
31.3681283335
 12
153.9674919177
 22
31.3681283335
 13
153.9674919177
 23
31.3681283335
  0
SOLID
  8
0
 62
7
  6
CONTINUOUS
 10
159.1128043074
 20
31.4326555528
 11
159.8065543074
 21
31.4971825369
 12
159.575304528
 22
31.4649197501
 13
159.575304528
 23
31.4649197501
  0
SOLID
  8
0
 62
7
  6
CONTINUOUS
 10
159.575304528
 20
31.4649197501
 11
159.4596793074
 21
31.4326555528
 12
159.1128043074
 22
31.4326555528
 13
159.1128043074
 23
31.4326555528
  0
SOLID
  8
0
 62
7
  6
CONTINUOUS
 10
159.1128043074
 20
31.3681284626
 11
159.1128043074
 21
31.4326555528
 12
159.4596793074
 22
31.4326555528
 13
159.4596793074
 23
31.4326555528
  0
SOLID
  8
0
 62
7
  6
CONTINUOUS
 10
159.4596793074
 20
31.4326555528
 11
159.401867028
 21
31.3681284626
 12
159.1128043074
 22
31.3681284626
 13
159.1128043074
 23
31.3681284626
  0
SOLID
  8
0
 62
7
  6
CONTINUOUS
 10
159.228429528
 20
31.2390741763
 11
159.1128043074
 21
31.3681284626
 12
159.401867028
 22
31.3681284626
 13
159.401867028
 23
31.3681284626
  0
SOLID
  8
0
 62
7
  6
CONTINUOUS
 10
149.6315543091
 20
31.3036012664
 11
150.1518667936
 21
31.4326554468
 12
149.9784292936
 22
31.3358640533
 13
149.9784292936
 23
31.3358640533
  0
SOLID
  8
0
 62
7
  6
CONTINUOUS
 10
149.9784292936
 20
31.3358640533
 11
149.9206168074
 21
31.2713369632
 12
149.6315543091
 22
31.3036012664
 13
149.6315543091
 23
31.3036012664
  0
SOLID
  8
0
 62
7
  6
CONTINUOUS
 10
149.5737418074
 20
31.1100184796
 11
149.6315543091
 21
31.3036012664
 12
149.9206168074
 22
31.2713369632
 13
149.9206168074
 23
31.2713369632
  0
SOLID
  8
0
 62
7
  6
CONTINUOUS
 10
154.4299918074
 20
31.2390741763
 11
154.7768668074
 21
31.271336924
 12
155.412804528
 22
31.271336924
 13
155.412804528
 23
31.271336924
  0
SOLID
  8
0
 62
7
  6
CONTINUOUS
 10
154.4299918074
 20
31.2390741763
 11
155.412804528
 21
31.271336924
 12
154.1987416972
 22
31.1745462761
 13
154.1987416972
 23
31.1745462761
  0
SOLID
  8
0
 62
7
  6
CONTINUOUS
 10
154.1987416972
 20
31.1745462761
 11
155.412804528
 21
31.271336924
 12
154.7768668074
 22
31.1422827436
 13
154.7768668074
 23
31.1422827436
  0
SOLID
  8
0
 62
7
  6
CONTINUOUS
 10
155.412804528
 20
31.271336924
 11
155.412804528
 21
31.1422827436
 12
154.7768668074
 22
31.1422827436
 13
154.7768668074
 23
31.1422827436
  0
SOLID
  8
0
 62
7
  6
CONTINUOUS
 10
159.228429528
 20
31.2390745501
 11
159.401867028
 21
31.3681283566
 12
159.4596793074
 22
31.3036012664
 13
159.4596793074
 23
31.3036012664
  0
SOLID
  8
0
 62
7
  6
CONTINUOUS
 10
159.4596793074
 20
31.3036012664
 11
159.6331168074
 21
31.2390745501
 12
159.228429528
 22
31.2390745501
 13
159.228429528
 23
31.2390745501
  0
SOLID
  8
0
 62
7
  6
CONTINUOUS
 10
159.4596793074
 20
31.1422827828
 11
159.228429528
 21
31.2390745501
 12
159.6331168074
 22
31.2390745501
 13
159.6331168074
 23
31.2390745501
  0
SOLID
  8
0
 62
7
  6
CONTINUOUS
 10
159.6331168074
 20
31.2390745501
 11
160.615929528
 21
31.0777556927
 12
159.4596793074
 22
31.1422827828
 13
159.4596793074
 23
31.1422827828
  0
SOLID
  8
0
 62
7
  6
CONTINUOUS
 10
160.442492028
 20
30.9809646623
 11
159.4596793074
 21
31.1422827828
 12
160.615929528
 22
31.0777556927
 13
160.615929528
 23
31.0777556927
  0
SOLID
  8
0
 62
7
  6
CONTINUOUS
 10
160.615929528
 20
31.0777556927
 11
160.8471793074
 21
30.9809646623
 12
160.442492028
 22
30.9809646623
 13
160.442492028
 23
30.9809646623
  0
SOLID
  8
0
 62
7
  6
CONTINUOUS
 10
160.615929528
 20
30.9164372091
 11
160.442492028
 21
30.9809646623
 12
160.8471793074
 22
30.9809646623
 13
160.8471793074
 23
30.9809646623
  0
SOLID
  8
0
 62
7
  6
CONTINUOUS
 10
160.615929528
 20
30.9164372091
 11
160.8471793074
 21
30.9809646623
 12
160.6737418074
 22
30.8519089441
 13
160.6737418074
 23
30.8519089441
  0
SOLID
  8
0
 62
7
  6
CONTINUOUS
 10
160.8471793074
 20
30.9809646623
 11
160.9628038663
 21
30.8519089441
 12
160.6737418074
 22
30.8519089441
 13
160.6737418074
 23
30.8519089441
  0
SOLID
  8
0
 62
7
  6
CONTINUOUS
 10
160.615929528
 20
30.7873818593
 11
160.6737418074
 21
30.8519089441
 12
160.9628038663
 22
30.8519089441
 13
160.9628038663
 23
30.8519089441
  0
SOLID
  8
0
 62
7
  6
CONTINUOUS
 10
160.9628038663
 20
30.8519089441
 11
160.9628038663
 21
30.7873818593
 12
160.615929528
 22
30.7873818593
 13
160.615929528
 23
30.7873818593
  0
SOLID
  8
0
 62
7
  6
CONTINUOUS
 10
160.5003043074
 20
30.7551187255
 11
160.615929528
 21
30.7873818593
 12
160.9628038663
 22
30.7873818593
 13
160.9628038663
 23
30.7873818593
  0
SOLID
  8
0
 62
7
  6
CONTINUOUS
 10
160.5003043074
 20
30.7551187255
 11
160.9628038663
 21
30.7873818593
 12
160.269054528
 22
30.7228547745
 13
160.269054528
 23
30.7228547745
  0
SOLID
  8
0
 62
7
  6
CONTINUOUS
 10
160.9628038663
 20
30.7873818593
 11
160.8471793074
 21
30.6905916353
 12
160.269054528
 22
30.7228547745
 13
160.269054528
 23
30.7228547745
  0
SOLID
  8
0
 62
7
  6
CONTINUOUS
 10
160.8471793074
 20
30.6905916353
 11
159.401867028
 21
30.658327332
 12
160.269054528
 22
30.7228547745
 13
160.269054528
 23
30.7228547745
  0
SOLID
  8
0
 62
7
  6
CONTINUOUS
 10
160.269054528
 20
30.7228547745
 11
159.401867028
 21
30.658327332
 12
159.922179528
 22
30.7228547745
 13
159.922179528
 23
30.7228547745
  0
SOLID
  8
0
 62
7
  6
CONTINUOUS
 10
159.401867028
 20
30.658327332
 11
159.228429528
 21
30.7228547745
 12
159.922179528
 22
30.7228547745
 13
159.922179528
 23
30.7228547745
  0
SOLID
  8
0
 62
7
  6
CONTINUOUS
 10
159.401867028
 20
30.658327332
 11
160.8471793074
 21
30.6905916353
 12
159.575304528
 22
30.6260629858
 13
159.575304528
 23
30.6260629858
  0
SOLID
  8
0
 62
7
  6
CONTINUOUS
 10
160.8471793074
 20
30.6905916353
 11
160.615929528
 21
30.6260629858
 12
159.575304528
 22
30.6260629858
 13
159.575304528
 23
30.6260629858
  0
SOLID
  8
0
 62
7
  6
CONTINUOUS
 10
159.922179528
 20
30.5938006049
 11
159.575304528
 21
30.6260629858
 12
160.615929528
 22
30.6260629858
 13
160.615929528
 23
30.6260629858
  0
SOLID
  8
0
 62
7
  6
CONTINUOUS
 10
160.615929528
 20
30.6260629858
 11
160.269054528
 21
30.5938006049
 12
159.922179528
 22
30.5938006049
 13
159.922179528
 23
30.5938006049
  0
SOLID
  8
0
 62
7
  6
CONTINUOUS
 10
149.5737418074
 20
31.1100184796
 11
149.9206168074
 21
31.2713369632
 12
149.8628043005
 22
31.1422827828
 13
149.8628043005
 23
31.1422827828
  0
SOLID
  8
0
 62
7
  6
CONTINUOUS
 10
149.8628043005
 20
31.1422827828
 11
149.8628043005
 21
31.0454914852
 12
149.5737418074
 22
31.1100184796
 13
149.5737418074
 23
31.1100184796
  0
SOLID
  8
0
 62
7
  6
CONTINUOUS
 10
149.6315543091
 20
30.9164372091
 11
149.5737418074
 21
31.1100184796
 12
149.8628043005
 22
31.0454914852
 13
149.8628043005
 23
31.0454914852
  0
SOLID
  8
0
 62
7
  6
CONTINUOUS
 10
149.8628043005
 20
31.0454914852
 11
149.9784292936
 21
30.8841729058
 12
149.6315543091
 22
30.9164372091
 13
149.6315543091
 23
30.9164372091
  0
SOLID
  8
0
 62
7
  6
CONTINUOUS
 10
149.7471793074
 20
30.7873813202
 11
149.6315543091
 21
30.9164372091
 12
149.9784292936
 22
30.8841729058
 13
149.9784292936
 23
30.8841729058
  0
SOLID
  8
0
 62
7
  6
CONTINUOUS
 10
149.9784292936
 20
30.8841729058
 11
150.1518667936
 21
30.7873813202
 12
149.7471793074
 22
30.7873813202
 13
149.7471793074
 23
30.7873813202
  0
SOLID
  8
0
 62
7
  6
CONTINUOUS
 10
149.8628043005
 20
30.7228547004
 11
149.7471793074
 21
30.7873813202
 12
150.1518667936
 22
30.7873813202
 13
150.1518667936
 23
30.7873813202
  0
SOLID
  8
0
 62
7
  6
CONTINUOUS
 10
150.1518667936
 20
30.7873813202
 11
150.498741835
 21
30.7228547004
 12
149.8628043005
 22
30.7228547004
 13
149.8628043005
 23
30.7228547004
  0
SOLID
  8
0
 62
7
  6
CONTINUOUS
 10
150.0362418212
 20
30.658327332
 11
149.8628043005
 21
30.7228547004
 12
150.498741835
 22
30.7228547004
 13
150.498741835
 23
30.7228547004
  0
SOLID
  8
0
 62
7
  6
CONTINUOUS
 10
154.0831168074
 20
31.1100184386
 11
154.1987416972
 21
31.1745462761
 12
154.7768668074
 22
31.1422827828
 13
154.7768668074
 23
31.1422827828
  0
SOLID
  8
0
 62
7
  6
CONTINUOUS
 10
154.7768668074
 20
31.1422827828
 11
154.5456166972
 21
31.1100184386
 12
154.0831168074
 22
31.1100184386
 13
154.0831168074
 23
31.1100184386
  0
SOLID
  8
0
 62
7
  6
CONTINUOUS
 10
153.9674919177
 20
30.9809642992
 11
154.0831168074
 21
31.1100184386
 12
154.5456166972
 22
31.1100184386
 13
154.5456166972
 23
31.1100184386
  0
SOLID
  8
0
 62
7
  6
CONTINUOUS
 10
154.3143669177
 20
31.0132277988
 11
153.9674919177
 21
30.9809642992
 12
154.4299918074
 22
31.0777556927
 13
154.4299918074
 23
31.0777556927
  0
SOLID
  8
0
 62
7
  6
CONTINUOUS
 10
153.9674919177
 20
30.9809642992
 11
154.5456166972
 21
31.1100184796
 12
154.4299918074
 22
31.0777556927
 13
154.4299918074
 23
31.0777556927
  0
SOLID
  8
0
 62
7
  6
CONTINUOUS
 10
154.3143669177
 20
31.0132277988
 11
154.2565543074
 21
30.9164372091
 12
153.9674919177
 22
30.9809642992
 13
153.9674919177
 23
30.9809642992
  0
SOLID
  8
0
 62
7
  6
CONTINUOUS
 10
153.9674919177
 20
30.8841729058
 11
153.9674919177
 21
30.9809642992
 12
154.2565543074
 22
30.9164372091
 13
154.2565543074
 23
30.9164372091
  0
SOLID
  8
0
 62
7
  6
CONTINUOUS
 10
154.2565543074
 20
30.9164372091
 11
154.2565543074
 21
30.8519086025
 12
153.9674919177
 22
30.8841729058
 13
153.9674919177
 23
30.8841729058
  0
SOLID
  8
0
 62
7
  6
CONTINUOUS
 10
154.0253041972
 20
30.7551187255
 11
153.9674919177
 21
30.8841729058
 12
154.2565543074
 22
30.8519086025
 13
154.2565543074
 23
30.8519086025
  0
SOLID
  8
0
 62
7
  6
CONTINUOUS
 10
155.412804528
 20
30.9487004259
 11
155.7018665869
 21
30.8519086025
 12
155.3549915869
 22
30.8841729058
 13
155.3549915869
 23
30.8841729058
  0
SOLID
  8
0
 62
7
  6
CONTINUOUS
 10
155.1815540869
 20
30.7873815123
 11
155.3549915869
 21
30.8841729058
 12
155.7018665869
 22
30.8519086025
 13
155.7018665869
 23
30.8519086025
  0
SOLID
  8
0
 62
7
  6
CONTINUOUS
 10
155.1815540869
 20
30.7873815123
 11
155.7018665869
 21
30.8519086025
 12
155.412804528
 22
30.7551187255
 13
155.412804528
 23
30.7551187255
  0
SOLID
  8
0
 62
7
  6
CONTINUOUS
 10
155.7018665869
 20
30.8519086025
 11
155.759679528
 21
30.6905916353
 12
155.412804528
 22
30.7551187255
 13
155.412804528
 23
30.7551187255
  0
SOLID
  8
0
 62
7
  6
CONTINUOUS
 10
155.4706168074
 20
30.658327332
 11
155.412804528
 21
30.7551187255
 12
155.759679528
 22
30.6905916353
 13
155.759679528
 23
30.6905916353
  0
SOLID
  8
0
 62
7
  6
CONTINUOUS
 10
155.4706168074
 20
30.658327332
 11
155.759679528
 21
30.6905916353
 12
155.5284290869
 22
30.5938002079
 13
155.5284290869
 23
30.5938002079
  0
SOLID
  8
0
 62
7
  6
CONTINUOUS
 10
155.759679528
 20
30.6905916353
 11
155.8174918074
 21
30.5938002079
 12
155.5284290869
 22
30.5938002079
 13
155.5284290869
 23
30.5938002079
  0
SOLID
  8
0
 62
7
  6
CONTINUOUS
 10
151.0768668626
 20
30.8196456577
 11
151.1346793074
 21
30.9164373395
 12
151.4237418626
 22
30.9164373395
 13
151.4237418626
 23
30.9164373395
  0
SOLID
  8
0
 62
7
  6
CONTINUOUS
 10
151.4237418626
 20
30.9164373395
 11
151.3659292523
 21
30.7873815123
 12
151.0768668626
 22
30.8196456577
 13
151.0768668626
 23
30.8196456577
  0
SOLID
  8
0
 62
7
  6
CONTINUOUS
 10
150.9034292799
 20
30.7551187255
 11
151.0768668626
 21
30.8196456577
 12
151.3659292523
 22
30.7873815123
 13
151.3659292523
 23
30.7873815123
  0
SOLID
  8
0
 62
7
  6
CONTINUOUS
 10
150.9034292799
 20
30.7551187255
 11
151.3659292523
 21
30.7873815123
 12
150.498741835
 22
30.7228544222
 13
150.498741835
 23
30.7228544222
  0
SOLID
  8
0
 62
7
  6
CONTINUOUS
 10
151.3659292523
 20
30.7873815123
 11
151.1924917523
 21
30.6905916353
 12
150.498741835
 22
30.7228544222
 13
150.498741835
 23
30.7228544222
  0
SOLID
  8
0
 62
7
  6
CONTINUOUS
 10
150.0362418212
 20
30.658327332
 11
150.498741835
 21
30.7228544222
 12
151.1924917523
 22
30.6905916353
 13
151.1924917523
 23
30.6905916353
  0
SOLID
  8
0
 62
7
  6
CONTINUOUS
 10
150.0362418212
 20
30.658327332
 11
151.1924917523
 21
30.6905916353
 12
150.2096793212
 22
30.6260631011
 13
150.2096793212
 23
30.6260631011
  0
SOLID
  8
0
 62
7
  6
CONTINUOUS
 10
151.1924917523
 20
30.6905916353
 11
150.9612418074
 21
30.6260631011
 12
150.2096793212
 22
30.6260631011
 13
150.2096793212
 23
30.6260631011
  0
SOLID
  8
0
 62
7
  6
CONTINUOUS
 10
150.5565542799
 20
30.5938002419
 11
150.2096793212
 21
30.6260631011
 12
150.9612418074
 22
30.6260631011
 13
150.9612418074
 23
30.6260631011
  0
SOLID
  8
0
 62
7
  6
CONTINUOUS
 10
154.0253041972
 20
30.7551187255
 11
154.2565543074
 21
30.8519086025
 12
154.3143669177
 22
30.7873815123
 13
154.3143669177
 23
30.7873815123
  0
SOLID
  8
0
 62
7
  6
CONTINUOUS
 10
154.3143669177
 20
30.7873815123
 11
154.5456166972
 21
30.7228544222
 12
154.0253041972
 22
30.7551187255
 13
154.0253041972
 23
30.7551187255
  0
SOLID
  8
0
 62
7
  6
CONTINUOUS
 10
154.1987416972
 20
30.658327332
 11
154.0253041972
 21
30.7551187255
 12
154.5456166972
 22
30.7228544222
 13
154.5456166972
 23
30.7228544222
  0
SOLID
  8
0
 62
7
  6
CONTINUOUS
 10
154.8924916972
 20
30.7228544637
 11
155.1815540869
 21
30.7873815123
 12
155.412804528
 22
30.7551187255
 13
155.412804528
 23
30.7551187255
  0
SOLID
  8
0
 62
7
  6
CONTINUOUS
 10
155.412804528
 20
30.7551187255
 11
155.3549915869
 21
30.6905916353
 12
154.8924916972
 22
30.7228544637
 13
154.8924916972
 23
30.7228544637
  0
SOLID
  8
0
 62
7
  6
CONTINUOUS
 10
155.3549915869
 20
30.6905916353
 11
154.1987416972
 21
30.658327332
 12
154.8924916972
 22
30.7228544637
 13
154.8924916972
 23
30.7228544637
  0
SOLID
  8
0
 62
7
  6
CONTINUOUS
 10
154.1987416972
 20
30.658327332
 11
154.5456166972
 21
30.7228544637
 12
154.8924916972
 22
30.7228544637
 13
154.8924916972
 23
30.7228544637
  0
SOLID
  8
0
 62
7
  6
CONTINUOUS
 10
154.1987416972
 20
30.658327332
 11
155.3549915869
 21
30.6905916353
 12
154.3143669177
 22
30.6260630541
 13
154.3143669177
 23
30.6260630541
  0
SOLID
  8
0
 62
7
  6
CONTINUOUS
 10
155.3549915869
 20
30.6905916353
 11
155.1815540869
 21
30.6260630541
 12
154.3143669177
 22
30.6260630541
 13
154.3143669177
 23
30.6260630541
  0
SOLID
  8
0
 62
7
  6
CONTINUOUS
 10
154.5456166972
 20
30.5938002188
 11
154.3143669177
 21
30.6260630541
 12
155.1815540869
 22
30.6260630541
 13
155.1815540869
 23
30.6260630541
  0
SOLID
  8
0
 62
7
  6
CONTINUOUS
 10
155.1815540869
 20
30.6260630541
 11
154.8924916972
 21
30.5938002188
 12
154.5456166972
 22
30.5938002188
 13
154.5456166972
 23
30.5938002188
  0
SOLID
  8
0
 62
7
  6
CONTINUOUS
 10
159.575304528
 20
30.7551187255
 11
159.228429528
 21
30.7228544637
 12
159.4596793074
 22
30.7873815123
 13
159.4596793074
 23
30.7873815123
  0
SOLID
  8
0
 62
7
  6
CONTINUOUS
 10
159.4596793074
 20
30.7873815123
 11
159.228429528
 21
30.7228544637
 12
159.401867028
 22
30.851908644
 13
159.401867028
 23
30.851908644
  0
SOLID
  8
0
 62
7
  6
CONTINUOUS
 10
159.228429528
 20
30.7228544637
 11
159.1128043074
 21
30.851908644
 12
159.401867028
 22
30.851908644
 13
159.401867028
 23
30.851908644
  0
SOLID
  8
0
 62
7
  6
CONTINUOUS
 10
159.575304528
 20
30.7551187255
 11
159.922179528
 21
30.7228544637
 12
159.228429528
 22
30.7228544637
 13
159.228429528
 23
30.7228544637
  0
SOLID
  8
0
 62
7
  6
CONTINUOUS
 10
156.279992028
 20
30.5938002419
 11
156.279992028
 21
31.6262382337
 12
156.5690540869
 22
30.5938002419
 13
156.5690540869
 23
31.6262382337
  0
ENDBLK
  8
0
  6
BYBLOCK
 62
0
  0
BLOCK
  8
0
 62
2
  6
CONTINUOUS
  2
SYMBOL_3_BL0
 70
64
 10
32.1213064866
 20
19.8534310916
  0
TEXT
  8
0
 62
7
  6
CONTINUOUS
 10
18.3860103289
 20
19.2268451992
  7
TEXTSTYLE_3
 40
2.7338706658
  1
Ammeraal Beltech
 41
1.0
 51
15.0
 72
0
  0
TEXT
  8
0
 62
7
  6
CONTINUOUS
 10
29.1868111546
 20
16.9533085264
  7
TEXTSTYLE_4
 40
1.0935482663
  1
Innovation & Service in Belting
 41
1.0
 72
0
  0
LINE
  8
0
 62
7
  6
CONTINUOUS
 10
12.3614696776
 20
19.9934385078
 11
13.1396216709
 21
23.6543558055
  0
LINE
  8
0
 62
7
  6
CONTINUOUS
 10
23.2347899607
 20
27.3177497171
 11
13.6274394139
 21
24.1961322958
  0
LINE
  8
0
 62
7
  6
CONTINUOUS
 10
12.5867530099
 20
19.3000877048
 11
20.093828271
 21
12.5406867788
  0
LINE
  8
0
 62
7
  6
CONTINUOUS
 10
12.8492874206
 20
20.5352149982
 11
23.6575567857
 21
24.0470345971
  0
LINE
  8
0
 62
7
  6
CONTINUOUS
 10
23.6533516486
 20
13.6972460334
 11
15.2078919798
 21
21.3015720751
  0
LINE
  8
0
 62
7
  6
CONTINUOUS
 10
24.1731743684
 20
26.4728246013
 11
23.1966148312
 21
21.8784731989
  0
LINE
  8
0
 62
7
  6
CONTINUOUS
 10
22.4968128835
 20
18.5861638851
 11
21.810364672
 21
15.3566789607
  0
LINE
  8
0
 62
7
  6
CONTINUOUS
 10
24.8542704669
 20
14.087448211
 11
25.8105020025
 21
18.5861638851
  0
LINE
  8
0
 62
7
  6
CONTINUOUS
 10
26.5103039502
 20
21.8784731989
 11
26.9545457526
 21
23.9684665583
  0
LINE
  8
0
 62
7
  6
CONTINUOUS
 10
20.8069293463
 20
12.3891124661
 11
24.3664527239
 21
13.5456717207
  0
LINE
  8
0
 62
7
  6
CONTINUOUS
 10
23.9478910361
 20
27.1661754044
 11
26.7292624203
 21
24.6618173613
  0
ARC
  8
0
 62
7
  6
CONTINUOUS
 10
13.8527227462
 20
23.5027814928
 40
0.7290321776
 50
108.0
 51
168.0
  0
ARC
  8
0
 62
7
  6
CONTINUOUS
 10
23.4600732931
 20
26.624398914
 40
0.7290321776
 50
348.0
 51
108.0
  0
ARC
  8
0
 62
7
  6
CONTINUOUS
 10
26.2414446773
 20
24.120040871
 40
0.7290321776
 50
348.0
 51
48.0
  0
ARC
  8
0
 62
7
  6
CONTINUOUS
 10
20.581646014
 20
13.0824632691
 40
0.7290321776
 50
228.0
 51
288.0
  0
ARC
  8
0
 62
7
  6
CONTINUOUS
 10
13.0745707529
 20
19.8418641951
 40
0.7290321776
 50
108.0
 51
228.0
  0
ARC
  8
0
 62
7
  6
CONTINUOUS
 10
24.1411693916
 20
14.2390225237
 40
0.7290321776
 50
228.0
 51
348.0
  0
ENDBLK
  8
0
  6
BYBLOCK
 62
0
  0
ENDSEC
  0
SECTION
  2
ENTITIES
  0
TEXT
  8
0
 62
5
  6
CONTINUOUS
 10
96.0
 20
25.636
  7
TEXTSTYLE_2
 40
2.8
  1
Scale :
 41
0.6
 51
0.000019
 72
0
  0
TEXT
  8
0
 62
5
  6
CONTINUOUS
 10
116.0
 20
25.636
  7
TEXTSTYLE_2
 40
2.8
  1
Belt type:
 41
0.6
 51
0.000019
 72
0
  0
INSERT
  8
0
 62
2
  6
CONTINUOUS
  2
SYMBOL_3_BL0
 10
32.1213064866
 20
19.8534310916
  0
INSERT
  8
0
 62
2
  6
CONTINUOUS
  2
SYMBOL_8_BL1
 10
173.5956734183
 20
35.5937998301
  0
LINE
  8
0
 62
2
  6
CONTINUOUS
 10
10.0
 20
30.0
 11
200.0
 21
30.0
  0
LINE
  8
0
 62
2
  6
CONTINUOUS
 10
10.0
 20
30.0
 11
10.0
 21
10.0
  0
LINE
  8
0
 62
2
  6
CONTINUOUS
 10
10.0
 20
10.0
 11
200.0
 21
10.0
  0
LINE
  8
0
 62
2
  6
CONTINUOUS
 10
95.0
 20
30.0
 11
95.0
 21
10.0
  0
LINE
  8
0
 62
2
  6
CONTINUOUS
 10
115.0
 20
30.0
 11
115.0
 21
10.0
  0
LINE
  8
0
 62
2
  6
CONTINUOUS
 10
200.0
 20
30.0
 11
200.0
 21
10.0
  0
TEXT
  8
0
 62
5
  6
CONTINUOUS
 10
13.0
 20
23.303
  7
TEXTSTYLE_5
 40
1.52
  1
                                                                     Ammeraal Beltech Modular A/S
 41
1.0
 72
0
  0
TEXT
  8
0
 62
5
  6
CONTINUOUS
 10
13.0
 20
20.595
  7
TEXTSTYLE_5
 40
1.5
  1
                                                                      Hjulmagervej 21,  7100 Vejle,  DK
 41
1.0
 72
0
  0
TEXT
  8
0
 62
5
  6
CONTINUOUS
 10
13.0
 20
17.881
  7
TEXTSTYLE_5
 40
1.495
  1
                                                                      tel: 
 41
1.0
 72
0
  0
TEXT
  8
0
 62
5
  6
CONTINUOUS
 10
57.9869465649
 20
17.881
  7
TEXTSTYLE_5
 40
1.51
  1
+45 75723100     fax: +45 75723348
 41
1.0
 72
0
  0
TEXT
  8
0
 62
5
  6
CONTINUOUS
 10
13.0
 20
15.177
  7
TEXTSTYLE_5
 40
1.5
  1
                                                                      admin@unichains.dk  www.unichains.com
 41
1.0
 72
0
  0
TEXT
  8
0
 62
5
  6
CONTINUOUS
 10
99.75
 20
13.75
  7
TEXTSTYLE_6
 40
5.0
  1
1:1
 41
0.7
 72
1
 11
105.0
 21
13.75
  0
TEXT
  8
0
 62
5
  6
CONTINUOUS
 10
118.0
 20
13.75
  7
TEXTSTYLE_7
 40
7.5
  1
Sprocket Z08
 41
0.6694444444
 72
0
  0
LINE
  8
0
 62
7
  6
CONTINUOUS
 10
210.0
 20
0.0
 11
0.0
 21
0.0
  0
LINE
  8
0
 62
7
  6
CONTINUOUS
 10
10.0
 20
10.0
 11
200.0
 21
10.0
  0
LINE
  8
0
 62
7
  6
CONTINUOUS
 10
10.0
 20
30.0
 11
200.0
 21
30.0
  0
LINE
  8
0
 62
7
  6
CONTINUOUS
 10
0.0
 20
0.0
 11
0.0
 21
297.0
  0
LINE
  8
0
 62
7
  6
CONTINUOUS
 10
10.0
 20
10.0
 11
10.0
 21
287.0
  0
LINE
  8
0
 62
7
  6
CONTINUOUS
 10
200.0
 20
287.0
 11
200.0
 21
10.0
  0
LINE
  8
0
 62
7
  6
CONTINUOUS
 10
210.0
 20
0.0
 11
210.0
 21
297.0
  0
LINE
  8
0
 62
7
  6
CONTINUOUS
 10
10.0
 20
287.0
 11
200.0
 21
287.0
  0
LINE
  8
0
 62
7
  6
CONTINUOUS
 10
0.0
 20
297.0
 11
210.0
 21
297.0
  0
LINE
  8
0
 62
7
  6
CONTINUOUS
 10
48.0672200352
 20
162.9417790127
 11
49.0120353164
 21
162.5302198694
  0
LINE
  8
0
 62
7
  6
CONTINUOUS
 10
35.7497012269
 20
208.6792197081
 11
36.1267702582
 21
207.7201181547
  0
LINE
  8
0
 62
7
  6
CONTINUOUS
 10
43.7984354486
 20
174.7800843255
 11
43.7984354486
 21
204.6790598413
  0
LINE
  8
0
 62
7
  6
CONTINUOUS
 10
59.38115462
 20
249.7302752547
 11
58.9695954767
 21
248.7854599734
  0
LINE
  8
0
 62
7
  6
CONTINUOUS
 10
41.1021606628
 20
220.0686522012
 11
62.2439290005
 21
241.2104205389
  0
LINE
  8
0
 62
7
  6
CONTINUOUS
 10
105.1185953154
 20
262.047794063
 11
104.159493762
 21
261.6707250317
  0
LINE
  8
0
 62
7
  6
CONTINUOUS
 10
88.2699670508
 20
249.8912283396
 11
87.7747571875
 21
249.6979609037
  0
LINE
  8
0
 62
7
  6
CONTINUOUS
 10
80.1633342093
 20
247.7172608991
 11
79.6742862738
 21
247.5380982048
  0
LINE
  8
0
 62
7
  6
CONTINUOUS
 10
79.8572609883
 20
247.0386448632
 11
80.3463089237
 21
247.2178075574
  0
LINE
  8
0
 62
7
  6
CONTINUOUS
 10
123.0174109643
 20
147.3590598413
 11
93.1184354486
 21
147.3590598413
  0
LINE
  8
0
 62
7
  6
CONTINUOUS
 10
77.7288430887
 20
144.6627850554
 11
56.587074751
 21
165.8045533931
  0
LINE
  8
0
 62
7
  6
CONTINUOUS
 10
75.8221121864
 20
240.9257429522
 11
75.5062393912
 21
240.6339335127
  0
LINE
  8
0
 62
7
  6
CONTINUOUS
 10
75.708695554
 20
240.2596489936
 11
76.0245683625
 21
240.5514584085
  0
LINE
  8
0
 62
7
  6
CONTINUOUS
 10
77.9182671862
 20
245.112442126
 11
77.5779800119
 21
244.8495100983
  0
LINE
  8
0
 62
7
  6
CONTINUOUS
 10
77.7467726814
 20
244.4588870035
 11
78.0870598556
 21
244.7218190312
  0
LINE
  8
0
 62
7
  6
CONTINUOUS
 10
87.7747571875
 20
249.6979609037
 11
87.400264496
 21
249.4175409582
  0
LINE
  8
0
 62
7
  6
CONTINUOUS
 10
75.3717504859
 20
243.9477592863
 11
74.9136417278
 21
243.6999613236
  0
LINE
  8
0
 62
7
  6
CONTINUOUS
 10
73.0812071213
 20
242.7087697032
 11
72.6230984614
 21
242.4609717936
  0
LINE
  8
0
 62
7
  6
CONTINUOUS
 10
75.5062393912
 20
240.6339335127
 11
75.1397524109
 21
240.4356951567
  0
LINE
  8
0
 62
7
  6
CONTINUOUS
 10
75.3422085737
 20
240.0614106376
 11
75.708695554
 21
240.2596489936
  0
LINE
  8
0
 62
7
  6
CONTINUOUS
 10
76.7165345859
 20
240.8048043839
 11
77.174643344
 21
241.0526023466
  0
LINE
  8
0
 62
7
  6
CONTINUOUS
 10
87.9857847519
 20
249.0866162351
 11
88.378339522
 21
249.2621977488
  0
LINE
  8
0
 62
7
  6
CONTINUOUS
 10
90.3269559196
 20
245.9276057214
 11
89.9344011495
 21
245.7520242077
  0
LINE
  8
0
 62
7
  6
CONTINUOUS
 10
78.3007525277
 20
245.27771838
 11
77.9182671862
 21
245.112442126
  0
LINE
  8
0
 62
7
  6
CONTINUOUS
 10
77.0576755779
 20
244.7405707317
 11
76.5795690377
 21
244.5339754733
  0
LINE
  8
0
 62
7
  6
CONTINUOUS
 10
77.9299105118
 20
241.4089904417
 11
78.408017052
 21
241.6155857001
  0
LINE
  8
0
 62
7
  6
CONTINUOUS
 10
80.1292002684
 20
242.3593284887
 11
80.607306535
 21
242.5659236289
  0
LINE
  8
0
 62
7
  6
CONTINUOUS
 10
95.0312857401
 20
248.6225784324
 11
94.726245607
 21
248.4963876932
  0
LINE
  8
0
 62
7
  6
CONTINUOUS
 10
90.0427736333
 20
245.1229935435
 11
90.537983495
 21
245.3162609886
  0
LINE
  8
0
 62
7
  6
CONTINUOUS
 10
80.7122584551
 20
246.2189005943
 11
80.2232105197
 21
246.0397379001
  0
LINE
  8
0
 62
7
  6
CONTINUOUS
 10
81.3942487945
 20
242.8432362338
 11
81.88329673
 21
243.022398928
  0
LINE
  8
0
 62
7
  6
CONTINUOUS
 10
100.0276888688
 20
248.5797217591
 11
99.7111810775
 21
248.4859326153
  0
LINE
  8
0
 62
7
  6
CONTINUOUS
 10
99.938265937
 20
246.3474696502
 11
99.6217581457
 21
246.2536805065
  0
LINE
  8
0
 62
7
  6
CONTINUOUS
 10
75.9957493163
 20
241.2615639446
 11
75.8221121864
 21
240.9257429522
  0
LINE
  8
0
 62
7
  6
CONTINUOUS
 10
77.5779800119
 20
244.8495100983
 11
77.3755127508
 21
244.5302415377
  0
LINE
  8
0
 62
7
  6
CONTINUOUS
 10
77.5443054203
 20
244.1396184429
 11
77.7467726814
 21
244.4588870035
  0
LINE
  8
0
 62
7
  6
CONTINUOUS
 10
76.0245683625
 20
240.5514584085
 11
76.1571978775
 21
240.7441487517
  0
LINE
  8
0
 62
7
  6
CONTINUOUS
 10
87.7139459789
 20
248.8238820095
 11
87.9857847519
 21
249.0866162351
  0
LINE
  8
0
 62
7
  6
CONTINUOUS
 10
90.59879468
 20
246.1903400204
 11
90.3269559196
 21
245.9276057214
  0
LINE
  8
0
 62
7
  6
CONTINUOUS
 10
95.1761441599
 20
247.9922682112
 11
95.5715026088
 21
248.3374630684
  0
LINE
  8
0
 62
7
  6
CONTINUOUS
 10
90.537983495
 20
245.3162609886
 11
90.9124761818
 21
245.5966809616
  0
LINE
  8
0
 62
7
  6
CONTINUOUS
 10
100.3229054881
 20
248.1420223586
 11
100.5353316819
 21
248.2399809604
  0
LINE
  8
0
 62
7
  6
CONTINUOUS
 10
113.4663950689
 20
245.1206664353
 11
113.963896188
 21
245.287880158
  0
LINE
  8
0
 62
7
  6
CONTINUOUS
 10
76.1571978775
 20
240.7441487517
 11
76.2802208134
 21
241.173540844
  0
LINE
  8
0
 62
7
  6
CONTINUOUS
 10
77.3755127508
 20
244.5302415377
 11
77.2686664148
 21
244.2522918633
  0
LINE
  8
0
 62
7
  6
CONTINUOUS
 10
77.4374590843
 20
243.8616687685
 11
77.5443054203
 21
244.1396184429
  0
LINE
  8
0
 62
7
  6
CONTINUOUS
 10
87.400264496
 20
249.4175409582
 11
87.0618959615
 21
248.9274441491
  0
LINE
  8
0
 62
7
  6
CONTINUOUS
 10
90.9124761818
 20
245.5966809616
 11
91.25084471
 21
246.0867778074
  0
LINE
  8
0
 62
7
  6
CONTINUOUS
 10
95.2255573977
 20
248.8482580836
 11
95.0312857401
 21
248.6225784324
  0
LINE
  8
0
 62
7
  6
CONTINUOUS
 10
100.2443732971
 20
248.7839780697
 11
100.0276888688
 21
248.5797217591
  0
LINE
  8
0
 62
7
  6
CONTINUOUS
 10
100.1549503683
 20
246.5517260353
 11
99.938265937
 21
246.3474696502
  0
LINE
  8
0
 62
7
  6
CONTINUOUS
 10
100.0168005076
 20
245.7055137785
 11
100.4459087487
 21
246.0077288143
  0
LINE
  8
0
 62
7
  6
CONTINUOUS
 10
113.8402525029
 20
245.8922822392
 11
113.5742974444
 21
245.7583430911
  0
LINE
  8
0
 62
7
  6
CONTINUOUS
 10
118.4508108565
 20
243.9084989384
 11
118.172368452
 21
243.8029403799
  0
LINE
  8
0
 62
7
  6
CONTINUOUS
 10
117.5122874139
 20
241.8811560091
 11
117.233844978
 21
241.775597383
  0
LINE
  8
0
 62
7
  6
CONTINUOUS
 10
140.7239150398
 20
177.9303652495
 11
141.2424015705
 21
178.0298907986
  0
LINE
  8
0
 62
7
  6
CONTINUOUS
 10
133.6429835259
 20
170.3486326341
 11
134.0865991542
 21
170.4007617387
  0
LINE
  8
0
 62
7
  6
CONTINUOUS
 10
133.9409648497
 20
170.9082302271
 11
133.6452230413
 21
170.8734800062
  0
LINE
  8
0
 62
7
  6
CONTINUOUS
 10
135.0535360088
 20
169.3902840842
 11
135.5813301988
 21
169.3773647054
  0
LINE
  8
0
 62
7
  6
CONTINUOUS
 10
76.0271505966
 20
241.6413965175
 11
75.9957493163
 21
241.2615639446
  0
LINE
  8
0
 62
7
  6
CONTINUOUS
 10
87.5628232534
 20
248.4739947783
 11
87.7139459789
 21
248.8238820095
  0
LINE
  8
0
 62
7
  6
CONTINUOUS
 10
95.5715026088
 20
248.3374630684
 11
95.8560902029
 21
248.7821466848
  0
LINE
  8
0
 62
7
  6
CONTINUOUS
 10
100.5353316819
 20
248.2399809604
 11
100.8646141766
 21
248.6526632307
  0
LINE
  8
0
 62
7
  6
CONTINUOUS
 10
100.4459087487
 20
246.0077288143
 11
100.7751912448
 21
246.4204111218
  0
LINE
  8
0
 62
7
  6
CONTINUOUS
 10
113.963896188
 20
245.287880158
 11
114.3972411575
 21
245.5894522967
  0
LINE
  8
0
 62
7
  6
CONTINUOUS
 10
118.5109395835
 20
243.2945167133
 11
118.9732926163
 21
243.5493956856
  0
LINE
  8
0
 62
7
  6
CONTINUOUS
 10
117.5724160939
 20
241.2671736826
 11
118.0347691423
 21
241.5220526887
  0
LINE
  8
0
 62
7
  6
CONTINUOUS
 10
134.354799608
 20
173.8795329371
 11
133.8270053885
 21
173.8924523387
  0
LINE
  8
0
 62
7
  6
CONTINUOUS
 10
135.4356958944
 20
169.8848331938
 11
135.0557696929
 21
169.9151239101
  0
LINE
  8
0
 62
7
  6
CONTINUOUS
 10
133.9726397224
 20
173.3849838275
 11
134.3525601516
 21
173.3546855195
  0
LINE
  8
0
 62
7
  6
CONTINUOUS
 10
87.0618959615
 20
248.9274441491
 11
86.928835264
 21
248.4727187797
  0
LINE
  8
0
 62
7
  6
CONTINUOUS
 10
103.4905352737
 20
249.2011856098
 11
101.8269142345
 21
246.7233912001
  0
LINE
  8
0
 62
7
  6
CONTINUOUS
 10
102.111614893
 20
246.4746521261
 11
103.7752358964
 21
248.95244624
  0
LINE
  8
DEFAULT_1
 62
2
  6
CENTER
 10
78.363957849
 20
212.471595189
 11
85.3259001009
 21
219.4335374408
  0
LINE
  8
DEFAULT_1
 62
2
  6
CENTER
 10
92.9861307661
 20
224.8310264063
 11
89.4505968602
 21
221.2954925003
  0
LINE
  8
DEFAULT_1
 62
2
  6
CENTER
 10
72.9664688836
 20
204.8113645237
 11
76.5020027895
 21
208.3468984297
  0
LINE
  8
0
 62
7
  6
CONTINUOUS
 10
160.9967768485
 20
183.7790598413
 11
159.1451178745
 21
183.7790598413
  0
LINE
  8
0
 62
7
  6
CONTINUOUS
 10
140.3909544115
 20
177.9733140078
 11
140.7239150398
 21
177.9303652495
  0
LINE
  8
0
 62
7
  6
CONTINUOUS
 10
133.0947060321
 20
170.5090278634
 11
133.6429835259
 21
170.3486326341
  0
LINE
  8
DEFAULT_1
 62
2
  6
CENTER
 10
78.363957849
 20
188.8865244935
 11
85.3259001009
 21
181.9245822417
  0
LINE
  8
DEFAULT_1
 62
2
  6
CENTER
 10
89.4505968602
 20
180.0626271822
 11
92.9861307661
 21
176.5270932763
  0
LINE
  8
DEFAULT_1
 62
2
  6
CENTER
 10
76.5020027895
 20
193.0112212529
 11
72.9664688836
 21
196.5467551588
  0
LINE
  8
0
 62
7
  6
CONTINUOUS
 10
80.2184354486
 20
138.6523774154
 11
80.2184354486
 21
136.8007184414
  0
LINE
  8
0
 62
7
  6
CONTINUOUS
 10
87.532417649
 20
248.0369553312
 11
87.5628232534
 21
248.4739947783
  0
LINE
  8
0
 62
7
  6
CONTINUOUS
 10
90.6472635376
 20
246.5225412381
 11
90.59879468
 21
246.1903400204
  0
LINE
  8
0
 62
7
  6
CONTINUOUS
 10
95.3090558213
 20
249.1734263412
 11
95.2255573977
 21
248.8482580836
  0
LINE
  8
0
 62
7
  6
CONTINUOUS
 10
95.8560902029
 20
248.7821466848
 11
95.9395886264
 21
249.1073149424
  0
LINE
  8
0
 62
7
  6
CONTINUOUS
 10
100.3612295979
 20
249.0987017381
 11
100.2443732971
 21
248.7839780697
  0
LINE
  8
0
 62
7
  6
CONTINUOUS
 10
100.8646141766
 20
248.6526632307
 11
100.9814704773
 21
248.9673868991
  0
LINE
  8
0
 62
7
  6
CONTINUOUS
 10
100.271806669
 20
246.8664497037
 11
100.1549503683
 21
246.5517260353
  0
LINE
  8
0
 62
7
  6
CONTINUOUS
 10
100.7751912448
 20
246.4204111218
 11
100.8920475485
 21
246.7351348647
  0
LINE
  8
0
 62
7
  6
CONTINUOUS
 10
109.1906090263
 20
249.2249559743
 11
106.7209493374
 21
245.1868906343
  0
LINE
  8
0
 62
7
  6
CONTINUOUS
 10
107.0160640613
 20
244.5790661924
 11
109.2717226373
 21
248.1191484058
  0
LINE
  8
0
 62
7
  6
CONTINUOUS
 10
114.0420514117
 20
246.1605798032
 11
113.8402525029
 21
245.8922822392
  0
LINE
  8
0
 62
7
  6
CONTINUOUS
 10
114.3972411575
 20
245.5894522967
 11
114.5990400664
 21
245.8577498607
  0
LINE
  8
0
 62
7
  6
CONTINUOUS
 10
118.6794130742
 20
244.1543594853
 11
118.4508108565
 21
243.9084989384
  0
LINE
  8
0
 62
7
  6
CONTINUOUS
 10
118.9732926163
 20
243.5493956856
 11
119.201894834
 21
243.7952562325
  0
LINE
  8
0
 62
7
  6
CONTINUOUS
 10
117.7408896316
 20
242.127016556
 11
117.5122874139
 21
241.8811560091
  0
LINE
  8
0
 62
7
  6
CONTINUOUS
 10
118.0347691423
 20
241.5220526887
 11
118.2633713914
 21
241.7679133032
  0
LINE
  8
0
 62
7
  6
CONTINUOUS
 10
41.3088430887
 20
168.7696766855
 11
39.9995224717
 21
167.4603560685
  0
LINE
  8
0
 62
4
  6
CONTINUOUS
 10
94.1184354486
 20
188.3540598413
 11
100.1184354486
 21
188.3540598413
  0
LINE
  8
0
 62
7
  6
CONTINUOUS
 10
140.9922620855
 20
178.4948250471
 11
140.6593014571
 21
178.5377738054
  0
LINE
  8
0
 62
7
  6
CONTINUOUS
 10
134.3572061518
 20
175.329222743
 11
139.4892799933
 21
174.1293867293
  0
LINE
  8
0
 62
7
  6
CONTINUOUS
 10
139.3451057043
 20
174.7072249028
 11
136.4073439788
 21
175.4134843561
  0
LINE
  8
0
 62
7
  6
CONTINUOUS
 10
135.9903142157
 20
175.5476965541
 11
134.6846407146
 21
175.8615869107
  0
LINE
  8
0
 62
7
  6
CONTINUOUS
 10
134.9030771608
 20
173.7191376622
 11
134.354799608
 21
173.8795329371
  0
LINE
  8
0
 62
7
  6
CONTINUOUS
 10
43.4401920831
 20
205.158543998
 11
36.7728650444
 21
207.1296995172
  0
LINE
  8
0
 62
7
  6
CONTINUOUS
 10
134.7373050653
 20
169.5030021675
 11
135.0535360088
 21
169.3902840842
  0
LINE
  8
0
 62
7
  6
CONTINUOUS
 10
133.6452230413
 20
170.8734800062
 11
133.3289919799
 21
170.9861981805
  0
LINE
  8
0
 62
7
  6
CONTINUOUS
 10
134.3525601516
 20
173.3546855195
 11
134.668791095
 21
173.2419674362
  0
LINE
  8
0
 62
7
  6
CONTINUOUS
 10
130.3371392213
 20
143.5601468644
 11
129.0278186044
 21
144.8694674813
  0
LINE
  8
0
 62
7
  6
CONTINUOUS
 10
86.928835264
 20
248.4727187797
 11
86.9164917888
 21
247.9308406072
  0
LINE
  8
0
 62
7
  6
CONTINUOUS
 10
91.25084471
 20
246.0867778074
 11
91.2631893979
 21
246.6286559621
  0
LINE
  8
0
 62
7
  6
CONTINUOUS
 10
101.5979196053
 20
254.3573032068
 11
103.5690751245
 21
261.0246302454
  0
LINE
  8
0
 62
7
  6
CONTINUOUS
 10
138.242158958
 20
235.4678361037
 11
144.3504885538
 21
238.7885308307
  0
LINE
  8
0
 62
7
  6
CONTINUOUS
 10
135.5560224695
 20
173.3462255542
 11
134.9030771608
 21
173.7191376622
  0
LINE
  8
0
 62
7
  6
CONTINUOUS
 10
62.3296591861
 20
241.8027833507
 11
59.0089644591
 21
247.9111129465
  0
LINE
  8
0
 62
7
  6
CONTINUOUS
 10
91.9910820072
 20
250.4527868073
 11
92.311505156
 21
245.4630644698
  0
LINE
  8
0
 62
7
  6
CONTINUOUS
 10
92.9352204482
 20
245.5031173634
 11
92.7920526563
 21
247.7325678012
  0
LINE
  8
0
 62
7
  6
CONTINUOUS
 10
92.7511475783
 20
248.3695535556
 11
92.6488848643
 21
249.962018239
  0
LINE
  8
0
 62
4
  6
CONTINUOUS
 10
94.1184354486
 20
213.0040598413
 11
94.1184354486
 21
209.7192824602
  0
LINE
  8
0
 62
4
  6
CONTINUOUS
 10
94.1184354486
 20
191.6388372223
 11
94.1184354486
 21
188.3540598413
  0
LINE
  8
1_AXIS
 62
2
  6
CONTINUOUS
 10
97.1184354486
 20
201.5590598413
 11
97.1184354486
 21
199.7990598413
  0
LINE
  8
1_AXIS
 62
2
  6
CENTER
 10
97.1184354486
 20
196.2790598413
 11
97.1184354486
 21
132.685374574
  0
LINE
  8
1_AXIS
 62
2
  6
CENTER
 10
97.1184354486
 20
205.0790598413
 11
97.1184354486
 21
268.6727451085
  0
LINE
  8
0
 62
7
  6
CONTINUOUS
 10
97.194267725
 20
250.7161250687
 11
96.9941306833
 21
245.7201321579
  0
LINE
  8
0
 62
7
  6
CONTINUOUS
 10
97.6441792067
 20
246.3329013552
 11
97.7080527319
 21
247.927367211
  0
LINE
  8
0
 62
7
  6
CONTINUOUS
 10
97.7336021385
 20
248.565153464
 11
97.7932174323
 21
250.0533216855
  0
LINE
  8
0
 62
7
  6
CONTINUOUS
 10
105.219481017
 20
250.0817223272
 11
104.1649993519
 21
245.1941801619
  0
LINE
  8
0
 62
7
  6
CONTINUOUS
 10
104.7759421226
 20
245.0623699537
 11
105.6060660133
 21
248.9100096546
  0
LINE
  8
0
 62
7
  6
CONTINUOUS
 10
111.4682443719
 20
248.6143978601
 11
109.8509152496
 21
243.8831985924
  0
LINE
  8
0
 62
7
  6
CONTINUOUS
 10
110.4423151581
 20
243.6810324521
 11
111.1649515847
 21
245.7949725804
  0
LINE
  8
0
 62
7
  6
CONTINUOUS
 10
111.3714191076
 20
246.3989553937
 11
111.8875880112
 21
247.9089127087
  0
LINE
  8
0
 62
7
  6
CONTINUOUS
 10
116.3747012572
 20
246.8624970695
 11
114.2741962991
 21
242.3251102752
  0
LINE
  8
0
 62
7
  6
CONTINUOUS
 10
115.1095192169
 20
242.6417880214
 11
115.7798931536
 21
244.08989022
  0
LINE
  8
0
 62
7
  6
CONTINUOUS
 10
116.0480426908
 20
244.6691310183
 11
116.6737250694
 21
246.0206931515
  0
LINE
  8
0
 62
7
  6
CONTINUOUS
 10
119.6403858893
 20
242.3259238516
 11
119.3798465709
 21
241.8621859853
  0
LINE
  8
0
 62
7
  6
CONTINUOUS
 10
123.2958984746
 20
243.3297422968
 11
120.5052856808
 21
239.180949673
  0
LINE
  8
0
 62
7
  6
CONTINUOUS
 10
121.0238847588
 20
238.8321230738
 11
122.3301290559
 21
240.7741111262
  0
LINE
  8
0
 62
7
  6
CONTINUOUS
 10
122.6863774552
 20
241.303744164
 11
123.8144975526
 21
242.9809156975
  0
LINE
  8
0
 62
7
  6
CONTINUOUS
 10
144.0648640846
 20
218.0103354084
 11
143.55863063
 21
217.847053211
  0
LINE
  8
0
 62
7
  6
CONTINUOUS
 10
140.1162426421
 20
216.7367341082
 11
139.3062690438
 21
216.4754825694
  0
LINE
  8
0
 62
7
  6
CONTINUOUS
 10
143.5327403988
 20
208.4397543365
 11
144.4700363215
 21
208.6351527136
  0
LINE
  8
0
 62
7
  6
CONTINUOUS
 10
144.2595979213
 20
209.1233196922
 11
143.5305899814
 21
208.9713431767
  0
LINE
  8
0
 62
7
  6
CONTINUOUS
 10
142.9778664513
 20
211.6226728289
 11
143.7068743913
 21
211.7746493444
  0
LINE
  8
0
 62
7
  6
CONTINUOUS
 10
143.3405946526
 20
203.6032583535
 11
143.6580299033
 21
203.6362868381
  0
LINE
  8
0
 62
7
  6
CONTINUOUS
 10
145.4460493448
 20
203.927058779
 11
145.7634845955
 21
203.9600872635
  0
LINE
  8
0
 62
7
  6
CONTINUOUS
 10
143.604129574
 20
204.1543204318
 11
143.2866943233
 21
204.1212919472
  0
LINE
  8
0
 62
7
  6
CONTINUOUS
 10
145.7095842662
 20
204.4781208573
 11
145.4979607657
 21
204.4561018676
  0
LINE
  8
0
 62
7
  6
CONTINUOUS
 10
145.2392376058
 20
206.9426782944
 11
145.4508611062
 21
206.9646972841
  0
LINE
  8
0
 62
7
  6
CONTINUOUS
 10
143.0064102421
 20
206.8150894
 11
143.3238454928
 21
206.8481178846
  0
LINE
  8
1_AXIS
 62
2
  6
CONTINUOUS
 10
97.9984354486
 20
200.6790598413
 11
96.2384354486
 21
200.6790598413
  0
LINE
  8
1_AXIS
 62
2
  6
CENTER
 10
92.7184354486
 20
200.6790598413
 11
29.1247501813
 21
200.6790598413
  0
LINE
  8
1_AXIS
 62
2
  6
CENTER
 10
101.5184354486
 20
200.6790598413
 11
165.1121207158
 21
200.6790598413
  0
LINE
  8
0
 62
7
  6
CONTINUOUS
 10
140.0066411344
 20
178.1560184855
 11
140.3909544115
 21
177.9733140078
  0
LINE
  8
0
 62
7
  6
CONTINUOUS
 10
140.6593014571
 20
178.5377738054
 11
140.371066432
 21
178.6748021957
  0
LINE
  8
0
 62
7
  6
CONTINUOUS
 10
138.318597903
 20
182.5340319031
 11
140.3362414634
 21
181.5748339391
  0
LINE
  8
0
 62
7
  6
CONTINUOUS
 10
140.9127109752
 20
181.3007774145
 11
142.3538850239
 21
180.6156359752
  0
LINE
  8
0
 62
7
  6
CONTINUOUS
 10
132.6738131051
 20
170.8342703716
 11
133.0947060321
 21
170.5090278634
  0
LINE
  8
0
 62
7
  6
CONTINUOUS
 10
133.3289919799
 20
170.9861981805
 11
133.0764562945
 21
171.1813436308
  0
LINE
  8
0
 62
7
  6
CONTINUOUS
 10
134.668791095
 20
173.2419674362
 11
134.9213267805
 21
173.046821986
  0
LINE
  8
0
 62
7
  6
CONTINUOUS
 10
135.6584448196
 20
172.6088538483
 11
135.8268019433
 21
172.4787568815
  0
LINE
  8
0
 62
7
  6
CONTINUOUS
 10
72.6230984614
 20
242.4609717936
 11
73.6353792578
 21
240.5895492307
  0
LINE
  8
0
 62
7
  6
CONTINUOUS
 10
74.0934879176
 20
240.8373471402
 11
73.0812071213
 21
242.7087697032
  0
LINE
  8
0
 62
7
  6
CONTINUOUS
 10
74.9136417278
 20
243.6999613236
 11
76.0271505966
 21
241.6413965175
  0
LINE
  8
0
 62
7
  6
CONTINUOUS
 10
76.5795690377
 20
244.5339754733
 11
77.9299105118
 21
241.4089904417
  0
LINE
  8
0
 62
7
  6
CONTINUOUS
 10
78.408017052
 20
241.6155857001
 11
77.4374590843
 21
243.8616687685
  0
LINE
  8
0
 62
7
  6
CONTINUOUS
 10
77.2686664148
 20
244.2522918633
 11
77.0576755779
 21
244.7405707317
  0
LINE
  8
0
 62
7
  6
CONTINUOUS
 10
79.3274349702
 20
244.2147884623
 11
80.1292002684
 21
242.3593284887
  0
LINE
  8
0
 62
7
  6
CONTINUOUS
 10
79.6742862738
 20
247.5380982048
 11
79.8572609883
 21
247.0386448632
  0
LINE
  8
0
 62
7
  6
CONTINUOUS
 10
80.2232105197
 20
246.0397379001
 11
81.3942487945
 21
242.8432362338
  0
LINE
  8
0
 62
7
  6
CONTINUOUS
 10
81.88329673
 20
243.022398928
 11
80.7122584551
 21
246.2189005943
  0
LINE
  8
0
 62
7
  6
CONTINUOUS
 10
80.3463089237
 20
247.2178075574
 11
80.1633342093
 21
247.7172608991
  0
LINE
  8
0
 62
7
  6
CONTINUOUS
 10
86.9164917888
 20
247.9308406072
 11
87.187422992
 21
246.3582639833
  0
LINE
  8
0
 62
7
  6
CONTINUOUS
 10
87.8033488523
 20
246.4643787073
 11
87.532417649
 21
248.0369553312
  0
LINE
  8
0
 62
7
  6
CONTINUOUS
 10
95.2886032632
 20
249.4919195158
 11
95.3090558213
 21
249.1734263412
  0
LINE
  8
0
 62
7
  6
CONTINUOUS
 10
95.9395886264
 20
249.1073149424
 11
95.9123185554
 21
249.5319724094
  0
LINE
  8
0
 62
4
  6
CONTINUOUS
 10
100.1184354486
 20
188.3540598413
 11
100.1184354486
 21
191.6388372223
  0
LINE
  8
0
 62
4
  6
CONTINUOUS
 10
100.1184354486
 20
209.7192824602
 11
100.1184354486
 21
213.0040598413
  0
LINE
  8
0
 62
7
  6
CONTINUOUS
 10
100.3697460667
 20
249.3112971558
 11
100.3612295979
 21
249.0987017381
  0
LINE
  8
0
 62
7
  6
CONTINUOUS
 10
100.2845813723
 20
247.1853428302
 11
100.271806669
 21
246.8664497037
  0
LINE
  8
0
 62
7
  6
CONTINUOUS
 10
100.8920475485
 20
246.7351348647
 11
100.9133387206
 21
247.2666234088
  0
LINE
  8
0
 62
7
  6
CONTINUOUS
 10
100.9814704773
 20
248.9673868991
 11
100.9985034269
 21
249.3925780322
  0
LINE
  8
0
 62
7
  6
CONTINUOUS
 10
109.2717226373
 20
248.1191484058
 11
108.4415987466
 21
244.2715087049
  0
LINE
  8
0
 62
7
  6
CONTINUOUS
 10
109.0525415172
 20
244.1396984967
 11
110.1070231823
 21
249.0272406621
  0
LINE
  8
0
 62
7
  6
CONTINUOUS
 10
114.1452852696
 20
246.4625714918
 11
114.0420514117
 21
246.1605798032
  0
LINE
  8
0
 62
7
  6
CONTINUOUS
 10
114.5990400664
 20
245.8577498607
 11
114.736685178
 21
246.2604053515
  0
LINE
  8
0
 62
7
  6
CONTINUOUS
 10
118.7687962533
 20
244.3474397514
 11
118.6794130742
 21
244.1543594853
  0
LINE
  8
0
 62
7
  6
CONTINUOUS
 10
117.8749644002
 20
242.4166369552
 11
117.7408896316
 21
242.127016556
  0
LINE
  8
0
 62
7
  6
CONTINUOUS
 10
118.2633713914
 20
241.7679133032
 11
118.486829339
 21
242.2506139685
  0
LINE
  8
0
 62
7
  6
CONTINUOUS
 10
119.201894834
 20
243.7952562325
 11
119.3806613173
 21
244.1814170352
  0
LINE
  8
0
 62
7
  6
CONTINUOUS
 10
120.6512624023
 20
241.1478733571
 11
120.9118017207
 21
241.6116112235
  0
LINE
  8
0
 62
7
  6
CONTINUOUS
 10
126.2346292209
 20
241.3530564603
 11
125.1065091234
 21
239.6758849267
  0
LINE
  8
0
 62
7
  6
CONTINUOUS
 10
124.7502607241
 20
239.1462518889
 11
123.444016427
 21
237.2042638365
  0
LINE
  8
0
 62
7
  6
CONTINUOUS
 10
123.962615505
 20
236.8554372373
 11
126.7532282988
 21
241.004229861
  0
LINE
  8
0
 62
7
  6
CONTINUOUS
 10
140.5853125884
 20
212.5099882148
 11
141.1927928048
 21
212.7059268746
  0
LINE
  8
0
 62
7
  6
CONTINUOUS
 10
144.6351807927
 20
213.8162459774
 11
145.3439076292
 21
214.0448410538
  0
LINE
  8
0
 62
7
  6
CONTINUOUS
 10
143.7047259201
 20
212.3062288486
 11
142.7674299974
 21
212.1108304716
  0
LINE
  8
0
 62
7
  6
CONTINUOUS
 10
145.3969607769
 20
207.4827308779
 11
145.0795255262
 21
207.4497023933
  0
LINE
  8
0
 62
7
  6
CONTINUOUS
 10
143.2699451634
 20
207.3661514783
 11
142.9525099127
 21
207.3331229938
  0
LINE
  8
0
 62
7
  6
CONTINUOUS
 10
143.5305899814
 20
208.9713431767
 11
142.8844685623
 21
208.9430456747
  0
LINE
  8
0
 62
7
  6
CONTINUOUS
 10
142.9907610248
 20
208.4331771013
 11
143.5327403988
 21
208.4397543365
  0
LINE
  8
0
 62
7
  6
CONTINUOUS
 10
143.1026233294
 20
180.9517153356
 11
138.5869449486
 21
183.0984917007
  0
LINE
  8
0
 62
7
  6
CONTINUOUS
 10
136.1452724022
 20
172.8908861703
 11
135.5560224695
 21
173.3462255542
  0
LINE
  8
0
 62
7
  6
CONTINUOUS
 10
76.6877155353
 20
241.5149099283
 11
75.3717504859
 21
243.9477592863
  0
LINE
  8
0
 62
7
  6
CONTINUOUS
 10
80.607306535
 20
242.5659236289
 11
79.8055412368
 21
244.4213836026
  0
LINE
  8
0
 62
7
  6
CONTINUOUS
 10
87.187422992
 20
246.3582639833
 11
87.3803873031
 21
245.8517575441
  0
LINE
  8
0
 62
7
  6
CONTINUOUS
 10
92.6389512918
 20
147.0008164757
 11
90.6677957726
 21
140.3334894371
  0
LINE
  8
0
 62
7
  6
CONTINUOUS
 10
55.9947119392
 20
165.8902835788
 11
49.8863823434
 21
162.5695888518
  0
LINE
  8
0
 62
7
  6
CONTINUOUS
 10
142.7674299974
 20
212.1108304716
 11
142.2679672192
 21
211.9003076742
  0
LINE
  8
0
 62
7
  6
CONTINUOUS
 10
144.4700363215
 20
208.6351527136
 11
144.9694970076
 21
208.8456848166
  0
LINE
  8
0
 62
7
  6
CONTINUOUS
 10
142.374261628
 20
211.3904297647
 11
142.9778664513
 21
211.6226728289
  0
LINE
  8
0
 62
7
  6
CONTINUOUS
 10
144.8632045451
 20
209.35555339
 11
144.2595979213
 21
209.1233196922
  0
LINE
  8
0
 62
7
  6
CONTINUOUS
 10
143.7068743913
 20
211.7746493444
 11
144.3529976108
 21
211.8029374801
  0
LINE
  8
0
 62
7
  6
CONTINUOUS
 10
144.246703202
 20
212.3128153895
 11
143.7047259201
 21
212.3062288486
  0
LINE
  8
0
 62
4
  6
CONTINUOUS
 10
100.1184354486
 20
213.0040598413
 11
94.1184354486
 21
213.0040598413
  0
LINE
  8
0
 62
7
  6
CONTINUOUS
 10
142.6570697795
 20
208.470021758
 11
142.9907610248
 21
208.4331771013
  0
LINE
  8
0
 62
7
  6
CONTINUOUS
 10
150.7966788141
 20
196.1995756845
 11
157.4640058527
 21
194.2284201653
  0
LINE
  8
0
 62
7
  6
CONTINUOUS
 10
139.763132251
 20
178.3871262517
 11
140.0066411344
 21
178.1560184855
  0
LINE
  8
0
 62
7
  6
CONTINUOUS
 10
74.3369517715
 20
240.6061933645
 11
74.0934879176
 21
240.8373471402
  0
LINE
  8
0
 62
7
  6
CONTINUOUS
 10
136.6708270768
 20
172.3531194194
 11
136.1452724022
 21
172.8908861703
  0
LINE
  8
0
 62
7
  6
CONTINUOUS
 10
135.8268019433
 20
172.4787568815
 11
136.2681838874
 21
172.0060461602
  0
LINE
  8
0
 62
7
  6
CONTINUOUS
 10
73.6353792578
 20
240.5895492307
 11
73.9294571752
 21
240.2648242634
  0
LINE
  8
0
 62
7
  6
CONTINUOUS
 10
76.9817933537
 20
241.1901849286
 11
76.6877155353
 21
241.5149099283
  0
LINE
  8
0
 62
7
  6
CONTINUOUS
 10
79.0208226611
 20
244.6617482081
 11
79.3274349702
 21
244.2147884623
  0
LINE
  8
0
 62
7
  6
CONTINUOUS
 10
79.8055412368
 20
244.4213836026
 11
79.4989294749
 21
244.8683435848
  0
LINE
  8
0
 62
7
  6
CONTINUOUS
 10
133.0764562945
 20
171.1813436308
 11
132.8876158671
 21
171.458916448
  0
LINE
  8
0
 62
7
  6
CONTINUOUS
 10
131.9072117111
 20
159.5553363319
 11
135.2279064381
 21
153.4470067361
  0
LINE
  8
0
 62
7
  6
CONTINUOUS
 10
87.9782510849
 20
246.0627106999
 11
87.8033488523
 21
246.4643787073
  0
LINE
  8
0
 62
7
  6
CONTINUOUS
 10
90.8477615664
 20
249.0399400405
 11
90.6547960299
 21
249.5464465709
  0
LINE
  8
0
 62
7
  6
CONTINUOUS
 10
114.0184354486
 20
264.5574012411
 11
114.0184354486
 21
262.7057422672
  0
LINE
  8
0
 62
7
  6
CONTINUOUS
 10
114.1499538836
 20
246.798256741
 11
114.1452852696
 21
246.4625714918
  0
LINE
  8
0
 62
7
  6
CONTINUOUS
 10
114.736685178
 20
246.2604053515
 11
114.7413537921
 21
246.5960906007
  0
LINE
  8
0
 62
7
  6
CONTINUOUS
 10
117.9145117822
 20
242.7500173418
 11
117.8749644002
 21
242.4166369552
  0
LINE
  8
0
 62
7
  6
CONTINUOUS
 10
118.486829339
 20
242.2506139685
 11
118.526376721
 21
242.5839943551
  0
LINE
  8
0
 62
7
  6
CONTINUOUS
 10
118.8083436979
 20
244.6808202733
 11
118.7687962533
 21
244.3474397514
  0
LINE
  8
0
 62
7
  6
CONTINUOUS
 10
119.3806613173
 20
244.1814170352
 11
119.4202086367
 21
244.5147972865
  0
LINE
  8
0
 62
7
  6
CONTINUOUS
 10
154.2373484254
 20
233.897763614
 11
152.9280278085
 21
232.5884429971
  0
LINE
  8
0
 62
7
  6
CONTINUOUS
 10
142.2679672192
 20
211.9003076742
 11
141.9767945159
 21
211.7331974327
  0
LINE
  8
0
 62
7
  6
CONTINUOUS
 10
144.9694970076
 20
208.8456848166
 11
145.2606700026
 21
209.0127951189
  0
LINE
  8
0
 62
7
  6
CONTINUOUS
 10
142.9525099127
 20
207.3331229938
 11
142.4450110218
 21
207.0708639714
  0
LINE
  8
0
 62
7
  6
CONTINUOUS
 10
35.0917530227
 20
217.5790598413
 11
33.2400940487
 21
217.5790598413
  0
LINE
  8
0
 62
7
  6
CONTINUOUS
 10
144.580394739
 20
212.2759707936
 11
144.246703202
 21
212.3128153895
  0
LINE
  8
0
 62
7
  6
CONTINUOUS
 10
142.1979771452
 20
208.5871235818
 11
142.6570697795
 21
208.470021758
  0
LINE
  8
0
 62
7
  6
CONTINUOUS
 10
142.789975893
 20
203.7554224119
 11
143.3405946526
 21
203.6032583535
  0
LINE
  8
0
 62
7
  6
CONTINUOUS
 10
143.8205639971
 20
207.2139874276
 11
143.2699451634
 21
207.3661514783
  0
LINE
  8
0
 62
7
  6
CONTINUOUS
 10
145.9475797588
 20
207.3305668426
 11
145.3969607769
 21
207.4827308779
  0
LINE
  8
0
 62
7
  6
CONTINUOUS
 10
145.0012424095
 20
204.0902323399
 11
145.4460493448
 21
203.927058779
  0
LINE
  8
0
 62
7
  6
CONTINUOUS
 10
73.9294571752
 20
240.2648242634
 11
74.1223069846
 21
240.1272416047
  0
LINE
  8
0
 62
7
  6
CONTINUOUS
 10
76.2802208134
 20
241.173540844
 11
76.7165345859
 21
240.8048043839
  0
LINE
  8
0
 62
7
  6
CONTINUOUS
 10
140.371066432
 20
178.6748021957
 11
140.1275575486
 21
178.9059099619
  0
LINE
  8
0
 62
7
  6
CONTINUOUS
 10
63.8997316758
 20
257.7979728181
 11
65.2090522928
 21
256.4886522012
  0
LINE
  8
0
 62
7
  6
CONTINUOUS
 10
79.4989294749
 20
244.8683435848
 11
79.2767135006
 21
245.1199917832
  0
LINE
  8
0
 62
7
  6
CONTINUOUS
 10
136.2126703396
 20
178.3459557347
 11
137.0817610928
 21
177.3222410722
  0
LINE
  8
0
 62
7
  6
CONTINUOUS
 10
137.389647667
 20
177.0105768594
 11
139.3451057043
 21
174.7072249028
  0
LINE
  8
0
 62
7
  6
CONTINUOUS
 10
139.9258577449
 20
174.8392029119
 11
136.5401049023
 21
178.8783199024
  0
LINE
  8
0
 62
7
  6
CONTINUOUS
 10
87.3803873031
 20
245.8517575441
 11
87.6579446416
 21
245.4677753856
  0
LINE
  8
0
 62
7
  6
CONTINUOUS
 10
134.9213267805
 20
173.046821986
 11
135.1101673258
 21
172.7692490776
  0
LINE
  8
0
 62
7
  6
CONTINUOUS
 10
136.2681838874
 20
172.0060461602
 11
136.4570245506
 21
171.7284731607
  0
LINE
  8
0
 62
7
  6
CONTINUOUS
 10
132.3803049218
 20
171.324360022
 11
132.6738131051
 21
170.8342703716
  0
LINE
  8
0
 62
7
  6
CONTINUOUS
 10
136.9643354369
 20
171.8630296323
 11
136.6708270768
 21
172.3531194194
  0
LINE
  8
0
 62
7
  6
CONTINUOUS
 10
90.0749943267
 20
249.2306549833
 11
90.2318357061
 21
248.9338253164
  0
LINE
  8
0
 62
7
  6
CONTINUOUS
 10
95.1641997617
 20
249.8037370126
 11
95.2886032632
 21
249.4919195158
  0
LINE
  8
0
 62
7
  6
CONTINUOUS
 10
95.9123185554
 20
249.5319724094
 11
95.7879150539
 21
249.8437899062
  0
LINE
  8
0
 62
7
  6
CONTINUOUS
 10
100.1932744841
 20
247.5084055637
 11
100.2845813723
 21
247.1853428302
  0
LINE
  8
0
 62
7
  6
CONTINUOUS
 10
100.9133387206
 20
247.2666234088
 11
100.8220318323
 21
247.5896861423
  0
LINE
  8
0
 62
7
  6
CONTINUOUS
 10
100.2784391844
 20
249.6343600382
 11
100.3697460667
 21
249.3112971558
  0
LINE
  8
0
 62
7
  6
CONTINUOUS
 10
100.9985034269
 20
249.3925780322
 11
100.9071965327
 21
249.7156406168
  0
LINE
  8
0
 62
7
  6
CONTINUOUS
 10
105.6060660133
 20
248.9100096546
 11
106.2014744773
 21
244.754812969
  0
LINE
  8
0
 62
7
  6
CONTINUOUS
 10
106.7209493374
 20
245.1868906343
 11
106.135895173
 21
249.884007015
  0
LINE
  8
DEFAULT_1
 62
2
  6
CENTER
 10
121.2704020136
 20
196.5467551588
 11
117.7348681076
 21
193.0112212529
  0
LINE
  8
DEFAULT_1
 62
2
  6
CENTER
 10
101.250740131
 20
176.5270932763
 11
104.786274037
 21
180.0626271822
  0
LINE
  8
DEFAULT_1
 62
2
  6
CENTER
 10
108.9109707963
 20
181.9245822417
 11
115.8729130481
 21
188.8865244935
  0
LINE
  8
0
 62
7
  6
CONTINUOUS
 10
141.8344307981
 20
210.8522730405
 11
142.374261628
 21
211.3904297647
  0
LINE
  8
0
 62
7
  6
CONTINUOUS
 10
141.9767945159
 20
211.7331974327
 11
141.6027350731
 21
211.4424081322
  0
LINE
  8
0
 62
7
  6
CONTINUOUS
 10
145.2606700026
 20
209.0127951189
 11
145.6347293725
 21
209.3035844042
  0
LINE
  8
0
 62
7
  6
CONTINUOUS
 10
145.0795255262
 20
207.4497023933
 11
144.6778384596
 21
207.1984528735
  0
LINE
  8
0
 62
7
  6
CONTINUOUS
 10
143.6580299033
 20
203.6362868381
 11
144.1655288683
 21
203.8985458681
  0
LINE
  8
0
 62
7
  6
CONTINUOUS
 10
145.7634845955
 20
203.9600872635
 11
146.2709837087
 21
204.222346309
  0
LINE
  8
0
 62
7
  6
CONTINUOUS
 10
145.0394873004
 20
212.1588689546
 11
144.580394739
 21
212.2759707936
  0
LINE
  8
0
 62
7
  6
CONTINUOUS
 10
142.8844685623
 20
208.9430456747
 11
142.174569403
 21
209.2206805351
  0
LINE
  8
0
 62
7
  6
CONTINUOUS
 10
145.4979607657
 20
204.4561018676
 11
145.1589655807
 21
204.6302849234
  0
LINE
  8
0
 62
7
  6
CONTINUOUS
 10
74.6720374059
 20
240.4245991121
 11
74.3369517715
 21
240.6061933645
  0
LINE
  8
0
 62
7
  6
CONTINUOUS
 10
77.174643344
 20
241.0526023466
 11
76.9817933537
 21
241.1901849286
  0
LINE
  8
DEFAULT_1
 62
2
  6
CENTER
 10
117.7348681076
 20
208.3468984297
 11
121.2704020136
 21
204.8113645237
  0
LINE
  8
DEFAULT_1
 62
2
  6
CENTER
 10
104.786274037
 20
221.2954925003
 11
101.250740131
 21
224.8310264063
  0
LINE
  8
DEFAULT_1
 62
2
  6
CENTER
 10
108.9109707963
 20
219.4335374408
 11
115.8729130481
 21
212.471595189
  0
LINE
  8
0
 62
7
  6
CONTINUOUS
 10
88.2377463321
 20
245.7835670467
 11
87.9782510849
 21
246.0627106999
  0
LINE
  8
0
 62
7
  6
CONTINUOUS
 10
132.8876158671
 20
171.458916448
 11
132.7624648075
 21
171.8189091316
  0
LINE
  8
0
 62
7
  6
CONTINUOUS
 10
142.4450110218
 20
207.0708639714
 11
142.1599161291
 21
206.7270134296
  0
LINE
  8
0
 62
7
  6
CONTINUOUS
 10
145.4030336475
 20
209.8937194959
 11
144.8632045451
 21
209.35555339
  0
LINE
  8
0
 62
7
  6
CONTINUOUS
 10
142.615503562
 20
206.4602293595
 11
143.0064102421
 21
206.8150894
  0
LINE
  8
0
 62
7
  6
CONTINUOUS
 10
143.9950363281
 20
204.50918048
 11
143.604129574
 21
204.1543204318
  0
LINE
  8
0
 62
7
  6
CONTINUOUS
 10
144.9433622894
 20
206.7024382695
 11
145.2392376058
 21
206.9426782944
  0
LINE
  8
0
 62
7
  6
CONTINUOUS
 10
146.0054598789
 20
204.7183609131
 11
145.7095842662
 21
204.4781208573
  0
LINE
  8
0
 62
7
  6
CONTINUOUS
 10
74.1223069846
 20
240.1272416047
 11
74.5490142972
 21
239.9952069476
  0
LINE
  8
0
 62
7
  6
CONTINUOUS
 10
144.3529976108
 20
211.8029374801
 11
145.0628950426
 21
211.5253120013
  0
LINE
  8
0
 62
7
  6
CONTINUOUS
 10
145.4508611062
 20
206.9646972841
 11
145.7898565877
 21
206.7905142591
  0
LINE
  8
0
 62
7
  6
CONTINUOUS
 10
143.2866943233
 20
204.1212919472
 11
142.8311068533
 21
204.3880760135
  0
LINE
  8
0
 62
7
  6
CONTINUOUS
 10
143.3238454928
 20
206.8481178846
 11
143.7794330369
 21
206.5813338261
  0
LINE
  8
0
 62
7
  6
CONTINUOUS
 10
141.8217692677
 20
208.8279137931
 11
142.1979771452
 21
208.5871235818
  0
LINE
  8
0
 62
7
  6
CONTINUOUS
 10
87.6579446416
 20
245.4677753856
 11
88.1408098106
 21
245.1191647036
  0
LINE
  8
0
 62
7
  6
CONTINUOUS
 10
142.4402002103
 20
204.0332159768
 11
142.789975893
 21
203.7554224119
  0
LINE
  8
0
 62
7
  6
CONTINUOUS
 10
95.7879150539
 20
249.8437899062
 11
95.4487873558
 21
250.248420629
  0
LINE
  8
0
 62
7
  6
CONTINUOUS
 10
100.8220318323
 20
247.5896861423
 11
100.5268152131
 21
248.0273855428
  0
LINE
  8
0
 62
7
  6
CONTINUOUS
 10
100.9071965327
 20
249.7156406168
 11
100.6119799135
 21
250.1533400172
  0
LINE
  8
0
 62
7
  6
CONTINUOUS
 10
139.512992766
 20
178.8520605002
 11
139.763132251
 21
178.3871262517
  0
LINE
  8
0
 62
7
  6
CONTINUOUS
 10
136.4570245506
 20
171.7284731607
 11
136.5821755513
 21
171.3684805227
  0
LINE
  8
0
 62
7
  6
CONTINUOUS
 10
114.7413537921
 20
246.5960906007
 11
114.5832988531
 21
247.0998288797
  0
LINE
  8
0
 62
7
  6
CONTINUOUS
 10
132.2346705879
 20
171.8318285333
 11
132.3803049218
 21
171.324360022
  0
LINE
  8
0
 62
7
  6
CONTINUOUS
 10
137.1099697414
 20
171.3555611438
 11
136.9643354369
 21
171.8630296323
  0
LINE
  8
0
 62
7
  6
CONTINUOUS
 10
118.526376721
 20
242.5839943551
 11
118.4215564045
 21
243.1014364472
  0
LINE
  8
0
 62
7
  6
CONTINUOUS
 10
119.4202086367
 20
244.5147972865
 11
119.3153883202
 21
245.0322393786
  0
LINE
  8
0
 62
7
  6
CONTINUOUS
 10
132.7624648075
 20
171.8189091316
 11
132.7851876266
 21
172.1962806533
  0
LINE
  8
0
 62
7
  6
CONTINUOUS
 10
141.6027350731
 20
211.4424081322
 11
141.3540789292
 21
211.071352321
  0
LINE
  8
0
 62
7
  6
CONTINUOUS
 10
145.6347293725
 20
209.3035844042
 11
145.88338548
 21
209.6746402078
  0
LINE
  8
0
 62
7
  6
CONTINUOUS
 10
144.6778384596
 20
207.1984528735
 11
144.3927436039
 21
206.8546023356
  0
LINE
  8
0
 62
7
  6
CONTINUOUS
 10
146.2709837087
 20
204.222346309
 11
146.5560785644
 21
204.566196847
  0
LINE
  8
0
 62
7
  6
CONTINUOUS
 10
141.2738662397
 20
178.5916232671
 11
140.9922620855
 21
178.4948250471
  0
LINE
  8
0
 62
7
  6
CONTINUOUS
 10
117.0602271898
 20
241.1525946702
 11
117.5724160939
 21
241.2671736826
  0
LINE
  8
0
 62
7
  6
CONTINUOUS
 10
74.5490142972
 20
239.9952069476
 11
74.9251076182
 21
239.9567434468
  0
LINE
  8
0
 62
7
  6
CONTINUOUS
 10
78.7451839292
 20
244.7744217467
 11
79.0208226611
 21
244.6617482081
  0
LINE
  8
0
 62
7
  6
CONTINUOUS
 10
79.2767135006
 20
245.1199917832
 11
79.0010747687
 21
245.2326653218
  0
LINE
  8
0
 62
7
  6
CONTINUOUS
 10
88.581833432
 20
245.6269474716
 11
88.2377463321
 21
245.7835670467
  0
LINE
  8
0
 62
7
  6
CONTINUOUS
 10
140.1056058652
 20
216.0765968492
 11
144.6351807927
 21
213.8162459774
  0
LINE
  8
0
 62
7
  6
CONTINUOUS
 10
144.6777946464
 20
214.3772428143
 11
140.1162426421
 21
216.7367341082
  0
LINE
  8
0
 62
7
  6
CONTINUOUS
 10
145.4156951414
 20
211.9180787357
 11
145.0394873004
 21
212.1588689546
  0
LINE
  8
0
 62
7
  6
CONTINUOUS
 10
90.6547960299
 20
249.5464465709
 11
90.1719308672
 21
249.8950572162
  0
LINE
  8
0
 62
7
  6
CONTINUOUS
 10
144.6514667639
 20
204.3680259087
 11
145.0012424095
 21
204.0902323399
  0
LINE
  8
0
 62
7
  6
CONTINUOUS
 10
146.2973554045
 20
207.0527732738
 11
145.9475797588
 21
207.3305668426
  0
LINE
  8
0
 62
7
  6
CONTINUOUS
 10
101.8269142345
 20
246.7233912001
 11
102.111614893
 21
246.4746521261
  0
LINE
  8
0
 62
7
  6
CONTINUOUS
 10
94.9426580521
 20
250.002714531
 11
95.1641997617
 21
249.8037370126
  0
LINE
  8
0
 62
7
  6
CONTINUOUS
 10
142.174569403
 20
209.2206805351
 11
141.9025055534
 21
209.4831816848
  0
LINE
  8
0
 62
7
  6
CONTINUOUS
 10
145.1589655807
 20
204.6302849234
 11
144.7984094743
 21
205.0116890052
  0
LINE
  8
0
 62
7
  6
CONTINUOUS
 10
99.9936229934
 20
247.7293400884
 11
100.1932744841
 21
247.5084055637
  0
LINE
  8
0
 62
7
  6
CONTINUOUS
 10
100.0787876938
 20
249.8552945629
 11
100.2784391844
 21
249.6343600382
  0
LINE
  8
0
 62
7
  6
CONTINUOUS
 10
114.0216438404
 20
247.0669728018
 11
114.1499538836
 21
246.798256741
  0
LINE
  8
0
 62
7
  6
CONTINUOUS
 10
140.1275575486
 20
178.9059099619
 11
140.024848695
 21
179.1854125316
  0
LINE
  8
0
 62
7
  6
CONTINUOUS
 10
117.8148357358
 20
243.0306193155
 11
117.9145117822
 21
242.7500173418
  0
LINE
  8
0
 62
7
  6
CONTINUOUS
 10
118.7086676515
 20
244.961422247
 11
118.8083436979
 21
244.6808202733
  0
LINE
  8
0
 62
7
  6
CONTINUOUS
 10
139.4036533107
 20
179.3653895522
 11
139.512992766
 21
178.8520605002
  0
LINE
  8
0
 62
7
  6
CONTINUOUS
 10
135.1101673258
 20
172.7692490776
 11
135.1511397646
 21
172.474304923
  0
LINE
  8
0
 62
7
  6
CONTINUOUS
 10
135.1511397646
 20
172.474304923
 11
135.1284169455
 21
172.0969334013
  0
LINE
  8
0
 62
7
  6
CONTINUOUS
 10
135.6129991813
 20
171.854110805
 11
135.6584448196
 21
172.6088538483
  0
LINE
  8
0
 62
7
  6
CONTINUOUS
 10
136.5821755513
 20
171.3684805227
 11
136.5594527321
 21
170.991109001
  0
LINE
  8
0
 62
7
  6
CONTINUOUS
 10
132.300599508
 20
172.4390957432
 11
132.2346705879
 21
171.8318285333
  0
LINE
  8
0
 62
7
  6
CONTINUOUS
 10
137.0440349679
 20
170.7482864047
 11
137.1099697414
 21
171.3555611438
  0
LINE
  8
0
 62
7
  6
CONTINUOUS
 10
132.7851876266
 20
172.1962806533
 11
132.8920890076
 21
172.5086036915
  0
LINE
  8
0
 62
7
  6
CONTINUOUS
 10
141.3540789292
 20
211.071352321
 11
141.1479413364
 21
210.4963416135
  0
LINE
  8
0
 62
7
  6
CONTINUOUS
 10
145.88338548
 20
209.6746402078
 11
146.0895249917
 21
210.2496415735
  0
LINE
  8
0
 62
7
  6
CONTINUOUS
 10
142.4470009172
 20
206.0237778035
 11
142.615503562
 21
206.4602293595
  0
LINE
  8
0
 62
7
  6
CONTINUOUS
 10
144.3927436039
 20
206.8546023356
 11
144.308491788
 21
206.6363813003
  0
LINE
  8
0
 62
7
  6
CONTINUOUS
 10
144.1635389729
 20
204.945632036
 11
143.9950363281
 21
204.50918048
  0
LINE
  8
0
 62
7
  6
CONTINUOUS
 10
144.4398432634
 20
204.346006919
 11
144.5240950793
 21
204.5642279543
  0
LINE
  8
0
 62
7
  6
CONTINUOUS
 10
141.689918682
 20
210.5029281677
 11
141.8344307981
 21
210.8522730405
  0
LINE
  8
0
 62
7
  6
CONTINUOUS
 10
145.5475457636
 20
210.2430643687
 11
145.4030336475
 21
209.8937194959
  0
LINE
  8
0
 62
7
  6
CONTINUOUS
 10
142.1599161291
 20
206.7270134296
 11
141.8963821669
 21
206.1759418629
  0
LINE
  8
0
 62
7
  6
CONTINUOUS
 10
146.5560785644
 20
204.566196847
 11
146.8196134858
 21
205.1172589253
  0
LINE
  8
0
 62
7
  6
CONTINUOUS
 10
144.6690478944
 20
206.2549772186
 11
144.9433622894
 21
206.7024382695
  0
LINE
  8
0
 62
7
  6
CONTINUOUS
 10
144.1655288683
 20
203.8985458681
 11
144.4398432634
 21
204.346006919
  0
LINE
  8
0
 62
7
  6
CONTINUOUS
 10
146.279774274
 20
205.165821964
 11
146.0054598789
 21
204.7183609131
  0
LINE
  8
0
 62
7
  6
CONTINUOUS
 10
141.2424015705
 20
178.0298907986
 11
141.7095316271
 21
178.269163326
  0
LINE
  8
0
 62
7
  6
CONTINUOUS
 10
133.8270053885
 20
173.8924523387
 11
133.255999222
 21
173.6754685172
  0
LINE
  8
0
 62
7
  6
CONTINUOUS
 10
134.0865991542
 20
170.4007617387
 11
134.6575994672
 21
170.617738031
  0
LINE
  8
0
 62
7
  6
CONTINUOUS
 10
133.6132026559
 20
173.2678062395
 11
133.9726397224
 21
173.3849838275
  0
LINE
  8
0
 62
7
  6
CONTINUOUS
 10
134.3004019162
 20
171.0254078151
 11
133.9409648497
 21
170.9082302271
  0
LINE
  8
0
 62
7
  6
CONTINUOUS
 10
135.7951329608
 20
170.0020107818
 11
135.4356958944
 21
169.8848331938
  0
LINE
  8
0
 62
7
  6
CONTINUOUS
 10
74.9251076182
 20
239.9567434468
 11
75.3422085737
 21
240.0614106376
  0
LINE
  8
0
 62
7
  6
CONTINUOUS
 10
99.4921271387
 20
245.6200636371
 11
100.0168005076
 21
245.7055137785
  0
LINE
  8
0
 62
7
  6
CONTINUOUS
 10
118.2771887685
 20
243.2854982879
 11
118.5109395835
 21
243.2945167133
  0
LINE
  8
0
 62
7
  6
CONTINUOUS
 10
75.1397524109
 20
240.4356951567
 11
74.6720374059
 21
240.4245991121
  0
LINE
  8
0
 62
7
  6
CONTINUOUS
 10
88.587550821
 20
244.9802308943
 11
89.1188848429
 21
244.9638214575
  0
LINE
  8
0
 62
7
  6
CONTINUOUS
 10
78.5117433646
 20
244.7894395116
 11
78.7451839292
 21
244.7744217467
  0
LINE
  8
0
 62
7
  6
CONTINUOUS
 10
89.0105123591
 20
245.5928521217
 11
88.581833432
 21
245.6269474716
  0
LINE
  8
0
 62
7
  6
CONTINUOUS
 10
117.233844978
 20
241.775597383
 11
116.9055667139
 21
241.8103388099
  0
LINE
  8
0
 62
7
  6
CONTINUOUS
 10
79.0010747687
 20
245.2326653218
 11
78.6298145645
 21
245.3040197378
  0
LINE
  8
0
 62
7
  6
CONTINUOUS
 10
116.5428896963
 20
241.2748577962
 11
117.0602271898
 21
241.1525946702
  0
LINE
  8
0
 62
7
  6
CONTINUOUS
 10
88.1408098106
 20
245.1191647036
 11
88.587550821
 21
244.9802308943
  0
LINE
  8
0
 62
7
  6
CONTINUOUS
 10
89.7309072395
 20
249.3872744849
 11
90.0749943267
 21
249.2306549833
  0
LINE
  8
0
 62
7
  6
CONTINUOUS
 10
100.5268152131
 20
248.0273855428
 11
100.3229054881
 21
248.1420223586
  0
LINE
  8
0
 62
7
  6
CONTINUOUS
 10
95.4487873558
 20
250.248420629
 11
95.012523829
 21
250.5402115262
  0
LINE
  8
0
 62
7
  6
CONTINUOUS
 10
100.6119799135
 20
250.1533400172
 11
100.2084210801
 21
250.4889112624
  0
LINE
  8
0
 62
7
  6
CONTINUOUS
 10
103.7752358964
 20
248.95244624
 11
103.4905352737
 21
249.2011856098
  0
LINE
  8
0
 62
7
  6
CONTINUOUS
 10
145.0628950426
 20
211.5253120013
 11
145.3349588922
 21
211.2628108516
  0
LINE
  8
0
 62
7
  6
CONTINUOUS
 10
144.1811201035
 20
206.8325833459
 11
143.8205639971
 21
207.2139874276
  0
LINE
  8
0
 62
7
  6
CONTINUOUS
 10
145.7898565877
 20
206.7905142591
 11
146.150412694
 21
206.4091101774
  0
LINE
  8
0
 62
7
  6
CONTINUOUS
 10
141.4030448035
 20
209.2726495685
 11
141.8217692677
 21
208.8279137931
  0
LINE
  8
0
 62
7
  6
CONTINUOUS
 10
145.8344215245
 20
211.4733336186
 11
145.4156951414
 21
211.9180787357
  0
LINE
  8
0
 62
7
  6
CONTINUOUS
 10
118.4215564045
 20
243.1014364472
 11
118.2771887685
 21
243.2854982879
  0
LINE
  8
0
 62
7
  6
CONTINUOUS
 10
142.0688636155
 20
204.5182305687
 11
142.4402002103
 21
204.0332159768
  0
LINE
  8
0
 62
7
  6
CONTINUOUS
 10
146.6686909845
 20
206.5677681646
 11
146.2973554045
 21
207.0527732738
  0
LINE
  8
0
 62
7
  6
CONTINUOUS
 10
114.5832988531
 20
247.0998288797
 11
114.2922652569
 21
247.5365979702
  0
LINE
  8
0
 62
7
  6
CONTINUOUS
 10
142.8311068533
 20
204.3880760135
 11
142.5763624972
 21
204.7804895901
  0
LINE
  8
0
 62
7
  6
CONTINUOUS
 10
144.5240950793
 20
204.5642279543
 11
144.6514667639
 21
204.3680259087
  0
LINE
  8
0
 62
7
  6
CONTINUOUS
 10
143.7794330369
 20
206.5813338261
 11
144.034177393
 21
206.1889202494
  0
LINE
  8
0
 62
7
  6
CONTINUOUS
 10
144.308491788
 20
206.6363813003
 11
144.1811201035
 21
206.8325833459
  0
LINE
  8
0
 62
7
  6
CONTINUOUS
 10
119.3153883202
 20
245.0322393786
 11
119.071348965
 21
245.4969011899
  0
LINE
  8
0
 62
7
  6
CONTINUOUS
 10
141.8444707367
 20
205.6468987733
 11
141.9091515267
 21
205.0252546666
  0
LINE
  8
0
 62
7
  6
CONTINUOUS
 10
142.4274298913
 20
205.1839126615
 11
142.3843100226
 21
205.5983357423
  0
LINE
  8
0
 62
7
  6
CONTINUOUS
 10
144.1831099989
 20
205.785497178
 11
144.2262298675
 21
205.3710740972
  0
LINE
  8
0
 62
7
  6
CONTINUOUS
 10
144.6494768685
 20
205.4151120766
 11
144.6063569998
 21
205.8295351574
  0
LINE
  8
0
 62
7
  6
CONTINUOUS
 10
146.2993452999
 20
206.0056871059
 11
146.3424651686
 21
205.5912640251
  0
LINE
  8
0
 62
7
  6
CONTINUOUS
 10
141.1479413364
 20
210.4963416135
 11
141.1713490694
 21
209.8627846583
  0
LINE
  8
0
 62
7
  6
CONTINUOUS
 10
146.0895249917
 20
210.2496415735
 11
146.0661172495
 21
210.8831985268
  0
LINE
  8
0
 62
7
  6
CONTINUOUS
 10
141.6920690994
 20
209.9713393274
 11
141.689918682
 21
210.5029281677
  0
LINE
  8
0
 62
7
  6
CONTINUOUS
 10
145.5453972924
 20
210.7746438729
 11
145.5475457636
 21
210.2430643687
  0
LINE
  8
0
 62
7
  6
CONTINUOUS
 10
141.8963821669
 20
206.1759418629
 11
141.8444707367
 21
205.6468987733
  0
LINE
  8
0
 62
7
  6
CONTINUOUS
 10
146.8196134858
 20
205.1172589253
 11
146.8715239197
 21
205.6463114994
  0
LINE
  8
0
 62
7
  6
CONTINUOUS
 10
140.024848695
 20
179.1854125316
 11
140.0629439659
 21
179.5133185178
  0
LINE
  8
0
 62
7
  6
CONTINUOUS
 10
142.3843100226
 20
205.5983357423
 11
142.4470009172
 21
206.0237778035
  0
LINE
  8
0
 62
7
  6
CONTINUOUS
 10
144.2262298675
 20
205.3710740972
 11
144.1635389729
 21
204.945632036
  0
LINE
  8
0
 62
7
  6
CONTINUOUS
 10
144.6063569998
 20
205.8295351574
 11
144.6690478944
 21
206.2549772186
  0
LINE
  8
0
 62
7
  6
CONTINUOUS
 10
146.3424651686
 20
205.5912640251
 11
146.279774274
 21
205.165821964
  0
LINE
  8
0
 62
7
  6
CONTINUOUS
 10
139.5312003265
 20
179.8814545463
 11
139.4036533107
 21
179.3653895522
  0
LINE
  8
0
 62
7
  6
CONTINUOUS
 10
135.1284169455
 20
172.0969334013
 11
135.0215155645
 21
171.7846103631
  0
LINE
  8
0
 62
7
  6
CONTINUOUS
 10
136.5594527321
 20
170.991109001
 11
136.4525513511
 21
170.6787859628
  0
LINE
  8
0
 62
7
  6
CONTINUOUS
 10
138.5869449486
 20
183.0984917007
 11
138.318597903
 21
182.5340319031
  0
LINE
  8
0
 62
7
  6
CONTINUOUS
 10
140.3362414634
 20
181.5748339391
 11
139.5312003265
 21
179.8814545463
  0
LINE
  8
0
 62
7
  6
CONTINUOUS
 10
140.0629439659
 20
179.5133185178
 11
140.9127109752
 21
181.3007774145
  0
LINE
  8
0
 62
7
  6
CONTINUOUS
 10
132.5348913977
 20
172.9162735211
 11
132.300599508
 21
172.4390957432
  0
LINE
  8
0
 62
7
  6
CONTINUOUS
 10
135.3787131155
 20
171.376940579
 11
135.6129991813
 21
171.854110805
  0
LINE
  8
0
 62
7
  6
CONTINUOUS
 10
136.8097489021
 20
170.2711161787
 11
137.0440349679
 21
170.7482864047
  0
LINE
  8
0
 62
7
  6
CONTINUOUS
 10
136.5401049023
 20
178.8783199024
 11
136.2126703396
 21
178.3459557347
  0
LINE
  8
0
 62
7
  6
CONTINUOUS
 10
134.6846407146
 20
175.8615869107
 11
134.3572061518
 21
175.329222743
  0
LINE
  8
0
 62
7
  6
CONTINUOUS
 10
137.0817610928
 20
177.3222410722
 11
135.9903142157
 21
175.5476965541
  0
LINE
  8
0
 62
7
  6
CONTINUOUS
 10
136.4073439788
 20
175.4134843561
 11
137.389647667
 21
177.0105768594
  0
LINE
  8
0
 62
7
  6
CONTINUOUS
 10
141.7095316271
 20
178.269163326
 11
142.0292351468
 21
178.6938761452
  0
LINE
  8
0
 62
7
  6
CONTINUOUS
 10
132.8533560253
 20
173.3283952637
 11
132.5348913977
 21
172.9162735211
  0
LINE
  8
0
 62
7
  6
CONTINUOUS
 10
132.8920890076
 20
172.5086036915
 11
133.3379441513
 21
173.0855801681
  0
LINE
  8
0
 62
7
  6
CONTINUOUS
 10
135.0215155645
 20
171.7846103631
 11
134.5756604208
 21
171.2076338865
  0
LINE
  8
0
 62
7
  6
CONTINUOUS
 10
135.0602484879
 20
170.9648188364
 11
135.3787131155
 21
171.376940579
  0
LINE
  8
0
 62
7
  6
CONTINUOUS
 10
135.0557696929
 20
169.9151239101
 11
134.7373050653
 21
169.5030021675
  0
LINE
  8
0
 62
7
  6
CONTINUOUS
 10
141.5041180145
 20
178.8281770784
 11
141.2738662397
 21
178.5916232671
  0
LINE
  8
0
 62
7
  6
CONTINUOUS
 10
133.255999222
 20
173.6754685172
 11
132.8533560253
 21
173.3283952637
  0
LINE
  8
0
 62
7
  6
CONTINUOUS
 10
134.6575994672
 20
170.617738031
 11
135.0602484879
 21
170.9648188364
  0
LINE
  8
0
 62
7
  6
CONTINUOUS
 10
136.1523305119
 20
169.5943409977
 11
136.5549737013
 21
169.9414142569
  0
LINE
  8
0
 62
7
  6
CONTINUOUS
 10
133.3379441513
 20
173.0855801681
 11
133.6132026559
 21
173.2678062395
  0
LINE
  8
0
 62
7
  6
CONTINUOUS
 10
134.5756604208
 20
171.2076338865
 11
134.3004019162
 21
171.0254078151
  0
LINE
  8
0
 62
7
  6
CONTINUOUS
 10
136.0703914655
 20
170.1842368532
 11
135.7951329608
 21
170.0020107818
  0
LINE
  8
0
 62
7
  6
CONTINUOUS
 10
135.5813301988
 20
169.3773647054
 11
136.1523305119
 21
169.5943409977
  0
LINE
  8
0
 62
7
  6
CONTINUOUS
 10
94.6631997225
 20
247.8527265584
 11
95.1761441599
 21
247.9922682112
  0
LINE
  8
0
 62
7
  6
CONTINUOUS
 10
89.1188848429
 20
244.9638214575
 11
90.0427736333
 21
245.1229935435
  0
LINE
  8
0
 62
7
  6
CONTINUOUS
 10
89.9344011495
 20
245.7520242077
 11
89.0105123591
 21
245.5928521217
  0
LINE
  8
0
 62
7
  6
CONTINUOUS
 10
91.2631893979
 20
246.6286559621
 11
90.6472635376
 21
246.5225412381
  0
LINE
  8
0
 62
7
  6
CONTINUOUS
 10
90.2318357061
 20
248.9338253164
 11
90.8477615664
 21
249.0399400405
  0
LINE
  8
0
 62
7
  6
CONTINUOUS
 10
88.378339522
 20
249.2621977488
 11
89.3022283124
 21
249.4213698348
  0
LINE
  8
0
 62
7
  6
CONTINUOUS
 10
89.1938558412
 20
250.0504004256
 11
88.2699670508
 21
249.8912283396
  0
LINE
  8
0
 62
7
  6
CONTINUOUS
 10
78.0870598556
 20
244.7218190312
 11
78.5117433646
 21
244.7894395116
  0
LINE
  8
0
 62
7
  6
CONTINUOUS
 10
78.6298145645
 20
245.3040197378
 11
78.3007525277
 21
245.27771838
  0
LINE
  8
0
 62
7
  6
CONTINUOUS
 10
92.311505156
 20
245.4630644698
 11
92.9352204482
 21
245.5031173634
  0
LINE
  8
0
 62
7
  6
CONTINUOUS
 10
92.7920526563
 20
247.7325678012
 11
94.6631997225
 21
247.8527265584
  0
LINE
  8
0
 62
7
  6
CONTINUOUS
 10
94.726245607
 20
248.4963876932
 11
92.7511475783
 21
248.3695535556
  0
LINE
  8
0
 62
7
  6
CONTINUOUS
 10
92.6488848643
 20
249.962018239
 11
94.623982893
 21
250.0888523766
  0
LINE
  8
0
 62
7
  6
CONTINUOUS
 10
94.4859443656
 20
250.6129984582
 11
91.9910820072
 21
250.4527868073
  0
LINE
  8
0
 62
7
  6
CONTINUOUS
 10
113.5742974444
 20
245.7583430911
 11
113.2441862364
 21
245.758762359
  0
LINE
  8
0
 62
7
  6
CONTINUOUS
 10
89.7251898616
 20
250.033990998
 11
89.1938558412
 21
250.0504004256
  0
LINE
  8
0
 62
7
  6
CONTINUOUS
 10
96.9941306833
 20
245.7201321579
 11
99.4921271387
 21
245.6200636371
  0
LINE
  8
0
 62
7
  6
CONTINUOUS
 10
99.6217581457
 20
246.2536805065
 11
97.6441792067
 21
246.3329013552
  0
LINE
  8
0
 62
7
  6
CONTINUOUS
 10
97.7080527319
 20
247.927367211
 11
99.6856316709
 21
247.8481463623
  0
LINE
  8
0
 62
7
  6
CONTINUOUS
 10
99.7111810775
 20
248.4859326153
 11
97.7336021385
 21
248.565153464
  0
LINE
  8
0
 62
7
  6
CONTINUOUS
 10
97.7932174323
 20
250.0533216855
 11
99.7707963713
 21
249.9741008368
  0
LINE
  8
0
 62
7
  6
CONTINUOUS
 10
99.6922641804
 20
250.6160565479
 11
97.194267725
 21
250.7161250687
  0
LINE
  8
0
 62
7
  6
CONTINUOUS
 10
89.3022283124
 20
249.4213698348
 11
89.7309072395
 21
249.3872744849
  0
LINE
  8
0
 62
7
  6
CONTINUOUS
 10
118.172368452
 20
243.8029403799
 11
117.8440901878
 21
243.8376818068
  0
LINE
  8
0
 62
7
  6
CONTINUOUS
 10
112.93915131
 20
245.1884741596
 11
113.4663950689
 21
245.1206664353
  0
LINE
  8
0
 62
7
  6
CONTINUOUS
 10
95.012523829
 20
250.5402115262
 11
94.4859443656
 21
250.6129984582
  0
LINE
  8
0
 62
7
  6
CONTINUOUS
 10
104.1649993519
 20
245.1941801619
 11
104.7759421226
 21
245.0623699537
  0
LINE
  8
0
 62
7
  6
CONTINUOUS
 10
106.2014744773
 20
244.754812969
 11
107.0160640613
 21
244.5790661924
  0
LINE
  8
0
 62
7
  6
CONTINUOUS
 10
108.4415987466
 20
244.2715087049
 11
109.0525415172
 21
244.1396984967
  0
LINE
  8
0
 62
7
  6
CONTINUOUS
 10
110.1070231823
 20
249.0272406621
 11
109.1906090263
 21
249.2249559743
  0
LINE
  8
0
 62
7
  6
CONTINUOUS
 10
106.135895173
 20
249.884007015
 11
105.219481017
 21
250.0817223272
  0
LINE
  8
0
 62
7
  6
CONTINUOUS
 10
100.2084210801
 20
250.4889112624
 11
99.6922641804
 21
250.6160565479
  0
LINE
  8
0
 62
7
  6
CONTINUOUS
 10
94.623982893
 20
250.0888523766
 11
94.9426580521
 21
250.002714531
  0
LINE
  8
0
 62
7
  6
CONTINUOUS
 10
90.1719308672
 20
249.8950572162
 11
89.7251898616
 21
250.033990998
  0
LINE
  8
0
 62
7
  6
CONTINUOUS
 10
109.8509152496
 20
243.8831985924
 11
110.4423151581
 21
243.6810324521
  0
LINE
  8
0
 62
7
  6
CONTINUOUS
 10
111.1649515847
 20
245.7949725804
 11
112.93915131
 21
245.1884741596
  0
LINE
  8
0
 62
7
  6
CONTINUOUS
 10
113.2441862364
 20
245.758762359
 11
111.3714191076
 21
246.3989553937
  0
LINE
  8
0
 62
7
  6
CONTINUOUS
 10
111.8875880112
 20
247.9089127087
 11
113.76035514
 21
247.2687196741
  0
LINE
  8
0
 62
7
  6
CONTINUOUS
 10
113.8338440057
 20
247.8057332989
 11
111.4682443719
 21
248.6143978601
  0
LINE
  8
0
 62
7
  6
CONTINUOUS
 10
99.6856316709
 20
247.8481463623
 11
99.9936229934
 21
247.7293400884
  0
LINE
  8
0
 62
7
  6
CONTINUOUS
 10
99.7707963713
 20
249.9741008368
 11
100.0787876938
 21
249.8552945629
  0
LINE
  8
0
 62
7
  6
CONTINUOUS
 10
114.2741962991
 20
242.3251102752
 11
116.5428896963
 21
241.2748577962
  0
LINE
  8
0
 62
7
  6
CONTINUOUS
 10
116.9055667139
 20
241.8103388099
 11
115.1095192169
 21
242.6417880214
  0
LINE
  8
0
 62
7
  6
CONTINUOUS
 10
115.7798931536
 20
244.08989022
 11
117.5759406507
 21
243.2584410085
  0
LINE
  8
0
 62
7
  6
CONTINUOUS
 10
117.8440901878
 20
243.8376818068
 11
116.0480426908
 21
244.6691310183
  0
LINE
  8
0
 62
7
  6
CONTINUOUS
 10
116.6737250694
 20
246.0206931515
 11
118.4697725664
 21
245.1892439399
  0
LINE
  8
0
 62
7
  6
CONTINUOUS
 10
118.6433946544
 20
245.8122445905
 11
116.3747012572
 21
246.8624970695
  0
LINE
  8
0
 62
7
  6
CONTINUOUS
 10
119.3798465709
 20
241.8621859853
 11
120.6512624023
 21
241.1478733571
  0
LINE
  8
0
 62
7
  6
CONTINUOUS
 10
120.9118017207
 20
241.6116112235
 11
119.6403858893
 21
242.3259238516
  0
LINE
  8
0
 62
7
  6
CONTINUOUS
 10
114.2922652569
 20
247.5365979702
 11
113.8338440057
 21
247.8057332989
  0
LINE
  8
0
 62
7
  6
CONTINUOUS
 10
120.5052856808
 20
239.180949673
 11
121.0238847588
 21
238.8321230738
  0
LINE
  8
0
 62
7
  6
CONTINUOUS
 10
123.444016427
 20
237.2042638365
 11
123.962615505
 21
236.8554372373
  0
LINE
  8
0
 62
7
  6
CONTINUOUS
 10
122.3301290559
 20
240.7741111262
 11
124.7502607241
 21
239.1462518889
  0
LINE
  8
0
 62
7
  6
CONTINUOUS
 10
125.1065091234
 20
239.6758849267
 11
122.6863774552
 21
241.303744164
  0
LINE
  8
0
 62
7
  6
CONTINUOUS
 10
126.7532282988
 20
241.004229861
 11
126.2346292209
 21
241.3530564603
  0
LINE
  8
0
 62
7
  6
CONTINUOUS
 10
123.8144975526
 20
242.9809156975
 11
123.2958984746
 21
243.3297422968
  0
LINE
  8
0
 62
7
  6
CONTINUOUS
 10
119.071348965
 20
245.4969011899
 11
118.6433946544
 21
245.8122445905
  0
LINE
  8
0
 62
7
  6
CONTINUOUS
 10
113.76035514
 20
247.2687196741
 11
114.0216438404
 21
247.0669728018
  0
LINE
  8
0
 62
7
  6
CONTINUOUS
 10
117.5759406507
 20
243.2584410085
 11
117.8148357358
 21
243.0306193155
  0
LINE
  8
0
 62
7
  6
CONTINUOUS
 10
118.4697725664
 20
245.1892439399
 11
118.7086676515
 21
244.961422247
  0
LINE
  8
0
 62
7
  6
CONTINUOUS
 10
141.9025055534
 20
209.4831816848
 11
141.6920690994
 21
209.9713393274
  0
LINE
  8
0
 62
7
  6
CONTINUOUS
 10
145.3349588922
 20
211.2628108516
 11
145.5453972924
 21
210.7746438729
  0
LINE
  8
0
 62
7
  6
CONTINUOUS
 10
141.1713490694
 20
209.8627846583
 11
141.4030448035
 21
209.2726495685
  0
LINE
  8
0
 62
7
  6
CONTINUOUS
 10
146.0661172495
 20
210.8831985268
 11
145.8344215245
 21
211.4733336186
  0
LINE
  8
0
 62
7
  6
CONTINUOUS
 10
142.5763624972
 20
204.7804895901
 11
142.4274298913
 21
205.1839126615
  0
LINE
  8
0
 62
7
  6
CONTINUOUS
 10
144.034177393
 20
206.1889202494
 11
144.1831099989
 21
205.785497178
  0
LINE
  8
0
 62
7
  6
CONTINUOUS
 10
144.7984094743
 20
205.0116890052
 11
144.6494768685
 21
205.4151120766
  0
LINE
  8
0
 62
7
  6
CONTINUOUS
 10
146.150412694
 20
206.4091101774
 11
146.2993452999
 21
206.0056871059
  0
LINE
  8
0
 62
7
  6
CONTINUOUS
 10
139.3062690438
 20
216.4754825694
 11
140.5853125884
 21
212.5099882148
  0
LINE
  8
0
 62
7
  6
CONTINUOUS
 10
141.1927928048
 20
212.7059268746
 11
140.1056058652
 21
216.0765968492
  0
LINE
  8
0
 62
7
  6
CONTINUOUS
 10
143.55863063
 20
217.847053211
 11
144.6777946464
 21
214.3772428143
  0
LINE
  8
0
 62
7
  6
CONTINUOUS
 10
141.9091515267
 20
205.0252546666
 11
142.0688636155
 21
204.5182305687
  0
LINE
  8
0
 62
7
  6
CONTINUOUS
 10
146.828404051
 20
206.0607345802
 11
146.6686909845
 21
206.5677681646
  0
LINE
  8
0
 62
7
  6
CONTINUOUS
 10
146.8715239197
 20
205.6463114994
 11
146.828404051
 21
206.0607345802
  0
LINE
  8
0
 62
7
  6
CONTINUOUS
 10
150.4384354486
 20
226.578035357
 11
150.4384354486
 21
196.6790598413
  0
LINE
  8
0
 62
7
  6
CONTINUOUS
 10
134.8557162772
 20
151.6278444278
 11
135.2672754204
 21
152.5726597091
  0
LINE
  8
0
 62
7
  6
CONTINUOUS
 10
142.3538850239
 20
180.6156359752
 11
141.5041180145
 21
178.8281770784
  0
LINE
  8
0
 62
7
  6
CONTINUOUS
 10
142.0292351468
 20
178.6938761452
 11
143.1026233294
 21
180.9517153356
  0
LINE
  8
0
 62
7
  6
CONTINUOUS
 10
139.4892799933
 20
174.1293867293
 11
139.9258577449
 21
174.8392029119
  0
LINE
  8
0
 62
7
  6
CONTINUOUS
 10
136.4525513511
 20
170.6787859628
 11
136.0703914655
 21
170.1842368532
  0
LINE
  8
0
 62
7
  6
CONTINUOUS
 10
136.5549737013
 20
169.9414142569
 11
136.8097489021
 21
170.2711161787
  0
LINE
  8
0
 62
7
  6
CONTINUOUS
 10
153.1347102344
 20
181.2894674813
 11
131.9929418967
 21
160.1476991436
  0
LINE
  8
0
 62
7
  6
CONTINUOUS
 10
89.1182755818
 20
139.3103256195
 11
90.0773771352
 21
139.6873946509
  0
LINE
  8
0
 62
7
  6
CONTINUOUS
 10
71.2194599329
 20
253.9990598413
 11
101.1184354486
 21
253.9990598413
  0
LINE
  8
0
 62
7
  6
CONTINUOUS
 10
146.169650862
 20
238.4163406699
 11
145.2248355807
 21
238.8278998131
  0
LINE
  8
0
 62
7
  6
CONTINUOUS
 10
116.5080278085
 20
256.6953346271
 11
137.6497961462
 21
235.5535662894
  0
LINE
  8
0
 62
7
  6
CONTINUOUS
 10
158.4871696703
 20
192.6788999744
 11
158.110100639
 21
193.6380015278
  0
LINE
  8
0
 62
7
  6
CONTINUOUS
 10
145.3439076292
 20
214.0448410538
 11
144.0648640846
 21
218.0103354084
  0
LINE
  8
0
 62
7
  6
CONTINUOUS
 10
32.7400940487
 20
80.6455088826
 11
32.7400940487
 21
72.8985283165
  0
LINE
  8
0
 62
7
  6
CONTINUOUS
 10
58.8875316116
 20
81.0220185996
 11
58.8875316116
 21
72.5220185996
  0
LINE
  8
1_AXIS
 62
7
  6
CONTINUOUS
 10
64.6184354486
 20
95.9220185996
 11
64.6184354486
 21
84.0220185996
  0
LINE
  8
1_AXIS
 62
7
  6
CONTINUOUS
 10
64.6184354486
 20
69.5220185996
 11
64.6184354486
 21
57.6220185996
  0
LINE
  8
0
 62
7
  6
CONTINUOUS
 10
72.6230984614
 20
72.0220185996
 11
72.6230984614
 21
71.7220185996
  0
LINE
  8
0
 62
7
  6
CONTINUOUS
 10
73.0812071213
 20
72.0220185996
 11
73.0812071213
 21
71.7220185996
  0
LINE
  8
0
 62
7
  6
CONTINUOUS
 10
74.0934879176
 20
72.0220185996
 11
74.0934879176
 21
71.7220185996
  0
LINE
  8
0
 62
7
  6
CONTINUOUS
 10
74.3369517715
 20
72.0220185996
 11
74.3369517715
 21
71.7220185996
  0
LINE
  8
0
 62
7
  6
CONTINUOUS
 10
74.6720374059
 20
72.0220185996
 11
74.6720374059
 21
71.7220185996
  0
LINE
  8
0
 62
7
  6
CONTINUOUS
 10
74.9136417278
 20
72.0220185996
 11
74.9136417278
 21
71.7220185996
  0
LINE
  8
0
 62
7
  6
CONTINUOUS
 10
75.3717504859
 20
72.0220185996
 11
75.3717504859
 21
71.7220185996
  0
LINE
  8
0
 62
7
  6
CONTINUOUS
 10
76.5795690377
 20
72.0220185996
 11
76.5795690377
 21
71.7220185996
  0
LINE
  8
0
 62
7
  6
CONTINUOUS
 10
77.0576755779
 20
72.0220185996
 11
77.0576755779
 21
71.7220185996
  0
LINE
  8
0
 62
7
  6
CONTINUOUS
 10
77.2686664148
 20
72.0220185996
 11
77.2686664148
 21
71.7220185996
  0
LINE
  8
0
 62
7
  6
CONTINUOUS
 10
77.3755127508
 20
72.0220185996
 11
77.3755127508
 21
71.7220185996
  0
LINE
  8
0
 62
7
  6
CONTINUOUS
 10
77.5779800119
 20
72.0220185996
 11
77.5779800119
 21
71.7220185996
  0
LINE
  8
0
 62
7
  6
CONTINUOUS
 10
77.9182671862
 20
72.0220185996
 11
77.9182671862
 21
71.7220185996
  0
LINE
  8
0
 62
7
  6
CONTINUOUS
 10
78.3007525277
 20
72.0220185996
 11
78.3007525277
 21
71.7220185996
  0
LINE
  8
0
 62
7
  6
CONTINUOUS
 10
78.6298145645
 20
72.0220185996
 11
78.6298145645
 21
71.7220185996
  0
LINE
  8
0
 62
7
  6
CONTINUOUS
 10
79.0010747687
 20
72.0220185996
 11
79.0010747687
 21
71.7220185996
  0
LINE
  8
0
 62
7
  6
CONTINUOUS
 10
79.2767135006
 20
72.0220185996
 11
79.2767135006
 21
71.7220185996
  0
LINE
  8
0
 62
7
  6
CONTINUOUS
 10
79.4989294749
 20
72.0220185996
 11
79.4989294749
 21
71.7220185996
  0
POLYLINE
  8
0
 62
7
  6
CONTINUOUS
 66
1
 70
0
  0
VERTEX
  8
0
 62
7
  6
CONTINUOUS
 10
161.0690050642
 20
72.4037728114
  0
VERTEX
  8
0
 62
7
  6
CONTINUOUS
 10
161.1525539548
 20
72.4234141269
  0
VERTEX
  8
0
 62
7
  6
CONTINUOUS
 10
161.2559345578
 20
72.4709335531
  0
VERTEX
  8
0
 62
7
  6
CONTINUOUS
 10
161.3444255294
 20
72.5391672242
  0
VERTEX
  8
0
 62
7
  6
CONTINUOUS
 10
161.414428587
 20
72.6236337452
  0
VERTEX
  8
0
 62
7
  6
CONTINUOUS
 10
161.4643349903
 20
72.7213578222
  0
VERTEX
  8
0
 62
7
  6
CONTINUOUS
 10
161.4921832692
 20
72.8309082141
  0
SEQEND
  0
LINE
  8
1_AXIS
 62
7
  6
CONTINUOUS
 10
127.6184354486
 20
55.6220185996
 11
66.6184354486
 21
55.6220185996
  0
POLYLINE
  8
0
 62
7
  6
CONTINUOUS
 66
1
 70
0
  0
VERTEX
  8
0
 62
7
  6
CONTINUOUS
 10
33.1678658763
 20
72.4037728051
  0
VERTEX
  8
0
 62
7
  6
CONTINUOUS
 10
33.0843169424
 20
72.4234141269
  0
VERTEX
  8
0
 62
7
  6
CONTINUOUS
 10
32.9809363394
 20
72.4709335531
  0
VERTEX
  8
0
 62
7
  6
CONTINUOUS
 10
32.8924453678
 20
72.5391672242
  0
VERTEX
  8
0
 62
7
  6
CONTINUOUS
 10
32.8224423102
 20
72.6236337452
  0
VERTEX
  8
0
 62
7
  6
CONTINUOUS
 10
32.7725359069
 20
72.7213578222
  0
VERTEX
  8
0
 62
7
  6
CONTINUOUS
 10
32.7446876279
 20
72.8309082141
  0
VERTEX
  8
0
 62
7
  6
CONTINUOUS
 10
32.7400940508
 20
72.8985283165
  0
SEQEND
  0
LINE
  8
0
 62
7
  6
CONTINUOUS
 10
79.6742862738
 20
72.0220185996
 11
79.6742862738
 21
71.7220185996
  0
LINE
  8
0
 62
7
  6
CONTINUOUS
 10
80.1633342093
 20
72.0220185996
 11
80.1633342093
 21
71.7220185996
  0
LINE
  8
0
 62
7
  6
CONTINUOUS
 10
80.3463089237
 20
72.0220185996
 11
80.3463089237
 21
71.7220185996
  0
LINE
  8
0
 62
7
  6
CONTINUOUS
 10
80.7122584551
 20
72.0220185996
 11
80.7122584551
 21
71.7220185996
  0
LINE
  8
0
 62
7
  6
CONTINUOUS
 10
81.88329673
 20
72.0220185996
 11
81.88329673
 21
71.7220185996
  0
POLYLINE
  8
0
 62
7
  6
CONTINUOUS
 66
1
 70
0
  0
VERTEX
  8
0
 62
7
  6
CONTINUOUS
 10
153.943289851
 20
72.4020805681
  0
VERTEX
  8
0
 62
7
  6
CONTINUOUS
 10
154.0510359786
 20
72.427327227
  0
VERTEX
  8
0
 62
7
  6
CONTINUOUS
 10
154.1493162183
 20
72.4748556821
  0
VERTEX
  8
0
 62
7
  6
CONTINUOUS
 10
154.2368520398
 20
72.5444792362
  0
VERTEX
  8
0
 62
7
  6
CONTINUOUS
 10
154.3081246728
 20
72.6340583591
  0
VERTEX
  8
0
 62
7
  6
CONTINUOUS
 10
154.3582332398
 20
72.7407043967
  0
VERTEX
  8
0
 62
7
  6
CONTINUOUS
 10
154.3821970885
 20
72.8585859464
  0
VERTEX
  8
0
 62
7
  6
CONTINUOUS
 10
154.3837950277
 20
72.8985283165
  0
SEQEND
  0
POLYLINE
  8
0
 62
7
  6
CONTINUOUS
 66
1
 70
0
  0
VERTEX
  8
0
 62
7
  6
CONTINUOUS
 10
33.1660651774
 20
72.4040389145
  0
VERTEX
  8
0
 62
7
  6
CONTINUOUS
 10
34.0227247306
 20
72.2803742711
  0
VERTEX
  8
0
 62
7
  6
CONTINUOUS
 10
34.940128362
 20
72.1574948321
  0
SEQEND
  0
LINE
  8
0
 62
7
  6
CONTINUOUS
 10
86.9164917888
 20
72.0220185996
 11
86.9164917888
 21
71.7220185996
  0
LINE
  8
0
 62
7
  6
CONTINUOUS
 10
86.928835264
 20
72.0220185996
 11
86.928835264
 21
71.7220185996
  0
LINE
  8
0
 62
7
  6
CONTINUOUS
 10
87.0618959615
 20
72.0220185996
 11
87.0618959615
 21
71.7220185996
  0
LINE
  8
0
 62
7
  6
CONTINUOUS
 10
87.400264496
 20
72.0220185996
 11
87.400264496
 21
71.7220185996
  0
LINE
  8
0
 62
7
  6
CONTINUOUS
 10
87.7747571875
 20
72.0220185996
 11
87.7747571875
 21
71.7220185996
  0
LINE
  8
0
 62
7
  6
CONTINUOUS
 10
88.2699670508
 20
72.0220185996
 11
88.2699670508
 21
71.7220185996
  0
POLYLINE
  8
0
 62
7
  6
CONTINUOUS
 66
1
 70
0
  0
VERTEX
  8
0
 62
7
  6
CONTINUOUS
 10
151.1347232299
 20
72.0449602375
  0
VERTEX
  8
0
 62
7
  6
CONTINUOUS
 10
151.5535249463
 20
72.1062843707
  0
VERTEX
  8
0
 62
7
  6
CONTINUOUS
 10
152.0863950393
 20
72.1775608731
  0
SEQEND
  0
LINE
  8
0
 62
7
  6
CONTINUOUS
 10
151.054000898
 20
72.0341756149
 11
151.1347034068
 21
72.0449572958
  0
POLYLINE
  8
0
 62
7
  6
CONTINUOUS
 66
1
 70
0
  0
VERTEX
  8
0
 62
7
  6
CONTINUOUS
 10
158.3713970722
 20
72.0426700967
  0
VERTEX
  8
0
 62
7
  6
CONTINUOUS
 10
159.296742544
 20
72.1574948332
  0
VERTEX
  8
0
 62
7
  6
CONTINUOUS
 10
160.2141461832
 20
72.2803742734
  0
VERTEX
  8
0
 62
7
  6
CONTINUOUS
 10
161.0712111964
 20
72.4041000743
  0
SEQEND
  0
LINE
  8
0
 62
7
  6
CONTINUOUS
 10
152.0863950393
 20
72.1775608731
 11
152.6338537353
 21
72.2453009422
  0
LINE
  8
0
 62
7
  6
CONTINUOUS
 10
152.6338596519
 20
72.2453016464
 11
153.9432898542
 21
72.4020805651
  0
LINE
  8
0
 62
7
  6
CONTINUOUS
 10
35.8654762264
 20
72.0426697641
 11
35.9699795125
 21
72.0321089134
  0
LINE
  8
0
 62
7
  6
CONTINUOUS
 10
34.940128362
 20
72.1574948321
 11
35.865473825
 21
72.0426700967
  0
LINE
  8
0
 62
7
  6
CONTINUOUS
 10
89.1938558412
 20
72.0220185996
 11
89.1938558412
 21
71.7220185996
  0
LINE
  8
0
 62
7
  6
CONTINUOUS
 10
89.7251898616
 20
72.0220185996
 11
89.7251898616
 21
71.7220185996
  0
LINE
  8
0
 62
7
  6
CONTINUOUS
 10
90.1719308672
 20
72.0220185996
 11
90.1719308672
 21
71.7220185996
  0
LINE
  8
0
 62
7
  6
CONTINUOUS
 10
90.6547960299
 20
72.0220185996
 11
90.6547960299
 21
71.7220185996
  0
LINE
  8
0
 62
7
  6
CONTINUOUS
 10
90.8477615664
 20
72.0220185996
 11
90.8477615664
 21
71.7220185996
  0
LINE
  8
0
 62
7
  6
CONTINUOUS
 10
91.2631893979
 20
72.0220185996
 11
91.2631893979
 21
71.7220185996
  0
LINE
  8
0
 62
7
  6
CONTINUOUS
 10
91.9910820072
 20
72.0220185996
 11
91.9910820072
 21
71.7220185996
  0
POLYLINE
  8
0
 62
7
  6
CONTINUOUS
 66
1
 70
0
  0
VERTEX
  8
0
 62
7
  6
CONTINUOUS
 10
150.8423930742
 20
72.0220186916
  0
VERTEX
  8
0
 62
7
  6
CONTINUOUS
 10
150.924998766
 20
72.0239076646
  0
VERTEX
  8
0
 62
7
  6
CONTINUOUS
 10
151.054000898
 20
72.0341756149
  0
SEQEND
  0
POLYLINE
  8
0
 62
7
  6
CONTINUOUS
 66
1
 70
0
  0
VERTEX
  8
0
 62
7
  6
CONTINUOUS
 10
158.0211628183
 20
72.0220185425
  0
VERTEX
  8
0
 62
7
  6
CONTINUOUS
 10
158.1282427977
 20
72.0239147187
  0
VERTEX
  8
0
 62
7
  6
CONTINUOUS
 10
158.2668913846
 20
72.0321089134
  0
VERTEX
  8
0
 62
7
  6
CONTINUOUS
 10
158.3713946707
 20
72.0426697641
  0
SEQEND
  0
LINE
  8
0
 62
7
  6
CONTINUOUS
 10
146.8715239197
 20
71.7220185996
 11
134.3572061518
 21
71.7220185996
  0
LINE
  8
0
 62
7
  6
CONTINUOUS
 10
134.354799608
 20
71.7220185996
 11
132.2346705879
 21
71.7220185996
  0
LINE
  8
0
 62
7
  6
CONTINUOUS
 10
126.7532282988
 20
71.7220185996
 11
104.1649993519
 21
71.7220185996
  0
LINE
  8
0
 62
7
  6
CONTINUOUS
 10
103.7752358964
 20
71.7220185996
 11
101.8269142345
 21
71.7220185996
  0
LINE
  8
0
 62
7
  6
CONTINUOUS
 10
100.9985034269
 20
71.7220185996
 11
96.9941306833
 21
71.7220185996
  0
LINE
  8
0
 62
7
  6
CONTINUOUS
 10
95.9395886264
 20
71.7220185996
 11
91.9910820072
 21
71.7220185996
  0
LINE
  8
0
 62
7
  6
CONTINUOUS
 10
91.2631893979
 20
71.7220185996
 11
86.9164917888
 21
71.7220185996
  0
LINE
  8
0
 62
7
  6
CONTINUOUS
 10
81.88329673
 20
71.7220185996
 11
72.6230984614
 21
71.7220185996
  0
LINE
  8
0
 62
7
  6
CONTINUOUS
 10
36.2155526684
 20
72.0220185996
 11
158.0213182287
 21
72.0220185996
  0
POLYLINE
  8
0
 62
7
  6
CONTINUOUS
 66
1
 70
0
  0
VERTEX
  8
0
 62
7
  6
CONTINUOUS
 10
35.9699795125
 20
72.0321089134
  0
VERTEX
  8
0
 62
7
  6
CONTINUOUS
 10
36.1086280995
 20
72.0239147187
  0
VERTEX
  8
0
 62
7
  6
CONTINUOUS
 10
36.2157080789
 20
72.0220185425
  0
SEQEND
  0
LINE
  8
0
 62
7
  6
CONTINUOUS
 10
95.9107388874
 20
71.7192825343
 11
97.1184354486
 21
71.0220185996
  0
LINE
  8
0
 62
7
  6
CONTINUOUS
 10
94.4859443656
 20
72.0220185996
 11
94.4859443656
 21
71.7220185996
  0
LINE
  8
0
 62
7
  6
CONTINUOUS
 10
95.012523829
 20
72.0220185996
 11
95.012523829
 21
71.7220185996
  0
LINE
  8
0
 62
7
  6
CONTINUOUS
 10
95.4487873558
 20
72.0220185996
 11
95.4487873558
 21
71.7220185996
  0
LINE
  8
0
 62
7
  6
CONTINUOUS
 10
95.7879150539
 20
72.0220185996
 11
95.7879150539
 21
71.7220185996
  0
LINE
  8
0
 62
7
  6
CONTINUOUS
 10
95.9123185554
 20
72.0220185996
 11
95.9123185554
 21
71.7220185996
  0
LINE
  8
0
 62
7
  6
CONTINUOUS
 10
95.9395886264
 20
72.0220185996
 11
95.9395886264
 21
71.7220185996
  0
LINE
  8
0
 62
7
  6
CONTINUOUS
 10
96.9941306833
 20
72.0220185996
 11
96.9941306833
 21
71.7220185996
  0
LINE
  8
1_AXIS
 62
2
  6
CENTER
 10
97.1184354486
 20
53.6220185996
 11
97.1184354486
 21
99.9220185996
  0
LINE
  8
0
 62
7
  6
CONTINUOUS
 10
97.194267725
 20
72.0220185996
 11
97.194267725
 21
71.7220185996
  0
LINE
  8
0
 62
7
  6
CONTINUOUS
 10
99.6922641804
 20
72.0220185996
 11
99.6922641804
 21
71.7220185996
  0
LINE
  8
0
 62
7
  6
CONTINUOUS
 10
100.2084210801
 20
72.0220185996
 11
100.2084210801
 21
71.7220185996
  0
LINE
  8
0
 62
7
  6
CONTINUOUS
 10
100.6119799135
 20
72.0220185996
 11
100.6119799135
 21
71.7220185996
  0
LINE
  8
0
 62
7
  6
CONTINUOUS
 10
100.9071965327
 20
72.0220185996
 11
100.9071965327
 21
71.7220185996
  0
LINE
  8
0
 62
7
  6
CONTINUOUS
 10
100.9985034269
 20
72.0220185996
 11
100.9985034269
 21
71.7220185996
  0
LINE
  8
0
 62
7
  6
CONTINUOUS
 10
101.8269142345
 20
72.0220185996
 11
101.8269142345
 21
71.7220185996
  0
LINE
  8
0
 62
7
  6
CONTINUOUS
 10
98.3308710139
 20
71.7220185996
 11
97.1184354486
 21
71.0220185996
  0
LINE
  8
1_AXIS
 62
7
  6
CONTINUOUS
 10
150.8423986893
 20
81.5220185996
 11
145.9686622828
 21
81.5220185996
  0
LINE
  8
1_AXIS
 62
7
  6
CONTINUOUS
 10
38.0367503466
 20
81.5220185996
 11
36.2155526684
 21
81.5220185996
  0
LINE
  8
0
 62
7
  6
CONTINUOUS
 10
36.2155526684
 20
81.5220185996
 11
158.0213182288
 21
81.5220185996
  0
LINE
  8
0
 62
7
  6
CONTINUOUS
 10
103.4905352737
 20
72.0220185996
 11
103.4905352737
 21
71.7220185996
  0
LINE
  8
0
 62
7
  6
CONTINUOUS
 10
103.7752358964
 20
72.0220185996
 11
103.7752358964
 21
71.7220185996
  0
LINE
  8
0
 62
7
  6
CONTINUOUS
 10
104.1649993519
 20
72.0220185996
 11
104.1649993519
 21
71.7220185996
  0
LINE
  8
0
 62
7
  6
CONTINUOUS
 10
105.219481017
 20
72.0220185996
 11
105.219481017
 21
71.7220185996
  0
LINE
  8
0
 62
7
  6
CONTINUOUS
 10
106.135895173
 20
72.0220185996
 11
106.135895173
 21
71.7220185996
  0
LINE
  8
0
 62
7
  6
CONTINUOUS
 10
106.7209493374
 20
72.0220185996
 11
106.7209493374
 21
71.7220185996
  0
POLYLINE
  8
0
 62
7
  6
CONTINUOUS
 66
1
 70
0
  0
VERTEX
  8
0
 62
7
  6
CONTINUOUS
 10
36.2153570755
 20
81.5220186427
  0
VERTEX
  8
0
 62
7
  6
CONTINUOUS
 10
36.1057661389
 20
81.5200192278
  0
VERTEX
  8
0
 62
7
  6
CONTINUOUS
 10
35.9671203654
 20
81.5116900477
  0
SEQEND
  0
POLYLINE
  8
0
 62
7
  6
CONTINUOUS
 66
1
 70
0
  0
VERTEX
  8
0
 62
7
  6
CONTINUOUS
 10
151.0498288018
 20
81.5103292711
  0
VERTEX
  8
0
 62
7
  6
CONTINUOUS
 10
150.920901947
 20
81.5203111258
  0
VERTEX
  8
0
 62
7
  6
CONTINUOUS
 10
150.8423580501
 20
81.5220185268
  0
SEQEND
  0
LINE
  8
0
 62
7
  6
CONTINUOUS
 10
109.1906090263
 20
72.0220185996
 11
109.1906090263
 21
71.7220185996
  0
LINE
  8
0
 62
7
  6
CONTINUOUS
 10
110.1070231823
 20
72.0220185996
 11
110.1070231823
 21
71.7220185996
  0
LINE
  8
0
 62
7
  6
CONTINUOUS
 10
34.0205175317
 20
81.2633557548
 11
33.1660540921
 21
81.1399966286
  0
POLYLINE
  8
0
 62
7
  6
CONTINUOUS
 66
1
 70
0
  0
VERTEX
  8
0
 62
7
  6
CONTINUOUS
 10
35.8654737854
 20
81.5013670953
  0
VERTEX
  8
0
 62
7
  6
CONTINUOUS
 10
34.937825397
 20
81.3862455116
  0
VERTEX
  8
0
 62
7
  6
CONTINUOUS
 10
34.0205175317
 20
81.2633557548
  0
SEQEND
  0
LINE
  8
0
 62
7
  6
CONTINUOUS
 10
35.9671203654
 20
81.5116900477
 11
35.8654761424
 21
81.5013674364
  0
POLYLINE
  8
0
 62
7
  6
CONTINUOUS
 66
1
 70
0
  0
VERTEX
  8
0
 62
7
  6
CONTINUOUS
 10
158.3713947548
 20
81.5013674364
  0
VERTEX
  8
0
 62
7
  6
CONTINUOUS
 10
158.2697505317
 20
81.5116900477
  0
VERTEX
  8
0
 62
7
  6
CONTINUOUS
 10
158.1311047583
 20
81.5200192278
  0
VERTEX
  8
0
 62
7
  6
CONTINUOUS
 10
158.0215138216
 20
81.5220186427
  0
SEQEND
  0
LINE
  8
0
 62
7
  6
CONTINUOUS
 10
153.9434373729
 20
81.1419385673
 11
152.6122697811
 21
81.3014077612
  0
POLYLINE
  8
0
 62
7
  6
CONTINUOUS
 66
1
 70
0
  0
VERTEX
  8
0
 62
7
  6
CONTINUOUS
 10
152.6122697811
 20
81.3014077612
  0
VERTEX
  8
0
 62
7
  6
CONTINUOUS
 10
152.0819108622
 20
81.3670516874
  0
VERTEX
  8
0
 62
7
  6
CONTINUOUS
 10
151.5496151119
 20
81.4383003908
  0
VERTEX
  8
0
 62
7
  6
CONTINUOUS
 10
151.1347240265
 20
81.4990768366
  0
SEQEND
  0
LINE
  8
0
 62
7
  6
CONTINUOUS
 10
151.1347018207
 20
81.4990801049
 11
151.0498288018
 21
81.5103292711
  0
POLYLINE
  8
0
 62
7
  6
CONTINUOUS
 66
1
 70
0
  0
VERTEX
  8
0
 62
7
  6
CONTINUOUS
 10
161.0708057463
 20
81.1399982844
  0
VERTEX
  8
0
 62
7
  6
CONTINUOUS
 10
160.2163584205
 20
81.2633550512
  0
VERTEX
  8
0
 62
7
  6
CONTINUOUS
 10
159.2990481323
 20
81.3862451723
  0
VERTEX
  8
0
 62
7
  6
CONTINUOUS
 10
158.3713971117
 20
81.5013670953
  0
SEQEND
  0
LINE
  8
0
 62
7
  6
CONTINUOUS
 10
111.4682443719
 20
72.0220185996
 11
111.4682443719
 21
71.7220185996
  0
LINE
  8
0
 62
7
  6
CONTINUOUS
 10
113.8338440057
 20
72.0220185996
 11
113.8338440057
 21
71.7220185996
  0
LINE
  8
0
 62
7
  6
CONTINUOUS
 10
114.0184354486
 20
72.7417625193
 11
114.0184354486
 21
80.8022746798
  0
LINE
  8
0
 62
7
  6
CONTINUOUS
 10
114.2922652569
 20
72.0220185996
 11
114.2922652569
 21
71.7220185996
  0
LINE
  8
0
 62
7
  6
CONTINUOUS
 10
114.5832988531
 20
72.0220185996
 11
114.5832988531
 21
71.7220185996
  0
LINE
  8
0
 62
7
  6
CONTINUOUS
 10
114.7413537921
 20
72.0220185996
 11
114.7413537921
 21
71.7220185996
  0
LINE
  8
0
 62
7
  6
CONTINUOUS
 10
153.9423910489
 20
81.1420632949
 11
154.013102998
 21
81.1284989971
  0
LINE
  8
0
 62
7
  6
CONTINUOUS
 10
116.3747012572
 20
72.0220185996
 11
116.3747012572
 21
71.7220185996
  0
LINE
  8
0
 62
7
  6
CONTINUOUS
 10
118.6433946544
 20
72.0220185996
 11
118.6433946544
 21
71.7220185996
  0
LINE
  8
0
 62
7
  6
CONTINUOUS
 10
119.071348965
 20
72.0220185996
 11
119.071348965
 21
71.7220185996
  0
LINE
  8
0
 62
7
  6
CONTINUOUS
 10
119.3153883202
 20
72.0220185996
 11
119.3153883202
 21
71.7220185996
  0
LINE
  8
0
 62
7
  6
CONTINUOUS
 10
119.4202086367
 20
72.0220185996
 11
119.4202086367
 21
71.7220185996
  0
LINE
  8
0
 62
7
  6
CONTINUOUS
 10
119.6403858893
 20
72.0220185996
 11
119.6403858893
 21
71.7220185996
  0
POLYLINE
  8
0
 62
7
  6
CONTINUOUS
 66
1
 70
0
  0
VERTEX
  8
0
 62
7
  6
CONTINUOUS
 10
33.1660623787
 20
81.1399978227
  0
VERTEX
  8
0
 62
7
  6
CONTINUOUS
 10
33.0658695394
 20
81.1141727498
  0
VERTEX
  8
0
 62
7
  6
CONTINUOUS
 10
32.9726151523
 20
81.0679482747
  0
VERTEX
  8
0
 62
7
  6
CONTINUOUS
 10
32.8903550352
 20
81.0028359351
  0
VERTEX
  8
0
 62
7
  6
CONTINUOUS
 10
32.822868108
 20
80.921049287
  0
VERTEX
  8
0
 62
7
  6
CONTINUOUS
 10
32.7737509688
 20
80.8258533636
  0
VERTEX
  8
0
 62
7
  6
CONTINUOUS
 10
32.7458869803
 20
80.7213994195
  0
VERTEX
  8
0
 62
7
  6
CONTINUOUS
 10
32.7400941805
 20
80.6455088826
  0
SEQEND
  0
LINE
  8
1_AXIS
 62
7
  6
CONTINUOUS
 10
127.6184354486
 20
97.9220185996
 11
66.6184354486
 21
97.9220185996
  0
POLYLINE
  8
0
 62
7
  6
CONTINUOUS
 66
1
 70
0
  0
VERTEX
  8
0
 62
7
  6
CONTINUOUS
 10
161.0690050779
 20
81.1402643857
  0
VERTEX
  8
0
 62
7
  6
CONTINUOUS
 10
161.1525539549
 20
81.1206230722
  0
VERTEX
  8
0
 62
7
  6
CONTINUOUS
 10
161.2559345579
 20
81.073103646
  0
VERTEX
  8
0
 62
7
  6
CONTINUOUS
 10
161.3444255294
 20
81.0048699749
  0
VERTEX
  8
0
 62
7
  6
CONTINUOUS
 10
161.414428587
 20
80.9204034538
  0
VERTEX
  8
0
 62
7
  6
CONTINUOUS
 10
161.4643349903
 20
80.8226793768
  0
VERTEX
  8
0
 62
7
  6
CONTINUOUS
 10
161.4921832693
 20
80.713128985
  0
SEQEND
  0
LINE
  8
0
 62
7
  6
CONTINUOUS
 10
120.9118017207
 20
72.0220185996
 11
120.9118017207
 21
71.7220185996
  0
LINE
  8
0
 62
7
  6
CONTINUOUS
 10
123.2958984746
 20
72.0220185996
 11
123.2958984746
 21
71.7220185996
  0
LINE
  8
0
 62
7
  6
CONTINUOUS
 10
123.8144975526
 20
72.0220185996
 11
123.8144975526
 21
71.7220185996
  0
POLYLINE
  8
0
 62
7
  6
CONTINUOUS
 66
1
 70
0
  0
VERTEX
  8
0
 62
7
  6
CONTINUOUS
 10
154.013102998
 20
81.1284989971
  0
VERTEX
  8
0
 62
7
  6
CONTINUOUS
 10
154.1080089258
 20
81.0924184161
  0
VERTEX
  8
0
 62
7
  6
CONTINUOUS
 10
154.1942756313
 20
81.0374295369
  0
VERTEX
  8
0
 62
7
  6
CONTINUOUS
 10
154.2688841031
 20
80.9644233061
  0
VERTEX
  8
0
 62
7
  6
CONTINUOUS
 10
154.3277273507
 20
80.8755612657
  0
VERTEX
  8
0
 62
7
  6
CONTINUOUS
 10
154.3671090227
 20
80.7736009946
  0
VERTEX
  8
0
 62
7
  6
CONTINUOUS
 10
154.3835744335
 20
80.6603598983
  0
VERTEX
  8
0
 62
7
  6
CONTINUOUS
 10
154.3837950283
 20
80.6455088826
  0
SEQEND
  0
LINE
  8
0
 62
7
  6
CONTINUOUS
 10
125.1065091234
 20
72.0220185996
 11
125.1065091234
 21
71.7220185996
  0
LINE
  8
0
 62
7
  6
CONTINUOUS
 10
126.2346292209
 20
72.0220185996
 11
126.2346292209
 21
71.7220185996
  0
LINE
  8
0
 62
7
  6
CONTINUOUS
 10
126.7532282988
 20
72.0220185996
 11
126.7532282988
 21
71.7220185996
  0
LINE
  8
1_AXIS
 62
7
  6
CONTINUOUS
 10
129.6184354486
 20
95.9220185996
 11
129.6184354486
 21
84.0220185996
  0
LINE
  8
1_AXIS
 62
7
  6
CONTINUOUS
 10
129.6184354486
 20
69.5220185996
 11
129.6184354486
 21
57.6220185996
  0
LINE
  8
0
 62
7
  6
CONTINUOUS
 10
132.2346705879
 20
72.0220185996
 11
132.2346705879
 21
71.7220185996
  0
LINE
  8
0
 62
7
  6
CONTINUOUS
 10
132.300599508
 20
72.0220185996
 11
132.300599508
 21
71.7220185996
  0
LINE
  8
0
 62
7
  6
CONTINUOUS
 10
132.5348913977
 20
72.0220185996
 11
132.5348913977
 21
71.7220185996
  0
LINE
  8
0
 62
7
  6
CONTINUOUS
 10
132.8533560253
 20
72.0220185996
 11
132.8533560253
 21
71.7220185996
  0
LINE
  8
0
 62
7
  6
CONTINUOUS
 10
133.255999222
 20
72.0220185996
 11
133.255999222
 21
71.7220185996
  0
LINE
  8
0
 62
7
  6
CONTINUOUS
 10
133.8270053885
 20
72.0220185996
 11
133.8270053885
 21
71.7220185996
  0
LINE
  8
0
 62
7
  6
CONTINUOUS
 10
134.3572061518
 20
72.0220185996
 11
134.3572061518
 21
71.7220185996
  0
LINE
  8
0
 62
7
  6
CONTINUOUS
 10
134.6846407146
 20
72.0220185996
 11
134.6846407146
 21
71.7220185996
  0
LINE
  8
0
 62
7
  6
CONTINUOUS
 10
135.9903142157
 20
72.0220185996
 11
135.9903142157
 21
71.7220185996
  0
LINE
  8
0
 62
7
  6
CONTINUOUS
 10
136.2126703396
 20
72.0220185996
 11
136.2126703396
 21
71.7220185996
  0
LINE
  8
0
 62
7
  6
CONTINUOUS
 10
136.5401049023
 20
72.0220185996
 11
136.5401049023
 21
71.7220185996
  0
LINE
  8
0
 62
7
  6
CONTINUOUS
 10
138.318597903
 20
72.0220185996
 11
138.318597903
 21
71.7220185996
  0
LINE
  8
0
 62
7
  6
CONTINUOUS
 10
138.5869449486
 20
72.0220185996
 11
138.5869449486
 21
71.7220185996
  0
LINE
  8
0
 62
7
  6
CONTINUOUS
 10
139.3062690438
 20
72.0220185996
 11
139.3062690438
 21
71.7220185996
  0
LINE
  8
0
 62
7
  6
CONTINUOUS
 10
140.1162426421
 20
72.0220185996
 11
140.1162426421
 21
71.7220185996
  0
LINE
  8
0
 62
7
  6
CONTINUOUS
 10
143.55863063
 20
72.0220185996
 11
143.55863063
 21
71.7220185996
  0
LINE
  8
0
 62
7
  6
CONTINUOUS
 10
144.0648640846
 20
72.0220185996
 11
144.0648640846
 21
71.7220185996
  0
LINE
  8
0
 62
7
  6
CONTINUOUS
 10
145.3439076292
 20
72.0220185996
 11
145.3439076292
 21
71.7220185996
  0
LINE
  8
0
 62
7
  6
CONTINUOUS
 10
145.4156951414
 20
72.0220185996
 11
145.4156951414
 21
71.7220185996
  0
LINE
  8
0
 62
7
  6
CONTINUOUS
 10
145.8344215245
 20
72.0220185996
 11
145.8344215245
 21
71.7220185996
  0
LINE
  8
0
 62
7
  6
CONTINUOUS
 10
146.0661172495
 20
72.0220185996
 11
146.0661172495
 21
71.7220185996
  0
LINE
  8
0
 62
7
  6
CONTINUOUS
 10
146.0895249917
 20
72.0220185996
 11
146.0895249917
 21
71.7220185996
  0
LINE
  8
0
 62
7
  6
CONTINUOUS
 10
146.2973554045
 20
72.0220185996
 11
146.2973554045
 21
71.7220185996
  0
LINE
  8
0
 62
7
  6
CONTINUOUS
 10
146.6686909845
 20
72.0220185996
 11
146.6686909845
 21
71.7220185996
  0
LINE
  8
0
 62
7
  6
CONTINUOUS
 10
146.828404051
 20
72.0220185996
 11
146.828404051
 21
71.7220185996
  0
LINE
  8
0
 62
7
  6
CONTINUOUS
 10
146.8715239197
 20
72.0220185996
 11
146.8715239197
 21
71.7220185996
  0
LINE
  8
0
 62
7
  6
CONTINUOUS
 10
154.3837950348
 20
80.6455088826
 11
154.3837950348
 21
72.8985283165
  0
LINE
  8
0
 62
7
  6
CONTINUOUS
 10
161.4921832693
 20
80.713128985
 11
161.4967768464
 21
80.6455088826
  0
LINE
  8
0
 62
7
  6
CONTINUOUS
 10
161.4967768485
 20
80.6455088826
 11
161.4967768485
 21
72.8985283165
  0
LINE
  8
0
 62
7
  6
CONTINUOUS
 10
161.4921832692
 20
72.8309082141
 11
161.4967768464
 21
72.8985283165
  0
ARC
  8
0
 62
7
  6
CONTINUOUS
 10
-9.2193492971
 20
127.2990598413
 40
180.0
 50
18.508015808
 51
21.6261998235
  0
ARC
  8
0
 62
7
  6
CONTINUOUS
 10
35.2984354486
 20
174.7800843255
 40
8.5
 50
315.0
 51
360.0
  0
ARC
  8
0
 62
7
  6
CONTINUOUS
 10
40.3530758623
 20
167.1068026779
 40
0.5
 50
135.0
 51
243.508015808
  0
ARC
  8
0
 62
7
  6
CONTINUOUS
 10
73.813762362
 20
73.5993955478
 40
180.0
 50
63.508015808
 51
66.6261998235
  0
ARC
  8
0
 62
7
  6
CONTINUOUS
 10
49.408763501
 20
163.4481560042
 40
1.0
 50
246.6261998235
 51
298.53
  0
ARC
  8
0
 62
7
  6
CONTINUOUS
 10
56.2335213604
 20
165.4510000025
 40
0.5
 50
45.0
 51
118.53
  0
ARC
  8
DEFAULT_1
 62
2
  6
CENTER
 10
70.7037271838
 20
194.284013459
 40
3.2
 50
45.0
 51
87.7455692247
  0
ARC
  8
0
 62
7
  6
CONTINUOUS
 10
71.7184354486
 20
138.6523774154
 40
8.5
 50
0.0
 51
45.0
  0
ARC
  8
0
 62
7
  6
CONTINUOUS
 10
89.7088274591
 20
140.6170027061
 40
1.0
 50
291.6261998235
 51
343.53
  0
ARC
  8
0
 62
7
  6
CONTINUOUS
 10
93.1184354486
 20
146.8590598413
 40
0.5
 50
90.0
 51
163.53
  0
ARC
  8
0
 62
7
  6
CONTINUOUS
 10
80.7184354486
 20
136.8007184414
 40
0.5
 50
180.0
 51
288.508015808
  0
ARC
  8
DEFAULT_1
 62
2
  6
CENTER
 10
90.7233890663
 20
174.2643515765
 40
3.2
 50
2.2544307753
 51
45.0
  0
ARC
  8
DEFAULT_1
 62
2
  6
CENTER
 10
87.1878551604
 20
177.7998854824
 40
3.2
 50
45.0
 51
86.4096221093
  0
ARC
  8
DEFAULT_1
 62
2
  6
CENTER
 10
87.5886418007
 20
184.1873239415
 40
3.2
 50
225.0
 51
266.4096221093
  0
ARC
  8
DEFAULT_1
 62
2
  6
CENTER
 10
80.6266995488
 20
191.1492661933
 40
3.2
 50
183.5903778907
 51
225.0
  0
ARC
  8
DEFAULT_1
 62
2
  6
CENTER
 10
74.2392610897
 20
190.7484795531
 40
3.2
 50
3.5903778907
 51
45.0
  0
ARC
  8
0
 62
7
  6
CONTINUOUS
 10
-29.9612288449
 20
223.9837329278
 40
180.0
 50
333.508015808
 51
336.6261998235
  0
ARC
  8
0
 62
7
  6
CONTINUOUS
 10
23.7384354486
 20
307.0168445869
 40
180.0
 50
288.508015808
 51
291.6261998235
  0
ARC
  8
0
 62
7
  6
CONTINUOUS
 10
37.0563783134
 20
208.0886678307
 40
1.0
 50
201.6261998235
 51
253.53
  0
ARC
  8
0
 62
7
  6
CONTINUOUS
 10
43.2984354486
 20
204.6790598413
 40
0.5
 50
0.0
 51
73.53
  0
ARC
  8
0
 62
7
  6
CONTINUOUS
 10
33.2400940487
 20
217.0790598413
 40
0.5
 50
90.0
 51
198.508015808
  0
ARC
  8
0
 62
7
  6
CONTINUOUS
 10
35.0917530227
 20
226.0790598413
 40
8.5
 50
270.0
 51
315.0
  0
ARC
  8
0
 62
7
  6
CONTINUOUS
 10
59.8875316116
 20
248.3887317889
 40
1.0
 50
156.6261998235
 51
208.53
  0
ARC
  8
0
 62
7
  6
CONTINUOUS
 10
61.8903756099
 20
241.5639739295
 40
0.5
 50
315.0
 51
28.53
  0
ARC
  8
DEFAULT_1
 62
2
  6
CENTER
 10
70.9554845447
 20
200.6790598413
 40
3.2
 50
92.2544307753
 51
267.7455692247
  0
ARC
  8
DEFAULT_1
 62
2
  6
CENTER
 10
70.7037271838
 20
207.0741062235
 40
3.2
 50
272.2544307753
 51
315.0
  0
ARC
  8
DEFAULT_1
 62
2
  6
CENTER
 10
74.2392610897
 20
210.6096401295
 40
3.2
 50
315.0
 51
356.4096221093
  0
ARC
  8
DEFAULT_1
 62
2
  6
CENTER
 10
80.6266995488
 20
210.2088534892
 40
3.2
 50
135.0
 51
176.4096221093
  0
ARC
  8
DEFAULT_1
 62
2
  6
CENTER
 10
87.5886418007
 20
217.170795741
 40
3.2
 50
93.5903778907
 51
135.0
  0
ARC
  8
DEFAULT_1
 62
2
  6
CENTER
 10
87.1878551604
 20
223.5582342001
 40
3.2
 50
273.5903778907
 51
315.0
  0
ARC
  8
DEFAULT_1
 62
2
  6
CENTER
 10
90.7233890663
 20
227.0937681061
 40
3.2
 50
315.0
 51
357.7455692247
  0
ARC
  8
0
 62
7
  6
CONTINUOUS
 10
71.2194599329
 20
262.4990598413
 40
8.5
 50
225.0
 51
270.0
  0
ARC
  8
0
 62
7
  6
CONTINUOUS
 10
63.5461782852
 20
257.4444194275
 40
0.5
 50
45.0
 51
153.508015808
  0
ARC
  8
0
 62
7
  6
CONTINUOUS
 10
123.0174109643
 20
138.8590598413
 40
8.5
 50
45.0
 51
90.0
  0
ARC
  8
0
 62
7
  6
CONTINUOUS
 10
130.6906926119
 20
143.913700255
 40
0.5
 50
225.0
 51
333.508015808
  0
ARC
  8
DEFAULT_1
 62
2
  6
CENTER
 10
103.5134818308
 20
174.2643515765
 40
3.2
 50
135.0
 51
177.7455692247
  0
ARC
  8
DEFAULT_1
 62
2
  6
CENTER
 10
97.1184354486
 20
174.5161089374
 40
3.2
 50
182.2544307753
 51
357.7455692247
  0
ARC
  8
DEFAULT_1
 62
2
  6
CENTER
 10
123.5331437134
 20
194.284013459
 40
3.2
 50
92.2544307753
 51
135.0
  0
ARC
  8
DEFAULT_1
 62
2
  6
CENTER
 10
119.9976098074
 20
190.7484795531
 40
3.2
 50
135.0
 51
176.4096221093
  0
ARC
  8
DEFAULT_1
 62
2
  6
CENTER
 10
113.6101713483
 20
191.1492661933
 40
3.2
 50
315.0
 51
356.4096221093
  0
ARC
  8
DEFAULT_1
 62
2
  6
CENTER
 10
106.6482290965
 20
184.1873239415
 40
3.2
 50
273.5903778907
 51
315.0
  0
ARC
  8
DEFAULT_1
 62
2
  6
CENTER
 10
107.0490157368
 20
177.7998854824
 40
3.2
 50
93.5903778907
 51
135.0
  0
ARC
  8
0
 62
7
  6
CONTINUOUS
 10
134.3493392856
 20
152.9693878937
 40
1.0
 50
336.6261998235
 51
28.53
  0
ARC
  8
0
 62
7
  6
CONTINUOUS
 10
132.3464952873
 20
159.7941457531
 40
0.5
 50
135.0
 51
208.53
  0
ARC
  8
0
 62
7
  6
CONTINUOUS
 10
159.1451178745
 20
175.2790598413
 40
8.5
 50
90.0
 51
135.0
  0
ARC
  8
0
 62
7
  6
CONTINUOUS
 10
157.1804925838
 20
193.2694518518
 40
1.0
 50
21.6261998235
 51
73.53
  0
ARC
  8
0
 62
7
  6
CONTINUOUS
 10
150.9384354486
 20
196.6790598413
 40
0.5
 50
180.0
 51
253.53
  0
ARC
  8
0
 62
7
  6
CONTINUOUS
 10
170.4984354486
 20
94.3412750956
 40
180.0
 50
108.508015808
 51
111.6261998235
  0
ARC
  8
0
 62
7
  6
CONTINUOUS
 10
224.1980997421
 20
177.3743867547
 40
180.0
 50
153.508015808
 51
156.6261998235
  0
ARC
  8
0
 62
7
  6
CONTINUOUS
 10
160.9967768485
 20
184.2790598413
 40
0.5
 50
270.0
 51
18.508015808
  0
CIRCLE
  8
1_AXIS
 62
7
  6
CONTINUOUS
 10
97.1184354486
 20
200.6790598413
 40
32.5
  0
ARC
  8
DEFAULT_1
 62
2
  6
CENTER
 10
97.1184354486
 20
200.6790598413
 40
9.525
 50
108.3584370753
 51
251.6415629247
  0
ARC
  8
DEFAULT_1
 62
2
  6
CENTER
 10
97.1184354486
 20
200.6790598413
 40
9.525
 50
288.3584370753
 51
71.6415629247
  0
ARC
  8
DEFAULT_1
 62
2
  6
CENTER
 10
97.1184354486
 20
226.8420107452
 40
3.2
 50
2.2544307753
 51
177.7455692247
  0
ARC
  8
DEFAULT_1
 62
2
  6
CENTER
 10
103.5134818308
 20
227.0937681061
 40
3.2
 50
182.2544307753
 51
225.0
  0
ARC
  8
DEFAULT_1
 62
2
  6
CENTER
 10
107.0490157368
 20
223.5582342001
 40
3.2
 50
225.0
 51
266.4096221093
  0
ARC
  8
DEFAULT_1
 62
2
  6
CENTER
 10
106.6482290965
 20
217.170795741
 40
3.2
 50
45.0
 51
86.4096221093
  0
ARC
  8
DEFAULT_1
 62
2
  6
CENTER
 10
113.6101713483
 20
210.2088534892
 40
3.2
 50
3.5903778907
 51
45.0
  0
ARC
  8
DEFAULT_1
 62
2
  6
CENTER
 10
119.9976098074
 20
210.6096401295
 40
3.2
 50
183.5903778907
 51
225.0
  0
CIRCLE
  8
0
 62
7
  6
CONTINUOUS
 10
97.1184354486
 20
242.6790598413
 40
1.7320508076
  0
ARC
  8
0
 62
7
  6
CONTINUOUS
 10
104.528043438
 20
260.7411169765
 40
1.0
 50
111.6261998235
 51
163.53
  0
ARC
  8
0
 62
7
  6
CONTINUOUS
 10
101.1184354486
 20
254.4990598413
 40
0.5
 50
270.0
 51
343.53
  0
ARC
  8
DEFAULT_1
 62
2
  6
CENTER
 10
123.5331437134
 20
207.0741062235
 40
3.2
 50
225.0
 51
267.7455692247
  0
ARC
  8
DEFAULT_1
 62
2
  6
CENTER
 10
123.2813863525
 20
200.6790598413
 40
3.2
 50
272.2544307753
 51
87.7455692247
  0
ARC
  8
0
 62
7
  6
CONTINUOUS
 10
122.5184354486
 20
262.7057422672
 40
8.5
 50
180.0
 51
225.0
  0
ARC
  8
0
 62
7
  6
CONTINUOUS
 10
144.8281073962
 20
237.9099636783
 40
1.0
 50
66.6261998235
 51
118.53
  0
ARC
  8
0
 62
7
  6
CONTINUOUS
 10
138.0033495368
 20
235.90711968
 40
0.5
 50
225.0
 51
298.53
  0
ARC
  8
0
 62
7
  6
CONTINUOUS
 10
120.4231085351
 20
327.7587241348
 40
180.0
 50
243.508015808
 51
246.6261998235
  0
ARC
  8
0
 62
7
  6
CONTINUOUS
 10
113.5184354486
 20
264.5574012411
 40
0.5
 50
0.0
 51
108.508015808
  0
ARC
  8
0
 62
7
  6
CONTINUOUS
 10
158.9384354486
 20
226.578035357
 40
8.5
 50
135.0
 51
180.0
  0
ARC
  8
0
 62
7
  6
CONTINUOUS
 10
153.8837950348
 20
234.2513170046
 40
0.5
 50
315.0
 51
63.508015808
  0
ARC
  8
0
 62
7
  6
CONTINUOUS
 10
203.4562201943
 20
274.0590598413
 40
180.0
 50
198.508015808
 51
201.6261998235
  0
ARC
  8
1_AXIS
 62
7
  6
CONTINUOUS
 10
132.1184354486
 20
84.0220185996
 40
2.5
 50
180.0
 51
270.0
  0
ARC
  8
1_AXIS
 62
7
  6
CONTINUOUS
 10
62.1184354486
 20
84.0220185996
 40
2.5
 50
270.0
 51
360.0
  0
ARC
  8
1_AXIS
 62
7
  6
CONTINUOUS
 10
132.1184354486
 20
69.5220185996
 40
2.5
 50
90.0
 51
180.0
  0
ARC
  8
1_AXIS
 62
7
  6
CONTINUOUS
 10
62.1184354486
 20
69.5220185996
 40
2.5
 50
0.0
 51
90.0
  0
ARC
  8
1_AXIS
 62
7
  6
CONTINUOUS
 10
127.6184354486
 20
95.9220185996
 40
2.0
 50
0.0
 51
90.0
  0
ARC
  8
1_AXIS
 62
7
  6
CONTINUOUS
 10
66.6184354486
 20
95.9220185996
 40
2.0
 50
90.0
 51
180.0
  0
ARC
  8
1_AXIS
 62
7
  6
CONTINUOUS
 10
127.6184354486
 20
57.6220185996
 40
2.0
 50
270.0
 51
360.0
  0
ARC
  8
1_AXIS
 62
7
  6
CONTINUOUS
 10
66.6184354486
 20
57.6220185996
 40
2.0
 50
180.0
 51
270.0
  0
ARC
  8
0
 62
7
  6
CONTINUOUS
 10
59.3875316116
 20
81.0220185996
 40
0.5
 50
89.9999780844
 51
180.0
  0
ARC
  8
0
 62
7
  6
CONTINUOUS
 10
59.3875316116
 20
72.5220185996
 40
0.5
 50
180.0
 51
270.000021917
  0
ENDSEC
  0
EOF
