  0
SECTION
  2
HEADER
  9
$EXTMAX
 10
420.0
 20
297.0
 30
0.0
  9
$EXTMIN
 10
0.0
 20
0.0
 30
0.0
  9
$LIMMIN
 10
0.0
 20
0.0
  9
$LIMMAX
 10
420.0
 20
297.0
  9
$VIEWCTR
 10
210.0
 20
148.5
  9
$VIEWSIZE
 40
297.0
  9
$CLAYER
  8
0
  9
$LTSCALE
 40
23.1
  9
$CELTYPE
  6
BYLAYER
  9
$DIMSCALE
 40
1.0
  9
$DIMASZ
 40
3.5
  9
$DIMEXO
 40
2.625
  9
$DIMDLI
 40
15.96
  9
$DIMEXE
 40
7.56
  9
$DIMCEN
 40
3.78
  9
$DIMLFAC
 40
1.0
  9
$DIMBLK
  1
_FILLED
  9
$DIMTXT
 40
3.5
  9
$PDMODE
 70
3
  9
$PDSIZE
 40
0.3125
  9
$TILEMODE
 70
1
  0
ENDSEC
  0
SECTION
  2
TABLES
  0
TABLE
  2
LTYPE
 70
6
  0
LTYPE
  2
BYBLOCK
 70
0
  3

 72
65
 73
0
 40
0.0
  0
LTYPE
  2
BYLAYER
 70
0
  3

 72
65
 73
0
 40
0.0
  0
LTYPE
  2
CONTINUOUS
 70
64
  3
Solid line
 72
65
 73
0
 40
0.0
  0
LTYPE
  2
CENTER
 70
64
  3
____ _ ____ _ ____ _ ____ _ ____ _ ____ _ ____
 72
65
 73
4
 40
0.6
 49
0.375
 49
-0.075
 49
0.075
 49
-0.075
  0
LTYPE
  2
HIDDEN
 70
64
  3
- - - - - - - - - - - - - - - - - - - -
 72
65
 73
2
 40
0.2
 49
0.1
 49
-0.1
  0
LTYPE
  2
PHANTOM
 70
64
  3
_____ _ _ _____ _ _ _____ _ _ _____
 72
65
 73
6
 40
0.8
 49
0.45
 49
-0.05
 49
0.1
 49
-0.05
 49
0.1
 49
-0.05
  0
LTYPE
  2
DOT
 70
64
  3
. . . . . . . . . . . . . . . . . . . .
 72
65
 73
2
 40
0.2
 49
0.1
 49
-0.1
  0
LTYPE
  2
DASHED
 70
64
  3
- - - - - - - - - - - - - - - - - - - -
 72
65
 73
2
 40
0.2
 49
0.1
 49
-0.1
  0
ENDTAB
  0
TABLE
  2
LAYER
 70
36
  0
LAYER
  2
0
 70
0
 62
7
  6
CONTINUOUS
  0
LAYER
  2
DEFAULT_1
 70
0
 62
7
  6
CENTER
  0
LAYER
  2
DEFAULT_2
 70
0
 62
8
  6
HIDDEN
  0
LAYER
  2
DEFAULT_3
 70
0
 62
7
  6
PHANTOM
  0
LAYER
  2
1_AXIS
 70
0
 62
7
  6
CONTINUOUS
  0
LAYER
  2
1_DATUM_PLANE
 70
0
 62
7
  6
CONTINUOUS
  0
LAYER
  2
2_FEATURE
 70
0
 62
7
  6
CONTINUOUS
  0
LAYER
  2
4_QUILT
 70
0
 62
7
  6
CONTINUOUS
  0
LAYER
  2
6_DIM
 70
0
 62
7
  6
CONTINUOUS
  0
LAYER
  2
AXES
 70
0
 62
7
  6
CONTINUOUS
  0
LAYER
  2
COM_SKETCH
 70
0
 62
7
  6
CONTINUOUS
  0
LAYER
  2
CSYS
 70
0
 62
7
  6
CONTINUOUS
  0
LAYER
  2
PLANES
 70
0
 62
7
  6
CONTINUOUS
  0
LAYER
  2
QUILTS
 70
0
 62
7
  6
CONTINUOUS
  0
ENDTAB
  0
TABLE
  2
STYLE
 70
1
  0
STYLE
  2
STANDARD
 70
0
 40
0.0
 41
0.8
 50
0.0
 71
0
 42
0.2
  3
txt
  4

  0
STYLE
  2
TEXTSTYLE_1
 70
0
 40
0.0
 41
0.8
 50
0.0
 71
0
 42
0.2
  3
gdt
  4

  0
STYLE
  2
TEXTSTYLE_2
 70
0
 40
0.0
 41
0.6
 50
0.0
 71
0
 42
0.2
  3
txt
  4

  0
STYLE
  2
TEXTSTYLE_3
 70
0
 40
0.0
 41
1.0
 50
0.0
 71
0
 42
0.2
  3
ftb_____.ttf
  4

  0
STYLE
  2
TEXTSTYLE_4
 70
0
 40
0.0
 41
1.0
 50
0.0
 71
0
 42
0.2
  3
fti_____.ttf
  4

  0
STYLE
  2
TEXTSTYLE_5
 70
0
 40
0.0
 41
1.0
 50
0.0
 71
0
 42
0.2
  3
frutiger light.ttf
  4

  0
STYLE
  2
TEXTSTYLE_6
 70
0
 40
0.0
 41
0.7
 50
0.0
 71
0
 42
0.2
  3
txt
  4

  0
STYLE
  2
TEXTSTYLE_7
 70
0
 40
0.0
 41
0.8
 50
0.0
 71
0
 42
0.2
  3
txt
  4

  0
ENDTAB
  0
ENDSEC
  0
SECTION
  2
BLOCKS
  0
BLOCK
  8
0
 62
2
  6
CONTINUOUS
  2
SYMBOL_5_BL1
 70
64
 10
382.7840918555
 20
35.5067593403
  0
TEXT
  8
0
 62
7
  6
CONTINUOUS
 10
373.842376864
 20
30.5995157174
  7
TEXTSTYLE_4
 40
1.0655737705
  1
The brand for plastic modular belts and chains
 41
1.0
 72
0
  0
LINE
  8
0
 62
7
  6
CONTINUOUS
 10
358.7621602445
 20
36.0805298321
 11
358.7621602445
 21
33.9493822911
  0
LINE
  8
0
 62
7
  6
CONTINUOUS
 10
359.0512227376
 20
30.9584509954
 11
359.0512227376
 21
31.0552420547
  0
LINE
  8
0
 62
7
  6
CONTINUOUS
 10
358.7621602445
 20
31.0229783683
 11
358.8199727462
 21
30.8293962497
  0
LINE
  8
0
 62
7
  6
CONTINUOUS
 10
360.1556028675
 20
33.867415078
 11
360.1556028675
 21
36.0805298321
  0
LINE
  8
0
 62
7
  6
CONTINUOUS
 10
361.0746601894
 20
32.0231527829
 11
361.0746601894
 21
30.5067593403
  0
LINE
  8
0
 62
7
  6
CONTINUOUS
 10
361.3637227445
 20
30.5067593403
 11
361.3637227445
 21
31.2488242184
  0
LINE
  8
0
 62
7
  6
CONTINUOUS
 10
361.3637227445
 20
31.3778789641
 11
361.3637227445
 21
32.0231527829
  0
LINE
  8
0
 62
7
  6
CONTINUOUS
 10
358.8199727462
 20
31.216560532
 11
358.7621602445
 21
31.0229783683
  0
LINE
  8
0
 62
7
  6
CONTINUOUS
 10
359.1668477307
 20
30.7971325633
 11
359.0512227376
 21
30.9584509954
  0
LINE
  8
0
 62
7
  6
CONTINUOUS
 10
360.2652852997
 20
31.3133515913
 11
360.3230977445
 21
31.216560532
  0
LINE
  8
0
 62
7
  6
CONTINUOUS
 10
360.6121602997
 20
31.216560532
 11
360.5543476894
 21
31.3456152777
  0
LINE
  8
0
 62
7
  6
CONTINUOUS
 10
362.0408487691
 20
36.0805298321
 11
362.0408487691
 21
34.2772511436
  0
LINE
  8
0
 62
7
  6
CONTINUOUS
 10
362.0408487691
 20
32.9657757338
 11
362.0408487691
 21
32.3100380288
  0
LINE
  8
0
 62
7
  6
CONTINUOUS
 10
362.4043477445
 20
31.1520331591
 11
362.4043477445
 21
30.5067593403
  0
LINE
  8
0
 62
7
  6
CONTINUOUS
 10
362.6934101343
 20
30.5067593403
 11
362.6934101343
 21
31.1520331591
  0
LINE
  8
0
 62
7
  6
CONTINUOUS
 10
359.0512227376
 20
31.0552420547
 11
359.1090352445
 21
31.1842968456
  0
LINE
  8
0
 62
7
  6
CONTINUOUS
 10
358.8199727462
 20
30.8293962497
 11
358.9355977445
 21
30.7003414814
  0
LINE
  8
0
 62
7
  6
CONTINUOUS
 10
362.3465351343
 20
31.2810879048
 11
362.4043477445
 21
31.1520331591
  0
LINE
  8
0
 62
7
  6
CONTINUOUS
 10
363.1559103548
 20
30.7971325633
 11
363.2137226343
 21
30.668077795
  0
LINE
  8
0
 62
7
  6
CONTINUOUS
 10
362.6934101343
 20
31.1520331591
 11
362.6355978548
 21
31.3133515913
  0
LINE
  8
0
 62
7
  6
CONTINUOUS
 10
363.1559103548
 20
31.3456152777
 11
363.1559103548
 21
31.2810879048
  0
LINE
  8
0
 62
7
  6
CONTINUOUS
 10
363.1559103548
 20
30.8939236226
 11
363.1559103548
 21
30.7971325633
  0
LINE
  8
0
 62
7
  6
CONTINUOUS
 10
363.4342913921
 20
32.3100380288
 11
363.4342913921
 21
36.0805298321
  0
LINE
  8
0
 62
7
  6
CONTINUOUS
 10
363.4449727445
 20
30.7648688543
 11
363.4449727445
 21
30.8293962497
  0
LINE
  8
0
 62
7
  6
CONTINUOUS
 10
363.7621602445
 20
36.0805298321
 11
363.7621602445
 21
32.3100380288
  0
LINE
  8
0
 62
7
  6
CONTINUOUS
 10
360.5543476894
 20
30.7003414814
 11
360.6121602997
 21
30.8293962497
  0
LINE
  8
0
 62
7
  6
CONTINUOUS
 10
364.9480979651
 20
30.6035504109
 11
364.890285024
 21
30.7648688543
  0
LINE
  8
0
 62
7
  6
CONTINUOUS
 10
364.6012229651
 20
31.2810879048
 11
364.6012229651
 21
31.1842968456
  0
LINE
  8
0
 62
7
  6
CONTINUOUS
 10
364.6012229651
 20
31.0552420547
 11
364.6012229651
 21
30.8616599362
  0
LINE
  8
0
 62
7
  6
CONTINUOUS
 10
364.890285024
 20
30.7648688543
 11
364.890285024
 21
31.2810879048
  0
LINE
  8
0
 62
7
  6
CONTINUOUS
 10
365.1556028675
 20
32.3100380288
 11
365.1556028675
 21
34.1133167174
  0
LINE
  8
0
 62
7
  6
CONTINUOUS
 10
365.1556028675
 20
35.4247921272
 11
365.1556028675
 21
36.0805298321
  0
LINE
  8
0
 62
7
  6
CONTINUOUS
 10
365.4684104651
 20
32.0231527829
 11
365.4684104651
 21
31.8618343508
  0
LINE
  8
0
 62
7
  6
CONTINUOUS
 10
365.4684104651
 20
31.5391973962
 11
365.4684104651
 21
30.5067593403
  0
LINE
  8
0
 62
7
  6
CONTINUOUS
 10
365.757472524
 20
30.5067593403
 11
365.757472524
 21
31.5391973962
  0
LINE
  8
0
 62
7
  6
CONTINUOUS
 10
365.757472524
 20
31.8618343508
 11
365.757472524
 21
32.0231527829
  0
LINE
  8
0
 62
7
  6
CONTINUOUS
 10
360.3230977445
 20
30.8293962497
 11
360.2652852997
 21
30.7326051679
  0
LINE
  8
0
 62
7
  6
CONTINUOUS
 10
362.6355978548
 20
31.3133515913
 11
362.5777852445
 21
31.3778789641
  0
LINE
  8
0
 62
7
  6
CONTINUOUS
 10
363.5027853548
 20
30.7003414814
 11
363.4449727445
 21
30.7648688543
  0
LINE
  8
0
 62
7
  6
CONTINUOUS
 10
364.6590352445
 20
30.5712867188
 11
364.716847524
 21
30.5067593403
  0
LINE
  8
0
 62
7
  6
CONTINUOUS
 10
364.6012229651
 20
30.668077795
 11
364.6590352445
 21
30.5712867188
  0
LINE
  8
0
 62
7
  6
CONTINUOUS
 10
365.0059102445
 20
30.5067593403
 11
364.9480979651
 21
30.6035504109
  0
LINE
  8
0
 62
7
  6
CONTINUOUS
 10
364.890285024
 20
31.2810879048
 11
364.8324727445
 21
31.3778789641
  0
LINE
  8
0
 62
7
  6
CONTINUOUS
 10
366.2199727445
 20
31.5391973962
 11
366.2199727445
 21
30.5067593403
  0
LINE
  8
0
 62
7
  6
CONTINUOUS
 10
366.5090354651
 20
30.5067593403
 11
366.5090354651
 21
31.2488242184
  0
LINE
  8
0
 62
7
  6
CONTINUOUS
 10
366.5090354651
 20
31.3778789641
 11
366.5090354651
 21
31.5391973962
  0
LINE
  8
0
 62
7
  6
CONTINUOUS
 10
367.0408487691
 20
34.5231527829
 11
367.0408487691
 21
32.3100380288
  0
LINE
  8
0
 62
7
  6
CONTINUOUS
 10
358.9355977445
 20
31.3456152777
 11
358.8199727462
 21
31.216560532
  0
LINE
  8
0
 62
7
  6
CONTINUOUS
 10
359.1090352445
 20
31.1842968456
 11
359.1668477307
 21
31.2488242184
  0
LINE
  8
0
 62
7
  6
CONTINUOUS
 10
358.9355977445
 20
30.7003414814
 11
359.0512227376
 21
30.6358140973
  0
LINE
  8
0
 62
7
  6
CONTINUOUS
 10
359.3402852307
 20
30.7003414814
 11
359.1668477307
 21
30.7971325633
  0
LINE
  8
0
 62
7
  6
CONTINUOUS
 10
364.543410024
 20
31.3456152777
 11
364.6012229651
 21
31.2810879048
  0
LINE
  8
0
 62
7
  6
CONTINUOUS
 10
367.491847524
 20
31.2810879048
 11
367.5496604651
 21
31.1197694727
  0
LINE
  8
0
 62
7
  6
CONTINUOUS
 10
367.838722524
 20
31.1197694727
 11
367.7809102445
 21
31.2810879048
  0
LINE
  8
0
 62
7
  6
CONTINUOUS
 10
367.5496604651
 20
31.1197694727
 11
367.5496604651
 21
30.5067593403
  0
LINE
  8
0
 62
7
  6
CONTINUOUS
 10
367.838722524
 20
30.5067593403
 11
367.838722524
 21
31.1197694727
  0
LINE
  8
0
 62
7
  6
CONTINUOUS
 10
368.3012227445
 20
31.3456152777
 11
368.3012227445
 21
31.2810879048
  0
LINE
  8
0
 62
7
  6
CONTINUOUS
 10
368.4342913921
 20
32.3100380288
 11
368.4342913921
 21
34.4411855698
  0
LINE
  8
0
 62
7
  6
CONTINUOUS
 10
368.7621602445
 20
36.0805298321
 11
368.7621602445
 21
32.3100380288
  0
LINE
  8
0
 62
7
  6
CONTINUOUS
 10
363.4449727445
 20
30.8293962497
 11
363.5027853548
 21
30.926187309
  0
LINE
  8
0
 62
7
  6
CONTINUOUS
 10
359.0512227376
 20
30.6358140973
 11
359.2246602583
 21
30.5712867188
  0
LINE
  8
0
 62
7
  6
CONTINUOUS
 10
360.5543476894
 20
31.3456152777
 11
360.3809101894
 21
31.4424063369
  0
LINE
  8
0
 62
7
  6
CONTINUOUS
 10
363.2137226343
 20
30.668077795
 11
363.3871601343
 21
30.5712867188
  0
LINE
  8
0
 62
7
  6
CONTINUOUS
 10
362.2309102445
 20
31.3456152777
 11
362.3465351343
 21
31.2810879048
  0
LINE
  8
0
 62
7
  6
CONTINUOUS
 10
362.5777852445
 20
31.3778789641
 11
362.4621603548
 21
31.4424063369
  0
LINE
  8
0
 62
7
  6
CONTINUOUS
 10
368.3012227445
 20
30.7648688543
 11
368.4168479651
 21
30.6358140973
  0
LINE
  8
0
 62
7
  6
CONTINUOUS
 10
368.6480977445
 20
30.7003414814
 11
368.5902854651
 21
30.7648688543
  0
LINE
  8
0
 62
7
  6
CONTINUOUS
 10
368.3012227445
 20
31.2810879048
 11
368.4168479651
 21
31.1520331591
  0
LINE
  8
0
 62
7
  6
CONTINUOUS
 10
367.7809102445
 20
31.2810879048
 11
367.7230979651
 21
31.3778789641
  0
LINE
  8
0
 62
7
  6
CONTINUOUS
 10
370.1512223035
 20
30.7003414814
 11
370.1512223035
 21
30.7648688543
  0
LINE
  8
0
 62
7
  6
CONTINUOUS
 10
370.1556028675
 20
32.3100380288
 11
370.1556028675
 21
36.0805298321
  0
LINE
  8
0
 62
7
  6
CONTINUOUS
 10
363.2137226343
 20
31.4101426505
 11
363.1559103548
 21
31.3456152777
  0
LINE
  8
0
 62
7
  6
CONTINUOUS
 10
360.091847717
 20
31.3778789641
 11
360.2652852997
 21
31.3133515913
  0
LINE
  8
0
 62
7
  6
CONTINUOUS
 10
364.8324727445
 20
31.3778789641
 11
364.716847524
 21
31.4424063369
  0
LINE
  8
0
 62
7
  6
CONTINUOUS
 10
368.6480977445
 20
31.216560532
 11
368.5902854651
 21
31.2810879048
  0
LINE
  8
0
 62
7
  6
CONTINUOUS
 10
369.8043479651
 20
30.8293962497
 11
369.8621602445
 21
30.7648688543
  0
LINE
  8
0
 62
7
  6
CONTINUOUS
 10
370.1512223035
 20
30.7648688543
 11
370.0355977445
 21
30.8939236226
  0
LINE
  8
0
 62
7
  6
CONTINUOUS
 10
369.8043479651
 20
31.3456152777
 11
369.8621602445
 21
31.2810879048
  0
LINE
  8
0
 62
7
  6
CONTINUOUS
 10
370.1512223035
 20
31.2810879048
 11
370.0355977445
 21
31.4101426505
  0
LINE
  8
0
 62
7
  6
CONTINUOUS
 10
363.4449727445
 20
31.2810879048
 11
363.5027853548
 21
31.3456152777
  0
LINE
  8
0
 62
7
  6
CONTINUOUS
 10
363.2715352445
 20
31.0229783683
 11
363.1559103548
 21
30.8939236226
  0
LINE
  8
0
 62
7
  6
CONTINUOUS
 10
364.6012229651
 20
30.8616599362
 11
364.543410024
 21
30.7971325633
  0
LINE
  8
0
 62
7
  6
CONTINUOUS
 10
364.543410024
 20
30.6035504109
 11
364.6012229651
 21
30.668077795
  0
LINE
  8
0
 62
7
  6
CONTINUOUS
 10
363.3871601343
 20
30.5712867188
 11
363.5027853548
 21
30.5390230296
  0
LINE
  8
0
 62
7
  6
CONTINUOUS
 10
360.3809101894
 20
31.4424063369
 11
360.1496602445
 21
31.5069337098
  0
LINE
  8
0
 62
7
  6
CONTINUOUS
 10
363.7340351343
 20
30.6358140973
 11
363.5027853548
 21
30.7003414814
  0
LINE
  8
0
 62
7
  6
CONTINUOUS
 10
362.4621603548
 20
31.4424063369
 11
362.2887228548
 21
31.5069337098
  0
LINE
  8
0
 62
7
  6
CONTINUOUS
 10
364.716847524
 20
31.4424063369
 11
364.543410024
 21
31.5069337098
  0
LINE
  8
0
 62
7
  6
CONTINUOUS
 10
367.3762229651
 20
31.3456152777
 11
367.491847524
 21
31.2810879048
  0
LINE
  8
0
 62
7
  6
CONTINUOUS
 10
367.7230979651
 20
31.3778789641
 11
367.6074727445
 21
31.4424063369
  0
LINE
  8
0
 62
7
  6
CONTINUOUS
 10
359.2246602583
 20
30.5712867188
 11
359.3980977583
 21
30.5390230296
  0
LINE
  8
0
 62
7
  6
CONTINUOUS
 10
359.6871602721
 20
30.6358140973
 11
359.3402852307
 21
30.7003414814
  0
LINE
  8
0
 62
7
  6
CONTINUOUS
 10
362.1152853548
 20
31.3778789641
 11
362.2309102445
 21
31.3456152777
  0
LINE
  8
0
 62
7
  6
CONTINUOUS
 10
364.4277854651
 20
31.3778789641
 11
364.543410024
 21
31.3456152777
  0
LINE
  8
0
 62
7
  6
CONTINUOUS
 10
368.7637229651
 20
30.668077795
 11
368.6480977445
 21
30.7003414814
  0
LINE
  8
0
 62
7
  6
CONTINUOUS
 10
367.2605977445
 20
31.3778789641
 11
367.3762229651
 21
31.3456152777
  0
LINE
  8
0
 62
7
  6
CONTINUOUS
 10
368.4168479651
 20
30.6358140973
 11
368.5902854651
 21
30.5712867188
  0
LINE
  8
0
 62
7
  6
CONTINUOUS
 10
367.6074727445
 20
31.4424063369
 11
367.4340352445
 21
31.5069337098
  0
LINE
  8
0
 62
7
  6
CONTINUOUS
 10
368.8215352445
 20
31.1520331591
 11
368.6480977445
 21
31.216560532
  0
LINE
  8
0
 62
7
  6
CONTINUOUS
 10
369.6309104651
 20
30.8939236226
 11
369.8043479651
 21
30.8293962497
  0
LINE
  8
0
 62
7
  6
CONTINUOUS
 10
370.0355977445
 20
31.4101426505
 11
369.8621602445
 21
31.4746700234
  0
LINE
  8
0
 62
7
  6
CONTINUOUS
 10
368.4168479651
 20
31.1520331591
 11
368.6480977445
 21
31.0552420547
  0
LINE
  8
0
 62
7
  6
CONTINUOUS
 10
370.0355977445
 20
30.8939236226
 11
369.8043479651
 21
30.9907146818
  0
LINE
  8
0
 62
7
  6
CONTINUOUS
 10
368.5902854651
 20
31.2810879048
 11
368.6480977445
 21
31.3456152777
  0
LINE
  8
0
 62
7
  6
CONTINUOUS
 10
359.0512227376
 20
31.4101426505
 11
358.9355977445
 21
31.3456152777
  0
LINE
  8
0
 62
7
  6
CONTINUOUS
 10
359.1668477307
 20
31.2488242184
 11
359.3402852307
 21
31.3456152777
  0
LINE
  8
0
 62
7
  6
CONTINUOUS
 10
361.4793477997
 20
31.4424063369
 11
361.3637227445
 21
31.3778789641
  0
LINE
  8
0
 62
7
  6
CONTINUOUS
 10
361.3637227445
 20
31.2488242184
 11
361.4793477997
 21
31.3133515913
  0
LINE
  8
0
 62
7
  6
CONTINUOUS
 10
360.3809101894
 20
30.6035504109
 11
360.5543476894
 21
30.7003414814
  0
LINE
  8
0
 62
7
  6
CONTINUOUS
 10
359.3980977583
 20
30.5390230296
 11
359.744972717
 21
30.5067593403
  0
LINE
  8
0
 62
7
  6
CONTINUOUS
 10
363.5027853548
 20
30.5390230296
 11
363.7340351343
 21
30.5067593403
  0
LINE
  8
0
 62
7
  6
CONTINUOUS
 10
361.8840352445
 20
31.4101426505
 11
362.1152853548
 21
31.3778789641
  0
LINE
  8
0
 62
7
  6
CONTINUOUS
 10
364.1965353548
 20
31.4101426505
 11
364.4277854651
 21
31.3778789641
  0
LINE
  8
0
 62
7
  6
CONTINUOUS
 10
368.6480977445
 20
31.0552420547
 11
369.6309104651
 21
30.8939236226
  0
LINE
  8
0
 62
7
  6
CONTINUOUS
 10
369.8043479651
 20
30.9907146818
 11
368.8215352445
 21
31.1520331591
  0
LINE
  8
0
 62
7
  6
CONTINUOUS
 10
362.2887228548
 20
31.5069337098
 11
362.1152853548
 21
31.5391973962
  0
LINE
  8
0
 62
7
  6
CONTINUOUS
 10
368.5902854651
 20
30.5712867188
 11
368.7637229651
 21
30.5390230296
  0
LINE
  8
0
 62
7
  6
CONTINUOUS
 10
367.4340352445
 20
31.5069337098
 11
367.2605977445
 21
31.5391973962
  0
LINE
  8
0
 62
7
  6
CONTINUOUS
 10
369.6887227445
 20
31.3778789641
 11
369.8043479651
 21
31.3456152777
  0
LINE
  8
0
 62
7
  6
CONTINUOUS
 10
369.8621602445
 20
30.7648688543
 11
369.8043479651
 21
30.7003414814
  0
LINE
  8
0
 62
7
  6
CONTINUOUS
 10
368.4168479651
 20
31.4424063369
 11
368.3012227445
 21
31.3456152777
  0
LINE
  8
0
 62
7
  6
CONTINUOUS
 10
363.3293478548
 20
31.4746700234
 11
363.2137226343
 21
31.4101426505
  0
LINE
  8
0
 62
7
  6
CONTINUOUS
 10
363.3871601343
 20
31.0875057863
 11
363.2715352445
 21
31.0229783683
  0
LINE
  8
0
 62
7
  6
CONTINUOUS
 10
363.5027853548
 20
30.926187309
 11
363.6184102445
 21
30.9907146818
  0
LINE
  8
0
 62
7
  6
CONTINUOUS
 10
361.0746601894
 20
30.5067593403
 11
361.3637227445
 21
30.5067593403
  0
LINE
  8
0
 62
7
  6
CONTINUOUS
 10
362.4043477445
 20
30.5067593403
 11
362.6934101343
 21
30.5067593403
  0
LINE
  8
0
 62
7
  6
CONTINUOUS
 10
363.7340351343
 20
30.5067593403
 11
364.0809101343
 21
30.5067593403
  0
LINE
  8
0
 62
7
  6
CONTINUOUS
 10
364.716847524
 20
30.5067593403
 11
365.0059102445
 21
30.5067593403
  0
LINE
  8
0
 62
7
  6
CONTINUOUS
 10
365.4684104651
 20
30.5067593403
 11
365.757472524
 21
30.5067593403
  0
LINE
  8
0
 62
7
  6
CONTINUOUS
 10
366.2199727445
 20
30.5067593403
 11
366.5090354651
 21
30.5067593403
  0
LINE
  8
0
 62
7
  6
CONTINUOUS
 10
367.5496604651
 20
30.5067593403
 11
367.838722524
 21
30.5067593403
  0
LINE
  8
0
 62
7
  6
CONTINUOUS
 10
369.1105979651
 20
30.5067593403
 11
369.4574729651
 21
30.5067593403
  0
LINE
  8
0
 62
7
  6
CONTINUOUS
 10
369.4574729651
 20
30.6358140973
 11
369.1105979651
 21
30.6358140973
  0
LINE
  8
0
 62
7
  6
CONTINUOUS
 10
364.0809101343
 20
30.6358140973
 11
363.7340351343
 21
30.6358140973
  0
LINE
  8
0
 62
7
  6
CONTINUOUS
 10
368.5902854651
 20
30.7648688543
 11
368.3012227445
 21
30.7648688543
  0
LINE
  8
0
 62
7
  6
CONTINUOUS
 10
360.6121602997
 20
30.8293962497
 11
360.3230977445
 21
30.8293962497
  0
LINE
  8
0
 62
7
  6
CONTINUOUS
 10
359.6871602721
 20
31.4101426505
 11
360.091847717
 21
31.3778789641
  0
LINE
  8
0
 62
7
  6
CONTINUOUS
 10
360.1496602445
 20
31.5069337098
 11
359.744972717
 21
31.5391973962
  0
LINE
  8
0
 62
7
  6
CONTINUOUS
 10
368.7637229651
 20
30.5390230296
 11
369.1105979651
 21
30.5067593403
  0
LINE
  8
0
 62
7
  6
CONTINUOUS
 10
369.1105979651
 20
30.6358140973
 11
368.7637229651
 21
30.668077795
  0
LINE
  8
0
 62
7
  6
CONTINUOUS
 10
364.543410024
 20
31.5069337098
 11
364.1965353548
 21
31.5391973962
  0
LINE
  8
0
 62
7
  6
CONTINUOUS
 10
369.3418477445
 20
31.4101426505
 11
369.6887227445
 21
31.3778789641
  0
LINE
  8
0
 62
7
  6
CONTINUOUS
 10
369.6887227445
 20
31.5069337098
 11
369.3418477445
 21
31.5391973962
  0
LINE
  8
0
 62
7
  6
CONTINUOUS
 10
367.0293479651
 20
31.4101426505
 11
367.2605977445
 21
31.3778789641
  0
LINE
  8
0
 62
7
  6
CONTINUOUS
 10
369.8621602445
 20
31.4746700234
 11
369.6887227445
 21
31.5069337098
  0
LINE
  8
0
 62
7
  6
CONTINUOUS
 10
370.0355977445
 20
30.6035504109
 11
370.1512223035
 21
30.7003414814
  0
LINE
  8
0
 62
7
  6
CONTINUOUS
 10
364.543410024
 20
30.7971325633
 11
364.369972524
 21
30.7003414814
  0
LINE
  8
0
 62
7
  6
CONTINUOUS
 10
366.624660024
 20
31.4424063369
 11
366.5090354651
 21
31.3778789641
  0
LINE
  8
0
 62
7
  6
CONTINUOUS
 10
366.5090354651
 20
31.2488242184
 11
366.624660024
 21
31.3133515913
  0
LINE
  8
0
 62
7
  6
CONTINUOUS
 10
359.2246602583
 20
31.4746700234
 11
359.0512227376
 21
31.4101426505
  0
LINE
  8
0
 62
7
  6
CONTINUOUS
 10
361.6527851343
 20
31.5069337098
 11
361.4793477997
 21
31.4424063369
  0
LINE
  8
0
 62
7
  6
CONTINUOUS
 10
361.4793477997
 20
31.3133515913
 11
361.6527851343
 21
31.3778789641
  0
LINE
  8
0
 62
7
  6
CONTINUOUS
 10
360.2652852997
 20
30.7326051679
 11
360.091847717
 21
30.668077795
  0
LINE
  8
0
 62
7
  6
CONTINUOUS
 10
369.6887227445
 20
30.668077795
 11
369.4574729651
 21
30.6358140973
  0
LINE
  8
0
 62
7
  6
CONTINUOUS
 10
364.0809101343
 20
30.5067593403
 11
364.369972524
 21
30.5390230296
  0
LINE
  8
0
 62
7
  6
CONTINUOUS
 10
369.4574729651
 20
30.5067593403
 11
369.8043479651
 21
30.5390230296
  0
LINE
  8
0
 62
7
  6
CONTINUOUS
 10
359.744972717
 20
30.5067593403
 11
360.1496602445
 21
30.5390230296
  0
LINE
  8
0
 62
7
  6
CONTINUOUS
 10
360.091847717
 20
30.668077795
 11
359.6871602721
 21
30.6358140973
  0
LINE
  8
0
 62
7
  6
CONTINUOUS
 10
363.9652852445
 20
31.0552420547
 11
364.6012229651
 21
31.0552420547
  0
LINE
  8
0
 62
7
  6
CONTINUOUS
 10
364.6012229651
 20
31.1842968456
 11
363.9652852445
 21
31.1842968456
  0
LINE
  8
0
 62
7
  6
CONTINUOUS
 10
360.3230977445
 20
31.216560532
 11
360.6121602997
 21
31.216560532
  0
LINE
  8
0
 62
7
  6
CONTINUOUS
 10
363.1559103548
 20
31.2810879048
 11
363.4449727445
 21
31.2810879048
  0
LINE
  8
0
 62
7
  6
CONTINUOUS
 10
369.8621602445
 20
31.2810879048
 11
370.1512223035
 21
31.2810879048
  0
LINE
  8
0
 62
7
  6
CONTINUOUS
 10
363.8496603548
 20
31.4101426505
 11
364.1965353548
 21
31.4101426505
  0
LINE
  8
0
 62
7
  6
CONTINUOUS
 10
368.9949727445
 20
31.4101426505
 11
369.3418477445
 21
31.4101426505
  0
LINE
  8
0
 62
7
  6
CONTINUOUS
 10
369.3418477445
 20
31.5391973962
 11
368.9949727445
 21
31.5391973962
  0
LINE
  8
0
 62
7
  6
CONTINUOUS
 10
367.2605977445
 20
31.5391973962
 11
367.0293479651
 21
31.5391973962
  0
LINE
  8
0
 62
7
  6
CONTINUOUS
 10
366.5090354651
 20
31.5391973962
 11
366.2199727445
 21
31.5391973962
  0
LINE
  8
0
 62
7
  6
CONTINUOUS
 10
365.757472524
 20
31.5391973962
 11
365.4684104651
 21
31.5391973962
  0
LINE
  8
0
 62
7
  6
CONTINUOUS
 10
364.1965353548
 20
31.5391973962
 11
363.8496603548
 21
31.5391973962
  0
LINE
  8
0
 62
7
  6
CONTINUOUS
 10
362.1152853548
 20
31.5391973962
 11
361.8840352445
 21
31.5391973962
  0
LINE
  8
0
 62
7
  6
CONTINUOUS
 10
365.4684104651
 20
31.8618343508
 11
365.757472524
 21
31.8618343508
  0
LINE
  8
0
 62
7
  6
CONTINUOUS
 10
365.757472524
 20
32.0231527829
 11
365.4684104651
 21
32.0231527829
  0
LINE
  8
0
 62
7
  6
CONTINUOUS
 10
361.3637227445
 20
32.0231527829
 11
361.0746601894
 21
32.0231527829
  0
LINE
  8
0
 62
7
  6
CONTINUOUS
 10
360.4015045068
 20
32.3100380288
 11
360.8140758554
 21
32.3100380288
  0
LINE
  8
0
 62
7
  6
CONTINUOUS
 10
362.0408487691
 20
32.3100380288
 11
363.4342913921
 21
32.3100380288
  0
LINE
  8
0
 62
7
  6
CONTINUOUS
 10
363.7621602445
 20
32.3100380288
 11
365.1556028675
 21
32.3100380288
  0
LINE
  8
0
 62
7
  6
CONTINUOUS
 10
367.0408487691
 20
32.3100380288
 11
368.4342913921
 21
32.3100380288
  0
LINE
  8
0
 62
7
  6
CONTINUOUS
 10
368.7621602445
 20
32.3100380288
 11
370.1556028675
 21
32.3100380288
  0
LINE
  8
0
 62
7
  6
CONTINUOUS
 10
366.798097524
 20
31.5069337098
 11
366.624660024
 21
31.4424063369
  0
LINE
  8
0
 62
7
  6
CONTINUOUS
 10
364.369972524
 20
30.5390230296
 11
364.543410024
 21
30.6035504109
  0
LINE
  8
0
 62
7
  6
CONTINUOUS
 10
369.8043479651
 20
30.5390230296
 11
370.0355977445
 21
30.6035504109
  0
LINE
  8
0
 62
7
  6
CONTINUOUS
 10
369.8043479651
 20
30.7003414814
 11
369.6887227445
 21
30.668077795
  0
LINE
  8
0
 62
7
  6
CONTINUOUS
 10
368.7637229651
 20
31.3778789641
 11
368.9949727445
 21
31.4101426505
  0
LINE
  8
0
 62
7
  6
CONTINUOUS
 10
366.798097524
 20
31.3778789641
 11
367.0293479651
 21
31.4101426505
  0
LINE
  8
0
 62
7
  6
CONTINUOUS
 10
363.7340351343
 20
31.0229783683
 11
363.9652852445
 21
31.0552420547
  0
LINE
  8
0
 62
7
  6
CONTINUOUS
 10
367.0293479651
 20
31.5391973962
 11
366.798097524
 21
31.5069337098
  0
LINE
  8
0
 62
7
  6
CONTINUOUS
 10
363.6184102445
 20
31.3778789641
 11
363.8496603548
 21
31.4101426505
  0
LINE
  8
0
 62
7
  6
CONTINUOUS
 10
368.9949727445
 20
31.5391973962
 11
368.6480977445
 21
31.5069337098
  0
LINE
  8
0
 62
7
  6
CONTINUOUS
 10
363.9652852445
 20
31.1842968456
 11
363.6184102445
 21
31.1520331591
  0
LINE
  8
0
 62
7
  6
CONTINUOUS
 10
359.744972717
 20
31.5391973962
 11
359.3980977583
 21
31.5069337098
  0
LINE
  8
0
 62
7
  6
CONTINUOUS
 10
363.8496603548
 20
31.5391973962
 11
363.4449727445
 21
31.5069337098
  0
LINE
  8
0
 62
7
  6
CONTINUOUS
 10
361.221176638
 20
33.4575790124
 11
360.565438933
 21
33.4575790124
  0
LINE
  8
0
 62
7
  6
CONTINUOUS
 10
366.624660024
 20
31.3133515913
 11
366.798097524
 21
31.3778789641
  0
LINE
  8
0
 62
7
  6
CONTINUOUS
 10
368.6480977445
 20
31.3456152777
 11
368.7637229651
 21
31.3778789641
  0
LINE
  8
0
 62
7
  6
CONTINUOUS
 10
368.6480977445
 20
31.5069337098
 11
368.4168479651
 21
31.4424063369
  0
LINE
  8
0
 62
7
  6
CONTINUOUS
 10
364.369972524
 20
30.7003414814
 11
364.0809101343
 21
30.6358140973
  0
LINE
  8
0
 62
7
  6
CONTINUOUS
 10
361.6527851343
 20
31.3778789641
 11
361.8840352445
 21
31.4101426505
  0
LINE
  8
0
 62
7
  6
CONTINUOUS
 10
361.8840352445
 20
31.5391973962
 11
361.6527851343
 21
31.5069337098
  0
LINE
  8
0
 62
7
  6
CONTINUOUS
 10
359.4559102445
 20
31.3778789641
 11
359.6871602721
 21
31.4101426505
  0
LINE
  8
0
 62
7
  6
CONTINUOUS
 10
365.9752749986
 20
34.9329888485
 11
366.6310127035
 21
34.9329888485
  0
LINE
  8
0
 62
7
  6
CONTINUOUS
 10
363.6184102445
 20
30.9907146818
 11
363.7340351343
 21
31.0229783683
  0
LINE
  8
0
 62
7
  6
CONTINUOUS
 10
363.6184102445
 20
31.1520331591
 11
363.3871601343
 21
31.0875057863
  0
LINE
  8
0
 62
7
  6
CONTINUOUS
 10
363.5027853548
 20
31.3456152777
 11
363.6184102445
 21
31.3778789641
  0
LINE
  8
0
 62
7
  6
CONTINUOUS
 10
360.1496602445
 20
30.5390230296
 11
360.3809101894
 21
30.6035504109
  0
LINE
  8
0
 62
7
  6
CONTINUOUS
 10
363.4449727445
 20
31.5069337098
 11
363.3293478548
 21
31.4746700234
  0
LINE
  8
0
 62
7
  6
CONTINUOUS
 10
359.3980977583
 20
31.5069337098
 11
359.2246602583
 21
31.4746700234
  0
LINE
  8
0
 62
7
  6
CONTINUOUS
 10
370.1556028675
 20
36.0805298321
 11
368.7621602445
 21
36.0805298321
  0
LINE
  8
0
 62
7
  6
CONTINUOUS
 10
366.7949471298
 20
36.0805298321
 11
366.3823757812
 21
36.0805298321
  0
LINE
  8
0
 62
7
  6
CONTINUOUS
 10
365.1556028675
 20
36.0805298321
 11
363.7621602445
 21
36.0805298321
  0
LINE
  8
0
 62
7
  6
CONTINUOUS
 10
363.4342913921
 20
36.0805298321
 11
362.0408487691
 21
36.0805298321
  0
LINE
  8
0
 62
7
  6
CONTINUOUS
 10
360.1556028675
 20
36.0805298321
 11
358.7621602445
 21
36.0805298321
  0
LINE
  8
0
 62
7
  6
CONTINUOUS
 10
359.3402852307
 20
31.3456152777
 11
359.4559102445
 21
31.3778789641
  0
CIRCLE
  8
0
 62
7
  6
CONTINUOUS
 10
369.458881556
 20
38.4165954059
 40
2.0901639344
  0
ARC
  8
0
 62
7
  6
CONTINUOUS
 10
360.4015045068
 20
33.9493822911
 40
1.6393442623
 50
180.0
 51
270.0
  0
ARC
  8
0
 62
7
  6
CONTINUOUS
 10
366.7949471298
 20
34.4411855698
 40
1.6393442623
 50
0.0
 51
90.0
  0
ARC
  8
0
 62
7
  6
CONTINUOUS
 10
360.8140758554
 20
33.7854478649
 40
1.4754098361
 50
270.0
 51
326.2510114041
  0
ARC
  8
0
 62
7
  6
CONTINUOUS
 10
366.3823757812
 20
34.6051199961
 40
1.4754098361
 50
90.0
 51
146.2510114041
  0
ARC
  8
0
 62
7
  6
CONTINUOUS
 10
361.221176638
 20
34.2772511436
 40
0.8196721311
 50
270.0
 51
360.0
  0
ARC
  8
0
 62
7
  6
CONTINUOUS
 10
365.9752749986
 20
34.1133167174
 40
0.8196721311
 50
90.0
 51
180.0
  0
ARC
  8
0
 62
7
  6
CONTINUOUS
 10
360.565438933
 20
33.867415078
 40
0.4098360656
 50
180.0
 51
270.0
  0
ARC
  8
0
 62
7
  6
CONTINUOUS
 10
366.6310127035
 20
34.5231527829
 40
0.4098360656
 50
0.0
 51
90.0
  0
SOLID
  8
0
 62
7
  6
CONTINUOUS
 10
365.4684104651
 20
31.8618347111
 11
365.4684104651
 21
32.0231531947
 12
365.757472524
 22
31.8618347111
 13
365.757472524
 23
32.0231531947
  0
SOLID
  8
0
 62
7
  6
CONTINUOUS
 10
359.744972717
 20
31.5391977439
 11
360.1496602445
 21
31.5069333244
 12
359.3980977583
 22
31.5069333244
 13
359.3980977583
 23
31.5069333244
  0
SOLID
  8
0
 62
7
  6
CONTINUOUS
 10
359.2246602583
 20
31.4746706537
 11
359.3980977583
 21
31.5069333244
 12
360.1496602445
 22
31.5069333244
 13
360.1496602445
 23
31.5069333244
  0
SOLID
  8
0
 62
7
  6
CONTINUOUS
 10
360.1496602445
 20
31.5069333244
 11
360.3809101894
 21
31.4424063504
 12
359.2246602583
 22
31.4746706537
 13
359.2246602583
 23
31.4746706537
  0
SOLID
  8
0
 62
7
  6
CONTINUOUS
 10
359.0512227376
 20
31.4101419116
 11
359.2246602583
 21
31.4746706537
 12
360.3809101894
 22
31.4424063504
 13
360.3809101894
 23
31.4424063504
  0
SOLID
  8
0
 62
7
  6
CONTINUOUS
 10
359.0512227376
 20
31.4101419116
 11
360.3809101894
 21
31.4424063504
 12
359.6871602721
 22
31.4101419116
 13
359.6871602721
 23
31.4101419116
  0
SOLID
  8
0
 62
7
  6
CONTINUOUS
 10
359.6871602721
 20
31.4101419116
 11
360.3809101894
 21
31.4424063504
 12
360.091847717
 22
31.3778792603
 13
360.091847717
 23
31.3778792603
  0
SOLID
  8
0
 62
7
  6
CONTINUOUS
 10
360.3809101894
 20
31.4424063504
 11
360.5543476894
 21
31.345614957
 12
360.091847717
 22
31.3778792603
 13
360.091847717
 23
31.3778792603
  0
SOLID
  8
0
 62
7
  6
CONTINUOUS
 10
360.2652852997
 20
31.3133521701
 11
360.091847717
 21
31.3778792603
 12
360.5543476894
 22
31.345614957
 13
360.5543476894
 23
31.345614957
  0
SOLID
  8
0
 62
7
  6
CONTINUOUS
 10
360.2652852997
 20
31.3133521701
 11
360.5543476894
 21
31.345614957
 12
360.3230977445
 22
31.2165606992
 13
360.3230977445
 23
31.2165606992
  0
SOLID
  8
0
 62
7
  6
CONTINUOUS
 10
360.5543476894
 20
31.345614957
 11
360.6121602997
 21
31.2165606992
 12
360.3230977445
 22
31.2165606992
 13
360.3230977445
 23
31.2165606992
  0
SOLID
  8
0
 62
7
  6
CONTINUOUS
 10
361.6527851343
 20
31.5069329918
 11
361.8840352445
 21
31.5391972951
 12
362.1152853548
 22
31.5391972951
 13
362.1152853548
 23
31.5391972951
  0
SOLID
  8
0
 62
7
  6
CONTINUOUS
 10
362.1152853548
 20
31.5391972951
 11
362.2887228548
 21
31.5069329918
 12
361.6527851343
 22
31.5069329918
 13
361.6527851343
 23
31.5069329918
  0
SOLID
  8
0
 62
7
  6
CONTINUOUS
 10
361.4793477997
 20
31.4424059016
 11
361.6527851343
 21
31.5069329918
 12
362.2887228548
 22
31.5069329918
 13
362.2887228548
 23
31.5069329918
  0
SOLID
  8
0
 62
7
  6
CONTINUOUS
 10
362.2887228548
 20
31.5069329918
 11
362.4621603548
 21
31.4424059016
 12
361.4793477997
 22
31.4424059016
 13
361.4793477997
 23
31.4424059016
  0
SOLID
  8
0
 62
7
  6
CONTINUOUS
 10
362.4621603548
 20
31.4424059016
 11
361.8840352445
 21
31.4101420472
 12
361.4793477997
 22
31.4424059016
 13
361.4793477997
 23
31.4424059016
  0
SOLID
  8
0
 62
7
  6
CONTINUOUS
 10
361.3637227445
 20
31.3778788115
 11
361.4793477997
 21
31.4424059016
 12
361.8840352445
 22
31.4101420472
 13
361.8840352445
 23
31.4101420472
  0
SOLID
  8
0
 62
7
  6
CONTINUOUS
 10
361.8840352445
 20
31.4101420472
 11
361.6527851343
 21
31.3778788115
 12
361.3637227445
 22
31.3778788115
 13
361.3637227445
 23
31.3778788115
  0
SOLID
  8
0
 62
7
  6
CONTINUOUS
 10
361.8840352445
 20
31.4101420472
 11
362.4621603548
 21
31.4424059016
 12
362.1152853548
 22
31.3778788115
 13
362.1152853548
 23
31.3778788115
  0
SOLID
  8
0
 62
7
  6
CONTINUOUS
 10
362.4621603548
 20
31.4424059016
 11
362.5777852445
 21
31.3778788115
 12
362.1152853548
 22
31.3778788115
 13
362.1152853548
 23
31.3778788115
  0
SOLID
  8
0
 62
7
  6
CONTINUOUS
 10
362.2309102445
 20
31.345614957
 11
362.1152853548
 21
31.3778788115
 12
362.5777852445
 22
31.3778788115
 13
362.5777852445
 23
31.3778788115
  0
SOLID
  8
0
 62
7
  6
CONTINUOUS
 10
362.5777852445
 20
31.3778788115
 11
362.6355978548
 21
31.3133517213
 12
362.2309102445
 22
31.345614957
 13
362.2309102445
 23
31.345614957
  0
SOLID
  8
0
 62
7
  6
CONTINUOUS
 10
362.3465351343
 20
31.2810878668
 11
362.2309102445
 21
31.345614957
 12
362.6355978548
 22
31.3133517213
 13
362.6355978548
 23
31.3133517213
  0
SOLID
  8
0
 62
7
  6
CONTINUOUS
 10
362.3465351343
 20
31.2810878668
 11
362.6355978548
 21
31.3133517213
 12
362.4043477445
 22
31.1520332377
 13
362.4043477445
 23
31.1520332377
  0
SOLID
  8
0
 62
7
  6
CONTINUOUS
 10
362.6355978548
 20
31.3133517213
 11
362.6934101343
 21
31.1520332377
 12
362.4043477445
 22
31.1520332377
 13
362.4043477445
 23
31.1520332377
  0
SOLID
  8
0
 62
7
  6
CONTINUOUS
 10
361.6527851343
 20
31.3778788115
 11
361.4793477997
 21
31.3133517213
 12
361.3637227445
 22
31.3778788115
 13
361.3637227445
 23
31.3778788115
  0
SOLID
  8
0
 62
7
  6
CONTINUOUS
 10
361.4793477997
 20
31.3133517213
 11
361.3637227445
 21
31.2488235635
 12
361.3637227445
 22
31.3778788115
 13
361.3637227445
 23
31.3778788115
  0
SOLID
  8
0
 62
7
  6
CONTINUOUS
 10
361.3637227445
 20
31.2488235635
 11
361.0746601894
 21
30.5067593033
 12
361.3637227445
 22
31.3778788115
 13
361.3637227445
 23
31.3778788115
  0
SOLID
  8
0
 62
7
  6
CONTINUOUS
 10
361.3637227445
 20
31.3778788115
 11
361.0746601894
 21
30.5067593033
 12
361.3637227445
 22
32.0231527459
 13
361.3637227445
 23
32.0231527459
  0
SOLID
  8
0
 62
7
  6
CONTINUOUS
 10
361.0746601894
 20
30.5067593033
 11
361.0746601894
 21
32.0231527459
 12
361.3637227445
 22
32.0231527459
 13
361.3637227445
 23
32.0231527459
  0
SOLID
  8
0
 62
7
  6
CONTINUOUS
 10
361.3637227445
 20
31.2488235635
 11
361.3637227445
 21
30.5067593033
 12
361.0746601894
 22
30.5067593033
 13
361.0746601894
 23
30.5067593033
  0
SOLID
  8
0
 62
7
  6
CONTINUOUS
 10
362.4043477445
 20
30.5067593033
 11
362.4043477445
 21
31.1520332377
 12
362.6934101343
 22
31.1520332377
 13
362.6934101343
 23
31.1520332377
  0
SOLID
  8
0
 62
7
  6
CONTINUOUS
 10
362.6934101343
 20
31.1520332377
 11
362.6934101343
 21
30.5067593033
 12
362.4043477445
 22
30.5067593033
 13
362.4043477445
 23
30.5067593033
  0
SOLID
  8
0
 62
7
  6
CONTINUOUS
 10
363.4449727445
 20
31.506933758
 11
363.8496603548
 21
31.5391977507
 12
364.1965353548
 22
31.5391977507
 13
364.1965353548
 23
31.5391977507
  0
SOLID
  8
0
 62
7
  6
CONTINUOUS
 10
364.1965353548
 20
31.5391977507
 11
364.543410024
 21
31.506933758
 12
363.4449727445
 22
31.506933758
 13
363.4449727445
 23
31.506933758
  0
SOLID
  8
0
 62
7
  6
CONTINUOUS
 10
363.3293478548
 20
31.4746706537
 11
363.4449727445
 21
31.506933758
 12
364.543410024
 22
31.506933758
 13
364.543410024
 23
31.506933758
  0
SOLID
  8
0
 62
7
  6
CONTINUOUS
 10
364.543410024
 20
31.506933758
 11
364.716847524
 21
31.4424063504
 12
363.3293478548
 22
31.4746706537
 13
363.3293478548
 23
31.4746706537
  0
SOLID
  8
0
 62
7
  6
CONTINUOUS
 10
363.2137226343
 20
31.4101417797
 11
363.3293478548
 21
31.4746706537
 12
364.716847524
 22
31.4424063504
 13
364.716847524
 23
31.4424063504
  0
SOLID
  8
0
 62
7
  6
CONTINUOUS
 10
363.2137226343
 20
31.4101417797
 11
364.716847524
 21
31.4424063504
 12
363.8496603548
 22
31.4101417797
 13
363.8496603548
 23
31.4101417797
  0
SOLID
  8
0
 62
7
  6
CONTINUOUS
 10
363.8496603548
 20
31.4101417797
 11
364.716847524
 21
31.4424063504
 12
364.1965353548
 22
31.4101417797
 13
364.1965353548
 23
31.4101417797
  0
SOLID
  8
0
 62
7
  6
CONTINUOUS
 10
364.1965353548
 20
31.4101417797
 11
364.716847524
 21
31.4424063504
 12
364.4277854651
 22
31.3778793357
 13
364.4277854651
 23
31.3778793357
  0
SOLID
  8
0
 62
7
  6
CONTINUOUS
 10
364.716847524
 20
31.4424063504
 11
364.8324727445
 21
31.3778793357
 12
364.4277854651
 22
31.3778793357
 13
364.4277854651
 23
31.3778793357
  0
SOLID
  8
0
 62
7
  6
CONTINUOUS
 10
363.1559103548
 20
31.3456153429
 11
363.2137226343
 21
31.4101417797
 12
363.8496603548
 22
31.4101417797
 13
363.8496603548
 23
31.4101417797
  0
SOLID
  8
0
 62
7
  6
CONTINUOUS
 10
364.543410024
 20
31.3456153429
 11
364.4277854651
 21
31.3778793357
 12
364.8324727445
 22
31.3778793357
 13
364.8324727445
 23
31.3778793357
  0
SOLID
  8
0
 62
7
  6
CONTINUOUS
 10
364.543410024
 20
31.3456153429
 11
364.8324727445
 21
31.3778793357
 12
364.6012229651
 22
31.2810881318
 13
364.6012229651
 23
31.2810881318
  0
SOLID
  8
0
 62
7
  6
CONTINUOUS
 10
364.8324727445
 20
31.3778793357
 11
364.890285024
 21
31.2810881318
 12
364.6012229651
 22
31.2810881318
 13
364.6012229651
 23
31.2810881318
  0
SOLID
  8
0
 62
7
  6
CONTINUOUS
 10
364.6012229651
 20
31.1842964734
 11
364.6012229651
 21
31.2810881318
 12
364.890285024
 22
31.2810881318
 13
364.890285024
 23
31.2810881318
  0
SOLID
  8
0
 62
7
  6
CONTINUOUS
 10
364.6012229651
 20
31.1842964734
 11
364.890285024
 21
31.2810881318
 12
364.6012229651
 22
31.0552422931
 13
364.6012229651
 23
31.0552422931
  0
SOLID
  8
0
 62
7
  6
CONTINUOUS
 10
364.6012229651
 20
31.0552422931
 11
364.890285024
 21
31.2810881318
 12
364.6012229651
 22
30.8616599362
 13
364.6012229651
 23
30.8616599362
  0
SOLID
  8
0
 62
7
  6
CONTINUOUS
 10
364.890285024
 20
31.2810881318
 11
364.890285024
 21
30.7648681127
 12
364.6012229651
 22
30.8616599362
 13
364.6012229651
 23
30.8616599362
  0
SOLID
  8
0
 62
7
  6
CONTINUOUS
 10
366.798097524
 20
31.5069339419
 11
367.0293479651
 21
31.5391976292
 12
367.2605977445
 22
31.5391976292
 13
367.2605977445
 23
31.5391976292
  0
SOLID
  8
0
 62
7
  6
CONTINUOUS
 10
367.2605977445
 20
31.5391976292
 11
367.4340352445
 21
31.5069339419
 12
366.798097524
 22
31.5069339419
 13
366.798097524
 23
31.5069339419
  0
SOLID
  8
0
 62
7
  6
CONTINUOUS
 10
366.624660024
 20
31.4424065674
 11
366.798097524
 21
31.5069339419
 12
367.4340352445
 22
31.5069339419
 13
367.4340352445
 23
31.5069339419
  0
SOLID
  8
0
 62
7
  6
CONTINUOUS
 10
367.4340352445
 20
31.5069339419
 11
367.6074727445
 21
31.4424065674
 12
366.624660024
 22
31.4424065674
 13
366.624660024
 23
31.4424065674
  0
SOLID
  8
0
 62
7
  6
CONTINUOUS
 10
367.6074727445
 20
31.4424065674
 11
367.0293479651
 21
31.4101420472
 12
366.624660024
 22
31.4424065674
 13
366.624660024
 23
31.4424065674
  0
SOLID
  8
0
 62
7
  6
CONTINUOUS
 10
366.5090354651
 20
31.377879193
 11
366.624660024
 21
31.4424065674
 12
367.0293479651
 22
31.4101420472
 13
367.0293479651
 23
31.4101420472
  0
SOLID
  8
0
 62
7
  6
CONTINUOUS
 10
367.0293479651
 20
31.4101420472
 11
366.798097524
 21
31.377879193
 12
366.5090354651
 22
31.377879193
 13
366.5090354651
 23
31.377879193
  0
SOLID
  8
0
 62
7
  6
CONTINUOUS
 10
367.0293479651
 20
31.4101420472
 11
367.6074727445
 21
31.4424065674
 12
367.2605977445
 22
31.377879193
 13
367.2605977445
 23
31.377879193
  0
SOLID
  8
0
 62
7
  6
CONTINUOUS
 10
367.6074727445
 20
31.4424065674
 11
367.7230979651
 21
31.377879193
 12
367.2605977445
 22
31.377879193
 13
367.2605977445
 23
31.377879193
  0
SOLID
  8
0
 62
7
  6
CONTINUOUS
 10
367.3762229651
 20
31.345614957
 11
367.2605977445
 21
31.377879193
 12
367.7230979651
 22
31.377879193
 13
367.7230979651
 23
31.377879193
  0
SOLID
  8
0
 62
7
  6
CONTINUOUS
 10
367.3762229651
 20
31.345614957
 11
367.7230979651
 21
31.377879193
 12
367.491847524
 22
31.2810881312
 13
367.491847524
 23
31.2810881312
  0
SOLID
  8
0
 62
7
  6
CONTINUOUS
 10
367.7230979651
 20
31.377879193
 11
367.7809102445
 21
31.2810881312
 12
367.491847524
 22
31.2810881312
 13
367.491847524
 23
31.2810881312
  0
SOLID
  8
0
 62
7
  6
CONTINUOUS
 10
367.5496604651
 20
31.119769695
 11
367.491847524
 21
31.2810881312
 12
367.7809102445
 22
31.2810881312
 13
367.7809102445
 23
31.2810881312
  0
SOLID
  8
0
 62
7
  6
CONTINUOUS
 10
367.7809102445
 20
31.2810881312
 11
367.838722524
 21
31.119769695
 12
367.5496604651
 22
31.119769695
 13
367.5496604651
 23
31.119769695
  0
SOLID
  8
0
 62
7
  6
CONTINUOUS
 10
366.798097524
 20
31.377879193
 11
366.624660024
 21
31.3133521701
 12
366.5090354651
 22
31.377879193
 13
366.5090354651
 23
31.377879193
  0
SOLID
  8
0
 62
7
  6
CONTINUOUS
 10
366.624660024
 20
31.3133521701
 11
366.5090354651
 21
31.2488235635
 12
366.5090354651
 22
31.377879193
 13
366.5090354651
 23
31.377879193
  0
SOLID
  8
0
 62
7
  6
CONTINUOUS
 10
366.5090354651
 20
31.2488235635
 11
366.2199727445
 21
30.5067596374
 12
366.5090354651
 22
31.377879193
 13
366.5090354651
 23
31.377879193
  0
SOLID
  8
0
 62
7
  6
CONTINUOUS
 10
366.5090354651
 20
31.377879193
 11
366.2199727445
 21
30.5067596374
 12
366.5090354651
 22
31.5391976292
 13
366.5090354651
 23
31.5391976292
  0
SOLID
  8
0
 62
7
  6
CONTINUOUS
 10
366.2199727445
 20
30.5067596374
 11
366.2199727445
 21
31.5391976292
 12
366.5090354651
 22
31.5391976292
 13
366.5090354651
 23
31.5391976292
  0
SOLID
  8
0
 62
7
  6
CONTINUOUS
 10
366.5090354651
 20
31.2488235635
 11
366.5090354651
 21
30.5067596374
 12
366.2199727445
 22
30.5067596374
 13
366.2199727445
 23
30.5067596374
  0
SOLID
  8
0
 62
7
  6
CONTINUOUS
 10
367.5496604651
 20
30.5067596374
 11
367.5496604651
 21
31.119769695
 12
367.838722524
 22
31.119769695
 13
367.838722524
 23
31.119769695
  0
SOLID
  8
0
 62
7
  6
CONTINUOUS
 10
367.838722524
 20
31.119769695
 11
367.838722524
 21
30.5067596374
 12
367.5496604651
 22
30.5067596374
 13
367.5496604651
 23
30.5067596374
  0
SOLID
  8
0
 62
7
  6
CONTINUOUS
 10
368.6480977445
 20
31.5069334157
 11
368.9949727445
 21
31.539197762
 12
369.3418477445
 22
31.539197762
 13
369.3418477445
 23
31.539197762
  0
SOLID
  8
0
 62
7
  6
CONTINUOUS
 10
369.3418477445
 20
31.539197762
 11
369.6887227445
 21
31.5069334157
 12
368.6480977445
 22
31.5069334157
 13
368.6480977445
 23
31.5069334157
  0
SOLID
  8
0
 62
7
  6
CONTINUOUS
 10
368.4168479651
 20
31.4424063504
 11
368.6480977445
 21
31.5069334157
 12
369.6887227445
 22
31.5069334157
 13
369.6887227445
 23
31.5069334157
  0
SOLID
  8
0
 62
7
  6
CONTINUOUS
 10
368.4168479651
 20
31.4424063504
 11
369.6887227445
 21
31.5069334406
 12
369.8621602445
 22
31.4746706537
 13
369.8621602445
 23
31.4746706537
  0
SOLID
  8
0
 62
7
  6
CONTINUOUS
 10
368.4168479651
 20
31.4424063504
 11
369.8621602445
 21
31.4746706537
 12
368.9949727445
 22
31.4101421267
 13
368.9949727445
 23
31.4101421267
  0
SOLID
  8
0
 62
7
  6
CONTINUOUS
 10
368.9949727445
 20
31.4101421267
 11
369.8621602445
 21
31.4746706537
 12
369.3418477445
 22
31.4101421267
 13
369.3418477445
 23
31.4101421267
  0
SOLID
  8
0
 62
7
  6
CONTINUOUS
 10
369.8621602445
 20
31.4746706537
 11
370.0355977445
 21
31.4101421267
 12
369.3418477445
 22
31.4101421267
 13
369.3418477445
 23
31.4101421267
  0
SOLID
  8
0
 62
7
  6
CONTINUOUS
 10
369.6887227445
 20
31.3778792603
 11
369.3418477445
 21
31.4101421267
 12
370.0355977445
 22
31.4101421267
 13
370.0355977445
 23
31.4101421267
  0
SOLID
  8
0
 62
7
  6
CONTINUOUS
 10
368.3012227445
 20
31.3456148845
 11
368.4168479651
 21
31.4424063504
 12
368.9949727445
 22
31.4101421267
 13
368.9949727445
 23
31.4101421267
  0
SOLID
  8
0
 62
7
  6
CONTINUOUS
 10
369.6887227445
 20
31.3778792603
 11
370.0355977445
 21
31.4101421267
 12
369.8043479651
 22
31.3456148845
 13
369.8043479651
 23
31.3456148845
  0
SOLID
  8
0
 62
7
  6
CONTINUOUS
 10
369.8043479651
 20
31.3456148845
 11
370.0355977445
 21
31.4101421267
 12
369.8621602445
 22
31.281087868
 13
369.8621602445
 23
31.281087868
  0
SOLID
  8
0
 62
7
  6
CONTINUOUS
 10
370.0355977445
 20
31.4101421267
 11
370.1512223035
 21
31.281087868
 12
369.8621602445
 22
31.281087868
 13
369.8621602445
 23
31.281087868
  0
SOLID
  8
0
 62
7
  6
CONTINUOUS
 10
359.4559102445
 20
31.3778792603
 11
358.9355977445
 21
31.3456148963
 12
359.6871602721
 22
31.4101421155
 13
359.6871602721
 23
31.4101421155
  0
SOLID
  8
0
 62
7
  6
CONTINUOUS
 10
358.9355977445
 20
31.3456148963
 11
359.0512227376
 21
31.4101421155
 12
359.6871602721
 22
31.4101421155
 13
359.6871602721
 23
31.4101421155
  0
SOLID
  8
0
 62
7
  6
CONTINUOUS
 10
359.4559102445
 20
31.3778792603
 11
359.3402852307
 21
31.3456148963
 12
358.9355977445
 22
31.3456148963
 13
358.9355977445
 23
31.3456148963
  0
SOLID
  8
0
 62
7
  6
CONTINUOUS
 10
358.8199727462
 20
31.2165607767
 11
358.9355977445
 21
31.3456148963
 12
359.3402852307
 22
31.3456148963
 13
359.3402852307
 23
31.3456148963
  0
SOLID
  8
0
 62
7
  6
CONTINUOUS
 10
363.1559103548
 20
31.3456149608
 11
363.8496603548
 21
31.4101420472
 12
363.6184102445
 22
31.3778792603
 13
363.6184102445
 23
31.3778792603
  0
SOLID
  8
0
 62
7
  6
CONTINUOUS
 10
363.6184102445
 20
31.3778792603
 11
363.5027853548
 21
31.3456149608
 12
363.1559103548
 22
31.3456149608
 13
363.1559103548
 23
31.3456149608
  0
SOLID
  8
0
 62
7
  6
CONTINUOUS
 10
363.1559103548
 20
31.2810878707
 11
363.1559103548
 21
31.3456149608
 12
363.5027853548
 22
31.3456149608
 13
363.5027853548
 23
31.3456149608
  0
SOLID
  8
0
 62
7
  6
CONTINUOUS
 10
363.5027853548
 20
31.3456149608
 11
363.4449727445
 21
31.2810878707
 12
363.1559103548
 22
31.2810878707
 13
363.1559103548
 23
31.2810878707
  0
SOLID
  8
0
 62
7
  6
CONTINUOUS
 10
368.3012227445
 20
31.3456149608
 11
368.9949727445
 21
31.4101420472
 12
368.7637229651
 22
31.3778792603
 13
368.7637229651
 23
31.3778792603
  0
SOLID
  8
0
 62
7
  6
CONTINUOUS
 10
368.7637229651
 20
31.3778792603
 11
368.6480977445
 21
31.3456149608
 12
368.3012227445
 22
31.3456149608
 13
368.3012227445
 23
31.3456149608
  0
SOLID
  8
0
 62
7
  6
CONTINUOUS
 10
368.3012227445
 20
31.2810878707
 11
368.3012227445
 21
31.3456149608
 12
368.6480977445
 22
31.3456149608
 13
368.6480977445
 23
31.3456149608
  0
SOLID
  8
0
 62
7
  6
CONTINUOUS
 10
368.6480977445
 20
31.3456149608
 11
368.5902854651
 21
31.2810878707
 12
368.3012227445
 22
31.2810878707
 13
368.3012227445
 23
31.2810878707
  0
SOLID
  8
0
 62
7
  6
CONTINUOUS
 10
368.4168479651
 20
31.1520336865
 11
368.3012227445
 21
31.2810878707
 12
368.5902854651
 22
31.2810878707
 13
368.5902854651
 23
31.2810878707
  0
SOLID
  8
0
 62
7
  6
CONTINUOUS
 10
358.8199727462
 20
31.2165607767
 11
359.3402852307
 21
31.345614957
 12
359.1668477307
 22
31.2488235635
 13
359.1668477307
 23
31.2488235635
  0
SOLID
  8
0
 62
7
  6
CONTINUOUS
 10
359.1668477307
 20
31.2488235635
 11
359.1090352445
 21
31.1842964734
 12
358.8199727462
 22
31.2165607767
 13
358.8199727462
 23
31.2165607767
  0
SOLID
  8
0
 62
7
  6
CONTINUOUS
 10
358.7621602445
 20
31.0229779898
 11
358.8199727462
 21
31.2165607767
 12
359.1090352445
 22
31.1842964734
 13
359.1090352445
 23
31.1842964734
  0
SOLID
  8
0
 62
7
  6
CONTINUOUS
 10
363.6184102445
 20
31.1520336865
 11
363.9652852445
 21
31.1842964611
 12
364.6012229651
 22
31.1842964611
 13
364.6012229651
 23
31.1842964611
  0
SOLID
  8
0
 62
7
  6
CONTINUOUS
 10
363.6184102445
 20
31.1520336865
 11
364.6012229651
 21
31.1842964611
 12
363.3871601343
 22
31.0875057863
 13
363.3871601343
 23
31.0875057863
  0
SOLID
  8
0
 62
7
  6
CONTINUOUS
 10
363.3871601343
 20
31.0875057863
 11
364.6012229651
 21
31.1842964611
 12
363.9652852445
 22
31.0552422808
 13
363.9652852445
 23
31.0552422808
  0
SOLID
  8
0
 62
7
  6
CONTINUOUS
 10
364.6012229651
 20
31.1842964611
 11
364.6012229651
 21
31.0552422808
 12
363.9652852445
 22
31.0552422808
 13
363.9652852445
 23
31.0552422808
  0
SOLID
  8
0
 62
7
  6
CONTINUOUS
 10
368.4168479651
 20
31.1520338754
 11
368.5902854651
 21
31.2810878668
 12
368.6480977445
 22
31.2165607767
 13
368.6480977445
 23
31.2165607767
  0
SOLID
  8
0
 62
7
  6
CONTINUOUS
 10
368.6480977445
 20
31.2165607767
 11
368.8215352445
 21
31.1520338754
 12
368.4168479651
 22
31.1520338754
 13
368.4168479651
 23
31.1520338754
  0
SOLID
  8
0
 62
7
  6
CONTINUOUS
 10
368.6480977445
 20
31.0552422931
 11
368.4168479651
 21
31.1520338754
 12
368.8215352445
 22
31.1520338754
 13
368.8215352445
 23
31.1520338754
  0
SOLID
  8
0
 62
7
  6
CONTINUOUS
 10
368.8215352445
 20
31.1520338754
 11
369.8043479651
 21
30.9907152029
 12
368.6480977445
 22
31.0552422931
 13
368.6480977445
 23
31.0552422931
  0
SOLID
  8
0
 62
7
  6
CONTINUOUS
 10
369.6309104651
 20
30.8939239876
 11
368.6480977445
 21
31.0552422931
 12
369.8043479651
 22
30.9907152029
 13
369.8043479651
 23
30.9907152029
  0
SOLID
  8
0
 62
7
  6
CONTINUOUS
 10
369.8043479651
 20
30.9907152029
 11
370.0355977445
 21
30.8939239876
 12
369.6309104651
 22
30.8939239876
 13
369.6309104651
 23
30.8939239876
  0
SOLID
  8
0
 62
7
  6
CONTINUOUS
 10
369.8043479651
 20
30.8293967193
 11
369.6309104651
 21
30.8939239876
 12
370.0355977445
 22
30.8939239876
 13
370.0355977445
 23
30.8939239876
  0
SOLID
  8
0
 62
7
  6
CONTINUOUS
 10
369.8043479651
 20
30.8293967193
 11
370.0355977445
 21
30.8939239876
 12
369.8621602445
 22
30.7648682694
 13
369.8621602445
 23
30.7648682694
  0
SOLID
  8
0
 62
7
  6
CONTINUOUS
 10
370.0355977445
 20
30.8939239876
 11
370.1512223035
 21
30.7648682694
 12
369.8621602445
 22
30.7648682694
 13
369.8621602445
 23
30.7648682694
  0
SOLID
  8
0
 62
7
  6
CONTINUOUS
 10
369.8043479651
 20
30.7003411846
 11
369.8621602445
 21
30.7648682694
 12
370.1512223035
 22
30.7648682694
 13
370.1512223035
 23
30.7648682694
  0
SOLID
  8
0
 62
7
  6
CONTINUOUS
 10
370.1512223035
 20
30.7648682694
 11
370.1512223035
 21
30.7003411846
 12
369.8043479651
 22
30.7003411846
 13
369.8043479651
 23
30.7003411846
  0
SOLID
  8
0
 62
7
  6
CONTINUOUS
 10
369.6887227445
 20
30.6680782357
 11
369.8043479651
 21
30.7003411846
 12
370.1512223035
 22
30.7003411846
 13
370.1512223035
 23
30.7003411846
  0
SOLID
  8
0
 62
7
  6
CONTINUOUS
 10
369.6887227445
 20
30.6680782357
 11
370.1512223035
 21
30.7003411846
 12
369.4574729651
 22
30.6358140998
 13
369.4574729651
 23
30.6358140998
  0
SOLID
  8
0
 62
7
  6
CONTINUOUS
 10
370.1512223035
 20
30.7003411846
 11
370.0355977445
 21
30.6035511455
 12
369.4574729651
 22
30.6358140998
 13
369.4574729651
 23
30.6358140998
  0
SOLID
  8
0
 62
7
  6
CONTINUOUS
 10
370.0355977445
 20
30.6035511455
 11
368.5902854651
 21
30.5712868422
 12
369.4574729651
 22
30.6358140998
 13
369.4574729651
 23
30.6358140998
  0
SOLID
  8
0
 62
7
  6
CONTINUOUS
 10
369.4574729651
 20
30.6358140998
 11
368.5902854651
 21
30.5712868422
 12
369.1105979651
 22
30.6358140998
 13
369.1105979651
 23
30.6358140998
  0
SOLID
  8
0
 62
7
  6
CONTINUOUS
 10
368.5902854651
 20
30.5712868422
 11
368.4168479651
 21
30.6358140998
 12
369.1105979651
 22
30.6358140998
 13
369.1105979651
 23
30.6358140998
  0
SOLID
  8
0
 62
7
  6
CONTINUOUS
 10
368.5902854651
 20
30.5712868422
 11
370.0355977445
 21
30.6035511455
 12
368.7637229651
 22
30.5390223111
 13
368.7637229651
 23
30.5390223111
  0
SOLID
  8
0
 62
7
  6
CONTINUOUS
 10
370.0355977445
 20
30.6035511455
 11
369.8043479651
 21
30.5390223111
 12
368.7637229651
 22
30.5390223111
 13
368.7637229651
 23
30.5390223111
  0
SOLID
  8
0
 62
7
  6
CONTINUOUS
 10
369.1105979651
 20
30.5067599302
 11
368.7637229651
 21
30.5390223111
 12
369.8043479651
 22
30.5390223111
 13
369.8043479651
 23
30.5390223111
  0
SOLID
  8
0
 62
7
  6
CONTINUOUS
 10
369.8043479651
 20
30.5390223111
 11
369.4574729651
 21
30.5067599302
 12
369.1105979651
 22
30.5067599302
 13
369.1105979651
 23
30.5067599302
  0
SOLID
  8
0
 62
7
  6
CONTINUOUS
 10
358.7621602445
 20
31.0229779898
 11
359.1090352445
 21
31.1842964734
 12
359.0512227376
 22
31.0552422931
 13
359.0512227376
 23
31.0552422931
  0
SOLID
  8
0
 62
7
  6
CONTINUOUS
 10
359.0512227376
 20
31.0552422931
 11
359.0512227376
 21
30.9584509954
 12
358.7621602445
 22
31.0229779898
 13
358.7621602445
 23
31.0229779898
  0
SOLID
  8
0
 62
7
  6
CONTINUOUS
 10
358.8199727462
 20
30.8293967193
 11
358.7621602445
 21
31.0229779898
 12
359.0512227376
 22
30.9584509954
 13
359.0512227376
 23
30.9584509954
  0
SOLID
  8
0
 62
7
  6
CONTINUOUS
 10
359.0512227376
 20
30.9584509954
 11
359.1668477307
 21
30.797132416
 12
358.8199727462
 22
30.8293967193
 13
358.8199727462
 23
30.8293967193
  0
SOLID
  8
0
 62
7
  6
CONTINUOUS
 10
358.9355977445
 20
30.7003413087
 11
358.8199727462
 21
30.8293967193
 12
359.1668477307
 22
30.797132416
 13
359.1668477307
 23
30.797132416
  0
SOLID
  8
0
 62
7
  6
CONTINUOUS
 10
359.1668477307
 20
30.797132416
 11
359.3402852307
 21
30.7003413087
 12
358.9355977445
 22
30.7003413087
 13
358.9355977445
 23
30.7003413087
  0
SOLID
  8
0
 62
7
  6
CONTINUOUS
 10
359.0512227376
 20
30.6358140759
 11
358.9355977445
 21
30.7003413087
 12
359.3402852307
 22
30.7003413087
 13
359.3402852307
 23
30.7003413087
  0
SOLID
  8
0
 62
7
  6
CONTINUOUS
 10
359.3402852307
 20
30.7003413087
 11
359.6871602721
 21
30.6358140759
 12
359.0512227376
 22
30.6358140759
 13
359.0512227376
 23
30.6358140759
  0
SOLID
  8
0
 62
7
  6
CONTINUOUS
 10
359.2246602583
 20
30.5712868422
 11
359.0512227376
 21
30.6358140759
 12
359.6871602721
 22
30.6358140759
 13
359.6871602721
 23
30.6358140759
  0
SOLID
  8
0
 62
7
  6
CONTINUOUS
 10
363.2715352445
 20
31.0229779808
 11
363.3871601343
 21
31.0875057863
 12
363.9652852445
 22
31.0552422931
 13
363.9652852445
 23
31.0552422931
  0
SOLID
  8
0
 62
7
  6
CONTINUOUS
 10
363.9652852445
 20
31.0552422931
 11
363.7340351343
 21
31.0229779808
 12
363.2715352445
 22
31.0229779808
 13
363.2715352445
 23
31.0229779808
  0
SOLID
  8
0
 62
7
  6
CONTINUOUS
 10
363.1559103548
 20
30.8939238094
 11
363.2715352445
 21
31.0229779808
 12
363.7340351343
 22
31.0229779808
 13
363.7340351343
 23
31.0229779808
  0
SOLID
  8
0
 62
7
  6
CONTINUOUS
 10
363.5027853548
 20
30.926187309
 11
363.1559103548
 21
30.8939238094
 12
363.6184102445
 22
30.9907152029
 13
363.6184102445
 23
30.9907152029
  0
SOLID
  8
0
 62
7
  6
CONTINUOUS
 10
363.1559103548
 20
30.8939238094
 11
363.7340351343
 21
31.0229779898
 12
363.6184102445
 22
30.9907152029
 13
363.6184102445
 23
30.9907152029
  0
SOLID
  8
0
 62
7
  6
CONTINUOUS
 10
363.5027853548
 20
30.926187309
 11
363.4449727445
 21
30.8293967193
 12
363.1559103548
 22
30.8939238094
 13
363.1559103548
 23
30.8939238094
  0
SOLID
  8
0
 62
7
  6
CONTINUOUS
 10
363.1559103548
 20
30.797132416
 11
363.1559103548
 21
30.8939238094
 12
363.4449727445
 22
30.8293967193
 13
363.4449727445
 23
30.8293967193
  0
SOLID
  8
0
 62
7
  6
CONTINUOUS
 10
363.4449727445
 20
30.8293967193
 11
363.4449727445
 21
30.7648681127
 12
363.1559103548
 22
30.797132416
 13
363.1559103548
 23
30.797132416
  0
SOLID
  8
0
 62
7
  6
CONTINUOUS
 10
363.2137226343
 20
30.6680782357
 11
363.1559103548
 21
30.797132416
 12
363.4449727445
 22
30.7648681127
 13
363.4449727445
 23
30.7648681127
  0
SOLID
  8
0
 62
7
  6
CONTINUOUS
 10
364.6012229651
 20
30.8616599362
 11
364.890285024
 21
30.7648681127
 12
364.543410024
 22
30.797132416
 13
364.543410024
 23
30.797132416
  0
SOLID
  8
0
 62
7
  6
CONTINUOUS
 10
364.369972524
 20
30.7003410226
 11
364.543410024
 21
30.797132416
 12
364.890285024
 22
30.7648681127
 13
364.890285024
 23
30.7648681127
  0
SOLID
  8
0
 62
7
  6
CONTINUOUS
 10
364.369972524
 20
30.7003410226
 11
364.890285024
 21
30.7648681127
 12
364.6012229651
 22
30.6680782357
 13
364.6012229651
 23
30.6680782357
  0
SOLID
  8
0
 62
7
  6
CONTINUOUS
 10
364.890285024
 20
30.7648681127
 11
364.9480979651
 21
30.6035511455
 12
364.6012229651
 22
30.6680782357
 13
364.6012229651
 23
30.6680782357
  0
SOLID
  8
0
 62
7
  6
CONTINUOUS
 10
364.6590352445
 20
30.5712868422
 11
364.6012229651
 21
30.6680782357
 12
364.9480979651
 22
30.6035511455
 13
364.9480979651
 23
30.6035511455
  0
SOLID
  8
0
 62
7
  6
CONTINUOUS
 10
364.6590352445
 20
30.5712868422
 11
364.9480979651
 21
30.6035511455
 12
364.716847524
 22
30.5067598731
 13
364.716847524
 23
30.5067598731
  0
SOLID
  8
0
 62
7
  6
CONTINUOUS
 10
364.9480979651
 20
30.6035511455
 11
365.0059102445
 21
30.5067598731
 12
364.716847524
 22
30.5067598731
 13
364.716847524
 23
30.5067598731
  0
SOLID
  8
0
 62
7
  6
CONTINUOUS
 10
360.2652852997
 20
30.7326051679
 11
360.3230977445
 21
30.8293966612
 12
360.6121602997
 22
30.8293966612
 13
360.6121602997
 23
30.8293966612
  0
SOLID
  8
0
 62
7
  6
CONTINUOUS
 10
360.6121602997
 20
30.8293966612
 11
360.5543476894
 21
30.7003410226
 12
360.2652852997
 22
30.7326051679
 13
360.2652852997
 23
30.7326051679
  0
SOLID
  8
0
 62
7
  6
CONTINUOUS
 10
360.091847717
 20
30.6680782357
 11
360.2652852997
 21
30.7326051679
 12
360.5543476894
 22
30.7003410226
 13
360.5543476894
 23
30.7003410226
  0
SOLID
  8
0
 62
7
  6
CONTINUOUS
 10
360.091847717
 20
30.6680782357
 11
360.5543476894
 21
30.7003410226
 12
359.6871602721
 22
30.6358139324
 13
359.6871602721
 23
30.6358139324
  0
SOLID
  8
0
 62
7
  6
CONTINUOUS
 10
360.5543476894
 20
30.7003410226
 11
360.3809101894
 21
30.6035511455
 12
359.6871602721
 22
30.6358139324
 13
359.6871602721
 23
30.6358139324
  0
SOLID
  8
0
 62
7
  6
CONTINUOUS
 10
359.2246602583
 20
30.5712868422
 11
359.6871602721
 21
30.6358139324
 12
360.3809101894
 22
30.6035511455
 13
360.3809101894
 23
30.6035511455
  0
SOLID
  8
0
 62
7
  6
CONTINUOUS
 10
359.2246602583
 20
30.5712868422
 11
360.3809101894
 21
30.6035511455
 12
359.3980977583
 22
30.5390224228
 13
359.3980977583
 23
30.5390224228
  0
SOLID
  8
0
 62
7
  6
CONTINUOUS
 10
360.3809101894
 20
30.6035511455
 11
360.1496602445
 21
30.5390224228
 12
359.3980977583
 22
30.5390224228
 13
359.3980977583
 23
30.5390224228
  0
SOLID
  8
0
 62
7
  6
CONTINUOUS
 10
359.744972717
 20
30.5067597521
 11
359.3980977583
 21
30.5390224228
 12
360.1496602445
 22
30.5390224228
 13
360.1496602445
 23
30.5390224228
  0
SOLID
  8
0
 62
7
  6
CONTINUOUS
 10
363.2137226343
 20
30.6680782357
 11
363.4449727445
 21
30.7648681127
 12
363.5027853548
 22
30.7003410226
 13
363.5027853548
 23
30.7003410226
  0
SOLID
  8
0
 62
7
  6
CONTINUOUS
 10
363.5027853548
 20
30.7003410226
 11
363.7340351343
 21
30.6358139324
 12
363.2137226343
 22
30.6680782357
 13
363.2137226343
 23
30.6680782357
  0
SOLID
  8
0
 62
7
  6
CONTINUOUS
 10
363.3871601343
 20
30.5712868422
 11
363.2137226343
 21
30.6680782357
 12
363.7340351343
 22
30.6358139324
 13
363.7340351343
 23
30.6358139324
  0
SOLID
  8
0
 62
7
  6
CONTINUOUS
 10
364.0809101343
 20
30.6358139363
 11
364.369972524
 21
30.7003410226
 12
364.6012229651
 22
30.6680782357
 13
364.6012229651
 23
30.6680782357
  0
SOLID
  8
0
 62
7
  6
CONTINUOUS
 10
364.6012229651
 20
30.6680782357
 11
364.543410024
 21
30.6035511455
 12
364.0809101343
 22
30.6358139363
 13
364.0809101343
 23
30.6358139363
  0
SOLID
  8
0
 62
7
  6
CONTINUOUS
 10
364.543410024
 20
30.6035511455
 11
363.3871601343
 21
30.5712868422
 12
364.0809101343
 22
30.6358139363
 13
364.0809101343
 23
30.6358139363
  0
SOLID
  8
0
 62
7
  6
CONTINUOUS
 10
363.3871601343
 20
30.5712868422
 11
363.7340351343
 21
30.6358139363
 12
364.0809101343
 22
30.6358139363
 13
364.0809101343
 23
30.6358139363
  0
SOLID
  8
0
 62
7
  6
CONTINUOUS
 10
363.3871601343
 20
30.5712868422
 11
364.543410024
 21
30.6035511455
 12
363.5027853548
 22
30.5390225267
 13
363.5027853548
 23
30.5390225267
  0
SOLID
  8
0
 62
7
  6
CONTINUOUS
 10
364.543410024
 20
30.6035511455
 11
364.369972524
 21
30.5390225267
 12
363.5027853548
 22
30.5390225267
 13
363.5027853548
 23
30.5390225267
  0
SOLID
  8
0
 62
7
  6
CONTINUOUS
 10
363.7340351343
 20
30.5067596914
 11
363.5027853548
 21
30.5390225267
 12
364.369972524
 22
30.5390225267
 13
364.369972524
 23
30.5390225267
  0
SOLID
  8
0
 62
7
  6
CONTINUOUS
 10
364.369972524
 20
30.5390225267
 11
364.0809101343
 21
30.5067596914
 12
363.7340351343
 22
30.5067596914
 13
363.7340351343
 23
30.5067596914
  0
SOLID
  8
0
 62
7
  6
CONTINUOUS
 10
368.7637229651
 20
30.6680782357
 11
368.4168479651
 21
30.6358138717
 12
368.6480977445
 22
30.7003410226
 13
368.6480977445
 23
30.7003410226
  0
SOLID
  8
0
 62
7
  6
CONTINUOUS
 10
368.6480977445
 20
30.7003410226
 11
368.4168479651
 21
30.6358138717
 12
368.5902854651
 22
30.7648680521
 13
368.5902854651
 23
30.7648680521
  0
SOLID
  8
0
 62
7
  6
CONTINUOUS
 10
368.4168479651
 20
30.6358138717
 11
368.3012227445
 21
30.7648680521
 12
368.5902854651
 22
30.7648680521
 13
368.5902854651
 23
30.7648680521
  0
SOLID
  8
0
 62
7
  6
CONTINUOUS
 10
368.7637229651
 20
30.6680782357
 11
369.1105979651
 21
30.6358138717
 12
368.4168479651
 22
30.6358138717
 13
368.4168479651
 23
30.6358138717
  0
SOLID
  8
0
 62
7
  6
CONTINUOUS
 10
365.4684104651
 20
30.5067597521
 11
365.4684104651
 21
31.5391977439
 12
365.757472524
 22
30.5067597521
 13
365.757472524
 23
31.5391977439
  0
ENDBLK
  8
0
  6
BYBLOCK
 62
0
  0
BLOCK
  8
0
 62
2
  6
CONTINUOUS
  2
SYMBOL_0_BL0
 70
64
 10
240.8592468615
 20
19.762288695
  0
TEXT
  8
0
 62
7
  6
CONTINUOUS
 10
227.1239507038
 20
19.1357028027
  7
TEXTSTYLE_3
 40
2.7338706658
  1
Ammeraal Beltech
 41
1.0
 51
15.0
 72
0
  0
TEXT
  8
0
 62
7
  6
CONTINUOUS
 10
237.9247515296
 20
16.8621661299
  7
TEXTSTYLE_4
 40
1.0935482663
  1
Innovation & Service in Belting
 41
1.0
 72
0
  0
LINE
  8
0
 62
7
  6
CONTINUOUS
 10
221.0994100525
 20
19.9022961113
 11
221.8775620458
 21
23.5632134089
  0
LINE
  8
0
 62
7
  6
CONTINUOUS
 10
231.9727303357
 20
27.2266073205
 11
222.3653797889
 21
24.1049898993
  0
LINE
  8
0
 62
7
  6
CONTINUOUS
 10
221.3246933848
 20
19.2089453082
 11
228.8317686459
 21
12.4495443822
  0
LINE
  8
0
 62
7
  6
CONTINUOUS
 10
221.5872277955
 20
20.4440726016
 11
232.3954971607
 21
23.9558922005
  0
LINE
  8
0
 62
7
  6
CONTINUOUS
 10
232.3912920235
 20
13.6061036368
 11
223.9458323548
 21
21.2104296785
  0
LINE
  8
0
 62
7
  6
CONTINUOUS
 10
232.9111147433
 20
26.3816822048
 11
231.9345552061
 21
21.7873308023
  0
LINE
  8
0
 62
7
  6
CONTINUOUS
 10
231.2347532584
 20
18.4950214885
 11
230.5483050469
 21
15.2655365641
  0
LINE
  8
0
 62
7
  6
CONTINUOUS
 10
233.5922108419
 20
13.9963058145
 11
234.5484423775
 21
18.4950214885
  0
LINE
  8
0
 62
7
  6
CONTINUOUS
 10
235.2482443252
 20
21.7873308023
 11
235.6924861276
 21
23.8773241617
  0
LINE
  8
0
 62
7
  6
CONTINUOUS
 10
229.5448697213
 20
12.2979700695
 11
233.1043930989
 21
13.4545293241
  0
LINE
  8
0
 62
7
  6
CONTINUOUS
 10
232.685831411
 20
27.0750330078
 11
235.4672027953
 21
24.5706749648
  0
ARC
  8
0
 62
7
  6
CONTINUOUS
 10
222.5906631212
 20
23.4116390962
 40
0.7290321776
 50
108.0
 51
168.0
  0
ARC
  8
0
 62
7
  6
CONTINUOUS
 10
232.198013668
 20
26.5332565175
 40
0.7290321776
 50
348.0
 51
108.0
  0
ARC
  8
0
 62
7
  6
CONTINUOUS
 10
234.9793850522
 20
24.0288984744
 40
0.7290321776
 50
348.0
 51
48.0
  0
ARC
  8
0
 62
7
  6
CONTINUOUS
 10
229.319586389
 20
12.9913208726
 40
0.7290321776
 50
228.0
 51
288.0
  0
ARC
  8
0
 62
7
  6
CONTINUOUS
 10
221.8125111278
 20
19.7507217986
 40
0.7290321776
 50
108.0
 51
228.0
  0
ARC
  8
0
 62
7
  6
CONTINUOUS
 10
232.8791097665
 20
14.1478801272
 40
0.7290321776
 50
228.0
 51
348.0
  0
ENDBLK
  8
0
  6
BYBLOCK
 62
0
  0
ENDSEC
  0
SECTION
  2
ENTITIES
  0
TEXT
  8
0
 62
5
  6
CONTINUOUS
 10
304.937007874
 20
25.636
  7
TEXTSTYLE_2
 40
2.8
  1
Scale :
 41
0.6
 51
0.000019
 72
0
  0
TEXT
  8
0
 62
5
  6
CONTINUOUS
 10
324.937007874
 20
25.636
  7
TEXTSTYLE_2
 40
2.8
  1
Belt type:
 41
0.6
 51
0.000019
 72
0
  0
INSERT
  8
0
 62
2
  6
CONTINUOUS
  2
SYMBOL_0_BL0
 10
240.8592468615
 20
19.762288695
  0
INSERT
  8
0
 62
2
  6
CONTINUOUS
  2
SYMBOL_5_BL1
 10
382.7840918555
 20
35.5067593403
  0
LINE
  8
0
 62
2
  6
CONTINUOUS
 10
218.937007874
 20
30.0
 11
408.937007874
 21
30.0
  0
LINE
  8
0
 62
2
  6
CONTINUOUS
 10
218.937007874
 20
30.0
 11
218.937007874
 21
10.0
  0
LINE
  8
0
 62
2
  6
CONTINUOUS
 10
218.937007874
 20
10.0
 11
408.937007874
 21
10.0
  0
LINE
  8
0
 62
2
  6
CONTINUOUS
 10
303.937007874
 20
30.0
 11
303.937007874
 21
10.0
  0
LINE
  8
0
 62
2
  6
CONTINUOUS
 10
323.937007874
 20
30.0
 11
323.937007874
 21
10.0
  0
LINE
  8
0
 62
2
  6
CONTINUOUS
 10
408.937007874
 20
30.0
 11
408.937007874
 21
10.0
  0
TEXT
  8
0
 62
5
  6
CONTINUOUS
 10
221.937007874
 20
23.303
  7
TEXTSTYLE_5
 40
1.52
  1
                                                                     Ammeraal Beltech Modular A/S
 41
1.0
 72
0
  0
TEXT
  8
0
 62
5
  6
CONTINUOUS
 10
221.937007874
 20
20.595
  7
TEXTSTYLE_5
 40
1.5
  1
                                                                      Hjulmagervej 21, 7100 Vejle,  DK
 41
1.0
 72
0
  0
TEXT
  8
0
 62
5
  6
CONTINUOUS
 10
221.937007874
 20
17.881
  7
TEXTSTYLE_5
 40
1.495
  1
                                                                      tel: 
 41
1.0
 72
0
  0
TEXT
  8
0
 62
5
  6
CONTINUOUS
 10
266.9239544389
 20
17.881
  7
TEXTSTYLE_5
 40
1.51
  1
+45 75723100     fax: +45 75723348
 41
1.0
 72
0
  0
TEXT
  8
0
 62
5
  6
CONTINUOUS
 10
221.937007874
 20
15.177
  7
TEXTSTYLE_5
 40
1.5
  1
                                                                      admin@unichains.dk  www.unichains.com
 41
1.0
 72
0
  0
TEXT
  8
0
 62
5
  6
CONTINUOUS
 10
308.687007874
 20
13.75
  7
TEXTSTYLE_6
 40
5.0
  1
1:1
 41
0.7
 72
1
 11
313.937007874
 21
13.75
  0
TEXT
  8
0
 62
5
  6
CONTINUOUS
 10
326.937007874
 20
13.75
  7
TEXTSTYLE_7
 40
7.5
  1
Sprocket Z10
 41
0.6361111111
 72
0
  0
LINE
  8
0
 62
7
  6
CONTINUOUS
 10
0.0
 20
0.0
 11
0.0
 21
297.0
  0
LINE
  8
0
 62
7
  6
CONTINUOUS
 10
8.937007874
 20
10.0
 11
8.937007874
 21
287.0
  0
LINE
  8
0
 62
7
  6
CONTINUOUS
 10
0.0
 20
0.0
 11
420.0
 21
0.0
  0
LINE
  8
0
 62
7
  6
CONTINUOUS
 10
408.937007874
 20
10.0
 11
8.937007874
 21
10.0
  0
LINE
  8
0
 62
7
  6
CONTINUOUS
 10
218.937007874
 20
30.0
 11
408.937007874
 21
30.0
  0
LINE
  8
0
 62
7
  6
CONTINUOUS
 10
210.0
 20
297.0
 11
210.0
 21
292.0
  0
LINE
  8
0
 62
7
  6
CONTINUOUS
 10
210.0
 20
0.0
 11
210.0
 21
5.0
  0
LINE
  8
0
 62
7
  6
CONTINUOUS
 10
8.937007874
 20
287.0
 11
408.937007874
 21
287.0
  0
LINE
  8
0
 62
7
  6
CONTINUOUS
 10
0.0
 20
297.0
 11
420.0
 21
297.0
  0
LINE
  8
0
 62
7
  6
CONTINUOUS
 10
408.937007874
 20
287.0
 11
408.937007874
 21
10.0
  0
LINE
  8
0
 62
7
  6
CONTINUOUS
 10
420.0
 20
0.0
 11
420.0
 21
297.0
  0
LINE
  8
0
 62
7
  6
CONTINUOUS
 10
58.0450791434
 20
196.5921973803
 11
58.0612919335
 21
196.3312646391
  0
LINE
  8
0
 62
7
  6
CONTINUOUS
 10
55.4661768568
 20
162.5910396776
 11
64.6639461773
 21
190.8988628939
  0
LINE
  8
0
 62
7
  6
CONTINUOUS
 10
90.1481892622
 20
233.0297546215
 11
90.0079332678
 21
232.8091259605
  0
LINE
  8
0
 62
7
  6
CONTINUOUS
 10
68.076434427
 20
207.0380809427
 11
92.1565071286
 21
224.5332778379
  0
LINE
  8
0
 62
7
  6
CONTINUOUS
 10
95.341945942
 20
225.5542812229
 11
95.0269190314
 21
225.3707629647
  0
LINE
  8
0
 62
7
  6
CONTINUOUS
 10
100.8454977696
 20
228.4219545631
 11
100.2521222856
 21
228.1416518739
  0
LINE
  8
0
 62
7
  6
CONTINUOUS
 10
104.0843225543
 20
229.8301621727
 11
102.4660593098
 21
229.1640338127
  0
LINE
  8
0
 62
7
  6
CONTINUOUS
 10
137.5376096965
 20
243.6386229825
 11
137.2944579403
 21
243.5425710514
  0
LINE
  8
0
 62
7
  6
CONTINUOUS
 10
107.317970507
 20
231.0468180342
 11
105.6686040048
 21
230.4619333094
  0
LINE
  8
0
 62
7
  6
CONTINUOUS
 10
155.9328759931
 20
95.2343692485
 11
126.1682692308
 21
95.2343692485
  0
LINE
  8
0
 62
7
  6
CONTINUOUS
 10
78.2243459139
 20
106.4521631653
 11
78.4775177255
 21
106.3869497935
  0
LINE
  8
0
 62
7
  6
CONTINUOUS
 10
109.7644438753
 20
93.4925457822
 11
85.6843711736
 21
110.9877426774
  0
LINE
  8
0
 62
7
  6
CONTINUOUS
 10
53.4905762609
 20
148.2438596581
 11
53.6570651007
 21
148.042290275
  0
LINE
  8
0
 62
7
  6
CONTINUOUS
 10
71.3895795427
 20
119.2205045171
 11
62.1918102223
 21
147.5283277334
  0
LINE
  8
0
 62
7
  6
CONTINUOUS
 10
99.9542763811
 20
227.9185946586
 11
99.7541689824
 21
227.659349044
  0
LINE
  8
0
 62
7
  6
CONTINUOUS
 10
93.1227844143
 20
220.4820911597
 11
92.9233277222
 21
220.256631784
  0
LINE
  8
0
 62
7
  6
CONTINUOUS
 10
93.090666992
 20
220.0102063503
 11
93.2901236951
 21
220.2356657099
  0
LINE
  8
0
 62
7
  6
CONTINUOUS
 10
94.1601389822
 20
223.5440948844
 11
93.9513953182
 21
223.327205275
  0
LINE
  8
0
 62
7
  6
CONTINUOUS
 10
94.108244654
 20
223.0739737684
 11
94.316988318
 21
223.2908633779
  0
LINE
  8
0
 62
7
  6
CONTINUOUS
 10
104.8926035615
 20
228.6328006277
 11
104.7186666231
 21
228.4806723977
  0
LINE
  8
0
 62
7
  6
CONTINUOUS
 10
100.2110518548
 20
227.5457393582
 11
100.442966647
 21
227.7376515926
  0
LINE
  8
0
 62
7
  6
CONTINUOUS
 10
102.3815158539
 20
225.8531978783
 11
102.1496010616
 21
225.6612856439
  0
LINE
  8
0
 62
7
  6
CONTINUOUS
 10
108.065749411
 20
229.8107680487
 11
107.8844673069
 21
229.6674716578
  0
LINE
  8
0
 62
7
  6
CONTINUOUS
 10
108.5884123465
 20
228.3368660962
 11
108.4071302425
 21
228.1935697054
  0
LINE
  8
0
 62
7
  6
CONTINUOUS
 10
100.2521222856
 20
228.1416518739
 11
99.9542763811
 21
227.9185946586
  0
LINE
  8
0
 62
7
  6
CONTINUOUS
 10
102.3404454453
 20
225.2572853155
 11
102.6382913471
 21
225.4803425366
  0
LINE
  8
0
 62
7
  6
CONTINUOUS
 10
92.5964733282
 20
222.5550954408
 11
92.294858798
 21
222.3502791014
  0
LINE
  8
0
 62
7
  6
CONTINUOUS
 10
91.0884009579
 20
221.5310139346
 11
90.7867864924
 21
221.3261976393
  0
LINE
  8
0
 62
7
  6
CONTINUOUS
 10
92.9233277222
 20
220.256631784
 11
92.6820361153
 21
220.0927787242
  0
LINE
  8
0
 62
7
  6
CONTINUOUS
 10
92.8493753851
 20
219.8463532906
 11
93.090666992
 21
220.0102063503
  0
LINE
  8
0
 62
7
  6
CONTINUOUS
 10
93.754218803
 20
220.4608021913
 11
94.0558333331
 21
220.6656185306
  0
LINE
  8
0
 62
7
  6
CONTINUOUS
 10
104.8213152735
 20
228.039744138
 11
105.1301069035
 21
228.2473828264
  0
LINE
  8
0
 62
7
  6
CONTINUOUS
 10
94.4080949801
 20
223.6976766173
 11
94.1601389822
 21
223.5440948844
  0
LINE
  8
0
 62
7
  6
CONTINUOUS
 10
93.6022382528
 20
223.1985361504
 11
93.2922933441
 21
223.0065590393
  0
LINE
  8
0
 62
7
  6
CONTINUOUS
 10
94.5470881401
 20
220.9807068096
 11
94.8570330489
 21
221.1726839207
  0
LINE
  8
0
 62
7
  6
CONTINUOUS
 10
95.9728345076
 20
221.8638013889
 11
96.282779239
 21
222.0557783901
  0
LINE
  8
0
 62
7
  6
CONTINUOUS
 10
108.4877399567
 20
227.7480850298
 11
108.8064687427
 21
227.9401216345
  0
LINE
  8
0
 62
7
  6
CONTINUOUS
 10
117.1417543351
 20
232.2402862091
 11
116.9424717973
 21
232.1233096003
  0
LINE
  8
0
 62
7
  6
CONTINUOUS
 10
95.2143419826
 20
225.0490332694
 11
95.5293688932
 21
225.2325515277
  0
LINE
  8
0
 62
7
  6
CONTINUOUS
 10
95.9042149006
 20
224.5890919569
 11
95.5891879899
 21
224.4055736987
  0
LINE
  8
0
 62
7
  6
CONTINUOUS
 10
96.7886949825
 20
222.3465034689
 11
97.1037218932
 21
222.5300217271
  0
LINE
  8
0
 62
7
  6
CONTINUOUS
 10
120.479039252
 20
232.805069202
 11
120.274189741
 21
232.698140559
  0
LINE
  8
0
 62
7
  6
CONTINUOUS
 10
120.7173136103
 20
231.2594984854
 11
120.5124640992
 21
231.1525698424
  0
LINE
  8
0
 62
7
  6
CONTINUOUS
 10
100.442966647
 20
227.7376515926
 11
101.0363421309
 21
228.0179542818
  0
LINE
  8
0
 62
7
  6
CONTINUOUS
 10
101.7546317075
 20
227.8631118766
 11
102.1502153635
 21
228.049980336
  0
LINE
  8
0
 62
7
  6
CONTINUOUS
 10
102.88178546
 20
226.5013124966
 11
102.4862018041
 21
226.3144440372
  0
LINE
  8
0
 62
7
  6
CONTINUOUS
 10
102.1496010616
 20
225.6612856439
 11
101.5562255777
 21
225.3809829547
  0
LINE
  8
0
 62
7
  6
CONTINUOUS
 10
101.7470699614
 20
224.9769826263
 11
102.3404454453
 21
225.2572853155
  0
LINE
  8
0
 62
7
  6
CONTINUOUS
 10
116.9609864587
 20
231.6709691021
 11
117.3031167378
 21
231.8173008067
  0
LINE
  8
0
 62
7
  6
CONTINUOUS
 10
103.0123542818
 20
228.9862546999
 11
104.2934784823
 21
229.5136059608
  0
LINE
  8
0
 62
7
  6
CONTINUOUS
 10
104.7186666231
 20
228.4806723977
 11
103.4375424226
 21
227.9533211368
  0
LINE
  8
0
 62
7
  6
CONTINUOUS
 10
103.6076176472
 20
227.5401477887
 11
104.8213152735
 21
228.039744138
  0
LINE
  8
0
 62
7
  6
CONTINUOUS
 10
103.7983153943
 20
225.9275088669
 11
104.2028810125
 21
226.0940408775
  0
LINE
  8
0
 62
7
  6
CONTINUOUS
 10
120.5084782854
 20
230.6998683564
 11
120.8574595004
 21
230.8290172052
  0
LINE
  8
0
 62
7
  6
CONTINUOUS
 10
92.5662490039
 20
219.7441066186
 11
92.8493753851
 21
219.8463532906
  0
LINE
  8
0
 62
7
  6
CONTINUOUS
 10
106.2302778827
 20
230.1870396892
 11
107.536025315
 21
230.6500730578
  0
LINE
  8
0
 62
7
  6
CONTINUOUS
 10
107.8844673069
 20
229.6674716578
 11
106.5787198746
 21
229.2044382892
  0
LINE
  8
0
 62
7
  6
CONTINUOUS
 10
106.728052127
 20
228.7833234878
 11
108.0337995593
 21
229.2463568564
  0
LINE
  8
0
 62
7
  6
CONTINUOUS
 10
108.4071302425
 20
228.1935697054
 11
107.1013828102
 21
227.7305363367
  0
LINE
  8
0
 62
7
  6
CONTINUOUS
 10
106.8383734544
 20
227.1632003049
 11
108.4877399567
 21
227.7480850298
  0
LINE
  8
0
 62
7
  6
CONTINUOUS
 10
94.316988318
 20
223.2908633779
 11
94.6041566499
 21
223.3811372341
  0
LINE
  8
0
 62
7
  6
CONTINUOUS
 10
93.2200834703
 20
220.7281936459
 11
93.1227844143
 21
220.4820911597
  0
LINE
  8
0
 62
7
  6
CONTINUOUS
 10
93.9513953182
 20
223.327205275
 11
93.8438532536
 21
223.0854033869
  0
LINE
  8
0
 62
7
  6
CONTINUOUS
 10
94.0007025894
 20
222.8321718803
 11
94.108244654
 21
223.0739737684
  0
LINE
  8
0
 62
7
  6
CONTINUOUS
 10
93.2901236951
 20
220.2356657099
 11
93.3689347242
 21
220.3791986274
  0
LINE
  8
0
 62
7
  6
CONTINUOUS
 10
100.0768748139
 20
227.317638368
 11
100.2110518548
 21
227.5457393582
  0
LINE
  8
0
 62
7
  6
CONTINUOUS
 10
102.5156928724
 20
226.0812989157
 11
102.3815158539
 21
225.8531978783
  0
LINE
  8
0
 62
7
  6
CONTINUOUS
 10
102.6382913471
 20
225.4803425366
 11
102.8383987374
 21
225.7395881689
  0
LINE
  8
0
 62
7
  6
CONTINUOUS
 10
108.3714750586
 20
229.6031354383
 11
108.4840346071
 21
229.7220620042
  0
LINE
  8
0
 62
7
  6
CONTINUOUS
 10
120.7406207475
 20
232.5440048541
 11
120.8734060556
 21
232.6398236516
  0
LINE
  8
0
 62
7
  6
CONTINUOUS
 10
93.3689347242
 20
220.3791986274
 11
93.4243988582
 21
220.6869074404
  0
LINE
  8
0
 62
7
  6
CONTINUOUS
 10
93.8438532536
 20
223.0854033869
 11
93.7982999226
 21
222.8819967672
  0
LINE
  8
0
 62
7
  6
CONTINUOUS
 10
93.9551492583
 20
222.6287652606
 11
94.0007025894
 21
222.8321718803
  0
LINE
  8
0
 62
7
  6
CONTINUOUS
 10
99.7541689824
 20
227.659349044
 11
99.6176763709
 21
227.265436669
  0
LINE
  8
0
 62
7
  6
CONTINUOUS
 10
104.9707680549
 20
228.8260361707
 11
104.8926035615
 21
228.6328006277
  0
LINE
  8
0
 62
7
  6
CONTINUOUS
 10
108.1534202507
 20
229.9998804147
 11
108.065749411
 21
229.8107680487
  0
LINE
  8
0
 62
7
  6
CONTINUOUS
 10
108.6760831688
 20
228.5259785114
 11
108.5884123465
 21
228.3368660962
  0
LINE
  8
0
 62
7
  6
CONTINUOUS
 10
105.1301069035
 20
228.2473828264
 11
105.3147802178
 21
228.5649910526
  0
LINE
  8
0
 62
7
  6
CONTINUOUS
 10
117.2546222933
 20
232.415528899
 11
117.1417543351
 21
232.2402862091
  0
LINE
  8
0
 62
7
  6
CONTINUOUS
 10
108.8064687427
 20
227.9401216345
 11
109.0066975514
 21
228.2481600271
  0
LINE
  8
0
 62
7
  6
CONTINUOUS
 10
120.6004781632
 20
232.9744865978
 11
120.479039252
 21
232.805069202
  0
LINE
  8
0
 62
7
  6
CONTINUOUS
 10
120.8387525135
 20
231.4289159327
 11
120.7173136103
 21
231.2594984854
  0
LINE
  8
0
 62
7
  6
CONTINUOUS
 10
117.3031167378
 20
231.8173008067
 11
117.5438441805
 21
232.0948427255
  0
LINE
  8
0
 62
7
  6
CONTINUOUS
 10
120.8574595004
 20
230.8290172052
 11
121.1116804178
 21
231.0942529093
  0
LINE
  8
0
 62
7
  6
CONTINUOUS
 10
148.4418578715
 20
229.3022202996
 11
151.5482299597
 21
231.0072983309
  0
LINE
  8
0
 62
7
  6
CONTINUOUS
 10
151.242433702
 20
231.2554716789
 11
148.0662699981
 21
229.5715193468
  0
LINE
  8
0
 62
7
  6
CONTINUOUS
 10
154.2404802239
 20
230.2947024875
 11
153.9561560894
 21
230.164622518
  0
LINE
  8
0
 62
7
  6
CONTINUOUS
 10
158.5095741487
 20
227.4847922522
 11
158.3159940503
 21
227.4074913136
  0
LINE
  8
0
 62
7
  6
CONTINUOUS
 10
161.5594210876
 20
225.9996596475
 11
161.3622386697
 21
225.932074267
  0
LINE
  8
0
 62
7
  6
CONTINUOUS
 10
100.0404356136
 20
227.0533484334
 11
100.0768748139
 21
227.317638368
  0
LINE
  8
0
 62
7
  6
CONTINUOUS
 10
105.3147802178
 20
228.5649910526
 11
105.4036795439
 21
228.9237059566
  0
LINE
  8
0
 62
7
  6
CONTINUOUS
 10
108.4840346071
 20
229.7220620042
 11
108.5906505849
 21
230.0759157957
  0
LINE
  8
0
 62
7
  6
CONTINUOUS
 10
109.0066975514
 20
228.2481600271
 11
109.1133135205
 21
228.6020138432
  0
LINE
  8
0
 62
7
  6
CONTINUOUS
 10
102.8383987374
 20
225.7395881689
 11
102.9748913378
 21
226.1335005675
  0
LINE
  8
0
 62
7
  6
CONTINUOUS
 10
117.5438441805
 20
232.0948427255
 11
117.6981570436
 21
232.4306507254
  0
LINE
  8
0
 62
7
  6
CONTINUOUS
 10
120.8734060556
 20
232.6398236516
 11
121.044216376
 21
232.9675480892
  0
LINE
  8
0
 62
7
  6
CONTINUOUS
 10
121.1116804178
 20
231.0942529093
 11
121.2824907343
 21
231.4219773726
  0
LINE
  8
0
 62
7
  6
CONTINUOUS
 10
152.7873501585
 20
231.1256319084
 11
152.2040169065
 21
230.7751211502
  0
LINE
  8
0
 62
7
  6
CONTINUOUS
 10
152.010129133
 20
230.2118100284
 11
152.5934624528
 21
230.5623209838
  0
LINE
  8
0
 62
7
  6
CONTINUOUS
 10
158.5591990266
 20
227.0558093931
 11
158.8796657677
 21
227.2398760668
  0
LINE
  8
0
 62
7
  6
CONTINUOUS
 10
157.9272346055
 20
225.6253603161
 11
158.2477013571
 21
225.8094270137
  0
LINE
  8
0
 62
7
  6
CONTINUOUS
 10
161.5876661618
 20
225.5687407019
 11
161.9168842129
 21
225.7366542133
  0
LINE
  8
0
 62
7
  6
CONTINUOUS
 10
160.8853958001
 20
224.1714648056
 11
161.2146138629
 21
224.3393783403
  0
LINE
  8
0
 62
7
  6
CONTINUOUS
 10
154.6962292816
 20
227.0083171735
 11
154.9805534255
 21
227.1383971672
  0
LINE
  8
0
 62
7
  6
CONTINUOUS
 10
157.8776097591
 20
226.0543432468
 11
157.6840296397
 21
225.9770422605
  0
LINE
  8
0
 62
7
  6
CONTINUOUS
 10
160.8571507611
 20
224.6023838211
 11
160.6599683197
 21
224.534798394
  0
LINE
  8
0
 62
7
  6
CONTINUOUS
 10
93.2152247599
 20
220.9949392487
 11
93.2200834703
 21
220.7281936459
  0
LINE
  8
0
 62
7
  6
CONTINUOUS
 10
99.6176763709
 20
227.265436669
 11
99.613044475
 21
226.9338135428
  0
LINE
  8
0
 62
7
  6
CONTINUOUS
 10
110.023485167
 20
231.1482836874
 11
109.6731379082
 21
229.0887362015
  0
LINE
  8
0
 62
7
  6
CONTINUOUS
 10
109.9263214477
 20
229.0117190907
 11
110.2766687686
 21
231.0712663774
  0
LINE
  8
DEFAULT_1
 62
2
  6
CENTER
 10
97.2716560075
 20
177.2019045962
 11
118.3757338831
 21
198.3059824718
  0
LINE
  8
0
 62
7
  6
CONTINUOUS
 10
153.9561560894
 20
230.164622518
 11
153.713183158
 21
229.938877698
  0
LINE
  8
0
 62
7
  6
CONTINUOUS
 10
153.9053162669
 20
229.6257241357
 11
154.337836619
 21
229.9381899282
  0
LINE
  8
0
 62
7
  6
CONTINUOUS
 10
155.0313931919
 20
227.6772954035
 11
154.5988728959
 21
227.364829757
  0
LINE
  8
DEFAULT_1
 62
2
  6
CENTER
 10
97.2716560075
 20
153.6168339008
 11
118.3757338831
 21
132.5127560252
  0
LINE
  8
DEFAULT_1
 62
2
  6
CENTER
 10
122.5004306424
 20
130.6508009657
 11
126.0359645483
 21
127.1152670597
  0
LINE
  8
DEFAULT_1
 62
2
  6
CENTER
 10
95.409700948
 20
157.7415306601
 11
91.874167042
 21
161.277064566
  0
LINE
  8
0
 62
7
  6
CONTINUOUS
 10
113.5805425667
 20
229.2915451109
 11
113.8632032181
 21
232.2162656144
  0
LINE
  8
DEFAULT_1
 62
2
  6
CENTER
 10
126.0359645483
 20
203.7034714372
 11
122.5004306424
 21
200.1679375313
  0
LINE
  8
DEFAULT_1
 62
2
  6
CENTER
 10
91.874167042
 20
169.5416739309
 11
95.409700948
 21
173.0772078369
  0
LINE
  8
0
 62
7
  6
CONTINUOUS
 10
154.9805534255
 20
227.1383971672
 11
155.2235263757
 21
227.364142036
  0
LINE
  8
0
 62
7
  6
CONTINUOUS
 10
182.7030477465
 20
210.0085816433
 11
182.3228075455
 21
209.8848011262
  0
LINE
  8
0
 62
7
  6
CONTINUOUS
 10
182.3550657798
 20
206.7964758076
 11
182.7353058599
 21
206.9202562253
  0
LINE
  8
0
 62
7
  6
CONTINUOUS
 10
104.9531570168
 20
229.0603777564
 11
104.9707680549
 21
228.8260361707
  0
LINE
  8
0
 62
7
  6
CONTINUOUS
 10
105.4036795439
 20
228.9237059566
 11
105.3860685058
 21
229.1580475422
  0
LINE
  8
0
 62
7
  6
CONTINUOUS
 10
108.1474766801
 20
230.2348076405
 11
108.1534202507
 21
229.9998804147
  0
LINE
  8
0
 62
7
  6
CONTINUOUS
 10
108.5906505849
 20
230.0759157957
 11
108.5847070144
 21
230.3108430214
  0
LINE
  8
0
 62
7
  6
CONTINUOUS
 10
108.6701395982
 20
228.7609057371
 11
108.6760831688
 21
228.5259785114
  0
LINE
  8
0
 62
7
  6
CONTINUOUS
 10
109.1133135205
 20
228.6020138432
 11
109.1073699325
 21
228.8369411181
  0
LINE
  8
0
 62
7
  6
CONTINUOUS
 10
113.2682692308
 20
86.61590133
 11
113.2682692308
 21
84.4232167284
  0
LINE
  8
0
 62
7
  6
CONTINUOUS
 10
113.461378037
 20
232.8802968818
 11
113.2033946986
 21
229.5769670429
  0
LINE
  8
0
 62
7
  6
CONTINUOUS
 10
117.2810756719
 20
232.6490376701
 11
117.2546222933
 21
232.415528899
  0
LINE
  8
0
 62
7
  6
CONTINUOUS
 10
117.6981570436
 20
232.4306507254
 11
117.7246104222
 21
232.6641594965
  0
LINE
  8
0
 62
7
  6
CONTINUOUS
 10
120.6385031756
 20
233.2063922377
 11
120.6004781632
 21
232.9744865978
  0
LINE
  8
0
 62
7
  6
CONTINUOUS
 10
121.044216376
 20
232.9675480892
 11
121.0822413884
 21
233.1994537292
  0
LINE
  8
0
 62
7
  6
CONTINUOUS
 10
120.8767775259
 20
231.6608215727
 11
120.8387525135
 21
231.4289159327
  0
LINE
  8
0
 62
7
  6
CONTINUOUS
 10
121.2824907343
 20
231.4219773726
 11
121.3205157387
 21
231.6538830641
  0
LINE
  8
0
 62
7
  6
CONTINUOUS
 10
134.6477533875
 20
235.942612614
 11
136.7035663562
 21
242.8962889013
  0
LINE
  8
0
 62
7
  6
CONTINUOUS
 10
70.1822436064
 20
111.5976854205
 11
68.8934159346
 21
109.8237663145
  0
LINE
  8
0
 62
7
  6
CONTINUOUS
 10
153.713183158
 20
229.938877698
 11
153.5649931719
 21
229.7564894804
  0
LINE
  8
0
 62
7
  6
CONTINUOUS
 10
155.2235263757
 20
227.364142036
 11
155.3717162869
 21
227.5465300588
  0
LINE
  8
0
 62
7
  6
CONTINUOUS
 10
158.6665543317
 20
227.6596746021
 11
158.5095741487
 21
227.4847922522
  0
LINE
  8
0
 62
7
  6
CONTINUOUS
 10
158.8796657677
 20
227.2398760668
 11
159.0366459508
 21
227.4147584167
  0
LINE
  8
0
 62
7
  6
CONTINUOUS
 10
158.0345899422
 20
226.2292255967
 11
157.8776097591
 21
226.0543432468
  0
LINE
  8
0
 62
7
  6
CONTINUOUS
 10
158.2477013571
 20
225.8094270137
 11
158.4046815613
 21
225.9843094113
  0
LINE
  8
0
 62
7
  6
CONTINUOUS
 10
161.7248981627
 20
226.1665247181
 11
161.5594210876
 21
225.9996596475
  0
LINE
  8
0
 62
7
  6
CONTINUOUS
 10
161.9168842129
 20
225.7366542133
 11
162.082361288
 21
225.9035192839
  0
LINE
  8
0
 62
7
  6
CONTINUOUS
 10
161.0226278362
 20
224.7692488917
 11
160.8571507611
 21
224.6023838211
  0
LINE
  8
0
 62
7
  6
CONTINUOUS
 10
161.2146138629
 20
224.3393783403
 11
161.3800909615
 21
224.5062434575
  0
LINE
  8
0
 62
7
  6
CONTINUOUS
 10
175.2506482862
 20
219.8389870744
 11
181.001104286
 21
224.2562528197
  0
LINE
  8
0
 62
7
  6
CONTINUOUS
 10
178.9894023978
 20
213.4067621631
 11
178.7803840854
 21
213.29934727
  0
LINE
  8
0
 62
7
  6
CONTINUOUS
 10
179.0388231477
 20
212.938568951
 11
179.2478414601
 21
213.0459838442
  0
LINE
  8
0
 62
7
  6
CONTINUOUS
 10
179.3980849134
 20
211.1428596588
 11
181.3263969217
 21
212.0117345177
  0
LINE
  8
0
 62
7
  6
CONTINUOUS
 10
178.2717465063
 20
210.6100061574
 11
179.1287755384
 21
210.9961710929
  0
LINE
  8
0
 62
7
  6
CONTINUOUS
 10
181.3501841641
 20
212.427946987
 11
177.9771235436
 21
210.9334308934
  0
LINE
  8
0
 62
7
  6
CONTINUOUS
 10
182.4967895265
 20
209.555870816
 11
182.7156755397
 21
209.6414022175
  0
LINE
  8
0
 62
7
  6
CONTINUOUS
 10
181.5763506453
 20
208.7992737799
 11
181.7952365778
 21
208.8848051152
  0
LINE
  8
0
 62
7
  6
CONTINUOUS
 10
182.5613238789
 20
207.2491865356
 11
182.3424380269
 21
207.1636552665
  0
LINE
  8
0
 62
7
  6
CONTINUOUS
 10
50.0088409205
 20
157.1337037413
 11
47.923473942
 21
156.4561269361
  0
LINE
  8
0
 62
7
  6
CONTINUOUS
 10
61.7029317821
 20
147.8736409771
 11
54.4543114923
 21
147.6800311511
  0
LINE
  8
0
 62
7
  6
CONTINUOUS
 10
201.9682901097
 20
124.3104166854
 11
199.8829231312
 21
124.9879934906
  0
LINE
  8
0
 62
7
  6
CONTINUOUS
 10
64.471405243
 20
191.4655827137
 11
58.4933472423
 21
195.56958118
  0
LINE
  8
0
 62
7
  6
CONTINUOUS
 10
162.8095204453
 20
91.730543893
 11
164.098348117
 21
89.956624787
  0
LINE
  8
0
 62
7
  6
CONTINUOUS
 10
92.333847793
 20
225.1049365248
 11
89.909767051
 21
231.9389553591
  0
LINE
  8
0
 62
7
  6
CONTINUOUS
 10
99.613044475
 20
226.9338135428
 11
99.7061511741
 21
226.5660018286
  0
LINE
  8
0
 62
7
  6
CONTINUOUS
 10
100.10173483
 20
226.7528702881
 11
100.0404356136
 21
227.0533484334
  0
LINE
  8
0
 62
7
  6
CONTINUOUS
 10
102.4862018041
 20
226.3144440372
 11
102.5156928724
 21
226.0812989157
  0
LINE
  8
0
 62
7
  6
CONTINUOUS
 10
153.6769910929
 20
229.2347988521
 11
153.9053162669
 21
229.6257241357
  0
LINE
  8
0
 62
7
  6
CONTINUOUS
 10
155.2597184033
 20
228.0682207844
 11
155.0313931919
 21
227.6772954035
  0
LINE
  8
0
 62
7
  6
CONTINUOUS
 10
153.5649931719
 20
229.7564894804
 11
153.363377675
 21
229.4350774152
  0
LINE
  8
0
 62
7
  6
CONTINUOUS
 10
155.3717162869
 20
227.5465300588
 11
155.5733318212
 21
227.8679422213
  0
LINE
  8
0
 62
7
  6
CONTINUOUS
 10
182.3228075455
 20
209.8848011262
 11
181.8738119933
 21
209.6101206147
  0
LINE
  8
0
 62
7
  6
CONTINUOUS
 10
182.1053256385
 20
209.328472458
 11
182.4967895265
 21
209.555870816
  0
LINE
  8
0
 62
4
  6
CONTINUOUS
 10
127.1682692308
 20
153.0843692485
 11
133.1682692308
 21
153.0843692485
  0
LINE
  8
0
 62
7
  6
CONTINUOUS
 10
102.9748913378
 20
226.1335005675
 11
102.88178546
 21
226.5013124966
  0
LINE
  8
0
 62
7
  6
CONTINUOUS
 10
123.3484620038
 20
234.5893299939
 11
123.6186834413
 21
231.0997769603
  0
LINE
  8
0
 62
7
  6
CONTINUOUS
 10
124.0548775705
 20
231.13355464
 11
123.9283909392
 21
232.7669624562
  0
LINE
  8
0
 62
7
  6
CONTINUOUS
 10
123.8938945896
 20
233.2124372585
 11
123.784656133
 21
234.6231076736
  0
LINE
  8
0
 62
7
  6
CONTINUOUS
 10
125.8202309546
 20
234.7807370173
 11
125.9294694111
 21
233.3700666021
  0
LINE
  8
0
 62
7
  6
CONTINUOUS
 10
125.9639657608
 20
232.9245917999
 11
126.0904523921
 21
231.2911839836
  0
LINE
  8
0
 62
4
  6
CONTINUOUS
 10
127.1682692308
 20
177.7343692485
 11
127.1682692308
 21
174.4495918674
  0
LINE
  8
0
 62
4
  6
CONTINUOUS
 10
127.1682692308
 20
156.3691466295
 11
127.1682692308
 21
153.0843692485
  0
LINE
  8
1_AXIS
 62
2
  6
CONTINUOUS
 10
130.1682692308
 20
166.4593692485
 11
130.1682692308
 21
164.3593692485
  0
LINE
  8
1_AXIS
 62
2
  6
CENTER
 10
130.1682692308
 20
160.1593692485
 11
130.1682692308
 21
80.7357722191
  0
LINE
  8
1_AXIS
 62
2
  6
CENTER
 10
130.1682692308
 20
170.6593692485
 11
130.1682692308
 21
250.0829662778
  0
LINE
  8
0
 62
7
  6
CONTINUOUS
 10
148.9076764289
 20
232.3512197419
 11
148.7998038231
 21
231.9948479412
  0
LINE
  8
0
 62
7
  6
CONTINUOUS
 10
148.0662699981
 20
229.5715193468
 11
147.8936738137
 21
229.0013244157
  0
LINE
  8
0
 62
7
  6
CONTINUOUS
 10
152.2040169065
 20
230.7751211502
 11
152.010129133
 21
230.2118100284
  0
LINE
  8
0
 62
7
  6
CONTINUOUS
 10
152.5934624528
 20
230.5623209838
 11
151.6482597521
 21
227.816179832
  0
LINE
  8
0
 62
7
  6
CONTINUOUS
 10
152.0619412616
 20
227.6737935312
 11
153.201031668
 21
230.9832456076
  0
LINE
  8
0
 62
7
  6
CONTINUOUS
 10
153.363377675
 20
229.4350774152
 11
153.1229905814
 21
228.8094584499
  0
LINE
  8
0
 62
7
  6
CONTINUOUS
 10
153.4900233535
 20
228.7482063235
 11
153.6769910929
 21
229.2347988521
  0
LINE
  8
0
 62
7
  6
CONTINUOUS
 10
157.0202386218
 20
229.5267727471
 11
155.6058420567
 21
226.3252914717
  0
LINE
  8
0
 62
7
  6
CONTINUOUS
 10
156.1865884793
 20
226.5571916374
 11
156.6379916478
 21
227.5789410019
  0
LINE
  8
0
 62
7
  6
CONTINUOUS
 10
156.8185528899
 20
227.9876406905
 11
157.2398625392
 21
228.9412734879
  0
LINE
  8
0
 62
7
  6
CONTINUOUS
 10
160.1734028575
 20
228.1131302811
 11
158.6016549012
 21
224.9858937435
  0
LINE
  8
0
 62
7
  6
CONTINUOUS
 10
159.1932081432
 20
225.1886469336
 11
159.6948298418
 21
226.1867011685
  0
LINE
  8
0
 62
7
  6
CONTINUOUS
 10
159.8954784931
 20
226.5859228066
 11
160.3636587733
 21
227.5174401485
  0
LINE
  8
0
 62
7
  6
CONTINUOUS
 10
178.1170276527
 20
215.7381508489
 11
175.6540756581
 21
213.2514125288
  0
LINE
  8
0
 62
7
  6
CONTINUOUS
 10
175.9649179482
 20
212.9435435295
 11
177.0653858762
 21
214.0546393904
  0
LINE
  8
0
 62
7
  6
CONTINUOUS
 10
177.3798052423
 20
214.3720953083
 11
178.1658538043
 21
215.1657352513
  0
LINE
  8
0
 62
7
  6
CONTINUOUS
 10
181.8738119933
 20
209.6101206147
 11
181.471120018
 21
209.2791094404
  0
LINE
  8
0
 62
7
  6
CONTINUOUS
 10
181.9902707884
 20
209.2338978367
 11
182.1053256385
 21
209.328472458
  0
LINE
  8
0
 62
7
  6
CONTINUOUS
 10
181.4037683701
 20
208.6574118481
 11
181.5763506453
 21
208.7992737799
  0
LINE
  8
1_AXIS
 62
2
  6
CONTINUOUS
 10
131.2182692308
 20
165.4093692485
 11
129.1182692308
 21
165.4093692485
  0
LINE
  8
1_AXIS
 62
2
  6
CENTER
 10
124.9182692308
 20
165.4093692485
 11
45.4946722014
 21
165.4093692485
  0
LINE
  8
1_AXIS
 62
2
  6
CENTER
 10
135.4182692308
 20
165.4093692485
 11
214.8418662601
 21
165.4093692485
  0
LINE
  8
0
 62
7
  6
CONTINUOUS
 10
90.7867864924
 20
221.3261976393
 11
91.6234828267
 21
220.0940704925
  0
LINE
  8
0
 62
7
  6
CONTINUOUS
 10
91.9250972922
 20
220.2988867879
 11
91.0884009579
 21
221.5310139346
  0
LINE
  8
0
 62
7
  6
CONTINUOUS
 10
92.294858798
 20
222.3502791014
 11
93.2152247599
 21
220.9949392487
  0
LINE
  8
0
 62
7
  6
CONTINUOUS
 10
93.6841785745
 20
220.9533301327
 11
92.5964733282
 21
222.5550954408
  0
LINE
  8
0
 62
7
  6
CONTINUOUS
 10
93.2922933441
 20
223.0065590393
 11
94.5470881401
 21
220.9807068096
  0
LINE
  8
0
 62
7
  6
CONTINUOUS
 10
94.8570330489
 20
221.1726839207
 11
93.9551492583
 21
222.6287652606
  0
LINE
  8
0
 62
7
  6
CONTINUOUS
 10
93.7982999226
 20
222.8819967672
 11
93.6022382528
 21
223.1985361504
  0
LINE
  8
0
 62
7
  6
CONTINUOUS
 10
95.2278000528
 20
223.0666512223
 11
95.9728345076
 21
221.8638013889
  0
LINE
  8
0
 62
7
  6
CONTINUOUS
 10
96.282779239
 20
222.0557783901
 11
95.5377447842
 21
223.2586282235
  0
LINE
  8
0
 62
7
  6
CONTINUOUS
 10
95.0269190314
 20
225.3707629647
 11
95.2143419826
 21
225.0490332694
  0
LINE
  8
0
 62
7
  6
CONTINUOUS
 10
95.5891879899
 20
224.4055736987
 11
96.7886949825
 21
222.3465034689
  0
LINE
  8
0
 62
7
  6
CONTINUOUS
 10
97.1037218932
 20
222.5300217271
 11
95.9042149006
 21
224.5890919569
  0
LINE
  8
0
 62
7
  6
CONTINUOUS
 10
95.5293688932
 20
225.2325515277
 11
95.341945942
 21
225.5542812229
  0
LINE
  8
0
 62
7
  6
CONTINUOUS
 10
99.7061511741
 20
226.5660018286
 11
100.1832621221
 21
225.556001031
  0
LINE
  8
0
 62
7
  6
CONTINUOUS
 10
100.578845778
 20
225.7428694905
 11
100.10173483
 21
226.7528702881
  0
LINE
  8
0
 62
7
  6
CONTINUOUS
 10
102.4660593098
 20
229.1640338127
 11
103.7983153943
 21
225.9275088669
  0
LINE
  8
0
 62
7
  6
CONTINUOUS
 10
104.2028810125
 20
226.0940408775
 11
103.6076176472
 21
227.5401477887
  0
LINE
  8
0
 62
7
  6
CONTINUOUS
 10
103.4375424226
 20
227.9533211368
 11
103.0123542818
 21
228.9862546999
  0
LINE
  8
0
 62
7
  6
CONTINUOUS
 10
104.8681193251
 20
229.2669646233
 11
104.9531570168
 21
229.0603777564
  0
LINE
  8
0
 62
7
  6
CONTINUOUS
 10
105.6686040048
 20
230.4619333094
 11
106.8383734544
 21
227.1632003049
  0
LINE
  8
0
 62
7
  6
CONTINUOUS
 10
107.1013828102
 20
227.7305363367
 11
106.728052127
 21
228.7833234878
  0
LINE
  8
0
 62
7
  6
CONTINUOUS
 10
106.5787198746
 20
229.2044382892
 11
106.2302778827
 21
230.1870396892
  0
LINE
  8
0
 62
7
  6
CONTINUOUS
 10
108.0976992626
 20
230.3751792409
 11
108.1474766801
 21
230.2348076405
  0
LINE
  8
0
 62
7
  6
CONTINUOUS
 10
108.5954734721
 20
228.9714631379
 11
108.6701395982
 21
228.7609057371
  0
LINE
  8
0
 62
7
  6
CONTINUOUS
 10
110.7120911347
 20
232.1534299123
 11
111.6066966356
 21
228.7696921864
  0
LINE
  8
0
 62
7
  6
CONTINUOUS
 10
112.0296638514
 20
228.881517874
 11
111.3253999237
 21
231.5453114887
  0
LINE
  8
0
 62
7
  6
CONTINUOUS
 10
114.8570698009
 20
233.2152455359
 11
115.5615947886
 21
229.7868866658
  0
LINE
  8
0
 62
7
  6
CONTINUOUS
 10
115.9901396473
 20
229.8749522893
 11
115.6753518824
 21
231.4067722317
  0
LINE
  8
0
 62
7
  6
CONTINUOUS
 10
115.585412533
 20
231.844435014
 11
115.3605641175
 21
232.9385921741
  0
LINE
  8
0
 62
7
  6
CONTINUOUS
 10
117.2361059552
 20
232.8678692656
 11
117.2810756719
 21
232.6490376701
  0
LINE
  8
0
 62
7
  6
CONTINUOUS
 10
118.245630305
 20
233.8923625251
 11
118.7789110218
 21
230.433227998
  0
LINE
  8
0
 62
7
  6
CONTINUOUS
 10
119.1432244485
 20
230.9414797282
 11
118.9730284715
 21
232.0454588557
  0
LINE
  8
0
 62
7
  6
CONTINUOUS
 10
118.9049500903
 20
232.4870504448
 11
118.7461005022
 21
233.5174310256
  0
LINE
  8
0
 62
7
  6
CONTINUOUS
 10
120.6158103819
 20
233.3535894341
 11
120.6385031756
 21
233.2063922377
  0
LINE
  8
0
 62
7
  6
CONTINUOUS
 10
120.8427383353
 20
231.8816173673
 11
120.8767775259
 21
231.6608215727
  0
LINE
  8
0
 62
7
  6
CONTINUOUS
 10
121.8366944397
 20
232.534701181
 11
121.8796345007
 21
232.1648450086
  0
LINE
  8
0
 62
7
  6
CONTINUOUS
 10
122.8936577821
 20
232.2825724518
 11
122.8507177211
 21
232.6524286242
  0
LINE
  8
0
 62
7
  6
CONTINUOUS
 10
126.5266465213
 20
231.3249616633
 11
126.2564250838
 21
234.814514697
  0
LINE
  8
0
 62
4
  6
CONTINUOUS
 10
133.1682692308
 20
153.0843692485
 11
133.1682692308
 21
156.3691466295
  0
LINE
  8
0
 62
4
  6
CONTINUOUS
 10
133.1682692308
 20
174.4495918674
 11
133.1682692308
 21
177.7343692485
  0
LINE
  8
0
 62
7
  6
CONTINUOUS
 10
150.6852489926
 20
228.1563235257
 11
150.8146961346
 21
228.5839697365
  0
LINE
  8
0
 62
7
  6
CONTINUOUS
 10
151.5482299597
 20
231.0072983309
 11
151.6992516078
 21
231.5062188519
  0
LINE
  8
0
 62
7
  6
CONTINUOUS
 10
155.4466861427
 20
228.554813313
 11
155.2597184033
 21
228.0682207844
  0
LINE
  8
0
 62
7
  6
CONTINUOUS
 10
155.5733318212
 20
227.8679422213
 11
155.8137189148
 21
228.4935611867
  0
LINE
  8
0
 62
7
  6
CONTINUOUS
 10
158.7267414124
 20
227.7959078316
 11
158.6665543317
 21
227.6596746021
  0
LINE
  8
0
 62
7
  6
CONTINUOUS
 10
158.1248705633
 20
226.433575441
 11
158.0345899422
 21
226.2292255967
  0
LINE
  8
0
 62
7
  6
CONTINUOUS
 10
158.4046815613
 20
225.9843094113
 11
158.555149263
 21
226.3248924851
  0
LINE
  8
0
 62
7
  6
CONTINUOUS
 10
159.0366459508
 20
227.4147584167
 11
159.1570201965
 21
227.6872250666
  0
LINE
  8
0
 62
7
  6
CONTINUOUS
 10
161.7917810465
 20
226.2995985975
 11
161.7248981627
 21
226.1665247181
  0
LINE
  8
0
 62
7
  6
CONTINUOUS
 10
161.1229521618
 20
224.9688597108
 11
161.0226278362
 21
224.7692488917
  0
LINE
  8
0
 62
7
  6
CONTINUOUS
 10
161.3800909615
 20
224.5062434575
 11
161.5472981709
 21
224.8389281559
  0
LINE
  8
0
 62
7
  6
CONTINUOUS
 10
162.082361288
 20
225.9035192839
 11
162.2161271493
 21
226.169667229
  0
LINE
  8
0
 62
7
  6
CONTINUOUS
 10
181.471120018
 20
209.2791094404
 11
181.114731539
 21
208.8917675371
  0
LINE
  8
0
 62
7
  6
CONTINUOUS
 10
179.1466122276
 20
213.5654902703
 11
178.9894023978
 21
213.4067621631
  0
LINE
  8
0
 62
7
  6
CONTINUOUS
 10
179.2478414601
 20
213.0459838442
 11
179.4574545176
 21
213.257621271
  0
LINE
  8
0
 62
7
  6
CONTINUOUS
 10
182.733906154
 20
207.3910484675
 11
182.5613238789
 21
207.2491865356
  0
LINE
  8
0
 62
7
  6
CONTINUOUS
 10
182.7353058599
 20
206.9202562253
 11
183.0229430657
 21
207.1566928446
  0
LINE
  8
0
 62
7
  6
CONTINUOUS
 10
105.3860685058
 20
229.1580475422
 11
105.2726849433
 21
229.4334966339
  0
LINE
  8
0
 62
7
  6
CONTINUOUS
 10
109.1073699325
 20
228.8369411181
 11
108.9829263889
 21
229.1878701193
  0
LINE
  8
0
 62
7
  6
CONTINUOUS
 10
108.5847070144
 20
230.3108430214
 11
108.4851521098
 21
230.591586419
  0
LINE
  8
0
 62
7
  6
CONTINUOUS
 10
113.8632032181
 20
232.2162656144
 11
114.5674671458
 21
229.5524719997
  0
LINE
  8
0
 62
7
  6
CONTINUOUS
 10
114.9904343615
 20
229.6642976873
 11
114.0958288606
 21
233.0480354132
  0
LINE
  8
0
 62
7
  6
CONTINUOUS
 10
117.7246104222
 20
232.6641594965
 11
117.6646508139
 21
232.955934889
  0
LINE
  8
0
 62
7
  6
CONTINUOUS
 10
121.3205157387
 20
231.6538830641
 11
121.2637837543
 21
232.0218760551
  0
LINE
  8
0
 62
7
  6
CONTINUOUS
 10
121.0822413884
 20
233.1994537292
 11
121.0368557691
 21
233.4938483281
  0
LINE
  8
0
 62
7
  6
CONTINUOUS
 10
153.1229905814
 20
228.8094584499
 11
153.0575092704
 21
228.4357382339
  0
LINE
  8
0
 62
7
  6
CONTINUOUS
 10
155.8137189148
 20
228.4935611867
 11
155.8792001884
 21
228.8672813053
  0
LINE
  8
0
 62
7
  6
CONTINUOUS
 10
153.3978323654
 20
228.3049728892
 11
153.4900233535
 21
228.7482063235
  0
LINE
  8
0
 62
7
  6
CONTINUOUS
 10
155.5388770934
 20
228.99804665
 11
155.4466861427
 21
228.554813313
  0
LINE
  8
0
 62
7
  6
CONTINUOUS
 10
125.688785074
 20
94.876125883
 11
123.6329721053
 21
87.9224495956
  0
LINE
  8
0
 62
7
  6
CONTINUOUS
 10
85.0858901753
 20
110.9797514226
 11
79.3354341755
 21
106.5624856772
  0
LINE
  8
0
 62
7
  6
CONTINUOUS
 10
198.6336066795
 20
182.9450975199
 11
205.8822269693
 21
183.1387073459
  0
LINE
  8
0
 62
4
  6
CONTINUOUS
 10
133.1682692308
 20
177.7343692485
 11
127.1682692308
 21
177.7343692485
  0
LINE
  8
0
 62
7
  6
CONTINUOUS
 10
58.3682483518
 20
206.5083218116
 11
60.4536153304
 21
205.8307450064
  0
LINE
  8
0
 62
7
  6
CONTINUOUS
 10
195.8651332185
 20
139.3531557832
 11
201.8431912192
 21
135.2491573169
  0
LINE
  8
0
 62
7
  6
CONTINUOUS
 10
91.6234828267
 20
220.0940704925
 11
91.8511450075
 21
219.8886082986
  0
LINE
  8
0
 62
7
  6
CONTINUOUS
 10
93.9118406886
 20
220.7478679093
 11
93.6841785745
 21
220.9533301327
  0
LINE
  8
0
 62
7
  6
CONTINUOUS
 10
94.9697492949
 20
223.3447951173
 11
95.2278000528
 21
223.0666512223
  0
LINE
  8
0
 62
7
  6
CONTINUOUS
 10
95.5377447842
 20
223.2586282235
 11
95.279694381
 21
223.5367723383
  0
LINE
  8
0
 62
7
  6
CONTINUOUS
 10
100.7720057101
 20
225.504680594
 11
100.578845778
 21
225.7428694905
  0
LINE
  8
0
 62
7
  6
CONTINUOUS
 10
100.1832621221
 20
225.556001031
 11
100.4082294477
 21
225.2504787543
  0
LINE
  8
0
 62
7
  6
CONTINUOUS
 10
102.1502153635
 20
228.049980336
 11
101.9252471942
 21
228.3555024449
  0
LINE
  8
0
 62
7
  6
CONTINUOUS
 10
96.2381903445
 20
240.86211371
 11
97.5270180163
 21
239.088194604
  0
LINE
  8
0
 62
7
  6
CONTINUOUS
 10
168.0026906685
 20
105.7138019722
 11
170.4267714105
 21
98.8797831379
  0
LINE
  8
0
 62
7
  6
CONTINUOUS
 10
147.0682692308
 20
246.3955217685
 11
147.0682692308
 21
244.2028371669
  0
LINE
  8
0
 62
7
  6
CONTINUOUS
 10
153.0575092704
 20
228.4357382339
 11
153.0454411193
 21
228.2010469465
  0
LINE
  8
0
 62
7
  6
CONTINUOUS
 10
155.8792001884
 20
228.8672813053
 11
155.8912684143
 21
229.1019727874
  0
LINE
  8
0
 62
7
  6
CONTINUOUS
 10
158.1484516645
 20
226.6673928751
 11
158.1248705633
 21
226.433575441
  0
LINE
  8
0
 62
7
  6
CONTINUOUS
 10
158.555149263
 20
226.3248924851
 11
158.5787303642
 21
226.5587099192
  0
LINE
  8
0
 62
7
  6
CONTINUOUS
 10
158.7503225558
 20
228.0297253611
 11
158.7267414124
 21
227.7959078316
  0
LINE
  8
0
 62
7
  6
CONTINUOUS
 10
159.1570201965
 20
227.6872250666
 11
159.1806012556
 21
227.9210424052
  0
LINE
  8
0
 62
7
  6
CONTINUOUS
 10
161.1581237849
 20
225.2012163714
 11
161.1229521618
 21
224.9688597108
  0
LINE
  8
0
 62
7
  6
CONTINUOUS
 10
161.5472981709
 20
224.8389281559
 11
161.582469794
 21
225.0712848165
  0
LINE
  8
0
 62
7
  6
CONTINUOUS
 10
161.8269527164
 20
226.5319553513
 11
161.7917810465
 21
226.2995985975
  0
LINE
  8
0
 62
7
  6
CONTINUOUS
 10
162.2161271493
 20
226.169667229
 11
162.2512987255
 21
226.4020237965
  0
LINE
  8
0
 62
7
  6
CONTINUOUS
 10
179.2520132813
 20
213.775531295
 11
179.1466122276
 21
213.5654902703
  0
LINE
  8
0
 62
7
  6
CONTINUOUS
 10
179.4574545176
 20
213.257621271
 11
179.5628555713
 21
213.4676622957
  0
LINE
  8
0
 62
7
  6
CONTINUOUS
 10
181.114731539
 20
208.8917675371
 11
180.9196972881
 21
208.5426747825
  0
LINE
  8
0
 62
7
  6
CONTINUOUS
 10
179.9412781266
 20
208.7772643416
 11
181.7430132824
 21
211.9967156507
  0
LINE
  8
0
 62
7
  6
CONTINUOUS
 10
180.1108505821
 20
209.9180902845
 11
179.646655164
 21
209.1006890776
  0
LINE
  8
0
 62
7
  6
CONTINUOUS
 10
181.3263969217
 20
212.0117345177
 11
180.2819538014
 21
210.1725854508
  0
LINE
  8
0
 62
7
  6
CONTINUOUS
 10
181.2774896719
 20
208.4592192535
 11
181.4037683701
 21
208.6574118481
  0
LINE
  8
0
 62
7
  6
CONTINUOUS
 10
182.8601849329
 20
207.5892411283
 11
182.733906154
 21
207.3910484675
  0
LINE
  8
0
 62
7
  6
CONTINUOUS
 10
183.9658339631
 20
208.1205207366
 11
184.0921126613
 21
208.3187133312
  0
LINE
  8
0
 62
7
  6
CONTINUOUS
 10
191.4431225269
 20
220.9949721825
 11
190.1542948552
 21
219.2210530765
  0
LINE
  8
0
 62
7
  6
CONTINUOUS
 10
212.4130645196
 20
174.3626115608
 11
210.3276975411
 21
173.6850347556
  0
LINE
  8
0
 62
7
  6
CONTINUOUS
 10
93.4243988582
 20
220.6869074404
 11
93.754218803
 21
220.4608021913
  0
LINE
  8
0
 62
7
  6
CONTINUOUS
 10
92.1109246353
 20
220.1550309938
 11
91.9250972922
 21
220.2988867879
  0
LINE
  8
0
 62
7
  6
CONTINUOUS
 10
95.279694381
 20
223.5367723383
 11
95.100068291
 21
223.68830048
  0
LINE
  8
0
 62
7
  6
CONTINUOUS
 10
101.5932783254
 20
228.033967225
 11
101.7546317075
 21
227.8631118766
  0
LINE
  8
0
 62
7
  6
CONTINUOUS
 10
104.7156551386
 20
229.4457963858
 11
104.8681193251
 21
229.2669646233
  0
LINE
  8
0
 62
7
  6
CONTINUOUS
 10
105.2726849433
 20
229.4334966339
 11
105.1202207569
 21
229.6123283963
  0
LINE
  8
0
 62
7
  6
CONTINUOUS
 10
108.4520847554
 20
229.1576508119
 11
108.5954734721
 21
228.9714631379
  0
LINE
  8
0
 62
7
  6
CONTINUOUS
 10
108.9829263889
 20
229.1878701193
 11
108.8395376722
 21
229.3740577933
  0
LINE
  8
0
 62
7
  6
CONTINUOUS
 10
107.9543105111
 20
230.5613670133
 11
108.0976992626
 21
230.3751792409
  0
LINE
  8
0
 62
7
  6
CONTINUOUS
 10
108.4851521098
 20
230.591586419
 11
108.3417634279
 21
230.7777739947
  0
LINE
  8
0
 62
7
  6
CONTINUOUS
 10
111.3253999237
 20
231.5453114887
 11
113.0165868169
 21
229.1424443362
  0
LINE
  8
0
 62
7
  6
CONTINUOUS
 10
113.2033946986
 20
229.5769670429
 11
111.3465419583
 21
232.3211684437
  0
LINE
  8
0
 62
7
  6
CONTINUOUS
 10
117.1197132272
 20
233.0720232768
 11
117.2361059552
 21
232.8678692656
  0
LINE
  8
0
 62
7
  6
CONTINUOUS
 10
117.6646508139
 20
232.955934889
 11
117.5482580859
 21
233.1600889002
  0
LINE
  8
0
 62
7
  6
CONTINUOUS
 10
120.7366349257
 20
232.0913034195
 11
120.8427383353
 21
231.8816173673
  0
LINE
  8
0
 62
7
  6
CONTINUOUS
 10
121.2637837543
 20
232.0218760551
 11
121.1576803448
 21
232.2315621073
  0
LINE
  8
0
 62
7
  6
CONTINUOUS
 10
120.5097069564
 20
233.5632755895
 11
120.6158103819
 21
233.3535894341
  0
LINE
  8
0
 62
7
  6
CONTINUOUS
 10
121.0368557691
 20
233.4938483281
 11
120.9307523754
 21
233.7035342772
  0
LINE
  8
0
 62
7
  6
CONTINUOUS
 10
153.0454411193
 20
228.2010469465
 11
153.0747366156
 21
227.8706859709
  0
LINE
  8
0
 62
7
  6
CONTINUOUS
 10
155.8912684143
 20
229.1019727874
 11
155.8619728993
 21
229.4323337143
  0
LINE
  8
0
 62
7
  6
CONTINUOUS
 10
183.0229430657
 20
207.1566928446
 11
183.2179772763
 21
207.5057855662
  0
LINE
  8
DEFAULT_1
 62
2
  6
CENTER
 10
168.4623714195
 20
161.277064566
 11
164.9268375136
 21
157.7415306601
  0
LINE
  8
DEFAULT_1
 62
2
  6
CENTER
 10
134.3005739132
 20
127.1152670597
 11
137.8361078192
 21
130.6508009657
  0
LINE
  8
DEFAULT_1
 62
2
  6
CENTER
 10
141.9608045785
 20
132.5127560252
 11
163.064882454
 21
153.6168339008
  0
LINE
  8
0
 62
7
  6
CONTINUOUS
 10
91.8511450075
 20
219.8886082986
 11
91.9951375314
 21
219.8063588538
  0
LINE
  8
0
 62
7
  6
CONTINUOUS
 10
94.0558333331
 20
220.6656185306
 11
93.9118406886
 21
220.7478679093
  0
LINE
  8
0
 62
7
  6
CONTINUOUS
 10
100.4082294477
 20
225.2504787543
 11
100.6673205144
 21
225.0434347916
  0
LINE
  8
DEFAULT_1
 62
2
  6
CENTER
 10
164.9268375136
 20
173.0772078369
 11
168.4623714195
 21
169.5416739309
  0
LINE
  8
DEFAULT_1
 62
2
  6
CENTER
 10
137.8361078192
 20
200.1679375313
 11
134.3005739132
 21
203.7034714372
  0
LINE
  8
DEFAULT_1
 62
2
  6
CENTER
 10
141.9608045785
 20
198.3059824718
 11
163.064882454
 21
177.2019045962
  0
LINE
  8
0
 62
7
  6
CONTINUOUS
 10
180.9196972881
 20
208.5426747825
 11
180.8284940593
 21
208.1845386923
  0
LINE
  8
0
 62
7
  6
CONTINUOUS
 10
181.1975102711
 20
208.2047011201
 11
181.2774896719
 21
208.4592192535
  0
LINE
  8
0
 62
7
  6
CONTINUOUS
 10
183.8142996784
 20
208.6566869936
 11
183.734324557
 21
208.4021637363
  0
LINE
  8
0
 62
7
  6
CONTINUOUS
 10
178.673789092
 20
212.880866172
 11
179.0388231477
 21
212.938568951
  0
LINE
  8
0
 62
7
  6
CONTINUOUS
 10
182.3424380269
 20
207.1636552665
 11
182.0772527968
 21
207.13444947
  0
LINE
  8
0
 62
7
  6
CONTINUOUS
 10
182.7156755397
 20
209.6414022175
 11
182.9808607295
 21
209.6706079809
  0
LINE
  8
0
 62
7
  6
CONTINUOUS
 10
181.986049568
 20
206.7763133798
 11
182.3550657798
 21
206.7964758076
  0
LINE
  8
0
 62
7
  6
CONTINUOUS
 10
92.3570749093
 20
220.0521384214
 11
92.1109246353
 21
220.1550309938
  0
LINE
  8
0
 62
7
  6
CONTINUOUS
 10
100.999289361
 20
225.3649700587
 11
100.7720057101
 21
225.504680594
  0
LINE
  8
0
 62
7
  6
CONTINUOUS
 10
153.5098364993
 20
227.7832798179
 11
153.3978323654
 21
228.3049728892
  0
LINE
  8
0
 62
7
  6
CONTINUOUS
 10
155.4268730157
 20
229.5197398674
 11
155.5388770934
 21
228.99804665
  0
LINE
  8
0
 62
7
  6
CONTINUOUS
 10
179.5628555713
 20
213.4676622957
 11
179.617047337
 21
213.833234074
  0
LINE
  8
0
 62
7
  6
CONTINUOUS
 10
184.0921126613
 20
208.3187133312
 11
184.18331587
 21
208.6768494049
  0
LINE
  8
0
 62
7
  6
CONTINUOUS
 10
183.0720639381
 20
210.0287440546
 11
182.7030477465
 21
210.0085816433
  0
LINE
  8
0
 62
7
  6
CONTINUOUS
 10
178.7803840854
 20
213.29934727
 11
178.5719651144
 21
213.2961500645
  0
LINE
  8
0
 62
7
  6
CONTINUOUS
 10
181.7952365778
 20
208.8848051152
 11
182.0028943425
 21
208.866723568
  0
LINE
  8
0
 62
7
  6
CONTINUOUS
 10
91.9951375314
 20
219.8063588538
 11
92.3016106602
 21
219.744429546
  0
LINE
  8
0
 62
7
  6
CONTINUOUS
 10
94.7673468054
 20
223.394620114
 11
94.9697492949
 21
223.3447951173
  0
LINE
  8
0
 62
7
  6
CONTINUOUS
 10
95.100068291
 20
223.68830048
 11
94.8976658015
 21
223.7381254767
  0
LINE
  8
0
 62
7
  6
CONTINUOUS
 10
100.6673205144
 20
225.0434347916
 11
101.0582722856
 21
224.8986801013
  0
LINE
  8
0
 62
7
  6
CONTINUOUS
 10
108.2648590808
 20
229.2492816468
 11
108.4520847554
 21
229.1576508119
  0
LINE
  8
0
 62
7
  6
CONTINUOUS
 10
105.1202207569
 20
229.6123283963
 11
104.8045544647
 21
229.8045112898
  0
LINE
  8
0
 62
7
  6
CONTINUOUS
 10
108.8395376722
 20
229.3740577933
 11
108.5338120245
 21
229.5816904037
  0
LINE
  8
0
 62
7
  6
CONTINUOUS
 10
108.3417634279
 20
230.7777739947
 11
108.0360377803
 21
230.9854066051
  0
LINE
  8
0
 62
7
  6
CONTINUOUS
 10
120.5698104271
 20
232.2162804165
 11
120.7366349257
 21
232.0913034195
  0
LINE
  8
0
 62
7
  6
CONTINUOUS
 10
117.5482580859
 20
233.1600889002
 11
117.2740260903
 21
233.4078312767
  0
LINE
  8
0
 62
7
  6
CONTINUOUS
 10
121.1576803448
 20
232.2315621073
 11
120.8960988493
 21
232.4926264553
  0
LINE
  8
0
 62
7
  6
CONTINUOUS
 10
120.9307523754
 20
233.7035342772
 11
120.66917088
 21
233.9645986252
  0
LINE
  8
0
 62
7
  6
CONTINUOUS
 10
153.0747366156
 20
227.8706859709
 11
153.1988026784
 21
227.5836866057
  0
LINE
  8
0
 62
7
  6
CONTINUOUS
 10
158.0752457275
 20
226.8625583955
 11
158.1484516645
 21
226.6673928751
  0
LINE
  8
0
 62
7
  6
CONTINUOUS
 10
161.0947071345
 20
225.3997787496
 11
161.1581237849
 21
225.2012163714
  0
LINE
  8
0
 62
7
  6
CONTINUOUS
 10
158.5787303642
 20
226.5587099192
 11
158.4990119459
 21
226.9195761635
  0
LINE
  8
0
 62
7
  6
CONTINUOUS
 10
159.1806012556
 20
227.9210424052
 11
159.1008828373
 21
228.2819086496
  0
LINE
  8
0
 62
7
  6
CONTINUOUS
 10
161.582469794
 20
225.0712848165
 11
161.520783278
 21
225.4356668225
  0
LINE
  8
0
 62
7
  6
CONTINUOUS
 10
162.2512987255
 20
226.4020237965
 11
162.1896122095
 21
226.7664058024
  0
LINE
  8
0
 62
7
  6
CONTINUOUS
 10
181.2213619125
 20
207.9411396676
 11
181.1975102711
 21
208.2047011201
  0
LINE
  8
0
 62
7
  6
CONTINUOUS
 10
179.253207221
 20
213.9839713682
 11
179.2520132813
 21
213.775531295
  0
LINE
  8
0
 62
7
  6
CONTINUOUS
 10
182.8826368683
 20
207.796471918
 11
182.8601849329
 21
207.5892411283
  0
LINE
  8
0
 62
7
  6
CONTINUOUS
 10
183.2179772763
 20
207.5057855662
 11
183.25165306
 21
207.8166343292
  0
LINE
  8
0
 62
7
  6
CONTINUOUS
 10
157.5701679411
 20
225.5388750359
 11
157.9272346055
 21
225.6253603161
  0
LINE
  8
0
 62
7
  6
CONTINUOUS
 10
154.5988728959
 20
227.364829757
 11
154.3412584385
 21
227.304263006
  0
LINE
  8
0
 62
7
  6
CONTINUOUS
 10
160.5244723973
 20
224.1028309668
 11
160.8853958001
 21
224.1714648056
  0
LINE
  8
0
 62
7
  6
CONTINUOUS
 10
92.3016106602
 20
219.744429546
 11
92.5662490039
 21
219.7441066186
  0
LINE
  8
0
 62
7
  6
CONTINUOUS
 10
178.3093543777
 20
212.9273810808
 11
178.673789092
 21
212.880866172
  0
LINE
  8
0
 62
7
  6
CONTINUOUS
 10
101.2606959983
 20
225.3237374808
 11
100.999289361
 21
225.3649700587
  0
LINE
  8
0
 62
7
  6
CONTINUOUS
 10
104.8045544647
 20
229.8045112898
 11
104.4498059258
 21
229.9000764117
  0
LINE
  8
0
 62
7
  6
CONTINUOUS
 10
182.0772527968
 20
207.13444947
 11
181.8232914553
 21
207.20886168
  0
LINE
  8
0
 62
7
  6
CONTINUOUS
 10
109.6731379082
 20
229.0887362015
 11
109.9263214477
 21
229.0117190907
  0
LINE
  8
0
 62
7
  6
CONTINUOUS
 10
108.0360377803
 20
230.9854066051
 11
107.6864767127
 21
231.0984830324
  0
LINE
  8
0
 62
7
  6
CONTINUOUS
 10
101.9252471942
 20
228.3555024449
 11
101.5342954342
 21
228.5002571116
  0
LINE
  8
0
 62
7
  6
CONTINUOUS
 10
104.5241071622
 20
229.5280097414
 11
104.7156551386
 21
229.4457963858
  0
LINE
  8
0
 62
7
  6
CONTINUOUS
 10
117.2740260903
 20
233.4078312767
 11
116.9433592982
 21
233.5679521402
  0
LINE
  8
0
 62
7
  6
CONTINUOUS
 10
107.7670848365
 20
230.6529978482
 11
107.9543105111
 21
230.5613670133
  0
LINE
  8
0
 62
7
  6
CONTINUOUS
 10
120.66917088
 20
233.9645986252
 11
120.3468715784
 21
234.1409545295
  0
LINE
  8
0
 62
7
  6
CONTINUOUS
 10
116.9468857027
 20
233.188555775
 11
117.1197132272
 21
233.0720232768
  0
LINE
  8
0
 62
7
  6
CONTINUOUS
 10
120.3428824577
 20
233.6882525864
 11
120.5097069564
 21
233.5632755895
  0
LINE
  8
0
 62
7
  6
CONTINUOUS
 10
153.6606122485
 20
227.5657936954
 11
153.5098364993
 21
227.7832798179
  0
LINE
  8
0
 62
7
  6
CONTINUOUS
 10
159.1008828373
 20
228.2819086496
 11
158.9243774229
 21
228.6041230758
  0
LINE
  8
0
 62
7
  6
CONTINUOUS
 10
162.1896122095
 20
226.7664058024
 11
162.0293374668
 21
227.0969936192
  0
LINE
  8
0
 62
7
  6
CONTINUOUS
 10
155.8619728993
 20
229.4323337143
 11
155.7379068272
 21
229.7193330552
  0
LINE
  8
0
 62
7
  6
CONTINUOUS
 10
158.6771166188
 20
228.2248908816
 11
158.7503225558
 21
228.0297253611
  0
LINE
  8
0
 62
7
  6
CONTINUOUS
 10
161.7635360661
 20
226.7305177295
 11
161.8269527164
 21
226.5319553513
  0
LINE
  8
0
 62
7
  6
CONTINUOUS
 10
182.8587852269
 20
208.0600333704
 11
182.8826368683
 21
207.796471918
  0
LINE
  8
0
 62
7
  6
CONTINUOUS
 10
183.790448037
 20
208.9202484461
 11
183.8142996784
 21
208.6566869936
  0
LINE
  8
0
 62
7
  6
CONTINUOUS
 10
154.337836619
 20
229.9381899282
 11
154.5954510764
 21
229.9987566793
  0
LINE
  8
0
 62
7
  6
CONTINUOUS
 10
154.2757771484
 20
226.9305428448
 11
154.6962292816
 21
227.0083171735
  0
LINE
  8
0
 62
7
  6
CONTINUOUS
 10
154.6609323501
 20
230.3724767979
 11
154.2404802239
 21
230.2947024875
  0
LINE
  8
0
 62
7
  6
CONTINUOUS
 10
92.6820361153
 20
220.0927787242
 11
92.3570749093
 21
220.0521384214
  0
LINE
  8
0
 62
7
  6
CONTINUOUS
 10
94.6041566499
 20
223.3811372341
 11
94.7673468054
 21
223.394620114
  0
LINE
  8
0
 62
7
  6
CONTINUOUS
 10
158.3957124686
 20
227.0466250693
 11
158.5591990266
 21
227.0558093931
  0
LINE
  8
0
 62
7
  6
CONTINUOUS
 10
161.4239251857
 20
225.5676922611
 11
161.5876661618
 21
225.5687407019
  0
LINE
  8
0
 62
7
  6
CONTINUOUS
 10
101.0582722856
 20
224.8986801013
 11
101.3856092669
 21
224.8885921773
  0
LINE
  8
0
 62
7
  6
CONTINUOUS
 10
101.5342954342
 20
228.5002571116
 11
101.2069584613
 21
228.5103450179
  0
LINE
  8
0
 62
7
  6
CONTINUOUS
 10
94.8976658015
 20
223.7381254767
 11
94.6332742239
 21
223.7495549853
  0
LINE
  8
0
 62
7
  6
CONTINUOUS
 10
157.6840296397
 20
225.9770422605
 11
157.4538435196
 21
225.9973254311
  0
LINE
  8
0
 62
7
  6
CONTINUOUS
 10
108.5338120245
 20
229.5816904037
 11
108.3714750586
 21
229.6031354383
  0
LINE
  8
0
 62
7
  6
CONTINUOUS
 10
160.6599683197
 20
224.534798394
 11
160.4310745942
 21
224.5664957016
  0
LINE
  8
0
 62
7
  6
CONTINUOUS
 10
101.3318717103
 20
228.0751997557
 11
101.5932783254
 21
228.033967225
  0
LINE
  8
0
 62
7
  6
CONTINUOUS
 10
182.0028943425
 20
208.866723568
 11
182.2568556841
 21
208.792311358
  0
LINE
  8
0
 62
7
  6
CONTINUOUS
 10
182.4981934716
 20
209.0850734168
 11
181.9902707884
 21
209.2338978367
  0
LINE
  8
0
 62
7
  6
CONTINUOUS
 10
182.9808607295
 20
209.6706079809
 11
183.234822071
 21
209.5961957709
  0
LINE
  8
0
 62
7
  6
CONTINUOUS
 10
110.2766687686
 20
231.0712663774
 11
110.023485167
 21
231.1482836874
  0
LINE
  8
0
 62
7
  6
CONTINUOUS
 10
120.8960988493
 20
232.4926264553
 11
120.7406207475
 21
232.5440048541
  0
LINE
  8
0
 62
7
  6
CONTINUOUS
 10
181.5819578716
 20
206.9160944352
 11
181.986049568
 21
206.7763133798
  0
LINE
  8
0
 62
7
  6
CONTINUOUS
 10
183.4761598585
 20
209.8889578297
 11
183.0720639381
 21
210.0287440546
  0
LINE
  8
0
 62
7
  6
CONTINUOUS
 10
181.8232914553
 20
207.20886168
 11
181.6268575387
 21
207.3305612006
  0
LINE
  8
0
 62
7
  6
CONTINUOUS
 10
158.4990119459
 20
226.9195761635
 11
158.3957124686
 21
227.0466250693
  0
LINE
  8
0
 62
7
  6
CONTINUOUS
 10
153.1988026784
 20
227.5836866057
 11
153.4589967352
 21
227.2443815876
  0
LINE
  8
0
 62
7
  6
CONTINUOUS
 10
155.7379068272
 20
229.7193330552
 11
155.4777127634
 21
230.058638055
  0
LINE
  8
0
 62
7
  6
CONTINUOUS
 10
161.520783278
 20
225.4356668225
 11
161.4239251857
 21
225.5676922611
  0
LINE
  8
0
 62
7
  6
CONTINUOUS
 10
155.2760972665
 20
229.7372259898
 11
155.4268730157
 21
229.5197398674
  0
LINE
  8
0
 62
7
  6
CONTINUOUS
 10
181.3027409789
 20
207.7248655258
 11
181.2213619125
 21
207.9411396676
  0
LINE
  8
0
 62
7
  6
CONTINUOUS
 10
180.8284940593
 20
208.1845386923
 11
180.8874254142
 21
207.7610285913
  0
LINE
  8
0
 62
7
  6
CONTINUOUS
 10
183.25165306
 20
207.8166343292
 11
183.192725929
 21
208.2401392607
  0
LINE
  8
0
 62
7
  6
CONTINUOUS
 10
184.18331587
 20
208.6768494049
 11
184.1243887391
 21
209.1003543364
  0
LINE
  8
0
 62
7
  6
CONTINUOUS
 10
179.617047337
 20
213.833234074
 11
179.5670319888
 21
214.1972049007
  0
LINE
  8
0
 62
7
  6
CONTINUOUS
 10
202.2914593182
 20
134.2265411167
 11
202.2752465281
 21
134.4874738579
  0
LINE
  8
0
 62
7
  6
CONTINUOUS
 10
204.8703616047
 20
168.2276988193
 11
195.6725922843
 21
139.919875603
  0
LINE
  8
0
 62
7
  6
CONTINUOUS
 10
170.1883491994
 20
97.7889838755
 11
170.3286051938
 21
98.0096125365
  0
LINE
  8
0
 62
7
  6
CONTINUOUS
 10
192.2601040345
 20
123.7806575542
 11
168.1800313329
 21
106.285460659
  0
LINE
  8
0
 62
7
  6
CONTINUOUS
 10
122.798928765
 20
87.1801155145
 11
123.0420805212
 21
87.2761674456
  0
LINE
  8
0
 62
7
  6
CONTINUOUS
 10
111.6066966356
 20
228.7696921864
 11
112.0296638514
 21
228.881517874
  0
LINE
  8
0
 62
7
  6
CONTINUOUS
 10
113.0165868169
 20
229.1424443362
 11
113.5805425667
 21
229.2915451109
  0
LINE
  8
0
 62
7
  6
CONTINUOUS
 10
114.5674671458
 20
229.5524719997
 11
114.9904343615
 21
229.6642976873
  0
LINE
  8
0
 62
7
  6
CONTINUOUS
 10
114.0958288606
 20
233.0480354132
 11
113.461378037
 21
232.8802968818
  0
LINE
  8
0
 62
7
  6
CONTINUOUS
 10
111.3465419583
 20
232.3211684437
 11
110.7120911347
 21
232.1534299123
  0
LINE
  8
0
 62
7
  6
CONTINUOUS
 10
101.3856092669
 20
224.8885921773
 11
101.7470699614
 21
224.9769826263
  0
LINE
  8
0
 62
7
  6
CONTINUOUS
 10
101.2069584613
 20
228.5103450179
 11
100.8454977696
 21
228.4219545631
  0
LINE
  8
0
 62
7
  6
CONTINUOUS
 10
94.6332742239
 20
223.7495549853
 11
94.4080949801
 21
223.6976766173
  0
LINE
  8
0
 62
7
  6
CONTINUOUS
 10
115.5615947886
 20
229.7868866658
 11
115.9901396473
 21
229.8749522893
  0
LINE
  8
0
 62
7
  6
CONTINUOUS
 10
115.6753518824
 20
231.4067722317
 11
116.9609864587
 21
231.6709691021
  0
LINE
  8
0
 62
7
  6
CONTINUOUS
 10
116.9424717973
 20
232.1233096003
 11
115.585412533
 21
231.844435014
  0
LINE
  8
0
 62
7
  6
CONTINUOUS
 10
115.3605641175
 20
232.9385921741
 11
116.7176233818
 21
233.2174667604
  0
LINE
  8
0
 62
7
  6
CONTINUOUS
 10
116.5712492359
 20
233.5675080297
 11
114.8570698009
 21
233.2152455359
  0
LINE
  8
0
 62
7
  6
CONTINUOUS
 10
101.5562255777
 20
225.3809829547
 11
101.2606959983
 21
225.3237374808
  0
LINE
  8
0
 62
7
  6
CONTINUOUS
 10
101.0363421309
 20
228.0179542818
 11
101.3318717103
 21
228.0751997557
  0
LINE
  8
0
 62
7
  6
CONTINUOUS
 10
104.4498059258
 20
229.9000764117
 11
104.0843225543
 21
229.8301621727
  0
LINE
  8
0
 62
7
  6
CONTINUOUS
 10
118.7789110218
 20
230.433227998
 11
120.5084782854
 21
230.6998683564
  0
LINE
  8
0
 62
7
  6
CONTINUOUS
 10
120.5124640992
 20
231.1525698424
 11
119.1432244485
 21
230.9414797282
  0
LINE
  8
0
 62
7
  6
CONTINUOUS
 10
118.9730284715
 20
232.0454588557
 11
120.3422681222
 21
232.2565489699
  0
LINE
  8
0
 62
7
  6
CONTINUOUS
 10
120.274189741
 20
232.698140559
 11
118.9049500903
 21
232.4870504448
  0
LINE
  8
0
 62
7
  6
CONTINUOUS
 10
118.7461005022
 20
233.5174310256
 11
120.1153401529
 21
233.7285211398
  0
LINE
  8
0
 62
7
  6
CONTINUOUS
 10
119.9751975686
 20
234.1590028835
 11
118.245630305
 21
233.8923625251
  0
LINE
  8
0
 62
7
  6
CONTINUOUS
 10
107.6864767127
 20
231.0984830324
 11
107.317970507
 21
231.0468180342
  0
LINE
  8
0
 62
7
  6
CONTINUOUS
 10
121.8796345007
 20
232.1648450086
 11
122.8936577821
 21
232.2825724518
  0
LINE
  8
0
 62
7
  6
CONTINUOUS
 10
122.8507177211
 20
232.6524286242
 11
121.8366944397
 21
232.534701181
  0
LINE
  8
0
 62
7
  6
CONTINUOUS
 10
123.6186834413
 20
231.0997769603
 11
124.0548775705
 21
231.13355464
  0
LINE
  8
0
 62
7
  6
CONTINUOUS
 10
126.0904523921
 20
231.2911839836
 11
126.5266465213
 21
231.3249616633
  0
LINE
  8
0
 62
7
  6
CONTINUOUS
 10
123.9283909392
 20
232.7669624562
 11
125.9639657608
 21
232.9245917999
  0
LINE
  8
0
 62
7
  6
CONTINUOUS
 10
125.9294694111
 20
233.3700666021
 11
123.8938945896
 21
233.2124372585
  0
LINE
  8
0
 62
7
  6
CONTINUOUS
 10
126.2564250838
 20
234.814514697
 11
125.8202309546
 21
234.7807370173
  0
LINE
  8
0
 62
7
  6
CONTINUOUS
 10
123.784656133
 20
234.6231076736
 11
123.3484620038
 21
234.5893299939
  0
LINE
  8
0
 62
7
  6
CONTINUOUS
 10
104.2934784823
 20
229.5136059608
 11
104.5241071622
 21
229.5280097414
  0
LINE
  8
0
 62
7
  6
CONTINUOUS
 10
108.0337995593
 20
229.2463568564
 11
108.2648590808
 21
229.2492816468
  0
LINE
  8
0
 62
7
  6
CONTINUOUS
 10
107.536025315
 20
230.6500730578
 11
107.7670848365
 21
230.6529978482
  0
LINE
  8
0
 62
7
  6
CONTINUOUS
 10
116.9433592982
 20
233.5679521402
 11
116.5712492359
 21
233.5675080297
  0
LINE
  8
0
 62
7
  6
CONTINUOUS
 10
104.4036624684
 20
235.5843692485
 11
134.1682692308
 21
235.5843692485
  0
LINE
  8
0
 62
7
  6
CONTINUOUS
 10
120.3468715784
 20
234.1409545295
 11
119.9751975686
 21
234.1590028835
  0
LINE
  8
0
 62
7
  6
CONTINUOUS
 10
158.3159940503
 20
227.4074913136
 11
158.0858079302
 21
227.4277744842
  0
LINE
  8
0
 62
7
  6
CONTINUOUS
 10
116.7176233818
 20
233.2174667604
 11
116.9468857027
 21
233.188555775
  0
LINE
  8
0
 62
7
  6
CONTINUOUS
 10
161.3622386697
 20
225.932074267
 11
161.1333449442
 21
225.9637715746
  0
LINE
  8
0
 62
7
  6
CONTINUOUS
 10
154.3412584385
 20
227.304263006
 11
153.9742256664
 21
227.3655151323
  0
LINE
  8
0
 62
7
  6
CONTINUOUS
 10
154.5954510764
 20
229.9987566793
 11
154.9624838485
 21
229.9375045529
  0
LINE
  8
0
 62
7
  6
CONTINUOUS
 10
120.3422681222
 20
232.2565489699
 11
120.5698104271
 21
232.2162804165
  0
LINE
  8
0
 62
7
  6
CONTINUOUS
 10
120.1153401529
 20
233.7285211398
 11
120.3428824577
 21
233.6882525864
  0
LINE
  8
0
 62
7
  6
CONTINUOUS
 10
153.8406772624
 20
227.0179489918
 11
154.2757771484
 21
226.9305428448
  0
LINE
  8
0
 62
7
  6
CONTINUOUS
 10
155.0960322338
 20
230.2850706448
 11
154.6609323501
 21
230.3724767979
  0
LINE
  8
0
 62
7
  6
CONTINUOUS
 10
157.2065826944
 20
225.6180931892
 11
157.5701679411
 21
225.5388750359
  0
LINE
  8
0
 62
7
  6
CONTINUOUS
 10
182.1121925476
 20
224.3665753317
 11
181.8590207361
 21
224.4317887034
  0
LINE
  8
0
 62
7
  6
CONTINUOUS
 10
160.16527317
 20
224.2000197653
 11
160.5244723973
 21
224.1028309668
  0
LINE
  8
0
 62
7
  6
CONTINUOUS
 10
147.8936738137
 20
229.0013244157
 11
150.6852489926
 21
228.1563235257
  0
LINE
  8
0
 62
7
  6
CONTINUOUS
 10
150.8146961346
 20
228.5839697365
 11
148.4418578715
 21
229.3022202996
  0
LINE
  8
0
 62
7
  6
CONTINUOUS
 10
148.7998038231
 20
231.9948479412
 11
151.242433702
 21
231.2554716789
  0
LINE
  8
0
 62
7
  6
CONTINUOUS
 10
151.6992516078
 20
231.5062188519
 11
148.9076764289
 21
232.3512197419
  0
LINE
  8
0
 62
7
  6
CONTINUOUS
 10
151.6482597521
 20
227.816179832
 11
152.0619412616
 21
227.6737935312
  0
LINE
  8
0
 62
7
  6
CONTINUOUS
 10
153.201031668
 20
230.9832456076
 11
152.7873501585
 21
231.1256319084
  0
LINE
  8
0
 62
7
  6
CONTINUOUS
 10
155.6058420567
 20
226.3252914717
 11
157.2065826944
 21
225.6180931892
  0
LINE
  8
0
 62
7
  6
CONTINUOUS
 10
157.4538435196
 20
225.9973254311
 11
156.1865884793
 21
226.5571916374
  0
LINE
  8
0
 62
7
  6
CONTINUOUS
 10
156.6379916478
 20
227.5789410019
 11
157.9052466881
 21
227.0190747956
  0
LINE
  8
0
 62
7
  6
CONTINUOUS
 10
158.0858079302
 20
227.4277744842
 11
156.8185528899
 21
227.9876406905
  0
LINE
  8
0
 62
7
  6
CONTINUOUS
 10
157.2398625392
 20
228.9412734879
 11
158.5071175794
 21
228.3814072816
  0
LINE
  8
0
 62
7
  6
CONTINUOUS
 10
158.6209792595
 20
228.8195744646
 11
157.0202386218
 21
229.5267727471
  0
LINE
  8
0
 62
7
  6
CONTINUOUS
 10
178.5719651144
 20
213.2961500645
 11
178.3641407417
 21
213.3971752445
  0
LINE
  8
0
 62
7
  6
CONTINUOUS
 10
158.6016549012
 20
224.9858937435
 11
160.16527317
 21
224.2000197653
  0
LINE
  8
0
 62
7
  6
CONTINUOUS
 10
160.4310745942
 20
224.5664957016
 11
159.1932081432
 21
225.1886469336
  0
LINE
  8
0
 62
7
  6
CONTINUOUS
 10
159.6948298418
 20
226.1867011685
 11
160.9326962928
 21
225.5645499366
  0
LINE
  8
0
 62
7
  6
CONTINUOUS
 10
161.1333449442
 20
225.9637715746
 11
159.8954784931
 21
226.5859228066
  0
LINE
  8
0
 62
7
  6
CONTINUOUS
 10
160.3636587733
 20
227.5174401485
 11
161.6015252243
 21
226.8952889165
  0
LINE
  8
0
 62
7
  6
CONTINUOUS
 10
161.7370211263
 20
227.3272563029
 11
160.1734028575
 21
228.1131302811
  0
LINE
  8
0
 62
7
  6
CONTINUOUS
 10
153.4589967352
 20
227.2443815876
 11
153.8406772624
 21
227.0179489918
  0
LINE
  8
0
 62
7
  6
CONTINUOUS
 10
155.4777127634
 20
230.058638055
 11
155.0960322338
 21
230.2850706448
  0
LINE
  8
0
 62
7
  6
CONTINUOUS
 10
182.2568556841
 20
208.792311358
 11
182.4532896007
 21
208.6706118374
  0
LINE
  8
0
 62
7
  6
CONTINUOUS
 10
183.234822071
 20
209.5961957709
 11
183.4312559876
 21
209.4744962503
  0
LINE
  8
0
 62
7
  6
CONTINUOUS
 10
153.9742256664
 20
227.3655151323
 11
153.6606122485
 21
227.5657936954
  0
LINE
  8
0
 62
7
  6
CONTINUOUS
 10
154.9624838485
 20
229.9375045529
 11
155.2760972665
 21
229.7372259898
  0
LINE
  8
0
 62
7
  6
CONTINUOUS
 10
177.9979127463
 20
213.1310323924
 11
178.3093543777
 21
212.9273810808
  0
LINE
  8
0
 62
7
  6
CONTINUOUS
 10
158.9243774229
 20
228.6041230758
 11
158.6209792595
 21
228.8195744646
  0
LINE
  8
0
 62
7
  6
CONTINUOUS
 10
150.5720945863
 20
237.3261927148
 11
174.6521672879
 21
219.8309958196
  0
LINE
  8
0
 62
7
  6
CONTINUOUS
 10
162.0293374668
 20
227.0969936192
 11
161.7370211263
 21
227.3272563029
  0
LINE
  8
0
 62
7
  6
CONTINUOUS
 10
181.2929167964
 20
207.1504552772
 11
181.5819578716
 21
206.9160944352
  0
LINE
  8
0
 62
7
  6
CONTINUOUS
 10
182.7872303027
 20
208.8507177277
 11
182.4981934716
 21
209.0850734168
  0
LINE
  8
0
 62
7
  6
CONTINUOUS
 10
183.7651966896
 20
209.6546021406
 11
183.4761598585
 21
209.8889578297
  0
LINE
  8
0
 62
7
  6
CONTINUOUS
 10
157.9052466881
 20
227.0190747956
 11
158.0752457275
 21
226.8625583955
  0
LINE
  8
0
 62
7
  6
CONTINUOUS
 10
158.5071175794
 20
228.3814072816
 11
158.6771166188
 21
228.2248908816
  0
LINE
  8
0
 62
7
  6
CONTINUOUS
 10
175.6540756581
 20
213.2514125288
 11
175.9649179482
 21
212.9435435295
  0
LINE
  8
0
 62
7
  6
CONTINUOUS
 10
177.0653858762
 20
214.0546393904
 11
177.9979127463
 21
213.1310323924
  0
LINE
  8
0
 62
7
  6
CONTINUOUS
 10
178.3641407417
 20
213.3971752445
 11
177.3798052423
 21
214.3720953083
  0
LINE
  8
0
 62
7
  6
CONTINUOUS
 10
178.1658538043
 20
215.1657352513
 11
179.1501893037
 21
214.1908151875
  0
LINE
  8
0
 62
7
  6
CONTINUOUS
 10
179.3603968128
 20
214.5066748516
 11
178.1170276527
 21
215.7381508489
  0
LINE
  8
0
 62
7
  6
CONTINUOUS
 10
160.9326962928
 20
225.5645499366
 11
161.0947071345
 21
225.3997787496
  0
LINE
  8
0
 62
7
  6
CONTINUOUS
 10
161.6015252243
 20
226.8952889165
 11
161.7635360661
 21
226.7305177295
  0
LINE
  8
0
 62
7
  6
CONTINUOUS
 10
177.9771235436
 20
210.9334308934
 11
178.2717465063
 21
210.6100061574
  0
LINE
  8
0
 62
7
  6
CONTINUOUS
 10
179.646655164
 20
209.1006890776
 11
179.9412781266
 21
208.7772643416
  0
LINE
  8
0
 62
7
  6
CONTINUOUS
 10
179.1287755384
 20
210.9961710929
 11
180.1108505821
 21
209.9180902845
  0
LINE
  8
0
 62
7
  6
CONTINUOUS
 10
180.2819538014
 20
210.1725854508
 11
179.3980849134
 21
211.1428596588
  0
LINE
  8
0
 62
7
  6
CONTINUOUS
 10
181.7430132824
 20
211.9967156507
 11
181.3501841641
 21
212.427946987
  0
LINE
  8
0
 62
7
  6
CONTINUOUS
 10
206.8459622007
 20
182.5748788388
 11
206.6794733608
 21
182.7764482219
  0
LINE
  8
0
 62
7
  6
CONTINUOUS
 10
181.0614073903
 20
207.4320982769
 11
181.2929167964
 21
207.1504552772
  0
LINE
  8
0
 62
7
  6
CONTINUOUS
 10
181.6268575387
 20
207.3305612006
 11
181.3027409789
 21
207.7248655258
  0
LINE
  8
0
 62
7
  6
CONTINUOUS
 10
182.4532896007
 20
208.6706118374
 11
182.7774061605
 21
208.2763075122
  0
LINE
  8
0
 62
7
  6
CONTINUOUS
 10
183.0187397088
 20
208.5690747281
 11
182.7872303027
 21
208.8507177277
  0
LINE
  8
0
 62
7
  6
CONTINUOUS
 10
183.734324557
 20
208.4021637363
 11
183.9658339631
 21
208.1205207366
  0
LINE
  8
0
 62
7
  6
CONTINUOUS
 10
183.4312559876
 20
209.4744962503
 11
183.7090689705
 21
209.1365225879
  0
LINE
  8
0
 62
7
  6
CONTINUOUS
 10
183.950406758
 20
209.4292846467
 11
183.7651966896
 21
209.6546021406
  0
LINE
  8
0
 62
7
  6
CONTINUOUS
 10
179.5670319888
 20
214.1972049007
 11
179.3603968128
 21
214.5066748516
  0
LINE
  8
0
 62
7
  6
CONTINUOUS
 10
180.8874254142
 20
207.7610285913
 11
181.0614073903
 21
207.4320982769
  0
LINE
  8
0
 62
7
  6
CONTINUOUS
 10
183.192725929
 20
208.2401392607
 11
183.0187397088
 21
208.5690747281
  0
LINE
  8
0
 62
7
  6
CONTINUOUS
 10
184.1243887391
 20
209.1003543364
 11
183.950406758
 21
209.4292846467
  0
LINE
  8
0
 62
7
  6
CONTINUOUS
 10
179.1501893037
 20
214.1908151875
 11
179.253207221
 21
213.9839713682
  0
LINE
  8
0
 62
7
  6
CONTINUOUS
 10
182.7774061605
 20
208.2763075122
 11
182.8587852269
 21
208.0600333704
  0
LINE
  8
0
 62
7
  6
CONTINUOUS
 10
183.7090689705
 20
209.1365225879
 11
183.790448037
 21
208.9202484461
  0
LINE
  8
0
 62
7
  6
CONTINUOUS
 10
188.9469589188
 20
211.5982339798
 11
198.1447282393
 21
183.2904107636
  0
LINE
  8
0
 62
7
  6
CONTINUOUS
 10
296.4726635631
 20
83.9232167284
 11
304.2196441292
 21
83.9232167284
  0
LINE
  8
1_AXIS
 62
7
  6
CONTINUOUS
 10
281.1961538462
 20
105.4093692485
 11
293.0961538462
 21
105.4093692485
  0
LINE
  8
1_AXIS
 62
7
  6
CONTINUOUS
 10
307.5961538462
 20
105.4093692485
 11
319.4961538462
 21
105.4093692485
  0
LINE
  8
0
 62
7
  6
CONTINUOUS
 10
296.0961538462
 20
106.3555201621
 11
304.5961538462
 21
106.3555201621
  0
POLYLINE
  8
0
 62
7
  6
CONTINUOUS
 66
1
 70
0
  0
VERTEX
  8
0
 62
7
  6
CONTINUOUS
 10
295.9902803263
 20
240.6997749239
  0
VERTEX
  8
0
 62
7
  6
CONTINUOUS
 10
296.0286341562
 20
240.7980860133
  0
VERTEX
  8
0
 62
7
  6
CONTINUOUS
 10
296.0871156422
 20
240.8865806302
  0
VERTEX
  8
0
 62
7
  6
CONTINUOUS
 10
296.1640073403
 20
240.9615801261
  0
VERTEX
  8
0
 62
7
  6
CONTINUOUS
 10
296.2580570357
 20
241.0198227207
  0
VERTEX
  8
0
 62
7
  6
CONTINUOUS
 10
296.3666002501
 20
241.056842178
  0
VERTEX
  8
0
 62
7
  6
CONTINUOUS
 10
296.4726635631
 20
241.0682210701
  0
SEQEND
  0
LINE
  8
0
 62
7
  6
CONTINUOUS
 10
305.3961538462
 20
231.1969336832
 11
306.0961538462
 21
232.4093692485
  0
POLYLINE
  8
0
 62
7
  6
CONTINUOUS
 66
1
 70
0
  0
VERTEX
  8
0
 62
7
  6
CONTINUOUS
 10
295.977333014
 20
246.463695423
  0
VERTEX
  8
0
 62
7
  6
CONTINUOUS
 10
296.0022507674
 20
246.5649673398
  0
VERTEX
  8
0
 62
7
  6
CONTINUOUS
 10
296.047889766
 20
246.6592777567
  0
VERTEX
  8
0
 62
7
  6
CONTINUOUS
 10
296.112805219
 20
246.7426557083
  0
VERTEX
  8
0
 62
7
  6
CONTINUOUS
 10
296.1947210071
 20
246.8111513339
  0
VERTEX
  8
0
 62
7
  6
CONTINUOUS
 10
296.2903457099
 20
246.8610968972
  0
VERTEX
  8
0
 62
7
  6
CONTINUOUS
 10
296.3953648111
 20
246.8895105366
  0
VERTEX
  8
0
 62
7
  6
CONTINUOUS
 10
296.4726634091
 20
246.8955216387
  0
SEQEND
  0
POLYLINE
  8
0
 62
7
  6
CONTINUOUS
 66
1
 70
0
  0
VERTEX
  8
0
 62
7
  6
CONTINUOUS
 10
295.6969374387
 20
205.2261382764
  0
VERTEX
  8
0
 62
7
  6
CONTINUOUS
 10
295.6624692259
 20
205.1722042643
  0
VERTEX
  8
0
 62
7
  6
CONTINUOUS
 10
295.6300347703
 20
205.1029790965
  0
VERTEX
  8
0
 62
7
  6
CONTINUOUS
 10
295.6062527821
 20
205.0210595865
  0
SEQEND
  0
POLYLINE
  8
0
 62
7
  6
CONTINUOUS
 66
1
 70
0
  0
VERTEX
  8
0
 62
7
  6
CONTINUOUS
 10
295.9773317531
 20
84.3550522363
  0
VERTEX
  8
0
 62
7
  6
CONTINUOUS
 10
296.0022430883
 20
84.2537924773
  0
VERTEX
  8
0
 62
7
  6
CONTINUOUS
 10
296.0478796201
 20
84.1594770807
  0
VERTEX
  8
0
 62
7
  6
CONTINUOUS
 10
296.1127943856
 20
84.0760940195
  0
VERTEX
  8
0
 62
7
  6
CONTINUOUS
 10
296.1947111355
 20
84.0075937647
  0
VERTEX
  8
0
 62
7
  6
CONTINUOUS
 10
296.2903382068
 20
83.957644538
  0
VERTEX
  8
0
 62
7
  6
CONTINUOUS
 10
296.3953607985
 20
83.9292285883
  0
VERTEX
  8
0
 62
7
  6
CONTINUOUS
 10
296.4726633813
 20
83.9232168583
  0
SEQEND
  0
LINE
  8
1_AXIS
 62
7
  6
CONTINUOUS
 10
279.1961538462
 20
223.4093692485
 11
279.1961538462
 21
107.4093692485
  0
LINE
  8
0
 62
7
  6
CONTINUOUS
 10
295.9753928568
 20
240.6203904244
 11
295.9902803263
 21
240.6997749239
  0
POLYLINE
  8
0
 62
7
  6
CONTINUOUS
 66
1
 70
0
  0
VERTEX
  8
0
 62
7
  6
CONTINUOUS
 10
295.7788948127
 20
205.4066620068
  0
VERTEX
  8
0
 62
7
  6
CONTINUOUS
 10
295.7532501654
 20
205.3297558376
  0
VERTEX
  8
0
 62
7
  6
CONTINUOUS
 10
295.7333457157
 20
205.2790685174
  0
SEQEND
  0
POLYLINE
  8
0
 62
7
  6
CONTINUOUS
 66
1
 70
0
  0
VERTEX
  8
0
 62
7
  6
CONTINUOUS
 10
295.9908033787
 20
206.16625042
  0
VERTEX
  8
0
 62
7
  6
CONTINUOUS
 10
296.0231615324
 20
206.2517636984
  0
VERTEX
  8
0
 62
7
  6
CONTINUOUS
 10
296.0772181856
 20
206.3387722347
  0
VERTEX
  8
0
 62
7
  6
CONTINUOUS
 10
296.1471392574
 20
206.4123115721
  0
VERTEX
  8
0
 62
7
  6
CONTINUOUS
 10
296.2298683269
 20
206.4698867624
  0
VERTEX
  8
0
 62
7
  6
CONTINUOUS
 10
296.3236001323
 20
206.5100566817
  0
VERTEX
  8
0
 62
7
  6
CONTINUOUS
 10
296.4264506767
 20
206.5306533421
  0
VERTEX
  8
0
 62
7
  6
CONTINUOUS
 10
296.4726635631
 20
206.5327935533
  0
SEQEND
  0
LINE
  8
0
 62
7
  6
CONTINUOUS
 10
295.7333457157
 20
205.2790685174
 11
295.7272306198
 21
205.2655225959
  0
LINE
  8
0
 62
7
  6
CONTINUOUS
 10
296.0961538462
 20
147.6796746328
 11
304.5961538462
 21
147.6796746328
  0
LINE
  8
0
 62
7
  6
CONTINUOUS
 10
295.6061576578
 20
87.385395009
 11
295.6163259381
 21
87.27744108
  0
POLYLINE
  8
0
 62
7
  6
CONTINUOUS
 66
1
 70
0
  0
VERTEX
  8
0
 62
7
  6
CONTINUOUS
 10
295.6163259381
 20
243.541297417
  0
VERTEX
  8
0
 62
7
  6
CONTINUOUS
 10
295.6061576578
 20
243.433343488
  0
VERTEX
  8
0
 62
7
  6
CONTINUOUS
 10
295.5981165026
 20
243.2890401185
  0
VERTEX
  8
0
 62
7
  6
CONTINUOUS
 10
295.5961538305
 20
243.1739710224
  0
SEQEND
  0
LINE
  8
0
 62
7
  6
CONTINUOUS
 10
295.61689287
 20
237.332129051
 11
295.6068792012
 21
237.2360571716
  0
LINE
  8
0
 62
7
  6
CONTINUOUS
 10
295.9754621977
 20
240.6210470233
 11
295.7861394953
 21
238.8340921657
  0
POLYLINE
  8
0
 62
7
  6
CONTINUOUS
 66
1
 70
0
  0
VERTEX
  8
0
 62
7
  6
CONTINUOUS
 10
295.7861394953
 20
238.8340921657
  0
VERTEX
  8
0
 62
7
  6
CONTINUOUS
 10
295.7309808976
 20
238.3230929638
  0
VERTEX
  8
0
 62
7
  6
CONTINUOUS
 10
295.6695873104
 20
237.7783599257
  0
VERTEX
  8
0
 62
7
  6
CONTINUOUS
 10
295.6168931323
 20
237.3321324671
  0
SEQEND
  0
POLYLINE
  8
0
 62
7
  6
CONTINUOUS
 66
1
 70
0
  0
VERTEX
  8
0
 62
7
  6
CONTINUOUS
 10
295.9773323465
 20
246.4636905734
  0
VERTEX
  8
0
 62
7
  6
CONTINUOUS
 10
295.8547937492
 20
245.541038645
  0
VERTEX
  8
0
 62
7
  6
CONTINUOUS
 10
295.732227348
 20
244.5493286416
  0
VERTEX
  8
0
 62
7
  6
CONTINUOUS
 10
295.6163261114
 20
243.5412983775
  0
SEQEND
  0
LINE
  8
0
 62
7
  6
CONTINUOUS
 10
295.9875972221
 20
206.1540810008
 11
295.9908033787
 21
206.16625042
  0
LINE
  8
0
 62
7
  6
CONTINUOUS
 10
295.9908439957
 20
206.1663970383
 11
295.8029145522
 21
205.4887707957
  0
LINE
  8
0
 62
7
  6
CONTINUOUS
 10
295.8028955916
 20
205.4887026525
 11
295.7788948127
 21
205.4066620068
  0
LINE
  8
0
 62
7
  6
CONTINUOUS
 10
295.8547923096
 20
85.2777109286
 11
295.9773321722
 21
84.3550490854
  0
POLYLINE
  8
0
 62
7
  6
CONTINUOUS
 66
1
 70
0
  0
VERTEX
  8
0
 62
7
  6
CONTINUOUS
 10
295.6163261103
 20
87.2774401256
  0
VERTEX
  8
0
 62
7
  6
CONTINUOUS
 10
295.7322262945
 20
86.2694187233
  0
VERTEX
  8
0
 62
7
  6
CONTINUOUS
 10
295.8547923096
 20
85.2777109286
  0
SEQEND
  0
POLYLINE
  8
0
 62
7
  6
CONTINUOUS
 66
1
 70
0
  0
VERTEX
  8
0
 62
7
  6
CONTINUOUS
 10
295.5961538305
 20
87.6447674747
  0
VERTEX
  8
0
 62
7
  6
CONTINUOUS
 10
295.5981165026
 20
87.5296983785
  0
VERTEX
  8
0
 62
7
  6
CONTINUOUS
 10
295.6061576578
 20
87.385395009
  0
SEQEND
  0
POLYLINE
  8
0
 62
7
  6
CONTINUOUS
 66
1
 70
0
  0
VERTEX
  8
0
 62
7
  6
CONTINUOUS
 10
295.6068792012
 20
237.2360571716
  0
VERTEX
  8
0
 62
7
  6
CONTINUOUS
 10
295.5976831644
 20
237.0842113517
  0
VERTEX
  8
0
 62
7
  6
CONTINUOUS
 10
295.5961539386
 20
236.9927842899
  0
SEQEND
  0
LINE
  8
0
 62
7
  6
CONTINUOUS
 10
295.6062527821
 20
205.0210595865
 11
295.5963133333
 21
204.9329605198
  0
LINE
  8
0
 62
7
  6
CONTINUOUS
 10
295.5961538824
 20
87.6447830292
 11
295.5961538462
 21
87.6452800349
  0
LINE
  8
1_AXIS
 62
7
  6
CONTINUOUS
 10
295.5961538462
 20
236.9929297877
 11
295.5961538462
 21
232.761206653
  0
LINE
  8
1_AXIS
 62
7
  6
CONTINUOUS
 10
295.5961538462
 20
204.9202452733
 11
295.5961538462
 21
196.6228421602
  0
LINE
  8
1_AXIS
 62
7
  6
CONTINUOUS
 10
295.5961538462
 20
157.7557490426
 11
295.5961538462
 21
148.5619919221
  0
LINE
  8
1_AXIS
 62
7
  6
CONTINUOUS
 10
295.5961538462
 20
113.5146755937
 11
295.5961538462
 21
106.9362672013
  0
LINE
  8
1_AXIS
 62
7
  6
CONTINUOUS
 10
295.5961538462
 20
89.0956112851
 11
295.5961538462
 21
87.6452800349
  0
LINE
  8
0
 62
7
  6
CONTINUOUS
 10
295.5961538462
 20
87.6452800348
 11
295.5961538462
 21
204.9202452733
  0
LINE
  8
0
 62
7
  6
CONTINUOUS
 10
295.5961538462
 20
204.9309128349
 11
295.5961538462
 21
243.1734584621
  0
LINE
  8
1_AXIS
 62
2
  6
CENTER
 10
277.1961538462
 20
165.4093692485
 11
323.4961538462
 21
165.4093692485
  0
POLYLINE
  8
0
 62
7
  6
CONTINUOUS
 66
1
 70
0
  0
VERTEX
  8
0
 62
7
  6
CONTINUOUS
 10
305.0961537319
 20
236.9929358607
  0
VERTEX
  8
0
 62
7
  6
CONTINUOUS
 10
305.0944520379
 20
237.0892419214
  0
VERTEX
  8
0
 62
7
  6
CONTINUOUS
 10
305.0849768228
 20
237.2411681577
  0
SEQEND
  0
POLYLINE
  8
0
 62
7
  6
CONTINUOUS
 66
1
 70
0
  0
VERTEX
  8
0
 62
7
  6
CONTINUOUS
 10
305.096153913
 20
243.1734593476
  0
VERTEX
  8
0
 62
7
  6
CONTINUOUS
 10
305.0942865432
 20
243.2862072919
  0
VERTEX
  8
0
 62
7
  6
CONTINUOUS
 10
305.0863681318
 20
243.430515777
  0
VERTEX
  8
0
 62
7
  6
CONTINUOUS
 10
305.0759817494
 20
243.5412973451
  0
SEQEND
  0
LINE
  8
0
 62
7
  6
CONTINUOUS
 10
305.0961537303
 20
204.9202345452
 11
305.0959843521
 21
204.9333529502
  0
LINE
  8
0
 62
7
  6
CONTINUOUS
 10
305.0961538462
 20
87.6452800348
 11
305.0961538462
 21
204.9202452733
  0
LINE
  8
0
 62
7
  6
CONTINUOUS
 10
305.0961538462
 20
204.9309128341
 11
305.0961538462
 21
243.1734584622
  0
LINE
  8
0
 62
7
  6
CONTINUOUS
 10
305.3961538462
 20
234.814514697
 11
305.3961538462
 21
225.556001031
  0
LINE
  8
0
 62
7
  6
CONTINUOUS
 10
305.3961538462
 20
225.5542812229
 11
305.3961538462
 21
225.0490332694
  0
LINE
  8
0
 62
7
  6
CONTINUOUS
 10
305.3961538462
 20
225.0434347916
 11
305.3961538462
 21
224.8885921773
  0
LINE
  8
0
 62
7
  6
CONTINUOUS
 10
305.3961538462
 20
224.5890919569
 11
305.3961538462
 21
219.744429546
  0
POLYLINE
  8
0
 62
7
  6
CONTINUOUS
 66
1
 70
0
  0
VERTEX
  8
0
 62
7
  6
CONTINUOUS
 10
305.0863681318
 20
87.38822272
  0
VERTEX
  8
0
 62
7
  6
CONTINUOUS
 10
305.0942865432
 20
87.532531205
  0
VERTEX
  8
0
 62
7
  6
CONTINUOUS
 10
305.096153913
 20
87.6452791494
  0
SEQEND
  0
LINE
  8
0
 62
7
  6
CONTINUOUS
 10
305.0759817494
 20
87.2774411518
 11
305.0863681318
 21
87.38822272
  0
LINE
  8
0
 62
7
  6
CONTINUOUS
 10
305.0959843521
 20
204.9333529502
 11
305.0858968639
 21
205.0218387403
  0
LINE
  8
0
 62
7
  6
CONTINUOUS
 10
304.960740798
 20
238.3284150128
 11
304.7168590746
 21
240.6209211703
  0
LINE
  8
0
 62
7
  6
CONTINUOUS
 10
305.0849768228
 20
237.2411681577
 11
305.0754147315
 21
237.3321301785
  0
LINE
  8
0
 62
7
  6
CONTINUOUS
 10
304.9603575461
 20
86.271736294
 11
305.0759815867
 21
87.2774401601
  0
POLYLINE
  8
0
 62
7
  6
CONTINUOUS
 66
1
 70
0
  0
VERTEX
  8
0
 62
7
  6
CONTINUOUS
 10
304.7149755225
 20
84.355049111
  0
VERTEX
  8
0
 62
7
  6
CONTINUOUS
 10
304.8377995725
 20
85.2799281044
  0
VERTEX
  8
0
 62
7
  6
CONTINUOUS
 10
304.9603575461
 20
86.271736294
  0
SEQEND
  0
LINE
  8
0
 62
7
  6
CONTINUOUS
 10
304.912973613
 20
205.4080798576
 11
304.8894131208
 21
205.4886989881
  0
POLYLINE
  8
0
 62
7
  6
CONTINUOUS
 66
1
 70
0
  0
VERTEX
  8
0
 62
7
  6
CONTINUOUS
 10
305.0858968639
 20
205.0218387403
  0
VERTEX
  8
0
 62
7
  6
CONTINUOUS
 10
305.0618689861
 20
205.1040321288
  0
VERTEX
  8
0
 62
7
  6
CONTINUOUS
 10
305.029229981
 20
205.1732885084
  0
VERTEX
  8
0
 62
7
  6
CONTINUOUS
 10
304.9946551722
 20
205.2271256115
  0
VERTEX
  8
0
 62
7
  6
CONTINUOUS
 10
304.9670932721
 20
205.2618261964
  0
SEQEND
  0
LINE
  8
0
 62
7
  6
CONTINUOUS
 10
304.8893931402
 20
205.4887707958
 11
304.7014392114
 21
206.1664853624
  0
POLYLINE
  8
0
 62
7
  6
CONTINUOUS
 66
1
 70
0
  0
VERTEX
  8
0
 62
7
  6
CONTINUOUS
 10
305.0754145077
 20
237.3321327702
  0
VERTEX
  8
0
 62
7
  6
CONTINUOUS
 10
305.022151607
 20
237.7832869983
  0
VERTEX
  8
0
 62
7
  6
CONTINUOUS
 10
304.960740798
 20
238.3284150128
  0
SEQEND
  0
POLYLINE
  8
0
 62
7
  6
CONTINUOUS
 66
1
 70
0
  0
VERTEX
  8
0
 62
7
  6
CONTINUOUS
 10
305.0759815841
 20
243.5412983505
  0
VERTEX
  8
0
 62
7
  6
CONTINUOUS
 10
304.9603567185
 20
244.547009169
  0
VERTEX
  8
0
 62
7
  6
CONTINUOUS
 10
304.8377983371
 20
245.5388199017
  0
VERTEX
  8
0
 62
7
  6
CONTINUOUS
 10
304.7149755243
 20
246.463689276
  0
SEQEND
  0
LINE
  8
1_AXIS
 62
7
  6
CONTINUOUS
 10
321.4961538462
 20
223.4093692485
 11
321.4961538462
 21
107.4093692485
  0
POLYLINE
  8
0
 62
7
  6
CONTINUOUS
 66
1
 70
0
  0
VERTEX
  8
0
 62
7
  6
CONTINUOUS
 10
304.9708541853
 20
205.2540885335
  0
VERTEX
  8
0
 62
7
  6
CONTINUOUS
 10
304.9700095892
 20
205.2556271289
  0
VERTEX
  8
0
 62
7
  6
CONTINUOUS
 10
304.9587344244
 20
205.2795941756
  0
SEQEND
  0
POLYLINE
  8
0
 62
7
  6
CONTINUOUS
 66
1
 70
0
  0
VERTEX
  8
0
 62
7
  6
CONTINUOUS
 10
304.9587344244
 20
205.2795941756
  0
VERTEX
  8
0
 62
7
  6
CONTINUOUS
 10
304.9387133637
 20
205.3307073544
  0
VERTEX
  8
0
 62
7
  6
CONTINUOUS
 10
304.912973613
 20
205.4080798576
  0
SEQEND
  0
POLYLINE
  8
0
 62
7
  6
CONTINUOUS
 66
1
 70
0
  0
VERTEX
  8
0
 62
7
  6
CONTINUOUS
 10
304.7014392113
 20
206.1664853591
  0
VERTEX
  8
0
 62
7
  6
CONTINUOUS
 10
304.6669954744
 20
206.2561246395
  0
VERTEX
  8
0
 62
7
  6
CONTINUOUS
 10
304.6157249009
 20
206.3379492879
  0
VERTEX
  8
0
 62
7
  6
CONTINUOUS
 10
304.5490697832
 20
206.408930149
  0
VERTEX
  8
0
 62
7
  6
CONTINUOUS
 10
304.4690558984
 20
206.4661453383
  0
VERTEX
  8
0
 62
7
  6
CONTINUOUS
 10
304.3785468986
 20
206.5068715111
  0
VERTEX
  8
0
 62
7
  6
CONTINUOUS
 10
304.281123247
 20
206.5289994765
  0
VERTEX
  8
0
 62
7
  6
CONTINUOUS
 10
304.2196441292
 20
206.5327934144
  0
SEQEND
  0
POLYLINE
  8
0
 62
7
  6
CONTINUOUS
 66
1
 70
0
  0
VERTEX
  8
0
 62
7
  6
CONTINUOUS
 10
304.7151344268
 20
246.4625242081
  0
VERTEX
  8
0
 62
7
  6
CONTINUOUS
 10
304.6983960857
 20
246.5397319074
  0
VERTEX
  8
0
 62
7
  6
CONTINUOUS
 10
304.6596845885
 20
246.6329336348
  0
VERTEX
  8
0
 62
7
  6
CONTINUOUS
 10
304.6043820911
 20
246.7148596785
  0
VERTEX
  8
0
 62
7
  6
CONTINUOUS
 10
304.5349707107
 20
246.7835541731
  0
VERTEX
  8
0
 62
7
  6
CONTINUOUS
 10
304.452815527
 20
246.8378238138
  0
VERTEX
  8
0
 62
7
  6
CONTINUOUS
 10
304.359966837
 20
246.8754275277
  0
VERTEX
  8
0
 62
7
  6
CONTINUOUS
 10
304.262061624
 20
246.8937192757
  0
SEQEND
  0
POLYLINE
  8
0
 62
7
  6
CONTINUOUS
 66
1
 70
0
  0
VERTEX
  8
0
 62
7
  6
CONTINUOUS
 10
304.7168590736
 20
240.6209211699
  0
VERTEX
  8
0
 62
7
  6
CONTINUOUS
 10
304.6970202406
 20
240.7169222885
  0
VERTEX
  8
0
 62
7
  6
CONTINUOUS
 10
304.6602253363
 20
240.8046279365
  0
VERTEX
  8
0
 62
7
  6
CONTINUOUS
 10
304.6062742907
 20
240.8852654313
  0
VERTEX
  8
0
 62
7
  6
CONTINUOUS
 10
304.5372595325
 20
240.9543822621
  0
VERTEX
  8
0
 62
7
  6
CONTINUOUS
 10
304.4535298446
 20
241.0101458197
  0
VERTEX
  8
0
 62
7
  6
CONTINUOUS
 10
304.3564118781
 20
241.0491520382
  0
VERTEX
  8
0
 62
7
  6
CONTINUOUS
 10
304.2504100847
 20
241.0672736422
  0
VERTEX
  8
0
 62
7
  6
CONTINUOUS
 10
304.2196441292
 20
241.0682210804
  0
SEQEND
  0
POLYLINE
  8
0
 62
7
  6
CONTINUOUS
 66
1
 70
0
  0
VERTEX
  8
0
 62
7
  6
CONTINUOUS
 10
304.714975941
 20
84.355052249
  0
VERTEX
  8
0
 62
7
  6
CONTINUOUS
 10
304.6900646339
 20
84.2537925601
  0
VERTEX
  8
0
 62
7
  6
CONTINUOUS
 10
304.6444281116
 20
84.1594771442
  0
VERTEX
  8
0
 62
7
  6
CONTINUOUS
 10
304.5795133488
 20
84.0760940631
  0
VERTEX
  8
0
 62
7
  6
CONTINUOUS
 10
304.4975965951
 20
84.0075937903
  0
VERTEX
  8
0
 62
7
  6
CONTINUOUS
 10
304.4019695146
 20
83.9576445494
  0
VERTEX
  8
0
 62
7
  6
CONTINUOUS
 10
304.2969469094
 20
83.9292285908
  0
VERTEX
  8
0
 62
7
  6
CONTINUOUS
 10
304.2196443095
 20
83.9232168583
  0
SEQEND
  0
LINE
  8
0
 62
7
  6
CONTINUOUS
 10
305.3961538462
 20
233.6218048138
 11
306.0961538462
 21
232.4093692485
  0
LINE
  8
0
 62
7
  6
CONTINUOUS
 10
296.4726635631
 20
206.5327935535
 11
304.2196441292
 21
206.5327935535
  0
LINE
  8
0
 62
7
  6
CONTINUOUS
 10
305.0961538462
 20
219.744429546
 11
305.3961538462
 21
219.744429546
  0
LINE
  8
0
 62
7
  6
CONTINUOUS
 10
305.0961538462
 20
219.8063588538
 11
305.3961538462
 21
219.8063588538
  0
LINE
  8
0
 62
7
  6
CONTINUOUS
 10
305.0961538462
 20
219.8886082986
 11
305.3961538462
 21
219.8886082986
  0
LINE
  8
0
 62
7
  6
CONTINUOUS
 10
305.0961538462
 20
220.0940704925
 11
305.3961538462
 21
220.0940704925
  0
LINE
  8
0
 62
7
  6
CONTINUOUS
 10
305.0961538462
 20
221.3261976393
 11
305.3961538462
 21
221.3261976393
  0
LINE
  8
0
 62
7
  6
CONTINUOUS
 10
305.0961538462
 20
221.5310139346
 11
305.3961538462
 21
221.5310139346
  0
LINE
  8
0
 62
7
  6
CONTINUOUS
 10
305.0961538462
 20
222.3502791014
 11
305.3961538462
 21
222.3502791014
  0
LINE
  8
0
 62
7
  6
CONTINUOUS
 10
305.0961538462
 20
222.5550954408
 11
305.3961538462
 21
222.5550954408
  0
LINE
  8
0
 62
7
  6
CONTINUOUS
 10
305.0961538462
 20
223.0065590393
 11
305.3961538462
 21
223.0065590393
  0
LINE
  8
0
 62
7
  6
CONTINUOUS
 10
305.0961538462
 20
223.1985361504
 11
305.3961538462
 21
223.1985361504
  0
LINE
  8
0
 62
7
  6
CONTINUOUS
 10
305.0961538462
 20
223.327205275
 11
305.3961538462
 21
223.327205275
  0
LINE
  8
0
 62
7
  6
CONTINUOUS
 10
305.0961538462
 20
223.5440948844
 11
305.3961538462
 21
223.5440948844
  0
LINE
  8
0
 62
7
  6
CONTINUOUS
 10
305.0961538462
 20
223.6976766173
 11
305.3961538462
 21
223.6976766173
  0
LINE
  8
0
 62
7
  6
CONTINUOUS
 10
305.0961538462
 20
223.7495549853
 11
305.3961538462
 21
223.7495549853
  0
LINE
  8
0
 62
7
  6
CONTINUOUS
 10
305.0961538462
 20
224.4055736987
 11
305.3961538462
 21
224.4055736987
  0
LINE
  8
0
 62
7
  6
CONTINUOUS
 10
305.0961538462
 20
224.5890919569
 11
305.3961538462
 21
224.5890919569
  0
LINE
  8
0
 62
7
  6
CONTINUOUS
 10
305.0961538462
 20
224.8885921773
 11
305.3961538462
 21
224.8885921773
  0
LINE
  8
0
 62
7
  6
CONTINUOUS
 10
305.0961538462
 20
224.8986801013
 11
305.3961538462
 21
224.8986801013
  0
LINE
  8
0
 62
7
  6
CONTINUOUS
 10
305.0961538462
 20
225.0434347916
 11
305.3961538462
 21
225.0434347916
  0
LINE
  8
0
 62
7
  6
CONTINUOUS
 10
305.0961538462
 20
225.0490332694
 11
305.3961538462
 21
225.0490332694
  0
LINE
  8
0
 62
7
  6
CONTINUOUS
 10
305.0961538462
 20
225.3707629647
 11
305.3961538462
 21
225.3707629647
  0
LINE
  8
1_AXIS
 62
7
  6
CONTINUOUS
 10
281.1961538462
 20
225.4093692485
 11
293.0961538462
 21
225.4093692485
  0
LINE
  8
1_AXIS
 62
7
  6
CONTINUOUS
 10
307.5961538462
 20
225.4093692485
 11
319.4961538462
 21
225.4093692485
  0
LINE
  8
0
 62
7
  6
CONTINUOUS
 10
305.0961538462
 20
225.5542812229
 11
305.3961538462
 21
225.5542812229
  0
LINE
  8
0
 62
7
  6
CONTINUOUS
 10
305.0961538462
 20
226.5660018286
 11
305.3961538462
 21
226.5660018286
  0
LINE
  8
0
 62
7
  6
CONTINUOUS
 10
305.0961538462
 20
226.9338135428
 11
305.3961538462
 21
226.9338135428
  0
LINE
  8
0
 62
7
  6
CONTINUOUS
 10
305.0961538462
 20
227.265436669
 11
305.3961538462
 21
227.265436669
  0
LINE
  8
0
 62
7
  6
CONTINUOUS
 10
305.0961538462
 20
227.659349044
 11
305.3961538462
 21
227.659349044
  0
LINE
  8
0
 62
7
  6
CONTINUOUS
 10
305.0961538462
 20
227.9185946586
 11
305.3961538462
 21
227.9185946586
  0
LINE
  8
0
 62
7
  6
CONTINUOUS
 10
305.0961538462
 20
228.1416518739
 11
305.3961538462
 21
228.1416518739
  0
LINE
  8
0
 62
7
  6
CONTINUOUS
 10
305.0961538462
 20
228.4219545631
 11
305.3961538462
 21
228.4219545631
  0
LINE
  8
0
 62
7
  6
CONTINUOUS
 10
305.0961538462
 20
228.5103450179
 11
305.3961538462
 21
228.5103450179
  0
LINE
  8
0
 62
7
  6
CONTINUOUS
 10
305.0961538462
 20
229.1640338127
 11
305.3961538462
 21
229.1640338127
  0
LINE
  8
0
 62
7
  6
CONTINUOUS
 10
305.0961538462
 20
229.8301621727
 11
305.3961538462
 21
229.8301621727
  0
LINE
  8
0
 62
7
  6
CONTINUOUS
 10
305.0961538462
 20
229.9000764117
 11
305.3961538462
 21
229.9000764117
  0
LINE
  8
0
 62
7
  6
CONTINUOUS
 10
305.0961538462
 20
230.4619333094
 11
305.3961538462
 21
230.4619333094
  0
LINE
  8
0
 62
7
  6
CONTINUOUS
 10
305.0961538462
 20
231.0468180342
 11
305.3961538462
 21
231.0468180342
  0
LINE
  8
0
 62
7
  6
CONTINUOUS
 10
305.0961538462
 20
231.0984830324
 11
305.3961538462
 21
231.0984830324
  0
LINE
  8
0
 62
7
  6
CONTINUOUS
 10
305.0961538462
 20
231.1482836874
 11
305.3961538462
 21
231.1482836874
  0
LINE
  8
0
 62
7
  6
CONTINUOUS
 10
305.0961538462
 20
232.1534299123
 11
305.3961538462
 21
232.1534299123
  0
LINE
  8
0
 62
7
  6
CONTINUOUS
 10
305.0961538462
 20
232.3211684437
 11
305.3961538462
 21
232.3211684437
  0
LINE
  8
0
 62
7
  6
CONTINUOUS
 10
305.0961538462
 20
232.8802968818
 11
305.3961538462
 21
232.8802968818
  0
LINE
  8
0
 62
7
  6
CONTINUOUS
 10
305.0961538462
 20
233.0480354132
 11
305.3961538462
 21
233.0480354132
  0
LINE
  8
0
 62
7
  6
CONTINUOUS
 10
305.0961538462
 20
233.2152455359
 11
305.3961538462
 21
233.2152455359
  0
LINE
  8
0
 62
7
  6
CONTINUOUS
 10
305.0961538462
 20
233.5675080297
 11
305.3961538462
 21
233.5675080297
  0
LINE
  8
0
 62
7
  6
CONTINUOUS
 10
305.0961538462
 20
233.8923625251
 11
305.3961538462
 21
233.8923625251
  0
LINE
  8
0
 62
7
  6
CONTINUOUS
 10
305.0961538462
 20
234.1590028835
 11
305.3961538462
 21
234.1590028835
  0
LINE
  8
0
 62
7
  6
CONTINUOUS
 10
305.0961538462
 20
234.5893299939
 11
305.3961538462
 21
234.5893299939
  0
LINE
  8
0
 62
7
  6
CONTINUOUS
 10
305.0961538462
 20
234.6231076736
 11
305.3961538462
 21
234.6231076736
  0
LINE
  8
0
 62
7
  6
CONTINUOUS
 10
305.0961538462
 20
234.7807370173
 11
305.3961538462
 21
234.7807370173
  0
LINE
  8
0
 62
7
  6
CONTINUOUS
 10
305.0961538462
 20
234.814514697
 11
305.3961538462
 21
234.814514697
  0
LINE
  8
0
 62
7
  6
CONTINUOUS
 10
296.4726635631
 20
241.0682210838
 11
304.2196441292
 21
241.0682210838
  0
LINE
  8
0
 62
7
  6
CONTINUOUS
 10
296.4726635631
 20
246.8955217685
 11
304.2196441292
 21
246.8955217685
  0
LINE
  8
0
 62
7
  6
CONTINUOUS
 10
304.262061624
 20
246.8937192757
 11
304.2196441292
 21
246.8955217684
  0
ARC
  8
0
 62
7
  6
CONTINUOUS
 10
67.9811884126
 20
68.0472638248
 40
180.0
 50
36.508015808
 51
39.5970530068
  0
ARC
  8
0
 62
7
  6
CONTINUOUS
 10
63.3055991542
 20
116.5938600649
 40
8.5
 50
324.0
 51
18.0
  0
ARC
  8
0
 62
7
  6
CONTINUOUS
 10
69.2979244318
 20
109.5298736883
 40
0.5
 50
144.0
 51
252.508015808
  0
ARC
  8
0
 62
7
  6
CONTINUOUS
 10
22.6298543181
 20
123.1944203407
 40
180.0
 50
0.508015808
 51
3.5970530068
  0
ARC
  8
0
 62
7
  6
CONTINUOUS
 10
47.3821964683
 20
165.2176841298
 40
8.5
 50
288.0
 51
342.0
  0
ARC
  8
0
 62
7
  6
CONTINUOUS
 10
54.4276111282
 20
148.6796746328
 40
1.0
 50
219.5970530068
 51
271.53
  0
ARC
  8
0
 62
7
  6
CONTINUOUS
 10
61.7162819641
 20
147.3738192362
 40
0.5
 50
18.0
 51
91.53
  0
ARC
  8
0
 62
7
  6
CONTINUOUS
 10
48.0779824392
 20
155.980598678
 40
0.5
 50
108.0
 51
216.508015808
  0
ARC
  8
0
 62
7
  6
CONTINUOUS
 10
78.7262574311
 20
107.3555201621
 40
1.0
 50
255.5970530068
 51
307.53
  0
ARC
  8
0
 62
7
  6
CONTINUOUS
 10
85.3904785475
 20
110.5832341802
 40
0.5
 50
54.0
 51
127.53
  0
ARC
  8
0
 62
7
  6
CONTINUOUS
 10
104.7682692308
 20
86.61590133
 40
8.5
 50
0.0
 51
54.0
  0
ARC
  8
0
 62
7
  6
CONTINUOUS
 10
122.6740037918
 20
88.2059628646
 40
1.0
 50
291.5970530068
 51
343.53
  0
ARC
  8
0
 62
7
  6
CONTINUOUS
 10
126.1682692308
 20
94.7343692485
 40
0.5
 50
90.0
 51
163.53
  0
ARC
  8
0
 62
7
  6
CONTINUOUS
 10
113.7682692308
 20
84.4232167284
 40
0.5
 50
180.0
 51
288.508015808
  0
ARC
  8
DEFAULT_1
 62
2
  6
CENTER
 10
123.7732228485
 20
124.85252536
 40
3.2
 50
2.2544307753
 51
45.0
  0
ARC
  8
DEFAULT_1
 62
2
  6
CENTER
 10
120.2376889426
 20
128.3880592659
 40
3.2
 50
45.0
 51
86.4096221093
  0
ARC
  8
DEFAULT_1
 62
2
  6
CENTER
 10
120.6384755829
 20
134.775497725
 40
3.2
 50
225.0
 51
266.4096221093
  0
ARC
  8
DEFAULT_1
 62
2
  6
CENTER
 10
99.5343977073
 20
155.8795756006
 40
3.2
 50
183.5903778907
 51
225.0
  0
ARC
  8
DEFAULT_1
 62
2
  6
CENTER
 10
93.1469592482
 20
155.4787889603
 40
3.2
 50
3.5903778907
 51
45.0
  0
ARC
  8
DEFAULT_1
 62
2
  6
CENTER
 10
89.6114253422
 20
159.0143228662
 40
3.2
 50
45.0
 51
87.7455692247
  0
ARC
  8
0
 62
7
  6
CONTINUOUS
 10
18.354539624
 20
194.4662525059
 40
180.0
 50
324.508015808
 51
327.5970530068
  0
ARC
  8
0
 62
7
  6
CONTINUOUS
 10
63.0802597825
 20
213.9147253949
 40
8.5
 50
252.0
 51
306.0
  0
ARC
  8
0
 62
7
  6
CONTINUOUS
 10
59.0593218902
 20
196.3940038253
 40
1.0
 50
183.5970530068
 51
235.53
  0
ARC
  8
0
 62
7
  6
CONTINUOUS
 10
64.1884179191
 20
191.0533713911
 40
0.5
 50
342.0
 51
55.53
  0
ARC
  8
0
 62
7
  6
CONTINUOUS
 10
58.2137398547
 20
206.0327935535
 40
0.5
 50
72.0
 51
180.508015808
  0
ARC
  8
0
 62
7
  6
CONTINUOUS
 10
56.7882692308
 20
254.639342874
 40
180.0
 50
288.508015808
 51
291.5970530068
  0
ARC
  8
DEFAULT_1
 62
2
  6
CENTER
 10
89.8631827031
 20
165.4093692485
 40
3.2
 50
92.2544307753
 51
267.7455692247
  0
ARC
  8
DEFAULT_1
 62
2
  6
CENTER
 10
89.6114253422
 20
171.8044156307
 40
3.2
 50
272.2544307753
 51
315.0
  0
ARC
  8
DEFAULT_1
 62
2
  6
CENTER
 10
93.1469592482
 20
175.3399495367
 40
3.2
 50
315.0
 51
356.4096221093
  0
ARC
  8
DEFAULT_1
 62
2
  6
CENTER
 10
99.5343977073
 20
174.9391628964
 40
3.2
 50
135.0
 51
176.4096221093
  0
ARC
  8
DEFAULT_1
 62
2
  6
CENTER
 10
120.6384755829
 20
196.043240772
 40
3.2
 50
93.5903778907
 51
135.0
  0
ARC
  8
DEFAULT_1
 62
2
  6
CENTER
 10
120.2376889426
 20
202.4306792311
 40
3.2
 50
273.5903778907
 51
315.0
  0
ARC
  8
DEFAULT_1
 62
2
  6
CENTER
 10
123.7732228485
 20
205.966213137
 40
3.2
 50
315.0
 51
357.7455692247
  0
ARC
  8
0
 62
7
  6
CONTINUOUS
 10
123.2506647431
 20
280.7296161324
 40
180.0
 50
252.508015808
 51
255.5970530068
  0
ARC
  8
0
 62
7
  6
CONTINUOUS
 10
104.4036624684
 20
244.0843692485
 40
8.5
 50
216.0
 51
270.0
  0
ARC
  8
0
 62
7
  6
CONTINUOUS
 10
90.852233632
 20
232.2732557385
 40
1.0
 50
147.5970530068
 51
199.53
  0
ARC
  8
0
 62
7
  6
CONTINUOUS
 10
91.8626145025
 20
224.9377863351
 40
0.5
 50
306.0
 51
19.53
  0
ARC
  8
0
 62
7
  6
CONTINUOUS
 10
95.8336818473
 20
240.5682210838
 40
0.5
 50
36.0
 51
144.508015808
  0
ARC
  8
0
 62
7
  6
CONTINUOUS
 10
137.0858737185
 20
50.0891223646
 40
180.0
 50
72.508015808
 51
75.5970530068
  0
ARC
  8
0
 62
7
  6
CONTINUOUS
 10
155.9328759931
 20
86.7343692485
 40
8.5
 50
36.0
 51
90.0
  0
ARC
  8
0
 62
7
  6
CONTINUOUS
 10
169.4843048295
 20
98.5454827585
 40
1.0
 50
327.5970530068
 51
19.53
  0
ARC
  8
0
 62
7
  6
CONTINUOUS
 10
164.5028566142
 20
90.2505174131
 40
0.5
 50
216.0
 51
324.508015808
  0
ARC
  8
DEFAULT_1
 62
2
  6
CENTER
 10
170.7251131193
 20
159.0143228662
 40
3.2
 50
92.2544307753
 51
135.0
  0
ARC
  8
DEFAULT_1
 62
2
  6
CENTER
 10
167.1895792134
 20
155.4787889603
 40
3.2
 50
135.0
 51
176.4096221093
  0
ARC
  8
DEFAULT_1
 62
2
  6
CENTER
 10
160.8021407543
 20
155.8795756006
 40
3.2
 50
315.0
 51
356.4096221093
  0
ARC
  8
DEFAULT_1
 62
2
  6
CENTER
 10
139.6980628787
 20
134.775497725
 40
3.2
 50
273.5903778907
 51
315.0
  0
ARC
  8
DEFAULT_1
 62
2
  6
CENTER
 10
140.098849519
 20
128.3880592659
 40
3.2
 50
93.5903778907
 51
135.0
  0
ARC
  8
DEFAULT_1
 62
2
  6
CENTER
 10
136.563315613
 20
124.85252536
 40
3.2
 50
135.0
 51
177.7455692247
  0
ARC
  8
DEFAULT_1
 62
2
  6
CENTER
 10
130.1682692308
 20
125.1042827208
 40
3.2
 50
182.2544307753
 51
357.7455692247
  0
ARC
  8
0
 62
7
  6
CONTINUOUS
 10
168.473923959
 20
105.8809521619
 40
0.5
 50
126.0
 51
199.53
  0
ARC
  8
0
 62
7
  6
CONTINUOUS
 10
203.5482692308
 20
76.179395623
 40
180.0
 50
108.508015808
 51
111.5970530068
  0
ARC
  8
0
 62
7
  6
CONTINUOUS
 10
241.9819988375
 20
136.352485991
 40
180.0
 50
144.508015808
 51
147.5970530068
  0
ARC
  8
0
 62
7
  6
CONTINUOUS
 10
197.256278679
 20
116.904013102
 40
8.5
 50
72.0
 51
126.0
  0
ARC
  8
0
 62
7
  6
CONTINUOUS
 10
201.2772165713
 20
134.4247346717
 40
1.0
 50
3.5970530068
 51
55.53
  0
ARC
  8
0
 62
7
  6
CONTINUOUS
 10
196.1481205424
 20
139.7653671059
 40
0.5
 50
162.0
 51
235.53
  0
ARC
  8
0
 62
7
  6
CONTINUOUS
 10
202.1227986069
 20
124.7859449435
 40
0.5
 50
252.0
 51
0.508015808
  0
CIRCLE
  8
1_AXIS
 62
7
  6
CONTINUOUS
 10
130.1682692308
 20
165.4093692485
 40
60.0
  0
ARC
  8
DEFAULT_1
 62
2
  6
CENTER
 10
130.1682692308
 20
165.4093692485
 40
9.525
 50
108.3584370753
 51
251.6415629247
  0
ARC
  8
DEFAULT_1
 62
2
  6
CENTER
 10
130.1682692308
 20
165.4093692485
 40
9.525
 50
288.3584370753
 51
71.6415629247
  0
ARC
  8
DEFAULT_1
 62
2
  6
CENTER
 10
170.7251131193
 20
171.8044156307
 40
3.2
 50
225.0
 51
267.7455692247
  0
ARC
  8
DEFAULT_1
 62
2
  6
CENTER
 10
170.4733557584
 20
165.4093692485
 40
3.2
 50
272.2544307753
 51
87.7455692247
  0
ARC
  8
DEFAULT_1
 62
2
  6
CENTER
 10
130.1682692308
 20
205.7144557761
 40
3.2
 50
2.2544307753
 51
177.7455692247
  0
ARC
  8
DEFAULT_1
 62
2
  6
CENTER
 10
136.563315613
 20
205.966213137
 40
3.2
 50
182.2544307753
 51
225.0
  0
ARC
  8
DEFAULT_1
 62
2
  6
CENTER
 10
140.098849519
 20
202.4306792311
 40
3.2
 50
225.0
 51
266.4096221093
  0
ARC
  8
DEFAULT_1
 62
2
  6
CENTER
 10
139.6980628787
 20
196.043240772
 40
3.2
 50
45.0
 51
86.4096221093
  0
ARC
  8
DEFAULT_1
 62
2
  6
CENTER
 10
160.8021407543
 20
174.9391628964
 40
3.2
 50
3.5903778907
 51
45.0
  0
ARC
  8
DEFAULT_1
 62
2
  6
CENTER
 10
167.1895792134
 20
175.3399495367
 40
3.2
 50
183.5903778907
 51
225.0
  0
CIRCLE
  8
0
 62
7
  6
CONTINUOUS
 10
130.1682692308
 20
232.4093692485
 40
1.7320508076
  0
ARC
  8
0
 62
7
  6
CONTINUOUS
 10
155.5682692308
 20
244.2028371669
 40
8.5
 50
180.0
 51
234.0
  0
ARC
  8
0
 62
7
  6
CONTINUOUS
 10
137.6625346697
 20
242.6127756324
 40
1.0
 50
111.5970530068
 51
163.53
  0
ARC
  8
0
 62
7
  6
CONTINUOUS
 10
134.1682692308
 20
236.0843692485
 40
0.5
 50
270.0
 51
343.53
  0
ARC
  8
0
 62
7
  6
CONTINUOUS
 10
146.5682692308
 20
246.3955217685
 40
0.5
 50
0.0
 51
108.508015808
  0
ARC
  8
0
 62
7
  6
CONTINUOUS
 10
181.6102810304
 20
223.4632183349
 40
1.0
 50
75.5970530068
 51
127.53
  0
ARC
  8
0
 62
7
  6
CONTINUOUS
 10
174.946059914
 20
220.2355043168
 40
0.5
 50
234.0
 51
307.53
  0
ARC
  8
0
 62
7
  6
CONTINUOUS
 10
237.7066841434
 20
207.6243181563
 40
180.0
 50
180.508015808
 51
183.5970530068
  0
ARC
  8
0
 62
7
  6
CONTINUOUS
 10
212.9543419932
 20
165.6010543671
 40
8.5
 50
108.0
 51
162.0
  0
ARC
  8
0
 62
7
  6
CONTINUOUS
 10
205.9089273333
 20
182.1390638642
 40
1.0
 50
39.5970530068
 51
91.53
  0
ARC
  8
0
 62
7
  6
CONTINUOUS
 10
198.6202564974
 20
183.4449192607
 40
0.5
 50
198.0
 51
271.53
  0
ARC
  8
0
 62
7
  6
CONTINUOUS
 10
212.2585560224
 20
174.838139819
 40
0.5
 50
288.0
 51
36.508015808
  0
ARC
  8
0
 62
7
  6
CONTINUOUS
 10
192.3553500489
 20
262.7714746721
 40
180.0
 50
216.508015808
 51
219.5970530068
  0
ARC
  8
0
 62
7
  6
CONTINUOUS
 10
197.0309393073
 20
214.224878432
 40
8.5
 50
144.0
 51
198.0
  0
ARC
  8
0
 62
7
  6
CONTINUOUS
 10
191.0386140297
 20
221.2888648086
 40
0.5
 50
324.0
 51
72.508015808
  0
ARC
  8
1_AXIS
 62
7
  6
CONTINUOUS
 10
293.0961538462
 20
227.9093692485
 40
2.5
 50
270.0
 51
360.0
  0
ARC
  8
1_AXIS
 62
7
  6
CONTINUOUS
 10
307.5961538462
 20
227.9093692485
 40
2.5
 50
208.0910680239
 51
270.0
  0
ARC
  8
1_AXIS
 62
7
  6
CONTINUOUS
 10
293.0961538462
 20
102.9093692485
 40
2.5
 50
0.0
 51
90.0
  0
ARC
  8
1_AXIS
 62
7
  6
CONTINUOUS
 10
307.5961538462
 20
102.9093692485
 40
2.5
 50
90.0
 51
180.0
  0
ARC
  8
1_AXIS
 62
7
  6
CONTINUOUS
 10
281.1961538462
 20
223.4093692485
 40
2.0
 50
90.0
 51
180.0
  0
ARC
  8
1_AXIS
 62
7
  6
CONTINUOUS
 10
319.4961538462
 20
223.4093692485
 40
2.0
 50
0.0
 51
90.0
  0
ARC
  8
1_AXIS
 62
7
  6
CONTINUOUS
 10
281.1961538462
 20
107.4093692485
 40
2.0
 50
180.0
 51
270.0
  0
ARC
  8
1_AXIS
 62
7
  6
CONTINUOUS
 10
319.4961538462
 20
107.4093692485
 40
2.0
 50
270.0
 51
360.0
  0
ARC
  8
0
 62
7
  6
CONTINUOUS
 10
296.0961538462
 20
106.8555201621
 40
0.5
 50
179.9999534306
 51
270.0
  0
ARC
  8
0
 62
7
  6
CONTINUOUS
 10
296.0961538462
 20
148.1796746328
 40
0.5
 50
180.0000024303
 51
270.0
  0
ARC
  8
0
 62
7
  6
CONTINUOUS
 10
304.5961538462
 20
106.8555201621
 40
0.5
 50
270.0
 51
0.0000465693
  0
ARC
  8
0
 62
7
  6
CONTINUOUS
 10
304.5961538462
 20
148.1796746328
 40
0.5
 50
270.0
 51
359.9999975742
  0
ENDSEC
  0
EOF
