  0
SECTION
  2
HEADER
  9
$EXTMAX
 10
210.0
 20
297.0
 30
0.0
  9
$EXTMIN
 10
0.0
 20
0.0
 30
0.0
  9
$LIMMIN
 10
0.0
 20
0.0
  9
$LIMMAX
 10
210.0
 20
297.0
  9
$VIEWCTR
 10
105.0
 20
148.5
  9
$VIEWSIZE
 40
297.0
  9
$CLAYER
  8
0
  9
$LTSCALE
 40
19.36
  9
$CELTYPE
  6
BYLAYER
  9
$DIMSCALE
 40
1.0
  9
$DIMASZ
 40
3.5
  9
$DIMEXO
 40
2.2
  9
$DIMDLI
 40
13.376
  9
$DIMEXE
 40
6.336
  9
$DIMCEN
 40
3.168
  9
$DIMLFAC
 40
3.0303030303
  9
$DIMBLK
  1
_FILLED
  9
$DIMTXT
 40
3.5
  9
$PDMODE
 70
3
  9
$PDSIZE
 40
0.3125
  9
$TILEMODE
 70
1
  0
ENDSEC
  0
SECTION
  2
TABLES
  0
TABLE
  2
LTYPE
 70
6
  0
LTYPE
  2
BYBLOCK
 70
0
  3

 72
65
 73
0
 40
0.0
  0
LTYPE
  2
BYLAYER
 70
0
  3

 72
65
 73
0
 40
0.0
  0
LTYPE
  2
CONTINUOUS
 70
64
  3
Solid line
 72
65
 73
0
 40
0.0
  0
LTYPE
  2
CENTER
 70
64
  3
____ _ ____ _ ____ _ ____ _ ____ _ ____ _ ____
 72
65
 73
4
 40
0.6
 49
0.375
 49
-0.075
 49
0.075
 49
-0.075
  0
LTYPE
  2
HIDDEN
 70
64
  3
- - - - - - - - - - - - - - - - - - - -
 72
65
 73
2
 40
0.2
 49
0.1
 49
-0.1
  0
LTYPE
  2
PHANTOM
 70
64
  3
_____ _ _ _____ _ _ _____ _ _ _____
 72
65
 73
6
 40
0.8
 49
0.45
 49
-0.05
 49
0.1
 49
-0.05
 49
0.1
 49
-0.05
  0
LTYPE
  2
DOT
 70
64
  3
. . . . . . . . . . . . . . . . . . . .
 72
65
 73
2
 40
0.2
 49
0.1
 49
-0.1
  0
LTYPE
  2
DASHED
 70
64
  3
- - - - - - - - - - - - - - - - - - - -
 72
65
 73
2
 40
0.2
 49
0.1
 49
-0.1
  0
ENDTAB
  0
TABLE
  2
LAYER
 70
36
  0
LAYER
  2
0
 70
0
 62
7
  6
CONTINUOUS
  0
LAYER
  2
DEFAULT_1
 70
0
 62
7
  6
CENTER
  0
LAYER
  2
DEFAULT_2
 70
0
 62
8
  6
HIDDEN
  0
LAYER
  2
DEFAULT_3
 70
0
 62
7
  6
PHANTOM
  0
LAYER
  2
CURVE
 70
0
 62
7
  6
CONTINUOUS
  0
LAYER
  2
SURFACE
 70
0
 62
7
  6
CONTINUOUS
  0
ENDTAB
  0
TABLE
  2
STYLE
 70
1
  0
STYLE
  2
STANDARD
 70
0
 40
0.0
 41
0.8
 50
0.0
 71
0
 42
0.2
  3
txt
  4

  0
STYLE
  2
TEXTSTYLE_1
 70
0
 40
0.0
 41
0.8
 50
0.0
 71
0
 42
0.2
  3
gdt
  4

  0
STYLE
  2
TEXTSTYLE_2
 70
0
 40
0.0
 41
0.6
 50
0.0
 71
0
 42
0.2
  3
txt
  4

  0
STYLE
  2
TEXTSTYLE_3
 70
0
 40
0.0
 41
1.0
 50
0.0
 71
0
 42
0.2
  3
ftb_____.ttf
  4

  0
STYLE
  2
TEXTSTYLE_4
 70
0
 40
0.0
 41
1.0
 50
0.0
 71
0
 42
0.2
  3
fti_____.ttf
  4

  0
STYLE
  2
TEXTSTYLE_5
 70
0
 40
0.0
 41
1.0
 50
0.0
 71
0
 42
0.2
  3
frutiger light.ttf
  4

  0
STYLE
  2
TEXTSTYLE_6
 70
0
 40
0.0
 41
0.7
 50
0.0
 71
0
 42
0.2
  3
txt
  4

  0
STYLE
  2
TEXTSTYLE_7
 70
0
 40
0.0
 41
0.8
 50
0.0
 71
0
 42
0.2
  3
txt
  4

  0
ENDTAB
  0
ENDSEC
  0
SECTION
  2
BLOCKS
  0
BLOCK
  8
0
 62
2
  6
CONTINUOUS
  2
SYMBOL_8_BL1
 70
64
 10
173.5956734183
 20
35.5937998301
  0
TEXT
  8
0
 62
7
  6
CONTINUOUS
 10
164.6539584268
 20
30.6865562072
  7
TEXTSTYLE_4
 40
1.0655737705
  1
The brand for plastic modular belts and chains
 41
1.0
 72
0
  0
LINE
  8
0
 62
7
  6
CONTINUOUS
 10
149.5737418074
 20
36.1675703219
 11
149.5737418074
 21
34.0364227809
  0
LINE
  8
0
 62
7
  6
CONTINUOUS
 10
149.8628043005
 20
31.0454914852
 11
149.8628043005
 21
31.1422825445
  0
LINE
  8
0
 62
7
  6
CONTINUOUS
 10
149.5737418074
 20
31.1100188581
 11
149.6315543091
 21
30.9164367395
  0
LINE
  8
0
 62
7
  6
CONTINUOUS
 10
150.9671844304
 20
33.9544555678
 11
150.9671844304
 21
36.1675703219
  0
LINE
  8
0
 62
7
  6
CONTINUOUS
 10
151.8862417523
 20
32.1101932727
 11
151.8862417523
 21
30.5937998301
  0
LINE
  8
0
 62
7
  6
CONTINUOUS
 10
152.1753043074
 20
30.5937998301
 11
152.1753043074
 21
31.3358647082
  0
LINE
  8
0
 62
7
  6
CONTINUOUS
 10
152.1753043074
 20
31.4649194539
 11
152.1753043074
 21
32.1101932727
  0
LINE
  8
0
 62
7
  6
CONTINUOUS
 10
149.6315543091
 20
31.3036010218
 11
149.5737418074
 21
31.1100188581
  0
LINE
  8
0
 62
7
  6
CONTINUOUS
 10
149.9784292936
 20
30.8841730531
 11
149.8628043005
 21
31.0454914852
  0
LINE
  8
0
 62
7
  6
CONTINUOUS
 10
151.0768668626
 20
31.400392081
 11
151.1346793074
 21
31.3036010218
  0
LINE
  8
0
 62
7
  6
CONTINUOUS
 10
151.4237418626
 20
31.3036010218
 11
151.3659292523
 21
31.4326557675
  0
LINE
  8
0
 62
7
  6
CONTINUOUS
 10
152.852430332
 20
36.1675703219
 11
152.852430332
 21
34.3642916334
  0
LINE
  8
0
 62
7
  6
CONTINUOUS
 10
152.852430332
 20
33.0528162235
 11
152.852430332
 21
32.3970785186
  0
LINE
  8
0
 62
7
  6
CONTINUOUS
 10
153.2159293074
 20
31.2390736489
 11
153.2159293074
 21
30.5937998301
  0
LINE
  8
0
 62
7
  6
CONTINUOUS
 10
153.5049916972
 20
30.5937998301
 11
153.5049916972
 21
31.2390736489
  0
LINE
  8
0
 62
7
  6
CONTINUOUS
 10
149.8628043005
 20
31.1422825445
 11
149.9206168074
 21
31.2713373354
  0
LINE
  8
0
 62
7
  6
CONTINUOUS
 10
149.6315543091
 20
30.9164367395
 11
149.7471793074
 21
30.7873819712
  0
LINE
  8
0
 62
7
  6
CONTINUOUS
 10
153.1581166972
 20
31.3681283946
 11
153.2159293074
 21
31.2390736489
  0
LINE
  8
0
 62
7
  6
CONTINUOUS
 10
153.9674919177
 20
30.8841730531
 11
154.0253041972
 21
30.7551182848
  0
LINE
  8
0
 62
7
  6
CONTINUOUS
 10
153.5049916972
 20
31.2390736489
 11
153.4471794177
 21
31.400392081
  0
LINE
  8
0
 62
7
  6
CONTINUOUS
 10
153.9674919177
 20
31.4326557675
 11
153.9674919177
 21
31.3681283946
  0
LINE
  8
0
 62
7
  6
CONTINUOUS
 10
153.9674919177
 20
30.9809641124
 11
153.9674919177
 21
30.8841730531
  0
LINE
  8
0
 62
7
  6
CONTINUOUS
 10
154.245872955
 20
32.3970785186
 11
154.245872955
 21
36.1675703219
  0
LINE
  8
0
 62
7
  6
CONTINUOUS
 10
154.2565543074
 20
30.8519093441
 11
154.2565543074
 21
30.9164367395
  0
LINE
  8
0
 62
7
  6
CONTINUOUS
 10
154.5737418074
 20
36.1675703219
 11
154.5737418074
 21
32.3970785186
  0
LINE
  8
0
 62
7
  6
CONTINUOUS
 10
151.3659292523
 20
30.7873819712
 11
151.4237418626
 21
30.9164367395
  0
LINE
  8
0
 62
7
  6
CONTINUOUS
 10
155.759679528
 20
30.6905909007
 11
155.7018665869
 21
30.8519093441
  0
LINE
  8
0
 62
7
  6
CONTINUOUS
 10
155.412804528
 20
31.3681283946
 11
155.412804528
 21
31.2713373354
  0
LINE
  8
0
 62
7
  6
CONTINUOUS
 10
155.412804528
 20
31.1422825445
 11
155.412804528
 21
30.9487004259
  0
LINE
  8
0
 62
7
  6
CONTINUOUS
 10
155.7018665869
 20
30.8519093441
 11
155.7018665869
 21
31.3681283946
  0
LINE
  8
0
 62
7
  6
CONTINUOUS
 10
155.9671844304
 20
32.3970785186
 11
155.9671844304
 21
34.2003572071
  0
LINE
  8
0
 62
7
  6
CONTINUOUS
 10
155.9671844304
 20
35.511832617
 11
155.9671844304
 21
36.1675703219
  0
LINE
  8
0
 62
7
  6
CONTINUOUS
 10
156.279992028
 20
32.1101932727
 11
156.279992028
 21
31.9488748406
  0
LINE
  8
0
 62
7
  6
CONTINUOUS
 10
156.279992028
 20
31.626237886
 11
156.279992028
 21
30.5937998301
  0
LINE
  8
0
 62
7
  6
CONTINUOUS
 10
156.5690540869
 20
30.5937998301
 11
156.5690540869
 21
31.626237886
  0
LINE
  8
0
 62
7
  6
CONTINUOUS
 10
156.5690540869
 20
31.9488748406
 11
156.5690540869
 21
32.1101932727
  0
LINE
  8
0
 62
7
  6
CONTINUOUS
 10
151.1346793074
 20
30.9164367395
 11
151.0768668626
 21
30.8196456577
  0
LINE
  8
0
 62
7
  6
CONTINUOUS
 10
153.4471794177
 20
31.400392081
 11
153.3893668074
 21
31.4649194539
  0
LINE
  8
0
 62
7
  6
CONTINUOUS
 10
154.3143669177
 20
30.7873819712
 11
154.2565543074
 21
30.8519093441
  0
LINE
  8
0
 62
7
  6
CONTINUOUS
 10
155.4706168074
 20
30.6583272086
 11
155.5284290869
 21
30.5937998301
  0
LINE
  8
0
 62
7
  6
CONTINUOUS
 10
155.412804528
 20
30.7551182848
 11
155.4706168074
 21
30.6583272086
  0
LINE
  8
0
 62
7
  6
CONTINUOUS
 10
155.8174918074
 20
30.5937998301
 11
155.759679528
 21
30.6905909007
  0
LINE
  8
0
 62
7
  6
CONTINUOUS
 10
155.7018665869
 20
31.3681283946
 11
155.6440543074
 21
31.4649194539
  0
LINE
  8
0
 62
7
  6
CONTINUOUS
 10
157.0315543074
 20
31.626237886
 11
157.0315543074
 21
30.5937998301
  0
LINE
  8
0
 62
7
  6
CONTINUOUS
 10
157.320617028
 20
30.5937998301
 11
157.320617028
 21
31.3358647082
  0
LINE
  8
0
 62
7
  6
CONTINUOUS
 10
157.320617028
 20
31.4649194539
 11
157.320617028
 21
31.626237886
  0
LINE
  8
0
 62
7
  6
CONTINUOUS
 10
157.852430332
 20
34.6101932727
 11
157.852430332
 21
32.3970785186
  0
LINE
  8
0
 62
7
  6
CONTINUOUS
 10
149.7471793074
 20
31.4326557675
 11
149.6315543091
 21
31.3036010218
  0
LINE
  8
0
 62
7
  6
CONTINUOUS
 10
149.9206168074
 20
31.2713373354
 11
149.9784292936
 21
31.3358647082
  0
LINE
  8
0
 62
7
  6
CONTINUOUS
 10
149.7471793074
 20
30.7873819712
 11
149.8628043005
 21
30.7228545871
  0
LINE
  8
0
 62
7
  6
CONTINUOUS
 10
150.1518667936
 20
30.7873819712
 11
149.9784292936
 21
30.8841730531
  0
LINE
  8
0
 62
7
  6
CONTINUOUS
 10
155.3549915869
 20
31.4326557675
 11
155.412804528
 21
31.3681283946
  0
LINE
  8
0
 62
7
  6
CONTINUOUS
 10
158.3034290869
 20
31.3681283946
 11
158.361242028
 21
31.2068099625
  0
LINE
  8
0
 62
7
  6
CONTINUOUS
 10
158.6503040869
 20
31.2068099625
 11
158.5924918074
 21
31.3681283946
  0
LINE
  8
0
 62
7
  6
CONTINUOUS
 10
158.361242028
 20
31.2068099625
 11
158.361242028
 21
30.5937998301
  0
LINE
  8
0
 62
7
  6
CONTINUOUS
 10
158.6503040869
 20
30.5937998301
 11
158.6503040869
 21
31.2068099625
  0
LINE
  8
0
 62
7
  6
CONTINUOUS
 10
159.1128043074
 20
31.4326557675
 11
159.1128043074
 21
31.3681283946
  0
LINE
  8
0
 62
7
  6
CONTINUOUS
 10
159.245872955
 20
32.3970785186
 11
159.245872955
 21
34.5282260596
  0
LINE
  8
0
 62
7
  6
CONTINUOUS
 10
159.5737418074
 20
36.1675703219
 11
159.5737418074
 21
32.3970785186
  0
LINE
  8
0
 62
7
  6
CONTINUOUS
 10
154.2565543074
 20
30.9164367395
 11
154.3143669177
 21
31.0132277988
  0
LINE
  8
0
 62
7
  6
CONTINUOUS
 10
149.8628043005
 20
30.7228545871
 11
150.0362418212
 21
30.6583272086
  0
LINE
  8
0
 62
7
  6
CONTINUOUS
 10
151.3659292523
 20
31.4326557675
 11
151.1924917523
 21
31.5294468267
  0
LINE
  8
0
 62
7
  6
CONTINUOUS
 10
154.0253041972
 20
30.7551182848
 11
154.1987416972
 21
30.6583272086
  0
LINE
  8
0
 62
7
  6
CONTINUOUS
 10
153.0424918074
 20
31.4326557675
 11
153.1581166972
 21
31.3681283946
  0
LINE
  8
0
 62
7
  6
CONTINUOUS
 10
153.3893668074
 20
31.4649194539
 11
153.2737419177
 21
31.5294468267
  0
LINE
  8
0
 62
7
  6
CONTINUOUS
 10
159.1128043074
 20
30.8519093441
 11
159.228429528
 21
30.7228545871
  0
LINE
  8
0
 62
7
  6
CONTINUOUS
 10
159.4596793074
 20
30.7873819712
 11
159.401867028
 21
30.8519093441
  0
LINE
  8
0
 62
7
  6
CONTINUOUS
 10
159.1128043074
 20
31.3681283946
 11
159.228429528
 21
31.2390736489
  0
LINE
  8
0
 62
7
  6
CONTINUOUS
 10
158.5924918074
 20
31.3681283946
 11
158.534679528
 21
31.4649194539
  0
LINE
  8
0
 62
7
  6
CONTINUOUS
 10
160.9628038663
 20
30.7873819712
 11
160.9628038663
 21
30.8519093441
  0
LINE
  8
0
 62
7
  6
CONTINUOUS
 10
160.9671844304
 20
32.3970785186
 11
160.9671844304
 21
36.1675703219
  0
LINE
  8
0
 62
7
  6
CONTINUOUS
 10
154.0253041972
 20
31.4971831403
 11
153.9674919177
 21
31.4326557675
  0
LINE
  8
0
 62
7
  6
CONTINUOUS
 10
150.9034292799
 20
31.4649194539
 11
151.0768668626
 21
31.400392081
  0
LINE
  8
0
 62
7
  6
CONTINUOUS
 10
155.6440543074
 20
31.4649194539
 11
155.5284290869
 21
31.5294468267
  0
LINE
  8
0
 62
7
  6
CONTINUOUS
 10
159.4596793074
 20
31.3036010218
 11
159.401867028
 21
31.3681283946
  0
LINE
  8
0
 62
7
  6
CONTINUOUS
 10
160.615929528
 20
30.9164367395
 11
160.6737418074
 21
30.8519093441
  0
LINE
  8
0
 62
7
  6
CONTINUOUS
 10
160.9628038663
 20
30.8519093441
 11
160.8471793074
 21
30.9809641124
  0
LINE
  8
0
 62
7
  6
CONTINUOUS
 10
160.615929528
 20
31.4326557675
 11
160.6737418074
 21
31.3681283946
  0
LINE
  8
0
 62
7
  6
CONTINUOUS
 10
160.9628038663
 20
31.3681283946
 11
160.8471793074
 21
31.4971831403
  0
LINE
  8
0
 62
7
  6
CONTINUOUS
 10
154.2565543074
 20
31.3681283946
 11
154.3143669177
 21
31.4326557675
  0
LINE
  8
0
 62
7
  6
CONTINUOUS
 10
154.0831168074
 20
31.1100188581
 11
153.9674919177
 21
30.9809641124
  0
LINE
  8
0
 62
7
  6
CONTINUOUS
 10
155.412804528
 20
30.9487004259
 11
155.3549915869
 21
30.8841730531
  0
LINE
  8
0
 62
7
  6
CONTINUOUS
 10
155.3549915869
 20
30.6905909007
 11
155.412804528
 21
30.7551182848
  0
LINE
  8
0
 62
7
  6
CONTINUOUS
 10
154.1987416972
 20
30.6583272086
 11
154.3143669177
 21
30.6260635193
  0
LINE
  8
0
 62
7
  6
CONTINUOUS
 10
151.1924917523
 20
31.5294468267
 11
150.9612418074
 21
31.5939741996
  0
LINE
  8
0
 62
7
  6
CONTINUOUS
 10
154.5456166972
 20
30.7228545871
 11
154.3143669177
 21
30.7873819712
  0
LINE
  8
0
 62
7
  6
CONTINUOUS
 10
153.2737419177
 20
31.5294468267
 11
153.1003044177
 21
31.5939741996
  0
LINE
  8
0
 62
7
  6
CONTINUOUS
 10
155.5284290869
 20
31.5294468267
 11
155.3549915869
 21
31.5939741996
  0
LINE
  8
0
 62
7
  6
CONTINUOUS
 10
158.187804528
 20
31.4326557675
 11
158.3034290869
 21
31.3681283946
  0
LINE
  8
0
 62
7
  6
CONTINUOUS
 10
158.534679528
 20
31.4649194539
 11
158.4190543074
 21
31.5294468267
  0
LINE
  8
0
 62
7
  6
CONTINUOUS
 10
150.0362418212
 20
30.6583272086
 11
150.2096793212
 21
30.6260635193
  0
LINE
  8
0
 62
7
  6
CONTINUOUS
 10
150.498741835
 20
30.7228545871
 11
150.1518667936
 21
30.7873819712
  0
LINE
  8
0
 62
7
  6
CONTINUOUS
 10
152.9268669177
 20
31.4649194539
 11
153.0424918074
 21
31.4326557675
  0
LINE
  8
0
 62
7
  6
CONTINUOUS
 10
155.239367028
 20
31.4649194539
 11
155.3549915869
 21
31.4326557675
  0
LINE
  8
0
 62
7
  6
CONTINUOUS
 10
159.575304528
 20
30.7551182848
 11
159.4596793074
 21
30.7873819712
  0
LINE
  8
0
 62
7
  6
CONTINUOUS
 10
158.0721793074
 20
31.4649194539
 11
158.187804528
 21
31.4326557675
  0
LINE
  8
0
 62
7
  6
CONTINUOUS
 10
159.228429528
 20
30.7228545871
 11
159.401867028
 21
30.6583272086
  0
LINE
  8
0
 62
7
  6
CONTINUOUS
 10
158.4190543074
 20
31.5294468267
 11
158.2456168074
 21
31.5939741996
  0
LINE
  8
0
 62
7
  6
CONTINUOUS
 10
159.6331168074
 20
31.2390736489
 11
159.4596793074
 21
31.3036010218
  0
LINE
  8
0
 62
7
  6
CONTINUOUS
 10
160.442492028
 20
30.9809641124
 11
160.615929528
 21
30.9164367395
  0
LINE
  8
0
 62
7
  6
CONTINUOUS
 10
160.8471793074
 20
31.4971831403
 11
160.6737418074
 21
31.5617105132
  0
LINE
  8
0
 62
7
  6
CONTINUOUS
 10
159.228429528
 20
31.2390736489
 11
159.4596793074
 21
31.1422825445
  0
LINE
  8
0
 62
7
  6
CONTINUOUS
 10
160.8471793074
 20
30.9809641124
 11
160.615929528
 21
31.0777551716
  0
LINE
  8
0
 62
7
  6
CONTINUOUS
 10
159.401867028
 20
31.3681283946
 11
159.4596793074
 21
31.4326557675
  0
LINE
  8
0
 62
7
  6
CONTINUOUS
 10
149.8628043005
 20
31.4971831403
 11
149.7471793074
 21
31.4326557675
  0
LINE
  8
0
 62
7
  6
CONTINUOUS
 10
149.9784292936
 20
31.3358647082
 11
150.1518667936
 21
31.4326557675
  0
LINE
  8
0
 62
7
  6
CONTINUOUS
 10
152.2909293626
 20
31.5294468267
 11
152.1753043074
 21
31.4649194539
  0
LINE
  8
0
 62
7
  6
CONTINUOUS
 10
152.1753043074
 20
31.3358647082
 11
152.2909293626
 21
31.400392081
  0
LINE
  8
0
 62
7
  6
CONTINUOUS
 10
151.1924917523
 20
30.6905909007
 11
151.3659292523
 21
30.7873819712
  0
LINE
  8
0
 62
7
  6
CONTINUOUS
 10
150.2096793212
 20
30.6260635193
 11
150.5565542799
 21
30.5937998301
  0
LINE
  8
0
 62
7
  6
CONTINUOUS
 10
154.3143669177
 20
30.6260635193
 11
154.5456166972
 21
30.5937998301
  0
LINE
  8
0
 62
7
  6
CONTINUOUS
 10
152.6956168074
 20
31.4971831403
 11
152.9268669177
 21
31.4649194539
  0
LINE
  8
0
 62
7
  6
CONTINUOUS
 10
155.0081169177
 20
31.4971831403
 11
155.239367028
 21
31.4649194539
  0
LINE
  8
0
 62
7
  6
CONTINUOUS
 10
159.4596793074
 20
31.1422825445
 11
160.442492028
 21
30.9809641124
  0
LINE
  8
0
 62
7
  6
CONTINUOUS
 10
160.615929528
 20
31.0777551716
 11
159.6331168074
 21
31.2390736489
  0
LINE
  8
0
 62
7
  6
CONTINUOUS
 10
153.1003044177
 20
31.5939741996
 11
152.9268669177
 21
31.626237886
  0
LINE
  8
0
 62
7
  6
CONTINUOUS
 10
159.401867028
 20
30.6583272086
 11
159.575304528
 21
30.6260635193
  0
LINE
  8
0
 62
7
  6
CONTINUOUS
 10
158.2456168074
 20
31.5939741996
 11
158.0721793074
 21
31.626237886
  0
LINE
  8
0
 62
7
  6
CONTINUOUS
 10
160.5003043074
 20
31.4649194539
 11
160.615929528
 21
31.4326557675
  0
LINE
  8
0
 62
7
  6
CONTINUOUS
 10
160.6737418074
 20
30.8519093441
 11
160.615929528
 21
30.7873819712
  0
LINE
  8
0
 62
7
  6
CONTINUOUS
 10
159.228429528
 20
31.5294468267
 11
159.1128043074
 21
31.4326557675
  0
LINE
  8
0
 62
7
  6
CONTINUOUS
 10
154.1409294177
 20
31.5617105132
 11
154.0253041972
 21
31.4971831403
  0
LINE
  8
0
 62
7
  6
CONTINUOUS
 10
154.1987416972
 20
31.1745462761
 11
154.0831168074
 21
31.1100188581
  0
LINE
  8
0
 62
7
  6
CONTINUOUS
 10
154.3143669177
 20
31.0132277988
 11
154.4299918074
 21
31.0777551716
  0
LINE
  8
0
 62
7
  6
CONTINUOUS
 10
151.8862417523
 20
30.5937998301
 11
152.1753043074
 21
30.5937998301
  0
LINE
  8
0
 62
7
  6
CONTINUOUS
 10
153.2159293074
 20
30.5937998301
 11
153.5049916972
 21
30.5937998301
  0
LINE
  8
0
 62
7
  6
CONTINUOUS
 10
154.5456166972
 20
30.5937998301
 11
154.8924916972
 21
30.5937998301
  0
LINE
  8
0
 62
7
  6
CONTINUOUS
 10
155.5284290869
 20
30.5937998301
 11
155.8174918074
 21
30.5937998301
  0
LINE
  8
0
 62
7
  6
CONTINUOUS
 10
156.279992028
 20
30.5937998301
 11
156.5690540869
 21
30.5937998301
  0
LINE
  8
0
 62
7
  6
CONTINUOUS
 10
157.0315543074
 20
30.5937998301
 11
157.320617028
 21
30.5937998301
  0
LINE
  8
0
 62
7
  6
CONTINUOUS
 10
158.361242028
 20
30.5937998301
 11
158.6503040869
 21
30.5937998301
  0
LINE
  8
0
 62
7
  6
CONTINUOUS
 10
159.922179528
 20
30.5937998301
 11
160.269054528
 21
30.5937998301
  0
LINE
  8
0
 62
7
  6
CONTINUOUS
 10
160.269054528
 20
30.7228545871
 11
159.922179528
 21
30.7228545871
  0
LINE
  8
0
 62
7
  6
CONTINUOUS
 10
154.8924916972
 20
30.7228545871
 11
154.5456166972
 21
30.7228545871
  0
LINE
  8
0
 62
7
  6
CONTINUOUS
 10
159.401867028
 20
30.8519093441
 11
159.1128043074
 21
30.8519093441
  0
LINE
  8
0
 62
7
  6
CONTINUOUS
 10
151.4237418626
 20
30.9164367395
 11
151.1346793074
 21
30.9164367395
  0
LINE
  8
0
 62
7
  6
CONTINUOUS
 10
150.498741835
 20
31.4971831403
 11
150.9034292799
 21
31.4649194539
  0
LINE
  8
0
 62
7
  6
CONTINUOUS
 10
150.9612418074
 20
31.5939741996
 11
150.5565542799
 21
31.626237886
  0
LINE
  8
0
 62
7
  6
CONTINUOUS
 10
159.575304528
 20
30.6260635193
 11
159.922179528
 21
30.5937998301
  0
LINE
  8
0
 62
7
  6
CONTINUOUS
 10
159.922179528
 20
30.7228545871
 11
159.575304528
 21
30.7551182848
  0
LINE
  8
0
 62
7
  6
CONTINUOUS
 10
155.3549915869
 20
31.5939741996
 11
155.0081169177
 21
31.626237886
  0
LINE
  8
0
 62
7
  6
CONTINUOUS
 10
160.1534293074
 20
31.4971831403
 11
160.5003043074
 21
31.4649194539
  0
LINE
  8
0
 62
7
  6
CONTINUOUS
 10
160.5003043074
 20
31.5939741996
 11
160.1534293074
 21
31.626237886
  0
LINE
  8
0
 62
7
  6
CONTINUOUS
 10
157.840929528
 20
31.4971831403
 11
158.0721793074
 21
31.4649194539
  0
LINE
  8
0
 62
7
  6
CONTINUOUS
 10
160.6737418074
 20
31.5617105132
 11
160.5003043074
 21
31.5939741996
  0
LINE
  8
0
 62
7
  6
CONTINUOUS
 10
160.8471793074
 20
30.6905909007
 11
160.9628038663
 21
30.7873819712
  0
LINE
  8
0
 62
7
  6
CONTINUOUS
 10
155.3549915869
 20
30.8841730531
 11
155.1815540869
 21
30.7873819712
  0
LINE
  8
0
 62
7
  6
CONTINUOUS
 10
157.4362415869
 20
31.5294468267
 11
157.320617028
 21
31.4649194539
  0
LINE
  8
0
 62
7
  6
CONTINUOUS
 10
157.320617028
 20
31.3358647082
 11
157.4362415869
 21
31.400392081
  0
LINE
  8
0
 62
7
  6
CONTINUOUS
 10
150.0362418212
 20
31.5617105132
 11
149.8628043005
 21
31.4971831403
  0
LINE
  8
0
 62
7
  6
CONTINUOUS
 10
152.4643666972
 20
31.5939741996
 11
152.2909293626
 21
31.5294468267
  0
LINE
  8
0
 62
7
  6
CONTINUOUS
 10
152.2909293626
 20
31.400392081
 11
152.4643666972
 21
31.4649194539
  0
LINE
  8
0
 62
7
  6
CONTINUOUS
 10
151.0768668626
 20
30.8196456577
 11
150.9034292799
 21
30.7551182848
  0
LINE
  8
0
 62
7
  6
CONTINUOUS
 10
160.5003043074
 20
30.7551182848
 11
160.269054528
 21
30.7228545871
  0
LINE
  8
0
 62
7
  6
CONTINUOUS
 10
154.8924916972
 20
30.5937998301
 11
155.1815540869
 21
30.6260635193
  0
LINE
  8
0
 62
7
  6
CONTINUOUS
 10
160.269054528
 20
30.5937998301
 11
160.615929528
 21
30.6260635193
  0
LINE
  8
0
 62
7
  6
CONTINUOUS
 10
150.5565542799
 20
30.5937998301
 11
150.9612418074
 21
30.6260635193
  0
LINE
  8
0
 62
7
  6
CONTINUOUS
 10
150.9034292799
 20
30.7551182848
 11
150.498741835
 21
30.7228545871
  0
LINE
  8
0
 62
7
  6
CONTINUOUS
 10
154.7768668074
 20
31.1422825445
 11
155.412804528
 21
31.1422825445
  0
LINE
  8
0
 62
7
  6
CONTINUOUS
 10
155.412804528
 20
31.2713373354
 11
154.7768668074
 21
31.2713373354
  0
LINE
  8
0
 62
7
  6
CONTINUOUS
 10
151.1346793074
 20
31.3036010218
 11
151.4237418626
 21
31.3036010218
  0
LINE
  8
0
 62
7
  6
CONTINUOUS
 10
153.9674919177
 20
31.3681283946
 11
154.2565543074
 21
31.3681283946
  0
LINE
  8
0
 62
7
  6
CONTINUOUS
 10
160.6737418074
 20
31.3681283946
 11
160.9628038663
 21
31.3681283946
  0
LINE
  8
0
 62
7
  6
CONTINUOUS
 10
154.6612419177
 20
31.4971831403
 11
155.0081169177
 21
31.4971831403
  0
LINE
  8
0
 62
7
  6
CONTINUOUS
 10
159.8065543074
 20
31.4971831403
 11
160.1534293074
 21
31.4971831403
  0
LINE
  8
0
 62
7
  6
CONTINUOUS
 10
160.1534293074
 20
31.626237886
 11
159.8065543074
 21
31.626237886
  0
LINE
  8
0
 62
7
  6
CONTINUOUS
 10
158.0721793074
 20
31.626237886
 11
157.840929528
 21
31.626237886
  0
LINE
  8
0
 62
7
  6
CONTINUOUS
 10
157.320617028
 20
31.626237886
 11
157.0315543074
 21
31.626237886
  0
LINE
  8
0
 62
7
  6
CONTINUOUS
 10
156.5690540869
 20
31.626237886
 11
156.279992028
 21
31.626237886
  0
LINE
  8
0
 62
7
  6
CONTINUOUS
 10
155.0081169177
 20
31.626237886
 11
154.6612419177
 21
31.626237886
  0
LINE
  8
0
 62
7
  6
CONTINUOUS
 10
152.9268669177
 20
31.626237886
 11
152.6956168074
 21
31.626237886
  0
LINE
  8
0
 62
7
  6
CONTINUOUS
 10
156.279992028
 20
31.9488748406
 11
156.5690540869
 21
31.9488748406
  0
LINE
  8
0
 62
7
  6
CONTINUOUS
 10
156.5690540869
 20
32.1101932727
 11
156.279992028
 21
32.1101932727
  0
LINE
  8
0
 62
7
  6
CONTINUOUS
 10
152.1753043074
 20
32.1101932727
 11
151.8862417523
 21
32.1101932727
  0
LINE
  8
0
 62
7
  6
CONTINUOUS
 10
151.2130860697
 20
32.3970785186
 11
151.6256574183
 21
32.3970785186
  0
LINE
  8
0
 62
7
  6
CONTINUOUS
 10
152.852430332
 20
32.3970785186
 11
154.245872955
 21
32.3970785186
  0
LINE
  8
0
 62
7
  6
CONTINUOUS
 10
154.5737418074
 20
32.3970785186
 11
155.9671844304
 21
32.3970785186
  0
LINE
  8
0
 62
7
  6
CONTINUOUS
 10
157.852430332
 20
32.3970785186
 11
159.245872955
 21
32.3970785186
  0
LINE
  8
0
 62
7
  6
CONTINUOUS
 10
159.5737418074
 20
32.3970785186
 11
160.9671844304
 21
32.3970785186
  0
LINE
  8
0
 62
7
  6
CONTINUOUS
 10
157.6096790869
 20
31.5939741996
 11
157.4362415869
 21
31.5294468267
  0
LINE
  8
0
 62
7
  6
CONTINUOUS
 10
155.1815540869
 20
30.6260635193
 11
155.3549915869
 21
30.6905909007
  0
LINE
  8
0
 62
7
  6
CONTINUOUS
 10
160.615929528
 20
30.6260635193
 11
160.8471793074
 21
30.6905909007
  0
LINE
  8
0
 62
7
  6
CONTINUOUS
 10
160.615929528
 20
30.7873819712
 11
160.5003043074
 21
30.7551182848
  0
LINE
  8
0
 62
7
  6
CONTINUOUS
 10
159.575304528
 20
31.4649194539
 11
159.8065543074
 21
31.4971831403
  0
LINE
  8
0
 62
7
  6
CONTINUOUS
 10
157.6096790869
 20
31.4649194539
 11
157.840929528
 21
31.4971831403
  0
LINE
  8
0
 62
7
  6
CONTINUOUS
 10
154.5456166972
 20
31.1100188581
 11
154.7768668074
 21
31.1422825445
  0
LINE
  8
0
 62
7
  6
CONTINUOUS
 10
157.840929528
 20
31.626237886
 11
157.6096790869
 21
31.5939741996
  0
LINE
  8
0
 62
7
  6
CONTINUOUS
 10
154.4299918074
 20
31.4649194539
 11
154.6612419177
 21
31.4971831403
  0
LINE
  8
0
 62
7
  6
CONTINUOUS
 10
159.8065543074
 20
31.626237886
 11
159.4596793074
 21
31.5939741996
  0
LINE
  8
0
 62
7
  6
CONTINUOUS
 10
154.7768668074
 20
31.2713373354
 11
154.4299918074
 21
31.2390736489
  0
LINE
  8
0
 62
7
  6
CONTINUOUS
 10
150.5565542799
 20
31.626237886
 11
150.2096793212
 21
31.5939741996
  0
LINE
  8
0
 62
7
  6
CONTINUOUS
 10
154.6612419177
 20
31.626237886
 11
154.2565543074
 21
31.5939741996
  0
LINE
  8
0
 62
7
  6
CONTINUOUS
 10
152.0327582009
 20
33.5446195022
 11
151.3770204959
 21
33.5446195022
  0
LINE
  8
0
 62
7
  6
CONTINUOUS
 10
157.4362415869
 20
31.400392081
 11
157.6096790869
 21
31.4649194539
  0
LINE
  8
0
 62
7
  6
CONTINUOUS
 10
159.4596793074
 20
31.4326557675
 11
159.575304528
 21
31.4649194539
  0
LINE
  8
0
 62
7
  6
CONTINUOUS
 10
159.4596793074
 20
31.5939741996
 11
159.228429528
 21
31.5294468267
  0
LINE
  8
0
 62
7
  6
CONTINUOUS
 10
155.1815540869
 20
30.7873819712
 11
154.8924916972
 21
30.7228545871
  0
LINE
  8
0
 62
7
  6
CONTINUOUS
 10
152.4643666972
 20
31.4649194539
 11
152.6956168074
 21
31.4971831403
  0
LINE
  8
0
 62
7
  6
CONTINUOUS
 10
152.6956168074
 20
31.626237886
 11
152.4643666972
 21
31.5939741996
  0
LINE
  8
0
 62
7
  6
CONTINUOUS
 10
150.2674918074
 20
31.4649194539
 11
150.498741835
 21
31.4971831403
  0
LINE
  8
0
 62
7
  6
CONTINUOUS
 10
156.7868565615
 20
35.0200293383
 11
157.4425942664
 21
35.0200293383
  0
LINE
  8
0
 62
7
  6
CONTINUOUS
 10
154.4299918074
 20
31.0777551716
 11
154.5456166972
 21
31.1100188581
  0
LINE
  8
0
 62
7
  6
CONTINUOUS
 10
154.4299918074
 20
31.2390736489
 11
154.1987416972
 21
31.1745462761
  0
LINE
  8
0
 62
7
  6
CONTINUOUS
 10
154.3143669177
 20
31.4326557675
 11
154.4299918074
 21
31.4649194539
  0
LINE
  8
0
 62
7
  6
CONTINUOUS
 10
150.9612418074
 20
30.6260635193
 11
151.1924917523
 21
30.6905909007
  0
LINE
  8
0
 62
7
  6
CONTINUOUS
 10
154.2565543074
 20
31.5939741996
 11
154.1409294177
 21
31.5617105132
  0
LINE
  8
0
 62
7
  6
CONTINUOUS
 10
150.2096793212
 20
31.5939741996
 11
150.0362418212
 21
31.5617105132
  0
LINE
  8
0
 62
7
  6
CONTINUOUS
 10
160.9671844304
 20
36.1675703219
 11
159.5737418074
 21
36.1675703219
  0
LINE
  8
0
 62
7
  6
CONTINUOUS
 10
157.6065286927
 20
36.1675703219
 11
157.1939573441
 21
36.1675703219
  0
LINE
  8
0
 62
7
  6
CONTINUOUS
 10
155.9671844304
 20
36.1675703219
 11
154.5737418074
 21
36.1675703219
  0
LINE
  8
0
 62
7
  6
CONTINUOUS
 10
154.245872955
 20
36.1675703219
 11
152.852430332
 21
36.1675703219
  0
LINE
  8
0
 62
7
  6
CONTINUOUS
 10
150.9671844304
 20
36.1675703219
 11
149.5737418074
 21
36.1675703219
  0
LINE
  8
0
 62
7
  6
CONTINUOUS
 10
150.1518667936
 20
31.4326557675
 11
150.2674918074
 21
31.4649194539
  0
CIRCLE
  8
0
 62
7
  6
CONTINUOUS
 10
160.2704631189
 20
38.5036358957
 40
2.0901639344
  0
ARC
  8
0
 62
7
  6
CONTINUOUS
 10
151.2130860697
 20
34.0364227809
 40
1.6393442623
 50
180.0
 51
270.0
  0
ARC
  8
0
 62
7
  6
CONTINUOUS
 10
157.6065286927
 20
34.5282260596
 40
1.6393442623
 50
0.0
 51
90.0
  0
ARC
  8
0
 62
7
  6
CONTINUOUS
 10
151.6256574183
 20
33.8724883547
 40
1.4754098361
 50
270.0
 51
326.2510114041
  0
ARC
  8
0
 62
7
  6
CONTINUOUS
 10
157.1939573441
 20
34.6921604858
 40
1.4754098361
 50
90.0
 51
146.2510114041
  0
ARC
  8
0
 62
7
  6
CONTINUOUS
 10
152.0327582009
 20
34.3642916334
 40
0.8196721311
 50
270.0
 51
360.0
  0
ARC
  8
0
 62
7
  6
CONTINUOUS
 10
156.7868565615
 20
34.2003572071
 40
0.8196721311
 50
90.0
 51
180.0
  0
ARC
  8
0
 62
7
  6
CONTINUOUS
 10
151.3770204959
 20
33.9544555678
 40
0.4098360656
 50
180.0
 51
270.0
  0
ARC
  8
0
 62
7
  6
CONTINUOUS
 10
157.4425942664
 20
34.6101932727
 40
0.4098360656
 50
0.0
 51
90.0
  0
SOLID
  8
0
 62
7
  6
CONTINUOUS
 10
156.279992028
 20
31.9488752009
 11
156.279992028
 21
32.1101936845
 12
156.5690540869
 22
31.9488752009
 13
156.5690540869
 23
32.1101936845
  0
SOLID
  8
0
 62
7
  6
CONTINUOUS
 10
150.5565542799
 20
31.6262382337
 11
150.9612418074
 21
31.5939740028
 12
150.2096793212
 22
31.5939740028
 13
150.2096793212
 23
31.5939740028
  0
SOLID
  8
0
 62
7
  6
CONTINUOUS
 10
150.0362418212
 20
31.5617111435
 11
150.2096793212
 21
31.5939740028
 12
150.9612418074
 22
31.5939740028
 13
150.9612418074
 23
31.5939740028
  0
SOLID
  8
0
 62
7
  6
CONTINUOUS
 10
150.9612418074
 20
31.5939740028
 11
151.1924917523
 21
31.5294468402
 12
150.0362418212
 22
31.5617111435
 13
150.0362418212
 23
31.5617111435
  0
SOLID
  8
0
 62
7
  6
CONTINUOUS
 10
149.8628043005
 20
31.49718259
 11
150.0362418212
 21
31.5617111435
 12
151.1924917523
 22
31.5294468402
 13
151.1924917523
 23
31.5294468402
  0
SOLID
  8
0
 62
7
  6
CONTINUOUS
 10
149.8628043005
 20
31.49718259
 11
151.1924917523
 21
31.5294468402
 12
150.498741835
 22
31.49718259
 13
150.498741835
 23
31.49718259
  0
SOLID
  8
0
 62
7
  6
CONTINUOUS
 10
150.498741835
 20
31.49718259
 11
151.1924917523
 21
31.5294468402
 12
150.9034292799
 22
31.4649197501
 13
150.9034292799
 23
31.4649197501
  0
SOLID
  8
0
 62
7
  6
CONTINUOUS
 10
151.1924917523
 20
31.5294468402
 11
151.3659292523
 21
31.4326554468
 12
150.9034292799
 22
31.4649197501
 13
150.9034292799
 23
31.4649197501
  0
SOLID
  8
0
 62
7
  6
CONTINUOUS
 10
151.0768668626
 20
31.4003926599
 11
150.9034292799
 21
31.4649197501
 12
151.3659292523
 22
31.4326554468
 13
151.3659292523
 23
31.4326554468
  0
SOLID
  8
0
 62
7
  6
CONTINUOUS
 10
151.0768668626
 20
31.4003926599
 11
151.3659292523
 21
31.4326554468
 12
151.1346793074
 22
31.3036013776
 13
151.1346793074
 23
31.3036013776
  0
SOLID
  8
0
 62
7
  6
CONTINUOUS
 10
151.3659292523
 20
31.4326554468
 11
151.4237418626
 21
31.3036013776
 12
151.1346793074
 22
31.3036013776
 13
151.1346793074
 23
31.3036013776
  0
SOLID
  8
0
 62
7
  6
CONTINUOUS
 10
152.4643666972
 20
31.5939739754
 11
152.6956168074
 21
31.6262382787
 12
152.9268669177
 22
31.6262382787
 13
152.9268669177
 23
31.6262382787
  0
SOLID
  8
0
 62
7
  6
CONTINUOUS
 10
152.9268669177
 20
31.6262382787
 11
153.1003044177
 21
31.5939739754
 12
152.4643666972
 22
31.5939739754
 13
152.4643666972
 23
31.5939739754
  0
SOLID
  8
0
 62
7
  6
CONTINUOUS
 10
152.2909293626
 20
31.5294468852
 11
152.4643666972
 21
31.5939739754
 12
153.1003044177
 22
31.5939739754
 13
153.1003044177
 23
31.5939739754
  0
SOLID
  8
0
 62
7
  6
CONTINUOUS
 10
153.1003044177
 20
31.5939739754
 11
153.2737419177
 21
31.5294468852
 12
152.2909293626
 22
31.5294468852
 13
152.2909293626
 23
31.5294468852
  0
SOLID
  8
0
 62
7
  6
CONTINUOUS
 10
153.2737419177
 20
31.5294468852
 11
152.6956168074
 21
31.4971825369
 12
152.2909293626
 22
31.5294468852
 13
152.2909293626
 23
31.5294468852
  0
SOLID
  8
0
 62
7
  6
CONTINUOUS
 10
152.1753043074
 20
31.4649197951
 11
152.2909293626
 21
31.5294468852
 12
152.6956168074
 22
31.4971825369
 13
152.6956168074
 23
31.4971825369
  0
SOLID
  8
0
 62
7
  6
CONTINUOUS
 10
152.6956168074
 20
31.4971825369
 11
152.4643666972
 21
31.4649197951
 12
152.1753043074
 22
31.4649197951
 13
152.1753043074
 23
31.4649197951
  0
SOLID
  8
0
 62
7
  6
CONTINUOUS
 10
152.6956168074
 20
31.4971825369
 11
153.2737419177
 21
31.5294468852
 12
152.9268669177
 22
31.4649197951
 13
152.9268669177
 23
31.4649197951
  0
SOLID
  8
0
 62
7
  6
CONTINUOUS
 10
153.2737419177
 20
31.5294468852
 11
153.3893668074
 21
31.4649197951
 12
152.9268669177
 22
31.4649197951
 13
152.9268669177
 23
31.4649197951
  0
SOLID
  8
0
 62
7
  6
CONTINUOUS
 10
153.0424918074
 20
31.4326554468
 11
152.9268669177
 21
31.4649197951
 12
153.3893668074
 22
31.4649197951
 13
153.3893668074
 23
31.4649197951
  0
SOLID
  8
0
 62
7
  6
CONTINUOUS
 10
153.3893668074
 20
31.4649197951
 11
153.4471794177
 21
31.4003927049
 12
153.0424918074
 22
31.4326554468
 13
153.0424918074
 23
31.4326554468
  0
SOLID
  8
0
 62
7
  6
CONTINUOUS
 10
153.1581166972
 20
31.3681283566
 11
153.0424918074
 21
31.4326554468
 12
153.4471794177
 22
31.4003927049
 13
153.4471794177
 23
31.4003927049
  0
SOLID
  8
0
 62
7
  6
CONTINUOUS
 10
153.1581166972
 20
31.3681283566
 11
153.4471794177
 21
31.4003927049
 12
153.2159293074
 22
31.2390742213
 13
153.2159293074
 23
31.2390742213
  0
SOLID
  8
0
 62
7
  6
CONTINUOUS
 10
153.4471794177
 20
31.4003927049
 11
153.5049916972
 21
31.2390742213
 12
153.2159293074
 22
31.2390742213
 13
153.2159293074
 23
31.2390742213
  0
SOLID
  8
0
 62
7
  6
CONTINUOUS
 10
152.4643666972
 20
31.4649197951
 11
152.2909293626
 21
31.4003927049
 12
152.1753043074
 22
31.4649197951
 13
152.1753043074
 23
31.4649197951
  0
SOLID
  8
0
 62
7
  6
CONTINUOUS
 10
152.2909293626
 20
31.4003927049
 11
152.1753043074
 21
31.3358640533
 12
152.1753043074
 22
31.4649197951
 13
152.1753043074
 23
31.4649197951
  0
SOLID
  8
0
 62
7
  6
CONTINUOUS
 10
152.1753043074
 20
31.3358640533
 11
151.8862417523
 21
30.5938002869
 12
152.1753043074
 22
31.4649197951
 13
152.1753043074
 23
31.4649197951
  0
SOLID
  8
0
 62
7
  6
CONTINUOUS
 10
152.1753043074
 20
31.4649197951
 11
151.8862417523
 21
30.5938002869
 12
152.1753043074
 22
32.1101937295
 13
152.1753043074
 23
32.1101937295
  0
SOLID
  8
0
 62
7
  6
CONTINUOUS
 10
151.8862417523
 20
30.5938002869
 11
151.8862417523
 21
32.1101937295
 12
152.1753043074
 22
32.1101937295
 13
152.1753043074
 23
32.1101937295
  0
SOLID
  8
0
 62
7
  6
CONTINUOUS
 10
152.1753043074
 20
31.3358640533
 11
152.1753043074
 21
30.5938002869
 12
151.8862417523
 22
30.5938002869
 13
151.8862417523
 23
30.5938002869
  0
SOLID
  8
0
 62
7
  6
CONTINUOUS
 10
153.2159293074
 20
30.5938002869
 11
153.2159293074
 21
31.2390742213
 12
153.5049916972
 22
31.2390742213
 13
153.5049916972
 23
31.2390742213
  0
SOLID
  8
0
 62
7
  6
CONTINUOUS
 10
153.5049916972
 20
31.2390742213
 11
153.5049916972
 21
30.5938002869
 12
153.2159293074
 22
30.5938002869
 13
153.2159293074
 23
30.5938002869
  0
SOLID
  8
0
 62
7
  6
CONTINUOUS
 10
154.2565543074
 20
31.5939738288
 11
154.6612419177
 21
31.6262385959
 12
155.0081169177
 22
31.6262385959
 13
155.0081169177
 23
31.6262385959
  0
SOLID
  8
0
 62
7
  6
CONTINUOUS
 10
155.0081169177
 20
31.6262385959
 11
155.3549915869
 21
31.5939738288
 12
154.2565543074
 22
31.5939738288
 13
154.2565543074
 23
31.5939738288
  0
SOLID
  8
0
 62
7
  6
CONTINUOUS
 10
154.1409294177
 20
31.5617111435
 11
154.2565543074
 21
31.5939738288
 12
155.3549915869
 22
31.5939738288
 13
155.3549915869
 23
31.5939738288
  0
SOLID
  8
0
 62
7
  6
CONTINUOUS
 10
155.3549915869
 20
31.5939738288
 11
155.5284290869
 21
31.5294468402
 12
154.1409294177
 22
31.5617111435
 13
154.1409294177
 23
31.5617111435
  0
SOLID
  8
0
 62
7
  6
CONTINUOUS
 10
154.0253041972
 20
31.4971826249
 11
154.1409294177
 21
31.5617111435
 12
155.5284290869
 22
31.5294468402
 13
155.5284290869
 23
31.5294468402
  0
SOLID
  8
0
 62
7
  6
CONTINUOUS
 10
154.0253041972
 20
31.4971826249
 11
155.5284290869
 21
31.5294468402
 12
154.6612419177
 22
31.4971826249
 13
154.6612419177
 23
31.4971826249
  0
SOLID
  8
0
 62
7
  6
CONTINUOUS
 10
154.6612419177
 20
31.4971826249
 11
155.5284290869
 21
31.5294468402
 12
155.0081169177
 22
31.4971826249
 13
155.0081169177
 23
31.4971826249
  0
SOLID
  8
0
 62
7
  6
CONTINUOUS
 10
155.0081169177
 20
31.4971826249
 11
155.5284290869
 21
31.5294468402
 12
155.239367028
 22
31.4649194065
 13
155.239367028
 23
31.4649194065
  0
SOLID
  8
0
 62
7
  6
CONTINUOUS
 10
155.5284290869
 20
31.5294468402
 11
155.6440543074
 21
31.4649194065
 12
155.239367028
 22
31.4649194065
 13
155.239367028
 23
31.4649194065
  0
SOLID
  8
0
 62
7
  6
CONTINUOUS
 10
153.9674919177
 20
31.4326554138
 11
154.0253041972
 21
31.4971826249
 12
154.6612419177
 22
31.4971826249
 13
154.6612419177
 23
31.4971826249
  0
SOLID
  8
0
 62
7
  6
CONTINUOUS
 10
155.3549915869
 20
31.4326554138
 11
155.239367028
 21
31.4649194065
 12
155.6440543074
 22
31.4649194065
 13
155.6440543074
 23
31.4649194065
  0
SOLID
  8
0
 62
7
  6
CONTINUOUS
 10
155.3549915869
 20
31.4326554138
 11
155.6440543074
 21
31.4649194065
 12
155.412804528
 22
31.3681282026
 13
155.412804528
 23
31.3681282026
  0
SOLID
  8
0
 62
7
  6
CONTINUOUS
 10
155.6440543074
 20
31.4649194065
 11
155.7018665869
 21
31.3681282026
 12
155.412804528
 22
31.3681282026
 13
155.412804528
 23
31.3681282026
  0
SOLID
  8
0
 62
7
  6
CONTINUOUS
 10
155.412804528
 20
31.2713369632
 11
155.412804528
 21
31.3681282026
 12
155.7018665869
 22
31.3681282026
 13
155.7018665869
 23
31.3681282026
  0
SOLID
  8
0
 62
7
  6
CONTINUOUS
 10
155.412804528
 20
31.2713369632
 11
155.7018665869
 21
31.3681282026
 12
155.412804528
 22
31.1422827828
 13
155.412804528
 23
31.1422827828
  0
SOLID
  8
0
 62
7
  6
CONTINUOUS
 10
155.412804528
 20
31.1422827828
 11
155.7018665869
 21
31.3681282026
 12
155.412804528
 22
30.9487004259
 13
155.412804528
 23
30.9487004259
  0
SOLID
  8
0
 62
7
  6
CONTINUOUS
 10
155.7018665869
 20
31.3681282026
 11
155.7018665869
 21
30.8519086025
 12
155.412804528
 22
30.9487004259
 13
155.412804528
 23
30.9487004259
  0
SOLID
  8
0
 62
7
  6
CONTINUOUS
 10
157.6096790869
 20
31.5939736268
 11
157.840929528
 21
31.6262383465
 12
158.0721793074
 22
31.6262383465
 13
158.0721793074
 23
31.6262383465
  0
SOLID
  8
0
 62
7
  6
CONTINUOUS
 10
158.0721793074
 20
31.6262383465
 11
158.2456168074
 21
31.5939736268
 12
157.6096790869
 22
31.5939736268
 13
157.6096790869
 23
31.5939736268
  0
SOLID
  8
0
 62
7
  6
CONTINUOUS
 10
157.4362415869
 20
31.5294472848
 11
157.6096790869
 21
31.5939736268
 12
158.2456168074
 22
31.5939736268
 13
158.2456168074
 23
31.5939736268
  0
SOLID
  8
0
 62
7
  6
CONTINUOUS
 10
158.2456168074
 20
31.5939736268
 11
158.4190543074
 21
31.5294472848
 12
157.4362415869
 22
31.5294472848
 13
157.4362415869
 23
31.5294472848
  0
SOLID
  8
0
 62
7
  6
CONTINUOUS
 10
158.4190543074
 20
31.5294472848
 11
157.840929528
 21
31.4971825369
 12
157.4362415869
 22
31.5294472848
 13
157.4362415869
 23
31.5294472848
  0
SOLID
  8
0
 62
7
  6
CONTINUOUS
 10
157.320617028
 20
31.4649199103
 11
157.4362415869
 21
31.5294472848
 12
157.840929528
 22
31.4971825369
 13
157.840929528
 23
31.4971825369
  0
SOLID
  8
0
 62
7
  6
CONTINUOUS
 10
157.840929528
 20
31.4971825369
 11
157.6096790869
 21
31.4649199103
 12
157.320617028
 22
31.4649199103
 13
157.320617028
 23
31.4649199103
  0
SOLID
  8
0
 62
7
  6
CONTINUOUS
 10
157.840929528
 20
31.4971825369
 11
158.4190543074
 21
31.5294472848
 12
158.0721793074
 22
31.4649199103
 13
158.0721793074
 23
31.4649199103
  0
SOLID
  8
0
 62
7
  6
CONTINUOUS
 10
158.4190543074
 20
31.5294472848
 11
158.534679528
 21
31.4649199103
 12
158.0721793074
 22
31.4649199103
 13
158.0721793074
 23
31.4649199103
  0
SOLID
  8
0
 62
7
  6
CONTINUOUS
 10
158.187804528
 20
31.4326554468
 11
158.0721793074
 21
31.4649199103
 12
158.534679528
 22
31.4649199103
 13
158.534679528
 23
31.4649199103
  0
SOLID
  8
0
 62
7
  6
CONTINUOUS
 10
158.187804528
 20
31.4326554468
 11
158.534679528
 21
31.4649199103
 12
158.3034290869
 22
31.3681288486
 13
158.3034290869
 23
31.3681288486
  0
SOLID
  8
0
 62
7
  6
CONTINUOUS
 10
158.534679528
 20
31.4649199103
 11
158.5924918074
 21
31.3681288486
 12
158.3034290869
 22
31.3681288486
 13
158.3034290869
 23
31.3681288486
  0
SOLID
  8
0
 62
7
  6
CONTINUOUS
 10
158.361242028
 20
31.2068093799
 11
158.3034290869
 21
31.3681288486
 12
158.5924918074
 22
31.3681288486
 13
158.5924918074
 23
31.3681288486
  0
SOLID
  8
0
 62
7
  6
CONTINUOUS
 10
158.5924918074
 20
31.3681288486
 11
158.6503040869
 21
31.2068093799
 12
158.361242028
 22
31.2068093799
 13
158.361242028
 23
31.2068093799
  0
SOLID
  8
0
 62
7
  6
CONTINUOUS
 10
157.6096790869
 20
31.4649199103
 11
157.4362415869
 21
31.4003926599
 12
157.320617028
 22
31.4649199103
 13
157.320617028
 23
31.4649199103
  0
SOLID
  8
0
 62
7
  6
CONTINUOUS
 10
157.4362415869
 20
31.4003926599
 11
157.320617028
 21
31.3358640533
 12
157.320617028
 22
31.4649199103
 13
157.320617028
 23
31.4649199103
  0
SOLID
  8
0
 62
7
  6
CONTINUOUS
 10
157.320617028
 20
31.3358640533
 11
157.0315543074
 21
30.5938003547
 12
157.320617028
 22
31.4649199103
 13
157.320617028
 23
31.4649199103
  0
SOLID
  8
0
 62
7
  6
CONTINUOUS
 10
157.320617028
 20
31.4649199103
 11
157.0315543074
 21
30.5938003547
 12
157.320617028
 22
31.6262383465
 13
157.320617028
 23
31.6262383465
  0
SOLID
  8
0
 62
7
  6
CONTINUOUS
 10
157.0315543074
 20
30.5938003547
 11
157.0315543074
 21
31.6262383465
 12
157.320617028
 22
31.6262383465
 13
157.320617028
 23
31.6262383465
  0
SOLID
  8
0
 62
7
  6
CONTINUOUS
 10
157.320617028
 20
31.3358640533
 11
157.320617028
 21
30.5938003547
 12
157.0315543074
 22
30.5938003547
 13
157.0315543074
 23
30.5938003547
  0
SOLID
  8
0
 62
7
  6
CONTINUOUS
 10
158.361242028
 20
30.5938003547
 11
158.361242028
 21
31.2068093799
 12
158.6503040869
 22
31.2068093799
 13
158.6503040869
 23
31.2068093799
  0
SOLID
  8
0
 62
7
  6
CONTINUOUS
 10
158.6503040869
 20
31.2068093799
 11
158.6503040869
 21
30.5938003547
 12
158.361242028
 22
30.5938003547
 13
158.361242028
 23
30.5938003547
  0
SOLID
  8
0
 62
7
  6
CONTINUOUS
 10
159.4596793074
 20
31.5939739474
 11
159.8065543074
 21
31.6262381969
 12
160.1534293074
 22
31.6262381969
 13
160.1534293074
 23
31.6262381969
  0
SOLID
  8
0
 62
7
  6
CONTINUOUS
 10
160.1534293074
 20
31.6262381969
 11
160.5003043074
 21
31.5939739474
 12
159.4596793074
 22
31.5939739474
 13
159.4596793074
 23
31.5939739474
  0
SOLID
  8
0
 62
7
  6
CONTINUOUS
 10
159.228429528
 20
31.5294468402
 11
159.4596793074
 21
31.5939739474
 12
160.5003043074
 22
31.5939739474
 13
160.5003043074
 23
31.5939739474
  0
SOLID
  8
0
 62
7
  6
CONTINUOUS
 10
159.228429528
 20
31.5294468402
 11
160.5003043074
 21
31.5939739304
 12
160.6737418074
 22
31.5617111435
 13
160.6737418074
 23
31.5617111435
  0
SOLID
  8
0
 62
7
  6
CONTINUOUS
 10
159.228429528
 20
31.5294468402
 11
160.6737418074
 21
31.5617111435
 12
159.8065543074
 22
31.4971825592
 13
159.8065543074
 23
31.4971825592
  0
SOLID
  8
0
 62
7
  6
CONTINUOUS
 10
159.8065543074
 20
31.4971825592
 11
160.6737418074
 21
31.5617111435
 12
160.1534293074
 22
31.4971825592
 13
160.1534293074
 23
31.4971825592
  0
SOLID
  8
0
 62
7
  6
CONTINUOUS
 10
160.6737418074
 20
31.5617111435
 11
160.8471793074
 21
31.4971825592
 12
160.1534293074
 22
31.4971825592
 13
160.1534293074
 23
31.4971825592
  0
SOLID
  8
0
 62
7
  6
CONTINUOUS
 10
160.5003043074
 20
31.4649197501
 11
160.1534293074
 21
31.4971825592
 12
160.8471793074
 22
31.4971825592
 13
160.8471793074
 23
31.4971825592
  0
SOLID
  8
0
 62
7
  6
CONTINUOUS
 10
159.1128043074
 20
31.4326555427
 11
159.228429528
 21
31.5294468402
 12
159.8065543074
 22
31.4971825592
 13
159.8065543074
 23
31.4971825592
  0
SOLID
  8
0
 62
7
  6
CONTINUOUS
 10
160.5003043074
 20
31.4649197501
 11
160.8471793074
 21
31.4971825592
 12
160.615929528
 22
31.4326555427
 13
160.615929528
 23
31.4326555427
  0
SOLID
  8
0
 62
7
  6
CONTINUOUS
 10
160.615929528
 20
31.4326555427
 11
160.8471793074
 21
31.4971825592
 12
160.6737418074
 22
31.3681283005
 13
160.6737418074
 23
31.3681283005
  0
SOLID
  8
0
 62
7
  6
CONTINUOUS
 10
160.8471793074
 20
31.4971825592
 11
160.9628038663
 21
31.3681283005
 12
160.6737418074
 22
31.3681283005
 13
160.6737418074
 23
31.3681283005
  0
SOLID
  8
0
 62
7
  6
CONTINUOUS
 10
150.2674918074
 20
31.4649197501
 11
149.7471793074
 21
31.4326554237
 12
150.498741835
 22
31.4971824493
 13
150.498741835
 23
31.4971824493
  0
SOLID
  8
0
 62
7
  6
CONTINUOUS
 10
149.7471793074
 20
31.4326554237
 11
149.8628043005
 21
31.4971824493
 12
150.498741835
 22
31.4971824493
 13
150.498741835
 23
31.4971824493
  0
SOLID
  8
0
 62
7
  6
CONTINUOUS
 10
150.2674918074
 20
31.4649197501
 11
150.1518667936
 21
31.4326554237
 12
149.7471793074
 22
31.4326554237
 13
149.7471793074
 23
31.4326554237
  0
SOLID
  8
0
 62
7
  6
CONTINUOUS
 10
149.6315543091
 20
31.3036012664
 11
149.7471793074
 21
31.4326554237
 12
150.1518667936
 22
31.4326554237
 13
150.1518667936
 23
31.4326554237
  0
SOLID
  8
0
 62
7
  6
CONTINUOUS
 10
153.9674919177
 20
31.4326554237
 11
154.6612419177
 21
31.4971825369
 12
154.4299918074
 22
31.4649197501
 13
154.4299918074
 23
31.4649197501
  0
SOLID
  8
0
 62
7
  6
CONTINUOUS
 10
154.4299918074
 20
31.4649197501
 11
154.3143669177
 21
31.4326554237
 12
153.9674919177
 22
31.4326554237
 13
153.9674919177
 23
31.4326554237
  0
SOLID
  8
0
 62
7
  6
CONTINUOUS
 10
153.9674919177
 20
31.3681283335
 11
153.9674919177
 21
31.4326554237
 12
154.3143669177
 22
31.4326554237
 13
154.3143669177
 23
31.4326554237
  0
SOLID
  8
0
 62
7
  6
CONTINUOUS
 10
154.3143669177
 20
31.4326554237
 11
154.2565543074
 21
31.3681283335
 12
153.9674919177
 22
31.3681283335
 13
153.9674919177
 23
31.3681283335
  0
SOLID
  8
0
 62
7
  6
CONTINUOUS
 10
159.1128043074
 20
31.4326555528
 11
159.8065543074
 21
31.4971825369
 12
159.575304528
 22
31.4649197501
 13
159.575304528
 23
31.4649197501
  0
SOLID
  8
0
 62
7
  6
CONTINUOUS
 10
159.575304528
 20
31.4649197501
 11
159.4596793074
 21
31.4326555528
 12
159.1128043074
 22
31.4326555528
 13
159.1128043074
 23
31.4326555528
  0
SOLID
  8
0
 62
7
  6
CONTINUOUS
 10
159.1128043074
 20
31.3681284626
 11
159.1128043074
 21
31.4326555528
 12
159.4596793074
 22
31.4326555528
 13
159.4596793074
 23
31.4326555528
  0
SOLID
  8
0
 62
7
  6
CONTINUOUS
 10
159.4596793074
 20
31.4326555528
 11
159.401867028
 21
31.3681284626
 12
159.1128043074
 22
31.3681284626
 13
159.1128043074
 23
31.3681284626
  0
SOLID
  8
0
 62
7
  6
CONTINUOUS
 10
159.228429528
 20
31.2390741763
 11
159.1128043074
 21
31.3681284626
 12
159.401867028
 22
31.3681284626
 13
159.401867028
 23
31.3681284626
  0
SOLID
  8
0
 62
7
  6
CONTINUOUS
 10
149.6315543091
 20
31.3036012664
 11
150.1518667936
 21
31.4326554468
 12
149.9784292936
 22
31.3358640533
 13
149.9784292936
 23
31.3358640533
  0
SOLID
  8
0
 62
7
  6
CONTINUOUS
 10
149.9784292936
 20
31.3358640533
 11
149.9206168074
 21
31.2713369632
 12
149.6315543091
 22
31.3036012664
 13
149.6315543091
 23
31.3036012664
  0
SOLID
  8
0
 62
7
  6
CONTINUOUS
 10
149.5737418074
 20
31.1100184796
 11
149.6315543091
 21
31.3036012664
 12
149.9206168074
 22
31.2713369632
 13
149.9206168074
 23
31.2713369632
  0
SOLID
  8
0
 62
7
  6
CONTINUOUS
 10
154.4299918074
 20
31.2390741763
 11
154.7768668074
 21
31.271336924
 12
155.412804528
 22
31.271336924
 13
155.412804528
 23
31.271336924
  0
SOLID
  8
0
 62
7
  6
CONTINUOUS
 10
154.4299918074
 20
31.2390741763
 11
155.412804528
 21
31.271336924
 12
154.1987416972
 22
31.1745462761
 13
154.1987416972
 23
31.1745462761
  0
SOLID
  8
0
 62
7
  6
CONTINUOUS
 10
154.1987416972
 20
31.1745462761
 11
155.412804528
 21
31.271336924
 12
154.7768668074
 22
31.1422827436
 13
154.7768668074
 23
31.1422827436
  0
SOLID
  8
0
 62
7
  6
CONTINUOUS
 10
155.412804528
 20
31.271336924
 11
155.412804528
 21
31.1422827436
 12
154.7768668074
 22
31.1422827436
 13
154.7768668074
 23
31.1422827436
  0
SOLID
  8
0
 62
7
  6
CONTINUOUS
 10
159.228429528
 20
31.2390745501
 11
159.401867028
 21
31.3681283566
 12
159.4596793074
 22
31.3036012664
 13
159.4596793074
 23
31.3036012664
  0
SOLID
  8
0
 62
7
  6
CONTINUOUS
 10
159.4596793074
 20
31.3036012664
 11
159.6331168074
 21
31.2390745501
 12
159.228429528
 22
31.2390745501
 13
159.228429528
 23
31.2390745501
  0
SOLID
  8
0
 62
7
  6
CONTINUOUS
 10
159.4596793074
 20
31.1422827828
 11
159.228429528
 21
31.2390745501
 12
159.6331168074
 22
31.2390745501
 13
159.6331168074
 23
31.2390745501
  0
SOLID
  8
0
 62
7
  6
CONTINUOUS
 10
159.6331168074
 20
31.2390745501
 11
160.615929528
 21
31.0777556927
 12
159.4596793074
 22
31.1422827828
 13
159.4596793074
 23
31.1422827828
  0
SOLID
  8
0
 62
7
  6
CONTINUOUS
 10
160.442492028
 20
30.9809646623
 11
159.4596793074
 21
31.1422827828
 12
160.615929528
 22
31.0777556927
 13
160.615929528
 23
31.0777556927
  0
SOLID
  8
0
 62
7
  6
CONTINUOUS
 10
160.615929528
 20
31.0777556927
 11
160.8471793074
 21
30.9809646623
 12
160.442492028
 22
30.9809646623
 13
160.442492028
 23
30.9809646623
  0
SOLID
  8
0
 62
7
  6
CONTINUOUS
 10
160.615929528
 20
30.9164372091
 11
160.442492028
 21
30.9809646623
 12
160.8471793074
 22
30.9809646623
 13
160.8471793074
 23
30.9809646623
  0
SOLID
  8
0
 62
7
  6
CONTINUOUS
 10
160.615929528
 20
30.9164372091
 11
160.8471793074
 21
30.9809646623
 12
160.6737418074
 22
30.8519089441
 13
160.6737418074
 23
30.8519089441
  0
SOLID
  8
0
 62
7
  6
CONTINUOUS
 10
160.8471793074
 20
30.9809646623
 11
160.9628038663
 21
30.8519089441
 12
160.6737418074
 22
30.8519089441
 13
160.6737418074
 23
30.8519089441
  0
SOLID
  8
0
 62
7
  6
CONTINUOUS
 10
160.615929528
 20
30.7873818593
 11
160.6737418074
 21
30.8519089441
 12
160.9628038663
 22
30.8519089441
 13
160.9628038663
 23
30.8519089441
  0
SOLID
  8
0
 62
7
  6
CONTINUOUS
 10
160.9628038663
 20
30.8519089441
 11
160.9628038663
 21
30.7873818593
 12
160.615929528
 22
30.7873818593
 13
160.615929528
 23
30.7873818593
  0
SOLID
  8
0
 62
7
  6
CONTINUOUS
 10
160.5003043074
 20
30.7551187255
 11
160.615929528
 21
30.7873818593
 12
160.9628038663
 22
30.7873818593
 13
160.9628038663
 23
30.7873818593
  0
SOLID
  8
0
 62
7
  6
CONTINUOUS
 10
160.5003043074
 20
30.7551187255
 11
160.9628038663
 21
30.7873818593
 12
160.269054528
 22
30.7228547745
 13
160.269054528
 23
30.7228547745
  0
SOLID
  8
0
 62
7
  6
CONTINUOUS
 10
160.9628038663
 20
30.7873818593
 11
160.8471793074
 21
30.6905916353
 12
160.269054528
 22
30.7228547745
 13
160.269054528
 23
30.7228547745
  0
SOLID
  8
0
 62
7
  6
CONTINUOUS
 10
160.8471793074
 20
30.6905916353
 11
159.401867028
 21
30.658327332
 12
160.269054528
 22
30.7228547745
 13
160.269054528
 23
30.7228547745
  0
SOLID
  8
0
 62
7
  6
CONTINUOUS
 10
160.269054528
 20
30.7228547745
 11
159.401867028
 21
30.658327332
 12
159.922179528
 22
30.7228547745
 13
159.922179528
 23
30.7228547745
  0
SOLID
  8
0
 62
7
  6
CONTINUOUS
 10
159.401867028
 20
30.658327332
 11
159.228429528
 21
30.7228547745
 12
159.922179528
 22
30.7228547745
 13
159.922179528
 23
30.7228547745
  0
SOLID
  8
0
 62
7
  6
CONTINUOUS
 10
159.401867028
 20
30.658327332
 11
160.8471793074
 21
30.6905916353
 12
159.575304528
 22
30.6260629858
 13
159.575304528
 23
30.6260629858
  0
SOLID
  8
0
 62
7
  6
CONTINUOUS
 10
160.8471793074
 20
30.6905916353
 11
160.615929528
 21
30.6260629858
 12
159.575304528
 22
30.6260629858
 13
159.575304528
 23
30.6260629858
  0
SOLID
  8
0
 62
7
  6
CONTINUOUS
 10
159.922179528
 20
30.5938006049
 11
159.575304528
 21
30.6260629858
 12
160.615929528
 22
30.6260629858
 13
160.615929528
 23
30.6260629858
  0
SOLID
  8
0
 62
7
  6
CONTINUOUS
 10
160.615929528
 20
30.6260629858
 11
160.269054528
 21
30.5938006049
 12
159.922179528
 22
30.5938006049
 13
159.922179528
 23
30.5938006049
  0
SOLID
  8
0
 62
7
  6
CONTINUOUS
 10
149.5737418074
 20
31.1100184796
 11
149.9206168074
 21
31.2713369632
 12
149.8628043005
 22
31.1422827828
 13
149.8628043005
 23
31.1422827828
  0
SOLID
  8
0
 62
7
  6
CONTINUOUS
 10
149.8628043005
 20
31.1422827828
 11
149.8628043005
 21
31.0454914852
 12
149.5737418074
 22
31.1100184796
 13
149.5737418074
 23
31.1100184796
  0
SOLID
  8
0
 62
7
  6
CONTINUOUS
 10
149.6315543091
 20
30.9164372091
 11
149.5737418074
 21
31.1100184796
 12
149.8628043005
 22
31.0454914852
 13
149.8628043005
 23
31.0454914852
  0
SOLID
  8
0
 62
7
  6
CONTINUOUS
 10
149.8628043005
 20
31.0454914852
 11
149.9784292936
 21
30.8841729058
 12
149.6315543091
 22
30.9164372091
 13
149.6315543091
 23
30.9164372091
  0
SOLID
  8
0
 62
7
  6
CONTINUOUS
 10
149.7471793074
 20
30.7873813202
 11
149.6315543091
 21
30.9164372091
 12
149.9784292936
 22
30.8841729058
 13
149.9784292936
 23
30.8841729058
  0
SOLID
  8
0
 62
7
  6
CONTINUOUS
 10
149.9784292936
 20
30.8841729058
 11
150.1518667936
 21
30.7873813202
 12
149.7471793074
 22
30.7873813202
 13
149.7471793074
 23
30.7873813202
  0
SOLID
  8
0
 62
7
  6
CONTINUOUS
 10
149.8628043005
 20
30.7228547004
 11
149.7471793074
 21
30.7873813202
 12
150.1518667936
 22
30.7873813202
 13
150.1518667936
 23
30.7873813202
  0
SOLID
  8
0
 62
7
  6
CONTINUOUS
 10
150.1518667936
 20
30.7873813202
 11
150.498741835
 21
30.7228547004
 12
149.8628043005
 22
30.7228547004
 13
149.8628043005
 23
30.7228547004
  0
SOLID
  8
0
 62
7
  6
CONTINUOUS
 10
150.0362418212
 20
30.658327332
 11
149.8628043005
 21
30.7228547004
 12
150.498741835
 22
30.7228547004
 13
150.498741835
 23
30.7228547004
  0
SOLID
  8
0
 62
7
  6
CONTINUOUS
 10
154.0831168074
 20
31.1100184386
 11
154.1987416972
 21
31.1745462761
 12
154.7768668074
 22
31.1422827828
 13
154.7768668074
 23
31.1422827828
  0
SOLID
  8
0
 62
7
  6
CONTINUOUS
 10
154.7768668074
 20
31.1422827828
 11
154.5456166972
 21
31.1100184386
 12
154.0831168074
 22
31.1100184386
 13
154.0831168074
 23
31.1100184386
  0
SOLID
  8
0
 62
7
  6
CONTINUOUS
 10
153.9674919177
 20
30.9809642992
 11
154.0831168074
 21
31.1100184386
 12
154.5456166972
 22
31.1100184386
 13
154.5456166972
 23
31.1100184386
  0
SOLID
  8
0
 62
7
  6
CONTINUOUS
 10
154.3143669177
 20
31.0132277988
 11
153.9674919177
 21
30.9809642992
 12
154.4299918074
 22
31.0777556927
 13
154.4299918074
 23
31.0777556927
  0
SOLID
  8
0
 62
7
  6
CONTINUOUS
 10
153.9674919177
 20
30.9809642992
 11
154.5456166972
 21
31.1100184796
 12
154.4299918074
 22
31.0777556927
 13
154.4299918074
 23
31.0777556927
  0
SOLID
  8
0
 62
7
  6
CONTINUOUS
 10
154.3143669177
 20
31.0132277988
 11
154.2565543074
 21
30.9164372091
 12
153.9674919177
 22
30.9809642992
 13
153.9674919177
 23
30.9809642992
  0
SOLID
  8
0
 62
7
  6
CONTINUOUS
 10
153.9674919177
 20
30.8841729058
 11
153.9674919177
 21
30.9809642992
 12
154.2565543074
 22
30.9164372091
 13
154.2565543074
 23
30.9164372091
  0
SOLID
  8
0
 62
7
  6
CONTINUOUS
 10
154.2565543074
 20
30.9164372091
 11
154.2565543074
 21
30.8519086025
 12
153.9674919177
 22
30.8841729058
 13
153.9674919177
 23
30.8841729058
  0
SOLID
  8
0
 62
7
  6
CONTINUOUS
 10
154.0253041972
 20
30.7551187255
 11
153.9674919177
 21
30.8841729058
 12
154.2565543074
 22
30.8519086025
 13
154.2565543074
 23
30.8519086025
  0
SOLID
  8
0
 62
7
  6
CONTINUOUS
 10
155.412804528
 20
30.9487004259
 11
155.7018665869
 21
30.8519086025
 12
155.3549915869
 22
30.8841729058
 13
155.3549915869
 23
30.8841729058
  0
SOLID
  8
0
 62
7
  6
CONTINUOUS
 10
155.1815540869
 20
30.7873815123
 11
155.3549915869
 21
30.8841729058
 12
155.7018665869
 22
30.8519086025
 13
155.7018665869
 23
30.8519086025
  0
SOLID
  8
0
 62
7
  6
CONTINUOUS
 10
155.1815540869
 20
30.7873815123
 11
155.7018665869
 21
30.8519086025
 12
155.412804528
 22
30.7551187255
 13
155.412804528
 23
30.7551187255
  0
SOLID
  8
0
 62
7
  6
CONTINUOUS
 10
155.7018665869
 20
30.8519086025
 11
155.759679528
 21
30.6905916353
 12
155.412804528
 22
30.7551187255
 13
155.412804528
 23
30.7551187255
  0
SOLID
  8
0
 62
7
  6
CONTINUOUS
 10
155.4706168074
 20
30.658327332
 11
155.412804528
 21
30.7551187255
 12
155.759679528
 22
30.6905916353
 13
155.759679528
 23
30.6905916353
  0
SOLID
  8
0
 62
7
  6
CONTINUOUS
 10
155.4706168074
 20
30.658327332
 11
155.759679528
 21
30.6905916353
 12
155.5284290869
 22
30.5938002079
 13
155.5284290869
 23
30.5938002079
  0
SOLID
  8
0
 62
7
  6
CONTINUOUS
 10
155.759679528
 20
30.6905916353
 11
155.8174918074
 21
30.5938002079
 12
155.5284290869
 22
30.5938002079
 13
155.5284290869
 23
30.5938002079
  0
SOLID
  8
0
 62
7
  6
CONTINUOUS
 10
151.0768668626
 20
30.8196456577
 11
151.1346793074
 21
30.9164373395
 12
151.4237418626
 22
30.9164373395
 13
151.4237418626
 23
30.9164373395
  0
SOLID
  8
0
 62
7
  6
CONTINUOUS
 10
151.4237418626
 20
30.9164373395
 11
151.3659292523
 21
30.7873815123
 12
151.0768668626
 22
30.8196456577
 13
151.0768668626
 23
30.8196456577
  0
SOLID
  8
0
 62
7
  6
CONTINUOUS
 10
150.9034292799
 20
30.7551187255
 11
151.0768668626
 21
30.8196456577
 12
151.3659292523
 22
30.7873815123
 13
151.3659292523
 23
30.7873815123
  0
SOLID
  8
0
 62
7
  6
CONTINUOUS
 10
150.9034292799
 20
30.7551187255
 11
151.3659292523
 21
30.7873815123
 12
150.498741835
 22
30.7228544222
 13
150.498741835
 23
30.7228544222
  0
SOLID
  8
0
 62
7
  6
CONTINUOUS
 10
151.3659292523
 20
30.7873815123
 11
151.1924917523
 21
30.6905916353
 12
150.498741835
 22
30.7228544222
 13
150.498741835
 23
30.7228544222
  0
SOLID
  8
0
 62
7
  6
CONTINUOUS
 10
150.0362418212
 20
30.658327332
 11
150.498741835
 21
30.7228544222
 12
151.1924917523
 22
30.6905916353
 13
151.1924917523
 23
30.6905916353
  0
SOLID
  8
0
 62
7
  6
CONTINUOUS
 10
150.0362418212
 20
30.658327332
 11
151.1924917523
 21
30.6905916353
 12
150.2096793212
 22
30.6260631011
 13
150.2096793212
 23
30.6260631011
  0
SOLID
  8
0
 62
7
  6
CONTINUOUS
 10
151.1924917523
 20
30.6905916353
 11
150.9612418074
 21
30.6260631011
 12
150.2096793212
 22
30.6260631011
 13
150.2096793212
 23
30.6260631011
  0
SOLID
  8
0
 62
7
  6
CONTINUOUS
 10
150.5565542799
 20
30.5938002419
 11
150.2096793212
 21
30.6260631011
 12
150.9612418074
 22
30.6260631011
 13
150.9612418074
 23
30.6260631011
  0
SOLID
  8
0
 62
7
  6
CONTINUOUS
 10
154.0253041972
 20
30.7551187255
 11
154.2565543074
 21
30.8519086025
 12
154.3143669177
 22
30.7873815123
 13
154.3143669177
 23
30.7873815123
  0
SOLID
  8
0
 62
7
  6
CONTINUOUS
 10
154.3143669177
 20
30.7873815123
 11
154.5456166972
 21
30.7228544222
 12
154.0253041972
 22
30.7551187255
 13
154.0253041972
 23
30.7551187255
  0
SOLID
  8
0
 62
7
  6
CONTINUOUS
 10
154.1987416972
 20
30.658327332
 11
154.0253041972
 21
30.7551187255
 12
154.5456166972
 22
30.7228544222
 13
154.5456166972
 23
30.7228544222
  0
SOLID
  8
0
 62
7
  6
CONTINUOUS
 10
154.8924916972
 20
30.7228544637
 11
155.1815540869
 21
30.7873815123
 12
155.412804528
 22
30.7551187255
 13
155.412804528
 23
30.7551187255
  0
SOLID
  8
0
 62
7
  6
CONTINUOUS
 10
155.412804528
 20
30.7551187255
 11
155.3549915869
 21
30.6905916353
 12
154.8924916972
 22
30.7228544637
 13
154.8924916972
 23
30.7228544637
  0
SOLID
  8
0
 62
7
  6
CONTINUOUS
 10
155.3549915869
 20
30.6905916353
 11
154.1987416972
 21
30.658327332
 12
154.8924916972
 22
30.7228544637
 13
154.8924916972
 23
30.7228544637
  0
SOLID
  8
0
 62
7
  6
CONTINUOUS
 10
154.1987416972
 20
30.658327332
 11
154.5456166972
 21
30.7228544637
 12
154.8924916972
 22
30.7228544637
 13
154.8924916972
 23
30.7228544637
  0
SOLID
  8
0
 62
7
  6
CONTINUOUS
 10
154.1987416972
 20
30.658327332
 11
155.3549915869
 21
30.6905916353
 12
154.3143669177
 22
30.6260630541
 13
154.3143669177
 23
30.6260630541
  0
SOLID
  8
0
 62
7
  6
CONTINUOUS
 10
155.3549915869
 20
30.6905916353
 11
155.1815540869
 21
30.6260630541
 12
154.3143669177
 22
30.6260630541
 13
154.3143669177
 23
30.6260630541
  0
SOLID
  8
0
 62
7
  6
CONTINUOUS
 10
154.5456166972
 20
30.5938002188
 11
154.3143669177
 21
30.6260630541
 12
155.1815540869
 22
30.6260630541
 13
155.1815540869
 23
30.6260630541
  0
SOLID
  8
0
 62
7
  6
CONTINUOUS
 10
155.1815540869
 20
30.6260630541
 11
154.8924916972
 21
30.5938002188
 12
154.5456166972
 22
30.5938002188
 13
154.5456166972
 23
30.5938002188
  0
SOLID
  8
0
 62
7
  6
CONTINUOUS
 10
159.575304528
 20
30.7551187255
 11
159.228429528
 21
30.7228544637
 12
159.4596793074
 22
30.7873815123
 13
159.4596793074
 23
30.7873815123
  0
SOLID
  8
0
 62
7
  6
CONTINUOUS
 10
159.4596793074
 20
30.7873815123
 11
159.228429528
 21
30.7228544637
 12
159.401867028
 22
30.851908644
 13
159.401867028
 23
30.851908644
  0
SOLID
  8
0
 62
7
  6
CONTINUOUS
 10
159.228429528
 20
30.7228544637
 11
159.1128043074
 21
30.851908644
 12
159.401867028
 22
30.851908644
 13
159.401867028
 23
30.851908644
  0
SOLID
  8
0
 62
7
  6
CONTINUOUS
 10
159.575304528
 20
30.7551187255
 11
159.922179528
 21
30.7228544637
 12
159.228429528
 22
30.7228544637
 13
159.228429528
 23
30.7228544637
  0
SOLID
  8
0
 62
7
  6
CONTINUOUS
 10
156.279992028
 20
30.5938002419
 11
156.279992028
 21
31.6262382337
 12
156.5690540869
 22
30.5938002419
 13
156.5690540869
 23
31.6262382337
  0
ENDBLK
  8
0
  6
BYBLOCK
 62
0
  0
BLOCK
  8
0
 62
2
  6
CONTINUOUS
  2
SYMBOL_3_BL0
 70
64
 10
32.1213064866
 20
19.8534310916
  0
TEXT
  8
0
 62
7
  6
CONTINUOUS
 10
18.3860103289
 20
19.2268451992
  7
TEXTSTYLE_3
 40
2.7338706658
  1
Ammeraal Beltech
 41
1.0
 51
15.0
 72
0
  0
TEXT
  8
0
 62
7
  6
CONTINUOUS
 10
29.1868111546
 20
16.9533085264
  7
TEXTSTYLE_4
 40
1.0935482663
  1
Innovation & Service in Belting
 41
1.0
 72
0
  0
LINE
  8
0
 62
7
  6
CONTINUOUS
 10
12.3614696776
 20
19.9934385078
 11
13.1396216709
 21
23.6543558055
  0
LINE
  8
0
 62
7
  6
CONTINUOUS
 10
23.2347899607
 20
27.3177497171
 11
13.6274394139
 21
24.1961322958
  0
LINE
  8
0
 62
7
  6
CONTINUOUS
 10
12.5867530099
 20
19.3000877048
 11
20.093828271
 21
12.5406867788
  0
LINE
  8
0
 62
7
  6
CONTINUOUS
 10
12.8492874206
 20
20.5352149982
 11
23.6575567857
 21
24.0470345971
  0
LINE
  8
0
 62
7
  6
CONTINUOUS
 10
23.6533516486
 20
13.6972460334
 11
15.2078919798
 21
21.3015720751
  0
LINE
  8
0
 62
7
  6
CONTINUOUS
 10
24.1731743684
 20
26.4728246013
 11
23.1966148312
 21
21.8784731989
  0
LINE
  8
0
 62
7
  6
CONTINUOUS
 10
22.4968128835
 20
18.5861638851
 11
21.810364672
 21
15.3566789607
  0
LINE
  8
0
 62
7
  6
CONTINUOUS
 10
24.8542704669
 20
14.087448211
 11
25.8105020025
 21
18.5861638851
  0
LINE
  8
0
 62
7
  6
CONTINUOUS
 10
26.5103039502
 20
21.8784731989
 11
26.9545457526
 21
23.9684665583
  0
LINE
  8
0
 62
7
  6
CONTINUOUS
 10
20.8069293463
 20
12.3891124661
 11
24.3664527239
 21
13.5456717207
  0
LINE
  8
0
 62
7
  6
CONTINUOUS
 10
23.9478910361
 20
27.1661754044
 11
26.7292624203
 21
24.6618173613
  0
ARC
  8
0
 62
7
  6
CONTINUOUS
 10
13.8527227462
 20
23.5027814928
 40
0.7290321776
 50
108.0
 51
168.0
  0
ARC
  8
0
 62
7
  6
CONTINUOUS
 10
23.4600732931
 20
26.624398914
 40
0.7290321776
 50
348.0
 51
108.0
  0
ARC
  8
0
 62
7
  6
CONTINUOUS
 10
26.2414446773
 20
24.120040871
 40
0.7290321776
 50
348.0
 51
48.0
  0
ARC
  8
0
 62
7
  6
CONTINUOUS
 10
20.581646014
 20
13.0824632691
 40
0.7290321776
 50
228.0
 51
288.0
  0
ARC
  8
0
 62
7
  6
CONTINUOUS
 10
13.0745707529
 20
19.8418641951
 40
0.7290321776
 50
108.0
 51
228.0
  0
ARC
  8
0
 62
7
  6
CONTINUOUS
 10
24.1411693916
 20
14.2390225237
 40
0.7290321776
 50
228.0
 51
348.0
  0
ENDBLK
  8
0
  6
BYBLOCK
 62
0
  0
ENDSEC
  0
SECTION
  2
ENTITIES
  0
TEXT
  8
0
 62
5
  6
CONTINUOUS
 10
96.0
 20
25.636
  7
TEXTSTYLE_2
 40
2.8
  1
Scale :
 41
0.6
 51
0.000019
 72
0
  0
TEXT
  8
0
 62
5
  6
CONTINUOUS
 10
116.0
 20
25.636
  7
TEXTSTYLE_2
 40
2.8
  1
Belt type:
 41
0.6
 51
0.000019
 72
0
  0
INSERT
  8
0
 62
2
  6
CONTINUOUS
  2
SYMBOL_3_BL0
 10
32.1213064866
 20
19.8534310916
  0
INSERT
  8
0
 62
2
  6
CONTINUOUS
  2
SYMBOL_8_BL1
 10
173.5956734183
 20
35.5937998301
  0
LINE
  8
0
 62
2
  6
CONTINUOUS
 10
10.0
 20
30.0
 11
200.0
 21
30.0
  0
LINE
  8
0
 62
2
  6
CONTINUOUS
 10
10.0
 20
30.0
 11
10.0
 21
10.0
  0
LINE
  8
0
 62
2
  6
CONTINUOUS
 10
10.0
 20
10.0
 11
200.0
 21
10.0
  0
LINE
  8
0
 62
2
  6
CONTINUOUS
 10
95.0
 20
30.0
 11
95.0
 21
10.0
  0
LINE
  8
0
 62
2
  6
CONTINUOUS
 10
115.0
 20
30.0
 11
115.0
 21
10.0
  0
LINE
  8
0
 62
2
  6
CONTINUOUS
 10
200.0
 20
30.0
 11
200.0
 21
10.0
  0
TEXT
  8
0
 62
5
  6
CONTINUOUS
 10
13.0
 20
23.303
  7
TEXTSTYLE_5
 40
1.52
  1
                                                                     Ammeraal Beltech Modular A/S
 41
1.0
 72
0
  0
TEXT
  8
0
 62
5
  6
CONTINUOUS
 10
13.0
 20
20.595
  7
TEXTSTYLE_5
 40
1.5
  1
                                                                      Hjulmagervej 21,  7100 Vejle,  DK
 41
1.0
 72
0
  0
TEXT
  8
0
 62
5
  6
CONTINUOUS
 10
13.0
 20
17.881
  7
TEXTSTYLE_5
 40
1.495
  1
                                                                      tel: 
 41
1.0
 72
0
  0
TEXT
  8
0
 62
5
  6
CONTINUOUS
 10
57.9869465649
 20
17.881
  7
TEXTSTYLE_5
 40
1.51
  1
+45 75723100     fax: +45 75723348
 41
1.0
 72
0
  0
TEXT
  8
0
 62
5
  6
CONTINUOUS
 10
13.0
 20
15.177
  7
TEXTSTYLE_5
 40
1.5
  1
                                                                      admin@unichains.dk  www.unichains.com
 41
1.0
 72
0
  0
TEXT
  8
0
 62
5
  6
CONTINUOUS
 10
99.75
 20
13.75
  7
TEXTSTYLE_6
 40
5.0
  1
1:1
 41
0.7
 72
1
 11
105.0
 21
13.75
  0
TEXT
  8
0
 62
5
  6
CONTINUOUS
 10
118.0
 20
13.75
  7
TEXTSTYLE_7
 40
7.5
  1
Sprocket Z10 2row
 41
0.6480392157
 72
0
  0
LINE
  8
0
 62
7
  6
CONTINUOUS
 10
210.0
 20
0.0
 11
0.0
 21
0.0
  0
LINE
  8
0
 62
7
  6
CONTINUOUS
 10
10.0
 20
10.0
 11
200.0
 21
10.0
  0
LINE
  8
0
 62
7
  6
CONTINUOUS
 10
10.0
 20
30.0
 11
200.0
 21
30.0
  0
LINE
  8
0
 62
7
  6
CONTINUOUS
 10
0.0
 20
0.0
 11
0.0
 21
297.0
  0
LINE
  8
0
 62
7
  6
CONTINUOUS
 10
10.0
 20
10.0
 11
10.0
 21
287.0
  0
LINE
  8
0
 62
7
  6
CONTINUOUS
 10
200.0
 20
287.0
 11
200.0
 21
10.0
  0
LINE
  8
0
 62
7
  6
CONTINUOUS
 10
210.0
 20
0.0
 11
210.0
 21
297.0
  0
LINE
  8
0
 62
7
  6
CONTINUOUS
 10
10.0
 20
287.0
 11
200.0
 21
287.0
  0
LINE
  8
0
 62
7
  6
CONTINUOUS
 10
0.0
 20
297.0
 11
210.0
 21
297.0
  0
LINE
  8
SURFACE
 62
7
  6
CONTINUOUS
 10
27.2650787297
 20
220.4550407903
 11
27.2681529975
 21
220.3842651378
  0
POLYLINE
  8
0
 62
7
  6
CONTINUOUS
 66
1
 70
0
  0
VERTEX
  8
0
 62
7
  6
CONTINUOUS
 10
27.2566865492
 20
185.412350793
  0
VERTEX
  8
0
 62
7
  6
CONTINUOUS
 10
27.2549311448
 20
185.3631802107
  0
VERTEX
  8
0
 62
7
  6
CONTINUOUS
 10
27.2538130457
 20
185.3233418117
  0
VERTEX
  8
0
 62
7
  6
CONTINUOUS
 10
27.2533847075
 20
185.2940528642
  0
VERTEX
  8
0
 62
7
  6
CONTINUOUS
 10
27.2537487612
 20
185.2761573958
  0
VERTEX
  8
0
 62
7
  6
CONTINUOUS
 10
27.2542256785
 20
185.2701405555
  0
SEQEND
  0
POLYLINE
  8
0
 62
7
  6
CONTINUOUS
 66
1
 70
0
  0
VERTEX
  8
0
 62
7
  6
CONTINUOUS
 10
27.2681529975
 20
185.6699647971
  0
VERTEX
  8
0
 62
7
  6
CONTINUOUS
 10
27.2650787296
 20
185.5991891446
  0
VERTEX
  8
0
 62
7
  6
CONTINUOUS
 10
27.2618457481
 20
185.5322571342
  0
VERTEX
  8
0
 62
7
  6
CONTINUOUS
 10
27.2566865492
 20
185.412350793
  0
SEQEND
  0
POLYLINE
  8
SURFACE
 62
7
  6
CONTINUOUS
 66
1
 70
0
  0
VERTEX
  8
SURFACE
 62
7
  6
CONTINUOUS
 10
27.2542256785
 20
220.7840893794
  0
VERTEX
  8
SURFACE
 62
7
  6
CONTINUOUS
 10
27.253748762
 20
220.7780725392
  0
VERTEX
  8
SURFACE
 62
7
  6
CONTINUOUS
 10
27.2533847079
 20
220.7601770707
  0
VERTEX
  8
SURFACE
 62
7
  6
CONTINUOUS
 10
27.2538130459
 20
220.7308881232
  0
VERTEX
  8
SURFACE
 62
7
  6
CONTINUOUS
 10
27.254931145
 20
220.6910497242
  0
VERTEX
  8
SURFACE
 62
7
  6
CONTINUOUS
 10
27.2566865493
 20
220.641879142
  0
VERTEX
  8
SURFACE
 62
7
  6
CONTINUOUS
 10
27.2590173675
 20
220.584918225
  0
VERTEX
  8
SURFACE
 62
7
  6
CONTINUOUS
 10
27.2650787297
 20
220.4550407903
  0
SEQEND
  0
LINE
  8
0
 62
7
  6
CONTINUOUS
 10
35.8824595809
 20
227.3218590178
 11
26.2977892807
 21
197.8232770256
  0
LINE
  8
SURFACE
 62
7
  6
CONTINUOUS
 10
42.0801907424
 20
246.3965141815
 11
43.7710201857
 21
251.6003521234
  0
LINE
  8
0
 62
7
  6
CONTINUOUS
 10
42.0801907424
 20
246.3965141815
 11
43.7710201857
 21
251.6003521234
  0
LINE
  8
SURFACE
 62
7
  6
CONTINUOUS
 10
51.7387123686
 20
260.9212884864
 11
51.6995986178
 21
260.8622227721
  0
POLYLINE
  8
0
 62
7
  6
CONTINUOUS
 66
1
 70
0
  0
VERTEX
  8
0
 62
7
  6
CONTINUOUS
 10
31.1343465747
 20
232.5760895467
  0
VERTEX
  8
0
 62
7
  6
CONTINUOUS
 10
31.1040246817
 20
232.5373415092
  0
VERTEX
  8
0
 62
7
  6
CONTINUOUS
 10
31.0797037002
 20
232.505768767
  0
VERTEX
  8
0
 62
7
  6
CONTINUOUS
 10
31.0621415619
 20
232.4823252768
  0
VERTEX
  8
0
 62
7
  6
CONTINUOUS
 10
31.0519174122
 20
232.4676335395
  0
VERTEX
  8
0
 62
7
  6
CONTINUOUS
 10
31.0487666033
 20
232.4624855151
  0
SEQEND
  0
POLYLINE
  8
0
 62
7
  6
CONTINUOUS
 66
1
 70
0
  0
VERTEX
  8
0
 62
7
  6
CONTINUOUS
 10
31.2950448338
 20
232.7777638486
  0
VERTEX
  8
0
 62
7
  6
CONTINUOUS
 10
31.2509568151
 20
232.7223121515
  0
VERTEX
  8
0
 62
7
  6
CONTINUOUS
 10
31.2089996305
 20
232.6700633157
  0
VERTEX
  8
0
 62
7
  6
CONTINUOUS
 10
31.1343465747
 20
232.5760895467
  0
SEQEND
  0
POLYLINE
  8
SURFACE
 62
7
  6
CONTINUOUS
 66
1
 70
0
  0
VERTEX
  8
SURFACE
 62
7
  6
CONTINUOUS
 10
51.9233419727
 20
261.193873651
  0
VERTEX
  8
SURFACE
 62
7
  6
CONTINUOUS
 10
51.9194195648
 20
261.1892862262
  0
VERTEX
  8
SURFACE
 62
7
  6
CONTINUOUS
 10
51.908606328
 20
261.1750224857
  0
VERTEX
  8
SURFACE
 62
7
  6
CONTINUOUS
 10
51.8917372429
 20
261.1510754629
  0
VERTEX
  8
SURFACE
 62
7
  6
CONTINUOUS
 10
51.8692253772
 20
261.1181883211
  0
VERTEX
  8
SURFACE
 62
7
  6
CONTINUOUS
 10
51.8417437838
 20
261.0773766852
  0
VERTEX
  8
SURFACE
 62
7
  6
CONTINUOUS
 10
51.8101486668
 20
261.0299243159
  0
VERTEX
  8
SURFACE
 62
7
  6
CONTINUOUS
 10
51.7387123686
 20
260.9212884864
  0
SEQEND
  0
LINE
  8
0
 62
7
  6
CONTINUOUS
 10
62.7465344075
 20
261.4114917526
 11
37.6535417906
 21
243.1803654615
  0
LINE
  8
SURFACE
 62
7
  6
CONTINUOUS
 10
78.9724052416
 20
273.2002769675
 11
83.3990541934
 21
276.4164256875
  0
LINE
  8
0
 62
7
  6
CONTINUOUS
 10
78.9724052416
 20
273.2002769675
 11
83.3990541934
 21
276.4164256875
  0
LINE
  8
SURFACE
 62
7
  6
CONTINUOUS
 10
95.323761507
 20
279.2739296487
 11
95.2573998621
 21
279.249134968
  0
POLYLINE
  8
0
 62
7
  6
CONTINUOUS
 66
1
 70
0
  0
VERTEX
  8
0
 62
7
  6
CONTINUOUS
 10
61.9935895113
 20
268.4531243441
  0
VERTEX
  8
0
 62
7
  6
CONTINUOUS
 10
61.9462830596
 20
268.4395992848
  0
VERTEX
  8
0
 62
7
  6
CONTINUOUS
 10
61.90804898
 20
268.428351914
  0
VERTEX
  8
0
 62
7
  6
CONTINUOUS
 10
61.8800611739
 20
268.4197084979
  0
VERTEX
  8
0
 62
7
  6
CONTINUOUS
 10
61.8631540765
 20
268.4138322372
  0
VERTEX
  8
0
 62
7
  6
CONTINUOUS
 10
61.8575790858
 20
268.411519397
  0
SEQEND
  0
POLYLINE
  8
0
 62
7
  6
CONTINUOUS
 66
1
 70
0
  0
VERTEX
  8
0
 62
7
  6
CONTINUOUS
 10
141.3039571303
 20
137.5324037201
  0
VERTEX
  8
0
 62
7
  6
CONTINUOUS
 10
141.3722187765
 20
137.5513507982
  0
VERTEX
  8
0
 62
7
  6
CONTINUOUS
 10
141.436873947
 20
137.56895918
  0
VERTEX
  8
0
 62
7
  6
CONTINUOUS
 10
141.5525059334
 20
137.6011055908
  0
SEQEND
  0
POLYLINE
  8
SURFACE
 62
7
  6
CONTINUOUS
 66
1
 70
0
  0
VERTEX
  8
SURFACE
 62
7
  6
CONTINUOUS
 10
107.9127439106
 20
126.668296814
  0
VERTEX
  8
SURFACE
 62
7
  6
CONTINUOUS
 10
107.9186136258
 20
126.6697025851
  0
VERTEX
  8
SURFACE
 62
7
  6
CONTINUOUS
 10
107.9357457345
 20
126.6748863324
  0
VERTEX
  8
SURFACE
 62
7
  6
CONTINUOUS
 10
107.9634688179
 20
126.6843444814
  0
VERTEX
  8
SURFACE
 62
7
  6
CONTINUOUS
 10
108.0010118767
 20
126.6977185954
  0
VERTEX
  8
SURFACE
 62
7
  6
CONTINUOUS
 10
108.0472334305
 20
126.7145826271
  0
VERTEX
  8
SURFACE
 62
7
  6
CONTINUOUS
 10
108.10068622
 20
126.7344012565
  0
VERTEX
  8
SURFACE
 62
7
  6
CONTINUOUS
 10
108.2223339377
 20
126.7803002862
  0
SEQEND
  0
LINE
  8
0
 62
7
  6
CONTINUOUS
 10
78.9724052416
 20
132.8539529675
 11
73.5007662247
 21
132.8539529675
  0
LINE
  8
0
 62
7
  6
CONTINUOUS
 10
99.0286845867
 20
132.8539529675
 11
130.04532922
 21
132.8539529675
  0
LINE
  8
SURFACE
 62
7
  6
CONTINUOUS
 10
62.1738766682
 20
137.5513507982
 11
62.2421383144
 21
137.5324037201
  0
POLYLINE
  8
0
 62
7
  6
CONTINUOUS
 66
1
 70
0
  0
VERTEX
  8
0
 62
7
  6
CONTINUOUS
 10
95.4988620141
 20
126.714582627
  0
VERTEX
  8
0
 62
7
  6
CONTINUOUS
 10
95.545083568
 20
126.6977185952
  0
VERTEX
  8
0
 62
7
  6
CONTINUOUS
 10
95.5826266267
 20
126.6843444812
  0
VERTEX
  8
0
 62
7
  6
CONTINUOUS
 10
95.61034971
 20
126.674886332
  0
VERTEX
  8
0
 62
7
  6
CONTINUOUS
 10
95.6274818185
 20
126.6697025842
  0
VERTEX
  8
0
 62
7
  6
CONTINUOUS
 10
95.6333515341
 20
126.668296814
  0
SEQEND
  0
POLYLINE
  8
0
 62
7
  6
CONTINUOUS
 66
1
 70
0
  0
VERTEX
  8
0
 62
7
  6
CONTINUOUS
 10
95.2573998621
 20
126.8050949669
  0
VERTEX
  8
0
 62
7
  6
CONTINUOUS
 10
95.323761507
 20
126.7803002862
  0
VERTEX
  8
0
 62
7
  6
CONTINUOUS
 10
95.3864185858
 20
126.7565424106
  0
VERTEX
  8
0
 62
7
  6
CONTINUOUS
 10
95.4988620141
 20
126.714582627
  0
SEQEND
  0
POLYLINE
  8
SURFACE
 62
7
  6
CONTINUOUS
 66
1
 70
0
  0
VERTEX
  8
SURFACE
 62
7
  6
CONTINUOUS
 10
61.8575790858
 20
137.6427105379
  0
VERTEX
  8
SURFACE
 62
7
  6
CONTINUOUS
 10
61.8631540767
 20
137.6403976986
  0
VERTEX
  8
SURFACE
 62
7
  6
CONTINUOUS
 10
61.880061174
 20
137.6345214374
  0
VERTEX
  8
SURFACE
 62
7
  6
CONTINUOUS
 10
61.9080489801
 20
137.6258780212
  0
VERTEX
  8
SURFACE
 62
7
  6
CONTINUOUS
 10
61.9462830596
 20
137.6146306503
  0
VERTEX
  8
SURFACE
 62
7
  6
CONTINUOUS
 10
61.9935895114
 20
137.6011055909
  0
VERTEX
  8
SURFACE
 62
7
  6
CONTINUOUS
 10
62.0484828245
 20
137.5857204375
  0
VERTEX
  8
SURFACE
 62
7
  6
CONTINUOUS
 10
62.1738766682
 20
137.5513507982
  0
SEQEND
  0
LINE
  8
SURFACE
 62
7
  6
CONTINUOUS
 10
42.0801907424
 20
159.6577157534
 11
37.6535417906
 21
162.8738644734
  0
LINE
  8
0
 62
7
  6
CONTINUOUS
 10
42.0801907424
 20
159.6577157534
 11
37.6535417907
 21
162.8738644734
  0
LINE
  8
0
 62
7
  6
CONTINUOUS
 10
58.3060615765
 20
147.8689305385
 11
83.3990541934
 21
129.6378042474
  0
LINE
  8
SURFACE
 62
7
  6
CONTINUOUS
 10
31.2509568151
 20
173.3319177835
 11
31.2950448338
 21
173.2764660863
  0
POLYLINE
  8
0
 62
7
  6
CONTINUOUS
 66
1
 70
0
  0
VERTEX
  8
0
 62
7
  6
CONTINUOUS
 10
51.8417437837
 20
144.9768532497
  0
VERTEX
  8
0
 62
7
  6
CONTINUOUS
 10
51.8692253771
 20
144.9360416137
  0
VERTEX
  8
0
 62
7
  6
CONTINUOUS
 10
51.8917372426
 20
144.9031544719
  0
VERTEX
  8
0
 62
7
  6
CONTINUOUS
 10
51.9086063276
 20
144.8792074489
  0
VERTEX
  8
0
 62
7
  6
CONTINUOUS
 10
51.919419564
 20
144.8649437082
  0
VERTEX
  8
0
 62
7
  6
CONTINUOUS
 10
51.9233419727
 20
144.8603562839
  0
SEQEND
  0
POLYLINE
  8
0
 62
7
  6
CONTINUOUS
 66
1
 70
0
  0
VERTEX
  8
0
 62
7
  6
CONTINUOUS
 10
51.6995986178
 20
145.1920071628
  0
VERTEX
  8
0
 62
7
  6
CONTINUOUS
 10
51.7387123686
 20
145.1329414485
  0
VERTEX
  8
0
 62
7
  6
CONTINUOUS
 10
51.7754384813
 20
145.0768920166
  0
VERTEX
  8
0
 62
7
  6
CONTINUOUS
 10
51.8417437837
 20
144.9768532497
  0
SEQEND
  0
POLYLINE
  8
SURFACE
 62
7
  6
CONTINUOUS
 66
1
 70
0
  0
VERTEX
  8
SURFACE
 62
7
  6
CONTINUOUS
 10
31.0487666033
 20
173.5917444198
  0
VERTEX
  8
SURFACE
 62
7
  6
CONTINUOUS
 10
31.0519174129
 20
173.586596396
  0
VERTEX
  8
SURFACE
 62
7
  6
CONTINUOUS
 10
31.0621415623
 20
173.5719046584
  0
VERTEX
  8
SURFACE
 62
7
  6
CONTINUOUS
 10
31.0797037004
 20
173.5484611681
  0
VERTEX
  8
SURFACE
 62
7
  6
CONTINUOUS
 10
31.1040246818
 20
173.5168884259
  0
VERTEX
  8
SURFACE
 62
7
  6
CONTINUOUS
 10
31.1343465748
 20
173.4781403883
  0
VERTEX
  8
SURFACE
 62
7
  6
CONTINUOUS
 10
31.1697130317
 20
173.4334280578
  0
VERTEX
  8
SURFACE
 62
7
  6
CONTINUOUS
 10
31.2509568151
 20
173.3319177835
  0
SEQEND
  0
LINE
  8
0
 62
7
  6
CONTINUOUS
 10
34.1863498855
 20
183.9524598037
 11
43.7710201857
 21
154.4538778116
  0
LINE
  8
0
 62
7
  6
CONTINUOUS
 10
27.988618724
 20
203.0271149675
 11
26.2977892807
 21
208.2309529093
  0
POLYLINE
  8
0
 62
7
  6
CONTINUOUS
 66
1
 70
0
  0
VERTEX
  8
0
 62
7
  6
CONTINUOUS
 10
36.2321036147
 20
242.5890422619
  0
VERTEX
  8
0
 62
7
  6
CONTINUOUS
 10
36.2160043034
 20
242.7453125933
  0
VERTEX
  8
0
 62
7
  6
CONTINUOUS
 10
36.210109342
 20
242.8068566874
  0
VERTEX
  8
0
 62
7
  6
CONTINUOUS
 10
36.2060550995
 20
242.8531359762
  0
VERTEX
  8
0
 62
7
  6
CONTINUOUS
 10
36.204020183
 20
242.881890817
  0
VERTEX
  8
0
 62
7
  6
CONTINUOUS
 10
36.2042357902
 20
242.8917333395
  0
SEQEND
  0
POLYLINE
  8
SURFACE
 62
7
  6
CONTINUOUS
 66
1
 70
0
  0
VERTEX
  8
SURFACE
 62
7
  6
CONTINUOUS
 10
36.2415247894
 20
163.5522778492
  0
VERTEX
  8
SURFACE
 62
7
  6
CONTINUOUS
 10
36.2414694427
 20
163.5551677325
  0
VERTEX
  8
SURFACE
 62
7
  6
CONTINUOUS
 10
36.2406825615
 20
163.5581344816
  0
VERTEX
  8
SURFACE
 62
7
  6
CONTINUOUS
 10
36.2392391431
 20
163.5610544458
  0
SEQEND
  0
POLYLINE
  8
0
 62
7
  6
CONTINUOUS
 66
1
 70
0
  0
VERTEX
  8
0
 62
7
  6
CONTINUOUS
 10
36.2415247866
 20
242.5019520858
  0
VERTEX
  8
0
 62
7
  6
CONTINUOUS
 10
36.2414694425
 20
242.4990622017
  0
VERTEX
  8
0
 62
7
  6
CONTINUOUS
 10
36.2406825614
 20
242.4960954529
  0
VERTEX
  8
0
 62
7
  6
CONTINUOUS
 10
36.2392391431
 20
242.4931754891
  0
SEQEND
  0
POLYLINE
  8
SURFACE
 62
7
  6
CONTINUOUS
 66
1
 70
0
  0
VERTEX
  8
SURFACE
 62
7
  6
CONTINUOUS
 10
36.2160042865
 20
163.3089173429
  0
VERTEX
  8
SURFACE
 62
7
  6
CONTINUOUS
 10
36.210109314
 20
163.2473732502
  0
VERTEX
  8
SURFACE
 62
7
  6
CONTINUOUS
 10
36.2060550512
 20
163.2010939637
  0
VERTEX
  8
SURFACE
 62
7
  6
CONTINUOUS
 10
36.2040200784
 20
163.1723391291
  0
VERTEX
  8
SURFACE
 62
7
  6
CONTINUOUS
 10
36.2042357907
 20
163.1624965954
  0
SEQEND
  0
POLYLINE
  8
0
 62
7
  6
CONTINUOUS
 66
1
 70
0
  0
VERTEX
  8
0
 62
7
  6
CONTINUOUS
 10
72.0032274525
 20
273.5573869109
  0
VERTEX
  8
0
 62
7
  6
CONTINUOUS
 10
72.0820558912
 20
273.6932753922
  0
VERTEX
  8
0
 62
7
  6
CONTINUOUS
 10
72.1134612089
 20
273.7465307329
  0
VERTEX
  8
0
 62
7
  6
CONTINUOUS
 10
72.1373830608
 20
273.7863547607
  0
VERTEX
  8
0
 62
7
  6
CONTINUOUS
 10
72.1526371118
 20
273.8108147727
  0
VERTEX
  8
0
 62
7
  6
CONTINUOUS
 10
72.1585993469
 20
273.8186493623
  0
SEQEND
  0
POLYLINE
  8
SURFACE
 62
7
  6
CONTINUOUS
 66
1
 70
0
  0
VERTEX
  8
SURFACE
 62
7
  6
CONTINUOUS
 10
25.5542119901
 20
209.6097738879
  0
VERTEX
  8
SURFACE
 62
7
  6
CONTINUOUS
 10
25.5558587719
 20
209.6121341446
  0
VERTEX
  8
SURFACE
 62
7
  6
CONTINUOUS
 10
25.556965976
 20
209.6149968041
  0
VERTEX
  8
SURFACE
 62
7
  6
CONTINUOUS
 10
25.5575145349
 20
209.6182075139
  0
SEQEND
  0
POLYLINE
  8
0
 62
7
  6
CONTINUOUS
 66
1
 70
0
  0
VERTEX
  8
0
 62
7
  6
CONTINUOUS
 10
71.9596631094
 20
273.4813969985
  0
VERTEX
  8
0
 62
7
  6
CONTINUOUS
 10
71.9579157033
 20
273.4790863677
  0
VERTEX
  8
0
 62
7
  6
CONTINUOUS
 10
71.9555352867
 20
273.4771487261
  0
VERTEX
  8
0
 62
7
  6
CONTINUOUS
 10
71.9526512163
 20
273.4756348399
  0
SEQEND
  0
POLYLINE
  8
SURFACE
 62
7
  6
CONTINUOUS
 66
1
 70
0
  0
VERTEX
  8
SURFACE
 62
7
  6
CONTINUOUS
 10
25.3905150771
 20
209.4278810699
  0
VERTEX
  8
SURFACE
 62
7
  6
CONTINUOUS
 10
25.349571483
 20
209.3815556013
  0
VERTEX
  8
SURFACE
 62
7
  6
CONTINUOUS
 10
25.3190896818
 20
209.3464974983
  0
VERTEX
  8
SURFACE
 62
7
  6
CONTINUOUS
 10
25.3005429407
 20
209.3244293342
  0
VERTEX
  8
SURFACE
 62
7
  6
CONTINUOUS
 10
25.2949297936
 20
209.316341901
  0
SEQEND
  0
POLYLINE
  8
0
 62
7
  6
CONTINUOUS
 66
1
 70
0
  0
VERTEX
  8
0
 62
7
  6
CONTINUOUS
 10
119.1454108824
 20
277.5855649487
  0
VERTEX
  8
0
 62
7
  6
CONTINUOUS
 10
119.2890576028
 20
277.6491669996
  0
VERTEX
  8
0
 62
7
  6
CONTINUOUS
 10
119.3457676859
 20
277.6737920157
  0
VERTEX
  8
0
 62
7
  6
CONTINUOUS
 10
119.388528746
 20
277.6919496413
  0
VERTEX
  8
0
 62
7
  6
CONTINUOUS
 10
119.415246486
 20
277.7027727225
  0
VERTEX
  8
0
 62
7
  6
CONTINUOUS
 10
119.4246756133
 20
277.7056053577
  0
SEQEND
  0
POLYLINE
  8
SURFACE
 62
7
  6
CONTINUOUS
 66
1
 70
0
  0
VERTEX
  8
SURFACE
 62
7
  6
CONTINUOUS
 10
43.9798862016
 20
253.1528991486
  0
VERTEX
  8
SURFACE
 62
7
  6
CONTINUOUS
 10
43.9826237192
 20
253.153847008
  0
VERTEX
  8
SURFACE
 62
7
  6
CONTINUOUS
 10
43.9852021154
 20
253.1555121546
  0
VERTEX
  8
SURFACE
 62
7
  6
CONTINUOUS
 10
43.9875331336
 20
253.1577872522
  0
SEQEND
  0
POLYLINE
  8
0
 62
7
  6
CONTINUOUS
 66
1
 70
0
  0
VERTEX
  8
0
 62
7
  6
CONTINUOUS
 10
119.0655066388
 20
277.5496959875
  0
VERTEX
  8
0
 62
7
  6
CONTINUOUS
 10
119.0627290218
 20
277.5488520149
  0
VERTEX
  8
0
 62
7
  6
CONTINUOUS
 10
119.0596643032
 20
277.5486836019
  0
VERTEX
  8
0
 62
7
  6
CONTINUOUS
 10
119.0564411968
 20
277.5491540566
  0
SEQEND
  0
POLYLINE
  8
SURFACE
 62
7
  6
CONTINUOUS
 66
1
 70
0
  0
VERTEX
  8
SURFACE
 62
7
  6
CONTINUOUS
 10
159.8055390231
 20
152.9522592005
  0
VERTEX
  8
SURFACE
 62
7
  6
CONTINUOUS
 10
159.8658926404
 20
152.9656706192
  0
VERTEX
  8
SURFACE
 62
7
  6
CONTINUOUS
 10
159.9111598033
 20
152.9761153363
  0
VERTEX
  8
SURFACE
 62
7
  6
CONTINUOUS
 10
159.9391364266
 20
152.9830642006
  0
VERTEX
  8
SURFACE
 62
7
  6
CONTINUOUS
 10
159.9484299799
 20
152.986313678
  0
SEQEND
  0
POLYLINE
  8
0
 62
7
  6
CONTINUOUS
 66
1
 70
0
  0
VERTEX
  8
0
 62
7
  6
CONTINUOUS
 10
43.8941533774
 20
152.9192807625
  0
VERTEX
  8
0
 62
7
  6
CONTINUOUS
 10
43.7405564245
 20
152.9522592127
  0
VERTEX
  8
0
 62
7
  6
CONTINUOUS
 10
43.6802028088
 20
152.9656706395
  0
VERTEX
  8
0
 62
7
  6
CONTINUOUS
 10
43.6349356489
 20
152.9761153712
  0
VERTEX
  8
0
 62
7
  6
CONTINUOUS
 10
43.6069590341
 20
152.9830642764
  0
VERTEX
  8
0
 62
7
  6
CONTINUOUS
 10
43.5976654647
 20
152.9863136777
  0
SEQEND
  0
POLYLINE
  8
SURFACE
 62
7
  6
CONTINUOUS
 66
1
 70
0
  0
VERTEX
  8
SURFACE
 62
7
  6
CONTINUOUS
 10
119.06550664
 20
128.5045339504
  0
VERTEX
  8
SURFACE
 62
7
  6
CONTINUOUS
 10
119.0627290227
 20
128.5053779199
  0
VERTEX
  8
SURFACE
 62
7
  6
CONTINUOUS
 10
119.0596643037
 20
128.505546333
  0
VERTEX
  8
SURFACE
 62
7
  6
CONTINUOUS
 10
119.0564411968
 20
128.5050758783
  0
SEQEND
  0
POLYLINE
  8
0
 62
7
  6
CONTINUOUS
 66
1
 70
0
  0
VERTEX
  8
0
 62
7
  6
CONTINUOUS
 10
43.9798862011
 20
152.9013307844
  0
VERTEX
  8
0
 62
7
  6
CONTINUOUS
 10
43.9826237197
 20
152.9003829267
  0
VERTEX
  8
0
 62
7
  6
CONTINUOUS
 10
43.9852021156
 20
152.8987177802
  0
VERTEX
  8
0
 62
7
  6
CONTINUOUS
 10
43.9875331336
 20
152.8964426827
  0
SEQEND
  0
POLYLINE
  8
SURFACE
 62
7
  6
CONTINUOUS
 66
1
 70
0
  0
VERTEX
  8
SURFACE
 62
7
  6
CONTINUOUS
 10
119.2890575952
 20
128.4050629171
  0
VERTEX
  8
SURFACE
 62
7
  6
CONTINUOUS
 10
119.3457676728
 20
128.380437889
  0
VERTEX
  8
SURFACE
 62
7
  6
CONTINUOUS
 10
119.3885287231
 20
128.3622802419
  0
VERTEX
  8
SURFACE
 62
7
  6
CONTINUOUS
 10
119.4152464359
 20
128.3514571004
  0
VERTEX
  8
SURFACE
 62
7
  6
CONTINUOUS
 10
119.4246756136
 20
128.3486245778
  0
SEQEND
  0
POLYLINE
  8
0
 62
7
  6
CONTINUOUS
 66
1
 70
0
  0
VERTEX
  8
0
 62
7
  6
CONTINUOUS
 10
25.4953927885
 20
196.5093861686
  0
VERTEX
  8
0
 62
7
  6
CONTINUOUS
 10
25.3905150816
 20
196.6263488689
  0
VERTEX
  8
0
 62
7
  6
CONTINUOUS
 10
25.3495714904
 20
196.6726743401
  0
VERTEX
  8
0
 62
7
  6
CONTINUOUS
 10
25.3190896945
 20
196.707732448
  0
VERTEX
  8
0
 62
7
  6
CONTINUOUS
 10
25.3005429682
 20
196.7298006255
  0
VERTEX
  8
0
 62
7
  6
CONTINUOUS
 10
25.2949297935
 20
196.7378880338
  0
SEQEND
  0
POLYLINE
  8
SURFACE
 62
7
  6
CONTINUOUS
 66
1
 70
0
  0
VERTEX
  8
SURFACE
 62
7
  6
CONTINUOUS
 10
71.959663111
 20
132.5728329376
  0
VERTEX
  8
SURFACE
 62
7
  6
CONTINUOUS
 10
71.9579157037
 20
132.5751435668
  0
VERTEX
  8
SURFACE
 62
7
  6
CONTINUOUS
 10
71.955535287
 20
132.5770812087
  0
VERTEX
  8
SURFACE
 62
7
  6
CONTINUOUS
 10
71.9526512163
 20
132.578595095
  0
SEQEND
  0
POLYLINE
  8
0
 62
7
  6
CONTINUOUS
 66
1
 70
0
  0
VERTEX
  8
0
 62
7
  6
CONTINUOUS
 10
25.5542119894
 20
196.4444560464
  0
VERTEX
  8
0
 62
7
  6
CONTINUOUS
 10
25.5558587721
 20
196.4420957901
  0
VERTEX
  8
0
 62
7
  6
CONTINUOUS
 10
25.556965976
 20
196.4392331307
  0
VERTEX
  8
0
 62
7
  6
CONTINUOUS
 10
25.5575145349
 20
196.436022421
  0
SEQEND
  0
POLYLINE
  8
SURFACE
 62
7
  6
CONTINUOUS
 66
1
 70
0
  0
VERTEX
  8
SURFACE
 62
7
  6
CONTINUOUS
 10
72.0820558805
 20
132.3609545362
  0
VERTEX
  8
SURFACE
 62
7
  6
CONTINUOUS
 10
72.113461191
 20
132.3076991915
  0
VERTEX
  8
SURFACE
 62
7
  6
CONTINUOUS
 10
72.1373830299
 20
132.2678751563
  0
VERTEX
  8
SURFACE
 62
7
  6
CONTINUOUS
 10
72.1526370447
 20
132.2434151236
  0
VERTEX
  8
SURFACE
 62
7
  6
CONTINUOUS
 10
72.1585993472
 20
132.2355805728
  0
SEQEND
  0
LINE
  8
0
 62
7
  6
CONTINUOUS
 10
36.2415246142
 20
242.5019430288
 11
36.2321036147
 21
242.5890422619
  0
POLYLINE
  8
SURFACE
 62
7
  6
CONTINUOUS
 66
1
 70
0
  0
VERTEX
  8
SURFACE
 62
7
  6
CONTINUOUS
 10
36.241524617
 20
163.5522869051
  0
VERTEX
  8
SURFACE
 62
7
  6
CONTINUOUS
 10
36.2321036119
 20
163.4651876727
  0
VERTEX
  8
SURFACE
 62
7
  6
CONTINUOUS
 10
36.2160042865
 20
163.3089173429
  0
SEQEND
  0
LINE
  8
0
 62
7
  6
CONTINUOUS
 10
71.9596536954
 20
273.4813845487
 11
72.0032274525
 21
273.5573869109
  0
POLYLINE
  8
SURFACE
 62
7
  6
CONTINUOUS
 66
1
 70
0
  0
VERTEX
  8
SURFACE
 62
7
  6
CONTINUOUS
 10
25.5542100576
 20
209.609771116
  0
VERTEX
  8
SURFACE
 62
7
  6
CONTINUOUS
 10
25.4953927876
 20
209.5448437668
  0
VERTEX
  8
SURFACE
 62
7
  6
CONTINUOUS
 10
25.3905150771
 20
209.4278810699
  0
SEQEND
  0
LINE
  8
0
 62
7
  6
CONTINUOUS
 10
119.0654859335
 20
277.5496896954
 11
119.1454108824
 21
277.5855649487
  0
POLYLINE
  8
SURFACE
 62
7
  6
CONTINUOUS
 66
1
 70
0
  0
VERTEX
  8
SURFACE
 62
7
  6
CONTINUOUS
 10
159.5661944942
 20
152.9013256805
  0
VERTEX
  8
SURFACE
 62
7
  6
CONTINUOUS
 10
159.6519420682
 20
152.9192807605
  0
VERTEX
  8
SURFACE
 62
7
  6
CONTINUOUS
 10
159.8055390231
 20
152.9522592005
  0
SEQEND
  0
LINE
  8
0
 62
7
  6
CONTINUOUS
 10
43.9799009506
 20
152.9013256784
 11
43.8941533774
 21
152.9192807625
  0
POLYLINE
  8
SURFACE
 62
7
  6
CONTINUOUS
 66
1
 70
0
  0
VERTEX
  8
SURFACE
 62
7
  6
CONTINUOUS
 10
119.0654859356
 20
128.5045402422
  0
VERTEX
  8
SURFACE
 62
7
  6
CONTINUOUS
 10
119.1454108817
 20
128.4686649829
  0
VERTEX
  8
SURFACE
 62
7
  6
CONTINUOUS
 10
119.2890575952
 20
128.4050629171
  0
SEQEND
  0
LINE
  8
0
 62
7
  6
CONTINUOUS
 10
25.5542100571
 20
196.4444588181
 11
25.4953927885
 21
196.5093861686
  0
POLYLINE
  8
SURFACE
 62
7
  6
CONTINUOUS
 66
1
 70
0
  0
VERTEX
  8
SURFACE
 62
7
  6
CONTINUOUS
 10
71.9596536975
 20
132.5728453868
  0
VERTEX
  8
SURFACE
 62
7
  6
CONTINUOUS
 10
72.0032274509
 20
132.4968430226
  0
VERTEX
  8
SURFACE
 62
7
  6
CONTINUOUS
 10
72.0820558805
 20
132.3609545362
  0
SEQEND
  0
LINE
  8
0
 62
7
  6
CONTINUOUS
 10
53.4127598409
 20
211.4700147075
 11
53.2873661161
 21
210.3520248087
  0
LINE
  8
0
 62
7
  6
CONTINUOUS
 10
52.8693870338
 20
206.6253918127
 11
52.743993309
 21
205.507401914
  0
LINE
  8
0
 62
7
  6
CONTINUOUS
 10
54.5767835496
 20
216.2174639281
 11
53.8099045841
 21
213.3171369375
  0
LINE
  8
0
 62
7
  6
CONTINUOUS
 10
54.618715101
 20
213.8790529672
 11
55.2258271278
 21
216.1751433241
  0
LINE
  8
0
 62
7
  6
CONTINUOUS
 10
57.0770998
 20
215.6856460791
 11
56.4699877732
 21
213.3895557222
  0
LINE
  8
0
 62
7
  6
CONTINUOUS
 10
57.2104967038
 20
213.1937568607
 11
57.785655928
 21
215.3690021036
  0
LINE
  8
0
 62
7
  6
CONTINUOUS
 10
56.7005908605
 20
222.2611028534
 11
55.5619419821
 21
219.4855887151
  0
LINE
  8
0
 62
7
  6
CONTINUOUS
 10
56.5552460248
 20
219.8887484218
 11
57.456675663
 21
222.0860286833
  0
LINE
  8
0
 62
7
  6
CONTINUOUS
 10
59.1101735812
 20
221.4076846157
 11
58.2087439431
 21
219.2104043542
  0
LINE
  8
0
 62
7
  6
CONTINUOUS
 10
58.9173857663
 20
218.9196855263
 11
59.8188154044
 21
221.1169657878
  0
LINE
  8
0
 62
7
  6
CONTINUOUS
 10
54.8599679121
 20
216.7890646522
 11
54.5767835496
 21
216.2174639281
  0
LINE
  8
0
 62
7
  6
CONTINUOUS
 10
61.6959753764
 20
225.2285602886
 11
60.8751571863
 21
223.6830007909
  0
LINE
  8
0
 62
7
  6
CONTINUOUS
 10
55.2258271278
 20
216.1751433241
 11
55.4451051536
 21
216.5050510544
  0
LINE
  8
0
 62
7
  6
CONTINUOUS
 10
62.4020584491
 20
232.3046696131
 11
61.9857620473
 21
231.680812814
  0
LINE
  8
0
 62
7
  6
CONTINUOUS
 10
60.0430449761
 20
228.7694802914
 11
59.6267485743
 21
228.1456234922
  0
LINE
  8
0
 62
7
  6
CONTINUOUS
 10
64.0033415398
 20
230.3344924978
 11
62.0606244686
 21
227.4231599752
  0
LINE
  8
0
 62
7
  6
CONTINUOUS
 10
62.6977547407
 20
226.9980062538
 11
64.6404718119
 21
229.9093387764
  0
LINE
  8
0
 62
7
  6
CONTINUOUS
 10
57.0559159854
 20
222.7908809452
 11
56.7005908605
 21
222.2611028534
  0
LINE
  8
0
 62
7
  6
CONTINUOUS
 10
57.456675663
 20
222.0860286833
 11
57.7171137433
 21
222.3845148126
  0
LINE
  8
0
 62
7
  6
CONTINUOUS
 10
78.077581032
 20
244.903455043
 11
78.4567672927
 21
245.2534733787
  0
LINE
  8
0
 62
7
  6
CONTINUOUS
 10
78.0926165545
 20
245.9273316059
 11
77.6034570056
 21
245.517884072
  0
LINE
  8
0
 62
7
  6
CONTINUOUS
 10
79.0823459436
 20
246.4621780665
 11
78.0926165545
 21
245.9273316059
  0
LINE
  8
0
 62
7
  6
CONTINUOUS
 10
78.4567672927
 20
245.2534733787
 11
79.4464966818
 21
245.7883198393
  0
LINE
  8
0
 62
7
  6
CONTINUOUS
 10
80.6904087251
 20
245.5898812804
 11
81.3502283178
 21
245.9464455875
  0
LINE
  8
0
 62
7
  6
CONTINUOUS
 10
85.0757941582
 20
249.0996054259
 11
82.2699249774
 21
248.0379566422
  0
LINE
  8
0
 62
7
  6
CONTINUOUS
 10
83.1972749656
 20
247.7063754665
 11
85.4185916349
 21
248.5468487703
  0
LINE
  8
0
 62
7
  6
CONTINUOUS
 10
86.0962398405
 20
246.7558683211
 11
83.8749231712
 21
245.9153950174
  0
LINE
  8
0
 62
7
  6
CONTINUOUS
 10
84.1459824028
 20
245.1990029715
 11
86.2503842884
 21
245.9952395593
  0
LINE
  8
0
 62
7
  6
CONTINUOUS
 10
79.6928890719
 20
246.6470061913
 11
79.0823459436
 21
246.4621780665
  0
LINE
  8
0
 62
7
  6
CONTINUOUS
 10
106.0302904242
 20
152.4566468814
 11
106.2419602223
 21
152.5157107119
  0
LINE
  8
0
 62
7
  6
CONTINUOUS
 10
106.0302904242
 20
152.6043064564
 11
105.9244552223
 21
152.574774545
  0
LINE
  8
0
 62
7
  6
CONTINUOUS
 10
104.9719402223
 20
153.1949447459
 11
105.0777754242
 21
153.2244766573
  0
LINE
  8
0
 62
7
  6
CONTINUOUS
 10
104.9719402223
 20
153.3426043028
 11
104.7602704242
 21
153.28354048
  0
LINE
  8
0
 62
7
  6
CONTINUOUS
 10
100.3681177223
 20
152.8700936794
 11
100.4739526214
 21
152.8996255908
  0
LINE
  8
0
 62
7
  6
CONTINUOUS
 10
100.3681177223
 20
153.0177532777
 11
100.1564476214
 21
152.9586894549
  0
LINE
  8
0
 62
7
  6
CONTINUOUS
 10
100.2622828233
 20
153.1949447459
 11
100.3681177223
 21
153.2244766573
  0
LINE
  8
0
 62
7
  6
CONTINUOUS
 10
97.1930677223
 20
152.4566468814
 11
97.4047376719
 21
152.5157107119
  0
LINE
  8
0
 62
7
  6
CONTINUOUS
 10
100.2093652223
 20
153.3426043028
 11
100.1035303233
 21
153.3130723914
  0
LINE
  8
0
 62
7
  6
CONTINUOUS
 10
96.4522227097
 20
153.1949447459
 11
96.5580577223
 21
153.2244766573
  0
LINE
  8
0
 62
7
  6
CONTINUOUS
 10
101.0560450205
 20
152.6043064564
 11
100.7914576214
 21
152.5452426233
  0
LINE
  8
0
 62
7
  6
CONTINUOUS
 10
96.505140235
 20
153.3426043028
 11
96.346387735
 21
153.3130723914
  0
LINE
  8
0
 62
7
  6
CONTINUOUS
 10
105.9244552223
 20
152.574774545
 11
105.7127854242
 21
152.5452426233
  0
LINE
  8
0
 62
7
  6
CONTINUOUS
 10
105.0777754242
 20
153.2244766573
 11
105.2894452223
 21
153.2540085686
  0
LINE
  8
0
 62
7
  6
CONTINUOUS
 10
103.2785800205
 20
153.2244766573
 11
103.4902504242
 21
153.2540085686
  0
LINE
  8
0
 62
7
  6
CONTINUOUS
 10
100.4739526214
 20
152.8996255908
 11
100.6856227223
 21
152.9291575022
  0
LINE
  8
0
 62
7
  6
CONTINUOUS
 10
103.4902504242
 20
153.3721362141
 11
103.2785800205
 21
153.3426043028
  0
LINE
  8
0
 62
7
  6
CONTINUOUS
 10
100.3681177223
 20
153.2244766573
 11
100.5797878233
 21
153.2540085686
  0
LINE
  8
0
 62
7
  6
CONTINUOUS
 10
98.5689226214
 20
153.2244766573
 11
98.7805927223
 21
153.2540085686
  0
LINE
  8
0
 62
7
  6
CONTINUOUS
 10
98.7805927223
 20
153.3721362141
 11
98.5689226214
 21
153.3426043028
  0
LINE
  8
0
 62
7
  6
CONTINUOUS
 10
96.5580577223
 20
153.2244766573
 11
96.7697277476
 21
153.2540085686
  0
LINE
  8
0
 62
7
  6
CONTINUOUS
 10
100.7914576214
 20
152.4271149675
 11
101.0560450205
 21
152.4566468814
  0
LINE
  8
0
 62
7
  6
CONTINUOUS
 10
105.7127854242
 20
152.4271149675
 11
106.0302904242
 21
152.4566468814
  0
LINE
  8
0
 62
7
  6
CONTINUOUS
 10
105.2894452223
 20
153.3721362141
 11
104.9719402223
 21
153.3426043028
  0
LINE
  8
0
 62
7
  6
CONTINUOUS
 10
100.6856227223
 20
153.047285189
 11
100.3681177223
 21
153.0177532777
  0
LINE
  8
0
 62
7
  6
CONTINUOUS
 10
96.8226451971
 20
153.3721362141
 11
96.505140235
 21
153.3426043028
  0
LINE
  8
0
 62
7
  6
CONTINUOUS
 10
96.8226451971
 20
152.4271149675
 11
97.1930677223
 21
152.4566468814
  0
LINE
  8
0
 62
7
  6
CONTINUOUS
 10
97.1401501971
 20
152.574774545
 11
96.7697277476
 21
152.5452426233
  0
LINE
  8
0
 62
7
  6
CONTINUOUS
 10
100.5797878233
 20
153.3721362141
 11
100.2093652223
 21
153.3426043028
  0
LINE
  8
0
 62
7
  6
CONTINUOUS
 10
98.0397476719
 20
152.4271149675
 11
98.3043352223
 21
152.4271149675
  0
LINE
  8
0
 62
7
  6
CONTINUOUS
 10
99.2568502223
 20
152.4271149675
 11
99.5214376214
 21
152.4271149675
  0
LINE
  8
0
 62
7
  6
CONTINUOUS
 10
100.4739526214
 20
152.4271149675
 11
100.7914576214
 21
152.4271149675
  0
LINE
  8
0
 62
7
  6
CONTINUOUS
 10
101.3735500205
 20
152.4271149675
 11
101.6381377223
 21
152.4271149675
  0
LINE
  8
0
 62
7
  6
CONTINUOUS
 10
102.0614779242
 20
152.4271149675
 11
102.3260650205
 21
152.4271149675
  0
LINE
  8
0
 62
7
  6
CONTINUOUS
 10
102.7494052223
 20
152.4271149675
 11
103.0139929242
 21
152.4271149675
  0
LINE
  8
0
 62
7
  6
CONTINUOUS
 10
103.9665079242
 20
152.4271149675
 11
104.2310950205
 21
152.4271149675
  0
LINE
  8
0
 62
7
  6
CONTINUOUS
 10
105.3952804242
 20
152.4271149675
 11
105.7127854242
 21
152.4271149675
  0
LINE
  8
0
 62
7
  6
CONTINUOUS
 10
105.7127854242
 20
152.5452426233
 11
105.3952804242
 21
152.5452426233
  0
LINE
  8
0
 62
7
  6
CONTINUOUS
 10
100.7914576214
 20
152.5452426233
 11
100.4739526214
 21
152.5452426233
  0
LINE
  8
0
 62
7
  6
CONTINUOUS
 10
104.9190229242
 20
152.6633702791
 11
104.6544352223
 21
152.6633702791
  0
LINE
  8
0
 62
7
  6
CONTINUOUS
 10
97.6164077728
 20
152.7224341226
 11
97.3518202223
 21
152.7224341226
  0
LINE
  8
0
 62
7
  6
CONTINUOUS
 10
100.6856227223
 20
152.9291575022
 11
101.2677154242
 21
152.9291575022
  0
LINE
  8
0
 62
7
  6
CONTINUOUS
 10
101.2677154242
 20
153.047285189
 11
100.6856227223
 21
153.047285189
  0
LINE
  8
0
 62
7
  6
CONTINUOUS
 10
97.3518202223
 20
153.0768171004
 11
97.6164077728
 21
153.0768171004
  0
LINE
  8
0
 62
7
  6
CONTINUOUS
 10
99.9447778233
 20
153.1358809231
 11
100.2093652223
 21
153.1358809231
  0
LINE
  8
0
 62
7
  6
CONTINUOUS
 10
106.0832077223
 20
153.1358809231
 11
106.3477948186
 21
153.1358809231
  0
LINE
  8
0
 62
7
  6
CONTINUOUS
 10
100.5797878233
 20
153.2540085686
 11
100.8972928233
 21
153.2540085686
  0
LINE
  8
0
 62
7
  6
CONTINUOUS
 10
105.2894452223
 20
153.2540085686
 11
105.6069502223
 21
153.2540085686
  0
LINE
  8
0
 62
7
  6
CONTINUOUS
 10
105.6069502223
 20
153.3721362141
 11
105.2894452223
 21
153.3721362141
  0
LINE
  8
0
 62
7
  6
CONTINUOUS
 10
103.7019202223
 20
153.3721362141
 11
103.4902504242
 21
153.3721362141
  0
LINE
  8
0
 62
7
  6
CONTINUOUS
 10
103.0139929242
 20
153.3721362141
 11
102.7494052223
 21
153.3721362141
  0
LINE
  8
0
 62
7
  6
CONTINUOUS
 10
102.3260650205
 20
153.3721362141
 11
102.0614779242
 21
153.3721362141
  0
LINE
  8
0
 62
7
  6
CONTINUOUS
 10
100.8972928233
 20
153.3721362141
 11
100.5797878233
 21
153.3721362141
  0
LINE
  8
0
 62
7
  6
CONTINUOUS
 10
98.9922628233
 20
153.3721362141
 11
98.7805927223
 21
153.3721362141
  0
LINE
  8
0
 62
7
  6
CONTINUOUS
 10
102.0614779242
 20
153.6674554106
 11
102.3260650205
 21
153.6674554106
  0
LINE
  8
0
 62
7
  6
CONTINUOUS
 10
102.3260650205
 20
153.8151149675
 11
102.0614779242
 21
153.8151149675
  0
LINE
  8
0
 62
7
  6
CONTINUOUS
 10
98.3043352223
 20
153.8151149675
 11
98.0397476719
 21
153.8151149675
  0
LINE
  8
0
 62
7
  6
CONTINUOUS
 10
97.4230477223
 20
154.0771149675
 11
97.8005505063
 21
154.0771149675
  0
LINE
  8
0
 62
7
  6
CONTINUOUS
 10
98.9230477223
 20
154.0771149675
 11
100.1980477223
 21
154.0771149675
  0
LINE
  8
0
 62
7
  6
CONTINUOUS
 10
100.4980477223
 20
154.0771149675
 11
101.7730477223
 21
154.0771149675
  0
LINE
  8
0
 62
7
  6
CONTINUOUS
 10
103.4980477223
 20
154.0771149675
 11
104.7730477223
 21
154.0771149675
  0
LINE
  8
0
 62
7
  6
CONTINUOUS
 10
105.0730477223
 20
154.0771149675
 11
106.3480477223
 21
154.0771149675
  0
LINE
  8
0
 62
7
  6
CONTINUOUS
 10
98.1730477223
 20
155.1271149675
 11
97.5730477223
 21
155.1271149675
  0
LINE
  8
0
 62
7
  6
CONTINUOUS
 10
102.5230477223
 20
156.4771149675
 11
103.1230477223
 21
156.4771149675
  0
LINE
  8
0
 62
7
  6
CONTINUOUS
 10
106.3480477223
 20
157.5271149675
 11
105.0730477223
 21
157.5271149675
  0
LINE
  8
0
 62
7
  6
CONTINUOUS
 10
103.2730477223
 20
157.5271149675
 11
102.8955449384
 21
157.5271149675
  0
LINE
  8
0
 62
7
  6
CONTINUOUS
 10
101.7730477223
 20
157.5271149675
 11
100.4980477223
 21
157.5271149675
  0
LINE
  8
0
 62
7
  6
CONTINUOUS
 10
100.1980477223
 20
157.5271149675
 11
98.9230477223
 21
157.5271149675
  0
LINE
  8
0
 62
7
  6
CONTINUOUS
 10
97.1980477223
 20
157.5271149675
 11
95.9230477223
 21
157.5271149675
  0
LINE
  8
0
 62
7
  6
CONTINUOUS
 10
96.7697277476
 20
153.2540085686
 11
97.1401501971
 21
153.2244766573
  0
LINE
  8
0
 62
7
  6
CONTINUOUS
 10
97.1930677223
 20
153.3426043028
 11
96.8226451971
 21
153.3721362141
  0
LINE
  8
0
 62
7
  6
CONTINUOUS
 10
96.505140235
 20
152.4566468814
 11
96.8226451971
 21
152.4271149675
  0
LINE
  8
0
 62
7
  6
CONTINUOUS
 10
105.0777754242
 20
152.4566468814
 11
105.3952804242
 21
152.4271149675
  0
LINE
  8
0
 62
7
  6
CONTINUOUS
 10
105.3952804242
 20
152.5452426233
 11
105.0777754242
 21
152.574774545
  0
LINE
  8
0
 62
7
  6
CONTINUOUS
 10
101.2147975205
 20
153.3426043028
 11
100.8972928233
 21
153.3721362141
  0
LINE
  8
0
 62
7
  6
CONTINUOUS
 10
105.6069502223
 20
153.2540085686
 11
105.9244552223
 21
153.2244766573
  0
LINE
  8
0
 62
7
  6
CONTINUOUS
 10
105.9244552223
 20
153.3426043028
 11
105.6069502223
 21
153.3721362141
  0
LINE
  8
0
 62
7
  6
CONTINUOUS
 10
100.2622828233
 20
152.4566468814
 11
100.4739526214
 21
152.4271149675
  0
LINE
  8
0
 62
7
  6
CONTINUOUS
 10
98.7805927223
 20
153.2540085686
 11
98.9922628233
 21
153.2244766573
  0
LINE
  8
0
 62
7
  6
CONTINUOUS
 10
100.8972928233
 20
153.2540085686
 11
101.1089629242
 21
153.2244766573
  0
LINE
  8
0
 62
7
  6
CONTINUOUS
 10
103.4902504242
 20
153.2540085686
 11
103.7019202223
 21
153.2244766573
  0
LINE
  8
0
 62
7
  6
CONTINUOUS
 10
104.9719402223
 20
152.9291575022
 11
105.8715379242
 21
152.7814979453
  0
LINE
  8
0
 62
7
  6
CONTINUOUS
 10
106.0302904242
 20
152.8700936794
 11
105.1306927223
 21
153.0177532777
  0
LINE
  8
0
 62
7
  6
CONTINUOUS
 10
96.346387735
 20
152.4861787954
 11
96.505140235
 21
152.4566468814
  0
LINE
  8
0
 62
7
  6
CONTINUOUS
 10
96.7697277476
 20
152.5452426233
 11
96.4522227097
 21
152.6043064564
  0
LINE
  8
0
 62
7
  6
CONTINUOUS
 10
99.1510153233
 20
153.3426043028
 11
98.9922628233
 21
153.3721362141
  0
LINE
  8
0
 62
7
  6
CONTINUOUS
 10
104.9190229242
 20
152.4861787954
 11
105.0777754242
 21
152.4566468814
  0
LINE
  8
0
 62
7
  6
CONTINUOUS
 10
103.8606727223
 20
153.3426043028
 11
103.7019202223
 21
153.3721362141
  0
LINE
  8
0
 62
7
  6
CONTINUOUS
 10
106.0832077223
 20
153.3130723914
 11
105.9244552223
 21
153.3426043028
  0
LINE
  8
0
 62
7
  6
CONTINUOUS
 10
100.1564476214
 20
152.4861787954
 11
100.2622828233
 21
152.4566468814
  0
LINE
  8
0
 62
7
  6
CONTINUOUS
 10
97.4047376719
 20
153.28354048
 11
97.1930677223
 21
153.3426043028
  0
LINE
  8
0
 62
7
  6
CONTINUOUS
 10
100.4739526214
 20
152.5452426233
 11
100.2622828233
 21
152.6043064564
  0
LINE
  8
0
 62
7
  6
CONTINUOUS
 10
98.9922628233
 20
153.2244766573
 11
99.0980977223
 21
153.1949447459
  0
LINE
  8
0
 62
7
  6
CONTINUOUS
 10
101.1089629242
 20
153.2244766573
 11
101.2147975205
 21
153.1949447459
  0
LINE
  8
0
 62
7
  6
CONTINUOUS
 10
105.0777754242
 20
152.574774545
 11
104.9719402223
 21
152.6043064564
  0
LINE
  8
0
 62
7
  6
CONTINUOUS
 10
103.7019202223
 20
153.2244766573
 11
103.8077554242
 21
153.1949447459
  0
LINE
  8
0
 62
7
  6
CONTINUOUS
 10
105.9244552223
 20
153.2244766573
 11
106.0302904242
 21
153.1949447459
  0
LINE
  8
0
 62
7
  6
CONTINUOUS
 10
96.187635216
 20
152.5452426233
 11
96.346387735
 21
152.4861787954
  0
LINE
  8
0
 62
7
  6
CONTINUOUS
 10
97.1401501971
 20
153.2244766573
 11
97.2989027728
 21
153.1654128345
  0
LINE
  8
0
 62
7
  6
CONTINUOUS
 10
99.3097678233
 20
153.28354048
 11
99.1510153233
 21
153.3426043028
  0
LINE
  8
0
 62
7
  6
CONTINUOUS
 10
101.3735500205
 20
153.28354048
 11
101.2147975205
 21
153.3426043028
  0
LINE
  8
0
 62
7
  6
CONTINUOUS
 10
104.7602704242
 20
152.5452426233
 11
104.9190229242
 21
152.4861787954
  0
LINE
  8
0
 62
7
  6
CONTINUOUS
 10
104.0194252223
 20
153.28354048
 11
103.8606727223
 21
153.3426043028
  0
LINE
  8
0
 62
7
  6
CONTINUOUS
 10
105.1306927223
 20
153.0177532777
 11
104.9719402223
 21
153.0768171004
  0
LINE
  8
0
 62
7
  6
CONTINUOUS
 10
105.8715379242
 20
152.7814979453
 11
106.0302904242
 21
152.7224341226
  0
LINE
  8
0
 62
7
  6
CONTINUOUS
 10
96.0818002223
 20
152.6043064564
 11
96.187635216
 21
152.5452426233
  0
LINE
  8
0
 62
7
  6
CONTINUOUS
 10
96.4522227097
 20
152.6043064564
 11
96.2934702097
 21
152.6929022112
  0
LINE
  8
0
 62
7
  6
CONTINUOUS
 10
97.5634901719
 20
153.1949447459
 11
97.4047376719
 21
153.28354048
  0
LINE
  8
0
 62
7
  6
CONTINUOUS
 10
55.6204693579
 20
193.7025913214
 11
55.8446184101
 21
193.2377747943
  0
LINE
  8
0
 62
7
  6
CONTINUOUS
 10
56.3961634873
 20
190.338217938
 11
56.5867171131
 21
189.74297474
  0
LINE
  8
0
 62
7
  6
CONTINUOUS
 10
57.348931439
 20
187.3620025017
 11
57.5394850239
 21
186.7667594314
  0
LINE
  8
0
 62
7
  6
CONTINUOUS
 10
55.5214515473
 20
194.1926889765
 11
55.6204693579
 21
193.7025913214
  0
LINE
  8
0
 62
7
  6
CONTINUOUS
 10
55.8432593255
 20
192.5998721231
 11
55.9670315534
 21
191.9872502294
  0
LINE
  8
0
 62
7
  6
CONTINUOUS
 10
53.1348047167
 20
197.0757308008
 11
53.2146684905
 21
196.45585462
  0
LINE
  8
0
 62
7
  6
CONTINUOUS
 10
53.8477336923
 20
196.5374176444
 11
53.7678699185
 21
197.1572938253
  0
LINE
  8
0
 62
7
  6
CONTINUOUS
 10
55.0340006768
 20
197.3204199199
 11
55.1138644506
 21
196.700543739
  0
LINE
  8
0
 62
7
  6
CONTINUOUS
 10
59.7491567124
 20
221.9562037364
 11
59.7259378723
 21
222.2359514838
  0
LINE
  8
0
 62
7
  6
CONTINUOUS
 10
57.0495415156
 20
216.0808200965
 11
57.0770998
 21
215.6856460791
  0
LINE
  8
0
 62
7
  6
CONTINUOUS
 10
61.003627704
 20
188.9257174677
 11
60.9727664038
 21
189.4408334898
  0
LINE
  8
0
 62
7
  6
CONTINUOUS
 10
56.1209943244
 20
193.8037158336
 11
56.1471077554
 21
194.3190946169
  0
LINE
  8
0
 62
7
  6
CONTINUOUS
 10
57.785655928
 20
215.3690021036
 11
57.8220039802
 21
216.0058691149
  0
LINE
  8
0
 62
7
  6
CONTINUOUS
 10
59.1343977205
 20
221.803077021
 11
59.1101735812
 21
221.4076846157
  0
LINE
  8
0
 62
7
  6
CONTINUOUS
 10
61.6146443497
 20
220.7855610215
 11
61.5904202105
 21
220.3901686163
  0
LINE
  8
0
 62
7
  6
CONTINUOUS
 10
58.7066061026
 20
204.8386353821
 11
58.7902019191
 21
205.5839619813
  0
LINE
  8
0
 62
7
  6
CONTINUOUS
 10
58.9852587179
 20
207.3230564317
 11
59.0967198597
 21
208.3168257045
  0
LINE
  8
0
 62
7
  6
CONTINUOUS
 10
59.2917768179
 20
210.0559215765
 11
59.3753726344
 21
210.8012481757
  0
LINE
  8
0
 62
7
  6
CONTINUOUS
 10
55.5723194663
 20
194.5855431707
 11
55.5214515473
 21
194.1926889765
  0
LINE
  8
0
 62
7
  6
CONTINUOUS
 10
60.4864401545
 20
189.2851471579
 11
60.395719871
 21
188.7311095459
  0
POLYLINE
  8
0
 62
7
  6
CONTINUOUS
 66
1
 70
0
  0
VERTEX
  8
0
 62
7
  6
CONTINUOUS
 10
73.4319593119
 20
272.8002769675
  0
VERTEX
  8
0
 62
7
  6
CONTINUOUS
 10
73.499405139
 20
273.1924562732
  0
VERTEX
  8
0
 62
7
  6
CONTINUOUS
 10
73.5007662247
 20
273.2002769675
  0
SEQEND
  0
LINE
  8
0
 62
7
  6
CONTINUOUS
 10
62.251619137
 20
219.9838050966
 11
62.3707303105
 21
220.6104894687
  0
LINE
  8
0
 62
7
  6
CONTINUOUS
 10
59.6105585653
 20
211.7833790065
 11
59.8022783067
 21
212.5084607541
  0
LINE
  8
0
 62
7
  6
CONTINUOUS
 10
56.1471077554
 20
194.3190946169
 11
56.2227301625
 21
194.589424222
  0
LINE
  8
0
 62
7
  6
CONTINUOUS
 10
61.5904202105
 20
220.3901686163
 11
60.6889905723
 21
218.1928883547
  0
LINE
  8
0
 62
7
  6
CONTINUOUS
 10
61.1129702586
 20
217.2082909583
 11
62.251619137
 21
219.9838050966
  0
LINE
  8
0
 62
7
  6
CONTINUOUS
 10
55.748318627
 20
195.0036784929
 11
55.5723194663
 21
194.5855431707
  0
LINE
  8
SURFACE
 62
7
  6
CONTINUOUS
 10
37.6535417906
 20
162.8738644734
 11
37.8329899298
 21
163.2379149598
  0
LINE
  8
0
 62
7
  6
CONTINUOUS
 10
77.869054815
 20
244.5005534804
 11
78.077581032
 21
244.903455043
  0
LINE
  8
0
 62
7
  6
CONTINUOUS
 10
61.4388874922
 20
223.3836140057
 11
62.2597056823
 21
224.9291735034
  0
LINE
  8
0
 62
7
  6
CONTINUOUS
 10
64.6176029675
 20
224.8152522777
 11
65.0338993693
 21
225.4391090769
  0
LINE
  8
0
 62
7
  6
CONTINUOUS
 10
66.9766164404
 20
228.3504415995
 11
67.3929128422
 21
228.9742983986
  0
LINE
  8
0
 62
7
  6
CONTINUOUS
 10
77.6034570056
 20
245.517884072
 11
77.2849625345
 21
245.0555560317
  0
LINE
  8
0
 62
7
  6
CONTINUOUS
 10
82.4240199436
 20
241.5930688684
 11
82.7425143987
 21
242.0553969382
  0
LINE
  8
0
 62
7
  6
CONTINUOUS
 10
59.8188154044
 20
221.1169657878
 11
60.0792534847
 21
221.4154519171
  0
POLYLINE
  8
0
 62
7
  6
CONTINUOUS
 66
1
 70
0
  0
VERTEX
  8
0
 62
7
  6
CONTINUOUS
 10
119.8562611886
 20
276.1332625783
  0
VERTEX
  8
0
 62
7
  6
CONTINUOUS
 10
120.1413432211
 20
276.410898639
  0
VERTEX
  8
0
 62
7
  6
CONTINUOUS
 10
120.1470412513
 20
276.4164256875
  0
SEQEND
  0
LINE
  8
0
 62
7
  6
CONTINUOUS
 10
81.94989588
 20
242.2074979663
 11
81.5707096192
 21
241.8574796305
  0
LINE
  8
0
 62
7
  6
CONTINUOUS
 10
59.9621518134
 20
222.1390452079
 11
59.7491567124
 21
221.9562037364
  0
LINE
  8
0
 62
7
  6
CONTINUOUS
 10
92.751954935
 20
248.2259834389
 11
92.9661000651
 21
248.4074687524
  0
LINE
  8
0
 62
7
  6
CONTINUOUS
 10
81.9348604
 20
241.1836213247
 11
82.4240199436
 21
241.5930688684
  0
LINE
  8
0
 62
7
  6
CONTINUOUS
 10
86.4017969495
 20
247.0079730934
 11
86.0962398405
 21
246.7558683211
  0
LINE
  8
0
 62
7
  6
CONTINUOUS
 10
55.3580357821
 20
217.1745539752
 11
54.8599679121
 21
216.7890646522
  0
LINE
  8
0
 62
7
  6
CONTINUOUS
 10
86.2503842884
 20
245.9952395593
 11
86.7897656131
 21
246.3358157385
  0
LINE
  8
0
 62
7
  6
CONTINUOUS
 10
92.2700434061
 20
248.6372469644
 11
91.9342121168
 21
248.4271533942
  0
LINE
  8
0
 62
7
  6
CONTINUOUS
 10
92.883580474
 20
246.0275469017
 11
92.5477491847
 21
245.8174533315
  0
LINE
  8
0
 62
7
  6
CONTINUOUS
 10
57.600012072
 20
223.1081081033
 11
57.0559159854
 21
222.7908809452
  0
LINE
  8
0
 62
7
  6
CONTINUOUS
 10
82.7461395661
 20
243.3633222262
 11
82.0863199734
 21
243.0067579191
  0
LINE
  8
0
 62
7
  6
CONTINUOUS
 10
81.5707096192
 20
241.8574796305
 11
80.5809802301
 21
241.3226331699
  0
LINE
  8
0
 62
7
  6
CONTINUOUS
 10
80.9451310109
 20
240.6487748641
 11
81.9348604
 21
241.1836213247
  0
LINE
  8
SURFACE
 62
7
  6
CONTINUOUS
 10
26.2977892807
 20
208.2309529093
 11
26.6569493818
 21
208.4199989699
  0
LINE
  8
0
 62
7
  6
CONTINUOUS
 10
92.6013593336
 20
245.043216473
 11
93.1805573685
 21
245.3105252579
  0
LINE
  8
0
 62
7
  6
CONTINUOUS
 10
84.3932225448
 20
242.4262182805
 11
85.09468984
 21
242.6916304764
  0
LINE
  8
0
 62
7
  6
CONTINUOUS
 10
80.3345878773
 20
240.4639467491
 11
80.9451310109
 21
240.6487748641
  0
POLYLINE
  8
0
 62
7
  6
CONTINUOUS
 66
1
 70
0
  0
VERTEX
  8
0
 62
7
  6
CONTINUOUS
 10
44.1727052976
 20
154.5120453465
  0
VERTEX
  8
0
 62
7
  6
CONTINUOUS
 10
43.7788787066
 20
154.4550000696
  0
VERTEX
  8
0
 62
7
  6
CONTINUOUS
 10
43.7710201857
 20
154.4538778116
  0
SEQEND
  0
LINE
  8
SURFACE
 62
7
  6
CONTINUOUS
 10
159.7750752589
 20
154.4538778116
 11
159.373390147
 21
154.5120453465
  0
LINE
  8
0
 62
7
  6
CONTINUOUS
 10
106.2419602223
 20
153.2540085686
 11
106.0832077223
 21
153.3130723914
  0
LINE
  8
0
 62
7
  6
CONTINUOUS
 10
104.7602704242
 20
153.0177532777
 11
104.9719402223
 21
152.9291575022
  0
LINE
  8
0
 62
7
  6
CONTINUOUS
 10
106.2419602223
 20
152.7814979453
 11
106.0302904242
 21
152.8700936794
  0
POLYLINE
  8
0
 62
7
  6
CONTINUOUS
 66
1
 70
0
  0
VERTEX
  8
0
 62
7
  6
CONTINUOUS
 10
26.6569493818
 20
197.6342309651
  0
VERTEX
  8
0
 62
7
  6
CONTINUOUS
 10
26.3048066043
 20
197.8195658288
  0
VERTEX
  8
0
 62
7
  6
CONTINUOUS
 10
26.2977892807
 20
197.8232770256
  0
SEQEND
  0
LINE
  8
0
 62
7
  6
CONTINUOUS
 10
99.9976951214
 20
152.574774545
 11
100.1564476214
 21
152.4861787954
  0
LINE
  8
0
 62
7
  6
CONTINUOUS
 10
99.0980977223
 20
153.1949447459
 11
99.2039326214
 21
153.1358809231
  0
LINE
  8
0
 62
7
  6
CONTINUOUS
 10
99.4156027223
 20
153.2244766573
 11
99.3097678233
 21
153.28354048
  0
LINE
  8
0
 62
7
  6
CONTINUOUS
 10
101.4793852223
 20
153.2244766573
 11
101.3735500205
 21
153.28354048
  0
LINE
  8
0
 62
7
  6
CONTINUOUS
 10
103.8077554242
 20
153.1949447459
 11
103.9135900205
 21
153.1358809231
  0
LINE
  8
0
 62
7
  6
CONTINUOUS
 10
104.1252604242
 20
153.2244766573
 11
104.0194252223
 21
153.28354048
  0
LINE
  8
SURFACE
 62
7
  6
CONTINUOUS
 10
120.1470412513
 20
129.6378042474
 11
119.8562611886
 21
129.9209673566
  0
LINE
  8
0
 62
7
  6
CONTINUOUS
 10
55.8446184101
 20
193.2377747943
 11
56.1691441451
 21
192.9207643349
  0
LINE
  8
0
 62
7
  6
CONTINUOUS
 10
56.6696691116
 20
193.0218888471
 11
56.3451433766
 21
193.3388993065
  0
LINE
  8
0
 62
7
  6
CONTINUOUS
 10
60.5462991166
 20
190.3543007851
 11
60.3484960821
 21
190.5534765495
  0
LINE
  8
0
 62
7
  6
CONTINUOUS
 10
95.9759652239
 20
152.7224341226
 11
96.0818002223
 21
152.6043064564
  0
LINE
  8
0
 62
7
  6
CONTINUOUS
 10
60.0599728353
 20
190.1986144429
 11
60.3339972648
 21
189.7613416822
  0
LINE
  8
0
 62
7
  6
CONTINUOUS
 10
60.8203235141
 20
189.9170280141
 11
60.5462991166
 21
190.3543007851
  0
POLYLINE
  8
0
 62
7
  6
CONTINUOUS
 66
1
 70
0
  0
VERTEX
  8
0
 62
7
  6
CONTINUOUS
 10
37.8329899298
 20
242.8163149751
  0
VERTEX
  8
0
 62
7
  6
CONTINUOUS
 10
37.6570375379
 20
243.1732383609
  0
VERTEX
  8
0
 62
7
  6
CONTINUOUS
 10
37.6535417906
 20
243.1803654615
  0
SEQEND
  0
LINE
  8
0
 62
7
  6
CONTINUOUS
 10
56.3451433766
 20
193.3388993065
 11
56.1209943244
 21
193.8037158336
  0
LINE
  8
0
 62
7
  6
CONTINUOUS
 10
60.3339972648
 20
189.7613416822
 11
60.4864401545
 21
189.2851471579
  0
LINE
  8
0
 62
7
  6
CONTINUOUS
 10
60.9727664038
 20
189.4408334898
 11
60.8203235141
 21
189.9170280141
  0
LINE
  8
0
 62
7
  6
CONTINUOUS
 10
60.4011056355
 20
191.2265627431
 11
60.2105520097
 21
191.821805941
  0
LINE
  8
0
 62
7
  6
CONTINUOUS
 10
59.971231636
 20
192.7962463984
 11
59.8474594082
 21
193.408868292
  0
LINE
  8
0
 62
7
  6
CONTINUOUS
 10
59.4018794729
 20
195.6143066887
 11
59.2781073158
 21
196.2269282318
  0
LINE
  8
SURFACE
 62
7
  6
CONTINUOUS
 10
73.5007662247
 20
132.8539529675
 11
73.4319593119
 21
133.2539529675
  0
LINE
  8
0
 62
7
  6
CONTINUOUS
 10
59.1654820969
 20
197.2225471412
 11
59.0856183231
 21
197.8424233221
  0
LINE
  8
0
 62
7
  6
CONTINUOUS
 10
77.2849625345
 20
245.0555560317
 11
77.0878516429
 21
244.3686085824
  0
LINE
  8
0
 62
7
  6
CONTINUOUS
 10
60.8747967359
 20
188.4907284051
 11
61.003627704
 21
188.9257174677
  0
LINE
  8
0
 62
7
  6
CONTINUOUS
 10
86.5452627362
 20
247.335239824
 11
86.4017969495
 21
247.0079730934
  0
LINE
  8
0
 62
7
  6
CONTINUOUS
 10
82.1584220544
 20
242.6103996075
 11
81.94989588
 21
242.2074979663
  0
LINE
  8
0
 62
7
  6
CONTINUOUS
 10
92.4549724883
 20
248.943003697
 11
92.2700434061
 21
248.6372469644
  0
LINE
  8
0
 62
7
  6
CONTINUOUS
 10
86.7897656131
 20
246.3358157385
 11
87.1218790768
 21
246.8709525504
  0
LINE
  8
0
 62
7
  6
CONTINUOUS
 10
55.9490722758
 20
195.2992892261
 11
55.748318627
 21
195.0036784929
  0
LINE
  8
0
 62
7
  6
CONTINUOUS
 10
56.2227301625
 20
194.589424222
 11
56.4234838113
 21
194.8850349552
  0
LINE
  8
0
 62
7
  6
CONTINUOUS
 10
93.1805573685
 20
245.3105252579
 11
93.5796371432
 21
245.7977686461
  0
LINE
  8
0
 62
7
  6
CONTINUOUS
 10
55.4451051536
 20
216.5050510544
 11
55.7558485318
 21
216.6814805271
  0
LINE
  8
0
 62
7
  6
CONTINUOUS
 10
114.0001030961
 20
245.0868420781
 11
119.4076797908
 21
247.8544932154
  0
LINE
  8
0
 62
7
  6
CONTINUOUS
 10
118.8959896109
 20
248.2949262339
 11
113.3698683503
 21
245.5669379199
  0
LINE
  8
0
 62
7
  6
CONTINUOUS
 10
121.8298279025
 20
247.734223673
 11
120.7797583198
 21
247.2258880931
  0
LINE
  8
0
 62
7
  6
CONTINUOUS
 10
120.3617271991
 20
246.2940853517
 11
121.4117969282
 21
246.8024212578
  0
LINE
  8
0
 62
7
  6
CONTINUOUS
 10
57.7171137433
 20
222.3845148126
 11
58.0482158148
 21
222.5189031461
  0
LINE
  8
0
 62
7
  6
CONTINUOUS
 10
60.0792534847
 20
221.4154519171
 11
60.4103555562
 21
221.5498402506
  0
LINE
  8
0
 62
7
  6
CONTINUOUS
 10
55.9475682732
 20
217.4065622747
 11
55.3580357821
 21
217.1745539752
  0
LINE
  8
0
 62
7
  6
CONTINUOUS
 10
124.4476950728
 20
245.9103189782
 11
123.9327444958
 21
245.7615790346
  0
LINE
  8
0
 62
7
  6
CONTINUOUS
 10
56.1691441451
 20
192.9207643349
 11
56.4689155337
 21
192.7262777634
  0
LINE
  8
0
 62
7
  6
CONTINUOUS
 10
56.9694405002
 20
192.8274022757
 11
56.6696691116
 21
193.0218888471
  0
LINE
  8
0
 62
7
  6
CONTINUOUS
 10
59.7024775783
 20
190.4779171344
 11
60.0599728353
 21
190.1986144429
  0
LINE
  8
0
 62
7
  6
CONTINUOUS
 10
99.4685203233
 20
153.1654128345
 11
99.4156027223
 21
153.2244766573
  0
LINE
  8
0
 62
7
  6
CONTINUOUS
 10
100.2622828233
 20
152.6043064564
 11
100.2093652223
 21
152.6633702791
  0
LINE
  8
0
 62
7
  6
CONTINUOUS
 10
101.3206327223
 20
152.4861787954
 11
101.3735500205
 21
152.4271149675
  0
LINE
  8
0
 62
7
  6
CONTINUOUS
 10
101.2147975205
 20
153.1949447459
 11
101.2677154242
 21
153.1358809231
  0
LINE
  8
0
 62
7
  6
CONTINUOUS
 10
104.6544352223
 20
152.6633702791
 11
104.7602704242
 21
152.5452426233
  0
LINE
  8
0
 62
7
  6
CONTINUOUS
 10
104.9719402223
 20
152.6043064564
 11
104.9190229242
 21
152.6633702791
  0
LINE
  8
0
 62
7
  6
CONTINUOUS
 10
104.6544352223
 20
153.1358809231
 11
104.7602704242
 21
153.0177532777
  0
LINE
  8
0
 62
7
  6
CONTINUOUS
 10
104.9719402223
 20
153.0768171004
 11
104.9190229242
 21
153.1358809231
  0
LINE
  8
0
 62
7
  6
CONTINUOUS
 10
106.0302904242
 20
152.7224341226
 11
106.0832077223
 21
152.6633702791
  0
LINE
  8
0
 62
7
  6
CONTINUOUS
 10
106.3477948186
 20
152.6633702791
 11
106.2419602223
 21
152.7814979453
  0
LINE
  8
0
 62
7
  6
CONTINUOUS
 10
106.0302904242
 20
153.1949447459
 11
106.0832077223
 21
153.1358809231
  0
LINE
  8
0
 62
7
  6
CONTINUOUS
 10
96.2934702097
 20
152.6929022112
 11
96.187635216
 21
152.8405617681
  0
LINE
  8
0
 62
7
  6
CONTINUOUS
 10
56.8666122735
 20
216.3877821435
 11
57.0495415156
 21
216.0808200965
  0
LINE
  8
0
 62
7
  6
CONTINUOUS
 10
58.9930719099
 20
222.1312779065
 11
59.1343977205
 21
221.803077021
  0
LINE
  8
0
 62
7
  6
CONTINUOUS
 10
57.8220039802
 20
216.0058691149
 11
57.5795629196
 21
216.5871572994
  0
LINE
  8
0
 62
7
  6
CONTINUOUS
 10
62.3707303105
 20
220.6104894687
 11
62.2061845429
 21
221.2184354674
  0
LINE
  8
0
 62
7
  6
CONTINUOUS
 10
77.0878516429
 20
244.3686085824
 11
77.1106772595
 21
243.8005140885
  0
LINE
  8
0
 62
7
  6
CONTINUOUS
 10
77.8311888119
 20
244.0447683764
 11
77.869054815
 21
244.5005534804
  0
LINE
  8
0
 62
7
  6
CONTINUOUS
 10
87.1218790768
 20
246.8709525504
 11
87.29190657
 21
247.4812533456
  0
LINE
  8
0
 62
7
  6
CONTINUOUS
 10
82.7425143987
 20
242.0553969382
 11
82.939625269
 21
242.7423444268
  0
LINE
  8
0
 62
7
  6
CONTINUOUS
 10
92.9661000651
 20
248.4074687524
 11
93.2142832106
 21
248.9903765799
  0
LINE
  8
0
 62
7
  6
CONTINUOUS
 10
93.5796371432
 20
245.7977686461
 11
93.8278202785
 21
246.3806765171
  0
LINE
  8
0
 62
7
  6
CONTINUOUS
 10
60.6243841852
 20
188.0168178233
 11
60.8747967359
 21
188.4907284051
  0
LINE
  8
0
 62
7
  6
CONTINUOUS
 10
93.0685095357
 20
246.3333037213
 11
92.883580474
 21
246.0275469017
  0
LINE
  8
0
 62
7
  6
CONTINUOUS
 10
60.395719871
 20
188.7311095459
 11
60.1071965757
 21
188.3762475177
  0
LINE
  8
0
 62
7
  6
CONTINUOUS
 10
123.9327444958
 20
245.7615790346
 11
123.4637430058
 21
245.4401870213
  0
LINE
  8
0
 62
7
  6
CONTINUOUS
 10
123.7104162937
 20
244.8606794327
 11
124.5227150241
 21
245.2812335977
  0
LINE
  8
0
 62
7
  6
CONTINUOUS
 10
125.1275898353
 20
241.2725289776
 11
124.315291237
 21
240.8519750461
  0
LINE
  8
0
 62
7
  6
CONTINUOUS
 10
124.3903111663
 20
240.2228896266
 11
124.9052617654
 21
240.3716296092
  0
LINE
  8
0
 62
7
  6
CONTINUOUS
 10
59.2615114205
 20
190.5992495454
 11
59.7024775783
 21
190.4779171344
  0
LINE
  8
0
 62
7
  6
CONTINUOUS
 10
60.3484960821
 20
190.5534765495
 11
59.8694192641
 21
190.7938574706
  0
LINE
  8
0
 62
7
  6
CONTINUOUS
 10
106.3477948186
 20
153.1358809231
 11
106.2419602223
 21
153.2540085686
  0
LINE
  8
0
 62
7
  6
CONTINUOUS
 10
57.5795629196
 20
216.5871572994
 11
57.1817501699
 21
217.0802307475
  0
LINE
  8
0
 62
7
  6
CONTINUOUS
 10
59.7259378723
 20
222.2359514838
 11
59.3958411
 21
222.776703303
  0
LINE
  8
0
 62
7
  6
CONTINUOUS
 10
62.2061845429
 20
221.2184354674
 11
61.8760877293
 21
221.7591873036
  0
LINE
  8
0
 62
7
  6
CONTINUOUS
 10
97.2989027728
 20
153.1654128345
 11
97.3518202223
 21
153.0768171004
  0
LINE
  8
0
 62
7
  6
CONTINUOUS
 10
101.2677154242
 20
152.574774545
 11
101.3206327223
 21
152.4861787954
  0
LINE
  8
0
 62
7
  6
CONTINUOUS
 10
101.6381377223
 20
152.4271149675
 11
101.5852204242
 21
152.5157107119
  0
LINE
  8
0
 62
7
  6
CONTINUOUS
 10
101.5323025205
 20
153.1358809231
 11
101.4793852223
 21
153.2244766573
  0
LINE
  8
0
 62
7
  6
CONTINUOUS
 10
104.1781777223
 20
153.1358809231
 11
104.1252604242
 21
153.2244766573
  0
LINE
  8
0
 62
7
  6
CONTINUOUS
 10
97.6164077728
 20
153.0768171004
 11
97.5634901719
 21
153.1949447459
  0
LINE
  8
0
 62
7
  6
CONTINUOUS
 10
99.2039326214
 20
153.1358809231
 11
99.2568502223
 21
153.0177532777
  0
LINE
  8
0
 62
7
  6
CONTINUOUS
 10
99.9447778233
 20
152.6929022112
 11
99.9976951214
 21
152.574774545
  0
LINE
  8
0
 62
7
  6
CONTINUOUS
 10
61.4733184564
 20
221.1137619409
 11
61.6146443497
 21
220.7855610215
  0
LINE
  8
SURFACE
 62
7
  6
CONTINUOUS
 10
84.8730477223
 20
283.7002769675
 11
84.8730477223
 21
281.2002769675
  0
LINE
  8
0
 62
7
  6
CONTINUOUS
 10
84.8730477223
 20
124.8539529675
 11
84.8730477223
 21
122.3539529675
  0
LINE
  8
SURFACE
 62
7
  6
CONTINUOUS
 10
135.5191553968
 20
278.2266447792
 11
134.0496922661
 21
276.2041022932
  0
LINE
  8
0
 62
7
  6
CONTINUOUS
 10
42.1516287687
 20
149.7172691692
 11
40.682165638
 21
147.6947266832
  0
LINE
  8
CURVE
 62
40
  6
CONTINUOUS
 10
83.725676904
 20
215.5267570964
 11
89.2734055934
 21
221.0744857858
  0
LINE
  8
CURVE
 62
40
  6
CONTINUOUS
 10
97.6407430399
 20
227.1790815325
 11
93.3981023528
 21
222.9364408453
  0
LINE
  8
CURVE
 62
40
  6
CONTINUOUS
 10
77.6210811573
 20
207.1594196499
 11
81.8637218445
 21
211.402060337
  0
LINE
  8
0
 62
7
  6
CONTINUOUS
 10
60.2105520097
 20
191.821805941
 11
60.0054996756
 21
191.6249139311
  0
LINE
  8
0
 62
7
  6
CONTINUOUS
 10
60.4193318008
 20
187.8199260437
 11
60.6243841852
 21
188.0168178233
  0
LINE
  8
0
 62
7
  6
CONTINUOUS
 10
123.4637430058
 20
245.4401870213
 11
123.1664048137
 21
245.1683671659
  0
LINE
  8
0
 62
7
  6
CONTINUOUS
 10
59.8694192641
 20
190.7938574706
 11
60.4011056355
 21
191.2265627431
  0
LINE
  8
0
 62
7
  6
CONTINUOUS
 10
124.9052617654
 20
240.3716296092
 11
125.3742632994
 21
240.6930217003
  0
LINE
  8
0
 62
7
  6
CONTINUOUS
 10
56.2997115126
 20
195.4976571994
 11
55.9490722758
 21
195.2992892261
  0
LINE
  8
SURFACE
 62
7
  6
CONTINUOUS
 10
173.2753969276
 20
244.0293481408
 11
170.8977556369
 21
243.2568056549
  0
LINE
  8
0
 62
7
  6
CONTINUOUS
 10
22.2035653979
 20
194.9431345308
 11
19.8259241072
 21
194.1705920449
  0
LINE
  8
0
 62
7
  6
CONTINUOUS
 10
173.2753969276
 20
162.0248817941
 11
170.8977556369
 21
162.79742428
  0
LINE
  8
SURFACE
 62
7
  6
CONTINUOUS
 10
22.2035653979
 20
211.1110954041
 11
19.8259241072
 21
211.88363789
  0
LINE
  8
0
 62
7
  6
CONTINUOUS
 10
59.0967198597
 20
208.3168257045
 11
54.5978048931
 21
210.5823973738
  0
LINE
  8
CURVE
 62
40
  6
CONTINUOUS
 10
83.725676904
 20
190.5274728386
 11
89.2734055934
 21
184.9797441491
  0
LINE
  8
CURVE
 62
40
  6
CONTINUOUS
 10
93.3981023528
 20
183.1177890896
 11
97.6407430399
 21
178.8751484025
  0
LINE
  8
CURVE
 62
40
  6
CONTINUOUS
 10
81.8637218445
 20
194.6521695979
 11
77.6210811573
 21
198.894810285
  0
LINE
  8
SURFACE
 62
7
  6
CONTINUOUS
 10
40.682165638
 20
258.3595032517
 11
42.1516287687
 21
256.3369607657
  0
LINE
  8
0
 62
7
  6
CONTINUOUS
 10
135.5191553968
 20
127.8275851558
 11
134.0496922661
 21
129.8501276417
  0
LINE
  8
0
 62
7
  6
CONTINUOUS
 10
99.5214376214
 20
153.0177532777
 11
99.4685203233
 21
153.1654128345
  0
LINE
  8
0
 62
7
  6
CONTINUOUS
 10
101.5852204242
 20
152.5157107119
 11
101.5323025205
 21
152.6633702791
  0
LINE
  8
0
 62
7
  6
CONTINUOUS
 10
103.9135900205
 20
153.1358809231
 11
103.9665079242
 21
152.9882213663
  0
LINE
  8
0
 62
7
  6
CONTINUOUS
 10
104.2310950205
 20
152.9882213663
 11
104.1781777223
 21
153.1358809231
  0
LINE
  8
0
 62
7
  6
CONTINUOUS
 10
95.9230477223
 20
152.8996255908
 11
95.9759652239
 21
152.7224341226
  0
LINE
  8
0
 62
7
  6
CONTINUOUS
 10
70.121937937
 20
238.749678363
 11
71.0663208261
 21
235.2950633191
  0
LINE
  8
0
 62
7
  6
CONTINUOUS
 10
71.5155453863
 20
235.3583890384
 11
70.5711627378
 21
238.8130038177
  0
LINE
  8
0
 62
7
  6
CONTINUOUS
 10
86.5266479041
 20
247.7376725629
 11
86.5452627362
 21
247.335239824
  0
LINE
  8
0
 62
7
  6
CONTINUOUS
 10
87.29190657
 20
247.4812533456
 11
87.2732917379
 21
247.8836860845
  0
LINE
  8
0
 62
7
  6
CONTINUOUS
 10
92.4890105037
 20
249.344426211
 11
92.4549724883
 21
248.943003697
  0
LINE
  8
0
 62
7
  6
CONTINUOUS
 10
93.2142832106
 20
248.9903765799
 11
93.248321226
 21
249.3917990939
  0
LINE
  8
0
 62
7
  6
CONTINUOUS
 10
93.1025475511
 20
246.7347262353
 11
93.0685095357
 21
246.3333037213
  0
LINE
  8
0
 62
7
  6
CONTINUOUS
 10
93.8278202785
 20
246.3806765171
 11
93.8618582734
 21
246.7820991183
  0
LINE
  8
0
 62
7
  6
CONTINUOUS
 10
123.2245266198
 20
244.2555118122
 11
123.7104162937
 21
244.8606794327
  0
LINE
  8
0
 62
7
  6
CONTINUOUS
 10
123.1664048137
 20
245.1683671659
 11
122.7433623719
 21
244.6743174489
  0
LINE
  8
0
 62
7
  6
CONTINUOUS
 10
125.3742632994
 20
240.6930217003
 11
125.6716013154
 21
240.9648412444
  0
LINE
  8
0
 62
7
  6
CONTINUOUS
 10
60.1071965757
 20
188.3762475177
 11
59.780562643
 21
188.1404341479
  0
LINE
  8
0
 62
7
  6
CONTINUOUS
 10
60.0054996756
 20
191.6249139311
 11
59.5572840866
 21
191.350179089
  0
LINE
  8
0
 62
7
  6
CONTINUOUS
 10
59.9711162279
 20
187.5451910777
 11
60.4193318008
 21
187.8199260437
  0
LINE
  8
0
 62
7
  6
CONTINUOUS
 10
56.9006133744
 20
195.7465867277
 11
56.2997115126
 21
195.4976571994
  0
LINE
  8
0
 62
7
  6
CONTINUOUS
 10
56.4234838113
 20
194.8850349552
 11
57.0243855314
 21
195.1339651846
  0
LINE
  8
0
 62
7
  6
CONTINUOUS
 10
140.3685743257
 20
230.264442188
 11
139.987728483
 21
230.1330836506
  0
LINE
  8
0
 62
7
  6
CONTINUOUS
 10
140.3383928622
 20
229.4579307374
 11
140.7192387049
 21
229.5892892748
  0
LINE
  8
0
 62
7
  6
CONTINUOUS
 10
53.2873661161
 20
210.3520248087
 11
58.4066688453
 21
207.8910871561
  0
LINE
  8
0
 62
7
  6
CONTINUOUS
 10
56.5283106108
 20
216.6065266882
 11
56.8666122735
 21
216.3877821435
  0
LINE
  8
0
 62
7
  6
CONTINUOUS
 10
57.1817501699
 20
217.0802307475
 11
56.8434485073
 21
217.2989752922
  0
LINE
  8
0
 62
7
  6
CONTINUOUS
 10
58.6861939777
 20
222.3922819782
 11
58.9930719099
 21
222.1312779065
  0
LINE
  8
0
 62
7
  6
CONTINUOUS
 10
59.3958411
 20
222.776703303
 11
59.0889631678
 21
223.0377073748
  0
LINE
  8
0
 62
7
  6
CONTINUOUS
 10
61.1664405242
 20
221.3747660127
 11
61.4733184564
 21
221.1137619409
  0
LINE
  8
0
 62
7
  6
CONTINUOUS
 10
61.8760877293
 20
221.7591873036
 11
61.5692097143
 21
222.0201914093
  0
LINE
  8
0
 62
7
  6
CONTINUOUS
 10
77.1106772595
 20
243.8005140885
 11
77.3041681239
 21
243.1795387736
  0
LINE
  8
0
 62
7
  6
CONTINUOUS
 10
77.9639877167
 20
243.5361030806
 11
77.8311888119
 21
244.0447683764
  0
LINE
  8
0
 62
7
  6
CONTINUOUS
 10
82.0863199734
 20
243.0067579191
 11
82.1584220544
 21
242.6103996075
  0
LINE
  8
0
 62
7
  6
CONTINUOUS
 10
95.9230477223
 20
157.5271149675
 11
95.9230477223
 21
155.5771149675
  0
LINE
  8
0
 62
7
  6
CONTINUOUS
 10
96.187635216
 20
152.8405617681
 11
96.187635216
 21
152.9291575022
  0
LINE
  8
0
 62
7
  6
CONTINUOUS
 10
97.1980477223
 20
155.5021149675
 11
97.1980477223
 21
157.5271149675
  0
LINE
  8
0
 62
7
  6
CONTINUOUS
 10
98.0397476719
 20
153.8151149675
 11
98.0397476719
 21
152.4271149675
  0
LINE
  8
0
 62
7
  6
CONTINUOUS
 10
98.3043352223
 20
152.4271149675
 11
98.3043352223
 21
153.1063490118
  0
LINE
  8
0
 62
7
  6
CONTINUOUS
 10
98.3043352223
 20
153.2244766573
 11
98.3043352223
 21
153.8151149675
  0
LINE
  8
0
 62
7
  6
CONTINUOUS
 10
98.9230477223
 20
157.5271149675
 11
98.9230477223
 21
155.8771149675
  0
LINE
  8
0
 62
7
  6
CONTINUOUS
 10
98.9230477223
 20
154.6771149675
 11
98.9230477223
 21
154.0771149675
  0
LINE
  8
0
 62
7
  6
CONTINUOUS
 10
99.2568502223
 20
153.0177532777
 11
99.2568502223
 21
152.4271149675
  0
LINE
  8
0
 62
7
  6
CONTINUOUS
 10
99.5214376214
 20
152.4271149675
 11
99.5214376214
 21
153.0177532777
  0
LINE
  8
0
 62
7
  6
CONTINUOUS
 10
99.9447778233
 20
153.1949447459
 11
99.9447778233
 21
153.1358809231
  0
LINE
  8
0
 62
7
  6
CONTINUOUS
 10
99.9447778233
 20
152.7814979453
 11
99.9447778233
 21
152.6929022112
  0
LINE
  8
0
 62
7
  6
CONTINUOUS
 10
100.1980477223
 20
154.0771149675
 11
100.1980477223
 21
157.5271149675
  0
LINE
  8
0
 62
7
  6
CONTINUOUS
 10
100.2093652223
 20
152.6633702791
 11
100.2093652223
 21
152.7224341226
  0
LINE
  8
0
 62
7
  6
CONTINUOUS
 10
100.4980477223
 20
157.5271149675
 11
100.4980477223
 21
154.0771149675
  0
LINE
  8
0
 62
7
  6
CONTINUOUS
 10
101.2677154242
 20
153.1358809231
 11
101.2677154242
 21
153.047285189
  0
LINE
  8
0
 62
7
  6
CONTINUOUS
 10
101.2677154242
 20
152.9291575022
 11
101.2677154242
 21
152.7519660339
  0
LINE
  8
0
 62
7
  6
CONTINUOUS
 10
101.5323025205
 20
152.6633702791
 11
101.5323025205
 21
153.1358809231
  0
LINE
  8
0
 62
2
  6
CONTINUOUS
 10
101.7730477223
 20
203.9071149675
 11
101.7730477223
 21
202.1471149675
  0
LINE
  8
DEFAULT_1
 62
2
  6
CENTER
 10
101.7730477223
 20
198.6271149675
 11
101.7730477223
 21
157.5271149675
  0
LINE
  8
DEFAULT_1
 62
2
  6
CENTER
 10
101.7730477223
 20
154.0771149675
 11
101.7730477223
 21
136.0271149675
  0
LINE
  8
DEFAULT_1
 62
2
  6
CENTER
 10
101.7730477223
 20
156.9271149675
 11
101.7730477223
 21
155.7271149675
  0
LINE
  8
0
 62
7
  6
CONTINUOUS
 10
101.7730477223
 20
154.0771149675
 11
101.7730477223
 21
155.7271149675
  0
LINE
  8
0
 62
7
  6
CONTINUOUS
 10
101.7730477223
 20
156.9271149675
 11
101.7730477223
 21
157.5271149675
  0
LINE
  8
DEFAULT_1
 62
2
  6
CENTER
 10
101.7730477223
 20
207.4271149675
 11
101.7730477223
 21
270.0271149675
  0
LINE
  8
0
 62
7
  6
CONTINUOUS
 10
102.0614779242
 20
153.8151149675
 11
102.0614779242
 21
153.6674554106
  0
LINE
  8
0
 62
7
  6
CONTINUOUS
 10
102.0614779242
 20
153.3721362141
 11
102.0614779242
 21
152.4271149675
  0
LINE
  8
0
 62
7
  6
CONTINUOUS
 10
102.3260650205
 20
152.4271149675
 11
102.3260650205
 21
153.3721362141
  0
LINE
  8
0
 62
7
  6
CONTINUOUS
 10
102.3260650205
 20
153.6674554106
 11
102.3260650205
 21
153.8151149675
  0
LINE
  8
0
 62
7
  6
CONTINUOUS
 10
102.7494052223
 20
153.3721362141
 11
102.7494052223
 21
152.4271149675
  0
LINE
  8
0
 62
7
  6
CONTINUOUS
 10
114.9495819692
 20
250.2883987045
 11
114.7470546076
 21
249.6830832954
  0
LINE
  8
0
 62
7
  6
CONTINUOUS
 10
113.3698683503
 20
245.5669379199
 11
113.0458245434
 21
244.5984331806
  0
LINE
  8
0
 62
7
  6
CONTINUOUS
 10
120.7797583198
 20
247.2258880931
 11
120.3617271991
 21
246.2940853517
  0
LINE
  8
0
 62
7
  6
CONTINUOUS
 10
121.4117969282
 20
246.8024212578
 11
119.3738956355
 21
242.2598838315
  0
LINE
  8
0
 62
7
  6
CONTINUOUS
 10
120.0581881157
 20
241.9528922981
 11
122.5141203827
 21
247.4272321396
  0
LINE
  8
0
 62
7
  6
CONTINUOUS
 10
122.7433623719
 20
244.6743174489
 11
122.1777372817
 21
243.6742563179
  0
LINE
  8
0
 62
7
  6
CONTINUOUS
 10
122.784595994
 20
243.4776864881
 11
123.2245266198
 21
244.2555118122
  0
LINE
  8
0
 62
7
  6
CONTINUOUS
 10
125.6134795973
 20
241.8776967537
 11
125.1275898353
 21
241.2725289776
  0
LINE
  8
0
 62
7
  6
CONTINUOUS
 10
125.6716013154
 20
240.9648412444
 11
126.0946438452
 21
241.458891117
  0
LINE
  8
0
 62
7
  6
CONTINUOUS
 10
139.4561312104
 20
234.433052048
 11
134.6710436484
 21
230.8132541221
  0
LINE
  8
0
 62
7
  6
CONTINUOUS
 10
135.1235183891
 20
230.2151181769
 11
137.2615362663
 21
231.8324747199
  0
LINE
  8
0
 62
7
  6
CONTINUOUS
 10
137.8723984354
 20
232.2945765277
 11
139.3995541435
 21
233.4498312629
  0
LINE
  8
0
 62
7
  6
CONTINUOUS
 10
144.0963536343
 20
222.2912342716
 11
143.2660651632
 21
221.9608220364
  0
LINE
  8
0
 62
7
  6
CONTINUOUS
 10
144.090223096
 20
221.6161159074
 11
144.3274483734
 21
221.7105194032
  0
LINE
  8
0
 62
7
  6
CONTINUOUS
 10
142.8316994666
 20
220.9807621474
 11
143.1875373827
 21
221.1223673911
  0
LINE
  8
0
 62
7
  6
CONTINUOUS
 10
59.5572840866
 20
191.350179089
 11
56.3961634873
 21
190.338217938
  0
LINE
  8
0
 62
7
  6
CONTINUOUS
 10
56.5867171131
 20
189.74297474
 11
59.2615114205
 21
190.5992495454
  0
LINE
  8
0
 62
7
  6
CONTINUOUS
 10
55.9670315534
 20
191.9872502294
 11
59.971231636
 21
192.7962463984
  0
LINE
  8
0
 62
7
  6
CONTINUOUS
 10
59.8474594082
 20
193.408868292
 11
56.9694405002
 21
192.8274022757
  0
LINE
  8
0
 62
7
  6
CONTINUOUS
 10
56.4689155337
 20
192.7262777634
 11
55.8432593255
 21
192.5998721231
  0
LINE
  8
0
 62
7
  6
CONTINUOUS
 10
53.2146684905
 20
196.45585462
 11
53.8477336923
 21
196.5374176444
  0
LINE
  8
0
 62
7
  6
CONTINUOUS
 10
55.1138644506
 20
196.700543739
 11
59.1654820969
 21
197.2225471412
  0
LINE
  8
0
 62
7
  6
CONTINUOUS
 10
59.0856183231
 20
197.8424233221
 11
55.0340006768
 21
197.3204199199
  0
LINE
  8
0
 62
7
  6
CONTINUOUS
 10
53.7678699185
 20
197.1572938253
 11
53.1348047167
 21
197.0757308008
  0
LINE
  8
0
 62
2
  6
CONTINUOUS
 10
102.6530477223
 20
203.0271149675
 11
100.8930477223
 21
203.0271149675
  0
LINE
  8
DEFAULT_1
 62
2
  6
CENTER
 10
97.3730477223
 20
203.0271149675
 11
34.7730477223
 21
203.0271149675
  0
LINE
  8
DEFAULT_1
 62
2
  6
CENTER
 10
106.1730477223
 20
203.0271149675
 11
168.7730477223
 21
203.0271149675
  0
LINE
  8
0
 62
7
  6
CONTINUOUS
 10
52.743993309
 20
205.507401914
 11
58.7066061026
 21
204.8386353821
  0
LINE
  8
0
 62
7
  6
CONTINUOUS
 10
58.7902019191
 20
205.5839619813
 11
54.0962299942
 21
206.1104377787
  0
LINE
  8
0
 62
7
  6
CONTINUOUS
 10
53.8099045841
 20
213.3171369375
 11
59.6105585653
 21
211.7833790065
  0
LINE
  8
0
 62
7
  6
CONTINUOUS
 10
59.8022783067
 20
212.5084607541
 11
57.2104967038
 21
213.1937568607
  0
LINE
  8
0
 62
7
  6
CONTINUOUS
 10
56.4699877732
 20
213.3895557222
 11
54.618715101
 21
213.8790529672
  0
LINE
  8
0
 62
7
  6
CONTINUOUS
 10
55.5619419821
 20
219.4855887151
 11
61.1129702586
 21
217.2082909583
  0
LINE
  8
0
 62
7
  6
CONTINUOUS
 10
60.6889905723
 20
218.1928883547
 11
58.9173857663
 21
218.9196855263
  0
LINE
  8
0
 62
7
  6
CONTINUOUS
 10
58.2087439431
 20
219.2104043542
 11
56.5552460248
 21
219.8887484218
  0
LINE
  8
0
 62
7
  6
CONTINUOUS
 10
60.8751571863
 20
223.6830007909
 11
61.4388874922
 21
223.3836140057
  0
LINE
  8
0
 62
7
  6
CONTINUOUS
 10
62.2597056823
 20
224.9291735034
 11
61.6959753764
 21
225.2285602886
  0
LINE
  8
0
 62
7
  6
CONTINUOUS
 10
59.6267485743
 20
228.1456234922
 11
64.6176029675
 21
224.8152522777
  0
LINE
  8
0
 62
7
  6
CONTINUOUS
 10
65.0338993693
 20
225.4391090769
 11
62.6977547407
 21
226.9980062538
  0
LINE
  8
0
 62
7
  6
CONTINUOUS
 10
62.0606244686
 20
227.4231599752
 11
60.0430449761
 21
228.7694802914
  0
LINE
  8
0
 62
7
  6
CONTINUOUS
 10
77.3041681239
 20
243.1795387736
 11
78.2145450546
 21
241.4948930484
  0
LINE
  8
0
 62
7
  6
CONTINUOUS
 10
78.8743646473
 20
241.8514573555
 11
77.9639877167
 21
243.5361030806
  0
LINE
  8
0
 62
7
  6
CONTINUOUS
 10
82.2699249774
 20
248.0379566422
 11
84.3932225448
 21
242.4262182805
  0
LINE
  8
0
 62
7
  6
CONTINUOUS
 10
85.09468984
 20
242.6916304764
 11
84.1459824028
 21
245.1990029715
  0
LINE
  8
0
 62
7
  6
CONTINUOUS
 10
83.8749231712
 20
245.9153950174
 11
83.1972749656
 21
247.7063754665
  0
LINE
  8
0
 62
7
  6
CONTINUOUS
 10
82.939625269
 20
242.7423444268
 11
82.7461395661
 21
243.3633222262
  0
LINE
  8
0
 62
7
  6
CONTINUOUS
 10
88.3078262197
 20
250.19739666
 11
89.680980636
 21
244.3566392649
  0
LINE
  8
0
 62
7
  6
CONTINUOUS
 10
90.2357790023
 20
245.2739121687
 11
89.797538222
 21
247.1379837167
  0
LINE
  8
0
 62
7
  6
CONTINUOUS
 10
89.6222419345
 20
247.8836122314
 11
89.2132171816
 21
249.6234124473
  0
LINE
  8
0
 62
7
  6
CONTINUOUS
 10
103.0139929242
 20
152.4271149675
 11
103.0139929242
 21
153.1063490118
  0
LINE
  8
0
 62
7
  6
CONTINUOUS
 10
103.0139929242
 20
153.2244766573
 11
103.0139929242
 21
153.3721362141
  0
LINE
  8
0
 62
7
  6
CONTINUOUS
 10
103.4980477223
 20
156.1021149675
 11
103.4980477223
 21
154.0771149675
  0
LINE
  8
0
 62
7
  6
CONTINUOUS
 10
103.9665079242
 20
152.9882213663
 11
103.9665079242
 21
152.4271149675
  0
LINE
  8
0
 62
7
  6
CONTINUOUS
 10
104.2310950205
 20
152.4271149675
 11
104.2310950205
 21
152.9882213663
  0
LINE
  8
0
 62
7
  6
CONTINUOUS
 10
104.6544352223
 20
153.1949447459
 11
104.6544352223
 21
153.1358809231
  0
LINE
  8
0
 62
7
  6
CONTINUOUS
 10
104.7730477223
 20
154.0771149675
 11
104.7730477223
 21
156.0271149675
  0
LINE
  8
0
 62
7
  6
CONTINUOUS
 10
105.0730477223
 20
157.5271149675
 11
105.0730477223
 21
154.0771149675
  0
LINE
  8
0
 62
7
  6
CONTINUOUS
 10
106.3477948186
 20
152.6043064564
 11
106.3477948186
 21
152.6633702791
  0
LINE
  8
0
 62
7
  6
CONTINUOUS
 10
106.3480477223
 20
154.0771149675
 11
106.3480477223
 21
157.5271149675
  0
LINE
  8
0
 62
7
  6
CONTINUOUS
 10
95.9759652239
 20
153.0768171004
 11
95.9230477223
 21
152.8996255908
  0
LINE
  8
0
 62
7
  6
CONTINUOUS
 10
122.1777372817
 20
243.6742563179
 11
121.9723073129
 21
243.0571268447
  0
LINE
  8
0
 62
7
  6
CONTINUOUS
 10
117.7874606712
 20
243.0119692642
 11
118.0304935335
 21
243.73834784
  0
LINE
  8
0
 62
7
  6
CONTINUOUS
 10
119.4076797908
 20
247.8544932154
 11
119.691218097
 21
248.7019347882
  0
LINE
  8
0
 62
7
  6
CONTINUOUS
 10
122.516318793
 20
242.7494391115
 11
122.784595994
 21
243.4776864881
  0
LINE
  8
0
 62
7
  6
CONTINUOUS
 10
126.0534102231
 20
242.6555220779
 11
125.6134795973
 21
241.8776967537
  0
LINE
  8
0
 62
7
  6
CONTINUOUS
 10
126.0946438452
 20
241.458891117
 11
126.6602689354
 21
242.4589522481
  0
LINE
  8
0
 62
7
  6
CONTINUOUS
 10
140.6740056955
 20
230.4954933077
 11
140.3685743257
 21
230.264442188
  0
LINE
  8
0
 62
7
  6
CONTINUOUS
 10
140.7192387049
 20
229.5892892748
 11
141.1264804362
 21
229.8973573624
  0
LINE
  8
0
 62
7
  6
CONTINUOUS
 10
143.2660651632
 20
221.9608220364
 11
142.4819963201
 21
221.5142646348
  0
LINE
  8
0
 62
7
  6
CONTINUOUS
 10
144.3429983842
 20
218.2188249485
 11
143.987160468
 21
218.0772197049
  0
LINE
  8
0
 62
7
  6
CONTINUOUS
 10
144.099638337
 20
217.4493137217
 11
144.6927016968
 21
217.6853225272
  0
LINE
  8
0
 62
7
  6
CONTINUOUS
 10
59.780562643
 20
188.1404341479
 11
57.348931439
 21
187.3620025017
  0
LINE
  8
0
 62
7
  6
CONTINUOUS
 10
57.5394850239
 20
186.7667594314
 11
59.9711162279
 21
187.5451910777
  0
LINE
  8
0
 62
7
  6
CONTINUOUS
 10
144.9728618994
 20
222.5055014064
 11
144.0963536343
 21
222.2912342716
  0
LINE
  8
0
 62
7
  6
CONTINUOUS
 10
57.0243855314
 20
195.1339651846
 11
59.4018794729
 21
195.6143066887
  0
LINE
  8
0
 62
7
  6
CONTINUOUS
 10
59.2781073158
 20
196.2269282318
 11
56.9006133744
 21
195.7465867277
  0
LINE
  8
0
 62
7
  6
CONTINUOUS
 10
54.5978048931
 20
210.5823973738
 11
59.2917768179
 21
210.0559215765
  0
LINE
  8
0
 62
7
  6
CONTINUOUS
 10
59.3753726344
 20
210.8012481757
 11
53.4127598409
 21
211.4700147075
  0
LINE
  8
0
 62
7
  6
CONTINUOUS
 10
56.1580557998
 20
216.7044262103
 11
56.5283106108
 21
216.6065266882
  0
LINE
  8
0
 62
7
  6
CONTINUOUS
 10
56.8434485073
 20
217.2989752922
 11
56.3497755412
 21
217.429507958
  0
LINE
  8
0
 62
7
  6
CONTINUOUS
 10
58.4499800366
 20
222.4891882542
 11
58.6861939777
 21
222.3922819782
  0
LINE
  8
0
 62
7
  6
CONTINUOUS
 10
60.8121196126
 20
221.5201254266
 11
61.1664405242
 21
221.3747660127
  0
LINE
  8
0
 62
7
  6
CONTINUOUS
 10
61.5692097143
 20
222.0201914093
 11
60.9786748617
 21
222.2624570992
  0
LINE
  8
0
 62
7
  6
CONTINUOUS
 10
59.0889631678
 20
223.0377073748
 11
58.6165349548
 21
223.2315200625
  0
LINE
  8
0
 62
7
  6
CONTINUOUS
 10
61.9857620473
 20
231.680812814
 11
64.0033415398
 21
230.3344924978
  0
LINE
  8
0
 62
7
  6
CONTINUOUS
 10
64.6404718119
 20
229.9093387764
 11
66.9766164404
 21
228.3504415995
  0
LINE
  8
0
 62
7
  6
CONTINUOUS
 10
67.3929128422
 20
228.9742983986
 11
62.4020584491
 21
232.3046696131
  0
LINE
  8
0
 62
7
  6
CONTINUOUS
 10
78.2145450546
 20
241.4948930484
 11
78.6279722573
 21
240.9927710035
  0
LINE
  8
0
 62
7
  6
CONTINUOUS
 10
86.3911181618
 20
248.0958689203
 11
86.5266479041
 21
247.7376725629
  0
LINE
  8
0
 62
7
  6
CONTINUOUS
 10
87.2732917379
 20
247.8836860845
 11
87.092585457
 21
248.3612811163
  0
LINE
  8
0
 62
7
  6
CONTINUOUS
 10
92.4305784078
 20
249.5929690493
 11
92.4890105037
 21
249.344426211
  0
LINE
  8
0
 62
7
  6
CONTINUOUS
 10
93.0148994073
 20
247.1075404927
 11
93.1025475511
 21
246.7347262353
  0
LINE
  8
0
 62
7
  6
CONTINUOUS
 10
93.8618582734
 20
246.7820991183
 11
93.7157780338
 21
247.4034562139
  0
LINE
  8
0
 62
7
  6
CONTINUOUS
 10
93.248321226
 20
249.3917990939
 11
93.1314569524
 21
249.8888851186
  0
LINE
  8
0
 62
7
  6
CONTINUOUS
 10
121.9723073129
 20
243.0571268447
 11
121.8925619355
 21
242.6622389681
  0
LINE
  8
0
 62
7
  6
CONTINUOUS
 10
126.6602689354
 20
242.4589522481
 11
126.8656988161
 21
243.0760815655
  0
LINE
  8
0
 62
7
  6
CONTINUOUS
 10
126.3216873361
 20
243.3837692988
 11
126.0534102231
 21
242.6555220779
  0
LINE
  8
0
 62
7
  6
CONTINUOUS
 10
96.187635216
 20
152.9291575022
 11
96.2405527223
 21
153.047285189
  0
LINE
  8
0
 62
7
  6
CONTINUOUS
 10
140.9040220219
 20
230.8262365781
 11
140.6740056955
 21
230.4954933077
  0
LINE
  8
0
 62
7
  6
CONTINUOUS
 10
140.4751604585
 20
221.9320476384
 11
144.7237697823
 21
226.617059279
  0
LINE
  8
0
 62
7
  6
CONTINUOUS
 10
141.1973860408
 20
223.772608144
 11
140.1074199428
 21
222.5857042096
  0
LINE
  8
0
 62
7
  6
CONTINUOUS
 10
144.0335704604
 20
226.8024471856
 11
141.5811424145
 21
224.131920748
  0
LINE
  8
0
 62
7
  6
CONTINUOUS
 10
142.4819963201
 20
221.5142646348
 11
141.9813684002
 21
221.0459762949
  0
LINE
  8
0
 62
7
  6
CONTINUOUS
 10
142.5220813445
 20
220.7230118035
 11
142.8316994666
 21
220.9807621474
  0
LINE
  8
0
 62
7
  6
CONTINUOUS
 10
144.6526166724
 20
218.4765753585
 11
144.3429983842
 21
218.2188249485
  0
LINE
  8
0
 62
7
  6
CONTINUOUS
 10
54.0962299942
 20
206.1104377787
 11
58.9852587179
 21
207.3230564317
  0
LINE
  8
0
 62
7
  6
CONTINUOUS
 10
58.4066688453
 20
207.8910871561
 11
52.8693870338
 21
206.6253918127
  0
LINE
  8
0
 62
7
  6
CONTINUOUS
 10
144.3274483734
 20
221.7105194032
 11
145.0853397685
 21
221.8775954232
  0
LINE
  8
0
 62
7
  6
CONTINUOUS
 10
138.3912956654
 20
225.6361048665
 11
139.971586192
 21
225.9514600566
  0
LINE
  8
0
 62
7
  6
CONTINUOUS
 10
140.4779208672
 20
226.0928904616
 11
144.0335704604
 21
226.8024471856
  0
LINE
  8
0
 62
7
  6
CONTINUOUS
 10
144.233450965
 20
227.4885980493
 11
138.0235551497
 21
226.2897614377
  0
LINE
  8
0
 62
7
  6
CONTINUOUS
 10
143.987160468
 20
218.0772197049
 11
143.5851027578
 21
218.0517595615
  0
LINE
  8
0
 62
7
  6
CONTINUOUS
 10
143.1875373827
 20
221.1223673911
 11
143.5895952592
 21
221.1478276005
  0
LINE
  8
0
 62
7
  6
CONTINUOUS
 10
145.0853397685
 20
221.8775954232
 11
145.487397811
 21
221.9030556988
  0
LINE
  8
0
 62
7
  6
CONTINUOUS
 10
55.7558485318
 20
216.6814805271
 11
56.1580557998
 21
216.7044262103
  0
LINE
  8
0
 62
7
  6
CONTINUOUS
 10
143.4141397035
 20
217.4455845167
 11
144.099638337
 21
217.4493137217
  0
LINE
  8
0
 62
7
  6
CONTINUOUS
 10
60.4103555562
 20
221.5498402506
 11
60.8121196126
 21
221.5201254266
  0
LINE
  8
0
 62
7
  6
CONTINUOUS
 10
60.9786748617
 20
222.2624570992
 11
60.5769108053
 21
222.2921719232
  0
LINE
  8
0
 62
7
  6
CONTINUOUS
 10
58.0482158148
 20
222.5189031461
 11
58.4499800366
 21
222.4891882542
  0
LINE
  8
0
 62
7
  6
CONTINUOUS
 10
80.3983598978
 20
245.8673815105
 11
80.6904087251
 21
245.5898812804
  0
LINE
  8
0
 62
7
  6
CONTINUOUS
 10
79.2271000603
 20
241.4616450151
 11
78.8743646473
 21
241.8514573555
  0
LINE
  8
0
 62
7
  6
CONTINUOUS
 10
81.3502283178
 20
245.9464455875
 11
80.9367959111
 21
246.4485652266
  0
LINE
  8
0
 62
7
  6
CONTINUOUS
 10
86.1386737622
 20
248.4098282273
 11
86.3911181618
 21
248.0958689203
  0
LINE
  8
0
 62
7
  6
CONTINUOUS
 10
92.8055650634
 20
247.4517466675
 11
93.0148994073
 21
247.1075404927
  0
LINE
  8
0
 62
7
  6
CONTINUOUS
 10
93.7157780338
 20
247.4034562139
 11
93.5064436899
 21
247.7476623886
  0
LINE
  8
0
 62
7
  6
CONTINUOUS
 10
92.221244023
 20
249.9371753981
 11
92.4305784078
 21
249.5929690493
  0
LINE
  8
0
 62
7
  6
CONTINUOUS
 10
122.5744505163
 20
241.836578046
 11
122.516318793
 21
242.7494391115
  0
LINE
  8
0
 62
7
  6
CONTINUOUS
 10
118.6730477223
 20
283.7002769675
 11
118.6730477223
 21
281.2002769675
  0
LINE
  8
SURFACE
 62
7
  6
CONTINUOUS
 10
118.6730477223
 20
124.8539529675
 11
118.6730477223
 21
122.3539529675
  0
LINE
  8
0
 62
7
  6
CONTINUOUS
 10
121.8925619355
 20
242.6622389681
 11
121.8587855235
 21
242.094687676
  0
LINE
  8
0
 62
7
  6
CONTINUOUS
 10
126.9454443697
 20
243.4709697534
 11
126.9792207376
 21
244.0385209677
  0
LINE
  8
0
 62
7
  6
CONTINUOUS
 10
126.8656988161
 20
243.0760815655
 11
126.9454443697
 21
243.4709697534
  0
LINE
  8
0
 62
7
  6
CONTINUOUS
 10
97.5634901719
 20
152.6043064564
 11
97.6164077728
 21
152.7224341226
  0
LINE
  8
0
 62
7
  6
CONTINUOUS
 10
97.3518202223
 20
152.7224341226
 11
97.2989027728
 21
152.6338383678
  0
LINE
  8
0
 62
7
  6
CONTINUOUS
 10
141.1264804362
 20
229.8973573624
 11
141.3564967626
 21
230.2281006328
  0
LINE
  8
0
 62
7
  6
CONTINUOUS
 10
142.2586787021
 20
220.3491269593
 11
142.5220813445
 21
220.7230118035
  0
LINE
  8
0
 62
7
  6
CONTINUOUS
 10
162.8639298067
 20
258.3595032517
 11
161.3944666759
 21
256.3369607657
  0
LINE
  8
SURFACE
 62
7
  6
CONTINUOUS
 10
69.4964031786
 20
129.8501276417
 11
68.0269400479
 21
127.8275851558
  0
LINE
  8
CURVE
 62
40
  6
CONTINUOUS
 10
125.9250142873
 20
198.894810285
 11
121.6823736002
 21
194.6521695979
  0
LINE
  8
CURVE
 62
40
  6
CONTINUOUS
 10
105.9053524048
 20
178.8751484025
 11
110.1479930919
 21
183.1177890896
  0
LINE
  8
CURVE
 62
40
  6
CONTINUOUS
 10
114.2726898512
 20
184.9797441491
 11
119.8204185407
 21
190.5274728386
  0
LINE
  8
0
 62
7
  6
CONTINUOUS
 10
144.6927016968
 20
217.6853225272
 11
145.1933295336
 21
218.1536108341
  0
LINE
  8
0
 62
7
  6
CONTINUOUS
 10
146.7352941693
 20
218.7672336887
 11
147.0449122914
 21
219.0249840327
  0
LINE
  8
0
 62
7
  6
CONTINUOUS
 10
183.7201713375
 20
211.88363789
 11
181.3425300468
 21
211.1110954041
  0
LINE
  8
SURFACE
 62
7
  6
CONTINUOUS
 10
32.6483398078
 20
162.79742428
 11
30.270698517
 21
162.0248817941
  0
LINE
  8
0
 62
7
  6
CONTINUOUS
 10
56.3497755412
 20
217.429507958
 11
55.9475682732
 21
217.4065622747
  0
LINE
  8
0
 62
7
  6
CONTINUOUS
 10
145.6583607822
 20
222.5092307105
 11
144.9728618994
 21
222.5055014064
  0
LINE
  8
0
 62
7
  6
CONTINUOUS
 10
58.6165349548
 20
223.2315200625
 11
58.2147710639
 21
223.2612348186
  0
LINE
  8
0
 62
7
  6
CONTINUOUS
 10
143.5851027578
 20
218.0517595615
 11
143.1368294017
 21
218.1424338523
  0
LINE
  8
SURFACE
 62
7
  6
CONTINUOUS
 10
183.7201713375
 20
194.1705920449
 11
181.3425300468
 21
194.9431345308
  0
LINE
  8
0
 62
7
  6
CONTINUOUS
 10
32.6483398078
 20
243.2568056549
 11
30.270698517
 21
244.0293481408
  0
LINE
  8
0
 62
7
  6
CONTINUOUS
 10
79.6291169717
 20
241.2435715774
 11
79.2271000603
 21
241.4616450151
  0
LINE
  8
0
 62
7
  6
CONTINUOUS
 10
78.6279722573
 20
240.9927710035
 11
79.0906810009
 21
240.6623877826
  0
LINE
  8
CURVE
 62
40
  6
CONTINUOUS
 10
121.6823736002
 20
211.402060337
 11
125.9250142873
 21
207.1594196499
  0
LINE
  8
CURVE
 62
40
  6
CONTINUOUS
 10
110.1479930919
 20
222.9364408453
 11
105.9053524048
 21
227.1790815325
  0
LINE
  8
CURVE
 62
40
  6
CONTINUOUS
 10
114.2726898512
 20
221.0744857858
 11
119.8204185407
 21
215.5267570964
  0
LINE
  8
0
 62
7
  6
CONTINUOUS
 10
87.092585457
 20
248.3612811163
 11
86.8401410575
 21
248.6752404233
  0
LINE
  8
0
 62
7
  6
CONTINUOUS
 10
68.0269400479
 20
278.2266447792
 11
69.4964031786
 21
276.2041022932
  0
LINE
  8
SURFACE
 62
7
  6
CONTINUOUS
 10
162.8639298067
 20
147.6947266832
 11
161.3944666759
 21
149.7172691692
  0
LINE
  8
0
 62
7
  6
CONTINUOUS
 10
93.1314569524
 20
249.8888851186
 11
92.9221226495
 21
250.2330911193
  0
LINE
  8
0
 62
7
  6
CONTINUOUS
 10
126.2635557448
 20
244.2966305977
 11
126.3216873361
 21
243.3837692988
  0
LINE
  8
0
 62
7
  6
CONTINUOUS
 10
141.3564967626
 20
230.2281006328
 11
141.5375008383
 21
230.8352364773
  0
LINE
  8
0
 62
7
  6
CONTINUOUS
 10
100.2093652223
 20
152.7224341226
 11
100.2622828233
 21
152.8110298567
  0
LINE
  8
0
 62
7
  6
CONTINUOUS
 10
141.9813684002
 20
221.0459762949
 11
141.6455729547
 21
220.5087446191
  0
LINE
  8
0
 62
7
  6
CONTINUOUS
 10
147.0449122914
 20
219.0249840327
 11
147.3807076954
 21
219.562215692
  0
LINE
  8
0
 62
7
  6
CONTINUOUS
 10
146.7676019895
 20
219.7218333682
 11
146.5042036616
 21
219.347937924
  0
LINE
  8
0
 62
7
  6
CONTINUOUS
 10
96.0818002223
 20
153.1949447459
 11
95.9759652239
 21
153.0768171004
  0
LINE
  8
0
 62
7
  6
CONTINUOUS
 10
96.2405527223
 20
153.047285189
 11
96.2934702097
 21
153.1063490118
  0
LINE
  8
0
 62
7
  6
CONTINUOUS
 10
99.9976951214
 20
153.2540085686
 11
99.9447778233
 21
153.1949447459
  0
LINE
  8
0
 62
7
  6
CONTINUOUS
 10
60.5769108053
 20
222.2921719232
 11
59.9621518134
 21
222.1390452079
  0
LINE
  8
0
 62
7
  6
CONTINUOUS
 10
58.2147710639
 20
223.2612348186
 11
57.600012072
 21
223.1081081033
  0
LINE
  8
0
 62
7
  6
CONTINUOUS
 10
139.7049140457
 20
229.4489308382
 11
140.3383928622
 21
229.4579307374
  0
LINE
  8
0
 62
7
  6
CONTINUOUS
 10
139.987728483
 20
230.1330836506
 11
139.6332851477
 21
230.1784253208
  0
LINE
  8
0
 62
7
  6
CONTINUOUS
 10
145.487397811
 20
221.9030556988
 11
145.935671084
 21
221.812381375
  0
LINE
  8
0
 62
7
  6
CONTINUOUS
 10
142.8010339562
 20
217.6052021765
 11
143.4141397035
 21
217.4455845167
  0
LINE
  8
0
 62
7
  6
CONTINUOUS
 10
146.271466488
 20
222.3496130343
 11
145.6583607822
 21
222.5092307105
  0
LINE
  8
0
 62
7
  6
CONTINUOUS
 10
79.0906810009
 20
240.6623877826
 11
79.7733262314
 21
240.4508575564
  0
LINE
  8
0
 62
7
  6
CONTINUOUS
 10
86.8401410575
 20
248.6752404233
 11
86.3087012554
 21
249.0201290225
  0
LINE
  8
0
 62
7
  6
CONTINUOUS
 10
93.5064436899
 20
247.7476623886
 11
93.024532161
 21
248.1589259141
  0
LINE
  8
0
 62
7
  6
CONTINUOUS
 10
92.9221226495
 20
250.2330911193
 11
92.4402111205
 21
250.6443546447
  0
LINE
  8
0
 62
7
  6
CONTINUOUS
 10
121.8587855235
 20
242.094687676
 11
121.996652685
 21
241.5767201601
  0
LINE
  8
0
 62
7
  6
CONTINUOUS
 10
141.5375008383
 20
230.8352364773
 11
141.5412866985
 21
231.4650385935
  0
LINE
  8
0
 62
7
  6
CONTINUOUS
 10
140.9568201327
 20
231.1796461201
 11
140.9040220219
 21
230.8262365781
  0
LINE
  8
0
 62
7
  6
CONTINUOUS
 10
130.1141361328
 20
133.2539529675
 11
130.0658434434
 21
132.9722190387
  0
LINE
  8
0
 62
7
  6
CONTINUOUS
 10
141.6455729547
 20
220.5087446191
 11
141.5208297465
 21
219.7864244947
  0
LINE
  8
0
 62
7
  6
CONTINUOUS
 10
142.1601085755
 20
219.9062987958
 11
142.2586787021
 21
220.3491269593
  0
LINE
  8
0
 62
7
  6
CONTINUOUS
 10
144.8959767196
 20
219.2460865853
 11
144.7974065931
 21
218.8032584218
  0
LINE
  8
0
 62
7
  6
CONTINUOUS
 10
144.7974065931
 20
218.8032584218
 11
144.6526166724
 21
218.4765753585
  0
LINE
  8
0
 62
7
  6
CONTINUOUS
 10
145.1933295336
 20
218.1536108341
 11
145.4105122989
 21
218.6436407455
  0
LINE
  8
SURFACE
 62
7
  6
CONTINUOUS
 10
165.8396349569
 20
243.072628242
 11
165.7131055149
 21
242.8163149751
  0
LINE
  8
0
 62
7
  6
CONTINUOUS
 10
100.2093652223
 20
153.1358809231
 11
100.2622828233
 21
153.1949447459
  0
LINE
  8
0
 62
7
  6
CONTINUOUS
 10
100.0506127223
 20
152.8996255908
 11
99.9447778233
 21
152.7814979453
  0
LINE
  8
0
 62
7
  6
CONTINUOUS
 10
101.2677154242
 20
152.7519660339
 11
101.2147975205
 21
152.6929022112
  0
LINE
  8
0
 62
7
  6
CONTINUOUS
 10
101.2147975205
 20
152.5157107119
 11
101.2677154242
 21
152.574774545
  0
LINE
  8
0
 62
7
  6
CONTINUOUS
 10
104.9190229242
 20
153.1358809231
 11
104.9719402223
 21
153.1949447459
  0
LINE
  8
0
 62
7
  6
CONTINUOUS
 10
106.0832077223
 20
152.6633702791
 11
106.0302904242
 21
152.6043064564
  0
LINE
  8
0
 62
7
  6
CONTINUOUS
 10
83.6898342561
 20
129.9209673566
 11
83.4851656013
 21
129.721425551
  0
LINE
  8
SURFACE
 62
7
  6
CONTINUOUS
 10
177.1421676899
 20
197.7672206139
 11
176.8891460629
 21
197.6342309651
  0
LINE
  8
0
 62
7
  6
CONTINUOUS
 10
159.373390147
 20
251.5421845884
 11
159.6562582975
 21
251.5833160833
  0
LINE
  8
0
 62
7
  6
CONTINUOUS
 10
71.0663208261
 20
235.2950633191
 11
71.5155453863
 21
235.3583890384
  0
LINE
  8
0
 62
7
  6
CONTINUOUS
 10
70.5711627378
 20
238.8130038177
 11
70.121937937
 21
238.749678363
  0
LINE
  8
0
 62
7
  6
CONTINUOUS
 10
124.315291237
 20
240.8519750461
 11
123.8631878923
 21
240.8143530059
  0
LINE
  8
0
 62
7
  6
CONTINUOUS
 10
123.657757973
 20
240.1972236203
 11
124.3903111663
 21
240.2228896266
  0
LINE
  8
0
 62
7
  6
CONTINUOUS
 10
79.7733262314
 20
240.4508575564
 11
80.3345878773
 21
240.4639467491
  0
LINE
  8
0
 62
7
  6
CONTINUOUS
 10
80.0804103899
 20
241.1972342432
 11
79.6291169717
 21
241.2435715774
  0
LINE
  8
SURFACE
 62
7
  6
CONTINUOUS
 10
43.8898371471
 20
251.5833160833
 11
44.1727052976
 21
251.5421845884
  0
LINE
  8
0
 62
7
  6
CONTINUOUS
 10
139.0978377368
 20
229.6166311465
 11
139.7049140457
 21
229.4489308382
  0
LINE
  8
0
 62
7
  6
CONTINUOUS
 10
86.3087012554
 20
249.0201290225
 11
85.7055285601
 21
249.2013842565
  0
LINE
  8
0
 62
7
  6
CONTINUOUS
 10
80.9367959111
 20
246.4485652266
 11
80.2541507018
 21
246.6600954135
  0
LINE
  8
0
 62
7
  6
CONTINUOUS
 10
143.5895952592
 20
221.1478276005
 11
143.9192558934
 21
221.0099515288
  0
LINE
  8
0
 62
7
  6
CONTINUOUS
 10
92.4402111205
 20
250.6443546447
 11
91.8658350506
 21
250.9027398039
  0
LINE
  8
0
 62
7
  6
CONTINUOUS
 10
85.8145018211
 20
248.5601561939
 11
86.1386737622
 21
248.4098282273
  0
LINE
  8
0
 62
7
  6
CONTINUOUS
 10
176.8891460629
 20
208.4199989699
 11
177.1421676899
 21
208.2870093211
  0
LINE
  8
0
 62
7
  6
CONTINUOUS
 10
92.5037717895
 20
247.6430756114
 11
92.8055650634
 21
247.4517466675
  0
LINE
  8
0
 62
7
  6
CONTINUOUS
 10
91.9194507491
 20
250.128504342
 11
92.221244023
 21
249.9371753981
  0
LINE
  8
0
 62
7
  6
CONTINUOUS
 10
143.1368294017
 20
218.1424338523
 11
142.7609489733
 21
218.3964550243
  0
LINE
  8
0
 62
7
  6
CONTINUOUS
 10
143.9192558934
 20
221.0099515288
 11
144.2951363218
 21
220.7559303568
  0
LINE
  8
0
 62
7
  6
CONTINUOUS
 10
144.8419839527
 20
221.1080735634
 11
144.090223096
 21
221.6161159074
  0
LINE
  8
0
 62
7
  6
CONTINUOUS
 10
142.2141055011
 20
218.0443011557
 11
142.8010339562
 21
217.6052021765
  0
LINE
  8
SURFACE
 62
7
  6
CONTINUOUS
 10
83.4851656013
 20
276.3328043839
 11
83.6898342561
 21
276.1332625783
  0
LINE
  8
0
 62
7
  6
CONTINUOUS
 10
121.996652685
 20
241.5767201601
 11
122.3521224518
 21
240.9356786873
  0
LINE
  8
0
 62
7
  6
CONTINUOUS
 10
122.7751649321
 20
241.4297284724
 11
122.5744505163
 21
241.836578046
  0
LINE
  8
0
 62
7
  6
CONTINUOUS
 10
165.7131055149
 20
163.2379149598
 11
165.8396349569
 21
162.9816016929
  0
LINE
  8
0
 62
7
  6
CONTINUOUS
 10
126.9792207376
 20
244.0385209677
 11
126.8413535541
 21
244.5564884448
  0
LINE
  8
SURFACE
 62
7
  6
CONTINUOUS
 10
130.0658434434
 20
273.0820108962
 11
130.1141361328
 21
272.8002769675
  0
LINE
  8
0
 62
7
  6
CONTINUOUS
 10
142.1801510877
 20
219.5106723801
 11
142.1601085755
 21
219.9062987958
  0
LINE
  8
0
 62
7
  6
CONTINUOUS
 10
144.8759342074
 20
219.641713001
 11
144.8959767196
 21
219.2460865853
  0
LINE
  8
0
 62
7
  6
CONTINUOUS
 10
146.8461296039
 20
220.5602879474
 11
146.8661721161
 21
220.1646615318
  0
LINE
  8
0
 62
7
  6
CONTINUOUS
 10
145.4105122989
 20
218.6436407455
 11
145.5352597073
 21
219.3659502244
  0
LINE
  8
0
 62
7
  6
CONTINUOUS
 10
147.3807076954
 20
219.562215692
 11
147.5054551038
 21
220.2845251709
  0
POLYLINE
  8
0
 62
7
  6
CONTINUOUS
 66
1
 70
0
  0
VERTEX
  8
0
 62
7
  6
CONTINUOUS
 10
130.0658434434
 20
132.9722190387
  0
VERTEX
  8
0
 62
7
  6
CONTINUOUS
 10
130.0466903057
 20
132.8617736617
  0
VERTEX
  8
0
 62
7
  6
CONTINUOUS
 10
130.04532922
 20
132.8539529675
  0
SEQEND
  0
LINE
  8
0
 62
7
  6
CONTINUOUS
 10
146.8661721161
 20
220.1646615318
 11
146.7676019895
 21
219.7218333682
  0
LINE
  8
SURFACE
 62
7
  6
CONTINUOUS
 10
165.892553654
 20
243.1803654615
 11
165.8396349569
 21
243.072628242
  0
POLYLINE
  8
0
 62
7
  6
CONTINUOUS
 66
1
 70
0
  0
VERTEX
  8
0
 62
7
  6
CONTINUOUS
 10
83.4851656013
 20
129.721425551
  0
VERTEX
  8
0
 62
7
  6
CONTINUOUS
 10
83.4047522236
 20
129.6433312959
  0
VERTEX
  8
0
 62
7
  6
CONTINUOUS
 10
83.3990541934
 20
129.6378042474
  0
SEQEND
  0
LINE
  8
0
 62
7
  6
CONTINUOUS
 10
104.7602704242
 20
153.28354048
 11
104.6544352223
 21
153.1949447459
  0
LINE
  8
0
 62
7
  6
CONTINUOUS
 10
106.2419602223
 20
152.5157107119
 11
106.3477948186
 21
152.6043064564
  0
LINE
  8
0
 62
7
  6
CONTINUOUS
 10
96.187635216
 20
153.2540085686
 11
96.0818002223
 21
153.1949447459
  0
LINE
  8
0
 62
7
  6
CONTINUOUS
 10
96.2934702097
 20
153.1063490118
 11
96.4522227097
 21
153.1949447459
  0
LINE
  8
0
 62
7
  6
CONTINUOUS
 10
98.4101702728
 20
153.28354048
 11
98.3043352223
 21
153.2244766573
  0
LINE
  8
0
 62
7
  6
CONTINUOUS
 10
98.3043352223
 20
153.1063490118
 11
98.4101702728
 21
153.1654128345
  0
LINE
  8
0
 62
7
  6
CONTINUOUS
 10
97.4047376719
 20
152.5157107119
 11
97.5634901719
 21
152.6043064564
  0
LINE
  8
0
 62
7
  6
CONTINUOUS
 10
100.1035303233
 20
153.3130723914
 11
99.9976951214
 21
153.2540085686
  0
LINE
  8
0
 62
7
  6
CONTINUOUS
 10
100.1564476214
 20
152.9586894549
 11
100.0506127223
 21
152.8996255908
  0
LINE
  8
0
 62
7
  6
CONTINUOUS
 10
100.2622828233
 20
152.8110298567
 11
100.3681177223
 21
152.8700936794
  0
LINE
  8
0
 62
7
  6
CONTINUOUS
 10
101.2147975205
 20
152.6929022112
 11
101.0560450205
 21
152.6043064564
  0
LINE
  8
0
 62
7
  6
CONTINUOUS
 10
103.1198275205
 20
153.28354048
 11
103.0139929242
 21
153.2244766573
  0
LINE
  8
0
 62
7
  6
CONTINUOUS
 10
103.0139929242
 20
153.1063490118
 11
103.1198275205
 21
153.1654128345
  0
LINE
  8
SURFACE
 62
7
  6
CONTINUOUS
 10
177.248306164
 20
197.8232770256
 11
177.1421676899
 21
197.7672206139
  0
LINE
  8
0
 62
7
  6
CONTINUOUS
 10
96.346387735
 20
153.3130723914
 11
96.187635216
 21
153.2540085686
  0
LINE
  8
0
 62
7
  6
CONTINUOUS
 10
98.5689226214
 20
153.3426043028
 11
98.4101702728
 21
153.28354048
  0
LINE
  8
0
 62
7
  6
CONTINUOUS
 10
98.4101702728
 20
153.1654128345
 11
98.5689226214
 21
153.2244766573
  0
LINE
  8
0
 62
7
  6
CONTINUOUS
 10
97.2989027728
 20
152.6338383678
 11
97.1401501971
 21
152.574774545
  0
LINE
  8
0
 62
7
  6
CONTINUOUS
 10
103.2785800205
 20
153.3426043028
 11
103.1198275205
 21
153.28354048
  0
LINE
  8
0
 62
7
  6
CONTINUOUS
 10
101.0560450205
 20
152.4566468814
 11
101.2147975205
 21
152.5157107119
  0
LINE
  8
0
 62
7
  6
CONTINUOUS
 10
103.1198275205
 20
153.1654128345
 11
103.2785800205
 21
153.2244766573
  0
LINE
  8
0
 62
7
  6
CONTINUOUS
 10
80.5809802301
 20
241.3226331699
 11
80.0804103899
 21
241.1972342432
  0
LINE
  8
0
 62
7
  6
CONTINUOUS
 10
79.4464966818
 20
245.7883198393
 11
79.947066522
 21
245.913718766
  0
LINE
  8
0
 62
7
  6
CONTINUOUS
 10
89.680980636
 20
244.3566392649
 11
92.6013593336
 21
245.043216473
  0
LINE
  8
0
 62
7
  6
CONTINUOUS
 10
92.5477491847
 20
245.8174533315
 11
90.2357790023
 21
245.2739121687
  0
LINE
  8
0
 62
7
  6
CONTINUOUS
 10
89.797538222
 20
247.1379837167
 11
92.1095084044
 21
247.6815248795
  0
LINE
  8
0
 62
7
  6
CONTINUOUS
 10
91.9342121168
 20
248.4271533942
 11
89.6222419345
 21
247.8836122314
  0
POLYLINE
  8
0
 62
7
  6
CONTINUOUS
 66
1
 70
0
  0
VERTEX
  8
0
 62
7
  6
CONTINUOUS
 10
159.6562582975
 20
251.5833160833
  0
VERTEX
  8
0
 62
7
  6
CONTINUOUS
 10
159.7672167381
 20
251.5992298653
  0
VERTEX
  8
0
 62
7
  6
CONTINUOUS
 10
159.7750752589
 20
251.6003521234
  0
SEQEND
  0
LINE
  8
0
 62
7
  6
CONTINUOUS
 10
124.5227150241
 20
245.2812335977
 11
124.9748183689
 21
245.3188556378
  0
LINE
  8
0
 62
7
  6
CONTINUOUS
 10
125.1802482496
 20
245.9359849553
 11
124.4476950728
 21
245.9103189782
  0
LINE
  8
0
 62
7
  6
CONTINUOUS
 10
85.4185916349
 20
248.5468487703
 11
85.8145018211
 21
248.5601561939
  0
LINE
  8
0
 62
7
  6
CONTINUOUS
 10
80.2541507018
 20
246.6600954135
 11
79.6928890719
 21
246.6470061913
  0
LINE
  8
0
 62
7
  6
CONTINUOUS
 10
92.1095084044
 20
247.6815248795
 11
92.5037717895
 21
247.6430756114
  0
LINE
  8
0
 62
7
  6
CONTINUOUS
 10
91.525187364
 20
250.1669536101
 11
91.9194507491
 21
250.128504342
  0
LINE
  8
0
 62
7
  6
CONTINUOUS
 10
79.947066522
 20
245.913718766
 11
80.3983598978
 21
245.8673815105
  0
LINE
  8
SURFACE
 62
7
  6
CONTINUOUS
 10
43.7710201857
 20
251.6003521234
 11
43.8898371471
 21
251.5833160833
  0
LINE
  8
0
 62
7
  6
CONTINUOUS
 10
93.024532161
 20
248.1589259141
 11
92.751954935
 21
248.2259834389
  0
LINE
  8
0
 62
7
  6
CONTINUOUS
 10
123.8631878923
 20
240.8143530059
 11
123.2563291799
 21
241.0109228357
  0
LINE
  8
0
 62
7
  6
CONTINUOUS
 10
124.9748183689
 20
245.3188556378
 11
125.5816770812
 21
245.122285808
  0
LINE
  8
0
 62
7
  6
CONTINUOUS
 10
113.0458245434
 20
244.5984331806
 11
117.7874606712
 21
243.0119692642
  0
LINE
  8
0
 62
7
  6
CONTINUOUS
 10
118.0304935335
 20
243.73834784
 11
114.0001030961
 21
245.0868420781
  0
LINE
  8
0
 62
7
  6
CONTINUOUS
 10
122.9420929747
 20
240.4553332406
 11
123.657757973
 21
240.1972236203
  0
LINE
  8
0
 62
7
  6
CONTINUOUS
 10
119.3738956355
 20
242.2598838315
 11
120.0581881157
 21
241.9528922981
  0
POLYLINE
  8
0
 62
7
  6
CONTINUOUS
 66
1
 70
0
  0
VERTEX
  8
0
 62
7
  6
CONTINUOUS
 10
177.1421676899
 20
208.2870093211
  0
VERTEX
  8
0
 62
7
  6
CONTINUOUS
 10
177.2412888404
 20
208.2346641061
  0
VERTEX
  8
0
 62
7
  6
CONTINUOUS
 10
177.248306164
 20
208.2309529093
  0
SEQEND
  0
LINE
  8
0
 62
7
  6
CONTINUOUS
 10
145.935671084
 20
221.812381375
 11
146.3115515124
 21
221.5583602029
  0
LINE
  8
0
 62
7
  6
CONTINUOUS
 10
139.6332851477
 20
230.1784253208
 11
139.3052374158
 21
230.4004763255
  0
LINE
  8
0
 62
7
  6
CONTINUOUS
 10
146.8583991433
 20
221.9105034095
 11
146.271466488
 21
222.3496130343
  0
LINE
  8
0
 62
7
  6
CONTINUOUS
 10
122.3521224518
 20
240.9356786873
 11
122.9420929747
 21
240.4553332406
  0
LINE
  8
0
 62
7
  6
CONTINUOUS
 10
123.2563291799
 20
241.0109228357
 11
122.7751649321
 21
241.4297284724
  0
LINE
  8
0
 62
7
  6
CONTINUOUS
 10
125.5816770812
 20
245.122285808
 11
126.062841329
 21
244.7034801713
  0
LINE
  8
0
 62
7
  6
CONTINUOUS
 10
138.6189604885
 20
230.0380668842
 11
139.0978377368
 21
229.6166311465
  0
LINE
  8
SURFACE
 62
7
  6
CONTINUOUS
 10
83.3990541934
 20
276.4164256875
 11
83.4851656013
 21
276.3328043839
  0
LINE
  8
0
 62
7
  6
CONTINUOUS
 10
142.7609489733
 20
218.3964550243
 11
142.5036811837
 21
218.6976779442
  0
LINE
  8
0
 62
7
  6
CONTINUOUS
 10
144.2951363218
 20
220.7559303568
 11
144.5524041114
 21
220.4547074369
  0
LINE
  8
0
 62
7
  6
CONTINUOUS
 10
146.3115515124
 20
221.5583602029
 11
146.568819302
 21
221.257137283
  0
LINE
  8
0
 62
7
  6
CONTINUOUS
 10
134.6710436484
 20
230.8132541221
 11
135.1235183891
 21
230.2151181769
  0
LINE
  8
0
 62
7
  6
CONTINUOUS
 10
137.2615362663
 20
231.8324747199
 11
138.6189604885
 21
230.0380668842
  0
LINE
  8
0
 62
7
  6
CONTINUOUS
 10
139.3052374158
 20
230.4004763255
 11
137.8723984354
 21
232.2945765277
  0
LINE
  8
0
 62
7
  6
CONTINUOUS
 10
141.8643981129
 20
218.5778142721
 11
142.2141055011
 21
218.0443011557
  0
LINE
  8
0
 62
7
  6
CONTINUOUS
 10
145.1916870992
 20
220.574571076
 11
144.8419839527
 21
221.1080735634
  0
LINE
  8
0
 62
7
  6
CONTINUOUS
 10
138.0235551497
 20
226.2897614377
 11
138.3912956654
 21
225.6361048665
  0
LINE
  8
0
 62
7
  6
CONTINUOUS
 10
140.1074199428
 20
222.5857042096
 11
140.4751604585
 21
221.9320476384
  0
LINE
  8
0
 62
7
  6
CONTINUOUS
 10
139.971586192
 20
225.9514600566
 11
141.1973860408
 21
223.772608144
  0
LINE
  8
0
 62
7
  6
CONTINUOUS
 10
141.5811424145
 20
224.131920748
 11
140.4779208672
 21
226.0928904616
  0
LINE
  8
0
 62
7
  6
CONTINUOUS
 10
126.8413535541
 20
244.5564884448
 11
126.4858837708
 21
245.1975298884
  0
LINE
  8
0
 62
7
  6
CONTINUOUS
 10
126.062841329
 20
244.7034801713
 11
126.2635557448
 21
244.2966305977
  0
POLYLINE
  8
0
 62
7
  6
CONTINUOUS
 66
1
 70
0
  0
VERTEX
  8
0
 62
7
  6
CONTINUOUS
 10
165.8396349569
 20
162.9816016929
  0
VERTEX
  8
0
 62
7
  6
CONTINUOUS
 10
165.8890579067
 20
162.8809915741
  0
VERTEX
  8
0
 62
7
  6
CONTINUOUS
 10
165.892553654
 20
162.8738644734
  0
SEQEND
  0
LINE
  8
0
 62
7
  6
CONTINUOUS
 10
141.6333076052
 20
219.1585185074
 11
141.8643981129
 21
218.5778142721
  0
LINE
  8
0
 62
7
  6
CONTINUOUS
 10
142.5036811837
 20
218.6976779442
 11
142.1801510877
 21
219.5106723801
  0
LINE
  8
0
 62
7
  6
CONTINUOUS
 10
144.5524041114
 20
220.4547074369
 11
144.8759342074
 21
219.641713001
  0
LINE
  8
0
 62
7
  6
CONTINUOUS
 10
145.4227776069
 20
219.9938668407
 11
145.1916870992
 21
220.574571076
  0
LINE
  8
0
 62
7
  6
CONTINUOUS
 10
140.8323931239
 20
231.5557310607
 11
140.9568201327
 21
231.1796461201
  0
LINE
  8
0
 62
7
  6
CONTINUOUS
 10
141.5208297465
 20
219.7864244947
 11
141.6333076052
 21
219.1585185074
  0
LINE
  8
0
 62
7
  6
CONTINUOUS
 10
145.5352597073
 20
219.3659502244
 11
145.4227776069
 21
219.9938668407
  0
LINE
  8
SURFACE
 62
7
  6
CONTINUOUS
 10
130.04532922
 20
273.2002769675
 11
130.0658434434
 21
273.0820108962
  0
LINE
  8
0
 62
7
  6
CONTINUOUS
 10
89.2132171816
 20
249.6234124473
 11
91.525187364
 21
250.1669536101
  0
LINE
  8
0
 62
7
  6
CONTINUOUS
 10
91.2282049172
 20
250.8839738682
 11
88.3078262197
 21
250.19739666
  0
LINE
  8
0
 62
7
  6
CONTINUOUS
 10
85.7055285601
 20
249.2013842565
 11
85.0757941582
 21
249.0996054259
  0
LINE
  8
0
 62
7
  6
CONTINUOUS
 10
91.8658350506
 20
250.9027398039
 11
91.2282049172
 21
250.8839738682
  0
LINE
  8
0
 62
7
  6
CONTINUOUS
 10
114.7470546076
 20
249.6830832954
 11
118.8959896109
 21
248.2949262339
  0
LINE
  8
0
 62
7
  6
CONTINUOUS
 10
119.691218097
 20
248.7019347882
 11
114.9495819692
 21
250.2883987045
  0
LINE
  8
0
 62
7
  6
CONTINUOUS
 10
125.8959132424
 20
245.6778753253
 11
125.1802482496
 21
245.9359849553
  0
LINE
  8
0
 62
7
  6
CONTINUOUS
 10
122.5141203827
 20
247.4272321396
 11
121.8298279025
 21
247.734223673
  0
LINE
  8
0
 62
7
  6
CONTINUOUS
 10
126.4858837708
 20
245.1975298884
 11
125.8959132424
 21
245.6778753253
  0
LINE
  8
0
 62
7
  6
CONTINUOUS
 10
139.3995541435
 20
233.4498312629
 11
140.8323931239
 21
231.5557310607
  0
LINE
  8
0
 62
7
  6
CONTINUOUS
 10
141.2660301733
 20
232.040508267
 11
139.4561312104
 21
234.433052048
  0
LINE
  8
0
 62
7
  6
CONTINUOUS
 10
147.2081022898
 20
221.3770009221
 11
146.8583991433
 21
221.9105034095
  0
LINE
  8
0
 62
7
  6
CONTINUOUS
 10
144.7237697823
 20
226.617059279
 11
144.233450965
 21
227.4885980493
  0
LINE
  8
0
 62
7
  6
CONTINUOUS
 10
141.5412866985
 20
231.4650385935
 11
141.2660301733
 21
232.040508267
  0
LINE
  8
0
 62
7
  6
CONTINUOUS
 10
146.5042036616
 20
219.347937924
 11
146.7352941693
 21
218.7672336887
  0
LINE
  8
0
 62
7
  6
CONTINUOUS
 10
146.568819302
 20
221.257137283
 11
146.8461296039
 21
220.5602879474
  0
LINE
  8
0
 62
7
  6
CONTINUOUS
 10
147.3929772348
 20
220.9124311541
 11
147.2081022898
 21
221.3770009221
  0
LINE
  8
0
 62
7
  6
CONTINUOUS
 10
147.5054551038
 20
220.2845251709
 11
147.3929772348
 21
220.9124311541
  0
POLYLINE
  8
0
 62
7
  6
CONTINUOUS
 66
1
 70
0
  0
VERTEX
  8
0
 62
7
  6
CONTINUOUS
 10
167.3045708305
 20
163.5522869062
  0
VERTEX
  8
0
 62
7
  6
CONTINUOUS
 10
167.3226390035
 20
163.3827228338
  0
VERTEX
  8
0
 62
7
  6
CONTINUOUS
 10
167.3300911413
 20
163.3089173416
  0
VERTEX
  8
0
 62
7
  6
CONTINUOUS
 10
167.3359861027
 20
163.2473732475
  0
VERTEX
  8
0
 62
7
  6
CONTINUOUS
 10
167.3400403452
 20
163.2010939587
  0
VERTEX
  8
0
 62
7
  6
CONTINUOUS
 10
167.3420752616
 20
163.172339118
  0
VERTEX
  8
0
 62
7
  6
CONTINUOUS
 10
167.3418596544
 20
163.1624965955
  0
SEQEND
  0
POLYLINE
  8
SURFACE
 62
7
  6
CONTINUOUS
 66
1
 70
0
  0
VERTEX
  8
SURFACE
 62
7
  6
CONTINUOUS
 10
167.3300911582
 20
242.745312592
  0
VERTEX
  8
SURFACE
 62
7
  6
CONTINUOUS
 10
167.3359861307
 20
242.8068566848
  0
VERTEX
  8
SURFACE
 62
7
  6
CONTINUOUS
 10
167.3400403935
 20
242.8531359713
  0
VERTEX
  8
SURFACE
 62
7
  6
CONTINUOUS
 10
167.3420753664
 20
242.8818908058
  0
VERTEX
  8
SURFACE
 62
7
  6
CONTINUOUS
 10
167.341859654
 20
242.8917333395
  0
SEQEND
  0
POLYLINE
  8
SURFACE
 62
7
  6
CONTINUOUS
 66
1
 70
0
  0
VERTEX
  8
SURFACE
 62
7
  6
CONTINUOUS
 10
167.3045708277
 20
242.5019430298
  0
VERTEX
  8
SURFACE
 62
7
  6
CONTINUOUS
 10
167.3139918328
 20
242.5890422622
  0
VERTEX
  8
SURFACE
 62
7
  6
CONTINUOUS
 10
167.3300911582
 20
242.745312592
  0
SEQEND
  0
POLYLINE
  8
0
 62
7
  6
CONTINUOUS
 66
1
 70
0
  0
VERTEX
  8
0
 62
7
  6
CONTINUOUS
 10
131.5864417493
 20
132.5728453862
  0
VERTEX
  8
0
 62
7
  6
CONTINUOUS
 10
131.5013922388
 20
132.4250448017
  0
VERTEX
  8
0
 62
7
  6
CONTINUOUS
 10
131.4640395535
 20
132.3609545427
  0
VERTEX
  8
0
 62
7
  6
CONTINUOUS
 10
131.4326342358
 20
132.307699202
  0
VERTEX
  8
0
 62
7
  6
CONTINUOUS
 10
131.4087123839
 20
132.2678751743
  0
VERTEX
  8
0
 62
7
  6
CONTINUOUS
 10
131.3934583329
 20
132.2434151622
  0
VERTEX
  8
0
 62
7
  6
CONTINUOUS
 10
131.3874960978
 20
132.2355805727
  0
SEQEND
  0
POLYLINE
  8
SURFACE
 62
7
  6
CONTINUOUS
 66
1
 70
0
  0
VERTEX
  8
SURFACE
 62
7
  6
CONTINUOUS
 10
178.1555803676
 20
196.6263488651
  0
VERTEX
  8
SURFACE
 62
7
  6
CONTINUOUS
 10
178.1965239617
 20
196.6726743336
  0
VERTEX
  8
SURFACE
 62
7
  6
CONTINUOUS
 10
178.2270057629
 20
196.7077324366
  0
VERTEX
  8
SURFACE
 62
7
  6
CONTINUOUS
 10
178.245552504
 20
196.7298006007
  0
VERTEX
  8
SURFACE
 62
7
  6
CONTINUOUS
 10
178.2511656511
 20
196.7378880339
  0
SEQEND
  0
POLYLINE
  8
SURFACE
 62
7
  6
CONTINUOUS
 66
1
 70
0
  0
VERTEX
  8
SURFACE
 62
7
  6
CONTINUOUS
 10
177.9918853871
 20
196.4444588189
  0
VERTEX
  8
SURFACE
 62
7
  6
CONTINUOUS
 10
178.0507026571
 20
196.5093861681
  0
VERTEX
  8
SURFACE
 62
7
  6
CONTINUOUS
 10
178.1555803676
 20
196.6263488651
  0
SEQEND
  0
POLYLINE
  8
0
 62
7
  6
CONTINUOUS
 66
1
 70
0
  0
VERTEX
  8
0
 62
7
  6
CONTINUOUS
 10
84.4806095112
 20
128.5045402395
  0
VERTEX
  8
0
 62
7
  6
CONTINUOUS
 10
84.3249280686
 20
128.4349577717
  0
VERTEX
  8
0
 62
7
  6
CONTINUOUS
 10
84.2570378419
 20
128.4050629353
  0
VERTEX
  8
0
 62
7
  6
CONTINUOUS
 10
84.2003277588
 20
128.3804379192
  0
VERTEX
  8
0
 62
7
  6
CONTINUOUS
 10
84.1575666987
 20
128.3622802936
  0
VERTEX
  8
0
 62
7
  6
CONTINUOUS
 10
84.1308489587
 20
128.3514572124
  0
VERTEX
  8
0
 62
7
  6
CONTINUOUS
 10
84.1214198314
 20
128.3486245773
  0
SEQEND
  0
POLYLINE
  8
SURFACE
 62
7
  6
CONTINUOUS
 66
1
 70
0
  0
VERTEX
  8
SURFACE
 62
7
  6
CONTINUOUS
 10
43.7405564216
 20
253.1019707344
  0
VERTEX
  8
SURFACE
 62
7
  6
CONTINUOUS
 10
43.6802028043
 20
253.0885593157
  0
VERTEX
  8
SURFACE
 62
7
  6
CONTINUOUS
 10
43.6349356414
 20
253.0781145986
  0
VERTEX
  8
SURFACE
 62
7
  6
CONTINUOUS
 10
43.6069590181
 20
253.0711657343
  0
VERTEX
  8
SURFACE
 62
7
  6
CONTINUOUS
 10
43.5976654647
 20
253.0679162569
  0
SEQEND
  0
POLYLINE
  8
SURFACE
 62
7
  6
CONTINUOUS
 66
1
 70
0
  0
VERTEX
  8
SURFACE
 62
7
  6
CONTINUOUS
 10
43.9799009505
 20
253.1529042544
  0
VERTEX
  8
SURFACE
 62
7
  6
CONTINUOUS
 10
43.8941533765
 20
253.1349491744
  0
VERTEX
  8
SURFACE
 62
7
  6
CONTINUOUS
 10
43.7405564216
 20
253.1019707344
  0
SEQEND
  0
POLYLINE
  8
0
 62
7
  6
CONTINUOUS
 66
1
 70
0
  0
VERTEX
  8
0
 62
7
  6
CONTINUOUS
 10
159.5661944941
 20
253.1529042565
  0
VERTEX
  8
0
 62
7
  6
CONTINUOUS
 10
159.7330429472
 20
253.1176902578
  0
VERTEX
  8
0
 62
7
  6
CONTINUOUS
 10
159.8055390202
 20
253.1019707223
  0
VERTEX
  8
0
 62
7
  6
CONTINUOUS
 10
159.8658926359
 20
253.0885592955
  0
VERTEX
  8
0
 62
7
  6
CONTINUOUS
 10
159.9111597957
 20
253.0781145637
  0
VERTEX
  8
0
 62
7
  6
CONTINUOUS
 10
159.9391364106
 20
253.0711656585
  0
VERTEX
  8
0
 62
7
  6
CONTINUOUS
 10
159.94842998
 20
253.0679162573
  0
SEQEND
  0
POLYLINE
  8
SURFACE
 62
7
  6
CONTINUOUS
 66
1
 70
0
  0
VERTEX
  8
SURFACE
 62
7
  6
CONTINUOUS
 10
84.2570378495
 20
277.6491670178
  0
VERTEX
  8
SURFACE
 62
7
  6
CONTINUOUS
 10
84.2003277719
 20
277.6737920459
  0
VERTEX
  8
SURFACE
 62
7
  6
CONTINUOUS
 10
84.1575667215
 20
277.691949693
  0
VERTEX
  8
SURFACE
 62
7
  6
CONTINUOUS
 10
84.1308490087
 20
277.7027728344
  0
VERTEX
  8
SURFACE
 62
7
  6
CONTINUOUS
 10
84.1214198311
 20
277.7056053572
  0
SEQEND
  0
POLYLINE
  8
SURFACE
 62
7
  6
CONTINUOUS
 66
1
 70
0
  0
VERTEX
  8
SURFACE
 62
7
  6
CONTINUOUS
 10
84.4806095091
 20
277.5496896927
  0
VERTEX
  8
SURFACE
 62
7
  6
CONTINUOUS
 10
84.400684563
 20
277.585564952
  0
VERTEX
  8
SURFACE
 62
7
  6
CONTINUOUS
 10
84.2570378495
 20
277.6491670178
  0
SEQEND
  0
POLYLINE
  8
0
 62
7
  6
CONTINUOUS
 66
1
 70
0
  0
VERTEX
  8
0
 62
7
  6
CONTINUOUS
 10
177.9918853876
 20
209.6097711169
  0
VERTEX
  8
0
 62
7
  6
CONTINUOUS
 10
178.1061698462
 20
209.4832108638
  0
VERTEX
  8
0
 62
7
  6
CONTINUOUS
 10
178.1555803631
 20
209.427881066
  0
VERTEX
  8
0
 62
7
  6
CONTINUOUS
 10
178.1965239543
 20
209.3815555948
  0
VERTEX
  8
0
 62
7
  6
CONTINUOUS
 10
178.2270057502
 20
209.3464974869
  0
VERTEX
  8
0
 62
7
  6
CONTINUOUS
 10
178.2455524765
 20
209.3244293094
  0
VERTEX
  8
0
 62
7
  6
CONTINUOUS
 10
178.2511656512
 20
209.3163419011
  0
SEQEND
  0
POLYLINE
  8
SURFACE
 62
7
  6
CONTINUOUS
 66
1
 70
0
  0
VERTEX
  8
SURFACE
 62
7
  6
CONTINUOUS
 10
131.4640395642
 20
273.6932753988
  0
VERTEX
  8
SURFACE
 62
7
  6
CONTINUOUS
 10
131.4326342536
 20
273.7465307435
  0
VERTEX
  8
SURFACE
 62
7
  6
CONTINUOUS
 10
131.4087124148
 20
273.7863547786
  0
VERTEX
  8
SURFACE
 62
7
  6
CONTINUOUS
 10
131.3934584
 20
273.8108148113
  0
VERTEX
  8
SURFACE
 62
7
  6
CONTINUOUS
 10
131.3874960975
 20
273.8186493621
  0
SEQEND
  0
POLYLINE
  8
SURFACE
 62
7
  6
CONTINUOUS
 66
1
 70
0
  0
VERTEX
  8
SURFACE
 62
7
  6
CONTINUOUS
 10
131.5864417472
 20
273.4813845481
  0
VERTEX
  8
SURFACE
 62
7
  6
CONTINUOUS
 10
131.5428679938
 20
273.5573869123
  0
VERTEX
  8
SURFACE
 62
7
  6
CONTINUOUS
 10
131.4640395642
 20
273.6932753988
  0
SEQEND
  0
POLYLINE
  8
SURFACE
 62
7
  6
CONTINUOUS
 66
1
 70
0
  0
VERTEX
  8
SURFACE
 62
7
  6
CONTINUOUS
 10
167.3045706553
 20
242.5019520859
  0
VERTEX
  8
SURFACE
 62
7
  6
CONTINUOUS
 10
167.304626002
 20
242.4990622025
  0
VERTEX
  8
SURFACE
 62
7
  6
CONTINUOUS
 10
167.3054128832
 20
242.4960954533
  0
VERTEX
  8
SURFACE
 62
7
  6
CONTINUOUS
 10
167.3068563016
 20
242.4931754891
  0
SEQEND
  0
POLYLINE
  8
0
 62
7
  6
CONTINUOUS
 66
1
 70
0
  0
VERTEX
  8
0
 62
7
  6
CONTINUOUS
 10
167.304570658
 20
163.5522778492
  0
VERTEX
  8
0
 62
7
  6
CONTINUOUS
 10
167.3046260021
 20
163.5551677332
  0
VERTEX
  8
0
 62
7
  6
CONTINUOUS
 10
167.3054128833
 20
163.558134482
  0
VERTEX
  8
0
 62
7
  6
CONTINUOUS
 10
167.3068563016
 20
163.5610544458
  0
SEQEND
  0
LINE
  8
0
 62
7
  6
CONTINUOUS
 10
161.4659047023
 20
159.6577157534
 11
159.7750752589
 21
154.4538778116
  0
LINE
  8
SURFACE
 62
7
  6
CONTINUOUS
 10
161.4659047023
 20
159.6577157534
 11
159.7750752589
 21
154.4538778116
  0
LINE
  8
0
 62
7
  6
CONTINUOUS
 10
167.6636358638
 20
178.7323709172
 11
177.248306164
 21
208.2309529093
  0
POLYLINE
  8
SURFACE
 62
7
  6
CONTINUOUS
 66
1
 70
0
  0
VERTEX
  8
SURFACE
 62
7
  6
CONTINUOUS
 10
177.9918834545
 20
196.444456047
  0
VERTEX
  8
SURFACE
 62
7
  6
CONTINUOUS
 10
177.9902366727
 20
196.4420957903
  0
VERTEX
  8
SURFACE
 62
7
  6
CONTINUOUS
 10
177.9891294687
 20
196.4392331308
  0
VERTEX
  8
SURFACE
 62
7
  6
CONTINUOUS
 10
177.9885809098
 20
196.436022421
  0
SEQEND
  0
POLYLINE
  8
0
 62
7
  6
CONTINUOUS
 66
1
 70
0
  0
VERTEX
  8
0
 62
7
  6
CONTINUOUS
 10
131.5864323353
 20
132.5728329365
  0
VERTEX
  8
0
 62
7
  6
CONTINUOUS
 10
131.5881797414
 20
132.5751435672
  0
VERTEX
  8
0
 62
7
  6
CONTINUOUS
 10
131.5905601579
 20
132.5770812089
  0
VERTEX
  8
0
 62
7
  6
CONTINUOUS
 10
131.5934442284
 20
132.578595095
  0
SEQEND
  0
LINE
  8
SURFACE
 62
7
  6
CONTINUOUS
 10
124.5736902031
 20
132.8539529675
 11
120.1470412513
 21
129.6378042474
  0
LINE
  8
0
 62
7
  6
CONTINUOUS
 10
124.5736902031
 20
132.8539529675
 11
120.1470412513
 21
129.6378042474
  0
LINE
  8
0
 62
7
  6
CONTINUOUS
 10
140.7995610372
 20
144.6427381823
 11
165.892553654
 21
162.8738644734
  0
POLYLINE
  8
SURFACE
 62
7
  6
CONTINUOUS
 66
1
 70
0
  0
VERTEX
  8
SURFACE
 62
7
  6
CONTINUOUS
 10
159.5662092431
 20
152.9013307863
  0
VERTEX
  8
SURFACE
 62
7
  6
CONTINUOUS
 10
159.5634717255
 20
152.9003829269
  0
VERTEX
  8
SURFACE
 62
7
  6
CONTINUOUS
 10
159.5608933293
 20
152.8987177804
  0
VERTEX
  8
SURFACE
 62
7
  6
CONTINUOUS
 10
159.558562311
 20
152.8964426827
  0
SEQEND
  0
POLYLINE
  8
0
 62
7
  6
CONTINUOUS
 66
1
 70
0
  0
VERTEX
  8
0
 62
7
  6
CONTINUOUS
 10
84.4805888059
 20
128.5045339474
  0
VERTEX
  8
0
 62
7
  6
CONTINUOUS
 10
84.4833664229
 20
128.50537792
  0
VERTEX
  8
0
 62
7
  6
CONTINUOUS
 10
84.4864311414
 20
128.505546333
  0
VERTEX
  8
0
 62
7
  6
CONTINUOUS
 10
84.4896542479
 20
128.5050758783
  0
SEQEND
  0
LINE
  8
0
 62
7
  6
CONTINUOUS
 10
104.517410858
 20
273.2002769675
 11
73.5007662247
 21
273.2002769675
  0
LINE
  8
0
 62
7
  6
CONTINUOUS
 10
124.5736902031
 20
273.2002769675
 11
130.04532922
 21
273.2002769675
  0
POLYLINE
  8
SURFACE
 62
7
  6
CONTINUOUS
 66
1
 70
0
  0
VERTEX
  8
SURFACE
 62
7
  6
CONTINUOUS
 10
84.4805888049
 20
277.5496959845
  0
VERTEX
  8
SURFACE
 62
7
  6
CONTINUOUS
 10
84.483366422
 20
277.548852015
  0
VERTEX
  8
SURFACE
 62
7
  6
CONTINUOUS
 10
84.486431141
 20
277.5486836019
  0
VERTEX
  8
SURFACE
 62
7
  6
CONTINUOUS
 10
84.4896542479
 20
277.5491540566
  0
SEQEND
  0
POLYLINE
  8
0
 62
7
  6
CONTINUOUS
 66
1
 70
0
  0
VERTEX
  8
0
 62
7
  6
CONTINUOUS
 10
159.5662092436
 20
253.1528991505
  0
VERTEX
  8
0
 62
7
  6
CONTINUOUS
 10
159.563471725
 20
253.1538470083
  0
VERTEX
  8
0
 62
7
  6
CONTINUOUS
 10
159.5608933291
 20
253.1555121548
  0
VERTEX
  8
0
 62
7
  6
CONTINUOUS
 10
159.558562311
 20
253.1577872522
  0
SEQEND
  0
LINE
  8
0
 62
7
  6
CONTINUOUS
 10
145.2400338682
 20
258.1852993964
 11
120.1470412513
 21
276.4164256875
  0
LINE
  8
0
 62
7
  6
CONTINUOUS
 10
161.4659047023
 20
246.3965141815
 11
165.892553654
 21
243.1803654615
  0
LINE
  8
SURFACE
 62
7
  6
CONTINUOUS
 10
161.4659047023
 20
246.3965141815
 11
165.892553654
 21
243.1803654615
  0
POLYLINE
  8
SURFACE
 62
7
  6
CONTINUOUS
 66
1
 70
0
  0
VERTEX
  8
SURFACE
 62
7
  6
CONTINUOUS
 10
131.5864323337
 20
273.4813969974
  0
VERTEX
  8
SURFACE
 62
7
  6
CONTINUOUS
 10
131.588179741
 20
273.4790863681
  0
VERTEX
  8
SURFACE
 62
7
  6
CONTINUOUS
 10
131.5905601577
 20
273.4771487262
  0
VERTEX
  8
SURFACE
 62
7
  6
CONTINUOUS
 10
131.5934442284
 20
273.4756348399
  0
SEQEND
  0
POLYLINE
  8
0
 62
7
  6
CONTINUOUS
 66
1
 70
0
  0
VERTEX
  8
0
 62
7
  6
CONTINUOUS
 10
177.9918834553
 20
209.6097738885
  0
VERTEX
  8
0
 62
7
  6
CONTINUOUS
 10
177.9902366726
 20
209.6121341448
  0
VERTEX
  8
0
 62
7
  6
CONTINUOUS
 10
177.9891294687
 20
209.6149968043
  0
VERTEX
  8
0
 62
7
  6
CONTINUOUS
 10
177.9885809098
 20
209.6182075139
  0
SEQEND
  0
LINE
  8
0
 62
7
  6
CONTINUOUS
 10
175.5574767207
 20
203.0271149675
 11
177.248306164
 21
197.8232770256
  0
LINE
  8
SURFACE
 62
7
  6
CONTINUOUS
 10
175.5574767207
 20
203.0271149675
 11
177.248306164
 21
197.8232770256
  0
LINE
  8
0
 62
7
  6
CONTINUOUS
 10
169.3597455591
 20
222.1017701312
 11
159.7750752589
 21
251.6003521234
  0
POLYLINE
  8
0
 62
7
  6
CONTINUOUS
 66
1
 70
0
  0
VERTEX
  8
0
 62
7
  6
CONTINUOUS
 10
176.2918697661
 20
220.7840893794
  0
VERTEX
  8
0
 62
7
  6
CONTINUOUS
 10
176.2923549383
 20
220.7779583879
  0
VERTEX
  8
0
 62
7
  6
CONTINUOUS
 10
176.2927099477
 20
220.7598971145
  0
VERTEX
  8
0
 62
7
  6
CONTINUOUS
 10
176.2922752784
 20
220.7305726868
  0
VERTEX
  8
0
 62
7
  6
CONTINUOUS
 10
176.2911594458
 20
220.6908995921
  0
VERTEX
  8
0
 62
7
  6
CONTINUOUS
 10
176.289415788
 20
220.6420581319
  0
SEQEND
  0
LINE
  8
SURFACE
 62
7
  6
CONTINUOUS
 10
176.281016715
 20
185.5991891446
 11
176.2779424472
 21
185.6699647971
  0
POLYLINE
  8
0
 62
7
  6
CONTINUOUS
 66
1
 70
0
  0
VERTEX
  8
0
 62
7
  6
CONTINUOUS
 10
176.289415788
 20
220.6420581319
  0
VERTEX
  8
0
 62
7
  6
CONTINUOUS
 10
176.284285563
 20
220.5227415081
  0
VERTEX
  8
0
 62
7
  6
CONTINUOUS
 10
176.2810488474
 20
220.4556855642
  0
VERTEX
  8
0
 62
7
  6
CONTINUOUS
 10
176.2779424472
 20
220.3842651378
  0
SEQEND
  0
POLYLINE
  8
SURFACE
 62
7
  6
CONTINUOUS
 66
1
 70
0
  0
VERTEX
  8
SURFACE
 62
7
  6
CONTINUOUS
 10
176.2918697661
 20
185.2701405555
  0
VERTEX
  8
SURFACE
 62
7
  6
CONTINUOUS
 10
176.2923466827
 20
185.2761573958
  0
VERTEX
  8
SURFACE
 62
7
  6
CONTINUOUS
 10
176.2927107368
 20
185.2940528642
  0
VERTEX
  8
SURFACE
 62
7
  6
CONTINUOUS
 10
176.2922823988
 20
185.3233418117
  0
VERTEX
  8
SURFACE
 62
7
  6
CONTINUOUS
 10
176.2911642997
 20
185.3631802107
  0
VERTEX
  8
SURFACE
 62
7
  6
CONTINUOUS
 10
176.2894088954
 20
185.412350793
  0
VERTEX
  8
SURFACE
 62
7
  6
CONTINUOUS
 10
176.2870780772
 20
185.4693117099
  0
VERTEX
  8
SURFACE
 62
7
  6
CONTINUOUS
 10
176.281016715
 20
185.5991891446
  0
SEQEND
  0
LINE
  8
SURFACE
 62
7
  6
CONTINUOUS
 10
151.8073830761
 20
145.1329414486
 11
151.8464968269
 21
145.1920071628
  0
POLYLINE
  8
0
 62
7
  6
CONTINUOUS
 66
1
 70
0
  0
VERTEX
  8
0
 62
7
  6
CONTINUOUS
 10
172.41174887
 20
173.4781403882
  0
VERTEX
  8
0
 62
7
  6
CONTINUOUS
 10
172.442070763
 20
173.5168884258
  0
VERTEX
  8
0
 62
7
  6
CONTINUOUS
 10
172.4663917445
 20
173.5484611679
  0
VERTEX
  8
0
 62
7
  6
CONTINUOUS
 10
172.4839538828
 20
173.5719046581
  0
VERTEX
  8
0
 62
7
  6
CONTINUOUS
 10
172.4941780325
 20
173.5865963954
  0
VERTEX
  8
0
 62
7
  6
CONTINUOUS
 10
172.4973288414
 20
173.5917444198
  0
SEQEND
  0
POLYLINE
  8
0
 62
7
  6
CONTINUOUS
 66
1
 70
0
  0
VERTEX
  8
0
 62
7
  6
CONTINUOUS
 10
172.2510506108
 20
173.2764660863
  0
VERTEX
  8
0
 62
7
  6
CONTINUOUS
 10
172.2951386296
 20
173.3319177834
  0
VERTEX
  8
0
 62
7
  6
CONTINUOUS
 10
172.3370958142
 20
173.3841666192
  0
VERTEX
  8
0
 62
7
  6
CONTINUOUS
 10
172.41174887
 20
173.4781403882
  0
SEQEND
  0
POLYLINE
  8
SURFACE
 62
7
  6
CONTINUOUS
 66
1
 70
0
  0
VERTEX
  8
SURFACE
 62
7
  6
CONTINUOUS
 10
151.622753472
 20
144.8603562839
  0
VERTEX
  8
SURFACE
 62
7
  6
CONTINUOUS
 10
151.6266758799
 20
144.8649437087
  0
VERTEX
  8
SURFACE
 62
7
  6
CONTINUOUS
 10
151.6374891167
 20
144.8792074492
  0
VERTEX
  8
SURFACE
 62
7
  6
CONTINUOUS
 10
151.6543582018
 20
144.903154472
  0
VERTEX
  8
SURFACE
 62
7
  6
CONTINUOUS
 10
151.6768700674
 20
144.9360416138
  0
VERTEX
  8
SURFACE
 62
7
  6
CONTINUOUS
 10
151.7043516609
 20
144.9768532497
  0
VERTEX
  8
SURFACE
 62
7
  6
CONTINUOUS
 10
151.7359467779
 20
145.0243056191
  0
VERTEX
  8
SURFACE
 62
7
  6
CONTINUOUS
 10
151.8073830761
 20
145.1329414486
  0
SEQEND
  0
LINE
  8
SURFACE
 62
7
  6
CONTINUOUS
 10
108.2223339377
 20
126.7803002862
 11
108.2886955826
 21
126.8050949669
  0
POLYLINE
  8
0
 62
7
  6
CONTINUOUS
 66
1
 70
0
  0
VERTEX
  8
0
 62
7
  6
CONTINUOUS
 10
141.5525059334
 20
137.6011055908
  0
VERTEX
  8
0
 62
7
  6
CONTINUOUS
 10
141.5998123851
 20
137.6146306502
  0
VERTEX
  8
0
 62
7
  6
CONTINUOUS
 10
141.6380464646
 20
137.6258780209
  0
VERTEX
  8
0
 62
7
  6
CONTINUOUS
 10
141.6660342708
 20
137.634521437
  0
VERTEX
  8
0
 62
7
  6
CONTINUOUS
 10
141.6829413682
 20
137.6403976977
  0
VERTEX
  8
0
 62
7
  6
CONTINUOUS
 10
141.6885163589
 20
137.6427105379
  0
SEQEND
  0
POLYLINE
  8
0
 62
7
  6
CONTINUOUS
 66
1
 70
0
  0
VERTEX
  8
0
 62
7
  6
CONTINUOUS
 10
62.2421383144
 20
268.5218262149
  0
VERTEX
  8
0
 62
7
  6
CONTINUOUS
 10
62.1738766682
 20
268.5028791368
  0
VERTEX
  8
0
 62
7
  6
CONTINUOUS
 10
62.1092214977
 20
268.485270755
  0
VERTEX
  8
0
 62
7
  6
CONTINUOUS
 10
61.9935895113
 20
268.4531243441
  0
SEQEND
  0
POLYLINE
  8
SURFACE
 62
7
  6
CONTINUOUS
 66
1
 70
0
  0
VERTEX
  8
SURFACE
 62
7
  6
CONTINUOUS
 10
95.6333515341
 20
279.3859331209
  0
VERTEX
  8
SURFACE
 62
7
  6
CONTINUOUS
 10
95.6274818189
 20
279.3845273498
  0
VERTEX
  8
SURFACE
 62
7
  6
CONTINUOUS
 10
95.6103497102
 20
279.3793436025
  0
VERTEX
  8
SURFACE
 62
7
  6
CONTINUOUS
 10
95.5826266268
 20
279.3698854535
  0
VERTEX
  8
SURFACE
 62
7
  6
CONTINUOUS
 10
95.545083568
 20
279.3565113395
  0
VERTEX
  8
SURFACE
 62
7
  6
CONTINUOUS
 10
95.4988620142
 20
279.3396473078
  0
VERTEX
  8
SURFACE
 62
7
  6
CONTINUOUS
 10
95.4454092247
 20
279.3198286784
  0
VERTEX
  8
SURFACE
 62
7
  6
CONTINUOUS
 10
95.323761507
 20
279.2739296487
  0
SEQEND
  0
LINE
  8
SURFACE
 62
7
  6
CONTINUOUS
 10
141.3722187765
 20
268.5028791367
 11
141.3039571303
 21
268.5218262149
  0
POLYLINE
  8
0
 62
7
  6
CONTINUOUS
 66
1
 70
0
  0
VERTEX
  8
0
 62
7
  6
CONTINUOUS
 10
108.0472334306
 20
279.3396473079
  0
VERTEX
  8
0
 62
7
  6
CONTINUOUS
 10
108.0010118767
 20
279.3565113397
  0
VERTEX
  8
0
 62
7
  6
CONTINUOUS
 10
107.963468818
 20
279.3698854538
  0
VERTEX
  8
0
 62
7
  6
CONTINUOUS
 10
107.9357457346
 20
279.3793436029
  0
VERTEX
  8
0
 62
7
  6
CONTINUOUS
 10
107.9186136261
 20
279.3845273507
  0
VERTEX
  8
0
 62
7
  6
CONTINUOUS
 10
107.9127439106
 20
279.3859331209
  0
SEQEND
  0
POLYLINE
  8
0
 62
7
  6
CONTINUOUS
 66
1
 70
0
  0
VERTEX
  8
0
 62
7
  6
CONTINUOUS
 10
108.2886955826
 20
279.249134968
  0
VERTEX
  8
0
 62
7
  6
CONTINUOUS
 10
108.2223339377
 20
279.2739296487
  0
VERTEX
  8
0
 62
7
  6
CONTINUOUS
 10
108.1596768589
 20
279.2976875243
  0
VERTEX
  8
0
 62
7
  6
CONTINUOUS
 10
108.0472334306
 20
279.3396473079
  0
SEQEND
  0
POLYLINE
  8
SURFACE
 62
7
  6
CONTINUOUS
 66
1
 70
0
  0
VERTEX
  8
SURFACE
 62
7
  6
CONTINUOUS
 10
141.6885163589
 20
268.411519397
  0
VERTEX
  8
SURFACE
 62
7
  6
CONTINUOUS
 10
141.682941368
 20
268.4138322364
  0
VERTEX
  8
SURFACE
 62
7
  6
CONTINUOUS
 10
141.6660342707
 20
268.4197084975
  0
VERTEX
  8
SURFACE
 62
7
  6
CONTINUOUS
 10
141.6380464646
 20
268.4283519138
  0
VERTEX
  8
SURFACE
 62
7
  6
CONTINUOUS
 10
141.599812385
 20
268.4395992846
  0
VERTEX
  8
SURFACE
 62
7
  6
CONTINUOUS
 10
141.5525059333
 20
268.453124344
  0
VERTEX
  8
SURFACE
 62
7
  6
CONTINUOUS
 10
141.4976126201
 20
268.4685094974
  0
VERTEX
  8
SURFACE
 62
7
  6
CONTINUOUS
 10
141.3722187765
 20
268.5028791367
  0
SEQEND
  0
POLYLINE
  8
0
 62
7
  6
CONTINUOUS
 66
1
 70
0
  0
VERTEX
  8
0
 62
7
  6
CONTINUOUS
 10
151.622753472
 20
261.193873651
  0
VERTEX
  8
0
 62
7
  6
CONTINUOUS
 10
151.6267496557
 20
261.1891987288
  0
VERTEX
  8
0
 62
7
  6
CONTINUOUS
 10
151.6376530327
 20
261.1747955327
  0
VERTEX
  8
0
 62
7
  6
CONTINUOUS
 10
151.6545378503
 20
261.1508160842
  0
VERTEX
  8
0
 62
7
  6
CONTINUOUS
 10
151.6769543861
 20
261.1180640087
  0
VERTEX
  8
0
 62
7
  6
CONTINUOUS
 10
151.7042520295
 20
261.0775255424
  0
SEQEND
  0
LINE
  8
SURFACE
 62
7
  6
CONTINUOUS
 10
172.2951386296
 20
232.7223121515
 11
172.2510506108
 21
232.7777638486
  0
POLYLINE
  8
0
 62
7
  6
CONTINUOUS
 66
1
 70
0
  0
VERTEX
  8
0
 62
7
  6
CONTINUOUS
 10
151.7042520295
 20
261.0775255424
  0
VERTEX
  8
0
 62
7
  6
CONTINUOUS
 10
151.770234145
 20
260.9779808974
  0
VERTEX
  8
0
 62
7
  6
CONTINUOUS
 10
151.8070300831
 20
260.9218290063
  0
VERTEX
  8
0
 62
7
  6
CONTINUOUS
 10
151.8464968269
 20
260.8622227721
  0
SEQEND
  0
POLYLINE
  8
SURFACE
 62
7
  6
CONTINUOUS
 66
1
 70
0
  0
VERTEX
  8
SURFACE
 62
7
  6
CONTINUOUS
 10
172.4973288414
 20
232.4624855151
  0
VERTEX
  8
SURFACE
 62
7
  6
CONTINUOUS
 10
172.4941780318
 20
232.4676335389
  0
VERTEX
  8
SURFACE
 62
7
  6
CONTINUOUS
 10
172.4839538824
 20
232.4823252765
  0
VERTEX
  8
SURFACE
 62
7
  6
CONTINUOUS
 10
172.4663917443
 20
232.5057687668
  0
VERTEX
  8
SURFACE
 62
7
  6
CONTINUOUS
 10
172.4420707629
 20
232.537341509
  0
VERTEX
  8
SURFACE
 62
7
  6
CONTINUOUS
 10
172.4117488699
 20
232.5760895466
  0
VERTEX
  8
SURFACE
 62
7
  6
CONTINUOUS
 10
172.376382413
 20
232.6208018771
  0
VERTEX
  8
SURFACE
 62
7
  6
CONTINUOUS
 10
172.2951386296
 20
232.7223121515
  0
SEQEND
  0
POLYLINE
  8
SURFACE
 62
7
  6
CONTINUOUS
 66
1
 70
0
  0
VERTEX
  8
SURFACE
 62
7
  6
CONTINUOUS
 10
19.0658453476
 20
77.0337965449
  0
VERTEX
  8
SURFACE
 62
7
  6
CONTINUOUS
 10
19.0664900811
 20
77.0110943154
  0
VERTEX
  8
SURFACE
 62
7
  6
CONTINUOUS
 10
19.0703594911
 20
76.9738710464
  0
VERTEX
  8
SURFACE
 62
7
  6
CONTINUOUS
 10
19.0775883727
 20
76.9375840225
  0
VERTEX
  8
SURFACE
 62
7
  6
CONTINUOUS
 10
19.0879839058
 20
76.9025664013
  0
VERTEX
  8
SURFACE
 62
7
  6
CONTINUOUS
 10
19.1013157753
 20
76.8691174766
  0
VERTEX
  8
SURFACE
 62
7
  6
CONTINUOUS
 10
19.117321968
 20
76.8374984571
  0
VERTEX
  8
SURFACE
 62
7
  6
CONTINUOUS
 10
19.135714983
 20
76.8079293044
  0
VERTEX
  8
SURFACE
 62
7
  6
CONTINUOUS
 10
19.1561883346
 20
76.7805865601
  0
VERTEX
  8
SURFACE
 62
7
  6
CONTINUOUS
 10
19.1784233773
 20
76.7556020181
  0
VERTEX
  8
SURFACE
 62
7
  6
CONTINUOUS
 10
19.2020936452
 20
76.7330647747
  0
VERTEX
  8
SURFACE
 62
7
  6
CONTINUOUS
 10
19.2268722671
 20
76.713020001
  0
VERTEX
  8
SURFACE
 62
7
  6
CONTINUOUS
 10
19.2524381619
 20
76.6954704925
  0
VERTEX
  8
SURFACE
 62
7
  6
CONTINUOUS
 10
19.2784803681
 20
76.6803799568
  0
VERTEX
  8
SURFACE
 62
7
  6
CONTINUOUS
 10
19.3047002617
 20
76.6676770496
  0
VERTEX
  8
SURFACE
 62
7
  6
CONTINUOUS
 10
19.3307454297
 20
76.6572831063
  0
VERTEX
  8
SURFACE
 62
7
  6
CONTINUOUS
 10
19.3562417406
 20
76.6490811231
  0
VERTEX
  8
SURFACE
 62
7
  6
CONTINUOUS
 10
19.380794827
 20
76.6429096612
  0
VERTEX
  8
SURFACE
 62
7
  6
CONTINUOUS
 10
19.4030521627
 20
76.6387071022
  0
VERTEX
  8
SURFACE
 62
7
  6
CONTINUOUS
 10
19.4205682783
 20
76.6362916796
  0
VERTEX
  8
SURFACE
 62
7
  6
CONTINUOUS
 10
19.4321229496
 20
76.6351052584
  0
VERTEX
  8
SURFACE
 62
7
  6
CONTINUOUS
 10
19.4399684382
 20
76.6344642103
  0
VERTEX
  8
SURFACE
 62
7
  6
CONTINUOUS
 10
19.4462930264
 20
76.6340251074
  0
VERTEX
  8
SURFACE
 62
7
  6
CONTINUOUS
 10
19.4523079718
 20
76.6336538015
  0
VERTEX
  8
SURFACE
 62
7
  6
CONTINUOUS
 10
19.4586171713
 20
76.6332970556
  0
VERTEX
  8
SURFACE
 62
7
  6
CONTINUOUS
 10
19.4655123882
 20
76.6329325867
  0
VERTEX
  8
SURFACE
 62
7
  6
CONTINUOUS
 10
19.4911349758
 20
76.6317013953
  0
SEQEND
  0
POLYLINE
  8
0
 62
7
  6
CONTINUOUS
 66
1
 70
0
  0
VERTEX
  8
0
 62
7
  6
CONTINUOUS
 10
19.0658453476
 20
68.7337965449
  0
VERTEX
  8
0
 62
7
  6
CONTINUOUS
 10
19.066467686
 20
68.7114917711
  0
VERTEX
  8
0
 62
7
  6
CONTINUOUS
 10
19.0702811879
 20
68.6743901356
  0
VERTEX
  8
0
 62
7
  6
CONTINUOUS
 10
19.0774329971
 20
68.6382132321
  0
VERTEX
  8
0
 62
7
  6
CONTINUOUS
 10
19.0877329629
 20
68.60329123
  0
VERTEX
  8
0
 62
7
  6
CONTINUOUS
 10
19.1009538611
 20
68.5699209913
  0
VERTEX
  8
0
 62
7
  6
CONTINUOUS
 10
19.1168370799
 20
68.5383619022
  0
VERTEX
  8
0
 62
7
  6
CONTINUOUS
 10
19.1350987163
 20
68.5088327395
  0
VERTEX
  8
0
 62
7
  6
CONTINUOUS
 10
19.1554359495
 20
68.4815095234
  0
VERTEX
  8
0
 62
7
  6
CONTINUOUS
 10
19.1775338007
 20
68.4565241133
  0
VERTEX
  8
0
 62
7
  6
CONTINUOUS
 10
19.2010693774
 20
68.4339662611
  0
VERTEX
  8
0
 62
7
  6
CONTINUOUS
 10
19.2257191037
 20
68.4138824111
  0
VERTEX
  8
0
 62
7
  6
CONTINUOUS
 10
19.2511648906
 20
68.3962771103
  0
VERTEX
  8
0
 62
7
  6
CONTINUOUS
 10
19.2770984957
 20
68.3811161781
  0
VERTEX
  8
0
 62
7
  6
CONTINUOUS
 10
19.3032244281
 20
68.3683303879
  0
VERTEX
  8
0
 62
7
  6
CONTINUOUS
 10
19.3291985671
 20
68.3578420328
  0
VERTEX
  8
0
 62
7
  6
CONTINUOUS
 10
19.3546494181
 20
68.3495387894
  0
VERTEX
  8
0
 62
7
  6
CONTINUOUS
 10
19.3791992919
 20
68.3432610203
  0
VERTEX
  8
0
 62
7
  6
CONTINUOUS
 10
19.4016088494
 20
68.3389406323
  0
VERTEX
  8
0
 62
7
  6
CONTINUOUS
 10
19.4194877052
 20
68.3364186964
  0
VERTEX
  8
0
 62
7
  6
CONTINUOUS
 10
19.4313955883
 20
68.3351710225
  0
VERTEX
  8
0
 62
7
  6
CONTINUOUS
 10
19.4394156997
 20
68.3345055692
  0
VERTEX
  8
0
 62
7
  6
CONTINUOUS
 10
19.4457919669
 20
68.3340578399
  0
VERTEX
  8
0
 62
7
  6
CONTINUOUS
 10
19.4517905626
 20
68.3336843633
  0
VERTEX
  8
0
 62
7
  6
CONTINUOUS
 10
19.4580451983
 20
68.3333283392
  0
VERTEX
  8
0
 62
7
  6
CONTINUOUS
 10
19.4723766485
 20
68.3325876903
  0
SEQEND
  0
LINE
  8
0
 62
7
  6
CONTINUOUS
 10
19.065842801
 20
76.986334223
 11
19.065842801
 21
68.733730853
  0
LINE
  8
SURFACE
 62
7
  6
CONTINUOUS
 10
19.065842801
 20
77.033730853
 11
19.065842801
 21
85.286334223
  0
LINE
  8
0
 62
7
  6
CONTINUOUS
 10
19.066290039
 20
77.005125086
 11
19.0658453476
 21
76.986268531
  0
POLYLINE
  8
SURFACE
 62
7
  6
CONTINUOUS
 66
1
 70
0
  0
VERTEX
  8
SURFACE
 62
7
  6
CONTINUOUS
 10
27.2533847079
 20
76.6740205842
  0
VERTEX
  8
SURFACE
 62
7
  6
CONTINUOUS
 10
27.2538130459
 20
76.6108753715
  0
VERTEX
  8
SURFACE
 62
7
  6
CONTINUOUS
 10
27.254931145
 20
76.5536773894
  0
VERTEX
  8
SURFACE
 62
7
  6
CONTINUOUS
 10
27.2566865493
 20
76.5042408659
  0
VERTEX
  8
SURFACE
 62
7
  6
CONTINUOUS
 10
27.2590173675
 20
76.4641174487
  0
VERTEX
  8
SURFACE
 62
7
  6
CONTINUOUS
 10
27.2618457481
 20
76.434535722
  0
VERTEX
  8
SURFACE
 62
7
  6
CONTINUOUS
 10
27.2650787297
 20
76.4163552153
  0
VERTEX
  8
SURFACE
 62
7
  6
CONTINUOUS
 10
27.2681529975
 20
76.410032538
  0
SEQEND
  0
POLYLINE
  8
SURFACE
 62
7
  6
CONTINUOUS
 66
1
 70
0
  0
VERTEX
  8
SURFACE
 62
7
  6
CONTINUOUS
 10
27.2542256785
 20
85.510032538
  0
VERTEX
  8
SURFACE
 62
7
  6
CONTINUOUS
 10
27.253385497
 20
85.6468153168
  0
VERTEX
  8
SURFACE
 62
7
  6
CONTINUOUS
 10
27.2538201663
 20
85.7097380169
  0
VERTEX
  8
SURFACE
 62
7
  6
CONTINUOUS
 10
27.2549359988
 20
85.766567458
  0
VERTEX
  8
SURFACE
 62
7
  6
CONTINUOUS
 10
27.2566796567
 20
85.815673091
  0
VERTEX
  8
SURFACE
 62
7
  6
CONTINUOUS
 10
27.2589938637
 20
85.8556295242
  0
VERTEX
  8
SURFACE
 62
7
  6
CONTINUOUS
 10
27.2618098817
 20
85.8852459581
  0
VERTEX
  8
SURFACE
 62
7
  6
CONTINUOUS
 10
27.2650465973
 20
85.9035931489
  0
VERTEX
  8
SURFACE
 62
7
  6
CONTINUOUS
 10
27.2681529975
 20
85.910032538
  0
SEQEND
  0
LINE
  8
0
 62
7
  6
CONTINUOUS
 10
26.2977892807
 20
76.410032538
 11
26.2977892807
 21
68.510032538
  0
LINE
  8
SURFACE
 62
7
  6
CONTINUOUS
 10
27.2542256785
 20
76.810032538
 11
27.2533847079
 21
76.6740205842
  0
POLYLINE
  8
0
 62
7
  6
CONTINUOUS
 66
1
 70
0
  0
VERTEX
  8
0
 62
7
  6
CONTINUOUS
 10
28.8307829745
 20
68.7309181816
  0
VERTEX
  8
0
 62
7
  6
CONTINUOUS
 10
28.8312990551
 20
68.7105995655
  0
VERTEX
  8
0
 62
7
  6
CONTINUOUS
 10
28.8376824693
 20
68.6569253255
  0
VERTEX
  8
0
 62
7
  6
CONTINUOUS
 10
28.8509477282
 20
68.6054837207
  0
VERTEX
  8
0
 62
7
  6
CONTINUOUS
 10
28.8704426247
 20
68.5572168051
  0
VERTEX
  8
0
 62
7
  6
CONTINUOUS
 10
28.8953742429
 20
68.5129037136
  0
VERTEX
  8
0
 62
7
  6
CONTINUOUS
 10
28.9248484399
 20
68.4731409569
  0
VERTEX
  8
0
 62
7
  6
CONTINUOUS
 10
28.9579151501
 20
68.4383289424
  0
VERTEX
  8
0
 62
7
  6
CONTINUOUS
 10
28.9935330527
 20
68.4087317137
  0
VERTEX
  8
0
 62
7
  6
CONTINUOUS
 10
29.0306703693
 20
68.3843899993
  0
VERTEX
  8
0
 62
7
  6
CONTINUOUS
 10
29.0683376464
 20
68.3651478254
  0
VERTEX
  8
0
 62
7
  6
CONTINUOUS
 10
29.105096669
 20
68.3508468699
  0
VERTEX
  8
0
 62
7
  6
CONTINUOUS
 10
29.1290622148
 20
68.3436436895
  0
SEQEND
  0
LINE
  8
0
 62
7
  6
CONTINUOUS
 10
28.8307798232
 20
76.9892190206
 11
28.8307798232
 21
68.7308460553
  0
LINE
  8
0
 62
7
  6
CONTINUOUS
 10
37.6535417906
 20
77.210032538
 11
37.6535417906
 21
68.510032538
  0
POLYLINE
  8
0
 62
7
  6
CONTINUOUS
 66
1
 70
0
  0
VERTEX
  8
0
 62
7
  6
CONTINUOUS
 10
37.6535417906
 20
77.210032538
  0
VERTEX
  8
0
 62
7
  6
CONTINUOUS
 10
37.6570375379
 20
77.2887433513
  0
VERTEX
  8
0
 62
7
  6
CONTINUOUS
 10
37.6673568455
 20
77.3641928355
  0
VERTEX
  8
0
 62
7
  6
CONTINUOUS
 10
37.6840580566
 20
77.4334825785
  0
VERTEX
  8
0
 62
7
  6
CONTINUOUS
 10
37.7064604878
 20
77.4939797045
  0
VERTEX
  8
0
 62
7
  6
CONTINUOUS
 10
37.7336741156
 20
77.5434264318
  0
VERTEX
  8
0
 62
7
  6
CONTINUOUS
 10
37.7646382881
 20
77.580021125
  0
VERTEX
  8
0
 62
7
  6
CONTINUOUS
 10
37.7981662982
 20
77.6024733766
  0
VERTEX
  8
0
 62
7
  6
CONTINUOUS
 10
37.8329899298
 20
77.610032538
  0
SEQEND
  0
POLYLINE
  8
SURFACE
 62
7
  6
CONTINUOUS
 66
1
 70
0
  0
VERTEX
  8
SURFACE
 62
7
  6
CONTINUOUS
 10
40.4720843514
 20
77.0274772242
  0
VERTEX
  8
SURFACE
 62
7
  6
CONTINUOUS
 10
40.4731112244
 20
76.9988199848
  0
VERTEX
  8
SURFACE
 62
7
  6
CONTINUOUS
 10
40.4814089567
 20
76.941569715
  0
VERTEX
  8
SURFACE
 62
7
  6
CONTINUOUS
 10
40.4975972256
 20
76.8868354906
  0
VERTEX
  8
SURFACE
 62
7
  6
CONTINUOUS
 10
40.5208828262
 20
76.835908285
  0
VERTEX
  8
SURFACE
 62
7
  6
CONTINUOUS
 10
40.550214245
 20
76.7898448828
  0
VERTEX
  8
SURFACE
 62
7
  6
CONTINUOUS
 10
40.5843655569
 20
76.7494034839
  0
VERTEX
  8
SURFACE
 62
7
  6
CONTINUOUS
 10
40.6219345241
 20
76.7150965752
  0
VERTEX
  8
SURFACE
 62
7
  6
CONTINUOUS
 10
40.6613518763
 20
76.6871619865
  0
VERTEX
  8
SURFACE
 62
7
  6
CONTINUOUS
 10
40.7010917341
 20
76.6654334636
  0
VERTEX
  8
SURFACE
 62
7
  6
CONTINUOUS
 10
40.7400874675
 20
76.6492871997
  0
VERTEX
  8
SURFACE
 62
7
  6
CONTINUOUS
 10
40.7763439377
 20
76.6382423667
  0
VERTEX
  8
SURFACE
 62
7
  6
CONTINUOUS
 10
40.8055924942
 20
76.6317737047
  0
VERTEX
  8
SURFACE
 62
7
  6
CONTINUOUS
 10
40.8289763093
 20
76.6279249741
  0
VERTEX
  8
SURFACE
 62
7
  6
CONTINUOUS
 10
40.8497560387
 20
76.6252601171
  0
VERTEX
  8
SURFACE
 62
7
  6
CONTINUOUS
 10
40.8706813928
 20
76.6230712095
  0
VERTEX
  8
SURFACE
 62
7
  6
CONTINUOUS
 10
40.8935977633
 20
76.6210450135
  0
VERTEX
  8
SURFACE
 62
7
  6
CONTINUOUS
 10
40.9194078325
 20
76.619063604
  0
SEQEND
  0
LINE
  8
SURFACE
 62
7
  6
CONTINUOUS
 10
40.4720843318
 20
77.0274490148
 11
40.4720843318
 21
85.2926160612
  0
POLYLINE
  8
0
 62
7
  6
CONTINUOUS
 66
1
 70
0
  0
VERTEX
  8
0
 62
7
  6
CONTINUOUS
 10
36.2415246142
 20
68.1101221761
  0
VERTEX
  8
0
 62
7
  6
CONTINUOUS
 10
36.2321036147
 20
68.1217419145
  0
VERTEX
  8
0
 62
7
  6
CONTINUOUS
 10
36.2234564412
 20
68.1523144941
  0
VERTEX
  8
0
 62
7
  6
CONTINUOUS
 10
36.2160043034
 20
68.2003466544
  0
VERTEX
  8
0
 62
7
  6
CONTINUOUS
 10
36.210109342
 20
68.2634929722
  0
VERTEX
  8
0
 62
7
  6
CONTINUOUS
 10
36.2060550995
 20
68.3386705722
  0
VERTEX
  8
0
 62
7
  6
CONTINUOUS
 10
36.204020183
 20
68.422210072
  0
VERTEX
  8
0
 62
7
  6
CONTINUOUS
 10
36.2042357902
 20
68.510032538
  0
SEQEND
  0
POLYLINE
  8
0
 62
7
  6
CONTINUOUS
 66
1
 70
0
  0
VERTEX
  8
0
 62
7
  6
CONTINUOUS
 10
36.241524617
 20
77.6099428998
  0
VERTEX
  8
0
 62
7
  6
CONTINUOUS
 10
36.2321036119
 20
77.5983231612
  0
VERTEX
  8
0
 62
7
  6
CONTINUOUS
 10
36.2234564322
 20
77.5677505815
  0
VERTEX
  8
0
 62
7
  6
CONTINUOUS
 10
36.2160042865
 20
77.5197184211
  0
VERTEX
  8
0
 62
7
  6
CONTINUOUS
 10
36.210109314
 20
77.4565721032
  0
VERTEX
  8
0
 62
7
  6
CONTINUOUS
 10
36.2060550512
 20
77.3813945029
  0
VERTEX
  8
0
 62
7
  6
CONTINUOUS
 10
36.2040200783
 20
77.2978550024
  0
VERTEX
  8
0
 62
7
  6
CONTINUOUS
 10
36.2042357907
 20
77.210032538
  0
SEQEND
  0
POLYLINE
  8
SURFACE
 62
7
  6
CONTINUOUS
 66
1
 70
0
  0
VERTEX
  8
SURFACE
 62
7
  6
CONTINUOUS
 10
51.9233419727
 20
85.510032538
  0
VERTEX
  8
SURFACE
 62
7
  6
CONTINUOUS
 10
51.919345789
 20
85.5796039102
  0
VERTEX
  8
SURFACE
 62
7
  6
CONTINUOUS
 10
51.908442412
 20
85.6468153171
  0
VERTEX
  8
SURFACE
 62
7
  6
CONTINUOUS
 10
51.8915575944
 20
85.7097380171
  0
VERTEX
  8
SURFACE
 62
7
  6
CONTINUOUS
 10
51.8691410586
 20
85.7665674581
  0
VERTEX
  8
SURFACE
 62
7
  6
CONTINUOUS
 10
51.8418434152
 20
85.8156730911
  0
VERTEX
  8
SURFACE
 62
7
  6
CONTINUOUS
 10
51.8104507986
 20
85.8556295242
  0
VERTEX
  8
SURFACE
 62
7
  6
CONTINUOUS
 10
51.7758612997
 20
85.8852459581
  0
VERTEX
  8
SURFACE
 62
7
  6
CONTINUOUS
 10
51.7390653616
 20
85.9035931489
  0
VERTEX
  8
SURFACE
 62
7
  6
CONTINUOUS
 10
51.6995986178
 20
85.910032538
  0
SEQEND
  0
POLYLINE
  8
SURFACE
 62
7
  6
CONTINUOUS
 66
1
 70
0
  0
VERTEX
  8
SURFACE
 62
7
  6
CONTINUOUS
 10
51.9233419727
 20
76.810032538
  0
VERTEX
  8
SURFACE
 62
7
  6
CONTINUOUS
 10
51.9194195648
 20
76.7411071816
  0
VERTEX
  8
SURFACE
 62
7
  6
CONTINUOUS
 10
51.908606328
 20
76.6740205839
  0
VERTEX
  8
SURFACE
 62
7
  6
CONTINUOUS
 10
51.8917372429
 20
76.6108753714
  0
VERTEX
  8
SURFACE
 62
7
  6
CONTINUOUS
 10
51.8692253772
 20
76.5536773893
  0
VERTEX
  8
SURFACE
 62
7
  6
CONTINUOUS
 10
51.8417437838
 20
76.5042408658
  0
VERTEX
  8
SURFACE
 62
7
  6
CONTINUOUS
 10
51.8101486668
 20
76.4641174487
  0
VERTEX
  8
SURFACE
 62
7
  6
CONTINUOUS
 10
51.7754384814
 20
76.434535722
  0
VERTEX
  8
SURFACE
 62
7
  6
CONTINUOUS
 10
51.7387123686
 20
76.4163552153
  0
VERTEX
  8
SURFACE
 62
7
  6
CONTINUOUS
 10
51.6995986178
 20
76.410032538
  0
SEQEND
  0
POLYLINE
  8
0
 62
7
  6
CONTINUOUS
 66
1
 70
0
  0
VERTEX
  8
0
 62
7
  6
CONTINUOUS
 10
61.5115764515
 20
68.5582715377
  0
VERTEX
  8
0
 62
7
  6
CONTINUOUS
 10
61.512814127
 20
68.5268078372
  0
VERTEX
  8
0
 62
7
  6
CONTINUOUS
 10
61.5214107846
 20
68.4700581674
  0
VERTEX
  8
0
 62
7
  6
CONTINUOUS
 10
61.5378298301
 20
68.4156422992
  0
VERTEX
  8
0
 62
7
  6
CONTINUOUS
 10
61.5613358283
 20
68.3649072134
  0
VERTEX
  8
0
 62
7
  6
CONTINUOUS
 10
61.5909009975
 20
68.3189705232
  0
VERTEX
  8
0
 62
7
  6
CONTINUOUS
 10
61.6252921673
 20
68.2786445078
  0
VERTEX
  8
0
 62
7
  6
CONTINUOUS
 10
61.6630879906
 20
68.2444691065
  0
VERTEX
  8
0
 62
7
  6
CONTINUOUS
 10
61.7026033527
 20
68.2167462895
  0
VERTEX
  8
0
 62
7
  6
CONTINUOUS
 10
61.742227984
 20
68.1952912376
  0
VERTEX
  8
0
 62
7
  6
CONTINUOUS
 10
61.7804746549
 20
68.1795556316
  0
VERTEX
  8
0
 62
7
  6
CONTINUOUS
 10
61.8157469518
 20
68.1687771794
  0
VERTEX
  8
0
 62
7
  6
CONTINUOUS
 10
61.8461370598
 20
68.1619926554
  0
VERTEX
  8
0
 62
7
  6
CONTINUOUS
 10
61.8680174541
 20
68.1583138739
  0
SEQEND
  0
LINE
  8
0
 62
7
  6
CONTINUOUS
 10
61.5115763491
 20
77.1618226819
 11
61.5115763491
 21
68.558242394
  0
POLYLINE
  8
0
 62
7
  6
CONTINUOUS
 66
1
 70
0
  0
VERTEX
  8
0
 62
7
  6
CONTINUOUS
 10
36.2415247894
 20
77.6099427809
  0
VERTEX
  8
0
 62
7
  6
CONTINUOUS
 10
36.2414694427
 20
77.6099931964
  0
VERTEX
  8
0
 62
7
  6
CONTINUOUS
 10
36.2406825615
 20
77.6100231107
  0
VERTEX
  8
0
 62
7
  6
CONTINUOUS
 10
36.2392391431
 20
77.610032538
  0
SEQEND
  0
LINE
  8
0
 62
7
  6
CONTINUOUS
 10
66.7730477223
 20
68.110032538
 11
66.7730477223
 21
58.860032538
  0
LINE
  8
SURFACE
 62
7
  6
CONTINUOUS
 10
66.7730477223
 20
85.910032538
 11
66.7730477223
 21
95.160032538
  0
POLYLINE
  8
0
 62
7
  6
CONTINUOUS
 66
1
 70
0
  0
VERTEX
  8
0
 62
7
  6
CONTINUOUS
 10
36.2415247866
 20
68.1101222951
  0
VERTEX
  8
0
 62
7
  6
CONTINUOUS
 10
36.2414694425
 20
68.1100718795
  0
VERTEX
  8
0
 62
7
  6
CONTINUOUS
 10
36.2406825614
 20
68.1100419652
  0
VERTEX
  8
0
 62
7
  6
CONTINUOUS
 10
36.2400429195
 20
68.1100346907
  0
SEQEND
  0
POLYLINE
  8
0
 62
7
  6
CONTINUOUS
 66
1
 70
0
  0
VERTEX
  8
0
 62
7
  6
CONTINUOUS
 10
42.223496056
 20
76.5428115456
  0
VERTEX
  8
0
 62
7
  6
CONTINUOUS
 10
42.2441534866
 20
76.5252348138
  0
VERTEX
  8
0
 62
7
  6
CONTINUOUS
 10
42.3193208816
 20
76.4801755917
  0
VERTEX
  8
0
 62
7
  6
CONTINUOUS
 10
42.4085405258
 20
76.4440582864
  0
SEQEND
  0
POLYLINE
  8
0
 62
7
  6
CONTINUOUS
 66
1
 70
0
  0
VERTEX
  8
0
 62
7
  6
CONTINUOUS
 10
73.5007662247
 20
77.210032538
  0
VERTEX
  8
0
 62
7
  6
CONTINUOUS
 10
73.499405139
 20
77.2887433513
  0
VERTEX
  8
0
 62
7
  6
CONTINUOUS
 10
73.4953922034
 20
77.3641928355
  0
VERTEX
  8
0
 62
7
  6
CONTINUOUS
 10
73.4889130346
 20
77.4334825785
  0
VERTEX
  8
0
 62
7
  6
CONTINUOUS
 10
73.4802520013
 20
77.4939797045
  0
VERTEX
  8
0
 62
7
  6
CONTINUOUS
 10
73.4697764597
 20
77.5434264318
  0
VERTEX
  8
0
 62
7
  6
CONTINUOUS
 10
73.4579171246
 20
77.580021125
  0
VERTEX
  8
0
 62
7
  6
CONTINUOUS
 10
73.4451466439
 20
77.6024733766
  0
VERTEX
  8
0
 62
7
  6
CONTINUOUS
 10
73.4319593119
 20
77.610032538
  0
SEQEND
  0
LINE
  8
0
 62
7
  6
CONTINUOUS
 10
73.5007662247
 20
77.210032538
 11
73.5007662247
 21
68.510032538
  0
POLYLINE
  8
0
 62
7
  6
CONTINUOUS
 66
1
 70
0
  0
VERTEX
  8
0
 62
7
  6
CONTINUOUS
 10
78.9724052416
 20
77.210032538
  0
VERTEX
  8
0
 62
7
  6
CONTINUOUS
 10
78.9666796163
 20
77.2675705545
  0
VERTEX
  8
0
 62
7
  6
CONTINUOUS
 10
78.9485845093
 20
77.326419374
  0
VERTEX
  8
0
 62
7
  6
CONTINUOUS
 10
78.9163665385
 20
77.3858561149
  0
VERTEX
  8
0
 62
7
  6
CONTINUOUS
 10
78.8695655099
 20
77.4428226908
  0
VERTEX
  8
0
 62
7
  6
CONTINUOUS
 10
78.8084424974
 20
77.4948302621
  0
VERTEX
  8
0
 62
7
  6
CONTINUOUS
 10
78.7332751024
 20
77.5398894843
  0
VERTEX
  8
0
 62
7
  6
CONTINUOUS
 10
78.6440554582
 20
77.5760067895
  0
VERTEX
  8
0
 62
7
  6
CONTINUOUS
 10
78.5404568222
 20
77.60064045
  0
VERTEX
  8
0
 62
7
  6
CONTINUOUS
 10
78.4218524734
 20
77.610032538
  0
SEQEND
  0
LINE
  8
0
 62
7
  6
CONTINUOUS
 10
78.9724052416
 20
77.210032538
 11
78.9724052416
 21
76.810032538
  0
POLYLINE
  8
0
 62
7
  6
CONTINUOUS
 66
1
 70
0
  0
VERTEX
  8
0
 62
7
  6
CONTINUOUS
 10
25.5542100571
 20
68.1101221756
  0
VERTEX
  8
0
 62
7
  6
CONTINUOUS
 10
25.4953927885
 20
68.1217419097
  0
VERTEX
  8
0
 62
7
  6
CONTINUOUS
 10
25.4399255985
 20
68.1523144854
  0
VERTEX
  8
0
 62
7
  6
CONTINUOUS
 10
25.3905150816
 20
68.2003466423
  0
VERTEX
  8
0
 62
7
  6
CONTINUOUS
 10
25.3495714904
 20
68.2634929563
  0
VERTEX
  8
0
 62
7
  6
CONTINUOUS
 10
25.3190896945
 20
68.3386705491
  0
VERTEX
  8
0
 62
7
  6
CONTINUOUS
 10
25.3005429682
 20
68.4222100269
  0
VERTEX
  8
0
 62
7
  6
CONTINUOUS
 10
25.2949297935
 20
68.510032538
  0
SEQEND
  0
POLYLINE
  8
0
 62
7
  6
CONTINUOUS
 66
1
 70
0
  0
VERTEX
  8
0
 62
7
  6
CONTINUOUS
 10
37.8329899298
 20
68.110032538
  0
VERTEX
  8
0
 62
7
  6
CONTINUOUS
 10
37.7981662982
 20
68.1175916993
  0
VERTEX
  8
0
 62
7
  6
CONTINUOUS
 10
37.7646382881
 20
68.1400439509
  0
VERTEX
  8
0
 62
7
  6
CONTINUOUS
 10
37.7336741156
 20
68.1766386442
  0
VERTEX
  8
0
 62
7
  6
CONTINUOUS
 10
37.7064604878
 20
68.2260853714
  0
VERTEX
  8
0
 62
7
  6
CONTINUOUS
 10
37.6840580566
 20
68.2865824974
  0
VERTEX
  8
0
 62
7
  6
CONTINUOUS
 10
37.6673568455
 20
68.3558722405
  0
VERTEX
  8
0
 62
7
  6
CONTINUOUS
 10
37.6570375379
 20
68.4313217246
  0
VERTEX
  8
0
 62
7
  6
CONTINUOUS
 10
37.6535417906
 20
68.510032538
  0
SEQEND
  0
POLYLINE
  8
0
 62
7
  6
CONTINUOUS
 66
1
 70
0
  0
VERTEX
  8
0
 62
7
  6
CONTINUOUS
 10
29.1291187515
 20
68.3436276244
  0
VERTEX
  8
0
 62
7
  6
CONTINUOUS
 10
29.3916285467
 20
68.2815186143
  0
VERTEX
  8
0
 62
7
  6
CONTINUOUS
 10
29.6989681258
 20
68.2230082276
  0
VERTEX
  8
0
 62
7
  6
CONTINUOUS
 10
30.0341546066
 20
68.1698743758
  0
SEQEND
  0
LINE
  8
0
 62
7
  6
CONTINUOUS
 10
29.1290622148
 20
68.3436436895
 11
29.1291189835
 21
68.3436284901
  0
POLYLINE
  8
0
 62
7
  6
CONTINUOUS
 66
1
 70
0
  0
VERTEX
  8
0
 62
7
  6
CONTINUOUS
 10
72.0447032002
 20
77.5677505735
  0
VERTEX
  8
0
 62
7
  6
CONTINUOUS
 10
72.0820558805
 20
77.5197184099
  0
VERTEX
  8
0
 62
7
  6
CONTINUOUS
 10
72.113461191
 20
77.4565720884
  0
VERTEX
  8
0
 62
7
  6
CONTINUOUS
 10
72.1373830299
 20
77.3813944816
  0
VERTEX
  8
0
 62
7
  6
CONTINUOUS
 10
72.1526370447
 20
77.2978549608
  0
VERTEX
  8
0
 62
7
  6
CONTINUOUS
 10
72.1585993472
 20
77.210032538
  0
SEQEND
  0
POLYLINE
  8
0
 62
7
  6
CONTINUOUS
 66
1
 70
0
  0
VERTEX
  8
0
 62
7
  6
CONTINUOUS
 10
78.9724052416
 20
76.810032538
  0
VERTEX
  8
0
 62
7
  6
CONTINUOUS
 10
78.9794825036
 20
76.7524945214
  0
VERTEX
  8
0
 62
7
  6
CONTINUOUS
 10
79.001849286
 20
76.693645702
  0
VERTEX
  8
0
 62
7
  6
CONTINUOUS
 10
79.0416728879
 20
76.6342089611
  0
VERTEX
  8
0
 62
7
  6
CONTINUOUS
 10
79.0995221407
 20
76.5772423851
  0
VERTEX
  8
0
 62
7
  6
CONTINUOUS
 10
79.1750743392
 20
76.5252348138
  0
VERTEX
  8
0
 62
7
  6
CONTINUOUS
 10
79.2679863491
 20
76.4801755917
  0
VERTEX
  8
0
 62
7
  6
CONTINUOUS
 10
79.3782678943
 20
76.4440582864
  0
VERTEX
  8
0
 62
7
  6
CONTINUOUS
 10
79.5063228508
 20
76.4194246259
  0
VERTEX
  8
0
 62
7
  6
CONTINUOUS
 10
79.6529258883
 20
76.410032538
  0
SEQEND
  0
POLYLINE
  8
SURFACE
 62
7
  6
CONTINUOUS
 66
1
 70
0
  0
VERTEX
  8
SURFACE
 62
7
  6
CONTINUOUS
 10
83.3990541934
 20
76.810032538
  0
VERTEX
  8
SURFACE
 62
7
  6
CONTINUOUS
 10
83.4047522236
 20
76.7313217246
  0
VERTEX
  8
SURFACE
 62
7
  6
CONTINUOUS
 10
83.4215645973
 20
76.6558722405
  0
VERTEX
  8
SURFACE
 62
7
  6
CONTINUOUS
 10
83.4487493238
 20
76.5865824974
  0
VERTEX
  8
SURFACE
 62
7
  6
CONTINUOUS
 10
83.4851656013
 20
76.5260853714
  0
VERTEX
  8
SURFACE
 62
7
  6
CONTINUOUS
 10
83.5293290113
 20
76.4766386442
  0
VERTEX
  8
SURFACE
 62
7
  6
CONTINUOUS
 10
83.5794819912
 20
76.4400439509
  0
VERTEX
  8
SURFACE
 62
7
  6
CONTINUOUS
 10
83.6336730731
 20
76.4175916993
  0
VERTEX
  8
SURFACE
 62
7
  6
CONTINUOUS
 10
83.6898342561
 20
76.410032538
  0
SEQEND
  0
LINE
  8
SURFACE
 62
7
  6
CONTINUOUS
 10
83.3990541934
 20
76.810032538
 11
83.3990541934
 21
85.510032538
  0
LINE
  8
SURFACE
 62
7
  6
CONTINUOUS
 10
84.8730477223
 20
76.9288503392
 11
84.8730477223
 21
85.3912147367
  0
POLYLINE
  8
0
 62
7
  6
CONTINUOUS
 66
1
 70
0
  0
VERTEX
  8
0
 62
7
  6
CONTINUOUS
 10
72.0447032059
 20
68.1523145022
  0
VERTEX
  8
0
 62
7
  6
CONTINUOUS
 10
72.0820558912
 20
68.2003466657
  0
VERTEX
  8
0
 62
7
  6
CONTINUOUS
 10
72.1134612089
 20
68.2634929871
  0
VERTEX
  8
0
 62
7
  6
CONTINUOUS
 10
72.1373830608
 20
68.3386705937
  0
VERTEX
  8
0
 62
7
  6
CONTINUOUS
 10
72.1526371118
 20
68.422210114
  0
VERTEX
  8
0
 62
7
  6
CONTINUOUS
 10
72.1585993469
 20
68.510032538
  0
SEQEND
  0
POLYLINE
  8
0
 62
7
  6
CONTINUOUS
 66
1
 70
0
  0
VERTEX
  8
0
 62
7
  6
CONTINUOUS
 10
29.1291227612
 20
77.3764375973
  0
VERTEX
  8
0
 62
7
  6
CONTINUOUS
 10
29.1053068099
 20
77.3692883573
  0
VERTEX
  8
0
 62
7
  6
CONTINUOUS
 10
29.0726288772
 20
77.3568026193
  0
VERTEX
  8
0
 62
7
  6
CONTINUOUS
 10
29.0397112843
 20
77.3407556938
  0
VERTEX
  8
0
 62
7
  6
CONTINUOUS
 10
29.007126397
 20
77.3209316651
  0
VERTEX
  8
0
 62
7
  6
CONTINUOUS
 10
28.9754565518
 20
77.2971826003
  0
VERTEX
  8
0
 62
7
  6
CONTINUOUS
 10
28.9454347717
 20
77.2695638585
  0
VERTEX
  8
0
 62
7
  6
CONTINUOUS
 10
28.9178312389
 20
77.2383502901
  0
VERTEX
  8
0
 62
7
  6
CONTINUOUS
 10
28.8932407996
 20
77.2038409498
  0
VERTEX
  8
0
 62
7
  6
CONTINUOUS
 10
28.8720726824
 20
77.1661921289
  0
VERTEX
  8
0
 62
7
  6
CONTINUOUS
 10
28.8548222203
 20
77.1257624931
  0
VERTEX
  8
0
 62
7
  6
CONTINUOUS
 10
28.8419415185
 20
77.0829929012
  0
VERTEX
  8
0
 62
7
  6
CONTINUOUS
 10
28.8338253073
 20
77.038400687
  0
VERTEX
  8
0
 62
7
  6
CONTINUOUS
 10
28.8307829749
 20
76.9891468891
  0
SEQEND
  0
LINE
  8
SURFACE
 62
7
  6
CONTINUOUS
 10
174.1550777566
 20
76.5816476294
 11
174.4169799643
 21
76.6436285
  0
LINE
  8
0
 62
7
  6
CONTINUOUS
 10
133.7730477223
 20
55.860032538
 11
69.7730477223
 21
55.860032538
  0
POLYLINE
  8
0
 62
7
  6
CONTINUOUS
 66
1
 70
0
  0
VERTEX
  8
0
 62
7
  6
CONTINUOUS
 10
26.6569493818
 20
68.110032538
  0
VERTEX
  8
0
 62
7
  6
CONTINUOUS
 10
26.5874162304
 20
68.1175916993
  0
VERTEX
  8
0
 62
7
  6
CONTINUOUS
 10
26.5203962897
 20
68.1400439509
  0
VERTEX
  8
0
 62
7
  6
CONTINUOUS
 10
26.4584358709
 20
68.1766386442
  0
VERTEX
  8
0
 62
7
  6
CONTINUOUS
 10
26.4039277548
 20
68.2260853714
  0
VERTEX
  8
0
 62
7
  6
CONTINUOUS
 10
26.3590188263
 20
68.2865824974
  0
VERTEX
  8
0
 62
7
  6
CONTINUOUS
 10
26.3255165302
 20
68.3558722405
  0
VERTEX
  8
0
 62
7
  6
CONTINUOUS
 10
26.3048066043
 20
68.4313217246
  0
VERTEX
  8
0
 62
7
  6
CONTINUOUS
 10
26.2977892807
 20
68.510032538
  0
SEQEND
  0
POLYLINE
  8
0
 62
7
  6
CONTINUOUS
 66
1
 70
0
  0
VERTEX
  8
0
 62
7
  6
CONTINUOUS
 10
30.0341451437
 20
68.1698761847
  0
VERTEX
  8
0
 62
7
  6
CONTINUOUS
 10
30.0435680607
 20
68.1685923398
  0
VERTEX
  8
0
 62
7
  6
CONTINUOUS
 10
30.0575983354
 20
68.1669870575
  0
VERTEX
  8
0
 62
7
  6
CONTINUOUS
 10
30.0703511442
 20
68.1657761716
  0
VERTEX
  8
0
 62
7
  6
CONTINUOUS
 10
30.0833976755
 20
68.1647066657
  0
VERTEX
  8
0
 62
7
  6
CONTINUOUS
 10
30.0976709464
 20
68.1636674223
  0
VERTEX
  8
0
 62
7
  6
CONTINUOUS
 10
30.1137003565
 20
68.1626093271
  0
SEQEND
  0
POLYLINE
  8
SURFACE
 62
7
  6
CONTINUOUS
 66
1
 70
0
  0
VERTEX
  8
SURFACE
 62
7
  6
CONTINUOUS
 10
84.4006845623
 20
85.8983231549
  0
VERTEX
  8
SURFACE
 62
7
  6
CONTINUOUS
 10
84.3249280686
 20
85.8677505701
  0
VERTEX
  8
SURFACE
 62
7
  6
CONTINUOUS
 10
84.2570378419
 20
85.8197184053
  0
VERTEX
  8
SURFACE
 62
7
  6
CONTINUOUS
 10
84.2003277588
 20
85.7565720824
  0
VERTEX
  8
SURFACE
 62
7
  6
CONTINUOUS
 10
84.1575666987
 20
85.6813944728
  0
VERTEX
  8
SURFACE
 62
7
  6
CONTINUOUS
 10
84.1308489587
 20
85.5978549434
  0
VERTEX
  8
SURFACE
 62
7
  6
CONTINUOUS
 10
84.1214198314
 20
85.510032538
  0
SEQEND
  0
POLYLINE
  8
SURFACE
 62
7
  6
CONTINUOUS
 66
1
 70
0
  0
VERTEX
  8
SURFACE
 62
7
  6
CONTINUOUS
 10
173.5119420316
 20
76.4698745501
  0
VERTEX
  8
SURFACE
 62
7
  6
CONTINUOUS
 10
173.8478383783
 20
76.5231311003
  0
VERTEX
  8
SURFACE
 62
7
  6
CONTINUOUS
 10
174.1550777566
 20
76.5816476294
  0
SEQEND
  0
LINE
  8
0
 62
7
  6
CONTINUOUS
 10
119.0654859335
 20
68.1101221767
 11
119.1454108824
 21
68.121741921
  0
POLYLINE
  8
0
 62
7
  6
CONTINUOUS
 66
1
 70
0
  0
VERTEX
  8
0
 62
7
  6
CONTINUOUS
 10
119.8562611886
 20
68.110032538
  0
VERTEX
  8
0
 62
7
  6
CONTINUOUS
 10
119.9124223716
 20
68.1175916993
  0
VERTEX
  8
0
 62
7
  6
CONTINUOUS
 10
119.9666134535
 20
68.1400439509
  0
VERTEX
  8
0
 62
7
  6
CONTINUOUS
 10
120.0167664334
 20
68.1766386442
  0
VERTEX
  8
0
 62
7
  6
CONTINUOUS
 10
120.0609298434
 20
68.2260853714
  0
VERTEX
  8
0
 62
7
  6
CONTINUOUS
 10
120.0973461209
 20
68.2865824974
  0
VERTEX
  8
0
 62
7
  6
CONTINUOUS
 10
120.1245308474
 20
68.3558722405
  0
VERTEX
  8
0
 62
7
  6
CONTINUOUS
 10
120.1413432211
 20
68.4313217246
  0
VERTEX
  8
0
 62
7
  6
CONTINUOUS
 10
120.1470412513
 20
68.510032538
  0
SEQEND
  0
POLYLINE
  8
0
 62
7
  6
CONTINUOUS
 66
1
 70
0
  0
VERTEX
  8
0
 62
7
  6
CONTINUOUS
 10
159.6101448412
 20
68.1136081828
  0
VERTEX
  8
0
 62
7
  6
CONTINUOUS
 10
159.7603975458
 20
68.1314949616
  0
VERTEX
  8
0
 62
7
  6
CONTINUOUS
 10
159.997377107
 20
68.1540111093
  0
VERTEX
  8
0
 62
7
  6
CONTINUOUS
 10
160.3065827824
 20
68.1785404196
  0
VERTEX
  8
0
 62
7
  6
CONTINUOUS
 10
160.6883421275
 20
68.2047389
  0
SEQEND
  0
POLYLINE
  8
0
 62
7
  6
CONTINUOUS
 66
1
 70
0
  0
VERTEX
  8
0
 62
7
  6
CONTINUOUS
 10
162.6477089649
 20
68.3206571074
  0
VERTEX
  8
0
 62
7
  6
CONTINUOUS
 10
162.6697979095
 20
68.3225448719
  0
VERTEX
  8
0
 62
7
  6
CONTINUOUS
 10
162.6898192047
 20
68.3245340685
  0
VERTEX
  8
0
 62
7
  6
CONTINUOUS
 10
162.7089221911
 20
68.3268020905
  0
VERTEX
  8
0
 62
7
  6
CONTINUOUS
 10
162.7291330736
 20
68.3297723544
  0
VERTEX
  8
0
 62
7
  6
CONTINUOUS
 10
162.7531191192
 20
68.334317858
  0
VERTEX
  8
0
 62
7
  6
CONTINUOUS
 10
162.7837841537
 20
68.3420958298
  0
VERTEX
  8
0
 62
7
  6
CONTINUOUS
 10
162.8212640358
 20
68.3550446919
  0
VERTEX
  8
0
 62
7
  6
CONTINUOUS
 10
162.8626586028
 20
68.3743745679
  0
VERTEX
  8
0
 62
7
  6
CONTINUOUS
 10
162.9046407581
 20
68.4003732655
  0
VERTEX
  8
0
 62
7
  6
CONTINUOUS
 10
162.9452058368
 20
68.4332306546
  0
VERTEX
  8
0
 62
7
  6
CONTINUOUS
 10
162.9827312734
 20
68.4729675836
  0
VERTEX
  8
0
 62
7
  6
CONTINUOUS
 10
163.0156000782
 20
68.5192295919
  0
VERTEX
  8
0
 62
7
  6
CONTINUOUS
 10
163.0423321788
 20
68.5713825471
  0
VERTEX
  8
0
 62
7
  6
CONTINUOUS
 10
163.0615724992
 20
68.6284518024
  0
VERTEX
  8
0
 62
7
  6
CONTINUOUS
 10
163.0721720358
 20
68.6891458897
  0
VERTEX
  8
0
 62
7
  6
CONTINUOUS
 10
163.0740110933
 20
68.7274771922
  0
SEQEND
  0
LINE
  8
0
 62
7
  6
CONTINUOUS
 10
159.5661944941
 20
68.1101221765
 11
159.6101448014
 21
68.1136081828
  0
POLYLINE
  8
0
 62
7
  6
CONTINUOUS
 66
1
 70
0
  0
VERTEX
  8
0
 62
7
  6
CONTINUOUS
 10
162.5951106247
 20
68.3169243976
  0
VERTEX
  8
0
 62
7
  6
CONTINUOUS
 10
162.622993395
 20
68.3187993478
  0
VERTEX
  8
0
 62
7
  6
CONTINUOUS
 10
162.6477089649
 20
68.3206571074
  0
SEQEND
  0
POLYLINE
  8
0
 62
7
  6
CONTINUOUS
 66
1
 70
0
  0
VERTEX
  8
0
 62
7
  6
CONTINUOUS
 10
184.0894136811
 20
68.3334036827
  0
VERTEX
  8
0
 62
7
  6
CONTINUOUS
 10
184.0963611785
 20
68.3338081918
  0
VERTEX
  8
0
 62
7
  6
CONTINUOUS
 10
184.1033150216
 20
68.3342616437
  0
VERTEX
  8
0
 62
7
  6
CONTINUOUS
 10
184.1116988898
 20
68.3349069263
  0
VERTEX
  8
0
 62
7
  6
CONTINUOUS
 10
184.1239258416
 20
68.33610863
  0
VERTEX
  8
0
 62
7
  6
CONTINUOUS
 10
184.1407986003
 20
68.3383544822
  0
VERTEX
  8
0
 62
7
  6
CONTINUOUS
 10
184.1604780661
 20
68.3418888499
  0
VERTEX
  8
0
 62
7
  6
CONTINUOUS
 10
184.1814187441
 20
68.3467747624
  0
VERTEX
  8
0
 62
7
  6
CONTINUOUS
 10
184.2034336771
 20
68.3532153535
  0
VERTEX
  8
0
 62
7
  6
CONTINUOUS
 10
184.2261817982
 20
68.3613494239
  0
VERTEX
  8
0
 62
7
  6
CONTINUOUS
 10
184.2493601986
 20
68.3712883009
  0
VERTEX
  8
0
 62
7
  6
CONTINUOUS
 10
184.2726211892
 20
68.3830802646
  0
VERTEX
  8
0
 62
7
  6
CONTINUOUS
 10
184.295592361
 20
68.3966990266
  0
VERTEX
  8
0
 62
7
  6
CONTINUOUS
 10
184.3179968676
 20
68.4121099584
  0
VERTEX
  8
0
 62
7
  6
CONTINUOUS
 10
184.339729383
 20
68.4293704496
  0
VERTEX
  8
0
 62
7
  6
CONTINUOUS
 10
184.3606693108
 20
68.4485441572
  0
VERTEX
  8
0
 62
7
  6
CONTINUOUS
 10
184.3806716968
 20
68.4696943747
  0
VERTEX
  8
0
 62
7
  6
CONTINUOUS
 10
184.3995644033
 20
68.4928799579
  0
VERTEX
  8
0
 62
7
  6
CONTINUOUS
 10
184.417138606
 20
68.5181394505
  0
VERTEX
  8
0
 62
7
  6
CONTINUOUS
 10
184.4331393455
 20
68.5454603285
  0
VERTEX
  8
0
 62
7
  6
CONTINUOUS
 10
184.4472918947
 20
68.574795759
  0
VERTEX
  8
0
 62
7
  6
CONTINUOUS
 10
184.4593087493
 20
68.6060658748
  0
VERTEX
  8
0
 62
7
  6
CONTINUOUS
 10
184.4688926485
 20
68.639153613
  0
VERTEX
  8
0
 62
7
  6
CONTINUOUS
 10
184.4757404325
 20
68.6739006138
  0
VERTEX
  8
0
 62
7
  6
CONTINUOUS
 10
184.4795477966
 20
68.7101033193
  0
VERTEX
  8
0
 62
7
  6
CONTINUOUS
 10
184.4802500971
 20
68.7337965448
  0
SEQEND
  0
LINE
  8
0
 62
7
  6
CONTINUOUS
 10
160.6883421275
 20
68.2047389
 11
162.5951106247
 21
68.3169243976
  0
LINE
  8
0
 62
7
  6
CONTINUOUS
 10
184.073294481
 20
68.332566829
 11
184.0894136811
 21
68.3334036827
  0
LINE
  8
0
 62
7
  6
CONTINUOUS
 10
184.0404082789
 20
68.3310490596
 11
184.073294481
 21
68.332566829
  0
LINE
  8
0
 62
7
  6
CONTINUOUS
 10
183.9110974156
 20
68.325761119
 11
184.0404082789
 21
68.3310490596
  0
LINE
  8
0
 62
7
  6
CONTINUOUS
 10
181.2328044842
 20
68.2290940084
 11
177.9918834553
 21
68.1101220795
  0
LINE
  8
0
 62
7
  6
CONTINUOUS
 10
183.6109433539
 20
68.3145853057
 11
183.9110974156
 21
68.325761119
  0
LINE
  8
0
 62
7
  6
CONTINUOUS
 10
183.6104362289
 20
68.3145704394
 11
181.2328044842
 21
68.2290940084
  0
LINE
  8
0
 62
7
  6
CONTINUOUS
 10
177.9918834553
 20
68.1101220795
 11
177.9887853612
 21
68.1100346907
  0
LINE
  8
0
 62
7
  6
CONTINUOUS
 10
25.5542119894
 20
68.1101220795
 11
25.5573100835
 21
68.1100346907
  0
LINE
  8
0
 62
7
  6
CONTINUOUS
 10
24.3730204753
 20
68.1540867564
 11
25.5542119894
 21
68.1101220795
  0
LINE
  8
0
 62
7
  6
CONTINUOUS
 10
19.5762689146
 20
68.3280904842
 11
24.3730204753
 21
68.1540867564
  0
LINE
  8
0
 62
7
  6
CONTINUOUS
 10
19.5007561228
 20
68.3312675513
 11
19.5762689146
 21
68.3280904842
  0
LINE
  8
0
 62
7
  6
CONTINUOUS
 10
30.2261037779
 20
68.1566210138
 11
31.2886408796
 21
68.1101801393
  0
LINE
  8
0
 62
7
  6
CONTINUOUS
 10
19.4723766485
 20
68.3325876903
 11
19.5007561228
 21
68.3312675513
  0
LINE
  8
0
 62
7
  6
CONTINUOUS
 10
30.174309878
 20
68.1591750578
 11
30.2261037779
 21
68.1566210138
  0
POLYLINE
  8
0
 62
7
  6
CONTINUOUS
 66
1
 70
0
  0
VERTEX
  8
0
 62
7
  6
CONTINUOUS
 10
30.1137003565
 20
68.1626093271
  0
VERTEX
  8
0
 62
7
  6
CONTINUOUS
 10
30.1317288215
 20
68.1615133741
  0
VERTEX
  8
0
 62
7
  6
CONTINUOUS
 10
30.174309878
 20
68.1591750578
  0
SEQEND
  0
LINE
  8
0
 62
7
  6
CONTINUOUS
 10
62.2421383144
 20
68.110032538
 11
62.1942099491
 21
68.1131380986
  0
POLYLINE
  8
0
 62
7
  6
CONTINUOUS
 66
1
 70
0
  0
VERTEX
  8
0
 62
7
  6
CONTINUOUS
 10
61.9672658557
 20
68.1439117051
  0
VERTEX
  8
0
 62
7
  6
CONTINUOUS
 10
62.08871104
 20
68.1271065
  0
VERTEX
  8
0
 62
7
  6
CONTINUOUS
 10
62.1942391496
 20
68.1131379794
  0
SEQEND
  0
LINE
  8
0
 62
7
  6
CONTINUOUS
 10
61.8680621313
 20
68.1583067692
 11
61.9672658557
 21
68.1439117051
  0
POLYLINE
  8
0
 62
7
  6
CONTINUOUS
 66
1
 70
0
  0
VERTEX
  8
0
 62
7
  6
CONTINUOUS
 10
42.4085405258
 20
76.4440582864
  0
VERTEX
  8
0
 62
7
  6
CONTINUOUS
 10
42.5121391618
 20
76.4194246259
  0
VERTEX
  8
0
 62
7
  6
CONTINUOUS
 10
42.6307435106
 20
76.410032538
  0
SEQEND
  0
POLYLINE
  8
SURFACE
 62
7
  6
CONTINUOUS
 66
1
 70
0
  0
VERTEX
  8
SURFACE
 62
7
  6
CONTINUOUS
 10
95.6333515341
 20
76.810032538
  0
VERTEX
  8
SURFACE
 62
7
  6
CONTINUOUS
 10
95.6274818189
 20
76.7411071816
  0
VERTEX
  8
SURFACE
 62
7
  6
CONTINUOUS
 10
95.6103497102
 20
76.6740205839
  0
VERTEX
  8
SURFACE
 62
7
  6
CONTINUOUS
 10
95.5826266268
 20
76.6108753714
  0
VERTEX
  8
SURFACE
 62
7
  6
CONTINUOUS
 10
95.545083568
 20
76.5536773893
  0
VERTEX
  8
SURFACE
 62
7
  6
CONTINUOUS
 10
95.4988620142
 20
76.5042408658
  0
VERTEX
  8
SURFACE
 62
7
  6
CONTINUOUS
 10
95.4454092247
 20
76.4641174487
  0
VERTEX
  8
SURFACE
 62
7
  6
CONTINUOUS
 10
95.3864185859
 20
76.434535722
  0
VERTEX
  8
SURFACE
 62
7
  6
CONTINUOUS
 10
95.323761507
 20
76.4163552153
  0
VERTEX
  8
SURFACE
 62
7
  6
CONTINUOUS
 10
95.2573998621
 20
76.410032538
  0
SEQEND
  0
POLYLINE
  8
0
 62
7
  6
CONTINUOUS
 66
1
 70
0
  0
VERTEX
  8
0
 62
7
  6
CONTINUOUS
 10
73.4319593119
 20
68.110032538
  0
VERTEX
  8
0
 62
7
  6
CONTINUOUS
 10
73.4451466439
 20
68.1175916993
  0
VERTEX
  8
0
 62
7
  6
CONTINUOUS
 10
73.4579171246
 20
68.1400439509
  0
VERTEX
  8
0
 62
7
  6
CONTINUOUS
 10
73.4697764597
 20
68.1766386442
  0
VERTEX
  8
0
 62
7
  6
CONTINUOUS
 10
73.4802520013
 20
68.2260853714
  0
VERTEX
  8
0
 62
7
  6
CONTINUOUS
 10
73.4889130346
 20
68.2865824974
  0
VERTEX
  8
0
 62
7
  6
CONTINUOUS
 10
73.4953922034
 20
68.3558722405
  0
VERTEX
  8
0
 62
7
  6
CONTINUOUS
 10
73.499405139
 20
68.4313217246
  0
VERTEX
  8
0
 62
7
  6
CONTINUOUS
 10
73.5007662247
 20
68.510032538
  0
SEQEND
  0
POLYLINE
  8
SURFACE
 62
7
  6
CONTINUOUS
 66
1
 70
0
  0
VERTEX
  8
SURFACE
 62
7
  6
CONTINUOUS
 10
141.6780640553
 20
76.4583118034
  0
VERTEX
  8
SURFACE
 62
7
  6
CONTINUOUS
 10
141.6983750692
 20
76.461695483
  0
VERTEX
  8
SURFACE
 62
7
  6
CONTINUOUS
 10
141.7260092199
 20
76.4676753562
  0
VERTEX
  8
SURFACE
 62
7
  6
CONTINUOUS
 10
141.7582600831
 20
76.477026991
  0
VERTEX
  8
SURFACE
 62
7
  6
CONTINUOUS
 10
141.793823443
 20
76.4907181619
  0
VERTEX
  8
SURFACE
 62
7
  6
CONTINUOUS
 10
141.8310579098
 20
76.5093930773
  0
VERTEX
  8
SURFACE
 62
7
  6
CONTINUOUS
 10
141.8684943903
 20
76.5334569042
  0
VERTEX
  8
SURFACE
 62
7
  6
CONTINUOUS
 10
141.904867226
 20
76.5631630739
  0
VERTEX
  8
SURFACE
 62
7
  6
CONTINUOUS
 10
141.9387321633
 20
76.5983175053
  0
VERTEX
  8
SURFACE
 62
7
  6
CONTINUOUS
 10
141.9687984214
 20
76.6384163794
  0
VERTEX
  8
SURFACE
 62
7
  6
CONTINUOUS
 10
141.9941449761
 20
76.6830125308
  0
VERTEX
  8
SURFACE
 62
7
  6
CONTINUOUS
 10
142.0138775436
 20
76.7313455693
  0
VERTEX
  8
SURFACE
 62
7
  6
CONTINUOUS
 10
142.0272808099
 20
76.7824684236
  0
VERTEX
  8
SURFACE
 62
7
  6
CONTINUOUS
 10
142.0338591096
 20
76.8352890121
  0
VERTEX
  8
SURFACE
 62
7
  6
CONTINUOUS
 10
142.0345189933
 20
76.858271564
  0
SEQEND
  0
LINE
  8
SURFACE
 62
7
  6
CONTINUOUS
 10
141.5804184782
 20
76.4441372671
 11
141.6780334668
 21
76.4583067919
  0
LINE
  8
SURFACE
 62
7
  6
CONTINUOUS
 10
141.4590544505
 20
76.4273320656
 11
141.5804184782
 21
76.4441372671
  0
LINE
  8
SURFACE
 62
7
  6
CONTINUOUS
 10
173.4990641977
 20
76.4681644687
 11
173.5119315241
 21
76.4698734425
  0
LINE
  8
SURFACE
 62
7
  6
CONTINUOUS
 10
141.3518563978
 20
76.4131379928
 11
141.4590544505
 21
76.4273320656
  0
POLYLINE
  8
SURFACE
 62
7
  6
CONTINUOUS
 66
1
 70
0
  0
VERTEX
  8
SURFACE
 62
7
  6
CONTINUOUS
 10
173.4169052081
 20
76.4616628862
  0
VERTEX
  8
SURFACE
 62
7
  6
CONTINUOUS
 10
173.4368319151
 20
76.4628929851
  0
VERTEX
  8
SURFACE
 62
7
  6
CONTINUOUS
 10
173.4541808316
 20
76.4640733517
  0
VERTEX
  8
SURFACE
 62
7
  6
CONTINUOUS
 10
173.4695702905
 20
76.4652526313
  0
VERTEX
  8
SURFACE
 62
7
  6
CONTINUOUS
 10
173.4840593894
 20
76.4665429374
  0
VERTEX
  8
SURFACE
 62
7
  6
CONTINUOUS
 10
173.4990641977
 20
76.4681644687
  0
SEQEND
  0
LINE
  8
0
 62
7
  6
CONTINUOUS
 10
71.9596631094
 20
68.110122408
 11
71.9541562112
 21
68.1100346907
  0
LINE
  8
0
 62
7
  6
CONTINUOUS
 10
159.5662092436
 20
68.110122408
 11
159.558562311
 21
68.110032538
  0
LINE
  8
0
 62
7
  6
CONTINUOUS
 10
119.0655066388
 20
68.1101225127
 11
119.0580725531
 21
68.1100346907
  0
LINE
  8
0
 62
7
  6
CONTINUOUS
 10
177.9887853612
 20
68.1100346907
 11
177.9885809098
 21
68.110032538
  0
LINE
  8
0
 62
7
  6
CONTINUOUS
 10
177.9885820817
 20
68.110032538
 11
159.5662092436
 21
68.110032538
  0
LINE
  8
0
 62
7
  6
CONTINUOUS
 10
159.5585666909
 20
68.110032538
 11
25.557513363
 21
68.110032538
  0
LINE
  8
0
 62
7
  6
CONTINUOUS
 10
25.5573100835
 20
68.1100346907
 11
25.5575145349
 21
68.110032538
  0
LINE
  8
0
 62
7
  6
CONTINUOUS
 10
31.2950448338
 20
68.110032538
 11
31.2882961176
 21
68.1101802754
  0
LINE
  8
SURFACE
 62
7
  6
CONTINUOUS
 10
43.9799009505
 20
76.4101221765
 11
43.9359337425
 21
76.4136105076
  0
POLYLINE
  8
0
 62
7
  6
CONTINUOUS
 66
1
 70
0
  0
VERTEX
  8
0
 62
7
  6
CONTINUOUS
 10
108.2886955826
 20
68.110032538
  0
VERTEX
  8
0
 62
7
  6
CONTINUOUS
 10
108.2223339377
 20
68.1163552153
  0
VERTEX
  8
0
 62
7
  6
CONTINUOUS
 10
108.1596768589
 20
68.134535722
  0
VERTEX
  8
0
 62
7
  6
CONTINUOUS
 10
108.1006862201
 20
68.1641174487
  0
VERTEX
  8
0
 62
7
  6
CONTINUOUS
 10
108.0472334306
 20
68.2042408658
  0
VERTEX
  8
0
 62
7
  6
CONTINUOUS
 10
108.0010118767
 20
68.2536773893
  0
VERTEX
  8
0
 62
7
  6
CONTINUOUS
 10
107.963468818
 20
68.3108753714
  0
VERTEX
  8
0
 62
7
  6
CONTINUOUS
 10
107.9357457346
 20
68.3740205839
  0
VERTEX
  8
0
 62
7
  6
CONTINUOUS
 10
107.9186136261
 20
68.4411071816
  0
VERTEX
  8
0
 62
7
  6
CONTINUOUS
 10
107.9127439106
 20
68.510032538
  0
SEQEND
  0
POLYLINE
  8
0
 62
7
  6
CONTINUOUS
 66
1
 70
0
  0
VERTEX
  8
0
 62
7
  6
CONTINUOUS
 10
71.9596536975
 20
77.6099428994
  0
VERTEX
  8
0
 62
7
  6
CONTINUOUS
 10
72.0032274509
 20
77.5983231567
  0
VERTEX
  8
0
 62
7
  6
CONTINUOUS
 10
72.0447032002
 20
77.5677505735
  0
SEQEND
  0
POLYLINE
  8
SURFACE
 62
7
  6
CONTINUOUS
 66
1
 70
0
  0
VERTEX
  8
SURFACE
 62
7
  6
CONTINUOUS
 10
84.400684563
 20
76.4217419212
  0
VERTEX
  8
SURFACE
 62
7
  6
CONTINUOUS
 10
84.3249280724
 20
76.4523145061
  0
VERTEX
  8
SURFACE
 62
7
  6
CONTINUOUS
 10
84.2570378495
 20
76.5003466711
  0
VERTEX
  8
SURFACE
 62
7
  6
CONTINUOUS
 10
84.2003277719
 20
76.5634929942
  0
VERTEX
  8
SURFACE
 62
7
  6
CONTINUOUS
 10
84.1575667215
 20
76.6386706041
  0
VERTEX
  8
SURFACE
 62
7
  6
CONTINUOUS
 10
84.1308490087
 20
76.7222101343
  0
VERTEX
  8
SURFACE
 62
7
  6
CONTINUOUS
 10
84.1214198311
 20
76.810032538
  0
SEQEND
  0
LINE
  8
DEFAULT_1
 62
2
  6
CENTER
 10
101.7730477223
 20
53.860032538
 11
101.7730477223
 21
100.160032538
  0
POLYLINE
  8
0
 62
7
  6
CONTINUOUS
 66
1
 70
0
  0
VERTEX
  8
0
 62
7
  6
CONTINUOUS
 10
71.9596536954
 20
68.1101221765
  0
VERTEX
  8
0
 62
7
  6
CONTINUOUS
 10
72.0032274525
 20
68.1217419191
  0
VERTEX
  8
0
 62
7
  6
CONTINUOUS
 10
72.0447032059
 20
68.1523145022
  0
SEQEND
  0
LINE
  8
SURFACE
 62
7
  6
CONTINUOUS
 10
141.3518855981
 20
76.4131381119
 11
141.3039571303
 21
76.410032538
  0
POLYLINE
  8
0
 62
7
  6
CONTINUOUS
 66
1
 70
0
  0
VERTEX
  8
0
 62
7
  6
CONTINUOUS
 10
97.7020346705
 20
76.410032538
  0
VERTEX
  8
0
 62
7
  6
CONTINUOUS
 10
97.8843918972
 20
76.4216703463
  0
VERTEX
  8
0
 62
7
  6
CONTINUOUS
 10
98.0828036534
 20
76.4567560344
  0
VERTEX
  8
0
 62
7
  6
CONTINUOUS
 10
98.2961919563
 20
76.5149816107
  0
VERTEX
  8
0
 62
7
  6
CONTINUOUS
 10
98.5241664347
 20
76.5950972163
  0
VERTEX
  8
0
 62
7
  6
CONTINUOUS
 10
98.7675748008
 20
76.6947503512
  0
VERTEX
  8
0
 62
7
  6
CONTINUOUS
 10
99.0286845867
 20
76.8100325379
  0
SEQEND
  0
LINE
  8
SURFACE
 62
7
  6
CONTINUOUS
 10
173.3679701152
 20
76.4589779544
 11
173.4169052081
 21
76.4616628862
  0
LINE
  8
SURFACE
 62
7
  6
CONTINUOUS
 10
173.3057539361
 20
76.4559571682
 11
173.3679701152
 21
76.4589779544
  0
LINE
  8
SURFACE
 62
7
  6
CONTINUOUS
 10
172.2574545654
 20
76.4101801393
 11
173.3057539361
 21
76.4559571682
  0
LINE
  8
SURFACE
 62
7
  6
CONTINUOUS
 10
172.2577993274
 20
76.4101802755
 11
172.2510506108
 21
76.410032538
  0
LINE
  8
SURFACE
 62
7
  6
CONTINUOUS
 10
25.5575121303
 20
76.410032538
 11
28.8307798232
 21
76.410032538
  0
LINE
  8
0
 62
7
  6
CONTINUOUS
 10
42.6307435106
 20
76.410032538
 11
43.9798862016
 21
76.410032538
  0
LINE
  8
SURFACE
 62
7
  6
CONTINUOUS
 10
43.9875262323
 20
76.410032538
 11
55.5747609628
 21
76.410032538
  0
LINE
  8
0
 62
7
  6
CONTINUOUS
 10
55.5747609628
 20
76.410032538
 11
57.2327792488
 21
76.410032538
  0
LINE
  8
0
 62
7
  6
CONTINUOUS
 10
79.6529258883
 20
76.410032538
 11
83.6898197607
 21
76.410032538
  0
LINE
  8
SURFACE
 62
7
  6
CONTINUOUS
 10
83.6898197607
 20
76.410032538
 11
96.6959033716
 21
76.410032538
  0
LINE
  8
0
 62
7
  6
CONTINUOUS
 10
96.6959033716
 20
76.410032538
 11
97.7020346705
 21
76.410032538
  0
LINE
  8
0
 62
7
  6
CONTINUOUS
 10
125.1242429713
 20
76.410032538
 11
130.1141164862
 21
76.410032538
  0
LINE
  8
SURFACE
 62
7
  6
CONTINUOUS
 10
130.1141164862
 20
76.410032538
 11
141.3039397568
 21
76.410032538
  0
LINE
  8
0
 62
7
  6
CONTINUOUS
 10
163.0740111129
 20
76.410032538
 11
165.7130916758
 21
76.410032538
  0
LINE
  8
SURFACE
 62
7
  6
CONTINUOUS
 10
165.7130916758
 20
76.410032538
 11
172.2510106911
 21
76.410032538
  0
LINE
  8
0
 62
7
  6
CONTINUOUS
 10
177.9885833144
 20
77.610032538
 11
174.7153156215
 21
77.610032538
  0
LINE
  8
0
 62
7
  6
CONTINUOUS
 10
160.9153519341
 20
77.610032538
 11
159.5662092431
 21
77.610032538
  0
LINE
  8
0
 62
7
  6
CONTINUOUS
 10
159.5585692124
 20
77.610032538
 11
146.3133161959
 21
77.610032538
  0
LINE
  8
0
 62
7
  6
CONTINUOUS
 10
31.2950847536
 20
77.610032538
 11
40.4720843318
 21
77.610032538
  0
LINE
  8
0
 62
7
  6
CONTINUOUS
 10
62.2421556879
 20
77.610032538
 11
78.4218524734
 21
77.610032538
  0
LINE
  8
0
 62
7
  6
CONTINUOUS
 10
105.8440607742
 20
77.610032538
 11
123.8931695564
 21
77.610032538
  0
LINE
  8
SURFACE
 62
7
  6
CONTINUOUS
 10
84.4805888049
 20
76.4101225126
 11
84.4896542479
 21
76.410032538
  0
LINE
  8
SURFACE
 62
7
  6
CONTINUOUS
 10
43.9798862016
 20
76.410122408
 11
43.9875331336
 21
76.410032538
  0
LINE
  8
SURFACE
 62
7
  6
CONTINUOUS
 10
131.5864323337
 20
76.410122408
 11
131.5934442284
 21
76.410032538
  0
LINE
  8
0
 62
7
  6
CONTINUOUS
 10
71.959663111
 20
77.6099426679
 11
71.9526512163
 21
77.610032538
  0
LINE
  8
SURFACE
 62
7
  6
CONTINUOUS
 10
25.5542119901
 20
76.4101220794
 11
25.5575145349
 21
76.410032538
  0
LINE
  8
SURFACE
 62
7
  6
CONTINUOUS
 10
25.5542119901
 20
76.4101220794
 11
24.3730204733
 21
76.4540867565
  0
LINE
  8
SURFACE
 62
7
  6
CONTINUOUS
 10
19.5595425467
 20
76.6287711073
 11
24.3730204733
 21
76.4540867565
  0
LINE
  8
SURFACE
 62
7
  6
CONTINUOUS
 10
19.4911349758
 20
76.6317013953
 11
19.5595425467
 21
76.6287711073
  0
POLYLINE
  8
SURFACE
 62
7
  6
CONTINUOUS
 66
1
 70
0
  0
VERTEX
  8
SURFACE
 62
7
  6
CONTINUOUS
 10
42.4520295507
 20
76.5295240705
  0
VERTEX
  8
SURFACE
 62
7
  6
CONTINUOUS
 10
42.8614604349
 20
76.5044998945
  0
VERTEX
  8
SURFACE
 62
7
  6
CONTINUOUS
 10
43.2427094857
 20
76.4783050891
  0
VERTEX
  8
SURFACE
 62
7
  6
CONTINUOUS
 10
43.5512989763
 20
76.4537879411
  0
VERTEX
  8
SURFACE
 62
7
  6
CONTINUOUS
 10
43.7875923719
 20
76.4312934517
  0
VERTEX
  8
SURFACE
 62
7
  6
CONTINUOUS
 10
43.9359337027
 20
76.4136105076
  0
SEQEND
  0
POLYLINE
  8
SURFACE
 62
7
  6
CONTINUOUS
 66
1
 70
0
  0
VERTEX
  8
SURFACE
 62
7
  6
CONTINUOUS
 10
40.9194078325
 20
76.619063604
  0
VERTEX
  8
SURFACE
 62
7
  6
CONTINUOUS
 10
40.9488336192
 20
76.6170624082
  0
VERTEX
  8
SURFACE
 62
7
  6
CONTINUOUS
 10
42.4520227484
 20
76.5295244509
  0
SEQEND
  0
LINE
  8
SURFACE
 62
7
  6
CONTINUOUS
 10
84.4806095091
 20
76.4101221767
 11
84.400684563
 21
76.4217419212
  0
POLYLINE
  8
0
 62
7
  6
CONTINUOUS
 66
1
 70
0
  0
VERTEX
  8
0
 62
7
  6
CONTINUOUS
 10
107.9127439106
 20
77.210032538
  0
VERTEX
  8
0
 62
7
  6
CONTINUOUS
 10
107.9186136258
 20
77.2789578943
  0
VERTEX
  8
0
 62
7
  6
CONTINUOUS
 10
107.9357457345
 20
77.346044492
  0
VERTEX
  8
0
 62
7
  6
CONTINUOUS
 10
107.9634688179
 20
77.4091897046
  0
VERTEX
  8
0
 62
7
  6
CONTINUOUS
 10
108.0010118767
 20
77.4663876866
  0
VERTEX
  8
0
 62
7
  6
CONTINUOUS
 10
108.0472334305
 20
77.5158242101
  0
VERTEX
  8
0
 62
7
  6
CONTINUOUS
 10
108.10068622
 20
77.5559476273
  0
VERTEX
  8
0
 62
7
  6
CONTINUOUS
 10
108.1596768588
 20
77.5855293539
  0
VERTEX
  8
0
 62
7
  6
CONTINUOUS
 10
108.2223339377
 20
77.6037098606
  0
VERTEX
  8
0
 62
7
  6
CONTINUOUS
 10
108.2886955826
 20
77.610032538
  0
SEQEND
  0
POLYLINE
  8
SURFACE
 62
7
  6
CONTINUOUS
 66
1
 70
0
  0
VERTEX
  8
SURFACE
 62
7
  6
CONTINUOUS
 10
130.1141361328
 20
85.910032538
  0
VERTEX
  8
SURFACE
 62
7
  6
CONTINUOUS
 10
130.1009488008
 20
85.9024733766
  0
VERTEX
  8
SURFACE
 62
7
  6
CONTINUOUS
 10
130.0881783201
 20
85.880021125
  0
VERTEX
  8
SURFACE
 62
7
  6
CONTINUOUS
 10
130.0763189849
 20
85.8434264318
  0
VERTEX
  8
SURFACE
 62
7
  6
CONTINUOUS
 10
130.0658434434
 20
85.7939797045
  0
VERTEX
  8
SURFACE
 62
7
  6
CONTINUOUS
 10
130.0571824101
 20
85.7334825785
  0
VERTEX
  8
SURFACE
 62
7
  6
CONTINUOUS
 10
130.0507032412
 20
85.6641928355
  0
VERTEX
  8
SURFACE
 62
7
  6
CONTINUOUS
 10
130.0466903057
 20
85.5887433513
  0
VERTEX
  8
SURFACE
 62
7
  6
CONTINUOUS
 10
130.04532922
 20
85.510032538
  0
SEQEND
  0
POLYLINE
  8
0
 62
7
  6
CONTINUOUS
 66
1
 70
0
  0
VERTEX
  8
0
 62
7
  6
CONTINUOUS
 10
104.517410858
 20
77.210032538
  0
VERTEX
  8
0
 62
7
  6
CONTINUOUS
 10
104.777668811
 20
77.324948286
  0
VERTEX
  8
0
 62
7
  6
CONTINUOUS
 10
105.0203779629
 20
77.4243721123
  0
VERTEX
  8
0
 62
7
  6
CONTINUOUS
 10
105.2481271496
 20
77.5045237013
  0
VERTEX
  8
0
 62
7
  6
CONTINUOUS
 10
105.462301227
 20
77.5630839139
  0
VERTEX
  8
0
 62
7
  6
CONTINUOUS
 10
105.6621919189
 20
77.5984544761
  0
VERTEX
  8
0
 62
7
  6
CONTINUOUS
 10
105.8440607742
 20
77.610032538
  0
SEQEND
  0
POLYLINE
  8
SURFACE
 62
7
  6
CONTINUOUS
 66
1
 70
0
  0
VERTEX
  8
SURFACE
 62
7
  6
CONTINUOUS
 10
131.5864417493
 20
85.9099428994
  0
VERTEX
  8
SURFACE
 62
7
  6
CONTINUOUS
 10
131.5428679922
 20
85.8983231568
  0
VERTEX
  8
SURFACE
 62
7
  6
CONTINUOUS
 10
131.5013922388
 20
85.8677505737
  0
SEQEND
  0
LINE
  8
0
 62
7
  6
CONTINUOUS
 10
61.9656769665
 20
77.5759278089
 11
61.8680619779
 21
77.561758284
  0
LINE
  8
0
 62
7
  6
CONTINUOUS
 10
62.0870409942
 20
77.5927330103
 11
61.9656769665
 21
77.5759278089
  0
LINE
  8
0
 62
7
  6
CONTINUOUS
 10
62.1942390469
 20
77.6069270832
 11
62.0870409942
 21
77.5927330103
  0
POLYLINE
  8
0
 62
7
  6
CONTINUOUS
 66
1
 70
0
  0
VERTEX
  8
0
 62
7
  6
CONTINUOUS
 10
57.2327792488
 20
76.410032538
  0
VERTEX
  8
0
 62
7
  6
CONTINUOUS
 10
57.3803093442
 20
76.4216703463
  0
VERTEX
  8
0
 62
7
  6
CONTINUOUS
 10
57.5408278268
 20
76.4567560344
  0
VERTEX
  8
0
 62
7
  6
CONTINUOUS
 10
57.7134625903
 20
76.5149816107
  0
VERTEX
  8
0
 62
7
  6
CONTINUOUS
 10
57.8978978176
 20
76.5950972163
  0
VERTEX
  8
0
 62
7
  6
CONTINUOUS
 10
58.0948193224
 20
76.6947503512
  0
VERTEX
  8
0
 62
7
  6
CONTINUOUS
 10
58.3060615765
 20
76.8100325379
  0
SEQEND
  0
LINE
  8
0
 62
7
  6
CONTINUOUS
 10
62.1942098465
 20
77.606926964
 11
62.2421383144
 21
77.610032538
  0
POLYLINE
  8
0
 62
7
  6
CONTINUOUS
 66
1
 70
0
  0
VERTEX
  8
0
 62
7
  6
CONTINUOUS
 10
30.1291902366
 20
77.5584021898
  0
VERTEX
  8
0
 62
7
  6
CONTINUOUS
 10
30.1092635296
 20
77.5571720908
  0
VERTEX
  8
0
 62
7
  6
CONTINUOUS
 10
30.0919146131
 20
77.5559917243
  0
VERTEX
  8
0
 62
7
  6
CONTINUOUS
 10
30.0765251542
 20
77.5548124446
  0
VERTEX
  8
0
 62
7
  6
CONTINUOUS
 10
30.0620360552
 20
77.5535221385
  0
VERTEX
  8
0
 62
7
  6
CONTINUOUS
 10
30.047031247
 20
77.5519006072
  0
SEQEND
  0
LINE
  8
0
 62
7
  6
CONTINUOUS
 10
30.1781253295
 20
77.5610871215
 11
30.1291902366
 21
77.5584021898
  0
LINE
  8
0
 62
7
  6
CONTINUOUS
 10
30.2403415086
 20
77.5641079077
 11
30.1781253295
 21
77.5610871215
  0
LINE
  8
0
 62
7
  6
CONTINUOUS
 10
31.2886408793
 20
77.6098849366
 11
30.2403415086
 21
77.5641079077
  0
LINE
  8
0
 62
7
  6
CONTINUOUS
 10
31.2882961173
 20
77.6098848005
 11
31.2950448338
 21
77.610032538
  0
LINE
  8
0
 62
7
  6
CONTINUOUS
 10
119.0655066398
 20
77.6099425633
 11
119.0564411968
 21
77.610032538
  0
LINE
  8
0
 62
7
  6
CONTINUOUS
 10
159.5662092431
 20
77.6099426679
 11
159.558562311
 21
77.610032538
  0
LINE
  8
0
 62
7
  6
CONTINUOUS
 10
177.9918834546
 20
77.6099429965
 11
177.9885809098
 21
77.610032538
  0
LINE
  8
0
 62
7
  6
CONTINUOUS
 10
177.9918834546
 20
77.6099429965
 11
183.7164722039
 21
77.4016449888
  0
LINE
  8
0
 62
7
  6
CONTINUOUS
 10
183.986552898
 20
77.3912939686
 11
183.7164722039
 21
77.4016449888
  0
LINE
  8
0
 62
7
  6
CONTINUOUS
 10
184.0549604689
 20
77.3883636806
 11
183.986552898
 21
77.3912939686
  0
LINE
  8
0
 62
7
  6
CONTINUOUS
 10
184.0805830565
 20
77.3871324892
 11
184.0549604689
 21
77.3883636806
  0
POLYLINE
  8
0
 62
7
  6
CONTINUOUS
 66
1
 70
0
  0
VERTEX
  8
0
 62
7
  6
CONTINUOUS
 10
162.5635659889
 20
77.4050624396
  0
VERTEX
  8
0
 62
7
  6
CONTINUOUS
 10
160.6846350098
 20
77.5155651815
  0
VERTEX
  8
0
 62
7
  6
CONTINUOUS
 10
160.303385959
 20
77.5417599869
  0
VERTEX
  8
0
 62
7
  6
CONTINUOUS
 10
159.9947964684
 20
77.5662771349
  0
VERTEX
  8
0
 62
7
  6
CONTINUOUS
 10
159.7585030728
 20
77.5887716242
  0
VERTEX
  8
0
 62
7
  6
CONTINUOUS
 10
159.610161742
 20
77.6064545683
  0
SEQEND
  0
POLYLINE
  8
0
 62
7
  6
CONTINUOUS
 66
1
 70
0
  0
VERTEX
  8
0
 62
7
  6
CONTINUOUS
 10
162.6266876121
 20
77.4010014719
  0
VERTEX
  8
0
 62
7
  6
CONTINUOUS
 10
162.5972618255
 20
77.4030026677
  0
VERTEX
  8
0
 62
7
  6
CONTINUOUS
 10
162.5637533924
 20
77.4050513776
  0
SEQEND
  0
LINE
  8
0
 62
7
  6
CONTINUOUS
 10
159.5661944942
 20
77.6099428994
 11
159.6101617022
 21
77.6064545683
  0
LINE
  8
0
 62
7
  6
CONTINUOUS
 10
119.0654859356
 20
77.6099428992
 11
119.1454108817
 21
77.5983231547
  0
POLYLINE
  8
0
 62
7
  6
CONTINUOUS
 66
1
 70
0
  0
VERTEX
  8
0
 62
7
  6
CONTINUOUS
 10
61.8680313894
 20
77.5617532725
  0
VERTEX
  8
0
 62
7
  6
CONTINUOUS
 10
61.8477203755
 20
77.558369593
  0
VERTEX
  8
0
 62
7
  6
CONTINUOUS
 10
61.8200862248
 20
77.5523897197
  0
VERTEX
  8
0
 62
7
  6
CONTINUOUS
 10
61.7878353616
 20
77.5430380849
  0
VERTEX
  8
0
 62
7
  6
CONTINUOUS
 10
61.7522720017
 20
77.5293469141
  0
VERTEX
  8
0
 62
7
  6
CONTINUOUS
 10
61.7150375349
 20
77.5106719986
  0
VERTEX
  8
0
 62
7
  6
CONTINUOUS
 10
61.6776010544
 20
77.4866081717
  0
VERTEX
  8
0
 62
7
  6
CONTINUOUS
 10
61.6412282187
 20
77.456902002
  0
VERTEX
  8
0
 62
7
  6
CONTINUOUS
 10
61.6073632814
 20
77.4217475706
  0
VERTEX
  8
0
 62
7
  6
CONTINUOUS
 10
61.5772970233
 20
77.3816486965
  0
VERTEX
  8
0
 62
7
  6
CONTINUOUS
 10
61.5519504686
 20
77.3370525452
  0
VERTEX
  8
0
 62
7
  6
CONTINUOUS
 10
61.5322179011
 20
77.2887195066
  0
VERTEX
  8
0
 62
7
  6
CONTINUOUS
 10
61.5188146348
 20
77.2375966523
  0
VERTEX
  8
0
 62
7
  6
CONTINUOUS
 10
61.5122363351
 20
77.1847760638
  0
VERTEX
  8
0
 62
7
  6
CONTINUOUS
 10
61.5115764514
 20
77.1617935119
  0
SEQEND
  0
POLYLINE
  8
0
 62
7
  6
CONTINUOUS
 66
1
 70
0
  0
VERTEX
  8
0
 62
7
  6
CONTINUOUS
 10
30.0341534131
 20
77.5501905259
  0
VERTEX
  8
0
 62
7
  6
CONTINUOUS
 10
29.6982570664
 20
77.4969339756
  0
VERTEX
  8
0
 62
7
  6
CONTINUOUS
 10
29.3910176881
 20
77.4384174465
  0
SEQEND
  0
LINE
  8
SURFACE
 62
7
  6
CONTINUOUS
 10
84.4806095112
 20
85.9099428992
 11
84.4006845623
 21
85.8983231549
  0
POLYLINE
  8
SURFACE
 62
7
  6
CONTINUOUS
 66
1
 70
0
  0
VERTEX
  8
SURFACE
 62
7
  6
CONTINUOUS
 10
83.6898342561
 20
85.910032538
  0
VERTEX
  8
SURFACE
 62
7
  6
CONTINUOUS
 10
83.6336730731
 20
85.9024733766
  0
VERTEX
  8
SURFACE
 62
7
  6
CONTINUOUS
 10
83.5794819912
 20
85.880021125
  0
VERTEX
  8
SURFACE
 62
7
  6
CONTINUOUS
 10
83.5293290113
 20
85.8434264318
  0
VERTEX
  8
SURFACE
 62
7
  6
CONTINUOUS
 10
83.4851656013
 20
85.7939797045
  0
VERTEX
  8
SURFACE
 62
7
  6
CONTINUOUS
 10
83.4487493238
 20
85.7334825785
  0
VERTEX
  8
SURFACE
 62
7
  6
CONTINUOUS
 10
83.4215645973
 20
85.6641928355
  0
VERTEX
  8
SURFACE
 62
7
  6
CONTINUOUS
 10
83.4047522236
 20
85.5887433513
  0
VERTEX
  8
SURFACE
 62
7
  6
CONTINUOUS
 10
83.3990541934
 20
85.510032538
  0
SEQEND
  0
LINE
  8
0
 62
7
  6
CONTINUOUS
 10
30.047031247
 20
77.5519006072
 11
30.0341639206
 21
77.5501916334
  0
LINE
  8
SURFACE
 62
7
  6
CONTINUOUS
 10
19.7746902527
 20
85.6996144274
 11
19.5347379479
 21
85.6902646646
  0
LINE
  8
SURFACE
 62
7
  6
CONTINUOUS
 10
19.9356592157
 20
85.7054946365
 11
22.3132909605
 21
85.7909710675
  0
LINE
  8
SURFACE
 62
7
  6
CONTINUOUS
 10
19.9351520908
 20
85.7054797702
 11
19.7746902527
 21
85.6996144274
  0
LINE
  8
SURFACE
 62
7
  6
CONTINUOUS
 10
22.3132909605
 20
85.7909710675
 11
25.5542119894
 21
85.9099429965
  0
LINE
  8
SURFACE
 62
7
  6
CONTINUOUS
 10
25.5542119894
 20
85.9099429965
 11
25.5573100835
 21
85.9100303852
  0
LINE
  8
SURFACE
 62
7
  6
CONTINUOUS
 10
131.5864323353
 20
85.9099426679
 11
131.5919392335
 21
85.9100303852
  0
LINE
  8
SURFACE
 62
7
  6
CONTINUOUS
 10
84.4805888059
 20
85.9099425632
 11
84.4880228916
 21
85.9100303852
  0
LINE
  8
SURFACE
 62
7
  6
CONTINUOUS
 10
43.9798862011
 20
85.9099426679
 11
43.9875331336
 21
85.910032538
  0
LINE
  8
SURFACE
 62
7
  6
CONTINUOUS
 10
25.5573100835
 20
85.9100303852
 11
25.5575145349
 21
85.910032538
  0
LINE
  8
SURFACE
 62
7
  6
CONTINUOUS
 10
25.557513363
 20
85.910032538
 11
43.9798862011
 21
85.910032538
  0
LINE
  8
SURFACE
 62
7
  6
CONTINUOUS
 10
43.9875287538
 20
85.910032538
 11
177.9879322658
 21
85.910032538
  0
LINE
  8
SURFACE
 62
7
  6
CONTINUOUS
 10
177.9887853612
 20
85.9100303852
 11
177.9885809098
 21
85.910032538
  0
LINE
  8
SURFACE
 62
7
  6
CONTINUOUS
 10
172.2510506108
 20
85.910032538
 11
172.2577993271
 21
85.9098848005
  0
LINE
  8
SURFACE
 62
7
  6
CONTINUOUS
 10
177.9918834553
 20
85.9099429965
 11
177.9887853612
 21
85.9100303852
  0
LINE
  8
SURFACE
 62
7
  6
CONTINUOUS
 10
179.1730749694
 20
85.8659783195
 11
177.9918834553
 21
85.9099429965
  0
LINE
  8
SURFACE
 62
7
  6
CONTINUOUS
 10
183.9698265301
 20
85.6919745918
 11
179.1730749694
 21
85.8659783195
  0
LINE
  8
SURFACE
 62
7
  6
CONTINUOUS
 10
184.0199864826
 20
85.6898995715
 11
183.9698265301
 21
85.6919745918
  0
LINE
  8
SURFACE
 62
7
  6
CONTINUOUS
 10
173.3199916667
 20
85.8634440621
 11
172.2574545651
 21
85.9098849366
  0
LINE
  8
SURFACE
 62
7
  6
CONTINUOUS
 10
141.3039571303
 20
85.910032538
 11
141.3518854956
 21
85.9069269773
  0
POLYLINE
  8
SURFACE
 62
7
  6
CONTINUOUS
 66
1
 70
0
  0
VERTEX
  8
SURFACE
 62
7
  6
CONTINUOUS
 10
95.2573998621
 20
85.910032538
  0
VERTEX
  8
SURFACE
 62
7
  6
CONTINUOUS
 10
95.323761507
 20
85.9037098606
  0
VERTEX
  8
SURFACE
 62
7
  6
CONTINUOUS
 10
95.3864185858
 20
85.8855293539
  0
VERTEX
  8
SURFACE
 62
7
  6
CONTINUOUS
 10
95.4454092246
 20
85.8559476273
  0
VERTEX
  8
SURFACE
 62
7
  6
CONTINUOUS
 10
95.4988620141
 20
85.8158242101
  0
VERTEX
  8
SURFACE
 62
7
  6
CONTINUOUS
 10
95.545083568
 20
85.7663876866
  0
VERTEX
  8
SURFACE
 62
7
  6
CONTINUOUS
 10
95.5826266267
 20
85.7091897046
  0
VERTEX
  8
SURFACE
 62
7
  6
CONTINUOUS
 10
95.61034971
 20
85.646044492
  0
VERTEX
  8
SURFACE
 62
7
  6
CONTINUOUS
 10
95.6274818185
 20
85.5789578943
  0
VERTEX
  8
SURFACE
 62
7
  6
CONTINUOUS
 10
95.6333515341
 20
85.510032538
  0
SEQEND
  0
POLYLINE
  8
SURFACE
 62
7
  6
CONTINUOUS
 66
1
 70
0
  0
VERTEX
  8
SURFACE
 62
7
  6
CONTINUOUS
 10
131.5864417472
 20
76.4101221765
  0
VERTEX
  8
SURFACE
 62
7
  6
CONTINUOUS
 10
131.5428679938
 20
76.4217419192
  0
VERTEX
  8
SURFACE
 62
7
  6
CONTINUOUS
 10
131.5013922444
 20
76.4523145025
  0
SEQEND
  0
POLYLINE
  8
0
 62
7
  6
CONTINUOUS
 66
1
 70
0
  0
VERTEX
  8
0
 62
7
  6
CONTINUOUS
 10
119.1454108817
 20
77.5983231547
  0
VERTEX
  8
0
 62
7
  6
CONTINUOUS
 10
119.2211673723
 20
77.5677505698
  0
VERTEX
  8
0
 62
7
  6
CONTINUOUS
 10
119.2890575952
 20
77.5197184048
  0
VERTEX
  8
0
 62
7
  6
CONTINUOUS
 10
119.3457676728
 20
77.4565720817
  0
VERTEX
  8
0
 62
7
  6
CONTINUOUS
 10
119.3885287232
 20
77.3813944719
  0
VERTEX
  8
0
 62
7
  6
CONTINUOUS
 10
119.415246436
 20
77.2978549416
  0
VERTEX
  8
0
 62
7
  6
CONTINUOUS
 10
119.4246756136
 20
77.210032538
  0
SEQEND
  0
LINE
  8
0
 62
7
  6
CONTINUOUS
 10
118.6730477223
 20
77.0912147367
 11
118.6730477223
 21
68.6288503392
  0
POLYLINE
  8
0
 62
7
  6
CONTINUOUS
 66
1
 70
0
  0
VERTEX
  8
0
 62
7
  6
CONTINUOUS
 10
119.1454108824
 20
68.121741921
  0
VERTEX
  8
0
 62
7
  6
CONTINUOUS
 10
119.2211673761
 20
68.1523145058
  0
VERTEX
  8
0
 62
7
  6
CONTINUOUS
 10
119.2890576028
 20
68.2003466706
  0
VERTEX
  8
0
 62
7
  6
CONTINUOUS
 10
119.3457676859
 20
68.2634929936
  0
VERTEX
  8
0
 62
7
  6
CONTINUOUS
 10
119.388528746
 20
68.3386706031
  0
VERTEX
  8
0
 62
7
  6
CONTINUOUS
 10
119.415246486
 20
68.4222101325
  0
VERTEX
  8
0
 62
7
  6
CONTINUOUS
 10
119.4246756133
 20
68.510032538
  0
SEQEND
  0
LINE
  8
0
 62
7
  6
CONTINUOUS
 10
29.3910176881
 20
77.4384174465
 11
29.1291154804
 21
77.376436576
  0
POLYLINE
  8
SURFACE
 62
7
  6
CONTINUOUS
 66
1
 70
0
  0
VERTEX
  8
SURFACE
 62
7
  6
CONTINUOUS
 10
43.9359506035
 20
85.9064568931
  0
VERTEX
  8
SURFACE
 62
7
  6
CONTINUOUS
 10
43.7856978989
 20
85.8885701143
  0
VERTEX
  8
SURFACE
 62
7
  6
CONTINUOUS
 10
43.5487183377
 20
85.8660539667
  0
VERTEX
  8
SURFACE
 62
7
  6
CONTINUOUS
 10
43.2395126623
 20
85.8415246564
  0
VERTEX
  8
SURFACE
 62
7
  6
CONTINUOUS
 10
42.8577533171
 20
85.8153261759
  0
SEQEND
  0
POLYLINE
  8
SURFACE
 62
7
  6
CONTINUOUS
 66
1
 70
0
  0
VERTEX
  8
SURFACE
 62
7
  6
CONTINUOUS
 10
40.8983864798
 20
85.6994079685
  0
VERTEX
  8
SURFACE
 62
7
  6
CONTINUOUS
 10
40.8762975351
 20
85.697520204
  0
VERTEX
  8
SURFACE
 62
7
  6
CONTINUOUS
 10
40.85627624
 20
85.6955310075
  0
VERTEX
  8
SURFACE
 62
7
  6
CONTINUOUS
 10
40.8371732536
 20
85.6932629854
  0
VERTEX
  8
SURFACE
 62
7
  6
CONTINUOUS
 10
40.8169623711
 20
85.6902927216
  0
VERTEX
  8
SURFACE
 62
7
  6
CONTINUOUS
 10
40.7929763255
 20
85.685747218
  0
VERTEX
  8
SURFACE
 62
7
  6
CONTINUOUS
 10
40.762311291
 20
85.6779692461
  0
VERTEX
  8
SURFACE
 62
7
  6
CONTINUOUS
 10
40.7248314088
 20
85.665020384
  0
VERTEX
  8
SURFACE
 62
7
  6
CONTINUOUS
 10
40.6834368419
 20
85.6456905081
  0
VERTEX
  8
SURFACE
 62
7
  6
CONTINUOUS
 10
40.6414546865
 20
85.6196918104
  0
VERTEX
  8
SURFACE
 62
7
  6
CONTINUOUS
 10
40.6008896079
 20
85.5868344213
  0
VERTEX
  8
SURFACE
 62
7
  6
CONTINUOUS
 10
40.5633641713
 20
85.5470974923
  0
VERTEX
  8
SURFACE
 62
7
  6
CONTINUOUS
 10
40.5304953665
 20
85.500835484
  0
VERTEX
  8
SURFACE
 62
7
  6
CONTINUOUS
 10
40.5037632659
 20
85.4486825288
  0
VERTEX
  8
SURFACE
 62
7
  6
CONTINUOUS
 10
40.4845229455
 20
85.3916132735
  0
VERTEX
  8
SURFACE
 62
7
  6
CONTINUOUS
 10
40.4739234088
 20
85.3309191863
  0
VERTEX
  8
SURFACE
 62
7
  6
CONTINUOUS
 10
40.4720843514
 20
85.2925878837
  0
SEQEND
  0
LINE
  8
SURFACE
 62
7
  6
CONTINUOUS
 10
43.9799009506
 20
85.9099428994
 11
43.9359506433
 21
85.9064568931
  0
POLYLINE
  8
SURFACE
 62
7
  6
CONTINUOUS
 66
1
 70
0
  0
VERTEX
  8
SURFACE
 62
7
  6
CONTINUOUS
 10
40.95098482
 20
85.7031406784
  0
VERTEX
  8
SURFACE
 62
7
  6
CONTINUOUS
 10
40.9231020497
 20
85.7012657282
  0
VERTEX
  8
SURFACE
 62
7
  6
CONTINUOUS
 10
40.8983864798
 20
85.6994079685
  0
SEQEND
  0
LINE
  8
SURFACE
 62
7
  6
CONTINUOUS
 10
42.8577533171
 20
85.8153261759
 11
40.9954518387
 21
85.7058144425
  0
LINE
  8
SURFACE
 62
7
  6
CONTINUOUS
 10
40.9954518387
 20
85.7058144425
 11
40.95098482
 21
85.7031406784
  0
POLYLINE
  8
SURFACE
 62
7
  6
CONTINUOUS
 66
1
 70
0
  0
VERTEX
  8
SURFACE
 62
7
  6
CONTINUOUS
 10
19.4566817636
 20
85.6866613932
  0
VERTEX
  8
SURFACE
 62
7
  6
CONTINUOUS
 10
19.4497342662
 20
85.6862568841
  0
VERTEX
  8
SURFACE
 62
7
  6
CONTINUOUS
 10
19.4427804231
 20
85.6858034323
  0
VERTEX
  8
SURFACE
 62
7
  6
CONTINUOUS
 10
19.4343965549
 20
85.6851581496
  0
VERTEX
  8
SURFACE
 62
7
  6
CONTINUOUS
 10
19.4221696031
 20
85.6839564459
  0
VERTEX
  8
SURFACE
 62
7
  6
CONTINUOUS
 10
19.4052968444
 20
85.6817105938
  0
VERTEX
  8
SURFACE
 62
7
  6
CONTINUOUS
 10
19.3856173786
 20
85.678176226
  0
VERTEX
  8
SURFACE
 62
7
  6
CONTINUOUS
 10
19.3646767006
 20
85.6732903136
  0
VERTEX
  8
SURFACE
 62
7
  6
CONTINUOUS
 10
19.3426617675
 20
85.6668497224
  0
VERTEX
  8
SURFACE
 62
7
  6
CONTINUOUS
 10
19.3199136465
 20
85.658715652
  0
VERTEX
  8
SURFACE
 62
7
  6
CONTINUOUS
 10
19.2967352461
 20
85.648776775
  0
VERTEX
  8
SURFACE
 62
7
  6
CONTINUOUS
 10
19.2734742555
 20
85.6369848113
  0
VERTEX
  8
SURFACE
 62
7
  6
CONTINUOUS
 10
19.2505030837
 20
85.6233660494
  0
VERTEX
  8
SURFACE
 62
7
  6
CONTINUOUS
 10
19.2280985771
 20
85.6079551175
  0
VERTEX
  8
SURFACE
 62
7
  6
CONTINUOUS
 10
19.2063660617
 20
85.5906946263
  0
VERTEX
  8
SURFACE
 62
7
  6
CONTINUOUS
 10
19.1854261339
 20
85.5715209188
  0
VERTEX
  8
SURFACE
 62
7
  6
CONTINUOUS
 10
19.1654237479
 20
85.5503707012
  0
VERTEX
  8
SURFACE
 62
7
  6
CONTINUOUS
 10
19.1465310414
 20
85.5271851181
  0
VERTEX
  8
SURFACE
 62
7
  6
CONTINUOUS
 10
19.1289568387
 20
85.5019256254
  0
VERTEX
  8
SURFACE
 62
7
  6
CONTINUOUS
 10
19.1129560992
 20
85.4746047474
  0
VERTEX
  8
SURFACE
 62
7
  6
CONTINUOUS
 10
19.09880355
 20
85.4452693169
  0
VERTEX
  8
SURFACE
 62
7
  6
CONTINUOUS
 10
19.0867866954
 20
85.4139992011
  0
VERTEX
  8
SURFACE
 62
7
  6
CONTINUOUS
 10
19.0772027962
 20
85.3809114629
  0
VERTEX
  8
SURFACE
 62
7
  6
CONTINUOUS
 10
19.0703550122
 20
85.3461644621
  0
VERTEX
  8
SURFACE
 62
7
  6
CONTINUOUS
 10
19.066547648
 20
85.3099617566
  0
VERTEX
  8
SURFACE
 62
7
  6
CONTINUOUS
 10
19.0658453476
 20
85.2862685311
  0
SEQEND
  0
LINE
  8
SURFACE
 62
7
  6
CONTINUOUS
 10
19.4728009637
 20
85.6874982469
 11
19.4566817636
 21
85.6866613932
  0
LINE
  8
SURFACE
 62
7
  6
CONTINUOUS
 10
19.5056871658
 20
85.6890160164
 11
19.4728009637
 21
85.6874982469
  0
LINE
  8
SURFACE
 62
7
  6
CONTINUOUS
 10
19.5347379479
 20
85.6902646646
 11
19.5056871658
 21
85.6890160164
  0
LINE
  8
SURFACE
 62
7
  6
CONTINUOUS
 10
184.0653391399
 20
85.6878814826
 11
184.0199864826
 21
85.6898995715
  0
LINE
  8
SURFACE
 62
7
  6
CONTINUOUS
 10
184.0812319505
 20
85.6870990628
 11
184.0653391399
 21
85.6878814826
  0
LINE
  8
SURFACE
 62
7
  6
CONTINUOUS
 10
173.3717855667
 20
85.8608900181
 11
173.3199916667
 21
85.8634440621
  0
POLYLINE
  8
SURFACE
 62
7
  6
CONTINUOUS
 66
1
 70
0
  0
VERTEX
  8
SURFACE
 62
7
  6
CONTINUOUS
 10
173.4323950882
 20
85.8574557488
  0
VERTEX
  8
SURFACE
 62
7
  6
CONTINUOUS
 10
173.4143666232
 20
85.8585517018
  0
VERTEX
  8
SURFACE
 62
7
  6
CONTINUOUS
 10
173.3717855667
 20
85.8608900181
  0
SEQEND
  0
POLYLINE
  8
SURFACE
 62
7
  6
CONTINUOUS
 66
1
 70
0
  0
VERTEX
  8
SURFACE
 62
7
  6
CONTINUOUS
 10
176.8891460629
 20
85.910032538
  0
VERTEX
  8
SURFACE
 62
7
  6
CONTINUOUS
 10
176.9586792143
 20
85.9024733766
  0
VERTEX
  8
SURFACE
 62
7
  6
CONTINUOUS
 10
177.025699155
 20
85.880021125
  0
VERTEX
  8
SURFACE
 62
7
  6
CONTINUOUS
 10
177.0876595737
 20
85.8434264318
  0
VERTEX
  8
SURFACE
 62
7
  6
CONTINUOUS
 10
177.1421676899
 20
85.7939797045
  0
VERTEX
  8
SURFACE
 62
7
  6
CONTINUOUS
 10
177.1870766184
 20
85.7334825785
  0
VERTEX
  8
SURFACE
 62
7
  6
CONTINUOUS
 10
177.2205789144
 20
85.6641928355
  0
VERTEX
  8
SURFACE
 62
7
  6
CONTINUOUS
 10
177.2412888404
 20
85.5887433513
  0
VERTEX
  8
SURFACE
 62
7
  6
CONTINUOUS
 10
177.248306164
 20
85.510032538
  0
SEQEND
  0
POLYLINE
  8
SURFACE
 62
7
  6
CONTINUOUS
 66
1
 70
0
  0
VERTEX
  8
SURFACE
 62
7
  6
CONTINUOUS
 10
141.578829589
 20
85.8761533708
  0
VERTEX
  8
SURFACE
 62
7
  6
CONTINUOUS
 10
141.4573844047
 20
85.892958576
  0
VERTEX
  8
SURFACE
 62
7
  6
CONTINUOUS
 10
141.3518562951
 20
85.9069270965
  0
SEQEND
  0
LINE
  8
SURFACE
 62
7
  6
CONTINUOUS
 10
141.6780333134
 20
85.8617583068
 11
141.578829589
 21
85.8761533708
  0
POLYLINE
  8
0
 62
7
  6
CONTINUOUS
 66
1
 70
0
  0
VERTEX
  8
0
 62
7
  6
CONTINUOUS
 10
161.1375549189
 20
77.5760067895
  0
VERTEX
  8
0
 62
7
  6
CONTINUOUS
 10
161.0339562829
 20
77.60064045
  0
VERTEX
  8
0
 62
7
  6
CONTINUOUS
 10
160.9153519341
 20
77.610032538
  0
SEQEND
  0
POLYLINE
  8
0
 62
7
  6
CONTINUOUS
 66
1
 70
0
  0
VERTEX
  8
0
 62
7
  6
CONTINUOUS
 10
124.5736902031
 20
76.810032538
  0
VERTEX
  8
0
 62
7
  6
CONTINUOUS
 10
124.5794158283
 20
76.7524945214
  0
VERTEX
  8
0
 62
7
  6
CONTINUOUS
 10
124.5975109354
 20
76.693645702
  0
VERTEX
  8
0
 62
7
  6
CONTINUOUS
 10
124.6297289061
 20
76.6342089611
  0
VERTEX
  8
0
 62
7
  6
CONTINUOUS
 10
124.6765299347
 20
76.5772423851
  0
VERTEX
  8
0
 62
7
  6
CONTINUOUS
 10
124.7376529472
 20
76.5252348138
  0
VERTEX
  8
0
 62
7
  6
CONTINUOUS
 10
124.8128203423
 20
76.4801755917
  0
VERTEX
  8
0
 62
7
  6
CONTINUOUS
 10
124.9020399865
 20
76.4440582864
  0
VERTEX
  8
0
 62
7
  6
CONTINUOUS
 10
125.0056386225
 20
76.4194246259
  0
VERTEX
  8
0
 62
7
  6
CONTINUOUS
 10
125.1242429713
 20
76.410032538
  0
SEQEND
  0
POLYLINE
  8
0
 62
7
  6
CONTINUOUS
 66
1
 70
0
  0
VERTEX
  8
0
 62
7
  6
CONTINUOUS
 10
120.1470412513
 20
77.210032538
  0
VERTEX
  8
0
 62
7
  6
CONTINUOUS
 10
120.1413432211
 20
77.2887433513
  0
VERTEX
  8
0
 62
7
  6
CONTINUOUS
 10
120.1245308474
 20
77.3641928355
  0
VERTEX
  8
0
 62
7
  6
CONTINUOUS
 10
120.0973461209
 20
77.4334825785
  0
VERTEX
  8
0
 62
7
  6
CONTINUOUS
 10
120.0609298434
 20
77.4939797045
  0
VERTEX
  8
0
 62
7
  6
CONTINUOUS
 10
120.0167664334
 20
77.5434264318
  0
VERTEX
  8
0
 62
7
  6
CONTINUOUS
 10
119.9666134535
 20
77.580021125
  0
VERTEX
  8
0
 62
7
  6
CONTINUOUS
 10
119.9124223716
 20
77.6024733766
  0
VERTEX
  8
0
 62
7
  6
CONTINUOUS
 10
119.8562611886
 20
77.610032538
  0
SEQEND
  0
LINE
  8
0
 62
7
  6
CONTINUOUS
 10
120.1470412513
 20
77.210032538
 11
120.1470412513
 21
68.510032538
  0
LINE
  8
0
 62
7
  6
CONTINUOUS
 10
124.5736902031
 20
77.210032538
 11
124.5736902031
 21
76.810032538
  0
POLYLINE
  8
SURFACE
 62
7
  6
CONTINUOUS
 66
1
 70
0
  0
VERTEX
  8
SURFACE
 62
7
  6
CONTINUOUS
 10
131.5013922388
 20
85.8677505737
  0
VERTEX
  8
SURFACE
 62
7
  6
CONTINUOUS
 10
131.4640395535
 20
85.8197184102
  0
VERTEX
  8
SURFACE
 62
7
  6
CONTINUOUS
 10
131.4326342358
 20
85.7565720888
  0
VERTEX
  8
SURFACE
 62
7
  6
CONTINUOUS
 10
131.4087123839
 20
85.6813944822
  0
VERTEX
  8
SURFACE
 62
7
  6
CONTINUOUS
 10
131.3934583329
 20
85.5978549619
  0
VERTEX
  8
SURFACE
 62
7
  6
CONTINUOUS
 10
131.3874960978
 20
85.510032538
  0
SEQEND
  0
POLYLINE
  8
0
 62
7
  6
CONTINUOUS
 66
1
 70
0
  0
VERTEX
  8
0
 62
7
  6
CONTINUOUS
 10
145.2400338682
 20
77.210032538
  0
VERTEX
  8
0
 62
7
  6
CONTINUOUS
 10
145.4505869751
 20
77.324948286
  0
VERTEX
  8
0
 62
7
  6
CONTINUOUS
 10
145.6469428036
 20
77.4243721123
  0
VERTEX
  8
0
 62
7
  6
CONTINUOUS
 10
145.8311957661
 20
77.5045237013
  0
VERTEX
  8
0
 62
7
  6
CONTINUOUS
 10
146.0044662345
 20
77.5630839139
  0
VERTEX
  8
0
 62
7
  6
CONTINUOUS
 10
146.1661812013
 20
77.5984544761
  0
VERTEX
  8
0
 62
7
  6
CONTINUOUS
 10
146.3133161959
 20
77.610032538
  0
SEQEND
  0
POLYLINE
  8
SURFACE
 62
7
  6
CONTINUOUS
 66
1
 70
0
  0
VERTEX
  8
SURFACE
 62
7
  6
CONTINUOUS
 10
174.4169726835
 20
76.6436274786
  0
VERTEX
  8
SURFACE
 62
7
  6
CONTINUOUS
 10
174.4407886348
 20
76.6507767186
  0
VERTEX
  8
SURFACE
 62
7
  6
CONTINUOUS
 10
174.4734665675
 20
76.6632624566
  0
VERTEX
  8
SURFACE
 62
7
  6
CONTINUOUS
 10
174.5063841604
 20
76.6793093821
  0
VERTEX
  8
SURFACE
 62
7
  6
CONTINUOUS
 10
174.5389690476
 20
76.6991334108
  0
VERTEX
  8
SURFACE
 62
7
  6
CONTINUOUS
 10
174.5706388929
 20
76.7228824757
  0
VERTEX
  8
SURFACE
 62
7
  6
CONTINUOUS
 10
174.600660673
 20
76.7505012174
  0
VERTEX
  8
SURFACE
 62
7
  6
CONTINUOUS
 10
174.6282642058
 20
76.7817147858
  0
VERTEX
  8
SURFACE
 62
7
  6
CONTINUOUS
 10
174.6528546451
 20
76.8162241262
  0
VERTEX
  8
SURFACE
 62
7
  6
CONTINUOUS
 10
174.6740227623
 20
76.853872947
  0
VERTEX
  8
SURFACE
 62
7
  6
CONTINUOUS
 10
174.6912732244
 20
76.8943025828
  0
VERTEX
  8
SURFACE
 62
7
  6
CONTINUOUS
 10
174.7041539261
 20
76.9370721747
  0
VERTEX
  8
SURFACE
 62
7
  6
CONTINUOUS
 10
174.7122701374
 20
76.9816643889
  0
VERTEX
  8
SURFACE
 62
7
  6
CONTINUOUS
 10
174.7153124698
 20
77.0309181868
  0
SEQEND
  0
LINE
  8
SURFACE
 62
7
  6
CONTINUOUS
 10
69.7730477223
 20
98.160032538
 11
133.7730477223
 21
98.160032538
  0
POLYLINE
  8
SURFACE
 62
7
  6
CONTINUOUS
 66
1
 70
0
  0
VERTEX
  8
SURFACE
 62
7
  6
CONTINUOUS
 10
173.511950301
 20
85.8501888912
  0
VERTEX
  8
SURFACE
 62
7
  6
CONTINUOUS
 10
173.502527384
 20
85.8514727361
  0
VERTEX
  8
SURFACE
 62
7
  6
CONTINUOUS
 10
173.4884971092
 20
85.8530780184
  0
VERTEX
  8
SURFACE
 62
7
  6
CONTINUOUS
 10
173.4757443005
 20
85.8542889043
  0
VERTEX
  8
SURFACE
 62
7
  6
CONTINUOUS
 10
173.4626977692
 20
85.8553584103
  0
VERTEX
  8
SURFACE
 62
7
  6
CONTINUOUS
 10
173.4484244983
 20
85.8563976536
  0
VERTEX
  8
SURFACE
 62
7
  6
CONTINUOUS
 10
173.4323950882
 20
85.8574557488
  0
SEQEND
  0
POLYLINE
  8
SURFACE
 62
7
  6
CONTINUOUS
 66
1
 70
0
  0
VERTEX
  8
SURFACE
 62
7
  6
CONTINUOUS
 10
177.9918853876
 20
85.9099429003
  0
VERTEX
  8
SURFACE
 62
7
  6
CONTINUOUS
 10
178.0507026562
 20
85.8983231662
  0
VERTEX
  8
SURFACE
 62
7
  6
CONTINUOUS
 10
178.1061698462
 20
85.8677505905
  0
VERTEX
  8
SURFACE
 62
7
  6
CONTINUOUS
 10
178.1555803631
 20
85.8197184336
  0
VERTEX
  8
SURFACE
 62
7
  6
CONTINUOUS
 10
178.1965239543
 20
85.7565721197
  0
VERTEX
  8
SURFACE
 62
7
  6
CONTINUOUS
 10
178.2270057502
 20
85.6813945268
  0
VERTEX
  8
SURFACE
 62
7
  6
CONTINUOUS
 10
178.2455524765
 20
85.597855049
  0
VERTEX
  8
SURFACE
 62
7
  6
CONTINUOUS
 10
178.2511656512
 20
85.510032538
  0
SEQEND
  0
POLYLINE
  8
SURFACE
 62
7
  6
CONTINUOUS
 66
1
 70
0
  0
VERTEX
  8
SURFACE
 62
7
  6
CONTINUOUS
 10
165.7131055149
 20
85.910032538
  0
VERTEX
  8
SURFACE
 62
7
  6
CONTINUOUS
 10
165.7479291464
 20
85.9024733766
  0
VERTEX
  8
SURFACE
 62
7
  6
CONTINUOUS
 10
165.7814571565
 20
85.880021125
  0
VERTEX
  8
SURFACE
 62
7
  6
CONTINUOUS
 10
165.8124213291
 20
85.8434264318
  0
VERTEX
  8
SURFACE
 62
7
  6
CONTINUOUS
 10
165.8396349569
 20
85.7939797045
  0
VERTEX
  8
SURFACE
 62
7
  6
CONTINUOUS
 10
165.8620373881
 20
85.7334825785
  0
VERTEX
  8
SURFACE
 62
7
  6
CONTINUOUS
 10
165.8787385992
 20
85.6641928355
  0
VERTEX
  8
SURFACE
 62
7
  6
CONTINUOUS
 10
165.8890579067
 20
85.5887433513
  0
VERTEX
  8
SURFACE
 62
7
  6
CONTINUOUS
 10
165.892553654
 20
85.510032538
  0
SEQEND
  0
POLYLINE
  8
SURFACE
 62
7
  6
CONTINUOUS
 66
1
 70
0
  0
VERTEX
  8
SURFACE
 62
7
  6
CONTINUOUS
 10
131.5013922444
 20
76.4523145025
  0
VERTEX
  8
SURFACE
 62
7
  6
CONTINUOUS
 10
131.4640395642
 20
76.500346666
  0
VERTEX
  8
SURFACE
 62
7
  6
CONTINUOUS
 10
131.4326342536
 20
76.5634929875
  0
VERTEX
  8
SURFACE
 62
7
  6
CONTINUOUS
 10
131.4087124148
 20
76.6386705943
  0
VERTEX
  8
SURFACE
 62
7
  6
CONTINUOUS
 10
131.3934584
 20
76.7222101151
  0
VERTEX
  8
SURFACE
 62
7
  6
CONTINUOUS
 10
131.3874960975
 20
76.810032538
  0
SEQEND
  0
POLYLINE
  8
0
 62
7
  6
CONTINUOUS
 66
1
 70
0
  0
VERTEX
  8
0
 62
7
  6
CONTINUOUS
 10
124.5736902031
 20
77.210032538
  0
VERTEX
  8
0
 62
7
  6
CONTINUOUS
 10
124.5666129411
 20
77.2675705545
  0
VERTEX
  8
0
 62
7
  6
CONTINUOUS
 10
124.5442461587
 20
77.326419374
  0
VERTEX
  8
0
 62
7
  6
CONTINUOUS
 10
124.5044225567
 20
77.3858561149
  0
VERTEX
  8
0
 62
7
  6
CONTINUOUS
 10
124.446573304
 20
77.4428226908
  0
VERTEX
  8
0
 62
7
  6
CONTINUOUS
 10
124.3710211055
 20
77.4948302621
  0
VERTEX
  8
0
 62
7
  6
CONTINUOUS
 10
124.2781090956
 20
77.5398894843
  0
VERTEX
  8
0
 62
7
  6
CONTINUOUS
 10
124.1678275504
 20
77.5760067895
  0
VERTEX
  8
0
 62
7
  6
CONTINUOUS
 10
124.0397725939
 20
77.60064045
  0
VERTEX
  8
0
 62
7
  6
CONTINUOUS
 10
123.8931695564
 20
77.610032538
  0
SEQEND
  0
POLYLINE
  8
SURFACE
 62
7
  6
CONTINUOUS
 66
1
 70
0
  0
VERTEX
  8
SURFACE
 62
7
  6
CONTINUOUS
 10
130.04532922
 20
76.810032538
  0
VERTEX
  8
SURFACE
 62
7
  6
CONTINUOUS
 10
130.0466903057
 20
76.7313217246
  0
VERTEX
  8
SURFACE
 62
7
  6
CONTINUOUS
 10
130.0507032412
 20
76.6558722405
  0
VERTEX
  8
SURFACE
 62
7
  6
CONTINUOUS
 10
130.0571824101
 20
76.5865824974
  0
VERTEX
  8
SURFACE
 62
7
  6
CONTINUOUS
 10
130.0658434434
 20
76.5260853714
  0
VERTEX
  8
SURFACE
 62
7
  6
CONTINUOUS
 10
130.0763189849
 20
76.4766386442
  0
VERTEX
  8
SURFACE
 62
7
  6
CONTINUOUS
 10
130.0881783201
 20
76.4400439509
  0
VERTEX
  8
SURFACE
 62
7
  6
CONTINUOUS
 10
130.1009488008
 20
76.4175916993
  0
VERTEX
  8
SURFACE
 62
7
  6
CONTINUOUS
 10
130.1141361328
 20
76.410032538
  0
SEQEND
  0
LINE
  8
SURFACE
 62
7
  6
CONTINUOUS
 10
130.04532922
 20
76.810032538
 11
130.04532922
 21
85.510032538
  0
POLYLINE
  8
SURFACE
 62
7
  6
CONTINUOUS
 66
1
 70
0
  0
VERTEX
  8
SURFACE
 62
7
  6
CONTINUOUS
 10
174.4169766932
 20
85.6764374515
  0
VERTEX
  8
SURFACE
 62
7
  6
CONTINUOUS
 10
174.1544668979
 20
85.7385464616
  0
VERTEX
  8
SURFACE
 62
7
  6
CONTINUOUS
 10
173.8471273189
 20
85.7970568483
  0
VERTEX
  8
SURFACE
 62
7
  6
CONTINUOUS
 10
173.5119408381
 20
85.8501907001
  0
SEQEND
  0
LINE
  8
SURFACE
 62
7
  6
CONTINUOUS
 10
174.4170332299
 20
85.6764213864
 11
174.4169764612
 21
85.6764365858
  0
POLYLINE
  8
SURFACE
 62
7
  6
CONTINUOUS
 66
1
 70
0
  0
VERTEX
  8
SURFACE
 62
7
  6
CONTINUOUS
 10
142.0345189932
 20
85.4617935383
  0
VERTEX
  8
SURFACE
 62
7
  6
CONTINUOUS
 10
142.0332813177
 20
85.4932572387
  0
VERTEX
  8
SURFACE
 62
7
  6
CONTINUOUS
 10
142.0246846601
 20
85.5500069085
  0
VERTEX
  8
SURFACE
 62
7
  6
CONTINUOUS
 10
142.0082656146
 20
85.6044227767
  0
VERTEX
  8
SURFACE
 62
7
  6
CONTINUOUS
 10
141.9847596164
 20
85.6551578625
  0
VERTEX
  8
SURFACE
 62
7
  6
CONTINUOUS
 10
141.9551944472
 20
85.7010945527
  0
VERTEX
  8
SURFACE
 62
7
  6
CONTINUOUS
 10
141.9208032774
 20
85.7414205681
  0
VERTEX
  8
SURFACE
 62
7
  6
CONTINUOUS
 10
141.8830074541
 20
85.7755959694
  0
VERTEX
  8
SURFACE
 62
7
  6
CONTINUOUS
 10
141.843492092
 20
85.8033187864
  0
VERTEX
  8
SURFACE
 62
7
  6
CONTINUOUS
 10
141.8038674607
 20
85.8247738383
  0
VERTEX
  8
SURFACE
 62
7
  6
CONTINUOUS
 10
141.7656207898
 20
85.8405094444
  0
VERTEX
  8
SURFACE
 62
7
  6
CONTINUOUS
 10
141.7303484929
 20
85.8512878965
  0
VERTEX
  8
SURFACE
 62
7
  6
CONTINUOUS
 10
141.6999583849
 20
85.8580724206
  0
VERTEX
  8
SURFACE
 62
7
  6
CONTINUOUS
 10
141.6780779906
 20
85.8617512021
  0
SEQEND
  0
LINE
  8
0
 62
7
  6
CONTINUOUS
 10
136.7730477223
 20
68.110032538
 11
136.7730477223
 21
58.860032538
  0
LINE
  8
SURFACE
 62
7
  6
CONTINUOUS
 10
136.7730477223
 20
85.910032538
 11
136.7730477223
 21
95.160032538
  0
LINE
  8
SURFACE
 62
7
  6
CONTINUOUS
 10
142.0345190956
 20
76.858242394
 11
142.0345190956
 21
85.461822682
  0
POLYLINE
  8
SURFACE
 62
7
  6
CONTINUOUS
 66
1
 70
0
  0
VERTEX
  8
SURFACE
 62
7
  6
CONTINUOUS
 10
167.304570658
 20
85.9099427808
  0
VERTEX
  8
SURFACE
 62
7
  6
CONTINUOUS
 10
167.3046260021
 20
85.9099931964
  0
VERTEX
  8
SURFACE
 62
7
  6
CONTINUOUS
 10
167.3054128833
 20
85.9100231107
  0
VERTEX
  8
SURFACE
 62
7
  6
CONTINUOUS
 10
167.3060525252
 20
85.9100303852
  0
SEQEND
  0
POLYLINE
  8
0
 62
7
  6
CONTINUOUS
 66
1
 70
0
  0
VERTEX
  8
0
 62
7
  6
CONTINUOUS
 10
161.3225993887
 20
77.4772535303
  0
VERTEX
  8
0
 62
7
  6
CONTINUOUS
 10
161.3019419581
 20
77.4948302621
  0
VERTEX
  8
0
 62
7
  6
CONTINUOUS
 10
161.2267745631
 20
77.5398894843
  0
VERTEX
  8
0
 62
7
  6
CONTINUOUS
 10
161.1375549189
 20
77.5760067895
  0
SEQEND
  0
POLYLINE
  8
SURFACE
 62
7
  6
CONTINUOUS
 66
1
 70
0
  0
VERTEX
  8
SURFACE
 62
7
  6
CONTINUOUS
 10
167.3045706553
 20
76.410122295
  0
VERTEX
  8
SURFACE
 62
7
  6
CONTINUOUS
 10
167.304626002
 20
76.4100718795
  0
VERTEX
  8
SURFACE
 62
7
  6
CONTINUOUS
 10
167.3054128832
 20
76.4100419652
  0
VERTEX
  8
SURFACE
 62
7
  6
CONTINUOUS
 10
167.3068563016
 20
76.410032538
  0
SEQEND
  0
POLYLINE
  8
0
 62
7
  6
CONTINUOUS
 66
1
 70
0
  0
VERTEX
  8
0
 62
7
  6
CONTINUOUS
 10
151.622753472
 20
68.510032538
  0
VERTEX
  8
0
 62
7
  6
CONTINUOUS
 10
151.6267496557
 20
68.4404611657
  0
VERTEX
  8
0
 62
7
  6
CONTINUOUS
 10
151.6376530327
 20
68.3732497588
  0
VERTEX
  8
0
 62
7
  6
CONTINUOUS
 10
151.6545378503
 20
68.3103270589
  0
VERTEX
  8
0
 62
7
  6
CONTINUOUS
 10
151.6769543861
 20
68.2534976178
  0
VERTEX
  8
0
 62
7
  6
CONTINUOUS
 10
151.7042520295
 20
68.2043919849
  0
VERTEX
  8
0
 62
7
  6
CONTINUOUS
 10
151.735644646
 20
68.1644355517
  0
VERTEX
  8
0
 62
7
  6
CONTINUOUS
 10
151.770234145
 20
68.1348191179
  0
VERTEX
  8
0
 62
7
  6
CONTINUOUS
 10
151.8070300831
 20
68.116471927
  0
VERTEX
  8
0
 62
7
  6
CONTINUOUS
 10
151.8464968269
 20
68.110032538
  0
SEQEND
  0
POLYLINE
  8
0
 62
7
  6
CONTINUOUS
 66
1
 70
0
  0
VERTEX
  8
0
 62
7
  6
CONTINUOUS
 10
151.622753472
 20
77.210032538
  0
VERTEX
  8
0
 62
7
  6
CONTINUOUS
 10
151.6266758799
 20
77.2789578943
  0
VERTEX
  8
0
 62
7
  6
CONTINUOUS
 10
151.6374891167
 20
77.346044492
  0
VERTEX
  8
0
 62
7
  6
CONTINUOUS
 10
151.6543582018
 20
77.4091897046
  0
VERTEX
  8
0
 62
7
  6
CONTINUOUS
 10
151.6768700674
 20
77.4663876866
  0
VERTEX
  8
0
 62
7
  6
CONTINUOUS
 10
151.7043516609
 20
77.5158242101
  0
VERTEX
  8
0
 62
7
  6
CONTINUOUS
 10
151.7359467779
 20
77.5559476273
  0
VERTEX
  8
0
 62
7
  6
CONTINUOUS
 10
151.7706569633
 20
77.5855293539
  0
VERTEX
  8
0
 62
7
  6
CONTINUOUS
 10
151.8073830761
 20
77.6037098606
  0
VERTEX
  8
0
 62
7
  6
CONTINUOUS
 10
151.8464968269
 20
77.610032538
  0
SEQEND
  0
POLYLINE
  8
SURFACE
 62
7
  6
CONTINUOUS
 66
1
 70
0
  0
VERTEX
  8
SURFACE
 62
7
  6
CONTINUOUS
 10
167.3045708277
 20
76.4101221761
  0
VERTEX
  8
SURFACE
 62
7
  6
CONTINUOUS
 10
167.3139918328
 20
76.4217419147
  0
VERTEX
  8
SURFACE
 62
7
  6
CONTINUOUS
 10
167.3226390125
 20
76.4523144944
  0
VERTEX
  8
SURFACE
 62
7
  6
CONTINUOUS
 10
167.3300911582
 20
76.5003466548
  0
VERTEX
  8
SURFACE
 62
7
  6
CONTINUOUS
 10
167.3359861307
 20
76.5634929727
  0
VERTEX
  8
SURFACE
 62
7
  6
CONTINUOUS
 10
167.3400403935
 20
76.638670573
  0
VERTEX
  8
SURFACE
 62
7
  6
CONTINUOUS
 10
167.3420753664
 20
76.7222100736
  0
VERTEX
  8
SURFACE
 62
7
  6
CONTINUOUS
 10
167.341859654
 20
76.810032538
  0
SEQEND
  0
POLYLINE
  8
SURFACE
 62
7
  6
CONTINUOUS
 66
1
 70
0
  0
VERTEX
  8
SURFACE
 62
7
  6
CONTINUOUS
 10
167.3045708305
 20
85.9099428998
  0
VERTEX
  8
SURFACE
 62
7
  6
CONTINUOUS
 10
167.31399183
 20
85.8983231614
  0
VERTEX
  8
SURFACE
 62
7
  6
CONTINUOUS
 10
167.3226390035
 20
85.8677505818
  0
VERTEX
  8
SURFACE
 62
7
  6
CONTINUOUS
 10
167.3300911413
 20
85.8197184215
  0
VERTEX
  8
SURFACE
 62
7
  6
CONTINUOUS
 10
167.3359861027
 20
85.7565721037
  0
VERTEX
  8
SURFACE
 62
7
  6
CONTINUOUS
 10
167.3400403452
 20
85.6813945037
  0
VERTEX
  8
SURFACE
 62
7
  6
CONTINUOUS
 10
167.3420752617
 20
85.5978550039
  0
VERTEX
  8
SURFACE
 62
7
  6
CONTINUOUS
 10
167.3418596544
 20
85.510032538
  0
SEQEND
  0
POLYLINE
  8
0
 62
7
  6
CONTINUOUS
 66
1
 70
0
  0
VERTEX
  8
0
 62
7
  6
CONTINUOUS
 10
163.0740110933
 20
76.9925878517
  0
VERTEX
  8
0
 62
7
  6
CONTINUOUS
 10
163.0729842203
 20
77.0212450911
  0
VERTEX
  8
0
 62
7
  6
CONTINUOUS
 10
163.064686488
 20
77.078495361
  0
VERTEX
  8
0
 62
7
  6
CONTINUOUS
 10
163.0484982191
 20
77.1332295854
  0
VERTEX
  8
0
 62
7
  6
CONTINUOUS
 10
163.0252126185
 20
77.184156791
  0
VERTEX
  8
0
 62
7
  6
CONTINUOUS
 10
162.9958811997
 20
77.2302201932
  0
VERTEX
  8
0
 62
7
  6
CONTINUOUS
 10
162.9617298877
 20
77.2706615921
  0
VERTEX
  8
0
 62
7
  6
CONTINUOUS
 10
162.9241609206
 20
77.3049685007
  0
VERTEX
  8
0
 62
7
  6
CONTINUOUS
 10
162.8847435684
 20
77.3329030894
  0
VERTEX
  8
0
 62
7
  6
CONTINUOUS
 10
162.8450037105
 20
77.3546316123
  0
VERTEX
  8
0
 62
7
  6
CONTINUOUS
 10
162.8060079772
 20
77.3707778762
  0
VERTEX
  8
0
 62
7
  6
CONTINUOUS
 10
162.769751507
 20
77.3818227092
  0
VERTEX
  8
0
 62
7
  6
CONTINUOUS
 10
162.7405029504
 20
77.3882913712
  0
VERTEX
  8
0
 62
7
  6
CONTINUOUS
 10
162.7171191354
 20
77.3921401018
  0
VERTEX
  8
0
 62
7
  6
CONTINUOUS
 10
162.696339406
 20
77.3948049589
  0
VERTEX
  8
0
 62
7
  6
CONTINUOUS
 10
162.6754140518
 20
77.3969938664
  0
VERTEX
  8
0
 62
7
  6
CONTINUOUS
 10
162.6524976814
 20
77.3990200625
  0
VERTEX
  8
0
 62
7
  6
CONTINUOUS
 10
162.6266876121
 20
77.4010014719
  0
SEQEND
  0
LINE
  8
0
 62
7
  6
CONTINUOUS
 10
163.0740111129
 20
76.9926160612
 11
163.0740111129
 21
68.7274490148
  0
LINE
  8
SURFACE
 62
7
  6
CONTINUOUS
 10
165.892553654
 20
76.810032538
 11
165.892553654
 21
85.510032538
  0
POLYLINE
  8
SURFACE
 62
7
  6
CONTINUOUS
 66
1
 70
0
  0
VERTEX
  8
SURFACE
 62
7
  6
CONTINUOUS
 10
165.892553654
 20
76.810032538
  0
VERTEX
  8
SURFACE
 62
7
  6
CONTINUOUS
 10
165.8890579067
 20
76.7313217246
  0
VERTEX
  8
SURFACE
 62
7
  6
CONTINUOUS
 10
165.8787385992
 20
76.6558722405
  0
VERTEX
  8
SURFACE
 62
7
  6
CONTINUOUS
 10
165.8620373881
 20
76.5865824974
  0
VERTEX
  8
SURFACE
 62
7
  6
CONTINUOUS
 10
165.8396349569
 20
76.5260853714
  0
VERTEX
  8
SURFACE
 62
7
  6
CONTINUOUS
 10
165.8124213291
 20
76.4766386442
  0
VERTEX
  8
SURFACE
 62
7
  6
CONTINUOUS
 10
165.7814571566
 20
76.4400439509
  0
VERTEX
  8
SURFACE
 62
7
  6
CONTINUOUS
 10
165.7479291464
 20
76.4175916993
  0
VERTEX
  8
SURFACE
 62
7
  6
CONTINUOUS
 10
165.7131055149
 20
76.410032538
  0
SEQEND
  0
POLYLINE
  8
SURFACE
 62
7
  6
CONTINUOUS
 66
1
 70
0
  0
VERTEX
  8
SURFACE
 62
7
  6
CONTINUOUS
 10
174.7153124702
 20
85.2891468943
  0
VERTEX
  8
SURFACE
 62
7
  6
CONTINUOUS
 10
174.7147963896
 20
85.3094655104
  0
VERTEX
  8
SURFACE
 62
7
  6
CONTINUOUS
 10
174.7084129754
 20
85.3631397504
  0
VERTEX
  8
SURFACE
 62
7
  6
CONTINUOUS
 10
174.6951477165
 20
85.4145813552
  0
VERTEX
  8
SURFACE
 62
7
  6
CONTINUOUS
 10
174.67565282
 20
85.4628482708
  0
VERTEX
  8
SURFACE
 62
7
  6
CONTINUOUS
 10
174.6507212018
 20
85.5071613623
  0
VERTEX
  8
SURFACE
 62
7
  6
CONTINUOUS
 10
174.6212470048
 20
85.546924119
  0
VERTEX
  8
SURFACE
 62
7
  6
CONTINUOUS
 10
174.5881802946
 20
85.5817361335
  0
VERTEX
  8
SURFACE
 62
7
  6
CONTINUOUS
 10
174.552562392
 20
85.6113333622
  0
VERTEX
  8
SURFACE
 62
7
  6
CONTINUOUS
 10
174.5154250754
 20
85.6356750766
  0
VERTEX
  8
SURFACE
 62
7
  6
CONTINUOUS
 10
174.4777577983
 20
85.6549172505
  0
VERTEX
  8
SURFACE
 62
7
  6
CONTINUOUS
 10
174.4409987757
 20
85.669218206
  0
VERTEX
  8
SURFACE
 62
7
  6
CONTINUOUS
 10
174.4170332299
 20
85.6764213864
  0
SEQEND
  0
POLYLINE
  8
0
 62
7
  6
CONTINUOUS
 66
1
 70
0
  0
VERTEX
  8
0
 62
7
  6
CONTINUOUS
 10
176.2927107368
 20
77.3460444917
  0
VERTEX
  8
0
 62
7
  6
CONTINUOUS
 10
176.2922823988
 20
77.4091897044
  0
VERTEX
  8
0
 62
7
  6
CONTINUOUS
 10
176.2911642997
 20
77.4663876865
  0
VERTEX
  8
0
 62
7
  6
CONTINUOUS
 10
176.2894088954
 20
77.51582421
  0
VERTEX
  8
0
 62
7
  6
CONTINUOUS
 10
176.2870780772
 20
77.5559476272
  0
VERTEX
  8
0
 62
7
  6
CONTINUOUS
 10
176.2842496966
 20
77.5855293539
  0
VERTEX
  8
0
 62
7
  6
CONTINUOUS
 10
176.281016715
 20
77.6037098606
  0
VERTEX
  8
0
 62
7
  6
CONTINUOUS
 10
176.2779424472
 20
77.610032538
  0
SEQEND
  0
POLYLINE
  8
0
 62
7
  6
CONTINUOUS
 66
1
 70
0
  0
VERTEX
  8
0
 62
7
  6
CONTINUOUS
 10
176.2918697661
 20
68.510032538
  0
VERTEX
  8
0
 62
7
  6
CONTINUOUS
 10
176.2927099477
 20
68.3732497591
  0
VERTEX
  8
0
 62
7
  6
CONTINUOUS
 10
176.2922752784
 20
68.310327059
  0
VERTEX
  8
0
 62
7
  6
CONTINUOUS
 10
176.2911594458
 20
68.2534976179
  0
VERTEX
  8
0
 62
7
  6
CONTINUOUS
 10
176.289415788
 20
68.2043919849
  0
VERTEX
  8
0
 62
7
  6
CONTINUOUS
 10
176.287101581
 20
68.1644355517
  0
VERTEX
  8
0
 62
7
  6
CONTINUOUS
 10
176.284285563
 20
68.1348191179
  0
VERTEX
  8
0
 62
7
  6
CONTINUOUS
 10
176.2810488474
 20
68.116471927
  0
VERTEX
  8
0
 62
7
  6
CONTINUOUS
 10
176.2779424472
 20
68.110032538
  0
SEQEND
  0
LINE
  8
SURFACE
 62
7
  6
CONTINUOUS
 10
174.7153156215
 20
77.0308460553
 11
174.7153156215
 21
85.2892190206
  0
LINE
  8
0
 62
7
  6
CONTINUOUS
 10
176.2918697661
 20
77.210032538
 11
176.2927107368
 21
77.3460444917
  0
POLYLINE
  8
0
 62
7
  6
CONTINUOUS
 66
1
 70
0
  0
VERTEX
  8
0
 62
7
  6
CONTINUOUS
 10
184.480250097
 20
76.986268531
  0
VERTEX
  8
0
 62
7
  6
CONTINUOUS
 10
184.4796053636
 20
77.0089707605
  0
VERTEX
  8
0
 62
7
  6
CONTINUOUS
 10
184.4757359536
 20
77.0461940295
  0
VERTEX
  8
0
 62
7
  6
CONTINUOUS
 10
184.4685070719
 20
77.0824810534
  0
VERTEX
  8
0
 62
7
  6
CONTINUOUS
 10
184.4581115389
 20
77.1174986746
  0
VERTEX
  8
0
 62
7
  6
CONTINUOUS
 10
184.4447796694
 20
77.1509475994
  0
VERTEX
  8
0
 62
7
  6
CONTINUOUS
 10
184.4287734767
 20
77.1825666188
  0
VERTEX
  8
0
 62
7
  6
CONTINUOUS
 10
184.4103804617
 20
77.2121357715
  0
VERTEX
  8
0
 62
7
  6
CONTINUOUS
 10
184.3899071101
 20
77.2394785158
  0
VERTEX
  8
0
 62
7
  6
CONTINUOUS
 10
184.3676720674
 20
77.2644630579
  0
VERTEX
  8
0
 62
7
  6
CONTINUOUS
 10
184.3440017994
 20
77.2870003013
  0
VERTEX
  8
0
 62
7
  6
CONTINUOUS
 10
184.3192231776
 20
77.3070450749
  0
VERTEX
  8
0
 62
7
  6
CONTINUOUS
 10
184.2936572828
 20
77.3245945834
  0
VERTEX
  8
0
 62
7
  6
CONTINUOUS
 10
184.2676150766
 20
77.3396851191
  0
VERTEX
  8
0
 62
7
  6
CONTINUOUS
 10
184.2413951829
 20
77.3523880263
  0
VERTEX
  8
0
 62
7
  6
CONTINUOUS
 10
184.2153500149
 20
77.3627819696
  0
VERTEX
  8
0
 62
7
  6
CONTINUOUS
 10
184.189853704
 20
77.3709839528
  0
VERTEX
  8
0
 62
7
  6
CONTINUOUS
 10
184.1653006177
 20
77.3771554148
  0
VERTEX
  8
0
 62
7
  6
CONTINUOUS
 10
184.1430432819
 20
77.3813579738
  0
VERTEX
  8
0
 62
7
  6
CONTINUOUS
 10
184.1255271664
 20
77.3837733963
  0
VERTEX
  8
0
 62
7
  6
CONTINUOUS
 10
184.1139724951
 20
77.3849598175
  0
VERTEX
  8
0
 62
7
  6
CONTINUOUS
 10
184.1061270065
 20
77.3856008657
  0
VERTEX
  8
0
 62
7
  6
CONTINUOUS
 10
184.0998024183
 20
77.3860399685
  0
VERTEX
  8
0
 62
7
  6
CONTINUOUS
 10
184.0937874729
 20
77.3864112744
  0
VERTEX
  8
0
 62
7
  6
CONTINUOUS
 10
184.0805830565
 20
77.3871324892
  0
SEQEND
  0
POLYLINE
  8
SURFACE
 62
7
  6
CONTINUOUS
 66
1
 70
0
  0
VERTEX
  8
SURFACE
 62
7
  6
CONTINUOUS
 10
184.4802500971
 20
85.286268531
  0
VERTEX
  8
SURFACE
 62
7
  6
CONTINUOUS
 10
184.4796277587
 20
85.3085733048
  0
VERTEX
  8
SURFACE
 62
7
  6
CONTINUOUS
 10
184.4758142568
 20
85.3456749403
  0
VERTEX
  8
SURFACE
 62
7
  6
CONTINUOUS
 10
184.4686624476
 20
85.3818518438
  0
VERTEX
  8
SURFACE
 62
7
  6
CONTINUOUS
 10
184.4583624818
 20
85.4167738459
  0
VERTEX
  8
SURFACE
 62
7
  6
CONTINUOUS
 10
184.4451415836
 20
85.4501440846
  0
VERTEX
  8
SURFACE
 62
7
  6
CONTINUOUS
 10
184.4292583648
 20
85.4817031738
  0
VERTEX
  8
SURFACE
 62
7
  6
CONTINUOUS
 10
184.4109967284
 20
85.5112323364
  0
VERTEX
  8
SURFACE
 62
7
  6
CONTINUOUS
 10
184.3906594952
 20
85.5385555525
  0
VERTEX
  8
SURFACE
 62
7
  6
CONTINUOUS
 10
184.3685616439
 20
85.5635409626
  0
VERTEX
  8
SURFACE
 62
7
  6
CONTINUOUS
 10
184.3450260673
 20
85.5860988148
  0
VERTEX
  8
SURFACE
 62
7
  6
CONTINUOUS
 10
184.320376341
 20
85.6061826649
  0
VERTEX
  8
SURFACE
 62
7
  6
CONTINUOUS
 10
184.2949305541
 20
85.6237879656
  0
VERTEX
  8
SURFACE
 62
7
  6
CONTINUOUS
 10
184.268996949
 20
85.6389488979
  0
VERTEX
  8
SURFACE
 62
7
  6
CONTINUOUS
 10
184.2428710165
 20
85.6517346881
  0
VERTEX
  8
SURFACE
 62
7
  6
CONTINUOUS
 10
184.2168968776
 20
85.6622230431
  0
VERTEX
  8
SURFACE
 62
7
  6
CONTINUOUS
 10
184.1914460266
 20
85.6705262865
  0
VERTEX
  8
SURFACE
 62
7
  6
CONTINUOUS
 10
184.1668961528
 20
85.6768040556
  0
VERTEX
  8
SURFACE
 62
7
  6
CONTINUOUS
 10
184.1444865953
 20
85.6811244437
  0
VERTEX
  8
SURFACE
 62
7
  6
CONTINUOUS
 10
184.1266077395
 20
85.6836463795
  0
VERTEX
  8
SURFACE
 62
7
  6
CONTINUOUS
 10
184.1146998564
 20
85.6848940534
  0
VERTEX
  8
SURFACE
 62
7
  6
CONTINUOUS
 10
184.106679745
 20
85.6855595067
  0
VERTEX
  8
SURFACE
 62
7
  6
CONTINUOUS
 10
184.1003034778
 20
85.686007236
  0
VERTEX
  8
SURFACE
 62
7
  6
CONTINUOUS
 10
184.0943048821
 20
85.6863807127
  0
VERTEX
  8
SURFACE
 62
7
  6
CONTINUOUS
 10
184.0812319505
 20
85.6870990628
  0
SEQEND
  0
LINE
  8
SURFACE
 62
7
  6
CONTINUOUS
 10
177.248306164
 20
77.610032538
 11
177.248306164
 21
85.510032538
  0
LINE
  8
0
 62
7
  6
CONTINUOUS
 10
184.4802526437
 20
76.986334223
 11
184.4802526437
 21
68.733730853
  0
LINE
  8
SURFACE
 62
7
  6
CONTINUOUS
 10
184.4802526437
 20
77.033730853
 11
184.4802526437
 21
85.286334223
  0
LINE
  8
SURFACE
 62
7
  6
CONTINUOUS
 10
184.4798054057
 20
77.0149399899
 11
184.480250097
 21
77.033796545
  0
ARC
  8
SURFACE
 62
7
  6
CONTINUOUS
 10
18.7730477223
 20
117.9010912035
 40
180.0
 50
65.0733494768
 51
67.9368155029
  0
ARC
  8
0
 62
7
  6
CONTINUOUS
 10
-4.8350224178
 20
150.3948121216
 40
180.0
 50
4.0631844971
 51
6.9266505232
  0
ARC
  8
SURFACE
 62
7
  6
CONTINUOUS
 10
-15.4111841655
 20
182.9448910191
 40
180.0
 50
29.0733494768
 51
31.9368155029
  0
ARC
  8
SURFACE
 62
7
  6
CONTINUOUS
 10
35.27498426
 20
154.7134438915
 40
8.5
 50
73.749923389
 51
108.0
  0
ARC
  8
0
 62
7
  6
CONTINUOUS
 10
35.2749843165
 20
154.7134438137
 40
8.5
 50
324.0
 51
358.250076611
  0
ARC
  8
0
 62
7
  6
CONTINUOUS
 10
41.5720843318
 20
147.0481629057
 40
1.1
 50
144.0
 51
256.0631844971
  0
ARC
  8
SURFACE
 62
7
  6
CONTINUOUS
 10
29.9307798232
 20
163.071043962
 40
1.1
 50
175.9368155029
 51
288.0
  0
ARC
  8
0
 62
7
  6
CONTINUOUS
 10
31.484454595
 20
176.3767927798
 40
37.563731
 50
300.9352412043
 51
310.4075976794
  0
ARC
  8
SURFACE
 62
7
  6
CONTINUOUS
 10
29.2437150209
 20
183.2730800782
 40
37.563731
 50
85.5924023206
 51
95.0647587957
  0
ARC
  8
SURFACE
 62
7
  6
CONTINUOUS
 10
33.9803465483
 20
178.1143369284
 40
2.0
 50
301.5924023172
 51
18.0000000035
  0
ARC
  8
0
 62
7
  6
CONTINUOUS
 10
32.284236853
 20
183.334425815
 40
2.0
 50
18.0
 51
94.4075976794
  0
ARC
  8
0
 62
7
  6
CONTINUOUS
 10
33.9803465483
 20
178.1143369284
 40
2.0
 50
301.5924023206
 51
9.9606126877
  0
ARC
  8
0
 62
7
  6
CONTINUOUS
 10
20.165842801
 20
193.124429877
 40
1.1
 50
108.0
 51
220.0631844971
  0
ARC
  8
0
 62
7
  6
CONTINUOUS
 10
26.0158088806
 20
186.3601799824
 40
1.0
 50
222.9266505232
 51
264.9352412043
  0
ARC
  8
SURFACE
 62
7
  6
CONTINUOUS
 10
30.6875754673
 20
171.981960869
 40
1.0
 50
131.0647587957
 51
173.0733494768
  0
ARC
  8
0
 62
7
  6
CONTINUOUS
 10
46.4617986484
 20
97.7840361083
 40
180.0
 50
40.0631844971
 51
42.9266505232
  0
ARC
  8
SURFACE
 62
7
  6
CONTINUOUS
 10
84.660458544
 20
85.3725391386
 40
180.0
 50
101.0733494768
 51
103.9368155029
  0
ARC
  8
0
 62
7
  6
CONTINUOUS
 10
60.5730477223
 20
140.1519529675
 40
37.563731
 50
336.9352412043
 51
346.4075976793
  0
ARC
  8
SURFACE
 62
7
  6
CONTINUOUS
 10
98.1474549315
 20
127.9432879909
 40
37.563731
 50
157.5924023206
 51
167.0647587957
  0
ARC
  8
SURFACE
 62
7
  6
CONTINUOUS
 10
76.3730476308
 20
124.8539529972
 40
8.5
 50
109.749923389
 51
144.0
  0
ARC
  8
0
 62
7
  6
CONTINUOUS
 10
76.3730477223
 20
124.8539529675
 40
8.5
 50
0.0
 51
34.250076611
  0
ARC
  8
0
 62
7
  6
CONTINUOUS
 10
99.0286845867
 20
130.8539529675
 40
2.0
 50
90.0
 51
166.4075976794
  0
ARC
  8
0
 62
7
  6
CONTINUOUS
 10
85.9730477223
 20
122.3539529675
 40
1.1
 50
180.0
 51
292.0631844971
  0
ARC
  8
SURFACE
 62
7
  6
CONTINUOUS
 10
67.1370213541
 20
128.4741489333
 40
1.1
 50
211.9368155029
 51
324.0
  0
ARC
  8
0
 62
7
  6
CONTINUOUS
 10
94.2139705976
 20
125.8273331559
 40
1.0
 50
294.9266505232
 51
336.9352412043
  0
ARC
  8
SURFACE
 62
7
  6
CONTINUOUS
 10
62.5115763491
 20
136.128065465
 40
1.0
 50
167.0647587957
 51
209.0733494768
  0
ARC
  8
SURFACE
 62
7
  6
CONTINUOUS
 10
54.7067153574
 20
144.414092914
 40
37.563731
 50
121.5924023206
 51
131.0647587957
  0
ARC
  8
CURVE
 62
40
  6
CONTINUOUS
 10
95.3780013401
 20
176.6124067027
 40
3.2
 50
2.2544307753
 51
45.0
  0
ARC
  8
CURVE
 62
40
  6
CONTINUOUS
 10
91.135360653
 20
180.8550473898
 40
3.2
 50
45.0
 51
86.4096221093
  0
ARC
  8
CURVE
 62
40
  6
CONTINUOUS
 10
91.5361472932
 20
187.2424858489
 40
3.2
 50
225.0
 51
266.4096221093
  0
ARC
  8
CURVE
 62
40
  6
CONTINUOUS
 10
85.9884186038
 20
192.7902145384
 40
3.2
 50
183.5903778907
 51
225.0
  0
ARC
  8
CURVE
 62
40
  6
CONTINUOUS
 10
79.6009801447
 20
192.3894278981
 40
3.2
 50
3.5903778907
 51
45.0
  0
ARC
  8
CURVE
 62
40
  6
CONTINUOUS
 10
75.3583394575
 20
196.6320685852
 40
3.2
 50
45.0
 51
87.7455692247
  0
ARC
  8
SURFACE
 62
7
  6
CONTINUOUS
 10
61.5709639029
 20
143.0247041936
 40
2.0
 50
337.5924023172
 51
54.0000000035
  0
ARC
  8
0
 62
7
  6
CONTINUOUS
 10
57.1304910719
 20
146.2508965498
 40
2.0
 50
54.0
 51
130.4075976794
  0
ARC
  8
0
 62
7
  6
CONTINUOUS
 10
61.5709639029
 20
143.0247041936
 40
2.0
 50
337.5924023206
 51
45.9607214229
  0
ARC
  8
0
 62
7
  6
CONTINUOUS
 10
97.4230477223
 20
155.5771149675
 40
1.5
 50
180.0
 51
270.0
  0
ARC
  8
0
 62
7
  6
CONTINUOUS
 10
97.8005505063
 20
155.4271149675
 40
1.35
 50
270.0
 51
326.2510114041
  0
ARC
  8
0
 62
7
  6
CONTINUOUS
 10
50.2807326376
 20
145.0142935748
 40
1.0
 50
258.9266505232
 51
300.9352412043
  0
ARC
  8
0
 62
7
  6
CONTINUOUS
 10
98.1730477223
 20
155.8771149675
 40
0.75
 50
270.0
 51
360.0
  0
ARC
  8
0
 62
7
  6
CONTINUOUS
 10
97.5730477223
 20
155.5021149675
 40
0.375
 50
180.0
 51
270.0
  0
ARC
  8
0
 62
7
  6
CONTINUOUS
 10
-15.4111841655
 20
223.1093389158
 40
180.0
 50
328.0631844971
 51
330.9266505232
  0
ARC
  8
SURFACE
 62
7
  6
CONTINUOUS
 10
-4.8350224178
 20
255.6594178133
 40
180.0
 50
353.0733494768
 51
355.9368155029
  0
ARC
  8
0
 62
7
  6
CONTINUOUS
 10
29.2437150209
 20
222.7811498567
 40
37.563731
 50
264.9352412043
 51
274.4075976794
  0
ARC
  8
SURFACE
 62
7
  6
CONTINUOUS
 10
31.484454595
 20
229.6774371551
 40
37.563731
 50
49.5924023206
 51
59.0647587957
  0
ARC
  8
SURFACE
 62
7
  6
CONTINUOUS
 10
19.5769209457
 20
203.0271150156
 40
8.5
 50
37.749923389
 51
72.0
  0
ARC
  8
0
 62
7
  6
CONTINUOUS
 10
19.5769209457
 20
203.0271149193
 40
8.5
 50
288.0
 51
322.250076611
  0
ARC
  8
SURFACE
 62
7
  6
CONTINUOUS
 10
32.284236853
 20
222.71980412
 40
2.0
 50
265.5924023172
 51
342.0000000035
  0
ARC
  8
0
 62
7
  6
CONTINUOUS
 10
33.9803465483
 20
227.9398930065
 40
2.0
 50
342.0
 51
58.4075976794
  0
ARC
  8
0
 62
7
  6
CONTINUOUS
 10
32.284236853
 20
222.71980412
 40
2.0
 50
265.5924023206
 51
333.9606126877
  0
ARC
  8
SURFACE
 62
7
  6
CONTINUOUS
 10
20.165842801
 20
212.929800058
 40
1.1
 50
139.9368155029
 51
252.0
  0
ARC
  8
SURFACE
 62
7
  6
CONTINUOUS
 10
26.0158088806
 20
219.6940499525
 40
1.0
 50
95.0647587957
 51
137.0733494768
  0
ARC
  8
SURFACE
 62
7
  6
CONTINUOUS
 10
35.2749843165
 20
251.3407861213
 40
8.5
 50
1.749923389
 51
36.0
  0
ARC
  8
0
 62
7
  6
CONTINUOUS
 10
35.27498426
 20
251.3407860434
 40
8.5
 50
252.0
 51
286.250076611
  0
ARC
  8
0
 62
7
  6
CONTINUOUS
 10
29.9307798232
 20
242.9831859729
 40
1.1
 50
72.0
 51
184.0631844971
  0
ARC
  8
SURFACE
 62
7
  6
CONTINUOUS
 10
41.5720843318
 20
259.0060670292
 40
1.1
 50
103.9368155029
 51
216.0
  0
ARC
  8
0
 62
7
  6
CONTINUOUS
 10
30.6875754673
 20
234.072269066
 40
1.0
 50
186.9266505232
 51
228.9352412043
  0
ARC
  8
0
 62
7
  6
CONTINUOUS
 10
18.7730477223
 20
288.1531387314
 40
180.0
 50
292.0631844971
 51
294.9266505232
  0
ARC
  8
0
 62
7
  6
CONTINUOUS
 10
54.7067153574
 20
261.6401370209
 40
37.563731
 50
228.9352412043
 51
238.4075976794
  0
ARC
  8
CURVE
 62
40
  6
CONTINUOUS
 10
75.6100968184
 20
203.0271149675
 40
3.2
 50
92.2544307753
 51
267.7455692247
  0
ARC
  8
CURVE
 62
40
  6
CONTINUOUS
 10
75.3583394575
 20
209.4221613497
 40
3.2
 50
272.2544307753
 51
315.0
  0
ARC
  8
CURVE
 62
40
  6
CONTINUOUS
 10
79.6009801447
 20
213.6648020368
 40
3.2
 50
315.0
 51
356.4096221093
  0
ARC
  8
CURVE
 62
40
  6
CONTINUOUS
 10
85.9884186038
 20
213.2640153966
 40
3.2
 50
135.0
 51
176.4096221093
  0
ARC
  8
CURVE
 62
40
  6
CONTINUOUS
 10
91.5361472932
 20
218.811744086
 40
3.2
 50
93.5903778907
 51
135.0
  0
ARC
  8
CURVE
 62
40
  6
CONTINUOUS
 10
91.135360653
 20
225.1991825451
 40
3.2
 50
273.5903778907
 51
315.0
  0
ARC
  8
CURVE
 62
40
  6
CONTINUOUS
 10
95.3780013401
 20
229.4418232323
 40
3.2
 50
315.0
 51
357.7455692247
  0
ARC
  8
SURFACE
 62
7
  6
CONTINUOUS
 10
57.1304910719
 20
259.8033333851
 40
2.0
 50
229.5924023172
 51
306.0000000035
  0
ARC
  8
0
 62
7
  6
CONTINUOUS
 10
57.1304910719
 20
259.8033333851
 40
2.0
 50
229.5924023206
 51
297.9607214229
  0
ARC
  8
SURFACE
 62
7
  6
CONTINUOUS
 10
50.2807326376
 20
261.0399363601
 40
1.0
 50
59.0647587957
 51
101.0733494768
  0
ARC
  8
SURFACE
 62
7
  6
CONTINUOUS
 10
60.5730477223
 20
265.9022769675
 40
37.563731
 50
13.5924023206
 51
23.0647587957
  0
ARC
  8
0
 62
7
  6
CONTINUOUS
 10
61.5709639029
 20
263.0295257413
 40
2.0
 50
306.0
 51
22.4075976794
  0
ARC
  8
0
 62
7
  6
CONTINUOUS
 10
67.1370213541
 20
277.5800810016
 40
1.1
 50
36.0
 51
148.0631844971
  0
ARC
  8
0
 62
7
  6
CONTINUOUS
 10
62.5115763491
 20
269.9261644699
 40
1.0
 50
150.9266505232
 51
192.9352412043
  0
ARC
  8
SURFACE
 62
7
  6
CONTINUOUS
 10
46.4617986484
 20
308.2701938266
 40
180.0
 50
317.0733494768
 51
319.9368155029
  0
ARC
  8
0
 62
7
  6
CONTINUOUS
 10
98.1474549315
 20
278.110941944
 40
37.563731
 50
192.9352412043
 51
202.4075976794
  0
ARC
  8
SURFACE
 62
7
  6
CONTINUOUS
 10
76.3730477223
 20
281.2002769675
 40
8.5
 50
325.749923389
 51
360.0
  0
ARC
  8
0
 62
7
  6
CONTINUOUS
 10
76.3730476308
 20
281.2002769377
 40
8.5
 50
216.0
 51
250.250076611
  0
ARC
  8
SURFACE
 62
7
  6
CONTINUOUS
 10
99.0286845867
 20
275.2002769675
 40
2.0
 50
193.5924023172
 51
270.0000000035
  0
ARC
  8
0
 62
7
  6
CONTINUOUS
 10
99.0286845867
 20
275.2002769675
 40
2.0
 50
193.5924023206
 51
261.9607214229
  0
ARC
  8
SURFACE
 62
7
  6
CONTINUOUS
 10
85.9730477223
 20
283.7002769675
 40
1.1
 50
67.9368155029
 51
180.0
  0
ARC
  8
SURFACE
 62
7
  6
CONTINUOUS
 10
94.2139705976
 20
280.226896779
 40
1.0
 50
23.0647587957
 51
65.0733494768
  0
ARC
  8
0
 62
7
  6
CONTINUOUS
 10
84.660458544
 20
320.6816907964
 40
180.0
 50
256.0631844971
 51
258.9266505232
  0
ARC
  8
0
 62
7
  6
CONTINUOUS
 10
118.8856369007
 20
85.3725391386
 40
180.0
 50
76.0631844971
 51
78.9266505232
  0
ARC
  8
0
 62
7
  6
CONTINUOUS
 10
105.3986405132
 20
127.9432879909
 40
37.563731
 50
12.9352412043
 51
22.4075976793
  0
ARC
  8
SURFACE
 62
7
  6
CONTINUOUS
 10
127.1730477223
 20
124.8539529675
 40
8.5
 50
145.749923389
 51
180.0
  0
ARC
  8
0
 62
7
  6
CONTINUOUS
 10
127.1730478139
 20
124.8539529972
 40
8.5
 50
36.0
 51
70.250076611
  0
ARC
  8
SURFACE
 62
7
  6
CONTINUOUS
 10
104.517410858
 20
130.8539529675
 40
2.0
 50
13.5924023172
 51
90.0000000035
  0
ARC
  8
0
 62
7
  6
CONTINUOUS
 10
104.517410858
 20
130.8539529675
 40
2.0
 50
13.5924023206
 51
81.9607214229
  0
ARC
  8
SURFACE
 62
7
  6
CONTINUOUS
 10
117.5730477223
 20
122.3539529675
 40
1.1
 50
247.9368155029
 51
360.0
  0
ARC
  8
SURFACE
 62
7
  6
CONTINUOUS
 10
109.3321248471
 20
125.8273331559
 40
1.0
 50
203.0647587957
 51
245.0733494768
  0
ARC
  8
SURFACE
 62
7
  6
CONTINUOUS
 10
157.0842967963
 20
97.7840361083
 40
180.0
 50
137.0733494768
 51
139.9368155029
  0
ARC
  8
SURFACE
 62
7
  6
CONTINUOUS
 10
142.9730477223
 20
140.1519529675
 40
37.563731
 50
193.5924023206
 51
203.0647587957
  0
ARC
  8
0
 62
7
  6
CONTINUOUS
 10
136.4090740906
 20
128.4741489333
 40
1.1
 50
216.0
 51
328.0631844971
  0
ARC
  8
0
 62
7
  6
CONTINUOUS
 10
141.0345190956
 20
136.128065465
 40
1.0
 50
330.9266505232
 51
12.9352412043
  0
ARC
  8
0
 62
7
  6
CONTINUOUS
 10
148.8393800873
 20
144.414092914
 40
37.563731
 50
48.9352412043
 51
58.4075976793
  0
ARC
  8
CURVE
 62
40
  6
CONTINUOUS
 10
128.1877559871
 20
196.6320685852
 40
3.2
 50
92.2544307753
 51
135.0
  0
ARC
  8
CURVE
 62
40
  6
CONTINUOUS
 10
123.9451153
 20
192.3894278981
 40
3.2
 50
135.0
 51
176.4096221093
  0
ARC
  8
CURVE
 62
40
  6
CONTINUOUS
 10
117.5576768409
 20
192.7902145384
 40
3.2
 50
315.0
 51
356.4096221093
  0
ARC
  8
CURVE
 62
40
  6
CONTINUOUS
 10
112.0099481514
 20
187.2424858489
 40
3.2
 50
273.5903778907
 51
315.0
  0
ARC
  8
CURVE
 62
40
  6
CONTINUOUS
 10
112.4107347917
 20
180.8550473898
 40
3.2
 50
93.5903778907
 51
135.0
  0
ARC
  8
CURVE
 62
40
  6
CONTINUOUS
 10
108.1680941046
 20
176.6124067027
 40
3.2
 50
135.0
 51
177.7455692247
  0
ARC
  8
CURVE
 62
40
  6
CONTINUOUS
 10
101.7730477223
 20
176.8641640636
 40
3.2
 50
182.2544307753
 51
357.7455692247
  0
ARC
  8
SURFACE
 62
7
  6
CONTINUOUS
 10
146.4156043728
 20
146.2508965498
 40
2.0
 50
49.5924023172
 51
126.0000000035
  0
ARC
  8
0
 62
7
  6
CONTINUOUS
 10
141.9751315418
 20
143.0247041936
 40
2.0
 50
126.0
 51
202.4075976794
  0
ARC
  8
0
 62
7
  6
CONTINUOUS
 10
146.4156043728
 20
146.2508965498
 40
2.0
 50
49.5924023206
 51
117.9607214229
  0
CIRCLE
  8
0
 62
7
  6
CONTINUOUS
 10
105.7110477223
 20
159.6646149675
 40
1.9125
  0
ARC
  8
0
 62
7
  6
CONTINUOUS
 10
103.2730477223
 20
156.0271149675
 40
1.5
 50
0.0
 51
90.0
  0
ARC
  8
0
 62
7
  6
CONTINUOUS
 10
102.8955449384
 20
156.1771149675
 40
1.35
 50
90.0
 51
146.2510114041
  0
ARC
  8
SURFACE
 62
7
  6
CONTINUOUS
 10
153.2653628071
 20
145.0142935748
 40
1.0
 50
239.0647587957
 51
281.0733494768
  0
ARC
  8
0
 62
7
  6
CONTINUOUS
 10
102.5230477223
 20
155.7271149675
 40
0.75
 50
90.0
 51
180.0
  0
ARC
  8
0
 62
7
  6
CONTINUOUS
 10
103.1230477223
 20
156.1021149675
 40
0.375
 50
0.0
 51
90.0
  0
ARC
  8
0
 62
7
  6
CONTINUOUS
 10
184.7730477223
 20
117.9010912035
 40
180.0
 50
112.0631844971
 51
114.9266505232
  0
ARC
  8
SURFACE
 62
7
  6
CONTINUOUS
 10
168.2711111281
 20
154.7134438137
 40
8.5
 50
181.749923389
 51
216.0
  0
ARC
  8
0
 62
7
  6
CONTINUOUS
 10
168.2711111847
 20
154.7134438915
 40
8.5
 50
72.0
 51
106.250076611
  0
ARC
  8
0
 62
7
  6
CONTINUOUS
 10
173.6153156215
 20
163.071043962
 40
1.1
 50
252.0
 51
4.0631844971
  0
ARC
  8
SURFACE
 62
7
  6
CONTINUOUS
 10
161.9740111129
 20
147.0481629057
 40
1.1
 50
283.9368155029
 51
36.0
  0
ARC
  8
0
 62
7
  6
CONTINUOUS
 10
174.3023804238
 20
183.2730800782
 40
37.563731
 50
84.9352412043
 51
94.4075976793
  0
ARC
  8
SURFACE
 62
7
  6
CONTINUOUS
 10
172.0616408497
 20
176.3767927798
 40
37.563731
 50
229.5924023206
 51
239.0647587957
  0
ARC
  8
SURFACE
 62
7
  6
CONTINUOUS
 10
171.2618585917
 20
183.334425815
 40
2.0
 50
85.5924023172
 51
162.0000000035
  0
ARC
  8
0
 62
7
  6
CONTINUOUS
 10
169.5657488964
 20
178.1143369284
 40
2.0
 50
162.0
 51
238.4075976794
  0
ARC
  8
0
 62
7
  6
CONTINUOUS
 10
171.2618585917
 20
183.334425815
 40
2.0
 50
85.5924023206
 51
153.9606126877
  0
ARC
  8
SURFACE
 62
7
  6
CONTINUOUS
 10
183.3802526437
 20
193.124429877
 40
1.1
 50
319.9368155029
 51
72.0
  0
ARC
  8
0
 62
7
  6
CONTINUOUS
 10
172.8585199774
 20
171.981960869
 40
1.0
 50
6.9266505232
 51
48.9352412043
  0
ARC
  8
SURFACE
 62
7
  6
CONTINUOUS
 10
177.5302865641
 20
186.3601799824
 40
1.0
 50
275.0647587957
 51
317.0733494768
  0
ARC
  8
SURFACE
 62
7
  6
CONTINUOUS
 10
208.3811178625
 20
150.3948121216
 40
180.0
 50
173.0733494768
 51
175.9368155029
  0
ARC
  8
0
 62
7
  6
CONTINUOUS
 10
218.9572796102
 20
182.9448910191
 40
180.0
 50
148.0631844971
 51
150.9266505232
  0
ARC
  8
SURFACE
 62
7
  6
CONTINUOUS
 10
101.7730477223
 20
203.0271149675
 40
76.5
 50
346.8859020995
 51
355.0573945362
  0
ARC
  8
SURFACE
 62
7
  6
CONTINUOUS
 10
101.7730477223
 20
203.0271149675
 40
76.5
 50
310.8859020706
 51
319.0573784501
  0
ARC
  8
SURFACE
 62
7
  6
CONTINUOUS
 10
101.7730477223
 20
203.0271149675
 40
76.5
 50
274.8859020998
 51
283.0573967266
  0
ARC
  8
SURFACE
 62
7
  6
CONTINUOUS
 10
101.7730477223
 20
203.0271149675
 40
76.5
 50
238.8859020993
 51
247.0573945362
  0
ARC
  8
SURFACE
 62
7
  6
CONTINUOUS
 10
101.7730477223
 20
203.0271149675
 40
76.5
 50
202.8859020994
 51
211.0573851114
  0
ARC
  8
SURFACE
 62
7
  6
CONTINUOUS
 10
101.7730477223
 20
203.0271149675
 40
76.5
 50
166.8859020995
 51
175.0573945362
  0
ARC
  8
SURFACE
 62
7
  6
CONTINUOUS
 10
101.7730477223
 20
203.0271149675
 40
76.5
 50
130.8859020706
 51
139.0573858185
  0
ARC
  8
SURFACE
 62
7
  6
CONTINUOUS
 10
101.7730477223
 20
203.0271149675
 40
76.5
 50
94.8859020998
 51
103.0573976734
  0
ARC
  8
0
 62
7
  6
CONTINUOUS
 10
101.7730477223
 20
203.0271149675
 40
76.5
 50
220.9426170082
 51
229.114097893
  0
ARC
  8
0
 62
7
  6
CONTINUOUS
 10
101.7730477223
 20
203.0271149675
 40
76.5
 50
184.9426138688
 51
193.1140978703
  0
ARC
  8
0
 62
7
  6
CONTINUOUS
 10
101.7730477223
 20
203.0271149675
 40
76.5
 50
148.9426168119
 51
157.1140978705
  0
ARC
  8
0
 62
7
  6
CONTINUOUS
 10
101.7730477223
 20
203.0271149675
 40
76.5
 50
112.9426138688
 51
121.1140978705
  0
ARC
  8
0
 62
7
  6
CONTINUOUS
 10
101.7730477223
 20
203.0271149675
 40
76.5
 50
76.9426206338
 51
85.1140978701
  0
ARC
  8
0
 62
7
  6
CONTINUOUS
 10
101.7730477223
 20
203.0271149675
 40
76.5
 50
40.9426169866
 51
49.114097893
  0
ARC
  8
0
 62
7
  6
CONTINUOUS
 10
101.7730477223
 20
203.0271149675
 40
76.5
 50
4.9426138688
 51
13.1140978703
  0
ARC
  8
0
 62
7
  6
CONTINUOUS
 10
101.7730477223
 20
203.0271149675
 40
76.5
 50
328.9426168251
 51
337.1140978705
  0
ARC
  8
0
 62
7
  6
CONTINUOUS
 10
101.7730477223
 20
203.0271149675
 40
76.5
 50
292.9426138688
 51
301.1140978705
  0
ARC
  8
0
 62
7
  6
CONTINUOUS
 10
101.7730477223
 20
203.0271149675
 40
76.5
 50
256.9426209906
 51
265.1140978701
  0
ARC
  8
SURFACE
 62
7
  6
CONTINUOUS
 10
101.7730477223
 20
203.0271149675
 40
76.5
 50
22.8859020994
 51
31.0573853544
  0
ARC
  8
SURFACE
 62
7
  6
CONTINUOUS
 10
101.7730477223
 20
203.0271149675
 40
76.5
 50
58.8859020993
 51
67.0573945362
  0
CIRCLE
  8
0
 62
7
  6
CONTINUOUS
 10
101.7730477223
 20
203.0271149675
 40
35.0
  0
ARC
  8
SURFACE
 62
7
  6
CONTINUOUS
 10
101.7730477223
 20
203.0271149675
 40
35.0
 50
175.8139287399
 51
184.1860719595
  0
CIRCLE
  8
CURVE
 62
40
  6
CONTINUOUS
 10
101.7730477223
 20
203.0271149675
 40
9.525
  0
ARC
  8
CURVE
 62
40
  6
CONTINUOUS
 10
117.5576768409
 20
213.2640153966
 40
3.2
 50
3.5903778907
 51
45.0
  0
ARC
  8
CURVE
 62
40
  6
CONTINUOUS
 10
123.9451153
 20
213.6648020368
 40
3.2
 50
183.5903778907
 51
225.0
  0
ARC
  8
CURVE
 62
40
  6
CONTINUOUS
 10
101.7730477223
 20
229.1900658714
 40
3.2
 50
2.2544307753
 51
177.7455692247
  0
ARC
  8
CURVE
 62
40
  6
CONTINUOUS
 10
108.1680941046
 20
229.4418232323
 40
3.2
 50
182.2544307753
 51
225.0
  0
ARC
  8
CURVE
 62
40
  6
CONTINUOUS
 10
112.4107347917
 20
225.1991825451
 40
3.2
 50
225.0
 51
266.4096221093
  0
ARC
  8
CURVE
 62
40
  6
CONTINUOUS
 10
112.0099481514
 20
218.811744086
 40
3.2
 50
45.0
 51
86.4096221093
  0
CIRCLE
  8
0
 62
7
  6
CONTINUOUS
 10
101.7730477223
 20
248.0271149675
 40
1.7320508076
  0
ARC
  8
CURVE
 62
40
  6
CONTINUOUS
 10
128.1877559871
 20
209.4221613497
 40
3.2
 50
225.0
 51
267.7455692247
  0
ARC
  8
CURVE
 62
40
  6
CONTINUOUS
 10
127.9359986262
 20
203.0271149675
 40
3.2
 50
272.2544307753
 51
87.7455692247
  0
ARC
  8
SURFACE
 62
7
  6
CONTINUOUS
 10
148.8393800873
 20
261.6401370209
 40
37.563731
 50
301.5924023206
 51
311.0647587957
  0
ARC
  8
0
 62
7
  6
CONTINUOUS
 10
146.4156043728
 20
259.8033333851
 40
2.0
 50
234.0
 51
310.4075976794
  0
ARC
  8
0
 62
7
  6
CONTINUOUS
 10
153.2653628071
 20
261.0399363601
 40
1.0
 50
78.9266505232
 51
120.9352412043
  0
ARC
  8
SURFACE
 62
7
  6
CONTINUOUS
 10
105.3986405132
 20
278.110941944
 40
37.563731
 50
337.5924023206
 51
347.0647587957
  0
ARC
  8
SURFACE
 62
7
  6
CONTINUOUS
 10
127.1730478139
 20
281.2002769377
 40
8.5
 50
289.749923389
 51
324.0
  0
ARC
  8
0
 62
7
  6
CONTINUOUS
 10
127.1730477223
 20
281.2002769675
 40
8.5
 50
180.0
 51
214.250076611
  0
ARC
  8
0
 62
7
  6
CONTINUOUS
 10
104.517410858
 20
275.2002769675
 40
2.0
 50
270.0
 51
346.4075976794
  0
ARC
  8
0
 62
7
  6
CONTINUOUS
 10
117.5730477223
 20
283.7002769675
 40
1.1
 50
0.0
 51
112.0631844971
  0
ARC
  8
0
 62
7
  6
CONTINUOUS
 10
109.3321248471
 20
280.226896779
 40
1.0
 50
114.9266505232
 51
156.9352412043
  0
ARC
  8
SURFACE
 62
7
  6
CONTINUOUS
 10
118.8856369007
 20
320.6816907964
 40
180.0
 50
281.0733494768
 51
283.9368155029
  0
ARC
  8
0
 62
7
  6
CONTINUOUS
 10
142.9730477223
 20
265.9022769675
 40
37.563731
 50
156.9352412043
 51
166.4075976794
  0
ARC
  8
SURFACE
 62
7
  6
CONTINUOUS
 10
141.9751315418
 20
263.0295257413
 40
2.0
 50
157.5924023172
 51
234.0000000035
  0
ARC
  8
0
 62
7
  6
CONTINUOUS
 10
141.9751315418
 20
263.0295257413
 40
2.0
 50
157.5924023206
 51
225.9607214229
  0
ARC
  8
SURFACE
 62
7
  6
CONTINUOUS
 10
136.4090740906
 20
277.5800810016
 40
1.1
 50
31.9368155029
 51
144.0
  0
ARC
  8
SURFACE
 62
7
  6
CONTINUOUS
 10
141.0345190956
 20
269.9261644699
 40
1.0
 50
347.0647587957
 51
29.0733494768
  0
ARC
  8
0
 62
7
  6
CONTINUOUS
 10
157.0842967963
 20
308.2701938266
 40
180.0
 50
220.0631844971
 51
222.9266505232
  0
ARC
  8
0
 62
7
  6
CONTINUOUS
 10
172.0616408497
 20
229.6774371551
 40
37.563731
 50
120.9352412043
 51
130.4075976793
  0
ARC
  8
SURFACE
 62
7
  6
CONTINUOUS
 10
174.3023804238
 20
222.7811498567
 40
37.563731
 50
265.5924023206
 51
275.0647587957
  0
ARC
  8
SURFACE
 62
7
  6
CONTINUOUS
 10
183.969174499
 20
203.0271149193
 40
8.5
 50
217.749923389
 51
252.0
  0
ARC
  8
0
 62
7
  6
CONTINUOUS
 10
183.969174499
 20
203.0271150156
 40
8.5
 50
108.0
 51
142.250076611
  0
ARC
  8
SURFACE
 62
7
  6
CONTINUOUS
 10
169.5657488964
 20
227.9398930065
 40
2.0
 50
121.5924023172
 51
198.0000000035
  0
ARC
  8
0
 62
7
  6
CONTINUOUS
 10
171.2618585917
 20
222.71980412
 40
2.0
 50
198.0
 51
274.4075976794
  0
ARC
  8
0
 62
7
  6
CONTINUOUS
 10
169.5657488964
 20
227.9398930065
 40
2.0
 50
121.5924023206
 51
189.9606126877
  0
ARC
  8
0
 62
7
  6
CONTINUOUS
 10
183.3802526437
 20
212.929800058
 40
1.1
 50
288.0
 51
40.0631844971
  0
ARC
  8
0
 62
7
  6
CONTINUOUS
 10
177.5302865641
 20
219.6940499525
 40
1.0
 50
42.9266505232
 51
84.9352412043
  0
ARC
  8
SURFACE
 62
7
  6
CONTINUOUS
 10
168.2711111847
 20
251.3407860434
 40
8.5
 50
253.749923389
 51
288.0
  0
ARC
  8
0
 62
7
  6
CONTINUOUS
 10
168.2711111281
 20
251.3407861213
 40
8.5
 50
144.0
 51
178.250076611
  0
ARC
  8
0
 62
7
  6
CONTINUOUS
 10
161.9740111129
 20
259.0060670292
 40
1.1
 50
324.0
 51
76.0631844971
  0
ARC
  8
SURFACE
 62
7
  6
CONTINUOUS
 10
173.6153156215
 20
242.9831859729
 40
1.1
 50
355.9368155029
 51
108.0
  0
ARC
  8
SURFACE
 62
7
  6
CONTINUOUS
 10
172.8585199774
 20
234.072269066
 40
1.0
 50
311.0647587957
 51
353.0733494768
  0
ARC
  8
SURFACE
 62
7
  6
CONTINUOUS
 10
218.9572796102
 20
223.1093389158
 40
180.0
 50
209.0733494768
 51
211.9368155029
  0
ARC
  8
0
 62
7
  6
CONTINUOUS
 10
208.3811178625
 20
255.6594178133
 40
180.0
 50
184.0631844971
 51
186.9266505232
  0
ARC
  8
SURFACE
 62
7
  6
CONTINUOUS
 10
184.7730477223
 20
288.1531387314
 40
180.0
 50
245.0733494768
 51
247.9368155029
  0
ARC
  8
SURFACE
 62
7
  6
CONTINUOUS
 10
69.7730477223
 20
95.160032538
 40
3.0
 50
90.0
 51
180.0
  0
ARC
  8
SURFACE
 62
7
  6
CONTINUOUS
 10
133.7730477223
 20
95.160032538
 40
3.0
 50
0.0
 51
90.0
  0
ARC
  8
0
 62
7
  6
CONTINUOUS
 10
133.7730477223
 20
58.860032538
 40
3.0
 50
270.0
 51
360.0
  0
ARC
  8
0
 62
7
  6
CONTINUOUS
 10
69.7730477223
 20
58.860032538
 40
3.0
 50
180.0
 51
270.0
  0
ENDSEC
  0
EOF
