  0
SECTION
  2
HEADER
  9
$EXTMAX
 10
210.0
 20
297.0
 30
0.0
  9
$EXTMIN
 10
0.0
 20
0.0
 30
0.0
  9
$LIMMIN
 10
0.0
 20
0.0
  9
$LIMMAX
 10
210.0
 20
297.0
  9
$VIEWCTR
 10
105.0
 20
148.5
  9
$VIEWSIZE
 40
297.0
  9
$CLAYER
  8
0
  9
$LTSCALE
 40
19.36
  9
$CELTYPE
  6
BYLAYER
  9
$DIMSCALE
 40
1.0
  9
$DIMASZ
 40
3.5
  9
$DIMEXO
 40
1.0
  9
$DIMDLI
 40
13.376
  9
$DIMEXE
 40
2.0
  9
$DIMCEN
 40
3.168
  9
$DIMLFAC
 40
1.0
  9
$DIMBLK
  1
_FILLED
  9
$DIMTXT
 40
3.5
  9
$AUNITS
 70
0
  9
$PDMODE
 70
3
  9
$PDSIZE
 40
0.3125
  9
$TILEMODE
 70
1
  0
ENDSEC
  0
SECTION
  2
TABLES
  0
TABLE
  2
LTYPE
 70
6
  0
LTYPE
  2
BYBLOCK
 70
0
  3

 72
65
 73
0
 40
0.0
  0
LTYPE
  2
BYLAYER
 70
0
  3

 72
65
 73
0
 40
0.0
  0
LTYPE
  2
CONTINUOUS
 70
64
  3
Solid line
 72
65
 73
0
 40
0.0
  0
LTYPE
  2
CENTER
 70
64
  3
____ _ ____ _ ____ _ ____ _ ____ _ ____ _ ____
 72
65
 73
4
 40
0.6
 49
0.375
 49
-0.075
 49
0.075
 49
-0.075
  0
LTYPE
  2
HIDDEN
 70
64
  3
- - - - - - - - - - - - - - - - - - - -
 72
65
 73
2
 40
0.2
 49
0.1
 49
-0.1
  0
LTYPE
  2
PHANTOM
 70
64
  3
_____ _ _ _____ _ _ _____ _ _ _____
 72
65
 73
6
 40
0.8
 49
0.45
 49
-0.05
 49
0.1
 49
-0.05
 49
0.1
 49
-0.05
  0
LTYPE
  2
DOT
 70
64
  3
. . . . . . . . . . . . . . . . . . . .
 72
65
 73
2
 40
0.2
 49
0.1
 49
-0.1
  0
LTYPE
  2
DASHED
 70
64
  3
- - - - - - - - - - - - - - - - - - - -
 72
65
 73
2
 40
0.2
 49
0.1
 49
-0.1
  0
ENDTAB
  0
TABLE
  2
LAYER
 70
36
  0
LAYER
  2
0
 70
0
 62
7
  6
CONTINUOUS
  0
LAYER
  2
DEFAULT_1
 70
0
 62
7
  6
CENTER
  0
LAYER
  2
DEFAULT_2
 70
0
 62
8
  6
HIDDEN
  0
LAYER
  2
DEFAULT_3
 70
0
 62
7
  6
PHANTOM
  0
LAYER
  2
CSYS
 70
0
 62
7
  6
CONTINUOUS
  0
LAYER
  2
CURVE
 70
0
 62
7
  6
CONTINUOUS
  0
LAYER
  2
NOTES
 70
0
 62
7
  6
CONTINUOUS
  0
LAYER
  2
SURFACE
 70
0
 62
7
  6
CONTINUOUS
  0
ENDTAB
  0
TABLE
  2
STYLE
 70
1
  0
STYLE
  2
STANDARD
 70
0
 40
0.0
 41
0.8
 50
0.0
 71
0
 42
0.2
  3
txt
  4

  0
STYLE
  2
TEXTSTYLE_1
 70
0
 40
0.0
 41
0.8
 50
0.0
 71
0
 42
0.2
  3
gdt
  4

  0
STYLE
  2
TEXTSTYLE_2
 70
0
 40
0.0
 41
0.6
 50
0.0
 71
0
 42
0.2
  3
txt
  4

  0
STYLE
  2
TEXTSTYLE_3
 70
0
 40
0.0
 41
1.0
 50
0.0
 71
0
 42
0.2
  3
ftb_____.ttf
  4

  0
STYLE
  2
TEXTSTYLE_4
 70
0
 40
0.0
 41
1.0
 50
0.0
 71
0
 42
0.2
  3
fti_____.ttf
  4

  0
STYLE
  2
TEXTSTYLE_5
 70
0
 40
0.0
 41
1.0
 50
0.0
 71
0
 42
0.2
  3
frutiger light.ttf
  4

  0
STYLE
  2
TEXTSTYLE_6
 70
0
 40
0.0
 41
0.7
 50
0.0
 71
0
 42
0.2
  3
txt
  4

  0
STYLE
  2
TEXTSTYLE_7
 70
0
 40
0.0
 41
0.5
 50
0.0
 71
0
 42
0.2
  3
txt
  4

  0
ENDTAB
  0
ENDSEC
  0
SECTION
  2
BLOCKS
  0
BLOCK
  8
0
 62
2
  6
CONTINUOUS
  2
UNI_LOGO2_BL1
 70
64
 10
173.5956734183
 20
35.5937998301
  0
TEXT
  8
0
 62
7
  6
CONTINUOUS
 10
164.6539584268
 20
30.6865562072
  7
TEXTSTYLE_4
 40
1.0655737705
  1
The brand for plastic modular belts and chains
 41
1.0
 72
0
  0
LINE
  8
0
 62
7
  6
CONTINUOUS
 10
149.5737418074
 20
36.1675703219
 11
149.5737418074
 21
34.0364227809
  0
LINE
  8
0
 62
7
  6
CONTINUOUS
 10
149.8628043005
 20
31.0454914852
 11
149.8628043005
 21
31.1422825445
  0
LINE
  8
0
 62
7
  6
CONTINUOUS
 10
149.5737418074
 20
31.1100188581
 11
149.6315543091
 21
30.9164367395
  0
LINE
  8
0
 62
7
  6
CONTINUOUS
 10
150.9671844304
 20
33.9544555678
 11
150.9671844304
 21
36.1675703219
  0
LINE
  8
0
 62
7
  6
CONTINUOUS
 10
151.8862417523
 20
32.1101932727
 11
151.8862417523
 21
30.5937998301
  0
LINE
  8
0
 62
7
  6
CONTINUOUS
 10
152.1753043074
 20
30.5937998301
 11
152.1753043074
 21
31.3358647082
  0
LINE
  8
0
 62
7
  6
CONTINUOUS
 10
152.1753043074
 20
31.4649194539
 11
152.1753043074
 21
32.1101932727
  0
LINE
  8
0
 62
7
  6
CONTINUOUS
 10
149.6315543091
 20
31.3036010218
 11
149.5737418074
 21
31.1100188581
  0
LINE
  8
0
 62
7
  6
CONTINUOUS
 10
149.9784292936
 20
30.8841730531
 11
149.8628043005
 21
31.0454914852
  0
LINE
  8
0
 62
7
  6
CONTINUOUS
 10
151.0768668626
 20
31.400392081
 11
151.1346793074
 21
31.3036010218
  0
LINE
  8
0
 62
7
  6
CONTINUOUS
 10
151.4237418626
 20
31.3036010218
 11
151.3659292523
 21
31.4326557675
  0
LINE
  8
0
 62
7
  6
CONTINUOUS
 10
152.852430332
 20
36.1675703219
 11
152.852430332
 21
34.3642916334
  0
LINE
  8
0
 62
7
  6
CONTINUOUS
 10
152.852430332
 20
33.0528162235
 11
152.852430332
 21
32.3970785186
  0
LINE
  8
0
 62
7
  6
CONTINUOUS
 10
153.2159293074
 20
31.2390736489
 11
153.2159293074
 21
30.5937998301
  0
LINE
  8
0
 62
7
  6
CONTINUOUS
 10
153.5049916972
 20
30.5937998301
 11
153.5049916972
 21
31.2390736489
  0
LINE
  8
0
 62
7
  6
CONTINUOUS
 10
149.8628043005
 20
31.1422825445
 11
149.9206168074
 21
31.2713373354
  0
LINE
  8
0
 62
7
  6
CONTINUOUS
 10
149.6315543091
 20
30.9164367395
 11
149.7471793074
 21
30.7873819712
  0
LINE
  8
0
 62
7
  6
CONTINUOUS
 10
153.1581166972
 20
31.3681283946
 11
153.2159293074
 21
31.2390736489
  0
LINE
  8
0
 62
7
  6
CONTINUOUS
 10
153.9674919177
 20
30.8841730531
 11
154.0253041972
 21
30.7551182848
  0
LINE
  8
0
 62
7
  6
CONTINUOUS
 10
153.5049916972
 20
31.2390736489
 11
153.4471794177
 21
31.400392081
  0
LINE
  8
0
 62
7
  6
CONTINUOUS
 10
153.9674919177
 20
31.4326557675
 11
153.9674919177
 21
31.3681283946
  0
LINE
  8
0
 62
7
  6
CONTINUOUS
 10
153.9674919177
 20
30.9809641124
 11
153.9674919177
 21
30.8841730531
  0
LINE
  8
0
 62
7
  6
CONTINUOUS
 10
154.245872955
 20
32.3970785186
 11
154.245872955
 21
36.1675703219
  0
LINE
  8
0
 62
7
  6
CONTINUOUS
 10
154.2565543074
 20
30.8519093441
 11
154.2565543074
 21
30.9164367395
  0
LINE
  8
0
 62
7
  6
CONTINUOUS
 10
154.5737418074
 20
36.1675703219
 11
154.5737418074
 21
32.3970785186
  0
LINE
  8
0
 62
7
  6
CONTINUOUS
 10
151.3659292523
 20
30.7873819712
 11
151.4237418626
 21
30.9164367395
  0
LINE
  8
0
 62
7
  6
CONTINUOUS
 10
155.759679528
 20
30.6905909007
 11
155.7018665869
 21
30.8519093441
  0
LINE
  8
0
 62
7
  6
CONTINUOUS
 10
155.412804528
 20
31.3681283946
 11
155.412804528
 21
31.2713373354
  0
LINE
  8
0
 62
7
  6
CONTINUOUS
 10
155.412804528
 20
31.1422825445
 11
155.412804528
 21
30.9487004259
  0
LINE
  8
0
 62
7
  6
CONTINUOUS
 10
155.7018665869
 20
30.8519093441
 11
155.7018665869
 21
31.3681283946
  0
LINE
  8
0
 62
7
  6
CONTINUOUS
 10
155.9671844304
 20
32.3970785186
 11
155.9671844304
 21
34.2003572071
  0
LINE
  8
0
 62
7
  6
CONTINUOUS
 10
155.9671844304
 20
35.511832617
 11
155.9671844304
 21
36.1675703219
  0
LINE
  8
0
 62
7
  6
CONTINUOUS
 10
156.279992028
 20
32.1101932727
 11
156.279992028
 21
31.9488748406
  0
LINE
  8
0
 62
7
  6
CONTINUOUS
 10
156.279992028
 20
31.626237886
 11
156.279992028
 21
30.5937998301
  0
LINE
  8
0
 62
7
  6
CONTINUOUS
 10
156.5690540869
 20
30.5937998301
 11
156.5690540869
 21
31.626237886
  0
LINE
  8
0
 62
7
  6
CONTINUOUS
 10
156.5690540869
 20
31.9488748406
 11
156.5690540869
 21
32.1101932727
  0
LINE
  8
0
 62
7
  6
CONTINUOUS
 10
151.1346793074
 20
30.9164367395
 11
151.0768668626
 21
30.8196456577
  0
LINE
  8
0
 62
7
  6
CONTINUOUS
 10
153.4471794177
 20
31.400392081
 11
153.3893668074
 21
31.4649194539
  0
LINE
  8
0
 62
7
  6
CONTINUOUS
 10
154.3143669177
 20
30.7873819712
 11
154.2565543074
 21
30.8519093441
  0
LINE
  8
0
 62
7
  6
CONTINUOUS
 10
155.4706168074
 20
30.6583272086
 11
155.5284290869
 21
30.5937998301
  0
LINE
  8
0
 62
7
  6
CONTINUOUS
 10
155.412804528
 20
30.7551182848
 11
155.4706168074
 21
30.6583272086
  0
LINE
  8
0
 62
7
  6
CONTINUOUS
 10
155.8174918074
 20
30.5937998301
 11
155.759679528
 21
30.6905909007
  0
LINE
  8
0
 62
7
  6
CONTINUOUS
 10
155.7018665869
 20
31.3681283946
 11
155.6440543074
 21
31.4649194539
  0
LINE
  8
0
 62
7
  6
CONTINUOUS
 10
157.0315543074
 20
31.626237886
 11
157.0315543074
 21
30.5937998301
  0
LINE
  8
0
 62
7
  6
CONTINUOUS
 10
157.320617028
 20
30.5937998301
 11
157.320617028
 21
31.3358647082
  0
LINE
  8
0
 62
7
  6
CONTINUOUS
 10
157.320617028
 20
31.4649194539
 11
157.320617028
 21
31.626237886
  0
LINE
  8
0
 62
7
  6
CONTINUOUS
 10
157.852430332
 20
34.6101932727
 11
157.852430332
 21
32.3970785186
  0
LINE
  8
0
 62
7
  6
CONTINUOUS
 10
149.7471793074
 20
31.4326557675
 11
149.6315543091
 21
31.3036010218
  0
LINE
  8
0
 62
7
  6
CONTINUOUS
 10
149.9206168074
 20
31.2713373354
 11
149.9784292936
 21
31.3358647082
  0
LINE
  8
0
 62
7
  6
CONTINUOUS
 10
149.7471793074
 20
30.7873819712
 11
149.8628043005
 21
30.7228545871
  0
LINE
  8
0
 62
7
  6
CONTINUOUS
 10
150.1518667936
 20
30.7873819712
 11
149.9784292936
 21
30.8841730531
  0
LINE
  8
0
 62
7
  6
CONTINUOUS
 10
155.3549915869
 20
31.4326557675
 11
155.412804528
 21
31.3681283946
  0
LINE
  8
0
 62
7
  6
CONTINUOUS
 10
158.3034290869
 20
31.3681283946
 11
158.361242028
 21
31.2068099625
  0
LINE
  8
0
 62
7
  6
CONTINUOUS
 10
158.6503040869
 20
31.2068099625
 11
158.5924918074
 21
31.3681283946
  0
LINE
  8
0
 62
7
  6
CONTINUOUS
 10
158.361242028
 20
31.2068099625
 11
158.361242028
 21
30.5937998301
  0
LINE
  8
0
 62
7
  6
CONTINUOUS
 10
158.6503040869
 20
30.5937998301
 11
158.6503040869
 21
31.2068099625
  0
LINE
  8
0
 62
7
  6
CONTINUOUS
 10
159.1128043074
 20
31.4326557675
 11
159.1128043074
 21
31.3681283946
  0
LINE
  8
0
 62
7
  6
CONTINUOUS
 10
159.245872955
 20
32.3970785186
 11
159.245872955
 21
34.5282260596
  0
LINE
  8
0
 62
7
  6
CONTINUOUS
 10
159.5737418074
 20
36.1675703219
 11
159.5737418074
 21
32.3970785186
  0
LINE
  8
0
 62
7
  6
CONTINUOUS
 10
154.2565543074
 20
30.9164367395
 11
154.3143669177
 21
31.0132277988
  0
LINE
  8
0
 62
7
  6
CONTINUOUS
 10
149.8628043005
 20
30.7228545871
 11
150.0362418212
 21
30.6583272086
  0
LINE
  8
0
 62
7
  6
CONTINUOUS
 10
151.3659292523
 20
31.4326557675
 11
151.1924917523
 21
31.5294468267
  0
LINE
  8
0
 62
7
  6
CONTINUOUS
 10
154.0253041972
 20
30.7551182848
 11
154.1987416972
 21
30.6583272086
  0
LINE
  8
0
 62
7
  6
CONTINUOUS
 10
153.0424918074
 20
31.4326557675
 11
153.1581166972
 21
31.3681283946
  0
LINE
  8
0
 62
7
  6
CONTINUOUS
 10
153.3893668074
 20
31.4649194539
 11
153.2737419177
 21
31.5294468267
  0
LINE
  8
0
 62
7
  6
CONTINUOUS
 10
159.1128043074
 20
30.8519093441
 11
159.228429528
 21
30.7228545871
  0
LINE
  8
0
 62
7
  6
CONTINUOUS
 10
159.4596793074
 20
30.7873819712
 11
159.401867028
 21
30.8519093441
  0
LINE
  8
0
 62
7
  6
CONTINUOUS
 10
159.1128043074
 20
31.3681283946
 11
159.228429528
 21
31.2390736489
  0
LINE
  8
0
 62
7
  6
CONTINUOUS
 10
158.5924918074
 20
31.3681283946
 11
158.534679528
 21
31.4649194539
  0
LINE
  8
0
 62
7
  6
CONTINUOUS
 10
160.9628038663
 20
30.7873819712
 11
160.9628038663
 21
30.8519093441
  0
LINE
  8
0
 62
7
  6
CONTINUOUS
 10
160.9671844304
 20
32.3970785186
 11
160.9671844304
 21
36.1675703219
  0
LINE
  8
0
 62
7
  6
CONTINUOUS
 10
154.0253041972
 20
31.4971831403
 11
153.9674919177
 21
31.4326557675
  0
LINE
  8
0
 62
7
  6
CONTINUOUS
 10
150.9034292799
 20
31.4649194539
 11
151.0768668626
 21
31.400392081
  0
LINE
  8
0
 62
7
  6
CONTINUOUS
 10
155.6440543074
 20
31.4649194539
 11
155.5284290869
 21
31.5294468267
  0
LINE
  8
0
 62
7
  6
CONTINUOUS
 10
159.4596793074
 20
31.3036010218
 11
159.401867028
 21
31.3681283946
  0
LINE
  8
0
 62
7
  6
CONTINUOUS
 10
160.615929528
 20
30.9164367395
 11
160.6737418074
 21
30.8519093441
  0
LINE
  8
0
 62
7
  6
CONTINUOUS
 10
160.9628038663
 20
30.8519093441
 11
160.8471793074
 21
30.9809641124
  0
LINE
  8
0
 62
7
  6
CONTINUOUS
 10
160.615929528
 20
31.4326557675
 11
160.6737418074
 21
31.3681283946
  0
LINE
  8
0
 62
7
  6
CONTINUOUS
 10
160.9628038663
 20
31.3681283946
 11
160.8471793074
 21
31.4971831403
  0
LINE
  8
0
 62
7
  6
CONTINUOUS
 10
154.2565543074
 20
31.3681283946
 11
154.3143669177
 21
31.4326557675
  0
LINE
  8
0
 62
7
  6
CONTINUOUS
 10
154.0831168074
 20
31.1100188581
 11
153.9674919177
 21
30.9809641124
  0
LINE
  8
0
 62
7
  6
CONTINUOUS
 10
155.412804528
 20
30.9487004259
 11
155.3549915869
 21
30.8841730531
  0
LINE
  8
0
 62
7
  6
CONTINUOUS
 10
155.3549915869
 20
30.6905909007
 11
155.412804528
 21
30.7551182848
  0
LINE
  8
0
 62
7
  6
CONTINUOUS
 10
154.1987416972
 20
30.6583272086
 11
154.3143669177
 21
30.6260635193
  0
LINE
  8
0
 62
7
  6
CONTINUOUS
 10
151.1924917523
 20
31.5294468267
 11
150.9612418074
 21
31.5939741996
  0
LINE
  8
0
 62
7
  6
CONTINUOUS
 10
154.5456166972
 20
30.7228545871
 11
154.3143669177
 21
30.7873819712
  0
LINE
  8
0
 62
7
  6
CONTINUOUS
 10
153.2737419177
 20
31.5294468267
 11
153.1003044177
 21
31.5939741996
  0
LINE
  8
0
 62
7
  6
CONTINUOUS
 10
155.5284290869
 20
31.5294468267
 11
155.3549915869
 21
31.5939741996
  0
LINE
  8
0
 62
7
  6
CONTINUOUS
 10
158.187804528
 20
31.4326557675
 11
158.3034290869
 21
31.3681283946
  0
LINE
  8
0
 62
7
  6
CONTINUOUS
 10
158.534679528
 20
31.4649194539
 11
158.4190543074
 21
31.5294468267
  0
LINE
  8
0
 62
7
  6
CONTINUOUS
 10
150.0362418212
 20
30.6583272086
 11
150.2096793212
 21
30.6260635193
  0
LINE
  8
0
 62
7
  6
CONTINUOUS
 10
150.498741835
 20
30.7228545871
 11
150.1518667936
 21
30.7873819712
  0
LINE
  8
0
 62
7
  6
CONTINUOUS
 10
152.9268669177
 20
31.4649194539
 11
153.0424918074
 21
31.4326557675
  0
LINE
  8
0
 62
7
  6
CONTINUOUS
 10
155.239367028
 20
31.4649194539
 11
155.3549915869
 21
31.4326557675
  0
LINE
  8
0
 62
7
  6
CONTINUOUS
 10
159.575304528
 20
30.7551182848
 11
159.4596793074
 21
30.7873819712
  0
LINE
  8
0
 62
7
  6
CONTINUOUS
 10
158.0721793074
 20
31.4649194539
 11
158.187804528
 21
31.4326557675
  0
LINE
  8
0
 62
7
  6
CONTINUOUS
 10
159.228429528
 20
30.7228545871
 11
159.401867028
 21
30.6583272086
  0
LINE
  8
0
 62
7
  6
CONTINUOUS
 10
158.4190543074
 20
31.5294468267
 11
158.2456168074
 21
31.5939741996
  0
LINE
  8
0
 62
7
  6
CONTINUOUS
 10
159.6331168074
 20
31.2390736489
 11
159.4596793074
 21
31.3036010218
  0
LINE
  8
0
 62
7
  6
CONTINUOUS
 10
160.442492028
 20
30.9809641124
 11
160.615929528
 21
30.9164367395
  0
LINE
  8
0
 62
7
  6
CONTINUOUS
 10
160.8471793074
 20
31.4971831403
 11
160.6737418074
 21
31.5617105132
  0
LINE
  8
0
 62
7
  6
CONTINUOUS
 10
159.228429528
 20
31.2390736489
 11
159.4596793074
 21
31.1422825445
  0
LINE
  8
0
 62
7
  6
CONTINUOUS
 10
160.8471793074
 20
30.9809641124
 11
160.615929528
 21
31.0777551716
  0
LINE
  8
0
 62
7
  6
CONTINUOUS
 10
159.401867028
 20
31.3681283946
 11
159.4596793074
 21
31.4326557675
  0
LINE
  8
0
 62
7
  6
CONTINUOUS
 10
149.8628043005
 20
31.4971831403
 11
149.7471793074
 21
31.4326557675
  0
LINE
  8
0
 62
7
  6
CONTINUOUS
 10
149.9784292936
 20
31.3358647082
 11
150.1518667936
 21
31.4326557675
  0
LINE
  8
0
 62
7
  6
CONTINUOUS
 10
152.2909293626
 20
31.5294468267
 11
152.1753043074
 21
31.4649194539
  0
LINE
  8
0
 62
7
  6
CONTINUOUS
 10
152.1753043074
 20
31.3358647082
 11
152.2909293626
 21
31.400392081
  0
LINE
  8
0
 62
7
  6
CONTINUOUS
 10
151.1924917523
 20
30.6905909007
 11
151.3659292523
 21
30.7873819712
  0
LINE
  8
0
 62
7
  6
CONTINUOUS
 10
150.2096793212
 20
30.6260635193
 11
150.5565542799
 21
30.5937998301
  0
LINE
  8
0
 62
7
  6
CONTINUOUS
 10
154.3143669177
 20
30.6260635193
 11
154.5456166972
 21
30.5937998301
  0
LINE
  8
0
 62
7
  6
CONTINUOUS
 10
152.6956168074
 20
31.4971831403
 11
152.9268669177
 21
31.4649194539
  0
LINE
  8
0
 62
7
  6
CONTINUOUS
 10
155.0081169177
 20
31.4971831403
 11
155.239367028
 21
31.4649194539
  0
LINE
  8
0
 62
7
  6
CONTINUOUS
 10
159.4596793074
 20
31.1422825445
 11
160.442492028
 21
30.9809641124
  0
LINE
  8
0
 62
7
  6
CONTINUOUS
 10
160.615929528
 20
31.0777551716
 11
159.6331168074
 21
31.2390736489
  0
LINE
  8
0
 62
7
  6
CONTINUOUS
 10
153.1003044177
 20
31.5939741996
 11
152.9268669177
 21
31.626237886
  0
LINE
  8
0
 62
7
  6
CONTINUOUS
 10
159.401867028
 20
30.6583272086
 11
159.575304528
 21
30.6260635193
  0
LINE
  8
0
 62
7
  6
CONTINUOUS
 10
158.2456168074
 20
31.5939741996
 11
158.0721793074
 21
31.626237886
  0
LINE
  8
0
 62
7
  6
CONTINUOUS
 10
160.5003043074
 20
31.4649194539
 11
160.615929528
 21
31.4326557675
  0
LINE
  8
0
 62
7
  6
CONTINUOUS
 10
160.6737418074
 20
30.8519093441
 11
160.615929528
 21
30.7873819712
  0
LINE
  8
0
 62
7
  6
CONTINUOUS
 10
159.228429528
 20
31.5294468267
 11
159.1128043074
 21
31.4326557675
  0
LINE
  8
0
 62
7
  6
CONTINUOUS
 10
154.1409294177
 20
31.5617105132
 11
154.0253041972
 21
31.4971831403
  0
LINE
  8
0
 62
7
  6
CONTINUOUS
 10
154.1987416972
 20
31.1745462761
 11
154.0831168074
 21
31.1100188581
  0
LINE
  8
0
 62
7
  6
CONTINUOUS
 10
154.3143669177
 20
31.0132277988
 11
154.4299918074
 21
31.0777551716
  0
LINE
  8
0
 62
7
  6
CONTINUOUS
 10
151.8862417523
 20
30.5937998301
 11
152.1753043074
 21
30.5937998301
  0
LINE
  8
0
 62
7
  6
CONTINUOUS
 10
153.2159293074
 20
30.5937998301
 11
153.5049916972
 21
30.5937998301
  0
LINE
  8
0
 62
7
  6
CONTINUOUS
 10
154.5456166972
 20
30.5937998301
 11
154.8924916972
 21
30.5937998301
  0
LINE
  8
0
 62
7
  6
CONTINUOUS
 10
155.5284290869
 20
30.5937998301
 11
155.8174918074
 21
30.5937998301
  0
LINE
  8
0
 62
7
  6
CONTINUOUS
 10
156.279992028
 20
30.5937998301
 11
156.5690540869
 21
30.5937998301
  0
LINE
  8
0
 62
7
  6
CONTINUOUS
 10
157.0315543074
 20
30.5937998301
 11
157.320617028
 21
30.5937998301
  0
LINE
  8
0
 62
7
  6
CONTINUOUS
 10
158.361242028
 20
30.5937998301
 11
158.6503040869
 21
30.5937998301
  0
LINE
  8
0
 62
7
  6
CONTINUOUS
 10
159.922179528
 20
30.5937998301
 11
160.269054528
 21
30.5937998301
  0
LINE
  8
0
 62
7
  6
CONTINUOUS
 10
160.269054528
 20
30.7228545871
 11
159.922179528
 21
30.7228545871
  0
LINE
  8
0
 62
7
  6
CONTINUOUS
 10
154.8924916972
 20
30.7228545871
 11
154.5456166972
 21
30.7228545871
  0
LINE
  8
0
 62
7
  6
CONTINUOUS
 10
159.401867028
 20
30.8519093441
 11
159.1128043074
 21
30.8519093441
  0
LINE
  8
0
 62
7
  6
CONTINUOUS
 10
151.4237418626
 20
30.9164367395
 11
151.1346793074
 21
30.9164367395
  0
LINE
  8
0
 62
7
  6
CONTINUOUS
 10
150.498741835
 20
31.4971831403
 11
150.9034292799
 21
31.4649194539
  0
LINE
  8
0
 62
7
  6
CONTINUOUS
 10
150.9612418074
 20
31.5939741996
 11
150.5565542799
 21
31.626237886
  0
LINE
  8
0
 62
7
  6
CONTINUOUS
 10
159.575304528
 20
30.6260635193
 11
159.922179528
 21
30.5937998301
  0
LINE
  8
0
 62
7
  6
CONTINUOUS
 10
159.922179528
 20
30.7228545871
 11
159.575304528
 21
30.7551182848
  0
LINE
  8
0
 62
7
  6
CONTINUOUS
 10
155.3549915869
 20
31.5939741996
 11
155.0081169177
 21
31.626237886
  0
LINE
  8
0
 62
7
  6
CONTINUOUS
 10
160.1534293074
 20
31.4971831403
 11
160.5003043074
 21
31.4649194539
  0
LINE
  8
0
 62
7
  6
CONTINUOUS
 10
160.5003043074
 20
31.5939741996
 11
160.1534293074
 21
31.626237886
  0
LINE
  8
0
 62
7
  6
CONTINUOUS
 10
157.840929528
 20
31.4971831403
 11
158.0721793074
 21
31.4649194539
  0
LINE
  8
0
 62
7
  6
CONTINUOUS
 10
160.6737418074
 20
31.5617105132
 11
160.5003043074
 21
31.5939741996
  0
LINE
  8
0
 62
7
  6
CONTINUOUS
 10
160.8471793074
 20
30.6905909007
 11
160.9628038663
 21
30.7873819712
  0
LINE
  8
0
 62
7
  6
CONTINUOUS
 10
155.3549915869
 20
30.8841730531
 11
155.1815540869
 21
30.7873819712
  0
LINE
  8
0
 62
7
  6
CONTINUOUS
 10
157.4362415869
 20
31.5294468267
 11
157.320617028
 21
31.4649194539
  0
LINE
  8
0
 62
7
  6
CONTINUOUS
 10
157.320617028
 20
31.3358647082
 11
157.4362415869
 21
31.400392081
  0
LINE
  8
0
 62
7
  6
CONTINUOUS
 10
150.0362418212
 20
31.5617105132
 11
149.8628043005
 21
31.4971831403
  0
LINE
  8
0
 62
7
  6
CONTINUOUS
 10
152.4643666972
 20
31.5939741996
 11
152.2909293626
 21
31.5294468267
  0
LINE
  8
0
 62
7
  6
CONTINUOUS
 10
152.2909293626
 20
31.400392081
 11
152.4643666972
 21
31.4649194539
  0
LINE
  8
0
 62
7
  6
CONTINUOUS
 10
151.0768668626
 20
30.8196456577
 11
150.9034292799
 21
30.7551182848
  0
LINE
  8
0
 62
7
  6
CONTINUOUS
 10
160.5003043074
 20
30.7551182848
 11
160.269054528
 21
30.7228545871
  0
LINE
  8
0
 62
7
  6
CONTINUOUS
 10
154.8924916972
 20
30.5937998301
 11
155.1815540869
 21
30.6260635193
  0
LINE
  8
0
 62
7
  6
CONTINUOUS
 10
160.269054528
 20
30.5937998301
 11
160.615929528
 21
30.6260635193
  0
LINE
  8
0
 62
7
  6
CONTINUOUS
 10
150.5565542799
 20
30.5937998301
 11
150.9612418074
 21
30.6260635193
  0
LINE
  8
0
 62
7
  6
CONTINUOUS
 10
150.9034292799
 20
30.7551182848
 11
150.498741835
 21
30.7228545871
  0
LINE
  8
0
 62
7
  6
CONTINUOUS
 10
154.7768668074
 20
31.1422825445
 11
155.412804528
 21
31.1422825445
  0
LINE
  8
0
 62
7
  6
CONTINUOUS
 10
155.412804528
 20
31.2713373354
 11
154.7768668074
 21
31.2713373354
  0
LINE
  8
0
 62
7
  6
CONTINUOUS
 10
151.1346793074
 20
31.3036010218
 11
151.4237418626
 21
31.3036010218
  0
LINE
  8
0
 62
7
  6
CONTINUOUS
 10
153.9674919177
 20
31.3681283946
 11
154.2565543074
 21
31.3681283946
  0
LINE
  8
0
 62
7
  6
CONTINUOUS
 10
160.6737418074
 20
31.3681283946
 11
160.9628038663
 21
31.3681283946
  0
LINE
  8
0
 62
7
  6
CONTINUOUS
 10
154.6612419177
 20
31.4971831403
 11
155.0081169177
 21
31.4971831403
  0
LINE
  8
0
 62
7
  6
CONTINUOUS
 10
159.8065543074
 20
31.4971831403
 11
160.1534293074
 21
31.4971831403
  0
LINE
  8
0
 62
7
  6
CONTINUOUS
 10
160.1534293074
 20
31.626237886
 11
159.8065543074
 21
31.626237886
  0
LINE
  8
0
 62
7
  6
CONTINUOUS
 10
158.0721793074
 20
31.626237886
 11
157.840929528
 21
31.626237886
  0
LINE
  8
0
 62
7
  6
CONTINUOUS
 10
157.320617028
 20
31.626237886
 11
157.0315543074
 21
31.626237886
  0
LINE
  8
0
 62
7
  6
CONTINUOUS
 10
156.5690540869
 20
31.626237886
 11
156.279992028
 21
31.626237886
  0
LINE
  8
0
 62
7
  6
CONTINUOUS
 10
155.0081169177
 20
31.626237886
 11
154.6612419177
 21
31.626237886
  0
LINE
  8
0
 62
7
  6
CONTINUOUS
 10
152.9268669177
 20
31.626237886
 11
152.6956168074
 21
31.626237886
  0
LINE
  8
0
 62
7
  6
CONTINUOUS
 10
156.279992028
 20
31.9488748406
 11
156.5690540869
 21
31.9488748406
  0
LINE
  8
0
 62
7
  6
CONTINUOUS
 10
156.5690540869
 20
32.1101932727
 11
156.279992028
 21
32.1101932727
  0
LINE
  8
0
 62
7
  6
CONTINUOUS
 10
152.1753043074
 20
32.1101932727
 11
151.8862417523
 21
32.1101932727
  0
LINE
  8
0
 62
7
  6
CONTINUOUS
 10
151.2130860697
 20
32.3970785186
 11
151.6256574183
 21
32.3970785186
  0
LINE
  8
0
 62
7
  6
CONTINUOUS
 10
152.852430332
 20
32.3970785186
 11
154.245872955
 21
32.3970785186
  0
LINE
  8
0
 62
7
  6
CONTINUOUS
 10
154.5737418074
 20
32.3970785186
 11
155.9671844304
 21
32.3970785186
  0
LINE
  8
0
 62
7
  6
CONTINUOUS
 10
157.852430332
 20
32.3970785186
 11
159.245872955
 21
32.3970785186
  0
LINE
  8
0
 62
7
  6
CONTINUOUS
 10
159.5737418074
 20
32.3970785186
 11
160.9671844304
 21
32.3970785186
  0
LINE
  8
0
 62
7
  6
CONTINUOUS
 10
157.6096790869
 20
31.5939741996
 11
157.4362415869
 21
31.5294468267
  0
LINE
  8
0
 62
7
  6
CONTINUOUS
 10
155.1815540869
 20
30.6260635193
 11
155.3549915869
 21
30.6905909007
  0
LINE
  8
0
 62
7
  6
CONTINUOUS
 10
160.615929528
 20
30.6260635193
 11
160.8471793074
 21
30.6905909007
  0
LINE
  8
0
 62
7
  6
CONTINUOUS
 10
160.615929528
 20
30.7873819712
 11
160.5003043074
 21
30.7551182848
  0
LINE
  8
0
 62
7
  6
CONTINUOUS
 10
159.575304528
 20
31.4649194539
 11
159.8065543074
 21
31.4971831403
  0
LINE
  8
0
 62
7
  6
CONTINUOUS
 10
157.6096790869
 20
31.4649194539
 11
157.840929528
 21
31.4971831403
  0
LINE
  8
0
 62
7
  6
CONTINUOUS
 10
154.5456166972
 20
31.1100188581
 11
154.7768668074
 21
31.1422825445
  0
LINE
  8
0
 62
7
  6
CONTINUOUS
 10
157.840929528
 20
31.626237886
 11
157.6096790869
 21
31.5939741996
  0
LINE
  8
0
 62
7
  6
CONTINUOUS
 10
154.4299918074
 20
31.4649194539
 11
154.6612419177
 21
31.4971831403
  0
LINE
  8
0
 62
7
  6
CONTINUOUS
 10
159.8065543074
 20
31.626237886
 11
159.4596793074
 21
31.5939741996
  0
LINE
  8
0
 62
7
  6
CONTINUOUS
 10
154.7768668074
 20
31.2713373354
 11
154.4299918074
 21
31.2390736489
  0
LINE
  8
0
 62
7
  6
CONTINUOUS
 10
150.5565542799
 20
31.626237886
 11
150.2096793212
 21
31.5939741996
  0
LINE
  8
0
 62
7
  6
CONTINUOUS
 10
154.6612419177
 20
31.626237886
 11
154.2565543074
 21
31.5939741996
  0
LINE
  8
0
 62
7
  6
CONTINUOUS
 10
152.0327582009
 20
33.5446195022
 11
151.3770204959
 21
33.5446195022
  0
LINE
  8
0
 62
7
  6
CONTINUOUS
 10
157.4362415869
 20
31.400392081
 11
157.6096790869
 21
31.4649194539
  0
LINE
  8
0
 62
7
  6
CONTINUOUS
 10
159.4596793074
 20
31.4326557675
 11
159.575304528
 21
31.4649194539
  0
LINE
  8
0
 62
7
  6
CONTINUOUS
 10
159.4596793074
 20
31.5939741996
 11
159.228429528
 21
31.5294468267
  0
LINE
  8
0
 62
7
  6
CONTINUOUS
 10
155.1815540869
 20
30.7873819712
 11
154.8924916972
 21
30.7228545871
  0
LINE
  8
0
 62
7
  6
CONTINUOUS
 10
152.4643666972
 20
31.4649194539
 11
152.6956168074
 21
31.4971831403
  0
LINE
  8
0
 62
7
  6
CONTINUOUS
 10
152.6956168074
 20
31.626237886
 11
152.4643666972
 21
31.5939741996
  0
LINE
  8
0
 62
7
  6
CONTINUOUS
 10
150.2674918074
 20
31.4649194539
 11
150.498741835
 21
31.4971831403
  0
LINE
  8
0
 62
7
  6
CONTINUOUS
 10
156.7868565615
 20
35.0200293383
 11
157.4425942664
 21
35.0200293383
  0
LINE
  8
0
 62
7
  6
CONTINUOUS
 10
154.4299918074
 20
31.0777551716
 11
154.5456166972
 21
31.1100188581
  0
LINE
  8
0
 62
7
  6
CONTINUOUS
 10
154.4299918074
 20
31.2390736489
 11
154.1987416972
 21
31.1745462761
  0
LINE
  8
0
 62
7
  6
CONTINUOUS
 10
154.3143669177
 20
31.4326557675
 11
154.4299918074
 21
31.4649194539
  0
LINE
  8
0
 62
7
  6
CONTINUOUS
 10
150.9612418074
 20
30.6260635193
 11
151.1924917523
 21
30.6905909007
  0
LINE
  8
0
 62
7
  6
CONTINUOUS
 10
154.2565543074
 20
31.5939741996
 11
154.1409294177
 21
31.5617105132
  0
LINE
  8
0
 62
7
  6
CONTINUOUS
 10
150.2096793212
 20
31.5939741996
 11
150.0362418212
 21
31.5617105132
  0
LINE
  8
0
 62
7
  6
CONTINUOUS
 10
160.9671844304
 20
36.1675703219
 11
159.5737418074
 21
36.1675703219
  0
LINE
  8
0
 62
7
  6
CONTINUOUS
 10
157.6065286927
 20
36.1675703219
 11
157.1939573441
 21
36.1675703219
  0
LINE
  8
0
 62
7
  6
CONTINUOUS
 10
155.9671844304
 20
36.1675703219
 11
154.5737418074
 21
36.1675703219
  0
LINE
  8
0
 62
7
  6
CONTINUOUS
 10
154.245872955
 20
36.1675703219
 11
152.852430332
 21
36.1675703219
  0
LINE
  8
0
 62
7
  6
CONTINUOUS
 10
150.9671844304
 20
36.1675703219
 11
149.5737418074
 21
36.1675703219
  0
LINE
  8
0
 62
7
  6
CONTINUOUS
 10
150.1518667936
 20
31.4326557675
 11
150.2674918074
 21
31.4649194539
  0
CIRCLE
  8
0
 62
7
  6
CONTINUOUS
 10
160.2704631189
 20
38.5036358957
 40
2.0901639344
  0
ARC
  8
0
 62
7
  6
CONTINUOUS
 10
151.2130860697
 20
34.0364227809
 40
1.6393442623
 50
180.0
 51
270.0
  0
ARC
  8
0
 62
7
  6
CONTINUOUS
 10
157.6065286927
 20
34.5282260596
 40
1.6393442623
 50
0.0
 51
90.0
  0
ARC
  8
0
 62
7
  6
CONTINUOUS
 10
151.6256574183
 20
33.8724883547
 40
1.4754098361
 50
270.0
 51
326.2510114041
  0
ARC
  8
0
 62
7
  6
CONTINUOUS
 10
157.1939573441
 20
34.6921604858
 40
1.4754098361
 50
90.0
 51
146.2510114041
  0
ARC
  8
0
 62
7
  6
CONTINUOUS
 10
152.0327582009
 20
34.3642916334
 40
0.8196721311
 50
270.0
 51
360.0
  0
ARC
  8
0
 62
7
  6
CONTINUOUS
 10
156.7868565615
 20
34.2003572071
 40
0.8196721311
 50
90.0
 51
180.0
  0
ARC
  8
0
 62
7
  6
CONTINUOUS
 10
151.3770204959
 20
33.9544555678
 40
0.4098360656
 50
180.0
 51
270.0
  0
ARC
  8
0
 62
7
  6
CONTINUOUS
 10
157.4425942664
 20
34.6101932727
 40
0.4098360656
 50
0.0
 51
90.0
  0
SOLID
  8
0
 62
7
  6
CONTINUOUS
 10
156.279992028
 20
31.9488752009
 11
156.279992028
 21
32.1101936845
 12
156.5690540869
 22
31.9488752009
 13
156.5690540869
 23
32.1101936845
  0
SOLID
  8
0
 62
7
  6
CONTINUOUS
 10
150.5565542799
 20
31.6262382337
 11
150.9612418074
 21
31.5939740028
 12
150.2096793212
 22
31.5939740028
 13
150.2096793212
 23
31.5939740028
  0
SOLID
  8
0
 62
7
  6
CONTINUOUS
 10
150.0362418212
 20
31.5617111435
 11
150.2096793212
 21
31.5939740028
 12
150.9612418074
 22
31.5939740028
 13
150.9612418074
 23
31.5939740028
  0
SOLID
  8
0
 62
7
  6
CONTINUOUS
 10
150.9612418074
 20
31.5939740028
 11
151.1924917523
 21
31.5294468402
 12
150.0362418212
 22
31.5617111435
 13
150.0362418212
 23
31.5617111435
  0
SOLID
  8
0
 62
7
  6
CONTINUOUS
 10
149.8628043005
 20
31.49718259
 11
150.0362418212
 21
31.5617111435
 12
151.1924917523
 22
31.5294468402
 13
151.1924917523
 23
31.5294468402
  0
SOLID
  8
0
 62
7
  6
CONTINUOUS
 10
149.8628043005
 20
31.49718259
 11
151.1924917523
 21
31.5294468402
 12
150.498741835
 22
31.49718259
 13
150.498741835
 23
31.49718259
  0
SOLID
  8
0
 62
7
  6
CONTINUOUS
 10
150.498741835
 20
31.49718259
 11
151.1924917523
 21
31.5294468402
 12
150.9034292799
 22
31.4649197501
 13
150.9034292799
 23
31.4649197501
  0
SOLID
  8
0
 62
7
  6
CONTINUOUS
 10
151.1924917523
 20
31.5294468402
 11
151.3659292523
 21
31.4326554468
 12
150.9034292799
 22
31.4649197501
 13
150.9034292799
 23
31.4649197501
  0
SOLID
  8
0
 62
7
  6
CONTINUOUS
 10
151.0768668626
 20
31.4003926599
 11
150.9034292799
 21
31.4649197501
 12
151.3659292523
 22
31.4326554468
 13
151.3659292523
 23
31.4326554468
  0
SOLID
  8
0
 62
7
  6
CONTINUOUS
 10
151.0768668626
 20
31.4003926599
 11
151.3659292523
 21
31.4326554468
 12
151.1346793074
 22
31.3036013776
 13
151.1346793074
 23
31.3036013776
  0
SOLID
  8
0
 62
7
  6
CONTINUOUS
 10
151.3659292523
 20
31.4326554468
 11
151.4237418626
 21
31.3036013776
 12
151.1346793074
 22
31.3036013776
 13
151.1346793074
 23
31.3036013776
  0
SOLID
  8
0
 62
7
  6
CONTINUOUS
 10
152.4643666972
 20
31.5939739754
 11
152.6956168074
 21
31.6262382787
 12
152.9268669177
 22
31.6262382787
 13
152.9268669177
 23
31.6262382787
  0
SOLID
  8
0
 62
7
  6
CONTINUOUS
 10
152.9268669177
 20
31.6262382787
 11
153.1003044177
 21
31.5939739754
 12
152.4643666972
 22
31.5939739754
 13
152.4643666972
 23
31.5939739754
  0
SOLID
  8
0
 62
7
  6
CONTINUOUS
 10
152.2909293626
 20
31.5294468852
 11
152.4643666972
 21
31.5939739754
 12
153.1003044177
 22
31.5939739754
 13
153.1003044177
 23
31.5939739754
  0
SOLID
  8
0
 62
7
  6
CONTINUOUS
 10
153.1003044177
 20
31.5939739754
 11
153.2737419177
 21
31.5294468852
 12
152.2909293626
 22
31.5294468852
 13
152.2909293626
 23
31.5294468852
  0
SOLID
  8
0
 62
7
  6
CONTINUOUS
 10
153.2737419177
 20
31.5294468852
 11
152.6956168074
 21
31.4971825369
 12
152.2909293626
 22
31.5294468852
 13
152.2909293626
 23
31.5294468852
  0
SOLID
  8
0
 62
7
  6
CONTINUOUS
 10
152.1753043074
 20
31.4649197951
 11
152.2909293626
 21
31.5294468852
 12
152.6956168074
 22
31.4971825369
 13
152.6956168074
 23
31.4971825369
  0
SOLID
  8
0
 62
7
  6
CONTINUOUS
 10
152.6956168074
 20
31.4971825369
 11
152.4643666972
 21
31.4649197951
 12
152.1753043074
 22
31.4649197951
 13
152.1753043074
 23
31.4649197951
  0
SOLID
  8
0
 62
7
  6
CONTINUOUS
 10
152.6956168074
 20
31.4971825369
 11
153.2737419177
 21
31.5294468852
 12
152.9268669177
 22
31.4649197951
 13
152.9268669177
 23
31.4649197951
  0
SOLID
  8
0
 62
7
  6
CONTINUOUS
 10
153.2737419177
 20
31.5294468852
 11
153.3893668074
 21
31.4649197951
 12
152.9268669177
 22
31.4649197951
 13
152.9268669177
 23
31.4649197951
  0
SOLID
  8
0
 62
7
  6
CONTINUOUS
 10
153.0424918074
 20
31.4326554468
 11
152.9268669177
 21
31.4649197951
 12
153.3893668074
 22
31.4649197951
 13
153.3893668074
 23
31.4649197951
  0
SOLID
  8
0
 62
7
  6
CONTINUOUS
 10
153.3893668074
 20
31.4649197951
 11
153.4471794177
 21
31.4003927049
 12
153.0424918074
 22
31.4326554468
 13
153.0424918074
 23
31.4326554468
  0
SOLID
  8
0
 62
7
  6
CONTINUOUS
 10
153.1581166972
 20
31.3681283566
 11
153.0424918074
 21
31.4326554468
 12
153.4471794177
 22
31.4003927049
 13
153.4471794177
 23
31.4003927049
  0
SOLID
  8
0
 62
7
  6
CONTINUOUS
 10
153.1581166972
 20
31.3681283566
 11
153.4471794177
 21
31.4003927049
 12
153.2159293074
 22
31.2390742213
 13
153.2159293074
 23
31.2390742213
  0
SOLID
  8
0
 62
7
  6
CONTINUOUS
 10
153.4471794177
 20
31.4003927049
 11
153.5049916972
 21
31.2390742213
 12
153.2159293074
 22
31.2390742213
 13
153.2159293074
 23
31.2390742213
  0
SOLID
  8
0
 62
7
  6
CONTINUOUS
 10
152.4643666972
 20
31.4649197951
 11
152.2909293626
 21
31.4003927049
 12
152.1753043074
 22
31.4649197951
 13
152.1753043074
 23
31.4649197951
  0
SOLID
  8
0
 62
7
  6
CONTINUOUS
 10
152.2909293626
 20
31.4003927049
 11
152.1753043074
 21
31.3358640533
 12
152.1753043074
 22
31.4649197951
 13
152.1753043074
 23
31.4649197951
  0
SOLID
  8
0
 62
7
  6
CONTINUOUS
 10
152.1753043074
 20
31.3358640533
 11
151.8862417523
 21
30.5938002869
 12
152.1753043074
 22
31.4649197951
 13
152.1753043074
 23
31.4649197951
  0
SOLID
  8
0
 62
7
  6
CONTINUOUS
 10
152.1753043074
 20
31.4649197951
 11
151.8862417523
 21
30.5938002869
 12
152.1753043074
 22
32.1101937295
 13
152.1753043074
 23
32.1101937295
  0
SOLID
  8
0
 62
7
  6
CONTINUOUS
 10
151.8862417523
 20
30.5938002869
 11
151.8862417523
 21
32.1101937295
 12
152.1753043074
 22
32.1101937295
 13
152.1753043074
 23
32.1101937295
  0
SOLID
  8
0
 62
7
  6
CONTINUOUS
 10
152.1753043074
 20
31.3358640533
 11
152.1753043074
 21
30.5938002869
 12
151.8862417523
 22
30.5938002869
 13
151.8862417523
 23
30.5938002869
  0
SOLID
  8
0
 62
7
  6
CONTINUOUS
 10
153.2159293074
 20
30.5938002869
 11
153.2159293074
 21
31.2390742213
 12
153.5049916972
 22
31.2390742213
 13
153.5049916972
 23
31.2390742213
  0
SOLID
  8
0
 62
7
  6
CONTINUOUS
 10
153.5049916972
 20
31.2390742213
 11
153.5049916972
 21
30.5938002869
 12
153.2159293074
 22
30.5938002869
 13
153.2159293074
 23
30.5938002869
  0
SOLID
  8
0
 62
7
  6
CONTINUOUS
 10
154.2565543074
 20
31.5939738288
 11
154.6612419177
 21
31.6262385959
 12
155.0081169177
 22
31.6262385959
 13
155.0081169177
 23
31.6262385959
  0
SOLID
  8
0
 62
7
  6
CONTINUOUS
 10
155.0081169177
 20
31.6262385959
 11
155.3549915869
 21
31.5939738288
 12
154.2565543074
 22
31.5939738288
 13
154.2565543074
 23
31.5939738288
  0
SOLID
  8
0
 62
7
  6
CONTINUOUS
 10
154.1409294177
 20
31.5617111435
 11
154.2565543074
 21
31.5939738288
 12
155.3549915869
 22
31.5939738288
 13
155.3549915869
 23
31.5939738288
  0
SOLID
  8
0
 62
7
  6
CONTINUOUS
 10
155.3549915869
 20
31.5939738288
 11
155.5284290869
 21
31.5294468402
 12
154.1409294177
 22
31.5617111435
 13
154.1409294177
 23
31.5617111435
  0
SOLID
  8
0
 62
7
  6
CONTINUOUS
 10
154.0253041972
 20
31.4971826249
 11
154.1409294177
 21
31.5617111435
 12
155.5284290869
 22
31.5294468402
 13
155.5284290869
 23
31.5294468402
  0
SOLID
  8
0
 62
7
  6
CONTINUOUS
 10
154.0253041972
 20
31.4971826249
 11
155.5284290869
 21
31.5294468402
 12
154.6612419177
 22
31.4971826249
 13
154.6612419177
 23
31.4971826249
  0
SOLID
  8
0
 62
7
  6
CONTINUOUS
 10
154.6612419177
 20
31.4971826249
 11
155.5284290869
 21
31.5294468402
 12
155.0081169177
 22
31.4971826249
 13
155.0081169177
 23
31.4971826249
  0
SOLID
  8
0
 62
7
  6
CONTINUOUS
 10
155.0081169177
 20
31.4971826249
 11
155.5284290869
 21
31.5294468402
 12
155.239367028
 22
31.4649194065
 13
155.239367028
 23
31.4649194065
  0
SOLID
  8
0
 62
7
  6
CONTINUOUS
 10
155.5284290869
 20
31.5294468402
 11
155.6440543074
 21
31.4649194065
 12
155.239367028
 22
31.4649194065
 13
155.239367028
 23
31.4649194065
  0
SOLID
  8
0
 62
7
  6
CONTINUOUS
 10
153.9674919177
 20
31.4326554138
 11
154.0253041972
 21
31.4971826249
 12
154.6612419177
 22
31.4971826249
 13
154.6612419177
 23
31.4971826249
  0
SOLID
  8
0
 62
7
  6
CONTINUOUS
 10
155.3549915869
 20
31.4326554138
 11
155.239367028
 21
31.4649194065
 12
155.6440543074
 22
31.4649194065
 13
155.6440543074
 23
31.4649194065
  0
SOLID
  8
0
 62
7
  6
CONTINUOUS
 10
155.3549915869
 20
31.4326554138
 11
155.6440543074
 21
31.4649194065
 12
155.412804528
 22
31.3681282026
 13
155.412804528
 23
31.3681282026
  0
SOLID
  8
0
 62
7
  6
CONTINUOUS
 10
155.6440543074
 20
31.4649194065
 11
155.7018665869
 21
31.3681282026
 12
155.412804528
 22
31.3681282026
 13
155.412804528
 23
31.3681282026
  0
SOLID
  8
0
 62
7
  6
CONTINUOUS
 10
155.412804528
 20
31.2713369632
 11
155.412804528
 21
31.3681282026
 12
155.7018665869
 22
31.3681282026
 13
155.7018665869
 23
31.3681282026
  0
SOLID
  8
0
 62
7
  6
CONTINUOUS
 10
155.412804528
 20
31.2713369632
 11
155.7018665869
 21
31.3681282026
 12
155.412804528
 22
31.1422827828
 13
155.412804528
 23
31.1422827828
  0
SOLID
  8
0
 62
7
  6
CONTINUOUS
 10
155.412804528
 20
31.1422827828
 11
155.7018665869
 21
31.3681282026
 12
155.412804528
 22
30.9487004259
 13
155.412804528
 23
30.9487004259
  0
SOLID
  8
0
 62
7
  6
CONTINUOUS
 10
155.7018665869
 20
31.3681282026
 11
155.7018665869
 21
30.8519086025
 12
155.412804528
 22
30.9487004259
 13
155.412804528
 23
30.9487004259
  0
SOLID
  8
0
 62
7
  6
CONTINUOUS
 10
157.6096790869
 20
31.5939736268
 11
157.840929528
 21
31.6262383465
 12
158.0721793074
 22
31.6262383465
 13
158.0721793074
 23
31.6262383465
  0
SOLID
  8
0
 62
7
  6
CONTINUOUS
 10
158.0721793074
 20
31.6262383465
 11
158.2456168074
 21
31.5939736268
 12
157.6096790869
 22
31.5939736268
 13
157.6096790869
 23
31.5939736268
  0
SOLID
  8
0
 62
7
  6
CONTINUOUS
 10
157.4362415869
 20
31.5294472848
 11
157.6096790869
 21
31.5939736268
 12
158.2456168074
 22
31.5939736268
 13
158.2456168074
 23
31.5939736268
  0
SOLID
  8
0
 62
7
  6
CONTINUOUS
 10
158.2456168074
 20
31.5939736268
 11
158.4190543074
 21
31.5294472848
 12
157.4362415869
 22
31.5294472848
 13
157.4362415869
 23
31.5294472848
  0
SOLID
  8
0
 62
7
  6
CONTINUOUS
 10
158.4190543074
 20
31.5294472848
 11
157.840929528
 21
31.4971825369
 12
157.4362415869
 22
31.5294472848
 13
157.4362415869
 23
31.5294472848
  0
SOLID
  8
0
 62
7
  6
CONTINUOUS
 10
157.320617028
 20
31.4649199103
 11
157.4362415869
 21
31.5294472848
 12
157.840929528
 22
31.4971825369
 13
157.840929528
 23
31.4971825369
  0
SOLID
  8
0
 62
7
  6
CONTINUOUS
 10
157.840929528
 20
31.4971825369
 11
157.6096790869
 21
31.4649199103
 12
157.320617028
 22
31.4649199103
 13
157.320617028
 23
31.4649199103
  0
SOLID
  8
0
 62
7
  6
CONTINUOUS
 10
157.840929528
 20
31.4971825369
 11
158.4190543074
 21
31.5294472848
 12
158.0721793074
 22
31.4649199103
 13
158.0721793074
 23
31.4649199103
  0
SOLID
  8
0
 62
7
  6
CONTINUOUS
 10
158.4190543074
 20
31.5294472848
 11
158.534679528
 21
31.4649199103
 12
158.0721793074
 22
31.4649199103
 13
158.0721793074
 23
31.4649199103
  0
SOLID
  8
0
 62
7
  6
CONTINUOUS
 10
158.187804528
 20
31.4326554468
 11
158.0721793074
 21
31.4649199103
 12
158.534679528
 22
31.4649199103
 13
158.534679528
 23
31.4649199103
  0
SOLID
  8
0
 62
7
  6
CONTINUOUS
 10
158.187804528
 20
31.4326554468
 11
158.534679528
 21
31.4649199103
 12
158.3034290869
 22
31.3681288486
 13
158.3034290869
 23
31.3681288486
  0
SOLID
  8
0
 62
7
  6
CONTINUOUS
 10
158.534679528
 20
31.4649199103
 11
158.5924918074
 21
31.3681288486
 12
158.3034290869
 22
31.3681288486
 13
158.3034290869
 23
31.3681288486
  0
SOLID
  8
0
 62
7
  6
CONTINUOUS
 10
158.361242028
 20
31.2068093799
 11
158.3034290869
 21
31.3681288486
 12
158.5924918074
 22
31.3681288486
 13
158.5924918074
 23
31.3681288486
  0
SOLID
  8
0
 62
7
  6
CONTINUOUS
 10
158.5924918074
 20
31.3681288486
 11
158.6503040869
 21
31.2068093799
 12
158.361242028
 22
31.2068093799
 13
158.361242028
 23
31.2068093799
  0
SOLID
  8
0
 62
7
  6
CONTINUOUS
 10
157.6096790869
 20
31.4649199103
 11
157.4362415869
 21
31.4003926599
 12
157.320617028
 22
31.4649199103
 13
157.320617028
 23
31.4649199103
  0
SOLID
  8
0
 62
7
  6
CONTINUOUS
 10
157.4362415869
 20
31.4003926599
 11
157.320617028
 21
31.3358640533
 12
157.320617028
 22
31.4649199103
 13
157.320617028
 23
31.4649199103
  0
SOLID
  8
0
 62
7
  6
CONTINUOUS
 10
157.320617028
 20
31.3358640533
 11
157.0315543074
 21
30.5938003547
 12
157.320617028
 22
31.4649199103
 13
157.320617028
 23
31.4649199103
  0
SOLID
  8
0
 62
7
  6
CONTINUOUS
 10
157.320617028
 20
31.4649199103
 11
157.0315543074
 21
30.5938003547
 12
157.320617028
 22
31.6262383465
 13
157.320617028
 23
31.6262383465
  0
SOLID
  8
0
 62
7
  6
CONTINUOUS
 10
157.0315543074
 20
30.5938003547
 11
157.0315543074
 21
31.6262383465
 12
157.320617028
 22
31.6262383465
 13
157.320617028
 23
31.6262383465
  0
SOLID
  8
0
 62
7
  6
CONTINUOUS
 10
157.320617028
 20
31.3358640533
 11
157.320617028
 21
30.5938003547
 12
157.0315543074
 22
30.5938003547
 13
157.0315543074
 23
30.5938003547
  0
SOLID
  8
0
 62
7
  6
CONTINUOUS
 10
158.361242028
 20
30.5938003547
 11
158.361242028
 21
31.2068093799
 12
158.6503040869
 22
31.2068093799
 13
158.6503040869
 23
31.2068093799
  0
SOLID
  8
0
 62
7
  6
CONTINUOUS
 10
158.6503040869
 20
31.2068093799
 11
158.6503040869
 21
30.5938003547
 12
158.361242028
 22
30.5938003547
 13
158.361242028
 23
30.5938003547
  0
SOLID
  8
0
 62
7
  6
CONTINUOUS
 10
159.4596793074
 20
31.5939739474
 11
159.8065543074
 21
31.6262381969
 12
160.1534293074
 22
31.6262381969
 13
160.1534293074
 23
31.6262381969
  0
SOLID
  8
0
 62
7
  6
CONTINUOUS
 10
160.1534293074
 20
31.6262381969
 11
160.5003043074
 21
31.5939739474
 12
159.4596793074
 22
31.5939739474
 13
159.4596793074
 23
31.5939739474
  0
SOLID
  8
0
 62
7
  6
CONTINUOUS
 10
159.228429528
 20
31.5294468402
 11
159.4596793074
 21
31.5939739474
 12
160.5003043074
 22
31.5939739474
 13
160.5003043074
 23
31.5939739474
  0
SOLID
  8
0
 62
7
  6
CONTINUOUS
 10
159.228429528
 20
31.5294468402
 11
160.5003043074
 21
31.5939739304
 12
160.6737418074
 22
31.5617111435
 13
160.6737418074
 23
31.5617111435
  0
SOLID
  8
0
 62
7
  6
CONTINUOUS
 10
159.228429528
 20
31.5294468402
 11
160.6737418074
 21
31.5617111435
 12
159.8065543074
 22
31.4971825592
 13
159.8065543074
 23
31.4971825592
  0
SOLID
  8
0
 62
7
  6
CONTINUOUS
 10
159.8065543074
 20
31.4971825592
 11
160.6737418074
 21
31.5617111435
 12
160.1534293074
 22
31.4971825592
 13
160.1534293074
 23
31.4971825592
  0
SOLID
  8
0
 62
7
  6
CONTINUOUS
 10
160.6737418074
 20
31.5617111435
 11
160.8471793074
 21
31.4971825592
 12
160.1534293074
 22
31.4971825592
 13
160.1534293074
 23
31.4971825592
  0
SOLID
  8
0
 62
7
  6
CONTINUOUS
 10
160.5003043074
 20
31.4649197501
 11
160.1534293074
 21
31.4971825592
 12
160.8471793074
 22
31.4971825592
 13
160.8471793074
 23
31.4971825592
  0
SOLID
  8
0
 62
7
  6
CONTINUOUS
 10
159.1128043074
 20
31.4326555427
 11
159.228429528
 21
31.5294468402
 12
159.8065543074
 22
31.4971825592
 13
159.8065543074
 23
31.4971825592
  0
SOLID
  8
0
 62
7
  6
CONTINUOUS
 10
160.5003043074
 20
31.4649197501
 11
160.8471793074
 21
31.4971825592
 12
160.615929528
 22
31.4326555427
 13
160.615929528
 23
31.4326555427
  0
SOLID
  8
0
 62
7
  6
CONTINUOUS
 10
160.615929528
 20
31.4326555427
 11
160.8471793074
 21
31.4971825592
 12
160.6737418074
 22
31.3681283005
 13
160.6737418074
 23
31.3681283005
  0
SOLID
  8
0
 62
7
  6
CONTINUOUS
 10
160.8471793074
 20
31.4971825592
 11
160.9628038663
 21
31.3681283005
 12
160.6737418074
 22
31.3681283005
 13
160.6737418074
 23
31.3681283005
  0
SOLID
  8
0
 62
7
  6
CONTINUOUS
 10
150.2674918074
 20
31.4649197501
 11
149.7471793074
 21
31.4326554237
 12
150.498741835
 22
31.4971824493
 13
150.498741835
 23
31.4971824493
  0
SOLID
  8
0
 62
7
  6
CONTINUOUS
 10
149.7471793074
 20
31.4326554237
 11
149.8628043005
 21
31.4971824493
 12
150.498741835
 22
31.4971824493
 13
150.498741835
 23
31.4971824493
  0
SOLID
  8
0
 62
7
  6
CONTINUOUS
 10
150.2674918074
 20
31.4649197501
 11
150.1518667936
 21
31.4326554237
 12
149.7471793074
 22
31.4326554237
 13
149.7471793074
 23
31.4326554237
  0
SOLID
  8
0
 62
7
  6
CONTINUOUS
 10
149.6315543091
 20
31.3036012664
 11
149.7471793074
 21
31.4326554237
 12
150.1518667936
 22
31.4326554237
 13
150.1518667936
 23
31.4326554237
  0
SOLID
  8
0
 62
7
  6
CONTINUOUS
 10
153.9674919177
 20
31.4326554237
 11
154.6612419177
 21
31.4971825369
 12
154.4299918074
 22
31.4649197501
 13
154.4299918074
 23
31.4649197501
  0
SOLID
  8
0
 62
7
  6
CONTINUOUS
 10
154.4299918074
 20
31.4649197501
 11
154.3143669177
 21
31.4326554237
 12
153.9674919177
 22
31.4326554237
 13
153.9674919177
 23
31.4326554237
  0
SOLID
  8
0
 62
7
  6
CONTINUOUS
 10
153.9674919177
 20
31.3681283335
 11
153.9674919177
 21
31.4326554237
 12
154.3143669177
 22
31.4326554237
 13
154.3143669177
 23
31.4326554237
  0
SOLID
  8
0
 62
7
  6
CONTINUOUS
 10
154.3143669177
 20
31.4326554237
 11
154.2565543074
 21
31.3681283335
 12
153.9674919177
 22
31.3681283335
 13
153.9674919177
 23
31.3681283335
  0
SOLID
  8
0
 62
7
  6
CONTINUOUS
 10
159.1128043074
 20
31.4326555528
 11
159.8065543074
 21
31.4971825369
 12
159.575304528
 22
31.4649197501
 13
159.575304528
 23
31.4649197501
  0
SOLID
  8
0
 62
7
  6
CONTINUOUS
 10
159.575304528
 20
31.4649197501
 11
159.4596793074
 21
31.4326555528
 12
159.1128043074
 22
31.4326555528
 13
159.1128043074
 23
31.4326555528
  0
SOLID
  8
0
 62
7
  6
CONTINUOUS
 10
159.1128043074
 20
31.3681284626
 11
159.1128043074
 21
31.4326555528
 12
159.4596793074
 22
31.4326555528
 13
159.4596793074
 23
31.4326555528
  0
SOLID
  8
0
 62
7
  6
CONTINUOUS
 10
159.4596793074
 20
31.4326555528
 11
159.401867028
 21
31.3681284626
 12
159.1128043074
 22
31.3681284626
 13
159.1128043074
 23
31.3681284626
  0
SOLID
  8
0
 62
7
  6
CONTINUOUS
 10
159.228429528
 20
31.2390741763
 11
159.1128043074
 21
31.3681284626
 12
159.401867028
 22
31.3681284626
 13
159.401867028
 23
31.3681284626
  0
SOLID
  8
0
 62
7
  6
CONTINUOUS
 10
149.6315543091
 20
31.3036012664
 11
150.1518667936
 21
31.4326554468
 12
149.9784292936
 22
31.3358640533
 13
149.9784292936
 23
31.3358640533
  0
SOLID
  8
0
 62
7
  6
CONTINUOUS
 10
149.9784292936
 20
31.3358640533
 11
149.9206168074
 21
31.2713369632
 12
149.6315543091
 22
31.3036012664
 13
149.6315543091
 23
31.3036012664
  0
SOLID
  8
0
 62
7
  6
CONTINUOUS
 10
149.5737418074
 20
31.1100184796
 11
149.6315543091
 21
31.3036012664
 12
149.9206168074
 22
31.2713369632
 13
149.9206168074
 23
31.2713369632
  0
SOLID
  8
0
 62
7
  6
CONTINUOUS
 10
154.4299918074
 20
31.2390741763
 11
154.7768668074
 21
31.271336924
 12
155.412804528
 22
31.271336924
 13
155.412804528
 23
31.271336924
  0
SOLID
  8
0
 62
7
  6
CONTINUOUS
 10
154.4299918074
 20
31.2390741763
 11
155.412804528
 21
31.271336924
 12
154.1987416972
 22
31.1745462761
 13
154.1987416972
 23
31.1745462761
  0
SOLID
  8
0
 62
7
  6
CONTINUOUS
 10
154.1987416972
 20
31.1745462761
 11
155.412804528
 21
31.271336924
 12
154.7768668074
 22
31.1422827436
 13
154.7768668074
 23
31.1422827436
  0
SOLID
  8
0
 62
7
  6
CONTINUOUS
 10
155.412804528
 20
31.271336924
 11
155.412804528
 21
31.1422827436
 12
154.7768668074
 22
31.1422827436
 13
154.7768668074
 23
31.1422827436
  0
SOLID
  8
0
 62
7
  6
CONTINUOUS
 10
159.228429528
 20
31.2390745501
 11
159.401867028
 21
31.3681283566
 12
159.4596793074
 22
31.3036012664
 13
159.4596793074
 23
31.3036012664
  0
SOLID
  8
0
 62
7
  6
CONTINUOUS
 10
159.4596793074
 20
31.3036012664
 11
159.6331168074
 21
31.2390745501
 12
159.228429528
 22
31.2390745501
 13
159.228429528
 23
31.2390745501
  0
SOLID
  8
0
 62
7
  6
CONTINUOUS
 10
159.4596793074
 20
31.1422827828
 11
159.228429528
 21
31.2390745501
 12
159.6331168074
 22
31.2390745501
 13
159.6331168074
 23
31.2390745501
  0
SOLID
  8
0
 62
7
  6
CONTINUOUS
 10
159.6331168074
 20
31.2390745501
 11
160.615929528
 21
31.0777556927
 12
159.4596793074
 22
31.1422827828
 13
159.4596793074
 23
31.1422827828
  0
SOLID
  8
0
 62
7
  6
CONTINUOUS
 10
160.442492028
 20
30.9809646623
 11
159.4596793074
 21
31.1422827828
 12
160.615929528
 22
31.0777556927
 13
160.615929528
 23
31.0777556927
  0
SOLID
  8
0
 62
7
  6
CONTINUOUS
 10
160.615929528
 20
31.0777556927
 11
160.8471793074
 21
30.9809646623
 12
160.442492028
 22
30.9809646623
 13
160.442492028
 23
30.9809646623
  0
SOLID
  8
0
 62
7
  6
CONTINUOUS
 10
160.615929528
 20
30.9164372091
 11
160.442492028
 21
30.9809646623
 12
160.8471793074
 22
30.9809646623
 13
160.8471793074
 23
30.9809646623
  0
SOLID
  8
0
 62
7
  6
CONTINUOUS
 10
160.615929528
 20
30.9164372091
 11
160.8471793074
 21
30.9809646623
 12
160.6737418074
 22
30.8519089441
 13
160.6737418074
 23
30.8519089441
  0
SOLID
  8
0
 62
7
  6
CONTINUOUS
 10
160.8471793074
 20
30.9809646623
 11
160.9628038663
 21
30.8519089441
 12
160.6737418074
 22
30.8519089441
 13
160.6737418074
 23
30.8519089441
  0
SOLID
  8
0
 62
7
  6
CONTINUOUS
 10
160.615929528
 20
30.7873818593
 11
160.6737418074
 21
30.8519089441
 12
160.9628038663
 22
30.8519089441
 13
160.9628038663
 23
30.8519089441
  0
SOLID
  8
0
 62
7
  6
CONTINUOUS
 10
160.9628038663
 20
30.8519089441
 11
160.9628038663
 21
30.7873818593
 12
160.615929528
 22
30.7873818593
 13
160.615929528
 23
30.7873818593
  0
SOLID
  8
0
 62
7
  6
CONTINUOUS
 10
160.5003043074
 20
30.7551187255
 11
160.615929528
 21
30.7873818593
 12
160.9628038663
 22
30.7873818593
 13
160.9628038663
 23
30.7873818593
  0
SOLID
  8
0
 62
7
  6
CONTINUOUS
 10
160.5003043074
 20
30.7551187255
 11
160.9628038663
 21
30.7873818593
 12
160.269054528
 22
30.7228547745
 13
160.269054528
 23
30.7228547745
  0
SOLID
  8
0
 62
7
  6
CONTINUOUS
 10
160.9628038663
 20
30.7873818593
 11
160.8471793074
 21
30.6905916353
 12
160.269054528
 22
30.7228547745
 13
160.269054528
 23
30.7228547745
  0
SOLID
  8
0
 62
7
  6
CONTINUOUS
 10
160.8471793074
 20
30.6905916353
 11
159.401867028
 21
30.658327332
 12
160.269054528
 22
30.7228547745
 13
160.269054528
 23
30.7228547745
  0
SOLID
  8
0
 62
7
  6
CONTINUOUS
 10
160.269054528
 20
30.7228547745
 11
159.401867028
 21
30.658327332
 12
159.922179528
 22
30.7228547745
 13
159.922179528
 23
30.7228547745
  0
SOLID
  8
0
 62
7
  6
CONTINUOUS
 10
159.401867028
 20
30.658327332
 11
159.228429528
 21
30.7228547745
 12
159.922179528
 22
30.7228547745
 13
159.922179528
 23
30.7228547745
  0
SOLID
  8
0
 62
7
  6
CONTINUOUS
 10
159.401867028
 20
30.658327332
 11
160.8471793074
 21
30.6905916353
 12
159.575304528
 22
30.6260629858
 13
159.575304528
 23
30.6260629858
  0
SOLID
  8
0
 62
7
  6
CONTINUOUS
 10
160.8471793074
 20
30.6905916353
 11
160.615929528
 21
30.6260629858
 12
159.575304528
 22
30.6260629858
 13
159.575304528
 23
30.6260629858
  0
SOLID
  8
0
 62
7
  6
CONTINUOUS
 10
159.922179528
 20
30.5938006049
 11
159.575304528
 21
30.6260629858
 12
160.615929528
 22
30.6260629858
 13
160.615929528
 23
30.6260629858
  0
SOLID
  8
0
 62
7
  6
CONTINUOUS
 10
160.615929528
 20
30.6260629858
 11
160.269054528
 21
30.5938006049
 12
159.922179528
 22
30.5938006049
 13
159.922179528
 23
30.5938006049
  0
SOLID
  8
0
 62
7
  6
CONTINUOUS
 10
149.5737418074
 20
31.1100184796
 11
149.9206168074
 21
31.2713369632
 12
149.8628043005
 22
31.1422827828
 13
149.8628043005
 23
31.1422827828
  0
SOLID
  8
0
 62
7
  6
CONTINUOUS
 10
149.8628043005
 20
31.1422827828
 11
149.8628043005
 21
31.0454914852
 12
149.5737418074
 22
31.1100184796
 13
149.5737418074
 23
31.1100184796
  0
SOLID
  8
0
 62
7
  6
CONTINUOUS
 10
149.6315543091
 20
30.9164372091
 11
149.5737418074
 21
31.1100184796
 12
149.8628043005
 22
31.0454914852
 13
149.8628043005
 23
31.0454914852
  0
SOLID
  8
0
 62
7
  6
CONTINUOUS
 10
149.8628043005
 20
31.0454914852
 11
149.9784292936
 21
30.8841729058
 12
149.6315543091
 22
30.9164372091
 13
149.6315543091
 23
30.9164372091
  0
SOLID
  8
0
 62
7
  6
CONTINUOUS
 10
149.7471793074
 20
30.7873813202
 11
149.6315543091
 21
30.9164372091
 12
149.9784292936
 22
30.8841729058
 13
149.9784292936
 23
30.8841729058
  0
SOLID
  8
0
 62
7
  6
CONTINUOUS
 10
149.9784292936
 20
30.8841729058
 11
150.1518667936
 21
30.7873813202
 12
149.7471793074
 22
30.7873813202
 13
149.7471793074
 23
30.7873813202
  0
SOLID
  8
0
 62
7
  6
CONTINUOUS
 10
149.8628043005
 20
30.7228547004
 11
149.7471793074
 21
30.7873813202
 12
150.1518667936
 22
30.7873813202
 13
150.1518667936
 23
30.7873813202
  0
SOLID
  8
0
 62
7
  6
CONTINUOUS
 10
150.1518667936
 20
30.7873813202
 11
150.498741835
 21
30.7228547004
 12
149.8628043005
 22
30.7228547004
 13
149.8628043005
 23
30.7228547004
  0
SOLID
  8
0
 62
7
  6
CONTINUOUS
 10
150.0362418212
 20
30.658327332
 11
149.8628043005
 21
30.7228547004
 12
150.498741835
 22
30.7228547004
 13
150.498741835
 23
30.7228547004
  0
SOLID
  8
0
 62
7
  6
CONTINUOUS
 10
154.0831168074
 20
31.1100184386
 11
154.1987416972
 21
31.1745462761
 12
154.7768668074
 22
31.1422827828
 13
154.7768668074
 23
31.1422827828
  0
SOLID
  8
0
 62
7
  6
CONTINUOUS
 10
154.7768668074
 20
31.1422827828
 11
154.5456166972
 21
31.1100184386
 12
154.0831168074
 22
31.1100184386
 13
154.0831168074
 23
31.1100184386
  0
SOLID
  8
0
 62
7
  6
CONTINUOUS
 10
153.9674919177
 20
30.9809642992
 11
154.0831168074
 21
31.1100184386
 12
154.5456166972
 22
31.1100184386
 13
154.5456166972
 23
31.1100184386
  0
SOLID
  8
0
 62
7
  6
CONTINUOUS
 10
154.3143669177
 20
31.0132277988
 11
153.9674919177
 21
30.9809642992
 12
154.4299918074
 22
31.0777556927
 13
154.4299918074
 23
31.0777556927
  0
SOLID
  8
0
 62
7
  6
CONTINUOUS
 10
153.9674919177
 20
30.9809642992
 11
154.5456166972
 21
31.1100184796
 12
154.4299918074
 22
31.0777556927
 13
154.4299918074
 23
31.0777556927
  0
SOLID
  8
0
 62
7
  6
CONTINUOUS
 10
154.3143669177
 20
31.0132277988
 11
154.2565543074
 21
30.9164372091
 12
153.9674919177
 22
30.9809642992
 13
153.9674919177
 23
30.9809642992
  0
SOLID
  8
0
 62
7
  6
CONTINUOUS
 10
153.9674919177
 20
30.8841729058
 11
153.9674919177
 21
30.9809642992
 12
154.2565543074
 22
30.9164372091
 13
154.2565543074
 23
30.9164372091
  0
SOLID
  8
0
 62
7
  6
CONTINUOUS
 10
154.2565543074
 20
30.9164372091
 11
154.2565543074
 21
30.8519086025
 12
153.9674919177
 22
30.8841729058
 13
153.9674919177
 23
30.8841729058
  0
SOLID
  8
0
 62
7
  6
CONTINUOUS
 10
154.0253041972
 20
30.7551187255
 11
153.9674919177
 21
30.8841729058
 12
154.2565543074
 22
30.8519086025
 13
154.2565543074
 23
30.8519086025
  0
SOLID
  8
0
 62
7
  6
CONTINUOUS
 10
155.412804528
 20
30.9487004259
 11
155.7018665869
 21
30.8519086025
 12
155.3549915869
 22
30.8841729058
 13
155.3549915869
 23
30.8841729058
  0
SOLID
  8
0
 62
7
  6
CONTINUOUS
 10
155.1815540869
 20
30.7873815123
 11
155.3549915869
 21
30.8841729058
 12
155.7018665869
 22
30.8519086025
 13
155.7018665869
 23
30.8519086025
  0
SOLID
  8
0
 62
7
  6
CONTINUOUS
 10
155.1815540869
 20
30.7873815123
 11
155.7018665869
 21
30.8519086025
 12
155.412804528
 22
30.7551187255
 13
155.412804528
 23
30.7551187255
  0
SOLID
  8
0
 62
7
  6
CONTINUOUS
 10
155.7018665869
 20
30.8519086025
 11
155.759679528
 21
30.6905916353
 12
155.412804528
 22
30.7551187255
 13
155.412804528
 23
30.7551187255
  0
SOLID
  8
0
 62
7
  6
CONTINUOUS
 10
155.4706168074
 20
30.658327332
 11
155.412804528
 21
30.7551187255
 12
155.759679528
 22
30.6905916353
 13
155.759679528
 23
30.6905916353
  0
SOLID
  8
0
 62
7
  6
CONTINUOUS
 10
155.4706168074
 20
30.658327332
 11
155.759679528
 21
30.6905916353
 12
155.5284290869
 22
30.5938002079
 13
155.5284290869
 23
30.5938002079
  0
SOLID
  8
0
 62
7
  6
CONTINUOUS
 10
155.759679528
 20
30.6905916353
 11
155.8174918074
 21
30.5938002079
 12
155.5284290869
 22
30.5938002079
 13
155.5284290869
 23
30.5938002079
  0
SOLID
  8
0
 62
7
  6
CONTINUOUS
 10
151.0768668626
 20
30.8196456577
 11
151.1346793074
 21
30.9164373395
 12
151.4237418626
 22
30.9164373395
 13
151.4237418626
 23
30.9164373395
  0
SOLID
  8
0
 62
7
  6
CONTINUOUS
 10
151.4237418626
 20
30.9164373395
 11
151.3659292523
 21
30.7873815123
 12
151.0768668626
 22
30.8196456577
 13
151.0768668626
 23
30.8196456577
  0
SOLID
  8
0
 62
7
  6
CONTINUOUS
 10
150.9034292799
 20
30.7551187255
 11
151.0768668626
 21
30.8196456577
 12
151.3659292523
 22
30.7873815123
 13
151.3659292523
 23
30.7873815123
  0
SOLID
  8
0
 62
7
  6
CONTINUOUS
 10
150.9034292799
 20
30.7551187255
 11
151.3659292523
 21
30.7873815123
 12
150.498741835
 22
30.7228544222
 13
150.498741835
 23
30.7228544222
  0
SOLID
  8
0
 62
7
  6
CONTINUOUS
 10
151.3659292523
 20
30.7873815123
 11
151.1924917523
 21
30.6905916353
 12
150.498741835
 22
30.7228544222
 13
150.498741835
 23
30.7228544222
  0
SOLID
  8
0
 62
7
  6
CONTINUOUS
 10
150.0362418212
 20
30.658327332
 11
150.498741835
 21
30.7228544222
 12
151.1924917523
 22
30.6905916353
 13
151.1924917523
 23
30.6905916353
  0
SOLID
  8
0
 62
7
  6
CONTINUOUS
 10
150.0362418212
 20
30.658327332
 11
151.1924917523
 21
30.6905916353
 12
150.2096793212
 22
30.6260631011
 13
150.2096793212
 23
30.6260631011
  0
SOLID
  8
0
 62
7
  6
CONTINUOUS
 10
151.1924917523
 20
30.6905916353
 11
150.9612418074
 21
30.6260631011
 12
150.2096793212
 22
30.6260631011
 13
150.2096793212
 23
30.6260631011
  0
SOLID
  8
0
 62
7
  6
CONTINUOUS
 10
150.5565542799
 20
30.5938002419
 11
150.2096793212
 21
30.6260631011
 12
150.9612418074
 22
30.6260631011
 13
150.9612418074
 23
30.6260631011
  0
SOLID
  8
0
 62
7
  6
CONTINUOUS
 10
154.0253041972
 20
30.7551187255
 11
154.2565543074
 21
30.8519086025
 12
154.3143669177
 22
30.7873815123
 13
154.3143669177
 23
30.7873815123
  0
SOLID
  8
0
 62
7
  6
CONTINUOUS
 10
154.3143669177
 20
30.7873815123
 11
154.5456166972
 21
30.7228544222
 12
154.0253041972
 22
30.7551187255
 13
154.0253041972
 23
30.7551187255
  0
SOLID
  8
0
 62
7
  6
CONTINUOUS
 10
154.1987416972
 20
30.658327332
 11
154.0253041972
 21
30.7551187255
 12
154.5456166972
 22
30.7228544222
 13
154.5456166972
 23
30.7228544222
  0
SOLID
  8
0
 62
7
  6
CONTINUOUS
 10
154.8924916972
 20
30.7228544637
 11
155.1815540869
 21
30.7873815123
 12
155.412804528
 22
30.7551187255
 13
155.412804528
 23
30.7551187255
  0
SOLID
  8
0
 62
7
  6
CONTINUOUS
 10
155.412804528
 20
30.7551187255
 11
155.3549915869
 21
30.6905916353
 12
154.8924916972
 22
30.7228544637
 13
154.8924916972
 23
30.7228544637
  0
SOLID
  8
0
 62
7
  6
CONTINUOUS
 10
155.3549915869
 20
30.6905916353
 11
154.1987416972
 21
30.658327332
 12
154.8924916972
 22
30.7228544637
 13
154.8924916972
 23
30.7228544637
  0
SOLID
  8
0
 62
7
  6
CONTINUOUS
 10
154.1987416972
 20
30.658327332
 11
154.5456166972
 21
30.7228544637
 12
154.8924916972
 22
30.7228544637
 13
154.8924916972
 23
30.7228544637
  0
SOLID
  8
0
 62
7
  6
CONTINUOUS
 10
154.1987416972
 20
30.658327332
 11
155.3549915869
 21
30.6905916353
 12
154.3143669177
 22
30.6260630541
 13
154.3143669177
 23
30.6260630541
  0
SOLID
  8
0
 62
7
  6
CONTINUOUS
 10
155.3549915869
 20
30.6905916353
 11
155.1815540869
 21
30.6260630541
 12
154.3143669177
 22
30.6260630541
 13
154.3143669177
 23
30.6260630541
  0
SOLID
  8
0
 62
7
  6
CONTINUOUS
 10
154.5456166972
 20
30.5938002188
 11
154.3143669177
 21
30.6260630541
 12
155.1815540869
 22
30.6260630541
 13
155.1815540869
 23
30.6260630541
  0
SOLID
  8
0
 62
7
  6
CONTINUOUS
 10
155.1815540869
 20
30.6260630541
 11
154.8924916972
 21
30.5938002188
 12
154.5456166972
 22
30.5938002188
 13
154.5456166972
 23
30.5938002188
  0
SOLID
  8
0
 62
7
  6
CONTINUOUS
 10
159.575304528
 20
30.7551187255
 11
159.228429528
 21
30.7228544637
 12
159.4596793074
 22
30.7873815123
 13
159.4596793074
 23
30.7873815123
  0
SOLID
  8
0
 62
7
  6
CONTINUOUS
 10
159.4596793074
 20
30.7873815123
 11
159.228429528
 21
30.7228544637
 12
159.401867028
 22
30.851908644
 13
159.401867028
 23
30.851908644
  0
SOLID
  8
0
 62
7
  6
CONTINUOUS
 10
159.228429528
 20
30.7228544637
 11
159.1128043074
 21
30.851908644
 12
159.401867028
 22
30.851908644
 13
159.401867028
 23
30.851908644
  0
SOLID
  8
0
 62
7
  6
CONTINUOUS
 10
159.575304528
 20
30.7551187255
 11
159.922179528
 21
30.7228544637
 12
159.228429528
 22
30.7228544637
 13
159.228429528
 23
30.7228544637
  0
SOLID
  8
0
 62
7
  6
CONTINUOUS
 10
156.279992028
 20
30.5938002419
 11
156.279992028
 21
31.6262382337
 12
156.5690540869
 22
30.5938002419
 13
156.5690540869
 23
31.6262382337
  0
ENDBLK
  8
0
  6
BYBLOCK
 62
0
  0
BLOCK
  8
0
 62
2
  6
CONTINUOUS
  2
AMMEAAL_LOGO_BL0
 70
64
 10
32.1213064866
 20
19.8534310916
  0
TEXT
  8
0
 62
7
  6
CONTINUOUS
 10
18.3860103289
 20
19.2268451992
  7
TEXTSTYLE_3
 40
2.7338706658
  1
Ammeraal Beltech
 41
1.0
 51
15.0
 72
0
  0
TEXT
  8
0
 62
7
  6
CONTINUOUS
 10
29.1868111546
 20
16.9533085264
  7
TEXTSTYLE_4
 40
1.0935482663
  1
Innovation & Service in Belting
 41
1.0
 72
0
  0
LINE
  8
0
 62
7
  6
CONTINUOUS
 10
12.3614696776
 20
19.9934385078
 11
13.1396216709
 21
23.6543558055
  0
LINE
  8
0
 62
7
  6
CONTINUOUS
 10
23.2347899607
 20
27.3177497171
 11
13.6274394139
 21
24.1961322958
  0
LINE
  8
0
 62
7
  6
CONTINUOUS
 10
12.5867530099
 20
19.3000877048
 11
20.093828271
 21
12.5406867788
  0
LINE
  8
0
 62
7
  6
CONTINUOUS
 10
12.8492874206
 20
20.5352149982
 11
23.6575567857
 21
24.0470345971
  0
LINE
  8
0
 62
7
  6
CONTINUOUS
 10
23.6533516486
 20
13.6972460334
 11
15.2078919798
 21
21.3015720751
  0
LINE
  8
0
 62
7
  6
CONTINUOUS
 10
24.1731743684
 20
26.4728246013
 11
23.1966148312
 21
21.8784731989
  0
LINE
  8
0
 62
7
  6
CONTINUOUS
 10
22.4968128835
 20
18.5861638851
 11
21.810364672
 21
15.3566789607
  0
LINE
  8
0
 62
7
  6
CONTINUOUS
 10
24.8542704669
 20
14.087448211
 11
25.8105020025
 21
18.5861638851
  0
LINE
  8
0
 62
7
  6
CONTINUOUS
 10
26.5103039502
 20
21.8784731989
 11
26.9545457526
 21
23.9684665583
  0
LINE
  8
0
 62
7
  6
CONTINUOUS
 10
20.8069293463
 20
12.3891124661
 11
24.3664527239
 21
13.5456717207
  0
LINE
  8
0
 62
7
  6
CONTINUOUS
 10
23.9478910361
 20
27.1661754044
 11
26.7292624203
 21
24.6618173613
  0
ARC
  8
0
 62
7
  6
CONTINUOUS
 10
13.8527227462
 20
23.5027814928
 40
0.7290321776
 50
108.0
 51
168.0
  0
ARC
  8
0
 62
7
  6
CONTINUOUS
 10
23.4600732931
 20
26.624398914
 40
0.7290321776
 50
348.0
 51
108.0
  0
ARC
  8
0
 62
7
  6
CONTINUOUS
 10
26.2414446773
 20
24.120040871
 40
0.7290321776
 50
348.0
 51
48.0
  0
ARC
  8
0
 62
7
  6
CONTINUOUS
 10
20.581646014
 20
13.0824632691
 40
0.7290321776
 50
228.0
 51
288.0
  0
ARC
  8
0
 62
7
  6
CONTINUOUS
 10
13.0745707529
 20
19.8418641951
 40
0.7290321776
 50
108.0
 51
228.0
  0
ARC
  8
0
 62
7
  6
CONTINUOUS
 10
24.1411693916
 20
14.2390225237
 40
0.7290321776
 50
228.0
 51
348.0
  0
ENDBLK
  8
0
  6
BYBLOCK
 62
0
  0
ENDSEC
  0
SECTION
  2
ENTITIES
  0
TEXT
  8
0
 62
5
  6
CONTINUOUS
 10
96.0
 20
25.636
  7
TEXTSTYLE_2
 40
2.8
  1
Scale :
 41
0.6
 51
0.000019
 72
0
  0
TEXT
  8
0
 62
5
  6
CONTINUOUS
 10
116.0
 20
25.636
  7
TEXTSTYLE_2
 40
2.8
  1
Belt type:
 41
0.6
 51
0.000019
 72
0
  0
INSERT
  8
0
 62
2
  6
CONTINUOUS
  2
AMMEAAL_LOGO_BL0
 10
32.1213064866
 20
19.8534310916
  0
INSERT
  8
0
 62
2
  6
CONTINUOUS
  2
UNI_LOGO2_BL1
 10
173.5956734183
 20
35.5937998301
  0
LINE
  8
0
 62
2
  6
CONTINUOUS
 10
10.0
 20
30.0
 11
200.0
 21
30.0
  0
LINE
  8
0
 62
2
  6
CONTINUOUS
 10
10.0
 20
30.0
 11
10.0
 21
10.0
  0
LINE
  8
0
 62
2
  6
CONTINUOUS
 10
10.0
 20
10.0
 11
200.0
 21
10.0
  0
LINE
  8
0
 62
2
  6
CONTINUOUS
 10
95.0
 20
30.0
 11
95.0
 21
10.0
  0
LINE
  8
0
 62
2
  6
CONTINUOUS
 10
115.0
 20
30.0
 11
115.0
 21
10.0
  0
LINE
  8
0
 62
2
  6
CONTINUOUS
 10
200.0
 20
30.0
 11
200.0
 21
10.0
  0
TEXT
  8
0
 62
5
  6
CONTINUOUS
 10
13.0
 20
23.303
  7
TEXTSTYLE_5
 40
1.52
  1
                                                                     Ammeraal Beltech Modular A/S
 41
1.0
 72
0
  0
TEXT
  8
0
 62
5
  6
CONTINUOUS
 10
13.0
 20
20.595
  7
TEXTSTYLE_5
 40
1.5
  1
                                                                      Hjulmagervej 21,  7100 Vejle,  DK
 41
1.0
 72
0
  0
TEXT
  8
0
 62
5
  6
CONTINUOUS
 10
13.0
 20
17.881
  7
TEXTSTYLE_5
 40
1.495
  1
                                                                      tel: 
 41
1.0
 72
0
  0
TEXT
  8
0
 62
5
  6
CONTINUOUS
 10
57.9869465649
 20
17.881
  7
TEXTSTYLE_5
 40
1.51
  1
+45 75723100     fax: +45 75723348
 41
1.0
 72
0
  0
TEXT
  8
0
 62
5
  6
CONTINUOUS
 10
13.0
 20
15.177
  7
TEXTSTYLE_5
 40
1.5
  1
                                                                      admin@unichains.dk  www.unichains.com
 41
1.0
 72
0
  0
TEXT
  8
0
 62
5
  6
CONTINUOUS
 10
99.75
 20
13.75
  7
TEXTSTYLE_6
 40
5.0
  1
1:1
 41
0.7
 72
1
 11
105.0
 21
13.75
  0
TEXT
  8
0
 62
5
  6
CONTINUOUS
 10
118.0
 20
13.75
  7
TEXTSTYLE_7
 40
7.5
  1
uni NTB Sprocket Z32
 41
0.4192708333
 72
0
  0
LINE
  8
0
 62
7
  6
CONTINUOUS
 10
210.0
 20
0.0
 11
0.0
 21
0.0
  0
LINE
  8
0
 62
7
  6
CONTINUOUS
 10
10.0
 20
10.0
 11
200.0
 21
10.0
  0
LINE
  8
0
 62
7
  6
CONTINUOUS
 10
10.0
 20
30.0
 11
200.0
 21
30.0
  0
LINE
  8
0
 62
7
  6
CONTINUOUS
 10
0.0
 20
0.0
 11
0.0
 21
297.0
  0
LINE
  8
0
 62
7
  6
CONTINUOUS
 10
10.0
 20
10.0
 11
10.0
 21
287.0
  0
LINE
  8
0
 62
7
  6
CONTINUOUS
 10
200.0
 20
287.0
 11
200.0
 21
10.0
  0
LINE
  8
0
 62
7
  6
CONTINUOUS
 10
210.0
 20
0.0
 11
210.0
 21
297.0
  0
LINE
  8
0
 62
7
  6
CONTINUOUS
 10
10.0
 20
287.0
 11
200.0
 21
287.0
  0
LINE
  8
0
 62
7
  6
CONTINUOUS
 10
0.0
 20
297.0
 11
210.0
 21
297.0
  0
LINE
  8
0
 62
7
  6
CONTINUOUS
 10
81.8905584447
 20
141.8220206157
 11
77.982445333
 21
141.0446485847
  0
LINE
  8
0
 62
7
  6
CONTINUOUS
 10
34.4728359593
 20
180.7379254259
 11
34.4728359593
 21
180.1995745741
  0
LINE
  8
0
 62
7
  6
CONTINUOUS
 10
35.2497259441
 20
188.0874709617
 11
35.144698903
 21
187.5594643706
  0
LINE
  8
0
 62
7
  6
CONTINUOUS
 10
37.4455134109
 20
195.1442333236
 11
37.2394954591
 21
194.6468619903
  0
LINE
  8
0
 62
7
  6
CONTINUOUS
 10
40.9758154788
 20
201.6370250915
 11
40.6767237706
 21
201.1894027174
  0
LINE
  8
0
 62
7
  6
CONTINUOUS
 10
45.7049646191
 20
207.3163319189
 11
45.3242930811
 21
206.9356603809
  0
LINE
  8
0
 62
7
  6
CONTINUOUS
 10
51.4512222826
 20
211.9639012294
 11
51.0035999085
 21
211.6648095212
  0
LINE
  8
0
 62
7
  6
CONTINUOUS
 10
57.9937630097
 20
215.4011295409
 11
57.4963916764
 21
215.1951115891
  0
LINE
  8
0
 62
7
  6
CONTINUOUS
 10
79.2625893706
 20
143.441573903
 11
79.7905959617
 21
143.5466009441
  0
LINE
  8
0
 62
7
  6
CONTINUOUS
 10
71.9026995741
 20
142.7697109593
 11
72.4410504259
 21
142.7697109593
  0
LINE
  8
0
 62
7
  6
CONTINUOUS
 10
64.5531540383
 20
143.5466009441
 11
65.0811606294
 21
143.441573903
  0
LINE
  8
0
 62
7
  6
CONTINUOUS
 10
57.4963916764
 20
145.7423884109
 11
57.9937630097
 21
145.5363704591
  0
LINE
  8
0
 62
7
  6
CONTINUOUS
 10
51.0035999085
 20
149.2726904788
 11
51.4512222826
 21
148.9735987706
  0
LINE
  8
0
 62
7
  6
CONTINUOUS
 10
45.3242930811
 20
154.0018396191
 11
45.7049646191
 21
153.6211680811
  0
LINE
  8
0
 62
7
  6
CONTINUOUS
 10
40.6767237706
 20
159.7480972826
 11
40.9758154788
 21
159.3004749085
  0
LINE
  8
0
 62
7
  6
CONTINUOUS
 10
37.2394954591
 20
166.2906380097
 11
37.4455134109
 21
165.7932666764
  0
LINE
  8
0
 62
7
  6
CONTINUOUS
 10
35.144698903
 20
173.3780356294
 11
35.2497259441
 21
172.8500290383
  0
LINE
  8
0
 62
7
  6
CONTINUOUS
 10
67.5081711985
 20
140.7239661902
 11
67.5411622412
 21
140.2927496539
  0
LINE
  8
0
 62
7
  6
CONTINUOUS
 10
67.5411622412
 20
220.6447503461
 11
67.5081711985
 21
220.2135338098
  0
LINE
  8
0
 62
7
  6
CONTINUOUS
 10
59.8439602874
 20
142.397494543
 11
59.7921912436
 21
141.9681274784
  0
LINE
  8
0
 62
7
  6
CONTINUOUS
 10
75.4680889333
 20
220.7761870082
 11
75.3516056312
 21
220.3596924099
  0
LINE
  8
0
 62
7
  6
CONTINUOUS
 10
52.6535042251
 20
145.5340798923
 11
52.5189645501
 21
145.1230626349
  0
LINE
  8
0
 62
7
  6
CONTINUOUS
 10
83.2683439724
 20
219.3586314707
 11
83.072844799
 21
218.9728644643
  0
LINE
  8
0
 62
7
  6
CONTINUOUS
 10
46.2131282057
 20
150.0131850224
 11
46.0009881837
 21
149.6363127348
  0
LINE
  8
0
 62
7
  6
CONTINUOUS
 10
90.6421679319
 20
216.446559598
 11
90.3751658108
 21
216.1063449931
  0
LINE
  8
0
 62
7
  6
CONTINUOUS
 10
40.7703322678
 20
155.6626804348
 11
40.4887443209
 21
155.3344361078
  0
LINE
  8
0
 62
7
  6
CONTINUOUS
 10
97.3061888922
 20
212.1518806791
 11
96.9779445652
 21
211.8702927322
  0
LINE
  8
0
 62
7
  6
CONTINUOUS
 10
36.5342800069
 20
162.2654591892
 11
36.194065402
 21
161.9984570681
  0
LINE
  8
0
 62
7
  6
CONTINUOUS
 10
103.0043122652
 20
206.6396368163
 11
102.6274399776
 21
206.4274967943
  0
LINE
  8
0
 62
7
  6
CONTINUOUS
 10
33.6677605357
 20
169.567780201
 11
33.2819935293
 21
169.3722810276
  0
LINE
  8
0
 62
7
  6
CONTINUOUS
 10
107.5175623651
 20
200.1216604499
 11
107.1065451077
 21
199.9871207749
  0
LINE
  8
0
 62
7
  6
CONTINUOUS
 10
112.0628174099
 20
183.6484806312
 11
112.4793120082
 21
183.7649639333
  0
LINE
  8
0
 62
7
  6
CONTINUOUS
 10
33.6712524784
 20
168.0890662436
 11
34.100619543
 21
168.1408352874
  0
LINE
  8
0
 62
7
  6
CONTINUOUS
 10
111.9166588098
 20
175.8050461985
 11
112.3478753461
 21
175.8380372412
  0
LINE
  8
0
 62
7
  6
CONTINUOUS
 10
31.9958746539
 20
175.8380372412
 11
32.4270911902
 21
175.8050461985
  0
LINE
  8
0
 62
7
  6
CONTINUOUS
 10
110.243130457
 20
168.1408352874
 11
110.6724975216
 21
168.0890662436
  0
LINE
  8
0
 62
7
  6
CONTINUOUS
 10
31.8644379918
 20
183.7649639333
 11
32.2809325901
 21
183.6484806312
  0
LINE
  8
0
 62
7
  6
CONTINUOUS
 10
107.1065451077
 20
160.9503792251
 11
107.5175623651
 21
160.8158395501
  0
LINE
  8
0
 62
7
  6
CONTINUOUS
 10
33.2819935293
 20
191.5652189724
 11
33.6677605357
 21
191.369719799
  0
LINE
  8
0
 62
7
  6
CONTINUOUS
 10
102.6274399776
 20
154.5100032057
 11
103.0043122652
 21
154.2978631837
  0
LINE
  8
0
 62
7
  6
CONTINUOUS
 10
36.194065402
 20
198.9390429319
 11
36.5342800069
 21
198.6720408108
  0
LINE
  8
0
 62
7
  6
CONTINUOUS
 10
96.9779445652
 20
149.0672072678
 11
97.3061888922
 21
148.7856193209
  0
LINE
  8
0
 62
7
  6
CONTINUOUS
 10
40.4887443209
 20
205.6030638922
 11
40.7703322678
 21
205.2748195652
  0
LINE
  8
0
 62
7
  6
CONTINUOUS
 10
90.3751658108
 20
144.8311550069
 11
90.6421679319
 21
144.490940402
  0
LINE
  8
0
 62
7
  6
CONTINUOUS
 10
46.0009881837
 20
211.3011872652
 11
46.2131282057
 21
210.9243149776
  0
LINE
  8
0
 62
7
  6
CONTINUOUS
 10
83.072844799
 20
141.9646355357
 11
83.2683439724
 21
141.5788685293
  0
LINE
  8
0
 62
7
  6
CONTINUOUS
 10
52.5189645501
 20
215.8144373651
 11
52.6535042251
 21
215.4034201077
  0
LINE
  8
0
 62
7
  6
CONTINUOUS
 10
75.3516056312
 20
140.5778075901
 11
75.4680889333
 21
140.1613129918
  0
LINE
  8
0
 62
7
  6
CONTINUOUS
 10
59.7921912436
 20
218.9693725216
 11
59.8439602874
 21
218.540005457
  0
LINE
  8
0
 62
2
  6
CONTINUOUS
 10
72.171875
 20
181.34875
 11
72.171875
 21
179.58875
  0
LINE
  8
DEFAULT_1
 62
2
  6
CENTER
 10
72.171875
 20
176.06875
 11
72.171875
 21
137.00555
  0
LINE
  8
DEFAULT_1
 62
2
  6
CENTER
 10
72.171875
 20
184.86875
 11
72.171875
 21
223.93195
  0
LINE
  8
0
 62
2
  6
CONTINUOUS
 10
73.051875
 20
180.46875
 11
71.291875
 21
180.46875
  0
LINE
  8
DEFAULT_1
 62
2
  6
CENTER
 10
67.771875
 20
180.46875
 11
28.708675
 21
180.46875
  0
LINE
  8
DEFAULT_1
 62
2
  6
CENTER
 10
76.571875
 20
180.46875
 11
115.635075
 21
180.46875
  0
LINE
  8
0
 62
7
  6
CONTINUOUS
 10
76.8355788015
 20
220.2135338098
 11
76.8025877588
 21
220.6447503461
  0
LINE
  8
0
 62
7
  6
CONTINUOUS
 10
76.8025877588
 20
140.2927496539
 11
76.8355788015
 21
140.7239661902
  0
LINE
  8
0
 62
7
  6
CONTINUOUS
 10
84.4997897126
 20
218.540005457
 11
84.5515587564
 21
218.9693725216
  0
LINE
  8
0
 62
7
  6
CONTINUOUS
 10
68.8756610667
 20
140.1613129918
 11
68.9921443688
 21
140.5778075901
  0
LINE
  8
0
 62
7
  6
CONTINUOUS
 10
91.6902457749
 20
215.4034201077
 11
91.8247854499
 21
215.8144373651
  0
LINE
  8
0
 62
7
  6
CONTINUOUS
 10
61.0754060276
 20
141.5788685293
 11
61.270905201
 21
141.9646355357
  0
LINE
  8
0
 62
7
  6
CONTINUOUS
 10
98.1306217943
 20
210.9243149776
 11
98.3427618163
 21
211.3011872652
  0
LINE
  8
0
 62
7
  6
CONTINUOUS
 10
53.7015820681
 20
144.490940402
 11
53.9685841892
 21
144.8311550069
  0
LINE
  8
0
 62
7
  6
CONTINUOUS
 10
103.5734177322
 20
205.2748195652
 11
103.8550056791
 21
205.6030638922
  0
LINE
  8
0
 62
7
  6
CONTINUOUS
 10
47.0375611078
 20
148.7856193209
 11
47.3658054348
 21
149.0672072678
  0
LINE
  8
0
 62
7
  6
CONTINUOUS
 10
107.8094699931
 20
198.6720408108
 11
108.149684598
 21
198.9390429319
  0
LINE
  8
0
 62
7
  6
CONTINUOUS
 10
41.3394377348
 20
154.2978631837
 11
41.7163100224
 21
154.5100032057
  0
LINE
  8
0
 62
7
  6
CONTINUOUS
 10
110.6759894643
 20
191.369719799
 11
111.0617564707
 21
191.5652189724
  0
LINE
  8
0
 62
7
  6
CONTINUOUS
 10
36.8261876349
 20
160.8158395501
 11
37.2372048923
 21
160.9503792251
  0
LINE
  8
0
 62
7
  6
CONTINUOUS
 10
32.2809325901
 20
177.2890193688
 11
31.8644379918
 21
177.1725360667
  0
LINE
  8
0
 62
7
  6
CONTINUOUS
 10
110.6724975216
 20
192.8484337564
 11
110.243130457
 21
192.7966647126
  0
LINE
  8
0
 62
7
  6
CONTINUOUS
 10
32.4270911902
 20
185.1324538015
 11
31.9958746539
 21
185.0994627588
  0
LINE
  8
0
 62
7
  6
CONTINUOUS
 10
112.3478753461
 20
185.0994627588
 11
111.9166588098
 21
185.1324538015
  0
LINE
  8
0
 62
7
  6
CONTINUOUS
 10
34.100619543
 20
192.7966647126
 11
33.6712524784
 21
192.8484337564
  0
LINE
  8
0
 62
7
  6
CONTINUOUS
 10
112.4793120082
 20
177.1725360667
 11
112.0628174099
 21
177.2890193688
  0
LINE
  8
0
 62
7
  6
CONTINUOUS
 10
37.2372048923
 20
199.9871207749
 11
36.8261876349
 21
200.1216604499
  0
LINE
  8
0
 62
7
  6
CONTINUOUS
 10
111.0617564707
 20
169.3722810276
 11
110.6759894643
 21
169.567780201
  0
LINE
  8
0
 62
7
  6
CONTINUOUS
 10
41.7163100224
 20
206.4274967943
 11
41.3394377348
 21
206.6396368163
  0
LINE
  8
0
 62
7
  6
CONTINUOUS
 10
108.149684598
 20
161.9984570681
 11
107.8094699931
 21
162.2654591892
  0
LINE
  8
0
 62
7
  6
CONTINUOUS
 10
47.3658054348
 20
211.8702927322
 11
47.0375611078
 21
212.1518806791
  0
LINE
  8
0
 62
7
  6
CONTINUOUS
 10
103.8550056791
 20
155.3344361078
 11
103.5734177322
 21
155.6626804348
  0
LINE
  8
0
 62
7
  6
CONTINUOUS
 10
53.9685841892
 20
216.1063449931
 11
53.7015820681
 21
216.446559598
  0
LINE
  8
0
 62
7
  6
CONTINUOUS
 10
98.3427618163
 20
149.6363127348
 11
98.1306217943
 21
150.0131850224
  0
LINE
  8
0
 62
7
  6
CONTINUOUS
 10
61.270905201
 20
218.9728644643
 11
61.0754060276
 21
219.3586314707
  0
LINE
  8
0
 62
7
  6
CONTINUOUS
 10
91.8247854499
 20
145.1230626349
 11
91.6902457749
 21
145.5340798923
  0
LINE
  8
0
 62
7
  6
CONTINUOUS
 10
68.9921443688
 20
220.3596924099
 11
68.8756610667
 21
220.7761870082
  0
LINE
  8
0
 62
7
  6
CONTINUOUS
 10
84.5515587564
 20
141.9681274784
 11
84.4997897126
 21
142.397494543
  0
LINE
  8
0
 62
7
  6
CONTINUOUS
 10
109.8709140407
 20
180.1995745741
 11
109.8709140407
 21
180.7379254259
  0
LINE
  8
0
 62
7
  6
CONTINUOUS
 10
109.0940240559
 20
172.8500290383
 11
109.199051097
 21
173.3780356294
  0
LINE
  8
0
 62
7
  6
CONTINUOUS
 10
106.8982365891
 20
165.7932666764
 11
107.1042545409
 21
166.2906380097
  0
LINE
  8
0
 62
7
  6
CONTINUOUS
 10
103.3679345212
 20
159.3004749085
 11
103.6670262294
 21
159.7480972826
  0
LINE
  8
0
 62
7
  6
CONTINUOUS
 10
98.6387853809
 20
153.6211680811
 11
99.0194569189
 21
154.0018396191
  0
LINE
  8
0
 62
7
  6
CONTINUOUS
 10
92.8925277174
 20
148.9735987706
 11
93.3401500915
 21
149.2726904788
  0
LINE
  8
0
 62
7
  6
CONTINUOUS
 10
86.3499869903
 20
145.5363704591
 11
86.8473583236
 21
145.7423884109
  0
LINE
  8
0
 62
7
  6
CONTINUOUS
 10
65.0811606294
 20
217.495926097
 11
64.5531540383
 21
217.3908990559
  0
LINE
  8
0
 62
7
  6
CONTINUOUS
 10
72.4410504259
 20
218.1677890407
 11
71.9026995741
 21
218.1677890407
  0
LINE
  8
0
 62
7
  6
CONTINUOUS
 10
79.7905959617
 20
217.3908990559
 11
79.2625893706
 21
217.495926097
  0
LINE
  8
0
 62
7
  6
CONTINUOUS
 10
86.8473583236
 20
215.1951115891
 11
86.3499869903
 21
215.4011295409
  0
LINE
  8
0
 62
7
  6
CONTINUOUS
 10
93.3401500915
 20
211.6648095212
 11
92.8925277174
 21
211.9639012294
  0
LINE
  8
0
 62
7
  6
CONTINUOUS
 10
99.0194569189
 20
206.9356603809
 11
98.6387853809
 21
207.3163319189
  0
LINE
  8
0
 62
7
  6
CONTINUOUS
 10
103.6670262294
 20
201.1894027174
 11
103.3679345212
 21
201.6370250915
  0
LINE
  8
0
 62
7
  6
CONTINUOUS
 10
107.1042545409
 20
194.6468619903
 11
106.8982365891
 21
195.1442333236
  0
LINE
  8
0
 62
7
  6
CONTINUOUS
 10
109.199051097
 20
187.5594643706
 11
109.0940240559
 21
188.0874709617
  0
LINE
  8
0
 62
7
  6
CONTINUOUS
 10
111.9720393986
 20
182.461088787
 11
111.9720393986
 21
178.476411213
  0
LINE
  8
0
 62
7
  6
CONTINUOUS
 10
111.5959764153
 20
174.658179667
 11
110.8186043843
 21
170.7500665553
  0
LINE
  8
0
 62
7
  6
CONTINUOUS
 10
109.7048673239
 20
167.0785675064
 11
108.179997233
 21
163.3972054521
  0
LINE
  8
0
 62
7
  6
CONTINUOUS
 10
106.3713863862
 20
160.0135325496
 11
104.157618138
 21
156.700394232
  0
LINE
  8
0
 62
7
  6
CONTINUOUS
 10
101.7236374053
 20
153.7345801281
 11
98.9060448719
 21
150.9169875947
  0
LINE
  8
0
 62
7
  6
CONTINUOUS
 10
95.940230768
 20
148.483006862
 11
92.6270924504
 21
146.2692386138
  0
LINE
  8
0
 62
7
  6
CONTINUOUS
 10
89.2434195479
 20
144.460627767
 11
85.5620574936
 21
142.9357576761
  0
LINE
  8
0
 62
7
  6
CONTINUOUS
 10
70.179536213
 20
220.2689143986
 11
74.164213787
 21
220.2689143986
  0
LINE
  8
0
 62
7
  6
CONTINUOUS
 10
77.982445333
 20
219.8928514153
 11
81.8905584447
 21
219.1154793843
  0
LINE
  8
0
 62
7
  6
CONTINUOUS
 10
85.5620574936
 20
218.0017423239
 11
89.2434195479
 21
216.476872233
  0
LINE
  8
0
 62
7
  6
CONTINUOUS
 10
92.6270924504
 20
214.6682613862
 11
95.940230768
 21
212.454493138
  0
LINE
  8
0
 62
7
  6
CONTINUOUS
 10
98.9060448719
 20
210.0205124053
 11
101.7236374053
 21
207.2029198719
  0
LINE
  8
0
 62
7
  6
CONTINUOUS
 10
104.157618138
 20
204.237105768
 11
106.3713863862
 21
200.9239674504
  0
LINE
  8
0
 62
7
  6
CONTINUOUS
 10
108.179997233
 20
197.5402945479
 11
109.7048673239
 21
193.8589324936
  0
LINE
  8
0
 62
7
  6
CONTINUOUS
 10
110.8186043843
 20
190.1874334447
 11
111.5959764153
 21
186.279320333
  0
LINE
  8
0
 62
7
  6
CONTINUOUS
 10
175.1102533922
 20
139.7959830188
 11
152.1084966078
 21
139.7959830188
  0
LINE
  8
0
 62
7
  6
CONTINUOUS
 10
160.109375
 20
140.8947151543
 11
167.109375
 21
140.8947151543
  0
POLYLINE
  8
0
 62
7
  6
CONTINUOUS
 66
1
 70
0
  0
VERTEX
  8
0
 62
7
  6
CONTINUOUS
 10
152.0950464944
 20
216.6378700067
  0
VERTEX
  8
0
 62
7
  6
CONTINUOUS
 10
152.0869299509
 20
216.6339257342
  0
VERTEX
  8
0
 62
7
  6
CONTINUOUS
 10
152.0747933504
 20
216.6184022633
  0
VERTEX
  8
0
 62
7
  6
CONTINUOUS
 10
152.0441544367
 20
216.5530272431
  0
VERTEX
  8
0
 62
7
  6
CONTINUOUS
 10
152.0073723433
 20
216.446559598
  0
SEQEND
  0
LINE
  8
0
 62
7
  6
CONTINUOUS
 10
175.1146558591
 20
141.3048913024
 11
152.1040941409
 21
141.3048913024
  0
LINE
  8
0
 62
7
  6
CONTINUOUS
 10
160.109375
 20
142.5684724797
 11
167.109375
 21
142.5684724797
  0
LINE
  8
0
 62
7
  6
CONTINUOUS
 10
175.1239025391
 20
144.2996299928
 11
152.0948474609
 21
144.2996299928
  0
LINE
  8
0
 62
7
  6
CONTINUOUS
 10
160.109375
 20
145.6987162156
 11
167.109375
 21
145.6987162156
  0
POLYLINE
  8
0
 62
7
  6
CONTINUOUS
 66
1
 70
0
  0
VERTEX
  8
0
 62
7
  6
CONTINUOUS
 10
151.3855206126
 20
145.979017462
  0
VERTEX
  8
0
 62
7
  6
CONTINUOUS
 10
151.4601599702
 20
145.9218688091
  0
VERTEX
  8
0
 62
7
  6
CONTINUOUS
 10
151.5081045898
 20
145.8488342365
  0
VERTEX
  8
0
 62
7
  6
CONTINUOUS
 10
151.6216757597
 20
145.6156254605
  0
VERTEX
  8
0
 62
7
  6
CONTINUOUS
 10
151.7547090118
 20
145.2722696916
  0
VERTEX
  8
0
 62
7
  6
CONTINUOUS
 10
151.9012427125
 20
144.8311550069
  0
SEQEND
  0
POLYLINE
  8
0
 62
7
  6
CONTINUOUS
 66
1
 70
0
  0
VERTEX
  8
0
 62
7
  6
CONTINUOUS
 10
152.1042127844
 20
219.6326086976
  0
VERTEX
  8
0
 62
7
  6
CONTINUOUS
 10
152.0869299509
 20
219.6069046951
  0
VERTEX
  8
0
 62
7
  6
CONTINUOUS
 10
152.0747933504
 20
219.5769535831
  0
VERTEX
  8
0
 62
7
  6
CONTINUOUS
 10
152.0441544367
 20
219.485427359
  0
VERTEX
  8
0
 62
7
  6
CONTINUOUS
 10
152.0073723433
 20
219.3586314707
  0
SEQEND
  0
LINE
  8
0
 62
7
  6
CONTINUOUS
 10
175.1373804233
 20
148.6651129615
 11
152.0813695767
 21
148.6651129615
  0
POLYLINE
  8
0
 62
7
  6
CONTINUOUS
 66
1
 70
0
  0
VERTEX
  8
0
 62
7
  6
CONTINUOUS
 10
151.4605383444
 20
149.790245424
  0
VERTEX
  8
0
 62
7
  6
CONTINUOUS
 10
151.5081045898
 20
149.7754591807
  0
VERTEX
  8
0
 62
7
  6
CONTINUOUS
 10
151.6216757597
 20
149.6554026103
  0
VERTEX
  8
0
 62
7
  6
CONTINUOUS
 10
151.7547090118
 20
149.4167703258
  0
VERTEX
  8
0
 62
7
  6
CONTINUOUS
 10
151.9012427125
 20
149.0672072678
  0
SEQEND
  0
POLYLINE
  8
0
 62
7
  6
CONTINUOUS
 66
1
 70
0
  0
VERTEX
  8
0
 62
7
  6
CONTINUOUS
 10
151.3385644429
 20
143.6084988972
  0
VERTEX
  8
0
 62
7
  6
CONTINUOUS
 10
151.3843372293
 20
143.5530634286
  0
VERTEX
  8
0
 62
7
  6
CONTINUOUS
 10
151.4601599702
 20
143.3811105439
  0
VERTEX
  8
0
 62
7
  6
CONTINUOUS
 10
151.5081045898
 20
143.2526332401
  0
VERTEX
  8
0
 62
7
  6
CONTINUOUS
 10
151.6216757597
 20
142.9152343408
  0
VERTEX
  8
0
 62
7
  6
CONTINUOUS
 10
151.7547090118
 20
142.4803500572
  0
VERTEX
  8
0
 62
7
  6
CONTINUOUS
 10
151.9012427125
 20
141.9646355357
  0
SEQEND
  0
POLYLINE
  8
0
 62
7
  6
CONTINUOUS
 66
1
 70
0
  0
VERTEX
  8
0
 62
7
  6
CONTINUOUS
 10
152.0645588669
 20
206.7039228515
  0
VERTEX
  8
0
 62
7
  6
CONTINUOUS
 10
152.0441544367
 20
206.6941119359
  0
VERTEX
  8
0
 62
7
  6
CONTINUOUS
 10
152.0073723433
 20
206.6396368163
  0
SEQEND
  0
POLYLINE
  8
0
 62
7
  6
CONTINUOUS
 66
1
 70
0
  0
VERTEX
  8
0
 62
7
  6
CONTINUOUS
 10
152.0816630357
 20
148.665112964
  0
VERTEX
  8
0
 62
7
  6
CONTINUOUS
 10
152.0869722542
 20
148.6663817475
  0
VERTEX
  8
0
 62
7
  6
CONTINUOUS
 10
152.10368866
 20
148.7004441506
  0
VERTEX
  8
0
 62
7
  6
CONTINUOUS
 10
152.109375
 20
148.7772116352
  0
SEQEND
  0
LINE
  8
0
 62
7
  6
CONTINUOUS
 10
160.109375
 20
150.1651528505
 11
167.109375
 21
150.1651528505
  0
POLYLINE
  8
0
 62
7
  6
CONTINUOUS
 66
1
 70
0
  0
VERTEX
  8
0
 62
7
  6
CONTINUOUS
 10
175.1370869643
 20
148.665112964
  0
VERTEX
  8
0
 62
7
  6
CONTINUOUS
 10
175.1317777458
 20
148.6663817475
  0
VERTEX
  8
0
 62
7
  6
CONTINUOUS
 10
175.11506134
 20
148.7004441506
  0
VERTEX
  8
0
 62
7
  6
CONTINUOUS
 10
175.109375
 20
148.7772116352
  0
SEQEND
  0
POLYLINE
  8
0
 62
7
  6
CONTINUOUS
 66
1
 70
0
  0
VERTEX
  8
0
 62
7
  6
CONTINUOUS
 10
152.1088302897
 20
221.1415169811
  0
VERTEX
  8
0
 62
7
  6
CONTINUOUS
 10
152.1036556369
 20
221.130348543
  0
VERTEX
  8
0
 62
7
  6
CONTINUOUS
 10
152.0869299509
 20
221.0758263201
  0
VERTEX
  8
0
 62
7
  6
CONTINUOUS
 10
152.0747933504
 20
221.0325985713
  0
VERTEX
  8
0
 62
7
  6
CONTINUOUS
 10
152.0441544367
 20
220.9184384448
  0
VERTEX
  8
0
 62
7
  6
CONTINUOUS
 10
151.9012427125
 20
220.3596924099
  0
SEQEND
  0
POLYLINE
  8
0
 62
7
  6
CONTINUOUS
 66
1
 70
0
  0
VERTEX
  8
0
 62
7
  6
CONTINUOUS
 10
175.6586302099
 20
154.8957194297
  0
VERTEX
  8
0
 62
7
  6
CONTINUOUS
 10
175.5970742403
 20
154.87931942
  0
VERTEX
  8
0
 62
7
  6
CONTINUOUS
 10
175.4640409882
 20
154.7545811248
  0
VERTEX
  8
0
 62
7
  6
CONTINUOUS
 10
175.3175072875
 20
154.5100032057
  0
SEQEND
  0
LINE
  8
0
 62
7
  6
CONTINUOUS
 10
175.1543918371
 20
154.2335771464
 11
152.0643581629
 21
154.2335771464
  0
POLYLINE
  8
0
 62
7
  6
CONTINUOUS
 66
1
 70
0
  0
VERTEX
  8
0
 62
7
  6
CONTINUOUS
 10
151.5601197901
 20
154.8957194297
  0
VERTEX
  8
0
 62
7
  6
CONTINUOUS
 10
151.6216757597
 20
154.87931942
  0
VERTEX
  8
0
 62
7
  6
CONTINUOUS
 10
151.7547090118
 20
154.7545811248
  0
VERTEX
  8
0
 62
7
  6
CONTINUOUS
 10
151.9012427125
 20
154.5100032057
  0
SEQEND
  0
POLYLINE
  8
0
 62
7
  6
CONTINUOUS
 66
1
 70
0
  0
VERTEX
  8
0
 62
7
  6
CONTINUOUS
 10
151.9012427125
 20
216.1063449931
  0
VERTEX
  8
0
 62
7
  6
CONTINUOUS
 10
151.7434340091
 20
215.6338230519
  0
VERTEX
  8
0
 62
7
  6
CONTINUOUS
 10
151.6014313969
 20
215.27551641
  0
VERTEX
  8
0
 62
7
  6
CONTINUOUS
 10
151.4831701057
 20
215.0482027035
  0
VERTEX
  8
0
 62
7
  6
CONTINUOUS
 10
151.3947698149
 20
214.9597078407
  0
VERTEX
  8
0
 62
7
  6
CONTINUOUS
 10
151.3855134185
 20
214.9584825425
  0
SEQEND
  0
POLYLINE
  8
0
 62
7
  6
CONTINUOUS
 66
1
 70
0
  0
VERTEX
  8
0
 62
7
  6
CONTINUOUS
 10
151.9012427125
 20
211.8702927322
  0
VERTEX
  8
0
 62
7
  6
CONTINUOUS
 10
151.7434340091
 20
211.4973127568
  0
VERTEX
  8
0
 62
7
  6
CONTINUOUS
 10
151.6014313969
 20
211.2539767124
  0
VERTEX
  8
0
 62
7
  6
CONTINUOUS
 10
151.4831701057
 20
211.1508307098
  0
VERTEX
  8
0
 62
7
  6
CONTINUOUS
 10
151.4605101672
 20
211.1472545827
  0
SEQEND
  0
POLYLINE
  8
0
 62
7
  6
CONTINUOUS
 66
1
 70
0
  0
VERTEX
  8
0
 62
7
  6
CONTINUOUS
 10
151.9012427125
 20
206.4274967943
  0
VERTEX
  8
0
 62
7
  6
CONTINUOUS
 10
151.7434340091
 20
206.1683921959
  0
VERTEX
  8
0
 62
7
  6
CONTINUOUS
 10
151.6014313969
 20
206.0493780169
  0
VERTEX
  8
0
 62
7
  6
CONTINUOUS
 10
151.5600864807
 20
206.0417805725
  0
SEQEND
  0
POLYLINE
  8
0
 62
7
  6
CONTINUOUS
 66
1
 70
0
  0
VERTEX
  8
0
 62
7
  6
CONTINUOUS
 10
151.9012427125
 20
199.9871207749
  0
VERTEX
  8
0
 62
7
  6
CONTINUOUS
 10
151.7434340091
 20
199.8518487979
  0
VERTEX
  8
0
 62
7
  6
CONTINUOUS
 10
151.6797202955
 20
199.8382610244
  0
SEQEND
  0
LINE
  8
0
 62
7
  6
CONTINUOUS
 10
160.109375
 20
155.7961397294
 11
167.109375
 21
155.7961397294
  0
POLYLINE
  8
0
 62
7
  6
CONTINUOUS
 66
1
 70
0
  0
VERTEX
  8
0
 62
7
  6
CONTINUOUS
 10
152.0073723433
 20
160.8158395501
  0
VERTEX
  8
0
 62
7
  6
CONTINUOUS
 10
152.04409628
 20
160.791031291
  0
VERTEX
  8
0
 62
7
  6
CONTINUOUS
 10
152.0443807009
 20
160.7910295916
  0
SEQEND
  0
POLYLINE
  8
0
 62
7
  6
CONTINUOUS
 66
1
 70
0
  0
VERTEX
  8
0
 62
7
  6
CONTINUOUS
 10
152.0073723433
 20
154.2978631837
  0
VERTEX
  8
0
 62
7
  6
CONTINUOUS
 10
152.04409628
 20
154.2434404958
  0
VERTEX
  8
0
 62
7
  6
CONTINUOUS
 10
152.0645579925
 20
154.2335771482
  0
SEQEND
  0
POLYLINE
  8
0
 62
7
  6
CONTINUOUS
 66
1
 70
0
  0
VERTEX
  8
0
 62
7
  6
CONTINUOUS
 10
152.0073723433
 20
148.7856193209
  0
VERTEX
  8
0
 62
7
  6
CONTINUOUS
 10
152.04409628
 20
148.7036736375
  0
VERTEX
  8
0
 62
7
  6
CONTINUOUS
 10
152.074811086
 20
148.6668513102
  0
VERTEX
  8
0
 62
7
  6
CONTINUOUS
 10
152.0816630357
 20
148.665112964
  0
SEQEND
  0
POLYLINE
  8
0
 62
7
  6
CONTINUOUS
 66
1
 70
0
  0
VERTEX
  8
0
 62
7
  6
CONTINUOUS
 10
152.0073723433
 20
144.490940402
  0
VERTEX
  8
0
 62
7
  6
CONTINUOUS
 10
152.04409628
 20
144.3846208498
  0
VERTEX
  8
0
 62
7
  6
CONTINUOUS
 10
152.074811086
 20
144.3190692264
  0
VERTEX
  8
0
 62
7
  6
CONTINUOUS
 10
152.0869722542
 20
144.3035370475
  0
VERTEX
  8
0
 62
7
  6
CONTINUOUS
 10
152.095047229
 20
144.2996299938
  0
SEQEND
  0
POLYLINE
  8
0
 62
7
  6
CONTINUOUS
 66
1
 70
0
  0
VERTEX
  8
0
 62
7
  6
CONTINUOUS
 10
152.04409628
 20
220.7967450406
  0
VERTEX
  8
0
 62
7
  6
CONTINUOUS
 10
152.074811086
 20
220.9294764247
  0
VERTEX
  8
0
 62
7
  6
CONTINUOUS
 10
152.0869722542
 20
220.9844357576
  0
VERTEX
  8
0
 62
7
  6
CONTINUOUS
 10
152.10368866
 20
221.0657217235
  0
VERTEX
  8
0
 62
7
  6
CONTINUOUS
 10
152.109375
 20
221.10397959
  0
SEQEND
  0
POLYLINE
  8
0
 62
7
  6
CONTINUOUS
 66
1
 70
0
  0
VERTEX
  8
0
 62
7
  6
CONTINUOUS
 10
152.0073723433
 20
218.9693725216
  0
VERTEX
  8
0
 62
7
  6
CONTINUOUS
 10
152.04409628
 20
219.1254906115
  0
VERTEX
  8
0
 62
7
  6
CONTINUOUS
 10
152.074811086
 20
219.2714069504
  0
VERTEX
  8
0
 62
7
  6
CONTINUOUS
 10
152.0869722542
 20
219.335902737
  0
VERTEX
  8
0
 62
7
  6
CONTINUOUS
 10
152.10368866
 20
219.440882717
  0
VERTEX
  8
0
 62
7
  6
CONTINUOUS
 10
152.109375
 20
219.5070493102
  0
SEQEND
  0
LINE
  8
0
 62
7
  6
CONTINUOUS
 10
152.04409628
 20
220.7967450406
 11
151.9012427125
 21
220.2135338098
  0
LINE
  8
0
 62
7
  6
CONTINUOUS
 10
152.0073723433
 20
218.9693725216
 11
151.9012427125
 21
218.540005457
  0
LINE
  8
0
 62
7
  6
CONTINUOUS
 10
151.109375
 20
217.31875
 11
151.321875
 21
218.16875
  0
POLYLINE
  8
0
 62
7
  6
CONTINUOUS
 66
1
 70
0
  0
VERTEX
  8
0
 62
7
  6
CONTINUOUS
 10
151.9012427125
 20
220.3596924099
  0
VERTEX
  8
0
 62
7
  6
CONTINUOUS
 10
151.7434340091
 20
219.7456903081
  0
VERTEX
  8
0
 62
7
  6
CONTINUOUS
 10
151.6014313969
 20
219.2026401413
  0
VERTEX
  8
0
 62
7
  6
CONTINUOUS
 10
151.4831701057
 20
218.7576336354
  0
VERTEX
  8
0
 62
7
  6
CONTINUOUS
 10
151.3947698149
 20
218.4300149812
  0
VERTEX
  8
0
 62
7
  6
CONTINUOUS
 10
151.3402619479
 20
218.2314392706
  0
VERTEX
  8
0
 62
7
  6
CONTINUOUS
 10
151.321895772
 20
218.1677125719
  0
SEQEND
  0
LINE
  8
0
 62
7
  6
CONTINUOUS
 10
152.0073723433
 20
215.8144373651
 11
151.9012427125
 21
215.4034201077
  0
LINE
  8
0
 62
7
  6
CONTINUOUS
 10
151.9012427125
 20
218.9728644643
 11
152.0073723433
 21
219.3586314707
  0
POLYLINE
  8
0
 62
7
  6
CONTINUOUS
 66
1
 70
0
  0
VERTEX
  8
0
 62
7
  6
CONTINUOUS
 10
151.9012427125
 20
218.9728644643
  0
VERTEX
  8
0
 62
7
  6
CONTINUOUS
 10
151.7434340091
 20
218.4189593105
  0
VERTEX
  8
0
 62
7
  6
CONTINUOUS
 10
151.6014313969
 20
217.9594515943
  0
VERTEX
  8
0
 62
7
  6
CONTINUOUS
 10
151.4831701057
 20
217.6167057222
  0
VERTEX
  8
0
 62
7
  6
CONTINUOUS
 10
151.3947698149
 20
217.4045728909
  0
VERTEX
  8
0
 62
7
  6
CONTINUOUS
 10
151.3385672721
 20
217.3290011029
  0
SEQEND
  0
LINE
  8
0
 62
7
  6
CONTINUOUS
 10
151.9012427125
 20
216.1063449931
 11
152.0073723433
 21
216.446559598
  0
LINE
  8
0
 62
7
  6
CONTINUOUS
 10
151.9012427125
 20
211.8702927322
 11
152.0073723433
 21
212.1518806791
  0
LINE
  8
0
 62
7
  6
CONTINUOUS
 10
151.9012427125
 20
206.4274967943
 11
152.0073723433
 21
206.6396368163
  0
LINE
  8
0
 62
7
  6
CONTINUOUS
 10
151.9012427125
 20
199.9871207749
 11
152.0073723433
 21
200.1216604499
  0
POLYLINE
  8
0
 62
7
  6
CONTINUOUS
 66
1
 70
0
  0
VERTEX
  8
0
 62
7
  6
CONTINUOUS
 10
175.5390046352
 20
161.0992389759
  0
VERTEX
  8
0
 62
7
  6
CONTINUOUS
 10
175.4640409882
 20
161.080573013
  0
VERTEX
  8
0
 62
7
  6
CONTINUOUS
 10
175.3175072875
 20
160.9503792251
  0
SEQEND
  0
LINE
  8
0
 62
7
  6
CONTINUOUS
 10
175.1743816034
 20
160.7910295916
 11
152.0443683966
 21
160.7910295916
  0
POLYLINE
  8
0
 62
7
  6
CONTINUOUS
 66
1
 70
0
  0
VERTEX
  8
0
 62
7
  6
CONTINUOUS
 10
151.6797453648
 20
161.0992389759
  0
VERTEX
  8
0
 62
7
  6
CONTINUOUS
 10
151.7547090118
 20
161.080573013
  0
VERTEX
  8
0
 62
7
  6
CONTINUOUS
 10
151.9012427125
 20
160.9503792251
  0
SEQEND
  0
POLYLINE
  8
0
 62
7
  6
CONTINUOUS
 66
1
 70
0
  0
VERTEX
  8
0
 62
7
  6
CONTINUOUS
 10
175.1541920075
 20
154.2335771482
  0
VERTEX
  8
0
 62
7
  6
CONTINUOUS
 10
175.143938914
 20
154.2367625259
  0
VERTEX
  8
0
 62
7
  6
CONTINUOUS
 10
175.1317777458
 20
154.2513736244
  0
VERTEX
  8
0
 62
7
  6
CONTINUOUS
 10
175.11506134
 20
154.3138535208
  0
VERTEX
  8
0
 62
7
  6
CONTINUOUS
 10
175.109375
 20
154.4146778546
  0
SEQEND
  0
LINE
  8
0
 62
7
  6
CONTINUOUS
 10
152.0073723433
 20
160.8158395501
 11
151.9012427125
 21
160.9503792251
  0
LINE
  8
0
 62
7
  6
CONTINUOUS
 10
152.0073723433
 20
154.2978631837
 11
151.9012427125
 21
154.5100032057
  0
LINE
  8
0
 62
7
  6
CONTINUOUS
 10
152.0073723433
 20
148.7856193209
 11
151.9012427125
 21
149.0672072678
  0
LINE
  8
0
 62
7
  6
CONTINUOUS
 10
152.0073723433
 20
144.490940402
 11
151.9012427125
 21
144.8311550069
  0
POLYLINE
  8
0
 62
7
  6
CONTINUOUS
 66
1
 70
0
  0
VERTEX
  8
0
 62
7
  6
CONTINUOUS
 10
152.0073723433
 20
141.5788685293
  0
VERTEX
  8
0
 62
7
  6
CONTINUOUS
 10
152.04409628
 20
141.4522609091
  0
VERTEX
  8
0
 62
7
  6
CONTINUOUS
 10
152.074811086
 20
141.3604991017
  0
VERTEX
  8
0
 62
7
  6
CONTINUOUS
 10
152.0869722542
 20
141.3305011996
  0
VERTEX
  8
0
 62
7
  6
CONTINUOUS
 10
152.1042134732
 20
141.3048913025
  0
SEQEND
  0
POLYLINE
  8
0
 62
7
  6
CONTINUOUS
 66
1
 70
0
  0
VERTEX
  8
0
 62
7
  6
CONTINUOUS
 10
151.3218966667
 20
142.7697874282
  0
VERTEX
  8
0
 62
7
  6
CONTINUOUS
 10
151.3376572486
 20
142.715398019
  0
VERTEX
  8
0
 62
7
  6
CONTINUOUS
 10
151.3843372293
 20
142.5457803049
  0
SEQEND
  0
LINE
  8
0
 62
7
  6
CONTINUOUS
 10
152.0073723433
 20
141.5788685293
 11
151.9012427125
 21
141.9646355357
  0
POLYLINE
  8
0
 62
7
  6
CONTINUOUS
 66
1
 70
0
  0
VERTEX
  8
0
 62
7
  6
CONTINUOUS
 10
152.04409628
 20
140.0192827634
  0
VERTEX
  8
0
 62
7
  6
CONTINUOUS
 10
152.074811086
 20
139.9048371269
  0
VERTEX
  8
0
 62
7
  6
CONTINUOUS
 10
152.0869722542
 20
139.8615263041
  0
VERTEX
  8
0
 62
7
  6
CONTINUOUS
 10
152.10368866
 20
139.8070581264
  0
VERTEX
  8
0
 62
7
  6
CONTINUOUS
 10
152.1088319954
 20
139.7959830199
  0
SEQEND
  0
POLYLINE
  8
0
 62
7
  6
CONTINUOUS
 66
1
 70
0
  0
VERTEX
  8
0
 62
7
  6
CONTINUOUS
 10
151.3843372293
 20
142.5457803049
  0
VERTEX
  8
0
 62
7
  6
CONTINUOUS
 10
151.5081045898
 20
142.0866267397
  0
VERTEX
  8
0
 62
7
  6
CONTINUOUS
 10
151.6216757597
 20
141.6580037677
  0
VERTEX
  8
0
 62
7
  6
CONTINUOUS
 10
151.7547090118
 20
141.1483033284
  0
SEQEND
  0
LINE
  8
0
 62
7
  6
CONTINUOUS
 10
151.9012427125
 20
145.5340798923
 11
152.0073723433
 21
145.1230626349
  0
LINE
  8
0
 62
7
  6
CONTINUOUS
 10
152.04409628
 20
140.0192827634
 11
151.7547090118
 21
141.1483033284
  0
LINE
  8
0
 62
7
  6
CONTINUOUS
 10
151.109375
 20
143.61875
 11
151.321875
 21
142.76875
  0
LINE
  8
0
 62
7
  6
CONTINUOUS
 10
151.9012427125
 20
142.397494543
 11
152.0073723433
 21
141.9681274784
  0
LINE
  8
0
 62
7
  6
CONTINUOUS
 10
151.9012427125
 20
140.7239661902
 11
152.0073723433
 21
140.2927496539
  0
POLYLINE
  8
0
 62
7
  6
CONTINUOUS
 66
1
 70
0
  0
VERTEX
  8
0
 62
7
  6
CONTINUOUS
 10
151.9012427125
 20
145.5340798923
  0
VERTEX
  8
0
 62
7
  6
CONTINUOUS
 10
151.7434340091
 20
146.182148096
  0
VERTEX
  8
0
 62
7
  6
CONTINUOUS
 10
151.6014313969
 20
146.8418714749
  0
VERTEX
  8
0
 62
7
  6
CONTINUOUS
 10
151.4831701057
 20
147.4787442462
  0
VERTEX
  8
0
 62
7
  6
CONTINUOUS
 10
151.3947698149
 20
148.0620980707
  0
VERTEX
  8
0
 62
7
  6
CONTINUOUS
 10
151.3402619479
 20
148.567066176
  0
VERTEX
  8
0
 62
7
  6
CONTINUOUS
 10
151.321875
 20
148.9735987706
  0
SEQEND
  0
POLYLINE
  8
0
 62
7
  6
CONTINUOUS
 66
1
 70
0
  0
VERTEX
  8
0
 62
7
  6
CONTINUOUS
 10
151.9012427125
 20
140.7239661902
  0
VERTEX
  8
0
 62
7
  6
CONTINUOUS
 10
151.7434340091
 20
141.3744694837
  0
VERTEX
  8
0
 62
7
  6
CONTINUOUS
 10
151.6014313969
 20
141.9801929875
  0
VERTEX
  8
0
 62
7
  6
CONTINUOUS
 10
151.4831701057
 20
142.510358777
  0
VERTEX
  8
0
 62
7
  6
CONTINUOUS
 10
151.3947698149
 20
142.9408730528
  0
VERTEX
  8
0
 62
7
  6
CONTINUOUS
 10
151.3402619479
 20
143.254975599
  0
VERTEX
  8
0
 62
7
  6
CONTINUOUS
 10
151.321875
 20
143.441573903
  0
SEQEND
  0
POLYLINE
  8
0
 62
7
  6
CONTINUOUS
 66
1
 70
0
  0
VERTEX
  8
0
 62
7
  6
CONTINUOUS
 10
151.9012427125
 20
142.397494543
  0
VERTEX
  8
0
 62
7
  6
CONTINUOUS
 10
151.7434340091
 20
143.0595005514
  0
VERTEX
  8
0
 62
7
  6
CONTINUOUS
 10
151.6014313969
 20
143.7046197778
  0
VERTEX
  8
0
 62
7
  6
CONTINUOUS
 10
151.4831701057
 20
144.2995708767
  0
VERTEX
  8
0
 62
7
  6
CONTINUOUS
 10
151.3947698149
 20
144.816436352
  0
VERTEX
  8
0
 62
7
  6
CONTINUOUS
 10
151.3402619479
 20
145.2339949492
  0
VERTEX
  8
0
 62
7
  6
CONTINUOUS
 10
151.321875
 20
145.5363704591
  0
SEQEND
  0
POLYLINE
  8
0
 62
7
  6
CONTINUOUS
 66
1
 70
0
  0
VERTEX
  8
0
 62
7
  6
CONTINUOUS
 10
152.0073723433
 20
215.8144373651
  0
VERTEX
  8
0
 62
7
  6
CONTINUOUS
 10
152.04409628
 20
215.9686793196
  0
VERTEX
  8
0
 62
7
  6
CONTINUOUS
 10
152.074811086
 20
216.1221731303
  0
VERTEX
  8
0
 62
7
  6
CONTINUOUS
 10
152.0869722542
 20
216.1937268337
  0
VERTEX
  8
0
 62
7
  6
CONTINUOUS
 10
152.10368866
 20
216.3183665061
  0
VERTEX
  8
0
 62
7
  6
CONTINUOUS
 10
152.109375
 20
216.4098990809
  0
SEQEND
  0
POLYLINE
  8
0
 62
7
  6
CONTINUOUS
 66
1
 70
0
  0
VERTEX
  8
0
 62
7
  6
CONTINUOUS
 10
152.0073723433
 20
211.3011872652
  0
VERTEX
  8
0
 62
7
  6
CONTINUOUS
 10
152.04409628
 20
211.4476256525
  0
VERTEX
  8
0
 62
7
  6
CONTINUOUS
 10
152.074811086
 20
211.602798254
  0
VERTEX
  8
0
 62
7
  6
CONTINUOUS
 10
152.0869722542
 20
211.6786601055
  0
VERTEX
  8
0
 62
7
  6
CONTINUOUS
 10
152.10368866
 20
211.8181696375
  0
VERTEX
  8
0
 62
7
  6
CONTINUOUS
 10
152.109375
 20
211.9315506484
  0
SEQEND
  0
POLYLINE
  8
0
 62
7
  6
CONTINUOUS
 66
1
 70
0
  0
VERTEX
  8
0
 62
7
  6
CONTINUOUS
 10
152.0073723433
 20
205.6030638922
  0
VERTEX
  8
0
 62
7
  6
CONTINUOUS
 10
152.04409628
 20
205.7360711673
  0
VERTEX
  8
0
 62
7
  6
CONTINUOUS
 10
152.074811086
 20
205.8869593635
  0
VERTEX
  8
0
 62
7
  6
CONTINUOUS
 10
152.0869722542
 20
205.9642140347
  0
VERTEX
  8
0
 62
7
  6
CONTINUOUS
 10
152.10368866
 20
206.1132321532
  0
VERTEX
  8
0
 62
7
  6
CONTINUOUS
 10
152.109375
 20
206.2441044315
  0
SEQEND
  0
LINE
  8
0
 62
7
  6
CONTINUOUS
 10
152.0073723433
 20
211.3011872652
 11
151.9012427125
 21
210.9243149776
  0
POLYLINE
  8
0
 62
7
  6
CONTINUOUS
 66
1
 70
0
  0
VERTEX
  8
0
 62
7
  6
CONTINUOUS
 10
152.0073723433
 20
198.9390429319
  0
VERTEX
  8
0
 62
7
  6
CONTINUOUS
 10
152.04409628
 20
199.0535076997
  0
VERTEX
  8
0
 62
7
  6
CONTINUOUS
 10
152.074811086
 20
199.1943129418
  0
VERTEX
  8
0
 62
7
  6
CONTINUOUS
 10
152.0869722542
 20
199.269991579
  0
VERTEX
  8
0
 62
7
  6
CONTINUOUS
 10
152.10368866
 20
199.4227916014
  0
VERTEX
  8
0
 62
7
  6
CONTINUOUS
 10
152.109375
 20
199.5661257988
  0
SEQEND
  0
LINE
  8
0
 62
7
  6
CONTINUOUS
 10
152.0073723433
 20
205.6030638922
 11
151.9012427125
 21
205.2748195652
  0
LINE
  8
0
 62
7
  6
CONTINUOUS
 10
152.0073723433
 20
198.9390429319
 11
151.9012427125
 21
198.6720408108
  0
POLYLINE
  8
0
 62
7
  6
CONTINUOUS
 66
1
 70
0
  0
VERTEX
  8
0
 62
7
  6
CONTINUOUS
 10
175.7582398328
 20
211.1472545827
  0
VERTEX
  8
0
 62
7
  6
CONTINUOUS
 10
175.8239801851
 20
211.1893746235
  0
VERTEX
  8
0
 62
7
  6
CONTINUOUS
 10
175.8784880521
 20
211.3641233908
  0
VERTEX
  8
0
 62
7
  6
CONTINUOUS
 10
175.896875
 20
211.6648095212
  0
SEQEND
  0
POLYLINE
  8
0
 62
7
  6
CONTINUOUS
 66
1
 70
0
  0
VERTEX
  8
0
 62
7
  6
CONTINUOUS
 10
175.6586635193
 20
206.0417805725
  0
VERTEX
  8
0
 62
7
  6
CONTINUOUS
 10
175.7355798943
 20
206.0743635611
  0
VERTEX
  8
0
 62
7
  6
CONTINUOUS
 10
175.8239801851
 20
206.2384650303
  0
VERTEX
  8
0
 62
7
  6
CONTINUOUS
 10
175.8784880521
 20
206.5306085398
  0
VERTEX
  8
0
 62
7
  6
CONTINUOUS
 10
175.896875
 20
206.9356603809
  0
SEQEND
  0
LINE
  8
0
 62
7
  6
CONTINUOUS
 10
160.109375
 20
162.3752811844
 11
167.109375
 21
162.3752811844
  0
POLYLINE
  8
0
 62
7
  6
CONTINUOUS
 66
1
 70
0
  0
VERTEX
  8
0
 62
7
  6
CONTINUOUS
 10
175.123702771
 20
144.2996299938
  0
VERTEX
  8
0
 62
7
  6
CONTINUOUS
 10
175.11506134
 20
144.3078729584
  0
VERTEX
  8
0
 62
7
  6
CONTINUOUS
 10
175.109375
 20
144.3576334623
  0
SEQEND
  0
LINE
  8
0
 62
7
  6
CONTINUOUS
 10
151.9012427125
 20
162.2654591892
 11
152.0073723433
 21
161.9984570681
  0
POLYLINE
  8
0
 62
7
  6
CONTINUOUS
 66
1
 70
0
  0
VERTEX
  8
0
 62
7
  6
CONTINUOUS
 10
151.9012427125
 20
162.2654591892
  0
VERTEX
  8
0
 62
7
  6
CONTINUOUS
 10
151.7434340091
 20
162.7291551235
  0
VERTEX
  8
0
 62
7
  6
CONTINUOUS
 10
151.6014313969
 20
163.2831848409
  0
VERTEX
  8
0
 62
7
  6
CONTINUOUS
 10
151.4831701057
 20
163.8972590474
  0
VERTEX
  8
0
 62
7
  6
CONTINUOUS
 10
151.3947698149
 20
164.5397223498
  0
VERTEX
  8
0
 62
7
  6
CONTINUOUS
 10
151.3402619479
 20
165.1808779088
  0
VERTEX
  8
0
 62
7
  6
CONTINUOUS
 10
151.321875
 20
165.7932666764
  0
SEQEND
  0
LINE
  8
0
 62
7
  6
CONTINUOUS
 10
151.9012427125
 20
155.6626804348
 11
152.0073723433
 21
155.3344361078
  0
POLYLINE
  8
0
 62
7
  6
CONTINUOUS
 66
1
 70
0
  0
VERTEX
  8
0
 62
7
  6
CONTINUOUS
 10
151.9012427125
 20
155.6626804348
  0
VERTEX
  8
0
 62
7
  6
CONTINUOUS
 10
151.7434340091
 20
156.2096510394
  0
VERTEX
  8
0
 62
7
  6
CONTINUOUS
 10
151.6014313969
 20
156.8229373893
  0
VERTEX
  8
0
 62
7
  6
CONTINUOUS
 10
151.4831701057
 20
157.4695590363
  0
VERTEX
  8
0
 62
7
  6
CONTINUOUS
 10
151.3947698149
 20
158.1169420777
  0
VERTEX
  8
0
 62
7
  6
CONTINUOUS
 10
151.3402619479
 20
158.7358989258
  0
VERTEX
  8
0
 62
7
  6
CONTINUOUS
 10
151.321875
 20
159.3004749085
  0
SEQEND
  0
LINE
  8
0
 62
7
  6
CONTINUOUS
 10
151.9012427125
 20
150.0131850224
 11
152.0073723433
 21
149.6363127348
  0
POLYLINE
  8
0
 62
7
  6
CONTINUOUS
 66
1
 70
0
  0
VERTEX
  8
0
 62
7
  6
CONTINUOUS
 10
151.9012427125
 20
150.0131850224
  0
VERTEX
  8
0
 62
7
  6
CONTINUOUS
 10
151.7434340091
 20
150.6224105237
  0
VERTEX
  8
0
 62
7
  6
CONTINUOUS
 10
151.6014313969
 20
151.2713852555
  0
VERTEX
  8
0
 62
7
  6
CONTINUOUS
 10
151.4831701057
 20
151.9257050358
  0
VERTEX
  8
0
 62
7
  6
CONTINUOUS
 10
151.3947698149
 20
152.5531292491
  0
VERTEX
  8
0
 62
7
  6
CONTINUOUS
 10
151.3402619479
 20
153.1261012216
  0
VERTEX
  8
0
 62
7
  6
CONTINUOUS
 10
151.321875
 20
153.6211680811
  0
SEQEND
  0
POLYLINE
  8
0
 62
7
  6
CONTINUOUS
 66
1
 70
0
  0
VERTEX
  8
0
 62
7
  6
CONTINUOUS
 10
152.109375
 20
139.83352041
  0
VERTEX
  8
0
 62
7
  6
CONTINUOUS
 10
152.1036556369
 20
139.8719546935
  0
VERTEX
  8
0
 62
7
  6
CONTINUOUS
 10
152.0869299509
 20
139.9532592252
  0
VERTEX
  8
0
 62
7
  6
CONTINUOUS
 10
152.0747933504
 20
140.0081023926
  0
VERTEX
  8
0
 62
7
  6
CONTINUOUS
 10
152.0441544367
 20
140.1405093119
  0
VERTEX
  8
0
 62
7
  6
CONTINUOUS
 10
152.0073723433
 20
140.2927496539
  0
SEQEND
  0
POLYLINE
  8
0
 62
7
  6
CONTINUOUS
 66
1
 70
0
  0
VERTEX
  8
0
 62
7
  6
CONTINUOUS
 10
152.109375
 20
141.4304506898
  0
VERTEX
  8
0
 62
7
  6
CONTINUOUS
 10
152.1036556369
 20
141.4968700066
  0
VERTEX
  8
0
 62
7
  6
CONTINUOUS
 10
152.0869299509
 20
141.6018323597
  0
VERTEX
  8
0
 62
7
  6
CONTINUOUS
 10
152.0747933504
 20
141.6661833534
  0
VERTEX
  8
0
 62
7
  6
CONTINUOUS
 10
152.0441544367
 20
141.8117487419
  0
VERTEX
  8
0
 62
7
  6
CONTINUOUS
 10
152.0073723433
 20
141.9681274784
  0
SEQEND
  0
POLYLINE
  8
0
 62
7
  6
CONTINUOUS
 66
1
 70
0
  0
VERTEX
  8
0
 62
7
  6
CONTINUOUS
 10
151.321875
 20
215.4011295409
  0
VERTEX
  8
0
 62
7
  6
CONTINUOUS
 10
151.3376572486
 20
215.6771232797
  0
VERTEX
  8
0
 62
7
  6
CONTINUOUS
 10
151.3843372293
 20
216.0515067113
  0
VERTEX
  8
0
 62
7
  6
CONTINUOUS
 10
151.4601599702
 20
216.5120680466
  0
VERTEX
  8
0
 62
7
  6
CONTINUOUS
 10
151.5081045898
 20
216.7697504255
  0
VERTEX
  8
0
 62
7
  6
CONTINUOUS
 10
151.6216757597
 20
217.3285336315
  0
VERTEX
  8
0
 62
7
  6
CONTINUOUS
 10
151.7547090118
 20
217.9269814697
  0
VERTEX
  8
0
 62
7
  6
CONTINUOUS
 10
151.9012427125
 20
218.540005457
  0
SEQEND
  0
POLYLINE
  8
0
 62
7
  6
CONTINUOUS
 66
1
 70
0
  0
VERTEX
  8
0
 62
7
  6
CONTINUOUS
 10
151.321875
 20
217.495926097
  0
VERTEX
  8
0
 62
7
  6
CONTINUOUS
 10
151.3376572486
 20
217.6643149817
  0
VERTEX
  8
0
 62
7
  6
CONTINUOUS
 10
151.3843372293
 20
217.9416443608
  0
VERTEX
  8
0
 62
7
  6
CONTINUOUS
 10
151.4601599702
 20
218.3192663495
  0
VERTEX
  8
0
 62
7
  6
CONTINUOUS
 10
151.5081045898
 20
218.5418762887
  0
VERTEX
  8
0
 62
7
  6
CONTINUOUS
 10
151.6216757597
 20
219.0452515931
  0
VERTEX
  8
0
 62
7
  6
CONTINUOUS
 10
151.7547090118
 20
219.6101806859
  0
VERTEX
  8
0
 62
7
  6
CONTINUOUS
 10
151.9012427125
 20
220.2135338098
  0
SEQEND
  0
POLYLINE
  8
0
 62
7
  6
CONTINUOUS
 66
1
 70
0
  0
VERTEX
  8
0
 62
7
  6
CONTINUOUS
 10
152.0073723433
 20
191.5652189724
  0
VERTEX
  8
0
 62
7
  6
CONTINUOUS
 10
152.04409628
 20
191.6567424161
  0
VERTEX
  8
0
 62
7
  6
CONTINUOUS
 10
152.074811086
 20
191.7820536376
  0
VERTEX
  8
0
 62
7
  6
CONTINUOUS
 10
152.0869722542
 20
191.8532479533
  0
VERTEX
  8
0
 62
7
  6
CONTINUOUS
 10
152.10368866
 20
192.0039578604
  0
VERTEX
  8
0
 62
7
  6
CONTINUOUS
 10
152.109375
 20
192.1542457241
  0
SEQEND
  0
LINE
  8
0
 62
7
  6
CONTINUOUS
 10
152.0073723433
 20
191.5652189724
 11
151.9012427125
 21
191.369719799
  0
LINE
  8
0
 62
7
  6
CONTINUOUS
 10
151.9012427125
 20
192.7966647126
 11
152.0073723433
 21
192.8484337564
  0
POLYLINE
  8
0
 62
7
  6
CONTINUOUS
 66
1
 70
0
  0
VERTEX
  8
0
 62
7
  6
CONTINUOUS
 10
175.5390297045
 20
199.8382610244
  0
VERTEX
  8
0
 62
7
  6
CONTINUOUS
 10
175.6173186031
 20
199.8617301324
  0
VERTEX
  8
0
 62
7
  6
CONTINUOUS
 10
175.7355798943
 20
200.013887043
  0
VERTEX
  8
0
 62
7
  6
CONTINUOUS
 10
175.8239801851
 20
200.2972397403
  0
VERTEX
  8
0
 62
7
  6
CONTINUOUS
 10
175.8784880521
 20
200.6955510809
  0
VERTEX
  8
0
 62
7
  6
CONTINUOUS
 10
175.896875
 20
201.1894027174
  0
SEQEND
  0
LINE
  8
0
 62
7
  6
CONTINUOUS
 10
175.4045664207
 20
168.1624062846
 11
175.3175072875
 21
168.1408352874
  0
LINE
  8
0
 62
7
  6
CONTINUOUS
 10
175.2113776567
 20
168.0890662436
 11
175.196835737
 21
168.0854710776
  0
LINE
  8
0
 62
7
  6
CONTINUOUS
 10
152.0073723433
 20
168.0890662436
 11
152.021914263
 21
168.0854710776
  0
LINE
  8
0
 62
7
  6
CONTINUOUS
 10
151.8141835793
 20
168.1624062846
 11
151.9012427125
 21
168.1408352874
  0
LINE
  8
0
 62
7
  6
CONTINUOUS
 10
152.0073723433
 20
168.0890662436
 11
151.9012427125
 21
168.1408352874
  0
LINE
  8
0
 62
7
  6
CONTINUOUS
 10
151.9012427125
 20
169.567780201
 11
152.0073723433
 21
169.3722810276
  0
POLYLINE
  8
0
 62
7
  6
CONTINUOUS
 66
1
 70
0
  0
VERTEX
  8
0
 62
7
  6
CONTINUOUS
 10
151.9012427125
 20
169.567780201
  0
VERTEX
  8
0
 62
7
  6
CONTINUOUS
 10
151.7434340091
 20
169.9303818903
  0
VERTEX
  8
0
 62
7
  6
CONTINUOUS
 10
151.6014313969
 20
170.4038639238
  0
VERTEX
  8
0
 62
7
  6
CONTINUOUS
 10
151.4831701057
 20
170.9617921624
  0
VERTEX
  8
0
 62
7
  6
CONTINUOUS
 10
151.3947698149
 20
171.5746462213
  0
VERTEX
  8
0
 62
7
  6
CONTINUOUS
 10
151.3402619479
 20
172.2133612428
  0
VERTEX
  8
0
 62
7
  6
CONTINUOUS
 10
151.321875
 20
172.8500290383
  0
SEQEND
  0
POLYLINE
  8
0
 62
7
  6
CONTINUOUS
 66
1
 70
0
  0
VERTEX
  8
0
 62
7
  6
CONTINUOUS
 10
152.109375
 20
144.5276009191
  0
VERTEX
  8
0
 62
7
  6
CONTINUOUS
 10
152.1036556369
 20
144.6194528122
  0
VERTEX
  8
0
 62
7
  6
CONTINUOUS
 10
152.0869299509
 20
144.7440393422
  0
VERTEX
  8
0
 62
7
  6
CONTINUOUS
 10
152.0747933504
 20
144.8154251898
  0
VERTEX
  8
0
 62
7
  6
CONTINUOUS
 10
152.0441544367
 20
144.9685550512
  0
VERTEX
  8
0
 62
7
  6
CONTINUOUS
 10
152.0073723433
 20
145.1230626349
  0
SEQEND
  0
POLYLINE
  8
0
 62
7
  6
CONTINUOUS
 66
1
 70
0
  0
VERTEX
  8
0
 62
7
  6
CONTINUOUS
 10
152.109375
 20
149.0059493516
  0
VERTEX
  8
0
 62
7
  6
CONTINUOUS
 10
152.1036556369
 20
149.1197040042
  0
VERTEX
  8
0
 62
7
  6
CONTINUOUS
 10
152.0869299509
 20
149.2591269207
  0
VERTEX
  8
0
 62
7
  6
CONTINUOUS
 10
152.0747933504
 20
149.3348043039
  0
VERTEX
  8
0
 62
7
  6
CONTINUOUS
 10
152.0441544367
 20
149.4896139436
  0
VERTEX
  8
0
 62
7
  6
CONTINUOUS
 10
152.0073723433
 20
149.6363127348
  0
SEQEND
  0
POLYLINE
  8
0
 62
7
  6
CONTINUOUS
 66
1
 70
0
  0
VERTEX
  8
0
 62
7
  6
CONTINUOUS
 10
152.109375
 20
154.6933955685
  0
VERTEX
  8
0
 62
7
  6
CONTINUOUS
 10
152.1036556369
 20
154.8246814531
  0
VERTEX
  8
0
 62
7
  6
CONTINUOUS
 10
152.0869299509
 20
154.9735828115
  0
VERTEX
  8
0
 62
7
  6
CONTINUOUS
 10
152.0747933504
 20
155.0506434911
  0
VERTEX
  8
0
 62
7
  6
CONTINUOUS
 10
152.0441544367
 20
155.2011836613
  0
VERTEX
  8
0
 62
7
  6
CONTINUOUS
 10
152.0073723433
 20
155.3344361078
  0
SEQEND
  0
POLYLINE
  8
0
 62
7
  6
CONTINUOUS
 66
1
 70
0
  0
VERTEX
  8
0
 62
7
  6
CONTINUOUS
 10
152.109375
 20
161.3713742012
  0
VERTEX
  8
0
 62
7
  6
CONTINUOUS
 10
152.1036556369
 20
161.5151460749
  0
VERTEX
  8
0
 62
7
  6
CONTINUOUS
 10
152.0869299509
 20
161.6678036796
  0
VERTEX
  8
0
 62
7
  6
CONTINUOUS
 10
152.0747933504
 20
161.7432862568
  0
VERTEX
  8
0
 62
7
  6
CONTINUOUS
 10
152.0441544367
 20
161.8837717832
  0
VERTEX
  8
0
 62
7
  6
CONTINUOUS
 10
152.0073723433
 20
161.9984570681
  0
SEQEND
  0
POLYLINE
  8
0
 62
7
  6
CONTINUOUS
 66
1
 70
0
  0
VERTEX
  8
0
 62
7
  6
CONTINUOUS
 10
152.109375
 20
184.652123778
  0
VERTEX
  8
0
 62
7
  6
CONTINUOUS
 10
152.1036556369
 20
184.7993557731
  0
VERTEX
  8
0
 62
7
  6
CONTINUOUS
 10
152.0869299509
 20
184.9286295619
  0
VERTEX
  8
0
 62
7
  6
CONTINUOUS
 10
152.0747933504
 20
184.9827666527
  0
VERTEX
  8
0
 62
7
  6
CONTINUOUS
 10
152.0441544367
 20
185.0632556837
  0
VERTEX
  8
0
 62
7
  6
CONTINUOUS
 10
152.0073723433
 20
185.0994627588
  0
SEQEND
  0
POLYLINE
  8
0
 62
7
  6
CONTINUOUS
 66
1
 70
0
  0
VERTEX
  8
0
 62
7
  6
CONTINUOUS
 10
152.109375
 20
168.7832542759
  0
VERTEX
  8
0
 62
7
  6
CONTINUOUS
 10
152.1036556369
 20
168.9339870662
  0
VERTEX
  8
0
 62
7
  6
CONTINUOUS
 10
152.0869299509
 20
169.084534371
  0
VERTEX
  8
0
 62
7
  6
CONTINUOUS
 10
152.0747933504
 20
169.1555380927
  0
VERTEX
  8
0
 62
7
  6
CONTINUOUS
 10
152.0441544367
 20
169.2805701954
  0
VERTEX
  8
0
 62
7
  6
CONTINUOUS
 10
152.0073723433
 20
169.3722810276
  0
SEQEND
  0
POLYLINE
  8
0
 62
7
  6
CONTINUOUS
 66
1
 70
0
  0
VERTEX
  8
0
 62
7
  6
CONTINUOUS
 10
152.109375
 20
176.644201398
  0
VERTEX
  8
0
 62
7
  6
CONTINUOUS
 10
152.1036556369
 20
176.7961025283
  0
VERTEX
  8
0
 62
7
  6
CONTINUOUS
 10
152.0869299509
 20
176.9387540848
  0
VERTEX
  8
0
 62
7
  6
CONTINUOUS
 10
152.0747933504
 20
177.0025503178
  0
VERTEX
  8
0
 62
7
  6
CONTINUOUS
 10
152.0441544367
 20
177.1073240832
  0
VERTEX
  8
0
 62
7
  6
CONTINUOUS
 10
152.0073723433
 20
177.1725360667
  0
SEQEND
  0
LINE
  8
0
 62
7
  6
CONTINUOUS
 10
151.109375
 20
217.3187426952
 11
151.109375
 21
143.6187573048
  0
LINE
  8
0
 62
7
  6
CONTINUOUS
 10
151.321875
 20
217.495926097
 11
151.321875
 21
217.3908990559
  0
LINE
  8
0
 62
7
  6
CONTINUOUS
 10
151.321875
 20
215.4011295409
 11
151.321875
 21
215.1951115891
  0
LINE
  8
0
 62
7
  6
CONTINUOUS
 10
151.321875
 20
211.9639012294
 11
151.321875
 21
211.6648095212
  0
LINE
  8
0
 62
7
  6
CONTINUOUS
 10
151.321875
 20
207.3163319189
 11
151.321875
 21
206.9356603809
  0
LINE
  8
0
 62
7
  6
CONTINUOUS
 10
151.321875
 20
201.6370250915
 11
151.321875
 21
201.1894027174
  0
LINE
  8
0
 62
7
  6
CONTINUOUS
 10
151.321875
 20
195.1442333236
 11
151.321875
 21
194.6468619903
  0
LINE
  8
0
 62
7
  6
CONTINUOUS
 10
151.321875
 20
188.0874709617
 11
151.321875
 21
187.5594643706
  0
LINE
  8
0
 62
7
  6
CONTINUOUS
 10
151.321875
 20
180.7379254259
 11
151.321875
 21
180.1995745741
  0
LINE
  8
0
 62
7
  6
CONTINUOUS
 10
151.321875
 20
173.3780356294
 11
151.321875
 21
172.8500290383
  0
LINE
  8
0
 62
7
  6
CONTINUOUS
 10
151.321875
 20
166.2906380097
 11
151.321875
 21
165.7932666764
  0
LINE
  8
0
 62
7
  6
CONTINUOUS
 10
151.321875
 20
159.7480972826
 11
151.321875
 21
159.3004749085
  0
LINE
  8
0
 62
7
  6
CONTINUOUS
 10
151.321875
 20
154.0018396191
 11
151.321875
 21
153.6211680811
  0
LINE
  8
0
 62
7
  6
CONTINUOUS
 10
151.321875
 20
149.2726904788
 11
151.321875
 21
148.9735987706
  0
LINE
  8
0
 62
7
  6
CONTINUOUS
 10
151.321875
 20
145.7423884109
 11
151.321875
 21
145.5363704591
  0
LINE
  8
0
 62
7
  6
CONTINUOUS
 10
151.321875
 20
143.5466009441
 11
151.321875
 21
143.441573903
  0
LINE
  8
0
 62
7
  6
CONTINUOUS
 10
152.109375
 20
221.1393207852
 11
152.109375
 21
221.10397959
  0
LINE
  8
0
 62
7
  6
CONTINUOUS
 10
152.109375
 20
219.6117147533
 11
152.109375
 21
219.5070493102
  0
LINE
  8
0
 62
7
  6
CONTINUOUS
 10
152.109375
 20
216.5798665377
 11
152.109375
 21
216.4098990809
  0
LINE
  8
0
 62
7
  6
CONTINUOUS
 10
152.109375
 20
212.1602883648
 11
152.109375
 21
211.9315506484
  0
LINE
  8
0
 62
7
  6
CONTINUOUS
 10
152.109375
 20
206.5228221454
 11
152.109375
 21
206.2441044315
  0
LINE
  8
0
 62
7
  6
CONTINUOUS
 10
152.109375
 20
199.8841125448
 11
152.109375
 21
199.5661257988
  0
LINE
  8
0
 62
7
  6
CONTINUOUS
 10
152.109375
 20
192.4992814498
 11
152.109375
 21
192.1542457241
  0
LINE
  8
0
 62
7
  6
CONTINUOUS
 10
152.109375
 20
184.652123778
 11
152.109375
 21
184.293298602
  0
LINE
  8
0
 62
7
  6
CONTINUOUS
 10
152.109375
 20
176.644201398
 11
152.109375
 21
176.285376222
  0
LINE
  8
0
 62
7
  6
CONTINUOUS
 10
152.109375
 20
168.7832542759
 11
152.109375
 21
168.4382185502
  0
LINE
  8
0
 62
7
  6
CONTINUOUS
 10
152.109375
 20
161.3713742012
 11
152.109375
 21
161.0533874552
  0
LINE
  8
0
 62
7
  6
CONTINUOUS
 10
152.109375
 20
154.6933955685
 11
152.109375
 21
154.4146778546
  0
LINE
  8
0
 62
7
  6
CONTINUOUS
 10
152.109375
 20
149.0059493516
 11
152.109375
 21
148.7772116352
  0
LINE
  8
0
 62
7
  6
CONTINUOUS
 10
152.109375
 20
144.5276009191
 11
152.109375
 21
144.3576334623
  0
LINE
  8
0
 62
7
  6
CONTINUOUS
 10
152.109375
 20
141.4304506898
 11
152.109375
 21
141.3257852467
  0
LINE
  8
0
 62
7
  6
CONTINUOUS
 10
152.109375
 20
139.83352041
 11
152.109375
 21
139.7981792148
  0
POLYLINE
  8
0
 62
7
  6
CONTINUOUS
 66
1
 70
0
  0
VERTEX
  8
0
 62
7
  6
CONTINUOUS
 10
151.321875
 20
180.7379254259
  0
VERTEX
  8
0
 62
7
  6
CONTINUOUS
 10
151.3376572486
 20
181.3280087839
  0
VERTEX
  8
0
 62
7
  6
CONTINUOUS
 10
151.3843372293
 20
181.8968264511
  0
VERTEX
  8
0
 62
7
  6
CONTINUOUS
 10
151.4601599702
 20
182.4239389749
  0
VERTEX
  8
0
 62
7
  6
CONTINUOUS
 10
151.5081045898
 20
182.6651929602
  0
VERTEX
  8
0
 62
7
  6
CONTINUOUS
 10
151.6216757597
 20
183.0905764527
  0
VERTEX
  8
0
 62
7
  6
CONTINUOUS
 10
151.7547090118
 20
183.4238703031
  0
VERTEX
  8
0
 62
7
  6
CONTINUOUS
 10
151.9012427125
 20
183.6484806312
  0
SEQEND
  0
POLYLINE
  8
0
 62
7
  6
CONTINUOUS
 66
1
 70
0
  0
VERTEX
  8
0
 62
7
  6
CONTINUOUS
 10
151.321875
 20
188.0874709617
  0
VERTEX
  8
0
 62
7
  6
CONTINUOUS
 10
151.3376572486
 20
188.6768119625
  0
VERTEX
  8
0
 62
7
  6
CONTINUOUS
 10
151.3843372293
 20
189.2677907322
  0
VERTEX
  8
0
 62
7
  6
CONTINUOUS
 10
151.4601599702
 20
189.8394335562
  0
VERTEX
  8
0
 62
7
  6
CONTINUOUS
 10
151.5081045898
 20
190.1109697111
  0
VERTEX
  8
0
 62
7
  6
CONTINUOUS
 10
151.6216757597
 20
190.6117997728
  0
VERTEX
  8
0
 62
7
  6
CONTINUOUS
 10
151.7547090118
 20
191.0381270981
  0
VERTEX
  8
0
 62
7
  6
CONTINUOUS
 10
151.9012427125
 20
191.369719799
  0
SEQEND
  0
POLYLINE
  8
0
 62
7
  6
CONTINUOUS
 66
1
 70
0
  0
VERTEX
  8
0
 62
7
  6
CONTINUOUS
 10
151.321875
 20
173.3780356294
  0
VERTEX
  8
0
 62
7
  6
CONTINUOUS
 10
151.3376572486
 20
173.9461847722
  0
VERTEX
  8
0
 62
7
  6
CONTINUOUS
 10
151.3843372293
 20
174.4709819929
  0
VERTEX
  8
0
 62
7
  6
CONTINUOUS
 10
151.4601599702
 20
174.9333075778
  0
VERTEX
  8
0
 62
7
  6
CONTINUOUS
 10
151.5081045898
 20
175.1350081381
  0
VERTEX
  8
0
 62
7
  6
CONTINUOUS
 10
151.6216757597
 20
175.4685978125
  0
VERTEX
  8
0
 62
7
  6
CONTINUOUS
 10
151.7547090118
 20
175.6960498922
  0
VERTEX
  8
0
 62
7
  6
CONTINUOUS
 10
151.9012427125
 20
175.8050461985
  0
SEQEND
  0
POLYLINE
  8
0
 62
7
  6
CONTINUOUS
 66
1
 70
0
  0
VERTEX
  8
0
 62
7
  6
CONTINUOUS
 10
151.321875
 20
195.1442333236
  0
VERTEX
  8
0
 62
7
  6
CONTINUOUS
 10
151.3376572486
 20
195.710183923
  0
VERTEX
  8
0
 62
7
  6
CONTINUOUS
 10
151.3843372293
 20
196.3006128124
  0
VERTEX
  8
0
 62
7
  6
CONTINUOUS
 10
151.4601599702
 20
196.8948180235
  0
VERTEX
  8
0
 62
7
  6
CONTINUOUS
 10
151.5081045898
 20
197.186201366
  0
VERTEX
  8
0
 62
7
  6
CONTINUOUS
 10
151.6216757597
 20
197.7432313783
  0
VERTEX
  8
0
 62
7
  6
CONTINUOUS
 10
151.7547090118
 20
198.2462086586
  0
VERTEX
  8
0
 62
7
  6
CONTINUOUS
 10
151.9012427125
 20
198.6720408108
  0
SEQEND
  0
POLYLINE
  8
0
 62
7
  6
CONTINUOUS
 66
1
 70
0
  0
VERTEX
  8
0
 62
7
  6
CONTINUOUS
 10
151.321875
 20
166.2906380097
  0
VERTEX
  8
0
 62
7
  6
CONTINUOUS
 10
151.3376572486
 20
166.8150192842
  0
VERTEX
  8
0
 62
7
  6
CONTINUOUS
 10
151.3843372293
 20
167.2756283957
  0
VERTEX
  8
0
 62
7
  6
CONTINUOUS
 10
151.4601599702
 20
167.6554001287
  0
VERTEX
  8
0
 62
7
  6
CONTINUOUS
 10
151.5081045898
 20
167.8097960246
  0
VERTEX
  8
0
 62
7
  6
CONTINUOUS
 10
151.6216757597
 20
168.0387722166
  0
VERTEX
  8
0
 62
7
  6
CONTINUOUS
 10
151.7547090118
 20
168.1516416698
  0
VERTEX
  8
0
 62
7
  6
CONTINUOUS
 10
151.8141835793
 20
168.1624062846
  0
SEQEND
  0
POLYLINE
  8
0
 62
7
  6
CONTINUOUS
 66
1
 70
0
  0
VERTEX
  8
0
 62
7
  6
CONTINUOUS
 10
151.321875
 20
201.6370250915
  0
VERTEX
  8
0
 62
7
  6
CONTINUOUS
 10
151.3376572486
 20
202.1578361253
  0
VERTEX
  8
0
 62
7
  6
CONTINUOUS
 10
151.3843372293
 20
202.7250252834
  0
VERTEX
  8
0
 62
7
  6
CONTINUOUS
 10
151.4601599702
 20
203.3189579085
  0
VERTEX
  8
0
 62
7
  6
CONTINUOUS
 10
151.5081045898
 20
203.6189907401
  0
VERTEX
  8
0
 62
7
  6
CONTINUOUS
 10
151.6216757597
 20
204.2108143521
  0
VERTEX
  8
0
 62
7
  6
CONTINUOUS
 10
151.7547090118
 20
204.7711124525
  0
VERTEX
  8
0
 62
7
  6
CONTINUOUS
 10
151.9012427125
 20
205.2748195652
  0
SEQEND
  0
POLYLINE
  8
0
 62
7
  6
CONTINUOUS
 66
1
 70
0
  0
VERTEX
  8
0
 62
7
  6
CONTINUOUS
 10
151.321875
 20
159.7480972826
  0
VERTEX
  8
0
 62
7
  6
CONTINUOUS
 10
151.3376572486
 20
160.2085590106
  0
VERTEX
  8
0
 62
7
  6
CONTINUOUS
 10
151.3843372293
 20
160.5872790628
  0
VERTEX
  8
0
 62
7
  6
CONTINUOUS
 10
151.4601599702
 20
160.8699025293
  0
VERTEX
  8
0
 62
7
  6
CONTINUOUS
 10
151.5081045898
 20
160.9710604131
  0
VERTEX
  8
0
 62
7
  6
CONTINUOUS
 10
151.6216757597
 20
161.0866236962
  0
VERTEX
  8
0
 62
7
  6
CONTINUOUS
 10
151.6797453648
 20
161.0992389759
  0
SEQEND
  0
POLYLINE
  8
0
 62
7
  6
CONTINUOUS
 66
1
 70
0
  0
VERTEX
  8
0
 62
7
  6
CONTINUOUS
 10
151.321875
 20
207.3163319189
  0
VERTEX
  8
0
 62
7
  6
CONTINUOUS
 10
151.3376572486
 20
207.7719889112
  0
VERTEX
  8
0
 62
7
  6
CONTINUOUS
 10
151.3843372293
 20
208.2941415768
  0
VERTEX
  8
0
 62
7
  6
CONTINUOUS
 10
151.4601599702
 20
208.8649771182
  0
VERTEX
  8
0
 62
7
  6
CONTINUOUS
 10
151.5081045898
 20
209.1621293453
  0
VERTEX
  8
0
 62
7
  6
CONTINUOUS
 10
151.6216757597
 20
209.7660031076
  0
VERTEX
  8
0
 62
7
  6
CONTINUOUS
 10
151.7547090118
 20
210.3620900863
  0
VERTEX
  8
0
 62
7
  6
CONTINUOUS
 10
151.9012427125
 20
210.9243149776
  0
SEQEND
  0
POLYLINE
  8
0
 62
7
  6
CONTINUOUS
 66
1
 70
0
  0
VERTEX
  8
0
 62
7
  6
CONTINUOUS
 10
151.321875
 20
154.0018396191
  0
VERTEX
  8
0
 62
7
  6
CONTINUOUS
 10
151.3376572486
 20
154.3806865146
  0
VERTEX
  8
0
 62
7
  6
CONTINUOUS
 10
151.3843372293
 20
154.6629635085
  0
VERTEX
  8
0
 62
7
  6
CONTINUOUS
 10
151.4601599702
 20
154.8375776471
  0
VERTEX
  8
0
 62
7
  6
CONTINUOUS
 10
151.5081045898
 20
154.881610078
  0
VERTEX
  8
0
 62
7
  6
CONTINUOUS
 10
151.5601197901
 20
154.8957194297
  0
SEQEND
  0
POLYLINE
  8
0
 62
7
  6
CONTINUOUS
 66
1
 70
0
  0
VERTEX
  8
0
 62
7
  6
CONTINUOUS
 10
151.321875
 20
211.9639012294
  0
VERTEX
  8
0
 62
7
  6
CONTINUOUS
 10
151.3376572486
 20
212.3368935376
  0
VERTEX
  8
0
 62
7
  6
CONTINUOUS
 10
151.3843372293
 20
212.7939436765
  0
VERTEX
  8
0
 62
7
  6
CONTINUOUS
 10
151.4601599702
 20
213.3197452445
  0
VERTEX
  8
0
 62
7
  6
CONTINUOUS
 10
151.5081045898
 20
213.6025974738
  0
VERTEX
  8
0
 62
7
  6
CONTINUOUS
 10
151.6216757597
 20
214.1953148562
  0
VERTEX
  8
0
 62
7
  6
CONTINUOUS
 10
151.7547090118
 20
214.804283425
  0
VERTEX
  8
0
 62
7
  6
CONTINUOUS
 10
151.9012427125
 20
215.4034201077
  0
SEQEND
  0
POLYLINE
  8
0
 62
7
  6
CONTINUOUS
 66
1
 70
0
  0
VERTEX
  8
0
 62
7
  6
CONTINUOUS
 10
152.0073723433
 20
183.7649639333
  0
VERTEX
  8
0
 62
7
  6
CONTINUOUS
 10
152.04409628
 20
183.8300288583
  0
VERTEX
  8
0
 62
7
  6
CONTINUOUS
 10
152.074811086
 20
183.9350304193
  0
VERTEX
  8
0
 62
7
  6
CONTINUOUS
 10
152.0869722542
 20
183.9990044558
  0
VERTEX
  8
0
 62
7
  6
CONTINUOUS
 10
152.10368866
 20
184.1418325503
  0
VERTEX
  8
0
 62
7
  6
CONTINUOUS
 10
152.109375
 20
184.293298602
  0
SEQEND
  0
POLYLINE
  8
0
 62
7
  6
CONTINUOUS
 66
1
 70
0
  0
VERTEX
  8
0
 62
7
  6
CONTINUOUS
 10
175.8332365815
 20
214.9584825425
  0
VERTEX
  8
0
 62
7
  6
CONTINUOUS
 10
175.8784880521
 20
215.0103463686
  0
VERTEX
  8
0
 62
7
  6
CONTINUOUS
 10
175.896875
 20
215.1951115891
  0
SEQEND
  0
LINE
  8
0
 62
7
  6
CONTINUOUS
 10
175.1969346198
 20
168.0854710771
 11
152.0218153802
 21
168.0854710771
  0
POLYLINE
  8
0
 62
7
  6
CONTINUOUS
 66
1
 70
0
  0
VERTEX
  8
0
 62
7
  6
CONTINUOUS
 10
151.9012427125
 20
177.2890193688
  0
VERTEX
  8
0
 62
7
  6
CONTINUOUS
 10
151.7434340091
 20
177.5365922335
  0
VERTEX
  8
0
 62
7
  6
CONTINUOUS
 10
151.6014313969
 20
177.9113309342
  0
VERTEX
  8
0
 62
7
  6
CONTINUOUS
 10
151.4831701057
 20
178.3916723356
  0
VERTEX
  8
0
 62
7
  6
CONTINUOUS
 10
151.3947698149
 20
178.9513655132
  0
VERTEX
  8
0
 62
7
  6
CONTINUOUS
 10
151.3402619479
 20
179.563094537
  0
VERTEX
  8
0
 62
7
  6
CONTINUOUS
 10
151.321875
 20
180.1995745741
  0
SEQEND
  0
POLYLINE
  8
0
 62
7
  6
CONTINUOUS
 66
1
 70
0
  0
VERTEX
  8
0
 62
7
  6
CONTINUOUS
 10
152.109375
 20
212.1602883648
  0
VERTEX
  8
0
 62
7
  6
CONTINUOUS
 10
152.1036556369
 20
212.2372199645
  0
VERTEX
  8
0
 62
7
  6
CONTINUOUS
 10
152.0869299509
 20
212.2711393514
  0
VERTEX
  8
0
 62
7
  6
CONTINUOUS
 10
152.0816623991
 20
212.2723870365
  0
SEQEND
  0
POLYLINE
  8
0
 62
7
  6
CONTINUOUS
 66
1
 70
0
  0
VERTEX
  8
0
 62
7
  6
CONTINUOUS
 10
152.109375
 20
206.5228221454
  0
VERTEX
  8
0
 62
7
  6
CONTINUOUS
 10
152.1036556369
 20
206.6238881315
  0
VERTEX
  8
0
 62
7
  6
CONTINUOUS
 10
152.0869299509
 20
206.6862049809
  0
VERTEX
  8
0
 62
7
  6
CONTINUOUS
 10
152.0747933504
 20
206.7007490956
  0
VERTEX
  8
0
 62
7
  6
CONTINUOUS
 10
152.0645588669
 20
206.7039228515
  0
SEQEND
  0
POLYLINE
  8
0
 62
7
  6
CONTINUOUS
 66
1
 70
0
  0
VERTEX
  8
0
 62
7
  6
CONTINUOUS
 10
152.109375
 20
199.8841125448
  0
VERTEX
  8
0
 62
7
  6
CONTINUOUS
 10
152.1036556369
 20
200.005429008
  0
VERTEX
  8
0
 62
7
  6
CONTINUOUS
 10
152.0869299509
 20
200.0937485183
  0
VERTEX
  8
0
 62
7
  6
CONTINUOUS
 10
152.0747933504
 20
200.122777097
  0
VERTEX
  8
0
 62
7
  6
CONTINUOUS
 10
152.0443811093
 20
200.1464704084
  0
SEQEND
  0
POLYLINE
  8
0
 62
7
  6
CONTINUOUS
 66
1
 70
0
  0
VERTEX
  8
0
 62
7
  6
CONTINUOUS
 10
152.109375
 20
192.4992814498
  0
VERTEX
  8
0
 62
7
  6
CONTINUOUS
 10
152.1036556369
 20
192.6361862666
  0
VERTEX
  8
0
 62
7
  6
CONTINUOUS
 10
152.0869299509
 20
192.7471143685
  0
VERTEX
  8
0
 62
7
  6
CONTINUOUS
 10
152.0747933504
 20
192.7895118592
  0
VERTEX
  8
0
 62
7
  6
CONTINUOUS
 10
152.0441544367
 20
192.8426230075
  0
VERTEX
  8
0
 62
7
  6
CONTINUOUS
 10
152.0219197272
 20
192.8520289209
  0
SEQEND
  0
POLYLINE
  8
0
 62
7
  6
CONTINUOUS
 66
1
 70
0
  0
VERTEX
  8
0
 62
7
  6
CONTINUOUS
 10
151.321875
 20
149.2726904788
  0
VERTEX
  8
0
 62
7
  6
CONTINUOUS
 10
151.3376572486
 20
149.555363668
  0
VERTEX
  8
0
 62
7
  6
CONTINUOUS
 10
151.3843372293
 20
149.730349857
  0
VERTEX
  8
0
 62
7
  6
CONTINUOUS
 10
151.4601599702
 20
149.7902443443
  0
VERTEX
  8
0
 62
7
  6
CONTINUOUS
 10
151.4605383444
 20
149.790245424
  0
SEQEND
  0
POLYLINE
  8
0
 62
7
  6
CONTINUOUS
 66
1
 70
0
  0
VERTEX
  8
0
 62
7
  6
CONTINUOUS
 10
151.321875
 20
145.7423884109
  0
VERTEX
  8
0
 62
7
  6
CONTINUOUS
 10
151.3376572486
 20
145.9180249218
  0
VERTEX
  8
0
 62
7
  6
CONTINUOUS
 10
151.3843372293
 20
145.9789956847
  0
VERTEX
  8
0
 62
7
  6
CONTINUOUS
 10
151.3855206126
 20
145.979017462
  0
SEQEND
  0
LINE
  8
0
 62
7
  6
CONTINUOUS
 10
152.0073723433
 20
183.7649639333
 11
151.9012427125
 21
183.6484806312
  0
LINE
  8
0
 62
7
  6
CONTINUOUS
 10
160.109375
 20
169.6497444991
 11
167.109375
 21
169.6497444991
  0
POLYLINE
  8
0
 62
7
  6
CONTINUOUS
 66
1
 70
0
  0
VERTEX
  8
0
 62
7
  6
CONTINUOUS
 10
175.1743692991
 20
160.7910295916
  0
VERTEX
  8
0
 62
7
  6
CONTINUOUS
 10
175.143938914
 20
160.8147543093
  0
VERTEX
  8
0
 62
7
  6
CONTINUOUS
 10
175.1317777458
 20
160.8438845726
  0
VERTEX
  8
0
 62
7
  6
CONTINUOUS
 10
175.11506134
 20
160.9323808948
  0
VERTEX
  8
0
 62
7
  6
CONTINUOUS
 10
175.109375
 20
161.0533874552
  0
SEQEND
  0
LINE
  8
0
 62
7
  6
CONTINUOUS
 10
151.9012427125
 20
177.2890193688
 11
152.0073723433
 21
177.1725360667
  0
POLYLINE
  8
0
 62
7
  6
CONTINUOUS
 66
1
 70
0
  0
VERTEX
  8
0
 62
7
  6
CONTINUOUS
 10
160.109375
 20
155.7961397294
  0
VERTEX
  8
0
 62
7
  6
CONTINUOUS
 10
160.0582378308
 20
156.3290208665
  0
VERTEX
  8
0
 62
7
  6
CONTINUOUS
 10
160.0123986605
 20
156.9173309334
  0
VERTEX
  8
0
 62
7
  6
CONTINUOUS
 10
159.9741018353
 20
157.5352516215
  0
VERTEX
  8
0
 62
7
  6
CONTINUOUS
 10
159.9452645528
 20
158.1559355025
  0
VERTEX
  8
0
 62
7
  6
CONTINUOUS
 10
159.927349552
 20
158.7527989356
  0
VERTEX
  8
0
 62
7
  6
CONTINUOUS
 10
159.9212743734
 20
159.3004749085
  0
SEQEND
  0
POLYLINE
  8
0
 62
7
  6
CONTINUOUS
 66
1
 70
0
  0
VERTEX
  8
0
 62
7
  6
CONTINUOUS
 10
160.109375
 20
150.1651528505
  0
VERTEX
  8
0
 62
7
  6
CONTINUOUS
 10
160.0582378308
 20
150.7511888124
  0
VERTEX
  8
0
 62
7
  6
CONTINUOUS
 10
160.0123986605
 20
151.3686925573
  0
VERTEX
  8
0
 62
7
  6
CONTINUOUS
 10
159.9741018353
 20
151.990620996
  0
VERTEX
  8
0
 62
7
  6
CONTINUOUS
 10
159.9452645528
 20
152.5900333685
  0
VERTEX
  8
0
 62
7
  6
CONTINUOUS
 10
159.927349552
 20
153.1413381539
  0
VERTEX
  8
0
 62
7
  6
CONTINUOUS
 10
159.9212743734
 20
153.6211680811
  0
SEQEND
  0
LINE
  8
0
 62
7
  6
CONTINUOUS
 10
160.109375
 20
140.8947151543
 11
160.0747952483
 21
141.3048913024
  0
POLYLINE
  8
0
 62
7
  6
CONTINUOUS
 66
1
 70
0
  0
VERTEX
  8
0
 62
7
  6
CONTINUOUS
 10
160.109375
 20
145.6987162156
  0
VERTEX
  8
0
 62
7
  6
CONTINUOUS
 10
160.0582378308
 20
146.315385969
  0
VERTEX
  8
0
 62
7
  6
CONTINUOUS
 10
160.0123986605
 20
146.9383530692
  0
VERTEX
  8
0
 62
7
  6
CONTINUOUS
 10
159.9741018353
 20
147.5403888975
  0
VERTEX
  8
0
 62
7
  6
CONTINUOUS
 10
159.9452645528
 20
148.0954946802
  0
VERTEX
  8
0
 62
7
  6
CONTINUOUS
 10
159.927349552
 20
148.580054484
  0
VERTEX
  8
0
 62
7
  6
CONTINUOUS
 10
159.9260364966
 20
148.6651129615
  0
SEQEND
  0
POLYLINE
  8
0
 62
7
  6
CONTINUOUS
 66
1
 70
0
  0
VERTEX
  8
0
 62
7
  6
CONTINUOUS
 10
160.109375
 20
142.5684724797
  0
VERTEX
  8
0
 62
7
  6
CONTINUOUS
 10
160.0582378308
 20
143.1920777518
  0
VERTEX
  8
0
 62
7
  6
CONTINUOUS
 10
160.0123986605
 20
143.7965679311
  0
VERTEX
  8
0
 62
7
  6
CONTINUOUS
 10
159.9779345681
 20
144.2996299928
  0
SEQEND
  0
POLYLINE
  8
0
 62
7
  6
CONTINUOUS
 66
1
 70
0
  0
VERTEX
  8
0
 62
7
  6
CONTINUOUS
 10
159.977934048
 20
216.6378700072
  0
VERTEX
  8
0
 62
7
  6
CONTINUOUS
 10
160.0123948783
 20
217.1408798211
  0
VERTEX
  8
0
 62
7
  6
CONTINUOUS
 10
160.0582238082
 20
217.7452447993
  0
VERTEX
  8
0
 62
7
  6
CONTINUOUS
 10
160.109375
 20
218.3690275203
  0
SEQEND
  0
LINE
  8
0
 62
7
  6
CONTINUOUS
 10
160.1661167211
 20
220.7025978184
 11
160.0746390471
 21
219.6326086976
  0
POLYLINE
  8
0
 62
7
  6
CONTINUOUS
 66
1
 70
0
  0
VERTEX
  8
0
 62
7
  6
CONTINUOUS
 10
175.196835737
 20
168.0854710776
  0
VERTEX
  8
0
 62
7
  6
CONTINUOUS
 10
175.17465372
 20
168.0948257808
  0
VERTEX
  8
0
 62
7
  6
CONTINUOUS
 10
175.143938914
 20
168.1480381249
  0
VERTEX
  8
0
 62
7
  6
CONTINUOUS
 10
175.1317777458
 20
168.1905680935
  0
VERTEX
  8
0
 62
7
  6
CONTINUOUS
 10
175.11506134
 20
168.3016799774
  0
VERTEX
  8
0
 62
7
  6
CONTINUOUS
 10
175.109375
 20
168.4382185502
  0
SEQEND
  0
POLYLINE
  8
0
 62
7
  6
CONTINUOUS
 66
1
 70
0
  0
VERTEX
  8
0
 62
7
  6
CONTINUOUS
 10
152.109375
 20
216.5798665377
  0
VERTEX
  8
0
 62
7
  6
CONTINUOUS
 10
152.1036556369
 20
216.6297073127
  0
VERTEX
  8
0
 62
7
  6
CONTINUOUS
 10
152.0950464944
 20
216.6378700067
  0
SEQEND
  0
POLYLINE
  8
0
 62
7
  6
CONTINUOUS
 66
1
 70
0
  0
VERTEX
  8
0
 62
7
  6
CONTINUOUS
 10
160.109375
 20
162.3752811844
  0
VERTEX
  8
0
 62
7
  6
CONTINUOUS
 10
160.0582378308
 20
162.8345291735
  0
VERTEX
  8
0
 62
7
  6
CONTINUOUS
 10
160.0123986605
 20
163.3710371365
  0
VERTEX
  8
0
 62
7
  6
CONTINUOUS
 10
159.9741018353
 20
163.9612037283
  0
VERTEX
  8
0
 62
7
  6
CONTINUOUS
 10
159.9452645528
 20
164.5793065844
  0
VERTEX
  8
0
 62
7
  6
CONTINUOUS
 10
159.927349552
 20
165.1987915383
  0
VERTEX
  8
0
 62
7
  6
CONTINUOUS
 10
159.9212743734
 20
165.7932666764
  0
SEQEND
  0
LINE
  8
0
 62
7
  6
CONTINUOUS
 10
159.9248383038
 20
206.7039228536
 11
159.9212743734
 21
206.9356603809
  0
LINE
  8
0
 62
7
  6
CONTINUOUS
 10
159.9212743734
 20
207.3163319189
 11
159.9212743734
 21
206.9356603809
  0
LINE
  8
0
 62
7
  6
CONTINUOUS
 10
159.9212743734
 20
201.6370250915
 11
159.9212743734
 21
201.1894027174
  0
LINE
  8
0
 62
7
  6
CONTINUOUS
 10
159.9212743734
 20
195.1442333236
 11
159.9212743734
 21
194.6468619903
  0
LINE
  8
0
 62
7
  6
CONTINUOUS
 10
159.9212743734
 20
188.0874709617
 11
159.9212743734
 21
187.5594643706
  0
LINE
  8
0
 62
7
  6
CONTINUOUS
 10
159.9212743734
 20
180.7379254259
 11
159.9212743734
 21
180.1995745741
  0
LINE
  8
0
 62
7
  6
CONTINUOUS
 10
159.9212743734
 20
173.3780356294
 11
159.9212743734
 21
172.8500290383
  0
LINE
  8
0
 62
7
  6
CONTINUOUS
 10
159.9212743734
 20
166.2906380097
 11
159.9212743734
 21
165.7932666764
  0
LINE
  8
0
 62
7
  6
CONTINUOUS
 10
159.9212743734
 20
159.7480972826
 11
159.9212743734
 21
159.3004749085
  0
LINE
  8
0
 62
7
  6
CONTINUOUS
 10
159.9212743734
 20
154.0018396191
 11
159.9212743734
 21
153.6211680811
  0
LINE
  8
0
 62
7
  6
CONTINUOUS
 10
160.109375
 20
219.8928514153
 11
160.109375
 21
219.6326086976
  0
LINE
  8
0
 62
7
  6
CONTINUOUS
 10
160.109375
 20
218.3690275203
 11
160.109375
 21
216.6378700072
  0
LINE
  8
0
 62
7
  6
CONTINUOUS
 10
160.109375
 20
215.2387837844
 11
160.109375
 21
212.2723870385
  0
LINE
  8
0
 62
7
  6
CONTINUOUS
 10
160.109375
 20
210.7723471495
 11
160.109375
 21
206.7039228536
  0
LINE
  8
0
 62
7
  6
CONTINUOUS
 10
160.109375
 20
205.1413602706
 11
160.109375
 21
200.1464704084
  0
LINE
  8
0
 62
7
  6
CONTINUOUS
 10
160.109375
 20
198.5622188156
 11
160.109375
 21
192.8520289229
  0
LINE
  8
0
 62
7
  6
CONTINUOUS
 10
160.109375
 20
191.2877555009
 11
160.109375
 21
185.1504447819
  0
LINE
  8
0
 62
7
  6
CONTINUOUS
 10
160.109375
 20
183.5975238721
 11
160.109375
 21
177.3399761279
  0
LINE
  8
0
 62
7
  6
CONTINUOUS
 10
160.109375
 20
175.7870552181
 11
160.109375
 21
169.6497444991
  0
LINE
  8
0
 62
7
  6
CONTINUOUS
 10
160.109375
 20
168.0854710771
 11
160.109375
 21
162.3752811844
  0
LINE
  8
0
 62
7
  6
CONTINUOUS
 10
160.109375
 20
160.7910295916
 11
160.109375
 21
155.7961397294
  0
LINE
  8
0
 62
7
  6
CONTINUOUS
 10
160.109375
 20
154.2335771464
 11
160.109375
 21
150.1651528505
  0
LINE
  8
0
 62
7
  6
CONTINUOUS
 10
160.109375
 20
148.6651129615
 11
160.109375
 21
145.6987162156
  0
LINE
  8
0
 62
7
  6
CONTINUOUS
 10
160.109375
 20
144.2996299928
 11
160.109375
 21
142.5684724797
  0
LINE
  8
0
 62
7
  6
CONTINUOUS
 10
160.109375
 20
141.3048913024
 11
160.109375
 21
140.8947151543
  0
POLYLINE
  8
0
 62
7
  6
CONTINUOUS
 66
1
 70
0
  0
VERTEX
  8
0
 62
7
  6
CONTINUOUS
 10
159.9212743734
 20
188.0874709617
  0
VERTEX
  8
0
 62
7
  6
CONTINUOUS
 10
159.9273547375
 20
188.7061667901
  0
VERTEX
  8
0
 62
7
  6
CONTINUOUS
 10
159.9452754254
 20
189.3244809221
  0
VERTEX
  8
0
 62
7
  6
CONTINUOUS
 10
159.9741099416
 20
189.9161048786
  0
VERTEX
  8
0
 62
7
  6
CONTINUOUS
 10
160.0123948783
 20
190.4556560608
  0
VERTEX
  8
0
 62
7
  6
CONTINUOUS
 10
160.0582238082
 20
190.9196690664
  0
VERTEX
  8
0
 62
7
  6
CONTINUOUS
 10
160.109375
 20
191.2877555009
  0
SEQEND
  0
POLYLINE
  8
0
 62
7
  6
CONTINUOUS
 66
1
 70
0
  0
VERTEX
  8
0
 62
7
  6
CONTINUOUS
 10
159.9212743734
 20
180.7379254259
  0
VERTEX
  8
0
 62
7
  6
CONTINUOUS
 10
159.9273547375
 20
181.356803854
  0
VERTEX
  8
0
 62
7
  6
CONTINUOUS
 10
159.9452754254
 20
181.9501602806
  0
VERTEX
  8
0
 62
7
  6
CONTINUOUS
 10
159.9741099416
 20
182.492711221
  0
VERTEX
  8
0
 62
7
  6
CONTINUOUS
 10
160.0123948783
 20
182.9611086577
  0
VERTEX
  8
0
 62
7
  6
CONTINUOUS
 10
160.0582238082
 20
183.3348882353
  0
VERTEX
  8
0
 62
7
  6
CONTINUOUS
 10
160.109375
 20
183.5975238721
  0
SEQEND
  0
POLYLINE
  8
0
 62
7
  6
CONTINUOUS
 66
1
 70
0
  0
VERTEX
  8
0
 62
7
  6
CONTINUOUS
 10
159.9212743734
 20
195.1442333236
  0
VERTEX
  8
0
 62
7
  6
CONTINUOUS
 10
159.9273547375
 20
195.7389704185
  0
VERTEX
  8
0
 62
7
  6
CONTINUOUS
 10
159.9452754254
 20
196.3584807907
  0
VERTEX
  8
0
 62
7
  6
CONTINUOUS
 10
159.9741099416
 20
196.9764419863
  0
VERTEX
  8
0
 62
7
  6
CONTINUOUS
 10
160.0123948783
 20
197.5664122646
  0
VERTEX
  8
0
 62
7
  6
CONTINUOUS
 10
160.0582238082
 20
198.1028269386
  0
VERTEX
  8
0
 62
7
  6
CONTINUOUS
 10
160.109375
 20
198.5622188156
  0
SEQEND
  0
POLYLINE
  8
0
 62
7
  6
CONTINUOUS
 66
1
 70
0
  0
VERTEX
  8
0
 62
7
  6
CONTINUOUS
 10
159.9212743734
 20
173.3780356294
  0
VERTEX
  8
0
 62
7
  6
CONTINUOUS
 10
159.9273547375
 20
173.9733135063
  0
VERTEX
  8
0
 62
7
  6
CONTINUOUS
 10
159.9452754254
 20
174.5189098728
  0
VERTEX
  8
0
 62
7
  6
CONTINUOUS
 10
159.9741099416
 20
174.9915378688
  0
VERTEX
  8
0
 62
7
  6
CONTINUOUS
 10
160.0123948783
 20
175.3707813091
  0
VERTEX
  8
0
 62
7
  6
CONTINUOUS
 10
160.0582238082
 20
175.6399633192
  0
VERTEX
  8
0
 62
7
  6
CONTINUOUS
 10
160.109375
 20
175.7870552181
  0
SEQEND
  0
POLYLINE
  8
0
 62
7
  6
CONTINUOUS
 66
1
 70
0
  0
VERTEX
  8
0
 62
7
  6
CONTINUOUS
 10
159.9212743734
 20
201.6370250915
  0
VERTEX
  8
0
 62
7
  6
CONTINUOUS
 10
159.9273547375
 20
202.1849480399
  0
VERTEX
  8
0
 62
7
  6
CONTINUOUS
 10
159.9452754254
 20
202.781847216
  0
VERTEX
  8
0
 62
7
  6
CONTINUOUS
 10
159.9741099416
 20
203.4023977486
  0
VERTEX
  8
0
 62
7
  6
CONTINUOUS
 10
160.0123948783
 20
204.0201148962
  0
VERTEX
  8
0
 62
7
  6
CONTINUOUS
 10
160.0582238082
 20
204.6083171235
  0
VERTEX
  8
0
 62
7
  6
CONTINUOUS
 10
160.109375
 20
205.1413602706
  0
SEQEND
  0
POLYLINE
  8
0
 62
7
  6
CONTINUOUS
 66
1
 70
0
  0
VERTEX
  8
0
 62
7
  6
CONTINUOUS
 10
159.9212743734
 20
166.2906380097
  0
VERTEX
  8
0
 62
7
  6
CONTINUOUS
 10
159.9273547375
 20
166.8394391404
  0
VERTEX
  8
0
 62
7
  6
CONTINUOUS
 10
159.9452754254
 20
167.3163084843
  0
VERTEX
  8
0
 62
7
  6
CONTINUOUS
 10
159.9741099416
 20
167.7008507071
  0
VERTEX
  8
0
 62
7
  6
CONTINUOUS
 10
160.0123948783
 20
167.9763660384
  0
VERTEX
  8
0
 62
7
  6
CONTINUOUS
 10
160.0448129896
 20
168.0854710771
  0
SEQEND
  0
POLYLINE
  8
0
 62
7
  6
CONTINUOUS
 66
1
 70
0
  0
VERTEX
  8
0
 62
7
  6
CONTINUOUS
 10
159.9212743734
 20
207.3163319189
  0
VERTEX
  8
0
 62
7
  6
CONTINUOUS
 10
159.9273547375
 20
207.7963843492
  0
VERTEX
  8
0
 62
7
  6
CONTINUOUS
 10
159.9452754254
 20
208.3477338286
  0
VERTEX
  8
0
 62
7
  6
CONTINUOUS
 10
159.9741099416
 20
208.9470262892
  0
VERTEX
  8
0
 62
7
  6
CONTINUOUS
 10
160.0123948783
 20
209.5687517825
  0
VERTEX
  8
0
 62
7
  6
CONTINUOUS
 10
160.0582238082
 20
210.1861372814
  0
VERTEX
  8
0
 62
7
  6
CONTINUOUS
 10
160.109375
 20
210.7723471495
  0
SEQEND
  0
POLYLINE
  8
0
 62
7
  6
CONTINUOUS
 66
1
 70
0
  0
VERTEX
  8
0
 62
7
  6
CONTINUOUS
 10
159.9212743734
 20
159.7480972826
  0
VERTEX
  8
0
 62
7
  6
CONTINUOUS
 10
159.9273547375
 20
160.2293315475
  0
VERTEX
  8
0
 62
7
  6
CONTINUOUS
 10
159.9452754254
 20
160.6191480473
  0
VERTEX
  8
0
 62
7
  6
CONTINUOUS
 10
159.9628703697
 20
160.7910295916
  0
SEQEND
  0
LINE
  8
0
 62
7
  6
CONTINUOUS
 10
159.9212743734
 20
154.0018396191
 11
159.9248400157
 21
154.2335771464
  0
POLYLINE
  8
0
 62
7
  6
CONTINUOUS
 66
1
 70
0
  0
VERTEX
  8
0
 62
7
  6
CONTINUOUS
 10
159.9260382677
 20
212.2723870385
  0
VERTEX
  8
0
 62
7
  6
CONTINUOUS
 10
159.9273547375
 20
212.357634996
  0
VERTEX
  8
0
 62
7
  6
CONTINUOUS
 10
159.9452754254
 20
212.8422467274
  0
VERTEX
  8
0
 62
7
  6
CONTINUOUS
 10
159.9741099416
 20
213.3972506429
  0
VERTEX
  8
0
 62
7
  6
CONTINUOUS
 10
160.0123948783
 20
213.9990919198
  0
VERTEX
  8
0
 62
7
  6
CONTINUOUS
 10
160.0582238082
 20
214.6219349117
  0
VERTEX
  8
0
 62
7
  6
CONTINUOUS
 10
160.109375
 20
215.2387837844
  0
SEQEND
  0
POLYLINE
  8
0
 62
7
  6
CONTINUOUS
 66
1
 70
0
  0
VERTEX
  8
0
 62
7
  6
CONTINUOUS
 10
160.109375
 20
219.8928514153
  0
VERTEX
  8
0
 62
7
  6
CONTINUOUS
 10
160.1129266368
 20
219.9827095012
  0
VERTEX
  8
0
 62
7
  6
CONTINUOUS
 10
160.1233980382
 20
220.1455987905
  0
VERTEX
  8
0
 62
7
  6
CONTINUOUS
 10
160.1310694678
 20
220.2521287884
  0
VERTEX
  8
0
 62
7
  6
CONTINUOUS
 10
160.1507785316
 20
220.5089925218
  0
VERTEX
  8
0
 62
7
  6
CONTINUOUS
 10
160.1754077011
 20
220.8135471654
  0
SEQEND
  0
POLYLINE
  8
0
 62
7
  6
CONTINUOUS
 66
1
 70
0
  0
VERTEX
  8
0
 62
7
  6
CONTINUOUS
 10
151.321875
 20
143.5466009441
  0
VERTEX
  8
0
 62
7
  6
CONTINUOUS
 10
151.3376572486
 20
143.608451164
  0
VERTEX
  8
0
 62
7
  6
CONTINUOUS
 10
151.3385644429
 20
143.6084988972
  0
SEQEND
  0
POLYLINE
  8
0
 62
7
  6
CONTINUOUS
 66
1
 70
0
  0
VERTEX
  8
0
 62
7
  6
CONTINUOUS
 10
152.0073723433
 20
175.8380372412
  0
VERTEX
  8
0
 62
7
  6
CONTINUOUS
 10
152.04409628
 20
175.874143239
  0
VERTEX
  8
0
 62
7
  6
CONTINUOUS
 10
152.074811086
 20
175.9547999883
  0
VERTEX
  8
0
 62
7
  6
CONTINUOUS
 10
152.0869722542
 20
176.0090952593
  0
VERTEX
  8
0
 62
7
  6
CONTINUOUS
 10
152.10368866
 20
176.1385527377
  0
VERTEX
  8
0
 62
7
  6
CONTINUOUS
 10
152.109375
 20
176.285376222
  0
SEQEND
  0
LINE
  8
0
 62
7
  6
CONTINUOUS
 10
160.109375
 20
175.7870552181
 11
167.109375
 21
175.7870552181
  0
LINE
  8
0
 62
7
  6
CONTINUOUS
 10
160.109375
 20
177.3399761279
 11
167.109375
 21
177.3399761279
  0
POLYLINE
  8
0
 62
7
  6
CONTINUOUS
 66
1
 70
0
  0
VERTEX
  8
0
 62
7
  6
CONTINUOUS
 10
151.9012427125
 20
185.1324538015
  0
VERTEX
  8
0
 62
7
  6
CONTINUOUS
 10
151.7434340091
 20
185.2554837553
  0
VERTEX
  8
0
 62
7
  6
CONTINUOUS
 10
151.6014313969
 20
185.517078125
  0
VERTEX
  8
0
 62
7
  6
CONTINUOUS
 10
151.4831701057
 20
185.9013734386
  0
VERTEX
  8
0
 62
7
  6
CONTINUOUS
 10
151.3947698149
 20
186.3863970399
  0
VERTEX
  8
0
 62
7
  6
CONTINUOUS
 10
151.3402619479
 20
186.9476316628
  0
VERTEX
  8
0
 62
7
  6
CONTINUOUS
 10
151.321875
 20
187.5594643706
  0
SEQEND
  0
POLYLINE
  8
0
 62
7
  6
CONTINUOUS
 66
1
 70
0
  0
VERTEX
  8
0
 62
7
  6
CONTINUOUS
 10
160.109375
 20
177.3399761279
  0
VERTEX
  8
0
 62
7
  6
CONTINUOUS
 10
160.0582378308
 20
177.6025198008
  0
VERTEX
  8
0
 62
7
  6
CONTINUOUS
 10
160.0123986605
 20
177.976353508
  0
VERTEX
  8
0
 62
7
  6
CONTINUOUS
 10
159.9741018353
 20
178.4449107392
  0
VERTEX
  8
0
 62
7
  6
CONTINUOUS
 10
159.9452645528
 20
178.9876035221
  0
VERTEX
  8
0
 62
7
  6
CONTINUOUS
 10
159.927349552
 20
179.5809576759
  0
VERTEX
  8
0
 62
7
  6
CONTINUOUS
 10
159.9212743734
 20
180.1995745741
  0
SEQEND
  0
POLYLINE
  8
0
 62
7
  6
CONTINUOUS
 66
1
 70
0
  0
VERTEX
  8
0
 62
7
  6
CONTINUOUS
 10
160.109375
 20
169.6497444991
  0
VERTEX
  8
0
 62
7
  6
CONTINUOUS
 10
160.0582378308
 20
170.0177106975
  0
VERTEX
  8
0
 62
7
  6
CONTINUOUS
 10
160.0123986605
 20
170.4817988564
  0
VERTEX
  8
0
 62
7
  6
CONTINUOUS
 10
159.9741018353
 20
171.0215315809
  0
VERTEX
  8
0
 62
7
  6
CONTINUOUS
 10
159.9452645528
 20
171.6133000659
  0
VERTEX
  8
0
 62
7
  6
CONTINUOUS
 10
159.927349552
 20
172.2316000811
  0
VERTEX
  8
0
 62
7
  6
CONTINUOUS
 10
159.9212743734
 20
172.8500290383
  0
SEQEND
  0
POLYLINE
  8
0
 62
7
  6
CONTINUOUS
 66
1
 70
0
  0
VERTEX
  8
0
 62
7
  6
CONTINUOUS
 10
159.9628707443
 20
200.1464704084
  0
VERTEX
  8
0
 62
7
  6
CONTINUOUS
 10
159.9452645528
 20
200.3185079221
  0
VERTEX
  8
0
 62
7
  6
CONTINUOUS
 10
159.927349552
 20
200.7083563854
  0
VERTEX
  8
0
 62
7
  6
CONTINUOUS
 10
159.9212743734
 20
201.1894027174
  0
SEQEND
  0
LINE
  8
0
 62
7
  6
CONTINUOUS
 10
152.1042134732
 20
141.3048913025
 11
152.109375
 21
141.3257852467
  0
LINE
  8
0
 62
7
  6
CONTINUOUS
 10
152.1088319954
 20
139.7959830199
 11
152.109375
 21
139.7981792148
  0
LINE
  8
0
 62
7
  6
CONTINUOUS
 10
151.321875
 20
142.7697109593
 11
151.3218966667
 21
142.7697874282
  0
POLYLINE
  8
0
 62
7
  6
CONTINUOUS
 66
1
 70
0
  0
VERTEX
  8
0
 62
7
  6
CONTINUOUS
 10
167.1739331376
 20
192.8520289229
  0
VERTEX
  8
0
 62
7
  6
CONTINUOUS
 10
167.2063513395
 20
192.9611146518
  0
VERTEX
  8
0
 62
7
  6
CONTINUOUS
 10
167.2446481647
 20
193.2367289314
  0
VERTEX
  8
0
 62
7
  6
CONTINUOUS
 10
167.2734854472
 20
193.6213915845
  0
VERTEX
  8
0
 62
7
  6
CONTINUOUS
 10
167.291400448
 20
194.0982821471
  0
VERTEX
  8
0
 62
7
  6
CONTINUOUS
 10
167.2974756266
 20
194.6468619903
  0
SEQEND
  0
LINE
  8
0
 62
7
  6
CONTINUOUS
 10
175.3175072875
 20
185.1324538015
 11
175.2113776567
 21
185.0994627588
  0
LINE
  8
DEFAULT_1
 62
2
  6
CENTER
 10
149.109375
 20
180.46875
 11
178.109375
 21
180.46875
  0
LINE
  8
0
 62
7
  6
CONTINUOUS
 10
175.2113776567
 20
175.8380372412
 11
175.3175072875
 21
175.8050461985
  0
POLYLINE
  8
0
 62
7
  6
CONTINUOUS
 66
1
 70
0
  0
VERTEX
  8
0
 62
7
  6
CONTINUOUS
 10
160.109375
 20
185.1504447819
  0
VERTEX
  8
0
 62
7
  6
CONTINUOUS
 10
160.0582378308
 20
185.2974765233
  0
VERTEX
  8
0
 62
7
  6
CONTINUOUS
 10
160.0123986605
 20
185.5666895591
  0
VERTEX
  8
0
 62
7
  6
CONTINUOUS
 10
159.9741018353
 20
185.9460649053
  0
VERTEX
  8
0
 62
7
  6
CONTINUOUS
 10
159.9452645528
 20
186.4188266069
  0
VERTEX
  8
0
 62
7
  6
CONTINUOUS
 10
159.927349552
 20
186.9644326319
  0
VERTEX
  8
0
 62
7
  6
CONTINUOUS
 10
159.9212743734
 20
187.5594643706
  0
SEQEND
  0
POLYLINE
  8
0
 62
7
  6
CONTINUOUS
 66
1
 70
0
  0
VERTEX
  8
0
 62
7
  6
CONTINUOUS
 10
160.0448168624
 20
192.8520289229
  0
VERTEX
  8
0
 62
7
  6
CONTINUOUS
 10
160.0123986605
 20
192.9611146518
  0
VERTEX
  8
0
 62
7
  6
CONTINUOUS
 10
159.9741018353
 20
193.2367289314
  0
VERTEX
  8
0
 62
7
  6
CONTINUOUS
 10
159.9452645528
 20
193.6213915845
  0
VERTEX
  8
0
 62
7
  6
CONTINUOUS
 10
159.927349552
 20
194.0982821471
  0
VERTEX
  8
0
 62
7
  6
CONTINUOUS
 10
159.9212743734
 20
194.6468619903
  0
SEQEND
  0
LINE
  8
0
 62
7
  6
CONTINUOUS
 10
151.321895772
 20
218.1677125719
 11
151.321875
 21
218.1677890407
  0
LINE
  8
0
 62
7
  6
CONTINUOUS
 10
151.3385672721
 20
217.3290011029
 11
151.321875
 21
217.3908990559
  0
LINE
  8
0
 62
7
  6
CONTINUOUS
 10
152.109375
 20
221.1393207852
 11
152.1088302897
 21
221.1415169811
  0
LINE
  8
0
 62
7
  6
CONTINUOUS
 10
152.109375
 20
219.6117147533
 11
152.1042127844
 21
219.6326086976
  0
POLYLINE
  8
0
 62
7
  6
CONTINUOUS
 66
1
 70
0
  0
VERTEX
  8
0
 62
7
  6
CONTINUOUS
 10
167.2558792557
 20
200.1464704084
  0
VERTEX
  8
0
 62
7
  6
CONTINUOUS
 10
167.2734854472
 20
200.3185079221
  0
VERTEX
  8
0
 62
7
  6
CONTINUOUS
 10
167.291400448
 20
200.7083563854
  0
VERTEX
  8
0
 62
7
  6
CONTINUOUS
 10
167.2974756266
 20
201.1894027174
  0
SEQEND
  0
LINE
  8
0
 62
7
  6
CONTINUOUS
 10
175.109375
 20
219.6117147533
 11
175.1145372156
 21
219.6326086976
  0
LINE
  8
0
 62
7
  6
CONTINUOUS
 10
175.109375
 20
221.1393207852
 11
175.1099197103
 21
221.1415169811
  0
LINE
  8
0
 62
7
  6
CONTINUOUS
 10
175.8801827279
 20
217.3290011029
 11
175.896875
 21
217.3908990559
  0
LINE
  8
0
 62
7
  6
CONTINUOUS
 10
175.896854228
 20
218.1677125719
 11
175.896875
 21
218.1677890407
  0
POLYLINE
  8
0
 62
7
  6
CONTINUOUS
 66
1
 70
0
  0
VERTEX
  8
0
 62
7
  6
CONTINUOUS
 10
167.109375
 20
185.1504447819
  0
VERTEX
  8
0
 62
7
  6
CONTINUOUS
 10
167.1605121692
 20
185.2974765233
  0
VERTEX
  8
0
 62
7
  6
CONTINUOUS
 10
167.2063513395
 20
185.5666895591
  0
VERTEX
  8
0
 62
7
  6
CONTINUOUS
 10
167.2446481647
 20
185.9460649053
  0
VERTEX
  8
0
 62
7
  6
CONTINUOUS
 10
167.2734854472
 20
186.4188266069
  0
VERTEX
  8
0
 62
7
  6
CONTINUOUS
 10
167.291400448
 20
186.9644326319
  0
VERTEX
  8
0
 62
7
  6
CONTINUOUS
 10
167.2974756266
 20
187.5594643706
  0
SEQEND
  0
LINE
  8
0
 62
7
  6
CONTINUOUS
 10
152.0073723433
 20
175.8380372412
 11
151.9012427125
 21
175.8050461985
  0
LINE
  8
0
 62
7
  6
CONTINUOUS
 10
160.109375
 20
183.5975238721
 11
167.109375
 21
183.5975238721
  0
LINE
  8
0
 62
7
  6
CONTINUOUS
 10
151.9012427125
 20
185.1324538015
 11
152.0073723433
 21
185.0994627588
  0
LINE
  8
0
 62
7
  6
CONTINUOUS
 10
175.896875
 20
142.7697109593
 11
175.8968533333
 21
142.7697874282
  0
POLYLINE
  8
0
 62
7
  6
CONTINUOUS
 66
1
 70
0
  0
VERTEX
  8
0
 62
7
  6
CONTINUOUS
 10
175.896875
 20
143.5466009441
  0
VERTEX
  8
0
 62
7
  6
CONTINUOUS
 10
175.8810927514
 20
143.608451164
  0
VERTEX
  8
0
 62
7
  6
CONTINUOUS
 10
175.8801855571
 20
143.6084988972
  0
SEQEND
  0
LINE
  8
0
 62
7
  6
CONTINUOUS
 10
175.1099180046
 20
139.7959830199
 11
175.109375
 21
139.7981792148
  0
LINE
  8
0
 62
7
  6
CONTINUOUS
 10
175.1145365268
 20
141.3048913025
 11
175.109375
 21
141.3257852467
  0
LINE
  8
0
 62
7
  6
CONTINUOUS
 10
167.2974756266
 20
154.0018396191
 11
167.2939099843
 21
154.2335771464
  0
POLYLINE
  8
0
 62
7
  6
CONTINUOUS
 66
1
 70
0
  0
VERTEX
  8
0
 62
7
  6
CONTINUOUS
 10
167.2927117323
 20
212.2723870385
  0
VERTEX
  8
0
 62
7
  6
CONTINUOUS
 10
167.2913952625
 20
212.357634996
  0
VERTEX
  8
0
 62
7
  6
CONTINUOUS
 10
167.2734745746
 20
212.8422467274
  0
VERTEX
  8
0
 62
7
  6
CONTINUOUS
 10
167.2446400584
 20
213.3972506429
  0
VERTEX
  8
0
 62
7
  6
CONTINUOUS
 10
167.2063551217
 20
213.9990919198
  0
VERTEX
  8
0
 62
7
  6
CONTINUOUS
 10
167.1605261918
 20
214.6219349117
  0
VERTEX
  8
0
 62
7
  6
CONTINUOUS
 10
167.109375
 20
215.2387837844
  0
SEQEND
  0
POLYLINE
  8
0
 62
7
  6
CONTINUOUS
 66
1
 70
0
  0
VERTEX
  8
0
 62
7
  6
CONTINUOUS
 10
167.2974756266
 20
159.7480972826
  0
VERTEX
  8
0
 62
7
  6
CONTINUOUS
 10
167.2913952625
 20
160.2293315475
  0
VERTEX
  8
0
 62
7
  6
CONTINUOUS
 10
167.2734745746
 20
160.6191480473
  0
VERTEX
  8
0
 62
7
  6
CONTINUOUS
 10
167.2558796303
 20
160.7910295916
  0
SEQEND
  0
POLYLINE
  8
0
 62
7
  6
CONTINUOUS
 66
1
 70
0
  0
VERTEX
  8
0
 62
7
  6
CONTINUOUS
 10
167.2974756266
 20
207.3163319189
  0
VERTEX
  8
0
 62
7
  6
CONTINUOUS
 10
167.2913952625
 20
207.7963843492
  0
VERTEX
  8
0
 62
7
  6
CONTINUOUS
 10
167.2734745746
 20
208.3477338286
  0
VERTEX
  8
0
 62
7
  6
CONTINUOUS
 10
167.2446400584
 20
208.9470262892
  0
VERTEX
  8
0
 62
7
  6
CONTINUOUS
 10
167.2063551217
 20
209.5687517825
  0
VERTEX
  8
0
 62
7
  6
CONTINUOUS
 10
167.1605261918
 20
210.1861372814
  0
VERTEX
  8
0
 62
7
  6
CONTINUOUS
 10
167.109375
 20
210.7723471495
  0
SEQEND
  0
POLYLINE
  8
0
 62
7
  6
CONTINUOUS
 66
1
 70
0
  0
VERTEX
  8
0
 62
7
  6
CONTINUOUS
 10
167.2974756266
 20
166.2906380097
  0
VERTEX
  8
0
 62
7
  6
CONTINUOUS
 10
167.2913952625
 20
166.8394391404
  0
VERTEX
  8
0
 62
7
  6
CONTINUOUS
 10
167.2734745746
 20
167.3163084843
  0
VERTEX
  8
0
 62
7
  6
CONTINUOUS
 10
167.2446400584
 20
167.7008507071
  0
VERTEX
  8
0
 62
7
  6
CONTINUOUS
 10
167.2063551217
 20
167.9763660384
  0
VERTEX
  8
0
 62
7
  6
CONTINUOUS
 10
167.1739370104
 20
168.0854710771
  0
SEQEND
  0
POLYLINE
  8
0
 62
7
  6
CONTINUOUS
 66
1
 70
0
  0
VERTEX
  8
0
 62
7
  6
CONTINUOUS
 10
167.2974756266
 20
201.6370250915
  0
VERTEX
  8
0
 62
7
  6
CONTINUOUS
 10
167.2913952625
 20
202.1849480399
  0
VERTEX
  8
0
 62
7
  6
CONTINUOUS
 10
167.2734745746
 20
202.781847216
  0
VERTEX
  8
0
 62
7
  6
CONTINUOUS
 10
167.2446400584
 20
203.4023977486
  0
VERTEX
  8
0
 62
7
  6
CONTINUOUS
 10
167.2063551217
 20
204.0201148962
  0
VERTEX
  8
0
 62
7
  6
CONTINUOUS
 10
167.1605261918
 20
204.6083171235
  0
VERTEX
  8
0
 62
7
  6
CONTINUOUS
 10
167.109375
 20
205.1413602706
  0
SEQEND
  0
POLYLINE
  8
0
 62
7
  6
CONTINUOUS
 66
1
 70
0
  0
VERTEX
  8
0
 62
7
  6
CONTINUOUS
 10
167.2974756266
 20
173.3780356294
  0
VERTEX
  8
0
 62
7
  6
CONTINUOUS
 10
167.2913952625
 20
173.9733135063
  0
VERTEX
  8
0
 62
7
  6
CONTINUOUS
 10
167.2734745746
 20
174.5189098728
  0
VERTEX
  8
0
 62
7
  6
CONTINUOUS
 10
167.2446400584
 20
174.9915378688
  0
VERTEX
  8
0
 62
7
  6
CONTINUOUS
 10
167.2063551217
 20
175.3707813091
  0
VERTEX
  8
0
 62
7
  6
CONTINUOUS
 10
167.1605261918
 20
175.6399633192
  0
VERTEX
  8
0
 62
7
  6
CONTINUOUS
 10
167.109375
 20
175.7870552181
  0
SEQEND
  0
POLYLINE
  8
0
 62
7
  6
CONTINUOUS
 66
1
 70
0
  0
VERTEX
  8
0
 62
7
  6
CONTINUOUS
 10
167.2974756266
 20
195.1442333236
  0
VERTEX
  8
0
 62
7
  6
CONTINUOUS
 10
167.2913952625
 20
195.7389704185
  0
VERTEX
  8
0
 62
7
  6
CONTINUOUS
 10
167.2734745746
 20
196.3584807907
  0
VERTEX
  8
0
 62
7
  6
CONTINUOUS
 10
167.2446400584
 20
196.9764419863
  0
VERTEX
  8
0
 62
7
  6
CONTINUOUS
 10
167.2063551217
 20
197.5664122646
  0
VERTEX
  8
0
 62
7
  6
CONTINUOUS
 10
167.1605261918
 20
198.1028269386
  0
VERTEX
  8
0
 62
7
  6
CONTINUOUS
 10
167.109375
 20
198.5622188156
  0
SEQEND
  0
POLYLINE
  8
0
 62
7
  6
CONTINUOUS
 66
1
 70
0
  0
VERTEX
  8
0
 62
7
  6
CONTINUOUS
 10
167.2974756266
 20
180.7379254259
  0
VERTEX
  8
0
 62
7
  6
CONTINUOUS
 10
167.2913952625
 20
181.356803854
  0
VERTEX
  8
0
 62
7
  6
CONTINUOUS
 10
167.2734745746
 20
181.9501602806
  0
VERTEX
  8
0
 62
7
  6
CONTINUOUS
 10
167.2446400584
 20
182.492711221
  0
VERTEX
  8
0
 62
7
  6
CONTINUOUS
 10
167.2063551217
 20
182.9611086577
  0
VERTEX
  8
0
 62
7
  6
CONTINUOUS
 10
167.1605261918
 20
183.3348882353
  0
VERTEX
  8
0
 62
7
  6
CONTINUOUS
 10
167.109375
 20
183.5975238721
  0
SEQEND
  0
POLYLINE
  8
0
 62
7
  6
CONTINUOUS
 66
1
 70
0
  0
VERTEX
  8
0
 62
7
  6
CONTINUOUS
 10
167.2974756266
 20
188.0874709617
  0
VERTEX
  8
0
 62
7
  6
CONTINUOUS
 10
167.2913952625
 20
188.7061667901
  0
VERTEX
  8
0
 62
7
  6
CONTINUOUS
 10
167.2734745746
 20
189.3244809221
  0
VERTEX
  8
0
 62
7
  6
CONTINUOUS
 10
167.2446400584
 20
189.9161048786
  0
VERTEX
  8
0
 62
7
  6
CONTINUOUS
 10
167.2063551217
 20
190.4556560608
  0
VERTEX
  8
0
 62
7
  6
CONTINUOUS
 10
167.1605261918
 20
190.9196690664
  0
VERTEX
  8
0
 62
7
  6
CONTINUOUS
 10
167.109375
 20
191.2877555009
  0
SEQEND
  0
LINE
  8
0
 62
7
  6
CONTINUOUS
 10
167.109375
 20
219.8928514153
 11
167.109375
 21
219.6326086976
  0
LINE
  8
0
 62
7
  6
CONTINUOUS
 10
167.109375
 20
218.3690275203
 11
167.109375
 21
216.6378700072
  0
LINE
  8
0
 62
7
  6
CONTINUOUS
 10
167.109375
 20
215.2387837844
 11
167.109375
 21
212.2723870385
  0
LINE
  8
0
 62
7
  6
CONTINUOUS
 10
167.109375
 20
210.7723471495
 11
167.109375
 21
206.7039228536
  0
LINE
  8
0
 62
7
  6
CONTINUOUS
 10
167.109375
 20
205.1413602706
 11
167.109375
 21
200.1464704084
  0
LINE
  8
0
 62
7
  6
CONTINUOUS
 10
167.109375
 20
198.5622188156
 11
167.109375
 21
192.8520289229
  0
LINE
  8
0
 62
7
  6
CONTINUOUS
 10
167.109375
 20
191.2877555009
 11
167.109375
 21
185.1504447819
  0
LINE
  8
0
 62
7
  6
CONTINUOUS
 10
167.109375
 20
183.5975238721
 11
167.109375
 21
177.3399761279
  0
LINE
  8
0
 62
7
  6
CONTINUOUS
 10
167.109375
 20
175.7870552181
 11
167.109375
 21
169.6497444991
  0
LINE
  8
0
 62
7
  6
CONTINUOUS
 10
167.109375
 20
168.0854710771
 11
167.109375
 21
162.3752811844
  0
LINE
  8
0
 62
7
  6
CONTINUOUS
 10
167.109375
 20
160.7910295916
 11
167.109375
 21
155.7961397294
  0
LINE
  8
0
 62
7
  6
CONTINUOUS
 10
167.109375
 20
154.2335771464
 11
167.109375
 21
150.1651528505
  0
LINE
  8
0
 62
7
  6
CONTINUOUS
 10
167.109375
 20
148.6651129615
 11
167.109375
 21
145.6987162156
  0
LINE
  8
0
 62
7
  6
CONTINUOUS
 10
167.109375
 20
144.2996299928
 11
167.109375
 21
142.5684724797
  0
LINE
  8
0
 62
7
  6
CONTINUOUS
 10
167.109375
 20
141.3048913024
 11
167.109375
 21
140.8947151543
  0
LINE
  8
0
 62
7
  6
CONTINUOUS
 10
167.2974756266
 20
207.3163319189
 11
167.2974756266
 21
206.9356603809
  0
LINE
  8
0
 62
7
  6
CONTINUOUS
 10
167.2974756266
 20
201.6370250915
 11
167.2974756266
 21
201.1894027174
  0
LINE
  8
0
 62
7
  6
CONTINUOUS
 10
167.2974756266
 20
195.1442333236
 11
167.2974756266
 21
194.6468619903
  0
LINE
  8
0
 62
7
  6
CONTINUOUS
 10
167.2974756266
 20
188.0874709617
 11
167.2974756266
 21
187.5594643706
  0
LINE
  8
0
 62
7
  6
CONTINUOUS
 10
167.2974756266
 20
180.7379254259
 11
167.2974756266
 21
180.1995745741
  0
LINE
  8
0
 62
7
  6
CONTINUOUS
 10
167.2974756266
 20
173.3780356294
 11
167.2974756266
 21
172.8500290383
  0
LINE
  8
0
 62
7
  6
CONTINUOUS
 10
167.2974756266
 20
166.2906380097
 11
167.2974756266
 21
165.7932666764
  0
LINE
  8
0
 62
7
  6
CONTINUOUS
 10
167.2974756266
 20
159.7480972826
 11
167.2974756266
 21
159.3004749085
  0
LINE
  8
0
 62
7
  6
CONTINUOUS
 10
167.2974756266
 20
154.0018396191
 11
167.2974756266
 21
153.6211680811
  0
LINE
  8
0
 62
7
  6
CONTINUOUS
 10
167.2939116962
 20
206.7039228536
 11
167.2974756266
 21
206.9356603809
  0
POLYLINE
  8
0
 62
7
  6
CONTINUOUS
 66
1
 70
0
  0
VERTEX
  8
0
 62
7
  6
CONTINUOUS
 10
167.109375
 20
155.7961397294
  0
VERTEX
  8
0
 62
7
  6
CONTINUOUS
 10
167.1605121692
 20
156.3290208665
  0
VERTEX
  8
0
 62
7
  6
CONTINUOUS
 10
167.2063513395
 20
156.9173309334
  0
VERTEX
  8
0
 62
7
  6
CONTINUOUS
 10
167.2446481647
 20
157.5352516215
  0
VERTEX
  8
0
 62
7
  6
CONTINUOUS
 10
167.2734854472
 20
158.1559355025
  0
VERTEX
  8
0
 62
7
  6
CONTINUOUS
 10
167.291400448
 20
158.7527989356
  0
VERTEX
  8
0
 62
7
  6
CONTINUOUS
 10
167.2974756266
 20
159.3004749085
  0
SEQEND
  0
POLYLINE
  8
0
 62
7
  6
CONTINUOUS
 66
1
 70
0
  0
VERTEX
  8
0
 62
7
  6
CONTINUOUS
 10
167.109375
 20
162.3752811844
  0
VERTEX
  8
0
 62
7
  6
CONTINUOUS
 10
167.1605121692
 20
162.8345291735
  0
VERTEX
  8
0
 62
7
  6
CONTINUOUS
 10
167.2063513395
 20
163.3710371365
  0
VERTEX
  8
0
 62
7
  6
CONTINUOUS
 10
167.2446481647
 20
163.9612037283
  0
VERTEX
  8
0
 62
7
  6
CONTINUOUS
 10
167.2734854472
 20
164.5793065844
  0
VERTEX
  8
0
 62
7
  6
CONTINUOUS
 10
167.291400448
 20
165.1987915383
  0
VERTEX
  8
0
 62
7
  6
CONTINUOUS
 10
167.2974756266
 20
165.7932666764
  0
SEQEND
  0
POLYLINE
  8
0
 62
7
  6
CONTINUOUS
 66
1
 70
0
  0
VERTEX
  8
0
 62
7
  6
CONTINUOUS
 10
167.109375
 20
169.6497444991
  0
VERTEX
  8
0
 62
7
  6
CONTINUOUS
 10
167.1605121692
 20
170.0177106975
  0
VERTEX
  8
0
 62
7
  6
CONTINUOUS
 10
167.2063513395
 20
170.4817988564
  0
VERTEX
  8
0
 62
7
  6
CONTINUOUS
 10
167.2446481647
 20
171.0215315809
  0
VERTEX
  8
0
 62
7
  6
CONTINUOUS
 10
167.2734854472
 20
171.6133000659
  0
VERTEX
  8
0
 62
7
  6
CONTINUOUS
 10
167.291400448
 20
172.2316000811
  0
VERTEX
  8
0
 62
7
  6
CONTINUOUS
 10
167.2974756266
 20
172.8500290383
  0
SEQEND
  0
POLYLINE
  8
0
 62
7
  6
CONTINUOUS
 66
1
 70
0
  0
VERTEX
  8
0
 62
7
  6
CONTINUOUS
 10
167.109375
 20
177.3399761279
  0
VERTEX
  8
0
 62
7
  6
CONTINUOUS
 10
167.1605121692
 20
177.6025198008
  0
VERTEX
  8
0
 62
7
  6
CONTINUOUS
 10
167.2063513395
 20
177.976353508
  0
VERTEX
  8
0
 62
7
  6
CONTINUOUS
 10
167.2446481647
 20
178.4449107392
  0
VERTEX
  8
0
 62
7
  6
CONTINUOUS
 10
167.2734854472
 20
178.9876035221
  0
VERTEX
  8
0
 62
7
  6
CONTINUOUS
 10
167.291400448
 20
179.5809576759
  0
VERTEX
  8
0
 62
7
  6
CONTINUOUS
 10
167.2974756266
 20
180.1995745741
  0
SEQEND
  0
POLYLINE
  8
0
 62
7
  6
CONTINUOUS
 66
1
 70
0
  0
VERTEX
  8
0
 62
7
  6
CONTINUOUS
 10
175.3175072875
 20
185.1324538015
  0
VERTEX
  8
0
 62
7
  6
CONTINUOUS
 10
175.4753159909
 20
185.2554837553
  0
VERTEX
  8
0
 62
7
  6
CONTINUOUS
 10
175.6173186031
 20
185.517078125
  0
VERTEX
  8
0
 62
7
  6
CONTINUOUS
 10
175.7355798943
 20
185.9013734386
  0
VERTEX
  8
0
 62
7
  6
CONTINUOUS
 10
175.8239801851
 20
186.3863970399
  0
VERTEX
  8
0
 62
7
  6
CONTINUOUS
 10
175.8784880521
 20
186.9476316628
  0
VERTEX
  8
0
 62
7
  6
CONTINUOUS
 10
175.896875
 20
187.5594643706
  0
SEQEND
  0
LINE
  8
0
 62
7
  6
CONTINUOUS
 10
160.109375
 20
185.1504447819
 11
167.109375
 21
185.1504447819
  0
POLYLINE
  8
0
 62
7
  6
CONTINUOUS
 66
1
 70
0
  0
VERTEX
  8
0
 62
7
  6
CONTINUOUS
 10
175.2113776567
 20
175.8380372412
  0
VERTEX
  8
0
 62
7
  6
CONTINUOUS
 10
175.17465372
 20
175.874143239
  0
VERTEX
  8
0
 62
7
  6
CONTINUOUS
 10
175.143938914
 20
175.9547999883
  0
VERTEX
  8
0
 62
7
  6
CONTINUOUS
 10
175.1317777458
 20
176.0090952593
  0
VERTEX
  8
0
 62
7
  6
CONTINUOUS
 10
175.11506134
 20
176.1385527377
  0
VERTEX
  8
0
 62
7
  6
CONTINUOUS
 10
175.109375
 20
176.285376222
  0
SEQEND
  0
LINE
  8
0
 62
7
  6
CONTINUOUS
 10
167.1441109529
 20
219.6326086976
 11
167.0478649785
 21
220.759122157
  0
POLYLINE
  8
0
 62
7
  6
CONTINUOUS
 66
1
 70
0
  0
VERTEX
  8
0
 62
7
  6
CONTINUOUS
 10
167.0433422989
 20
220.8135471654
  0
VERTEX
  8
0
 62
7
  6
CONTINUOUS
 10
167.0679714684
 20
220.5089925218
  0
VERTEX
  8
0
 62
7
  6
CONTINUOUS
 10
167.0876805322
 20
220.2521287884
  0
VERTEX
  8
0
 62
7
  6
CONTINUOUS
 10
167.0953519618
 20
220.1455987905
  0
VERTEX
  8
0
 62
7
  6
CONTINUOUS
 10
167.1058233632
 20
219.9827095012
  0
VERTEX
  8
0
 62
7
  6
CONTINUOUS
 10
167.109375
 20
219.8928514153
  0
SEQEND
  0
POLYLINE
  8
0
 62
7
  6
CONTINUOUS
 66
1
 70
0
  0
VERTEX
  8
0
 62
7
  6
CONTINUOUS
 10
167.240815952
 20
216.6378700072
  0
VERTEX
  8
0
 62
7
  6
CONTINUOUS
 10
167.2063551217
 20
217.1408798211
  0
VERTEX
  8
0
 62
7
  6
CONTINUOUS
 10
167.1605261918
 20
217.7452447993
  0
VERTEX
  8
0
 62
7
  6
CONTINUOUS
 10
167.109375
 20
218.3690275203
  0
SEQEND
  0
POLYLINE
  8
0
 62
7
  6
CONTINUOUS
 66
1
 70
0
  0
VERTEX
  8
0
 62
7
  6
CONTINUOUS
 10
167.109375
 20
142.5684724797
  0
VERTEX
  8
0
 62
7
  6
CONTINUOUS
 10
167.1605121692
 20
143.1920777518
  0
VERTEX
  8
0
 62
7
  6
CONTINUOUS
 10
167.2063513395
 20
143.7965679311
  0
VERTEX
  8
0
 62
7
  6
CONTINUOUS
 10
167.2408154319
 20
144.2996299928
  0
SEQEND
  0
POLYLINE
  8
0
 62
7
  6
CONTINUOUS
 66
1
 70
0
  0
VERTEX
  8
0
 62
7
  6
CONTINUOUS
 10
167.109375
 20
145.6987162156
  0
VERTEX
  8
0
 62
7
  6
CONTINUOUS
 10
167.1605121692
 20
146.315385969
  0
VERTEX
  8
0
 62
7
  6
CONTINUOUS
 10
167.2063513395
 20
146.9383530692
  0
VERTEX
  8
0
 62
7
  6
CONTINUOUS
 10
167.2446481647
 20
147.5403888975
  0
VERTEX
  8
0
 62
7
  6
CONTINUOUS
 10
167.2734854472
 20
148.0954946802
  0
VERTEX
  8
0
 62
7
  6
CONTINUOUS
 10
167.291400448
 20
148.580054484
  0
VERTEX
  8
0
 62
7
  6
CONTINUOUS
 10
167.2927135034
 20
148.6651129615
  0
SEQEND
  0
LINE
  8
0
 62
7
  6
CONTINUOUS
 10
167.109375
 20
140.8947151543
 11
167.1439547517
 21
141.3048913024
  0
POLYLINE
  8
0
 62
7
  6
CONTINUOUS
 66
1
 70
0
  0
VERTEX
  8
0
 62
7
  6
CONTINUOUS
 10
167.109375
 20
150.1651528505
  0
VERTEX
  8
0
 62
7
  6
CONTINUOUS
 10
167.1605121692
 20
150.7511888124
  0
VERTEX
  8
0
 62
7
  6
CONTINUOUS
 10
167.2063513395
 20
151.3686925573
  0
VERTEX
  8
0
 62
7
  6
CONTINUOUS
 10
167.2446481647
 20
151.990620996
  0
VERTEX
  8
0
 62
7
  6
CONTINUOUS
 10
167.2734854472
 20
152.5900333685
  0
VERTEX
  8
0
 62
7
  6
CONTINUOUS
 10
167.291400448
 20
153.1413381539
  0
VERTEX
  8
0
 62
7
  6
CONTINUOUS
 10
167.2974756266
 20
153.6211680811
  0
SEQEND
  0
POLYLINE
  8
0
 62
7
  6
CONTINUOUS
 66
1
 70
0
  0
VERTEX
  8
0
 62
7
  6
CONTINUOUS
 10
175.109375
 20
216.5798665377
  0
VERTEX
  8
0
 62
7
  6
CONTINUOUS
 10
175.1150943631
 20
216.6297073127
  0
VERTEX
  8
0
 62
7
  6
CONTINUOUS
 10
175.1237035056
 20
216.6378700067
  0
SEQEND
  0
POLYLINE
  8
0
 62
7
  6
CONTINUOUS
 66
1
 70
0
  0
VERTEX
  8
0
 62
7
  6
CONTINUOUS
 10
152.0443807009
 20
160.7910295916
  0
VERTEX
  8
0
 62
7
  6
CONTINUOUS
 10
152.074811086
 20
160.8147543093
  0
VERTEX
  8
0
 62
7
  6
CONTINUOUS
 10
152.0869722542
 20
160.8438845726
  0
VERTEX
  8
0
 62
7
  6
CONTINUOUS
 10
152.10368866
 20
160.9323808948
  0
VERTEX
  8
0
 62
7
  6
CONTINUOUS
 10
152.109375
 20
161.0533874552
  0
SEQEND
  0
POLYLINE
  8
0
 62
7
  6
CONTINUOUS
 66
1
 70
0
  0
VERTEX
  8
0
 62
7
  6
CONTINUOUS
 10
152.021914263
 20
168.0854710776
  0
VERTEX
  8
0
 62
7
  6
CONTINUOUS
 10
152.04409628
 20
168.0948257808
  0
VERTEX
  8
0
 62
7
  6
CONTINUOUS
 10
152.074811086
 20
168.1480381249
  0
VERTEX
  8
0
 62
7
  6
CONTINUOUS
 10
152.0869722542
 20
168.1905680935
  0
VERTEX
  8
0
 62
7
  6
CONTINUOUS
 10
152.10368866
 20
168.3016799774
  0
VERTEX
  8
0
 62
7
  6
CONTINUOUS
 10
152.109375
 20
168.4382185502
  0
SEQEND
  0
POLYLINE
  8
0
 62
7
  6
CONTINUOUS
 66
1
 70
0
  0
VERTEX
  8
0
 62
7
  6
CONTINUOUS
 10
175.896875
 20
145.7423884109
  0
VERTEX
  8
0
 62
7
  6
CONTINUOUS
 10
175.8810927514
 20
145.9180249218
  0
VERTEX
  8
0
 62
7
  6
CONTINUOUS
 10
175.8344127707
 20
145.9789956847
  0
VERTEX
  8
0
 62
7
  6
CONTINUOUS
 10
175.8332293874
 20
145.979017462
  0
SEQEND
  0
POLYLINE
  8
0
 62
7
  6
CONTINUOUS
 66
1
 70
0
  0
VERTEX
  8
0
 62
7
  6
CONTINUOUS
 10
175.896875
 20
149.2726904788
  0
VERTEX
  8
0
 62
7
  6
CONTINUOUS
 10
175.8810927514
 20
149.555363668
  0
VERTEX
  8
0
 62
7
  6
CONTINUOUS
 10
175.8344127707
 20
149.730349857
  0
VERTEX
  8
0
 62
7
  6
CONTINUOUS
 10
175.7585900298
 20
149.7902443443
  0
VERTEX
  8
0
 62
7
  6
CONTINUOUS
 10
175.7582116556
 20
149.790245424
  0
SEQEND
  0
POLYLINE
  8
0
 62
7
  6
CONTINUOUS
 66
1
 70
0
  0
VERTEX
  8
0
 62
7
  6
CONTINUOUS
 10
175.896875
 20
154.0018396191
  0
VERTEX
  8
0
 62
7
  6
CONTINUOUS
 10
175.8810927514
 20
154.3806865146
  0
VERTEX
  8
0
 62
7
  6
CONTINUOUS
 10
175.8344127707
 20
154.6629635085
  0
VERTEX
  8
0
 62
7
  6
CONTINUOUS
 10
175.7585900298
 20
154.8375776471
  0
VERTEX
  8
0
 62
7
  6
CONTINUOUS
 10
175.7106454102
 20
154.881610078
  0
VERTEX
  8
0
 62
7
  6
CONTINUOUS
 10
175.6586302099
 20
154.8957194297
  0
SEQEND
  0
POLYLINE
  8
0
 62
7
  6
CONTINUOUS
 66
1
 70
0
  0
VERTEX
  8
0
 62
7
  6
CONTINUOUS
 10
175.896875
 20
159.7480972826
  0
VERTEX
  8
0
 62
7
  6
CONTINUOUS
 10
175.8810927514
 20
160.2085590106
  0
VERTEX
  8
0
 62
7
  6
CONTINUOUS
 10
175.8344127707
 20
160.5872790628
  0
VERTEX
  8
0
 62
7
  6
CONTINUOUS
 10
175.7585900298
 20
160.8699025293
  0
VERTEX
  8
0
 62
7
  6
CONTINUOUS
 10
175.7106454102
 20
160.9710604131
  0
VERTEX
  8
0
 62
7
  6
CONTINUOUS
 10
175.5970742403
 20
161.0866236962
  0
VERTEX
  8
0
 62
7
  6
CONTINUOUS
 10
175.5390046352
 20
161.0992389759
  0
SEQEND
  0
LINE
  8
0
 62
7
  6
CONTINUOUS
 10
175.109375
 20
221.1393207852
 11
175.109375
 21
221.10397959
  0
LINE
  8
0
 62
7
  6
CONTINUOUS
 10
175.109375
 20
219.6117147533
 11
175.109375
 21
219.5070493102
  0
LINE
  8
0
 62
7
  6
CONTINUOUS
 10
175.109375
 20
216.5798665377
 11
175.109375
 21
216.4098990809
  0
LINE
  8
0
 62
7
  6
CONTINUOUS
 10
175.109375
 20
212.1602883648
 11
175.109375
 21
211.9315506484
  0
LINE
  8
0
 62
7
  6
CONTINUOUS
 10
175.109375
 20
206.5228221454
 11
175.109375
 21
206.2441044315
  0
LINE
  8
0
 62
7
  6
CONTINUOUS
 10
175.109375
 20
199.8841125448
 11
175.109375
 21
199.5661257988
  0
LINE
  8
0
 62
7
  6
CONTINUOUS
 10
175.109375
 20
192.4992814498
 11
175.109375
 21
192.1542457241
  0
LINE
  8
0
 62
7
  6
CONTINUOUS
 10
175.109375
 20
184.652123778
 11
175.109375
 21
184.293298602
  0
LINE
  8
0
 62
7
  6
CONTINUOUS
 10
175.109375
 20
176.644201398
 11
175.109375
 21
176.285376222
  0
LINE
  8
0
 62
7
  6
CONTINUOUS
 10
175.109375
 20
168.7832542759
 11
175.109375
 21
168.4382185502
  0
LINE
  8
0
 62
7
  6
CONTINUOUS
 10
175.109375
 20
161.3713742012
 11
175.109375
 21
161.0533874552
  0
LINE
  8
0
 62
7
  6
CONTINUOUS
 10
175.109375
 20
154.6933955685
 11
175.109375
 21
154.4146778546
  0
LINE
  8
0
 62
7
  6
CONTINUOUS
 10
175.109375
 20
149.0059493516
 11
175.109375
 21
148.7772116352
  0
LINE
  8
0
 62
7
  6
CONTINUOUS
 10
175.109375
 20
144.5276009191
 11
175.109375
 21
144.3576334623
  0
LINE
  8
0
 62
7
  6
CONTINUOUS
 10
175.109375
 20
141.4304506898
 11
175.109375
 21
141.3257852467
  0
LINE
  8
0
 62
7
  6
CONTINUOUS
 10
175.109375
 20
139.83352041
 11
175.109375
 21
139.7981792148
  0
POLYLINE
  8
0
 62
7
  6
CONTINUOUS
 66
1
 70
0
  0
VERTEX
  8
0
 62
7
  6
CONTINUOUS
 10
175.109375
 20
176.644201398
  0
VERTEX
  8
0
 62
7
  6
CONTINUOUS
 10
175.1150943631
 20
176.7961025283
  0
VERTEX
  8
0
 62
7
  6
CONTINUOUS
 10
175.1318200491
 20
176.9387540848
  0
VERTEX
  8
0
 62
7
  6
CONTINUOUS
 10
175.1439566496
 20
177.0025503178
  0
VERTEX
  8
0
 62
7
  6
CONTINUOUS
 10
175.1745955633
 20
177.1073240832
  0
VERTEX
  8
0
 62
7
  6
CONTINUOUS
 10
175.2113776567
 20
177.1725360667
  0
SEQEND
  0
POLYLINE
  8
0
 62
7
  6
CONTINUOUS
 66
1
 70
0
  0
VERTEX
  8
0
 62
7
  6
CONTINUOUS
 10
175.109375
 20
184.652123778
  0
VERTEX
  8
0
 62
7
  6
CONTINUOUS
 10
175.1150943631
 20
184.7993557731
  0
VERTEX
  8
0
 62
7
  6
CONTINUOUS
 10
175.1318200491
 20
184.9286295619
  0
VERTEX
  8
0
 62
7
  6
CONTINUOUS
 10
175.1439566496
 20
184.9827666527
  0
VERTEX
  8
0
 62
7
  6
CONTINUOUS
 10
175.1745955633
 20
185.0632556837
  0
VERTEX
  8
0
 62
7
  6
CONTINUOUS
 10
175.2113776567
 20
185.0994627588
  0
SEQEND
  0
POLYLINE
  8
0
 62
7
  6
CONTINUOUS
 66
1
 70
0
  0
VERTEX
  8
0
 62
7
  6
CONTINUOUS
 10
175.109375
 20
192.4992814498
  0
VERTEX
  8
0
 62
7
  6
CONTINUOUS
 10
175.1150943631
 20
192.6361862666
  0
VERTEX
  8
0
 62
7
  6
CONTINUOUS
 10
175.1318200491
 20
192.7471143685
  0
VERTEX
  8
0
 62
7
  6
CONTINUOUS
 10
175.1439566496
 20
192.7895118592
  0
VERTEX
  8
0
 62
7
  6
CONTINUOUS
 10
175.1745955633
 20
192.8426230075
  0
VERTEX
  8
0
 62
7
  6
CONTINUOUS
 10
175.1968302728
 20
192.8520289209
  0
SEQEND
  0
POLYLINE
  8
0
 62
7
  6
CONTINUOUS
 66
1
 70
0
  0
VERTEX
  8
0
 62
7
  6
CONTINUOUS
 10
175.109375
 20
199.8841125448
  0
VERTEX
  8
0
 62
7
  6
CONTINUOUS
 10
175.1150943631
 20
200.005429008
  0
VERTEX
  8
0
 62
7
  6
CONTINUOUS
 10
175.1318200491
 20
200.0937485183
  0
VERTEX
  8
0
 62
7
  6
CONTINUOUS
 10
175.1439566496
 20
200.122777097
  0
VERTEX
  8
0
 62
7
  6
CONTINUOUS
 10
175.1743688907
 20
200.1464704084
  0
SEQEND
  0
POLYLINE
  8
0
 62
7
  6
CONTINUOUS
 66
1
 70
0
  0
VERTEX
  8
0
 62
7
  6
CONTINUOUS
 10
175.109375
 20
206.5228221454
  0
VERTEX
  8
0
 62
7
  6
CONTINUOUS
 10
175.1150943631
 20
206.6238881315
  0
VERTEX
  8
0
 62
7
  6
CONTINUOUS
 10
175.1318200491
 20
206.6862049809
  0
VERTEX
  8
0
 62
7
  6
CONTINUOUS
 10
175.1439566496
 20
206.7007490956
  0
VERTEX
  8
0
 62
7
  6
CONTINUOUS
 10
175.1541911331
 20
206.7039228515
  0
SEQEND
  0
POLYLINE
  8
0
 62
7
  6
CONTINUOUS
 66
1
 70
0
  0
VERTEX
  8
0
 62
7
  6
CONTINUOUS
 10
175.109375
 20
212.1602883648
  0
VERTEX
  8
0
 62
7
  6
CONTINUOUS
 10
175.1150943631
 20
212.2372199645
  0
VERTEX
  8
0
 62
7
  6
CONTINUOUS
 10
175.1318200491
 20
212.2711393514
  0
VERTEX
  8
0
 62
7
  6
CONTINUOUS
 10
175.1370876009
 20
212.2723870365
  0
SEQEND
  0
POLYLINE
  8
0
 62
7
  6
CONTINUOUS
 66
1
 70
0
  0
VERTEX
  8
0
 62
7
  6
CONTINUOUS
 10
175.3175072875
 20
177.2890193688
  0
VERTEX
  8
0
 62
7
  6
CONTINUOUS
 10
175.4753159909
 20
177.5365922335
  0
VERTEX
  8
0
 62
7
  6
CONTINUOUS
 10
175.6173186031
 20
177.9113309342
  0
VERTEX
  8
0
 62
7
  6
CONTINUOUS
 10
175.7355798943
 20
178.3916723356
  0
VERTEX
  8
0
 62
7
  6
CONTINUOUS
 10
175.8239801851
 20
178.9513655132
  0
VERTEX
  8
0
 62
7
  6
CONTINUOUS
 10
175.8784880521
 20
179.563094537
  0
VERTEX
  8
0
 62
7
  6
CONTINUOUS
 10
175.896875
 20
180.1995745741
  0
SEQEND
  0
LINE
  8
0
 62
7
  6
CONTINUOUS
 10
175.3175072875
 20
177.2890193688
 11
175.2113776567
 21
177.1725360667
  0
POLYLINE
  8
0
 62
7
  6
CONTINUOUS
 66
1
 70
0
  0
VERTEX
  8
0
 62
7
  6
CONTINUOUS
 10
175.4045519147
 20
192.7750937139
  0
VERTEX
  8
0
 62
7
  6
CONTINUOUS
 10
175.4753159909
 20
192.7904237833
  0
VERTEX
  8
0
 62
7
  6
CONTINUOUS
 10
175.6173186031
 20
192.9288208972
  0
VERTEX
  8
0
 62
7
  6
CONTINUOUS
 10
175.7355798943
 20
193.2023018694
  0
VERTEX
  8
0
 62
7
  6
CONTINUOUS
 10
175.8239801851
 20
193.5940167096
  0
VERTEX
  8
0
 62
7
  6
CONTINUOUS
 10
175.8784880521
 20
194.0831889997
  0
VERTEX
  8
0
 62
7
  6
CONTINUOUS
 10
175.896875
 20
194.6468619903
  0
SEQEND
  0
LINE
  8
0
 62
7
  6
CONTINUOUS
 10
160.109375
 20
191.2877555009
 11
167.109375
 21
191.2877555009
  0
POLYLINE
  8
0
 62
7
  6
CONTINUOUS
 66
1
 70
0
  0
VERTEX
  8
0
 62
7
  6
CONTINUOUS
 10
151.8141980853
 20
192.7750937139
  0
VERTEX
  8
0
 62
7
  6
CONTINUOUS
 10
151.7434340091
 20
192.7904237833
  0
VERTEX
  8
0
 62
7
  6
CONTINUOUS
 10
151.6014313969
 20
192.9288208972
  0
VERTEX
  8
0
 62
7
  6
CONTINUOUS
 10
151.4831701057
 20
193.2023018694
  0
VERTEX
  8
0
 62
7
  6
CONTINUOUS
 10
151.3947698149
 20
193.5940167096
  0
VERTEX
  8
0
 62
7
  6
CONTINUOUS
 10
151.3402619479
 20
194.0831889997
  0
VERTEX
  8
0
 62
7
  6
CONTINUOUS
 10
151.321875
 20
194.6468619903
  0
SEQEND
  0
LINE
  8
0
 62
7
  6
CONTINUOUS
 10
175.2113776567
 20
183.7649639333
 11
175.3175072875
 21
183.6484806312
  0
POLYLINE
  8
0
 62
7
  6
CONTINUOUS
 66
1
 70
0
  0
VERTEX
  8
0
 62
7
  6
CONTINUOUS
 10
175.2113776567
 20
183.7649639333
  0
VERTEX
  8
0
 62
7
  6
CONTINUOUS
 10
175.17465372
 20
183.8300288583
  0
VERTEX
  8
0
 62
7
  6
CONTINUOUS
 10
175.143938914
 20
183.9350304193
  0
VERTEX
  8
0
 62
7
  6
CONTINUOUS
 10
175.1317777458
 20
183.9990044558
  0
VERTEX
  8
0
 62
7
  6
CONTINUOUS
 10
175.11506134
 20
184.1418325503
  0
VERTEX
  8
0
 62
7
  6
CONTINUOUS
 10
175.109375
 20
184.293298602
  0
SEQEND
  0
POLYLINE
  8
0
 62
7
  6
CONTINUOUS
 66
1
 70
0
  0
VERTEX
  8
0
 62
7
  6
CONTINUOUS
 10
175.896875
 20
215.4011295409
  0
VERTEX
  8
0
 62
7
  6
CONTINUOUS
 10
175.8810927514
 20
215.6771232797
  0
VERTEX
  8
0
 62
7
  6
CONTINUOUS
 10
175.8344127707
 20
216.0515067113
  0
VERTEX
  8
0
 62
7
  6
CONTINUOUS
 10
175.7585900298
 20
216.5120680466
  0
VERTEX
  8
0
 62
7
  6
CONTINUOUS
 10
175.7106454102
 20
216.7697504255
  0
VERTEX
  8
0
 62
7
  6
CONTINUOUS
 10
175.5970742403
 20
217.3285336315
  0
VERTEX
  8
0
 62
7
  6
CONTINUOUS
 10
175.4640409882
 20
217.9269814697
  0
VERTEX
  8
0
 62
7
  6
CONTINUOUS
 10
175.3175072875
 20
218.540005457
  0
SEQEND
  0
POLYLINE
  8
0
 62
7
  6
CONTINUOUS
 66
1
 70
0
  0
VERTEX
  8
0
 62
7
  6
CONTINUOUS
 10
175.896875
 20
211.9639012294
  0
VERTEX
  8
0
 62
7
  6
CONTINUOUS
 10
175.8810927514
 20
212.3368935376
  0
VERTEX
  8
0
 62
7
  6
CONTINUOUS
 10
175.8344127707
 20
212.7939436765
  0
VERTEX
  8
0
 62
7
  6
CONTINUOUS
 10
175.7585900298
 20
213.3197452445
  0
VERTEX
  8
0
 62
7
  6
CONTINUOUS
 10
175.7106454102
 20
213.6025974738
  0
VERTEX
  8
0
 62
7
  6
CONTINUOUS
 10
175.5970742403
 20
214.1953148562
  0
VERTEX
  8
0
 62
7
  6
CONTINUOUS
 10
175.4640409882
 20
214.804283425
  0
VERTEX
  8
0
 62
7
  6
CONTINUOUS
 10
175.3175072875
 20
215.4034201077
  0
SEQEND
  0
POLYLINE
  8
0
 62
7
  6
CONTINUOUS
 66
1
 70
0
  0
VERTEX
  8
0
 62
7
  6
CONTINUOUS
 10
175.896875
 20
207.3163319189
  0
VERTEX
  8
0
 62
7
  6
CONTINUOUS
 10
175.8810927514
 20
207.7719889112
  0
VERTEX
  8
0
 62
7
  6
CONTINUOUS
 10
175.8344127707
 20
208.2941415768
  0
VERTEX
  8
0
 62
7
  6
CONTINUOUS
 10
175.7585900298
 20
208.8649771182
  0
VERTEX
  8
0
 62
7
  6
CONTINUOUS
 10
175.7106454102
 20
209.1621293453
  0
VERTEX
  8
0
 62
7
  6
CONTINUOUS
 10
175.5970742403
 20
209.7660031076
  0
VERTEX
  8
0
 62
7
  6
CONTINUOUS
 10
175.4640409882
 20
210.3620900863
  0
VERTEX
  8
0
 62
7
  6
CONTINUOUS
 10
175.3175072875
 20
210.9243149776
  0
SEQEND
  0
POLYLINE
  8
0
 62
7
  6
CONTINUOUS
 66
1
 70
0
  0
VERTEX
  8
0
 62
7
  6
CONTINUOUS
 10
175.896875
 20
201.6370250915
  0
VERTEX
  8
0
 62
7
  6
CONTINUOUS
 10
175.8810927514
 20
202.1578361253
  0
VERTEX
  8
0
 62
7
  6
CONTINUOUS
 10
175.8344127707
 20
202.7250252834
  0
VERTEX
  8
0
 62
7
  6
CONTINUOUS
 10
175.7585900298
 20
203.3189579085
  0
VERTEX
  8
0
 62
7
  6
CONTINUOUS
 10
175.7106454102
 20
203.6189907401
  0
VERTEX
  8
0
 62
7
  6
CONTINUOUS
 10
175.5970742403
 20
204.2108143521
  0
VERTEX
  8
0
 62
7
  6
CONTINUOUS
 10
175.4640409882
 20
204.7711124525
  0
VERTEX
  8
0
 62
7
  6
CONTINUOUS
 10
175.3175072875
 20
205.2748195652
  0
SEQEND
  0
POLYLINE
  8
0
 62
7
  6
CONTINUOUS
 66
1
 70
0
  0
VERTEX
  8
0
 62
7
  6
CONTINUOUS
 10
175.896875
 20
166.2906380097
  0
VERTEX
  8
0
 62
7
  6
CONTINUOUS
 10
175.8810927514
 20
166.8150192842
  0
VERTEX
  8
0
 62
7
  6
CONTINUOUS
 10
175.8344127707
 20
167.2756283957
  0
VERTEX
  8
0
 62
7
  6
CONTINUOUS
 10
175.7585900298
 20
167.6554001287
  0
VERTEX
  8
0
 62
7
  6
CONTINUOUS
 10
175.7106454102
 20
167.8097960246
  0
VERTEX
  8
0
 62
7
  6
CONTINUOUS
 10
175.5970742403
 20
168.0387722166
  0
VERTEX
  8
0
 62
7
  6
CONTINUOUS
 10
175.4640409882
 20
168.1516416698
  0
VERTEX
  8
0
 62
7
  6
CONTINUOUS
 10
175.4045664207
 20
168.1624062846
  0
SEQEND
  0
POLYLINE
  8
0
 62
7
  6
CONTINUOUS
 66
1
 70
0
  0
VERTEX
  8
0
 62
7
  6
CONTINUOUS
 10
175.896875
 20
195.1442333236
  0
VERTEX
  8
0
 62
7
  6
CONTINUOUS
 10
175.8810927514
 20
195.710183923
  0
VERTEX
  8
0
 62
7
  6
CONTINUOUS
 10
175.8344127707
 20
196.3006128124
  0
VERTEX
  8
0
 62
7
  6
CONTINUOUS
 10
175.7585900298
 20
196.8948180235
  0
VERTEX
  8
0
 62
7
  6
CONTINUOUS
 10
175.7106454102
 20
197.186201366
  0
VERTEX
  8
0
 62
7
  6
CONTINUOUS
 10
175.5970742403
 20
197.7432313783
  0
VERTEX
  8
0
 62
7
  6
CONTINUOUS
 10
175.4640409882
 20
198.2462086586
  0
VERTEX
  8
0
 62
7
  6
CONTINUOUS
 10
175.3175072875
 20
198.6720408108
  0
SEQEND
  0
POLYLINE
  8
0
 62
7
  6
CONTINUOUS
 66
1
 70
0
  0
VERTEX
  8
0
 62
7
  6
CONTINUOUS
 10
175.896875
 20
173.3780356294
  0
VERTEX
  8
0
 62
7
  6
CONTINUOUS
 10
175.8810927514
 20
173.9461847722
  0
VERTEX
  8
0
 62
7
  6
CONTINUOUS
 10
175.8344127707
 20
174.4709819929
  0
VERTEX
  8
0
 62
7
  6
CONTINUOUS
 10
175.7585900298
 20
174.9333075778
  0
VERTEX
  8
0
 62
7
  6
CONTINUOUS
 10
175.7106454102
 20
175.1350081381
  0
VERTEX
  8
0
 62
7
  6
CONTINUOUS
 10
175.5970742403
 20
175.4685978125
  0
VERTEX
  8
0
 62
7
  6
CONTINUOUS
 10
175.4640409882
 20
175.6960498922
  0
VERTEX
  8
0
 62
7
  6
CONTINUOUS
 10
175.3175072875
 20
175.8050461985
  0
SEQEND
  0
POLYLINE
  8
0
 62
7
  6
CONTINUOUS
 66
1
 70
0
  0
VERTEX
  8
0
 62
7
  6
CONTINUOUS
 10
175.896875
 20
180.7379254259
  0
VERTEX
  8
0
 62
7
  6
CONTINUOUS
 10
175.8810927514
 20
181.3280087839
  0
VERTEX
  8
0
 62
7
  6
CONTINUOUS
 10
175.8344127707
 20
181.8968264511
  0
VERTEX
  8
0
 62
7
  6
CONTINUOUS
 10
175.7585900298
 20
182.4239389749
  0
VERTEX
  8
0
 62
7
  6
CONTINUOUS
 10
175.7106454102
 20
182.6651929602
  0
VERTEX
  8
0
 62
7
  6
CONTINUOUS
 10
175.5970742403
 20
183.0905764527
  0
VERTEX
  8
0
 62
7
  6
CONTINUOUS
 10
175.4640409882
 20
183.4238703031
  0
VERTEX
  8
0
 62
7
  6
CONTINUOUS
 10
175.3175072875
 20
183.6484806312
  0
SEQEND
  0
POLYLINE
  8
0
 62
7
  6
CONTINUOUS
 66
1
 70
0
  0
VERTEX
  8
0
 62
7
  6
CONTINUOUS
 10
175.896875
 20
188.0874709617
  0
VERTEX
  8
0
 62
7
  6
CONTINUOUS
 10
175.8810927514
 20
188.6768119625
  0
VERTEX
  8
0
 62
7
  6
CONTINUOUS
 10
175.8344127707
 20
189.2677907322
  0
VERTEX
  8
0
 62
7
  6
CONTINUOUS
 10
175.7585900298
 20
189.8394335562
  0
VERTEX
  8
0
 62
7
  6
CONTINUOUS
 10
175.7106454102
 20
190.1109697111
  0
VERTEX
  8
0
 62
7
  6
CONTINUOUS
 10
175.5970742403
 20
190.6117997728
  0
VERTEX
  8
0
 62
7
  6
CONTINUOUS
 10
175.4640409882
 20
191.0381270981
  0
VERTEX
  8
0
 62
7
  6
CONTINUOUS
 10
175.3175072875
 20
191.369719799
  0
SEQEND
  0
LINE
  8
0
 62
7
  6
CONTINUOUS
 10
175.896875
 20
217.495926097
 11
175.896875
 21
217.3908990559
  0
LINE
  8
0
 62
7
  6
CONTINUOUS
 10
175.896875
 20
215.4011295409
 11
175.896875
 21
215.1951115891
  0
LINE
  8
0
 62
7
  6
CONTINUOUS
 10
175.896875
 20
211.9639012294
 11
175.896875
 21
211.6648095212
  0
LINE
  8
0
 62
7
  6
CONTINUOUS
 10
175.896875
 20
207.3163319189
 11
175.896875
 21
206.9356603809
  0
LINE
  8
0
 62
7
  6
CONTINUOUS
 10
175.896875
 20
201.6370250915
 11
175.896875
 21
201.1894027174
  0
LINE
  8
0
 62
7
  6
CONTINUOUS
 10
175.896875
 20
195.1442333236
 11
175.896875
 21
194.6468619903
  0
LINE
  8
0
 62
7
  6
CONTINUOUS
 10
175.896875
 20
188.0874709617
 11
175.896875
 21
187.5594643706
  0
LINE
  8
0
 62
7
  6
CONTINUOUS
 10
175.896875
 20
180.7379254259
 11
175.896875
 21
180.1995745741
  0
LINE
  8
0
 62
7
  6
CONTINUOUS
 10
175.896875
 20
173.3780356294
 11
175.896875
 21
172.8500290383
  0
LINE
  8
0
 62
7
  6
CONTINUOUS
 10
175.896875
 20
166.2906380097
 11
175.896875
 21
165.7932666764
  0
LINE
  8
0
 62
7
  6
CONTINUOUS
 10
175.896875
 20
159.7480972826
 11
175.896875
 21
159.3004749085
  0
LINE
  8
0
 62
7
  6
CONTINUOUS
 10
175.896875
 20
154.0018396191
 11
175.896875
 21
153.6211680811
  0
LINE
  8
0
 62
7
  6
CONTINUOUS
 10
175.896875
 20
149.2726904788
 11
175.896875
 21
148.9735987706
  0
LINE
  8
0
 62
7
  6
CONTINUOUS
 10
175.896875
 20
145.7423884109
 11
175.896875
 21
145.5363704591
  0
LINE
  8
0
 62
7
  6
CONTINUOUS
 10
175.896875
 20
143.5466009441
 11
175.896875
 21
143.441573903
  0
LINE
  8
0
 62
7
  6
CONTINUOUS
 10
176.109375
 20
217.3187426952
 11
176.109375
 21
143.6187573048
  0
POLYLINE
  8
0
 62
7
  6
CONTINUOUS
 66
1
 70
0
  0
VERTEX
  8
0
 62
7
  6
CONTINUOUS
 10
175.109375
 20
168.7832542759
  0
VERTEX
  8
0
 62
7
  6
CONTINUOUS
 10
175.1150943631
 20
168.9339870662
  0
VERTEX
  8
0
 62
7
  6
CONTINUOUS
 10
175.1318200491
 20
169.084534371
  0
VERTEX
  8
0
 62
7
  6
CONTINUOUS
 10
175.1439566496
 20
169.1555380927
  0
VERTEX
  8
0
 62
7
  6
CONTINUOUS
 10
175.1745955633
 20
169.2805701954
  0
VERTEX
  8
0
 62
7
  6
CONTINUOUS
 10
175.2113776567
 20
169.3722810276
  0
SEQEND
  0
POLYLINE
  8
0
 62
7
  6
CONTINUOUS
 66
1
 70
0
  0
VERTEX
  8
0
 62
7
  6
CONTINUOUS
 10
175.109375
 20
161.3713742012
  0
VERTEX
  8
0
 62
7
  6
CONTINUOUS
 10
175.1150943631
 20
161.5151460749
  0
VERTEX
  8
0
 62
7
  6
CONTINUOUS
 10
175.1318200491
 20
161.6678036796
  0
VERTEX
  8
0
 62
7
  6
CONTINUOUS
 10
175.1439566496
 20
161.7432862568
  0
VERTEX
  8
0
 62
7
  6
CONTINUOUS
 10
175.1745955633
 20
161.8837717832
  0
VERTEX
  8
0
 62
7
  6
CONTINUOUS
 10
175.2113776567
 20
161.9984570681
  0
SEQEND
  0
POLYLINE
  8
0
 62
7
  6
CONTINUOUS
 66
1
 70
0
  0
VERTEX
  8
0
 62
7
  6
CONTINUOUS
 10
175.109375
 20
154.6933955685
  0
VERTEX
  8
0
 62
7
  6
CONTINUOUS
 10
175.1150943631
 20
154.8246814531
  0
VERTEX
  8
0
 62
7
  6
CONTINUOUS
 10
175.1318200491
 20
154.9735828115
  0
VERTEX
  8
0
 62
7
  6
CONTINUOUS
 10
175.1439566496
 20
155.0506434911
  0
VERTEX
  8
0
 62
7
  6
CONTINUOUS
 10
175.1745955633
 20
155.2011836613
  0
VERTEX
  8
0
 62
7
  6
CONTINUOUS
 10
175.2113776567
 20
155.3344361078
  0
SEQEND
  0
POLYLINE
  8
0
 62
7
  6
CONTINUOUS
 66
1
 70
0
  0
VERTEX
  8
0
 62
7
  6
CONTINUOUS
 10
175.109375
 20
149.0059493516
  0
VERTEX
  8
0
 62
7
  6
CONTINUOUS
 10
175.1150943631
 20
149.1197040042
  0
VERTEX
  8
0
 62
7
  6
CONTINUOUS
 10
175.1318200491
 20
149.2591269207
  0
VERTEX
  8
0
 62
7
  6
CONTINUOUS
 10
175.1439566496
 20
149.3348043039
  0
VERTEX
  8
0
 62
7
  6
CONTINUOUS
 10
175.1745955633
 20
149.4896139436
  0
VERTEX
  8
0
 62
7
  6
CONTINUOUS
 10
175.2113776567
 20
149.6363127348
  0
SEQEND
  0
POLYLINE
  8
0
 62
7
  6
CONTINUOUS
 66
1
 70
0
  0
VERTEX
  8
0
 62
7
  6
CONTINUOUS
 10
175.109375
 20
144.5276009191
  0
VERTEX
  8
0
 62
7
  6
CONTINUOUS
 10
175.1150943631
 20
144.6194528122
  0
VERTEX
  8
0
 62
7
  6
CONTINUOUS
 10
175.1318200491
 20
144.7440393422
  0
VERTEX
  8
0
 62
7
  6
CONTINUOUS
 10
175.1439566496
 20
144.8154251898
  0
VERTEX
  8
0
 62
7
  6
CONTINUOUS
 10
175.1745955633
 20
144.9685550512
  0
VERTEX
  8
0
 62
7
  6
CONTINUOUS
 10
175.2113776567
 20
145.1230626349
  0
SEQEND
  0
LINE
  8
0
 62
7
  6
CONTINUOUS
 10
175.1969357566
 20
192.8520289229
 11
152.0218142434
 21
192.8520289229
  0
POLYLINE
  8
0
 62
7
  6
CONTINUOUS
 66
1
 70
0
  0
VERTEX
  8
0
 62
7
  6
CONTINUOUS
 10
151.3855134185
 20
214.9584825425
  0
VERTEX
  8
0
 62
7
  6
CONTINUOUS
 10
151.3402619479
 20
215.0103463686
  0
VERTEX
  8
0
 62
7
  6
CONTINUOUS
 10
151.321875
 20
215.1951115891
  0
SEQEND
  0
POLYLINE
  8
0
 62
7
  6
CONTINUOUS
 66
1
 70
0
  0
VERTEX
  8
0
 62
7
  6
CONTINUOUS
 10
175.896875
 20
217.495926097
  0
VERTEX
  8
0
 62
7
  6
CONTINUOUS
 10
175.8810927514
 20
217.6643149817
  0
VERTEX
  8
0
 62
7
  6
CONTINUOUS
 10
175.8344127707
 20
217.9416443608
  0
VERTEX
  8
0
 62
7
  6
CONTINUOUS
 10
175.7585900298
 20
218.3192663495
  0
VERTEX
  8
0
 62
7
  6
CONTINUOUS
 10
175.7106454102
 20
218.5418762887
  0
VERTEX
  8
0
 62
7
  6
CONTINUOUS
 10
175.5970742403
 20
219.0452515931
  0
VERTEX
  8
0
 62
7
  6
CONTINUOUS
 10
175.4640409882
 20
219.6101806859
  0
VERTEX
  8
0
 62
7
  6
CONTINUOUS
 10
175.3175072875
 20
220.2135338098
  0
SEQEND
  0
POLYLINE
  8
0
 62
7
  6
CONTINUOUS
 66
1
 70
0
  0
VERTEX
  8
0
 62
7
  6
CONTINUOUS
 10
175.109375
 20
141.4304506898
  0
VERTEX
  8
0
 62
7
  6
CONTINUOUS
 10
175.1150943631
 20
141.4968700066
  0
VERTEX
  8
0
 62
7
  6
CONTINUOUS
 10
175.1318200491
 20
141.6018323597
  0
VERTEX
  8
0
 62
7
  6
CONTINUOUS
 10
175.1439566496
 20
141.6661833534
  0
VERTEX
  8
0
 62
7
  6
CONTINUOUS
 10
175.1745955633
 20
141.8117487419
  0
VERTEX
  8
0
 62
7
  6
CONTINUOUS
 10
175.2113776567
 20
141.9681274784
  0
SEQEND
  0
POLYLINE
  8
0
 62
7
  6
CONTINUOUS
 66
1
 70
0
  0
VERTEX
  8
0
 62
7
  6
CONTINUOUS
 10
175.109375
 20
139.83352041
  0
VERTEX
  8
0
 62
7
  6
CONTINUOUS
 10
175.1150943631
 20
139.8719546935
  0
VERTEX
  8
0
 62
7
  6
CONTINUOUS
 10
175.1318200491
 20
139.9532592252
  0
VERTEX
  8
0
 62
7
  6
CONTINUOUS
 10
175.1439566496
 20
140.0081023926
  0
VERTEX
  8
0
 62
7
  6
CONTINUOUS
 10
175.1745955633
 20
140.1405093119
  0
VERTEX
  8
0
 62
7
  6
CONTINUOUS
 10
175.2113776567
 20
140.2927496539
  0
SEQEND
  0
POLYLINE
  8
0
 62
7
  6
CONTINUOUS
 66
1
 70
0
  0
VERTEX
  8
0
 62
7
  6
CONTINUOUS
 10
175.3175072875
 20
162.2654591892
  0
VERTEX
  8
0
 62
7
  6
CONTINUOUS
 10
175.4753159909
 20
162.7291551235
  0
VERTEX
  8
0
 62
7
  6
CONTINUOUS
 10
175.6173186031
 20
163.2831848409
  0
VERTEX
  8
0
 62
7
  6
CONTINUOUS
 10
175.7355798943
 20
163.8972590474
  0
VERTEX
  8
0
 62
7
  6
CONTINUOUS
 10
175.8239801851
 20
164.5397223498
  0
VERTEX
  8
0
 62
7
  6
CONTINUOUS
 10
175.8784880521
 20
165.1808779088
  0
VERTEX
  8
0
 62
7
  6
CONTINUOUS
 10
175.896875
 20
165.7932666764
  0
SEQEND
  0
POLYLINE
  8
0
 62
7
  6
CONTINUOUS
 66
1
 70
0
  0
VERTEX
  8
0
 62
7
  6
CONTINUOUS
 10
175.3175072875
 20
169.567780201
  0
VERTEX
  8
0
 62
7
  6
CONTINUOUS
 10
175.4753159909
 20
169.9303818903
  0
VERTEX
  8
0
 62
7
  6
CONTINUOUS
 10
175.6173186031
 20
170.4038639238
  0
VERTEX
  8
0
 62
7
  6
CONTINUOUS
 10
175.7355798943
 20
170.9617921624
  0
VERTEX
  8
0
 62
7
  6
CONTINUOUS
 10
175.8239801851
 20
171.5746462213
  0
VERTEX
  8
0
 62
7
  6
CONTINUOUS
 10
175.8784880521
 20
172.2133612428
  0
VERTEX
  8
0
 62
7
  6
CONTINUOUS
 10
175.896875
 20
172.8500290383
  0
SEQEND
  0
LINE
  8
0
 62
7
  6
CONTINUOUS
 10
175.3175072875
 20
169.567780201
 11
175.2113776567
 21
169.3722810276
  0
LINE
  8
0
 62
7
  6
CONTINUOUS
 10
175.2113776567
 20
168.0890662436
 11
175.3175072875
 21
168.1408352874
  0
LINE
  8
0
 62
7
  6
CONTINUOUS
 10
151.9012427125
 20
192.7966647126
 11
151.8141980853
 21
192.7750937139
  0
LINE
  8
0
 62
7
  6
CONTINUOUS
 10
152.0219197272
 20
192.8520289209
 11
152.0073723433
 21
192.8484337564
  0
LINE
  8
0
 62
7
  6
CONTINUOUS
 10
175.1968302728
 20
192.8520289209
 11
175.2113776567
 21
192.8484337564
  0
LINE
  8
0
 62
7
  6
CONTINUOUS
 10
175.3175072875
 20
192.7966647126
 11
175.4045519147
 21
192.7750937139
  0
POLYLINE
  8
0
 62
7
  6
CONTINUOUS
 66
1
 70
0
  0
VERTEX
  8
0
 62
7
  6
CONTINUOUS
 10
151.6797202955
 20
199.8382610244
  0
VERTEX
  8
0
 62
7
  6
CONTINUOUS
 10
151.6014313969
 20
199.8617301324
  0
VERTEX
  8
0
 62
7
  6
CONTINUOUS
 10
151.4831701057
 20
200.013887043
  0
VERTEX
  8
0
 62
7
  6
CONTINUOUS
 10
151.3947698149
 20
200.2972397403
  0
VERTEX
  8
0
 62
7
  6
CONTINUOUS
 10
151.3402619479
 20
200.6955510809
  0
VERTEX
  8
0
 62
7
  6
CONTINUOUS
 10
151.321875
 20
201.1894027174
  0
SEQEND
  0
LINE
  8
0
 62
7
  6
CONTINUOUS
 10
175.3175072875
 20
192.7966647126
 11
175.2113776567
 21
192.8484337564
  0
LINE
  8
0
 62
7
  6
CONTINUOUS
 10
175.2113776567
 20
191.5652189724
 11
175.3175072875
 21
191.369719799
  0
POLYLINE
  8
0
 62
7
  6
CONTINUOUS
 66
1
 70
0
  0
VERTEX
  8
0
 62
7
  6
CONTINUOUS
 10
175.2113776567
 20
191.5652189724
  0
VERTEX
  8
0
 62
7
  6
CONTINUOUS
 10
175.17465372
 20
191.6567424161
  0
VERTEX
  8
0
 62
7
  6
CONTINUOUS
 10
175.143938914
 20
191.7820536376
  0
VERTEX
  8
0
 62
7
  6
CONTINUOUS
 10
175.1317777458
 20
191.8532479533
  0
VERTEX
  8
0
 62
7
  6
CONTINUOUS
 10
175.11506134
 20
192.0039578604
  0
VERTEX
  8
0
 62
7
  6
CONTINUOUS
 10
175.109375
 20
192.1542457241
  0
SEQEND
  0
POLYLINE
  8
0
 62
7
  6
CONTINUOUS
 66
1
 70
0
  0
VERTEX
  8
0
 62
7
  6
CONTINUOUS
 10
175.2113776567
 20
198.9390429319
  0
VERTEX
  8
0
 62
7
  6
CONTINUOUS
 10
175.17465372
 20
199.0535076997
  0
VERTEX
  8
0
 62
7
  6
CONTINUOUS
 10
175.143938914
 20
199.1943129418
  0
VERTEX
  8
0
 62
7
  6
CONTINUOUS
 10
175.1317777458
 20
199.269991579
  0
VERTEX
  8
0
 62
7
  6
CONTINUOUS
 10
175.11506134
 20
199.4227916014
  0
VERTEX
  8
0
 62
7
  6
CONTINUOUS
 10
175.109375
 20
199.5661257988
  0
SEQEND
  0
POLYLINE
  8
0
 62
7
  6
CONTINUOUS
 66
1
 70
0
  0
VERTEX
  8
0
 62
7
  6
CONTINUOUS
 10
175.3175072875
 20
142.397494543
  0
VERTEX
  8
0
 62
7
  6
CONTINUOUS
 10
175.4753159909
 20
143.0595005514
  0
VERTEX
  8
0
 62
7
  6
CONTINUOUS
 10
175.6173186031
 20
143.7046197778
  0
VERTEX
  8
0
 62
7
  6
CONTINUOUS
 10
175.7355798943
 20
144.2995708767
  0
VERTEX
  8
0
 62
7
  6
CONTINUOUS
 10
175.8239801851
 20
144.816436352
  0
VERTEX
  8
0
 62
7
  6
CONTINUOUS
 10
175.8784880521
 20
145.2339949492
  0
VERTEX
  8
0
 62
7
  6
CONTINUOUS
 10
175.896875
 20
145.5363704591
  0
SEQEND
  0
POLYLINE
  8
0
 62
7
  6
CONTINUOUS
 66
1
 70
0
  0
VERTEX
  8
0
 62
7
  6
CONTINUOUS
 10
175.3175072875
 20
145.5340798923
  0
VERTEX
  8
0
 62
7
  6
CONTINUOUS
 10
175.4753159909
 20
146.182148096
  0
VERTEX
  8
0
 62
7
  6
CONTINUOUS
 10
175.6173186031
 20
146.8418714749
  0
VERTEX
  8
0
 62
7
  6
CONTINUOUS
 10
175.7355798943
 20
147.4787442462
  0
VERTEX
  8
0
 62
7
  6
CONTINUOUS
 10
175.8239801851
 20
148.0620980707
  0
VERTEX
  8
0
 62
7
  6
CONTINUOUS
 10
175.8784880521
 20
148.567066176
  0
VERTEX
  8
0
 62
7
  6
CONTINUOUS
 10
175.896875
 20
148.9735987706
  0
SEQEND
  0
LINE
  8
0
 62
7
  6
CONTINUOUS
 10
175.3175072875
 20
145.5340798923
 11
175.2113776567
 21
145.1230626349
  0
POLYLINE
  8
0
 62
7
  6
CONTINUOUS
 66
1
 70
0
  0
VERTEX
  8
0
 62
7
  6
CONTINUOUS
 10
175.3175072875
 20
150.0131850224
  0
VERTEX
  8
0
 62
7
  6
CONTINUOUS
 10
175.4753159909
 20
150.6224105237
  0
VERTEX
  8
0
 62
7
  6
CONTINUOUS
 10
175.6173186031
 20
151.2713852555
  0
VERTEX
  8
0
 62
7
  6
CONTINUOUS
 10
175.7355798943
 20
151.9257050358
  0
VERTEX
  8
0
 62
7
  6
CONTINUOUS
 10
175.8239801851
 20
152.5531292491
  0
VERTEX
  8
0
 62
7
  6
CONTINUOUS
 10
175.8784880521
 20
153.1261012216
  0
VERTEX
  8
0
 62
7
  6
CONTINUOUS
 10
175.896875
 20
153.6211680811
  0
SEQEND
  0
LINE
  8
0
 62
7
  6
CONTINUOUS
 10
175.3175072875
 20
150.0131850224
 11
175.2113776567
 21
149.6363127348
  0
POLYLINE
  8
0
 62
7
  6
CONTINUOUS
 66
1
 70
0
  0
VERTEX
  8
0
 62
7
  6
CONTINUOUS
 10
175.3175072875
 20
155.6626804348
  0
VERTEX
  8
0
 62
7
  6
CONTINUOUS
 10
175.4753159909
 20
156.2096510394
  0
VERTEX
  8
0
 62
7
  6
CONTINUOUS
 10
175.6173186031
 20
156.8229373893
  0
VERTEX
  8
0
 62
7
  6
CONTINUOUS
 10
175.7355798943
 20
157.4695590363
  0
VERTEX
  8
0
 62
7
  6
CONTINUOUS
 10
175.8239801851
 20
158.1169420777
  0
VERTEX
  8
0
 62
7
  6
CONTINUOUS
 10
175.8784880521
 20
158.7358989258
  0
VERTEX
  8
0
 62
7
  6
CONTINUOUS
 10
175.896875
 20
159.3004749085
  0
SEQEND
  0
LINE
  8
0
 62
7
  6
CONTINUOUS
 10
175.3175072875
 20
155.6626804348
 11
175.2113776567
 21
155.3344361078
  0
LINE
  8
0
 62
7
  6
CONTINUOUS
 10
175.3175072875
 20
162.2654591892
 11
175.2113776567
 21
161.9984570681
  0
POLYLINE
  8
0
 62
7
  6
CONTINUOUS
 66
1
 70
0
  0
VERTEX
  8
0
 62
7
  6
CONTINUOUS
 10
152.095047229
 20
144.2996299938
  0
VERTEX
  8
0
 62
7
  6
CONTINUOUS
 10
152.10368866
 20
144.3078729584
  0
VERTEX
  8
0
 62
7
  6
CONTINUOUS
 10
152.109375
 20
144.3576334623
  0
SEQEND
  0
POLYLINE
  8
0
 62
7
  6
CONTINUOUS
 66
1
 70
0
  0
VERTEX
  8
0
 62
7
  6
CONTINUOUS
 10
152.0443811093
 20
200.1464704084
  0
VERTEX
  8
0
 62
7
  6
CONTINUOUS
 10
152.0441544367
 20
200.146469331
  0
VERTEX
  8
0
 62
7
  6
CONTINUOUS
 10
152.0073723433
 20
200.1216604499
  0
SEQEND
  0
LINE
  8
0
 62
7
  6
CONTINUOUS
 10
160.109375
 20
198.5622188156
 11
167.109375
 21
198.5622188156
  0
LINE
  8
0
 62
7
  6
CONTINUOUS
 10
175.1743789464
 20
200.1464704084
 11
152.0443710536
 21
200.1464704084
  0
POLYLINE
  8
0
 62
7
  6
CONTINUOUS
 66
1
 70
0
  0
VERTEX
  8
0
 62
7
  6
CONTINUOUS
 10
175.1743688907
 20
200.1464704084
  0
VERTEX
  8
0
 62
7
  6
CONTINUOUS
 10
175.1745955633
 20
200.146469331
  0
VERTEX
  8
0
 62
7
  6
CONTINUOUS
 10
175.2113776567
 20
200.1216604499
  0
SEQEND
  0
POLYLINE
  8
0
 62
7
  6
CONTINUOUS
 66
1
 70
0
  0
VERTEX
  8
0
 62
7
  6
CONTINUOUS
 10
151.5600864807
 20
206.0417805725
  0
VERTEX
  8
0
 62
7
  6
CONTINUOUS
 10
151.4831701057
 20
206.0743635611
  0
VERTEX
  8
0
 62
7
  6
CONTINUOUS
 10
151.3947698149
 20
206.2384650303
  0
VERTEX
  8
0
 62
7
  6
CONTINUOUS
 10
151.3402619479
 20
206.5306085398
  0
VERTEX
  8
0
 62
7
  6
CONTINUOUS
 10
151.321875
 20
206.9356603809
  0
SEQEND
  0
POLYLINE
  8
0
 62
7
  6
CONTINUOUS
 66
1
 70
0
  0
VERTEX
  8
0
 62
7
  6
CONTINUOUS
 10
151.4605101672
 20
211.1472545827
  0
VERTEX
  8
0
 62
7
  6
CONTINUOUS
 10
151.3947698149
 20
211.1893746235
  0
VERTEX
  8
0
 62
7
  6
CONTINUOUS
 10
151.3402619479
 20
211.3641233908
  0
VERTEX
  8
0
 62
7
  6
CONTINUOUS
 10
151.321875
 20
211.6648095212
  0
SEQEND
  0
LINE
  8
0
 62
7
  6
CONTINUOUS
 10
175.2113776567
 20
198.9390429319
 11
175.3175072875
 21
198.6720408108
  0
LINE
  8
0
 62
7
  6
CONTINUOUS
 10
175.2113776567
 20
205.6030638922
 11
175.3175072875
 21
205.2748195652
  0
LINE
  8
0
 62
7
  6
CONTINUOUS
 10
175.2113776567
 20
211.3011872652
 11
175.3175072875
 21
210.9243149776
  0
POLYLINE
  8
0
 62
7
  6
CONTINUOUS
 66
1
 70
0
  0
VERTEX
  8
0
 62
7
  6
CONTINUOUS
 10
175.2113776567
 20
205.6030638922
  0
VERTEX
  8
0
 62
7
  6
CONTINUOUS
 10
175.17465372
 20
205.7360711673
  0
VERTEX
  8
0
 62
7
  6
CONTINUOUS
 10
175.143938914
 20
205.8869593635
  0
VERTEX
  8
0
 62
7
  6
CONTINUOUS
 10
175.1317777458
 20
205.9642140347
  0
VERTEX
  8
0
 62
7
  6
CONTINUOUS
 10
175.11506134
 20
206.1132321532
  0
VERTEX
  8
0
 62
7
  6
CONTINUOUS
 10
175.109375
 20
206.2441044315
  0
SEQEND
  0
LINE
  8
0
 62
7
  6
CONTINUOUS
 10
175.2113776567
 20
215.8144373651
 11
175.3175072875
 21
215.4034201077
  0
POLYLINE
  8
0
 62
7
  6
CONTINUOUS
 66
1
 70
0
  0
VERTEX
  8
0
 62
7
  6
CONTINUOUS
 10
175.2113776567
 20
211.3011872652
  0
VERTEX
  8
0
 62
7
  6
CONTINUOUS
 10
175.17465372
 20
211.4476256525
  0
VERTEX
  8
0
 62
7
  6
CONTINUOUS
 10
175.143938914
 20
211.602798254
  0
VERTEX
  8
0
 62
7
  6
CONTINUOUS
 10
175.1317777458
 20
211.6786601055
  0
VERTEX
  8
0
 62
7
  6
CONTINUOUS
 10
175.11506134
 20
211.8181696375
  0
VERTEX
  8
0
 62
7
  6
CONTINUOUS
 10
175.109375
 20
211.9315506484
  0
SEQEND
  0
POLYLINE
  8
0
 62
7
  6
CONTINUOUS
 66
1
 70
0
  0
VERTEX
  8
0
 62
7
  6
CONTINUOUS
 10
175.2113776567
 20
215.8144373651
  0
VERTEX
  8
0
 62
7
  6
CONTINUOUS
 10
175.17465372
 20
215.9686793196
  0
VERTEX
  8
0
 62
7
  6
CONTINUOUS
 10
175.143938914
 20
216.1221731303
  0
VERTEX
  8
0
 62
7
  6
CONTINUOUS
 10
175.1317777458
 20
216.1937268337
  0
VERTEX
  8
0
 62
7
  6
CONTINUOUS
 10
175.11506134
 20
216.3183665061
  0
VERTEX
  8
0
 62
7
  6
CONTINUOUS
 10
175.109375
 20
216.4098990809
  0
SEQEND
  0
POLYLINE
  8
0
 62
7
  6
CONTINUOUS
 66
1
 70
0
  0
VERTEX
  8
0
 62
7
  6
CONTINUOUS
 10
175.2113776567
 20
218.9693725216
  0
VERTEX
  8
0
 62
7
  6
CONTINUOUS
 10
175.17465372
 20
219.1254906115
  0
VERTEX
  8
0
 62
7
  6
CONTINUOUS
 10
175.143938914
 20
219.2714069504
  0
VERTEX
  8
0
 62
7
  6
CONTINUOUS
 10
175.1317777458
 20
219.335902737
  0
VERTEX
  8
0
 62
7
  6
CONTINUOUS
 10
175.11506134
 20
219.440882717
  0
VERTEX
  8
0
 62
7
  6
CONTINUOUS
 10
175.109375
 20
219.5070493102
  0
SEQEND
  0
POLYLINE
  8
0
 62
7
  6
CONTINUOUS
 66
1
 70
0
  0
VERTEX
  8
0
 62
7
  6
CONTINUOUS
 10
175.3175072875
 20
140.7239661902
  0
VERTEX
  8
0
 62
7
  6
CONTINUOUS
 10
175.4753159909
 20
141.3744694837
  0
VERTEX
  8
0
 62
7
  6
CONTINUOUS
 10
175.6173186031
 20
141.9801929875
  0
VERTEX
  8
0
 62
7
  6
CONTINUOUS
 10
175.7355798943
 20
142.510358777
  0
VERTEX
  8
0
 62
7
  6
CONTINUOUS
 10
175.8239801851
 20
142.9408730528
  0
VERTEX
  8
0
 62
7
  6
CONTINUOUS
 10
175.8784880521
 20
143.254975599
  0
VERTEX
  8
0
 62
7
  6
CONTINUOUS
 10
175.896875
 20
143.441573903
  0
SEQEND
  0
LINE
  8
0
 62
7
  6
CONTINUOUS
 10
175.3175072875
 20
140.7239661902
 11
175.2113776567
 21
140.2927496539
  0
LINE
  8
0
 62
7
  6
CONTINUOUS
 10
175.3175072875
 20
142.397494543
 11
175.2113776567
 21
141.9681274784
  0
LINE
  8
0
 62
7
  6
CONTINUOUS
 10
175.896875
 20
142.76875
 11
176.109375
 21
143.61875
  0
POLYLINE
  8
0
 62
7
  6
CONTINUOUS
 66
1
 70
0
  0
VERTEX
  8
0
 62
7
  6
CONTINUOUS
 10
175.4640409882
 20
141.1483033284
  0
VERTEX
  8
0
 62
7
  6
CONTINUOUS
 10
175.17465372
 20
140.0192827634
  0
VERTEX
  8
0
 62
7
  6
CONTINUOUS
 10
175.143938914
 20
139.9048371269
  0
VERTEX
  8
0
 62
7
  6
CONTINUOUS
 10
175.1317777458
 20
139.8615263041
  0
VERTEX
  8
0
 62
7
  6
CONTINUOUS
 10
175.11506134
 20
139.8070581264
  0
VERTEX
  8
0
 62
7
  6
CONTINUOUS
 10
175.1099180046
 20
139.7959830199
  0
SEQEND
  0
LINE
  8
0
 62
7
  6
CONTINUOUS
 10
175.5970742403
 20
141.6580037677
 11
175.4640409882
 21
141.1483033284
  0
LINE
  8
0
 62
7
  6
CONTINUOUS
 10
175.2113776567
 20
141.5788685293
 11
175.3175072875
 21
141.9646355357
  0
POLYLINE
  8
0
 62
7
  6
CONTINUOUS
 66
1
 70
0
  0
VERTEX
  8
0
 62
7
  6
CONTINUOUS
 10
175.8968533333
 20
142.7697874282
  0
VERTEX
  8
0
 62
7
  6
CONTINUOUS
 10
175.8810927514
 20
142.715398019
  0
VERTEX
  8
0
 62
7
  6
CONTINUOUS
 10
175.8344127707
 20
142.5457803049
  0
VERTEX
  8
0
 62
7
  6
CONTINUOUS
 10
175.7585900298
 20
142.2656094641
  0
VERTEX
  8
0
 62
7
  6
CONTINUOUS
 10
175.5970742403
 20
141.6580037677
  0
SEQEND
  0
POLYLINE
  8
0
 62
7
  6
CONTINUOUS
 66
1
 70
0
  0
VERTEX
  8
0
 62
7
  6
CONTINUOUS
 10
175.2113776567
 20
141.5788685293
  0
VERTEX
  8
0
 62
7
  6
CONTINUOUS
 10
175.17465372
 20
141.4522609091
  0
VERTEX
  8
0
 62
7
  6
CONTINUOUS
 10
175.143938914
 20
141.3604991017
  0
VERTEX
  8
0
 62
7
  6
CONTINUOUS
 10
175.1317777458
 20
141.3305011996
  0
VERTEX
  8
0
 62
7
  6
CONTINUOUS
 10
175.1145365268
 20
141.3048913025
  0
SEQEND
  0
LINE
  8
0
 62
7
  6
CONTINUOUS
 10
175.2113776567
 20
144.490940402
 11
175.3175072875
 21
144.8311550069
  0
POLYLINE
  8
0
 62
7
  6
CONTINUOUS
 66
1
 70
0
  0
VERTEX
  8
0
 62
7
  6
CONTINUOUS
 10
175.2113776567
 20
144.490940402
  0
VERTEX
  8
0
 62
7
  6
CONTINUOUS
 10
175.17465372
 20
144.3846208498
  0
VERTEX
  8
0
 62
7
  6
CONTINUOUS
 10
175.143938914
 20
144.3190692264
  0
VERTEX
  8
0
 62
7
  6
CONTINUOUS
 10
175.1317777458
 20
144.3035370475
  0
VERTEX
  8
0
 62
7
  6
CONTINUOUS
 10
175.123702771
 20
144.2996299938
  0
SEQEND
  0
LINE
  8
0
 62
7
  6
CONTINUOUS
 10
175.2113776567
 20
148.7856193209
 11
175.3175072875
 21
149.0672072678
  0
LINE
  8
0
 62
7
  6
CONTINUOUS
 10
175.2113776567
 20
154.2978631837
 11
175.3175072875
 21
154.5100032057
  0
LINE
  8
0
 62
7
  6
CONTINUOUS
 10
175.2113776567
 20
160.8158395501
 11
175.3175072875
 21
160.9503792251
  0
POLYLINE
  8
0
 62
7
  6
CONTINUOUS
 66
1
 70
0
  0
VERTEX
  8
0
 62
7
  6
CONTINUOUS
 10
175.2113776567
 20
160.8158395501
  0
VERTEX
  8
0
 62
7
  6
CONTINUOUS
 10
175.17465372
 20
160.791031291
  0
VERTEX
  8
0
 62
7
  6
CONTINUOUS
 10
175.1743692991
 20
160.7910295916
  0
SEQEND
  0
POLYLINE
  8
0
 62
7
  6
CONTINUOUS
 66
1
 70
0
  0
VERTEX
  8
0
 62
7
  6
CONTINUOUS
 10
152.0645579925
 20
154.2335771482
  0
VERTEX
  8
0
 62
7
  6
CONTINUOUS
 10
152.074811086
 20
154.2367625259
  0
VERTEX
  8
0
 62
7
  6
CONTINUOUS
 10
152.0869722542
 20
154.2513736244
  0
VERTEX
  8
0
 62
7
  6
CONTINUOUS
 10
152.10368866
 20
154.3138535208
  0
VERTEX
  8
0
 62
7
  6
CONTINUOUS
 10
152.109375
 20
154.4146778546
  0
SEQEND
  0
POLYLINE
  8
0
 62
7
  6
CONTINUOUS
 66
1
 70
0
  0
VERTEX
  8
0
 62
7
  6
CONTINUOUS
 10
175.3175072875
 20
199.9871207749
  0
VERTEX
  8
0
 62
7
  6
CONTINUOUS
 10
175.4753159909
 20
199.8518487979
  0
VERTEX
  8
0
 62
7
  6
CONTINUOUS
 10
175.5390297045
 20
199.8382610244
  0
SEQEND
  0
LINE
  8
0
 62
7
  6
CONTINUOUS
 10
175.3175072875
 20
199.9871207749
 11
175.2113776567
 21
200.1216604499
  0
LINE
  8
0
 62
7
  6
CONTINUOUS
 10
175.3175072875
 20
206.4274967943
 11
175.2113776567
 21
206.6396368163
  0
POLYLINE
  8
0
 62
7
  6
CONTINUOUS
 66
1
 70
0
  0
VERTEX
  8
0
 62
7
  6
CONTINUOUS
 10
175.3175072875
 20
211.8702927322
  0
VERTEX
  8
0
 62
7
  6
CONTINUOUS
 10
175.4753159909
 20
211.4973127568
  0
VERTEX
  8
0
 62
7
  6
CONTINUOUS
 10
175.6173186031
 20
211.2539767124
  0
VERTEX
  8
0
 62
7
  6
CONTINUOUS
 10
175.7355798943
 20
211.1508307098
  0
VERTEX
  8
0
 62
7
  6
CONTINUOUS
 10
175.7582398328
 20
211.1472545827
  0
SEQEND
  0
LINE
  8
0
 62
7
  6
CONTINUOUS
 10
175.3175072875
 20
211.8702927322
 11
175.2113776567
 21
212.1518806791
  0
POLYLINE
  8
0
 62
7
  6
CONTINUOUS
 66
1
 70
0
  0
VERTEX
  8
0
 62
7
  6
CONTINUOUS
 10
175.3175072875
 20
216.1063449931
  0
VERTEX
  8
0
 62
7
  6
CONTINUOUS
 10
175.4753159909
 20
215.6338230519
  0
VERTEX
  8
0
 62
7
  6
CONTINUOUS
 10
175.6173186031
 20
215.27551641
  0
VERTEX
  8
0
 62
7
  6
CONTINUOUS
 10
175.7355798943
 20
215.0482027035
  0
VERTEX
  8
0
 62
7
  6
CONTINUOUS
 10
175.8239801851
 20
214.9597078407
  0
VERTEX
  8
0
 62
7
  6
CONTINUOUS
 10
175.8332365815
 20
214.9584825425
  0
SEQEND
  0
LINE
  8
0
 62
7
  6
CONTINUOUS
 10
175.3175072875
 20
216.1063449931
 11
175.2113776567
 21
216.446559598
  0
POLYLINE
  8
0
 62
7
  6
CONTINUOUS
 66
1
 70
0
  0
VERTEX
  8
0
 62
7
  6
CONTINUOUS
 10
175.3175072875
 20
218.9728644643
  0
VERTEX
  8
0
 62
7
  6
CONTINUOUS
 10
175.4753159909
 20
218.4189593105
  0
VERTEX
  8
0
 62
7
  6
CONTINUOUS
 10
175.6173186031
 20
217.9594515943
  0
VERTEX
  8
0
 62
7
  6
CONTINUOUS
 10
175.7355798943
 20
217.6167057222
  0
VERTEX
  8
0
 62
7
  6
CONTINUOUS
 10
175.8239801851
 20
217.4045728909
  0
VERTEX
  8
0
 62
7
  6
CONTINUOUS
 10
175.8801827279
 20
217.3290011029
  0
SEQEND
  0
LINE
  8
0
 62
7
  6
CONTINUOUS
 10
175.3175072875
 20
218.9728644643
 11
175.2113776567
 21
219.3586314707
  0
POLYLINE
  8
0
 62
7
  6
CONTINUOUS
 66
1
 70
0
  0
VERTEX
  8
0
 62
7
  6
CONTINUOUS
 10
175.3175072875
 20
220.3596924099
  0
VERTEX
  8
0
 62
7
  6
CONTINUOUS
 10
175.4753159909
 20
219.7456903081
  0
VERTEX
  8
0
 62
7
  6
CONTINUOUS
 10
175.6173186031
 20
219.2026401413
  0
VERTEX
  8
0
 62
7
  6
CONTINUOUS
 10
175.7355798943
 20
218.7576336354
  0
VERTEX
  8
0
 62
7
  6
CONTINUOUS
 10
175.8239801851
 20
218.4300149812
  0
VERTEX
  8
0
 62
7
  6
CONTINUOUS
 10
175.8784880521
 20
218.2314392706
  0
VERTEX
  8
0
 62
7
  6
CONTINUOUS
 10
175.896854228
 20
218.1677125719
  0
SEQEND
  0
LINE
  8
0
 62
7
  6
CONTINUOUS
 10
175.3175072875
 20
220.3596924099
 11
175.1745955633
 21
220.9184384448
  0
LINE
  8
0
 62
7
  6
CONTINUOUS
 10
175.896875
 20
218.16875
 11
176.109375
 21
217.31875
  0
LINE
  8
0
 62
7
  6
CONTINUOUS
 10
175.2113776567
 20
218.9693725216
 11
175.3175072875
 21
218.540005457
  0
POLYLINE
  8
0
 62
7
  6
CONTINUOUS
 66
1
 70
0
  0
VERTEX
  8
0
 62
7
  6
CONTINUOUS
 10
175.3175072875
 20
220.2135338098
  0
VERTEX
  8
0
 62
7
  6
CONTINUOUS
 10
175.17465372
 20
220.7967450406
  0
VERTEX
  8
0
 62
7
  6
CONTINUOUS
 10
175.143938914
 20
220.9294764247
  0
VERTEX
  8
0
 62
7
  6
CONTINUOUS
 10
175.1317777458
 20
220.9844357576
  0
VERTEX
  8
0
 62
7
  6
CONTINUOUS
 10
175.11506134
 20
221.0657217235
  0
VERTEX
  8
0
 62
7
  6
CONTINUOUS
 10
175.109375
 20
221.10397959
  0
SEQEND
  0
POLYLINE
  8
0
 62
7
  6
CONTINUOUS
 66
1
 70
0
  0
VERTEX
  8
0
 62
7
  6
CONTINUOUS
 10
175.2113776567
 20
148.7856193209
  0
VERTEX
  8
0
 62
7
  6
CONTINUOUS
 10
175.17465372
 20
148.7036736375
  0
VERTEX
  8
0
 62
7
  6
CONTINUOUS
 10
175.143938914
 20
148.6668513102
  0
VERTEX
  8
0
 62
7
  6
CONTINUOUS
 10
175.1370869643
 20
148.665112964
  0
SEQEND
  0
POLYLINE
  8
0
 62
7
  6
CONTINUOUS
 66
1
 70
0
  0
VERTEX
  8
0
 62
7
  6
CONTINUOUS
 10
175.2113776567
 20
154.2978631837
  0
VERTEX
  8
0
 62
7
  6
CONTINUOUS
 10
175.17465372
 20
154.2434404958
  0
VERTEX
  8
0
 62
7
  6
CONTINUOUS
 10
175.1541920075
 20
154.2335771482
  0
SEQEND
  0
LINE
  8
0
 62
7
  6
CONTINUOUS
 10
160.109375
 20
205.1413602706
 11
167.109375
 21
205.1413602706
  0
POLYLINE
  8
0
 62
7
  6
CONTINUOUS
 66
1
 70
0
  0
VERTEX
  8
0
 62
7
  6
CONTINUOUS
 10
175.3175072875
 20
206.4274967943
  0
VERTEX
  8
0
 62
7
  6
CONTINUOUS
 10
175.4753159909
 20
206.1683921959
  0
VERTEX
  8
0
 62
7
  6
CONTINUOUS
 10
175.6173186031
 20
206.0493780169
  0
VERTEX
  8
0
 62
7
  6
CONTINUOUS
 10
175.6586635193
 20
206.0417805725
  0
SEQEND
  0
LINE
  8
0
 62
7
  6
CONTINUOUS
 10
175.1543904583
 20
206.7039228536
 11
152.0643595417
 21
206.7039228536
  0
POLYLINE
  8
0
 62
7
  6
CONTINUOUS
 66
1
 70
0
  0
VERTEX
  8
0
 62
7
  6
CONTINUOUS
 10
175.1541911331
 20
206.7039228515
  0
VERTEX
  8
0
 62
7
  6
CONTINUOUS
 10
175.1745955633
 20
206.6941119359
  0
VERTEX
  8
0
 62
7
  6
CONTINUOUS
 10
175.2113776567
 20
206.6396368163
  0
SEQEND
  0
POLYLINE
  8
0
 62
7
  6
CONTINUOUS
 66
1
 70
0
  0
VERTEX
  8
0
 62
7
  6
CONTINUOUS
 10
175.1099197103
 20
221.1415169811
  0
VERTEX
  8
0
 62
7
  6
CONTINUOUS
 10
175.1150943631
 20
221.130348543
  0
VERTEX
  8
0
 62
7
  6
CONTINUOUS
 10
175.1318200491
 20
221.0758263201
  0
VERTEX
  8
0
 62
7
  6
CONTINUOUS
 10
175.1439566496
 20
221.0325985713
  0
VERTEX
  8
0
 62
7
  6
CONTINUOUS
 10
175.1745955633
 20
220.9184384448
  0
SEQEND
  0
LINE
  8
0
 62
7
  6
CONTINUOUS
 10
160.109375
 20
210.7723471495
 11
167.109375
 21
210.7723471495
  0
POLYLINE
  8
0
 62
7
  6
CONTINUOUS
 66
1
 70
0
  0
VERTEX
  8
0
 62
7
  6
CONTINUOUS
 10
175.1145372156
 20
219.6326086976
  0
VERTEX
  8
0
 62
7
  6
CONTINUOUS
 10
175.1318200491
 20
219.6069046951
  0
VERTEX
  8
0
 62
7
  6
CONTINUOUS
 10
175.1439566496
 20
219.5769535831
  0
VERTEX
  8
0
 62
7
  6
CONTINUOUS
 10
175.1745955633
 20
219.485427359
  0
VERTEX
  8
0
 62
7
  6
CONTINUOUS
 10
175.2113776567
 20
219.3586314707
  0
SEQEND
  0
POLYLINE
  8
0
 62
7
  6
CONTINUOUS
 66
1
 70
0
  0
VERTEX
  8
0
 62
7
  6
CONTINUOUS
 10
175.8801855571
 20
143.6084988972
  0
VERTEX
  8
0
 62
7
  6
CONTINUOUS
 10
175.8344127707
 20
143.5530634286
  0
VERTEX
  8
0
 62
7
  6
CONTINUOUS
 10
175.7585900298
 20
143.3811105439
  0
VERTEX
  8
0
 62
7
  6
CONTINUOUS
 10
175.7106454102
 20
143.2526332401
  0
VERTEX
  8
0
 62
7
  6
CONTINUOUS
 10
175.5970742403
 20
142.9152343408
  0
VERTEX
  8
0
 62
7
  6
CONTINUOUS
 10
175.4640409882
 20
142.4803500572
  0
VERTEX
  8
0
 62
7
  6
CONTINUOUS
 10
175.3175072875
 20
141.9646355357
  0
SEQEND
  0
POLYLINE
  8
0
 62
7
  6
CONTINUOUS
 66
1
 70
0
  0
VERTEX
  8
0
 62
7
  6
CONTINUOUS
 10
175.7582116556
 20
149.790245424
  0
VERTEX
  8
0
 62
7
  6
CONTINUOUS
 10
175.7106454102
 20
149.7754591807
  0
VERTEX
  8
0
 62
7
  6
CONTINUOUS
 10
175.5970742403
 20
149.6554026103
  0
VERTEX
  8
0
 62
7
  6
CONTINUOUS
 10
175.4640409882
 20
149.4167703258
  0
VERTEX
  8
0
 62
7
  6
CONTINUOUS
 10
175.3175072875
 20
149.0672072678
  0
SEQEND
  0
POLYLINE
  8
0
 62
7
  6
CONTINUOUS
 66
1
 70
0
  0
VERTEX
  8
0
 62
7
  6
CONTINUOUS
 10
152.0816623991
 20
212.2723870365
  0
VERTEX
  8
0
 62
7
  6
CONTINUOUS
 10
152.0747933504
 20
212.27064008
  0
VERTEX
  8
0
 62
7
  6
CONTINUOUS
 10
152.0441544367
 20
212.233928589
  0
VERTEX
  8
0
 62
7
  6
CONTINUOUS
 10
152.0073723433
 20
212.1518806791
  0
SEQEND
  0
LINE
  8
0
 62
7
  6
CONTINUOUS
 10
175.1373786758
 20
212.2723870385
 11
152.0813713242
 21
212.2723870385
  0
POLYLINE
  8
0
 62
7
  6
CONTINUOUS
 66
1
 70
0
  0
VERTEX
  8
0
 62
7
  6
CONTINUOUS
 10
175.1370876009
 20
212.2723870365
  0
VERTEX
  8
0
 62
7
  6
CONTINUOUS
 10
175.1439566496
 20
212.27064008
  0
VERTEX
  8
0
 62
7
  6
CONTINUOUS
 10
175.1745955633
 20
212.233928589
  0
VERTEX
  8
0
 62
7
  6
CONTINUOUS
 10
175.2113776567
 20
212.1518806791
  0
SEQEND
  0
POLYLINE
  8
0
 62
7
  6
CONTINUOUS
 66
1
 70
0
  0
VERTEX
  8
0
 62
7
  6
CONTINUOUS
 10
175.8332293874
 20
145.979017462
  0
VERTEX
  8
0
 62
7
  6
CONTINUOUS
 10
175.7585900298
 20
145.9218688091
  0
VERTEX
  8
0
 62
7
  6
CONTINUOUS
 10
175.7106454102
 20
145.8488342365
  0
VERTEX
  8
0
 62
7
  6
CONTINUOUS
 10
175.5970742403
 20
145.6156254605
  0
VERTEX
  8
0
 62
7
  6
CONTINUOUS
 10
175.4640409882
 20
145.2722696916
  0
VERTEX
  8
0
 62
7
  6
CONTINUOUS
 10
175.3175072875
 20
144.8311550069
  0
SEQEND
  0
LINE
  8
0
 62
7
  6
CONTINUOUS
 10
160.109375
 20
215.2387837844
 11
167.109375
 21
215.2387837844
  0
LINE
  8
0
 62
7
  6
CONTINUOUS
 10
175.123897628
 20
216.6378700072
 11
152.094852372
 21
216.6378700072
  0
LINE
  8
0
 62
7
  6
CONTINUOUS
 10
160.109375
 20
218.3690275203
 11
167.109375
 21
218.3690275203
  0
LINE
  8
0
 62
7
  6
CONTINUOUS
 10
175.1146626158
 20
219.6326086976
 11
152.1040873842
 21
219.6326086976
  0
LINE
  8
0
 62
7
  6
CONTINUOUS
 10
175.1102570367
 20
221.1415169812
 11
152.1084929633
 21
221.1415169812
  0
POLYLINE
  8
0
 62
7
  6
CONTINUOUS
 66
1
 70
0
  0
VERTEX
  8
0
 62
7
  6
CONTINUOUS
 10
175.1237035056
 20
216.6378700067
  0
VERTEX
  8
0
 62
7
  6
CONTINUOUS
 10
175.1318200491
 20
216.6339257342
  0
VERTEX
  8
0
 62
7
  6
CONTINUOUS
 10
175.1439566496
 20
216.6184022633
  0
VERTEX
  8
0
 62
7
  6
CONTINUOUS
 10
175.1745955633
 20
216.5530272431
  0
VERTEX
  8
0
 62
7
  6
CONTINUOUS
 10
175.2113776567
 20
216.446559598
  0
SEQEND
  0
ARC
  8
0
 62
7
  6
CONTINUOUS
 10
31.4729124282
 20
180.1781547789
 40
3.0
 50
285.625
 51
0.4090914295
  0
ARC
  8
0
 62
7
  6
CONTINUOUS
 10
32.1982392667
 20
172.8137878015
 40
3.0
 50
10.8409085705
 51
85.625
  0
ARC
  8
0
 62
7
  6
CONTINUOUS
 10
32.3116238972
 20
172.2437647708
 40
3.0
 50
296.875
 51
11.6590914295
  0
ARC
  8
0
 62
7
  6
CONTINUOUS
 10
34.4597305089
 20
165.1624062863
 40
3.0
 50
22.0909085705
 51
96.875
  0
ARC
  8
0
 62
7
  6
CONTINUOUS
 10
34.6821424621
 20
164.6254563323
 40
3.0
 50
308.125
 51
22.9090914295
  0
ARC
  8
0
 62
7
  6
CONTINUOUS
 10
38.1704783147
 20
158.0992389762
 40
3.0
 50
33.3409085705
 51
108.125
  0
ARC
  8
0
 62
7
  6
CONTINUOUS
 10
38.493370424
 20
157.6159967845
 40
3.0
 50
319.375
 51
34.1590914295
  0
ARC
  8
0
 62
7
  6
CONTINUOUS
 10
43.1878807268
 20
151.8957194297
 40
3.0
 50
44.5909085705
 51
119.375
  0
ARC
  8
0
 62
7
  6
CONTINUOUS
 10
43.5988444297
 20
151.4847557268
 40
3.0
 50
330.625
 51
45.4090914295
  0
ARC
  8
0
 62
7
  6
CONTINUOUS
 10
49.3191217845
 20
146.790245424
 40
3.0
 50
55.8409085705
 51
130.625
  0
ARC
  8
0
 62
7
  6
CONTINUOUS
 10
49.8023639762
 20
146.4673533147
 40
3.0
 50
341.875
 51
56.6590914295
  0
ARC
  8
0
 62
7
  6
CONTINUOUS
 10
56.3285813323
 20
142.9790174621
 40
3.0
 50
67.0909085705
 51
141.875
  0
ARC
  8
0
 62
7
  6
CONTINUOUS
 10
56.8655312863
 20
142.7566055089
 40
3.0
 50
353.125
 51
67.9090914295
  0
ARC
  8
0
 62
7
  6
CONTINUOUS
 10
63.9468897708
 20
140.6084988972
 40
3.0
 50
78.3409085705
 51
153.125
  0
ARC
  8
0
 62
7
  6
CONTINUOUS
 10
64.5169128015
 20
140.4951142667
 40
3.0
 50
4.375
 51
79.1590914295
  0
ARC
  8
0
 62
7
  6
CONTINUOUS
 10
71.8812797789
 20
139.7697874282
 40
3.0
 50
89.5909085705
 51
164.375
  0
ARC
  8
0
 62
7
  6
CONTINUOUS
 10
72.4624702211
 20
139.7697874282
 40
3.0
 50
15.625
 51
90.4090914295
  0
ARC
  8
0
 62
7
  6
CONTINUOUS
 10
32.0340166412
 20
176.3365803074
 40
0.5
 50
185.8778606151
 51
265.625
  0
ARC
  8
0
 62
7
  6
CONTINUOUS
 10
31.9991080188
 20
176.6910134984
 40
0.5
 50
105.625
 51
185.3721393849
  0
ARC
  8
0
 62
7
  6
CONTINUOUS
 10
33.6114006507
 20
168.5854710771
 40
0.5
 50
197.1278606151
 51
276.875
  0
ARC
  8
0
 62
7
  6
CONTINUOUS
 10
33.5080163024
 20
168.9262835993
 40
0.5
 50
116.875
 51
196.6221393849
  0
ARC
  8
0
 62
7
  6
CONTINUOUS
 10
36.6706420645
 20
161.2910295916
 40
0.5
 50
208.3778606151
 51
288.125
  0
ARC
  8
0
 62
7
  6
CONTINUOUS
 10
36.5027549928
 20
161.605124211
 40
0.5
 50
128.125
 51
207.8721393849
  0
ARC
  8
0
 62
7
  6
CONTINUOUS
 10
41.0941759507
 20
154.7335771464
 40
0.5
 50
219.6278606151
 51
299.375
  0
ARC
  8
0
 62
7
  6
CONTINUOUS
 10
40.8682379615
 20
155.0088833828
 40
0.5
 50
139.375
 51
219.1221393849
  0
ARC
  8
0
 62
7
  6
CONTINUOUS
 10
46.7120083828
 20
149.1651129615
 40
0.5
 50
230.8778606151
 51
310.625
  0
ARC
  8
0
 62
7
  6
CONTINUOUS
 10
46.4367021464
 20
149.3910509507
 40
0.5
 50
150.625
 51
230.3721393849
  0
ARC
  8
0
 62
7
  6
CONTINUOUS
 10
53.308249211
 20
144.7996299928
 40
0.5
 50
242.1278606151
 51
321.875
  0
ARC
  8
0
 62
7
  6
CONTINUOUS
 10
52.9941545916
 20
144.9675170645
 40
0.5
 50
161.875
 51
241.6221393849
  0
ARC
  8
0
 62
7
  6
CONTINUOUS
 10
60.6294085993
 20
141.8048913024
 40
0.5
 50
253.3778606151
 51
333.125
  0
ARC
  8
0
 62
7
  6
CONTINUOUS
 10
60.2885960771
 20
141.9082756507
 40
0.5
 50
173.125
 51
252.8721393849
  0
ARC
  8
0
 62
7
  6
CONTINUOUS
 10
68.3941384984
 20
140.2959830188
 40
0.5
 50
264.6278606151
 51
344.375
  0
ARC
  8
0
 62
7
  6
CONTINUOUS
 10
68.0397053074
 20
140.3308916412
 40
0.5
 50
184.375
 51
264.1221393849
  0
ARC
  8
0
 62
7
  6
CONTINUOUS
 10
34.6821424621
 20
196.3120436677
 40
3.0
 50
337.0909085705
 51
51.875
  0
ARC
  8
0
 62
7
  6
CONTINUOUS
 10
34.4597305089
 20
195.7750937137
 40
3.0
 50
263.125
 51
337.9090914295
  0
ARC
  8
0
 62
7
  6
CONTINUOUS
 10
32.3116238972
 20
188.6937352292
 40
3.0
 50
348.3409085705
 51
63.125
  0
ARC
  8
0
 62
7
  6
CONTINUOUS
 10
32.1982392667
 20
188.1237121985
 40
3.0
 50
274.375
 51
349.1590914295
  0
ARC
  8
0
 62
7
  6
CONTINUOUS
 10
31.4729124282
 20
180.7593452211
 40
3.0
 50
359.5909085705
 51
74.375
  0
ARC
  8
0
 62
7
  6
CONTINUOUS
 10
36.5027549928
 20
199.332375789
 40
0.5
 50
152.1278606151
 51
231.875
  0
ARC
  8
0
 62
7
  6
CONTINUOUS
 10
36.6706420645
 20
199.6464704084
 40
0.5
 50
71.875
 51
151.6221393849
  0
ARC
  8
0
 62
7
  6
CONTINUOUS
 10
33.5080163024
 20
192.0112164007
 40
0.5
 50
163.3778606151
 51
243.125
  0
ARC
  8
0
 62
7
  6
CONTINUOUS
 10
33.6114006507
 20
192.3520289229
 40
0.5
 50
83.125
 51
162.8721393849
  0
ARC
  8
0
 62
7
  6
CONTINUOUS
 10
31.9991080188
 20
184.2464865016
 40
0.5
 50
174.6278606151
 51
254.375
  0
ARC
  8
0
 62
7
  6
CONTINUOUS
 10
32.0340166412
 20
184.6009196926
 40
0.5
 50
94.375
 51
174.1221393849
  0
ARC
  8
0
 62
7
  6
CONTINUOUS
 10
49.8023639762
 20
214.4701466853
 40
3.0
 50
303.3409085705
 51
18.125
  0
ARC
  8
0
 62
7
  6
CONTINUOUS
 10
49.3191217845
 20
214.147254576
 40
3.0
 50
229.375
 51
304.1590914295
  0
ARC
  8
0
 62
7
  6
CONTINUOUS
 10
43.5988444297
 20
209.4527442732
 40
3.0
 50
314.5909085705
 51
29.375
  0
ARC
  8
0
 62
7
  6
CONTINUOUS
 10
43.1878807268
 20
209.0417805703
 40
3.0
 50
240.625
 51
315.4090914295
  0
ARC
  8
0
 62
7
  6
CONTINUOUS
 10
38.493370424
 20
203.3215032155
 40
3.0
 50
325.8409085705
 51
40.625
  0
ARC
  8
0
 62
7
  6
CONTINUOUS
 10
38.1704783147
 20
202.8382610238
 40
3.0
 50
251.875
 51
326.6590914295
  0
ARC
  8
0
 62
7
  6
CONTINUOUS
 10
46.4367021464
 20
211.5464490493
 40
0.5
 50
129.6278606151
 51
209.375
  0
ARC
  8
0
 62
7
  6
CONTINUOUS
 10
46.7120083828
 20
211.7723870385
 40
0.5
 50
49.375
 51
129.1221393849
  0
ARC
  8
0
 62
7
  6
CONTINUOUS
 10
40.8682379615
 20
205.9286166172
 40
0.5
 50
140.8778606151
 51
220.625
  0
ARC
  8
0
 62
7
  6
CONTINUOUS
 10
41.0941759507
 20
206.2039228536
 40
0.5
 50
60.625
 51
140.3721393849
  0
ARC
  8
0
 62
7
  6
CONTINUOUS
 10
72.171875
 20
180.46875
 40
40.85
 50
95.3721393849
 51
95.8778606151
  0
ARC
  8
0
 62
7
  6
CONTINUOUS
 10
72.171875
 20
180.46875
 40
40.85
 50
106.6221393849
 51
107.1278606151
  0
ARC
  8
0
 62
7
  6
CONTINUOUS
 10
72.171875
 20
180.46875
 40
40.85
 50
117.8721393849
 51
118.3778606151
  0
ARC
  8
0
 62
7
  6
CONTINUOUS
 10
72.171875
 20
180.46875
 40
40.85
 50
129.1221393849
 51
129.6278606151
  0
ARC
  8
0
 62
7
  6
CONTINUOUS
 10
72.171875
 20
180.46875
 40
40.85
 50
140.3721393849
 51
140.8778606151
  0
ARC
  8
0
 62
7
  6
CONTINUOUS
 10
72.171875
 20
180.46875
 40
40.85
 50
151.6221393849
 51
152.1278606151
  0
ARC
  8
0
 62
7
  6
CONTINUOUS
 10
72.171875
 20
180.46875
 40
40.85
 50
162.8721393849
 51
163.3778606151
  0
ARC
  8
0
 62
7
  6
CONTINUOUS
 10
72.171875
 20
180.46875
 40
40.85
 50
174.1221393849
 51
174.6278606151
  0
ARC
  8
0
 62
7
  6
CONTINUOUS
 10
72.171875
 20
180.46875
 40
40.85
 50
185.3721393849
 51
185.8778606151
  0
ARC
  8
0
 62
7
  6
CONTINUOUS
 10
72.171875
 20
180.46875
 40
40.85
 50
196.6221393849
 51
197.1278606151
  0
ARC
  8
0
 62
7
  6
CONTINUOUS
 10
72.171875
 20
180.46875
 40
40.85
 50
207.8721393849
 51
208.3778606151
  0
ARC
  8
0
 62
7
  6
CONTINUOUS
 10
72.171875
 20
180.46875
 40
40.85
 50
219.1221393849
 51
219.6278606151
  0
ARC
  8
0
 62
7
  6
CONTINUOUS
 10
72.171875
 20
180.46875
 40
40.85
 50
230.3721393849
 51
230.8778606151
  0
ARC
  8
0
 62
7
  6
CONTINUOUS
 10
72.171875
 20
180.46875
 40
40.85
 50
241.6221393849
 51
242.1278606151
  0
ARC
  8
0
 62
7
  6
CONTINUOUS
 10
72.171875
 20
180.46875
 40
40.85
 50
252.8721393849
 51
253.3778606151
  0
ARC
  8
0
 62
7
  6
CONTINUOUS
 10
72.171875
 20
180.46875
 40
40.85
 50
264.1221393849
 51
264.6278606151
  0
ARC
  8
0
 62
7
  6
CONTINUOUS
 10
72.171875
 20
180.46875
 40
40.85
 50
275.3721393849
 51
275.8778606151
  0
ARC
  8
0
 62
7
  6
CONTINUOUS
 10
72.171875
 20
180.46875
 40
40.85
 50
286.6221393849
 51
287.1278606151
  0
ARC
  8
0
 62
7
  6
CONTINUOUS
 10
72.171875
 20
180.46875
 40
40.85
 50
297.8721393849
 51
298.3778606151
  0
ARC
  8
0
 62
7
  6
CONTINUOUS
 10
72.171875
 20
180.46875
 40
40.85
 50
309.1221393849
 51
309.6278606151
  0
ARC
  8
0
 62
7
  6
CONTINUOUS
 10
72.171875
 20
180.46875
 40
40.85
 50
320.3721393849
 51
320.8778606151
  0
ARC
  8
0
 62
7
  6
CONTINUOUS
 10
72.171875
 20
180.46875
 40
40.85
 50
331.6221393849
 51
332.1278606151
  0
ARC
  8
0
 62
7
  6
CONTINUOUS
 10
72.171875
 20
180.46875
 40
40.85
 50
342.8721393849
 51
343.3778606151
  0
ARC
  8
0
 62
7
  6
CONTINUOUS
 10
72.171875
 20
180.46875
 40
40.85
 50
354.1221393849
 51
354.6278606151
  0
ARC
  8
0
 62
7
  6
CONTINUOUS
 10
72.171875
 20
180.46875
 40
40.85
 50
5.3721393849
 51
5.8778606151
  0
ARC
  8
0
 62
7
  6
CONTINUOUS
 10
72.171875
 20
180.46875
 40
40.85
 50
16.6221393849
 51
17.1278606151
  0
ARC
  8
0
 62
7
  6
CONTINUOUS
 10
72.171875
 20
180.46875
 40
40.85
 50
84.1221393849
 51
84.6278606151
  0
ARC
  8
0
 62
7
  6
CONTINUOUS
 10
72.171875
 20
180.46875
 40
40.85
 50
27.8721393849
 51
28.3778606151
  0
ARC
  8
0
 62
7
  6
CONTINUOUS
 10
72.171875
 20
180.46875
 40
40.85
 50
39.1221393849
 51
39.6278606151
  0
ARC
  8
0
 62
7
  6
CONTINUOUS
 10
72.171875
 20
180.46875
 40
40.85
 50
50.3721393849
 51
50.8778606151
  0
ARC
  8
0
 62
7
  6
CONTINUOUS
 10
72.171875
 20
180.46875
 40
40.85
 50
61.6221393849
 51
62.1278606151
  0
ARC
  8
0
 62
7
  6
CONTINUOUS
 10
72.171875
 20
180.46875
 40
40.85
 50
72.8721393849
 51
73.3778606151
  0
ARC
  8
0
 62
7
  6
CONTINUOUS
 10
72.171875
 20
180.46875
 40
39.85
 50
265.496857503
 51
272.8657519025
  0
ARC
  8
0
 62
7
  6
CONTINUOUS
 10
72.171875
 20
180.46875
 40
39.85
 50
98.3842480975
 51
105.753142497
  0
ARC
  8
0
 62
7
  6
CONTINUOUS
 10
72.171875
 20
180.46875
 40
39.85
 50
254.246857503
 51
263.253142497
  0
ARC
  8
0
 62
7
  6
CONTINUOUS
 10
72.171875
 20
180.46875
 40
39.85
 50
242.996857503
 51
252.003142497
  0
ARC
  8
0
 62
7
  6
CONTINUOUS
 10
72.171875
 20
180.46875
 40
39.85
 50
231.746857503
 51
240.753142497
  0
ARC
  8
0
 62
7
  6
CONTINUOUS
 10
72.171875
 20
180.46875
 40
39.85
 50
220.496857503
 51
229.503142497
  0
ARC
  8
0
 62
7
  6
CONTINUOUS
 10
72.171875
 20
180.46875
 40
39.85
 50
209.246857503
 51
218.253142497
  0
ARC
  8
0
 62
7
  6
CONTINUOUS
 10
72.171875
 20
180.46875
 40
39.85
 50
197.996857503
 51
207.003142497
  0
ARC
  8
0
 62
7
  6
CONTINUOUS
 10
72.171875
 20
180.46875
 40
39.85
 50
186.746857503
 51
195.753142497
  0
ARC
  8
0
 62
7
  6
CONTINUOUS
 10
72.171875
 20
180.46875
 40
39.85
 50
175.496857503
 51
184.503142497
  0
ARC
  8
0
 62
7
  6
CONTINUOUS
 10
72.171875
 20
180.46875
 40
39.85
 50
164.246857503
 51
173.253142497
  0
ARC
  8
0
 62
7
  6
CONTINUOUS
 10
72.171875
 20
180.46875
 40
39.85
 50
152.996857503
 51
162.003142497
  0
ARC
  8
0
 62
7
  6
CONTINUOUS
 10
72.171875
 20
180.46875
 40
39.85
 50
130.496857503
 51
139.503142497
  0
ARC
  8
0
 62
7
  6
CONTINUOUS
 10
72.171875
 20
180.46875
 40
39.85
 50
119.246857503
 51
128.253142497
  0
ARC
  8
0
 62
7
  6
CONTINUOUS
 10
72.171875
 20
180.46875
 40
39.85
 50
107.996857503
 51
117.003142497
  0
ARC
  8
0
 62
7
  6
CONTINUOUS
 10
72.171875
 20
180.46875
 40
39.85
 50
141.746857503
 51
150.753142497
  0
CIRCLE
  8
0
 62
7
  6
CONTINUOUS
 10
72.171875
 20
180.46875
 40
36.85
  0
ARC
  8
0
 62
7
  6
CONTINUOUS
 10
64.5169128015
 20
220.4423857333
 40
3.0
 50
280.8409085705
 51
355.625
  0
ARC
  8
0
 62
7
  6
CONTINUOUS
 10
63.9468897708
 20
220.3290011028
 40
3.0
 50
206.875
 51
281.6590914295
  0
ARC
  8
0
 62
7
  6
CONTINUOUS
 10
56.8655312863
 20
218.1808944911
 40
3.0
 50
292.0909085705
 51
6.875
  0
ARC
  8
0
 62
7
  6
CONTINUOUS
 10
56.3285813323
 20
217.9584825379
 40
3.0
 50
218.125
 51
292.9090914295
  0
ARC
  8
0
 62
7
  6
CONTINUOUS
 10
71.8812797789
 20
221.1677125718
 40
3.0
 50
195.625
 51
270.4090914295
  0
ARC
  8
0
 62
7
  6
CONTINUOUS
 10
72.4624702211
 20
221.1677125718
 40
3.0
 50
269.5909085705
 51
344.375
  0
ARC
  8
0
 62
7
  6
CONTINUOUS
 10
66.1280069874
 20
221.4757513467
 40
1.6
 50
278.3842480975
 51
335.5513456873
  0
ARC
  8
0
 62
7
  6
CONTINUOUS
 10
70.0995426858
 20
221.8669134711
 40
1.6
 50
215.6986543127
 51
272.8657519025
  0
ARC
  8
0
 62
7
  6
CONTINUOUS
 10
60.2885960771
 20
219.0292243493
 40
0.5
 50
107.1278606151
 51
186.875
  0
ARC
  8
0
 62
7
  6
CONTINUOUS
 10
60.6294085993
 20
219.1326086976
 40
0.5
 50
26.875
 51
106.6221393849
  0
ARC
  8
0
 62
7
  6
CONTINUOUS
 10
52.9941545916
 20
215.9699829355
 40
0.5
 50
118.3778606151
 51
198.125
  0
ARC
  8
0
 62
7
  6
CONTINUOUS
 10
53.308249211
 20
216.1378700072
 40
0.5
 50
38.125
 51
117.8721393849
  0
ARC
  8
0
 62
7
  6
CONTINUOUS
 10
68.3941384984
 20
220.6415169812
 40
0.5
 50
15.625
 51
95.3721393849
  0
ARC
  8
0
 62
7
  6
CONTINUOUS
 10
68.0397053074
 20
220.6066083588
 40
0.5
 50
95.8778606151
 51
175.625
  0
ARC
  8
0
 62
7
  6
CONTINUOUS
 10
79.8268371985
 20
140.4951142667
 40
3.0
 50
100.8409085705
 51
175.625
  0
ARC
  8
0
 62
7
  6
CONTINUOUS
 10
80.3968602292
 20
140.6084988972
 40
3.0
 50
26.875
 51
101.6590914295
  0
ARC
  8
0
 62
7
  6
CONTINUOUS
 10
87.4782187137
 20
142.7566055089
 40
3.0
 50
112.0909085705
 51
186.875
  0
ARC
  8
0
 62
7
  6
CONTINUOUS
 10
88.0151686677
 20
142.9790174621
 40
3.0
 50
38.125
 51
112.9090914295
  0
ARC
  8
0
 62
7
  6
CONTINUOUS
 10
93.4483809804
 20
144.896108922
 40
1.6
 50
120.8842480975
 51
178.0513456873
  0
ARC
  8
0
 62
7
  6
CONTINUOUS
 10
89.9288517004
 20
143.0148813285
 40
1.6
 50
58.1986543127
 51
115.3657519025
  0
ARC
  8
0
 62
7
  6
CONTINUOUS
 10
86.0996808811
 20
141.4287868425
 40
1.6
 50
109.6342480975
 51
166.8013456873
  0
ARC
  8
0
 62
7
  6
CONTINUOUS
 10
82.2807690723
 20
140.2703326103
 40
1.6
 50
46.9486543127
 51
104.1157519025
  0
ARC
  8
0
 62
7
  6
CONTINUOUS
 10
78.2157430126
 20
139.4617486533
 40
1.6
 50
98.3842480975
 51
155.5513456873
  0
ARC
  8
0
 62
7
  6
CONTINUOUS
 10
74.2442073142
 20
139.0705865289
 40
1.6
 50
35.6986543127
 51
92.8657519025
  0
ARC
  8
0
 62
7
  6
CONTINUOUS
 10
76.3040446926
 20
140.3308916412
 40
0.5
 50
275.8778606151
 51
355.625
  0
ARC
  8
0
 62
7
  6
CONTINUOUS
 10
75.9496115016
 20
140.2959830188
 40
0.5
 50
195.625
 51
275.3721393849
  0
ARC
  8
0
 62
7
  6
CONTINUOUS
 10
84.0551539229
 20
141.9082756507
 40
0.5
 50
287.1278606151
 51
6.875
  0
ARC
  8
0
 62
7
  6
CONTINUOUS
 10
83.7143414007
 20
141.8048913024
 40
0.5
 50
206.875
 51
286.6221393849
  0
ARC
  8
0
 62
7
  6
CONTINUOUS
 10
91.3495954084
 20
144.9675170645
 40
0.5
 50
298.3778606151
 51
18.125
  0
ARC
  8
0
 62
7
  6
CONTINUOUS
 10
91.035500789
 20
144.7996299928
 40
0.5
 50
218.125
 51
297.8721393849
  0
ARC
  8
0
 62
7
  6
CONTINUOUS
 10
94.5413860238
 20
146.4673533147
 40
3.0
 50
123.3409085705
 51
198.125
  0
ARC
  8
0
 62
7
  6
CONTINUOUS
 10
95.0246282155
 20
146.790245424
 40
3.0
 50
49.375
 51
124.1590914295
  0
ARC
  8
0
 62
7
  6
CONTINUOUS
 10
100.7449055703
 20
151.4847557268
 40
3.0
 50
134.5909085705
 51
209.375
  0
ARC
  8
0
 62
7
  6
CONTINUOUS
 10
101.1558692732
 20
151.8957194297
 40
3.0
 50
60.625
 51
135.4090914295
  0
ARC
  8
0
 62
7
  6
CONTINUOUS
 10
105.850379576
 20
157.6159967845
 40
3.0
 50
145.8409085705
 51
220.625
  0
ARC
  8
0
 62
7
  6
CONTINUOUS
 10
106.1732716853
 20
158.0992389762
 40
3.0
 50
71.875
 51
146.6590914295
  0
ARC
  8
0
 62
7
  6
CONTINUOUS
 10
107.744516078
 20
159.1922440196
 40
1.6
 50
91.9486543127
 51
149.1157519025
  0
ARC
  8
0
 62
7
  6
CONTINUOUS
 10
105.4418637847
 20
155.7460813279
 40
1.6
 50
143.3842480975
 51
200.5513456873
  0
ARC
  8
0
 62
7
  6
CONTINUOUS
 10
102.9101573513
 20
152.6611881132
 40
1.6
 50
80.6986543127
 51
137.8657519025
  0
ARC
  8
0
 62
7
  6
CONTINUOUS
 10
99.9794368868
 20
149.7304676487
 40
1.6
 50
132.1342480975
 51
189.3013456873
  0
ARC
  8
0
 62
7
  6
CONTINUOUS
 10
96.8945436721
 20
147.1987612153
 40
1.6
 50
69.4486543127
 51
126.6157519025
  0
ARC
  8
0
 62
7
  6
CONTINUOUS
 10
97.9070478536
 20
149.3910509507
 40
0.5
 50
309.6278606151
 51
29.375
  0
ARC
  8
0
 62
7
  6
CONTINUOUS
 10
97.6317416172
 20
149.1651129615
 40
0.5
 50
229.375
 51
309.1221393849
  0
ARC
  8
0
 62
7
  6
CONTINUOUS
 10
103.4755120385
 20
155.0088833828
 40
0.5
 50
320.8778606151
 51
40.625
  0
ARC
  8
0
 62
7
  6
CONTINUOUS
 10
103.2495740493
 20
154.7335771464
 40
0.5
 50
240.625
 51
320.3721393849
  0
ARC
  8
0
 62
7
  6
CONTINUOUS
 10
109.6616075379
 20
164.6254563323
 40
3.0
 50
157.0909085705
 51
231.875
  0
ARC
  8
0
 62
7
  6
CONTINUOUS
 10
109.8840194911
 20
165.1624062863
 40
3.0
 50
83.125
 51
157.9090914295
  0
ARC
  8
0
 62
7
  6
CONTINUOUS
 10
112.0321261028
 20
172.2437647708
 40
3.0
 50
168.3409085705
 51
243.125
  0
ARC
  8
0
 62
7
  6
CONTINUOUS
 10
112.1455107333
 20
172.8137878015
 40
3.0
 50
94.375
 51
169.1590914295
  0
ARC
  8
0
 62
7
  6
CONTINUOUS
 10
112.8708375718
 20
180.1781547789
 40
3.0
 50
179.5909085705
 51
254.375
  0
ARC
  8
0
 62
7
  6
CONTINUOUS
 10
113.5700384711
 20
178.3964176858
 40
1.6
 50
177.1342480975
 51
234.3013456873
  0
ARC
  8
0
 62
7
  6
CONTINUOUS
 10
113.1788763467
 20
174.4248819874
 40
1.6
 50
114.4486543127
 51
171.6157519025
  0
ARC
  8
0
 62
7
  6
CONTINUOUS
 10
112.3702923897
 20
170.3598559277
 40
1.6
 50
165.8842480975
 51
223.0513456873
  0
ARC
  8
0
 62
7
  6
CONTINUOUS
 10
111.2118381575
 20
166.5409441189
 40
1.6
 50
103.1986543127
 51
160.3657519025
  0
ARC
  8
0
 62
7
  6
CONTINUOUS
 10
109.6257436715
 20
162.7117732996
 40
1.6
 50
154.6342480975
 51
211.8013456873
  0
ARC
  8
0
 62
7
  6
CONTINUOUS
 10
107.8409950072
 20
161.605124211
 40
0.5
 50
332.1278606151
 51
51.875
  0
ARC
  8
0
 62
7
  6
CONTINUOUS
 10
107.6731079355
 20
161.2910295916
 40
0.5
 50
251.875
 51
331.6221393849
  0
ARC
  8
0
 62
7
  6
CONTINUOUS
 10
110.8357336976
 20
168.9262835993
 40
0.5
 50
343.3778606151
 51
63.125
  0
ARC
  8
0
 62
7
  6
CONTINUOUS
 10
110.7323493493
 20
168.5854710771
 40
0.5
 50
263.125
 51
342.8721393849
  0
ARC
  8
0
 62
7
  6
CONTINUOUS
 10
112.3446419812
 20
176.6910134984
 40
0.5
 50
354.6278606151
 51
74.375
  0
ARC
  8
0
 62
7
  6
CONTINUOUS
 10
112.3097333588
 20
176.3365803074
 40
0.5
 50
274.375
 51
354.1221393849
  0
ARC
  8
0
 62
7
  6
CONTINUOUS
 10
79.8268371985
 20
220.4423857333
 40
3.0
 50
184.375
 51
259.1590914295
  0
ARC
  8
0
 62
7
  6
CONTINUOUS
 10
88.0151686677
 20
217.9584825379
 40
3.0
 50
247.0909085705
 51
321.875
  0
ARC
  8
0
 62
7
  6
CONTINUOUS
 10
87.4782187137
 20
218.1808944911
 40
3.0
 50
173.125
 51
247.9090914295
  0
ARC
  8
0
 62
7
  6
CONTINUOUS
 10
80.3968602292
 20
220.3290011028
 40
3.0
 50
258.3409085705
 51
333.125
  0
ARC
  8
0
 62
7
  6
CONTINUOUS
 10
74.2442073142
 20
221.8669134711
 40
1.6
 50
267.1342480975
 51
324.3013456873
  0
ARC
  8
0
 62
7
  6
CONTINUOUS
 10
78.2157430126
 20
221.4757513467
 40
1.6
 50
204.4486543127
 51
261.6157519025
  0
ARC
  8
0
 62
7
  6
CONTINUOUS
 10
82.2807690723
 20
220.6671673897
 40
1.6
 50
255.8842480975
 51
313.0513456873
  0
ARC
  8
0
 62
7
  6
CONTINUOUS
 10
86.0996808811
 20
219.5087131575
 40
1.6
 50
193.1986543127
 51
250.3657519025
  0
ARC
  8
0
 62
7
  6
CONTINUOUS
 10
89.9288517004
 20
217.9226186715
 40
1.6
 50
244.6342480975
 51
301.8013456873
  0
ARC
  8
0
 62
7
  6
CONTINUOUS
 10
93.4483809804
 20
216.041391078
 40
1.6
 50
181.9486543127
 51
239.1157519025
  0
ARC
  8
0
 62
7
  6
CONTINUOUS
 10
91.035500789
 20
216.1378700072
 40
0.5
 50
62.1278606151
 51
141.875
  0
ARC
  8
0
 62
7
  6
CONTINUOUS
 10
91.3495954084
 20
215.9699829355
 40
0.5
 50
341.875
 51
61.6221393849
  0
ARC
  8
0
 62
7
  6
CONTINUOUS
 10
76.3040446926
 20
220.6066083588
 40
0.5
 50
4.375
 51
84.1221393849
  0
ARC
  8
0
 62
7
  6
CONTINUOUS
 10
83.7143414007
 20
219.1326086976
 40
0.5
 50
73.3778606151
 51
153.125
  0
ARC
  8
0
 62
7
  6
CONTINUOUS
 10
84.0551539229
 20
219.0292243493
 40
0.5
 50
353.125
 51
72.8721393849
  0
ARC
  8
0
 62
7
  6
CONTINUOUS
 10
75.9496115016
 20
220.6415169812
 40
0.5
 50
84.6278606151
 51
164.375
  0
ARC
  8
0
 62
7
  6
CONTINUOUS
 10
112.8708375718
 20
180.7593452211
 40
3.0
 50
105.625
 51
180.4090914295
  0
ARC
  8
0
 62
7
  6
CONTINUOUS
 10
112.1455107333
 20
188.1237121985
 40
3.0
 50
190.8409085705
 51
265.625
  0
ARC
  8
0
 62
7
  6
CONTINUOUS
 10
112.0321261028
 20
188.6937352292
 40
3.0
 50
116.875
 51
191.6590914295
  0
ARC
  8
0
 62
7
  6
CONTINUOUS
 10
109.8840194911
 20
195.7750937137
 40
3.0
 50
202.0909085705
 51
276.875
  0
ARC
  8
0
 62
7
  6
CONTINUOUS
 10
109.6616075379
 20
196.3120436677
 40
3.0
 50
128.125
 51
202.9090914295
  0
ARC
  8
0
 62
7
  6
CONTINUOUS
 10
109.6257436715
 20
198.2257267004
 40
1.6
 50
148.1986543127
 51
205.3657519025
  0
ARC
  8
0
 62
7
  6
CONTINUOUS
 10
111.2118381575
 20
194.3965558811
 40
1.6
 50
199.6342480975
 51
256.8013456873
  0
ARC
  8
0
 62
7
  6
CONTINUOUS
 10
112.3702923897
 20
190.5776440723
 40
1.6
 50
136.9486543127
 51
194.1157519025
  0
ARC
  8
0
 62
7
  6
CONTINUOUS
 10
113.1788763467
 20
186.5126180126
 40
1.6
 50
188.3842480975
 51
245.5513456873
  0
ARC
  8
0
 62
7
  6
CONTINUOUS
 10
113.5700384711
 20
182.5410823142
 40
1.6
 50
125.6986543127
 51
182.8657519025
  0
ARC
  8
0
 62
7
  6
CONTINUOUS
 10
112.3097333588
 20
184.6009196926
 40
0.5
 50
5.8778606151
 51
85.625
  0
ARC
  8
0
 62
7
  6
CONTINUOUS
 10
112.3446419812
 20
184.2464865016
 40
0.5
 50
285.625
 51
5.3721393849
  0
ARC
  8
0
 62
7
  6
CONTINUOUS
 10
110.7323493493
 20
192.3520289229
 40
0.5
 50
17.1278606151
 51
96.875
  0
ARC
  8
0
 62
7
  6
CONTINUOUS
 10
110.8357336976
 20
192.0112164007
 40
0.5
 50
296.875
 51
16.6221393849
  0
ARC
  8
0
 62
7
  6
CONTINUOUS
 10
107.6731079355
 20
199.6464704084
 40
0.5
 50
28.3778606151
 51
108.125
  0
ARC
  8
0
 62
7
  6
CONTINUOUS
 10
107.8409950072
 20
199.332375789
 40
0.5
 50
308.125
 51
27.8721393849
  0
ARC
  8
0
 62
7
  6
CONTINUOUS
 10
106.1732716853
 20
202.8382610238
 40
3.0
 50
213.3409085705
 51
288.125
  0
ARC
  8
0
 62
7
  6
CONTINUOUS
 10
105.850379576
 20
203.3215032155
 40
3.0
 50
139.375
 51
214.1590914295
  0
ARC
  8
0
 62
7
  6
CONTINUOUS
 10
101.1558692732
 20
209.0417805703
 40
3.0
 50
224.5909085705
 51
299.375
  0
ARC
  8
0
 62
7
  6
CONTINUOUS
 10
100.7449055703
 20
209.4527442732
 40
3.0
 50
150.625
 51
225.4090914295
  0
ARC
  8
0
 62
7
  6
CONTINUOUS
 10
95.0246282155
 20
214.147254576
 40
3.0
 50
235.8409085705
 51
310.625
  0
ARC
  8
0
 62
7
  6
CONTINUOUS
 10
94.5413860238
 20
214.4701466853
 40
3.0
 50
161.875
 51
236.6590914295
  0
ARC
  8
0
 62
7
  6
CONTINUOUS
 10
96.8945436721
 20
213.7387387847
 40
1.6
 50
233.3842480975
 51
290.5513456873
  0
ARC
  8
0
 62
7
  6
CONTINUOUS
 10
99.9794368868
 20
211.2070323513
 40
1.6
 50
170.6986543127
 51
227.8657519025
  0
ARC
  8
0
 62
7
  6
CONTINUOUS
 10
102.9101573513
 20
208.2763118868
 40
1.6
 50
222.1342480975
 51
279.3013456873
  0
ARC
  8
0
 62
7
  6
CONTINUOUS
 10
105.4418637847
 20
205.1914186721
 40
1.6
 50
159.4486543127
 51
216.6157519025
  0
ARC
  8
0
 62
7
  6
CONTINUOUS
 10
107.744516078
 20
201.7452559804
 40
1.6
 50
210.8842480975
 51
268.0513456873
  0
ARC
  8
0
 62
7
  6
CONTINUOUS
 10
103.2495740493
 20
206.2039228536
 40
0.5
 50
39.6278606151
 51
119.375
  0
ARC
  8
0
 62
7
  6
CONTINUOUS
 10
103.4755120385
 20
205.9286166172
 40
0.5
 50
319.375
 51
39.1221393849
  0
ARC
  8
0
 62
7
  6
CONTINUOUS
 10
97.6317416172
 20
211.7723870385
 40
0.5
 50
50.8778606151
 51
130.625
  0
ARC
  8
0
 62
7
  6
CONTINUOUS
 10
97.9070478536
 20
211.5464490493
 40
0.5
 50
330.625
 51
50.3721393849
  0
ENDSEC
  0
EOF
