  0
SECTION
  2
HEADER
  9
$EXTMAX
 10
210.0
 20
297.0
 30
0.0
  9
$EXTMIN
 10
0.0
 20
0.0
 30
0.0
  9
$LIMMIN
 10
0.0
 20
0.0
  9
$LIMMAX
 10
210.0
 20
297.0
  9
$VIEWCTR
 10
105.0
 20
148.5
  9
$VIEWSIZE
 40
297.0
  9
$CLAYER
  8
0
  9
$LTSCALE
 40
19.36
  9
$CELTYPE
  6
BYLAYER
  9
$DIMSCALE
 40
1.0
  9
$DIMASZ
 40
3.5
  9
$DIMEXO
 40
2.2
  9
$DIMDLI
 40
13.376
  9
$DIMEXE
 40
6.336
  9
$DIMCEN
 40
3.168
  9
$DIMLFAC
 40
1.0
  9
$DIMBLK
  1
_FILLED
  9
$DIMTXT
 40
3.5
  9
$PDMODE
 70
3
  9
$PDSIZE
 40
0.3125
  9
$TILEMODE
 70
1
  0
ENDSEC
  0
SECTION
  2
TABLES
  0
TABLE
  2
LTYPE
 70
6
  0
LTYPE
  2
BYBLOCK
 70
0
  3

 72
65
 73
0
 40
0.0
  0
LTYPE
  2
BYLAYER
 70
0
  3

 72
65
 73
0
 40
0.0
  0
LTYPE
  2
CONTINUOUS
 70
64
  3
Solid line
 72
65
 73
0
 40
0.0
  0
LTYPE
  2
CENTER
 70
64
  3
____ _ ____ _ ____ _ ____ _ ____ _ ____ _ ____
 72
65
 73
4
 40
0.6
 49
0.375
 49
-0.075
 49
0.075
 49
-0.075
  0
LTYPE
  2
HIDDEN
 70
64
  3
- - - - - - - - - - - - - - - - - - - -
 72
65
 73
2
 40
0.2
 49
0.1
 49
-0.1
  0
LTYPE
  2
PHANTOM
 70
64
  3
_____ _ _ _____ _ _ _____ _ _ _____
 72
65
 73
6
 40
0.8
 49
0.45
 49
-0.05
 49
0.1
 49
-0.05
 49
0.1
 49
-0.05
  0
LTYPE
  2
DOT
 70
64
  3
. . . . . . . . . . . . . . . . . . . .
 72
65
 73
2
 40
0.2
 49
0.1
 49
-0.1
  0
LTYPE
  2
DASHED
 70
64
  3
- - - - - - - - - - - - - - - - - - - -
 72
65
 73
2
 40
0.2
 49
0.1
 49
-0.1
  0
ENDTAB
  0
TABLE
  2
LAYER
 70
36
  0
LAYER
  2
0
 70
0
 62
7
  6
CONTINUOUS
  0
LAYER
  2
DEFAULT_1
 70
0
 62
7
  6
CENTER
  0
LAYER
  2
DEFAULT_2
 70
0
 62
8
  6
HIDDEN
  0
LAYER
  2
DEFAULT_3
 70
0
 62
7
  6
PHANTOM
  0
LAYER
  2
1_AXIS
 70
0
 62
7
  6
CONTINUOUS
  0
LAYER
  2
1_CSYS
 70
0
 62
7
  6
CONTINUOUS
  0
LAYER
  2
1_DATUM_PLANES
 70
0
 62
7
  6
CONTINUOUS
  0
LAYER
  2
2_FEATURE
 70
0
 62
7
  6
CONTINUOUS
  0
LAYER
  2
4_QUILT
 70
0
 62
7
  6
CONTINUOUS
  0
LAYER
  2
4_SURFACE
 70
0
 62
7
  6
CONTINUOUS
  0
LAYER
  2
6_DIM
 70
0
 62
7
  6
CONTINUOUS
  0
LAYER
  2
CSYS
 70
0
 62
7
  6
CONTINUOUS
  0
LAYER
  2
CURVE
 70
0
 62
7
  6
CONTINUOUS
  0
ENDTAB
  0
TABLE
  2
STYLE
 70
1
  0
STYLE
  2
STANDARD
 70
0
 40
0.0
 41
0.8
 50
0.0
 71
0
 42
0.2
  3
txt
  4

  0
STYLE
  2
TEXTSTYLE_1
 70
0
 40
0.0
 41
0.8
 50
0.0
 71
0
 42
0.2
  3
gdt
  4

  0
STYLE
  2
TEXTSTYLE_2
 70
0
 40
0.0
 41
0.6
 50
0.0
 71
0
 42
0.2
  3
txt
  4

  0
STYLE
  2
TEXTSTYLE_3
 70
0
 40
0.0
 41
1.0
 50
0.0
 71
0
 42
0.2
  3
ftb_____.ttf
  4

  0
STYLE
  2
TEXTSTYLE_4
 70
0
 40
0.0
 41
1.0
 50
0.0
 71
0
 42
0.2
  3
fti_____.ttf
  4

  0
STYLE
  2
TEXTSTYLE_5
 70
0
 40
0.0
 41
1.0
 50
0.0
 71
0
 42
0.2
  3
frutiger light.ttf
  4

  0
STYLE
  2
TEXTSTYLE_6
 70
0
 40
0.0
 41
0.7
 50
0.0
 71
0
 42
0.2
  3
txt
  4

  0
STYLE
  2
TEXTSTYLE_7
 70
0
 40
0.0
 41
0.65
 50
0.0
 71
0
 42
0.2
  3
txt
  4

  0
ENDTAB
  0
ENDSEC
  0
SECTION
  2
BLOCKS
  0
BLOCK
  8
0
 62
2
  6
CONTINUOUS
  2
SYMBOL_8_BL1
 70
64
 10
173.5956734183
 20
35.5937998301
  0
TEXT
  8
0
 62
7
  6
CONTINUOUS
 10
164.6539584268
 20
30.6865562072
  7
TEXTSTYLE_4
 40
1.0655737705
  1
The brand for plastic modular belts and chains
 41
1.0
 72
0
  0
LINE
  8
0
 62
7
  6
CONTINUOUS
 10
149.5737418074
 20
36.1675703219
 11
149.5737418074
 21
34.0364227809
  0
LINE
  8
0
 62
7
  6
CONTINUOUS
 10
149.8628043005
 20
31.0454914852
 11
149.8628043005
 21
31.1422825445
  0
LINE
  8
0
 62
7
  6
CONTINUOUS
 10
149.5737418074
 20
31.1100188581
 11
149.6315543091
 21
30.9164367395
  0
LINE
  8
0
 62
7
  6
CONTINUOUS
 10
150.9671844304
 20
33.9544555678
 11
150.9671844304
 21
36.1675703219
  0
LINE
  8
0
 62
7
  6
CONTINUOUS
 10
151.8862417523
 20
32.1101932727
 11
151.8862417523
 21
30.5937998301
  0
LINE
  8
0
 62
7
  6
CONTINUOUS
 10
152.1753043074
 20
30.5937998301
 11
152.1753043074
 21
31.3358647082
  0
LINE
  8
0
 62
7
  6
CONTINUOUS
 10
152.1753043074
 20
31.4649194539
 11
152.1753043074
 21
32.1101932727
  0
LINE
  8
0
 62
7
  6
CONTINUOUS
 10
149.6315543091
 20
31.3036010218
 11
149.5737418074
 21
31.1100188581
  0
LINE
  8
0
 62
7
  6
CONTINUOUS
 10
149.9784292936
 20
30.8841730531
 11
149.8628043005
 21
31.0454914852
  0
LINE
  8
0
 62
7
  6
CONTINUOUS
 10
151.0768668626
 20
31.400392081
 11
151.1346793074
 21
31.3036010218
  0
LINE
  8
0
 62
7
  6
CONTINUOUS
 10
151.4237418626
 20
31.3036010218
 11
151.3659292523
 21
31.4326557675
  0
LINE
  8
0
 62
7
  6
CONTINUOUS
 10
152.852430332
 20
36.1675703219
 11
152.852430332
 21
34.3642916334
  0
LINE
  8
0
 62
7
  6
CONTINUOUS
 10
152.852430332
 20
33.0528162235
 11
152.852430332
 21
32.3970785186
  0
LINE
  8
0
 62
7
  6
CONTINUOUS
 10
153.2159293074
 20
31.2390736489
 11
153.2159293074
 21
30.5937998301
  0
LINE
  8
0
 62
7
  6
CONTINUOUS
 10
153.5049916972
 20
30.5937998301
 11
153.5049916972
 21
31.2390736489
  0
LINE
  8
0
 62
7
  6
CONTINUOUS
 10
149.8628043005
 20
31.1422825445
 11
149.9206168074
 21
31.2713373354
  0
LINE
  8
0
 62
7
  6
CONTINUOUS
 10
149.6315543091
 20
30.9164367395
 11
149.7471793074
 21
30.7873819712
  0
LINE
  8
0
 62
7
  6
CONTINUOUS
 10
153.1581166972
 20
31.3681283946
 11
153.2159293074
 21
31.2390736489
  0
LINE
  8
0
 62
7
  6
CONTINUOUS
 10
153.9674919177
 20
30.8841730531
 11
154.0253041972
 21
30.7551182848
  0
LINE
  8
0
 62
7
  6
CONTINUOUS
 10
153.5049916972
 20
31.2390736489
 11
153.4471794177
 21
31.400392081
  0
LINE
  8
0
 62
7
  6
CONTINUOUS
 10
153.9674919177
 20
31.4326557675
 11
153.9674919177
 21
31.3681283946
  0
LINE
  8
0
 62
7
  6
CONTINUOUS
 10
153.9674919177
 20
30.9809641124
 11
153.9674919177
 21
30.8841730531
  0
LINE
  8
0
 62
7
  6
CONTINUOUS
 10
154.245872955
 20
32.3970785186
 11
154.245872955
 21
36.1675703219
  0
LINE
  8
0
 62
7
  6
CONTINUOUS
 10
154.2565543074
 20
30.8519093441
 11
154.2565543074
 21
30.9164367395
  0
LINE
  8
0
 62
7
  6
CONTINUOUS
 10
154.5737418074
 20
36.1675703219
 11
154.5737418074
 21
32.3970785186
  0
LINE
  8
0
 62
7
  6
CONTINUOUS
 10
151.3659292523
 20
30.7873819712
 11
151.4237418626
 21
30.9164367395
  0
LINE
  8
0
 62
7
  6
CONTINUOUS
 10
155.759679528
 20
30.6905909007
 11
155.7018665869
 21
30.8519093441
  0
LINE
  8
0
 62
7
  6
CONTINUOUS
 10
155.412804528
 20
31.3681283946
 11
155.412804528
 21
31.2713373354
  0
LINE
  8
0
 62
7
  6
CONTINUOUS
 10
155.412804528
 20
31.1422825445
 11
155.412804528
 21
30.9487004259
  0
LINE
  8
0
 62
7
  6
CONTINUOUS
 10
155.7018665869
 20
30.8519093441
 11
155.7018665869
 21
31.3681283946
  0
LINE
  8
0
 62
7
  6
CONTINUOUS
 10
155.9671844304
 20
32.3970785186
 11
155.9671844304
 21
34.2003572071
  0
LINE
  8
0
 62
7
  6
CONTINUOUS
 10
155.9671844304
 20
35.511832617
 11
155.9671844304
 21
36.1675703219
  0
LINE
  8
0
 62
7
  6
CONTINUOUS
 10
156.279992028
 20
32.1101932727
 11
156.279992028
 21
31.9488748406
  0
LINE
  8
0
 62
7
  6
CONTINUOUS
 10
156.279992028
 20
31.626237886
 11
156.279992028
 21
30.5937998301
  0
LINE
  8
0
 62
7
  6
CONTINUOUS
 10
156.5690540869
 20
30.5937998301
 11
156.5690540869
 21
31.626237886
  0
LINE
  8
0
 62
7
  6
CONTINUOUS
 10
156.5690540869
 20
31.9488748406
 11
156.5690540869
 21
32.1101932727
  0
LINE
  8
0
 62
7
  6
CONTINUOUS
 10
151.1346793074
 20
30.9164367395
 11
151.0768668626
 21
30.8196456577
  0
LINE
  8
0
 62
7
  6
CONTINUOUS
 10
153.4471794177
 20
31.400392081
 11
153.3893668074
 21
31.4649194539
  0
LINE
  8
0
 62
7
  6
CONTINUOUS
 10
154.3143669177
 20
30.7873819712
 11
154.2565543074
 21
30.8519093441
  0
LINE
  8
0
 62
7
  6
CONTINUOUS
 10
155.4706168074
 20
30.6583272086
 11
155.5284290869
 21
30.5937998301
  0
LINE
  8
0
 62
7
  6
CONTINUOUS
 10
155.412804528
 20
30.7551182848
 11
155.4706168074
 21
30.6583272086
  0
LINE
  8
0
 62
7
  6
CONTINUOUS
 10
155.8174918074
 20
30.5937998301
 11
155.759679528
 21
30.6905909007
  0
LINE
  8
0
 62
7
  6
CONTINUOUS
 10
155.7018665869
 20
31.3681283946
 11
155.6440543074
 21
31.4649194539
  0
LINE
  8
0
 62
7
  6
CONTINUOUS
 10
157.0315543074
 20
31.626237886
 11
157.0315543074
 21
30.5937998301
  0
LINE
  8
0
 62
7
  6
CONTINUOUS
 10
157.320617028
 20
30.5937998301
 11
157.320617028
 21
31.3358647082
  0
LINE
  8
0
 62
7
  6
CONTINUOUS
 10
157.320617028
 20
31.4649194539
 11
157.320617028
 21
31.626237886
  0
LINE
  8
0
 62
7
  6
CONTINUOUS
 10
157.852430332
 20
34.6101932727
 11
157.852430332
 21
32.3970785186
  0
LINE
  8
0
 62
7
  6
CONTINUOUS
 10
149.7471793074
 20
31.4326557675
 11
149.6315543091
 21
31.3036010218
  0
LINE
  8
0
 62
7
  6
CONTINUOUS
 10
149.9206168074
 20
31.2713373354
 11
149.9784292936
 21
31.3358647082
  0
LINE
  8
0
 62
7
  6
CONTINUOUS
 10
149.7471793074
 20
30.7873819712
 11
149.8628043005
 21
30.7228545871
  0
LINE
  8
0
 62
7
  6
CONTINUOUS
 10
150.1518667936
 20
30.7873819712
 11
149.9784292936
 21
30.8841730531
  0
LINE
  8
0
 62
7
  6
CONTINUOUS
 10
155.3549915869
 20
31.4326557675
 11
155.412804528
 21
31.3681283946
  0
LINE
  8
0
 62
7
  6
CONTINUOUS
 10
158.3034290869
 20
31.3681283946
 11
158.361242028
 21
31.2068099625
  0
LINE
  8
0
 62
7
  6
CONTINUOUS
 10
158.6503040869
 20
31.2068099625
 11
158.5924918074
 21
31.3681283946
  0
LINE
  8
0
 62
7
  6
CONTINUOUS
 10
158.361242028
 20
31.2068099625
 11
158.361242028
 21
30.5937998301
  0
LINE
  8
0
 62
7
  6
CONTINUOUS
 10
158.6503040869
 20
30.5937998301
 11
158.6503040869
 21
31.2068099625
  0
LINE
  8
0
 62
7
  6
CONTINUOUS
 10
159.1128043074
 20
31.4326557675
 11
159.1128043074
 21
31.3681283946
  0
LINE
  8
0
 62
7
  6
CONTINUOUS
 10
159.245872955
 20
32.3970785186
 11
159.245872955
 21
34.5282260596
  0
LINE
  8
0
 62
7
  6
CONTINUOUS
 10
159.5737418074
 20
36.1675703219
 11
159.5737418074
 21
32.3970785186
  0
LINE
  8
0
 62
7
  6
CONTINUOUS
 10
154.2565543074
 20
30.9164367395
 11
154.3143669177
 21
31.0132277988
  0
LINE
  8
0
 62
7
  6
CONTINUOUS
 10
149.8628043005
 20
30.7228545871
 11
150.0362418212
 21
30.6583272086
  0
LINE
  8
0
 62
7
  6
CONTINUOUS
 10
151.3659292523
 20
31.4326557675
 11
151.1924917523
 21
31.5294468267
  0
LINE
  8
0
 62
7
  6
CONTINUOUS
 10
154.0253041972
 20
30.7551182848
 11
154.1987416972
 21
30.6583272086
  0
LINE
  8
0
 62
7
  6
CONTINUOUS
 10
153.0424918074
 20
31.4326557675
 11
153.1581166972
 21
31.3681283946
  0
LINE
  8
0
 62
7
  6
CONTINUOUS
 10
153.3893668074
 20
31.4649194539
 11
153.2737419177
 21
31.5294468267
  0
LINE
  8
0
 62
7
  6
CONTINUOUS
 10
159.1128043074
 20
30.8519093441
 11
159.228429528
 21
30.7228545871
  0
LINE
  8
0
 62
7
  6
CONTINUOUS
 10
159.4596793074
 20
30.7873819712
 11
159.401867028
 21
30.8519093441
  0
LINE
  8
0
 62
7
  6
CONTINUOUS
 10
159.1128043074
 20
31.3681283946
 11
159.228429528
 21
31.2390736489
  0
LINE
  8
0
 62
7
  6
CONTINUOUS
 10
158.5924918074
 20
31.3681283946
 11
158.534679528
 21
31.4649194539
  0
LINE
  8
0
 62
7
  6
CONTINUOUS
 10
160.9628038663
 20
30.7873819712
 11
160.9628038663
 21
30.8519093441
  0
LINE
  8
0
 62
7
  6
CONTINUOUS
 10
160.9671844304
 20
32.3970785186
 11
160.9671844304
 21
36.1675703219
  0
LINE
  8
0
 62
7
  6
CONTINUOUS
 10
154.0253041972
 20
31.4971831403
 11
153.9674919177
 21
31.4326557675
  0
LINE
  8
0
 62
7
  6
CONTINUOUS
 10
150.9034292799
 20
31.4649194539
 11
151.0768668626
 21
31.400392081
  0
LINE
  8
0
 62
7
  6
CONTINUOUS
 10
155.6440543074
 20
31.4649194539
 11
155.5284290869
 21
31.5294468267
  0
LINE
  8
0
 62
7
  6
CONTINUOUS
 10
159.4596793074
 20
31.3036010218
 11
159.401867028
 21
31.3681283946
  0
LINE
  8
0
 62
7
  6
CONTINUOUS
 10
160.615929528
 20
30.9164367395
 11
160.6737418074
 21
30.8519093441
  0
LINE
  8
0
 62
7
  6
CONTINUOUS
 10
160.9628038663
 20
30.8519093441
 11
160.8471793074
 21
30.9809641124
  0
LINE
  8
0
 62
7
  6
CONTINUOUS
 10
160.615929528
 20
31.4326557675
 11
160.6737418074
 21
31.3681283946
  0
LINE
  8
0
 62
7
  6
CONTINUOUS
 10
160.9628038663
 20
31.3681283946
 11
160.8471793074
 21
31.4971831403
  0
LINE
  8
0
 62
7
  6
CONTINUOUS
 10
154.2565543074
 20
31.3681283946
 11
154.3143669177
 21
31.4326557675
  0
LINE
  8
0
 62
7
  6
CONTINUOUS
 10
154.0831168074
 20
31.1100188581
 11
153.9674919177
 21
30.9809641124
  0
LINE
  8
0
 62
7
  6
CONTINUOUS
 10
155.412804528
 20
30.9487004259
 11
155.3549915869
 21
30.8841730531
  0
LINE
  8
0
 62
7
  6
CONTINUOUS
 10
155.3549915869
 20
30.6905909007
 11
155.412804528
 21
30.7551182848
  0
LINE
  8
0
 62
7
  6
CONTINUOUS
 10
154.1987416972
 20
30.6583272086
 11
154.3143669177
 21
30.6260635193
  0
LINE
  8
0
 62
7
  6
CONTINUOUS
 10
151.1924917523
 20
31.5294468267
 11
150.9612418074
 21
31.5939741996
  0
LINE
  8
0
 62
7
  6
CONTINUOUS
 10
154.5456166972
 20
30.7228545871
 11
154.3143669177
 21
30.7873819712
  0
LINE
  8
0
 62
7
  6
CONTINUOUS
 10
153.2737419177
 20
31.5294468267
 11
153.1003044177
 21
31.5939741996
  0
LINE
  8
0
 62
7
  6
CONTINUOUS
 10
155.5284290869
 20
31.5294468267
 11
155.3549915869
 21
31.5939741996
  0
LINE
  8
0
 62
7
  6
CONTINUOUS
 10
158.187804528
 20
31.4326557675
 11
158.3034290869
 21
31.3681283946
  0
LINE
  8
0
 62
7
  6
CONTINUOUS
 10
158.534679528
 20
31.4649194539
 11
158.4190543074
 21
31.5294468267
  0
LINE
  8
0
 62
7
  6
CONTINUOUS
 10
150.0362418212
 20
30.6583272086
 11
150.2096793212
 21
30.6260635193
  0
LINE
  8
0
 62
7
  6
CONTINUOUS
 10
150.498741835
 20
30.7228545871
 11
150.1518667936
 21
30.7873819712
  0
LINE
  8
0
 62
7
  6
CONTINUOUS
 10
152.9268669177
 20
31.4649194539
 11
153.0424918074
 21
31.4326557675
  0
LINE
  8
0
 62
7
  6
CONTINUOUS
 10
155.239367028
 20
31.4649194539
 11
155.3549915869
 21
31.4326557675
  0
LINE
  8
0
 62
7
  6
CONTINUOUS
 10
159.575304528
 20
30.7551182848
 11
159.4596793074
 21
30.7873819712
  0
LINE
  8
0
 62
7
  6
CONTINUOUS
 10
158.0721793074
 20
31.4649194539
 11
158.187804528
 21
31.4326557675
  0
LINE
  8
0
 62
7
  6
CONTINUOUS
 10
159.228429528
 20
30.7228545871
 11
159.401867028
 21
30.6583272086
  0
LINE
  8
0
 62
7
  6
CONTINUOUS
 10
158.4190543074
 20
31.5294468267
 11
158.2456168074
 21
31.5939741996
  0
LINE
  8
0
 62
7
  6
CONTINUOUS
 10
159.6331168074
 20
31.2390736489
 11
159.4596793074
 21
31.3036010218
  0
LINE
  8
0
 62
7
  6
CONTINUOUS
 10
160.442492028
 20
30.9809641124
 11
160.615929528
 21
30.9164367395
  0
LINE
  8
0
 62
7
  6
CONTINUOUS
 10
160.8471793074
 20
31.4971831403
 11
160.6737418074
 21
31.5617105132
  0
LINE
  8
0
 62
7
  6
CONTINUOUS
 10
159.228429528
 20
31.2390736489
 11
159.4596793074
 21
31.1422825445
  0
LINE
  8
0
 62
7
  6
CONTINUOUS
 10
160.8471793074
 20
30.9809641124
 11
160.615929528
 21
31.0777551716
  0
LINE
  8
0
 62
7
  6
CONTINUOUS
 10
159.401867028
 20
31.3681283946
 11
159.4596793074
 21
31.4326557675
  0
LINE
  8
0
 62
7
  6
CONTINUOUS
 10
149.8628043005
 20
31.4971831403
 11
149.7471793074
 21
31.4326557675
  0
LINE
  8
0
 62
7
  6
CONTINUOUS
 10
149.9784292936
 20
31.3358647082
 11
150.1518667936
 21
31.4326557675
  0
LINE
  8
0
 62
7
  6
CONTINUOUS
 10
152.2909293626
 20
31.5294468267
 11
152.1753043074
 21
31.4649194539
  0
LINE
  8
0
 62
7
  6
CONTINUOUS
 10
152.1753043074
 20
31.3358647082
 11
152.2909293626
 21
31.400392081
  0
LINE
  8
0
 62
7
  6
CONTINUOUS
 10
151.1924917523
 20
30.6905909007
 11
151.3659292523
 21
30.7873819712
  0
LINE
  8
0
 62
7
  6
CONTINUOUS
 10
150.2096793212
 20
30.6260635193
 11
150.5565542799
 21
30.5937998301
  0
LINE
  8
0
 62
7
  6
CONTINUOUS
 10
154.3143669177
 20
30.6260635193
 11
154.5456166972
 21
30.5937998301
  0
LINE
  8
0
 62
7
  6
CONTINUOUS
 10
152.6956168074
 20
31.4971831403
 11
152.9268669177
 21
31.4649194539
  0
LINE
  8
0
 62
7
  6
CONTINUOUS
 10
155.0081169177
 20
31.4971831403
 11
155.239367028
 21
31.4649194539
  0
LINE
  8
0
 62
7
  6
CONTINUOUS
 10
159.4596793074
 20
31.1422825445
 11
160.442492028
 21
30.9809641124
  0
LINE
  8
0
 62
7
  6
CONTINUOUS
 10
160.615929528
 20
31.0777551716
 11
159.6331168074
 21
31.2390736489
  0
LINE
  8
0
 62
7
  6
CONTINUOUS
 10
153.1003044177
 20
31.5939741996
 11
152.9268669177
 21
31.626237886
  0
LINE
  8
0
 62
7
  6
CONTINUOUS
 10
159.401867028
 20
30.6583272086
 11
159.575304528
 21
30.6260635193
  0
LINE
  8
0
 62
7
  6
CONTINUOUS
 10
158.2456168074
 20
31.5939741996
 11
158.0721793074
 21
31.626237886
  0
LINE
  8
0
 62
7
  6
CONTINUOUS
 10
160.5003043074
 20
31.4649194539
 11
160.615929528
 21
31.4326557675
  0
LINE
  8
0
 62
7
  6
CONTINUOUS
 10
160.6737418074
 20
30.8519093441
 11
160.615929528
 21
30.7873819712
  0
LINE
  8
0
 62
7
  6
CONTINUOUS
 10
159.228429528
 20
31.5294468267
 11
159.1128043074
 21
31.4326557675
  0
LINE
  8
0
 62
7
  6
CONTINUOUS
 10
154.1409294177
 20
31.5617105132
 11
154.0253041972
 21
31.4971831403
  0
LINE
  8
0
 62
7
  6
CONTINUOUS
 10
154.1987416972
 20
31.1745462761
 11
154.0831168074
 21
31.1100188581
  0
LINE
  8
0
 62
7
  6
CONTINUOUS
 10
154.3143669177
 20
31.0132277988
 11
154.4299918074
 21
31.0777551716
  0
LINE
  8
0
 62
7
  6
CONTINUOUS
 10
151.8862417523
 20
30.5937998301
 11
152.1753043074
 21
30.5937998301
  0
LINE
  8
0
 62
7
  6
CONTINUOUS
 10
153.2159293074
 20
30.5937998301
 11
153.5049916972
 21
30.5937998301
  0
LINE
  8
0
 62
7
  6
CONTINUOUS
 10
154.5456166972
 20
30.5937998301
 11
154.8924916972
 21
30.5937998301
  0
LINE
  8
0
 62
7
  6
CONTINUOUS
 10
155.5284290869
 20
30.5937998301
 11
155.8174918074
 21
30.5937998301
  0
LINE
  8
0
 62
7
  6
CONTINUOUS
 10
156.279992028
 20
30.5937998301
 11
156.5690540869
 21
30.5937998301
  0
LINE
  8
0
 62
7
  6
CONTINUOUS
 10
157.0315543074
 20
30.5937998301
 11
157.320617028
 21
30.5937998301
  0
LINE
  8
0
 62
7
  6
CONTINUOUS
 10
158.361242028
 20
30.5937998301
 11
158.6503040869
 21
30.5937998301
  0
LINE
  8
0
 62
7
  6
CONTINUOUS
 10
159.922179528
 20
30.5937998301
 11
160.269054528
 21
30.5937998301
  0
LINE
  8
0
 62
7
  6
CONTINUOUS
 10
160.269054528
 20
30.7228545871
 11
159.922179528
 21
30.7228545871
  0
LINE
  8
0
 62
7
  6
CONTINUOUS
 10
154.8924916972
 20
30.7228545871
 11
154.5456166972
 21
30.7228545871
  0
LINE
  8
0
 62
7
  6
CONTINUOUS
 10
159.401867028
 20
30.8519093441
 11
159.1128043074
 21
30.8519093441
  0
LINE
  8
0
 62
7
  6
CONTINUOUS
 10
151.4237418626
 20
30.9164367395
 11
151.1346793074
 21
30.9164367395
  0
LINE
  8
0
 62
7
  6
CONTINUOUS
 10
150.498741835
 20
31.4971831403
 11
150.9034292799
 21
31.4649194539
  0
LINE
  8
0
 62
7
  6
CONTINUOUS
 10
150.9612418074
 20
31.5939741996
 11
150.5565542799
 21
31.626237886
  0
LINE
  8
0
 62
7
  6
CONTINUOUS
 10
159.575304528
 20
30.6260635193
 11
159.922179528
 21
30.5937998301
  0
LINE
  8
0
 62
7
  6
CONTINUOUS
 10
159.922179528
 20
30.7228545871
 11
159.575304528
 21
30.7551182848
  0
LINE
  8
0
 62
7
  6
CONTINUOUS
 10
155.3549915869
 20
31.5939741996
 11
155.0081169177
 21
31.626237886
  0
LINE
  8
0
 62
7
  6
CONTINUOUS
 10
160.1534293074
 20
31.4971831403
 11
160.5003043074
 21
31.4649194539
  0
LINE
  8
0
 62
7
  6
CONTINUOUS
 10
160.5003043074
 20
31.5939741996
 11
160.1534293074
 21
31.626237886
  0
LINE
  8
0
 62
7
  6
CONTINUOUS
 10
157.840929528
 20
31.4971831403
 11
158.0721793074
 21
31.4649194539
  0
LINE
  8
0
 62
7
  6
CONTINUOUS
 10
160.6737418074
 20
31.5617105132
 11
160.5003043074
 21
31.5939741996
  0
LINE
  8
0
 62
7
  6
CONTINUOUS
 10
160.8471793074
 20
30.6905909007
 11
160.9628038663
 21
30.7873819712
  0
LINE
  8
0
 62
7
  6
CONTINUOUS
 10
155.3549915869
 20
30.8841730531
 11
155.1815540869
 21
30.7873819712
  0
LINE
  8
0
 62
7
  6
CONTINUOUS
 10
157.4362415869
 20
31.5294468267
 11
157.320617028
 21
31.4649194539
  0
LINE
  8
0
 62
7
  6
CONTINUOUS
 10
157.320617028
 20
31.3358647082
 11
157.4362415869
 21
31.400392081
  0
LINE
  8
0
 62
7
  6
CONTINUOUS
 10
150.0362418212
 20
31.5617105132
 11
149.8628043005
 21
31.4971831403
  0
LINE
  8
0
 62
7
  6
CONTINUOUS
 10
152.4643666972
 20
31.5939741996
 11
152.2909293626
 21
31.5294468267
  0
LINE
  8
0
 62
7
  6
CONTINUOUS
 10
152.2909293626
 20
31.400392081
 11
152.4643666972
 21
31.4649194539
  0
LINE
  8
0
 62
7
  6
CONTINUOUS
 10
151.0768668626
 20
30.8196456577
 11
150.9034292799
 21
30.7551182848
  0
LINE
  8
0
 62
7
  6
CONTINUOUS
 10
160.5003043074
 20
30.7551182848
 11
160.269054528
 21
30.7228545871
  0
LINE
  8
0
 62
7
  6
CONTINUOUS
 10
154.8924916972
 20
30.5937998301
 11
155.1815540869
 21
30.6260635193
  0
LINE
  8
0
 62
7
  6
CONTINUOUS
 10
160.269054528
 20
30.5937998301
 11
160.615929528
 21
30.6260635193
  0
LINE
  8
0
 62
7
  6
CONTINUOUS
 10
150.5565542799
 20
30.5937998301
 11
150.9612418074
 21
30.6260635193
  0
LINE
  8
0
 62
7
  6
CONTINUOUS
 10
150.9034292799
 20
30.7551182848
 11
150.498741835
 21
30.7228545871
  0
LINE
  8
0
 62
7
  6
CONTINUOUS
 10
154.7768668074
 20
31.1422825445
 11
155.412804528
 21
31.1422825445
  0
LINE
  8
0
 62
7
  6
CONTINUOUS
 10
155.412804528
 20
31.2713373354
 11
154.7768668074
 21
31.2713373354
  0
LINE
  8
0
 62
7
  6
CONTINUOUS
 10
151.1346793074
 20
31.3036010218
 11
151.4237418626
 21
31.3036010218
  0
LINE
  8
0
 62
7
  6
CONTINUOUS
 10
153.9674919177
 20
31.3681283946
 11
154.2565543074
 21
31.3681283946
  0
LINE
  8
0
 62
7
  6
CONTINUOUS
 10
160.6737418074
 20
31.3681283946
 11
160.9628038663
 21
31.3681283946
  0
LINE
  8
0
 62
7
  6
CONTINUOUS
 10
154.6612419177
 20
31.4971831403
 11
155.0081169177
 21
31.4971831403
  0
LINE
  8
0
 62
7
  6
CONTINUOUS
 10
159.8065543074
 20
31.4971831403
 11
160.1534293074
 21
31.4971831403
  0
LINE
  8
0
 62
7
  6
CONTINUOUS
 10
160.1534293074
 20
31.626237886
 11
159.8065543074
 21
31.626237886
  0
LINE
  8
0
 62
7
  6
CONTINUOUS
 10
158.0721793074
 20
31.626237886
 11
157.840929528
 21
31.626237886
  0
LINE
  8
0
 62
7
  6
CONTINUOUS
 10
157.320617028
 20
31.626237886
 11
157.0315543074
 21
31.626237886
  0
LINE
  8
0
 62
7
  6
CONTINUOUS
 10
156.5690540869
 20
31.626237886
 11
156.279992028
 21
31.626237886
  0
LINE
  8
0
 62
7
  6
CONTINUOUS
 10
155.0081169177
 20
31.626237886
 11
154.6612419177
 21
31.626237886
  0
LINE
  8
0
 62
7
  6
CONTINUOUS
 10
152.9268669177
 20
31.626237886
 11
152.6956168074
 21
31.626237886
  0
LINE
  8
0
 62
7
  6
CONTINUOUS
 10
156.279992028
 20
31.9488748406
 11
156.5690540869
 21
31.9488748406
  0
LINE
  8
0
 62
7
  6
CONTINUOUS
 10
156.5690540869
 20
32.1101932727
 11
156.279992028
 21
32.1101932727
  0
LINE
  8
0
 62
7
  6
CONTINUOUS
 10
152.1753043074
 20
32.1101932727
 11
151.8862417523
 21
32.1101932727
  0
LINE
  8
0
 62
7
  6
CONTINUOUS
 10
151.2130860697
 20
32.3970785186
 11
151.6256574183
 21
32.3970785186
  0
LINE
  8
0
 62
7
  6
CONTINUOUS
 10
152.852430332
 20
32.3970785186
 11
154.245872955
 21
32.3970785186
  0
LINE
  8
0
 62
7
  6
CONTINUOUS
 10
154.5737418074
 20
32.3970785186
 11
155.9671844304
 21
32.3970785186
  0
LINE
  8
0
 62
7
  6
CONTINUOUS
 10
157.852430332
 20
32.3970785186
 11
159.245872955
 21
32.3970785186
  0
LINE
  8
0
 62
7
  6
CONTINUOUS
 10
159.5737418074
 20
32.3970785186
 11
160.9671844304
 21
32.3970785186
  0
LINE
  8
0
 62
7
  6
CONTINUOUS
 10
157.6096790869
 20
31.5939741996
 11
157.4362415869
 21
31.5294468267
  0
LINE
  8
0
 62
7
  6
CONTINUOUS
 10
155.1815540869
 20
30.6260635193
 11
155.3549915869
 21
30.6905909007
  0
LINE
  8
0
 62
7
  6
CONTINUOUS
 10
160.615929528
 20
30.6260635193
 11
160.8471793074
 21
30.6905909007
  0
LINE
  8
0
 62
7
  6
CONTINUOUS
 10
160.615929528
 20
30.7873819712
 11
160.5003043074
 21
30.7551182848
  0
LINE
  8
0
 62
7
  6
CONTINUOUS
 10
159.575304528
 20
31.4649194539
 11
159.8065543074
 21
31.4971831403
  0
LINE
  8
0
 62
7
  6
CONTINUOUS
 10
157.6096790869
 20
31.4649194539
 11
157.840929528
 21
31.4971831403
  0
LINE
  8
0
 62
7
  6
CONTINUOUS
 10
154.5456166972
 20
31.1100188581
 11
154.7768668074
 21
31.1422825445
  0
LINE
  8
0
 62
7
  6
CONTINUOUS
 10
157.840929528
 20
31.626237886
 11
157.6096790869
 21
31.5939741996
  0
LINE
  8
0
 62
7
  6
CONTINUOUS
 10
154.4299918074
 20
31.4649194539
 11
154.6612419177
 21
31.4971831403
  0
LINE
  8
0
 62
7
  6
CONTINUOUS
 10
159.8065543074
 20
31.626237886
 11
159.4596793074
 21
31.5939741996
  0
LINE
  8
0
 62
7
  6
CONTINUOUS
 10
154.7768668074
 20
31.2713373354
 11
154.4299918074
 21
31.2390736489
  0
LINE
  8
0
 62
7
  6
CONTINUOUS
 10
150.5565542799
 20
31.626237886
 11
150.2096793212
 21
31.5939741996
  0
LINE
  8
0
 62
7
  6
CONTINUOUS
 10
154.6612419177
 20
31.626237886
 11
154.2565543074
 21
31.5939741996
  0
LINE
  8
0
 62
7
  6
CONTINUOUS
 10
152.0327582009
 20
33.5446195022
 11
151.3770204959
 21
33.5446195022
  0
LINE
  8
0
 62
7
  6
CONTINUOUS
 10
157.4362415869
 20
31.400392081
 11
157.6096790869
 21
31.4649194539
  0
LINE
  8
0
 62
7
  6
CONTINUOUS
 10
159.4596793074
 20
31.4326557675
 11
159.575304528
 21
31.4649194539
  0
LINE
  8
0
 62
7
  6
CONTINUOUS
 10
159.4596793074
 20
31.5939741996
 11
159.228429528
 21
31.5294468267
  0
LINE
  8
0
 62
7
  6
CONTINUOUS
 10
155.1815540869
 20
30.7873819712
 11
154.8924916972
 21
30.7228545871
  0
LINE
  8
0
 62
7
  6
CONTINUOUS
 10
152.4643666972
 20
31.4649194539
 11
152.6956168074
 21
31.4971831403
  0
LINE
  8
0
 62
7
  6
CONTINUOUS
 10
152.6956168074
 20
31.626237886
 11
152.4643666972
 21
31.5939741996
  0
LINE
  8
0
 62
7
  6
CONTINUOUS
 10
150.2674918074
 20
31.4649194539
 11
150.498741835
 21
31.4971831403
  0
LINE
  8
0
 62
7
  6
CONTINUOUS
 10
156.7868565615
 20
35.0200293383
 11
157.4425942664
 21
35.0200293383
  0
LINE
  8
0
 62
7
  6
CONTINUOUS
 10
154.4299918074
 20
31.0777551716
 11
154.5456166972
 21
31.1100188581
  0
LINE
  8
0
 62
7
  6
CONTINUOUS
 10
154.4299918074
 20
31.2390736489
 11
154.1987416972
 21
31.1745462761
  0
LINE
  8
0
 62
7
  6
CONTINUOUS
 10
154.3143669177
 20
31.4326557675
 11
154.4299918074
 21
31.4649194539
  0
LINE
  8
0
 62
7
  6
CONTINUOUS
 10
150.9612418074
 20
30.6260635193
 11
151.1924917523
 21
30.6905909007
  0
LINE
  8
0
 62
7
  6
CONTINUOUS
 10
154.2565543074
 20
31.5939741996
 11
154.1409294177
 21
31.5617105132
  0
LINE
  8
0
 62
7
  6
CONTINUOUS
 10
150.2096793212
 20
31.5939741996
 11
150.0362418212
 21
31.5617105132
  0
LINE
  8
0
 62
7
  6
CONTINUOUS
 10
160.9671844304
 20
36.1675703219
 11
159.5737418074
 21
36.1675703219
  0
LINE
  8
0
 62
7
  6
CONTINUOUS
 10
157.6065286927
 20
36.1675703219
 11
157.1939573441
 21
36.1675703219
  0
LINE
  8
0
 62
7
  6
CONTINUOUS
 10
155.9671844304
 20
36.1675703219
 11
154.5737418074
 21
36.1675703219
  0
LINE
  8
0
 62
7
  6
CONTINUOUS
 10
154.245872955
 20
36.1675703219
 11
152.852430332
 21
36.1675703219
  0
LINE
  8
0
 62
7
  6
CONTINUOUS
 10
150.9671844304
 20
36.1675703219
 11
149.5737418074
 21
36.1675703219
  0
LINE
  8
0
 62
7
  6
CONTINUOUS
 10
150.1518667936
 20
31.4326557675
 11
150.2674918074
 21
31.4649194539
  0
CIRCLE
  8
0
 62
7
  6
CONTINUOUS
 10
160.2704631189
 20
38.5036358957
 40
2.0901639344
  0
ARC
  8
0
 62
7
  6
CONTINUOUS
 10
151.2130860697
 20
34.0364227809
 40
1.6393442623
 50
180.0
 51
270.0
  0
ARC
  8
0
 62
7
  6
CONTINUOUS
 10
157.6065286927
 20
34.5282260596
 40
1.6393442623
 50
0.0
 51
90.0
  0
ARC
  8
0
 62
7
  6
CONTINUOUS
 10
151.6256574183
 20
33.8724883547
 40
1.4754098361
 50
270.0
 51
326.2510114041
  0
ARC
  8
0
 62
7
  6
CONTINUOUS
 10
157.1939573441
 20
34.6921604858
 40
1.4754098361
 50
90.0
 51
146.2510114041
  0
ARC
  8
0
 62
7
  6
CONTINUOUS
 10
152.0327582009
 20
34.3642916334
 40
0.8196721311
 50
270.0
 51
360.0
  0
ARC
  8
0
 62
7
  6
CONTINUOUS
 10
156.7868565615
 20
34.2003572071
 40
0.8196721311
 50
90.0
 51
180.0
  0
ARC
  8
0
 62
7
  6
CONTINUOUS
 10
151.3770204959
 20
33.9544555678
 40
0.4098360656
 50
180.0
 51
270.0
  0
ARC
  8
0
 62
7
  6
CONTINUOUS
 10
157.4425942664
 20
34.6101932727
 40
0.4098360656
 50
0.0
 51
90.0
  0
SOLID
  8
0
 62
7
  6
CONTINUOUS
 10
156.279992028
 20
31.9488752009
 11
156.279992028
 21
32.1101936845
 12
156.5690540869
 22
31.9488752009
 13
156.5690540869
 23
32.1101936845
  0
SOLID
  8
0
 62
7
  6
CONTINUOUS
 10
150.5565542799
 20
31.6262382337
 11
150.9612418074
 21
31.5939740028
 12
150.2096793212
 22
31.5939740028
 13
150.2096793212
 23
31.5939740028
  0
SOLID
  8
0
 62
7
  6
CONTINUOUS
 10
150.0362418212
 20
31.5617111435
 11
150.2096793212
 21
31.5939740028
 12
150.9612418074
 22
31.5939740028
 13
150.9612418074
 23
31.5939740028
  0
SOLID
  8
0
 62
7
  6
CONTINUOUS
 10
150.9612418074
 20
31.5939740028
 11
151.1924917523
 21
31.5294468402
 12
150.0362418212
 22
31.5617111435
 13
150.0362418212
 23
31.5617111435
  0
SOLID
  8
0
 62
7
  6
CONTINUOUS
 10
149.8628043005
 20
31.49718259
 11
150.0362418212
 21
31.5617111435
 12
151.1924917523
 22
31.5294468402
 13
151.1924917523
 23
31.5294468402
  0
SOLID
  8
0
 62
7
  6
CONTINUOUS
 10
149.8628043005
 20
31.49718259
 11
151.1924917523
 21
31.5294468402
 12
150.498741835
 22
31.49718259
 13
150.498741835
 23
31.49718259
  0
SOLID
  8
0
 62
7
  6
CONTINUOUS
 10
150.498741835
 20
31.49718259
 11
151.1924917523
 21
31.5294468402
 12
150.9034292799
 22
31.4649197501
 13
150.9034292799
 23
31.4649197501
  0
SOLID
  8
0
 62
7
  6
CONTINUOUS
 10
151.1924917523
 20
31.5294468402
 11
151.3659292523
 21
31.4326554468
 12
150.9034292799
 22
31.4649197501
 13
150.9034292799
 23
31.4649197501
  0
SOLID
  8
0
 62
7
  6
CONTINUOUS
 10
151.0768668626
 20
31.4003926599
 11
150.9034292799
 21
31.4649197501
 12
151.3659292523
 22
31.4326554468
 13
151.3659292523
 23
31.4326554468
  0
SOLID
  8
0
 62
7
  6
CONTINUOUS
 10
151.0768668626
 20
31.4003926599
 11
151.3659292523
 21
31.4326554468
 12
151.1346793074
 22
31.3036013776
 13
151.1346793074
 23
31.3036013776
  0
SOLID
  8
0
 62
7
  6
CONTINUOUS
 10
151.3659292523
 20
31.4326554468
 11
151.4237418626
 21
31.3036013776
 12
151.1346793074
 22
31.3036013776
 13
151.1346793074
 23
31.3036013776
  0
SOLID
  8
0
 62
7
  6
CONTINUOUS
 10
152.4643666972
 20
31.5939739754
 11
152.6956168074
 21
31.6262382787
 12
152.9268669177
 22
31.6262382787
 13
152.9268669177
 23
31.6262382787
  0
SOLID
  8
0
 62
7
  6
CONTINUOUS
 10
152.9268669177
 20
31.6262382787
 11
153.1003044177
 21
31.5939739754
 12
152.4643666972
 22
31.5939739754
 13
152.4643666972
 23
31.5939739754
  0
SOLID
  8
0
 62
7
  6
CONTINUOUS
 10
152.2909293626
 20
31.5294468852
 11
152.4643666972
 21
31.5939739754
 12
153.1003044177
 22
31.5939739754
 13
153.1003044177
 23
31.5939739754
  0
SOLID
  8
0
 62
7
  6
CONTINUOUS
 10
153.1003044177
 20
31.5939739754
 11
153.2737419177
 21
31.5294468852
 12
152.2909293626
 22
31.5294468852
 13
152.2909293626
 23
31.5294468852
  0
SOLID
  8
0
 62
7
  6
CONTINUOUS
 10
153.2737419177
 20
31.5294468852
 11
152.6956168074
 21
31.4971825369
 12
152.2909293626
 22
31.5294468852
 13
152.2909293626
 23
31.5294468852
  0
SOLID
  8
0
 62
7
  6
CONTINUOUS
 10
152.1753043074
 20
31.4649197951
 11
152.2909293626
 21
31.5294468852
 12
152.6956168074
 22
31.4971825369
 13
152.6956168074
 23
31.4971825369
  0
SOLID
  8
0
 62
7
  6
CONTINUOUS
 10
152.6956168074
 20
31.4971825369
 11
152.4643666972
 21
31.4649197951
 12
152.1753043074
 22
31.4649197951
 13
152.1753043074
 23
31.4649197951
  0
SOLID
  8
0
 62
7
  6
CONTINUOUS
 10
152.6956168074
 20
31.4971825369
 11
153.2737419177
 21
31.5294468852
 12
152.9268669177
 22
31.4649197951
 13
152.9268669177
 23
31.4649197951
  0
SOLID
  8
0
 62
7
  6
CONTINUOUS
 10
153.2737419177
 20
31.5294468852
 11
153.3893668074
 21
31.4649197951
 12
152.9268669177
 22
31.4649197951
 13
152.9268669177
 23
31.4649197951
  0
SOLID
  8
0
 62
7
  6
CONTINUOUS
 10
153.0424918074
 20
31.4326554468
 11
152.9268669177
 21
31.4649197951
 12
153.3893668074
 22
31.4649197951
 13
153.3893668074
 23
31.4649197951
  0
SOLID
  8
0
 62
7
  6
CONTINUOUS
 10
153.3893668074
 20
31.4649197951
 11
153.4471794177
 21
31.4003927049
 12
153.0424918074
 22
31.4326554468
 13
153.0424918074
 23
31.4326554468
  0
SOLID
  8
0
 62
7
  6
CONTINUOUS
 10
153.1581166972
 20
31.3681283566
 11
153.0424918074
 21
31.4326554468
 12
153.4471794177
 22
31.4003927049
 13
153.4471794177
 23
31.4003927049
  0
SOLID
  8
0
 62
7
  6
CONTINUOUS
 10
153.1581166972
 20
31.3681283566
 11
153.4471794177
 21
31.4003927049
 12
153.2159293074
 22
31.2390742213
 13
153.2159293074
 23
31.2390742213
  0
SOLID
  8
0
 62
7
  6
CONTINUOUS
 10
153.4471794177
 20
31.4003927049
 11
153.5049916972
 21
31.2390742213
 12
153.2159293074
 22
31.2390742213
 13
153.2159293074
 23
31.2390742213
  0
SOLID
  8
0
 62
7
  6
CONTINUOUS
 10
152.4643666972
 20
31.4649197951
 11
152.2909293626
 21
31.4003927049
 12
152.1753043074
 22
31.4649197951
 13
152.1753043074
 23
31.4649197951
  0
SOLID
  8
0
 62
7
  6
CONTINUOUS
 10
152.2909293626
 20
31.4003927049
 11
152.1753043074
 21
31.3358640533
 12
152.1753043074
 22
31.4649197951
 13
152.1753043074
 23
31.4649197951
  0
SOLID
  8
0
 62
7
  6
CONTINUOUS
 10
152.1753043074
 20
31.3358640533
 11
151.8862417523
 21
30.5938002869
 12
152.1753043074
 22
31.4649197951
 13
152.1753043074
 23
31.4649197951
  0
SOLID
  8
0
 62
7
  6
CONTINUOUS
 10
152.1753043074
 20
31.4649197951
 11
151.8862417523
 21
30.5938002869
 12
152.1753043074
 22
32.1101937295
 13
152.1753043074
 23
32.1101937295
  0
SOLID
  8
0
 62
7
  6
CONTINUOUS
 10
151.8862417523
 20
30.5938002869
 11
151.8862417523
 21
32.1101937295
 12
152.1753043074
 22
32.1101937295
 13
152.1753043074
 23
32.1101937295
  0
SOLID
  8
0
 62
7
  6
CONTINUOUS
 10
152.1753043074
 20
31.3358640533
 11
152.1753043074
 21
30.5938002869
 12
151.8862417523
 22
30.5938002869
 13
151.8862417523
 23
30.5938002869
  0
SOLID
  8
0
 62
7
  6
CONTINUOUS
 10
153.2159293074
 20
30.5938002869
 11
153.2159293074
 21
31.2390742213
 12
153.5049916972
 22
31.2390742213
 13
153.5049916972
 23
31.2390742213
  0
SOLID
  8
0
 62
7
  6
CONTINUOUS
 10
153.5049916972
 20
31.2390742213
 11
153.5049916972
 21
30.5938002869
 12
153.2159293074
 22
30.5938002869
 13
153.2159293074
 23
30.5938002869
  0
SOLID
  8
0
 62
7
  6
CONTINUOUS
 10
154.2565543074
 20
31.5939738288
 11
154.6612419177
 21
31.6262385959
 12
155.0081169177
 22
31.6262385959
 13
155.0081169177
 23
31.6262385959
  0
SOLID
  8
0
 62
7
  6
CONTINUOUS
 10
155.0081169177
 20
31.6262385959
 11
155.3549915869
 21
31.5939738288
 12
154.2565543074
 22
31.5939738288
 13
154.2565543074
 23
31.5939738288
  0
SOLID
  8
0
 62
7
  6
CONTINUOUS
 10
154.1409294177
 20
31.5617111435
 11
154.2565543074
 21
31.5939738288
 12
155.3549915869
 22
31.5939738288
 13
155.3549915869
 23
31.5939738288
  0
SOLID
  8
0
 62
7
  6
CONTINUOUS
 10
155.3549915869
 20
31.5939738288
 11
155.5284290869
 21
31.5294468402
 12
154.1409294177
 22
31.5617111435
 13
154.1409294177
 23
31.5617111435
  0
SOLID
  8
0
 62
7
  6
CONTINUOUS
 10
154.0253041972
 20
31.4971826249
 11
154.1409294177
 21
31.5617111435
 12
155.5284290869
 22
31.5294468402
 13
155.5284290869
 23
31.5294468402
  0
SOLID
  8
0
 62
7
  6
CONTINUOUS
 10
154.0253041972
 20
31.4971826249
 11
155.5284290869
 21
31.5294468402
 12
154.6612419177
 22
31.4971826249
 13
154.6612419177
 23
31.4971826249
  0
SOLID
  8
0
 62
7
  6
CONTINUOUS
 10
154.6612419177
 20
31.4971826249
 11
155.5284290869
 21
31.5294468402
 12
155.0081169177
 22
31.4971826249
 13
155.0081169177
 23
31.4971826249
  0
SOLID
  8
0
 62
7
  6
CONTINUOUS
 10
155.0081169177
 20
31.4971826249
 11
155.5284290869
 21
31.5294468402
 12
155.239367028
 22
31.4649194065
 13
155.239367028
 23
31.4649194065
  0
SOLID
  8
0
 62
7
  6
CONTINUOUS
 10
155.5284290869
 20
31.5294468402
 11
155.6440543074
 21
31.4649194065
 12
155.239367028
 22
31.4649194065
 13
155.239367028
 23
31.4649194065
  0
SOLID
  8
0
 62
7
  6
CONTINUOUS
 10
153.9674919177
 20
31.4326554138
 11
154.0253041972
 21
31.4971826249
 12
154.6612419177
 22
31.4971826249
 13
154.6612419177
 23
31.4971826249
  0
SOLID
  8
0
 62
7
  6
CONTINUOUS
 10
155.3549915869
 20
31.4326554138
 11
155.239367028
 21
31.4649194065
 12
155.6440543074
 22
31.4649194065
 13
155.6440543074
 23
31.4649194065
  0
SOLID
  8
0
 62
7
  6
CONTINUOUS
 10
155.3549915869
 20
31.4326554138
 11
155.6440543074
 21
31.4649194065
 12
155.412804528
 22
31.3681282026
 13
155.412804528
 23
31.3681282026
  0
SOLID
  8
0
 62
7
  6
CONTINUOUS
 10
155.6440543074
 20
31.4649194065
 11
155.7018665869
 21
31.3681282026
 12
155.412804528
 22
31.3681282026
 13
155.412804528
 23
31.3681282026
  0
SOLID
  8
0
 62
7
  6
CONTINUOUS
 10
155.412804528
 20
31.2713369632
 11
155.412804528
 21
31.3681282026
 12
155.7018665869
 22
31.3681282026
 13
155.7018665869
 23
31.3681282026
  0
SOLID
  8
0
 62
7
  6
CONTINUOUS
 10
155.412804528
 20
31.2713369632
 11
155.7018665869
 21
31.3681282026
 12
155.412804528
 22
31.1422827828
 13
155.412804528
 23
31.1422827828
  0
SOLID
  8
0
 62
7
  6
CONTINUOUS
 10
155.412804528
 20
31.1422827828
 11
155.7018665869
 21
31.3681282026
 12
155.412804528
 22
30.9487004259
 13
155.412804528
 23
30.9487004259
  0
SOLID
  8
0
 62
7
  6
CONTINUOUS
 10
155.7018665869
 20
31.3681282026
 11
155.7018665869
 21
30.8519086025
 12
155.412804528
 22
30.9487004259
 13
155.412804528
 23
30.9487004259
  0
SOLID
  8
0
 62
7
  6
CONTINUOUS
 10
157.6096790869
 20
31.5939736268
 11
157.840929528
 21
31.6262383465
 12
158.0721793074
 22
31.6262383465
 13
158.0721793074
 23
31.6262383465
  0
SOLID
  8
0
 62
7
  6
CONTINUOUS
 10
158.0721793074
 20
31.6262383465
 11
158.2456168074
 21
31.5939736268
 12
157.6096790869
 22
31.5939736268
 13
157.6096790869
 23
31.5939736268
  0
SOLID
  8
0
 62
7
  6
CONTINUOUS
 10
157.4362415869
 20
31.5294472848
 11
157.6096790869
 21
31.5939736268
 12
158.2456168074
 22
31.5939736268
 13
158.2456168074
 23
31.5939736268
  0
SOLID
  8
0
 62
7
  6
CONTINUOUS
 10
158.2456168074
 20
31.5939736268
 11
158.4190543074
 21
31.5294472848
 12
157.4362415869
 22
31.5294472848
 13
157.4362415869
 23
31.5294472848
  0
SOLID
  8
0
 62
7
  6
CONTINUOUS
 10
158.4190543074
 20
31.5294472848
 11
157.840929528
 21
31.4971825369
 12
157.4362415869
 22
31.5294472848
 13
157.4362415869
 23
31.5294472848
  0
SOLID
  8
0
 62
7
  6
CONTINUOUS
 10
157.320617028
 20
31.4649199103
 11
157.4362415869
 21
31.5294472848
 12
157.840929528
 22
31.4971825369
 13
157.840929528
 23
31.4971825369
  0
SOLID
  8
0
 62
7
  6
CONTINUOUS
 10
157.840929528
 20
31.4971825369
 11
157.6096790869
 21
31.4649199103
 12
157.320617028
 22
31.4649199103
 13
157.320617028
 23
31.4649199103
  0
SOLID
  8
0
 62
7
  6
CONTINUOUS
 10
157.840929528
 20
31.4971825369
 11
158.4190543074
 21
31.5294472848
 12
158.0721793074
 22
31.4649199103
 13
158.0721793074
 23
31.4649199103
  0
SOLID
  8
0
 62
7
  6
CONTINUOUS
 10
158.4190543074
 20
31.5294472848
 11
158.534679528
 21
31.4649199103
 12
158.0721793074
 22
31.4649199103
 13
158.0721793074
 23
31.4649199103
  0
SOLID
  8
0
 62
7
  6
CONTINUOUS
 10
158.187804528
 20
31.4326554468
 11
158.0721793074
 21
31.4649199103
 12
158.534679528
 22
31.4649199103
 13
158.534679528
 23
31.4649199103
  0
SOLID
  8
0
 62
7
  6
CONTINUOUS
 10
158.187804528
 20
31.4326554468
 11
158.534679528
 21
31.4649199103
 12
158.3034290869
 22
31.3681288486
 13
158.3034290869
 23
31.3681288486
  0
SOLID
  8
0
 62
7
  6
CONTINUOUS
 10
158.534679528
 20
31.4649199103
 11
158.5924918074
 21
31.3681288486
 12
158.3034290869
 22
31.3681288486
 13
158.3034290869
 23
31.3681288486
  0
SOLID
  8
0
 62
7
  6
CONTINUOUS
 10
158.361242028
 20
31.2068093799
 11
158.3034290869
 21
31.3681288486
 12
158.5924918074
 22
31.3681288486
 13
158.5924918074
 23
31.3681288486
  0
SOLID
  8
0
 62
7
  6
CONTINUOUS
 10
158.5924918074
 20
31.3681288486
 11
158.6503040869
 21
31.2068093799
 12
158.361242028
 22
31.2068093799
 13
158.361242028
 23
31.2068093799
  0
SOLID
  8
0
 62
7
  6
CONTINUOUS
 10
157.6096790869
 20
31.4649199103
 11
157.4362415869
 21
31.4003926599
 12
157.320617028
 22
31.4649199103
 13
157.320617028
 23
31.4649199103
  0
SOLID
  8
0
 62
7
  6
CONTINUOUS
 10
157.4362415869
 20
31.4003926599
 11
157.320617028
 21
31.3358640533
 12
157.320617028
 22
31.4649199103
 13
157.320617028
 23
31.4649199103
  0
SOLID
  8
0
 62
7
  6
CONTINUOUS
 10
157.320617028
 20
31.3358640533
 11
157.0315543074
 21
30.5938003547
 12
157.320617028
 22
31.4649199103
 13
157.320617028
 23
31.4649199103
  0
SOLID
  8
0
 62
7
  6
CONTINUOUS
 10
157.320617028
 20
31.4649199103
 11
157.0315543074
 21
30.5938003547
 12
157.320617028
 22
31.6262383465
 13
157.320617028
 23
31.6262383465
  0
SOLID
  8
0
 62
7
  6
CONTINUOUS
 10
157.0315543074
 20
30.5938003547
 11
157.0315543074
 21
31.6262383465
 12
157.320617028
 22
31.6262383465
 13
157.320617028
 23
31.6262383465
  0
SOLID
  8
0
 62
7
  6
CONTINUOUS
 10
157.320617028
 20
31.3358640533
 11
157.320617028
 21
30.5938003547
 12
157.0315543074
 22
30.5938003547
 13
157.0315543074
 23
30.5938003547
  0
SOLID
  8
0
 62
7
  6
CONTINUOUS
 10
158.361242028
 20
30.5938003547
 11
158.361242028
 21
31.2068093799
 12
158.6503040869
 22
31.2068093799
 13
158.6503040869
 23
31.2068093799
  0
SOLID
  8
0
 62
7
  6
CONTINUOUS
 10
158.6503040869
 20
31.2068093799
 11
158.6503040869
 21
30.5938003547
 12
158.361242028
 22
30.5938003547
 13
158.361242028
 23
30.5938003547
  0
SOLID
  8
0
 62
7
  6
CONTINUOUS
 10
159.4596793074
 20
31.5939739474
 11
159.8065543074
 21
31.6262381969
 12
160.1534293074
 22
31.6262381969
 13
160.1534293074
 23
31.6262381969
  0
SOLID
  8
0
 62
7
  6
CONTINUOUS
 10
160.1534293074
 20
31.6262381969
 11
160.5003043074
 21
31.5939739474
 12
159.4596793074
 22
31.5939739474
 13
159.4596793074
 23
31.5939739474
  0
SOLID
  8
0
 62
7
  6
CONTINUOUS
 10
159.228429528
 20
31.5294468402
 11
159.4596793074
 21
31.5939739474
 12
160.5003043074
 22
31.5939739474
 13
160.5003043074
 23
31.5939739474
  0
SOLID
  8
0
 62
7
  6
CONTINUOUS
 10
159.228429528
 20
31.5294468402
 11
160.5003043074
 21
31.5939739304
 12
160.6737418074
 22
31.5617111435
 13
160.6737418074
 23
31.5617111435
  0
SOLID
  8
0
 62
7
  6
CONTINUOUS
 10
159.228429528
 20
31.5294468402
 11
160.6737418074
 21
31.5617111435
 12
159.8065543074
 22
31.4971825592
 13
159.8065543074
 23
31.4971825592
  0
SOLID
  8
0
 62
7
  6
CONTINUOUS
 10
159.8065543074
 20
31.4971825592
 11
160.6737418074
 21
31.5617111435
 12
160.1534293074
 22
31.4971825592
 13
160.1534293074
 23
31.4971825592
  0
SOLID
  8
0
 62
7
  6
CONTINUOUS
 10
160.6737418074
 20
31.5617111435
 11
160.8471793074
 21
31.4971825592
 12
160.1534293074
 22
31.4971825592
 13
160.1534293074
 23
31.4971825592
  0
SOLID
  8
0
 62
7
  6
CONTINUOUS
 10
160.5003043074
 20
31.4649197501
 11
160.1534293074
 21
31.4971825592
 12
160.8471793074
 22
31.4971825592
 13
160.8471793074
 23
31.4971825592
  0
SOLID
  8
0
 62
7
  6
CONTINUOUS
 10
159.1128043074
 20
31.4326555427
 11
159.228429528
 21
31.5294468402
 12
159.8065543074
 22
31.4971825592
 13
159.8065543074
 23
31.4971825592
  0
SOLID
  8
0
 62
7
  6
CONTINUOUS
 10
160.5003043074
 20
31.4649197501
 11
160.8471793074
 21
31.4971825592
 12
160.615929528
 22
31.4326555427
 13
160.615929528
 23
31.4326555427
  0
SOLID
  8
0
 62
7
  6
CONTINUOUS
 10
160.615929528
 20
31.4326555427
 11
160.8471793074
 21
31.4971825592
 12
160.6737418074
 22
31.3681283005
 13
160.6737418074
 23
31.3681283005
  0
SOLID
  8
0
 62
7
  6
CONTINUOUS
 10
160.8471793074
 20
31.4971825592
 11
160.9628038663
 21
31.3681283005
 12
160.6737418074
 22
31.3681283005
 13
160.6737418074
 23
31.3681283005
  0
SOLID
  8
0
 62
7
  6
CONTINUOUS
 10
150.2674918074
 20
31.4649197501
 11
149.7471793074
 21
31.4326554237
 12
150.498741835
 22
31.4971824493
 13
150.498741835
 23
31.4971824493
  0
SOLID
  8
0
 62
7
  6
CONTINUOUS
 10
149.7471793074
 20
31.4326554237
 11
149.8628043005
 21
31.4971824493
 12
150.498741835
 22
31.4971824493
 13
150.498741835
 23
31.4971824493
  0
SOLID
  8
0
 62
7
  6
CONTINUOUS
 10
150.2674918074
 20
31.4649197501
 11
150.1518667936
 21
31.4326554237
 12
149.7471793074
 22
31.4326554237
 13
149.7471793074
 23
31.4326554237
  0
SOLID
  8
0
 62
7
  6
CONTINUOUS
 10
149.6315543091
 20
31.3036012664
 11
149.7471793074
 21
31.4326554237
 12
150.1518667936
 22
31.4326554237
 13
150.1518667936
 23
31.4326554237
  0
SOLID
  8
0
 62
7
  6
CONTINUOUS
 10
153.9674919177
 20
31.4326554237
 11
154.6612419177
 21
31.4971825369
 12
154.4299918074
 22
31.4649197501
 13
154.4299918074
 23
31.4649197501
  0
SOLID
  8
0
 62
7
  6
CONTINUOUS
 10
154.4299918074
 20
31.4649197501
 11
154.3143669177
 21
31.4326554237
 12
153.9674919177
 22
31.4326554237
 13
153.9674919177
 23
31.4326554237
  0
SOLID
  8
0
 62
7
  6
CONTINUOUS
 10
153.9674919177
 20
31.3681283335
 11
153.9674919177
 21
31.4326554237
 12
154.3143669177
 22
31.4326554237
 13
154.3143669177
 23
31.4326554237
  0
SOLID
  8
0
 62
7
  6
CONTINUOUS
 10
154.3143669177
 20
31.4326554237
 11
154.2565543074
 21
31.3681283335
 12
153.9674919177
 22
31.3681283335
 13
153.9674919177
 23
31.3681283335
  0
SOLID
  8
0
 62
7
  6
CONTINUOUS
 10
159.1128043074
 20
31.4326555528
 11
159.8065543074
 21
31.4971825369
 12
159.575304528
 22
31.4649197501
 13
159.575304528
 23
31.4649197501
  0
SOLID
  8
0
 62
7
  6
CONTINUOUS
 10
159.575304528
 20
31.4649197501
 11
159.4596793074
 21
31.4326555528
 12
159.1128043074
 22
31.4326555528
 13
159.1128043074
 23
31.4326555528
  0
SOLID
  8
0
 62
7
  6
CONTINUOUS
 10
159.1128043074
 20
31.3681284626
 11
159.1128043074
 21
31.4326555528
 12
159.4596793074
 22
31.4326555528
 13
159.4596793074
 23
31.4326555528
  0
SOLID
  8
0
 62
7
  6
CONTINUOUS
 10
159.4596793074
 20
31.4326555528
 11
159.401867028
 21
31.3681284626
 12
159.1128043074
 22
31.3681284626
 13
159.1128043074
 23
31.3681284626
  0
SOLID
  8
0
 62
7
  6
CONTINUOUS
 10
159.228429528
 20
31.2390741763
 11
159.1128043074
 21
31.3681284626
 12
159.401867028
 22
31.3681284626
 13
159.401867028
 23
31.3681284626
  0
SOLID
  8
0
 62
7
  6
CONTINUOUS
 10
149.6315543091
 20
31.3036012664
 11
150.1518667936
 21
31.4326554468
 12
149.9784292936
 22
31.3358640533
 13
149.9784292936
 23
31.3358640533
  0
SOLID
  8
0
 62
7
  6
CONTINUOUS
 10
149.9784292936
 20
31.3358640533
 11
149.9206168074
 21
31.2713369632
 12
149.6315543091
 22
31.3036012664
 13
149.6315543091
 23
31.3036012664
  0
SOLID
  8
0
 62
7
  6
CONTINUOUS
 10
149.5737418074
 20
31.1100184796
 11
149.6315543091
 21
31.3036012664
 12
149.9206168074
 22
31.2713369632
 13
149.9206168074
 23
31.2713369632
  0
SOLID
  8
0
 62
7
  6
CONTINUOUS
 10
154.4299918074
 20
31.2390741763
 11
154.7768668074
 21
31.271336924
 12
155.412804528
 22
31.271336924
 13
155.412804528
 23
31.271336924
  0
SOLID
  8
0
 62
7
  6
CONTINUOUS
 10
154.4299918074
 20
31.2390741763
 11
155.412804528
 21
31.271336924
 12
154.1987416972
 22
31.1745462761
 13
154.1987416972
 23
31.1745462761
  0
SOLID
  8
0
 62
7
  6
CONTINUOUS
 10
154.1987416972
 20
31.1745462761
 11
155.412804528
 21
31.271336924
 12
154.7768668074
 22
31.1422827436
 13
154.7768668074
 23
31.1422827436
  0
SOLID
  8
0
 62
7
  6
CONTINUOUS
 10
155.412804528
 20
31.271336924
 11
155.412804528
 21
31.1422827436
 12
154.7768668074
 22
31.1422827436
 13
154.7768668074
 23
31.1422827436
  0
SOLID
  8
0
 62
7
  6
CONTINUOUS
 10
159.228429528
 20
31.2390745501
 11
159.401867028
 21
31.3681283566
 12
159.4596793074
 22
31.3036012664
 13
159.4596793074
 23
31.3036012664
  0
SOLID
  8
0
 62
7
  6
CONTINUOUS
 10
159.4596793074
 20
31.3036012664
 11
159.6331168074
 21
31.2390745501
 12
159.228429528
 22
31.2390745501
 13
159.228429528
 23
31.2390745501
  0
SOLID
  8
0
 62
7
  6
CONTINUOUS
 10
159.4596793074
 20
31.1422827828
 11
159.228429528
 21
31.2390745501
 12
159.6331168074
 22
31.2390745501
 13
159.6331168074
 23
31.2390745501
  0
SOLID
  8
0
 62
7
  6
CONTINUOUS
 10
159.6331168074
 20
31.2390745501
 11
160.615929528
 21
31.0777556927
 12
159.4596793074
 22
31.1422827828
 13
159.4596793074
 23
31.1422827828
  0
SOLID
  8
0
 62
7
  6
CONTINUOUS
 10
160.442492028
 20
30.9809646623
 11
159.4596793074
 21
31.1422827828
 12
160.615929528
 22
31.0777556927
 13
160.615929528
 23
31.0777556927
  0
SOLID
  8
0
 62
7
  6
CONTINUOUS
 10
160.615929528
 20
31.0777556927
 11
160.8471793074
 21
30.9809646623
 12
160.442492028
 22
30.9809646623
 13
160.442492028
 23
30.9809646623
  0
SOLID
  8
0
 62
7
  6
CONTINUOUS
 10
160.615929528
 20
30.9164372091
 11
160.442492028
 21
30.9809646623
 12
160.8471793074
 22
30.9809646623
 13
160.8471793074
 23
30.9809646623
  0
SOLID
  8
0
 62
7
  6
CONTINUOUS
 10
160.615929528
 20
30.9164372091
 11
160.8471793074
 21
30.9809646623
 12
160.6737418074
 22
30.8519089441
 13
160.6737418074
 23
30.8519089441
  0
SOLID
  8
0
 62
7
  6
CONTINUOUS
 10
160.8471793074
 20
30.9809646623
 11
160.9628038663
 21
30.8519089441
 12
160.6737418074
 22
30.8519089441
 13
160.6737418074
 23
30.8519089441
  0
SOLID
  8
0
 62
7
  6
CONTINUOUS
 10
160.615929528
 20
30.7873818593
 11
160.6737418074
 21
30.8519089441
 12
160.9628038663
 22
30.8519089441
 13
160.9628038663
 23
30.8519089441
  0
SOLID
  8
0
 62
7
  6
CONTINUOUS
 10
160.9628038663
 20
30.8519089441
 11
160.9628038663
 21
30.7873818593
 12
160.615929528
 22
30.7873818593
 13
160.615929528
 23
30.7873818593
  0
SOLID
  8
0
 62
7
  6
CONTINUOUS
 10
160.5003043074
 20
30.7551187255
 11
160.615929528
 21
30.7873818593
 12
160.9628038663
 22
30.7873818593
 13
160.9628038663
 23
30.7873818593
  0
SOLID
  8
0
 62
7
  6
CONTINUOUS
 10
160.5003043074
 20
30.7551187255
 11
160.9628038663
 21
30.7873818593
 12
160.269054528
 22
30.7228547745
 13
160.269054528
 23
30.7228547745
  0
SOLID
  8
0
 62
7
  6
CONTINUOUS
 10
160.9628038663
 20
30.7873818593
 11
160.8471793074
 21
30.6905916353
 12
160.269054528
 22
30.7228547745
 13
160.269054528
 23
30.7228547745
  0
SOLID
  8
0
 62
7
  6
CONTINUOUS
 10
160.8471793074
 20
30.6905916353
 11
159.401867028
 21
30.658327332
 12
160.269054528
 22
30.7228547745
 13
160.269054528
 23
30.7228547745
  0
SOLID
  8
0
 62
7
  6
CONTINUOUS
 10
160.269054528
 20
30.7228547745
 11
159.401867028
 21
30.658327332
 12
159.922179528
 22
30.7228547745
 13
159.922179528
 23
30.7228547745
  0
SOLID
  8
0
 62
7
  6
CONTINUOUS
 10
159.401867028
 20
30.658327332
 11
159.228429528
 21
30.7228547745
 12
159.922179528
 22
30.7228547745
 13
159.922179528
 23
30.7228547745
  0
SOLID
  8
0
 62
7
  6
CONTINUOUS
 10
159.401867028
 20
30.658327332
 11
160.8471793074
 21
30.6905916353
 12
159.575304528
 22
30.6260629858
 13
159.575304528
 23
30.6260629858
  0
SOLID
  8
0
 62
7
  6
CONTINUOUS
 10
160.8471793074
 20
30.6905916353
 11
160.615929528
 21
30.6260629858
 12
159.575304528
 22
30.6260629858
 13
159.575304528
 23
30.6260629858
  0
SOLID
  8
0
 62
7
  6
CONTINUOUS
 10
159.922179528
 20
30.5938006049
 11
159.575304528
 21
30.6260629858
 12
160.615929528
 22
30.6260629858
 13
160.615929528
 23
30.6260629858
  0
SOLID
  8
0
 62
7
  6
CONTINUOUS
 10
160.615929528
 20
30.6260629858
 11
160.269054528
 21
30.5938006049
 12
159.922179528
 22
30.5938006049
 13
159.922179528
 23
30.5938006049
  0
SOLID
  8
0
 62
7
  6
CONTINUOUS
 10
149.5737418074
 20
31.1100184796
 11
149.9206168074
 21
31.2713369632
 12
149.8628043005
 22
31.1422827828
 13
149.8628043005
 23
31.1422827828
  0
SOLID
  8
0
 62
7
  6
CONTINUOUS
 10
149.8628043005
 20
31.1422827828
 11
149.8628043005
 21
31.0454914852
 12
149.5737418074
 22
31.1100184796
 13
149.5737418074
 23
31.1100184796
  0
SOLID
  8
0
 62
7
  6
CONTINUOUS
 10
149.6315543091
 20
30.9164372091
 11
149.5737418074
 21
31.1100184796
 12
149.8628043005
 22
31.0454914852
 13
149.8628043005
 23
31.0454914852
  0
SOLID
  8
0
 62
7
  6
CONTINUOUS
 10
149.8628043005
 20
31.0454914852
 11
149.9784292936
 21
30.8841729058
 12
149.6315543091
 22
30.9164372091
 13
149.6315543091
 23
30.9164372091
  0
SOLID
  8
0
 62
7
  6
CONTINUOUS
 10
149.7471793074
 20
30.7873813202
 11
149.6315543091
 21
30.9164372091
 12
149.9784292936
 22
30.8841729058
 13
149.9784292936
 23
30.8841729058
  0
SOLID
  8
0
 62
7
  6
CONTINUOUS
 10
149.9784292936
 20
30.8841729058
 11
150.1518667936
 21
30.7873813202
 12
149.7471793074
 22
30.7873813202
 13
149.7471793074
 23
30.7873813202
  0
SOLID
  8
0
 62
7
  6
CONTINUOUS
 10
149.8628043005
 20
30.7228547004
 11
149.7471793074
 21
30.7873813202
 12
150.1518667936
 22
30.7873813202
 13
150.1518667936
 23
30.7873813202
  0
SOLID
  8
0
 62
7
  6
CONTINUOUS
 10
150.1518667936
 20
30.7873813202
 11
150.498741835
 21
30.7228547004
 12
149.8628043005
 22
30.7228547004
 13
149.8628043005
 23
30.7228547004
  0
SOLID
  8
0
 62
7
  6
CONTINUOUS
 10
150.0362418212
 20
30.658327332
 11
149.8628043005
 21
30.7228547004
 12
150.498741835
 22
30.7228547004
 13
150.498741835
 23
30.7228547004
  0
SOLID
  8
0
 62
7
  6
CONTINUOUS
 10
154.0831168074
 20
31.1100184386
 11
154.1987416972
 21
31.1745462761
 12
154.7768668074
 22
31.1422827828
 13
154.7768668074
 23
31.1422827828
  0
SOLID
  8
0
 62
7
  6
CONTINUOUS
 10
154.7768668074
 20
31.1422827828
 11
154.5456166972
 21
31.1100184386
 12
154.0831168074
 22
31.1100184386
 13
154.0831168074
 23
31.1100184386
  0
SOLID
  8
0
 62
7
  6
CONTINUOUS
 10
153.9674919177
 20
30.9809642992
 11
154.0831168074
 21
31.1100184386
 12
154.5456166972
 22
31.1100184386
 13
154.5456166972
 23
31.1100184386
  0
SOLID
  8
0
 62
7
  6
CONTINUOUS
 10
154.3143669177
 20
31.0132277988
 11
153.9674919177
 21
30.9809642992
 12
154.4299918074
 22
31.0777556927
 13
154.4299918074
 23
31.0777556927
  0
SOLID
  8
0
 62
7
  6
CONTINUOUS
 10
153.9674919177
 20
30.9809642992
 11
154.5456166972
 21
31.1100184796
 12
154.4299918074
 22
31.0777556927
 13
154.4299918074
 23
31.0777556927
  0
SOLID
  8
0
 62
7
  6
CONTINUOUS
 10
154.3143669177
 20
31.0132277988
 11
154.2565543074
 21
30.9164372091
 12
153.9674919177
 22
30.9809642992
 13
153.9674919177
 23
30.9809642992
  0
SOLID
  8
0
 62
7
  6
CONTINUOUS
 10
153.9674919177
 20
30.8841729058
 11
153.9674919177
 21
30.9809642992
 12
154.2565543074
 22
30.9164372091
 13
154.2565543074
 23
30.9164372091
  0
SOLID
  8
0
 62
7
  6
CONTINUOUS
 10
154.2565543074
 20
30.9164372091
 11
154.2565543074
 21
30.8519086025
 12
153.9674919177
 22
30.8841729058
 13
153.9674919177
 23
30.8841729058
  0
SOLID
  8
0
 62
7
  6
CONTINUOUS
 10
154.0253041972
 20
30.7551187255
 11
153.9674919177
 21
30.8841729058
 12
154.2565543074
 22
30.8519086025
 13
154.2565543074
 23
30.8519086025
  0
SOLID
  8
0
 62
7
  6
CONTINUOUS
 10
155.412804528
 20
30.9487004259
 11
155.7018665869
 21
30.8519086025
 12
155.3549915869
 22
30.8841729058
 13
155.3549915869
 23
30.8841729058
  0
SOLID
  8
0
 62
7
  6
CONTINUOUS
 10
155.1815540869
 20
30.7873815123
 11
155.3549915869
 21
30.8841729058
 12
155.7018665869
 22
30.8519086025
 13
155.7018665869
 23
30.8519086025
  0
SOLID
  8
0
 62
7
  6
CONTINUOUS
 10
155.1815540869
 20
30.7873815123
 11
155.7018665869
 21
30.8519086025
 12
155.412804528
 22
30.7551187255
 13
155.412804528
 23
30.7551187255
  0
SOLID
  8
0
 62
7
  6
CONTINUOUS
 10
155.7018665869
 20
30.8519086025
 11
155.759679528
 21
30.6905916353
 12
155.412804528
 22
30.7551187255
 13
155.412804528
 23
30.7551187255
  0
SOLID
  8
0
 62
7
  6
CONTINUOUS
 10
155.4706168074
 20
30.658327332
 11
155.412804528
 21
30.7551187255
 12
155.759679528
 22
30.6905916353
 13
155.759679528
 23
30.6905916353
  0
SOLID
  8
0
 62
7
  6
CONTINUOUS
 10
155.4706168074
 20
30.658327332
 11
155.759679528
 21
30.6905916353
 12
155.5284290869
 22
30.5938002079
 13
155.5284290869
 23
30.5938002079
  0
SOLID
  8
0
 62
7
  6
CONTINUOUS
 10
155.759679528
 20
30.6905916353
 11
155.8174918074
 21
30.5938002079
 12
155.5284290869
 22
30.5938002079
 13
155.5284290869
 23
30.5938002079
  0
SOLID
  8
0
 62
7
  6
CONTINUOUS
 10
151.0768668626
 20
30.8196456577
 11
151.1346793074
 21
30.9164373395
 12
151.4237418626
 22
30.9164373395
 13
151.4237418626
 23
30.9164373395
  0
SOLID
  8
0
 62
7
  6
CONTINUOUS
 10
151.4237418626
 20
30.9164373395
 11
151.3659292523
 21
30.7873815123
 12
151.0768668626
 22
30.8196456577
 13
151.0768668626
 23
30.8196456577
  0
SOLID
  8
0
 62
7
  6
CONTINUOUS
 10
150.9034292799
 20
30.7551187255
 11
151.0768668626
 21
30.8196456577
 12
151.3659292523
 22
30.7873815123
 13
151.3659292523
 23
30.7873815123
  0
SOLID
  8
0
 62
7
  6
CONTINUOUS
 10
150.9034292799
 20
30.7551187255
 11
151.3659292523
 21
30.7873815123
 12
150.498741835
 22
30.7228544222
 13
150.498741835
 23
30.7228544222
  0
SOLID
  8
0
 62
7
  6
CONTINUOUS
 10
151.3659292523
 20
30.7873815123
 11
151.1924917523
 21
30.6905916353
 12
150.498741835
 22
30.7228544222
 13
150.498741835
 23
30.7228544222
  0
SOLID
  8
0
 62
7
  6
CONTINUOUS
 10
150.0362418212
 20
30.658327332
 11
150.498741835
 21
30.7228544222
 12
151.1924917523
 22
30.6905916353
 13
151.1924917523
 23
30.6905916353
  0
SOLID
  8
0
 62
7
  6
CONTINUOUS
 10
150.0362418212
 20
30.658327332
 11
151.1924917523
 21
30.6905916353
 12
150.2096793212
 22
30.6260631011
 13
150.2096793212
 23
30.6260631011
  0
SOLID
  8
0
 62
7
  6
CONTINUOUS
 10
151.1924917523
 20
30.6905916353
 11
150.9612418074
 21
30.6260631011
 12
150.2096793212
 22
30.6260631011
 13
150.2096793212
 23
30.6260631011
  0
SOLID
  8
0
 62
7
  6
CONTINUOUS
 10
150.5565542799
 20
30.5938002419
 11
150.2096793212
 21
30.6260631011
 12
150.9612418074
 22
30.6260631011
 13
150.9612418074
 23
30.6260631011
  0
SOLID
  8
0
 62
7
  6
CONTINUOUS
 10
154.0253041972
 20
30.7551187255
 11
154.2565543074
 21
30.8519086025
 12
154.3143669177
 22
30.7873815123
 13
154.3143669177
 23
30.7873815123
  0
SOLID
  8
0
 62
7
  6
CONTINUOUS
 10
154.3143669177
 20
30.7873815123
 11
154.5456166972
 21
30.7228544222
 12
154.0253041972
 22
30.7551187255
 13
154.0253041972
 23
30.7551187255
  0
SOLID
  8
0
 62
7
  6
CONTINUOUS
 10
154.1987416972
 20
30.658327332
 11
154.0253041972
 21
30.7551187255
 12
154.5456166972
 22
30.7228544222
 13
154.5456166972
 23
30.7228544222
  0
SOLID
  8
0
 62
7
  6
CONTINUOUS
 10
154.8924916972
 20
30.7228544637
 11
155.1815540869
 21
30.7873815123
 12
155.412804528
 22
30.7551187255
 13
155.412804528
 23
30.7551187255
  0
SOLID
  8
0
 62
7
  6
CONTINUOUS
 10
155.412804528
 20
30.7551187255
 11
155.3549915869
 21
30.6905916353
 12
154.8924916972
 22
30.7228544637
 13
154.8924916972
 23
30.7228544637
  0
SOLID
  8
0
 62
7
  6
CONTINUOUS
 10
155.3549915869
 20
30.6905916353
 11
154.1987416972
 21
30.658327332
 12
154.8924916972
 22
30.7228544637
 13
154.8924916972
 23
30.7228544637
  0
SOLID
  8
0
 62
7
  6
CONTINUOUS
 10
154.1987416972
 20
30.658327332
 11
154.5456166972
 21
30.7228544637
 12
154.8924916972
 22
30.7228544637
 13
154.8924916972
 23
30.7228544637
  0
SOLID
  8
0
 62
7
  6
CONTINUOUS
 10
154.1987416972
 20
30.658327332
 11
155.3549915869
 21
30.6905916353
 12
154.3143669177
 22
30.6260630541
 13
154.3143669177
 23
30.6260630541
  0
SOLID
  8
0
 62
7
  6
CONTINUOUS
 10
155.3549915869
 20
30.6905916353
 11
155.1815540869
 21
30.6260630541
 12
154.3143669177
 22
30.6260630541
 13
154.3143669177
 23
30.6260630541
  0
SOLID
  8
0
 62
7
  6
CONTINUOUS
 10
154.5456166972
 20
30.5938002188
 11
154.3143669177
 21
30.6260630541
 12
155.1815540869
 22
30.6260630541
 13
155.1815540869
 23
30.6260630541
  0
SOLID
  8
0
 62
7
  6
CONTINUOUS
 10
155.1815540869
 20
30.6260630541
 11
154.8924916972
 21
30.5938002188
 12
154.5456166972
 22
30.5938002188
 13
154.5456166972
 23
30.5938002188
  0
SOLID
  8
0
 62
7
  6
CONTINUOUS
 10
159.575304528
 20
30.7551187255
 11
159.228429528
 21
30.7228544637
 12
159.4596793074
 22
30.7873815123
 13
159.4596793074
 23
30.7873815123
  0
SOLID
  8
0
 62
7
  6
CONTINUOUS
 10
159.4596793074
 20
30.7873815123
 11
159.228429528
 21
30.7228544637
 12
159.401867028
 22
30.851908644
 13
159.401867028
 23
30.851908644
  0
SOLID
  8
0
 62
7
  6
CONTINUOUS
 10
159.228429528
 20
30.7228544637
 11
159.1128043074
 21
30.851908644
 12
159.401867028
 22
30.851908644
 13
159.401867028
 23
30.851908644
  0
SOLID
  8
0
 62
7
  6
CONTINUOUS
 10
159.575304528
 20
30.7551187255
 11
159.922179528
 21
30.7228544637
 12
159.228429528
 22
30.7228544637
 13
159.228429528
 23
30.7228544637
  0
SOLID
  8
0
 62
7
  6
CONTINUOUS
 10
156.279992028
 20
30.5938002419
 11
156.279992028
 21
31.6262382337
 12
156.5690540869
 22
30.5938002419
 13
156.5690540869
 23
31.6262382337
  0
ENDBLK
  8
0
  6
BYBLOCK
 62
0
  0
BLOCK
  8
0
 62
2
  6
CONTINUOUS
  2
SYMBOL_3_BL0
 70
64
 10
32.1213064866
 20
19.8534310916
  0
TEXT
  8
0
 62
7
  6
CONTINUOUS
 10
18.3860103289
 20
19.2268451992
  7
TEXTSTYLE_3
 40
2.7338706658
  1
Ammeraal Beltech
 41
1.0
 51
15.0
 72
0
  0
TEXT
  8
0
 62
7
  6
CONTINUOUS
 10
29.1868111546
 20
16.9533085264
  7
TEXTSTYLE_4
 40
1.0935482663
  1
Innovation & Service in Belting
 41
1.0
 72
0
  0
LINE
  8
0
 62
7
  6
CONTINUOUS
 10
12.3614696776
 20
19.9934385078
 11
13.1396216709
 21
23.6543558055
  0
LINE
  8
0
 62
7
  6
CONTINUOUS
 10
23.2347899607
 20
27.3177497171
 11
13.6274394139
 21
24.1961322958
  0
LINE
  8
0
 62
7
  6
CONTINUOUS
 10
12.5867530099
 20
19.3000877048
 11
20.093828271
 21
12.5406867788
  0
LINE
  8
0
 62
7
  6
CONTINUOUS
 10
12.8492874206
 20
20.5352149982
 11
23.6575567857
 21
24.0470345971
  0
LINE
  8
0
 62
7
  6
CONTINUOUS
 10
23.6533516486
 20
13.6972460334
 11
15.2078919798
 21
21.3015720751
  0
LINE
  8
0
 62
7
  6
CONTINUOUS
 10
24.1731743684
 20
26.4728246013
 11
23.1966148312
 21
21.8784731989
  0
LINE
  8
0
 62
7
  6
CONTINUOUS
 10
22.4968128835
 20
18.5861638851
 11
21.810364672
 21
15.3566789607
  0
LINE
  8
0
 62
7
  6
CONTINUOUS
 10
24.8542704669
 20
14.087448211
 11
25.8105020025
 21
18.5861638851
  0
LINE
  8
0
 62
7
  6
CONTINUOUS
 10
26.5103039502
 20
21.8784731989
 11
26.9545457526
 21
23.9684665583
  0
LINE
  8
0
 62
7
  6
CONTINUOUS
 10
20.8069293463
 20
12.3891124661
 11
24.3664527239
 21
13.5456717207
  0
LINE
  8
0
 62
7
  6
CONTINUOUS
 10
23.9478910361
 20
27.1661754044
 11
26.7292624203
 21
24.6618173613
  0
ARC
  8
0
 62
7
  6
CONTINUOUS
 10
13.8527227462
 20
23.5027814928
 40
0.7290321776
 50
108.0
 51
168.0
  0
ARC
  8
0
 62
7
  6
CONTINUOUS
 10
23.4600732931
 20
26.624398914
 40
0.7290321776
 50
348.0
 51
108.0
  0
ARC
  8
0
 62
7
  6
CONTINUOUS
 10
26.2414446773
 20
24.120040871
 40
0.7290321776
 50
348.0
 51
48.0
  0
ARC
  8
0
 62
7
  6
CONTINUOUS
 10
20.581646014
 20
13.0824632691
 40
0.7290321776
 50
228.0
 51
288.0
  0
ARC
  8
0
 62
7
  6
CONTINUOUS
 10
13.0745707529
 20
19.8418641951
 40
0.7290321776
 50
108.0
 51
228.0
  0
ARC
  8
0
 62
7
  6
CONTINUOUS
 10
24.1411693916
 20
14.2390225237
 40
0.7290321776
 50
228.0
 51
348.0
  0
ENDBLK
  8
0
  6
BYBLOCK
 62
0
  0
ENDSEC
  0
SECTION
  2
ENTITIES
  0
TEXT
  8
0
 62
5
  6
CONTINUOUS
 10
96.0
 20
25.636
  7
TEXTSTYLE_2
 40
2.8
  1
Scale :
 41
0.6
 51
0.000019
 72
0
  0
TEXT
  8
0
 62
5
  6
CONTINUOUS
 10
116.0
 20
25.636
  7
TEXTSTYLE_2
 40
2.8
  1
Belt type:
 41
0.6
 51
0.000019
 72
0
  0
INSERT
  8
0
 62
2
  6
CONTINUOUS
  2
SYMBOL_3_BL0
 10
32.1213064866
 20
19.8534310916
  0
INSERT
  8
0
 62
2
  6
CONTINUOUS
  2
SYMBOL_8_BL1
 10
173.5956734183
 20
35.5937998301
  0
LINE
  8
0
 62
2
  6
CONTINUOUS
 10
10.0
 20
30.0
 11
200.0
 21
30.0
  0
LINE
  8
0
 62
2
  6
CONTINUOUS
 10
10.0
 20
30.0
 11
10.0
 21
10.0
  0
LINE
  8
0
 62
2
  6
CONTINUOUS
 10
10.0
 20
10.0
 11
200.0
 21
10.0
  0
LINE
  8
0
 62
2
  6
CONTINUOUS
 10
95.0
 20
30.0
 11
95.0
 21
10.0
  0
LINE
  8
0
 62
2
  6
CONTINUOUS
 10
115.0
 20
30.0
 11
115.0
 21
10.0
  0
LINE
  8
0
 62
2
  6
CONTINUOUS
 10
200.0
 20
30.0
 11
200.0
 21
10.0
  0
TEXT
  8
0
 62
5
  6
CONTINUOUS
 10
13.0
 20
23.303
  7
TEXTSTYLE_5
 40
1.52
  1
                                                                     Ammeraal Beltech Modular A/S
 41
1.0
 72
0
  0
TEXT
  8
0
 62
5
  6
CONTINUOUS
 10
13.0
 20
20.595
  7
TEXTSTYLE_5
 40
1.5
  1
                                                                      Hjulmagervej 21,  7100 Vejle,  DK
 41
1.0
 72
0
  0
TEXT
  8
0
 62
5
  6
CONTINUOUS
 10
13.0
 20
17.881
  7
TEXTSTYLE_5
 40
1.495
  1
                                                                      tel: 
 41
1.0
 72
0
  0
TEXT
  8
0
 62
5
  6
CONTINUOUS
 10
57.9869465649
 20
17.881
  7
TEXTSTYLE_5
 40
1.51
  1
+45 75723100     fax: +45 75723348
 41
1.0
 72
0
  0
TEXT
  8
0
 62
5
  6
CONTINUOUS
 10
13.0
 20
15.177
  7
TEXTSTYLE_5
 40
1.5
  1
                                                                      admin@unichains.dk  www.unichains.com
 41
1.0
 72
0
  0
TEXT
  8
0
 62
5
  6
CONTINUOUS
 10
99.75
 20
13.75
  7
TEXTSTYLE_6
 40
5.0
  1
1:1
 41
0.7
 72
1
 11
105.0
 21
13.75
  0
TEXT
  8
0
 62
5
  6
CONTINUOUS
 10
118.0
 20
13.75
  7
TEXTSTYLE_7
 40
7.5
  1
uni QNB C TAB K150
 41
0.5710069444
 72
0
  0
LINE
  8
0
 62
7
  6
CONTINUOUS
 10
210.0
 20
0.0
 11
0.0
 21
0.0
  0
LINE
  8
0
 62
7
  6
CONTINUOUS
 10
10.0
 20
10.0
 11
200.0
 21
10.0
  0
LINE
  8
0
 62
7
  6
CONTINUOUS
 10
10.0
 20
30.0
 11
200.0
 21
30.0
  0
LINE
  8
0
 62
7
  6
CONTINUOUS
 10
0.0
 20
0.0
 11
0.0
 21
297.0
  0
LINE
  8
0
 62
7
  6
CONTINUOUS
 10
10.0
 20
10.0
 11
10.0
 21
287.0
  0
LINE
  8
0
 62
7
  6
CONTINUOUS
 10
200.0
 20
287.0
 11
200.0
 21
10.0
  0
LINE
  8
0
 62
7
  6
CONTINUOUS
 10
210.0
 20
0.0
 11
210.0
 21
297.0
  0
LINE
  8
0
 62
7
  6
CONTINUOUS
 10
10.0
 20
287.0
 11
200.0
 21
287.0
  0
LINE
  8
0
 62
7
  6
CONTINUOUS
 10
0.0
 20
297.0
 11
210.0
 21
297.0
  0
LINE
  8
2_FEATURE
 62
2
  6
CONTINUOUS
 10
64.1320366379
 20
120.336392335
 11
64.1320366379
 21
122.2571767241
  0
LINE
  8
2_FEATURE
 62
2
  6
CONTINUOUS
 10
64.1320366379
 20
132.8171767241
 11
64.1320366379
 21
134.7379610729
  0
LINE
  8
0
 62
7
  6
CONTINUOUS
 10
64.1320366379
 20
118.6347166974
 11
64.1320366379
 21
144.2371589039
  0
POLYLINE
  8
0
 62
7
  6
CONTINUOUS
 66
1
 70
0
  0
VERTEX
  8
0
 62
7
  6
CONTINUOUS
 10
88.7451706366
 20
110.4371767287
  0
VERTEX
  8
0
 62
7
  6
CONTINUOUS
 10
88.8019619159
 20
110.4412159306
  0
VERTEX
  8
0
 62
7
  6
CONTINUOUS
 10
88.8995111003
 20
110.4680451269
  0
VERTEX
  8
0
 62
7
  6
CONTINUOUS
 10
88.9802551765
 20
110.5132272164
  0
VERTEX
  8
0
 62
7
  6
CONTINUOUS
 10
89.0443156329
 20
110.570867812
  0
VERTEX
  8
0
 62
7
  6
CONTINUOUS
 10
89.0911422684
 20
110.6346488731
  0
VERTEX
  8
0
 62
7
  6
CONTINUOUS
 10
89.1203396474
 20
110.6942684551
  0
VERTEX
  8
0
 62
7
  6
CONTINUOUS
 10
89.1355630718
 20
110.7401919592
  0
VERTEX
  8
0
 62
7
  6
CONTINUOUS
 10
89.1434370132
 20
110.7736862337
  0
VERTEX
  8
0
 62
7
  6
CONTINUOUS
 10
89.1481705538
 20
110.800417473
  0
VERTEX
  8
0
 62
7
  6
CONTINUOUS
 10
89.1515994611
 20
110.8248765321
  0
VERTEX
  8
0
 62
7
  6
CONTINUOUS
 10
89.1544332186
 20
110.8495299635
  0
VERTEX
  8
0
 62
7
  6
CONTINUOUS
 10
89.1569711899
 20
110.8757725609
  0
VERTEX
  8
0
 62
7
  6
CONTINUOUS
 10
89.1593515367
 20
110.904449257
  0
VERTEX
  8
0
 62
7
  6
CONTINUOUS
 10
89.1616577256
 20
110.9363326056
  0
VERTEX
  8
0
 62
7
  6
CONTINUOUS
 10
89.1639429254
 20
110.9721839172
  0
VERTEX
  8
0
 62
7
  6
CONTINUOUS
 10
89.1662394861
 20
111.0127322052
  0
VERTEX
  8
0
 62
7
  6
CONTINUOUS
 10
89.168568224
 20
111.0587092454
  0
VERTEX
  8
0
 62
7
  6
CONTINUOUS
 10
89.170934332
 20
111.1106840711
  0
VERTEX
  8
0
 62
7
  6
CONTINUOUS
 10
89.1757456255
 20
111.2338964016
  0
SEQEND
  0
LINE
  8
2_FEATURE
 62
7
  6
CONTINUOUS
 10
70.8988998558
 20
110.4371767241
 11
76.0451751074
 21
110.4371767241
  0
LINE
  8
2_FEATURE
 62
7
  6
CONTINUOUS
 10
83.5988998558
 20
110.4371767241
 11
88.7451729746
 21
110.4371767241
  0
LINE
  8
2_FEATURE
 62
7
  6
CONTINUOUS
 10
96.2988998558
 20
110.4371767241
 11
101.4620366379
 21
110.4371767241
  0
POLYLINE
  8
0
 62
7
  6
CONTINUOUS
 66
1
 70
0
  0
VERTEX
  8
0
 62
7
  6
CONTINUOUS
 10
76.0451706241
 20
110.4371767288
  0
VERTEX
  8
0
 62
7
  6
CONTINUOUS
 10
76.1022482326
 20
110.4412569723
  0
VERTEX
  8
0
 62
7
  6
CONTINUOUS
 10
76.1998342146
 20
110.4681799074
  0
VERTEX
  8
0
 62
7
  6
CONTINUOUS
 10
76.2804931097
 20
110.5133991965
  0
VERTEX
  8
0
 62
7
  6
CONTINUOUS
 10
76.3444689338
 20
110.5710388443
  0
VERTEX
  8
0
 62
7
  6
CONTINUOUS
 10
76.3912659685
 20
110.6348572984
  0
VERTEX
  8
0
 62
7
  6
CONTINUOUS
 10
76.4204669495
 20
110.694591469
  0
VERTEX
  8
0
 62
7
  6
CONTINUOUS
 10
76.4356592578
 20
110.7405454727
  0
VERTEX
  8
0
 62
7
  6
CONTINUOUS
 10
76.4434747265
 20
110.7738746107
  0
VERTEX
  8
0
 62
7
  6
CONTINUOUS
 10
76.448144991
 20
110.8002536192
  0
VERTEX
  8
0
 62
7
  6
CONTINUOUS
 10
76.4515109396
 20
110.8241767621
  0
VERTEX
  8
0
 62
7
  6
CONTINUOUS
 10
76.4542815687
 20
110.8480928707
  0
VERTEX
  8
0
 62
7
  6
CONTINUOUS
 10
76.456757173
 20
110.8733932896
  0
VERTEX
  8
0
 62
7
  6
CONTINUOUS
 10
76.4590779965
 20
110.9009412854
  0
VERTEX
  8
0
 62
7
  6
CONTINUOUS
 10
76.4613117439
 20
110.9312805151
  0
VERTEX
  8
0
 62
7
  6
CONTINUOUS
 10
76.4634931206
 20
110.9647801213
  0
VERTEX
  8
0
 62
7
  6
CONTINUOUS
 10
76.4656488626
 20
111.0018585125
  0
VERTEX
  8
0
 62
7
  6
CONTINUOUS
 10
76.4677930734
 20
111.0428473048
  0
VERTEX
  8
0
 62
7
  6
CONTINUOUS
 10
76.4720746292
 20
111.1377050874
  0
SEQEND
  0
POLYLINE
  8
0
 62
7
  6
CONTINUOUS
 66
1
 70
0
  0
VERTEX
  8
0
 62
7
  6
CONTINUOUS
 10
70.4745858238
 20
111.0782572687
  0
VERTEX
  8
0
 62
7
  6
CONTINUOUS
 10
70.4769455972
 20
111.0296780439
  0
VERTEX
  8
0
 62
7
  6
CONTINUOUS
 10
70.4793236741
 20
110.9858984771
  0
VERTEX
  8
0
 62
7
  6
CONTINUOUS
 10
70.4817275716
 20
110.9466683358
  0
VERTEX
  8
0
 62
7
  6
CONTINUOUS
 10
70.4841707482
 20
110.9116885082
  0
VERTEX
  8
0
 62
7
  6
CONTINUOUS
 10
70.4866863815
 20
110.8804855136
  0
VERTEX
  8
0
 62
7
  6
CONTINUOUS
 10
70.4893457036
 20
110.8523598776
  0
VERTEX
  8
0
 62
7
  6
CONTINUOUS
 10
70.4922993723
 20
110.8262671996
  0
VERTEX
  8
0
 62
7
  6
CONTINUOUS
 10
70.4958623591
 20
110.8006766951
  0
VERTEX
  8
0
 62
7
  6
CONTINUOUS
 10
70.5007762489
 20
110.7729899283
  0
VERTEX
  8
0
 62
7
  6
CONTINUOUS
 10
70.5089432611
 20
110.7386137361
  0
VERTEX
  8
0
 62
7
  6
CONTINUOUS
 10
70.524609033
 20
110.6920678901
  0
VERTEX
  8
0
 62
7
  6
CONTINUOUS
 10
70.5543428512
 20
110.6322897225
  0
VERTEX
  8
0
 62
7
  6
CONTINUOUS
 10
70.6014024118
 20
110.5690450237
  0
VERTEX
  8
0
 62
7
  6
CONTINUOUS
 10
70.665210018
 20
110.5122264051
  0
VERTEX
  8
0
 62
7
  6
CONTINUOUS
 10
70.7454222168
 20
110.4676879884
  0
VERTEX
  8
0
 62
7
  6
CONTINUOUS
 10
70.8424106115
 20
110.44117326
  0
VERTEX
  8
0
 62
7
  6
CONTINUOUS
 10
70.8989025904
 20
110.4371767286
  0
SEQEND
  0
POLYLINE
  8
0
 62
7
  6
CONTINUOUS
 66
1
 70
0
  0
VERTEX
  8
0
 62
7
  6
CONTINUOUS
 10
70.1194872238
 20
143.9961011411
  0
VERTEX
  8
0
 62
7
  6
CONTINUOUS
 10
70.1171274411
 20
144.0446799482
  0
VERTEX
  8
0
 62
7
  6
CONTINUOUS
 10
70.1147493598
 20
144.0884591348
  0
VERTEX
  8
0
 62
7
  6
CONTINUOUS
 10
70.112345447
 20
144.1276891396
  0
VERTEX
  8
0
 62
7
  6
CONTINUOUS
 10
70.1099022489
 20
144.1626687025
  0
VERTEX
  8
0
 62
7
  6
CONTINUOUS
 10
70.1073865936
 20
144.1938713334
  0
VERTEX
  8
0
 62
7
  6
CONTINUOUS
 10
70.1047272573
 20
144.2219965424
  0
VERTEX
  8
0
 62
7
  6
CONTINUOUS
 10
70.1017735814
 20
144.2480888596
  0
VERTEX
  8
0
 62
7
  6
CONTINUOUS
 10
70.0982104245
 20
144.2736800077
  0
VERTEX
  8
0
 62
7
  6
CONTINUOUS
 10
70.0932961535
 20
144.3013678949
  0
VERTEX
  8
0
 62
7
  6
CONTINUOUS
 10
70.0851283164
 20
144.3357458306
  0
VERTEX
  8
0
 62
7
  6
CONTINUOUS
 10
70.0694610122
 20
144.3822935347
  0
VERTEX
  8
0
 62
7
  6
CONTINUOUS
 10
70.0397256668
 20
144.4420715238
  0
VERTEX
  8
0
 62
7
  6
CONTINUOUS
 10
69.9926656341
 20
144.5053141031
  0
VERTEX
  8
0
 62
7
  6
CONTINUOUS
 10
69.9288588238
 20
144.5621301528
  0
VERTEX
  8
0
 62
7
  6
CONTINUOUS
 10
69.8486481382
 20
144.6066666264
  0
VERTEX
  8
0
 62
7
  6
CONTINUOUS
 10
69.7516614751
 20
144.6331803411
  0
VERTEX
  8
0
 62
7
  6
CONTINUOUS
 10
69.6951704641
 20
144.6371767197
  0
SEQEND
  0
LINE
  8
0
 62
7
  6
CONTINUOUS
 10
70.4698995201
 20
111.1909455137
 11
70.4745858238
 21
111.0782572687
  0
LINE
  8
0
 62
7
  6
CONTINUOUS
 10
70.1241735486
 20
143.8834134119
 11
70.1194872238
 21
143.9961011411
  0
LINE
  8
0
 62
7
  6
CONTINUOUS
 10
70.4652535772
 20
111.3259520027
 11
70.4698995201
 21
111.1909455137
  0
LINE
  8
0
 62
7
  6
CONTINUOUS
 10
70.1288195071
 20
143.7484075358
 11
70.1241735486
 21
143.8834134119
  0
LINE
  8
0
 62
7
  6
CONTINUOUS
 10
70.4606671936
 20
111.484862114
 11
70.4652535772
 21
111.3259520027
  0
LINE
  8
0
 62
7
  6
CONTINUOUS
 10
70.1334059094
 20
143.5894978114
 11
70.1288195071
 21
143.7484075358
  0
LINE
  8
0
 62
7
  6
CONTINUOUS
 10
70.4539782374
 20
111.7708752999
 11
70.4606671936
 21
111.484862114
  0
LINE
  8
0
 62
7
  6
CONTINUOUS
 10
70.140094895
 20
143.3034851831
 11
70.1334059094
 21
143.5894978114
  0
LINE
  8
0
 62
7
  6
CONTINUOUS
 10
70.4476395235
 20
112.1181175227
 11
70.4539782374
 21
111.7708752999
  0
LINE
  8
0
 62
7
  6
CONTINUOUS
 10
70.1464336388
 20
142.9562430976
 11
70.140094895
 21
143.3034851831
  0
LINE
  8
0
 62
7
  6
CONTINUOUS
 10
70.4400322987
 20
112.6841131368
 11
70.4476395235
 21
112.1181175227
  0
LINE
  8
0
 62
7
  6
CONTINUOUS
 10
70.1540409037
 20
142.390246984
 11
70.1464336388
 21
142.9562430976
  0
LINE
  8
0
 62
7
  6
CONTINUOUS
 10
70.1613910695
 20
141.5066134929
 11
70.1540409037
 21
142.390246984
  0
LINE
  8
0
 62
7
  6
CONTINUOUS
 10
70.4326821797
 20
113.5677447764
 11
70.4400322987
 21
112.6841131368
  0
LINE
  8
0
 62
7
  6
CONTINUOUS
 10
70.1649138024
 20
140.4284336738
 11
70.1613910695
 21
141.5066134929
  0
LINE
  8
0
 62
7
  6
CONTINUOUS
 10
70.4291594738
 20
114.6459211375
 11
70.4326821797
 21
113.5677447764
  0
LINE
  8
0
 62
7
  6
CONTINUOUS
 10
70.1649936807
 20
138.3739886956
 11
70.1649138024
 21
140.4284336738
  0
LINE
  8
0
 62
7
  6
CONTINUOUS
 10
70.4290795951
 20
116.7003647527
 11
70.4291594738
 21
114.6459211375
  0
LINE
  8
DEFAULT_1
 62
2
  6
CENTER
 10
68.4534102907
 20
114.8371767241
 11
103.8620366379
 21
114.8371767241
  0
POLYLINE
  8
0
 62
7
  6
CONTINUOUS
 66
1
 70
0
  0
VERTEX
  8
0
 62
7
  6
CONTINUOUS
 10
64.4994111262
 20
118.2360497646
  0
VERTEX
  8
0
 62
7
  6
CONTINUOUS
 10
64.4021097519
 20
118.2564062898
  0
VERTEX
  8
0
 62
7
  6
CONTINUOUS
 10
64.3134116504
 20
118.2997496803
  0
VERTEX
  8
0
 62
7
  6
CONTINUOUS
 10
64.2382447905
 20
118.3632647158
  0
VERTEX
  8
0
 62
7
  6
CONTINUOUS
 10
64.1807888295
 20
118.443340482
  0
VERTEX
  8
0
 62
7
  6
CONTINUOUS
 10
64.1444958397
 20
118.5356608194
  0
VERTEX
  8
0
 62
7
  6
CONTINUOUS
 10
64.1320366379
 20
118.6347170141
  0
SEQEND
  0
POLYLINE
  8
0
 62
7
  6
CONTINUOUS
 66
1
 70
0
  0
VERTEX
  8
0
 62
7
  6
CONTINUOUS
 10
69.607556631
 20
117.7620315124
  0
VERTEX
  8
0
 62
7
  6
CONTINUOUS
 10
69.6395659076
 20
117.7599496713
  0
VERTEX
  8
0
 62
7
  6
CONTINUOUS
 10
69.6495010151
 20
117.7598262693
  0
SEQEND
  0
POLYLINE
  8
0
 62
7
  6
CONTINUOUS
 66
1
 70
0
  0
VERTEX
  8
0
 62
7
  6
CONTINUOUS
 10
64.4994111075
 20
118.236049749
  0
VERTEX
  8
0
 62
7
  6
CONTINUOUS
 10
66.3056521173
 20
118.0817993119
  0
VERTEX
  8
0
 62
7
  6
CONTINUOUS
 10
68.0393781486
 20
117.9205687895
  0
VERTEX
  8
0
 62
7
  6
CONTINUOUS
 10
69.6075576786
 20
117.7620376856
  0
SEQEND
  0
POLYLINE
  8
0
 62
7
  6
CONTINUOUS
 66
1
 70
0
  0
VERTEX
  8
0
 62
7
  6
CONTINUOUS
 10
70.0397591589
 20
117.7598175456
  0
VERTEX
  8
0
 62
7
  6
CONTINUOUS
 10
70.061092578
 20
117.7577732968
  0
VERTEX
  8
0
 62
7
  6
CONTINUOUS
 10
70.0985787471
 20
117.7449716263
  0
VERTEX
  8
0
 62
7
  6
CONTINUOUS
 10
70.1382674858
 20
117.7202486654
  0
VERTEX
  8
0
 62
7
  6
CONTINUOUS
 10
70.1737903356
 20
117.6889796218
  0
VERTEX
  8
0
 62
7
  6
CONTINUOUS
 10
70.2073437567
 20
117.6511933716
  0
VERTEX
  8
0
 62
7
  6
CONTINUOUS
 10
70.2384131524
 20
117.6082062205
  0
VERTEX
  8
0
 62
7
  6
CONTINUOUS
 10
70.2664872425
 20
117.5616131967
  0
VERTEX
  8
0
 62
7
  6
CONTINUOUS
 10
70.29164958
 20
117.512254013
  0
VERTEX
  8
0
 62
7
  6
CONTINUOUS
 10
70.3142811469
 20
117.4601961434
  0
VERTEX
  8
0
 62
7
  6
CONTINUOUS
 10
70.3347241129
 20
117.4051472289
  0
VERTEX
  8
0
 62
7
  6
CONTINUOUS
 10
70.3528262812
 20
117.3479775327
  0
VERTEX
  8
0
 62
7
  6
CONTINUOUS
 10
70.3686910684
 20
117.2890001442
  0
VERTEX
  8
0
 62
7
  6
CONTINUOUS
 10
70.3824573689
 20
117.2282982866
  0
VERTEX
  8
0
 62
7
  6
CONTINUOUS
 10
70.3942580899
 20
117.1658708625
  0
VERTEX
  8
0
 62
7
  6
CONTINUOUS
 10
70.4042128403
 20
117.1016355756
  0
VERTEX
  8
0
 62
7
  6
CONTINUOUS
 10
70.4124093508
 20
117.0354561512
  0
VERTEX
  8
0
 62
7
  6
CONTINUOUS
 10
70.4189040656
 20
116.9673626066
  0
VERTEX
  8
0
 62
7
  6
CONTINUOUS
 10
70.4237576015
 20
116.8973481284
  0
VERTEX
  8
0
 62
7
  6
CONTINUOUS
 10
70.4270216564
 20
116.8253609695
  0
VERTEX
  8
0
 62
7
  6
CONTINUOUS
 10
70.4287508227
 20
116.7513278135
  0
VERTEX
  8
0
 62
7
  6
CONTINUOUS
 10
70.429080104
 20
116.7003647526
  0
SEQEND
  0
LINE
  8
0
 62
7
  6
CONTINUOUS
 10
69.6495010151
 20
117.7598262693
 11
70.0397593231
 21
117.7598262693
  0
LINE
  8
0
 62
7
  6
CONTINUOUS
 10
76.9043743262
 20
117.7598262693
 11
82.7397593231
 21
117.7598262693
  0
LINE
  8
0
 62
7
  6
CONTINUOUS
 10
89.6043743262
 20
117.7598262693
 11
95.4397593231
 21
117.7598262693
  0
POLYLINE
  8
0
 62
7
  6
CONTINUOUS
 66
1
 70
0
  0
VERTEX
  8
0
 62
7
  6
CONTINUOUS
 10
82.7397591589
 20
117.7598175456
  0
VERTEX
  8
0
 62
7
  6
CONTINUOUS
 10
82.761092578
 20
117.7577732968
  0
VERTEX
  8
0
 62
7
  6
CONTINUOUS
 10
82.7985787471
 20
117.7449716263
  0
VERTEX
  8
0
 62
7
  6
CONTINUOUS
 10
82.8382674858
 20
117.7202486654
  0
VERTEX
  8
0
 62
7
  6
CONTINUOUS
 10
82.8737903356
 20
117.6889796218
  0
VERTEX
  8
0
 62
7
  6
CONTINUOUS
 10
82.9073437567
 20
117.6511933716
  0
VERTEX
  8
0
 62
7
  6
CONTINUOUS
 10
82.9384131524
 20
117.6082062205
  0
VERTEX
  8
0
 62
7
  6
CONTINUOUS
 10
82.9664872425
 20
117.5616131967
  0
VERTEX
  8
0
 62
7
  6
CONTINUOUS
 10
82.99164958
 20
117.512254013
  0
VERTEX
  8
0
 62
7
  6
CONTINUOUS
 10
83.0142811469
 20
117.4601961434
  0
VERTEX
  8
0
 62
7
  6
CONTINUOUS
 10
83.0347241129
 20
117.4051472289
  0
VERTEX
  8
0
 62
7
  6
CONTINUOUS
 10
83.0528262812
 20
117.3479775327
  0
VERTEX
  8
0
 62
7
  6
CONTINUOUS
 10
83.0686910684
 20
117.2890001442
  0
VERTEX
  8
0
 62
7
  6
CONTINUOUS
 10
83.0824573689
 20
117.2282982866
  0
VERTEX
  8
0
 62
7
  6
CONTINUOUS
 10
83.0942580899
 20
117.1658708625
  0
VERTEX
  8
0
 62
7
  6
CONTINUOUS
 10
83.1042128403
 20
117.1016355756
  0
VERTEX
  8
0
 62
7
  6
CONTINUOUS
 10
83.1124093508
 20
117.0354561512
  0
VERTEX
  8
0
 62
7
  6
CONTINUOUS
 10
83.1189040656
 20
116.9673626066
  0
VERTEX
  8
0
 62
7
  6
CONTINUOUS
 10
83.1237576015
 20
116.8973481284
  0
VERTEX
  8
0
 62
7
  6
CONTINUOUS
 10
83.1270216564
 20
116.8253609695
  0
VERTEX
  8
0
 62
7
  6
CONTINUOUS
 10
83.1287508227
 20
116.7513278135
  0
VERTEX
  8
0
 62
7
  6
CONTINUOUS
 10
83.129080104
 20
116.7003647526
  0
SEQEND
  0
POLYLINE
  8
0
 62
7
  6
CONTINUOUS
 66
1
 70
0
  0
VERTEX
  8
0
 62
7
  6
CONTINUOUS
 10
95.4397591589
 20
117.7598175456
  0
VERTEX
  8
0
 62
7
  6
CONTINUOUS
 10
95.461092578
 20
117.7577732968
  0
VERTEX
  8
0
 62
7
  6
CONTINUOUS
 10
95.4985787471
 20
117.7449716263
  0
VERTEX
  8
0
 62
7
  6
CONTINUOUS
 10
95.5382674858
 20
117.7202486654
  0
VERTEX
  8
0
 62
7
  6
CONTINUOUS
 10
95.5737903356
 20
117.6889796218
  0
VERTEX
  8
0
 62
7
  6
CONTINUOUS
 10
95.6073437567
 20
117.6511933716
  0
VERTEX
  8
0
 62
7
  6
CONTINUOUS
 10
95.6384131524
 20
117.6082062205
  0
VERTEX
  8
0
 62
7
  6
CONTINUOUS
 10
95.6664872425
 20
117.5616131967
  0
VERTEX
  8
0
 62
7
  6
CONTINUOUS
 10
95.69164958
 20
117.512254013
  0
VERTEX
  8
0
 62
7
  6
CONTINUOUS
 10
95.7142811469
 20
117.4601961434
  0
VERTEX
  8
0
 62
7
  6
CONTINUOUS
 10
95.7347241129
 20
117.4051472289
  0
VERTEX
  8
0
 62
7
  6
CONTINUOUS
 10
95.7528262812
 20
117.3479775327
  0
VERTEX
  8
0
 62
7
  6
CONTINUOUS
 10
95.7686910684
 20
117.2890001442
  0
VERTEX
  8
0
 62
7
  6
CONTINUOUS
 10
95.7824573689
 20
117.2282982866
  0
VERTEX
  8
0
 62
7
  6
CONTINUOUS
 10
95.7942580899
 20
117.1658708625
  0
VERTEX
  8
0
 62
7
  6
CONTINUOUS
 10
95.8042128403
 20
117.1016355756
  0
VERTEX
  8
0
 62
7
  6
CONTINUOUS
 10
95.8124093508
 20
117.0354561512
  0
VERTEX
  8
0
 62
7
  6
CONTINUOUS
 10
95.8189040656
 20
116.9673626066
  0
VERTEX
  8
0
 62
7
  6
CONTINUOUS
 10
95.8237576015
 20
116.8973481284
  0
VERTEX
  8
0
 62
7
  6
CONTINUOUS
 10
95.8270216564
 20
116.8253609695
  0
VERTEX
  8
0
 62
7
  6
CONTINUOUS
 10
95.8287508227
 20
116.7513278135
  0
VERTEX
  8
0
 62
7
  6
CONTINUOUS
 10
95.829080104
 20
116.7003647526
  0
SEQEND
  0
LINE
  8
0
 62
7
  6
CONTINUOUS
 10
76.8110490405
 20
143.6037819364
 11
76.8062359229
 21
143.4080409654
  0
LINE
  8
0
 62
7
  6
CONTINUOUS
 10
76.8159030039
 20
143.7687678652
 11
76.8110490405
 21
143.6037819364
  0
LINE
  8
2_FEATURE
 62
2
  6
CONTINUOUS
 10
64.1320366379
 20
120.336392335
 11
101.8620366379
 21
120.336392335
  0
LINE
  8
0
 62
7
  6
CONTINUOUS
 10
76.7807448876
 20
141.1063579704
 11
76.7790795951
 21
138.3739886953
  0
LINE
  8
0
 62
7
  6
CONTINUOUS
 10
76.5130193483
 20
113.8918293596
 11
76.5149936807
 21
116.700364753
  0
POLYLINE
  8
0
 62
7
  6
CONTINUOUS
 66
1
 70
0
  0
VERTEX
  8
0
 62
7
  6
CONTINUOUS
 10
76.5149932944
 20
116.700364753
  0
VERTEX
  8
0
 62
7
  6
CONTINUOUS
 10
76.5153495627
 20
116.7533641658
  0
VERTEX
  8
0
 62
7
  6
CONTINUOUS
 10
76.5171197222
 20
116.8273432783
  0
VERTEX
  8
0
 62
7
  6
CONTINUOUS
 10
76.5204264264
 20
116.8992750094
  0
VERTEX
  8
0
 62
7
  6
CONTINUOUS
 10
76.5253234591
 20
116.9692342583
  0
VERTEX
  8
0
 62
7
  6
CONTINUOUS
 10
76.5318629709
 20
117.0372729941
  0
VERTEX
  8
0
 62
7
  6
CONTINUOUS
 10
76.5401063837
 20
117.103398128
  0
VERTEX
  8
0
 62
7
  6
CONTINUOUS
 10
76.5501090458
 20
117.1675788986
  0
VERTEX
  8
0
 62
7
  6
CONTINUOUS
 10
76.5619593867
 20
117.2299520528
  0
VERTEX
  8
0
 62
7
  6
CONTINUOUS
 10
76.5757788952
 20
117.2906009191
  0
VERTEX
  8
0
 62
7
  6
CONTINUOUS
 10
76.5917012564
 20
117.3495303438
  0
VERTEX
  8
0
 62
7
  6
CONTINUOUS
 10
76.6098674096
 20
117.4066559219
  0
VERTEX
  8
0
 62
7
  6
CONTINUOUS
 10
76.6303850421
 20
117.4616685175
  0
VERTEX
  8
0
 62
7
  6
CONTINUOUS
 10
76.6530917776
 20
117.5136716614
  0
VERTEX
  8
0
 62
7
  6
CONTINUOUS
 10
76.6783296166
 20
117.5629549281
  0
VERTEX
  8
0
 62
7
  6
CONTINUOUS
 10
76.706493795
 20
117.6094700634
  0
VERTEX
  8
0
 62
7
  6
CONTINUOUS
 10
76.7376705118
 20
117.6523701806
  0
VERTEX
  8
0
 62
7
  6
CONTINUOUS
 10
76.7713406292
 20
117.6900361954
  0
VERTEX
  8
0
 62
7
  6
CONTINUOUS
 10
76.8070298638
 20
117.721172431
  0
VERTEX
  8
0
 62
7
  6
CONTINUOUS
 10
76.8469332514
 20
117.7456614156
  0
VERTEX
  8
0
 62
7
  6
CONTINUOUS
 10
76.8842984392
 20
117.7580170131
  0
VERTEX
  8
0
 62
7
  6
CONTINUOUS
 10
76.9043752773
 20
117.7598173082
  0
SEQEND
  0
POLYLINE
  8
0
 62
7
  6
CONTINUOUS
 66
1
 70
0
  0
VERTEX
  8
0
 62
7
  6
CONTINUOUS
 10
76.7790799815
 20
138.3739886953
  0
VERTEX
  8
0
 62
7
  6
CONTINUOUS
 10
76.7787237131
 20
138.3209892824
  0
VERTEX
  8
0
 62
7
  6
CONTINUOUS
 10
76.7769535537
 20
138.2470101699
  0
VERTEX
  8
0
 62
7
  6
CONTINUOUS
 10
76.7736468495
 20
138.1750784388
  0
VERTEX
  8
0
 62
7
  6
CONTINUOUS
 10
76.7687498168
 20
138.10511919
  0
VERTEX
  8
0
 62
7
  6
CONTINUOUS
 10
76.7622103049
 20
138.0370804542
  0
VERTEX
  8
0
 62
7
  6
CONTINUOUS
 10
76.7539668922
 20
137.9709553203
  0
VERTEX
  8
0
 62
7
  6
CONTINUOUS
 10
76.74396423
 20
137.9067745496
  0
VERTEX
  8
0
 62
7
  6
CONTINUOUS
 10
76.7321138892
 20
137.8444013954
  0
VERTEX
  8
0
 62
7
  6
CONTINUOUS
 10
76.7182943806
 20
137.7837525292
  0
VERTEX
  8
0
 62
7
  6
CONTINUOUS
 10
76.7023720195
 20
137.7248231045
  0
VERTEX
  8
0
 62
7
  6
CONTINUOUS
 10
76.6842058662
 20
137.6676975264
  0
VERTEX
  8
0
 62
7
  6
CONTINUOUS
 10
76.6636882337
 20
137.6126849308
  0
VERTEX
  8
0
 62
7
  6
CONTINUOUS
 10
76.6409814982
 20
137.5606817868
  0
VERTEX
  8
0
 62
7
  6
CONTINUOUS
 10
76.6157436593
 20
137.5113985202
  0
VERTEX
  8
0
 62
7
  6
CONTINUOUS
 10
76.5875794809
 20
137.4648833849
  0
VERTEX
  8
0
 62
7
  6
CONTINUOUS
 10
76.5564027641
 20
137.4219832677
  0
VERTEX
  8
0
 62
7
  6
CONTINUOUS
 10
76.5227326467
 20
137.3843172528
  0
VERTEX
  8
0
 62
7
  6
CONTINUOUS
 10
76.487043412
 20
137.3531810173
  0
VERTEX
  8
0
 62
7
  6
CONTINUOUS
 10
76.4471400244
 20
137.3286920327
  0
VERTEX
  8
0
 62
7
  6
CONTINUOUS
 10
76.4097748367
 20
137.3163364352
  0
VERTEX
  8
0
 62
7
  6
CONTINUOUS
 10
76.3896979985
 20
137.3145361401
  0
SEQEND
  0
LINE
  8
0
 62
7
  6
CONTINUOUS
 10
76.5073550668
 20
113.0162215447
 11
76.5130193483
 21
113.8918293596
  0
LINE
  8
0
 62
7
  6
CONTINUOUS
 10
76.7871940245
 20
142.110617254
 11
76.7807448876
 21
141.1063579704
  0
LINE
  8
0
 62
7
  6
CONTINUOUS
 10
76.5008563217
 20
112.4213639758
 11
76.5073550668
 21
113.0162215447
  0
LINE
  8
0
 62
7
  6
CONTINUOUS
 10
76.7948616873
 20
142.772960457
 11
76.7871940245
 21
142.110617254
  0
LINE
  8
0
 62
7
  6
CONTINUOUS
 10
76.4932034833
 20
111.9303189848
 11
76.5008563217
 21
112.4213639758
  0
LINE
  8
0
 62
7
  6
CONTINUOUS
 10
76.8015319212
 20
143.1796213369
 11
76.7948616873
 21
142.772960457
  0
LINE
  8
0
 62
7
  6
CONTINUOUS
 10
76.8062359229
 20
143.4080409654
 11
76.8015319212
 21
143.1796213369
  0
LINE
  8
0
 62
7
  6
CONTINUOUS
 10
76.4870177287
 20
111.6304752959
 11
76.4932034833
 21
111.9303189848
  0
LINE
  8
0
 62
7
  6
CONTINUOUS
 10
76.4806472891
 20
111.3860293814
 11
76.4870177287
 21
111.6304752959
  0
LINE
  8
0
 62
7
  6
CONTINUOUS
 10
76.4763616942
 20
111.2514752326
 11
76.4806472891
 21
111.3860293814
  0
LINE
  8
0
 62
7
  6
CONTINUOUS
 10
76.4720746292
 20
111.1377050874
 11
76.4763616942
 21
111.2514752326
  0
LINE
  8
2_FEATURE
 62
2
  6
CONTINUOUS
 10
64.1320366379
 20
122.2571767241
 11
101.8620366379
 21
122.2571767241
  0
POLYLINE
  8
0
 62
7
  6
CONTINUOUS
 66
1
 70
0
  0
VERTEX
  8
0
 62
7
  6
CONTINUOUS
 10
83.1745858238
 20
111.0782572687
  0
VERTEX
  8
0
 62
7
  6
CONTINUOUS
 10
83.1769455972
 20
111.0296780439
  0
VERTEX
  8
0
 62
7
  6
CONTINUOUS
 10
83.1793236741
 20
110.9858984771
  0
VERTEX
  8
0
 62
7
  6
CONTINUOUS
 10
83.1817275716
 20
110.9466683358
  0
VERTEX
  8
0
 62
7
  6
CONTINUOUS
 10
83.1841707482
 20
110.9116885082
  0
VERTEX
  8
0
 62
7
  6
CONTINUOUS
 10
83.1866863815
 20
110.8804855136
  0
VERTEX
  8
0
 62
7
  6
CONTINUOUS
 10
83.1893457036
 20
110.8523598776
  0
VERTEX
  8
0
 62
7
  6
CONTINUOUS
 10
83.1922993723
 20
110.8262671996
  0
VERTEX
  8
0
 62
7
  6
CONTINUOUS
 10
83.1958623591
 20
110.8006766951
  0
VERTEX
  8
0
 62
7
  6
CONTINUOUS
 10
83.2007762489
 20
110.7729899283
  0
VERTEX
  8
0
 62
7
  6
CONTINUOUS
 10
83.2089432611
 20
110.7386137361
  0
VERTEX
  8
0
 62
7
  6
CONTINUOUS
 10
83.224609033
 20
110.6920678901
  0
VERTEX
  8
0
 62
7
  6
CONTINUOUS
 10
83.2543428512
 20
110.6322897225
  0
VERTEX
  8
0
 62
7
  6
CONTINUOUS
 10
83.3014024118
 20
110.5690450237
  0
VERTEX
  8
0
 62
7
  6
CONTINUOUS
 10
83.365210018
 20
110.5122264051
  0
VERTEX
  8
0
 62
7
  6
CONTINUOUS
 10
83.4454222168
 20
110.4676879884
  0
VERTEX
  8
0
 62
7
  6
CONTINUOUS
 10
83.5424106115
 20
110.44117326
  0
VERTEX
  8
0
 62
7
  6
CONTINUOUS
 10
83.5989025904
 20
110.4371767286
  0
SEQEND
  0
LINE
  8
0
 62
7
  6
CONTINUOUS
 10
83.1698995201
 20
111.1909455137
 11
83.1745858238
 21
111.0782572687
  0
LINE
  8
0
 62
7
  6
CONTINUOUS
 10
83.1652535772
 20
111.3259520027
 11
83.1698995201
 21
111.1909455137
  0
LINE
  8
0
 62
7
  6
CONTINUOUS
 10
83.1606671936
 20
111.484862114
 11
83.1652535772
 21
111.3259520027
  0
LINE
  8
0
 62
7
  6
CONTINUOUS
 10
83.1539782374
 20
111.7708752999
 11
83.1606671936
 21
111.484862114
  0
LINE
  8
0
 62
7
  6
CONTINUOUS
 10
82.8422539581
 20
143.1947839975
 11
82.8356660548
 21
143.500657731
  0
LINE
  8
0
 62
7
  6
CONTINUOUS
 10
83.1476395235
 20
112.1181175227
 11
83.1539782374
 21
111.7708752999
  0
LINE
  8
0
 62
7
  6
CONTINUOUS
 10
82.850383792
 20
142.6884273556
 11
82.8422539581
 21
143.1947839975
  0
LINE
  8
0
 62
7
  6
CONTINUOUS
 10
83.1400322987
 20
112.6841131368
 11
83.1476395235
 21
112.1181175227
  0
LINE
  8
0
 62
7
  6
CONTINUOUS
 10
82.8573316636
 20
142.0607583319
 11
82.850383792
 21
142.6884273556
  0
LINE
  8
0
 62
7
  6
CONTINUOUS
 10
83.1326821797
 20
113.5677447764
 11
83.1400322987
 21
112.6841131368
  0
LINE
  8
0
 62
7
  6
CONTINUOUS
 10
82.863361991
 20
141.0976481963
 11
82.8573316636
 21
142.0607583319
  0
LINE
  8
0
 62
7
  6
CONTINUOUS
 10
83.1291594738
 20
114.6459211375
 11
83.1326821797
 21
113.5677447764
  0
LINE
  8
0
 62
7
  6
CONTINUOUS
 10
82.8649936602
 20
140.2371767242
 11
82.863361991
 21
141.0976481963
  0
LINE
  8
0
 62
7
  6
CONTINUOUS
 10
82.8649936807
 20
138.3739886956
 11
82.8649936807
 21
140.2371767242
  0
LINE
  8
1_AXIS
 62
2
  6
CENTER
 10
82.9970366379
 20
131.9371767241
 11
82.9970366379
 21
129.5372767241
  0
LINE
  8
1_AXIS
 62
2
  6
CONTINUOUS
 10
82.9970366379
 20
128.4171767241
 11
82.9970366379
 21
126.6571767241
  0
LINE
  8
1_AXIS
 62
2
  6
CENTER
 10
82.9970366379
 20
123.1371767241
 11
82.9970366379
 21
125.5370767241
  0
LINE
  8
0
 62
7
  6
CONTINUOUS
 10
83.1290795951
 20
116.7003647527
 11
83.1291594738
 21
114.6459211375
  0
LINE
  8
1_AXIS
 62
2
  6
CENTER
 10
87.3970366379
 20
127.5371767241
 11
84.9971366379
 21
127.5371767241
  0
LINE
  8
1_AXIS
 62
2
  6
CONTINUOUS
 10
83.8770366379
 20
127.5371767241
 11
82.1170366379
 21
127.5371767241
  0
LINE
  8
1_AXIS
 62
2
  6
CENTER
 10
78.5970366379
 20
127.5371767241
 11
80.9969366379
 21
127.5371767241
  0
POLYLINE
  8
0
 62
7
  6
CONTINUOUS
 66
1
 70
0
  0
VERTEX
  8
0
 62
7
  6
CONTINUOUS
 10
82.8194872238
 20
143.9961011411
  0
VERTEX
  8
0
 62
7
  6
CONTINUOUS
 10
82.8171274411
 20
144.0446799482
  0
VERTEX
  8
0
 62
7
  6
CONTINUOUS
 10
82.8147493598
 20
144.0884591348
  0
VERTEX
  8
0
 62
7
  6
CONTINUOUS
 10
82.812345447
 20
144.1276891396
  0
VERTEX
  8
0
 62
7
  6
CONTINUOUS
 10
82.8099022489
 20
144.1626687025
  0
VERTEX
  8
0
 62
7
  6
CONTINUOUS
 10
82.8073865936
 20
144.1938713334
  0
VERTEX
  8
0
 62
7
  6
CONTINUOUS
 10
82.8047272573
 20
144.2219965424
  0
VERTEX
  8
0
 62
7
  6
CONTINUOUS
 10
82.8017735814
 20
144.2480888596
  0
VERTEX
  8
0
 62
7
  6
CONTINUOUS
 10
82.7982104245
 20
144.2736800077
  0
VERTEX
  8
0
 62
7
  6
CONTINUOUS
 10
82.7932961535
 20
144.3013678949
  0
VERTEX
  8
0
 62
7
  6
CONTINUOUS
 10
82.7851283164
 20
144.3357458306
  0
VERTEX
  8
0
 62
7
  6
CONTINUOUS
 10
82.7694610122
 20
144.3822935347
  0
VERTEX
  8
0
 62
7
  6
CONTINUOUS
 10
82.7397256668
 20
144.4420715238
  0
VERTEX
  8
0
 62
7
  6
CONTINUOUS
 10
82.6926656341
 20
144.5053141031
  0
VERTEX
  8
0
 62
7
  6
CONTINUOUS
 10
82.6288588238
 20
144.5621301528
  0
VERTEX
  8
0
 62
7
  6
CONTINUOUS
 10
82.5486481382
 20
144.6066666264
  0
VERTEX
  8
0
 62
7
  6
CONTINUOUS
 10
82.4516614751
 20
144.6331803411
  0
VERTEX
  8
0
 62
7
  6
CONTINUOUS
 10
82.3951704641
 20
144.6371767197
  0
SEQEND
  0
LINE
  8
0
 62
7
  6
CONTINUOUS
 10
82.8241735486
 20
143.8834134119
 11
82.8194872238
 21
143.9961011411
  0
LINE
  8
0
 62
7
  6
CONTINUOUS
 10
82.8288195071
 20
143.7484075358
 11
82.8241735486
 21
143.8834134119
  0
POLYLINE
  8
0
 62
7
  6
CONTINUOUS
 66
1
 70
0
  0
VERTEX
  8
0
 62
7
  6
CONTINUOUS
 10
82.8356660548
 20
143.500657731
  0
VERTEX
  8
0
 62
7
  6
CONTINUOUS
 10
82.8334059094
 20
143.5894978114
  0
VERTEX
  8
0
 62
7
  6
CONTINUOUS
 10
82.8288195071
 20
143.7484075358
  0
SEQEND
  0
LINE
  8
2_FEATURE
 62
2
  6
CONTINUOUS
 10
64.1320366379
 20
132.8171767241
 11
101.8620366379
 21
132.8171767241
  0
LINE
  8
0
 62
7
  6
CONTINUOUS
 10
89.2133284141
 20
113.9680020753
 11
89.2149936807
 21
116.700364753
  0
LINE
  8
0
 62
7
  6
CONTINUOUS
 10
89.4810539557
 20
141.1825305915
 11
89.4790795951
 21
138.3739886953
  0
POLYLINE
  8
0
 62
7
  6
CONTINUOUS
 66
1
 70
0
  0
VERTEX
  8
0
 62
7
  6
CONTINUOUS
 10
89.2149932944
 20
116.700364753
  0
VERTEX
  8
0
 62
7
  6
CONTINUOUS
 10
89.2153495627
 20
116.7533641658
  0
VERTEX
  8
0
 62
7
  6
CONTINUOUS
 10
89.2171197222
 20
116.8273432783
  0
VERTEX
  8
0
 62
7
  6
CONTINUOUS
 10
89.2204264264
 20
116.8992750094
  0
VERTEX
  8
0
 62
7
  6
CONTINUOUS
 10
89.2253234591
 20
116.9692342583
  0
VERTEX
  8
0
 62
7
  6
CONTINUOUS
 10
89.2318629709
 20
117.0372729941
  0
VERTEX
  8
0
 62
7
  6
CONTINUOUS
 10
89.2401063837
 20
117.103398128
  0
VERTEX
  8
0
 62
7
  6
CONTINUOUS
 10
89.2501090458
 20
117.1675788986
  0
VERTEX
  8
0
 62
7
  6
CONTINUOUS
 10
89.2619593867
 20
117.2299520528
  0
VERTEX
  8
0
 62
7
  6
CONTINUOUS
 10
89.2757788952
 20
117.2906009191
  0
VERTEX
  8
0
 62
7
  6
CONTINUOUS
 10
89.2917012564
 20
117.3495303438
  0
VERTEX
  8
0
 62
7
  6
CONTINUOUS
 10
89.3098674096
 20
117.4066559219
  0
VERTEX
  8
0
 62
7
  6
CONTINUOUS
 10
89.3303850421
 20
117.4616685175
  0
VERTEX
  8
0
 62
7
  6
CONTINUOUS
 10
89.3530917776
 20
117.5136716614
  0
VERTEX
  8
0
 62
7
  6
CONTINUOUS
 10
89.3783296166
 20
117.5629549281
  0
VERTEX
  8
0
 62
7
  6
CONTINUOUS
 10
89.406493795
 20
117.6094700634
  0
VERTEX
  8
0
 62
7
  6
CONTINUOUS
 10
89.4376705118
 20
117.6523701806
  0
VERTEX
  8
0
 62
7
  6
CONTINUOUS
 10
89.4713406292
 20
117.6900361954
  0
VERTEX
  8
0
 62
7
  6
CONTINUOUS
 10
89.5070298638
 20
117.721172431
  0
VERTEX
  8
0
 62
7
  6
CONTINUOUS
 10
89.5469332514
 20
117.7456614156
  0
VERTEX
  8
0
 62
7
  6
CONTINUOUS
 10
89.5842984392
 20
117.7580170131
  0
VERTEX
  8
0
 62
7
  6
CONTINUOUS
 10
89.6043752773
 20
117.7598173082
  0
SEQEND
  0
POLYLINE
  8
0
 62
7
  6
CONTINUOUS
 66
1
 70
0
  0
VERTEX
  8
0
 62
7
  6
CONTINUOUS
 10
89.4790799815
 20
138.3739886953
  0
VERTEX
  8
0
 62
7
  6
CONTINUOUS
 10
89.4787237131
 20
138.3209892824
  0
VERTEX
  8
0
 62
7
  6
CONTINUOUS
 10
89.4769535537
 20
138.2470101699
  0
VERTEX
  8
0
 62
7
  6
CONTINUOUS
 10
89.4736468495
 20
138.1750784388
  0
VERTEX
  8
0
 62
7
  6
CONTINUOUS
 10
89.4687498168
 20
138.10511919
  0
VERTEX
  8
0
 62
7
  6
CONTINUOUS
 10
89.4622103049
 20
138.0370804542
  0
VERTEX
  8
0
 62
7
  6
CONTINUOUS
 10
89.4539668922
 20
137.9709553203
  0
VERTEX
  8
0
 62
7
  6
CONTINUOUS
 10
89.44396423
 20
137.9067745496
  0
VERTEX
  8
0
 62
7
  6
CONTINUOUS
 10
89.4321138892
 20
137.8444013954
  0
VERTEX
  8
0
 62
7
  6
CONTINUOUS
 10
89.4182943806
 20
137.7837525292
  0
VERTEX
  8
0
 62
7
  6
CONTINUOUS
 10
89.4023720195
 20
137.7248231045
  0
VERTEX
  8
0
 62
7
  6
CONTINUOUS
 10
89.3842058662
 20
137.6676975264
  0
VERTEX
  8
0
 62
7
  6
CONTINUOUS
 10
89.3636882337
 20
137.6126849308
  0
VERTEX
  8
0
 62
7
  6
CONTINUOUS
 10
89.3409814982
 20
137.5606817868
  0
VERTEX
  8
0
 62
7
  6
CONTINUOUS
 10
89.3157436593
 20
137.5113985202
  0
VERTEX
  8
0
 62
7
  6
CONTINUOUS
 10
89.2875794809
 20
137.4648833849
  0
VERTEX
  8
0
 62
7
  6
CONTINUOUS
 10
89.2564027641
 20
137.4219832677
  0
VERTEX
  8
0
 62
7
  6
CONTINUOUS
 10
89.2227326467
 20
137.3843172528
  0
VERTEX
  8
0
 62
7
  6
CONTINUOUS
 10
89.187043412
 20
137.3531810173
  0
VERTEX
  8
0
 62
7
  6
CONTINUOUS
 10
89.1471400244
 20
137.3286920327
  0
VERTEX
  8
0
 62
7
  6
CONTINUOUS
 10
89.1097748367
 20
137.3163364352
  0
VERTEX
  8
0
 62
7
  6
CONTINUOUS
 10
89.0896979985
 20
137.3145361401
  0
SEQEND
  0
LINE
  8
0
 62
7
  6
CONTINUOUS
 10
89.4867182604
 20
142.0581377862
 11
89.4810539557
 21
141.1825305915
  0
LINE
  8
0
 62
7
  6
CONTINUOUS
 10
89.2068793098
 20
112.9637425631
 11
89.2133284141
 21
113.9680020753
  0
LINE
  8
0
 62
7
  6
CONTINUOUS
 10
89.4932170371
 20
142.6529957008
 11
89.4867182604
 21
142.0581377862
  0
LINE
  8
0
 62
7
  6
CONTINUOUS
 10
89.1992116902
 20
112.301399987
 11
89.2068793098
 21
112.9637425631
  0
LINE
  8
0
 62
7
  6
CONTINUOUS
 10
89.5008699107
 20
143.1440407841
 11
89.4932170371
 21
142.6529957008
  0
LINE
  8
0
 62
7
  6
CONTINUOUS
 10
89.1925414896
 20
111.8947391547
 11
89.1992116902
 21
112.301399987
  0
LINE
  8
0
 62
7
  6
CONTINUOUS
 10
89.5070556884
 20
143.4438842231
 11
89.5008699107
 21
143.1440407841
  0
LINE
  8
0
 62
7
  6
CONTINUOUS
 10
89.1854400193
 20
111.5644738273
 11
89.1925414896
 21
111.8947391547
  0
LINE
  8
0
 62
7
  6
CONTINUOUS
 10
89.1805987787
 20
111.3843807929
 11
89.1854400193
 21
111.5644738273
  0
LINE
  8
0
 62
7
  6
CONTINUOUS
 10
89.513426149
 20
143.6883296816
 11
89.5070556884
 21
143.4438842231
  0
LINE
  8
0
 62
7
  6
CONTINUOUS
 10
89.5177117589
 20
143.8228832394
 11
89.513426149
 21
143.6883296816
  0
LINE
  8
0
 62
7
  6
CONTINUOUS
 10
89.1757456255
 20
111.2338964016
 11
89.1805987787
 21
111.3843807929
  0
LINE
  8
0
 62
7
  6
CONTINUOUS
 10
89.5219988361
 20
143.9366530544
 11
89.5177117589
 21
143.8228832394
  0
LINE
  8
2_FEATURE
 62
2
  6
CONTINUOUS
 10
64.1320366379
 20
134.7379611133
 11
101.8620366379
 21
134.7379611133
  0
POLYLINE
  8
0
 62
7
  6
CONTINUOUS
 66
1
 70
0
  0
VERTEX
  8
0
 62
7
  6
CONTINUOUS
 10
70.554314117
 20
137.3145359026
  0
VERTEX
  8
0
 62
7
  6
CONTINUOUS
 10
70.5329806978
 20
137.3165801515
  0
VERTEX
  8
0
 62
7
  6
CONTINUOUS
 10
70.4954945287
 20
137.3293818219
  0
VERTEX
  8
0
 62
7
  6
CONTINUOUS
 10
70.4558057901
 20
137.3541047829
  0
VERTEX
  8
0
 62
7
  6
CONTINUOUS
 10
70.4202829402
 20
137.3853738265
  0
VERTEX
  8
0
 62
7
  6
CONTINUOUS
 10
70.3867295191
 20
137.4231600767
  0
VERTEX
  8
0
 62
7
  6
CONTINUOUS
 10
70.3556601235
 20
137.4661472278
  0
VERTEX
  8
0
 62
7
  6
CONTINUOUS
 10
70.3275860334
 20
137.5127402516
  0
VERTEX
  8
0
 62
7
  6
CONTINUOUS
 10
70.3024236958
 20
137.5620994353
  0
VERTEX
  8
0
 62
7
  6
CONTINUOUS
 10
70.279792129
 20
137.6141573048
  0
VERTEX
  8
0
 62
7
  6
CONTINUOUS
 10
70.2593491629
 20
137.6692062194
  0
VERTEX
  8
0
 62
7
  6
CONTINUOUS
 10
70.2412469947
 20
137.7263759156
  0
VERTEX
  8
0
 62
7
  6
CONTINUOUS
 10
70.2253822075
 20
137.7853533041
  0
VERTEX
  8
0
 62
7
  6
CONTINUOUS
 10
70.211615907
 20
137.8460551617
  0
VERTEX
  8
0
 62
7
  6
CONTINUOUS
 10
70.199815186
 20
137.9084825858
  0
VERTEX
  8
0
 62
7
  6
CONTINUOUS
 10
70.1898604356
 20
137.9727178727
  0
VERTEX
  8
0
 62
7
  6
CONTINUOUS
 10
70.181663925
 20
138.0388972971
  0
VERTEX
  8
0
 62
7
  6
CONTINUOUS
 10
70.1751692102
 20
138.1069908417
  0
VERTEX
  8
0
 62
7
  6
CONTINUOUS
 10
70.1703156743
 20
138.1770053199
  0
VERTEX
  8
0
 62
7
  6
CONTINUOUS
 10
70.1670516194
 20
138.2489924788
  0
VERTEX
  8
0
 62
7
  6
CONTINUOUS
 10
70.1653224531
 20
138.3230256347
  0
VERTEX
  8
0
 62
7
  6
CONTINUOUS
 10
70.1649931719
 20
138.3739886957
  0
SEQEND
  0
LINE
  8
0
 62
7
  6
CONTINUOUS
 10
96.3445722608
 20
137.314527179
 11
95.9543139528
 21
137.314527179
  0
LINE
  8
0
 62
7
  6
CONTINUOUS
 10
89.0896989497
 20
137.314527179
 11
83.2543139528
 21
137.314527179
  0
LINE
  8
0
 62
7
  6
CONTINUOUS
 10
76.3896989497
 20
137.314527179
 11
70.5543139528
 21
137.314527179
  0
POLYLINE
  8
0
 62
7
  6
CONTINUOUS
 66
1
 70
0
  0
VERTEX
  8
0
 62
7
  6
CONTINUOUS
 10
83.254314117
 20
137.3145359026
  0
VERTEX
  8
0
 62
7
  6
CONTINUOUS
 10
83.2329806978
 20
137.3165801515
  0
VERTEX
  8
0
 62
7
  6
CONTINUOUS
 10
83.1954945287
 20
137.3293818219
  0
VERTEX
  8
0
 62
7
  6
CONTINUOUS
 10
83.1558057901
 20
137.3541047829
  0
VERTEX
  8
0
 62
7
  6
CONTINUOUS
 10
83.1202829402
 20
137.3853738265
  0
VERTEX
  8
0
 62
7
  6
CONTINUOUS
 10
83.0867295191
 20
137.4231600767
  0
VERTEX
  8
0
 62
7
  6
CONTINUOUS
 10
83.0556601235
 20
137.4661472278
  0
VERTEX
  8
0
 62
7
  6
CONTINUOUS
 10
83.0275860334
 20
137.5127402516
  0
VERTEX
  8
0
 62
7
  6
CONTINUOUS
 10
83.0024236958
 20
137.5620994353
  0
VERTEX
  8
0
 62
7
  6
CONTINUOUS
 10
82.979792129
 20
137.6141573048
  0
VERTEX
  8
0
 62
7
  6
CONTINUOUS
 10
82.9593491629
 20
137.6692062194
  0
VERTEX
  8
0
 62
7
  6
CONTINUOUS
 10
82.9412469947
 20
137.7263759156
  0
VERTEX
  8
0
 62
7
  6
CONTINUOUS
 10
82.9253822075
 20
137.7853533041
  0
VERTEX
  8
0
 62
7
  6
CONTINUOUS
 10
82.911615907
 20
137.8460551617
  0
VERTEX
  8
0
 62
7
  6
CONTINUOUS
 10
82.899815186
 20
137.9084825858
  0
VERTEX
  8
0
 62
7
  6
CONTINUOUS
 10
82.8898604356
 20
137.9727178727
  0
VERTEX
  8
0
 62
7
  6
CONTINUOUS
 10
82.881663925
 20
138.0388972971
  0
VERTEX
  8
0
 62
7
  6
CONTINUOUS
 10
82.8751692102
 20
138.1069908417
  0
VERTEX
  8
0
 62
7
  6
CONTINUOUS
 10
82.8703156743
 20
138.1770053199
  0
VERTEX
  8
0
 62
7
  6
CONTINUOUS
 10
82.8670516194
 20
138.2489924788
  0
VERTEX
  8
0
 62
7
  6
CONTINUOUS
 10
82.8653224531
 20
138.3230256347
  0
VERTEX
  8
0
 62
7
  6
CONTINUOUS
 10
82.8649931719
 20
138.3739886957
  0
SEQEND
  0
POLYLINE
  8
0
 62
7
  6
CONTINUOUS
 66
1
 70
0
  0
VERTEX
  8
0
 62
7
  6
CONTINUOUS
 10
95.8745858238
 20
111.0782572687
  0
VERTEX
  8
0
 62
7
  6
CONTINUOUS
 10
95.8769455972
 20
111.0296780439
  0
VERTEX
  8
0
 62
7
  6
CONTINUOUS
 10
95.8793236741
 20
110.9858984771
  0
VERTEX
  8
0
 62
7
  6
CONTINUOUS
 10
95.8817275716
 20
110.9466683358
  0
VERTEX
  8
0
 62
7
  6
CONTINUOUS
 10
95.8841707482
 20
110.9116885082
  0
VERTEX
  8
0
 62
7
  6
CONTINUOUS
 10
95.8866863815
 20
110.8804855136
  0
VERTEX
  8
0
 62
7
  6
CONTINUOUS
 10
95.8893457036
 20
110.8523598776
  0
VERTEX
  8
0
 62
7
  6
CONTINUOUS
 10
95.8922993723
 20
110.8262671996
  0
VERTEX
  8
0
 62
7
  6
CONTINUOUS
 10
95.8958623591
 20
110.8006766951
  0
VERTEX
  8
0
 62
7
  6
CONTINUOUS
 10
95.9007762489
 20
110.7729899283
  0
VERTEX
  8
0
 62
7
  6
CONTINUOUS
 10
95.9089432611
 20
110.7386137361
  0
VERTEX
  8
0
 62
7
  6
CONTINUOUS
 10
95.924609033
 20
110.6920678901
  0
VERTEX
  8
0
 62
7
  6
CONTINUOUS
 10
95.9543428512
 20
110.6322897225
  0
VERTEX
  8
0
 62
7
  6
CONTINUOUS
 10
96.0014024118
 20
110.5690450237
  0
VERTEX
  8
0
 62
7
  6
CONTINUOUS
 10
96.065210018
 20
110.5122264051
  0
VERTEX
  8
0
 62
7
  6
CONTINUOUS
 10
96.1454222168
 20
110.4676879884
  0
VERTEX
  8
0
 62
7
  6
CONTINUOUS
 10
96.2424106115
 20
110.44117326
  0
VERTEX
  8
0
 62
7
  6
CONTINUOUS
 10
96.2989025904
 20
110.4371767286
  0
SEQEND
  0
POLYLINE
  8
0
 62
7
  6
CONTINUOUS
 66
1
 70
0
  0
VERTEX
  8
0
 62
7
  6
CONTINUOUS
 10
96.3865166448
 20
137.3123219359
  0
VERTEX
  8
0
 62
7
  6
CONTINUOUS
 10
96.3545073682
 20
137.314403777
  0
VERTEX
  8
0
 62
7
  6
CONTINUOUS
 10
96.3445722608
 20
137.314527179
  0
SEQEND
  0
POLYLINE
  8
0
 62
7
  6
CONTINUOUS
 66
1
 70
0
  0
VERTEX
  8
0
 62
7
  6
CONTINUOUS
 10
101.4946621683
 20
136.8383036993
  0
VERTEX
  8
0
 62
7
  6
CONTINUOUS
 10
99.6884211586
 20
136.9925541364
  0
VERTEX
  8
0
 62
7
  6
CONTINUOUS
 10
97.9546951273
 20
137.1537846588
  0
VERTEX
  8
0
 62
7
  6
CONTINUOUS
 10
96.3865155973
 20
137.3123157627
  0
SEQEND
  0
POLYLINE
  8
0
 62
7
  6
CONTINUOUS
 66
1
 70
0
  0
VERTEX
  8
0
 62
7
  6
CONTINUOUS
 10
95.954314117
 20
137.3145359026
  0
VERTEX
  8
0
 62
7
  6
CONTINUOUS
 10
95.9329806978
 20
137.3165801515
  0
VERTEX
  8
0
 62
7
  6
CONTINUOUS
 10
95.8954945287
 20
137.3293818219
  0
VERTEX
  8
0
 62
7
  6
CONTINUOUS
 10
95.8558057901
 20
137.3541047829
  0
VERTEX
  8
0
 62
7
  6
CONTINUOUS
 10
95.8202829402
 20
137.3853738265
  0
VERTEX
  8
0
 62
7
  6
CONTINUOUS
 10
95.7867295191
 20
137.4231600767
  0
VERTEX
  8
0
 62
7
  6
CONTINUOUS
 10
95.7556601235
 20
137.4661472278
  0
VERTEX
  8
0
 62
7
  6
CONTINUOUS
 10
95.7275860334
 20
137.5127402516
  0
VERTEX
  8
0
 62
7
  6
CONTINUOUS
 10
95.7024236958
 20
137.5620994353
  0
VERTEX
  8
0
 62
7
  6
CONTINUOUS
 10
95.679792129
 20
137.6141573048
  0
VERTEX
  8
0
 62
7
  6
CONTINUOUS
 10
95.6593491629
 20
137.6692062194
  0
VERTEX
  8
0
 62
7
  6
CONTINUOUS
 10
95.6412469947
 20
137.7263759156
  0
VERTEX
  8
0
 62
7
  6
CONTINUOUS
 10
95.6253822075
 20
137.7853533041
  0
VERTEX
  8
0
 62
7
  6
CONTINUOUS
 10
95.611615907
 20
137.8460551617
  0
VERTEX
  8
0
 62
7
  6
CONTINUOUS
 10
95.599815186
 20
137.9084825858
  0
VERTEX
  8
0
 62
7
  6
CONTINUOUS
 10
95.5898604356
 20
137.9727178727
  0
VERTEX
  8
0
 62
7
  6
CONTINUOUS
 10
95.581663925
 20
138.0388972971
  0
VERTEX
  8
0
 62
7
  6
CONTINUOUS
 10
95.5751692102
 20
138.1069908417
  0
VERTEX
  8
0
 62
7
  6
CONTINUOUS
 10
95.5703156743
 20
138.1770053199
  0
VERTEX
  8
0
 62
7
  6
CONTINUOUS
 10
95.5670516194
 20
138.2489924788
  0
VERTEX
  8
0
 62
7
  6
CONTINUOUS
 10
95.5653224531
 20
138.3230256347
  0
VERTEX
  8
0
 62
7
  6
CONTINUOUS
 10
95.5649931719
 20
138.3739886957
  0
SEQEND
  0
POLYLINE
  8
0
 62
7
  6
CONTINUOUS
 66
1
 70
0
  0
VERTEX
  8
0
 62
7
  6
CONTINUOUS
 10
95.5194872238
 20
143.9961011411
  0
VERTEX
  8
0
 62
7
  6
CONTINUOUS
 10
95.5171274411
 20
144.0446799482
  0
VERTEX
  8
0
 62
7
  6
CONTINUOUS
 10
95.5147493598
 20
144.0884591348
  0
VERTEX
  8
0
 62
7
  6
CONTINUOUS
 10
95.512345447
 20
144.1276891396
  0
VERTEX
  8
0
 62
7
  6
CONTINUOUS
 10
95.5099022489
 20
144.1626687025
  0
VERTEX
  8
0
 62
7
  6
CONTINUOUS
 10
95.5073865936
 20
144.1938713334
  0
VERTEX
  8
0
 62
7
  6
CONTINUOUS
 10
95.5047272573
 20
144.2219965424
  0
VERTEX
  8
0
 62
7
  6
CONTINUOUS
 10
95.5017735814
 20
144.2480888596
  0
VERTEX
  8
0
 62
7
  6
CONTINUOUS
 10
95.4982104245
 20
144.2736800077
  0
VERTEX
  8
0
 62
7
  6
CONTINUOUS
 10
95.4932961535
 20
144.3013678949
  0
VERTEX
  8
0
 62
7
  6
CONTINUOUS
 10
95.4851283164
 20
144.3357458306
  0
VERTEX
  8
0
 62
7
  6
CONTINUOUS
 10
95.4694610122
 20
144.3822935347
  0
VERTEX
  8
0
 62
7
  6
CONTINUOUS
 10
95.4397256668
 20
144.4420715238
  0
VERTEX
  8
0
 62
7
  6
CONTINUOUS
 10
95.3926656341
 20
144.5053141031
  0
VERTEX
  8
0
 62
7
  6
CONTINUOUS
 10
95.3288588238
 20
144.5621301528
  0
VERTEX
  8
0
 62
7
  6
CONTINUOUS
 10
95.2486481382
 20
144.6066666264
  0
VERTEX
  8
0
 62
7
  6
CONTINUOUS
 10
95.1516614751
 20
144.6331803411
  0
VERTEX
  8
0
 62
7
  6
CONTINUOUS
 10
95.0951704641
 20
144.6371767197
  0
SEQEND
  0
LINE
  8
0
 62
7
  6
CONTINUOUS
 10
95.8698995201
 20
111.1909455137
 11
95.8745858238
 21
111.0782572687
  0
LINE
  8
0
 62
7
  6
CONTINUOUS
 10
95.5241735486
 20
143.8834134119
 11
95.5194872238
 21
143.9961011411
  0
LINE
  8
0
 62
7
  6
CONTINUOUS
 10
95.8652535772
 20
111.3259520027
 11
95.8698995201
 21
111.1909455137
  0
LINE
  8
0
 62
7
  6
CONTINUOUS
 10
95.5288195071
 20
143.7484075358
 11
95.5241735486
 21
143.8834134119
  0
LINE
  8
0
 62
7
  6
CONTINUOUS
 10
95.8606671936
 20
111.484862114
 11
95.8652535772
 21
111.3259520027
  0
LINE
  8
0
 62
7
  6
CONTINUOUS
 10
95.5334059094
 20
143.5894978114
 11
95.5288195071
 21
143.7484075358
  0
LINE
  8
0
 62
7
  6
CONTINUOUS
 10
95.8539782374
 20
111.7708752999
 11
95.8606671936
 21
111.484862114
  0
LINE
  8
0
 62
7
  6
CONTINUOUS
 10
95.540094895
 20
143.3034851831
 11
95.5334059094
 21
143.5894978114
  0
LINE
  8
0
 62
7
  6
CONTINUOUS
 10
95.8476395235
 20
112.1181175227
 11
95.8539782374
 21
111.7708752999
  0
LINE
  8
0
 62
7
  6
CONTINUOUS
 10
95.5464336388
 20
142.9562430976
 11
95.540094895
 21
143.3034851831
  0
LINE
  8
0
 62
7
  6
CONTINUOUS
 10
95.8400322987
 20
112.6841131368
 11
95.8476395235
 21
112.1181175227
  0
LINE
  8
0
 62
7
  6
CONTINUOUS
 10
95.5540409037
 20
142.390246984
 11
95.5464336388
 21
142.9562430976
  0
LINE
  8
0
 62
7
  6
CONTINUOUS
 10
95.5613910695
 20
141.5066134929
 11
95.5540409037
 21
142.390246984
  0
LINE
  8
0
 62
7
  6
CONTINUOUS
 10
95.8326821797
 20
113.5677447764
 11
95.8400322987
 21
112.6841131368
  0
LINE
  8
0
 62
7
  6
CONTINUOUS
 10
95.5649138024
 20
140.4284336738
 11
95.5613910695
 21
141.5066134929
  0
LINE
  8
0
 62
7
  6
CONTINUOUS
 10
95.8291594738
 20
114.6459211375
 11
95.8326821797
 21
113.5677447764
  0
LINE
  8
0
 62
7
  6
CONTINUOUS
 10
95.5649936807
 20
138.3739886956
 11
95.5649138024
 21
140.4284336738
  0
LINE
  8
0
 62
7
  6
CONTINUOUS
 10
95.8290795951
 20
116.7003647527
 11
95.8291594738
 21
114.6459211375
  0
LINE
  8
DEFAULT_1
 62
2
  6
CENTER
 10
62.1320366379
 20
140.2371767241
 11
97.5406629852
 21
140.2371767241
  0
POLYLINE
  8
0
 62
7
  6
CONTINUOUS
 66
1
 70
0
  0
VERTEX
  8
0
 62
7
  6
CONTINUOUS
 10
101.4946621496
 20
136.8383036837
  0
VERTEX
  8
0
 62
7
  6
CONTINUOUS
 10
101.591963524
 20
136.8179471585
  0
VERTEX
  8
0
 62
7
  6
CONTINUOUS
 10
101.6806616255
 20
136.7746037679
  0
VERTEX
  8
0
 62
7
  6
CONTINUOUS
 10
101.7558284854
 20
136.7110887325
  0
VERTEX
  8
0
 62
7
  6
CONTINUOUS
 10
101.8132844463
 20
136.6310129662
  0
VERTEX
  8
0
 62
7
  6
CONTINUOUS
 10
101.8495774361
 20
136.5386926288
  0
VERTEX
  8
0
 62
7
  6
CONTINUOUS
 10
101.8620366379
 20
136.4396364342
  0
SEQEND
  0
POLYLINE
  8
0
 62
7
  6
CONTINUOUS
 66
1
 70
0
  0
VERTEX
  8
0
 62
7
  6
CONTINUOUS
 10
89.9489028731
 20
144.6371767195
  0
VERTEX
  8
0
 62
7
  6
CONTINUOUS
 10
89.8918261968
 20
144.6330966254
  0
VERTEX
  8
0
 62
7
  6
CONTINUOUS
 10
89.7942419333
 20
144.6061746977
  0
VERTEX
  8
0
 62
7
  6
CONTINUOUS
 10
89.713584535
 20
144.5609573473
  0
VERTEX
  8
0
 62
7
  6
CONTINUOUS
 10
89.6496094681
 20
144.5033202435
  0
VERTEX
  8
0
 62
7
  6
CONTINUOUS
 10
89.6028119111
 20
144.4395038201
  0
VERTEX
  8
0
 62
7
  6
CONTINUOUS
 10
89.5736093859
 20
144.3797696743
  0
VERTEX
  8
0
 62
7
  6
CONTINUOUS
 10
89.5584156017
 20
144.3338137799
  0
VERTEX
  8
0
 62
7
  6
CONTINUOUS
 10
89.5505993436
 20
144.3004828548
  0
VERTEX
  8
0
 62
7
  6
CONTINUOUS
 10
89.5459287269
 20
144.2741027498
  0
VERTEX
  8
0
 62
7
  6
CONTINUOUS
 10
89.5425626162
 20
144.2501789333
  0
VERTEX
  8
0
 62
7
  6
CONTINUOUS
 10
89.5397919749
 20
144.2262630238
  0
VERTEX
  8
0
 62
7
  6
CONTINUOUS
 10
89.5373163647
 20
144.2009629778
  0
VERTEX
  8
0
 62
7
  6
CONTINUOUS
 10
89.5349955255
 20
144.1734153027
  0
VERTEX
  8
0
 62
7
  6
CONTINUOUS
 10
89.5327617608
 20
144.1430763258
  0
VERTEX
  8
0
 62
7
  6
CONTINUOUS
 10
89.5305803683
 20
144.1095768508
  0
VERTEX
  8
0
 62
7
  6
CONTINUOUS
 10
89.5284246223
 20
144.0724986485
  0
VERTEX
  8
0
 62
7
  6
CONTINUOUS
 10
89.5262804078
 20
144.0315102026
  0
VERTEX
  8
0
 62
7
  6
CONTINUOUS
 10
89.5219988361
 20
143.9366530544
  0
SEQEND
  0
LINE
  8
2_FEATURE
 62
7
  6
CONTINUOUS
 10
64.5320366379
 20
144.6371767241
 11
69.6951734219
 21
144.6371767241
  0
LINE
  8
2_FEATURE
 62
7
  6
CONTINUOUS
 10
77.2489003016
 20
144.6371767241
 11
82.3951734219
 21
144.6371767241
  0
LINE
  8
2_FEATURE
 62
7
  6
CONTINUOUS
 10
89.9488981685
 20
144.6371767241
 11
95.0951734219
 21
144.6371767241
  0
LINE
  8
0
 62
7
  6
CONTINUOUS
 10
101.8620366379
 20
136.4396367509
 11
101.8620366379
 21
110.8371943148
  0
LINE
  8
2_FEATURE
 62
2
  6
CONTINUOUS
 10
101.8620366379
 20
120.336392335
 11
101.8620366379
 21
122.2571767241
  0
LINE
  8
2_FEATURE
 62
2
  6
CONTINUOUS
 10
101.8620366379
 20
132.8171767241
 11
101.8620366379
 21
134.7379610729
  0
POLYLINE
  8
0
 62
7
  6
CONTINUOUS
 66
1
 70
0
  0
VERTEX
  8
0
 62
7
  6
CONTINUOUS
 10
77.2489028606
 20
144.6371767196
  0
VERTEX
  8
0
 62
7
  6
CONTINUOUS
 10
77.1921124975
 20
144.6331376639
  0
VERTEX
  8
0
 62
7
  6
CONTINUOUS
 10
77.094565042
 20
144.6063094729
  0
VERTEX
  8
0
 62
7
  6
CONTINUOUS
 10
77.0138224805
 20
144.5611293315
  0
VERTEX
  8
0
 62
7
  6
CONTINUOUS
 10
76.9497627902
 20
144.5034912929
  0
VERTEX
  8
0
 62
7
  6
CONTINUOUS
 10
76.9029356266
 20
144.4397122609
  0
VERTEX
  8
0
 62
7
  6
CONTINUOUS
 10
76.8737366965
 20
144.380092691
  0
VERTEX
  8
0
 62
7
  6
CONTINUOUS
 10
76.8585117972
 20
144.3341673093
  0
VERTEX
  8
0
 62
7
  6
CONTINUOUS
 10
76.8506370659
 20
144.3006712696
  0
VERTEX
  8
0
 62
7
  6
CONTINUOUS
 10
76.8459031734
 20
144.2739389596
  0
VERTEX
  8
0
 62
7
  6
CONTINUOUS
 10
76.8424741044
 20
144.2494792485
  0
VERTEX
  8
0
 62
7
  6
CONTINUOUS
 10
76.839640338
 20
144.2248260761
  0
VERTEX
  8
0
 62
7
  6
CONTINUOUS
 10
76.8371023581
 20
144.1985838655
  0
VERTEX
  8
0
 62
7
  6
CONTINUOUS
 10
76.8347219928
 20
144.1699074885
  0
VERTEX
  8
0
 62
7
  6
CONTINUOUS
 10
76.8324157859
 20
144.1380244047
  0
VERTEX
  8
0
 62
7
  6
CONTINUOUS
 10
76.8301305713
 20
144.1021732385
  0
VERTEX
  8
0
 62
7
  6
CONTINUOUS
 10
76.8278340114
 20
144.0616252901
  0
VERTEX
  8
0
 62
7
  6
CONTINUOUS
 10
76.8255052713
 20
144.0156487358
  0
VERTEX
  8
0
 62
7
  6
CONTINUOUS
 10
76.823139157
 20
143.9636743772
  0
VERTEX
  8
0
 62
7
  6
CONTINUOUS
 10
76.8207432781
 20
143.9053635224
  0
VERTEX
  8
0
 62
7
  6
CONTINUOUS
 10
76.8159030039
 20
143.7687678652
  0
SEQEND
  0
LINE
  8
2_FEATURE
 62
2
  6
CONTINUOUS
 10
64.1320366379
 20
194.00161026
 11
64.1320366379
 21
188.2016102974
  0
LINE
  8
0
 62
7
  6
CONTINUOUS
 10
64.1320366379
 20
183.90161026
 11
64.1320366379
 21
196.1538901599
  0
LINE
  8
0
 62
7
  6
CONTINUOUS
 10
67.7172160963
 20
183.8885217858
 11
67.8259554524
 21
188.0411102583
  0
LINE
  8
0
 62
7
  6
CONTINUOUS
 10
67.8257748988
 20
188.0411149863
 11
67.8257640037
 21
188.0410497299
  0
POLYLINE
  8
0
 62
7
  6
CONTINUOUS
 66
1
 70
0
  0
VERTEX
  8
0
 62
7
  6
CONTINUOUS
 10
67.8257748988
 20
188.0411149863
  0
VERTEX
  8
0
 62
7
  6
CONTINUOUS
 10
67.8269539708
 20
188.0466542854
  0
VERTEX
  8
0
 62
7
  6
CONTINUOUS
 10
67.8336694573
 20
188.0671093818
  0
SEQEND
  0
LINE
  8
0
 62
7
  6
CONTINUOUS
 10
70.4291405171
 20
196.5946292974
 11
70.5687810365
 21
188.5946292974
  0
LINE
  8
0
 62
7
  6
CONTINUOUS
 10
67.8337354855
 20
188.0672434016
 11
67.8474011616
 21
188.0949818563
  0
POLYLINE
  8
0
 62
7
  6
CONTINUOUS
 66
1
 70
0
  0
VERTEX
  8
0
 62
7
  6
CONTINUOUS
 10
67.8473945726
 20
188.0949677352
  0
VERTEX
  8
0
 62
7
  6
CONTINUOUS
 10
67.8686221555
 20
188.1255787016
  0
VERTEX
  8
0
 62
7
  6
CONTINUOUS
 10
67.8965828903
 20
188.1549416105
  0
SEQEND
  0
POLYLINE
  8
0
 62
7
  6
CONTINUOUS
 66
1
 70
0
  0
VERTEX
  8
0
 62
7
  6
CONTINUOUS
 10
67.8739624871
 20
188.13118684
  0
VERTEX
  8
0
 62
7
  6
CONTINUOUS
 10
67.8981261488
 20
188.156311836
  0
VERTEX
  8
0
 62
7
  6
CONTINUOUS
 10
67.909220735
 20
188.1644884657
  0
SEQEND
  0
LINE
  8
0
 62
7
  6
CONTINUOUS
 10
76.3752922394
 20
188.5946292974
 11
76.5149327588
 21
196.5946292974
  0
LINE
  8
0
 62
7
  6
CONTINUOUS
 10
76.0575149771
 20
189.6715426914
 11
76.0155664522
 21
188.2985564086
  0
POLYLINE
  8
0
 62
7
  6
CONTINUOUS
 66
1
 70
0
  0
VERTEX
  8
0
 62
7
  6
CONTINUOUS
 10
76.057521562
 20
189.6717904218
  0
VERTEX
  8
0
 62
7
  6
CONTINUOUS
 10
76.0606607681
 20
189.7012199168
  0
VERTEX
  8
0
 62
7
  6
CONTINUOUS
 10
76.0764994054
 20
189.7531404037
  0
VERTEX
  8
0
 62
7
  6
CONTINUOUS
 10
76.0873285804
 20
189.7750088527
  0
SEQEND
  0
POLYLINE
  8
0
 62
7
  6
CONTINUOUS
 66
1
 70
0
  0
VERTEX
  8
0
 62
7
  6
CONTINUOUS
 10
67.8965828903
 20
188.1549416105
  0
VERTEX
  8
0
 62
7
  6
CONTINUOUS
 10
67.9298711724
 20
188.1800881775
  0
VERTEX
  8
0
 62
7
  6
CONTINUOUS
 10
67.962741961
 20
188.1970600905
  0
SEQEND
  0
LINE
  8
0
 62
7
  6
CONTINUOUS
 10
101.3620366379
 20
183.40161026
 11
98.776685842
 21
183.40161026
  0
LINE
  8
0
 62
7
  6
CONTINUOUS
 10
64.6320366379
 20
183.40161026
 11
67.2173874338
 21
183.40161026
  0
POLYLINE
  8
0
 62
7
  6
CONTINUOUS
 66
1
 70
0
  0
VERTEX
  8
0
 62
7
  6
CONTINUOUS
 10
76.3392141221
 20
190.1368191454
  0
VERTEX
  8
0
 62
7
  6
CONTINUOUS
 10
76.3793534197
 20
190.2568288758
  0
VERTEX
  8
0
 62
7
  6
CONTINUOUS
 10
76.4025296206
 20
190.390582405
  0
VERTEX
  8
0
 62
7
  6
CONTINUOUS
 10
76.4083370391
 20
190.4875005241
  0
SEQEND
  0
LINE
  8
0
 62
7
  6
CONTINUOUS
 10
76.3082517237
 20
190.0746969286
 11
76.3392141221
 21
190.1368191454
  0
POLYLINE
  8
0
 62
7
  6
CONTINUOUS
 66
1
 70
0
  0
VERTEX
  8
0
 62
7
  6
CONTINUOUS
 10
76.0873350603
 20
189.7750195716
  0
VERTEX
  8
0
 62
7
  6
CONTINUOUS
 10
76.104401864
 20
189.8025859033
  0
VERTEX
  8
0
 62
7
  6
CONTINUOUS
 10
76.151271581
 20
189.8642433354
  0
VERTEX
  8
0
 62
7
  6
CONTINUOUS
 10
76.2111940054
 20
189.9365048712
  0
VERTEX
  8
0
 62
7
  6
CONTINUOUS
 10
76.2751410768
 20
190.0216546806
  0
VERTEX
  8
0
 62
7
  6
CONTINUOUS
 10
76.3082249687
 20
190.0747122077
  0
SEQEND
  0
LINE
  8
0
 62
7
  6
CONTINUOUS
 10
67.9475327633
 20
188.1892072464
 11
67.9660614993
 21
188.1983611928
  0
LINE
  8
0
 62
7
  6
CONTINUOUS
 10
67.962741961
 20
188.1970600905
 11
67.9703754144
 21
188.1999298549
  0
POLYLINE
  8
0
 62
7
  6
CONTINUOUS
 66
1
 70
0
  0
VERTEX
  8
0
 62
7
  6
CONTINUOUS
 10
88.7244952968
 20
189.8699876223
  0
VERTEX
  8
0
 62
7
  6
CONTINUOUS
 10
88.8054594157
 20
189.8881860013
  0
VERTEX
  8
0
 62
7
  6
CONTINUOUS
 10
88.883771908
 20
189.9308799677
  0
VERTEX
  8
0
 62
7
  6
CONTINUOUS
 10
88.9533037851
 20
189.9958862771
  0
VERTEX
  8
0
 62
7
  6
CONTINUOUS
 10
89.0108719626
 20
190.0793357117
  0
VERTEX
  8
0
 62
7
  6
CONTINUOUS
 10
89.0553058219
 20
190.177470314
  0
VERTEX
  8
0
 62
7
  6
CONTINUOUS
 10
89.0863709729
 20
190.2872935485
  0
VERTEX
  8
0
 62
7
  6
CONTINUOUS
 10
89.1040653056
 20
190.4065055577
  0
VERTEX
  8
0
 62
7
  6
CONTINUOUS
 10
89.1083360081
 20
190.4875005422
  0
SEQEND
  0
LINE
  8
2_FEATURE
 62
2
  6
CONTINUOUS
 10
64.1320366379
 20
188.20161026
 11
70.9687201145
 21
188.20161026
  0
LINE
  8
2_FEATURE
 62
2
  6
CONTINUOUS
 10
75.9156130931
 20
188.20161026
 11
83.6687201145
 21
188.20161026
  0
LINE
  8
2_FEATURE
 62
2
  6
CONTINUOUS
 10
87.2392204057
 20
188.20161026
 11
101.8620366379
 21
188.20161026
  0
LINE
  8
2_FEATURE
 62
7
  6
CONTINUOUS
 10
70.9687201145
 20
188.20161026
 11
75.9156130931
 21
188.20161026
  0
LINE
  8
2_FEATURE
 62
7
  6
CONTINUOUS
 10
83.6687201145
 20
188.20161026
 11
87.2392204057
 21
188.20161026
  0
LINE
  8
0
 62
7
  6
CONTINUOUS
 10
67.746997758
 20
188.20161026
 11
101.4620366379
 21
188.20161026
  0
LINE
  8
1_AXIS
 62
2
  6
CENTER
 10
82.9970366379
 20
181.40161026
 11
82.9970366379
 21
199.0016208884
  0
LINE
  8
0
 62
7
  6
CONTINUOUS
 10
88.7024290943
 20
189.8691417982
 11
88.7244952968
 21
189.8699876223
  0
LINE
  8
0
 62
7
  6
CONTINUOUS
 10
88.7024290848
 20
189.8691209437
 11
87.6360653369
 21
189.8691209437
  0
LINE
  8
0
 62
7
  6
CONTINUOUS
 10
83.1291405171
 20
196.5946292974
 11
83.2687810365
 21
188.5946292974
  0
LINE
  8
DEFAULT_1
 62
2
  6
CENTER
 10
68.4534102907
 20
192.60161026
 11
103.8620366379
 21
192.60161026
  0
POLYLINE
  8
0
 62
7
  6
CONTINUOUS
 66
1
 70
0
  0
VERTEX
  8
0
 62
7
  6
CONTINUOUS
 10
98.0174955899
 20
188.20161026
  0
VERTEX
  8
0
 62
7
  6
CONTINUOUS
 10
98.0307683795
 20
188.1972863595
  0
VERTEX
  8
0
 62
7
  6
CONTINUOUS
 10
98.0638469692
 20
188.1803111984
  0
SEQEND
  0
LINE
  8
2_FEATURE
 62
2
  6
CONTINUOUS
 10
64.1320366379
 20
194.00161026
 11
101.8620366379
 21
194.00161026
  0
POLYLINE
  8
0
 62
7
  6
CONTINUOUS
 66
1
 70
0
  0
VERTEX
  8
0
 62
7
  6
CONTINUOUS
 10
98.0174938914
 20
188.20161026
  0
VERTEX
  8
0
 62
7
  6
CONTINUOUS
 10
98.0370479063
 20
188.1946356841
  0
VERTEX
  8
0
 62
7
  6
CONTINUOUS
 10
98.0747314967
 20
188.1730725803
  0
SEQEND
  0
LINE
  8
0
 62
7
  6
CONTINUOUS
 10
87.4589606686
 20
189.6658816326
 11
87.3388398755
 21
188.2928946857
  0
POLYLINE
  8
0
 62
7
  6
CONTINUOUS
 66
1
 70
0
  0
VERTEX
  8
0
 62
7
  6
CONTINUOUS
 10
87.4589592511
 20
189.6658756765
  0
VERTEX
  8
0
 62
7
  6
CONTINUOUS
 10
87.4633485675
 20
189.6936592059
  0
VERTEX
  8
0
 62
7
  6
CONTINUOUS
 10
87.4704639364
 20
189.7185799933
  0
VERTEX
  8
0
 62
7
  6
CONTINUOUS
 10
87.4800349798
 20
189.7423935982
  0
VERTEX
  8
0
 62
7
  6
CONTINUOUS
 10
87.491628204
 20
189.7647459378
  0
VERTEX
  8
0
 62
7
  6
CONTINUOUS
 10
87.5048621243
 20
189.7853654379
  0
VERTEX
  8
0
 62
7
  6
CONTINUOUS
 10
87.519580112
 20
189.8042620524
  0
VERTEX
  8
0
 62
7
  6
CONTINUOUS
 10
87.5357898161
 20
189.8214511799
  0
VERTEX
  8
0
 62
7
  6
CONTINUOUS
 10
87.5535714418
 20
189.8368213405
  0
VERTEX
  8
0
 62
7
  6
CONTINUOUS
 10
87.5730745956
 20
189.8500688949
  0
VERTEX
  8
0
 62
7
  6
CONTINUOUS
 10
87.5944736886
 20
189.860611496
  0
VERTEX
  8
0
 62
7
  6
CONTINUOUS
 10
87.6179270804
 20
189.8674484885
  0
VERTEX
  8
0
 62
7
  6
CONTINUOUS
 10
87.6360653609
 20
189.8691360304
  0
SEQEND
  0
LINE
  8
0
 62
7
  6
CONTINUOUS
 10
89.0752922394
 20
188.5946292974
 11
89.2149327588
 21
196.5946292974
  0
LINE
  8
2_FEATURE
 62
7
  6
CONTINUOUS
 10
70.8290795951
 20
197.00161026
 11
76.1149936813
 21
197.00161026
  0
LINE
  8
2_FEATURE
 62
7
  6
CONTINUOUS
 10
83.5290795951
 20
197.00161026
 11
88.8149936883
 21
197.00161026
  0
LINE
  8
0
 62
7
  6
CONTINUOUS
 10
69.6495010151
 20
197.00161026
 11
96.3445722608
 21
197.00161026
  0
LINE
  8
2_FEATURE
 62
7
  6
CONTINUOUS
 10
96.2290795951
 20
197.00161026
 11
96.3445722607
 21
197.00161026
  0
LINE
  8
0
 62
7
  6
CONTINUOUS
 10
64.4971743269
 20
196.552368019
 11
69.614638718
 21
197.0000881392
  0
LINE
  8
0
 62
7
  6
CONTINUOUS
 10
101.496898935
 20
196.5523680202
 11
96.3794345579
 21
197.0000881392
  0
POLYLINE
  8
0
 62
7
  6
CONTINUOUS
 66
1
 70
0
  0
VERTEX
  8
0
 62
7
  6
CONTINUOUS
 10
98.0638469692
 20
188.1803111984
  0
VERTEX
  8
0
 62
7
  6
CONTINUOUS
 10
98.0975889468
 20
188.1548524174
  0
VERTEX
  8
0
 62
7
  6
CONTINUOUS
 10
98.1258155774
 20
188.1251286237
  0
VERTEX
  8
0
 62
7
  6
CONTINUOUS
 10
98.1470154055
 20
188.0943916171
  0
SEQEND
  0
POLYLINE
  8
0
 62
7
  6
CONTINUOUS
 66
1
 70
0
  0
VERTEX
  8
0
 62
7
  6
CONTINUOUS
 10
98.0747314967
 20
188.1730725803
  0
VERTEX
  8
0
 62
7
  6
CONTINUOUS
 10
98.1097467109
 20
188.1432053827
  0
VERTEX
  8
0
 62
7
  6
CONTINUOUS
 10
98.1372770534
 20
188.10976546
  0
VERTEX
  8
0
 62
7
  6
CONTINUOUS
 10
98.1560349223
 20
188.0771717616
  0
VERTEX
  8
0
 62
7
  6
CONTINUOUS
 10
98.1658523394
 20
188.051379699
  0
VERTEX
  8
0
 62
7
  6
CONTINUOUS
 10
98.1666681281
 20
188.0484239032
  0
SEQEND
  0
LINE
  8
0
 62
7
  6
CONTINUOUS
 10
95.8291405171
 20
196.5946292974
 11
95.9687810365
 21
188.5946292974
  0
POLYLINE
  8
0
 62
7
  6
CONTINUOUS
 66
1
 70
0
  0
VERTEX
  8
0
 62
7
  6
CONTINUOUS
 10
98.1470154055
 20
188.0943916171
  0
VERTEX
  8
0
 62
7
  6
CONTINUOUS
 10
98.1605935282
 20
188.0666292518
  0
VERTEX
  8
0
 62
7
  6
CONTINUOUS
 10
98.1638492443
 20
188.0566421785
  0
SEQEND
  0
LINE
  8
0
 62
7
  6
CONTINUOUS
 10
98.1666681281
 20
188.0484239032
 11
98.1680926501
 21
188.0420715904
  0
LINE
  8
0
 62
7
  6
CONTINUOUS
 10
98.168274489
 20
188.0412669663
 11
98.1683098391
 21
188.0410556599
  0
LINE
  8
0
 62
7
  6
CONTINUOUS
 10
98.2768571795
 20
183.8885217858
 11
98.1681138301
 21
188.0412627593
  0
LINE
  8
2_FEATURE
 62
2
  6
CONTINUOUS
 10
101.8620366379
 20
194.00161026
 11
101.8620366379
 21
188.2016102974
  0
LINE
  8
0
 62
7
  6
CONTINUOUS
 10
101.8620366379
 20
196.153890141
 11
101.8620366379
 21
183.90161026
  0
LINE
  8
0
 62
2
  6
CONTINUOUS
 10
148.8342557341
 20
114.8371767241
 11
147.0742557341
 21
114.8371767241
  0
LINE
  8
DEFAULT_1
 62
2
  6
CENTER
 10
143.5542557341
 20
114.8371767241
 11
143.3542557341
 21
114.8371767241
  0
LINE
  8
DEFAULT_1
 62
2
  6
CENTER
 10
152.3542557341
 20
114.8371767241
 11
152.5542557341
 21
114.8371767241
  0
LINE
  8
0
 62
7
  6
CONTINUOUS
 10
143.9542557341
 20
119.6371767241
 11
147.9542557341
 21
119.6371767241
  0
LINE
  8
0
 62
7
  6
CONTINUOUS
 10
138.7542557341
 20
124.5758273484
 11
138.7542557341
 21
130.4985260999
  0
LINE
  8
0
 62
7
  6
CONTINUOUS
 10
139.6039022301
 20
132.1345844167
 11
143.0366497846
 21
134.5482350409
  0
LINE
  8
0
 62
7
  6
CONTINUOUS
 10
143.0366497846
 20
120.5261184074
 11
139.6039022301
 21
122.9397690316
  0
LINE
  8
2_FEATURE
 62
2
  6
CONTINUOUS
 10
147.9542557341
 20
122.2571767241
 11
149.3542557341
 21
122.2571767241
  0
LINE
  8
0
 62
7
  6
CONTINUOUS
 10
143.5542557341
 20
140.2371767241
 11
143.5542557341
 21
135.1352036063
  0
LINE
  8
0
 62
7
  6
CONTINUOUS
 10
143.5542557341
 20
114.8372564252
 11
143.5542557341
 21
120.0011389504
  0
LINE
  8
0
 62
7
  6
CONTINUOUS
 10
151.6467220129
 20
117.904046917
 11
151.6465634632
 21
117.9042377984
  0
LINE
  8
1_AXIS
 62
2
  6
CENTER
 10
136.7542557341
 20
127.5371767241
 11
154.3542663626
 21
127.5371767241
  0
LINE
  8
0
 62
2
  6
CONTINUOUS
 10
147.9542557341
 20
141.1171767241
 11
147.9542557341
 21
139.3571767241
  0
LINE
  8
DEFAULT_1
 62
2
  6
CENTER
 10
147.9542557341
 20
135.8371767241
 11
147.9542557341
 21
135.6371767241
  0
LINE
  8
0
 62
2
  6
CONTINUOUS
 10
147.9542557341
 20
115.7171767241
 11
147.9542557341
 21
113.9571767241
  0
LINE
  8
DEFAULT_1
 62
2
  6
CENTER
 10
147.9542557341
 20
110.4371767241
 11
147.9542557341
 21
110.2371767241
  0
LINE
  8
DEFAULT_1
 62
2
  6
CENTER
 10
147.9542557341
 20
119.2371767241
 11
147.9542557341
 21
119.4371767241
  0
LINE
  8
DEFAULT_1
 62
2
  6
CENTER
 10
147.9542557341
 20
144.6371767241
 11
147.9542557341
 21
144.8371767241
  0
LINE
  8
2_FEATURE
 62
2
  6
CONTINUOUS
 10
149.3542557341
 20
132.8171767241
 11
147.9542557341
 21
132.8171767241
  0
LINE
  8
0
 62
7
  6
CONTINUOUS
 10
152.3542557341
 20
114.8372591164
 11
152.3542557341
 21
140.2371767105
  0
LINE
  8
0
 62
2
  6
CONTINUOUS
 10
148.8342557341
 20
140.2371767241
 11
147.0742557341
 21
140.2371767241
  0
LINE
  8
DEFAULT_1
 62
2
  6
CENTER
 10
143.5542557341
 20
140.2371767241
 11
143.3542557341
 21
140.2371767241
  0
LINE
  8
DEFAULT_1
 62
2
  6
CENTER
 10
152.3542557341
 20
140.2371767241
 11
152.5542557341
 21
140.2371767241
  0
ARC
  8
0
 62
7
  6
CONTINUOUS
 10
64.5320366379
 20
144.2371767241
 40
0.4
 50
90.0
 51
180.0002598379
  0
ARC
  8
0
 62
7
  6
CONTINUOUS
 10
101.4620366379
 20
110.8371767241
 40
0.4
 50
270.0
 51
0.0002327402
  0
ARC
  8
0
 62
7
  6
CONTINUOUS
 10
67.2173874338
 20
183.90161026
 40
0.5
 50
270.0
 51
358.5
  0
ARC
  8
0
 62
7
  6
CONTINUOUS
 10
64.6320366379
 20
183.90161026
 40
0.5
 50
180.0
 51
270.0
  0
ARC
  8
0
 62
7
  6
CONTINUOUS
 10
64.5320366379
 20
188.60161026
 40
0.4
 50
180.0
 51
243.4876525814
  0
ARC
  8
0
 62
7
  6
CONTINUOUS
 10
70.9687201145
 20
188.60161026
 40
0.4
 50
181.0
 51
270.0
  0
ARC
  8
0
 62
7
  6
CONTINUOUS
 10
75.975365089
 20
188.60161026
 40
0.3999940371
 50
269.9982914894
 51
359.0
  0
ARC
  8
0
 62
7
  6
CONTINUOUS
 10
75.9156130931
 20
188.30161026
 40
0.1
 50
270.0
 51
358.25
  0
ARC
  8
0
 62
7
  6
CONTINUOUS
 10
76.1149936807
 20
196.60161026
 40
0.4
 50
359.0
 51
90.0
  0
ARC
  8
0
 62
7
  6
CONTINUOUS
 10
70.8290796181
 20
196.6016089438
 40
0.4
 50
90.0000032907
 51
180.999811449
  0
ARC
  8
0
 62
7
  6
CONTINUOUS
 10
69.6495010151
 20
196.60161026
 40
0.4
 50
90.0
 51
95.0
  0
ARC
  8
0
 62
7
  6
CONTINUOUS
 10
64.5320366379
 20
196.153890141
 40
0.4
 50
95.0000000039
 51
180.0
  0
ARC
  8
0
 62
7
  6
CONTINUOUS
 10
83.6687201145
 20
188.60161026
 40
0.4
 50
181.0
 51
270.0
  0
ARC
  8
0
 62
7
  6
CONTINUOUS
 10
87.2392204057
 20
188.30161026
 40
0.1
 50
270.0
 51
355.0
  0
ARC
  8
0
 62
7
  6
CONTINUOUS
 10
88.675365089
 20
188.60161026
 40
0.3999940371
 50
269.9982914894
 51
358.9999701815
  0
ARC
  8
0
 62
7
  6
CONTINUOUS
 10
98.776685842
 20
183.90161026
 40
0.5
 50
181.5
 51
270.0
  0
ARC
  8
0
 62
7
  6
CONTINUOUS
 10
101.3620366379
 20
183.90161026
 40
0.5
 50
270.0
 51
360.0
  0
ARC
  8
0
 62
7
  6
CONTINUOUS
 10
96.3687201145
 20
188.60161026
 40
0.4
 50
181.0
 51
270.0
  0
ARC
  8
0
 62
7
  6
CONTINUOUS
 10
101.4620366379
 20
188.60161026
 40
0.4
 50
270.0
 51
360.0
  0
ARC
  8
0
 62
7
  6
CONTINUOUS
 10
88.8149936807
 20
196.60161026
 40
0.4
 50
359.0
 51
90.0
  0
ARC
  8
0
 62
7
  6
CONTINUOUS
 10
83.5290796181
 20
196.6016089438
 40
0.4
 50
90.0000032907
 51
180.999811449
  0
ARC
  8
0
 62
7
  6
CONTINUOUS
 10
101.4620366379
 20
196.153890141
 40
0.4
 50
0.0000027091
 51
84.9999979993
  0
ARC
  8
0
 62
7
  6
CONTINUOUS
 10
96.3445722608
 20
196.60161026
 40
0.4
 50
85.0
 51
90.0
  0
ARC
  8
0
 62
7
  6
CONTINUOUS
 10
96.2290796181
 20
196.6016089438
 40
0.4
 50
90.0000032907
 51
180.999811449
  0
ARC
  8
0
 62
7
  6
CONTINUOUS
 10
140.7542557341
 20
124.5758273484
 40
2.0
 50
179.9978853064
 51
234.8879888156
  0
ARC
  8
0
 62
7
  6
CONTINUOUS
 10
143.0606229576
 20
119.9303012091
 40
0.5000000588
 50
6.8199677508
 51
63.2207831806
  0
ARC
  8
0
 62
7
  6
CONTINUOUS
 10
143.0542557341
 20
119.9335318912
 40
0.499997149
 50
359.9993251618
 51
63.0568091565
  0
ARC
  8
0
 62
7
  6
CONTINUOUS
 10
143.9542557341
 20
120.0371647399
 40
0.3999940079
 50
186.4371190732
 51
270.0
  0
ARC
  8
0
 62
7
  6
CONTINUOUS
 10
144.1870032886
 20
122.1621767241
 40
2.0
 50
234.8879888156
 51
243.2209148555
  0
ARC
  8
0
 62
7
  6
CONTINUOUS
 10
140.7542557341
 20
130.4985260999
 40
2.0
 50
125.1120111844
 51
180.0021146987
  0
ARC
  8
0
 62
7
  6
CONTINUOUS
 10
144.1870032886
 20
132.9121767241
 40
2.0
 50
116.9426362634
 51
125.1141575495
  0
ARC
  8
0
 62
7
  6
CONTINUOUS
 10
143.0542557341
 20
135.140818037
 40
0.4999954845
 50
296.9426885016
 51
359.3607016173
  0
ARC
  8
2_FEATURE
 62
2
  6
CONTINUOUS
 10
147.9542557341
 20
116.2571767241
 40
6.0
 50
90.0
 51
137.1665719339
  0
ARC
  8
0
 62
7
  6
CONTINUOUS
 10
147.9542557341
 20
114.8371767241
 40
4.8
 50
39.7151372318
 51
90.0
  0
ARC
  8
0
 62
7
  6
CONTINUOUS
 10
147.9542557341
 20
114.8371767241
 40
4.4
 50
179.9989621513
 51
0.0010728928
  0
CIRCLE
  8
0
 62
7
  6
CONTINUOUS
 10
147.9542557341
 20
114.8371767241
 40
2.6
  0
ARC
  8
0
 62
7
  6
CONTINUOUS
 10
151.9542557341
 20
118.1598171458
 40
0.3999999318
 50
219.7141309782
 51
360.0
  0
ARC
  8
2_FEATURE
 62
2
  6
CONTINUOUS
 10
147.9542557341
 20
138.8171767241
 40
6.0
 50
222.8334280661
 51
270.0
  0
ARC
  8
0
 62
7
  6
CONTINUOUS
 10
147.9542557341
 20
140.2371767241
 40
4.4
 50
359.9999998221
 51
180.0010746376
  0
CIRCLE
  8
0
 62
7
  6
CONTINUOUS
 10
147.9542557341
 20
140.2371767241
 40
2.6
  0
ENDSEC
  0
EOF
