  0
SECTION
  2
HEADER
  9
$EXTMAX
 10
210.0
 20
297.0
 30
0.0
  9
$EXTMIN
 10
0.0
 20
0.0
 30
0.0
  9
$LIMMIN
 10
0.0
 20
0.0
  9
$LIMMAX
 10
210.0
 20
297.0
  9
$VIEWCTR
 10
105.0
 20
148.5
  9
$VIEWSIZE
 40
297.0
  9
$CLAYER
  8
0
  9
$LTSCALE
 40
19.36
  9
$CELTYPE
  6
BYLAYER
  9
$DIMSCALE
 40
1.0
  9
$DIMASZ
 40
3.5
  9
$DIMEXO
 40
2.2
  9
$DIMDLI
 40
13.376
  9
$DIMEXE
 40
6.336
  9
$DIMCEN
 40
3.168
  9
$DIMLFAC
 40
1.0
  9
$DIMBLK
  1
_FILLED
  9
$DIMTXT
 40
3.5
  9
$PDMODE
 70
3
  9
$PDSIZE
 40
0.3125
  9
$TILEMODE
 70
1
  0
ENDSEC
  0
SECTION
  2
TABLES
  0
TABLE
  2
LTYPE
 70
6
  0
LTYPE
  2
BYBLOCK
 70
0
  3

 72
65
 73
0
 40
0.0
  0
LTYPE
  2
BYLAYER
 70
0
  3

 72
65
 73
0
 40
0.0
  0
LTYPE
  2
CONTINUOUS
 70
64
  3
Solid line
 72
65
 73
0
 40
0.0
  0
LTYPE
  2
CENTER
 70
64
  3
____ _ ____ _ ____ _ ____ _ ____ _ ____ _ ____
 72
65
 73
4
 40
0.6
 49
0.375
 49
-0.075
 49
0.075
 49
-0.075
  0
LTYPE
  2
HIDDEN
 70
64
  3
- - - - - - - - - - - - - - - - - - - -
 72
65
 73
2
 40
0.2
 49
0.1
 49
-0.1
  0
LTYPE
  2
PHANTOM
 70
64
  3
_____ _ _ _____ _ _ _____ _ _ _____
 72
65
 73
6
 40
0.8
 49
0.45
 49
-0.05
 49
0.1
 49
-0.05
 49
0.1
 49
-0.05
  0
LTYPE
  2
DOT
 70
64
  3
. . . . . . . . . . . . . . . . . . . .
 72
65
 73
2
 40
0.2
 49
0.1
 49
-0.1
  0
LTYPE
  2
DASHED
 70
64
  3
- - - - - - - - - - - - - - - - - - - -
 72
65
 73
2
 40
0.2
 49
0.1
 49
-0.1
  0
ENDTAB
  0
TABLE
  2
LAYER
 70
36
  0
LAYER
  2
0
 70
0
 62
7
  6
CONTINUOUS
  0
LAYER
  2
DEFAULT_1
 70
0
 62
7
  6
CENTER
  0
LAYER
  2
DEFAULT_2
 70
0
 62
8
  6
HIDDEN
  0
LAYER
  2
DEFAULT_3
 70
0
 62
7
  6
PHANTOM
  0
LAYER
  2
AXES
 70
0
 62
7
  6
CONTINUOUS
  0
LAYER
  2
CSYS
 70
0
 62
7
  6
CONTINUOUS
  0
LAYER
  2
CURVE
 70
0
 62
7
  6
CONTINUOUS
  0
LAYER
  2
CURVES
 70
0
 62
7
  6
CONTINUOUS
  0
LAYER
  2
PLANES
 70
0
 62
7
  6
CONTINUOUS
  0
LAYER
  2
SURFACE
 70
0
 62
7
  6
CONTINUOUS
  0
ENDTAB
  0
TABLE
  2
STYLE
 70
1
  0
STYLE
  2
STANDARD
 70
0
 40
0.0
 41
0.8
 50
0.0
 71
0
 42
0.2
  3
txt
  4

  0
STYLE
  2
TEXTSTYLE_1
 70
0
 40
0.0
 41
0.8
 50
0.0
 71
0
 42
0.2
  3
gdt
  4

  0
STYLE
  2
TEXTSTYLE_2
 70
0
 40
0.0
 41
0.6
 50
0.0
 71
0
 42
0.2
  3
txt
  4

  0
STYLE
  2
TEXTSTYLE_3
 70
0
 40
0.0
 41
1.0
 50
0.0
 71
0
 42
0.2
  3
ftb_____.ttf
  4

  0
STYLE
  2
TEXTSTYLE_4
 70
0
 40
0.0
 41
1.0
 50
0.0
 71
0
 42
0.2
  3
fti_____.ttf
  4

  0
STYLE
  2
TEXTSTYLE_5
 70
0
 40
0.0
 41
1.0
 50
0.0
 71
0
 42
0.2
  3
frutiger light.ttf
  4

  0
STYLE
  2
TEXTSTYLE_6
 70
0
 40
0.0
 41
0.7
 50
0.0
 71
0
 42
0.2
  3
txt
  4

  0
STYLE
  2
TEXTSTYLE_7
 70
0
 40
0.0
 41
0.45
 50
0.0
 71
0
 42
0.2
  3
txt
  4

  0
ENDTAB
  0
ENDSEC
  0
SECTION
  2
BLOCKS
  0
BLOCK
  8
0
 62
2
  6
CONTINUOUS
  2
SYMBOL_8_BL1
 70
64
 10
173.5956734183
 20
35.5937998301
  0
TEXT
  8
0
 62
7
  6
CONTINUOUS
 10
164.6539584268
 20
30.6865562072
  7
TEXTSTYLE_4
 40
1.0655737705
  1
The brand for plastic modular belts and chains
 41
1.0
 72
0
  0
LINE
  8
0
 62
7
  6
CONTINUOUS
 10
149.5737418074
 20
36.1675703219
 11
149.5737418074
 21
34.0364227809
  0
LINE
  8
0
 62
7
  6
CONTINUOUS
 10
149.8628043005
 20
31.0454914852
 11
149.8628043005
 21
31.1422825445
  0
LINE
  8
0
 62
7
  6
CONTINUOUS
 10
149.5737418074
 20
31.1100188581
 11
149.6315543091
 21
30.9164367395
  0
LINE
  8
0
 62
7
  6
CONTINUOUS
 10
150.9671844304
 20
33.9544555678
 11
150.9671844304
 21
36.1675703219
  0
LINE
  8
0
 62
7
  6
CONTINUOUS
 10
151.8862417523
 20
32.1101932727
 11
151.8862417523
 21
30.5937998301
  0
LINE
  8
0
 62
7
  6
CONTINUOUS
 10
152.1753043074
 20
30.5937998301
 11
152.1753043074
 21
31.3358647082
  0
LINE
  8
0
 62
7
  6
CONTINUOUS
 10
152.1753043074
 20
31.4649194539
 11
152.1753043074
 21
32.1101932727
  0
LINE
  8
0
 62
7
  6
CONTINUOUS
 10
149.6315543091
 20
31.3036010218
 11
149.5737418074
 21
31.1100188581
  0
LINE
  8
0
 62
7
  6
CONTINUOUS
 10
149.9784292936
 20
30.8841730531
 11
149.8628043005
 21
31.0454914852
  0
LINE
  8
0
 62
7
  6
CONTINUOUS
 10
151.0768668626
 20
31.400392081
 11
151.1346793074
 21
31.3036010218
  0
LINE
  8
0
 62
7
  6
CONTINUOUS
 10
151.4237418626
 20
31.3036010218
 11
151.3659292523
 21
31.4326557675
  0
LINE
  8
0
 62
7
  6
CONTINUOUS
 10
152.852430332
 20
36.1675703219
 11
152.852430332
 21
34.3642916334
  0
LINE
  8
0
 62
7
  6
CONTINUOUS
 10
152.852430332
 20
33.0528162235
 11
152.852430332
 21
32.3970785186
  0
LINE
  8
0
 62
7
  6
CONTINUOUS
 10
153.2159293074
 20
31.2390736489
 11
153.2159293074
 21
30.5937998301
  0
LINE
  8
0
 62
7
  6
CONTINUOUS
 10
153.5049916972
 20
30.5937998301
 11
153.5049916972
 21
31.2390736489
  0
LINE
  8
0
 62
7
  6
CONTINUOUS
 10
149.8628043005
 20
31.1422825445
 11
149.9206168074
 21
31.2713373354
  0
LINE
  8
0
 62
7
  6
CONTINUOUS
 10
149.6315543091
 20
30.9164367395
 11
149.7471793074
 21
30.7873819712
  0
LINE
  8
0
 62
7
  6
CONTINUOUS
 10
153.1581166972
 20
31.3681283946
 11
153.2159293074
 21
31.2390736489
  0
LINE
  8
0
 62
7
  6
CONTINUOUS
 10
153.9674919177
 20
30.8841730531
 11
154.0253041972
 21
30.7551182848
  0
LINE
  8
0
 62
7
  6
CONTINUOUS
 10
153.5049916972
 20
31.2390736489
 11
153.4471794177
 21
31.400392081
  0
LINE
  8
0
 62
7
  6
CONTINUOUS
 10
153.9674919177
 20
31.4326557675
 11
153.9674919177
 21
31.3681283946
  0
LINE
  8
0
 62
7
  6
CONTINUOUS
 10
153.9674919177
 20
30.9809641124
 11
153.9674919177
 21
30.8841730531
  0
LINE
  8
0
 62
7
  6
CONTINUOUS
 10
154.245872955
 20
32.3970785186
 11
154.245872955
 21
36.1675703219
  0
LINE
  8
0
 62
7
  6
CONTINUOUS
 10
154.2565543074
 20
30.8519093441
 11
154.2565543074
 21
30.9164367395
  0
LINE
  8
0
 62
7
  6
CONTINUOUS
 10
154.5737418074
 20
36.1675703219
 11
154.5737418074
 21
32.3970785186
  0
LINE
  8
0
 62
7
  6
CONTINUOUS
 10
151.3659292523
 20
30.7873819712
 11
151.4237418626
 21
30.9164367395
  0
LINE
  8
0
 62
7
  6
CONTINUOUS
 10
155.759679528
 20
30.6905909007
 11
155.7018665869
 21
30.8519093441
  0
LINE
  8
0
 62
7
  6
CONTINUOUS
 10
155.412804528
 20
31.3681283946
 11
155.412804528
 21
31.2713373354
  0
LINE
  8
0
 62
7
  6
CONTINUOUS
 10
155.412804528
 20
31.1422825445
 11
155.412804528
 21
30.9487004259
  0
LINE
  8
0
 62
7
  6
CONTINUOUS
 10
155.7018665869
 20
30.8519093441
 11
155.7018665869
 21
31.3681283946
  0
LINE
  8
0
 62
7
  6
CONTINUOUS
 10
155.9671844304
 20
32.3970785186
 11
155.9671844304
 21
34.2003572071
  0
LINE
  8
0
 62
7
  6
CONTINUOUS
 10
155.9671844304
 20
35.511832617
 11
155.9671844304
 21
36.1675703219
  0
LINE
  8
0
 62
7
  6
CONTINUOUS
 10
156.279992028
 20
32.1101932727
 11
156.279992028
 21
31.9488748406
  0
LINE
  8
0
 62
7
  6
CONTINUOUS
 10
156.279992028
 20
31.626237886
 11
156.279992028
 21
30.5937998301
  0
LINE
  8
0
 62
7
  6
CONTINUOUS
 10
156.5690540869
 20
30.5937998301
 11
156.5690540869
 21
31.626237886
  0
LINE
  8
0
 62
7
  6
CONTINUOUS
 10
156.5690540869
 20
31.9488748406
 11
156.5690540869
 21
32.1101932727
  0
LINE
  8
0
 62
7
  6
CONTINUOUS
 10
151.1346793074
 20
30.9164367395
 11
151.0768668626
 21
30.8196456577
  0
LINE
  8
0
 62
7
  6
CONTINUOUS
 10
153.4471794177
 20
31.400392081
 11
153.3893668074
 21
31.4649194539
  0
LINE
  8
0
 62
7
  6
CONTINUOUS
 10
154.3143669177
 20
30.7873819712
 11
154.2565543074
 21
30.8519093441
  0
LINE
  8
0
 62
7
  6
CONTINUOUS
 10
155.4706168074
 20
30.6583272086
 11
155.5284290869
 21
30.5937998301
  0
LINE
  8
0
 62
7
  6
CONTINUOUS
 10
155.412804528
 20
30.7551182848
 11
155.4706168074
 21
30.6583272086
  0
LINE
  8
0
 62
7
  6
CONTINUOUS
 10
155.8174918074
 20
30.5937998301
 11
155.759679528
 21
30.6905909007
  0
LINE
  8
0
 62
7
  6
CONTINUOUS
 10
155.7018665869
 20
31.3681283946
 11
155.6440543074
 21
31.4649194539
  0
LINE
  8
0
 62
7
  6
CONTINUOUS
 10
157.0315543074
 20
31.626237886
 11
157.0315543074
 21
30.5937998301
  0
LINE
  8
0
 62
7
  6
CONTINUOUS
 10
157.320617028
 20
30.5937998301
 11
157.320617028
 21
31.3358647082
  0
LINE
  8
0
 62
7
  6
CONTINUOUS
 10
157.320617028
 20
31.4649194539
 11
157.320617028
 21
31.626237886
  0
LINE
  8
0
 62
7
  6
CONTINUOUS
 10
157.852430332
 20
34.6101932727
 11
157.852430332
 21
32.3970785186
  0
LINE
  8
0
 62
7
  6
CONTINUOUS
 10
149.7471793074
 20
31.4326557675
 11
149.6315543091
 21
31.3036010218
  0
LINE
  8
0
 62
7
  6
CONTINUOUS
 10
149.9206168074
 20
31.2713373354
 11
149.9784292936
 21
31.3358647082
  0
LINE
  8
0
 62
7
  6
CONTINUOUS
 10
149.7471793074
 20
30.7873819712
 11
149.8628043005
 21
30.7228545871
  0
LINE
  8
0
 62
7
  6
CONTINUOUS
 10
150.1518667936
 20
30.7873819712
 11
149.9784292936
 21
30.8841730531
  0
LINE
  8
0
 62
7
  6
CONTINUOUS
 10
155.3549915869
 20
31.4326557675
 11
155.412804528
 21
31.3681283946
  0
LINE
  8
0
 62
7
  6
CONTINUOUS
 10
158.3034290869
 20
31.3681283946
 11
158.361242028
 21
31.2068099625
  0
LINE
  8
0
 62
7
  6
CONTINUOUS
 10
158.6503040869
 20
31.2068099625
 11
158.5924918074
 21
31.3681283946
  0
LINE
  8
0
 62
7
  6
CONTINUOUS
 10
158.361242028
 20
31.2068099625
 11
158.361242028
 21
30.5937998301
  0
LINE
  8
0
 62
7
  6
CONTINUOUS
 10
158.6503040869
 20
30.5937998301
 11
158.6503040869
 21
31.2068099625
  0
LINE
  8
0
 62
7
  6
CONTINUOUS
 10
159.1128043074
 20
31.4326557675
 11
159.1128043074
 21
31.3681283946
  0
LINE
  8
0
 62
7
  6
CONTINUOUS
 10
159.245872955
 20
32.3970785186
 11
159.245872955
 21
34.5282260596
  0
LINE
  8
0
 62
7
  6
CONTINUOUS
 10
159.5737418074
 20
36.1675703219
 11
159.5737418074
 21
32.3970785186
  0
LINE
  8
0
 62
7
  6
CONTINUOUS
 10
154.2565543074
 20
30.9164367395
 11
154.3143669177
 21
31.0132277988
  0
LINE
  8
0
 62
7
  6
CONTINUOUS
 10
149.8628043005
 20
30.7228545871
 11
150.0362418212
 21
30.6583272086
  0
LINE
  8
0
 62
7
  6
CONTINUOUS
 10
151.3659292523
 20
31.4326557675
 11
151.1924917523
 21
31.5294468267
  0
LINE
  8
0
 62
7
  6
CONTINUOUS
 10
154.0253041972
 20
30.7551182848
 11
154.1987416972
 21
30.6583272086
  0
LINE
  8
0
 62
7
  6
CONTINUOUS
 10
153.0424918074
 20
31.4326557675
 11
153.1581166972
 21
31.3681283946
  0
LINE
  8
0
 62
7
  6
CONTINUOUS
 10
153.3893668074
 20
31.4649194539
 11
153.2737419177
 21
31.5294468267
  0
LINE
  8
0
 62
7
  6
CONTINUOUS
 10
159.1128043074
 20
30.8519093441
 11
159.228429528
 21
30.7228545871
  0
LINE
  8
0
 62
7
  6
CONTINUOUS
 10
159.4596793074
 20
30.7873819712
 11
159.401867028
 21
30.8519093441
  0
LINE
  8
0
 62
7
  6
CONTINUOUS
 10
159.1128043074
 20
31.3681283946
 11
159.228429528
 21
31.2390736489
  0
LINE
  8
0
 62
7
  6
CONTINUOUS
 10
158.5924918074
 20
31.3681283946
 11
158.534679528
 21
31.4649194539
  0
LINE
  8
0
 62
7
  6
CONTINUOUS
 10
160.9628038663
 20
30.7873819712
 11
160.9628038663
 21
30.8519093441
  0
LINE
  8
0
 62
7
  6
CONTINUOUS
 10
160.9671844304
 20
32.3970785186
 11
160.9671844304
 21
36.1675703219
  0
LINE
  8
0
 62
7
  6
CONTINUOUS
 10
154.0253041972
 20
31.4971831403
 11
153.9674919177
 21
31.4326557675
  0
LINE
  8
0
 62
7
  6
CONTINUOUS
 10
150.9034292799
 20
31.4649194539
 11
151.0768668626
 21
31.400392081
  0
LINE
  8
0
 62
7
  6
CONTINUOUS
 10
155.6440543074
 20
31.4649194539
 11
155.5284290869
 21
31.5294468267
  0
LINE
  8
0
 62
7
  6
CONTINUOUS
 10
159.4596793074
 20
31.3036010218
 11
159.401867028
 21
31.3681283946
  0
LINE
  8
0
 62
7
  6
CONTINUOUS
 10
160.615929528
 20
30.9164367395
 11
160.6737418074
 21
30.8519093441
  0
LINE
  8
0
 62
7
  6
CONTINUOUS
 10
160.9628038663
 20
30.8519093441
 11
160.8471793074
 21
30.9809641124
  0
LINE
  8
0
 62
7
  6
CONTINUOUS
 10
160.615929528
 20
31.4326557675
 11
160.6737418074
 21
31.3681283946
  0
LINE
  8
0
 62
7
  6
CONTINUOUS
 10
160.9628038663
 20
31.3681283946
 11
160.8471793074
 21
31.4971831403
  0
LINE
  8
0
 62
7
  6
CONTINUOUS
 10
154.2565543074
 20
31.3681283946
 11
154.3143669177
 21
31.4326557675
  0
LINE
  8
0
 62
7
  6
CONTINUOUS
 10
154.0831168074
 20
31.1100188581
 11
153.9674919177
 21
30.9809641124
  0
LINE
  8
0
 62
7
  6
CONTINUOUS
 10
155.412804528
 20
30.9487004259
 11
155.3549915869
 21
30.8841730531
  0
LINE
  8
0
 62
7
  6
CONTINUOUS
 10
155.3549915869
 20
30.6905909007
 11
155.412804528
 21
30.7551182848
  0
LINE
  8
0
 62
7
  6
CONTINUOUS
 10
154.1987416972
 20
30.6583272086
 11
154.3143669177
 21
30.6260635193
  0
LINE
  8
0
 62
7
  6
CONTINUOUS
 10
151.1924917523
 20
31.5294468267
 11
150.9612418074
 21
31.5939741996
  0
LINE
  8
0
 62
7
  6
CONTINUOUS
 10
154.5456166972
 20
30.7228545871
 11
154.3143669177
 21
30.7873819712
  0
LINE
  8
0
 62
7
  6
CONTINUOUS
 10
153.2737419177
 20
31.5294468267
 11
153.1003044177
 21
31.5939741996
  0
LINE
  8
0
 62
7
  6
CONTINUOUS
 10
155.5284290869
 20
31.5294468267
 11
155.3549915869
 21
31.5939741996
  0
LINE
  8
0
 62
7
  6
CONTINUOUS
 10
158.187804528
 20
31.4326557675
 11
158.3034290869
 21
31.3681283946
  0
LINE
  8
0
 62
7
  6
CONTINUOUS
 10
158.534679528
 20
31.4649194539
 11
158.4190543074
 21
31.5294468267
  0
LINE
  8
0
 62
7
  6
CONTINUOUS
 10
150.0362418212
 20
30.6583272086
 11
150.2096793212
 21
30.6260635193
  0
LINE
  8
0
 62
7
  6
CONTINUOUS
 10
150.498741835
 20
30.7228545871
 11
150.1518667936
 21
30.7873819712
  0
LINE
  8
0
 62
7
  6
CONTINUOUS
 10
152.9268669177
 20
31.4649194539
 11
153.0424918074
 21
31.4326557675
  0
LINE
  8
0
 62
7
  6
CONTINUOUS
 10
155.239367028
 20
31.4649194539
 11
155.3549915869
 21
31.4326557675
  0
LINE
  8
0
 62
7
  6
CONTINUOUS
 10
159.575304528
 20
30.7551182848
 11
159.4596793074
 21
30.7873819712
  0
LINE
  8
0
 62
7
  6
CONTINUOUS
 10
158.0721793074
 20
31.4649194539
 11
158.187804528
 21
31.4326557675
  0
LINE
  8
0
 62
7
  6
CONTINUOUS
 10
159.228429528
 20
30.7228545871
 11
159.401867028
 21
30.6583272086
  0
LINE
  8
0
 62
7
  6
CONTINUOUS
 10
158.4190543074
 20
31.5294468267
 11
158.2456168074
 21
31.5939741996
  0
LINE
  8
0
 62
7
  6
CONTINUOUS
 10
159.6331168074
 20
31.2390736489
 11
159.4596793074
 21
31.3036010218
  0
LINE
  8
0
 62
7
  6
CONTINUOUS
 10
160.442492028
 20
30.9809641124
 11
160.615929528
 21
30.9164367395
  0
LINE
  8
0
 62
7
  6
CONTINUOUS
 10
160.8471793074
 20
31.4971831403
 11
160.6737418074
 21
31.5617105132
  0
LINE
  8
0
 62
7
  6
CONTINUOUS
 10
159.228429528
 20
31.2390736489
 11
159.4596793074
 21
31.1422825445
  0
LINE
  8
0
 62
7
  6
CONTINUOUS
 10
160.8471793074
 20
30.9809641124
 11
160.615929528
 21
31.0777551716
  0
LINE
  8
0
 62
7
  6
CONTINUOUS
 10
159.401867028
 20
31.3681283946
 11
159.4596793074
 21
31.4326557675
  0
LINE
  8
0
 62
7
  6
CONTINUOUS
 10
149.8628043005
 20
31.4971831403
 11
149.7471793074
 21
31.4326557675
  0
LINE
  8
0
 62
7
  6
CONTINUOUS
 10
149.9784292936
 20
31.3358647082
 11
150.1518667936
 21
31.4326557675
  0
LINE
  8
0
 62
7
  6
CONTINUOUS
 10
152.2909293626
 20
31.5294468267
 11
152.1753043074
 21
31.4649194539
  0
LINE
  8
0
 62
7
  6
CONTINUOUS
 10
152.1753043074
 20
31.3358647082
 11
152.2909293626
 21
31.400392081
  0
LINE
  8
0
 62
7
  6
CONTINUOUS
 10
151.1924917523
 20
30.6905909007
 11
151.3659292523
 21
30.7873819712
  0
LINE
  8
0
 62
7
  6
CONTINUOUS
 10
150.2096793212
 20
30.6260635193
 11
150.5565542799
 21
30.5937998301
  0
LINE
  8
0
 62
7
  6
CONTINUOUS
 10
154.3143669177
 20
30.6260635193
 11
154.5456166972
 21
30.5937998301
  0
LINE
  8
0
 62
7
  6
CONTINUOUS
 10
152.6956168074
 20
31.4971831403
 11
152.9268669177
 21
31.4649194539
  0
LINE
  8
0
 62
7
  6
CONTINUOUS
 10
155.0081169177
 20
31.4971831403
 11
155.239367028
 21
31.4649194539
  0
LINE
  8
0
 62
7
  6
CONTINUOUS
 10
159.4596793074
 20
31.1422825445
 11
160.442492028
 21
30.9809641124
  0
LINE
  8
0
 62
7
  6
CONTINUOUS
 10
160.615929528
 20
31.0777551716
 11
159.6331168074
 21
31.2390736489
  0
LINE
  8
0
 62
7
  6
CONTINUOUS
 10
153.1003044177
 20
31.5939741996
 11
152.9268669177
 21
31.626237886
  0
LINE
  8
0
 62
7
  6
CONTINUOUS
 10
159.401867028
 20
30.6583272086
 11
159.575304528
 21
30.6260635193
  0
LINE
  8
0
 62
7
  6
CONTINUOUS
 10
158.2456168074
 20
31.5939741996
 11
158.0721793074
 21
31.626237886
  0
LINE
  8
0
 62
7
  6
CONTINUOUS
 10
160.5003043074
 20
31.4649194539
 11
160.615929528
 21
31.4326557675
  0
LINE
  8
0
 62
7
  6
CONTINUOUS
 10
160.6737418074
 20
30.8519093441
 11
160.615929528
 21
30.7873819712
  0
LINE
  8
0
 62
7
  6
CONTINUOUS
 10
159.228429528
 20
31.5294468267
 11
159.1128043074
 21
31.4326557675
  0
LINE
  8
0
 62
7
  6
CONTINUOUS
 10
154.1409294177
 20
31.5617105132
 11
154.0253041972
 21
31.4971831403
  0
LINE
  8
0
 62
7
  6
CONTINUOUS
 10
154.1987416972
 20
31.1745462761
 11
154.0831168074
 21
31.1100188581
  0
LINE
  8
0
 62
7
  6
CONTINUOUS
 10
154.3143669177
 20
31.0132277988
 11
154.4299918074
 21
31.0777551716
  0
LINE
  8
0
 62
7
  6
CONTINUOUS
 10
151.8862417523
 20
30.5937998301
 11
152.1753043074
 21
30.5937998301
  0
LINE
  8
0
 62
7
  6
CONTINUOUS
 10
153.2159293074
 20
30.5937998301
 11
153.5049916972
 21
30.5937998301
  0
LINE
  8
0
 62
7
  6
CONTINUOUS
 10
154.5456166972
 20
30.5937998301
 11
154.8924916972
 21
30.5937998301
  0
LINE
  8
0
 62
7
  6
CONTINUOUS
 10
155.5284290869
 20
30.5937998301
 11
155.8174918074
 21
30.5937998301
  0
LINE
  8
0
 62
7
  6
CONTINUOUS
 10
156.279992028
 20
30.5937998301
 11
156.5690540869
 21
30.5937998301
  0
LINE
  8
0
 62
7
  6
CONTINUOUS
 10
157.0315543074
 20
30.5937998301
 11
157.320617028
 21
30.5937998301
  0
LINE
  8
0
 62
7
  6
CONTINUOUS
 10
158.361242028
 20
30.5937998301
 11
158.6503040869
 21
30.5937998301
  0
LINE
  8
0
 62
7
  6
CONTINUOUS
 10
159.922179528
 20
30.5937998301
 11
160.269054528
 21
30.5937998301
  0
LINE
  8
0
 62
7
  6
CONTINUOUS
 10
160.269054528
 20
30.7228545871
 11
159.922179528
 21
30.7228545871
  0
LINE
  8
0
 62
7
  6
CONTINUOUS
 10
154.8924916972
 20
30.7228545871
 11
154.5456166972
 21
30.7228545871
  0
LINE
  8
0
 62
7
  6
CONTINUOUS
 10
159.401867028
 20
30.8519093441
 11
159.1128043074
 21
30.8519093441
  0
LINE
  8
0
 62
7
  6
CONTINUOUS
 10
151.4237418626
 20
30.9164367395
 11
151.1346793074
 21
30.9164367395
  0
LINE
  8
0
 62
7
  6
CONTINUOUS
 10
150.498741835
 20
31.4971831403
 11
150.9034292799
 21
31.4649194539
  0
LINE
  8
0
 62
7
  6
CONTINUOUS
 10
150.9612418074
 20
31.5939741996
 11
150.5565542799
 21
31.626237886
  0
LINE
  8
0
 62
7
  6
CONTINUOUS
 10
159.575304528
 20
30.6260635193
 11
159.922179528
 21
30.5937998301
  0
LINE
  8
0
 62
7
  6
CONTINUOUS
 10
159.922179528
 20
30.7228545871
 11
159.575304528
 21
30.7551182848
  0
LINE
  8
0
 62
7
  6
CONTINUOUS
 10
155.3549915869
 20
31.5939741996
 11
155.0081169177
 21
31.626237886
  0
LINE
  8
0
 62
7
  6
CONTINUOUS
 10
160.1534293074
 20
31.4971831403
 11
160.5003043074
 21
31.4649194539
  0
LINE
  8
0
 62
7
  6
CONTINUOUS
 10
160.5003043074
 20
31.5939741996
 11
160.1534293074
 21
31.626237886
  0
LINE
  8
0
 62
7
  6
CONTINUOUS
 10
157.840929528
 20
31.4971831403
 11
158.0721793074
 21
31.4649194539
  0
LINE
  8
0
 62
7
  6
CONTINUOUS
 10
160.6737418074
 20
31.5617105132
 11
160.5003043074
 21
31.5939741996
  0
LINE
  8
0
 62
7
  6
CONTINUOUS
 10
160.8471793074
 20
30.6905909007
 11
160.9628038663
 21
30.7873819712
  0
LINE
  8
0
 62
7
  6
CONTINUOUS
 10
155.3549915869
 20
30.8841730531
 11
155.1815540869
 21
30.7873819712
  0
LINE
  8
0
 62
7
  6
CONTINUOUS
 10
157.4362415869
 20
31.5294468267
 11
157.320617028
 21
31.4649194539
  0
LINE
  8
0
 62
7
  6
CONTINUOUS
 10
157.320617028
 20
31.3358647082
 11
157.4362415869
 21
31.400392081
  0
LINE
  8
0
 62
7
  6
CONTINUOUS
 10
150.0362418212
 20
31.5617105132
 11
149.8628043005
 21
31.4971831403
  0
LINE
  8
0
 62
7
  6
CONTINUOUS
 10
152.4643666972
 20
31.5939741996
 11
152.2909293626
 21
31.5294468267
  0
LINE
  8
0
 62
7
  6
CONTINUOUS
 10
152.2909293626
 20
31.400392081
 11
152.4643666972
 21
31.4649194539
  0
LINE
  8
0
 62
7
  6
CONTINUOUS
 10
151.0768668626
 20
30.8196456577
 11
150.9034292799
 21
30.7551182848
  0
LINE
  8
0
 62
7
  6
CONTINUOUS
 10
160.5003043074
 20
30.7551182848
 11
160.269054528
 21
30.7228545871
  0
LINE
  8
0
 62
7
  6
CONTINUOUS
 10
154.8924916972
 20
30.5937998301
 11
155.1815540869
 21
30.6260635193
  0
LINE
  8
0
 62
7
  6
CONTINUOUS
 10
160.269054528
 20
30.5937998301
 11
160.615929528
 21
30.6260635193
  0
LINE
  8
0
 62
7
  6
CONTINUOUS
 10
150.5565542799
 20
30.5937998301
 11
150.9612418074
 21
30.6260635193
  0
LINE
  8
0
 62
7
  6
CONTINUOUS
 10
150.9034292799
 20
30.7551182848
 11
150.498741835
 21
30.7228545871
  0
LINE
  8
0
 62
7
  6
CONTINUOUS
 10
154.7768668074
 20
31.1422825445
 11
155.412804528
 21
31.1422825445
  0
LINE
  8
0
 62
7
  6
CONTINUOUS
 10
155.412804528
 20
31.2713373354
 11
154.7768668074
 21
31.2713373354
  0
LINE
  8
0
 62
7
  6
CONTINUOUS
 10
151.1346793074
 20
31.3036010218
 11
151.4237418626
 21
31.3036010218
  0
LINE
  8
0
 62
7
  6
CONTINUOUS
 10
153.9674919177
 20
31.3681283946
 11
154.2565543074
 21
31.3681283946
  0
LINE
  8
0
 62
7
  6
CONTINUOUS
 10
160.6737418074
 20
31.3681283946
 11
160.9628038663
 21
31.3681283946
  0
LINE
  8
0
 62
7
  6
CONTINUOUS
 10
154.6612419177
 20
31.4971831403
 11
155.0081169177
 21
31.4971831403
  0
LINE
  8
0
 62
7
  6
CONTINUOUS
 10
159.8065543074
 20
31.4971831403
 11
160.1534293074
 21
31.4971831403
  0
LINE
  8
0
 62
7
  6
CONTINUOUS
 10
160.1534293074
 20
31.626237886
 11
159.8065543074
 21
31.626237886
  0
LINE
  8
0
 62
7
  6
CONTINUOUS
 10
158.0721793074
 20
31.626237886
 11
157.840929528
 21
31.626237886
  0
LINE
  8
0
 62
7
  6
CONTINUOUS
 10
157.320617028
 20
31.626237886
 11
157.0315543074
 21
31.626237886
  0
LINE
  8
0
 62
7
  6
CONTINUOUS
 10
156.5690540869
 20
31.626237886
 11
156.279992028
 21
31.626237886
  0
LINE
  8
0
 62
7
  6
CONTINUOUS
 10
155.0081169177
 20
31.626237886
 11
154.6612419177
 21
31.626237886
  0
LINE
  8
0
 62
7
  6
CONTINUOUS
 10
152.9268669177
 20
31.626237886
 11
152.6956168074
 21
31.626237886
  0
LINE
  8
0
 62
7
  6
CONTINUOUS
 10
156.279992028
 20
31.9488748406
 11
156.5690540869
 21
31.9488748406
  0
LINE
  8
0
 62
7
  6
CONTINUOUS
 10
156.5690540869
 20
32.1101932727
 11
156.279992028
 21
32.1101932727
  0
LINE
  8
0
 62
7
  6
CONTINUOUS
 10
152.1753043074
 20
32.1101932727
 11
151.8862417523
 21
32.1101932727
  0
LINE
  8
0
 62
7
  6
CONTINUOUS
 10
151.2130860697
 20
32.3970785186
 11
151.6256574183
 21
32.3970785186
  0
LINE
  8
0
 62
7
  6
CONTINUOUS
 10
152.852430332
 20
32.3970785186
 11
154.245872955
 21
32.3970785186
  0
LINE
  8
0
 62
7
  6
CONTINUOUS
 10
154.5737418074
 20
32.3970785186
 11
155.9671844304
 21
32.3970785186
  0
LINE
  8
0
 62
7
  6
CONTINUOUS
 10
157.852430332
 20
32.3970785186
 11
159.245872955
 21
32.3970785186
  0
LINE
  8
0
 62
7
  6
CONTINUOUS
 10
159.5737418074
 20
32.3970785186
 11
160.9671844304
 21
32.3970785186
  0
LINE
  8
0
 62
7
  6
CONTINUOUS
 10
157.6096790869
 20
31.5939741996
 11
157.4362415869
 21
31.5294468267
  0
LINE
  8
0
 62
7
  6
CONTINUOUS
 10
155.1815540869
 20
30.6260635193
 11
155.3549915869
 21
30.6905909007
  0
LINE
  8
0
 62
7
  6
CONTINUOUS
 10
160.615929528
 20
30.6260635193
 11
160.8471793074
 21
30.6905909007
  0
LINE
  8
0
 62
7
  6
CONTINUOUS
 10
160.615929528
 20
30.7873819712
 11
160.5003043074
 21
30.7551182848
  0
LINE
  8
0
 62
7
  6
CONTINUOUS
 10
159.575304528
 20
31.4649194539
 11
159.8065543074
 21
31.4971831403
  0
LINE
  8
0
 62
7
  6
CONTINUOUS
 10
157.6096790869
 20
31.4649194539
 11
157.840929528
 21
31.4971831403
  0
LINE
  8
0
 62
7
  6
CONTINUOUS
 10
154.5456166972
 20
31.1100188581
 11
154.7768668074
 21
31.1422825445
  0
LINE
  8
0
 62
7
  6
CONTINUOUS
 10
157.840929528
 20
31.626237886
 11
157.6096790869
 21
31.5939741996
  0
LINE
  8
0
 62
7
  6
CONTINUOUS
 10
154.4299918074
 20
31.4649194539
 11
154.6612419177
 21
31.4971831403
  0
LINE
  8
0
 62
7
  6
CONTINUOUS
 10
159.8065543074
 20
31.626237886
 11
159.4596793074
 21
31.5939741996
  0
LINE
  8
0
 62
7
  6
CONTINUOUS
 10
154.7768668074
 20
31.2713373354
 11
154.4299918074
 21
31.2390736489
  0
LINE
  8
0
 62
7
  6
CONTINUOUS
 10
150.5565542799
 20
31.626237886
 11
150.2096793212
 21
31.5939741996
  0
LINE
  8
0
 62
7
  6
CONTINUOUS
 10
154.6612419177
 20
31.626237886
 11
154.2565543074
 21
31.5939741996
  0
LINE
  8
0
 62
7
  6
CONTINUOUS
 10
152.0327582009
 20
33.5446195022
 11
151.3770204959
 21
33.5446195022
  0
LINE
  8
0
 62
7
  6
CONTINUOUS
 10
157.4362415869
 20
31.400392081
 11
157.6096790869
 21
31.4649194539
  0
LINE
  8
0
 62
7
  6
CONTINUOUS
 10
159.4596793074
 20
31.4326557675
 11
159.575304528
 21
31.4649194539
  0
LINE
  8
0
 62
7
  6
CONTINUOUS
 10
159.4596793074
 20
31.5939741996
 11
159.228429528
 21
31.5294468267
  0
LINE
  8
0
 62
7
  6
CONTINUOUS
 10
155.1815540869
 20
30.7873819712
 11
154.8924916972
 21
30.7228545871
  0
LINE
  8
0
 62
7
  6
CONTINUOUS
 10
152.4643666972
 20
31.4649194539
 11
152.6956168074
 21
31.4971831403
  0
LINE
  8
0
 62
7
  6
CONTINUOUS
 10
152.6956168074
 20
31.626237886
 11
152.4643666972
 21
31.5939741996
  0
LINE
  8
0
 62
7
  6
CONTINUOUS
 10
150.2674918074
 20
31.4649194539
 11
150.498741835
 21
31.4971831403
  0
LINE
  8
0
 62
7
  6
CONTINUOUS
 10
156.7868565615
 20
35.0200293383
 11
157.4425942664
 21
35.0200293383
  0
LINE
  8
0
 62
7
  6
CONTINUOUS
 10
154.4299918074
 20
31.0777551716
 11
154.5456166972
 21
31.1100188581
  0
LINE
  8
0
 62
7
  6
CONTINUOUS
 10
154.4299918074
 20
31.2390736489
 11
154.1987416972
 21
31.1745462761
  0
LINE
  8
0
 62
7
  6
CONTINUOUS
 10
154.3143669177
 20
31.4326557675
 11
154.4299918074
 21
31.4649194539
  0
LINE
  8
0
 62
7
  6
CONTINUOUS
 10
150.9612418074
 20
30.6260635193
 11
151.1924917523
 21
30.6905909007
  0
LINE
  8
0
 62
7
  6
CONTINUOUS
 10
154.2565543074
 20
31.5939741996
 11
154.1409294177
 21
31.5617105132
  0
LINE
  8
0
 62
7
  6
CONTINUOUS
 10
150.2096793212
 20
31.5939741996
 11
150.0362418212
 21
31.5617105132
  0
LINE
  8
0
 62
7
  6
CONTINUOUS
 10
160.9671844304
 20
36.1675703219
 11
159.5737418074
 21
36.1675703219
  0
LINE
  8
0
 62
7
  6
CONTINUOUS
 10
157.6065286927
 20
36.1675703219
 11
157.1939573441
 21
36.1675703219
  0
LINE
  8
0
 62
7
  6
CONTINUOUS
 10
155.9671844304
 20
36.1675703219
 11
154.5737418074
 21
36.1675703219
  0
LINE
  8
0
 62
7
  6
CONTINUOUS
 10
154.245872955
 20
36.1675703219
 11
152.852430332
 21
36.1675703219
  0
LINE
  8
0
 62
7
  6
CONTINUOUS
 10
150.9671844304
 20
36.1675703219
 11
149.5737418074
 21
36.1675703219
  0
LINE
  8
0
 62
7
  6
CONTINUOUS
 10
150.1518667936
 20
31.4326557675
 11
150.2674918074
 21
31.4649194539
  0
CIRCLE
  8
0
 62
7
  6
CONTINUOUS
 10
160.2704631189
 20
38.5036358957
 40
2.0901639344
  0
ARC
  8
0
 62
7
  6
CONTINUOUS
 10
151.2130860697
 20
34.0364227809
 40
1.6393442623
 50
180.0
 51
270.0
  0
ARC
  8
0
 62
7
  6
CONTINUOUS
 10
157.6065286927
 20
34.5282260596
 40
1.6393442623
 50
0.0
 51
90.0
  0
ARC
  8
0
 62
7
  6
CONTINUOUS
 10
151.6256574183
 20
33.8724883547
 40
1.4754098361
 50
270.0
 51
326.2510114041
  0
ARC
  8
0
 62
7
  6
CONTINUOUS
 10
157.1939573441
 20
34.6921604858
 40
1.4754098361
 50
90.0
 51
146.2510114041
  0
ARC
  8
0
 62
7
  6
CONTINUOUS
 10
152.0327582009
 20
34.3642916334
 40
0.8196721311
 50
270.0
 51
360.0
  0
ARC
  8
0
 62
7
  6
CONTINUOUS
 10
156.7868565615
 20
34.2003572071
 40
0.8196721311
 50
90.0
 51
180.0
  0
ARC
  8
0
 62
7
  6
CONTINUOUS
 10
151.3770204959
 20
33.9544555678
 40
0.4098360656
 50
180.0
 51
270.0
  0
ARC
  8
0
 62
7
  6
CONTINUOUS
 10
157.4425942664
 20
34.6101932727
 40
0.4098360656
 50
0.0
 51
90.0
  0
SOLID
  8
0
 62
7
  6
CONTINUOUS
 10
156.279992028
 20
31.9488752009
 11
156.279992028
 21
32.1101936845
 12
156.5690540869
 22
31.9488752009
 13
156.5690540869
 23
32.1101936845
  0
SOLID
  8
0
 62
7
  6
CONTINUOUS
 10
150.5565542799
 20
31.6262382337
 11
150.9612418074
 21
31.5939740028
 12
150.2096793212
 22
31.5939740028
 13
150.2096793212
 23
31.5939740028
  0
SOLID
  8
0
 62
7
  6
CONTINUOUS
 10
150.0362418212
 20
31.5617111435
 11
150.2096793212
 21
31.5939740028
 12
150.9612418074
 22
31.5939740028
 13
150.9612418074
 23
31.5939740028
  0
SOLID
  8
0
 62
7
  6
CONTINUOUS
 10
150.9612418074
 20
31.5939740028
 11
151.1924917523
 21
31.5294468402
 12
150.0362418212
 22
31.5617111435
 13
150.0362418212
 23
31.5617111435
  0
SOLID
  8
0
 62
7
  6
CONTINUOUS
 10
149.8628043005
 20
31.49718259
 11
150.0362418212
 21
31.5617111435
 12
151.1924917523
 22
31.5294468402
 13
151.1924917523
 23
31.5294468402
  0
SOLID
  8
0
 62
7
  6
CONTINUOUS
 10
149.8628043005
 20
31.49718259
 11
151.1924917523
 21
31.5294468402
 12
150.498741835
 22
31.49718259
 13
150.498741835
 23
31.49718259
  0
SOLID
  8
0
 62
7
  6
CONTINUOUS
 10
150.498741835
 20
31.49718259
 11
151.1924917523
 21
31.5294468402
 12
150.9034292799
 22
31.4649197501
 13
150.9034292799
 23
31.4649197501
  0
SOLID
  8
0
 62
7
  6
CONTINUOUS
 10
151.1924917523
 20
31.5294468402
 11
151.3659292523
 21
31.4326554468
 12
150.9034292799
 22
31.4649197501
 13
150.9034292799
 23
31.4649197501
  0
SOLID
  8
0
 62
7
  6
CONTINUOUS
 10
151.0768668626
 20
31.4003926599
 11
150.9034292799
 21
31.4649197501
 12
151.3659292523
 22
31.4326554468
 13
151.3659292523
 23
31.4326554468
  0
SOLID
  8
0
 62
7
  6
CONTINUOUS
 10
151.0768668626
 20
31.4003926599
 11
151.3659292523
 21
31.4326554468
 12
151.1346793074
 22
31.3036013776
 13
151.1346793074
 23
31.3036013776
  0
SOLID
  8
0
 62
7
  6
CONTINUOUS
 10
151.3659292523
 20
31.4326554468
 11
151.4237418626
 21
31.3036013776
 12
151.1346793074
 22
31.3036013776
 13
151.1346793074
 23
31.3036013776
  0
SOLID
  8
0
 62
7
  6
CONTINUOUS
 10
152.4643666972
 20
31.5939739754
 11
152.6956168074
 21
31.6262382787
 12
152.9268669177
 22
31.6262382787
 13
152.9268669177
 23
31.6262382787
  0
SOLID
  8
0
 62
7
  6
CONTINUOUS
 10
152.9268669177
 20
31.6262382787
 11
153.1003044177
 21
31.5939739754
 12
152.4643666972
 22
31.5939739754
 13
152.4643666972
 23
31.5939739754
  0
SOLID
  8
0
 62
7
  6
CONTINUOUS
 10
152.2909293626
 20
31.5294468852
 11
152.4643666972
 21
31.5939739754
 12
153.1003044177
 22
31.5939739754
 13
153.1003044177
 23
31.5939739754
  0
SOLID
  8
0
 62
7
  6
CONTINUOUS
 10
153.1003044177
 20
31.5939739754
 11
153.2737419177
 21
31.5294468852
 12
152.2909293626
 22
31.5294468852
 13
152.2909293626
 23
31.5294468852
  0
SOLID
  8
0
 62
7
  6
CONTINUOUS
 10
153.2737419177
 20
31.5294468852
 11
152.6956168074
 21
31.4971825369
 12
152.2909293626
 22
31.5294468852
 13
152.2909293626
 23
31.5294468852
  0
SOLID
  8
0
 62
7
  6
CONTINUOUS
 10
152.1753043074
 20
31.4649197951
 11
152.2909293626
 21
31.5294468852
 12
152.6956168074
 22
31.4971825369
 13
152.6956168074
 23
31.4971825369
  0
SOLID
  8
0
 62
7
  6
CONTINUOUS
 10
152.6956168074
 20
31.4971825369
 11
152.4643666972
 21
31.4649197951
 12
152.1753043074
 22
31.4649197951
 13
152.1753043074
 23
31.4649197951
  0
SOLID
  8
0
 62
7
  6
CONTINUOUS
 10
152.6956168074
 20
31.4971825369
 11
153.2737419177
 21
31.5294468852
 12
152.9268669177
 22
31.4649197951
 13
152.9268669177
 23
31.4649197951
  0
SOLID
  8
0
 62
7
  6
CONTINUOUS
 10
153.2737419177
 20
31.5294468852
 11
153.3893668074
 21
31.4649197951
 12
152.9268669177
 22
31.4649197951
 13
152.9268669177
 23
31.4649197951
  0
SOLID
  8
0
 62
7
  6
CONTINUOUS
 10
153.0424918074
 20
31.4326554468
 11
152.9268669177
 21
31.4649197951
 12
153.3893668074
 22
31.4649197951
 13
153.3893668074
 23
31.4649197951
  0
SOLID
  8
0
 62
7
  6
CONTINUOUS
 10
153.3893668074
 20
31.4649197951
 11
153.4471794177
 21
31.4003927049
 12
153.0424918074
 22
31.4326554468
 13
153.0424918074
 23
31.4326554468
  0
SOLID
  8
0
 62
7
  6
CONTINUOUS
 10
153.1581166972
 20
31.3681283566
 11
153.0424918074
 21
31.4326554468
 12
153.4471794177
 22
31.4003927049
 13
153.4471794177
 23
31.4003927049
  0
SOLID
  8
0
 62
7
  6
CONTINUOUS
 10
153.1581166972
 20
31.3681283566
 11
153.4471794177
 21
31.4003927049
 12
153.2159293074
 22
31.2390742213
 13
153.2159293074
 23
31.2390742213
  0
SOLID
  8
0
 62
7
  6
CONTINUOUS
 10
153.4471794177
 20
31.4003927049
 11
153.5049916972
 21
31.2390742213
 12
153.2159293074
 22
31.2390742213
 13
153.2159293074
 23
31.2390742213
  0
SOLID
  8
0
 62
7
  6
CONTINUOUS
 10
152.4643666972
 20
31.4649197951
 11
152.2909293626
 21
31.4003927049
 12
152.1753043074
 22
31.4649197951
 13
152.1753043074
 23
31.4649197951
  0
SOLID
  8
0
 62
7
  6
CONTINUOUS
 10
152.2909293626
 20
31.4003927049
 11
152.1753043074
 21
31.3358640533
 12
152.1753043074
 22
31.4649197951
 13
152.1753043074
 23
31.4649197951
  0
SOLID
  8
0
 62
7
  6
CONTINUOUS
 10
152.1753043074
 20
31.3358640533
 11
151.8862417523
 21
30.5938002869
 12
152.1753043074
 22
31.4649197951
 13
152.1753043074
 23
31.4649197951
  0
SOLID
  8
0
 62
7
  6
CONTINUOUS
 10
152.1753043074
 20
31.4649197951
 11
151.8862417523
 21
30.5938002869
 12
152.1753043074
 22
32.1101937295
 13
152.1753043074
 23
32.1101937295
  0
SOLID
  8
0
 62
7
  6
CONTINUOUS
 10
151.8862417523
 20
30.5938002869
 11
151.8862417523
 21
32.1101937295
 12
152.1753043074
 22
32.1101937295
 13
152.1753043074
 23
32.1101937295
  0
SOLID
  8
0
 62
7
  6
CONTINUOUS
 10
152.1753043074
 20
31.3358640533
 11
152.1753043074
 21
30.5938002869
 12
151.8862417523
 22
30.5938002869
 13
151.8862417523
 23
30.5938002869
  0
SOLID
  8
0
 62
7
  6
CONTINUOUS
 10
153.2159293074
 20
30.5938002869
 11
153.2159293074
 21
31.2390742213
 12
153.5049916972
 22
31.2390742213
 13
153.5049916972
 23
31.2390742213
  0
SOLID
  8
0
 62
7
  6
CONTINUOUS
 10
153.5049916972
 20
31.2390742213
 11
153.5049916972
 21
30.5938002869
 12
153.2159293074
 22
30.5938002869
 13
153.2159293074
 23
30.5938002869
  0
SOLID
  8
0
 62
7
  6
CONTINUOUS
 10
154.2565543074
 20
31.5939738288
 11
154.6612419177
 21
31.6262385959
 12
155.0081169177
 22
31.6262385959
 13
155.0081169177
 23
31.6262385959
  0
SOLID
  8
0
 62
7
  6
CONTINUOUS
 10
155.0081169177
 20
31.6262385959
 11
155.3549915869
 21
31.5939738288
 12
154.2565543074
 22
31.5939738288
 13
154.2565543074
 23
31.5939738288
  0
SOLID
  8
0
 62
7
  6
CONTINUOUS
 10
154.1409294177
 20
31.5617111435
 11
154.2565543074
 21
31.5939738288
 12
155.3549915869
 22
31.5939738288
 13
155.3549915869
 23
31.5939738288
  0
SOLID
  8
0
 62
7
  6
CONTINUOUS
 10
155.3549915869
 20
31.5939738288
 11
155.5284290869
 21
31.5294468402
 12
154.1409294177
 22
31.5617111435
 13
154.1409294177
 23
31.5617111435
  0
SOLID
  8
0
 62
7
  6
CONTINUOUS
 10
154.0253041972
 20
31.4971826249
 11
154.1409294177
 21
31.5617111435
 12
155.5284290869
 22
31.5294468402
 13
155.5284290869
 23
31.5294468402
  0
SOLID
  8
0
 62
7
  6
CONTINUOUS
 10
154.0253041972
 20
31.4971826249
 11
155.5284290869
 21
31.5294468402
 12
154.6612419177
 22
31.4971826249
 13
154.6612419177
 23
31.4971826249
  0
SOLID
  8
0
 62
7
  6
CONTINUOUS
 10
154.6612419177
 20
31.4971826249
 11
155.5284290869
 21
31.5294468402
 12
155.0081169177
 22
31.4971826249
 13
155.0081169177
 23
31.4971826249
  0
SOLID
  8
0
 62
7
  6
CONTINUOUS
 10
155.0081169177
 20
31.4971826249
 11
155.5284290869
 21
31.5294468402
 12
155.239367028
 22
31.4649194065
 13
155.239367028
 23
31.4649194065
  0
SOLID
  8
0
 62
7
  6
CONTINUOUS
 10
155.5284290869
 20
31.5294468402
 11
155.6440543074
 21
31.4649194065
 12
155.239367028
 22
31.4649194065
 13
155.239367028
 23
31.4649194065
  0
SOLID
  8
0
 62
7
  6
CONTINUOUS
 10
153.9674919177
 20
31.4326554138
 11
154.0253041972
 21
31.4971826249
 12
154.6612419177
 22
31.4971826249
 13
154.6612419177
 23
31.4971826249
  0
SOLID
  8
0
 62
7
  6
CONTINUOUS
 10
155.3549915869
 20
31.4326554138
 11
155.239367028
 21
31.4649194065
 12
155.6440543074
 22
31.4649194065
 13
155.6440543074
 23
31.4649194065
  0
SOLID
  8
0
 62
7
  6
CONTINUOUS
 10
155.3549915869
 20
31.4326554138
 11
155.6440543074
 21
31.4649194065
 12
155.412804528
 22
31.3681282026
 13
155.412804528
 23
31.3681282026
  0
SOLID
  8
0
 62
7
  6
CONTINUOUS
 10
155.6440543074
 20
31.4649194065
 11
155.7018665869
 21
31.3681282026
 12
155.412804528
 22
31.3681282026
 13
155.412804528
 23
31.3681282026
  0
SOLID
  8
0
 62
7
  6
CONTINUOUS
 10
155.412804528
 20
31.2713369632
 11
155.412804528
 21
31.3681282026
 12
155.7018665869
 22
31.3681282026
 13
155.7018665869
 23
31.3681282026
  0
SOLID
  8
0
 62
7
  6
CONTINUOUS
 10
155.412804528
 20
31.2713369632
 11
155.7018665869
 21
31.3681282026
 12
155.412804528
 22
31.1422827828
 13
155.412804528
 23
31.1422827828
  0
SOLID
  8
0
 62
7
  6
CONTINUOUS
 10
155.412804528
 20
31.1422827828
 11
155.7018665869
 21
31.3681282026
 12
155.412804528
 22
30.9487004259
 13
155.412804528
 23
30.9487004259
  0
SOLID
  8
0
 62
7
  6
CONTINUOUS
 10
155.7018665869
 20
31.3681282026
 11
155.7018665869
 21
30.8519086025
 12
155.412804528
 22
30.9487004259
 13
155.412804528
 23
30.9487004259
  0
SOLID
  8
0
 62
7
  6
CONTINUOUS
 10
157.6096790869
 20
31.5939736268
 11
157.840929528
 21
31.6262383465
 12
158.0721793074
 22
31.6262383465
 13
158.0721793074
 23
31.6262383465
  0
SOLID
  8
0
 62
7
  6
CONTINUOUS
 10
158.0721793074
 20
31.6262383465
 11
158.2456168074
 21
31.5939736268
 12
157.6096790869
 22
31.5939736268
 13
157.6096790869
 23
31.5939736268
  0
SOLID
  8
0
 62
7
  6
CONTINUOUS
 10
157.4362415869
 20
31.5294472848
 11
157.6096790869
 21
31.5939736268
 12
158.2456168074
 22
31.5939736268
 13
158.2456168074
 23
31.5939736268
  0
SOLID
  8
0
 62
7
  6
CONTINUOUS
 10
158.2456168074
 20
31.5939736268
 11
158.4190543074
 21
31.5294472848
 12
157.4362415869
 22
31.5294472848
 13
157.4362415869
 23
31.5294472848
  0
SOLID
  8
0
 62
7
  6
CONTINUOUS
 10
158.4190543074
 20
31.5294472848
 11
157.840929528
 21
31.4971825369
 12
157.4362415869
 22
31.5294472848
 13
157.4362415869
 23
31.5294472848
  0
SOLID
  8
0
 62
7
  6
CONTINUOUS
 10
157.320617028
 20
31.4649199103
 11
157.4362415869
 21
31.5294472848
 12
157.840929528
 22
31.4971825369
 13
157.840929528
 23
31.4971825369
  0
SOLID
  8
0
 62
7
  6
CONTINUOUS
 10
157.840929528
 20
31.4971825369
 11
157.6096790869
 21
31.4649199103
 12
157.320617028
 22
31.4649199103
 13
157.320617028
 23
31.4649199103
  0
SOLID
  8
0
 62
7
  6
CONTINUOUS
 10
157.840929528
 20
31.4971825369
 11
158.4190543074
 21
31.5294472848
 12
158.0721793074
 22
31.4649199103
 13
158.0721793074
 23
31.4649199103
  0
SOLID
  8
0
 62
7
  6
CONTINUOUS
 10
158.4190543074
 20
31.5294472848
 11
158.534679528
 21
31.4649199103
 12
158.0721793074
 22
31.4649199103
 13
158.0721793074
 23
31.4649199103
  0
SOLID
  8
0
 62
7
  6
CONTINUOUS
 10
158.187804528
 20
31.4326554468
 11
158.0721793074
 21
31.4649199103
 12
158.534679528
 22
31.4649199103
 13
158.534679528
 23
31.4649199103
  0
SOLID
  8
0
 62
7
  6
CONTINUOUS
 10
158.187804528
 20
31.4326554468
 11
158.534679528
 21
31.4649199103
 12
158.3034290869
 22
31.3681288486
 13
158.3034290869
 23
31.3681288486
  0
SOLID
  8
0
 62
7
  6
CONTINUOUS
 10
158.534679528
 20
31.4649199103
 11
158.5924918074
 21
31.3681288486
 12
158.3034290869
 22
31.3681288486
 13
158.3034290869
 23
31.3681288486
  0
SOLID
  8
0
 62
7
  6
CONTINUOUS
 10
158.361242028
 20
31.2068093799
 11
158.3034290869
 21
31.3681288486
 12
158.5924918074
 22
31.3681288486
 13
158.5924918074
 23
31.3681288486
  0
SOLID
  8
0
 62
7
  6
CONTINUOUS
 10
158.5924918074
 20
31.3681288486
 11
158.6503040869
 21
31.2068093799
 12
158.361242028
 22
31.2068093799
 13
158.361242028
 23
31.2068093799
  0
SOLID
  8
0
 62
7
  6
CONTINUOUS
 10
157.6096790869
 20
31.4649199103
 11
157.4362415869
 21
31.4003926599
 12
157.320617028
 22
31.4649199103
 13
157.320617028
 23
31.4649199103
  0
SOLID
  8
0
 62
7
  6
CONTINUOUS
 10
157.4362415869
 20
31.4003926599
 11
157.320617028
 21
31.3358640533
 12
157.320617028
 22
31.4649199103
 13
157.320617028
 23
31.4649199103
  0
SOLID
  8
0
 62
7
  6
CONTINUOUS
 10
157.320617028
 20
31.3358640533
 11
157.0315543074
 21
30.5938003547
 12
157.320617028
 22
31.4649199103
 13
157.320617028
 23
31.4649199103
  0
SOLID
  8
0
 62
7
  6
CONTINUOUS
 10
157.320617028
 20
31.4649199103
 11
157.0315543074
 21
30.5938003547
 12
157.320617028
 22
31.6262383465
 13
157.320617028
 23
31.6262383465
  0
SOLID
  8
0
 62
7
  6
CONTINUOUS
 10
157.0315543074
 20
30.5938003547
 11
157.0315543074
 21
31.6262383465
 12
157.320617028
 22
31.6262383465
 13
157.320617028
 23
31.6262383465
  0
SOLID
  8
0
 62
7
  6
CONTINUOUS
 10
157.320617028
 20
31.3358640533
 11
157.320617028
 21
30.5938003547
 12
157.0315543074
 22
30.5938003547
 13
157.0315543074
 23
30.5938003547
  0
SOLID
  8
0
 62
7
  6
CONTINUOUS
 10
158.361242028
 20
30.5938003547
 11
158.361242028
 21
31.2068093799
 12
158.6503040869
 22
31.2068093799
 13
158.6503040869
 23
31.2068093799
  0
SOLID
  8
0
 62
7
  6
CONTINUOUS
 10
158.6503040869
 20
31.2068093799
 11
158.6503040869
 21
30.5938003547
 12
158.361242028
 22
30.5938003547
 13
158.361242028
 23
30.5938003547
  0
SOLID
  8
0
 62
7
  6
CONTINUOUS
 10
159.4596793074
 20
31.5939739474
 11
159.8065543074
 21
31.6262381969
 12
160.1534293074
 22
31.6262381969
 13
160.1534293074
 23
31.6262381969
  0
SOLID
  8
0
 62
7
  6
CONTINUOUS
 10
160.1534293074
 20
31.6262381969
 11
160.5003043074
 21
31.5939739474
 12
159.4596793074
 22
31.5939739474
 13
159.4596793074
 23
31.5939739474
  0
SOLID
  8
0
 62
7
  6
CONTINUOUS
 10
159.228429528
 20
31.5294468402
 11
159.4596793074
 21
31.5939739474
 12
160.5003043074
 22
31.5939739474
 13
160.5003043074
 23
31.5939739474
  0
SOLID
  8
0
 62
7
  6
CONTINUOUS
 10
159.228429528
 20
31.5294468402
 11
160.5003043074
 21
31.5939739304
 12
160.6737418074
 22
31.5617111435
 13
160.6737418074
 23
31.5617111435
  0
SOLID
  8
0
 62
7
  6
CONTINUOUS
 10
159.228429528
 20
31.5294468402
 11
160.6737418074
 21
31.5617111435
 12
159.8065543074
 22
31.4971825592
 13
159.8065543074
 23
31.4971825592
  0
SOLID
  8
0
 62
7
  6
CONTINUOUS
 10
159.8065543074
 20
31.4971825592
 11
160.6737418074
 21
31.5617111435
 12
160.1534293074
 22
31.4971825592
 13
160.1534293074
 23
31.4971825592
  0
SOLID
  8
0
 62
7
  6
CONTINUOUS
 10
160.6737418074
 20
31.5617111435
 11
160.8471793074
 21
31.4971825592
 12
160.1534293074
 22
31.4971825592
 13
160.1534293074
 23
31.4971825592
  0
SOLID
  8
0
 62
7
  6
CONTINUOUS
 10
160.5003043074
 20
31.4649197501
 11
160.1534293074
 21
31.4971825592
 12
160.8471793074
 22
31.4971825592
 13
160.8471793074
 23
31.4971825592
  0
SOLID
  8
0
 62
7
  6
CONTINUOUS
 10
159.1128043074
 20
31.4326555427
 11
159.228429528
 21
31.5294468402
 12
159.8065543074
 22
31.4971825592
 13
159.8065543074
 23
31.4971825592
  0
SOLID
  8
0
 62
7
  6
CONTINUOUS
 10
160.5003043074
 20
31.4649197501
 11
160.8471793074
 21
31.4971825592
 12
160.615929528
 22
31.4326555427
 13
160.615929528
 23
31.4326555427
  0
SOLID
  8
0
 62
7
  6
CONTINUOUS
 10
160.615929528
 20
31.4326555427
 11
160.8471793074
 21
31.4971825592
 12
160.6737418074
 22
31.3681283005
 13
160.6737418074
 23
31.3681283005
  0
SOLID
  8
0
 62
7
  6
CONTINUOUS
 10
160.8471793074
 20
31.4971825592
 11
160.9628038663
 21
31.3681283005
 12
160.6737418074
 22
31.3681283005
 13
160.6737418074
 23
31.3681283005
  0
SOLID
  8
0
 62
7
  6
CONTINUOUS
 10
150.2674918074
 20
31.4649197501
 11
149.7471793074
 21
31.4326554237
 12
150.498741835
 22
31.4971824493
 13
150.498741835
 23
31.4971824493
  0
SOLID
  8
0
 62
7
  6
CONTINUOUS
 10
149.7471793074
 20
31.4326554237
 11
149.8628043005
 21
31.4971824493
 12
150.498741835
 22
31.4971824493
 13
150.498741835
 23
31.4971824493
  0
SOLID
  8
0
 62
7
  6
CONTINUOUS
 10
150.2674918074
 20
31.4649197501
 11
150.1518667936
 21
31.4326554237
 12
149.7471793074
 22
31.4326554237
 13
149.7471793074
 23
31.4326554237
  0
SOLID
  8
0
 62
7
  6
CONTINUOUS
 10
149.6315543091
 20
31.3036012664
 11
149.7471793074
 21
31.4326554237
 12
150.1518667936
 22
31.4326554237
 13
150.1518667936
 23
31.4326554237
  0
SOLID
  8
0
 62
7
  6
CONTINUOUS
 10
153.9674919177
 20
31.4326554237
 11
154.6612419177
 21
31.4971825369
 12
154.4299918074
 22
31.4649197501
 13
154.4299918074
 23
31.4649197501
  0
SOLID
  8
0
 62
7
  6
CONTINUOUS
 10
154.4299918074
 20
31.4649197501
 11
154.3143669177
 21
31.4326554237
 12
153.9674919177
 22
31.4326554237
 13
153.9674919177
 23
31.4326554237
  0
SOLID
  8
0
 62
7
  6
CONTINUOUS
 10
153.9674919177
 20
31.3681283335
 11
153.9674919177
 21
31.4326554237
 12
154.3143669177
 22
31.4326554237
 13
154.3143669177
 23
31.4326554237
  0
SOLID
  8
0
 62
7
  6
CONTINUOUS
 10
154.3143669177
 20
31.4326554237
 11
154.2565543074
 21
31.3681283335
 12
153.9674919177
 22
31.3681283335
 13
153.9674919177
 23
31.3681283335
  0
SOLID
  8
0
 62
7
  6
CONTINUOUS
 10
159.1128043074
 20
31.4326555528
 11
159.8065543074
 21
31.4971825369
 12
159.575304528
 22
31.4649197501
 13
159.575304528
 23
31.4649197501
  0
SOLID
  8
0
 62
7
  6
CONTINUOUS
 10
159.575304528
 20
31.4649197501
 11
159.4596793074
 21
31.4326555528
 12
159.1128043074
 22
31.4326555528
 13
159.1128043074
 23
31.4326555528
  0
SOLID
  8
0
 62
7
  6
CONTINUOUS
 10
159.1128043074
 20
31.3681284626
 11
159.1128043074
 21
31.4326555528
 12
159.4596793074
 22
31.4326555528
 13
159.4596793074
 23
31.4326555528
  0
SOLID
  8
0
 62
7
  6
CONTINUOUS
 10
159.4596793074
 20
31.4326555528
 11
159.401867028
 21
31.3681284626
 12
159.1128043074
 22
31.3681284626
 13
159.1128043074
 23
31.3681284626
  0
SOLID
  8
0
 62
7
  6
CONTINUOUS
 10
159.228429528
 20
31.2390741763
 11
159.1128043074
 21
31.3681284626
 12
159.401867028
 22
31.3681284626
 13
159.401867028
 23
31.3681284626
  0
SOLID
  8
0
 62
7
  6
CONTINUOUS
 10
149.6315543091
 20
31.3036012664
 11
150.1518667936
 21
31.4326554468
 12
149.9784292936
 22
31.3358640533
 13
149.9784292936
 23
31.3358640533
  0
SOLID
  8
0
 62
7
  6
CONTINUOUS
 10
149.9784292936
 20
31.3358640533
 11
149.9206168074
 21
31.2713369632
 12
149.6315543091
 22
31.3036012664
 13
149.6315543091
 23
31.3036012664
  0
SOLID
  8
0
 62
7
  6
CONTINUOUS
 10
149.5737418074
 20
31.1100184796
 11
149.6315543091
 21
31.3036012664
 12
149.9206168074
 22
31.2713369632
 13
149.9206168074
 23
31.2713369632
  0
SOLID
  8
0
 62
7
  6
CONTINUOUS
 10
154.4299918074
 20
31.2390741763
 11
154.7768668074
 21
31.271336924
 12
155.412804528
 22
31.271336924
 13
155.412804528
 23
31.271336924
  0
SOLID
  8
0
 62
7
  6
CONTINUOUS
 10
154.4299918074
 20
31.2390741763
 11
155.412804528
 21
31.271336924
 12
154.1987416972
 22
31.1745462761
 13
154.1987416972
 23
31.1745462761
  0
SOLID
  8
0
 62
7
  6
CONTINUOUS
 10
154.1987416972
 20
31.1745462761
 11
155.412804528
 21
31.271336924
 12
154.7768668074
 22
31.1422827436
 13
154.7768668074
 23
31.1422827436
  0
SOLID
  8
0
 62
7
  6
CONTINUOUS
 10
155.412804528
 20
31.271336924
 11
155.412804528
 21
31.1422827436
 12
154.7768668074
 22
31.1422827436
 13
154.7768668074
 23
31.1422827436
  0
SOLID
  8
0
 62
7
  6
CONTINUOUS
 10
159.228429528
 20
31.2390745501
 11
159.401867028
 21
31.3681283566
 12
159.4596793074
 22
31.3036012664
 13
159.4596793074
 23
31.3036012664
  0
SOLID
  8
0
 62
7
  6
CONTINUOUS
 10
159.4596793074
 20
31.3036012664
 11
159.6331168074
 21
31.2390745501
 12
159.228429528
 22
31.2390745501
 13
159.228429528
 23
31.2390745501
  0
SOLID
  8
0
 62
7
  6
CONTINUOUS
 10
159.4596793074
 20
31.1422827828
 11
159.228429528
 21
31.2390745501
 12
159.6331168074
 22
31.2390745501
 13
159.6331168074
 23
31.2390745501
  0
SOLID
  8
0
 62
7
  6
CONTINUOUS
 10
159.6331168074
 20
31.2390745501
 11
160.615929528
 21
31.0777556927
 12
159.4596793074
 22
31.1422827828
 13
159.4596793074
 23
31.1422827828
  0
SOLID
  8
0
 62
7
  6
CONTINUOUS
 10
160.442492028
 20
30.9809646623
 11
159.4596793074
 21
31.1422827828
 12
160.615929528
 22
31.0777556927
 13
160.615929528
 23
31.0777556927
  0
SOLID
  8
0
 62
7
  6
CONTINUOUS
 10
160.615929528
 20
31.0777556927
 11
160.8471793074
 21
30.9809646623
 12
160.442492028
 22
30.9809646623
 13
160.442492028
 23
30.9809646623
  0
SOLID
  8
0
 62
7
  6
CONTINUOUS
 10
160.615929528
 20
30.9164372091
 11
160.442492028
 21
30.9809646623
 12
160.8471793074
 22
30.9809646623
 13
160.8471793074
 23
30.9809646623
  0
SOLID
  8
0
 62
7
  6
CONTINUOUS
 10
160.615929528
 20
30.9164372091
 11
160.8471793074
 21
30.9809646623
 12
160.6737418074
 22
30.8519089441
 13
160.6737418074
 23
30.8519089441
  0
SOLID
  8
0
 62
7
  6
CONTINUOUS
 10
160.8471793074
 20
30.9809646623
 11
160.9628038663
 21
30.8519089441
 12
160.6737418074
 22
30.8519089441
 13
160.6737418074
 23
30.8519089441
  0
SOLID
  8
0
 62
7
  6
CONTINUOUS
 10
160.615929528
 20
30.7873818593
 11
160.6737418074
 21
30.8519089441
 12
160.9628038663
 22
30.8519089441
 13
160.9628038663
 23
30.8519089441
  0
SOLID
  8
0
 62
7
  6
CONTINUOUS
 10
160.9628038663
 20
30.8519089441
 11
160.9628038663
 21
30.7873818593
 12
160.615929528
 22
30.7873818593
 13
160.615929528
 23
30.7873818593
  0
SOLID
  8
0
 62
7
  6
CONTINUOUS
 10
160.5003043074
 20
30.7551187255
 11
160.615929528
 21
30.7873818593
 12
160.9628038663
 22
30.7873818593
 13
160.9628038663
 23
30.7873818593
  0
SOLID
  8
0
 62
7
  6
CONTINUOUS
 10
160.5003043074
 20
30.7551187255
 11
160.9628038663
 21
30.7873818593
 12
160.269054528
 22
30.7228547745
 13
160.269054528
 23
30.7228547745
  0
SOLID
  8
0
 62
7
  6
CONTINUOUS
 10
160.9628038663
 20
30.7873818593
 11
160.8471793074
 21
30.6905916353
 12
160.269054528
 22
30.7228547745
 13
160.269054528
 23
30.7228547745
  0
SOLID
  8
0
 62
7
  6
CONTINUOUS
 10
160.8471793074
 20
30.6905916353
 11
159.401867028
 21
30.658327332
 12
160.269054528
 22
30.7228547745
 13
160.269054528
 23
30.7228547745
  0
SOLID
  8
0
 62
7
  6
CONTINUOUS
 10
160.269054528
 20
30.7228547745
 11
159.401867028
 21
30.658327332
 12
159.922179528
 22
30.7228547745
 13
159.922179528
 23
30.7228547745
  0
SOLID
  8
0
 62
7
  6
CONTINUOUS
 10
159.401867028
 20
30.658327332
 11
159.228429528
 21
30.7228547745
 12
159.922179528
 22
30.7228547745
 13
159.922179528
 23
30.7228547745
  0
SOLID
  8
0
 62
7
  6
CONTINUOUS
 10
159.401867028
 20
30.658327332
 11
160.8471793074
 21
30.6905916353
 12
159.575304528
 22
30.6260629858
 13
159.575304528
 23
30.6260629858
  0
SOLID
  8
0
 62
7
  6
CONTINUOUS
 10
160.8471793074
 20
30.6905916353
 11
160.615929528
 21
30.6260629858
 12
159.575304528
 22
30.6260629858
 13
159.575304528
 23
30.6260629858
  0
SOLID
  8
0
 62
7
  6
CONTINUOUS
 10
159.922179528
 20
30.5938006049
 11
159.575304528
 21
30.6260629858
 12
160.615929528
 22
30.6260629858
 13
160.615929528
 23
30.6260629858
  0
SOLID
  8
0
 62
7
  6
CONTINUOUS
 10
160.615929528
 20
30.6260629858
 11
160.269054528
 21
30.5938006049
 12
159.922179528
 22
30.5938006049
 13
159.922179528
 23
30.5938006049
  0
SOLID
  8
0
 62
7
  6
CONTINUOUS
 10
149.5737418074
 20
31.1100184796
 11
149.9206168074
 21
31.2713369632
 12
149.8628043005
 22
31.1422827828
 13
149.8628043005
 23
31.1422827828
  0
SOLID
  8
0
 62
7
  6
CONTINUOUS
 10
149.8628043005
 20
31.1422827828
 11
149.8628043005
 21
31.0454914852
 12
149.5737418074
 22
31.1100184796
 13
149.5737418074
 23
31.1100184796
  0
SOLID
  8
0
 62
7
  6
CONTINUOUS
 10
149.6315543091
 20
30.9164372091
 11
149.5737418074
 21
31.1100184796
 12
149.8628043005
 22
31.0454914852
 13
149.8628043005
 23
31.0454914852
  0
SOLID
  8
0
 62
7
  6
CONTINUOUS
 10
149.8628043005
 20
31.0454914852
 11
149.9784292936
 21
30.8841729058
 12
149.6315543091
 22
30.9164372091
 13
149.6315543091
 23
30.9164372091
  0
SOLID
  8
0
 62
7
  6
CONTINUOUS
 10
149.7471793074
 20
30.7873813202
 11
149.6315543091
 21
30.9164372091
 12
149.9784292936
 22
30.8841729058
 13
149.9784292936
 23
30.8841729058
  0
SOLID
  8
0
 62
7
  6
CONTINUOUS
 10
149.9784292936
 20
30.8841729058
 11
150.1518667936
 21
30.7873813202
 12
149.7471793074
 22
30.7873813202
 13
149.7471793074
 23
30.7873813202
  0
SOLID
  8
0
 62
7
  6
CONTINUOUS
 10
149.8628043005
 20
30.7228547004
 11
149.7471793074
 21
30.7873813202
 12
150.1518667936
 22
30.7873813202
 13
150.1518667936
 23
30.7873813202
  0
SOLID
  8
0
 62
7
  6
CONTINUOUS
 10
150.1518667936
 20
30.7873813202
 11
150.498741835
 21
30.7228547004
 12
149.8628043005
 22
30.7228547004
 13
149.8628043005
 23
30.7228547004
  0
SOLID
  8
0
 62
7
  6
CONTINUOUS
 10
150.0362418212
 20
30.658327332
 11
149.8628043005
 21
30.7228547004
 12
150.498741835
 22
30.7228547004
 13
150.498741835
 23
30.7228547004
  0
SOLID
  8
0
 62
7
  6
CONTINUOUS
 10
154.0831168074
 20
31.1100184386
 11
154.1987416972
 21
31.1745462761
 12
154.7768668074
 22
31.1422827828
 13
154.7768668074
 23
31.1422827828
  0
SOLID
  8
0
 62
7
  6
CONTINUOUS
 10
154.7768668074
 20
31.1422827828
 11
154.5456166972
 21
31.1100184386
 12
154.0831168074
 22
31.1100184386
 13
154.0831168074
 23
31.1100184386
  0
SOLID
  8
0
 62
7
  6
CONTINUOUS
 10
153.9674919177
 20
30.9809642992
 11
154.0831168074
 21
31.1100184386
 12
154.5456166972
 22
31.1100184386
 13
154.5456166972
 23
31.1100184386
  0
SOLID
  8
0
 62
7
  6
CONTINUOUS
 10
154.3143669177
 20
31.0132277988
 11
153.9674919177
 21
30.9809642992
 12
154.4299918074
 22
31.0777556927
 13
154.4299918074
 23
31.0777556927
  0
SOLID
  8
0
 62
7
  6
CONTINUOUS
 10
153.9674919177
 20
30.9809642992
 11
154.5456166972
 21
31.1100184796
 12
154.4299918074
 22
31.0777556927
 13
154.4299918074
 23
31.0777556927
  0
SOLID
  8
0
 62
7
  6
CONTINUOUS
 10
154.3143669177
 20
31.0132277988
 11
154.2565543074
 21
30.9164372091
 12
153.9674919177
 22
30.9809642992
 13
153.9674919177
 23
30.9809642992
  0
SOLID
  8
0
 62
7
  6
CONTINUOUS
 10
153.9674919177
 20
30.8841729058
 11
153.9674919177
 21
30.9809642992
 12
154.2565543074
 22
30.9164372091
 13
154.2565543074
 23
30.9164372091
  0
SOLID
  8
0
 62
7
  6
CONTINUOUS
 10
154.2565543074
 20
30.9164372091
 11
154.2565543074
 21
30.8519086025
 12
153.9674919177
 22
30.8841729058
 13
153.9674919177
 23
30.8841729058
  0
SOLID
  8
0
 62
7
  6
CONTINUOUS
 10
154.0253041972
 20
30.7551187255
 11
153.9674919177
 21
30.8841729058
 12
154.2565543074
 22
30.8519086025
 13
154.2565543074
 23
30.8519086025
  0
SOLID
  8
0
 62
7
  6
CONTINUOUS
 10
155.412804528
 20
30.9487004259
 11
155.7018665869
 21
30.8519086025
 12
155.3549915869
 22
30.8841729058
 13
155.3549915869
 23
30.8841729058
  0
SOLID
  8
0
 62
7
  6
CONTINUOUS
 10
155.1815540869
 20
30.7873815123
 11
155.3549915869
 21
30.8841729058
 12
155.7018665869
 22
30.8519086025
 13
155.7018665869
 23
30.8519086025
  0
SOLID
  8
0
 62
7
  6
CONTINUOUS
 10
155.1815540869
 20
30.7873815123
 11
155.7018665869
 21
30.8519086025
 12
155.412804528
 22
30.7551187255
 13
155.412804528
 23
30.7551187255
  0
SOLID
  8
0
 62
7
  6
CONTINUOUS
 10
155.7018665869
 20
30.8519086025
 11
155.759679528
 21
30.6905916353
 12
155.412804528
 22
30.7551187255
 13
155.412804528
 23
30.7551187255
  0
SOLID
  8
0
 62
7
  6
CONTINUOUS
 10
155.4706168074
 20
30.658327332
 11
155.412804528
 21
30.7551187255
 12
155.759679528
 22
30.6905916353
 13
155.759679528
 23
30.6905916353
  0
SOLID
  8
0
 62
7
  6
CONTINUOUS
 10
155.4706168074
 20
30.658327332
 11
155.759679528
 21
30.6905916353
 12
155.5284290869
 22
30.5938002079
 13
155.5284290869
 23
30.5938002079
  0
SOLID
  8
0
 62
7
  6
CONTINUOUS
 10
155.759679528
 20
30.6905916353
 11
155.8174918074
 21
30.5938002079
 12
155.5284290869
 22
30.5938002079
 13
155.5284290869
 23
30.5938002079
  0
SOLID
  8
0
 62
7
  6
CONTINUOUS
 10
151.0768668626
 20
30.8196456577
 11
151.1346793074
 21
30.9164373395
 12
151.4237418626
 22
30.9164373395
 13
151.4237418626
 23
30.9164373395
  0
SOLID
  8
0
 62
7
  6
CONTINUOUS
 10
151.4237418626
 20
30.9164373395
 11
151.3659292523
 21
30.7873815123
 12
151.0768668626
 22
30.8196456577
 13
151.0768668626
 23
30.8196456577
  0
SOLID
  8
0
 62
7
  6
CONTINUOUS
 10
150.9034292799
 20
30.7551187255
 11
151.0768668626
 21
30.8196456577
 12
151.3659292523
 22
30.7873815123
 13
151.3659292523
 23
30.7873815123
  0
SOLID
  8
0
 62
7
  6
CONTINUOUS
 10
150.9034292799
 20
30.7551187255
 11
151.3659292523
 21
30.7873815123
 12
150.498741835
 22
30.7228544222
 13
150.498741835
 23
30.7228544222
  0
SOLID
  8
0
 62
7
  6
CONTINUOUS
 10
151.3659292523
 20
30.7873815123
 11
151.1924917523
 21
30.6905916353
 12
150.498741835
 22
30.7228544222
 13
150.498741835
 23
30.7228544222
  0
SOLID
  8
0
 62
7
  6
CONTINUOUS
 10
150.0362418212
 20
30.658327332
 11
150.498741835
 21
30.7228544222
 12
151.1924917523
 22
30.6905916353
 13
151.1924917523
 23
30.6905916353
  0
SOLID
  8
0
 62
7
  6
CONTINUOUS
 10
150.0362418212
 20
30.658327332
 11
151.1924917523
 21
30.6905916353
 12
150.2096793212
 22
30.6260631011
 13
150.2096793212
 23
30.6260631011
  0
SOLID
  8
0
 62
7
  6
CONTINUOUS
 10
151.1924917523
 20
30.6905916353
 11
150.9612418074
 21
30.6260631011
 12
150.2096793212
 22
30.6260631011
 13
150.2096793212
 23
30.6260631011
  0
SOLID
  8
0
 62
7
  6
CONTINUOUS
 10
150.5565542799
 20
30.5938002419
 11
150.2096793212
 21
30.6260631011
 12
150.9612418074
 22
30.6260631011
 13
150.9612418074
 23
30.6260631011
  0
SOLID
  8
0
 62
7
  6
CONTINUOUS
 10
154.0253041972
 20
30.7551187255
 11
154.2565543074
 21
30.8519086025
 12
154.3143669177
 22
30.7873815123
 13
154.3143669177
 23
30.7873815123
  0
SOLID
  8
0
 62
7
  6
CONTINUOUS
 10
154.3143669177
 20
30.7873815123
 11
154.5456166972
 21
30.7228544222
 12
154.0253041972
 22
30.7551187255
 13
154.0253041972
 23
30.7551187255
  0
SOLID
  8
0
 62
7
  6
CONTINUOUS
 10
154.1987416972
 20
30.658327332
 11
154.0253041972
 21
30.7551187255
 12
154.5456166972
 22
30.7228544222
 13
154.5456166972
 23
30.7228544222
  0
SOLID
  8
0
 62
7
  6
CONTINUOUS
 10
154.8924916972
 20
30.7228544637
 11
155.1815540869
 21
30.7873815123
 12
155.412804528
 22
30.7551187255
 13
155.412804528
 23
30.7551187255
  0
SOLID
  8
0
 62
7
  6
CONTINUOUS
 10
155.412804528
 20
30.7551187255
 11
155.3549915869
 21
30.6905916353
 12
154.8924916972
 22
30.7228544637
 13
154.8924916972
 23
30.7228544637
  0
SOLID
  8
0
 62
7
  6
CONTINUOUS
 10
155.3549915869
 20
30.6905916353
 11
154.1987416972
 21
30.658327332
 12
154.8924916972
 22
30.7228544637
 13
154.8924916972
 23
30.7228544637
  0
SOLID
  8
0
 62
7
  6
CONTINUOUS
 10
154.1987416972
 20
30.658327332
 11
154.5456166972
 21
30.7228544637
 12
154.8924916972
 22
30.7228544637
 13
154.8924916972
 23
30.7228544637
  0
SOLID
  8
0
 62
7
  6
CONTINUOUS
 10
154.1987416972
 20
30.658327332
 11
155.3549915869
 21
30.6905916353
 12
154.3143669177
 22
30.6260630541
 13
154.3143669177
 23
30.6260630541
  0
SOLID
  8
0
 62
7
  6
CONTINUOUS
 10
155.3549915869
 20
30.6905916353
 11
155.1815540869
 21
30.6260630541
 12
154.3143669177
 22
30.6260630541
 13
154.3143669177
 23
30.6260630541
  0
SOLID
  8
0
 62
7
  6
CONTINUOUS
 10
154.5456166972
 20
30.5938002188
 11
154.3143669177
 21
30.6260630541
 12
155.1815540869
 22
30.6260630541
 13
155.1815540869
 23
30.6260630541
  0
SOLID
  8
0
 62
7
  6
CONTINUOUS
 10
155.1815540869
 20
30.6260630541
 11
154.8924916972
 21
30.5938002188
 12
154.5456166972
 22
30.5938002188
 13
154.5456166972
 23
30.5938002188
  0
SOLID
  8
0
 62
7
  6
CONTINUOUS
 10
159.575304528
 20
30.7551187255
 11
159.228429528
 21
30.7228544637
 12
159.4596793074
 22
30.7873815123
 13
159.4596793074
 23
30.7873815123
  0
SOLID
  8
0
 62
7
  6
CONTINUOUS
 10
159.4596793074
 20
30.7873815123
 11
159.228429528
 21
30.7228544637
 12
159.401867028
 22
30.851908644
 13
159.401867028
 23
30.851908644
  0
SOLID
  8
0
 62
7
  6
CONTINUOUS
 10
159.228429528
 20
30.7228544637
 11
159.1128043074
 21
30.851908644
 12
159.401867028
 22
30.851908644
 13
159.401867028
 23
30.851908644
  0
SOLID
  8
0
 62
7
  6
CONTINUOUS
 10
159.575304528
 20
30.7551187255
 11
159.922179528
 21
30.7228544637
 12
159.228429528
 22
30.7228544637
 13
159.228429528
 23
30.7228544637
  0
SOLID
  8
0
 62
7
  6
CONTINUOUS
 10
156.279992028
 20
30.5938002419
 11
156.279992028
 21
31.6262382337
 12
156.5690540869
 22
30.5938002419
 13
156.5690540869
 23
31.6262382337
  0
ENDBLK
  8
0
  6
BYBLOCK
 62
0
  0
BLOCK
  8
0
 62
2
  6
CONTINUOUS
  2
SYMBOL_3_BL0
 70
64
 10
32.1213064866
 20
19.8534310916
  0
TEXT
  8
0
 62
7
  6
CONTINUOUS
 10
18.3860103289
 20
19.2268451992
  7
TEXTSTYLE_3
 40
2.7338706658
  1
Ammeraal Beltech
 41
1.0
 51
15.0
 72
0
  0
TEXT
  8
0
 62
7
  6
CONTINUOUS
 10
29.1868111546
 20
16.9533085264
  7
TEXTSTYLE_4
 40
1.0935482663
  1
Innovation & Service in Belting
 41
1.0
 72
0
  0
LINE
  8
0
 62
7
  6
CONTINUOUS
 10
12.3614696776
 20
19.9934385078
 11
13.1396216709
 21
23.6543558055
  0
LINE
  8
0
 62
7
  6
CONTINUOUS
 10
23.2347899607
 20
27.3177497171
 11
13.6274394139
 21
24.1961322958
  0
LINE
  8
0
 62
7
  6
CONTINUOUS
 10
12.5867530099
 20
19.3000877048
 11
20.093828271
 21
12.5406867788
  0
LINE
  8
0
 62
7
  6
CONTINUOUS
 10
12.8492874206
 20
20.5352149982
 11
23.6575567857
 21
24.0470345971
  0
LINE
  8
0
 62
7
  6
CONTINUOUS
 10
23.6533516486
 20
13.6972460334
 11
15.2078919798
 21
21.3015720751
  0
LINE
  8
0
 62
7
  6
CONTINUOUS
 10
24.1731743684
 20
26.4728246013
 11
23.1966148312
 21
21.8784731989
  0
LINE
  8
0
 62
7
  6
CONTINUOUS
 10
22.4968128835
 20
18.5861638851
 11
21.810364672
 21
15.3566789607
  0
LINE
  8
0
 62
7
  6
CONTINUOUS
 10
24.8542704669
 20
14.087448211
 11
25.8105020025
 21
18.5861638851
  0
LINE
  8
0
 62
7
  6
CONTINUOUS
 10
26.5103039502
 20
21.8784731989
 11
26.9545457526
 21
23.9684665583
  0
LINE
  8
0
 62
7
  6
CONTINUOUS
 10
20.8069293463
 20
12.3891124661
 11
24.3664527239
 21
13.5456717207
  0
LINE
  8
0
 62
7
  6
CONTINUOUS
 10
23.9478910361
 20
27.1661754044
 11
26.7292624203
 21
24.6618173613
  0
ARC
  8
0
 62
7
  6
CONTINUOUS
 10
13.8527227462
 20
23.5027814928
 40
0.7290321776
 50
108.0
 51
168.0
  0
ARC
  8
0
 62
7
  6
CONTINUOUS
 10
23.4600732931
 20
26.624398914
 40
0.7290321776
 50
348.0
 51
108.0
  0
ARC
  8
0
 62
7
  6
CONTINUOUS
 10
26.2414446773
 20
24.120040871
 40
0.7290321776
 50
348.0
 51
48.0
  0
ARC
  8
0
 62
7
  6
CONTINUOUS
 10
20.581646014
 20
13.0824632691
 40
0.7290321776
 50
228.0
 51
288.0
  0
ARC
  8
0
 62
7
  6
CONTINUOUS
 10
13.0745707529
 20
19.8418641951
 40
0.7290321776
 50
108.0
 51
228.0
  0
ARC
  8
0
 62
7
  6
CONTINUOUS
 10
24.1411693916
 20
14.2390225237
 40
0.7290321776
 50
228.0
 51
348.0
  0
ENDBLK
  8
0
  6
BYBLOCK
 62
0
  0
ENDSEC
  0
SECTION
  2
ENTITIES
  0
TEXT
  8
0
 62
5
  6
CONTINUOUS
 10
96.0
 20
25.636
  7
TEXTSTYLE_2
 40
2.8
  1
Scale :
 41
0.6
 51
0.000019
 72
0
  0
TEXT
  8
0
 62
5
  6
CONTINUOUS
 10
116.0
 20
25.636
  7
TEXTSTYLE_2
 40
2.8
  1
Belt type:
 41
0.6
 51
0.000019
 72
0
  0
INSERT
  8
0
 62
2
  6
CONTINUOUS
  2
SYMBOL_3_BL0
 10
32.1213064866
 20
19.8534310916
  0
INSERT
  8
0
 62
2
  6
CONTINUOUS
  2
SYMBOL_8_BL1
 10
173.5956734183
 20
35.5937998301
  0
LINE
  8
0
 62
2
  6
CONTINUOUS
 10
10.0
 20
30.0
 11
200.0
 21
30.0
  0
LINE
  8
0
 62
2
  6
CONTINUOUS
 10
10.0
 20
30.0
 11
10.0
 21
10.0
  0
LINE
  8
0
 62
2
  6
CONTINUOUS
 10
10.0
 20
10.0
 11
200.0
 21
10.0
  0
LINE
  8
0
 62
2
  6
CONTINUOUS
 10
95.0
 20
30.0
 11
95.0
 21
10.0
  0
LINE
  8
0
 62
2
  6
CONTINUOUS
 10
115.0
 20
30.0
 11
115.0
 21
10.0
  0
LINE
  8
0
 62
2
  6
CONTINUOUS
 10
200.0
 20
30.0
 11
200.0
 21
10.0
  0
TEXT
  8
0
 62
5
  6
CONTINUOUS
 10
13.0
 20
23.303
  7
TEXTSTYLE_5
 40
1.52
  1
                                                                     Ammeraal Beltech Modular A/S
 41
1.0
 72
0
  0
TEXT
  8
0
 62
5
  6
CONTINUOUS
 10
13.0
 20
20.595
  7
TEXTSTYLE_5
 40
1.5
  1
                                                                      Hjulmagervej 21,  7100 Vejle,  DK
 41
1.0
 72
0
  0
TEXT
  8
0
 62
5
  6
CONTINUOUS
 10
13.0
 20
17.881
  7
TEXTSTYLE_5
 40
1.495
  1
                                                                      tel: 
 41
1.0
 72
0
  0
TEXT
  8
0
 62
5
  6
CONTINUOUS
 10
57.9869465649
 20
17.881
  7
TEXTSTYLE_5
 40
1.51
  1
+45 75723100     fax: +45 75723348
 41
1.0
 72
0
  0
TEXT
  8
0
 62
5
  6
CONTINUOUS
 10
13.0
 20
15.177
  7
TEXTSTYLE_5
 40
1.5
  1
                                                                      admin@unichains.dk  www.unichains.com
 41
1.0
 72
0
  0
TEXT
  8
0
 62
5
  6
CONTINUOUS
 10
99.75
 20
13.75
  7
TEXTSTYLE_6
 40
5.0
  1
1:1
 41
0.7
 72
1
 11
105.0
 21
13.75
  0
TEXT
  8
0
 62
5
  6
CONTINUOUS
 10
118.0
 20
13.75
  7
TEXTSTYLE_7
 40
7.5
  1
uni S-MPB Side Guard 2" Left
 41
0.3659598214
 72
0
  0
LINE
  8
0
 62
7
  6
CONTINUOUS
 10
210.0
 20
0.0
 11
0.0
 21
0.0
  0
LINE
  8
0
 62
7
  6
CONTINUOUS
 10
10.0
 20
10.0
 11
200.0
 21
10.0
  0
LINE
  8
0
 62
7
  6
CONTINUOUS
 10
10.0
 20
30.0
 11
200.0
 21
30.0
  0
LINE
  8
0
 62
7
  6
CONTINUOUS
 10
0.0
 20
0.0
 11
0.0
 21
297.0
  0
LINE
  8
0
 62
7
  6
CONTINUOUS
 10
10.0
 20
10.0
 11
10.0
 21
287.0
  0
LINE
  8
0
 62
7
  6
CONTINUOUS
 10
200.0
 20
287.0
 11
200.0
 21
10.0
  0
LINE
  8
0
 62
7
  6
CONTINUOUS
 10
210.0
 20
0.0
 11
210.0
 21
297.0
  0
LINE
  8
0
 62
7
  6
CONTINUOUS
 10
10.0
 20
287.0
 11
200.0
 21
287.0
  0
LINE
  8
0
 62
7
  6
CONTINUOUS
 10
0.0
 20
297.0
 11
210.0
 21
297.0
  0
LINE
  8
0
 62
7
  6
CONTINUOUS
 10
36.011387078
 20
113.1520552835
 11
36.011387078
 21
115.1742675407
  0
POLYLINE
  8
0
 62
7
  6
CONTINUOUS
 66
1
 70
0
  0
VERTEX
  8
0
 62
7
  6
CONTINUOUS
 10
44.8873385199
 20
113.3664097314
  0
VERTEX
  8
0
 62
7
  6
CONTINUOUS
 10
44.8911154596
 20
113.2896485299
  0
VERTEX
  8
0
 62
7
  6
CONTINUOUS
 10
44.9288826927
 20
113.1139982234
  0
VERTEX
  8
0
 62
7
  6
CONTINUOUS
 10
45.0056274587
 20
112.9472596105
  0
VERTEX
  8
0
 62
7
  6
CONTINUOUS
 10
45.116838954
 20
112.7953377665
  0
VERTEX
  8
0
 62
7
  6
CONTINUOUS
 10
45.2595181267
 20
112.6581524124
  0
VERTEX
  8
0
 62
7
  6
CONTINUOUS
 10
45.434809284
 20
112.5324910444
  0
VERTEX
  8
0
 62
7
  6
CONTINUOUS
 10
45.6470312448
 20
112.4152340114
  0
VERTEX
  8
0
 62
7
  6
CONTINUOUS
 10
45.8992025375
 20
112.3056552159
  0
VERTEX
  8
0
 62
7
  6
CONTINUOUS
 10
46.1914894873
 20
112.2045498989
  0
VERTEX
  8
0
 62
7
  6
CONTINUOUS
 10
46.5206579327
 20
112.1134290327
  0
VERTEX
  8
0
 62
7
  6
CONTINUOUS
 10
46.8807852511
 20
112.0337836564
  0
VERTEX
  8
0
 62
7
  6
CONTINUOUS
 10
47.2663267389
 20
111.9663841635
  0
VERTEX
  8
0
 62
7
  6
CONTINUOUS
 10
47.6707348941
 20
111.9117951658
  0
VERTEX
  8
0
 62
7
  6
CONTINUOUS
 10
48.0865331473
 20
111.8703033898
  0
VERTEX
  8
0
 62
7
  6
CONTINUOUS
 10
48.5370912864
 20
111.8394413676
  0
SEQEND
  0
LINE
  8
0
 62
7
  6
CONTINUOUS
 10
44.8873377692
 20
113.3663641213
 11
44.8873377692
 21
113.8974572236
  0
LINE
  8
0
 62
7
  6
CONTINUOUS
 10
44.8873377692
 20
116.9307756072
 11
44.8873377692
 21
117.4197285385
  0
LINE
  8
0
 62
7
  6
CONTINUOUS
 10
48.5873377692
 20
114.1022587898
 11
48.5873377692
 21
112.7345095322
  0
LINE
  8
DEFAULT_1
 62
7
  6
CENTER
 10
49.2873377692
 20
110.1520370848
 11
49.2873377692
 21
119.9197285385
  0
LINE
  8
0
 62
7
  6
CONTINUOUS
 10
51.0873377692
 20
114.565556894
 11
51.0873377692
 21
112.8283143414
  0
LINE
  8
0
 62
7
  6
CONTINUOUS
 10
51.9723377692
 20
112.3213412249
 11
51.9723377692
 21
114.9563175682
  0
LINE
  8
0
 62
7
  6
CONTINUOUS
 10
52.8723377692
 20
115.0908234694
 11
52.8723377692
 21
112.7343053874
  0
POLYLINE
  8
0
 62
7
  6
CONTINUOUS
 66
1
 70
0
  0
VERTEX
  8
0
 62
7
  6
CONTINUOUS
 10
50.5873368518
 20
111.7687794447
  0
VERTEX
  8
0
 62
7
  6
CONTINUOUS
 10
50.6321183801
 20
111.7700375283
  0
VERTEX
  8
0
 62
7
  6
CONTINUOUS
 10
50.7086641861
 20
111.7763624967
  0
VERTEX
  8
0
 62
7
  6
CONTINUOUS
 10
50.7853148928
 20
111.7850079176
  0
VERTEX
  8
0
 62
7
  6
CONTINUOUS
 10
50.8618473745
 20
111.7939831076
  0
VERTEX
  8
0
 62
7
  6
CONTINUOUS
 10
50.9422078347
 20
111.8026668154
  0
VERTEX
  8
0
 62
7
  6
CONTINUOUS
 10
51.0281306915
 20
111.8104399123
  0
VERTEX
  8
0
 62
7
  6
CONTINUOUS
 10
51.1209428714
 20
111.8166532396
  0
VERTEX
  8
0
 62
7
  6
CONTINUOUS
 10
51.2208049377
 20
111.8205131746
  0
VERTEX
  8
0
 62
7
  6
CONTINUOUS
 10
51.2915781393
 20
111.821342161
  0
SEQEND
  0
LINE
  8
0
 62
7
  6
CONTINUOUS
 10
51.2915781397
 20
111.8213412249
 11
51.4723377692
 21
111.8213412249
  0
LINE
  8
0
 62
7
  6
CONTINUOUS
 10
49.0902710462
 20
111.7689126588
 11
50.5873368675
 21
111.7687779989
  0
POLYLINE
  8
0
 62
7
  6
CONTINUOUS
 66
1
 70
0
  0
VERTEX
  8
0
 62
7
  6
CONTINUOUS
 10
48.5370912864
 20
111.8394413676
  0
VERTEX
  8
0
 62
7
  6
CONTINUOUS
 10
48.6239188339
 20
111.8314180089
  0
VERTEX
  8
0
 62
7
  6
CONTINUOUS
 10
48.7026803047
 20
111.8217574418
  0
VERTEX
  8
0
 62
7
  6
CONTINUOUS
 10
48.7744028328
 20
111.8111262412
  0
VERTEX
  8
0
 62
7
  6
CONTINUOUS
 10
48.8416499085
 20
111.7999377839
  0
VERTEX
  8
0
 62
7
  6
CONTINUOUS
 10
48.9075864224
 20
111.7885872301
  0
VERTEX
  8
0
 62
7
  6
CONTINUOUS
 10
48.9790135713
 20
111.7774581142
  0
VERTEX
  8
0
 62
7
  6
CONTINUOUS
 10
49.0505123559
 20
111.7701410208
  0
VERTEX
  8
0
 62
7
  6
CONTINUOUS
 10
49.0902681374
 20
111.7689133737
  0
SEQEND
  0
LINE
  8
0
 62
7
  6
CONTINUOUS
 10
48.3471451427
 20
114.396236813
 11
48.345251014
 21
114.3966158113
  0
POLYLINE
  8
0
 62
7
  6
CONTINUOUS
 66
1
 70
0
  0
VERTEX
  8
0
 62
7
  6
CONTINUOUS
 10
51.4723377692
 20
111.8213412249
  0
VERTEX
  8
0
 62
7
  6
CONTINUOUS
 10
51.5190770732
 20
111.8235305807
  0
VERTEX
  8
0
 62
7
  6
CONTINUOUS
 10
51.6068992252
 20
111.8397883051
  0
VERTEX
  8
0
 62
7
  6
CONTINUOUS
 10
51.6929102696
 20
111.8726233045
  0
VERTEX
  8
0
 62
7
  6
CONTINUOUS
 10
51.7711745062
 20
111.9204714148
  0
VERTEX
  8
0
 62
7
  6
CONTINUOUS
 10
51.8416670908
 20
111.9843013871
  0
VERTEX
  8
0
 62
7
  6
CONTINUOUS
 10
51.8987167577
 20
112.0601880932
  0
VERTEX
  8
0
 62
7
  6
CONTINUOUS
 10
51.9398547689
 20
112.1440621934
  0
VERTEX
  8
0
 62
7
  6
CONTINUOUS
 10
51.964334183
 20
112.232237191
  0
VERTEX
  8
0
 62
7
  6
CONTINUOUS
 10
51.9723377692
 20
112.3213412249
  0
SEQEND
  0
LINE
  8
0
 62
7
  6
CONTINUOUS
 10
48.327979538
 20
114.3994931193
 11
48.3406254812
 21
114.3974882256
  0
POLYLINE
  8
0
 62
7
  6
CONTINUOUS
 66
1
 70
0
  0
VERTEX
  8
0
 62
7
  6
CONTINUOUS
 10
71.458785366
 20
123.6841012769
  0
VERTEX
  8
0
 62
7
  6
CONTINUOUS
 10
71.3831935118
 20
123.6545688615
  0
VERTEX
  8
0
 62
7
  6
CONTINUOUS
 10
71.3036682297
 20
123.6061460862
  0
VERTEX
  8
0
 62
7
  6
CONTINUOUS
 10
71.2344321083
 20
123.5437449922
  0
VERTEX
  8
0
 62
7
  6
CONTINUOUS
 10
71.1779882346
 20
123.469589721
  0
VERTEX
  8
0
 62
7
  6
CONTINUOUS
 10
71.1363382832
 20
123.3863821478
  0
VERTEX
  8
0
 62
7
  6
CONTINUOUS
 10
71.1108771393
 20
123.2971649994
  0
VERTEX
  8
0
 62
7
  6
CONTINUOUS
 10
71.1023377692
 20
123.2051516895
  0
SEQEND
  0
POLYLINE
  8
0
 62
7
  6
CONTINUOUS
 66
1
 70
0
  0
VERTEX
  8
0
 62
7
  6
CONTINUOUS
 10
72.071824899
 20
123.8708406324
  0
VERTEX
  8
0
 62
7
  6
CONTINUOUS
 10
72.0454211982
 20
123.8608352699
  0
VERTEX
  8
0
 62
7
  6
CONTINUOUS
 10
72.0024937946
 20
123.8470422452
  0
SEQEND
  0
LINE
  8
0
 62
7
  6
CONTINUOUS
 10
72.0024687057
 20
123.8470349448
 11
71.4588023061
 21
123.6841063542
  0
LINE
  8
DEFAULT_1
 62
7
  6
CENTER
 10
61.9873377692
 20
122.3697285385
 11
61.9873377692
 21
119.9698285385
  0
LINE
  8
0
 62
2
  6
CONTINUOUS
 10
61.9873377692
 20
118.8497285385
 11
61.9873377692
 21
117.0897285385
  0
LINE
  8
DEFAULT_1
 62
7
  6
CENTER
 10
61.9873377692
 20
113.5697285385
 11
61.9873377692
 21
115.9696285385
  0
LINE
  8
0
 62
7
  6
CONTINUOUS
 10
87.5371829458
 20
120.2715192926
 11
36.5853019399
 21
112.6567096557
  0
LINE
  8
0
 62
7
  6
CONTINUOUS
 10
45.3873512206
 20
117.9197285385
 11
51.5045763447
 21
117.9197285385
  0
LINE
  8
DEFAULT_1
 62
7
  6
CENTER
 10
66.3873377692
 20
117.9697285385
 11
63.9874377692
 21
117.9697285385
  0
LINE
  8
0
 62
2
  6
CONTINUOUS
 10
62.8673377692
 20
117.9697285385
 11
61.1073377692
 21
117.9697285385
  0
LINE
  8
DEFAULT_1
 62
7
  6
CENTER
 10
57.5873377692
 20
117.9697285385
 11
59.9872377692
 21
117.9697285385
  0
LINE
  8
0
 62
7
  6
CONTINUOUS
 10
78.5873243178
 20
118.0197285385
 11
72.4700991937
 21
118.0197285385
  0
POLYLINE
  8
0
 62
7
  6
CONTINUOUS
 66
1
 70
0
  0
VERTEX
  8
0
 62
7
  6
CONTINUOUS
 10
52.5158901725
 20
112.2553558
  0
VERTEX
  8
0
 62
7
  6
CONTINUOUS
 10
52.5914820267
 20
112.2848882154
  0
VERTEX
  8
0
 62
7
  6
CONTINUOUS
 10
52.6710073088
 20
112.3333109908
  0
VERTEX
  8
0
 62
7
  6
CONTINUOUS
 10
52.7402434302
 20
112.3957120847
  0
VERTEX
  8
0
 62
7
  6
CONTINUOUS
 10
52.7966873038
 20
112.4698673559
  0
VERTEX
  8
0
 62
7
  6
CONTINUOUS
 10
52.8383372553
 20
112.5530749291
  0
VERTEX
  8
0
 62
7
  6
CONTINUOUS
 10
52.8637983992
 20
112.6422920775
  0
VERTEX
  8
0
 62
7
  6
CONTINUOUS
 10
52.8723377692
 20
112.7343053874
  0
SEQEND
  0
POLYLINE
  8
0
 62
7
  6
CONTINUOUS
 66
1
 70
0
  0
VERTEX
  8
0
 62
7
  6
CONTINUOUS
 10
51.9028506099
 20
112.0686163842
  0
VERTEX
  8
0
 62
7
  6
CONTINUOUS
 10
51.9292534319
 20
112.0786214646
  0
VERTEX
  8
0
 62
7
  6
CONTINUOUS
 10
51.9721814921
 20
112.0924147914
  0
SEQEND
  0
LINE
  8
0
 62
7
  6
CONTINUOUS
 10
87.3893735995
 20
123.2827474214
 11
36.4374925397
 21
115.6679377764
  0
LINE
  8
0
 62
7
  6
CONTINUOUS
 10
51.9722068328
 20
112.0924221322
 11
52.5158732323
 21
112.2553507227
  0
POLYLINE
  8
0
 62
7
  6
CONTINUOUS
 66
1
 70
0
  0
VERTEX
  8
0
 62
7
  6
CONTINUOUS
 10
72.5023377692
 20
124.118115852
  0
VERTEX
  8
0
 62
7
  6
CONTINUOUS
 10
72.4555984653
 20
124.1159264962
  0
VERTEX
  8
0
 62
7
  6
CONTINUOUS
 10
72.3677763132
 20
124.0996687718
  0
VERTEX
  8
0
 62
7
  6
CONTINUOUS
 10
72.2817652689
 20
124.0668337725
  0
VERTEX
  8
0
 62
7
  6
CONTINUOUS
 10
72.2035010323
 20
124.0189856622
  0
VERTEX
  8
0
 62
7
  6
CONTINUOUS
 10
72.1330084477
 20
123.9551556898
  0
VERTEX
  8
0
 62
7
  6
CONTINUOUS
 10
72.0759587807
 20
123.8792689837
  0
VERTEX
  8
0
 62
7
  6
CONTINUOUS
 10
72.0348207695
 20
123.7953948835
  0
VERTEX
  8
0
 62
7
  6
CONTINUOUS
 10
72.0103413555
 20
123.707219886
  0
VERTEX
  8
0
 62
7
  6
CONTINUOUS
 10
72.0023377692
 20
123.618115852
  0
SEQEND
  0
POLYLINE
  8
0
 62
7
  6
CONTINUOUS
 66
1
 70
0
  0
VERTEX
  8
0
 62
7
  6
CONTINUOUS
 10
73.3873386867
 20
124.1706776323
  0
VERTEX
  8
0
 62
7
  6
CONTINUOUS
 10
73.3425571584
 20
124.1694195487
  0
VERTEX
  8
0
 62
7
  6
CONTINUOUS
 10
73.2660113524
 20
124.1630945803
  0
VERTEX
  8
0
 62
7
  6
CONTINUOUS
 10
73.1893606457
 20
124.1544491593
  0
VERTEX
  8
0
 62
7
  6
CONTINUOUS
 10
73.112828164
 20
124.1454739693
  0
VERTEX
  8
0
 62
7
  6
CONTINUOUS
 10
73.0324677038
 20
124.1367902615
  0
VERTEX
  8
0
 62
7
  6
CONTINUOUS
 10
72.946544847
 20
124.1290171646
  0
VERTEX
  8
0
 62
7
  6
CONTINUOUS
 10
72.853732667
 20
124.1228038374
  0
VERTEX
  8
0
 62
7
  6
CONTINUOUS
 10
72.7538706007
 20
124.1189439023
  0
VERTEX
  8
0
 62
7
  6
CONTINUOUS
 10
72.6830973992
 20
124.1181149159
  0
SEQEND
  0
LINE
  8
0
 62
7
  6
CONTINUOUS
 10
72.6830973987
 20
124.118115852
 11
72.5023377692
 21
124.118115852
  0
LINE
  8
0
 62
7
  6
CONTINUOUS
 10
74.8844044925
 20
124.1705444181
 11
73.387338671
 21
124.1706790781
  0
LINE
  8
0
 62
7
  6
CONTINUOUS
 10
75.6369926022
 20
121.541452849
 11
75.6349495064
 21
121.5418079184
  0
LINE
  8
0
 62
7
  6
CONTINUOUS
 10
75.6350343595
 20
121.5417931885
 11
75.6334914053
 21
121.5420707274
  0
POLYLINE
  8
0
 62
7
  6
CONTINUOUS
 66
1
 70
0
  0
VERTEX
  8
0
 62
7
  6
CONTINUOUS
 10
75.4375842524
 20
124.1000157093
  0
VERTEX
  8
0
 62
7
  6
CONTINUOUS
 10
75.3507567051
 20
124.1080390679
  0
VERTEX
  8
0
 62
7
  6
CONTINUOUS
 10
75.2719952346
 20
124.117699635
  0
VERTEX
  8
0
 62
7
  6
CONTINUOUS
 10
75.2002727067
 20
124.1283308356
  0
VERTEX
  8
0
 62
7
  6
CONTINUOUS
 10
75.1330256311
 20
124.1395192929
  0
VERTEX
  8
0
 62
7
  6
CONTINUOUS
 10
75.0670891175
 20
124.1508698466
  0
VERTEX
  8
0
 62
7
  6
CONTINUOUS
 10
74.9956619691
 20
124.1619989624
  0
VERTEX
  8
0
 62
7
  6
CONTINUOUS
 10
74.9241631848
 20
124.169316056
  0
VERTEX
  8
0
 62
7
  6
CONTINUOUS
 10
74.8844074012
 20
124.1705437032
  0
SEQEND
  0
LINE
  8
0
 62
7
  6
CONTINUOUS
 10
71.1023377692
 20
120.8486336076
 11
71.1023377692
 21
123.2051516895
  0
LINE
  8
0
 62
7
  6
CONTINUOUS
 10
72.0023377692
 20
123.618115852
 11
72.0023377692
 21
120.9831395088
  0
LINE
  8
0
 62
7
  6
CONTINUOUS
 10
72.8873377692
 20
121.3739001829
 11
72.8873377692
 21
123.1111427356
  0
LINE
  8
DEFAULT_1
 62
7
  6
CENTER
 10
74.6873377692
 20
116.0197285385
 11
74.6873377692
 21
125.7874199921
  0
LINE
  8
0
 62
7
  6
CONTINUOUS
 10
75.3873377692
 20
123.2049475436
 11
75.3873377692
 21
121.8371982871
  0
POLYLINE
  8
0
 62
7
  6
CONTINUOUS
 66
1
 70
0
  0
VERTEX
  8
0
 62
7
  6
CONTINUOUS
 10
79.0873370361
 20
122.5730472192
  0
VERTEX
  8
0
 62
7
  6
CONTINUOUS
 10
79.0835600447
 20
122.6498088628
  0
VERTEX
  8
0
 62
7
  6
CONTINUOUS
 10
79.0457928353
 20
122.8254589309
  0
VERTEX
  8
0
 62
7
  6
CONTINUOUS
 10
78.9690477369
 20
122.9921980129
  0
VERTEX
  8
0
 62
7
  6
CONTINUOUS
 10
78.8578359054
 20
123.1441200897
  0
VERTEX
  8
0
 62
7
  6
CONTINUOUS
 10
78.7151564601
 20
123.2813054674
  0
VERTEX
  8
0
 62
7
  6
CONTINUOUS
 10
78.5398649085
 20
123.4069668769
  0
VERTEX
  8
0
 62
7
  6
CONTINUOUS
 10
78.3276424013
 20
123.5242239825
  0
VERTEX
  8
0
 62
7
  6
CONTINUOUS
 10
78.0754706474
 20
123.6338027634
  0
VERTEX
  8
0
 62
7
  6
CONTINUOUS
 10
77.7831828642
 20
123.7349081559
  0
VERTEX
  8
0
 62
7
  6
CONTINUOUS
 10
77.4540126563
 20
123.8260292631
  0
VERTEX
  8
0
 62
7
  6
CONTINUOUS
 10
77.0938823191
 20
123.9056749863
  0
VERTEX
  8
0
 62
7
  6
CONTINUOUS
 10
76.7083377566
 20
123.9730746159
  0
VERTEX
  8
0
 62
7
  6
CONTINUOUS
 10
76.3039283986
 20
124.0276633443
  0
VERTEX
  8
0
 62
7
  6
CONTINUOUS
 10
75.8881330866
 20
124.06915447
  0
VERTEX
  8
0
 62
7
  6
CONTINUOUS
 10
75.4375842524
 20
124.1000157093
  0
SEQEND
  0
LINE
  8
0
 62
7
  6
CONTINUOUS
 10
79.0873377692
 20
118.5197285385
 11
79.0873377692
 21
119.0086814697
  0
LINE
  8
0
 62
7
  6
CONTINUOUS
 10
79.0873377692
 20
122.0419998533
 11
79.0873377692
 21
122.5730929606
  0
LINE
  8
0
 62
7
  6
CONTINUOUS
 10
87.9632884605
 20
120.7651895221
 11
87.9632884605
 21
122.7874017949
  0
LINE
  8
0
 62
2
  6
CONTINUOUS
 10
75.5673377692
 20
169.7288978887
 11
73.8073377692
 21
169.7288978887
  0
LINE
  8
DEFAULT_1
 62
2
  6
CENTER
 10
70.2873377692
 20
169.7288978887
 11
70.0873377692
 21
169.7288978887
  0
LINE
  8
0
 62
2
  6
CONTINUOUS
 10
50.1673377692
 20
169.7288978887
 11
48.4073377692
 21
169.7288978887
  0
LINE
  8
DEFAULT_1
 62
2
  6
CENTER
 10
44.8873377692
 20
169.7288978887
 11
44.6873377692
 21
169.7288978887
  0
LINE
  8
DEFAULT_1
 62
2
  6
CENTER
 10
53.6873377692
 20
169.7288978887
 11
53.8873377692
 21
169.7288978887
  0
LINE
  8
DEFAULT_1
 62
2
  6
CENTER
 10
79.0873377692
 20
169.7288978887
 11
79.2873377692
 21
169.7288978887
  0
LINE
  8
0
 62
7
  6
CONTINUOUS
 10
51.2915805596
 20
174.1288978887
 11
51.4723377692
 21
174.1288978887
  0
LINE
  8
CURVE
 62
40
  6
CONTINUOUS
 10
71.1023377692
 20
174.5288978887
 11
52.8723377692
 21
174.5288978887
  0
LINE
  8
0
 62
7
  6
CONTINUOUS
 10
52.5723377692
 20
175.1288978887
 11
71.4023377692
 21
175.1288978887
  0
LINE
  8
0
 62
7
  6
CONTINUOUS
 10
52.2014093695
 20
173.0290186655
 11
52.7450757691
 21
172.4209608877
  0
LINE
  8
0
 62
7
  6
CONTINUOUS
 10
36.1817579465
 20
218.6348026632
 11
47.9127529062
 21
174.8541334504
  0
LINE
  8
0
 62
7
  6
CONTINUOUS
 10
48.5873377692
 20
176.1987509368
 11
48.5873377692
 21
174.32128289
  0
LINE
  8
0
 62
2
  6
CONTINUOUS
 10
49.2873377692
 20
170.6088978887
 11
49.2873377692
 21
168.8488978887
  0
LINE
  8
DEFAULT_1
 62
2
  6
CENTER
 10
49.2873377692
 20
165.3288978887
 11
49.2873377692
 21
165.1288978887
  0
LINE
  8
DEFAULT_1
 62
2
  6
CENTER
 10
49.2873377692
 20
174.1288978887
 11
49.2873377692
 21
174.3288978887
  0
LINE
  8
0
 62
7
  6
CONTINUOUS
 10
51.0873377692
 20
177.0511917818
 11
51.0873377692
 21
174.4288978887
  0
LINE
  8
0
 62
7
  6
CONTINUOUS
 10
51.9723377692
 20
173.6288978887
 11
51.9723377692
 21
174.5288978887
  0
LINE
  8
0
 62
7
  6
CONTINUOUS
 10
52.8723377692
 20
172.0876946525
 11
52.8723377692
 21
167.342944201
  0
LINE
  8
DEFAULT_1
 62
2
  6
CENTER
 10
61.9873377692
 20
163.3288978887
 11
61.9873377692
 21
226.9288978887
  0
LINE
  8
0
 62
7
  6
CONTINUOUS
 10
71.1023377692
 20
172.0876946525
 11
71.1023377692
 21
167.342944201
  0
LINE
  8
0
 62
7
  6
CONTINUOUS
 10
72.0023377692
 20
174.5288978887
 11
72.0023377692
 21
173.6288978887
  0
LINE
  8
0
 62
2
  6
CONTINUOUS
 10
74.6873377692
 20
170.6088978887
 11
74.6873377692
 21
168.8488978887
  0
LINE
  8
DEFAULT_1
 62
2
  6
CENTER
 10
74.6873377692
 20
165.3288978887
 11
74.6873377692
 21
165.1288978887
  0
LINE
  8
DEFAULT_1
 62
2
  6
CENTER
 10
74.6873377692
 20
174.1288978887
 11
74.6873377692
 21
174.3288978887
  0
LINE
  8
0
 62
7
  6
CONTINUOUS
 10
76.0619226323
 20
174.8541334504
 11
87.7929175919
 21
218.6348026632
  0
LINE
  8
0
 62
7
  6
CONTINUOUS
 10
71.7732661689
 20
173.0290186655
 11
71.2295997694
 21
172.4209608877
  0
LINE
  8
CURVE
 62
40
  6
CONTINUOUS
 10
71.7732661689
 20
173.0290186655
 11
71.2295997694
 21
172.4209608877
  0
LINE
  8
0
 62
7
  6
CONTINUOUS
 10
82.9632884605
 20
224.9288978887
 11
41.011387078
 21
224.9288978887
  0
LINE
  8
0
 62
7
  6
CONTINUOUS
 10
120.1065820992
 20
114.4099440376
 11
120.1065820992
 21
117.4197285385
  0
LINE
  8
0
 62
7
  6
CONTINUOUS
 10
120.1065820992
 20
118.5197285385
 11
120.1065820992
 21
121.5295130322
  0
LINE
  8
0
 62
9
  6
CONTINUOUS
 10
121.8147369131
 20
121.9337996378
 11
121.8147369131
 21
118.5197285385
  0
LINE
  8
0
 62
9
  6
CONTINUOUS
 10
122.1206284115
 20
118.0197285385
 11
122.1206284115
 21
121.9337996378
  0
POLYLINE
  8
0
 62
9
  6
CONTINUOUS
 66
1
 70
0
  0
VERTEX
  8
0
 62
9
  6
CONTINUOUS
 10
121.814736913
 20
121.9337996378
  0
VERTEX
  8
0
 62
9
  6
CONTINUOUS
 10
121.8050903446
 20
122.0196713143
  0
VERTEX
  8
0
 62
9
  6
CONTINUOUS
 10
121.8052450462
 20
122.1028756344
  0
VERTEX
  8
0
 62
9
  6
CONTINUOUS
 10
121.8151962109
 20
122.1808280979
  0
VERTEX
  8
0
 62
9
  6
CONTINUOUS
 10
121.8346347329
 20
122.2511073393
  0
VERTEX
  8
0
 62
9
  6
CONTINUOUS
 10
121.862956809
 20
122.3115303406
  0
VERTEX
  8
0
 62
9
  6
CONTINUOUS
 10
121.8992826942
 20
122.3602202408
  0
VERTEX
  8
0
 62
9
  6
CONTINUOUS
 10
121.942484029
 20
122.3956646347
  0
VERTEX
  8
0
 62
9
  6
CONTINUOUS
 10
121.9912188889
 20
122.4167625509
  0
SEQEND
  0
LINE
  8
DEFAULT_1
 62
7
  6
CENTER
 10
124.5065820992
 20
110.1520370848
 11
124.5065820992
 21
125.7874199921
  0
LINE
  8
0
 62
9
  6
CONTINUOUS
 10
122.1206284115
 20
121.9337996378
 11
121.9912188889
 21
122.4167625509
  0
LINE
  8
0
 62
9
  6
CONTINUOUS
 10
126.8653788631
 20
118.0197285385
 11
126.8653788631
 21
123.2051516895
  0
LINE
  8
0
 62
9
  6
CONTINUOUS
 10
127.1986450982
 20
118.5197285385
 11
127.1986450982
 21
123.2051516895
  0
LINE
  8
0
 62
9
  6
CONTINUOUS
 10
127.806702876
 20
118.5197285385
 11
127.806702876
 21
123.3680802801
  0
POLYLINE
  8
0
 62
9
  6
CONTINUOUS
 66
1
 70
0
  0
VERTEX
  8
0
 62
9
  6
CONTINUOUS
 10
128.9078355099
 20
121.3613217472
  0
VERTEX
  8
0
 62
9
  6
CONTINUOUS
 10
128.9123536626
 20
121.3159804291
  0
VERTEX
  8
0
 62
9
  6
CONTINUOUS
 10
128.9294465368
 20
121.2602886454
  0
VERTEX
  8
0
 62
9
  6
CONTINUOUS
 10
128.9572017227
 20
121.2089703253
  0
VERTEX
  8
0
 62
9
  6
CONTINUOUS
 10
128.9945550922
 20
121.1639944135
  0
VERTEX
  8
0
 62
9
  6
CONTINUOUS
 10
129.0400563424
 20
121.1271032239
  0
VERTEX
  8
0
 62
9
  6
CONTINUOUS
 10
129.0919707172
 20
121.0997014768
  0
VERTEX
  8
0
 62
9
  6
CONTINUOUS
 10
129.1482515943
 20
121.0828579152
  0
VERTEX
  8
0
 62
9
  6
CONTINUOUS
 10
129.2065820992
 20
121.0771954239
  0
SEQEND
  0
POLYLINE
  8
0
 62
9
  6
CONTINUOUS
 66
1
 70
0
  0
VERTEX
  8
0
 62
9
  6
CONTINUOUS
 10
128.4065760103
 20
121.2416361832
  0
VERTEX
  8
0
 62
9
  6
CONTINUOUS
 10
128.4078579382
 20
121.2223276644
  0
VERTEX
  8
0
 62
9
  6
CONTINUOUS
 10
128.4105086453
 20
121.2014109058
  0
VERTEX
  8
0
 62
9
  6
CONTINUOUS
 10
128.414544327
 20
121.177989737
  0
VERTEX
  8
0
 62
9
  6
CONTINUOUS
 10
128.4200491853
 20
121.1525918796
  0
VERTEX
  8
0
 62
9
  6
CONTINUOUS
 10
128.4273058303
 20
121.12481168
  0
VERTEX
  8
0
 62
9
  6
CONTINUOUS
 10
128.4366425706
 20
121.0945277063
  0
VERTEX
  8
0
 62
9
  6
CONTINUOUS
 10
128.4484971991
 20
121.0615406951
  0
VERTEX
  8
0
 62
9
  6
CONTINUOUS
 10
128.4634213068
 20
121.0256668005
  0
VERTEX
  8
0
 62
9
  6
CONTINUOUS
 10
128.4821112015
 20
120.9867429184
  0
VERTEX
  8
0
 62
9
  6
CONTINUOUS
 10
128.5054512773
 20
120.9446410865
  0
VERTEX
  8
0
 62
9
  6
CONTINUOUS
 10
128.5345547102
 20
120.8993230801
  0
VERTEX
  8
0
 62
9
  6
CONTINUOUS
 10
128.5708290432
 20
120.8508794185
  0
VERTEX
  8
0
 62
9
  6
CONTINUOUS
 10
128.6160670146
 20
120.7996467905
  0
VERTEX
  8
0
 62
9
  6
CONTINUOUS
 10
128.6725655442
 20
120.7463279396
  0
VERTEX
  8
0
 62
9
  6
CONTINUOUS
 10
128.7428254367
 20
120.6925605982
  0
VERTEX
  8
0
 62
9
  6
CONTINUOUS
 10
128.8250835887
 20
120.6433818864
  0
VERTEX
  8
0
 62
9
  6
CONTINUOUS
 10
128.9137120614
 20
120.6038776446
  0
VERTEX
  8
0
 62
9
  6
CONTINUOUS
 10
129.0062732433
 20
120.5753304758
  0
VERTEX
  8
0
 62
9
  6
CONTINUOUS
 10
129.1016167016
 20
120.558051107
  0
VERTEX
  8
0
 62
9
  6
CONTINUOUS
 10
129.1977950584
 20
120.5523118482
  0
SEQEND
  0
POLYLINE
  8
0
 62
9
  6
CONTINUOUS
 66
1
 70
0
  0
VERTEX
  8
0
 62
9
  6
CONTINUOUS
 10
128.805836143
 20
112.7345095322
  0
VERTEX
  8
0
 62
9
  6
CONTINUOUS
 10
128.8061216399
 20
112.671577425
  0
VERTEX
  8
0
 62
9
  6
CONTINUOUS
 10
128.8071406133
 20
112.6004630369
  0
VERTEX
  8
0
 62
9
  6
CONTINUOUS
 10
128.8091585678
 20
112.5214899616
  0
VERTEX
  8
0
 62
9
  6
CONTINUOUS
 10
128.8124617371
 20
112.4352231298
  0
VERTEX
  8
0
 62
9
  6
CONTINUOUS
 10
128.8173406971
 20
112.3425364369
  0
SEQEND
  0
LINE
  8
0
 62
9
  6
CONTINUOUS
 10
128.4065820992
 20
118.0197285385
 11
128.4065820992
 21
123.618115852
  0
LINE
  8
0
 62
9
  6
CONTINUOUS
 10
128.471810372
 20
114.5064744895
 11
128.471810372
 21
116.949553156
  0
LINE
  8
0
 62
9
  6
CONTINUOUS
 10
128.805836143
 20
114.1022612386
 11
128.805836143
 21
112.7345095322
  0
LINE
  8
0
 62
7
  6
CONTINUOUS
 10
128.9065820992
 20
123.618115852
 11
128.9065820992
 21
121.3611968478
  0
LINE
  8
0
 62
9
  6
CONTINUOUS
 10
129.0788857318
 20
118.5197285385
 11
129.0788857318
 21
118.0197285385
  0
LINE
  8
0
 62
9
  6
CONTINUOUS
 10
129.0989745873
 20
114.3980043259
 11
129.0989671005
 21
112.7345095334
  0
LINE
  8
0
 62
9
  6
CONTINUOUS
 10
129.1977951938
 20
121.0468200112
 11
129.1977950584
 21
120.5523118482
  0
LINE
  8
0
 62
9
  6
CONTINUOUS
 10
129.2065820992
 20
123.1111427356
 11
129.2065820992
 21
121.0644920888
  0
LINE
  8
0
 62
9
  6
CONTINUOUS
 10
129.2065820992
 20
117.5949870925
 11
129.2065820997
 21
117.9093573871
  0
LINE
  8
0
 62
9
  6
CONTINUOUS
 10
129.2065820997
 20
118.0300996898
 11
129.2065820991
 21
118.5300996898
  0
LINE
  8
0
 62
9
  6
CONTINUOUS
 10
129.3065820992
 20
117.9038653188
 11
129.3065820992
 21
117.9093573871
  0
LINE
  8
0
 62
9
  6
CONTINUOUS
 10
129.3065820992
 20
118.0300996899
 11
129.3065820992
 21
121.0468198772
  0
LINE
  8
0
 62
9
  6
CONTINUOUS
 10
129.6318176609
 20
114.8948836685
 11
129.6318176609
 21
116.949553156
  0
POLYLINE
  8
0
 62
9
  6
CONTINUOUS
 66
1
 70
0
  0
VERTEX
  8
0
 62
9
  6
CONTINUOUS
 10
128.9801454734
 20
123.998660604
  0
VERTEX
  8
0
 62
9
  6
CONTINUOUS
 10
128.9801034202
 20
123.9975117071
  0
VERTEX
  8
0
 62
9
  6
CONTINUOUS
 10
128.9799409197
 20
123.9935498593
  0
VERTEX
  8
0
 62
9
  6
CONTINUOUS
 10
128.9795894505
 20
123.9865593788
  0
VERTEX
  8
0
 62
9
  6
CONTINUOUS
 10
128.9789680032
 20
123.9769767894
  0
VERTEX
  8
0
 62
9
  6
CONTINUOUS
 10
128.9780520143
 20
123.9656881155
  0
SEQEND
  0
POLYLINE
  8
0
 62
9
  6
CONTINUOUS
 66
1
 70
0
  0
VERTEX
  8
0
 62
9
  6
CONTINUOUS
 10
128.9780520143
 20
123.9656881155
  0
VERTEX
  8
0
 62
9
  6
CONTINUOUS
 10
128.9768568267
 20
123.9536591653
  0
VERTEX
  8
0
 62
9
  6
CONTINUOUS
 10
128.9754373738
 20
123.941504305
  0
VERTEX
  8
0
 62
9
  6
CONTINUOUS
 10
128.9738217844
 20
123.9293746063
  0
VERTEX
  8
0
 62
9
  6
CONTINUOUS
 10
128.9719571742
 20
123.9168635439
  0
VERTEX
  8
0
 62
9
  6
CONTINUOUS
 10
128.9697277052
 20
123.9033294326
  0
VERTEX
  8
0
 62
9
  6
CONTINUOUS
 10
128.9670272637
 20
123.8883677282
  0
VERTEX
  8
0
 62
9
  6
CONTINUOUS
 10
128.9638058606
 20
123.8719666802
  0
VERTEX
  8
0
 62
9
  6
CONTINUOUS
 10
128.9600568195
 20
123.854287905
  0
VERTEX
  8
0
 62
9
  6
CONTINUOUS
 10
128.9558610681
 20
123.8357803474
  0
VERTEX
  8
0
 62
9
  6
CONTINUOUS
 10
128.9513332356
 20
123.8168979859
  0
VERTEX
  8
0
 62
9
  6
CONTINUOUS
 10
128.9465809435
 20
123.7979602852
  0
VERTEX
  8
0
 62
9
  6
CONTINUOUS
 10
128.9416885607
 20
123.7791128204
  0
SEQEND
  0
POLYLINE
  8
0
 62
9
  6
CONTINUOUS
 66
1
 70
0
  0
VERTEX
  8
0
 62
9
  6
CONTINUOUS
 10
128.8173408202
 20
112.3425367865
  0
VERTEX
  8
0
 62
9
  6
CONTINUOUS
 10
128.8082105431
 20
112.2518165429
  0
VERTEX
  8
0
 62
9
  6
CONTINUOUS
 10
128.7830755486
 20
112.164116589
  0
VERTEX
  8
0
 62
9
  6
CONTINUOUS
 10
128.7427726488
 20
112.0823566881
  0
VERTEX
  8
0
 62
9
  6
CONTINUOUS
 10
128.6886436353
 20
112.0092588433
  0
VERTEX
  8
0
 62
9
  6
CONTINUOUS
 10
128.6224906077
 20
111.947256675
  0
VERTEX
  8
0
 62
9
  6
CONTINUOUS
 10
128.5465159769
 20
111.898414399
  0
VERTEX
  8
0
 62
9
  6
CONTINUOUS
 10
128.4632491407
 20
111.8643581039
  0
VERTEX
  8
0
 62
9
  6
CONTINUOUS
 10
128.3754622737
 20
111.8462216134
  0
VERTEX
  8
0
 62
9
  6
CONTINUOUS
 10
128.2860780342
 20
111.844608739
  0
VERTEX
  8
0
 62
9
  6
CONTINUOUS
 10
128.1980722612
 20
111.8595731774
  0
SEQEND
  0
POLYLINE
  8
0
 62
9
  6
CONTINUOUS
 66
1
 70
0
  0
VERTEX
  8
0
 62
9
  6
CONTINUOUS
 10
128.8058361486
 20
114.1022587903
  0
VERTEX
  8
0
 62
9
  6
CONTINUOUS
 10
128.8151356733
 20
114.166640408
  0
VERTEX
  8
0
 62
9
  6
CONTINUOUS
 10
128.8380306249
 20
114.2279357618
  0
VERTEX
  8
0
 62
9
  6
CONTINUOUS
 10
128.873424432
 20
114.2832112179
  0
VERTEX
  8
0
 62
9
  6
CONTINUOUS
 10
128.9196217516
 20
114.329819079
  0
VERTEX
  8
0
 62
9
  6
CONTINUOUS
 10
128.9744097462
 20
114.3655268135
  0
VERTEX
  8
0
 62
9
  6
CONTINUOUS
 10
129.0351640727
 20
114.3886239993
  0
VERTEX
  8
0
 62
9
  6
CONTINUOUS
 10
129.0989745873
 20
114.3980042617
  0
SEQEND
  0
POLYLINE
  8
0
 62
9
  6
CONTINUOUS
 66
1
 70
0
  0
VERTEX
  8
0
 62
9
  6
CONTINUOUS
 10
129.2065820992
 20
117.5949870925
  0
VERTEX
  8
0
 62
9
  6
CONTINUOUS
 10
129.2011489349
 20
117.5612230543
  0
VERTEX
  8
0
 62
9
  6
CONTINUOUS
 10
129.1860952583
 20
117.5294741769
  0
VERTEX
  8
0
 62
9
  6
CONTINUOUS
 10
129.1624774163
 20
117.4989844844
  0
VERTEX
  8
0
 62
9
  6
CONTINUOUS
 10
129.1307398951
 20
117.4693091246
  0
SEQEND
  0
LINE
  8
0
 62
9
  6
CONTINUOUS
 10
129.1586959614
 20
117.9078961162
 11
129.1595613856
 21
117.9131770554
  0
POLYLINE
  8
0
 62
9
  6
CONTINUOUS
 66
1
 70
0
  0
VERTEX
  8
0
 62
9
  6
CONTINUOUS
 10
129.2065820992
 20
121.0644920888
  0
VERTEX
  8
0
 62
9
  6
CONTINUOUS
 10
129.2043563221
 20
121.0555814537
  0
VERTEX
  8
0
 62
9
  6
CONTINUOUS
 10
129.1977950588
 20
121.0468200112
  0
SEQEND
  0
POLYLINE
  8
0
 62
9
  6
CONTINUOUS
 66
1
 70
0
  0
VERTEX
  8
0
 62
9
  6
CONTINUOUS
 10
128.9260608842
 20
123.7204838259
  0
VERTEX
  8
0
 62
9
  6
CONTINUOUS
 10
128.9206920174
 20
123.6997917288
  0
VERTEX
  8
0
 62
9
  6
CONTINUOUS
 10
128.9155702405
 20
123.6787027423
  0
VERTEX
  8
0
 62
9
  6
CONTINUOUS
 10
128.9111387412
 20
123.6577982461
  0
VERTEX
  8
0
 62
9
  6
CONTINUOUS
 10
128.907897447
 20
123.6374820276
  0
VERTEX
  8
0
 62
9
  6
CONTINUOUS
 10
128.9065785851
 20
123.6181017599
  0
SEQEND
  0
LINE
  8
0
 62
9
  6
CONTINUOUS
 10
128.9416885607
 20
123.7791128204
 11
128.9260608842
 21
123.7204838259
  0
LINE
  8
0
 62
9
  6
CONTINUOUS
 10
128.9065820992
 20
121.3611968478
 11
128.9012969204
 21
121.34385912
  0
POLYLINE
  8
0
 62
9
  6
CONTINUOUS
 66
1
 70
0
  0
VERTEX
  8
0
 62
9
  6
CONTINUOUS
 10
128.5506988764
 20
117.4197257323
  0
VERTEX
  8
0
 62
9
  6
CONTINUOUS
 10
128.5224747612
 20
117.3280351678
  0
VERTEX
  8
0
 62
9
  6
CONTINUOUS
 10
128.5016223059
 20
117.2402597988
  0
VERTEX
  8
0
 62
9
  6
CONTINUOUS
 10
128.4870869099
 20
117.157691872
  0
VERTEX
  8
0
 62
9
  6
CONTINUOUS
 10
128.4779346286
 20
117.0813071194
  0
VERTEX
  8
0
 62
9
  6
CONTINUOUS
 10
128.4731756723
 20
117.0117295394
  0
VERTEX
  8
0
 62
9
  6
CONTINUOUS
 10
128.471810372
 20
116.949553156
  0
SEQEND
  0
POLYLINE
  8
0
 62
9
  6
CONTINUOUS
 66
1
 70
0
  0
VERTEX
  8
0
 62
9
  6
CONTINUOUS
 10
128.8346154467
 20
112.3018877773
  0
VERTEX
  8
0
 62
9
  6
CONTINUOUS
 10
128.864367697
 20
112.2368658791
  0
VERTEX
  8
0
 62
9
  6
CONTINUOUS
 10
128.8739793472
 20
112.2153699087
  0
VERTEX
  8
0
 62
9
  6
CONTINUOUS
 10
128.8831260526
 20
112.1943966031
  0
VERTEX
  8
0
 62
9
  6
CONTINUOUS
 10
128.8917704846
 20
112.1739962788
  0
VERTEX
  8
0
 62
9
  6
CONTINUOUS
 10
128.8999164955
 20
112.1541600293
  0
VERTEX
  8
0
 62
9
  6
CONTINUOUS
 10
128.9075842912
 20
112.1348492898
  0
VERTEX
  8
0
 62
9
  6
CONTINUOUS
 10
128.9147674443
 20
112.1161152045
  0
VERTEX
  8
0
 62
9
  6
CONTINUOUS
 10
128.921461065
 20
112.0980312755
  0
VERTEX
  8
0
 62
9
  6
CONTINUOUS
 10
128.9276711563
 20
112.0806557979
  0
VERTEX
  8
0
 62
9
  6
CONTINUOUS
 10
128.9334574951
 20
112.0638949389
  0
VERTEX
  8
0
 62
9
  6
CONTINUOUS
 10
128.9390039587
 20
112.0472619729
  0
VERTEX
  8
0
 62
9
  6
CONTINUOUS
 10
128.9441964617
 20
112.0311745477
  0
VERTEX
  8
0
 62
9
  6
CONTINUOUS
 10
128.9488565247
 20
112.0163463892
  0
SEQEND
  0
POLYLINE
  8
0
 62
9
  6
CONTINUOUS
 66
1
 70
0
  0
VERTEX
  8
0
 62
9
  6
CONTINUOUS
 10
128.681445913
 20
114.3229499055
  0
VERTEX
  8
0
 62
9
  6
CONTINUOUS
 10
128.6945997364
 20
114.2922993232
  0
VERTEX
  8
0
 62
9
  6
CONTINUOUS
 10
128.7092728705
 20
114.2593578716
  0
VERTEX
  8
0
 62
9
  6
CONTINUOUS
 10
128.7252382413
 20
114.22546523
  0
VERTEX
  8
0
 62
9
  6
CONTINUOUS
 10
128.7426576813
 20
114.1913207585
  0
VERTEX
  8
0
 62
9
  6
CONTINUOUS
 10
128.7618480273
 20
114.157799708
  0
VERTEX
  8
0
 62
9
  6
CONTINUOUS
 10
128.7829852634
 20
114.1268578443
  0
VERTEX
  8
0
 62
9
  6
CONTINUOUS
 10
128.805836143
 20
114.1022612386
  0
SEQEND
  0
LINE
  8
0
 62
9
  6
CONTINUOUS
 10
128.6488274399
 20
114.4008625033
 11
128.681445913
 21
114.3229499055
  0
POLYLINE
  8
0
 62
9
  6
CONTINUOUS
 66
1
 70
0
  0
VERTEX
  8
0
 62
9
  6
CONTINUOUS
 10
128.8173406761
 20
112.3425367821
  0
VERTEX
  8
0
 62
9
  6
CONTINUOUS
 10
128.8253962659
 20
112.3227187922
  0
VERTEX
  8
0
 62
9
  6
CONTINUOUS
 10
128.8346154467
 20
112.3018877773
  0
SEQEND
  0
POLYLINE
  8
0
 62
9
  6
CONTINUOUS
 66
1
 70
0
  0
VERTEX
  8
0
 62
9
  6
CONTINUOUS
 10
128.9488565247
 20
112.0163463892
  0
VERTEX
  8
0
 62
9
  6
CONTINUOUS
 10
128.9608731406
 20
111.9769320779
  0
VERTEX
  8
0
 62
9
  6
CONTINUOUS
 10
128.9645736845
 20
111.9650099727
  0
VERTEX
  8
0
 62
9
  6
CONTINUOUS
 10
128.9680427863
 20
111.9544468968
  0
VERTEX
  8
0
 62
9
  6
CONTINUOUS
 10
128.971136576
 20
111.9461419095
  0
VERTEX
  8
0
 62
9
  6
CONTINUOUS
 10
128.9737385375
 20
111.9406601115
  0
VERTEX
  8
0
 62
9
  6
CONTINUOUS
 10
128.9757974188
 20
111.9381463798
  0
VERTEX
  8
0
 62
9
  6
CONTINUOUS
 10
128.9772966669
 20
111.9382566266
  0
SEQEND
  0
LINE
  8
0
 62
9
  6
CONTINUOUS
 10
126.8653788631
 20
123.2051516895
 11
126.7359693405
 21
123.6881146027
  0
POLYLINE
  8
0
 62
9
  6
CONTINUOUS
 66
1
 70
0
  0
VERTEX
  8
0
 62
9
  6
CONTINUOUS
 10
127.806702876
 20
123.3680802801
  0
VERTEX
  8
0
 62
9
  6
CONTINUOUS
 10
127.7864030272
 20
123.4625080775
  0
VERTEX
  8
0
 62
9
  6
CONTINUOUS
 10
127.7543857287
 20
123.5534005017
  0
VERTEX
  8
0
 62
9
  6
CONTINUOUS
 10
127.7118497071
 20
123.6373545439
  0
VERTEX
  8
0
 62
9
  6
CONTINUOUS
 10
127.6603875093
 20
123.7112269679
  0
VERTEX
  8
0
 62
9
  6
CONTINUOUS
 10
127.6019258782
 20
123.7722519929
  0
VERTEX
  8
0
 62
9
  6
CONTINUOUS
 10
127.5386536148
 20
123.8181448444
  0
VERTEX
  8
0
 62
9
  6
CONTINUOUS
 10
127.4729396305
 20
123.8471872957
  0
VERTEX
  8
0
 62
9
  6
CONTINUOUS
 10
127.4072442542
 20
123.8582919985
  0
VERTEX
  8
0
 62
9
  6
CONTINUOUS
 10
127.3440271183
 20
123.8510431932
  0
SEQEND
  0
POLYLINE
  8
0
 62
9
  6
CONTINUOUS
 66
1
 70
0
  0
VERTEX
  8
0
 62
9
  6
CONTINUOUS
 10
127.1986450982
 20
123.2051516895
  0
VERTEX
  8
0
 62
9
  6
CONTINUOUS
 10
127.1809271129
 20
123.2902064547
  0
VERTEX
  8
0
 62
9
  6
CONTINUOUS
 10
127.1536290973
 20
123.3727126953
  0
VERTEX
  8
0
 62
9
  6
CONTINUOUS
 10
127.1175815119
 20
123.4501393777
  0
VERTEX
  8
0
 62
9
  6
CONTINUOUS
 10
127.0738802619
 20
123.5201304711
  0
VERTEX
  8
0
 62
9
  6
CONTINUOUS
 10
127.0238502249
 20
123.5805636792
  0
VERTEX
  8
0
 62
9
  6
CONTINUOUS
 10
126.9690108393
 20
123.6296031501
  0
VERTEX
  8
0
 62
9
  6
CONTINUOUS
 10
126.9110266596
 20
123.6657606013
  0
VERTEX
  8
0
 62
9
  6
CONTINUOUS
 10
126.8516569683
 20
123.6879390739
  0
VERTEX
  8
0
 62
9
  6
CONTINUOUS
 10
126.7927055987
 20
123.6954653619
  0
VERTEX
  8
0
 62
9
  6
CONTINUOUS
 10
126.7359693405
 20
123.6881146027
  0
SEQEND
  0
LINE
  8
0
 62
9
  6
CONTINUOUS
 10
129.1595613775
 20
118.0262800202
 11
129.0788857318
 21
118.5197285385
  0
POLYLINE
  8
0
 62
9
  6
CONTINUOUS
 66
1
 70
0
  0
VERTEX
  8
0
 62
9
  6
CONTINUOUS
 10
128.9869630503
 20
111.9711726568
  0
VERTEX
  8
0
 62
9
  6
CONTINUOUS
 10
128.9892633764
 20
111.9566832877
  0
VERTEX
  8
0
 62
9
  6
CONTINUOUS
 10
128.9929956486
 20
111.9547575679
  0
SEQEND
  0
POLYLINE
  8
0
 62
9
  6
CONTINUOUS
 66
1
 70
0
  0
VERTEX
  8
0
 62
9
  6
CONTINUOUS
 10
128.9065820992
 20
121.3611968478
  0
VERTEX
  8
0
 62
9
  6
CONTINUOUS
 10
128.9141036745
 20
121.2951740489
  0
VERTEX
  8
0
 62
9
  6
CONTINUOUS
 10
128.9362912574
 20
121.2324618502
  0
VERTEX
  8
0
 62
9
  6
CONTINUOUS
 10
128.9720323172
 20
121.1762048747
  0
VERTEX
  8
0
 62
9
  6
CONTINUOUS
 10
129.0195347087
 20
121.1292240811
  0
VERTEX
  8
0
 62
9
  6
CONTINUOUS
 10
129.0764165233
 20
121.0938753133
  0
VERTEX
  8
0
 62
9
  6
CONTINUOUS
 10
129.1398255124
 20
121.0719311658
  0
VERTEX
  8
0
 62
9
  6
CONTINUOUS
 10
129.2065820992
 20
121.0644920888
  0
SEQEND
  0
POLYLINE
  8
0
 62
9
  6
CONTINUOUS
 66
1
 70
0
  0
VERTEX
  8
0
 62
9
  6
CONTINUOUS
 10
129.6318176609
 20
116.949553156
  0
VERTEX
  8
0
 62
9
  6
CONTINUOUS
 10
129.6309473333
 20
116.9573061518
  0
VERTEX
  8
0
 62
9
  6
CONTINUOUS
 10
129.629453475
 20
116.9652444358
  0
VERTEX
  8
0
 62
9
  6
CONTINUOUS
 10
129.6272643226
 20
116.9735058014
  0
VERTEX
  8
0
 62
9
  6
CONTINUOUS
 10
129.6242553072
 20
116.9822712795
  0
VERTEX
  8
0
 62
9
  6
CONTINUOUS
 10
129.6202438779
 20
116.9917406233
  0
VERTEX
  8
0
 62
9
  6
CONTINUOUS
 10
129.6150047472
 20
117.00209336
  0
VERTEX
  8
0
 62
9
  6
CONTINUOUS
 10
129.6083720015
 20
117.0133473733
  0
VERTEX
  8
0
 62
9
  6
CONTINUOUS
 10
129.6004136049
 20
117.0252188018
  0
VERTEX
  8
0
 62
9
  6
CONTINUOUS
 10
129.5912405394
 20
117.0375182281
  0
VERTEX
  8
0
 62
9
  6
CONTINUOUS
 10
129.5809510414
 20
117.0501604447
  0
VERTEX
  8
0
 62
9
  6
CONTINUOUS
 10
129.5695453386
 20
117.063206694
  0
VERTEX
  8
0
 62
9
  6
CONTINUOUS
 10
129.5570269057
 20
117.0767087618
  0
VERTEX
  8
0
 62
9
  6
CONTINUOUS
 10
129.543522775
 20
117.090589698
  0
VERTEX
  8
0
 62
9
  6
CONTINUOUS
 10
129.529126101
 20
117.1048184807
  0
VERTEX
  8
0
 62
9
  6
CONTINUOUS
 10
129.5139189341
 20
117.1193743243
  0
VERTEX
  8
0
 62
9
  6
CONTINUOUS
 10
129.4980109953
 20
117.1342063145
  0
VERTEX
  8
0
 62
9
  6
CONTINUOUS
 10
129.4815191553
 20
117.1492532463
  0
VERTEX
  8
0
 62
9
  6
CONTINUOUS
 10
129.4645385102
 20
117.1644687317
  0
VERTEX
  8
0
 62
9
  6
CONTINUOUS
 10
129.4471411407
 20
117.1798207619
  0
VERTEX
  8
0
 62
9
  6
CONTINUOUS
 10
129.4293916311
 20
117.1952781048
  0
VERTEX
  8
0
 62
9
  6
CONTINUOUS
 10
129.4113335301
 20
117.2108232347
  0
VERTEX
  8
0
 62
9
  6
CONTINUOUS
 10
129.3930038671
 20
117.2264409187
  0
VERTEX
  8
0
 62
9
  6
CONTINUOUS
 10
129.3743935521
 20
117.2421531444
  0
VERTEX
  8
0
 62
9
  6
CONTINUOUS
 10
129.3363029695
 20
117.273939545
  0
SEQEND
  0
LINE
  8
0
 62
7
  6
CONTINUOUS
 10
129.9065820992
 20
120.387915844
 11
129.9065820992
 21
117.9388426398
  0
LINE
  8
0
 62
9
  6
CONTINUOUS
 10
130.4065820992
 20
120.8824237757
 11
130.4065820992
 21
118.0682614203
  0
LINE
  8
0
 62
9
  6
CONTINUOUS
 10
130.9764351342
 20
114.3782768181
 11
130.9764351473
 21
114.1022587898
  0
LINE
  8
0
 62
9
  6
CONTINUOUS
 10
131.8290921782
 20
121.3739001829
 11
131.8290921782
 21
121.0771954239
  0
POLYLINE
  8
0
 62
9
  6
CONTINUOUS
 66
1
 70
0
  0
VERTEX
  8
0
 62
9
  6
CONTINUOUS
 10
129.0989671005
 20
112.7345095322
  0
VERTEX
  8
0
 62
9
  6
CONTINUOUS
 10
129.0854725595
 20
112.6759225169
  0
VERTEX
  8
0
 62
9
  6
CONTINUOUS
 10
129.0707606107
 20
112.6085859103
  0
VERTEX
  8
0
 62
9
  6
CONTINUOUS
 10
129.0552891926
 20
112.5329801867
  0
VERTEX
  8
0
 62
9
  6
CONTINUOUS
 10
129.0396315749
 20
112.4499744317
  0
VERTEX
  8
0
 62
9
  6
CONTINUOUS
 10
129.0244720222
 20
112.3609415301
  0
VERTEX
  8
0
 62
9
  6
CONTINUOUS
 10
129.0105332388
 20
112.2674669037
  0
VERTEX
  8
0
 62
9
  6
CONTINUOUS
 10
128.9991503771
 20
112.1762934334
  0
VERTEX
  8
0
 62
9
  6
CONTINUOUS
 10
128.9916585577
 20
112.0998591432
  0
VERTEX
  8
0
 62
9
  6
CONTINUOUS
 10
128.9876685281
 20
112.0416500182
  0
VERTEX
  8
0
 62
9
  6
CONTINUOUS
 10
128.9862916536
 20
111.9990786253
  0
VERTEX
  8
0
 62
9
  6
CONTINUOUS
 10
128.9869630503
 20
111.9711726568
  0
SEQEND
  0
POLYLINE
  8
0
 62
9
  6
CONTINUOUS
 66
1
 70
0
  0
VERTEX
  8
0
 62
9
  6
CONTINUOUS
 10
128.9657995789
 20
117.7147055963
  0
VERTEX
  8
0
 62
9
  6
CONTINUOUS
 10
128.9746571082
 20
117.7333972183
  0
VERTEX
  8
0
 62
9
  6
CONTINUOUS
 10
128.9834754199
 20
117.7503199206
  0
VERTEX
  8
0
 62
9
  6
CONTINUOUS
 10
128.9921252217
 20
117.7655238612
  0
VERTEX
  8
0
 62
9
  6
CONTINUOUS
 10
129.0006000181
 20
117.7792501093
  0
VERTEX
  8
0
 62
9
  6
CONTINUOUS
 10
129.0088926284
 20
117.7916844377
  0
VERTEX
  8
0
 62
9
  6
CONTINUOUS
 10
129.0169875871
 20
117.8029639689
  0
VERTEX
  8
0
 62
9
  6
CONTINUOUS
 10
129.0248952317
 20
117.8132341472
  0
VERTEX
  8
0
 62
9
  6
CONTINUOUS
 10
129.0327331991
 20
117.8227401025
  0
VERTEX
  8
0
 62
9
  6
CONTINUOUS
 10
129.0407575486
 20
117.8318258404
  0
VERTEX
  8
0
 62
9
  6
CONTINUOUS
 10
129.0491565028
 20
117.840681018
  0
VERTEX
  8
0
 62
9
  6
CONTINUOUS
 10
129.0578798899
 20
117.8492129971
  0
VERTEX
  8
0
 62
9
  6
CONTINUOUS
 10
129.0667307659
 20
117.857217063
  0
VERTEX
  8
0
 62
9
  6
CONTINUOUS
 10
129.0754589905
 20
117.8645009016
  0
VERTEX
  8
0
 62
9
  6
CONTINUOUS
 10
129.0838551736
 20
117.870964142
  0
VERTEX
  8
0
 62
9
  6
CONTINUOUS
 10
129.0918735118
 20
117.8766601078
  0
VERTEX
  8
0
 62
9
  6
CONTINUOUS
 10
129.0995943421
 20
117.8817212196
  0
VERTEX
  8
0
 62
9
  6
CONTINUOUS
 10
129.1071230866
 20
117.8862693811
  0
VERTEX
  8
0
 62
9
  6
CONTINUOUS
 10
129.1145286825
 20
117.8903811632
  0
VERTEX
  8
0
 62
9
  6
CONTINUOUS
 10
129.1218448184
 20
117.8940999411
  0
VERTEX
  8
0
 62
9
  6
CONTINUOUS
 10
129.1291133896
 20
117.8974645235
  0
VERTEX
  8
0
 62
9
  6
CONTINUOUS
 10
129.1363987711
 20
117.9005137505
  0
VERTEX
  8
0
 62
9
  6
CONTINUOUS
 10
129.1437577464
 20
117.9032715731
  0
VERTEX
  8
0
 62
9
  6
CONTINUOUS
 10
129.1511973468
 20
117.9057360464
  0
VERTEX
  8
0
 62
9
  6
CONTINUOUS
 10
129.1586943851
 20
117.9078964147
  0
SEQEND
  0
LINE
  8
0
 62
9
  6
CONTINUOUS
 10
128.4065820992
 20
123.618115852
 11
128.2771725767
 21
124.1010787652
  0
LINE
  8
0
 62
9
  6
CONTINUOUS
 10
128.9973620561
 20
123.9804484176
 11
129.1109388022
 21
123.5121509522
  0
LINE
  8
0
 62
9
  6
CONTINUOUS
 10
129.1109388022
 20
123.5121509522
 11
129.2065820992
 21
123.1111427457
  0
POLYLINE
  8
0
 62
9
  6
CONTINUOUS
 66
1
 70
0
  0
VERTEX
  8
0
 62
9
  6
CONTINUOUS
 10
129.9065820992
 20
118.3657035883
  0
VERTEX
  8
0
 62
9
  6
CONTINUOUS
 10
129.901573693
 20
118.3868999624
  0
VERTEX
  8
0
 62
9
  6
CONTINUOUS
 10
129.8863071771
 20
118.408077101
  0
VERTEX
  8
0
 62
9
  6
CONTINUOUS
 10
129.8607739531
 20
118.428704079
  0
VERTEX
  8
0
 62
9
  6
CONTINUOUS
 10
129.8254512244
 20
118.4482539567
  0
VERTEX
  8
0
 62
9
  6
CONTINUOUS
 10
129.7812696813
 20
118.4662528074
  0
VERTEX
  8
0
 62
9
  6
CONTINUOUS
 10
129.7292919709
 20
118.4823740449
  0
VERTEX
  8
0
 62
9
  6
CONTINUOUS
 10
129.6702019456
 20
118.4964714651
  0
VERTEX
  8
0
 62
9
  6
CONTINUOUS
 10
129.604583249
 20
118.5083902592
  0
VERTEX
  8
0
 62
9
  6
CONTINUOUS
 10
129.5336047313
 20
118.5178778766
  0
VERTEX
  8
0
 62
9
  6
CONTINUOUS
 10
129.4589256762
 20
118.5247122761
  0
VERTEX
  8
0
 62
9
  6
CONTINUOUS
 10
129.3828380283
 20
118.5287665783
  0
VERTEX
  8
0
 62
9
  6
CONTINUOUS
 10
129.3065820992
 20
118.5300996898
  0
SEQEND
  0
POLYLINE
  8
0
 62
9
  6
CONTINUOUS
 66
1
 70
0
  0
VERTEX
  8
0
 62
9
  6
CONTINUOUS
 10
130.4065820992
 20
118.0682614203
  0
VERTEX
  8
0
 62
9
  6
CONTINUOUS
 10
130.3973750935
 20
118.04703591
  0
VERTEX
  8
0
 62
9
  6
CONTINUOUS
 10
130.3694391338
 20
118.025902686
  0
VERTEX
  8
0
 62
9
  6
CONTINUOUS
 10
130.3225640633
 20
118.0052470789
  0
VERTEX
  8
0
 62
9
  6
CONTINUOUS
 10
130.2578104696
 20
117.985702307
  0
VERTEX
  8
0
 62
9
  6
CONTINUOUS
 10
130.1768683492
 20
117.9677172905
  0
SEQEND
  0
POLYLINE
  8
0
 62
9
  6
CONTINUOUS
 66
1
 70
0
  0
VERTEX
  8
0
 62
9
  6
CONTINUOUS
 10
128.4718104671
 20
114.5064754194
  0
VERTEX
  8
0
 62
9
  6
CONTINUOUS
 10
128.4886116865
 20
114.5334298824
  0
VERTEX
  8
0
 62
9
  6
CONTINUOUS
 10
128.5047837747
 20
114.5551585146
  0
VERTEX
  8
0
 62
9
  6
CONTINUOUS
 10
128.5202647184
 20
114.5726119804
  0
VERTEX
  8
0
 62
9
  6
CONTINUOUS
 10
128.5350548945
 20
114.5866003661
  0
VERTEX
  8
0
 62
9
  6
CONTINUOUS
 10
128.549222985
 20
114.597809635
  0
VERTEX
  8
0
 62
9
  6
CONTINUOUS
 10
128.5637259076
 20
114.6072489737
  0
VERTEX
  8
0
 62
9
  6
CONTINUOUS
 10
128.5802105096
 20
114.6158021573
  0
VERTEX
  8
0
 62
9
  6
CONTINUOUS
 10
128.5984773059
 20
114.6228961398
  0
VERTEX
  8
0
 62
9
  6
CONTINUOUS
 10
128.6182110518
 20
114.6280315968
  0
VERTEX
  8
0
 62
9
  6
CONTINUOUS
 10
128.6394549658
 20
114.6309866548
  0
VERTEX
  8
0
 62
9
  6
CONTINUOUS
 10
128.6619830037
 20
114.6314462792
  0
VERTEX
  8
0
 62
9
  6
CONTINUOUS
 10
128.6854102782
 20
114.6293093853
  0
VERTEX
  8
0
 62
9
  6
CONTINUOUS
 10
128.708635621
 20
114.6247865955
  0
VERTEX
  8
0
 62
9
  6
CONTINUOUS
 10
128.7306117135
 20
114.6185656878
  0
VERTEX
  8
0
 62
9
  6
CONTINUOUS
 10
128.7529543952
 20
114.6104780407
  0
VERTEX
  8
0
 62
9
  6
CONTINUOUS
 10
128.7766326967
 20
114.6002365392
  0
VERTEX
  8
0
 62
9
  6
CONTINUOUS
 10
128.8013506471
 20
114.5879136595
  0
VERTEX
  8
0
 62
9
  6
CONTINUOUS
 10
128.8268027074
 20
114.5737342434
  0
VERTEX
  8
0
 62
9
  6
CONTINUOUS
 10
128.8530185249
 20
114.5578114729
  0
VERTEX
  8
0
 62
9
  6
CONTINUOUS
 10
128.8802625134
 20
114.5401079653
  0
VERTEX
  8
0
 62
9
  6
CONTINUOUS
 10
128.9087531363
 20
114.5206254344
  0
VERTEX
  8
0
 62
9
  6
CONTINUOUS
 10
128.9386331669
 20
114.4995122446
  0
VERTEX
  8
0
 62
9
  6
CONTINUOUS
 10
128.9691324105
 20
114.4776876656
  0
VERTEX
  8
0
 62
9
  6
CONTINUOUS
 10
129.0002742476
 20
114.4556525763
  0
VERTEX
  8
0
 62
9
  6
CONTINUOUS
 10
129.0323550093
 20
114.4339977482
  0
VERTEX
  8
0
 62
9
  6
CONTINUOUS
 10
129.0654642559
 20
114.4139856232
  0
VERTEX
  8
0
 62
9
  6
CONTINUOUS
 10
129.0989821525
 20
114.3980090226
  0
SEQEND
  0
POLYLINE
  8
0
 62
9
  6
CONTINUOUS
 66
1
 70
0
  0
VERTEX
  8
0
 62
9
  6
CONTINUOUS
 10
128.9012969204
 20
121.34385912
  0
VERTEX
  8
0
 62
9
  6
CONTINUOUS
 10
128.8858319551
 20
121.3271117172
  0
VERTEX
  8
0
 62
9
  6
CONTINUOUS
 10
128.8603741068
 20
121.3109973637
  0
VERTEX
  8
0
 62
9
  6
CONTINUOUS
 10
128.8256913989
 20
121.2959967882
  0
VERTEX
  8
0
 62
9
  6
CONTINUOUS
 10
128.7826964102
 20
121.2824181953
  0
VERTEX
  8
0
 62
9
  6
CONTINUOUS
 10
128.7321300133
 20
121.2704506283
  0
VERTEX
  8
0
 62
9
  6
CONTINUOUS
 10
128.6747781976
 20
121.2602909536
  0
VERTEX
  8
0
 62
9
  6
CONTINUOUS
 10
128.6118962564
 20
121.2521806965
  0
VERTEX
  8
0
 62
9
  6
CONTINUOUS
 10
128.5453851533
 20
121.2463352563
  0
VERTEX
  8
0
 62
9
  6
CONTINUOUS
 10
128.4770502829
 20
121.2428294538
  0
VERTEX
  8
0
 62
9
  6
CONTINUOUS
 10
128.4065820992
 20
121.2416360467
  0
SEQEND
  0
POLYLINE
  8
0
 62
9
  6
CONTINUOUS
 66
1
 70
0
  0
VERTEX
  8
0
 62
9
  6
CONTINUOUS
 10
129.761227184
 20
114.3994961233
  0
VERTEX
  8
0
 62
9
  6
CONTINUOUS
 10
129.7378650301
 20
114.4191975149
  0
VERTEX
  8
0
 62
9
  6
CONTINUOUS
 10
129.7152573402
 20
114.4542603024
  0
VERTEX
  8
0
 62
9
  6
CONTINUOUS
 10
129.6941341849
 20
114.5035521904
  0
VERTEX
  8
0
 62
9
  6
CONTINUOUS
 10
129.6751776909
 20
114.5654813815
  0
VERTEX
  8
0
 62
9
  6
CONTINUOUS
 10
129.6590000134
 20
114.6380479897
  0
VERTEX
  8
0
 62
9
  6
CONTINUOUS
 10
129.6461235691
 20
114.718908629
  0
VERTEX
  8
0
 62
9
  6
CONTINUOUS
 10
129.636964168
 20
114.8054520916
  0
VERTEX
  8
0
 62
9
  6
CONTINUOUS
 10
129.6318175878
 20
114.8948836685
  0
SEQEND
  0
POLYLINE
  8
0
 62
9
  6
CONTINUOUS
 66
1
 70
0
  0
VERTEX
  8
0
 62
9
  6
CONTINUOUS
 10
128.9657995789
 20
117.7147055963
  0
VERTEX
  8
0
 62
9
  6
CONTINUOUS
 10
129.0031190768
 20
117.673652995
  0
VERTEX
  8
0
 62
9
  6
CONTINUOUS
 10
129.0474822383
 20
117.6401486703
  0
VERTEX
  8
0
 62
9
  6
CONTINUOUS
 10
129.0973532674
 20
117.6153524968
  0
VERTEX
  8
0
 62
9
  6
CONTINUOUS
 10
129.1510056838
 20
117.6001228929
  0
VERTEX
  8
0
 62
9
  6
CONTINUOUS
 10
129.2065820992
 20
117.5949870925
  0
SEQEND
  0
POLYLINE
  8
0
 62
9
  6
CONTINUOUS
 66
1
 70
0
  0
VERTEX
  8
0
 62
9
  6
CONTINUOUS
 10
128.471810372
 20
114.5064751637
  0
VERTEX
  8
0
 62
9
  6
CONTINUOUS
 10
128.4897558474
 20
114.5246673939
  0
VERTEX
  8
0
 62
9
  6
CONTINUOUS
 10
128.5060203483
 20
114.5364630156
  0
VERTEX
  8
0
 62
9
  6
CONTINUOUS
 10
128.5205188138
 20
114.5432506202
  0
VERTEX
  8
0
 62
9
  6
CONTINUOUS
 10
128.5332721697
 20
114.5462183993
  0
VERTEX
  8
0
 62
9
  6
CONTINUOUS
 10
128.5443681422
 20
114.54633275
  0
VERTEX
  8
0
 62
9
  6
CONTINUOUS
 10
128.5546028404
 20
114.544207761
  0
VERTEX
  8
0
 62
9
  6
CONTINUOUS
 10
128.5648451757
 20
114.5397465169
  0
VERTEX
  8
0
 62
9
  6
CONTINUOUS
 10
128.5745917753
 20
114.5330339407
  0
VERTEX
  8
0
 62
9
  6
CONTINUOUS
 10
128.5836441427
 20
114.5244314469
  0
VERTEX
  8
0
 62
9
  6
CONTINUOUS
 10
128.5921030372
 20
114.5141496872
  0
VERTEX
  8
0
 62
9
  6
CONTINUOUS
 10
128.6002183928
 20
114.5022349748
  0
VERTEX
  8
0
 62
9
  6
CONTINUOUS
 10
128.6081971972
 20
114.4886629193
  0
VERTEX
  8
0
 62
9
  6
CONTINUOUS
 10
128.6159719542
 20
114.4739017453
  0
VERTEX
  8
0
 62
9
  6
CONTINUOUS
 10
128.6233910664
 20
114.4586448101
  0
VERTEX
  8
0
 62
9
  6
CONTINUOUS
 10
128.6311284005
 20
114.4417858893
  0
VERTEX
  8
0
 62
9
  6
CONTINUOUS
 10
128.6395998239
 20
114.4225091558
  0
VERTEX
  8
0
 62
9
  6
CONTINUOUS
 10
128.6488274399
 20
114.4008625033
  0
SEQEND
  0
LINE
  8
0
 62
9
  6
CONTINUOUS
 10
130.1287964638
 20
117.984921464
 11
130.1106367627
 21
117.9701818442
  0
LINE
  8
0
 62
9
  6
CONTINUOUS
 10
128.4065820992
 20
123.618115852
 11
127.806702876
 21
123.3680802801
  0
POLYLINE
  8
0
 62
9
  6
CONTINUOUS
 66
1
 70
0
  0
VERTEX
  8
0
 62
9
  6
CONTINUOUS
 10
129.3363029695
 20
117.273939545
  0
VERTEX
  8
0
 62
9
  6
CONTINUOUS
 10
129.2345477375
 20
117.357823632
  0
VERTEX
  8
0
 62
9
  6
CONTINUOUS
 10
129.214290928
 20
117.3747716155
  0
VERTEX
  8
0
 62
9
  6
CONTINUOUS
 10
129.1963376634
 20
117.390078055
  0
VERTEX
  8
0
 62
9
  6
CONTINUOUS
 10
129.1810371836
 20
117.4034797447
  0
VERTEX
  8
0
 62
9
  6
CONTINUOUS
 10
129.1682962794
 20
117.4150496659
  0
VERTEX
  8
0
 62
9
  6
CONTINUOUS
 10
129.1577946317
 20
117.4250449299
  0
VERTEX
  8
0
 62
9
  6
CONTINUOUS
 10
129.1492429515
 20
117.4336979992
  0
VERTEX
  8
0
 62
9
  6
CONTINUOUS
 10
129.1424712838
 20
117.4411255955
  0
VERTEX
  8
0
 62
9
  6
CONTINUOUS
 10
129.1372635421
 20
117.4474950647
  0
VERTEX
  8
0
 62
9
  6
CONTINUOUS
 10
129.1334659507
 20
117.4529093953
  0
VERTEX
  8
0
 62
9
  6
CONTINUOUS
 10
129.1309240536
 20
117.4574732199
  0
VERTEX
  8
0
 62
9
  6
CONTINUOUS
 10
129.129486279
 20
117.4613053812
  0
VERTEX
  8
0
 62
9
  6
CONTINUOUS
 10
129.1290329849
 20
117.4645105328
  0
VERTEX
  8
0
 62
9
  6
CONTINUOUS
 10
129.1294764571
 20
117.4671605109
  0
VERTEX
  8
0
 62
9
  6
CONTINUOUS
 10
129.1307398817
 20
117.4693091251
  0
SEQEND
  0
POLYLINE
  8
0
 62
9
  6
CONTINUOUS
 66
1
 70
0
  0
VERTEX
  8
0
 62
9
  6
CONTINUOUS
 10
128.9772969164
 20
111.9382543132
  0
VERTEX
  8
0
 62
9
  6
CONTINUOUS
 10
128.9849892468
 20
111.9466557207
  0
VERTEX
  8
0
 62
9
  6
CONTINUOUS
 10
128.9929956471
 20
111.9547575695
  0
SEQEND
  0
POLYLINE
  8
0
 62
9
  6
CONTINUOUS
 66
1
 70
0
  0
VERTEX
  8
0
 62
9
  6
CONTINUOUS
 10
128.9772964857
 20
111.9382539359
  0
VERTEX
  8
0
 62
9
  6
CONTINUOUS
 10
128.9100721717
 20
111.8749054464
  0
VERTEX
  8
0
 62
9
  6
CONTINUOUS
 10
128.8323422517
 20
111.8250039324
  0
VERTEX
  8
0
 62
9
  6
CONTINUOUS
 10
128.7467595537
 20
111.7902524726
  0
VERTEX
  8
0
 62
9
  6
CONTINUOUS
 10
128.6562449114
 20
111.7718370924
  0
VERTEX
  8
0
 62
9
  6
CONTINUOUS
 10
128.56388748
 20
111.7703862866
  0
VERTEX
  8
0
 62
9
  6
CONTINUOUS
 10
128.4728393066
 20
111.7859495695
  0
SEQEND
  0
POLYLINE
  8
0
 62
9
  6
CONTINUOUS
 66
1
 70
0
  0
VERTEX
  8
0
 62
9
  6
CONTINUOUS
 10
128.5506976454
 20
117.419723269
  0
VERTEX
  8
0
 62
9
  6
CONTINUOUS
 10
128.6137416464
 20
117.4621825286
  0
VERTEX
  8
0
 62
9
  6
CONTINUOUS
 10
128.6751248298
 20
117.5066254101
  0
VERTEX
  8
0
 62
9
  6
CONTINUOUS
 10
128.728284167
 20
117.5465987679
  0
VERTEX
  8
0
 62
9
  6
CONTINUOUS
 10
128.7714700779
 20
117.5784371638
  0
VERTEX
  8
0
 62
9
  6
CONTINUOUS
 10
128.8051105072
 20
117.6014217518
  0
VERTEX
  8
0
 62
9
  6
CONTINUOUS
 10
128.8310840564
 20
117.6172055004
  0
VERTEX
  8
0
 62
9
  6
CONTINUOUS
 10
128.851679317
 20
117.6281381844
  0
VERTEX
  8
0
 62
9
  6
CONTINUOUS
 10
128.8687461028
 20
117.6361568631
  0
SEQEND
  0
POLYLINE
  8
0
 62
9
  6
CONTINUOUS
 66
1
 70
0
  0
VERTEX
  8
0
 62
9
  6
CONTINUOUS
 10
128.8687460059
 20
117.6361570835
  0
VERTEX
  8
0
 62
9
  6
CONTINUOUS
 10
128.9155556639
 20
117.6620190532
  0
VERTEX
  8
0
 62
9
  6
CONTINUOUS
 10
128.948001665
 20
117.688226656
  0
VERTEX
  8
0
 62
9
  6
CONTINUOUS
 10
128.9657995334
 20
117.7147055383
  0
SEQEND
  0
LINE
  8
0
 62
7
  6
CONTINUOUS
 10
128.4733404318
 20
111.7858152934
 11
128.5528431223
 21
111.7712750059
  0
LINE
  8
0
 62
9
  6
CONTINUOUS
 10
120.1065820994
 20
114.4113428788
 11
128.8173406971
 21
112.3425364369
  0
LINE
  8
0
 62
7
  6
CONTINUOUS
 10
120.4771801853
 20
113.928379974
 11
128.4728393066
 21
111.7859495695
  0
LINE
  8
0
 62
9
  6
CONTINUOUS
 10
128.9772969164
 20
111.9382543132
 11
128.9801453277
 21
111.9407942889
  0
LINE
  8
0
 62
9
  6
CONTINUOUS
 10
130.2152399039
 20
118.0306190491
 11
130.1287964638
 21
117.984921464
  0
POLYLINE
  8
0
 62
7
  6
CONTINUOUS
 66
1
 70
0
  0
VERTEX
  8
0
 62
7
  6
CONTINUOUS
 10
130.1512988396
 20
117.9804481654
  0
VERTEX
  8
0
 62
7
  6
CONTINUOUS
 10
130.1530809617
 20
117.9811376184
  0
VERTEX
  8
0
 62
7
  6
CONTINUOUS
 10
130.1476034169
 20
117.9793934654
  0
VERTEX
  8
0
 62
7
  6
CONTINUOUS
 10
130.1292304292
 20
117.9744112241
  0
VERTEX
  8
0
 62
7
  6
CONTINUOUS
 10
130.0993643171
 20
117.9676177746
  0
VERTEX
  8
0
 62
7
  6
CONTINUOUS
 10
130.0586178729
 20
117.9598136543
  0
VERTEX
  8
0
 62
7
  6
CONTINUOUS
 10
130.0072077775
 20
117.9515270114
  0
VERTEX
  8
0
 62
7
  6
CONTINUOUS
 10
129.9451289122
 20
117.9431488341
  0
VERTEX
  8
0
 62
7
  6
CONTINUOUS
 10
129.872679989
 20
117.9350553208
  0
VERTEX
  8
0
 62
7
  6
CONTINUOUS
 10
129.7904158549
 20
117.9275924947
  0
VERTEX
  8
0
 62
7
  6
CONTINUOUS
 10
129.6990484256
 20
117.9210652402
  0
VERTEX
  8
0
 62
7
  6
CONTINUOUS
 10
129.5995460833
 20
117.9157550647
  0
VERTEX
  8
0
 62
7
  6
CONTINUOUS
 10
129.4931319545
 20
117.9119164156
  0
VERTEX
  8
0
 62
7
  6
CONTINUOUS
 10
129.3812377652
 20
117.9097638582
  0
VERTEX
  8
0
 62
7
  6
CONTINUOUS
 10
129.3065820992
 20
117.9093559339
  0
SEQEND
  0
LINE
  8
0
 62
9
  6
CONTINUOUS
 10
128.805836143
 20
112.7345095322
 11
129.0989671005
 21
112.7345095322
  0
LINE
  8
0
 62
9
  6
CONTINUOUS
 10
128.805836143
 20
114.1022587898
 11
130.9766989412
 21
114.1022587898
  0
POLYLINE
  8
0
 62
7
  6
CONTINUOUS
 66
1
 70
0
  0
VERTEX
  8
0
 62
7
  6
CONTINUOUS
 10
173.5218891379
 20
112.6745324532
  0
VERTEX
  8
0
 62
7
  6
CONTINUOUS
 10
173.9765042105
 20
112.6599777452
  0
VERTEX
  8
0
 62
7
  6
CONTINUOUS
 10
174.4502283794
 20
112.6522903932
  0
VERTEX
  8
0
 62
7
  6
CONTINUOUS
 10
174.910669498
 20
112.6518967617
  0
VERTEX
  8
0
 62
7
  6
CONTINUOUS
 10
175.3530759794
 20
112.6580769827
  0
VERTEX
  8
0
 62
7
  6
CONTINUOUS
 10
175.773602079
 20
112.6700690151
  0
VERTEX
  8
0
 62
7
  6
CONTINUOUS
 10
176.169359755
 20
112.6870926909
  0
VERTEX
  8
0
 62
7
  6
CONTINUOUS
 10
176.5384330659
 20
112.7083773352
  0
VERTEX
  8
0
 62
7
  6
CONTINUOUS
 10
176.8805184063
 20
112.73324477
  0
VERTEX
  8
0
 62
7
  6
CONTINUOUS
 10
177.196298505
 20
112.7611377344
  0
VERTEX
  8
0
 62
7
  6
CONTINUOUS
 10
177.4868094425
 20
112.7916023838
  0
VERTEX
  8
0
 62
7
  6
CONTINUOUS
 10
177.7532185978
 20
112.8242733428
  0
VERTEX
  8
0
 62
7
  6
CONTINUOUS
 10
177.9962676898
 20
112.8587910612
  0
VERTEX
  8
0
 62
7
  6
CONTINUOUS
 10
178.2167431252
 20
112.8948328197
  0
VERTEX
  8
0
 62
7
  6
CONTINUOUS
 10
178.4157069883
 20
112.9321522758
  0
VERTEX
  8
0
 62
7
  6
CONTINUOUS
 10
178.5944827562
 20
112.970599097
  0
VERTEX
  8
0
 62
7
  6
CONTINUOUS
 10
178.7546224053
 20
113.0101480666
  0
VERTEX
  8
0
 62
7
  6
CONTINUOUS
 10
178.8978547188
 20
113.0509333957
  0
VERTEX
  8
0
 62
7
  6
CONTINUOUS
 10
179.0261514206
 20
113.0933341997
  0
VERTEX
  8
0
 62
7
  6
CONTINUOUS
 10
179.141739916
 20
113.1381139593
  0
VERTEX
  8
0
 62
7
  6
CONTINUOUS
 10
179.2470431704
 20
113.1866125153
  0
VERTEX
  8
0
 62
7
  6
CONTINUOUS
 10
179.3440623299
 20
113.2407698848
  0
VERTEX
  8
0
 62
7
  6
CONTINUOUS
 10
179.434724756
 20
113.3037354805
  0
VERTEX
  8
0
 62
7
  6
CONTINUOUS
 10
179.519722744
 20
113.3799536616
  0
VERTEX
  8
0
 62
7
  6
CONTINUOUS
 10
179.5965836727
 20
113.4740027141
  0
VERTEX
  8
0
 62
7
  6
CONTINUOUS
 10
179.6585158714
 20
113.5874845944
  0
VERTEX
  8
0
 62
7
  6
CONTINUOUS
 10
179.6968913897
 20
113.716240662
  0
VERTEX
  8
0
 62
7
  6
CONTINUOUS
 10
179.7065813017
 20
113.8231690193
  0
SEQEND
  0
LINE
  8
0
 62
7
  6
CONTINUOUS
 10
173.5218897938
 20
112.6745323812
 11
130.586998757
 21
114.393871905
  0
LINE
  8
0
 62
9
  6
CONTINUOUS
 10
173.4124868737
 20
113.1741319567
 11
130.4775958359
 21
114.8934714805
  0
POLYLINE
  8
0
 62
9
  6
CONTINUOUS
 66
1
 70
0
  0
VERTEX
  8
0
 62
9
  6
CONTINUOUS
 10
130.5869966795
 20
114.3938719882
  0
VERTEX
  8
0
 62
9
  6
CONTINUOUS
 10
130.5822543461
 20
114.3944012817
  0
VERTEX
  8
0
 62
9
  6
CONTINUOUS
 10
130.5583983819
 20
114.407886432
  0
VERTEX
  8
0
 62
9
  6
CONTINUOUS
 10
130.5363001474
 20
114.4389313477
  0
VERTEX
  8
0
 62
9
  6
CONTINUOUS
 10
130.5167587608
 20
114.4864133781
  0
VERTEX
  8
0
 62
9
  6
CONTINUOUS
 10
130.5004808792
 20
114.548615472
  0
VERTEX
  8
0
 62
9
  6
CONTINUOUS
 10
130.488055144
 20
114.6232882701
  0
VERTEX
  8
0
 62
9
  6
CONTINUOUS
 10
130.479930895
 20
114.707731447
  0
VERTEX
  8
0
 62
9
  6
CONTINUOUS
 10
130.476401921
 20
114.798891361
  0
VERTEX
  8
0
 62
9
  6
CONTINUOUS
 10
130.4775958359
 20
114.8934714805
  0
SEQEND
  0
POLYLINE
  8
0
 62
9
  6
CONTINUOUS
 66
1
 70
0
  0
VERTEX
  8
0
 62
9
  6
CONTINUOUS
 10
122.1206284115
 20
118.0197285385
  0
VERTEX
  8
0
 62
9
  6
CONTINUOUS
 10
122.0675105036
 20
118.0273247792
  0
VERTEX
  8
0
 62
9
  6
CONTINUOUS
 10
122.0160063449
 20
118.0498828304
  0
VERTEX
  8
0
 62
9
  6
CONTINUOUS
 10
121.9676806622
 20
118.0867177241
  0
VERTEX
  8
0
 62
9
  6
CONTINUOUS
 10
121.9240021844
 20
118.1367103795
  0
VERTEX
  8
0
 62
9
  6
CONTINUOUS
 10
121.8862984542
 20
118.1983415025
  0
VERTEX
  8
0
 62
9
  6
CONTINUOUS
 10
121.8557152882
 20
118.2697379235
  0
VERTEX
  8
0
 62
9
  6
CONTINUOUS
 10
121.8331816122
 20
118.3487311111
  0
VERTEX
  8
0
 62
9
  6
CONTINUOUS
 10
121.8193826426
 20
118.4329178895
  0
VERTEX
  8
0
 62
9
  6
CONTINUOUS
 10
121.8147369131
 20
118.5197285385
  0
SEQEND
  0
LINE
  8
0
 62
9
  6
CONTINUOUS
 10
129.1323277126
 20
117.914458096
 11
129.1586959614
 21
117.9078961162
  0
POLYLINE
  8
0
 62
9
  6
CONTINUOUS
 66
1
 70
0
  0
VERTEX
  8
0
 62
9
  6
CONTINUOUS
 10
129.6318176609
 20
114.8948836685
  0
VERTEX
  8
0
 62
9
  6
CONTINUOUS
 10
129.503594195
 20
114.8887050558
  0
VERTEX
  8
0
 62
9
  6
CONTINUOUS
 10
129.3777911413
 20
114.8862032202
  0
VERTEX
  8
0
 62
9
  6
CONTINUOUS
 10
129.2511290518
 20
114.888392119
  0
VERTEX
  8
0
 62
9
  6
CONTINUOUS
 10
129.1268234544
 20
114.8941934816
  0
VERTEX
  8
0
 62
9
  6
CONTINUOUS
 10
129.0128790691
 20
114.9000944806
  0
VERTEX
  8
0
 62
9
  6
CONTINUOUS
 10
128.9136884527
 20
114.9022212476
  0
VERTEX
  8
0
 62
9
  6
CONTINUOUS
 10
128.8288820085
 20
114.8980485126
  0
VERTEX
  8
0
 62
9
  6
CONTINUOUS
 10
128.7563506291
 20
114.8861681855
  0
VERTEX
  8
0
 62
9
  6
CONTINUOUS
 10
128.6941129198
 20
114.8656798344
  0
VERTEX
  8
0
 62
9
  6
CONTINUOUS
 10
128.6405346505
 20
114.8357776467
  0
VERTEX
  8
0
 62
9
  6
CONTINUOUS
 10
128.594226044
 20
114.7953425459
  0
VERTEX
  8
0
 62
9
  6
CONTINUOUS
 10
128.5541445409
 20
114.7426308769
  0
VERTEX
  8
0
 62
9
  6
CONTINUOUS
 10
128.520020869
 20
114.6759226781
  0
VERTEX
  8
0
 62
9
  6
CONTINUOUS
 10
128.4925125156
 20
114.5960680923
  0
VERTEX
  8
0
 62
9
  6
CONTINUOUS
 10
128.471810372
 20
114.5064744895
  0
SEQEND
  0
POLYLINE
  8
0
 62
9
  6
CONTINUOUS
 66
1
 70
0
  0
VERTEX
  8
0
 62
9
  6
CONTINUOUS
 10
129.5936128423
 20
114.3974152103
  0
VERTEX
  8
0
 62
9
  6
CONTINUOUS
 10
129.4288033089
 20
114.3963154316
  0
VERTEX
  8
0
 62
9
  6
CONTINUOUS
 10
129.2635493497
 20
114.3965379905
  0
VERTEX
  8
0
 62
9
  6
CONTINUOUS
 10
129.0989745873
 20
114.3980043259
  0
SEQEND
  0
POLYLINE
  8
0
 62
9
  6
CONTINUOUS
 66
1
 70
0
  0
VERTEX
  8
0
 62
9
  6
CONTINUOUS
 10
130.1657335129
 20
114.4022587898
  0
VERTEX
  8
0
 62
9
  6
CONTINUOUS
 10
129.9979617105
 20
114.4017849631
  0
VERTEX
  8
0
 62
9
  6
CONTINUOUS
 10
129.5936128423
 20
114.3974152103
  0
SEQEND
  0
POLYLINE
  8
0
 62
7
  6
CONTINUOUS
 66
1
 70
0
  0
VERTEX
  8
0
 62
7
  6
CONTINUOUS
 10
130.1657335129
 20
114.4022587898
  0
VERTEX
  8
0
 62
7
  6
CONTINUOUS
 10
130.1996045391
 20
114.4022048717
  0
VERTEX
  8
0
 62
7
  6
CONTINUOUS
 10
130.4092625834
 20
114.3994664923
  0
VERTEX
  8
0
 62
7
  6
CONTINUOUS
 10
130.5869966821
 20
114.3938720535
  0
SEQEND
  0
POLYLINE
  8
0
 62
9
  6
CONTINUOUS
 66
1
 70
0
  0
VERTEX
  8
0
 62
9
  6
CONTINUOUS
 10
130.4775958359
 20
114.8934714805
  0
VERTEX
  8
0
 62
9
  6
CONTINUOUS
 10
130.2916644317
 20
114.8993272075
  0
VERTEX
  8
0
 62
9
  6
CONTINUOUS
 10
130.0885517791
 20
114.9021363962
  0
VERTEX
  8
0
 62
9
  6
CONTINUOUS
 10
129.8685533874
 20
114.900995294
  0
VERTEX
  8
0
 62
9
  6
CONTINUOUS
 10
129.6318176609
 20
114.8948836685
  0
SEQEND
  0
LINE
  8
0
 62
9
  6
CONTINUOUS
 10
173.4124868737
 20
115.1963442124
 11
129.6318176609
 21
116.949553156
  0
POLYLINE
  8
0
 62
9
  6
CONTINUOUS
 66
1
 70
0
  0
VERTEX
  8
0
 62
9
  6
CONTINUOUS
 10
128.5644954001
 20
117.9197285857
  0
VERTEX
  8
0
 62
9
  6
CONTINUOUS
 10
128.6573637625
 20
117.9109224161
  0
VERTEX
  8
0
 62
9
  6
CONTINUOUS
 10
128.7469608685
 20
117.8848141182
  0
VERTEX
  8
0
 62
9
  6
CONTINUOUS
 10
128.8301306922
 20
117.8423233474
  0
VERTEX
  8
0
 62
9
  6
CONTINUOUS
 10
128.9039436063
 20
117.7849468255
  0
VERTEX
  8
0
 62
9
  6
CONTINUOUS
 10
128.9657995772
 20
117.71470562
  0
SEQEND
  0
POLYLINE
  8
0
 62
9
  6
CONTINUOUS
 66
1
 70
0
  0
VERTEX
  8
0
 62
9
  6
CONTINUOUS
 10
128.4320891929
 20
117.9197285385
  0
VERTEX
  8
0
 62
9
  6
CONTINUOUS
 10
128.522232795
 20
117.9109941172
  0
VERTEX
  8
0
 62
9
  6
CONTINUOUS
 10
128.6092269853
 20
117.8850960232
  0
VERTEX
  8
0
 62
9
  6
CONTINUOUS
 10
128.690032388
 20
117.8429390753
  0
VERTEX
  8
0
 62
9
  6
CONTINUOUS
 10
128.7618258492
 20
117.7859961391
  0
VERTEX
  8
0
 62
9
  6
CONTINUOUS
 10
128.8220990712
 20
117.7162566678
  0
VERTEX
  8
0
 62
9
  6
CONTINUOUS
 10
128.8687462467
 20
117.6361571957
  0
SEQEND
  0
POLYLINE
  8
0
 62
9
  6
CONTINUOUS
 66
1
 70
0
  0
VERTEX
  8
0
 62
9
  6
CONTINUOUS
 10
128.0911407635
 20
117.9197285385
  0
VERTEX
  8
0
 62
9
  6
CONTINUOUS
 10
128.1807969719
 20
117.9101210584
  0
VERTEX
  8
0
 62
9
  6
CONTINUOUS
 10
128.2670077184
 20
117.8816677679
  0
VERTEX
  8
0
 62
9
  6
CONTINUOUS
 10
128.3464597427
 20
117.8354621435
  0
VERTEX
  8
0
 62
9
  6
CONTINUOUS
 10
128.4160997082
 20
117.7732798825
  0
VERTEX
  8
0
 62
9
  6
CONTINUOUS
 10
128.4732513601
 20
117.6975106604
  0
VERTEX
  8
0
 62
9
  6
CONTINUOUS
 10
128.5157183723
 20
117.6110662945
  0
VERTEX
  8
0
 62
9
  6
CONTINUOUS
 10
128.5418687498
 20
117.5172688422
  0
VERTEX
  8
0
 62
9
  6
CONTINUOUS
 10
128.5506975442
 20
117.4197285385
  0
SEQEND
  0
POLYLINE
  8
0
 62
9
  6
CONTINUOUS
 66
1
 70
0
  0
VERTEX
  8
0
 62
9
  6
CONTINUOUS
 10
173.5218891361
 20
112.6745324075
  0
VERTEX
  8
0
 62
9
  6
CONTINUOUS
 10
173.5171453862
 20
112.6750617572
  0
VERTEX
  8
0
 62
9
  6
CONTINUOUS
 10
173.4932894239
 20
112.688546902
  0
VERTEX
  8
0
 62
9
  6
CONTINUOUS
 10
173.4711911905
 20
112.7195918086
  0
VERTEX
  8
0
 62
9
  6
CONTINUOUS
 10
173.4516498038
 20
112.7670738288
  0
VERTEX
  8
0
 62
9
  6
CONTINUOUS
 10
173.4353719209
 20
112.8292759144
  0
VERTEX
  8
0
 62
9
  6
CONTINUOUS
 10
173.4229461838
 20
112.9039487091
  0
VERTEX
  8
0
 62
9
  6
CONTINUOUS
 10
173.4148219328
 20
112.9883918899
  0
VERTEX
  8
0
 62
9
  6
CONTINUOUS
 10
173.4112929578
 20
113.0795518164
  0
VERTEX
  8
0
 62
9
  6
CONTINUOUS
 10
173.4124868737
 20
113.1741319567
  0
SEQEND
  0
POLYLINE
  8
0
 62
9
  6
CONTINUOUS
 66
1
 70
0
  0
VERTEX
  8
0
 62
9
  6
CONTINUOUS
 10
129.1307398844
 20
117.4693091247
  0
VERTEX
  8
0
 62
9
  6
CONTINUOUS
 10
129.0773219162
 20
117.4756256006
  0
VERTEX
  8
0
 62
9
  6
CONTINUOUS
 10
129.0256668829
 20
117.4915258857
  0
VERTEX
  8
0
 62
9
  6
CONTINUOUS
 10
128.9774795829
 20
117.5164852138
  0
VERTEX
  8
0
 62
9
  6
CONTINUOUS
 10
128.9343503693
 20
117.5496798378
  0
VERTEX
  8
0
 62
9
  6
CONTINUOUS
 10
128.8977026602
 20
117.5900142165
  0
VERTEX
  8
0
 62
9
  6
CONTINUOUS
 10
128.8687460059
 20
117.6361570835
  0
SEQEND
  0
LINE
  8
0
 62
7
  6
CONTINUOUS
 10
129.1595613856
 20
117.9131770554
 11
129.1327828888
 21
117.9168151471
  0
LINE
  8
0
 62
7
  6
CONTINUOUS
 10
129.1688781762
 20
117.9118079533
 11
129.1595614409
 21
117.9131771348
  0
LINE
  8
0
 62
9
  6
CONTINUOUS
 10
132.9090072291
 20
121.4390995906
 11
132.9449918814
 21
121.4276743847
  0
POLYLINE
  8
0
 62
9
  6
CONTINUOUS
 66
1
 70
0
  0
VERTEX
  8
0
 62
9
  6
CONTINUOUS
 10
133.6288759481
 20
121.1969193019
  0
VERTEX
  8
0
 62
9
  6
CONTINUOUS
 10
133.3285107096
 20
121.3026997353
  0
VERTEX
  8
0
 62
9
  6
CONTINUOUS
 10
133.0204335925
 20
121.4209334698
  0
SEQEND
  0
POLYLINE
  8
0
 62
9
  6
CONTINUOUS
 66
1
 70
0
  0
VERTEX
  8
0
 62
9
  6
CONTINUOUS
 10
133.5334160245
 20
121.2091745476
  0
VERTEX
  8
0
 62
9
  6
CONTINUOUS
 10
133.5504744851
 20
121.2025423095
  0
VERTEX
  8
0
 62
9
  6
CONTINUOUS
 10
133.5588033352
 20
121.1972892068
  0
VERTEX
  8
0
 62
9
  6
CONTINUOUS
 10
133.5597877795
 20
121.193172608
  0
VERTEX
  8
0
 62
9
  6
CONTINUOUS
 10
133.5538456039
 20
121.1898652869
  0
VERTEX
  8
0
 62
9
  6
CONTINUOUS
 10
133.5397558716
 20
121.1873177464
  0
VERTEX
  8
0
 62
9
  6
CONTINUOUS
 10
133.5165394011
 20
121.1857589669
  0
VERTEX
  8
0
 62
9
  6
CONTINUOUS
 10
133.4842158554
 20
121.1853449955
  0
VERTEX
  8
0
 62
9
  6
CONTINUOUS
 10
133.4433427021
 20
121.1861161129
  0
VERTEX
  8
0
 62
9
  6
CONTINUOUS
 10
133.3939667774
 20
121.1880859663
  0
VERTEX
  8
0
 62
9
  6
CONTINUOUS
 10
133.3358646852
 20
121.1912995348
  0
VERTEX
  8
0
 62
9
  6
CONTINUOUS
 10
133.2693457148
 20
121.1957848049
  0
VERTEX
  8
0
 62
9
  6
CONTINUOUS
 10
133.1945904835
 20
121.2015759913
  0
VERTEX
  8
0
 62
9
  6
CONTINUOUS
 10
133.1109931815
 20
121.2087821498
  0
VERTEX
  8
0
 62
9
  6
CONTINUOUS
 10
133.0176791016
 20
121.2175668285
  0
VERTEX
  8
0
 62
9
  6
CONTINUOUS
 10
132.9141331074
 20
121.2280886785
  0
VERTEX
  8
0
 62
9
  6
CONTINUOUS
 10
132.8001727944
 20
121.2404908969
  0
VERTEX
  8
0
 62
9
  6
CONTINUOUS
 10
132.675110087
 20
121.2549913609
  0
VERTEX
  8
0
 62
9
  6
CONTINUOUS
 10
132.5373014654
 20
121.271960432
  0
VERTEX
  8
0
 62
9
  6
CONTINUOUS
 10
132.3848436701
 20
121.291867613
  0
VERTEX
  8
0
 62
9
  6
CONTINUOUS
 10
132.2163714961
 20
121.3151886193
  0
VERTEX
  8
0
 62
9
  6
CONTINUOUS
 10
132.0312824238
 20
121.3423659746
  0
VERTEX
  8
0
 62
9
  6
CONTINUOUS
 10
131.8290921782
 20
121.3739001829
  0
SEQEND
  0
LINE
  8
0
 62
9
  6
CONTINUOUS
 10
131.7885252119
 20
114.2568919818
 11
132.1610891625
 21
114.3308370216
  0
LINE
  8
0
 62
9
  6
CONTINUOUS
 10
131.3940147861
 20
114.1804673208
 11
131.7885252119
 21
114.2568919818
  0
POLYLINE
  8
0
 62
9
  6
CONTINUOUS
 66
1
 70
0
  0
VERTEX
  8
0
 62
9
  6
CONTINUOUS
 10
130.9764351473
 20
114.1022587898
  0
VERTEX
  8
0
 62
9
  6
CONTINUOUS
 10
131.1207953858
 20
114.1288889433
  0
VERTEX
  8
0
 62
9
  6
CONTINUOUS
 10
131.3940147861
 20
114.1804673208
  0
SEQEND
  0
LINE
  8
0
 62
9
  6
CONTINUOUS
 10
129.6318176609
 20
116.949553156
 11
128.471810372
 21
116.949553156
  0
LINE
  8
0
 62
9
  6
CONTINUOUS
 10
120.1065820992
 20
117.4197285385
 11
128.5506988764
 21
117.4197257323
  0
LINE
  8
0
 62
9
  6
CONTINUOUS
 10
129.3065820992
 20
117.9038653188
 11
129.2065820992
 21
117.9038653188
  0
LINE
  8
0
 62
7
  6
CONTINUOUS
 10
129.3065820992
 20
117.9093573871
 11
129.2065820997
 21
117.9093573871
  0
LINE
  8
0
 62
7
  6
CONTINUOUS
 10
120.6065898948
 20
117.9197285385
 11
129.0788857318
 21
117.9197285385
  0
LINE
  8
CURVE
 62
40
  6
CONTINUOUS
 10
129.3065820992
 20
117.9697285385
 11
127.1986450982
 21
117.9697285385
  0
LINE
  8
DEFAULT_1
 62
7
  6
CENTER
 10
118.1065820992
 20
117.9697285385
 11
181.7065820992
 21
117.9697285385
  0
LINE
  8
0
 62
7
  6
CONTINUOUS
 10
129.0788834344
 20
118.0197285385
 11
120.6065898955
 21
118.0197285385
  0
LINE
  8
0
 62
7
  6
CONTINUOUS
 10
129.3065820992
 20
118.0300996898
 11
129.2065820997
 21
118.0300996898
  0
POLYLINE
  8
0
 62
7
  6
CONTINUOUS
 66
1
 70
0
  0
VERTEX
  8
0
 62
7
  6
CONTINUOUS
 10
129.3065820992
 20
118.0301014578
  0
VERTEX
  8
0
 62
7
  6
CONTINUOUS
 10
129.3762404108
 20
118.0297455442
  0
VERTEX
  8
0
 62
7
  6
CONTINUOUS
 10
129.4833342196
 20
118.0278043834
  0
VERTEX
  8
0
 62
7
  6
CONTINUOUS
 10
129.5854241232
 20
118.024316899
  0
VERTEX
  8
0
 62
7
  6
CONTINUOUS
 10
129.6813102277
 20
118.0194685222
  0
VERTEX
  8
0
 62
7
  6
CONTINUOUS
 10
129.7699643108
 20
118.0134756447
  0
VERTEX
  8
0
 62
7
  6
CONTINUOUS
 10
129.850565097
 20
118.0065729879
  0
VERTEX
  8
0
 62
7
  6
CONTINUOUS
 10
129.9065820992
 20
118.0006836265
  0
SEQEND
  0
POLYLINE
  8
0
 62
7
  6
CONTINUOUS
 66
1
 70
0
  0
VERTEX
  8
0
 62
7
  6
CONTINUOUS
 10
129.2065820997
 20
117.9093585404
  0
VERTEX
  8
0
 62
7
  6
CONTINUOUS
 10
129.1990659376
 20
117.9094551102
  0
VERTEX
  8
0
 62
7
  6
CONTINUOUS
 10
129.1688781762
 20
117.9118079533
  0
SEQEND
  0
LINE
  8
0
 62
9
  6
CONTINUOUS
 10
129.1307398951
 20
117.4693091246
 11
173.5418963963
 21
115.6908521441
  0
POLYLINE
  8
0
 62
9
  6
CONTINUOUS
 66
1
 70
0
  0
VERTEX
  8
0
 62
9
  6
CONTINUOUS
 10
129.2065820992
 20
117.9038653188
  0
VERTEX
  8
0
 62
9
  6
CONTINUOUS
 10
129.1826201755
 20
117.9048697358
  0
VERTEX
  8
0
 62
9
  6
CONTINUOUS
 10
129.1586943851
 20
117.9078964147
  0
SEQEND
  0
POLYLINE
  8
0
 62
9
  6
CONTINUOUS
 66
1
 70
0
  0
VERTEX
  8
0
 62
9
  6
CONTINUOUS
 10
129.0788857318
 20
117.9197285385
  0
VERTEX
  8
0
 62
9
  6
CONTINUOUS
 10
129.1056774212
 20
117.9184091872
  0
VERTEX
  8
0
 62
9
  6
CONTINUOUS
 10
129.1323277126
 20
117.914458096
  0
SEQEND
  0
POLYLINE
  8
0
 62
7
  6
CONTINUOUS
 66
1
 70
0
  0
VERTEX
  8
0
 62
7
  6
CONTINUOUS
 10
129.1327828888
 20
117.9168151471
  0
VERTEX
  8
0
 62
7
  6
CONTINUOUS
 10
129.1058659404
 20
117.9190000762
  0
VERTEX
  8
0
 62
7
  6
CONTINUOUS
 10
129.0788857318
 20
117.9197285385
  0
SEQEND
  0
POLYLINE
  8
0
 62
7
  6
CONTINUOUS
 66
1
 70
0
  0
VERTEX
  8
0
 62
7
  6
CONTINUOUS
 10
132.9161994712
 20
121.4363371462
  0
VERTEX
  8
0
 62
7
  6
CONTINUOUS
 10
132.9177878962
 20
121.4359234481
  0
VERTEX
  8
0
 62
7
  6
CONTINUOUS
 10
132.9153118382
 20
121.4367379901
  0
VERTEX
  8
0
 62
7
  6
CONTINUOUS
 10
132.9089863461
 20
121.4391079432
  0
SEQEND
  0
POLYLINE
  8
0
 62
9
  6
CONTINUOUS
 66
1
 70
0
  0
VERTEX
  8
0
 62
9
  6
CONTINUOUS
 10
133.0204335925
 20
121.4209334698
  0
VERTEX
  8
0
 62
9
  6
CONTINUOUS
 10
132.9896286474
 20
121.430529066
  0
VERTEX
  8
0
 62
9
  6
CONTINUOUS
 10
132.9435091187
 20
121.4404450715
  0
SEQEND
  0
POLYLINE
  8
0
 62
9
  6
CONTINUOUS
 66
1
 70
0
  0
VERTEX
  8
0
 62
9
  6
CONTINUOUS
 10
130.4065820992
 20
118.0682614203
  0
VERTEX
  8
0
 62
9
  6
CONTINUOUS
 10
130.3090366324
 20
118.0587595289
  0
VERTEX
  8
0
 62
9
  6
CONTINUOUS
 10
130.2152399039
 20
118.0306190491
  0
SEQEND
  0
POLYLINE
  8
0
 62
9
  6
CONTINUOUS
 66
1
 70
0
  0
VERTEX
  8
0
 62
9
  6
CONTINUOUS
 10
129.2065820992
 20
118.5300996898
  0
VERTEX
  8
0
 62
9
  6
CONTINUOUS
 10
129.1424535736
 20
118.527496963
  0
VERTEX
  8
0
 62
9
  6
CONTINUOUS
 10
129.0789019145
 20
118.5197285385
  0
SEQEND
  0
LINE
  8
0
 62
9
  6
CONTINUOUS
 10
129.0789019145
 20
118.5197285385
 11
120.1065820992
 21
118.5197285385
  0
LINE
  8
0
 62
9
  6
CONTINUOUS
 10
129.3065820992
 20
118.5300996898
 11
129.2065820992
 21
118.5300996898
  0
POLYLINE
  8
0
 62
9
  6
CONTINUOUS
 66
1
 70
0
  0
VERTEX
  8
0
 62
9
  6
CONTINUOUS
 10
129.3065820992
 20
120.5523119455
  0
VERTEX
  8
0
 62
9
  6
CONTINUOUS
 10
129.3828380283
 20
120.5509788344
  0
VERTEX
  8
0
 62
9
  6
CONTINUOUS
 10
129.4589256762
 20
120.5469245318
  0
VERTEX
  8
0
 62
9
  6
CONTINUOUS
 10
129.5336047313
 20
120.5400901323
  0
VERTEX
  8
0
 62
9
  6
CONTINUOUS
 10
129.604583249
 20
120.530602515
  0
VERTEX
  8
0
 62
9
  6
CONTINUOUS
 10
129.6702019456
 20
120.5186837208
  0
VERTEX
  8
0
 62
9
  6
CONTINUOUS
 10
129.729291971
 20
120.5045863007
  0
VERTEX
  8
0
 62
9
  6
CONTINUOUS
 10
129.7812696813
 20
120.488465063
  0
VERTEX
  8
0
 62
9
  6
CONTINUOUS
 10
129.8254512244
 20
120.4704662128
  0
VERTEX
  8
0
 62
9
  6
CONTINUOUS
 10
129.860773953
 20
120.4509163339
  0
VERTEX
  8
0
 62
9
  6
CONTINUOUS
 10
129.8863071772
 20
120.4302893582
  0
VERTEX
  8
0
 62
9
  6
CONTINUOUS
 10
129.9015736929
 20
120.4091122159
  0
VERTEX
  8
0
 62
9
  6
CONTINUOUS
 10
129.9065820992
 20
120.387915844
  0
SEQEND
  0
POLYLINE
  8
0
 62
9
  6
CONTINUOUS
 66
1
 70
0
  0
VERTEX
  8
0
 62
9
  6
CONTINUOUS
 10
132.9449918814
 20
121.4276743847
  0
VERTEX
  8
0
 62
9
  6
CONTINUOUS
 10
132.9823638354
 20
121.4215809107
  0
VERTEX
  8
0
 62
9
  6
CONTINUOUS
 10
133.020435977
 20
121.4209312666
  0
SEQEND
  0
LINE
  8
0
 62
9
  6
CONTINUOUS
 10
132.9435091187
 20
121.4404450715
 11
132.8819055436
 21
121.4504954946
  0
POLYLINE
  8
0
 62
9
  6
CONTINUOUS
 66
1
 70
0
  0
VERTEX
  8
0
 62
9
  6
CONTINUOUS
 10
130.1768683492
 20
117.9677172905
  0
VERTEX
  8
0
 62
9
  6
CONTINUOUS
 10
130.0815854574
 20
117.9515967848
  0
VERTEX
  8
0
 62
9
  6
CONTINUOUS
 10
129.973147782
 20
117.9374862269
  0
VERTEX
  8
0
 62
9
  6
CONTINUOUS
 10
129.8526536895
 20
117.925552882
  0
VERTEX
  8
0
 62
9
  6
CONTINUOUS
 10
129.7224252395
 20
117.9160652569
  0
VERTEX
  8
0
 62
9
  6
CONTINUOUS
 10
129.5856775894
 20
117.9092449981
  0
VERTEX
  8
0
 62
9
  6
CONTINUOUS
 10
129.4458702712
 20
117.9051886175
  0
VERTEX
  8
0
 62
9
  6
CONTINUOUS
 10
129.3065820992
 20
117.9038653188
  0
SEQEND
  0
POLYLINE
  8
0
 62
7
  6
CONTINUOUS
 66
1
 70
0
  0
VERTEX
  8
0
 62
7
  6
CONTINUOUS
 10
129.1595614272
 20
118.026279974
  0
VERTEX
  8
0
 62
7
  6
CONTINUOUS
 10
129.1688811163
 20
118.0276495309
  0
VERTEX
  8
0
 62
7
  6
CONTINUOUS
 10
129.1990691003
 20
118.0300020825
  0
VERTEX
  8
0
 62
7
  6
CONTINUOUS
 10
129.2065820997
 20
118.0300985698
  0
SEQEND
  0
POLYLINE
  8
0
 62
7
  6
CONTINUOUS
 66
1
 70
0
  0
VERTEX
  8
0
 62
7
  6
CONTINUOUS
 10
129.1595613775
 20
118.0262800202
  0
VERTEX
  8
0
 62
7
  6
CONTINUOUS
 10
129.1327828746
 20
118.0226419283
  0
VERTEX
  8
0
 62
7
  6
CONTINUOUS
 10
129.1058659333
 20
118.0204570004
  0
VERTEX
  8
0
 62
7
  6
CONTINUOUS
 10
129.0788857318
 20
118.0197285385
  0
SEQEND
  0
POLYLINE
  8
0
 62
9
  6
CONTINUOUS
 66
1
 70
0
  0
VERTEX
  8
0
 62
9
  6
CONTINUOUS
 10
127.4734366409
 20
118.0197285385
  0
VERTEX
  8
0
 62
9
  6
CONTINUOUS
 10
127.5313077153
 20
118.027324662
  0
VERTEX
  8
0
 62
9
  6
CONTINUOUS
 10
127.5874204064
 20
118.0498822281
  0
VERTEX
  8
0
 62
9
  6
CONTINUOUS
 10
127.6400697584
 20
118.0867158366
  0
VERTEX
  8
0
 62
9
  6
CONTINUOUS
 10
127.6876560475
 20
118.1367063169
  0
VERTEX
  8
0
 62
9
  6
CONTINUOUS
 10
127.7287333884
 20
118.1983347336
  0
VERTEX
  8
0
 62
9
  6
CONTINUOUS
 10
127.7620536667
 20
118.2697285385
  0
VERTEX
  8
0
 62
9
  6
CONTINUOUS
 10
127.7866044628
 20
118.3487184668
  0
VERTEX
  8
0
 62
9
  6
CONTINUOUS
 10
127.801639813
 20
118.4329044496
  0
VERTEX
  8
0
 62
9
  6
CONTINUOUS
 10
127.806702876
 20
118.5197285385
  0
SEQEND
  0
POLYLINE
  8
0
 62
9
  6
CONTINUOUS
 66
1
 70
0
  0
VERTEX
  8
0
 62
9
  6
CONTINUOUS
 10
126.8653788631
 20
118.0197285385
  0
VERTEX
  8
0
 62
9
  6
CONTINUOUS
 10
126.9232507333
 20
118.0273248725
  0
VERTEX
  8
0
 62
9
  6
CONTINUOUS
 10
126.979364444
 20
118.0498832194
  0
VERTEX
  8
0
 62
9
  6
CONTINUOUS
 10
127.0320152057
 20
118.0867186302
  0
VERTEX
  8
0
 62
9
  6
CONTINUOUS
 10
127.0796027839
 20
118.1367119999
  0
VERTEX
  8
0
 62
9
  6
CONTINUOUS
 10
127.1206808107
 20
118.1983440317
  0
VERTEX
  8
0
 62
9
  6
CONTINUOUS
 10
127.1540007877
 20
118.2697412689
  0
VERTEX
  8
0
 62
9
  6
CONTINUOUS
 10
127.1785508005
 20
118.348735432
  0
VERTEX
  8
0
 62
9
  6
CONTINUOUS
 10
127.1935841425
 20
118.4329223816
  0
VERTEX
  8
0
 62
9
  6
CONTINUOUS
 10
127.1986450982
 20
118.5197285385
  0
SEQEND
  0
POLYLINE
  8
0
 62
9
  6
CONTINUOUS
 66
1
 70
0
  0
VERTEX
  8
0
 62
9
  6
CONTINUOUS
 10
131.8290921782
 20
121.0771954239
  0
VERTEX
  8
0
 62
9
  6
CONTINUOUS
 10
132.0955978079
 20
121.0784789538
  0
VERTEX
  8
0
 62
9
  6
CONTINUOUS
 10
132.3325072271
 20
121.081756701
  0
VERTEX
  8
0
 62
9
  6
CONTINUOUS
 10
132.5434194941
 20
121.0864159372
  0
VERTEX
  8
0
 62
9
  6
CONTINUOUS
 10
132.7312211595
 20
121.0920620316
  0
VERTEX
  8
0
 62
9
  6
CONTINUOUS
 10
132.8982168327
 20
121.0984343002
  0
VERTEX
  8
0
 62
9
  6
CONTINUOUS
 10
133.0462616368
 20
121.1053601286
  0
VERTEX
  8
0
 62
9
  6
CONTINUOUS
 10
133.1768131884
 20
121.1127271783
  0
VERTEX
  8
0
 62
9
  6
CONTINUOUS
 10
133.290947394
 20
121.120464651
  0
VERTEX
  8
0
 62
9
  6
CONTINUOUS
 10
133.3893821727
 20
121.1285290533
  0
VERTEX
  8
0
 62
9
  6
CONTINUOUS
 10
133.4724833409
 20
121.1368914025
  0
VERTEX
  8
0
 62
9
  6
CONTINUOUS
 10
133.5401750922
 20
121.1455124229
  0
VERTEX
  8
0
 62
9
  6
CONTINUOUS
 10
133.5920313379
 20
121.1543009262
  0
VERTEX
  8
0
 62
9
  6
CONTINUOUS
 10
133.6276995523
 20
121.163064454
  0
VERTEX
  8
0
 62
9
  6
CONTINUOUS
 10
133.6477113308
 20
121.1714912334
  0
VERTEX
  8
0
 62
9
  6
CONTINUOUS
 10
133.6543227294
 20
121.179625122
  0
VERTEX
  8
0
 62
9
  6
CONTINUOUS
 10
133.6486297843
 20
121.187940312
  0
VERTEX
  8
0
 62
9
  6
CONTINUOUS
 10
133.6288759481
 20
121.1969193019
  0
SEQEND
  0
POLYLINE
  8
0
 62
9
  6
CONTINUOUS
 66
1
 70
0
  0
VERTEX
  8
0
 62
9
  6
CONTINUOUS
 10
133.6292342501
 20
121.1967561946
  0
VERTEX
  8
0
 62
9
  6
CONTINUOUS
 10
133.5966860318
 20
121.1967358563
  0
VERTEX
  8
0
 62
9
  6
CONTINUOUS
 10
133.5645957879
 20
121.2008947658
  0
VERTEX
  8
0
 62
9
  6
CONTINUOUS
 10
133.5334155465
 20
121.2091745187
  0
SEQEND
  0
LINE
  8
0
 62
9
  6
CONTINUOUS
 10
129.1977950584
 20
120.5523118482
 11
129.3065820992
 21
120.5523119455
  0
LINE
  8
0
 62
9
  6
CONTINUOUS
 10
129.1977950588
 20
121.0468200112
 11
129.3065820992
 21
121.0468198772
  0
LINE
  8
0
 62
9
  6
CONTINUOUS
 10
129.2065820992
 20
121.0771954239
 11
131.8290921782
 21
121.0771954239
  0
LINE
  8
0
 62
9
  6
CONTINUOUS
 10
128.9065820992
 20
121.3739001829
 11
131.8288759924
 21
121.3739001829
  0
LINE
  8
0
 62
9
  6
CONTINUOUS
 10
122.1206284115
 20
121.9337996378
 11
121.8147369131
 21
121.9337996378
  0
POLYLINE
  8
0
 62
9
  6
CONTINUOUS
 66
1
 70
0
  0
VERTEX
  8
0
 62
9
  6
CONTINUOUS
 10
128.4065762223
 20
121.2416360467
  0
VERTEX
  8
0
 62
9
  6
CONTINUOUS
 10
128.4878971689
 20
121.2408989339
  0
VERTEX
  8
0
 62
9
  6
CONTINUOUS
 10
128.5623423752
 20
121.2384332033
  0
VERTEX
  8
0
 62
9
  6
CONTINUOUS
 10
128.6290644193
 20
121.2343847175
  0
VERTEX
  8
0
 62
9
  6
CONTINUOUS
 10
128.6887981217
 20
121.2288285635
  0
VERTEX
  8
0
 62
9
  6
CONTINUOUS
 10
128.7418362473
 20
121.2205032309
  0
VERTEX
  8
0
 62
9
  6
CONTINUOUS
 10
128.7884682547
 20
121.2097055137
  0
VERTEX
  8
0
 62
9
  6
CONTINUOUS
 10
128.8293076747
 20
121.1957590031
  0
VERTEX
  8
0
 62
9
  6
CONTINUOUS
 10
128.8663512307
 20
121.1785332836
  0
VERTEX
  8
0
 62
9
  6
CONTINUOUS
 10
128.9018325148
 20
121.1579870109
  0
VERTEX
  8
0
 62
9
  6
CONTINUOUS
 10
128.9375976696
 20
121.1350963234
  0
VERTEX
  8
0
 62
9
  6
CONTINUOUS
 10
128.975216063
 20
121.1114777905
  0
VERTEX
  8
0
 62
9
  6
CONTINUOUS
 10
129.015824725
 20
121.0891169283
  0
VERTEX
  8
0
 62
9
  6
CONTINUOUS
 10
129.0595546874
 20
121.0700832135
  0
VERTEX
  8
0
 62
9
  6
CONTINUOUS
 10
129.1054046766
 20
121.0561624247
  0
VERTEX
  8
0
 62
9
  6
CONTINUOUS
 10
129.1519795145
 20
121.0483375054
  0
VERTEX
  8
0
 62
9
  6
CONTINUOUS
 10
129.1977953291
 20
121.0468199569
  0
SEQEND
  0
POLYLINE
  8
0
 62
9
  6
CONTINUOUS
 66
1
 70
0
  0
VERTEX
  8
0
 62
9
  6
CONTINUOUS
 10
129.3065820992
 20
121.0468198772
  0
VERTEX
  8
0
 62
9
  6
CONTINUOUS
 10
129.4462331225
 20
121.045489607
  0
VERTEX
  8
0
 62
9
  6
CONTINUOUS
 10
129.5857377318
 20
121.0414376875
  0
VERTEX
  8
0
 62
9
  6
CONTINUOUS
 10
129.7226660186
 20
121.0346051336
  0
VERTEX
  8
0
 62
9
  6
CONTINUOUS
 10
129.8528210603
 20
121.025117897
  0
VERTEX
  8
0
 62
9
  6
CONTINUOUS
 10
129.9731583177
 20
121.0131977101
  0
VERTEX
  8
0
 62
9
  6
CONTINUOUS
 10
130.0815290784
 20
120.9990967723
  0
VERTEX
  8
0
 62
9
  6
CONTINUOUS
 10
130.1768607317
 20
120.9829694402
  0
VERTEX
  8
0
 62
9
  6
CONTINUOUS
 10
130.2578884645
 20
120.96496295
  0
VERTEX
  8
0
 62
9
  6
CONTINUOUS
 10
130.3226538748
 20
120.9454059233
  0
VERTEX
  8
0
 62
9
  6
CONTINUOUS
 10
130.3694549128
 20
120.9247739552
  0
VERTEX
  8
0
 62
9
  6
CONTINUOUS
 10
130.3974246793
 20
120.9035923949
  0
VERTEX
  8
0
 62
9
  6
CONTINUOUS
 10
130.4065820992
 20
120.8824237757
  0
SEQEND
  0
POLYLINE
  8
0
 62
9
  6
CONTINUOUS
 66
1
 70
0
  0
VERTEX
  8
0
 62
9
  6
CONTINUOUS
 10
130.4065820992
 20
120.8824237757
  0
VERTEX
  8
0
 62
9
  6
CONTINUOUS
 10
130.3090369382
 20
120.8729219445
  0
VERTEX
  8
0
 62
9
  6
CONTINUOUS
 10
130.215240383
 20
120.8447816008
  0
VERTEX
  8
0
 62
9
  6
CONTINUOUS
 10
130.1287969827
 20
120.7990841623
  0
VERTEX
  8
0
 62
9
  6
CONTINUOUS
 10
130.0530287086
 20
120.7375857559
  0
VERTEX
  8
0
 62
9
  6
CONTINUOUS
 10
129.9908472931
 20
120.6626497309
  0
VERTEX
  8
0
 62
9
  6
CONTINUOUS
 10
129.944642333
 20
120.5771558367
  0
VERTEX
  8
0
 62
9
  6
CONTINUOUS
 10
129.916189459
 20
120.4843895557
  0
VERTEX
  8
0
 62
9
  6
CONTINUOUS
 10
129.9065820992
 20
120.387915844
  0
SEQEND
  0
LINE
  8
0
 62
9
  6
CONTINUOUS
 10
132.5050481348
 20
121.6165011733
 11
173.5418963963
 21
123.2598330519
  0
LINE
  8
0
 62
7
  6
CONTINUOUS
 10
132.493369359
 20
121.6219263072
 11
173.5218897939
 21
123.2649246958
  0
POLYLINE
  8
0
 62
9
  6
CONTINUOUS
 66
1
 70
0
  0
VERTEX
  8
0
 62
9
  6
CONTINUOUS
 10
173.5418963963
 20
123.2598330519
  0
VERTEX
  8
0
 62
9
  6
CONTINUOUS
 10
173.9876128689
 20
123.2741097304
  0
VERTEX
  8
0
 62
9
  6
CONTINUOUS
 10
174.4407047164
 20
123.2815740244
  0
VERTEX
  8
0
 62
9
  6
CONTINUOUS
 10
174.8965219154
 20
123.2821495878
  0
VERTEX
  8
0
 62
9
  6
CONTINUOUS
 10
175.3504285223
 20
123.275829657
  0
VERTEX
  8
0
 62
9
  6
CONTINUOUS
 10
175.7978493668
 20
123.2626742323
  0
VERTEX
  8
0
 62
9
  6
CONTINUOUS
 10
176.2342889685
 20
123.2428070839
  0
VERTEX
  8
0
 62
9
  6
CONTINUOUS
 10
176.6553234042
 20
123.216416116
  0
VERTEX
  8
0
 62
9
  6
CONTINUOUS
 10
177.0566379076
 20
123.1837538408
  0
VERTEX
  8
0
 62
9
  6
CONTINUOUS
 10
177.4340786987
 20
123.1451363289
  0
VERTEX
  8
0
 62
9
  6
CONTINUOUS
 10
177.7836954595
 20
123.100941821
  0
VERTEX
  8
0
 62
9
  6
CONTINUOUS
 10
178.1017840579
 20
123.0516088313
  0
VERTEX
  8
0
 62
9
  6
CONTINUOUS
 10
178.3849314751
 20
122.9976333791
  0
VERTEX
  8
0
 62
9
  6
CONTINUOUS
 10
178.6300589717
 20
122.9395658054
  0
VERTEX
  8
0
 62
9
  6
CONTINUOUS
 10
178.8344662583
 20
122.8780067718
  0
VERTEX
  8
0
 62
9
  6
CONTINUOUS
 10
178.995883671
 20
122.8135986931
  0
VERTEX
  8
0
 62
9
  6
CONTINUOUS
 10
179.1125022383
 20
122.7470194664
  0
VERTEX
  8
0
 62
9
  6
CONTINUOUS
 10
179.183000679
 20
122.6789796512
  0
VERTEX
  8
0
 62
9
  6
CONTINUOUS
 10
179.2065820992
 20
122.6102194331
  0
SEQEND
  0
LINE
  8
0
 62
7
  6
CONTINUOUS
 10
173.9750455775
 20
123.2794440603
 11
173.5218890495
 21
123.2649246226
  0
LINE
  8
0
 62
9
  6
CONTINUOUS
 10
128.9065820992
 20
123.1111427457
 11
129.2065820992
 21
123.1111427457
  0
LINE
  8
0
 62
9
  6
CONTINUOUS
 10
127.1986450982
 20
123.2051516895
 11
126.8653788631
 21
123.2051516895
  0
LINE
  8
0
 62
9
  6
CONTINUOUS
 10
128.9065820992
 20
123.618115852
 11
128.4065820992
 21
123.618115852
  0
LINE
  8
0
 62
9
  6
CONTINUOUS
 10
121.8147369131
 20
121.9337996378
 11
120.1065820992
 21
121.5281141933
  0
LINE
  8
0
 62
7
  6
CONTINUOUS
 10
128.5528462651
 20
124.1681823891
 11
128.4733412049
 21
124.1536419907
  0
LINE
  8
0
 62
9
  6
CONTINUOUS
 10
127.806702876
 20
123.3680802801
 11
127.1986450982
 21
123.2051516895
  0
LINE
  8
0
 62
9
  6
CONTINUOUS
 10
126.8653788631
 20
123.2051516895
 11
122.1206284115
 21
121.9337996378
  0
LINE
  8
0
 62
7
  6
CONTINUOUS
 10
128.4733404944
 20
124.1536418003
 11
120.4771801722
 21
122.0110770995
  0
LINE
  8
0
 62
9
  6
CONTINUOUS
 10
173.5218897941
 20
123.2649246958
 11
173.5418963963
 21
123.2598330519
  0
LINE
  8
0
 62
9
  6
CONTINUOUS
 10
173.4124868737
 20
113.1741319567
 11
173.4124868737
 21
115.1963442124
  0
POLYLINE
  8
0
 62
9
  6
CONTINUOUS
 66
1
 70
0
  0
VERTEX
  8
0
 62
9
  6
CONTINUOUS
 10
173.4124868737
 20
115.1963442124
  0
VERTEX
  8
0
 62
9
  6
CONTINUOUS
 10
173.4178551026
 20
115.2850260259
  0
VERTEX
  8
0
 62
9
  6
CONTINUOUS
 10
173.4271625171
 20
115.3708915665
  0
VERTEX
  8
0
 62
9
  6
CONTINUOUS
 10
173.4401135413
 20
115.4512139979
  0
VERTEX
  8
0
 62
9
  6
CONTINUOUS
 10
173.4562968889
 20
115.5234425165
  0
VERTEX
  8
0
 62
9
  6
CONTINUOUS
 10
173.4751986243
 20
115.5852833575
  0
VERTEX
  8
0
 62
9
  6
CONTINUOUS
 10
173.4962184843
 20
115.6347726383
  0
VERTEX
  8
0
 62
9
  6
CONTINUOUS
 10
173.5186889401
 20
115.6703387252
  0
VERTEX
  8
0
 62
9
  6
CONTINUOUS
 10
173.5418963963
 20
115.6908521441
  0
SEQEND
  0
POLYLINE
  8
0
 62
9
  6
CONTINUOUS
 66
1
 70
0
  0
VERTEX
  8
0
 62
9
  6
CONTINUOUS
 10
179.7065817994
 20
122.1162530869
  0
VERTEX
  8
0
 62
9
  6
CONTINUOUS
 10
179.6969747394
 20
122.212185213
  0
VERTEX
  8
0
 62
9
  6
CONTINUOUS
 10
179.6685218655
 20
122.304951494
  0
VERTEX
  8
0
 62
9
  6
CONTINUOUS
 10
179.6223169054
 20
122.3904453882
  0
VERTEX
  8
0
 62
9
  6
CONTINUOUS
 10
179.5601354898
 20
122.4653814132
  0
VERTEX
  8
0
 62
9
  6
CONTINUOUS
 10
179.4843672157
 20
122.5268798196
  0
VERTEX
  8
0
 62
9
  6
CONTINUOUS
 10
179.3979238154
 20
122.5725772581
  0
VERTEX
  8
0
 62
9
  6
CONTINUOUS
 10
179.3041272602
 20
122.6007176018
  0
VERTEX
  8
0
 62
9
  6
CONTINUOUS
 10
179.2065820992
 20
122.6102194331
  0
SEQEND
  0
POLYLINE
  8
0
 62
9
  6
CONTINUOUS
 66
1
 70
0
  0
VERTEX
  8
0
 62
9
  6
CONTINUOUS
 10
179.7065820992
 20
115.8459578313
  0
VERTEX
  8
0
 62
9
  6
CONTINUOUS
 10
179.6969747357
 20
115.9424315614
  0
VERTEX
  8
0
 62
9
  6
CONTINUOUS
 10
179.6685218516
 20
116.0351978569
  0
VERTEX
  8
0
 62
9
  6
CONTINUOUS
 10
179.6223168781
 20
116.1206917585
  0
VERTEX
  8
0
 62
9
  6
CONTINUOUS
 10
179.56013545
 20
116.1956277825
  0
VERTEX
  8
0
 62
9
  6
CONTINUOUS
 10
179.4843671691
 20
116.2571261803
  0
VERTEX
  8
0
 62
9
  6
CONTINUOUS
 10
179.3979237718
 20
116.3028236059
  0
VERTEX
  8
0
 62
9
  6
CONTINUOUS
 10
179.3041272321
 20
116.3309639372
  0
VERTEX
  8
0
 62
9
  6
CONTINUOUS
 10
179.2065820992
 20
116.340465763
  0
SEQEND
  0
POLYLINE
  8
0
 62
7
  6
CONTINUOUS
 66
1
 70
0
  0
VERTEX
  8
0
 62
7
  6
CONTINUOUS
 10
179.7065814949
 20
122.1162530865
  0
VERTEX
  8
0
 62
7
  6
CONTINUOUS
 10
179.6965129646
 20
122.2252821223
  0
VERTEX
  8
0
 62
7
  6
CONTINUOUS
 10
179.6577403359
 20
122.3538060661
  0
VERTEX
  8
0
 62
7
  6
CONTINUOUS
 10
179.5955349395
 20
122.4669885142
  0
VERTEX
  8
0
 62
7
  6
CONTINUOUS
 10
179.5185020142
 20
122.5607628034
  0
VERTEX
  8
0
 62
7
  6
CONTINUOUS
 10
179.4334078394
 20
122.6367498674
  0
VERTEX
  8
0
 62
7
  6
CONTINUOUS
 10
179.3426465676
 20
122.6995621574
  0
VERTEX
  8
0
 62
7
  6
CONTINUOUS
 10
179.245509163
 20
122.7536181796
  0
VERTEX
  8
0
 62
7
  6
CONTINUOUS
 10
179.140074349
 20
122.802043891
  0
VERTEX
  8
0
 62
7
  6
CONTINUOUS
 10
179.0243536532
 20
122.8467643522
  0
VERTEX
  8
0
 62
7
  6
CONTINUOUS
 10
178.8959225126
 20
122.8891152629
  0
VERTEX
  8
0
 62
7
  6
CONTINUOUS
 10
178.7525653225
 20
122.9298537842
  0
VERTEX
  8
0
 62
7
  6
CONTINUOUS
 10
178.5923184183
 20
122.9693563353
  0
VERTEX
  8
0
 62
7
  6
CONTINUOUS
 10
178.4134609026
 20
123.0077557165
  0
VERTEX
  8
0
 62
7
  6
CONTINUOUS
 10
178.2144438261
 20
123.0450268606
  0
VERTEX
  8
0
 62
7
  6
CONTINUOUS
 10
177.9939440865
 20
123.0810201922
  0
VERTEX
  8
0
 62
7
  6
CONTINUOUS
 10
177.7508973174
 20
123.1154903377
  0
VERTEX
  8
0
 62
7
  6
CONTINUOUS
 10
177.4845119472
 20
123.1481156167
  0
VERTEX
  8
0
 62
7
  6
CONTINUOUS
 10
177.1940457648
 20
123.1785366767
  0
VERTEX
  8
0
 62
7
  6
CONTINUOUS
 10
176.8783534354
 20
123.2063864586
  0
VERTEX
  8
0
 62
7
  6
CONTINUOUS
 10
176.5364285589
 20
123.2312103459
  0
VERTEX
  8
0
 62
7
  6
CONTINUOUS
 10
176.1676200524
 20
123.2524519856
  0
VERTEX
  8
0
 62
7
  6
CONTINUOUS
 10
175.772214259
 20
123.2694377537
  0
VERTEX
  8
0
 62
7
  6
CONTINUOUS
 10
175.3520172842
 20
123.2814026581
  0
VERTEX
  8
0
 62
7
  6
CONTINUOUS
 10
174.9097901386
 20
123.2875661713
  0
VERTEX
  8
0
 62
7
  6
CONTINUOUS
 10
174.449253038
 20
123.2871584885
  0
VERTEX
  8
0
 62
7
  6
CONTINUOUS
 10
173.9750455775
 20
123.2794440603
  0
SEQEND
  0
LINE
  8
0
 62
9
  6
CONTINUOUS
 10
179.2065820992
 20
122.6102194331
 11
179.2065820992
 21
116.340465763
  0
LINE
  8
0
 62
7
  6
CONTINUOUS
 10
179.7065820992
 20
113.8237455755
 11
179.7065817994
 21
122.1162530869
  0
POLYLINE
  8
0
 62
9
  6
CONTINUOUS
 66
1
 70
0
  0
VERTEX
  8
0
 62
9
  6
CONTINUOUS
 10
179.2065820992
 20
116.340465763
  0
VERTEX
  8
0
 62
9
  6
CONTINUOUS
 10
179.1829996122
 20
116.2717040137
  0
VERTEX
  8
0
 62
9
  6
CONTINUOUS
 10
179.1125001401
 20
116.2036642063
  0
VERTEX
  8
0
 62
9
  6
CONTINUOUS
 10
178.9958805054
 20
116.1370850102
  0
VERTEX
  8
0
 62
9
  6
CONTINUOUS
 10
178.8344620588
 20
116.0726769754
  0
VERTEX
  8
0
 62
9
  6
CONTINUOUS
 10
178.6300537778
 20
116.0111180071
  0
VERTEX
  8
0
 62
9
  6
CONTINUOUS
 10
178.3849253298
 20
115.9530505126
  0
VERTEX
  8
0
 62
9
  6
CONTINUOUS
 10
178.1017770041
 20
115.8990751522
  0
VERTEX
  8
0
 62
9
  6
CONTINUOUS
 10
177.7836875652
 20
115.849742269
  0
VERTEX
  8
0
 62
9
  6
CONTINUOUS
 10
177.4340700761
 20
115.805547885
  0
VERTEX
  8
0
 62
9
  6
CONTINUOUS
 10
177.0566288704
 20
115.7669305283
  0
VERTEX
  8
0
 62
9
  6
CONTINUOUS
 10
176.6553140809
 20
115.734268411
  0
VERTEX
  8
0
 62
9
  6
CONTINUOUS
 10
176.2342794518
 20
115.7078775994
  0
VERTEX
  8
0
 62
9
  6
CONTINUOUS
 10
175.7978397639
 20
115.6880106058
  0
VERTEX
  8
0
 62
9
  6
CONTINUOUS
 10
175.3504189956
 20
115.6748553344
  0
VERTEX
  8
0
 62
9
  6
CONTINUOUS
 10
174.8965125854
 20
115.6685355499
  0
VERTEX
  8
0
 62
9
  6
CONTINUOUS
 10
174.4406954879
 20
115.6691112563
  0
VERTEX
  8
0
 62
9
  6
CONTINUOUS
 10
173.9876036557
 20
115.6765756866
  0
VERTEX
  8
0
 62
9
  6
CONTINUOUS
 10
173.5418963963
 20
115.6908521441
  0
SEQEND
  0
POLYLINE
  8
0
 62
9
  6
CONTINUOUS
 66
1
 70
0
  0
VERTEX
  8
0
 62
9
  6
CONTINUOUS
 10
179.7065820992
 20
115.8459578313
  0
VERTEX
  8
0
 62
9
  6
CONTINUOUS
 10
179.6803667099
 20
115.7771797943
  0
VERTEX
  8
0
 62
9
  6
CONTINUOUS
 10
179.6020251405
 20
115.7091423514
  0
VERTEX
  8
0
 62
9
  6
CONTINUOUS
 10
179.4724417952
 20
115.6425654637
  0
VERTEX
  8
0
 62
9
  6
CONTINUOUS
 10
179.2930855758
 20
115.5781598188
  0
VERTEX
  8
0
 62
9
  6
CONTINUOUS
 10
179.065966184
 20
115.5166031668
  0
VERTEX
  8
0
 62
9
  6
CONTINUOUS
 10
178.7936054335
 20
115.4585378758
  0
VERTEX
  8
0
 62
9
  6
CONTINUOUS
 10
178.4790034494
 20
115.4045645307
  0
VERTEX
  8
0
 62
9
  6
CONTINUOUS
 10
178.1255808396
 20
115.3552334158
  0
VERTEX
  8
0
 62
9
  6
CONTINUOUS
 10
177.7371295558
 20
115.3110404922
  0
VERTEX
  8
0
 62
9
  6
CONTINUOUS
 10
177.3177648586
 20
115.2724242149
  0
VERTEX
  8
0
 62
9
  6
CONTINUOUS
 10
176.8718752581
 20
115.2397627628
  0
VERTEX
  8
0
 62
9
  6
CONTINUOUS
 10
176.404075542
 20
115.2133721843
  0
VERTEX
  8
0
 62
9
  6
CONTINUOUS
 10
175.9191594208
 20
115.1935049836
  0
VERTEX
  8
0
 62
9
  6
CONTINUOUS
 10
175.4220419478
 20
115.1803490629
  0
VERTEX
  8
0
 62
9
  6
CONTINUOUS
 10
174.9177175633
 20
115.1740281953
  0
VERTEX
  8
0
 62
9
  6
CONTINUOUS
 10
174.4112690697
 20
115.1746024061
  0
VERTEX
  8
0
 62
9
  6
CONTINUOUS
 10
173.9078471399
 20
115.1820649167
  0
VERTEX
  8
0
 62
9
  6
CONTINUOUS
 10
173.4124868737
 20
115.1963442124
  0
SEQEND
  0
POLYLINE
  8
0
 62
9
  6
CONTINUOUS
 66
1
 70
0
  0
VERTEX
  8
0
 62
9
  6
CONTINUOUS
 10
179.7065820992
 20
113.8237455755
  0
VERTEX
  8
0
 62
9
  6
CONTINUOUS
 10
179.6803670408
 20
113.7549679845
  0
VERTEX
  8
0
 62
9
  6
CONTINUOUS
 10
179.6020258286
 20
113.6869305525
  0
VERTEX
  8
0
 62
9
  6
CONTINUOUS
 10
179.4724427788
 20
113.6203536368
  0
VERTEX
  8
0
 62
9
  6
CONTINUOUS
 10
179.2930868605
 20
113.5559479733
  0
VERTEX
  8
0
 62
9
  6
CONTINUOUS
 10
179.065967649
 20
113.4943912733
  0
VERTEX
  8
0
 62
9
  6
CONTINUOUS
 10
178.793607016
 20
113.4363259329
  0
VERTEX
  8
0
 62
9
  6
CONTINUOUS
 10
178.4790051296
 20
113.3823525444
  0
VERTEX
  8
0
 62
9
  6
CONTINUOUS
 10
178.1255825372
 20
113.3330213824
  0
VERTEX
  8
0
 62
9
  6
CONTINUOUS
 10
177.737131166
 20
113.2888284082
  0
VERTEX
  8
0
 62
9
  6
CONTINUOUS
 10
177.3177663004
 20
113.2502120828
  0
VERTEX
  8
0
 62
9
  6
CONTINUOUS
 10
176.8718764933
 20
113.2175505898
  0
VERTEX
  8
0
 62
9
  6
CONTINUOUS
 10
176.404076566
 20
113.1911599794
  0
VERTEX
  8
0
 62
9
  6
CONTINUOUS
 10
175.9191602006
 20
113.171292754
  0
VERTEX
  8
0
 62
9
  6
CONTINUOUS
 10
175.4220423558
 20
113.1581368135
  0
VERTEX
  8
0
 62
9
  6
CONTINUOUS
 10
174.9177174961
 20
113.1518159384
  0
VERTEX
  8
0
 62
9
  6
CONTINUOUS
 10
174.4112687428
 20
113.1523901489
  0
VERTEX
  8
0
 62
9
  6
CONTINUOUS
 10
173.9078469712
 20
113.1598526656
  0
VERTEX
  8
0
 62
9
  6
CONTINUOUS
 10
173.4124868737
 20
113.1741319567
  0
SEQEND
  0
ARC
  8
0
 62
7
  6
CONTINUOUS
 10
45.3873377692
 20
117.4197285385
 40
0.5
 50
90.0
 51
180.0
  0
ARC
  8
0
 62
7
  6
CONTINUOUS
 10
78.5873377692
 20
118.5197285385
 40
0.5
 50
270.0
 51
360.0
  0
ARC
  8
0
 62
7
  6
CONTINUOUS
 10
36.5113886636
 20
115.1734285622
 40
0.5
 50
98.4999999998
 51
179.9999932492
  0
ARC
  8
0
 62
7
  6
CONTINUOUS
 10
87.4632868571
 20
122.7882407678
 40
0.5
 50
359.9999931734
 51
98.5
  0
ARC
  8
0
 62
7
  6
CONTINUOUS
 10
87.4632869355
 20
120.7660285238
 40
0.5
 50
278.4999999997
 51
359.9999935075
  0
ARC
  8
0
 62
7
  6
CONTINUOUS
 10
36.5113886944
 20
113.1512163111
 40
0.5
 50
179.9999931177
 51
278.5
  0
ARC
  8
0
 62
7
  6
CONTINUOUS
 10
51.4723377692
 20
117.4197285385
 40
0.5
 50
87.6580759809
 51
90.0
  0
ARC
  8
0
 62
7
  6
CONTINUOUS
 10
72.5023377692
 20
118.5197285385
 40
0.5
 50
267.6580759809
 51
270.0
  0
ARC
  8
0
 62
7
  6
CONTINUOUS
 10
51.3873386696
 20
114.5655570286
 40
0.3000003376
 50
98.5001738653
 51
180.0000256989
  0
ARC
  8
0
 62
7
  6
CONTINUOUS
 10
48.2873377692
 20
114.1022587898
 40
0.3
 50
0.0
 51
98.5
  0
ARC
  8
0
 62
7
  6
CONTINUOUS
 10
72.5873377692
 20
121.3739001829
 40
0.3
 50
278.5
 51
0.0000256989
  0
ARC
  8
0
 62
7
  6
CONTINUOUS
 10
75.6873377692
 20
121.8371982871
 40
0.3
 50
180.0
 51
278.5
  0
ARC
  8
0
 62
7
  6
CONTINUOUS
 10
49.2873377692
 20
169.7288978887
 40
4.4
 50
101.5592927885
 51
322.2814627975
  0
CIRCLE
  8
0
 62
7
  6
CONTINUOUS
 10
49.2873377692
 20
169.7288978887
 40
2.6
  0
ARC
  8
0
 62
7
  6
CONTINUOUS
 10
46.9468270799
 20
174.5953144053
 40
1.0
 50
295.6853011765
 51
15.0
  0
ARC
  8
0
 62
7
  6
CONTINUOUS
 10
48.2873377715
 20
174.3212828923
 40
0.2999999991
 50
282.2844933297
 51
359.9999995484
  0
ARC
  8
0
 62
7
  6
CONTINUOUS
 10
52.3723377692
 20
167.342944201
 40
0.5
 50
322.2814627974
 51
360.0
  0
ARC
  8
0
 62
7
  6
CONTINUOUS
 10
52.8723377692
 20
173.6288978887
 40
0.9
 50
180.0000000001
 51
221.8
  0
ARC
  8
CURVE
 62
40
  6
CONTINUOUS
 10
52.8723377692
 20
173.6288978887
 40
0.9
 50
90.0
 51
177.1220338983
  0
ARC
  8
0
 62
7
  6
CONTINUOUS
 10
52.5723377692
 20
174.5288978887
 40
0.6
 50
90.0
 51
180.0
  0
ARC
  8
0
 62
7
  6
CONTINUOUS
 10
51.4723377692
 20
173.6288978887
 40
0.5
 50
0.0
 51
90.0
  0
ARC
  8
0
 62
7
  6
CONTINUOUS
 10
52.3723377692
 20
172.0876946525
 40
0.5
 50
0.0
 51
41.8
  0
ARC
  8
0
 62
7
  6
CONTINUOUS
 10
51.3873377692
 20
174.4288978887
 40
0.3
 50
180.0
 51
270.0
  0
ARC
  8
0
 62
7
  6
CONTINUOUS
 10
41.011387078
 20
219.9288978887
 40
5.0
 50
90.0
 51
195.0
  0
ARC
  8
0
 62
7
  6
CONTINUOUS
 10
74.6873377692
 20
169.7288978887
 40
4.4
 50
217.7185372025
 51
66.7975065208
  0
CIRCLE
  8
0
 62
7
  6
CONTINUOUS
 10
74.6873377692
 20
169.7288978887
 40
2.6
  0
ARC
  8
0
 62
7
  6
CONTINUOUS
 10
77.0278484586
 20
174.5953144053
 40
1.0
 50
165.0
 51
244.3147008968
  0
ARC
  8
0
 62
7
  6
CONTINUOUS
 10
71.1023377692
 20
173.6288978887
 40
0.9
 50
318.2
 51
360.0
  0
ARC
  8
CURVE
 62
40
  6
CONTINUOUS
 10
71.1023377692
 20
173.6288978887
 40
0.9
 50
318.2
 51
90.0
  0
ARC
  8
0
 62
7
  6
CONTINUOUS
 10
71.4023377692
 20
174.5288978887
 40
0.6
 50
0.0
 51
90.0
  0
ARC
  8
0
 62
7
  6
CONTINUOUS
 10
71.6023377692
 20
172.0876946525
 40
0.5
 50
138.2
 51
180.0
  0
ARC
  8
0
 62
7
  6
CONTINUOUS
 10
71.6023377692
 20
167.342944201
 40
0.5
 50
180.0
 51
217.7185372025
  0
ARC
  8
0
 62
7
  6
CONTINUOUS
 10
82.9632884605
 20
219.9288978887
 40
5.0
 50
345.0
 51
90.0
  0
ARC
  8
0
 62
7
  6
CONTINUOUS
 10
120.6065820992
 20
117.4197285385
 40
0.5
 50
90.0
 51
180.0
  0
ARC
  8
0
 62
7
  6
CONTINUOUS
 10
120.6065834331
 20
114.4113445684
 40
0.5
 50
180.0000160106
 51
255.0000000021
  0
ARC
  8
0
 62
7
  6
CONTINUOUS
 10
128.6027507293
 20
112.2687779989
 40
0.5
 50
255.0001089994
 51
319.0069549303
  0
ARC
  8
0
 62
7
  6
CONTINUOUS
 10
120.6065820992
 20
118.5197285385
 40
0.5
 50
180.0
 51
270.0
  0
ARC
  8
0
 62
7
  6
CONTINUOUS
 10
120.6065834524
 20
121.5281125137
 40
0.5
 50
104.9999999986
 51
179.9999837571
  0
ARC
  8
0
 62
7
  6
CONTINUOUS
 10
128.4065820992
 20
123.618115852
 40
0.5
 50
0.0
 51
105.0002087218
  0
ARC
  8
0
 62
7
  6
CONTINUOUS
 10
128.6027507293
 20
123.6706790781
 40
0.5
 50
40.9930450807
 51
104.9998910006
  0
ARC
  8
0
 62
9
  6
CONTINUOUS
 10
137.3661637814
 20
103.3588250751
 40
12.5
 50
120.7413077729
 51
131.4048787008
  0
ARC
  8
0
 62
7
  6
CONTINUOUS
 10
137.3661637814
 20
103.3588250751
 40
12.0
 50
113.949104314
 51
134.2478844451
  0
ARC
  8
0
 62
7
  6
CONTINUOUS
 10
129.2065820992
 20
111.7440075
 40
0.2999990997
 50
134.2192444465
 51
139.0069551786
  0
ARC
  8
0
 62
9
  6
CONTINUOUS
 10
137.3661637814
 20
132.5806320018
 40
12.5
 50
229.2494870869
 51
243.7058516796
  0
ARC
  8
0
 62
7
  6
CONTINUOUS
 10
137.3661637814
 20
132.5806320018
 40
12.0
 50
225.7812124407
 51
251.3735205286
  0
ARC
  8
0
 62
7
  6
CONTINUOUS
 10
129.2065820992
 20
124.195449577
 40
0.2999990997
 50
220.9925506321
 51
225.7807555535
  0
ENDSEC
  0
EOF
