  0
SECTION
  2
HEADER
  9
$EXTMAX
 10
210.0
 20
297.0
 30
0.0
  9
$EXTMIN
 10
0.0
 20
0.0
 30
0.0
  9
$LIMMIN
 10
0.0
 20
0.0
  9
$LIMMAX
 10
210.0
 20
297.0
  9
$VIEWCTR
 10
105.0
 20
148.5
  9
$VIEWSIZE
 40
297.0
  9
$CLAYER
  8
0
  9
$LTSCALE
 40
19.36
  9
$CELTYPE
  6
BYLAYER
  9
$DIMSCALE
 40
1.0
  9
$DIMASZ
 40
3.5
  9
$DIMEXO
 40
2.2
  9
$DIMDLI
 40
13.376
  9
$DIMEXE
 40
6.336
  9
$DIMCEN
 40
3.168
  9
$DIMLFAC
 40
1.0
  9
$DIMBLK
  1
_FILLED
  9
$DIMTXT
 40
3.5
  9
$PDMODE
 70
3
  9
$PDSIZE
 40
0.3125
  9
$TILEMODE
 70
1
  0
ENDSEC
  0
SECTION
  2
TABLES
  0
TABLE
  2
LTYPE
 70
6
  0
LTYPE
  2
BYBLOCK
 70
0
  3

 72
65
 73
0
 40
0.0
  0
LTYPE
  2
BYLAYER
 70
0
  3

 72
65
 73
0
 40
0.0
  0
LTYPE
  2
CONTINUOUS
 70
64
  3
Solid line
 72
65
 73
0
 40
0.0
  0
LTYPE
  2
CENTER
 70
64
  3
____ _ ____ _ ____ _ ____ _ ____ _ ____ _ ____
 72
65
 73
4
 40
0.6
 49
0.375
 49
-0.075
 49
0.075
 49
-0.075
  0
LTYPE
  2
HIDDEN
 70
64
  3
- - - - - - - - - - - - - - - - - - - -
 72
65
 73
2
 40
0.2
 49
0.1
 49
-0.1
  0
LTYPE
  2
PHANTOM
 70
64
  3
_____ _ _ _____ _ _ _____ _ _ _____
 72
65
 73
6
 40
0.8
 49
0.45
 49
-0.05
 49
0.1
 49
-0.05
 49
0.1
 49
-0.05
  0
LTYPE
  2
DOT
 70
64
  3
. . . . . . . . . . . . . . . . . . . .
 72
65
 73
2
 40
0.2
 49
0.1
 49
-0.1
  0
LTYPE
  2
DASHED
 70
64
  3
- - - - - - - - - - - - - - - - - - - -
 72
65
 73
2
 40
0.2
 49
0.1
 49
-0.1
  0
ENDTAB
  0
TABLE
  2
LAYER
 70
36
  0
LAYER
  2
0
 70
0
 62
7
  6
CONTINUOUS
  0
LAYER
  2
DEFAULT_1
 70
0
 62
7
  6
CENTER
  0
LAYER
  2
DEFAULT_2
 70
0
 62
8
  6
HIDDEN
  0
LAYER
  2
DEFAULT_3
 70
0
 62
7
  6
PHANTOM
  0
LAYER
  2
AXES
 70
0
 62
7
  6
CONTINUOUS
  0
LAYER
  2
CSYS
 70
0
 62
7
  6
CONTINUOUS
  0
LAYER
  2
CURVE
 70
0
 62
7
  6
CONTINUOUS
  0
LAYER
  2
CURVES
 70
0
 62
7
  6
CONTINUOUS
  0
LAYER
  2
PLANES
 70
0
 62
7
  6
CONTINUOUS
  0
LAYER
  2
SURFACE
 70
0
 62
7
  6
CONTINUOUS
  0
ENDTAB
  0
TABLE
  2
STYLE
 70
1
  0
STYLE
  2
STANDARD
 70
0
 40
0.0
 41
0.8
 50
0.0
 71
0
 42
0.2
  3
txt
  4

  0
STYLE
  2
TEXTSTYLE_1
 70
0
 40
0.0
 41
0.8
 50
0.0
 71
0
 42
0.2
  3
gdt
  4

  0
STYLE
  2
TEXTSTYLE_2
 70
0
 40
0.0
 41
0.6
 50
0.0
 71
0
 42
0.2
  3
txt
  4

  0
STYLE
  2
TEXTSTYLE_3
 70
0
 40
0.0
 41
1.0
 50
0.0
 71
0
 42
0.2
  3
ftb_____.ttf
  4

  0
STYLE
  2
TEXTSTYLE_4
 70
0
 40
0.0
 41
1.0
 50
0.0
 71
0
 42
0.2
  3
fti_____.ttf
  4

  0
STYLE
  2
TEXTSTYLE_5
 70
0
 40
0.0
 41
1.0
 50
0.0
 71
0
 42
0.2
  3
frutiger light.ttf
  4

  0
STYLE
  2
TEXTSTYLE_6
 70
0
 40
0.0
 41
0.7
 50
0.0
 71
0
 42
0.2
  3
txt
  4

  0
STYLE
  2
TEXTSTYLE_7
 70
0
 40
0.0
 41
0.45
 50
0.0
 71
0
 42
0.2
  3
txt
  4

  0
ENDTAB
  0
ENDSEC
  0
SECTION
  2
BLOCKS
  0
BLOCK
  8
0
 62
2
  6
CONTINUOUS
  2
SYMBOL_8_BL1
 70
64
 10
173.5956734183
 20
35.5937998301
  0
TEXT
  8
0
 62
7
  6
CONTINUOUS
 10
164.6539584268
 20
30.6865562072
  7
TEXTSTYLE_4
 40
1.0655737705
  1
The brand for plastic modular belts and chains
 41
1.0
 72
0
  0
LINE
  8
0
 62
7
  6
CONTINUOUS
 10
149.5737418074
 20
36.1675703219
 11
149.5737418074
 21
34.0364227809
  0
LINE
  8
0
 62
7
  6
CONTINUOUS
 10
149.8628043005
 20
31.0454914852
 11
149.8628043005
 21
31.1422825445
  0
LINE
  8
0
 62
7
  6
CONTINUOUS
 10
149.5737418074
 20
31.1100188581
 11
149.6315543091
 21
30.9164367395
  0
LINE
  8
0
 62
7
  6
CONTINUOUS
 10
150.9671844304
 20
33.9544555678
 11
150.9671844304
 21
36.1675703219
  0
LINE
  8
0
 62
7
  6
CONTINUOUS
 10
151.8862417523
 20
32.1101932727
 11
151.8862417523
 21
30.5937998301
  0
LINE
  8
0
 62
7
  6
CONTINUOUS
 10
152.1753043074
 20
30.5937998301
 11
152.1753043074
 21
31.3358647082
  0
LINE
  8
0
 62
7
  6
CONTINUOUS
 10
152.1753043074
 20
31.4649194539
 11
152.1753043074
 21
32.1101932727
  0
LINE
  8
0
 62
7
  6
CONTINUOUS
 10
149.6315543091
 20
31.3036010218
 11
149.5737418074
 21
31.1100188581
  0
LINE
  8
0
 62
7
  6
CONTINUOUS
 10
149.9784292936
 20
30.8841730531
 11
149.8628043005
 21
31.0454914852
  0
LINE
  8
0
 62
7
  6
CONTINUOUS
 10
151.0768668626
 20
31.400392081
 11
151.1346793074
 21
31.3036010218
  0
LINE
  8
0
 62
7
  6
CONTINUOUS
 10
151.4237418626
 20
31.3036010218
 11
151.3659292523
 21
31.4326557675
  0
LINE
  8
0
 62
7
  6
CONTINUOUS
 10
152.852430332
 20
36.1675703219
 11
152.852430332
 21
34.3642916334
  0
LINE
  8
0
 62
7
  6
CONTINUOUS
 10
152.852430332
 20
33.0528162235
 11
152.852430332
 21
32.3970785186
  0
LINE
  8
0
 62
7
  6
CONTINUOUS
 10
153.2159293074
 20
31.2390736489
 11
153.2159293074
 21
30.5937998301
  0
LINE
  8
0
 62
7
  6
CONTINUOUS
 10
153.5049916972
 20
30.5937998301
 11
153.5049916972
 21
31.2390736489
  0
LINE
  8
0
 62
7
  6
CONTINUOUS
 10
149.8628043005
 20
31.1422825445
 11
149.9206168074
 21
31.2713373354
  0
LINE
  8
0
 62
7
  6
CONTINUOUS
 10
149.6315543091
 20
30.9164367395
 11
149.7471793074
 21
30.7873819712
  0
LINE
  8
0
 62
7
  6
CONTINUOUS
 10
153.1581166972
 20
31.3681283946
 11
153.2159293074
 21
31.2390736489
  0
LINE
  8
0
 62
7
  6
CONTINUOUS
 10
153.9674919177
 20
30.8841730531
 11
154.0253041972
 21
30.7551182848
  0
LINE
  8
0
 62
7
  6
CONTINUOUS
 10
153.5049916972
 20
31.2390736489
 11
153.4471794177
 21
31.400392081
  0
LINE
  8
0
 62
7
  6
CONTINUOUS
 10
153.9674919177
 20
31.4326557675
 11
153.9674919177
 21
31.3681283946
  0
LINE
  8
0
 62
7
  6
CONTINUOUS
 10
153.9674919177
 20
30.9809641124
 11
153.9674919177
 21
30.8841730531
  0
LINE
  8
0
 62
7
  6
CONTINUOUS
 10
154.245872955
 20
32.3970785186
 11
154.245872955
 21
36.1675703219
  0
LINE
  8
0
 62
7
  6
CONTINUOUS
 10
154.2565543074
 20
30.8519093441
 11
154.2565543074
 21
30.9164367395
  0
LINE
  8
0
 62
7
  6
CONTINUOUS
 10
154.5737418074
 20
36.1675703219
 11
154.5737418074
 21
32.3970785186
  0
LINE
  8
0
 62
7
  6
CONTINUOUS
 10
151.3659292523
 20
30.7873819712
 11
151.4237418626
 21
30.9164367395
  0
LINE
  8
0
 62
7
  6
CONTINUOUS
 10
155.759679528
 20
30.6905909007
 11
155.7018665869
 21
30.8519093441
  0
LINE
  8
0
 62
7
  6
CONTINUOUS
 10
155.412804528
 20
31.3681283946
 11
155.412804528
 21
31.2713373354
  0
LINE
  8
0
 62
7
  6
CONTINUOUS
 10
155.412804528
 20
31.1422825445
 11
155.412804528
 21
30.9487004259
  0
LINE
  8
0
 62
7
  6
CONTINUOUS
 10
155.7018665869
 20
30.8519093441
 11
155.7018665869
 21
31.3681283946
  0
LINE
  8
0
 62
7
  6
CONTINUOUS
 10
155.9671844304
 20
32.3970785186
 11
155.9671844304
 21
34.2003572071
  0
LINE
  8
0
 62
7
  6
CONTINUOUS
 10
155.9671844304
 20
35.511832617
 11
155.9671844304
 21
36.1675703219
  0
LINE
  8
0
 62
7
  6
CONTINUOUS
 10
156.279992028
 20
32.1101932727
 11
156.279992028
 21
31.9488748406
  0
LINE
  8
0
 62
7
  6
CONTINUOUS
 10
156.279992028
 20
31.626237886
 11
156.279992028
 21
30.5937998301
  0
LINE
  8
0
 62
7
  6
CONTINUOUS
 10
156.5690540869
 20
30.5937998301
 11
156.5690540869
 21
31.626237886
  0
LINE
  8
0
 62
7
  6
CONTINUOUS
 10
156.5690540869
 20
31.9488748406
 11
156.5690540869
 21
32.1101932727
  0
LINE
  8
0
 62
7
  6
CONTINUOUS
 10
151.1346793074
 20
30.9164367395
 11
151.0768668626
 21
30.8196456577
  0
LINE
  8
0
 62
7
  6
CONTINUOUS
 10
153.4471794177
 20
31.400392081
 11
153.3893668074
 21
31.4649194539
  0
LINE
  8
0
 62
7
  6
CONTINUOUS
 10
154.3143669177
 20
30.7873819712
 11
154.2565543074
 21
30.8519093441
  0
LINE
  8
0
 62
7
  6
CONTINUOUS
 10
155.4706168074
 20
30.6583272086
 11
155.5284290869
 21
30.5937998301
  0
LINE
  8
0
 62
7
  6
CONTINUOUS
 10
155.412804528
 20
30.7551182848
 11
155.4706168074
 21
30.6583272086
  0
LINE
  8
0
 62
7
  6
CONTINUOUS
 10
155.8174918074
 20
30.5937998301
 11
155.759679528
 21
30.6905909007
  0
LINE
  8
0
 62
7
  6
CONTINUOUS
 10
155.7018665869
 20
31.3681283946
 11
155.6440543074
 21
31.4649194539
  0
LINE
  8
0
 62
7
  6
CONTINUOUS
 10
157.0315543074
 20
31.626237886
 11
157.0315543074
 21
30.5937998301
  0
LINE
  8
0
 62
7
  6
CONTINUOUS
 10
157.320617028
 20
30.5937998301
 11
157.320617028
 21
31.3358647082
  0
LINE
  8
0
 62
7
  6
CONTINUOUS
 10
157.320617028
 20
31.4649194539
 11
157.320617028
 21
31.626237886
  0
LINE
  8
0
 62
7
  6
CONTINUOUS
 10
157.852430332
 20
34.6101932727
 11
157.852430332
 21
32.3970785186
  0
LINE
  8
0
 62
7
  6
CONTINUOUS
 10
149.7471793074
 20
31.4326557675
 11
149.6315543091
 21
31.3036010218
  0
LINE
  8
0
 62
7
  6
CONTINUOUS
 10
149.9206168074
 20
31.2713373354
 11
149.9784292936
 21
31.3358647082
  0
LINE
  8
0
 62
7
  6
CONTINUOUS
 10
149.7471793074
 20
30.7873819712
 11
149.8628043005
 21
30.7228545871
  0
LINE
  8
0
 62
7
  6
CONTINUOUS
 10
150.1518667936
 20
30.7873819712
 11
149.9784292936
 21
30.8841730531
  0
LINE
  8
0
 62
7
  6
CONTINUOUS
 10
155.3549915869
 20
31.4326557675
 11
155.412804528
 21
31.3681283946
  0
LINE
  8
0
 62
7
  6
CONTINUOUS
 10
158.3034290869
 20
31.3681283946
 11
158.361242028
 21
31.2068099625
  0
LINE
  8
0
 62
7
  6
CONTINUOUS
 10
158.6503040869
 20
31.2068099625
 11
158.5924918074
 21
31.3681283946
  0
LINE
  8
0
 62
7
  6
CONTINUOUS
 10
158.361242028
 20
31.2068099625
 11
158.361242028
 21
30.5937998301
  0
LINE
  8
0
 62
7
  6
CONTINUOUS
 10
158.6503040869
 20
30.5937998301
 11
158.6503040869
 21
31.2068099625
  0
LINE
  8
0
 62
7
  6
CONTINUOUS
 10
159.1128043074
 20
31.4326557675
 11
159.1128043074
 21
31.3681283946
  0
LINE
  8
0
 62
7
  6
CONTINUOUS
 10
159.245872955
 20
32.3970785186
 11
159.245872955
 21
34.5282260596
  0
LINE
  8
0
 62
7
  6
CONTINUOUS
 10
159.5737418074
 20
36.1675703219
 11
159.5737418074
 21
32.3970785186
  0
LINE
  8
0
 62
7
  6
CONTINUOUS
 10
154.2565543074
 20
30.9164367395
 11
154.3143669177
 21
31.0132277988
  0
LINE
  8
0
 62
7
  6
CONTINUOUS
 10
149.8628043005
 20
30.7228545871
 11
150.0362418212
 21
30.6583272086
  0
LINE
  8
0
 62
7
  6
CONTINUOUS
 10
151.3659292523
 20
31.4326557675
 11
151.1924917523
 21
31.5294468267
  0
LINE
  8
0
 62
7
  6
CONTINUOUS
 10
154.0253041972
 20
30.7551182848
 11
154.1987416972
 21
30.6583272086
  0
LINE
  8
0
 62
7
  6
CONTINUOUS
 10
153.0424918074
 20
31.4326557675
 11
153.1581166972
 21
31.3681283946
  0
LINE
  8
0
 62
7
  6
CONTINUOUS
 10
153.3893668074
 20
31.4649194539
 11
153.2737419177
 21
31.5294468267
  0
LINE
  8
0
 62
7
  6
CONTINUOUS
 10
159.1128043074
 20
30.8519093441
 11
159.228429528
 21
30.7228545871
  0
LINE
  8
0
 62
7
  6
CONTINUOUS
 10
159.4596793074
 20
30.7873819712
 11
159.401867028
 21
30.8519093441
  0
LINE
  8
0
 62
7
  6
CONTINUOUS
 10
159.1128043074
 20
31.3681283946
 11
159.228429528
 21
31.2390736489
  0
LINE
  8
0
 62
7
  6
CONTINUOUS
 10
158.5924918074
 20
31.3681283946
 11
158.534679528
 21
31.4649194539
  0
LINE
  8
0
 62
7
  6
CONTINUOUS
 10
160.9628038663
 20
30.7873819712
 11
160.9628038663
 21
30.8519093441
  0
LINE
  8
0
 62
7
  6
CONTINUOUS
 10
160.9671844304
 20
32.3970785186
 11
160.9671844304
 21
36.1675703219
  0
LINE
  8
0
 62
7
  6
CONTINUOUS
 10
154.0253041972
 20
31.4971831403
 11
153.9674919177
 21
31.4326557675
  0
LINE
  8
0
 62
7
  6
CONTINUOUS
 10
150.9034292799
 20
31.4649194539
 11
151.0768668626
 21
31.400392081
  0
LINE
  8
0
 62
7
  6
CONTINUOUS
 10
155.6440543074
 20
31.4649194539
 11
155.5284290869
 21
31.5294468267
  0
LINE
  8
0
 62
7
  6
CONTINUOUS
 10
159.4596793074
 20
31.3036010218
 11
159.401867028
 21
31.3681283946
  0
LINE
  8
0
 62
7
  6
CONTINUOUS
 10
160.615929528
 20
30.9164367395
 11
160.6737418074
 21
30.8519093441
  0
LINE
  8
0
 62
7
  6
CONTINUOUS
 10
160.9628038663
 20
30.8519093441
 11
160.8471793074
 21
30.9809641124
  0
LINE
  8
0
 62
7
  6
CONTINUOUS
 10
160.615929528
 20
31.4326557675
 11
160.6737418074
 21
31.3681283946
  0
LINE
  8
0
 62
7
  6
CONTINUOUS
 10
160.9628038663
 20
31.3681283946
 11
160.8471793074
 21
31.4971831403
  0
LINE
  8
0
 62
7
  6
CONTINUOUS
 10
154.2565543074
 20
31.3681283946
 11
154.3143669177
 21
31.4326557675
  0
LINE
  8
0
 62
7
  6
CONTINUOUS
 10
154.0831168074
 20
31.1100188581
 11
153.9674919177
 21
30.9809641124
  0
LINE
  8
0
 62
7
  6
CONTINUOUS
 10
155.412804528
 20
30.9487004259
 11
155.3549915869
 21
30.8841730531
  0
LINE
  8
0
 62
7
  6
CONTINUOUS
 10
155.3549915869
 20
30.6905909007
 11
155.412804528
 21
30.7551182848
  0
LINE
  8
0
 62
7
  6
CONTINUOUS
 10
154.1987416972
 20
30.6583272086
 11
154.3143669177
 21
30.6260635193
  0
LINE
  8
0
 62
7
  6
CONTINUOUS
 10
151.1924917523
 20
31.5294468267
 11
150.9612418074
 21
31.5939741996
  0
LINE
  8
0
 62
7
  6
CONTINUOUS
 10
154.5456166972
 20
30.7228545871
 11
154.3143669177
 21
30.7873819712
  0
LINE
  8
0
 62
7
  6
CONTINUOUS
 10
153.2737419177
 20
31.5294468267
 11
153.1003044177
 21
31.5939741996
  0
LINE
  8
0
 62
7
  6
CONTINUOUS
 10
155.5284290869
 20
31.5294468267
 11
155.3549915869
 21
31.5939741996
  0
LINE
  8
0
 62
7
  6
CONTINUOUS
 10
158.187804528
 20
31.4326557675
 11
158.3034290869
 21
31.3681283946
  0
LINE
  8
0
 62
7
  6
CONTINUOUS
 10
158.534679528
 20
31.4649194539
 11
158.4190543074
 21
31.5294468267
  0
LINE
  8
0
 62
7
  6
CONTINUOUS
 10
150.0362418212
 20
30.6583272086
 11
150.2096793212
 21
30.6260635193
  0
LINE
  8
0
 62
7
  6
CONTINUOUS
 10
150.498741835
 20
30.7228545871
 11
150.1518667936
 21
30.7873819712
  0
LINE
  8
0
 62
7
  6
CONTINUOUS
 10
152.9268669177
 20
31.4649194539
 11
153.0424918074
 21
31.4326557675
  0
LINE
  8
0
 62
7
  6
CONTINUOUS
 10
155.239367028
 20
31.4649194539
 11
155.3549915869
 21
31.4326557675
  0
LINE
  8
0
 62
7
  6
CONTINUOUS
 10
159.575304528
 20
30.7551182848
 11
159.4596793074
 21
30.7873819712
  0
LINE
  8
0
 62
7
  6
CONTINUOUS
 10
158.0721793074
 20
31.4649194539
 11
158.187804528
 21
31.4326557675
  0
LINE
  8
0
 62
7
  6
CONTINUOUS
 10
159.228429528
 20
30.7228545871
 11
159.401867028
 21
30.6583272086
  0
LINE
  8
0
 62
7
  6
CONTINUOUS
 10
158.4190543074
 20
31.5294468267
 11
158.2456168074
 21
31.5939741996
  0
LINE
  8
0
 62
7
  6
CONTINUOUS
 10
159.6331168074
 20
31.2390736489
 11
159.4596793074
 21
31.3036010218
  0
LINE
  8
0
 62
7
  6
CONTINUOUS
 10
160.442492028
 20
30.9809641124
 11
160.615929528
 21
30.9164367395
  0
LINE
  8
0
 62
7
  6
CONTINUOUS
 10
160.8471793074
 20
31.4971831403
 11
160.6737418074
 21
31.5617105132
  0
LINE
  8
0
 62
7
  6
CONTINUOUS
 10
159.228429528
 20
31.2390736489
 11
159.4596793074
 21
31.1422825445
  0
LINE
  8
0
 62
7
  6
CONTINUOUS
 10
160.8471793074
 20
30.9809641124
 11
160.615929528
 21
31.0777551716
  0
LINE
  8
0
 62
7
  6
CONTINUOUS
 10
159.401867028
 20
31.3681283946
 11
159.4596793074
 21
31.4326557675
  0
LINE
  8
0
 62
7
  6
CONTINUOUS
 10
149.8628043005
 20
31.4971831403
 11
149.7471793074
 21
31.4326557675
  0
LINE
  8
0
 62
7
  6
CONTINUOUS
 10
149.9784292936
 20
31.3358647082
 11
150.1518667936
 21
31.4326557675
  0
LINE
  8
0
 62
7
  6
CONTINUOUS
 10
152.2909293626
 20
31.5294468267
 11
152.1753043074
 21
31.4649194539
  0
LINE
  8
0
 62
7
  6
CONTINUOUS
 10
152.1753043074
 20
31.3358647082
 11
152.2909293626
 21
31.400392081
  0
LINE
  8
0
 62
7
  6
CONTINUOUS
 10
151.1924917523
 20
30.6905909007
 11
151.3659292523
 21
30.7873819712
  0
LINE
  8
0
 62
7
  6
CONTINUOUS
 10
150.2096793212
 20
30.6260635193
 11
150.5565542799
 21
30.5937998301
  0
LINE
  8
0
 62
7
  6
CONTINUOUS
 10
154.3143669177
 20
30.6260635193
 11
154.5456166972
 21
30.5937998301
  0
LINE
  8
0
 62
7
  6
CONTINUOUS
 10
152.6956168074
 20
31.4971831403
 11
152.9268669177
 21
31.4649194539
  0
LINE
  8
0
 62
7
  6
CONTINUOUS
 10
155.0081169177
 20
31.4971831403
 11
155.239367028
 21
31.4649194539
  0
LINE
  8
0
 62
7
  6
CONTINUOUS
 10
159.4596793074
 20
31.1422825445
 11
160.442492028
 21
30.9809641124
  0
LINE
  8
0
 62
7
  6
CONTINUOUS
 10
160.615929528
 20
31.0777551716
 11
159.6331168074
 21
31.2390736489
  0
LINE
  8
0
 62
7
  6
CONTINUOUS
 10
153.1003044177
 20
31.5939741996
 11
152.9268669177
 21
31.626237886
  0
LINE
  8
0
 62
7
  6
CONTINUOUS
 10
159.401867028
 20
30.6583272086
 11
159.575304528
 21
30.6260635193
  0
LINE
  8
0
 62
7
  6
CONTINUOUS
 10
158.2456168074
 20
31.5939741996
 11
158.0721793074
 21
31.626237886
  0
LINE
  8
0
 62
7
  6
CONTINUOUS
 10
160.5003043074
 20
31.4649194539
 11
160.615929528
 21
31.4326557675
  0
LINE
  8
0
 62
7
  6
CONTINUOUS
 10
160.6737418074
 20
30.8519093441
 11
160.615929528
 21
30.7873819712
  0
LINE
  8
0
 62
7
  6
CONTINUOUS
 10
159.228429528
 20
31.5294468267
 11
159.1128043074
 21
31.4326557675
  0
LINE
  8
0
 62
7
  6
CONTINUOUS
 10
154.1409294177
 20
31.5617105132
 11
154.0253041972
 21
31.4971831403
  0
LINE
  8
0
 62
7
  6
CONTINUOUS
 10
154.1987416972
 20
31.1745462761
 11
154.0831168074
 21
31.1100188581
  0
LINE
  8
0
 62
7
  6
CONTINUOUS
 10
154.3143669177
 20
31.0132277988
 11
154.4299918074
 21
31.0777551716
  0
LINE
  8
0
 62
7
  6
CONTINUOUS
 10
151.8862417523
 20
30.5937998301
 11
152.1753043074
 21
30.5937998301
  0
LINE
  8
0
 62
7
  6
CONTINUOUS
 10
153.2159293074
 20
30.5937998301
 11
153.5049916972
 21
30.5937998301
  0
LINE
  8
0
 62
7
  6
CONTINUOUS
 10
154.5456166972
 20
30.5937998301
 11
154.8924916972
 21
30.5937998301
  0
LINE
  8
0
 62
7
  6
CONTINUOUS
 10
155.5284290869
 20
30.5937998301
 11
155.8174918074
 21
30.5937998301
  0
LINE
  8
0
 62
7
  6
CONTINUOUS
 10
156.279992028
 20
30.5937998301
 11
156.5690540869
 21
30.5937998301
  0
LINE
  8
0
 62
7
  6
CONTINUOUS
 10
157.0315543074
 20
30.5937998301
 11
157.320617028
 21
30.5937998301
  0
LINE
  8
0
 62
7
  6
CONTINUOUS
 10
158.361242028
 20
30.5937998301
 11
158.6503040869
 21
30.5937998301
  0
LINE
  8
0
 62
7
  6
CONTINUOUS
 10
159.922179528
 20
30.5937998301
 11
160.269054528
 21
30.5937998301
  0
LINE
  8
0
 62
7
  6
CONTINUOUS
 10
160.269054528
 20
30.7228545871
 11
159.922179528
 21
30.7228545871
  0
LINE
  8
0
 62
7
  6
CONTINUOUS
 10
154.8924916972
 20
30.7228545871
 11
154.5456166972
 21
30.7228545871
  0
LINE
  8
0
 62
7
  6
CONTINUOUS
 10
159.401867028
 20
30.8519093441
 11
159.1128043074
 21
30.8519093441
  0
LINE
  8
0
 62
7
  6
CONTINUOUS
 10
151.4237418626
 20
30.9164367395
 11
151.1346793074
 21
30.9164367395
  0
LINE
  8
0
 62
7
  6
CONTINUOUS
 10
150.498741835
 20
31.4971831403
 11
150.9034292799
 21
31.4649194539
  0
LINE
  8
0
 62
7
  6
CONTINUOUS
 10
150.9612418074
 20
31.5939741996
 11
150.5565542799
 21
31.626237886
  0
LINE
  8
0
 62
7
  6
CONTINUOUS
 10
159.575304528
 20
30.6260635193
 11
159.922179528
 21
30.5937998301
  0
LINE
  8
0
 62
7
  6
CONTINUOUS
 10
159.922179528
 20
30.7228545871
 11
159.575304528
 21
30.7551182848
  0
LINE
  8
0
 62
7
  6
CONTINUOUS
 10
155.3549915869
 20
31.5939741996
 11
155.0081169177
 21
31.626237886
  0
LINE
  8
0
 62
7
  6
CONTINUOUS
 10
160.1534293074
 20
31.4971831403
 11
160.5003043074
 21
31.4649194539
  0
LINE
  8
0
 62
7
  6
CONTINUOUS
 10
160.5003043074
 20
31.5939741996
 11
160.1534293074
 21
31.626237886
  0
LINE
  8
0
 62
7
  6
CONTINUOUS
 10
157.840929528
 20
31.4971831403
 11
158.0721793074
 21
31.4649194539
  0
LINE
  8
0
 62
7
  6
CONTINUOUS
 10
160.6737418074
 20
31.5617105132
 11
160.5003043074
 21
31.5939741996
  0
LINE
  8
0
 62
7
  6
CONTINUOUS
 10
160.8471793074
 20
30.6905909007
 11
160.9628038663
 21
30.7873819712
  0
LINE
  8
0
 62
7
  6
CONTINUOUS
 10
155.3549915869
 20
30.8841730531
 11
155.1815540869
 21
30.7873819712
  0
LINE
  8
0
 62
7
  6
CONTINUOUS
 10
157.4362415869
 20
31.5294468267
 11
157.320617028
 21
31.4649194539
  0
LINE
  8
0
 62
7
  6
CONTINUOUS
 10
157.320617028
 20
31.3358647082
 11
157.4362415869
 21
31.400392081
  0
LINE
  8
0
 62
7
  6
CONTINUOUS
 10
150.0362418212
 20
31.5617105132
 11
149.8628043005
 21
31.4971831403
  0
LINE
  8
0
 62
7
  6
CONTINUOUS
 10
152.4643666972
 20
31.5939741996
 11
152.2909293626
 21
31.5294468267
  0
LINE
  8
0
 62
7
  6
CONTINUOUS
 10
152.2909293626
 20
31.400392081
 11
152.4643666972
 21
31.4649194539
  0
LINE
  8
0
 62
7
  6
CONTINUOUS
 10
151.0768668626
 20
30.8196456577
 11
150.9034292799
 21
30.7551182848
  0
LINE
  8
0
 62
7
  6
CONTINUOUS
 10
160.5003043074
 20
30.7551182848
 11
160.269054528
 21
30.7228545871
  0
LINE
  8
0
 62
7
  6
CONTINUOUS
 10
154.8924916972
 20
30.5937998301
 11
155.1815540869
 21
30.6260635193
  0
LINE
  8
0
 62
7
  6
CONTINUOUS
 10
160.269054528
 20
30.5937998301
 11
160.615929528
 21
30.6260635193
  0
LINE
  8
0
 62
7
  6
CONTINUOUS
 10
150.5565542799
 20
30.5937998301
 11
150.9612418074
 21
30.6260635193
  0
LINE
  8
0
 62
7
  6
CONTINUOUS
 10
150.9034292799
 20
30.7551182848
 11
150.498741835
 21
30.7228545871
  0
LINE
  8
0
 62
7
  6
CONTINUOUS
 10
154.7768668074
 20
31.1422825445
 11
155.412804528
 21
31.1422825445
  0
LINE
  8
0
 62
7
  6
CONTINUOUS
 10
155.412804528
 20
31.2713373354
 11
154.7768668074
 21
31.2713373354
  0
LINE
  8
0
 62
7
  6
CONTINUOUS
 10
151.1346793074
 20
31.3036010218
 11
151.4237418626
 21
31.3036010218
  0
LINE
  8
0
 62
7
  6
CONTINUOUS
 10
153.9674919177
 20
31.3681283946
 11
154.2565543074
 21
31.3681283946
  0
LINE
  8
0
 62
7
  6
CONTINUOUS
 10
160.6737418074
 20
31.3681283946
 11
160.9628038663
 21
31.3681283946
  0
LINE
  8
0
 62
7
  6
CONTINUOUS
 10
154.6612419177
 20
31.4971831403
 11
155.0081169177
 21
31.4971831403
  0
LINE
  8
0
 62
7
  6
CONTINUOUS
 10
159.8065543074
 20
31.4971831403
 11
160.1534293074
 21
31.4971831403
  0
LINE
  8
0
 62
7
  6
CONTINUOUS
 10
160.1534293074
 20
31.626237886
 11
159.8065543074
 21
31.626237886
  0
LINE
  8
0
 62
7
  6
CONTINUOUS
 10
158.0721793074
 20
31.626237886
 11
157.840929528
 21
31.626237886
  0
LINE
  8
0
 62
7
  6
CONTINUOUS
 10
157.320617028
 20
31.626237886
 11
157.0315543074
 21
31.626237886
  0
LINE
  8
0
 62
7
  6
CONTINUOUS
 10
156.5690540869
 20
31.626237886
 11
156.279992028
 21
31.626237886
  0
LINE
  8
0
 62
7
  6
CONTINUOUS
 10
155.0081169177
 20
31.626237886
 11
154.6612419177
 21
31.626237886
  0
LINE
  8
0
 62
7
  6
CONTINUOUS
 10
152.9268669177
 20
31.626237886
 11
152.6956168074
 21
31.626237886
  0
LINE
  8
0
 62
7
  6
CONTINUOUS
 10
156.279992028
 20
31.9488748406
 11
156.5690540869
 21
31.9488748406
  0
LINE
  8
0
 62
7
  6
CONTINUOUS
 10
156.5690540869
 20
32.1101932727
 11
156.279992028
 21
32.1101932727
  0
LINE
  8
0
 62
7
  6
CONTINUOUS
 10
152.1753043074
 20
32.1101932727
 11
151.8862417523
 21
32.1101932727
  0
LINE
  8
0
 62
7
  6
CONTINUOUS
 10
151.2130860697
 20
32.3970785186
 11
151.6256574183
 21
32.3970785186
  0
LINE
  8
0
 62
7
  6
CONTINUOUS
 10
152.852430332
 20
32.3970785186
 11
154.245872955
 21
32.3970785186
  0
LINE
  8
0
 62
7
  6
CONTINUOUS
 10
154.5737418074
 20
32.3970785186
 11
155.9671844304
 21
32.3970785186
  0
LINE
  8
0
 62
7
  6
CONTINUOUS
 10
157.852430332
 20
32.3970785186
 11
159.245872955
 21
32.3970785186
  0
LINE
  8
0
 62
7
  6
CONTINUOUS
 10
159.5737418074
 20
32.3970785186
 11
160.9671844304
 21
32.3970785186
  0
LINE
  8
0
 62
7
  6
CONTINUOUS
 10
157.6096790869
 20
31.5939741996
 11
157.4362415869
 21
31.5294468267
  0
LINE
  8
0
 62
7
  6
CONTINUOUS
 10
155.1815540869
 20
30.6260635193
 11
155.3549915869
 21
30.6905909007
  0
LINE
  8
0
 62
7
  6
CONTINUOUS
 10
160.615929528
 20
30.6260635193
 11
160.8471793074
 21
30.6905909007
  0
LINE
  8
0
 62
7
  6
CONTINUOUS
 10
160.615929528
 20
30.7873819712
 11
160.5003043074
 21
30.7551182848
  0
LINE
  8
0
 62
7
  6
CONTINUOUS
 10
159.575304528
 20
31.4649194539
 11
159.8065543074
 21
31.4971831403
  0
LINE
  8
0
 62
7
  6
CONTINUOUS
 10
157.6096790869
 20
31.4649194539
 11
157.840929528
 21
31.4971831403
  0
LINE
  8
0
 62
7
  6
CONTINUOUS
 10
154.5456166972
 20
31.1100188581
 11
154.7768668074
 21
31.1422825445
  0
LINE
  8
0
 62
7
  6
CONTINUOUS
 10
157.840929528
 20
31.626237886
 11
157.6096790869
 21
31.5939741996
  0
LINE
  8
0
 62
7
  6
CONTINUOUS
 10
154.4299918074
 20
31.4649194539
 11
154.6612419177
 21
31.4971831403
  0
LINE
  8
0
 62
7
  6
CONTINUOUS
 10
159.8065543074
 20
31.626237886
 11
159.4596793074
 21
31.5939741996
  0
LINE
  8
0
 62
7
  6
CONTINUOUS
 10
154.7768668074
 20
31.2713373354
 11
154.4299918074
 21
31.2390736489
  0
LINE
  8
0
 62
7
  6
CONTINUOUS
 10
150.5565542799
 20
31.626237886
 11
150.2096793212
 21
31.5939741996
  0
LINE
  8
0
 62
7
  6
CONTINUOUS
 10
154.6612419177
 20
31.626237886
 11
154.2565543074
 21
31.5939741996
  0
LINE
  8
0
 62
7
  6
CONTINUOUS
 10
152.0327582009
 20
33.5446195022
 11
151.3770204959
 21
33.5446195022
  0
LINE
  8
0
 62
7
  6
CONTINUOUS
 10
157.4362415869
 20
31.400392081
 11
157.6096790869
 21
31.4649194539
  0
LINE
  8
0
 62
7
  6
CONTINUOUS
 10
159.4596793074
 20
31.4326557675
 11
159.575304528
 21
31.4649194539
  0
LINE
  8
0
 62
7
  6
CONTINUOUS
 10
159.4596793074
 20
31.5939741996
 11
159.228429528
 21
31.5294468267
  0
LINE
  8
0
 62
7
  6
CONTINUOUS
 10
155.1815540869
 20
30.7873819712
 11
154.8924916972
 21
30.7228545871
  0
LINE
  8
0
 62
7
  6
CONTINUOUS
 10
152.4643666972
 20
31.4649194539
 11
152.6956168074
 21
31.4971831403
  0
LINE
  8
0
 62
7
  6
CONTINUOUS
 10
152.6956168074
 20
31.626237886
 11
152.4643666972
 21
31.5939741996
  0
LINE
  8
0
 62
7
  6
CONTINUOUS
 10
150.2674918074
 20
31.4649194539
 11
150.498741835
 21
31.4971831403
  0
LINE
  8
0
 62
7
  6
CONTINUOUS
 10
156.7868565615
 20
35.0200293383
 11
157.4425942664
 21
35.0200293383
  0
LINE
  8
0
 62
7
  6
CONTINUOUS
 10
154.4299918074
 20
31.0777551716
 11
154.5456166972
 21
31.1100188581
  0
LINE
  8
0
 62
7
  6
CONTINUOUS
 10
154.4299918074
 20
31.2390736489
 11
154.1987416972
 21
31.1745462761
  0
LINE
  8
0
 62
7
  6
CONTINUOUS
 10
154.3143669177
 20
31.4326557675
 11
154.4299918074
 21
31.4649194539
  0
LINE
  8
0
 62
7
  6
CONTINUOUS
 10
150.9612418074
 20
30.6260635193
 11
151.1924917523
 21
30.6905909007
  0
LINE
  8
0
 62
7
  6
CONTINUOUS
 10
154.2565543074
 20
31.5939741996
 11
154.1409294177
 21
31.5617105132
  0
LINE
  8
0
 62
7
  6
CONTINUOUS
 10
150.2096793212
 20
31.5939741996
 11
150.0362418212
 21
31.5617105132
  0
LINE
  8
0
 62
7
  6
CONTINUOUS
 10
160.9671844304
 20
36.1675703219
 11
159.5737418074
 21
36.1675703219
  0
LINE
  8
0
 62
7
  6
CONTINUOUS
 10
157.6065286927
 20
36.1675703219
 11
157.1939573441
 21
36.1675703219
  0
LINE
  8
0
 62
7
  6
CONTINUOUS
 10
155.9671844304
 20
36.1675703219
 11
154.5737418074
 21
36.1675703219
  0
LINE
  8
0
 62
7
  6
CONTINUOUS
 10
154.245872955
 20
36.1675703219
 11
152.852430332
 21
36.1675703219
  0
LINE
  8
0
 62
7
  6
CONTINUOUS
 10
150.9671844304
 20
36.1675703219
 11
149.5737418074
 21
36.1675703219
  0
LINE
  8
0
 62
7
  6
CONTINUOUS
 10
150.1518667936
 20
31.4326557675
 11
150.2674918074
 21
31.4649194539
  0
CIRCLE
  8
0
 62
7
  6
CONTINUOUS
 10
160.2704631189
 20
38.5036358957
 40
2.0901639344
  0
ARC
  8
0
 62
7
  6
CONTINUOUS
 10
151.2130860697
 20
34.0364227809
 40
1.6393442623
 50
180.0
 51
270.0
  0
ARC
  8
0
 62
7
  6
CONTINUOUS
 10
157.6065286927
 20
34.5282260596
 40
1.6393442623
 50
0.0
 51
90.0
  0
ARC
  8
0
 62
7
  6
CONTINUOUS
 10
151.6256574183
 20
33.8724883547
 40
1.4754098361
 50
270.0
 51
326.2510114041
  0
ARC
  8
0
 62
7
  6
CONTINUOUS
 10
157.1939573441
 20
34.6921604858
 40
1.4754098361
 50
90.0
 51
146.2510114041
  0
ARC
  8
0
 62
7
  6
CONTINUOUS
 10
152.0327582009
 20
34.3642916334
 40
0.8196721311
 50
270.0
 51
360.0
  0
ARC
  8
0
 62
7
  6
CONTINUOUS
 10
156.7868565615
 20
34.2003572071
 40
0.8196721311
 50
90.0
 51
180.0
  0
ARC
  8
0
 62
7
  6
CONTINUOUS
 10
151.3770204959
 20
33.9544555678
 40
0.4098360656
 50
180.0
 51
270.0
  0
ARC
  8
0
 62
7
  6
CONTINUOUS
 10
157.4425942664
 20
34.6101932727
 40
0.4098360656
 50
0.0
 51
90.0
  0
SOLID
  8
0
 62
7
  6
CONTINUOUS
 10
156.279992028
 20
31.9488752009
 11
156.279992028
 21
32.1101936845
 12
156.5690540869
 22
31.9488752009
 13
156.5690540869
 23
32.1101936845
  0
SOLID
  8
0
 62
7
  6
CONTINUOUS
 10
150.5565542799
 20
31.6262382337
 11
150.9612418074
 21
31.5939740028
 12
150.2096793212
 22
31.5939740028
 13
150.2096793212
 23
31.5939740028
  0
SOLID
  8
0
 62
7
  6
CONTINUOUS
 10
150.0362418212
 20
31.5617111435
 11
150.2096793212
 21
31.5939740028
 12
150.9612418074
 22
31.5939740028
 13
150.9612418074
 23
31.5939740028
  0
SOLID
  8
0
 62
7
  6
CONTINUOUS
 10
150.9612418074
 20
31.5939740028
 11
151.1924917523
 21
31.5294468402
 12
150.0362418212
 22
31.5617111435
 13
150.0362418212
 23
31.5617111435
  0
SOLID
  8
0
 62
7
  6
CONTINUOUS
 10
149.8628043005
 20
31.49718259
 11
150.0362418212
 21
31.5617111435
 12
151.1924917523
 22
31.5294468402
 13
151.1924917523
 23
31.5294468402
  0
SOLID
  8
0
 62
7
  6
CONTINUOUS
 10
149.8628043005
 20
31.49718259
 11
151.1924917523
 21
31.5294468402
 12
150.498741835
 22
31.49718259
 13
150.498741835
 23
31.49718259
  0
SOLID
  8
0
 62
7
  6
CONTINUOUS
 10
150.498741835
 20
31.49718259
 11
151.1924917523
 21
31.5294468402
 12
150.9034292799
 22
31.4649197501
 13
150.9034292799
 23
31.4649197501
  0
SOLID
  8
0
 62
7
  6
CONTINUOUS
 10
151.1924917523
 20
31.5294468402
 11
151.3659292523
 21
31.4326554468
 12
150.9034292799
 22
31.4649197501
 13
150.9034292799
 23
31.4649197501
  0
SOLID
  8
0
 62
7
  6
CONTINUOUS
 10
151.0768668626
 20
31.4003926599
 11
150.9034292799
 21
31.4649197501
 12
151.3659292523
 22
31.4326554468
 13
151.3659292523
 23
31.4326554468
  0
SOLID
  8
0
 62
7
  6
CONTINUOUS
 10
151.0768668626
 20
31.4003926599
 11
151.3659292523
 21
31.4326554468
 12
151.1346793074
 22
31.3036013776
 13
151.1346793074
 23
31.3036013776
  0
SOLID
  8
0
 62
7
  6
CONTINUOUS
 10
151.3659292523
 20
31.4326554468
 11
151.4237418626
 21
31.3036013776
 12
151.1346793074
 22
31.3036013776
 13
151.1346793074
 23
31.3036013776
  0
SOLID
  8
0
 62
7
  6
CONTINUOUS
 10
152.4643666972
 20
31.5939739754
 11
152.6956168074
 21
31.6262382787
 12
152.9268669177
 22
31.6262382787
 13
152.9268669177
 23
31.6262382787
  0
SOLID
  8
0
 62
7
  6
CONTINUOUS
 10
152.9268669177
 20
31.6262382787
 11
153.1003044177
 21
31.5939739754
 12
152.4643666972
 22
31.5939739754
 13
152.4643666972
 23
31.5939739754
  0
SOLID
  8
0
 62
7
  6
CONTINUOUS
 10
152.2909293626
 20
31.5294468852
 11
152.4643666972
 21
31.5939739754
 12
153.1003044177
 22
31.5939739754
 13
153.1003044177
 23
31.5939739754
  0
SOLID
  8
0
 62
7
  6
CONTINUOUS
 10
153.1003044177
 20
31.5939739754
 11
153.2737419177
 21
31.5294468852
 12
152.2909293626
 22
31.5294468852
 13
152.2909293626
 23
31.5294468852
  0
SOLID
  8
0
 62
7
  6
CONTINUOUS
 10
153.2737419177
 20
31.5294468852
 11
152.6956168074
 21
31.4971825369
 12
152.2909293626
 22
31.5294468852
 13
152.2909293626
 23
31.5294468852
  0
SOLID
  8
0
 62
7
  6
CONTINUOUS
 10
152.1753043074
 20
31.4649197951
 11
152.2909293626
 21
31.5294468852
 12
152.6956168074
 22
31.4971825369
 13
152.6956168074
 23
31.4971825369
  0
SOLID
  8
0
 62
7
  6
CONTINUOUS
 10
152.6956168074
 20
31.4971825369
 11
152.4643666972
 21
31.4649197951
 12
152.1753043074
 22
31.4649197951
 13
152.1753043074
 23
31.4649197951
  0
SOLID
  8
0
 62
7
  6
CONTINUOUS
 10
152.6956168074
 20
31.4971825369
 11
153.2737419177
 21
31.5294468852
 12
152.9268669177
 22
31.4649197951
 13
152.9268669177
 23
31.4649197951
  0
SOLID
  8
0
 62
7
  6
CONTINUOUS
 10
153.2737419177
 20
31.5294468852
 11
153.3893668074
 21
31.4649197951
 12
152.9268669177
 22
31.4649197951
 13
152.9268669177
 23
31.4649197951
  0
SOLID
  8
0
 62
7
  6
CONTINUOUS
 10
153.0424918074
 20
31.4326554468
 11
152.9268669177
 21
31.4649197951
 12
153.3893668074
 22
31.4649197951
 13
153.3893668074
 23
31.4649197951
  0
SOLID
  8
0
 62
7
  6
CONTINUOUS
 10
153.3893668074
 20
31.4649197951
 11
153.4471794177
 21
31.4003927049
 12
153.0424918074
 22
31.4326554468
 13
153.0424918074
 23
31.4326554468
  0
SOLID
  8
0
 62
7
  6
CONTINUOUS
 10
153.1581166972
 20
31.3681283566
 11
153.0424918074
 21
31.4326554468
 12
153.4471794177
 22
31.4003927049
 13
153.4471794177
 23
31.4003927049
  0
SOLID
  8
0
 62
7
  6
CONTINUOUS
 10
153.1581166972
 20
31.3681283566
 11
153.4471794177
 21
31.4003927049
 12
153.2159293074
 22
31.2390742213
 13
153.2159293074
 23
31.2390742213
  0
SOLID
  8
0
 62
7
  6
CONTINUOUS
 10
153.4471794177
 20
31.4003927049
 11
153.5049916972
 21
31.2390742213
 12
153.2159293074
 22
31.2390742213
 13
153.2159293074
 23
31.2390742213
  0
SOLID
  8
0
 62
7
  6
CONTINUOUS
 10
152.4643666972
 20
31.4649197951
 11
152.2909293626
 21
31.4003927049
 12
152.1753043074
 22
31.4649197951
 13
152.1753043074
 23
31.4649197951
  0
SOLID
  8
0
 62
7
  6
CONTINUOUS
 10
152.2909293626
 20
31.4003927049
 11
152.1753043074
 21
31.3358640533
 12
152.1753043074
 22
31.4649197951
 13
152.1753043074
 23
31.4649197951
  0
SOLID
  8
0
 62
7
  6
CONTINUOUS
 10
152.1753043074
 20
31.3358640533
 11
151.8862417523
 21
30.5938002869
 12
152.1753043074
 22
31.4649197951
 13
152.1753043074
 23
31.4649197951
  0
SOLID
  8
0
 62
7
  6
CONTINUOUS
 10
152.1753043074
 20
31.4649197951
 11
151.8862417523
 21
30.5938002869
 12
152.1753043074
 22
32.1101937295
 13
152.1753043074
 23
32.1101937295
  0
SOLID
  8
0
 62
7
  6
CONTINUOUS
 10
151.8862417523
 20
30.5938002869
 11
151.8862417523
 21
32.1101937295
 12
152.1753043074
 22
32.1101937295
 13
152.1753043074
 23
32.1101937295
  0
SOLID
  8
0
 62
7
  6
CONTINUOUS
 10
152.1753043074
 20
31.3358640533
 11
152.1753043074
 21
30.5938002869
 12
151.8862417523
 22
30.5938002869
 13
151.8862417523
 23
30.5938002869
  0
SOLID
  8
0
 62
7
  6
CONTINUOUS
 10
153.2159293074
 20
30.5938002869
 11
153.2159293074
 21
31.2390742213
 12
153.5049916972
 22
31.2390742213
 13
153.5049916972
 23
31.2390742213
  0
SOLID
  8
0
 62
7
  6
CONTINUOUS
 10
153.5049916972
 20
31.2390742213
 11
153.5049916972
 21
30.5938002869
 12
153.2159293074
 22
30.5938002869
 13
153.2159293074
 23
30.5938002869
  0
SOLID
  8
0
 62
7
  6
CONTINUOUS
 10
154.2565543074
 20
31.5939738288
 11
154.6612419177
 21
31.6262385959
 12
155.0081169177
 22
31.6262385959
 13
155.0081169177
 23
31.6262385959
  0
SOLID
  8
0
 62
7
  6
CONTINUOUS
 10
155.0081169177
 20
31.6262385959
 11
155.3549915869
 21
31.5939738288
 12
154.2565543074
 22
31.5939738288
 13
154.2565543074
 23
31.5939738288
  0
SOLID
  8
0
 62
7
  6
CONTINUOUS
 10
154.1409294177
 20
31.5617111435
 11
154.2565543074
 21
31.5939738288
 12
155.3549915869
 22
31.5939738288
 13
155.3549915869
 23
31.5939738288
  0
SOLID
  8
0
 62
7
  6
CONTINUOUS
 10
155.3549915869
 20
31.5939738288
 11
155.5284290869
 21
31.5294468402
 12
154.1409294177
 22
31.5617111435
 13
154.1409294177
 23
31.5617111435
  0
SOLID
  8
0
 62
7
  6
CONTINUOUS
 10
154.0253041972
 20
31.4971826249
 11
154.1409294177
 21
31.5617111435
 12
155.5284290869
 22
31.5294468402
 13
155.5284290869
 23
31.5294468402
  0
SOLID
  8
0
 62
7
  6
CONTINUOUS
 10
154.0253041972
 20
31.4971826249
 11
155.5284290869
 21
31.5294468402
 12
154.6612419177
 22
31.4971826249
 13
154.6612419177
 23
31.4971826249
  0
SOLID
  8
0
 62
7
  6
CONTINUOUS
 10
154.6612419177
 20
31.4971826249
 11
155.5284290869
 21
31.5294468402
 12
155.0081169177
 22
31.4971826249
 13
155.0081169177
 23
31.4971826249
  0
SOLID
  8
0
 62
7
  6
CONTINUOUS
 10
155.0081169177
 20
31.4971826249
 11
155.5284290869
 21
31.5294468402
 12
155.239367028
 22
31.4649194065
 13
155.239367028
 23
31.4649194065
  0
SOLID
  8
0
 62
7
  6
CONTINUOUS
 10
155.5284290869
 20
31.5294468402
 11
155.6440543074
 21
31.4649194065
 12
155.239367028
 22
31.4649194065
 13
155.239367028
 23
31.4649194065
  0
SOLID
  8
0
 62
7
  6
CONTINUOUS
 10
153.9674919177
 20
31.4326554138
 11
154.0253041972
 21
31.4971826249
 12
154.6612419177
 22
31.4971826249
 13
154.6612419177
 23
31.4971826249
  0
SOLID
  8
0
 62
7
  6
CONTINUOUS
 10
155.3549915869
 20
31.4326554138
 11
155.239367028
 21
31.4649194065
 12
155.6440543074
 22
31.4649194065
 13
155.6440543074
 23
31.4649194065
  0
SOLID
  8
0
 62
7
  6
CONTINUOUS
 10
155.3549915869
 20
31.4326554138
 11
155.6440543074
 21
31.4649194065
 12
155.412804528
 22
31.3681282026
 13
155.412804528
 23
31.3681282026
  0
SOLID
  8
0
 62
7
  6
CONTINUOUS
 10
155.6440543074
 20
31.4649194065
 11
155.7018665869
 21
31.3681282026
 12
155.412804528
 22
31.3681282026
 13
155.412804528
 23
31.3681282026
  0
SOLID
  8
0
 62
7
  6
CONTINUOUS
 10
155.412804528
 20
31.2713369632
 11
155.412804528
 21
31.3681282026
 12
155.7018665869
 22
31.3681282026
 13
155.7018665869
 23
31.3681282026
  0
SOLID
  8
0
 62
7
  6
CONTINUOUS
 10
155.412804528
 20
31.2713369632
 11
155.7018665869
 21
31.3681282026
 12
155.412804528
 22
31.1422827828
 13
155.412804528
 23
31.1422827828
  0
SOLID
  8
0
 62
7
  6
CONTINUOUS
 10
155.412804528
 20
31.1422827828
 11
155.7018665869
 21
31.3681282026
 12
155.412804528
 22
30.9487004259
 13
155.412804528
 23
30.9487004259
  0
SOLID
  8
0
 62
7
  6
CONTINUOUS
 10
155.7018665869
 20
31.3681282026
 11
155.7018665869
 21
30.8519086025
 12
155.412804528
 22
30.9487004259
 13
155.412804528
 23
30.9487004259
  0
SOLID
  8
0
 62
7
  6
CONTINUOUS
 10
157.6096790869
 20
31.5939736268
 11
157.840929528
 21
31.6262383465
 12
158.0721793074
 22
31.6262383465
 13
158.0721793074
 23
31.6262383465
  0
SOLID
  8
0
 62
7
  6
CONTINUOUS
 10
158.0721793074
 20
31.6262383465
 11
158.2456168074
 21
31.5939736268
 12
157.6096790869
 22
31.5939736268
 13
157.6096790869
 23
31.5939736268
  0
SOLID
  8
0
 62
7
  6
CONTINUOUS
 10
157.4362415869
 20
31.5294472848
 11
157.6096790869
 21
31.5939736268
 12
158.2456168074
 22
31.5939736268
 13
158.2456168074
 23
31.5939736268
  0
SOLID
  8
0
 62
7
  6
CONTINUOUS
 10
158.2456168074
 20
31.5939736268
 11
158.4190543074
 21
31.5294472848
 12
157.4362415869
 22
31.5294472848
 13
157.4362415869
 23
31.5294472848
  0
SOLID
  8
0
 62
7
  6
CONTINUOUS
 10
158.4190543074
 20
31.5294472848
 11
157.840929528
 21
31.4971825369
 12
157.4362415869
 22
31.5294472848
 13
157.4362415869
 23
31.5294472848
  0
SOLID
  8
0
 62
7
  6
CONTINUOUS
 10
157.320617028
 20
31.4649199103
 11
157.4362415869
 21
31.5294472848
 12
157.840929528
 22
31.4971825369
 13
157.840929528
 23
31.4971825369
  0
SOLID
  8
0
 62
7
  6
CONTINUOUS
 10
157.840929528
 20
31.4971825369
 11
157.6096790869
 21
31.4649199103
 12
157.320617028
 22
31.4649199103
 13
157.320617028
 23
31.4649199103
  0
SOLID
  8
0
 62
7
  6
CONTINUOUS
 10
157.840929528
 20
31.4971825369
 11
158.4190543074
 21
31.5294472848
 12
158.0721793074
 22
31.4649199103
 13
158.0721793074
 23
31.4649199103
  0
SOLID
  8
0
 62
7
  6
CONTINUOUS
 10
158.4190543074
 20
31.5294472848
 11
158.534679528
 21
31.4649199103
 12
158.0721793074
 22
31.4649199103
 13
158.0721793074
 23
31.4649199103
  0
SOLID
  8
0
 62
7
  6
CONTINUOUS
 10
158.187804528
 20
31.4326554468
 11
158.0721793074
 21
31.4649199103
 12
158.534679528
 22
31.4649199103
 13
158.534679528
 23
31.4649199103
  0
SOLID
  8
0
 62
7
  6
CONTINUOUS
 10
158.187804528
 20
31.4326554468
 11
158.534679528
 21
31.4649199103
 12
158.3034290869
 22
31.3681288486
 13
158.3034290869
 23
31.3681288486
  0
SOLID
  8
0
 62
7
  6
CONTINUOUS
 10
158.534679528
 20
31.4649199103
 11
158.5924918074
 21
31.3681288486
 12
158.3034290869
 22
31.3681288486
 13
158.3034290869
 23
31.3681288486
  0
SOLID
  8
0
 62
7
  6
CONTINUOUS
 10
158.361242028
 20
31.2068093799
 11
158.3034290869
 21
31.3681288486
 12
158.5924918074
 22
31.3681288486
 13
158.5924918074
 23
31.3681288486
  0
SOLID
  8
0
 62
7
  6
CONTINUOUS
 10
158.5924918074
 20
31.3681288486
 11
158.6503040869
 21
31.2068093799
 12
158.361242028
 22
31.2068093799
 13
158.361242028
 23
31.2068093799
  0
SOLID
  8
0
 62
7
  6
CONTINUOUS
 10
157.6096790869
 20
31.4649199103
 11
157.4362415869
 21
31.4003926599
 12
157.320617028
 22
31.4649199103
 13
157.320617028
 23
31.4649199103
  0
SOLID
  8
0
 62
7
  6
CONTINUOUS
 10
157.4362415869
 20
31.4003926599
 11
157.320617028
 21
31.3358640533
 12
157.320617028
 22
31.4649199103
 13
157.320617028
 23
31.4649199103
  0
SOLID
  8
0
 62
7
  6
CONTINUOUS
 10
157.320617028
 20
31.3358640533
 11
157.0315543074
 21
30.5938003547
 12
157.320617028
 22
31.4649199103
 13
157.320617028
 23
31.4649199103
  0
SOLID
  8
0
 62
7
  6
CONTINUOUS
 10
157.320617028
 20
31.4649199103
 11
157.0315543074
 21
30.5938003547
 12
157.320617028
 22
31.6262383465
 13
157.320617028
 23
31.6262383465
  0
SOLID
  8
0
 62
7
  6
CONTINUOUS
 10
157.0315543074
 20
30.5938003547
 11
157.0315543074
 21
31.6262383465
 12
157.320617028
 22
31.6262383465
 13
157.320617028
 23
31.6262383465
  0
SOLID
  8
0
 62
7
  6
CONTINUOUS
 10
157.320617028
 20
31.3358640533
 11
157.320617028
 21
30.5938003547
 12
157.0315543074
 22
30.5938003547
 13
157.0315543074
 23
30.5938003547
  0
SOLID
  8
0
 62
7
  6
CONTINUOUS
 10
158.361242028
 20
30.5938003547
 11
158.361242028
 21
31.2068093799
 12
158.6503040869
 22
31.2068093799
 13
158.6503040869
 23
31.2068093799
  0
SOLID
  8
0
 62
7
  6
CONTINUOUS
 10
158.6503040869
 20
31.2068093799
 11
158.6503040869
 21
30.5938003547
 12
158.361242028
 22
30.5938003547
 13
158.361242028
 23
30.5938003547
  0
SOLID
  8
0
 62
7
  6
CONTINUOUS
 10
159.4596793074
 20
31.5939739474
 11
159.8065543074
 21
31.6262381969
 12
160.1534293074
 22
31.6262381969
 13
160.1534293074
 23
31.6262381969
  0
SOLID
  8
0
 62
7
  6
CONTINUOUS
 10
160.1534293074
 20
31.6262381969
 11
160.5003043074
 21
31.5939739474
 12
159.4596793074
 22
31.5939739474
 13
159.4596793074
 23
31.5939739474
  0
SOLID
  8
0
 62
7
  6
CONTINUOUS
 10
159.228429528
 20
31.5294468402
 11
159.4596793074
 21
31.5939739474
 12
160.5003043074
 22
31.5939739474
 13
160.5003043074
 23
31.5939739474
  0
SOLID
  8
0
 62
7
  6
CONTINUOUS
 10
159.228429528
 20
31.5294468402
 11
160.5003043074
 21
31.5939739304
 12
160.6737418074
 22
31.5617111435
 13
160.6737418074
 23
31.5617111435
  0
SOLID
  8
0
 62
7
  6
CONTINUOUS
 10
159.228429528
 20
31.5294468402
 11
160.6737418074
 21
31.5617111435
 12
159.8065543074
 22
31.4971825592
 13
159.8065543074
 23
31.4971825592
  0
SOLID
  8
0
 62
7
  6
CONTINUOUS
 10
159.8065543074
 20
31.4971825592
 11
160.6737418074
 21
31.5617111435
 12
160.1534293074
 22
31.4971825592
 13
160.1534293074
 23
31.4971825592
  0
SOLID
  8
0
 62
7
  6
CONTINUOUS
 10
160.6737418074
 20
31.5617111435
 11
160.8471793074
 21
31.4971825592
 12
160.1534293074
 22
31.4971825592
 13
160.1534293074
 23
31.4971825592
  0
SOLID
  8
0
 62
7
  6
CONTINUOUS
 10
160.5003043074
 20
31.4649197501
 11
160.1534293074
 21
31.4971825592
 12
160.8471793074
 22
31.4971825592
 13
160.8471793074
 23
31.4971825592
  0
SOLID
  8
0
 62
7
  6
CONTINUOUS
 10
159.1128043074
 20
31.4326555427
 11
159.228429528
 21
31.5294468402
 12
159.8065543074
 22
31.4971825592
 13
159.8065543074
 23
31.4971825592
  0
SOLID
  8
0
 62
7
  6
CONTINUOUS
 10
160.5003043074
 20
31.4649197501
 11
160.8471793074
 21
31.4971825592
 12
160.615929528
 22
31.4326555427
 13
160.615929528
 23
31.4326555427
  0
SOLID
  8
0
 62
7
  6
CONTINUOUS
 10
160.615929528
 20
31.4326555427
 11
160.8471793074
 21
31.4971825592
 12
160.6737418074
 22
31.3681283005
 13
160.6737418074
 23
31.3681283005
  0
SOLID
  8
0
 62
7
  6
CONTINUOUS
 10
160.8471793074
 20
31.4971825592
 11
160.9628038663
 21
31.3681283005
 12
160.6737418074
 22
31.3681283005
 13
160.6737418074
 23
31.3681283005
  0
SOLID
  8
0
 62
7
  6
CONTINUOUS
 10
150.2674918074
 20
31.4649197501
 11
149.7471793074
 21
31.4326554237
 12
150.498741835
 22
31.4971824493
 13
150.498741835
 23
31.4971824493
  0
SOLID
  8
0
 62
7
  6
CONTINUOUS
 10
149.7471793074
 20
31.4326554237
 11
149.8628043005
 21
31.4971824493
 12
150.498741835
 22
31.4971824493
 13
150.498741835
 23
31.4971824493
  0
SOLID
  8
0
 62
7
  6
CONTINUOUS
 10
150.2674918074
 20
31.4649197501
 11
150.1518667936
 21
31.4326554237
 12
149.7471793074
 22
31.4326554237
 13
149.7471793074
 23
31.4326554237
  0
SOLID
  8
0
 62
7
  6
CONTINUOUS
 10
149.6315543091
 20
31.3036012664
 11
149.7471793074
 21
31.4326554237
 12
150.1518667936
 22
31.4326554237
 13
150.1518667936
 23
31.4326554237
  0
SOLID
  8
0
 62
7
  6
CONTINUOUS
 10
153.9674919177
 20
31.4326554237
 11
154.6612419177
 21
31.4971825369
 12
154.4299918074
 22
31.4649197501
 13
154.4299918074
 23
31.4649197501
  0
SOLID
  8
0
 62
7
  6
CONTINUOUS
 10
154.4299918074
 20
31.4649197501
 11
154.3143669177
 21
31.4326554237
 12
153.9674919177
 22
31.4326554237
 13
153.9674919177
 23
31.4326554237
  0
SOLID
  8
0
 62
7
  6
CONTINUOUS
 10
153.9674919177
 20
31.3681283335
 11
153.9674919177
 21
31.4326554237
 12
154.3143669177
 22
31.4326554237
 13
154.3143669177
 23
31.4326554237
  0
SOLID
  8
0
 62
7
  6
CONTINUOUS
 10
154.3143669177
 20
31.4326554237
 11
154.2565543074
 21
31.3681283335
 12
153.9674919177
 22
31.3681283335
 13
153.9674919177
 23
31.3681283335
  0
SOLID
  8
0
 62
7
  6
CONTINUOUS
 10
159.1128043074
 20
31.4326555528
 11
159.8065543074
 21
31.4971825369
 12
159.575304528
 22
31.4649197501
 13
159.575304528
 23
31.4649197501
  0
SOLID
  8
0
 62
7
  6
CONTINUOUS
 10
159.575304528
 20
31.4649197501
 11
159.4596793074
 21
31.4326555528
 12
159.1128043074
 22
31.4326555528
 13
159.1128043074
 23
31.4326555528
  0
SOLID
  8
0
 62
7
  6
CONTINUOUS
 10
159.1128043074
 20
31.3681284626
 11
159.1128043074
 21
31.4326555528
 12
159.4596793074
 22
31.4326555528
 13
159.4596793074
 23
31.4326555528
  0
SOLID
  8
0
 62
7
  6
CONTINUOUS
 10
159.4596793074
 20
31.4326555528
 11
159.401867028
 21
31.3681284626
 12
159.1128043074
 22
31.3681284626
 13
159.1128043074
 23
31.3681284626
  0
SOLID
  8
0
 62
7
  6
CONTINUOUS
 10
159.228429528
 20
31.2390741763
 11
159.1128043074
 21
31.3681284626
 12
159.401867028
 22
31.3681284626
 13
159.401867028
 23
31.3681284626
  0
SOLID
  8
0
 62
7
  6
CONTINUOUS
 10
149.6315543091
 20
31.3036012664
 11
150.1518667936
 21
31.4326554468
 12
149.9784292936
 22
31.3358640533
 13
149.9784292936
 23
31.3358640533
  0
SOLID
  8
0
 62
7
  6
CONTINUOUS
 10
149.9784292936
 20
31.3358640533
 11
149.9206168074
 21
31.2713369632
 12
149.6315543091
 22
31.3036012664
 13
149.6315543091
 23
31.3036012664
  0
SOLID
  8
0
 62
7
  6
CONTINUOUS
 10
149.5737418074
 20
31.1100184796
 11
149.6315543091
 21
31.3036012664
 12
149.9206168074
 22
31.2713369632
 13
149.9206168074
 23
31.2713369632
  0
SOLID
  8
0
 62
7
  6
CONTINUOUS
 10
154.4299918074
 20
31.2390741763
 11
154.7768668074
 21
31.271336924
 12
155.412804528
 22
31.271336924
 13
155.412804528
 23
31.271336924
  0
SOLID
  8
0
 62
7
  6
CONTINUOUS
 10
154.4299918074
 20
31.2390741763
 11
155.412804528
 21
31.271336924
 12
154.1987416972
 22
31.1745462761
 13
154.1987416972
 23
31.1745462761
  0
SOLID
  8
0
 62
7
  6
CONTINUOUS
 10
154.1987416972
 20
31.1745462761
 11
155.412804528
 21
31.271336924
 12
154.7768668074
 22
31.1422827436
 13
154.7768668074
 23
31.1422827436
  0
SOLID
  8
0
 62
7
  6
CONTINUOUS
 10
155.412804528
 20
31.271336924
 11
155.412804528
 21
31.1422827436
 12
154.7768668074
 22
31.1422827436
 13
154.7768668074
 23
31.1422827436
  0
SOLID
  8
0
 62
7
  6
CONTINUOUS
 10
159.228429528
 20
31.2390745501
 11
159.401867028
 21
31.3681283566
 12
159.4596793074
 22
31.3036012664
 13
159.4596793074
 23
31.3036012664
  0
SOLID
  8
0
 62
7
  6
CONTINUOUS
 10
159.4596793074
 20
31.3036012664
 11
159.6331168074
 21
31.2390745501
 12
159.228429528
 22
31.2390745501
 13
159.228429528
 23
31.2390745501
  0
SOLID
  8
0
 62
7
  6
CONTINUOUS
 10
159.4596793074
 20
31.1422827828
 11
159.228429528
 21
31.2390745501
 12
159.6331168074
 22
31.2390745501
 13
159.6331168074
 23
31.2390745501
  0
SOLID
  8
0
 62
7
  6
CONTINUOUS
 10
159.6331168074
 20
31.2390745501
 11
160.615929528
 21
31.0777556927
 12
159.4596793074
 22
31.1422827828
 13
159.4596793074
 23
31.1422827828
  0
SOLID
  8
0
 62
7
  6
CONTINUOUS
 10
160.442492028
 20
30.9809646623
 11
159.4596793074
 21
31.1422827828
 12
160.615929528
 22
31.0777556927
 13
160.615929528
 23
31.0777556927
  0
SOLID
  8
0
 62
7
  6
CONTINUOUS
 10
160.615929528
 20
31.0777556927
 11
160.8471793074
 21
30.9809646623
 12
160.442492028
 22
30.9809646623
 13
160.442492028
 23
30.9809646623
  0
SOLID
  8
0
 62
7
  6
CONTINUOUS
 10
160.615929528
 20
30.9164372091
 11
160.442492028
 21
30.9809646623
 12
160.8471793074
 22
30.9809646623
 13
160.8471793074
 23
30.9809646623
  0
SOLID
  8
0
 62
7
  6
CONTINUOUS
 10
160.615929528
 20
30.9164372091
 11
160.8471793074
 21
30.9809646623
 12
160.6737418074
 22
30.8519089441
 13
160.6737418074
 23
30.8519089441
  0
SOLID
  8
0
 62
7
  6
CONTINUOUS
 10
160.8471793074
 20
30.9809646623
 11
160.9628038663
 21
30.8519089441
 12
160.6737418074
 22
30.8519089441
 13
160.6737418074
 23
30.8519089441
  0
SOLID
  8
0
 62
7
  6
CONTINUOUS
 10
160.615929528
 20
30.7873818593
 11
160.6737418074
 21
30.8519089441
 12
160.9628038663
 22
30.8519089441
 13
160.9628038663
 23
30.8519089441
  0
SOLID
  8
0
 62
7
  6
CONTINUOUS
 10
160.9628038663
 20
30.8519089441
 11
160.9628038663
 21
30.7873818593
 12
160.615929528
 22
30.7873818593
 13
160.615929528
 23
30.7873818593
  0
SOLID
  8
0
 62
7
  6
CONTINUOUS
 10
160.5003043074
 20
30.7551187255
 11
160.615929528
 21
30.7873818593
 12
160.9628038663
 22
30.7873818593
 13
160.9628038663
 23
30.7873818593
  0
SOLID
  8
0
 62
7
  6
CONTINUOUS
 10
160.5003043074
 20
30.7551187255
 11
160.9628038663
 21
30.7873818593
 12
160.269054528
 22
30.7228547745
 13
160.269054528
 23
30.7228547745
  0
SOLID
  8
0
 62
7
  6
CONTINUOUS
 10
160.9628038663
 20
30.7873818593
 11
160.8471793074
 21
30.6905916353
 12
160.269054528
 22
30.7228547745
 13
160.269054528
 23
30.7228547745
  0
SOLID
  8
0
 62
7
  6
CONTINUOUS
 10
160.8471793074
 20
30.6905916353
 11
159.401867028
 21
30.658327332
 12
160.269054528
 22
30.7228547745
 13
160.269054528
 23
30.7228547745
  0
SOLID
  8
0
 62
7
  6
CONTINUOUS
 10
160.269054528
 20
30.7228547745
 11
159.401867028
 21
30.658327332
 12
159.922179528
 22
30.7228547745
 13
159.922179528
 23
30.7228547745
  0
SOLID
  8
0
 62
7
  6
CONTINUOUS
 10
159.401867028
 20
30.658327332
 11
159.228429528
 21
30.7228547745
 12
159.922179528
 22
30.7228547745
 13
159.922179528
 23
30.7228547745
  0
SOLID
  8
0
 62
7
  6
CONTINUOUS
 10
159.401867028
 20
30.658327332
 11
160.8471793074
 21
30.6905916353
 12
159.575304528
 22
30.6260629858
 13
159.575304528
 23
30.6260629858
  0
SOLID
  8
0
 62
7
  6
CONTINUOUS
 10
160.8471793074
 20
30.6905916353
 11
160.615929528
 21
30.6260629858
 12
159.575304528
 22
30.6260629858
 13
159.575304528
 23
30.6260629858
  0
SOLID
  8
0
 62
7
  6
CONTINUOUS
 10
159.922179528
 20
30.5938006049
 11
159.575304528
 21
30.6260629858
 12
160.615929528
 22
30.6260629858
 13
160.615929528
 23
30.6260629858
  0
SOLID
  8
0
 62
7
  6
CONTINUOUS
 10
160.615929528
 20
30.6260629858
 11
160.269054528
 21
30.5938006049
 12
159.922179528
 22
30.5938006049
 13
159.922179528
 23
30.5938006049
  0
SOLID
  8
0
 62
7
  6
CONTINUOUS
 10
149.5737418074
 20
31.1100184796
 11
149.9206168074
 21
31.2713369632
 12
149.8628043005
 22
31.1422827828
 13
149.8628043005
 23
31.1422827828
  0
SOLID
  8
0
 62
7
  6
CONTINUOUS
 10
149.8628043005
 20
31.1422827828
 11
149.8628043005
 21
31.0454914852
 12
149.5737418074
 22
31.1100184796
 13
149.5737418074
 23
31.1100184796
  0
SOLID
  8
0
 62
7
  6
CONTINUOUS
 10
149.6315543091
 20
30.9164372091
 11
149.5737418074
 21
31.1100184796
 12
149.8628043005
 22
31.0454914852
 13
149.8628043005
 23
31.0454914852
  0
SOLID
  8
0
 62
7
  6
CONTINUOUS
 10
149.8628043005
 20
31.0454914852
 11
149.9784292936
 21
30.8841729058
 12
149.6315543091
 22
30.9164372091
 13
149.6315543091
 23
30.9164372091
  0
SOLID
  8
0
 62
7
  6
CONTINUOUS
 10
149.7471793074
 20
30.7873813202
 11
149.6315543091
 21
30.9164372091
 12
149.9784292936
 22
30.8841729058
 13
149.9784292936
 23
30.8841729058
  0
SOLID
  8
0
 62
7
  6
CONTINUOUS
 10
149.9784292936
 20
30.8841729058
 11
150.1518667936
 21
30.7873813202
 12
149.7471793074
 22
30.7873813202
 13
149.7471793074
 23
30.7873813202
  0
SOLID
  8
0
 62
7
  6
CONTINUOUS
 10
149.8628043005
 20
30.7228547004
 11
149.7471793074
 21
30.7873813202
 12
150.1518667936
 22
30.7873813202
 13
150.1518667936
 23
30.7873813202
  0
SOLID
  8
0
 62
7
  6
CONTINUOUS
 10
150.1518667936
 20
30.7873813202
 11
150.498741835
 21
30.7228547004
 12
149.8628043005
 22
30.7228547004
 13
149.8628043005
 23
30.7228547004
  0
SOLID
  8
0
 62
7
  6
CONTINUOUS
 10
150.0362418212
 20
30.658327332
 11
149.8628043005
 21
30.7228547004
 12
150.498741835
 22
30.7228547004
 13
150.498741835
 23
30.7228547004
  0
SOLID
  8
0
 62
7
  6
CONTINUOUS
 10
154.0831168074
 20
31.1100184386
 11
154.1987416972
 21
31.1745462761
 12
154.7768668074
 22
31.1422827828
 13
154.7768668074
 23
31.1422827828
  0
SOLID
  8
0
 62
7
  6
CONTINUOUS
 10
154.7768668074
 20
31.1422827828
 11
154.5456166972
 21
31.1100184386
 12
154.0831168074
 22
31.1100184386
 13
154.0831168074
 23
31.1100184386
  0
SOLID
  8
0
 62
7
  6
CONTINUOUS
 10
153.9674919177
 20
30.9809642992
 11
154.0831168074
 21
31.1100184386
 12
154.5456166972
 22
31.1100184386
 13
154.5456166972
 23
31.1100184386
  0
SOLID
  8
0
 62
7
  6
CONTINUOUS
 10
154.3143669177
 20
31.0132277988
 11
153.9674919177
 21
30.9809642992
 12
154.4299918074
 22
31.0777556927
 13
154.4299918074
 23
31.0777556927
  0
SOLID
  8
0
 62
7
  6
CONTINUOUS
 10
153.9674919177
 20
30.9809642992
 11
154.5456166972
 21
31.1100184796
 12
154.4299918074
 22
31.0777556927
 13
154.4299918074
 23
31.0777556927
  0
SOLID
  8
0
 62
7
  6
CONTINUOUS
 10
154.3143669177
 20
31.0132277988
 11
154.2565543074
 21
30.9164372091
 12
153.9674919177
 22
30.9809642992
 13
153.9674919177
 23
30.9809642992
  0
SOLID
  8
0
 62
7
  6
CONTINUOUS
 10
153.9674919177
 20
30.8841729058
 11
153.9674919177
 21
30.9809642992
 12
154.2565543074
 22
30.9164372091
 13
154.2565543074
 23
30.9164372091
  0
SOLID
  8
0
 62
7
  6
CONTINUOUS
 10
154.2565543074
 20
30.9164372091
 11
154.2565543074
 21
30.8519086025
 12
153.9674919177
 22
30.8841729058
 13
153.9674919177
 23
30.8841729058
  0
SOLID
  8
0
 62
7
  6
CONTINUOUS
 10
154.0253041972
 20
30.7551187255
 11
153.9674919177
 21
30.8841729058
 12
154.2565543074
 22
30.8519086025
 13
154.2565543074
 23
30.8519086025
  0
SOLID
  8
0
 62
7
  6
CONTINUOUS
 10
155.412804528
 20
30.9487004259
 11
155.7018665869
 21
30.8519086025
 12
155.3549915869
 22
30.8841729058
 13
155.3549915869
 23
30.8841729058
  0
SOLID
  8
0
 62
7
  6
CONTINUOUS
 10
155.1815540869
 20
30.7873815123
 11
155.3549915869
 21
30.8841729058
 12
155.7018665869
 22
30.8519086025
 13
155.7018665869
 23
30.8519086025
  0
SOLID
  8
0
 62
7
  6
CONTINUOUS
 10
155.1815540869
 20
30.7873815123
 11
155.7018665869
 21
30.8519086025
 12
155.412804528
 22
30.7551187255
 13
155.412804528
 23
30.7551187255
  0
SOLID
  8
0
 62
7
  6
CONTINUOUS
 10
155.7018665869
 20
30.8519086025
 11
155.759679528
 21
30.6905916353
 12
155.412804528
 22
30.7551187255
 13
155.412804528
 23
30.7551187255
  0
SOLID
  8
0
 62
7
  6
CONTINUOUS
 10
155.4706168074
 20
30.658327332
 11
155.412804528
 21
30.7551187255
 12
155.759679528
 22
30.6905916353
 13
155.759679528
 23
30.6905916353
  0
SOLID
  8
0
 62
7
  6
CONTINUOUS
 10
155.4706168074
 20
30.658327332
 11
155.759679528
 21
30.6905916353
 12
155.5284290869
 22
30.5938002079
 13
155.5284290869
 23
30.5938002079
  0
SOLID
  8
0
 62
7
  6
CONTINUOUS
 10
155.759679528
 20
30.6905916353
 11
155.8174918074
 21
30.5938002079
 12
155.5284290869
 22
30.5938002079
 13
155.5284290869
 23
30.5938002079
  0
SOLID
  8
0
 62
7
  6
CONTINUOUS
 10
151.0768668626
 20
30.8196456577
 11
151.1346793074
 21
30.9164373395
 12
151.4237418626
 22
30.9164373395
 13
151.4237418626
 23
30.9164373395
  0
SOLID
  8
0
 62
7
  6
CONTINUOUS
 10
151.4237418626
 20
30.9164373395
 11
151.3659292523
 21
30.7873815123
 12
151.0768668626
 22
30.8196456577
 13
151.0768668626
 23
30.8196456577
  0
SOLID
  8
0
 62
7
  6
CONTINUOUS
 10
150.9034292799
 20
30.7551187255
 11
151.0768668626
 21
30.8196456577
 12
151.3659292523
 22
30.7873815123
 13
151.3659292523
 23
30.7873815123
  0
SOLID
  8
0
 62
7
  6
CONTINUOUS
 10
150.9034292799
 20
30.7551187255
 11
151.3659292523
 21
30.7873815123
 12
150.498741835
 22
30.7228544222
 13
150.498741835
 23
30.7228544222
  0
SOLID
  8
0
 62
7
  6
CONTINUOUS
 10
151.3659292523
 20
30.7873815123
 11
151.1924917523
 21
30.6905916353
 12
150.498741835
 22
30.7228544222
 13
150.498741835
 23
30.7228544222
  0
SOLID
  8
0
 62
7
  6
CONTINUOUS
 10
150.0362418212
 20
30.658327332
 11
150.498741835
 21
30.7228544222
 12
151.1924917523
 22
30.6905916353
 13
151.1924917523
 23
30.6905916353
  0
SOLID
  8
0
 62
7
  6
CONTINUOUS
 10
150.0362418212
 20
30.658327332
 11
151.1924917523
 21
30.6905916353
 12
150.2096793212
 22
30.6260631011
 13
150.2096793212
 23
30.6260631011
  0
SOLID
  8
0
 62
7
  6
CONTINUOUS
 10
151.1924917523
 20
30.6905916353
 11
150.9612418074
 21
30.6260631011
 12
150.2096793212
 22
30.6260631011
 13
150.2096793212
 23
30.6260631011
  0
SOLID
  8
0
 62
7
  6
CONTINUOUS
 10
150.5565542799
 20
30.5938002419
 11
150.2096793212
 21
30.6260631011
 12
150.9612418074
 22
30.6260631011
 13
150.9612418074
 23
30.6260631011
  0
SOLID
  8
0
 62
7
  6
CONTINUOUS
 10
154.0253041972
 20
30.7551187255
 11
154.2565543074
 21
30.8519086025
 12
154.3143669177
 22
30.7873815123
 13
154.3143669177
 23
30.7873815123
  0
SOLID
  8
0
 62
7
  6
CONTINUOUS
 10
154.3143669177
 20
30.7873815123
 11
154.5456166972
 21
30.7228544222
 12
154.0253041972
 22
30.7551187255
 13
154.0253041972
 23
30.7551187255
  0
SOLID
  8
0
 62
7
  6
CONTINUOUS
 10
154.1987416972
 20
30.658327332
 11
154.0253041972
 21
30.7551187255
 12
154.5456166972
 22
30.7228544222
 13
154.5456166972
 23
30.7228544222
  0
SOLID
  8
0
 62
7
  6
CONTINUOUS
 10
154.8924916972
 20
30.7228544637
 11
155.1815540869
 21
30.7873815123
 12
155.412804528
 22
30.7551187255
 13
155.412804528
 23
30.7551187255
  0
SOLID
  8
0
 62
7
  6
CONTINUOUS
 10
155.412804528
 20
30.7551187255
 11
155.3549915869
 21
30.6905916353
 12
154.8924916972
 22
30.7228544637
 13
154.8924916972
 23
30.7228544637
  0
SOLID
  8
0
 62
7
  6
CONTINUOUS
 10
155.3549915869
 20
30.6905916353
 11
154.1987416972
 21
30.658327332
 12
154.8924916972
 22
30.7228544637
 13
154.8924916972
 23
30.7228544637
  0
SOLID
  8
0
 62
7
  6
CONTINUOUS
 10
154.1987416972
 20
30.658327332
 11
154.5456166972
 21
30.7228544637
 12
154.8924916972
 22
30.7228544637
 13
154.8924916972
 23
30.7228544637
  0
SOLID
  8
0
 62
7
  6
CONTINUOUS
 10
154.1987416972
 20
30.658327332
 11
155.3549915869
 21
30.6905916353
 12
154.3143669177
 22
30.6260630541
 13
154.3143669177
 23
30.6260630541
  0
SOLID
  8
0
 62
7
  6
CONTINUOUS
 10
155.3549915869
 20
30.6905916353
 11
155.1815540869
 21
30.6260630541
 12
154.3143669177
 22
30.6260630541
 13
154.3143669177
 23
30.6260630541
  0
SOLID
  8
0
 62
7
  6
CONTINUOUS
 10
154.5456166972
 20
30.5938002188
 11
154.3143669177
 21
30.6260630541
 12
155.1815540869
 22
30.6260630541
 13
155.1815540869
 23
30.6260630541
  0
SOLID
  8
0
 62
7
  6
CONTINUOUS
 10
155.1815540869
 20
30.6260630541
 11
154.8924916972
 21
30.5938002188
 12
154.5456166972
 22
30.5938002188
 13
154.5456166972
 23
30.5938002188
  0
SOLID
  8
0
 62
7
  6
CONTINUOUS
 10
159.575304528
 20
30.7551187255
 11
159.228429528
 21
30.7228544637
 12
159.4596793074
 22
30.7873815123
 13
159.4596793074
 23
30.7873815123
  0
SOLID
  8
0
 62
7
  6
CONTINUOUS
 10
159.4596793074
 20
30.7873815123
 11
159.228429528
 21
30.7228544637
 12
159.401867028
 22
30.851908644
 13
159.401867028
 23
30.851908644
  0
SOLID
  8
0
 62
7
  6
CONTINUOUS
 10
159.228429528
 20
30.7228544637
 11
159.1128043074
 21
30.851908644
 12
159.401867028
 22
30.851908644
 13
159.401867028
 23
30.851908644
  0
SOLID
  8
0
 62
7
  6
CONTINUOUS
 10
159.575304528
 20
30.7551187255
 11
159.922179528
 21
30.7228544637
 12
159.228429528
 22
30.7228544637
 13
159.228429528
 23
30.7228544637
  0
SOLID
  8
0
 62
7
  6
CONTINUOUS
 10
156.279992028
 20
30.5938002419
 11
156.279992028
 21
31.6262382337
 12
156.5690540869
 22
30.5938002419
 13
156.5690540869
 23
31.6262382337
  0
ENDBLK
  8
0
  6
BYBLOCK
 62
0
  0
BLOCK
  8
0
 62
2
  6
CONTINUOUS
  2
SYMBOL_3_BL0
 70
64
 10
32.1213064866
 20
19.8534310916
  0
TEXT
  8
0
 62
7
  6
CONTINUOUS
 10
18.3860103289
 20
19.2268451992
  7
TEXTSTYLE_3
 40
2.7338706658
  1
Ammeraal Beltech
 41
1.0
 51
15.0
 72
0
  0
TEXT
  8
0
 62
7
  6
CONTINUOUS
 10
29.1868111546
 20
16.9533085264
  7
TEXTSTYLE_4
 40
1.0935482663
  1
Innovation & Service in Belting
 41
1.0
 72
0
  0
LINE
  8
0
 62
7
  6
CONTINUOUS
 10
12.3614696776
 20
19.9934385078
 11
13.1396216709
 21
23.6543558055
  0
LINE
  8
0
 62
7
  6
CONTINUOUS
 10
23.2347899607
 20
27.3177497171
 11
13.6274394139
 21
24.1961322958
  0
LINE
  8
0
 62
7
  6
CONTINUOUS
 10
12.5867530099
 20
19.3000877048
 11
20.093828271
 21
12.5406867788
  0
LINE
  8
0
 62
7
  6
CONTINUOUS
 10
12.8492874206
 20
20.5352149982
 11
23.6575567857
 21
24.0470345971
  0
LINE
  8
0
 62
7
  6
CONTINUOUS
 10
23.6533516486
 20
13.6972460334
 11
15.2078919798
 21
21.3015720751
  0
LINE
  8
0
 62
7
  6
CONTINUOUS
 10
24.1731743684
 20
26.4728246013
 11
23.1966148312
 21
21.8784731989
  0
LINE
  8
0
 62
7
  6
CONTINUOUS
 10
22.4968128835
 20
18.5861638851
 11
21.810364672
 21
15.3566789607
  0
LINE
  8
0
 62
7
  6
CONTINUOUS
 10
24.8542704669
 20
14.087448211
 11
25.8105020025
 21
18.5861638851
  0
LINE
  8
0
 62
7
  6
CONTINUOUS
 10
26.5103039502
 20
21.8784731989
 11
26.9545457526
 21
23.9684665583
  0
LINE
  8
0
 62
7
  6
CONTINUOUS
 10
20.8069293463
 20
12.3891124661
 11
24.3664527239
 21
13.5456717207
  0
LINE
  8
0
 62
7
  6
CONTINUOUS
 10
23.9478910361
 20
27.1661754044
 11
26.7292624203
 21
24.6618173613
  0
ARC
  8
0
 62
7
  6
CONTINUOUS
 10
13.8527227462
 20
23.5027814928
 40
0.7290321776
 50
108.0
 51
168.0
  0
ARC
  8
0
 62
7
  6
CONTINUOUS
 10
23.4600732931
 20
26.624398914
 40
0.7290321776
 50
348.0
 51
108.0
  0
ARC
  8
0
 62
7
  6
CONTINUOUS
 10
26.2414446773
 20
24.120040871
 40
0.7290321776
 50
348.0
 51
48.0
  0
ARC
  8
0
 62
7
  6
CONTINUOUS
 10
20.581646014
 20
13.0824632691
 40
0.7290321776
 50
228.0
 51
288.0
  0
ARC
  8
0
 62
7
  6
CONTINUOUS
 10
13.0745707529
 20
19.8418641951
 40
0.7290321776
 50
108.0
 51
228.0
  0
ARC
  8
0
 62
7
  6
CONTINUOUS
 10
24.1411693916
 20
14.2390225237
 40
0.7290321776
 50
228.0
 51
348.0
  0
ENDBLK
  8
0
  6
BYBLOCK
 62
0
  0
ENDSEC
  0
SECTION
  2
ENTITIES
  0
TEXT
  8
0
 62
5
  6
CONTINUOUS
 10
96.0
 20
25.636
  7
TEXTSTYLE_2
 40
2.8
  1
Scale :
 41
0.6
 51
0.000019
 72
0
  0
TEXT
  8
0
 62
5
  6
CONTINUOUS
 10
116.0
 20
25.636
  7
TEXTSTYLE_2
 40
2.8
  1
Belt type:
 41
0.6
 51
0.000019
 72
0
  0
INSERT
  8
0
 62
2
  6
CONTINUOUS
  2
SYMBOL_3_BL0
 10
32.1213064866
 20
19.8534310916
  0
INSERT
  8
0
 62
2
  6
CONTINUOUS
  2
SYMBOL_8_BL1
 10
173.5956734183
 20
35.5937998301
  0
LINE
  8
0
 62
2
  6
CONTINUOUS
 10
10.0
 20
30.0
 11
200.0
 21
30.0
  0
LINE
  8
0
 62
2
  6
CONTINUOUS
 10
10.0
 20
30.0
 11
10.0
 21
10.0
  0
LINE
  8
0
 62
2
  6
CONTINUOUS
 10
10.0
 20
10.0
 11
200.0
 21
10.0
  0
LINE
  8
0
 62
2
  6
CONTINUOUS
 10
95.0
 20
30.0
 11
95.0
 21
10.0
  0
LINE
  8
0
 62
2
  6
CONTINUOUS
 10
115.0
 20
30.0
 11
115.0
 21
10.0
  0
LINE
  8
0
 62
2
  6
CONTINUOUS
 10
200.0
 20
30.0
 11
200.0
 21
10.0
  0
TEXT
  8
0
 62
5
  6
CONTINUOUS
 10
13.0
 20
23.303
  7
TEXTSTYLE_5
 40
1.52
  1
                                                                     Ammeraal Beltech Modular A/S
 41
1.0
 72
0
  0
TEXT
  8
0
 62
5
  6
CONTINUOUS
 10
13.0
 20
20.595
  7
TEXTSTYLE_5
 40
1.5
  1
                                                                      Hjulmagervej 21,  7100 Vejle,  DK
 41
1.0
 72
0
  0
TEXT
  8
0
 62
5
  6
CONTINUOUS
 10
13.0
 20
17.881
  7
TEXTSTYLE_5
 40
1.495
  1
                                                                      tel: 
 41
1.0
 72
0
  0
TEXT
  8
0
 62
5
  6
CONTINUOUS
 10
57.9869465649
 20
17.881
  7
TEXTSTYLE_5
 40
1.51
  1
+45 75723100     fax: +45 75723348
 41
1.0
 72
0
  0
TEXT
  8
0
 62
5
  6
CONTINUOUS
 10
13.0
 20
15.177
  7
TEXTSTYLE_5
 40
1.5
  1
                                                                      admin@unichains.dk  www.unichains.com
 41
1.0
 72
0
  0
TEXT
  8
0
 62
5
  6
CONTINUOUS
 10
99.75
 20
13.75
  7
TEXTSTYLE_6
 40
5.0
  1
1:1
 41
0.7
 72
1
 11
105.0
 21
13.75
  0
TEXT
  8
0
 62
5
  6
CONTINUOUS
 10
118.0
 20
13.75
  7
TEXTSTYLE_7
 40
7.5
  1
uni S-MPB Side Guard 3" Left
 41
0.3659598214
 72
0
  0
LINE
  8
0
 62
7
  6
CONTINUOUS
 10
210.0
 20
0.0
 11
0.0
 21
0.0
  0
LINE
  8
0
 62
7
  6
CONTINUOUS
 10
10.0
 20
10.0
 11
200.0
 21
10.0
  0
LINE
  8
0
 62
7
  6
CONTINUOUS
 10
10.0
 20
30.0
 11
200.0
 21
30.0
  0
LINE
  8
0
 62
7
  6
CONTINUOUS
 10
0.0
 20
0.0
 11
0.0
 21
297.0
  0
LINE
  8
0
 62
7
  6
CONTINUOUS
 10
10.0
 20
10.0
 11
10.0
 21
287.0
  0
LINE
  8
0
 62
7
  6
CONTINUOUS
 10
200.0
 20
287.0
 11
200.0
 21
10.0
  0
LINE
  8
0
 62
7
  6
CONTINUOUS
 10
210.0
 20
0.0
 11
210.0
 21
297.0
  0
LINE
  8
0
 62
7
  6
CONTINUOUS
 10
10.0
 20
287.0
 11
200.0
 21
287.0
  0
LINE
  8
0
 62
7
  6
CONTINUOUS
 10
0.0
 20
297.0
 11
210.0
 21
297.0
  0
LINE
  8
0
 62
7
  6
CONTINUOUS
 10
29.2054775837
 20
112.1346814306
 11
29.2054775837
 21
114.1568936877
  0
POLYLINE
  8
0
 62
7
  6
CONTINUOUS
 66
1
 70
0
  0
VERTEX
  8
0
 62
7
  6
CONTINUOUS
 10
44.8873379434
 20
113.3664360804
  0
VERTEX
  8
0
 62
7
  6
CONTINUOUS
 10
44.8889479321
 20
113.3162505347
  0
VERTEX
  8
0
 62
7
  6
CONTINUOUS
 10
44.9173168727
 20
113.1514588235
  0
VERTEX
  8
0
 62
7
  6
CONTINUOUS
 10
44.9805560875
 20
112.992397071
  0
VERTEX
  8
0
 62
7
  6
CONTINUOUS
 10
45.0750747493
 20
112.845679322
  0
VERTEX
  8
0
 62
7
  6
CONTINUOUS
 10
45.1971072264
 20
112.7129147946
  0
VERTEX
  8
0
 62
7
  6
CONTINUOUS
 10
45.3466260559
 20
112.5914167223
  0
VERTEX
  8
0
 62
7
  6
CONTINUOUS
 10
45.528778726
 20
112.4769464358
  0
VERTEX
  8
0
 62
7
  6
CONTINUOUS
 10
45.7492251494
 20
112.3677096976
  0
VERTEX
  8
0
 62
7
  6
CONTINUOUS
 10
46.008147983
 20
112.2652751367
  0
VERTEX
  8
0
 62
7
  6
CONTINUOUS
 10
46.3036684708
 20
112.1711800987
  0
VERTEX
  8
0
 62
7
  6
CONTINUOUS
 10
46.6326895183
 20
112.0866734988
  0
VERTEX
  8
0
 62
7
  6
CONTINUOUS
 10
46.9893650848
 20
112.0131100342
  0
VERTEX
  8
0
 62
7
  6
CONTINUOUS
 10
47.3654041375
 20
111.951596341
  0
VERTEX
  8
0
 62
7
  6
CONTINUOUS
 10
47.7508680515
 20
111.9027062478
  0
VERTEX
  8
0
 62
7
  6
CONTINUOUS
 10
48.1347462906
 20
111.8663695554
  0
VERTEX
  8
0
 62
7
  6
CONTINUOUS
 10
48.5279277544
 20
111.8401261663
  0
SEQEND
  0
LINE
  8
0
 62
7
  6
CONTINUOUS
 10
44.8873377627
 20
113.366359937
 11
44.8873377627
 21
113.8974572228
  0
LINE
  8
0
 62
7
  6
CONTINUOUS
 10
44.8873377627
 20
116.9307756064
 11
44.8873377627
 21
117.4197285377
  0
LINE
  8
0
 62
7
  6
CONTINUOUS
 10
48.5873377627
 20
114.1022587891
 11
48.5873377627
 21
112.7345095315
  0
LINE
  8
DEFAULT_1
 62
7
  6
CENTER
 10
49.2873377627
 20
110.1520370841
 11
49.2873377627
 21
119.9197285377
  0
LINE
  8
0
 62
7
  6
CONTINUOUS
 10
51.0873377627
 20
114.5655568933
 11
51.0873377627
 21
112.8283143403
  0
POLYLINE
  8
0
 62
7
  6
CONTINUOUS
 66
1
 70
0
  0
VERTEX
  8
0
 62
7
  6
CONTINUOUS
 10
51.9723377627
 20
114.6978223234
  0
VERTEX
  8
0
 62
7
  6
CONTINUOUS
 10
51.9723274319
 20
114.6990162779
  0
VERTEX
  8
0
 62
7
  6
CONTINUOUS
 10
51.9722970907
 20
114.6978111685
  0
SEQEND
  0
LINE
  8
0
 62
7
  6
CONTINUOUS
 10
51.9723377627
 20
112.3213412241
 11
51.9723377627
 21
114.9563175674
  0
LINE
  8
0
 62
7
  6
CONTINUOUS
 10
52.8723377627
 20
115.0908234686
 11
52.8723377627
 21
112.7343053866
  0
POLYLINE
  8
0
 62
7
  6
CONTINUOUS
 66
1
 70
0
  0
VERTEX
  8
0
 62
7
  6
CONTINUOUS
 10
48.5279277544
 20
111.8401261663
  0
VERTEX
  8
0
 62
7
  6
CONTINUOUS
 10
48.6071863555
 20
111.8331803244
  0
VERTEX
  8
0
 62
7
  6
CONTINUOUS
 10
48.6797987373
 20
111.8247923354
  0
VERTEX
  8
0
 62
7
  6
CONTINUOUS
 10
48.7463688137
 20
111.8154717461
  0
VERTEX
  8
0
 62
7
  6
CONTINUOUS
 10
48.8083122684
 20
111.8055946637
  0
VERTEX
  8
0
 62
7
  6
CONTINUOUS
 10
48.9275858186
 20
111.7852580947
  0
SEQEND
  0
POLYLINE
  8
0
 62
7
  6
CONTINUOUS
 66
1
 70
0
  0
VERTEX
  8
0
 62
7
  6
CONTINUOUS
 10
48.9275858186
 20
111.7852580947
  0
VERTEX
  8
0
 62
7
  6
CONTINUOUS
 10
48.993877103
 20
111.7755154773
  0
VERTEX
  8
0
 62
7
  6
CONTINUOUS
 10
49.05674432
 20
111.7697943271
  0
VERTEX
  8
0
 62
7
  6
CONTINUOUS
 10
49.0902728968
 20
111.7689128812
  0
SEQEND
  0
POLYLINE
  8
0
 62
7
  6
CONTINUOUS
 66
1
 70
0
  0
VERTEX
  8
0
 62
7
  6
CONTINUOUS
 10
51.4723377627
 20
111.8213412244
  0
VERTEX
  8
0
 62
7
  6
CONTINUOUS
 10
51.5027470854
 20
111.8222668077
  0
VERTEX
  8
0
 62
7
  6
CONTINUOUS
 10
51.5834014323
 20
111.8338323921
  0
VERTEX
  8
0
 62
7
  6
CONTINUOUS
 10
51.6614403733
 20
111.858480335
  0
VERTEX
  8
0
 62
7
  6
CONTINUOUS
 10
51.7369375772
 20
111.8970925492
  0
VERTEX
  8
0
 62
7
  6
CONTINUOUS
 10
51.8057204574
 20
111.9487073839
  0
VERTEX
  8
0
 62
7
  6
CONTINUOUS
 10
51.8639857764
 20
112.0105167828
  0
VERTEX
  8
0
 62
7
  6
CONTINUOUS
 10
51.9109703368
 20
112.0813381721
  0
VERTEX
  8
0
 62
7
  6
CONTINUOUS
 10
51.9453726644
 20
112.1593598
  0
VERTEX
  8
0
 62
7
  6
CONTINUOUS
 10
51.9657051167
 20
112.2401706998
  0
VERTEX
  8
0
 62
7
  6
CONTINUOUS
 10
51.9723377627
 20
112.3213412241
  0
SEQEND
  0
POLYLINE
  8
0
 62
7
  6
CONTINUOUS
 66
1
 70
0
  0
VERTEX
  8
0
 62
7
  6
CONTINUOUS
 10
50.5873369028
 20
111.7687794161
  0
VERTEX
  8
0
 62
7
  6
CONTINUOUS
 10
50.6320241667
 20
111.7700324779
  0
VERTEX
  8
0
 62
7
  6
CONTINUOUS
 10
50.7085918544
 20
111.7763550201
  0
VERTEX
  8
0
 62
7
  6
CONTINUOUS
 10
50.7852941988
 20
111.7850054809
  0
VERTEX
  8
0
 62
7
  6
CONTINUOUS
 10
50.8618288717
 20
111.793981003
  0
VERTEX
  8
0
 62
7
  6
CONTINUOUS
 10
50.9421913233
 20
111.8026651363
  0
VERTEX
  8
0
 62
7
  6
CONTINUOUS
 10
51.0281173562
 20
111.8104388572
  0
VERTEX
  8
0
 62
7
  6
CONTINUOUS
 10
51.1209321177
 20
111.8166525712
  0
VERTEX
  8
0
 62
7
  6
CONTINUOUS
 10
51.2207981621
 20
111.8205131468
  0
VERTEX
  8
0
 62
7
  6
CONTINUOUS
 10
51.2915782652
 20
111.8213422305
  0
SEQEND
  0
LINE
  8
0
 62
7
  6
CONTINUOUS
 10
51.2915782655
 20
111.8213412241
 11
51.4723377627
 21
111.8213412241
  0
LINE
  8
0
 62
7
  6
CONTINUOUS
 10
49.0902737717
 20
111.7689126545
 11
50.5873369249
 21
111.7687779981
  0
LINE
  8
0
 62
7
  6
CONTINUOUS
 10
48.3279795315
 20
114.3994931186
 11
48.3402350629
 21
114.3975584261
  0
LINE
  8
0
 62
7
  6
CONTINUOUS
 10
48.3471389592
 20
114.3962380688
 11
48.3453884371
 21
114.3965887386
  0
POLYLINE
  8
0
 62
7
  6
CONTINUOUS
 66
1
 70
0
  0
VERTEX
  8
0
 62
7
  6
CONTINUOUS
 10
72.0721547824
 20
123.8708552569
  0
VERTEX
  8
0
 62
7
  6
CONTINUOUS
 10
72.0405166124
 20
123.859155383
  0
VERTEX
  8
0
 62
7
  6
CONTINUOUS
 10
72.0024983178
 20
123.8470436014
  0
SEQEND
  0
POLYLINE
  8
0
 62
7
  6
CONTINUOUS
 66
1
 70
0
  0
VERTEX
  8
0
 62
7
  6
CONTINUOUS
 10
71.4587924963
 20
123.6841034154
  0
VERTEX
  8
0
 62
7
  6
CONTINUOUS
 10
71.4086699853
 20
123.6661210934
  0
VERTEX
  8
0
 62
7
  6
CONTINUOUS
 10
71.3346548671
 20
123.6274618442
  0
VERTEX
  8
0
 62
7
  6
CONTINUOUS
 10
71.2676719915
 20
123.5766336151
  0
VERTEX
  8
0
 62
7
  6
CONTINUOUS
 10
71.2101376894
 20
123.5152792472
  0
VERTEX
  8
0
 62
7
  6
CONTINUOUS
 10
71.1637920475
 20
123.445313417
  0
VERTEX
  8
0
 62
7
  6
CONTINUOUS
 10
71.1298840092
 20
123.3688204116
  0
VERTEX
  8
0
 62
7
  6
CONTINUOUS
 10
71.1092507093
 20
123.2880079362
  0
VERTEX
  8
0
 62
7
  6
CONTINUOUS
 10
71.1023377627
 20
123.2051516888
  0
SEQEND
  0
LINE
  8
0
 62
7
  6
CONTINUOUS
 10
72.0024686991
 20
123.847034944
 11
71.4588022996
 21
123.6841063535
  0
LINE
  8
DEFAULT_1
 62
7
  6
CENTER
 10
61.9873377627
 20
122.3697285377
 11
61.9873377627
 21
119.9698285377
  0
LINE
  8
0
 62
2
  6
CONTINUOUS
 10
61.9873377627
 20
118.8497285377
 11
61.9873377627
 21
117.0897285377
  0
LINE
  8
DEFAULT_1
 62
7
  6
CENTER
 10
61.9873377627
 20
113.5697285377
 11
61.9873377627
 21
115.9696285377
  0
LINE
  8
0
 62
7
  6
CONTINUOUS
 10
94.3430971866
 20
121.2886699912
 11
29.7793877083
 21
111.6395589589
  0
LINE
  8
0
 62
7
  6
CONTINUOUS
 10
45.3873416116
 20
117.9197285377
 11
51.5045763382
 21
117.9197285377
  0
LINE
  8
DEFAULT_1
 62
7
  6
CENTER
 10
66.3873377627
 20
117.9697285377
 11
63.9874377627
 21
117.9697285377
  0
LINE
  8
0
 62
2
  6
CONTINUOUS
 10
62.8673377627
 20
117.9697285377
 11
61.1073377627
 21
117.9697285377
  0
LINE
  8
DEFAULT_1
 62
7
  6
CENTER
 10
57.5873377627
 20
117.9697285377
 11
59.9872377627
 21
117.9697285377
  0
LINE
  8
0
 62
7
  6
CONTINUOUS
 10
78.5873339136
 20
118.0197285377
 11
72.4700991872
 21
118.0197285377
  0
POLYLINE
  8
0
 62
7
  6
CONTINUOUS
 66
1
 70
0
  0
VERTEX
  8
0
 62
7
  6
CONTINUOUS
 10
51.9025206544
 20
112.068601685
  0
VERTEX
  8
0
 62
7
  6
CONTINUOUS
 10
51.9341576049
 20
112.0803012257
  0
VERTEX
  8
0
 62
7
  6
CONTINUOUS
 10
51.9721770375
 20
112.0924134581
  0
SEQEND
  0
POLYLINE
  8
0
 62
7
  6
CONTINUOUS
 66
1
 70
0
  0
VERTEX
  8
0
 62
7
  6
CONTINUOUS
 10
52.5158830291
 20
112.25535366
  0
VERTEX
  8
0
 62
7
  6
CONTINUOUS
 10
52.5660055401
 20
112.273335982
  0
VERTEX
  8
0
 62
7
  6
CONTINUOUS
 10
52.6400206583
 20
112.3119952312
  0
VERTEX
  8
0
 62
7
  6
CONTINUOUS
 10
52.7070035339
 20
112.3628234603
  0
VERTEX
  8
0
 62
7
  6
CONTINUOUS
 10
52.764537836
 20
112.4241778282
  0
VERTEX
  8
0
 62
7
  6
CONTINUOUS
 10
52.8108834779
 20
112.4941436584
  0
VERTEX
  8
0
 62
7
  6
CONTINUOUS
 10
52.8447915162
 20
112.5706366638
  0
VERTEX
  8
0
 62
7
  6
CONTINUOUS
 10
52.8654248161
 20
112.6514491393
  0
VERTEX
  8
0
 62
7
  6
CONTINUOUS
 10
52.8723377627
 20
112.7343053866
  0
SEQEND
  0
LINE
  8
0
 62
7
  6
CONTINUOUS
 10
94.1952878171
 20
124.2998981165
 11
29.6315783045
 21
114.6507870791
  0
LINE
  8
0
 62
7
  6
CONTINUOUS
 10
51.9722068263
 20
112.0924221314
 11
52.5158732258
 21
112.2553507219
  0
POLYLINE
  8
0
 62
7
  6
CONTINUOUS
 66
1
 70
0
  0
VERTEX
  8
0
 62
7
  6
CONTINUOUS
 10
72.5023377627
 20
124.118115851
  0
VERTEX
  8
0
 62
7
  6
CONTINUOUS
 10
72.47192844
 20
124.1171902677
  0
VERTEX
  8
0
 62
7
  6
CONTINUOUS
 10
72.3912740931
 20
124.1056246833
  0
VERTEX
  8
0
 62
7
  6
CONTINUOUS
 10
72.3132351521
 20
124.0809767404
  0
VERTEX
  8
0
 62
7
  6
CONTINUOUS
 10
72.2377379482
 20
124.0423645262
  0
VERTEX
  8
0
 62
7
  6
CONTINUOUS
 10
72.168955068
 20
123.9907496915
  0
VERTEX
  8
0
 62
7
  6
CONTINUOUS
 10
72.110689749
 20
123.9289402926
  0
VERTEX
  8
0
 62
7
  6
CONTINUOUS
 10
72.0637051886
 20
123.8581189033
  0
VERTEX
  8
0
 62
7
  6
CONTINUOUS
 10
72.029302861
 20
123.7800972754
  0
VERTEX
  8
0
 62
7
  6
CONTINUOUS
 10
72.0089704087
 20
123.6992863756
  0
VERTEX
  8
0
 62
7
  6
CONTINUOUS
 10
72.0023377627
 20
123.6181158513
  0
SEQEND
  0
POLYLINE
  8
0
 62
7
  6
CONTINUOUS
 66
1
 70
0
  0
VERTEX
  8
0
 62
7
  6
CONTINUOUS
 10
73.3873386226
 20
124.1706776594
  0
VERTEX
  8
0
 62
7
  6
CONTINUOUS
 10
73.3426513587
 20
124.1694245975
  0
VERTEX
  8
0
 62
7
  6
CONTINUOUS
 10
73.266083671
 20
124.1631020553
  0
VERTEX
  8
0
 62
7
  6
CONTINUOUS
 10
73.1893813266
 20
124.1544515945
  0
VERTEX
  8
0
 62
7
  6
CONTINUOUS
 10
73.1128466537
 20
124.1454760724
  0
VERTEX
  8
0
 62
7
  6
CONTINUOUS
 10
73.0324842021
 20
124.1367919391
  0
VERTEX
  8
0
 62
7
  6
CONTINUOUS
 10
72.9465581692
 20
124.1290182182
  0
VERTEX
  8
0
 62
7
  6
CONTINUOUS
 10
72.8537434077
 20
124.1228045042
  0
VERTEX
  8
0
 62
7
  6
CONTINUOUS
 10
72.7538773633
 20
124.1189439287
  0
VERTEX
  8
0
 62
7
  6
CONTINUOUS
 10
72.6830972602
 20
124.1181148449
  0
SEQEND
  0
LINE
  8
0
 62
7
  6
CONTINUOUS
 10
72.6830972599
 20
124.1181158513
 11
72.5023377627
 21
124.1181158513
  0
LINE
  8
0
 62
7
  6
CONTINUOUS
 10
74.8844017511
 20
124.1705444209
 11
73.3873386005
 21
124.1706790773
  0
POLYLINE
  8
0
 62
7
  6
CONTINUOUS
 66
1
 70
0
  0
VERTEX
  8
0
 62
7
  6
CONTINUOUS
 10
75.4961977698
 20
124.0961709489
  0
VERTEX
  8
0
 62
7
  6
CONTINUOUS
 10
75.4467478039
 20
124.0993309059
  0
VERTEX
  8
0
 62
7
  6
CONTINUOUS
 10
75.36748922
 20
124.1062767458
  0
VERTEX
  8
0
 62
7
  6
CONTINUOUS
 10
75.2948768515
 20
124.1146647318
  0
VERTEX
  8
0
 62
7
  6
CONTINUOUS
 10
75.2283067856
 20
124.1239853181
  0
VERTEX
  8
0
 62
7
  6
CONTINUOUS
 10
75.1663633391
 20
124.133862398
  0
VERTEX
  8
0
 62
7
  6
CONTINUOUS
 10
75.0470898378
 20
124.1541989594
  0
SEQEND
  0
LINE
  8
0
 62
7
  6
CONTINUOUS
 10
71.1023377627
 20
120.8486336068
 11
71.1023377627
 21
123.2051516888
  0
POLYLINE
  8
0
 62
7
  6
CONTINUOUS
 66
1
 70
0
  0
VERTEX
  8
0
 62
7
  6
CONTINUOUS
 10
75.0470898378
 20
124.1541989594
  0
VERTEX
  8
0
 62
7
  6
CONTINUOUS
 10
74.9807988086
 20
124.16394155
  0
VERTEX
  8
0
 62
7
  6
CONTINUOUS
 10
74.9179316361
 20
124.1696627262
  0
VERTEX
  8
0
 62
7
  6
CONTINUOUS
 10
74.8844026262
 20
124.1705441944
  0
SEQEND
  0
POLYLINE
  8
0
 62
7
  6
CONTINUOUS
 66
1
 70
0
  0
VERTEX
  8
0
 62
7
  6
CONTINUOUS
 10
72.0023377627
 20
121.2416347458
  0
VERTEX
  8
0
 62
7
  6
CONTINUOUS
 10
72.0023480003
 20
121.2404405172
  0
VERTEX
  8
0
 62
7
  6
CONTINUOUS
 10
72.0023784347
 20
121.241645907
  0
SEQEND
  0
LINE
  8
0
 62
7
  6
CONTINUOUS
 10
72.0023377627
 20
123.6181158513
 11
72.0023377627
 21
120.983139508
  0
LINE
  8
0
 62
7
  6
CONTINUOUS
 10
72.8873377627
 20
121.3739001822
 11
72.8873377627
 21
123.1111427351
  0
LINE
  8
DEFAULT_1
 62
7
  6
CENTER
 10
74.6873377627
 20
116.0197285377
 11
74.6873377627
 21
125.7874199913
  0
LINE
  8
0
 62
7
  6
CONTINUOUS
 10
75.3873377627
 20
123.2049475645
 11
75.3873377627
 21
121.8371982863
  0
POLYLINE
  8
0
 62
7
  6
CONTINUOUS
 66
1
 70
0
  0
VERTEX
  8
0
 62
7
  6
CONTINUOUS
 10
79.0873375951
 20
122.5730211093
  0
VERTEX
  8
0
 62
7
  6
CONTINUOUS
 10
79.0857277474
 20
122.6232043541
  0
VERTEX
  8
0
 62
7
  6
CONTINUOUS
 10
79.0573596649
 20
122.7879946241
  0
VERTEX
  8
0
 62
7
  6
CONTINUOUS
 10
78.994121608
 20
122.9470558194
  0
VERTEX
  8
0
 62
7
  6
CONTINUOUS
 10
78.8996047006
 20
123.0937727339
  0
VERTEX
  8
0
 62
7
  6
CONTINUOUS
 10
78.7775741226
 20
123.226536828
  0
VERTEX
  8
0
 62
7
  6
CONTINUOUS
 10
78.6280575079
 20
123.3480346134
  0
VERTEX
  8
0
 62
7
  6
CONTINUOUS
 10
78.4459080725
 20
123.4625043507
  0
VERTEX
  8
0
 62
7
  6
CONTINUOUS
 10
78.2254656222
 20
123.5717406311
  0
VERTEX
  8
0
 62
7
  6
CONTINUOUS
 10
77.9665466467
 20
123.6741751588
  0
VERTEX
  8
0
 62
7
  6
CONTINUOUS
 10
77.6710293176
 20
123.7682706043
  0
VERTEX
  8
0
 62
7
  6
CONTINUOUS
 10
77.3420102033
 20
123.8527779966
  0
VERTEX
  8
0
 62
7
  6
CONTINUOUS
 10
76.9853347907
 20
123.9263425546
  0
VERTEX
  8
0
 62
7
  6
CONTINUOUS
 10
76.6092936489
 20
123.9878575141
  0
VERTEX
  8
0
 62
7
  6
CONTINUOUS
 10
76.2238250721
 20
124.0367488876
  0
VERTEX
  8
0
 62
7
  6
CONTINUOUS
 10
75.8399394535
 20
124.0730867043
  0
VERTEX
  8
0
 62
7
  6
CONTINUOUS
 10
75.4961889913
 20
124.0961716175
  0
SEQEND
  0
LINE
  8
0
 62
7
  6
CONTINUOUS
 10
79.0873377627
 20
118.5197285377
 11
79.0873377627
 21
119.008681469
  0
LINE
  8
0
 62
7
  6
CONTINUOUS
 10
79.0873377627
 20
122.0419998526
 11
79.0873377627
 21
122.5730971418
  0
LINE
  8
0
 62
7
  6
CONTINUOUS
 10
94.7691979417
 20
121.7825633722
 11
94.7691979417
 21
123.8047756467
  0
LINE
  8
0
 62
2
  6
CONTINUOUS
 10
75.5673377627
 20
157.0309311279
 11
73.8073377627
 21
157.0309311279
  0
LINE
  8
DEFAULT_1
 62
2
  6
CENTER
 10
70.2873377627
 20
157.0309311279
 11
70.0873377627
 21
157.0309311279
  0
LINE
  8
0
 62
2
  6
CONTINUOUS
 10
50.1673377627
 20
157.0309311279
 11
48.4073377627
 21
157.0309311279
  0
LINE
  8
DEFAULT_1
 62
2
  6
CENTER
 10
44.8873377627
 20
157.0309311279
 11
44.6873377627
 21
157.0309311279
  0
LINE
  8
DEFAULT_1
 62
2
  6
CENTER
 10
53.6873377627
 20
157.0309311279
 11
53.8873377627
 21
157.0309311279
  0
LINE
  8
DEFAULT_1
 62
2
  6
CENTER
 10
79.0873377627
 20
157.0309311279
 11
79.2873377627
 21
157.0309311279
  0
LINE
  8
0
 62
7
  6
CONTINUOUS
 10
51.291579825
 20
161.4309311279
 11
51.4723377627
 21
161.4309311279
  0
LINE
  8
CURVE
 62
4
  6
CONTINUOUS
 10
71.1023377627
 20
161.8309311279
 11
52.8723377627
 21
161.8309311279
  0
LINE
  8
0
 62
7
  6
CONTINUOUS
 10
52.5723377627
 20
162.4309311279
 11
71.4023377627
 21
162.4309311279
  0
LINE
  8
0
 62
7
  6
CONTINUOUS
 10
52.201409363
 20
160.3310519047
 11
52.7450757625
 21
159.7229941269
  0
LINE
  8
0
 62
7
  6
CONTINUOUS
 10
76.5828823814
 20
161.0018002201
 11
76.5944261833
 21
160.9961567049
  0
LINE
  8
0
 62
7
  6
CONTINUOUS
 10
29.3758484522
 20
231.3368359024
 11
47.9127528996
 21
162.1561666896
  0
LINE
  8
0
 62
7
  6
CONTINUOUS
 10
48.5873377627
 20
163.500784176
 11
48.5873377627
 21
161.6233161292
  0
LINE
  8
0
 62
2
  6
CONTINUOUS
 10
49.2873377627
 20
157.9109311279
 11
49.2873377627
 21
156.1509311279
  0
LINE
  8
DEFAULT_1
 62
2
  6
CENTER
 10
49.2873377627
 20
152.6309311279
 11
49.2873377627
 21
152.4309311279
  0
LINE
  8
DEFAULT_1
 62
2
  6
CENTER
 10
49.2873377627
 20
161.4309311279
 11
49.2873377627
 21
161.6309311279
  0
LINE
  8
0
 62
7
  6
CONTINUOUS
 10
51.0873377627
 20
164.3532765951
 11
51.0873377627
 21
161.7309311279
  0
LINE
  8
0
 62
7
  6
CONTINUOUS
 10
51.9723377627
 20
160.9309311279
 11
51.9723377627
 21
161.8309311279
  0
LINE
  8
0
 62
7
  6
CONTINUOUS
 10
52.8723377627
 20
159.3897278918
 11
52.8723377627
 21
154.6449774402
  0
LINE
  8
DEFAULT_1
 62
2
  6
CENTER
 10
61.9873377627
 20
150.6309311279
 11
61.9873377627
 21
239.6309311279
  0
LINE
  8
0
 62
7
  6
CONTINUOUS
 10
71.1023377627
 20
159.3897278918
 11
71.1023377627
 21
154.6449774402
  0
LINE
  8
0
 62
7
  6
CONTINUOUS
 10
72.0023377627
 20
161.8309311279
 11
72.0023377627
 21
160.9309311279
  0
LINE
  8
0
 62
2
  6
CONTINUOUS
 10
74.6873377627
 20
157.9109311279
 11
74.6873377627
 21
156.1509311279
  0
LINE
  8
DEFAULT_1
 62
2
  6
CENTER
 10
74.6873377627
 20
152.6309311279
 11
74.6873377627
 21
152.4309311279
  0
LINE
  8
DEFAULT_1
 62
2
  6
CENTER
 10
74.6873377627
 20
161.4309311279
 11
74.6873377627
 21
161.6309311279
  0
LINE
  8
0
 62
7
  6
CONTINUOUS
 10
76.0619226258
 20
162.1561666896
 11
94.5988270731
 21
231.3368359024
  0
LINE
  8
0
 62
7
  6
CONTINUOUS
 10
71.7732661624
 20
160.3310519047
 11
71.2295997629
 21
159.7229941269
  0
LINE
  8
CURVE
 62
4
  6
CONTINUOUS
 10
71.7732661624
 20
160.3310519047
 11
71.2295997629
 21
159.7229941269
  0
LINE
  8
0
 62
7
  6
CONTINUOUS
 10
89.7691979417
 20
237.6309311279
 11
34.2054775837
 21
237.6309311279
  0
LINE
  8
0
 62
7
  6
CONTINUOUS
 10
107.4086153385
 20
114.4102915512
 11
107.4086153385
 21
117.4197285377
  0
LINE
  8
0
 62
7
  6
CONTINUOUS
 10
107.4086153385
 20
118.5197285377
 11
107.4086153385
 21
121.5291655245
  0
LINE
  8
0
 62
9
  6
CONTINUOUS
 10
109.1167701523
 20
121.933799637
 11
109.1167701523
 21
118.5197285377
  0
LINE
  8
0
 62
9
  6
CONTINUOUS
 10
109.4226616507
 20
118.0197285377
 11
109.4226616507
 21
121.933799637
  0
POLYLINE
  8
0
 62
9
  6
CONTINUOUS
 66
1
 70
0
  0
VERTEX
  8
0
 62
9
  6
CONTINUOUS
 10
109.1167701523
 20
121.933799637
  0
VERTEX
  8
0
 62
9
  6
CONTINUOUS
 10
109.1071235842
 20
122.0196713097
  0
VERTEX
  8
0
 62
9
  6
CONTINUOUS
 10
109.1072782851
 20
122.102875627
  0
VERTEX
  8
0
 62
9
  6
CONTINUOUS
 10
109.1172294487
 20
122.1808280889
  0
VERTEX
  8
0
 62
9
  6
CONTINUOUS
 10
109.1366679694
 20
122.2511073303
  0
VERTEX
  8
0
 62
9
  6
CONTINUOUS
 10
109.1649900444
 20
122.3115303331
  0
VERTEX
  8
0
 62
9
  6
CONTINUOUS
 10
109.2013159295
 20
122.3602202358
  0
VERTEX
  8
0
 62
9
  6
CONTINUOUS
 10
109.2445172655
 20
122.3956646323
  0
VERTEX
  8
0
 62
9
  6
CONTINUOUS
 10
109.2932521282
 20
122.4167625501
  0
SEQEND
  0
LINE
  8
DEFAULT_1
 62
7
  6
CENTER
 10
111.8086153385
 20
110.1520370841
 11
111.8086153385
 21
125.7874199913
  0
LINE
  8
0
 62
9
  6
CONTINUOUS
 10
109.4226616507
 20
121.933799637
 11
109.2932521282
 21
122.4167625501
  0
POLYLINE
  8
0
 62
9
  6
CONTINUOUS
 66
1
 70
0
  0
VERTEX
  8
0
 62
9
  6
CONTINUOUS
 10
115.7086153385
 20
121.2418102222
  0
VERTEX
  8
0
 62
9
  6
CONTINUOUS
 10
115.708780912
 20
121.2366133849
  0
VERTEX
  8
0
 62
9
  6
CONTINUOUS
 10
115.7097840956
 20
121.2234547707
  0
VERTEX
  8
0
 62
9
  6
CONTINUOUS
 10
115.7123528275
 20
121.2026781403
  0
VERTEX
  8
0
 62
9
  6
CONTINUOUS
 10
115.7173442968
 20
121.1741279602
  0
VERTEX
  8
0
 62
9
  6
CONTINUOUS
 10
115.7259144056
 20
121.1373250293
  0
VERTEX
  8
0
 62
9
  6
CONTINUOUS
 10
115.7395931179
 20
121.0917882802
  0
VERTEX
  8
0
 62
9
  6
CONTINUOUS
 10
115.7601451549
 20
121.0378477786
  0
VERTEX
  8
0
 62
9
  6
CONTINUOUS
 10
115.7902437302
 20
120.9751400845
  0
VERTEX
  8
0
 62
9
  6
CONTINUOUS
 10
115.833318822
 20
120.9040890331
  0
VERTEX
  8
0
 62
9
  6
CONTINUOUS
 10
115.8917617026
 20
120.8283971775
  0
VERTEX
  8
0
 62
9
  6
CONTINUOUS
 10
115.966172855
 20
120.7536449285
  0
VERTEX
  8
0
 62
9
  6
CONTINUOUS
 10
116.0556151227
 20
120.6853540276
  0
VERTEX
  8
0
 62
9
  6
CONTINUOUS
 10
116.1576419132
 20
120.6283216328
  0
VERTEX
  8
0
 62
9
  6
CONTINUOUS
 10
116.2687323945
 20
120.5860501589
  0
VERTEX
  8
0
 62
9
  6
CONTINUOUS
 10
116.3844222807
 20
120.5605915649
  0
VERTEX
  8
0
 62
9
  6
CONTINUOUS
 10
116.4998282128
 20
120.5523118734
  0
SEQEND
  0
LINE
  8
0
 62
9
  6
CONTINUOUS
 10
114.1674121023
 20
118.0197285377
 11
114.1674121023
 21
123.2051516888
  0
LINE
  8
0
 62
9
  6
CONTINUOUS
 10
114.5006783374
 20
118.5197285377
 11
114.5006783374
 21
123.2051516888
  0
LINE
  8
0
 62
9
  6
CONTINUOUS
 10
115.1087361152
 20
118.5197285377
 11
115.1087361152
 21
123.3680802793
  0
LINE
  8
0
 62
9
  6
CONTINUOUS
 10
115.7086153385
 20
118.0197285377
 11
115.7086153385
 21
123.6181158513
  0
LINE
  8
0
 62
9
  6
CONTINUOUS
 10
115.7738436112
 20
114.5064719771
 11
115.7738436112
 21
116.9495531552
  0
POLYLINE
  8
0
 62
9
  6
CONTINUOUS
 66
1
 70
0
  0
VERTEX
  8
0
 62
9
  6
CONTINUOUS
 10
116.2800923546
 20
123.9657670611
  0
VERTEX
  8
0
 62
9
  6
CONTINUOUS
 10
116.2788999543
 20
123.9537520221
  0
VERTEX
  8
0
 62
9
  6
CONTINUOUS
 10
116.277483758
 20
123.9416085423
  0
VERTEX
  8
0
 62
9
  6
CONTINUOUS
 10
116.2758722375
 20
123.9294959945
  0
VERTEX
  8
0
 62
9
  6
CONTINUOUS
 10
116.2740133985
 20
123.9170105734
  0
VERTEX
  8
0
 62
9
  6
CONTINUOUS
 10
116.2717913426
 20
123.903506267
  0
VERTEX
  8
0
 62
9
  6
CONTINUOUS
 10
116.2690988513
 20
123.8885714062
  0
VERTEX
  8
0
 62
9
  6
CONTINUOUS
 10
116.2658853341
 20
123.8721928826
  0
VERTEX
  8
0
 62
9
  6
CONTINUOUS
 10
116.2621428586
 20
123.8545281526
  0
VERTEX
  8
0
 62
9
  6
CONTINUOUS
 10
116.2579520611
 20
123.8360266255
  0
VERTEX
  8
0
 62
9
  6
CONTINUOUS
 10
116.2534281324
 20
123.8171495535
  0
VERTEX
  8
0
 62
9
  6
CONTINUOUS
 10
116.2486809488
 20
123.7982227747
  0
VERTEX
  8
0
 62
9
  6
CONTINUOUS
 10
116.243797165
 20
123.7793994161
  0
SEQEND
  0
POLYLINE
  8
0
 62
9
  6
CONTINUOUS
 66
1
 70
0
  0
VERTEX
  8
0
 62
9
  6
CONTINUOUS
 10
116.2281861785
 20
123.7208366279
  0
VERTEX
  8
0
 62
9
  6
CONTINUOUS
 10
116.2228085527
 20
123.7001242656
  0
VERTEX
  8
0
 62
9
  6
CONTINUOUS
 10
116.217667647
 20
123.6789775437
  0
VERTEX
  8
0
 62
9
  6
CONTINUOUS
 10
116.2132129488
 20
123.6580012902
  0
VERTEX
  8
0
 62
9
  6
CONTINUOUS
 10
116.2099460226
 20
123.6376119561
  0
VERTEX
  8
0
 62
9
  6
CONTINUOUS
 10
116.2086115911
 20
123.6181067458
  0
SEQEND
  0
LINE
  8
0
 62
9
  6
CONTINUOUS
 10
116.243797165
 20
123.7793994161
 11
116.2281861785
 21
123.7208366279
  0
POLYLINE
  8
0
 62
9
  6
CONTINUOUS
 66
1
 70
0
  0
VERTEX
  8
0
 62
9
  6
CONTINUOUS
 10
116.2098684199
 20
121.3613216801
  0
VERTEX
  8
0
 62
9
  6
CONTINUOUS
 10
116.2143838385
 20
121.3159956517
  0
VERTEX
  8
0
 62
9
  6
CONTINUOUS
 10
116.2314674239
 20
121.2603181217
  0
VERTEX
  8
0
 62
9
  6
CONTINUOUS
 10
116.2592090934
 20
121.2090085907
  0
VERTEX
  8
0
 62
9
  6
CONTINUOUS
 10
116.2965409811
 20
121.1640412071
  0
VERTEX
  8
0
 62
9
  6
CONTINUOUS
 10
116.3420284473
 20
121.1271435829
  0
VERTEX
  8
0
 62
9
  6
CONTINUOUS
 10
116.3939152134
 20
121.0997377755
  0
VERTEX
  8
0
 62
9
  6
CONTINUOUS
 10
116.4502115531
 20
121.0828722898
  0
VERTEX
  8
0
 62
9
  6
CONTINUOUS
 10
116.5086153385
 20
121.0771954232
  0
SEQEND
  0
POLYLINE
  8
0
 62
9
  6
CONTINUOUS
 66
1
 70
0
  0
VERTEX
  8
0
 62
9
  6
CONTINUOUS
 10
116.2086153385
 20
121.3611968471
  0
VERTEX
  8
0
 62
9
  6
CONTINUOUS
 10
116.2143797254
 20
121.3033127638
  0
VERTEX
  8
0
 62
9
  6
CONTINUOUS
 10
116.2314513733
 20
121.2476531032
  0
VERTEX
  8
0
 62
9
  6
CONTINUOUS
 10
116.2591742498
 20
121.1963568184
  0
VERTEX
  8
0
 62
9
  6
CONTINUOUS
 10
116.296483009
 20
121.1513951919
  0
VERTEX
  8
0
 62
9
  6
CONTINUOUS
 10
116.3419439268
 20
121.114496082
  0
VERTEX
  8
0
 62
9
  6
CONTINUOUS
 10
116.3938099924
 20
121.0870775226
  0
VERTEX
  8
0
 62
9
  6
CONTINUOUS
 10
116.4500880396
 20
121.0701932266
  0
VERTEX
  8
0
 62
9
  6
CONTINUOUS
 10
116.5086153385
 20
121.064492088
  0
SEQEND
  0
POLYLINE
  8
0
 62
9
  6
CONTINUOUS
 66
1
 70
0
  0
VERTEX
  8
0
 62
9
  6
CONTINUOUS
 10
116.1078693822
 20
112.7345095315
  0
VERTEX
  8
0
 62
9
  6
CONTINUOUS
 10
116.1093285837
 20
112.5927940005
  0
VERTEX
  8
0
 62
9
  6
CONTINUOUS
 10
116.1133405336
 20
112.462081628
  0
VERTEX
  8
0
 62
9
  6
CONTINUOUS
 10
116.1193733061
 20
112.3425357963
  0
SEQEND
  0
LINE
  8
0
 62
9
  6
CONTINUOUS
 10
116.1078693822
 20
114.1022612829
 11
116.1078693822
 21
112.7345095315
  0
LINE
  8
0
 62
7
  6
CONTINUOUS
 10
116.2086153385
 20
123.6181158513
 11
116.2086153385
 21
121.3611968471
  0
LINE
  8
0
 62
9
  6
CONTINUOUS
 10
116.380918971
 20
118.5197285377
 11
116.380918971
 21
118.0197285377
  0
LINE
  8
0
 62
9
  6
CONTINUOUS
 10
116.4010066714
 20
114.3980043897
 11
116.4010003397
 21
112.7345095108
  0
LINE
  8
0
 62
9
  6
CONTINUOUS
 10
116.4998282872
 20
121.0468199495
 11
116.4998282128
 21
120.5523118734
  0
LINE
  8
0
 62
9
  6
CONTINUOUS
 10
116.5086153385
 20
123.1111427351
 11
116.5086153385
 21
121.064492088
  0
LINE
  8
0
 62
9
  6
CONTINUOUS
 10
116.5086153385
 20
117.5949870917
 11
116.5086153388
 21
117.9093573864
  0
LINE
  8
0
 62
9
  6
CONTINUOUS
 10
116.5086153387
 20
118.030099689
 11
116.5086153384
 21
118.530099689
  0
LINE
  8
0
 62
9
  6
CONTINUOUS
 10
116.6086153385
 20
117.9038653181
 11
116.6086153385
 21
117.9093573864
  0
LINE
  8
0
 62
9
  6
CONTINUOUS
 10
116.6086153385
 20
118.0300996895
 11
116.6086153385
 21
121.0468198764
  0
LINE
  8
0
 62
9
  6
CONTINUOUS
 10
116.9338509002
 20
114.8948836677
 11
116.9338509002
 21
116.9495531552
  0
LINE
  8
0
 62
7
  6
CONTINUOUS
 10
117.2086153385
 20
120.3879158433
 11
117.2086153385
 21
117.9388219102
  0
LINE
  8
0
 62
9
  6
CONTINUOUS
 10
117.7086153385
 20
120.882423775
 11
117.7086153385
 21
118.0682614196
  0
LINE
  8
0
 62
9
  6
CONTINUOUS
 10
118.2784683719
 20
114.3782768174
 11
118.2784683865
 21
114.1022587891
  0
POLYLINE
  8
0
 62
9
  6
CONTINUOUS
 66
1
 70
0
  0
VERTEX
  8
0
 62
9
  6
CONTINUOUS
 10
116.2821787097
 20
123.9986606461
  0
VERTEX
  8
0
 62
9
  6
CONTINUOUS
 10
116.2821368609
 20
123.9975168525
  0
VERTEX
  8
0
 62
9
  6
CONTINUOUS
 10
116.2819750489
 20
123.993569648
  0
VERTEX
  8
0
 62
9
  6
CONTINUOUS
 10
116.2816249205
 20
123.9865996286
  0
VERTEX
  8
0
 62
9
  6
CONTINUOUS
 10
116.2810057603
 20
123.9770385365
  0
VERTEX
  8
0
 62
9
  6
CONTINUOUS
 10
116.2800923546
 20
123.9657670611
  0
SEQEND
  0
POLYLINE
  8
0
 62
9
  6
CONTINUOUS
 66
1
 70
0
  0
VERTEX
  8
0
 62
9
  6
CONTINUOUS
 10
116.1193717911
 20
112.3425351156
  0
VERTEX
  8
0
 62
9
  6
CONTINUOUS
 10
116.1102411647
 20
112.2518152208
  0
VERTEX
  8
0
 62
9
  6
CONTINUOUS
 10
116.0851059446
 20
112.1641156586
  0
VERTEX
  8
0
 62
9
  6
CONTINUOUS
 10
116.0448029441
 20
112.0823561593
  0
VERTEX
  8
0
 62
9
  6
CONTINUOUS
 10
115.9906739484
 20
112.0092586941
  0
VERTEX
  8
0
 62
9
  6
CONTINUOUS
 10
115.9245210436
 20
111.947256854
  0
VERTEX
  8
0
 62
9
  6
CONTINUOUS
 10
115.8485466209
 20
111.89841483
  0
VERTEX
  8
0
 62
9
  6
CONTINUOUS
 10
115.7652800534
 20
111.8643586909
  0
VERTEX
  8
0
 62
9
  6
CONTINUOUS
 10
115.677493487
 20
111.8462222477
  0
VERTEX
  8
0
 62
9
  6
CONTINUOUS
 10
115.5881095497
 20
111.8446093064
  0
VERTEX
  8
0
 62
9
  6
CONTINUOUS
 10
115.5001040495
 20
111.8595735654
  0
SEQEND
  0
POLYLINE
  8
0
 62
9
  6
CONTINUOUS
 66
1
 70
0
  0
VERTEX
  8
0
 62
9
  6
CONTINUOUS
 10
116.1078693875
 20
114.1022587895
  0
VERTEX
  8
0
 62
9
  6
CONTINUOUS
 10
116.1152473842
 20
114.1586991648
  0
VERTEX
  8
0
 62
9
  6
CONTINUOUS
 10
116.1331146336
 20
114.213065314
  0
VERTEX
  8
0
 62
9
  6
CONTINUOUS
 10
116.1608153608
 20
114.2633640257
  0
VERTEX
  8
0
 62
9
  6
CONTINUOUS
 10
116.1973327481
 20
114.3077489481
  0
VERTEX
  8
0
 62
9
  6
CONTINUOUS
 10
116.2413263362
 20
114.3445908036
  0
VERTEX
  8
0
 62
9
  6
CONTINUOUS
 10
116.2911812254
 20
114.3725371974
  0
VERTEX
  8
0
 62
9
  6
CONTINUOUS
 10
116.3450673532
 20
114.3905622655
  0
VERTEX
  8
0
 62
9
  6
CONTINUOUS
 10
116.4010066713
 20
114.3980043359
  0
SEQEND
  0
POLYLINE
  8
0
 62
9
  6
CONTINUOUS
 66
1
 70
0
  0
VERTEX
  8
0
 62
9
  6
CONTINUOUS
 10
116.5086153385
 20
117.5949870917
  0
VERTEX
  8
0
 62
9
  6
CONTINUOUS
 10
116.503171637
 20
117.5611902598
  0
VERTEX
  8
0
 62
9
  6
CONTINUOUS
 10
116.4881167091
 20
117.5294553764
  0
VERTEX
  8
0
 62
9
  6
CONTINUOUS
 10
116.4645079121
 20
117.4989815171
  0
VERTEX
  8
0
 62
9
  6
CONTINUOUS
 10
116.432773122
 20
117.4693091243
  0
SEQEND
  0
LINE
  8
0
 62
9
  6
CONTINUOUS
 10
116.4607292007
 20
117.9078961154
 11
116.4615946349
 21
117.913177053
  0
POLYLINE
  8
0
 62
9
  6
CONTINUOUS
 66
1
 70
0
  0
VERTEX
  8
0
 62
9
  6
CONTINUOUS
 10
116.4010003397
 20
112.7345095315
  0
VERTEX
  8
0
 62
9
  6
CONTINUOUS
 10
116.3677783385
 20
112.5846814899
  0
VERTEX
  8
0
 62
9
  6
CONTINUOUS
 10
116.3418507965
 20
112.4510168185
  0
VERTEX
  8
0
 62
9
  6
CONTINUOUS
 10
116.3222718398
 20
112.334017505
  0
VERTEX
  8
0
 62
9
  6
CONTINUOUS
 10
116.3081064856
 20
112.2339407216
  0
VERTEX
  8
0
 62
9
  6
CONTINUOUS
 10
116.298414608
 20
112.1504443154
  0
VERTEX
  8
0
 62
9
  6
CONTINUOUS
 10
116.2923870123
 20
112.0834274567
  0
VERTEX
  8
0
 62
9
  6
CONTINUOUS
 10
116.2892278956
 20
112.0316789552
  0
VERTEX
  8
0
 62
9
  6
CONTINUOUS
 10
116.2883077573
 20
111.9938616185
  0
VERTEX
  8
0
 62
9
  6
CONTINUOUS
 10
116.2891629829
 20
111.9690797457
  0
VERTEX
  8
0
 62
9
  6
CONTINUOUS
 10
116.2914526435
 20
111.9562838583
  0
VERTEX
  8
0
 62
9
  6
CONTINUOUS
 10
116.2950288879
 20
111.9547575672
  0
SEQEND
  0
POLYLINE
  8
0
 62
9
  6
CONTINUOUS
 66
1
 70
0
  0
VERTEX
  8
0
 62
9
  6
CONTINUOUS
 10
116.5086153385
 20
121.064492088
  0
VERTEX
  8
0
 62
9
  6
CONTINUOUS
 10
116.5063819416
 20
121.0555649395
  0
VERTEX
  8
0
 62
9
  6
CONTINUOUS
 10
116.4998281527
 20
121.0468199495
  0
SEQEND
  0
LINE
  8
0
 62
9
  6
CONTINUOUS
 10
116.2086153385
 20
121.3611968471
 11
116.2042049944
 21
121.3453518982
  0
POLYLINE
  8
0
 62
9
  6
CONTINUOUS
 66
1
 70
0
  0
VERTEX
  8
0
 62
9
  6
CONTINUOUS
 10
115.8527311099
 20
117.4197247762
  0
VERTEX
  8
0
 62
9
  6
CONTINUOUS
 10
115.8241955838
 20
117.3268770486
  0
VERTEX
  8
0
 62
9
  6
CONTINUOUS
 10
115.8032756886
 20
117.2384188958
  0
VERTEX
  8
0
 62
9
  6
CONTINUOUS
 10
115.7888369653
 20
117.155741347
  0
VERTEX
  8
0
 62
9
  6
CONTINUOUS
 10
115.7798226526
 20
117.0797231821
  0
VERTEX
  8
0
 62
9
  6
CONTINUOUS
 10
115.7751714161
 20
117.0108906486
  0
VERTEX
  8
0
 62
9
  6
CONTINUOUS
 10
115.7738436112
 20
116.9495531552
  0
SEQEND
  0
POLYLINE
  8
0
 62
9
  6
CONTINUOUS
 66
1
 70
0
  0
VERTEX
  8
0
 62
9
  6
CONTINUOUS
 10
116.1363973422
 20
112.3024530297
  0
VERTEX
  8
0
 62
9
  6
CONTINUOUS
 10
116.1651465938
 20
112.2396383215
  0
VERTEX
  8
0
 62
9
  6
CONTINUOUS
 10
116.174332859
 20
112.2191636051
  0
VERTEX
  8
0
 62
9
  6
CONTINUOUS
 10
116.1832282592
 20
112.1988743554
  0
VERTEX
  8
0
 62
9
  6
CONTINUOUS
 10
116.1917696425
 20
112.1788555693
  0
VERTEX
  8
0
 62
9
  6
CONTINUOUS
 10
116.1997817459
 20
112.1595014458
  0
VERTEX
  8
0
 62
9
  6
CONTINUOUS
 10
116.2072235241
 20
112.1409438326
  0
VERTEX
  8
0
 62
9
  6
CONTINUOUS
 10
116.2141235302
 20
112.1231721713
  0
VERTEX
  8
0
 62
9
  6
CONTINUOUS
 10
116.2205194384
 20
112.1061531236
  0
VERTEX
  8
0
 62
9
  6
CONTINUOUS
 10
116.2264497362
 20
112.0898444145
  0
VERTEX
  8
0
 62
9
  6
CONTINUOUS
 10
116.2319424363
 20
112.0742401689
  0
VERTEX
  8
0
 62
9
  6
CONTINUOUS
 10
116.237029554
 20
112.0593290678
  0
VERTEX
  8
0
 62
9
  6
CONTINUOUS
 10
116.2417475019
 20
112.0450914867
  0
VERTEX
  8
0
 62
9
  6
CONTINUOUS
 10
116.2461697608
 20
112.0313811699
  0
VERTEX
  8
0
 62
9
  6
CONTINUOUS
 10
116.2505083862
 20
112.01757364
  0
SEQEND
  0
POLYLINE
  8
0
 62
9
  6
CONTINUOUS
 66
1
 70
0
  0
VERTEX
  8
0
 62
9
  6
CONTINUOUS
 10
115.9789755012
 20
114.3336222324
  0
VERTEX
  8
0
 62
9
  6
CONTINUOUS
 10
115.9922771982
 20
114.3023491682
  0
VERTEX
  8
0
 62
9
  6
CONTINUOUS
 10
116.0070857173
 20
114.2686739462
  0
VERTEX
  8
0
 62
9
  6
CONTINUOUS
 10
116.0235284852
 20
114.2332054734
  0
VERTEX
  8
0
 62
9
  6
CONTINUOUS
 10
116.0416880616
 20
114.1969724741
  0
VERTEX
  8
0
 62
9
  6
CONTINUOUS
 10
116.0617226227
 20
114.1613311375
  0
VERTEX
  8
0
 62
9
  6
CONTINUOUS
 10
116.0839023061
 20
114.1283124603
  0
VERTEX
  8
0
 62
9
  6
CONTINUOUS
 10
116.1078693822
 20
114.1022612829
  0
SEQEND
  0
LINE
  8
0
 62
9
  6
CONTINUOUS
 10
115.9463338885
 20
114.4115466208
 11
115.9789755012
 21
114.3336222324
  0
POLYLINE
  8
0
 62
9
  6
CONTINUOUS
 66
1
 70
0
  0
VERTEX
  8
0
 62
9
  6
CONTINUOUS
 10
116.119371679
 20
112.342535125
  0
VERTEX
  8
0
 62
9
  6
CONTINUOUS
 10
116.1273122159
 20
112.3230036426
  0
VERTEX
  8
0
 62
9
  6
CONTINUOUS
 10
116.1363973422
 20
112.3024530297
  0
SEQEND
  0
POLYLINE
  8
0
 62
9
  6
CONTINUOUS
 66
1
 70
0
  0
VERTEX
  8
0
 62
9
  6
CONTINUOUS
 10
116.2646458307
 20
111.9712717943
  0
VERTEX
  8
0
 62
9
  6
CONTINUOUS
 10
116.2676873769
 20
111.9616247641
  0
VERTEX
  8
0
 62
9
  6
CONTINUOUS
 10
116.2705506471
 20
111.9530911801
  0
VERTEX
  8
0
 62
9
  6
CONTINUOUS
 10
116.2731882988
 20
111.9460903166
  0
VERTEX
  8
0
 62
9
  6
CONTINUOUS
 10
116.2755646842
 20
111.9410223427
  0
VERTEX
  8
0
 62
9
  6
CONTINUOUS
 10
116.2776340123
 20
111.9382830842
  0
VERTEX
  8
0
 62
9
  6
CONTINUOUS
 10
116.279330075
 20
111.9382555736
  0
SEQEND
  0
LINE
  8
0
 62
9
  6
CONTINUOUS
 10
116.2505083862
 20
112.01757364
 11
116.2646458307
 21
111.9712717943
  0
LINE
  8
0
 62
9
  6
CONTINUOUS
 10
114.1674121023
 20
123.2051516888
 11
114.0380025797
 21
123.6881146019
  0
LINE
  8
0
 62
9
  6
CONTINUOUS
 10
115.7086153384
 20
123.6181158513
 11
115.5792058159
 21
124.1010787644
  0
LINE
  8
0
 62
9
  6
CONTINUOUS
 10
116.2993952953
 20
123.9804484168
 11
116.4121639401
 21
123.5155088335
  0
POLYLINE
  8
0
 62
9
  6
CONTINUOUS
 66
1
 70
0
  0
VERTEX
  8
0
 62
9
  6
CONTINUOUS
 10
117.2086153385
 20
118.3657035875
  0
VERTEX
  8
0
 62
9
  6
CONTINUOUS
 10
117.2035290965
 20
118.3870633488
  0
VERTEX
  8
0
 62
9
  6
CONTINUOUS
 10
117.188140618
 20
118.4082817691
  0
VERTEX
  8
0
 62
9
  6
CONTINUOUS
 10
117.1625724076
 20
118.4288589336
  0
VERTEX
  8
0
 62
9
  6
CONTINUOUS
 10
117.1273552072
 20
118.4483149402
  0
VERTEX
  8
0
 62
9
  6
CONTINUOUS
 10
117.0833194009
 20
118.4662469533
  0
VERTEX
  8
0
 62
9
  6
CONTINUOUS
 10
117.0313097281
 20
118.4823782583
  0
VERTEX
  8
0
 62
9
  6
CONTINUOUS
 10
116.9722021799
 20
118.4964783588
  0
VERTEX
  8
0
 62
9
  6
CONTINUOUS
 10
116.9068681305
 20
118.5083507663
  0
VERTEX
  8
0
 62
9
  6
CONTINUOUS
 10
116.8362593392
 20
118.5178081731
  0
VERTEX
  8
0
 62
9
  6
CONTINUOUS
 10
116.7617739173
 20
118.5246534972
  0
VERTEX
  8
0
 62
9
  6
CONTINUOUS
 10
116.6854447435
 20
118.5287463703
  0
VERTEX
  8
0
 62
9
  6
CONTINUOUS
 10
116.6086153385
 20
118.530099689
  0
SEQEND
  0
LINE
  8
0
 62
9
  6
CONTINUOUS
 10
116.4121639401
 20
123.5155088335
 11
116.5086153385
 21
123.1111427449
  0
POLYLINE
  8
0
 62
9
  6
CONTINUOUS
 66
1
 70
0
  0
VERTEX
  8
0
 62
9
  6
CONTINUOUS
 10
114.5006783374
 20
123.2051516888
  0
VERTEX
  8
0
 62
9
  6
CONTINUOUS
 10
114.4829579687
 20
123.2902153265
  0
VERTEX
  8
0
 62
9
  6
CONTINUOUS
 10
114.4556580506
 20
123.3727235154
  0
VERTEX
  8
0
 62
9
  6
CONTINUOUS
 10
114.4196108984
 20
123.4501464986
  0
VERTEX
  8
0
 62
9
  6
CONTINUOUS
 10
114.3759094276
 20
123.5201361385
  0
VERTEX
  8
0
 62
9
  6
CONTINUOUS
 10
114.3258806189
 20
123.5805666486
  0
VERTEX
  8
0
 62
9
  6
CONTINUOUS
 10
114.2710425882
 20
123.6296042747
  0
VERTEX
  8
0
 62
9
  6
CONTINUOUS
 10
114.2130595612
 20
123.6657607683
  0
VERTEX
  8
0
 62
9
  6
CONTINUOUS
 10
114.1536918524
 20
123.6879386602
  0
VERTEX
  8
0
 62
9
  6
CONTINUOUS
 10
114.0947405225
 20
123.6954653586
  0
VERTEX
  8
0
 62
9
  6
CONTINUOUS
 10
114.0380025797
 20
123.6881146019
  0
SEQEND
  0
POLYLINE
  8
0
 62
9
  6
CONTINUOUS
 66
1
 70
0
  0
VERTEX
  8
0
 62
9
  6
CONTINUOUS
 10
115.1087361152
 20
123.3680802793
  0
VERTEX
  8
0
 62
9
  6
CONTINUOUS
 10
115.091009636
 20
123.4531666612
  0
VERTEX
  8
0
 62
9
  6
CONTINUOUS
 10
115.0637082864
 20
123.5356711463
  0
VERTEX
  8
0
 62
9
  6
CONTINUOUS
 10
115.0276605098
 20
123.613090184
  0
VERTEX
  8
0
 62
9
  6
CONTINUOUS
 10
114.9839601553
 20
123.6830745386
  0
VERTEX
  8
0
 62
9
  6
CONTINUOUS
 10
114.9339332845
 20
123.7435005755
  0
VERTEX
  8
0
 62
9
  6
CONTINUOUS
 10
114.8790979339
 20
123.7925347018
  0
VERTEX
  8
0
 62
9
  6
CONTINUOUS
 10
114.8211180502
 20
123.8286890054
  0
VERTEX
  8
0
 62
9
  6
CONTINUOUS
 10
114.7617529993
 20
123.8508664049
  0
VERTEX
  8
0
 62
9
  6
CONTINUOUS
 10
114.7028041792
 20
123.8583939402
  0
VERTEX
  8
0
 62
9
  6
CONTINUOUS
 10
114.6460603576
 20
123.8510431924
  0
SEQEND
  0
LINE
  8
0
 62
9
  6
CONTINUOUS
 10
116.4615946437
 20
118.0262800238
 11
116.380918971
 21
118.5197285377
  0
POLYLINE
  8
0
 62
9
  6
CONTINUOUS
 66
1
 70
0
  0
VERTEX
  8
0
 62
9
  6
CONTINUOUS
 10
116.9338509002
 20
116.9495531552
  0
VERTEX
  8
0
 62
9
  6
CONTINUOUS
 10
116.9330493071
 20
116.9568394901
  0
VERTEX
  8
0
 62
9
  6
CONTINUOUS
 10
116.9317034544
 20
116.9642650673
  0
VERTEX
  8
0
 62
9
  6
CONTINUOUS
 10
116.9297514647
 20
116.9719737664
  0
VERTEX
  8
0
 62
9
  6
CONTINUOUS
 10
116.9270837352
 20
116.9801398098
  0
VERTEX
  8
0
 62
9
  6
CONTINUOUS
 10
116.9235718128
 20
116.9888755305
  0
VERTEX
  8
0
 62
9
  6
CONTINUOUS
 10
116.9190825686
 20
116.9982515113
  0
VERTEX
  8
0
 62
9
  6
CONTINUOUS
 10
116.9134835325
 20
117.0083203372
  0
VERTEX
  8
0
 62
9
  6
CONTINUOUS
 10
116.9066975102
 20
117.0190526497
  0
VERTEX
  8
0
 62
9
  6
CONTINUOUS
 10
116.8987595571
 20
117.0303074007
  0
VERTEX
  8
0
 62
9
  6
CONTINUOUS
 10
116.8897590282
 20
117.041950835
  0
VERTEX
  8
0
 62
9
  6
CONTINUOUS
 10
116.8797636417
 20
117.0539317851
  0
VERTEX
  8
0
 62
9
  6
CONTINUOUS
 10
116.8687892867
 20
117.066278902
  0
VERTEX
  8
0
 62
9
  6
CONTINUOUS
 10
116.8568772282
 20
117.0789944734
  0
VERTEX
  8
0
 62
9
  6
CONTINUOUS
 10
116.8441178419
 20
117.0920342378
  0
VERTEX
  8
0
 62
9
  6
CONTINUOUS
 10
116.8305474858
 20
117.1054122355
  0
VERTEX
  8
0
 62
9
  6
CONTINUOUS
 10
116.8162870944
 20
117.1190577568
  0
VERTEX
  8
0
 62
9
  6
CONTINUOUS
 10
116.8014235862
 20
117.132933463
  0
VERTEX
  8
0
 62
9
  6
CONTINUOUS
 10
116.7860330525
 20
117.1470081514
  0
VERTEX
  8
0
 62
9
  6
CONTINUOUS
 10
116.7701913157
 20
117.1612459761
  0
VERTEX
  8
0
 62
9
  6
CONTINUOUS
 10
116.7539728649
 20
117.1756077106
  0
VERTEX
  8
0
 62
9
  6
CONTINUOUS
 10
116.737436034
 20
117.1900642717
  0
VERTEX
  8
0
 62
9
  6
CONTINUOUS
 10
116.7206140113
 20
117.2046046759
  0
VERTEX
  8
0
 62
9
  6
CONTINUOUS
 10
116.7035367643
 20
117.2192175762
  0
VERTEX
  8
0
 62
9
  6
CONTINUOUS
 10
116.6686574126
 20
117.2486741858
  0
SEQEND
  0
LINE
  8
0
 62
9
  6
CONTINUOUS
 10
119.1311254174
 20
121.3739001822
 11
119.1311254174
 21
121.0771954232
  0
POLYLINE
  8
0
 62
9
  6
CONTINUOUS
 66
1
 70
0
  0
VERTEX
  8
0
 62
9
  6
CONTINUOUS
 10
117.7086153385
 20
118.0682614196
  0
VERTEX
  8
0
 62
9
  6
CONTINUOUS
 10
117.6992801037
 20
118.0468892387
  0
VERTEX
  8
0
 62
9
  6
CONTINUOUS
 10
117.6711219706
 20
118.0257067798
  0
VERTEX
  8
0
 62
9
  6
CONTINUOUS
 10
117.6242264016
 20
118.0051136675
  0
VERTEX
  8
0
 62
9
  6
CONTINUOUS
 10
117.559684723
 20
117.9856613994
  0
VERTEX
  8
0
 62
9
  6
CONTINUOUS
 10
117.4789760533
 20
117.967731689
  0
SEQEND
  0
POLYLINE
  8
0
 62
9
  6
CONTINUOUS
 66
1
 70
0
  0
VERTEX
  8
0
 62
9
  6
CONTINUOUS
 10
116.2678328178
 20
117.714705596
  0
VERTEX
  8
0
 62
9
  6
CONTINUOUS
 10
116.2767793249
 20
117.7335758901
  0
VERTEX
  8
0
 62
9
  6
CONTINUOUS
 10
116.2856895293
 20
117.7506512782
  0
VERTEX
  8
0
 62
9
  6
CONTINUOUS
 10
116.2944287136
 20
117.7659786739
  0
VERTEX
  8
0
 62
9
  6
CONTINUOUS
 10
116.302988279
 20
117.779801871
  0
VERTEX
  8
0
 62
9
  6
CONTINUOUS
 10
116.3113616676
 20
117.7923125435
  0
VERTEX
  8
0
 62
9
  6
CONTINUOUS
 10
116.3195347301
 20
117.8036531933
  0
VERTEX
  8
0
 62
9
  6
CONTINUOUS
 10
116.3275237119
 20
117.8139789476
  0
VERTEX
  8
0
 62
9
  6
CONTINUOUS
 10
116.3354603985
 20
117.823551027
  0
VERTEX
  8
0
 62
9
  6
CONTINUOUS
 10
116.3435952522
 20
117.8327022998
  0
VERTEX
  8
0
 62
9
  6
CONTINUOUS
 10
116.3520808825
 20
117.8415829599
  0
VERTEX
  8
0
 62
9
  6
CONTINUOUS
 10
116.3608432418
 20
117.8500843288
  0
VERTEX
  8
0
 62
9
  6
CONTINUOUS
 10
116.3696804227
 20
117.8580096491
  0
VERTEX
  8
0
 62
9
  6
CONTINUOUS
 10
116.37835343
 20
117.8651878885
  0
VERTEX
  8
0
 62
9
  6
CONTINUOUS
 10
116.3866798773
 20
117.8715467126
  0
VERTEX
  8
0
 62
9
  6
CONTINUOUS
 10
116.3946317997
 20
117.8771527858
  0
VERTEX
  8
0
 62
9
  6
CONTINUOUS
 10
116.4022921618
 20
117.8821378531
  0
VERTEX
  8
0
 62
9
  6
CONTINUOUS
 10
116.4097610496
 20
117.8866184199
  0
VERTEX
  8
0
 62
9
  6
CONTINUOUS
 10
116.417101696
 20
117.8906670425
  0
VERTEX
  8
0
 62
9
  6
CONTINUOUS
 10
116.4243471915
 20
117.8943269129
  0
VERTEX
  8
0
 62
9
  6
CONTINUOUS
 10
116.4315398827
 20
117.8976372824
  0
VERTEX
  8
0
 62
9
  6
CONTINUOUS
 10
116.4387447032
 20
117.9006374502
  0
VERTEX
  8
0
 62
9
  6
CONTINUOUS
 10
116.4460149466
 20
117.9033504679
  0
VERTEX
  8
0
 62
9
  6
CONTINUOUS
 10
116.4533520853
 20
117.9057736276
  0
VERTEX
  8
0
 62
9
  6
CONTINUOUS
 10
116.4607276347
 20
117.9078963467
  0
SEQEND
  0
POLYLINE
  8
0
 62
9
  6
CONTINUOUS
 66
1
 70
0
  0
VERTEX
  8
0
 62
9
  6
CONTINUOUS
 10
115.7738441112
 20
114.5064771367
  0
VERTEX
  8
0
 62
9
  6
CONTINUOUS
 10
115.7881279133
 20
114.5296821475
  0
VERTEX
  8
0
 62
9
  6
CONTINUOUS
 10
115.8021215755
 20
114.5492242131
  0
VERTEX
  8
0
 62
9
  6
CONTINUOUS
 10
115.8156862654
 20
114.5655321615
  0
VERTEX
  8
0
 62
9
  6
CONTINUOUS
 10
115.8286802863
 20
114.578968533
  0
VERTEX
  8
0
 62
9
  6
CONTINUOUS
 10
115.8409211915
 20
114.5898364583
  0
VERTEX
  8
0
 62
9
  6
CONTINUOUS
 10
115.852466594
 20
114.5986510584
  0
VERTEX
  8
0
 62
9
  6
CONTINUOUS
 10
115.8643640131
 20
114.6064305533
  0
VERTEX
  8
0
 62
9
  6
CONTINUOUS
 10
115.8774001365
 20
114.6135271913
  0
VERTEX
  8
0
 62
9
  6
CONTINUOUS
 10
115.8914760615
 20
114.6196754925
  0
VERTEX
  8
0
 62
9
  6
CONTINUOUS
 10
115.9065870596
 20
114.6247460958
  0
VERTEX
  8
0
 62
9
  6
CONTINUOUS
 10
115.9226762816
 20
114.6285077719
  0
VERTEX
  8
0
 62
9
  6
CONTINUOUS
 10
115.9400352556
 20
114.6308607202
  0
VERTEX
  8
0
 62
9
  6
CONTINUOUS
 10
115.9589100355
 20
114.631576434
  0
VERTEX
  8
0
 62
9
  6
CONTINUOUS
 10
115.9790437354
 20
114.6303620782
  0
VERTEX
  8
0
 62
9
  6
CONTINUOUS
 10
115.9995141338
 20
114.6272440277
  0
VERTEX
  8
0
 62
9
  6
CONTINUOUS
 10
116.0203731277
 20
114.6222555756
  0
VERTEX
  8
0
 62
9
  6
CONTINUOUS
 10
116.0425396386
 20
114.6151933891
  0
VERTEX
  8
0
 62
9
  6
CONTINUOUS
 10
116.0664321371
 20
114.6057296404
  0
VERTEX
  8
0
 62
9
  6
CONTINUOUS
 10
116.0913978703
 20
114.5940817326
  0
VERTEX
  8
0
 62
9
  6
CONTINUOUS
 10
116.1171993327
 20
114.5803907232
  0
VERTEX
  8
0
 62
9
  6
CONTINUOUS
 10
116.1440430367
 20
114.5646444236
  0
VERTEX
  8
0
 62
9
  6
CONTINUOUS
 10
116.1721270678
 20
114.5468357639
  0
VERTEX
  8
0
 62
9
  6
CONTINUOUS
 10
116.2015477729
 20
114.5270343553
  0
VERTEX
  8
0
 62
9
  6
CONTINUOUS
 10
116.2322638552
 20
114.5054948961
  0
VERTEX
  8
0
 62
9
  6
CONTINUOUS
 10
116.2970894715
 20
114.4593010017
  0
SEQEND
  0
POLYLINE
  8
0
 62
9
  6
CONTINUOUS
 66
1
 70
0
  0
VERTEX
  8
0
 62
9
  6
CONTINUOUS
 10
116.2042049944
 20
121.3453518982
  0
VERTEX
  8
0
 62
9
  6
CONTINUOUS
 10
116.191400741
 20
121.3300949038
  0
VERTEX
  8
0
 62
9
  6
CONTINUOUS
 10
116.1702477233
 20
121.3152663073
  0
VERTEX
  8
0
 62
9
  6
CONTINUOUS
 10
116.1412617977
 20
121.3012654625
  0
VERTEX
  8
0
 62
9
  6
CONTINUOUS
 10
116.105154848
 20
121.2883702782
  0
VERTEX
  8
0
 62
9
  6
CONTINUOUS
 10
116.0625514514
 20
121.2767460875
  0
VERTEX
  8
0
 62
9
  6
CONTINUOUS
 10
116.0139573296
 20
121.2665194318
  0
VERTEX
  8
0
 62
9
  6
CONTINUOUS
 10
115.9600554111
 20
121.2578534607
  0
VERTEX
  8
0
 62
9
  6
CONTINUOUS
 10
115.9019253195
 20
121.2509330413
  0
VERTEX
  8
0
 62
9
  6
CONTINUOUS
 10
115.8410884799
 20
121.2459087616
  0
VERTEX
  8
0
 62
9
  6
CONTINUOUS
 10
115.7789592293
 20
121.2428252726
  0
VERTEX
  8
0
 62
9
  6
CONTINUOUS
 10
115.7149926702
 20
121.241645907
  0
SEQEND
  0
POLYLINE
  8
0
 62
9
  6
CONTINUOUS
 66
1
 70
0
  0
VERTEX
  8
0
 62
9
  6
CONTINUOUS
 10
117.0632604232
 20
114.3994958956
  0
VERTEX
  8
0
 62
9
  6
CONTINUOUS
 10
117.039898262
 20
114.4191973109
  0
VERTEX
  8
0
 62
9
  6
CONTINUOUS
 10
117.0172905666
 20
114.4542601309
  0
VERTEX
  8
0
 62
9
  6
CONTINUOUS
 10
116.996167408
 20
114.5035520571
  0
VERTEX
  8
0
 62
9
  6
CONTINUOUS
 10
116.9772109136
 20
114.5654812879
  0
VERTEX
  8
0
 62
9
  6
CONTINUOUS
 10
116.9610332388
 20
114.6380479331
  0
VERTEX
  8
0
 62
9
  6
CONTINUOUS
 10
116.9481568
 20
114.7189086026
  0
VERTEX
  8
0
 62
9
  6
CONTINUOUS
 10
116.9389974066
 20
114.8054520847
  0
VERTEX
  8
0
 62
9
  6
CONTINUOUS
 10
116.9338508356
 20
114.8948836677
  0
SEQEND
  0
POLYLINE
  8
0
 62
9
  6
CONTINUOUS
 66
1
 70
0
  0
VERTEX
  8
0
 62
9
  6
CONTINUOUS
 10
116.2678328178
 20
117.714705596
  0
VERTEX
  8
0
 62
9
  6
CONTINUOUS
 10
116.3051523149
 20
117.6736529953
  0
VERTEX
  8
0
 62
9
  6
CONTINUOUS
 10
116.3495154766
 20
117.6401486701
  0
VERTEX
  8
0
 62
9
  6
CONTINUOUS
 10
116.399386506
 20
117.6153524963
  0
VERTEX
  8
0
 62
9
  6
CONTINUOUS
 10
116.4530389227
 20
117.6001228921
  0
VERTEX
  8
0
 62
9
  6
CONTINUOUS
 10
116.5086153385
 20
117.5949870917
  0
SEQEND
  0
POLYLINE
  8
0
 62
9
  6
CONTINUOUS
 66
1
 70
0
  0
VERTEX
  8
0
 62
9
  6
CONTINUOUS
 10
116.2793301502
 20
111.9382543063
  0
VERTEX
  8
0
 62
9
  6
CONTINUOUS
 10
116.2870222421
 20
111.9466554635
  0
VERTEX
  8
0
 62
9
  6
CONTINUOUS
 10
116.2950288863
 20
111.9547575688
  0
SEQEND
  0
POLYLINE
  8
0
 62
9
  6
CONTINUOUS
 66
1
 70
0
  0
VERTEX
  8
0
 62
9
  6
CONTINUOUS
 10
115.7738436112
 20
114.5064751629
  0
VERTEX
  8
0
 62
9
  6
CONTINUOUS
 10
115.7891646694
 20
114.5223303767
  0
VERTEX
  8
0
 62
9
  6
CONTINUOUS
 10
115.8034460289
 20
114.5335552919
  0
VERTEX
  8
0
 62
9
  6
CONTINUOUS
 10
115.816500927
 20
114.5408589241
  0
VERTEX
  8
0
 62
9
  6
CONTINUOUS
 10
115.8281856649
 20
114.5449288347
  0
VERTEX
  8
0
 62
9
  6
CONTINUOUS
 10
115.8384104865
 20
114.5464820983
  0
VERTEX
  8
0
 62
9
  6
CONTINUOUS
 10
115.8473192028
 20
114.546227735
  0
VERTEX
  8
0
 62
9
  6
CONTINUOUS
 10
115.8557004116
 20
114.5445086646
  0
VERTEX
  8
0
 62
9
  6
CONTINUOUS
 10
115.8640006344
 20
114.541250359
  0
VERTEX
  8
0
 62
9
  6
CONTINUOUS
 10
115.8720080667
 20
114.5365293413
  0
VERTEX
  8
0
 62
9
  6
CONTINUOUS
 10
115.8795512982
 20
114.5305182149
  0
VERTEX
  8
0
 62
9
  6
CONTINUOUS
 10
115.8867025004
 20
114.5232988946
  0
VERTEX
  8
0
 62
9
  6
CONTINUOUS
 10
115.8935832528
 20
114.5148936057
  0
VERTEX
  8
0
 62
9
  6
CONTINUOUS
 10
115.9004705303
 20
114.5050167348
  0
VERTEX
  8
0
 62
9
  6
CONTINUOUS
 10
115.9073961801
 20
114.4936830808
  0
VERTEX
  8
0
 62
9
  6
CONTINUOUS
 10
115.9142714173
 20
114.4811630067
  0
VERTEX
  8
0
 62
9
  6
CONTINUOUS
 10
115.9212667867
 20
114.467320507
  0
VERTEX
  8
0
 62
9
  6
CONTINUOUS
 10
115.9288196859
 20
114.451350931
  0
VERTEX
  8
0
 62
9
  6
CONTINUOUS
 10
115.9372169056
 20
114.4326471166
  0
VERTEX
  8
0
 62
9
  6
CONTINUOUS
 10
115.9463338885
 20
114.4115466208
  0
SEQEND
  0
POLYLINE
  8
0
 62
9
  6
CONTINUOUS
 66
1
 70
0
  0
VERTEX
  8
0
 62
9
  6
CONTINUOUS
 10
115.9653881791
 20
117.4979088637
  0
VERTEX
  8
0
 62
9
  6
CONTINUOUS
 10
116.0568909039
 20
117.5663926738
  0
VERTEX
  8
0
 62
9
  6
CONTINUOUS
 10
116.0906477549
 20
117.5904379806
  0
VERTEX
  8
0
 62
9
  6
CONTINUOUS
 10
116.117339762
 20
117.6078611428
  0
VERTEX
  8
0
 62
9
  6
CONTINUOUS
 10
116.1385891361
 20
117.6202522827
  0
VERTEX
  8
0
 62
9
  6
CONTINUOUS
 10
116.156000945
 20
117.6292642501
  0
VERTEX
  8
0
 62
9
  6
CONTINUOUS
 10
116.1707793168
 20
117.6361568986
  0
SEQEND
  0
POLYLINE
  8
0
 62
9
  6
CONTINUOUS
 66
1
 70
0
  0
VERTEX
  8
0
 62
9
  6
CONTINUOUS
 10
116.2970894715
 20
114.4593010017
  0
VERTEX
  8
0
 62
9
  6
CONTINUOUS
 10
116.3308862831
 20
114.4362794759
  0
VERTEX
  8
0
 62
9
  6
CONTINUOUS
 10
116.3657989321
 20
114.4149272654
  0
VERTEX
  8
0
 62
9
  6
CONTINUOUS
 10
116.4010130543
 20
114.398009177
  0
SEQEND
  0
POLYLINE
  8
0
 62
9
  6
CONTINUOUS
 66
1
 70
0
  0
VERTEX
  8
0
 62
9
  6
CONTINUOUS
 10
116.6327594522
 20
117.2785590126
  0
VERTEX
  8
0
 62
9
  6
CONTINUOUS
 10
116.5373853729
 20
117.357155264
  0
VERTEX
  8
0
 62
9
  6
CONTINUOUS
 10
116.5185836397
 20
117.3728674147
  0
VERTEX
  8
0
 62
9
  6
CONTINUOUS
 10
116.501542613
 20
117.3873469477
  0
VERTEX
  8
0
 62
9
  6
CONTINUOUS
 10
116.486695181
 20
117.4002650794
  0
VERTEX
  8
0
 62
9
  6
CONTINUOUS
 10
116.4740837024
 20
117.4115893931
  0
VERTEX
  8
0
 62
9
  6
CONTINUOUS
 10
116.463542315
 20
117.4214471446
  0
VERTEX
  8
0
 62
9
  6
CONTINUOUS
 10
116.4548046245
 20
117.4300533499
  0
VERTEX
  8
0
 62
9
  6
CONTINUOUS
 10
116.4476915897
 20
117.4375436696
  0
VERTEX
  8
0
 62
9
  6
CONTINUOUS
 10
116.442064042
 20
117.4440105138
  0
VERTEX
  8
0
 62
9
  6
CONTINUOUS
 10
116.4377428151
 20
117.4495941214
  0
VERTEX
  8
0
 62
9
  6
CONTINUOUS
 10
116.4345899602
 20
117.4544001837
  0
VERTEX
  8
0
 62
9
  6
CONTINUOUS
 10
116.4325008733
 20
117.4584926308
  0
VERTEX
  8
0
 62
9
  6
CONTINUOUS
 10
116.4313616496
 20
117.4619555236
  0
VERTEX
  8
0
 62
9
  6
CONTINUOUS
 10
116.4310744557
 20
117.4648753704
  0
VERTEX
  8
0
 62
9
  6
CONTINUOUS
 10
116.4315664346
 20
117.4673114746
  0
VERTEX
  8
0
 62
9
  6
CONTINUOUS
 10
116.4327731209
 20
117.4693091243
  0
SEQEND
  0
LINE
  8
0
 62
9
  6
CONTINUOUS
 10
116.6686574126
 20
117.2486741858
 11
116.6327594522
 21
117.2785590126
  0
POLYLINE
  8
0
 62
9
  6
CONTINUOUS
 66
1
 70
0
  0
VERTEX
  8
0
 62
9
  6
CONTINUOUS
 10
116.2793297679
 20
111.9382539732
  0
VERTEX
  8
0
 62
9
  6
CONTINUOUS
 10
116.2121055152
 20
111.8749055178
  0
VERTEX
  8
0
 62
9
  6
CONTINUOUS
 10
116.1343756685
 20
111.8250040158
  0
VERTEX
  8
0
 62
9
  6
CONTINUOUS
 10
116.0487930496
 20
111.7902525429
  0
VERTEX
  8
0
 62
9
  6
CONTINUOUS
 10
115.9582784852
 20
111.7718371233
  0
VERTEX
  8
0
 62
9
  6
CONTINUOUS
 10
115.8659211233
 20
111.7703862521
  0
VERTEX
  8
0
 62
9
  6
CONTINUOUS
 10
115.7748730043
 20
111.7859494459
  0
SEQEND
  0
LINE
  8
0
 62
9
  6
CONTINUOUS
 10
116.2793301502
 20
111.9382543063
 11
116.2821785669
 21
111.9407942881
  0
LINE
  8
0
 62
9
  6
CONTINUOUS
 10
117.4586148021
 20
118.0020096128
 11
117.4126389696
 21
117.9701705096
  0
POLYLINE
  8
0
 62
9
  6
CONTINUOUS
 66
1
 70
0
  0
VERTEX
  8
0
 62
9
  6
CONTINUOUS
 10
115.8527299649
 20
117.4197211494
  0
VERTEX
  8
0
 62
9
  6
CONTINUOUS
 10
115.9090104446
 20
117.4574401998
  0
VERTEX
  8
0
 62
9
  6
CONTINUOUS
 10
115.9653881791
 20
117.4979088637
  0
SEQEND
  0
LINE
  8
0
 62
9
  6
CONTINUOUS
 10
115.7086153385
 20
123.6181158513
 11
115.1087361152
 21
123.3680802793
  0
POLYLINE
  8
0
 62
9
  6
CONTINUOUS
 66
1
 70
0
  0
VERTEX
  8
0
 62
9
  6
CONTINUOUS
 10
116.170779237
 20
117.6361570802
  0
VERTEX
  8
0
 62
9
  6
CONTINUOUS
 10
116.2175895054
 20
117.6620194533
  0
VERTEX
  8
0
 62
9
  6
CONTINUOUS
 10
116.2500351227
 20
117.6882268688
  0
VERTEX
  8
0
 62
9
  6
CONTINUOUS
 10
116.2678327738
 20
117.7147055398
  0
SEQEND
  0
LINE
  8
0
 62
7
  6
CONTINUOUS
 10
107.7792101935
 20
113.928380839
 11
115.7748730043
 21
111.7859494459
  0
LINE
  8
0
 62
7
  6
CONTINUOUS
 10
115.7753736711
 20
111.7858152926
 11
115.8548764216
 21
111.7712749991
  0
LINE
  8
0
 62
9
  6
CONTINUOUS
 10
107.4086153385
 20
114.4113437522
 11
116.1193733061
 21
112.3425357963
  0
POLYLINE
  8
0
 62
7
  6
CONTINUOUS
 66
1
 70
0
  0
VERTEX
  8
0
 62
7
  6
CONTINUOUS
 10
117.4550514244
 20
117.9811145275
  0
VERTEX
  8
0
 62
7
  6
CONTINUOUS
 10
117.4546121079
 20
117.9809653153
  0
VERTEX
  8
0
 62
7
  6
CONTINUOUS
 10
117.4449005073
 20
117.9780166591
  0
VERTEX
  8
0
 62
7
  6
CONTINUOUS
 10
117.4241313712
 20
117.9726752321
  0
VERTEX
  8
0
 62
7
  6
CONTINUOUS
 10
117.3932856979
 20
117.9659525424
  0
VERTEX
  8
0
 62
7
  6
CONTINUOUS
 10
117.3528829169
 20
117.958464829
  0
VERTEX
  8
0
 62
7
  6
CONTINUOUS
 10
117.3030966565
 20
117.9506266748
  0
VERTEX
  8
0
 62
7
  6
CONTINUOUS
 10
117.2439659532
 20
117.9427569009
  0
VERTEX
  8
0
 62
7
  6
CONTINUOUS
 10
117.1754256648
 20
117.9351274608
  0
VERTEX
  8
0
 62
7
  6
CONTINUOUS
 10
117.0974668058
 20
117.9280018485
  0
VERTEX
  8
0
 62
7
  6
CONTINUOUS
 10
117.0100408683
 20
117.9216313964
  0
VERTEX
  8
0
 62
7
  6
CONTINUOUS
 10
116.9130751373
 20
117.9162802103
  0
VERTEX
  8
0
 62
7
  6
CONTINUOUS
 10
116.8066714079
 20
117.9122453465
  0
VERTEX
  8
0
 62
7
  6
CONTINUOUS
 10
116.6912362576
 20
117.9098556415
  0
VERTEX
  8
0
 62
7
  6
CONTINUOUS
 10
116.6086153384
 20
117.9093558816
  0
SEQEND
  0
POLYLINE
  8
0
 62
7
  6
CONTINUOUS
 66
1
 70
0
  0
VERTEX
  8
0
 62
7
  6
CONTINUOUS
 10
115.7086153385
 20
121.2416347458
  0
VERTEX
  8
0
 62
7
  6
CONTINUOUS
 10
115.7118149463
 20
121.2404405172
  0
VERTEX
  8
0
 62
7
  6
CONTINUOUS
 10
115.7149926702
 20
121.241645907
  0
SEQEND
  0
POLYLINE
  8
0
 62
9
  6
CONTINUOUS
 66
1
 70
0
  0
VERTEX
  8
0
 62
9
  6
CONTINUOUS
 10
117.8890299194
 20
114.3938719874
  0
VERTEX
  8
0
 62
9
  6
CONTINUOUS
 10
117.8867370295
 20
114.394042963
  0
VERTEX
  8
0
 62
9
  6
CONTINUOUS
 10
117.8650890784
 20
114.40375969
  0
VERTEX
  8
0
 62
9
  6
CONTINUOUS
 10
117.8447292054
 20
114.4278289496
  0
VERTEX
  8
0
 62
9
  6
CONTINUOUS
 10
117.8262541202
 20
114.4655453156
  0
VERTEX
  8
0
 62
9
  6
CONTINUOUS
 10
117.8102052927
 20
114.5158033907
  0
VERTEX
  8
0
 62
9
  6
CONTINUOUS
 10
117.7970530837
 20
114.5771302036
  0
VERTEX
  8
0
 62
9
  6
CONTINUOUS
 10
117.7871829592
 20
114.647728379
  0
VERTEX
  8
0
 62
9
  6
CONTINUOUS
 10
117.7808841935
 20
114.7255288162
  0
VERTEX
  8
0
 62
9
  6
CONTINUOUS
 10
117.7783413908
 20
114.80825133
  0
VERTEX
  8
0
 62
9
  6
CONTINUOUS
 10
117.7796290752
 20
114.8934714798
  0
SEQEND
  0
POLYLINE
  8
0
 62
9
  6
CONTINUOUS
 66
1
 70
0
  0
VERTEX
  8
0
 62
9
  6
CONTINUOUS
 10
109.4226616507
 20
118.0197285377
  0
VERTEX
  8
0
 62
9
  6
CONTINUOUS
 10
109.3695439182
 20
118.0273247279
  0
VERTEX
  8
0
 62
9
  6
CONTINUOUS
 10
109.3180401552
 20
118.0498824899
  0
VERTEX
  8
0
 62
9
  6
CONTINUOUS
 10
109.2697148018
 20
118.0867168736
  0
VERTEX
  8
0
 62
9
  6
CONTINUOUS
 10
109.226036831
 20
118.1367084485
  0
VERTEX
  8
0
 62
9
  6
CONTINUOUS
 10
109.1883333293
 20
118.198338315
  0
VERTEX
  8
0
 62
9
  6
CONTINUOUS
 10
109.1577499763
 20
118.2697338208
  0
VERTEX
  8
0
 62
9
  6
CONTINUOUS
 10
109.1352161523
 20
118.3487252683
  0
VERTEX
  8
0
 62
9
  6
CONTINUOUS
 10
109.1214164417
 20
118.4329126981
  0
VERTEX
  8
0
 62
9
  6
CONTINUOUS
 10
109.1167701523
 20
118.5197285377
  0
SEQEND
  0
LINE
  8
0
 62
9
  6
CONTINUOUS
 10
116.4343609502
 20
117.9144580955
 11
116.4607292007
 21
117.9078961154
  0
POLYLINE
  8
0
 62
9
  6
CONTINUOUS
 66
1
 70
0
  0
VERTEX
  8
0
 62
9
  6
CONTINUOUS
 10
120.3224658212
 20
121.4209337908
  0
VERTEX
  8
0
 62
9
  6
CONTINUOUS
 10
120.292780526
 20
121.4302419733
  0
VERTEX
  8
0
 62
9
  6
CONTINUOUS
 10
120.2483286868
 20
121.4399235138
  0
SEQEND
  0
LINE
  8
0
 62
9
  6
CONTINUOUS
 10
120.2110404293
 20
121.4390994922
 11
120.2470251215
 21
121.4276743507
  0
POLYLINE
  8
0
 62
9
  6
CONTINUOUS
 66
1
 70
0
  0
VERTEX
  8
0
 62
9
  6
CONTINUOUS
 10
120.9313014026
 20
121.1967413848
  0
VERTEX
  8
0
 62
9
  6
CONTINUOUS
 10
120.6204781529
 20
121.3064053562
  0
VERTEX
  8
0
 62
9
  6
CONTINUOUS
 10
120.3224658212
 20
121.4209337908
  0
SEQEND
  0
POLYLINE
  8
0
 62
9
  6
CONTINUOUS
 66
1
 70
0
  0
VERTEX
  8
0
 62
9
  6
CONTINUOUS
 10
120.8354492637
 20
121.2091745469
  0
VERTEX
  8
0
 62
9
  6
CONTINUOUS
 10
120.8523112519
 20
121.2026352294
  0
VERTEX
  8
0
 62
9
  6
CONTINUOUS
 10
120.8606621108
 20
121.1974661458
  0
VERTEX
  8
0
 62
9
  6
CONTINUOUS
 10
120.8619610207
 20
121.1934106159
  0
VERTEX
  8
0
 62
9
  6
CONTINUOUS
 10
120.8567366305
 20
121.1901383115
  0
VERTEX
  8
0
 62
9
  6
CONTINUOUS
 10
120.843892705
 20
121.187568063
  0
VERTEX
  8
0
 62
9
  6
CONTINUOUS
 10
120.8222617149
 20
121.1859053029
  0
VERTEX
  8
0
 62
9
  6
CONTINUOUS
 10
120.7916300996
 20
121.1853316734
  0
VERTEX
  8
0
 62
9
  6
CONTINUOUS
 10
120.7524834971
 20
121.1859129131
  0
VERTEX
  8
0
 62
9
  6
CONTINUOUS
 10
120.7048224917
 20
121.1876731322
  0
VERTEX
  8
0
 62
9
  6
CONTINUOUS
 10
120.6482589821
 20
121.1906712331
  0
VERTEX
  8
0
 62
9
  6
CONTINUOUS
 10
120.5829657742
 20
121.1949529307
  0
VERTEX
  8
0
 62
9
  6
CONTINUOUS
 10
120.5092266881
 20
121.2005523504
  0
VERTEX
  8
0
 62
9
  6
CONTINUOUS
 10
120.4264200092
 20
121.2075821598
  0
VERTEX
  8
0
 62
9
  6
CONTINUOUS
 10
120.333446834
 20
121.2162297855
  0
VERTEX
  8
0
 62
9
  6
CONTINUOUS
 10
120.2297382397
 20
121.2266670852
  0
VERTEX
  8
0
 62
9
  6
CONTINUOUS
 10
120.1154243884
 20
121.2390111939
  0
VERTEX
  8
0
 62
9
  6
CONTINUOUS
 10
119.9901046405
 20
121.2534476454
  0
VERTEX
  8
0
 62
9
  6
CONTINUOUS
 10
119.8519290073
 20
121.2703683235
  0
VERTEX
  8
0
 62
9
  6
CONTINUOUS
 10
119.6983905352
 20
121.2903239273
  0
VERTEX
  8
0
 62
9
  6
CONTINUOUS
 10
119.5274502331
 20
121.3139019229
  0
VERTEX
  8
0
 62
9
  6
CONTINUOUS
 10
119.3383286207
 20
121.3416086132
  0
VERTEX
  8
0
 62
9
  6
CONTINUOUS
 10
119.1311254174
 20
121.3739001822
  0
SEQEND
  0
POLYLINE
  8
0
 62
9
  6
CONTINUOUS
 66
1
 70
0
  0
VERTEX
  8
0
 62
9
  6
CONTINUOUS
 10
116.8980341974
 20
114.3974396052
  0
VERTEX
  8
0
 62
9
  6
CONTINUOUS
 10
116.7323392583
 20
114.396319719
  0
VERTEX
  8
0
 62
9
  6
CONTINUOUS
 10
116.5656049014
 20
114.3965378965
  0
VERTEX
  8
0
 62
9
  6
CONTINUOUS
 10
116.4010066714
 20
114.3980043897
  0
SEQEND
  0
POLYLINE
  8
0
 62
9
  6
CONTINUOUS
 66
1
 70
0
  0
VERTEX
  8
0
 62
9
  6
CONTINUOUS
 10
117.4677666256
 20
114.4022587891
  0
VERTEX
  8
0
 62
9
  6
CONTINUOUS
 10
117.3002172905
 20
114.4017862187
  0
VERTEX
  8
0
 62
9
  6
CONTINUOUS
 10
116.8980341974
 20
114.3974396052
  0
SEQEND
  0
LINE
  8
0
 62
9
  6
CONTINUOUS
 10
116.1078693822
 20
112.7345095315
 11
116.4010003397
 21
112.7345095315
  0
LINE
  8
0
 62
9
  6
CONTINUOUS
 10
116.1078693822
 20
114.1022587891
 11
118.278697722
 21
114.1022587891
  0
POLYLINE
  8
0
 62
7
  6
CONTINUOUS
 66
1
 70
0
  0
VERTEX
  8
0
 62
7
  6
CONTINUOUS
 10
117.4677666256
 20
114.4022587891
  0
VERTEX
  8
0
 62
7
  6
CONTINUOUS
 10
117.5016374659
 20
114.4022048733
  0
VERTEX
  8
0
 62
7
  6
CONTINUOUS
 10
117.7112955156
 20
114.3994664991
  0
VERTEX
  8
0
 62
7
  6
CONTINUOUS
 10
117.889029922
 20
114.3938720521
  0
SEQEND
  0
POLYLINE
  8
0
 62
9
  6
CONTINUOUS
 66
1
 70
0
  0
VERTEX
  8
0
 62
9
  6
CONTINUOUS
 10
117.7796290752
 20
114.8934714798
  0
VERTEX
  8
0
 62
9
  6
CONTINUOUS
 10
117.5939193316
 20
114.8993221066
  0
VERTEX
  8
0
 62
9
  6
CONTINUOUS
 10
117.3908814424
 20
114.9021350036
  0
VERTEX
  8
0
 62
9
  6
CONTINUOUS
 10
117.1708089863
 20
114.900998645
  0
VERTEX
  8
0
 62
9
  6
CONTINUOUS
 10
116.9338509002
 20
114.8948836677
  0
SEQEND
  0
POLYLINE
  8
0
 62
7
  6
CONTINUOUS
 66
1
 70
0
  0
VERTEX
  8
0
 62
7
  6
CONTINUOUS
 10
186.2239224077
 20
111.657382457
  0
VERTEX
  8
0
 62
7
  6
CONTINUOUS
 10
186.6616662493
 20
111.6432401191
  0
VERTEX
  8
0
 62
7
  6
CONTINUOUS
 10
187.1191719043
 20
111.6354359446
  0
VERTEX
  8
0
 62
7
  6
CONTINUOUS
 10
187.564588752
 20
111.6344635927
  0
VERTEX
  8
0
 62
7
  6
CONTINUOUS
 10
187.9936039287
 20
111.6396785987
  0
VERTEX
  8
0
 62
7
  6
CONTINUOUS
 10
188.4026829152
 20
111.6503991798
  0
VERTEX
  8
0
 62
7
  6
CONTINUOUS
 10
188.7891268102
 20
111.6659263632
  0
VERTEX
  8
0
 62
7
  6
CONTINUOUS
 10
189.1510338664
 20
111.6855639122
  0
VERTEX
  8
0
 62
7
  6
CONTINUOUS
 10
189.4877865034
 20
111.7086777237
  0
VERTEX
  8
0
 62
7
  6
CONTINUOUS
 10
189.7998651409
 20
111.734742326
  0
VERTEX
  8
0
 62
7
  6
CONTINUOUS
 10
190.0881132891
 20
111.7633227236
  0
VERTEX
  8
0
 62
7
  6
CONTINUOUS
 10
190.3535881342
 20
111.7940700567
  0
VERTEX
  8
0
 62
7
  6
CONTINUOUS
 10
190.5971078208
 20
111.8266659438
  0
VERTEX
  8
0
 62
7
  6
CONTINUOUS
 10
190.8192899816
 20
111.8607989382
  0
VERTEX
  8
0
 62
7
  6
CONTINUOUS
 10
191.0209824197
 20
111.8962157467
  0
VERTEX
  8
0
 62
7
  6
CONTINUOUS
 10
191.2032559379
 20
111.9327366943
  0
VERTEX
  8
0
 62
7
  6
CONTINUOUS
 10
191.3674107956
 20
111.9702793052
  0
VERTEX
  8
0
 62
7
  6
CONTINUOUS
 10
191.5149015176
 20
112.0088766484
  0
VERTEX
  8
0
 62
7
  6
CONTINUOUS
 10
191.6473648817
 20
112.0487283042
  0
VERTEX
  8
0
 62
7
  6
CONTINUOUS
 10
191.7666490407
 20
112.0902822186
  0
VERTEX
  8
0
 62
7
  6
CONTINUOUS
 10
191.8748550212
 20
112.1343878772
  0
VERTEX
  8
0
 62
7
  6
CONTINUOUS
 10
191.9740548504
 20
112.1823869549
  0
VERTEX
  8
0
 62
7
  6
CONTINUOUS
 10
192.0660288066
 20
112.2362527039
  0
VERTEX
  8
0
 62
7
  6
CONTINUOUS
 10
192.1523834836
 20
112.2990929734
  0
VERTEX
  8
0
 62
7
  6
CONTINUOUS
 10
192.2333696967
 20
112.3750840367
  0
VERTEX
  8
0
 62
7
  6
CONTINUOUS
 10
192.3061185966
 20
112.4681006524
  0
VERTEX
  8
0
 62
7
  6
CONTINUOUS
 10
192.3641739933
 20
112.57912852
  0
VERTEX
  8
0
 62
7
  6
CONTINUOUS
 10
192.3997720216
 20
112.7038667401
  0
VERTEX
  8
0
 62
7
  6
CONTINUOUS
 10
192.4086146583
 20
112.8060687902
  0
SEQEND
  0
LINE
  8
0
 62
7
  6
CONTINUOUS
 10
186.223923033
 20
111.6573823924
 11
117.8890319962
 21
114.3938719042
  0
LINE
  8
0
 62
9
  6
CONTINUOUS
 10
186.1145201129
 20
112.1569819679
 11
117.7796290752
 21
114.8934714798
  0
POLYLINE
  8
0
 62
9
  6
CONTINUOUS
 66
1
 70
0
  0
VERTEX
  8
0
 62
9
  6
CONTINUOUS
 10
116.5410996282
 20
114.8888282977
  0
VERTEX
  8
0
 62
9
  6
CONTINUOUS
 10
116.3022869313
 20
114.9006068044
  0
VERTEX
  8
0
 62
9
  6
CONTINUOUS
 10
116.2054583603
 20
114.9020960957
  0
VERTEX
  8
0
 62
9
  6
CONTINUOUS
 10
116.1227077252
 20
114.8971735879
  0
VERTEX
  8
0
 62
9
  6
CONTINUOUS
 10
116.051951837
 20
114.8845758399
  0
VERTEX
  8
0
 62
9
  6
CONTINUOUS
 10
115.9913984619
 20
114.8635693718
  0
VERTEX
  8
0
 62
9
  6
CONTINUOUS
 10
115.939363342
 20
114.8334878944
  0
VERTEX
  8
0
 62
9
  6
CONTINUOUS
 10
115.894293379
 20
114.7932030179
  0
VERTEX
  8
0
 62
9
  6
CONTINUOUS
 10
115.8550565265
 20
114.7408146367
  0
VERTEX
  8
0
 62
9
  6
CONTINUOUS
 10
115.8214913946
 20
114.6745747027
  0
VERTEX
  8
0
 62
9
  6
CONTINUOUS
 10
115.7943243521
 20
114.595280767
  0
VERTEX
  8
0
 62
9
  6
CONTINUOUS
 10
115.7738436112
 20
114.5064719771
  0
SEQEND
  0
POLYLINE
  8
0
 62
9
  6
CONTINUOUS
 66
1
 70
0
  0
VERTEX
  8
0
 62
9
  6
CONTINUOUS
 10
186.2239224061
 20
111.6573824175
  0
VERTEX
  8
0
 62
9
  6
CONTINUOUS
 10
186.2216280694
 20
111.6575534508
  0
VERTEX
  8
0
 62
9
  6
CONTINUOUS
 10
186.1999801201
 20
111.6672701735
  0
VERTEX
  8
0
 62
9
  6
CONTINUOUS
 10
186.1796202483
 20
111.6913394256
  0
VERTEX
  8
0
 62
9
  6
CONTINUOUS
 10
186.1611451633
 20
111.7290557825
  0
VERTEX
  8
0
 62
9
  6
CONTINUOUS
 10
186.1450963352
 20
111.7793138492
  0
VERTEX
  8
0
 62
9
  6
CONTINUOUS
 10
186.1319441247
 20
111.8406406562
  0
VERTEX
  8
0
 62
9
  6
CONTINUOUS
 10
186.1220739984
 20
111.9112388307
  0
VERTEX
  8
0
 62
9
  6
CONTINUOUS
 10
186.115775231
 20
111.9890392731
  0
VERTEX
  8
0
 62
9
  6
CONTINUOUS
 10
186.1132324276
 20
112.0717617993
  0
VERTEX
  8
0
 62
9
  6
CONTINUOUS
 10
186.1145201129
 20
112.1569819679
  0
SEQEND
  0
POLYLINE
  8
0
 62
7
  6
CONTINUOUS
 66
1
 70
0
  0
VERTEX
  8
0
 62
7
  6
CONTINUOUS
 10
116.4348161148
 20
117.9168151478
  0
VERTEX
  8
0
 62
7
  6
CONTINUOUS
 10
116.4078991731
 20
117.9190000758
  0
VERTEX
  8
0
 62
7
  6
CONTINUOUS
 10
116.380918971
 20
117.9197285377
  0
SEQEND
  0
POLYLINE
  8
0
 62
9
  6
CONTINUOUS
 66
1
 70
0
  0
VERTEX
  8
0
 62
9
  6
CONTINUOUS
 10
115.8665286379
 20
117.9197285869
  0
VERTEX
  8
0
 62
9
  6
CONTINUOUS
 10
115.9593970003
 20
117.9109224164
  0
VERTEX
  8
0
 62
9
  6
CONTINUOUS
 10
116.0489941063
 20
117.8848141177
  0
VERTEX
  8
0
 62
9
  6
CONTINUOUS
 10
116.13216393
 20
117.8423233462
  0
VERTEX
  8
0
 62
9
  6
CONTINUOUS
 10
116.205976844
 20
117.7849468238
  0
VERTEX
  8
0
 62
9
  6
CONTINUOUS
 10
116.2678328148
 20
117.7147056179
  0
SEQEND
  0
POLYLINE
  8
0
 62
9
  6
CONTINUOUS
 66
1
 70
0
  0
VERTEX
  8
0
 62
9
  6
CONTINUOUS
 10
115.3931737736
 20
117.9197285377
  0
VERTEX
  8
0
 62
9
  6
CONTINUOUS
 10
115.4729760268
 20
117.9121322615
  0
VERTEX
  8
0
 62
9
  6
CONTINUOUS
 10
115.5503533844
 20
117.8895742367
  0
VERTEX
  8
0
 62
9
  6
CONTINUOUS
 10
115.6229547332
 20
117.8527399082
  0
VERTEX
  8
0
 62
9
  6
CONTINUOUS
 10
115.6885740836
 20
117.8027485035
  0
VERTEX
  8
0
 62
9
  6
CONTINUOUS
 10
115.7452175971
 20
117.7411190233
  0
VERTEX
  8
0
 62
9
  6
CONTINUOUS
 10
115.7911641675
 20
117.6697240865
  0
VERTEX
  8
0
 62
9
  6
CONTINUOUS
 10
115.8250177143
 20
117.5907330311
  0
VERTEX
  8
0
 62
9
  6
CONTINUOUS
 10
115.8457496015
 20
117.5065459994
  0
VERTEX
  8
0
 62
9
  6
CONTINUOUS
 10
115.8527298914
 20
117.4197285377
  0
SEQEND
  0
POLYLINE
  8
0
 62
9
  6
CONTINUOUS
 66
1
 70
0
  0
VERTEX
  8
0
 62
9
  6
CONTINUOUS
 10
115.7341223655
 20
117.9197285377
  0
VERTEX
  8
0
 62
9
  6
CONTINUOUS
 10
115.824265969
 20
117.9109941148
  0
VERTEX
  8
0
 62
9
  6
CONTINUOUS
 10
115.9112601608
 20
117.8850960177
  0
VERTEX
  8
0
 62
9
  6
CONTINUOUS
 10
115.9920655651
 20
117.8429390657
  0
VERTEX
  8
0
 62
9
  6
CONTINUOUS
 10
116.063859028
 20
117.7859961244
  0
VERTEX
  8
0
 62
9
  6
CONTINUOUS
 10
116.1241322517
 20
117.7162566473
  0
VERTEX
  8
0
 62
9
  6
CONTINUOUS
 10
116.170779429
 20
117.6361571694
  0
SEQEND
  0
POLYLINE
  8
0
 62
9
  6
CONTINUOUS
 66
1
 70
0
  0
VERTEX
  8
0
 62
9
  6
CONTINUOUS
 10
116.4327731228
 20
117.469309124
  0
VERTEX
  8
0
 62
9
  6
CONTINUOUS
 10
116.3793551755
 20
117.4756255924
  0
VERTEX
  8
0
 62
9
  6
CONTINUOUS
 10
116.3277001607
 20
117.4915258624
  0
VERTEX
  8
0
 62
9
  6
CONTINUOUS
 10
116.2795128755
 20
117.5164851688
  0
VERTEX
  8
0
 62
9
  6
CONTINUOUS
 10
116.2363836711
 20
117.5496797658
  0
VERTEX
  8
0
 62
9
  6
CONTINUOUS
 10
116.1997359641
 20
117.5900141141
  0
VERTEX
  8
0
 62
9
  6
CONTINUOUS
 10
116.170779237
 20
117.6361570802
  0
SEQEND
  0
LINE
  8
0
 62
7
  6
CONTINUOUS
 10
116.4615946349
 20
117.913177053
 11
116.4348161148
 21
117.9168151478
  0
LINE
  8
0
 62
7
  6
CONTINUOUS
 10
116.4709232108
 20
117.9118063627
 11
116.4615946513
 21
117.9131770229
  0
POLYLINE
  8
0
 62
7
  6
CONTINUOUS
 66
1
 70
0
  0
VERTEX
  8
0
 62
7
  6
CONTINUOUS
 10
120.2181508554
 20
121.4363684433
  0
VERTEX
  8
0
 62
7
  6
CONTINUOUS
 10
120.2199057143
 20
121.4358990442
  0
VERTEX
  8
0
 62
7
  6
CONTINUOUS
 10
120.2165542811
 20
121.4370145021
  0
VERTEX
  8
0
 62
7
  6
CONTINUOUS
 10
120.2110243807
 20
121.439105911
  0
SEQEND
  0
POLYLINE
  8
0
 62
9
  6
CONTINUOUS
 66
1
 70
0
  0
VERTEX
  8
0
 62
9
  6
CONTINUOUS
 10
116.9338509002
 20
114.8948836677
  0
VERTEX
  8
0
 62
9
  6
CONTINUOUS
 10
116.8033239515
 20
114.8886219189
  0
VERTEX
  8
0
 62
9
  6
CONTINUOUS
 10
116.672514272
 20
114.886201866
  0
VERTEX
  8
0
 62
9
  6
CONTINUOUS
 10
116.5410996282
 20
114.8888282977
  0
SEQEND
  0
LINE
  8
0
 62
9
  6
CONTINUOUS
 10
116.9338509002
 20
116.9495531552
 11
115.7738436112
 21
116.9495531552
  0
LINE
  8
0
 62
9
  6
CONTINUOUS
 10
107.4086153385
 20
117.4197285377
 11
115.8527311099
 21
117.4197247762
  0
LINE
  8
0
 62
9
  6
CONTINUOUS
 10
116.6086153385
 20
117.9038653181
 11
116.5086153385
 21
117.9038653181
  0
LINE
  8
0
 62
7
  6
CONTINUOUS
 10
116.6086153385
 20
117.9093573864
 11
116.5086153388
 21
117.9093573864
  0
LINE
  8
0
 62
7
  6
CONTINUOUS
 10
107.9086213132
 20
117.9197285377
 11
116.380918971
 21
117.9197285377
  0
LINE
  8
CURVE
 62
4
  6
CONTINUOUS
 10
116.6086153385
 20
117.9697285377
 11
114.5006783374
 21
117.9697285377
  0
LINE
  8
DEFAULT_1
 62
7
  6
CENTER
 10
105.4086153385
 20
117.9697285377
 11
194.4086153385
 21
117.9697285377
  0
LINE
  8
0
 62
7
  6
CONTINUOUS
 10
116.3809171178
 20
118.0197285377
 11
107.9086213135
 21
118.0197285377
  0
LINE
  8
0
 62
7
  6
CONTINUOUS
 10
116.6086153385
 20
118.030099689
 11
116.5086153387
 21
118.030099689
  0
POLYLINE
  8
0
 62
7
  6
CONTINUOUS
 66
1
 70
0
  0
VERTEX
  8
0
 62
7
  6
CONTINUOUS
 10
116.6086153385
 20
118.0301015159
  0
VERTEX
  8
0
 62
7
  6
CONTINUOUS
 10
116.6858079326
 20
118.0296646283
  0
VERTEX
  8
0
 62
7
  6
CONTINUOUS
 10
116.7966276756
 20
118.027499718
  0
VERTEX
  8
0
 62
7
  6
CONTINUOUS
 10
116.8992714044
 20
118.0238047109
  0
VERTEX
  8
0
 62
7
  6
CONTINUOUS
 10
116.9933242224
 20
118.0188701324
  0
VERTEX
  8
0
 62
7
  6
CONTINUOUS
 10
117.0786443112
 20
118.0129619241
  0
VERTEX
  8
0
 62
7
  6
CONTINUOUS
 10
117.1552766771
 20
118.0063167722
  0
VERTEX
  8
0
 62
7
  6
CONTINUOUS
 10
117.2086153385
 20
118.0006988616
  0
SEQEND
  0
POLYLINE
  8
0
 62
7
  6
CONTINUOUS
 66
1
 70
0
  0
VERTEX
  8
0
 62
7
  6
CONTINUOUS
 10
116.5086153388
 20
117.909358148
  0
VERTEX
  8
0
 62
7
  6
CONTINUOUS
 10
116.5011124712
 20
117.9094544011
  0
VERTEX
  8
0
 62
7
  6
CONTINUOUS
 10
116.4709232108
 20
117.9118063627
  0
SEQEND
  0
LINE
  8
0
 62
9
  6
CONTINUOUS
 10
186.1145201129
 20
114.1791942236
 11
116.9338509002
 21
116.9495531552
  0
LINE
  8
0
 62
9
  6
CONTINUOUS
 10
116.432773122
 20
117.4693091243
 11
186.2439296355
 21
114.6737021553
  0
POLYLINE
  8
0
 62
9
  6
CONTINUOUS
 66
1
 70
0
  0
VERTEX
  8
0
 62
9
  6
CONTINUOUS
 10
116.5086153385
 20
117.9038653181
  0
VERTEX
  8
0
 62
9
  6
CONTINUOUS
 10
116.4846174396
 20
117.9048727463
  0
VERTEX
  8
0
 62
9
  6
CONTINUOUS
 10
116.4607276347
 20
117.9078963467
  0
SEQEND
  0
POLYLINE
  8
0
 62
9
  6
CONTINUOUS
 66
1
 70
0
  0
VERTEX
  8
0
 62
9
  6
CONTINUOUS
 10
116.380918971
 20
117.9197285377
  0
VERTEX
  8
0
 62
9
  6
CONTINUOUS
 10
116.4077106589
 20
117.9184091865
  0
VERTEX
  8
0
 62
9
  6
CONTINUOUS
 10
116.4343609502
 20
117.9144580955
  0
SEQEND
  0
LINE
  8
0
 62
9
  6
CONTINUOUS
 10
120.1886928777
 20
121.4497991111
 11
120.1857266058
 21
121.4501928839
  0
POLYLINE
  8
0
 62
9
  6
CONTINUOUS
 66
1
 70
0
  0
VERTEX
  8
0
 62
9
  6
CONTINUOUS
 10
120.2470251215
 20
121.4276743507
  0
VERTEX
  8
0
 62
9
  6
CONTINUOUS
 10
120.2843970943
 20
121.4215809909
  0
VERTEX
  8
0
 62
9
  6
CONTINUOUS
 10
120.3224692162
 20
121.4209315013
  0
SEQEND
  0
LINE
  8
0
 62
9
  6
CONTINUOUS
 10
120.2483286868
 20
121.4399235138
 11
120.1886928777
 21
121.4497991111
  0
LINE
  8
0
 62
9
  6
CONTINUOUS
 10
119.109926649
 20
114.2606924898
 11
119.4630748622
 21
114.3308389246
  0
LINE
  8
0
 62
9
  6
CONTINUOUS
 10
118.7053400756
 20
114.1822436765
 11
119.109926649
 21
114.2606924898
  0
POLYLINE
  8
0
 62
9
  6
CONTINUOUS
 66
1
 70
0
  0
VERTEX
  8
0
 62
9
  6
CONTINUOUS
 10
118.2784683865
 20
114.1022587891
  0
VERTEX
  8
0
 62
9
  6
CONTINUOUS
 10
118.4268155748
 20
114.1296313483
  0
VERTEX
  8
0
 62
9
  6
CONTINUOUS
 10
118.7053400756
 20
114.1822436765
  0
SEQEND
  0
POLYLINE
  8
0
 62
9
  6
CONTINUOUS
 66
1
 70
0
  0
VERTEX
  8
0
 62
9
  6
CONTINUOUS
 10
117.7086153385
 20
118.0682614196
  0
VERTEX
  8
0
 62
9
  6
CONTINUOUS
 10
117.6217909625
 20
118.0607486829
  0
VERTEX
  8
0
 62
9
  6
CONTINUOUS
 10
117.5376047995
 20
118.038438774
  0
VERTEX
  8
0
 62
9
  6
CONTINUOUS
 10
117.4586148021
 20
118.0020096128
  0
SEQEND
  0
POLYLINE
  8
0
 62
9
  6
CONTINUOUS
 66
1
 70
0
  0
VERTEX
  8
0
 62
9
  6
CONTINUOUS
 10
116.5086153385
 20
118.530099689
  0
VERTEX
  8
0
 62
9
  6
CONTINUOUS
 10
116.4444285315
 20
118.5274921671
  0
VERTEX
  8
0
 62
9
  6
CONTINUOUS
 10
116.3808984394
 20
118.5197285377
  0
SEQEND
  0
POLYLINE
  8
0
 62
9
  6
CONTINUOUS
 66
1
 70
0
  0
VERTEX
  8
0
 62
9
  6
CONTINUOUS
 10
120.9312603752
 20
121.1967557327
  0
VERTEX
  8
0
 62
9
  6
CONTINUOUS
 10
120.8987190666
 20
121.1967349447
  0
VERTEX
  8
0
 62
9
  6
CONTINUOUS
 10
120.8666285248
 20
121.2008929751
  0
VERTEX
  8
0
 62
9
  6
CONTINUOUS
 10
120.8354412382
 20
121.2091741368
  0
SEQEND
  0
LINE
  8
0
 62
9
  6
CONTINUOUS
 10
116.3808984394
 20
118.5197285377
 11
107.4086153385
 21
118.5197285377
  0
LINE
  8
0
 62
9
  6
CONTINUOUS
 10
116.6086153385
 20
118.530099689
 11
116.5086153385
 21
118.530099689
  0
LINE
  8
0
 62
9
  6
CONTINUOUS
 10
116.4998282128
 20
120.5523118734
 11
116.6086153385
 21
120.5523119448
  0
LINE
  8
0
 62
9
  6
CONTINUOUS
 10
116.4998281527
 20
121.0468199495
 11
116.6086153385
 21
121.0468198764
  0
LINE
  8
0
 62
9
  6
CONTINUOUS
 10
116.5086153385
 20
121.0771954232
 11
119.1311254174
 21
121.0771954232
  0
POLYLINE
  8
0
 62
9
  6
CONTINUOUS
 66
1
 70
0
  0
VERTEX
  8
0
 62
9
  6
CONTINUOUS
 10
116.6086153385
 20
121.0468198764
  0
VERTEX
  8
0
 62
9
  6
CONTINUOUS
 10
116.7493116455
 20
121.0454695337
  0
VERTEX
  8
0
 62
9
  6
CONTINUOUS
 10
116.8892607925
 20
121.0413791061
  0
VERTEX
  8
0
 62
9
  6
CONTINUOUS
 10
117.0258367972
 20
121.0345355588
  0
VERTEX
  8
0
 62
9
  6
CONTINUOUS
 10
117.1553156016
 20
121.0250784378
  0
VERTEX
  8
0
 62
9
  6
CONTINUOUS
 10
117.2751303609
 20
121.0132046748
  0
VERTEX
  8
0
 62
9
  6
CONTINUOUS
 10
117.3835329938
 20
120.9991011215
  0
VERTEX
  8
0
 62
9
  6
CONTINUOUS
 10
117.4789233099
 20
120.9829637673
  0
VERTEX
  8
0
 62
9
  6
CONTINUOUS
 10
117.5596837287
 20
120.9650241822
  0
VERTEX
  8
0
 62
9
  6
CONTINUOUS
 10
117.6242561709
 20
120.9455609883
  0
VERTEX
  8
0
 62
9
  6
CONTINUOUS
 10
117.6711221403
 20
120.924978602
  0
VERTEX
  8
0
 62
9
  6
CONTINUOUS
 10
117.6993158144
 20
120.9037553501
  0
VERTEX
  8
0
 62
9
  6
CONTINUOUS
 10
117.7086153385
 20
120.882423775
  0
SEQEND
  0
POLYLINE
  8
0
 62
9
  6
CONTINUOUS
 66
1
 70
0
  0
VERTEX
  8
0
 62
9
  6
CONTINUOUS
 10
115.714992663
 20
121.241645907
  0
VERTEX
  8
0
 62
9
  6
CONTINUOUS
 10
115.7943437198
 20
121.2406531422
  0
VERTEX
  8
0
 62
9
  6
CONTINUOUS
 10
115.867435811
 20
121.238350399
  0
VERTEX
  8
0
 62
9
  6
CONTINUOUS
 10
115.9332202774
 20
121.2342664316
  0
VERTEX
  8
0
 62
9
  6
CONTINUOUS
 10
115.9923496683
 20
121.2285935623
  0
VERTEX
  8
0
 62
9
  6
CONTINUOUS
 10
116.0451468511
 20
121.2202986092
  0
VERTEX
  8
0
 62
9
  6
CONTINUOUS
 10
116.0918527189
 20
121.209328762
  0
VERTEX
  8
0
 62
9
  6
CONTINUOUS
 10
116.1329294117
 20
121.1951246365
  0
VERTEX
  8
0
 62
9
  6
CONTINUOUS
 10
116.1703196363
 20
121.1775010393
  0
VERTEX
  8
0
 62
9
  6
CONTINUOUS
 10
116.2063647857
 20
121.1564461274
  0
VERTEX
  8
0
 62
9
  6
CONTINUOUS
 10
116.2427831288
 20
121.1330537962
  0
VERTEX
  8
0
 62
9
  6
CONTINUOUS
 10
116.2808311415
 20
121.1093500228
  0
VERTEX
  8
0
 62
9
  6
CONTINUOUS
 10
116.3213481842
 20
121.0873961999
  0
VERTEX
  8
0
 62
9
  6
CONTINUOUS
 10
116.3643872896
 20
121.0690562336
  0
VERTEX
  8
0
 62
9
  6
CONTINUOUS
 10
116.4093262695
 20
121.0557221224
  0
VERTEX
  8
0
 62
9
  6
CONTINUOUS
 10
116.4549670162
 20
121.0482430639
  0
VERTEX
  8
0
 62
9
  6
CONTINUOUS
 10
116.4998283621
 20
121.0468198847
  0
SEQEND
  0
POLYLINE
  8
0
 62
9
  6
CONTINUOUS
 66
1
 70
0
  0
VERTEX
  8
0
 62
9
  6
CONTINUOUS
 10
116.6086153385
 20
120.5523119448
  0
VERTEX
  8
0
 62
9
  6
CONTINUOUS
 10
116.6854447435
 20
120.5509586262
  0
VERTEX
  8
0
 62
9
  6
CONTINUOUS
 10
116.7617739173
 20
120.5468657529
  0
VERTEX
  8
0
 62
9
  6
CONTINUOUS
 10
116.8362593392
 20
120.5400204288
  0
VERTEX
  8
0
 62
9
  6
CONTINUOUS
 10
116.9068681305
 20
120.5305630221
  0
VERTEX
  8
0
 62
9
  6
CONTINUOUS
 10
116.9722021799
 20
120.5186906145
  0
VERTEX
  8
0
 62
9
  6
CONTINUOUS
 10
117.0313097281
 20
120.5045905141
  0
VERTEX
  8
0
 62
9
  6
CONTINUOUS
 10
117.0833194009
 20
120.4884592089
  0
VERTEX
  8
0
 62
9
  6
CONTINUOUS
 10
117.1273552072
 20
120.4705271962
  0
VERTEX
  8
0
 62
9
  6
CONTINUOUS
 10
117.1625724075
 20
120.4510711888
  0
VERTEX
  8
0
 62
9
  6
CONTINUOUS
 10
117.188140618
 20
120.4304940258
  0
VERTEX
  8
0
 62
9
  6
CONTINUOUS
 10
117.2035290965
 20
120.409275603
  0
VERTEX
  8
0
 62
9
  6
CONTINUOUS
 10
117.2086153385
 20
120.3879158433
  0
SEQEND
  0
POLYLINE
  8
0
 62
9
  6
CONTINUOUS
 66
1
 70
0
  0
VERTEX
  8
0
 62
9
  6
CONTINUOUS
 10
117.4789760533
 20
117.967731689
  0
VERTEX
  8
0
 62
9
  6
CONTINUOUS
 10
117.3836183934
 20
117.951596739
  0
VERTEX
  8
0
 62
9
  6
CONTINUOUS
 10
117.2751927016
 20
117.9374875559
  0
VERTEX
  8
0
 62
9
  6
CONTINUOUS
 10
117.155295399
 20
117.9256049226
  0
VERTEX
  8
0
 62
9
  6
CONTINUOUS
 10
117.0257199372
 20
117.9161423732
  0
VERTEX
  8
0
 62
9
  6
CONTINUOUS
 10
116.8892193288
 20
117.9093043033
  0
VERTEX
  8
0
 62
9
  6
CONTINUOUS
 10
116.7490198404
 20
117.9052099973
  0
VERTEX
  8
0
 62
9
  6
CONTINUOUS
 10
116.6086153385
 20
117.9038653181
  0
SEQEND
  0
POLYLINE
  8
0
 62
7
  6
CONTINUOUS
 66
1
 70
0
  0
VERTEX
  8
0
 62
7
  6
CONTINUOUS
 10
116.4615946586
 20
118.0262800637
  0
VERTEX
  8
0
 62
7
  6
CONTINUOUS
 10
116.4709241364
 20
118.0276508497
  0
VERTEX
  8
0
 62
7
  6
CONTINUOUS
 10
116.5011135701
 20
118.0300027266
  0
VERTEX
  8
0
 62
7
  6
CONTINUOUS
 10
116.5086153387
 20
118.0300989535
  0
SEQEND
  0
POLYLINE
  8
0
 62
7
  6
CONTINUOUS
 66
1
 70
0
  0
VERTEX
  8
0
 62
7
  6
CONTINUOUS
 10
116.4615946437
 20
118.0262800238
  0
VERTEX
  8
0
 62
7
  6
CONTINUOUS
 10
116.4348161299
 20
118.0226419293
  0
VERTEX
  8
0
 62
7
  6
CONTINUOUS
 10
116.4078991806
 20
118.0204570001
  0
VERTEX
  8
0
 62
7
  6
CONTINUOUS
 10
116.380918971
 20
118.0197285377
  0
SEQEND
  0
POLYLINE
  8
0
 62
9
  6
CONTINUOUS
 66
1
 70
0
  0
VERTEX
  8
0
 62
9
  6
CONTINUOUS
 10
114.7754698801
 20
118.0197285377
  0
VERTEX
  8
0
 62
9
  6
CONTINUOUS
 10
114.8333409545
 20
118.0273246612
  0
VERTEX
  8
0
 62
9
  6
CONTINUOUS
 10
114.8894536456
 20
118.0498822273
  0
VERTEX
  8
0
 62
9
  6
CONTINUOUS
 10
114.9421029977
 20
118.0867158358
  0
VERTEX
  8
0
 62
9
  6
CONTINUOUS
 10
114.9896892868
 20
118.1367063162
  0
VERTEX
  8
0
 62
9
  6
CONTINUOUS
 10
115.0307666276
 20
118.1983347329
  0
VERTEX
  8
0
 62
9
  6
CONTINUOUS
 10
115.0640869059
 20
118.2697285377
  0
VERTEX
  8
0
 62
9
  6
CONTINUOUS
 10
115.088637702
 20
118.348718466
  0
VERTEX
  8
0
 62
9
  6
CONTINUOUS
 10
115.1036730523
 20
118.4329044489
  0
VERTEX
  8
0
 62
9
  6
CONTINUOUS
 10
115.1087361152
 20
118.5197285377
  0
SEQEND
  0
POLYLINE
  8
0
 62
9
  6
CONTINUOUS
 66
1
 70
0
  0
VERTEX
  8
0
 62
9
  6
CONTINUOUS
 10
114.1674121023
 20
118.0197285377
  0
VERTEX
  8
0
 62
9
  6
CONTINUOUS
 10
114.2252836339
 20
118.0273247821
  0
VERTEX
  8
0
 62
9
  6
CONTINUOUS
 10
114.2813967412
 20
118.0498827043
  0
VERTEX
  8
0
 62
9
  6
CONTINUOUS
 10
114.3340470093
 20
118.0867173858
  0
VERTEX
  8
0
 62
9
  6
CONTINUOUS
 10
114.3816339262
 20
118.1367093592
  0
VERTEX
  8
0
 62
9
  6
CONTINUOUS
 10
114.4227116196
 20
118.1983396854
  0
VERTEX
  8
0
 62
9
  6
CONTINUOUS
 10
114.4560318953
 20
118.2697357287
  0
VERTEX
  8
0
 62
9
  6
CONTINUOUS
 10
114.480582146
 20
118.3487276247
  0
VERTEX
  8
0
 62
9
  6
CONTINUOUS
 10
114.4956165705
 20
118.432915477
  0
VERTEX
  8
0
 62
9
  6
CONTINUOUS
 10
114.5006783374
 20
118.5197285377
  0
SEQEND
  0
POLYLINE
  8
0
 62
9
  6
CONTINUOUS
 66
1
 70
0
  0
VERTEX
  8
0
 62
9
  6
CONTINUOUS
 10
117.7086153385
 20
120.882423775
  0
VERTEX
  8
0
 62
9
  6
CONTINUOUS
 10
117.6217912496
 20
120.8749110883
  0
VERTEX
  8
0
 62
9
  6
CONTINUOUS
 10
117.5376052668
 20
120.8526012976
  0
VERTEX
  8
0
 62
9
  6
CONTINUOUS
 10
117.4586153385
 20
120.8161722745
  0
VERTEX
  8
0
 62
9
  6
CONTINUOUS
 10
117.3872215336
 20
120.7667308964
  0
VERTEX
  8
0
 62
9
  6
CONTINUOUS
 10
117.3255931169
 20
120.7057794147
  0
VERTEX
  8
0
 62
9
  6
CONTINUOUS
 10
117.2756026366
 20
120.6351698091
  0
VERTEX
  8
0
 62
9
  6
CONTINUOUS
 10
117.2387690281
 20
120.5570475169
  0
VERTEX
  8
0
 62
9
  6
CONTINUOUS
 10
117.216211462
 20
120.4737862445
  0
VERTEX
  8
0
 62
9
  6
CONTINUOUS
 10
117.2086153385
 20
120.3879158433
  0
SEQEND
  0
LINE
  8
0
 62
9
  6
CONTINUOUS
 10
119.8070803679
 20
121.6165011322
 11
186.2439296355
 21
124.2769830392
  0
LINE
  8
0
 62
7
  6
CONTINUOUS
 10
119.7954016419
 20
121.6219262682
 11
186.2239230331
 21
124.282074683
  0
POLYLINE
  8
0
 62
9
  6
CONTINUOUS
 66
1
 70
0
  0
VERTEX
  8
0
 62
9
  6
CONTINUOUS
 10
186.2439296355
 20
124.2769830392
  0
VERTEX
  8
0
 62
9
  6
CONTINUOUS
 10
186.6659765873
 20
124.2906774998
  0
VERTEX
  8
0
 62
9
  6
CONTINUOUS
 10
187.0948584583
 20
124.2982621985
  0
VERTEX
  8
0
 62
9
  6
CONTINUOUS
 10
187.5266047879
 20
124.2996677109
  0
VERTEX
  8
0
 62
9
  6
CONTINUOUS
 10
187.9572809329
 20
124.2948813356
  0
VERTEX
  8
0
 62
9
  6
CONTINUOUS
 10
188.3830008732
 20
124.2839437934
  0
VERTEX
  8
0
 62
9
  6
CONTINUOUS
 10
188.7999265715
 20
124.2669472984
  0
VERTEX
  8
0
 62
9
  6
CONTINUOUS
 10
189.204273688
 20
124.2440356747
  0
VERTEX
  8
0
 62
9
  6
CONTINUOUS
 10
189.5923308211
 20
124.2154052087
  0
VERTEX
  8
0
 62
9
  6
CONTINUOUS
 10
189.9605129241
 20
124.1813030341
  0
VERTEX
  8
0
 62
9
  6
CONTINUOUS
 10
190.3053777903
 20
124.1420272718
  0
VERTEX
  8
0
 62
9
  6
CONTINUOUS
 10
190.623668185
 20
124.097924986
  0
VERTEX
  8
0
 62
9
  6
CONTINUOUS
 10
190.9123350283
 20
124.0493918528
  0
VERTEX
  8
0
 62
9
  6
CONTINUOUS
 10
191.168585625
 20
123.9968678923
  0
VERTEX
  8
0
 62
9
  6
CONTINUOUS
 10
191.3899071543
 20
123.9408360944
  0
VERTEX
  8
0
 62
9
  6
CONTINUOUS
 10
191.5741057261
 20
123.8818177945
  0
VERTEX
  8
0
 62
9
  6
CONTINUOUS
 10
191.7193377877
 20
123.8203680136
  0
VERTEX
  8
0
 62
9
  6
CONTINUOUS
 10
191.8241406666
 20
123.7570679961
  0
VERTEX
  8
0
 62
9
  6
CONTINUOUS
 10
191.8874478562
 20
123.6925240283
  0
VERTEX
  8
0
 62
9
  6
CONTINUOUS
 10
191.9086153385
 20
123.6273694203
  0
SEQEND
  0
LINE
  8
0
 62
7
  6
CONTINUOUS
 10
186.6601919763
 20
124.296180462
 11
186.2239223252
 21
124.2820746173
  0
POLYLINE
  8
0
 62
9
  6
CONTINUOUS
 66
1
 70
0
  0
VERTEX
  8
0
 62
9
  6
CONTINUOUS
 10
119.1311254174
 20
121.0771954232
  0
VERTEX
  8
0
 62
9
  6
CONTINUOUS
 10
119.3907716487
 20
121.0784139829
  0
VERTEX
  8
0
 62
9
  6
CONTINUOUS
 10
119.6217109191
 20
121.0815271964
  0
VERTEX
  8
0
 62
9
  6
CONTINUOUS
 10
119.8274938149
 20
121.0859524985
  0
VERTEX
  8
0
 62
9
  6
CONTINUOUS
 10
120.0109587247
 20
121.091312191
  0
VERTEX
  8
0
 62
9
  6
CONTINUOUS
 10
120.1743753052
 20
121.0973543846
  0
VERTEX
  8
0
 62
9
  6
CONTINUOUS
 10
120.3195719786
 20
121.1039091593
  0
VERTEX
  8
0
 62
9
  6
CONTINUOUS
 10
120.4480156585
 20
121.1108624149
  0
VERTEX
  8
0
 62
9
  6
CONTINUOUS
 10
120.560856127
 20
121.118138833
  0
VERTEX
  8
0
 62
9
  6
CONTINUOUS
 10
120.6589443942
 20
121.1256899388
  0
VERTEX
  8
0
 62
9
  6
CONTINUOUS
 10
120.742808664
 20
121.1334809705
  0
VERTEX
  8
0
 62
9
  6
CONTINUOUS
 10
120.8126565309
 20
121.1414743727
  0
VERTEX
  8
0
 62
9
  6
CONTINUOUS
 10
120.8684444934
 20
121.1496089463
  0
VERTEX
  8
0
 62
9
  6
CONTINUOUS
 10
120.9100297235
 20
121.1577666567
  0
VERTEX
  8
0
 62
9
  6
CONTINUOUS
 10
120.9376067526
 20
121.1657535115
  0
VERTEX
  8
0
 62
9
  6
CONTINUOUS
 10
120.952394665
 20
121.1733957855
  0
VERTEX
  8
0
 62
9
  6
CONTINUOUS
 10
120.9563028025
 20
121.1808415311
  0
VERTEX
  8
0
 62
9
  6
CONTINUOUS
 10
120.9497586876
 20
121.1885519426
  0
VERTEX
  8
0
 62
9
  6
CONTINUOUS
 10
120.9313014026
 20
121.1967413848
  0
SEQEND
  0
LINE
  8
0
 62
9
  6
CONTINUOUS
 10
116.2086153385
 20
121.3739001822
 11
119.1309608056
 21
121.3739001822
  0
LINE
  8
0
 62
9
  6
CONTINUOUS
 10
109.4226616507
 20
121.933799637
 11
109.1167701523
 21
121.933799637
  0
LINE
  8
0
 62
9
  6
CONTINUOUS
 10
116.2086153385
 20
123.1111427449
 11
116.5086153385
 21
123.1111427449
  0
LINE
  8
0
 62
9
  6
CONTINUOUS
 10
114.5006783374
 20
123.2051516888
 11
114.1674121023
 21
123.2051516888
  0
LINE
  8
0
 62
9
  6
CONTINUOUS
 10
116.2086153385
 20
123.6181158513
 11
115.7086153385
 21
123.6181158513
  0
LINE
  8
0
 62
9
  6
CONTINUOUS
 10
115.1087361152
 20
123.3680802793
 11
114.5006783374
 21
123.2051516888
  0
LINE
  8
0
 62
9
  6
CONTINUOUS
 10
114.1674121023
 20
123.2051516888
 11
109.4226616507
 21
121.933799637
  0
LINE
  8
0
 62
9
  6
CONTINUOUS
 10
109.1167701523
 20
121.933799637
 11
107.4086153386
 21
121.5281133213
  0
LINE
  8
0
 62
7
  6
CONTINUOUS
 10
115.8548795642
 20
124.1681823943
 11
115.7753744441
 21
124.1536419899
  0
LINE
  8
0
 62
7
  6
CONTINUOUS
 10
115.7753737475
 20
124.1536418033
 11
107.7792101888
 21
122.0110762352
  0
LINE
  8
0
 62
9
  6
CONTINUOUS
 10
186.2239230332
 20
124.282074683
 11
186.2439296355
 21
124.2769830392
  0
LINE
  8
0
 62
9
  6
CONTINUOUS
 10
186.1145201129
 20
112.1569819679
 11
186.1145201129
 21
114.1791942236
  0
POLYLINE
  8
0
 62
9
  6
CONTINUOUS
 66
1
 70
0
  0
VERTEX
  8
0
 62
9
  6
CONTINUOUS
 10
186.1145201129
 20
114.1791942236
  0
VERTEX
  8
0
 62
9
  6
CONTINUOUS
 10
186.1198883418
 20
114.2678760371
  0
VERTEX
  8
0
 62
9
  6
CONTINUOUS
 10
186.1291957564
 20
114.3537415777
  0
VERTEX
  8
0
 62
9
  6
CONTINUOUS
 10
186.1421467806
 20
114.4340640091
  0
VERTEX
  8
0
 62
9
  6
CONTINUOUS
 10
186.1583301281
 20
114.5062925277
  0
VERTEX
  8
0
 62
9
  6
CONTINUOUS
 10
186.1772318636
 20
114.5681333687
  0
VERTEX
  8
0
 62
9
  6
CONTINUOUS
 10
186.1982517236
 20
114.6176226495
  0
VERTEX
  8
0
 62
9
  6
CONTINUOUS
 10
186.2207221793
 20
114.6531887364
  0
VERTEX
  8
0
 62
9
  6
CONTINUOUS
 10
186.2439296355
 20
114.6737021553
  0
SEQEND
  0
POLYLINE
  8
0
 62
9
  6
CONTINUOUS
 66
1
 70
0
  0
VERTEX
  8
0
 62
9
  6
CONTINUOUS
 10
192.4086153385
 20
114.8288078425
  0
VERTEX
  8
0
 62
9
  6
CONTINUOUS
 10
192.4010192124
 20
114.914678258
  0
VERTEX
  8
0
 62
9
  6
CONTINUOUS
 10
192.3784616392
 20
114.9979395424
  0
VERTEX
  8
0
 62
9
  6
CONTINUOUS
 10
192.3416280207
 20
115.0760618419
  0
VERTEX
  8
0
 62
9
  6
CONTINUOUS
 10
192.29163753
 20
115.1466714492
  0
VERTEX
  8
0
 62
9
  6
CONTINUOUS
 10
192.2300091054
 20
115.207622927
  0
VERTEX
  8
0
 62
9
  6
CONTINUOUS
 10
192.1586152979
 20
115.2570642968
  0
VERTEX
  8
0
 62
9
  6
CONTINUOUS
 10
192.0796253744
 20
115.2934933096
  0
VERTEX
  8
0
 62
9
  6
CONTINUOUS
 10
191.9954394051
 20
115.3158030914
  0
VERTEX
  8
0
 62
9
  6
CONTINUOUS
 10
191.9086153385
 20
115.3233157742
  0
SEQEND
  0
POLYLINE
  8
0
 62
7
  6
CONTINUOUS
 66
1
 70
0
  0
VERTEX
  8
0
 62
7
  6
CONTINUOUS
 10
192.408614824
 20
123.1333571031
  0
VERTEX
  8
0
 62
7
  6
CONTINUOUS
 10
192.3994095912
 20
123.2376621227
  0
VERTEX
  8
0
 62
7
  6
CONTINUOUS
 10
192.3634231309
 20
123.3621816857
  0
VERTEX
  8
0
 62
7
  6
CONTINUOUS
 10
192.3050938489
 20
123.4729221358
  0
VERTEX
  8
0
 62
7
  6
CONTINUOUS
 10
192.2321657735
 20
123.5656719997
  0
VERTEX
  8
0
 62
7
  6
CONTINUOUS
 10
192.1510834929
 20
123.6414269176
  0
VERTEX
  8
0
 62
7
  6
CONTINUOUS
 10
192.0646363045
 20
123.7041065681
  0
VERTEX
  8
0
 62
7
  6
CONTINUOUS
 10
191.9725533583
 20
123.7578650063
  0
VERTEX
  8
0
 62
7
  6
CONTINUOUS
 10
191.8732282575
 20
123.8057886923
  0
VERTEX
  8
0
 62
7
  6
CONTINUOUS
 10
191.7648964576
 20
123.8498332891
  0
VERTEX
  8
0
 62
7
  6
CONTINUOUS
 10
191.6454819073
 20
123.8913370521
  0
VERTEX
  8
0
 62
7
  6
CONTINUOUS
 10
191.5128942225
 20
123.931142796
  0
VERTEX
  8
0
 62
7
  6
CONTINUOUS
 10
191.3652925597
 20
123.9696954311
  0
VERTEX
  8
0
 62
7
  6
CONTINUOUS
 10
191.2010480026
 20
124.0071927185
  0
VERTEX
  8
0
 62
7
  6
CONTINUOUS
 10
191.018710457
 20
124.0436673664
  0
VERTEX
  8
0
 62
7
  6
CONTINUOUS
 10
190.8169810798
 20
124.0790373946
  0
VERTEX
  8
0
 62
7
  6
CONTINUOUS
 10
190.5947883274
 20
124.1131239062
  0
VERTEX
  8
0
 62
7
  6
CONTINUOUS
 10
190.3512810493
 20
124.1456745456
  0
VERTEX
  8
0
 62
7
  6
CONTINUOUS
 10
190.0858364999
 20
124.1763787254
  0
VERTEX
  8
0
 62
7
  6
CONTINUOUS
 10
189.7976434636
 20
124.2049174428
  0
VERTEX
  8
0
 62
7
  6
CONTINUOUS
 10
189.4856686141
 20
124.2309403561
  0
VERTEX
  8
0
 62
7
  6
CONTINUOUS
 10
189.149096142
 20
124.2540121997
  0
VERTEX
  8
0
 62
7
  6
CONTINUOUS
 10
188.7874720142
 20
124.2736088746
  0
VERTEX
  8
0
 62
7
  6
CONTINUOUS
 10
188.4013752944
 20
124.2891013522
  0
VERTEX
  8
0
 62
7
  6
CONTINUOUS
 10
187.9926010482
 20
124.2997977817
  0
VERTEX
  8
0
 62
7
  6
CONTINUOUS
 10
187.5637326179
 20
124.3049978358
  0
VERTEX
  8
0
 62
7
  6
CONTINUOUS
 10
187.1181919205
 20
124.3040118317
  0
VERTEX
  8
0
 62
7
  6
CONTINUOUS
 10
186.6601919763
 20
124.296180462
  0
SEQEND
  0
LINE
  8
0
 62
9
  6
CONTINUOUS
 10
191.9086153385
 20
123.6273694203
 11
191.9086153385
 21
115.3233157742
  0
LINE
  8
0
 62
7
  6
CONTINUOUS
 10
192.4086153385
 20
112.8065955868
 11
192.4086150873
 21
123.1333571033
  0
POLYLINE
  8
0
 62
9
  6
CONTINUOUS
 66
1
 70
0
  0
VERTEX
  8
0
 62
9
  6
CONTINUOUS
 10
191.9086153385
 20
115.3233157742
  0
VERTEX
  8
0
 62
9
  6
CONTINUOUS
 10
191.8874469675
 20
115.2581598189
  0
VERTEX
  8
0
 62
9
  6
CONTINUOUS
 10
191.8241389176
 20
115.1936158556
  0
VERTEX
  8
0
 62
9
  6
CONTINUOUS
 10
191.7193351406
 20
115.1303158587
  0
VERTEX
  8
0
 62
9
  6
CONTINUOUS
 10
191.5741022095
 20
115.0688661114
  0
VERTEX
  8
0
 62
9
  6
CONTINUOUS
 10
191.3899027897
 20
115.0098478605
  0
VERTEX
  8
0
 62
9
  6
CONTINUOUS
 10
191.1685804411
 20
114.9538161228
  0
VERTEX
  8
0
 62
9
  6
CONTINUOUS
 10
190.9123290576
 20
114.9012922338
  0
VERTEX
  8
0
 62
9
  6
CONTINUOUS
 10
190.6236614809
 20
114.852759185
  0
VERTEX
  8
0
 62
9
  6
CONTINUOUS
 10
190.305370406
 20
114.8086569942
  0
VERTEX
  8
0
 62
9
  6
CONTINUOUS
 10
189.9605050524
 20
114.7693813505
  0
VERTEX
  8
0
 62
9
  6
CONTINUOUS
 10
189.5923226615
 20
114.7352793093
  0
VERTEX
  8
0
 62
9
  6
CONTINUOUS
 10
189.2042653317
 20
114.7066489768
  0
VERTEX
  8
0
 62
9
  6
CONTINUOUS
 10
188.7999180937
 20
114.6837374849
  0
VERTEX
  8
0
 62
9
  6
CONTINUOUS
 10
188.382992346
 20
114.6667411192
  0
VERTEX
  8
0
 62
9
  6
CONTINUOUS
 10
187.9572724836
 20
114.655803705
  0
VERTEX
  8
0
 62
9
  6
CONTINUOUS
 10
187.5265965211
 20
114.6510174518
  0
VERTEX
  8
0
 62
9
  6
CONTINUOUS
 10
187.0948503229
 20
114.6524230836
  0
VERTEX
  8
0
 62
9
  6
CONTINUOUS
 10
186.6659684827
 20
114.6600078959
  0
VERTEX
  8
0
 62
9
  6
CONTINUOUS
 10
186.2439296355
 20
114.6737021553
  0
SEQEND
  0
POLYLINE
  8
0
 62
9
  6
CONTINUOUS
 66
1
 70
0
  0
VERTEX
  8
0
 62
9
  6
CONTINUOUS
 10
192.4086153385
 20
114.8288078425
  0
VERTEX
  8
0
 62
9
  6
CONTINUOUS
 10
192.38508418
 20
114.7636372505
  0
VERTEX
  8
0
 62
9
  6
CONTINUOUS
 10
192.3147342174
 20
114.6990952726
  0
VERTEX
  8
0
 62
9
  6
CONTINUOUS
 10
192.1982801327
 20
114.6357972174
  0
VERTEX
  8
0
 62
9
  6
CONTINUOUS
 10
192.0369076465
 20
114.5743494904
  0
VERTEX
  8
0
 62
9
  6
CONTINUOUS
 10
191.8322417217
 20
114.5153332131
  0
VERTEX
  8
0
 62
9
  6
CONTINUOUS
 10
191.586330754
 20
114.4593033749
  0
VERTEX
  8
0
 62
9
  6
CONTINUOUS
 10
191.3016122693
 20
114.406781252
  0
VERTEX
  8
0
 62
9
  6
CONTINUOUS
 10
190.9808781503
 20
114.3582497901
  0
VERTEX
  8
0
 62
9
  6
CONTINUOUS
 10
190.6272311796
 20
114.3141489615
  0
VERTEX
  8
0
 62
9
  6
CONTINUOUS
 10
190.2440589735
 20
114.2748744008
  0
VERTEX
  8
0
 62
9
  6
CONTINUOUS
 10
189.8349801846
 20
114.2407731194
  0
VERTEX
  8
0
 62
9
  6
CONTINUOUS
 10
189.4038190016
 20
114.212143207
  0
VERTEX
  8
0
 62
9
  6
CONTINUOUS
 10
188.9545584212
 20
114.1892317848
  0
VERTEX
  8
0
 62
9
  6
CONTINUOUS
 10
188.491321846
 20
114.172235135
  0
VERTEX
  8
0
 62
9
  6
CONTINUOUS
 10
188.0183137976
 20
114.1612970835
  0
VERTEX
  8
0
 62
9
  6
CONTINUOUS
 10
187.5397983674
 20
114.1565098477
  0
VERTEX
  8
0
 62
9
  6
CONTINUOUS
 10
187.0600928199
 20
114.1579141709
  0
VERTEX
  8
0
 62
9
  6
CONTINUOUS
 10
186.5835686447
 20
114.1654973356
  0
VERTEX
  8
0
 62
9
  6
CONTINUOUS
 10
186.1145201129
 20
114.1791942236
  0
SEQEND
  0
POLYLINE
  8
0
 62
9
  6
CONTINUOUS
 66
1
 70
0
  0
VERTEX
  8
0
 62
9
  6
CONTINUOUS
 10
192.4086153385
 20
112.8065955868
  0
VERTEX
  8
0
 62
9
  6
CONTINUOUS
 10
192.3850844304
 20
112.7414253521
  0
VERTEX
  8
0
 62
9
  6
CONTINUOUS
 10
192.3147347297
 20
112.6768833772
  0
VERTEX
  8
0
 62
9
  6
CONTINUOUS
 10
192.1982808811
 20
112.6135853082
  0
VERTEX
  8
0
 62
9
  6
CONTINUOUS
 10
192.0369086141
 20
112.5521375638
  0
VERTEX
  8
0
 62
9
  6
CONTINUOUS
 10
191.8322428369
 20
112.4931212523
  0
VERTEX
  8
0
 62
9
  6
CONTINUOUS
 10
191.5863319857
 20
112.437091381
  0
VERTEX
  8
0
 62
9
  6
CONTINUOUS
 10
191.3016135918
 20
112.384569226
  0
VERTEX
  8
0
 62
9
  6
CONTINUOUS
 10
190.9808794923
 20
112.3360377266
  0
VERTEX
  8
0
 62
9
  6
CONTINUOUS
 10
190.6272324764
 20
112.2919368592
  0
VERTEX
  8
0
 62
9
  6
CONTINUOUS
 10
190.2440601873
 20
112.2526622628
  0
VERTEX
  8
0
 62
9
  6
CONTINUOUS
 10
189.8349812521
 20
112.218560947
  0
VERTEX
  8
0
 62
9
  6
CONTINUOUS
 10
189.4038198985
 20
112.1899310058
  0
VERTEX
  8
0
 62
9
  6
CONTINUOUS
 10
188.954559132
 20
112.1670195607
  0
VERTEX
  8
0
 62
9
  6
CONTINUOUS
 10
188.4913223882
 20
112.1500228951
  0
VERTEX
  8
0
 62
9
  6
CONTINUOUS
 10
188.0183140668
 20
112.1390848306
  0
VERTEX
  8
0
 62
9
  6
CONTINUOUS
 10
187.5397982905
 20
112.1342975908
  0
VERTEX
  8
0
 62
9
  6
CONTINUOUS
 10
187.0600925167
 20
112.1357019146
  0
VERTEX
  8
0
 62
9
  6
CONTINUOUS
 10
186.583568445
 20
112.1432850851
  0
VERTEX
  8
0
 62
9
  6
CONTINUOUS
 10
186.1145201129
 20
112.1569819679
  0
SEQEND
  0
POLYLINE
  8
0
 62
9
  6
CONTINUOUS
 66
1
 70
0
  0
VERTEX
  8
0
 62
9
  6
CONTINUOUS
 10
192.401019215
 20
123.2187318898
  0
VERTEX
  8
0
 62
9
  6
CONTINUOUS
 10
192.3784616489
 20
123.3019931623
  0
VERTEX
  8
0
 62
9
  6
CONTINUOUS
 10
192.3416280403
 20
123.3801154545
  0
VERTEX
  8
0
 62
9
  6
CONTINUOUS
 10
192.29163756
 20
123.45072506
  0
VERTEX
  8
0
 62
9
  6
CONTINUOUS
 10
192.2300091433
 20
123.5116765418
  0
VERTEX
  8
0
 62
9
  6
CONTINUOUS
 10
192.1586153385
 20
123.5611179199
  0
VERTEX
  8
0
 62
9
  6
CONTINUOUS
 10
192.0796254101
 20
123.597546943
  0
VERTEX
  8
0
 62
9
  6
CONTINUOUS
 10
191.9954394273
 20
123.6198567337
  0
VERTEX
  8
0
 62
9
  6
CONTINUOUS
 10
191.9086153385
 20
123.6273694203
  0
SEQEND
  0
ARC
  8
0
 62
7
  6
CONTINUOUS
 10
45.3873377627
 20
117.4197285377
 40
0.5
 50
90.0
 51
180.0
  0
ARC
  8
0
 62
7
  6
CONTINUOUS
 10
78.5873377627
 20
118.5197285377
 40
0.5
 50
270.0
 51
360.0
  0
ARC
  8
0
 62
7
  6
CONTINUOUS
 10
29.705478318
 20
114.1562784462
 40
0.5
 50
98.4999999995
 51
179.9999968915
  0
ARC
  8
0
 62
7
  6
CONTINUOUS
 10
94.2691971838
 20
123.8053908815
 40
0.5
 50
359.9999967899
 51
98.5000000001
  0
ARC
  8
0
 62
7
  6
CONTINUOUS
 10
94.2691972893
 20
121.7831786415
 40
0.5
 50
278.4999999995
 51
359.9999972435
  0
ARC
  8
0
 62
7
  6
CONTINUOUS
 10
29.7054783514
 20
112.1340661954
 40
0.5
 50
179.9999967477
 51
278.5000000001
  0
ARC
  8
0
 62
7
  6
CONTINUOUS
 10
51.4723377627
 20
117.4197285377
 40
0.5
 50
87.6580416996
 51
90.0
  0
ARC
  8
0
 62
7
  6
CONTINUOUS
 10
72.5023377627
 20
118.5197285377
 40
0.5
 50
267.6580416997
 51
270.0
  0
ARC
  8
0
 62
7
  6
CONTINUOUS
 10
51.3873388039
 20
114.5655570489
 40
0.3000003905
 50
98.5002010725
 51
180.0000297203
  0
ARC
  8
0
 62
7
  6
CONTINUOUS
 10
48.2873377627
 20
114.1022587891
 40
0.3
 50
0.0
 51
98.5
  0
ARC
  8
0
 62
7
  6
CONTINUOUS
 10
72.5873367214
 20
121.3739000266
 40
0.3000003905
 50
278.5002010725
 51
0.0000297203
  0
ARC
  8
0
 62
7
  6
CONTINUOUS
 10
75.6873377627
 20
121.8371982863
 40
0.3
 50
180.0
 51
278.5
  0
ARC
  8
0
 62
7
  6
CONTINUOUS
 10
49.2873377627
 20
157.0309311279
 40
4.4
 50
101.559333746
 51
322.2814627975
  0
CIRCLE
  8
0
 62
7
  6
CONTINUOUS
 10
49.2873377627
 20
157.0309311279
 40
2.6
  0
ARC
  8
0
 62
7
  6
CONTINUOUS
 10
46.9468270733
 20
161.8973476445
 40
1.0
 50
295.6853011765
 51
15.0
  0
ARC
  8
0
 62
7
  6
CONTINUOUS
 10
48.2873377627
 20
161.6233161292
 40
0.3
 50
282.2844938563
 51
359.9998619354
  0
ARC
  8
0
 62
7
  6
CONTINUOUS
 10
52.3723377627
 20
154.6449774402
 40
0.5
 50
322.2814627975
 51
360.0
  0
ARC
  8
0
 62
7
  6
CONTINUOUS
 10
52.8723377627
 20
160.9309311279
 40
0.9
 50
180.0
 51
221.8
  0
ARC
  8
CURVE
 62
4
  6
CONTINUOUS
 10
52.8723377627
 20
160.9309311279
 40
0.9
 50
90.0
 51
177.1220338983
  0
ARC
  8
0
 62
7
  6
CONTINUOUS
 10
52.5723377627
 20
161.8309311279
 40
0.6
 50
90.0
 51
180.0
  0
ARC
  8
0
 62
7
  6
CONTINUOUS
 10
51.4723377627
 20
160.9309311279
 40
0.5
 50
0.0
 51
90.0
  0
ARC
  8
0
 62
7
  6
CONTINUOUS
 10
52.3723377627
 20
159.3897278918
 40
0.5
 50
0.0
 51
41.8
  0
ARC
  8
0
 62
7
  6
CONTINUOUS
 10
51.3873377627
 20
161.7309311279
 40
0.3
 50
180.0
 51
270.0
  0
ARC
  8
0
 62
7
  6
CONTINUOUS
 10
34.2054775837
 20
232.6309311279
 40
5.0
 50
90.0
 51
195.0
  0
ARC
  8
0
 62
7
  6
CONTINUOUS
 10
74.6873377627
 20
157.0309311279
 40
4.4
 50
217.7185372025
 51
66.7974323711
  0
CIRCLE
  8
0
 62
7
  6
CONTINUOUS
 10
74.6873377627
 20
157.0309311279
 40
2.6
  0
ARC
  8
0
 62
7
  6
CONTINUOUS
 10
77.0278484521
 20
161.8973476445
 40
1.0
 50
165.0
 51
244.3146988235
  0
ARC
  8
0
 62
7
  6
CONTINUOUS
 10
71.1023377627
 20
160.9309311279
 40
0.9
 50
318.2
 51
360.0
  0
ARC
  8
CURVE
 62
4
  6
CONTINUOUS
 10
71.1023377627
 20
160.9309311279
 40
0.9
 50
318.2
 51
90.0
  0
ARC
  8
0
 62
7
  6
CONTINUOUS
 10
71.4023377627
 20
161.8309311279
 40
0.6
 50
0.0
 51
90.0
  0
ARC
  8
0
 62
7
  6
CONTINUOUS
 10
71.6023377627
 20
159.3897278918
 40
0.5
 50
138.2
 51
180.0
  0
ARC
  8
0
 62
7
  6
CONTINUOUS
 10
71.6023377627
 20
154.6449774402
 40
0.5
 50
180.0
 51
217.7185372025
  0
ARC
  8
0
 62
7
  6
CONTINUOUS
 10
89.7691979417
 20
232.6309311279
 40
5.0
 50
345.0
 51
90.0
  0
ARC
  8
0
 62
7
  6
CONTINUOUS
 10
107.9086153385
 20
117.4197285377
 40
0.5
 50
90.0
 51
180.0
  0
ARC
  8
0
 62
7
  6
CONTINUOUS
 10
107.9086162679
 20
114.4113446761
 40
0.5
 50
180.0000111424
 51
255.0000000016
  0
ARC
  8
0
 62
7
  6
CONTINUOUS
 10
115.9047839685
 20
112.2687779981
 40
0.5
 50
255.0001074394
 51
319.0069549303
  0
ARC
  8
0
 62
7
  6
CONTINUOUS
 10
107.9086153385
 20
118.5197285377
 40
0.5
 50
180.0
 51
270.0
  0
ARC
  8
0
 62
7
  6
CONTINUOUS
 10
107.9086162505
 20
121.5281123947
 40
0.5
 50
104.9999999988
 51
179.9999890673
  0
ARC
  8
0
 62
7
  6
CONTINUOUS
 10
115.7086153385
 20
123.6181158513
 40
0.5
 50
0.0
 51
105.000222493
  0
ARC
  8
0
 62
7
  6
CONTINUOUS
 10
115.9047839685
 20
123.6706790773
 40
0.5
 50
40.9930450807
 51
104.9998925606
  0
ARC
  8
0
 62
9
  6
CONTINUOUS
 10
124.6681970207
 20
103.3588250744
 40
12.5
 50
120.741443526
 51
131.4048787668
  0
ARC
  8
0
 62
7
  6
CONTINUOUS
 10
124.6681970207
 20
103.3588250744
 40
12.0
 50
113.977547707
 51
134.2478844451
  0
ARC
  8
0
 62
7
  6
CONTINUOUS
 10
116.5086153385
 20
111.7440074324
 40
0.2999991172
 50
134.2192355487
 51
139.0069551786
  0
ARC
  8
0
 62
9
  6
CONTINUOUS
 10
124.6681970207
 20
132.5806320011
 40
12.5
 50
229.2494870859
 51
243.7060636164
  0
ARC
  8
0
 62
7
  6
CONTINUOUS
 10
124.6681970207
 20
132.5806320011
 40
12.0
 50
225.7812124407
 51
251.373554126
  0
ARC
  8
0
 62
7
  6
CONTINUOUS
 10
116.5086153385
 20
124.195449643
 40
0.2999991172
 50
220.9925602577
 51
225.7807644513
  0
ENDSEC
  0
EOF
