  0
SECTION
  2
HEADER
  9
$EXTMAX
 10
210.0
 20
297.0
 30
0.0
  9
$EXTMIN
 10
0.0
 20
0.0
 30
0.0
  9
$LIMMIN
 10
0.0
 20
0.0
  9
$LIMMAX
 10
210.0
 20
297.0
  9
$VIEWCTR
 10
105.0
 20
148.5
  9
$VIEWSIZE
 40
297.0
  9
$CLAYER
  8
0
  9
$LTSCALE
 40
19.36
  9
$CELTYPE
  6
BYLAYER
  9
$DIMSCALE
 40
1.0
  9
$DIMASZ
 40
3.5
  9
$DIMEXO
 40
2.2
  9
$DIMDLI
 40
13.376
  9
$DIMEXE
 40
6.336
  9
$DIMCEN
 40
3.168
  9
$DIMLFAC
 40
1.0
  9
$DIMBLK
  1
_FILLED
  9
$DIMTXT
 40
3.5
  9
$PDMODE
 70
3
  9
$PDSIZE
 40
0.3125
  9
$TILEMODE
 70
1
  0
ENDSEC
  0
SECTION
  2
TABLES
  0
TABLE
  2
LTYPE
 70
6
  0
LTYPE
  2
BYBLOCK
 70
0
  3

 72
65
 73
0
 40
0.0
  0
LTYPE
  2
BYLAYER
 70
0
  3

 72
65
 73
0
 40
0.0
  0
LTYPE
  2
CONTINUOUS
 70
64
  3
Solid line
 72
65
 73
0
 40
0.0
  0
LTYPE
  2
CENTER
 70
64
  3
____ _ ____ _ ____ _ ____ _ ____ _ ____ _ ____
 72
65
 73
4
 40
0.6
 49
0.375
 49
-0.075
 49
0.075
 49
-0.075
  0
LTYPE
  2
HIDDEN
 70
64
  3
- - - - - - - - - - - - - - - - - - - -
 72
65
 73
2
 40
0.2
 49
0.1
 49
-0.1
  0
LTYPE
  2
PHANTOM
 70
64
  3
_____ _ _ _____ _ _ _____ _ _ _____
 72
65
 73
6
 40
0.8
 49
0.45
 49
-0.05
 49
0.1
 49
-0.05
 49
0.1
 49
-0.05
  0
LTYPE
  2
DOT
 70
64
  3
. . . . . . . . . . . . . . . . . . . .
 72
65
 73
2
 40
0.2
 49
0.1
 49
-0.1
  0
LTYPE
  2
DASHED
 70
64
  3
- - - - - - - - - - - - - - - - - - - -
 72
65
 73
2
 40
0.2
 49
0.1
 49
-0.1
  0
ENDTAB
  0
TABLE
  2
LAYER
 70
36
  0
LAYER
  2
0
 70
0
 62
7
  6
CONTINUOUS
  0
LAYER
  2
DEFAULT_1
 70
0
 62
7
  6
CENTER
  0
LAYER
  2
DEFAULT_2
 70
0
 62
8
  6
HIDDEN
  0
LAYER
  2
DEFAULT_3
 70
0
 62
7
  6
PHANTOM
  0
LAYER
  2
1_AXIS
 70
0
 62
7
  6
CONTINUOUS
  0
LAYER
  2
1_DATUMPLANE
 70
0
 62
7
  6
CONTINUOUS
  0
LAYER
  2
4_QUILT
 70
0
 62
7
  6
CONTINUOUS
  0
LAYER
  2
CURVE
 70
0
 62
7
  6
CONTINUOUS
  0
LAYER
  2
SURFACE
 70
0
 62
7
  6
CONTINUOUS
  0
LAYER
  2
XSEC_DATUMS
 70
0
 62
7
  6
CONTINUOUS
  0
ENDTAB
  0
TABLE
  2
STYLE
 70
1
  0
STYLE
  2
STANDARD
 70
0
 40
0.0
 41
0.8
 50
0.0
 71
0
 42
0.2
  3
txt
  4

  0
STYLE
  2
TEXTSTYLE_1
 70
0
 40
0.0
 41
0.8
 50
0.0
 71
0
 42
0.2
  3
gdt
  4

  0
STYLE
  2
TEXTSTYLE_2
 70
0
 40
0.0
 41
0.6
 50
0.0
 71
0
 42
0.2
  3
txt
  4

  0
STYLE
  2
TEXTSTYLE_3
 70
0
 40
0.0
 41
1.0
 50
0.0
 71
0
 42
0.2
  3
ftb_____.ttf
  4

  0
STYLE
  2
TEXTSTYLE_4
 70
0
 40
0.0
 41
1.0
 50
0.0
 71
0
 42
0.2
  3
fti_____.ttf
  4

  0
STYLE
  2
TEXTSTYLE_5
 70
0
 40
0.0
 41
1.0
 50
0.0
 71
0
 42
0.2
  3
frutiger light.ttf
  4

  0
STYLE
  2
TEXTSTYLE_6
 70
0
 40
0.0
 41
0.7
 50
0.0
 71
0
 42
0.2
  3
txt
  4

  0
STYLE
  2
TEXTSTYLE_7
 70
0
 40
0.0
 41
0.5
 50
0.0
 71
0
 42
0.2
  3
txt
  4

  0
ENDTAB
  0
ENDSEC
  0
SECTION
  2
BLOCKS
  0
BLOCK
  8
0
 62
2
  6
CONTINUOUS
  2
SYMBOL_8_BL1
 70
64
 10
173.5956734183
 20
35.5937998301
  0
TEXT
  8
0
 62
7
  6
CONTINUOUS
 10
164.6539584268
 20
30.6865562072
  7
TEXTSTYLE_4
 40
1.0655737705
  1
The brand for plastic modular belts and chains
 41
1.0
 72
0
  0
LINE
  8
0
 62
7
  6
CONTINUOUS
 10
149.5737418074
 20
36.1675703219
 11
149.5737418074
 21
34.0364227809
  0
LINE
  8
0
 62
7
  6
CONTINUOUS
 10
149.8628043005
 20
31.0454914852
 11
149.8628043005
 21
31.1422825445
  0
LINE
  8
0
 62
7
  6
CONTINUOUS
 10
149.5737418074
 20
31.1100188581
 11
149.6315543091
 21
30.9164367395
  0
LINE
  8
0
 62
7
  6
CONTINUOUS
 10
150.9671844304
 20
33.9544555678
 11
150.9671844304
 21
36.1675703219
  0
LINE
  8
0
 62
7
  6
CONTINUOUS
 10
151.8862417523
 20
32.1101932727
 11
151.8862417523
 21
30.5937998301
  0
LINE
  8
0
 62
7
  6
CONTINUOUS
 10
152.1753043074
 20
30.5937998301
 11
152.1753043074
 21
31.3358647082
  0
LINE
  8
0
 62
7
  6
CONTINUOUS
 10
152.1753043074
 20
31.4649194539
 11
152.1753043074
 21
32.1101932727
  0
LINE
  8
0
 62
7
  6
CONTINUOUS
 10
149.6315543091
 20
31.3036010218
 11
149.5737418074
 21
31.1100188581
  0
LINE
  8
0
 62
7
  6
CONTINUOUS
 10
149.9784292936
 20
30.8841730531
 11
149.8628043005
 21
31.0454914852
  0
LINE
  8
0
 62
7
  6
CONTINUOUS
 10
151.0768668626
 20
31.400392081
 11
151.1346793074
 21
31.3036010218
  0
LINE
  8
0
 62
7
  6
CONTINUOUS
 10
151.4237418626
 20
31.3036010218
 11
151.3659292523
 21
31.4326557675
  0
LINE
  8
0
 62
7
  6
CONTINUOUS
 10
152.852430332
 20
36.1675703219
 11
152.852430332
 21
34.3642916334
  0
LINE
  8
0
 62
7
  6
CONTINUOUS
 10
152.852430332
 20
33.0528162235
 11
152.852430332
 21
32.3970785186
  0
LINE
  8
0
 62
7
  6
CONTINUOUS
 10
153.2159293074
 20
31.2390736489
 11
153.2159293074
 21
30.5937998301
  0
LINE
  8
0
 62
7
  6
CONTINUOUS
 10
153.5049916972
 20
30.5937998301
 11
153.5049916972
 21
31.2390736489
  0
LINE
  8
0
 62
7
  6
CONTINUOUS
 10
149.8628043005
 20
31.1422825445
 11
149.9206168074
 21
31.2713373354
  0
LINE
  8
0
 62
7
  6
CONTINUOUS
 10
149.6315543091
 20
30.9164367395
 11
149.7471793074
 21
30.7873819712
  0
LINE
  8
0
 62
7
  6
CONTINUOUS
 10
153.1581166972
 20
31.3681283946
 11
153.2159293074
 21
31.2390736489
  0
LINE
  8
0
 62
7
  6
CONTINUOUS
 10
153.9674919177
 20
30.8841730531
 11
154.0253041972
 21
30.7551182848
  0
LINE
  8
0
 62
7
  6
CONTINUOUS
 10
153.5049916972
 20
31.2390736489
 11
153.4471794177
 21
31.400392081
  0
LINE
  8
0
 62
7
  6
CONTINUOUS
 10
153.9674919177
 20
31.4326557675
 11
153.9674919177
 21
31.3681283946
  0
LINE
  8
0
 62
7
  6
CONTINUOUS
 10
153.9674919177
 20
30.9809641124
 11
153.9674919177
 21
30.8841730531
  0
LINE
  8
0
 62
7
  6
CONTINUOUS
 10
154.245872955
 20
32.3970785186
 11
154.245872955
 21
36.1675703219
  0
LINE
  8
0
 62
7
  6
CONTINUOUS
 10
154.2565543074
 20
30.8519093441
 11
154.2565543074
 21
30.9164367395
  0
LINE
  8
0
 62
7
  6
CONTINUOUS
 10
154.5737418074
 20
36.1675703219
 11
154.5737418074
 21
32.3970785186
  0
LINE
  8
0
 62
7
  6
CONTINUOUS
 10
151.3659292523
 20
30.7873819712
 11
151.4237418626
 21
30.9164367395
  0
LINE
  8
0
 62
7
  6
CONTINUOUS
 10
155.759679528
 20
30.6905909007
 11
155.7018665869
 21
30.8519093441
  0
LINE
  8
0
 62
7
  6
CONTINUOUS
 10
155.412804528
 20
31.3681283946
 11
155.412804528
 21
31.2713373354
  0
LINE
  8
0
 62
7
  6
CONTINUOUS
 10
155.412804528
 20
31.1422825445
 11
155.412804528
 21
30.9487004259
  0
LINE
  8
0
 62
7
  6
CONTINUOUS
 10
155.7018665869
 20
30.8519093441
 11
155.7018665869
 21
31.3681283946
  0
LINE
  8
0
 62
7
  6
CONTINUOUS
 10
155.9671844304
 20
32.3970785186
 11
155.9671844304
 21
34.2003572071
  0
LINE
  8
0
 62
7
  6
CONTINUOUS
 10
155.9671844304
 20
35.511832617
 11
155.9671844304
 21
36.1675703219
  0
LINE
  8
0
 62
7
  6
CONTINUOUS
 10
156.279992028
 20
32.1101932727
 11
156.279992028
 21
31.9488748406
  0
LINE
  8
0
 62
7
  6
CONTINUOUS
 10
156.279992028
 20
31.626237886
 11
156.279992028
 21
30.5937998301
  0
LINE
  8
0
 62
7
  6
CONTINUOUS
 10
156.5690540869
 20
30.5937998301
 11
156.5690540869
 21
31.626237886
  0
LINE
  8
0
 62
7
  6
CONTINUOUS
 10
156.5690540869
 20
31.9488748406
 11
156.5690540869
 21
32.1101932727
  0
LINE
  8
0
 62
7
  6
CONTINUOUS
 10
151.1346793074
 20
30.9164367395
 11
151.0768668626
 21
30.8196456577
  0
LINE
  8
0
 62
7
  6
CONTINUOUS
 10
153.4471794177
 20
31.400392081
 11
153.3893668074
 21
31.4649194539
  0
LINE
  8
0
 62
7
  6
CONTINUOUS
 10
154.3143669177
 20
30.7873819712
 11
154.2565543074
 21
30.8519093441
  0
LINE
  8
0
 62
7
  6
CONTINUOUS
 10
155.4706168074
 20
30.6583272086
 11
155.5284290869
 21
30.5937998301
  0
LINE
  8
0
 62
7
  6
CONTINUOUS
 10
155.412804528
 20
30.7551182848
 11
155.4706168074
 21
30.6583272086
  0
LINE
  8
0
 62
7
  6
CONTINUOUS
 10
155.8174918074
 20
30.5937998301
 11
155.759679528
 21
30.6905909007
  0
LINE
  8
0
 62
7
  6
CONTINUOUS
 10
155.7018665869
 20
31.3681283946
 11
155.6440543074
 21
31.4649194539
  0
LINE
  8
0
 62
7
  6
CONTINUOUS
 10
157.0315543074
 20
31.626237886
 11
157.0315543074
 21
30.5937998301
  0
LINE
  8
0
 62
7
  6
CONTINUOUS
 10
157.320617028
 20
30.5937998301
 11
157.320617028
 21
31.3358647082
  0
LINE
  8
0
 62
7
  6
CONTINUOUS
 10
157.320617028
 20
31.4649194539
 11
157.320617028
 21
31.626237886
  0
LINE
  8
0
 62
7
  6
CONTINUOUS
 10
157.852430332
 20
34.6101932727
 11
157.852430332
 21
32.3970785186
  0
LINE
  8
0
 62
7
  6
CONTINUOUS
 10
149.7471793074
 20
31.4326557675
 11
149.6315543091
 21
31.3036010218
  0
LINE
  8
0
 62
7
  6
CONTINUOUS
 10
149.9206168074
 20
31.2713373354
 11
149.9784292936
 21
31.3358647082
  0
LINE
  8
0
 62
7
  6
CONTINUOUS
 10
149.7471793074
 20
30.7873819712
 11
149.8628043005
 21
30.7228545871
  0
LINE
  8
0
 62
7
  6
CONTINUOUS
 10
150.1518667936
 20
30.7873819712
 11
149.9784292936
 21
30.8841730531
  0
LINE
  8
0
 62
7
  6
CONTINUOUS
 10
155.3549915869
 20
31.4326557675
 11
155.412804528
 21
31.3681283946
  0
LINE
  8
0
 62
7
  6
CONTINUOUS
 10
158.3034290869
 20
31.3681283946
 11
158.361242028
 21
31.2068099625
  0
LINE
  8
0
 62
7
  6
CONTINUOUS
 10
158.6503040869
 20
31.2068099625
 11
158.5924918074
 21
31.3681283946
  0
LINE
  8
0
 62
7
  6
CONTINUOUS
 10
158.361242028
 20
31.2068099625
 11
158.361242028
 21
30.5937998301
  0
LINE
  8
0
 62
7
  6
CONTINUOUS
 10
158.6503040869
 20
30.5937998301
 11
158.6503040869
 21
31.2068099625
  0
LINE
  8
0
 62
7
  6
CONTINUOUS
 10
159.1128043074
 20
31.4326557675
 11
159.1128043074
 21
31.3681283946
  0
LINE
  8
0
 62
7
  6
CONTINUOUS
 10
159.245872955
 20
32.3970785186
 11
159.245872955
 21
34.5282260596
  0
LINE
  8
0
 62
7
  6
CONTINUOUS
 10
159.5737418074
 20
36.1675703219
 11
159.5737418074
 21
32.3970785186
  0
LINE
  8
0
 62
7
  6
CONTINUOUS
 10
154.2565543074
 20
30.9164367395
 11
154.3143669177
 21
31.0132277988
  0
LINE
  8
0
 62
7
  6
CONTINUOUS
 10
149.8628043005
 20
30.7228545871
 11
150.0362418212
 21
30.6583272086
  0
LINE
  8
0
 62
7
  6
CONTINUOUS
 10
151.3659292523
 20
31.4326557675
 11
151.1924917523
 21
31.5294468267
  0
LINE
  8
0
 62
7
  6
CONTINUOUS
 10
154.0253041972
 20
30.7551182848
 11
154.1987416972
 21
30.6583272086
  0
LINE
  8
0
 62
7
  6
CONTINUOUS
 10
153.0424918074
 20
31.4326557675
 11
153.1581166972
 21
31.3681283946
  0
LINE
  8
0
 62
7
  6
CONTINUOUS
 10
153.3893668074
 20
31.4649194539
 11
153.2737419177
 21
31.5294468267
  0
LINE
  8
0
 62
7
  6
CONTINUOUS
 10
159.1128043074
 20
30.8519093441
 11
159.228429528
 21
30.7228545871
  0
LINE
  8
0
 62
7
  6
CONTINUOUS
 10
159.4596793074
 20
30.7873819712
 11
159.401867028
 21
30.8519093441
  0
LINE
  8
0
 62
7
  6
CONTINUOUS
 10
159.1128043074
 20
31.3681283946
 11
159.228429528
 21
31.2390736489
  0
LINE
  8
0
 62
7
  6
CONTINUOUS
 10
158.5924918074
 20
31.3681283946
 11
158.534679528
 21
31.4649194539
  0
LINE
  8
0
 62
7
  6
CONTINUOUS
 10
160.9628038663
 20
30.7873819712
 11
160.9628038663
 21
30.8519093441
  0
LINE
  8
0
 62
7
  6
CONTINUOUS
 10
160.9671844304
 20
32.3970785186
 11
160.9671844304
 21
36.1675703219
  0
LINE
  8
0
 62
7
  6
CONTINUOUS
 10
154.0253041972
 20
31.4971831403
 11
153.9674919177
 21
31.4326557675
  0
LINE
  8
0
 62
7
  6
CONTINUOUS
 10
150.9034292799
 20
31.4649194539
 11
151.0768668626
 21
31.400392081
  0
LINE
  8
0
 62
7
  6
CONTINUOUS
 10
155.6440543074
 20
31.4649194539
 11
155.5284290869
 21
31.5294468267
  0
LINE
  8
0
 62
7
  6
CONTINUOUS
 10
159.4596793074
 20
31.3036010218
 11
159.401867028
 21
31.3681283946
  0
LINE
  8
0
 62
7
  6
CONTINUOUS
 10
160.615929528
 20
30.9164367395
 11
160.6737418074
 21
30.8519093441
  0
LINE
  8
0
 62
7
  6
CONTINUOUS
 10
160.9628038663
 20
30.8519093441
 11
160.8471793074
 21
30.9809641124
  0
LINE
  8
0
 62
7
  6
CONTINUOUS
 10
160.615929528
 20
31.4326557675
 11
160.6737418074
 21
31.3681283946
  0
LINE
  8
0
 62
7
  6
CONTINUOUS
 10
160.9628038663
 20
31.3681283946
 11
160.8471793074
 21
31.4971831403
  0
LINE
  8
0
 62
7
  6
CONTINUOUS
 10
154.2565543074
 20
31.3681283946
 11
154.3143669177
 21
31.4326557675
  0
LINE
  8
0
 62
7
  6
CONTINUOUS
 10
154.0831168074
 20
31.1100188581
 11
153.9674919177
 21
30.9809641124
  0
LINE
  8
0
 62
7
  6
CONTINUOUS
 10
155.412804528
 20
30.9487004259
 11
155.3549915869
 21
30.8841730531
  0
LINE
  8
0
 62
7
  6
CONTINUOUS
 10
155.3549915869
 20
30.6905909007
 11
155.412804528
 21
30.7551182848
  0
LINE
  8
0
 62
7
  6
CONTINUOUS
 10
154.1987416972
 20
30.6583272086
 11
154.3143669177
 21
30.6260635193
  0
LINE
  8
0
 62
7
  6
CONTINUOUS
 10
151.1924917523
 20
31.5294468267
 11
150.9612418074
 21
31.5939741996
  0
LINE
  8
0
 62
7
  6
CONTINUOUS
 10
154.5456166972
 20
30.7228545871
 11
154.3143669177
 21
30.7873819712
  0
LINE
  8
0
 62
7
  6
CONTINUOUS
 10
153.2737419177
 20
31.5294468267
 11
153.1003044177
 21
31.5939741996
  0
LINE
  8
0
 62
7
  6
CONTINUOUS
 10
155.5284290869
 20
31.5294468267
 11
155.3549915869
 21
31.5939741996
  0
LINE
  8
0
 62
7
  6
CONTINUOUS
 10
158.187804528
 20
31.4326557675
 11
158.3034290869
 21
31.3681283946
  0
LINE
  8
0
 62
7
  6
CONTINUOUS
 10
158.534679528
 20
31.4649194539
 11
158.4190543074
 21
31.5294468267
  0
LINE
  8
0
 62
7
  6
CONTINUOUS
 10
150.0362418212
 20
30.6583272086
 11
150.2096793212
 21
30.6260635193
  0
LINE
  8
0
 62
7
  6
CONTINUOUS
 10
150.498741835
 20
30.7228545871
 11
150.1518667936
 21
30.7873819712
  0
LINE
  8
0
 62
7
  6
CONTINUOUS
 10
152.9268669177
 20
31.4649194539
 11
153.0424918074
 21
31.4326557675
  0
LINE
  8
0
 62
7
  6
CONTINUOUS
 10
155.239367028
 20
31.4649194539
 11
155.3549915869
 21
31.4326557675
  0
LINE
  8
0
 62
7
  6
CONTINUOUS
 10
159.575304528
 20
30.7551182848
 11
159.4596793074
 21
30.7873819712
  0
LINE
  8
0
 62
7
  6
CONTINUOUS
 10
158.0721793074
 20
31.4649194539
 11
158.187804528
 21
31.4326557675
  0
LINE
  8
0
 62
7
  6
CONTINUOUS
 10
159.228429528
 20
30.7228545871
 11
159.401867028
 21
30.6583272086
  0
LINE
  8
0
 62
7
  6
CONTINUOUS
 10
158.4190543074
 20
31.5294468267
 11
158.2456168074
 21
31.5939741996
  0
LINE
  8
0
 62
7
  6
CONTINUOUS
 10
159.6331168074
 20
31.2390736489
 11
159.4596793074
 21
31.3036010218
  0
LINE
  8
0
 62
7
  6
CONTINUOUS
 10
160.442492028
 20
30.9809641124
 11
160.615929528
 21
30.9164367395
  0
LINE
  8
0
 62
7
  6
CONTINUOUS
 10
160.8471793074
 20
31.4971831403
 11
160.6737418074
 21
31.5617105132
  0
LINE
  8
0
 62
7
  6
CONTINUOUS
 10
159.228429528
 20
31.2390736489
 11
159.4596793074
 21
31.1422825445
  0
LINE
  8
0
 62
7
  6
CONTINUOUS
 10
160.8471793074
 20
30.9809641124
 11
160.615929528
 21
31.0777551716
  0
LINE
  8
0
 62
7
  6
CONTINUOUS
 10
159.401867028
 20
31.3681283946
 11
159.4596793074
 21
31.4326557675
  0
LINE
  8
0
 62
7
  6
CONTINUOUS
 10
149.8628043005
 20
31.4971831403
 11
149.7471793074
 21
31.4326557675
  0
LINE
  8
0
 62
7
  6
CONTINUOUS
 10
149.9784292936
 20
31.3358647082
 11
150.1518667936
 21
31.4326557675
  0
LINE
  8
0
 62
7
  6
CONTINUOUS
 10
152.2909293626
 20
31.5294468267
 11
152.1753043074
 21
31.4649194539
  0
LINE
  8
0
 62
7
  6
CONTINUOUS
 10
152.1753043074
 20
31.3358647082
 11
152.2909293626
 21
31.400392081
  0
LINE
  8
0
 62
7
  6
CONTINUOUS
 10
151.1924917523
 20
30.6905909007
 11
151.3659292523
 21
30.7873819712
  0
LINE
  8
0
 62
7
  6
CONTINUOUS
 10
150.2096793212
 20
30.6260635193
 11
150.5565542799
 21
30.5937998301
  0
LINE
  8
0
 62
7
  6
CONTINUOUS
 10
154.3143669177
 20
30.6260635193
 11
154.5456166972
 21
30.5937998301
  0
LINE
  8
0
 62
7
  6
CONTINUOUS
 10
152.6956168074
 20
31.4971831403
 11
152.9268669177
 21
31.4649194539
  0
LINE
  8
0
 62
7
  6
CONTINUOUS
 10
155.0081169177
 20
31.4971831403
 11
155.239367028
 21
31.4649194539
  0
LINE
  8
0
 62
7
  6
CONTINUOUS
 10
159.4596793074
 20
31.1422825445
 11
160.442492028
 21
30.9809641124
  0
LINE
  8
0
 62
7
  6
CONTINUOUS
 10
160.615929528
 20
31.0777551716
 11
159.6331168074
 21
31.2390736489
  0
LINE
  8
0
 62
7
  6
CONTINUOUS
 10
153.1003044177
 20
31.5939741996
 11
152.9268669177
 21
31.626237886
  0
LINE
  8
0
 62
7
  6
CONTINUOUS
 10
159.401867028
 20
30.6583272086
 11
159.575304528
 21
30.6260635193
  0
LINE
  8
0
 62
7
  6
CONTINUOUS
 10
158.2456168074
 20
31.5939741996
 11
158.0721793074
 21
31.626237886
  0
LINE
  8
0
 62
7
  6
CONTINUOUS
 10
160.5003043074
 20
31.4649194539
 11
160.615929528
 21
31.4326557675
  0
LINE
  8
0
 62
7
  6
CONTINUOUS
 10
160.6737418074
 20
30.8519093441
 11
160.615929528
 21
30.7873819712
  0
LINE
  8
0
 62
7
  6
CONTINUOUS
 10
159.228429528
 20
31.5294468267
 11
159.1128043074
 21
31.4326557675
  0
LINE
  8
0
 62
7
  6
CONTINUOUS
 10
154.1409294177
 20
31.5617105132
 11
154.0253041972
 21
31.4971831403
  0
LINE
  8
0
 62
7
  6
CONTINUOUS
 10
154.1987416972
 20
31.1745462761
 11
154.0831168074
 21
31.1100188581
  0
LINE
  8
0
 62
7
  6
CONTINUOUS
 10
154.3143669177
 20
31.0132277988
 11
154.4299918074
 21
31.0777551716
  0
LINE
  8
0
 62
7
  6
CONTINUOUS
 10
151.8862417523
 20
30.5937998301
 11
152.1753043074
 21
30.5937998301
  0
LINE
  8
0
 62
7
  6
CONTINUOUS
 10
153.2159293074
 20
30.5937998301
 11
153.5049916972
 21
30.5937998301
  0
LINE
  8
0
 62
7
  6
CONTINUOUS
 10
154.5456166972
 20
30.5937998301
 11
154.8924916972
 21
30.5937998301
  0
LINE
  8
0
 62
7
  6
CONTINUOUS
 10
155.5284290869
 20
30.5937998301
 11
155.8174918074
 21
30.5937998301
  0
LINE
  8
0
 62
7
  6
CONTINUOUS
 10
156.279992028
 20
30.5937998301
 11
156.5690540869
 21
30.5937998301
  0
LINE
  8
0
 62
7
  6
CONTINUOUS
 10
157.0315543074
 20
30.5937998301
 11
157.320617028
 21
30.5937998301
  0
LINE
  8
0
 62
7
  6
CONTINUOUS
 10
158.361242028
 20
30.5937998301
 11
158.6503040869
 21
30.5937998301
  0
LINE
  8
0
 62
7
  6
CONTINUOUS
 10
159.922179528
 20
30.5937998301
 11
160.269054528
 21
30.5937998301
  0
LINE
  8
0
 62
7
  6
CONTINUOUS
 10
160.269054528
 20
30.7228545871
 11
159.922179528
 21
30.7228545871
  0
LINE
  8
0
 62
7
  6
CONTINUOUS
 10
154.8924916972
 20
30.7228545871
 11
154.5456166972
 21
30.7228545871
  0
LINE
  8
0
 62
7
  6
CONTINUOUS
 10
159.401867028
 20
30.8519093441
 11
159.1128043074
 21
30.8519093441
  0
LINE
  8
0
 62
7
  6
CONTINUOUS
 10
151.4237418626
 20
30.9164367395
 11
151.1346793074
 21
30.9164367395
  0
LINE
  8
0
 62
7
  6
CONTINUOUS
 10
150.498741835
 20
31.4971831403
 11
150.9034292799
 21
31.4649194539
  0
LINE
  8
0
 62
7
  6
CONTINUOUS
 10
150.9612418074
 20
31.5939741996
 11
150.5565542799
 21
31.626237886
  0
LINE
  8
0
 62
7
  6
CONTINUOUS
 10
159.575304528
 20
30.6260635193
 11
159.922179528
 21
30.5937998301
  0
LINE
  8
0
 62
7
  6
CONTINUOUS
 10
159.922179528
 20
30.7228545871
 11
159.575304528
 21
30.7551182848
  0
LINE
  8
0
 62
7
  6
CONTINUOUS
 10
155.3549915869
 20
31.5939741996
 11
155.0081169177
 21
31.626237886
  0
LINE
  8
0
 62
7
  6
CONTINUOUS
 10
160.1534293074
 20
31.4971831403
 11
160.5003043074
 21
31.4649194539
  0
LINE
  8
0
 62
7
  6
CONTINUOUS
 10
160.5003043074
 20
31.5939741996
 11
160.1534293074
 21
31.626237886
  0
LINE
  8
0
 62
7
  6
CONTINUOUS
 10
157.840929528
 20
31.4971831403
 11
158.0721793074
 21
31.4649194539
  0
LINE
  8
0
 62
7
  6
CONTINUOUS
 10
160.6737418074
 20
31.5617105132
 11
160.5003043074
 21
31.5939741996
  0
LINE
  8
0
 62
7
  6
CONTINUOUS
 10
160.8471793074
 20
30.6905909007
 11
160.9628038663
 21
30.7873819712
  0
LINE
  8
0
 62
7
  6
CONTINUOUS
 10
155.3549915869
 20
30.8841730531
 11
155.1815540869
 21
30.7873819712
  0
LINE
  8
0
 62
7
  6
CONTINUOUS
 10
157.4362415869
 20
31.5294468267
 11
157.320617028
 21
31.4649194539
  0
LINE
  8
0
 62
7
  6
CONTINUOUS
 10
157.320617028
 20
31.3358647082
 11
157.4362415869
 21
31.400392081
  0
LINE
  8
0
 62
7
  6
CONTINUOUS
 10
150.0362418212
 20
31.5617105132
 11
149.8628043005
 21
31.4971831403
  0
LINE
  8
0
 62
7
  6
CONTINUOUS
 10
152.4643666972
 20
31.5939741996
 11
152.2909293626
 21
31.5294468267
  0
LINE
  8
0
 62
7
  6
CONTINUOUS
 10
152.2909293626
 20
31.400392081
 11
152.4643666972
 21
31.4649194539
  0
LINE
  8
0
 62
7
  6
CONTINUOUS
 10
151.0768668626
 20
30.8196456577
 11
150.9034292799
 21
30.7551182848
  0
LINE
  8
0
 62
7
  6
CONTINUOUS
 10
160.5003043074
 20
30.7551182848
 11
160.269054528
 21
30.7228545871
  0
LINE
  8
0
 62
7
  6
CONTINUOUS
 10
154.8924916972
 20
30.5937998301
 11
155.1815540869
 21
30.6260635193
  0
LINE
  8
0
 62
7
  6
CONTINUOUS
 10
160.269054528
 20
30.5937998301
 11
160.615929528
 21
30.6260635193
  0
LINE
  8
0
 62
7
  6
CONTINUOUS
 10
150.5565542799
 20
30.5937998301
 11
150.9612418074
 21
30.6260635193
  0
LINE
  8
0
 62
7
  6
CONTINUOUS
 10
150.9034292799
 20
30.7551182848
 11
150.498741835
 21
30.7228545871
  0
LINE
  8
0
 62
7
  6
CONTINUOUS
 10
154.7768668074
 20
31.1422825445
 11
155.412804528
 21
31.1422825445
  0
LINE
  8
0
 62
7
  6
CONTINUOUS
 10
155.412804528
 20
31.2713373354
 11
154.7768668074
 21
31.2713373354
  0
LINE
  8
0
 62
7
  6
CONTINUOUS
 10
151.1346793074
 20
31.3036010218
 11
151.4237418626
 21
31.3036010218
  0
LINE
  8
0
 62
7
  6
CONTINUOUS
 10
153.9674919177
 20
31.3681283946
 11
154.2565543074
 21
31.3681283946
  0
LINE
  8
0
 62
7
  6
CONTINUOUS
 10
160.6737418074
 20
31.3681283946
 11
160.9628038663
 21
31.3681283946
  0
LINE
  8
0
 62
7
  6
CONTINUOUS
 10
154.6612419177
 20
31.4971831403
 11
155.0081169177
 21
31.4971831403
  0
LINE
  8
0
 62
7
  6
CONTINUOUS
 10
159.8065543074
 20
31.4971831403
 11
160.1534293074
 21
31.4971831403
  0
LINE
  8
0
 62
7
  6
CONTINUOUS
 10
160.1534293074
 20
31.626237886
 11
159.8065543074
 21
31.626237886
  0
LINE
  8
0
 62
7
  6
CONTINUOUS
 10
158.0721793074
 20
31.626237886
 11
157.840929528
 21
31.626237886
  0
LINE
  8
0
 62
7
  6
CONTINUOUS
 10
157.320617028
 20
31.626237886
 11
157.0315543074
 21
31.626237886
  0
LINE
  8
0
 62
7
  6
CONTINUOUS
 10
156.5690540869
 20
31.626237886
 11
156.279992028
 21
31.626237886
  0
LINE
  8
0
 62
7
  6
CONTINUOUS
 10
155.0081169177
 20
31.626237886
 11
154.6612419177
 21
31.626237886
  0
LINE
  8
0
 62
7
  6
CONTINUOUS
 10
152.9268669177
 20
31.626237886
 11
152.6956168074
 21
31.626237886
  0
LINE
  8
0
 62
7
  6
CONTINUOUS
 10
156.279992028
 20
31.9488748406
 11
156.5690540869
 21
31.9488748406
  0
LINE
  8
0
 62
7
  6
CONTINUOUS
 10
156.5690540869
 20
32.1101932727
 11
156.279992028
 21
32.1101932727
  0
LINE
  8
0
 62
7
  6
CONTINUOUS
 10
152.1753043074
 20
32.1101932727
 11
151.8862417523
 21
32.1101932727
  0
LINE
  8
0
 62
7
  6
CONTINUOUS
 10
151.2130860697
 20
32.3970785186
 11
151.6256574183
 21
32.3970785186
  0
LINE
  8
0
 62
7
  6
CONTINUOUS
 10
152.852430332
 20
32.3970785186
 11
154.245872955
 21
32.3970785186
  0
LINE
  8
0
 62
7
  6
CONTINUOUS
 10
154.5737418074
 20
32.3970785186
 11
155.9671844304
 21
32.3970785186
  0
LINE
  8
0
 62
7
  6
CONTINUOUS
 10
157.852430332
 20
32.3970785186
 11
159.245872955
 21
32.3970785186
  0
LINE
  8
0
 62
7
  6
CONTINUOUS
 10
159.5737418074
 20
32.3970785186
 11
160.9671844304
 21
32.3970785186
  0
LINE
  8
0
 62
7
  6
CONTINUOUS
 10
157.6096790869
 20
31.5939741996
 11
157.4362415869
 21
31.5294468267
  0
LINE
  8
0
 62
7
  6
CONTINUOUS
 10
155.1815540869
 20
30.6260635193
 11
155.3549915869
 21
30.6905909007
  0
LINE
  8
0
 62
7
  6
CONTINUOUS
 10
160.615929528
 20
30.6260635193
 11
160.8471793074
 21
30.6905909007
  0
LINE
  8
0
 62
7
  6
CONTINUOUS
 10
160.615929528
 20
30.7873819712
 11
160.5003043074
 21
30.7551182848
  0
LINE
  8
0
 62
7
  6
CONTINUOUS
 10
159.575304528
 20
31.4649194539
 11
159.8065543074
 21
31.4971831403
  0
LINE
  8
0
 62
7
  6
CONTINUOUS
 10
157.6096790869
 20
31.4649194539
 11
157.840929528
 21
31.4971831403
  0
LINE
  8
0
 62
7
  6
CONTINUOUS
 10
154.5456166972
 20
31.1100188581
 11
154.7768668074
 21
31.1422825445
  0
LINE
  8
0
 62
7
  6
CONTINUOUS
 10
157.840929528
 20
31.626237886
 11
157.6096790869
 21
31.5939741996
  0
LINE
  8
0
 62
7
  6
CONTINUOUS
 10
154.4299918074
 20
31.4649194539
 11
154.6612419177
 21
31.4971831403
  0
LINE
  8
0
 62
7
  6
CONTINUOUS
 10
159.8065543074
 20
31.626237886
 11
159.4596793074
 21
31.5939741996
  0
LINE
  8
0
 62
7
  6
CONTINUOUS
 10
154.7768668074
 20
31.2713373354
 11
154.4299918074
 21
31.2390736489
  0
LINE
  8
0
 62
7
  6
CONTINUOUS
 10
150.5565542799
 20
31.626237886
 11
150.2096793212
 21
31.5939741996
  0
LINE
  8
0
 62
7
  6
CONTINUOUS
 10
154.6612419177
 20
31.626237886
 11
154.2565543074
 21
31.5939741996
  0
LINE
  8
0
 62
7
  6
CONTINUOUS
 10
152.0327582009
 20
33.5446195022
 11
151.3770204959
 21
33.5446195022
  0
LINE
  8
0
 62
7
  6
CONTINUOUS
 10
157.4362415869
 20
31.400392081
 11
157.6096790869
 21
31.4649194539
  0
LINE
  8
0
 62
7
  6
CONTINUOUS
 10
159.4596793074
 20
31.4326557675
 11
159.575304528
 21
31.4649194539
  0
LINE
  8
0
 62
7
  6
CONTINUOUS
 10
159.4596793074
 20
31.5939741996
 11
159.228429528
 21
31.5294468267
  0
LINE
  8
0
 62
7
  6
CONTINUOUS
 10
155.1815540869
 20
30.7873819712
 11
154.8924916972
 21
30.7228545871
  0
LINE
  8
0
 62
7
  6
CONTINUOUS
 10
152.4643666972
 20
31.4649194539
 11
152.6956168074
 21
31.4971831403
  0
LINE
  8
0
 62
7
  6
CONTINUOUS
 10
152.6956168074
 20
31.626237886
 11
152.4643666972
 21
31.5939741996
  0
LINE
  8
0
 62
7
  6
CONTINUOUS
 10
150.2674918074
 20
31.4649194539
 11
150.498741835
 21
31.4971831403
  0
LINE
  8
0
 62
7
  6
CONTINUOUS
 10
156.7868565615
 20
35.0200293383
 11
157.4425942664
 21
35.0200293383
  0
LINE
  8
0
 62
7
  6
CONTINUOUS
 10
154.4299918074
 20
31.0777551716
 11
154.5456166972
 21
31.1100188581
  0
LINE
  8
0
 62
7
  6
CONTINUOUS
 10
154.4299918074
 20
31.2390736489
 11
154.1987416972
 21
31.1745462761
  0
LINE
  8
0
 62
7
  6
CONTINUOUS
 10
154.3143669177
 20
31.4326557675
 11
154.4299918074
 21
31.4649194539
  0
LINE
  8
0
 62
7
  6
CONTINUOUS
 10
150.9612418074
 20
30.6260635193
 11
151.1924917523
 21
30.6905909007
  0
LINE
  8
0
 62
7
  6
CONTINUOUS
 10
154.2565543074
 20
31.5939741996
 11
154.1409294177
 21
31.5617105132
  0
LINE
  8
0
 62
7
  6
CONTINUOUS
 10
150.2096793212
 20
31.5939741996
 11
150.0362418212
 21
31.5617105132
  0
LINE
  8
0
 62
7
  6
CONTINUOUS
 10
160.9671844304
 20
36.1675703219
 11
159.5737418074
 21
36.1675703219
  0
LINE
  8
0
 62
7
  6
CONTINUOUS
 10
157.6065286927
 20
36.1675703219
 11
157.1939573441
 21
36.1675703219
  0
LINE
  8
0
 62
7
  6
CONTINUOUS
 10
155.9671844304
 20
36.1675703219
 11
154.5737418074
 21
36.1675703219
  0
LINE
  8
0
 62
7
  6
CONTINUOUS
 10
154.245872955
 20
36.1675703219
 11
152.852430332
 21
36.1675703219
  0
LINE
  8
0
 62
7
  6
CONTINUOUS
 10
150.9671844304
 20
36.1675703219
 11
149.5737418074
 21
36.1675703219
  0
LINE
  8
0
 62
7
  6
CONTINUOUS
 10
150.1518667936
 20
31.4326557675
 11
150.2674918074
 21
31.4649194539
  0
CIRCLE
  8
0
 62
7
  6
CONTINUOUS
 10
160.2704631189
 20
38.5036358957
 40
2.0901639344
  0
ARC
  8
0
 62
7
  6
CONTINUOUS
 10
151.2130860697
 20
34.0364227809
 40
1.6393442623
 50
180.0
 51
270.0
  0
ARC
  8
0
 62
7
  6
CONTINUOUS
 10
157.6065286927
 20
34.5282260596
 40
1.6393442623
 50
0.0
 51
90.0
  0
ARC
  8
0
 62
7
  6
CONTINUOUS
 10
151.6256574183
 20
33.8724883547
 40
1.4754098361
 50
270.0
 51
326.2510114041
  0
ARC
  8
0
 62
7
  6
CONTINUOUS
 10
157.1939573441
 20
34.6921604858
 40
1.4754098361
 50
90.0
 51
146.2510114041
  0
ARC
  8
0
 62
7
  6
CONTINUOUS
 10
152.0327582009
 20
34.3642916334
 40
0.8196721311
 50
270.0
 51
360.0
  0
ARC
  8
0
 62
7
  6
CONTINUOUS
 10
156.7868565615
 20
34.2003572071
 40
0.8196721311
 50
90.0
 51
180.0
  0
ARC
  8
0
 62
7
  6
CONTINUOUS
 10
151.3770204959
 20
33.9544555678
 40
0.4098360656
 50
180.0
 51
270.0
  0
ARC
  8
0
 62
7
  6
CONTINUOUS
 10
157.4425942664
 20
34.6101932727
 40
0.4098360656
 50
0.0
 51
90.0
  0
SOLID
  8
0
 62
7
  6
CONTINUOUS
 10
156.279992028
 20
31.9488752009
 11
156.279992028
 21
32.1101936845
 12
156.5690540869
 22
31.9488752009
 13
156.5690540869
 23
32.1101936845
  0
SOLID
  8
0
 62
7
  6
CONTINUOUS
 10
150.5565542799
 20
31.6262382337
 11
150.9612418074
 21
31.5939740028
 12
150.2096793212
 22
31.5939740028
 13
150.2096793212
 23
31.5939740028
  0
SOLID
  8
0
 62
7
  6
CONTINUOUS
 10
150.0362418212
 20
31.5617111435
 11
150.2096793212
 21
31.5939740028
 12
150.9612418074
 22
31.5939740028
 13
150.9612418074
 23
31.5939740028
  0
SOLID
  8
0
 62
7
  6
CONTINUOUS
 10
150.9612418074
 20
31.5939740028
 11
151.1924917523
 21
31.5294468402
 12
150.0362418212
 22
31.5617111435
 13
150.0362418212
 23
31.5617111435
  0
SOLID
  8
0
 62
7
  6
CONTINUOUS
 10
149.8628043005
 20
31.49718259
 11
150.0362418212
 21
31.5617111435
 12
151.1924917523
 22
31.5294468402
 13
151.1924917523
 23
31.5294468402
  0
SOLID
  8
0
 62
7
  6
CONTINUOUS
 10
149.8628043005
 20
31.49718259
 11
151.1924917523
 21
31.5294468402
 12
150.498741835
 22
31.49718259
 13
150.498741835
 23
31.49718259
  0
SOLID
  8
0
 62
7
  6
CONTINUOUS
 10
150.498741835
 20
31.49718259
 11
151.1924917523
 21
31.5294468402
 12
150.9034292799
 22
31.4649197501
 13
150.9034292799
 23
31.4649197501
  0
SOLID
  8
0
 62
7
  6
CONTINUOUS
 10
151.1924917523
 20
31.5294468402
 11
151.3659292523
 21
31.4326554468
 12
150.9034292799
 22
31.4649197501
 13
150.9034292799
 23
31.4649197501
  0
SOLID
  8
0
 62
7
  6
CONTINUOUS
 10
151.0768668626
 20
31.4003926599
 11
150.9034292799
 21
31.4649197501
 12
151.3659292523
 22
31.4326554468
 13
151.3659292523
 23
31.4326554468
  0
SOLID
  8
0
 62
7
  6
CONTINUOUS
 10
151.0768668626
 20
31.4003926599
 11
151.3659292523
 21
31.4326554468
 12
151.1346793074
 22
31.3036013776
 13
151.1346793074
 23
31.3036013776
  0
SOLID
  8
0
 62
7
  6
CONTINUOUS
 10
151.3659292523
 20
31.4326554468
 11
151.4237418626
 21
31.3036013776
 12
151.1346793074
 22
31.3036013776
 13
151.1346793074
 23
31.3036013776
  0
SOLID
  8
0
 62
7
  6
CONTINUOUS
 10
152.4643666972
 20
31.5939739754
 11
152.6956168074
 21
31.6262382787
 12
152.9268669177
 22
31.6262382787
 13
152.9268669177
 23
31.6262382787
  0
SOLID
  8
0
 62
7
  6
CONTINUOUS
 10
152.9268669177
 20
31.6262382787
 11
153.1003044177
 21
31.5939739754
 12
152.4643666972
 22
31.5939739754
 13
152.4643666972
 23
31.5939739754
  0
SOLID
  8
0
 62
7
  6
CONTINUOUS
 10
152.2909293626
 20
31.5294468852
 11
152.4643666972
 21
31.5939739754
 12
153.1003044177
 22
31.5939739754
 13
153.1003044177
 23
31.5939739754
  0
SOLID
  8
0
 62
7
  6
CONTINUOUS
 10
153.1003044177
 20
31.5939739754
 11
153.2737419177
 21
31.5294468852
 12
152.2909293626
 22
31.5294468852
 13
152.2909293626
 23
31.5294468852
  0
SOLID
  8
0
 62
7
  6
CONTINUOUS
 10
153.2737419177
 20
31.5294468852
 11
152.6956168074
 21
31.4971825369
 12
152.2909293626
 22
31.5294468852
 13
152.2909293626
 23
31.5294468852
  0
SOLID
  8
0
 62
7
  6
CONTINUOUS
 10
152.1753043074
 20
31.4649197951
 11
152.2909293626
 21
31.5294468852
 12
152.6956168074
 22
31.4971825369
 13
152.6956168074
 23
31.4971825369
  0
SOLID
  8
0
 62
7
  6
CONTINUOUS
 10
152.6956168074
 20
31.4971825369
 11
152.4643666972
 21
31.4649197951
 12
152.1753043074
 22
31.4649197951
 13
152.1753043074
 23
31.4649197951
  0
SOLID
  8
0
 62
7
  6
CONTINUOUS
 10
152.6956168074
 20
31.4971825369
 11
153.2737419177
 21
31.5294468852
 12
152.9268669177
 22
31.4649197951
 13
152.9268669177
 23
31.4649197951
  0
SOLID
  8
0
 62
7
  6
CONTINUOUS
 10
153.2737419177
 20
31.5294468852
 11
153.3893668074
 21
31.4649197951
 12
152.9268669177
 22
31.4649197951
 13
152.9268669177
 23
31.4649197951
  0
SOLID
  8
0
 62
7
  6
CONTINUOUS
 10
153.0424918074
 20
31.4326554468
 11
152.9268669177
 21
31.4649197951
 12
153.3893668074
 22
31.4649197951
 13
153.3893668074
 23
31.4649197951
  0
SOLID
  8
0
 62
7
  6
CONTINUOUS
 10
153.3893668074
 20
31.4649197951
 11
153.4471794177
 21
31.4003927049
 12
153.0424918074
 22
31.4326554468
 13
153.0424918074
 23
31.4326554468
  0
SOLID
  8
0
 62
7
  6
CONTINUOUS
 10
153.1581166972
 20
31.3681283566
 11
153.0424918074
 21
31.4326554468
 12
153.4471794177
 22
31.4003927049
 13
153.4471794177
 23
31.4003927049
  0
SOLID
  8
0
 62
7
  6
CONTINUOUS
 10
153.1581166972
 20
31.3681283566
 11
153.4471794177
 21
31.4003927049
 12
153.2159293074
 22
31.2390742213
 13
153.2159293074
 23
31.2390742213
  0
SOLID
  8
0
 62
7
  6
CONTINUOUS
 10
153.4471794177
 20
31.4003927049
 11
153.5049916972
 21
31.2390742213
 12
153.2159293074
 22
31.2390742213
 13
153.2159293074
 23
31.2390742213
  0
SOLID
  8
0
 62
7
  6
CONTINUOUS
 10
152.4643666972
 20
31.4649197951
 11
152.2909293626
 21
31.4003927049
 12
152.1753043074
 22
31.4649197951
 13
152.1753043074
 23
31.4649197951
  0
SOLID
  8
0
 62
7
  6
CONTINUOUS
 10
152.2909293626
 20
31.4003927049
 11
152.1753043074
 21
31.3358640533
 12
152.1753043074
 22
31.4649197951
 13
152.1753043074
 23
31.4649197951
  0
SOLID
  8
0
 62
7
  6
CONTINUOUS
 10
152.1753043074
 20
31.3358640533
 11
151.8862417523
 21
30.5938002869
 12
152.1753043074
 22
31.4649197951
 13
152.1753043074
 23
31.4649197951
  0
SOLID
  8
0
 62
7
  6
CONTINUOUS
 10
152.1753043074
 20
31.4649197951
 11
151.8862417523
 21
30.5938002869
 12
152.1753043074
 22
32.1101937295
 13
152.1753043074
 23
32.1101937295
  0
SOLID
  8
0
 62
7
  6
CONTINUOUS
 10
151.8862417523
 20
30.5938002869
 11
151.8862417523
 21
32.1101937295
 12
152.1753043074
 22
32.1101937295
 13
152.1753043074
 23
32.1101937295
  0
SOLID
  8
0
 62
7
  6
CONTINUOUS
 10
152.1753043074
 20
31.3358640533
 11
152.1753043074
 21
30.5938002869
 12
151.8862417523
 22
30.5938002869
 13
151.8862417523
 23
30.5938002869
  0
SOLID
  8
0
 62
7
  6
CONTINUOUS
 10
153.2159293074
 20
30.5938002869
 11
153.2159293074
 21
31.2390742213
 12
153.5049916972
 22
31.2390742213
 13
153.5049916972
 23
31.2390742213
  0
SOLID
  8
0
 62
7
  6
CONTINUOUS
 10
153.5049916972
 20
31.2390742213
 11
153.5049916972
 21
30.5938002869
 12
153.2159293074
 22
30.5938002869
 13
153.2159293074
 23
30.5938002869
  0
SOLID
  8
0
 62
7
  6
CONTINUOUS
 10
154.2565543074
 20
31.5939738288
 11
154.6612419177
 21
31.6262385959
 12
155.0081169177
 22
31.6262385959
 13
155.0081169177
 23
31.6262385959
  0
SOLID
  8
0
 62
7
  6
CONTINUOUS
 10
155.0081169177
 20
31.6262385959
 11
155.3549915869
 21
31.5939738288
 12
154.2565543074
 22
31.5939738288
 13
154.2565543074
 23
31.5939738288
  0
SOLID
  8
0
 62
7
  6
CONTINUOUS
 10
154.1409294177
 20
31.5617111435
 11
154.2565543074
 21
31.5939738288
 12
155.3549915869
 22
31.5939738288
 13
155.3549915869
 23
31.5939738288
  0
SOLID
  8
0
 62
7
  6
CONTINUOUS
 10
155.3549915869
 20
31.5939738288
 11
155.5284290869
 21
31.5294468402
 12
154.1409294177
 22
31.5617111435
 13
154.1409294177
 23
31.5617111435
  0
SOLID
  8
0
 62
7
  6
CONTINUOUS
 10
154.0253041972
 20
31.4971826249
 11
154.1409294177
 21
31.5617111435
 12
155.5284290869
 22
31.5294468402
 13
155.5284290869
 23
31.5294468402
  0
SOLID
  8
0
 62
7
  6
CONTINUOUS
 10
154.0253041972
 20
31.4971826249
 11
155.5284290869
 21
31.5294468402
 12
154.6612419177
 22
31.4971826249
 13
154.6612419177
 23
31.4971826249
  0
SOLID
  8
0
 62
7
  6
CONTINUOUS
 10
154.6612419177
 20
31.4971826249
 11
155.5284290869
 21
31.5294468402
 12
155.0081169177
 22
31.4971826249
 13
155.0081169177
 23
31.4971826249
  0
SOLID
  8
0
 62
7
  6
CONTINUOUS
 10
155.0081169177
 20
31.4971826249
 11
155.5284290869
 21
31.5294468402
 12
155.239367028
 22
31.4649194065
 13
155.239367028
 23
31.4649194065
  0
SOLID
  8
0
 62
7
  6
CONTINUOUS
 10
155.5284290869
 20
31.5294468402
 11
155.6440543074
 21
31.4649194065
 12
155.239367028
 22
31.4649194065
 13
155.239367028
 23
31.4649194065
  0
SOLID
  8
0
 62
7
  6
CONTINUOUS
 10
153.9674919177
 20
31.4326554138
 11
154.0253041972
 21
31.4971826249
 12
154.6612419177
 22
31.4971826249
 13
154.6612419177
 23
31.4971826249
  0
SOLID
  8
0
 62
7
  6
CONTINUOUS
 10
155.3549915869
 20
31.4326554138
 11
155.239367028
 21
31.4649194065
 12
155.6440543074
 22
31.4649194065
 13
155.6440543074
 23
31.4649194065
  0
SOLID
  8
0
 62
7
  6
CONTINUOUS
 10
155.3549915869
 20
31.4326554138
 11
155.6440543074
 21
31.4649194065
 12
155.412804528
 22
31.3681282026
 13
155.412804528
 23
31.3681282026
  0
SOLID
  8
0
 62
7
  6
CONTINUOUS
 10
155.6440543074
 20
31.4649194065
 11
155.7018665869
 21
31.3681282026
 12
155.412804528
 22
31.3681282026
 13
155.412804528
 23
31.3681282026
  0
SOLID
  8
0
 62
7
  6
CONTINUOUS
 10
155.412804528
 20
31.2713369632
 11
155.412804528
 21
31.3681282026
 12
155.7018665869
 22
31.3681282026
 13
155.7018665869
 23
31.3681282026
  0
SOLID
  8
0
 62
7
  6
CONTINUOUS
 10
155.412804528
 20
31.2713369632
 11
155.7018665869
 21
31.3681282026
 12
155.412804528
 22
31.1422827828
 13
155.412804528
 23
31.1422827828
  0
SOLID
  8
0
 62
7
  6
CONTINUOUS
 10
155.412804528
 20
31.1422827828
 11
155.7018665869
 21
31.3681282026
 12
155.412804528
 22
30.9487004259
 13
155.412804528
 23
30.9487004259
  0
SOLID
  8
0
 62
7
  6
CONTINUOUS
 10
155.7018665869
 20
31.3681282026
 11
155.7018665869
 21
30.8519086025
 12
155.412804528
 22
30.9487004259
 13
155.412804528
 23
30.9487004259
  0
SOLID
  8
0
 62
7
  6
CONTINUOUS
 10
157.6096790869
 20
31.5939736268
 11
157.840929528
 21
31.6262383465
 12
158.0721793074
 22
31.6262383465
 13
158.0721793074
 23
31.6262383465
  0
SOLID
  8
0
 62
7
  6
CONTINUOUS
 10
158.0721793074
 20
31.6262383465
 11
158.2456168074
 21
31.5939736268
 12
157.6096790869
 22
31.5939736268
 13
157.6096790869
 23
31.5939736268
  0
SOLID
  8
0
 62
7
  6
CONTINUOUS
 10
157.4362415869
 20
31.5294472848
 11
157.6096790869
 21
31.5939736268
 12
158.2456168074
 22
31.5939736268
 13
158.2456168074
 23
31.5939736268
  0
SOLID
  8
0
 62
7
  6
CONTINUOUS
 10
158.2456168074
 20
31.5939736268
 11
158.4190543074
 21
31.5294472848
 12
157.4362415869
 22
31.5294472848
 13
157.4362415869
 23
31.5294472848
  0
SOLID
  8
0
 62
7
  6
CONTINUOUS
 10
158.4190543074
 20
31.5294472848
 11
157.840929528
 21
31.4971825369
 12
157.4362415869
 22
31.5294472848
 13
157.4362415869
 23
31.5294472848
  0
SOLID
  8
0
 62
7
  6
CONTINUOUS
 10
157.320617028
 20
31.4649199103
 11
157.4362415869
 21
31.5294472848
 12
157.840929528
 22
31.4971825369
 13
157.840929528
 23
31.4971825369
  0
SOLID
  8
0
 62
7
  6
CONTINUOUS
 10
157.840929528
 20
31.4971825369
 11
157.6096790869
 21
31.4649199103
 12
157.320617028
 22
31.4649199103
 13
157.320617028
 23
31.4649199103
  0
SOLID
  8
0
 62
7
  6
CONTINUOUS
 10
157.840929528
 20
31.4971825369
 11
158.4190543074
 21
31.5294472848
 12
158.0721793074
 22
31.4649199103
 13
158.0721793074
 23
31.4649199103
  0
SOLID
  8
0
 62
7
  6
CONTINUOUS
 10
158.4190543074
 20
31.5294472848
 11
158.534679528
 21
31.4649199103
 12
158.0721793074
 22
31.4649199103
 13
158.0721793074
 23
31.4649199103
  0
SOLID
  8
0
 62
7
  6
CONTINUOUS
 10
158.187804528
 20
31.4326554468
 11
158.0721793074
 21
31.4649199103
 12
158.534679528
 22
31.4649199103
 13
158.534679528
 23
31.4649199103
  0
SOLID
  8
0
 62
7
  6
CONTINUOUS
 10
158.187804528
 20
31.4326554468
 11
158.534679528
 21
31.4649199103
 12
158.3034290869
 22
31.3681288486
 13
158.3034290869
 23
31.3681288486
  0
SOLID
  8
0
 62
7
  6
CONTINUOUS
 10
158.534679528
 20
31.4649199103
 11
158.5924918074
 21
31.3681288486
 12
158.3034290869
 22
31.3681288486
 13
158.3034290869
 23
31.3681288486
  0
SOLID
  8
0
 62
7
  6
CONTINUOUS
 10
158.361242028
 20
31.2068093799
 11
158.3034290869
 21
31.3681288486
 12
158.5924918074
 22
31.3681288486
 13
158.5924918074
 23
31.3681288486
  0
SOLID
  8
0
 62
7
  6
CONTINUOUS
 10
158.5924918074
 20
31.3681288486
 11
158.6503040869
 21
31.2068093799
 12
158.361242028
 22
31.2068093799
 13
158.361242028
 23
31.2068093799
  0
SOLID
  8
0
 62
7
  6
CONTINUOUS
 10
157.6096790869
 20
31.4649199103
 11
157.4362415869
 21
31.4003926599
 12
157.320617028
 22
31.4649199103
 13
157.320617028
 23
31.4649199103
  0
SOLID
  8
0
 62
7
  6
CONTINUOUS
 10
157.4362415869
 20
31.4003926599
 11
157.320617028
 21
31.3358640533
 12
157.320617028
 22
31.4649199103
 13
157.320617028
 23
31.4649199103
  0
SOLID
  8
0
 62
7
  6
CONTINUOUS
 10
157.320617028
 20
31.3358640533
 11
157.0315543074
 21
30.5938003547
 12
157.320617028
 22
31.4649199103
 13
157.320617028
 23
31.4649199103
  0
SOLID
  8
0
 62
7
  6
CONTINUOUS
 10
157.320617028
 20
31.4649199103
 11
157.0315543074
 21
30.5938003547
 12
157.320617028
 22
31.6262383465
 13
157.320617028
 23
31.6262383465
  0
SOLID
  8
0
 62
7
  6
CONTINUOUS
 10
157.0315543074
 20
30.5938003547
 11
157.0315543074
 21
31.6262383465
 12
157.320617028
 22
31.6262383465
 13
157.320617028
 23
31.6262383465
  0
SOLID
  8
0
 62
7
  6
CONTINUOUS
 10
157.320617028
 20
31.3358640533
 11
157.320617028
 21
30.5938003547
 12
157.0315543074
 22
30.5938003547
 13
157.0315543074
 23
30.5938003547
  0
SOLID
  8
0
 62
7
  6
CONTINUOUS
 10
158.361242028
 20
30.5938003547
 11
158.361242028
 21
31.2068093799
 12
158.6503040869
 22
31.2068093799
 13
158.6503040869
 23
31.2068093799
  0
SOLID
  8
0
 62
7
  6
CONTINUOUS
 10
158.6503040869
 20
31.2068093799
 11
158.6503040869
 21
30.5938003547
 12
158.361242028
 22
30.5938003547
 13
158.361242028
 23
30.5938003547
  0
SOLID
  8
0
 62
7
  6
CONTINUOUS
 10
159.4596793074
 20
31.5939739474
 11
159.8065543074
 21
31.6262381969
 12
160.1534293074
 22
31.6262381969
 13
160.1534293074
 23
31.6262381969
  0
SOLID
  8
0
 62
7
  6
CONTINUOUS
 10
160.1534293074
 20
31.6262381969
 11
160.5003043074
 21
31.5939739474
 12
159.4596793074
 22
31.5939739474
 13
159.4596793074
 23
31.5939739474
  0
SOLID
  8
0
 62
7
  6
CONTINUOUS
 10
159.228429528
 20
31.5294468402
 11
159.4596793074
 21
31.5939739474
 12
160.5003043074
 22
31.5939739474
 13
160.5003043074
 23
31.5939739474
  0
SOLID
  8
0
 62
7
  6
CONTINUOUS
 10
159.228429528
 20
31.5294468402
 11
160.5003043074
 21
31.5939739304
 12
160.6737418074
 22
31.5617111435
 13
160.6737418074
 23
31.5617111435
  0
SOLID
  8
0
 62
7
  6
CONTINUOUS
 10
159.228429528
 20
31.5294468402
 11
160.6737418074
 21
31.5617111435
 12
159.8065543074
 22
31.4971825592
 13
159.8065543074
 23
31.4971825592
  0
SOLID
  8
0
 62
7
  6
CONTINUOUS
 10
159.8065543074
 20
31.4971825592
 11
160.6737418074
 21
31.5617111435
 12
160.1534293074
 22
31.4971825592
 13
160.1534293074
 23
31.4971825592
  0
SOLID
  8
0
 62
7
  6
CONTINUOUS
 10
160.6737418074
 20
31.5617111435
 11
160.8471793074
 21
31.4971825592
 12
160.1534293074
 22
31.4971825592
 13
160.1534293074
 23
31.4971825592
  0
SOLID
  8
0
 62
7
  6
CONTINUOUS
 10
160.5003043074
 20
31.4649197501
 11
160.1534293074
 21
31.4971825592
 12
160.8471793074
 22
31.4971825592
 13
160.8471793074
 23
31.4971825592
  0
SOLID
  8
0
 62
7
  6
CONTINUOUS
 10
159.1128043074
 20
31.4326555427
 11
159.228429528
 21
31.5294468402
 12
159.8065543074
 22
31.4971825592
 13
159.8065543074
 23
31.4971825592
  0
SOLID
  8
0
 62
7
  6
CONTINUOUS
 10
160.5003043074
 20
31.4649197501
 11
160.8471793074
 21
31.4971825592
 12
160.615929528
 22
31.4326555427
 13
160.615929528
 23
31.4326555427
  0
SOLID
  8
0
 62
7
  6
CONTINUOUS
 10
160.615929528
 20
31.4326555427
 11
160.8471793074
 21
31.4971825592
 12
160.6737418074
 22
31.3681283005
 13
160.6737418074
 23
31.3681283005
  0
SOLID
  8
0
 62
7
  6
CONTINUOUS
 10
160.8471793074
 20
31.4971825592
 11
160.9628038663
 21
31.3681283005
 12
160.6737418074
 22
31.3681283005
 13
160.6737418074
 23
31.3681283005
  0
SOLID
  8
0
 62
7
  6
CONTINUOUS
 10
150.2674918074
 20
31.4649197501
 11
149.7471793074
 21
31.4326554237
 12
150.498741835
 22
31.4971824493
 13
150.498741835
 23
31.4971824493
  0
SOLID
  8
0
 62
7
  6
CONTINUOUS
 10
149.7471793074
 20
31.4326554237
 11
149.8628043005
 21
31.4971824493
 12
150.498741835
 22
31.4971824493
 13
150.498741835
 23
31.4971824493
  0
SOLID
  8
0
 62
7
  6
CONTINUOUS
 10
150.2674918074
 20
31.4649197501
 11
150.1518667936
 21
31.4326554237
 12
149.7471793074
 22
31.4326554237
 13
149.7471793074
 23
31.4326554237
  0
SOLID
  8
0
 62
7
  6
CONTINUOUS
 10
149.6315543091
 20
31.3036012664
 11
149.7471793074
 21
31.4326554237
 12
150.1518667936
 22
31.4326554237
 13
150.1518667936
 23
31.4326554237
  0
SOLID
  8
0
 62
7
  6
CONTINUOUS
 10
153.9674919177
 20
31.4326554237
 11
154.6612419177
 21
31.4971825369
 12
154.4299918074
 22
31.4649197501
 13
154.4299918074
 23
31.4649197501
  0
SOLID
  8
0
 62
7
  6
CONTINUOUS
 10
154.4299918074
 20
31.4649197501
 11
154.3143669177
 21
31.4326554237
 12
153.9674919177
 22
31.4326554237
 13
153.9674919177
 23
31.4326554237
  0
SOLID
  8
0
 62
7
  6
CONTINUOUS
 10
153.9674919177
 20
31.3681283335
 11
153.9674919177
 21
31.4326554237
 12
154.3143669177
 22
31.4326554237
 13
154.3143669177
 23
31.4326554237
  0
SOLID
  8
0
 62
7
  6
CONTINUOUS
 10
154.3143669177
 20
31.4326554237
 11
154.2565543074
 21
31.3681283335
 12
153.9674919177
 22
31.3681283335
 13
153.9674919177
 23
31.3681283335
  0
SOLID
  8
0
 62
7
  6
CONTINUOUS
 10
159.1128043074
 20
31.4326555528
 11
159.8065543074
 21
31.4971825369
 12
159.575304528
 22
31.4649197501
 13
159.575304528
 23
31.4649197501
  0
SOLID
  8
0
 62
7
  6
CONTINUOUS
 10
159.575304528
 20
31.4649197501
 11
159.4596793074
 21
31.4326555528
 12
159.1128043074
 22
31.4326555528
 13
159.1128043074
 23
31.4326555528
  0
SOLID
  8
0
 62
7
  6
CONTINUOUS
 10
159.1128043074
 20
31.3681284626
 11
159.1128043074
 21
31.4326555528
 12
159.4596793074
 22
31.4326555528
 13
159.4596793074
 23
31.4326555528
  0
SOLID
  8
0
 62
7
  6
CONTINUOUS
 10
159.4596793074
 20
31.4326555528
 11
159.401867028
 21
31.3681284626
 12
159.1128043074
 22
31.3681284626
 13
159.1128043074
 23
31.3681284626
  0
SOLID
  8
0
 62
7
  6
CONTINUOUS
 10
159.228429528
 20
31.2390741763
 11
159.1128043074
 21
31.3681284626
 12
159.401867028
 22
31.3681284626
 13
159.401867028
 23
31.3681284626
  0
SOLID
  8
0
 62
7
  6
CONTINUOUS
 10
149.6315543091
 20
31.3036012664
 11
150.1518667936
 21
31.4326554468
 12
149.9784292936
 22
31.3358640533
 13
149.9784292936
 23
31.3358640533
  0
SOLID
  8
0
 62
7
  6
CONTINUOUS
 10
149.9784292936
 20
31.3358640533
 11
149.9206168074
 21
31.2713369632
 12
149.6315543091
 22
31.3036012664
 13
149.6315543091
 23
31.3036012664
  0
SOLID
  8
0
 62
7
  6
CONTINUOUS
 10
149.5737418074
 20
31.1100184796
 11
149.6315543091
 21
31.3036012664
 12
149.9206168074
 22
31.2713369632
 13
149.9206168074
 23
31.2713369632
  0
SOLID
  8
0
 62
7
  6
CONTINUOUS
 10
154.4299918074
 20
31.2390741763
 11
154.7768668074
 21
31.271336924
 12
155.412804528
 22
31.271336924
 13
155.412804528
 23
31.271336924
  0
SOLID
  8
0
 62
7
  6
CONTINUOUS
 10
154.4299918074
 20
31.2390741763
 11
155.412804528
 21
31.271336924
 12
154.1987416972
 22
31.1745462761
 13
154.1987416972
 23
31.1745462761
  0
SOLID
  8
0
 62
7
  6
CONTINUOUS
 10
154.1987416972
 20
31.1745462761
 11
155.412804528
 21
31.271336924
 12
154.7768668074
 22
31.1422827436
 13
154.7768668074
 23
31.1422827436
  0
SOLID
  8
0
 62
7
  6
CONTINUOUS
 10
155.412804528
 20
31.271336924
 11
155.412804528
 21
31.1422827436
 12
154.7768668074
 22
31.1422827436
 13
154.7768668074
 23
31.1422827436
  0
SOLID
  8
0
 62
7
  6
CONTINUOUS
 10
159.228429528
 20
31.2390745501
 11
159.401867028
 21
31.3681283566
 12
159.4596793074
 22
31.3036012664
 13
159.4596793074
 23
31.3036012664
  0
SOLID
  8
0
 62
7
  6
CONTINUOUS
 10
159.4596793074
 20
31.3036012664
 11
159.6331168074
 21
31.2390745501
 12
159.228429528
 22
31.2390745501
 13
159.228429528
 23
31.2390745501
  0
SOLID
  8
0
 62
7
  6
CONTINUOUS
 10
159.4596793074
 20
31.1422827828
 11
159.228429528
 21
31.2390745501
 12
159.6331168074
 22
31.2390745501
 13
159.6331168074
 23
31.2390745501
  0
SOLID
  8
0
 62
7
  6
CONTINUOUS
 10
159.6331168074
 20
31.2390745501
 11
160.615929528
 21
31.0777556927
 12
159.4596793074
 22
31.1422827828
 13
159.4596793074
 23
31.1422827828
  0
SOLID
  8
0
 62
7
  6
CONTINUOUS
 10
160.442492028
 20
30.9809646623
 11
159.4596793074
 21
31.1422827828
 12
160.615929528
 22
31.0777556927
 13
160.615929528
 23
31.0777556927
  0
SOLID
  8
0
 62
7
  6
CONTINUOUS
 10
160.615929528
 20
31.0777556927
 11
160.8471793074
 21
30.9809646623
 12
160.442492028
 22
30.9809646623
 13
160.442492028
 23
30.9809646623
  0
SOLID
  8
0
 62
7
  6
CONTINUOUS
 10
160.615929528
 20
30.9164372091
 11
160.442492028
 21
30.9809646623
 12
160.8471793074
 22
30.9809646623
 13
160.8471793074
 23
30.9809646623
  0
SOLID
  8
0
 62
7
  6
CONTINUOUS
 10
160.615929528
 20
30.9164372091
 11
160.8471793074
 21
30.9809646623
 12
160.6737418074
 22
30.8519089441
 13
160.6737418074
 23
30.8519089441
  0
SOLID
  8
0
 62
7
  6
CONTINUOUS
 10
160.8471793074
 20
30.9809646623
 11
160.9628038663
 21
30.8519089441
 12
160.6737418074
 22
30.8519089441
 13
160.6737418074
 23
30.8519089441
  0
SOLID
  8
0
 62
7
  6
CONTINUOUS
 10
160.615929528
 20
30.7873818593
 11
160.6737418074
 21
30.8519089441
 12
160.9628038663
 22
30.8519089441
 13
160.9628038663
 23
30.8519089441
  0
SOLID
  8
0
 62
7
  6
CONTINUOUS
 10
160.9628038663
 20
30.8519089441
 11
160.9628038663
 21
30.7873818593
 12
160.615929528
 22
30.7873818593
 13
160.615929528
 23
30.7873818593
  0
SOLID
  8
0
 62
7
  6
CONTINUOUS
 10
160.5003043074
 20
30.7551187255
 11
160.615929528
 21
30.7873818593
 12
160.9628038663
 22
30.7873818593
 13
160.9628038663
 23
30.7873818593
  0
SOLID
  8
0
 62
7
  6
CONTINUOUS
 10
160.5003043074
 20
30.7551187255
 11
160.9628038663
 21
30.7873818593
 12
160.269054528
 22
30.7228547745
 13
160.269054528
 23
30.7228547745
  0
SOLID
  8
0
 62
7
  6
CONTINUOUS
 10
160.9628038663
 20
30.7873818593
 11
160.8471793074
 21
30.6905916353
 12
160.269054528
 22
30.7228547745
 13
160.269054528
 23
30.7228547745
  0
SOLID
  8
0
 62
7
  6
CONTINUOUS
 10
160.8471793074
 20
30.6905916353
 11
159.401867028
 21
30.658327332
 12
160.269054528
 22
30.7228547745
 13
160.269054528
 23
30.7228547745
  0
SOLID
  8
0
 62
7
  6
CONTINUOUS
 10
160.269054528
 20
30.7228547745
 11
159.401867028
 21
30.658327332
 12
159.922179528
 22
30.7228547745
 13
159.922179528
 23
30.7228547745
  0
SOLID
  8
0
 62
7
  6
CONTINUOUS
 10
159.401867028
 20
30.658327332
 11
159.228429528
 21
30.7228547745
 12
159.922179528
 22
30.7228547745
 13
159.922179528
 23
30.7228547745
  0
SOLID
  8
0
 62
7
  6
CONTINUOUS
 10
159.401867028
 20
30.658327332
 11
160.8471793074
 21
30.6905916353
 12
159.575304528
 22
30.6260629858
 13
159.575304528
 23
30.6260629858
  0
SOLID
  8
0
 62
7
  6
CONTINUOUS
 10
160.8471793074
 20
30.6905916353
 11
160.615929528
 21
30.6260629858
 12
159.575304528
 22
30.6260629858
 13
159.575304528
 23
30.6260629858
  0
SOLID
  8
0
 62
7
  6
CONTINUOUS
 10
159.922179528
 20
30.5938006049
 11
159.575304528
 21
30.6260629858
 12
160.615929528
 22
30.6260629858
 13
160.615929528
 23
30.6260629858
  0
SOLID
  8
0
 62
7
  6
CONTINUOUS
 10
160.615929528
 20
30.6260629858
 11
160.269054528
 21
30.5938006049
 12
159.922179528
 22
30.5938006049
 13
159.922179528
 23
30.5938006049
  0
SOLID
  8
0
 62
7
  6
CONTINUOUS
 10
149.5737418074
 20
31.1100184796
 11
149.9206168074
 21
31.2713369632
 12
149.8628043005
 22
31.1422827828
 13
149.8628043005
 23
31.1422827828
  0
SOLID
  8
0
 62
7
  6
CONTINUOUS
 10
149.8628043005
 20
31.1422827828
 11
149.8628043005
 21
31.0454914852
 12
149.5737418074
 22
31.1100184796
 13
149.5737418074
 23
31.1100184796
  0
SOLID
  8
0
 62
7
  6
CONTINUOUS
 10
149.6315543091
 20
30.9164372091
 11
149.5737418074
 21
31.1100184796
 12
149.8628043005
 22
31.0454914852
 13
149.8628043005
 23
31.0454914852
  0
SOLID
  8
0
 62
7
  6
CONTINUOUS
 10
149.8628043005
 20
31.0454914852
 11
149.9784292936
 21
30.8841729058
 12
149.6315543091
 22
30.9164372091
 13
149.6315543091
 23
30.9164372091
  0
SOLID
  8
0
 62
7
  6
CONTINUOUS
 10
149.7471793074
 20
30.7873813202
 11
149.6315543091
 21
30.9164372091
 12
149.9784292936
 22
30.8841729058
 13
149.9784292936
 23
30.8841729058
  0
SOLID
  8
0
 62
7
  6
CONTINUOUS
 10
149.9784292936
 20
30.8841729058
 11
150.1518667936
 21
30.7873813202
 12
149.7471793074
 22
30.7873813202
 13
149.7471793074
 23
30.7873813202
  0
SOLID
  8
0
 62
7
  6
CONTINUOUS
 10
149.8628043005
 20
30.7228547004
 11
149.7471793074
 21
30.7873813202
 12
150.1518667936
 22
30.7873813202
 13
150.1518667936
 23
30.7873813202
  0
SOLID
  8
0
 62
7
  6
CONTINUOUS
 10
150.1518667936
 20
30.7873813202
 11
150.498741835
 21
30.7228547004
 12
149.8628043005
 22
30.7228547004
 13
149.8628043005
 23
30.7228547004
  0
SOLID
  8
0
 62
7
  6
CONTINUOUS
 10
150.0362418212
 20
30.658327332
 11
149.8628043005
 21
30.7228547004
 12
150.498741835
 22
30.7228547004
 13
150.498741835
 23
30.7228547004
  0
SOLID
  8
0
 62
7
  6
CONTINUOUS
 10
154.0831168074
 20
31.1100184386
 11
154.1987416972
 21
31.1745462761
 12
154.7768668074
 22
31.1422827828
 13
154.7768668074
 23
31.1422827828
  0
SOLID
  8
0
 62
7
  6
CONTINUOUS
 10
154.7768668074
 20
31.1422827828
 11
154.5456166972
 21
31.1100184386
 12
154.0831168074
 22
31.1100184386
 13
154.0831168074
 23
31.1100184386
  0
SOLID
  8
0
 62
7
  6
CONTINUOUS
 10
153.9674919177
 20
30.9809642992
 11
154.0831168074
 21
31.1100184386
 12
154.5456166972
 22
31.1100184386
 13
154.5456166972
 23
31.1100184386
  0
SOLID
  8
0
 62
7
  6
CONTINUOUS
 10
154.3143669177
 20
31.0132277988
 11
153.9674919177
 21
30.9809642992
 12
154.4299918074
 22
31.0777556927
 13
154.4299918074
 23
31.0777556927
  0
SOLID
  8
0
 62
7
  6
CONTINUOUS
 10
153.9674919177
 20
30.9809642992
 11
154.5456166972
 21
31.1100184796
 12
154.4299918074
 22
31.0777556927
 13
154.4299918074
 23
31.0777556927
  0
SOLID
  8
0
 62
7
  6
CONTINUOUS
 10
154.3143669177
 20
31.0132277988
 11
154.2565543074
 21
30.9164372091
 12
153.9674919177
 22
30.9809642992
 13
153.9674919177
 23
30.9809642992
  0
SOLID
  8
0
 62
7
  6
CONTINUOUS
 10
153.9674919177
 20
30.8841729058
 11
153.9674919177
 21
30.9809642992
 12
154.2565543074
 22
30.9164372091
 13
154.2565543074
 23
30.9164372091
  0
SOLID
  8
0
 62
7
  6
CONTINUOUS
 10
154.2565543074
 20
30.9164372091
 11
154.2565543074
 21
30.8519086025
 12
153.9674919177
 22
30.8841729058
 13
153.9674919177
 23
30.8841729058
  0
SOLID
  8
0
 62
7
  6
CONTINUOUS
 10
154.0253041972
 20
30.7551187255
 11
153.9674919177
 21
30.8841729058
 12
154.2565543074
 22
30.8519086025
 13
154.2565543074
 23
30.8519086025
  0
SOLID
  8
0
 62
7
  6
CONTINUOUS
 10
155.412804528
 20
30.9487004259
 11
155.7018665869
 21
30.8519086025
 12
155.3549915869
 22
30.8841729058
 13
155.3549915869
 23
30.8841729058
  0
SOLID
  8
0
 62
7
  6
CONTINUOUS
 10
155.1815540869
 20
30.7873815123
 11
155.3549915869
 21
30.8841729058
 12
155.7018665869
 22
30.8519086025
 13
155.7018665869
 23
30.8519086025
  0
SOLID
  8
0
 62
7
  6
CONTINUOUS
 10
155.1815540869
 20
30.7873815123
 11
155.7018665869
 21
30.8519086025
 12
155.412804528
 22
30.7551187255
 13
155.412804528
 23
30.7551187255
  0
SOLID
  8
0
 62
7
  6
CONTINUOUS
 10
155.7018665869
 20
30.8519086025
 11
155.759679528
 21
30.6905916353
 12
155.412804528
 22
30.7551187255
 13
155.412804528
 23
30.7551187255
  0
SOLID
  8
0
 62
7
  6
CONTINUOUS
 10
155.4706168074
 20
30.658327332
 11
155.412804528
 21
30.7551187255
 12
155.759679528
 22
30.6905916353
 13
155.759679528
 23
30.6905916353
  0
SOLID
  8
0
 62
7
  6
CONTINUOUS
 10
155.4706168074
 20
30.658327332
 11
155.759679528
 21
30.6905916353
 12
155.5284290869
 22
30.5938002079
 13
155.5284290869
 23
30.5938002079
  0
SOLID
  8
0
 62
7
  6
CONTINUOUS
 10
155.759679528
 20
30.6905916353
 11
155.8174918074
 21
30.5938002079
 12
155.5284290869
 22
30.5938002079
 13
155.5284290869
 23
30.5938002079
  0
SOLID
  8
0
 62
7
  6
CONTINUOUS
 10
151.0768668626
 20
30.8196456577
 11
151.1346793074
 21
30.9164373395
 12
151.4237418626
 22
30.9164373395
 13
151.4237418626
 23
30.9164373395
  0
SOLID
  8
0
 62
7
  6
CONTINUOUS
 10
151.4237418626
 20
30.9164373395
 11
151.3659292523
 21
30.7873815123
 12
151.0768668626
 22
30.8196456577
 13
151.0768668626
 23
30.8196456577
  0
SOLID
  8
0
 62
7
  6
CONTINUOUS
 10
150.9034292799
 20
30.7551187255
 11
151.0768668626
 21
30.8196456577
 12
151.3659292523
 22
30.7873815123
 13
151.3659292523
 23
30.7873815123
  0
SOLID
  8
0
 62
7
  6
CONTINUOUS
 10
150.9034292799
 20
30.7551187255
 11
151.3659292523
 21
30.7873815123
 12
150.498741835
 22
30.7228544222
 13
150.498741835
 23
30.7228544222
  0
SOLID
  8
0
 62
7
  6
CONTINUOUS
 10
151.3659292523
 20
30.7873815123
 11
151.1924917523
 21
30.6905916353
 12
150.498741835
 22
30.7228544222
 13
150.498741835
 23
30.7228544222
  0
SOLID
  8
0
 62
7
  6
CONTINUOUS
 10
150.0362418212
 20
30.658327332
 11
150.498741835
 21
30.7228544222
 12
151.1924917523
 22
30.6905916353
 13
151.1924917523
 23
30.6905916353
  0
SOLID
  8
0
 62
7
  6
CONTINUOUS
 10
150.0362418212
 20
30.658327332
 11
151.1924917523
 21
30.6905916353
 12
150.2096793212
 22
30.6260631011
 13
150.2096793212
 23
30.6260631011
  0
SOLID
  8
0
 62
7
  6
CONTINUOUS
 10
151.1924917523
 20
30.6905916353
 11
150.9612418074
 21
30.6260631011
 12
150.2096793212
 22
30.6260631011
 13
150.2096793212
 23
30.6260631011
  0
SOLID
  8
0
 62
7
  6
CONTINUOUS
 10
150.5565542799
 20
30.5938002419
 11
150.2096793212
 21
30.6260631011
 12
150.9612418074
 22
30.6260631011
 13
150.9612418074
 23
30.6260631011
  0
SOLID
  8
0
 62
7
  6
CONTINUOUS
 10
154.0253041972
 20
30.7551187255
 11
154.2565543074
 21
30.8519086025
 12
154.3143669177
 22
30.7873815123
 13
154.3143669177
 23
30.7873815123
  0
SOLID
  8
0
 62
7
  6
CONTINUOUS
 10
154.3143669177
 20
30.7873815123
 11
154.5456166972
 21
30.7228544222
 12
154.0253041972
 22
30.7551187255
 13
154.0253041972
 23
30.7551187255
  0
SOLID
  8
0
 62
7
  6
CONTINUOUS
 10
154.1987416972
 20
30.658327332
 11
154.0253041972
 21
30.7551187255
 12
154.5456166972
 22
30.7228544222
 13
154.5456166972
 23
30.7228544222
  0
SOLID
  8
0
 62
7
  6
CONTINUOUS
 10
154.8924916972
 20
30.7228544637
 11
155.1815540869
 21
30.7873815123
 12
155.412804528
 22
30.7551187255
 13
155.412804528
 23
30.7551187255
  0
SOLID
  8
0
 62
7
  6
CONTINUOUS
 10
155.412804528
 20
30.7551187255
 11
155.3549915869
 21
30.6905916353
 12
154.8924916972
 22
30.7228544637
 13
154.8924916972
 23
30.7228544637
  0
SOLID
  8
0
 62
7
  6
CONTINUOUS
 10
155.3549915869
 20
30.6905916353
 11
154.1987416972
 21
30.658327332
 12
154.8924916972
 22
30.7228544637
 13
154.8924916972
 23
30.7228544637
  0
SOLID
  8
0
 62
7
  6
CONTINUOUS
 10
154.1987416972
 20
30.658327332
 11
154.5456166972
 21
30.7228544637
 12
154.8924916972
 22
30.7228544637
 13
154.8924916972
 23
30.7228544637
  0
SOLID
  8
0
 62
7
  6
CONTINUOUS
 10
154.1987416972
 20
30.658327332
 11
155.3549915869
 21
30.6905916353
 12
154.3143669177
 22
30.6260630541
 13
154.3143669177
 23
30.6260630541
  0
SOLID
  8
0
 62
7
  6
CONTINUOUS
 10
155.3549915869
 20
30.6905916353
 11
155.1815540869
 21
30.6260630541
 12
154.3143669177
 22
30.6260630541
 13
154.3143669177
 23
30.6260630541
  0
SOLID
  8
0
 62
7
  6
CONTINUOUS
 10
154.5456166972
 20
30.5938002188
 11
154.3143669177
 21
30.6260630541
 12
155.1815540869
 22
30.6260630541
 13
155.1815540869
 23
30.6260630541
  0
SOLID
  8
0
 62
7
  6
CONTINUOUS
 10
155.1815540869
 20
30.6260630541
 11
154.8924916972
 21
30.5938002188
 12
154.5456166972
 22
30.5938002188
 13
154.5456166972
 23
30.5938002188
  0
SOLID
  8
0
 62
7
  6
CONTINUOUS
 10
159.575304528
 20
30.7551187255
 11
159.228429528
 21
30.7228544637
 12
159.4596793074
 22
30.7873815123
 13
159.4596793074
 23
30.7873815123
  0
SOLID
  8
0
 62
7
  6
CONTINUOUS
 10
159.4596793074
 20
30.7873815123
 11
159.228429528
 21
30.7228544637
 12
159.401867028
 22
30.851908644
 13
159.401867028
 23
30.851908644
  0
SOLID
  8
0
 62
7
  6
CONTINUOUS
 10
159.228429528
 20
30.7228544637
 11
159.1128043074
 21
30.851908644
 12
159.401867028
 22
30.851908644
 13
159.401867028
 23
30.851908644
  0
SOLID
  8
0
 62
7
  6
CONTINUOUS
 10
159.575304528
 20
30.7551187255
 11
159.922179528
 21
30.7228544637
 12
159.228429528
 22
30.7228544637
 13
159.228429528
 23
30.7228544637
  0
SOLID
  8
0
 62
7
  6
CONTINUOUS
 10
156.279992028
 20
30.5938002419
 11
156.279992028
 21
31.6262382337
 12
156.5690540869
 22
30.5938002419
 13
156.5690540869
 23
31.6262382337
  0
ENDBLK
  8
0
  6
BYBLOCK
 62
0
  0
BLOCK
  8
0
 62
2
  6
CONTINUOUS
  2
SYMBOL_3_BL0
 70
64
 10
32.1213064866
 20
19.8534310916
  0
TEXT
  8
0
 62
7
  6
CONTINUOUS
 10
18.3860103289
 20
19.2268451992
  7
TEXTSTYLE_3
 40
2.7338706658
  1
Ammeraal Beltech
 41
1.0
 51
15.0
 72
0
  0
TEXT
  8
0
 62
7
  6
CONTINUOUS
 10
29.1868111546
 20
16.9533085264
  7
TEXTSTYLE_4
 40
1.0935482663
  1
Innovation & Service in Belting
 41
1.0
 72
0
  0
LINE
  8
0
 62
7
  6
CONTINUOUS
 10
12.3614696776
 20
19.9934385078
 11
13.1396216709
 21
23.6543558055
  0
LINE
  8
0
 62
7
  6
CONTINUOUS
 10
23.2347899607
 20
27.3177497171
 11
13.6274394139
 21
24.1961322958
  0
LINE
  8
0
 62
7
  6
CONTINUOUS
 10
12.5867530099
 20
19.3000877048
 11
20.093828271
 21
12.5406867788
  0
LINE
  8
0
 62
7
  6
CONTINUOUS
 10
12.8492874206
 20
20.5352149982
 11
23.6575567857
 21
24.0470345971
  0
LINE
  8
0
 62
7
  6
CONTINUOUS
 10
23.6533516486
 20
13.6972460334
 11
15.2078919798
 21
21.3015720751
  0
LINE
  8
0
 62
7
  6
CONTINUOUS
 10
24.1731743684
 20
26.4728246013
 11
23.1966148312
 21
21.8784731989
  0
LINE
  8
0
 62
7
  6
CONTINUOUS
 10
22.4968128835
 20
18.5861638851
 11
21.810364672
 21
15.3566789607
  0
LINE
  8
0
 62
7
  6
CONTINUOUS
 10
24.8542704669
 20
14.087448211
 11
25.8105020025
 21
18.5861638851
  0
LINE
  8
0
 62
7
  6
CONTINUOUS
 10
26.5103039502
 20
21.8784731989
 11
26.9545457526
 21
23.9684665583
  0
LINE
  8
0
 62
7
  6
CONTINUOUS
 10
20.8069293463
 20
12.3891124661
 11
24.3664527239
 21
13.5456717207
  0
LINE
  8
0
 62
7
  6
CONTINUOUS
 10
23.9478910361
 20
27.1661754044
 11
26.7292624203
 21
24.6618173613
  0
ARC
  8
0
 62
7
  6
CONTINUOUS
 10
13.8527227462
 20
23.5027814928
 40
0.7290321776
 50
108.0
 51
168.0
  0
ARC
  8
0
 62
7
  6
CONTINUOUS
 10
23.4600732931
 20
26.624398914
 40
0.7290321776
 50
348.0
 51
108.0
  0
ARC
  8
0
 62
7
  6
CONTINUOUS
 10
26.2414446773
 20
24.120040871
 40
0.7290321776
 50
348.0
 51
48.0
  0
ARC
  8
0
 62
7
  6
CONTINUOUS
 10
20.581646014
 20
13.0824632691
 40
0.7290321776
 50
228.0
 51
288.0
  0
ARC
  8
0
 62
7
  6
CONTINUOUS
 10
13.0745707529
 20
19.8418641951
 40
0.7290321776
 50
108.0
 51
228.0
  0
ARC
  8
0
 62
7
  6
CONTINUOUS
 10
24.1411693916
 20
14.2390225237
 40
0.7290321776
 50
228.0
 51
348.0
  0
ENDBLK
  8
0
  6
BYBLOCK
 62
0
  0
ENDSEC
  0
SECTION
  2
ENTITIES
  0
TEXT
  8
0
 62
5
  6
CONTINUOUS
 10
96.0
 20
25.636
  7
TEXTSTYLE_2
 40
2.8
  1
Scale :
 41
0.6
 51
0.000019
 72
0
  0
TEXT
  8
0
 62
5
  6
CONTINUOUS
 10
116.0
 20
25.636
  7
TEXTSTYLE_2
 40
2.8
  1
Belt type:
 41
0.6
 51
0.000019
 72
0
  0
INSERT
  8
0
 62
2
  6
CONTINUOUS
  2
SYMBOL_3_BL0
 10
32.1213064866
 20
19.8534310916
  0
INSERT
  8
0
 62
2
  6
CONTINUOUS
  2
SYMBOL_8_BL1
 10
173.5956734183
 20
35.5937998301
  0
LINE
  8
0
 62
2
  6
CONTINUOUS
 10
10.0
 20
30.0
 11
200.0
 21
30.0
  0
LINE
  8
0
 62
2
  6
CONTINUOUS
 10
10.0
 20
30.0
 11
10.0
 21
10.0
  0
LINE
  8
0
 62
2
  6
CONTINUOUS
 10
10.0
 20
10.0
 11
200.0
 21
10.0
  0
LINE
  8
0
 62
2
  6
CONTINUOUS
 10
95.0
 20
30.0
 11
95.0
 21
10.0
  0
LINE
  8
0
 62
2
  6
CONTINUOUS
 10
115.0
 20
30.0
 11
115.0
 21
10.0
  0
LINE
  8
0
 62
2
  6
CONTINUOUS
 10
200.0
 20
30.0
 11
200.0
 21
10.0
  0
TEXT
  8
0
 62
5
  6
CONTINUOUS
 10
13.0
 20
23.303
  7
TEXTSTYLE_5
 40
1.52
  1
                                                                     Ammeraal Beltech Modular A/S
 41
1.0
 72
0
  0
TEXT
  8
0
 62
5
  6
CONTINUOUS
 10
13.0
 20
20.595
  7
TEXTSTYLE_5
 40
1.5
  1
                                                                      Hjulmagervej 21,  7100 Vejle,  DK
 41
1.0
 72
0
  0
TEXT
  8
0
 62
5
  6
CONTINUOUS
 10
13.0
 20
17.881
  7
TEXTSTYLE_5
 40
1.495
  1
                                                                      tel: 
 41
1.0
 72
0
  0
TEXT
  8
0
 62
5
  6
CONTINUOUS
 10
57.9869465649
 20
17.881
  7
TEXTSTYLE_5
 40
1.51
  1
+45 75723100     fax: +45 75723348
 41
1.0
 72
0
  0
TEXT
  8
0
 62
5
  6
CONTINUOUS
 10
13.0
 20
15.177
  7
TEXTSTYLE_5
 40
1.5
  1
                                                                      admin@unichains.dk  www.unichains.com
 41
1.0
 72
0
  0
TEXT
  8
0
 62
5
  6
CONTINUOUS
 10
99.75
 20
13.75
  7
TEXTSTYLE_6
 40
5.0
  1
1:1
 41
0.7
 72
1
 11
105.0
 21
13.75
  0
TEXT
  8
0
 62
5
  6
CONTINUOUS
 10
118.0
 20
13.75
  7
TEXTSTYLE_7
 40
7.5
  1
uni SNB M2 34% TAB K335
 41
0.4542572464
 72
0
  0
LINE
  8
0
 62
7
  6
CONTINUOUS
 10
210.0
 20
0.0
 11
0.0
 21
0.0
  0
LINE
  8
0
 62
7
  6
CONTINUOUS
 10
10.0
 20
10.0
 11
200.0
 21
10.0
  0
LINE
  8
0
 62
7
  6
CONTINUOUS
 10
10.0
 20
30.0
 11
200.0
 21
30.0
  0
LINE
  8
0
 62
7
  6
CONTINUOUS
 10
0.0
 20
0.0
 11
0.0
 21
297.0
  0
LINE
  8
0
 62
7
  6
CONTINUOUS
 10
10.0
 20
10.0
 11
10.0
 21
287.0
  0
LINE
  8
0
 62
7
  6
CONTINUOUS
 10
200.0
 20
287.0
 11
200.0
 21
10.0
  0
LINE
  8
0
 62
7
  6
CONTINUOUS
 10
210.0
 20
0.0
 11
210.0
 21
297.0
  0
LINE
  8
0
 62
7
  6
CONTINUOUS
 10
10.0
 20
287.0
 11
200.0
 21
287.0
  0
LINE
  8
0
 62
7
  6
CONTINUOUS
 10
0.0
 20
297.0
 11
210.0
 21
297.0
  0
LINE
  8
CURVE
 62
7
  6
CONTINUOUS
 10
27.5321939246
 20
198.9831166519
 11
27.5321939246
 21
191.8831166519
  0
LINE
  8
CURVE
 62
7
  6
CONTINUOUS
 10
34.5621941195
 20
195.0331199101
 11
34.5621941195
 21
195.8331133936
  0
LINE
  8
CURVE
 62
7
  6
CONTINUOUS
 10
35.2621939246
 20
191.8831166519
 11
35.2621939246
 21
198.9831166519
  0
LINE
  8
0
 62
7
  6
CONTINUOUS
 10
39.3221939246
 20
191.8831166519
 11
39.3221939246
 21
198.9831166519
  0
LINE
  8
0
 62
7
  6
CONTINUOUS
 10
41.2621939246
 20
198.9831166519
 11
41.2621939246
 21
191.8831166519
  0
LINE
  8
CURVE
 62
7
  6
CONTINUOUS
 10
47.9621939246
 20
198.9831166519
 11
47.9621939246
 21
191.8831166519
  0
LINE
  8
CURVE
 62
7
  6
CONTINUOUS
 10
48.6621939246
 20
191.1227183265
 11
48.6621939246
 21
184.5331166519
  0
LINE
  8
CURVE
 62
7
  6
CONTINUOUS
 10
53.2621939246
 20
191.1227183265
 11
53.2621939246
 21
184.5331166519
  0
LINE
  8
CURVE
 62
7
  6
CONTINUOUS
 10
53.9621939246
 20
191.8831166519
 11
53.9621939246
 21
198.9831166519
  0
LINE
  8
CURVE
 62
7
  6
CONTINUOUS
 10
48.6481516509
 20
190.8383483574
 11
48.6522510129
 21
190.8222795597
  0
LINE
  8
CURVE
 62
7
  6
CONTINUOUS
 10
53.2721350197
 20
190.8222873095
 11
53.2761610749
 21
190.8381142284
  0
POLYLINE
  8
CURVE
 62
7
  6
CONTINUOUS
 66
1
 70
0
  0
VERTEX
  8
CURVE
 62
7
  6
CONTINUOUS
 10
53.2761610749
 20
190.8381142284
  0
VERTEX
  8
CURVE
 62
7
  6
CONTINUOUS
 10
53.288993063
 20
190.8711290793
  0
VERTEX
  8
CURVE
 62
7
  6
CONTINUOUS
 10
53.3054284177
 20
190.9018495759
  0
VERTEX
  8
CURVE
 62
7
  6
CONTINUOUS
 10
53.3248174851
 20
190.9296120021
  0
VERTEX
  8
CURVE
 62
7
  6
CONTINUOUS
 10
53.346350082
 20
190.9539306458
  0
VERTEX
  8
CURVE
 62
7
  6
CONTINUOUS
 10
53.3691711109
 20
190.9745755936
  0
VERTEX
  8
CURVE
 62
7
  6
CONTINUOUS
 10
53.3925849609
 20
190.9916278235
  0
VERTEX
  8
CURVE
 62
7
  6
CONTINUOUS
 10
53.4159671665
 20
191.0052745279
  0
VERTEX
  8
CURVE
 62
7
  6
CONTINUOUS
 10
53.4387340927
 20
191.0157640447
  0
VERTEX
  8
CURVE
 62
7
  6
CONTINUOUS
 10
53.4603445984
 20
191.0233998873
  0
VERTEX
  8
CURVE
 62
7
  6
CONTINUOUS
 10
53.4803670109
 20
191.0285482222
  0
VERTEX
  8
CURVE
 62
7
  6
CONTINUOUS
 10
53.4983787224
 20
191.0315910625
  0
VERTEX
  8
CURVE
 62
7
  6
CONTINUOUS
 10
53.513986161
 20
191.0329390797
  0
VERTEX
  8
CURVE
 62
7
  6
CONTINUOUS
 10
53.5217047686
 20
191.0331166521
  0
SEQEND
  0
LINE
  8
CURVE
 62
7
  6
CONTINUOUS
 10
60.6621939246
 20
198.9831166519
 11
60.6621939246
 21
191.8831166519
  0
LINE
  8
CURVE
 62
7
  6
CONTINUOUS
 10
66.6621939246
 20
191.8831166519
 11
66.6621939246
 21
198.9831166519
  0
LINE
  8
CURVE
 62
7
  6
CONTINUOUS
 10
67.3621937296
 20
195.0331199101
 11
67.3621937296
 21
195.8331133936
  0
LINE
  8
DEFAULT_1
 62
2
  6
CENTER
 10
70.0121939246
 20
181.5331162673
 11
70.0121939246
 21
202.6831174566
  0
LINE
  8
0
 62
7
  6
CONTINUOUS
 10
72.6621941195
 20
195.0331199101
 11
72.6621941195
 21
195.8331133936
  0
LINE
  8
0
 62
7
  6
CONTINUOUS
 10
73.3621939246
 20
198.9831166519
 11
73.3621939246
 21
191.8831166519
  0
POLYLINE
  8
CURVE
 62
7
  6
CONTINUOUS
 66
1
 70
0
  0
VERTEX
  8
CURVE
 62
7
  6
CONTINUOUS
 10
52.523136175
 20
199.7587603704
  0
VERTEX
  8
CURVE
 62
7
  6
CONTINUOUS
 10
52.3366130359
 20
199.7052597679
  0
VERTEX
  8
CURVE
 62
7
  6
CONTINUOUS
 10
52.2794186036
 20
199.6892550536
  0
VERTEX
  8
CURVE
 62
7
  6
CONTINUOUS
 10
52.2174064241
 20
199.6724062147
  0
VERTEX
  8
CURVE
 62
7
  6
CONTINUOUS
 10
52.1504135075
 20
199.654929456
  0
VERTEX
  8
CURVE
 62
7
  6
CONTINUOUS
 10
52.0775187552
 20
199.6369085602
  0
VERTEX
  8
CURVE
 62
7
  6
CONTINUOUS
 10
51.9968850267
 20
199.6183346151
  0
VERTEX
  8
CURVE
 62
7
  6
CONTINUOUS
 10
51.9063630698
 20
199.5993576974
  0
VERTEX
  8
CURVE
 62
7
  6
CONTINUOUS
 10
51.8059189297
 20
199.5808193352
  0
VERTEX
  8
CURVE
 62
7
  6
CONTINUOUS
 10
51.7061887541
 20
199.565217854
  0
VERTEX
  8
CURVE
 62
7
  6
CONTINUOUS
 10
51.6098981817
 20
199.5529532424
  0
VERTEX
  8
CURVE
 62
7
  6
CONTINUOUS
 10
51.5163977675
 20
199.5437842957
  0
VERTEX
  8
CURVE
 62
7
  6
CONTINUOUS
 10
51.42478198
 20
199.5374975333
  0
VERTEX
  8
CURVE
 62
7
  6
CONTINUOUS
 10
51.3340216259
 20
199.5339557296
  0
VERTEX
  8
CURVE
 62
7
  6
CONTINUOUS
 10
51.2606529303
 20
199.5330687384
  0
SEQEND
  0
LINE
  8
0
 62
7
  6
CONTINUOUS
 10
79.3621939246
 20
198.9831166519
 11
79.3621939246
 21
191.8831166519
  0
POLYLINE
  8
0
 62
7
  6
CONTINUOUS
 66
1
 70
0
  0
VERTEX
  8
0
 62
7
  6
CONTINUOUS
 10
90.6247278774
 20
199.7592116848
  0
VERTEX
  8
0
 62
7
  6
CONTINUOUS
 10
90.438563228
 20
199.7058119249
  0
VERTEX
  8
0
 62
7
  6
CONTINUOUS
 10
90.3814723531
 20
199.6898227165
  0
VERTEX
  8
0
 62
7
  6
CONTINUOUS
 10
90.3195659173
 20
199.6729828375
  0
VERTEX
  8
0
 62
7
  6
CONTINUOUS
 10
90.2526742635
 20
199.6555055783
  0
VERTEX
  8
0
 62
7
  6
CONTINUOUS
 10
90.1798986622
 20
199.637479122
  0
VERTEX
  8
0
 62
7
  6
CONTINUOUS
 10
90.0994241787
 20
199.6188963399
  0
VERTEX
  8
0
 62
7
  6
CONTINUOUS
 10
90.0091176409
 20
199.5999043585
  0
VERTEX
  8
0
 62
7
  6
CONTINUOUS
 10
89.9086710062
 20
199.5812903391
  0
VERTEX
  8
0
 62
7
  6
CONTINUOUS
 10
89.808500912
 20
199.5655467168
  0
VERTEX
  8
0
 62
7
  6
CONTINUOUS
 10
89.7119679041
 20
199.5531871037
  0
VERTEX
  8
0
 62
7
  6
CONTINUOUS
 10
89.618358681
 20
199.543948251
  0
VERTEX
  8
0
 62
7
  6
CONTINUOUS
 10
89.5266731725
 20
199.5375998395
  0
VERTEX
  8
0
 62
7
  6
CONTINUOUS
 10
89.4357818443
 20
199.5339986988
  0
VERTEX
  8
0
 62
7
  6
CONTINUOUS
 10
89.3606529259
 20
199.5330686415
  0
SEQEND
  0
LINE
  8
0
 62
7
  6
CONTINUOUS
 10
86.0621939246
 20
191.8831166519
 11
86.0621939246
 21
198.9831166519
  0
LINE
  8
0
 62
7
  6
CONTINUOUS
 10
86.7621939246
 20
184.5331166519
 11
86.7621939246
 21
191.1227183265
  0
LINE
  8
CURVE
 62
7
  6
CONTINUOUS
 10
52.2621939246
 20
183.5331166519
 11
49.6621939246
 21
183.5331166519
  0
LINE
  8
0
 62
7
  6
CONTINUOUS
 10
87.7621939246
 20
183.5331166519
 11
90.3621939246
 21
183.5331166519
  0
LINE
  8
CURVE
 62
7
  6
CONTINUOUS
 10
27.6767607381
 20
191.4089183606
 11
31.9721939246
 21
191.0331166519
  0
POLYLINE
  8
CURVE
 62
7
  6
CONTINUOUS
 66
1
 70
0
  0
VERTEX
  8
CURVE
 62
7
  6
CONTINUOUS
 10
65.1543651969
 20
191.0846916203
  0
VERTEX
  8
CURVE
 62
7
  6
CONTINUOUS
 10
65.1922512079
 20
191.0758047672
  0
VERTEX
  8
CURVE
 62
7
  6
CONTINUOUS
 10
65.2273107972
 20
191.0678644262
  0
VERTEX
  8
CURVE
 62
7
  6
CONTINUOUS
 10
65.2601910614
 20
191.0607866854
  0
VERTEX
  8
CURVE
 62
7
  6
CONTINUOUS
 10
65.2917618105
 20
191.0544493282
  0
VERTEX
  8
CURVE
 62
7
  6
CONTINUOUS
 10
65.322702304
 20
191.0488052504
  0
VERTEX
  8
CURVE
 62
7
  6
CONTINUOUS
 10
65.3535536589
 20
191.0438645198
  0
VERTEX
  8
CURVE
 62
7
  6
CONTINUOUS
 10
65.3850178026
 20
191.0396631177
  0
VERTEX
  8
CURVE
 62
7
  6
CONTINUOUS
 10
65.4172684625
 20
191.0363575953
  0
VERTEX
  8
CURVE
 62
7
  6
CONTINUOUS
 10
65.4503957257
 20
191.0341232447
  0
VERTEX
  8
CURVE
 62
7
  6
CONTINUOUS
 10
65.4842480091
 20
191.0331468428
  0
VERTEX
  8
CURVE
 62
7
  6
CONTINUOUS
 10
65.4911143715
 20
191.0331168338
  0
SEQEND
  0
POLYLINE
  8
0
 62
7
  6
CONTINUOUS
 66
1
 70
0
  0
VERTEX
  8
0
 62
7
  6
CONTINUOUS
 10
77.8529420889
 20
191.0850298756
  0
VERTEX
  8
0
 62
7
  6
CONTINUOUS
 10
77.8909030148
 20
191.0761163702
  0
VERTEX
  8
0
 62
7
  6
CONTINUOUS
 10
77.9260130719
 20
191.068151954
  0
VERTEX
  8
0
 62
7
  6
CONTINUOUS
 10
77.9589090622
 20
191.0610544126
  0
VERTEX
  8
0
 62
7
  6
CONTINUOUS
 10
77.9904512568
 20
191.0547017087
  0
VERTEX
  8
0
 62
7
  6
CONTINUOUS
 10
78.0213205335
 20
191.0490435669
  0
VERTEX
  8
0
 62
7
  6
CONTINUOUS
 10
78.0520530778
 20
191.044087025
  0
VERTEX
  8
0
 62
7
  6
CONTINUOUS
 10
78.0833560654
 20
191.0398618504
  0
VERTEX
  8
0
 62
7
  6
CONTINUOUS
 10
78.1154214818
 20
191.0365177309
  0
VERTEX
  8
0
 62
7
  6
CONTINUOUS
 10
78.1483470297
 20
191.0342255725
  0
VERTEX
  8
0
 62
7
  6
CONTINUOUS
 10
78.1820084807
 20
191.0331690834
  0
VERTEX
  8
0
 62
7
  6
CONTINUOUS
 10
78.1911026983
 20
191.0331168385
  0
SEQEND
  0
LINE
  8
CURVE
 62
7
  6
CONTINUOUS
 10
64.9650181984
 20
191.1302048284
 11
65.1543651969
 21
191.0846916203
  0
LINE
  8
0
 62
7
  6
CONTINUOUS
 10
77.6632086256
 20
191.1306317089
 11
77.8529420889
 21
191.0850298756
  0
POLYLINE
  8
CURVE
 62
7
  6
CONTINUOUS
 66
1
 70
0
  0
VERTEX
  8
CURVE
 62
7
  6
CONTINUOUS
 10
49.399411509
 20
199.759282102
  0
VERTEX
  8
CURVE
 62
7
  6
CONTINUOUS
 10
49.3608014926
 20
199.7701031761
  0
VERTEX
  8
CURVE
 62
7
  6
CONTINUOUS
 10
49.3240689942
 20
199.7800950891
  0
VERTEX
  8
CURVE
 62
7
  6
CONTINUOUS
 10
49.2886032165
 20
199.7893342682
  0
VERTEX
  8
CURVE
 62
7
  6
CONTINUOUS
 10
49.2539181895
 20
199.7978519965
  0
VERTEX
  8
CURVE
 62
7
  6
CONTINUOUS
 10
49.2191336028
 20
199.8057399196
  0
VERTEX
  8
CURVE
 62
7
  6
CONTINUOUS
 10
49.1838343992
 20
199.812932292
  0
VERTEX
  8
CURVE
 62
7
  6
CONTINUOUS
 10
49.14788708
 20
199.8192824426
  0
VERTEX
  8
CURVE
 62
7
  6
CONTINUOUS
 10
49.1114482147
 20
199.8245949585
  0
VERTEX
  8
CURVE
 62
7
  6
CONTINUOUS
 10
49.0742312661
 20
199.8287547668
  0
VERTEX
  8
CURVE
 62
7
  6
CONTINUOUS
 10
49.0351798832
 20
199.8316640929
  0
VERTEX
  8
CURVE
 62
7
  6
CONTINUOUS
 10
48.9931038509
 20
199.8330576641
  0
VERTEX
  8
CURVE
 62
7
  6
CONTINUOUS
 10
48.9825621359
 20
199.8331164688
  0
SEQEND
  0
POLYLINE
  8
CURVE
 62
7
  6
CONTINUOUS
 66
1
 70
0
  0
VERTEX
  8
CURVE
 62
7
  6
CONTINUOUS
 10
49.585715118
 20
199.7058429393
  0
VERTEX
  8
CURVE
 62
7
  6
CONTINUOUS
 10
49.4849438613
 20
199.7347372646
  0
VERTEX
  8
CURVE
 62
7
  6
CONTINUOUS
 10
49.399411509
 20
199.759282102
  0
SEQEND
  0
LINE
  8
0
 62
7
  6
CONTINUOUS
 10
86.7479059015
 20
190.8391095837
 11
86.7522616285
 21
190.8222500757
  0
LINE
  8
0
 62
7
  6
CONTINUOUS
 10
91.3621939246
 20
191.1227183265
 11
91.3621939246
 21
184.5331166519
  0
LINE
  8
0
 62
7
  6
CONTINUOUS
 10
92.0621939246
 20
198.9831166519
 11
92.0621939246
 21
191.8831166519
  0
LINE
  8
0
 62
7
  6
CONTINUOUS
 10
91.367613317
 20
190.8048201514
 11
91.3765578371
 21
190.8393432256
  0
POLYLINE
  8
0
 62
7
  6
CONTINUOUS
 66
1
 70
0
  0
VERTEX
  8
0
 62
7
  6
CONTINUOUS
 10
91.3765578371
 20
190.8393432256
  0
VERTEX
  8
0
 62
7
  6
CONTINUOUS
 10
91.3895318856
 20
190.8722928731
  0
VERTEX
  8
0
 62
7
  6
CONTINUOUS
 10
91.4060922574
 20
190.9029242007
  0
VERTEX
  8
0
 62
7
  6
CONTINUOUS
 10
91.4255806631
 20
190.93057459
  0
VERTEX
  8
0
 62
7
  6
CONTINUOUS
 10
91.4471781771
 20
190.9547620334
  0
VERTEX
  8
0
 62
7
  6
CONTINUOUS
 10
91.4700248297
 20
190.975264751
  0
VERTEX
  8
0
 62
7
  6
CONTINUOUS
 10
91.4934330694
 20
190.9921782926
  0
VERTEX
  8
0
 62
7
  6
CONTINUOUS
 10
91.5167917231
 20
191.0057005888
  0
VERTEX
  8
0
 62
7
  6
CONTINUOUS
 10
91.5395293491
 20
191.0160841137
  0
VERTEX
  8
0
 62
7
  6
CONTINUOUS
 10
91.5611055305
 20
191.0236291629
  0
VERTEX
  8
0
 62
7
  6
CONTINUOUS
 10
91.5810785951
 20
191.0286972935
  0
VERTEX
  8
0
 62
7
  6
CONTINUOUS
 10
91.5990188206
 20
191.0316706561
  0
VERTEX
  8
0
 62
7
  6
CONTINUOUS
 10
91.6145275513
 20
191.032962713
  0
VERTEX
  8
0
 62
7
  6
CONTINUOUS
 10
91.6217048546
 20
191.0331166533
  0
SEQEND
  0
LINE
  8
0
 62
7
  6
CONTINUOUS
 10
108.0521939246
 20
191.0331166519
 11
112.3476271111
 21
191.4089183606
  0
POLYLINE
  8
CURVE
 62
7
  6
CONTINUOUS
 66
1
 70
0
  0
VERTEX
  8
CURVE
 62
7
  6
CONTINUOUS
 10
61.8332851508
 20
191.0331168385
  0
VERTEX
  8
CURVE
 62
7
  6
CONTINUOUS
 10
61.8423793685
 20
191.0331690834
  0
VERTEX
  8
CURVE
 62
7
  6
CONTINUOUS
 10
61.8760408195
 20
191.0342255725
  0
VERTEX
  8
CURVE
 62
7
  6
CONTINUOUS
 10
61.9089663673
 20
191.0365177309
  0
VERTEX
  8
CURVE
 62
7
  6
CONTINUOUS
 10
61.9410317837
 20
191.0398618504
  0
VERTEX
  8
CURVE
 62
7
  6
CONTINUOUS
 10
61.9723347714
 20
191.044087025
  0
VERTEX
  8
CURVE
 62
7
  6
CONTINUOUS
 10
62.0030673157
 20
191.0490435669
  0
VERTEX
  8
CURVE
 62
7
  6
CONTINUOUS
 10
62.0339365924
 20
191.0547017087
  0
VERTEX
  8
CURVE
 62
7
  6
CONTINUOUS
 10
62.065478787
 20
191.0610544126
  0
VERTEX
  8
CURVE
 62
7
  6
CONTINUOUS
 10
62.0983747772
 20
191.068151954
  0
VERTEX
  8
CURVE
 62
7
  6
CONTINUOUS
 10
62.1334848343
 20
191.0761163702
  0
VERTEX
  8
CURVE
 62
7
  6
CONTINUOUS
 10
62.1714457603
 20
191.0850298756
  0
SEQEND
  0
POLYLINE
  8
0
 62
7
  6
CONTINUOUS
 66
1
 70
0
  0
VERTEX
  8
0
 62
7
  6
CONTINUOUS
 10
74.5332734777
 20
191.0331168338
  0
VERTEX
  8
0
 62
7
  6
CONTINUOUS
 10
74.5401398401
 20
191.0331468428
  0
VERTEX
  8
0
 62
7
  6
CONTINUOUS
 10
74.5739921235
 20
191.0341232447
  0
VERTEX
  8
0
 62
7
  6
CONTINUOUS
 10
74.6071193867
 20
191.0363575953
  0
VERTEX
  8
0
 62
7
  6
CONTINUOUS
 10
74.6393700465
 20
191.0396631177
  0
VERTEX
  8
0
 62
7
  6
CONTINUOUS
 10
74.6708341902
 20
191.0438645198
  0
VERTEX
  8
0
 62
7
  6
CONTINUOUS
 10
74.7016855452
 20
191.0488052504
  0
VERTEX
  8
0
 62
7
  6
CONTINUOUS
 10
74.7326260387
 20
191.0544493282
  0
VERTEX
  8
0
 62
7
  6
CONTINUOUS
 10
74.7641967878
 20
191.0607866854
  0
VERTEX
  8
0
 62
7
  6
CONTINUOUS
 10
74.7970770519
 20
191.0678644262
  0
VERTEX
  8
0
 62
7
  6
CONTINUOUS
 10
74.8321366413
 20
191.0758047672
  0
VERTEX
  8
0
 62
7
  6
CONTINUOUS
 10
74.8700226522
 20
191.0846916203
  0
SEQEND
  0
LINE
  8
CURVE
 62
7
  6
CONTINUOUS
 10
48.4026809117
 20
191.0331166519
 11
40.4121939246
 21
191.0331166519
  0
LINE
  8
CURVE
 62
7
  6
CONTINUOUS
 10
31.9721939246
 20
191.0331166519
 11
36.1121939246
 21
191.0331166519
  0
LINE
  8
0
 62
7
  6
CONTINUOUS
 10
36.1121939246
 20
191.0331166519
 11
40.4121939246
 21
191.0331166519
  0
LINE
  8
CURVE
 62
7
  6
CONTINUOUS
 10
38.4721939246
 20
191.0331166519
 11
40.1721939246
 21
191.0331166519
  0
LINE
  8
CURVE
 62
7
  6
CONTINUOUS
 10
53.5217069374
 20
191.0331166519
 11
70.3132714027
 21
191.0331166519
  0
LINE
  8
0
 62
7
  6
CONTINUOUS
 10
70.1081030457
 20
191.0331166519
 11
86.5026809118
 21
191.0331166519
  0
LINE
  8
0
 62
7
  6
CONTINUOUS
 10
91.6217069374
 20
191.0331166519
 11
108.0521939246
 21
191.0331166519
  0
LINE
  8
CURVE
 62
7
  6
CONTINUOUS
 10
61.8331563049
 20
191.0331166904
 11
61.8332851509
 21
191.0331167026
  0
LINE
  8
CURVE
 62
7
  6
CONTINUOUS
 10
63.3618136007
 20
191.2616936932
 11
63.9625742479
 21
191.2616936932
  0
LINE
  8
0
 62
7
  6
CONTINUOUS
 10
76.0618136013
 20
191.2616936932
 11
76.6625742485
 21
191.2616936932
  0
POLYLINE
  8
0
 62
7
  6
CONTINUOUS
 66
1
 70
0
  0
VERTEX
  8
0
 62
7
  6
CONTINUOUS
 10
76.6625742485
 20
191.2616939006
  0
VERTEX
  8
0
 62
7
  6
CONTINUOUS
 10
76.7310071477
 20
191.2610281292
  0
VERTEX
  8
0
 62
7
  6
CONTINUOUS
 10
76.8233271484
 20
191.258027512
  0
VERTEX
  8
0
 62
7
  6
CONTINUOUS
 10
76.9191180046
 20
191.2523851459
  0
VERTEX
  8
0
 62
7
  6
CONTINUOUS
 10
77.0163699969
 20
191.2440690201
  0
VERTEX
  8
0
 62
7
  6
CONTINUOUS
 10
77.1131587735
 20
191.2332733112
  0
VERTEX
  8
0
 62
7
  6
CONTINUOUS
 10
77.2077732876
 20
191.220380156
  0
VERTEX
  8
0
 62
7
  6
CONTINUOUS
 10
77.2987181958
 20
191.2059106906
  0
VERTEX
  8
0
 62
7
  6
CONTINUOUS
 10
77.3847044557
 20
191.1904719796
  0
VERTEX
  8
0
 62
7
  6
CONTINUOUS
 10
77.4646357893
 20
191.1747056528
  0
VERTEX
  8
0
 62
7
  6
CONTINUOUS
 10
77.5377123027
 20
191.1592157784
  0
VERTEX
  8
0
 62
7
  6
CONTINUOUS
 10
77.6036681091
 20
191.1444658244
  0
VERTEX
  8
0
 62
7
  6
CONTINUOUS
 10
77.6632086256
 20
191.1306317089
  0
SEQEND
  0
POLYLINE
  8
CURVE
 62
7
  6
CONTINUOUS
 66
1
 70
0
  0
VERTEX
  8
CURVE
 62
7
  6
CONTINUOUS
 10
63.9625742479
 20
191.2616938248
  0
VERTEX
  8
CURVE
 62
7
  6
CONTINUOUS
 10
64.0325859858
 20
191.2609970886
  0
VERTEX
  8
CURVE
 62
7
  6
CONTINUOUS
 10
64.1250671299
 20
191.257947883
  0
VERTEX
  8
CURVE
 62
7
  6
CONTINUOUS
 10
64.221079143
 20
191.2522430301
  0
VERTEX
  8
CURVE
 62
7
  6
CONTINUOUS
 10
64.3185619485
 20
191.2438520521
  0
VERTEX
  8
CURVE
 62
7
  6
CONTINUOUS
 10
64.4155427674
 20
191.23297644
  0
VERTEX
  8
CURVE
 62
7
  6
CONTINUOUS
 10
64.5102700111
 20
191.2200095659
  0
VERTEX
  8
CURVE
 62
7
  6
CONTINUOUS
 10
64.601217954
 20
191.2054853676
  0
VERTEX
  8
CURVE
 62
7
  6
CONTINUOUS
 10
64.68710514
 20
191.1900176519
  0
VERTEX
  8
CURVE
 62
7
  6
CONTINUOUS
 10
64.7668815397
 20
191.1742442801
  0
VERTEX
  8
CURVE
 62
7
  6
CONTINUOUS
 10
64.8397896666
 20
191.1587617151
  0
VERTEX
  8
CURVE
 62
7
  6
CONTINUOUS
 10
64.9055995029
 20
191.14402416
  0
VERTEX
  8
CURVE
 62
7
  6
CONTINUOUS
 10
64.9650181984
 20
191.1302048284
  0
SEQEND
  0
POLYLINE
  8
CURVE
 62
7
  6
CONTINUOUS
 66
1
 70
0
  0
VERTEX
  8
CURVE
 62
7
  6
CONTINUOUS
 10
48.4026830173
 20
191.0331166533
  0
VERTEX
  8
CURVE
 62
7
  6
CONTINUOUS
 10
48.4098935606
 20
191.0329613081
  0
VERTEX
  8
CURVE
 62
7
  6
CONTINUOUS
 10
48.4254467312
 20
191.0316611013
  0
VERTEX
  8
CURVE
 62
7
  6
CONTINUOUS
 10
48.4434400692
 20
191.0286700642
  0
VERTEX
  8
CURVE
 62
7
  6
CONTINUOUS
 10
48.4634727866
 20
191.0235720228
  0
VERTEX
  8
CURVE
 62
7
  6
CONTINUOUS
 10
48.4851136179
 20
191.0159817667
  0
VERTEX
  8
CURVE
 62
7
  6
CONTINUOUS
 10
48.5079182326
 20
191.0055345788
  0
VERTEX
  8
CURVE
 62
7
  6
CONTINUOUS
 10
48.531339311
 20
190.9919292558
  0
VERTEX
  8
CURVE
 62
7
  6
CONTINUOUS
 10
48.5547973656
 20
190.9749148138
  0
VERTEX
  8
CURVE
 62
7
  6
CONTINUOUS
 10
48.5776732099
 20
190.9542974939
  0
VERTEX
  8
CURVE
 62
7
  6
CONTINUOUS
 10
48.5992754923
 20
190.9299849192
  0
VERTEX
  8
CURVE
 62
7
  6
CONTINUOUS
 10
48.618743454
 20
190.9022003497
  0
VERTEX
  8
CURVE
 62
7
  6
CONTINUOUS
 10
48.6352552733
 20
190.8714317016
  0
VERTEX
  8
CURVE
 62
7
  6
CONTINUOUS
 10
48.6481516509
 20
190.8383483574
  0
SEQEND
  0
POLYLINE
  8
0
 62
7
  6
CONTINUOUS
 66
1
 70
0
  0
VERTEX
  8
0
 62
7
  6
CONTINUOUS
 10
86.5026830571
 20
191.0331166521
  0
VERTEX
  8
0
 62
7
  6
CONTINUOUS
 10
86.5103682017
 20
191.0329405888
  0
VERTEX
  8
0
 62
7
  6
CONTINUOUS
 10
86.5259311097
 20
191.0316008711
  0
VERTEX
  8
0
 62
7
  6
CONTINUOUS
 10
86.5438897276
 20
191.028575865
  0
VERTEX
  8
0
 62
7
  6
CONTINUOUS
 10
86.5638525932
 20
191.0234575844
  0
VERTEX
  8
0
 62
7
  6
CONTINUOUS
 10
86.5853986517
 20
191.0158670489
  0
VERTEX
  8
0
 62
7
  6
CONTINUOUS
 10
86.6080987565
 20
191.0054412993
  0
VERTEX
  8
0
 62
7
  6
CONTINUOUS
 10
86.6314187216
 20
190.9918777137
  0
VERTEX
  8
0
 62
7
  6
CONTINUOUS
 10
86.6547829356
 20
190.9749264625
  0
VERTEX
  8
0
 62
7
  6
CONTINUOUS
 10
86.6775749116
 20
190.9543961829
  0
VERTEX
  8
0
 62
7
  6
CONTINUOUS
 10
86.6991027728
 20
190.9302027684
  0
VERTEX
  8
0
 62
7
  6
CONTINUOUS
 10
86.7185123587
 20
190.9025744465
  0
VERTEX
  8
0
 62
7
  6
CONTINUOUS
 10
86.7349963019
 20
190.8719910486
  0
VERTEX
  8
0
 62
7
  6
CONTINUOUS
 10
86.7479059015
 20
190.8391095837
  0
SEQEND
  0
POLYLINE
  8
CURVE
 62
7
  6
CONTINUOUS
 66
1
 70
0
  0
VERTEX
  8
CURVE
 62
7
  6
CONTINUOUS
 10
62.305523693
 20
199.7488658288
  0
VERTEX
  8
CURVE
 62
7
  6
CONTINUOUS
 10
62.2113382271
 20
199.7716374245
  0
VERTEX
  8
CURVE
 62
7
  6
CONTINUOUS
 10
62.1700392355
 20
199.7815377216
  0
VERTEX
  8
CURVE
 62
7
  6
CONTINUOUS
 10
62.1321508297
 20
199.7904252674
  0
VERTEX
  8
CURVE
 62
7
  6
CONTINUOUS
 10
62.0970870893
 20
199.7983666315
  0
VERTEX
  8
CURVE
 62
7
  6
CONTINUOUS
 10
62.0642065173
 20
199.805444578
  0
VERTEX
  8
CURVE
 62
7
  6
CONTINUOUS
 10
62.0326328693
 20
199.8117826646
  0
VERTEX
  8
CURVE
 62
7
  6
CONTINUOUS
 10
62.001692501
 20
199.8174268402
  0
VERTEX
  8
CURVE
 62
7
  6
CONTINUOUS
 10
61.9708415064
 20
199.8223676954
  0
VERTEX
  8
CURVE
 62
7
  6
CONTINUOUS
 10
61.9393769094
 20
199.826569375
  0
VERTEX
  8
CURVE
 62
7
  6
CONTINUOUS
 10
61.9071250595
 20
199.8298752013
  0
VERTEX
  8
CURVE
 62
7
  6
CONTINUOUS
 10
61.8739988169
 20
199.8321096861
  0
VERTEX
  8
CURVE
 62
7
  6
CONTINUOUS
 10
61.840148764
 20
199.8330863478
  0
VERTEX
  8
CURVE
 62
7
  6
CONTINUOUS
 10
61.8332785239
 20
199.8331164398
  0
SEQEND
  0
POLYLINE
  8
0
 62
7
  6
CONTINUOUS
 66
1
 70
0
  0
VERTEX
  8
0
 62
7
  6
CONTINUOUS
 10
74.8700226522
 20
191.0846916203
  0
VERTEX
  8
0
 62
7
  6
CONTINUOUS
 10
75.0593696507
 20
191.1302048284
  0
VERTEX
  8
0
 62
7
  6
CONTINUOUS
 10
75.1187883463
 20
191.14402416
  0
VERTEX
  8
0
 62
7
  6
CONTINUOUS
 10
75.1845981826
 20
191.1587617151
  0
VERTEX
  8
0
 62
7
  6
CONTINUOUS
 10
75.2575063095
 20
191.1742442801
  0
VERTEX
  8
0
 62
7
  6
CONTINUOUS
 10
75.3372827092
 20
191.1900176519
  0
VERTEX
  8
0
 62
7
  6
CONTINUOUS
 10
75.4231698951
 20
191.2054853676
  0
VERTEX
  8
0
 62
7
  6
CONTINUOUS
 10
75.5141178381
 20
191.2200095659
  0
VERTEX
  8
0
 62
7
  6
CONTINUOUS
 10
75.6088450818
 20
191.23297644
  0
VERTEX
  8
0
 62
7
  6
CONTINUOUS
 10
75.7058259007
 20
191.2438520521
  0
VERTEX
  8
0
 62
7
  6
CONTINUOUS
 10
75.8033087062
 20
191.2522430301
  0
VERTEX
  8
0
 62
7
  6
CONTINUOUS
 10
75.8993207193
 20
191.257947883
  0
VERTEX
  8
0
 62
7
  6
CONTINUOUS
 10
75.9918018634
 20
191.2609970886
  0
VERTEX
  8
0
 62
7
  6
CONTINUOUS
 10
76.0618136013
 20
191.2616938248
  0
SEQEND
  0
LINE
  8
CURVE
 62
2
  6
CENTER
 10
24.6385476183
 20
195.4331166519
 11
116.1156001803
 21
195.4331166519
  0
POLYLINE
  8
0
 62
7
  6
CONTINUOUS
 66
1
 70
0
  0
VERTEX
  8
0
 62
7
  6
CONTINUOUS
 10
74.8715233662
 20
199.7811850107
  0
VERTEX
  8
0
 62
7
  6
CONTINUOUS
 10
74.8335462531
 20
199.7901027045
  0
VERTEX
  8
0
 62
7
  6
CONTINUOUS
 10
74.7984275527
 20
199.7980696947
  0
VERTEX
  8
0
 62
7
  6
CONTINUOUS
 10
74.7655183004
 20
199.8051706257
  0
VERTEX
  8
0
 62
7
  6
CONTINUOUS
 10
74.7339752059
 20
199.8115241288
  0
VERTEX
  8
0
 62
7
  6
CONTINUOUS
 10
74.7030959468
 20
199.8171848154
  0
VERTEX
  8
0
 62
7
  6
CONTINUOUS
 10
74.672360362
 20
199.8221424409
  0
VERTEX
  8
0
 62
7
  6
CONTINUOUS
 10
74.6410587686
 20
199.8263682445
  0
VERTEX
  8
0
 62
7
  6
CONTINUOUS
 10
74.6089845276
 20
199.829714035
  0
VERTEX
  8
0
 62
7
  6
CONTINUOUS
 10
74.5760545178
 20
199.8320070296
  0
VERTEX
  8
0
 62
7
  6
CONTINUOUS
 10
74.5423915268
 20
199.8330640549
  0
VERTEX
  8
0
 62
7
  6
CONTINUOUS
 10
74.5332880209
 20
199.8331164405
  0
SEQEND
  0
LINE
  8
0
 62
7
  6
CONTINUOUS
 10
75.0613286941
 20
199.7355663526
 11
74.8715233662
 21
199.7811850107
  0
LINE
  8
0
 62
7
  6
CONTINUOUS
 10
98.7621939246
 20
191.8831166519
 11
98.7621939246
 21
198.9831166519
  0
LINE
  8
0
 62
7
  6
CONTINUOUS
 10
100.7021939246
 20
198.9831166519
 11
100.7021939246
 21
191.8831166519
  0
POLYLINE
  8
CURVE
 62
7
  6
CONTINUOUS
 66
1
 70
0
  0
VERTEX
  8
CURVE
 62
7
  6
CONTINUOUS
 10
62.1714457603
 20
191.0850298756
  0
VERTEX
  8
CURVE
 62
7
  6
CONTINUOUS
 10
62.3611792235
 20
191.1306317089
  0
VERTEX
  8
CURVE
 62
7
  6
CONTINUOUS
 10
62.4207197401
 20
191.1444658244
  0
VERTEX
  8
CURVE
 62
7
  6
CONTINUOUS
 10
62.4866755464
 20
191.1592157784
  0
VERTEX
  8
CURVE
 62
7
  6
CONTINUOUS
 10
62.5597520599
 20
191.1747056528
  0
VERTEX
  8
CURVE
 62
7
  6
CONTINUOUS
 10
62.6396833934
 20
191.1904719796
  0
VERTEX
  8
CURVE
 62
7
  6
CONTINUOUS
 10
62.7256696533
 20
191.2059106906
  0
VERTEX
  8
CURVE
 62
7
  6
CONTINUOUS
 10
62.8166145616
 20
191.220380156
  0
VERTEX
  8
CURVE
 62
7
  6
CONTINUOUS
 10
62.9112290757
 20
191.2332733112
  0
VERTEX
  8
CURVE
 62
7
  6
CONTINUOUS
 10
63.0080178522
 20
191.2440690201
  0
VERTEX
  8
CURVE
 62
7
  6
CONTINUOUS
 10
63.1052698446
 20
191.2523851459
  0
VERTEX
  8
CURVE
 62
7
  6
CONTINUOUS
 10
63.2010607008
 20
191.258027512
  0
VERTEX
  8
CURVE
 62
7
  6
CONTINUOUS
 10
63.2933807015
 20
191.2610281292
  0
VERTEX
  8
CURVE
 62
7
  6
CONTINUOUS
 10
63.3618136007
 20
191.2616939006
  0
SEQEND
  0
POLYLINE
  8
CURVE
 62
7
  6
CONTINUOUS
 66
1
 70
0
  0
VERTEX
  8
CURVE
 62
7
  6
CONTINUOUS
 10
52.9418253201
 20
199.8331164705
  0
VERTEX
  8
CURVE
 62
7
  6
CONTINUOUS
 10
52.928494034
 20
199.8330224452
  0
VERTEX
  8
CURVE
 62
7
  6
CONTINUOUS
 10
52.8867038827
 20
199.8315235937
  0
VERTEX
  8
CURVE
 62
7
  6
CONTINUOUS
 10
52.8478521052
 20
199.8285358523
  0
VERTEX
  8
CURVE
 62
7
  6
CONTINUOUS
 10
52.8107575146
 20
199.8243105728
  0
VERTEX
  8
CURVE
 62
7
  6
CONTINUOUS
 10
52.7743956599
 20
199.8189398757
  0
VERTEX
  8
CURVE
 62
7
  6
CONTINUOUS
 10
52.7385356364
 20
199.8125455181
  0
VERTEX
  8
CURVE
 62
7
  6
CONTINUOUS
 10
52.7033199663
 20
199.8053209607
  0
VERTEX
  8
CURVE
 62
7
  6
CONTINUOUS
 10
52.668615051
 20
199.7974117362
  0
VERTEX
  8
CURVE
 62
7
  6
CONTINUOUS
 10
52.6339720187
 20
199.7888739401
  0
VERTEX
  8
CURVE
 62
7
  6
CONTINUOUS
 10
52.5985128763
 20
199.7796127042
  0
VERTEX
  8
CURVE
 62
7
  6
CONTINUOUS
 10
52.5617781801
 20
199.7696026795
  0
VERTEX
  8
CURVE
 62
7
  6
CONTINUOUS
 10
52.523136175
 20
199.7587603704
  0
SEQEND
  0
POLYLINE
  8
CURVE
 62
7
  6
CONTINUOUS
 66
1
 70
0
  0
VERTEX
  8
CURVE
 62
7
  6
CONTINUOUS
 10
65.4910998283
 20
199.8331164405
  0
VERTEX
  8
CURVE
 62
7
  6
CONTINUOUS
 10
65.4819963224
 20
199.8330640549
  0
VERTEX
  8
CURVE
 62
7
  6
CONTINUOUS
 10
65.4483333314
 20
199.8320070296
  0
VERTEX
  8
CURVE
 62
7
  6
CONTINUOUS
 10
65.4154033216
 20
199.829714035
  0
VERTEX
  8
CURVE
 62
7
  6
CONTINUOUS
 10
65.3833290806
 20
199.8263682445
  0
VERTEX
  8
CURVE
 62
7
  6
CONTINUOUS
 10
65.3520274871
 20
199.8221424409
  0
VERTEX
  8
CURVE
 62
7
  6
CONTINUOUS
 10
65.3212919023
 20
199.8171848154
  0
VERTEX
  8
CURVE
 62
7
  6
CONTINUOUS
 10
65.2904126433
 20
199.8115241288
  0
VERTEX
  8
CURVE
 62
7
  6
CONTINUOUS
 10
65.2588695488
 20
199.8051706257
  0
VERTEX
  8
CURVE
 62
7
  6
CONTINUOUS
 10
65.2259602965
 20
199.7980696947
  0
VERTEX
  8
CURVE
 62
7
  6
CONTINUOUS
 10
65.1908415961
 20
199.7901027045
  0
VERTEX
  8
CURVE
 62
7
  6
CONTINUOUS
 10
65.152864483
 20
199.7811850107
  0
SEQEND
  0
POLYLINE
  8
0
 62
7
  6
CONTINUOUS
 66
1
 70
0
  0
VERTEX
  8
0
 62
7
  6
CONTINUOUS
 10
91.0418256019
 20
199.8331164688
  0
VERTEX
  8
0
 62
7
  6
CONTINUOUS
 10
91.0312205813
 20
199.8330569546
  0
VERTEX
  8
0
 62
7
  6
CONTINUOUS
 10
90.9891319486
 20
199.8316599212
  0
VERTEX
  8
0
 62
7
  6
CONTINUOUS
 10
90.950078228
 20
199.8287474075
  0
VERTEX
  8
0
 62
7
  6
CONTINUOUS
 10
90.9128344608
 20
199.8245813512
  0
VERTEX
  8
0
 62
7
  6
CONTINUOUS
 10
90.8763242014
 20
199.8192538557
  0
VERTEX
  8
0
 62
7
  6
CONTINUOUS
 10
90.8403074947
 20
199.8128853115
  0
VERTEX
  8
0
 62
7
  6
CONTINUOUS
 10
90.8049737234
 20
199.8056793079
  0
VERTEX
  8
0
 62
7
  6
CONTINUOUS
 10
90.7701819948
 20
199.7977838328
  0
VERTEX
  8
0
 62
7
  6
CONTINUOUS
 10
90.7354973123
 20
199.7892613865
  0
VERTEX
  8
0
 62
7
  6
CONTINUOUS
 10
90.7000371032
 20
199.7800199035
  0
VERTEX
  8
0
 62
7
  6
CONTINUOUS
 10
90.6633181187
 20
199.7700289705
  0
VERTEX
  8
0
 62
7
  6
CONTINUOUS
 10
90.6247278774
 20
199.7592116848
  0
SEQEND
  0
POLYLINE
  8
0
 62
7
  6
CONTINUOUS
 66
1
 70
0
  0
VERTEX
  8
0
 62
7
  6
CONTINUOUS
 10
78.1911093252
 20
199.8331164398
  0
VERTEX
  8
0
 62
7
  6
CONTINUOUS
 10
78.1842390852
 20
199.8330863478
  0
VERTEX
  8
0
 62
7
  6
CONTINUOUS
 10
78.1503890323
 20
199.8321096861
  0
VERTEX
  8
0
 62
7
  6
CONTINUOUS
 10
78.1172627897
 20
199.8298752013
  0
VERTEX
  8
0
 62
7
  6
CONTINUOUS
 10
78.0850109397
 20
199.826569375
  0
VERTEX
  8
0
 62
7
  6
CONTINUOUS
 10
78.0535463428
 20
199.8223676954
  0
VERTEX
  8
0
 62
7
  6
CONTINUOUS
 10
78.0226953481
 20
199.8174268402
  0
VERTEX
  8
0
 62
7
  6
CONTINUOUS
 10
77.9917549798
 20
199.8117826646
  0
VERTEX
  8
0
 62
7
  6
CONTINUOUS
 10
77.9601813319
 20
199.805444578
  0
VERTEX
  8
0
 62
7
  6
CONTINUOUS
 10
77.9273007599
 20
199.7983666315
  0
VERTEX
  8
0
 62
7
  6
CONTINUOUS
 10
77.8922370194
 20
199.7904252674
  0
VERTEX
  8
0
 62
7
  6
CONTINUOUS
 10
77.8543486137
 20
199.7815377216
  0
SEQEND
  0
LINE
  8
0
 62
7
  6
CONTINUOUS
 10
89.3606529259
 20
199.5330689297
 11
88.7637349189
 21
199.5330689297
  0
LINE
  8
CURVE
 62
7
  6
CONTINUOUS
 10
51.2606529303
 20
199.5330689297
 11
50.6637349233
 21
199.5330689297
  0
LINE
  8
0
 62
7
  6
CONTINUOUS
 10
76.6625742479
 20
199.6045396106
 11
76.0618135983
 21
199.6045396106
  0
LINE
  8
CURVE
 62
7
  6
CONTINUOUS
 10
63.9625742509
 20
199.6045396106
 11
63.3618136013
 21
199.6045396106
  0
LINE
  8
0
 62
7
  6
CONTINUOUS
 10
36.1121939246
 20
199.8331166519
 11
40.4121939246
 21
199.8331166519
  0
LINE
  8
CURVE
 62
7
  6
CONTINUOUS
 10
31.9721939246
 20
199.8331166519
 11
70.3132714027
 21
199.8331166519
  0
LINE
  8
0
 62
7
  6
CONTINUOUS
 10
70.1081007974
 20
199.8331166519
 11
108.0521939246
 21
199.8331166519
  0
LINE
  8
CURVE
 62
7
  6
CONTINUOUS
 10
65.4912315443
 20
199.8331166175
 11
65.4910998282
 21
199.8331166047
  0
POLYLINE
  8
0
 62
7
  6
CONTINUOUS
 66
1
 70
0
  0
VERTEX
  8
0
 62
7
  6
CONTINUOUS
 10
76.0618135983
 20
199.6045394784
  0
VERTEX
  8
0
 62
7
  6
CONTINUOUS
 10
75.9934170566
 20
199.6052044504
  0
VERTEX
  8
0
 62
7
  6
CONTINUOUS
 10
75.9011588276
 20
199.6082013235
  0
VERTEX
  8
0
 62
7
  6
CONTINUOUS
 10
75.8054422913
 20
199.6138356789
  0
VERTEX
  8
0
 62
7
  6
CONTINUOUS
 10
75.708260462
 20
199.6221403265
  0
VERTEX
  8
0
 62
7
  6
CONTINUOUS
 10
75.6115267716
 20
199.6329230097
  0
VERTEX
  8
0
 62
7
  6
CONTINUOUS
 10
75.5169429067
 20
199.64580453
  0
VERTEX
  8
0
 62
7
  6
CONTINUOUS
 10
75.4259975285
 20
199.6602669595
  0
VERTEX
  8
0
 62
7
  6
CONTINUOUS
 10
75.3399829426
 20
199.6757047515
  0
VERTEX
  8
0
 62
7
  6
CONTINUOUS
 10
75.2600090079
 20
199.6914749264
  0
VERTEX
  8
0
 62
7
  6
CONTINUOUS
 10
75.186887643
 20
199.7069711791
  0
VERTEX
  8
0
 62
7
  6
CONTINUOUS
 10
75.1208952722
 20
199.7217273662
  0
VERTEX
  8
0
 62
7
  6
CONTINUOUS
 10
75.0613286941
 20
199.7355663526
  0
SEQEND
  0
POLYLINE
  8
CURVE
 62
7
  6
CONTINUOUS
 66
1
 70
0
  0
VERTEX
  8
CURVE
 62
7
  6
CONTINUOUS
 10
63.3618136013
 20
199.6045394034
  0
VERTEX
  8
CURVE
 62
7
  6
CONTINUOUS
 10
63.2917924937
 20
199.6052364102
  0
VERTEX
  8
CURVE
 62
7
  6
CONTINUOUS
 10
63.1993172821
 20
199.608285575
  0
VERTEX
  8
CURVE
 62
7
  6
CONTINUOUS
 10
63.1033203208
 20
199.6139894531
  0
VERTEX
  8
CURVE
 62
7
  6
CONTINUOUS
 10
63.0058588451
 20
199.6223779981
  0
VERTEX
  8
CURVE
 62
7
  6
CONTINUOUS
 10
62.908898934
 20
199.633250155
  0
VERTEX
  8
CURVE
 62
7
  6
CONTINUOUS
 10
62.8141865863
 20
199.6462135124
  0
VERTEX
  8
CURVE
 62
7
  6
CONTINUOUS
 10
62.7232430187
 20
199.6607354563
  0
VERTEX
  8
CURVE
 62
7
  6
CONTINUOUS
 10
62.6373500749
 20
199.6762028624
  0
VERTEX
  8
CURVE
 62
7
  6
CONTINUOUS
 10
62.5575630959
 20
199.6919773422
  0
VERTEX
  8
CURVE
 62
7
  6
CONTINUOUS
 10
62.4846444728
 20
199.7074614828
  0
VERTEX
  8
CURVE
 62
7
  6
CONTINUOUS
 10
62.4188270675
 20
199.7222002852
  0
VERTEX
  8
CURVE
 62
7
  6
CONTINUOUS
 10
62.3594020426
 20
199.7360208289
  0
VERTEX
  8
CURVE
 62
7
  6
CONTINUOUS
 10
62.305523693
 20
199.7488658288
  0
SEQEND
  0
POLYLINE
  8
0
 62
7
  6
CONTINUOUS
 66
1
 70
0
  0
VERTEX
  8
0
 62
7
  6
CONTINUOUS
 10
88.7637349189
 20
199.5330687384
  0
VERTEX
  8
0
 62
7
  6
CONTINUOUS
 10
88.690183652
 20
199.5339601454
  0
VERTEX
  8
0
 62
7
  6
CONTINUOUS
 10
88.5994058796
 20
199.5375083044
  0
VERTEX
  8
0
 62
7
  6
CONTINUOUS
 10
88.5078491322
 20
199.5437960417
  0
VERTEX
  8
0
 62
7
  6
CONTINUOUS
 10
88.4143956296
 20
199.5529638392
  0
VERTEX
  8
0
 62
7
  6
CONTINUOUS
 10
88.3180578858
 20
199.5652378916
  0
VERTEX
  8
0
 62
7
  6
CONTINUOUS
 10
88.2181256796
 20
199.5808779578
  0
VERTEX
  8
0
 62
7
  6
CONTINUOUS
 10
88.1177430551
 20
199.5994135106
  0
VERTEX
  8
0
 62
7
  6
CONTINUOUS
 10
88.0273637621
 20
199.618365336
  0
VERTEX
  8
0
 62
7
  6
CONTINUOUS
 10
87.946807516
 20
199.6369233082
  0
VERTEX
  8
0
 62
7
  6
CONTINUOUS
 10
87.8739579401
 20
199.6549336323
  0
VERTEX
  8
0
 62
7
  6
CONTINUOUS
 10
87.8070043137
 20
199.6724001076
  0
VERTEX
  8
0
 62
7
  6
CONTINUOUS
 10
87.7450350873
 20
199.6892368641
  0
VERTEX
  8
0
 62
7
  6
CONTINUOUS
 10
87.6878841647
 20
199.7052288184
  0
SEQEND
  0
POLYLINE
  8
CURVE
 62
7
  6
CONTINUOUS
 66
1
 70
0
  0
VERTEX
  8
CURVE
 62
7
  6
CONTINUOUS
 10
50.6637349233
 20
199.5330686415
  0
VERTEX
  8
CURVE
 62
7
  6
CONTINUOUS
 10
50.5887708302
 20
199.5339946269
  0
VERTEX
  8
CURVE
 62
7
  6
CONTINUOUS
 10
50.4978970558
 20
199.5375899169
  0
VERTEX
  8
CURVE
 62
7
  6
CONTINUOUS
 10
50.4061633323
 20
199.5439369931
  0
VERTEX
  8
CURVE
 62
7
  6
CONTINUOUS
 10
50.3125216857
 20
199.5531755772
  0
VERTEX
  8
CURVE
 62
7
  6
CONTINUOUS
 10
50.2160471011
 20
199.5655238869
  0
VERTEX
  8
CURVE
 62
7
  6
CONTINUOUS
 10
50.1160802557
 20
199.581228026
  0
VERTEX
  8
CURVE
 62
7
  6
CONTINUOUS
 10
50.0155487607
 20
199.5998489929
  0
VERTEX
  8
CURVE
 62
7
  6
CONTINUOUS
 10
49.9250944865
 20
199.6188673639
  0
VERTEX
  8
CURVE
 62
7
  6
CONTINUOUS
 10
49.8445442536
 20
199.6374659053
  0
VERTEX
  8
CURVE
 62
7
  6
CONTINUOUS
 10
49.7717274488
 20
199.6555020423
  0
VERTEX
  8
CURVE
 62
7
  6
CONTINUOUS
 10
49.7047990754
 20
199.6729889444
  0
VERTEX
  8
CURVE
 62
7
  6
CONTINUOUS
 10
49.6428501591
 20
199.6898407855
  0
VERTEX
  8
CURVE
 62
7
  6
CONTINUOUS
 10
49.585715118
 20
199.7058429393
  0
SEQEND
  0
LINE
  8
0
 62
7
  6
CONTINUOUS
 10
108.0521939246
 20
199.8331166519
 11
112.3476271111
 21
199.4573149431
  0
POLYLINE
  8
0
 62
7
  6
CONTINUOUS
 66
1
 70
0
  0
VERTEX
  8
0
 62
7
  6
CONTINUOUS
 10
87.5014982597
 20
199.7586904242
  0
VERTEX
  8
0
 62
7
  6
CONTINUOUS
 10
87.4628763676
 20
199.7695287962
  0
VERTEX
  8
0
 62
7
  6
CONTINUOUS
 10
87.4261552678
 20
199.7795377469
  0
VERTEX
  8
0
 62
7
  6
CONTINUOUS
 10
87.3907020272
 20
199.788801125
  0
VERTEX
  8
0
 62
7
  6
CONTINUOUS
 10
87.3560593473
 20
199.7973435518
  0
VERTEX
  8
0
 62
7
  6
CONTINUOUS
 10
87.3213479781
 20
199.805260087
  0
VERTEX
  8
0
 62
7
  6
CONTINUOUS
 10
87.2860999105
 20
199.812497826
  0
VERTEX
  8
0
 62
7
  6
CONTINUOUS
 10
87.250172136
 20
199.8189104189
  0
VERTEX
  8
0
 62
7
  6
CONTINUOUS
 10
87.2137372589
 20
199.8242965236
  0
VERTEX
  8
0
 62
7
  6
CONTINUOUS
 10
87.1766134225
 20
199.8285283818
  0
VERTEX
  8
0
 62
7
  6
CONTINUOUS
 10
87.1377580391
 20
199.8315193398
  0
VERTEX
  8
0
 62
7
  6
CONTINUOUS
 10
87.0959554723
 20
199.8330215741
  0
VERTEX
  8
0
 62
7
  6
CONTINUOUS
 10
87.0825626589
 20
199.8331164705
  0
SEQEND
  0
LINE
  8
0
 62
7
  6
CONTINUOUS
 10
87.6878841647
 20
199.7052288184
 11
87.5014982597
 21
199.7586904242
  0
LINE
  8
0
 62
7
  6
CONTINUOUS
 10
104.7621939246
 20
191.8831166519
 11
104.7621939246
 21
198.9831166519
  0
LINE
  8
0
 62
7
  6
CONTINUOUS
 10
105.4621937296
 20
195.0331199101
 11
105.4621937296
 21
195.8331133936
  0
POLYLINE
  8
0
 62
7
  6
CONTINUOUS
 66
1
 70
0
  0
VERTEX
  8
0
 62
7
  6
CONTINUOUS
 10
77.8543486137
 20
199.7815377216
  0
VERTEX
  8
0
 62
7
  6
CONTINUOUS
 10
77.6649858065
 20
199.7360208289
  0
VERTEX
  8
0
 62
7
  6
CONTINUOUS
 10
77.6055607817
 20
199.7222002852
  0
VERTEX
  8
0
 62
7
  6
CONTINUOUS
 10
77.5397433764
 20
199.7074614828
  0
VERTEX
  8
0
 62
7
  6
CONTINUOUS
 10
77.4668247533
 20
199.6919773422
  0
VERTEX
  8
0
 62
7
  6
CONTINUOUS
 10
77.3870377743
 20
199.6762028624
  0
VERTEX
  8
0
 62
7
  6
CONTINUOUS
 10
77.3011448305
 20
199.6607354563
  0
VERTEX
  8
0
 62
7
  6
CONTINUOUS
 10
77.2102012629
 20
199.6462135124
  0
VERTEX
  8
0
 62
7
  6
CONTINUOUS
 10
77.1154889151
 20
199.633250155
  0
VERTEX
  8
0
 62
7
  6
CONTINUOUS
 10
77.018529004
 20
199.6223779981
  0
VERTEX
  8
0
 62
7
  6
CONTINUOUS
 10
76.9210675284
 20
199.6139894531
  0
VERTEX
  8
0
 62
7
  6
CONTINUOUS
 10
76.825070567
 20
199.608285575
  0
VERTEX
  8
0
 62
7
  6
CONTINUOUS
 10
76.7325953555
 20
199.6052364102
  0
VERTEX
  8
0
 62
7
  6
CONTINUOUS
 10
76.6625742479
 20
199.6045394034
  0
SEQEND
  0
LINE
  8
CURVE
 62
7
  6
CONTINUOUS
 10
27.6767607381
 20
199.4573149431
 11
31.9721939246
 21
199.8331166519
  0
POLYLINE
  8
CURVE
 62
7
  6
CONTINUOUS
 66
1
 70
0
  0
VERTEX
  8
CURVE
 62
7
  6
CONTINUOUS
 10
65.152864483
 20
199.7811850107
  0
VERTEX
  8
CURVE
 62
7
  6
CONTINUOUS
 10
64.9630591551
 20
199.7355663526
  0
VERTEX
  8
CURVE
 62
7
  6
CONTINUOUS
 10
64.903492577
 20
199.7217273662
  0
VERTEX
  8
CURVE
 62
7
  6
CONTINUOUS
 10
64.8375002062
 20
199.7069711791
  0
VERTEX
  8
CURVE
 62
7
  6
CONTINUOUS
 10
64.7643788412
 20
199.6914749264
  0
VERTEX
  8
CURVE
 62
7
  6
CONTINUOUS
 10
64.6844049066
 20
199.6757047515
  0
VERTEX
  8
CURVE
 62
7
  6
CONTINUOUS
 10
64.5983903207
 20
199.6602669595
  0
VERTEX
  8
CURVE
 62
7
  6
CONTINUOUS
 10
64.5074449424
 20
199.64580453
  0
VERTEX
  8
CURVE
 62
7
  6
CONTINUOUS
 10
64.4128610775
 20
199.6329230097
  0
VERTEX
  8
CURVE
 62
7
  6
CONTINUOUS
 10
64.3161273872
 20
199.6221403265
  0
VERTEX
  8
CURVE
 62
7
  6
CONTINUOUS
 10
64.2189455579
 20
199.6138356789
  0
VERTEX
  8
CURVE
 62
7
  6
CONTINUOUS
 10
64.1232290216
 20
199.6082013235
  0
VERTEX
  8
CURVE
 62
7
  6
CONTINUOUS
 10
64.0309707926
 20
199.6052044504
  0
VERTEX
  8
CURVE
 62
7
  6
CONTINUOUS
 10
63.9625742509
 20
199.6045394784
  0
SEQEND
  0
LINE
  8
0
 62
7
  6
CONTINUOUS
 10
112.4921939246
 20
191.8831179722
 11
112.4921939246
 21
198.9831157096
  0
POLYLINE
  8
CURVE
 62
7
  6
CONTINUOUS
 66
1
 70
0
  0
VERTEX
  8
CURVE
 62
7
  6
CONTINUOUS
 10
27.6767607381
 20
126.2251573602
  0
VERTEX
  8
CURVE
 62
7
  6
CONTINUOUS
 10
27.6816769371
 20
125.9910562994
  0
VERTEX
  8
CURVE
 62
7
  6
CONTINUOUS
 10
27.6948242502
 20
125.7826734358
  0
VERTEX
  8
CURVE
 62
7
  6
CONTINUOUS
 10
27.7145591164
 20
125.5977358956
  0
VERTEX
  8
CURVE
 62
7
  6
CONTINUOUS
 10
27.7398215467
 20
125.4339829334
  0
VERTEX
  8
CURVE
 62
7
  6
CONTINUOUS
 10
27.7698003233
 20
125.2894999308
  0
VERTEX
  8
CURVE
 62
7
  6
CONTINUOUS
 10
27.8040839314
 20
125.1616491559
  0
VERTEX
  8
CURVE
 62
7
  6
CONTINUOUS
 10
27.8424897409
 20
125.0482893432
  0
VERTEX
  8
CURVE
 62
7
  6
CONTINUOUS
 10
27.884357637
 20
124.9492028531
  0
VERTEX
  8
CURVE
 62
7
  6
CONTINUOUS
 10
27.9292652405
 20
124.863451006
  0
VERTEX
  8
CURVE
 62
7
  6
CONTINUOUS
 10
27.9771787285
 20
124.7897416658
  0
VERTEX
  8
CURVE
 62
7
  6
CONTINUOUS
 10
28.0283771226
 20
124.7270191794
  0
VERTEX
  8
CURVE
 62
7
  6
CONTINUOUS
 10
28.0809342231
 20
124.676783075
  0
VERTEX
  8
CURVE
 62
7
  6
CONTINUOUS
 10
28.1328562879
 20
124.639149114
  0
VERTEX
  8
CURVE
 62
7
  6
CONTINUOUS
 10
28.1831468077
 20
124.6127450568
  0
VERTEX
  8
CURVE
 62
7
  6
CONTINUOUS
 10
28.2316374825
 20
124.5958422216
  0
VERTEX
  8
CURVE
 62
7
  6
CONTINUOUS
 10
28.2802717866
 20
124.5868195144
  0
VERTEX
  8
CURVE
 62
7
  6
CONTINUOUS
 10
28.3305106961
 20
124.5855276987
  0
VERTEX
  8
CURVE
 62
7
  6
CONTINUOUS
 10
28.3821939246
 20
124.5925849048
  0
SEQEND
  0
LINE
  8
CURVE
 62
7
  6
CONTINUOUS
 10
27.5321939246
 20
122.6751573869
 11
27.5321939246
 21
141.0051573869
  0
LINE
  8
CURVE
 62
7
  6
CONTINUOUS
 10
27.6767607381
 20
126.2251573602
 11
27.6767607381
 21
137.455157387
  0
LINE
  8
CURVE
 62
7
  6
CONTINUOUS
 10
31.9721939246
 20
137.4551573869
 11
31.9721939246
 21
126.2251573869
  0
LINE
  8
CURVE
 62
7
  6
CONTINUOUS
 10
34.5621941195
 20
117.2051573869
 11
34.5621941195
 21
116.4051573869
  0
POLYLINE
  8
CURVE
 62
7
  6
CONTINUOUS
 66
1
 70
0
  0
VERTEX
  8
CURVE
 62
7
  6
CONTINUOUS
 10
31.9721939246
 20
126.2251573869
  0
VERTEX
  8
CURVE
 62
7
  6
CONTINUOUS
 10
31.9677394915
 20
126.1665970142
  0
VERTEX
  8
CURVE
 62
7
  6
CONTINUOUS
 10
31.9538782505
 20
126.106419549
  0
VERTEX
  8
CURVE
 62
7
  6
CONTINUOUS
 10
31.9290320061
 20
126.0429045081
  0
VERTEX
  8
CURVE
 62
7
  6
CONTINUOUS
 10
31.8908817305
 20
125.975054068
  0
VERTEX
  8
CURVE
 62
7
  6
CONTINUOUS
 10
31.8375873754
 20
125.903451112
  0
VERTEX
  8
CURVE
 62
7
  6
CONTINUOUS
 10
31.7679640592
 20
125.8290294228
  0
VERTEX
  8
CURVE
 62
7
  6
CONTINUOUS
 10
31.6810398312
 20
125.752388153
  0
VERTEX
  8
CURVE
 62
7
  6
CONTINUOUS
 10
31.5760370421
 20
125.6739768214
  0
VERTEX
  8
CURVE
 62
7
  6
CONTINUOUS
 10
31.4519741591
 20
125.5939317074
  0
VERTEX
  8
CURVE
 62
7
  6
CONTINUOUS
 10
31.3078449641
 20
125.5123431474
  0
VERTEX
  8
CURVE
 62
7
  6
CONTINUOUS
 10
31.1423492461
 20
125.4291507502
  0
VERTEX
  8
CURVE
 62
7
  6
CONTINUOUS
 10
30.9540756664
 20
125.3442968148
  0
VERTEX
  8
CURVE
 62
7
  6
CONTINUOUS
 10
30.7413730703
 20
125.2576793928
  0
VERTEX
  8
CURVE
 62
7
  6
CONTINUOUS
 10
30.5023625738
 20
125.1691804935
  0
VERTEX
  8
CURVE
 62
7
  6
CONTINUOUS
 10
30.2349901532
 20
125.0786958894
  0
VERTEX
  8
CURVE
 62
7
  6
CONTINUOUS
 10
29.9368939482
 20
124.9860970358
  0
VERTEX
  8
CURVE
 62
7
  6
CONTINUOUS
 10
29.6055585149
 20
124.891290113
  0
VERTEX
  8
CURVE
 62
7
  6
CONTINUOUS
 10
29.2381136302
 20
124.7941605529
  0
VERTEX
  8
CURVE
 62
7
  6
CONTINUOUS
 10
28.831451936
 20
124.6946168505
  0
VERTEX
  8
CURVE
 62
7
  6
CONTINUOUS
 10
28.3821939246
 20
124.5925849048
  0
SEQEND
  0
POLYLINE
  8
CURVE
 62
7
  6
CONTINUOUS
 66
1
 70
0
  0
VERTEX
  8
CURVE
 62
7
  6
CONTINUOUS
 10
35.2621939246
 20
118.8251573869
  0
VERTEX
  8
CURVE
 62
7
  6
CONTINUOUS
 10
35.2531127208
 20
119.0576711132
  0
VERTEX
  8
CURVE
 62
7
  6
CONTINUOUS
 10
35.2258265383
 20
119.2901069524
  0
VERTEX
  8
CURVE
 62
7
  6
CONTINUOUS
 10
35.1805158381
 20
119.5200161078
  0
VERTEX
  8
CURVE
 62
7
  6
CONTINUOUS
 10
35.1177381515
 20
119.7448073761
  0
VERTEX
  8
CURVE
 62
7
  6
CONTINUOUS
 10
35.0379841557
 20
119.9630842419
  0
VERTEX
  8
CURVE
 62
7
  6
CONTINUOUS
 10
34.9410530058
 20
120.1753964236
  0
VERTEX
  8
CURVE
 62
7
  6
CONTINUOUS
 10
34.8274698422
 20
120.3803602142
  0
VERTEX
  8
CURVE
 62
7
  6
CONTINUOUS
 10
34.698479047
 20
120.5756352305
  0
VERTEX
  8
CURVE
 62
7
  6
CONTINUOUS
 10
34.5555213743
 20
120.759233189
  0
SEQEND
  0
LINE
  8
CURVE
 62
7
  6
CONTINUOUS
 10
34.9121939246
 20
127.2351573869
 11
34.9121939246
 21
141.0051573869
  0
LINE
  8
CURVE
 62
7
  6
CONTINUOUS
 10
35.2621939246
 20
108.2051573869
 11
35.2621939246
 21
120.4729207821
  0
LINE
  8
CURVE
 62
7
  6
CONTINUOUS
 10
35.6121939246
 20
132.8051573869
 11
35.6121939246
 21
132.0051573869
  0
POLYLINE
  8
CURVE
 62
7
  6
CONTINUOUS
 66
1
 70
0
  0
VERTEX
  8
CURVE
 62
7
  6
CONTINUOUS
 10
43.4921939246
 20
128.0051250215
  0
VERTEX
  8
CURVE
 62
7
  6
CONTINUOUS
 10
43.4968498304
 20
127.916279083
  0
VERTEX
  8
CURVE
 62
7
  6
CONTINUOUS
 10
43.5107667016
 20
127.8284063892
  0
VERTEX
  8
CURVE
 62
7
  6
CONTINUOUS
 10
43.5337923021
 20
127.7424696482
  0
VERTEX
  8
CURVE
 62
7
  6
CONTINUOUS
 10
43.5656745717
 20
127.6594104262
  0
VERTEX
  8
CURVE
 62
7
  6
CONTINUOUS
 10
43.6060643676
 20
127.580138816
  0
VERTEX
  8
CURVE
 62
7
  6
CONTINUOUS
 10
43.6545192781
 20
127.5055234451
  0
VERTEX
  8
CURVE
 62
7
  6
CONTINUOUS
 10
43.7105084633
 20
127.4363819362
  0
VERTEX
  8
CURVE
 62
7
  6
CONTINUOUS
 10
43.7734184739
 20
127.3734719256
  0
VERTEX
  8
CURVE
 62
7
  6
CONTINUOUS
 10
43.8425599827
 20
127.3174827404
  0
VERTEX
  8
CURVE
 62
7
  6
CONTINUOUS
 10
43.9171753537
 20
127.2690278299
  0
VERTEX
  8
CURVE
 62
7
  6
CONTINUOUS
 10
43.9964469639
 20
127.228638034
  0
VERTEX
  8
CURVE
 62
7
  6
CONTINUOUS
 10
44.0795061859
 20
127.1967557645
  0
VERTEX
  8
CURVE
 62
7
  6
CONTINUOUS
 10
44.1654429268
 20
127.1737301639
  0
VERTEX
  8
CURVE
 62
7
  6
CONTINUOUS
 10
44.2533156207
 20
127.1598132927
  0
VERTEX
  8
CURVE
 62
7
  6
CONTINUOUS
 10
44.3421615592
 20
127.1551573869
  0
SEQEND
  0
LINE
  8
CURVE
 62
7
  6
CONTINUOUS
 10
43.4823740506
 20
134.9612672028
 11
43.4788881634
 21
135.1991367744
  0
LINE
  8
CURVE
 62
7
  6
CONTINUOUS
 10
43.4788881634
 20
135.1991367744
 11
43.4758277223
 21
135.5043392333
  0
LINE
  8
CURVE
 62
7
  6
CONTINUOUS
 10
43.4758277223
 20
135.5043392333
 11
43.4732905665
 21
135.8671148875
  0
LINE
  8
CURVE
 62
7
  6
CONTINUOUS
 10
43.4732905665
 20
135.8671148875
 11
43.4713577983
 21
136.2758641152
  0
LINE
  8
CURVE
 62
7
  6
CONTINUOUS
 10
43.4713577983
 20
136.2758641152
 11
43.4700911949
 21
136.7175184822
  0
LINE
  8
CURVE
 62
7
  6
CONTINUOUS
 10
43.4700911949
 20
136.7175184822
 11
43.4695312832
 21
137.1778523937
  0
LINE
  8
0
 62
7
  6
CONTINUOUS
 10
39.3221939246
 20
108.2051573869
 11
39.3221939246
 21
117.4873433216
  0
LINE
  8
0
 62
7
  6
CONTINUOUS
 10
41.2621939246
 20
117.8051573869
 11
41.2621939246
 21
121.9751573869
  0
LINE
  8
CURVE
 62
7
  6
CONTINUOUS
 10
41.6121939246
 20
141.0051554044
 11
41.6121939246
 21
127.2351573869
  0
LINE
  8
CURVE
 62
7
  6
CONTINUOUS
 10
43.4921939246
 20
128.0051250215
 11
43.4921939246
 21
134.7051573869
  0
POLYLINE
  8
CURVE
 62
7
  6
CONTINUOUS
 66
1
 70
0
  0
VERTEX
  8
CURVE
 62
7
  6
CONTINUOUS
 10
43.479087028
 20
137.3051573869
  0
VERTEX
  8
CURVE
 62
7
  6
CONTINUOUS
 10
43.473769282
 20
137.2628932028
  0
VERTEX
  8
CURVE
 62
7
  6
CONTINUOUS
 10
43.4705819009
 20
137.2204204697
  0
VERTEX
  8
CURVE
 62
7
  6
CONTINUOUS
 10
43.4695312832
 20
137.1778523937
  0
SEQEND
  0
POLYLINE
  8
CURVE
 62
7
  6
CONTINUOUS
 66
1
 70
0
  0
VERTEX
  8
CURVE
 62
7
  6
CONTINUOUS
 10
45.754856566
 20
137.1778523937
  0
VERTEX
  8
CURVE
 62
7
  6
CONTINUOUS
 10
45.7538059187
 20
137.2204210616
  0
VERTEX
  8
CURVE
 62
7
  6
CONTINUOUS
 10
45.750618504
 20
137.2628938314
  0
VERTEX
  8
CURVE
 62
7
  6
CONTINUOUS
 10
45.7453008211
 20
137.3051573869
  0
SEQEND
  0
LINE
  8
CURVE
 62
7
  6
CONTINUOUS
 10
45.7321939246
 20
134.7051573869
 11
45.7321939246
 21
128.0051250215
  0
LINE
  8
CURVE
 62
7
  6
CONTINUOUS
 10
47.6121939246
 20
127.2351573869
 11
47.6121939246
 21
141.0051573869
  0
LINE
  8
CURVE
 62
7
  6
CONTINUOUS
 10
47.9621939246
 20
121.9751573869
 11
47.9621939246
 21
108.2051573869
  0
LINE
  8
CURVE
 62
7
  6
CONTINUOUS
 10
45.7542966543
 20
136.7175184822
 11
45.754856566
 21
137.1778523937
  0
LINE
  8
CURVE
 62
7
  6
CONTINUOUS
 10
45.7530300508
 20
136.2758641152
 11
45.7542966543
 21
136.7175184822
  0
LINE
  8
CURVE
 62
7
  6
CONTINUOUS
 10
45.7510972827
 20
135.8671148875
 11
45.7530300508
 21
136.2758641152
  0
LINE
  8
CURVE
 62
7
  6
CONTINUOUS
 10
45.7485601268
 20
135.5043392333
 11
45.7510972827
 21
135.8671148875
  0
LINE
  8
CURVE
 62
7
  6
CONTINUOUS
 10
45.7454996857
 20
135.1991367744
 11
45.7485601268
 21
135.5043392333
  0
POLYLINE
  8
CURVE
 62
7
  6
CONTINUOUS
 66
1
 70
0
  0
VERTEX
  8
CURVE
 62
7
  6
CONTINUOUS
 10
45.7321939246
 20
134.7051573869
  0
VERTEX
  8
CURVE
 62
7
  6
CONTINUOUS
 10
45.7342215373
 20
134.7155594503
  0
VERTEX
  8
CURVE
 62
7
  6
CONTINUOUS
 10
45.7362339072
 20
134.7467027517
  0
VERTEX
  8
CURVE
 62
7
  6
CONTINUOUS
 10
45.7382139161
 20
134.7983377614
  0
VERTEX
  8
CURVE
 62
7
  6
CONTINUOUS
 10
45.7401457043
 20
134.8700507675
  0
VERTEX
  8
CURVE
 62
7
  6
CONTINUOUS
 10
45.7420137986
 20
134.9612672028
  0
VERTEX
  8
CURVE
 62
7
  6
CONTINUOUS
 10
45.7454996857
 20
135.1991367744
  0
SEQEND
  0
POLYLINE
  8
CURVE
 62
7
  6
CONTINUOUS
 66
1
 70
0
  0
VERTEX
  8
CURVE
 62
7
  6
CONTINUOUS
 10
34.5555213743
 20
120.759233189
  0
VERTEX
  8
CURVE
 62
7
  6
CONTINUOUS
 10
34.4094589619
 20
120.920191889
  0
VERTEX
  8
CURVE
 62
7
  6
CONTINUOUS
 10
34.2518132167
 20
121.0704484474
  0
VERTEX
  8
CURVE
 62
7
  6
CONTINUOUS
 10
34.0840338238
 20
121.2086211231
  0
VERTEX
  8
CURVE
 62
7
  6
CONTINUOUS
 10
33.9066732561
 20
121.3342615031
  0
VERTEX
  8
CURVE
 62
7
  6
CONTINUOUS
 10
33.7203114555
 20
121.4469524164
  0
VERTEX
  8
CURVE
 62
7
  6
CONTINUOUS
 10
33.5266646822
 20
121.5456561837
  0
VERTEX
  8
CURVE
 62
7
  6
CONTINUOUS
 10
33.3263688164
 20
121.6300544813
  0
VERTEX
  8
CURVE
 62
7
  6
CONTINUOUS
 10
33.1200771452
 20
121.6998664362
  0
VERTEX
  8
CURVE
 62
7
  6
CONTINUOUS
 10
32.9096893737
 20
121.7544490493
  0
VERTEX
  8
CURVE
 62
7
  6
CONTINUOUS
 10
32.6958982891
 20
121.7936279355
  0
VERTEX
  8
CURVE
 62
7
  6
CONTINUOUS
 10
32.479402852
 20
121.8172698492
  0
VERTEX
  8
CURVE
 62
7
  6
CONTINUOUS
 10
32.2621939246
 20
121.8251573869
  0
SEQEND
  0
POLYLINE
  8
CURVE
 62
7
  6
CONTINUOUS
 66
1
 70
0
  0
VERTEX
  8
CURVE
 62
7
  6
CONTINUOUS
 10
49.829087028
 20
111.9051573869
  0
VERTEX
  8
CURVE
 62
7
  6
CONTINUOUS
 10
49.8493557119
 20
111.8092192484
  0
VERTEX
  8
CURVE
 62
7
  6
CONTINUOUS
 10
49.8809960127
 20
111.71522548
  0
VERTEX
  8
CURVE
 62
7
  6
CONTINUOUS
 10
49.9238102576
 20
111.6248374362
  0
VERTEX
  8
CURVE
 62
7
  6
CONTINUOUS
 10
49.9776289823
 20
111.5392092986
  0
VERTEX
  8
CURVE
 62
7
  6
CONTINUOUS
 10
50.0414019812
 20
111.4604386634
  0
VERTEX
  8
CURVE
 62
7
  6
CONTINUOUS
 10
50.113938541
 20
111.3899720829
  0
VERTEX
  8
CURVE
 62
7
  6
CONTINUOUS
 10
50.1949618999
 20
111.3281913303
  0
VERTEX
  8
CURVE
 62
7
  6
CONTINUOUS
 10
50.2828258693
 20
111.2765137011
  0
VERTEX
  8
CURVE
 62
7
  6
CONTINUOUS
 10
50.3754818965
 20
111.2359735086
  0
VERTEX
  8
CURVE
 62
7
  6
CONTINUOUS
 10
50.4722903118
 20
111.2066876228
  0
VERTEX
  8
CURVE
 62
7
  6
CONTINUOUS
 10
50.5714359191
 20
111.1891195841
  0
VERTEX
  8
CURVE
 62
7
  6
CONTINUOUS
 10
50.6703635839
 20
111.1833594116
  0
SEQEND
  0
POLYLINE
  8
CURVE
 62
7
  6
CONTINUOUS
 66
1
 70
0
  0
VERTEX
  8
CURVE
 62
7
  6
CONTINUOUS
 10
43.4921939246
 20
134.7051573869
  0
VERTEX
  8
CURVE
 62
7
  6
CONTINUOUS
 10
43.4901663119
 20
134.7155594503
  0
VERTEX
  8
CURVE
 62
7
  6
CONTINUOUS
 10
43.488153942
 20
134.7467027517
  0
VERTEX
  8
CURVE
 62
7
  6
CONTINUOUS
 10
43.486173933
 20
134.7983377614
  0
VERTEX
  8
CURVE
 62
7
  6
CONTINUOUS
 10
43.4842421448
 20
134.8700507675
  0
VERTEX
  8
CURVE
 62
7
  6
CONTINUOUS
 10
43.4823740506
 20
134.9612672028
  0
SEQEND
  0
POLYLINE
  8
CURVE
 62
7
  6
CONTINUOUS
 66
1
 70
0
  0
VERTEX
  8
CURVE
 62
7
  6
CONTINUOUS
 10
52.0821939246
 20
121.2051897523
  0
VERTEX
  8
CURVE
 62
7
  6
CONTINUOUS
 10
52.0775375754
 20
121.2940399094
  0
VERTEX
  8
CURVE
 62
7
  6
CONTINUOUS
 10
52.0636197199
 20
121.3819151018
  0
VERTEX
  8
CURVE
 62
7
  6
CONTINUOUS
 10
52.0405930828
 20
121.4678527098
  0
VERTEX
  8
CURVE
 62
7
  6
CONTINUOUS
 10
52.0087101319
 20
121.5509114129
  0
VERTEX
  8
CURVE
 62
7
  6
CONTINUOUS
 10
51.9683202951
 20
121.630181477
  0
VERTEX
  8
CURVE
 62
7
  6
CONTINUOUS
 10
51.9198661186
 20
121.7047947043
  0
VERTEX
  8
CURVE
 62
7
  6
CONTINUOUS
 10
51.863878414
 20
121.7739339171
  0
VERTEX
  8
CURVE
 62
7
  6
CONTINUOUS
 10
51.8009704481
 20
121.8368418823
  0
VERTEX
  8
CURVE
 62
7
  6
CONTINUOUS
 10
51.7318312353
 20
121.8928295858
  0
VERTEX
  8
CURVE
 62
7
  6
CONTINUOUS
 10
51.6572180087
 20
121.9412837609
  0
VERTEX
  8
CURVE
 62
7
  6
CONTINUOUS
 10
51.5779479458
 20
121.9816735964
  0
VERTEX
  8
CURVE
 62
7
  6
CONTINUOUS
 10
51.4948892442
 20
122.0135565462
  0
VERTEX
  8
CURVE
 62
7
  6
CONTINUOUS
 10
51.4089516377
 20
122.0365831826
  0
VERTEX
  8
CURVE
 62
7
  6
CONTINUOUS
 10
51.3210764466
 20
122.0505010378
  0
VERTEX
  8
CURVE
 62
7
  6
CONTINUOUS
 10
51.23222629
 20
122.0551573869
  0
SEQEND
  0
POLYLINE
  8
CURVE
 62
7
  6
CONTINUOUS
 66
1
 70
0
  0
VERTEX
  8
CURVE
 62
7
  6
CONTINUOUS
 10
49.8195312832
 20
112.0324623801
  0
VERTEX
  8
CURVE
 62
7
  6
CONTINUOUS
 10
49.8205820929
 20
111.9898904516
  0
VERTEX
  8
CURVE
 62
7
  6
CONTINUOUS
 10
49.8237696626
 20
111.9474177798
  0
VERTEX
  8
CURVE
 62
7
  6
CONTINUOUS
 10
49.829087028
 20
111.9051573869
  0
SEQEND
  0
POLYLINE
  8
CURVE
 62
7
  6
CONTINUOUS
 66
1
 70
0
  0
VERTEX
  8
CURVE
 62
7
  6
CONTINUOUS
 10
52.0920137986
 20
114.2490475702
  0
VERTEX
  8
CURVE
 62
7
  6
CONTINUOUS
 10
52.0901457044
 20
114.3402640057
  0
VERTEX
  8
CURVE
 62
7
  6
CONTINUOUS
 10
52.0882139162
 20
114.4119770119
  0
VERTEX
  8
CURVE
 62
7
  6
CONTINUOUS
 10
52.0862339072
 20
114.4636120218
  0
VERTEX
  8
CURVE
 62
7
  6
CONTINUOUS
 10
52.0842215373
 20
114.4947553234
  0
VERTEX
  8
CURVE
 62
7
  6
CONTINUOUS
 10
52.0821939246
 20
114.5051573869
  0
SEQEND
  0
LINE
  8
CURVE
 62
7
  6
CONTINUOUS
 10
51.7381115535
 20
114.2519271825
 11
51.7415838409
 21
114.0166423341
  0
LINE
  8
CURVE
 62
7
  6
CONTINUOUS
 10
52.0954996857
 20
114.0111779988
 11
52.0920137986
 21
114.2490475702
  0
LINE
  8
CURVE
 62
7
  6
CONTINUOUS
 10
51.7415838409
 20
114.0166423341
 11
51.7446376252
 21
113.7146199412
  0
LINE
  8
CURVE
 62
7
  6
CONTINUOUS
 10
52.0985601268
 20
113.7059755405
 11
52.0954996857
 21
114.0111779988
  0
LINE
  8
CURVE
 62
7
  6
CONTINUOUS
 10
51.7446376252
 20
113.7146199412
 11
51.7471763935
 21
113.3554078554
  0
LINE
  8
CURVE
 62
7
  6
CONTINUOUS
 10
52.1010972827
 20
113.343199887
 11
52.0985601268
 21
113.7059755405
  0
LINE
  8
CURVE
 62
7
  6
CONTINUOUS
 10
51.7471763935
 20
113.3554078554
 11
51.7491199174
 21
112.9503607661
  0
LINE
  8
CURVE
 62
7
  6
CONTINUOUS
 10
52.1030300508
 20
112.9344506599
 11
52.1010972827
 21
113.343199887
  0
LINE
  8
CURVE
 62
7
  6
CONTINUOUS
 10
51.7491199174
 20
112.9503607661
 11
51.7504067843
 21
112.5122810544
  0
LINE
  8
CURVE
 62
7
  6
CONTINUOUS
 10
52.1042966543
 20
112.4927962928
 11
52.1030300508
 21
112.9344506599
  0
LINE
  8
CURVE
 62
7
  6
CONTINUOUS
 10
51.7504067843
 20
112.5122810544
 11
51.7509962785
 21
112.0551250215
  0
LINE
  8
CURVE
 62
7
  6
CONTINUOUS
 10
52.104856566
 20
112.0324623801
 11
52.1042966543
 21
112.4927962928
  0
LINE
  8
CURVE
 62
7
  6
CONTINUOUS
 10
49.8421939246
 20
121.2051897523
 11
49.8421939246
 21
114.5051573869
  0
LINE
  8
CURVE
 62
7
  6
CONTINUOUS
 10
50.1960436513
 20
114.5051573869
 11
50.1960436513
 21
121.2051897523
  0
LINE
  8
CURVE
 62
7
  6
CONTINUOUS
 10
51.7283441979
 20
121.2051897523
 11
51.7283441979
 21
114.5051573869
  0
LINE
  8
CURVE
 62
7
  6
CONTINUOUS
 10
52.0821939246
 20
114.5051573869
 11
52.0821939246
 21
121.2051897523
  0
LINE
  8
CURVE
 62
7
  6
CONTINUOUS
 10
49.8195312832
 20
112.0324623801
 11
49.8200911949
 21
112.4927962928
  0
LINE
  8
CURVE
 62
7
  6
CONTINUOUS
 10
50.1739810648
 20
112.5122810544
 11
50.1733915707
 21
112.0551250215
  0
LINE
  8
CURVE
 62
7
  6
CONTINUOUS
 10
49.8200911949
 20
112.4927962928
 11
49.8213577983
 21
112.9344506599
  0
LINE
  8
CURVE
 62
7
  6
CONTINUOUS
 10
50.1752679318
 20
112.9503607661
 11
50.1739810648
 21
112.5122810544
  0
LINE
  8
CURVE
 62
7
  6
CONTINUOUS
 10
49.8213577983
 20
112.9344506599
 11
49.8232905665
 21
113.343199887
  0
LINE
  8
CURVE
 62
7
  6
CONTINUOUS
 10
50.1772114556
 20
113.3554078554
 11
50.1752679318
 21
112.9503607661
  0
LINE
  8
CURVE
 62
7
  6
CONTINUOUS
 10
49.8232905665
 20
113.343199887
 11
49.8258277223
 21
113.7059755405
  0
LINE
  8
CURVE
 62
7
  6
CONTINUOUS
 10
50.1797502239
 20
113.7146199412
 11
50.1772114556
 21
113.3554078554
  0
LINE
  8
CURVE
 62
7
  6
CONTINUOUS
 10
49.8258277223
 20
113.7059755405
 11
49.8288881634
 21
114.0111779988
  0
LINE
  8
CURVE
 62
7
  6
CONTINUOUS
 10
50.1828040083
 20
114.0166423341
 11
50.1797502239
 21
113.7146199412
  0
POLYLINE
  8
CURVE
 62
7
  6
CONTINUOUS
 66
1
 70
0
  0
VERTEX
  8
CURVE
 62
7
  6
CONTINUOUS
 10
49.8288881634
 20
114.0111779988
  0
VERTEX
  8
CURVE
 62
7
  6
CONTINUOUS
 10
49.8323740505
 20
114.2490475702
  0
VERTEX
  8
CURVE
 62
7
  6
CONTINUOUS
 10
49.8342421448
 20
114.3402640057
  0
VERTEX
  8
CURVE
 62
7
  6
CONTINUOUS
 10
49.836173933
 20
114.4119770119
  0
VERTEX
  8
CURVE
 62
7
  6
CONTINUOUS
 10
49.838153942
 20
114.4636120218
  0
VERTEX
  8
CURVE
 62
7
  6
CONTINUOUS
 10
49.8401663119
 20
114.4947553234
  0
VERTEX
  8
CURVE
 62
7
  6
CONTINUOUS
 10
49.8421939246
 20
114.5051573869
  0
SEQEND
  0
POLYLINE
  8
CURVE
 62
7
  6
CONTINUOUS
 66
1
 70
0
  0
VERTEX
  8
CURVE
 62
7
  6
CONTINUOUS
 10
51.7509962785
 20
112.0551250215
  0
VERTEX
  8
CURVE
 62
7
  6
CONTINUOUS
 10
51.748558833
 20
112.0046775403
  0
VERTEX
  8
CURVE
 62
7
  6
CONTINUOUS
 10
51.7411758994
 20
111.9544824472
  0
VERTEX
  8
CURVE
 62
7
  6
CONTINUOUS
 10
51.7288879998
 20
111.9051573869
  0
SEQEND
  0
POLYLINE
  8
CURVE
 62
7
  6
CONTINUOUS
 66
1
 70
0
  0
VERTEX
  8
CURVE
 62
7
  6
CONTINUOUS
 10
50.1960436513
 20
121.2051897523
  0
VERTEX
  8
CURVE
 62
7
  6
CONTINUOUS
 10
50.1996482772
 20
121.2648937983
  0
VERTEX
  8
CURVE
 62
7
  6
CONTINUOUS
 10
50.2104323004
 20
121.3238093398
  0
VERTEX
  8
CURVE
 62
7
  6
CONTINUOUS
 10
50.2282376104
 20
121.3810034289
  0
VERTEX
  8
CURVE
 62
7
  6
CONTINUOUS
 10
50.2528605558
 20
121.4357352981
  0
VERTEX
  8
CURVE
 62
7
  6
CONTINUOUS
 10
50.2838348135
 20
121.4869824565
  0
VERTEX
  8
CURVE
 62
7
  6
CONTINUOUS
 10
50.3208299854
 20
121.5342053459
  0
VERTEX
  8
CURVE
 62
7
  6
CONTINUOUS
 10
50.3631459656
 20
121.576521326
  0
VERTEX
  8
CURVE
 62
7
  6
CONTINUOUS
 10
50.4103688549
 20
121.613516498
  0
VERTEX
  8
CURVE
 62
7
  6
CONTINUOUS
 10
50.4616160134
 20
121.6444907557
  0
VERTEX
  8
CURVE
 62
7
  6
CONTINUOUS
 10
50.5163478826
 20
121.6691137011
  0
VERTEX
  8
CURVE
 62
7
  6
CONTINUOUS
 10
50.5735419717
 20
121.6869190111
  0
VERTEX
  8
CURVE
 62
7
  6
CONTINUOUS
 10
50.6324575132
 20
121.6977030343
  0
VERTEX
  8
CURVE
 62
7
  6
CONTINUOUS
 10
50.6921615592
 20
121.7013076602
  0
SEQEND
  0
POLYLINE
  8
CURVE
 62
7
  6
CONTINUOUS
 66
1
 70
0
  0
VERTEX
  8
CURVE
 62
7
  6
CONTINUOUS
 10
50.1960436513
 20
114.5051573869
  0
VERTEX
  8
CURVE
 62
7
  6
CONTINUOUS
 10
50.1940276135
 20
114.4948739823
  0
VERTEX
  8
CURVE
 62
7
  6
CONTINUOUS
 10
50.1920265702
 20
114.4640854735
  0
VERTEX
  8
CURVE
 62
7
  6
CONTINUOUS
 10
50.1900573366
 20
114.4130357278
  0
VERTEX
  8
CURVE
 62
7
  6
CONTINUOUS
 10
50.1881355059
 20
114.3421290931
  0
VERTEX
  8
CURVE
 62
7
  6
CONTINUOUS
 10
50.1862762957
 20
114.2519271825
  0
VERTEX
  8
CURVE
 62
7
  6
CONTINUOUS
 10
50.1828040083
 20
114.0166423341
  0
SEQEND
  0
LINE
  8
CURVE
 62
7
  6
CONTINUOUS
 10
41.1664858475
 20
125.9765166048
 11
41.0855262425
 21
125.8765398188
  0
LINE
  8
CURVE
 62
7
  6
CONTINUOUS
 10
35.4388616113
 20
125.876539813
 11
35.3579020017
 21
125.9765166048
  0
POLYLINE
  8
CURVE
 62
7
  6
CONTINUOUS
 66
1
 70
0
  0
VERTEX
  8
CURVE
 62
7
  6
CONTINUOUS
 10
50.1954998493
 20
111.9051573869
  0
VERTEX
  8
CURVE
 62
7
  6
CONTINUOUS
 10
50.1832135736
 20
111.9544742303
  0
VERTEX
  8
CURVE
 62
7
  6
CONTINUOUS
 10
50.1758301231
 20
112.004666163
  0
VERTEX
  8
CURVE
 62
7
  6
CONTINUOUS
 10
50.1733915707
 20
112.0551250215
  0
SEQEND
  0
POLYLINE
  8
CURVE
 62
7
  6
CONTINUOUS
 66
1
 70
0
  0
VERTEX
  8
CURVE
 62
7
  6
CONTINUOUS
 10
45.7453008211
 20
137.3051573869
  0
VERTEX
  8
CURVE
 62
7
  6
CONTINUOUS
 10
45.7250470277
 20
137.4010408916
  0
VERTEX
  8
CURVE
 62
7
  6
CONTINUOUS
 10
45.6934306381
 20
137.4949930509
  0
VERTEX
  8
CURVE
 62
7
  6
CONTINUOUS
 10
45.6506216684
 20
137.585396918
  0
VERTEX
  8
CURVE
 62
7
  6
CONTINUOUS
 10
45.5968042536
 20
137.6710420022
  0
VERTEX
  8
CURVE
 62
7
  6
CONTINUOUS
 10
45.5330322723
 20
137.7498253167
  0
VERTEX
  8
CURVE
 62
7
  6
CONTINUOUS
 10
45.4604904141
 20
137.8203072576
  0
VERTEX
  8
CURVE
 62
7
  6
CONTINUOUS
 10
45.3794594108
 20
137.8821009628
  0
VERTEX
  8
CURVE
 62
7
  6
CONTINUOUS
 10
45.2915934531
 20
137.9337850132
  0
VERTEX
  8
CURVE
 62
7
  6
CONTINUOUS
 10
45.1989341272
 20
137.9743308813
  0
VERTEX
  8
CURVE
 62
7
  6
CONTINUOUS
 10
45.1021171245
 20
138.0036224728
  0
VERTEX
  8
CURVE
 62
7
  6
CONTINUOUS
 10
45.0029640679
 20
138.0211937715
  0
VERTEX
  8
CURVE
 62
7
  6
CONTINUOUS
 10
44.9040242653
 20
138.0269553622
  0
SEQEND
  0
POLYLINE
  8
CURVE
 62
7
  6
CONTINUOUS
 66
1
 70
0
  0
VERTEX
  8
CURVE
 62
7
  6
CONTINUOUS
 10
51.7283441979
 20
114.5051573869
  0
VERTEX
  8
CURVE
 62
7
  6
CONTINUOUS
 10
51.7303602357
 20
114.4948739823
  0
VERTEX
  8
CURVE
 62
7
  6
CONTINUOUS
 10
51.732361279
 20
114.4640854735
  0
VERTEX
  8
CURVE
 62
7
  6
CONTINUOUS
 10
51.7343305126
 20
114.4130357278
  0
VERTEX
  8
CURVE
 62
7
  6
CONTINUOUS
 10
51.7362523432
 20
114.3421290931
  0
VERTEX
  8
CURVE
 62
7
  6
CONTINUOUS
 10
51.7381115535
 20
114.2519271825
  0
SEQEND
  0
POLYLINE
  8
CURVE
 62
7
  6
CONTINUOUS
 66
1
 70
0
  0
VERTEX
  8
CURVE
 62
7
  6
CONTINUOUS
 10
56.1921939246
 20
128.0051250215
  0
VERTEX
  8
CURVE
 62
7
  6
CONTINUOUS
 10
56.1968498304
 20
127.916279083
  0
VERTEX
  8
CURVE
 62
7
  6
CONTINUOUS
 10
56.2107667016
 20
127.8284063892
  0
VERTEX
  8
CURVE
 62
7
  6
CONTINUOUS
 10
56.2337923021
 20
127.7424696482
  0
VERTEX
  8
CURVE
 62
7
  6
CONTINUOUS
 10
56.2656745717
 20
127.6594104262
  0
VERTEX
  8
CURVE
 62
7
  6
CONTINUOUS
 10
56.3060643676
 20
127.580138816
  0
VERTEX
  8
CURVE
 62
7
  6
CONTINUOUS
 10
56.3545192781
 20
127.5055234451
  0
VERTEX
  8
CURVE
 62
7
  6
CONTINUOUS
 10
56.4105084633
 20
127.4363819362
  0
VERTEX
  8
CURVE
 62
7
  6
CONTINUOUS
 10
56.4734184739
 20
127.3734719256
  0
VERTEX
  8
CURVE
 62
7
  6
CONTINUOUS
 10
56.5425599827
 20
127.3174827404
  0
VERTEX
  8
CURVE
 62
7
  6
CONTINUOUS
 10
56.6171753537
 20
127.2690278299
  0
VERTEX
  8
CURVE
 62
7
  6
CONTINUOUS
 10
56.6964469639
 20
127.228638034
  0
VERTEX
  8
CURVE
 62
7
  6
CONTINUOUS
 10
56.7795061859
 20
127.1967557645
  0
VERTEX
  8
CURVE
 62
7
  6
CONTINUOUS
 10
56.8654429268
 20
127.1737301639
  0
VERTEX
  8
CURVE
 62
7
  6
CONTINUOUS
 10
56.9533156207
 20
127.1598132927
  0
VERTEX
  8
CURVE
 62
7
  6
CONTINUOUS
 10
57.0421615592
 20
127.1551573869
  0
SEQEND
  0
LINE
  8
CURVE
 62
7
  6
CONTINUOUS
 10
56.1823740506
 20
134.9612672028
 11
56.1788881634
 21
135.1991367744
  0
LINE
  8
CURVE
 62
7
  6
CONTINUOUS
 10
56.1788881634
 20
135.1991367744
 11
56.1758277223
 21
135.5043392333
  0
LINE
  8
CURVE
 62
7
  6
CONTINUOUS
 10
56.1758277223
 20
135.5043392333
 11
56.1732905665
 21
135.8671148875
  0
LINE
  8
CURVE
 62
7
  6
CONTINUOUS
 10
56.1732905665
 20
135.8671148875
 11
56.1713577983
 21
136.2758641152
  0
LINE
  8
CURVE
 62
7
  6
CONTINUOUS
 10
56.1713577983
 20
136.2758641152
 11
56.1700911949
 21
136.7175184822
  0
LINE
  8
CURVE
 62
7
  6
CONTINUOUS
 10
56.1700911949
 20
136.7175184822
 11
56.1695312832
 21
137.1778523937
  0
LINE
  8
CURVE
 62
7
  6
CONTINUOUS
 10
53.9621939246
 20
121.9751573869
 11
53.9621939246
 21
108.2051573869
  0
LINE
  8
CURVE
 62
7
  6
CONTINUOUS
 10
54.3121939246
 20
141.0051554044
 11
54.3121939246
 21
127.2351573869
  0
LINE
  8
CURVE
 62
7
  6
CONTINUOUS
 10
56.1921939246
 20
128.0051250215
 11
56.1921939246
 21
134.7051573869
  0
POLYLINE
  8
CURVE
 62
7
  6
CONTINUOUS
 66
1
 70
0
  0
VERTEX
  8
CURVE
 62
7
  6
CONTINUOUS
 10
52.0953008211
 20
111.9051573869
  0
VERTEX
  8
CURVE
 62
7
  6
CONTINUOUS
 10
52.1006182491
 20
111.9474184024
  0
VERTEX
  8
CURVE
 62
7
  6
CONTINUOUS
 10
52.1038057862
 20
111.9898910529
  0
VERTEX
  8
CURVE
 62
7
  6
CONTINUOUS
 10
52.104856566
 20
112.0324623801
  0
SEQEND
  0
POLYLINE
  8
CURVE
 62
7
  6
CONTINUOUS
 66
1
 70
0
  0
VERTEX
  8
CURVE
 62
7
  6
CONTINUOUS
 10
56.179087028
 20
137.3051573869
  0
VERTEX
  8
CURVE
 62
7
  6
CONTINUOUS
 10
56.173769282
 20
137.2628932028
  0
VERTEX
  8
CURVE
 62
7
  6
CONTINUOUS
 10
56.1705819009
 20
137.2204204697
  0
VERTEX
  8
CURVE
 62
7
  6
CONTINUOUS
 10
56.1695312832
 20
137.1778523937
  0
SEQEND
  0
POLYLINE
  8
CURVE
 62
7
  6
CONTINUOUS
 66
1
 70
0
  0
VERTEX
  8
CURVE
 62
7
  6
CONTINUOUS
 10
58.4321939246
 20
134.7051573869
  0
VERTEX
  8
CURVE
 62
7
  6
CONTINUOUS
 10
58.4342215373
 20
134.7155594503
  0
VERTEX
  8
CURVE
 62
7
  6
CONTINUOUS
 10
58.4362339072
 20
134.7467027517
  0
VERTEX
  8
CURVE
 62
7
  6
CONTINUOUS
 10
58.4382139161
 20
134.7983377614
  0
VERTEX
  8
CURVE
 62
7
  6
CONTINUOUS
 10
58.4401457043
 20
134.8700507675
  0
VERTEX
  8
CURVE
 62
7
  6
CONTINUOUS
 10
58.4420137986
 20
134.9612672028
  0
VERTEX
  8
CURVE
 62
7
  6
CONTINUOUS
 10
58.4454996857
 20
135.1991367744
  0
SEQEND
  0
LINE
  8
CURVE
 62
7
  6
CONTINUOUS
 10
41.7079020017
 20
123.233798169
 11
41.7888616101
 21
123.3337749592
  0
LINE
  8
CURVE
 62
7
  6
CONTINUOUS
 10
47.43552624
 20
123.3337749581
 11
47.5164858475
 21
123.233798169
  0
POLYLINE
  8
CURVE
 62
7
  6
CONTINUOUS
 66
1
 70
0
  0
VERTEX
  8
CURVE
 62
7
  6
CONTINUOUS
 10
58.454856566
 20
137.1778523937
  0
VERTEX
  8
CURVE
 62
7
  6
CONTINUOUS
 10
58.4538059187
 20
137.2204210616
  0
VERTEX
  8
CURVE
 62
7
  6
CONTINUOUS
 10
58.450618504
 20
137.2628938314
  0
VERTEX
  8
CURVE
 62
7
  6
CONTINUOUS
 10
58.4453008211
 20
137.3051573869
  0
SEQEND
  0
LINE
  8
CURVE
 62
7
  6
CONTINUOUS
 10
58.4321939246
 20
134.7051573869
 11
58.4321939246
 21
128.0051250215
  0
LINE
  8
CURVE
 62
7
  6
CONTINUOUS
 10
60.3121939246
 20
127.2351573869
 11
60.3121939246
 21
141.0051573869
  0
LINE
  8
CURVE
 62
7
  6
CONTINUOUS
 10
60.6621939246
 20
121.9751573869
 11
60.6621939246
 21
108.2051573869
  0
LINE
  8
CURVE
 62
7
  6
CONTINUOUS
 10
58.4542966543
 20
136.7175184822
 11
58.454856566
 21
137.1778523937
  0
LINE
  8
CURVE
 62
7
  6
CONTINUOUS
 10
58.4530300508
 20
136.2758641152
 11
58.4542966543
 21
136.7175184822
  0
LINE
  8
CURVE
 62
7
  6
CONTINUOUS
 10
58.4510972827
 20
135.8671148875
 11
58.4530300508
 21
136.2758641152
  0
LINE
  8
CURVE
 62
7
  6
CONTINUOUS
 10
58.4485601268
 20
135.5043392333
 11
58.4510972827
 21
135.8671148875
  0
LINE
  8
CURVE
 62
7
  6
CONTINUOUS
 10
58.4454996857
 20
135.1991367744
 11
58.4485601268
 21
135.5043392333
  0
POLYLINE
  8
CURVE
 62
7
  6
CONTINUOUS
 66
1
 70
0
  0
VERTEX
  8
CURVE
 62
7
  6
CONTINUOUS
 10
51.7288879998
 20
111.9051573869
  0
VERTEX
  8
CURVE
 62
7
  6
CONTINUOUS
 10
51.7054066199
 20
111.8423846528
  0
VERTEX
  8
CURVE
 62
7
  6
CONTINUOUS
 10
51.674316329
 20
111.7836533424
  0
VERTEX
  8
CURVE
 62
7
  6
CONTINUOUS
 10
51.6359756425
 20
111.7293959401
  0
VERTEX
  8
CURVE
 62
7
  6
CONTINUOUS
 10
51.590885421
 20
111.6803682556
  0
VERTEX
  8
CURVE
 62
7
  6
CONTINUOUS
 10
51.5400660139
 20
111.6376605495
  0
VERTEX
  8
CURVE
 62
7
  6
CONTINUOUS
 10
51.484722395
 20
111.602078675
  0
VERTEX
  8
CURVE
 62
7
  6
CONTINUOUS
 10
51.4253061313
 20
111.5737801707
  0
VERTEX
  8
CURVE
 62
7
  6
CONTINUOUS
 10
51.3626818863
 20
111.5532017293
  0
VERTEX
  8
CURVE
 62
7
  6
CONTINUOUS
 10
51.2979193342
 20
111.540717938
  0
VERTEX
  8
CURVE
 62
7
  6
CONTINUOUS
 10
51.23222629
 20
111.5365464446
  0
SEQEND
  0
LINE
  8
CURVE
 62
7
  6
CONTINUOUS
 10
53.8664858475
 20
125.9765166048
 11
53.7855262425
 21
125.8765398188
  0
LINE
  8
CURVE
 62
7
  6
CONTINUOUS
 10
48.1388616113
 20
125.876539813
 11
48.0579020017
 21
125.9765166048
  0
POLYLINE
  8
CURVE
 62
7
  6
CONTINUOUS
 66
1
 70
0
  0
VERTEX
  8
CURVE
 62
7
  6
CONTINUOUS
 10
62.529087028
 20
111.9051573869
  0
VERTEX
  8
CURVE
 62
7
  6
CONTINUOUS
 10
62.5493557119
 20
111.8092192484
  0
VERTEX
  8
CURVE
 62
7
  6
CONTINUOUS
 10
62.5809960127
 20
111.71522548
  0
VERTEX
  8
CURVE
 62
7
  6
CONTINUOUS
 10
62.6238102576
 20
111.6248374362
  0
VERTEX
  8
CURVE
 62
7
  6
CONTINUOUS
 10
62.6776289823
 20
111.5392092986
  0
VERTEX
  8
CURVE
 62
7
  6
CONTINUOUS
 10
62.7414019812
 20
111.4604386634
  0
VERTEX
  8
CURVE
 62
7
  6
CONTINUOUS
 10
62.813938541
 20
111.3899720829
  0
VERTEX
  8
CURVE
 62
7
  6
CONTINUOUS
 10
62.8949618999
 20
111.3281913303
  0
VERTEX
  8
CURVE
 62
7
  6
CONTINUOUS
 10
62.9828258693
 20
111.2765137011
  0
VERTEX
  8
CURVE
 62
7
  6
CONTINUOUS
 10
63.0754818965
 20
111.2359735086
  0
VERTEX
  8
CURVE
 62
7
  6
CONTINUOUS
 10
63.1722903118
 20
111.2066876228
  0
VERTEX
  8
CURVE
 62
7
  6
CONTINUOUS
 10
63.2714359191
 20
111.1891195841
  0
VERTEX
  8
CURVE
 62
7
  6
CONTINUOUS
 10
63.3703635839
 20
111.1833594116
  0
SEQEND
  0
POLYLINE
  8
CURVE
 62
7
  6
CONTINUOUS
 66
1
 70
0
  0
VERTEX
  8
CURVE
 62
7
  6
CONTINUOUS
 10
58.4453008211
 20
137.3051573869
  0
VERTEX
  8
CURVE
 62
7
  6
CONTINUOUS
 10
58.4250470277
 20
137.4010408916
  0
VERTEX
  8
CURVE
 62
7
  6
CONTINUOUS
 10
58.3934306381
 20
137.4949930509
  0
VERTEX
  8
CURVE
 62
7
  6
CONTINUOUS
 10
58.3506216684
 20
137.585396918
  0
VERTEX
  8
CURVE
 62
7
  6
CONTINUOUS
 10
58.2968042536
 20
137.6710420022
  0
VERTEX
  8
CURVE
 62
7
  6
CONTINUOUS
 10
58.2330322723
 20
137.7498253167
  0
VERTEX
  8
CURVE
 62
7
  6
CONTINUOUS
 10
58.1604904141
 20
137.8203072576
  0
VERTEX
  8
CURVE
 62
7
  6
CONTINUOUS
 10
58.0794594108
 20
137.8821009628
  0
VERTEX
  8
CURVE
 62
7
  6
CONTINUOUS
 10
57.9915934531
 20
137.9337850132
  0
VERTEX
  8
CURVE
 62
7
  6
CONTINUOUS
 10
57.8989341272
 20
137.9743308813
  0
VERTEX
  8
CURVE
 62
7
  6
CONTINUOUS
 10
57.8021171245
 20
138.0036224728
  0
VERTEX
  8
CURVE
 62
7
  6
CONTINUOUS
 10
57.7029640679
 20
138.0211937715
  0
VERTEX
  8
CURVE
 62
7
  6
CONTINUOUS
 10
57.6040242653
 20
138.0269553622
  0
SEQEND
  0
POLYLINE
  8
CURVE
 62
7
  6
CONTINUOUS
 66
1
 70
0
  0
VERTEX
  8
CURVE
 62
7
  6
CONTINUOUS
 10
56.1921939246
 20
134.7051573869
  0
VERTEX
  8
CURVE
 62
7
  6
CONTINUOUS
 10
56.1901663119
 20
134.7155594503
  0
VERTEX
  8
CURVE
 62
7
  6
CONTINUOUS
 10
56.188153942
 20
134.7467027517
  0
VERTEX
  8
CURVE
 62
7
  6
CONTINUOUS
 10
56.186173933
 20
134.7983377614
  0
VERTEX
  8
CURVE
 62
7
  6
CONTINUOUS
 10
56.1842421448
 20
134.8700507675
  0
VERTEX
  8
CURVE
 62
7
  6
CONTINUOUS
 10
56.1823740506
 20
134.9612672028
  0
SEQEND
  0
POLYLINE
  8
CURVE
 62
7
  6
CONTINUOUS
 66
1
 70
0
  0
VERTEX
  8
CURVE
 62
7
  6
CONTINUOUS
 10
62.5195312832
 20
112.0324623801
  0
VERTEX
  8
CURVE
 62
7
  6
CONTINUOUS
 10
62.5205820929
 20
111.9898904516
  0
VERTEX
  8
CURVE
 62
7
  6
CONTINUOUS
 10
62.5237696626
 20
111.9474177798
  0
VERTEX
  8
CURVE
 62
7
  6
CONTINUOUS
 10
62.529087028
 20
111.9051573869
  0
SEQEND
  0
POLYLINE
  8
CURVE
 62
7
  6
CONTINUOUS
 66
1
 70
0
  0
VERTEX
  8
CURVE
 62
7
  6
CONTINUOUS
 10
64.7920137986
 20
114.2490475702
  0
VERTEX
  8
CURVE
 62
7
  6
CONTINUOUS
 10
64.7901457044
 20
114.3402640057
  0
VERTEX
  8
CURVE
 62
7
  6
CONTINUOUS
 10
64.7882139162
 20
114.4119770119
  0
VERTEX
  8
CURVE
 62
7
  6
CONTINUOUS
 10
64.7862339072
 20
114.4636120218
  0
VERTEX
  8
CURVE
 62
7
  6
CONTINUOUS
 10
64.7842215373
 20
114.4947553234
  0
VERTEX
  8
CURVE
 62
7
  6
CONTINUOUS
 10
64.7821939246
 20
114.5051573869
  0
SEQEND
  0
LINE
  8
CURVE
 62
7
  6
CONTINUOUS
 10
64.7954996857
 20
114.0111779988
 11
64.7920137986
 21
114.2490475702
  0
LINE
  8
CURVE
 62
7
  6
CONTINUOUS
 10
64.7985601268
 20
113.7059755405
 11
64.7954996857
 21
114.0111779988
  0
LINE
  8
CURVE
 62
7
  6
CONTINUOUS
 10
64.8010972827
 20
113.343199887
 11
64.7985601268
 21
113.7059755405
  0
LINE
  8
CURVE
 62
7
  6
CONTINUOUS
 10
64.8030300508
 20
112.9344506599
 11
64.8010972827
 21
113.343199887
  0
LINE
  8
CURVE
 62
7
  6
CONTINUOUS
 10
64.8042966543
 20
112.4927962928
 11
64.8030300508
 21
112.9344506599
  0
LINE
  8
CURVE
 62
7
  6
CONTINUOUS
 10
64.804856566
 20
112.0324623801
 11
64.8042966543
 21
112.4927962928
  0
LINE
  8
CURVE
 62
7
  6
CONTINUOUS
 10
62.5421939246
 20
114.5051573869
 11
62.5421939246
 21
121.2051897523
  0
LINE
  8
CURVE
 62
7
  6
CONTINUOUS
 10
64.7821939246
 20
121.2051897523
 11
64.7821939246
 21
114.5051573869
  0
LINE
  8
CURVE
 62
7
  6
CONTINUOUS
 10
66.3121939246
 20
132.8051573869
 11
66.3121939246
 21
132.0051573869
  0
LINE
  8
CURVE
 62
7
  6
CONTINUOUS
 10
62.5195312832
 20
112.0324623801
 11
62.5200911949
 21
112.4927962928
  0
LINE
  8
CURVE
 62
7
  6
CONTINUOUS
 10
62.5200911949
 20
112.4927962928
 11
62.5213577983
 21
112.9344506599
  0
LINE
  8
CURVE
 62
7
  6
CONTINUOUS
 10
62.5213577983
 20
112.9344506599
 11
62.5232905665
 21
113.343199887
  0
LINE
  8
CURVE
 62
7
  6
CONTINUOUS
 10
62.5232905665
 20
113.343199887
 11
62.5258277223
 21
113.7059755405
  0
LINE
  8
CURVE
 62
7
  6
CONTINUOUS
 10
62.5258277223
 20
113.7059755405
 11
62.5288881634
 21
114.0111779988
  0
POLYLINE
  8
CURVE
 62
7
  6
CONTINUOUS
 66
1
 70
0
  0
VERTEX
  8
CURVE
 62
7
  6
CONTINUOUS
 10
62.5288881634
 20
114.0111779988
  0
VERTEX
  8
CURVE
 62
7
  6
CONTINUOUS
 10
62.5323740505
 20
114.2490475702
  0
VERTEX
  8
CURVE
 62
7
  6
CONTINUOUS
 10
62.5342421448
 20
114.3402640057
  0
VERTEX
  8
CURVE
 62
7
  6
CONTINUOUS
 10
62.536173933
 20
114.4119770119
  0
VERTEX
  8
CURVE
 62
7
  6
CONTINUOUS
 10
62.538153942
 20
114.4636120218
  0
VERTEX
  8
CURVE
 62
7
  6
CONTINUOUS
 10
62.5401663119
 20
114.4947553234
  0
VERTEX
  8
CURVE
 62
7
  6
CONTINUOUS
 10
62.5421939246
 20
114.5051573869
  0
SEQEND
  0
POLYLINE
  8
CURVE
 62
7
  6
CONTINUOUS
 66
1
 70
0
  0
VERTEX
  8
CURVE
 62
7
  6
CONTINUOUS
 10
64.7953008211
 20
111.9051573869
  0
VERTEX
  8
CURVE
 62
7
  6
CONTINUOUS
 10
64.8006182491
 20
111.9474184024
  0
VERTEX
  8
CURVE
 62
7
  6
CONTINUOUS
 10
64.8038057862
 20
111.9898910529
  0
VERTEX
  8
CURVE
 62
7
  6
CONTINUOUS
 10
64.804856566
 20
112.0324623801
  0
SEQEND
  0
LINE
  8
CURVE
 62
7
  6
CONTINUOUS
 10
54.4079020017
 20
123.233798169
 11
54.4888616101
 21
123.3337749592
  0
POLYLINE
  8
CURVE
 62
7
  6
CONTINUOUS
 66
1
 70
0
  0
VERTEX
  8
CURVE
 62
7
  6
CONTINUOUS
 10
68.8921939246
 20
128.0051250215
  0
VERTEX
  8
CURVE
 62
7
  6
CONTINUOUS
 10
68.8968498304
 20
127.916279083
  0
VERTEX
  8
CURVE
 62
7
  6
CONTINUOUS
 10
68.9107667016
 20
127.8284063892
  0
VERTEX
  8
CURVE
 62
7
  6
CONTINUOUS
 10
68.9337923021
 20
127.7424696482
  0
VERTEX
  8
CURVE
 62
7
  6
CONTINUOUS
 10
68.9656745717
 20
127.6594104262
  0
VERTEX
  8
CURVE
 62
7
  6
CONTINUOUS
 10
69.0060643676
 20
127.580138816
  0
VERTEX
  8
CURVE
 62
7
  6
CONTINUOUS
 10
69.0545192781
 20
127.5055234451
  0
VERTEX
  8
CURVE
 62
7
  6
CONTINUOUS
 10
69.1105084633
 20
127.4363819362
  0
VERTEX
  8
CURVE
 62
7
  6
CONTINUOUS
 10
69.1734184739
 20
127.3734719256
  0
VERTEX
  8
CURVE
 62
7
  6
CONTINUOUS
 10
69.2425599827
 20
127.3174827404
  0
VERTEX
  8
CURVE
 62
7
  6
CONTINUOUS
 10
69.3171753537
 20
127.2690278299
  0
VERTEX
  8
CURVE
 62
7
  6
CONTINUOUS
 10
69.3964469639
 20
127.228638034
  0
VERTEX
  8
CURVE
 62
7
  6
CONTINUOUS
 10
69.4795061859
 20
127.1967557645
  0
VERTEX
  8
CURVE
 62
7
  6
CONTINUOUS
 10
69.5654429268
 20
127.1737301639
  0
VERTEX
  8
CURVE
 62
7
  6
CONTINUOUS
 10
69.6533156207
 20
127.1598132927
  0
VERTEX
  8
CURVE
 62
7
  6
CONTINUOUS
 10
69.7421615592
 20
127.1551573869
  0
SEQEND
  0
LINE
  8
CURVE
 62
7
  6
CONTINUOUS
 10
68.8823740506
 20
134.9612672028
 11
68.8788881634
 21
135.1991367744
  0
LINE
  8
CURVE
 62
7
  6
CONTINUOUS
 10
68.8788881634
 20
135.1991367744
 11
68.8758277223
 21
135.5043392333
  0
LINE
  8
CURVE
 62
7
  6
CONTINUOUS
 10
68.8758277223
 20
135.5043392333
 11
68.8732905665
 21
135.8671148875
  0
LINE
  8
CURVE
 62
7
  6
CONTINUOUS
 10
68.8732905665
 20
135.8671148875
 11
68.8713577983
 21
136.2758641152
  0
LINE
  8
CURVE
 62
7
  6
CONTINUOUS
 10
68.8713577983
 20
136.2758641152
 11
68.8700911949
 21
136.7175184822
  0
LINE
  8
CURVE
 62
7
  6
CONTINUOUS
 10
68.8700911949
 20
136.7175184822
 11
68.8695312832
 21
137.1778523937
  0
LINE
  8
CURVE
 62
7
  6
CONTINUOUS
 10
66.6621939246
 20
108.2051573869
 11
66.6621939246
 21
121.9751573869
  0
LINE
  8
CURVE
 62
7
  6
CONTINUOUS
 10
67.0121939246
 20
141.0051554044
 11
67.0121939246
 21
127.2351573869
  0
LINE
  8
CURVE
 62
7
  6
CONTINUOUS
 10
67.3621937296
 20
117.2051573869
 11
67.3621937296
 21
116.4051573869
  0
LINE
  8
CURVE
 62
7
  6
CONTINUOUS
 10
68.8921939246
 20
128.0051250215
 11
68.8921939246
 21
134.7051573869
  0
LINE
  8
0
 62
7
  6
CONTINUOUS
 10
71.1321939246
 20
128.0051250215
 11
71.1321939246
 21
134.7051573869
  0
LINE
  8
0
 62
7
  6
CONTINUOUS
 10
71.1542966543
 20
136.7175184822
 11
71.154856566
 21
137.1778523937
  0
LINE
  8
0
 62
7
  6
CONTINUOUS
 10
71.1530300508
 20
136.2758641152
 11
71.1542966543
 21
136.7175184822
  0
LINE
  8
0
 62
7
  6
CONTINUOUS
 10
71.1510972827
 20
135.8671148875
 11
71.1530300508
 21
136.2758641152
  0
LINE
  8
0
 62
7
  6
CONTINUOUS
 10
71.1485601268
 20
135.5043392333
 11
71.1510972827
 21
135.8671148875
  0
LINE
  8
0
 62
7
  6
CONTINUOUS
 10
71.1454996857
 20
135.1991367744
 11
71.1485601268
 21
135.5043392333
  0
POLYLINE
  8
0
 62
7
  6
CONTINUOUS
 66
1
 70
0
  0
VERTEX
  8
0
 62
7
  6
CONTINUOUS
 10
71.1321939246
 20
128.0051250215
  0
VERTEX
  8
0
 62
7
  6
CONTINUOUS
 10
71.1275380188
 20
127.916279083
  0
VERTEX
  8
0
 62
7
  6
CONTINUOUS
 10
71.1136211476
 20
127.8284063892
  0
VERTEX
  8
0
 62
7
  6
CONTINUOUS
 10
71.090595547
 20
127.7424696482
  0
VERTEX
  8
0
 62
7
  6
CONTINUOUS
 10
71.0587132775
 20
127.6594104262
  0
VERTEX
  8
0
 62
7
  6
CONTINUOUS
 10
71.0183234816
 20
127.580138816
  0
VERTEX
  8
0
 62
7
  6
CONTINUOUS
 10
70.9698685711
 20
127.5055234451
  0
VERTEX
  8
0
 62
7
  6
CONTINUOUS
 10
70.9138793859
 20
127.4363819362
  0
VERTEX
  8
0
 62
7
  6
CONTINUOUS
 10
70.8509693753
 20
127.3734719256
  0
VERTEX
  8
0
 62
7
  6
CONTINUOUS
 10
70.7818278664
 20
127.3174827404
  0
VERTEX
  8
0
 62
7
  6
CONTINUOUS
 10
70.7072124955
 20
127.2690278299
  0
VERTEX
  8
0
 62
7
  6
CONTINUOUS
 10
70.6279408853
 20
127.228638034
  0
VERTEX
  8
0
 62
7
  6
CONTINUOUS
 10
70.5448816633
 20
127.1967557645
  0
VERTEX
  8
0
 62
7
  6
CONTINUOUS
 10
70.4589449223
 20
127.1737301639
  0
VERTEX
  8
0
 62
7
  6
CONTINUOUS
 10
70.3710722284
 20
127.1598132927
  0
VERTEX
  8
0
 62
7
  6
CONTINUOUS
 10
70.28222629
 20
127.1551573869
  0
SEQEND
  0
POLYLINE
  8
CURVE
 62
7
  6
CONTINUOUS
 66
1
 70
0
  0
VERTEX
  8
CURVE
 62
7
  6
CONTINUOUS
 10
68.879087028
 20
137.3051573869
  0
VERTEX
  8
CURVE
 62
7
  6
CONTINUOUS
 10
68.873769282
 20
137.2628932028
  0
VERTEX
  8
CURVE
 62
7
  6
CONTINUOUS
 10
68.8705819009
 20
137.2204204697
  0
VERTEX
  8
CURVE
 62
7
  6
CONTINUOUS
 10
68.8695312832
 20
137.1778523937
  0
SEQEND
  0
POLYLINE
  8
0
 62
7
  6
CONTINUOUS
 66
1
 70
0
  0
VERTEX
  8
0
 62
7
  6
CONTINUOUS
 10
71.1321939246
 20
134.7051573869
  0
VERTEX
  8
0
 62
7
  6
CONTINUOUS
 10
71.1342215373
 20
134.7155594503
  0
VERTEX
  8
0
 62
7
  6
CONTINUOUS
 10
71.1362339072
 20
134.7467027517
  0
VERTEX
  8
0
 62
7
  6
CONTINUOUS
 10
71.1382139161
 20
134.7983377614
  0
VERTEX
  8
0
 62
7
  6
CONTINUOUS
 10
71.1401457043
 20
134.8700507675
  0
VERTEX
  8
0
 62
7
  6
CONTINUOUS
 10
71.1420137986
 20
134.9612672028
  0
VERTEX
  8
0
 62
7
  6
CONTINUOUS
 10
71.1454996857
 20
135.1991367744
  0
SEQEND
  0
LINE
  8
CURVE
 62
7
  6
CONTINUOUS
 10
60.13552624
 20
123.3337749581
 11
60.2164858475
 21
123.233798169
  0
LINE
  8
CURVE
 62
7
  6
CONTINUOUS
 10
60.8388616113
 20
125.876539813
 11
60.7579020017
 21
125.9765166048
  0
LINE
  8
0
 62
7
  6
CONTINUOUS
 10
72.6621941195
 20
117.2051573869
 11
72.6621941195
 21
116.4051573869
  0
LINE
  8
0
 62
7
  6
CONTINUOUS
 10
73.0121939246
 20
141.0051554044
 11
73.0121939246
 21
127.2351573869
  0
LINE
  8
0
 62
7
  6
CONTINUOUS
 10
73.3621939246
 20
108.2051573869
 11
73.3621939246
 21
121.9751573869
  0
LINE
  8
0
 62
7
  6
CONTINUOUS
 10
73.7121939246
 20
132.8051573869
 11
73.7121939246
 21
132.0051573869
  0
LINE
  8
0
 62
7
  6
CONTINUOUS
 10
75.2421939246
 20
121.2051897523
 11
75.2421939246
 21
114.5051573869
  0
LINE
  8
0
 62
7
  6
CONTINUOUS
 10
75.2195312832
 20
112.0324623801
 11
75.2200911949
 21
112.4927962928
  0
LINE
  8
0
 62
7
  6
CONTINUOUS
 10
75.2200911949
 20
112.4927962928
 11
75.2213577983
 21
112.9344506599
  0
LINE
  8
0
 62
7
  6
CONTINUOUS
 10
75.2213577983
 20
112.9344506599
 11
75.2232905665
 21
113.343199887
  0
LINE
  8
0
 62
7
  6
CONTINUOUS
 10
75.2232905665
 20
113.343199887
 11
75.2258277223
 21
113.7059755405
  0
LINE
  8
0
 62
7
  6
CONTINUOUS
 10
75.2258277223
 20
113.7059755405
 11
75.2288881634
 21
114.0111779988
  0
POLYLINE
  8
0
 62
7
  6
CONTINUOUS
 66
1
 70
0
  0
VERTEX
  8
0
 62
7
  6
CONTINUOUS
 10
75.2288881634
 20
114.0111779988
  0
VERTEX
  8
0
 62
7
  6
CONTINUOUS
 10
75.2323740505
 20
114.2490475702
  0
VERTEX
  8
0
 62
7
  6
CONTINUOUS
 10
75.2342421448
 20
114.3402640057
  0
VERTEX
  8
0
 62
7
  6
CONTINUOUS
 10
75.236173933
 20
114.4119770119
  0
VERTEX
  8
0
 62
7
  6
CONTINUOUS
 10
75.238153942
 20
114.4636120218
  0
VERTEX
  8
0
 62
7
  6
CONTINUOUS
 10
75.2401663119
 20
114.4947553234
  0
VERTEX
  8
0
 62
7
  6
CONTINUOUS
 10
75.2421939246
 20
114.5051573869
  0
SEQEND
  0
LINE
  8
CURVE
 62
7
  6
CONTINUOUS
 10
66.5664858475
 20
125.9765166048
 11
66.4855262425
 21
125.8765398188
  0
LINE
  8
CURVE
 62
7
  6
CONTINUOUS
 10
67.1079020017
 20
123.233798169
 11
67.1888616113
 21
123.3337749607
  0
POLYLINE
  8
CURVE
 62
7
  6
CONTINUOUS
 66
1
 70
0
  0
VERTEX
  8
CURVE
 62
7
  6
CONTINUOUS
 10
68.8921939246
 20
134.7051573869
  0
VERTEX
  8
CURVE
 62
7
  6
CONTINUOUS
 10
68.8901663119
 20
134.7155594503
  0
VERTEX
  8
CURVE
 62
7
  6
CONTINUOUS
 10
68.888153942
 20
134.7467027517
  0
VERTEX
  8
CURVE
 62
7
  6
CONTINUOUS
 10
68.886173933
 20
134.7983377614
  0
VERTEX
  8
CURVE
 62
7
  6
CONTINUOUS
 10
68.8842421448
 20
134.8700507675
  0
VERTEX
  8
CURVE
 62
7
  6
CONTINUOUS
 10
68.8823740506
 20
134.9612672028
  0
SEQEND
  0
POLYLINE
  8
0
 62
7
  6
CONTINUOUS
 66
1
 70
0
  0
VERTEX
  8
0
 62
7
  6
CONTINUOUS
 10
71.1453008211
 20
137.3051573869
  0
VERTEX
  8
0
 62
7
  6
CONTINUOUS
 10
71.1506185671
 20
137.2628932028
  0
VERTEX
  8
0
 62
7
  6
CONTINUOUS
 10
71.1538059482
 20
137.2204204697
  0
VERTEX
  8
0
 62
7
  6
CONTINUOUS
 10
71.154856566
 20
137.1778523937
  0
SEQEND
  0
POLYLINE
  8
0
 62
7
  6
CONTINUOUS
 66
1
 70
0
  0
VERTEX
  8
0
 62
7
  6
CONTINUOUS
 10
75.229087028
 20
111.9051573869
  0
VERTEX
  8
0
 62
7
  6
CONTINUOUS
 10
75.2237696001
 20
111.9474184024
  0
VERTEX
  8
0
 62
7
  6
CONTINUOUS
 10
75.2205820629
 20
111.9898910529
  0
VERTEX
  8
0
 62
7
  6
CONTINUOUS
 10
75.2195312832
 20
112.0324623801
  0
SEQEND
  0
POLYLINE
  8
0
 62
7
  6
CONTINUOUS
 66
1
 70
0
  0
VERTEX
  8
0
 62
7
  6
CONTINUOUS
 10
77.4920137986
 20
114.2490475702
  0
VERTEX
  8
0
 62
7
  6
CONTINUOUS
 10
77.4901457044
 20
114.3402640057
  0
VERTEX
  8
0
 62
7
  6
CONTINUOUS
 10
77.4882139162
 20
114.4119770119
  0
VERTEX
  8
0
 62
7
  6
CONTINUOUS
 10
77.4862339072
 20
114.4636120218
  0
VERTEX
  8
0
 62
7
  6
CONTINUOUS
 10
77.4842215373
 20
114.4947553234
  0
VERTEX
  8
0
 62
7
  6
CONTINUOUS
 10
77.4821939246
 20
114.5051573869
  0
SEQEND
  0
LINE
  8
0
 62
7
  6
CONTINUOUS
 10
77.4954996857
 20
114.0111779988
 11
77.4920137986
 21
114.2490475702
  0
LINE
  8
0
 62
7
  6
CONTINUOUS
 10
77.4985601268
 20
113.7059755405
 11
77.4954996857
 21
114.0111779988
  0
LINE
  8
0
 62
7
  6
CONTINUOUS
 10
77.5010972827
 20
113.343199887
 11
77.4985601268
 21
113.7059755405
  0
LINE
  8
0
 62
7
  6
CONTINUOUS
 10
77.5030300508
 20
112.9344506599
 11
77.5010972827
 21
113.343199887
  0
LINE
  8
0
 62
7
  6
CONTINUOUS
 10
77.5042966543
 20
112.4927962928
 11
77.5030300508
 21
112.9344506599
  0
LINE
  8
0
 62
7
  6
CONTINUOUS
 10
77.504856566
 20
112.0324623801
 11
77.5042966543
 21
112.4927962928
  0
LINE
  8
0
 62
7
  6
CONTINUOUS
 10
77.4821939246
 20
114.5051573869
 11
77.4821939246
 21
121.2051897523
  0
LINE
  8
0
 62
7
  6
CONTINUOUS
 10
79.3621939246
 20
121.9751573869
 11
79.3621939246
 21
108.2051593694
  0
LINE
  8
0
 62
7
  6
CONTINUOUS
 10
79.7121939246
 20
127.2351573869
 11
79.7121939246
 21
141.0051573869
  0
POLYLINE
  8
0
 62
7
  6
CONTINUOUS
 66
1
 70
0
  0
VERTEX
  8
0
 62
7
  6
CONTINUOUS
 10
77.504856566
 20
112.0324623801
  0
VERTEX
  8
0
 62
7
  6
CONTINUOUS
 10
77.5038057563
 20
111.9898904516
  0
VERTEX
  8
0
 62
7
  6
CONTINUOUS
 10
77.5006181866
 20
111.9474177798
  0
VERTEX
  8
0
 62
7
  6
CONTINUOUS
 10
77.4953008211
 20
111.9051573869
  0
SEQEND
  0
POLYLINE
  8
0
 62
7
  6
CONTINUOUS
 66
1
 70
0
  0
VERTEX
  8
0
 62
7
  6
CONTINUOUS
 10
81.579087028
 20
137.3051573869
  0
VERTEX
  8
0
 62
7
  6
CONTINUOUS
 10
81.5993408215
 20
137.4010408916
  0
VERTEX
  8
0
 62
7
  6
CONTINUOUS
 10
81.6309572111
 20
137.4949930509
  0
VERTEX
  8
0
 62
7
  6
CONTINUOUS
 10
81.6737661807
 20
137.585396918
  0
VERTEX
  8
0
 62
7
  6
CONTINUOUS
 10
81.7275835956
 20
137.6710420022
  0
VERTEX
  8
0
 62
7
  6
CONTINUOUS
 10
81.7913555768
 20
137.7498253167
  0
VERTEX
  8
0
 62
7
  6
CONTINUOUS
 10
81.8638974351
 20
137.8203072576
  0
VERTEX
  8
0
 62
7
  6
CONTINUOUS
 10
81.9449284384
 20
137.8821009628
  0
VERTEX
  8
0
 62
7
  6
CONTINUOUS
 10
82.032794396
 20
137.9337850132
  0
VERTEX
  8
0
 62
7
  6
CONTINUOUS
 10
82.125453722
 20
137.9743308813
  0
VERTEX
  8
0
 62
7
  6
CONTINUOUS
 10
82.2222707247
 20
138.0036224728
  0
VERTEX
  8
0
 62
7
  6
CONTINUOUS
 10
82.3214237812
 20
138.0211937715
  0
VERTEX
  8
0
 62
7
  6
CONTINUOUS
 10
82.4203635839
 20
138.0269553622
  0
SEQEND
  0
LINE
  8
CURVE
 62
7
  6
CONTINUOUS
 10
36.1121939246
 20
107.3551573869
 11
38.4721939246
 21
107.3551573869
  0
LINE
  8
CURVE
 62
7
  6
CONTINUOUS
 10
48.8121939246
 20
107.3551573869
 11
53.1121939246
 21
107.3551573869
  0
LINE
  8
CURVE
 62
7
  6
CONTINUOUS
 10
61.5121939246
 20
107.3551573869
 11
65.8121939246
 21
107.3551573869
  0
LINE
  8
0
 62
7
  6
CONTINUOUS
 10
74.2121939246
 20
107.3551573869
 11
78.5121939246
 21
107.3551573869
  0
LINE
  8
0
 62
7
  6
CONTINUOUS
 10
86.9121939246
 20
107.3551573869
 11
91.2121939246
 21
107.3551573869
  0
LINE
  8
0
 62
7
  6
CONTINUOUS
 10
101.5521939246
 20
107.3551573869
 11
103.9121939246
 21
107.3551573869
  0
LINE
  8
0
 62
7
  6
CONTINUOUS
 10
89.3540242653
 20
111.1833594116
 11
88.7703635839
 21
111.1833594116
  0
LINE
  8
0
 62
7
  6
CONTINUOUS
 10
76.6540242653
 20
111.1833594116
 11
76.0703635839
 21
111.1833594116
  0
LINE
  8
CURVE
 62
7
  6
CONTINUOUS
 10
50.6703635839
 20
111.1833594116
 11
51.2540242653
 21
111.1833594116
  0
LINE
  8
CURVE
 62
7
  6
CONTINUOUS
 10
63.3703635839
 20
111.1833594116
 11
63.9540242653
 21
111.1833594116
  0
POLYLINE
  8
0
 62
7
  6
CONTINUOUS
 66
1
 70
0
  0
VERTEX
  8
0
 62
7
  6
CONTINUOUS
 10
76.0703635839
 20
111.1833594116
  0
VERTEX
  8
0
 62
7
  6
CONTINUOUS
 10
75.9714177746
 20
111.1891217042
  0
VERTEX
  8
0
 62
7
  6
CONTINUOUS
 10
75.8722678866
 20
111.2066929789
  0
VERTEX
  8
0
 62
7
  6
CONTINUOUS
 10
75.7754666433
 20
111.2359791301
  0
VERTEX
  8
0
 62
7
  6
CONTINUOUS
 10
75.6828121896
 20
111.2765206811
  0
VERTEX
  8
0
 62
7
  6
CONTINUOUS
 10
75.5949505507
 20
111.3281989548
  0
VERTEX
  8
0
 62
7
  6
CONTINUOUS
 10
75.513935603
 20
111.3899746153
  0
VERTEX
  8
0
 62
7
  6
CONTINUOUS
 10
75.4414030575
 20
111.4604374854
  0
VERTEX
  8
0
 62
7
  6
CONTINUOUS
 10
75.3776268103
 20
111.5392123358
  0
VERTEX
  8
0
 62
7
  6
CONTINUOUS
 10
75.3238093271
 20
111.6248391337
  0
VERTEX
  8
0
 62
7
  6
CONTINUOUS
 10
75.2809981727
 20
111.7152201234
  0
VERTEX
  8
0
 62
7
  6
CONTINUOUS
 10
75.2493558179
 20
111.8092188595
  0
VERTEX
  8
0
 62
7
  6
CONTINUOUS
 10
75.229087028
 20
111.9051573869
  0
SEQEND
  0
POLYLINE
  8
0
 62
7
  6
CONTINUOUS
 66
1
 70
0
  0
VERTEX
  8
0
 62
7
  6
CONTINUOUS
 10
88.7703635839
 20
111.1833594116
  0
VERTEX
  8
0
 62
7
  6
CONTINUOUS
 10
88.6714177746
 20
111.1891217042
  0
VERTEX
  8
0
 62
7
  6
CONTINUOUS
 10
88.5722678866
 20
111.2066929789
  0
VERTEX
  8
0
 62
7
  6
CONTINUOUS
 10
88.4754666433
 20
111.2359791301
  0
VERTEX
  8
0
 62
7
  6
CONTINUOUS
 10
88.3828121896
 20
111.2765206811
  0
VERTEX
  8
0
 62
7
  6
CONTINUOUS
 10
88.2949505507
 20
111.3281989548
  0
VERTEX
  8
0
 62
7
  6
CONTINUOUS
 10
88.213935603
 20
111.3899746153
  0
VERTEX
  8
0
 62
7
  6
CONTINUOUS
 10
88.1414030575
 20
111.4604374854
  0
VERTEX
  8
0
 62
7
  6
CONTINUOUS
 10
88.0776268103
 20
111.5392123358
  0
VERTEX
  8
0
 62
7
  6
CONTINUOUS
 10
88.0238093271
 20
111.6248391337
  0
VERTEX
  8
0
 62
7
  6
CONTINUOUS
 10
87.9809981727
 20
111.7152201234
  0
VERTEX
  8
0
 62
7
  6
CONTINUOUS
 10
87.9493558179
 20
111.8092188595
  0
VERTEX
  8
0
 62
7
  6
CONTINUOUS
 10
87.929087028
 20
111.9051573869
  0
SEQEND
  0
POLYLINE
  8
CURVE
 62
7
  6
CONTINUOUS
 66
1
 70
0
  0
VERTEX
  8
CURVE
 62
7
  6
CONTINUOUS
 10
50.6921615592
 20
111.5365464446
  0
VERTEX
  8
CURVE
 62
7
  6
CONTINUOUS
 10
50.6264743237
 20
111.5407171974
  0
VERTEX
  8
CURVE
 62
7
  6
CONTINUOUS
 10
50.5617166432
 20
111.553198957
  0
VERTEX
  8
CURVE
 62
7
  6
CONTINUOUS
 10
50.499096093
 20
111.573774412
  0
VERTEX
  8
CURVE
 62
7
  6
CONTINUOUS
 10
50.439685007
 20
111.6020677918
  0
VERTEX
  8
CURVE
 62
7
  6
CONTINUOUS
 10
50.3843343141
 20
111.6376513582
  0
VERTEX
  8
CURVE
 62
7
  6
CONTINUOUS
 10
50.3335078767
 20
111.6803630466
  0
VERTEX
  8
CURVE
 62
7
  6
CONTINUOUS
 10
50.2884166888
 20
111.7293903896
  0
VERTEX
  8
CURVE
 62
7
  6
CONTINUOUS
 10
50.2500798414
 20
111.7836398021
  0
VERTEX
  8
CURVE
 62
7
  6
CONTINUOUS
 10
50.218984768
 20
111.842376786
  0
VERTEX
  8
CURVE
 62
7
  6
CONTINUOUS
 10
50.1954998493
 20
111.9051573869
  0
SEQEND
  0
LINE
  8
0
 62
7
  6
CONTINUOUS
 10
72.9164858475
 20
123.233798169
 11
72.8355262379
 21
123.3337749607
  0
LINE
  8
0
 62
7
  6
CONTINUOUS
 10
73.4579020017
 20
125.9765166048
 11
73.5388616067
 21
125.8765398188
  0
LINE
  8
0
 62
7
  6
CONTINUOUS
 10
81.5823740506
 20
134.9612672028
 11
81.5788881634
 21
135.1991367744
  0
LINE
  8
0
 62
7
  6
CONTINUOUS
 10
81.5788881634
 20
135.1991367744
 11
81.5758277223
 21
135.5043392333
  0
LINE
  8
0
 62
7
  6
CONTINUOUS
 10
81.5758277223
 20
135.5043392333
 11
81.5732905665
 21
135.8671148875
  0
LINE
  8
0
 62
7
  6
CONTINUOUS
 10
81.5732905665
 20
135.8671148875
 11
81.5713577983
 21
136.2758641152
  0
LINE
  8
0
 62
7
  6
CONTINUOUS
 10
81.5713577983
 20
136.2758641152
 11
81.5700911949
 21
136.7175184822
  0
LINE
  8
0
 62
7
  6
CONTINUOUS
 10
81.5700911949
 20
136.7175184822
 11
81.5695312832
 21
137.1778523937
  0
LINE
  8
0
 62
7
  6
CONTINUOUS
 10
81.5921939246
 20
134.7051573869
 11
81.5921939246
 21
128.0051250215
  0
LINE
  8
0
 62
7
  6
CONTINUOUS
 10
83.8321939246
 20
128.0051250215
 11
83.8321939246
 21
134.7051573869
  0
LINE
  8
0
 62
7
  6
CONTINUOUS
 10
83.8542966543
 20
136.7175184822
 11
83.854856566
 21
137.1778523937
  0
LINE
  8
0
 62
7
  6
CONTINUOUS
 10
83.8530300508
 20
136.2758641152
 11
83.8542966543
 21
136.7175184822
  0
LINE
  8
0
 62
7
  6
CONTINUOUS
 10
83.8510972827
 20
135.8671148875
 11
83.8530300508
 21
136.2758641152
  0
LINE
  8
0
 62
7
  6
CONTINUOUS
 10
83.8485601268
 20
135.5043392333
 11
83.8510972827
 21
135.8671148875
  0
LINE
  8
0
 62
7
  6
CONTINUOUS
 10
83.8454996857
 20
135.1991367744
 11
83.8485601268
 21
135.5043392333
  0
POLYLINE
  8
0
 62
7
  6
CONTINUOUS
 66
1
 70
0
  0
VERTEX
  8
0
 62
7
  6
CONTINUOUS
 10
81.5695312832
 20
137.1778523937
  0
VERTEX
  8
0
 62
7
  6
CONTINUOUS
 10
81.5705819304
 20
137.2204210616
  0
VERTEX
  8
0
 62
7
  6
CONTINUOUS
 10
81.5737693451
 20
137.2628938314
  0
VERTEX
  8
0
 62
7
  6
CONTINUOUS
 10
81.579087028
 20
137.3051573869
  0
SEQEND
  0
POLYLINE
  8
0
 62
7
  6
CONTINUOUS
 66
1
 70
0
  0
VERTEX
  8
0
 62
7
  6
CONTINUOUS
 10
83.8321939246
 20
128.0051250215
  0
VERTEX
  8
0
 62
7
  6
CONTINUOUS
 10
83.8275380188
 20
127.916279083
  0
VERTEX
  8
0
 62
7
  6
CONTINUOUS
 10
83.8136211476
 20
127.8284063892
  0
VERTEX
  8
0
 62
7
  6
CONTINUOUS
 10
83.790595547
 20
127.7424696482
  0
VERTEX
  8
0
 62
7
  6
CONTINUOUS
 10
83.7587132775
 20
127.6594104262
  0
VERTEX
  8
0
 62
7
  6
CONTINUOUS
 10
83.7183234816
 20
127.580138816
  0
VERTEX
  8
0
 62
7
  6
CONTINUOUS
 10
83.6698685711
 20
127.5055234451
  0
VERTEX
  8
0
 62
7
  6
CONTINUOUS
 10
83.6138793859
 20
127.4363819362
  0
VERTEX
  8
0
 62
7
  6
CONTINUOUS
 10
83.5509693753
 20
127.3734719256
  0
VERTEX
  8
0
 62
7
  6
CONTINUOUS
 10
83.4818278664
 20
127.3174827404
  0
VERTEX
  8
0
 62
7
  6
CONTINUOUS
 10
83.4072124955
 20
127.2690278299
  0
VERTEX
  8
0
 62
7
  6
CONTINUOUS
 10
83.3279408853
 20
127.228638034
  0
VERTEX
  8
0
 62
7
  6
CONTINUOUS
 10
83.2448816633
 20
127.1967557645
  0
VERTEX
  8
0
 62
7
  6
CONTINUOUS
 10
83.1589449223
 20
127.1737301639
  0
VERTEX
  8
0
 62
7
  6
CONTINUOUS
 10
83.0710722284
 20
127.1598132927
  0
VERTEX
  8
0
 62
7
  6
CONTINUOUS
 10
82.98222629
 20
127.1551573869
  0
SEQEND
  0
POLYLINE
  8
0
 62
7
  6
CONTINUOUS
 66
1
 70
0
  0
VERTEX
  8
0
 62
7
  6
CONTINUOUS
 10
83.8321939246
 20
134.7051573869
  0
VERTEX
  8
0
 62
7
  6
CONTINUOUS
 10
83.8342215373
 20
134.7155594503
  0
VERTEX
  8
0
 62
7
  6
CONTINUOUS
 10
83.8362339072
 20
134.7467027517
  0
VERTEX
  8
0
 62
7
  6
CONTINUOUS
 10
83.8382139161
 20
134.7983377614
  0
VERTEX
  8
0
 62
7
  6
CONTINUOUS
 10
83.8401457043
 20
134.8700507675
  0
VERTEX
  8
0
 62
7
  6
CONTINUOUS
 10
83.8420137986
 20
134.9612672028
  0
VERTEX
  8
0
 62
7
  6
CONTINUOUS
 10
83.8454996857
 20
135.1991367744
  0
SEQEND
  0
POLYLINE
  8
0
 62
7
  6
CONTINUOUS
 66
1
 70
0
  0
VERTEX
  8
0
 62
7
  6
CONTINUOUS
 10
77.4953008211
 20
111.9051573869
  0
VERTEX
  8
0
 62
7
  6
CONTINUOUS
 10
77.4750321372
 20
111.8092192484
  0
VERTEX
  8
0
 62
7
  6
CONTINUOUS
 10
77.4433918365
 20
111.71522548
  0
VERTEX
  8
0
 62
7
  6
CONTINUOUS
 10
77.4005775916
 20
111.6248374362
  0
VERTEX
  8
0
 62
7
  6
CONTINUOUS
 10
77.3467588669
 20
111.5392092986
  0
VERTEX
  8
0
 62
7
  6
CONTINUOUS
 10
77.2829858679
 20
111.4604386634
  0
VERTEX
  8
0
 62
7
  6
CONTINUOUS
 10
77.2104493081
 20
111.3899720829
  0
VERTEX
  8
0
 62
7
  6
CONTINUOUS
 10
77.1294259493
 20
111.3281913303
  0
VERTEX
  8
0
 62
7
  6
CONTINUOUS
 10
77.0415619799
 20
111.2765137011
  0
VERTEX
  8
0
 62
7
  6
CONTINUOUS
 10
76.9489059527
 20
111.2359735086
  0
VERTEX
  8
0
 62
7
  6
CONTINUOUS
 10
76.8520975373
 20
111.2066876228
  0
VERTEX
  8
0
 62
7
  6
CONTINUOUS
 10
76.7529519301
 20
111.1891195841
  0
VERTEX
  8
0
 62
7
  6
CONTINUOUS
 10
76.6540242653
 20
111.1833594116
  0
SEQEND
  0
LINE
  8
0
 62
7
  6
CONTINUOUS
 10
79.1855262378
 20
125.876539813
 11
79.2664858475
 21
125.9765166048
  0
LINE
  8
0
 62
7
  6
CONTINUOUS
 10
79.8888616092
 20
123.3337749581
 11
79.8079020017
 21
123.233798169
  0
POLYLINE
  8
0
 62
7
  6
CONTINUOUS
 66
1
 70
0
  0
VERTEX
  8
0
 62
7
  6
CONTINUOUS
 10
89.33222629
 20
111.5365464446
  0
VERTEX
  8
0
 62
7
  6
CONTINUOUS
 10
89.3979135255
 20
111.5407171974
  0
VERTEX
  8
0
 62
7
  6
CONTINUOUS
 10
89.462671206
 20
111.553198957
  0
VERTEX
  8
0
 62
7
  6
CONTINUOUS
 10
89.5252917562
 20
111.573774412
  0
VERTEX
  8
0
 62
7
  6
CONTINUOUS
 10
89.5847028421
 20
111.6020677918
  0
VERTEX
  8
0
 62
7
  6
CONTINUOUS
 10
89.6400535351
 20
111.6376513582
  0
VERTEX
  8
0
 62
7
  6
CONTINUOUS
 10
89.6908799725
 20
111.6803630466
  0
VERTEX
  8
0
 62
7
  6
CONTINUOUS
 10
89.7359711604
 20
111.7293903896
  0
VERTEX
  8
0
 62
7
  6
CONTINUOUS
 10
89.7743080077
 20
111.7836398021
  0
VERTEX
  8
0
 62
7
  6
CONTINUOUS
 10
89.8054030811
 20
111.842376786
  0
VERTEX
  8
0
 62
7
  6
CONTINUOUS
 10
89.8288879998
 20
111.9051573869
  0
SEQEND
  0
POLYLINE
  8
CURVE
 62
7
  6
CONTINUOUS
 66
1
 70
0
  0
VERTEX
  8
CURVE
 62
7
  6
CONTINUOUS
 10
63.9540242653
 20
111.1833594116
  0
VERTEX
  8
CURVE
 62
7
  6
CONTINUOUS
 10
64.0529700746
 20
111.1891217042
  0
VERTEX
  8
CURVE
 62
7
  6
CONTINUOUS
 10
64.1521199626
 20
111.2066929789
  0
VERTEX
  8
CURVE
 62
7
  6
CONTINUOUS
 10
64.2489212059
 20
111.2359791301
  0
VERTEX
  8
CURVE
 62
7
  6
CONTINUOUS
 10
64.3415756596
 20
111.2765206811
  0
VERTEX
  8
CURVE
 62
7
  6
CONTINUOUS
 10
64.4294372984
 20
111.3281989548
  0
VERTEX
  8
CURVE
 62
7
  6
CONTINUOUS
 10
64.5104522462
 20
111.3899746153
  0
VERTEX
  8
CURVE
 62
7
  6
CONTINUOUS
 10
64.5829847916
 20
111.4604374854
  0
VERTEX
  8
CURVE
 62
7
  6
CONTINUOUS
 10
64.6467610388
 20
111.5392123358
  0
VERTEX
  8
CURVE
 62
7
  6
CONTINUOUS
 10
64.7005785221
 20
111.6248391337
  0
VERTEX
  8
CURVE
 62
7
  6
CONTINUOUS
 10
64.7433896765
 20
111.7152201234
  0
VERTEX
  8
CURVE
 62
7
  6
CONTINUOUS
 10
64.7750320312
 20
111.8092188595
  0
VERTEX
  8
CURVE
 62
7
  6
CONTINUOUS
 10
64.7953008211
 20
111.9051573869
  0
SEQEND
  0
POLYLINE
  8
CURVE
 62
7
  6
CONTINUOUS
 66
1
 70
0
  0
VERTEX
  8
CURVE
 62
7
  6
CONTINUOUS
 10
51.2540242653
 20
111.1833594116
  0
VERTEX
  8
CURVE
 62
7
  6
CONTINUOUS
 10
51.3529700746
 20
111.1891217042
  0
VERTEX
  8
CURVE
 62
7
  6
CONTINUOUS
 10
51.4521199626
 20
111.2066929789
  0
VERTEX
  8
CURVE
 62
7
  6
CONTINUOUS
 10
51.5489212059
 20
111.2359791301
  0
VERTEX
  8
CURVE
 62
7
  6
CONTINUOUS
 10
51.6415756596
 20
111.2765206811
  0
VERTEX
  8
CURVE
 62
7
  6
CONTINUOUS
 10
51.7294372984
 20
111.3281989548
  0
VERTEX
  8
CURVE
 62
7
  6
CONTINUOUS
 10
51.8104522462
 20
111.3899746153
  0
VERTEX
  8
CURVE
 62
7
  6
CONTINUOUS
 10
51.8829847916
 20
111.4604374854
  0
VERTEX
  8
CURVE
 62
7
  6
CONTINUOUS
 10
51.9467610388
 20
111.5392123358
  0
VERTEX
  8
CURVE
 62
7
  6
CONTINUOUS
 10
52.0005785221
 20
111.6248391337
  0
VERTEX
  8
CURVE
 62
7
  6
CONTINUOUS
 10
52.0433896765
 20
111.7152201234
  0
VERTEX
  8
CURVE
 62
7
  6
CONTINUOUS
 10
52.0750320312
 20
111.8092188595
  0
VERTEX
  8
CURVE
 62
7
  6
CONTINUOUS
 10
52.0953008211
 20
111.9051573869
  0
SEQEND
  0
LINE
  8
0
 62
7
  6
CONTINUOUS
 10
89.33222629
 20
111.5365464446
 11
88.7921615592
 21
111.5365464446
  0
LINE
  8
CURVE
 62
7
  6
CONTINUOUS
 10
50.6921615592
 20
111.5365464446
 11
51.23222629
 21
111.5365464446
  0
LINE
  8
DEFAULT_1
 62
2
  6
CENTER
 10
31.1026648229
 20
111.9051573869
 11
106.7621939246
 21
111.9051573869
  0
LINE
  8
0
 62
7
  6
CONTINUOUS
 10
90.1821939246
 20
114.5051573869
 11
89.8283441979
 21
114.5051573869
  0
LINE
  8
0
 62
7
  6
CONTINUOUS
 10
88.2960436513
 20
114.5051573869
 11
87.9421939246
 21
114.5051573869
  0
LINE
  8
CURVE
 62
7
  6
CONTINUOUS
 10
49.8421939246
 20
114.5051573869
 11
50.1960436513
 21
114.5051573869
  0
LINE
  8
CURVE
 62
7
  6
CONTINUOUS
 10
51.7283441979
 20
114.5051573869
 11
52.0821939246
 21
114.5051573869
  0
POLYLINE
  8
0
 62
7
  6
CONTINUOUS
 66
1
 70
0
  0
VERTEX
  8
0
 62
7
  6
CONTINUOUS
 10
88.2954998493
 20
111.9051573869
  0
VERTEX
  8
0
 62
7
  6
CONTINUOUS
 10
88.3189812293
 20
111.8423846528
  0
VERTEX
  8
0
 62
7
  6
CONTINUOUS
 10
88.3500715202
 20
111.7836533424
  0
VERTEX
  8
0
 62
7
  6
CONTINUOUS
 10
88.3884122066
 20
111.7293959401
  0
VERTEX
  8
0
 62
7
  6
CONTINUOUS
 10
88.4335024282
 20
111.6803682556
  0
VERTEX
  8
0
 62
7
  6
CONTINUOUS
 10
88.4843218353
 20
111.6376605495
  0
VERTEX
  8
0
 62
7
  6
CONTINUOUS
 10
88.5396654542
 20
111.602078675
  0
VERTEX
  8
0
 62
7
  6
CONTINUOUS
 10
88.5990817178
 20
111.5737801707
  0
VERTEX
  8
0
 62
7
  6
CONTINUOUS
 10
88.6617059629
 20
111.5532017293
  0
VERTEX
  8
0
 62
7
  6
CONTINUOUS
 10
88.726468515
 20
111.540717938
  0
VERTEX
  8
0
 62
7
  6
CONTINUOUS
 10
88.7921615592
 20
111.5365464446
  0
SEQEND
  0
POLYLINE
  8
0
 62
7
  6
CONTINUOUS
 66
1
 70
0
  0
VERTEX
  8
0
 62
7
  6
CONTINUOUS
 10
81.5921939246
 20
134.7051573869
  0
VERTEX
  8
0
 62
7
  6
CONTINUOUS
 10
81.5901663119
 20
134.7155594503
  0
VERTEX
  8
0
 62
7
  6
CONTINUOUS
 10
81.588153942
 20
134.7467027517
  0
VERTEX
  8
0
 62
7
  6
CONTINUOUS
 10
81.586173933
 20
134.7983377614
  0
VERTEX
  8
0
 62
7
  6
CONTINUOUS
 10
81.5842421448
 20
134.8700507675
  0
VERTEX
  8
0
 62
7
  6
CONTINUOUS
 10
81.5823740506
 20
134.9612672028
  0
SEQEND
  0
POLYLINE
  8
0
 62
7
  6
CONTINUOUS
 66
1
 70
0
  0
VERTEX
  8
0
 62
7
  6
CONTINUOUS
 10
88.2733915707
 20
112.0551250215
  0
VERTEX
  8
0
 62
7
  6
CONTINUOUS
 10
88.2758290161
 20
112.0046775403
  0
VERTEX
  8
0
 62
7
  6
CONTINUOUS
 10
88.2832119498
 20
111.9544824472
  0
VERTEX
  8
0
 62
7
  6
CONTINUOUS
 10
88.2954998493
 20
111.9051573869
  0
SEQEND
  0
LINE
  8
0
 62
7
  6
CONTINUOUS
 10
85.7121939246
 20
141.0051554044
 11
85.7121939246
 21
127.2351573869
  0
LINE
  8
0
 62
7
  6
CONTINUOUS
 10
86.0621939246
 20
108.2051573869
 11
86.0621939246
 21
121.9751573869
  0
LINE
  8
0
 62
7
  6
CONTINUOUS
 10
87.9421939246
 20
114.5051573869
 11
87.9421939246
 21
121.2051897523
  0
LINE
  8
0
 62
7
  6
CONTINUOUS
 10
88.2960436513
 20
121.2051897523
 11
88.2960436513
 21
114.5051573869
  0
LINE
  8
0
 62
7
  6
CONTINUOUS
 10
87.9195312832
 20
112.0324623801
 11
87.9200911949
 21
112.4927962928
  0
LINE
  8
0
 62
7
  6
CONTINUOUS
 10
88.2739810648
 20
112.5122810544
 11
88.2733915707
 21
112.0551250215
  0
LINE
  8
0
 62
7
  6
CONTINUOUS
 10
87.9200911949
 20
112.4927962928
 11
87.9213577983
 21
112.9344506599
  0
LINE
  8
0
 62
7
  6
CONTINUOUS
 10
88.2752679318
 20
112.9503607661
 11
88.2739810648
 21
112.5122810544
  0
LINE
  8
0
 62
7
  6
CONTINUOUS
 10
87.9213577983
 20
112.9344506599
 11
87.9232905665
 21
113.343199887
  0
LINE
  8
0
 62
7
  6
CONTINUOUS
 10
88.2772114556
 20
113.3554078554
 11
88.2752679318
 21
112.9503607661
  0
LINE
  8
0
 62
7
  6
CONTINUOUS
 10
87.9232905665
 20
113.343199887
 11
87.9258277223
 21
113.7059755405
  0
LINE
  8
0
 62
7
  6
CONTINUOUS
 10
88.2797502239
 20
113.7146199412
 11
88.2772114556
 21
113.3554078554
  0
LINE
  8
0
 62
7
  6
CONTINUOUS
 10
87.9258277223
 20
113.7059755405
 11
87.9288881634
 21
114.0111779988
  0
LINE
  8
0
 62
7
  6
CONTINUOUS
 10
88.2828040083
 20
114.0166423341
 11
88.2797502239
 21
113.7146199412
  0
POLYLINE
  8
0
 62
7
  6
CONTINUOUS
 66
1
 70
0
  0
VERTEX
  8
0
 62
7
  6
CONTINUOUS
 10
87.9288881634
 20
114.0111779988
  0
VERTEX
  8
0
 62
7
  6
CONTINUOUS
 10
87.9323740505
 20
114.2490475702
  0
VERTEX
  8
0
 62
7
  6
CONTINUOUS
 10
87.9342421448
 20
114.3402640057
  0
VERTEX
  8
0
 62
7
  6
CONTINUOUS
 10
87.936173933
 20
114.4119770119
  0
VERTEX
  8
0
 62
7
  6
CONTINUOUS
 10
87.938153942
 20
114.4636120218
  0
VERTEX
  8
0
 62
7
  6
CONTINUOUS
 10
87.9401663119
 20
114.4947553234
  0
VERTEX
  8
0
 62
7
  6
CONTINUOUS
 10
87.9421939246
 20
114.5051573869
  0
SEQEND
  0
POLYLINE
  8
0
 62
7
  6
CONTINUOUS
 66
1
 70
0
  0
VERTEX
  8
0
 62
7
  6
CONTINUOUS
 10
87.9421939246
 20
121.2051897523
  0
VERTEX
  8
0
 62
7
  6
CONTINUOUS
 10
87.9468502738
 20
121.2940399094
  0
VERTEX
  8
0
 62
7
  6
CONTINUOUS
 10
87.9607681293
 20
121.3819151018
  0
VERTEX
  8
0
 62
7
  6
CONTINUOUS
 10
87.9837947663
 20
121.4678527098
  0
VERTEX
  8
0
 62
7
  6
CONTINUOUS
 10
88.0156777173
 20
121.5509114129
  0
VERTEX
  8
0
 62
7
  6
CONTINUOUS
 10
88.0560675541
 20
121.630181477
  0
VERTEX
  8
0
 62
7
  6
CONTINUOUS
 10
88.1045217306
 20
121.7047947043
  0
VERTEX
  8
0
 62
7
  6
CONTINUOUS
 10
88.1605094352
 20
121.7739339171
  0
VERTEX
  8
0
 62
7
  6
CONTINUOUS
 10
88.2234174011
 20
121.8368418823
  0
VERTEX
  8
0
 62
7
  6
CONTINUOUS
 10
88.2925566139
 20
121.8928295858
  0
VERTEX
  8
0
 62
7
  6
CONTINUOUS
 10
88.3671698405
 20
121.9412837609
  0
VERTEX
  8
0
 62
7
  6
CONTINUOUS
 10
88.4464399034
 20
121.9816735964
  0
VERTEX
  8
0
 62
7
  6
CONTINUOUS
 10
88.529498605
 20
122.0135565462
  0
VERTEX
  8
0
 62
7
  6
CONTINUOUS
 10
88.6154362115
 20
122.0365831826
  0
VERTEX
  8
0
 62
7
  6
CONTINUOUS
 10
88.7033114026
 20
122.0505010378
  0
VERTEX
  8
0
 62
7
  6
CONTINUOUS
 10
88.7921615592
 20
122.0551573869
  0
SEQEND
  0
LINE
  8
CURVE
 62
7
  6
CONTINUOUS
 10
40.1721939246
 20
116.9551573869
 11
40.4121939246
 21
116.9551573869
  0
LINE
  8
0
 62
7
  6
CONTINUOUS
 10
99.6121939246
 20
116.9551573869
 11
99.8521939246
 21
116.9551573869
  0
POLYLINE
  8
CURVE
 62
7
  6
CONTINUOUS
 66
1
 70
0
  0
VERTEX
  8
CURVE
 62
7
  6
CONTINUOUS
 10
63.93222629
 20
122.0551573869
  0
VERTEX
  8
CURVE
 62
7
  6
CONTINUOUS
 10
64.0210722284
 20
122.0505014811
  0
VERTEX
  8
CURVE
 62
7
  6
CONTINUOUS
 10
64.1089449223
 20
122.0365846099
  0
VERTEX
  8
CURVE
 62
7
  6
CONTINUOUS
 10
64.1948816633
 20
122.0135590093
  0
VERTEX
  8
CURVE
 62
7
  6
CONTINUOUS
 10
64.2779408853
 20
121.9816767398
  0
VERTEX
  8
CURVE
 62
7
  6
CONTINUOUS
 10
64.3572124955
 20
121.9412869439
  0
VERTEX
  8
CURVE
 62
7
  6
CONTINUOUS
 10
64.4318278664
 20
121.8928320334
  0
VERTEX
  8
CURVE
 62
7
  6
CONTINUOUS
 10
64.5009693753
 20
121.8368428482
  0
VERTEX
  8
CURVE
 62
7
  6
CONTINUOUS
 10
64.5638793859
 20
121.7739328376
  0
VERTEX
  8
CURVE
 62
7
  6
CONTINUOUS
 10
64.6198685711
 20
121.7047913287
  0
VERTEX
  8
CURVE
 62
7
  6
CONTINUOUS
 10
64.6683234816
 20
121.6301759578
  0
VERTEX
  8
CURVE
 62
7
  6
CONTINUOUS
 10
64.7087132775
 20
121.5509043476
  0
VERTEX
  8
CURVE
 62
7
  6
CONTINUOUS
 10
64.740595547
 20
121.4678451256
  0
VERTEX
  8
CURVE
 62
7
  6
CONTINUOUS
 10
64.7636211476
 20
121.3819083847
  0
VERTEX
  8
CURVE
 62
7
  6
CONTINUOUS
 10
64.7775380188
 20
121.2940356908
  0
VERTEX
  8
CURVE
 62
7
  6
CONTINUOUS
 10
64.7821939246
 20
121.2051897523
  0
SEQEND
  0
POLYLINE
  8
CURVE
 62
7
  6
CONTINUOUS
 66
1
 70
0
  0
VERTEX
  8
CURVE
 62
7
  6
CONTINUOUS
 10
51.23222629
 20
121.7013076602
  0
VERTEX
  8
CURVE
 62
7
  6
CONTINUOUS
 10
51.2919303359
 20
121.6977030343
  0
VERTEX
  8
CURVE
 62
7
  6
CONTINUOUS
 10
51.3508458775
 20
121.6869190111
  0
VERTEX
  8
CURVE
 62
7
  6
CONTINUOUS
 10
51.4080399665
 20
121.6691137011
  0
VERTEX
  8
CURVE
 62
7
  6
CONTINUOUS
 10
51.4627718357
 20
121.6444907557
  0
VERTEX
  8
CURVE
 62
7
  6
CONTINUOUS
 10
51.5140189942
 20
121.613516498
  0
VERTEX
  8
CURVE
 62
7
  6
CONTINUOUS
 10
51.5612418836
 20
121.576521326
  0
VERTEX
  8
CURVE
 62
7
  6
CONTINUOUS
 10
51.6035578637
 20
121.5342053459
  0
VERTEX
  8
CURVE
 62
7
  6
CONTINUOUS
 10
51.6405530357
 20
121.4869824565
  0
VERTEX
  8
CURVE
 62
7
  6
CONTINUOUS
 10
51.6715272934
 20
121.4357352981
  0
VERTEX
  8
CURVE
 62
7
  6
CONTINUOUS
 10
51.6961502388
 20
121.3810034289
  0
VERTEX
  8
CURVE
 62
7
  6
CONTINUOUS
 10
51.7139555488
 20
121.3238093398
  0
VERTEX
  8
CURVE
 62
7
  6
CONTINUOUS
 10
51.724739572
 20
121.2648937983
  0
VERTEX
  8
CURVE
 62
7
  6
CONTINUOUS
 10
51.7283441979
 20
121.2051897523
  0
SEQEND
  0
LINE
  8
0
 62
7
  6
CONTINUOUS
 10
85.6164858475
 20
123.233798169
 11
85.5355262391
 21
123.3337749592
  0
LINE
  8
0
 62
7
  6
CONTINUOUS
 10
86.1579020017
 20
125.9765166048
 11
86.2388616067
 21
125.8765398188
  0
POLYLINE
  8
0
 62
7
  6
CONTINUOUS
 66
1
 70
0
  0
VERTEX
  8
0
 62
7
  6
CONTINUOUS
 10
89.8283441979
 20
114.5051573869
  0
VERTEX
  8
0
 62
7
  6
CONTINUOUS
 10
89.8303602357
 20
114.4948739823
  0
VERTEX
  8
0
 62
7
  6
CONTINUOUS
 10
89.832361279
 20
114.4640854735
  0
VERTEX
  8
0
 62
7
  6
CONTINUOUS
 10
89.8343305126
 20
114.4130357278
  0
VERTEX
  8
0
 62
7
  6
CONTINUOUS
 10
89.8362523432
 20
114.3421290931
  0
VERTEX
  8
0
 62
7
  6
CONTINUOUS
 10
89.8381115535
 20
114.2519271825
  0
SEQEND
  0
POLYLINE
  8
0
 62
7
  6
CONTINUOUS
 66
1
 70
0
  0
VERTEX
  8
0
 62
7
  6
CONTINUOUS
 10
83.8453008211
 20
137.3051573869
  0
VERTEX
  8
0
 62
7
  6
CONTINUOUS
 10
83.8506185671
 20
137.2628932028
  0
VERTEX
  8
0
 62
7
  6
CONTINUOUS
 10
83.8538059482
 20
137.2204204697
  0
VERTEX
  8
0
 62
7
  6
CONTINUOUS
 10
83.854856566
 20
137.1778523937
  0
SEQEND
  0
POLYLINE
  8
0
 62
7
  6
CONTINUOUS
 66
1
 70
0
  0
VERTEX
  8
0
 62
7
  6
CONTINUOUS
 10
87.929087028
 20
111.9051573869
  0
VERTEX
  8
0
 62
7
  6
CONTINUOUS
 10
87.9237696001
 20
111.9474184024
  0
VERTEX
  8
0
 62
7
  6
CONTINUOUS
 10
87.9205820629
 20
111.9898910529
  0
VERTEX
  8
0
 62
7
  6
CONTINUOUS
 10
87.9195312832
 20
112.0324623801
  0
SEQEND
  0
POLYLINE
  8
0
 62
7
  6
CONTINUOUS
 66
1
 70
0
  0
VERTEX
  8
0
 62
7
  6
CONTINUOUS
 10
89.8283441979
 20
121.2051897523
  0
VERTEX
  8
0
 62
7
  6
CONTINUOUS
 10
89.824739572
 20
121.2648937983
  0
VERTEX
  8
0
 62
7
  6
CONTINUOUS
 10
89.8139555488
 20
121.3238093398
  0
VERTEX
  8
0
 62
7
  6
CONTINUOUS
 10
89.7961502388
 20
121.3810034289
  0
VERTEX
  8
0
 62
7
  6
CONTINUOUS
 10
89.7715272934
 20
121.4357352981
  0
VERTEX
  8
0
 62
7
  6
CONTINUOUS
 10
89.7405530357
 20
121.4869824565
  0
VERTEX
  8
0
 62
7
  6
CONTINUOUS
 10
89.7035578637
 20
121.5342053459
  0
VERTEX
  8
0
 62
7
  6
CONTINUOUS
 10
89.6612418836
 20
121.576521326
  0
VERTEX
  8
0
 62
7
  6
CONTINUOUS
 10
89.6140189942
 20
121.613516498
  0
VERTEX
  8
0
 62
7
  6
CONTINUOUS
 10
89.5627718357
 20
121.6444907557
  0
VERTEX
  8
0
 62
7
  6
CONTINUOUS
 10
89.5080399665
 20
121.6691137011
  0
VERTEX
  8
0
 62
7
  6
CONTINUOUS
 10
89.4508458775
 20
121.6869190111
  0
VERTEX
  8
0
 62
7
  6
CONTINUOUS
 10
89.3919303359
 20
121.6977030343
  0
VERTEX
  8
0
 62
7
  6
CONTINUOUS
 10
89.33222629
 20
121.7013076602
  0
SEQEND
  0
POLYLINE
  8
0
 62
7
  6
CONTINUOUS
 66
1
 70
0
  0
VERTEX
  8
0
 62
7
  6
CONTINUOUS
 10
90.1920137986
 20
114.2490475702
  0
VERTEX
  8
0
 62
7
  6
CONTINUOUS
 10
90.1901457044
 20
114.3402640057
  0
VERTEX
  8
0
 62
7
  6
CONTINUOUS
 10
90.1882139162
 20
114.4119770119
  0
VERTEX
  8
0
 62
7
  6
CONTINUOUS
 10
90.1862339072
 20
114.4636120218
  0
VERTEX
  8
0
 62
7
  6
CONTINUOUS
 10
90.1842215373
 20
114.4947553234
  0
VERTEX
  8
0
 62
7
  6
CONTINUOUS
 10
90.1821939246
 20
114.5051573869
  0
SEQEND
  0
LINE
  8
0
 62
7
  6
CONTINUOUS
 10
89.8381115535
 20
114.2519271825
 11
89.8415838409
 21
114.0166423341
  0
LINE
  8
0
 62
7
  6
CONTINUOUS
 10
90.1954996857
 20
114.0111779988
 11
90.1920137986
 21
114.2490475702
  0
LINE
  8
0
 62
7
  6
CONTINUOUS
 10
89.8415838409
 20
114.0166423341
 11
89.8446376252
 21
113.7146199412
  0
LINE
  8
0
 62
7
  6
CONTINUOUS
 10
90.1985601268
 20
113.7059755405
 11
90.1954996857
 21
114.0111779988
  0
LINE
  8
0
 62
7
  6
CONTINUOUS
 10
89.8446376252
 20
113.7146199412
 11
89.8471763935
 21
113.3554078554
  0
LINE
  8
0
 62
7
  6
CONTINUOUS
 10
90.2010972827
 20
113.343199887
 11
90.1985601268
 21
113.7059755405
  0
LINE
  8
0
 62
7
  6
CONTINUOUS
 10
89.8471763935
 20
113.3554078554
 11
89.8491199174
 21
112.9503607661
  0
LINE
  8
0
 62
7
  6
CONTINUOUS
 10
90.2030300508
 20
112.9344506599
 11
90.2010972827
 21
113.343199887
  0
LINE
  8
0
 62
7
  6
CONTINUOUS
 10
89.8491199174
 20
112.9503607661
 11
89.8504067843
 21
112.5122810544
  0
LINE
  8
0
 62
7
  6
CONTINUOUS
 10
90.2042966543
 20
112.4927962928
 11
90.2030300508
 21
112.9344506599
  0
LINE
  8
0
 62
7
  6
CONTINUOUS
 10
89.8504067843
 20
112.5122810544
 11
89.8509962785
 21
112.0551250215
  0
LINE
  8
0
 62
7
  6
CONTINUOUS
 10
90.204856566
 20
112.0324623801
 11
90.2042966543
 21
112.4927962928
  0
LINE
  8
0
 62
7
  6
CONTINUOUS
 10
89.8283441979
 20
114.5051573869
 11
89.8283441979
 21
121.2051897523
  0
LINE
  8
0
 62
7
  6
CONTINUOUS
 10
90.1821939246
 20
121.2051897523
 11
90.1821939246
 21
114.5051573869
  0
LINE
  8
0
 62
7
  6
CONTINUOUS
 10
92.0621939246
 20
121.9751573869
 11
92.0621939246
 21
108.2051593694
  0
LINE
  8
0
 62
7
  6
CONTINUOUS
 10
92.4121939246
 20
127.2351573869
 11
92.4121939246
 21
141.0051573869
  0
POLYLINE
  8
0
 62
7
  6
CONTINUOUS
 66
1
 70
0
  0
VERTEX
  8
0
 62
7
  6
CONTINUOUS
 10
90.204856566
 20
112.0324623801
  0
VERTEX
  8
0
 62
7
  6
CONTINUOUS
 10
90.2038057563
 20
111.9898904516
  0
VERTEX
  8
0
 62
7
  6
CONTINUOUS
 10
90.2006181866
 20
111.9474177798
  0
VERTEX
  8
0
 62
7
  6
CONTINUOUS
 10
90.1953008211
 20
111.9051573869
  0
SEQEND
  0
POLYLINE
  8
0
 62
7
  6
CONTINUOUS
 66
1
 70
0
  0
VERTEX
  8
0
 62
7
  6
CONTINUOUS
 10
88.2960436513
 20
114.5051573869
  0
VERTEX
  8
0
 62
7
  6
CONTINUOUS
 10
88.2940276135
 20
114.4948739823
  0
VERTEX
  8
0
 62
7
  6
CONTINUOUS
 10
88.2920265702
 20
114.4640854735
  0
VERTEX
  8
0
 62
7
  6
CONTINUOUS
 10
88.2900573366
 20
114.4130357278
  0
VERTEX
  8
0
 62
7
  6
CONTINUOUS
 10
88.2881355059
 20
114.3421290931
  0
VERTEX
  8
0
 62
7
  6
CONTINUOUS
 10
88.2862762957
 20
114.2519271825
  0
VERTEX
  8
0
 62
7
  6
CONTINUOUS
 10
88.2828040083
 20
114.0166423341
  0
SEQEND
  0
POLYLINE
  8
0
 62
7
  6
CONTINUOUS
 66
1
 70
0
  0
VERTEX
  8
0
 62
7
  6
CONTINUOUS
 10
94.279087028
 20
137.3051573869
  0
VERTEX
  8
0
 62
7
  6
CONTINUOUS
 10
94.2993408215
 20
137.4010408916
  0
VERTEX
  8
0
 62
7
  6
CONTINUOUS
 10
94.3309572111
 20
137.4949930509
  0
VERTEX
  8
0
 62
7
  6
CONTINUOUS
 10
94.3737661807
 20
137.585396918
  0
VERTEX
  8
0
 62
7
  6
CONTINUOUS
 10
94.4275835956
 20
137.6710420022
  0
VERTEX
  8
0
 62
7
  6
CONTINUOUS
 10
94.4913555768
 20
137.7498253167
  0
VERTEX
  8
0
 62
7
  6
CONTINUOUS
 10
94.5638974351
 20
137.8203072576
  0
VERTEX
  8
0
 62
7
  6
CONTINUOUS
 10
94.6449284384
 20
137.8821009628
  0
VERTEX
  8
0
 62
7
  6
CONTINUOUS
 10
94.732794396
 20
137.9337850132
  0
VERTEX
  8
0
 62
7
  6
CONTINUOUS
 10
94.825453722
 20
137.9743308813
  0
VERTEX
  8
0
 62
7
  6
CONTINUOUS
 10
94.9222707247
 20
138.0036224728
  0
VERTEX
  8
0
 62
7
  6
CONTINUOUS
 10
95.0214237812
 20
138.0211937715
  0
VERTEX
  8
0
 62
7
  6
CONTINUOUS
 10
95.1203635839
 20
138.0269553622
  0
SEQEND
  0
POLYLINE
  8
0
 62
7
  6
CONTINUOUS
 66
1
 70
0
  0
VERTEX
  8
0
 62
7
  6
CONTINUOUS
 10
90.1953008211
 20
111.9051573869
  0
VERTEX
  8
0
 62
7
  6
CONTINUOUS
 10
90.1750321372
 20
111.8092192484
  0
VERTEX
  8
0
 62
7
  6
CONTINUOUS
 10
90.1433918365
 20
111.71522548
  0
VERTEX
  8
0
 62
7
  6
CONTINUOUS
 10
90.1005775916
 20
111.6248374362
  0
VERTEX
  8
0
 62
7
  6
CONTINUOUS
 10
90.0467588669
 20
111.5392092986
  0
VERTEX
  8
0
 62
7
  6
CONTINUOUS
 10
89.9829858679
 20
111.4604386634
  0
VERTEX
  8
0
 62
7
  6
CONTINUOUS
 10
89.9104493081
 20
111.3899720829
  0
VERTEX
  8
0
 62
7
  6
CONTINUOUS
 10
89.8294259493
 20
111.3281913303
  0
VERTEX
  8
0
 62
7
  6
CONTINUOUS
 10
89.7415619799
 20
111.2765137011
  0
VERTEX
  8
0
 62
7
  6
CONTINUOUS
 10
89.6489059527
 20
111.2359735086
  0
VERTEX
  8
0
 62
7
  6
CONTINUOUS
 10
89.5520975373
 20
111.2066876228
  0
VERTEX
  8
0
 62
7
  6
CONTINUOUS
 10
89.4529519301
 20
111.1891195841
  0
VERTEX
  8
0
 62
7
  6
CONTINUOUS
 10
89.3540242653
 20
111.1833594116
  0
SEQEND
  0
POLYLINE
  8
0
 62
7
  6
CONTINUOUS
 66
1
 70
0
  0
VERTEX
  8
0
 62
7
  6
CONTINUOUS
 10
89.8288879998
 20
111.9051573869
  0
VERTEX
  8
0
 62
7
  6
CONTINUOUS
 10
89.8411742756
 20
111.9544742303
  0
VERTEX
  8
0
 62
7
  6
CONTINUOUS
 10
89.8485577261
 20
112.004666163
  0
VERTEX
  8
0
 62
7
  6
CONTINUOUS
 10
89.8509962785
 20
112.0551250215
  0
SEQEND
  0
LINE
  8
0
 62
7
  6
CONTINUOUS
 10
91.8855262378
 20
125.876539813
 11
91.9664858475
 21
125.9765166048
  0
LINE
  8
0
 62
7
  6
CONTINUOUS
 10
92.5888616092
 20
123.3337749581
 11
92.5079020017
 21
123.233798169
  0
POLYLINE
  8
0
 62
7
  6
CONTINUOUS
 66
1
 70
0
  0
VERTEX
  8
0
 62
7
  6
CONTINUOUS
 10
88.7921615592
 20
121.7013076602
  0
VERTEX
  8
0
 62
7
  6
CONTINUOUS
 10
88.7324575132
 20
121.6977030343
  0
VERTEX
  8
0
 62
7
  6
CONTINUOUS
 10
88.6735419717
 20
121.6869190111
  0
VERTEX
  8
0
 62
7
  6
CONTINUOUS
 10
88.6163478826
 20
121.6691137011
  0
VERTEX
  8
0
 62
7
  6
CONTINUOUS
 10
88.5616160134
 20
121.6444907557
  0
VERTEX
  8
0
 62
7
  6
CONTINUOUS
 10
88.5103688549
 20
121.613516498
  0
VERTEX
  8
0
 62
7
  6
CONTINUOUS
 10
88.4631459656
 20
121.576521326
  0
VERTEX
  8
0
 62
7
  6
CONTINUOUS
 10
88.4208299854
 20
121.5342053459
  0
VERTEX
  8
0
 62
7
  6
CONTINUOUS
 10
88.3838348135
 20
121.4869824565
  0
VERTEX
  8
0
 62
7
  6
CONTINUOUS
 10
88.3528605558
 20
121.4357352981
  0
VERTEX
  8
0
 62
7
  6
CONTINUOUS
 10
88.3282376104
 20
121.3810034289
  0
VERTEX
  8
0
 62
7
  6
CONTINUOUS
 10
88.3104323004
 20
121.3238093398
  0
VERTEX
  8
0
 62
7
  6
CONTINUOUS
 10
88.2996482772
 20
121.2648937983
  0
VERTEX
  8
0
 62
7
  6
CONTINUOUS
 10
88.2960436513
 20
121.2051897523
  0
SEQEND
  0
POLYLINE
  8
0
 62
7
  6
CONTINUOUS
 66
1
 70
0
  0
VERTEX
  8
0
 62
7
  6
CONTINUOUS
 10
76.0921615592
 20
122.0551573869
  0
VERTEX
  8
0
 62
7
  6
CONTINUOUS
 10
76.0033156207
 20
122.0505014811
  0
VERTEX
  8
0
 62
7
  6
CONTINUOUS
 10
75.9154429268
 20
122.0365846099
  0
VERTEX
  8
0
 62
7
  6
CONTINUOUS
 10
75.8295061859
 20
122.0135590093
  0
VERTEX
  8
0
 62
7
  6
CONTINUOUS
 10
75.7464469639
 20
121.9816767398
  0
VERTEX
  8
0
 62
7
  6
CONTINUOUS
 10
75.6671753537
 20
121.9412869439
  0
VERTEX
  8
0
 62
7
  6
CONTINUOUS
 10
75.5925599827
 20
121.8928320334
  0
VERTEX
  8
0
 62
7
  6
CONTINUOUS
 10
75.5234184739
 20
121.8368428482
  0
VERTEX
  8
0
 62
7
  6
CONTINUOUS
 10
75.4605084633
 20
121.7739328376
  0
VERTEX
  8
0
 62
7
  6
CONTINUOUS
 10
75.4045192781
 20
121.7047913287
  0
VERTEX
  8
0
 62
7
  6
CONTINUOUS
 10
75.3560643676
 20
121.6301759578
  0
VERTEX
  8
0
 62
7
  6
CONTINUOUS
 10
75.3156745717
 20
121.5509043476
  0
VERTEX
  8
0
 62
7
  6
CONTINUOUS
 10
75.2837923021
 20
121.4678451256
  0
VERTEX
  8
0
 62
7
  6
CONTINUOUS
 10
75.2607667016
 20
121.3819083847
  0
VERTEX
  8
0
 62
7
  6
CONTINUOUS
 10
75.2468498304
 20
121.2940356908
  0
VERTEX
  8
0
 62
7
  6
CONTINUOUS
 10
75.2421939246
 20
121.2051897523
  0
SEQEND
  0
POLYLINE
  8
CURVE
 62
7
  6
CONTINUOUS
 66
1
 70
0
  0
VERTEX
  8
CURVE
 62
7
  6
CONTINUOUS
 10
63.3921615592
 20
122.0551573869
  0
VERTEX
  8
CURVE
 62
7
  6
CONTINUOUS
 10
63.3033156207
 20
122.0505014811
  0
VERTEX
  8
CURVE
 62
7
  6
CONTINUOUS
 10
63.2154429268
 20
122.0365846099
  0
VERTEX
  8
CURVE
 62
7
  6
CONTINUOUS
 10
63.1295061859
 20
122.0135590093
  0
VERTEX
  8
CURVE
 62
7
  6
CONTINUOUS
 10
63.0464469639
 20
121.9816767398
  0
VERTEX
  8
CURVE
 62
7
  6
CONTINUOUS
 10
62.9671753537
 20
121.9412869439
  0
VERTEX
  8
CURVE
 62
7
  6
CONTINUOUS
 10
62.8925599827
 20
121.8928320334
  0
VERTEX
  8
CURVE
 62
7
  6
CONTINUOUS
 10
62.8234184739
 20
121.8368428482
  0
VERTEX
  8
CURVE
 62
7
  6
CONTINUOUS
 10
62.7605084633
 20
121.7739328376
  0
VERTEX
  8
CURVE
 62
7
  6
CONTINUOUS
 10
62.7045192781
 20
121.7047913287
  0
VERTEX
  8
CURVE
 62
7
  6
CONTINUOUS
 10
62.6560643676
 20
121.6301759578
  0
VERTEX
  8
CURVE
 62
7
  6
CONTINUOUS
 10
62.6156745717
 20
121.5509043476
  0
VERTEX
  8
CURVE
 62
7
  6
CONTINUOUS
 10
62.5837923021
 20
121.4678451256
  0
VERTEX
  8
CURVE
 62
7
  6
CONTINUOUS
 10
62.5607667016
 20
121.3819083847
  0
VERTEX
  8
CURVE
 62
7
  6
CONTINUOUS
 10
62.5468498304
 20
121.2940356908
  0
VERTEX
  8
CURVE
 62
7
  6
CONTINUOUS
 10
62.5421939246
 20
121.2051897523
  0
SEQEND
  0
POLYLINE
  8
CURVE
 62
7
  6
CONTINUOUS
 66
1
 70
0
  0
VERTEX
  8
CURVE
 62
7
  6
CONTINUOUS
 10
50.6921615592
 20
122.0551573869
  0
VERTEX
  8
CURVE
 62
7
  6
CONTINUOUS
 10
50.6033114021
 20
122.0505010377
  0
VERTEX
  8
CURVE
 62
7
  6
CONTINUOUS
 10
50.5154362097
 20
122.0365831822
  0
VERTEX
  8
CURVE
 62
7
  6
CONTINUOUS
 10
50.4294986017
 20
122.0135565452
  0
VERTEX
  8
CURVE
 62
7
  6
CONTINUOUS
 10
50.3464398986
 20
121.9816735942
  0
VERTEX
  8
CURVE
 62
7
  6
CONTINUOUS
 10
50.2671698345
 20
121.9412837574
  0
VERTEX
  8
CURVE
 62
7
  6
CONTINUOUS
 10
50.1925566072
 20
121.8928295809
  0
VERTEX
  8
CURVE
 62
7
  6
CONTINUOUS
 10
50.1234173944
 20
121.8368418763
  0
VERTEX
  8
CURVE
 62
7
  6
CONTINUOUS
 10
50.0605094292
 20
121.7739339104
  0
VERTEX
  8
CURVE
 62
7
  6
CONTINUOUS
 10
50.0045217257
 20
121.7047946976
  0
VERTEX
  8
CURVE
 62
7
  6
CONTINUOUS
 10
49.9560675506
 20
121.630181471
  0
VERTEX
  8
CURVE
 62
7
  6
CONTINUOUS
 10
49.9156777151
 20
121.5509114081
  0
VERTEX
  8
CURVE
 62
7
  6
CONTINUOUS
 10
49.8837947653
 20
121.4678527065
  0
VERTEX
  8
CURVE
 62
7
  6
CONTINUOUS
 10
49.8607681289
 20
121.3819151
  0
VERTEX
  8
CURVE
 62
7
  6
CONTINUOUS
 10
49.8468502737
 20
121.2940399089
  0
VERTEX
  8
CURVE
 62
7
  6
CONTINUOUS
 10
49.8421939246
 20
121.2051897523
  0
SEQEND
  0
LINE
  8
0
 62
7
  6
CONTINUOUS
 10
89.33222629
 20
121.7013076602
 11
88.7921615592
 21
121.7013076602
  0
LINE
  8
CURVE
 62
7
  6
CONTINUOUS
 10
50.6921615592
 20
121.7013076602
 11
51.23222629
 21
121.7013076602
  0
LINE
  8
CURVE
 62
7
  6
CONTINUOUS
 10
28.3821939246
 20
121.8251573869
 11
32.2621939246
 21
121.8251573869
  0
LINE
  8
CURVE
 62
7
  6
CONTINUOUS
 10
41.5621939246
 20
121.8251573869
 11
47.6621939246
 21
121.8251573869
  0
LINE
  8
CURVE
 62
7
  6
CONTINUOUS
 10
54.2621939246
 20
121.8251573869
 11
60.3621939246
 21
121.8251573869
  0
LINE
  8
CURVE
 62
7
  6
CONTINUOUS
 10
66.9621939246
 20
121.8251573869
 11
73.0621939246
 21
121.8251573869
  0
LINE
  8
0
 62
7
  6
CONTINUOUS
 10
79.6621939246
 20
121.8251573869
 11
85.7621939246
 21
121.8251573869
  0
LINE
  8
0
 62
7
  6
CONTINUOUS
 10
92.3621939246
 20
121.8251573869
 11
98.4621939246
 21
121.8251573869
  0
LINE
  8
0
 62
7
  6
CONTINUOUS
 10
107.7621939246
 20
121.8251573869
 11
111.6421939246
 21
121.8251573869
  0
LINE
  8
0
 62
7
  6
CONTINUOUS
 10
76.63222629
 20
122.0551573869
 11
76.0921615592
 21
122.0551573869
  0
LINE
  8
CURVE
 62
7
  6
CONTINUOUS
 10
51.23222629
 20
122.0551573869
 11
50.6921615592
 21
122.0551573869
  0
LINE
  8
CURVE
 62
7
  6
CONTINUOUS
 10
63.3921615592
 20
122.0551573869
 11
63.93222629
 21
122.0551573869
  0
LINE
  8
0
 62
7
  6
CONTINUOUS
 10
88.7921615592
 20
122.0551573869
 11
89.33222629
 21
122.0551573869
  0
POLYLINE
  8
0
 62
7
  6
CONTINUOUS
 66
1
 70
0
  0
VERTEX
  8
0
 62
7
  6
CONTINUOUS
 10
76.63222629
 20
122.0551573869
  0
VERTEX
  8
0
 62
7
  6
CONTINUOUS
 10
76.7210722284
 20
122.0505014811
  0
VERTEX
  8
0
 62
7
  6
CONTINUOUS
 10
76.8089449223
 20
122.0365846099
  0
VERTEX
  8
0
 62
7
  6
CONTINUOUS
 10
76.8948816633
 20
122.0135590093
  0
VERTEX
  8
0
 62
7
  6
CONTINUOUS
 10
76.9779408853
 20
121.9816767398
  0
VERTEX
  8
0
 62
7
  6
CONTINUOUS
 10
77.0572124955
 20
121.9412869439
  0
VERTEX
  8
0
 62
7
  6
CONTINUOUS
 10
77.1318278664
 20
121.8928320334
  0
VERTEX
  8
0
 62
7
  6
CONTINUOUS
 10
77.2009693753
 20
121.8368428482
  0
VERTEX
  8
0
 62
7
  6
CONTINUOUS
 10
77.2638793859
 20
121.7739328376
  0
VERTEX
  8
0
 62
7
  6
CONTINUOUS
 10
77.3198685711
 20
121.7047913287
  0
VERTEX
  8
0
 62
7
  6
CONTINUOUS
 10
77.3683234816
 20
121.6301759578
  0
VERTEX
  8
0
 62
7
  6
CONTINUOUS
 10
77.4087132775
 20
121.5509043476
  0
VERTEX
  8
0
 62
7
  6
CONTINUOUS
 10
77.440595547
 20
121.4678451256
  0
VERTEX
  8
0
 62
7
  6
CONTINUOUS
 10
77.4636211476
 20
121.3819083847
  0
VERTEX
  8
0
 62
7
  6
CONTINUOUS
 10
77.4775380188
 20
121.2940356908
  0
VERTEX
  8
0
 62
7
  6
CONTINUOUS
 10
77.4821939246
 20
121.2051897523
  0
SEQEND
  0
POLYLINE
  8
0
 62
7
  6
CONTINUOUS
 66
1
 70
0
  0
VERTEX
  8
0
 62
7
  6
CONTINUOUS
 10
89.33222629
 20
122.0551573869
  0
VERTEX
  8
0
 62
7
  6
CONTINUOUS
 10
89.4210764471
 20
122.0505010377
  0
VERTEX
  8
0
 62
7
  6
CONTINUOUS
 10
89.5089516395
 20
122.0365831822
  0
VERTEX
  8
0
 62
7
  6
CONTINUOUS
 10
89.5948892475
 20
122.0135565452
  0
VERTEX
  8
0
 62
7
  6
CONTINUOUS
 10
89.6779479506
 20
121.9816735942
  0
VERTEX
  8
0
 62
7
  6
CONTINUOUS
 10
89.7572180147
 20
121.9412837574
  0
VERTEX
  8
0
 62
7
  6
CONTINUOUS
 10
89.831831242
 20
121.8928295809
  0
VERTEX
  8
0
 62
7
  6
CONTINUOUS
 10
89.9009704548
 20
121.8368418763
  0
VERTEX
  8
0
 62
7
  6
CONTINUOUS
 10
89.96387842
 20
121.7739339104
  0
VERTEX
  8
0
 62
7
  6
CONTINUOUS
 10
90.0198661235
 20
121.7047946976
  0
VERTEX
  8
0
 62
7
  6
CONTINUOUS
 10
90.0683202986
 20
121.630181471
  0
VERTEX
  8
0
 62
7
  6
CONTINUOUS
 10
90.108710134
 20
121.5509114081
  0
VERTEX
  8
0
 62
7
  6
CONTINUOUS
 10
90.1405930839
 20
121.4678527065
  0
VERTEX
  8
0
 62
7
  6
CONTINUOUS
 10
90.1636197203
 20
121.3819151
  0
VERTEX
  8
0
 62
7
  6
CONTINUOUS
 10
90.1775375754
 20
121.2940399089
  0
VERTEX
  8
0
 62
7
  6
CONTINUOUS
 10
90.1821939246
 20
121.2051897523
  0
SEQEND
  0
POLYLINE
  8
CURVE
 62
7
  6
CONTINUOUS
 66
1
 70
0
  0
VERTEX
  8
CURVE
 62
7
  6
CONTINUOUS
 10
28.3821939246
 20
139.087729869
  0
VERTEX
  8
CURVE
 62
7
  6
CONTINUOUS
 10
28.8111303174
 20
138.9904813674
  0
VERTEX
  8
CURVE
 62
7
  6
CONTINUOUS
 10
29.2012066946
 20
138.8955085388
  0
VERTEX
  8
CURVE
 62
7
  6
CONTINUOUS
 10
29.5553633605
 20
138.8027512887
  0
VERTEX
  8
CURVE
 62
7
  6
CONTINUOUS
 10
29.8763391986
 20
138.7121286955
  0
VERTEX
  8
CURVE
 62
7
  6
CONTINUOUS
 10
30.1666587622
 20
138.6235448965
  0
VERTEX
  8
CURVE
 62
7
  6
CONTINUOUS
 10
30.42857383
 20
138.5369129866
  0
VERTEX
  8
CURVE
 62
7
  6
CONTINUOUS
 10
30.664167523
 20
138.4521297546
  0
VERTEX
  8
CURVE
 62
7
  6
CONTINUOUS
 10
30.8753169756
 20
138.3690921103
  0
VERTEX
  8
CURVE
 62
7
  6
CONTINUOUS
 10
31.0636945014
 20
138.2877054709
  0
VERTEX
  8
CURVE
 62
7
  6
CONTINUOUS
 10
31.230834974
 20
138.2078628727
  0
VERTEX
  8
CURVE
 62
7
  6
CONTINUOUS
 10
31.3780355059
 20
138.1295019332
  0
VERTEX
  8
CURVE
 62
7
  6
CONTINUOUS
 10
31.5065018438
 20
138.0525487748
  0
VERTEX
  8
CURVE
 62
7
  6
CONTINUOUS
 10
31.6172142646
 20
137.9770140786
  0
VERTEX
  8
CURVE
 62
7
  6
CONTINUOUS
 10
31.711048232
 20
137.9029677627
  0
VERTEX
  8
CURVE
 62
7
  6
CONTINUOUS
 10
31.7887966088
 20
137.830577404
  0
VERTEX
  8
CURVE
 62
7
  6
CONTINUOUS
 10
31.8511279489
 20
137.7602746353
  0
VERTEX
  8
CURVE
 62
7
  6
CONTINUOUS
 10
31.8988937789
 20
137.6926288041
  0
VERTEX
  8
CURVE
 62
7
  6
CONTINUOUS
 10
31.9331555282
 20
137.6284894544
  0
VERTEX
  8
CURVE
 62
7
  6
CONTINUOUS
 10
31.9555721737
 20
137.5682722634
  0
VERTEX
  8
CURVE
 62
7
  6
CONTINUOUS
 10
31.9681438714
 20
137.5109965429
  0
VERTEX
  8
CURVE
 62
7
  6
CONTINUOUS
 10
31.9721939246
 20
137.4551573869
  0
SEQEND
  0
LINE
  8
0
 62
7
  6
CONTINUOUS
 10
94.2823740506
 20
134.9612672028
 11
94.2788881634
 21
135.1991367744
  0
LINE
  8
0
 62
7
  6
CONTINUOUS
 10
94.2788881634
 20
135.1991367744
 11
94.2758277223
 21
135.5043392333
  0
LINE
  8
0
 62
7
  6
CONTINUOUS
 10
94.2758277223
 20
135.5043392333
 11
94.2732905665
 21
135.8671148875
  0
LINE
  8
0
 62
7
  6
CONTINUOUS
 10
94.2732905665
 20
135.8671148875
 11
94.2713577983
 21
136.2758641152
  0
LINE
  8
0
 62
7
  6
CONTINUOUS
 10
94.2713577983
 20
136.2758641152
 11
94.2700911949
 21
136.7175184822
  0
LINE
  8
0
 62
7
  6
CONTINUOUS
 10
94.2700911949
 20
136.7175184822
 11
94.2695312832
 21
137.1778523937
  0
LINE
  8
0
 62
7
  6
CONTINUOUS
 10
94.2921939246
 20
134.7051573869
 11
94.2921939246
 21
128.0051250215
  0
LINE
  8
0
 62
7
  6
CONTINUOUS
 10
96.5321939246
 20
128.0051250215
 11
96.5321939246
 21
134.7051573869
  0
LINE
  8
0
 62
7
  6
CONTINUOUS
 10
98.4121939246
 20
141.0051554044
 11
98.4121939246
 21
127.2351573869
  0
LINE
  8
0
 62
7
  6
CONTINUOUS
 10
96.5542966543
 20
136.7175184822
 11
96.554856566
 21
137.1778523937
  0
LINE
  8
0
 62
7
  6
CONTINUOUS
 10
96.5530300508
 20
136.2758641152
 11
96.5542966543
 21
136.7175184822
  0
LINE
  8
0
 62
7
  6
CONTINUOUS
 10
96.5510972827
 20
135.8671148875
 11
96.5530300508
 21
136.2758641152
  0
LINE
  8
0
 62
7
  6
CONTINUOUS
 10
96.5485601268
 20
135.5043392333
 11
96.5510972827
 21
135.8671148875
  0
LINE
  8
0
 62
7
  6
CONTINUOUS
 10
96.5454996857
 20
135.1991367744
 11
96.5485601268
 21
135.5043392333
  0
POLYLINE
  8
0
 62
7
  6
CONTINUOUS
 66
1
 70
0
  0
VERTEX
  8
0
 62
7
  6
CONTINUOUS
 10
94.2695312832
 20
137.1778523937
  0
VERTEX
  8
0
 62
7
  6
CONTINUOUS
 10
94.2705819304
 20
137.2204210616
  0
VERTEX
  8
0
 62
7
  6
CONTINUOUS
 10
94.2737693451
 20
137.2628938314
  0
VERTEX
  8
0
 62
7
  6
CONTINUOUS
 10
94.279087028
 20
137.3051573869
  0
SEQEND
  0
POLYLINE
  8
0
 62
7
  6
CONTINUOUS
 66
1
 70
0
  0
VERTEX
  8
0
 62
7
  6
CONTINUOUS
 10
96.5321939246
 20
128.0051250215
  0
VERTEX
  8
0
 62
7
  6
CONTINUOUS
 10
96.5275380188
 20
127.916279083
  0
VERTEX
  8
0
 62
7
  6
CONTINUOUS
 10
96.5136211476
 20
127.8284063892
  0
VERTEX
  8
0
 62
7
  6
CONTINUOUS
 10
96.490595547
 20
127.7424696482
  0
VERTEX
  8
0
 62
7
  6
CONTINUOUS
 10
96.4587132775
 20
127.6594104262
  0
VERTEX
  8
0
 62
7
  6
CONTINUOUS
 10
96.4183234816
 20
127.580138816
  0
VERTEX
  8
0
 62
7
  6
CONTINUOUS
 10
96.3698685711
 20
127.5055234451
  0
VERTEX
  8
0
 62
7
  6
CONTINUOUS
 10
96.3138793859
 20
127.4363819362
  0
VERTEX
  8
0
 62
7
  6
CONTINUOUS
 10
96.2509693753
 20
127.3734719256
  0
VERTEX
  8
0
 62
7
  6
CONTINUOUS
 10
96.1818278664
 20
127.3174827404
  0
VERTEX
  8
0
 62
7
  6
CONTINUOUS
 10
96.1072124955
 20
127.2690278299
  0
VERTEX
  8
0
 62
7
  6
CONTINUOUS
 10
96.0279408853
 20
127.228638034
  0
VERTEX
  8
0
 62
7
  6
CONTINUOUS
 10
95.9448816633
 20
127.1967557645
  0
VERTEX
  8
0
 62
7
  6
CONTINUOUS
 10
95.8589449223
 20
127.1737301639
  0
VERTEX
  8
0
 62
7
  6
CONTINUOUS
 10
95.7710722284
 20
127.1598132927
  0
VERTEX
  8
0
 62
7
  6
CONTINUOUS
 10
95.68222629
 20
127.1551573869
  0
SEQEND
  0
POLYLINE
  8
0
 62
7
  6
CONTINUOUS
 66
1
 70
0
  0
VERTEX
  8
0
 62
7
  6
CONTINUOUS
 10
96.5321939246
 20
134.7051573869
  0
VERTEX
  8
0
 62
7
  6
CONTINUOUS
 10
96.5342215373
 20
134.7155594503
  0
VERTEX
  8
0
 62
7
  6
CONTINUOUS
 10
96.5362339072
 20
134.7467027517
  0
VERTEX
  8
0
 62
7
  6
CONTINUOUS
 10
96.5382139161
 20
134.7983377614
  0
VERTEX
  8
0
 62
7
  6
CONTINUOUS
 10
96.5401457043
 20
134.8700507675
  0
VERTEX
  8
0
 62
7
  6
CONTINUOUS
 10
96.5420137986
 20
134.9612672028
  0
VERTEX
  8
0
 62
7
  6
CONTINUOUS
 10
96.5454996857
 20
135.1991367744
  0
SEQEND
  0
POLYLINE
  8
CURVE
 62
7
  6
CONTINUOUS
 66
1
 70
0
  0
VERTEX
  8
CURVE
 62
7
  6
CONTINUOUS
 10
57.58222629
 20
127.1551573869
  0
VERTEX
  8
CURVE
 62
7
  6
CONTINUOUS
 10
57.6710722284
 20
127.1598132927
  0
VERTEX
  8
CURVE
 62
7
  6
CONTINUOUS
 10
57.7589449223
 20
127.1737301639
  0
VERTEX
  8
CURVE
 62
7
  6
CONTINUOUS
 10
57.8448816633
 20
127.1967557645
  0
VERTEX
  8
CURVE
 62
7
  6
CONTINUOUS
 10
57.9279408853
 20
127.228638034
  0
VERTEX
  8
CURVE
 62
7
  6
CONTINUOUS
 10
58.0072124955
 20
127.2690278299
  0
VERTEX
  8
CURVE
 62
7
  6
CONTINUOUS
 10
58.0818278664
 20
127.3174827404
  0
VERTEX
  8
CURVE
 62
7
  6
CONTINUOUS
 10
58.1509693753
 20
127.3734719256
  0
VERTEX
  8
CURVE
 62
7
  6
CONTINUOUS
 10
58.2138793859
 20
127.4363819362
  0
VERTEX
  8
CURVE
 62
7
  6
CONTINUOUS
 10
58.2698685711
 20
127.5055234451
  0
VERTEX
  8
CURVE
 62
7
  6
CONTINUOUS
 10
58.3183234816
 20
127.580138816
  0
VERTEX
  8
CURVE
 62
7
  6
CONTINUOUS
 10
58.3587132775
 20
127.6594104262
  0
VERTEX
  8
CURVE
 62
7
  6
CONTINUOUS
 10
58.390595547
 20
127.7424696482
  0
VERTEX
  8
CURVE
 62
7
  6
CONTINUOUS
 10
58.4136211476
 20
127.8284063892
  0
VERTEX
  8
CURVE
 62
7
  6
CONTINUOUS
 10
58.4275380188
 20
127.916279083
  0
VERTEX
  8
CURVE
 62
7
  6
CONTINUOUS
 10
58.4321939246
 20
128.0051250215
  0
SEQEND
  0
POLYLINE
  8
CURVE
 62
7
  6
CONTINUOUS
 66
1
 70
0
  0
VERTEX
  8
CURVE
 62
7
  6
CONTINUOUS
 10
44.88222629
 20
127.1551573869
  0
VERTEX
  8
CURVE
 62
7
  6
CONTINUOUS
 10
44.9710722284
 20
127.1598132927
  0
VERTEX
  8
CURVE
 62
7
  6
CONTINUOUS
 10
45.0589449223
 20
127.1737301639
  0
VERTEX
  8
CURVE
 62
7
  6
CONTINUOUS
 10
45.1448816633
 20
127.1967557645
  0
VERTEX
  8
CURVE
 62
7
  6
CONTINUOUS
 10
45.2279408853
 20
127.228638034
  0
VERTEX
  8
CURVE
 62
7
  6
CONTINUOUS
 10
45.3072124955
 20
127.2690278299
  0
VERTEX
  8
CURVE
 62
7
  6
CONTINUOUS
 10
45.3818278664
 20
127.3174827404
  0
VERTEX
  8
CURVE
 62
7
  6
CONTINUOUS
 10
45.4509693753
 20
127.3734719256
  0
VERTEX
  8
CURVE
 62
7
  6
CONTINUOUS
 10
45.5138793859
 20
127.4363819362
  0
VERTEX
  8
CURVE
 62
7
  6
CONTINUOUS
 10
45.5698685711
 20
127.5055234451
  0
VERTEX
  8
CURVE
 62
7
  6
CONTINUOUS
 10
45.6183234816
 20
127.580138816
  0
VERTEX
  8
CURVE
 62
7
  6
CONTINUOUS
 10
45.6587132775
 20
127.6594104262
  0
VERTEX
  8
CURVE
 62
7
  6
CONTINUOUS
 10
45.690595547
 20
127.7424696482
  0
VERTEX
  8
CURVE
 62
7
  6
CONTINUOUS
 10
45.7136211476
 20
127.8284063892
  0
VERTEX
  8
CURVE
 62
7
  6
CONTINUOUS
 10
45.7275380188
 20
127.916279083
  0
VERTEX
  8
CURVE
 62
7
  6
CONTINUOUS
 10
45.7321939246
 20
128.0051250215
  0
SEQEND
  0
LINE
  8
CURVE
 62
7
  6
CONTINUOUS
 10
57.58222629
 20
127.1551573869
 11
57.0421615592
 21
127.1551573869
  0
LINE
  8
CURVE
 62
7
  6
CONTINUOUS
 10
44.88222629
 20
127.1551573869
 11
44.3421615592
 21
127.1551573869
  0
LINE
  8
CURVE
 62
7
  6
CONTINUOUS
 10
69.7421615592
 20
127.1551573869
 11
70.28222629
 21
127.1551573869
  0
LINE
  8
0
 62
7
  6
CONTINUOUS
 10
82.4421615592
 20
127.1551573869
 11
82.98222629
 21
127.1551573869
  0
LINE
  8
0
 62
7
  6
CONTINUOUS
 10
95.1421615592
 20
127.1551573869
 11
95.68222629
 21
127.1551573869
  0
LINE
  8
CURVE
 62
7
  6
CONTINUOUS
 10
35.2121939246
 20
127.3851573869
 11
41.3121939246
 21
127.3851573869
  0
LINE
  8
CURVE
 62
7
  6
CONTINUOUS
 10
47.9121939246
 20
127.3851573869
 11
54.0121939246
 21
127.3851573869
  0
LINE
  8
CURVE
 62
7
  6
CONTINUOUS
 10
60.6121939246
 20
127.3851573869
 11
66.7121939246
 21
127.3851573869
  0
LINE
  8
0
 62
7
  6
CONTINUOUS
 10
73.3121939246
 20
127.3851573869
 11
79.4121939246
 21
127.3851573869
  0
LINE
  8
0
 62
7
  6
CONTINUOUS
 10
86.0121939246
 20
127.3851573869
 11
92.1121939246
 21
127.3851573869
  0
LINE
  8
0
 62
7
  6
CONTINUOUS
 10
98.7121939246
 20
127.3851573869
 11
104.8121939246
 21
127.3851573869
  0
POLYLINE
  8
0
 62
7
  6
CONTINUOUS
 66
1
 70
0
  0
VERTEX
  8
0
 62
7
  6
CONTINUOUS
 10
82.4421615592
 20
127.1551573869
  0
VERTEX
  8
0
 62
7
  6
CONTINUOUS
 10
82.3533156207
 20
127.1598132927
  0
VERTEX
  8
0
 62
7
  6
CONTINUOUS
 10
82.2654429268
 20
127.1737301639
  0
VERTEX
  8
0
 62
7
  6
CONTINUOUS
 10
82.1795061859
 20
127.1967557645
  0
VERTEX
  8
0
 62
7
  6
CONTINUOUS
 10
82.0964469639
 20
127.228638034
  0
VERTEX
  8
0
 62
7
  6
CONTINUOUS
 10
82.0171753537
 20
127.2690278299
  0
VERTEX
  8
0
 62
7
  6
CONTINUOUS
 10
81.9425599827
 20
127.3174827404
  0
VERTEX
  8
0
 62
7
  6
CONTINUOUS
 10
81.8734184739
 20
127.3734719256
  0
VERTEX
  8
0
 62
7
  6
CONTINUOUS
 10
81.8105084633
 20
127.4363819362
  0
VERTEX
  8
0
 62
7
  6
CONTINUOUS
 10
81.7545192781
 20
127.5055234451
  0
VERTEX
  8
0
 62
7
  6
CONTINUOUS
 10
81.7060643676
 20
127.580138816
  0
VERTEX
  8
0
 62
7
  6
CONTINUOUS
 10
81.6656745717
 20
127.6594104262
  0
VERTEX
  8
0
 62
7
  6
CONTINUOUS
 10
81.6337923021
 20
127.7424696482
  0
VERTEX
  8
0
 62
7
  6
CONTINUOUS
 10
81.6107667016
 20
127.8284063892
  0
VERTEX
  8
0
 62
7
  6
CONTINUOUS
 10
81.5968498304
 20
127.916279083
  0
VERTEX
  8
0
 62
7
  6
CONTINUOUS
 10
81.5921939246
 20
128.0051250215
  0
SEQEND
  0
POLYLINE
  8
0
 62
7
  6
CONTINUOUS
 66
1
 70
0
  0
VERTEX
  8
0
 62
7
  6
CONTINUOUS
 10
95.1421615592
 20
127.1551573869
  0
VERTEX
  8
0
 62
7
  6
CONTINUOUS
 10
95.0533156207
 20
127.1598132927
  0
VERTEX
  8
0
 62
7
  6
CONTINUOUS
 10
94.9654429268
 20
127.1737301639
  0
VERTEX
  8
0
 62
7
  6
CONTINUOUS
 10
94.8795061859
 20
127.1967557645
  0
VERTEX
  8
0
 62
7
  6
CONTINUOUS
 10
94.7964469639
 20
127.228638034
  0
VERTEX
  8
0
 62
7
  6
CONTINUOUS
 10
94.7171753537
 20
127.2690278299
  0
VERTEX
  8
0
 62
7
  6
CONTINUOUS
 10
94.6425599827
 20
127.3174827404
  0
VERTEX
  8
0
 62
7
  6
CONTINUOUS
 10
94.5734184739
 20
127.3734719256
  0
VERTEX
  8
0
 62
7
  6
CONTINUOUS
 10
94.5105084633
 20
127.4363819362
  0
VERTEX
  8
0
 62
7
  6
CONTINUOUS
 10
94.4545192781
 20
127.5055234451
  0
VERTEX
  8
0
 62
7
  6
CONTINUOUS
 10
94.4060643676
 20
127.580138816
  0
VERTEX
  8
0
 62
7
  6
CONTINUOUS
 10
94.3656745717
 20
127.6594104262
  0
VERTEX
  8
0
 62
7
  6
CONTINUOUS
 10
94.3337923021
 20
127.7424696482
  0
VERTEX
  8
0
 62
7
  6
CONTINUOUS
 10
94.3107667016
 20
127.8284063892
  0
VERTEX
  8
0
 62
7
  6
CONTINUOUS
 10
94.2968498304
 20
127.916279083
  0
VERTEX
  8
0
 62
7
  6
CONTINUOUS
 10
94.2921939246
 20
128.0051250215
  0
SEQEND
  0
LINE
  8
0
 62
7
  6
CONTINUOUS
 10
98.3164858475
 20
123.233798169
 11
98.2355262391
 21
123.3337749592
  0
POLYLINE
  8
0
 62
7
  6
CONTINUOUS
 66
1
 70
0
  0
VERTEX
  8
0
 62
7
  6
CONTINUOUS
 10
94.2921939246
 20
134.7051573869
  0
VERTEX
  8
0
 62
7
  6
CONTINUOUS
 10
94.2901663119
 20
134.7155594503
  0
VERTEX
  8
0
 62
7
  6
CONTINUOUS
 10
94.288153942
 20
134.7467027517
  0
VERTEX
  8
0
 62
7
  6
CONTINUOUS
 10
94.286173933
 20
134.7983377614
  0
VERTEX
  8
0
 62
7
  6
CONTINUOUS
 10
94.2842421448
 20
134.8700507675
  0
VERTEX
  8
0
 62
7
  6
CONTINUOUS
 10
94.2823740506
 20
134.9612672028
  0
SEQEND
  0
POLYLINE
  8
0
 62
7
  6
CONTINUOUS
 66
1
 70
0
  0
VERTEX
  8
0
 62
7
  6
CONTINUOUS
 10
96.5453008211
 20
137.3051573869
  0
VERTEX
  8
0
 62
7
  6
CONTINUOUS
 10
96.5506185671
 20
137.2628932028
  0
VERTEX
  8
0
 62
7
  6
CONTINUOUS
 10
96.5538059482
 20
137.2204204697
  0
VERTEX
  8
0
 62
7
  6
CONTINUOUS
 10
96.554856566
 20
137.1778523937
  0
SEQEND
  0
LINE
  8
0
 62
7
  6
CONTINUOUS
 10
98.7621939246
 20
117.8051573869
 11
98.7621939246
 21
121.9751573869
  0
LINE
  8
0
 62
7
  6
CONTINUOUS
 10
100.7021939246
 20
117.4873433213
 11
100.7021939246
 21
108.2051573869
  0
LINE
  8
0
 62
7
  6
CONTINUOUS
 10
104.5855262378
 20
125.876539813
 11
104.6664858475
 21
125.9765166048
  0
POLYLINE
  8
CURVE
 62
7
  6
CONTINUOUS
 66
1
 70
0
  0
VERTEX
  8
CURVE
 62
7
  6
CONTINUOUS
 10
28.3821939246
 20
139.087729869
  0
VERTEX
  8
CURVE
 62
7
  6
CONTINUOUS
 10
28.3304843512
 20
139.0947885062
  0
VERTEX
  8
CURVE
 62
7
  6
CONTINUOUS
 10
28.2802310482
 20
139.0934909301
  0
VERTEX
  8
CURVE
 62
7
  6
CONTINUOUS
 10
28.231588167
 20
139.0844594382
  0
VERTEX
  8
CURVE
 62
7
  6
CONTINUOUS
 10
28.1830857693
 20
139.0675432802
  0
VERTEX
  8
CURVE
 62
7
  6
CONTINUOUS
 10
28.1327766663
 20
139.0411162962
  0
VERTEX
  8
CURVE
 62
7
  6
CONTINUOUS
 10
28.0808272778
 20
139.0034424606
  0
VERTEX
  8
CURVE
 62
7
  6
CONTINUOUS
 10
28.0282451047
 20
138.9531524184
  0
VERTEX
  8
CURVE
 62
7
  6
CONTINUOUS
 10
27.9770642479
 20
138.8904155811
  0
VERTEX
  8
CURVE
 62
7
  6
CONTINUOUS
 10
27.9291829177
 20
138.8167226151
  0
VERTEX
  8
CURVE
 62
7
  6
CONTINUOUS
 10
27.8843015317
 20
138.7309927689
  0
VERTEX
  8
CURVE
 62
7
  6
CONTINUOUS
 10
27.8424531025
 20
138.631928786
  0
VERTEX
  8
CURVE
 62
7
  6
CONTINUOUS
 10
27.8040614234
 20
138.5185911455
  0
VERTEX
  8
CURVE
 62
7
  6
CONTINUOUS
 10
27.7697878748
 20
138.3907623187
  0
VERTEX
  8
CURVE
 62
7
  6
CONTINUOUS
 10
27.7398151043
 20
138.2462961205
  0
VERTEX
  8
CURVE
 62
7
  6
CONTINUOUS
 10
27.7145554729
 20
138.0825508851
  0
VERTEX
  8
CURVE
 62
7
  6
CONTINUOUS
 10
27.6948222298
 20
137.8976175232
  0
VERTEX
  8
CURVE
 62
7
  6
CONTINUOUS
 10
27.6816761834
 20
137.6892407219
  0
VERTEX
  8
CURVE
 62
7
  6
CONTINUOUS
 10
27.6767607381
 20
137.455157387
  0
SEQEND
  0
LINE
  8
0
 62
7
  6
CONTINUOUS
 10
98.8579020017
 20
125.9765166048
 11
98.9388616067
 21
125.8765398188
  0
LINE
  8
0
 62
7
  6
CONTINUOUS
 10
104.4121939246
 20
132.8051573869
 11
104.4121939246
 21
132.0051573869
  0
LINE
  8
0
 62
7
  6
CONTINUOUS
 10
104.7621939246
 20
108.2051573869
 11
104.7621939246
 21
120.4729207821
  0
LINE
  8
0
 62
7
  6
CONTINUOUS
 10
105.1121939246
 20
127.2351573869
 11
105.1121939246
 21
141.0051573869
  0
LINE
  8
0
 62
7
  6
CONTINUOUS
 10
105.4621937296
 20
117.2051573869
 11
105.4621937296
 21
116.4051573869
  0
POLYLINE
  8
0
 62
7
  6
CONTINUOUS
 66
1
 70
0
  0
VERTEX
  8
0
 62
7
  6
CONTINUOUS
 10
104.7621939246
 20
118.8251573869
  0
VERTEX
  8
0
 62
7
  6
CONTINUOUS
 10
104.7712751284
 20
119.0576711132
  0
VERTEX
  8
0
 62
7
  6
CONTINUOUS
 10
104.7985613109
 20
119.2901069524
  0
VERTEX
  8
0
 62
7
  6
CONTINUOUS
 10
104.843872011
 20
119.5200161078
  0
VERTEX
  8
0
 62
7
  6
CONTINUOUS
 10
104.9066496976
 20
119.7448073761
  0
VERTEX
  8
0
 62
7
  6
CONTINUOUS
 10
104.9864036934
 20
119.9630842419
  0
VERTEX
  8
0
 62
7
  6
CONTINUOUS
 10
105.0833348433
 20
120.1753964236
  0
VERTEX
  8
0
 62
7
  6
CONTINUOUS
 10
105.196918007
 20
120.3803602142
  0
VERTEX
  8
0
 62
7
  6
CONTINUOUS
 10
105.3259088022
 20
120.5756352305
  0
VERTEX
  8
0
 62
7
  6
CONTINUOUS
 10
105.4688664749
 20
120.759233189
  0
SEQEND
  0
POLYLINE
  8
0
 62
7
  6
CONTINUOUS
 66
1
 70
0
  0
VERTEX
  8
0
 62
7
  6
CONTINUOUS
 10
105.4688664749
 20
120.759233189
  0
VERTEX
  8
0
 62
7
  6
CONTINUOUS
 10
105.6149288873
 20
120.920191889
  0
VERTEX
  8
0
 62
7
  6
CONTINUOUS
 10
105.7725746325
 20
121.0704484474
  0
VERTEX
  8
0
 62
7
  6
CONTINUOUS
 10
105.9403540254
 20
121.2086211231
  0
VERTEX
  8
0
 62
7
  6
CONTINUOUS
 10
106.117714593
 20
121.3342615031
  0
VERTEX
  8
0
 62
7
  6
CONTINUOUS
 10
106.3040763937
 20
121.4469524164
  0
VERTEX
  8
0
 62
7
  6
CONTINUOUS
 10
106.497723167
 20
121.5456561837
  0
VERTEX
  8
0
 62
7
  6
CONTINUOUS
 10
106.6980190328
 20
121.6300544813
  0
VERTEX
  8
0
 62
7
  6
CONTINUOUS
 10
106.904310704
 20
121.6998664362
  0
VERTEX
  8
0
 62
7
  6
CONTINUOUS
 10
107.1146984755
 20
121.7544490493
  0
VERTEX
  8
0
 62
7
  6
CONTINUOUS
 10
107.3284895601
 20
121.7936279355
  0
VERTEX
  8
0
 62
7
  6
CONTINUOUS
 10
107.5449849972
 20
121.8172698492
  0
VERTEX
  8
0
 62
7
  6
CONTINUOUS
 10
107.7621939246
 20
121.8251573869
  0
SEQEND
  0
POLYLINE
  8
0
 62
7
  6
CONTINUOUS
 66
1
 70
0
  0
VERTEX
  8
0
 62
7
  6
CONTINUOUS
 10
111.6421939246
 20
139.087729869
  0
VERTEX
  8
0
 62
7
  6
CONTINUOUS
 10
111.2132575318
 20
138.9904813674
  0
VERTEX
  8
0
 62
7
  6
CONTINUOUS
 10
110.8231811546
 20
138.8955085388
  0
VERTEX
  8
0
 62
7
  6
CONTINUOUS
 10
110.4690244886
 20
138.8027512887
  0
VERTEX
  8
0
 62
7
  6
CONTINUOUS
 10
110.1480486505
 20
138.7121286955
  0
VERTEX
  8
0
 62
7
  6
CONTINUOUS
 10
109.857729087
 20
138.6235448965
  0
VERTEX
  8
0
 62
7
  6
CONTINUOUS
 10
109.5958140192
 20
138.5369129866
  0
VERTEX
  8
0
 62
7
  6
CONTINUOUS
 10
109.3602203261
 20
138.4521297546
  0
VERTEX
  8
0
 62
7
  6
CONTINUOUS
 10
109.1490708736
 20
138.3690921103
  0
VERTEX
  8
0
 62
7
  6
CONTINUOUS
 10
108.9606933478
 20
138.2877054709
  0
VERTEX
  8
0
 62
7
  6
CONTINUOUS
 10
108.7935528751
 20
138.2078628727
  0
VERTEX
  8
0
 62
7
  6
CONTINUOUS
 10
108.6463523432
 20
138.1295019332
  0
VERTEX
  8
0
 62
7
  6
CONTINUOUS
 10
108.5178860054
 20
138.0525487748
  0
VERTEX
  8
0
 62
7
  6
CONTINUOUS
 10
108.4071735845
 20
137.9770140786
  0
VERTEX
  8
0
 62
7
  6
CONTINUOUS
 10
108.3133396172
 20
137.9029677627
  0
VERTEX
  8
0
 62
7
  6
CONTINUOUS
 10
108.2355912404
 20
137.830577404
  0
VERTEX
  8
0
 62
7
  6
CONTINUOUS
 10
108.1732599003
 20
137.7602746353
  0
VERTEX
  8
0
 62
7
  6
CONTINUOUS
 10
108.1254940703
 20
137.6926288041
  0
VERTEX
  8
0
 62
7
  6
CONTINUOUS
 10
108.0912323209
 20
137.6284894544
  0
VERTEX
  8
0
 62
7
  6
CONTINUOUS
 10
108.0688156755
 20
137.5682722634
  0
VERTEX
  8
0
 62
7
  6
CONTINUOUS
 10
108.0562439778
 20
137.5109965429
  0
VERTEX
  8
0
 62
7
  6
CONTINUOUS
 10
108.0521939246
 20
137.4551573869
  0
SEQEND
  0
POLYLINE
  8
0
 62
7
  6
CONTINUOUS
 66
1
 70
0
  0
VERTEX
  8
0
 62
7
  6
CONTINUOUS
 10
111.6421939246
 20
139.087729869
  0
VERTEX
  8
0
 62
7
  6
CONTINUOUS
 10
111.6939034979
 20
139.0947885062
  0
VERTEX
  8
0
 62
7
  6
CONTINUOUS
 10
111.7441568009
 20
139.0934909301
  0
VERTEX
  8
0
 62
7
  6
CONTINUOUS
 10
111.7927996822
 20
139.0844594382
  0
VERTEX
  8
0
 62
7
  6
CONTINUOUS
 10
111.8413020799
 20
139.0675432802
  0
VERTEX
  8
0
 62
7
  6
CONTINUOUS
 10
111.8916111828
 20
139.0411162962
  0
VERTEX
  8
0
 62
7
  6
CONTINUOUS
 10
111.9435605714
 20
139.0034424606
  0
VERTEX
  8
0
 62
7
  6
CONTINUOUS
 10
111.9961427445
 20
138.9531524184
  0
VERTEX
  8
0
 62
7
  6
CONTINUOUS
 10
112.0473236012
 20
138.8904155811
  0
VERTEX
  8
0
 62
7
  6
CONTINUOUS
 10
112.0952049315
 20
138.8167226151
  0
VERTEX
  8
0
 62
7
  6
CONTINUOUS
 10
112.1400863175
 20
138.7309927689
  0
VERTEX
  8
0
 62
7
  6
CONTINUOUS
 10
112.1819347466
 20
138.631928786
  0
VERTEX
  8
0
 62
7
  6
CONTINUOUS
 10
112.2203264258
 20
138.5185911455
  0
VERTEX
  8
0
 62
7
  6
CONTINUOUS
 10
112.2545999743
 20
138.3907623187
  0
VERTEX
  8
0
 62
7
  6
CONTINUOUS
 10
112.2845727449
 20
138.2462961205
  0
VERTEX
  8
0
 62
7
  6
CONTINUOUS
 10
112.3098323762
 20
138.0825508851
  0
VERTEX
  8
0
 62
7
  6
CONTINUOUS
 10
112.3295656194
 20
137.8976175232
  0
VERTEX
  8
0
 62
7
  6
CONTINUOUS
 10
112.3427116658
 20
137.6892407219
  0
VERTEX
  8
0
 62
7
  6
CONTINUOUS
 10
112.3476271111
 20
137.455157387
  0
SEQEND
  0
LINE
  8
CURVE
 62
2
  6
CENTER
 10
25.5321939246
 20
137.3051573869
 11
114.4921939246
 21
137.3051573869
  0
LINE
  8
0
 62
7
  6
CONTINUOUS
 10
95.7040242653
 20
138.0269553622
 11
95.1203635839
 21
138.0269553622
  0
LINE
  8
0
 62
7
  6
CONTINUOUS
 10
83.0040242653
 20
138.0269553622
 11
82.4203635839
 21
138.0269553622
  0
LINE
  8
CURVE
 62
7
  6
CONTINUOUS
 10
44.3203635839
 20
138.0269553622
 11
44.9040242653
 21
138.0269553622
  0
LINE
  8
CURVE
 62
7
  6
CONTINUOUS
 10
57.0203635839
 20
138.0269553622
 11
57.6040242653
 21
138.0269553622
  0
LINE
  8
CURVE
 62
7
  6
CONTINUOUS
 10
69.7203635839
 20
138.0269553622
 11
70.3040242653
 21
138.0269553622
  0
POLYLINE
  8
0
 62
7
  6
CONTINUOUS
 66
1
 70
0
  0
VERTEX
  8
0
 62
7
  6
CONTINUOUS
 10
70.3040242653
 20
138.0269553622
  0
VERTEX
  8
0
 62
7
  6
CONTINUOUS
 10
70.4029824057
 20
138.0211916286
  0
VERTEX
  8
0
 62
7
  6
CONTINUOUS
 10
70.5021398561
 20
138.003617043
  0
VERTEX
  8
0
 62
7
  6
CONTINUOUS
 10
70.598949542
 20
137.9743251996
  0
VERTEX
  8
0
 62
7
  6
CONTINUOUS
 10
70.6916076921
 20
137.9337777471
  0
VERTEX
  8
0
 62
7
  6
CONTINUOUS
 10
70.7794713704
 20
137.8820929274
  0
VERTEX
  8
0
 62
7
  6
CONTINUOUS
 10
70.8604937843
 20
137.8203043522
  0
VERTEX
  8
0
 62
7
  6
CONTINUOUS
 10
70.9330317877
 20
137.7498258472
  0
VERTEX
  8
0
 62
7
  6
CONTINUOUS
 10
70.9968069065
 20
137.6710382917
  0
VERTEX
  8
0
 62
7
  6
CONTINUOUS
 10
71.0506230253
 20
137.5853944421
  0
VERTEX
  8
0
 62
7
  6
CONTINUOUS
 10
71.0934285782
 20
137.4949981611
  0
VERTEX
  8
0
 62
7
  6
CONTINUOUS
 10
71.1250470551
 20
137.4010407911
  0
VERTEX
  8
0
 62
7
  6
CONTINUOUS
 10
71.1453008211
 20
137.3051573869
  0
SEQEND
  0
POLYLINE
  8
0
 62
7
  6
CONTINUOUS
 66
1
 70
0
  0
VERTEX
  8
0
 62
7
  6
CONTINUOUS
 10
83.0040242653
 20
138.0269553622
  0
VERTEX
  8
0
 62
7
  6
CONTINUOUS
 10
83.1029824057
 20
138.0211916286
  0
VERTEX
  8
0
 62
7
  6
CONTINUOUS
 10
83.2021398561
 20
138.003617043
  0
VERTEX
  8
0
 62
7
  6
CONTINUOUS
 10
83.298949542
 20
137.9743251996
  0
VERTEX
  8
0
 62
7
  6
CONTINUOUS
 10
83.3916076921
 20
137.9337777471
  0
VERTEX
  8
0
 62
7
  6
CONTINUOUS
 10
83.4794713704
 20
137.8820929274
  0
VERTEX
  8
0
 62
7
  6
CONTINUOUS
 10
83.5604937843
 20
137.8203043522
  0
VERTEX
  8
0
 62
7
  6
CONTINUOUS
 10
83.6330317877
 20
137.7498258472
  0
VERTEX
  8
0
 62
7
  6
CONTINUOUS
 10
83.6968069065
 20
137.6710382917
  0
VERTEX
  8
0
 62
7
  6
CONTINUOUS
 10
83.7506230253
 20
137.5853944421
  0
VERTEX
  8
0
 62
7
  6
CONTINUOUS
 10
83.7934285782
 20
137.4949981611
  0
VERTEX
  8
0
 62
7
  6
CONTINUOUS
 10
83.8250470551
 20
137.4010407911
  0
VERTEX
  8
0
 62
7
  6
CONTINUOUS
 10
83.8453008211
 20
137.3051573869
  0
SEQEND
  0
POLYLINE
  8
0
 62
7
  6
CONTINUOUS
 66
1
 70
0
  0
VERTEX
  8
0
 62
7
  6
CONTINUOUS
 10
95.7040242653
 20
138.0269553622
  0
VERTEX
  8
0
 62
7
  6
CONTINUOUS
 10
95.8029824057
 20
138.0211916286
  0
VERTEX
  8
0
 62
7
  6
CONTINUOUS
 10
95.9021398561
 20
138.003617043
  0
VERTEX
  8
0
 62
7
  6
CONTINUOUS
 10
95.998949542
 20
137.9743251996
  0
VERTEX
  8
0
 62
7
  6
CONTINUOUS
 10
96.0916076921
 20
137.9337777471
  0
VERTEX
  8
0
 62
7
  6
CONTINUOUS
 10
96.1794713704
 20
137.8820929274
  0
VERTEX
  8
0
 62
7
  6
CONTINUOUS
 10
96.2604937843
 20
137.8203043522
  0
VERTEX
  8
0
 62
7
  6
CONTINUOUS
 10
96.3330317877
 20
137.7498258472
  0
VERTEX
  8
0
 62
7
  6
CONTINUOUS
 10
96.3968069065
 20
137.6710382917
  0
VERTEX
  8
0
 62
7
  6
CONTINUOUS
 10
96.4506230253
 20
137.5853944421
  0
VERTEX
  8
0
 62
7
  6
CONTINUOUS
 10
96.4934285782
 20
137.4949981611
  0
VERTEX
  8
0
 62
7
  6
CONTINUOUS
 10
96.5250470551
 20
137.4010407911
  0
VERTEX
  8
0
 62
7
  6
CONTINUOUS
 10
96.5453008211
 20
137.3051573869
  0
SEQEND
  0
POLYLINE
  8
0
 62
7
  6
CONTINUOUS
 66
1
 70
0
  0
VERTEX
  8
0
 62
7
  6
CONTINUOUS
 10
108.0521939246
 20
126.2251573869
  0
VERTEX
  8
0
 62
7
  6
CONTINUOUS
 10
108.0566483577
 20
126.1665970142
  0
VERTEX
  8
0
 62
7
  6
CONTINUOUS
 10
108.0705095987
 20
126.106419549
  0
VERTEX
  8
0
 62
7
  6
CONTINUOUS
 10
108.0953558431
 20
126.0429045081
  0
VERTEX
  8
0
 62
7
  6
CONTINUOUS
 10
108.1335061186
 20
125.975054068
  0
VERTEX
  8
0
 62
7
  6
CONTINUOUS
 10
108.1868004737
 20
125.903451112
  0
VERTEX
  8
0
 62
7
  6
CONTINUOUS
 10
108.25642379
 20
125.8290294228
  0
VERTEX
  8
0
 62
7
  6
CONTINUOUS
 10
108.343348018
 20
125.752388153
  0
VERTEX
  8
0
 62
7
  6
CONTINUOUS
 10
108.448350807
 20
125.6739768214
  0
VERTEX
  8
0
 62
7
  6
CONTINUOUS
 10
108.5724136901
 20
125.5939317074
  0
VERTEX
  8
0
 62
7
  6
CONTINUOUS
 10
108.716542885
 20
125.5123431474
  0
VERTEX
  8
0
 62
7
  6
CONTINUOUS
 10
108.8820386031
 20
125.4291507502
  0
VERTEX
  8
0
 62
7
  6
CONTINUOUS
 10
109.0703121827
 20
125.3442968148
  0
VERTEX
  8
0
 62
7
  6
CONTINUOUS
 10
109.2830147788
 20
125.2576793928
  0
VERTEX
  8
0
 62
7
  6
CONTINUOUS
 10
109.5220252754
 20
125.1691804935
  0
VERTEX
  8
0
 62
7
  6
CONTINUOUS
 10
109.7893976959
 20
125.0786958894
  0
VERTEX
  8
0
 62
7
  6
CONTINUOUS
 10
110.087493901
 20
124.9860970358
  0
VERTEX
  8
0
 62
7
  6
CONTINUOUS
 10
110.4188293343
 20
124.891290113
  0
VERTEX
  8
0
 62
7
  6
CONTINUOUS
 10
110.7862742189
 20
124.7941605529
  0
VERTEX
  8
0
 62
7
  6
CONTINUOUS
 10
111.1929359131
 20
124.6946168505
  0
VERTEX
  8
0
 62
7
  6
CONTINUOUS
 10
111.6421939246
 20
124.5925849048
  0
SEQEND
  0
LINE
  8
0
 62
7
  6
CONTINUOUS
 10
108.0521939246
 20
137.4551573869
 11
108.0521939246
 21
126.2251573869
  0
POLYLINE
  8
CURVE
 62
7
  6
CONTINUOUS
 66
1
 70
0
  0
VERTEX
  8
CURVE
 62
7
  6
CONTINUOUS
 10
69.7203635839
 20
138.0269553622
  0
VERTEX
  8
CURVE
 62
7
  6
CONTINUOUS
 10
69.6214054435
 20
138.0211916286
  0
VERTEX
  8
CURVE
 62
7
  6
CONTINUOUS
 10
69.5222479931
 20
138.003617043
  0
VERTEX
  8
CURVE
 62
7
  6
CONTINUOUS
 10
69.4254383072
 20
137.9743251996
  0
VERTEX
  8
CURVE
 62
7
  6
CONTINUOUS
 10
69.3327801571
 20
137.9337777471
  0
VERTEX
  8
CURVE
 62
7
  6
CONTINUOUS
 10
69.2449164788
 20
137.8820929274
  0
VERTEX
  8
CURVE
 62
7
  6
CONTINUOUS
 10
69.1638940649
 20
137.8203043522
  0
VERTEX
  8
CURVE
 62
7
  6
CONTINUOUS
 10
69.0913560614
 20
137.7498258472
  0
VERTEX
  8
CURVE
 62
7
  6
CONTINUOUS
 10
69.0275809427
 20
137.6710382917
  0
VERTEX
  8
CURVE
 62
7
  6
CONTINUOUS
 10
68.9737648239
 20
137.5853944421
  0
VERTEX
  8
CURVE
 62
7
  6
CONTINUOUS
 10
68.9309592709
 20
137.4949981611
  0
VERTEX
  8
CURVE
 62
7
  6
CONTINUOUS
 10
68.8993407941
 20
137.4010407911
  0
VERTEX
  8
CURVE
 62
7
  6
CONTINUOUS
 10
68.879087028
 20
137.3051573869
  0
SEQEND
  0
POLYLINE
  8
CURVE
 62
7
  6
CONTINUOUS
 66
1
 70
0
  0
VERTEX
  8
CURVE
 62
7
  6
CONTINUOUS
 10
57.0203635839
 20
138.0269553622
  0
VERTEX
  8
CURVE
 62
7
  6
CONTINUOUS
 10
56.9214054435
 20
138.0211916286
  0
VERTEX
  8
CURVE
 62
7
  6
CONTINUOUS
 10
56.8222479931
 20
138.003617043
  0
VERTEX
  8
CURVE
 62
7
  6
CONTINUOUS
 10
56.7254383072
 20
137.9743251996
  0
VERTEX
  8
CURVE
 62
7
  6
CONTINUOUS
 10
56.6327801571
 20
137.9337777471
  0
VERTEX
  8
CURVE
 62
7
  6
CONTINUOUS
 10
56.5449164788
 20
137.8820929274
  0
VERTEX
  8
CURVE
 62
7
  6
CONTINUOUS
 10
56.4638940649
 20
137.8203043522
  0
VERTEX
  8
CURVE
 62
7
  6
CONTINUOUS
 10
56.3913560614
 20
137.7498258472
  0
VERTEX
  8
CURVE
 62
7
  6
CONTINUOUS
 10
56.3275809427
 20
137.6710382917
  0
VERTEX
  8
CURVE
 62
7
  6
CONTINUOUS
 10
56.2737648239
 20
137.5853944421
  0
VERTEX
  8
CURVE
 62
7
  6
CONTINUOUS
 10
56.2309592709
 20
137.4949981611
  0
VERTEX
  8
CURVE
 62
7
  6
CONTINUOUS
 10
56.1993407941
 20
137.4010407911
  0
VERTEX
  8
CURVE
 62
7
  6
CONTINUOUS
 10
56.179087028
 20
137.3051573869
  0
SEQEND
  0
POLYLINE
  8
CURVE
 62
7
  6
CONTINUOUS
 66
1
 70
0
  0
VERTEX
  8
CURVE
 62
7
  6
CONTINUOUS
 10
44.3203635839
 20
138.0269553622
  0
VERTEX
  8
CURVE
 62
7
  6
CONTINUOUS
 10
44.2214054435
 20
138.0211916286
  0
VERTEX
  8
CURVE
 62
7
  6
CONTINUOUS
 10
44.1222479931
 20
138.003617043
  0
VERTEX
  8
CURVE
 62
7
  6
CONTINUOUS
 10
44.0254383072
 20
137.9743251996
  0
VERTEX
  8
CURVE
 62
7
  6
CONTINUOUS
 10
43.9327801571
 20
137.9337777471
  0
VERTEX
  8
CURVE
 62
7
  6
CONTINUOUS
 10
43.8449164788
 20
137.8820929274
  0
VERTEX
  8
CURVE
 62
7
  6
CONTINUOUS
 10
43.7638940649
 20
137.8203043522
  0
VERTEX
  8
CURVE
 62
7
  6
CONTINUOUS
 10
43.6913560614
 20
137.7498258472
  0
VERTEX
  8
CURVE
 62
7
  6
CONTINUOUS
 10
43.6275809427
 20
137.6710382917
  0
VERTEX
  8
CURVE
 62
7
  6
CONTINUOUS
 10
43.5737648239
 20
137.5853944421
  0
VERTEX
  8
CURVE
 62
7
  6
CONTINUOUS
 10
43.5309592709
 20
137.4949981611
  0
VERTEX
  8
CURVE
 62
7
  6
CONTINUOUS
 10
43.4993407941
 20
137.4010407911
  0
VERTEX
  8
CURVE
 62
7
  6
CONTINUOUS
 10
43.479087028
 20
137.3051573869
  0
SEQEND
  0
LINE
  8
0
 62
7
  6
CONTINUOUS
 10
28.3821939246
 20
141.8551573869
 11
34.0621939246
 21
141.8551573869
  0
LINE
  8
0
 62
7
  6
CONTINUOUS
 10
42.4621939246
 20
141.8551573869
 11
46.7621939246
 21
141.8551573869
  0
LINE
  8
0
 62
7
  6
CONTINUOUS
 10
55.1621939246
 20
141.8551573869
 11
59.4621939246
 21
141.8551573869
  0
LINE
  8
0
 62
7
  6
CONTINUOUS
 10
67.8621939246
 20
141.8551573869
 11
72.1621939246
 21
141.8551573869
  0
LINE
  8
0
 62
7
  6
CONTINUOUS
 10
80.5621939246
 20
141.8551573869
 11
84.8621939246
 21
141.8551573869
  0
LINE
  8
0
 62
7
  6
CONTINUOUS
 10
93.2621939246
 20
141.8551573869
 11
97.5621939246
 21
141.8551573869
  0
LINE
  8
0
 62
7
  6
CONTINUOUS
 10
105.9621939246
 20
141.8551573869
 11
111.6421939246
 21
141.8551573869
  0
LINE
  8
0
 62
7
  6
CONTINUOUS
 10
112.3476271111
 20
126.2251573602
 11
112.3476271111
 21
137.455157387
  0
LINE
  8
0
 62
7
  6
CONTINUOUS
 10
112.4921939246
 20
122.6751573869
 11
112.4921939246
 21
141.0051573869
  0
POLYLINE
  8
0
 62
7
  6
CONTINUOUS
 66
1
 70
0
  0
VERTEX
  8
0
 62
7
  6
CONTINUOUS
 10
112.3476271111
 20
126.2251573602
  0
VERTEX
  8
0
 62
7
  6
CONTINUOUS
 10
112.3427109121
 20
125.9910562994
  0
VERTEX
  8
0
 62
7
  6
CONTINUOUS
 10
112.3295635989
 20
125.7826734358
  0
VERTEX
  8
0
 62
7
  6
CONTINUOUS
 10
112.3098287328
 20
125.5977358956
  0
VERTEX
  8
0
 62
7
  6
CONTINUOUS
 10
112.2845663025
 20
125.4339829334
  0
VERTEX
  8
0
 62
7
  6
CONTINUOUS
 10
112.2545875259
 20
125.2894999308
  0
VERTEX
  8
0
 62
7
  6
CONTINUOUS
 10
112.2203039178
 20
125.1616491559
  0
VERTEX
  8
0
 62
7
  6
CONTINUOUS
 10
112.1818981082
 20
125.0482893432
  0
VERTEX
  8
0
 62
7
  6
CONTINUOUS
 10
112.1400302122
 20
124.9492028531
  0
VERTEX
  8
0
 62
7
  6
CONTINUOUS
 10
112.0951226087
 20
124.863451006
  0
VERTEX
  8
0
 62
7
  6
CONTINUOUS
 10
112.0472091206
 20
124.7897416658
  0
VERTEX
  8
0
 62
7
  6
CONTINUOUS
 10
111.9960107266
 20
124.7270191794
  0
VERTEX
  8
0
 62
7
  6
CONTINUOUS
 10
111.9434536261
 20
124.676783075
  0
VERTEX
  8
0
 62
7
  6
CONTINUOUS
 10
111.8915315613
 20
124.639149114
  0
VERTEX
  8
0
 62
7
  6
CONTINUOUS
 10
111.8412410415
 20
124.6127450568
  0
VERTEX
  8
0
 62
7
  6
CONTINUOUS
 10
111.7927503667
 20
124.5958422216
  0
VERTEX
  8
0
 62
7
  6
CONTINUOUS
 10
111.7441160626
 20
124.5868195144
  0
VERTEX
  8
0
 62
7
  6
CONTINUOUS
 10
111.6938771531
 20
124.5855276987
  0
VERTEX
  8
0
 62
7
  6
CONTINUOUS
 10
111.6421939246
 20
124.5925849048
  0
SEQEND
  0
LINE
  8
CURVE
 62
7
  6
CONTINUOUS
 10
165.7062401695
 20
109.1251573869
 11
158.8041271114
 21
109.1251573869
  0
LINE
  8
0
 62
2
  6
CONTINUOUS
 10
170.5841271114
 20
111.9051573869
 11
168.8241271114
 21
111.9051573869
  0
LINE
  8
DEFAULT_1
 62
2
  6
CENTER
 10
165.3041271114
 20
111.9051573869
 11
165.1041271114
 21
111.9051573869
  0
LINE
  8
DEFAULT_1
 62
2
  6
CENTER
 10
174.1041271114
 20
111.9051573869
 11
174.3041271114
 21
111.9051573869
  0
LINE
  8
CURVE
 62
7
  6
CONTINUOUS
 10
157.8041271114
 20
110.1251573869
 11
157.8041271114
 21
123.1251573869
  0
LINE
  8
0
 62
7
  6
CONTINUOUS
 10
165.4302969256
 20
134.1306164823
 11
165.4135437793
 21
134.0806163869
  0
LINE
  8
0
 62
7
  6
CONTINUOUS
 10
165.4135437793
 20
133.7806163869
 11
165.4302969256
 21
133.8306164823
  0
LINE
  8
0
 62
7
  6
CONTINUOUS
 10
165.4302969256
 20
131.8806163392
 11
165.4135437793
 21
131.8306163869
  0
LINE
  8
0
 62
7
  6
CONTINUOUS
 10
165.4135437793
 20
131.5306163869
 11
165.4302969256
 21
131.5806163392
  0
LINE
  8
0
 62
7
  6
CONTINUOUS
 10
165.3912062508
 20
133.9306163869
 11
165.3744531045
 21
133.7306162915
  0
LINE
  8
0
 62
7
  6
CONTINUOUS
 10
165.4023750151
 20
133.6806164823
 11
165.4135437793
 21
133.7806163869
  0
LINE
  8
0
 62
7
  6
CONTINUOUS
 10
165.4023750151
 20
131.4306163392
 11
165.4135437793
 21
131.5306163869
  0
LINE
  8
0
 62
7
  6
CONTINUOUS
 10
165.4135437793
 20
134.0806163869
 11
165.3912062508
 21
133.9306163869
  0
LINE
  8
0
 62
7
  6
CONTINUOUS
 10
165.4135437793
 20
131.8306163869
 11
165.3912062508
 21
131.6806163869
  0
LINE
  8
0
 62
7
  6
CONTINUOUS
 10
165.5084782908
 20
131.4806164346
 11
165.4917251445
 21
131.6806163869
  0
LINE
  8
0
 62
7
  6
CONTINUOUS
 10
165.4749719982
 20
131.4306163392
 11
165.4805563803
 21
131.2806163392
  0
LINE
  8
0
 62
7
  6
CONTINUOUS
 10
165.4749719982
 20
133.6806164823
 11
165.4805563803
 21
133.5306164823
  0
LINE
  8
0
 62
7
  6
CONTINUOUS
 10
165.514062673
 20
131.2306163869
 11
165.5084782908
 21
131.4806164346
  0
LINE
  8
0
 62
7
  6
CONTINUOUS
 10
165.514062673
 20
133.4806163869
 11
165.5084782908
 21
133.7306162915
  0
POLYLINE
  8
CURVE
 62
7
  6
CONTINUOUS
 66
1
 70
0
  0
VERTEX
  8
CURVE
 62
7
  6
CONTINUOUS
 10
165.6799288201
 20
137.4551573869
  0
VERTEX
  8
CURVE
 62
7
  6
CONTINUOUS
 10
165.6794987085
 20
137.6892584522
  0
VERTEX
  8
CURVE
 62
7
  6
CONTINUOUS
 10
165.6783484677
 20
137.8976413196
  0
VERTEX
  8
CURVE
 62
7
  6
CONTINUOUS
 10
165.6766218907
 20
138.0825788629
  0
VERTEX
  8
CURVE
 62
7
  6
CONTINUOUS
 10
165.6744117145
 20
138.2463318275
  0
VERTEX
  8
CURVE
 62
7
  6
CONTINUOUS
 10
165.6717889114
 20
138.3908148319
  0
VERTEX
  8
CURVE
 62
7
  6
CONTINUOUS
 10
165.6687894844
 20
138.5186656089
  0
VERTEX
  8
CURVE
 62
7
  6
CONTINUOUS
 10
165.6654294114
 20
138.6320254229
  0
VERTEX
  8
CURVE
 62
7
  6
CONTINUOUS
 10
165.6617664452
 20
138.7311119137
  0
VERTEX
  8
CURVE
 62
7
  6
CONTINUOUS
 10
165.657837539
 20
138.8168637615
  0
VERTEX
  8
CURVE
 62
7
  6
CONTINUOUS
 10
165.653645652
 20
138.8905731028
  0
VERTEX
  8
CURVE
 62
7
  6
CONTINUOUS
 10
165.6491663729
 20
138.9532955909
  0
VERTEX
  8
CURVE
 62
7
  6
CONTINUOUS
 10
165.6445682223
 20
139.0035316968
  0
VERTEX
  8
CURVE
 62
7
  6
CONTINUOUS
 10
165.6400256302
 20
139.0411656587
  0
VERTEX
  8
CURVE
 62
7
  6
CONTINUOUS
 10
165.6356257798
 20
139.0675697163
  0
VERTEX
  8
CURVE
 62
7
  6
CONTINUOUS
 10
165.6313833955
 20
139.0844725518
  0
VERTEX
  8
CURVE
 62
7
  6
CONTINUOUS
 10
165.6271284452
 20
139.0934952592
  0
VERTEX
  8
CURVE
 62
7
  6
CONTINUOUS
 10
165.6227331101
 20
139.0947870751
  0
VERTEX
  8
CURVE
 62
7
  6
CONTINUOUS
 10
165.6182114134
 20
139.087729869
  0
SEQEND
  0
LINE
  8
0
 62
7
  6
CONTINUOUS
 10
165.3041271114
 20
121.3551573869
 11
165.3041271114
 21
120.4729248602
  0
LINE
  8
CURVE
 62
7
  6
CONTINUOUS
 10
165.3041271114
 20
111.7551573869
 11
165.3041271114
 21
137.4551573869
  0
LINE
  8
0
 62
7
  6
CONTINUOUS
 10
165.3688687224
 20
133.4806163869
 11
165.3688687224
 21
132.2806163869
  0
LINE
  8
0
 62
7
  6
CONTINUOUS
 10
165.3688687224
 20
131.2306163869
 11
165.3688687224
 21
130.0306163869
  0
LINE
  8
0
 62
7
  6
CONTINUOUS
 10
165.396790633
 20
130.3306163869
 11
165.396790633
 21
131.2806163392
  0
LINE
  8
0
 62
7
  6
CONTINUOUS
 10
165.396790633
 20
132.5806163869
 11
165.396790633
 21
133.5306164823
  0
LINE
  8
0
 62
7
  6
CONTINUOUS
 10
165.4805563803
 20
133.5306164823
 11
165.4805563803
 21
132.5806163869
  0
LINE
  8
0
 62
7
  6
CONTINUOUS
 10
165.4805563803
 20
131.2806163392
 11
165.4805563803
 21
130.3306163869
  0
LINE
  8
0
 62
7
  6
CONTINUOUS
 10
165.514062673
 20
130.3306163869
 11
165.514062673
 21
131.2306163869
  0
LINE
  8
0
 62
7
  6
CONTINUOUS
 10
165.514062673
 20
132.5806163869
 11
165.514062673
 21
133.4806163869
  0
LINE
  8
0
 62
7
  6
CONTINUOUS
 10
165.5696326899
 20
132.5806163869
 11
165.5696326899
 21
132.2806163869
  0
LINE
  8
0
 62
7
  6
CONTINUOUS
 10
165.5696326899
 20
130.3306163869
 11
165.5696326899
 21
130.0306163869
  0
LINE
  8
0
 62
7
  6
CONTINUOUS
 10
165.631334713
 20
130.0306163869
 11
165.631334713
 21
130.3306163869
  0
LINE
  8
0
 62
7
  6
CONTINUOUS
 10
165.631334713
 20
132.2806163869
 11
165.631334713
 21
132.5806163869
  0
LINE
  8
CURVE
 62
7
  6
CONTINUOUS
 10
165.6799288201
 20
137.4551573869
 11
165.6799288201
 21
126.2251573804
  0
LINE
  8
0
 62
7
  6
CONTINUOUS
 10
165.3744531045
 20
133.7306162915
 11
165.3688687224
 21
133.4806163869
  0
LINE
  8
0
 62
7
  6
CONTINUOUS
 10
165.3744531045
 20
131.4806164346
 11
165.3688687224
 21
131.2306163869
  0
LINE
  8
0
 62
7
  6
CONTINUOUS
 10
165.396790633
 20
133.5306164823
 11
165.4023750151
 21
133.6806164823
  0
LINE
  8
0
 62
7
  6
CONTINUOUS
 10
165.396790633
 20
131.2806163392
 11
165.4023750151
 21
131.4306163392
  0
LINE
  8
0
 62
7
  6
CONTINUOUS
 10
165.3912062508
 20
131.6806163869
 11
165.3744531045
 21
131.4806164346
  0
LINE
  8
CURVE
 62
7
  6
CONTINUOUS
 10
165.3041271114
 20
124.1692108534
 11
165.298663069
 21
124.1615214352
  0
LINE
  8
0
 62
7
  6
CONTINUOUS
 10
165.3041271114
 20
124.1692128184
 11
165.2986709551
 21
124.1615325332
  0
LINE
  8
CURVE
 62
7
  6
CONTINUOUS
 10
165.2985228156
 20
124.1613511475
 11
165.288842703
 21
124.151437382
  0
LINE
  8
CURVE
 62
7
  6
CONTINUOUS
 10
165.288842703
 20
124.151437382
 11
165.274630926
 21
124.1410859675
  0
LINE
  8
0
 62
7
  6
CONTINUOUS
 10
165.2888509146
 20
124.1514458141
 11
165.2746343294
 21
124.1410884464
  0
LINE
  8
CURVE
 62
7
  6
CONTINUOUS
 10
165.274630926
 20
124.1410859675
 11
165.2562229588
 21
124.132255242
  0
LINE
  8
0
 62
7
  6
CONTINUOUS
 10
165.2746343294
 20
124.1410884464
 11
165.2562187837
 21
124.1322541475
  0
LINE
  8
CURVE
 62
7
  6
CONTINUOUS
 10
165.2565593424
 20
124.1323800661
 11
165.234969594
 21
124.1266836951
  0
LINE
  8
0
 62
7
  6
CONTINUOUS
 10
165.2562187837
 20
124.1322541475
 11
165.2484872872
 21
124.130227344
  0
LINE
  8
CURVE
 62
7
  6
CONTINUOUS
 10
165.234969594
 20
124.1266836951
 11
165.2158060443
 21
124.1251573872
  0
LINE
  8
CURVE
 62
7
  6
CONTINUOUS
 10
158.8041271114
 20
124.1251573869
 11
165.2158389249
 21
124.1251573869
  0
LINE
  8
DEFAULT_1
 62
2
  6
CENTER
 10
155.8041267268
 20
124.6051573869
 11
176.9541279161
 21
124.6051573869
  0
POLYLINE
  8
CURVE
 62
7
  6
CONTINUOUS
 66
1
 70
0
  0
VERTEX
  8
CURVE
 62
7
  6
CONTINUOUS
 10
165.6182114134
 20
124.5925849048
  0
VERTEX
  8
CURVE
 62
7
  6
CONTINUOUS
 10
165.6227354148
 20
124.5855262676
  0
VERTEX
  8
CURVE
 62
7
  6
CONTINUOUS
 10
165.6271320091
 20
124.5868238436
  0
VERTEX
  8
CURVE
 62
7
  6
CONTINUOUS
 10
165.6313877098
 20
124.5958553353
  0
VERTEX
  8
CURVE
 62
7
  6
CONTINUOUS
 10
165.6356311198
 20
124.6127714933
  0
VERTEX
  8
CURVE
 62
7
  6
CONTINUOUS
 10
165.640032596
 20
124.6391984771
  0
VERTEX
  8
CURVE
 62
7
  6
CONTINUOUS
 10
165.6445775785
 20
124.6768723123
  0
VERTEX
  8
CURVE
 62
7
  6
CONTINUOUS
 10
165.6491779225
 20
124.7271623537
  0
VERTEX
  8
CURVE
 62
7
  6
CONTINUOUS
 10
165.6536556672
 20
124.78989919
  0
VERTEX
  8
CURVE
 62
7
  6
CONTINUOUS
 10
165.6578447408
 20
124.8635921557
  0
VERTEX
  8
CURVE
 62
7
  6
CONTINUOUS
 10
165.6617713534
 20
124.9493220021
  0
VERTEX
  8
CURVE
 62
7
  6
CONTINUOUS
 10
165.6654326165
 20
125.0483859853
  0
VERTEX
  8
CURVE
 62
7
  6
CONTINUOUS
 10
165.6687914532
 20
125.1617236259
  0
VERTEX
  8
CURVE
 62
7
  6
CONTINUOUS
 10
165.6717900002
 20
125.2895524521
  0
VERTEX
  8
CURVE
 62
7
  6
CONTINUOUS
 10
165.6744122779
 20
125.4340186502
  0
VERTEX
  8
CURVE
 62
7
  6
CONTINUOUS
 10
165.6766222093
 20
125.5977638853
  0
VERTEX
  8
CURVE
 62
7
  6
CONTINUOUS
 10
165.6783486443
 20
125.7826972465
  0
VERTEX
  8
CURVE
 62
7
  6
CONTINUOUS
 10
165.6794987744
 20
125.9910740468
  0
VERTEX
  8
CURVE
 62
7
  6
CONTINUOUS
 10
165.6799288201
 20
126.2251573804
  0
SEQEND
  0
LINE
  8
0
 62
7
  6
CONTINUOUS
 10
165.5084782908
 20
133.7306162915
 11
165.4917251445
 21
133.9306163869
  0
LINE
  8
0
 62
7
  6
CONTINUOUS
 10
165.4917251445
 20
131.6806163869
 11
165.4693876161
 21
131.8306163869
  0
LINE
  8
0
 62
7
  6
CONTINUOUS
 10
165.4917251445
 20
133.9306163869
 11
165.4693876161
 21
134.0806163869
  0
LINE
  8
0
 62
7
  6
CONTINUOUS
 10
165.4638032339
 20
131.5306163869
 11
165.4749719982
 21
131.4306163392
  0
LINE
  8
0
 62
7
  6
CONTINUOUS
 10
165.4638032339
 20
133.7806163869
 11
165.4749719982
 21
133.6806164823
  0
LINE
  8
0
 62
7
  6
CONTINUOUS
 10
165.4470500876
 20
131.5806163392
 11
165.4638032339
 21
131.5306163869
  0
LINE
  8
0
 62
7
  6
CONTINUOUS
 10
165.4693876161
 20
131.8306163869
 11
165.4526344697
 21
131.8806163392
  0
LINE
  8
0
 62
7
  6
CONTINUOUS
 10
165.4470500876
 20
133.8306164823
 11
165.4638032339
 21
133.7806163869
  0
LINE
  8
0
 62
7
  6
CONTINUOUS
 10
165.4693876161
 20
134.0806163869
 11
165.4526344697
 21
134.1306164823
  0
LINE
  8
0
 62
2
  6
CONTINUOUS
 10
169.7041271114
 20
138.1851573869
 11
169.7041271114
 21
136.4251573869
  0
LINE
  8
DEFAULT_1
 62
2
  6
CENTER
 10
169.7041271114
 20
132.9051573869
 11
169.7041271114
 21
132.7051573869
  0
LINE
  8
0
 62
2
  6
CONTINUOUS
 10
169.7041271114
 20
112.7851573869
 11
169.7041271114
 21
111.0251573869
  0
LINE
  8
DEFAULT_1
 62
2
  6
CENTER
 10
169.7041271114
 20
107.5051573869
 11
169.7041271114
 21
107.3051573869
  0
LINE
  8
DEFAULT_1
 62
2
  6
CENTER
 10
169.7041271114
 20
116.3051573869
 11
169.7041271114
 21
116.5051573869
  0
LINE
  8
DEFAULT_1
 62
2
  6
CENTER
 10
169.7041271114
 20
141.7051573869
 11
169.7041271114
 21
141.9051573869
  0
LINE
  8
0
 62
7
  6
CONTINUOUS
 10
165.3688687224
 20
130.0306163869
 11
165.631334713
 21
130.0306163869
  0
LINE
  8
0
 62
7
  6
CONTINUOUS
 10
165.396790633
 20
130.3306163869
 11
165.631334713
 21
130.3306163869
  0
LINE
  8
0
 62
7
  6
CONTINUOUS
 10
165.3688687224
 20
131.2306163869
 11
165.396790633
 21
131.2306163869
  0
LINE
  8
0
 62
7
  6
CONTINUOUS
 10
165.4805563803
 20
131.2806163392
 11
165.5129457978
 21
131.2806163392
  0
POLYLINE
  8
CURVE
 62
7
  6
CONTINUOUS
 66
1
 70
0
  0
VERTEX
  8
CURVE
 62
7
  6
CONTINUOUS
 10
173.7283254026
 20
126.2251573602
  0
VERTEX
  8
CURVE
 62
7
  6
CONTINUOUS
 10
173.7287555143
 20
125.9910562994
  0
VERTEX
  8
CURVE
 62
7
  6
CONTINUOUS
 10
173.7299057552
 20
125.7826734358
  0
VERTEX
  8
CURVE
 62
7
  6
CONTINUOUS
 10
173.7316323322
 20
125.5977358956
  0
VERTEX
  8
CURVE
 62
7
  6
CONTINUOUS
 10
173.7338425085
 20
125.4339829334
  0
VERTEX
  8
CURVE
 62
7
  6
CONTINUOUS
 10
173.7364653116
 20
125.2894999308
  0
VERTEX
  8
CURVE
 62
7
  6
CONTINUOUS
 10
173.7394647386
 20
125.1616491559
  0
VERTEX
  8
CURVE
 62
7
  6
CONTINUOUS
 10
173.7428248116
 20
125.0482893432
  0
VERTEX
  8
CURVE
 62
7
  6
CONTINUOUS
 10
173.7464877779
 20
124.9492028531
  0
VERTEX
  8
CURVE
 62
7
  6
CONTINUOUS
 10
173.7504166841
 20
124.863451006
  0
VERTEX
  8
CURVE
 62
7
  6
CONTINUOUS
 10
173.7546085711
 20
124.7897416658
  0
VERTEX
  8
CURVE
 62
7
  6
CONTINUOUS
 10
173.7590878502
 20
124.7270191794
  0
VERTEX
  8
CURVE
 62
7
  6
CONTINUOUS
 10
173.7636860007
 20
124.676783075
  0
VERTEX
  8
CURVE
 62
7
  6
CONTINUOUS
 10
173.7682285927
 20
124.639149114
  0
VERTEX
  8
CURVE
 62
7
  6
CONTINUOUS
 10
173.7726284431
 20
124.6127450568
  0
VERTEX
  8
CURVE
 62
7
  6
CONTINUOUS
 10
173.7768708274
 20
124.5958422216
  0
VERTEX
  8
CURVE
 62
7
  6
CONTINUOUS
 10
173.7811257777
 20
124.5868195144
  0
VERTEX
  8
CURVE
 62
7
  6
CONTINUOUS
 10
173.7855211127
 20
124.5855276987
  0
VERTEX
  8
CURVE
 62
7
  6
CONTINUOUS
 10
173.7900428093
 20
124.5925849048
  0
SEQEND
  0
LINE
  8
CURVE
 62
7
  6
CONTINUOUS
 10
173.7283254026
 20
126.2251573602
 11
173.7283254026
 21
137.455157387
  0
LINE
  8
0
 62
7
  6
CONTINUOUS
 10
174.1041271114
 20
120.4729248602
 11
174.1041271114
 21
121.3551573869
  0
LINE
  8
CURVE
 62
7
  6
CONTINUOUS
 10
174.1041271114
 20
111.7551573869
 11
174.1041271114
 21
137.4551573869
  0
LINE
  8
0
 62
7
  6
CONTINUOUS
 10
165.4749719982
 20
131.4306163392
 11
165.5095951692
 21
131.4306163392
  0
LINE
  8
0
 62
7
  6
CONTINUOUS
 10
165.3744531045
 20
131.4806164346
 11
165.4079594052
 21
131.4806164346
  0
LINE
  8
0
 62
7
  6
CONTINUOUS
 10
165.4638032339
 20
131.5306163869
 11
165.5042900073
 21
131.5306163869
  0
LINE
  8
0
 62
7
  6
CONTINUOUS
 10
165.4302969256
 20
131.5806163392
 11
165.5001017237
 21
131.5806163392
  0
LINE
  8
0
 62
7
  6
CONTINUOUS
 10
165.3912062508
 20
131.6806163869
 11
165.4917251445
 21
131.6806163869
  0
LINE
  8
0
 62
7
  6
CONTINUOUS
 10
165.4135437793
 20
131.8306163869
 11
165.4693876161
 21
131.8306163869
  0
LINE
  8
0
 62
7
  6
CONTINUOUS
 10
165.4526344697
 20
131.8806163392
 11
165.4302969256
 21
131.8806163392
  0
LINE
  8
0
 62
7
  6
CONTINUOUS
 10
165.3688687224
 20
132.2806163869
 11
165.631334713
 21
132.2806163869
  0
LINE
  8
0
 62
7
  6
CONTINUOUS
 10
165.396790633
 20
132.5806163869
 11
165.631334713
 21
132.5806163869
  0
LINE
  8
0
 62
7
  6
CONTINUOUS
 10
165.3688687224
 20
133.4806163869
 11
165.396790633
 21
133.4806163869
  0
LINE
  8
0
 62
7
  6
CONTINUOUS
 10
165.4805563803
 20
133.5306164823
 11
165.512945794
 21
133.5306164823
  0
LINE
  8
0
 62
7
  6
CONTINUOUS
 10
165.4749719982
 20
133.6806164823
 11
165.5095951634
 21
133.6806164823
  0
LINE
  8
0
 62
7
  6
CONTINUOUS
 10
165.3744531045
 20
133.7306162915
 11
165.4079593812
 21
133.7306162915
  0
LINE
  8
0
 62
7
  6
CONTINUOUS
 10
165.4638032339
 20
133.7806163869
 11
165.5042899983
 21
133.7806163869
  0
LINE
  8
0
 62
7
  6
CONTINUOUS
 10
165.4302969256
 20
133.8306164823
 11
165.5001017057
 21
133.8306164823
  0
LINE
  8
0
 62
7
  6
CONTINUOUS
 10
165.3912062508
 20
133.9306163869
 11
165.4917251445
 21
133.9306163869
  0
LINE
  8
0
 62
7
  6
CONTINUOUS
 10
165.4135437793
 20
134.0806163869
 11
165.4693876161
 21
134.0806163869
  0
LINE
  8
0
 62
7
  6
CONTINUOUS
 10
165.4526344697
 20
134.1306164823
 11
165.4302969256
 21
134.1306164823
  0
LINE
  8
0
 62
2
  6
CONTINUOUS
 10
170.5841271114
 20
137.3051573869
 11
168.8241271114
 21
137.3051573869
  0
LINE
  8
DEFAULT_1
 62
2
  6
CENTER
 10
165.3041271114
 20
137.3051573869
 11
165.1041271114
 21
137.3051573869
  0
LINE
  8
DEFAULT_1
 62
2
  6
CENTER
 10
174.1041271114
 20
137.3051573869
 11
174.3041271114
 21
137.3051573869
  0
POLYLINE
  8
CURVE
 62
7
  6
CONTINUOUS
 66
1
 70
0
  0
VERTEX
  8
CURVE
 62
7
  6
CONTINUOUS
 10
173.7900428093
 20
139.087729869
  0
VERTEX
  8
CURVE
 62
7
  6
CONTINUOUS
 10
173.7855188079
 20
139.0947885062
  0
VERTEX
  8
CURVE
 62
7
  6
CONTINUOUS
 10
173.7811222135
 20
139.0934909301
  0
VERTEX
  8
CURVE
 62
7
  6
CONTINUOUS
 10
173.7768665129
 20
139.0844594382
  0
VERTEX
  8
CURVE
 62
7
  6
CONTINUOUS
 10
173.7726231029
 20
139.0675432802
  0
VERTEX
  8
CURVE
 62
7
  6
CONTINUOUS
 10
173.7682216267
 20
139.0411162962
  0
VERTEX
  8
CURVE
 62
7
  6
CONTINUOUS
 10
173.7636766442
 20
139.0034424606
  0
VERTEX
  8
CURVE
 62
7
  6
CONTINUOUS
 10
173.7590763001
 20
138.9531524184
  0
VERTEX
  8
CURVE
 62
7
  6
CONTINUOUS
 10
173.7545985554
 20
138.8904155811
  0
VERTEX
  8
CURVE
 62
7
  6
CONTINUOUS
 10
173.7504094818
 20
138.8167226151
  0
VERTEX
  8
CURVE
 62
7
  6
CONTINUOUS
 10
173.7464828693
 20
138.7309927689
  0
VERTEX
  8
CURVE
 62
7
  6
CONTINUOUS
 10
173.7428216062
 20
138.631928786
  0
VERTEX
  8
CURVE
 62
7
  6
CONTINUOUS
 10
173.7394627695
 20
138.5185911455
  0
VERTEX
  8
CURVE
 62
7
  6
CONTINUOUS
 10
173.7364642225
 20
138.3907623187
  0
VERTEX
  8
CURVE
 62
7
  6
CONTINUOUS
 10
173.7338419449
 20
138.2462961205
  0
VERTEX
  8
CURVE
 62
7
  6
CONTINUOUS
 10
173.7316320135
 20
138.0825508851
  0
VERTEX
  8
CURVE
 62
7
  6
CONTINUOUS
 10
173.7299055784
 20
137.8976175232
  0
VERTEX
  8
CURVE
 62
7
  6
CONTINUOUS
 10
173.7287554484
 20
137.6892407219
  0
VERTEX
  8
CURVE
 62
7
  6
CONTINUOUS
 10
173.7283254026
 20
137.455157387
  0
SEQEND
  0
ARC
  8
CURVE
 62
7
  6
CONTINUOUS
 10
52.2621939246
 20
184.5331166519
 40
1.0
 50
270.0
 51
360.0
  0
ARC
  8
CURVE
 62
7
  6
CONTINUOUS
 10
49.6621939246
 20
184.5331166519
 40
1.0
 50
180.0
 51
270.0
  0
ARC
  8
CURVE
 62
7
  6
CONTINUOUS
 10
53.5621939246
 20
190.8248161274
 40
0.3
 50
113.0356841059
 51
180.0
  0
ARC
  8
CURVE
 62
7
  6
CONTINUOUS
 10
48.3621939246
 20
190.8248161274
 40
0.3
 50
0.0
 51
66.9643158941
  0
ARC
  8
CURVE
 62
7
  6
CONTINUOUS
 10
32.8091759246
 20
193.2507229781
 40
2.5
 50
11.1254059262
 51
45.4760554887
  0
ARC
  8
0
 62
7
  6
CONTINUOUS
 10
38.4721939246
 20
191.8831166519
 40
0.85
 50
270.0
 51
360.0
  0
ARC
  8
CURVE
 62
7
  6
CONTINUOUS
 10
28.3821939246
 20
191.8831166519
 40
0.85
 50
180.0
 51
213.9093356964
  0
ARC
  8
0
 62
7
  6
CONTINUOUS
 10
40.4121939246
 20
191.8831166519
 40
0.85
 50
270.0
 51
360.0
  0
ARC
  8
CURVE
 62
7
  6
CONTINUOUS
 10
36.1121939246
 20
191.8831166519
 40
0.85
 50
180.0
 51
270.0
  0
ARC
  8
CURVE
 62
7
  6
CONTINUOUS
 10
32.8091759246
 20
197.6155103256
 40
2.5
 50
314.5239445113
 51
348.8745940738
  0
ARC
  8
0
 62
7
  6
CONTINUOUS
 10
38.4721939246
 20
198.9831166519
 40
0.85
 50
0.0
 51
90.0
  0
ARC
  8
CURVE
 62
7
  6
CONTINUOUS
 10
28.3821939246
 20
198.9831166519
 40
0.85
 50
146.0906643036
 51
180.0
  0
ARC
  8
0
 62
7
  6
CONTINUOUS
 10
40.4121939246
 20
198.9831166519
 40
0.85
 50
0.0
 51
90.0
  0
ARC
  8
CURVE
 62
7
  6
CONTINUOUS
 10
36.1121939246
 20
198.9831166519
 40
0.85
 50
90.0
 51
180.0
  0
ARC
  8
CURVE
 62
7
  6
CONTINUOUS
 10
69.1152119246
 20
193.2507229781
 40
2.5
 50
134.5239445113
 51
168.8745940738
  0
ARC
  8
CURVE
 62
7
  6
CONTINUOUS
 10
61.5121939246
 20
191.8831166519
 40
0.85
 50
180.0
 51
270.0
  0
ARC
  8
CURVE
 62
7
  6
CONTINUOUS
 10
48.8121939246
 20
191.8831166519
 40
0.85
 50
180.0
 51
246.9643158941
  0
ARC
  8
CURVE
 62
7
  6
CONTINUOUS
 10
53.1121939246
 20
191.8831166519
 40
0.85
 50
293.0356841059
 51
360.0
  0
ARC
  8
CURVE
 62
7
  6
CONTINUOUS
 10
65.8121939246
 20
191.8831166519
 40
0.85
 50
270.0
 51
360.0
  0
ARC
  8
CURVE
 62
7
  6
CONTINUOUS
 10
69.1152119246
 20
197.6155103256
 40
2.5
 50
191.1254059262
 51
225.4760554887
  0
ARC
  8
CURVE
 62
7
  6
CONTINUOUS
 10
61.5121939246
 20
198.9831166519
 40
0.85
 50
90.0
 51
180.0
  0
ARC
  8
CURVE
 62
7
  6
CONTINUOUS
 10
48.8121939246
 20
198.9831166519
 40
0.85
 50
90.0
 51
180.0
  0
ARC
  8
CURVE
 62
7
  6
CONTINUOUS
 10
48.9611811773
 20
198.9831166519
 40
0.85
 50
60.1666666667
 51
88.558489658
  0
ARC
  8
CURVE
 62
7
  6
CONTINUOUS
 10
53.1121939246
 20
198.9831166519
 40
0.85
 50
0.0
 51
90.0
  0
ARC
  8
CURVE
 62
7
  6
CONTINUOUS
 10
65.8121939246
 20
198.9831166519
 40
0.85
 50
0.0
 51
90.0
  0
ARC
  8
0
 62
7
  6
CONTINUOUS
 10
90.3621939246
 20
184.5331166519
 40
1.0
 50
270.0
 51
360.0
  0
ARC
  8
0
 62
7
  6
CONTINUOUS
 10
87.7621939246
 20
184.5331166519
 40
1.0
 50
180.0
 51
270.0
  0
ARC
  8
0
 62
7
  6
CONTINUOUS
 10
91.6621939246
 20
190.8248161274
 40
0.3
 50
113.0356841059
 51
180.0
  0
ARC
  8
0
 62
7
  6
CONTINUOUS
 10
86.4621939246
 20
190.8248161274
 40
0.3
 50
0.0
 51
66.9643158941
  0
ARC
  8
0
 62
7
  6
CONTINUOUS
 10
107.2152119246
 20
193.2507229781
 40
2.5
 50
134.5239445113
 51
168.8745940738
  0
ARC
  8
0
 62
7
  6
CONTINUOUS
 10
70.9091759246
 20
193.2507229781
 40
2.5
 50
11.1254059262
 51
45.4760554887
  0
ARC
  8
0
 62
7
  6
CONTINUOUS
 10
107.2152119246
 20
197.6155103256
 40
2.5
 50
191.1254059262
 51
225.4760554887
  0
ARC
  8
0
 62
7
  6
CONTINUOUS
 10
70.9091759246
 20
197.6155103256
 40
2.5
 50
314.5239445113
 51
348.8745940738
  0
ARC
  8
0
 62
7
  6
CONTINUOUS
 10
99.6121939246
 20
198.9831166519
 40
0.85
 50
90.0
 51
180.0
  0
ARC
  8
0
 62
7
  6
CONTINUOUS
 10
99.6121939246
 20
191.8831166519
 40
0.85
 50
180.0
 51
270.0
  0
ARC
  8
0
 62
7
  6
CONTINUOUS
 10
86.9121939246
 20
191.8831166519
 40
0.85
 50
180.0
 51
246.9643158941
  0
ARC
  8
0
 62
7
  6
CONTINUOUS
 10
103.9121939246
 20
191.8831166519
 40
0.85
 50
270.0
 51
360.0
  0
ARC
  8
0
 62
7
  6
CONTINUOUS
 10
74.2121939246
 20
191.8831166519
 40
0.85
 50
180.0
 51
270.0
  0
ARC
  8
0
 62
7
  6
CONTINUOUS
 10
74.2121939246
 20
198.9831166519
 40
0.85
 50
90.0
 51
180.0
  0
ARC
  8
0
 62
7
  6
CONTINUOUS
 10
103.9121939246
 20
198.9831166519
 40
0.85
 50
0.0
 51
90.0
  0
ARC
  8
0
 62
7
  6
CONTINUOUS
 10
86.9121939246
 20
198.9831166519
 40
0.85
 50
90.0
 51
180.0
  0
ARC
  8
0
 62
7
  6
CONTINUOUS
 10
78.5121939246
 20
191.8831166519
 40
0.85
 50
270.0
 51
360.0
  0
ARC
  8
0
 62
7
  6
CONTINUOUS
 10
78.5121939246
 20
198.9831166519
 40
0.85
 50
0.0
 51
90.0
  0
ARC
  8
0
 62
7
  6
CONTINUOUS
 10
91.2121939246
 20
191.8831166519
 40
0.85
 50
293.0356841059
 51
360.0
  0
ARC
  8
0
 62
7
  6
CONTINUOUS
 10
91.2121939246
 20
198.9831166519
 40
0.85
 50
0.0
 51
90.0
  0
ARC
  8
0
 62
7
  6
CONTINUOUS
 10
101.5521939246
 20
198.9831166519
 40
0.85
 50
90.0
 51
180.0
  0
ARC
  8
0
 62
7
  6
CONTINUOUS
 10
101.5521939246
 20
191.8831166519
 40
0.85
 50
180.0
 51
270.0
  0
ARC
  8
0
 62
7
  6
CONTINUOUS
 10
111.6421939246
 20
191.8831166519
 40
0.85
 50
326.0906643036
 51
360.0
  0
ARC
  8
0
 62
7
  6
CONTINUOUS
 10
111.6421939246
 20
198.9831166519
 40
0.85
 50
0.0
 51
33.9093356964
  0
ARC
  8
CURVE
 62
7
  6
CONTINUOUS
 10
32.8091759246
 20
118.9875510606
 40
2.5
 50
314.5239445113
 51
348.8745940738
  0
ARC
  8
CURVE
 62
7
  6
CONTINUOUS
 10
32.8091759246
 20
114.6227637132
 40
2.5
 50
11.1254059262
 51
45.4760554887
  0
ARC
  8
CURVE
 62
7
  6
CONTINUOUS
 10
69.1152119246
 20
118.9875510606
 40
2.5
 50
191.1254059262
 51
225.4760554887
  0
ARC
  8
CURVE
 62
7
  6
CONTINUOUS
 10
69.1152119246
 20
114.6227637132
 40
2.5
 50
134.5239445113
 51
168.8745940738
  0
ARC
  8
CURVE
 62
7
  6
CONTINUOUS
 10
68.6621939246
 20
121.9751573869
 40
2.0
 50
141.0
 51
180.0
  0
ARC
  8
CURVE
 62
7
  6
CONTINUOUS
 10
58.6621939246
 20
121.9751573869
 40
2.0
 50
0.0
 51
39.0
  0
ARC
  8
CURVE
 62
7
  6
CONTINUOUS
 10
43.2621939246
 20
121.9751573869
 40
2.0
 50
141.0
 51
180.0
  0
ARC
  8
CURVE
 62
7
  6
CONTINUOUS
 10
45.9621939246
 20
121.9751573869
 40
2.0
 50
0.0
 51
39.0
  0
ARC
  8
CURVE
 62
7
  6
CONTINUOUS
 10
55.9621939246
 20
121.9751573869
 40
2.0
 50
141.0
 51
180.0
  0
ARC
  8
0
 62
7
  6
CONTINUOUS
 10
40.1721939246
 20
116.1051573869
 40
0.85
 50
90.0
 51
180.0
  0
ARC
  8
0
 62
7
  6
CONTINUOUS
 10
38.4721939246
 20
108.2051573869
 40
0.85
 50
270.0
 51
360.0
  0
ARC
  8
0
 62
7
  6
CONTINUOUS
 10
40.4121939246
 20
117.8051573869
 40
0.85
 50
270.0
 51
360.0
  0
ARC
  8
CURVE
 62
7
  6
CONTINUOUS
 10
28.3821939246
 20
122.6751573869
 40
0.85
 50
180.0
 51
270.0
  0
ARC
  8
CURVE
 62
7
  6
CONTINUOUS
 10
65.8121939246
 20
108.2051573869
 40
0.85
 50
270.0
 51
360.0
  0
ARC
  8
CURVE
 62
7
  6
CONTINUOUS
 10
36.1121939246
 20
108.2051573869
 40
0.85
 50
179.9999999986
 51
270.0
  0
ARC
  8
CURVE
 62
7
  6
CONTINUOUS
 10
53.1121939246
 20
108.2051573869
 40
0.85
 50
270.0
 51
360.0
  0
ARC
  8
CURVE
 62
7
  6
CONTINUOUS
 10
61.5121939246
 20
108.2051573869
 40
0.85
 50
179.9999999739
 51
270.0
  0
ARC
  8
CURVE
 62
7
  6
CONTINUOUS
 10
48.8121939246
 20
108.2051573869
 40
0.85
 50
179.9999999739
 51
270.0
  0
ARC
  8
CURVE
 62
7
  6
CONTINUOUS
 10
66.9621939246
 20
121.5251573869
 40
0.3
 50
90.0
 51
179.9999999281
  0
ARC
  8
CURVE
 62
7
  6
CONTINUOUS
 10
54.2621939246
 20
121.5251573869
 40
0.3
 50
90.0
 51
179.9999999281
  0
ARC
  8
CURVE
 62
7
  6
CONTINUOUS
 10
60.3621939246
 20
121.5251573869
 40
0.3
 50
0.0000000839
 51
90.0
  0
ARC
  8
CURVE
 62
7
  6
CONTINUOUS
 10
41.5621939246
 20
121.5251573869
 40
0.3
 50
90.0
 51
179.9999999281
  0
ARC
  8
CURVE
 62
7
  6
CONTINUOUS
 10
47.6621939246
 20
121.5251573869
 40
0.3
 50
0.0000000839
 51
90.0
  0
ARC
  8
CURVE
 62
7
  6
CONTINUOUS
 10
37.3652119246
 20
134.5875512524
 40
2.5
 50
191.1254059262
 51
225.4760617554
  0
ARC
  8
CURVE
 62
7
  6
CONTINUOUS
 10
37.3652119246
 20
130.2227635214
 40
2.5
 50
134.5239382446
 51
168.8745940738
  0
ARC
  8
CURVE
 62
7
  6
CONTINUOUS
 10
64.5591759246
 20
134.5875512524
 40
2.5
 50
314.5239382446
 51
348.8745940738
  0
ARC
  8
CURVE
 62
7
  6
CONTINUOUS
 10
64.5591759246
 20
130.2227635214
 40
2.5
 50
11.1254059262
 51
45.4760617554
  0
ARC
  8
CURVE
 62
7
  6
CONTINUOUS
 10
62.3121939246
 20
127.2351573869
 40
2.0
 50
180.0
 51
219.0
  0
ARC
  8
CURVE
 62
7
  6
CONTINUOUS
 10
65.0121939246
 20
127.2351573869
 40
2.0
 50
321.0
 51
360.0
  0
ARC
  8
CURVE
 62
7
  6
CONTINUOUS
 10
49.6121939246
 20
127.2351573869
 40
2.0
 50
180.0
 51
219.0
  0
ARC
  8
CURVE
 62
7
  6
CONTINUOUS
 10
52.3121939246
 20
127.2351573869
 40
2.0
 50
321.0
 51
360.0
  0
ARC
  8
CURVE
 62
7
  6
CONTINUOUS
 10
36.9121939246
 20
127.2351573869
 40
2.0
 50
180.0
 51
219.0
  0
ARC
  8
CURVE
 62
7
  6
CONTINUOUS
 10
39.6121939246
 20
127.2351573869
 40
2.0
 50
321.0
 51
360.0
  0
ARC
  8
CURVE
 62
7
  6
CONTINUOUS
 10
28.3821939246
 20
141.0051573869
 40
0.85
 50
90.0
 51
180.000000002
  0
ARC
  8
CURVE
 62
7
  6
CONTINUOUS
 10
59.4621939246
 20
141.0051573869
 40
0.85
 50
0.0
 51
90.0
  0
ARC
  8
CURVE
 62
7
  6
CONTINUOUS
 10
67.8621939246
 20
141.0051573869
 40
0.85
 50
90.0
 51
180.0000000261
  0
ARC
  8
CURVE
 62
7
  6
CONTINUOUS
 10
46.7621939246
 20
141.0051573869
 40
0.85
 50
0.0
 51
90.0
  0
ARC
  8
CURVE
 62
7
  6
CONTINUOUS
 10
55.1621939246
 20
141.0051573869
 40
0.85
 50
90.0
 51
180.0000000261
  0
ARC
  8
CURVE
 62
7
  6
CONTINUOUS
 10
34.0621939246
 20
141.0051573869
 40
0.85
 50
0.0
 51
90.0
  0
ARC
  8
CURVE
 62
7
  6
CONTINUOUS
 10
42.4621939246
 20
141.0051573869
 40
0.85
 50
90.0
 51
180.0000000261
  0
ARC
  8
CURVE
 62
7
  6
CONTINUOUS
 10
66.7121939246
 20
127.6851573869
 40
0.3
 50
270.0
 51
359.9999999281
  0
ARC
  8
CURVE
 62
7
  6
CONTINUOUS
 10
60.6121939246
 20
127.6851573869
 40
0.3
 50
180.0000000839
 51
270.0
  0
ARC
  8
CURVE
 62
7
  6
CONTINUOUS
 10
54.0121939246
 20
127.6851573869
 40
0.3
 50
270.0
 51
359.9999999281
  0
ARC
  8
CURVE
 62
7
  6
CONTINUOUS
 10
47.9121939246
 20
127.6851573869
 40
0.3
 50
180.0000000839
 51
270.0
  0
ARC
  8
CURVE
 62
7
  6
CONTINUOUS
 10
41.3121939246
 20
127.6851573869
 40
0.3
 50
270.0
 51
359.9999999281
  0
ARC
  8
CURVE
 62
7
  6
CONTINUOUS
 10
35.2121939246
 20
127.6851573869
 40
0.3
 50
180.0000000839
 51
270.0
  0
ARC
  8
0
 62
7
  6
CONTINUOUS
 10
107.2152119246
 20
118.9875510606
 40
2.5
 50
191.1254059262
 51
225.4760554887
  0
ARC
  8
0
 62
7
  6
CONTINUOUS
 10
107.2152119246
 20
114.6227637132
 40
2.5
 50
134.5239445113
 51
168.8745940738
  0
ARC
  8
0
 62
7
  6
CONTINUOUS
 10
70.9091759246
 20
118.9875510606
 40
2.5
 50
314.5239445113
 51
348.8745940738
  0
ARC
  8
0
 62
7
  6
CONTINUOUS
 10
70.9091759246
 20
114.6227637132
 40
2.5
 50
11.1254059262
 51
45.4760554887
  0
ARC
  8
0
 62
7
  6
CONTINUOUS
 10
96.7621939246
 20
121.9751573869
 40
2.0
 50
0.0
 51
39.0
  0
ARC
  8
0
 62
7
  6
CONTINUOUS
 10
94.0621939246
 20
121.9751573869
 40
2.0
 50
141.0
 51
180.0
  0
ARC
  8
0
 62
7
  6
CONTINUOUS
 10
84.0621939246
 20
121.9751573869
 40
2.0
 50
0.0
 51
39.0
  0
ARC
  8
0
 62
7
  6
CONTINUOUS
 10
81.3621939246
 20
121.9751573869
 40
2.0
 50
141.0
 51
180.0
  0
ARC
  8
0
 62
7
  6
CONTINUOUS
 10
71.3621939246
 20
121.9751573869
 40
2.0
 50
0.0
 51
39.0
  0
ARC
  8
0
 62
7
  6
CONTINUOUS
 10
99.8521939246
 20
116.1051573869
 40
0.85
 50
0.0
 51
90.0
  0
ARC
  8
0
 62
7
  6
CONTINUOUS
 10
101.5521939246
 20
108.2051573869
 40
0.85
 50
179.9999999991
 51
270.0
  0
ARC
  8
0
 62
7
  6
CONTINUOUS
 10
99.6121939246
 20
117.8051573869
 40
0.85
 50
180.0
 51
270.0
  0
ARC
  8
0
 62
7
  6
CONTINUOUS
 10
111.6421939246
 20
122.6751573869
 40
0.85
 50
270.0
 51
360.0
  0
ARC
  8
0
 62
7
  6
CONTINUOUS
 10
74.2121939246
 20
108.2051573869
 40
0.85
 50
179.9999999739
 51
270.0
  0
ARC
  8
0
 62
7
  6
CONTINUOUS
 10
103.9121939246
 20
108.2051573869
 40
0.85
 50
270.0
 51
360.0
  0
ARC
  8
0
 62
7
  6
CONTINUOUS
 10
86.9121939246
 20
108.2051573869
 40
0.85
 50
179.9999999739
 51
270.0
  0
ARC
  8
0
 62
7
  6
CONTINUOUS
 10
78.5121939246
 20
108.2051573869
 40
0.85
 50
270.0
 51
360.0
  0
ARC
  8
0
 62
7
  6
CONTINUOUS
 10
91.2121939246
 20
108.2051573869
 40
0.85
 50
270.0
 51
360.0
  0
ARC
  8
0
 62
7
  6
CONTINUOUS
 10
73.0621939246
 20
121.5251573869
 40
0.3
 50
0.0000000719
 51
90.0
  0
ARC
  8
0
 62
7
  6
CONTINUOUS
 10
85.7621939246
 20
121.5251573869
 40
0.3
 50
0.0000000719
 51
90.0
  0
ARC
  8
0
 62
7
  6
CONTINUOUS
 10
79.6621939246
 20
121.5251573869
 40
0.3
 50
90.0
 51
179.9999999161
  0
ARC
  8
0
 62
7
  6
CONTINUOUS
 10
98.4621939246
 20
121.5251573869
 40
0.3
 50
0.0000000719
 51
90.0
  0
ARC
  8
0
 62
7
  6
CONTINUOUS
 10
92.3621939246
 20
121.5251573869
 40
0.3
 50
90.0
 51
179.9999999161
  0
ARC
  8
0
 62
7
  6
CONTINUOUS
 10
102.6591759246
 20
134.5875512524
 40
2.5
 50
314.5239382446
 51
348.8745940738
  0
ARC
  8
0
 62
7
  6
CONTINUOUS
 10
102.6591759246
 20
130.2227635214
 40
2.5
 50
11.1254059262
 51
45.4760617554
  0
ARC
  8
0
 62
7
  6
CONTINUOUS
 10
75.4652119246
 20
134.5875512524
 40
2.5
 50
191.1254059262
 51
225.4760617554
  0
ARC
  8
0
 62
7
  6
CONTINUOUS
 10
75.4652119246
 20
130.2227635214
 40
2.5
 50
134.5239382446
 51
168.8745940738
  0
ARC
  8
0
 62
7
  6
CONTINUOUS
 10
100.4121939246
 20
127.2351573869
 40
2.0
 50
180.0
 51
219.0
  0
ARC
  8
0
 62
7
  6
CONTINUOUS
 10
103.1121939246
 20
127.2351573869
 40
2.0
 50
321.0
 51
360.0
  0
ARC
  8
0
 62
7
  6
CONTINUOUS
 10
87.7121939246
 20
127.2351573869
 40
2.0
 50
180.0
 51
219.0
  0
ARC
  8
0
 62
7
  6
CONTINUOUS
 10
90.4121939246
 20
127.2351573869
 40
2.0
 50
321.0
 51
360.0
  0
ARC
  8
0
 62
7
  6
CONTINUOUS
 10
75.0121939246
 20
127.2351573869
 40
2.0
 50
180.0
 51
219.0
  0
ARC
  8
0
 62
7
  6
CONTINUOUS
 10
77.7121939246
 20
127.2351573869
 40
2.0
 50
321.0
 51
360.0
  0
ARC
  8
0
 62
7
  6
CONTINUOUS
 10
111.6421939246
 20
141.0051573869
 40
0.85
 50
0.0
 51
90.0
  0
ARC
  8
0
 62
7
  6
CONTINUOUS
 10
80.5621939246
 20
141.0051573869
 40
0.85
 50
90.0
 51
180.0000000261
  0
ARC
  8
0
 62
7
  6
CONTINUOUS
 10
72.1621939246
 20
141.0051573869
 40
0.85
 50
0.0
 51
90.0
  0
ARC
  8
0
 62
7
  6
CONTINUOUS
 10
93.2621939246
 20
141.0051573869
 40
0.85
 50
90.0
 51
180.0000000261
  0
ARC
  8
0
 62
7
  6
CONTINUOUS
 10
84.8621939246
 20
141.0051573869
 40
0.85
 50
0.0
 51
90.0
  0
ARC
  8
0
 62
7
  6
CONTINUOUS
 10
105.9621939246
 20
141.0051573869
 40
0.85
 50
90.0
 51
180.0000000261
  0
ARC
  8
0
 62
7
  6
CONTINUOUS
 10
97.5621939246
 20
141.0051573869
 40
0.85
 50
0.0
 51
90.0
  0
ARC
  8
0
 62
7
  6
CONTINUOUS
 10
73.3121939246
 20
127.6851573869
 40
0.3
 50
180.0000000719
 51
270.0
  0
ARC
  8
0
 62
7
  6
CONTINUOUS
 10
79.4121939246
 20
127.6851573869
 40
0.3
 50
270.0
 51
359.9999999161
  0
ARC
  8
0
 62
7
  6
CONTINUOUS
 10
86.0121939246
 20
127.6851573869
 40
0.3
 50
180.0000000719
 51
270.0
  0
ARC
  8
0
 62
7
  6
CONTINUOUS
 10
92.1121939246
 20
127.6851573869
 40
0.3
 50
270.0
 51
359.9999999161
  0
ARC
  8
0
 62
7
  6
CONTINUOUS
 10
98.7121939246
 20
127.6851573869
 40
0.3
 50
180.0000000719
 51
270.0
  0
ARC
  8
0
 62
7
  6
CONTINUOUS
 10
104.8121939246
 20
127.6851573869
 40
0.3
 50
270.0
 51
359.9999999161
  0
ARC
  8
0
 62
7
  6
CONTINUOUS
 10
158.8041271114
 20
110.1251573869
 40
1.0
 50
180.0
 51
270.0
  0
ARC
  8
CURVE
 62
7
  6
CONTINUOUS
 10
158.8041271114
 20
110.1251573869
 40
1.0
 50
180.0
 51
270.0
  0
ARC
  8
0
 62
7
  6
CONTINUOUS
 10
158.8041271114
 20
123.1251573869
 40
1.0
 50
90.0
 51
180.0
  0
ARC
  8
CURVE
 62
7
  6
CONTINUOUS
 10
158.8041271114
 20
123.1251573869
 40
1.0
 50
90.0
 51
180.0
  0
ARC
  8
0
 62
7
  6
CONTINUOUS
 10
165.7062264141
 20
108.1251263176
 40
1.0000310693
 50
53.4514649344
 51
90.0
  0
ARC
  8
CURVE
 62
7
  6
CONTINUOUS
 10
165.7062401695
 20
108.1251573869
 40
1.0
 50
42.2388095314
 51
90.0
  0
ARC
  8
0
 62
7
  6
CONTINUOUS
 10
169.7041271114
 20
111.7551573869
 40
4.4
 50
356.2443599787
 51
356.3844008961
  0
ARC
  8
0
 62
7
  6
CONTINUOUS
 10
169.7041271114
 20
111.7551573869
 40
4.4
 50
356.6617252434
 51
357.9181099983
  0
ARC
  8
0
 62
7
  6
CONTINUOUS
 10
169.7041271114
 20
111.7551573869
 40
4.4
 50
180.0
 51
356.1948840909
  0
ARC
  8
CURVE
 62
7
  6
CONTINUOUS
 10
169.7041271114
 20
111.7551573869
 40
4.4
 50
180.0
 51
360.0
  0
CIRCLE
  8
CURVE
 62
7
  6
CONTINUOUS
 10
169.7041271114
 20
111.9051573869
 40
2.6
  0
CIRCLE
  8
CURVE
 62
7
  6
CONTINUOUS
 10
169.7041271114
 20
116.8051573869
 40
1.700001
  0
CIRCLE
  8
CURVE
 62
7
  6
CONTINUOUS
 10
169.7041271114
 20
116.8051573869
 40
0.4
  0
ARC
  8
CURVE
 62
7
  6
CONTINUOUS
 10
169.7041271114
 20
137.4551573869
 40
4.4
 50
0.0
 51
180.0
  0
ARC
  8
0
 62
7
  6
CONTINUOUS
 10
169.7041271114
 20
137.4551573869
 40
4.4
 50
156.2738646597
 51
158.1853713736
  0
ARC
  8
CURVE
 62
7
  6
CONTINUOUS
 10
169.7041271114
 20
122.9851573869
 40
4.4
 50
0.0
 51
21.4748119792
  0
ARC
  8
CURVE
 62
7
  6
CONTINUOUS
 10
169.7041271114
 20
126.2251573869
 40
4.4
 50
180.0
 51
360.0
  0
CIRCLE
  8
CURVE
 62
7
  6
CONTINUOUS
 10
169.7041271114
 20
137.3051573869
 40
2.6
  0
ENDSEC
  0
EOF
