  0
SECTION
  2
HEADER
  9
$EXTMAX
 10
210.0
 20
297.0
 30
0.0
  9
$EXTMIN
 10
0.0
 20
0.0
 30
0.0
  9
$LIMMIN
 10
0.0
 20
0.0
  9
$LIMMAX
 10
210.0
 20
297.0
  9
$VIEWCTR
 10
105.0
 20
148.5
  9
$VIEWSIZE
 40
297.0
  9
$CLAYER
  8
0
  9
$LTSCALE
 40
19.36
  9
$CELTYPE
  6
BYLAYER
  9
$DIMSCALE
 40
1.0
  9
$DIMASZ
 40
3.5
  9
$DIMEXO
 40
2.2
  9
$DIMDLI
 40
13.376
  9
$DIMEXE
 40
6.336
  9
$DIMCEN
 40
3.168
  9
$DIMLFAC
 40
1.0
  9
$DIMBLK
  1
_FILLED
  9
$DIMTXT
 40
3.5
  9
$PDMODE
 70
3
  9
$PDSIZE
 40
0.3125
  9
$TILEMODE
 70
1
  0
ENDSEC
  0
SECTION
  2
TABLES
  0
TABLE
  2
LTYPE
 70
6
  0
LTYPE
  2
BYBLOCK
 70
0
  3

 72
65
 73
0
 40
0.0
  0
LTYPE
  2
BYLAYER
 70
0
  3

 72
65
 73
0
 40
0.0
  0
LTYPE
  2
CONTINUOUS
 70
64
  3
Solid line
 72
65
 73
0
 40
0.0
  0
LTYPE
  2
CENTER
 70
64
  3
____ _ ____ _ ____ _ ____ _ ____ _ ____ _ ____
 72
65
 73
4
 40
0.6
 49
0.375
 49
-0.075
 49
0.075
 49
-0.075
  0
LTYPE
  2
HIDDEN
 70
64
  3
- - - - - - - - - - - - - - - - - - - -
 72
65
 73
2
 40
0.2
 49
0.1
 49
-0.1
  0
LTYPE
  2
PHANTOM
 70
64
  3
_____ _ _ _____ _ _ _____ _ _ _____
 72
65
 73
6
 40
0.8
 49
0.45
 49
-0.05
 49
0.1
 49
-0.05
 49
0.1
 49
-0.05
  0
LTYPE
  2
DOT
 70
64
  3
. . . . . . . . . . . . . . . . . . . .
 72
65
 73
2
 40
0.2
 49
0.1
 49
-0.1
  0
LTYPE
  2
DASHED
 70
64
  3
- - - - - - - - - - - - - - - - - - - -
 72
65
 73
2
 40
0.2
 49
0.1
 49
-0.1
  0
ENDTAB
  0
TABLE
  2
LAYER
 70
36
  0
LAYER
  2
0
 70
0
 62
7
  6
CONTINUOUS
  0
LAYER
  2
DEFAULT_1
 70
0
 62
7
  6
CENTER
  0
LAYER
  2
DEFAULT_2
 70
0
 62
8
  6
HIDDEN
  0
LAYER
  2
DEFAULT_3
 70
0
 62
7
  6
PHANTOM
  0
LAYER
  2
1_CSYS
 70
0
 62
7
  6
CONTINUOUS
  0
LAYER
  2
1_DATUM_PLANE
 70
0
 62
7
  6
CONTINUOUS
  0
LAYER
  2
2_FEATURE
 70
0
 62
7
  6
CONTINUOUS
  0
LAYER
  2
6_DIM
 70
0
 62
7
  6
CONTINUOUS
  0
LAYER
  2
AXES
 70
0
 62
7
  6
CONTINUOUS
  0
LAYER
  2
CSYS
 70
0
 62
7
  6
CONTINUOUS
  0
LAYER
  2
NOTES
 70
0
 62
7
  6
CONTINUOUS
  0
LAYER
  2
PLANES
 70
0
 62
7
  6
CONTINUOUS
  0
LAYER
  2
QUILTS
 70
0
 62
7
  6
CONTINUOUS
  0
ENDTAB
  0
TABLE
  2
STYLE
 70
1
  0
STYLE
  2
STANDARD
 70
0
 40
0.0
 41
0.8
 50
0.0
 71
0
 42
0.2
  3
txt
  4

  0
STYLE
  2
TEXTSTYLE_1
 70
0
 40
0.0
 41
0.8
 50
0.0
 71
0
 42
0.2
  3
gdt
  4

  0
STYLE
  2
TEXTSTYLE_2
 70
0
 40
0.0
 41
0.6
 50
0.0
 71
0
 42
0.2
  3
txt
  4

  0
STYLE
  2
TEXTSTYLE_3
 70
0
 40
0.0
 41
1.0
 50
0.0
 71
0
 42
0.2
  3
ftb_____.ttf
  4

  0
STYLE
  2
TEXTSTYLE_4
 70
0
 40
0.0
 41
1.0
 50
0.0
 71
0
 42
0.2
  3
fti_____.ttf
  4

  0
STYLE
  2
TEXTSTYLE_5
 70
0
 40
0.0
 41
1.0
 50
0.0
 71
0
 42
0.2
  3
frutiger light.ttf
  4

  0
STYLE
  2
TEXTSTYLE_6
 70
0
 40
0.0
 41
0.7
 50
0.0
 71
0
 42
0.2
  3
txt
  4

  0
STYLE
  2
TEXTSTYLE_7
 70
0
 40
0.0
 41
0.8
 50
0.0
 71
0
 42
0.2
  3
txt
  4

  0
ENDTAB
  0
ENDSEC
  0
SECTION
  2
BLOCKS
  0
BLOCK
  8
0
 62
2
  6
CONTINUOUS
  2
SYMBOL_8_BL1
 70
64
 10
173.5956734183
 20
35.5937998301
  0
TEXT
  8
0
 62
7
  6
CONTINUOUS
 10
164.6539584268
 20
30.6865562072
  7
TEXTSTYLE_4
 40
1.0655737705
  1
The brand for plastic modular belts and chains
 41
1.0
 72
0
  0
LINE
  8
0
 62
7
  6
CONTINUOUS
 10
149.5737418074
 20
36.1675703219
 11
149.5737418074
 21
34.0364227809
  0
LINE
  8
0
 62
7
  6
CONTINUOUS
 10
149.8628043005
 20
31.0454914852
 11
149.8628043005
 21
31.1422825445
  0
LINE
  8
0
 62
7
  6
CONTINUOUS
 10
149.5737418074
 20
31.1100188581
 11
149.6315543091
 21
30.9164367395
  0
LINE
  8
0
 62
7
  6
CONTINUOUS
 10
150.9671844304
 20
33.9544555678
 11
150.9671844304
 21
36.1675703219
  0
LINE
  8
0
 62
7
  6
CONTINUOUS
 10
151.8862417523
 20
32.1101932727
 11
151.8862417523
 21
30.5937998301
  0
LINE
  8
0
 62
7
  6
CONTINUOUS
 10
152.1753043074
 20
30.5937998301
 11
152.1753043074
 21
31.3358647082
  0
LINE
  8
0
 62
7
  6
CONTINUOUS
 10
152.1753043074
 20
31.4649194539
 11
152.1753043074
 21
32.1101932727
  0
LINE
  8
0
 62
7
  6
CONTINUOUS
 10
149.6315543091
 20
31.3036010218
 11
149.5737418074
 21
31.1100188581
  0
LINE
  8
0
 62
7
  6
CONTINUOUS
 10
149.9784292936
 20
30.8841730531
 11
149.8628043005
 21
31.0454914852
  0
LINE
  8
0
 62
7
  6
CONTINUOUS
 10
151.0768668626
 20
31.400392081
 11
151.1346793074
 21
31.3036010218
  0
LINE
  8
0
 62
7
  6
CONTINUOUS
 10
151.4237418626
 20
31.3036010218
 11
151.3659292523
 21
31.4326557675
  0
LINE
  8
0
 62
7
  6
CONTINUOUS
 10
152.852430332
 20
36.1675703219
 11
152.852430332
 21
34.3642916334
  0
LINE
  8
0
 62
7
  6
CONTINUOUS
 10
152.852430332
 20
33.0528162235
 11
152.852430332
 21
32.3970785186
  0
LINE
  8
0
 62
7
  6
CONTINUOUS
 10
153.2159293074
 20
31.2390736489
 11
153.2159293074
 21
30.5937998301
  0
LINE
  8
0
 62
7
  6
CONTINUOUS
 10
153.5049916972
 20
30.5937998301
 11
153.5049916972
 21
31.2390736489
  0
LINE
  8
0
 62
7
  6
CONTINUOUS
 10
149.8628043005
 20
31.1422825445
 11
149.9206168074
 21
31.2713373354
  0
LINE
  8
0
 62
7
  6
CONTINUOUS
 10
149.6315543091
 20
30.9164367395
 11
149.7471793074
 21
30.7873819712
  0
LINE
  8
0
 62
7
  6
CONTINUOUS
 10
153.1581166972
 20
31.3681283946
 11
153.2159293074
 21
31.2390736489
  0
LINE
  8
0
 62
7
  6
CONTINUOUS
 10
153.9674919177
 20
30.8841730531
 11
154.0253041972
 21
30.7551182848
  0
LINE
  8
0
 62
7
  6
CONTINUOUS
 10
153.5049916972
 20
31.2390736489
 11
153.4471794177
 21
31.400392081
  0
LINE
  8
0
 62
7
  6
CONTINUOUS
 10
153.9674919177
 20
31.4326557675
 11
153.9674919177
 21
31.3681283946
  0
LINE
  8
0
 62
7
  6
CONTINUOUS
 10
153.9674919177
 20
30.9809641124
 11
153.9674919177
 21
30.8841730531
  0
LINE
  8
0
 62
7
  6
CONTINUOUS
 10
154.245872955
 20
32.3970785186
 11
154.245872955
 21
36.1675703219
  0
LINE
  8
0
 62
7
  6
CONTINUOUS
 10
154.2565543074
 20
30.8519093441
 11
154.2565543074
 21
30.9164367395
  0
LINE
  8
0
 62
7
  6
CONTINUOUS
 10
154.5737418074
 20
36.1675703219
 11
154.5737418074
 21
32.3970785186
  0
LINE
  8
0
 62
7
  6
CONTINUOUS
 10
151.3659292523
 20
30.7873819712
 11
151.4237418626
 21
30.9164367395
  0
LINE
  8
0
 62
7
  6
CONTINUOUS
 10
155.759679528
 20
30.6905909007
 11
155.7018665869
 21
30.8519093441
  0
LINE
  8
0
 62
7
  6
CONTINUOUS
 10
155.412804528
 20
31.3681283946
 11
155.412804528
 21
31.2713373354
  0
LINE
  8
0
 62
7
  6
CONTINUOUS
 10
155.412804528
 20
31.1422825445
 11
155.412804528
 21
30.9487004259
  0
LINE
  8
0
 62
7
  6
CONTINUOUS
 10
155.7018665869
 20
30.8519093441
 11
155.7018665869
 21
31.3681283946
  0
LINE
  8
0
 62
7
  6
CONTINUOUS
 10
155.9671844304
 20
32.3970785186
 11
155.9671844304
 21
34.2003572071
  0
LINE
  8
0
 62
7
  6
CONTINUOUS
 10
155.9671844304
 20
35.511832617
 11
155.9671844304
 21
36.1675703219
  0
LINE
  8
0
 62
7
  6
CONTINUOUS
 10
156.279992028
 20
32.1101932727
 11
156.279992028
 21
31.9488748406
  0
LINE
  8
0
 62
7
  6
CONTINUOUS
 10
156.279992028
 20
31.626237886
 11
156.279992028
 21
30.5937998301
  0
LINE
  8
0
 62
7
  6
CONTINUOUS
 10
156.5690540869
 20
30.5937998301
 11
156.5690540869
 21
31.626237886
  0
LINE
  8
0
 62
7
  6
CONTINUOUS
 10
156.5690540869
 20
31.9488748406
 11
156.5690540869
 21
32.1101932727
  0
LINE
  8
0
 62
7
  6
CONTINUOUS
 10
151.1346793074
 20
30.9164367395
 11
151.0768668626
 21
30.8196456577
  0
LINE
  8
0
 62
7
  6
CONTINUOUS
 10
153.4471794177
 20
31.400392081
 11
153.3893668074
 21
31.4649194539
  0
LINE
  8
0
 62
7
  6
CONTINUOUS
 10
154.3143669177
 20
30.7873819712
 11
154.2565543074
 21
30.8519093441
  0
LINE
  8
0
 62
7
  6
CONTINUOUS
 10
155.4706168074
 20
30.6583272086
 11
155.5284290869
 21
30.5937998301
  0
LINE
  8
0
 62
7
  6
CONTINUOUS
 10
155.412804528
 20
30.7551182848
 11
155.4706168074
 21
30.6583272086
  0
LINE
  8
0
 62
7
  6
CONTINUOUS
 10
155.8174918074
 20
30.5937998301
 11
155.759679528
 21
30.6905909007
  0
LINE
  8
0
 62
7
  6
CONTINUOUS
 10
155.7018665869
 20
31.3681283946
 11
155.6440543074
 21
31.4649194539
  0
LINE
  8
0
 62
7
  6
CONTINUOUS
 10
157.0315543074
 20
31.626237886
 11
157.0315543074
 21
30.5937998301
  0
LINE
  8
0
 62
7
  6
CONTINUOUS
 10
157.320617028
 20
30.5937998301
 11
157.320617028
 21
31.3358647082
  0
LINE
  8
0
 62
7
  6
CONTINUOUS
 10
157.320617028
 20
31.4649194539
 11
157.320617028
 21
31.626237886
  0
LINE
  8
0
 62
7
  6
CONTINUOUS
 10
157.852430332
 20
34.6101932727
 11
157.852430332
 21
32.3970785186
  0
LINE
  8
0
 62
7
  6
CONTINUOUS
 10
149.7471793074
 20
31.4326557675
 11
149.6315543091
 21
31.3036010218
  0
LINE
  8
0
 62
7
  6
CONTINUOUS
 10
149.9206168074
 20
31.2713373354
 11
149.9784292936
 21
31.3358647082
  0
LINE
  8
0
 62
7
  6
CONTINUOUS
 10
149.7471793074
 20
30.7873819712
 11
149.8628043005
 21
30.7228545871
  0
LINE
  8
0
 62
7
  6
CONTINUOUS
 10
150.1518667936
 20
30.7873819712
 11
149.9784292936
 21
30.8841730531
  0
LINE
  8
0
 62
7
  6
CONTINUOUS
 10
155.3549915869
 20
31.4326557675
 11
155.412804528
 21
31.3681283946
  0
LINE
  8
0
 62
7
  6
CONTINUOUS
 10
158.3034290869
 20
31.3681283946
 11
158.361242028
 21
31.2068099625
  0
LINE
  8
0
 62
7
  6
CONTINUOUS
 10
158.6503040869
 20
31.2068099625
 11
158.5924918074
 21
31.3681283946
  0
LINE
  8
0
 62
7
  6
CONTINUOUS
 10
158.361242028
 20
31.2068099625
 11
158.361242028
 21
30.5937998301
  0
LINE
  8
0
 62
7
  6
CONTINUOUS
 10
158.6503040869
 20
30.5937998301
 11
158.6503040869
 21
31.2068099625
  0
LINE
  8
0
 62
7
  6
CONTINUOUS
 10
159.1128043074
 20
31.4326557675
 11
159.1128043074
 21
31.3681283946
  0
LINE
  8
0
 62
7
  6
CONTINUOUS
 10
159.245872955
 20
32.3970785186
 11
159.245872955
 21
34.5282260596
  0
LINE
  8
0
 62
7
  6
CONTINUOUS
 10
159.5737418074
 20
36.1675703219
 11
159.5737418074
 21
32.3970785186
  0
LINE
  8
0
 62
7
  6
CONTINUOUS
 10
154.2565543074
 20
30.9164367395
 11
154.3143669177
 21
31.0132277988
  0
LINE
  8
0
 62
7
  6
CONTINUOUS
 10
149.8628043005
 20
30.7228545871
 11
150.0362418212
 21
30.6583272086
  0
LINE
  8
0
 62
7
  6
CONTINUOUS
 10
151.3659292523
 20
31.4326557675
 11
151.1924917523
 21
31.5294468267
  0
LINE
  8
0
 62
7
  6
CONTINUOUS
 10
154.0253041972
 20
30.7551182848
 11
154.1987416972
 21
30.6583272086
  0
LINE
  8
0
 62
7
  6
CONTINUOUS
 10
153.0424918074
 20
31.4326557675
 11
153.1581166972
 21
31.3681283946
  0
LINE
  8
0
 62
7
  6
CONTINUOUS
 10
153.3893668074
 20
31.4649194539
 11
153.2737419177
 21
31.5294468267
  0
LINE
  8
0
 62
7
  6
CONTINUOUS
 10
159.1128043074
 20
30.8519093441
 11
159.228429528
 21
30.7228545871
  0
LINE
  8
0
 62
7
  6
CONTINUOUS
 10
159.4596793074
 20
30.7873819712
 11
159.401867028
 21
30.8519093441
  0
LINE
  8
0
 62
7
  6
CONTINUOUS
 10
159.1128043074
 20
31.3681283946
 11
159.228429528
 21
31.2390736489
  0
LINE
  8
0
 62
7
  6
CONTINUOUS
 10
158.5924918074
 20
31.3681283946
 11
158.534679528
 21
31.4649194539
  0
LINE
  8
0
 62
7
  6
CONTINUOUS
 10
160.9628038663
 20
30.7873819712
 11
160.9628038663
 21
30.8519093441
  0
LINE
  8
0
 62
7
  6
CONTINUOUS
 10
160.9671844304
 20
32.3970785186
 11
160.9671844304
 21
36.1675703219
  0
LINE
  8
0
 62
7
  6
CONTINUOUS
 10
154.0253041972
 20
31.4971831403
 11
153.9674919177
 21
31.4326557675
  0
LINE
  8
0
 62
7
  6
CONTINUOUS
 10
150.9034292799
 20
31.4649194539
 11
151.0768668626
 21
31.400392081
  0
LINE
  8
0
 62
7
  6
CONTINUOUS
 10
155.6440543074
 20
31.4649194539
 11
155.5284290869
 21
31.5294468267
  0
LINE
  8
0
 62
7
  6
CONTINUOUS
 10
159.4596793074
 20
31.3036010218
 11
159.401867028
 21
31.3681283946
  0
LINE
  8
0
 62
7
  6
CONTINUOUS
 10
160.615929528
 20
30.9164367395
 11
160.6737418074
 21
30.8519093441
  0
LINE
  8
0
 62
7
  6
CONTINUOUS
 10
160.9628038663
 20
30.8519093441
 11
160.8471793074
 21
30.9809641124
  0
LINE
  8
0
 62
7
  6
CONTINUOUS
 10
160.615929528
 20
31.4326557675
 11
160.6737418074
 21
31.3681283946
  0
LINE
  8
0
 62
7
  6
CONTINUOUS
 10
160.9628038663
 20
31.3681283946
 11
160.8471793074
 21
31.4971831403
  0
LINE
  8
0
 62
7
  6
CONTINUOUS
 10
154.2565543074
 20
31.3681283946
 11
154.3143669177
 21
31.4326557675
  0
LINE
  8
0
 62
7
  6
CONTINUOUS
 10
154.0831168074
 20
31.1100188581
 11
153.9674919177
 21
30.9809641124
  0
LINE
  8
0
 62
7
  6
CONTINUOUS
 10
155.412804528
 20
30.9487004259
 11
155.3549915869
 21
30.8841730531
  0
LINE
  8
0
 62
7
  6
CONTINUOUS
 10
155.3549915869
 20
30.6905909007
 11
155.412804528
 21
30.7551182848
  0
LINE
  8
0
 62
7
  6
CONTINUOUS
 10
154.1987416972
 20
30.6583272086
 11
154.3143669177
 21
30.6260635193
  0
LINE
  8
0
 62
7
  6
CONTINUOUS
 10
151.1924917523
 20
31.5294468267
 11
150.9612418074
 21
31.5939741996
  0
LINE
  8
0
 62
7
  6
CONTINUOUS
 10
154.5456166972
 20
30.7228545871
 11
154.3143669177
 21
30.7873819712
  0
LINE
  8
0
 62
7
  6
CONTINUOUS
 10
153.2737419177
 20
31.5294468267
 11
153.1003044177
 21
31.5939741996
  0
LINE
  8
0
 62
7
  6
CONTINUOUS
 10
155.5284290869
 20
31.5294468267
 11
155.3549915869
 21
31.5939741996
  0
LINE
  8
0
 62
7
  6
CONTINUOUS
 10
158.187804528
 20
31.4326557675
 11
158.3034290869
 21
31.3681283946
  0
LINE
  8
0
 62
7
  6
CONTINUOUS
 10
158.534679528
 20
31.4649194539
 11
158.4190543074
 21
31.5294468267
  0
LINE
  8
0
 62
7
  6
CONTINUOUS
 10
150.0362418212
 20
30.6583272086
 11
150.2096793212
 21
30.6260635193
  0
LINE
  8
0
 62
7
  6
CONTINUOUS
 10
150.498741835
 20
30.7228545871
 11
150.1518667936
 21
30.7873819712
  0
LINE
  8
0
 62
7
  6
CONTINUOUS
 10
152.9268669177
 20
31.4649194539
 11
153.0424918074
 21
31.4326557675
  0
LINE
  8
0
 62
7
  6
CONTINUOUS
 10
155.239367028
 20
31.4649194539
 11
155.3549915869
 21
31.4326557675
  0
LINE
  8
0
 62
7
  6
CONTINUOUS
 10
159.575304528
 20
30.7551182848
 11
159.4596793074
 21
30.7873819712
  0
LINE
  8
0
 62
7
  6
CONTINUOUS
 10
158.0721793074
 20
31.4649194539
 11
158.187804528
 21
31.4326557675
  0
LINE
  8
0
 62
7
  6
CONTINUOUS
 10
159.228429528
 20
30.7228545871
 11
159.401867028
 21
30.6583272086
  0
LINE
  8
0
 62
7
  6
CONTINUOUS
 10
158.4190543074
 20
31.5294468267
 11
158.2456168074
 21
31.5939741996
  0
LINE
  8
0
 62
7
  6
CONTINUOUS
 10
159.6331168074
 20
31.2390736489
 11
159.4596793074
 21
31.3036010218
  0
LINE
  8
0
 62
7
  6
CONTINUOUS
 10
160.442492028
 20
30.9809641124
 11
160.615929528
 21
30.9164367395
  0
LINE
  8
0
 62
7
  6
CONTINUOUS
 10
160.8471793074
 20
31.4971831403
 11
160.6737418074
 21
31.5617105132
  0
LINE
  8
0
 62
7
  6
CONTINUOUS
 10
159.228429528
 20
31.2390736489
 11
159.4596793074
 21
31.1422825445
  0
LINE
  8
0
 62
7
  6
CONTINUOUS
 10
160.8471793074
 20
30.9809641124
 11
160.615929528
 21
31.0777551716
  0
LINE
  8
0
 62
7
  6
CONTINUOUS
 10
159.401867028
 20
31.3681283946
 11
159.4596793074
 21
31.4326557675
  0
LINE
  8
0
 62
7
  6
CONTINUOUS
 10
149.8628043005
 20
31.4971831403
 11
149.7471793074
 21
31.4326557675
  0
LINE
  8
0
 62
7
  6
CONTINUOUS
 10
149.9784292936
 20
31.3358647082
 11
150.1518667936
 21
31.4326557675
  0
LINE
  8
0
 62
7
  6
CONTINUOUS
 10
152.2909293626
 20
31.5294468267
 11
152.1753043074
 21
31.4649194539
  0
LINE
  8
0
 62
7
  6
CONTINUOUS
 10
152.1753043074
 20
31.3358647082
 11
152.2909293626
 21
31.400392081
  0
LINE
  8
0
 62
7
  6
CONTINUOUS
 10
151.1924917523
 20
30.6905909007
 11
151.3659292523
 21
30.7873819712
  0
LINE
  8
0
 62
7
  6
CONTINUOUS
 10
150.2096793212
 20
30.6260635193
 11
150.5565542799
 21
30.5937998301
  0
LINE
  8
0
 62
7
  6
CONTINUOUS
 10
154.3143669177
 20
30.6260635193
 11
154.5456166972
 21
30.5937998301
  0
LINE
  8
0
 62
7
  6
CONTINUOUS
 10
152.6956168074
 20
31.4971831403
 11
152.9268669177
 21
31.4649194539
  0
LINE
  8
0
 62
7
  6
CONTINUOUS
 10
155.0081169177
 20
31.4971831403
 11
155.239367028
 21
31.4649194539
  0
LINE
  8
0
 62
7
  6
CONTINUOUS
 10
159.4596793074
 20
31.1422825445
 11
160.442492028
 21
30.9809641124
  0
LINE
  8
0
 62
7
  6
CONTINUOUS
 10
160.615929528
 20
31.0777551716
 11
159.6331168074
 21
31.2390736489
  0
LINE
  8
0
 62
7
  6
CONTINUOUS
 10
153.1003044177
 20
31.5939741996
 11
152.9268669177
 21
31.626237886
  0
LINE
  8
0
 62
7
  6
CONTINUOUS
 10
159.401867028
 20
30.6583272086
 11
159.575304528
 21
30.6260635193
  0
LINE
  8
0
 62
7
  6
CONTINUOUS
 10
158.2456168074
 20
31.5939741996
 11
158.0721793074
 21
31.626237886
  0
LINE
  8
0
 62
7
  6
CONTINUOUS
 10
160.5003043074
 20
31.4649194539
 11
160.615929528
 21
31.4326557675
  0
LINE
  8
0
 62
7
  6
CONTINUOUS
 10
160.6737418074
 20
30.8519093441
 11
160.615929528
 21
30.7873819712
  0
LINE
  8
0
 62
7
  6
CONTINUOUS
 10
159.228429528
 20
31.5294468267
 11
159.1128043074
 21
31.4326557675
  0
LINE
  8
0
 62
7
  6
CONTINUOUS
 10
154.1409294177
 20
31.5617105132
 11
154.0253041972
 21
31.4971831403
  0
LINE
  8
0
 62
7
  6
CONTINUOUS
 10
154.1987416972
 20
31.1745462761
 11
154.0831168074
 21
31.1100188581
  0
LINE
  8
0
 62
7
  6
CONTINUOUS
 10
154.3143669177
 20
31.0132277988
 11
154.4299918074
 21
31.0777551716
  0
LINE
  8
0
 62
7
  6
CONTINUOUS
 10
151.8862417523
 20
30.5937998301
 11
152.1753043074
 21
30.5937998301
  0
LINE
  8
0
 62
7
  6
CONTINUOUS
 10
153.2159293074
 20
30.5937998301
 11
153.5049916972
 21
30.5937998301
  0
LINE
  8
0
 62
7
  6
CONTINUOUS
 10
154.5456166972
 20
30.5937998301
 11
154.8924916972
 21
30.5937998301
  0
LINE
  8
0
 62
7
  6
CONTINUOUS
 10
155.5284290869
 20
30.5937998301
 11
155.8174918074
 21
30.5937998301
  0
LINE
  8
0
 62
7
  6
CONTINUOUS
 10
156.279992028
 20
30.5937998301
 11
156.5690540869
 21
30.5937998301
  0
LINE
  8
0
 62
7
  6
CONTINUOUS
 10
157.0315543074
 20
30.5937998301
 11
157.320617028
 21
30.5937998301
  0
LINE
  8
0
 62
7
  6
CONTINUOUS
 10
158.361242028
 20
30.5937998301
 11
158.6503040869
 21
30.5937998301
  0
LINE
  8
0
 62
7
  6
CONTINUOUS
 10
159.922179528
 20
30.5937998301
 11
160.269054528
 21
30.5937998301
  0
LINE
  8
0
 62
7
  6
CONTINUOUS
 10
160.269054528
 20
30.7228545871
 11
159.922179528
 21
30.7228545871
  0
LINE
  8
0
 62
7
  6
CONTINUOUS
 10
154.8924916972
 20
30.7228545871
 11
154.5456166972
 21
30.7228545871
  0
LINE
  8
0
 62
7
  6
CONTINUOUS
 10
159.401867028
 20
30.8519093441
 11
159.1128043074
 21
30.8519093441
  0
LINE
  8
0
 62
7
  6
CONTINUOUS
 10
151.4237418626
 20
30.9164367395
 11
151.1346793074
 21
30.9164367395
  0
LINE
  8
0
 62
7
  6
CONTINUOUS
 10
150.498741835
 20
31.4971831403
 11
150.9034292799
 21
31.4649194539
  0
LINE
  8
0
 62
7
  6
CONTINUOUS
 10
150.9612418074
 20
31.5939741996
 11
150.5565542799
 21
31.626237886
  0
LINE
  8
0
 62
7
  6
CONTINUOUS
 10
159.575304528
 20
30.6260635193
 11
159.922179528
 21
30.5937998301
  0
LINE
  8
0
 62
7
  6
CONTINUOUS
 10
159.922179528
 20
30.7228545871
 11
159.575304528
 21
30.7551182848
  0
LINE
  8
0
 62
7
  6
CONTINUOUS
 10
155.3549915869
 20
31.5939741996
 11
155.0081169177
 21
31.626237886
  0
LINE
  8
0
 62
7
  6
CONTINUOUS
 10
160.1534293074
 20
31.4971831403
 11
160.5003043074
 21
31.4649194539
  0
LINE
  8
0
 62
7
  6
CONTINUOUS
 10
160.5003043074
 20
31.5939741996
 11
160.1534293074
 21
31.626237886
  0
LINE
  8
0
 62
7
  6
CONTINUOUS
 10
157.840929528
 20
31.4971831403
 11
158.0721793074
 21
31.4649194539
  0
LINE
  8
0
 62
7
  6
CONTINUOUS
 10
160.6737418074
 20
31.5617105132
 11
160.5003043074
 21
31.5939741996
  0
LINE
  8
0
 62
7
  6
CONTINUOUS
 10
160.8471793074
 20
30.6905909007
 11
160.9628038663
 21
30.7873819712
  0
LINE
  8
0
 62
7
  6
CONTINUOUS
 10
155.3549915869
 20
30.8841730531
 11
155.1815540869
 21
30.7873819712
  0
LINE
  8
0
 62
7
  6
CONTINUOUS
 10
157.4362415869
 20
31.5294468267
 11
157.320617028
 21
31.4649194539
  0
LINE
  8
0
 62
7
  6
CONTINUOUS
 10
157.320617028
 20
31.3358647082
 11
157.4362415869
 21
31.400392081
  0
LINE
  8
0
 62
7
  6
CONTINUOUS
 10
150.0362418212
 20
31.5617105132
 11
149.8628043005
 21
31.4971831403
  0
LINE
  8
0
 62
7
  6
CONTINUOUS
 10
152.4643666972
 20
31.5939741996
 11
152.2909293626
 21
31.5294468267
  0
LINE
  8
0
 62
7
  6
CONTINUOUS
 10
152.2909293626
 20
31.400392081
 11
152.4643666972
 21
31.4649194539
  0
LINE
  8
0
 62
7
  6
CONTINUOUS
 10
151.0768668626
 20
30.8196456577
 11
150.9034292799
 21
30.7551182848
  0
LINE
  8
0
 62
7
  6
CONTINUOUS
 10
160.5003043074
 20
30.7551182848
 11
160.269054528
 21
30.7228545871
  0
LINE
  8
0
 62
7
  6
CONTINUOUS
 10
154.8924916972
 20
30.5937998301
 11
155.1815540869
 21
30.6260635193
  0
LINE
  8
0
 62
7
  6
CONTINUOUS
 10
160.269054528
 20
30.5937998301
 11
160.615929528
 21
30.6260635193
  0
LINE
  8
0
 62
7
  6
CONTINUOUS
 10
150.5565542799
 20
30.5937998301
 11
150.9612418074
 21
30.6260635193
  0
LINE
  8
0
 62
7
  6
CONTINUOUS
 10
150.9034292799
 20
30.7551182848
 11
150.498741835
 21
30.7228545871
  0
LINE
  8
0
 62
7
  6
CONTINUOUS
 10
154.7768668074
 20
31.1422825445
 11
155.412804528
 21
31.1422825445
  0
LINE
  8
0
 62
7
  6
CONTINUOUS
 10
155.412804528
 20
31.2713373354
 11
154.7768668074
 21
31.2713373354
  0
LINE
  8
0
 62
7
  6
CONTINUOUS
 10
151.1346793074
 20
31.3036010218
 11
151.4237418626
 21
31.3036010218
  0
LINE
  8
0
 62
7
  6
CONTINUOUS
 10
153.9674919177
 20
31.3681283946
 11
154.2565543074
 21
31.3681283946
  0
LINE
  8
0
 62
7
  6
CONTINUOUS
 10
160.6737418074
 20
31.3681283946
 11
160.9628038663
 21
31.3681283946
  0
LINE
  8
0
 62
7
  6
CONTINUOUS
 10
154.6612419177
 20
31.4971831403
 11
155.0081169177
 21
31.4971831403
  0
LINE
  8
0
 62
7
  6
CONTINUOUS
 10
159.8065543074
 20
31.4971831403
 11
160.1534293074
 21
31.4971831403
  0
LINE
  8
0
 62
7
  6
CONTINUOUS
 10
160.1534293074
 20
31.626237886
 11
159.8065543074
 21
31.626237886
  0
LINE
  8
0
 62
7
  6
CONTINUOUS
 10
158.0721793074
 20
31.626237886
 11
157.840929528
 21
31.626237886
  0
LINE
  8
0
 62
7
  6
CONTINUOUS
 10
157.320617028
 20
31.626237886
 11
157.0315543074
 21
31.626237886
  0
LINE
  8
0
 62
7
  6
CONTINUOUS
 10
156.5690540869
 20
31.626237886
 11
156.279992028
 21
31.626237886
  0
LINE
  8
0
 62
7
  6
CONTINUOUS
 10
155.0081169177
 20
31.626237886
 11
154.6612419177
 21
31.626237886
  0
LINE
  8
0
 62
7
  6
CONTINUOUS
 10
152.9268669177
 20
31.626237886
 11
152.6956168074
 21
31.626237886
  0
LINE
  8
0
 62
7
  6
CONTINUOUS
 10
156.279992028
 20
31.9488748406
 11
156.5690540869
 21
31.9488748406
  0
LINE
  8
0
 62
7
  6
CONTINUOUS
 10
156.5690540869
 20
32.1101932727
 11
156.279992028
 21
32.1101932727
  0
LINE
  8
0
 62
7
  6
CONTINUOUS
 10
152.1753043074
 20
32.1101932727
 11
151.8862417523
 21
32.1101932727
  0
LINE
  8
0
 62
7
  6
CONTINUOUS
 10
151.2130860697
 20
32.3970785186
 11
151.6256574183
 21
32.3970785186
  0
LINE
  8
0
 62
7
  6
CONTINUOUS
 10
152.852430332
 20
32.3970785186
 11
154.245872955
 21
32.3970785186
  0
LINE
  8
0
 62
7
  6
CONTINUOUS
 10
154.5737418074
 20
32.3970785186
 11
155.9671844304
 21
32.3970785186
  0
LINE
  8
0
 62
7
  6
CONTINUOUS
 10
157.852430332
 20
32.3970785186
 11
159.245872955
 21
32.3970785186
  0
LINE
  8
0
 62
7
  6
CONTINUOUS
 10
159.5737418074
 20
32.3970785186
 11
160.9671844304
 21
32.3970785186
  0
LINE
  8
0
 62
7
  6
CONTINUOUS
 10
157.6096790869
 20
31.5939741996
 11
157.4362415869
 21
31.5294468267
  0
LINE
  8
0
 62
7
  6
CONTINUOUS
 10
155.1815540869
 20
30.6260635193
 11
155.3549915869
 21
30.6905909007
  0
LINE
  8
0
 62
7
  6
CONTINUOUS
 10
160.615929528
 20
30.6260635193
 11
160.8471793074
 21
30.6905909007
  0
LINE
  8
0
 62
7
  6
CONTINUOUS
 10
160.615929528
 20
30.7873819712
 11
160.5003043074
 21
30.7551182848
  0
LINE
  8
0
 62
7
  6
CONTINUOUS
 10
159.575304528
 20
31.4649194539
 11
159.8065543074
 21
31.4971831403
  0
LINE
  8
0
 62
7
  6
CONTINUOUS
 10
157.6096790869
 20
31.4649194539
 11
157.840929528
 21
31.4971831403
  0
LINE
  8
0
 62
7
  6
CONTINUOUS
 10
154.5456166972
 20
31.1100188581
 11
154.7768668074
 21
31.1422825445
  0
LINE
  8
0
 62
7
  6
CONTINUOUS
 10
157.840929528
 20
31.626237886
 11
157.6096790869
 21
31.5939741996
  0
LINE
  8
0
 62
7
  6
CONTINUOUS
 10
154.4299918074
 20
31.4649194539
 11
154.6612419177
 21
31.4971831403
  0
LINE
  8
0
 62
7
  6
CONTINUOUS
 10
159.8065543074
 20
31.626237886
 11
159.4596793074
 21
31.5939741996
  0
LINE
  8
0
 62
7
  6
CONTINUOUS
 10
154.7768668074
 20
31.2713373354
 11
154.4299918074
 21
31.2390736489
  0
LINE
  8
0
 62
7
  6
CONTINUOUS
 10
150.5565542799
 20
31.626237886
 11
150.2096793212
 21
31.5939741996
  0
LINE
  8
0
 62
7
  6
CONTINUOUS
 10
154.6612419177
 20
31.626237886
 11
154.2565543074
 21
31.5939741996
  0
LINE
  8
0
 62
7
  6
CONTINUOUS
 10
152.0327582009
 20
33.5446195022
 11
151.3770204959
 21
33.5446195022
  0
LINE
  8
0
 62
7
  6
CONTINUOUS
 10
157.4362415869
 20
31.400392081
 11
157.6096790869
 21
31.4649194539
  0
LINE
  8
0
 62
7
  6
CONTINUOUS
 10
159.4596793074
 20
31.4326557675
 11
159.575304528
 21
31.4649194539
  0
LINE
  8
0
 62
7
  6
CONTINUOUS
 10
159.4596793074
 20
31.5939741996
 11
159.228429528
 21
31.5294468267
  0
LINE
  8
0
 62
7
  6
CONTINUOUS
 10
155.1815540869
 20
30.7873819712
 11
154.8924916972
 21
30.7228545871
  0
LINE
  8
0
 62
7
  6
CONTINUOUS
 10
152.4643666972
 20
31.4649194539
 11
152.6956168074
 21
31.4971831403
  0
LINE
  8
0
 62
7
  6
CONTINUOUS
 10
152.6956168074
 20
31.626237886
 11
152.4643666972
 21
31.5939741996
  0
LINE
  8
0
 62
7
  6
CONTINUOUS
 10
150.2674918074
 20
31.4649194539
 11
150.498741835
 21
31.4971831403
  0
LINE
  8
0
 62
7
  6
CONTINUOUS
 10
156.7868565615
 20
35.0200293383
 11
157.4425942664
 21
35.0200293383
  0
LINE
  8
0
 62
7
  6
CONTINUOUS
 10
154.4299918074
 20
31.0777551716
 11
154.5456166972
 21
31.1100188581
  0
LINE
  8
0
 62
7
  6
CONTINUOUS
 10
154.4299918074
 20
31.2390736489
 11
154.1987416972
 21
31.1745462761
  0
LINE
  8
0
 62
7
  6
CONTINUOUS
 10
154.3143669177
 20
31.4326557675
 11
154.4299918074
 21
31.4649194539
  0
LINE
  8
0
 62
7
  6
CONTINUOUS
 10
150.9612418074
 20
30.6260635193
 11
151.1924917523
 21
30.6905909007
  0
LINE
  8
0
 62
7
  6
CONTINUOUS
 10
154.2565543074
 20
31.5939741996
 11
154.1409294177
 21
31.5617105132
  0
LINE
  8
0
 62
7
  6
CONTINUOUS
 10
150.2096793212
 20
31.5939741996
 11
150.0362418212
 21
31.5617105132
  0
LINE
  8
0
 62
7
  6
CONTINUOUS
 10
160.9671844304
 20
36.1675703219
 11
159.5737418074
 21
36.1675703219
  0
LINE
  8
0
 62
7
  6
CONTINUOUS
 10
157.6065286927
 20
36.1675703219
 11
157.1939573441
 21
36.1675703219
  0
LINE
  8
0
 62
7
  6
CONTINUOUS
 10
155.9671844304
 20
36.1675703219
 11
154.5737418074
 21
36.1675703219
  0
LINE
  8
0
 62
7
  6
CONTINUOUS
 10
154.245872955
 20
36.1675703219
 11
152.852430332
 21
36.1675703219
  0
LINE
  8
0
 62
7
  6
CONTINUOUS
 10
150.9671844304
 20
36.1675703219
 11
149.5737418074
 21
36.1675703219
  0
LINE
  8
0
 62
7
  6
CONTINUOUS
 10
150.1518667936
 20
31.4326557675
 11
150.2674918074
 21
31.4649194539
  0
CIRCLE
  8
0
 62
7
  6
CONTINUOUS
 10
160.2704631189
 20
38.5036358957
 40
2.0901639344
  0
ARC
  8
0
 62
7
  6
CONTINUOUS
 10
151.2130860697
 20
34.0364227809
 40
1.6393442623
 50
180.0
 51
270.0
  0
ARC
  8
0
 62
7
  6
CONTINUOUS
 10
157.6065286927
 20
34.5282260596
 40
1.6393442623
 50
0.0
 51
90.0
  0
ARC
  8
0
 62
7
  6
CONTINUOUS
 10
151.6256574183
 20
33.8724883547
 40
1.4754098361
 50
270.0
 51
326.2510114041
  0
ARC
  8
0
 62
7
  6
CONTINUOUS
 10
157.1939573441
 20
34.6921604858
 40
1.4754098361
 50
90.0
 51
146.2510114041
  0
ARC
  8
0
 62
7
  6
CONTINUOUS
 10
152.0327582009
 20
34.3642916334
 40
0.8196721311
 50
270.0
 51
360.0
  0
ARC
  8
0
 62
7
  6
CONTINUOUS
 10
156.7868565615
 20
34.2003572071
 40
0.8196721311
 50
90.0
 51
180.0
  0
ARC
  8
0
 62
7
  6
CONTINUOUS
 10
151.3770204959
 20
33.9544555678
 40
0.4098360656
 50
180.0
 51
270.0
  0
ARC
  8
0
 62
7
  6
CONTINUOUS
 10
157.4425942664
 20
34.6101932727
 40
0.4098360656
 50
0.0
 51
90.0
  0
SOLID
  8
0
 62
7
  6
CONTINUOUS
 10
156.279992028
 20
31.9488752009
 11
156.279992028
 21
32.1101936845
 12
156.5690540869
 22
31.9488752009
 13
156.5690540869
 23
32.1101936845
  0
SOLID
  8
0
 62
7
  6
CONTINUOUS
 10
150.5565542799
 20
31.6262382337
 11
150.9612418074
 21
31.5939740028
 12
150.2096793212
 22
31.5939740028
 13
150.2096793212
 23
31.5939740028
  0
SOLID
  8
0
 62
7
  6
CONTINUOUS
 10
150.0362418212
 20
31.5617111435
 11
150.2096793212
 21
31.5939740028
 12
150.9612418074
 22
31.5939740028
 13
150.9612418074
 23
31.5939740028
  0
SOLID
  8
0
 62
7
  6
CONTINUOUS
 10
150.9612418074
 20
31.5939740028
 11
151.1924917523
 21
31.5294468402
 12
150.0362418212
 22
31.5617111435
 13
150.0362418212
 23
31.5617111435
  0
SOLID
  8
0
 62
7
  6
CONTINUOUS
 10
149.8628043005
 20
31.49718259
 11
150.0362418212
 21
31.5617111435
 12
151.1924917523
 22
31.5294468402
 13
151.1924917523
 23
31.5294468402
  0
SOLID
  8
0
 62
7
  6
CONTINUOUS
 10
149.8628043005
 20
31.49718259
 11
151.1924917523
 21
31.5294468402
 12
150.498741835
 22
31.49718259
 13
150.498741835
 23
31.49718259
  0
SOLID
  8
0
 62
7
  6
CONTINUOUS
 10
150.498741835
 20
31.49718259
 11
151.1924917523
 21
31.5294468402
 12
150.9034292799
 22
31.4649197501
 13
150.9034292799
 23
31.4649197501
  0
SOLID
  8
0
 62
7
  6
CONTINUOUS
 10
151.1924917523
 20
31.5294468402
 11
151.3659292523
 21
31.4326554468
 12
150.9034292799
 22
31.4649197501
 13
150.9034292799
 23
31.4649197501
  0
SOLID
  8
0
 62
7
  6
CONTINUOUS
 10
151.0768668626
 20
31.4003926599
 11
150.9034292799
 21
31.4649197501
 12
151.3659292523
 22
31.4326554468
 13
151.3659292523
 23
31.4326554468
  0
SOLID
  8
0
 62
7
  6
CONTINUOUS
 10
151.0768668626
 20
31.4003926599
 11
151.3659292523
 21
31.4326554468
 12
151.1346793074
 22
31.3036013776
 13
151.1346793074
 23
31.3036013776
  0
SOLID
  8
0
 62
7
  6
CONTINUOUS
 10
151.3659292523
 20
31.4326554468
 11
151.4237418626
 21
31.3036013776
 12
151.1346793074
 22
31.3036013776
 13
151.1346793074
 23
31.3036013776
  0
SOLID
  8
0
 62
7
  6
CONTINUOUS
 10
152.4643666972
 20
31.5939739754
 11
152.6956168074
 21
31.6262382787
 12
152.9268669177
 22
31.6262382787
 13
152.9268669177
 23
31.6262382787
  0
SOLID
  8
0
 62
7
  6
CONTINUOUS
 10
152.9268669177
 20
31.6262382787
 11
153.1003044177
 21
31.5939739754
 12
152.4643666972
 22
31.5939739754
 13
152.4643666972
 23
31.5939739754
  0
SOLID
  8
0
 62
7
  6
CONTINUOUS
 10
152.2909293626
 20
31.5294468852
 11
152.4643666972
 21
31.5939739754
 12
153.1003044177
 22
31.5939739754
 13
153.1003044177
 23
31.5939739754
  0
SOLID
  8
0
 62
7
  6
CONTINUOUS
 10
153.1003044177
 20
31.5939739754
 11
153.2737419177
 21
31.5294468852
 12
152.2909293626
 22
31.5294468852
 13
152.2909293626
 23
31.5294468852
  0
SOLID
  8
0
 62
7
  6
CONTINUOUS
 10
153.2737419177
 20
31.5294468852
 11
152.6956168074
 21
31.4971825369
 12
152.2909293626
 22
31.5294468852
 13
152.2909293626
 23
31.5294468852
  0
SOLID
  8
0
 62
7
  6
CONTINUOUS
 10
152.1753043074
 20
31.4649197951
 11
152.2909293626
 21
31.5294468852
 12
152.6956168074
 22
31.4971825369
 13
152.6956168074
 23
31.4971825369
  0
SOLID
  8
0
 62
7
  6
CONTINUOUS
 10
152.6956168074
 20
31.4971825369
 11
152.4643666972
 21
31.4649197951
 12
152.1753043074
 22
31.4649197951
 13
152.1753043074
 23
31.4649197951
  0
SOLID
  8
0
 62
7
  6
CONTINUOUS
 10
152.6956168074
 20
31.4971825369
 11
153.2737419177
 21
31.5294468852
 12
152.9268669177
 22
31.4649197951
 13
152.9268669177
 23
31.4649197951
  0
SOLID
  8
0
 62
7
  6
CONTINUOUS
 10
153.2737419177
 20
31.5294468852
 11
153.3893668074
 21
31.4649197951
 12
152.9268669177
 22
31.4649197951
 13
152.9268669177
 23
31.4649197951
  0
SOLID
  8
0
 62
7
  6
CONTINUOUS
 10
153.0424918074
 20
31.4326554468
 11
152.9268669177
 21
31.4649197951
 12
153.3893668074
 22
31.4649197951
 13
153.3893668074
 23
31.4649197951
  0
SOLID
  8
0
 62
7
  6
CONTINUOUS
 10
153.3893668074
 20
31.4649197951
 11
153.4471794177
 21
31.4003927049
 12
153.0424918074
 22
31.4326554468
 13
153.0424918074
 23
31.4326554468
  0
SOLID
  8
0
 62
7
  6
CONTINUOUS
 10
153.1581166972
 20
31.3681283566
 11
153.0424918074
 21
31.4326554468
 12
153.4471794177
 22
31.4003927049
 13
153.4471794177
 23
31.4003927049
  0
SOLID
  8
0
 62
7
  6
CONTINUOUS
 10
153.1581166972
 20
31.3681283566
 11
153.4471794177
 21
31.4003927049
 12
153.2159293074
 22
31.2390742213
 13
153.2159293074
 23
31.2390742213
  0
SOLID
  8
0
 62
7
  6
CONTINUOUS
 10
153.4471794177
 20
31.4003927049
 11
153.5049916972
 21
31.2390742213
 12
153.2159293074
 22
31.2390742213
 13
153.2159293074
 23
31.2390742213
  0
SOLID
  8
0
 62
7
  6
CONTINUOUS
 10
152.4643666972
 20
31.4649197951
 11
152.2909293626
 21
31.4003927049
 12
152.1753043074
 22
31.4649197951
 13
152.1753043074
 23
31.4649197951
  0
SOLID
  8
0
 62
7
  6
CONTINUOUS
 10
152.2909293626
 20
31.4003927049
 11
152.1753043074
 21
31.3358640533
 12
152.1753043074
 22
31.4649197951
 13
152.1753043074
 23
31.4649197951
  0
SOLID
  8
0
 62
7
  6
CONTINUOUS
 10
152.1753043074
 20
31.3358640533
 11
151.8862417523
 21
30.5938002869
 12
152.1753043074
 22
31.4649197951
 13
152.1753043074
 23
31.4649197951
  0
SOLID
  8
0
 62
7
  6
CONTINUOUS
 10
152.1753043074
 20
31.4649197951
 11
151.8862417523
 21
30.5938002869
 12
152.1753043074
 22
32.1101937295
 13
152.1753043074
 23
32.1101937295
  0
SOLID
  8
0
 62
7
  6
CONTINUOUS
 10
151.8862417523
 20
30.5938002869
 11
151.8862417523
 21
32.1101937295
 12
152.1753043074
 22
32.1101937295
 13
152.1753043074
 23
32.1101937295
  0
SOLID
  8
0
 62
7
  6
CONTINUOUS
 10
152.1753043074
 20
31.3358640533
 11
152.1753043074
 21
30.5938002869
 12
151.8862417523
 22
30.5938002869
 13
151.8862417523
 23
30.5938002869
  0
SOLID
  8
0
 62
7
  6
CONTINUOUS
 10
153.2159293074
 20
30.5938002869
 11
153.2159293074
 21
31.2390742213
 12
153.5049916972
 22
31.2390742213
 13
153.5049916972
 23
31.2390742213
  0
SOLID
  8
0
 62
7
  6
CONTINUOUS
 10
153.5049916972
 20
31.2390742213
 11
153.5049916972
 21
30.5938002869
 12
153.2159293074
 22
30.5938002869
 13
153.2159293074
 23
30.5938002869
  0
SOLID
  8
0
 62
7
  6
CONTINUOUS
 10
154.2565543074
 20
31.5939738288
 11
154.6612419177
 21
31.6262385959
 12
155.0081169177
 22
31.6262385959
 13
155.0081169177
 23
31.6262385959
  0
SOLID
  8
0
 62
7
  6
CONTINUOUS
 10
155.0081169177
 20
31.6262385959
 11
155.3549915869
 21
31.5939738288
 12
154.2565543074
 22
31.5939738288
 13
154.2565543074
 23
31.5939738288
  0
SOLID
  8
0
 62
7
  6
CONTINUOUS
 10
154.1409294177
 20
31.5617111435
 11
154.2565543074
 21
31.5939738288
 12
155.3549915869
 22
31.5939738288
 13
155.3549915869
 23
31.5939738288
  0
SOLID
  8
0
 62
7
  6
CONTINUOUS
 10
155.3549915869
 20
31.5939738288
 11
155.5284290869
 21
31.5294468402
 12
154.1409294177
 22
31.5617111435
 13
154.1409294177
 23
31.5617111435
  0
SOLID
  8
0
 62
7
  6
CONTINUOUS
 10
154.0253041972
 20
31.4971826249
 11
154.1409294177
 21
31.5617111435
 12
155.5284290869
 22
31.5294468402
 13
155.5284290869
 23
31.5294468402
  0
SOLID
  8
0
 62
7
  6
CONTINUOUS
 10
154.0253041972
 20
31.4971826249
 11
155.5284290869
 21
31.5294468402
 12
154.6612419177
 22
31.4971826249
 13
154.6612419177
 23
31.4971826249
  0
SOLID
  8
0
 62
7
  6
CONTINUOUS
 10
154.6612419177
 20
31.4971826249
 11
155.5284290869
 21
31.5294468402
 12
155.0081169177
 22
31.4971826249
 13
155.0081169177
 23
31.4971826249
  0
SOLID
  8
0
 62
7
  6
CONTINUOUS
 10
155.0081169177
 20
31.4971826249
 11
155.5284290869
 21
31.5294468402
 12
155.239367028
 22
31.4649194065
 13
155.239367028
 23
31.4649194065
  0
SOLID
  8
0
 62
7
  6
CONTINUOUS
 10
155.5284290869
 20
31.5294468402
 11
155.6440543074
 21
31.4649194065
 12
155.239367028
 22
31.4649194065
 13
155.239367028
 23
31.4649194065
  0
SOLID
  8
0
 62
7
  6
CONTINUOUS
 10
153.9674919177
 20
31.4326554138
 11
154.0253041972
 21
31.4971826249
 12
154.6612419177
 22
31.4971826249
 13
154.6612419177
 23
31.4971826249
  0
SOLID
  8
0
 62
7
  6
CONTINUOUS
 10
155.3549915869
 20
31.4326554138
 11
155.239367028
 21
31.4649194065
 12
155.6440543074
 22
31.4649194065
 13
155.6440543074
 23
31.4649194065
  0
SOLID
  8
0
 62
7
  6
CONTINUOUS
 10
155.3549915869
 20
31.4326554138
 11
155.6440543074
 21
31.4649194065
 12
155.412804528
 22
31.3681282026
 13
155.412804528
 23
31.3681282026
  0
SOLID
  8
0
 62
7
  6
CONTINUOUS
 10
155.6440543074
 20
31.4649194065
 11
155.7018665869
 21
31.3681282026
 12
155.412804528
 22
31.3681282026
 13
155.412804528
 23
31.3681282026
  0
SOLID
  8
0
 62
7
  6
CONTINUOUS
 10
155.412804528
 20
31.2713369632
 11
155.412804528
 21
31.3681282026
 12
155.7018665869
 22
31.3681282026
 13
155.7018665869
 23
31.3681282026
  0
SOLID
  8
0
 62
7
  6
CONTINUOUS
 10
155.412804528
 20
31.2713369632
 11
155.7018665869
 21
31.3681282026
 12
155.412804528
 22
31.1422827828
 13
155.412804528
 23
31.1422827828
  0
SOLID
  8
0
 62
7
  6
CONTINUOUS
 10
155.412804528
 20
31.1422827828
 11
155.7018665869
 21
31.3681282026
 12
155.412804528
 22
30.9487004259
 13
155.412804528
 23
30.9487004259
  0
SOLID
  8
0
 62
7
  6
CONTINUOUS
 10
155.7018665869
 20
31.3681282026
 11
155.7018665869
 21
30.8519086025
 12
155.412804528
 22
30.9487004259
 13
155.412804528
 23
30.9487004259
  0
SOLID
  8
0
 62
7
  6
CONTINUOUS
 10
157.6096790869
 20
31.5939736268
 11
157.840929528
 21
31.6262383465
 12
158.0721793074
 22
31.6262383465
 13
158.0721793074
 23
31.6262383465
  0
SOLID
  8
0
 62
7
  6
CONTINUOUS
 10
158.0721793074
 20
31.6262383465
 11
158.2456168074
 21
31.5939736268
 12
157.6096790869
 22
31.5939736268
 13
157.6096790869
 23
31.5939736268
  0
SOLID
  8
0
 62
7
  6
CONTINUOUS
 10
157.4362415869
 20
31.5294472848
 11
157.6096790869
 21
31.5939736268
 12
158.2456168074
 22
31.5939736268
 13
158.2456168074
 23
31.5939736268
  0
SOLID
  8
0
 62
7
  6
CONTINUOUS
 10
158.2456168074
 20
31.5939736268
 11
158.4190543074
 21
31.5294472848
 12
157.4362415869
 22
31.5294472848
 13
157.4362415869
 23
31.5294472848
  0
SOLID
  8
0
 62
7
  6
CONTINUOUS
 10
158.4190543074
 20
31.5294472848
 11
157.840929528
 21
31.4971825369
 12
157.4362415869
 22
31.5294472848
 13
157.4362415869
 23
31.5294472848
  0
SOLID
  8
0
 62
7
  6
CONTINUOUS
 10
157.320617028
 20
31.4649199103
 11
157.4362415869
 21
31.5294472848
 12
157.840929528
 22
31.4971825369
 13
157.840929528
 23
31.4971825369
  0
SOLID
  8
0
 62
7
  6
CONTINUOUS
 10
157.840929528
 20
31.4971825369
 11
157.6096790869
 21
31.4649199103
 12
157.320617028
 22
31.4649199103
 13
157.320617028
 23
31.4649199103
  0
SOLID
  8
0
 62
7
  6
CONTINUOUS
 10
157.840929528
 20
31.4971825369
 11
158.4190543074
 21
31.5294472848
 12
158.0721793074
 22
31.4649199103
 13
158.0721793074
 23
31.4649199103
  0
SOLID
  8
0
 62
7
  6
CONTINUOUS
 10
158.4190543074
 20
31.5294472848
 11
158.534679528
 21
31.4649199103
 12
158.0721793074
 22
31.4649199103
 13
158.0721793074
 23
31.4649199103
  0
SOLID
  8
0
 62
7
  6
CONTINUOUS
 10
158.187804528
 20
31.4326554468
 11
158.0721793074
 21
31.4649199103
 12
158.534679528
 22
31.4649199103
 13
158.534679528
 23
31.4649199103
  0
SOLID
  8
0
 62
7
  6
CONTINUOUS
 10
158.187804528
 20
31.4326554468
 11
158.534679528
 21
31.4649199103
 12
158.3034290869
 22
31.3681288486
 13
158.3034290869
 23
31.3681288486
  0
SOLID
  8
0
 62
7
  6
CONTINUOUS
 10
158.534679528
 20
31.4649199103
 11
158.5924918074
 21
31.3681288486
 12
158.3034290869
 22
31.3681288486
 13
158.3034290869
 23
31.3681288486
  0
SOLID
  8
0
 62
7
  6
CONTINUOUS
 10
158.361242028
 20
31.2068093799
 11
158.3034290869
 21
31.3681288486
 12
158.5924918074
 22
31.3681288486
 13
158.5924918074
 23
31.3681288486
  0
SOLID
  8
0
 62
7
  6
CONTINUOUS
 10
158.5924918074
 20
31.3681288486
 11
158.6503040869
 21
31.2068093799
 12
158.361242028
 22
31.2068093799
 13
158.361242028
 23
31.2068093799
  0
SOLID
  8
0
 62
7
  6
CONTINUOUS
 10
157.6096790869
 20
31.4649199103
 11
157.4362415869
 21
31.4003926599
 12
157.320617028
 22
31.4649199103
 13
157.320617028
 23
31.4649199103
  0
SOLID
  8
0
 62
7
  6
CONTINUOUS
 10
157.4362415869
 20
31.4003926599
 11
157.320617028
 21
31.3358640533
 12
157.320617028
 22
31.4649199103
 13
157.320617028
 23
31.4649199103
  0
SOLID
  8
0
 62
7
  6
CONTINUOUS
 10
157.320617028
 20
31.3358640533
 11
157.0315543074
 21
30.5938003547
 12
157.320617028
 22
31.4649199103
 13
157.320617028
 23
31.4649199103
  0
SOLID
  8
0
 62
7
  6
CONTINUOUS
 10
157.320617028
 20
31.4649199103
 11
157.0315543074
 21
30.5938003547
 12
157.320617028
 22
31.6262383465
 13
157.320617028
 23
31.6262383465
  0
SOLID
  8
0
 62
7
  6
CONTINUOUS
 10
157.0315543074
 20
30.5938003547
 11
157.0315543074
 21
31.6262383465
 12
157.320617028
 22
31.6262383465
 13
157.320617028
 23
31.6262383465
  0
SOLID
  8
0
 62
7
  6
CONTINUOUS
 10
157.320617028
 20
31.3358640533
 11
157.320617028
 21
30.5938003547
 12
157.0315543074
 22
30.5938003547
 13
157.0315543074
 23
30.5938003547
  0
SOLID
  8
0
 62
7
  6
CONTINUOUS
 10
158.361242028
 20
30.5938003547
 11
158.361242028
 21
31.2068093799
 12
158.6503040869
 22
31.2068093799
 13
158.6503040869
 23
31.2068093799
  0
SOLID
  8
0
 62
7
  6
CONTINUOUS
 10
158.6503040869
 20
31.2068093799
 11
158.6503040869
 21
30.5938003547
 12
158.361242028
 22
30.5938003547
 13
158.361242028
 23
30.5938003547
  0
SOLID
  8
0
 62
7
  6
CONTINUOUS
 10
159.4596793074
 20
31.5939739474
 11
159.8065543074
 21
31.6262381969
 12
160.1534293074
 22
31.6262381969
 13
160.1534293074
 23
31.6262381969
  0
SOLID
  8
0
 62
7
  6
CONTINUOUS
 10
160.1534293074
 20
31.6262381969
 11
160.5003043074
 21
31.5939739474
 12
159.4596793074
 22
31.5939739474
 13
159.4596793074
 23
31.5939739474
  0
SOLID
  8
0
 62
7
  6
CONTINUOUS
 10
159.228429528
 20
31.5294468402
 11
159.4596793074
 21
31.5939739474
 12
160.5003043074
 22
31.5939739474
 13
160.5003043074
 23
31.5939739474
  0
SOLID
  8
0
 62
7
  6
CONTINUOUS
 10
159.228429528
 20
31.5294468402
 11
160.5003043074
 21
31.5939739304
 12
160.6737418074
 22
31.5617111435
 13
160.6737418074
 23
31.5617111435
  0
SOLID
  8
0
 62
7
  6
CONTINUOUS
 10
159.228429528
 20
31.5294468402
 11
160.6737418074
 21
31.5617111435
 12
159.8065543074
 22
31.4971825592
 13
159.8065543074
 23
31.4971825592
  0
SOLID
  8
0
 62
7
  6
CONTINUOUS
 10
159.8065543074
 20
31.4971825592
 11
160.6737418074
 21
31.5617111435
 12
160.1534293074
 22
31.4971825592
 13
160.1534293074
 23
31.4971825592
  0
SOLID
  8
0
 62
7
  6
CONTINUOUS
 10
160.6737418074
 20
31.5617111435
 11
160.8471793074
 21
31.4971825592
 12
160.1534293074
 22
31.4971825592
 13
160.1534293074
 23
31.4971825592
  0
SOLID
  8
0
 62
7
  6
CONTINUOUS
 10
160.5003043074
 20
31.4649197501
 11
160.1534293074
 21
31.4971825592
 12
160.8471793074
 22
31.4971825592
 13
160.8471793074
 23
31.4971825592
  0
SOLID
  8
0
 62
7
  6
CONTINUOUS
 10
159.1128043074
 20
31.4326555427
 11
159.228429528
 21
31.5294468402
 12
159.8065543074
 22
31.4971825592
 13
159.8065543074
 23
31.4971825592
  0
SOLID
  8
0
 62
7
  6
CONTINUOUS
 10
160.5003043074
 20
31.4649197501
 11
160.8471793074
 21
31.4971825592
 12
160.615929528
 22
31.4326555427
 13
160.615929528
 23
31.4326555427
  0
SOLID
  8
0
 62
7
  6
CONTINUOUS
 10
160.615929528
 20
31.4326555427
 11
160.8471793074
 21
31.4971825592
 12
160.6737418074
 22
31.3681283005
 13
160.6737418074
 23
31.3681283005
  0
SOLID
  8
0
 62
7
  6
CONTINUOUS
 10
160.8471793074
 20
31.4971825592
 11
160.9628038663
 21
31.3681283005
 12
160.6737418074
 22
31.3681283005
 13
160.6737418074
 23
31.3681283005
  0
SOLID
  8
0
 62
7
  6
CONTINUOUS
 10
150.2674918074
 20
31.4649197501
 11
149.7471793074
 21
31.4326554237
 12
150.498741835
 22
31.4971824493
 13
150.498741835
 23
31.4971824493
  0
SOLID
  8
0
 62
7
  6
CONTINUOUS
 10
149.7471793074
 20
31.4326554237
 11
149.8628043005
 21
31.4971824493
 12
150.498741835
 22
31.4971824493
 13
150.498741835
 23
31.4971824493
  0
SOLID
  8
0
 62
7
  6
CONTINUOUS
 10
150.2674918074
 20
31.4649197501
 11
150.1518667936
 21
31.4326554237
 12
149.7471793074
 22
31.4326554237
 13
149.7471793074
 23
31.4326554237
  0
SOLID
  8
0
 62
7
  6
CONTINUOUS
 10
149.6315543091
 20
31.3036012664
 11
149.7471793074
 21
31.4326554237
 12
150.1518667936
 22
31.4326554237
 13
150.1518667936
 23
31.4326554237
  0
SOLID
  8
0
 62
7
  6
CONTINUOUS
 10
153.9674919177
 20
31.4326554237
 11
154.6612419177
 21
31.4971825369
 12
154.4299918074
 22
31.4649197501
 13
154.4299918074
 23
31.4649197501
  0
SOLID
  8
0
 62
7
  6
CONTINUOUS
 10
154.4299918074
 20
31.4649197501
 11
154.3143669177
 21
31.4326554237
 12
153.9674919177
 22
31.4326554237
 13
153.9674919177
 23
31.4326554237
  0
SOLID
  8
0
 62
7
  6
CONTINUOUS
 10
153.9674919177
 20
31.3681283335
 11
153.9674919177
 21
31.4326554237
 12
154.3143669177
 22
31.4326554237
 13
154.3143669177
 23
31.4326554237
  0
SOLID
  8
0
 62
7
  6
CONTINUOUS
 10
154.3143669177
 20
31.4326554237
 11
154.2565543074
 21
31.3681283335
 12
153.9674919177
 22
31.3681283335
 13
153.9674919177
 23
31.3681283335
  0
SOLID
  8
0
 62
7
  6
CONTINUOUS
 10
159.1128043074
 20
31.4326555528
 11
159.8065543074
 21
31.4971825369
 12
159.575304528
 22
31.4649197501
 13
159.575304528
 23
31.4649197501
  0
SOLID
  8
0
 62
7
  6
CONTINUOUS
 10
159.575304528
 20
31.4649197501
 11
159.4596793074
 21
31.4326555528
 12
159.1128043074
 22
31.4326555528
 13
159.1128043074
 23
31.4326555528
  0
SOLID
  8
0
 62
7
  6
CONTINUOUS
 10
159.1128043074
 20
31.3681284626
 11
159.1128043074
 21
31.4326555528
 12
159.4596793074
 22
31.4326555528
 13
159.4596793074
 23
31.4326555528
  0
SOLID
  8
0
 62
7
  6
CONTINUOUS
 10
159.4596793074
 20
31.4326555528
 11
159.401867028
 21
31.3681284626
 12
159.1128043074
 22
31.3681284626
 13
159.1128043074
 23
31.3681284626
  0
SOLID
  8
0
 62
7
  6
CONTINUOUS
 10
159.228429528
 20
31.2390741763
 11
159.1128043074
 21
31.3681284626
 12
159.401867028
 22
31.3681284626
 13
159.401867028
 23
31.3681284626
  0
SOLID
  8
0
 62
7
  6
CONTINUOUS
 10
149.6315543091
 20
31.3036012664
 11
150.1518667936
 21
31.4326554468
 12
149.9784292936
 22
31.3358640533
 13
149.9784292936
 23
31.3358640533
  0
SOLID
  8
0
 62
7
  6
CONTINUOUS
 10
149.9784292936
 20
31.3358640533
 11
149.9206168074
 21
31.2713369632
 12
149.6315543091
 22
31.3036012664
 13
149.6315543091
 23
31.3036012664
  0
SOLID
  8
0
 62
7
  6
CONTINUOUS
 10
149.5737418074
 20
31.1100184796
 11
149.6315543091
 21
31.3036012664
 12
149.9206168074
 22
31.2713369632
 13
149.9206168074
 23
31.2713369632
  0
SOLID
  8
0
 62
7
  6
CONTINUOUS
 10
154.4299918074
 20
31.2390741763
 11
154.7768668074
 21
31.271336924
 12
155.412804528
 22
31.271336924
 13
155.412804528
 23
31.271336924
  0
SOLID
  8
0
 62
7
  6
CONTINUOUS
 10
154.4299918074
 20
31.2390741763
 11
155.412804528
 21
31.271336924
 12
154.1987416972
 22
31.1745462761
 13
154.1987416972
 23
31.1745462761
  0
SOLID
  8
0
 62
7
  6
CONTINUOUS
 10
154.1987416972
 20
31.1745462761
 11
155.412804528
 21
31.271336924
 12
154.7768668074
 22
31.1422827436
 13
154.7768668074
 23
31.1422827436
  0
SOLID
  8
0
 62
7
  6
CONTINUOUS
 10
155.412804528
 20
31.271336924
 11
155.412804528
 21
31.1422827436
 12
154.7768668074
 22
31.1422827436
 13
154.7768668074
 23
31.1422827436
  0
SOLID
  8
0
 62
7
  6
CONTINUOUS
 10
159.228429528
 20
31.2390745501
 11
159.401867028
 21
31.3681283566
 12
159.4596793074
 22
31.3036012664
 13
159.4596793074
 23
31.3036012664
  0
SOLID
  8
0
 62
7
  6
CONTINUOUS
 10
159.4596793074
 20
31.3036012664
 11
159.6331168074
 21
31.2390745501
 12
159.228429528
 22
31.2390745501
 13
159.228429528
 23
31.2390745501
  0
SOLID
  8
0
 62
7
  6
CONTINUOUS
 10
159.4596793074
 20
31.1422827828
 11
159.228429528
 21
31.2390745501
 12
159.6331168074
 22
31.2390745501
 13
159.6331168074
 23
31.2390745501
  0
SOLID
  8
0
 62
7
  6
CONTINUOUS
 10
159.6331168074
 20
31.2390745501
 11
160.615929528
 21
31.0777556927
 12
159.4596793074
 22
31.1422827828
 13
159.4596793074
 23
31.1422827828
  0
SOLID
  8
0
 62
7
  6
CONTINUOUS
 10
160.442492028
 20
30.9809646623
 11
159.4596793074
 21
31.1422827828
 12
160.615929528
 22
31.0777556927
 13
160.615929528
 23
31.0777556927
  0
SOLID
  8
0
 62
7
  6
CONTINUOUS
 10
160.615929528
 20
31.0777556927
 11
160.8471793074
 21
30.9809646623
 12
160.442492028
 22
30.9809646623
 13
160.442492028
 23
30.9809646623
  0
SOLID
  8
0
 62
7
  6
CONTINUOUS
 10
160.615929528
 20
30.9164372091
 11
160.442492028
 21
30.9809646623
 12
160.8471793074
 22
30.9809646623
 13
160.8471793074
 23
30.9809646623
  0
SOLID
  8
0
 62
7
  6
CONTINUOUS
 10
160.615929528
 20
30.9164372091
 11
160.8471793074
 21
30.9809646623
 12
160.6737418074
 22
30.8519089441
 13
160.6737418074
 23
30.8519089441
  0
SOLID
  8
0
 62
7
  6
CONTINUOUS
 10
160.8471793074
 20
30.9809646623
 11
160.9628038663
 21
30.8519089441
 12
160.6737418074
 22
30.8519089441
 13
160.6737418074
 23
30.8519089441
  0
SOLID
  8
0
 62
7
  6
CONTINUOUS
 10
160.615929528
 20
30.7873818593
 11
160.6737418074
 21
30.8519089441
 12
160.9628038663
 22
30.8519089441
 13
160.9628038663
 23
30.8519089441
  0
SOLID
  8
0
 62
7
  6
CONTINUOUS
 10
160.9628038663
 20
30.8519089441
 11
160.9628038663
 21
30.7873818593
 12
160.615929528
 22
30.7873818593
 13
160.615929528
 23
30.7873818593
  0
SOLID
  8
0
 62
7
  6
CONTINUOUS
 10
160.5003043074
 20
30.7551187255
 11
160.615929528
 21
30.7873818593
 12
160.9628038663
 22
30.7873818593
 13
160.9628038663
 23
30.7873818593
  0
SOLID
  8
0
 62
7
  6
CONTINUOUS
 10
160.5003043074
 20
30.7551187255
 11
160.9628038663
 21
30.7873818593
 12
160.269054528
 22
30.7228547745
 13
160.269054528
 23
30.7228547745
  0
SOLID
  8
0
 62
7
  6
CONTINUOUS
 10
160.9628038663
 20
30.7873818593
 11
160.8471793074
 21
30.6905916353
 12
160.269054528
 22
30.7228547745
 13
160.269054528
 23
30.7228547745
  0
SOLID
  8
0
 62
7
  6
CONTINUOUS
 10
160.8471793074
 20
30.6905916353
 11
159.401867028
 21
30.658327332
 12
160.269054528
 22
30.7228547745
 13
160.269054528
 23
30.7228547745
  0
SOLID
  8
0
 62
7
  6
CONTINUOUS
 10
160.269054528
 20
30.7228547745
 11
159.401867028
 21
30.658327332
 12
159.922179528
 22
30.7228547745
 13
159.922179528
 23
30.7228547745
  0
SOLID
  8
0
 62
7
  6
CONTINUOUS
 10
159.401867028
 20
30.658327332
 11
159.228429528
 21
30.7228547745
 12
159.922179528
 22
30.7228547745
 13
159.922179528
 23
30.7228547745
  0
SOLID
  8
0
 62
7
  6
CONTINUOUS
 10
159.401867028
 20
30.658327332
 11
160.8471793074
 21
30.6905916353
 12
159.575304528
 22
30.6260629858
 13
159.575304528
 23
30.6260629858
  0
SOLID
  8
0
 62
7
  6
CONTINUOUS
 10
160.8471793074
 20
30.6905916353
 11
160.615929528
 21
30.6260629858
 12
159.575304528
 22
30.6260629858
 13
159.575304528
 23
30.6260629858
  0
SOLID
  8
0
 62
7
  6
CONTINUOUS
 10
159.922179528
 20
30.5938006049
 11
159.575304528
 21
30.6260629858
 12
160.615929528
 22
30.6260629858
 13
160.615929528
 23
30.6260629858
  0
SOLID
  8
0
 62
7
  6
CONTINUOUS
 10
160.615929528
 20
30.6260629858
 11
160.269054528
 21
30.5938006049
 12
159.922179528
 22
30.5938006049
 13
159.922179528
 23
30.5938006049
  0
SOLID
  8
0
 62
7
  6
CONTINUOUS
 10
149.5737418074
 20
31.1100184796
 11
149.9206168074
 21
31.2713369632
 12
149.8628043005
 22
31.1422827828
 13
149.8628043005
 23
31.1422827828
  0
SOLID
  8
0
 62
7
  6
CONTINUOUS
 10
149.8628043005
 20
31.1422827828
 11
149.8628043005
 21
31.0454914852
 12
149.5737418074
 22
31.1100184796
 13
149.5737418074
 23
31.1100184796
  0
SOLID
  8
0
 62
7
  6
CONTINUOUS
 10
149.6315543091
 20
30.9164372091
 11
149.5737418074
 21
31.1100184796
 12
149.8628043005
 22
31.0454914852
 13
149.8628043005
 23
31.0454914852
  0
SOLID
  8
0
 62
7
  6
CONTINUOUS
 10
149.8628043005
 20
31.0454914852
 11
149.9784292936
 21
30.8841729058
 12
149.6315543091
 22
30.9164372091
 13
149.6315543091
 23
30.9164372091
  0
SOLID
  8
0
 62
7
  6
CONTINUOUS
 10
149.7471793074
 20
30.7873813202
 11
149.6315543091
 21
30.9164372091
 12
149.9784292936
 22
30.8841729058
 13
149.9784292936
 23
30.8841729058
  0
SOLID
  8
0
 62
7
  6
CONTINUOUS
 10
149.9784292936
 20
30.8841729058
 11
150.1518667936
 21
30.7873813202
 12
149.7471793074
 22
30.7873813202
 13
149.7471793074
 23
30.7873813202
  0
SOLID
  8
0
 62
7
  6
CONTINUOUS
 10
149.8628043005
 20
30.7228547004
 11
149.7471793074
 21
30.7873813202
 12
150.1518667936
 22
30.7873813202
 13
150.1518667936
 23
30.7873813202
  0
SOLID
  8
0
 62
7
  6
CONTINUOUS
 10
150.1518667936
 20
30.7873813202
 11
150.498741835
 21
30.7228547004
 12
149.8628043005
 22
30.7228547004
 13
149.8628043005
 23
30.7228547004
  0
SOLID
  8
0
 62
7
  6
CONTINUOUS
 10
150.0362418212
 20
30.658327332
 11
149.8628043005
 21
30.7228547004
 12
150.498741835
 22
30.7228547004
 13
150.498741835
 23
30.7228547004
  0
SOLID
  8
0
 62
7
  6
CONTINUOUS
 10
154.0831168074
 20
31.1100184386
 11
154.1987416972
 21
31.1745462761
 12
154.7768668074
 22
31.1422827828
 13
154.7768668074
 23
31.1422827828
  0
SOLID
  8
0
 62
7
  6
CONTINUOUS
 10
154.7768668074
 20
31.1422827828
 11
154.5456166972
 21
31.1100184386
 12
154.0831168074
 22
31.1100184386
 13
154.0831168074
 23
31.1100184386
  0
SOLID
  8
0
 62
7
  6
CONTINUOUS
 10
153.9674919177
 20
30.9809642992
 11
154.0831168074
 21
31.1100184386
 12
154.5456166972
 22
31.1100184386
 13
154.5456166972
 23
31.1100184386
  0
SOLID
  8
0
 62
7
  6
CONTINUOUS
 10
154.3143669177
 20
31.0132277988
 11
153.9674919177
 21
30.9809642992
 12
154.4299918074
 22
31.0777556927
 13
154.4299918074
 23
31.0777556927
  0
SOLID
  8
0
 62
7
  6
CONTINUOUS
 10
153.9674919177
 20
30.9809642992
 11
154.5456166972
 21
31.1100184796
 12
154.4299918074
 22
31.0777556927
 13
154.4299918074
 23
31.0777556927
  0
SOLID
  8
0
 62
7
  6
CONTINUOUS
 10
154.3143669177
 20
31.0132277988
 11
154.2565543074
 21
30.9164372091
 12
153.9674919177
 22
30.9809642992
 13
153.9674919177
 23
30.9809642992
  0
SOLID
  8
0
 62
7
  6
CONTINUOUS
 10
153.9674919177
 20
30.8841729058
 11
153.9674919177
 21
30.9809642992
 12
154.2565543074
 22
30.9164372091
 13
154.2565543074
 23
30.9164372091
  0
SOLID
  8
0
 62
7
  6
CONTINUOUS
 10
154.2565543074
 20
30.9164372091
 11
154.2565543074
 21
30.8519086025
 12
153.9674919177
 22
30.8841729058
 13
153.9674919177
 23
30.8841729058
  0
SOLID
  8
0
 62
7
  6
CONTINUOUS
 10
154.0253041972
 20
30.7551187255
 11
153.9674919177
 21
30.8841729058
 12
154.2565543074
 22
30.8519086025
 13
154.2565543074
 23
30.8519086025
  0
SOLID
  8
0
 62
7
  6
CONTINUOUS
 10
155.412804528
 20
30.9487004259
 11
155.7018665869
 21
30.8519086025
 12
155.3549915869
 22
30.8841729058
 13
155.3549915869
 23
30.8841729058
  0
SOLID
  8
0
 62
7
  6
CONTINUOUS
 10
155.1815540869
 20
30.7873815123
 11
155.3549915869
 21
30.8841729058
 12
155.7018665869
 22
30.8519086025
 13
155.7018665869
 23
30.8519086025
  0
SOLID
  8
0
 62
7
  6
CONTINUOUS
 10
155.1815540869
 20
30.7873815123
 11
155.7018665869
 21
30.8519086025
 12
155.412804528
 22
30.7551187255
 13
155.412804528
 23
30.7551187255
  0
SOLID
  8
0
 62
7
  6
CONTINUOUS
 10
155.7018665869
 20
30.8519086025
 11
155.759679528
 21
30.6905916353
 12
155.412804528
 22
30.7551187255
 13
155.412804528
 23
30.7551187255
  0
SOLID
  8
0
 62
7
  6
CONTINUOUS
 10
155.4706168074
 20
30.658327332
 11
155.412804528
 21
30.7551187255
 12
155.759679528
 22
30.6905916353
 13
155.759679528
 23
30.6905916353
  0
SOLID
  8
0
 62
7
  6
CONTINUOUS
 10
155.4706168074
 20
30.658327332
 11
155.759679528
 21
30.6905916353
 12
155.5284290869
 22
30.5938002079
 13
155.5284290869
 23
30.5938002079
  0
SOLID
  8
0
 62
7
  6
CONTINUOUS
 10
155.759679528
 20
30.6905916353
 11
155.8174918074
 21
30.5938002079
 12
155.5284290869
 22
30.5938002079
 13
155.5284290869
 23
30.5938002079
  0
SOLID
  8
0
 62
7
  6
CONTINUOUS
 10
151.0768668626
 20
30.8196456577
 11
151.1346793074
 21
30.9164373395
 12
151.4237418626
 22
30.9164373395
 13
151.4237418626
 23
30.9164373395
  0
SOLID
  8
0
 62
7
  6
CONTINUOUS
 10
151.4237418626
 20
30.9164373395
 11
151.3659292523
 21
30.7873815123
 12
151.0768668626
 22
30.8196456577
 13
151.0768668626
 23
30.8196456577
  0
SOLID
  8
0
 62
7
  6
CONTINUOUS
 10
150.9034292799
 20
30.7551187255
 11
151.0768668626
 21
30.8196456577
 12
151.3659292523
 22
30.7873815123
 13
151.3659292523
 23
30.7873815123
  0
SOLID
  8
0
 62
7
  6
CONTINUOUS
 10
150.9034292799
 20
30.7551187255
 11
151.3659292523
 21
30.7873815123
 12
150.498741835
 22
30.7228544222
 13
150.498741835
 23
30.7228544222
  0
SOLID
  8
0
 62
7
  6
CONTINUOUS
 10
151.3659292523
 20
30.7873815123
 11
151.1924917523
 21
30.6905916353
 12
150.498741835
 22
30.7228544222
 13
150.498741835
 23
30.7228544222
  0
SOLID
  8
0
 62
7
  6
CONTINUOUS
 10
150.0362418212
 20
30.658327332
 11
150.498741835
 21
30.7228544222
 12
151.1924917523
 22
30.6905916353
 13
151.1924917523
 23
30.6905916353
  0
SOLID
  8
0
 62
7
  6
CONTINUOUS
 10
150.0362418212
 20
30.658327332
 11
151.1924917523
 21
30.6905916353
 12
150.2096793212
 22
30.6260631011
 13
150.2096793212
 23
30.6260631011
  0
SOLID
  8
0
 62
7
  6
CONTINUOUS
 10
151.1924917523
 20
30.6905916353
 11
150.9612418074
 21
30.6260631011
 12
150.2096793212
 22
30.6260631011
 13
150.2096793212
 23
30.6260631011
  0
SOLID
  8
0
 62
7
  6
CONTINUOUS
 10
150.5565542799
 20
30.5938002419
 11
150.2096793212
 21
30.6260631011
 12
150.9612418074
 22
30.6260631011
 13
150.9612418074
 23
30.6260631011
  0
SOLID
  8
0
 62
7
  6
CONTINUOUS
 10
154.0253041972
 20
30.7551187255
 11
154.2565543074
 21
30.8519086025
 12
154.3143669177
 22
30.7873815123
 13
154.3143669177
 23
30.7873815123
  0
SOLID
  8
0
 62
7
  6
CONTINUOUS
 10
154.3143669177
 20
30.7873815123
 11
154.5456166972
 21
30.7228544222
 12
154.0253041972
 22
30.7551187255
 13
154.0253041972
 23
30.7551187255
  0
SOLID
  8
0
 62
7
  6
CONTINUOUS
 10
154.1987416972
 20
30.658327332
 11
154.0253041972
 21
30.7551187255
 12
154.5456166972
 22
30.7228544222
 13
154.5456166972
 23
30.7228544222
  0
SOLID
  8
0
 62
7
  6
CONTINUOUS
 10
154.8924916972
 20
30.7228544637
 11
155.1815540869
 21
30.7873815123
 12
155.412804528
 22
30.7551187255
 13
155.412804528
 23
30.7551187255
  0
SOLID
  8
0
 62
7
  6
CONTINUOUS
 10
155.412804528
 20
30.7551187255
 11
155.3549915869
 21
30.6905916353
 12
154.8924916972
 22
30.7228544637
 13
154.8924916972
 23
30.7228544637
  0
SOLID
  8
0
 62
7
  6
CONTINUOUS
 10
155.3549915869
 20
30.6905916353
 11
154.1987416972
 21
30.658327332
 12
154.8924916972
 22
30.7228544637
 13
154.8924916972
 23
30.7228544637
  0
SOLID
  8
0
 62
7
  6
CONTINUOUS
 10
154.1987416972
 20
30.658327332
 11
154.5456166972
 21
30.7228544637
 12
154.8924916972
 22
30.7228544637
 13
154.8924916972
 23
30.7228544637
  0
SOLID
  8
0
 62
7
  6
CONTINUOUS
 10
154.1987416972
 20
30.658327332
 11
155.3549915869
 21
30.6905916353
 12
154.3143669177
 22
30.6260630541
 13
154.3143669177
 23
30.6260630541
  0
SOLID
  8
0
 62
7
  6
CONTINUOUS
 10
155.3549915869
 20
30.6905916353
 11
155.1815540869
 21
30.6260630541
 12
154.3143669177
 22
30.6260630541
 13
154.3143669177
 23
30.6260630541
  0
SOLID
  8
0
 62
7
  6
CONTINUOUS
 10
154.5456166972
 20
30.5938002188
 11
154.3143669177
 21
30.6260630541
 12
155.1815540869
 22
30.6260630541
 13
155.1815540869
 23
30.6260630541
  0
SOLID
  8
0
 62
7
  6
CONTINUOUS
 10
155.1815540869
 20
30.6260630541
 11
154.8924916972
 21
30.5938002188
 12
154.5456166972
 22
30.5938002188
 13
154.5456166972
 23
30.5938002188
  0
SOLID
  8
0
 62
7
  6
CONTINUOUS
 10
159.575304528
 20
30.7551187255
 11
159.228429528
 21
30.7228544637
 12
159.4596793074
 22
30.7873815123
 13
159.4596793074
 23
30.7873815123
  0
SOLID
  8
0
 62
7
  6
CONTINUOUS
 10
159.4596793074
 20
30.7873815123
 11
159.228429528
 21
30.7228544637
 12
159.401867028
 22
30.851908644
 13
159.401867028
 23
30.851908644
  0
SOLID
  8
0
 62
7
  6
CONTINUOUS
 10
159.228429528
 20
30.7228544637
 11
159.1128043074
 21
30.851908644
 12
159.401867028
 22
30.851908644
 13
159.401867028
 23
30.851908644
  0
SOLID
  8
0
 62
7
  6
CONTINUOUS
 10
159.575304528
 20
30.7551187255
 11
159.922179528
 21
30.7228544637
 12
159.228429528
 22
30.7228544637
 13
159.228429528
 23
30.7228544637
  0
SOLID
  8
0
 62
7
  6
CONTINUOUS
 10
156.279992028
 20
30.5938002419
 11
156.279992028
 21
31.6262382337
 12
156.5690540869
 22
30.5938002419
 13
156.5690540869
 23
31.6262382337
  0
ENDBLK
  8
0
  6
BYBLOCK
 62
0
  0
BLOCK
  8
0
 62
2
  6
CONTINUOUS
  2
SYMBOL_3_BL0
 70
64
 10
32.1213064866
 20
19.8534310916
  0
TEXT
  8
0
 62
7
  6
CONTINUOUS
 10
18.3860103289
 20
19.2268451992
  7
TEXTSTYLE_3
 40
2.7338706658
  1
Ammeraal Beltech
 41
1.0
 51
15.0
 72
0
  0
TEXT
  8
0
 62
7
  6
CONTINUOUS
 10
29.1868111546
 20
16.9533085264
  7
TEXTSTYLE_4
 40
1.0935482663
  1
Innovation & Service in Belting
 41
1.0
 72
0
  0
LINE
  8
0
 62
7
  6
CONTINUOUS
 10
12.3614696776
 20
19.9934385078
 11
13.1396216709
 21
23.6543558055
  0
LINE
  8
0
 62
7
  6
CONTINUOUS
 10
23.2347899607
 20
27.3177497171
 11
13.6274394139
 21
24.1961322958
  0
LINE
  8
0
 62
7
  6
CONTINUOUS
 10
12.5867530099
 20
19.3000877048
 11
20.093828271
 21
12.5406867788
  0
LINE
  8
0
 62
7
  6
CONTINUOUS
 10
12.8492874206
 20
20.5352149982
 11
23.6575567857
 21
24.0470345971
  0
LINE
  8
0
 62
7
  6
CONTINUOUS
 10
23.6533516486
 20
13.6972460334
 11
15.2078919798
 21
21.3015720751
  0
LINE
  8
0
 62
7
  6
CONTINUOUS
 10
24.1731743684
 20
26.4728246013
 11
23.1966148312
 21
21.8784731989
  0
LINE
  8
0
 62
7
  6
CONTINUOUS
 10
22.4968128835
 20
18.5861638851
 11
21.810364672
 21
15.3566789607
  0
LINE
  8
0
 62
7
  6
CONTINUOUS
 10
24.8542704669
 20
14.087448211
 11
25.8105020025
 21
18.5861638851
  0
LINE
  8
0
 62
7
  6
CONTINUOUS
 10
26.5103039502
 20
21.8784731989
 11
26.9545457526
 21
23.9684665583
  0
LINE
  8
0
 62
7
  6
CONTINUOUS
 10
20.8069293463
 20
12.3891124661
 11
24.3664527239
 21
13.5456717207
  0
LINE
  8
0
 62
7
  6
CONTINUOUS
 10
23.9478910361
 20
27.1661754044
 11
26.7292624203
 21
24.6618173613
  0
ARC
  8
0
 62
7
  6
CONTINUOUS
 10
13.8527227462
 20
23.5027814928
 40
0.7290321776
 50
108.0
 51
168.0
  0
ARC
  8
0
 62
7
  6
CONTINUOUS
 10
23.4600732931
 20
26.624398914
 40
0.7290321776
 50
348.0
 51
108.0
  0
ARC
  8
0
 62
7
  6
CONTINUOUS
 10
26.2414446773
 20
24.120040871
 40
0.7290321776
 50
348.0
 51
48.0
  0
ARC
  8
0
 62
7
  6
CONTINUOUS
 10
20.581646014
 20
13.0824632691
 40
0.7290321776
 50
228.0
 51
288.0
  0
ARC
  8
0
 62
7
  6
CONTINUOUS
 10
13.0745707529
 20
19.8418641951
 40
0.7290321776
 50
108.0
 51
228.0
  0
ARC
  8
0
 62
7
  6
CONTINUOUS
 10
24.1411693916
 20
14.2390225237
 40
0.7290321776
 50
228.0
 51
348.0
  0
ENDBLK
  8
0
  6
BYBLOCK
 62
0
  0
ENDSEC
  0
SECTION
  2
ENTITIES
  0
TEXT
  8
0
 62
5
  6
CONTINUOUS
 10
96.0
 20
25.636
  7
TEXTSTYLE_2
 40
2.8
  1
Scale :
 41
0.6
 51
0.000019
 72
0
  0
TEXT
  8
0
 62
5
  6
CONTINUOUS
 10
116.0
 20
25.636
  7
TEXTSTYLE_2
 40
2.8
  1
Belt type:
 41
0.6
 51
0.000019
 72
0
  0
INSERT
  8
0
 62
2
  6
CONTINUOUS
  2
SYMBOL_3_BL0
 10
32.1213064866
 20
19.8534310916
  0
INSERT
  8
0
 62
2
  6
CONTINUOUS
  2
SYMBOL_8_BL1
 10
173.5956734183
 20
35.5937998301
  0
LINE
  8
0
 62
2
  6
CONTINUOUS
 10
10.0
 20
30.0
 11
200.0
 21
30.0
  0
LINE
  8
0
 62
2
  6
CONTINUOUS
 10
10.0
 20
30.0
 11
10.0
 21
10.0
  0
LINE
  8
0
 62
2
  6
CONTINUOUS
 10
10.0
 20
10.0
 11
200.0
 21
10.0
  0
LINE
  8
0
 62
2
  6
CONTINUOUS
 10
95.0
 20
30.0
 11
95.0
 21
10.0
  0
LINE
  8
0
 62
2
  6
CONTINUOUS
 10
115.0
 20
30.0
 11
115.0
 21
10.0
  0
LINE
  8
0
 62
2
  6
CONTINUOUS
 10
200.0
 20
30.0
 11
200.0
 21
10.0
  0
TEXT
  8
0
 62
5
  6
CONTINUOUS
 10
13.0
 20
23.303
  7
TEXTSTYLE_5
 40
1.52
  1
                                                                     Ammeraal Beltech Modular A/S
 41
1.0
 72
0
  0
TEXT
  8
0
 62
5
  6
CONTINUOUS
 10
13.0
 20
20.595
  7
TEXTSTYLE_5
 40
1.5
  1
                                                                      Hjulmagervej 21,  7100 Vejle,  DK
 41
1.0
 72
0
  0
TEXT
  8
0
 62
5
  6
CONTINUOUS
 10
13.0
 20
17.881
  7
TEXTSTYLE_5
 40
1.495
  1
                                                                      tel: 
 41
1.0
 72
0
  0
TEXT
  8
0
 62
5
  6
CONTINUOUS
 10
57.9869465649
 20
17.881
  7
TEXTSTYLE_5
 40
1.51
  1
+45 75723100     fax: +45 75723348
 41
1.0
 72
0
  0
TEXT
  8
0
 62
5
  6
CONTINUOUS
 10
13.0
 20
15.177
  7
TEXTSTYLE_5
 40
1.5
  1
                                                                      admin@unichains.dk  www.unichains.com
 41
1.0
 72
0
  0
TEXT
  8
0
 62
5
  6
CONTINUOUS
 10
99.75
 20
13.75
  7
TEXTSTYLE_6
 40
5.0
  1
1:1
 41
0.7
 72
1
 11
105.0
 21
13.75
  0
TEXT
  8
0
 62
5
  6
CONTINUOUS
 10
118.0
 20
13.75
  7
TEXTSTYLE_7
 40
7.5
  1
Sprocket Z12
 41
0.6361111111
 72
0
  0
LINE
  8
0
 62
7
  6
CONTINUOUS
 10
210.0
 20
0.0
 11
0.0
 21
0.0
  0
LINE
  8
0
 62
7
  6
CONTINUOUS
 10
10.0
 20
10.0
 11
200.0
 21
10.0
  0
LINE
  8
0
 62
7
  6
CONTINUOUS
 10
10.0
 20
30.0
 11
200.0
 21
30.0
  0
LINE
  8
0
 62
7
  6
CONTINUOUS
 10
0.0
 20
0.0
 11
0.0
 21
297.0
  0
LINE
  8
0
 62
7
  6
CONTINUOUS
 10
10.0
 20
10.0
 11
10.0
 21
287.0
  0
LINE
  8
0
 62
7
  6
CONTINUOUS
 10
200.0
 20
287.0
 11
200.0
 21
10.0
  0
LINE
  8
0
 62
7
  6
CONTINUOUS
 10
210.0
 20
0.0
 11
210.0
 21
297.0
  0
LINE
  8
0
 62
7
  6
CONTINUOUS
 10
10.0
 20
287.0
 11
200.0
 21
287.0
  0
LINE
  8
0
 62
7
  6
CONTINUOUS
 10
0.0
 20
297.0
 11
210.0
 21
297.0
  0
LINE
  8
0
 62
7
  6
CONTINUOUS
 10
54.9407818225
 20
244.5200857046
 11
53.3866849625
 21
241.8283109834
  0
LINE
  8
0
 62
7
  6
CONTINUOUS
 10
77.2354484175
 20
251.0614015774
 11
77.0587111352
 21
250.8734173903
  0
LINE
  8
0
 62
7
  6
CONTINUOUS
 10
71.3757405481
 20
245.1655104429
 11
71.1584433859
 21
244.9409258695
  0
LINE
  8
0
 62
7
  6
CONTINUOUS
 10
70.2892549394
 20
244.042587785
 11
70.0719578239
 21
243.8180032599
  0
LINE
  8
0
 62
7
  6
CONTINUOUS
 10
72.751526872
 20
246.448741597
 11
72.5665222913
 21
246.2805947424
  0
LINE
  8
0
 62
7
  6
CONTINUOUS
 10
72.150262183
 20
245.9022645
 11
71.9190065232
 21
245.6920809919
  0
LINE
  8
0
 62
7
  6
CONTINUOUS
 10
73.2901486795
 20
248.1770816063
 11
73.050395177
 21
247.9766459969
  0
LINE
  8
0
 62
7
  6
CONTINUOUS
 10
73.2550954274
 20
247.7317912918
 11
73.49484893
 21
247.9322269012
  0
LINE
  8
0
 62
7
  6
CONTINUOUS
 10
73.9042495457
 20
247.4425173537
 11
73.6644960431
 21
247.2420817443
  0
LINE
  8
0
 62
7
  6
CONTINUOUS
 10
77.499173783
 20
251.2290480226
 11
77.2354484175
 21
251.0614015774
  0
LINE
  8
0
 62
7
  6
CONTINUOUS
 10
77.4409043053
 20
250.7381980103
 11
77.7573745025
 21
250.939373591
  0
LINE
  8
0
 62
7
  6
CONTINUOUS
 10
78.2450579395
 20
250.8712128659
 11
78.5615281367
 21
251.0723884466
  0
LINE
  8
0
 62
7
  6
CONTINUOUS
 10
78.2367716699
 20
250.1852317835
 11
77.9203014727
 21
249.9840562028
  0
LINE
  8
0
 62
7
  6
CONTINUOUS
 10
78.1257573604
 20
249.6608526357
 11
78.4422275576
 21
249.8620282164
  0
LINE
  8
0
 62
7
  6
CONTINUOUS
 10
81.1865217437
 20
253.3106796616
 11
80.8552417498
 21
253.1349566818
  0
LINE
  8
0
 62
7
  6
CONTINUOUS
 10
79.4749086524
 20
252.402777711
 11
78.9779886615
 21
252.1391932413
  0
LINE
  8
0
 62
7
  6
CONTINUOUS
 10
83.2281587702
 20
254.2234994494
 11
81.8519709743
 21
253.6267523083
  0
LINE
  8
0
 62
7
  6
CONTINUOUS
 10
82.3483788773
 20
253.4245720386
 11
83.4378613199
 21
253.8969970484
  0
LINE
  8
0
 62
7
  6
CONTINUOUS
 10
83.7933702837
 20
253.0771404228
 11
82.7038878411
 21
252.6047154131
  0
LINE
  8
0
 62
7
  6
CONTINUOUS
 10
82.8562487952
 20
252.2533483581
 11
83.9457312377
 21
252.7257733678
  0
LINE
  8
0
 62
7
  6
CONTINUOUS
 10
90.4403477905
 20
256.1102316606
 11
90.7336588963
 21
256.2355264648
  0
LINE
  8
0
 62
7
  6
CONTINUOUS
 10
77.7971411929
 20
251.3428268229
 11
77.499173783
 21
251.2290480226
  0
LINE
  8
0
 62
7
  6
CONTINUOUS
 10
85.9767551659
 20
253.5815803942
 11
85.1553029962
 21
253.2801786658
  0
LINE
  8
0
 62
7
  6
CONTINUOUS
 10
90.7307844409
 20
256.5607249677
 11
90.3150196686
 21
256.4103236309
  0
LINE
  8
0
 62
7
  6
CONTINUOUS
 10
88.9538277647
 20
256.1800192425
 11
88.4142854527
 21
256.0209584252
  0
LINE
  8
0
 62
7
  6
CONTINUOUS
 10
86.6158110794
 20
255.4907557011
 11
86.0762687674
 21
255.3316948839
  0
LINE
  8
0
 62
7
  6
CONTINUOUS
 10
72.1797060284
 20
243.5179709062
 11
72.0517409689
 21
243.2939192216
  0
LINE
  8
0
 62
7
  6
CONTINUOUS
 10
72.2352313029
 20
243.1163828563
 11
72.3631963745
 21
243.3404345292
  0
LINE
  8
0
 62
7
  6
CONTINUOUS
 10
77.0587111352
 20
250.8734173903
 11
76.9162158973
 21
250.6315655583
  0
LINE
  8
0
 62
7
  6
CONTINUOUS
 10
72.5665222913
 20
246.2805947424
 11
72.4244487967
 21
246.0652127039
  0
LINE
  8
0
 62
7
  6
CONTINUOUS
 10
72.5961731416
 20
245.8762719681
 11
72.7382466361
 21
246.0916540066
  0
LINE
  8
0
 62
7
  6
CONTINUOUS
 10
77.3169118547
 20
250.5837429587
 11
77.4409043053
 21
250.7381980103
  0
LINE
  8
0
 62
7
  6
CONTINUOUS
 10
84.2135977097
 20
253.0506436806
 11
84.3028860962
 21
253.1589335951
  0
LINE
  8
0
 62
7
  6
CONTINUOUS
 10
79.1326046313
 20
249.2420033726
 11
78.955867349
 21
249.0540191855
  0
LINE
  8
0
 62
7
  6
CONTINUOUS
 10
72.0517409689
 20
243.2939192216
 11
71.8779032516
 21
243.1142515758
  0
LINE
  8
0
 62
7
  6
CONTINUOUS
 10
72.0613935856
 20
242.9367152105
 11
72.2352313029
 21
243.1163828563
  0
LINE
  8
0
 62
7
  6
CONTINUOUS
 10
72.7132849477
 20
243.610468802
 11
72.9305821098
 21
243.8350533753
  0
LINE
  8
0
 62
7
  6
CONTINUOUS
 10
79.1613232607
 20
248.7308155806
 11
79.3908059753
 21
248.9523292917
  0
LINE
  8
0
 62
7
  6
CONTINUOUS
 10
73.2928014024
 20
244.180554973
 11
73.5240570622
 21
244.3907384811
  0
LINE
  8
0
 62
7
  6
CONTINUOUS
 10
74.3565772787
 20
245.1473989659
 11
74.5878328061
 21
245.3575823537
  0
LINE
  8
0
 62
7
  6
CONTINUOUS
 10
83.9400002659
 20
253.2102949912
 11
83.7933702837
 21
253.0771404228
  0
LINE
  8
0
 62
7
  6
CONTINUOUS
 10
84.4732636583
 20
251.9805101759
 11
84.3266336761
 21
251.8473556074
  0
LINE
  8
0
 62
7
  6
CONTINUOUS
 10
74.9745777609
 20
245.6750114943
 11
75.2143312635
 21
245.8754471037
  0
LINE
  8
0
 62
7
  6
CONTINUOUS
 10
90.3150196686
 20
256.4103236309
 11
90.0957542524
 21
256.2350527584
  0
LINE
  8
0
 62
7
  6
CONTINUOUS
 10
84.4216530523
 20
251.4711238576
 11
84.6829662235
 21
251.654007739
  0
LINE
  8
0
 62
7
  6
CONTINUOUS
 10
77.8722484647
 20
248.8946219641
 11
77.5557782675
 21
248.6934463833
  0
LINE
  8
0
 62
7
  6
CONTINUOUS
 10
78.955867349
 20
249.0540191855
 11
78.5339068849
 21
248.7857849499
  0
LINE
  8
0
 62
7
  6
CONTINUOUS
 10
78.7393627966
 20
248.4625813451
 11
79.1613232607
 21
248.7308155806
  0
LINE
  8
0
 62
7
  6
CONTINUOUS
 10
71.8416833159
 20
242.8014316881
 11
72.0613935856
 21
242.9367152105
  0
LINE
  8
0
 62
7
  6
CONTINUOUS
 10
72.7382466361
 20
246.0916540066
 11
72.9661823031
 21
246.2125656772
  0
LINE
  8
0
 62
7
  6
CONTINUOUS
 10
80.3837724999
 20
249.48895329
 11
80.7150524938
 21
249.6646762698
  0
LINE
  8
0
 62
7
  6
CONTINUOUS
 10
82.0953855912
 20
250.3968552405
 11
82.5923055821
 21
250.6604397102
  0
LINE
  8
0
 62
7
  6
CONTINUOUS
 10
72.9332113277
 20
246.5276164938
 11
72.751526872
 21
246.448741597
  0
LINE
  8
0
 62
7
  6
CONTINUOUS
 10
84.3266336761
 20
251.8473556074
 11
83.2371512336
 21
251.3749305977
  0
LINE
  8
0
 62
7
  6
CONTINUOUS
 10
83.0454652564
 20
250.8743767165
 11
84.4216530523
 21
251.4711238576
  0
LINE
  8
0
 62
7
  6
CONTINUOUS
 10
78.5347396834
 20
250.2990109676
 11
78.2367716699
 21
250.1852317835
  0
LINE
  8
0
 62
7
  6
CONTINUOUS
 10
78.4413953837
 20
248.3488025495
 11
78.7393627966
 21
248.4625813451
  0
LINE
  8
0
 62
7
  6
CONTINUOUS
 10
85.2652366552
 20
252.9805611315
 11
86.0866888249
 21
253.2819628599
  0
LINE
  8
0
 62
7
  6
CONTINUOUS
 10
78.4422275576
 20
249.8620282164
 11
78.6874501358
 21
249.9422778812
  0
LINE
  8
0
 62
7
  6
CONTINUOUS
 10
77.8805347822
 20
249.5806029709
 11
78.1257573604
 21
249.6608526357
  0
LINE
  8
0
 62
7
  6
CONTINUOUS
 10
78.5339068849
 20
248.7857849499
 11
78.2886843067
 21
248.7055352852
  0
LINE
  8
0
 62
7
  6
CONTINUOUS
 10
86.924593126
 20
252.4541358866
 11
87.2842880007
 21
252.5601764314
  0
LINE
  8
0
 62
7
  6
CONTINUOUS
 10
88.1235755842
 20
252.8076042345
 11
88.6031696651
 21
252.9489918973
  0
LINE
  8
0
 62
7
  6
CONTINUOUS
 10
89.4424572486
 20
253.1964197004
 11
89.8021521233
 21
253.3024602452
  0
LINE
  8
0
 62
7
  6
CONTINUOUS
 10
72.2183391419
 20
243.7414897994
 11
72.1797060284
 21
243.5179709062
  0
LINE
  8
0
 62
7
  6
CONTINUOUS
 10
72.4244487967
 20
246.0652127039
 11
72.3715577321
 21
245.8446323754
  0
LINE
  8
0
 62
7
  6
CONTINUOUS
 10
72.5432820769
 20
245.6556916396
 11
72.5961731416
 21
245.8762719681
  0
LINE
  8
0
 62
7
  6
CONTINUOUS
 10
72.3631963745
 20
243.3404345292
 11
72.4042426807
 21
243.4746524756
  0
LINE
  8
0
 62
7
  6
CONTINUOUS
 10
77.227162052
 20
250.375420646
 11
77.3169118547
 21
250.5837429587
  0
LINE
  8
0
 62
7
  6
CONTINUOUS
 10
79.22235441
 20
249.4503257231
 11
79.1326046313
 21
249.2420033726
  0
LINE
  8
0
 62
7
  6
CONTINUOUS
 10
84.6829662235
 20
251.654007739
 11
84.8361494975
 21
251.9291487593
  0
LINE
  8
0
 62
7
  6
CONTINUOUS
 10
79.3908059753
 20
248.9523292917
 11
79.5333006006
 21
249.1941807542
  0
LINE
  8
0
 62
7
  6
CONTINUOUS
 10
90.2823092076
 20
255.9475140544
 11
90.4403477905
 21
256.1102316606
  0
LINE
  8
0
 62
7
  6
CONTINUOUS
 10
71.8779032516
 20
243.1142515758
 11
71.6123203904
 21
243.0233521525
  0
LINE
  8
0
 62
7
  6
CONTINUOUS
 10
72.4042426807
 20
243.4746524756
 11
72.3970031284
 21
243.7425554152
  0
LINE
  8
0
 62
7
  6
CONTINUOUS
 10
72.3715577321
 20
245.8446323754
 11
72.3649176141
 21
245.6660885802
  0
LINE
  8
0
 62
7
  6
CONTINUOUS
 10
72.536641959
 20
245.4771478444
 11
72.5432820769
 21
245.6556916396
  0
LINE
  8
0
 62
7
  6
CONTINUOUS
 10
76.9162158973
 20
250.6315655583
 11
76.8422065589
 21
250.2819795876
  0
LINE
  8
0
 62
7
  6
CONTINUOUS
 10
79.5333006006
 20
249.1941807542
 11
79.6073099271
 21
249.5437667437
  0
LINE
  8
0
 62
7
  6
CONTINUOUS
 10
84.00389516
 20
253.3771460816
 11
83.9400002659
 21
253.2102949912
  0
LINE
  8
0
 62
7
  6
CONTINUOUS
 10
84.5371585347
 20
252.1473613073
 11
84.4732636583
 21
251.9805101759
  0
LINE
  8
0
 62
7
  6
CONTINUOUS
 10
90.0957542524
 20
256.2350527584
 11
89.9021307531
 21
255.9347240785
  0
LINE
  8
0
 62
7
  6
CONTINUOUS
 10
91.6222184187
 20
255.6358157682
 11
90.2283861703
 21
253.7211005832
  0
LINE
  8
0
 62
7
  6
CONTINUOUS
 10
90.7181980336
 20
253.821526139
 11
91.9668119568
 21
255.5109946705
  0
LINE
  8
0
 62
7
  6
CONTINUOUS
 10
115.1143698054
 20
253.9218172786
 11
114.5899249627
 21
253.6664344198
  0
LINE
  8
0
 62
7
  6
CONTINUOUS
 10
114.3819887859
 20
253.2000503098
 11
114.9064337014
 21
253.4554333319
  0
LINE
  8
0
 62
7
  6
CONTINUOUS
 10
111.245446179
 20
252.658944844
 11
114.0012509259
 21
253.9360497683
  0
LINE
  8
0
 62
7
  6
CONTINUOUS
 10
113.7542045367
 20
254.1660973518
 11
110.9399504605
 21
252.9111240047
  0
LINE
  8
0
 62
7
  6
CONTINUOUS
 10
116.3095862665
 20
253.159979368
 11
115.970671875
 21
253.0467344534
  0
LINE
  8
0
 62
7
  6
CONTINUOUS
 10
79.225116733
 20
249.6789861614
 11
79.22235441
 21
249.4503257231
  0
LINE
  8
0
 62
7
  6
CONTINUOUS
 10
84.3028860962
 20
253.1589335951
 11
84.3733356014
 21
253.467771691
  0
LINE
  8
0
 62
7
  6
CONTINUOUS
 10
84.8361494975
 20
251.9291487593
 11
84.9065989938
 21
252.2379868757
  0
LINE
  8
0
 62
7
  6
CONTINUOUS
 10
90.1983163143
 20
255.7348203798
 11
90.2823092076
 21
255.9475140544
  0
LINE
  8
0
 62
7
  6
CONTINUOUS
 10
91.9668119568
 20
255.5109946705
 11
92.0508020474
 21
255.7236877704
  0
LINE
  8
DEFAULT_3
 62
2
  6
PHANTOM
 10
77.950241771
 20
227.0596187708
 11
89.1548247099
 21
238.2642017097
  0
LINE
  8
DEFAULT_3
 62
2
  6
PHANTOM
 10
94.6937350316
 20
241.5403703316
 11
93.2795214692
 21
240.1261567692
  0
LINE
  8
DEFAULT_3
 62
2
  6
PHANTOM
 10
74.6740731491
 20
221.5207084491
 11
76.0882867115
 21
222.9349220115
  0
LINE
  8
0
 62
7
  6
CONTINUOUS
 10
116.0767561865
 20
252.705510928
 11
116.2753184154
 21
252.8189412881
  0
LINE
  8
0
 62
7
  6
CONTINUOUS
 10
117.3166986171
 20
251.4248030274
 11
117.5152582996
 21
251.538234692
  0
LINE
  8
0
 62
7
  6
CONTINUOUS
 10
122.287578535
 20
248.0479698118
 11
122.5894747874
 21
248.1439008028
  0
LINE
  8
DEFAULT_3
 62
2
  6
PHANTOM
 10
77.950241771
 20
207.7171887625
 11
89.1548247099
 21
196.5126058235
  0
LINE
  8
DEFAULT_3
 62
2
  6
PHANTOM
 10
93.2795214692
 20
194.650650764
 11
94.6937350316
 21
193.2364372016
  0
LINE
  8
DEFAULT_3
 62
2
  6
PHANTOM
 10
76.0882867115
 20
211.8418855218
 11
74.6740731491
 21
213.2560990842
  0
LINE
  8
0
 62
7
  6
CONTINUOUS
 10
72.1676401988
 20
243.9644758836
 11
72.2183391419
 21
243.7414897994
  0
LINE
  8
0
 62
7
  6
CONTINUOUS
 10
91.6933896529
 20
255.9110382028
 11
91.6222184187
 21
255.6358157682
  0
LINE
  8
0
 62
7
  6
CONTINUOUS
 10
117.3535497868
 20
251.9079552176
 11
117.1258863442
 21
251.737714998
  0
LINE
  8
0
 62
7
  6
CONTINUOUS
 10
126.1020746941
 20
245.9594820533
 11
125.7879395966
 21
245.8223697016
  0
LINE
  8
0
 62
7
  6
CONTINUOUS
 10
79.6073099271
 20
249.5437667437
 11
79.5758295782
 21
249.826294481
  0
LINE
  8
0
 62
7
  6
CONTINUOUS
 10
83.9850562787
 20
253.577694263
 11
84.00389516
 21
253.3771460816
  0
LINE
  8
0
 62
7
  6
CONTINUOUS
 10
84.3733356014
 20
253.467771691
 11
84.35449672
 21
253.6683198724
  0
LINE
  8
0
 62
7
  6
CONTINUOUS
 10
84.5183196533
 20
252.3479094886
 11
84.5371585347
 21
252.1473613073
  0
LINE
  8
0
 62
7
  6
CONTINUOUS
 10
84.9065989938
 20
252.2379868757
 11
84.8877600946
 21
252.4385350981
  0
LINE
  8
0
 62
7
  6
CONTINUOUS
 10
89.9021307531
 20
255.9347240785
 11
89.8921849508
 21
255.6720546229
  0
LINE
  8
0
 62
7
  6
CONTINUOUS
 10
88.4142854527
 20
256.0209584252
 11
88.2731253506
 21
253.1844213699
  0
LINE
  8
0
 62
7
  6
CONTINUOUS
 10
88.6031696651
 20
252.9489918973
 11
88.7746274129
 21
255.4617321755
  0
LINE
  8
0
 62
7
  6
CONTINUOUS
 10
115.970671875
 20
253.0467344534
 11
115.7986300874
 21
252.8479985381
  0
LINE
  8
0
 62
7
  6
CONTINUOUS
 10
122.4872702895
 20
248.5342815795
 11
122.3239875418
 21
248.4163265049
  0
LINE
  8
0
 62
7
  6
CONTINUOUS
 10
122.5894747874
 20
248.1439008028
 11
122.7527575352
 21
248.2618558774
  0
LINE
  8
0
 62
7
  6
CONTINUOUS
 10
123.1317798634
 20
246.6316058884
 11
124.6800805048
 21
247.5746296514
  0
LINE
  8
0
 62
7
  6
CONTINUOUS
 10
122.2300885116
 20
246.059227378
 11
122.9182235592
 21
246.478347787
  0
LINE
  8
0
 62
7
  6
CONTINUOUS
 10
124.6562890403
 20
247.9311724569
 11
121.945274666
 21
246.3031660451
  0
LINE
  8
0
 62
7
  6
CONTINUOUS
 10
125.9636279478
 20
245.5561688339
 11
126.143277252
 21
245.6472778416
  0
LINE
  8
0
 62
7
  6
CONTINUOUS
 10
125.2410784347
 20
244.8344153994
 11
125.4207276757
 21
244.925524344
  0
LINE
  8
0
 62
7
  6
CONTINUOUS
 10
126.2098469592
 20
243.5936221357
 11
126.0301977815
 21
243.5025132543
  0
LINE
  8
0
 62
7
  6
CONTINUOUS
 10
126.0714003077
 20
243.190309011
 11
126.3855353103
 21
243.327421268
  0
LINE
  8
0
 62
7
  6
CONTINUOUS
 10
76.8422065589
 20
250.2819795876
 11
76.9264323191
 21
250.0329814073
  0
LINE
  8
0
 62
7
  6
CONTINUOUS
 10
77.2771452601
 20
250.180289576
 11
77.227162052
 21
250.375420646
  0
LINE
  8
0
 62
7
  6
CONTINUOUS
 10
92.0508020474
 20
255.7236877704
 11
92.060749251
 21
255.9863575133
  0
LINE
  8
0
 62
7
  6
CONTINUOUS
 10
117.5152582996
 20
251.538234692
 11
117.6873000872
 21
251.7369706073
  0
LINE
  8
0
 62
7
  6
CONTINUOUS
 10
125.7879395966
 20
245.8223697016
 11
125.4276530565
 21
245.5508224774
  0
LINE
  8
0
 62
7
  6
CONTINUOUS
 10
125.6485047921
 20
245.3297271471
 11
125.9636279478
 21
245.5561688339
  0
LINE
  8
0
 62
7
  6
CONTINUOUS
 10
96.363000704
 20
170.4122263538
 11
96.4965270525
 21
166.5885320205
  0
LINE
  8
AXES
 62
2
  6
CONTINUOUS
 10
98.8260397141
 20
218.2684037666
 11
98.8260397141
 21
216.5084037666
  0
LINE
  8
AXES
 62
2
  6
CENTER
 10
98.8260397141
 20
212.9884037666
 11
98.8260397141
 21
163.7934037666
  0
LINE
  8
AXES
 62
2
  6
CENTER
 10
98.8260397141
 20
221.7884037666
 11
98.8260397141
 21
270.9834037666
  0
LINE
  8
0
 62
7
  6
CONTINUOUS
 10
96.4965270525
 20
268.1882755128
 11
96.3630007029
 21
264.3645811458
  0
LINE
  8
0
 62
7
  6
CONTINUOUS
 10
111.8214599272
 20
255.2391838889
 11
111.7084459072
 21
254.9407147105
  0
LINE
  8
0
 62
7
  6
CONTINUOUS
 10
110.9399504605
 20
252.9111240047
 11
110.7591280127
 21
252.4335732774
  0
LINE
  8
0
 62
7
  6
CONTINUOUS
 10
114.5899249627
 20
253.6664344198
 11
114.3819887859
 21
253.2000503098
  0
LINE
  8
0
 62
7
  6
CONTINUOUS
 10
114.9064337014
 20
253.4554333319
 11
113.8927450486
 21
251.1818112652
  0
LINE
  8
0
 62
7
  6
CONTINUOUS
 10
114.2352458002
 20
251.0291081706
 11
115.4568705571
 21
253.769114184
  0
LINE
  8
0
 62
7
  6
CONTINUOUS
 10
114.8407891838
 20
251.1154300547
 11
114.6952703635
 21
250.8313872399
  0
LINE
  8
0
 62
7
  6
CONTINUOUS
 10
73.2048966544
 20
177.9373602594
 11
71.4086866976
 21
174.5591806563
  0
LINE
  8
0
 62
7
  6
CONTINUOUS
 10
122.2085584438
 20
262.5471395386
 11
120.1810740494
 21
259.3024862552
  0
LINE
  8
0
 62
7
  6
CONTINUOUS
 10
121.4476250976
 20
250.3975054055
 11
119.6809196447
 21
247.9728916542
  0
LINE
  8
0
 62
7
  6
CONTINUOUS
 10
119.9839963636
 20
247.7520534726
 11
120.773375407
 21
248.8353915471
  0
LINE
  8
0
 62
7
  6
CONTINUOUS
 10
120.9989122464
 20
249.1449166699
 11
121.5627544503
 21
249.9187296215
  0
LINE
  8
0
 62
7
  6
CONTINUOUS
 10
125.4276530565
 20
245.5508224774
 11
125.1115376722
 21
245.2350553774
  0
LINE
  8
0
 62
7
  6
CONTINUOUS
 10
125.5581861108
 20
245.2395079756
 11
125.6485047921
 21
245.3297271471
  0
LINE
  8
0
 62
7
  6
CONTINUOUS
 10
125.1056004129
 20
244.6990866423
 11
125.2410784347
 21
244.8344153994
  0
LINE
  8
0
 62
7
  6
CONTINUOUS
 10
56.9119571968
 20
196.0333694134
 11
53.6673039421
 21
194.0058850369
  0
LINE
  8
0
 62
7
  6
CONTINUOUS
 10
141.6552628244
 20
244.8057567831
 11
138.2770831915
 21
243.0095468104
  0
LINE
  8
0
 62
7
  6
CONTINUOUS
 10
145.8022171269
 20
214.9253647566
 11
149.6259114602
 21
215.058891105
  0
LINE
  8
AXES
 62
2
  6
CONTINUOUS
 10
99.7060397141
 20
217.3884037666
 11
97.9460397141
 21
217.3884037666
  0
LINE
  8
AXES
 62
2
  6
CENTER
 10
94.4260397141
 20
217.3884037666
 11
45.2310397141
 21
217.3884037666
  0
LINE
  8
AXES
 62
2
  6
CENTER
 10
103.2260397141
 20
217.3884037666
 11
152.4210397141
 21
217.3884037666
  0
LINE
  8
0
 62
7
  6
CONTINUOUS
 10
48.0261679679
 20
215.058891105
 11
51.8498623349
 21
214.9253647554
  0
LINE
  8
0
 62
7
  6
CONTINUOUS
 10
138.2770832213
 20
191.767260707
 11
141.6552628244
 21
189.9710507501
  0
LINE
  8
0
 62
7
  6
CONTINUOUS
 10
53.6673039421
 20
240.7709224963
 11
56.9119572255
 21
238.743438102
  0
LINE
  8
0
 62
7
  6
CONTINUOUS
 10
70.0719578239
 20
243.8180032599
 11
70.9894094779
 21
242.9303214488
  0
LINE
  8
0
 62
7
  6
CONTINUOUS
 10
71.2067065934
 20
243.1549059739
 11
70.2892549394
 21
244.042587785
  0
LINE
  8
0
 62
7
  6
CONTINUOUS
 10
71.1584433859
 20
244.9409258695
 11
72.1676401988
 21
243.9644758836
  0
LINE
  8
0
 62
7
  6
CONTINUOUS
 10
71.9190065232
 20
245.6920809919
 11
73.2928014024
 21
244.180554973
  0
LINE
  8
0
 62
7
  6
CONTINUOUS
 10
73.5240570622
 20
244.3907384811
 11
72.536641959
 21
245.4771478444
  0
LINE
  8
0
 62
7
  6
CONTINUOUS
 10
72.3649176141
 20
245.6660885802
 11
72.150262183
 21
245.9022645
  0
LINE
  8
0
 62
7
  6
CONTINUOUS
 10
73.5408865203
 20
246.0448675934
 11
74.3565772787
 21
245.1473989659
  0
LINE
  8
0
 62
7
  6
CONTINUOUS
 10
73.050395177
 20
247.9766459969
 11
73.2550954274
 21
247.7317912918
  0
LINE
  8
0
 62
7
  6
CONTINUOUS
 10
73.6644960431
 20
247.2420817443
 11
74.9745777609
 21
245.6750114943
  0
LINE
  8
0
 62
7
  6
CONTINUOUS
 10
75.2143312635
 20
245.8754471037
 11
73.9042495457
 21
247.4425173537
  0
LINE
  8
0
 62
7
  6
CONTINUOUS
 10
73.49484893
 20
247.9322269012
 11
73.2901486795
 21
248.1770816063
  0
LINE
  8
0
 62
7
  6
CONTINUOUS
 10
76.9264323191
 20
250.0329814073
 11
77.0634030068
 21
249.8175122117
  0
LINE
  8
0
 62
7
  6
CONTINUOUS
 10
77.3456305561
 20
250.0725550536
 11
77.2771452601
 21
250.180289576
  0
LINE
  8
0
 62
7
  6
CONTINUOUS
 10
120.1810740673
 20
175.4743212494
 11
122.2085584438
 21
172.2296679946
  0
LINE
  8
0
 62
7
  6
CONTINUOUS
 10
71.4086866976
 20
260.217626877
 11
73.2048966703
 21
256.839447244
  0
LINE
  8
0
 62
7
  6
CONTINUOUS
 10
78.9779886615
 20
252.1391932413
 11
80.3837724999
 21
249.48895329
  0
LINE
  8
0
 62
7
  6
CONTINUOUS
 10
80.7150524938
 20
249.6646762698
 11
79.4887304006
 21
251.976587757
  0
LINE
  8
0
 62
7
  6
CONTINUOUS
 10
81.8519709743
 20
253.6267523083
 11
83.0454652564
 21
250.8743767165
  0
LINE
  8
0
 62
7
  6
CONTINUOUS
 10
83.2371512336
 20
251.3749305977
 11
82.8562487952
 21
252.2533483581
  0
LINE
  8
0
 62
7
  6
CONTINUOUS
 10
82.7038878411
 20
252.6047154131
 11
82.3483788773
 21
253.4245720386
  0
LINE
  8
0
 62
7
  6
CONTINUOUS
 10
85.1553029962
 20
253.2801786658
 11
85.2652366552
 21
252.9805611315
  0
LINE
  8
0
 62
7
  6
CONTINUOUS
 10
86.0866888249
 20
253.2819628599
 11
85.9767551659
 21
253.5815803942
  0
LINE
  8
0
 62
7
  6
CONTINUOUS
 10
86.0762687674
 20
255.3316948839
 11
86.924593126
 21
252.4541358866
  0
LINE
  8
0
 62
7
  6
CONTINUOUS
 10
87.2842880007
 20
252.5601764314
 11
86.6164581649
 21
254.8254889065
  0
LINE
  8
0
 62
7
  6
CONTINUOUS
 10
90.2283861703
 20
253.7211005832
 11
90.292487468
 21
253.4084553028
  0
LINE
  8
0
 62
7
  6
CONTINUOUS
 10
101.2890787241
 20
264.3645811795
 11
101.1555523757
 21
268.1882755128
  0
LINE
  8
0
 62
7
  6
CONTINUOUS
 10
101.1555523757
 20
166.5885320205
 11
101.2890787253
 21
170.4122263874
  0
LINE
  8
0
 62
7
  6
CONTINUOUS
 10
113.0971386394
 20
251.5482960066
 11
113.2327554792
 21
251.9064590625
  0
LINE
  8
0
 62
7
  6
CONTINUOUS
 10
114.0012509259
 20
253.9360497683
 11
114.1594705539
 21
254.3539066181
  0
LINE
  8
0
 62
7
  6
CONTINUOUS
 10
117.4117573883
 20
252.0215724868
 11
117.3535497868
 21
251.9079552176
  0
LINE
  8
0
 62
7
  6
CONTINUOUS
 10
116.6977721661
 20
249.8054795781
 11
116.8432909864
 21
250.0895223929
  0
LINE
  8
0
 62
7
  6
CONTINUOUS
 10
117.6873000872
 20
251.7369706073
 11
117.7455076887
 21
251.8505878765
  0
LINE
  8
0
 62
7
  6
CONTINUOUS
 10
124.4471827737
 20
256.8394472738
 11
126.2433927306
 21
260.217626877
  0
LINE
  8
0
 62
7
  6
CONTINUOUS
 10
75.4435209844
 20
172.2296679946
 11
77.4710053787
 21
175.474321278
  0
LINE
  8
0
 62
7
  6
CONTINUOUS
 10
122.6000388145
 20
248.6890442854
 11
122.4872702895
 21
248.5342815795
  0
LINE
  8
0
 62
7
  6
CONTINUOUS
 10
122.7527575352
 20
248.2618558774
 11
122.9031155334
 21
248.4682061038
  0
LINE
  8
0
 62
7
  6
CONTINUOUS
 10
125.1115376722
 20
245.2350553774
 11
124.8395933805
 21
244.8750683386
  0
LINE
  8
0
 62
7
  6
CONTINUOUS
 10
126.345324981
 20
243.7289508928
 11
126.2098469592
 21
243.5936221357
  0
LINE
  8
0
 62
7
  6
CONTINUOUS
 10
126.3855353103
 20
243.327421268
 11
126.6113320766
 21
243.5529692597
  0
LINE
  8
0
 62
7
  6
CONTINUOUS
 10
140.7401222313
 20
238.7434381198
 11
143.9847754861
 21
240.7709224963
  0
LINE
  8
0
 62
7
  6
CONTINUOUS
 10
55.9968166037
 20
189.9710507501
 11
59.3749962367
 21
191.7672607228
  0
LINE
  8
0
 62
7
  6
CONTINUOUS
 10
51.8498623012
 20
219.8514427767
 11
48.0261679679
 21
219.7179164282
  0
LINE
  8
0
 62
7
  6
CONTINUOUS
 10
149.6259114602
 20
219.7179164282
 11
145.8022170933
 21
219.8514427778
  0
LINE
  8
0
 62
7
  6
CONTINUOUS
 10
59.3749962069
 20
243.0095468262
 11
55.9968166037
 21
244.8057567831
  0
LINE
  8
0
 62
7
  6
CONTINUOUS
 10
143.9847754861
 20
194.0058850369
 11
140.7401222027
 21
196.0333694313
  0
LINE
  8
0
 62
7
  6
CONTINUOUS
 10
72.568427711
 20
244.011524076
 11
71.3757405481
 21
245.1655104429
  0
LINE
  8
0
 62
7
  6
CONTINUOUS
 10
74.5878328061
 20
245.3575823537
 11
73.7721420478
 21
246.2550509812
  0
LINE
  8
0
 62
7
  6
CONTINUOUS
 10
79.1223887891
 20
249.840587945
 11
79.225116733
 21
249.6789861614
  0
LINE
  8
0
 62
7
  6
CONTINUOUS
 10
79.5758295782
 20
249.826294481
 11
79.4046163384
 21
250.0956307869
  0
LINE
  8
0
 62
7
  6
CONTINUOUS
 10
77.4710053609
 20
259.3024862839
 11
75.4435209844
 21
262.5471395386
  0
LINE
  8
0
 62
7
  6
CONTINUOUS
 10
126.2433927306
 20
174.5591806563
 11
124.4471827579
 21
177.9373602892
  0
LINE
  8
0
 62
7
  6
CONTINUOUS
 10
80.8552417498
 20
253.1349566818
 11
82.0516535311
 21
250.8794333114
  0
LINE
  8
0
 62
7
  6
CONTINUOUS
 10
82.5923055821
 20
250.6604397102
 11
81.1865217437
 21
253.3106796616
  0
LINE
  8
0
 62
7
  6
CONTINUOUS
 10
83.934269294
 20
253.6948166146
 11
83.9850562787
 21
253.577694263
  0
LINE
  8
0
 62
7
  6
CONTINUOUS
 10
84.4421391763
 20
252.5235930161
 11
84.5183196533
 21
252.3479094886
  0
LINE
  8
0
 62
7
  6
CONTINUOUS
 10
84.8877600946
 20
252.4385350981
 11
84.760792633
 21
252.7313409772
  0
LINE
  8
0
 62
7
  6
CONTINUOUS
 10
84.35449672
 20
253.6683198724
 11
84.2529226795
 21
253.9025647398
  0
LINE
  8
0
 62
7
  6
CONTINUOUS
 10
88.7746274129
 20
255.4617321755
 11
89.4424572486
 21
253.1964197004
  0
LINE
  8
0
 62
7
  6
CONTINUOUS
 10
89.8021521233
 20
253.3024602452
 11
88.9538277647
 21
256.1800192425
  0
LINE
  8
0
 62
7
  6
CONTINUOUS
 10
91.6677491015
 20
256.0360964726
 11
91.6933896529
 21
255.9110382028
  0
LINE
  8
0
 62
7
  6
CONTINUOUS
 10
92.4966380501
 20
253.8603697293
 11
92.4325367524
 21
254.1730150097
  0
LINE
  8
0
 62
7
  6
CONTINUOUS
 10
92.060749251
 20
255.9863575133
 11
92.0351086996
 21
256.1114157831
  0
LINE
  8
0
 62
7
  6
CONTINUOUS
 10
70.9894094779
 20
242.9303214488
 11
71.2163592534
 21
242.7977019754
  0
LINE
  8
0
 62
7
  6
CONTINUOUS
 10
72.7953774358
 20
243.8789045662
 11
72.568427711
 21
244.011524076
  0
LINE
  8
0
 62
7
  6
CONTINUOUS
 10
73.2799798779
 20
246.2390067394
 11
73.5408865203
 21
246.0448675934
  0
LINE
  8
0
 62
7
  6
CONTINUOUS
 10
73.7721420478
 20
246.2550509812
 11
73.51123567
 21
246.4491903677
  0
LINE
  8
0
 62
7
  6
CONTINUOUS
 10
77.5557782675
 20
248.6934463833
 11
77.745493691
 21
248.5115064741
  0
LINE
  8
0
 62
7
  6
CONTINUOUS
 10
77.0634030068
 20
249.8175122117
 11
77.2531184303
 21
249.6355723025
  0
LINE
  8
0
 62
7
  6
CONTINUOUS
 10
117.7455076887
 20
251.8505878765
 11
117.806295981
 21
252.1063204012
  0
LINE
  8
0
 62
7
  6
CONTINUOUS
 10
122.6622929062
 20
248.8806143337
 11
122.6000388145
 21
248.6890442854
  0
LINE
  8
0
 62
7
  6
CONTINUOUS
 10
122.9031155334
 20
248.4682061038
 11
122.9653696251
 21
248.6597761521
  0
LINE
  8
0
 62
7
  6
CONTINUOUS
 10
123.8440350854
 20
244.6769070232
 11
125.0360393859
 21
247.6059221414
  0
LINE
  8
0
 62
7
  6
CONTINUOUS
 10
123.867601596
 20
245.6652201372
 11
123.5592212398
 21
244.9208456904
  0
LINE
  8
0
 62
7
  6
CONTINUOUS
 10
124.6800805048
 20
247.5746296514
 11
123.9862214002
 21
245.8997898869
  0
LINE
  8
0
 62
7
  6
CONTINUOUS
 10
124.8395933805
 20
244.8750683386
 11
124.7021349138
 21
244.5610846754
  0
LINE
  8
0
 62
7
  6
CONTINUOUS
 10
126.6113320766
 20
243.5529692597
 11
126.7487905118
 21
243.8669528913
  0
LINE
  8
0
 62
7
  6
CONTINUOUS
 10
125.0142935469
 20
244.5195380095
 11
125.1056004129
 21
244.6990866423
  0
LINE
  8
0
 62
7
  6
CONTINUOUS
 10
126.4366319102
 20
243.9084995888
 11
126.345324981
 21
243.7289508928
  0
LINE
  8
0
 62
7
  6
CONTINUOUS
 10
127.3358620662
 20
244.4533776319
 11
127.4271689322
 21
244.6329262647
  0
LINE
  8
0
 62
7
  6
CONTINUOUS
 10
72.3970031284
 20
243.7425554152
 11
72.7132849477
 21
243.610468802
  0
LINE
  8
0
 62
7
  6
CONTINUOUS
 10
71.3877837612
 20
243.0666706231
 11
71.2067065934
 21
243.1549059739
  0
LINE
  8
0
 62
7
  6
CONTINUOUS
 10
73.51123567
 20
246.4491903677
 11
73.3361912
 21
246.5488591458
  0
LINE
  8
0
 62
7
  6
CONTINUOUS
 10
78.0277212402
 20
248.7665493161
 11
77.8722484647
 21
248.8946219641
  0
LINE
  8
0
 62
7
  6
CONTINUOUS
 10
77.5011033316
 20
249.9444824056
 11
77.3456305561
 21
250.0725550536
  0
LINE
  8
0
 62
7
  6
CONTINUOUS
 10
78.5615281367
 20
251.0723884466
 11
78.4060553611
 21
251.2004610946
  0
LINE
  8
0
 62
7
  6
CONTINUOUS
 10
84.3086170681
 20
252.6744119717
 11
84.4421391763
 21
252.5235930161
  0
LINE
  8
0
 62
7
  6
CONTINUOUS
 10
84.760792633
 20
252.7313409772
 11
84.6272705247
 21
252.8821599328
  0
LINE
  8
0
 62
7
  6
CONTINUOUS
 10
83.8007471502
 20
253.8456356522
 11
83.934269294
 21
253.6948166146
  0
LINE
  8
0
 62
7
  6
CONTINUOUS
 10
84.2529226795
 20
253.9025647398
 11
84.1194006068
 21
254.0533836133
  0
LINE
  8
0
 62
7
  6
CONTINUOUS
 10
86.6164581649
 20
254.8254889065
 11
88.1235755842
 21
252.8076042345
  0
LINE
  8
0
 62
7
  6
CONTINUOUS
 10
88.2731253506
 20
253.1844213699
 11
86.6158110794
 21
255.4907557011
  0
LINE
  8
0
 62
7
  6
CONTINUOUS
 10
92.0351086996
 20
256.1114157831
 11
91.9225994341
 21
256.3489784188
  0
LINE
  8
0
 62
7
  6
CONTINUOUS
 10
124.9671537614
 20
244.2957735176
 11
125.0142935469
 21
244.5195380095
  0
LINE
  8
DEFAULT_3
 62
2
  6
PHANTOM
 10
122.9780062791
 20
213.2560990842
 11
121.5637927167
 21
211.8418855218
  0
LINE
  8
DEFAULT_3
 62
2
  6
PHANTOM
 10
102.9583443965
 20
193.2364372016
 11
104.3725579589
 21
194.650650764
  0
LINE
  8
0
 62
7
  6
CONTINUOUS
 10
126.0301977815
 20
243.5025132543
 11
125.8063814601
 21
243.4556201687
  0
LINE
  8
0
 62
7
  6
CONTINUOUS
 10
71.6123203904
 20
243.0233521525
 11
71.3877837612
 21
243.0666706231
  0
LINE
  8
0
 62
7
  6
CONTINUOUS
 10
71.2163592534
 20
242.7977019754
 11
71.3515638378
 21
242.7538507079
  0
LINE
  8
0
 62
7
  6
CONTINUOUS
 10
72.9305821098
 20
243.8350533753
 11
72.7953774358
 21
243.8789045662
  0
LINE
  8
0
 62
7
  6
CONTINUOUS
 10
77.745493691
 20
248.5115064741
 11
78.0749420653
 21
248.342757902
  0
LINE
  8
0
 62
7
  6
CONTINUOUS
 10
79.4887304006
 20
251.976587757
 11
82.0953855912
 21
250.3968552405
  0
LINE
  8
0
 62
7
  6
CONTINUOUS
 10
79.4046163384
 20
250.0956307869
 11
79.1621554316
 21
250.2440412523
  0
LINE
  8
0
 62
7
  6
CONTINUOUS
 10
78.1238278119
 20
250.9454182527
 11
78.2450579395
 21
250.8712128659
  0
LINE
  8
DEFAULT_3
 62
2
  6
PHANTOM
 10
121.5637927167
 20
222.9349220115
 11
122.9780062791
 21
221.5207084491
  0
LINE
  8
DEFAULT_3
 62
2
  6
PHANTOM
 10
104.3725579589
 20
240.1261567692
 11
102.9583443965
 21
241.5403703316
  0
LINE
  8
0
 62
7
  6
CONTINUOUS
 10
117.3878202656
 20
252.2489921522
 11
117.4117573883
 21
252.0215724868
  0
LINE
  8
0
 62
7
  6
CONTINUOUS
 10
122.9653696251
 20
248.6597761521
 11
122.9641891586
 21
248.9765453248
  0
LINE
  8
0
 62
7
  6
CONTINUOUS
 10
124.7021349138
 20
244.5610846754
 11
124.6540069593
 21
244.2479907379
  0
LINE
  8
0
 62
7
  6
CONTINUOUS
 10
127.4271689322
 20
244.6329262647
 11
127.4752968708
 21
244.9460201864
  0
LINE
  8
0
 62
7
  6
CONTINUOUS
 10
127.1621500846
 20
244.8982374224
 11
127.1150143745
 21
244.6744689139
  0
LINE
  8
DEFAULT_3
 62
2
  6
PHANTOM
 10
108.4972547182
 20
196.5126058235
 11
119.7018376572
 21
207.7171887625
  0
LINE
  8
0
 62
7
  6
CONTINUOUS
 10
126.143277252
 20
245.6472778416
 11
126.3670935417
 21
245.6941708956
  0
LINE
  8
0
 62
7
  6
CONTINUOUS
 10
125.7582535056
 20
243.1425262312
 11
126.0714003077
 21
243.190309011
  0
LINE
  8
0
 62
7
  6
CONTINUOUS
 10
126.4152214804
 20
246.0072648173
 11
126.1020746941
 21
245.9594820533
  0
LINE
  8
0
 62
7
  6
CONTINUOUS
 10
78.4060553611
 20
251.2004610946
 11
78.1108496707
 21
251.315342349
  0
LINE
  8
0
 62
7
  6
CONTINUOUS
 10
78.9141705304
 20
249.9351311492
 11
79.1223887891
 21
249.840587945
  0
LINE
  8
0
 62
7
  6
CONTINUOUS
 10
84.6272705247
 20
252.8821599328
 11
84.3536730809
 21
253.0418112435
  0
LINE
  8
0
 62
7
  6
CONTINUOUS
 10
84.1194006068
 20
254.0533836133
 11
83.845803163
 21
254.213034924
  0
LINE
  8
0
 62
7
  6
CONTINUOUS
 10
82.0516535311
 20
250.8794333114
 11
79.4749086524
 21
252.402777711
  0
LINE
  8
DEFAULT_3
 62
2
  6
PHANTOM
 10
108.4972547182
 20
238.2642017097
 11
119.7018376572
 21
227.0596187708
  0
LINE
  8
0
 62
7
  6
CONTINUOUS
 10
91.5068360631
 20
256.1985773693
 11
91.6677491015
 21
256.0360964726
  0
LINE
  8
0
 62
7
  6
CONTINUOUS
 10
126.4386123235
 20
244.0871544634
 11
126.4366319102
 21
243.9084995888
  0
LINE
  8
0
 62
7
  6
CONTINUOUS
 10
126.7487905118
 20
243.8669528913
 11
126.7517591098
 21
244.1349372273
  0
LINE
  8
0
 62
7
  6
CONTINUOUS
 10
117.1258863442
 20
251.737714998
 11
114.8407891838
 21
251.1154300547
  0
LINE
  8
0
 62
7
  6
CONTINUOUS
 10
115.2857904332
 20
250.8874501395
 11
117.3166986171
 21
251.4248030274
  0
LINE
  8
0
 62
7
  6
CONTINUOUS
 10
122.3239875418
 20
248.4163265049
 11
122.1477845638
 21
248.3867630679
  0
LINE
  8
0
 62
7
  6
CONTINUOUS
 10
125.4207276757
 20
244.925524344
 11
125.5993846248
 21
244.9273078123
  0
LINE
  8
0
 62
7
  6
CONTINUOUS
 10
71.3515638378
 20
242.7538507079
 11
71.6195598569
 21
242.7554491403
  0
LINE
  8
0
 62
7
  6
CONTINUOUS
 10
73.1016155474
 20
246.2494038003
 11
73.2799798779
 21
246.2390067394
  0
LINE
  8
0
 62
7
  6
CONTINUOUS
 10
73.3361912
 20
246.5488591458
 11
73.1578268695
 21
246.5592562067
  0
LINE
  8
0
 62
7
  6
CONTINUOUS
 10
78.2886843067
 20
248.7055352852
 11
78.0277212402
 21
248.7665493161
  0
LINE
  8
0
 62
7
  6
CONTINUOUS
 10
77.2531184303
 20
249.6355723025
 11
77.6010689524
 21
249.5542201837
  0
LINE
  8
0
 62
7
  6
CONTINUOUS
 10
79.1621554316
 20
250.2440412523
 11
78.8142049095
 21
250.3253933711
  0
LINE
  8
0
 62
7
  6
CONTINUOUS
 10
77.949852249
 20
250.9860941202
 11
78.1238278119
 21
250.9454182527
  0
LINE
  8
0
 62
7
  6
CONTINUOUS
 10
84.1431482046
 20
252.7418055846
 11
84.3086170681
 21
252.6744119717
  0
LINE
  8
0
 62
7
  6
CONTINUOUS
 10
83.6352782867
 20
253.9130292652
 11
83.8007471502
 21
253.8456356522
  0
LINE
  8
0
 62
7
  6
CONTINUOUS
 10
91.9225994341
 20
256.3489784188
 11
91.6264138728
 21
256.5488821174
  0
LINE
  8
0
 62
7
  6
CONTINUOUS
 10
117.806295981
 20
252.1063204012
 11
117.7002142158
 21
252.4475426221
  0
LINE
  8
0
 62
7
  6
CONTINUOUS
 10
122.6364478212
 20
249.0574009786
 11
122.6622929062
 21
248.8806143337
  0
LINE
  8
0
 62
7
  6
CONTINUOUS
 10
72.9661823031
 20
246.2125656772
 11
73.1016155474
 21
246.2494038003
  0
LINE
  8
0
 62
7
  6
CONTINUOUS
 10
71.6195598569
 20
242.7554491403
 11
71.8416833159
 21
242.8014316881
  0
LINE
  8
0
 62
7
  6
CONTINUOUS
 10
73.1578268695
 20
246.5592562067
 11
72.9332113277
 21
246.5276164938
  0
LINE
  8
0
 62
7
  6
CONTINUOUS
 10
116.2753184154
 20
252.8189412881
 11
116.5004010856
 21
252.8470660929
  0
LINE
  8
0
 62
7
  6
CONTINUOUS
 10
77.6010689524
 20
249.5542201837
 11
77.8805347822
 21
249.5806029709
  0
LINE
  8
0
 62
7
  6
CONTINUOUS
 10
78.8142049095
 20
250.3253933711
 11
78.5347396834
 21
250.2990109676
  0
LINE
  8
0
 62
7
  6
CONTINUOUS
 10
121.9727620524
 20
248.0404304583
 11
122.287578535
 21
248.0479698118
  0
LINE
  8
0
 62
7
  6
CONTINUOUS
 10
78.0749420653
 20
248.342757902
 11
78.4413953837
 21
248.3488025495
  0
LINE
  8
0
 62
7
  6
CONTINUOUS
 10
77.7278237261
 20
249.9373356736
 11
77.5011033316
 21
249.9444824056
  0
LINE
  8
0
 62
7
  6
CONTINUOUS
 10
78.6874501358
 20
249.9422778812
 11
78.9141705304
 21
249.9351311492
  0
LINE
  8
0
 62
7
  6
CONTINUOUS
 10
84.3536730809
 20
253.0418112435
 11
84.2135977097
 21
253.0506436806
  0
LINE
  8
0
 62
7
  6
CONTINUOUS
 10
78.1108496707
 20
251.315342349
 11
77.7971411929
 21
251.3428268229
  0
LINE
  8
0
 62
7
  6
CONTINUOUS
 10
125.8063814601
 20
243.4556201687
 11
125.583553355
 21
243.4980565762
  0
LINE
  8
0
 62
7
  6
CONTINUOUS
 10
125.5993846248
 20
244.9273078123
 11
125.8222127298
 21
244.8848714048
  0
LINE
  8
0
 62
7
  6
CONTINUOUS
 10
126.0038423209
 20
245.1546351607
 11
125.5581861108
 21
245.2395079756
  0
LINE
  8
0
 62
7
  6
CONTINUOUS
 10
126.3670935417
 20
245.6941708956
 11
126.5899216468
 21
245.6517344882
  0
LINE
  8
0
 62
7
  6
CONTINUOUS
 10
125.4019277802
 20
243.2282887443
 11
125.7582535056
 21
243.1425262312
  0
LINE
  8
0
 62
7
  6
CONTINUOUS
 10
126.7715512378
 20
245.9214982441
 11
126.4152214804
 21
246.0072648173
  0
LINE
  8
0
 62
7
  6
CONTINUOUS
 10
83.845803163
 20
254.213034924
 11
83.5402589283
 21
254.289260974
  0
LINE
  8
0
 62
7
  6
CONTINUOUS
 10
91.2975164493
 20
256.2859759523
 11
91.5068360631
 21
256.1985773693
  0
LINE
  8
0
 62
7
  6
CONTINUOUS
 10
117.2791526354
 20
252.4481015674
 11
117.3878202656
 21
252.2489921522
  0
LINE
  8
0
 62
7
  6
CONTINUOUS
 10
122.9641891586
 20
248.9765453248
 11
122.8749095154
 21
249.2785310941
  0
LINE
  8
0
 62
7
  6
CONTINUOUS
 10
124.6540069593
 20
244.2479907379
 11
124.7393806612
 21
243.8915666386
  0
LINE
  8
0
 62
7
  6
CONTINUOUS
 10
126.7517591098
 20
244.1349372273
 11
126.6663894399
 21
244.4913572664
  0
LINE
  8
0
 62
7
  6
CONTINUOUS
 10
127.4752968708
 20
244.9460201864
 11
127.3899272009
 21
245.3024402255
  0
LINE
  8
0
 62
7
  6
CONTINUOUS
 10
125.0093445039
 20
244.0728987674
 11
124.9671537614
 21
244.2957735176
  0
LINE
  8
0
 62
7
  6
CONTINUOUS
 10
126.396421581
 20
244.3100292136
 11
126.4386123235
 21
244.0871544634
  0
LINE
  8
0
 62
7
  6
CONTINUOUS
 10
127.119959342
 20
245.1211121727
 11
127.1621500846
 21
244.8982374224
  0
LINE
  8
0
 62
7
  6
CONTINUOUS
 10
77.9203014727
 20
249.9840562028
 11
77.7278237261
 21
249.9373356736
  0
LINE
  8
0
 62
7
  6
CONTINUOUS
 10
77.7573745025
 20
250.939373591
 11
77.949852249
 21
250.9860941202
  0
LINE
  8
0
 62
7
  6
CONTINUOUS
 10
83.5402589283
 20
254.289260974
 11
83.2281587702
 21
254.2234994494
  0
LINE
  8
0
 62
7
  6
CONTINUOUS
 10
90.292487468
 20
253.4084553028
 11
92.4966380501
 21
253.8603697293
  0
LINE
  8
0
 62
7
  6
CONTINUOUS
 10
92.4325367524
 20
254.1730150097
 11
90.7181980336
 21
253.821526139
  0
LINE
  8
0
 62
7
  6
CONTINUOUS
 10
89.8921849508
 20
255.6720546229
 11
90.1983163143
 21
255.7348203798
  0
LINE
  8
0
 62
7
  6
CONTINUOUS
 10
83.9457312377
 20
252.7257733678
 11
84.1431482046
 21
252.7418055846
  0
LINE
  8
0
 62
7
  6
CONTINUOUS
 10
83.4378613199
 20
253.8969970484
 11
83.6352782867
 21
253.9130292652
  0
LINE
  8
0
 62
7
  6
CONTINUOUS
 10
91.3558674257
 20
256.6237274342
 11
90.9756889712
 21
256.6109374583
  0
LINE
  8
0
 62
7
  6
CONTINUOUS
 10
90.978564828
 20
256.2857392427
 11
91.2975164493
 21
256.2859759523
  0
LINE
  8
0
 62
7
  6
CONTINUOUS
 10
116.5902931379
 20
253.1596071727
 11
116.3095862665
 21
253.159979368
  0
LINE
  8
0
 62
7
  6
CONTINUOUS
 10
91.6264138728
 20
256.5488821174
 11
91.3558674257
 21
256.6237274342
  0
LINE
  8
0
 62
7
  6
CONTINUOUS
 10
116.5004010856
 20
252.8470660929
 11
116.8076309447
 21
252.7613870378
  0
LINE
  8
0
 62
7
  6
CONTINUOUS
 10
122.1477845638
 20
248.3867630679
 11
121.9586567311
 21
248.4455946383
  0
LINE
  8
0
 62
7
  6
CONTINUOUS
 10
110.7591280127
 20
252.4335732774
 11
113.0971386394
 21
251.5482960066
  0
LINE
  8
0
 62
7
  6
CONTINUOUS
 10
113.2327554792
 20
251.9064590625
 11
111.245446179
 21
252.658944844
  0
LINE
  8
0
 62
7
  6
CONTINUOUS
 10
113.8927450486
 20
251.1818112652
 11
114.2352458002
 21
251.0291081706
  0
LINE
  8
0
 62
7
  6
CONTINUOUS
 10
121.6826055637
 20
248.1728770023
 11
121.9727620524
 21
248.0404304583
  0
LINE
  8
0
 62
7
  6
CONTINUOUS
 10
125.583553355
 20
243.4980565762
 11
125.4058845906
 21
243.5856025693
  0
LINE
  8
0
 62
7
  6
CONTINUOUS
 10
125.8222127298
 20
244.8848714048
 11
125.9998814943
 21
244.7973254117
  0
LINE
  8
0
 62
7
  6
CONTINUOUS
 10
126.5899216468
 20
245.6517344882
 11
126.7675904112
 21
245.564188495
  0
LINE
  8
0
 62
7
  6
CONTINUOUS
 10
114.6952703635
 20
250.8313872399
 11
116.6977721661
 21
249.8054795781
  0
LINE
  8
0
 62
7
  6
CONTINUOUS
 10
116.8432909864
 20
250.0895223929
 11
115.2857904332
 21
250.8874501395
  0
LINE
  8
0
 62
7
  6
CONTINUOUS
 10
115.7986300874
 20
252.8479985381
 11
116.0767561865
 21
252.705510928
  0
LINE
  8
0
 62
7
  6
CONTINUOUS
 10
125.1359167001
 20
243.4042744849
 11
125.4019277802
 21
243.2282887443
  0
LINE
  8
0
 62
7
  6
CONTINUOUS
 10
126.2698493532
 20
244.9786534645
 11
126.0038423209
 21
245.1546351607
  0
LINE
  8
0
 62
7
  6
CONTINUOUS
 10
127.0375582701
 20
245.7455165478
 11
126.7715512378
 21
245.9214982441
  0
LINE
  8
0
 62
7
  6
CONTINUOUS
 10
119.6809196447
 20
247.9728916542
 11
119.9839963636
 21
247.7520534726
  0
LINE
  8
0
 62
7
  6
CONTINUOUS
 10
120.773375407
 20
248.8353915471
 11
121.6826055637
 21
248.1728770023
  0
LINE
  8
0
 62
7
  6
CONTINUOUS
 10
121.9586567311
 20
248.4455946383
 11
120.9989122464
 21
249.1449166699
  0
LINE
  8
0
 62
7
  6
CONTINUOUS
 10
117.5359198379
 20
252.675150342
 11
117.2312732975
 21
252.9029435073
  0
LINE
  8
0
 62
7
  6
CONTINUOUS
 10
117.0301277499
 20
252.647399037
 11
117.2791526354
 21
252.4481015674
  0
LINE
  8
0
 62
7
  6
CONTINUOUS
 10
121.945274666
 20
246.3031660451
 11
122.2300885116
 21
246.059227378
  0
LINE
  8
0
 62
7
  6
CONTINUOUS
 10
123.5592212398
 20
244.9208456904
 11
123.8440350854
 21
244.6769070232
  0
LINE
  8
0
 62
7
  6
CONTINUOUS
 10
122.9182235592
 20
246.478347787
 11
123.867601596
 21
245.6652201372
  0
LINE
  8
0
 62
7
  6
CONTINUOUS
 10
123.9862214002
 20
245.8997898869
 11
123.1317798634
 21
246.6316058884
  0
LINE
  8
0
 62
7
  6
CONTINUOUS
 10
124.9150690083
 20
243.6253657669
 11
125.1359167001
 21
243.4042744849
  0
LINE
  8
0
 62
7
  6
CONTINUOUS
 10
125.4058845906
 20
243.5856025693
 11
125.0966945871
 21
243.8951336028
  0
LINE
  8
0
 62
7
  6
CONTINUOUS
 10
125.9998814943
 20
244.7973254117
 11
126.3090714978
 21
244.4877943782
  0
LINE
  8
0
 62
7
  6
CONTINUOUS
 10
126.4906970449
 20
244.7575621825
 11
126.2698493532
 21
244.9786534645
  0
LINE
  8
0
 62
7
  6
CONTINUOUS
 10
127.1150143745
 20
244.6744689139
 11
127.3358620662
 21
244.4533776319
  0
LINE
  8
0
 62
7
  6
CONTINUOUS
 10
122.8749095154
 20
249.2785310941
 11
122.6599319732
 21
249.5141526791
  0
LINE
  8
0
 62
7
  6
CONTINUOUS
 10
117.7002142158
 20
252.4475426221
 11
117.5359198379
 21
252.675150342
  0
LINE
  8
0
 62
7
  6
CONTINUOUS
 10
122.522498935
 20
249.2194075899
 11
122.6364478212
 21
249.0574009786
  0
LINE
  8
0
 62
7
  6
CONTINUOUS
 10
124.7393806612
 20
243.8915666386
 11
124.9150690083
 21
243.6253657669
  0
LINE
  8
0
 62
7
  6
CONTINUOUS
 10
126.6663894399
 20
244.4913572664
 11
126.4906970449
 21
244.7575621825
  0
LINE
  8
0
 62
7
  6
CONTINUOUS
 10
127.3899272009
 20
245.3024402255
 11
127.2142388498
 21
245.5686410932
  0
LINE
  8
0
 62
7
  6
CONTINUOUS
 10
125.0966945871
 20
243.8951336028
 11
125.0093445039
 21
244.0728987674
  0
LINE
  8
0
 62
7
  6
CONTINUOUS
 10
126.3090714978
 20
244.4877943782
 11
126.396421581
 21
244.3100292136
  0
LINE
  8
0
 62
7
  6
CONTINUOUS
 10
127.0326092588
 20
245.2988773373
 11
127.119959342
 21
245.1211121727
  0
LINE
  8
0
 62
7
  6
CONTINUOUS
 10
90.7336588963
 20
256.2355264648
 11
90.978564828
 21
256.2857392427
  0
LINE
  8
0
 62
7
  6
CONTINUOUS
 10
90.9756889712
 20
256.6109374583
 11
90.7307844409
 21
256.5607249677
  0
LINE
  8
0
 62
7
  6
CONTINUOUS
 10
117.0087713997
 20
253.0169341171
 11
116.5902931379
 21
253.1596071727
  0
LINE
  8
0
 62
7
  6
CONTINUOUS
 10
111.7084459072
 20
254.9407147105
 11
113.7542045367
 21
254.1660973518
  0
LINE
  8
0
 62
7
  6
CONTINUOUS
 10
114.1594705539
 20
254.3539066181
 11
111.8214599272
 21
255.2391838889
  0
LINE
  8
0
 62
7
  6
CONTINUOUS
 10
115.4568705571
 20
253.769114184
 11
115.1143698054
 21
253.9218172786
  0
LINE
  8
0
 62
7
  6
CONTINUOUS
 10
116.8076309447
 20
252.7613870378
 11
117.0301277499
 21
252.647399037
  0
LINE
  8
0
 62
7
  6
CONTINUOUS
 10
117.2312732975
 20
252.9029435073
 11
117.0087713997
 21
253.0169341171
  0
LINE
  8
0
 62
7
  6
CONTINUOUS
 10
121.5627544503
 20
249.9187296215
 11
122.522498935
 21
249.2194075899
  0
LINE
  8
0
 62
7
  6
CONTINUOUS
 10
122.6599319732
 20
249.5141526791
 11
121.4476250976
 21
250.3975054055
  0
LINE
  8
0
 62
7
  6
CONTINUOUS
 10
125.0360393859
 20
247.6059221414
 11
124.6562890403
 21
247.9311724569
  0
LINE
  8
0
 62
7
  6
CONTINUOUS
 10
126.7675904112
 20
245.564188495
 11
127.0326092588
 21
245.2988773373
  0
LINE
  8
0
 62
7
  6
CONTINUOUS
 10
127.2142388498
 20
245.5686410932
 11
127.0375582701
 21
245.7455165478
  0
LINE
  8
0
 62
7
  6
CONTINUOUS
 10
142.7112976057
 20
190.2567218286
 11
144.2653944656
 21
192.9484965499
  0
LINE
  8
0
 62
7
  6
CONTINUOUS
 10
123.2659469308
 20
171.9490490151
 11
125.9577216521
 21
173.503145875
  0
LINE
  8
0
 62
7
  6
CONTINUOUS
 10
125.9577216521
 20
261.2736616582
 11
123.2659469308
 21
262.8277585182
  0
LINE
  8
0
 62
7
  6
CONTINUOUS
 10
144.2653944656
 20
241.8283109834
 11
142.7112976057
 21
244.5200857046
  0
POLYLINE
  8
0
 62
9
  6
CONTINUOUS
 66
1
 70
0
  0
VERTEX
  8
0
 62
9
  6
CONTINUOUS
 10
48.0261679679
 20
101.513745247
  0
VERTEX
  8
0
 62
9
  6
CONTINUOUS
 10
47.9880702237
 20
101.9131998143
  0
VERTEX
  8
0
 62
9
  6
CONTINUOUS
 10
47.9678287746
 20
102.2045731785
  0
VERTEX
  8
0
 62
9
  6
CONTINUOUS
 10
47.9705027379
 20
102.3093627633
  0
SEQEND
  0
POLYLINE
  8
0
 62
9
  6
CONTINUOUS
 66
1
 70
0
  0
VERTEX
  8
0
 62
9
  6
CONTINUOUS
 10
49.1024034373
 20
101.6266866683
  0
VERTEX
  8
0
 62
9
  6
CONTINUOUS
 10
49.064584169
 20
102.0229100079
  0
VERTEX
  8
0
 62
9
  6
CONTINUOUS
 10
49.0442278101
 20
102.3138803559
  0
VERTEX
  8
0
 62
9
  6
CONTINUOUS
 10
49.0467418353
 20
102.4223041848
  0
SEQEND
  0
POLYLINE
  8
0
 62
9
  6
CONTINUOUS
 66
1
 70
0
  0
VERTEX
  8
0
 62
9
  6
CONTINUOUS
 10
49.2419988681
 20
96.5404401545
  0
VERTEX
  8
0
 62
9
  6
CONTINUOUS
 10
49.231779588
 20
96.8332605557
  0
VERTEX
  8
0
 62
9
  6
CONTINUOUS
 10
49.2280390749
 20
97.2332603939
  0
SEQEND
  0
POLYLINE
  8
0
 62
9
  6
CONTINUOUS
 66
1
 70
0
  0
VERTEX
  8
0
 62
9
  6
CONTINUOUS
 10
47.9705027379
 20
96.5571580244
  0
VERTEX
  8
0
 62
9
  6
CONTINUOUS
 10
47.9678287746
 20
96.6619476092
  0
VERTEX
  8
0
 62
9
  6
CONTINUOUS
 10
47.9880702237
 20
96.9533209735
  0
VERTEX
  8
0
 62
9
  6
CONTINUOUS
 10
48.0261679679
 20
97.3527755407
  0
SEQEND
  0
LINE
  8
0
 62
9
  6
CONTINUOUS
 10
49.0467418353
 20
96.444216603
 11
49.0442278102
 21
96.5526404319
  0
LINE
  8
0
 62
9
  6
CONTINUOUS
 10
47.2544505593
 20
101.513745247
 11
47.2544505593
 21
97.3527755407
  0
LINE
  8
0
 62
9
  6
CONTINUOUS
 10
48.0261679679
 20
97.3527755378
 11
48.0261679679
 21
101.5137452531
  0
POLYLINE
  8
0
 62
9
  6
CONTINUOUS
 66
1
 70
0
  0
VERTEX
  8
0
 62
9
  6
CONTINUOUS
 10
49.2280390749
 20
101.6332603939
  0
VERTEX
  8
0
 62
9
  6
CONTINUOUS
 10
49.2317795913
 20
102.0332604061
  0
VERTEX
  8
0
 62
9
  6
CONTINUOUS
 10
49.2419988734
 20
102.3260807231
  0
SEQEND
  0
POLYLINE
  8
0
 62
9
  6
CONTINUOUS
 66
1
 70
0
  0
VERTEX
  8
0
 62
9
  6
CONTINUOUS
 10
49.0442278102
 20
96.5526404319
  0
VERTEX
  8
0
 62
9
  6
CONTINUOUS
 10
49.064584169
 20
96.8436107799
  0
VERTEX
  8
0
 62
9
  6
CONTINUOUS
 10
49.1024034373
 20
97.2398341194
  0
SEQEND
  0
LINE
  8
0
 62
9
  6
CONTINUOUS
 10
49.2419988734
 20
102.3260807231
 11
49.2559586723
 21
102.4332603939
  0
POLYLINE
  8
0
 62
9
  6
CONTINUOUS
 66
1
 70
0
  0
VERTEX
  8
0
 62
9
  6
CONTINUOUS
 10
47.2544505593
 20
101.513745247
  0
VERTEX
  8
0
 62
9
  6
CONTINUOUS
 10
47.3480499957
 20
101.8893224973
  0
VERTEX
  8
0
 62
9
  6
CONTINUOUS
 10
47.6069362262
 20
102.1769753051
  0
VERTEX
  8
0
 62
9
  6
CONTINUOUS
 10
47.9705027379
 20
102.3093627633
  0
SEQEND
  0
LINE
  8
0
 62
9
  6
CONTINUOUS
 10
49.2559586723
 20
96.4332603939
 11
49.2419988681
 21
96.5404401545
  0
LINE
  8
0
 62
9
  6
CONTINUOUS
 10
51.8498623012
 20
97.2332603939
 11
51.8498623012
 21
101.6332603939
  0
LINE
  8
2_FEATURE
 62
7
  6
CONTINUOUS
 10
53.2912393535
 20
101.513745247
 11
53.2912393535
 21
97.3527755407
  0
POLYLINE
  8
0
 62
9
  6
CONTINUOUS
 66
1
 70
0
  0
VERTEX
  8
0
 62
9
  6
CONTINUOUS
 10
51.8498623012
 20
101.6332603939
  0
VERTEX
  8
0
 62
9
  6
CONTINUOUS
 10
51.853602818
 20
102.0332603939
  0
VERTEX
  8
0
 62
9
  6
CONTINUOUS
 10
51.8638220999
 20
102.3260807169
  0
VERTEX
  8
0
 62
9
  6
CONTINUOUS
 10
51.8777818986
 20
102.4332603939
  0
SEQEND
  0
POLYLINE
  8
0
 62
9
  6
CONTINUOUS
 66
1
 70
0
  0
VERTEX
  8
0
 62
9
  6
CONTINUOUS
 10
51.8777818986
 20
96.4332603939
  0
VERTEX
  8
0
 62
9
  6
CONTINUOUS
 10
51.8638220999
 20
96.5404400708
  0
VERTEX
  8
0
 62
9
  6
CONTINUOUS
 10
51.853602818
 20
96.8332603939
  0
VERTEX
  8
0
 62
9
  6
CONTINUOUS
 10
51.8498623012
 20
97.2332603939
  0
SEQEND
  0
LINE
  8
0
 62
9
  6
CONTINUOUS
 10
53.3866849625
 20
101.513745247
 11
53.3866849625
 21
97.3527755407
  0
LINE
  8
0
 62
9
  6
CONTINUOUS
 10
54.9407818225
 20
101.513745247
 11
54.9407818225
 21
97.3527755407
  0
LINE
  8
0
 62
9
  6
CONTINUOUS
 10
55.9968166037
 20
97.3527755378
 11
55.9968166037
 21
101.5137452531
  0
POLYLINE
  8
0
 62
9
  6
CONTINUOUS
 66
1
 70
0
  0
VERTEX
  8
0
 62
9
  6
CONTINUOUS
 10
54.9407818225
 20
101.513745247
  0
VERTEX
  8
0
 62
9
  6
CONTINUOUS
 10
55.0204310144
 20
101.8893224973
  0
VERTEX
  8
0
 62
9
  6
CONTINUOUS
 10
55.240732331
 20
102.1769753051
  0
SEQEND
  0
POLYLINE
  8
0
 62
9
  6
CONTINUOUS
 66
1
 70
0
  0
VERTEX
  8
0
 62
9
  6
CONTINUOUS
 10
53.3866849625
 20
101.513745247
  0
VERTEX
  8
0
 62
9
  6
CONTINUOUS
 10
53.4706095769
 20
101.8924129433
  0
VERTEX
  8
0
 62
9
  6
CONTINUOUS
 10
53.7023951847
 20
102.1808730365
  0
SEQEND
  0
LINE
  8
0
 62
9
  6
CONTINUOUS
 10
59.3749962069
 20
97.2332603939
 11
59.3749962069
 21
101.6332603939
  0
POLYLINE
  8
0
 62
9
  6
CONTINUOUS
 66
1
 70
0
  0
VERTEX
  8
0
 62
9
  6
CONTINUOUS
 10
55.9968166037
 20
101.513745247
  0
VERTEX
  8
0
 62
9
  6
CONTINUOUS
 10
55.9090586003
 20
101.9131998143
  0
VERTEX
  8
0
 62
9
  6
CONTINUOUS
 10
55.7435879249
 20
102.2045731785
  0
VERTEX
  8
0
 62
9
  6
CONTINUOUS
 10
55.5501121735
 20
102.3093627633
  0
SEQEND
  0
POLYLINE
  8
0
 62
9
  6
CONTINUOUS
 66
1
 70
0
  0
VERTEX
  8
0
 62
9
  6
CONTINUOUS
 10
56.947655346
 20
101.6266866683
  0
VERTEX
  8
0
 62
9
  6
CONTINUOUS
 10
56.8610820632
 20
102.0229100079
  0
VERTEX
  8
0
 62
9
  6
CONTINUOUS
 10
56.6977376033
 20
102.3138803559
  0
SEQEND
  0
POLYLINE
  8
0
 62
9
  6
CONTINUOUS
 66
1
 70
0
  0
VERTEX
  8
0
 62
9
  6
CONTINUOUS
 10
57.0586526464
 20
101.6332603939
  0
VERTEX
  8
0
 62
9
  6
CONTINUOUS
 10
57.0083348321
 20
102.0332604061
  0
VERTEX
  8
0
 62
9
  6
CONTINUOUS
 10
56.8708640157
 20
102.3260807231
  0
VERTEX
  8
0
 62
9
  6
CONTINUOUS
 10
56.6830753962
 20
102.4332603939
  0
SEQEND
  0
POLYLINE
  8
0
 62
9
  6
CONTINUOUS
 66
1
 70
0
  0
VERTEX
  8
0
 62
9
  6
CONTINUOUS
 10
59.3749962069
 20
101.6332603939
  0
VERTEX
  8
0
 62
9
  6
CONTINUOUS
 10
59.3246783964
 20
102.0332603939
  0
VERTEX
  8
0
 62
9
  6
CONTINUOUS
 10
59.1872075818
 20
102.3260807169
  0
VERTEX
  8
0
 62
9
  6
CONTINUOUS
 10
58.9994189567
 20
102.4332603939
  0
SEQEND
  0
POLYLINE
  8
0
 62
9
  6
CONTINUOUS
 66
1
 70
0
  0
VERTEX
  8
0
 62
9
  6
CONTINUOUS
 10
56.6977376033
 20
96.5526404319
  0
VERTEX
  8
0
 62
9
  6
CONTINUOUS
 10
56.8610820632
 20
96.8436107799
  0
VERTEX
  8
0
 62
9
  6
CONTINUOUS
 10
56.947655346
 20
97.2398341194
  0
SEQEND
  0
POLYLINE
  8
0
 62
9
  6
CONTINUOUS
 66
1
 70
0
  0
VERTEX
  8
0
 62
9
  6
CONTINUOUS
 10
55.240732331
 20
96.6895454827
  0
VERTEX
  8
0
 62
9
  6
CONTINUOUS
 10
55.0204310144
 20
96.9771982905
  0
VERTEX
  8
0
 62
9
  6
CONTINUOUS
 10
54.9407818225
 20
97.3527755407
  0
SEQEND
  0
LINE
  8
0
 62
9
  6
CONTINUOUS
 10
64.9185011624
 20
97.2332603939
 11
64.9185011624
 21
101.6332603939
  0
LINE
  8
AXES
 62
7
  6
CONTINUOUS
 10
66.3260397141
 20
109.9332603939
 11
66.3260397141
 21
103.4332603939
  0
LINE
  8
AXES
 62
7
  6
CONTINUOUS
 10
66.3260397141
 20
95.4332603939
 11
66.3260397141
 21
88.9332603939
  0
POLYLINE
  8
0
 62
9
  6
CONTINUOUS
 66
1
 70
0
  0
VERTEX
  8
0
 62
9
  6
CONTINUOUS
 10
64.9185011608
 20
101.6332603939
  0
VERTEX
  8
0
 62
9
  6
CONTINUOUS
 10
65.0026025304
 20
102.0332512569
  0
VERTEX
  8
0
 62
9
  6
CONTINUOUS
 10
65.2323789494
 20
102.3260746514
  0
VERTEX
  8
0
 62
9
  6
CONTINUOUS
 10
65.5462732246
 20
102.4332603939
  0
SEQEND
  0
LINE
  8
0
 62
7
  6
CONTINUOUS
 10
70.0719578239
 20
96.4332603939
 11
70.0719578239
 21
96.1332603939
  0
LINE
  8
0
 62
7
  6
CONTINUOUS
 10
70.2892549394
 20
96.4332603939
 11
70.2892549394
 21
96.1332603939
  0
POLYLINE
  8
0
 62
9
  6
CONTINUOUS
 66
1
 70
0
  0
VERTEX
  8
0
 62
9
  6
CONTINUOUS
 10
65.2323184115
 20
96.5404906783
  0
VERTEX
  8
0
 62
9
  6
CONTINUOUS
 10
65.0025721166
 20
96.8333366409
  0
VERTEX
  8
0
 62
9
  6
CONTINUOUS
 10
64.9185011414
 20
97.2332603939
  0
SEQEND
  0
LINE
  8
0
 62
7
  6
CONTINUOUS
 10
71.1584433859
 20
96.4332603939
 11
71.1584433859
 21
96.1332603939
  0
LINE
  8
2_FEATURE
 62
7
  6
CONTINUOUS
 10
71.3150447719
 20
101.513745247
 11
71.3150447719
 21
97.3527755407
  0
LINE
  8
0
 62
7
  6
CONTINUOUS
 10
71.3757405481
 20
96.4332603939
 11
71.3757405481
 21
96.1332603939
  0
LINE
  8
0
 62
9
  6
CONTINUOUS
 10
71.694357776
 20
101.513745247
 11
71.694357776
 21
97.3527755407
  0
LINE
  8
0
 62
7
  6
CONTINUOUS
 10
71.9190065232
 20
96.4332603939
 11
71.9190065232
 21
96.1332603939
  0
LINE
  8
0
 62
7
  6
CONTINUOUS
 10
72.150262183
 20
96.4332603939
 11
72.150262183
 21
96.1332603939
  0
LINE
  8
0
 62
7
  6
CONTINUOUS
 10
72.3715577321
 20
96.4332603939
 11
72.3715577321
 21
96.1332603939
  0
LINE
  8
0
 62
7
  6
CONTINUOUS
 10
72.4244487967
 20
96.4332603939
 11
72.4244487967
 21
96.1332603939
  0
LINE
  8
0
 62
7
  6
CONTINUOUS
 10
72.5665222913
 20
96.4332603939
 11
72.5665222913
 21
96.1332603939
  0
LINE
  8
0
 62
7
  6
CONTINUOUS
 10
72.751526872
 20
96.4332603939
 11
72.751526872
 21
96.1332603939
  0
LINE
  8
0
 62
7
  6
CONTINUOUS
 10
72.9332113277
 20
96.4332603939
 11
72.9332113277
 21
96.1332603939
  0
LINE
  8
0
 62
7
  6
CONTINUOUS
 10
73.050395177
 20
96.4332603939
 11
73.050395177
 21
96.1332603939
  0
LINE
  8
0
 62
7
  6
CONTINUOUS
 10
73.2901486795
 20
96.4332603939
 11
73.2901486795
 21
96.1332603939
  0
LINE
  8
0
 62
7
  6
CONTINUOUS
 10
73.49484893
 20
96.4332603939
 11
73.49484893
 21
96.1332603939
  0
LINE
  8
0
 62
7
  6
CONTINUOUS
 10
73.6644960431
 20
96.4332603939
 11
73.6644960431
 21
96.1332603939
  0
LINE
  8
0
 62
7
  6
CONTINUOUS
 10
73.9042495457
 20
96.4332603939
 11
73.9042495457
 21
96.1332603939
  0
LINE
  8
0
 62
9
  6
CONTINUOUS
 10
74.3861324973
 20
101.513745247
 11
74.3861324973
 21
97.3527755407
  0
POLYLINE
  8
0
 62
9
  6
CONTINUOUS
 66
1
 70
0
  0
VERTEX
  8
0
 62
9
  6
CONTINUOUS
 10
74.3861324973
 20
101.513745247
  0
VERTEX
  8
0
 62
9
  6
CONTINUOUS
 10
74.4304895082
 20
101.8893224973
  0
VERTEX
  8
0
 62
9
  6
CONTINUOUS
 10
74.553176351
 20
102.1769753051
  0
VERTEX
  8
0
 62
9
  6
CONTINUOUS
 10
74.7254714453
 20
102.3093627633
  0
SEQEND
  0
POLYLINE
  8
0
 62
9
  6
CONTINUOUS
 66
1
 70
0
  0
VERTEX
  8
0
 62
9
  6
CONTINUOUS
 10
71.694357776
 20
101.513745247
  0
VERTEX
  8
0
 62
9
  6
CONTINUOUS
 10
71.7444688737
 20
101.8924129433
  0
VERTEX
  8
0
 62
9
  6
CONTINUOUS
 10
71.8828672604
 20
102.1808730365
  0
SEQEND
  0
LINE
  8
0
 62
7
  6
CONTINUOUS
 10
71.3624624883
 20
101.785075132
 11
71.3150838307
 21
101.513745247
  0
LINE
  8
0
 62
9
  6
CONTINUOUS
 10
71.8828672604
 20
96.6856477512
 11
71.7444688737
 21
96.9741078445
  0
LINE
  8
0
 62
7
  6
CONTINUOUS
 10
71.3624624891
 20
97.0814456536
 11
71.3150838307
 21
97.3527755407
  0
LINE
  8
0
 62
9
  6
CONTINUOUS
 10
71.7444688737
 20
96.9741078445
 11
71.694357776
 21
97.3527755407
  0
LINE
  8
0
 62
7
  6
CONTINUOUS
 10
75.2143312635
 20
96.4332603939
 11
75.2143312635
 21
96.1332603939
  0
LINE
  8
0
 62
9
  6
CONTINUOUS
 10
75.4435209844
 20
97.3527755378
 11
75.4435209844
 21
101.5137452531
  0
LINE
  8
0
 62
7
  6
CONTINUOUS
 10
76.8422065589
 20
96.4332603939
 11
76.8422065589
 21
96.1332603939
  0
LINE
  8
0
 62
7
  6
CONTINUOUS
 10
76.9162158973
 20
96.4332603939
 11
76.9162158973
 21
96.1332603939
  0
LINE
  8
0
 62
7
  6
CONTINUOUS
 10
77.0587111352
 20
96.4332603939
 11
77.0587111352
 21
96.1332603939
  0
LINE
  8
0
 62
7
  6
CONTINUOUS
 10
77.2354484175
 20
96.4332603939
 11
77.2354484175
 21
96.1332603939
  0
LINE
  8
0
 62
9
  6
CONTINUOUS
 10
77.4710053609
 20
97.2332603939
 11
77.4710053609
 21
101.6332603939
  0
LINE
  8
0
 62
7
  6
CONTINUOUS
 10
77.499173783
 20
96.4332603939
 11
77.499173783
 21
96.1332603939
  0
LINE
  8
0
 62
7
  6
CONTINUOUS
 10
77.7971411929
 20
96.4332603939
 11
77.7971411929
 21
96.1332603939
  0
LINE
  8
0
 62
7
  6
CONTINUOUS
 10
71.5914588017
 20
102.1186069931
 11
71.3624624883
 21
101.785075132
  0
LINE
  8
0
 62
7
  6
CONTINUOUS
 10
71.5914588049
 20
96.7479137919
 11
71.3624624891
 21
97.0814456536
  0
POLYLINE
  8
0
 62
9
  6
CONTINUOUS
 66
1
 70
0
  0
VERTEX
  8
0
 62
9
  6
CONTINUOUS
 10
75.4435209844
 20
101.513745247
  0
VERTEX
  8
0
 62
9
  6
CONTINUOUS
 10
75.3296174079
 20
101.9131998143
  0
VERTEX
  8
0
 62
9
  6
CONTINUOUS
 10
75.0632552401
 20
102.2045731785
  0
VERTEX
  8
0
 62
9
  6
CONTINUOUS
 10
74.7254714453
 20
102.3093627633
  0
SEQEND
  0
POLYLINE
  8
0
 62
9
  6
CONTINUOUS
 66
1
 70
0
  0
VERTEX
  8
0
 62
9
  6
CONTINUOUS
 10
76.0141865265
 20
101.6266866683
  0
VERTEX
  8
0
 62
9
  6
CONTINUOUS
 10
75.9020564703
 20
102.0229100079
  0
VERTEX
  8
0
 62
9
  6
CONTINUOUS
 10
75.6394919254
 20
102.3138803559
  0
SEQEND
  0
POLYLINE
  8
0
 62
9
  6
CONTINUOUS
 66
1
 70
0
  0
VERTEX
  8
0
 62
9
  6
CONTINUOUS
 10
76.0808038526
 20
101.6332603939
  0
VERTEX
  8
0
 62
9
  6
CONTINUOUS
 10
75.9899103253
 20
102.0332604061
  0
VERTEX
  8
0
 62
9
  6
CONTINUOUS
 10
75.7415846047
 20
102.3260807231
  0
VERTEX
  8
0
 62
9
  6
CONTINUOUS
 10
75.4023653757
 20
102.4332603939
  0
SEQEND
  0
LINE
  8
0
 62
7
  6
CONTINUOUS
 10
78.1108496707
 20
96.4332603939
 11
78.1108496707
 21
96.1332603939
  0
LINE
  8
0
 62
7
  6
CONTINUOUS
 10
78.4060553611
 20
96.4332603939
 11
78.4060553611
 21
96.1332603939
  0
LINE
  8
0
 62
7
  6
CONTINUOUS
 10
78.5615281367
 20
96.4332603939
 11
78.5615281367
 21
96.1332603939
  0
LINE
  8
0
 62
7
  6
CONTINUOUS
 10
78.8142049095
 20
96.4332603939
 11
78.8142049095
 21
96.1332603939
  0
LINE
  8
0
 62
7
  6
CONTINUOUS
 10
78.9779886615
 20
96.4332603939
 11
78.9779886615
 21
96.1332603939
  0
LINE
  8
0
 62
7
  6
CONTINUOUS
 10
79.4749086524
 20
96.4332603939
 11
79.4749086524
 21
96.1332603939
  0
LINE
  8
0
 62
7
  6
CONTINUOUS
 10
80.8552417498
 20
96.4332603939
 11
80.8552417498
 21
96.1332603939
  0
LINE
  8
0
 62
7
  6
CONTINUOUS
 10
81.1865217437
 20
96.4332603939
 11
81.1865217437
 21
96.1332603939
  0
LINE
  8
0
 62
9
  6
CONTINUOUS
 10
71.8828672604
 20
102.1808730365
 11
72.0710710067
 21
102.3093627633
  0
POLYLINE
  8
0
 62
9
  6
CONTINUOUS
 66
1
 70
0
  0
VERTEX
  8
0
 62
9
  6
CONTINUOUS
 10
56.6830753962
 20
96.4332603939
  0
VERTEX
  8
0
 62
9
  6
CONTINUOUS
 10
56.8708640889
 20
96.5404401545
  0
VERTEX
  8
0
 62
9
  6
CONTINUOUS
 10
57.0083348794
 20
96.8332605557
  0
VERTEX
  8
0
 62
9
  6
CONTINUOUS
 10
57.0586526464
 20
97.2332603939
  0
SEQEND
  0
LINE
  8
0
 62
9
  6
CONTINUOUS
 10
56.5010128808
 20
96.444216603
 11
56.6977376033
 21
96.5526404319
  0
POLYLINE
  8
0
 62
9
  6
CONTINUOUS
 66
1
 70
0
  0
VERTEX
  8
0
 62
9
  6
CONTINUOUS
 10
55.5501121735
 20
96.5571580244
  0
VERTEX
  8
0
 62
9
  6
CONTINUOUS
 10
55.7435879249
 20
96.6619476092
  0
VERTEX
  8
0
 62
9
  6
CONTINUOUS
 10
55.9090586003
 20
96.9533209735
  0
VERTEX
  8
0
 62
9
  6
CONTINUOUS
 10
55.9968166037
 20
97.3527755407
  0
SEQEND
  0
LINE
  8
0
 62
9
  6
CONTINUOUS
 10
55.240732331
 20
102.1769753051
 11
55.5501121735
 21
102.3093627633
  0
LINE
  8
0
 62
9
  6
CONTINUOUS
 10
53.7023951847
 20
102.1808730365
 11
54.0175933657
 21
102.3093627633
  0
POLYLINE
  8
0
 62
7
  6
CONTINUOUS
 66
1
 70
0
  0
VERTEX
  8
0
 62
7
  6
CONTINUOUS
 10
53.9930477131
 20
102.3076963801
  0
VERTEX
  8
0
 62
7
  6
CONTINUOUS
 10
53.6614260358
 20
102.1884752019
  0
VERTEX
  8
0
 62
7
  6
CONTINUOUS
 10
53.4085199525
 20
101.9307515053
  0
VERTEX
  8
0
 62
7
  6
CONTINUOUS
 10
53.292907924
 20
101.5653875619
  0
VERTEX
  8
0
 62
7
  6
CONTINUOUS
 10
53.2912422118
 20
101.513745247
  0
SEQEND
  0
POLYLINE
  8
0
 62
9
  6
CONTINUOUS
 66
1
 70
0
  0
VERTEX
  8
0
 62
9
  6
CONTINUOUS
 10
47.9705027379
 20
96.5571580244
  0
VERTEX
  8
0
 62
9
  6
CONTINUOUS
 10
47.6069362262
 20
96.6895454827
  0
VERTEX
  8
0
 62
9
  6
CONTINUOUS
 10
47.3480499957
 20
96.9771982905
  0
VERTEX
  8
0
 62
9
  6
CONTINUOUS
 10
47.2544505593
 20
97.3527755407
  0
SEQEND
  0
POLYLINE
  8
0
 62
7
  6
CONTINUOUS
 66
1
 70
0
  0
VERTEX
  8
0
 62
7
  6
CONTINUOUS
 10
53.9930477166
 20
96.5588244072
  0
VERTEX
  8
0
 62
7
  6
CONTINUOUS
 10
53.6220291824
 20
96.7048235245
  0
VERTEX
  8
0
 62
7
  6
CONTINUOUS
 10
53.3602715251
 20
97.027681656
  0
VERTEX
  8
0
 62
7
  6
CONTINUOUS
 10
53.2912492975
 20
97.3527755407
  0
SEQEND
  0
POLYLINE
  8
0
 62
9
  6
CONTINUOUS
 66
1
 70
0
  0
VERTEX
  8
0
 62
9
  6
CONTINUOUS
 10
54.0175933657
 20
96.5571580244
  0
VERTEX
  8
0
 62
9
  6
CONTINUOUS
 10
53.7023951847
 20
96.6856477512
  0
VERTEX
  8
0
 62
9
  6
CONTINUOUS
 10
53.4706095769
 20
96.9741078445
  0
VERTEX
  8
0
 62
9
  6
CONTINUOUS
 10
53.3866849625
 20
97.3527755407
  0
SEQEND
  0
LINE
  8
0
 62
9
  6
CONTINUOUS
 10
55.5501121735
 20
96.5571580244
 11
55.240732331
 21
96.6895454827
  0
LINE
  8
0
 62
9
  6
CONTINUOUS
 10
56.6977376033
 20
102.3138803559
 11
56.5010128808
 21
102.4223041848
  0
LINE
  8
0
 62
9
  6
CONTINUOUS
 10
72.0710710067
 20
96.5571580244
 11
71.8828672604
 21
96.6856477512
  0
POLYLINE
  8
0
 62
9
  6
CONTINUOUS
 66
1
 70
0
  0
VERTEX
  8
0
 62
9
  6
CONTINUOUS
 10
77.4710053609
 20
101.6332603939
  0
VERTEX
  8
0
 62
9
  6
CONTINUOUS
 10
77.3801118399
 20
102.0332603939
  0
VERTEX
  8
0
 62
9
  6
CONTINUOUS
 10
77.1317861224
 20
102.3260807169
  0
VERTEX
  8
0
 62
9
  6
CONTINUOUS
 10
76.7925668839
 20
102.4332603939
  0
SEQEND
  0
LINE
  8
0
 62
7
  6
CONTINUOUS
 10
81.8519709743
 20
96.4332603939
 11
81.8519709743
 21
96.1332603939
  0
LINE
  8
0
 62
9
  6
CONTINUOUS
 10
82.8532525
 20
97.2332603939
 11
82.8532525
 21
101.6332603939
  0
LINE
  8
0
 62
7
  6
CONTINUOUS
 10
83.2281587702
 20
96.4332603939
 11
83.2281587702
 21
96.1332603939
  0
LINE
  8
0
 62
7
  6
CONTINUOUS
 10
83.5402589283
 20
96.4332603939
 11
83.5402589283
 21
96.1332603939
  0
LINE
  8
0
 62
7
  6
CONTINUOUS
 10
83.845803163
 20
96.4332603939
 11
83.845803163
 21
96.1332603939
  0
LINE
  8
0
 62
7
  6
CONTINUOUS
 10
84.1194006068
 20
96.4332603939
 11
84.1194006068
 21
96.1332603939
  0
LINE
  8
0
 62
7
  6
CONTINUOUS
 10
84.2529226795
 20
96.4332603939
 11
84.2529226795
 21
96.1332603939
  0
LINE
  8
0
 62
7
  6
CONTINUOUS
 10
84.35449672
 20
96.4332603939
 11
84.35449672
 21
96.1332603939
  0
LINE
  8
0
 62
7
  6
CONTINUOUS
 10
84.3733356014
 20
96.4332603939
 11
84.3733356014
 21
96.1332603939
  0
LINE
  8
0
 62
7
  6
CONTINUOUS
 10
84.6272705247
 20
96.4332603939
 11
84.6272705247
 21
96.1332603939
  0
LINE
  8
0
 62
7
  6
CONTINUOUS
 10
84.760792633
 20
96.4332603939
 11
84.760792633
 21
96.1332603939
  0
LINE
  8
0
 62
7
  6
CONTINUOUS
 10
84.8877600946
 20
96.4332603939
 11
84.8877600946
 21
96.1332603939
  0
LINE
  8
0
 62
7
  6
CONTINUOUS
 10
84.9065989938
 20
96.4332603939
 11
84.9065989938
 21
96.1332603939
  0
POLYLINE
  8
0
 62
9
  6
CONTINUOUS
 66
1
 70
0
  0
VERTEX
  8
0
 62
9
  6
CONTINUOUS
 10
82.8532524977
 20
101.6332603939
  0
VERTEX
  8
0
 62
9
  6
CONTINUOUS
 10
82.8928700387
 20
102.0332512569
  0
VERTEX
  8
0
 62
9
  6
CONTINUOUS
 10
83.0011105663
 20
102.3260746514
  0
VERTEX
  8
0
 62
9
  6
CONTINUOUS
 10
83.1489764008
 20
102.4332603939
  0
SEQEND
  0
POLYLINE
  8
0
 62
9
  6
CONTINUOUS
 66
1
 70
0
  0
VERTEX
  8
0
 62
9
  6
CONTINUOUS
 10
75.6394919254
 20
96.5526404319
  0
VERTEX
  8
0
 62
9
  6
CONTINUOUS
 10
75.9020564703
 20
96.8436107799
  0
VERTEX
  8
0
 62
9
  6
CONTINUOUS
 10
76.0141865265
 20
97.2398341194
  0
SEQEND
  0
POLYLINE
  8
0
 62
9
  6
CONTINUOUS
 66
1
 70
0
  0
VERTEX
  8
0
 62
9
  6
CONTINUOUS
 10
58.9994189567
 20
96.4332603939
  0
VERTEX
  8
0
 62
9
  6
CONTINUOUS
 10
59.1872075818
 20
96.5404400708
  0
VERTEX
  8
0
 62
9
  6
CONTINUOUS
 10
59.3246783964
 20
96.8332603939
  0
VERTEX
  8
0
 62
9
  6
CONTINUOUS
 10
59.3749962069
 20
97.2332603939
  0
SEQEND
  0
LINE
  8
0
 62
7
  6
CONTINUOUS
 10
71.9406208655
 20
102.2944989219
 11
71.5914588017
 21
102.1186069931
  0
LINE
  8
0
 62
7
  6
CONTINUOUS
 10
71.9406208869
 20
96.572021861
 11
71.5914588049
 21
96.7479137919
  0
POLYLINE
  8
0
 62
9
  6
CONTINUOUS
 66
1
 70
0
  0
VERTEX
  8
0
 62
9
  6
CONTINUOUS
 10
74.7254714453
 20
96.5571580244
  0
VERTEX
  8
0
 62
9
  6
CONTINUOUS
 10
74.553176351
 20
96.6895454827
  0
VERTEX
  8
0
 62
9
  6
CONTINUOUS
 10
74.4304895082
 20
96.9771982905
  0
VERTEX
  8
0
 62
9
  6
CONTINUOUS
 10
74.3861324973
 20
97.3527755407
  0
SEQEND
  0
LINE
  8
0
 62
7
  6
CONTINUOUS
 10
85.1553029962
 20
96.4332603939
 11
85.1553029962
 21
96.1332603939
  0
LINE
  8
0
 62
7
  6
CONTINUOUS
 10
85.9767551659
 20
96.4332603939
 11
85.9767551659
 21
96.1332603939
  0
LINE
  8
0
 62
7
  6
CONTINUOUS
 10
86.0762687674
 20
96.4332603939
 11
86.0762687674
 21
96.1332603939
  0
LINE
  8
0
 62
7
  6
CONTINUOUS
 10
86.6158110794
 20
96.4332603939
 11
86.6158110794
 21
96.1332603939
  0
LINE
  8
0
 62
7
  6
CONTINUOUS
 10
88.2731253506
 20
96.4332603939
 11
88.2731253506
 21
96.1332603939
  0
LINE
  8
0
 62
7
  6
CONTINUOUS
 10
88.4142854527
 20
96.4332603939
 11
88.4142854527
 21
96.1332603939
  0
LINE
  8
0
 62
9
  6
CONTINUOUS
 10
72.2899777145
 20
102.3260811367
 11
72.5379199172
 21
102.4332603939
  0
LINE
  8
AXES
 62
7
  6
CONTINUOUS
 10
68.3260397141
 20
86.9332603939
 11
129.3260397141
 21
86.9332603939
  0
LINE
  8
AXES
 62
9
  6
CONTINUOUS
 10
66.3260397141
 20
88.9332603939
 11
131.3260397141
 21
88.9332603939
  0
LINE
  8
0
 62
9
  6
CONTINUOUS
 10
65.5462731805
 20
96.4332603939
 11
65.2323184115
 21
96.5404906783
  0
LINE
  8
0
 62
9
  6
CONTINUOUS
 10
72.5379199172
 20
96.4332603939
 11
72.5014597289
 21
96.4490212286
  0
POLYLINE
  8
0
 62
9
  6
CONTINUOUS
 66
1
 70
0
  0
VERTEX
  8
0
 62
9
  6
CONTINUOUS
 10
83.1489763788
 20
96.4332603939
  0
VERTEX
  8
0
 62
9
  6
CONTINUOUS
 10
83.0010820408
 20
96.5404906783
  0
VERTEX
  8
0
 62
9
  6
CONTINUOUS
 10
82.8928556977
 20
96.8333366409
  0
VERTEX
  8
0
 62
9
  6
CONTINUOUS
 10
82.8532524687
 20
97.2332603939
  0
SEQEND
  0
LINE
  8
0
 62
7
  6
CONTINUOUS
 10
88.9538277647
 20
96.4332603939
 11
88.9538277647
 21
96.1332603939
  0
LINE
  8
0
 62
7
  6
CONTINUOUS
 10
89.8021521233
 20
96.4332603939
 11
89.8021521233
 21
96.1332603939
  0
LINE
  8
0
 62
7
  6
CONTINUOUS
 10
89.9021307531
 20
96.4332603939
 11
89.9021307531
 21
96.1332603939
  0
LINE
  8
0
 62
7
  6
CONTINUOUS
 10
90.0957542524
 20
96.4332603939
 11
90.0957542524
 21
96.1332603939
  0
LINE
  8
0
 62
7
  6
CONTINUOUS
 10
90.3150196686
 20
96.4332603939
 11
90.3150196686
 21
96.1332603939
  0
LINE
  8
0
 62
7
  6
CONTINUOUS
 10
90.7307844409
 20
96.4332603939
 11
90.7307844409
 21
96.1332603939
  0
LINE
  8
0
 62
7
  6
CONTINUOUS
 10
90.9756889712
 20
96.4332603939
 11
90.9756889712
 21
96.1332603939
  0
LINE
  8
0
 62
7
  6
CONTINUOUS
 10
91.3558674257
 20
96.4332603939
 11
91.3558674257
 21
96.1332603939
  0
LINE
  8
0
 62
7
  6
CONTINUOUS
 10
91.6264138728
 20
96.4332603939
 11
91.6264138728
 21
96.1332603939
  0
LINE
  8
0
 62
7
  6
CONTINUOUS
 10
91.9225994341
 20
96.4332603939
 11
91.9225994341
 21
96.1332603939
  0
LINE
  8
0
 62
7
  6
CONTINUOUS
 10
92.0351086996
 20
96.4332603939
 11
92.0351086996
 21
96.1332603939
  0
LINE
  8
0
 62
7
  6
CONTINUOUS
 10
92.060749251
 20
96.4332603939
 11
92.060749251
 21
96.1332603939
  0
LINE
  8
0
 62
7
  6
CONTINUOUS
 10
125.2058729019
 20
96.4590769297
 11
125.7114572889
 21
96.5720215812
  0
LINE
  8
0
 62
9
  6
CONTINUOUS
 10
125.0755385647
 20
96.4442166031
 11
125.5810077247
 21
96.5571580244
  0
LINE
  8
0
 62
9
  6
CONTINUOUS
 10
122.9266075276
 20
96.5571580244
 11
122.3558387422
 21
96.4442166031
  0
LINE
  8
0
 62
7
  6
CONTINUOUS
 10
142.7457669122
 20
96.4458818693
 11
143.6590310133
 21
96.5588243207
  0
LINE
  8
0
 62
9
  6
CONTINUOUS
 10
142.7212859719
 20
96.4442166031
 11
142.7457669122
 21
96.4458818693
  0
LINE
  8
0
 62
9
  6
CONTINUOUS
 10
142.1019669828
 20
96.5571580244
 11
141.1510665473
 21
96.4442166031
  0
LINE
  8
0
 62
9
  6
CONTINUOUS
 10
141.6552628244
 20
97.3527755424
 11
140.7044240821
 21
97.2398341194
  0
LINE
  8
AXES
 62
7
  6
CONTINUOUS
 10
149.7046624847
 20
96.5571580244
 11
148.6300966406
 21
96.4442166031
  0
LINE
  8
0
 62
9
  6
CONTINUOUS
 10
149.6815766747
 20
96.5571580244
 11
148.6053375928
 21
96.4442166031
  0
LINE
  8
0
 62
9
  6
CONTINUOUS
 10
149.6259114602
 20
97.3527755424
 11
148.5496759909
 21
97.2398341194
  0
POLYLINE
  8
0
 62
9
  6
CONTINUOUS
 66
1
 70
0
  0
VERTEX
  8
0
 62
9
  6
CONTINUOUS
 10
141.1510665473
 20
96.4442166031
  0
VERTEX
  8
0
 62
9
  6
CONTINUOUS
 10
141.0601417476
 20
96.436000312
  0
VERTEX
  8
0
 62
9
  6
CONTINUOUS
 10
140.969004032
 20
96.4332603939
  0
SEQEND
  0
POLYLINE
  8
0
 62
7
  6
CONTINUOUS
 66
1
 70
0
  0
VERTEX
  8
0
 62
7
  6
CONTINUOUS
 10
148.6053375928
 20
96.4442166031
  0
VERTEX
  8
0
 62
7
  6
CONTINUOUS
 10
148.5008534677
 20
96.436000312
  0
VERTEX
  8
0
 62
7
  6
CONTINUOUS
 10
148.3961207559
 20
96.4332603939
  0
SEQEND
  0
LINE
  8
0
 62
9
  6
CONTINUOUS
 10
54.9811886098
 20
96.438332333
 11
54.9961095051
 21
96.4377093014
  0
LINE
  8
0
 62
7
  6
CONTINUOUS
 10
54.9063159047
 20
96.4458818343
 11
54.9811886098
 21
96.438332333
  0
LINE
  8
0
 62
9
  6
CONTINUOUS
 10
49.0467418353
 20
96.4442166031
 11
47.9705027132
 21
96.5571580244
  0
LINE
  8
0
 62
9
  6
CONTINUOUS
 10
49.1024034373
 20
97.2398341194
 11
48.0261679679
 21
97.3527755378
  0
LINE
  8
AXES
 62
7
  6
CONTINUOUS
 10
47.9474169435
 20
96.5571580244
 11
49.0219827875
 21
96.4442166031
  0
LINE
  8
0
 62
9
  6
CONTINUOUS
 10
56.5010128808
 20
96.4442166031
 11
55.5501117427
 21
96.5571580244
  0
LINE
  8
0
 62
9
  6
CONTINUOUS
 10
56.947655346
 20
97.2398341194
 11
55.9968166037
 21
97.3527755378
  0
LINE
  8
0
 62
7
  6
CONTINUOUS
 10
53.9930477819
 20
96.5588243991
 11
54.9063125121
 21
96.4458818699
  0
LINE
  8
0
 62
9
  6
CONTINUOUS
 10
54.9063125121
 20
96.4458818699
 11
54.9307934562
 21
96.4442166031
  0
LINE
  8
0
 62
9
  6
CONTINUOUS
 10
72.5765408635
 20
96.4442166031
 11
72.6280227411
 21
96.436000312
  0
LINE
  8
0
 62
7
  6
CONTINUOUS
 10
72.4462075998
 20
96.4590770714
 11
72.5304143674
 21
96.4437515078
  0
LINE
  8
0
 62
9
  6
CONTINUOUS
 10
75.2962406859
 20
96.4442166031
 11
74.7254707238
 21
96.5571580244
  0
LINE
  8
0
 62
7
  6
CONTINUOUS
 10
71.9406211966
 20
96.5720217918
 11
72.4462065078
 21
96.4590769338
  0
LINE
  8
0
 62
9
  6
CONTINUOUS
 10
72.0710705669
 20
96.5571580244
 11
72.5765408635
 21
96.4442166031
  0
POLYLINE
  8
0
 62
9
  6
CONTINUOUS
 66
1
 70
0
  0
VERTEX
  8
0
 62
9
  6
CONTINUOUS
 10
92.6997433966
 20
96.4332603939
  0
VERTEX
  8
0
 62
9
  6
CONTINUOUS
 10
92.6419618785
 20
96.5404396603
  0
VERTEX
  8
0
 62
9
  6
CONTINUOUS
 10
92.5996627436
 20
96.8332597967
  0
VERTEX
  8
0
 62
9
  6
CONTINUOUS
 10
92.5841801556
 20
97.2332603939
  0
SEQEND
  0
LINE
  8
0
 62
7
  6
CONTINUOUS
 10
92.4325367524
 20
96.4332603939
 11
92.4325367524
 21
96.1332603939
  0
LINE
  8
0
 62
7
  6
CONTINUOUS
 10
92.4966380501
 20
96.4332603939
 11
92.4966380501
 21
96.1332603939
  0
LINE
  8
0
 62
9
  6
CONTINUOUS
 10
92.5841801556
 20
97.2332603939
 11
92.5841801556
 21
101.6332603939
  0
POLYLINE
  8
0
 62
9
  6
CONTINUOUS
 66
1
 70
0
  0
VERTEX
  8
0
 62
9
  6
CONTINUOUS
 10
92.5841801556
 20
101.6332603939
  0
VERTEX
  8
0
 62
9
  6
CONTINUOUS
 10
92.5996627447
 20
102.0332610045
  0
VERTEX
  8
0
 62
9
  6
CONTINUOUS
 10
92.6419618808
 20
102.3260811367
  0
VERTEX
  8
0
 62
9
  6
CONTINUOUS
 10
92.6997433966
 20
102.4332603939
  0
SEQEND
  0
LINE
  8
0
 62
9
  6
CONTINUOUS
 10
96.4701105382
 20
102.033252505
 11
96.7627477831
 21
102.3260753721
  0
LINE
  8
0
 62
9
  6
CONTINUOUS
 10
75.2962406859
 20
96.444216603
 11
75.6394919254
 21
96.5526404319
  0
POLYLINE
  8
0
 62
9
  6
CONTINUOUS
 66
1
 70
0
  0
VERTEX
  8
0
 62
9
  6
CONTINUOUS
 10
75.4023653757
 20
96.4332603939
  0
VERTEX
  8
0
 62
9
  6
CONTINUOUS
 10
75.7415847368
 20
96.5404401545
  0
VERTEX
  8
0
 62
9
  6
CONTINUOUS
 10
75.9899104106
 20
96.8332605557
  0
VERTEX
  8
0
 62
9
  6
CONTINUOUS
 10
76.0808038526
 20
97.2332603939
  0
SEQEND
  0
POLYLINE
  8
0
 62
9
  6
CONTINUOUS
 66
1
 70
0
  0
VERTEX
  8
0
 62
9
  6
CONTINUOUS
 10
76.7925668839
 20
96.4332603939
  0
VERTEX
  8
0
 62
9
  6
CONTINUOUS
 10
77.1317861224
 20
96.5404400708
  0
VERTEX
  8
0
 62
9
  6
CONTINUOUS
 10
77.3801118399
 20
96.8332603939
  0
VERTEX
  8
0
 62
9
  6
CONTINUOUS
 10
77.4710053609
 20
97.2332603939
  0
SEQEND
  0
POLYLINE
  8
0
 62
9
  6
CONTINUOUS
 66
1
 70
0
  0
VERTEX
  8
0
 62
9
  6
CONTINUOUS
 10
74.7254714453
 20
96.5571580244
  0
VERTEX
  8
0
 62
9
  6
CONTINUOUS
 10
75.0632552401
 20
96.6619476092
  0
VERTEX
  8
0
 62
9
  6
CONTINUOUS
 10
75.3296174079
 20
96.9533209735
  0
VERTEX
  8
0
 62
9
  6
CONTINUOUS
 10
75.4435209844
 20
97.3527755407
  0
SEQEND
  0
LINE
  8
0
 62
9
  6
CONTINUOUS
 10
100.3962591387
 20
96.444216603
 11
100.7940630029
 21
96.5526404319
  0
POLYLINE
  8
0
 62
9
  6
CONTINUOUS
 66
1
 70
0
  0
VERTEX
  8
0
 62
9
  6
CONTINUOUS
 10
100.4895660625
 20
96.4332603939
  0
VERTEX
  8
0
 62
9
  6
CONTINUOUS
 10
100.8893223933
 20
96.5404400708
  0
VERTEX
  8
0
 62
9
  6
CONTINUOUS
 10
101.1819643381
 20
96.8332603939
  0
VERTEX
  8
0
 62
9
  6
CONTINUOUS
 10
101.2890787241
 20
97.2332603939
  0
SEQEND
  0
POLYLINE
  8
0
 62
9
  6
CONTINUOUS
 66
1
 70
0
  0
VERTEX
  8
0
 62
9
  6
CONTINUOUS
 10
100.398009978
 20
96.4332603939
  0
VERTEX
  8
0
 62
9
  6
CONTINUOUS
 10
100.7977664536
 20
96.5404401545
  0
VERTEX
  8
0
 62
9
  6
CONTINUOUS
 10
101.090408347
 20
96.8332605557
  0
VERTEX
  8
0
 62
9
  6
CONTINUOUS
 10
101.1975226396
 20
97.2332603939
  0
SEQEND
  0
POLYLINE
  8
0
 62
9
  6
CONTINUOUS
 66
1
 70
0
  0
VERTEX
  8
0
 62
9
  6
CONTINUOUS
 10
100.3585585218
 20
96.5571580244
  0
VERTEX
  8
0
 62
9
  6
CONTINUOUS
 10
100.750141465
 20
96.6619476092
  0
VERTEX
  8
0
 62
9
  6
CONTINUOUS
 10
101.0460235975
 20
96.9533209735
  0
VERTEX
  8
0
 62
9
  6
CONTINUOUS
 10
101.1555523757
 20
97.3527755407
  0
SEQEND
  0
LINE
  8
0
 62
9
  6
CONTINUOUS
 10
122.2085584438
 20
97.3527755424
 11
121.6378929017
 21
97.2398341194
  0
POLYLINE
  8
0
 62
9
  6
CONTINUOUS
 66
1
 70
0
  0
VERTEX
  8
0
 62
9
  6
CONTINUOUS
 10
122.3558387422
 20
96.4442166031
  0
VERTEX
  8
0
 62
9
  6
CONTINUOUS
 10
122.3028364947
 20
96.436000312
  0
VERTEX
  8
0
 62
9
  6
CONTINUOUS
 10
122.2497140525
 20
96.4332603939
  0
SEQEND
  0
POLYLINE
  8
0
 62
9
  6
CONTINUOUS
 66
1
 70
0
  0
VERTEX
  8
0
 62
9
  6
CONTINUOUS
 10
121.6378929017
 20
97.2398341194
  0
VERTEX
  8
0
 62
9
  6
CONTINUOUS
 10
121.6046330675
 20
97.2349069567
  0
VERTEX
  8
0
 62
9
  6
CONTINUOUS
 10
121.5712755755
 20
97.2332603939
  0
SEQEND
  0
POLYLINE
  8
0
 62
7
  6
CONTINUOUS
 66
1
 70
0
  0
VERTEX
  8
0
 62
7
  6
CONTINUOUS
 10
125.0592337019
 20
96.4368018149
  0
VERTEX
  8
0
 62
7
  6
CONTINUOUS
 10
125.1793888337
 20
96.4535093492
  0
VERTEX
  8
0
 62
7
  6
CONTINUOUS
 10
125.2058162848
 20
96.459064667
  0
SEQEND
  0
LINE
  8
0
 62
9
  6
CONTINUOUS
 10
125.5810084215
 20
96.5571580244
 11
125.7158125311
 21
96.5730116352
  0
LINE
  8
0
 62
9
  6
CONTINUOUS
 10
125.0755385647
 20
96.444216603
 11
125.2058163702
 21
96.4590643042
  0
POLYLINE
  8
0
 62
9
  6
CONTINUOUS
 66
1
 70
0
  0
VERTEX
  8
0
 62
9
  6
CONTINUOUS
 10
140.7044240821
 20
97.2398341194
  0
VERTEX
  8
0
 62
9
  6
CONTINUOUS
 10
140.6490067903
 20
97.2349069567
  0
VERTEX
  8
0
 62
9
  6
CONTINUOUS
 10
140.5934267818
 20
97.2332603939
  0
SEQEND
  0
POLYLINE
  8
0
 62
9
  6
CONTINUOUS
 66
1
 70
0
  0
VERTEX
  8
0
 62
9
  6
CONTINUOUS
 10
148.5496759909
 20
97.2398341194
  0
VERTEX
  8
0
 62
9
  6
CONTINUOUS
 10
148.48695026
 20
97.2349069567
  0
VERTEX
  8
0
 62
9
  6
CONTINUOUS
 10
148.4240403532
 20
97.2332603939
  0
SEQEND
  0
POLYLINE
  8
0
 62
7
  6
CONTINUOUS
 66
1
 70
0
  0
VERTEX
  8
0
 62
7
  6
CONTINUOUS
 10
142.6162515491
 20
96.4349636542
  0
VERTEX
  8
0
 62
7
  6
CONTINUOUS
 10
142.7230683502
 20
96.4432333037
  0
VERTEX
  8
0
 62
7
  6
CONTINUOUS
 10
142.7457589091
 20
96.4458812641
  0
SEQEND
  0
LINE
  8
0
 62
9
  6
CONTINUOUS
 10
143.6344860624
 20
96.5571580244
 11
143.6613166646
 21
96.5591104861
  0
LINE
  8
0
 62
9
  6
CONTINUOUS
 10
142.7212859719
 20
96.444216603
 11
142.7457589572
 21
96.4458808857
  0
POLYLINE
  8
0
 62
9
  6
CONTINUOUS
 66
1
 70
0
  0
VERTEX
  8
0
 62
9
  6
CONTINUOUS
 10
124.9724464175
 20
96.4332603939
  0
VERTEX
  8
0
 62
9
  6
CONTINUOUS
 10
125.0240566873
 20
96.436000312
  0
VERTEX
  8
0
 62
9
  6
CONTINUOUS
 10
125.0755385647
 20
96.4442166031
  0
SEQEND
  0
POLYLINE
  8
0
 62
9
  6
CONTINUOUS
 66
1
 70
0
  0
VERTEX
  8
0
 62
9
  6
CONTINUOUS
 10
142.6075859211
 20
96.4347520369
  0
VERTEX
  8
0
 62
9
  6
CONTINUOUS
 10
142.6312389583
 20
96.436000312
  0
VERTEX
  8
0
 62
9
  6
CONTINUOUS
 10
142.7212859719
 20
96.4442166031
  0
SEQEND
  0
LINE
  8
0
 62
9
  6
CONTINUOUS
 10
142.5409742959
 20
96.4332603939
 11
142.6075859211
 21
96.4347520369
  0
LINE
  8
AXES
 62
9
  6
CONTINUOUS
 10
66.3260397141
 20
95.4332603939
 11
131.3260397141
 21
95.4332603939
  0
LINE
  8
0
 62
7
  6
CONTINUOUS
 10
127.4752968708
 20
96.1332603939
 11
125.0592337019
 21
96.1332603939
  0
LINE
  8
0
 62
7
  6
CONTINUOUS
 10
125.0360393859
 20
96.1332603939
 11
119.6809196447
 21
96.1332603939
  0
LINE
  8
0
 62
7
  6
CONTINUOUS
 10
117.806295981
 20
96.1332603939
 11
110.7591280127
 21
96.1332603939
  0
LINE
  8
0
 62
7
  6
CONTINUOUS
 10
92.4325367524
 20
96.1332603939
 11
89.9021307531
 21
96.1332603939
  0
LINE
  8
0
 62
7
  6
CONTINUOUS
 10
89.8021521233
 20
96.1332603939
 11
85.1553029962
 21
96.1332603939
  0
LINE
  8
0
 62
7
  6
CONTINUOUS
 10
84.9065989938
 20
96.1332603939
 11
76.8422065589
 21
96.1332603939
  0
LINE
  8
0
 62
7
  6
CONTINUOUS
 10
75.2143312635
 20
96.1332603939
 11
73.51123567
 21
96.1332603939
  0
LINE
  8
0
 62
7
  6
CONTINUOUS
 10
73.49484893
 20
96.1332603939
 11
71.9190065232
 21
96.1332603939
  0
LINE
  8
0
 62
7
  6
CONTINUOUS
 10
71.8779032516
 20
96.1332603939
 11
70.0719578239
 21
96.1332603939
  0
POLYLINE
  8
0
 62
7
  6
CONTINUOUS
 66
1
 70
0
  0
VERTEX
  8
0
 62
7
  6
CONTINUOUS
 10
49.2559586723
 20
96.4332603939
  0
VERTEX
  8
0
 62
7
  6
CONTINUOUS
 10
49.1512259605
 20
96.436000312
  0
VERTEX
  8
0
 62
7
  6
CONTINUOUS
 10
49.0467418353
 20
96.4442166031
  0
SEQEND
  0
POLYLINE
  8
0
 62
9
  6
CONTINUOUS
 66
1
 70
0
  0
VERTEX
  8
0
 62
9
  6
CONTINUOUS
 10
49.2280390749
 20
97.2332603939
  0
VERTEX
  8
0
 62
9
  6
CONTINUOUS
 10
49.1651291682
 20
97.2349069568
  0
VERTEX
  8
0
 62
9
  6
CONTINUOUS
 10
49.1024034373
 20
97.2398341194
  0
SEQEND
  0
POLYLINE
  8
0
 62
9
  6
CONTINUOUS
 66
1
 70
0
  0
VERTEX
  8
0
 62
9
  6
CONTINUOUS
 10
57.0586526464
 20
97.2332603939
  0
VERTEX
  8
0
 62
9
  6
CONTINUOUS
 10
57.0030726378
 20
97.2349069568
  0
VERTEX
  8
0
 62
9
  6
CONTINUOUS
 10
56.947655346
 20
97.2398341194
  0
SEQEND
  0
POLYLINE
  8
0
 62
7
  6
CONTINUOUS
 66
1
 70
0
  0
VERTEX
  8
0
 62
7
  6
CONTINUOUS
 10
56.6830753962
 20
96.4332603939
  0
VERTEX
  8
0
 62
7
  6
CONTINUOUS
 10
56.5919376806
 20
96.436000312
  0
VERTEX
  8
0
 62
7
  6
CONTINUOUS
 10
56.5010128808
 20
96.4442166031
  0
SEQEND
  0
POLYLINE
  8
0
 62
9
  6
CONTINUOUS
 66
1
 70
0
  0
VERTEX
  8
0
 62
9
  6
CONTINUOUS
 10
76.0808038526
 20
97.2332603939
  0
VERTEX
  8
0
 62
9
  6
CONTINUOUS
 10
76.0474463607
 20
97.2349069568
  0
VERTEX
  8
0
 62
9
  6
CONTINUOUS
 10
76.0141865265
 20
97.2398341194
  0
SEQEND
  0
POLYLINE
  8
0
 62
9
  6
CONTINUOUS
 66
1
 70
0
  0
VERTEX
  8
0
 62
9
  6
CONTINUOUS
 10
75.4023653757
 20
96.4332603939
  0
VERTEX
  8
0
 62
9
  6
CONTINUOUS
 10
75.3492429337
 20
96.436000312
  0
VERTEX
  8
0
 62
9
  6
CONTINUOUS
 10
75.2962406859
 20
96.4442166031
  0
SEQEND
  0
LINE
  8
0
 62
9
  6
CONTINUOUS
 10
72.6280227411
 20
96.436000312
 11
72.6796330107
 21
96.4332603939
  0
LINE
  8
0
 62
9
  6
CONTINUOUS
 10
54.9307934914
 20
96.4442169831
 11
54.9063159047
 21
96.4458818343
  0
LINE
  8
0
 62
9
  6
CONTINUOUS
 10
54.0175933657
 20
96.5571580244
 11
53.9930477822
 21
96.5588243991
  0
POLYLINE
  8
0
 62
9
  6
CONTINUOUS
 66
1
 70
0
  0
VERTEX
  8
0
 62
9
  6
CONTINUOUS
 10
54.9961095051
 20
96.4377093014
  0
VERTEX
  8
0
 62
9
  6
CONTINUOUS
 10
55.0208404699
 20
96.436000312
  0
VERTEX
  8
0
 62
9
  6
CONTINUOUS
 10
55.1111051323
 20
96.4332603939
  0
SEQEND
  0
LINE
  8
0
 62
9
  6
CONTINUOUS
 10
72.0710710067
 20
96.5571580244
 11
71.9406211969
 21
96.5720217918
  0
LINE
  8
0
 62
9
  6
CONTINUOUS
 10
72.5765408845
 20
96.4442169831
 11
72.4462075998
 21
96.4590770714
  0
LINE
  8
0
 62
9
  6
CONTINUOUS
 10
76.0141865265
 20
97.2398341194
 11
75.4435209844
 21
97.3527755378
  0
POLYLINE
  8
0
 62
9
  6
CONTINUOUS
 66
1
 70
0
  0
VERTEX
  8
0
 62
9
  6
CONTINUOUS
 10
97.1625133657
 20
96.4332603939
  0
VERTEX
  8
0
 62
9
  6
CONTINUOUS
 10
96.7626799454
 20
96.540484611
  0
VERTEX
  8
0
 62
9
  6
CONTINUOUS
 10
96.4700771646
 20
96.8333261285
  0
SEQEND
  0
POLYLINE
  8
0
 62
7
  6
CONTINUOUS
 66
1
 70
0
  0
VERTEX
  8
0
 62
7
  6
CONTINUOUS
 10
97.2540694502
 20
96.4332603939
  0
VERTEX
  8
0
 62
7
  6
CONTINUOUS
 10
96.8543131194
 20
96.5404400708
  0
VERTEX
  8
0
 62
7
  6
CONTINUOUS
 10
96.5616711746
 20
96.8332603939
  0
VERTEX
  8
0
 62
7
  6
CONTINUOUS
 10
96.4545567886
 20
97.2332603939
  0
SEQEND
  0
POLYLINE
  8
0
 62
9
  6
CONTINUOUS
 66
1
 70
0
  0
VERTEX
  8
0
 62
9
  6
CONTINUOUS
 10
97.2935209063
 20
96.5571580244
  0
VERTEX
  8
0
 62
9
  6
CONTINUOUS
 10
96.8956673592
 20
96.6655433008
  0
VERTEX
  8
0
 62
9
  6
CONTINUOUS
 10
96.6041884661
 20
96.9565188357
  0
VERTEX
  8
0
 62
9
  6
CONTINUOUS
 10
96.4965270525
 20
97.3527755407
  0
SEQEND
  0
LINE
  8
0
 62
9
  6
CONTINUOUS
 10
97.2558202907
 20
96.4442169831
 11
96.8580164942
 21
96.5526407518
  0
LINE
  8
0
 62
9
  6
CONTINUOUS
 10
75.6394919254
 20
102.3138803559
 11
75.2962406859
 21
102.4223041848
  0
POLYLINE
  8
0
 62
9
  6
CONTINUOUS
 66
1
 70
0
  0
VERTEX
  8
0
 62
9
  6
CONTINUOUS
 10
97.2558202895
 20
102.4223041846
  0
VERTEX
  8
0
 62
9
  6
CONTINUOUS
 10
97.254943549
 20
102.4305112173
  0
VERTEX
  8
0
 62
9
  6
CONTINUOUS
 10
97.2540694502
 20
102.4332603939
  0
SEQEND
  0
POLYLINE
  8
0
 62
9
  6
CONTINUOUS
 66
1
 70
0
  0
VERTEX
  8
0
 62
9
  6
CONTINUOUS
 10
97.2935209063
 20
96.5571580244
  0
VERTEX
  8
0
 62
9
  6
CONTINUOUS
 10
97.2827406366
 20
96.6856477512
  0
VERTEX
  8
0
 62
9
  6
CONTINUOUS
 10
97.274813207
 20
96.9741078445
  0
VERTEX
  8
0
 62
9
  6
CONTINUOUS
 10
97.2719428542
 20
97.3527755407
  0
SEQEND
  0
LINE
  8
0
 62
9
  6
CONTINUOUS
 10
96.363000704
 20
97.2332603939
 11
96.363000704
 21
101.6332603939
  0
LINE
  8
0
 62
9
  6
CONTINUOUS
 10
96.4965270525
 20
97.3527755424
 11
96.4965270525
 21
101.5137452531
  0
LINE
  8
0
 62
9
  6
CONTINUOUS
 10
97.2719428542
 20
101.513745247
 11
97.2719428542
 21
97.3527755407
  0
LINE
  8
AXES
 62
2
  6
CENTER
 10
98.8260397141
 20
84.9332603939
 11
98.8260397141
 21
113.9332603939
  0
POLYLINE
  8
0
 62
9
  6
CONTINUOUS
 66
1
 70
0
  0
VERTEX
  8
0
 62
9
  6
CONTINUOUS
 10
97.2719428542
 20
101.513745247
  0
VERTEX
  8
0
 62
9
  6
CONTINUOUS
 10
97.274813207
 20
101.8924129433
  0
VERTEX
  8
0
 62
9
  6
CONTINUOUS
 10
97.2827406366
 20
102.1808730365
  0
VERTEX
  8
0
 62
9
  6
CONTINUOUS
 10
97.2935209063
 20
102.3093627633
  0
SEQEND
  0
POLYLINE
  8
0
 62
9
  6
CONTINUOUS
 66
1
 70
0
  0
VERTEX
  8
0
 62
9
  6
CONTINUOUS
 10
97.2558202895
 20
96.4442166031
  0
VERTEX
  8
0
 62
9
  6
CONTINUOUS
 10
97.2549425035
 20
96.436000312
  0
VERTEX
  8
0
 62
9
  6
CONTINUOUS
 10
97.2540694502
 20
96.4332603939
  0
SEQEND
  0
LINE
  8
0
 62
9
  6
CONTINUOUS
 10
96.363000704
 20
101.6332603939
 11
96.4701105382
 21
102.033252505
  0
POLYLINE
  8
0
 62
7
  6
CONTINUOUS
 66
1
 70
0
  0
VERTEX
  8
0
 62
7
  6
CONTINUOUS
 10
96.4545567886
 20
101.6332603939
  0
VERTEX
  8
0
 62
7
  6
CONTINUOUS
 10
96.5616711746
 20
102.0332603939
  0
VERTEX
  8
0
 62
7
  6
CONTINUOUS
 10
96.8543131194
 20
102.3260807169
  0
VERTEX
  8
0
 62
7
  6
CONTINUOUS
 10
97.2540694502
 20
102.4332603939
  0
SEQEND
  0
POLYLINE
  8
0
 62
9
  6
CONTINUOUS
 66
1
 70
0
  0
VERTEX
  8
0
 62
9
  6
CONTINUOUS
 10
96.4965270525
 20
101.513745247
  0
VERTEX
  8
0
 62
9
  6
CONTINUOUS
 10
96.6041884669
 20
101.9100019496
  0
VERTEX
  8
0
 62
9
  6
CONTINUOUS
 10
96.89566736
 20
102.2009774845
  0
VERTEX
  8
0
 62
9
  6
CONTINUOUS
 10
97.2935209063
 20
102.3093627633
  0
SEQEND
  0
LINE
  8
0
 62
9
  6
CONTINUOUS
 10
96.4965270525
 20
97.3527755424
 11
96.4589440817
 21
97.2398341194
  0
LINE
  8
0
 62
9
  6
CONTINUOUS
 10
97.2935203895
 20
96.5571580244
 11
97.2558202895
 21
96.4442166031
  0
POLYLINE
  8
0
 62
9
  6
CONTINUOUS
 66
1
 70
0
  0
VERTEX
  8
0
 62
9
  6
CONTINUOUS
 10
96.4589440817
 20
97.2398341194
  0
VERTEX
  8
0
 62
9
  6
CONTINUOUS
 10
96.4567536509
 20
97.2349069567
  0
VERTEX
  8
0
 62
9
  6
CONTINUOUS
 10
96.4545567886
 20
97.2332603939
  0
SEQEND
  0
POLYLINE
  8
0
 62
9
  6
CONTINUOUS
 66
1
 70
0
  0
VERTEX
  8
0
 62
9
  6
CONTINUOUS
 10
101.1975226396
 20
101.6332603939
  0
VERTEX
  8
0
 62
9
  6
CONTINUOUS
 10
101.1953251357
 20
101.6316137428
  0
VERTEX
  8
0
 62
9
  6
CONTINUOUS
 10
101.1931353464
 20
101.6266866683
  0
SEQEND
  0
LINE
  8
0
 62
7
  6
CONTINUOUS
 10
148.3961207559
 20
96.4332603939
 11
143.0493147432
 21
96.4332603939
  0
LINE
  8
AXES
 62
7
  6
CONTINUOUS
 10
100.398009978
 20
96.4332603939
 11
97.2540694502
 21
96.4332603939
  0
LINE
  8
0
 62
7
  6
CONTINUOUS
 10
49.2559586723
 20
96.4332603939
 11
100.398009978
 21
96.4332603939
  0
LINE
  8
0
 62
7
  6
CONTINUOUS
 10
100.4895660625
 20
96.4332603939
 11
142.5409742959
 21
96.4332603939
  0
LINE
  8
0
 62
9
  6
CONTINUOUS
 10
148.6300966406
 20
96.4442166031
 11
148.6053375928
 21
96.4442166031
  0
LINE
  8
0
 62
9
  6
CONTINUOUS
 10
142.7212859719
 20
96.4442166031
 11
142.5409742959
 21
96.4332603939
  0
LINE
  8
0
 62
9
  6
CONTINUOUS
 10
49.0467418353
 20
96.4442166031
 11
49.0219827875
 21
96.4442166031
  0
LINE
  8
0
 62
9
  6
CONTINUOUS
 10
149.7046624845
 20
96.5571580244
 11
149.6815766747
 21
96.5571580244
  0
LINE
  8
0
 62
9
  6
CONTINUOUS
 10
143.6344856744
 20
96.5571580244
 11
142.1019669828
 21
96.5571580244
  0
LINE
  8
0
 62
9
  6
CONTINUOUS
 10
125.5810077247
 20
96.5571580244
 11
122.9266075276
 21
96.5571580244
  0
LINE
  8
0
 62
9
  6
CONTINUOUS
 10
100.3585577031
 20
96.5571580244
 11
97.2935203895
 21
96.5571580244
  0
LINE
  8
0
 62
9
  6
CONTINUOUS
 10
74.7254707238
 20
96.5571580244
 11
72.0710705669
 21
96.5571580244
  0
LINE
  8
0
 62
9
  6
CONTINUOUS
 10
55.5501117427
 20
96.5571580244
 11
54.0175931208
 21
96.5571580244
  0
LINE
  8
0
 62
9
  6
CONTINUOUS
 10
47.9705027132
 20
96.5571580244
 11
47.9474169435
 21
96.5571580244
  0
LINE
  8
0
 62
9
  6
CONTINUOUS
 10
148.4240403532
 20
97.2332603939
 11
144.3350824564
 21
97.2332603939
  0
LINE
  8
0
 62
9
  6
CONTINUOUS
 10
140.5934267818
 20
97.2332603939
 11
126.3370346466
 21
97.2332603939
  0
LINE
  8
0
 62
9
  6
CONTINUOUS
 10
121.5712755755
 20
97.2332603939
 11
101.1975226396
 21
97.2332603939
  0
LINE
  8
0
 62
9
  6
CONTINUOUS
 10
96.4545567886
 20
97.2332603939
 11
76.0808038526
 21
97.2332603939
  0
LINE
  8
0
 62
9
  6
CONTINUOUS
 10
71.3150838307
 20
97.2332603939
 11
57.0586526464
 21
97.2332603939
  0
LINE
  8
0
 62
9
  6
CONTINUOUS
 10
53.3166241263
 20
97.2332603939
 11
49.2280390749
 21
97.2332603939
  0
LINE
  8
0
 62
9
  6
CONTINUOUS
 10
47.2544505593
 20
97.3527755407
 11
48.0261679679
 21
97.3527755407
  0
LINE
  8
0
 62
9
  6
CONTINUOUS
 10
53.2912393535
 20
97.3527755407
 11
55.9968166037
 21
97.3527755407
  0
LINE
  8
0
 62
9
  6
CONTINUOUS
 10
71.3150447719
 20
97.3527755407
 11
75.4435209844
 21
97.3527755407
  0
LINE
  8
0
 62
9
  6
CONTINUOUS
 10
96.4965270525
 20
97.3527755407
 11
101.1555523757
 21
97.3527755407
  0
LINE
  8
0
 62
9
  6
CONTINUOUS
 10
122.2085584438
 20
97.3527755407
 11
126.3370346466
 21
97.3527755407
  0
LINE
  8
0
 62
9
  6
CONTINUOUS
 10
141.6552628244
 20
97.3527755407
 11
144.3608400747
 21
97.3527755407
  0
LINE
  8
0
 62
9
  6
CONTINUOUS
 10
149.6259114602
 20
97.3527755407
 11
150.3976288689
 21
97.3527755407
  0
LINE
  8
0
 62
7
  6
CONTINUOUS
 10
97.9600143103
 20
96.4332603939
 11
98.8260397141
 21
95.9332603939
  0
POLYLINE
  8
0
 62
9
  6
CONTINUOUS
 66
1
 70
0
  0
VERTEX
  8
0
 62
9
  6
CONTINUOUS
 10
101.1975226396
 20
97.2332603939
  0
VERTEX
  8
0
 62
9
  6
CONTINUOUS
 10
101.1953257772
 20
97.2349069568
  0
VERTEX
  8
0
 62
9
  6
CONTINUOUS
 10
101.1931353464
 20
97.2398341194
  0
SEQEND
  0
POLYLINE
  8
0
 62
9
  6
CONTINUOUS
 66
1
 70
0
  0
VERTEX
  8
0
 62
9
  6
CONTINUOUS
 10
96.4589440817
 20
101.6266866683
  0
VERTEX
  8
0
 62
9
  6
CONTINUOUS
 10
96.4567542925
 20
101.6316137416
  0
VERTEX
  8
0
 62
9
  6
CONTINUOUS
 10
96.4545567886
 20
101.6332603939
  0
SEQEND
  0
LINE
  8
0
 62
9
  6
CONTINUOUS
 10
97.2935226526
 20
102.3093627633
 11
97.2558202895
 21
102.4223041846
  0
LINE
  8
0
 62
9
  6
CONTINUOUS
 10
96.4965270525
 20
101.5137452531
 11
96.4589440817
 21
101.6266866683
  0
LINE
  8
0
 62
9
  6
CONTINUOUS
 10
96.4700771646
 20
96.8333261285
 11
96.3630007029
 21
97.2332603939
  0
LINE
  8
0
 62
9
  6
CONTINUOUS
 10
100.3971369249
 20
96.436000312
 11
100.3962591387
 21
96.4442166031
  0
POLYLINE
  8
0
 62
9
  6
CONTINUOUS
 66
1
 70
0
  0
VERTEX
  8
0
 62
9
  6
CONTINUOUS
 10
100.380136574
 20
101.513745247
  0
VERTEX
  8
0
 62
9
  6
CONTINUOUS
 10
100.3773159785
 20
101.8893224973
  0
VERTEX
  8
0
 62
9
  6
CONTINUOUS
 10
100.3695145071
 20
102.1769753051
  0
VERTEX
  8
0
 62
9
  6
CONTINUOUS
 10
100.3585585218
 20
102.3093627633
  0
SEQEND
  0
LINE
  8
0
 62
9
  6
CONTINUOUS
 10
100.380136574
 20
101.513745247
 11
100.380136574
 21
97.3527755407
  0
LINE
  8
0
 62
9
  6
CONTINUOUS
 10
101.1555523757
 20
97.3527755378
 11
101.1555523757
 21
101.5137452531
  0
LINE
  8
0
 62
9
  6
CONTINUOUS
 10
101.2890787241
 20
97.2332603939
 11
101.2890787241
 21
101.6332603939
  0
POLYLINE
  8
0
 62
9
  6
CONTINUOUS
 66
1
 70
0
  0
VERTEX
  8
0
 62
9
  6
CONTINUOUS
 10
100.3585585218
 20
96.5571580244
  0
VERTEX
  8
0
 62
9
  6
CONTINUOUS
 10
100.3695145071
 20
96.6895454827
  0
VERTEX
  8
0
 62
9
  6
CONTINUOUS
 10
100.3773159785
 20
96.9771982905
  0
VERTEX
  8
0
 62
9
  6
CONTINUOUS
 10
100.380136574
 20
97.3527755407
  0
SEQEND
  0
LINE
  8
0
 62
9
  6
CONTINUOUS
 10
100.3971358788
 20
102.4305112173
 11
100.3962591387
 21
102.4223041846
  0
LINE
  8
0
 62
9
  6
CONTINUOUS
 10
100.398009978
 20
102.4332603939
 11
100.3971358788
 21
102.4305112173
  0
LINE
  8
0
 62
9
  6
CONTINUOUS
 10
101.1931353464
 20
101.6266866683
 11
101.1555523757
 21
101.5137452531
  0
LINE
  8
0
 62
9
  6
CONTINUOUS
 10
100.3962591387
 20
102.4223041846
 11
100.3585567756
 21
102.3093627633
  0
LINE
  8
0
 62
7
  6
CONTINUOUS
 10
99.6920651179
 20
96.4332603939
 11
98.8260397141
 21
95.9332603939
  0
LINE
  8
0
 62
9
  6
CONTINUOUS
 10
96.8580166223
 20
102.3138794272
 11
97.2558202931
 21
102.4223030816
  0
LINE
  8
0
 62
9
  6
CONTINUOUS
 10
96.7627477831
 20
102.3260753721
 11
97.1625133649
 21
102.4332603939
  0
POLYLINE
  8
0
 62
9
  6
CONTINUOUS
 66
1
 70
0
  0
VERTEX
  8
0
 62
9
  6
CONTINUOUS
 10
76.0808038526
 20
101.6332603939
  0
VERTEX
  8
0
 62
9
  6
CONTINUOUS
 10
76.0474366193
 20
101.6316137428
  0
VERTEX
  8
0
 62
9
  6
CONTINUOUS
 10
76.0141865265
 20
101.6266866683
  0
SEQEND
  0
POLYLINE
  8
0
 62
9
  6
CONTINUOUS
 66
1
 70
0
  0
VERTEX
  8
0
 62
9
  6
CONTINUOUS
 10
57.0586526464
 20
101.6332603939
  0
VERTEX
  8
0
 62
9
  6
CONTINUOUS
 10
57.0030564069
 20
101.6316137428
  0
VERTEX
  8
0
 62
9
  6
CONTINUOUS
 10
56.947655346
 20
101.6266866683
  0
SEQEND
  0
POLYLINE
  8
0
 62
9
  6
CONTINUOUS
 66
1
 70
0
  0
VERTEX
  8
0
 62
9
  6
CONTINUOUS
 10
49.2280390749
 20
101.6332603939
  0
VERTEX
  8
0
 62
9
  6
CONTINUOUS
 10
49.1651107967
 20
101.6316137428
  0
VERTEX
  8
0
 62
9
  6
CONTINUOUS
 10
49.1024034373
 20
101.6266866683
  0
SEQEND
  0
LINE
  8
0
 62
9
  6
CONTINUOUS
 10
150.3976288689
 20
101.513745247
 11
149.6259114602
 21
101.513745247
  0
LINE
  8
0
 62
9
  6
CONTINUOUS
 10
144.3608400747
 20
101.513745247
 11
141.6552628244
 21
101.513745247
  0
LINE
  8
0
 62
9
  6
CONTINUOUS
 10
126.3370346563
 20
101.513745247
 11
122.2085584438
 21
101.513745247
  0
LINE
  8
0
 62
9
  6
CONTINUOUS
 10
101.1555523757
 20
101.513745247
 11
96.4965270525
 21
101.513745247
  0
LINE
  8
0
 62
9
  6
CONTINUOUS
 10
75.4435209844
 20
101.513745247
 11
71.3150838307
 21
101.513745247
  0
LINE
  8
0
 62
9
  6
CONTINUOUS
 10
55.9968166037
 20
101.513745247
 11
53.2912422118
 21
101.513745247
  0
LINE
  8
0
 62
9
  6
CONTINUOUS
 10
48.0261679679
 20
101.513745247
 11
47.2544505593
 21
101.513745247
  0
LINE
  8
0
 62
9
  6
CONTINUOUS
 10
148.4240403532
 20
101.6332603939
 11
144.3350824564
 21
101.6332603939
  0
LINE
  8
0
 62
9
  6
CONTINUOUS
 10
140.5934267818
 20
101.6332603939
 11
126.3370344307
 21
101.6332603939
  0
LINE
  8
0
 62
9
  6
CONTINUOUS
 10
121.5712755755
 20
101.6332603939
 11
101.1975226396
 21
101.6332603939
  0
LINE
  8
0
 62
9
  6
CONTINUOUS
 10
96.4545567886
 20
101.6332603939
 11
76.0808038526
 21
101.6332603939
  0
LINE
  8
0
 62
9
  6
CONTINUOUS
 10
71.3150838307
 20
101.6332603939
 11
57.0586526464
 21
101.6332603939
  0
LINE
  8
0
 62
9
  6
CONTINUOUS
 10
53.3143849086
 20
101.6332603939
 11
49.2280390749
 21
101.6332603939
  0
LINE
  8
0
 62
9
  6
CONTINUOUS
 10
149.7046624847
 20
102.3093627633
 11
149.6815767429
 21
102.3093627633
  0
LINE
  8
0
 62
9
  6
CONTINUOUS
 10
143.6344852349
 20
102.3093627633
 11
142.1019681734
 21
102.3093627633
  0
LINE
  8
0
 62
9
  6
CONTINUOUS
 10
125.5810069355
 20
102.3093627633
 11
122.9266095215
 21
102.3093627633
  0
LINE
  8
0
 62
9
  6
CONTINUOUS
 10
100.3585567756
 20
102.3093627633
 11
97.2935226526
 21
102.3093627633
  0
LINE
  8
0
 62
9
  6
CONTINUOUS
 10
74.7254699067
 20
102.3093627633
 11
72.0710724927
 21
102.3093627633
  0
LINE
  8
0
 62
9
  6
CONTINUOUS
 10
55.5501112548
 20
102.3093627633
 11
54.0175941933
 21
102.3093627633
  0
LINE
  8
0
 62
9
  6
CONTINUOUS
 10
47.9705026853
 20
102.3093627633
 11
47.9474169435
 21
102.3093627633
  0
LINE
  8
0
 62
9
  6
CONTINUOUS
 10
148.6300966406
 20
102.4223041846
 11
148.6053375928
 21
102.4223041846
  0
LINE
  8
0
 62
9
  6
CONTINUOUS
 10
142.616252781
 20
102.4332603939
 11
142.5409742959
 21
102.4332603939
  0
LINE
  8
0
 62
9
  6
CONTINUOUS
 10
49.0467418353
 20
102.4223041846
 11
49.0219827875
 21
102.4223041846
  0
LINE
  8
0
 62
7
  6
CONTINUOUS
 10
148.3961207559
 20
102.4332603939
 11
142.616252781
 21
102.4332603939
  0
LINE
  8
AXES
 62
7
  6
CONTINUOUS
 10
124.9724464175
 20
102.4332603939
 11
122.2497140525
 21
102.4332603939
  0
LINE
  8
AXES
 62
7
  6
CONTINUOUS
 10
100.398009978
 20
102.4332603939
 11
97.2540694502
 21
102.4332603939
  0
LINE
  8
AXES
 62
7
  6
CONTINUOUS
 10
75.4023653757
 20
102.4332603939
 11
72.6796330107
 21
102.4332603939
  0
LINE
  8
AXES
 62
7
  6
CONTINUOUS
 10
56.6830753962
 20
102.4332603939
 11
55.1111051323
 21
102.4332603939
  0
LINE
  8
0
 62
7
  6
CONTINUOUS
 10
49.2559586723
 20
102.4332603939
 11
100.398009978
 21
102.4332603939
  0
LINE
  8
0
 62
7
  6
CONTINUOUS
 10
100.4895660625
 20
102.4332603939
 11
142.5409742959
 21
102.4332603939
  0
LINE
  8
AXES
 62
9
  6
CONTINUOUS
 10
66.3260397141
 20
103.4332603939
 11
131.3260397141
 21
103.4332603939
  0
LINE
  8
0
 62
9
  6
CONTINUOUS
 10
142.5409742959
 20
102.4332603939
 11
142.6075846993
 21
102.4317688142
  0
LINE
  8
0
 62
9
  6
CONTINUOUS
 10
100.7977662979
 20
102.3260807231
 11
100.398009978
 21
102.4332603939
  0
POLYLINE
  8
0
 62
9
  6
CONTINUOUS
 66
1
 70
0
  0
VERTEX
  8
0
 62
9
  6
CONTINUOUS
 10
120.8595125442
 20
96.4332603939
  0
VERTEX
  8
0
 62
9
  6
CONTINUOUS
 10
120.5202279268
 20
96.5404845819
  0
VERTEX
  8
0
 62
9
  6
CONTINUOUS
 10
120.2719354149
 20
96.8333260855
  0
VERTEX
  8
0
 62
9
  6
CONTINUOUS
 10
120.1810740494
 20
97.2332603939
  0
SEQEND
  0
LINE
  8
0
 62
9
  6
CONTINUOUS
 10
100.3962591387
 20
96.4442166031
 11
100.3585577031
 21
96.5571580244
  0
LINE
  8
0
 62
9
  6
CONTINUOUS
 10
101.1931353464
 20
97.2398341194
 11
101.1555523757
 21
97.3527755378
  0
LINE
  8
0
 62
9
  6
CONTINUOUS
 10
100.398009978
 20
96.4332603939
 11
100.3971369249
 21
96.436000312
  0
POLYLINE
  8
0
 62
9
  6
CONTINUOUS
 66
1
 70
0
  0
VERTEX
  8
0
 62
9
  6
CONTINUOUS
 10
101.1555523757
 20
101.513745247
  0
VERTEX
  8
0
 62
9
  6
CONTINUOUS
 10
101.0460235975
 20
101.9131998143
  0
VERTEX
  8
0
 62
9
  6
CONTINUOUS
 10
100.750141465
 20
102.2045731785
  0
VERTEX
  8
0
 62
9
  6
CONTINUOUS
 10
100.3585585218
 20
102.3093627633
  0
SEQEND
  0
POLYLINE
  8
0
 62
9
  6
CONTINUOUS
 66
1
 70
0
  0
VERTEX
  8
0
 62
9
  6
CONTINUOUS
 10
101.1931353464
 20
101.6266866683
  0
VERTEX
  8
0
 62
9
  6
CONTINUOUS
 10
101.0854936749
 20
102.0229100079
  0
VERTEX
  8
0
 62
9
  6
CONTINUOUS
 10
100.7940630029
 20
102.3138803559
  0
VERTEX
  8
0
 62
9
  6
CONTINUOUS
 10
100.4803342159
 20
102.3993890182
  0
SEQEND
  0
POLYLINE
  8
0
 62
9
  6
CONTINUOUS
 66
1
 70
0
  0
VERTEX
  8
0
 62
9
  6
CONTINUOUS
 10
101.2890787241
 20
101.6332603939
  0
VERTEX
  8
0
 62
9
  6
CONTINUOUS
 10
101.1819643381
 20
102.0332603939
  0
VERTEX
  8
0
 62
9
  6
CONTINUOUS
 10
100.8893223933
 20
102.3260807169
  0
VERTEX
  8
0
 62
9
  6
CONTINUOUS
 10
100.4895660625
 20
102.4332603939
  0
SEQEND
  0
POLYLINE
  8
0
 62
9
  6
CONTINUOUS
 66
1
 70
0
  0
VERTEX
  8
0
 62
9
  6
CONTINUOUS
 10
105.0678992701
 20
101.6332603939
  0
VERTEX
  8
0
 62
9
  6
CONTINUOUS
 10
105.0524174943
 20
102.0332512569
  0
VERTEX
  8
0
 62
9
  6
CONTINUOUS
 10
105.0101191686
 20
102.3260746514
  0
VERTEX
  8
0
 62
9
  6
CONTINUOUS
 10
104.9523360314
 20
102.4332603939
  0
SEQEND
  0
LINE
  8
0
 62
9
  6
CONTINUOUS
 10
105.0678992726
 20
97.2332603939
 11
105.0678992726
 21
101.6332603939
  0
POLYLINE
  8
0
 62
9
  6
CONTINUOUS
 66
1
 70
0
  0
VERTEX
  8
0
 62
9
  6
CONTINUOUS
 10
104.9523360374
 20
96.4332603939
  0
VERTEX
  8
0
 62
9
  6
CONTINUOUS
 10
105.0101302989
 20
96.5404906783
  0
VERTEX
  8
0
 62
9
  6
CONTINUOUS
 10
105.0524230689
 20
96.8333366409
  0
VERTEX
  8
0
 62
9
  6
CONTINUOUS
 10
105.0678992392
 20
97.2332603939
  0
SEQEND
  0
LINE
  8
0
 62
9
  6
CONTINUOUS
 10
122.0125876206
 20
102.3138794272
 11
122.3558386875
 21
102.4223030816
  0
LINE
  8
0
 62
9
  6
CONTINUOUS
 10
76.0141865265
 20
101.6266866683
 11
75.4435209844
 21
101.5137452531
  0
LINE
  8
0
 62
9
  6
CONTINUOUS
 10
75.2962406859
 20
102.4223041846
 11
74.7254699067
 21
102.3093627633
  0
LINE
  8
0
 62
9
  6
CONTINUOUS
 10
72.5765408635
 20
102.4223041846
 11
72.6279353134
 21
102.4305112173
  0
LINE
  8
0
 62
9
  6
CONTINUOUS
 10
56.947655346
 20
101.6266866683
 11
55.9968166037
 21
101.5137452531
  0
LINE
  8
0
 62
9
  6
CONTINUOUS
 10
71.940621191
 20
102.2944989946
 11
72.0710710067
 21
102.3093627633
  0
LINE
  8
0
 62
9
  6
CONTINUOUS
 10
72.4462067559
 20
102.4074428021
 11
72.5765409246
 21
102.4223030816
  0
LINE
  8
0
 62
9
  6
CONTINUOUS
 10
49.1024034373
 20
101.6266866683
 11
48.0261679679
 21
101.5137452531
  0
LINE
  8
0
 62
7
  6
CONTINUOUS
 10
54.9811838662
 20
102.4281888481
 11
54.9063162756
 21
102.4206382689
  0
LINE
  8
0
 62
9
  6
CONTINUOUS
 10
54.9811838662
 20
102.4281888481
 11
54.9961106849
 21
102.428811592
  0
POLYLINE
  8
0
 62
9
  6
CONTINUOUS
 66
1
 70
0
  0
VERTEX
  8
0
 62
9
  6
CONTINUOUS
 10
54.9961106849
 20
102.428811592
  0
VERTEX
  8
0
 62
9
  6
CONTINUOUS
 10
55.0206879951
 20
102.4305112173
  0
VERTEX
  8
0
 62
9
  6
CONTINUOUS
 10
55.1111051323
 20
102.4332603939
  0
SEQEND
  0
LINE
  8
0
 62
9
  6
CONTINUOUS
 10
54.9063162756
 20
102.4206382689
 11
54.9307935584
 21
102.4223030816
  0
LINE
  8
0
 62
9
  6
CONTINUOUS
 10
53.9930477781
 20
102.3076963882
 11
54.0175933657
 21
102.3093627633
  0
LINE
  8
0
 62
9
  6
CONTINUOUS
 10
72.6279353134
 20
102.4305112173
 11
72.6796330107
 21
102.4332603939
  0
POLYLINE
  8
0
 62
9
  6
CONTINUOUS
 66
1
 70
0
  0
VERTEX
  8
0
 62
9
  6
CONTINUOUS
 10
75.4023653757
 20
102.4332603939
  0
VERTEX
  8
0
 62
9
  6
CONTINUOUS
 10
75.3491536945
 20
102.4305112173
  0
VERTEX
  8
0
 62
9
  6
CONTINUOUS
 10
75.2962406859
 20
102.4223041846
  0
SEQEND
  0
POLYLINE
  8
0
 62
7
  6
CONTINUOUS
 66
1
 70
0
  0
VERTEX
  8
0
 62
7
  6
CONTINUOUS
 10
56.6830753962
 20
102.4332603939
  0
VERTEX
  8
0
 62
7
  6
CONTINUOUS
 10
56.59178416
 20
102.4305112173
  0
VERTEX
  8
0
 62
7
  6
CONTINUOUS
 10
56.5010128808
 20
102.4223041846
  0
SEQEND
  0
POLYLINE
  8
0
 62
7
  6
CONTINUOUS
 66
1
 70
0
  0
VERTEX
  8
0
 62
7
  6
CONTINUOUS
 10
49.2559586723
 20
102.4332603939
  0
VERTEX
  8
0
 62
7
  6
CONTINUOUS
 10
49.1510492941
 20
102.4305112173
  0
VERTEX
  8
0
 62
7
  6
CONTINUOUS
 10
49.0467418353
 20
102.4223041846
  0
SEQEND
  0
POLYLINE
  8
0
 62
9
  6
CONTINUOUS
 66
1
 70
0
  0
VERTEX
  8
0
 62
9
  6
CONTINUOUS
 10
142.6075846993
 20
102.4317688142
  0
VERTEX
  8
0
 62
9
  6
CONTINUOUS
 10
142.6313914328
 20
102.4305112173
  0
VERTEX
  8
0
 62
9
  6
CONTINUOUS
 10
142.7212859719
 20
102.4223041846
  0
SEQEND
  0
POLYLINE
  8
0
 62
9
  6
CONTINUOUS
 66
1
 70
0
  0
VERTEX
  8
0
 62
9
  6
CONTINUOUS
 10
124.9724464175
 20
102.4332603939
  0
VERTEX
  8
0
 62
9
  6
CONTINUOUS
 10
125.0241441145
 20
102.4305112173
  0
VERTEX
  8
0
 62
9
  6
CONTINUOUS
 10
125.0755385647
 20
102.4223041846
  0
SEQEND
  0
LINE
  8
0
 62
9
  6
CONTINUOUS
 10
142.7457628337
 20
102.4206394228
 11
142.721285972
 21
102.4223041848
  0
LINE
  8
0
 62
9
  6
CONTINUOUS
 10
143.6613166646
 20
102.3074103016
 11
143.6344860624
 21
102.3093627633
  0
POLYLINE
  8
0
 62
9
  6
CONTINUOUS
 66
1
 70
0
  0
VERTEX
  8
0
 62
9
  6
CONTINUOUS
 10
148.5496759909
 20
101.6266866683
  0
VERTEX
  8
0
 62
9
  6
CONTINUOUS
 10
148.4869686314
 20
101.6316137416
  0
VERTEX
  8
0
 62
9
  6
CONTINUOUS
 10
148.4240403532
 20
101.6332603939
  0
SEQEND
  0
POLYLINE
  8
0
 62
7
  6
CONTINUOUS
 66
1
 70
0
  0
VERTEX
  8
0
 62
7
  6
CONTINUOUS
 10
148.6053375928
 20
102.4223041846
  0
VERTEX
  8
0
 62
7
  6
CONTINUOUS
 10
148.501030134
 20
102.4305112173
  0
VERTEX
  8
0
 62
7
  6
CONTINUOUS
 10
148.3961207559
 20
102.4332603939
  0
SEQEND
  0
POLYLINE
  8
0
 62
9
  6
CONTINUOUS
 66
1
 70
0
  0
VERTEX
  8
0
 62
9
  6
CONTINUOUS
 10
140.7044240821
 20
101.6266866683
  0
VERTEX
  8
0
 62
9
  6
CONTINUOUS
 10
140.6490230212
 20
101.6316137416
  0
VERTEX
  8
0
 62
9
  6
CONTINUOUS
 10
140.5934267818
 20
101.6332603939
  0
SEQEND
  0
POLYLINE
  8
0
 62
9
  6
CONTINUOUS
 66
1
 70
0
  0
VERTEX
  8
0
 62
9
  6
CONTINUOUS
 10
141.1510665473
 20
102.4223041846
  0
VERTEX
  8
0
 62
9
  6
CONTINUOUS
 10
141.060295268
 20
102.4305112173
  0
VERTEX
  8
0
 62
9
  6
CONTINUOUS
 10
140.969004032
 20
102.4332603939
  0
SEQEND
  0
LINE
  8
0
 62
9
  6
CONTINUOUS
 10
149.6259114602
 20
101.5137452531
 11
148.5496759909
 21
101.6266866683
  0
LINE
  8
0
 62
9
  6
CONTINUOUS
 10
125.2058357939
 20
102.4074521462
 11
125.0755385647
 21
102.4223041848
  0
LINE
  8
0
 62
9
  6
CONTINUOUS
 10
125.7158125321
 20
102.2935091524
 11
125.5810084215
 21
102.3093627633
  0
LINE
  8
0
 62
9
  6
CONTINUOUS
 10
141.6552628244
 20
101.5137452531
 11
140.7044240821
 21
101.6266866683
  0
POLYLINE
  8
0
 62
9
  6
CONTINUOUS
 66
1
 70
0
  0
VERTEX
  8
0
 62
9
  6
CONTINUOUS
 10
121.6378929017
 20
101.6266866683
  0
VERTEX
  8
0
 62
9
  6
CONTINUOUS
 10
121.6046428088
 20
101.6316137416
  0
VERTEX
  8
0
 62
9
  6
CONTINUOUS
 10
121.5712755755
 20
101.6332603939
  0
SEQEND
  0
POLYLINE
  8
0
 62
9
  6
CONTINUOUS
 66
1
 70
0
  0
VERTEX
  8
0
 62
9
  6
CONTINUOUS
 10
122.3558387422
 20
102.4223041846
  0
VERTEX
  8
0
 62
9
  6
CONTINUOUS
 10
122.3029257333
 20
102.4305112173
  0
VERTEX
  8
0
 62
9
  6
CONTINUOUS
 10
122.2497140525
 20
102.4332603939
  0
SEQEND
  0
LINE
  8
0
 62
9
  6
CONTINUOUS
 10
122.2085584438
 20
101.5137452531
 11
121.6378929017
 21
101.6266866683
  0
LINE
  8
0
 62
9
  6
CONTINUOUS
 10
122.9266095215
 20
102.3093627633
 11
122.3558387422
 21
102.4223041846
  0
POLYLINE
  8
0
 62
9
  6
CONTINUOUS
 66
1
 70
0
  0
VERTEX
  8
0
 62
9
  6
CONTINUOUS
 10
122.9266079829
 20
96.5571580244
  0
VERTEX
  8
0
 62
9
  6
CONTINUOUS
 10
122.5833160785
 20
96.6655433008
  0
VERTEX
  8
0
 62
9
  6
CONTINUOUS
 10
122.3207089281
 20
96.9565188357
  0
VERTEX
  8
0
 62
9
  6
CONTINUOUS
 10
122.2085584438
 20
97.3527755407
  0
SEQEND
  0
LINE
  8
0
 62
9
  6
CONTINUOUS
 10
122.3558387234
 20
96.4442169831
 11
122.0125875445
 21
96.5526407518
  0
POLYLINE
  8
0
 62
9
  6
CONTINUOUS
 66
1
 70
0
  0
VERTEX
  8
0
 62
9
  6
CONTINUOUS
 10
122.2497140525
 20
96.4332603939
  0
VERTEX
  8
0
 62
9
  6
CONTINUOUS
 10
121.910494814
 20
96.5404400708
  0
VERTEX
  8
0
 62
9
  6
CONTINUOUS
 10
121.6621690965
 20
96.8332603939
  0
VERTEX
  8
0
 62
9
  6
CONTINUOUS
 10
121.5712755755
 20
97.2332603939
  0
SEQEND
  0
LINE
  8
0
 62
9
  6
CONTINUOUS
 10
72.0710724927
 20
102.3093627633
 11
72.5765408635
 21
102.4223041846
  0
LINE
  8
0
 62
7
  6
CONTINUOUS
 10
72.4462065079
 20
102.407443854
 11
71.9406211916
 21
102.2944989949
  0
LINE
  8
0
 62
7
  6
CONTINUOUS
 10
72.5303844496
 20
102.422765819
 11
72.4462046442
 21
102.4074423304
  0
LINE
  8
0
 62
9
  6
CONTINUOUS
 10
54.9063125122
 20
102.420638918
 11
54.9307934562
 21
102.4223041846
  0
LINE
  8
0
 62
7
  6
CONTINUOUS
 10
54.9063125122
 20
102.420638918
 11
53.9930477787
 21
102.3076963884
  0
LINE
  8
0
 62
9
  6
CONTINUOUS
 10
56.5010128808
 20
102.4223041846
 11
55.5501112548
 21
102.3093627633
  0
LINE
  8
AXES
 62
7
  6
CONTINUOUS
 10
49.0219827875
 20
102.4223041846
 11
47.9474169435
 21
102.3093627633
  0
LINE
  8
0
 62
9
  6
CONTINUOUS
 10
49.0467418353
 20
102.4223041846
 11
47.9705026853
 21
102.3093627633
  0
LINE
  8
AXES
 62
9
  6
CONTINUOUS
 10
66.3260397141
 20
109.9332603939
 11
131.3260397141
 21
109.9332603939
  0
LINE
  8
0
 62
9
  6
CONTINUOUS
 10
149.6815767429
 20
102.3093627633
 11
148.6053375928
 21
102.4223041846
  0
LINE
  8
AXES
 62
7
  6
CONTINUOUS
 10
148.6300966406
 20
102.4223041846
 11
149.7046624847
 21
102.3093627633
  0
POLYLINE
  8
0
 62
7
  6
CONTINUOUS
 66
1
 70
0
  0
VERTEX
  8
0
 62
7
  6
CONTINUOUS
 10
142.7457626943
 20
102.4206383277
  0
VERTEX
  8
0
 62
7
  6
CONTINUOUS
 10
142.7230136992
 20
102.4232930409
  0
VERTEX
  8
0
 62
7
  6
CONTINUOUS
 10
142.616252781
 20
102.4315589522
  0
SEQEND
  0
LINE
  8
0
 62
9
  6
CONTINUOUS
 10
142.1019681734
 20
102.3093627633
 11
141.1510665473
 21
102.4223041846
  0
LINE
  8
0
 62
9
  6
CONTINUOUS
 10
142.7212859719
 20
102.4223041846
 11
142.7457669123
 21
102.4206389184
  0
LINE
  8
0
 62
7
  6
CONTINUOUS
 10
143.6590310133
 20
102.307696467
 11
142.7457669123
 21
102.4206389184
  0
POLYLINE
  8
0
 62
7
  6
CONTINUOUS
 66
1
 70
0
  0
VERTEX
  8
0
 62
7
  6
CONTINUOUS
 10
125.2058355465
 20
102.4074510963
  0
VERTEX
  8
0
 62
7
  6
CONTINUOUS
 10
125.1790520161
 20
102.4130773772
  0
VERTEX
  8
0
 62
7
  6
CONTINUOUS
 10
125.0592464256
 20
102.4297198064
  0
SEQEND
  0
LINE
  8
0
 62
9
  6
CONTINUOUS
 10
125.0755385647
 20
102.4223041846
 11
125.5810069355
 21
102.3093627633
  0
LINE
  8
0
 62
7
  6
CONTINUOUS
 10
125.7114572893
 20
102.2944992065
 11
125.2058729024
 21
102.407443858
  0
LINE
  8
0
 62
7
  6
CONTINUOUS
 10
110.7591280127
 20
96.4332603939
 11
110.7591280127
 21
96.1332603939
  0
LINE
  8
0
 62
7
  6
CONTINUOUS
 10
110.9399504605
 20
96.4332603939
 11
110.9399504605
 21
96.1332603939
  0
LINE
  8
0
 62
7
  6
CONTINUOUS
 10
111.7084459072
 20
96.4332603939
 11
111.7084459072
 21
96.1332603939
  0
LINE
  8
0
 62
7
  6
CONTINUOUS
 10
111.8214599272
 20
96.4332603939
 11
111.8214599272
 21
96.1332603939
  0
POLYLINE
  8
0
 62
9
  6
CONTINUOUS
 66
1
 70
0
  0
VERTEX
  8
0
 62
9
  6
CONTINUOUS
 10
114.5031030269
 20
96.4332603939
  0
VERTEX
  8
0
 62
9
  6
CONTINUOUS
 10
114.6509647144
 20
96.5404396603
  0
VERTEX
  8
0
 62
9
  6
CONTINUOUS
 10
114.7592073101
 20
96.8332597967
  0
VERTEX
  8
0
 62
9
  6
CONTINUOUS
 10
114.7988269282
 20
97.2332603939
  0
SEQEND
  0
LINE
  8
0
 62
9
  6
CONTINUOUS
 10
125.1141595436
 20
96.4332603939
 11
125.1522689097
 21
96.449738332
  0
LINE
  8
0
 62
7
  6
CONTINUOUS
 10
125.678634536
 20
96.565406838
 11
126.0053979123
 21
96.7042110795
  0
LINE
  8
0
 62
9
  6
CONTINUOUS
 10
132.1058062028
 20
96.4332603939
 11
132.4196916761
 21
96.5404396603
  0
LINE
  8
AXES
 62
7
  6
CONTINUOUS
 10
129.3260397141
 20
111.9332603939
 11
68.3260397141
 21
111.9332603939
  0
LINE
  8
0
 62
7
  6
CONTINUOUS
 10
125.678634536
 20
102.3011139498
 11
126.0017705191
 21
102.1649138717
  0
LINE
  8
0
 62
9
  6
CONTINUOUS
 10
125.3621086752
 20
102.3260746514
 11
125.1141595113
 21
102.4332603939
  0
POLYLINE
  8
0
 62
9
  6
CONTINUOUS
 66
1
 70
0
  0
VERTEX
  8
0
 62
9
  6
CONTINUOUS
 10
114.7988269282
 20
101.6332603939
  0
VERTEX
  8
0
 62
9
  6
CONTINUOUS
 10
114.7592073072
 20
102.0332610045
  0
VERTEX
  8
0
 62
9
  6
CONTINUOUS
 10
114.6509647085
 20
102.3260811367
  0
VERTEX
  8
0
 62
9
  6
CONTINUOUS
 10
114.5031030269
 20
102.4332603939
  0
SEQEND
  0
LINE
  8
0
 62
7
  6
CONTINUOUS
 10
114.1594705539
 20
96.4332603939
 11
114.1594705539
 21
96.1332603939
  0
LINE
  8
0
 62
7
  6
CONTINUOUS
 10
114.3819887859
 20
96.4332603939
 11
114.3819887859
 21
96.1332603939
  0
LINE
  8
0
 62
7
  6
CONTINUOUS
 10
114.5899249627
 20
96.4332603939
 11
114.5899249627
 21
96.1332603939
  0
LINE
  8
0
 62
9
  6
CONTINUOUS
 10
114.7988269281
 20
97.2332603939
 11
114.7988269281
 21
101.6332603939
  0
LINE
  8
0
 62
7
  6
CONTINUOUS
 10
115.1143698054
 20
96.4332603939
 11
115.1143698054
 21
96.1332603939
  0
LINE
  8
0
 62
7
  6
CONTINUOUS
 10
115.4568705571
 20
96.4332603939
 11
115.4568705571
 21
96.1332603939
  0
LINE
  8
0
 62
7
  6
CONTINUOUS
 10
115.7986300874
 20
96.4332603939
 11
115.7986300874
 21
96.1332603939
  0
LINE
  8
0
 62
7
  6
CONTINUOUS
 10
115.970671875
 20
96.4332603939
 11
115.970671875
 21
96.1332603939
  0
LINE
  8
0
 62
7
  6
CONTINUOUS
 10
116.3095862665
 20
96.4332603939
 11
116.3095862665
 21
96.1332603939
  0
LINE
  8
0
 62
7
  6
CONTINUOUS
 10
116.5902931379
 20
96.4332603939
 11
116.5902931379
 21
96.1332603939
  0
POLYLINE
  8
0
 62
9
  6
CONTINUOUS
 66
1
 70
0
  0
VERTEX
  8
0
 62
9
  6
CONTINUOUS
 10
122.9266079829
 20
96.5571580244
  0
VERTEX
  8
0
 62
9
  6
CONTINUOUS
 10
123.0961397542
 20
96.6856477512
  0
VERTEX
  8
0
 62
9
  6
CONTINUOUS
 10
123.2208074301
 20
96.9741078445
  0
VERTEX
  8
0
 62
9
  6
CONTINUOUS
 10
123.2659469308
 20
97.3527755407
  0
SEQEND
  0
LINE
  8
0
 62
9
  6
CONTINUOUS
 10
125.5810084215
 20
96.5571580244
 11
125.7722798389
 21
96.6895454827
  0
LINE
  8
0
 62
9
  6
CONTINUOUS
 10
140.9543418321
 20
102.3138794272
 11
141.1510664488
 21
102.4223030816
  0
LINE
  8
0
 62
9
  6
CONTINUOUS
 10
141.1510665134
 20
96.4442169831
 11
140.9543418283
 21
96.5526407518
  0
POLYLINE
  8
0
 62
9
  6
CONTINUOUS
 66
1
 70
0
  0
VERTEX
  8
0
 62
9
  6
CONTINUOUS
 10
138.6526604715
 20
96.4332603939
  0
VERTEX
  8
0
 62
9
  6
CONTINUOUS
 10
138.4648356456
 20
96.5404845819
  0
VERTEX
  8
0
 62
9
  6
CONTINUOUS
 10
138.3273832065
 20
96.8333260855
  0
VERTEX
  8
0
 62
9
  6
CONTINUOUS
 10
138.2770831915
 20
97.2332603939
  0
SEQEND
  0
LINE
  8
0
 62
9
  6
CONTINUOUS
 10
125.7722798389
 20
102.1769753051
 11
125.5810084215
 21
102.3093627633
  0
POLYLINE
  8
0
 62
9
  6
CONTINUOUS
 66
1
 70
0
  0
VERTEX
  8
0
 62
9
  6
CONTINUOUS
 10
122.0125875445
 20
96.5526407518
  0
VERTEX
  8
0
 62
9
  6
CONTINUOUS
 10
121.7500230159
 20
96.8436109504
  0
VERTEX
  8
0
 62
9
  6
CONTINUOUS
 10
121.6378929017
 20
97.2398341194
  0
SEQEND
  0
LINE
  8
0
 62
7
  6
CONTINUOUS
 10
117.0087713997
 20
96.4332603939
 11
117.0087713997
 21
96.1332603939
  0
LINE
  8
0
 62
7
  6
CONTINUOUS
 10
117.2312732975
 20
96.4332603939
 11
117.2312732975
 21
96.1332603939
  0
LINE
  8
0
 62
7
  6
CONTINUOUS
 10
117.5359198379
 20
96.4332603939
 11
117.5359198379
 21
96.1332603939
  0
LINE
  8
0
 62
7
  6
CONTINUOUS
 10
117.7002142158
 20
96.4332603939
 11
117.7002142158
 21
96.1332603939
  0
LINE
  8
0
 62
7
  6
CONTINUOUS
 10
117.806295981
 20
96.4332603939
 11
117.806295981
 21
96.1332603939
  0
LINE
  8
0
 62
7
  6
CONTINUOUS
 10
119.6809196447
 20
96.4332603939
 11
119.6809196447
 21
96.1332603939
  0
LINE
  8
0
 62
9
  6
CONTINUOUS
 10
120.1810740673
 20
97.2332603939
 11
120.1810740673
 21
101.6332603939
  0
POLYLINE
  8
0
 62
9
  6
CONTINUOUS
 66
1
 70
0
  0
VERTEX
  8
0
 62
9
  6
CONTINUOUS
 10
120.1810740673
 20
101.6332603939
  0
VERTEX
  8
0
 62
9
  6
CONTINUOUS
 10
120.2719637249
 20
102.033252505
  0
VERTEX
  8
0
 62
9
  6
CONTINUOUS
 10
120.5202854546
 20
102.3260753721
  0
VERTEX
  8
0
 62
9
  6
CONTINUOUS
 10
120.8595125434
 20
102.4332603939
  0
SEQEND
  0
POLYLINE
  8
0
 62
9
  6
CONTINUOUS
 66
1
 70
0
  0
VERTEX
  8
0
 62
9
  6
CONTINUOUS
 10
121.5712755755
 20
101.6332603939
  0
VERTEX
  8
0
 62
9
  6
CONTINUOUS
 10
121.6621690965
 20
102.0332603939
  0
VERTEX
  8
0
 62
9
  6
CONTINUOUS
 10
121.910494814
 20
102.3260807169
  0
VERTEX
  8
0
 62
9
  6
CONTINUOUS
 10
122.2497140525
 20
102.4332603939
  0
SEQEND
  0
POLYLINE
  8
0
 62
9
  6
CONTINUOUS
 66
1
 70
0
  0
VERTEX
  8
0
 62
9
  6
CONTINUOUS
 10
121.6378929017
 20
101.6266866683
  0
VERTEX
  8
0
 62
9
  6
CONTINUOUS
 10
121.7500231227
 20
102.0229095124
  0
VERTEX
  8
0
 62
9
  6
CONTINUOUS
 10
122.0125876206
 20
102.3138794272
  0
SEQEND
  0
LINE
  8
0
 62
9
  6
CONTINUOUS
 10
142.1019672547
 20
96.5571580244
 11
142.406385166
 21
96.6856477512
  0
POLYLINE
  8
0
 62
9
  6
CONTINUOUS
 66
1
 70
0
  0
VERTEX
  8
0
 62
9
  6
CONTINUOUS
 10
143.6344860624
 20
96.5571580244
  0
VERTEX
  8
0
 62
9
  6
CONTINUOUS
 10
143.9548218902
 20
96.6895454827
  0
VERTEX
  8
0
 62
9
  6
CONTINUOUS
 10
144.1829246782
 20
96.9771982905
  0
VERTEX
  8
0
 62
9
  6
CONTINUOUS
 10
144.2653944656
 20
97.3527755407
  0
SEQEND
  0
POLYLINE
  8
0
 62
7
  6
CONTINUOUS
 66
1
 70
0
  0
VERTEX
  8
0
 62
7
  6
CONTINUOUS
 10
143.6613166646
 20
96.5591104861
  0
VERTEX
  8
0
 62
7
  6
CONTINUOUS
 10
144.0287654014
 20
96.703895052
  0
VERTEX
  8
0
 62
7
  6
CONTINUOUS
 10
144.2898759572
 20
97.0233720162
  0
VERTEX
  8
0
 62
7
  6
CONTINUOUS
 10
144.3608240504
 20
97.3527755407
  0
SEQEND
  0
POLYLINE
  8
0
 62
7
  6
CONTINUOUS
 66
1
 70
0
  0
VERTEX
  8
0
 62
7
  6
CONTINUOUS
 10
149.6815766903
 20
96.5571580244
  0
VERTEX
  8
0
 62
7
  6
CONTINUOUS
 10
150.039312208
 20
96.6856477512
  0
VERTEX
  8
0
 62
7
  6
CONTINUOUS
 10
150.3023782705
 20
96.9741078445
  0
VERTEX
  8
0
 62
7
  6
CONTINUOUS
 10
150.3976288689
 20
97.3527755407
  0
SEQEND
  0
POLYLINE
  8
0
 62
7
  6
CONTINUOUS
 66
1
 70
0
  0
VERTEX
  8
0
 62
7
  6
CONTINUOUS
 10
143.6613166646
 20
102.3074103016
  0
VERTEX
  8
0
 62
7
  6
CONTINUOUS
 10
144.0287654014
 20
102.1626257357
  0
VERTEX
  8
0
 62
7
  6
CONTINUOUS
 10
144.2898759572
 20
101.8431487716
  0
VERTEX
  8
0
 62
7
  6
CONTINUOUS
 10
144.3608240504
 20
101.513745247
  0
SEQEND
  0
LINE
  8
0
 62
9
  6
CONTINUOUS
 10
143.9548218902
 20
102.1769753051
 11
143.6344860624
 21
102.3093627633
  0
LINE
  8
0
 62
9
  6
CONTINUOUS
 10
142.406385166
 20
102.1808730365
 11
142.1019672547
 21
102.3093627633
  0
POLYLINE
  8
0
 62
9
  6
CONTINUOUS
 66
1
 70
0
  0
VERTEX
  8
0
 62
9
  6
CONTINUOUS
 10
142.1019672547
 20
96.5571580244
  0
VERTEX
  8
0
 62
9
  6
CONTINUOUS
 10
141.9052217816
 20
96.6655433008
  0
VERTEX
  8
0
 62
9
  6
CONTINUOUS
 10
141.7418517477
 20
96.9565188357
  0
VERTEX
  8
0
 62
9
  6
CONTINUOUS
 10
141.6552628244
 20
97.3527755407
  0
SEQEND
  0
POLYLINE
  8
0
 62
9
  6
CONTINUOUS
 66
1
 70
0
  0
VERTEX
  8
0
 62
9
  6
CONTINUOUS
 10
140.969004032
 20
96.4332603939
  0
VERTEX
  8
0
 62
9
  6
CONTINUOUS
 10
140.7812154069
 20
96.5404400708
  0
VERTEX
  8
0
 62
9
  6
CONTINUOUS
 10
140.6437445922
 20
96.8332603939
  0
VERTEX
  8
0
 62
9
  6
CONTINUOUS
 10
140.5934267818
 20
97.2332603939
  0
SEQEND
  0
LINE
  8
0
 62
7
  6
CONTINUOUS
 10
121.4476250976
 20
96.4332603939
 11
121.4476250976
 21
96.1332603939
  0
LINE
  8
0
 62
9
  6
CONTINUOUS
 10
122.2085584438
 20
97.3527755424
 11
122.2085584438
 21
101.5137452531
  0
LINE
  8
0
 62
7
  6
CONTINUOUS
 10
122.6599319732
 20
96.4332603939
 11
122.6599319732
 21
96.1332603939
  0
LINE
  8
0
 62
7
  6
CONTINUOUS
 10
122.8749095154
 20
96.4332603939
 11
122.8749095154
 21
96.1332603939
  0
LINE
  8
0
 62
7
  6
CONTINUOUS
 10
122.9641891586
 20
96.4332603939
 11
122.9641891586
 21
96.1332603939
  0
LINE
  8
0
 62
9
  6
CONTINUOUS
 10
123.2659469308
 20
101.513745247
 11
123.2659469308
 21
97.3527755407
  0
POLYLINE
  8
0
 62
9
  6
CONTINUOUS
 66
1
 70
0
  0
VERTEX
  8
0
 62
9
  6
CONTINUOUS
 10
122.2085584438
 20
101.513745247
  0
VERTEX
  8
0
 62
9
  6
CONTINUOUS
 10
122.3207089405
 20
101.9100019496
  0
VERTEX
  8
0
 62
9
  6
CONTINUOUS
 10
122.5833160909
 20
102.2009774845
  0
VERTEX
  8
0
 62
9
  6
CONTINUOUS
 10
122.9266079829
 20
102.3093627633
  0
SEQEND
  0
LINE
  8
0
 62
7
  6
CONTINUOUS
 10
126.0053979123
 20
96.7042110795
 11
126.2448880386
 21
96.9800241636
  0
LINE
  8
0
 62
7
  6
CONTINUOUS
 10
126.0017705191
 20
102.1649138717
 11
126.2405007946
 21
101.8947116396
  0
POLYLINE
  8
0
 62
9
  6
CONTINUOUS
 66
1
 70
0
  0
VERTEX
  8
0
 62
9
  6
CONTINUOUS
 10
123.2659469308
 20
101.513745247
  0
VERTEX
  8
0
 62
9
  6
CONTINUOUS
 10
123.2208074301
 20
101.8924129433
  0
VERTEX
  8
0
 62
9
  6
CONTINUOUS
 10
123.0961397542
 20
102.1808730365
  0
VERTEX
  8
0
 62
9
  6
CONTINUOUS
 10
122.9266079829
 20
102.3093627633
  0
SEQEND
  0
LINE
  8
0
 62
7
  6
CONTINUOUS
 10
124.6562890403
 20
96.4332603939
 11
124.6562890403
 21
96.1332603939
  0
LINE
  8
0
 62
7
  6
CONTINUOUS
 10
125.0360393859
 20
96.4332603939
 11
125.0360393859
 21
96.1332603939
  0
LINE
  8
0
 62
7
  6
CONTINUOUS
 10
125.1115376722
 20
96.4332603939
 11
125.1115376722
 21
96.1332603939
  0
LINE
  8
0
 62
7
  6
CONTINUOUS
 10
125.4276530565
 20
96.4332603939
 11
125.4276530565
 21
96.1332603939
  0
LINE
  8
0
 62
7
  6
CONTINUOUS
 10
125.7879395966
 20
96.4332603939
 11
125.7879395966
 21
96.1332603939
  0
LINE
  8
0
 62
9
  6
CONTINUOUS
 10
125.9577216521
 20
101.513745247
 11
125.9577216521
 21
97.3527755407
  0
LINE
  8
0
 62
7
  6
CONTINUOUS
 10
126.1020746941
 20
96.4332603939
 11
126.1020746941
 21
96.1332603939
  0
LINE
  8
0
 62
7
  6
CONTINUOUS
 10
126.3370346563
 20
101.513745247
 11
126.3370346563
 21
97.3527755407
  0
LINE
  8
0
 62
7
  6
CONTINUOUS
 10
126.4152214804
 20
96.4332603939
 11
126.4152214804
 21
96.1332603939
  0
LINE
  8
0
 62
7
  6
CONTINUOUS
 10
126.7715512378
 20
96.4332603939
 11
126.7715512378
 21
96.1332603939
  0
LINE
  8
0
 62
7
  6
CONTINUOUS
 10
127.0375582701
 20
96.4332603939
 11
127.0375582701
 21
96.1332603939
  0
LINE
  8
0
 62
7
  6
CONTINUOUS
 10
127.2142388498
 20
96.4332603939
 11
127.2142388498
 21
96.1332603939
  0
LINE
  8
0
 62
7
  6
CONTINUOUS
 10
127.3899272009
 20
96.4332603939
 11
127.3899272009
 21
96.1332603939
  0
LINE
  8
0
 62
7
  6
CONTINUOUS
 10
127.4752968708
 20
96.4332603939
 11
127.4752968708
 21
96.1332603939
  0
LINE
  8
0
 62
9
  6
CONTINUOUS
 10
125.9084792266
 20
96.9771982905
 11
125.9577216521
 21
97.3527755407
  0
LINE
  8
0
 62
7
  6
CONTINUOUS
 10
126.2448880386
 20
96.9800241636
 11
126.3370346466
 21
97.3527755407
  0
LINE
  8
0
 62
9
  6
CONTINUOUS
 10
125.7722798389
 20
96.6895454827
 11
125.9084792266
 21
96.9771982905
  0
POLYLINE
  8
0
 62
9
  6
CONTINUOUS
 66
1
 70
0
  0
VERTEX
  8
0
 62
9
  6
CONTINUOUS
 10
132.4196916761
 20
96.5404396603
  0
VERTEX
  8
0
 62
9
  6
CONTINUOUS
 10
132.6494724864
 20
96.8332597967
  0
VERTEX
  8
0
 62
9
  6
CONTINUOUS
 10
132.7335782658
 20
97.2332603939
  0
SEQEND
  0
LINE
  8
0
 62
7
  6
CONTINUOUS
 10
126.2405007946
 20
101.8947116396
 11
126.3370344307
 21
101.513745247
  0
POLYLINE
  8
0
 62
9
  6
CONTINUOUS
 66
1
 70
0
  0
VERTEX
  8
0
 62
9
  6
CONTINUOUS
 10
125.9577216521
 20
101.513745247
  0
VERTEX
  8
0
 62
9
  6
CONTINUOUS
 10
125.9084792266
 20
101.8893224973
  0
VERTEX
  8
0
 62
9
  6
CONTINUOUS
 10
125.7722798389
 20
102.1769753051
  0
SEQEND
  0
LINE
  8
AXES
 62
7
  6
CONTINUOUS
 10
131.3260397141
 20
109.9332603939
 11
131.3260397141
 21
103.4332603939
  0
LINE
  8
AXES
 62
7
  6
CONTINUOUS
 10
131.3260397141
 20
95.4332603939
 11
131.3260397141
 21
88.9332603939
  0
LINE
  8
0
 62
9
  6
CONTINUOUS
 10
132.7335782658
 20
97.2332603939
 11
132.7335782658
 21
101.6332603939
  0
POLYLINE
  8
0
 62
9
  6
CONTINUOUS
 66
1
 70
0
  0
VERTEX
  8
0
 62
9
  6
CONTINUOUS
 10
140.9543418283
 20
96.5526407518
  0
VERTEX
  8
0
 62
9
  6
CONTINUOUS
 10
140.7909973866
 20
96.8436109504
  0
VERTEX
  8
0
 62
9
  6
CONTINUOUS
 10
140.7044240821
 20
97.2398341194
  0
SEQEND
  0
POLYLINE
  8
0
 62
9
  6
CONTINUOUS
 66
1
 70
0
  0
VERTEX
  8
0
 62
9
  6
CONTINUOUS
 10
132.7335782658
 20
101.6332603939
  0
VERTEX
  8
0
 62
9
  6
CONTINUOUS
 10
132.6494724803
 20
102.0332610045
  0
VERTEX
  8
0
 62
9
  6
CONTINUOUS
 10
132.4196916636
 20
102.3260811367
  0
VERTEX
  8
0
 62
9
  6
CONTINUOUS
 10
132.1058062028
 20
102.4332603939
  0
SEQEND
  0
POLYLINE
  8
0
 62
9
  6
CONTINUOUS
 66
1
 70
0
  0
VERTEX
  8
0
 62
9
  6
CONTINUOUS
 10
138.2770832213
 20
101.6332603939
  0
VERTEX
  8
0
 62
9
  6
CONTINUOUS
 10
138.3273988919
 20
102.033252505
  0
VERTEX
  8
0
 62
9
  6
CONTINUOUS
 10
138.4648674995
 20
102.3260753721
  0
VERTEX
  8
0
 62
9
  6
CONTINUOUS
 10
138.652660471
 20
102.4332603939
  0
SEQEND
  0
POLYLINE
  8
0
 62
9
  6
CONTINUOUS
 66
1
 70
0
  0
VERTEX
  8
0
 62
9
  6
CONTINUOUS
 10
142.406385166
 20
96.6856477512
  0
VERTEX
  8
0
 62
9
  6
CONTINUOUS
 10
142.6302433442
 20
96.9741078445
  0
VERTEX
  8
0
 62
9
  6
CONTINUOUS
 10
142.7112976057
 20
97.3527755407
  0
SEQEND
  0
LINE
  8
0
 62
9
  6
CONTINUOUS
 10
138.2770832213
 20
97.2332603939
 11
138.2770832213
 21
101.6332603939
  0
LINE
  8
0
 62
9
  6
CONTINUOUS
 10
141.6552628244
 20
97.3527755424
 11
141.6552628244
 21
101.5137452531
  0
POLYLINE
  8
0
 62
9
  6
CONTINUOUS
 66
1
 70
0
  0
VERTEX
  8
0
 62
9
  6
CONTINUOUS
 10
140.5934267818
 20
101.6332603939
  0
VERTEX
  8
0
 62
9
  6
CONTINUOUS
 10
140.6437445922
 20
102.0332603939
  0
VERTEX
  8
0
 62
9
  6
CONTINUOUS
 10
140.7812154069
 20
102.3260807169
  0
VERTEX
  8
0
 62
9
  6
CONTINUOUS
 10
140.969004032
 20
102.4332603939
  0
SEQEND
  0
POLYLINE
  8
0
 62
9
  6
CONTINUOUS
 66
1
 70
0
  0
VERTEX
  8
0
 62
9
  6
CONTINUOUS
 10
140.7044240821
 20
101.6266866683
  0
VERTEX
  8
0
 62
9
  6
CONTINUOUS
 10
140.7909974249
 20
102.0229095124
  0
VERTEX
  8
0
 62
9
  6
CONTINUOUS
 10
140.9543418321
 20
102.3138794272
  0
SEQEND
  0
POLYLINE
  8
0
 62
9
  6
CONTINUOUS
 66
1
 70
0
  0
VERTEX
  8
0
 62
9
  6
CONTINUOUS
 10
141.6552628244
 20
101.513745247
  0
VERTEX
  8
0
 62
9
  6
CONTINUOUS
 10
141.7418517685
 20
101.9100019496
  0
VERTEX
  8
0
 62
9
  6
CONTINUOUS
 10
141.9052218023
 20
102.2009774845
  0
VERTEX
  8
0
 62
9
  6
CONTINUOUS
 10
142.1019672547
 20
102.3093627633
  0
SEQEND
  0
LINE
  8
0
 62
9
  6
CONTINUOUS
 10
142.7112976057
 20
101.513745247
 11
142.7112976057
 21
97.3527755407
  0
LINE
  8
0
 62
9
  6
CONTINUOUS
 10
144.2653944656
 20
101.513745247
 11
144.2653944656
 21
97.3527755407
  0
LINE
  8
0
 62
7
  6
CONTINUOUS
 10
144.3608400747
 20
101.513745247
 11
144.3608400747
 21
97.3527755407
  0
POLYLINE
  8
0
 62
9
  6
CONTINUOUS
 66
1
 70
0
  0
VERTEX
  8
0
 62
9
  6
CONTINUOUS
 10
144.2653944656
 20
101.513745247
  0
VERTEX
  8
0
 62
9
  6
CONTINUOUS
 10
144.1829246782
 20
101.8893224973
  0
VERTEX
  8
0
 62
9
  6
CONTINUOUS
 10
143.9548218902
 20
102.1769753051
  0
SEQEND
  0
POLYLINE
  8
0
 62
9
  6
CONTINUOUS
 66
1
 70
0
  0
VERTEX
  8
0
 62
9
  6
CONTINUOUS
 10
142.7112976057
 20
101.513745247
  0
VERTEX
  8
0
 62
9
  6
CONTINUOUS
 10
142.6302433442
 20
101.8924129433
  0
VERTEX
  8
0
 62
9
  6
CONTINUOUS
 10
142.406385166
 20
102.1808730365
  0
SEQEND
  0
POLYLINE
  8
0
 62
9
  6
CONTINUOUS
 66
1
 70
0
  0
VERTEX
  8
0
 62
9
  6
CONTINUOUS
 10
148.6078515821
 20
96.5526407518
  0
VERTEX
  8
0
 62
9
  6
CONTINUOUS
 10
148.5874952385
 20
96.8436109504
  0
VERTEX
  8
0
 62
9
  6
CONTINUOUS
 10
148.5496759909
 20
97.2398341194
  0
SEQEND
  0
POLYLINE
  8
0
 62
9
  6
CONTINUOUS
 66
1
 70
0
  0
VERTEX
  8
0
 62
9
  6
CONTINUOUS
 10
145.8022171269
 20
101.6332603939
  0
VERTEX
  8
0
 62
9
  6
CONTINUOUS
 10
145.7984767673
 20
102.033252505
  0
VERTEX
  8
0
 62
9
  6
CONTINUOUS
 10
145.7882576504
 20
102.3260753721
  0
VERTEX
  8
0
 62
9
  6
CONTINUOUS
 10
145.7742975294
 20
102.4332603939
  0
SEQEND
  0
POLYLINE
  8
0
 62
9
  6
CONTINUOUS
 66
1
 70
0
  0
VERTEX
  8
0
 62
9
  6
CONTINUOUS
 10
148.4240403532
 20
101.6332603939
  0
VERTEX
  8
0
 62
9
  6
CONTINUOUS
 10
148.4202998364
 20
102.0332603939
  0
VERTEX
  8
0
 62
9
  6
CONTINUOUS
 10
148.4100805546
 20
102.3260807169
  0
SEQEND
  0
LINE
  8
0
 62
9
  6
CONTINUOUS
 10
145.8022171269
 20
97.2332603939
 11
145.8022171269
 21
101.6332603939
  0
LINE
  8
0
 62
9
  6
CONTINUOUS
 10
149.6259114602
 20
97.3527755424
 11
149.6259114602
 21
101.5137452531
  0
LINE
  8
0
 62
9
  6
CONTINUOUS
 10
150.3976288689
 20
101.513745247
 11
150.3976288689
 21
97.3527755407
  0
LINE
  8
0
 62
9
  6
CONTINUOUS
 10
148.6053375529
 20
96.4442169831
 11
148.6078515821
 21
96.5526407518
  0
POLYLINE
  8
0
 62
9
  6
CONTINUOUS
 66
1
 70
0
  0
VERTEX
  8
0
 62
9
  6
CONTINUOUS
 10
149.6815766903
 20
96.5571580244
  0
VERTEX
  8
0
 62
9
  6
CONTINUOUS
 10
149.6840954391
 20
96.6655433008
  0
VERTEX
  8
0
 62
9
  6
CONTINUOUS
 10
149.6637373905
 20
96.9565188357
  0
VERTEX
  8
0
 62
9
  6
CONTINUOUS
 10
149.6259114602
 20
97.3527755407
  0
SEQEND
  0
POLYLINE
  8
0
 62
9
  6
CONTINUOUS
 66
1
 70
0
  0
VERTEX
  8
0
 62
9
  6
CONTINUOUS
 10
148.4100805545
 20
96.5404400708
  0
VERTEX
  8
0
 62
9
  6
CONTINUOUS
 10
148.4202998364
 20
96.8332603939
  0
VERTEX
  8
0
 62
9
  6
CONTINUOUS
 10
148.4240403532
 20
97.2332603939
  0
SEQEND
  0
POLYLINE
  8
0
 62
9
  6
CONTINUOUS
 66
1
 70
0
  0
VERTEX
  8
0
 62
9
  6
CONTINUOUS
 10
148.5496759909
 20
101.6266866683
  0
VERTEX
  8
0
 62
9
  6
CONTINUOUS
 10
148.5874951982
 20
102.0229095124
  0
VERTEX
  8
0
 62
9
  6
CONTINUOUS
 10
148.6078515126
 20
102.3138794272
  0
VERTEX
  8
0
 62
9
  6
CONTINUOUS
 10
148.605337477
 20
102.4223030816
  0
SEQEND
  0
POLYLINE
  8
0
 62
9
  6
CONTINUOUS
 66
1
 70
0
  0
VERTEX
  8
0
 62
9
  6
CONTINUOUS
 10
149.6259114602
 20
101.513745247
  0
VERTEX
  8
0
 62
9
  6
CONTINUOUS
 10
149.6637374139
 20
101.9100019496
  0
VERTEX
  8
0
 62
9
  6
CONTINUOUS
 10
149.6840954626
 20
102.2009774845
  0
VERTEX
  8
0
 62
9
  6
CONTINUOUS
 10
149.6815766903
 20
102.3093627633
  0
SEQEND
  0
POLYLINE
  8
0
 62
9
  6
CONTINUOUS
 66
1
 70
0
  0
VERTEX
  8
0
 62
9
  6
CONTINUOUS
 10
145.7742975296
 20
96.4332603939
  0
VERTEX
  8
0
 62
9
  6
CONTINUOUS
 10
145.7882600075
 20
96.540484611
  0
VERTEX
  8
0
 62
9
  6
CONTINUOUS
 10
145.7984779102
 20
96.8333261285
  0
VERTEX
  8
0
 62
9
  6
CONTINUOUS
 10
145.8022170933
 20
97.2332603939
  0
SEQEND
  0
LINE
  8
0
 62
9
  6
CONTINUOUS
 10
148.3961207559
 20
96.4332603939
 11
148.4100805545
 21
96.5404400708
  0
POLYLINE
  8
0
 62
7
  6
CONTINUOUS
 66
1
 70
0
  0
VERTEX
  8
0
 62
7
  6
CONTINUOUS
 10
150.3976288689
 20
101.513745247
  0
VERTEX
  8
0
 62
7
  6
CONTINUOUS
 10
150.3023782705
 20
101.8924129433
  0
VERTEX
  8
0
 62
7
  6
CONTINUOUS
 10
150.039312208
 20
102.1808730365
  0
VERTEX
  8
0
 62
7
  6
CONTINUOUS
 10
149.6815766903
 20
102.3093627633
  0
SEQEND
  0
LINE
  8
0
 62
9
  6
CONTINUOUS
 10
148.4100805546
 20
102.3260807169
 11
148.3961207559
 21
102.4332603939
  0
ARC
  8
0
 62
7
  6
CONTINUOUS
 10
51.6956065258
 20
210.5080573012
 40
4.42
 50
8.3056657968
 51
88.0
  0
ARC
  8
0
 62
7
  6
CONTINUOUS
 10
61.4500605144
 20
187.8646323465
 40
4.42
 50
38.3056657968
 51
118.0
  0
ARC
  8
0
 62
7
  6
CONTINUOUS
 10
54.5697140489
 20
199.7817419984
 40
4.42
 50
302.0
 51
21.6943342032
  0
ARC
  8
0
 62
7
  6
CONTINUOUS
 10
81.2193779459
 20
173.1320781015
 40
4.42
 50
68.3056657968
 51
148.0
  0
ARC
  8
0
 62
7
  6
CONTINUOUS
 10
69.302268294
 20
180.0124245669
 40
4.42
 50
332.0
 51
51.6943342032
  0
ARC
  8
0
 62
7
  6
CONTINUOUS
 10
91.9456932486
 20
170.2579705783
 40
4.42
 50
2.0
 51
81.6943342032
  0
ARC
  8
DEFAULT_3
 62
2
  6
PHANTOM
 10
92.4309933318
 20
190.9736955018
 40
3.2
 50
2.2544307753
 51
45.0
  0
ARC
  8
DEFAULT_3
 62
2
  6
PHANTOM
 10
91.0167797694
 20
192.3879090642
 40
3.2
 50
45.0
 51
86.4096221093
  0
ARC
  8
DEFAULT_3
 62
2
  6
PHANTOM
 10
91.4175664097
 20
198.7753475233
 40
3.2
 50
225.0
 51
266.4096221093
  0
ARC
  8
DEFAULT_3
 62
2
  6
PHANTOM
 10
80.2129834708
 20
209.9799304623
 40
3.2
 50
183.5903778907
 51
225.0
  0
ARC
  8
DEFAULT_3
 62
2
  6
PHANTOM
 10
73.8255450117
 20
209.579143822
 40
3.2
 50
3.5903778907
 51
45.0
  0
ARC
  8
DEFAULT_3
 62
2
  6
PHANTOM
 10
72.4113314493
 20
210.9933573844
 40
3.2
 50
45.0
 51
87.7455692247
  0
ARC
  8
0
 62
7
  6
CONTINUOUS
 10
48.0540875653
 20
215.8584037666
 40
0.8
 50
181.7260715386
 51
268.0
  0
ARC
  8
0
 62
7
  6
CONTINUOUS
 10
55.6212393535
 20
190.6774088244
 40
0.8
 50
211.7260715386
 51
298.0
  0
ARC
  8
0
 62
7
  6
CONTINUOUS
 10
54.0912393535
 20
193.32744656
 40
0.8
 50
122.0
 51
208.2739284614
  0
ARC
  8
0
 62
7
  6
CONTINUOUS
 10
74.7650825075
 20
172.653603406
 40
0.8
 50
241.7260715386
 51
328.0
  0
ARC
  8
0
 62
7
  6
CONTINUOUS
 10
72.1150447719
 20
174.183603406
 40
0.8
 50
152.0
 51
238.2739284614
  0
ARC
  8
0
 62
7
  6
CONTINUOUS
 10
97.2960397141
 20
166.6164516178
 40
0.8
 50
182.0
 51
268.2739284614
  0
ARC
  8
0
 62
7
  6
CONTINUOUS
 10
91.9456932486
 20
264.5188369549
 40
4.42
 50
278.3056657968
 51
358.0
  0
ARC
  8
0
 62
7
  6
CONTINUOUS
 10
69.302268294
 20
254.7643829663
 40
4.42
 50
308.3056657968
 51
28.0
  0
ARC
  8
0
 62
7
  6
CONTINUOUS
 10
81.2193779459
 20
261.6447294318
 40
4.42
 50
212.0
 51
291.6943342032
  0
ARC
  8
0
 62
7
  6
CONTINUOUS
 10
54.5697140489
 20
234.9950655348
 40
4.42
 50
338.3056657968
 51
58.0
  0
ARC
  8
0
 62
7
  6
CONTINUOUS
 10
61.4500605144
 20
246.9121751867
 40
4.42
 50
242.0
 51
321.6943342032
  0
ARC
  8
0
 62
7
  6
CONTINUOUS
 10
51.6956065258
 20
224.2687502321
 40
4.42
 50
272.0
 51
351.6943342032
  0
ARC
  8
DEFAULT_3
 62
2
  6
PHANTOM
 10
72.6630888102
 20
217.3884037666
 40
3.2
 50
92.2544307753
 51
267.7455692247
  0
ARC
  8
DEFAULT_3
 62
2
  6
PHANTOM
 10
72.4113314493
 20
223.7834501489
 40
3.2
 50
272.2544307753
 51
315.0
  0
ARC
  8
DEFAULT_3
 62
2
  6
PHANTOM
 10
73.8255450117
 20
225.1976637112
 40
3.2
 50
315.0
 51
356.4096221093
  0
ARC
  8
DEFAULT_3
 62
2
  6
PHANTOM
 10
80.2129834708
 20
224.796877071
 40
3.2
 50
135.0
 51
176.4096221093
  0
ARC
  8
DEFAULT_3
 62
2
  6
PHANTOM
 10
91.4175664097
 20
236.0014600099
 40
3.2
 50
93.5903778907
 51
135.0
  0
ARC
  8
DEFAULT_3
 62
2
  6
PHANTOM
 10
91.0167797694
 20
242.388898469
 40
3.2
 50
273.5903778907
 51
315.0
  0
ARC
  8
DEFAULT_3
 62
2
  6
PHANTOM
 10
92.4309933318
 20
243.8031120314
 40
3.2
 50
315.0
 51
357.7455692247
  0
ARC
  8
0
 62
7
  6
CONTINUOUS
 10
97.2960397141
 20
268.1603559154
 40
0.8
 50
91.7260715386
 51
178.0
  0
ARC
  8
0
 62
7
  6
CONTINUOUS
 10
72.1150447719
 20
260.5932041272
 40
0.8
 50
121.7260715386
 51
208.0
  0
ARC
  8
0
 62
7
  6
CONTINUOUS
 10
74.7650825075
 20
262.1232041272
 40
0.8
 50
32.0
 51
118.2739284614
  0
ARC
  8
0
 62
7
  6
CONTINUOUS
 10
54.0912393535
 20
241.4493609732
 40
0.8
 50
151.7260715386
 51
238.0
  0
ARC
  8
0
 62
7
  6
CONTINUOUS
 10
55.6212393535
 20
244.0993987088
 40
0.8
 50
62.0
 51
148.2739284614
  0
ARC
  8
0
 62
7
  6
CONTINUOUS
 10
48.0540875653
 20
218.9184037666
 40
0.8
 50
92.0
 51
178.2739284614
  0
ARC
  8
0
 62
7
  6
CONTINUOUS
 10
105.7063861795
 20
170.2579705783
 40
4.42
 50
98.3056657968
 51
178.0
  0
ARC
  8
0
 62
7
  6
CONTINUOUS
 10
128.3498111341
 20
180.0124245669
 40
4.42
 50
128.3056657968
 51
208.0
  0
ARC
  8
0
 62
7
  6
CONTINUOUS
 10
116.4327014823
 20
173.1320781015
 40
4.42
 50
32.0
 51
111.6943342032
  0
ARC
  8
0
 62
7
  6
CONTINUOUS
 10
143.0823653792
 20
199.7817419984
 40
4.42
 50
158.3056657968
 51
238.0
  0
ARC
  8
0
 62
7
  6
CONTINUOUS
 10
136.2020189138
 20
187.8646323465
 40
4.42
 50
62.0
 51
141.6943342032
  0
ARC
  8
0
 62
7
  6
CONTINUOUS
 10
145.9564729024
 20
210.5080573012
 40
4.42
 50
92.0
 51
171.6943342032
  0
ARC
  8
DEFAULT_3
 62
2
  6
PHANTOM
 10
125.2407479789
 20
210.9933573844
 40
3.2
 50
92.2544307753
 51
135.0
  0
ARC
  8
DEFAULT_3
 62
2
  6
PHANTOM
 10
123.8265344165
 20
209.579143822
 40
3.2
 50
135.0
 51
176.4096221093
  0
ARC
  8
DEFAULT_3
 62
2
  6
PHANTOM
 10
117.4390959574
 20
209.9799304623
 40
3.2
 50
315.0
 51
356.4096221093
  0
ARC
  8
DEFAULT_3
 62
2
  6
PHANTOM
 10
106.2345130184
 20
198.7753475233
 40
3.2
 50
273.5903778907
 51
315.0
  0
ARC
  8
DEFAULT_3
 62
2
  6
PHANTOM
 10
106.6352996587
 20
192.3879090642
 40
3.2
 50
93.5903778907
 51
135.0
  0
ARC
  8
DEFAULT_3
 62
2
  6
PHANTOM
 10
105.2210860963
 20
190.9736955018
 40
3.2
 50
135.0
 51
177.7455692247
  0
ARC
  8
DEFAULT_3
 62
2
  6
PHANTOM
 10
98.8260397141
 20
191.2254528627
 40
3.2
 50
182.2544307753
 51
357.7455692247
  0
ARC
  8
0
 62
7
  6
CONTINUOUS
 10
100.3560397141
 20
166.6164516178
 40
0.8
 50
271.7260715386
 51
358.0
  0
ARC
  8
0
 62
7
  6
CONTINUOUS
 10
125.5370346563
 20
174.183603406
 40
0.8
 50
301.7260715386
 51
28.0
  0
ARC
  8
0
 62
7
  6
CONTINUOUS
 10
122.8869969207
 20
172.653603406
 40
0.8
 50
212.0
 51
298.2739284614
  0
ARC
  8
0
 62
7
  6
CONTINUOUS
 10
143.5608400747
 20
193.32744656
 40
0.8
 50
331.7260715386
 51
58.0
  0
ARC
  8
0
 62
7
  6
CONTINUOUS
 10
142.0308400747
 20
190.6774088244
 40
0.8
 50
242.0
 51
328.2739284614
  0
ARC
  8
0
 62
7
  6
CONTINUOUS
 10
149.5979918629
 20
215.8584037666
 40
0.8
 50
272.0
 51
358.2739284614
  0
ARC
  8
0
 62
7
  6
CONTINUOUS
 10
98.8260397141
 20
217.3884037666
 40
51.595
 50
208.2739284614
 51
211.7260715386
  0
ARC
  8
0
 62
7
  6
CONTINUOUS
 10
98.8260397141
 20
217.3884037666
 40
51.595
 50
178.2739284614
 51
181.7260715386
  0
ARC
  8
0
 62
7
  6
CONTINUOUS
 10
98.8260397141
 20
217.3884037666
 40
51.595
 50
148.2739284614
 51
151.7260715386
  0
ARC
  8
0
 62
7
  6
CONTINUOUS
 10
98.8260397141
 20
217.3884037666
 40
51.595
 50
118.2739284614
 51
121.7260715386
  0
ARC
  8
0
 62
7
  6
CONTINUOUS
 10
98.8260397141
 20
217.3884037666
 40
51.595
 50
88.2739284614
 51
91.7260715386
  0
ARC
  8
0
 62
7
  6
CONTINUOUS
 10
98.8260397141
 20
217.3884037666
 40
51.595
 50
238.2739284614
 51
241.7260715386
  0
ARC
  8
0
 62
7
  6
CONTINUOUS
 10
98.8260397141
 20
217.3884037666
 40
51.595
 50
58.2739284614
 51
61.7260715386
  0
ARC
  8
0
 62
7
  6
CONTINUOUS
 10
98.8260397141
 20
217.3884037666
 40
51.595
 50
268.2739284614
 51
271.7260715386
  0
ARC
  8
0
 62
7
  6
CONTINUOUS
 10
98.8260397141
 20
217.3884037666
 40
51.595
 50
28.2739284614
 51
31.7260715386
  0
ARC
  8
0
 62
7
  6
CONTINUOUS
 10
98.8260397141
 20
217.3884037666
 40
51.595
 50
298.2739284614
 51
301.7260715386
  0
ARC
  8
0
 62
7
  6
CONTINUOUS
 10
98.8260397141
 20
217.3884037666
 40
51.595
 50
358.2739284614
 51
1.7260715386
  0
ARC
  8
0
 62
7
  6
CONTINUOUS
 10
98.8260397141
 20
217.3884037666
 40
51.595
 50
328.2739284614
 51
331.7260715386
  0
ARC
  8
0
 62
7
  6
CONTINUOUS
 10
98.8260397141
 20
217.3884037666
 40
43.21
 50
98.3056657968
 51
111.6943342032
  0
ARC
  8
0
 62
7
  6
CONTINUOUS
 10
98.8260397141
 20
217.3884037666
 40
43.21
 50
68.3056657968
 51
81.6943342032
  0
ARC
  8
0
 62
7
  6
CONTINUOUS
 10
98.8260397141
 20
217.3884037666
 40
43.21
 50
128.3056657968
 51
141.6943342032
  0
ARC
  8
0
 62
7
  6
CONTINUOUS
 10
98.8260397141
 20
217.3884037666
 40
43.21
 50
158.3056657968
 51
171.6943342032
  0
ARC
  8
0
 62
7
  6
CONTINUOUS
 10
98.8260397141
 20
217.3884037666
 40
43.21
 50
188.3056657968
 51
201.6943342032
  0
ARC
  8
0
 62
7
  6
CONTINUOUS
 10
98.8260397141
 20
217.3884037666
 40
43.21
 50
218.3056657968
 51
231.6943342032
  0
ARC
  8
0
 62
7
  6
CONTINUOUS
 10
98.8260397141
 20
217.3884037666
 40
43.21
 50
248.3056657968
 51
261.6943342032
  0
ARC
  8
0
 62
7
  6
CONTINUOUS
 10
98.8260397141
 20
217.3884037666
 40
43.21
 50
278.3056657968
 51
291.6943342032
  0
ARC
  8
0
 62
7
  6
CONTINUOUS
 10
98.8260397141
 20
217.3884037666
 40
43.21
 50
308.3056657968
 51
321.6943342032
  0
ARC
  8
0
 62
7
  6
CONTINUOUS
 10
98.8260397141
 20
217.3884037666
 40
43.21
 50
338.3056657968
 51
351.6943342032
  0
ARC
  8
0
 62
7
  6
CONTINUOUS
 10
98.8260397141
 20
217.3884037666
 40
43.21
 50
8.3056657968
 51
21.6943342032
  0
ARC
  8
0
 62
7
  6
CONTINUOUS
 10
98.8260397141
 20
217.3884037666
 40
43.21
 50
38.3056657968
 51
51.6943342032
  0
CIRCLE
  8
AXES
 62
7
  6
CONTINUOUS
 10
98.8260397141
 20
217.3884037666
 40
32.5
  0
CIRCLE
  8
DEFAULT_3
 62
2
  6
PHANTOM
 10
98.8260397141
 20
217.3884037666
 40
9.525
  0
ARC
  8
DEFAULT_3
 62
2
  6
PHANTOM
 10
106.6352996587
 20
242.388898469
 40
3.2
 50
225.0
 51
266.4096221093
  0
ARC
  8
DEFAULT_3
 62
2
  6
PHANTOM
 10
106.2345130184
 20
236.0014600099
 40
3.2
 50
45.0
 51
86.4096221093
  0
ARC
  8
DEFAULT_3
 62
2
  6
PHANTOM
 10
117.4390959574
 20
224.796877071
 40
3.2
 50
3.5903778907
 51
45.0
  0
ARC
  8
DEFAULT_3
 62
2
  6
PHANTOM
 10
123.8265344165
 20
225.1976637112
 40
3.2
 50
183.5903778907
 51
225.0
  0
ARC
  8
0
 62
7
  6
CONTINUOUS
 10
105.7063861795
 20
264.5188369549
 40
4.42
 50
182.0
 51
261.6943342032
  0
ARC
  8
0
 62
7
  6
CONTINUOUS
 10
116.4327014823
 20
261.6447294318
 40
4.42
 50
248.3056657968
 51
328.0
  0
ARC
  8
DEFAULT_3
 62
2
  6
PHANTOM
 10
98.8260397141
 20
243.5513546705
 40
3.2
 50
2.2544307753
 51
177.7455692247
  0
ARC
  8
DEFAULT_3
 62
2
  6
PHANTOM
 10
105.2210860963
 20
243.8031120314
 40
3.2
 50
182.2544307753
 51
225.0
  0
CIRCLE
  8
0
 62
7
  6
CONTINUOUS
 10
98.8260397141
 20
257.3884037666
 40
0.8660254038
  0
ARC
  8
0
 62
7
  6
CONTINUOUS
 10
100.3560397141
 20
268.1603559154
 40
0.8
 50
2.0
 51
88.2739284614
  0
ARC
  8
0
 62
7
  6
CONTINUOUS
 10
122.8869969207
 20
262.1232041272
 40
0.8
 50
61.7260715386
 51
148.0
  0
ARC
  8
0
 62
7
  6
CONTINUOUS
 10
145.9564729024
 20
224.2687502321
 40
4.42
 50
188.3056657968
 51
268.0
  0
ARC
  8
0
 62
7
  6
CONTINUOUS
 10
143.0823653792
 20
234.9950655348
 40
4.42
 50
122.0
 51
201.6943342032
  0
ARC
  8
DEFAULT_3
 62
2
  6
PHANTOM
 10
125.2407479789
 20
223.7834501489
 40
3.2
 50
225.0
 51
267.7455692247
  0
ARC
  8
DEFAULT_3
 62
2
  6
PHANTOM
 10
124.988990618
 20
217.3884037666
 40
3.2
 50
272.2544307753
 51
87.7455692247
  0
ARC
  8
0
 62
7
  6
CONTINUOUS
 10
149.5979918629
 20
218.9184037666
 40
0.8
 50
1.7260715386
 51
88.0
  0
ARC
  8
0
 62
7
  6
CONTINUOUS
 10
143.5608400747
 20
241.4493609732
 40
0.8
 50
302.0
 51
28.2739284614
  0
ARC
  8
0
 62
7
  6
CONTINUOUS
 10
128.3498111341
 20
254.7643829663
 40
4.42
 50
152.0
 51
231.6943342032
  0
ARC
  8
0
 62
7
  6
CONTINUOUS
 10
136.2020189138
 20
246.9121751867
 40
4.42
 50
218.3056657968
 51
298.0
  0
ARC
  8
0
 62
7
  6
CONTINUOUS
 10
142.0308400747
 20
244.0993987088
 40
0.8
 50
31.7260715386
 51
118.0
  0
ARC
  8
0
 62
7
  6
CONTINUOUS
 10
125.5370346563
 20
260.5932041272
 40
0.8
 50
332.0
 51
58.2739284614
  0
ARC
  8
AXES
 62
7
  6
CONTINUOUS
 10
129.3260397141
 20
109.9332603939
 40
2.0
 50
0.0
 51
90.0
  0
ARC
  8
AXES
 62
7
  6
CONTINUOUS
 10
68.3260397141
 20
109.9332603939
 40
2.0
 50
90.0
 51
180.0
  0
ARC
  8
AXES
 62
7
  6
CONTINUOUS
 10
148.4210397141
 20
100.4332603939
 40
2.0
 50
86.1280181719
 51
90.0
  0
ARC
  8
AXES
 62
7
  6
CONTINUOUS
 10
49.2310397141
 20
100.4332603939
 40
2.0
 50
90.0
 51
93.8719818284
  0
ARC
  8
AXES
 62
7
  6
CONTINUOUS
 10
148.4210397141
 20
98.4332603939
 40
2.0
 50
270.0
 51
276.0
  0
ARC
  8
AXES
 62
7
  6
CONTINUOUS
 10
49.2310397141
 20
98.4332603939
 40
2.0
 50
264.0
 51
270.0
  0
ARC
  8
AXES
 62
7
  6
CONTINUOUS
 10
129.3260397141
 20
88.9332603939
 40
2.0
 50
270.0
 51
360.0
  0
ARC
  8
AXES
 62
7
  6
CONTINUOUS
 10
68.3260397141
 20
88.9332603939
 40
2.0
 50
180.0
 51
270.0
  0
ARC
  8
AXES
 62
7
  6
CONTINUOUS
 10
132.3260397141
 20
103.4332603939
 40
1.0
 50
180.0
 51
270.0
  0
ARC
  8
AXES
 62
7
  6
CONTINUOUS
 10
65.3260397141
 20
103.4332603939
 40
1.0
 50
270.0
 51
360.0
  0
ARC
  8
AXES
 62
7
  6
CONTINUOUS
 10
132.3260397141
 20
95.4332603939
 40
1.0
 50
90.0
 51
180.0
  0
ARC
  8
AXES
 62
7
  6
CONTINUOUS
 10
65.3260397141
 20
95.4332603939
 40
1.0
 50
0.0
 51
90.0
  0
ARC
  8
0
 62
7
  6
CONTINUOUS
 10
48.0310397141
 20
97.3527755407
 40
0.8
 50
180.0
 51
264.0
  0
ARC
  8
0
 62
7
  6
CONTINUOUS
 10
149.6210397141
 20
97.3527755407
 40
0.8
 50
276.0
 51
360.0
  0
ARC
  8
0
 62
7
  6
CONTINUOUS
 10
48.0310397141
 20
101.513745247
 40
0.8
 50
96.0
 51
180.0
  0
ARC
  8
0
 62
7
  6
CONTINUOUS
 10
149.6210397141
 20
101.513745247
 40
0.8
 50
0.0
 51
84.0
  0
ENDSEC
  0
EOF
