  0
SECTION
  2
HEADER
  9
$EXTMAX
 10
210.0
 20
297.0
 30
0.0
  9
$EXTMIN
 10
0.0
 20
0.0
 30
0.0
  9
$LIMMIN
 10
0.0
 20
0.0
  9
$LIMMAX
 10
210.0
 20
297.0
  9
$VIEWCTR
 10
105.0
 20
148.5
  9
$VIEWSIZE
 40
297.0
  9
$CLAYER
  8
0
  9
$LTSCALE
 40
19.36
  9
$CELTYPE
  6
BYLAYER
  9
$DIMSCALE
 40
1.0
  9
$DIMASZ
 40
3.5
  9
$DIMEXO
 40
2.2
  9
$DIMDLI
 40
13.376
  9
$DIMEXE
 40
6.336
  9
$DIMCEN
 40
3.168
  9
$DIMLFAC
 40
1.0
  9
$DIMBLK
  1
_FILLED
  9
$DIMTXT
 40
3.5
  9
$PDMODE
 70
3
  9
$PDSIZE
 40
0.3125
  9
$TILEMODE
 70
1
  0
ENDSEC
  0
SECTION
  2
TABLES
  0
TABLE
  2
LTYPE
 70
6
  0
LTYPE
  2
BYBLOCK
 70
0
  3

 72
65
 73
0
 40
0.0
  0
LTYPE
  2
BYLAYER
 70
0
  3

 72
65
 73
0
 40
0.0
  0
LTYPE
  2
CONTINUOUS
 70
64
  3
Solid line
 72
65
 73
0
 40
0.0
  0
LTYPE
  2
CENTER
 70
64
  3
____ _ ____ _ ____ _ ____ _ ____ _ ____ _ ____
 72
65
 73
4
 40
0.6
 49
0.375
 49
-0.075
 49
0.075
 49
-0.075
  0
LTYPE
  2
HIDDEN
 70
64
  3
- - - - - - - - - - - - - - - - - - - -
 72
65
 73
2
 40
0.2
 49
0.1
 49
-0.1
  0
LTYPE
  2
PHANTOM
 70
64
  3
_____ _ _ _____ _ _ _____ _ _ _____
 72
65
 73
6
 40
0.8
 49
0.45
 49
-0.05
 49
0.1
 49
-0.05
 49
0.1
 49
-0.05
  0
LTYPE
  2
DOT
 70
64
  3
. . . . . . . . . . . . . . . . . . . .
 72
65
 73
2
 40
0.2
 49
0.1
 49
-0.1
  0
LTYPE
  2
DASHED
 70
64
  3
- - - - - - - - - - - - - - - - - - - -
 72
65
 73
2
 40
0.2
 49
0.1
 49
-0.1
  0
ENDTAB
  0
TABLE
  2
LAYER
 70
36
  0
LAYER
  2
0
 70
0
 62
7
  6
CONTINUOUS
  0
LAYER
  2
DEFAULT_1
 70
0
 62
7
  6
CENTER
  0
LAYER
  2
DEFAULT_2
 70
0
 62
8
  6
HIDDEN
  0
LAYER
  2
DEFAULT_3
 70
0
 62
7
  6
PHANTOM
  0
LAYER
  2
1_CSYS
 70
0
 62
7
  6
CONTINUOUS
  0
LAYER
  2
1_DATUM_PLANE
 70
0
 62
7
  6
CONTINUOUS
  0
LAYER
  2
2_FEATURE
 70
0
 62
7
  6
CONTINUOUS
  0
LAYER
  2
6_DIM
 70
0
 62
7
  6
CONTINUOUS
  0
LAYER
  2
AXES
 70
0
 62
7
  6
CONTINUOUS
  0
LAYER
  2
CSYS
 70
0
 62
7
  6
CONTINUOUS
  0
LAYER
  2
PLANES
 70
0
 62
7
  6
CONTINUOUS
  0
LAYER
  2
QUILTS
 70
0
 62
7
  6
CONTINUOUS
  0
ENDTAB
  0
TABLE
  2
STYLE
 70
1
  0
STYLE
  2
STANDARD
 70
0
 40
0.0
 41
0.8
 50
0.0
 71
0
 42
0.2
  3
txt
  4

  0
STYLE
  2
TEXTSTYLE_1
 70
0
 40
0.0
 41
0.8
 50
0.0
 71
0
 42
0.2
  3
gdt
  4

  0
STYLE
  2
TEXTSTYLE_2
 70
0
 40
0.0
 41
0.6
 50
0.0
 71
0
 42
0.2
  3
txt
  4

  0
STYLE
  2
TEXTSTYLE_3
 70
0
 40
0.0
 41
1.0
 50
0.0
 71
0
 42
0.2
  3
ftb_____.ttf
  4

  0
STYLE
  2
TEXTSTYLE_4
 70
0
 40
0.0
 41
1.0
 50
0.0
 71
0
 42
0.2
  3
fti_____.ttf
  4

  0
STYLE
  2
TEXTSTYLE_5
 70
0
 40
0.0
 41
1.0
 50
0.0
 71
0
 42
0.2
  3
frutiger light.ttf
  4

  0
STYLE
  2
TEXTSTYLE_6
 70
0
 40
0.0
 41
0.7
 50
0.0
 71
0
 42
0.2
  3
txt
  4

  0
STYLE
  2
TEXTSTYLE_7
 70
0
 40
0.0
 41
0.8
 50
0.0
 71
0
 42
0.2
  3
txt
  4

  0
ENDTAB
  0
ENDSEC
  0
SECTION
  2
BLOCKS
  0
BLOCK
  8
0
 62
2
  6
CONTINUOUS
  2
SYMBOL_8_BL1
 70
64
 10
173.5956734183
 20
35.5937998301
  0
TEXT
  8
0
 62
7
  6
CONTINUOUS
 10
164.6539584268
 20
30.6865562072
  7
TEXTSTYLE_4
 40
1.0655737705
  1
The brand for plastic modular belts and chains
 41
1.0
 72
0
  0
LINE
  8
0
 62
7
  6
CONTINUOUS
 10
149.5737418074
 20
36.1675703219
 11
149.5737418074
 21
34.0364227809
  0
LINE
  8
0
 62
7
  6
CONTINUOUS
 10
149.8628043005
 20
31.0454914852
 11
149.8628043005
 21
31.1422825445
  0
LINE
  8
0
 62
7
  6
CONTINUOUS
 10
149.5737418074
 20
31.1100188581
 11
149.6315543091
 21
30.9164367395
  0
LINE
  8
0
 62
7
  6
CONTINUOUS
 10
150.9671844304
 20
33.9544555678
 11
150.9671844304
 21
36.1675703219
  0
LINE
  8
0
 62
7
  6
CONTINUOUS
 10
151.8862417523
 20
32.1101932727
 11
151.8862417523
 21
30.5937998301
  0
LINE
  8
0
 62
7
  6
CONTINUOUS
 10
152.1753043074
 20
30.5937998301
 11
152.1753043074
 21
31.3358647082
  0
LINE
  8
0
 62
7
  6
CONTINUOUS
 10
152.1753043074
 20
31.4649194539
 11
152.1753043074
 21
32.1101932727
  0
LINE
  8
0
 62
7
  6
CONTINUOUS
 10
149.6315543091
 20
31.3036010218
 11
149.5737418074
 21
31.1100188581
  0
LINE
  8
0
 62
7
  6
CONTINUOUS
 10
149.9784292936
 20
30.8841730531
 11
149.8628043005
 21
31.0454914852
  0
LINE
  8
0
 62
7
  6
CONTINUOUS
 10
151.0768668626
 20
31.400392081
 11
151.1346793074
 21
31.3036010218
  0
LINE
  8
0
 62
7
  6
CONTINUOUS
 10
151.4237418626
 20
31.3036010218
 11
151.3659292523
 21
31.4326557675
  0
LINE
  8
0
 62
7
  6
CONTINUOUS
 10
152.852430332
 20
36.1675703219
 11
152.852430332
 21
34.3642916334
  0
LINE
  8
0
 62
7
  6
CONTINUOUS
 10
152.852430332
 20
33.0528162235
 11
152.852430332
 21
32.3970785186
  0
LINE
  8
0
 62
7
  6
CONTINUOUS
 10
153.2159293074
 20
31.2390736489
 11
153.2159293074
 21
30.5937998301
  0
LINE
  8
0
 62
7
  6
CONTINUOUS
 10
153.5049916972
 20
30.5937998301
 11
153.5049916972
 21
31.2390736489
  0
LINE
  8
0
 62
7
  6
CONTINUOUS
 10
149.8628043005
 20
31.1422825445
 11
149.9206168074
 21
31.2713373354
  0
LINE
  8
0
 62
7
  6
CONTINUOUS
 10
149.6315543091
 20
30.9164367395
 11
149.7471793074
 21
30.7873819712
  0
LINE
  8
0
 62
7
  6
CONTINUOUS
 10
153.1581166972
 20
31.3681283946
 11
153.2159293074
 21
31.2390736489
  0
LINE
  8
0
 62
7
  6
CONTINUOUS
 10
153.9674919177
 20
30.8841730531
 11
154.0253041972
 21
30.7551182848
  0
LINE
  8
0
 62
7
  6
CONTINUOUS
 10
153.5049916972
 20
31.2390736489
 11
153.4471794177
 21
31.400392081
  0
LINE
  8
0
 62
7
  6
CONTINUOUS
 10
153.9674919177
 20
31.4326557675
 11
153.9674919177
 21
31.3681283946
  0
LINE
  8
0
 62
7
  6
CONTINUOUS
 10
153.9674919177
 20
30.9809641124
 11
153.9674919177
 21
30.8841730531
  0
LINE
  8
0
 62
7
  6
CONTINUOUS
 10
154.245872955
 20
32.3970785186
 11
154.245872955
 21
36.1675703219
  0
LINE
  8
0
 62
7
  6
CONTINUOUS
 10
154.2565543074
 20
30.8519093441
 11
154.2565543074
 21
30.9164367395
  0
LINE
  8
0
 62
7
  6
CONTINUOUS
 10
154.5737418074
 20
36.1675703219
 11
154.5737418074
 21
32.3970785186
  0
LINE
  8
0
 62
7
  6
CONTINUOUS
 10
151.3659292523
 20
30.7873819712
 11
151.4237418626
 21
30.9164367395
  0
LINE
  8
0
 62
7
  6
CONTINUOUS
 10
155.759679528
 20
30.6905909007
 11
155.7018665869
 21
30.8519093441
  0
LINE
  8
0
 62
7
  6
CONTINUOUS
 10
155.412804528
 20
31.3681283946
 11
155.412804528
 21
31.2713373354
  0
LINE
  8
0
 62
7
  6
CONTINUOUS
 10
155.412804528
 20
31.1422825445
 11
155.412804528
 21
30.9487004259
  0
LINE
  8
0
 62
7
  6
CONTINUOUS
 10
155.7018665869
 20
30.8519093441
 11
155.7018665869
 21
31.3681283946
  0
LINE
  8
0
 62
7
  6
CONTINUOUS
 10
155.9671844304
 20
32.3970785186
 11
155.9671844304
 21
34.2003572071
  0
LINE
  8
0
 62
7
  6
CONTINUOUS
 10
155.9671844304
 20
35.511832617
 11
155.9671844304
 21
36.1675703219
  0
LINE
  8
0
 62
7
  6
CONTINUOUS
 10
156.279992028
 20
32.1101932727
 11
156.279992028
 21
31.9488748406
  0
LINE
  8
0
 62
7
  6
CONTINUOUS
 10
156.279992028
 20
31.626237886
 11
156.279992028
 21
30.5937998301
  0
LINE
  8
0
 62
7
  6
CONTINUOUS
 10
156.5690540869
 20
30.5937998301
 11
156.5690540869
 21
31.626237886
  0
LINE
  8
0
 62
7
  6
CONTINUOUS
 10
156.5690540869
 20
31.9488748406
 11
156.5690540869
 21
32.1101932727
  0
LINE
  8
0
 62
7
  6
CONTINUOUS
 10
151.1346793074
 20
30.9164367395
 11
151.0768668626
 21
30.8196456577
  0
LINE
  8
0
 62
7
  6
CONTINUOUS
 10
153.4471794177
 20
31.400392081
 11
153.3893668074
 21
31.4649194539
  0
LINE
  8
0
 62
7
  6
CONTINUOUS
 10
154.3143669177
 20
30.7873819712
 11
154.2565543074
 21
30.8519093441
  0
LINE
  8
0
 62
7
  6
CONTINUOUS
 10
155.4706168074
 20
30.6583272086
 11
155.5284290869
 21
30.5937998301
  0
LINE
  8
0
 62
7
  6
CONTINUOUS
 10
155.412804528
 20
30.7551182848
 11
155.4706168074
 21
30.6583272086
  0
LINE
  8
0
 62
7
  6
CONTINUOUS
 10
155.8174918074
 20
30.5937998301
 11
155.759679528
 21
30.6905909007
  0
LINE
  8
0
 62
7
  6
CONTINUOUS
 10
155.7018665869
 20
31.3681283946
 11
155.6440543074
 21
31.4649194539
  0
LINE
  8
0
 62
7
  6
CONTINUOUS
 10
157.0315543074
 20
31.626237886
 11
157.0315543074
 21
30.5937998301
  0
LINE
  8
0
 62
7
  6
CONTINUOUS
 10
157.320617028
 20
30.5937998301
 11
157.320617028
 21
31.3358647082
  0
LINE
  8
0
 62
7
  6
CONTINUOUS
 10
157.320617028
 20
31.4649194539
 11
157.320617028
 21
31.626237886
  0
LINE
  8
0
 62
7
  6
CONTINUOUS
 10
157.852430332
 20
34.6101932727
 11
157.852430332
 21
32.3970785186
  0
LINE
  8
0
 62
7
  6
CONTINUOUS
 10
149.7471793074
 20
31.4326557675
 11
149.6315543091
 21
31.3036010218
  0
LINE
  8
0
 62
7
  6
CONTINUOUS
 10
149.9206168074
 20
31.2713373354
 11
149.9784292936
 21
31.3358647082
  0
LINE
  8
0
 62
7
  6
CONTINUOUS
 10
149.7471793074
 20
30.7873819712
 11
149.8628043005
 21
30.7228545871
  0
LINE
  8
0
 62
7
  6
CONTINUOUS
 10
150.1518667936
 20
30.7873819712
 11
149.9784292936
 21
30.8841730531
  0
LINE
  8
0
 62
7
  6
CONTINUOUS
 10
155.3549915869
 20
31.4326557675
 11
155.412804528
 21
31.3681283946
  0
LINE
  8
0
 62
7
  6
CONTINUOUS
 10
158.3034290869
 20
31.3681283946
 11
158.361242028
 21
31.2068099625
  0
LINE
  8
0
 62
7
  6
CONTINUOUS
 10
158.6503040869
 20
31.2068099625
 11
158.5924918074
 21
31.3681283946
  0
LINE
  8
0
 62
7
  6
CONTINUOUS
 10
158.361242028
 20
31.2068099625
 11
158.361242028
 21
30.5937998301
  0
LINE
  8
0
 62
7
  6
CONTINUOUS
 10
158.6503040869
 20
30.5937998301
 11
158.6503040869
 21
31.2068099625
  0
LINE
  8
0
 62
7
  6
CONTINUOUS
 10
159.1128043074
 20
31.4326557675
 11
159.1128043074
 21
31.3681283946
  0
LINE
  8
0
 62
7
  6
CONTINUOUS
 10
159.245872955
 20
32.3970785186
 11
159.245872955
 21
34.5282260596
  0
LINE
  8
0
 62
7
  6
CONTINUOUS
 10
159.5737418074
 20
36.1675703219
 11
159.5737418074
 21
32.3970785186
  0
LINE
  8
0
 62
7
  6
CONTINUOUS
 10
154.2565543074
 20
30.9164367395
 11
154.3143669177
 21
31.0132277988
  0
LINE
  8
0
 62
7
  6
CONTINUOUS
 10
149.8628043005
 20
30.7228545871
 11
150.0362418212
 21
30.6583272086
  0
LINE
  8
0
 62
7
  6
CONTINUOUS
 10
151.3659292523
 20
31.4326557675
 11
151.1924917523
 21
31.5294468267
  0
LINE
  8
0
 62
7
  6
CONTINUOUS
 10
154.0253041972
 20
30.7551182848
 11
154.1987416972
 21
30.6583272086
  0
LINE
  8
0
 62
7
  6
CONTINUOUS
 10
153.0424918074
 20
31.4326557675
 11
153.1581166972
 21
31.3681283946
  0
LINE
  8
0
 62
7
  6
CONTINUOUS
 10
153.3893668074
 20
31.4649194539
 11
153.2737419177
 21
31.5294468267
  0
LINE
  8
0
 62
7
  6
CONTINUOUS
 10
159.1128043074
 20
30.8519093441
 11
159.228429528
 21
30.7228545871
  0
LINE
  8
0
 62
7
  6
CONTINUOUS
 10
159.4596793074
 20
30.7873819712
 11
159.401867028
 21
30.8519093441
  0
LINE
  8
0
 62
7
  6
CONTINUOUS
 10
159.1128043074
 20
31.3681283946
 11
159.228429528
 21
31.2390736489
  0
LINE
  8
0
 62
7
  6
CONTINUOUS
 10
158.5924918074
 20
31.3681283946
 11
158.534679528
 21
31.4649194539
  0
LINE
  8
0
 62
7
  6
CONTINUOUS
 10
160.9628038663
 20
30.7873819712
 11
160.9628038663
 21
30.8519093441
  0
LINE
  8
0
 62
7
  6
CONTINUOUS
 10
160.9671844304
 20
32.3970785186
 11
160.9671844304
 21
36.1675703219
  0
LINE
  8
0
 62
7
  6
CONTINUOUS
 10
154.0253041972
 20
31.4971831403
 11
153.9674919177
 21
31.4326557675
  0
LINE
  8
0
 62
7
  6
CONTINUOUS
 10
150.9034292799
 20
31.4649194539
 11
151.0768668626
 21
31.400392081
  0
LINE
  8
0
 62
7
  6
CONTINUOUS
 10
155.6440543074
 20
31.4649194539
 11
155.5284290869
 21
31.5294468267
  0
LINE
  8
0
 62
7
  6
CONTINUOUS
 10
159.4596793074
 20
31.3036010218
 11
159.401867028
 21
31.3681283946
  0
LINE
  8
0
 62
7
  6
CONTINUOUS
 10
160.615929528
 20
30.9164367395
 11
160.6737418074
 21
30.8519093441
  0
LINE
  8
0
 62
7
  6
CONTINUOUS
 10
160.9628038663
 20
30.8519093441
 11
160.8471793074
 21
30.9809641124
  0
LINE
  8
0
 62
7
  6
CONTINUOUS
 10
160.615929528
 20
31.4326557675
 11
160.6737418074
 21
31.3681283946
  0
LINE
  8
0
 62
7
  6
CONTINUOUS
 10
160.9628038663
 20
31.3681283946
 11
160.8471793074
 21
31.4971831403
  0
LINE
  8
0
 62
7
  6
CONTINUOUS
 10
154.2565543074
 20
31.3681283946
 11
154.3143669177
 21
31.4326557675
  0
LINE
  8
0
 62
7
  6
CONTINUOUS
 10
154.0831168074
 20
31.1100188581
 11
153.9674919177
 21
30.9809641124
  0
LINE
  8
0
 62
7
  6
CONTINUOUS
 10
155.412804528
 20
30.9487004259
 11
155.3549915869
 21
30.8841730531
  0
LINE
  8
0
 62
7
  6
CONTINUOUS
 10
155.3549915869
 20
30.6905909007
 11
155.412804528
 21
30.7551182848
  0
LINE
  8
0
 62
7
  6
CONTINUOUS
 10
154.1987416972
 20
30.6583272086
 11
154.3143669177
 21
30.6260635193
  0
LINE
  8
0
 62
7
  6
CONTINUOUS
 10
151.1924917523
 20
31.5294468267
 11
150.9612418074
 21
31.5939741996
  0
LINE
  8
0
 62
7
  6
CONTINUOUS
 10
154.5456166972
 20
30.7228545871
 11
154.3143669177
 21
30.7873819712
  0
LINE
  8
0
 62
7
  6
CONTINUOUS
 10
153.2737419177
 20
31.5294468267
 11
153.1003044177
 21
31.5939741996
  0
LINE
  8
0
 62
7
  6
CONTINUOUS
 10
155.5284290869
 20
31.5294468267
 11
155.3549915869
 21
31.5939741996
  0
LINE
  8
0
 62
7
  6
CONTINUOUS
 10
158.187804528
 20
31.4326557675
 11
158.3034290869
 21
31.3681283946
  0
LINE
  8
0
 62
7
  6
CONTINUOUS
 10
158.534679528
 20
31.4649194539
 11
158.4190543074
 21
31.5294468267
  0
LINE
  8
0
 62
7
  6
CONTINUOUS
 10
150.0362418212
 20
30.6583272086
 11
150.2096793212
 21
30.6260635193
  0
LINE
  8
0
 62
7
  6
CONTINUOUS
 10
150.498741835
 20
30.7228545871
 11
150.1518667936
 21
30.7873819712
  0
LINE
  8
0
 62
7
  6
CONTINUOUS
 10
152.9268669177
 20
31.4649194539
 11
153.0424918074
 21
31.4326557675
  0
LINE
  8
0
 62
7
  6
CONTINUOUS
 10
155.239367028
 20
31.4649194539
 11
155.3549915869
 21
31.4326557675
  0
LINE
  8
0
 62
7
  6
CONTINUOUS
 10
159.575304528
 20
30.7551182848
 11
159.4596793074
 21
30.7873819712
  0
LINE
  8
0
 62
7
  6
CONTINUOUS
 10
158.0721793074
 20
31.4649194539
 11
158.187804528
 21
31.4326557675
  0
LINE
  8
0
 62
7
  6
CONTINUOUS
 10
159.228429528
 20
30.7228545871
 11
159.401867028
 21
30.6583272086
  0
LINE
  8
0
 62
7
  6
CONTINUOUS
 10
158.4190543074
 20
31.5294468267
 11
158.2456168074
 21
31.5939741996
  0
LINE
  8
0
 62
7
  6
CONTINUOUS
 10
159.6331168074
 20
31.2390736489
 11
159.4596793074
 21
31.3036010218
  0
LINE
  8
0
 62
7
  6
CONTINUOUS
 10
160.442492028
 20
30.9809641124
 11
160.615929528
 21
30.9164367395
  0
LINE
  8
0
 62
7
  6
CONTINUOUS
 10
160.8471793074
 20
31.4971831403
 11
160.6737418074
 21
31.5617105132
  0
LINE
  8
0
 62
7
  6
CONTINUOUS
 10
159.228429528
 20
31.2390736489
 11
159.4596793074
 21
31.1422825445
  0
LINE
  8
0
 62
7
  6
CONTINUOUS
 10
160.8471793074
 20
30.9809641124
 11
160.615929528
 21
31.0777551716
  0
LINE
  8
0
 62
7
  6
CONTINUOUS
 10
159.401867028
 20
31.3681283946
 11
159.4596793074
 21
31.4326557675
  0
LINE
  8
0
 62
7
  6
CONTINUOUS
 10
149.8628043005
 20
31.4971831403
 11
149.7471793074
 21
31.4326557675
  0
LINE
  8
0
 62
7
  6
CONTINUOUS
 10
149.9784292936
 20
31.3358647082
 11
150.1518667936
 21
31.4326557675
  0
LINE
  8
0
 62
7
  6
CONTINUOUS
 10
152.2909293626
 20
31.5294468267
 11
152.1753043074
 21
31.4649194539
  0
LINE
  8
0
 62
7
  6
CONTINUOUS
 10
152.1753043074
 20
31.3358647082
 11
152.2909293626
 21
31.400392081
  0
LINE
  8
0
 62
7
  6
CONTINUOUS
 10
151.1924917523
 20
30.6905909007
 11
151.3659292523
 21
30.7873819712
  0
LINE
  8
0
 62
7
  6
CONTINUOUS
 10
150.2096793212
 20
30.6260635193
 11
150.5565542799
 21
30.5937998301
  0
LINE
  8
0
 62
7
  6
CONTINUOUS
 10
154.3143669177
 20
30.6260635193
 11
154.5456166972
 21
30.5937998301
  0
LINE
  8
0
 62
7
  6
CONTINUOUS
 10
152.6956168074
 20
31.4971831403
 11
152.9268669177
 21
31.4649194539
  0
LINE
  8
0
 62
7
  6
CONTINUOUS
 10
155.0081169177
 20
31.4971831403
 11
155.239367028
 21
31.4649194539
  0
LINE
  8
0
 62
7
  6
CONTINUOUS
 10
159.4596793074
 20
31.1422825445
 11
160.442492028
 21
30.9809641124
  0
LINE
  8
0
 62
7
  6
CONTINUOUS
 10
160.615929528
 20
31.0777551716
 11
159.6331168074
 21
31.2390736489
  0
LINE
  8
0
 62
7
  6
CONTINUOUS
 10
153.1003044177
 20
31.5939741996
 11
152.9268669177
 21
31.626237886
  0
LINE
  8
0
 62
7
  6
CONTINUOUS
 10
159.401867028
 20
30.6583272086
 11
159.575304528
 21
30.6260635193
  0
LINE
  8
0
 62
7
  6
CONTINUOUS
 10
158.2456168074
 20
31.5939741996
 11
158.0721793074
 21
31.626237886
  0
LINE
  8
0
 62
7
  6
CONTINUOUS
 10
160.5003043074
 20
31.4649194539
 11
160.615929528
 21
31.4326557675
  0
LINE
  8
0
 62
7
  6
CONTINUOUS
 10
160.6737418074
 20
30.8519093441
 11
160.615929528
 21
30.7873819712
  0
LINE
  8
0
 62
7
  6
CONTINUOUS
 10
159.228429528
 20
31.5294468267
 11
159.1128043074
 21
31.4326557675
  0
LINE
  8
0
 62
7
  6
CONTINUOUS
 10
154.1409294177
 20
31.5617105132
 11
154.0253041972
 21
31.4971831403
  0
LINE
  8
0
 62
7
  6
CONTINUOUS
 10
154.1987416972
 20
31.1745462761
 11
154.0831168074
 21
31.1100188581
  0
LINE
  8
0
 62
7
  6
CONTINUOUS
 10
154.3143669177
 20
31.0132277988
 11
154.4299918074
 21
31.0777551716
  0
LINE
  8
0
 62
7
  6
CONTINUOUS
 10
151.8862417523
 20
30.5937998301
 11
152.1753043074
 21
30.5937998301
  0
LINE
  8
0
 62
7
  6
CONTINUOUS
 10
153.2159293074
 20
30.5937998301
 11
153.5049916972
 21
30.5937998301
  0
LINE
  8
0
 62
7
  6
CONTINUOUS
 10
154.5456166972
 20
30.5937998301
 11
154.8924916972
 21
30.5937998301
  0
LINE
  8
0
 62
7
  6
CONTINUOUS
 10
155.5284290869
 20
30.5937998301
 11
155.8174918074
 21
30.5937998301
  0
LINE
  8
0
 62
7
  6
CONTINUOUS
 10
156.279992028
 20
30.5937998301
 11
156.5690540869
 21
30.5937998301
  0
LINE
  8
0
 62
7
  6
CONTINUOUS
 10
157.0315543074
 20
30.5937998301
 11
157.320617028
 21
30.5937998301
  0
LINE
  8
0
 62
7
  6
CONTINUOUS
 10
158.361242028
 20
30.5937998301
 11
158.6503040869
 21
30.5937998301
  0
LINE
  8
0
 62
7
  6
CONTINUOUS
 10
159.922179528
 20
30.5937998301
 11
160.269054528
 21
30.5937998301
  0
LINE
  8
0
 62
7
  6
CONTINUOUS
 10
160.269054528
 20
30.7228545871
 11
159.922179528
 21
30.7228545871
  0
LINE
  8
0
 62
7
  6
CONTINUOUS
 10
154.8924916972
 20
30.7228545871
 11
154.5456166972
 21
30.7228545871
  0
LINE
  8
0
 62
7
  6
CONTINUOUS
 10
159.401867028
 20
30.8519093441
 11
159.1128043074
 21
30.8519093441
  0
LINE
  8
0
 62
7
  6
CONTINUOUS
 10
151.4237418626
 20
30.9164367395
 11
151.1346793074
 21
30.9164367395
  0
LINE
  8
0
 62
7
  6
CONTINUOUS
 10
150.498741835
 20
31.4971831403
 11
150.9034292799
 21
31.4649194539
  0
LINE
  8
0
 62
7
  6
CONTINUOUS
 10
150.9612418074
 20
31.5939741996
 11
150.5565542799
 21
31.626237886
  0
LINE
  8
0
 62
7
  6
CONTINUOUS
 10
159.575304528
 20
30.6260635193
 11
159.922179528
 21
30.5937998301
  0
LINE
  8
0
 62
7
  6
CONTINUOUS
 10
159.922179528
 20
30.7228545871
 11
159.575304528
 21
30.7551182848
  0
LINE
  8
0
 62
7
  6
CONTINUOUS
 10
155.3549915869
 20
31.5939741996
 11
155.0081169177
 21
31.626237886
  0
LINE
  8
0
 62
7
  6
CONTINUOUS
 10
160.1534293074
 20
31.4971831403
 11
160.5003043074
 21
31.4649194539
  0
LINE
  8
0
 62
7
  6
CONTINUOUS
 10
160.5003043074
 20
31.5939741996
 11
160.1534293074
 21
31.626237886
  0
LINE
  8
0
 62
7
  6
CONTINUOUS
 10
157.840929528
 20
31.4971831403
 11
158.0721793074
 21
31.4649194539
  0
LINE
  8
0
 62
7
  6
CONTINUOUS
 10
160.6737418074
 20
31.5617105132
 11
160.5003043074
 21
31.5939741996
  0
LINE
  8
0
 62
7
  6
CONTINUOUS
 10
160.8471793074
 20
30.6905909007
 11
160.9628038663
 21
30.7873819712
  0
LINE
  8
0
 62
7
  6
CONTINUOUS
 10
155.3549915869
 20
30.8841730531
 11
155.1815540869
 21
30.7873819712
  0
LINE
  8
0
 62
7
  6
CONTINUOUS
 10
157.4362415869
 20
31.5294468267
 11
157.320617028
 21
31.4649194539
  0
LINE
  8
0
 62
7
  6
CONTINUOUS
 10
157.320617028
 20
31.3358647082
 11
157.4362415869
 21
31.400392081
  0
LINE
  8
0
 62
7
  6
CONTINUOUS
 10
150.0362418212
 20
31.5617105132
 11
149.8628043005
 21
31.4971831403
  0
LINE
  8
0
 62
7
  6
CONTINUOUS
 10
152.4643666972
 20
31.5939741996
 11
152.2909293626
 21
31.5294468267
  0
LINE
  8
0
 62
7
  6
CONTINUOUS
 10
152.2909293626
 20
31.400392081
 11
152.4643666972
 21
31.4649194539
  0
LINE
  8
0
 62
7
  6
CONTINUOUS
 10
151.0768668626
 20
30.8196456577
 11
150.9034292799
 21
30.7551182848
  0
LINE
  8
0
 62
7
  6
CONTINUOUS
 10
160.5003043074
 20
30.7551182848
 11
160.269054528
 21
30.7228545871
  0
LINE
  8
0
 62
7
  6
CONTINUOUS
 10
154.8924916972
 20
30.5937998301
 11
155.1815540869
 21
30.6260635193
  0
LINE
  8
0
 62
7
  6
CONTINUOUS
 10
160.269054528
 20
30.5937998301
 11
160.615929528
 21
30.6260635193
  0
LINE
  8
0
 62
7
  6
CONTINUOUS
 10
150.5565542799
 20
30.5937998301
 11
150.9612418074
 21
30.6260635193
  0
LINE
  8
0
 62
7
  6
CONTINUOUS
 10
150.9034292799
 20
30.7551182848
 11
150.498741835
 21
30.7228545871
  0
LINE
  8
0
 62
7
  6
CONTINUOUS
 10
154.7768668074
 20
31.1422825445
 11
155.412804528
 21
31.1422825445
  0
LINE
  8
0
 62
7
  6
CONTINUOUS
 10
155.412804528
 20
31.2713373354
 11
154.7768668074
 21
31.2713373354
  0
LINE
  8
0
 62
7
  6
CONTINUOUS
 10
151.1346793074
 20
31.3036010218
 11
151.4237418626
 21
31.3036010218
  0
LINE
  8
0
 62
7
  6
CONTINUOUS
 10
153.9674919177
 20
31.3681283946
 11
154.2565543074
 21
31.3681283946
  0
LINE
  8
0
 62
7
  6
CONTINUOUS
 10
160.6737418074
 20
31.3681283946
 11
160.9628038663
 21
31.3681283946
  0
LINE
  8
0
 62
7
  6
CONTINUOUS
 10
154.6612419177
 20
31.4971831403
 11
155.0081169177
 21
31.4971831403
  0
LINE
  8
0
 62
7
  6
CONTINUOUS
 10
159.8065543074
 20
31.4971831403
 11
160.1534293074
 21
31.4971831403
  0
LINE
  8
0
 62
7
  6
CONTINUOUS
 10
160.1534293074
 20
31.626237886
 11
159.8065543074
 21
31.626237886
  0
LINE
  8
0
 62
7
  6
CONTINUOUS
 10
158.0721793074
 20
31.626237886
 11
157.840929528
 21
31.626237886
  0
LINE
  8
0
 62
7
  6
CONTINUOUS
 10
157.320617028
 20
31.626237886
 11
157.0315543074
 21
31.626237886
  0
LINE
  8
0
 62
7
  6
CONTINUOUS
 10
156.5690540869
 20
31.626237886
 11
156.279992028
 21
31.626237886
  0
LINE
  8
0
 62
7
  6
CONTINUOUS
 10
155.0081169177
 20
31.626237886
 11
154.6612419177
 21
31.626237886
  0
LINE
  8
0
 62
7
  6
CONTINUOUS
 10
152.9268669177
 20
31.626237886
 11
152.6956168074
 21
31.626237886
  0
LINE
  8
0
 62
7
  6
CONTINUOUS
 10
156.279992028
 20
31.9488748406
 11
156.5690540869
 21
31.9488748406
  0
LINE
  8
0
 62
7
  6
CONTINUOUS
 10
156.5690540869
 20
32.1101932727
 11
156.279992028
 21
32.1101932727
  0
LINE
  8
0
 62
7
  6
CONTINUOUS
 10
152.1753043074
 20
32.1101932727
 11
151.8862417523
 21
32.1101932727
  0
LINE
  8
0
 62
7
  6
CONTINUOUS
 10
151.2130860697
 20
32.3970785186
 11
151.6256574183
 21
32.3970785186
  0
LINE
  8
0
 62
7
  6
CONTINUOUS
 10
152.852430332
 20
32.3970785186
 11
154.245872955
 21
32.3970785186
  0
LINE
  8
0
 62
7
  6
CONTINUOUS
 10
154.5737418074
 20
32.3970785186
 11
155.9671844304
 21
32.3970785186
  0
LINE
  8
0
 62
7
  6
CONTINUOUS
 10
157.852430332
 20
32.3970785186
 11
159.245872955
 21
32.3970785186
  0
LINE
  8
0
 62
7
  6
CONTINUOUS
 10
159.5737418074
 20
32.3970785186
 11
160.9671844304
 21
32.3970785186
  0
LINE
  8
0
 62
7
  6
CONTINUOUS
 10
157.6096790869
 20
31.5939741996
 11
157.4362415869
 21
31.5294468267
  0
LINE
  8
0
 62
7
  6
CONTINUOUS
 10
155.1815540869
 20
30.6260635193
 11
155.3549915869
 21
30.6905909007
  0
LINE
  8
0
 62
7
  6
CONTINUOUS
 10
160.615929528
 20
30.6260635193
 11
160.8471793074
 21
30.6905909007
  0
LINE
  8
0
 62
7
  6
CONTINUOUS
 10
160.615929528
 20
30.7873819712
 11
160.5003043074
 21
30.7551182848
  0
LINE
  8
0
 62
7
  6
CONTINUOUS
 10
159.575304528
 20
31.4649194539
 11
159.8065543074
 21
31.4971831403
  0
LINE
  8
0
 62
7
  6
CONTINUOUS
 10
157.6096790869
 20
31.4649194539
 11
157.840929528
 21
31.4971831403
  0
LINE
  8
0
 62
7
  6
CONTINUOUS
 10
154.5456166972
 20
31.1100188581
 11
154.7768668074
 21
31.1422825445
  0
LINE
  8
0
 62
7
  6
CONTINUOUS
 10
157.840929528
 20
31.626237886
 11
157.6096790869
 21
31.5939741996
  0
LINE
  8
0
 62
7
  6
CONTINUOUS
 10
154.4299918074
 20
31.4649194539
 11
154.6612419177
 21
31.4971831403
  0
LINE
  8
0
 62
7
  6
CONTINUOUS
 10
159.8065543074
 20
31.626237886
 11
159.4596793074
 21
31.5939741996
  0
LINE
  8
0
 62
7
  6
CONTINUOUS
 10
154.7768668074
 20
31.2713373354
 11
154.4299918074
 21
31.2390736489
  0
LINE
  8
0
 62
7
  6
CONTINUOUS
 10
150.5565542799
 20
31.626237886
 11
150.2096793212
 21
31.5939741996
  0
LINE
  8
0
 62
7
  6
CONTINUOUS
 10
154.6612419177
 20
31.626237886
 11
154.2565543074
 21
31.5939741996
  0
LINE
  8
0
 62
7
  6
CONTINUOUS
 10
152.0327582009
 20
33.5446195022
 11
151.3770204959
 21
33.5446195022
  0
LINE
  8
0
 62
7
  6
CONTINUOUS
 10
157.4362415869
 20
31.400392081
 11
157.6096790869
 21
31.4649194539
  0
LINE
  8
0
 62
7
  6
CONTINUOUS
 10
159.4596793074
 20
31.4326557675
 11
159.575304528
 21
31.4649194539
  0
LINE
  8
0
 62
7
  6
CONTINUOUS
 10
159.4596793074
 20
31.5939741996
 11
159.228429528
 21
31.5294468267
  0
LINE
  8
0
 62
7
  6
CONTINUOUS
 10
155.1815540869
 20
30.7873819712
 11
154.8924916972
 21
30.7228545871
  0
LINE
  8
0
 62
7
  6
CONTINUOUS
 10
152.4643666972
 20
31.4649194539
 11
152.6956168074
 21
31.4971831403
  0
LINE
  8
0
 62
7
  6
CONTINUOUS
 10
152.6956168074
 20
31.626237886
 11
152.4643666972
 21
31.5939741996
  0
LINE
  8
0
 62
7
  6
CONTINUOUS
 10
150.2674918074
 20
31.4649194539
 11
150.498741835
 21
31.4971831403
  0
LINE
  8
0
 62
7
  6
CONTINUOUS
 10
156.7868565615
 20
35.0200293383
 11
157.4425942664
 21
35.0200293383
  0
LINE
  8
0
 62
7
  6
CONTINUOUS
 10
154.4299918074
 20
31.0777551716
 11
154.5456166972
 21
31.1100188581
  0
LINE
  8
0
 62
7
  6
CONTINUOUS
 10
154.4299918074
 20
31.2390736489
 11
154.1987416972
 21
31.1745462761
  0
LINE
  8
0
 62
7
  6
CONTINUOUS
 10
154.3143669177
 20
31.4326557675
 11
154.4299918074
 21
31.4649194539
  0
LINE
  8
0
 62
7
  6
CONTINUOUS
 10
150.9612418074
 20
30.6260635193
 11
151.1924917523
 21
30.6905909007
  0
LINE
  8
0
 62
7
  6
CONTINUOUS
 10
154.2565543074
 20
31.5939741996
 11
154.1409294177
 21
31.5617105132
  0
LINE
  8
0
 62
7
  6
CONTINUOUS
 10
150.2096793212
 20
31.5939741996
 11
150.0362418212
 21
31.5617105132
  0
LINE
  8
0
 62
7
  6
CONTINUOUS
 10
160.9671844304
 20
36.1675703219
 11
159.5737418074
 21
36.1675703219
  0
LINE
  8
0
 62
7
  6
CONTINUOUS
 10
157.6065286927
 20
36.1675703219
 11
157.1939573441
 21
36.1675703219
  0
LINE
  8
0
 62
7
  6
CONTINUOUS
 10
155.9671844304
 20
36.1675703219
 11
154.5737418074
 21
36.1675703219
  0
LINE
  8
0
 62
7
  6
CONTINUOUS
 10
154.245872955
 20
36.1675703219
 11
152.852430332
 21
36.1675703219
  0
LINE
  8
0
 62
7
  6
CONTINUOUS
 10
150.9671844304
 20
36.1675703219
 11
149.5737418074
 21
36.1675703219
  0
LINE
  8
0
 62
7
  6
CONTINUOUS
 10
150.1518667936
 20
31.4326557675
 11
150.2674918074
 21
31.4649194539
  0
CIRCLE
  8
0
 62
7
  6
CONTINUOUS
 10
160.2704631189
 20
38.5036358957
 40
2.0901639344
  0
ARC
  8
0
 62
7
  6
CONTINUOUS
 10
151.2130860697
 20
34.0364227809
 40
1.6393442623
 50
180.0
 51
270.0
  0
ARC
  8
0
 62
7
  6
CONTINUOUS
 10
157.6065286927
 20
34.5282260596
 40
1.6393442623
 50
0.0
 51
90.0
  0
ARC
  8
0
 62
7
  6
CONTINUOUS
 10
151.6256574183
 20
33.8724883547
 40
1.4754098361
 50
270.0
 51
326.2510114041
  0
ARC
  8
0
 62
7
  6
CONTINUOUS
 10
157.1939573441
 20
34.6921604858
 40
1.4754098361
 50
90.0
 51
146.2510114041
  0
ARC
  8
0
 62
7
  6
CONTINUOUS
 10
152.0327582009
 20
34.3642916334
 40
0.8196721311
 50
270.0
 51
360.0
  0
ARC
  8
0
 62
7
  6
CONTINUOUS
 10
156.7868565615
 20
34.2003572071
 40
0.8196721311
 50
90.0
 51
180.0
  0
ARC
  8
0
 62
7
  6
CONTINUOUS
 10
151.3770204959
 20
33.9544555678
 40
0.4098360656
 50
180.0
 51
270.0
  0
ARC
  8
0
 62
7
  6
CONTINUOUS
 10
157.4425942664
 20
34.6101932727
 40
0.4098360656
 50
0.0
 51
90.0
  0
SOLID
  8
0
 62
7
  6
CONTINUOUS
 10
156.279992028
 20
31.9488752009
 11
156.279992028
 21
32.1101936845
 12
156.5690540869
 22
31.9488752009
 13
156.5690540869
 23
32.1101936845
  0
SOLID
  8
0
 62
7
  6
CONTINUOUS
 10
150.5565542799
 20
31.6262382337
 11
150.9612418074
 21
31.5939740028
 12
150.2096793212
 22
31.5939740028
 13
150.2096793212
 23
31.5939740028
  0
SOLID
  8
0
 62
7
  6
CONTINUOUS
 10
150.0362418212
 20
31.5617111435
 11
150.2096793212
 21
31.5939740028
 12
150.9612418074
 22
31.5939740028
 13
150.9612418074
 23
31.5939740028
  0
SOLID
  8
0
 62
7
  6
CONTINUOUS
 10
150.9612418074
 20
31.5939740028
 11
151.1924917523
 21
31.5294468402
 12
150.0362418212
 22
31.5617111435
 13
150.0362418212
 23
31.5617111435
  0
SOLID
  8
0
 62
7
  6
CONTINUOUS
 10
149.8628043005
 20
31.49718259
 11
150.0362418212
 21
31.5617111435
 12
151.1924917523
 22
31.5294468402
 13
151.1924917523
 23
31.5294468402
  0
SOLID
  8
0
 62
7
  6
CONTINUOUS
 10
149.8628043005
 20
31.49718259
 11
151.1924917523
 21
31.5294468402
 12
150.498741835
 22
31.49718259
 13
150.498741835
 23
31.49718259
  0
SOLID
  8
0
 62
7
  6
CONTINUOUS
 10
150.498741835
 20
31.49718259
 11
151.1924917523
 21
31.5294468402
 12
150.9034292799
 22
31.4649197501
 13
150.9034292799
 23
31.4649197501
  0
SOLID
  8
0
 62
7
  6
CONTINUOUS
 10
151.1924917523
 20
31.5294468402
 11
151.3659292523
 21
31.4326554468
 12
150.9034292799
 22
31.4649197501
 13
150.9034292799
 23
31.4649197501
  0
SOLID
  8
0
 62
7
  6
CONTINUOUS
 10
151.0768668626
 20
31.4003926599
 11
150.9034292799
 21
31.4649197501
 12
151.3659292523
 22
31.4326554468
 13
151.3659292523
 23
31.4326554468
  0
SOLID
  8
0
 62
7
  6
CONTINUOUS
 10
151.0768668626
 20
31.4003926599
 11
151.3659292523
 21
31.4326554468
 12
151.1346793074
 22
31.3036013776
 13
151.1346793074
 23
31.3036013776
  0
SOLID
  8
0
 62
7
  6
CONTINUOUS
 10
151.3659292523
 20
31.4326554468
 11
151.4237418626
 21
31.3036013776
 12
151.1346793074
 22
31.3036013776
 13
151.1346793074
 23
31.3036013776
  0
SOLID
  8
0
 62
7
  6
CONTINUOUS
 10
152.4643666972
 20
31.5939739754
 11
152.6956168074
 21
31.6262382787
 12
152.9268669177
 22
31.6262382787
 13
152.9268669177
 23
31.6262382787
  0
SOLID
  8
0
 62
7
  6
CONTINUOUS
 10
152.9268669177
 20
31.6262382787
 11
153.1003044177
 21
31.5939739754
 12
152.4643666972
 22
31.5939739754
 13
152.4643666972
 23
31.5939739754
  0
SOLID
  8
0
 62
7
  6
CONTINUOUS
 10
152.2909293626
 20
31.5294468852
 11
152.4643666972
 21
31.5939739754
 12
153.1003044177
 22
31.5939739754
 13
153.1003044177
 23
31.5939739754
  0
SOLID
  8
0
 62
7
  6
CONTINUOUS
 10
153.1003044177
 20
31.5939739754
 11
153.2737419177
 21
31.5294468852
 12
152.2909293626
 22
31.5294468852
 13
152.2909293626
 23
31.5294468852
  0
SOLID
  8
0
 62
7
  6
CONTINUOUS
 10
153.2737419177
 20
31.5294468852
 11
152.6956168074
 21
31.4971825369
 12
152.2909293626
 22
31.5294468852
 13
152.2909293626
 23
31.5294468852
  0
SOLID
  8
0
 62
7
  6
CONTINUOUS
 10
152.1753043074
 20
31.4649197951
 11
152.2909293626
 21
31.5294468852
 12
152.6956168074
 22
31.4971825369
 13
152.6956168074
 23
31.4971825369
  0
SOLID
  8
0
 62
7
  6
CONTINUOUS
 10
152.6956168074
 20
31.4971825369
 11
152.4643666972
 21
31.4649197951
 12
152.1753043074
 22
31.4649197951
 13
152.1753043074
 23
31.4649197951
  0
SOLID
  8
0
 62
7
  6
CONTINUOUS
 10
152.6956168074
 20
31.4971825369
 11
153.2737419177
 21
31.5294468852
 12
152.9268669177
 22
31.4649197951
 13
152.9268669177
 23
31.4649197951
  0
SOLID
  8
0
 62
7
  6
CONTINUOUS
 10
153.2737419177
 20
31.5294468852
 11
153.3893668074
 21
31.4649197951
 12
152.9268669177
 22
31.4649197951
 13
152.9268669177
 23
31.4649197951
  0
SOLID
  8
0
 62
7
  6
CONTINUOUS
 10
153.0424918074
 20
31.4326554468
 11
152.9268669177
 21
31.4649197951
 12
153.3893668074
 22
31.4649197951
 13
153.3893668074
 23
31.4649197951
  0
SOLID
  8
0
 62
7
  6
CONTINUOUS
 10
153.3893668074
 20
31.4649197951
 11
153.4471794177
 21
31.4003927049
 12
153.0424918074
 22
31.4326554468
 13
153.0424918074
 23
31.4326554468
  0
SOLID
  8
0
 62
7
  6
CONTINUOUS
 10
153.1581166972
 20
31.3681283566
 11
153.0424918074
 21
31.4326554468
 12
153.4471794177
 22
31.4003927049
 13
153.4471794177
 23
31.4003927049
  0
SOLID
  8
0
 62
7
  6
CONTINUOUS
 10
153.1581166972
 20
31.3681283566
 11
153.4471794177
 21
31.4003927049
 12
153.2159293074
 22
31.2390742213
 13
153.2159293074
 23
31.2390742213
  0
SOLID
  8
0
 62
7
  6
CONTINUOUS
 10
153.4471794177
 20
31.4003927049
 11
153.5049916972
 21
31.2390742213
 12
153.2159293074
 22
31.2390742213
 13
153.2159293074
 23
31.2390742213
  0
SOLID
  8
0
 62
7
  6
CONTINUOUS
 10
152.4643666972
 20
31.4649197951
 11
152.2909293626
 21
31.4003927049
 12
152.1753043074
 22
31.4649197951
 13
152.1753043074
 23
31.4649197951
  0
SOLID
  8
0
 62
7
  6
CONTINUOUS
 10
152.2909293626
 20
31.4003927049
 11
152.1753043074
 21
31.3358640533
 12
152.1753043074
 22
31.4649197951
 13
152.1753043074
 23
31.4649197951
  0
SOLID
  8
0
 62
7
  6
CONTINUOUS
 10
152.1753043074
 20
31.3358640533
 11
151.8862417523
 21
30.5938002869
 12
152.1753043074
 22
31.4649197951
 13
152.1753043074
 23
31.4649197951
  0
SOLID
  8
0
 62
7
  6
CONTINUOUS
 10
152.1753043074
 20
31.4649197951
 11
151.8862417523
 21
30.5938002869
 12
152.1753043074
 22
32.1101937295
 13
152.1753043074
 23
32.1101937295
  0
SOLID
  8
0
 62
7
  6
CONTINUOUS
 10
151.8862417523
 20
30.5938002869
 11
151.8862417523
 21
32.1101937295
 12
152.1753043074
 22
32.1101937295
 13
152.1753043074
 23
32.1101937295
  0
SOLID
  8
0
 62
7
  6
CONTINUOUS
 10
152.1753043074
 20
31.3358640533
 11
152.1753043074
 21
30.5938002869
 12
151.8862417523
 22
30.5938002869
 13
151.8862417523
 23
30.5938002869
  0
SOLID
  8
0
 62
7
  6
CONTINUOUS
 10
153.2159293074
 20
30.5938002869
 11
153.2159293074
 21
31.2390742213
 12
153.5049916972
 22
31.2390742213
 13
153.5049916972
 23
31.2390742213
  0
SOLID
  8
0
 62
7
  6
CONTINUOUS
 10
153.5049916972
 20
31.2390742213
 11
153.5049916972
 21
30.5938002869
 12
153.2159293074
 22
30.5938002869
 13
153.2159293074
 23
30.5938002869
  0
SOLID
  8
0
 62
7
  6
CONTINUOUS
 10
154.2565543074
 20
31.5939738288
 11
154.6612419177
 21
31.6262385959
 12
155.0081169177
 22
31.6262385959
 13
155.0081169177
 23
31.6262385959
  0
SOLID
  8
0
 62
7
  6
CONTINUOUS
 10
155.0081169177
 20
31.6262385959
 11
155.3549915869
 21
31.5939738288
 12
154.2565543074
 22
31.5939738288
 13
154.2565543074
 23
31.5939738288
  0
SOLID
  8
0
 62
7
  6
CONTINUOUS
 10
154.1409294177
 20
31.5617111435
 11
154.2565543074
 21
31.5939738288
 12
155.3549915869
 22
31.5939738288
 13
155.3549915869
 23
31.5939738288
  0
SOLID
  8
0
 62
7
  6
CONTINUOUS
 10
155.3549915869
 20
31.5939738288
 11
155.5284290869
 21
31.5294468402
 12
154.1409294177
 22
31.5617111435
 13
154.1409294177
 23
31.5617111435
  0
SOLID
  8
0
 62
7
  6
CONTINUOUS
 10
154.0253041972
 20
31.4971826249
 11
154.1409294177
 21
31.5617111435
 12
155.5284290869
 22
31.5294468402
 13
155.5284290869
 23
31.5294468402
  0
SOLID
  8
0
 62
7
  6
CONTINUOUS
 10
154.0253041972
 20
31.4971826249
 11
155.5284290869
 21
31.5294468402
 12
154.6612419177
 22
31.4971826249
 13
154.6612419177
 23
31.4971826249
  0
SOLID
  8
0
 62
7
  6
CONTINUOUS
 10
154.6612419177
 20
31.4971826249
 11
155.5284290869
 21
31.5294468402
 12
155.0081169177
 22
31.4971826249
 13
155.0081169177
 23
31.4971826249
  0
SOLID
  8
0
 62
7
  6
CONTINUOUS
 10
155.0081169177
 20
31.4971826249
 11
155.5284290869
 21
31.5294468402
 12
155.239367028
 22
31.4649194065
 13
155.239367028
 23
31.4649194065
  0
SOLID
  8
0
 62
7
  6
CONTINUOUS
 10
155.5284290869
 20
31.5294468402
 11
155.6440543074
 21
31.4649194065
 12
155.239367028
 22
31.4649194065
 13
155.239367028
 23
31.4649194065
  0
SOLID
  8
0
 62
7
  6
CONTINUOUS
 10
153.9674919177
 20
31.4326554138
 11
154.0253041972
 21
31.4971826249
 12
154.6612419177
 22
31.4971826249
 13
154.6612419177
 23
31.4971826249
  0
SOLID
  8
0
 62
7
  6
CONTINUOUS
 10
155.3549915869
 20
31.4326554138
 11
155.239367028
 21
31.4649194065
 12
155.6440543074
 22
31.4649194065
 13
155.6440543074
 23
31.4649194065
  0
SOLID
  8
0
 62
7
  6
CONTINUOUS
 10
155.3549915869
 20
31.4326554138
 11
155.6440543074
 21
31.4649194065
 12
155.412804528
 22
31.3681282026
 13
155.412804528
 23
31.3681282026
  0
SOLID
  8
0
 62
7
  6
CONTINUOUS
 10
155.6440543074
 20
31.4649194065
 11
155.7018665869
 21
31.3681282026
 12
155.412804528
 22
31.3681282026
 13
155.412804528
 23
31.3681282026
  0
SOLID
  8
0
 62
7
  6
CONTINUOUS
 10
155.412804528
 20
31.2713369632
 11
155.412804528
 21
31.3681282026
 12
155.7018665869
 22
31.3681282026
 13
155.7018665869
 23
31.3681282026
  0
SOLID
  8
0
 62
7
  6
CONTINUOUS
 10
155.412804528
 20
31.2713369632
 11
155.7018665869
 21
31.3681282026
 12
155.412804528
 22
31.1422827828
 13
155.412804528
 23
31.1422827828
  0
SOLID
  8
0
 62
7
  6
CONTINUOUS
 10
155.412804528
 20
31.1422827828
 11
155.7018665869
 21
31.3681282026
 12
155.412804528
 22
30.9487004259
 13
155.412804528
 23
30.9487004259
  0
SOLID
  8
0
 62
7
  6
CONTINUOUS
 10
155.7018665869
 20
31.3681282026
 11
155.7018665869
 21
30.8519086025
 12
155.412804528
 22
30.9487004259
 13
155.412804528
 23
30.9487004259
  0
SOLID
  8
0
 62
7
  6
CONTINUOUS
 10
157.6096790869
 20
31.5939736268
 11
157.840929528
 21
31.6262383465
 12
158.0721793074
 22
31.6262383465
 13
158.0721793074
 23
31.6262383465
  0
SOLID
  8
0
 62
7
  6
CONTINUOUS
 10
158.0721793074
 20
31.6262383465
 11
158.2456168074
 21
31.5939736268
 12
157.6096790869
 22
31.5939736268
 13
157.6096790869
 23
31.5939736268
  0
SOLID
  8
0
 62
7
  6
CONTINUOUS
 10
157.4362415869
 20
31.5294472848
 11
157.6096790869
 21
31.5939736268
 12
158.2456168074
 22
31.5939736268
 13
158.2456168074
 23
31.5939736268
  0
SOLID
  8
0
 62
7
  6
CONTINUOUS
 10
158.2456168074
 20
31.5939736268
 11
158.4190543074
 21
31.5294472848
 12
157.4362415869
 22
31.5294472848
 13
157.4362415869
 23
31.5294472848
  0
SOLID
  8
0
 62
7
  6
CONTINUOUS
 10
158.4190543074
 20
31.5294472848
 11
157.840929528
 21
31.4971825369
 12
157.4362415869
 22
31.5294472848
 13
157.4362415869
 23
31.5294472848
  0
SOLID
  8
0
 62
7
  6
CONTINUOUS
 10
157.320617028
 20
31.4649199103
 11
157.4362415869
 21
31.5294472848
 12
157.840929528
 22
31.4971825369
 13
157.840929528
 23
31.4971825369
  0
SOLID
  8
0
 62
7
  6
CONTINUOUS
 10
157.840929528
 20
31.4971825369
 11
157.6096790869
 21
31.4649199103
 12
157.320617028
 22
31.4649199103
 13
157.320617028
 23
31.4649199103
  0
SOLID
  8
0
 62
7
  6
CONTINUOUS
 10
157.840929528
 20
31.4971825369
 11
158.4190543074
 21
31.5294472848
 12
158.0721793074
 22
31.4649199103
 13
158.0721793074
 23
31.4649199103
  0
SOLID
  8
0
 62
7
  6
CONTINUOUS
 10
158.4190543074
 20
31.5294472848
 11
158.534679528
 21
31.4649199103
 12
158.0721793074
 22
31.4649199103
 13
158.0721793074
 23
31.4649199103
  0
SOLID
  8
0
 62
7
  6
CONTINUOUS
 10
158.187804528
 20
31.4326554468
 11
158.0721793074
 21
31.4649199103
 12
158.534679528
 22
31.4649199103
 13
158.534679528
 23
31.4649199103
  0
SOLID
  8
0
 62
7
  6
CONTINUOUS
 10
158.187804528
 20
31.4326554468
 11
158.534679528
 21
31.4649199103
 12
158.3034290869
 22
31.3681288486
 13
158.3034290869
 23
31.3681288486
  0
SOLID
  8
0
 62
7
  6
CONTINUOUS
 10
158.534679528
 20
31.4649199103
 11
158.5924918074
 21
31.3681288486
 12
158.3034290869
 22
31.3681288486
 13
158.3034290869
 23
31.3681288486
  0
SOLID
  8
0
 62
7
  6
CONTINUOUS
 10
158.361242028
 20
31.2068093799
 11
158.3034290869
 21
31.3681288486
 12
158.5924918074
 22
31.3681288486
 13
158.5924918074
 23
31.3681288486
  0
SOLID
  8
0
 62
7
  6
CONTINUOUS
 10
158.5924918074
 20
31.3681288486
 11
158.6503040869
 21
31.2068093799
 12
158.361242028
 22
31.2068093799
 13
158.361242028
 23
31.2068093799
  0
SOLID
  8
0
 62
7
  6
CONTINUOUS
 10
157.6096790869
 20
31.4649199103
 11
157.4362415869
 21
31.4003926599
 12
157.320617028
 22
31.4649199103
 13
157.320617028
 23
31.4649199103
  0
SOLID
  8
0
 62
7
  6
CONTINUOUS
 10
157.4362415869
 20
31.4003926599
 11
157.320617028
 21
31.3358640533
 12
157.320617028
 22
31.4649199103
 13
157.320617028
 23
31.4649199103
  0
SOLID
  8
0
 62
7
  6
CONTINUOUS
 10
157.320617028
 20
31.3358640533
 11
157.0315543074
 21
30.5938003547
 12
157.320617028
 22
31.4649199103
 13
157.320617028
 23
31.4649199103
  0
SOLID
  8
0
 62
7
  6
CONTINUOUS
 10
157.320617028
 20
31.4649199103
 11
157.0315543074
 21
30.5938003547
 12
157.320617028
 22
31.6262383465
 13
157.320617028
 23
31.6262383465
  0
SOLID
  8
0
 62
7
  6
CONTINUOUS
 10
157.0315543074
 20
30.5938003547
 11
157.0315543074
 21
31.6262383465
 12
157.320617028
 22
31.6262383465
 13
157.320617028
 23
31.6262383465
  0
SOLID
  8
0
 62
7
  6
CONTINUOUS
 10
157.320617028
 20
31.3358640533
 11
157.320617028
 21
30.5938003547
 12
157.0315543074
 22
30.5938003547
 13
157.0315543074
 23
30.5938003547
  0
SOLID
  8
0
 62
7
  6
CONTINUOUS
 10
158.361242028
 20
30.5938003547
 11
158.361242028
 21
31.2068093799
 12
158.6503040869
 22
31.2068093799
 13
158.6503040869
 23
31.2068093799
  0
SOLID
  8
0
 62
7
  6
CONTINUOUS
 10
158.6503040869
 20
31.2068093799
 11
158.6503040869
 21
30.5938003547
 12
158.361242028
 22
30.5938003547
 13
158.361242028
 23
30.5938003547
  0
SOLID
  8
0
 62
7
  6
CONTINUOUS
 10
159.4596793074
 20
31.5939739474
 11
159.8065543074
 21
31.6262381969
 12
160.1534293074
 22
31.6262381969
 13
160.1534293074
 23
31.6262381969
  0
SOLID
  8
0
 62
7
  6
CONTINUOUS
 10
160.1534293074
 20
31.6262381969
 11
160.5003043074
 21
31.5939739474
 12
159.4596793074
 22
31.5939739474
 13
159.4596793074
 23
31.5939739474
  0
SOLID
  8
0
 62
7
  6
CONTINUOUS
 10
159.228429528
 20
31.5294468402
 11
159.4596793074
 21
31.5939739474
 12
160.5003043074
 22
31.5939739474
 13
160.5003043074
 23
31.5939739474
  0
SOLID
  8
0
 62
7
  6
CONTINUOUS
 10
159.228429528
 20
31.5294468402
 11
160.5003043074
 21
31.5939739304
 12
160.6737418074
 22
31.5617111435
 13
160.6737418074
 23
31.5617111435
  0
SOLID
  8
0
 62
7
  6
CONTINUOUS
 10
159.228429528
 20
31.5294468402
 11
160.6737418074
 21
31.5617111435
 12
159.8065543074
 22
31.4971825592
 13
159.8065543074
 23
31.4971825592
  0
SOLID
  8
0
 62
7
  6
CONTINUOUS
 10
159.8065543074
 20
31.4971825592
 11
160.6737418074
 21
31.5617111435
 12
160.1534293074
 22
31.4971825592
 13
160.1534293074
 23
31.4971825592
  0
SOLID
  8
0
 62
7
  6
CONTINUOUS
 10
160.6737418074
 20
31.5617111435
 11
160.8471793074
 21
31.4971825592
 12
160.1534293074
 22
31.4971825592
 13
160.1534293074
 23
31.4971825592
  0
SOLID
  8
0
 62
7
  6
CONTINUOUS
 10
160.5003043074
 20
31.4649197501
 11
160.1534293074
 21
31.4971825592
 12
160.8471793074
 22
31.4971825592
 13
160.8471793074
 23
31.4971825592
  0
SOLID
  8
0
 62
7
  6
CONTINUOUS
 10
159.1128043074
 20
31.4326555427
 11
159.228429528
 21
31.5294468402
 12
159.8065543074
 22
31.4971825592
 13
159.8065543074
 23
31.4971825592
  0
SOLID
  8
0
 62
7
  6
CONTINUOUS
 10
160.5003043074
 20
31.4649197501
 11
160.8471793074
 21
31.4971825592
 12
160.615929528
 22
31.4326555427
 13
160.615929528
 23
31.4326555427
  0
SOLID
  8
0
 62
7
  6
CONTINUOUS
 10
160.615929528
 20
31.4326555427
 11
160.8471793074
 21
31.4971825592
 12
160.6737418074
 22
31.3681283005
 13
160.6737418074
 23
31.3681283005
  0
SOLID
  8
0
 62
7
  6
CONTINUOUS
 10
160.8471793074
 20
31.4971825592
 11
160.9628038663
 21
31.3681283005
 12
160.6737418074
 22
31.3681283005
 13
160.6737418074
 23
31.3681283005
  0
SOLID
  8
0
 62
7
  6
CONTINUOUS
 10
150.2674918074
 20
31.4649197501
 11
149.7471793074
 21
31.4326554237
 12
150.498741835
 22
31.4971824493
 13
150.498741835
 23
31.4971824493
  0
SOLID
  8
0
 62
7
  6
CONTINUOUS
 10
149.7471793074
 20
31.4326554237
 11
149.8628043005
 21
31.4971824493
 12
150.498741835
 22
31.4971824493
 13
150.498741835
 23
31.4971824493
  0
SOLID
  8
0
 62
7
  6
CONTINUOUS
 10
150.2674918074
 20
31.4649197501
 11
150.1518667936
 21
31.4326554237
 12
149.7471793074
 22
31.4326554237
 13
149.7471793074
 23
31.4326554237
  0
SOLID
  8
0
 62
7
  6
CONTINUOUS
 10
149.6315543091
 20
31.3036012664
 11
149.7471793074
 21
31.4326554237
 12
150.1518667936
 22
31.4326554237
 13
150.1518667936
 23
31.4326554237
  0
SOLID
  8
0
 62
7
  6
CONTINUOUS
 10
153.9674919177
 20
31.4326554237
 11
154.6612419177
 21
31.4971825369
 12
154.4299918074
 22
31.4649197501
 13
154.4299918074
 23
31.4649197501
  0
SOLID
  8
0
 62
7
  6
CONTINUOUS
 10
154.4299918074
 20
31.4649197501
 11
154.3143669177
 21
31.4326554237
 12
153.9674919177
 22
31.4326554237
 13
153.9674919177
 23
31.4326554237
  0
SOLID
  8
0
 62
7
  6
CONTINUOUS
 10
153.9674919177
 20
31.3681283335
 11
153.9674919177
 21
31.4326554237
 12
154.3143669177
 22
31.4326554237
 13
154.3143669177
 23
31.4326554237
  0
SOLID
  8
0
 62
7
  6
CONTINUOUS
 10
154.3143669177
 20
31.4326554237
 11
154.2565543074
 21
31.3681283335
 12
153.9674919177
 22
31.3681283335
 13
153.9674919177
 23
31.3681283335
  0
SOLID
  8
0
 62
7
  6
CONTINUOUS
 10
159.1128043074
 20
31.4326555528
 11
159.8065543074
 21
31.4971825369
 12
159.575304528
 22
31.4649197501
 13
159.575304528
 23
31.4649197501
  0
SOLID
  8
0
 62
7
  6
CONTINUOUS
 10
159.575304528
 20
31.4649197501
 11
159.4596793074
 21
31.4326555528
 12
159.1128043074
 22
31.4326555528
 13
159.1128043074
 23
31.4326555528
  0
SOLID
  8
0
 62
7
  6
CONTINUOUS
 10
159.1128043074
 20
31.3681284626
 11
159.1128043074
 21
31.4326555528
 12
159.4596793074
 22
31.4326555528
 13
159.4596793074
 23
31.4326555528
  0
SOLID
  8
0
 62
7
  6
CONTINUOUS
 10
159.4596793074
 20
31.4326555528
 11
159.401867028
 21
31.3681284626
 12
159.1128043074
 22
31.3681284626
 13
159.1128043074
 23
31.3681284626
  0
SOLID
  8
0
 62
7
  6
CONTINUOUS
 10
159.228429528
 20
31.2390741763
 11
159.1128043074
 21
31.3681284626
 12
159.401867028
 22
31.3681284626
 13
159.401867028
 23
31.3681284626
  0
SOLID
  8
0
 62
7
  6
CONTINUOUS
 10
149.6315543091
 20
31.3036012664
 11
150.1518667936
 21
31.4326554468
 12
149.9784292936
 22
31.3358640533
 13
149.9784292936
 23
31.3358640533
  0
SOLID
  8
0
 62
7
  6
CONTINUOUS
 10
149.9784292936
 20
31.3358640533
 11
149.9206168074
 21
31.2713369632
 12
149.6315543091
 22
31.3036012664
 13
149.6315543091
 23
31.3036012664
  0
SOLID
  8
0
 62
7
  6
CONTINUOUS
 10
149.5737418074
 20
31.1100184796
 11
149.6315543091
 21
31.3036012664
 12
149.9206168074
 22
31.2713369632
 13
149.9206168074
 23
31.2713369632
  0
SOLID
  8
0
 62
7
  6
CONTINUOUS
 10
154.4299918074
 20
31.2390741763
 11
154.7768668074
 21
31.271336924
 12
155.412804528
 22
31.271336924
 13
155.412804528
 23
31.271336924
  0
SOLID
  8
0
 62
7
  6
CONTINUOUS
 10
154.4299918074
 20
31.2390741763
 11
155.412804528
 21
31.271336924
 12
154.1987416972
 22
31.1745462761
 13
154.1987416972
 23
31.1745462761
  0
SOLID
  8
0
 62
7
  6
CONTINUOUS
 10
154.1987416972
 20
31.1745462761
 11
155.412804528
 21
31.271336924
 12
154.7768668074
 22
31.1422827436
 13
154.7768668074
 23
31.1422827436
  0
SOLID
  8
0
 62
7
  6
CONTINUOUS
 10
155.412804528
 20
31.271336924
 11
155.412804528
 21
31.1422827436
 12
154.7768668074
 22
31.1422827436
 13
154.7768668074
 23
31.1422827436
  0
SOLID
  8
0
 62
7
  6
CONTINUOUS
 10
159.228429528
 20
31.2390745501
 11
159.401867028
 21
31.3681283566
 12
159.4596793074
 22
31.3036012664
 13
159.4596793074
 23
31.3036012664
  0
SOLID
  8
0
 62
7
  6
CONTINUOUS
 10
159.4596793074
 20
31.3036012664
 11
159.6331168074
 21
31.2390745501
 12
159.228429528
 22
31.2390745501
 13
159.228429528
 23
31.2390745501
  0
SOLID
  8
0
 62
7
  6
CONTINUOUS
 10
159.4596793074
 20
31.1422827828
 11
159.228429528
 21
31.2390745501
 12
159.6331168074
 22
31.2390745501
 13
159.6331168074
 23
31.2390745501
  0
SOLID
  8
0
 62
7
  6
CONTINUOUS
 10
159.6331168074
 20
31.2390745501
 11
160.615929528
 21
31.0777556927
 12
159.4596793074
 22
31.1422827828
 13
159.4596793074
 23
31.1422827828
  0
SOLID
  8
0
 62
7
  6
CONTINUOUS
 10
160.442492028
 20
30.9809646623
 11
159.4596793074
 21
31.1422827828
 12
160.615929528
 22
31.0777556927
 13
160.615929528
 23
31.0777556927
  0
SOLID
  8
0
 62
7
  6
CONTINUOUS
 10
160.615929528
 20
31.0777556927
 11
160.8471793074
 21
30.9809646623
 12
160.442492028
 22
30.9809646623
 13
160.442492028
 23
30.9809646623
  0
SOLID
  8
0
 62
7
  6
CONTINUOUS
 10
160.615929528
 20
30.9164372091
 11
160.442492028
 21
30.9809646623
 12
160.8471793074
 22
30.9809646623
 13
160.8471793074
 23
30.9809646623
  0
SOLID
  8
0
 62
7
  6
CONTINUOUS
 10
160.615929528
 20
30.9164372091
 11
160.8471793074
 21
30.9809646623
 12
160.6737418074
 22
30.8519089441
 13
160.6737418074
 23
30.8519089441
  0
SOLID
  8
0
 62
7
  6
CONTINUOUS
 10
160.8471793074
 20
30.9809646623
 11
160.9628038663
 21
30.8519089441
 12
160.6737418074
 22
30.8519089441
 13
160.6737418074
 23
30.8519089441
  0
SOLID
  8
0
 62
7
  6
CONTINUOUS
 10
160.615929528
 20
30.7873818593
 11
160.6737418074
 21
30.8519089441
 12
160.9628038663
 22
30.8519089441
 13
160.9628038663
 23
30.8519089441
  0
SOLID
  8
0
 62
7
  6
CONTINUOUS
 10
160.9628038663
 20
30.8519089441
 11
160.9628038663
 21
30.7873818593
 12
160.615929528
 22
30.7873818593
 13
160.615929528
 23
30.7873818593
  0
SOLID
  8
0
 62
7
  6
CONTINUOUS
 10
160.5003043074
 20
30.7551187255
 11
160.615929528
 21
30.7873818593
 12
160.9628038663
 22
30.7873818593
 13
160.9628038663
 23
30.7873818593
  0
SOLID
  8
0
 62
7
  6
CONTINUOUS
 10
160.5003043074
 20
30.7551187255
 11
160.9628038663
 21
30.7873818593
 12
160.269054528
 22
30.7228547745
 13
160.269054528
 23
30.7228547745
  0
SOLID
  8
0
 62
7
  6
CONTINUOUS
 10
160.9628038663
 20
30.7873818593
 11
160.8471793074
 21
30.6905916353
 12
160.269054528
 22
30.7228547745
 13
160.269054528
 23
30.7228547745
  0
SOLID
  8
0
 62
7
  6
CONTINUOUS
 10
160.8471793074
 20
30.6905916353
 11
159.401867028
 21
30.658327332
 12
160.269054528
 22
30.7228547745
 13
160.269054528
 23
30.7228547745
  0
SOLID
  8
0
 62
7
  6
CONTINUOUS
 10
160.269054528
 20
30.7228547745
 11
159.401867028
 21
30.658327332
 12
159.922179528
 22
30.7228547745
 13
159.922179528
 23
30.7228547745
  0
SOLID
  8
0
 62
7
  6
CONTINUOUS
 10
159.401867028
 20
30.658327332
 11
159.228429528
 21
30.7228547745
 12
159.922179528
 22
30.7228547745
 13
159.922179528
 23
30.7228547745
  0
SOLID
  8
0
 62
7
  6
CONTINUOUS
 10
159.401867028
 20
30.658327332
 11
160.8471793074
 21
30.6905916353
 12
159.575304528
 22
30.6260629858
 13
159.575304528
 23
30.6260629858
  0
SOLID
  8
0
 62
7
  6
CONTINUOUS
 10
160.8471793074
 20
30.6905916353
 11
160.615929528
 21
30.6260629858
 12
159.575304528
 22
30.6260629858
 13
159.575304528
 23
30.6260629858
  0
SOLID
  8
0
 62
7
  6
CONTINUOUS
 10
159.922179528
 20
30.5938006049
 11
159.575304528
 21
30.6260629858
 12
160.615929528
 22
30.6260629858
 13
160.615929528
 23
30.6260629858
  0
SOLID
  8
0
 62
7
  6
CONTINUOUS
 10
160.615929528
 20
30.6260629858
 11
160.269054528
 21
30.5938006049
 12
159.922179528
 22
30.5938006049
 13
159.922179528
 23
30.5938006049
  0
SOLID
  8
0
 62
7
  6
CONTINUOUS
 10
149.5737418074
 20
31.1100184796
 11
149.9206168074
 21
31.2713369632
 12
149.8628043005
 22
31.1422827828
 13
149.8628043005
 23
31.1422827828
  0
SOLID
  8
0
 62
7
  6
CONTINUOUS
 10
149.8628043005
 20
31.1422827828
 11
149.8628043005
 21
31.0454914852
 12
149.5737418074
 22
31.1100184796
 13
149.5737418074
 23
31.1100184796
  0
SOLID
  8
0
 62
7
  6
CONTINUOUS
 10
149.6315543091
 20
30.9164372091
 11
149.5737418074
 21
31.1100184796
 12
149.8628043005
 22
31.0454914852
 13
149.8628043005
 23
31.0454914852
  0
SOLID
  8
0
 62
7
  6
CONTINUOUS
 10
149.8628043005
 20
31.0454914852
 11
149.9784292936
 21
30.8841729058
 12
149.6315543091
 22
30.9164372091
 13
149.6315543091
 23
30.9164372091
  0
SOLID
  8
0
 62
7
  6
CONTINUOUS
 10
149.7471793074
 20
30.7873813202
 11
149.6315543091
 21
30.9164372091
 12
149.9784292936
 22
30.8841729058
 13
149.9784292936
 23
30.8841729058
  0
SOLID
  8
0
 62
7
  6
CONTINUOUS
 10
149.9784292936
 20
30.8841729058
 11
150.1518667936
 21
30.7873813202
 12
149.7471793074
 22
30.7873813202
 13
149.7471793074
 23
30.7873813202
  0
SOLID
  8
0
 62
7
  6
CONTINUOUS
 10
149.8628043005
 20
30.7228547004
 11
149.7471793074
 21
30.7873813202
 12
150.1518667936
 22
30.7873813202
 13
150.1518667936
 23
30.7873813202
  0
SOLID
  8
0
 62
7
  6
CONTINUOUS
 10
150.1518667936
 20
30.7873813202
 11
150.498741835
 21
30.7228547004
 12
149.8628043005
 22
30.7228547004
 13
149.8628043005
 23
30.7228547004
  0
SOLID
  8
0
 62
7
  6
CONTINUOUS
 10
150.0362418212
 20
30.658327332
 11
149.8628043005
 21
30.7228547004
 12
150.498741835
 22
30.7228547004
 13
150.498741835
 23
30.7228547004
  0
SOLID
  8
0
 62
7
  6
CONTINUOUS
 10
154.0831168074
 20
31.1100184386
 11
154.1987416972
 21
31.1745462761
 12
154.7768668074
 22
31.1422827828
 13
154.7768668074
 23
31.1422827828
  0
SOLID
  8
0
 62
7
  6
CONTINUOUS
 10
154.7768668074
 20
31.1422827828
 11
154.5456166972
 21
31.1100184386
 12
154.0831168074
 22
31.1100184386
 13
154.0831168074
 23
31.1100184386
  0
SOLID
  8
0
 62
7
  6
CONTINUOUS
 10
153.9674919177
 20
30.9809642992
 11
154.0831168074
 21
31.1100184386
 12
154.5456166972
 22
31.1100184386
 13
154.5456166972
 23
31.1100184386
  0
SOLID
  8
0
 62
7
  6
CONTINUOUS
 10
154.3143669177
 20
31.0132277988
 11
153.9674919177
 21
30.9809642992
 12
154.4299918074
 22
31.0777556927
 13
154.4299918074
 23
31.0777556927
  0
SOLID
  8
0
 62
7
  6
CONTINUOUS
 10
153.9674919177
 20
30.9809642992
 11
154.5456166972
 21
31.1100184796
 12
154.4299918074
 22
31.0777556927
 13
154.4299918074
 23
31.0777556927
  0
SOLID
  8
0
 62
7
  6
CONTINUOUS
 10
154.3143669177
 20
31.0132277988
 11
154.2565543074
 21
30.9164372091
 12
153.9674919177
 22
30.9809642992
 13
153.9674919177
 23
30.9809642992
  0
SOLID
  8
0
 62
7
  6
CONTINUOUS
 10
153.9674919177
 20
30.8841729058
 11
153.9674919177
 21
30.9809642992
 12
154.2565543074
 22
30.9164372091
 13
154.2565543074
 23
30.9164372091
  0
SOLID
  8
0
 62
7
  6
CONTINUOUS
 10
154.2565543074
 20
30.9164372091
 11
154.2565543074
 21
30.8519086025
 12
153.9674919177
 22
30.8841729058
 13
153.9674919177
 23
30.8841729058
  0
SOLID
  8
0
 62
7
  6
CONTINUOUS
 10
154.0253041972
 20
30.7551187255
 11
153.9674919177
 21
30.8841729058
 12
154.2565543074
 22
30.8519086025
 13
154.2565543074
 23
30.8519086025
  0
SOLID
  8
0
 62
7
  6
CONTINUOUS
 10
155.412804528
 20
30.9487004259
 11
155.7018665869
 21
30.8519086025
 12
155.3549915869
 22
30.8841729058
 13
155.3549915869
 23
30.8841729058
  0
SOLID
  8
0
 62
7
  6
CONTINUOUS
 10
155.1815540869
 20
30.7873815123
 11
155.3549915869
 21
30.8841729058
 12
155.7018665869
 22
30.8519086025
 13
155.7018665869
 23
30.8519086025
  0
SOLID
  8
0
 62
7
  6
CONTINUOUS
 10
155.1815540869
 20
30.7873815123
 11
155.7018665869
 21
30.8519086025
 12
155.412804528
 22
30.7551187255
 13
155.412804528
 23
30.7551187255
  0
SOLID
  8
0
 62
7
  6
CONTINUOUS
 10
155.7018665869
 20
30.8519086025
 11
155.759679528
 21
30.6905916353
 12
155.412804528
 22
30.7551187255
 13
155.412804528
 23
30.7551187255
  0
SOLID
  8
0
 62
7
  6
CONTINUOUS
 10
155.4706168074
 20
30.658327332
 11
155.412804528
 21
30.7551187255
 12
155.759679528
 22
30.6905916353
 13
155.759679528
 23
30.6905916353
  0
SOLID
  8
0
 62
7
  6
CONTINUOUS
 10
155.4706168074
 20
30.658327332
 11
155.759679528
 21
30.6905916353
 12
155.5284290869
 22
30.5938002079
 13
155.5284290869
 23
30.5938002079
  0
SOLID
  8
0
 62
7
  6
CONTINUOUS
 10
155.759679528
 20
30.6905916353
 11
155.8174918074
 21
30.5938002079
 12
155.5284290869
 22
30.5938002079
 13
155.5284290869
 23
30.5938002079
  0
SOLID
  8
0
 62
7
  6
CONTINUOUS
 10
151.0768668626
 20
30.8196456577
 11
151.1346793074
 21
30.9164373395
 12
151.4237418626
 22
30.9164373395
 13
151.4237418626
 23
30.9164373395
  0
SOLID
  8
0
 62
7
  6
CONTINUOUS
 10
151.4237418626
 20
30.9164373395
 11
151.3659292523
 21
30.7873815123
 12
151.0768668626
 22
30.8196456577
 13
151.0768668626
 23
30.8196456577
  0
SOLID
  8
0
 62
7
  6
CONTINUOUS
 10
150.9034292799
 20
30.7551187255
 11
151.0768668626
 21
30.8196456577
 12
151.3659292523
 22
30.7873815123
 13
151.3659292523
 23
30.7873815123
  0
SOLID
  8
0
 62
7
  6
CONTINUOUS
 10
150.9034292799
 20
30.7551187255
 11
151.3659292523
 21
30.7873815123
 12
150.498741835
 22
30.7228544222
 13
150.498741835
 23
30.7228544222
  0
SOLID
  8
0
 62
7
  6
CONTINUOUS
 10
151.3659292523
 20
30.7873815123
 11
151.1924917523
 21
30.6905916353
 12
150.498741835
 22
30.7228544222
 13
150.498741835
 23
30.7228544222
  0
SOLID
  8
0
 62
7
  6
CONTINUOUS
 10
150.0362418212
 20
30.658327332
 11
150.498741835
 21
30.7228544222
 12
151.1924917523
 22
30.6905916353
 13
151.1924917523
 23
30.6905916353
  0
SOLID
  8
0
 62
7
  6
CONTINUOUS
 10
150.0362418212
 20
30.658327332
 11
151.1924917523
 21
30.6905916353
 12
150.2096793212
 22
30.6260631011
 13
150.2096793212
 23
30.6260631011
  0
SOLID
  8
0
 62
7
  6
CONTINUOUS
 10
151.1924917523
 20
30.6905916353
 11
150.9612418074
 21
30.6260631011
 12
150.2096793212
 22
30.6260631011
 13
150.2096793212
 23
30.6260631011
  0
SOLID
  8
0
 62
7
  6
CONTINUOUS
 10
150.5565542799
 20
30.5938002419
 11
150.2096793212
 21
30.6260631011
 12
150.9612418074
 22
30.6260631011
 13
150.9612418074
 23
30.6260631011
  0
SOLID
  8
0
 62
7
  6
CONTINUOUS
 10
154.0253041972
 20
30.7551187255
 11
154.2565543074
 21
30.8519086025
 12
154.3143669177
 22
30.7873815123
 13
154.3143669177
 23
30.7873815123
  0
SOLID
  8
0
 62
7
  6
CONTINUOUS
 10
154.3143669177
 20
30.7873815123
 11
154.5456166972
 21
30.7228544222
 12
154.0253041972
 22
30.7551187255
 13
154.0253041972
 23
30.7551187255
  0
SOLID
  8
0
 62
7
  6
CONTINUOUS
 10
154.1987416972
 20
30.658327332
 11
154.0253041972
 21
30.7551187255
 12
154.5456166972
 22
30.7228544222
 13
154.5456166972
 23
30.7228544222
  0
SOLID
  8
0
 62
7
  6
CONTINUOUS
 10
154.8924916972
 20
30.7228544637
 11
155.1815540869
 21
30.7873815123
 12
155.412804528
 22
30.7551187255
 13
155.412804528
 23
30.7551187255
  0
SOLID
  8
0
 62
7
  6
CONTINUOUS
 10
155.412804528
 20
30.7551187255
 11
155.3549915869
 21
30.6905916353
 12
154.8924916972
 22
30.7228544637
 13
154.8924916972
 23
30.7228544637
  0
SOLID
  8
0
 62
7
  6
CONTINUOUS
 10
155.3549915869
 20
30.6905916353
 11
154.1987416972
 21
30.658327332
 12
154.8924916972
 22
30.7228544637
 13
154.8924916972
 23
30.7228544637
  0
SOLID
  8
0
 62
7
  6
CONTINUOUS
 10
154.1987416972
 20
30.658327332
 11
154.5456166972
 21
30.7228544637
 12
154.8924916972
 22
30.7228544637
 13
154.8924916972
 23
30.7228544637
  0
SOLID
  8
0
 62
7
  6
CONTINUOUS
 10
154.1987416972
 20
30.658327332
 11
155.3549915869
 21
30.6905916353
 12
154.3143669177
 22
30.6260630541
 13
154.3143669177
 23
30.6260630541
  0
SOLID
  8
0
 62
7
  6
CONTINUOUS
 10
155.3549915869
 20
30.6905916353
 11
155.1815540869
 21
30.6260630541
 12
154.3143669177
 22
30.6260630541
 13
154.3143669177
 23
30.6260630541
  0
SOLID
  8
0
 62
7
  6
CONTINUOUS
 10
154.5456166972
 20
30.5938002188
 11
154.3143669177
 21
30.6260630541
 12
155.1815540869
 22
30.6260630541
 13
155.1815540869
 23
30.6260630541
  0
SOLID
  8
0
 62
7
  6
CONTINUOUS
 10
155.1815540869
 20
30.6260630541
 11
154.8924916972
 21
30.5938002188
 12
154.5456166972
 22
30.5938002188
 13
154.5456166972
 23
30.5938002188
  0
SOLID
  8
0
 62
7
  6
CONTINUOUS
 10
159.575304528
 20
30.7551187255
 11
159.228429528
 21
30.7228544637
 12
159.4596793074
 22
30.7873815123
 13
159.4596793074
 23
30.7873815123
  0
SOLID
  8
0
 62
7
  6
CONTINUOUS
 10
159.4596793074
 20
30.7873815123
 11
159.228429528
 21
30.7228544637
 12
159.401867028
 22
30.851908644
 13
159.401867028
 23
30.851908644
  0
SOLID
  8
0
 62
7
  6
CONTINUOUS
 10
159.228429528
 20
30.7228544637
 11
159.1128043074
 21
30.851908644
 12
159.401867028
 22
30.851908644
 13
159.401867028
 23
30.851908644
  0
SOLID
  8
0
 62
7
  6
CONTINUOUS
 10
159.575304528
 20
30.7551187255
 11
159.922179528
 21
30.7228544637
 12
159.228429528
 22
30.7228544637
 13
159.228429528
 23
30.7228544637
  0
SOLID
  8
0
 62
7
  6
CONTINUOUS
 10
156.279992028
 20
30.5938002419
 11
156.279992028
 21
31.6262382337
 12
156.5690540869
 22
30.5938002419
 13
156.5690540869
 23
31.6262382337
  0
ENDBLK
  8
0
  6
BYBLOCK
 62
0
  0
BLOCK
  8
0
 62
2
  6
CONTINUOUS
  2
SYMBOL_3_BL0
 70
64
 10
32.1213064866
 20
19.8534310916
  0
TEXT
  8
0
 62
7
  6
CONTINUOUS
 10
18.3860103289
 20
19.2268451992
  7
TEXTSTYLE_3
 40
2.7338706658
  1
Ammeraal Beltech
 41
1.0
 51
15.0
 72
0
  0
TEXT
  8
0
 62
7
  6
CONTINUOUS
 10
29.1868111546
 20
16.9533085264
  7
TEXTSTYLE_4
 40
1.0935482663
  1
Innovation & Service in Belting
 41
1.0
 72
0
  0
LINE
  8
0
 62
7
  6
CONTINUOUS
 10
12.3614696776
 20
19.9934385078
 11
13.1396216709
 21
23.6543558055
  0
LINE
  8
0
 62
7
  6
CONTINUOUS
 10
23.2347899607
 20
27.3177497171
 11
13.6274394139
 21
24.1961322958
  0
LINE
  8
0
 62
7
  6
CONTINUOUS
 10
12.5867530099
 20
19.3000877048
 11
20.093828271
 21
12.5406867788
  0
LINE
  8
0
 62
7
  6
CONTINUOUS
 10
12.8492874206
 20
20.5352149982
 11
23.6575567857
 21
24.0470345971
  0
LINE
  8
0
 62
7
  6
CONTINUOUS
 10
23.6533516486
 20
13.6972460334
 11
15.2078919798
 21
21.3015720751
  0
LINE
  8
0
 62
7
  6
CONTINUOUS
 10
24.1731743684
 20
26.4728246013
 11
23.1966148312
 21
21.8784731989
  0
LINE
  8
0
 62
7
  6
CONTINUOUS
 10
22.4968128835
 20
18.5861638851
 11
21.810364672
 21
15.3566789607
  0
LINE
  8
0
 62
7
  6
CONTINUOUS
 10
24.8542704669
 20
14.087448211
 11
25.8105020025
 21
18.5861638851
  0
LINE
  8
0
 62
7
  6
CONTINUOUS
 10
26.5103039502
 20
21.8784731989
 11
26.9545457526
 21
23.9684665583
  0
LINE
  8
0
 62
7
  6
CONTINUOUS
 10
20.8069293463
 20
12.3891124661
 11
24.3664527239
 21
13.5456717207
  0
LINE
  8
0
 62
7
  6
CONTINUOUS
 10
23.9478910361
 20
27.1661754044
 11
26.7292624203
 21
24.6618173613
  0
ARC
  8
0
 62
7
  6
CONTINUOUS
 10
13.8527227462
 20
23.5027814928
 40
0.7290321776
 50
108.0
 51
168.0
  0
ARC
  8
0
 62
7
  6
CONTINUOUS
 10
23.4600732931
 20
26.624398914
 40
0.7290321776
 50
348.0
 51
108.0
  0
ARC
  8
0
 62
7
  6
CONTINUOUS
 10
26.2414446773
 20
24.120040871
 40
0.7290321776
 50
348.0
 51
48.0
  0
ARC
  8
0
 62
7
  6
CONTINUOUS
 10
20.581646014
 20
13.0824632691
 40
0.7290321776
 50
228.0
 51
288.0
  0
ARC
  8
0
 62
7
  6
CONTINUOUS
 10
13.0745707529
 20
19.8418641951
 40
0.7290321776
 50
108.0
 51
228.0
  0
ARC
  8
0
 62
7
  6
CONTINUOUS
 10
24.1411693916
 20
14.2390225237
 40
0.7290321776
 50
228.0
 51
348.0
  0
ENDBLK
  8
0
  6
BYBLOCK
 62
0
  0
ENDSEC
  0
SECTION
  2
ENTITIES
  0
TEXT
  8
0
 62
5
  6
CONTINUOUS
 10
96.0
 20
25.636
  7
TEXTSTYLE_2
 40
2.8
  1
Scale :
 41
0.6
 51
0.000019
 72
0
  0
TEXT
  8
0
 62
5
  6
CONTINUOUS
 10
116.0
 20
25.636
  7
TEXTSTYLE_2
 40
2.8
  1
Belt type:
 41
0.6
 51
0.000019
 72
0
  0
INSERT
  8
0
 62
2
  6
CONTINUOUS
  2
SYMBOL_3_BL0
 10
32.1213064866
 20
19.8534310916
  0
INSERT
  8
0
 62
2
  6
CONTINUOUS
  2
SYMBOL_8_BL1
 10
173.5956734183
 20
35.5937998301
  0
LINE
  8
0
 62
2
  6
CONTINUOUS
 10
10.0
 20
30.0
 11
200.0
 21
30.0
  0
LINE
  8
0
 62
2
  6
CONTINUOUS
 10
10.0
 20
30.0
 11
10.0
 21
10.0
  0
LINE
  8
0
 62
2
  6
CONTINUOUS
 10
10.0
 20
10.0
 11
200.0
 21
10.0
  0
LINE
  8
0
 62
2
  6
CONTINUOUS
 10
95.0
 20
30.0
 11
95.0
 21
10.0
  0
LINE
  8
0
 62
2
  6
CONTINUOUS
 10
115.0
 20
30.0
 11
115.0
 21
10.0
  0
LINE
  8
0
 62
2
  6
CONTINUOUS
 10
200.0
 20
30.0
 11
200.0
 21
10.0
  0
TEXT
  8
0
 62
5
  6
CONTINUOUS
 10
13.0
 20
23.303
  7
TEXTSTYLE_5
 40
1.52
  1
                                                                     Ammeraal Beltech Modular A/S
 41
1.0
 72
0
  0
TEXT
  8
0
 62
5
  6
CONTINUOUS
 10
13.0
 20
20.595
  7
TEXTSTYLE_5
 40
1.5
  1
                                                                      Hjulmagervej 21,  7100 Vejle,  DK
 41
1.0
 72
0
  0
TEXT
  8
0
 62
5
  6
CONTINUOUS
 10
13.0
 20
17.881
  7
TEXTSTYLE_5
 40
1.495
  1
                                                                      tel: 
 41
1.0
 72
0
  0
TEXT
  8
0
 62
5
  6
CONTINUOUS
 10
57.9869465649
 20
17.881
  7
TEXTSTYLE_5
 40
1.51
  1
+45 75723100     fax: +45 75723348
 41
1.0
 72
0
  0
TEXT
  8
0
 62
5
  6
CONTINUOUS
 10
13.0
 20
15.177
  7
TEXTSTYLE_5
 40
1.5
  1
                                                                      admin@unichains.dk  www.unichains.com
 41
1.0
 72
0
  0
TEXT
  8
0
 62
5
  6
CONTINUOUS
 10
99.75
 20
13.75
  7
TEXTSTYLE_6
 40
5.0
  1
1:1
 41
0.7
 72
1
 11
105.0
 21
13.75
  0
TEXT
  8
0
 62
5
  6
CONTINUOUS
 10
118.0
 20
13.75
  7
TEXTSTYLE_7
 40
7.5
  1
Sprocket Z19
 41
0.6361111111
 72
0
  0
LINE
  8
0
 62
7
  6
CONTINUOUS
 10
210.0
 20
0.0
 11
0.0
 21
0.0
  0
LINE
  8
0
 62
7
  6
CONTINUOUS
 10
10.0
 20
10.0
 11
200.0
 21
10.0
  0
LINE
  8
0
 62
7
  6
CONTINUOUS
 10
10.0
 20
30.0
 11
200.0
 21
30.0
  0
LINE
  8
0
 62
7
  6
CONTINUOUS
 10
0.0
 20
0.0
 11
0.0
 21
297.0
  0
LINE
  8
0
 62
7
  6
CONTINUOUS
 10
10.0
 20
10.0
 11
10.0
 21
287.0
  0
LINE
  8
0
 62
7
  6
CONTINUOUS
 10
200.0
 20
287.0
 11
200.0
 21
10.0
  0
LINE
  8
0
 62
7
  6
CONTINUOUS
 10
210.0
 20
0.0
 11
210.0
 21
297.0
  0
LINE
  8
0
 62
7
  6
CONTINUOUS
 10
10.0
 20
287.0
 11
200.0
 21
287.0
  0
LINE
  8
0
 62
7
  6
CONTINUOUS
 10
0.0
 20
297.0
 11
210.0
 21
297.0
  0
LINE
  8
0
 62
7
  6
CONTINUOUS
 10
36.7488141899
 20
225.865435059
 11
35.0583416126
 21
223.2779741578
  0
LINE
  8
0
 62
7
  6
CONTINUOUS
 10
78.5830148488
 20
257.1545871299
 11
75.659743079
 21
256.1510266637
  0
LINE
  8
0
 62
7
  6
CONTINUOUS
 10
114.9510847082
 20
100.9930274352
 11
117.999667485
 21
101.5017459254
  0
LINE
  8
0
 62
7
  6
CONTINUOUS
 10
88.4743478323
 20
101.5017459254
 11
91.5229306091
 21
100.9930274352
  0
LINE
  8
0
 62
7
  6
CONTINUOUS
 10
63.5973742149
 20
110.5798830545
 11
66.3155957442
 21
109.1088551258
  0
LINE
  8
0
 62
7
  6
CONTINUOUS
 10
43.0159699534
 20
127.2436818027
 11
45.109268755
 21
124.969753137
  0
LINE
  8
0
 62
7
  6
CONTINUOUS
 10
28.960449553
 20
149.6873610102
 11
30.2019842208
 21
146.856947062
  0
LINE
  8
0
 62
7
  6
CONTINUOUS
 10
32.0699649655
 20
191.9214902434
 11
31.1739380883
 21
181.1080536361
  0
LINE
  8
0
 62
7
  6
CONTINUOUS
 10
39.6083793777
 20
214.4149093983
 11
35.249784581
 21
204.4783140631
  0
LINE
  8
0
 62
7
  6
CONTINUOUS
 10
54.041942964
 20
233.2418539016
 11
46.6931016246
 21
225.2588841266
  0
LINE
  8
0
 62
7
  6
CONTINUOUS
 10
73.80655515
 20
246.362132186
 11
64.2638282562
 21
241.1978666151
  0
LINE
  8
0
 62
7
  6
CONTINUOUS
 10
77.3472657366
 20
243.4593967728
 11
77.0585756057
 21
243.3397548745
  0
LINE
  8
0
 62
7
  6
CONTINUOUS
 10
77.1807631083
 20
243.0449223231
 11
77.4694532392
 21
243.1645642213
  0
LINE
  8
0
 62
7
  6
CONTINUOUS
 10
82.0693921516
 20
245.2022202389
 11
81.7726425637
 21
245.1042606499
  0
LINE
  8
0
 62
7
  6
CONTINUOUS
 10
81.8926950605
 20
244.7405848799
 11
82.2487942943
 21
244.858136297
  0
LINE
  8
0
 62
7
  6
CONTINUOUS
 10
97.8117595561
 20
108.720083218
 11
108.6622561096
 21
108.7200832443
  0
LINE
  8
0
 62
7
  6
CONTINUOUS
 10
74.7726495036
 20
114.3752582918
 11
85.0352362335
 21
110.8521078452
  0
LINE
  8
0
 62
7
  6
CONTINUOUS
 10
54.8180943272
 20
127.2048071864
 11
63.3806607208
 21
120.540294285
  0
LINE
  8
0
 62
7
  6
CONTINUOUS
 10
40.1104797071
 20
145.8184492082
 11
46.0451388338
 21
136.7347772355
  0
LINE
  8
0
 62
7
  6
CONTINUOUS
 10
32.2436038996
 20
168.1991074237
 11
34.9072433572
 21
157.6806331855
  0
LINE
  8
0
 62
7
  6
CONTINUOUS
 10
81.5552520504
 20
244.9652804849
 11
81.3578696073
 21
244.7656874674
  0
LINE
  8
0
 62
7
  6
CONTINUOUS
 10
74.8750632063
 20
239.4214990275
 11
74.6782114668
 21
239.2546949314
  0
LINE
  8
0
 62
7
  6
CONTINUOUS
 10
74.7899511288
 20
239.0251255266
 11
74.9868028757
 21
239.1919296076
  0
LINE
  8
0
 62
7
  6
CONTINUOUS
 10
76.1177062328
 20
241.8932813218
 11
75.9148923017
 21
241.7337795671
  0
LINE
  8
0
 62
7
  6
CONTINUOUS
 10
76.0181711274
 20
241.5002815234
 11
76.2209850584
 21
241.659783278
  0
LINE
  8
0
 62
7
  6
CONTINUOUS
 10
81.734654193
 20
244.6211965431
 11
81.8926950605
 21
244.7405848799
  0
LINE
  8
0
 62
7
  6
CONTINUOUS
 10
95.1718792807
 20
248.0381729341
 11
94.9376565158
 21
247.8834573956
  0
LINE
  8
0
 62
7
  6
CONTINUOUS
 10
81.7726425637
 20
245.1042606499
 11
81.5552520504
 21
244.9652804849
  0
LINE
  8
0
 62
7
  6
CONTINUOUS
 10
83.1664911369
 20
242.8756741737
 11
82.9491006236
 21
242.7366940087
  0
LINE
  8
0
 62
7
  6
CONTINUOUS
 10
88.6267742315
 20
245.7528759827
 11
88.4587029799
 21
245.6480783436
  0
LINE
  8
0
 62
7
  6
CONTINUOUS
 10
88.9316072454
 20
244.4475724274
 11
88.7635359938
 21
244.3427747884
  0
LINE
  8
0
 62
7
  6
CONTINUOUS
 10
83.0691531344
 20
242.3730181963
 11
83.3458939711
 21
242.5315904189
  0
LINE
  8
0
 62
7
  6
CONTINUOUS
 10
74.6827873115
 20
241.2446218974
 11
74.401803863
 21
241.1078571765
  0
LINE
  8
0
 62
7
  6
CONTINUOUS
 10
73.27787033
 20
240.5607984199
 11
72.9968869418
 21
240.4240337283
  0
LINE
  8
0
 62
7
  6
CONTINUOUS
 10
74.6782114668
 20
239.2546949314
 11
74.453424724
 21
239.1452831625
  0
LINE
  8
0
 62
7
  6
CONTINUOUS
 10
74.565164386
 20
238.9157137577
 11
74.7899511288
 21
239.0251255266
  0
LINE
  8
0
 62
7
  6
CONTINUOUS
 10
75.4081145709
 20
239.3260078423
 11
75.6890980195
 21
239.4627725632
  0
LINE
  8
0
 62
7
  6
CONTINUOUS
 10
88.7897683084
 20
243.9556173564
 11
89.0795652261
 21
244.0888421065
  0
LINE
  8
0
 62
7
  6
CONTINUOUS
 10
76.3463398702
 20
241.9944085655
 11
76.1177062328
 21
241.8932813218
  0
LINE
  8
0
 62
7
  6
CONTINUOUS
 10
75.6032807938
 20
241.6657451319
 11
75.3174888287
 21
241.5393361134
  0
LINE
  8
0
 62
7
  6
CONTINUOUS
 10
76.1437195062
 20
239.6713515998
 11
76.4295114713
 21
239.7977606182
  0
LINE
  8
0
 62
7
  6
CONTINUOUS
 10
77.4583623493
 20
240.252832998
 11
77.7441541508
 21
240.3792419441
  0
LINE
  8
0
 62
7
  6
CONTINUOUS
 10
77.7138283128
 20
242.5748989533
 11
77.4251381819
 21
242.455257055
  0
LINE
  8
0
 62
7
  6
CONTINUOUS
 10
78.2071382669
 20
240.5683285607
 11
78.4958283978
 21
240.6879704589
  0
LINE
  8
0
 62
7
  6
CONTINUOUS
 10
82.7049372755
 20
244.6726245725
 11
83.0610365093
 21
244.7901759896
  0
LINE
  8
0
 62
7
  6
CONTINUOUS
 10
82.5289168428
 20
244.0095593308
 11
82.172817609
 21
243.8920079137
  0
LINE
  8
0
 62
7
  6
CONTINUOUS
 10
82.2928701058
 20
243.5283321437
 11
82.6489693396
 21
243.6458835608
  0
LINE
  8
0
 62
7
  6
CONTINUOUS
 10
81.8594416328
 20
242.8475120785
 11
81.503342399
 21
242.7299606614
  0
LINE
  8
0
 62
7
  6
CONTINUOUS
 10
82.9491006236
 20
242.7366940087
 11
82.4743014187
 21
242.5799587111
  0
LINE
  8
0
 62
7
  6
CONTINUOUS
 10
82.5943539295
 20
242.2162828988
 11
83.0691531344
 21
242.3730181963
  0
LINE
  8
0
 62
7
  6
CONTINUOUS
 10
95.269544614
 20
247.7279733025
 11
95.5729881731
 21
247.8262189091
  0
LINE
  8
0
 62
7
  6
CONTINUOUS
 10
74.9877834171
 20
239.6183425367
 11
74.8750632063
 21
239.4214990275
  0
LINE
  8
0
 62
7
  6
CONTINUOUS
 10
75.9148923017
 20
241.7337795671
 11
75.7950567317
 21
241.541185221
  0
LINE
  8
0
 62
7
  6
CONTINUOUS
 10
75.8983355574
 20
241.3076871772
 11
76.0181711274
 21
241.5002815234
  0
LINE
  8
0
 62
7
  6
CONTINUOUS
 10
74.9868028757
 20
239.1919296076
 11
75.0712613717
 21
239.3040278628
  0
LINE
  8
0
 62
7
  6
CONTINUOUS
 10
81.596622075
 20
244.4411955779
 11
81.734654193
 21
244.6211965431
  0
LINE
  8
0
 62
7
  6
CONTINUOUS
 10
83.3045232409
 20
243.0556751813
 11
83.1664911369
 21
242.8756741737
  0
LINE
  8
0
 62
7
  6
CONTINUOUS
 10
83.3458939711
 20
242.5315904189
 11
83.5432757297
 21
242.7311832281
  0
LINE
  8
0
 62
7
  6
CONTINUOUS
 10
95.0974332854
 20
247.5802204561
 11
95.269544614
 21
247.7279733025
  0
LINE
  8
0
 62
7
  6
CONTINUOUS
 10
88.8674247648
 20
245.5468870921
 11
88.9746331828
 21
245.6374711783
  0
LINE
  8
0
 62
7
  6
CONTINUOUS
 10
114.7495065654
 20
247.0837142184
 11
114.956894051
 21
247.1756035206
  0
LINE
  8
0
 62
7
  6
CONTINUOUS
 10
115.7571003193
 20
245.9912581223
 11
115.5497128337
 21
245.8993688201
  0
LINE
  8
0
 62
7
  6
CONTINUOUS
 10
115.5538459452
 20
245.5741841536
 11
115.9686209165
 21
245.757962758
  0
LINE
  8
0
 62
7
  6
CONTINUOUS
 10
115.5621149586
 20
244.9238141745
 11
115.3547274729
 21
244.8319248723
  0
LINE
  8
0
 62
7
  6
CONTINUOUS
 10
121.5570802617
 20
244.4110637211
 11
121.849050259
 21
244.5290458394
  0
LINE
  8
0
 62
7
  6
CONTINUOUS
 10
114.9527581251
 20
247.5007887012
 11
114.6109374338
 21
247.3685697924
  0
LINE
  8
0
 62
7
  6
CONTINUOUS
 10
115.3588605774
 20
244.5067401673
 11
115.7006840861
 21
244.6389585785
  0
LINE
  8
0
 62
7
  6
CONTINUOUS
 10
75.0712613717
 20
239.3040278628
 11
75.1560465744
 21
239.5582637093
  0
LINE
  8
0
 62
7
  6
CONTINUOUS
 10
75.7950567317
 20
241.541185221
 11
75.7323793258
 21
241.3738725772
  0
LINE
  8
0
 62
7
  6
CONTINUOUS
 10
75.8356581515
 20
241.1403745335
 11
75.8983355574
 21
241.3076871772
  0
LINE
  8
0
 62
7
  6
CONTINUOUS
 10
81.3578696073
 20
244.7656874674
 11
81.2005053423
 21
244.4448694174
  0
LINE
  8
0
 62
7
  6
CONTINUOUS
 10
83.5432757297
 20
242.7311832281
 11
83.7006399877
 21
243.0520012993
  0
LINE
  8
0
 62
7
  6
CONTINUOUS
 10
88.7194667931
 20
245.9056173749
 11
88.6267742315
 21
245.7528759827
  0
LINE
  8
0
 62
7
  6
CONTINUOUS
 10
89.0242997968
 20
244.6003138631
 11
88.9316072454
 21
244.4475724274
  0
LINE
  8
0
 62
7
  6
CONTINUOUS
 10
94.9376565158
 20
247.8834573956
 11
94.7176567313
 21
247.6018770869
  0
LINE
  8
0
 62
7
  6
CONTINUOUS
 10
89.0795652261
 20
244.0888421065
 11
89.2794662018
 21
244.3321676013
  0
LINE
  8
0
 62
7
  6
CONTINUOUS
 10
96.4036490954
 20
247.1485808224
 11
94.8423111723
 21
245.3678151257
  0
LINE
  8
0
 62
7
  6
CONTINUOUS
 10
95.3391998198
 20
245.4235163439
 11
96.7355371936
 21
246.9930967293
  0
LINE
  8
0
 62
7
  6
CONTINUOUS
 10
110.0141574638
 20
245.6172595939
 11
112.3783720574
 21
247.5240753025
  0
LINE
  8
0
 62
7
  6
CONTINUOUS
 10
112.082944345
 20
247.6874040381
 11
109.6566595416
 21
245.7878972178
  0
LINE
  8
0
 62
7
  6
CONTINUOUS
 10
121.75333297
 20
244.8866076799
 11
121.5988470771
 21
244.7968547126
  0
LINE
  8
0
 62
7
  6
CONTINUOUS
 10
125.8513205705
 20
242.8834898389
 11
126.0131681301
 21
242.9591658172
  0
LINE
  8
0
 62
7
  6
CONTINUOUS
 10
88.9746331828
 20
245.6374711783
 11
89.0991568653
 21
245.9287407352
  0
LINE
  8
0
 62
7
  6
CONTINUOUS
 10
89.2794662018
 20
244.3321676013
 11
89.4039898792
 21
244.6234371799
  0
LINE
  8
0
 62
7
  6
CONTINUOUS
 10
94.994542751
 20
247.3759976776
 11
95.0974332854
 21
247.5802204561
  0
LINE
  8
0
 62
7
  6
CONTINUOUS
 10
114.5921310939
 20
246.9178035005
 11
114.7495065654
 21
247.0837142184
  0
LINE
  8
0
 62
7
  6
CONTINUOUS
 10
114.6109374338
 20
247.3685697924
 11
114.3806104968
 21
247.1510988648
  0
LINE
  8
0
 62
7
  6
CONTINUOUS
 10
115.7006840861
 20
244.6389585785
 11
115.9310110272
 21
244.856429528
  0
LINE
  8
0
 62
7
  6
CONTINUOUS
 10
113.3923793751
 20
247.817982845
 11
112.9548568417
 21
247.4321890785
  0
LINE
  8
0
 62
7
  6
CONTINUOUS
 10
112.8785962104
 20
246.9272772962
 11
113.3161187705
 21
247.3130712396
  0
LINE
  8
0
 62
7
  6
CONTINUOUS
 10
121.849050259
 20
244.5290458394
 11
122.0977836445
 21
244.7251983444
  0
LINE
  8
0
 62
7
  6
CONTINUOUS
 10
126.209711684
 20
243.8398170901
 11
126.3939586843
 21
243.9752635111
  0
LINE
  8
0
 62
7
  6
CONTINUOUS
 10
126.3079807505
 20
244.2801436468
 11
126.0428072913
 21
244.1068602407
  0
LINE
  8
0
 62
7
  6
CONTINUOUS
 10
126.8975350365
 20
241.4007756901
 11
127.1627085035
 21
241.5740591172
  0
LINE
  8
0
 62
7
  6
CONTINUOUS
 10
75.0163719895
 20
239.8452254803
 11
74.9877834171
 21
239.6183425367
  0
LINE
  8
0
 62
7
  6
CONTINUOUS
 10
83.3631969635
 20
243.2766969467
 11
83.3045232409
 21
243.0556751813
  0
LINE
  8
0
 62
7
  6
CONTINUOUS
 10
96.7355371936
 20
246.9930967293
 11
96.8384248849
 21
247.1973191891
  0
LINE
  8
0
 62
7
  6
CONTINUOUS
 10
115.9144757907
 20
246.1571688402
 11
115.7571003193
 21
245.9912581223
  0
LINE
  8
0
 62
7
  6
CONTINUOUS
 10
115.719490438
 20
245.0897249364
 11
115.5621149586
 21
244.9238141745
  0
LINE
  8
0
 62
7
  6
CONTINUOUS
 10
126.9958041265
 20
241.8411023097
 11
126.8115571106
 21
241.7056558468
  0
LINE
  8
0
 62
7
  6
CONTINUOUS
 10
83.7006399877
 20
243.0520012993
 11
83.7393049468
 21
243.3336357355
  0
LINE
  8
0
 62
7
  6
CONTINUOUS
 10
93.1466967102
 20
244.7931024939
 11
93.6349723493
 21
247.2639016287
  0
LINE
  8
0
 62
7
  6
CONTINUOUS
 10
96.4994274288
 20
247.4162359062
 11
96.4036490954
 21
247.1485808224
  0
LINE
  8
0
 62
7
  6
CONTINUOUS
 10
114.3806104968
 20
247.1510988648
 11
114.2002955418
 21
246.8596063456
  0
LINE
  8
0
 62
7
  6
CONTINUOUS
 10
115.9310110272
 20
244.856429528
 11
116.111325958
 21
245.1479219153
  0
LINE
  8
0
 62
7
  6
CONTINUOUS
 10
126.0428072913
 20
244.1068602407
 11
125.813761347
 21
243.8518727668
  0
LINE
  8
0
 62
7
  6
CONTINUOUS
 10
127.1627085035
 20
241.5740591172
 11
127.3917544008
 21
241.8290464655
  0
LINE
  8
DEFAULT_3
 62
2
  6
PHANTOM
 10
82.3612097155
 20
170.9093643715
 11
93.5657926545
 21
159.7047814326
  0
LINE
  8
0
 62
7
  6
CONTINUOUS
 10
81.2005053423
 20
244.4448694174
 11
81.2211906942
 21
244.182827076
  0
LINE
  8
0
 62
7
  6
CONTINUOUS
 10
81.5972987336
 20
244.239765695
 11
81.596622075
 21
244.4411955779
  0
LINE
  8
0
 62
7
  6
CONTINUOUS
 10
88.7367820577
 20
246.1063028455
 11
88.7194667931
 21
245.9056173749
  0
LINE
  8
0
 62
7
  6
CONTINUOUS
 10
89.0991568653
 20
245.9287407352
 11
89.1164721299
 21
246.1294262058
  0
LINE
  8
0
 62
7
  6
CONTINUOUS
 10
89.0416150614
 20
244.8009993338
 11
89.0242997968
 21
244.6003138631
  0
LINE
  8
0
 62
7
  6
CONTINUOUS
 10
89.4039898792
 20
244.6234371799
 11
89.4213051337
 21
244.8241226941
  0
LINE
  8
0
 62
7
  6
CONTINUOUS
 10
94.7176567313
 20
247.6018770869
 11
94.6839884125
 21
247.3411845358
  0
LINE
  8
0
 62
7
  6
CONTINUOUS
 10
96.8384248849
 20
247.1973191891
 11
96.8720946252
 21
247.4580118995
  0
LINE
  8
0
 62
7
  6
CONTINUOUS
 10
93.3483483409
 20
247.8642573604
 11
92.8491227741
 21
245.0684314584
  0
LINE
  8
0
 62
7
  6
CONTINUOUS
 10
114.4962401448
 20
246.7406614895
 11
114.5921310939
 21
246.9178035005
  0
LINE
  8
0
 62
7
  6
CONTINUOUS
 10
116.0103667078
 20
246.3343106753
 11
115.9144757907
 21
246.1571688402
  0
LINE
  8
0
 62
7
  6
CONTINUOUS
 10
115.815381355
 20
245.2668667714
 11
115.719490438
 21
245.0897249364
  0
LINE
  8
0
 62
7
  6
CONTINUOUS
 10
121.8645822511
 20
245.0545310337
 11
121.75333297
 21
244.8866076799
  0
LINE
  8
0
 62
7
  6
CONTINUOUS
 10
122.0977836445
 20
244.7251983444
 11
122.2090329256
 21
244.8931216982
  0
LINE
  8
0
 62
7
  6
CONTINUOUS
 10
123.1143346341
 20
243.5410211976
 11
124.1821117439
 21
245.0060743493
  0
LINE
  8
0
 62
7
  6
CONTINUOUS
 10
122.5013868156
 20
242.6664016088
 11
122.9759562246
 21
243.3175357249
  0
LINE
  8
0
 62
7
  6
CONTINUOUS
 10
124.0232976216
 20
245.3261788331
 11
122.1447601309
 21
242.7823430069
  0
LINE
  8
0
 62
7
  6
CONTINUOUS
 10
126.083986281
 20
243.682439052
 11
126.209711684
 21
243.8398170901
  0
LINE
  8
0
 62
7
  6
CONTINUOUS
 10
125.7255951989
 20
242.7261118846
 11
125.8513205705
 21
242.8834898389
  0
LINE
  8
0
 62
7
  6
CONTINUOUS
 10
127.1215294668
 20
241.9984801802
 11
126.9958041265
 21
241.8411023097
  0
LINE
  8
DEFAULT_3
 62
2
  6
PHANTOM
 10
82.3612097155
 20
190.2517943798
 11
93.5657926545
 21
201.4563773188
  0
LINE
  8
DEFAULT_3
 62
2
  6
PHANTOM
 10
99.1047029762
 20
204.7325459407
 11
97.6904894138
 21
203.3183323783
  0
LINE
  8
DEFAULT_3
 62
2
  6
PHANTOM
 10
79.0850410936
 20
184.7128840582
 11
80.499254656
 21
186.1270976205
  0
LINE
  8
DEFAULT_3
 62
2
  6
PHANTOM
 10
97.6904894138
 20
157.8428263731
 11
99.1047029762
 21
156.4286128107
  0
LINE
  8
DEFAULT_3
 62
2
  6
PHANTOM
 10
80.499254656
 20
175.0340611309
 11
79.0850410936
 21
176.4482746932
  0
LINE
  8
0
 62
7
  6
CONTINUOUS
 10
116.111325958
 20
245.1479219153
 11
116.2530957938
 21
245.5762270892
  0
LINE
  8
0
 62
7
  6
CONTINUOUS
 10
115.9456814651
 20
245.6323811326
 11
115.815381355
 21
245.2668667714
  0
LINE
  8
0
 62
7
  6
CONTINUOUS
 10
125.813761347
 20
243.8518727668
 11
125.5984382441
 21
243.4554131253
  0
LINE
  8
0
 62
7
  6
CONTINUOUS
 10
125.8910679769
 20
243.3457478452
 11
126.083986281
 21
243.682439052
  0
LINE
  8
AXES
 62
2
  6
CONTINUOUS
 10
103.2370076586
 20
181.4605793757
 11
103.2370076586
 21
179.7005793757
  0
LINE
  8
AXES
 62
2
  6
CENTER
 10
103.2370076586
 20
176.1805793757
 11
103.2370076586
 21
98.1355793757
  0
LINE
  8
AXES
 62
2
  6
CENTER
 10
103.2370076586
 20
184.9805793757
 11
103.2370076586
 21
263.0255793757
  0
LINE
  8
0
 62
7
  6
CONTINUOUS
 10
100.907494997
 20
260.2388017792
 11
100.7804886642
 21
256.6018162628
  0
LINE
  8
0
 62
7
  6
CONTINUOUS
 10
109.947775454
 20
248.2601782071
 11
109.9104529058
 21
247.9432191458
  0
LINE
  8
0
 62
7
  6
CONTINUOUS
 10
109.6566595416
 20
245.7878972178
 11
109.5969434593
 21
245.2807626752
  0
LINE
  8
0
 62
7
  6
CONTINUOUS
 10
88.3013079983
 20
106.0005024675
 11
87.8279540344
 21
102.3922164811
  0
LINE
  8
0
 62
7
  6
CONTINUOUS
 10
112.9548568417
 20
247.4321890785
 11
112.8785962104
 21
246.9272772962
  0
LINE
  8
0
 62
7
  6
CONTINUOUS
 10
113.3161187705
 20
247.3130712396
 11
112.94434827
 21
244.8516268096
  0
LINE
  8
0
 62
7
  6
CONTINUOUS
 10
113.3151427744
 20
244.7956229215
 11
113.7631738795
 21
247.7619789569
  0
LINE
  8
0
 62
7
  6
CONTINUOUS
 10
114.2002955418
 20
246.8596063456
 11
114.1544166391
 21
246.6084430948
  0
LINE
  8
0
 62
7
  6
CONTINUOUS
 10
114.4733006934
 20
246.6150798641
 11
114.4962401448
 21
246.7406614895
  0
LINE
  8
0
 62
7
  6
CONTINUOUS
 10
116.0333061591
 20
246.4598923007
 11
116.0103667078
 21
246.3343106753
  0
LINE
  8
0
 62
7
  6
CONTINUOUS
 10
115.9686209165
 20
245.757962758
 11
115.9456814651
 21
245.6323811326
  0
LINE
  8
0
 62
7
  6
CONTINUOUS
 10
120.2351038647
 20
246.4319395616
 11
119.4360197099
 21
243.5403198574
  0
LINE
  8
0
 62
7
  6
CONTINUOUS
 10
119.7974721729
 20
243.440434338
 11
120.1545097791
 21
244.7324346497
  0
LINE
  8
0
 62
7
  6
CONTINUOUS
 10
120.2565205101
 20
245.1015775467
 11
120.5115473852
 21
246.0244349614
  0
LINE
  8
0
 62
7
  6
CONTINUOUS
 10
121.9155876642
 20
245.2391026546
 11
121.8645822511
 21
245.0545310337
  0
LINE
  8
0
 62
7
  6
CONTINUOUS
 10
125.5984382441
 20
243.4554131253
 11
125.4416421594
 21
243.0370200261
  0
LINE
  8
0
 62
7
  6
CONTINUOUS
 10
125.8462690956
 20
243.2262069598
 11
125.8910679769
 21
243.3457478452
  0
LINE
  8
0
 62
7
  6
CONTINUOUS
 10
125.6583968769
 20
242.5468005564
 11
125.7255951989
 21
242.7261118846
  0
LINE
  8
0
 62
7
  6
CONTINUOUS
 10
127.1887277888
 20
242.1777915084
 11
127.1215294668
 21
241.9984801802
  0
LINE
  8
0
 62
7
  6
CONTINUOUS
 10
126.8986969507
 20
256.6790910929
 11
125.597644904
 21
253.2804063709
  0
LINE
  8
0
 62
7
  6
CONTINUOUS
 10
64.8944540177
 20
114.8910705005
 11
63.2751391327
 21
111.6319891824
  0
LINE
  8
0
 62
7
  6
CONTINUOUS
 10
150.3257877207
 20
244.872925872
 11
147.9916791373
 21
242.0808421718
  0
LINE
  8
0
 62
7
  6
CONTINUOUS
 10
45.6426106701
 20
130.9001160978
 11
43.0528127581
 21
128.3434114787
  0
LINE
  8
0
 62
7
  6
CONTINUOUS
 10
168.6500785133
 20
226.0996873096
 11
165.5358502757
 21
224.2167702238
  0
LINE
  8
0
 62
7
  6
CONTINUOUS
 10
32.6320139054
 20
152.2928107632
 11
29.3523777549
 21
150.7155414598
  0
LINE
  8
0
 62
7
  6
CONTINUOUS
 10
24.0432281017
 20
171.6808993133
 11
27.6782795702
 21
171.854666655
  0
LINE
  8
AXES
 62
2
  6
CONTINUOUS
 10
104.1170076586
 20
180.5805793757
 11
102.3570076586
 21
180.5805793757
  0
LINE
  8
AXES
 62
2
  6
CENTER
 10
98.8370076586
 20
180.5805793757
 11
20.7920076586
 21
180.5805793757
  0
LINE
  8
AXES
 62
2
  6
CENTER
 10
107.6370076586
 20
180.5805793757
 11
185.6820076586
 21
180.5805793757
  0
LINE
  8
0
 62
7
  6
CONTINUOUS
 10
178.7957360947
 20
171.8546666384
 11
182.4307872156
 21
171.6808993133
  0
LINE
  8
0
 62
7
  6
CONTINUOUS
 10
25.4444441259
 20
197.8772867135
 11
28.9389606429
 21
196.861339579
  0
LINE
  8
0
 62
7
  6
CONTINUOUS
 10
171.8684565403
 20
147.7935816422
 11
175.2501284067
 21
146.4489303406
  0
LINE
  8
0
 62
7
  6
CONTINUOUS
 10
35.2756914848
 20
222.1993074876
 11
38.2509879627
 21
220.1037395129
  0
LINE
  8
0
 62
7
  6
CONTINUOUS
 10
157.5038945729
 20
127.2854765931
 11
160.265730566
 21
124.915655148
  0
LINE
  8
0
 62
7
  6
CONTINUOUS
 10
52.4716019797
 20
242.0112932897
 11
54.6052588786
 21
239.063191781
  0
LINE
  8
0
 62
7
  6
CONTINUOUS
 10
137.2586733709
 20
112.5527228893
 11
139.1013857066
 21
109.4145382257
  0
LINE
  8
0
 62
7
  6
CONTINUOUS
 10
72.9968869418
 20
240.4240337283
 11
73.5555852422
 21
239.2761867245
  0
LINE
  8
0
 62
7
  6
CONTINUOUS
 10
73.8365686305
 20
239.4129514161
 11
73.27787033
 21
240.5607984199
  0
LINE
  8
0
 62
7
  6
CONTINUOUS
 10
74.401803863
 20
241.1078571765
 11
75.0163719895
 21
239.8452254803
  0
LINE
  8
0
 62
7
  6
CONTINUOUS
 10
75.4090951099
 20
239.7524207764
 11
74.6827873115
 21
241.2446218974
  0
LINE
  8
0
 62
7
  6
CONTINUOUS
 10
75.3174888287
 20
241.5393361134
 11
76.1437195062
 21
239.6713515998
  0
LINE
  8
0
 62
7
  6
CONTINUOUS
 10
76.4295114713
 20
239.7977606182
 11
75.8356581515
 21
241.1403745335
  0
LINE
  8
0
 62
7
  6
CONTINUOUS
 10
75.7323793258
 20
241.3738725772
 11
75.6032807938
 21
241.6657451319
  0
LINE
  8
0
 62
7
  6
CONTINUOUS
 10
76.9677878551
 20
241.3619488694
 11
77.4583623493
 21
240.252832998
  0
LINE
  8
0
 62
7
  6
CONTINUOUS
 10
77.7441541508
 20
240.3792419441
 11
77.2535796567
 21
241.4883578156
  0
LINE
  8
0
 62
7
  6
CONTINUOUS
 10
77.0585756057
 20
243.3397548745
 11
77.1807631083
 21
243.0449223231
  0
LINE
  8
0
 62
7
  6
CONTINUOUS
 10
77.4251381819
 20
242.455257055
 11
78.2071382669
 21
240.5683285607
  0
LINE
  8
0
 62
7
  6
CONTINUOUS
 10
78.4958283978
 20
240.6879704589
 11
77.7138283128
 21
242.5748989533
  0
LINE
  8
0
 62
7
  6
CONTINUOUS
 10
77.4694532392
 20
243.1645642213
 11
77.3472657366
 21
243.4593967728
  0
LINE
  8
0
 62
7
  6
CONTINUOUS
 10
81.2211906942
 20
244.182827076
 11
81.3012257481
 21
243.9403763929
  0
LINE
  8
0
 62
7
  6
CONTINUOUS
 10
81.6373162325
 20
244.1185404384
 11
81.5972987336
 21
244.239765695
  0
LINE
  8
0
 62
7
  6
CONTINUOUS
 10
83.3031707152
 20
243.4585348317
 11
83.3631969635
 21
243.2766969467
  0
LINE
  8
0
 62
7
  6
CONTINUOUS
 10
75.1687318863
 20
255.1663080434
 11
76.2295343741
 21
251.6851455437
  0
LINE
  8
0
 62
7
  6
CONTINUOUS
 10
83.6251766957
 20
245.7030684711
 11
84.4373166692
 21
242.8150884394
  0
LINE
  8
0
 62
7
  6
CONTINUOUS
 10
84.7983141731
 20
242.9166059361
 11
84.0898516307
 21
245.4359077098
  0
LINE
  8
0
 62
7
  6
CONTINUOUS
 10
85.6708289887
 20
246.2783342211
 11
86.3620119471
 21
243.8204788667
  0
LINE
  8
0
 62
7
  6
CONTINUOUS
 10
86.6468261148
 20
246.5358884187
 11
87.3290714448
 21
243.6144946914
  0
LINE
  8
0
 62
7
  6
CONTINUOUS
 10
87.6071505124
 20
244.0727192368
 11
87.3894126366
 21
245.0050789565
  0
LINE
  8
0
 62
7
  6
CONTINUOUS
 10
87.3023174985
 20
245.3780227921
 11
87.0990954689
 21
246.2482252493
  0
LINE
  8
0
 62
7
  6
CONTINUOUS
 10
88.7077503449
 20
246.2306174574
 11
88.7367820577
 21
246.1063028455
  0
LINE
  8
0
 62
7
  6
CONTINUOUS
 10
88.9980674924
 20
244.9874712516
 11
89.0416150614
 21
244.8009993338
  0
LINE
  8
0
 62
7
  6
CONTINUOUS
 10
113.3266767884
 20
105.1918429967
 11
114.0505789924
 21
101.6253661169
  0
LINE
  8
0
 62
7
  6
CONTINUOUS
 10
89.7977288751
 20
245.6123610837
 11
89.8601006565
 21
245.2993661362
  0
LINE
  8
0
 62
7
  6
CONTINUOUS
 10
90.7182292679
 20
245.470368929
 11
90.6558574865
 21
245.7833638765
  0
LINE
  8
0
 62
7
  6
CONTINUOUS
 10
90.941869659
 20
247.4766149949
 11
91.4189679549
 21
244.5147950787
  0
LINE
  8
0
 62
7
  6
CONTINUOUS
 10
91.7891954445
 20
244.5744323657
 11
91.4136074121
 21
246.9060779068
  0
LINE
  8
0
 62
7
  6
CONTINUOUS
 10
94.8423111723
 20
245.3678151257
 11
94.8778650743
 21
245.0506527576
  0
LINE
  8
0
 62
7
  6
CONTINUOUS
 10
96.4852058501
 20
247.5431010134
 11
96.4994274288
 21
247.4162359062
  0
LINE
  8
0
 62
7
  6
CONTINUOUS
 10
105.693526641
 20
256.6018166089
 11
105.5665203203
 21
260.2388017792
  0
LINE
  8
0
 62
7
  6
CONTINUOUS
 10
112.0797916301
 20
244.9884024566
 11
112.1245786931
 21
245.3687533746
  0
LINE
  8
0
 62
7
  6
CONTINUOUS
 10
112.3783720574
 20
247.5240753025
 11
112.4306236248
 21
247.9678179884
  0
LINE
  8
0
 62
7
  6
CONTINUOUS
 10
116.2530957938
 20
245.5762270892
 11
116.3333838736
 21
246.0157627781
  0
LINE
  8
0
 62
7
  6
CONTINUOUS
 10
92.4234363248
 20
101.6253661169
 11
93.1473385982
 21
105.1918433379
  0
LINE
  8
0
 62
7
  6
CONTINUOUS
 10
125.4416421594
 20
243.0370200261
 11
125.3433730615
 21
242.5966933857
  0
LINE
  8
0
 62
7
  6
CONTINUOUS
 10
122.2090329256
 20
244.8931216982
 11
122.2770401273
 21
245.1392171352
  0
LINE
  8
0
 62
7
  6
CONTINUOUS
 10
130.2444810447
 20
251.6851458766
 11
131.305283431
 21
255.1663080434
  0
LINE
  8
0
 62
7
  6
CONTINUOUS
 10
127.3917544008
 20
241.8290464655
 11
127.5037516355
 21
242.1278987629
  0
LINE
  8
0
 62
7
  6
CONTINUOUS
 10
67.3726296107
 20
109.4145382257
 11
69.2153421226
 21
112.5527231894
  0
LINE
  8
0
 62
7
  6
CONTINUOUS
 10
151.8687566428
 20
239.0631920629
 11
154.0024133376
 21
242.0112932897
  0
LINE
  8
0
 62
7
  6
CONTINUOUS
 10
46.2082847512
 20
124.915655148
 11
48.9701210085
 21
127.2854768197
  0
LINE
  8
0
 62
7
  6
CONTINUOUS
 10
168.2230276391
 20
220.1037397133
 11
171.1983238324
 21
222.1993074876
  0
LINE
  8
0
 62
7
  6
CONTINUOUS
 10
31.2238869106
 20
146.4489303406
 11
34.6055591004
 21
147.7935817708
  0
LINE
  8
0
 62
7
  6
CONTINUOUS
 10
177.5350550086
 20
196.8613396761
 11
181.0295711914
 21
197.8772867135
  0
LINE
  8
0
 62
7
  6
CONTINUOUS
 10
179.8858480903
 20
202.3937471009
 11
176.3289751503
 21
201.6240399121
  0
LINE
  8
0
 62
7
  6
CONTINUOUS
 10
27.2725637632
 20
176.7509240876
 11
23.65848884
 21
176.324011703
  0
LINE
  8
0
 62
7
  6
CONTINUOUS
 10
182.8155264773
 20
176.324011703
 11
179.2014512084
 21
176.7509241284
  0
LINE
  8
0
 62
7
  6
CONTINUOUS
 10
30.1450398268
 20
201.6240399857
 11
26.588167227
 21
202.3937471009
  0
LINE
  8
0
 62
7
  6
CONTINUOUS
 10
177.1216375624
 20
150.7155414598
 11
173.8420010983
 21
152.292810914
  0
LINE
  8
0
 62
7
  6
CONTINUOUS
 10
40.9381647438
 20
224.2167704038
 11
37.823936804
 21
226.0996873096
  0
LINE
  8
0
 62
7
  6
CONTINUOUS
 10
163.4212025592
 20
128.3434114787
 11
160.8314043995
 21
130.9001163423
  0
LINE
  8
0
 62
7
  6
CONTINUOUS
 10
58.4823359567
 20
242.0808424388
 11
56.1482275966
 21
244.872925872
  0
LINE
  8
0
 62
7
  6
CONTINUOUS
 10
143.1988761846
 20
111.6319891824
 11
141.5795611447
 21
114.8910708121
  0
LINE
  8
0
 62
7
  6
CONTINUOUS
 10
80.8763702889
 20
253.2804066959
 11
79.5753183665
 21
256.6790910929
  0
LINE
  8
0
 62
7
  6
CONTINUOUS
 10
83.7393049468
 20
243.3336357355
 11
83.6392611995
 21
243.6366988771
  0
LINE
  8
0
 62
7
  6
CONTINUOUS
 10
86.8439664661
 20
243.4918716861
 11
86.0318264926
 21
246.3798517178
  0
LINE
  8
0
 62
7
  6
CONTINUOUS
 10
89.4213051337
 20
244.8241226941
 11
89.3487258519
 21
245.1349092238
  0
LINE
  8
0
 62
7
  6
CONTINUOUS
 10
89.1164721299
 20
246.1294262058
 11
89.0584086638
 21
246.3780556037
  0
LINE
  8
0
 62
7
  6
CONTINUOUS
 10
93.6349723493
 20
247.2639016287
 11
94.0105603816
 21
244.9322560877
  0
LINE
  8
0
 62
7
  6
CONTINUOUS
 10
94.3807878711
 20
244.9918933747
 11
93.9036895752
 21
247.9537132909
  0
LINE
  8
0
 62
7
  6
CONTINUOUS
 10
118.6460612828
 20
102.3922164811
 11
118.1727072737
 21
106.0005028126
  0
LINE
  8
0
 62
7
  6
CONTINUOUS
 10
97.1138611446
 20
245.3013079206
 11
97.0783072427
 21
245.6184702887
  0
LINE
  8
0
 62
7
  6
CONTINUOUS
 10
96.8720946252
 20
247.4580118995
 11
96.8578730465
 21
247.5848770067
  0
LINE
  8
0
 62
7
  6
CONTINUOUS
 10
116.3333838736
 20
246.0157627781
 11
116.3521902135
 21
246.46652907
  0
LINE
  8
0
 62
7
  6
CONTINUOUS
 10
73.5555852422
 20
239.2761867245
 11
73.7235215947
 21
239.0739702394
  0
LINE
  8
0
 62
7
  6
CONTINUOUS
 10
75.5770314023
 20
239.5502042744
 11
75.4090951099
 21
239.7524207764
  0
LINE
  8
0
 62
7
  6
CONTINUOUS
 10
76.7815308319
 20
241.6285395771
 11
76.9677878551
 21
241.3619488694
  0
LINE
  8
0
 62
7
  6
CONTINUOUS
 10
77.2535796567
 20
241.4883578156
 11
77.0673229605
 21
241.7549486679
  0
LINE
  8
0
 62
7
  6
CONTINUOUS
 10
81.503342399
 20
242.7299606614
 11
81.6427270428
 21
242.5071019762
  0
LINE
  8
0
 62
7
  6
CONTINUOUS
 10
81.3012257481
 20
243.9403763929
 11
81.4406103919
 21
243.7175177078
  0
LINE
  8
0
 62
7
  6
CONTINUOUS
 10
121.9063491141
 20
245.4403221977
 11
121.9155876642
 21
245.2391026546
  0
LINE
  8
0
 62
7
  6
CONTINUOUS
 10
122.2770401273
 20
245.1392171352
 11
122.2678015771
 21
245.3404366783
  0
LINE
  8
0
 62
7
  6
CONTINUOUS
 10
125.3433730615
 20
242.5966933857
 11
125.3484245207
 21
242.2539762229
  0
LINE
  8
0
 62
7
  6
CONTINUOUS
 10
124.522273176
 20
242.0093997635
 11
124.498798054
 21
245.1715908921
  0
LINE
  8
0
 62
7
  6
CONTINUOUS
 10
124.1647100263
 20
242.9310649878
 11
124.1656464913
 21
242.1253411616
  0
LINE
  8
0
 62
7
  6
CONTINUOUS
 10
124.1821117439
 20
245.0060743493
 11
124.1842146881
 21
243.1931970034
  0
LINE
  8
0
 62
7
  6
CONTINUOUS
 10
125.6497255731
 20
242.3455557706
 11
125.6583968769
 21
242.5468005564
  0
LINE
  8
0
 62
7
  6
CONTINUOUS
 10
127.197399124
 20
242.379036378
 11
127.1887277888
 21
242.1777915084
  0
LINE
  8
0
 62
7
  6
CONTINUOUS
 10
127.7898929521
 20
243.2476318067
 11
127.7985642559
 21
243.4488765925
  0
LINE
  8
DEFAULT_3
 62
2
  6
PHANTOM
 10
127.3889742236
 20
176.4482746932
 11
125.9747606613
 21
175.0340611309
  0
LINE
  8
DEFAULT_3
 62
2
  6
PHANTOM
 10
107.3693123411
 20
156.4286128107
 11
108.7835259035
 21
157.8428263731
  0
LINE
  8
DEFAULT_3
 62
2
  6
PHANTOM
 10
112.9082226628
 20
159.7047814326
 11
124.1128056018
 21
170.9093643715
  0
LINE
  8
DEFAULT_3
 62
2
  6
PHANTOM
 10
125.9747606613
 20
186.1270976205
 11
127.3889742236
 21
184.7128840582
  0
LINE
  8
DEFAULT_3
 62
2
  6
PHANTOM
 10
108.7835259035
 20
203.3183323783
 11
107.3693123411
 21
204.7325459407
  0
LINE
  8
DEFAULT_3
 62
2
  6
PHANTOM
 10
112.9082226628
 20
201.4563773188
 11
124.1128056018
 21
190.2517943798
  0
LINE
  8
0
 62
7
  6
CONTINUOUS
 10
73.9765700554
 20
239.2681273198
 11
73.8365686305
 21
239.4129514161
  0
LINE
  8
0
 62
7
  6
CONTINUOUS
 10
77.0673229605
 20
241.7549486679
 11
76.9327053502
 21
241.9047903536
  0
LINE
  8
0
 62
7
  6
CONTINUOUS
 10
81.9788175271
 20
242.6852660216
 11
81.8594416328
 21
242.8475120785
  0
LINE
  8
0
 62
7
  6
CONTINUOUS
 10
81.7566921268
 20
243.9562943815
 11
81.6373162325
 21
244.1185404384
  0
LINE
  8
0
 62
7
  6
CONTINUOUS
 10
83.0610365093
 20
244.7901759896
 11
82.941660615
 21
244.9524220465
  0
LINE
  8
0
 62
7
  6
CONTINUOUS
 10
88.8936570693
 20
245.1597297036
 11
88.9980674924
 21
244.9874712516
  0
LINE
  8
0
 62
7
  6
CONTINUOUS
 10
89.3487258519
 20
245.1349092238
 11
89.2443154289
 21
245.3071676758
  0
LINE
  8
0
 62
7
  6
CONTINUOUS
 10
88.6033399016
 20
246.4028759965
 11
88.7077503449
 21
246.2306174574
  0
LINE
  8
0
 62
7
  6
CONTINUOUS
 10
89.0584086638
 20
246.3780556037
 11
88.9539982611
 21
246.5503139687
  0
LINE
  8
0
 62
7
  6
CONTINUOUS
 10
91.4136074121
 20
246.9060779068
 11
92.6530591159
 21
244.7135859595
  0
LINE
  8
0
 62
7
  6
CONTINUOUS
 10
92.8491227741
 20
245.0684314584
 11
91.4972108933
 21
247.5660709254
  0
LINE
  8
0
 62
7
  6
CONTINUOUS
 10
96.8578730465
 20
247.5848770067
 11
96.767317071
 21
247.8316440142
  0
LINE
  8
0
 62
7
  6
CONTINUOUS
 10
114.1544166391
 20
246.6084430948
 11
114.220034305
 21
246.2720273111
  0
LINE
  8
0
 62
7
  6
CONTINUOUS
 10
114.0594581293
 20
245.3929558454
 11
114.0865306842
 21
245.1933527603
  0
LINE
  8
0
 62
7
  6
CONTINUOUS
 10
114.5003732563
 20
246.415476823
 11
114.4733006934
 21
246.6150798641
  0
LINE
  8
0
 62
7
  6
CONTINUOUS
 10
116.0062336284
 20
246.6594955178
 11
116.0333061591
 21
246.4598923007
  0
LINE
  8
0
 62
7
  6
CONTINUOUS
 10
127.5037516355
 20
242.1278987629
 11
127.4987001606
 21
242.4706158837
  0
LINE
  8
0
 62
7
  6
CONTINUOUS
 10
73.7235215947
 20
239.0739702394
 11
73.8355881015
 21
238.9865384868
  0
LINE
  8
0
 62
7
  6
CONTINUOUS
 10
75.6890980195
 20
239.4627725632
 11
75.5770314023
 21
239.5502042744
  0
LINE
  8
0
 62
7
  6
CONTINUOUS
 10
75.1560465744
 20
239.5582637093
 11
75.4081145709
 21
239.3260078423
  0
LINE
  8
0
 62
7
  6
CONTINUOUS
 10
83.6392611995
 20
243.6366988771
 11
83.4405262026
 21
243.8399655948
  0
LINE
  8
0
 62
7
  6
CONTINUOUS
 10
82.6055701306
 20
244.7742580011
 11
82.7049372755
 21
244.6726245725
  0
LINE
  8
0
 62
7
  6
CONTINUOUS
 10
116.3521902135
 20
246.46652907
 11
116.2865725797
 21
246.8029450296
  0
LINE
  8
0
 62
7
  6
CONTINUOUS
 10
74.1727681855
 20
239.1506561256
 11
73.9765700554
 21
239.2681273198
  0
LINE
  8
0
 62
7
  6
CONTINUOUS
 10
83.1244444677
 20
243.6011889211
 11
83.3031707152
 21
243.4585348317
  0
LINE
  8
0
 62
7
  6
CONTINUOUS
 10
81.6427270428
 20
242.5071019762
 11
81.920820428
 21
242.2628144795
  0
LINE
  8
0
 62
7
  6
CONTINUOUS
 10
86.3620119471
 20
243.8204788667
 11
84.1666729517
 21
245.8553447161
  0
LINE
  8
0
 62
7
  6
CONTINUOUS
 10
84.0898516307
 20
245.4359077098
 11
86.3024702101
 21
243.339595441
  0
LINE
  8
0
 62
7
  6
CONTINUOUS
 10
96.3396520609
 20
247.7194731828
 11
96.4852058501
 21
247.5431010134
  0
LINE
  8
0
 62
7
  6
CONTINUOUS
 10
114.0865306842
 20
245.1933527603
 11
114.2250998117
 21
244.9084971642
  0
LINE
  8
0
 62
7
  6
CONTINUOUS
 10
114.220034305
 20
246.2720273111
 11
114.3586034366
 21
245.9871717371
  0
LINE
  8
0
 62
7
  6
CONTINUOUS
 10
114.4554267528
 20
245.1259681138
 11
114.3668696435
 21
245.3368023161
  0
LINE
  8
0
 62
7
  6
CONTINUOUS
 10
114.5889303736
 20
246.2046426647
 11
114.5003732563
 21
246.415476823
  0
LINE
  8
0
 62
7
  6
CONTINUOUS
 10
115.9176765111
 20
246.870329676
 11
116.0062336284
 21
246.6594955178
  0
LINE
  8
0
 62
7
  6
CONTINUOUS
 10
125.3484245207
 20
242.2539762229
 11
125.4344024466
 21
241.9490960663
  0
LINE
  8
0
 62
7
  6
CONTINUOUS
 10
125.6995759136
 20
242.1223794933
 11
125.6497255731
 21
242.3455557706
  0
LINE
  8
0
 62
7
  6
CONTINUOUS
 10
127.447412863
 20
243.5804733222
 11
127.4972685774
 21
243.3572950788
  0
LINE
  8
0
 62
7
  6
CONTINUOUS
 10
73.8355881015
 20
238.9865384868
 11
74.0879828774
 21
238.8964202402
  0
LINE
  8
0
 62
7
  6
CONTINUOUS
 10
82.2168934064
 20
242.5622038028
 11
81.9788175271
 21
242.6852660216
  0
LINE
  8
0
 62
7
  6
CONTINUOUS
 10
81.4406103919
 20
243.7175177078
 11
81.7580446525
 21
243.5534347312
  0
LINE
  8
0
 62
7
  6
CONTINUOUS
 10
82.941660615
 20
244.9524220465
 11
82.6835760002
 21
245.1360968512
  0
LINE
  8
0
 62
7
  6
CONTINUOUS
 10
89.2443154289
 20
245.3071676758
 11
89.0036648955
 21
245.5131565664
  0
LINE
  8
0
 62
7
  6
CONTINUOUS
 10
88.9539982611
 20
246.5503139687
 11
88.7133477277
 21
246.7563028593
  0
LINE
  8
0
 62
7
  6
CONTINUOUS
 10
116.2865725797
 20
246.8029450296
 11
116.1480034481
 21
247.0878006036
  0
LINE
  8
0
 62
7
  6
CONTINUOUS
 10
122.2678015771
 20
245.3404366783
 11
122.1550824996
 21
245.6364747026
  0
LINE
  8
0
 62
7
  6
CONTINUOUS
 10
127.7985642559
 20
243.4488765925
 11
127.7125863222
 21
243.7537567283
  0
LINE
  8
0
 62
7
  6
CONTINUOUS
 10
126.8115571106
 20
241.7056558468
 11
126.5911825328
 21
241.6519133262
  0
LINE
  8
0
 62
7
  6
CONTINUOUS
 10
74.0879828774
 20
238.8964202402
 11
74.312442768
 21
238.8636943595
  0
LINE
  8
0
 62
7
  6
CONTINUOUS
 10
82.6835760002
 20
245.1360968512
 11
82.3861498098
 21
245.2395669753
  0
LINE
  8
0
 62
7
  6
CONTINUOUS
 10
76.6155747639
 20
241.6947250494
 11
76.7815308319
 21
241.6285395771
  0
LINE
  8
0
 62
7
  6
CONTINUOUS
 10
76.9327053502
 20
241.9047903536
 11
76.7667492821
 21
241.970975826
  0
LINE
  8
0
 62
7
  6
CONTINUOUS
 10
83.4405262026
 20
243.8399655948
 11
83.123091942
 21
244.0040485714
  0
LINE
  8
0
 62
7
  6
CONTINUOUS
 10
82.4468526607
 20
244.8562993773
 11
82.6055701306
 21
244.7742580011
  0
LINE
  8
0
 62
7
  6
CONTINUOUS
 10
88.7429010823
 20
245.2556175352
 11
88.8936570693
 21
245.1597297036
  0
LINE
  8
0
 62
7
  6
CONTINUOUS
 10
88.4525839146
 20
246.4987638281
 11
88.6033399016
 21
246.4028759965
  0
LINE
  8
0
 62
7
  6
CONTINUOUS
 10
96.767317071
 20
247.8316440142
 11
96.4904310513
 21
248.0575234234
  0
LINE
  8
0
 62
7
  6
CONTINUOUS
 10
114.6169353357
 20
244.9666941652
 11
114.4554267528
 21
245.1259681138
  0
LINE
  8
0
 62
7
  6
CONTINUOUS
 10
125.8303527287
 20
241.937040243
 11
125.6995759136
 21
242.1223794933
  0
LINE
  8
0
 62
7
  6
CONTINUOUS
 10
121.8198703752
 20
245.596664495
 11
121.9063491141
 21
245.4403221977
  0
LINE
  8
0
 62
7
  6
CONTINUOUS
 10
127.125149327
 20
242.5424421707
 11
127.197399124
 21
242.379036378
  0
LINE
  8
0
 62
7
  6
CONTINUOUS
 10
127.4987001606
 20
242.4706158837
 11
127.3903227862
 21
242.7157255768
  0
LINE
  8
0
 62
7
  6
CONTINUOUS
 10
126.0131681301
 20
242.9591658172
 11
126.2335427079
 21
243.0129083378
  0
LINE
  8
0
 62
7
  6
CONTINUOUS
 10
126.2870182512
 20
243.3336920011
 11
125.8462690956
 21
243.2262069598
  0
LINE
  8
0
 62
7
  6
CONTINUOUS
 10
126.3939586843
 20
243.9752635111
 11
126.6143332621
 21
244.0290060317
  0
LINE
  8
0
 62
7
  6
CONTINUOUS
 10
126.5377123339
 20
241.3311276182
 11
126.8975350365
 21
241.4007756901
  0
LINE
  8
0
 62
7
  6
CONTINUOUS
 10
126.6678088054
 20
244.349789695
 11
126.3079807505
 21
244.2801436468
  0
LINE
  8
0
 62
7
  6
CONTINUOUS
 10
115.3547274729
 20
244.8319248723
 11
115.1588097129
 21
244.8028263828
  0
LINE
  8
0
 62
7
  6
CONTINUOUS
 10
74.453424724
 20
239.1452831625
 11
74.1727681855
 21
239.1506561256
  0
LINE
  8
0
 62
7
  6
CONTINUOUS
 10
126.5911825328
 20
241.6519133262
 11
126.3932073956
 21
241.6579412482
  0
LINE
  8
0
 62
7
  6
CONTINUOUS
 10
76.4754384023
 20
241.7025360108
 11
76.6155747639
 21
241.6947250494
  0
LINE
  8
0
 62
7
  6
CONTINUOUS
 10
81.7580446525
 20
243.5534347312
 11
82.0354620935
 21
243.5105772354
  0
LINE
  8
0
 62
7
  6
CONTINUOUS
 10
83.123091942
 20
244.0040485714
 11
82.8456751802
 21
244.0469062914
  0
LINE
  8
0
 62
7
  6
CONTINUOUS
 10
76.7667492821
 20
241.970975826
 11
76.543634723
 21
242.0118794512
  0
LINE
  8
0
 62
7
  6
CONTINUOUS
 10
81.920820428
 20
242.2628144795
 11
82.2775962696
 21
242.1789361676
  0
LINE
  8
0
 62
7
  6
CONTINUOUS
 10
89.0036648955
 20
245.5131565664
 11
88.8674247648
 21
245.5468870921
  0
LINE
  8
0
 62
7
  6
CONTINUOUS
 10
81.9747592426
 20
243.8938448334
 11
81.7566921268
 21
243.9562943815
  0
LINE
  8
0
 62
7
  6
CONTINUOUS
 10
82.9063773519
 20
243.6636384692
 11
83.1244444677
 21
243.6011889211
  0
LINE
  8
0
 62
7
  6
CONTINUOUS
 10
96.4904310513
 20
248.0575234234
 11
96.2277651688
 21
248.1565377439
  0
LINE
  8
0
 62
7
  6
CONTINUOUS
 10
88.7133477277
 20
246.7563028593
 11
88.4263516101
 21
246.8859212165
  0
LINE
  8
0
 62
7
  6
CONTINUOUS
 10
96.1390976147
 20
247.8254501953
 11
96.3396520609
 21
247.7194731828
  0
LINE
  8
0
 62
7
  6
CONTINUOUS
 10
114.7899136443
 20
244.8702110293
 11
114.6169353357
 21
244.9666941652
  0
LINE
  8
0
 62
7
  6
CONTINUOUS
 10
125.9835289845
 20
241.8114714355
 11
125.8303527287
 21
241.937040243
  0
LINE
  8
0
 62
7
  6
CONTINUOUS
 10
114.2250998117
 20
244.9084971642
 11
114.4981049603
 21
244.6639706662
  0
LINE
  8
0
 62
7
  6
CONTINUOUS
 10
114.3586034366
 20
245.9871717371
 11
114.6316057737
 21
245.7426457697
  0
LINE
  8
0
 62
7
  6
CONTINUOUS
 10
116.1480034481
 20
247.0878006036
 11
115.8749982965
 21
247.3323270851
  0
LINE
  8
0
 62
7
  6
CONTINUOUS
 10
114.7504389565
 20
246.0453687161
 11
114.5889303736
 21
246.2046426647
  0
LINE
  8
0
 62
7
  6
CONTINUOUS
 10
115.7561679282
 20
247.0296036247
 11
115.9176765111
 21
246.870329676
  0
LINE
  8
0
 62
7
  6
CONTINUOUS
 10
125.4344024466
 20
241.9490960663
 11
125.6598338516
 21
241.6601194423
  0
LINE
  8
0
 62
7
  6
CONTINUOUS
 10
127.3903227862
 20
242.7157255768
 11
127.1648967335
 21
243.004700177
  0
LINE
  8
0
 62
7
  6
CONTINUOUS
 10
127.7125863222
 20
243.7537567283
 11
127.4871602695
 21
244.0427313285
  0
LINE
  8
0
 62
7
  6
CONTINUOUS
 10
122.1550824996
 20
245.6364747026
 11
121.9651232333
 21
245.8876354812
  0
LINE
  8
0
 62
7
  6
CONTINUOUS
 10
126.9943725119
 20
242.7277814209
 11
127.125149327
 21
242.5424421707
  0
LINE
  8
0
 62
7
  6
CONTINUOUS
 10
127.3166360479
 20
243.7658125725
 11
127.447412863
 21
243.5804733222
  0
LINE
  8
0
 62
7
  6
CONTINUOUS
 10
84.4373166692
 20
242.8150884394
 11
84.7983141731
 21
242.9166059361
  0
LINE
  8
0
 62
7
  6
CONTINUOUS
 10
86.3024702101
 20
243.339595441
 11
86.8439664661
 21
243.4918716861
  0
LINE
  8
0
 62
7
  6
CONTINUOUS
 10
86.0318264926
 20
246.3798517178
 11
85.6708289887
 21
246.2783342211
  0
LINE
  8
0
 62
7
  6
CONTINUOUS
 10
84.1666729517
 20
245.8553447161
 11
83.6251766957
 21
245.7030684711
  0
LINE
  8
0
 62
7
  6
CONTINUOUS
 10
95.5995457124
 20
248.1503439249
 11
95.1718792807
 21
248.0381729341
  0
LINE
  8
0
 62
7
  6
CONTINUOUS
 10
87.3290714448
 20
243.6144946914
 11
88.7897683084
 21
243.9556173564
  0
LINE
  8
0
 62
7
  6
CONTINUOUS
 10
88.7635359938
 20
244.3427747884
 11
87.6071505124
 21
244.0727192368
  0
LINE
  8
0
 62
7
  6
CONTINUOUS
 10
87.3894126366
 20
245.0050789565
 11
88.545798118
 21
245.275134508
  0
LINE
  8
0
 62
7
  6
CONTINUOUS
 10
88.4587029799
 20
245.6480783436
 11
87.3023174985
 21
245.3780227921
  0
LINE
  8
0
 62
7
  6
CONTINUOUS
 10
87.0990954689
 20
246.2482252493
 11
88.2554809502
 21
246.5182808009
  0
LINE
  8
0
 62
7
  6
CONTINUOUS
 10
88.1075229785
 20
246.8770110837
 11
86.6468261148
 21
246.5358884187
  0
LINE
  8
0
 62
7
  6
CONTINUOUS
 10
74.312442768
 20
238.8636943595
 11
74.565164386
 21
238.9157137577
  0
LINE
  8
0
 62
7
  6
CONTINUOUS
 10
89.8601006565
 20
245.2993661362
 11
90.7182292679
 21
245.470368929
  0
LINE
  8
0
 62
7
  6
CONTINUOUS
 10
90.6558574865
 20
245.7833638765
 11
89.7977288751
 21
245.6123610837
  0
LINE
  8
0
 62
7
  6
CONTINUOUS
 10
76.2209850584
 20
241.659783278
 11
76.4754384023
 21
241.7025360108
  0
LINE
  8
0
 62
7
  6
CONTINUOUS
 10
91.4189679549
 20
244.5147950787
 11
91.7891954445
 21
244.5744323657
  0
LINE
  8
0
 62
7
  6
CONTINUOUS
 10
92.6530591159
 20
244.7135859595
 11
93.1466967102
 21
244.7931024939
  0
LINE
  8
0
 62
7
  6
CONTINUOUS
 10
94.0105603816
 20
244.9322560877
 11
94.3807878711
 21
244.9918933747
  0
LINE
  8
0
 62
7
  6
CONTINUOUS
 10
93.9036895752
 20
247.9537132909
 11
93.3483483409
 21
247.8642573604
  0
LINE
  8
0
 62
7
  6
CONTINUOUS
 10
91.4972108933
 20
247.5660709254
 11
90.941869659
 21
247.4766149949
  0
LINE
  8
0
 62
7
  6
CONTINUOUS
 10
115.5497128337
 20
245.8993688201
 11
115.3537950737
 21
245.8702703307
  0
LINE
  8
0
 62
7
  6
CONTINUOUS
 10
114.956894051
 20
247.1756035206
 11
115.152811811
 21
247.2047020101
  0
LINE
  8
0
 62
7
  6
CONTINUOUS
 10
82.2775962696
 20
242.1789361676
 11
82.5943539295
 21
242.2162828988
  0
LINE
  8
0
 62
7
  6
CONTINUOUS
 10
82.8456751802
 20
244.0469062914
 11
82.5289168428
 21
244.0095593308
  0
LINE
  8
0
 62
7
  6
CONTINUOUS
 10
82.3861498098
 20
245.2395669753
 11
82.0693921516
 21
245.2022202389
  0
LINE
  8
0
 62
7
  6
CONTINUOUS
 10
94.8778650743
 20
245.0506527576
 11
97.1138611446
 21
245.3013079206
  0
LINE
  8
0
 62
7
  6
CONTINUOUS
 10
97.0783072427
 20
245.6184702887
 11
95.3391998198
 21
245.4235163439
  0
LINE
  8
0
 62
7
  6
CONTINUOUS
 10
94.6839884125
 20
247.3411845358
 11
94.994542751
 21
247.3759976776
  0
LINE
  8
0
 62
7
  6
CONTINUOUS
 10
95.5729881731
 20
247.8262189091
 11
95.8214324968
 21
247.8540695182
  0
LINE
  8
0
 62
7
  6
CONTINUOUS
 10
95.8479886146
 20
248.1781943747
 11
95.5995457124
 21
248.1503439249
  0
LINE
  8
0
 62
7
  6
CONTINUOUS
 10
76.543634723
 20
242.0118794512
 11
76.3463398702
 21
241.9944085655
  0
LINE
  8
0
 62
7
  6
CONTINUOUS
 10
82.4743014187
 20
242.5799587111
 11
82.2168934064
 21
242.5622038028
  0
LINE
  8
0
 62
7
  6
CONTINUOUS
 10
82.0354620935
 20
243.5105772354
 11
82.2928701058
 21
243.5283321437
  0
LINE
  8
0
 62
7
  6
CONTINUOUS
 10
82.6489693396
 20
243.6458835608
 11
82.9063773519
 21
243.6636384692
  0
LINE
  8
0
 62
7
  6
CONTINUOUS
 10
121.5988470771
 20
244.7968547126
 11
121.4011190571
 21
244.7852736561
  0
LINE
  8
0
 62
7
  6
CONTINUOUS
 10
88.4263516101
 20
246.8859212165
 11
88.1075229785
 21
246.8770110837
  0
LINE
  8
0
 62
7
  6
CONTINUOUS
 10
115.0399793365
 20
244.5001028784
 11
115.3588605774
 21
244.5067401673
  0
LINE
  8
0
 62
7
  6
CONTINUOUS
 10
115.2349646892
 20
245.5675467822
 11
115.5538459452
 21
245.5741841536
  0
LINE
  8
0
 62
7
  6
CONTINUOUS
 10
115.2716421794
 20
247.5074254705
 11
114.9527581251
 21
247.5007887012
  0
LINE
  8
0
 62
7
  6
CONTINUOUS
 10
82.172817609
 20
243.8920079137
 11
81.9747592426
 21
243.8938448334
  0
LINE
  8
0
 62
7
  6
CONTINUOUS
 10
82.2487942943
 20
244.858136297
 11
82.4468526607
 21
244.8562993773
  0
LINE
  8
0
 62
7
  6
CONTINUOUS
 10
126.2335427079
 20
243.0129083378
 11
126.431517845
 21
243.0068804157
  0
LINE
  8
0
 62
7
  6
CONTINUOUS
 10
126.6143332621
 20
244.0290060317
 11
126.8123083992
 21
244.0229781096
  0
LINE
  8
0
 62
7
  6
CONTINUOUS
 10
96.2277651688
 20
248.1565377439
 11
95.8479886146
 21
248.1781943747
  0
LINE
  8
0
 62
7
  6
CONTINUOUS
 10
121.2388644105
 20
244.4327788538
 11
121.5570802617
 21
244.4110637211
  0
LINE
  8
0
 62
7
  6
CONTINUOUS
 10
95.8214324968
 20
247.8540695182
 11
96.1390976147
 21
247.8254501953
  0
LINE
  8
0
 62
7
  6
CONTINUOUS
 10
88.545798118
 20
245.275134508
 11
88.7429010823
 21
245.2556175352
  0
LINE
  8
0
 62
7
  6
CONTINUOUS
 10
88.2554809502
 20
246.5182808009
 11
88.4525839146
 21
246.4987638281
  0
LINE
  8
0
 62
7
  6
CONTINUOUS
 10
109.5969434593
 20
245.2807626752
 11
112.0797916301
 21
244.9884024566
  0
LINE
  8
0
 62
7
  6
CONTINUOUS
 10
112.1245786931
 20
245.3687533746
 11
110.0141574638
 21
245.6172595939
  0
LINE
  8
0
 62
7
  6
CONTINUOUS
 10
109.9104529058
 20
247.9432191458
 11
112.082944345
 21
247.6874040381
  0
LINE
  8
0
 62
7
  6
CONTINUOUS
 10
112.4306236248
 20
247.9678179884
 11
109.947775454
 21
248.2601782071
  0
LINE
  8
0
 62
7
  6
CONTINUOUS
 10
112.94434827
 20
244.8516268096
 11
113.3151427744
 21
244.7956229215
  0
LINE
  8
0
 62
7
  6
CONTINUOUS
 10
113.7631738795
 20
247.7619789569
 11
113.3923793751
 21
247.817982845
  0
LINE
  8
0
 62
7
  6
CONTINUOUS
 10
126.2226831584
 20
241.3810224503
 11
126.5377123339
 21
241.3311276182
  0
LINE
  8
0
 62
7
  6
CONTINUOUS
 10
126.6020420666
 20
243.2837991718
 11
126.2870182512
 21
243.3336920011
  0
LINE
  8
0
 62
7
  6
CONTINUOUS
 10
126.9828326208
 20
244.2998968657
 11
126.6678088054
 21
244.349789695
  0
LINE
  8
0
 62
7
  6
CONTINUOUS
 10
114.7940467478
 20
244.5450263187
 11
115.0399793365
 21
244.5001028784
  0
LINE
  8
0
 62
7
  6
CONTINUOUS
 10
115.1588097129
 20
244.8028263828
 11
114.7899136443
 21
244.8702110293
  0
LINE
  8
0
 62
7
  6
CONTINUOUS
 10
114.3668696435
 20
245.3368023161
 11
114.0594581293
 21
245.3929558454
  0
LINE
  8
0
 62
7
  6
CONTINUOUS
 10
114.9275503606
 20
245.6237008256
 11
115.2349646892
 21
245.5675467822
  0
LINE
  8
0
 62
7
  6
CONTINUOUS
 10
115.3537950737
 20
245.8702703307
 11
114.9234172651
 21
245.9488855801
  0
LINE
  8
0
 62
7
  6
CONTINUOUS
 10
115.152811811
 20
247.2047020101
 11
115.5831896196
 21
247.1260867606
  0
LINE
  8
0
 62
7
  6
CONTINUOUS
 10
115.579056508
 20
247.4512714271
 11
115.2716421794
 21
247.5074254705
  0
LINE
  8
0
 62
7
  6
CONTINUOUS
 10
119.4360197099
 20
243.5403198574
 11
119.7974721729
 21
243.440434338
  0
LINE
  8
0
 62
7
  6
CONTINUOUS
 10
120.1545097791
 20
244.7324346497
 11
121.2388644105
 21
244.4327788538
  0
LINE
  8
0
 62
7
  6
CONTINUOUS
 10
121.4011190571
 20
244.7852736561
 11
120.2565205101
 21
245.1015775467
  0
LINE
  8
0
 62
7
  6
CONTINUOUS
 10
120.5115473852
 20
246.0244349614
 11
121.6561459322
 21
245.7081310709
  0
LINE
  8
0
 62
7
  6
CONTINUOUS
 10
121.6809109591
 20
246.0323982463
 11
120.2351038647
 21
246.4319395616
  0
LINE
  8
0
 62
7
  6
CONTINUOUS
 10
122.1447601309
 20
242.7823430069
 11
122.5013868156
 21
242.6664016088
  0
LINE
  8
0
 62
7
  6
CONTINUOUS
 10
124.1656464913
 20
242.1253411616
 11
124.522273176
 21
242.0093997635
  0
LINE
  8
0
 62
7
  6
CONTINUOUS
 10
122.9759562246
 20
243.3175357249
 11
124.1647100263
 21
242.9310649878
  0
LINE
  8
0
 62
7
  6
CONTINUOUS
 10
124.1842146881
 20
243.1931970034
 11
123.1143346341
 21
243.5410211976
  0
LINE
  8
0
 62
7
  6
CONTINUOUS
 10
124.498798054
 20
245.1715908921
 11
124.0232976216
 21
245.3261788331
  0
LINE
  8
0
 62
7
  6
CONTINUOUS
 10
125.9300587837
 20
241.4906857223
 11
126.2226831584
 21
241.3810224503
  0
LINE
  8
0
 62
7
  6
CONTINUOUS
 10
126.3932073956
 20
241.6579412482
 11
125.9835289845
 21
241.8114714355
  0
LINE
  8
0
 62
7
  6
CONTINUOUS
 10
126.431517845
 20
243.0068804157
 11
126.8411962561
 21
242.8533502285
  0
LINE
  8
0
 62
7
  6
CONTINUOUS
 10
126.8946664413
 20
243.1741358998
 11
126.6020420666
 21
243.2837991718
  0
LINE
  8
0
 62
7
  6
CONTINUOUS
 10
127.4972685774
 20
243.3572950788
 11
127.7898929521
 21
243.2476318067
  0
LINE
  8
0
 62
7
  6
CONTINUOUS
 10
126.8123083992
 20
244.0229781096
 11
127.1634597921
 21
243.89138138
  0
LINE
  8
0
 62
7
  6
CONTINUOUS
 10
127.2169353354
 20
244.2121650433
 11
126.9828326208
 21
244.2998968657
  0
LINE
  8
0
 62
7
  6
CONTINUOUS
 10
114.4981049603
 20
244.6639706662
 11
114.7940467478
 21
244.5450263187
  0
LINE
  8
0
 62
7
  6
CONTINUOUS
 10
114.6316057737
 20
245.7426457697
 11
114.9275503606
 21
245.6237008256
  0
LINE
  8
0
 62
7
  6
CONTINUOUS
 10
115.8749982965
 20
247.3323270851
 11
115.579056508
 21
247.4512714271
  0
LINE
  8
0
 62
7
  6
CONTINUOUS
 10
121.9651232333
 20
245.8876354812
 11
121.6809109591
 21
246.0323982463
  0
LINE
  8
0
 62
7
  6
CONTINUOUS
 10
114.9234172651
 20
245.9488855801
 11
114.7504389565
 21
246.0453687161
  0
LINE
  8
0
 62
7
  6
CONTINUOUS
 10
115.5831896196
 20
247.1260867606
 11
115.7561679282
 21
247.0296036247
  0
LINE
  8
0
 62
7
  6
CONTINUOUS
 10
125.6598338516
 20
241.6601194423
 11
125.9300587837
 21
241.4906857223
  0
LINE
  8
0
 62
7
  6
CONTINUOUS
 10
127.1648967335
 20
243.004700177
 11
126.8946664413
 21
243.1741358998
  0
LINE
  8
0
 62
7
  6
CONTINUOUS
 10
127.4871602695
 20
244.0427313285
 11
127.2169353354
 21
244.2121650433
  0
LINE
  8
0
 62
7
  6
CONTINUOUS
 10
121.6561459322
 20
245.7081310709
 11
121.8198703752
 21
245.596664495
  0
LINE
  8
0
 62
7
  6
CONTINUOUS
 10
126.8411962561
 20
242.8533502285
 11
126.9943725119
 21
242.7277814209
  0
LINE
  8
0
 62
7
  6
CONTINUOUS
 10
127.1634597921
 20
243.89138138
 11
127.3166360479
 21
243.7658125725
  0
LINE
  8
0
 62
7
  6
CONTINUOUS
 10
175.3000772265
 20
181.108053984
 11
174.4040502968
 21
191.9214905885
  0
LINE
  8
0
 62
7
  6
CONTINUOUS
 10
171.5667720711
 20
157.6806335168
 11
174.2304114778
 21
168.1991077683
  0
LINE
  8
0
 62
7
  6
CONTINUOUS
 10
160.4288766961
 20
136.7347775128
 11
166.3635357788
 21
145.8184495143
  0
LINE
  8
0
 62
7
  6
CONTINUOUS
 10
143.0933548876
 20
120.5402944783
 11
151.6559212489
 21
127.2048074212
  0
LINE
  8
0
 62
7
  6
CONTINUOUS
 10
121.4387794219
 20
110.8521079334
 11
131.7013661347
 21
114.3752584298
  0
LINE
  8
0
 62
7
  6
CONTINUOUS
 10
96.7604135259
 20
252.3539585175
 11
86.0579036071
 21
250.568025457
  0
LINE
  8
0
 62
7
  6
CONTINUOUS
 10
120.4161113708
 20
250.5680255403
 11
109.7136014433
 21
252.3539585489
  0
LINE
  8
0
 62
7
  6
CONTINUOUS
 10
142.2101867672
 20
241.197866804
 11
132.6674598483
 21
246.3621323287
  0
LINE
  8
0
 62
7
  6
CONTINUOUS
 10
159.780913476
 20
225.2588844008
 11
152.432072098
 21
233.2418541401
  0
LINE
  8
0
 62
7
  6
CONTINUOUS
 10
171.2242306204
 20
204.4783143927
 11
166.8656357756
 21
214.4149097068
  0
LINE
  8
0
 62
7
  6
CONTINUOUS
 10
183.2648375861
 20
172.3986198243
 11
183.5200685744
 21
175.4787997853
  0
LINE
  8
0
 62
7
  6
CONTINUOUS
 10
176.2720310965
 20
146.856947062
 11
177.5135657643
 21
149.6873610102
  0
LINE
  8
0
 62
7
  6
CONTINUOUS
 10
130.8142722383
 20
256.1510266637
 11
127.8910004685
 21
257.1545871299
  0
LINE
  8
0
 62
7
  6
CONTINUOUS
 10
153.857744099
 20
243.1020882126
 11
151.4187188076
 21
245.0004577966
  0
LINE
  8
0
 62
7
  6
CONTINUOUS
 10
181.5853869433
 20
198.8269348601
 11
180.8266560143
 21
201.8230955412
  0
LINE
  8
0
 62
9
  6
CONTINUOUS
 10
24.7272213246
 20
63.0689733204
 11
24.6983813642
 21
63.4654714901
  0
POLYLINE
  8
0
 62
9
  6
CONTINUOUS
 66
1
 70
0
  0
VERTEX
  8
0
 62
9
  6
CONTINUOUS
 10
23.65848884
 20
62.9560318991
  0
VERTEX
  8
0
 62
9
  6
CONTINUOUS
 10
23.6295259665
 20
63.3558326991
  0
VERTEX
  8
0
 62
9
  6
CONTINUOUS
 10
23.6338230202
 20
63.6472494233
  0
VERTEX
  8
0
 62
9
  6
CONTINUOUS
 10
23.6688818755
 20
63.7516494154
  0
SEQEND
  0
POLYLINE
  8
0
 62
9
  6
CONTINUOUS
 66
1
 70
0
  0
VERTEX
  8
0
 62
9
  6
CONTINUOUS
 10
27.7627656551
 20
63.075547046
  0
VERTEX
  8
0
 62
9
  6
CONTINUOUS
 10
27.7400966814
 20
63.475547076
  0
VERTEX
  8
0
 62
9
  6
CONTINUOUS
 10
27.6781639036
 20
63.7683673845
  0
VERTEX
  8
0
 62
9
  6
CONTINUOUS
 10
27.593562165
 20
63.875547046
  0
SEQEND
  0
LINE
  8
0
 62
9
  6
CONTINUOUS
 10
24.8645504687
 20
58.2755484851
 11
24.8519773906
 21
58.675547046
  0
LINE
  8
2_FEATURE
 62
7
  6
CONTINUOUS
 10
22.95233631
 20
62.9560318991
 11
22.95233631
 21
58.7950621928
  0
LINE
  8
0
 62
9
  6
CONTINUOUS
 10
23.65848884
 20
58.7950621933
 11
23.65848884
 21
62.9560318987
  0
LINE
  8
2_FEATURE
 62
7
  6
CONTINUOUS
 10
24.8677781462
 20
62.9560318991
 11
24.8677781462
 21
58.7950621928
  0
LINE
  8
0
 62
9
  6
CONTINUOUS
 10
24.888628374
 20
62.9560318991
 11
24.888628374
 21
58.7950621928
  0
LINE
  8
0
 62
9
  6
CONTINUOUS
 10
25.647359303
 20
62.9560318991
 11
25.647359303
 21
58.7950621928
  0
LINE
  8
0
 62
9
  6
CONTINUOUS
 10
26.588167227
 20
58.7950621933
 11
26.588167227
 21
62.9560318987
  0
LINE
  8
0
 62
9
  6
CONTINUOUS
 10
24.6983813642
 20
63.4654714901
 11
24.7021813965
 21
63.7564845476
  0
LINE
  8
0
 62
9
  6
CONTINUOUS
 10
24.8519773906
 20
63.075547046
 11
24.8645505687
 21
63.475547076
  0
LINE
  8
0
 62
9
  6
CONTINUOUS
 10
24.6983813642
 20
58.2856226018
 11
24.7272213246
 21
58.6821207715
  0
LINE
  8
0
 62
9
  6
CONTINUOUS
 10
24.8645505687
 20
63.475547076
 11
24.898901128
 21
63.7683673845
  0
LINE
  8
0
 62
9
  6
CONTINUOUS
 10
26.5242414315
 20
58.3952613928
 11
26.588167227
 21
58.7950621928
  0
LINE
  8
0
 62
7
  6
CONTINUOUS
 10
24.9194810239
 20
63.2389654897
 11
24.867812121
 21
62.9560318991
  0
POLYLINE
  8
0
 62
9
  6
CONTINUOUS
 66
1
 70
0
  0
VERTEX
  8
0
 62
9
  6
CONTINUOUS
 10
25.647359303
 20
62.9560318991
  0
VERTEX
  8
0
 62
9
  6
CONTINUOUS
 10
25.7376774593
 20
63.3316091493
  0
VERTEX
  8
0
 62
9
  6
CONTINUOUS
 10
25.9874880131
 20
63.6192619572
  0
VERTEX
  8
0
 62
9
  6
CONTINUOUS
 10
26.3383091111
 20
63.7516494154
  0
SEQEND
  0
LINE
  8
0
 62
9
  6
CONTINUOUS
 10
24.888628374
 20
62.9560318991
 11
24.9770538896
 21
63.3167252539
  0
LINE
  8
0
 62
7
  6
CONTINUOUS
 10
22.9539467428
 20
62.9560318991
 11
23.0474001635
 21
63.3316091493
  0
LINE
  8
0
 62
9
  6
CONTINUOUS
 10
24.7021813965
 20
63.7564845476
 11
24.7376104539
 21
63.8645908367
  0
POLYLINE
  8
0
 62
9
  6
CONTINUOUS
 66
1
 70
0
  0
VERTEX
  8
0
 62
9
  6
CONTINUOUS
 10
23.6688818755
 20
57.9994446765
  0
VERTEX
  8
0
 62
9
  6
CONTINUOUS
 10
23.6338230202
 20
58.1038446686
  0
VERTEX
  8
0
 62
9
  6
CONTINUOUS
 10
23.6295259665
 20
58.3952613928
  0
VERTEX
  8
0
 62
9
  6
CONTINUOUS
 10
23.65848884
 20
58.7950621928
  0
SEQEND
  0
POLYLINE
  8
0
 62
9
  6
CONTINUOUS
 66
1
 70
0
  0
VERTEX
  8
0
 62
9
  6
CONTINUOUS
 10
24.7376104539
 20
57.8865032552
  0
VERTEX
  8
0
 62
9
  6
CONTINUOUS
 10
24.7021813964
 20
57.9946095443
  0
VERTEX
  8
0
 62
9
  6
CONTINUOUS
 10
24.6983813642
 20
58.2856226018
  0
SEQEND
  0
LINE
  8
0
 62
7
  6
CONTINUOUS
 10
23.0474001635
 20
58.4194849426
 11
22.9539467428
 21
58.7950621928
  0
LINE
  8
0
 62
9
  6
CONTINUOUS
 10
24.9814795721
 20
58.4163161948
 11
24.888628374
 21
58.7950621928
  0
POLYLINE
  8
0
 62
9
  6
CONTINUOUS
 66
1
 70
0
  0
VERTEX
  8
0
 62
9
  6
CONTINUOUS
 10
26.588167227
 20
62.9560318991
  0
VERTEX
  8
0
 62
9
  6
CONTINUOUS
 10
26.5242414315
 20
63.3558326991
  0
VERTEX
  8
0
 62
9
  6
CONTINUOUS
 10
26.4318591622
 20
63.6472494233
  0
SEQEND
  0
LINE
  8
0
 62
7
  6
CONTINUOUS
 10
24.8871664415
 20
58.6200040124
 11
24.8677782502
 21
58.7950621928
  0
POLYLINE
  8
0
 62
9
  6
CONTINUOUS
 66
1
 70
0
  0
VERTEX
  8
0
 62
9
  6
CONTINUOUS
 10
30.1450398268
 20
63.075547046
  0
VERTEX
  8
0
 62
9
  6
CONTINUOUS
 10
30.1223708576
 20
63.475547046
  0
VERTEX
  8
0
 62
9
  6
CONTINUOUS
 10
30.0604380818
 20
63.768367369
  0
VERTEX
  8
0
 62
9
  6
CONTINUOUS
 10
29.9758363367
 20
63.875547046
  0
SEQEND
  0
LINE
  8
0
 62
9
  6
CONTINUOUS
 10
30.1450398268
 20
58.675547046
 11
30.1450398268
 21
63.075547046
  0
LINE
  8
0
 62
9
  6
CONTINUOUS
 10
27.5768069967
 20
58.2856226018
 11
27.6399841848
 21
58.6821207715
  0
LINE
  8
0
 62
9
  6
CONTINUOUS
 10
24.898901128
 20
63.7683673845
 11
24.9458248607
 21
63.875547046
  0
POLYLINE
  8
0
 62
9
  6
CONTINUOUS
 66
1
 70
0
  0
VERTEX
  8
0
 62
9
  6
CONTINUOUS
 10
24.9458248607
 20
57.875547046
  0
VERTEX
  8
0
 62
9
  6
CONTINUOUS
 10
24.8989009735
 20
57.9827274672
  0
VERTEX
  8
0
 62
9
  6
CONTINUOUS
 10
24.8645504687
 20
58.2755484851
  0
SEQEND
  0
POLYLINE
  8
0
 62
9
  6
CONTINUOUS
 66
1
 70
0
  0
VERTEX
  8
0
 62
9
  6
CONTINUOUS
 10
27.6399841848
 20
63.0689733204
  0
VERTEX
  8
0
 62
9
  6
CONTINUOUS
 10
27.5768069968
 20
63.4654714901
  0
VERTEX
  8
0
 62
9
  6
CONTINUOUS
 10
27.4854223736
 20
63.7564845476
  0
SEQEND
  0
LINE
  8
2_FEATURE
 62
7
  6
CONTINUOUS
 10
34.9363568135
 20
62.9560318991
 11
34.9363568135
 21
58.7950621928
  0
LINE
  8
0
 62
9
  6
CONTINUOUS
 10
35.0583416126
 20
62.9560318991
 11
35.0583416126
 21
58.7950621928
  0
LINE
  8
0
 62
9
  6
CONTINUOUS
 10
36.7488141899
 20
62.9560318991
 11
36.7488141899
 21
58.7950621928
  0
LINE
  8
0
 62
9
  6
CONTINUOUS
 10
37.823936804
 20
58.7950621933
 11
37.823936804
 21
62.9560318987
  0
POLYLINE
  8
0
 62
9
  6
CONTINUOUS
 66
1
 70
0
  0
VERTEX
  8
0
 62
9
  6
CONTINUOUS
 10
36.7488141899
 20
62.9560318991
  0
VERTEX
  8
0
 62
9
  6
CONTINUOUS
 10
36.8262097082
 20
63.3316091493
  0
VERTEX
  8
0
 62
9
  6
CONTINUOUS
 10
37.0402775998
 20
63.6192619572
  0
SEQEND
  0
LINE
  8
0
 62
9
  6
CONTINUOUS
 10
35.0583416126
 20
62.9560318991
 11
35.1391406143
 21
63.3347778971
  0
LINE
  8
0
 62
9
  6
CONTINUOUS
 10
36.8262097082
 20
58.4194849426
 11
36.7488141899
 21
58.7950621928
  0
LINE
  8
0
 62
9
  6
CONTINUOUS
 10
40.9381647438
 20
58.675547046
 11
40.9381647438
 21
63.075547046
  0
LINE
  8
AXES
 62
7
  6
CONTINUOUS
 10
43.2370076586
 20
71.375547046
 11
43.2370076586
 21
64.875547046
  0
LINE
  8
AXES
 62
7
  6
CONTINUOUS
 10
43.2370076586
 20
56.875547046
 11
43.2370076586
 21
50.375547046
  0
LINE
  8
0
 62
9
  6
CONTINUOUS
 10
38.6541893599
 20
58.2856226018
 11
38.7448575471
 21
58.6821207715
  0
POLYLINE
  8
0
 62
9
  6
CONTINUOUS
 66
1
 70
0
  0
VERTEX
  8
0
 62
9
  6
CONTINUOUS
 10
24.9814795721
 20
63.3347778971
  0
VERTEX
  8
0
 62
9
  6
CONTINUOUS
 10
25.237909721
 20
63.6232581959
  0
VERTEX
  8
0
 62
9
  6
CONTINUOUS
 10
25.5863348179
 20
63.7516494154
  0
SEQEND
  0
LINE
  8
0
 62
7
  6
CONTINUOUS
 10
23.0474001635
 20
63.3316091493
 11
23.3058825299
 21
63.6192619572
  0
LINE
  8
0
 62
7
  6
CONTINUOUS
 10
23.3058825299
 20
58.1318321348
 11
23.0474001635
 21
58.4194849426
  0
LINE
  8
0
 62
9
  6
CONTINUOUS
 10
25.237909721
 20
58.127835896
 11
24.9814795721
 21
58.4163161948
  0
POLYLINE
  8
0
 62
9
  6
CONTINUOUS
 66
1
 70
0
  0
VERTEX
  8
0
 62
9
  6
CONTINUOUS
 10
37.823936804
 20
62.9560318991
  0
VERTEX
  8
0
 62
9
  6
CONTINUOUS
 10
37.7319754385
 20
63.3558326991
  0
VERTEX
  8
0
 62
9
  6
CONTINUOUS
 10
37.5529248985
 20
63.6472494233
  0
VERTEX
  8
0
 62
9
  6
CONTINUOUS
 10
37.3409035406
 20
63.7516494154
  0
SEQEND
  0
POLYLINE
  8
0
 62
9
  6
CONTINUOUS
 66
1
 70
0
  0
VERTEX
  8
0
 62
9
  6
CONTINUOUS
 10
38.7448575471
 20
63.0689733204
  0
VERTEX
  8
0
 62
9
  6
CONTINUOUS
 10
38.65418936
 20
63.4654714901
  0
VERTEX
  8
0
 62
9
  6
CONTINUOUS
 10
38.4775230233
 20
63.7564845476
  0
SEQEND
  0
POLYLINE
  8
0
 62
9
  6
CONTINUOUS
 66
1
 70
0
  0
VERTEX
  8
0
 62
9
  6
CONTINUOUS
 10
38.8523591442
 20
63.075547046
  0
VERTEX
  8
0
 62
9
  6
CONTINUOUS
 10
38.7969045537
 20
63.475547076
  0
VERTEX
  8
0
 62
9
  6
CONTINUOUS
 10
38.6453998163
 20
63.7683673845
  0
VERTEX
  8
0
 62
9
  6
CONTINUOUS
 10
38.4384405176
 20
63.875547046
  0
SEQEND
  0
POLYLINE
  8
0
 62
9
  6
CONTINUOUS
 66
1
 70
0
  0
VERTEX
  8
0
 62
9
  6
CONTINUOUS
 10
40.9381647438
 20
63.075547046
  0
VERTEX
  8
0
 62
9
  6
CONTINUOUS
 10
40.8827101629
 20
63.475547046
  0
VERTEX
  8
0
 62
9
  6
CONTINUOUS
 10
40.7312054305
 20
63.768367369
  0
VERTEX
  8
0
 62
9
  6
CONTINUOUS
 10
40.5242461171
 20
63.875547046
  0
SEQEND
  0
LINE
  8
0
 62
9
  6
CONTINUOUS
 10
46.6931018413
 20
58.675547046
 11
46.6931018413
 21
63.075547046
  0
POLYLINE
  8
0
 62
9
  6
CONTINUOUS
 66
1
 70
0
  0
VERTEX
  8
0
 62
9
  6
CONTINUOUS
 10
46.693101825
 20
63.075547046
  0
VERTEX
  8
0
 62
9
  6
CONTINUOUS
 10
46.7771872865
 20
63.4755244044
  0
VERTEX
  8
0
 62
9
  6
CONTINUOUS
 10
47.0069308966
 20
63.7683523488
  0
VERTEX
  8
0
 62
9
  6
CONTINUOUS
 10
47.3208007835
 20
63.875547046
  0
SEQEND
  0
LINE
  8
0
 62
9
  6
CONTINUOUS
 10
35.1391406143
 20
63.3347778971
 11
35.3622858235
 21
63.6232581959
  0
POLYLINE
  8
0
 62
9
  6
CONTINUOUS
 66
1
 70
0
  0
VERTEX
  8
0
 62
9
  6
CONTINUOUS
 10
27.593562165
 20
57.875547046
  0
VERTEX
  8
0
 62
9
  6
CONTINUOUS
 10
27.6781641818
 20
57.9827274672
  0
VERTEX
  8
0
 62
9
  6
CONTINUOUS
 10
27.7400968602
 20
58.2755484851
  0
VERTEX
  8
0
 62
9
  6
CONTINUOUS
 10
27.7627656551
 20
58.675547046
  0
SEQEND
  0
POLYLINE
  8
0
 62
9
  6
CONTINUOUS
 66
1
 70
0
  0
VERTEX
  8
0
 62
9
  6
CONTINUOUS
 10
29.9758363367
 20
57.875547046
  0
VERTEX
  8
0
 62
9
  6
CONTINUOUS
 10
30.0604380818
 20
57.9827267229
  0
VERTEX
  8
0
 62
9
  6
CONTINUOUS
 10
30.1223708576
 20
58.275547046
  0
VERTEX
  8
0
 62
9
  6
CONTINUOUS
 10
30.1450398268
 20
58.675547046
  0
SEQEND
  0
POLYLINE
  8
0
 62
9
  6
CONTINUOUS
 66
1
 70
0
  0
VERTEX
  8
0
 62
9
  6
CONTINUOUS
 10
27.390142451
 20
57.8865032552
  0
VERTEX
  8
0
 62
9
  6
CONTINUOUS
 10
27.4854223735
 20
57.9946095443
  0
VERTEX
  8
0
 62
9
  6
CONTINUOUS
 10
27.5768069967
 20
58.2856226018
  0
SEQEND
  0
POLYLINE
  8
0
 62
9
  6
CONTINUOUS
 66
1
 70
0
  0
VERTEX
  8
0
 62
9
  6
CONTINUOUS
 10
26.3383091111
 20
57.9994446765
  0
VERTEX
  8
0
 62
9
  6
CONTINUOUS
 10
26.4318591622
 20
58.1038446686
  0
VERTEX
  8
0
 62
9
  6
CONTINUOUS
 10
26.5242414315
 20
58.3952613928
  0
SEQEND
  0
LINE
  8
0
 62
9
  6
CONTINUOUS
 10
26.4318591622
 20
63.6472494233
 11
26.3383091111
 21
63.7516494154
  0
LINE
  8
0
 62
9
  6
CONTINUOUS
 10
27.4854223736
 20
63.7564845476
 11
27.390142451
 21
63.8645908367
  0
LINE
  8
2_FEATURE
 62
7
  6
CONTINUOUS
 10
52.3196783804
 20
62.9560318991
 11
52.3196783804
 21
58.7950621928
  0
LINE
  8
0
 62
9
  6
CONTINUOUS
 10
52.6162712183
 20
62.9560318991
 11
52.6162712183
 21
58.7950621928
  0
LINE
  8
0
 62
9
  6
CONTINUOUS
 10
55.0552965097
 20
62.9560318991
 11
55.0552965097
 21
58.7950621928
  0
LINE
  8
0
 62
7
  6
CONTINUOUS
 10
52.3549652902
 20
63.1910082591
 11
52.3197574432
 21
62.9560318991
  0
LINE
  8
0
 62
9
  6
CONTINUOUS
 10
52.6162712183
 20
62.9560318991
 11
52.676262198
 21
63.3347778971
  0
LINE
  8
0
 62
9
  6
CONTINUOUS
 10
52.676262198
 20
58.4163161948
 11
52.6162712183
 21
58.7950621928
  0
LINE
  8
0
 62
7
  6
CONTINUOUS
 10
52.35496529
 20
58.5600858335
 11
52.3197574432
 21
58.7950621928
  0
LINE
  8
0
 62
9
  6
CONTINUOUS
 10
56.1482275966
 20
58.7950621933
 11
56.1482275966
 21
62.9560318987
  0
LINE
  8
0
 62
9
  6
CONTINUOUS
 10
58.4823359567
 20
58.675547046
 11
58.4823359567
 21
63.075547046
  0
POLYLINE
  8
0
 62
9
  6
CONTINUOUS
 66
1
 70
0
  0
VERTEX
  8
0
 62
9
  6
CONTINUOUS
 10
55.0552965097
 20
62.9560318991
  0
VERTEX
  8
0
 62
9
  6
CONTINUOUS
 10
55.1113823847
 20
63.3316091493
  0
VERTEX
  8
0
 62
9
  6
CONTINUOUS
 10
55.2665100364
 20
63.6192619572
  0
VERTEX
  8
0
 62
9
  6
CONTINUOUS
 10
55.4843633347
 20
63.7516494154
  0
SEQEND
  0
LINE
  8
0
 62
9
  6
CONTINUOUS
 10
56.7301221915
 20
58.2856226018
 11
56.8384560728
 21
58.6821207715
  0
LINE
  8
0
 62
9
  6
CONTINUOUS
 10
56.0381961018
 20
58.3952613928
 11
56.1482275966
 21
58.7950621928
  0
LINE
  8
0
 62
9
  6
CONTINUOUS
 10
52.676262198
 20
63.3347778971
 11
52.8419412216
 21
63.6232581959
  0
LINE
  8
0
 62
7
  6
CONTINUOUS
 10
52.5968062345
 20
63.5615108162
 11
52.3549652902
 21
63.1910082591
  0
LINE
  8
0
 62
7
  6
CONTINUOUS
 10
52.5968062337
 20
58.1895832764
 11
52.35496529
 21
58.5600858335
  0
POLYLINE
  8
0
 62
9
  6
CONTINUOUS
 66
1
 70
0
  0
VERTEX
  8
0
 62
9
  6
CONTINUOUS
 10
56.1482275966
 20
62.9560318991
  0
VERTEX
  8
0
 62
9
  6
CONTINUOUS
 10
56.0381961018
 20
63.3558326991
  0
VERTEX
  8
0
 62
9
  6
CONTINUOUS
 10
55.7918801954
 20
63.6472494233
  0
SEQEND
  0
POLYLINE
  8
0
 62
9
  6
CONTINUOUS
 66
1
 70
0
  0
VERTEX
  8
0
 62
9
  6
CONTINUOUS
 10
56.8384560728
 20
63.0689733204
  0
VERTEX
  8
0
 62
9
  6
CONTINUOUS
 10
56.7301221915
 20
63.4654714901
  0
VERTEX
  8
0
 62
9
  6
CONTINUOUS
 10
56.4873186802
 20
63.7564845476
  0
SEQEND
  0
POLYLINE
  8
0
 62
9
  6
CONTINUOUS
 66
1
 70
0
  0
VERTEX
  8
0
 62
9
  6
CONTINUOUS
 10
56.9190283306
 20
63.075547046
  0
VERTEX
  8
0
 62
9
  6
CONTINUOUS
 10
56.8367974886
 20
63.475547076
  0
VERTEX
  8
0
 62
9
  6
CONTINUOUS
 10
56.6121386808
 20
63.7683673845
  0
VERTEX
  8
0
 62
9
  6
CONTINUOUS
 10
56.3052490732
 20
63.875547046
  0
SEQEND
  0
POLYLINE
  8
0
 62
9
  6
CONTINUOUS
 66
1
 70
0
  0
VERTEX
  8
0
 62
9
  6
CONTINUOUS
 10
58.4823359567
 20
63.075547046
  0
VERTEX
  8
0
 62
9
  6
CONTINUOUS
 10
58.4001051286
 20
63.475547046
  0
VERTEX
  8
0
 62
9
  6
CONTINUOUS
 10
58.175446328
 20
63.768367369
  0
VERTEX
  8
0
 62
9
  6
CONTINUOUS
 10
57.8685566993
 20
63.875547046
  0
SEQEND
  0
LINE
  8
0
 62
9
  6
CONTINUOUS
 10
64.2638285501
 20
58.675547046
 11
64.2638285501
 21
63.075547046
  0
POLYLINE
  8
0
 62
9
  6
CONTINUOUS
 66
1
 70
0
  0
VERTEX
  8
0
 62
9
  6
CONTINUOUS
 10
64.263828528
 20
63.075547046
  0
VERTEX
  8
0
 62
9
  6
CONTINUOUS
 10
64.3217848698
 20
63.4755244044
  0
VERTEX
  8
0
 62
9
  6
CONTINUOUS
 10
64.4801368427
 20
63.7683523488
  0
VERTEX
  8
0
 62
9
  6
CONTINUOUS
 10
64.6964732868
 20
63.875547046
  0
SEQEND
  0
POLYLINE
  8
0
 62
7
  6
CONTINUOUS
 66
1
 70
0
  0
VERTEX
  8
0
 62
7
  6
CONTINUOUS
 10
25.5808591973
 20
57.9997980252
  0
VERTEX
  8
0
 62
7
  6
CONTINUOUS
 10
25.1374642185
 20
58.1960904588
  0
VERTEX
  8
0
 62
7
  6
CONTINUOUS
 10
24.8871664415
 20
58.6200040124
  0
SEQEND
  0
LINE
  8
0
 62
9
  6
CONTINUOUS
 10
75.6924250832
 20
58.4163161948
 11
75.659743079
 21
58.7950621928
  0
LINE
  8
0
 62
7
  6
CONTINUOUS
 10
72.9968869418
 20
57.875547046
 11
72.9968869418
 21
57.575547046
  0
LINE
  8
0
 62
7
  6
CONTINUOUS
 10
73.27787033
 20
57.875547046
 11
73.27787033
 21
57.575547046
  0
LINE
  8
0
 62
9
  6
CONTINUOUS
 10
73.80655515
 20
58.675547046
 11
73.80655515
 21
63.075547046
  0
LINE
  8
0
 62
7
  6
CONTINUOUS
 10
73.8365686305
 20
57.875547046
 11
73.8365686305
 21
57.575547046
  0
LINE
  8
0
 62
7
  6
CONTINUOUS
 10
73.9765700554
 20
57.875547046
 11
73.9765700554
 21
57.575547046
  0
LINE
  8
0
 62
7
  6
CONTINUOUS
 10
74.1727681855
 20
57.875547046
 11
74.1727681855
 21
57.575547046
  0
LINE
  8
0
 62
7
  6
CONTINUOUS
 10
74.401803863
 20
57.875547046
 11
74.401803863
 21
57.575547046
  0
LINE
  8
0
 62
7
  6
CONTINUOUS
 10
74.6827873115
 20
57.875547046
 11
74.6827873115
 21
57.575547046
  0
LINE
  8
2_FEATURE
 62
7
  6
CONTINUOUS
 10
75.1339902251
 20
62.9560318991
 11
75.1339902251
 21
58.7950621928
  0
LINE
  8
0
 62
7
  6
CONTINUOUS
 10
75.3174888287
 20
57.875547046
 11
75.3174888287
 21
57.575547046
  0
LINE
  8
0
 62
7
  6
CONTINUOUS
 10
75.6032807938
 20
57.875547046
 11
75.6032807938
 21
57.575547046
  0
LINE
  8
0
 62
9
  6
CONTINUOUS
 10
75.659743079
 20
62.9560318991
 11
75.659743079
 21
58.7950621928
  0
LINE
  8
0
 62
7
  6
CONTINUOUS
 10
75.7323793258
 20
57.875547046
 11
75.7323793258
 21
57.575547046
  0
LINE
  8
0
 62
7
  6
CONTINUOUS
 10
75.7950567317
 20
57.875547046
 11
75.7950567317
 21
57.575547046
  0
LINE
  8
0
 62
7
  6
CONTINUOUS
 10
75.9148923017
 20
57.875547046
 11
75.9148923017
 21
57.575547046
  0
LINE
  8
0
 62
7
  6
CONTINUOUS
 10
76.1177062328
 20
57.875547046
 11
76.1177062328
 21
57.575547046
  0
LINE
  8
0
 62
7
  6
CONTINUOUS
 10
76.3463398702
 20
57.875547046
 11
76.3463398702
 21
57.575547046
  0
LINE
  8
0
 62
7
  6
CONTINUOUS
 10
76.543634723
 20
57.875547046
 11
76.543634723
 21
57.575547046
  0
LINE
  8
0
 62
7
  6
CONTINUOUS
 10
76.7667492821
 20
57.875547046
 11
76.7667492821
 21
57.575547046
  0
LINE
  8
0
 62
9
  6
CONTINUOUS
 10
75.659743079
 20
62.9560318991
 11
75.6924250832
 21
63.3347778971
  0
POLYLINE
  8
0
 62
9
  6
CONTINUOUS
 66
1
 70
0
  0
VERTEX
  8
0
 62
9
  6
CONTINUOUS
 10
73.80655515
 20
63.075547046
  0
VERTEX
  8
0
 62
9
  6
CONTINUOUS
 10
73.8503260799
 20
63.4755473796
  0
VERTEX
  8
0
 62
9
  6
CONTINUOUS
 10
73.9699103531
 20
63.7683675986
  0
VERTEX
  8
0
 62
9
  6
CONTINUOUS
 10
74.1332652313
 20
63.875547046
  0
SEQEND
  0
LINE
  8
0
 62
7
  6
CONTINUOUS
 10
75.1864072918
 20
63.2408472041
 11
75.1339951546
 21
62.9560318991
  0
LINE
  8
0
 62
9
  6
CONTINUOUS
 10
75.6924250832
 20
63.3347778971
 11
75.7826840283
 21
63.6232581959
  0
LINE
  8
0
 62
9
  6
CONTINUOUS
 10
52.8419412216
 20
63.6232581959
 11
53.0670580034
 21
63.7516494154
  0
POLYLINE
  8
0
 62
9
  6
CONTINUOUS
 66
1
 70
0
  0
VERTEX
  8
0
 62
9
  6
CONTINUOUS
 10
38.4384405176
 20
57.875547046
  0
VERTEX
  8
0
 62
9
  6
CONTINUOUS
 10
38.6454004971
 20
57.9827274672
  0
VERTEX
  8
0
 62
9
  6
CONTINUOUS
 10
38.7969049921
 20
58.2755484851
  0
VERTEX
  8
0
 62
9
  6
CONTINUOUS
 10
38.8523591442
 20
58.675547046
  0
SEQEND
  0
POLYLINE
  8
0
 62
9
  6
CONTINUOUS
 66
1
 70
0
  0
VERTEX
  8
0
 62
9
  6
CONTINUOUS
 10
38.2618591787
 20
57.8865032552
  0
VERTEX
  8
0
 62
9
  6
CONTINUOUS
 10
38.4775230232
 20
57.9946095443
  0
VERTEX
  8
0
 62
9
  6
CONTINUOUS
 10
38.6541893599
 20
58.2856226018
  0
SEQEND
  0
POLYLINE
  8
0
 62
9
  6
CONTINUOUS
 66
1
 70
0
  0
VERTEX
  8
0
 62
9
  6
CONTINUOUS
 10
37.3409035406
 20
57.9994446765
  0
VERTEX
  8
0
 62
9
  6
CONTINUOUS
 10
37.5529248985
 20
58.1038446686
  0
VERTEX
  8
0
 62
9
  6
CONTINUOUS
 10
37.7319754385
 20
58.3952613928
  0
VERTEX
  8
0
 62
9
  6
CONTINUOUS
 10
37.823936804
 20
58.7950621928
  0
SEQEND
  0
POLYLINE
  8
0
 62
7
  6
CONTINUOUS
 66
1
 70
0
  0
VERTEX
  8
0
 62
7
  6
CONTINUOUS
 10
35.6344974942
 20
63.7495208272
  0
VERTEX
  8
0
 62
7
  6
CONTINUOUS
 10
35.2013512793
 20
63.5508168001
  0
VERTEX
  8
0
 62
7
  6
CONTINUOUS
 10
34.9519820896
 20
63.1133732238
  0
VERTEX
  8
0
 62
7
  6
CONTINUOUS
 10
34.9364287716
 20
62.9560318991
  0
SEQEND
  0
LINE
  8
0
 62
9
  6
CONTINUOUS
 10
37.0402775998
 20
63.6192619572
 11
37.3409035406
 21
63.7516494154
  0
LINE
  8
0
 62
9
  6
CONTINUOUS
 10
35.3622858235
 20
63.6232581959
 11
35.6654849265
 21
63.7516494154
  0
POLYLINE
  8
0
 62
7
  6
CONTINUOUS
 66
1
 70
0
  0
VERTEX
  8
0
 62
7
  6
CONTINUOUS
 10
25.5808591977
 20
63.7512960668
  0
VERTEX
  8
0
 62
7
  6
CONTINUOUS
 10
25.1787806312
 20
63.5891838795
  0
VERTEX
  8
0
 62
7
  6
CONTINUOUS
 10
24.9194810239
 20
63.2389654897
  0
SEQEND
  0
LINE
  8
0
 62
7
  6
CONTINUOUS
 10
23.3058825299
 20
63.6192619572
 11
23.6688818755
 21
63.7516494154
  0
LINE
  8
0
 62
7
  6
CONTINUOUS
 10
23.6688818755
 20
57.9994446765
 11
23.3058825299
 21
58.1318321348
  0
LINE
  8
0
 62
9
  6
CONTINUOUS
 10
25.5863348179
 20
57.9994446765
 11
25.237909721
 21
58.127835896
  0
POLYLINE
  8
0
 62
9
  6
CONTINUOUS
 66
1
 70
0
  0
VERTEX
  8
0
 62
9
  6
CONTINUOUS
 10
26.3383091111
 20
57.9994446765
  0
VERTEX
  8
0
 62
9
  6
CONTINUOUS
 10
25.9874880131
 20
58.1318321348
  0
VERTEX
  8
0
 62
9
  6
CONTINUOUS
 10
25.7376774593
 20
58.4194849426
  0
VERTEX
  8
0
 62
9
  6
CONTINUOUS
 10
25.647359303
 20
58.7950621928
  0
SEQEND
  0
POLYLINE
  8
0
 62
7
  6
CONTINUOUS
 66
1
 70
0
  0
VERTEX
  8
0
 62
7
  6
CONTINUOUS
 10
35.6344974941
 20
58.0015732647
  0
VERTEX
  8
0
 62
7
  6
CONTINUOUS
 10
35.2743978825
 20
58.1419205955
  0
VERTEX
  8
0
 62
7
  6
CONTINUOUS
 10
35.0147552541
 20
58.4496766265
  0
VERTEX
  8
0
 62
7
  6
CONTINUOUS
 10
34.9363628234
 20
58.7950621928
  0
SEQEND
  0
POLYLINE
  8
0
 62
9
  6
CONTINUOUS
 66
1
 70
0
  0
VERTEX
  8
0
 62
9
  6
CONTINUOUS
 10
35.6654849265
 20
57.9994446765
  0
VERTEX
  8
0
 62
9
  6
CONTINUOUS
 10
35.3622858235
 20
58.127835896
  0
VERTEX
  8
0
 62
9
  6
CONTINUOUS
 10
35.1391406143
 20
58.4163161948
  0
VERTEX
  8
0
 62
9
  6
CONTINUOUS
 10
35.0583416126
 20
58.7950621928
  0
SEQEND
  0
POLYLINE
  8
0
 62
9
  6
CONTINUOUS
 66
1
 70
0
  0
VERTEX
  8
0
 62
9
  6
CONTINUOUS
 10
37.3409035406
 20
57.9994446765
  0
VERTEX
  8
0
 62
9
  6
CONTINUOUS
 10
37.0402775998
 20
58.1318321348
  0
VERTEX
  8
0
 62
9
  6
CONTINUOUS
 10
36.8262097082
 20
58.4194849426
  0
SEQEND
  0
LINE
  8
0
 62
9
  6
CONTINUOUS
 10
38.4775230233
 20
63.7564845476
 11
38.2618591787
 21
63.8645908367
  0
POLYLINE
  8
0
 62
9
  6
CONTINUOUS
 66
1
 70
0
  0
VERTEX
  8
0
 62
9
  6
CONTINUOUS
 10
53.0670580034
 20
57.9994446765
  0
VERTEX
  8
0
 62
9
  6
CONTINUOUS
 10
52.8419412216
 20
58.127835896
  0
VERTEX
  8
0
 62
9
  6
CONTINUOUS
 10
52.676262198
 20
58.4163161948
  0
SEQEND
  0
POLYLINE
  8
0
 62
9
  6
CONTINUOUS
 66
1
 70
0
  0
VERTEX
  8
0
 62
9
  6
CONTINUOUS
 10
55.4843633347
 20
57.9994446765
  0
VERTEX
  8
0
 62
9
  6
CONTINUOUS
 10
55.2665100364
 20
58.1318321348
  0
VERTEX
  8
0
 62
9
  6
CONTINUOUS
 10
55.1113823847
 20
58.4194849426
  0
VERTEX
  8
0
 62
9
  6
CONTINUOUS
 10
55.0552965097
 20
58.7950621928
  0
SEQEND
  0
LINE
  8
0
 62
9
  6
CONTINUOUS
 10
75.7826840283
 20
58.127835896
 11
75.6924250832
 21
58.4163161948
  0
LINE
  8
0
 62
7
  6
CONTINUOUS
 10
75.1864072914
 20
58.510246889
 11
75.1339951546
 21
58.7950621928
  0
LINE
  8
0
 62
7
  6
CONTINUOUS
 10
76.9327053502
 20
57.875547046
 11
76.9327053502
 21
57.575547046
  0
LINE
  8
0
 62
7
  6
CONTINUOUS
 10
77.0585756057
 20
57.875547046
 11
77.0585756057
 21
57.575547046
  0
LINE
  8
0
 62
7
  6
CONTINUOUS
 10
77.3472657366
 20
57.875547046
 11
77.3472657366
 21
57.575547046
  0
LINE
  8
0
 62
7
  6
CONTINUOUS
 10
77.4694532392
 20
57.875547046
 11
77.4694532392
 21
57.575547046
  0
LINE
  8
0
 62
7
  6
CONTINUOUS
 10
77.7138283128
 20
57.875547046
 11
77.7138283128
 21
57.575547046
  0
LINE
  8
0
 62
7
  6
CONTINUOUS
 10
78.4958283978
 20
57.875547046
 11
78.4958283978
 21
57.575547046
  0
LINE
  8
0
 62
9
  6
CONTINUOUS
 10
78.5830148488
 20
62.9560318991
 11
78.5830148488
 21
58.7950621928
  0
LINE
  8
0
 62
9
  6
CONTINUOUS
 10
79.5753183665
 20
58.7950621933
 11
79.5753183665
 21
62.9560318987
  0
LINE
  8
0
 62
9
  6
CONTINUOUS
 10
80.8763702889
 20
58.675547046
 11
80.8763702889
 21
63.075547046
  0
LINE
  8
0
 62
7
  6
CONTINUOUS
 10
81.2005053423
 20
57.875547046
 11
81.2005053423
 21
57.575547046
  0
LINE
  8
0
 62
7
  6
CONTINUOUS
 10
81.3578696073
 20
57.875547046
 11
81.3578696073
 21
57.575547046
  0
LINE
  8
0
 62
7
  6
CONTINUOUS
 10
81.5552520504
 20
57.875547046
 11
81.5552520504
 21
57.575547046
  0
LINE
  8
0
 62
7
  6
CONTINUOUS
 10
81.7726425637
 20
57.875547046
 11
81.7726425637
 21
57.575547046
  0
LINE
  8
0
 62
7
  6
CONTINUOUS
 10
82.0693921516
 20
57.875547046
 11
82.0693921516
 21
57.575547046
  0
POLYLINE
  8
0
 62
9
  6
CONTINUOUS
 66
1
 70
0
  0
VERTEX
  8
0
 62
9
  6
CONTINUOUS
 10
78.5830148488
 20
62.9560318991
  0
VERTEX
  8
0
 62
9
  6
CONTINUOUS
 10
78.6117133057
 20
63.3316091493
  0
VERTEX
  8
0
 62
9
  6
CONTINUOUS
 10
78.6910902294
 20
63.6192619572
  0
VERTEX
  8
0
 62
9
  6
CONTINUOUS
 10
78.8025631
 20
63.7516494154
  0
SEQEND
  0
LINE
  8
0
 62
9
  6
CONTINUOUS
 10
79.8457976921
 20
58.2856226018
 11
79.9600576105
 21
58.6821207715
  0
LINE
  8
0
 62
7
  6
CONTINUOUS
 10
75.3759031931
 20
63.5292149979
 11
75.1864072918
 21
63.2408472041
  0
LINE
  8
0
 62
9
  6
CONTINUOUS
 10
75.7826840283
 20
63.6232581959
 11
75.9053235923
 21
63.7516494154
  0
POLYLINE
  8
0
 62
9
  6
CONTINUOUS
 66
1
 70
0
  0
VERTEX
  8
0
 62
9
  6
CONTINUOUS
 10
40.5242461171
 20
57.875547046
  0
VERTEX
  8
0
 62
9
  6
CONTINUOUS
 10
40.7312054305
 20
57.9827267229
  0
VERTEX
  8
0
 62
9
  6
CONTINUOUS
 10
40.8827101629
 20
58.275547046
  0
VERTEX
  8
0
 62
9
  6
CONTINUOUS
 10
40.9381647438
 20
58.675547046
  0
SEQEND
  0
LINE
  8
0
 62
7
  6
CONTINUOUS
 10
52.9787148785
 20
63.7435147822
 11
52.5968062345
 21
63.5615108162
  0
POLYLINE
  8
0
 62
9
  6
CONTINUOUS
 66
1
 70
0
  0
VERTEX
  8
0
 62
9
  6
CONTINUOUS
 10
170.4694983875
 20
57.875547046
  0
VERTEX
  8
0
 62
9
  6
CONTINUOUS
 10
170.8468641265
 20
57.9827264919
  0
VERTEX
  8
0
 62
9
  6
CONTINUOUS
 10
170.8790258582
 20
58.0168172025
  0
SEQEND
  0
POLYLINE
  8
0
 62
9
  6
CONTINUOUS
 66
1
 70
0
  0
VERTEX
  8
0
 62
9
  6
CONTINUOUS
 10
36.0045168455
 20
57.875547046
  0
VERTEX
  8
0
 62
9
  6
CONTINUOUS
 10
35.6270526098
 20
57.9827868021
  0
VERTEX
  8
0
 62
9
  6
CONTINUOUS
 10
35.5947079571
 20
58.0170810718
  0
SEQEND
  0
LINE
  8
0
 62
7
  6
CONTINUOUS
 10
52.9787148769
 20
58.00757931
 11
52.5968062337
 21
58.1895832764
  0
LINE
  8
0
 62
9
  6
CONTINUOUS
 10
75.9053235923
 20
57.9994446765
 11
75.7826840283
 21
58.127835896
  0
LINE
  8
0
 62
7
  6
CONTINUOUS
 10
75.3759031914
 20
58.2218790957
 11
75.1864072914
 21
58.510246889
  0
POLYLINE
  8
0
 62
9
  6
CONTINUOUS
 66
1
 70
0
  0
VERTEX
  8
0
 62
9
  6
CONTINUOUS
 10
79.5753183665
 20
62.9560318991
  0
VERTEX
  8
0
 62
9
  6
CONTINUOUS
 10
79.4591403624
 20
63.3558326991
  0
VERTEX
  8
0
 62
9
  6
CONTINUOUS
 10
79.17225124
 20
63.6472494233
  0
VERTEX
  8
0
 62
9
  6
CONTINUOUS
 10
78.8025631
 20
63.7516494154
  0
SEQEND
  0
POLYLINE
  8
0
 62
9
  6
CONTINUOUS
 66
1
 70
0
  0
VERTEX
  8
0
 62
9
  6
CONTINUOUS
 10
79.9600576105
 20
63.0689733204
  0
VERTEX
  8
0
 62
9
  6
CONTINUOUS
 10
79.8457976921
 20
63.4654714901
  0
VERTEX
  8
0
 62
9
  6
CONTINUOUS
 10
79.563168534
 20
63.7564845476
  0
SEQEND
  0
POLYLINE
  8
0
 62
9
  6
CONTINUOUS
 66
1
 70
0
  0
VERTEX
  8
0
 62
9
  6
CONTINUOUS
 10
80.0049692747
 20
63.075547046
  0
VERTEX
  8
0
 62
9
  6
CONTINUOUS
 10
79.9048731689
 20
63.475547076
  0
VERTEX
  8
0
 62
9
  6
CONTINUOUS
 10
79.6314055585
 20
63.7683673845
  0
VERTEX
  8
0
 62
9
  6
CONTINUOUS
 10
79.2578418929
 20
63.875547046
  0
SEQEND
  0
POLYLINE
  8
0
 62
9
  6
CONTINUOUS
 66
1
 70
0
  0
VERTEX
  8
0
 62
9
  6
CONTINUOUS
 10
80.8763702889
 20
63.075547046
  0
VERTEX
  8
0
 62
9
  6
CONTINUOUS
 10
80.7762741996
 20
63.475547046
  0
VERTEX
  8
0
 62
9
  6
CONTINUOUS
 10
80.5028065979
 20
63.768367369
  0
VERTEX
  8
0
 62
9
  6
CONTINUOUS
 10
80.129242907
 20
63.875547046
  0
SEQEND
  0
LINE
  8
0
 62
7
  6
CONTINUOUS
 10
82.3861498098
 20
57.875547046
 11
82.3861498098
 21
57.575547046
  0
LINE
  8
0
 62
7
  6
CONTINUOUS
 10
82.6835760002
 20
57.875547046
 11
82.6835760002
 21
57.575547046
  0
LINE
  8
0
 62
7
  6
CONTINUOUS
 10
82.941660615
 20
57.875547046
 11
82.941660615
 21
57.575547046
  0
LINE
  8
0
 62
7
  6
CONTINUOUS
 10
83.0610365093
 20
57.875547046
 11
83.0610365093
 21
57.575547046
  0
LINE
  8
0
 62
7
  6
CONTINUOUS
 10
83.123091942
 20
57.875547046
 11
83.123091942
 21
57.575547046
  0
LINE
  8
0
 62
7
  6
CONTINUOUS
 10
83.4405262026
 20
57.875547046
 11
83.4405262026
 21
57.575547046
  0
LINE
  8
0
 62
7
  6
CONTINUOUS
 10
83.6251766957
 20
57.875547046
 11
83.6251766957
 21
57.575547046
  0
LINE
  8
0
 62
7
  6
CONTINUOUS
 10
84.1666729517
 20
57.875547046
 11
84.1666729517
 21
57.575547046
  0
LINE
  8
0
 62
7
  6
CONTINUOUS
 10
85.6708289887
 20
57.875547046
 11
85.6708289887
 21
57.575547046
  0
LINE
  8
0
 62
7
  6
CONTINUOUS
 10
86.0318264926
 20
57.875547046
 11
86.0318264926
 21
57.575547046
  0
LINE
  8
0
 62
9
  6
CONTINUOUS
 10
86.0579039465
 20
58.675547046
 11
86.0579039465
 21
63.075547046
  0
LINE
  8
0
 62
7
  6
CONTINUOUS
 10
86.6468261148
 20
57.875547046
 11
86.6468261148
 21
57.575547046
  0
POLYLINE
  8
0
 62
9
  6
CONTINUOUS
 66
1
 70
0
  0
VERTEX
  8
0
 62
9
  6
CONTINUOUS
 10
86.057903921
 20
63.075547046
  0
VERTEX
  8
0
 62
9
  6
CONTINUOUS
 10
86.0834506741
 20
63.4755244044
  0
VERTEX
  8
0
 62
9
  6
CONTINUOUS
 10
86.1532511166
 20
63.7683523488
  0
VERTEX
  8
0
 62
9
  6
CONTINUOUS
 10
86.2486107074
 20
63.875547046
  0
SEQEND
  0
LINE
  8
0
 62
7
  6
CONTINUOUS
 10
75.6629853132
 20
63.7087312666
 11
75.3759031931
 21
63.5292149979
  0
POLYLINE
  8
0
 62
9
  6
CONTINUOUS
 66
1
 70
0
  0
VERTEX
  8
0
 62
9
  6
CONTINUOUS
 10
47.3208007076
 20
57.875547046
  0
VERTEX
  8
0
 62
9
  6
CONTINUOUS
 10
47.0068695904
 20
57.9827868021
  0
VERTEX
  8
0
 62
9
  6
CONTINUOUS
 10
46.7771563532
 20
58.2756376728
  0
VERTEX
  8
0
 62
9
  6
CONTINUOUS
 10
46.6931016255
 20
58.675547046
  0
SEQEND
  0
POLYLINE
  8
0
 62
9
  6
CONTINUOUS
 66
1
 70
0
  0
VERTEX
  8
0
 62
9
  6
CONTINUOUS
 10
64.6964732223
 20
57.875547046
  0
VERTEX
  8
0
 62
9
  6
CONTINUOUS
 10
64.4800945312
 20
57.9827868021
  0
VERTEX
  8
0
 62
9
  6
CONTINUOUS
 10
64.3217634544
 20
58.2756376728
  0
VERTEX
  8
0
 62
9
  6
CONTINUOUS
 10
64.2638282573
 20
58.675547046
  0
SEQEND
  0
LINE
  8
0
 62
7
  6
CONTINUOUS
 10
75.6629853099
 20
58.0423628265
 11
75.3759031914
 21
58.2218790957
  0
POLYLINE
  8
0
 62
9
  6
CONTINUOUS
 66
1
 70
0
  0
VERTEX
  8
0
 62
9
  6
CONTINUOUS
 10
74.1332652313
 20
57.875547046
  0
VERTEX
  8
0
 62
9
  6
CONTINUOUS
 10
73.969910354
 20
57.9827264919
  0
VERTEX
  8
0
 62
9
  6
CONTINUOUS
 10
73.8503260803
 20
58.2755467104
  0
VERTEX
  8
0
 62
9
  6
CONTINUOUS
 10
73.80655515
 20
58.675547046
  0
SEQEND
  0
POLYLINE
  8
0
 62
9
  6
CONTINUOUS
 66
1
 70
0
  0
VERTEX
  8
0
 62
9
  6
CONTINUOUS
 10
78.8025631
 20
57.9994446765
  0
VERTEX
  8
0
 62
9
  6
CONTINUOUS
 10
78.6910902294
 20
58.1318321348
  0
VERTEX
  8
0
 62
9
  6
CONTINUOUS
 10
78.6117133057
 20
58.4194849426
  0
VERTEX
  8
0
 62
9
  6
CONTINUOUS
 10
78.5830148488
 20
58.7950621928
  0
SEQEND
  0
LINE
  8
0
 62
7
  6
CONTINUOUS
 10
88.1075229785
 20
57.875547046
 11
88.1075229785
 21
57.575547046
  0
LINE
  8
0
 62
7
  6
CONTINUOUS
 10
88.4263516101
 20
57.875547046
 11
88.4263516101
 21
57.575547046
  0
LINE
  8
0
 62
7
  6
CONTINUOUS
 10
88.7133477277
 20
57.875547046
 11
88.7133477277
 21
57.575547046
  0
LINE
  8
0
 62
7
  6
CONTINUOUS
 10
88.9539982611
 20
57.875547046
 11
88.9539982611
 21
57.575547046
  0
LINE
  8
0
 62
7
  6
CONTINUOUS
 10
89.0584086638
 20
57.875547046
 11
89.0584086638
 21
57.575547046
  0
LINE
  8
0
 62
7
  6
CONTINUOUS
 10
89.1164721299
 20
57.875547046
 11
89.1164721299
 21
57.575547046
  0
LINE
  8
0
 62
7
  6
CONTINUOUS
 10
89.2443154289
 20
57.875547046
 11
89.2443154289
 21
57.575547046
  0
LINE
  8
0
 62
7
  6
CONTINUOUS
 10
89.3487258519
 20
57.875547046
 11
89.3487258519
 21
57.575547046
  0
LINE
  8
0
 62
7
  6
CONTINUOUS
 10
89.4213051337
 20
57.875547046
 11
89.4213051337
 21
57.575547046
  0
LINE
  8
0
 62
7
  6
CONTINUOUS
 10
89.7977288751
 20
57.875547046
 11
89.7977288751
 21
57.575547046
  0
LINE
  8
0
 62
7
  6
CONTINUOUS
 10
90.6558574865
 20
57.875547046
 11
90.6558574865
 21
57.575547046
  0
LINE
  8
0
 62
7
  6
CONTINUOUS
 10
90.7182292679
 20
57.875547046
 11
90.7182292679
 21
57.575547046
  0
LINE
  8
0
 62
7
  6
CONTINUOUS
 10
90.941869659
 20
57.875547046
 11
90.941869659
 21
57.575547046
  0
LINE
  8
0
 62
7
  6
CONTINUOUS
 10
91.4972108933
 20
57.875547046
 11
91.4972108933
 21
57.575547046
  0
LINE
  8
0
 62
7
  6
CONTINUOUS
 10
92.8491227741
 20
57.875547046
 11
92.8491227741
 21
57.575547046
  0
LINE
  8
0
 62
9
  6
CONTINUOUS
 10
79.563168534
 20
57.9946095443
 11
79.8457976921
 21
58.2856226018
  0
LINE
  8
0
 62
7
  6
CONTINUOUS
 10
75.9766893645
 20
63.8216762717
 11
75.6629855791
 21
63.7087313623
  0
LINE
  8
0
 62
9
  6
CONTINUOUS
 10
75.9053234048
 20
63.7516494154
 11
76.2189594969
 21
63.8645908367
  0
POLYLINE
  8
0
 62
9
  6
CONTINUOUS
 66
1
 70
0
  0
VERTEX
  8
0
 62
9
  6
CONTINUOUS
 10
56.3052490732
 20
57.875547046
  0
VERTEX
  8
0
 62
9
  6
CONTINUOUS
 10
56.6121396903
 20
57.9827274672
  0
VERTEX
  8
0
 62
9
  6
CONTINUOUS
 10
56.836798139
 20
58.2755484851
  0
VERTEX
  8
0
 62
9
  6
CONTINUOUS
 10
56.9190283306
 20
58.675547046
  0
SEQEND
  0
POLYLINE
  8
0
 62
9
  6
CONTINUOUS
 66
1
 70
0
  0
VERTEX
  8
0
 62
9
  6
CONTINUOUS
 10
57.8685566993
 20
57.875547046
  0
VERTEX
  8
0
 62
9
  6
CONTINUOUS
 10
58.175446328
 20
57.9827267229
  0
VERTEX
  8
0
 62
9
  6
CONTINUOUS
 10
58.4001051286
 20
58.275547046
  0
VERTEX
  8
0
 62
9
  6
CONTINUOUS
 10
58.4823359567
 20
58.675547046
  0
SEQEND
  0
POLYLINE
  8
0
 62
9
  6
CONTINUOUS
 66
1
 70
0
  0
VERTEX
  8
0
 62
9
  6
CONTINUOUS
 10
56.1746414376
 20
57.8865032552
  0
VERTEX
  8
0
 62
9
  6
CONTINUOUS
 10
56.4873186801
 20
57.9946095443
  0
VERTEX
  8
0
 62
9
  6
CONTINUOUS
 10
56.7301221915
 20
58.2856226018
  0
SEQEND
  0
POLYLINE
  8
0
 62
9
  6
CONTINUOUS
 66
1
 70
0
  0
VERTEX
  8
0
 62
9
  6
CONTINUOUS
 10
55.4843633347
 20
57.9994446765
  0
VERTEX
  8
0
 62
9
  6
CONTINUOUS
 10
55.7918801954
 20
58.1038446686
  0
VERTEX
  8
0
 62
9
  6
CONTINUOUS
 10
56.0381961018
 20
58.3952613928
  0
SEQEND
  0
LINE
  8
0
 62
7
  6
CONTINUOUS
 10
152.8643426928
 20
57.8946368807
 11
153.4952989341
 21
58.0075790404
  0
LINE
  8
0
 62
9
  6
CONTINUOUS
 10
152.7760533341
 20
57.8865032552
 11
152.8643426928
 21
57.8946368807
  0
LINE
  8
0
 62
9
  6
CONTINUOUS
 10
150.9896521677
 20
57.9994446765
 11
150.2993738797
 21
57.8865032552
  0
LINE
  8
0
 62
7
  6
CONTINUOUS
 10
169.9287265715
 20
57.8865032552
 11
170.8085304869
 21
57.9994446765
  0
LINE
  8
0
 62
9
  6
CONTINUOUS
 10
169.1331119068
 20
57.9994446765
 11
168.2121561385
 21
57.8865032552
  0
LINE
  8
0
 62
7
  6
CONTINUOUS
 10
179.854317236
 20
57.8865032552
 11
180.8876805405
 21
57.9994446765
  0
LINE
  8
0
 62
9
  6
CONTINUOUS
 10
180.1357062672
 20
57.9994446765
 11
179.0838728663
 21
57.8865032552
  0
LINE
  8
0
 62
9
  6
CONTINUOUS
 10
179.8858480903
 20
58.7950621921
 11
178.8340311325
 21
58.6821207715
  0
LINE
  8
0
 62
7
  6
CONTINUOUS
 10
182.8051334271
 20
57.9994446765
 11
181.7364048634
 21
57.8865032552
  0
LINE
  8
0
 62
9
  6
CONTINUOUS
 10
182.8155264773
 20
58.7950621921
 11
181.7467939927
 21
58.6821207715
  0
LINE
  8
AXES
 62
7
  6
CONTINUOUS
 10
45.2370076586
 20
48.375547046
 11
161.2370076586
 21
48.375547046
  0
LINE
  8
AXES
 62
9
  6
CONTINUOUS
 10
43.2370076586
 20
50.375547046
 11
163.2370076586
 21
50.375547046
  0
LINE
  8
0
 62
7
  6
CONTINUOUS
 10
24.7376104539
 20
57.8865032552
 11
23.668881864
 21
57.9994446765
  0
LINE
  8
0
 62
9
  6
CONTINUOUS
 10
24.7272213246
 20
58.6821207715
 11
23.65848884
 21
58.7950621933
  0
LINE
  8
0
 62
9
  6
CONTINUOUS
 10
27.390142451
 20
57.8865032552
 11
26.338309159
 21
57.9994446765
  0
LINE
  8
0
 62
9
  6
CONTINUOUS
 10
27.6399841848
 20
58.6821207715
 11
26.588167227
 21
58.7950621933
  0
LINE
  8
0
 62
7
  6
CONTINUOUS
 10
25.5863348703
 20
57.9994446765
 11
26.6196980813
 21
57.8865032552
  0
LINE
  8
0
 62
9
  6
CONTINUOUS
 10
38.2618591787
 20
57.8865032552
 11
37.3409036426
 21
57.9994446765
  0
LINE
  8
0
 62
7
  6
CONTINUOUS
 10
35.6654850492
 20
57.9994446765
 11
36.5452887458
 21
57.8865032552
  0
LINE
  8
0
 62
7
  6
CONTINUOUS
 10
53.6097369754
 20
57.8946311396
 11
53.6721301894
 21
57.8851238208
  0
LINE
  8
0
 62
9
  6
CONTINUOUS
 10
56.1746414376
 20
57.8865032552
 11
55.4843634798
 21
57.9994446765
  0
LINE
  8
0
 62
7
  6
CONTINUOUS
 10
52.9787149855
 20
58.0075792906
 11
53.6096726184
 21
57.8946368818
  0
LINE
  8
0
 62
9
  6
CONTINUOUS
 10
53.6110032546
 20
57.9020700427
 11
53.6979619832
 21
57.8865032552
  0
LINE
  8
0
 62
9
  6
CONTINUOUS
 10
55.7918801954
 20
63.6472494233
 11
55.4843633347
 21
63.7516494154
  0
LINE
  8
0
 62
9
  6
CONTINUOUS
 10
56.4873186802
 20
63.7564845476
 11
56.1746414376
 21
63.8645908367
  0
LINE
  8
0
 62
7
  6
CONTINUOUS
 10
75.6629855776
 20
58.0423627302
 11
75.976689362
 21
57.9294178211
  0
LINE
  8
0
 62
9
  6
CONTINUOUS
 10
75.9053238095
 20
57.9994446765
 11
76.2189594969
 21
57.8865032552
  0
POLYLINE
  8
0
 62
9
  6
CONTINUOUS
 66
1
 70
0
  0
VERTEX
  8
0
 62
9
  6
CONTINUOUS
 10
86.2486106611
 20
57.875547046
  0
VERTEX
  8
0
 62
9
  6
CONTINUOUS
 10
86.1532323847
 20
57.9827868021
  0
VERTEX
  8
0
 62
9
  6
CONTINUOUS
 10
86.0834410973
 20
58.2756376728
  0
VERTEX
  8
0
 62
9
  6
CONTINUOUS
 10
86.0579036085
 20
58.675547046
  0
SEQEND
  0
LINE
  8
0
 62
7
  6
CONTINUOUS
 10
93.3483483409
 20
57.875547046
 11
93.3483483409
 21
57.575547046
  0
LINE
  8
0
 62
7
  6
CONTINUOUS
 10
93.9036895752
 20
57.875547046
 11
93.9036895752
 21
57.575547046
  0
LINE
  8
0
 62
7
  6
CONTINUOUS
 10
94.3807878711
 20
57.875547046
 11
94.3807878711
 21
57.575547046
  0
LINE
  8
0
 62
7
  6
CONTINUOUS
 10
94.7176567313
 20
57.875547046
 11
94.7176567313
 21
57.575547046
  0
LINE
  8
0
 62
7
  6
CONTINUOUS
 10
94.9376565158
 20
57.875547046
 11
94.9376565158
 21
57.575547046
  0
LINE
  8
0
 62
7
  6
CONTINUOUS
 10
95.1718792807
 20
57.875547046
 11
95.1718792807
 21
57.575547046
  0
LINE
  8
0
 62
7
  6
CONTINUOUS
 10
95.5995457124
 20
57.875547046
 11
95.5995457124
 21
57.575547046
  0
LINE
  8
0
 62
7
  6
CONTINUOUS
 10
95.8479886146
 20
57.875547046
 11
95.8479886146
 21
57.575547046
  0
LINE
  8
0
 62
7
  6
CONTINUOUS
 10
96.2277651688
 20
57.875547046
 11
96.2277651688
 21
57.575547046
  0
LINE
  8
0
 62
7
  6
CONTINUOUS
 10
96.4904310513
 20
57.875547046
 11
96.4904310513
 21
57.575547046
  0
LINE
  8
0
 62
9
  6
CONTINUOUS
 10
96.7604135259
 20
58.675547046
 11
96.7604135259
 21
63.075547046
  0
LINE
  8
0
 62
7
  6
CONTINUOUS
 10
96.767317071
 20
57.875547046
 11
96.767317071
 21
57.575547046
  0
LINE
  8
0
 62
7
  6
CONTINUOUS
 10
96.8578730465
 20
57.875547046
 11
96.8578730465
 21
57.575547046
  0
LINE
  8
0
 62
7
  6
CONTINUOUS
 10
97.0783072427
 20
57.875547046
 11
97.0783072427
 21
57.575547046
  0
POLYLINE
  8
0
 62
9
  6
CONTINUOUS
 66
1
 70
0
  0
VERTEX
  8
0
 62
9
  6
CONTINUOUS
 10
96.7604135259
 20
63.075547046
  0
VERTEX
  8
0
 62
9
  6
CONTINUOUS
 10
96.7700459482
 20
63.4755473796
  0
VERTEX
  8
0
 62
9
  6
CONTINUOUS
 10
96.7963621865
 20
63.7683675986
  0
VERTEX
  8
0
 62
9
  6
CONTINUOUS
 10
96.8323107757
 20
63.875547046
  0
SEQEND
  0
LINE
  8
0
 62
9
  6
CONTINUOUS
 10
79.9600576105
 20
63.0689733204
 11
79.5753183665
 21
62.9560318987
  0
LINE
  8
0
 62
9
  6
CONTINUOUS
 10
79.1873613243
 20
63.8645908367
 11
78.8025632423
 21
63.7516494154
  0
POLYLINE
  8
0
 62
9
  6
CONTINUOUS
 66
1
 70
0
  0
VERTEX
  8
0
 62
9
  6
CONTINUOUS
 10
127.286653993
 20
57.8865032552
  0
VERTEX
  8
0
 62
9
  6
CONTINUOUS
 10
127.2514502529
 20
57.8782863687
  0
VERTEX
  8
0
 62
9
  6
CONTINUOUS
 10
127.2161734244
 20
57.875547046
  0
SEQEND
  0
POLYLINE
  8
0
 62
9
  6
CONTINUOUS
 66
1
 70
0
  0
VERTEX
  8
0
 62
9
  6
CONTINUOUS
 10
126.5139577068
 20
58.6821207715
  0
VERTEX
  8
0
 62
9
  6
CONTINUOUS
 10
126.4915357032
 20
58.6771996459
  0
VERTEX
  8
0
 62
9
  6
CONTINUOUS
 10
126.4690460425
 20
58.675547046
  0
SEQEND
  0
LINE
  8
0
 62
9
  6
CONTINUOUS
 10
130.2550558204
 20
57.8865032552
 11
130.4973259414
 21
57.9294178161
  0
LINE
  8
0
 62
9
  6
CONTINUOUS
 10
130.5686917249
 20
57.9994446765
 11
130.8082227703
 21
58.0413738172
  0
LINE
  8
0
 62
9
  6
CONTINUOUS
 10
150.3257877207
 20
58.7950621921
 11
149.6355592445
 21
58.6821207715
  0
LINE
  8
0
 62
7
  6
CONTINUOUS
 10
152.7855433163
 20
57.8831753847
 11
152.8643197522
 21
57.8946385532
  0
POLYLINE
  8
0
 62
9
  6
CONTINUOUS
 66
1
 70
0
  0
VERTEX
  8
0
 62
9
  6
CONTINUOUS
 10
150.2993738797
 20
57.8865032552
  0
VERTEX
  8
0
 62
9
  6
CONTINUOUS
 10
150.2341392984
 20
57.8782863687
  0
VERTEX
  8
0
 62
9
  6
CONTINUOUS
 10
150.1687662441
 20
57.875547046
  0
SEQEND
  0
LINE
  8
0
 62
9
  6
CONTINUOUS
 10
168.6500785133
 20
58.7950621921
 11
167.7291577702
 21
58.6821207715
  0
POLYLINE
  8
0
 62
9
  6
CONTINUOUS
 66
1
 70
0
  0
VERTEX
  8
0
 62
9
  6
CONTINUOUS
 10
149.6355592445
 20
58.6821207715
  0
VERTEX
  8
0
 62
9
  6
CONTINUOUS
 10
149.5953338045
 20
58.6771996459
  0
VERTEX
  8
0
 62
9
  6
CONTINUOUS
 10
149.5549869866
 20
58.675547046
  0
SEQEND
  0
LINE
  8
0
 62
9
  6
CONTINUOUS
 10
153.4069573139
 20
57.9994446765
 11
153.498841107
 21
58.0082243483
  0
POLYLINE
  8
0
 62
9
  6
CONTINUOUS
 66
1
 70
0
  0
VERTEX
  8
0
 62
9
  6
CONTINUOUS
 10
168.2121561385
 20
57.8865032552
  0
VERTEX
  8
0
 62
9
  6
CONTINUOUS
 10
168.123959895
 20
57.8782863687
  0
VERTEX
  8
0
 62
9
  6
CONTINUOUS
 10
168.0355747997
 20
57.875547046
  0
SEQEND
  0
LINE
  8
0
 62
9
  6
CONTINUOUS
 10
152.7760533341
 20
57.8865032552
 11
152.8643208083
 21
57.8946329639
  0
POLYLINE
  8
0
 62
9
  6
CONTINUOUS
 66
1
 70
0
  0
VERTEX
  8
0
 62
9
  6
CONTINUOUS
 10
167.7291577702
 20
58.6821207715
  0
VERTEX
  8
0
 62
9
  6
CONTINUOUS
 10
167.6754879444
 20
58.6771996459
  0
VERTEX
  8
0
 62
9
  6
CONTINUOUS
 10
167.6216561731
 20
58.675547046
  0
SEQEND
  0
POLYLINE
  8
0
 62
9
  6
CONTINUOUS
 66
1
 70
0
  0
VERTEX
  8
0
 62
9
  6
CONTINUOUS
 10
130.1897126251
 20
57.875547046
  0
VERTEX
  8
0
 62
9
  6
CONTINUOUS
 10
130.2224209727
 20
57.8782863687
  0
VERTEX
  8
0
 62
9
  6
CONTINUOUS
 10
130.2550558204
 20
57.8865032552
  0
SEQEND
  0
POLYLINE
  8
0
 62
9
  6
CONTINUOUS
 66
1
 70
0
  0
VERTEX
  8
0
 62
9
  6
CONTINUOUS
 10
179.0838728663
 20
57.8865032552
  0
VERTEX
  8
0
 62
9
  6
CONTINUOUS
 10
178.9822723921
 20
57.8782863687
  0
VERTEX
  8
0
 62
9
  6
CONTINUOUS
 10
178.8804531523
 20
57.875547046
  0
SEQEND
  0
POLYLINE
  8
0
 62
9
  6
CONTINUOUS
 66
1
 70
0
  0
VERTEX
  8
0
 62
9
  6
CONTINUOUS
 10
178.8340311325
 20
58.6821207715
  0
VERTEX
  8
0
 62
9
  6
CONTINUOUS
 10
178.7727328792
 20
58.6771996459
  0
VERTEX
  8
0
 62
9
  6
CONTINUOUS
 10
178.7112496622
 20
58.675547046
  0
SEQEND
  0
POLYLINE
  8
0
 62
7
  6
CONTINUOUS
 66
1
 70
0
  0
VERTEX
  8
0
 62
7
  6
CONTINUOUS
 10
181.7364048634
 20
57.8865032552
  0
VERTEX
  8
0
 62
7
  6
CONTINUOUS
 10
181.6324101464
 20
57.8782863687
  0
VERTEX
  8
0
 62
7
  6
CONTINUOUS
 10
181.5281904566
 20
57.875547046
  0
SEQEND
  0
POLYLINE
  8
0
 62
9
  6
CONTINUOUS
 66
1
 70
0
  0
VERTEX
  8
0
 62
9
  6
CONTINUOUS
 10
181.7467939927
 20
58.6821207715
  0
VERTEX
  8
0
 62
9
  6
CONTINUOUS
 10
181.6845099289
 20
58.6771996459
  0
VERTEX
  8
0
 62
9
  6
CONTINUOUS
 10
181.6220379267
 20
58.675547046
  0
SEQEND
  0
LINE
  8
0
 62
9
  6
CONTINUOUS
 10
170.8085303908
 20
57.9994446765
 11
170.8420722035
 21
58.0019055745
  0
LINE
  8
0
 62
9
  6
CONTINUOUS
 10
180.8876804994
 20
57.9994446765
 11
180.893967578
 21
57.9998874633
  0
LINE
  8
0
 62
7
  6
CONTINUOUS
 10
152.6696432032
 20
57.8757205204
 11
152.7855433163
 21
57.8831753847
  0
POLYLINE
  8
0
 62
9
  6
CONTINUOUS
 66
1
 70
0
  0
VERTEX
  8
0
 62
9
  6
CONTINUOUS
 10
152.6497320545
 20
57.875547046
  0
VERTEX
  8
0
 62
9
  6
CONTINUOUS
 10
152.7129621025
 20
57.8782863687
  0
VERTEX
  8
0
 62
9
  6
CONTINUOUS
 10
152.7760533341
 20
57.8865032552
  0
SEQEND
  0
POLYLINE
  8
0
 62
7
  6
CONTINUOUS
 66
1
 70
0
  0
VERTEX
  8
0
 62
7
  6
CONTINUOUS
 10
169.7551160781
 20
57.875547046
  0
VERTEX
  8
0
 62
7
  6
CONTINUOUS
 10
169.8420158697
 20
57.8782863687
  0
VERTEX
  8
0
 62
7
  6
CONTINUOUS
 10
169.9287265715
 20
57.8865032552
  0
SEQEND
  0
POLYLINE
  8
0
 62
7
  6
CONTINUOUS
 66
1
 70
0
  0
VERTEX
  8
0
 62
7
  6
CONTINUOUS
 10
179.6522309197
 20
57.875547046
  0
VERTEX
  8
0
 62
7
  6
CONTINUOUS
 10
179.7533835141
 20
57.8782863687
  0
VERTEX
  8
0
 62
7
  6
CONTINUOUS
 10
179.854317236
 20
57.8865032552
  0
SEQEND
  0
POLYLINE
  8
0
 62
7
  6
CONTINUOUS
 66
1
 70
0
  0
VERTEX
  8
0
 62
7
  6
CONTINUOUS
 10
24.9458248607
 20
57.875547046
  0
VERTEX
  8
0
 62
7
  6
CONTINUOUS
 10
24.8416051708
 20
57.8782863687
  0
VERTEX
  8
0
 62
7
  6
CONTINUOUS
 10
24.7376104539
 20
57.8865032552
  0
SEQEND
  0
POLYLINE
  8
0
 62
9
  6
CONTINUOUS
 66
1
 70
0
  0
VERTEX
  8
0
 62
9
  6
CONTINUOUS
 10
27.593562165
 20
57.875547046
  0
VERTEX
  8
0
 62
9
  6
CONTINUOUS
 10
27.4917429255
 20
57.8782863687
  0
VERTEX
  8
0
 62
9
  6
CONTINUOUS
 10
27.390142451
 20
57.8865032552
  0
SEQEND
  0
LINE
  8
0
 62
7
  6
CONTINUOUS
 10
26.7206318035
 20
57.8782863687
 11
26.8217843975
 21
57.875547046
  0
POLYLINE
  8
0
 62
9
  6
CONTINUOUS
 66
1
 70
0
  0
VERTEX
  8
0
 62
9
  6
CONTINUOUS
 10
38.4384405176
 20
57.875547046
  0
VERTEX
  8
0
 62
9
  6
CONTINUOUS
 10
38.3500554229
 20
57.8782863687
  0
VERTEX
  8
0
 62
9
  6
CONTINUOUS
 10
38.2618591787
 20
57.8865032552
  0
SEQEND
  0
POLYLINE
  8
0
 62
9
  6
CONTINUOUS
 66
1
 70
0
  0
VERTEX
  8
0
 62
9
  6
CONTINUOUS
 10
56.3052490732
 20
57.875547046
  0
VERTEX
  8
0
 62
9
  6
CONTINUOUS
 10
56.2398760198
 20
57.8782863687
  0
VERTEX
  8
0
 62
9
  6
CONTINUOUS
 10
56.1746414376
 20
57.8865032552
  0
SEQEND
  0
LINE
  8
0
 62
9
  6
CONTINUOUS
 10
53.7610532157
 20
57.8782863687
 11
53.8242832628
 21
57.875547046
  0
LINE
  8
0
 62
9
  6
CONTINUOUS
 10
25.5863348179
 20
57.9994446765
 11
25.5808591973
 21
57.9997980252
  0
LINE
  8
0
 62
9
  6
CONTINUOUS
 10
35.6654849265
 20
57.9994446765
 11
35.6344974934
 21
58.0015732648
  0
POLYLINE
  8
0
 62
9
  6
CONTINUOUS
 66
1
 70
0
  0
VERTEX
  8
0
 62
9
  6
CONTINUOUS
 10
79.2578418929
 20
57.875547046
  0
VERTEX
  8
0
 62
9
  6
CONTINUOUS
 10
79.2225650655
 20
57.8782863687
  0
VERTEX
  8
0
 62
9
  6
CONTINUOUS
 10
79.1873613243
 20
57.8865032552
  0
SEQEND
  0
LINE
  8
0
 62
7
  6
CONTINUOUS
 10
26.6196980813
 20
57.8865032552
 11
26.7206318035
 21
57.8782863687
  0
LINE
  8
0
 62
9
  6
CONTINUOUS
 10
76.2515943457
 20
57.8782863687
 11
76.2843026922
 21
57.875547046
  0
LINE
  8
0
 62
9
  6
CONTINUOUS
 10
53.6979623623
 20
57.886508988
 11
53.6097369754
 21
57.8946311396
  0
LINE
  8
0
 62
9
  6
CONTINUOUS
 10
53.0670580034
 20
57.9994446765
 11
52.9787149856
 21
58.0075792906
  0
POLYLINE
  8
0
 62
9
  6
CONTINUOUS
 66
1
 70
0
  0
VERTEX
  8
0
 62
9
  6
CONTINUOUS
 10
36.5452887458
 20
57.8865032552
  0
VERTEX
  8
0
 62
9
  6
CONTINUOUS
 10
36.6319994482
 20
57.8782863687
  0
VERTEX
  8
0
 62
9
  6
CONTINUOUS
 10
36.7188992391
 20
57.875547046
  0
SEQEND
  0
LINE
  8
0
 62
9
  6
CONTINUOUS
 10
38.7448575471
 20
58.6821207715
 11
37.823936804
 21
58.7950621933
  0
LINE
  8
0
 62
9
  6
CONTINUOUS
 10
53.6979619832
 20
57.8865032552
 11
53.7610532157
 21
57.8782863687
  0
LINE
  8
0
 62
9
  6
CONTINUOUS
 10
56.8384560728
 20
58.6821207715
 11
56.1482275966
 21
58.7950621933
  0
LINE
  8
0
 62
9
  6
CONTINUOUS
 10
76.2189597037
 20
57.886508988
 11
75.9766912256
 21
57.9294228266
  0
LINE
  8
0
 62
9
  6
CONTINUOUS
 10
75.9053235923
 20
57.9994446765
 11
75.6629855776
 21
58.0423627302
  0
LINE
  8
0
 62
9
  6
CONTINUOUS
 10
76.2189594969
 20
57.8865032552
 11
76.2515943457
 21
57.8782863687
  0
LINE
  8
0
 62
9
  6
CONTINUOUS
 10
79.1873613243
 20
57.8865032552
 11
78.8025632724
 21
57.9994446765
  0
LINE
  8
0
 62
9
  6
CONTINUOUS
 10
79.9600576105
 20
58.6821207715
 11
79.5753183665
 21
58.7950621933
  0
POLYLINE
  8
0
 62
9
  6
CONTINUOUS
 66
1
 70
0
  0
VERTEX
  8
0
 62
9
  6
CONTINUOUS
 10
96.8323107757
 20
57.875547046
  0
VERTEX
  8
0
 62
9
  6
CONTINUOUS
 10
96.7963621867
 20
57.9827264919
  0
VERTEX
  8
0
 62
9
  6
CONTINUOUS
 10
96.7700459483
 20
58.2755467104
  0
VERTEX
  8
0
 62
9
  6
CONTINUOUS
 10
96.7604135259
 20
58.675547046
  0
SEQEND
  0
POLYLINE
  8
0
 62
9
  6
CONTINUOUS
 66
1
 70
0
  0
VERTEX
  8
0
 62
9
  6
CONTINUOUS
 10
101.7054012447
 20
57.9994446765
  0
VERTEX
  8
0
 62
9
  6
CONTINUOUS
 10
101.698528798
 20
58.127835896
  0
VERTEX
  8
0
 62
9
  6
CONTINUOUS
 10
101.6934708887
 20
58.4163161948
  0
VERTEX
  8
0
 62
9
  6
CONTINUOUS
 10
101.6916394623
 20
58.7950621928
  0
SEQEND
  0
LINE
  8
0
 62
9
  6
CONTINUOUS
 10
100.7804886762
 20
58.675547046
 11
100.7804886762
 21
63.075547046
  0
LINE
  8
0
 62
9
  6
CONTINUOUS
 10
100.907494997
 20
58.7950621921
 11
100.907494997
 21
62.9560318986
  0
LINE
  8
0
 62
9
  6
CONTINUOUS
 10
101.6916394623
 20
62.9560318991
 11
101.6916394623
 21
58.7950621928
  0
LINE
  8
AXES
 62
2
  6
CENTER
 10
103.2370076586
 20
46.375547046
 11
103.2370076586
 21
75.375547046
  0
POLYLINE
  8
0
 62
9
  6
CONTINUOUS
 66
1
 70
0
  0
VERTEX
  8
0
 62
9
  6
CONTINUOUS
 10
101.6916394623
 20
62.9560318991
  0
VERTEX
  8
0
 62
9
  6
CONTINUOUS
 10
101.6934708887
 20
63.3347778971
  0
VERTEX
  8
0
 62
9
  6
CONTINUOUS
 10
101.698528798
 20
63.6232581959
  0
VERTEX
  8
0
 62
9
  6
CONTINUOUS
 10
101.7054012447
 20
63.7516494154
  0
SEQEND
  0
POLYLINE
  8
0
 62
9
  6
CONTINUOUS
 66
1
 70
0
  0
VERTEX
  8
0
 62
9
  6
CONTINUOUS
 10
101.6677817572
 20
57.8865032552
  0
VERTEX
  8
0
 62
9
  6
CONTINUOUS
 10
101.6664237299
 20
57.8782863687
  0
VERTEX
  8
0
 62
9
  6
CONTINUOUS
 10
101.6650659189
 20
57.875547046
  0
SEQEND
  0
POLYLINE
  8
0
 62
9
  6
CONTINUOUS
 66
1
 70
0
  0
VERTEX
  8
0
 62
9
  6
CONTINUOUS
 10
100.7804886762
 20
63.075547046
  0
VERTEX
  8
0
 62
9
  6
CONTINUOUS
 10
100.887591495
 20
63.4755269992
  0
VERTEX
  8
0
 62
9
  6
CONTINUOUS
 10
101.1802215058
 20
63.7683537919
  0
SEQEND
  0
LINE
  8
0
 62
7
  6
CONTINUOUS
 10
100.8655532573
 20
63.075547046
 11
100.9726676433
 21
63.475547046
  0
POLYLINE
  8
0
 62
9
  6
CONTINUOUS
 66
1
 70
0
  0
VERTEX
  8
0
 62
9
  6
CONTINUOUS
 10
100.907494997
 20
62.9560318991
  0
VERTEX
  8
0
 62
9
  6
CONTINUOUS
 10
101.015309511
 20
63.3525476747
  0
VERTEX
  8
0
 62
9
  6
CONTINUOUS
 10
101.3071624606
 20
63.643563467
  0
VERTEX
  8
0
 62
9
  6
CONTINUOUS
 10
101.7054012447
 20
63.7516494154
  0
SEQEND
  0
LINE
  8
0
 62
9
  6
CONTINUOUS
 10
100.907494997
 20
58.7950621921
 11
100.8699374522
 21
58.6821207715
  0
LINE
  8
0
 62
9
  6
CONTINUOUS
 10
101.7054014759
 20
57.9994446765
 11
101.6677817572
 21
57.8865032552
  0
LINE
  8
0
 62
9
  6
CONTINUOUS
 10
104.8062335601
 20
63.8645908367
 11
104.7686142221
 21
63.7516494154
  0
POLYLINE
  8
0
 62
9
  6
CONTINUOUS
 66
1
 70
0
  0
VERTEX
  8
0
 62
9
  6
CONTINUOUS
 10
100.8699374522
 20
58.6821207715
  0
VERTEX
  8
0
 62
9
  6
CONTINUOUS
 10
100.8677486571
 20
58.6771996459
  0
VERTEX
  8
0
 62
9
  6
CONTINUOUS
 10
100.8655532573
 20
58.675547046
  0
SEQEND
  0
LINE
  8
0
 62
9
  6
CONTINUOUS
 10
104.8089493983
 20
63.875547046
 11
104.8075887614
 21
63.8727912239
  0
POLYLINE
  8
0
 62
7
  6
CONTINUOUS
 66
1
 70
0
  0
VERTEX
  8
0
 62
7
  6
CONTINUOUS
 10
100.9726676433
 20
63.475547046
  0
VERTEX
  8
0
 62
7
  6
CONTINUOUS
 10
101.2653095881
 20
63.768367369
  0
VERTEX
  8
0
 62
7
  6
CONTINUOUS
 10
101.6650659189
 20
63.875547046
  0
SEQEND
  0
POLYLINE
  8
0
 62
9
  6
CONTINUOUS
 66
1
 70
0
  0
VERTEX
  8
0
 62
9
  6
CONTINUOUS
 10
105.60846206
 20
63.075547046
  0
VERTEX
  8
0
 62
9
  6
CONTINUOUS
 10
105.6062662362
 20
63.0738981241
  0
VERTEX
  8
0
 62
9
  6
CONTINUOUS
 10
105.604077865
 20
63.0689733204
  0
SEQEND
  0
LINE
  8
0
 62
9
  6
CONTINUOUS
 10
79.1873613243
 20
57.8865032552
 11
79.563168534
 21
57.9946095443
  0
POLYLINE
  8
0
 62
9
  6
CONTINUOUS
 66
1
 70
0
  0
VERTEX
  8
0
 62
9
  6
CONTINUOUS
 10
79.2578418929
 20
57.875547046
  0
VERTEX
  8
0
 62
9
  6
CONTINUOUS
 10
79.6314067874
 20
57.9827274672
  0
VERTEX
  8
0
 62
9
  6
CONTINUOUS
 10
79.9048739609
 20
58.2755484851
  0
VERTEX
  8
0
 62
9
  6
CONTINUOUS
 10
80.0049692747
 20
58.675547046
  0
SEQEND
  0
POLYLINE
  8
0
 62
9
  6
CONTINUOUS
 66
1
 70
0
  0
VERTEX
  8
0
 62
9
  6
CONTINUOUS
 10
80.129242907
 20
57.875547046
  0
VERTEX
  8
0
 62
9
  6
CONTINUOUS
 10
80.5028065979
 20
57.9827267229
  0
VERTEX
  8
0
 62
9
  6
CONTINUOUS
 10
80.7762741996
 20
58.275547046
  0
VERTEX
  8
0
 62
9
  6
CONTINUOUS
 10
80.8763702889
 20
58.675547046
  0
SEQEND
  0
LINE
  8
0
 62
9
  6
CONTINUOUS
 10
104.8062335601
 20
57.8865032552
 11
105.2044461945
 21
57.9946095443
  0
LINE
  8
0
 62
9
  6
CONTINUOUS
 10
104.8940139794
 20
57.875547046
 11
105.2937703102
 21
57.9827267229
  0
POLYLINE
  8
0
 62
9
  6
CONTINUOUS
 66
1
 70
0
  0
VERTEX
  8
0
 62
9
  6
CONTINUOUS
 10
104.7686140726
 20
57.9994446765
  0
VERTEX
  8
0
 62
9
  6
CONTINUOUS
 10
105.1604120457
 20
58.1038446686
  0
VERTEX
  8
0
 62
9
  6
CONTINUOUS
 10
105.4567854961
 20
58.3952613928
  0
VERTEX
  8
0
 62
9
  6
CONTINUOUS
 10
105.5665203203
 20
58.7950621928
  0
SEQEND
  0
LINE
  8
AXES
 62
9
  6
CONTINUOUS
 10
43.2370076586
 20
56.875547046
 11
163.2370076586
 21
56.875547046
  0
LINE
  8
0
 62
7
  6
CONTINUOUS
 10
127.7985642559
 20
57.575547046
 11
125.3433730615
 21
57.575547046
  0
LINE
  8
0
 62
7
  6
CONTINUOUS
 10
124.498798054
 20
57.575547046
 11
119.4360197099
 21
57.575547046
  0
LINE
  8
0
 62
7
  6
CONTINUOUS
 10
116.3521902135
 20
57.575547046
 11
114.0594581293
 21
57.575547046
  0
LINE
  8
0
 62
7
  6
CONTINUOUS
 10
113.7631738795
 20
57.575547046
 11
112.8785962104
 21
57.575547046
  0
LINE
  8
0
 62
7
  6
CONTINUOUS
 10
112.4306236248
 20
57.575547046
 11
109.947775454
 21
57.575547046
  0
LINE
  8
0
 62
7
  6
CONTINUOUS
 10
109.9104529058
 20
57.575547046
 11
109.6566595416
 21
57.575547046
  0
LINE
  8
0
 62
7
  6
CONTINUOUS
 10
97.1138611446
 20
57.575547046
 11
94.6839884125
 21
57.575547046
  0
LINE
  8
0
 62
7
  6
CONTINUOUS
 10
94.3807878711
 20
57.575547046
 11
90.941869659
 21
57.575547046
  0
LINE
  8
0
 62
7
  6
CONTINUOUS
 10
90.7182292679
 20
57.575547046
 11
89.7977288751
 21
57.575547046
  0
LINE
  8
0
 62
7
  6
CONTINUOUS
 10
89.4213051337
 20
57.575547046
 11
83.123091942
 21
57.575547046
  0
LINE
  8
0
 62
7
  6
CONTINUOUS
 10
83.0610365093
 20
57.575547046
 11
81.2005053423
 21
57.575547046
  0
LINE
  8
0
 62
7
  6
CONTINUOUS
 10
78.4958283978
 20
57.575547046
 11
77.0585756057
 21
57.575547046
  0
LINE
  8
0
 62
7
  6
CONTINUOUS
 10
76.9947926114
 20
57.575547046
 11
72.9968869418
 21
57.575547046
  0
LINE
  8
0
 62
7
  6
CONTINUOUS
 10
181.5281904566
 20
57.875547046
 11
169.9287265715
 21
57.875547046
  0
LINE
  8
0
 62
7
  6
CONTINUOUS
 10
101.5800013379
 20
57.875547046
 11
36.7188992391
 21
57.875547046
  0
LINE
  8
0
 62
7
  6
CONTINUOUS
 10
36.5452887458
 20
57.875547046
 11
24.9458248607
 21
57.875547046
  0
LINE
  8
0
 62
7
  6
CONTINUOUS
 10
101.6650659189
 20
57.875547046
 11
104.8089493983
 21
57.875547046
  0
LINE
  8
0
 62
7
  6
CONTINUOUS
 10
104.8940139794
 20
57.875547046
 11
169.7551160781
 21
57.875547046
  0
LINE
  8
0
 62
9
  6
CONTINUOUS
 10
169.9287265715
 20
57.8865032552
 11
169.7551160781
 21
57.875547046
  0
LINE
  8
0
 62
9
  6
CONTINUOUS
 10
36.7188992391
 20
57.875547046
 11
36.5452887458
 21
57.8865032552
  0
LINE
  8
0
 62
9
  6
CONTINUOUS
 10
180.8876805405
 20
57.9994446765
 11
180.1357062672
 21
57.9994446765
  0
LINE
  8
0
 62
9
  6
CONTINUOUS
 10
170.8085304869
 20
57.9994446765
 11
169.1331119068
 21
57.9994446765
  0
LINE
  8
0
 62
9
  6
CONTINUOUS
 10
153.4069574547
 20
57.9994446765
 11
150.9896521677
 21
57.9994446765
  0
LINE
  8
0
 62
9
  6
CONTINUOUS
 10
130.5686918951
 20
57.9994446765
 11
127.6714524374
 21
57.9994446765
  0
LINE
  8
0
 62
9
  6
CONTINUOUS
 10
104.7686142537
 20
57.9994446765
 11
101.7054014759
 21
57.9994446765
  0
LINE
  8
0
 62
9
  6
CONTINUOUS
 10
78.8025632724
 20
57.9994446765
 11
75.9053238095
 21
57.9994446765
  0
LINE
  8
0
 62
9
  6
CONTINUOUS
 10
55.4843634798
 20
57.9994446765
 11
53.067058183
 21
57.9994446765
  0
LINE
  8
0
 62
9
  6
CONTINUOUS
 10
37.3409036426
 20
57.9994446765
 11
35.6654850492
 21
57.9994446765
  0
LINE
  8
0
 62
9
  6
CONTINUOUS
 10
26.338309159
 20
57.9994446765
 11
25.5863348703
 21
57.9994446765
  0
LINE
  8
0
 62
9
  6
CONTINUOUS
 10
178.7112496622
 20
58.675547046
 11
171.5132069273
 21
58.675547046
  0
LINE
  8
0
 62
9
  6
CONTINUOUS
 10
167.6216561731
 20
58.675547046
 11
154.1542551063
 21
58.675547046
  0
LINE
  8
0
 62
9
  6
CONTINUOUS
 10
149.5549869866
 20
58.675547046
 11
131.3186133236
 21
58.675547046
  0
LINE
  8
0
 62
9
  6
CONTINUOUS
 10
126.4690460425
 20
58.675547046
 11
105.60846206
 21
58.675547046
  0
LINE
  8
0
 62
9
  6
CONTINUOUS
 10
100.8655532573
 20
58.675547046
 11
80.0049692747
 21
58.675547046
  0
LINE
  8
0
 62
9
  6
CONTINUOUS
 10
75.1559885101
 20
58.675547046
 11
56.9190283306
 21
58.675547046
  0
LINE
  8
0
 62
9
  6
CONTINUOUS
 10
52.3197574432
 20
58.675547046
 11
38.8523591442
 21
58.675547046
  0
LINE
  8
0
 62
9
  6
CONTINUOUS
 10
34.9634892692
 20
58.675547046
 11
27.7627656551
 21
58.675547046
  0
LINE
  8
0
 62
9
  6
CONTINUOUS
 10
22.95233631
 20
58.7950621928
 11
23.65848884
 21
58.7950621928
  0
LINE
  8
0
 62
9
  6
CONTINUOUS
 10
24.8677782502
 20
58.7950621928
 11
26.588167227
 21
58.7950621928
  0
LINE
  8
0
 62
9
  6
CONTINUOUS
 10
34.9363568135
 20
58.7950621928
 11
37.823936804
 21
58.7950621928
  0
LINE
  8
0
 62
9
  6
CONTINUOUS
 10
52.3196783804
 20
58.7950621928
 11
56.1482275966
 21
58.7950621928
  0
LINE
  8
0
 62
9
  6
CONTINUOUS
 10
75.1339951546
 20
58.7950621928
 11
79.5753183665
 21
58.7950621928
  0
LINE
  8
0
 62
9
  6
CONTINUOUS
 10
100.907494997
 20
58.7950621928
 11
105.5665203203
 21
58.7950621928
  0
LINE
  8
0
 62
9
  6
CONTINUOUS
 10
126.8986969507
 20
58.7950621928
 11
131.3400190696
 21
58.7950621928
  0
LINE
  8
0
 62
9
  6
CONTINUOUS
 10
150.3257877207
 20
58.7950621928
 11
154.1543369369
 21
58.7950621928
  0
LINE
  8
0
 62
9
  6
CONTINUOUS
 10
168.6500785133
 20
58.7950621928
 11
171.5376585038
 21
58.7950621928
  0
LINE
  8
0
 62
9
  6
CONTINUOUS
 10
179.8858480903
 20
58.7950621928
 11
181.6062371711
 21
58.7950621928
  0
LINE
  8
0
 62
9
  6
CONTINUOUS
 10
182.8155264773
 20
58.7950621928
 11
183.5216790073
 21
58.7950621928
  0
POLYLINE
  8
0
 62
9
  6
CONTINUOUS
 66
1
 70
0
  0
VERTEX
  8
0
 62
9
  6
CONTINUOUS
 10
24.8519773906
 20
58.675547046
  0
VERTEX
  8
0
 62
9
  6
CONTINUOUS
 10
24.7895053884
 20
58.6771996464
  0
VERTEX
  8
0
 62
9
  6
CONTINUOUS
 10
24.7272213246
 20
58.6821207715
  0
SEQEND
  0
POLYLINE
  8
0
 62
9
  6
CONTINUOUS
 66
1
 70
0
  0
VERTEX
  8
0
 62
9
  6
CONTINUOUS
 10
27.7627656551
 20
58.675547046
  0
VERTEX
  8
0
 62
9
  6
CONTINUOUS
 10
27.7012824381
 20
58.6771996464
  0
VERTEX
  8
0
 62
9
  6
CONTINUOUS
 10
27.6399841848
 20
58.6821207715
  0
SEQEND
  0
POLYLINE
  8
0
 62
9
  6
CONTINUOUS
 66
1
 70
0
  0
VERTEX
  8
0
 62
9
  6
CONTINUOUS
 10
38.8523591442
 20
58.675547046
  0
VERTEX
  8
0
 62
9
  6
CONTINUOUS
 10
38.7985273729
 20
58.6771996464
  0
VERTEX
  8
0
 62
9
  6
CONTINUOUS
 10
38.7448575471
 20
58.6821207715
  0
SEQEND
  0
POLYLINE
  8
0
 62
9
  6
CONTINUOUS
 66
1
 70
0
  0
VERTEX
  8
0
 62
9
  6
CONTINUOUS
 10
56.9190283306
 20
58.675547046
  0
VERTEX
  8
0
 62
9
  6
CONTINUOUS
 10
56.8786815128
 20
58.6771996464
  0
VERTEX
  8
0
 62
9
  6
CONTINUOUS
 10
56.8384560728
 20
58.6821207715
  0
SEQEND
  0
POLYLINE
  8
0
 62
9
  6
CONTINUOUS
 66
1
 70
0
  0
VERTEX
  8
0
 62
9
  6
CONTINUOUS
 10
80.0049692747
 20
58.675547046
  0
VERTEX
  8
0
 62
9
  6
CONTINUOUS
 10
79.9824796141
 20
58.6771996464
  0
VERTEX
  8
0
 62
9
  6
CONTINUOUS
 10
79.9600576105
 20
58.6821207715
  0
SEQEND
  0
LINE
  8
0
 62
9
  6
CONTINUOUS
 10
101.5800013379
 20
57.875547046
 11
101.180154328
 21
57.9827791135
  0
LINE
  8
0
 62
7
  6
CONTINUOUS
 10
101.6650659189
 20
57.875547046
 11
101.2653095881
 21
57.9827267229
  0
POLYLINE
  8
0
 62
9
  6
CONTINUOUS
 66
1
 70
0
  0
VERTEX
  8
0
 62
9
  6
CONTINUOUS
 10
101.7054012447
 20
57.9994446765
  0
VERTEX
  8
0
 62
9
  6
CONTINUOUS
 10
101.3071624608
 20
58.1075306256
  0
VERTEX
  8
0
 62
9
  6
CONTINUOUS
 10
101.0153095113
 20
58.3985464179
  0
VERTEX
  8
0
 62
9
  6
CONTINUOUS
 10
100.907494997
 20
58.7950621928
  0
SEQEND
  0
LINE
  8
0
 62
9
  6
CONTINUOUS
 10
79.563168534
 20
63.7564845476
 11
79.1873613243
 21
63.8645908367
  0
LINE
  8
0
 62
7
  6
CONTINUOUS
 10
101.5049568511
 20
57.875547046
 11
103.2370076586
 21
56.875547046
  0
POLYLINE
  8
0
 62
9
  6
CONTINUOUS
 66
1
 70
0
  0
VERTEX
  8
0
 62
9
  6
CONTINUOUS
 10
105.60846206
 20
58.675547046
  0
VERTEX
  8
0
 62
9
  6
CONTINUOUS
 10
105.6062666602
 20
58.6771996464
  0
VERTEX
  8
0
 62
9
  6
CONTINUOUS
 10
105.604077865
 20
58.6821207715
  0
SEQEND
  0
POLYLINE
  8
0
 62
7
  6
CONTINUOUS
 66
1
 70
0
  0
VERTEX
  8
0
 62
7
  6
CONTINUOUS
 10
101.2653095881
 20
57.9827267229
  0
VERTEX
  8
0
 62
7
  6
CONTINUOUS
 10
100.9726676433
 20
58.275547046
  0
VERTEX
  8
0
 62
7
  6
CONTINUOUS
 10
100.8655532573
 20
58.675547046
  0
SEQEND
  0
LINE
  8
0
 62
9
  6
CONTINUOUS
 10
101.180154328
 20
57.9827791135
 11
100.8875584168
 21
58.275624416
  0
LINE
  8
0
 62
9
  6
CONTINUOUS
 10
104.8089493983
 20
57.875547046
 11
104.8075915885
 21
57.8782863687
  0
POLYLINE
  8
0
 62
9
  6
CONTINUOUS
 66
1
 70
0
  0
VERTEX
  8
0
 62
9
  6
CONTINUOUS
 10
100.8699374522
 20
63.0689733204
  0
VERTEX
  8
0
 62
9
  6
CONTINUOUS
 10
100.8677490811
 20
63.0738981133
  0
VERTEX
  8
0
 62
9
  6
CONTINUOUS
 10
100.8655532573
 20
63.075547046
  0
SEQEND
  0
LINE
  8
0
 62
9
  6
CONTINUOUS
 10
101.705401045
 20
63.7516494154
 11
101.6677817572
 21
63.8645908367
  0
LINE
  8
0
 62
9
  6
CONTINUOUS
 10
104.8062335601
 20
57.8865032552
 11
104.7686142537
 21
57.9994446765
  0
LINE
  8
0
 62
9
  6
CONTINUOUS
 10
100.907494997
 20
62.9560318986
 11
100.8699374522
 21
63.0689733204
  0
LINE
  8
0
 62
9
  6
CONTINUOUS
 10
100.8875584168
 20
58.275624416
 11
100.7804886642
 21
58.675547046
  0
POLYLINE
  8
0
 62
9
  6
CONTINUOUS
 66
1
 70
0
  0
VERTEX
  8
0
 62
9
  6
CONTINUOUS
 10
101.6677817572
 20
63.8645908367
  0
VERTEX
  8
0
 62
9
  6
CONTINUOUS
 10
101.6664265534
 20
63.8727912239
  0
VERTEX
  8
0
 62
9
  6
CONTINUOUS
 10
101.6650659189
 20
63.875547046
  0
SEQEND
  0
POLYLINE
  8
0
 62
9
  6
CONTINUOUS
 66
1
 70
0
  0
VERTEX
  8
0
 62
9
  6
CONTINUOUS
 10
104.782375855
 20
62.9560318991
  0
VERTEX
  8
0
 62
9
  6
CONTINUOUS
 10
104.7805769706
 20
63.3316091493
  0
VERTEX
  8
0
 62
9
  6
CONTINUOUS
 10
104.775601445
 20
63.6192619572
  0
VERTEX
  8
0
 62
9
  6
CONTINUOUS
 10
104.7686140726
 20
63.7516494154
  0
SEQEND
  0
LINE
  8
0
 62
9
  6
CONTINUOUS
 10
104.782375855
 20
62.9560318991
 11
104.782375855
 21
58.7950621928
  0
LINE
  8
0
 62
9
  6
CONTINUOUS
 10
105.5665203203
 20
58.7950621933
 11
105.5665203203
 21
62.9560318987
  0
LINE
  8
0
 62
9
  6
CONTINUOUS
 10
105.693526641
 20
58.675547046
 11
105.693526641
 21
63.075547046
  0
POLYLINE
  8
0
 62
9
  6
CONTINUOUS
 66
1
 70
0
  0
VERTEX
  8
0
 62
9
  6
CONTINUOUS
 10
104.7686140726
 20
57.9994446765
  0
VERTEX
  8
0
 62
9
  6
CONTINUOUS
 10
104.775601445
 20
58.1318321348
  0
VERTEX
  8
0
 62
9
  6
CONTINUOUS
 10
104.7805769706
 20
58.4194849426
  0
VERTEX
  8
0
 62
9
  6
CONTINUOUS
 10
104.782375855
 20
58.7950621928
  0
SEQEND
  0
LINE
  8
0
 62
9
  6
CONTINUOUS
 10
104.8075887614
 20
63.8727912239
 11
104.8062335601
 21
63.8645908367
  0
LINE
  8
0
 62
9
  6
CONTINUOUS
 10
105.604077865
 20
63.0689733204
 11
105.5665203203
 21
62.9560318987
  0
POLYLINE
  8
0
 62
9
  6
CONTINUOUS
 66
1
 70
0
  0
VERTEX
  8
0
 62
9
  6
CONTINUOUS
 10
105.2087070174
 20
57.9827274672
  0
VERTEX
  8
0
 62
9
  6
CONTINUOUS
 10
105.5013485043
 20
58.2755484851
  0
VERTEX
  8
0
 62
9
  6
CONTINUOUS
 10
105.60846206
 20
58.675547046
  0
SEQEND
  0
POLYLINE
  8
0
 62
9
  6
CONTINUOUS
 66
1
 70
0
  0
VERTEX
  8
0
 62
9
  6
CONTINUOUS
 10
105.2937703102
 20
57.9827267229
  0
VERTEX
  8
0
 62
9
  6
CONTINUOUS
 10
105.586412255
 20
58.275547046
  0
VERTEX
  8
0
 62
9
  6
CONTINUOUS
 10
105.693526641
 20
58.675547046
  0
SEQEND
  0
LINE
  8
0
 62
7
  6
CONTINUOUS
 10
104.9690584662
 20
57.875547046
 11
103.2370076586
 21
56.875547046
  0
LINE
  8
0
 62
9
  6
CONTINUOUS
 10
126.9108478226
 20
63.7564781309
 11
127.2866537483
 21
63.8645832212
  0
POLYLINE
  8
0
 62
9
  6
CONTINUOUS
 66
1
 70
0
  0
VERTEX
  8
0
 62
9
  6
CONTINUOUS
 10
78.8025631
 20
57.9994446765
  0
VERTEX
  8
0
 62
9
  6
CONTINUOUS
 10
79.17225124
 20
58.1038446686
  0
VERTEX
  8
0
 62
9
  6
CONTINUOUS
 10
79.4591403624
 20
58.3952613928
  0
VERTEX
  8
0
 62
9
  6
CONTINUOUS
 10
79.5753183665
 20
58.7950621928
  0
SEQEND
  0
LINE
  8
0
 62
9
  6
CONTINUOUS
 10
101.1802215058
 20
63.7683537919
 11
101.5800013326
 21
63.875547046
  0
LINE
  8
0
 62
9
  6
CONTINUOUS
 10
76.2514948772
 20
63.8727912239
 11
76.2843026922
 21
63.875547046
  0
POLYLINE
  8
0
 62
9
  6
CONTINUOUS
 66
1
 70
0
  0
VERTEX
  8
0
 62
9
  6
CONTINUOUS
 10
79.2578418929
 20
63.875547046
  0
VERTEX
  8
0
 62
9
  6
CONTINUOUS
 10
79.2224602525
 20
63.8727912239
  0
VERTEX
  8
0
 62
9
  6
CONTINUOUS
 10
79.1873613243
 20
63.8645908367
  0
SEQEND
  0
POLYLINE
  8
0
 62
9
  6
CONTINUOUS
 66
1
 70
0
  0
VERTEX
  8
0
 62
9
  6
CONTINUOUS
 10
80.0049692747
 20
63.075547046
  0
VERTEX
  8
0
 62
9
  6
CONTINUOUS
 10
79.98247527
 20
63.0738981241
  0
VERTEX
  8
0
 62
9
  6
CONTINUOUS
 10
79.9600576105
 20
63.0689733204
  0
SEQEND
  0
LINE
  8
0
 62
9
  6
CONTINUOUS
 10
53.7608622342
 20
63.8727912239
 11
53.8242832628
 21
63.875547046
  0
POLYLINE
  8
0
 62
9
  6
CONTINUOUS
 66
1
 70
0
  0
VERTEX
  8
0
 62
9
  6
CONTINUOUS
 10
56.3052490732
 20
63.875547046
  0
VERTEX
  8
0
 62
9
  6
CONTINUOUS
 10
56.2396805792
 20
63.8727912239
  0
VERTEX
  8
0
 62
9
  6
CONTINUOUS
 10
56.1746414376
 20
63.8645908367
  0
SEQEND
  0
POLYLINE
  8
0
 62
9
  6
CONTINUOUS
 66
1
 70
0
  0
VERTEX
  8
0
 62
9
  6
CONTINUOUS
 10
56.9190283306
 20
63.075547046
  0
VERTEX
  8
0
 62
9
  6
CONTINUOUS
 10
56.8786737194
 20
63.0738981241
  0
VERTEX
  8
0
 62
9
  6
CONTINUOUS
 10
56.8384560728
 20
63.0689733204
  0
SEQEND
  0
POLYLINE
  8
0
 62
9
  6
CONTINUOUS
 66
1
 70
0
  0
VERTEX
  8
0
 62
9
  6
CONTINUOUS
 10
38.4384405176
 20
63.875547046
  0
VERTEX
  8
0
 62
9
  6
CONTINUOUS
 10
38.3497905336
 20
63.8727912239
  0
VERTEX
  8
0
 62
9
  6
CONTINUOUS
 10
38.2618591787
 20
63.8645908367
  0
SEQEND
  0
POLYLINE
  8
0
 62
9
  6
CONTINUOUS
 66
1
 70
0
  0
VERTEX
  8
0
 62
9
  6
CONTINUOUS
 10
38.8523591442
 20
63.075547046
  0
VERTEX
  8
0
 62
9
  6
CONTINUOUS
 10
38.7985169747
 20
63.0738981241
  0
VERTEX
  8
0
 62
9
  6
CONTINUOUS
 10
38.7448575471
 20
63.0689733204
  0
SEQEND
  0
LINE
  8
0
 62
7
  6
CONTINUOUS
 10
26.7203275575
 20
63.8727912239
 11
26.8217843975
 21
63.875547046
  0
POLYLINE
  8
0
 62
9
  6
CONTINUOUS
 66
1
 70
0
  0
VERTEX
  8
0
 62
9
  6
CONTINUOUS
 10
27.593562165
 20
63.875547046
  0
VERTEX
  8
0
 62
9
  6
CONTINUOUS
 10
27.4914372924
 20
63.8727912239
  0
VERTEX
  8
0
 62
9
  6
CONTINUOUS
 10
27.390142451
 20
63.8645908367
  0
SEQEND
  0
POLYLINE
  8
0
 62
9
  6
CONTINUOUS
 66
1
 70
0
  0
VERTEX
  8
0
 62
9
  6
CONTINUOUS
 10
27.7627656551
 20
63.075547046
  0
VERTEX
  8
0
 62
9
  6
CONTINUOUS
 10
27.7012705619
 20
63.0738981241
  0
VERTEX
  8
0
 62
9
  6
CONTINUOUS
 10
27.6399841848
 20
63.0689733204
  0
SEQEND
  0
POLYLINE
  8
0
 62
9
  6
CONTINUOUS
 66
1
 70
0
  0
VERTEX
  8
0
 62
9
  6
CONTINUOUS
 10
24.8519773906
 20
63.075547046
  0
VERTEX
  8
0
 62
9
  6
CONTINUOUS
 10
24.7894933212
 20
63.0738981241
  0
VERTEX
  8
0
 62
9
  6
CONTINUOUS
 10
24.7272213246
 20
63.0689733204
  0
SEQEND
  0
POLYLINE
  8
0
 62
7
  6
CONTINUOUS
 66
1
 70
0
  0
VERTEX
  8
0
 62
7
  6
CONTINUOUS
 10
24.9458248607
 20
63.875547046
  0
VERTEX
  8
0
 62
7
  6
CONTINUOUS
 10
24.841291914
 20
63.8727912239
  0
VERTEX
  8
0
 62
7
  6
CONTINUOUS
 10
24.7376104539
 20
63.8645908367
  0
SEQEND
  0
LINE
  8
0
 62
9
  6
CONTINUOUS
 10
183.5216790073
 20
62.9560318991
 11
182.8155264773
 21
62.9560318991
  0
LINE
  8
0
 62
9
  6
CONTINUOUS
 10
181.6062371711
 20
62.9560318991
 11
179.8858480903
 21
62.9560318991
  0
LINE
  8
0
 62
9
  6
CONTINUOUS
 10
171.5376585038
 20
62.9560318991
 11
168.6500785133
 21
62.9560318991
  0
LINE
  8
0
 62
9
  6
CONTINUOUS
 10
154.1543369369
 20
62.9560318991
 11
150.3257877207
 21
62.9560318991
  0
LINE
  8
0
 62
9
  6
CONTINUOUS
 10
131.3400250922
 20
62.9560318991
 11
126.8986969507
 21
62.9560318991
  0
LINE
  8
0
 62
9
  6
CONTINUOUS
 10
105.5665203203
 20
62.9560318991
 11
100.907494997
 21
62.9560318991
  0
LINE
  8
0
 62
9
  6
CONTINUOUS
 10
79.5753183665
 20
62.9560318991
 11
75.1339951546
 21
62.9560318991
  0
LINE
  8
0
 62
9
  6
CONTINUOUS
 10
56.1482275966
 20
62.9560318991
 11
52.3197574432
 21
62.9560318991
  0
LINE
  8
0
 62
9
  6
CONTINUOUS
 10
37.823936804
 20
62.9560318991
 11
34.9364287716
 21
62.9560318991
  0
LINE
  8
0
 62
9
  6
CONTINUOUS
 10
26.588167227
 20
62.9560318991
 11
24.867812121
 21
62.9560318991
  0
LINE
  8
0
 62
9
  6
CONTINUOUS
 10
23.65848884
 20
62.9560318991
 11
22.95233631
 21
62.9560318991
  0
LINE
  8
0
 62
9
  6
CONTINUOUS
 10
178.7112496622
 20
63.075547046
 11
171.5376308984
 21
63.075547046
  0
LINE
  8
0
 62
9
  6
CONTINUOUS
 10
167.6216561731
 20
63.075547046
 11
154.1542551063
 21
63.075547046
  0
LINE
  8
0
 62
9
  6
CONTINUOUS
 10
149.5549869866
 20
63.075547046
 11
131.3242652458
 21
63.075547046
  0
LINE
  8
0
 62
9
  6
CONTINUOUS
 10
126.4690460425
 20
63.075547046
 11
105.60846206
 21
63.075547046
  0
LINE
  8
0
 62
9
  6
CONTINUOUS
 10
100.8655532573
 20
63.075547046
 11
80.0049692747
 21
63.075547046
  0
LINE
  8
0
 62
9
  6
CONTINUOUS
 10
75.1559885102
 20
63.075547046
 11
56.9190283306
 21
63.075547046
  0
LINE
  8
0
 62
9
  6
CONTINUOUS
 10
52.3197574432
 20
63.075547046
 11
38.8523591442
 21
63.075547046
  0
LINE
  8
0
 62
9
  6
CONTINUOUS
 10
34.9482429411
 20
63.075547046
 11
27.7627656551
 21
63.075547046
  0
LINE
  8
0
 62
9
  6
CONTINUOUS
 10
180.8876805334
 20
63.7516494154
 11
180.1357061534
 21
63.7516494154
  0
LINE
  8
0
 62
9
  6
CONTINUOUS
 10
170.8085304702
 20
63.7516494154
 11
169.1331116642
 21
63.7516494154
  0
LINE
  8
0
 62
9
  6
CONTINUOUS
 10
153.4069574302
 20
63.7516494154
 11
150.9896518226
 21
63.7516494154
  0
LINE
  8
0
 62
9
  6
CONTINUOUS
 10
130.5686918654
 20
63.7516494154
 11
127.6714520272
 21
63.7516494154
  0
LINE
  8
0
 62
9
  6
CONTINUOUS
 10
104.7686142221
 20
63.7516494154
 11
101.705401045
 21
63.7516494154
  0
LINE
  8
0
 62
9
  6
CONTINUOUS
 10
78.8025632423
 20
63.7516494154
 11
75.9053234048
 21
63.7516494154
  0
LINE
  8
0
 62
9
  6
CONTINUOUS
 10
55.4843634545
 20
63.7516494154
 11
53.0670578482
 21
63.7516494154
  0
LINE
  8
0
 62
9
  6
CONTINUOUS
 10
37.3409036248
 20
63.7516494154
 11
35.6654848205
 21
63.7516494154
  0
LINE
  8
0
 62
9
  6
CONTINUOUS
 10
26.3383091506
 20
63.7516494154
 11
25.5863347726
 21
63.7516494154
  0
LINE
  8
0
 62
9
  6
CONTINUOUS
 10
169.9287265715
 20
63.8645908367
 11
169.7551160781
 21
63.875547046
  0
LINE
  8
0
 62
9
  6
CONTINUOUS
 10
152.7133368231
 20
63.875547046
 11
152.6497320545
 21
63.875547046
  0
LINE
  8
0
 62
9
  6
CONTINUOUS
 10
36.7188992391
 20
63.875547046
 11
36.574205065
 21
63.875547046
  0
LINE
  8
AXES
 62
7
  6
CONTINUOUS
 10
179.6522309197
 20
63.875547046
 11
178.8804531523
 21
63.875547046
  0
LINE
  8
AXES
 62
7
  6
CONTINUOUS
 10
169.7551160781
 20
63.875547046
 11
168.0355747997
 21
63.875547046
  0
LINE
  8
AXES
 62
7
  6
CONTINUOUS
 10
152.6497320545
 20
63.875547046
 11
150.1687662441
 21
63.875547046
  0
LINE
  8
AXES
 62
7
  6
CONTINUOUS
 10
130.1897126251
 20
63.875547046
 11
127.2161734244
 21
63.875547046
  0
LINE
  8
AXES
 62
7
  6
CONTINUOUS
 10
104.8089493983
 20
63.875547046
 11
101.6650659189
 21
63.875547046
  0
LINE
  8
AXES
 62
7
  6
CONTINUOUS
 10
56.3052490732
 20
63.875547046
 11
53.8242832628
 21
63.875547046
  0
LINE
  8
AXES
 62
7
  6
CONTINUOUS
 10
27.593562165
 20
63.875547046
 11
26.8217843975
 21
63.875547046
  0
LINE
  8
0
 62
7
  6
CONTINUOUS
 10
24.9458248607
 20
63.875547046
 11
36.574205065
 21
63.875547046
  0
LINE
  8
0
 62
7
  6
CONTINUOUS
 10
36.7188992391
 20
63.875547046
 11
101.5800013379
 21
63.875547046
  0
LINE
  8
0
 62
7
  6
CONTINUOUS
 10
101.6650659189
 20
63.875547046
 11
104.8089493983
 21
63.875547046
  0
LINE
  8
0
 62
7
  6
CONTINUOUS
 10
104.8940139794
 20
63.875547046
 11
152.6497320545
 21
63.875547046
  0
LINE
  8
0
 62
7
  6
CONTINUOUS
 10
152.7133368231
 20
63.875547046
 11
169.7551160781
 21
63.875547046
  0
LINE
  8
0
 62
7
  6
CONTINUOUS
 10
169.9287265715
 20
63.875547046
 11
181.5281904566
 21
63.875547046
  0
LINE
  8
AXES
 62
9
  6
CONTINUOUS
 10
43.2370076586
 20
64.875547046
 11
163.2370076586
 21
64.875547046
  0
LINE
  8
0
 62
9
  6
CONTINUOUS
 10
152.6497320545
 20
63.875547046
 11
152.6873414009
 21
63.8745783693
  0
LINE
  8
0
 62
9
  6
CONTINUOUS
 10
178.9825780243
 20
63.8727912239
 11
178.8804531523
 21
63.875547046
  0
POLYLINE
  8
0
 62
7
  6
CONTINUOUS
 66
1
 70
0
  0
VERTEX
  8
0
 62
7
  6
CONTINUOUS
 10
179.6522309197
 20
63.875547046
  0
VERTEX
  8
0
 62
7
  6
CONTINUOUS
 10
179.7536877591
 20
63.8727912239
  0
VERTEX
  8
0
 62
7
  6
CONTINUOUS
 10
179.854317236
 20
63.8645908367
  0
SEQEND
  0
POLYLINE
  8
0
 62
7
  6
CONTINUOUS
 66
1
 70
0
  0
VERTEX
  8
0
 62
7
  6
CONTINUOUS
 10
169.7551160781
 20
63.875547046
  0
VERTEX
  8
0
 62
7
  6
CONTINUOUS
 10
169.8422776664
 20
63.8727912239
  0
VERTEX
  8
0
 62
7
  6
CONTINUOUS
 10
169.9287265715
 20
63.8645908367
  0
SEQEND
  0
POLYLINE
  8
0
 62
9
  6
CONTINUOUS
 66
1
 70
0
  0
VERTEX
  8
0
 62
9
  6
CONTINUOUS
 10
130.1897126251
 20
63.875547046
  0
VERTEX
  8
0
 62
9
  6
CONTINUOUS
 10
130.2225204377
 20
63.8727912239
  0
VERTEX
  8
0
 62
9
  6
CONTINUOUS
 10
130.2550558204
 20
63.8645908367
  0
SEQEND
  0
LINE
  8
0
 62
9
  6
CONTINUOUS
 10
105.2087057023
 20
63.7683673845
 11
104.8089493983
 21
63.875547046
  0
POLYLINE
  8
0
 62
9
  6
CONTINUOUS
 66
1
 70
0
  0
VERTEX
  8
0
 62
9
  6
CONTINUOUS
 10
127.2161734244
 20
57.875547046
  0
VERTEX
  8
0
 62
9
  6
CONTINUOUS
 10
126.8426097334
 20
57.9827267229
  0
VERTEX
  8
0
 62
9
  6
CONTINUOUS
 10
126.5691421318
 20
58.275547046
  0
VERTEX
  8
0
 62
9
  6
CONTINUOUS
 10
126.4690460425
 20
58.675547046
  0
SEQEND
  0
POLYLINE
  8
0
 62
9
  6
CONTINUOUS
 66
1
 70
0
  0
VERTEX
  8
0
 62
9
  6
CONTINUOUS
 10
126.3447724103
 20
57.875547046
  0
VERTEX
  8
0
 62
9
  6
CONTINUOUS
 10
125.9711235907
 20
57.9827793275
  0
VERTEX
  8
0
 62
9
  6
CONTINUOUS
 10
125.6976991444
 20
58.2756247321
  0
VERTEX
  8
0
 62
9
  6
CONTINUOUS
 10
125.597644904
 20
58.675547046
  0
SEQEND
  0
LINE
  8
0
 62
9
  6
CONTINUOUS
 10
127.286653809
 20
57.886508988
 11
126.9108475779
 21
57.9946143746
  0
POLYLINE
  8
0
 62
9
  6
CONTINUOUS
 66
1
 70
0
  0
VERTEX
  8
0
 62
9
  6
CONTINUOUS
 10
127.6714522173
 20
57.9994446765
  0
VERTEX
  8
0
 62
9
  6
CONTINUOUS
 10
127.295621118
 20
58.1075306256
  0
VERTEX
  8
0
 62
9
  6
CONTINUOUS
 10
127.0129677304
 20
58.3985464179
  0
VERTEX
  8
0
 62
9
  6
CONTINUOUS
 10
126.8986969507
 20
58.7950621928
  0
SEQEND
  0
LINE
  8
0
 62
9
  6
CONTINUOUS
 10
105.604077865
 20
58.6821207715
 11
105.5665203203
 21
58.7950621933
  0
POLYLINE
  8
0
 62
9
  6
CONTINUOUS
 66
1
 70
0
  0
VERTEX
  8
0
 62
9
  6
CONTINUOUS
 10
105.5665203203
 20
62.9560318991
  0
VERTEX
  8
0
 62
9
  6
CONTINUOUS
 10
105.4567854961
 20
63.3558326991
  0
VERTEX
  8
0
 62
9
  6
CONTINUOUS
 10
105.1604120457
 20
63.6472494233
  0
VERTEX
  8
0
 62
9
  6
CONTINUOUS
 10
104.7686140726
 20
63.7516494154
  0
SEQEND
  0
POLYLINE
  8
0
 62
9
  6
CONTINUOUS
 66
1
 70
0
  0
VERTEX
  8
0
 62
9
  6
CONTINUOUS
 10
105.604077865
 20
63.0689733204
  0
VERTEX
  8
0
 62
9
  6
CONTINUOUS
 10
105.4962737446
 20
63.4654714901
  0
VERTEX
  8
0
 62
9
  6
CONTINUOUS
 10
105.2044461945
 20
63.7564845476
  0
SEQEND
  0
POLYLINE
  8
0
 62
9
  6
CONTINUOUS
 66
1
 70
0
  0
VERTEX
  8
0
 62
9
  6
CONTINUOUS
 10
105.693526641
 20
63.075547046
  0
VERTEX
  8
0
 62
9
  6
CONTINUOUS
 10
105.586412255
 20
63.475547046
  0
VERTEX
  8
0
 62
9
  6
CONTINUOUS
 10
105.2937703102
 20
63.768367369
  0
VERTEX
  8
0
 62
9
  6
CONTINUOUS
 10
104.8940139794
 20
63.875547046
  0
SEQEND
  0
LINE
  8
0
 62
9
  6
CONTINUOUS
 10
104.8075915885
 20
57.8782863687
 11
104.8062335601
 21
57.8865032552
  0
POLYLINE
  8
0
 62
9
  6
CONTINUOUS
 66
1
 70
0
  0
VERTEX
  8
0
 62
9
  6
CONTINUOUS
 10
109.7136017655
 20
63.075547046
  0
VERTEX
  8
0
 62
9
  6
CONTINUOUS
 10
109.703970534
 20
63.4755245725
  0
VERTEX
  8
0
 62
9
  6
CONTINUOUS
 10
109.6776554763
 20
63.7683524602
  0
VERTEX
  8
0
 62
9
  6
CONTINUOUS
 10
109.6417045397
 20
63.875547046
  0
SEQEND
  0
LINE
  8
0
 62
7
  6
CONTINUOUS
 10
109.5969434593
 20
57.875547046
 11
109.5969434593
 21
57.575547046
  0
LINE
  8
0
 62
7
  6
CONTINUOUS
 10
109.6566595416
 20
57.875547046
 11
109.6566595416
 21
57.575547046
  0
LINE
  8
0
 62
9
  6
CONTINUOUS
 10
109.7136017914
 20
58.675547046
 11
109.7136017914
 21
63.075547046
  0
LINE
  8
0
 62
7
  6
CONTINUOUS
 10
109.947775454
 20
57.875547046
 11
109.947775454
 21
57.575547046
  0
LINE
  8
0
 62
7
  6
CONTINUOUS
 10
112.4306236248
 20
57.875547046
 11
112.4306236248
 21
57.575547046
  0
LINE
  8
0
 62
7
  6
CONTINUOUS
 10
112.8785962104
 20
57.875547046
 11
112.8785962104
 21
57.575547046
  0
LINE
  8
0
 62
7
  6
CONTINUOUS
 10
112.9548568417
 20
57.875547046
 11
112.9548568417
 21
57.575547046
  0
LINE
  8
0
 62
7
  6
CONTINUOUS
 10
113.3923793751
 20
57.875547046
 11
113.3923793751
 21
57.575547046
  0
LINE
  8
0
 62
7
  6
CONTINUOUS
 10
113.7631738795
 20
57.875547046
 11
113.7631738795
 21
57.575547046
  0
LINE
  8
0
 62
7
  6
CONTINUOUS
 10
114.0594581293
 20
57.875547046
 11
114.0594581293
 21
57.575547046
  0
LINE
  8
0
 62
7
  6
CONTINUOUS
 10
114.1544166391
 20
57.875547046
 11
114.1544166391
 21
57.575547046
  0
LINE
  8
0
 62
7
  6
CONTINUOUS
 10
114.2002955418
 20
57.875547046
 11
114.2002955418
 21
57.575547046
  0
LINE
  8
0
 62
7
  6
CONTINUOUS
 10
114.3806104968
 20
57.875547046
 11
114.3806104968
 21
57.575547046
  0
LINE
  8
0
 62
7
  6
CONTINUOUS
 10
114.6109374338
 20
57.875547046
 11
114.6109374338
 21
57.575547046
  0
POLYLINE
  8
0
 62
9
  6
CONTINUOUS
 66
1
 70
0
  0
VERTEX
  8
0
 62
9
  6
CONTINUOUS
 10
109.6417045168
 20
57.875547046
  0
VERTEX
  8
0
 62
9
  6
CONTINUOUS
 10
109.6776623716
 20
57.9827868041
  0
VERTEX
  8
0
 62
9
  6
CONTINUOUS
 10
109.7039738423
 20
58.2756376758
  0
VERTEX
  8
0
 62
9
  6
CONTINUOUS
 10
109.7136014447
 20
58.675547046
  0
SEQEND
  0
LINE
  8
0
 62
9
  6
CONTINUOUS
 10
126.8986969507
 20
58.7950621921
 11
126.5139577068
 21
58.6821207715
  0
LINE
  8
0
 62
9
  6
CONTINUOUS
 10
127.6714524374
 20
57.9994446765
 11
127.286653993
 21
57.8865032552
  0
LINE
  8
0
 62
9
  6
CONTINUOUS
 10
76.2189594969
 20
63.8645908367
 11
76.2514948772
 21
63.8727912239
  0
LINE
  8
0
 62
9
  6
CONTINUOUS
 10
75.6629855791
 20
63.7087313623
 11
75.9053235923
 21
63.7516494154
  0
LINE
  8
0
 62
9
  6
CONTINUOUS
 10
75.9766918398
 20
63.8216696246
 11
76.2189597718
 21
63.8645832212
  0
LINE
  8
0
 62
9
  6
CONTINUOUS
 10
56.8384560728
 20
63.0689733204
 11
56.1482275966
 21
62.9560318987
  0
LINE
  8
0
 62
9
  6
CONTINUOUS
 10
56.1746414376
 20
63.8645908367
 11
55.4843634545
 21
63.7516494154
  0
LINE
  8
0
 62
7
  6
CONTINUOUS
 10
53.672054035
 20
63.8659640391
 11
53.6096757455
 21
63.8564501009
  0
LINE
  8
0
 62
9
  6
CONTINUOUS
 10
53.6979619832
 20
63.8645908367
 11
53.7608622342
 21
63.8727912239
  0
LINE
  8
0
 62
7
  6
CONTINUOUS
 10
35.6654848205
 20
63.7516494154
 11
36.5452887458
 21
63.8645908367
  0
LINE
  8
0
 62
9
  6
CONTINUOUS
 10
38.7448575471
 20
63.0689733204
 11
37.823936804
 21
62.9560318987
  0
LINE
  8
0
 62
9
  6
CONTINUOUS
 10
38.2618591787
 20
63.8645908367
 11
37.3409036248
 21
63.7516494154
  0
LINE
  8
0
 62
7
  6
CONTINUOUS
 10
36.574205065
 20
63.8690044653
 11
36.5143436812
 21
63.8624557769
  0
LINE
  8
0
 62
7
  6
CONTINUOUS
 10
25.5863347726
 20
63.7516494154
 11
26.6196980813
 21
63.8645908367
  0
LINE
  8
0
 62
9
  6
CONTINUOUS
 10
27.6399841848
 20
63.0689733204
 11
26.588167227
 21
62.9560318987
  0
LINE
  8
0
 62
9
  6
CONTINUOUS
 10
27.390142451
 20
63.8645908367
 11
26.3383091506
 21
63.7516494154
  0
LINE
  8
0
 62
9
  6
CONTINUOUS
 10
24.7272213246
 20
63.0689733204
 11
23.65848884
 21
62.9560318987
  0
LINE
  8
0
 62
7
  6
CONTINUOUS
 10
24.7376104539
 20
63.8645908367
 11
23.668881866
 21
63.7516494154
  0
POLYLINE
  8
0
 62
9
  6
CONTINUOUS
 66
1
 70
0
  0
VERTEX
  8
0
 62
9
  6
CONTINUOUS
 10
36.5452887458
 20
63.8645908367
  0
VERTEX
  8
0
 62
9
  6
CONTINUOUS
 10
36.6317376495
 20
63.8727912239
  0
VERTEX
  8
0
 62
9
  6
CONTINUOUS
 10
36.7188992391
 20
63.875547046
  0
SEQEND
  0
LINE
  8
0
 62
9
  6
CONTINUOUS
 10
52.978714987
 20
63.7435148016
 11
53.0670580034
 21
63.7516494154
  0
LINE
  8
0
 62
9
  6
CONTINUOUS
 10
53.6096757455
 20
63.8564501009
 11
53.6979624872
 21
63.8645832212
  0
LINE
  8
0
 62
7
  6
CONTINUOUS
 10
26.6196980813
 20
63.8645908367
 11
26.7203275575
 21
63.8727912239
  0
LINE
  8
0
 62
9
  6
CONTINUOUS
 10
35.6344974942
 20
63.7495208272
 11
35.6654849265
 21
63.7516494154
  0
LINE
  8
0
 62
9
  6
CONTINUOUS
 10
36.5143436812
 20
63.8624557769
 11
36.5452894244
 21
63.8645832212
  0
LINE
  8
0
 62
9
  6
CONTINUOUS
 10
25.5808591977
 20
63.7512960668
 11
25.5863348179
 21
63.7516494154
  0
LINE
  8
AXES
 62
9
  6
CONTINUOUS
 10
43.2370076586
 20
71.375547046
 11
163.2370076586
 21
71.375547046
  0
POLYLINE
  8
0
 62
9
  6
CONTINUOUS
 66
1
 70
0
  0
VERTEX
  8
0
 62
9
  6
CONTINUOUS
 10
152.6873414009
 20
63.8745783693
  0
VERTEX
  8
0
 62
9
  6
CONTINUOUS
 10
152.7131530811
 20
63.8727912239
  0
VERTEX
  8
0
 62
9
  6
CONTINUOUS
 10
152.7760533341
 20
63.8645908367
  0
SEQEND
  0
LINE
  8
0
 62
9
  6
CONTINUOUS
 10
180.893967578
 20
63.7512066286
 11
180.8876804994
 21
63.7516494154
  0
LINE
  8
0
 62
9
  6
CONTINUOUS
 10
170.8420722035
 20
63.7491885174
 11
170.8085303908
 21
63.7516494154
  0
POLYLINE
  8
0
 62
9
  6
CONTINUOUS
 66
1
 70
0
  0
VERTEX
  8
0
 62
9
  6
CONTINUOUS
 10
181.7467939927
 20
63.0689733204
  0
VERTEX
  8
0
 62
9
  6
CONTINUOUS
 10
181.6845219955
 20
63.0738981133
  0
VERTEX
  8
0
 62
9
  6
CONTINUOUS
 10
181.6220379267
 20
63.075547046
  0
SEQEND
  0
POLYLINE
  8
0
 62
7
  6
CONTINUOUS
 66
1
 70
0
  0
VERTEX
  8
0
 62
7
  6
CONTINUOUS
 10
181.7364048634
 20
63.8645908367
  0
VERTEX
  8
0
 62
7
  6
CONTINUOUS
 10
181.6327234035
 20
63.8727912239
  0
VERTEX
  8
0
 62
7
  6
CONTINUOUS
 10
181.5281904566
 20
63.875547046
  0
SEQEND
  0
POLYLINE
  8
0
 62
9
  6
CONTINUOUS
 66
1
 70
0
  0
VERTEX
  8
0
 62
9
  6
CONTINUOUS
 10
178.8340311325
 20
63.0689733204
  0
VERTEX
  8
0
 62
9
  6
CONTINUOUS
 10
178.7727447548
 20
63.0738981133
  0
VERTEX
  8
0
 62
9
  6
CONTINUOUS
 10
178.7112496622
 20
63.075547046
  0
SEQEND
  0
LINE
  8
0
 62
9
  6
CONTINUOUS
 10
179.0838728663
 20
63.8645908367
 11
178.9825780243
 21
63.8727912239
  0
POLYLINE
  8
0
 62
9
  6
CONTINUOUS
 66
1
 70
0
  0
VERTEX
  8
0
 62
9
  6
CONTINUOUS
 10
167.7291577702
 20
63.0689733204
  0
VERTEX
  8
0
 62
9
  6
CONTINUOUS
 10
167.6754983421
 20
63.0738981133
  0
VERTEX
  8
0
 62
9
  6
CONTINUOUS
 10
167.6216561731
 20
63.075547046
  0
SEQEND
  0
LINE
  8
0
 62
9
  6
CONTINUOUS
 10
152.8643195942
 20
63.8564613453
 11
152.7760533341
 21
63.8645908367
  0
POLYLINE
  8
0
 62
9
  6
CONTINUOUS
 66
1
 70
0
  0
VERTEX
  8
0
 62
9
  6
CONTINUOUS
 10
168.2121561385
 20
63.8645908367
  0
VERTEX
  8
0
 62
9
  6
CONTINUOUS
 10
168.1242247824
 20
63.8727912239
  0
VERTEX
  8
0
 62
9
  6
CONTINUOUS
 10
168.0355747997
 20
63.875547046
  0
SEQEND
  0
LINE
  8
0
 62
9
  6
CONTINUOUS
 10
153.498841107
 20
63.7428697436
 11
153.4069573139
 21
63.7516494154
  0
LINE
  8
0
 62
7
  6
CONTINUOUS
 10
152.8314475969
 20
63.8618767853
 11
152.7133368231
 21
63.87387689
  0
LINE
  8
0
 62
9
  6
CONTINUOUS
 10
182.8155264773
 20
62.9560318986
 11
181.7467939927
 21
63.0689733204
  0
LINE
  8
0
 62
7
  6
CONTINUOUS
 10
182.8051334545
 20
63.7516494154
 11
181.7364048634
 21
63.8645908367
  0
LINE
  8
0
 62
9
  6
CONTINUOUS
 10
179.8858480903
 20
62.9560318986
 11
178.8340311325
 21
63.0689733204
  0
LINE
  8
0
 62
9
  6
CONTINUOUS
 10
180.1357061534
 20
63.7516494154
 11
179.0838728663
 21
63.8645908367
  0
LINE
  8
0
 62
7
  6
CONTINUOUS
 10
179.854317236
 20
63.8645908367
 11
180.8876805334
 21
63.7516494154
  0
POLYLINE
  8
0
 62
9
  6
CONTINUOUS
 66
1
 70
0
  0
VERTEX
  8
0
 62
9
  6
CONTINUOUS
 10
149.6355592445
 20
63.0689733204
  0
VERTEX
  8
0
 62
9
  6
CONTINUOUS
 10
149.5953415976
 20
63.0738981133
  0
VERTEX
  8
0
 62
9
  6
CONTINUOUS
 10
149.5549869866
 20
63.075547046
  0
SEQEND
  0
LINE
  8
0
 62
9
  6
CONTINUOUS
 10
168.6500785133
 20
62.9560318986
 11
167.7291577702
 21
63.0689733204
  0
LINE
  8
0
 62
9
  6
CONTINUOUS
 10
169.1331116642
 20
63.7516494154
 11
168.2121561385
 21
63.8645908367
  0
POLYLINE
  8
0
 62
9
  6
CONTINUOUS
 66
1
 70
0
  0
VERTEX
  8
0
 62
9
  6
CONTINUOUS
 10
150.2993738797
 20
63.8645908367
  0
VERTEX
  8
0
 62
9
  6
CONTINUOUS
 10
150.2343347362
 20
63.8727912239
  0
VERTEX
  8
0
 62
9
  6
CONTINUOUS
 10
150.1687662441
 20
63.875547046
  0
SEQEND
  0
LINE
  8
0
 62
7
  6
CONTINUOUS
 10
169.9287265715
 20
63.8645908367
 11
170.8085304702
 21
63.7516494154
  0
LINE
  8
0
 62
9
  6
CONTINUOUS
 10
150.9896518226
 20
63.7516494154
 11
150.2993738797
 21
63.8645908367
  0
LINE
  8
0
 62
9
  6
CONTINUOUS
 10
150.3257877207
 20
62.9560318986
 11
149.6355592445
 21
63.0689733204
  0
LINE
  8
0
 62
7
  6
CONTINUOUS
 10
152.8643181967
 20
63.8564539519
 11
152.8314475969
 21
63.8618767853
  0
LINE
  8
0
 62
9
  6
CONTINUOUS
 10
130.8055374304
 20
63.7106635579
 11
130.5686917249
 21
63.7516494154
  0
LINE
  8
0
 62
9
  6
CONTINUOUS
 10
130.4973259416
 20
63.8216762757
 11
130.2550558204
 21
63.8645908367
  0
POLYLINE
  8
0
 62
9
  6
CONTINUOUS
 66
1
 70
0
  0
VERTEX
  8
0
 62
9
  6
CONTINUOUS
 10
126.5139577068
 20
63.0689733204
  0
VERTEX
  8
0
 62
9
  6
CONTINUOUS
 10
126.4915400471
 20
63.0738981133
  0
VERTEX
  8
0
 62
9
  6
CONTINUOUS
 10
126.4690460425
 20
63.075547046
  0
SEQEND
  0
POLYLINE
  8
0
 62
9
  6
CONTINUOUS
 66
1
 70
0
  0
VERTEX
  8
0
 62
9
  6
CONTINUOUS
 10
127.286653993
 20
63.8645908367
  0
VERTEX
  8
0
 62
9
  6
CONTINUOUS
 10
127.2515550624
 20
63.8727912239
  0
VERTEX
  8
0
 62
9
  6
CONTINUOUS
 10
127.2161734244
 20
63.875547046
  0
SEQEND
  0
LINE
  8
0
 62
9
  6
CONTINUOUS
 10
126.8986969507
 20
62.9560318986
 11
126.5139577068
 21
63.0689733204
  0
LINE
  8
0
 62
9
  6
CONTINUOUS
 10
127.6714520272
 20
63.7516494154
 11
127.286653993
 21
63.8645908367
  0
LINE
  8
0
 62
7
  6
CONTINUOUS
 10
114.9527581251
 20
57.875547046
 11
114.9527581251
 21
57.575547046
  0
LINE
  8
0
 62
7
  6
CONTINUOUS
 10
115.2716421794
 20
57.875547046
 11
115.2716421794
 21
57.575547046
  0
LINE
  8
0
 62
7
  6
CONTINUOUS
 10
115.579056508
 20
57.875547046
 11
115.579056508
 21
57.575547046
  0
LINE
  8
0
 62
7
  6
CONTINUOUS
 10
115.8749982965
 20
57.875547046
 11
115.8749982965
 21
57.575547046
  0
LINE
  8
0
 62
7
  6
CONTINUOUS
 10
116.1480034481
 20
57.875547046
 11
116.1480034481
 21
57.575547046
  0
LINE
  8
0
 62
7
  6
CONTINUOUS
 10
116.2865725797
 20
57.875547046
 11
116.2865725797
 21
57.575547046
  0
LINE
  8
0
 62
7
  6
CONTINUOUS
 10
116.3521902135
 20
57.875547046
 11
116.3521902135
 21
57.575547046
  0
LINE
  8
0
 62
7
  6
CONTINUOUS
 10
119.4360197099
 20
57.875547046
 11
119.4360197099
 21
57.575547046
  0
POLYLINE
  8
0
 62
9
  6
CONTINUOUS
 66
1
 70
0
  0
VERTEX
  8
0
 62
9
  6
CONTINUOUS
 10
120.2254046065
 20
57.875547046
  0
VERTEX
  8
0
 62
9
  6
CONTINUOUS
 10
120.3207578932
 20
57.9827264919
  0
VERTEX
  8
0
 62
9
  6
CONTINUOUS
 10
120.3905614628
 20
58.2755467104
  0
VERTEX
  8
0
 62
9
  6
CONTINUOUS
 10
120.4161113708
 20
58.675547046
  0
SEQEND
  0
LINE
  8
0
 62
7
  6
CONTINUOUS
 10
130.8082227703
 20
58.0413738172
 11
131.0666404673
 21
58.1928361167
  0
LINE
  8
0
 62
9
  6
CONTINUOUS
 10
130.2550558204
 20
57.8865032552
 11
130.5686918951
 21
57.9994446765
  0
LINE
  8
0
 62
7
  6
CONTINUOUS
 10
130.4973259414
 20
57.9294178161
 11
130.8110285041
 21
58.0423622853
  0
LINE
  8
0
 62
9
  6
CONTINUOUS
 10
149.9866972534
 20
63.7564781309
 11
150.2993734009
 21
63.8645832212
  0
LINE
  8
0
 62
9
  6
CONTINUOUS
 10
150.6769556946
 20
63.643563467
 11
150.9896519825
 21
63.7516494154
  0
LINE
  8
0
 62
9
  6
CONTINUOUS
 10
53.609672621
 20
63.8564572106
 11
53.6979619832
 21
63.8645908367
  0
LINE
  8
0
 62
7
  6
CONTINUOUS
 10
53.609672621
 20
63.8564572106
 11
52.978714987
 21
63.7435148016
  0
LINE
  8
AXES
 62
7
  6
CONTINUOUS
 10
161.2370076586
 20
73.375547046
 11
45.2370076586
 21
73.375547046
  0
LINE
  8
0
 62
9
  6
CONTINUOUS
 10
152.7760533341
 20
63.8645908367
 11
152.8643426929
 21
63.8564572112
  0
LINE
  8
0
 62
7
  6
CONTINUOUS
 10
153.4952989341
 20
63.7435150515
 11
152.8643426929
 21
63.8564572112
  0
POLYLINE
  8
0
 62
9
  6
CONTINUOUS
 66
1
 70
0
  0
VERTEX
  8
0
 62
9
  6
CONTINUOUS
 10
150.2993735195
 20
57.886508988
  0
VERTEX
  8
0
 62
9
  6
CONTINUOUS
 10
149.9866971145
 20
57.9946143746
  0
VERTEX
  8
0
 62
9
  6
CONTINUOUS
 10
149.7438938649
 20
58.2856251794
  0
SEQEND
  0
POLYLINE
  8
0
 62
9
  6
CONTINUOUS
 66
1
 70
0
  0
VERTEX
  8
0
 62
9
  6
CONTINUOUS
 10
150.9896519825
 20
57.9994446765
  0
VERTEX
  8
0
 62
9
  6
CONTINUOUS
 10
150.6769556989
 20
58.1075306256
  0
VERTEX
  8
0
 62
9
  6
CONTINUOUS
 10
150.4341317538
 20
58.3985464179
  0
SEQEND
  0
POLYLINE
  8
0
 62
9
  6
CONTINUOUS
 66
1
 70
0
  0
VERTEX
  8
0
 62
9
  6
CONTINUOUS
 10
150.1687662441
 20
57.875547046
  0
VERTEX
  8
0
 62
9
  6
CONTINUOUS
 10
149.8618766152
 20
57.9827267229
  0
VERTEX
  8
0
 62
9
  6
CONTINUOUS
 10
149.6372178148
 20
58.275547046
  0
VERTEX
  8
0
 62
9
  6
CONTINUOUS
 10
149.5549869866
 20
58.675547046
  0
SEQEND
  0
POLYLINE
  8
0
 62
9
  6
CONTINUOUS
 66
1
 70
0
  0
VERTEX
  8
0
 62
9
  6
CONTINUOUS
 10
148.605458618
 20
57.875547046
  0
VERTEX
  8
0
 62
9
  6
CONTINUOUS
 10
148.2984990062
 20
57.9827793275
  0
VERTEX
  8
0
 62
9
  6
CONTINUOUS
 10
148.0738756184
 20
58.2756247321
  0
VERTEX
  8
0
 62
9
  6
CONTINUOUS
 10
147.9916791373
 20
58.675547046
  0
SEQEND
  0
LINE
  8
0
 62
9
  6
CONTINUOUS
 10
130.8140711665
 20
63.7076243018
 11
130.8055374304
 21
63.7106635579
  0
LINE
  8
0
 62
7
  6
CONTINUOUS
 10
130.8110285041
 20
63.7087318066
 11
130.4973259416
 21
63.8216762757
  0
LINE
  8
0
 62
9
  6
CONTINUOUS
 10
130.2550558204
 20
63.8645908367
 11
130.5686918654
 21
63.7516494154
  0
LINE
  8
0
 62
7
  6
CONTINUOUS
 10
130.8055374304
 20
63.7106635579
 11
131.0941921906
 21
63.5330057521
  0
LINE
  8
0
 62
9
  6
CONTINUOUS
 10
126.9108475779
 20
57.9946143746
 11
126.6282186385
 21
58.2856251794
  0
POLYLINE
  8
0
 62
9
  6
CONTINUOUS
 66
1
 70
0
  0
VERTEX
  8
0
 62
9
  6
CONTINUOUS
 10
120.4161113708
 20
63.075547046
  0
VERTEX
  8
0
 62
9
  6
CONTINUOUS
 10
120.3905614631
 20
63.4755473796
  0
VERTEX
  8
0
 62
9
  6
CONTINUOUS
 10
120.3207578938
 20
63.7683675986
  0
VERTEX
  8
0
 62
9
  6
CONTINUOUS
 10
120.2254046065
 20
63.875547046
  0
SEQEND
  0
LINE
  8
0
 62
7
  6
CONTINUOUS
 10
120.2351038647
 20
57.875547046
 11
120.2351038647
 21
57.575547046
  0
LINE
  8
0
 62
9
  6
CONTINUOUS
 10
120.4161113708
 20
58.675547046
 11
120.4161113708
 21
63.075547046
  0
LINE
  8
0
 62
7
  6
CONTINUOUS
 10
121.6809109591
 20
57.875547046
 11
121.6809109591
 21
57.575547046
  0
LINE
  8
0
 62
7
  6
CONTINUOUS
 10
121.9651232333
 20
57.875547046
 11
121.9651232333
 21
57.575547046
  0
LINE
  8
0
 62
7
  6
CONTINUOUS
 10
122.1550824996
 20
57.875547046
 11
122.1550824996
 21
57.575547046
  0
LINE
  8
0
 62
7
  6
CONTINUOUS
 10
122.2678015771
 20
57.875547046
 11
122.2678015771
 21
57.575547046
  0
LINE
  8
0
 62
7
  6
CONTINUOUS
 10
124.0232976216
 20
57.875547046
 11
124.0232976216
 21
57.575547046
  0
LINE
  8
0
 62
7
  6
CONTINUOUS
 10
124.498798054
 20
57.875547046
 11
124.498798054
 21
57.575547046
  0
LINE
  8
0
 62
7
  6
CONTINUOUS
 10
125.3433730615
 20
57.875547046
 11
125.3433730615
 21
57.575547046
  0
LINE
  8
0
 62
7
  6
CONTINUOUS
 10
125.4416421594
 20
57.875547046
 11
125.4416421594
 21
57.575547046
  0
LINE
  8
0
 62
9
  6
CONTINUOUS
 10
125.5976450284
 20
58.675547046
 11
125.5976450284
 21
63.075547046
  0
LINE
  8
0
 62
7
  6
CONTINUOUS
 10
125.5984382441
 20
57.875547046
 11
125.5984382441
 21
57.575547046
  0
POLYLINE
  8
0
 62
9
  6
CONTINUOUS
 66
1
 70
0
  0
VERTEX
  8
0
 62
9
  6
CONTINUOUS
 10
125.5976450284
 20
63.075547046
  0
VERTEX
  8
0
 62
9
  6
CONTINUOUS
 10
125.6977306018
 20
63.4755275549
  0
VERTEX
  8
0
 62
9
  6
CONTINUOUS
 10
125.9711873628
 20
63.768354168
  0
VERTEX
  8
0
 62
9
  6
CONTINUOUS
 10
126.3447724049
 20
63.875547046
  0
SEQEND
  0
POLYLINE
  8
0
 62
9
  6
CONTINUOUS
 66
1
 70
0
  0
VERTEX
  8
0
 62
9
  6
CONTINUOUS
 10
126.4690460425
 20
63.075547046
  0
VERTEX
  8
0
 62
9
  6
CONTINUOUS
 10
126.5691421318
 20
63.475547046
  0
VERTEX
  8
0
 62
9
  6
CONTINUOUS
 10
126.8426097335
 20
63.768367369
  0
VERTEX
  8
0
 62
9
  6
CONTINUOUS
 10
127.2161734244
 20
63.875547046
  0
SEQEND
  0
POLYLINE
  8
0
 62
9
  6
CONTINUOUS
 66
1
 70
0
  0
VERTEX
  8
0
 62
9
  6
CONTINUOUS
 10
126.5139577068
 20
63.0689733204
  0
VERTEX
  8
0
 62
9
  6
CONTINUOUS
 10
126.6282189532
 20
63.465468064
  0
VERTEX
  8
0
 62
9
  6
CONTINUOUS
 10
126.9108478226
 20
63.7564781309
  0
SEQEND
  0
POLYLINE
  8
0
 62
9
  6
CONTINUOUS
 66
1
 70
0
  0
VERTEX
  8
0
 62
9
  6
CONTINUOUS
 10
126.8986969507
 20
62.9560318991
  0
VERTEX
  8
0
 62
9
  6
CONTINUOUS
 10
127.012967728
 20
63.3525476747
  0
VERTEX
  8
0
 62
9
  6
CONTINUOUS
 10
127.2956211155
 20
63.643563467
  0
VERTEX
  8
0
 62
9
  6
CONTINUOUS
 10
127.6714522173
 20
63.7516494154
  0
SEQEND
  0
POLYLINE
  8
0
 62
9
  6
CONTINUOUS
 66
1
 70
0
  0
VERTEX
  8
0
 62
9
  6
CONTINUOUS
 10
127.6714522173
 20
57.9994446765
  0
VERTEX
  8
0
 62
9
  6
CONTINUOUS
 10
127.7810916242
 20
58.127835896
  0
VERTEX
  8
0
 62
9
  6
CONTINUOUS
 10
127.8617828536
 20
58.4163161948
  0
VERTEX
  8
0
 62
9
  6
CONTINUOUS
 10
127.8910004685
 20
58.7950621928
  0
SEQEND
  0
LINE
  8
0
 62
9
  6
CONTINUOUS
 10
130.5686917249
 20
57.9994446765
 11
130.6933821501
 21
58.1318321348
  0
POLYLINE
  8
0
 62
9
  6
CONTINUOUS
 66
1
 70
0
  0
VERTEX
  8
0
 62
9
  6
CONTINUOUS
 10
132.3407500887
 20
57.875547046
  0
VERTEX
  8
0
 62
9
  6
CONTINUOUS
 10
132.5041474827
 20
57.9827868021
  0
VERTEX
  8
0
 62
9
  6
CONTINUOUS
 10
132.6237104557
 20
58.2756376728
  0
VERTEX
  8
0
 62
9
  6
CONTINUOUS
 10
132.6674598496
 20
58.675547046
  0
SEQEND
  0
POLYLINE
  8
0
 62
9
  6
CONTINUOUS
 66
1
 70
0
  0
VERTEX
  8
0
 62
9
  6
CONTINUOUS
 10
141.7775420258
 20
57.875547046
  0
VERTEX
  8
0
 62
9
  6
CONTINUOUS
 10
141.9938641801
 20
57.9827264919
  0
VERTEX
  8
0
 62
9
  6
CONTINUOUS
 10
142.1522232579
 20
58.2755467104
  0
VERTEX
  8
0
 62
9
  6
CONTINUOUS
 10
142.2101867672
 20
58.675547046
  0
SEQEND
  0
POLYLINE
  8
0
 62
9
  6
CONTINUOUS
 66
1
 70
0
  0
VERTEX
  8
0
 62
9
  6
CONTINUOUS
 10
159.1532145285
 20
57.875547046
  0
VERTEX
  8
0
 62
9
  6
CONTINUOUS
 10
159.4670636883
 20
57.9827264919
  0
VERTEX
  8
0
 62
9
  6
CONTINUOUS
 10
159.696817611
 20
58.2755467104
  0
VERTEX
  8
0
 62
9
  6
CONTINUOUS
 10
159.780913476
 20
58.675547046
  0
SEQEND
  0
LINE
  8
0
 62
9
  6
CONTINUOUS
 10
35.6289975792
 20
63.7688838795
 11
36.0045169245
 21
63.875547046
  0
LINE
  8
0
 62
9
  6
CONTINUOUS
 10
170.8468641287
 20
63.7683675986
 11
170.4694983875
 21
63.875547046
  0
LINE
  8
0
 62
9
  6
CONTINUOUS
 10
130.6933821501
 20
63.6192619572
 11
130.5686917249
 21
63.7516494154
  0
LINE
  8
0
 62
9
  6
CONTINUOUS
 10
126.6282186385
 20
58.2856251794
 11
126.5139577068
 21
58.6821207715
  0
LINE
  8
0
 62
9
  6
CONTINUOUS
 10
130.8142722383
 20
62.9560318991
 11
130.7821709497
 21
63.3316091493
  0
POLYLINE
  8
0
 62
9
  6
CONTINUOUS
 66
1
 70
0
  0
VERTEX
  8
0
 62
9
  6
CONTINUOUS
 10
127.8910004685
 20
62.9560318991
  0
VERTEX
  8
0
 62
9
  6
CONTINUOUS
 10
127.8617828536
 20
63.3347778971
  0
VERTEX
  8
0
 62
9
  6
CONTINUOUS
 10
127.7810916242
 20
63.6232581959
  0
VERTEX
  8
0
 62
9
  6
CONTINUOUS
 10
127.6714522173
 20
63.7516494154
  0
SEQEND
  0
LINE
  8
0
 62
7
  6
CONTINUOUS
 10
125.813761347
 20
57.875547046
 11
125.813761347
 21
57.575547046
  0
LINE
  8
0
 62
7
  6
CONTINUOUS
 10
126.0428072913
 20
57.875547046
 11
126.0428072913
 21
57.575547046
  0
LINE
  8
0
 62
7
  6
CONTINUOUS
 10
126.3079807505
 20
57.875547046
 11
126.3079807505
 21
57.575547046
  0
LINE
  8
0
 62
7
  6
CONTINUOUS
 10
126.6678088054
 20
57.875547046
 11
126.6678088054
 21
57.575547046
  0
LINE
  8
0
 62
9
  6
CONTINUOUS
 10
126.8986969507
 20
58.7950621921
 11
126.8986969507
 21
62.9560318986
  0
LINE
  8
0
 62
7
  6
CONTINUOUS
 10
126.9828326208
 20
57.875547046
 11
126.9828326208
 21
57.575547046
  0
LINE
  8
0
 62
7
  6
CONTINUOUS
 10
127.2169353354
 20
57.875547046
 11
127.2169353354
 21
57.575547046
  0
LINE
  8
0
 62
7
  6
CONTINUOUS
 10
127.4871602695
 20
57.875547046
 11
127.4871602695
 21
57.575547046
  0
LINE
  8
0
 62
7
  6
CONTINUOUS
 10
127.7125863222
 20
57.875547046
 11
127.7125863222
 21
57.575547046
  0
LINE
  8
0
 62
7
  6
CONTINUOUS
 10
127.7985642559
 20
57.875547046
 11
127.7985642559
 21
57.575547046
  0
LINE
  8
0
 62
9
  6
CONTINUOUS
 10
127.8910004685
 20
62.9560318991
 11
127.8910004685
 21
58.7950621928
  0
LINE
  8
0
 62
9
  6
CONTINUOUS
 10
130.8142722383
 20
62.9560318991
 11
130.8142722383
 21
58.7950621928
  0
LINE
  8
0
 62
9
  6
CONTINUOUS
 10
130.7821709497
 20
58.4194849426
 11
130.8142722383
 21
58.7950621928
  0
LINE
  8
0
 62
9
  6
CONTINUOUS
 10
130.6933821501
 20
58.1318321348
 11
130.7821709497
 21
58.4194849426
  0
LINE
  8
0
 62
7
  6
CONTINUOUS
 10
131.0666404673
 20
58.1928361167
 11
131.290283009
 21
58.517369812
  0
POLYLINE
  8
0
 62
9
  6
CONTINUOUS
 66
1
 70
0
  0
VERTEX
  8
0
 62
9
  6
CONTINUOUS
 10
150.9896519825
 20
57.9994446765
  0
VERTEX
  8
0
 62
9
  6
CONTINUOUS
 10
151.203922112
 20
58.127835896
  0
VERTEX
  8
0
 62
9
  6
CONTINUOUS
 10
151.3616183334
 20
58.4163161948
  0
VERTEX
  8
0
 62
9
  6
CONTINUOUS
 10
151.4187188076
 20
58.7950621928
  0
SEQEND
  0
POLYLINE
  8
0
 62
9
  6
CONTINUOUS
 66
1
 70
0
  0
VERTEX
  8
0
 62
9
  6
CONTINUOUS
 10
153.4069573139
 20
57.9994446765
  0
VERTEX
  8
0
 62
9
  6
CONTINUOUS
 10
153.6358386495
 20
58.1318321348
  0
VERTEX
  8
0
 62
9
  6
CONTINUOUS
 10
153.7988190789
 20
58.4194849426
  0
SEQEND
  0
LINE
  8
0
 62
9
  6
CONTINUOUS
 10
167.9964924205
 20
63.7564781309
 11
168.2121554775
 21
63.8645832212
  0
LINE
  8
0
 62
7
  6
CONTINUOUS
 10
153.498841107
 20
58.0082243483
 11
153.884148076
 21
58.1956456791
  0
LINE
  8
0
 62
7
  6
CONTINUOUS
 10
153.498841107
 20
63.7428697436
 11
153.884148076
 21
63.5554484128
  0
POLYLINE
  8
0
 62
9
  6
CONTINUOUS
 66
1
 70
0
  0
VERTEX
  8
0
 62
9
  6
CONTINUOUS
 10
169.1331117766
 20
57.9994446765
  0
VERTEX
  8
0
 62
9
  6
CONTINUOUS
 10
168.9174358031
 20
58.1075306256
  0
VERTEX
  8
0
 62
9
  6
CONTINUOUS
 10
168.7407550426
 20
58.3985464179
  0
VERTEX
  8
0
 62
9
  6
CONTINUOUS
 10
168.6500785133
 20
58.7950621928
  0
SEQEND
  0
POLYLINE
  8
0
 62
9
  6
CONTINUOUS
 66
1
 70
0
  0
VERTEX
  8
0
 62
9
  6
CONTINUOUS
 10
168.2121556413
 20
57.886508988
  0
VERTEX
  8
0
 62
9
  6
CONTINUOUS
 10
167.9964924024
 20
57.9946143746
  0
VERTEX
  8
0
 62
9
  6
CONTINUOUS
 10
167.8198263421
 20
58.2856251794
  0
SEQEND
  0
POLYLINE
  8
0
 62
9
  6
CONTINUOUS
 66
1
 70
0
  0
VERTEX
  8
0
 62
9
  6
CONTINUOUS
 10
168.0355747997
 20
57.875547046
  0
VERTEX
  8
0
 62
9
  6
CONTINUOUS
 10
167.8286154862
 20
57.9827267229
  0
VERTEX
  8
0
 62
9
  6
CONTINUOUS
 10
167.6771107539
 20
58.275547046
  0
VERTEX
  8
0
 62
9
  6
CONTINUOUS
 10
167.6216561731
 20
58.675547046
  0
SEQEND
  0
POLYLINE
  8
0
 62
9
  6
CONTINUOUS
 66
1
 70
0
  0
VERTEX
  8
0
 62
9
  6
CONTINUOUS
 10
165.9497692002
 20
57.875547046
  0
VERTEX
  8
0
 62
9
  6
CONTINUOUS
 10
165.7427626331
 20
57.9827793275
  0
VERTEX
  8
0
 62
9
  6
CONTINUOUS
 10
165.5912817332
 20
58.2756247321
  0
VERTEX
  8
0
 62
9
  6
CONTINUOUS
 10
165.5358502757
 20
58.675547046
  0
SEQEND
  0
LINE
  8
0
 62
9
  6
CONTINUOUS
 10
153.6358386495
 20
63.6192619572
 11
153.4069573139
 21
63.7516494154
  0
LINE
  8
0
 62
7
  6
CONTINUOUS
 10
131.0941921906
 20
63.5330057521
 11
131.312728171
 21
63.163227343
  0
LINE
  8
0
 62
9
  6
CONTINUOUS
 10
130.7821709497
 20
63.3316091493
 11
130.6933821501
 21
63.6192619572
  0
POLYLINE
  8
0
 62
9
  6
CONTINUOUS
 66
1
 70
0
  0
VERTEX
  8
0
 62
9
  6
CONTINUOUS
 10
132.6674601433
 20
63.075547046
  0
VERTEX
  8
0
 62
9
  6
CONTINUOUS
 10
132.6236946374
 20
63.4755244044
  0
VERTEX
  8
0
 62
9
  6
CONTINUOUS
 10
132.5041157406
 20
63.7683523488
  0
VERTEX
  8
0
 62
9
  6
CONTINUOUS
 10
132.3407500859
 20
63.875547046
  0
SEQEND
  0
LINE
  8
0
 62
7
  6
CONTINUOUS
 10
131.3400250922
 20
62.9560318991
 11
131.3400250922
 21
58.7950621928
  0
LINE
  8
0
 62
9
  6
CONTINUOUS
 10
132.6674601673
 20
58.675547046
 11
132.6674601673
 21
63.075547046
  0
LINE
  8
0
 62
7
  6
CONTINUOUS
 10
131.290283009
 20
58.517369812
 11
131.3400190696
 21
58.7950621928
  0
POLYLINE
  8
0
 62
9
  6
CONTINUOUS
 66
1
 70
0
  0
VERTEX
  8
0
 62
9
  6
CONTINUOUS
 10
169.1331117766
 20
57.9994446765
  0
VERTEX
  8
0
 62
9
  6
CONTINUOUS
 10
169.4287931355
 20
58.127835896
  0
VERTEX
  8
0
 62
9
  6
CONTINUOUS
 10
169.6464055163
 20
58.4163161948
  0
SEQEND
  0
POLYLINE
  8
0
 62
9
  6
CONTINUOUS
 66
1
 70
0
  0
VERTEX
  8
0
 62
9
  6
CONTINUOUS
 10
170.8085303908
 20
57.9994446765
  0
VERTEX
  8
0
 62
9
  6
CONTINUOUS
 10
171.1167997926
 20
58.1318321348
  0
VERTEX
  8
0
 62
9
  6
CONTINUOUS
 10
171.3363103933
 20
58.4194849426
  0
VERTEX
  8
0
 62
9
  6
CONTINUOUS
 10
171.4156737047
 20
58.7950621928
  0
SEQEND
  0
POLYLINE
  8
0
 62
7
  6
CONTINUOUS
 66
1
 70
0
  0
VERTEX
  8
0
 62
7
  6
CONTINUOUS
 10
170.8420722035
 20
58.0019055745
  0
VERTEX
  8
0
 62
7
  6
CONTINUOUS
 10
171.212965959
 20
58.1515695176
  0
VERTEX
  8
0
 62
7
  6
CONTINUOUS
 10
171.4734641953
 20
58.4810717721
  0
VERTEX
  8
0
 62
7
  6
CONTINUOUS
 10
171.5376308984
 20
58.7950621928
  0
SEQEND
  0
POLYLINE
  8
0
 62
9
  6
CONTINUOUS
 66
1
 70
0
  0
VERTEX
  8
0
 62
9
  6
CONTINUOUS
 10
180.8876804994
 20
57.9994446765
  0
VERTEX
  8
0
 62
9
  6
CONTINUOUS
 10
181.2419321945
 20
58.1318321348
  0
VERTEX
  8
0
 62
9
  6
CONTINUOUS
 10
181.494185587
 20
58.4194849426
  0
VERTEX
  8
0
 62
9
  6
CONTINUOUS
 10
181.5853869433
 20
58.7950621928
  0
SEQEND
  0
POLYLINE
  8
0
 62
9
  6
CONTINUOUS
 66
1
 70
0
  0
VERTEX
  8
0
 62
9
  6
CONTINUOUS
 10
180.1357062062
 20
57.9994446765
  0
VERTEX
  8
0
 62
9
  6
CONTINUOUS
 10
180.4807571312
 20
58.127835896
  0
VERTEX
  8
0
 62
9
  6
CONTINUOUS
 10
180.7347039934
 20
58.4163161948
  0
VERTEX
  8
0
 62
9
  6
CONTINUOUS
 10
180.8266560143
 20
58.7950621928
  0
SEQEND
  0
POLYLINE
  8
0
 62
7
  6
CONTINUOUS
 66
1
 70
0
  0
VERTEX
  8
0
 62
7
  6
CONTINUOUS
 10
180.8918556291
 20
57.999656963
  0
VERTEX
  8
0
 62
7
  6
CONTINUOUS
 10
181.255166043
 20
58.1328969053
  0
VERTEX
  8
0
 62
7
  6
CONTINUOUS
 10
181.51607515
 20
58.4261041414
  0
SEQEND
  0
LINE
  8
0
 62
7
  6
CONTINUOUS
 10
182.8051334418
 20
57.9994446765
 11
183.1621623112
 21
58.127835896
  0
LINE
  8
0
 62
7
  6
CONTINUOUS
 10
183.1621623112
 20
63.6232581959
 11
182.8051334418
 21
63.7516494154
  0
POLYLINE
  8
0
 62
7
  6
CONTINUOUS
 66
1
 70
0
  0
VERTEX
  8
0
 62
7
  6
CONTINUOUS
 10
180.8918556291
 20
63.7514371289
  0
VERTEX
  8
0
 62
7
  6
CONTINUOUS
 10
181.255166043
 20
63.6181971866
  0
VERTEX
  8
0
 62
7
  6
CONTINUOUS
 10
181.51607515
 20
63.3249899505
  0
SEQEND
  0
POLYLINE
  8
0
 62
7
  6
CONTINUOUS
 66
1
 70
0
  0
VERTEX
  8
0
 62
7
  6
CONTINUOUS
 10
170.8420722035
 20
63.7491885174
  0
VERTEX
  8
0
 62
7
  6
CONTINUOUS
 10
171.212965959
 20
63.5995245743
  0
VERTEX
  8
0
 62
7
  6
CONTINUOUS
 10
171.4734641953
 20
63.2700223198
  0
VERTEX
  8
0
 62
7
  6
CONTINUOUS
 10
171.5376308984
 20
62.9560318991
  0
SEQEND
  0
LINE
  8
0
 62
9
  6
CONTINUOUS
 10
171.1167997926
 20
63.6192619572
 11
170.8085303908
 21
63.7516494154
  0
LINE
  8
0
 62
9
  6
CONTINUOUS
 10
169.4287931355
 20
63.6232581959
 11
169.1331117766
 21
63.7516494154
  0
LINE
  8
0
 62
7
  6
CONTINUOUS
 10
131.312728171
 20
63.163227343
 11
131.3399911868
 21
62.9560318991
  0
LINE
  8
0
 62
9
  6
CONTINUOUS
 10
142.2101867672
 20
58.675547046
 11
142.2101867672
 21
63.075547046
  0
POLYLINE
  8
0
 62
9
  6
CONTINUOUS
 66
1
 70
0
  0
VERTEX
  8
0
 62
9
  6
CONTINUOUS
 10
147.9916793605
 20
63.075547046
  0
VERTEX
  8
0
 62
9
  6
CONTINUOUS
 10
148.073901543
 20
63.4755275549
  0
VERTEX
  8
0
 62
9
  6
CONTINUOUS
 10
148.2985514408
 20
63.768354168
  0
VERTEX
  8
0
 62
9
  6
CONTINUOUS
 10
148.6054586127
 20
63.875547046
  0
SEQEND
  0
POLYLINE
  8
0
 62
9
  6
CONTINUOUS
 66
1
 70
0
  0
VERTEX
  8
0
 62
9
  6
CONTINUOUS
 10
142.2101867672
 20
63.075547046
  0
VERTEX
  8
0
 62
9
  6
CONTINUOUS
 10
142.1522232585
 20
63.4755473796
  0
VERTEX
  8
0
 62
9
  6
CONTINUOUS
 10
141.9938641814
 20
63.7683675986
  0
VERTEX
  8
0
 62
9
  6
CONTINUOUS
 10
141.7775420258
 20
63.875547046
  0
SEQEND
  0
LINE
  8
0
 62
9
  6
CONTINUOUS
 10
147.9916793605
 20
58.675547046
 11
147.9916793605
 21
63.075547046
  0
LINE
  8
0
 62
9
  6
CONTINUOUS
 10
150.3257877207
 20
58.7950621921
 11
150.3257877207
 21
62.9560318986
  0
LINE
  8
0
 62
9
  6
CONTINUOUS
 10
151.4187188076
 20
62.9560318991
 11
151.4187188076
 21
58.7950621928
  0
POLYLINE
  8
0
 62
9
  6
CONTINUOUS
 66
1
 70
0
  0
VERTEX
  8
0
 62
9
  6
CONTINUOUS
 10
149.5549869866
 20
63.075547046
  0
VERTEX
  8
0
 62
9
  6
CONTINUOUS
 10
149.6372178148
 20
63.475547046
  0
VERTEX
  8
0
 62
9
  6
CONTINUOUS
 10
149.8618766154
 20
63.768367369
  0
VERTEX
  8
0
 62
9
  6
CONTINUOUS
 10
150.1687662441
 20
63.875547046
  0
SEQEND
  0
POLYLINE
  8
0
 62
9
  6
CONTINUOUS
 66
1
 70
0
  0
VERTEX
  8
0
 62
9
  6
CONTINUOUS
 10
149.6355592445
 20
63.0689733204
  0
VERTEX
  8
0
 62
9
  6
CONTINUOUS
 10
149.7438940884
 20
63.465468064
  0
VERTEX
  8
0
 62
9
  6
CONTINUOUS
 10
149.9866972534
 20
63.7564781309
  0
SEQEND
  0
POLYLINE
  8
0
 62
9
  6
CONTINUOUS
 66
1
 70
0
  0
VERTEX
  8
0
 62
9
  6
CONTINUOUS
 10
150.3257877207
 20
62.9560318991
  0
VERTEX
  8
0
 62
9
  6
CONTINUOUS
 10
150.4341317495
 20
63.3525476747
  0
VERTEX
  8
0
 62
9
  6
CONTINUOUS
 10
150.6769556946
 20
63.643563467
  0
SEQEND
  0
LINE
  8
0
 62
7
  6
CONTINUOUS
 10
153.884148076
 20
58.1956456791
 11
154.1296963863
 21
58.5980400514
  0
LINE
  8
0
 62
7
  6
CONTINUOUS
 10
153.884148076
 20
63.5554484128
 11
154.1296963863
 21
63.1530540406
  0
LINE
  8
0
 62
9
  6
CONTINUOUS
 10
153.7988190789
 20
63.3316091493
 11
153.6358386495
 21
63.6192619572
  0
LINE
  8
0
 62
9
  6
CONTINUOUS
 10
149.7438938649
 20
58.2856251794
 11
149.6355592445
 21
58.6821207715
  0
LINE
  8
0
 62
9
  6
CONTINUOUS
 10
150.4341317538
 20
58.3985464179
 11
150.3257877207
 21
58.7950621928
  0
POLYLINE
  8
0
 62
9
  6
CONTINUOUS
 66
1
 70
0
  0
VERTEX
  8
0
 62
9
  6
CONTINUOUS
 10
151.4187188076
 20
62.9560318991
  0
VERTEX
  8
0
 62
9
  6
CONTINUOUS
 10
151.3616183334
 20
63.3347778971
  0
VERTEX
  8
0
 62
9
  6
CONTINUOUS
 10
151.203922112
 20
63.6232581959
  0
VERTEX
  8
0
 62
9
  6
CONTINUOUS
 10
150.9896519825
 20
63.7516494154
  0
SEQEND
  0
LINE
  8
0
 62
9
  6
CONTINUOUS
 10
153.857744099
 20
62.9560318991
 11
153.857744099
 21
58.7950621928
  0
LINE
  8
0
 62
7
  6
CONTINUOUS
 10
154.1543369369
 20
62.9560318991
 11
154.1543369369
 21
58.7950621928
  0
LINE
  8
0
 62
7
  6
CONTINUOUS
 10
154.1296963863
 20
58.5980400514
 11
154.1542551063
 21
58.7950621928
  0
LINE
  8
0
 62
9
  6
CONTINUOUS
 10
153.7988190789
 20
58.4194849426
 11
153.857744099
 21
58.7950621928
  0
LINE
  8
0
 62
9
  6
CONTINUOUS
 10
153.857744099
 20
62.9560318991
 11
153.7988190789
 21
63.3316091493
  0
LINE
  8
0
 62
7
  6
CONTINUOUS
 10
154.1296963863
 20
63.1530540406
 11
154.1542551063
 21
62.9560318991
  0
LINE
  8
0
 62
9
  6
CONTINUOUS
 10
159.780913476
 20
58.675547046
 11
159.780913476
 21
63.075547046
  0
LINE
  8
AXES
 62
7
  6
CONTINUOUS
 10
163.2370076586
 20
71.375547046
 11
163.2370076586
 21
64.875547046
  0
LINE
  8
AXES
 62
7
  6
CONTINUOUS
 10
163.2370076586
 20
56.875547046
 11
163.2370076586
 21
50.375547046
  0
LINE
  8
0
 62
9
  6
CONTINUOUS
 10
178.9885925667
 20
63.7564781309
 11
179.0838720946
 21
63.8645832212
  0
LINE
  8
0
 62
9
  6
CONTINUOUS
 10
180.0404223744
 20
63.643563467
 11
180.1357062062
 21
63.7516494154
  0
POLYLINE
  8
0
 62
9
  6
CONTINUOUS
 66
1
 70
0
  0
VERTEX
  8
0
 62
9
  6
CONTINUOUS
 10
180.1357062062
 20
57.9994446765
  0
VERTEX
  8
0
 62
9
  6
CONTINUOUS
 10
180.040422381
 20
58.1075306256
  0
VERTEX
  8
0
 62
9
  6
CONTINUOUS
 10
179.949030907
 20
58.3985464179
  0
SEQEND
  0
POLYLINE
  8
0
 62
9
  6
CONTINUOUS
 66
1
 70
0
  0
VERTEX
  8
0
 62
9
  6
CONTINUOUS
 10
179.0838722858
 20
57.886508988
  0
VERTEX
  8
0
 62
9
  6
CONTINUOUS
 10
178.9885926713
 20
57.9946143746
  0
VERTEX
  8
0
 62
9
  6
CONTINUOUS
 10
178.8972083094
 20
58.2856251794
  0
SEQEND
  0
POLYLINE
  8
0
 62
9
  6
CONTINUOUS
 66
1
 70
0
  0
VERTEX
  8
0
 62
9
  6
CONTINUOUS
 10
176.4981789806
 20
57.875547046
  0
VERTEX
  8
0
 62
9
  6
CONTINUOUS
 10
176.4135578319
 20
57.9827793275
  0
VERTEX
  8
0
 62
9
  6
CONTINUOUS
 10
176.3516347258
 20
58.2756247321
  0
VERTEX
  8
0
 62
9
  6
CONTINUOUS
 10
176.3289751503
 20
58.675547046
  0
SEQEND
  0
POLYLINE
  8
0
 62
9
  6
CONTINUOUS
 66
1
 70
0
  0
VERTEX
  8
0
 62
9
  6
CONTINUOUS
 10
178.8804531523
 20
57.875547046
  0
VERTEX
  8
0
 62
9
  6
CONTINUOUS
 10
178.795851407
 20
57.9827267229
  0
VERTEX
  8
0
 62
9
  6
CONTINUOUS
 10
178.7339186314
 20
58.275547046
  0
VERTEX
  8
0
 62
9
  6
CONTINUOUS
 10
178.7112496622
 20
58.675547046
  0
SEQEND
  0
LINE
  8
0
 62
9
  6
CONTINUOUS
 10
171.3363103933
 20
63.3316091493
 11
171.1167997926
 21
63.6192619572
  0
POLYLINE
  8
0
 62
9
  6
CONTINUOUS
 66
1
 70
0
  0
VERTEX
  8
0
 62
9
  6
CONTINUOUS
 10
159.780913476
 20
63.075547046
  0
VERTEX
  8
0
 62
9
  6
CONTINUOUS
 10
159.6968176118
 20
63.4755473796
  0
VERTEX
  8
0
 62
9
  6
CONTINUOUS
 10
159.4670636901
 20
63.7683675986
  0
VERTEX
  8
0
 62
9
  6
CONTINUOUS
 10
159.1532145285
 20
63.875547046
  0
SEQEND
  0
LINE
  8
0
 62
9
  6
CONTINUOUS
 10
165.5358505735
 20
58.675547046
 11
165.5358505735
 21
63.075547046
  0
LINE
  8
0
 62
9
  6
CONTINUOUS
 10
168.6500785133
 20
58.7950621921
 11
168.6500785133
 21
62.9560318986
  0
POLYLINE
  8
0
 62
9
  6
CONTINUOUS
 66
1
 70
0
  0
VERTEX
  8
0
 62
9
  6
CONTINUOUS
 10
165.5358505735
 20
63.075547046
  0
VERTEX
  8
0
 62
9
  6
CONTINUOUS
 10
165.5912993158
 20
63.4755275549
  0
VERTEX
  8
0
 62
9
  6
CONTINUOUS
 10
165.7427980481
 20
63.768354168
  0
VERTEX
  8
0
 62
9
  6
CONTINUOUS
 10
165.9497691956
 20
63.875547046
  0
SEQEND
  0
POLYLINE
  8
0
 62
9
  6
CONTINUOUS
 66
1
 70
0
  0
VERTEX
  8
0
 62
9
  6
CONTINUOUS
 10
167.6216561731
 20
63.075547046
  0
VERTEX
  8
0
 62
9
  6
CONTINUOUS
 10
167.6771107539
 20
63.475547046
  0
VERTEX
  8
0
 62
9
  6
CONTINUOUS
 10
167.8286154864
 20
63.768367369
  0
VERTEX
  8
0
 62
9
  6
CONTINUOUS
 10
168.0355747997
 20
63.875547046
  0
SEQEND
  0
LINE
  8
0
 62
9
  6
CONTINUOUS
 10
169.6464055163
 20
58.4163161948
 11
169.7252011274
 21
58.7950621928
  0
POLYLINE
  8
0
 62
9
  6
CONTINUOUS
 66
1
 70
0
  0
VERTEX
  8
0
 62
9
  6
CONTINUOUS
 10
167.7291577702
 20
63.0689733204
  0
VERTEX
  8
0
 62
9
  6
CONTINUOUS
 10
167.8198264502
 20
63.465468064
  0
VERTEX
  8
0
 62
9
  6
CONTINUOUS
 10
167.9964924205
 20
63.7564781309
  0
SEQEND
  0
POLYLINE
  8
0
 62
9
  6
CONTINUOUS
 66
1
 70
0
  0
VERTEX
  8
0
 62
9
  6
CONTINUOUS
 10
168.6500785133
 20
62.9560318991
  0
VERTEX
  8
0
 62
9
  6
CONTINUOUS
 10
168.7407550368
 20
63.3525476747
  0
VERTEX
  8
0
 62
9
  6
CONTINUOUS
 10
168.9174357973
 20
63.643563467
  0
VERTEX
  8
0
 62
9
  6
CONTINUOUS
 10
169.1331117766
 20
63.7516494154
  0
SEQEND
  0
LINE
  8
0
 62
7
  6
CONTINUOUS
 10
183.1621623112
 20
58.127835896
 11
183.4249245719
 21
58.4163161948
  0
LINE
  8
0
 62
7
  6
CONTINUOUS
 10
183.4249245719
 20
63.3347778971
 11
183.1621623112
 21
63.6232581959
  0
LINE
  8
0
 62
9
  6
CONTINUOUS
 10
167.8198263421
 20
58.2856251794
 11
167.7291577702
 21
58.6821207715
  0
POLYLINE
  8
0
 62
9
  6
CONTINUOUS
 66
1
 70
0
  0
VERTEX
  8
0
 62
9
  6
CONTINUOUS
 10
169.7252011274
 20
62.9560318991
  0
VERTEX
  8
0
 62
9
  6
CONTINUOUS
 10
169.6464055163
 20
63.3347778971
  0
VERTEX
  8
0
 62
9
  6
CONTINUOUS
 10
169.4287931355
 20
63.6232581959
  0
SEQEND
  0
LINE
  8
0
 62
9
  6
CONTINUOUS
 10
169.7252011274
 20
62.9560318991
 11
169.7252011274
 21
58.7950621928
  0
LINE
  8
0
 62
9
  6
CONTINUOUS
 10
171.4156737047
 20
62.9560318991
 11
171.4156737047
 21
58.7950621928
  0
LINE
  8
0
 62
7
  6
CONTINUOUS
 10
171.5376585038
 20
62.9560318991
 11
171.5376585038
 21
58.7950621928
  0
LINE
  8
0
 62
9
  6
CONTINUOUS
 10
171.4156737047
 20
62.9560318991
 11
171.3363103933
 21
63.3316091493
  0
LINE
  8
0
 62
9
  6
CONTINUOUS
 10
181.7756335471
 20
58.2856251794
 11
181.7467939927
 21
58.6821207715
  0
LINE
  8
0
 62
9
  6
CONTINUOUS
 10
181.6220379267
 20
63.075547046
 11
181.6094647498
 21
63.475547046
  0
LINE
  8
0
 62
9
  6
CONTINUOUS
 10
181.7756334029
 20
63.465468064
 11
181.7718330811
 21
63.7564781309
  0
LINE
  8
0
 62
9
  6
CONTINUOUS
 10
176.3289754905
 20
58.675547046
 11
176.3289754905
 21
63.075547046
  0
LINE
  8
0
 62
9
  6
CONTINUOUS
 10
179.8858480903
 20
58.7950621921
 11
179.8858480903
 21
62.9560318986
  0
LINE
  8
0
 62
9
  6
CONTINUOUS
 10
180.8266560143
 20
62.9560318991
 11
180.8266560143
 21
58.7950621928
  0
LINE
  8
0
 62
9
  6
CONTINUOUS
 10
181.5853869433
 20
62.9560318991
 11
181.5853869433
 21
58.7950621928
  0
LINE
  8
0
 62
7
  6
CONTINUOUS
 10
181.6062371711
 20
62.9560318991
 11
181.6062371711
 21
58.7950621928
  0
LINE
  8
0
 62
9
  6
CONTINUOUS
 10
182.8155264773
 20
58.7950621921
 11
182.8155264773
 21
62.9560318986
  0
LINE
  8
0
 62
7
  6
CONTINUOUS
 10
183.5216790073
 20
62.9560318991
 11
183.5216790073
 21
58.7950621928
  0
LINE
  8
0
 62
9
  6
CONTINUOUS
 10
181.6094647497
 20
58.275547046
 11
181.6220379267
 21
58.675547046
  0
POLYLINE
  8
0
 62
9
  6
CONTINUOUS
 66
1
 70
0
  0
VERTEX
  8
0
 62
9
  6
CONTINUOUS
 10
176.3289754905
 20
63.075547046
  0
VERTEX
  8
0
 62
9
  6
CONTINUOUS
 10
176.351642061
 20
63.4755275549
  0
VERTEX
  8
0
 62
9
  6
CONTINUOUS
 10
176.4135723895
 20
63.768354168
  0
VERTEX
  8
0
 62
9
  6
CONTINUOUS
 10
176.4981789773
 20
63.875547046
  0
SEQEND
  0
POLYLINE
  8
0
 62
9
  6
CONTINUOUS
 66
1
 70
0
  0
VERTEX
  8
0
 62
9
  6
CONTINUOUS
 10
178.7112496622
 20
63.075547046
  0
VERTEX
  8
0
 62
9
  6
CONTINUOUS
 10
178.7339186315
 20
63.475547046
  0
VERTEX
  8
0
 62
9
  6
CONTINUOUS
 10
178.7958514072
 20
63.768367369
  0
VERTEX
  8
0
 62
9
  6
CONTINUOUS
 10
178.8804531523
 20
63.875547046
  0
SEQEND
  0
LINE
  8
0
 62
9
  6
CONTINUOUS
 10
181.7467939927
 20
63.0689733204
 11
181.7756334029
 21
63.465468064
  0
POLYLINE
  8
0
 62
9
  6
CONTINUOUS
 66
1
 70
0
  0
VERTEX
  8
0
 62
9
  6
CONTINUOUS
 10
182.8155264773
 20
62.9560318991
  0
VERTEX
  8
0
 62
9
  6
CONTINUOUS
 10
182.844368736
 20
63.3525476747
  0
VERTEX
  8
0
 62
9
  6
CONTINUOUS
 10
182.8405672392
 20
63.643563467
  0
VERTEX
  8
0
 62
9
  6
CONTINUOUS
 10
182.8051334418
 20
63.7516494154
  0
SEQEND
  0
POLYLINE
  8
0
 62
9
  6
CONTINUOUS
 66
1
 70
0
  0
VERTEX
  8
0
 62
9
  6
CONTINUOUS
 10
178.8340311325
 20
63.0689733204
  0
VERTEX
  8
0
 62
9
  6
CONTINUOUS
 10
178.8972082903
 20
63.465468064
  0
VERTEX
  8
0
 62
9
  6
CONTINUOUS
 10
178.9885925667
 20
63.7564781309
  0
SEQEND
  0
POLYLINE
  8
0
 62
9
  6
CONTINUOUS
 66
1
 70
0
  0
VERTEX
  8
0
 62
9
  6
CONTINUOUS
 10
179.8858480903
 20
62.9560318991
  0
VERTEX
  8
0
 62
9
  6
CONTINUOUS
 10
179.9490309004
 20
63.3525476747
  0
VERTEX
  8
0
 62
9
  6
CONTINUOUS
 10
180.0404223744
 20
63.643563467
  0
SEQEND
  0
LINE
  8
0
 62
7
  6
CONTINUOUS
 10
181.51607515
 20
58.4261041414
 11
181.6062368994
 21
58.7950623269
  0
LINE
  8
0
 62
7
  6
CONTINUOUS
 10
183.4249245719
 20
58.4163161948
 11
183.5200685744
 21
58.7950621928
  0
POLYLINE
  8
0
 62
9
  6
CONTINUOUS
 66
1
 70
0
  0
VERTEX
  8
0
 62
9
  6
CONTINUOUS
 10
181.7364042625
 20
57.886508988
  0
VERTEX
  8
0
 62
9
  6
CONTINUOUS
 10
181.7718332972
 20
57.9946143746
  0
VERTEX
  8
0
 62
9
  6
CONTINUOUS
 10
181.7756335471
 20
58.2856251794
  0
SEQEND
  0
POLYLINE
  8
0
 62
9
  6
CONTINUOUS
 66
1
 70
0
  0
VERTEX
  8
0
 62
9
  6
CONTINUOUS
 10
182.8051334418
 20
57.9994446765
  0
VERTEX
  8
0
 62
9
  6
CONTINUOUS
 10
182.8405672459
 20
58.1075306256
  0
VERTEX
  8
0
 62
9
  6
CONTINUOUS
 10
182.8443687427
 20
58.3985464179
  0
VERTEX
  8
0
 62
9
  6
CONTINUOUS
 10
182.8155264773
 20
58.7950621928
  0
SEQEND
  0
POLYLINE
  8
0
 62
9
  6
CONTINUOUS
 66
1
 70
0
  0
VERTEX
  8
0
 62
9
  6
CONTINUOUS
 10
181.5281904566
 20
57.875547046
  0
VERTEX
  8
0
 62
9
  6
CONTINUOUS
 10
181.5751141914
 20
57.9827267229
  0
VERTEX
  8
0
 62
9
  6
CONTINUOUS
 10
181.6094647497
 20
58.275547046
  0
SEQEND
  0
LINE
  8
0
 62
9
  6
CONTINUOUS
 10
181.5751141917
 20
63.768367369
 11
181.5281904566
 21
63.875547046
  0
LINE
  8
0
 62
9
  6
CONTINUOUS
 10
181.7718330811
 20
63.7564781309
 11
181.7364040647
 21
63.8645832212
  0
LINE
  8
0
 62
7
  6
CONTINUOUS
 10
183.5200685744
 20
62.9560318991
 11
183.4249245719
 21
63.3347778971
  0
LINE
  8
0
 62
7
  6
CONTINUOUS
 10
181.51607515
 20
63.3249899505
 11
181.6062368994
 21
62.956031765
  0
POLYLINE
  8
0
 62
9
  6
CONTINUOUS
 66
1
 70
0
  0
VERTEX
  8
0
 62
9
  6
CONTINUOUS
 10
181.5853869433
 20
62.9560318991
  0
VERTEX
  8
0
 62
9
  6
CONTINUOUS
 10
181.494185587
 20
63.3316091493
  0
VERTEX
  8
0
 62
9
  6
CONTINUOUS
 10
181.2419321945
 20
63.6192619572
  0
VERTEX
  8
0
 62
9
  6
CONTINUOUS
 10
180.8876804994
 20
63.7516494154
  0
SEQEND
  0
POLYLINE
  8
0
 62
9
  6
CONTINUOUS
 66
1
 70
0
  0
VERTEX
  8
0
 62
9
  6
CONTINUOUS
 10
180.8266560143
 20
62.9560318991
  0
VERTEX
  8
0
 62
9
  6
CONTINUOUS
 10
180.7347039934
 20
63.3347778971
  0
VERTEX
  8
0
 62
9
  6
CONTINUOUS
 10
180.4807571312
 20
63.6232581959
  0
VERTEX
  8
0
 62
9
  6
CONTINUOUS
 10
180.1357062062
 20
63.7516494154
  0
SEQEND
  0
LINE
  8
0
 62
9
  6
CONTINUOUS
 10
178.8972083094
 20
58.2856251794
 11
178.8340311325
 21
58.6821207715
  0
LINE
  8
0
 62
9
  6
CONTINUOUS
 10
179.949030907
 20
58.3985464179
 11
179.8858480903
 21
58.7950621928
  0
LINE
  8
0
 62
9
  6
CONTINUOUS
 10
181.6094647498
 20
63.475547046
 11
181.5751141917
 21
63.768367369
  0
ARC
  8
0
 62
7
  6
CONTINUOUS
 10
51.8483920178
 20
123.9310832833
 40
4.42
 50
47.7877971536
 51
130.6315789474
  0
ARC
  8
0
 62
7
  6
CONTINUOUS
 10
42.537360072
 20
134.0455602196
 40
4.42
 50
314.6315789474
 51
37.4753607411
  0
ARC
  8
0
 62
7
  6
CONTINUOUS
 10
45.6873306746
 20
125.5227851588
 40
0.8
 50
223.7323126442
 51
310.6315789474
  0
ARC
  8
0
 62
7
  6
CONTINUOUS
 10
43.6148490654
 20
127.7741003254
 40
0.8
 50
134.6315789474
 51
221.5308452505
  0
ARC
  8
0
 62
7
  6
CONTINUOUS
 10
27.8893286673
 20
167.4397081865
 40
4.42
 50
9.8930603115
 51
92.7368421053
  0
ARC
  8
0
 62
7
  6
CONTINUOUS
 10
36.2387076465
 20
143.6863654596
 40
4.42
 50
28.8404287325
 51
111.6842105263
  0
ARC
  8
0
 62
7
  6
CONTINUOUS
 10
30.7163383866
 20
156.2760992673
 40
4.42
 50
295.6842105263
 51
18.5279923201
  0
ARC
  8
0
 62
7
  6
CONTINUOUS
 10
24.0050291072
 20
172.4799868159
 40
0.8
 50
185.8375758021
 51
272.7368421053
  0
ARC
  8
0
 62
7
  6
CONTINUOUS
 10
23.75233631
 20
175.5295353645
 40
0.8
 50
96.7368421053
 51
183.6361084084
  0
ARC
  8
0
 62
7
  6
CONTINUOUS
 10
30.928294355
 20
147.1923178849
 40
0.8
 50
204.7849442232
 51
291.6842105263
  0
ARC
  8
0
 62
7
  6
CONTINUOUS
 10
29.6991063556
 20
149.9945842645
 40
0.8
 50
115.6842105263
 51
202.5834768294
  0
ARC
  8
0
 62
7
  6
CONTINUOUS
 10
73.0268302703
 20
110.3146530162
 40
4.42
 50
66.7351655746
 51
149.5789473684
  0
ARC
  8
0
 62
7
  6
CONTINUOUS
 10
60.9361304255
 20
116.8578125627
 40
4.42
 50
333.5789473684
 51
56.4227291622
  0
ARC
  8
0
 62
7
  6
CONTINUOUS
 10
97.479010002
 20
104.3126261582
 40
4.42
 50
85.6825339957
 51
168.5263157895
  0
ARC
  8
0
 62
7
  6
CONTINUOUS
 10
83.9188571929
 20
106.5754154506
 40
4.42
 50
352.5263157895
 51
75.3700975833
  0
ARC
  8
0
 62
7
  6
CONTINUOUS
 10
66.6827674706
 20
109.8196187457
 40
0.8
 50
242.6796810653
 51
329.5789473684
  0
ARC
  8
0
 62
7
  6
CONTINUOUS
 10
63.991577792
 20
111.2760177684
 40
0.8
 50
153.5789473684
 51
240.4782136716
  0
ARC
  8
0
 62
7
  6
CONTINUOUS
 10
91.6394233885
 20
101.7845003863
 40
0.8
 50
261.6270494863
 51
348.5263157895
  0
ARC
  8
0
 62
7
  6
CONTINUOUS
 10
88.6211578001
 20
102.2881598326
 40
0.8
 50
172.5263157895
 51
259.4255820926
  0
ARC
  8
DEFAULT_3
 62
2
  6
PHANTOM
 10
96.8419612764
 20
154.1658711109
 40
3.2
 50
2.2544307753
 51
45.0
  0
ARC
  8
DEFAULT_3
 62
2
  6
PHANTOM
 10
95.427747714
 20
155.5800846733
 40
3.2
 50
45.0
 51
86.4096221093
  0
ARC
  8
DEFAULT_3
 62
2
  6
PHANTOM
 10
95.8285343543
 20
161.9675231324
 40
3.2
 50
225.0
 51
266.4096221093
  0
ARC
  8
DEFAULT_3
 62
2
  6
PHANTOM
 10
84.6239514153
 20
173.1721060713
 40
3.2
 50
183.5903778907
 51
225.0
  0
ARC
  8
DEFAULT_3
 62
2
  6
PHANTOM
 10
78.2365129562
 20
172.7713194311
 40
3.2
 50
3.5903778907
 51
45.0
  0
ARC
  8
DEFAULT_3
 62
2
  6
PHANTOM
 10
76.8222993938
 20
174.1855329934
 40
3.2
 50
45.0
 51
87.7455692247
  0
ARC
  8
DEFAULT_3
 62
2
  6
PHANTOM
 10
77.0740567547
 20
180.5805793757
 40
3.2
 50
92.2544307753
 51
267.7455692247
  0
ARC
  8
0
 62
7
  6
CONTINUOUS
 10
35.7058117373
 20
216.4900878997
 40
4.42
 50
331.9983234694
 51
54.8421052632
  0
ARC
  8
0
 62
7
  6
CONTINUOUS
 10
27.7050398464
 20
192.6170682083
 40
4.42
 50
350.9456918904
 51
73.7894736842
  0
ARC
  8
0
 62
7
  6
CONTINUOUS
 10
31.0798891097
 20
205.9440465619
 40
4.42
 50
257.7894736842
 51
340.633255478
  0
ARC
  8
0
 62
7
  6
CONTINUOUS
 10
26.754056491
 20
181.1404058576
 40
4.42
 50
276.7368421053
 51
359.580623899
  0
ARC
  8
0
 62
7
  6
CONTINUOUS
 10
25.6677781462
 20
198.6454806443
 40
0.8
 50
166.8902073811
 51
253.7894736842
  0
ARC
  8
0
 62
7
  6
CONTINUOUS
 10
26.4189637369
 20
201.6118454581
 40
0.8
 50
77.7894736842
 51
164.6887399873
  0
ARC
  8
0
 62
7
  6
CONTINUOUS
 10
51.0246365607
 20
236.4717551491
 40
4.42
 50
313.0509550483
 51
35.8947368421
  0
ARC
  8
0
 62
7
  6
CONTINUOUS
 10
61.873466354
 20
244.9157383149
 40
4.42
 50
219.8947368421
 51
302.7385186359
  0
ARC
  8
0
 62
7
  6
CONTINUOUS
 10
43.2250651561
 20
227.9991620419
 40
4.42
 50
238.8421052632
 51
321.6858870569
  0
ARC
  8
0
 62
7
  6
CONTINUOUS
 10
53.1196783804
 20
242.4803316451
 40
0.8
 50
128.995470539
 51
215.8947368421
  0
ARC
  8
0
 62
7
  6
CONTINUOUS
 10
55.5344483392
 20
244.3598225459
 40
0.8
 50
39.8947368421
 51
126.7940031452
  0
ARC
  8
0
 62
7
  6
CONTINUOUS
 10
35.7363568135
 20
222.8533621145
 40
0.8
 50
147.94283896
 51
234.8421052632
  0
ARC
  8
0
 62
7
  6
CONTINUOUS
 10
37.4100181774
 20
225.415091538
 40
0.8
 50
58.8421052632
 51
145.7413715663
  0
ARC
  8
DEFAULT_3
 62
2
  6
PHANTOM
 10
76.8222993938
 20
186.975625758
 40
3.2
 50
272.2544307753
 51
315.0
  0
ARC
  8
DEFAULT_3
 62
2
  6
PHANTOM
 10
78.2365129562
 20
188.3898393203
 40
3.2
 50
315.0
 51
356.4096221093
  0
ARC
  8
DEFAULT_3
 62
2
  6
PHANTOM
 10
84.6239514153
 20
187.98905268
 40
3.2
 50
135.0
 51
176.4096221093
  0
ARC
  8
DEFAULT_3
 62
2
  6
PHANTOM
 10
95.8285343543
 20
199.193635619
 40
3.2
 50
93.5903778907
 51
135.0
  0
ARC
  8
DEFAULT_3
 62
2
  6
PHANTOM
 10
95.427747714
 20
205.5810740781
 40
3.2
 50
273.5903778907
 51
315.0
  0
ARC
  8
DEFAULT_3
 62
2
  6
PHANTOM
 10
96.8419612764
 20
206.9952876405
 40
3.2
 50
315.0
 51
357.7455692247
  0
ARC
  8
0
 62
7
  6
CONTINUOUS
 10
96.3631812208
 20
256.7560723843
 40
4.42
 50
275.1562182062
 51
358.0
  0
ARC
  8
0
 62
7
  6
CONTINUOUS
 10
72.001481951
 20
250.3967462625
 40
4.42
 50
294.1035866273
 51
16.9473684211
  0
ARC
  8
0
 62
7
  6
CONTINUOUS
 10
85.0042490737
 20
254.860601854
 40
4.42
 50
200.9473684211
 51
283.7911502148
  0
ARC
  8
0
 62
7
  6
CONTINUOUS
 10
101.7070076586
 20
260.2108821818
 40
0.8
 50
91.1007336969
 51
178.0
  0
ARC
  8
0
 62
7
  6
CONTINUOUS
 10
75.9339902251
 20
255.3995025437
 40
0.8
 50
110.0481021179
 51
196.9473684211
  0
ARC
  8
0
 62
7
  6
CONTINUOUS
 10
78.8281909847
 20
256.3930829195
 40
0.8
 50
20.9473684211
 51
107.8466347242
  0
ARC
  8
0
 62
7
  6
CONTINUOUS
 10
122.5551581244
 20
106.5754154506
 40
4.42
 50
104.6299024167
 51
187.4736842105
  0
ARC
  8
0
 62
7
  6
CONTINUOUS
 10
108.9950053153
 20
104.3126261582
 40
4.42
 50
11.4736842105
 51
94.3174660043
  0
ARC
  8
0
 62
7
  6
CONTINUOUS
 10
133.447185047
 20
110.3146530162
 40
4.42
 50
30.4210526316
 51
113.2648344254
  0
ARC
  8
0
 62
7
  6
CONTINUOUS
 10
117.8528575172
 20
102.2881598326
 40
0.8
 50
280.5744179074
 51
7.4736842105
  0
ARC
  8
0
 62
7
  6
CONTINUOUS
 10
114.8345919287
 20
101.7845003863
 40
0.8
 50
191.4736842105
 51
278.3729505137
  0
ARC
  8
0
 62
7
  6
CONTINUOUS
 10
142.4824375253
 20
111.2760177684
 40
0.8
 50
299.5217863284
 51
26.4210526316
  0
ARC
  8
0
 62
7
  6
CONTINUOUS
 10
139.7912478466
 20
109.8196187457
 40
0.8
 50
210.4210526316
 51
297.3203189347
  0
ARC
  8
DEFAULT_3
 62
2
  6
PHANTOM
 10
110.645480963
 20
161.9675231324
 40
3.2
 50
273.5903778907
 51
315.0
  0
ARC
  8
DEFAULT_3
 62
2
  6
PHANTOM
 10
111.0462676033
 20
155.5800846733
 40
3.2
 50
93.5903778907
 51
135.0
  0
ARC
  8
DEFAULT_3
 62
2
  6
PHANTOM
 10
109.6320540409
 20
154.1658711109
 40
3.2
 50
135.0
 51
177.7455692247
  0
ARC
  8
DEFAULT_3
 62
2
  6
PHANTOM
 10
103.2370076586
 20
154.4176284718
 40
3.2
 50
182.2544307753
 51
357.7455692247
  0
ARC
  8
0
 62
7
  6
CONTINUOUS
 10
103.2370076586
 20
180.5805793757
 40
80.445
 50
164.6887399873
 51
166.8902073811
  0
ARC
  8
0
 62
7
  6
CONTINUOUS
 10
103.2370076586
 20
180.5805793757
 40
80.445
 50
145.7413715663
 51
147.94283896
  0
ARC
  8
0
 62
7
  6
CONTINUOUS
 10
103.2370076586
 20
180.5805793757
 40
80.445
 50
126.7940031452
 51
128.995470539
  0
ARC
  8
0
 62
7
  6
CONTINUOUS
 10
103.2370076586
 20
180.5805793757
 40
80.445
 50
107.8466347242
 51
110.0481021179
  0
ARC
  8
0
 62
7
  6
CONTINUOUS
 10
103.2370076586
 20
180.5805793757
 40
80.445
 50
88.8992663031
 51
91.1007336969
  0
ARC
  8
0
 62
7
  6
CONTINUOUS
 10
103.2370076586
 20
180.5805793757
 40
80.445
 50
183.6361084084
 51
185.8375758021
  0
ARC
  8
0
 62
7
  6
CONTINUOUS
 10
103.2370076586
 20
180.5805793757
 40
80.445
 50
69.9518978821
 51
72.1533652758
  0
ARC
  8
0
 62
7
  6
CONTINUOUS
 10
103.2370076586
 20
180.5805793757
 40
80.445
 50
202.5834768295
 51
204.7849442232
  0
ARC
  8
0
 62
7
  6
CONTINUOUS
 10
103.2370076586
 20
180.5805793757
 40
80.445
 50
51.004529461
 51
53.2059968548
  0
ARC
  8
0
 62
7
  6
CONTINUOUS
 10
103.2370076586
 20
180.5805793757
 40
80.445
 50
221.5308452505
 51
223.7323126442
  0
ARC
  8
0
 62
7
  6
CONTINUOUS
 10
103.2370076586
 20
180.5805793757
 40
80.445
 50
32.05716104
 51
34.2586284337
  0
ARC
  8
0
 62
7
  6
CONTINUOUS
 10
103.2370076586
 20
180.5805793757
 40
80.445
 50
13.1097926189
 51
15.3112600127
  0
ARC
  8
0
 62
7
  6
CONTINUOUS
 10
103.2370076586
 20
180.5805793757
 40
80.445
 50
240.4782136716
 51
242.6796810653
  0
ARC
  8
0
 62
7
  6
CONTINUOUS
 10
103.2370076586
 20
180.5805793757
 40
80.445
 50
259.4255820926
 51
261.6270494863
  0
ARC
  8
0
 62
7
  6
CONTINUOUS
 10
103.2370076586
 20
180.5805793757
 40
80.445
 50
354.1624241979
 51
356.3638915916
  0
ARC
  8
0
 62
7
  6
CONTINUOUS
 10
103.2370076586
 20
180.5805793757
 40
80.445
 50
278.3729505137
 51
280.5744179074
  0
ARC
  8
0
 62
7
  6
CONTINUOUS
 10
103.2370076586
 20
180.5805793757
 40
80.445
 50
335.2150557768
 51
337.4165231705
  0
ARC
  8
0
 62
7
  6
CONTINUOUS
 10
103.2370076586
 20
180.5805793757
 40
80.445
 50
297.3203189347
 51
299.5217863284
  0
ARC
  8
0
 62
7
  6
CONTINUOUS
 10
103.2370076586
 20
180.5805793757
 40
80.445
 50
316.2676873558
 51
318.4691547495
  0
ARC
  8
0
 62
7
  6
CONTINUOUS
 10
103.2370076586
 20
180.5805793757
 40
72.065
 50
95.1562182062
 51
103.7911502148
  0
ARC
  8
0
 62
7
  6
CONTINUOUS
 10
103.2370076586
 20
180.5805793757
 40
72.065
 50
76.2088497852
 51
84.8437817938
  0
ARC
  8
0
 62
7
  6
CONTINUOUS
 10
103.2370076586
 20
180.5805793757
 40
72.065
 50
114.1035866273
 51
122.7385186359
  0
ARC
  8
0
 62
7
  6
CONTINUOUS
 10
103.2370076586
 20
180.5805793757
 40
72.065
 50
133.0509550483
 51
141.6858870569
  0
ARC
  8
0
 62
7
  6
CONTINUOUS
 10
103.2370076586
 20
180.5805793757
 40
72.065
 50
151.9983234694
 51
160.633255478
  0
ARC
  8
0
 62
7
  6
CONTINUOUS
 10
103.2370076586
 20
180.5805793757
 40
72.065
 50
170.9456918904
 51
179.580623899
  0
ARC
  8
0
 62
7
  6
CONTINUOUS
 10
103.2370076586
 20
180.5805793757
 40
72.065
 50
189.8930603115
 51
198.5279923201
  0
ARC
  8
0
 62
7
  6
CONTINUOUS
 10
103.2370076586
 20
180.5805793757
 40
72.065
 50
208.8404287325
 51
217.4753607411
  0
ARC
  8
0
 62
7
  6
CONTINUOUS
 10
103.2370076586
 20
180.5805793757
 40
72.065
 50
227.7877971536
 51
236.4227291622
  0
ARC
  8
0
 62
7
  6
CONTINUOUS
 10
103.2370076586
 20
180.5805793757
 40
72.065
 50
246.7351655746
 51
255.3700975833
  0
ARC
  8
0
 62
7
  6
CONTINUOUS
 10
103.2370076586
 20
180.5805793757
 40
72.065
 50
265.6825339957
 51
274.3174660043
  0
ARC
  8
0
 62
7
  6
CONTINUOUS
 10
103.2370076586
 20
180.5805793757
 40
72.065
 50
284.6299024167
 51
293.2648344254
  0
ARC
  8
0
 62
7
  6
CONTINUOUS
 10
103.2370076586
 20
180.5805793757
 40
72.065
 50
303.5772708378
 51
312.2122028464
  0
ARC
  8
0
 62
7
  6
CONTINUOUS
 10
103.2370076586
 20
180.5805793757
 40
72.065
 50
322.5246392589
 51
331.1595712675
  0
ARC
  8
0
 62
7
  6
CONTINUOUS
 10
103.2370076586
 20
180.5805793757
 40
72.065
 50
341.4720076799
 51
350.1069396885
  0
ARC
  8
0
 62
7
  6
CONTINUOUS
 10
103.2370076586
 20
180.5805793757
 40
72.065
 50
0.419376101
 51
9.0543081096
  0
ARC
  8
0
 62
7
  6
CONTINUOUS
 10
103.2370076586
 20
180.5805793757
 40
72.065
 50
19.366744522
 51
28.0016765306
  0
ARC
  8
0
 62
7
  6
CONTINUOUS
 10
103.2370076586
 20
180.5805793757
 40
72.065
 50
38.3141129431
 51
46.9490449517
  0
ARC
  8
0
 62
7
  6
CONTINUOUS
 10
103.2370076586
 20
180.5805793757
 40
72.065
 50
57.2614813641
 51
65.8964133727
  0
CIRCLE
  8
AXES
 62
7
  6
CONTINUOUS
 10
103.2370076586
 20
180.5805793757
 40
60.0
  0
CIRCLE
  8
DEFAULT_3
 62
2
  6
PHANTOM
 10
103.2370076586
 20
180.5805793757
 40
9.525
  0
ARC
  8
DEFAULT_3
 62
2
  6
PHANTOM
 10
129.3999585625
 20
180.5805793757
 40
3.2
 50
272.2544307753
 51
87.7455692247
  0
ARC
  8
DEFAULT_3
 62
2
  6
PHANTOM
 10
129.6517159234
 20
174.1855329934
 40
3.2
 50
92.2544307753
 51
135.0
  0
ARC
  8
DEFAULT_3
 62
2
  6
PHANTOM
 10
128.2375023611
 20
172.7713194311
 40
3.2
 50
135.0
 51
176.4096221093
  0
ARC
  8
DEFAULT_3
 62
2
  6
PHANTOM
 10
121.850063902
 20
173.1721060713
 40
3.2
 50
315.0
 51
356.4096221093
  0
ARC
  8
0
 62
7
  6
CONTINUOUS
 10
145.5378848918
 20
116.8578125627
 40
4.42
 50
123.5772708378
 51
206.4210526316
  0
ARC
  8
0
 62
7
  6
CONTINUOUS
 10
163.9366552453
 20
134.0455602196
 40
4.42
 50
142.5246392589
 51
225.3684210526
  0
ARC
  8
0
 62
7
  6
CONTINUOUS
 10
154.6256232995
 20
123.9310832833
 40
4.42
 50
49.3684210526
 51
132.2122028464
  0
ARC
  8
0
 62
7
  6
CONTINUOUS
 10
162.8591662519
 20
127.7741003254
 40
0.8
 50
318.4691547495
 51
45.3684210526
  0
ARC
  8
0
 62
7
  6
CONTINUOUS
 10
160.7866846427
 20
125.5227851588
 40
0.8
 50
229.3684210526
 51
316.2676873558
  0
ARC
  8
0
 62
7
  6
CONTINUOUS
 10
175.7576769306
 20
156.2760992673
 40
4.42
 50
161.4720076799
 51
244.3157894737
  0
ARC
  8
0
 62
7
  6
CONTINUOUS
 10
170.2353076708
 20
143.6863654596
 40
4.42
 50
68.3157894737
 51
151.1595712675
  0
ARC
  8
0
 62
7
  6
CONTINUOUS
 10
178.58468665
 20
167.4397081865
 40
4.42
 50
87.2631578947
 51
170.1069396885
  0
ARC
  8
0
 62
7
  6
CONTINUOUS
 10
176.7749089617
 20
149.9945842645
 40
0.8
 50
337.4165231705
 51
64.3157894737
  0
ARC
  8
0
 62
7
  6
CONTINUOUS
 10
175.5457209623
 20
147.1923178849
 40
0.8
 50
248.3157894737
 51
335.2150557768
  0
ARC
  8
0
 62
7
  6
CONTINUOUS
 10
182.7216790073
 20
175.5295353645
 40
0.8
 50
356.3638915916
 51
83.2631578947
  0
ARC
  8
0
 62
7
  6
CONTINUOUS
 10
182.4689862101
 20
172.4799868159
 40
0.8
 50
267.2631578947
 51
354.1624241979
  0
ARC
  8
DEFAULT_3
 62
2
  6
PHANTOM
 10
129.6517159234
 20
186.975625758
 40
3.2
 50
225.0
 51
267.7455692247
  0
ARC
  8
DEFAULT_3
 62
2
  6
PHANTOM
 10
103.2370076586
 20
206.7435302796
 40
3.2
 50
2.2544307753
 51
177.7455692247
  0
ARC
  8
DEFAULT_3
 62
2
  6
PHANTOM
 10
109.6320540409
 20
206.9952876405
 40
3.2
 50
182.2544307753
 51
225.0
  0
ARC
  8
DEFAULT_3
 62
2
  6
PHANTOM
 10
111.0462676033
 20
205.5810740781
 40
3.2
 50
225.0
 51
266.4096221093
  0
ARC
  8
DEFAULT_3
 62
2
  6
PHANTOM
 10
110.645480963
 20
199.193635619
 40
3.2
 50
45.0
 51
86.4096221093
  0
ARC
  8
DEFAULT_3
 62
2
  6
PHANTOM
 10
121.850063902
 20
187.98905268
 40
3.2
 50
3.5903778907
 51
45.0
  0
ARC
  8
DEFAULT_3
 62
2
  6
PHANTOM
 10
128.2375023611
 20
188.3898393203
 40
3.2
 50
183.5903778907
 51
225.0
  0
ARC
  8
0
 62
7
  6
CONTINUOUS
 10
110.1108340965
 20
256.7560723843
 40
4.42
 50
182.0
 51
264.8437817938
  0
ARC
  8
0
 62
7
  6
CONTINUOUS
 10
134.4725333663
 20
250.3967462625
 40
4.42
 50
163.0526315789
 51
245.8964133727
  0
ARC
  8
0
 62
7
  6
CONTINUOUS
 10
121.4697662436
 20
254.860601854
 40
4.42
 50
256.2088497852
 51
339.0526315789
  0
CIRCLE
  8
0
 62
7
  6
CONTINUOUS
 10
103.2370076586
 20
248.5805793757
 40
1.7320508076
  0
ARC
  8
0
 62
7
  6
CONTINUOUS
 10
104.7670076586
 20
260.2108821818
 40
0.8
 50
2.0
 51
88.8992663031
  0
ARC
  8
0
 62
7
  6
CONTINUOUS
 10
130.5400250922
 20
255.3995025437
 40
0.8
 50
343.0526315789
 51
69.9518978821
  0
ARC
  8
0
 62
7
  6
CONTINUOUS
 10
127.6458243326
 20
256.3930829195
 40
0.8
 50
72.1533652758
 51
159.0526315789
  0
ARC
  8
0
 62
7
  6
CONTINUOUS
 10
179.7199588263
 20
181.1404058576
 40
4.42
 50
180.419376101
 51
263.2631578947
  0
ARC
  8
0
 62
7
  6
CONTINUOUS
 10
175.3941262076
 20
205.9440465619
 40
4.42
 50
199.366744522
 51
282.2105263158
  0
ARC
  8
0
 62
7
  6
CONTINUOUS
 10
178.7689754708
 20
192.6170682083
 40
4.42
 50
106.2105263158
 51
189.0543081096
  0
ARC
  8
0
 62
7
  6
CONTINUOUS
 10
170.76820358
 20
216.4900878997
 40
4.42
 50
125.1578947368
 51
208.0016765306
  0
ARC
  8
0
 62
7
  6
CONTINUOUS
 10
180.0550515804
 20
201.6118454581
 40
0.8
 50
15.3112600127
 51
102.2105263158
  0
ARC
  8
0
 62
7
  6
CONTINUOUS
 10
180.8062371711
 20
198.6454806443
 40
0.8
 50
286.2105263158
 51
13.1097926189
  0
ARC
  8
0
 62
7
  6
CONTINUOUS
 10
155.4493787566
 20
236.4717551491
 40
4.42
 50
144.1052631579
 51
226.9490449517
  0
ARC
  8
0
 62
7
  6
CONTINUOUS
 10
163.2489501611
 20
227.9991620419
 40
4.42
 50
218.3141129431
 51
301.1578947368
  0
ARC
  8
0
 62
7
  6
CONTINUOUS
 10
144.6005489633
 20
244.9157383149
 40
4.42
 50
237.2614813641
 51
320.1052631579
  0
ARC
  8
0
 62
7
  6
CONTINUOUS
 10
153.3543369369
 20
242.4803316451
 40
0.8
 50
324.1052631579
 51
51.004529461
  0
ARC
  8
0
 62
7
  6
CONTINUOUS
 10
169.0639971399
 20
225.415091538
 40
0.8
 50
34.2586284337
 51
121.1578947368
  0
ARC
  8
0
 62
7
  6
CONTINUOUS
 10
150.9395669781
 20
244.3598225459
 40
0.8
 50
53.2059968548
 51
140.1052631579
  0
ARC
  8
0
 62
7
  6
CONTINUOUS
 10
170.7376585038
 20
222.8533621145
 40
0.8
 50
305.1578947368
 51
32.05716104
  0
ARC
  8
AXES
 62
7
  6
CONTINUOUS
 10
161.2370076586
 20
71.375547046
 40
2.0
 50
0.0
 51
90.0
  0
ARC
  8
AXES
 62
7
  6
CONTINUOUS
 10
45.2370076586
 20
71.375547046
 40
2.0
 50
90.0
 51
180.0
  0
ARC
  8
AXES
 62
7
  6
CONTINUOUS
 10
161.2370076586
 20
50.375547046
 40
2.0
 50
270.0
 51
360.0
  0
ARC
  8
AXES
 62
7
  6
CONTINUOUS
 10
45.2370076586
 20
50.375547046
 40
2.0
 50
180.0
 51
270.0
  0
ARC
  8
AXES
 62
7
  6
CONTINUOUS
 10
164.2370076586
 20
64.875547046
 40
1.0
 50
180.0
 51
270.0
  0
ARC
  8
AXES
 62
7
  6
CONTINUOUS
 10
42.2370076586
 20
64.875547046
 40
1.0
 50
270.0
 51
360.0
  0
ARC
  8
AXES
 62
7
  6
CONTINUOUS
 10
164.2370076586
 20
56.875547046
 40
1.0
 50
90.0
 51
180.0
  0
ARC
  8
AXES
 62
7
  6
CONTINUOUS
 10
42.2370076586
 20
56.875547046
 40
1.0
 50
0.0
 51
90.0
  0
ENDSEC
  0
EOF
